  0
SECTION
  2
HEADER
  9
$ACADVER
  1
AC1003
  9
$EXTMIN
 10
-4.29780219E+02
 20
-2.76750000E+02
  9
$EXTMAX
 10
3.99799805E+02
 20
2.76250000E+02
  9
$LIMMIN
 10
-4.29781219E+02
 20
-2.76751000E+02
  9
$LIMMAX
 10
3.99800805E+02
 20
2.76251000E+02
  9
$SNAPUNIT
 10
1
 20
1
  9
$SNAPBASE
 10
0
 20
0
  9
$GRIDMODE
 70
0
  9
$GRIDUNIT
 10
0
 20
0
  9
$LTSCALE
 40
1.38263337E+01
  9
$TEXTSIZE
 40
3.2
  9
$DIMTAD
 70
0
  9
$LUNITS
 70
2
  9
$LUPREC
 70
4
  9
$FILLETRAD
 40
0
  9
$AUNITS
 70
0
  9
$AUPREC
 70
0
  0
ENDSEC
  0
SECTION
  2
TABLES
  0
TABLE
  2
LTYPE
 70
2
  0
LTYPE
  2
CONTINUOUS
 70
64
  3
Solid-Line
 72
65
 73
0
 40
0
  0
LTYPE
  2
DASHED
 70
64
  3
DASHED
 72
65
 73
2
 40
.75
 49
.5
 49
-.25
  0
LTYPE
  2
HIDDEN
 70
64
  3
HIDDEN
 72
65
 73
2
 40
.375
 49
.25
 49
-.125
  0
LTYPE
  2
CENTER
 70
64
  3
CENTER
 72
65
 73
4
 40
2
 49
1.25
 49
-.25
 49
.25
 49
-.25
  0
LTYPE
  2
PHANTOM
 70
64
  3
PHANTOM
 72
65
 73
6
 40
2.5
 49
1.25
 49
-.25
 49
.25
 49
-.25
 49
.25
 49
-.25
  0
ENDTAB
  0
TABLE
  2
LAYER
 70
1
  0
LAYER
  2
1
 70
0
 62
7
  6
CONTINUOUS
 0
ENDTAB
  0
TABLE
  2
STYLE
 70
2
  0
STYLE
  2
MONOTXT
 70
0
 40
0
 41
1
 50
0
 71
0
 42
.2
  3
monotxt
  0
STYLE
  2
BIGFONT
 70
0
 40
0
 41
1
 50
0
 71
0
 42
.2
  3
txt
  4
bigfont
  0
ENDTAB
  0
ENDSEC
  0
SECTION
  2
ENTITIES
  0
LINE
  8
0
  6
PHANTOM
 10
-7.92500000E+01
 20
1.38814801E+02
 11
-7.92500000E+01
 21
3.71367846E+01
  0
LINE
  8
0
  6
PHANTOM
 10
6.72499809E+01
 20
1.39735760E+02
 11
6.72499809E+01
 21
3.71367846E+01
  0
LINE
  8
0
 62
7
 10
-1.99749943E+02
 20
7.13694342E+01
 11
-1.93249973E+02
 21
7.13694342E+01
  0
LINE
  8
0
 62
2
 10
-1.99749943E+02
 20
7.21894262E+01
 11
-1.93249973E+02
 21
7.21894262E+01
  0
LINE
  8
0
 62
2
 10
-1.99749943E+02
 20
8.45494573E+01
 11
-1.93249973E+02
 21
8.45494573E+01
  0
LINE
  8
0
 62
7
 10
-1.99749943E+02
 20
8.53694494E+01
 11
-1.93249973E+02
 21
8.53694494E+01
  0
ARC
  8
0
 62
4
 10
-2.05372753E+02
 20
6.88431852E+01
 40
5.62281017E+00
 50
3.25615753E+02
 51
3.43842467E+01
  0
ARC
  8
0
 62
4
 10
-2.20767463E+02
 20
7.83694646E+01
 40
2.10175199E+01
 50
3.42412047E+02
 51
1.75879537E+01
  0
ARC
  8
0
 62
4
 10
-2.05372753E+02
 20
8.78957441E+01
 40
5.62281003E+00
 50
3.25615753E+02
 51
3.43842476E+01
  0
ARC
  8
0
 62
4
 10
-2.02127133E+02
 20
6.88431852E+01
 40
5.62281017E+00
 50
1.45615753E+02
 51
2.14384247E+02
  0
ARC
  8
0
 62
4
 10
-1.86732423E+02
 20
7.83694646E+01
 40
2.10175199E+01
 50
1.62412046E+02
 51
1.97587953E+02
  0
ARC
  8
0
 62
4
 10
-2.02127133E+02
 20
8.78957441E+01
 40
5.62281003E+00
 50
1.45615752E+02
 51
2.14384247E+02
  0
LINE
  8
0
 62
4
 10
-2.06767462E+02
 20
6.56677587E+01
 11
-2.00732423E+02
 21
6.56677587E+01
  0
LINE
  8
0
 62
4
 10
-1.99749943E+02
 20
6.73694647E+01
 11
-2.00732423E+02
 21
6.56677586E+01
  0
LINE
  8
0
 62
4
 10
-2.07749943E+02
 20
6.73694647E+01
 11
-2.06767462E+02
 21
6.56677588E+01
  0
LINE
  8
0
 62
4
 10
-1.99749943E+02
 20
8.93694647E+01
 11
-2.00732423E+02
 21
9.10711707E+01
  0
LINE
  8
0
 62
4
 10
-2.07749943E+02
 20
8.93694646E+01
 11
-2.06767462E+02
 21
9.10711705E+01
  0
LINE
  8
0
 62
4
 10
-1.99749943E+02
 20
6.73694647E+01
 11
-1.99749943E+02
 21
8.93694647E+01
  0
LINE
  8
0
 62
4
 10
-2.07749943E+02
 20
6.73694647E+01
 11
-2.07749943E+02
 21
8.93694647E+01
  0
LINE
  8
0
 62
4
 10
-2.06767462E+02
 20
7.20186117E+01
 11
-2.00732423E+02
 21
7.20186117E+01
  0
LINE
  8
0
 62
4
 10
-2.06767462E+02
 20
8.47203176E+01
 11
-2.00732423E+02
 21
8.47203176E+01
  0
LINE
  8
0
 62
4
 10
-2.06767462E+02
 20
9.10711706E+01
 11
-2.00732423E+02
 21
9.10711706E+01
  0
LINE
  8
0
 62
7
 10
1.78750011E+02
 20
6.33694647E+01
 11
1.78750011E+02
 21
9.33694647E+01
  0
ARC
  8
0
 62
7
 10
-1.90249973E+02
 20
7.83694647E+01
 40
8.00000000E+00
 50
3.31044960E+02
 51
2.89550399E+01
  0
ARC
  8
0
 62
7
 10
1.79250011E+02
 20
7.83694647E+01
 40
1.50000000E+01
 50
1.54158025E+02
 51
1.80000019E+02
  0
ARC
  8
0
 62
7
 10
2.92500267E+01
 20
9.38694647E+01
 40
5.00000000E-01
 50
5.46415133E-05
 51
9.00000369E+01
  0
ARC
  8
0
 62
7
 10
-1.66749989E+02
 20
9.38694647E+01
 40
5.00000000E-01
 50
9.00000369E+01
 51
1.80000019E+02
  0
ARC
  8
0
 62
7
 10
-1.79750019E+02
 20
9.28694647E+01
 40
5.00000000E-01
 50
9.00000369E+01
 51
1.80000019E+02
  0
ARC
  8
0
 62
7
 10
-1.74999996E+02
 20
9.33780706E+01
 40
2.50000000E-01
 50
9.20007969E+01
 51
1.80000019E+02
  0
ARC
  8
0
 62
7
 10
1.79250011E+02
 20
7.83694647E+01
 40
1.50000000E+01
 50
1.79999977E+02
 51
2.05841971E+02
  0
ARC
  8
0
 62
7
 10
1.83606075E+02
 20
8.65967138E+01
 40
4.85604811E+00
 50
1.45615617E+02
 51
2.14384366E+02
  0
ARC
  8
0
 62
7
 10
1.96901470E+02
 20
7.83694647E+01
 40
1.81514263E+01
 50
1.62411981E+02
 51
1.97588002E+02
  0
ARC
  8
0
 62
7
 10
-1.74999996E+02
 20
6.33608587E+01
 40
2.50000000E-01
 50
1.79999977E+02
 51
2.67999192E+02
  0
ARC
  8
0
 62
7
 10
-1.79750019E+02
 20
6.38694647E+01
 40
5.00000000E-01
 50
1.79999977E+02
 51
2.69999974E+02
  0
ARC
  8
0
 62
7
 10
-1.66749989E+02
 20
6.28694647E+01
 40
5.00000000E-01
 50
1.79999977E+02
 51
2.69999974E+02
  0
ARC
  8
0
 62
7
 10
2.92500267E+01
 20
6.28694647E+01
 40
5.00000000E-01
 50
2.69999963E+02
 51
3.59999945E+02
  0
ARC
  8
0
 62
7
 10
1.83606075E+02
 20
7.01422155E+01
 40
4.85604811E+00
 50
1.45615617E+02
 51
2.14384366E+02
  0
ARC
  8
0
 62
7
 10
1.67598629E+02
 20
7.83694647E+01
 40
1.81514263E+01
 50
3.42411962E+02
 51
1.75879830E+01
  0
ARC
  8
0
 62
7
 10
1.80894009E+02
 20
8.65967138E+01
 40
4.85604811E+00
 50
3.25615599E+02
 51
3.43843471E+01
  0
ARC
  8
0
 62
7
 10
1.80894009E+02
 20
7.01422155E+01
 40
4.85604811E+00
 50
3.25615599E+02
 51
3.43843471E+01
  0
LINE
  8
0
 62
7
 10
-1.93249973E+02
 20
7.21894262E+01
 11
-1.90249973E+02
 21
7.21894262E+01
  0
LINE
  8
0
 62
7
 10
-1.93249973E+02
 20
8.45494573E+01
 11
-1.90249973E+02
 21
8.45494573E+01
  0
LINE
  8
0
 62
7
 10
-1.90249948E+02
 20
7.13694282E+01
 11
-1.87249958E+02
 21
7.03694468E+01
  0
LINE
  8
0
 62
7
 10
-1.90249961E+02
 20
7.83694482E+01
 11
-1.87249968E+02
 21
7.44964702E+01
  0
LINE
  8
0
 62
7
 10
-1.87249970E+02
 20
8.63694783E+01
 11
-1.90249975E+02
 21
8.53694461E+01
  0
LINE
  8
0
 62
7
 10
-1.90249975E+02
 20
7.83694632E+01
 11
-1.87249974E+02
 21
8.22424502E+01
  0
LINE
  8
0
 62
7
 10
-1.87249973E+02
 20
8.63694799E+01
 11
-1.80249989E+02
 21
8.63694799E+01
  0
LINE
  8
0
 62
2
 10
-1.88634581E+02
 20
8.04549269E+01
 11
-1.83249967E+02
 21
7.44964889E+01
  0
LINE
  8
0
 62
2
 10
-1.88634578E+02
 20
7.62840077E+01
 11
-1.83249960E+02
 21
8.22424500E+01
  0
LINE
  8
0
 62
7
 10
-1.87249958E+02
 20
7.44964788E+01
 11
-1.83249973E+02
 21
7.44964788E+01
  0
LINE
  8
0
 62
7
 10
-1.87249958E+02
 20
8.22424505E+01
 11
-1.83249973E+02
 21
8.22424505E+01
  0
LINE
  8
0
 62
7
 10
-2.14249953E+02
 20
7.28694234E+01
 11
-2.12749941E+02
 21
7.13694110E+01
  0
LINE
  8
0
 62
7
 10
-2.14249858E+02
 20
8.38693627E+01
 11
-2.12749912E+02
 21
8.53693548E+01
  0
LINE
  8
0
 62
7
 10
-1.93249973E+02
 20
8.53694494E+01
 11
-1.93249973E+02
 21
7.13694342E+01
  0
LINE
  8
0
 62
7
 10
-2.12749943E+02
 20
8.53694494E+01
 11
-2.12749943E+02
 21
7.13694342E+01
  0
LINE
  8
0
 62
2
 10
-2.13569889E+02
 20
7.21894262E+01
 11
-2.07749943E+02
 21
7.21894262E+01
  0
LINE
  8
0
 62
2
 10
-2.13569889E+02
 20
8.45494573E+01
 11
-2.07749943E+02
 21
8.45494573E+01
  0
LINE
  8
0
 62
7
 10
-2.12749943E+02
 20
7.13694342E+01
 11
-2.07749943E+02
 21
7.13694342E+01
  0
LINE
  8
0
 62
7
 10
-2.12749943E+02
 20
8.53694494E+01
 11
-2.07749943E+02
 21
8.53694494E+01
  0
LINE
  8
0
 62
7
 10
-2.14249943E+02
 20
7.28694189E+01
 11
-2.14249943E+02
 21
8.38694494E+01
  0
LINE
  8
0
 62
7
 10
-1.83249973E+02
 20
7.44964788E+01
 11
-1.83249973E+02
 21
8.22424505E+01
  0
LINE
  8
0
 62
7
 10
-1.87249973E+02
 20
8.22424505E+01
 11
-1.87249973E+02
 21
8.63694342E+01
  0
LINE
  8
0
 62
7
 10
-1.87249973E+02
 20
7.03694494E+01
 11
-1.80249989E+02
 21
7.03694494E+01
  0
LINE
  8
0
 62
7
 10
-1.90249973E+02
 20
7.13694342E+01
 11
-1.90249973E+02
 21
8.53694494E+01
  0
LINE
  8
0
 62
7
 10
-1.87249973E+02
 20
7.44964788E+01
 11
-1.87249973E+02
 21
7.03694494E+01
  0
LINE
  8
0
  6
CENTER
 62
2
 10
-1.52500134E+01
 20
8.89897650E+01
 11
-1.52500134E+01
 21
1.04918232E+02
  0
LINE
  8
0
  6
CENTER
 62
2
 10
-1.47249943E+02
 20
8.93600500E+01
 11
-1.47249943E+02
 21
1.04918232E+02
  0
LINE
  8
0
 62
2
 10
1.72250015E+02
 20
7.83694633E+01
 11
1.78750023E+02
 21
8.49078235E+01
  0
LINE
  8
0
 62
2
 10
1.65750013E+02
 20
8.49078184E+01
 11
1.72250017E+02
 21
7.83694582E+01
  0
LINE
  8
0
 62
7
 10
1.65750011E+02
 20
8.49078253E+01
 11
1.78750027E+02
 21
8.49078253E+01
  0
LINE
  8
0
 62
7
 10
1.04750019E+02
 20
6.33694647E+01
 11
1.04750019E+02
 21
9.33694647E+01
  0
LINE
  8
0
 62
7
 10
1.65750011E+02
 20
7.83694647E+01
 11
1.65750011E+02
 21
8.49078253E+01
  0
LINE
  8
0
 62
7
 10
-2.82499695E+01
 20
1.00369449E+02
 11
-3.47499924E+01
 21
1.00369449E+02
  0
LINE
  8
0
  6
CENTER
 62
2
 10
3.11371803E+01
 20
9.68694647E+01
 11
-1.68560329E+02
 21
9.68694647E+01
  0
LINE
  8
0
 62
7
 10
-1.67249981E+02
 20
6.28400457E+01
 11
-1.67249981E+02
 21
9.38988836E+01
  0
LINE
  8
0
 62
7
 10
-1.75249973E+02
 20
6.33694342E+01
 11
-1.75249973E+02
 21
9.33694952E+01
  0
LINE
  8
0
 62
7
 10
2.75001526E+00
 20
1.03369465E+02
 11
2.77500114E+01
 21
1.03369465E+02
  0
LINE
  8
0
 62
7
 10
-1.66749989E+02
 20
9.43694647E+01
 11
-1.65249973E+02
 21
9.43694647E+01
  0
LINE
  8
0
 62
7
 10
-1.65249973E+02
 20
5.41550329E+01
 11
-1.65249973E+02
 21
1.02583896E+02
  0
LINE
  8
0
 62
7
 10
-1.60249973E+02
 20
1.03369465E+02
 11
-1.34249992E+02
 21
1.03369465E+02
  0
LINE
  8
0
 62
7
 10
-1.65250097E+02
 20
1.02583892E+02
 11
-1.34250061E+02
 21
1.03395657E+02
  0
LINE
  8
0
 62
7
 10
-1.60249973E+02
 20
1.02714863E+02
 11
-1.60249973E+02
 21
1.03369465E+02
  0
LINE
  8
0
 62
7
 10
2.77500114E+01
 20
5.33694647E+01
 11
2.77500114E+01
 21
1.03369465E+02
  0
LINE
  8
0
 62
7
 10
2.97500191E+01
 20
6.28694647E+01
 11
2.97500191E+01
 21
9.38694647E+01
  0
LINE
  8
0
 62
7
 10
2.92500267E+01
 20
9.43694647E+01
 11
2.77500114E+01
 21
9.43694647E+01
  0
LINE
  8
0
 62
7
 10
-2.24998474E+00
 20
1.02714863E+02
 11
-2.24998474E+00
 21
1.03369465E+02
  0
LINE
  8
0
 62
7
 10
1.04750019E+02
 20
9.33694647E+01
 11
1.78750027E+02
 21
9.33694647E+01
  0
LINE
  8
0
 62
7
 10
1.07750027E+02
 20
6.33694647E+01
 11
1.07750027E+02
 21
9.33694647E+01
  0
LINE
  8
0
 62
7
 10
-1.75008733E+02
 20
9.36279225E+01
 11
-1.67249142E+02
 21
9.38988934E+01
  0
LINE
  8
0
 62
7
 10
2.75007313E+00
 20
1.02583902E+02
 11
-2.82499664E+01
 21
1.03395667E+02
  0
LINE
  8
0
 62
7
 10
-2.24998474E+00
 20
1.03369465E+02
 11
-2.82499695E+01
 21
1.03369465E+02
  0
LINE
  8
0
 62
7
 10
-1.79750019E+02
 20
9.33694952E+01
 11
-1.75241047E+02
 21
9.33694952E+01
  0
LINE
  8
0
 62
7
 10
2.75001526E+00
 20
5.33694647E+01
 11
2.75001526E+00
 21
1.03369465E+02
  0
LINE
  8
0
 62
7
 10
-2.82499695E+01
 20
5.33694647E+01
 11
-2.82499695E+01
 21
1.03369465E+02
  0
LINE
  8
0
 62
7
 10
1.04750019E+02
 20
8.63694799E+01
 11
2.97500191E+01
 21
8.63694799E+01
  0
LINE
  8
0
 62
2
 10
1.72250007E+02
 20
7.83694664E+01
 11
1.78750018E+02
 21
7.18311035E+01
  0
LINE
  8
0
 62
2
 10
1.65750016E+02
 20
7.18311147E+01
 11
1.72250022E+02
 21
7.83694776E+01
  0
LINE
  8
0
 62
7
 10
1.65750011E+02
 20
7.18311041E+01
 11
1.78750027E+02
 21
7.18311041E+01
  0
LINE
  8
0
 62
7
 10
1.65750011E+02
 20
7.83694647E+01
 11
1.65750011E+02
 21
7.18311041E+01
  0
LINE
  8
0
 62
7
 10
-2.82499695E+01
 20
5.63694799E+01
 11
-1.34249992E+02
 21
5.63694799E+01
  0
LINE
  8
0
  6
CENTER
 62
2
 10
3.11371803E+01
 20
5.98694647E+01
 11
-1.68560329E+02
 21
5.98694647E+01
  0
LINE
  8
0
 62
7
 10
1.04750019E+02
 20
7.03694494E+01
 11
2.97500191E+01
 21
7.03694494E+01
  0
LINE
  8
0
 62
7
 10
1.89749961E+02
 20
7.33694089E+01
 11
1.88750036E+02
 21
7.23694611E+01
  0
LINE
  8
0
 62
2
 10
1.89449993E+02
 20
7.30694464E+01
 11
1.85750042E+02
 21
7.30694464E+01
  0
LINE
  8
0
 62
7
 10
1.88750072E+02
 20
7.23694647E+01
 11
1.85750042E+02
 21
7.23694647E+01
  0
LINE
  8
0
 62
7
 10
1.79598603E+02
 20
6.73998416E+01
 11
1.78750109E+02
 21
6.88694757E+01
  0
LINE
  8
0
 62
7
 10
1.84901546E+02
 20
6.73997991E+01
 11
1.79598537E+02
 21
6.73997991E+01
  0
LINE
  8
0
 62
7
 10
1.85750121E+02
 20
6.88694383E+01
 11
1.84901610E+02
 21
6.73997745E+01
  0
LINE
  8
0
 62
7
 10
1.84901546E+02
 20
7.28846319E+01
 11
1.79598537E+02
 21
7.28846319E+01
  0
LINE
  8
0
 62
7
 10
1.85750042E+02
 20
8.78694952E+01
 11
1.85750042E+02
 21
6.88694647E+01
  0
LINE
  8
0
 62
7
 10
1.84901546E+02
 20
8.38542974E+01
 11
1.79598537E+02
 21
8.38542974E+01
  0
LINE
  8
0
 62
7
 10
1.88750072E+02
 20
8.43694647E+01
 11
1.85750042E+02
 21
8.43694647E+01
  0
LINE
  8
0
 62
7
 10
1.88750072E+02
 20
7.23694647E+01
 11
1.88750072E+02
 21
8.43694799E+01
  0
LINE
  8
0
 62
7
 10
1.89749767E+02
 20
8.33693838E+01
 11
1.88749799E+02
 21
8.43693748E+01
  0
LINE
  8
0
 62
2
 10
1.89449993E+02
 20
8.36694830E+01
 11
1.85750042E+02
 21
8.36694830E+01
  0
LINE
  8
0
 62
7
 10
1.79598619E+02
 20
8.93391621E+01
 11
1.78750108E+02
 21
8.78694983E+01
  0
LINE
  8
0
 62
7
 10
1.89750027E+02
 20
7.33694799E+01
 11
1.89750027E+02
 21
8.33694799E+01
  0
LINE
  8
0
 62
7
 10
1.84901546E+02
 20
8.93391302E+01
 11
1.79598537E+02
 21
8.93391302E+01
  0
LINE
  8
0
 62
7
 10
1.85750177E+02
 20
8.78695151E+01
 11
1.84901674E+02
 21
8.93391657E+01
  0
LINE
  8
0
 62
7
 10
-1.79750019E+02
 20
6.33694342E+01
 11
-1.75241047E+02
 21
6.33694342E+01
  0
LINE
  8
0
  6
CENTER
 62
2
 10
-2.16821140E+02
 20
7.83694647E+01
 11
1.92350567E+02
 21
7.83694647E+01
  0
LINE
  8
0
 62
7
 10
-2.24998474E+00
 20
5.33694647E+01
 11
-2.82499695E+01
 21
5.33694647E+01
  0
LINE
  8
0
 62
7
 10
2.75007173E+00
 20
5.41550257E+01
 11
-2.82499659E+01
 21
5.33432611E+01
  0
LINE
  8
0
 62
7
 10
-1.75008735E+02
 20
6.31110070E+01
 11
-1.67249144E+02
 21
6.28400361E+01
  0
LINE
  8
0
 62
7
 10
1.04750019E+02
 20
6.33694647E+01
 11
1.78750027E+02
 21
6.33694647E+01
  0
LINE
  8
0
 62
7
 10
-2.24998474E+00
 20
5.40240667E+01
 11
-2.24998474E+00
 21
5.33694647E+01
  0
LINE
  8
0
 62
7
 10
2.92500267E+01
 20
6.23694647E+01
 11
2.77500114E+01
 21
6.23694647E+01
  0
LINE
  8
0
 62
7
 10
-1.60249973E+02
 20
5.40240667E+01
 11
-1.60249973E+02
 21
5.33694647E+01
  0
LINE
  8
0
 62
7
 10
-1.65250099E+02
 20
5.41550438E+01
 11
-1.34250060E+02
 21
5.33432792E+01
  0
LINE
  8
0
 62
7
 10
-1.60249973E+02
 20
5.33694647E+01
 11
-1.34249992E+02
 21
5.33694647E+01
  0
LINE
  8
0
 62
7
 10
-1.34249992E+02
 20
5.33432806E+01
 11
-1.34249992E+02
 21
1.03395649E+02
  0
LINE
  8
0
 62
7
 10
-1.66749989E+02
 20
6.23694647E+01
 11
-1.65249973E+02
 21
6.23694647E+01
  0
LINE
  8
0
 62
7
 10
2.75001526E+00
 20
5.33694647E+01
 11
2.77500114E+01
 21
5.33694647E+01
  0
LINE
  8
0
 62
7
 10
-1.80249973E+02
 20
6.38694647E+01
 11
-1.80249973E+02
 21
9.28694647E+01
  0
LINE
  8
0
 62
7
 10
-1.34249992E+02
 20
9.95194586E+01
 11
-6.47499924E+01
 21
9.95194586E+01
  0
LINE
  8
0
 62
7
 10
-1.34249992E+02
 20
9.42194708E+01
 11
-6.47499924E+01
 21
9.42194708E+01
  0
LINE
  8
0
 62
7
 10
-1.34249992E+02
 20
6.25194586E+01
 11
-2.82500648E+01
 21
6.25194586E+01
  0
LINE
  8
0
 62
7
 10
-1.34249992E+02
 20
5.72194708E+01
 11
-2.82500648E+01
 21
5.72194708E+01
  0
LINE
  8
0
 62
4
 10
-9.37499924E+01
 20
1.05359316E+02
 11
-9.37499924E+01
 21
1.16875902E+02
  0
LINE
  8
0
 62
6
 10
-7.30178805E+01
 20
1.06859316E+02
 11
-7.64819821E+01
 21
1.00859316E+02
  0
LINE
  8
0
 62
6
 10
-8.54820432E+01
 20
1.00859316E+02
 11
-8.20179416E+01
 21
1.06859316E+02
  0
LINE
  8
0
 62
4
 10
-6.47499313E+01
 20
1.05359316E+02
 11
-7.38839059E+01
 21
1.05359316E+02
  0
LINE
  8
0
  6
CENTER
 62
6
 10
-2.97499313E+01
 20
1.03859316E+02
 11
-7.67499313E+01
 21
1.03859316E+02
  0
LINE
  8
0
 62
4
 10
-6.47499313E+01
 20
1.02359316E+02
 11
-7.56159567E+01
 21
1.02359316E+02
  0
LINE
  8
0
 62
4
 10
-1.00249992E+02
 20
1.02359316E+02
 11
-8.46160178E+01
 21
1.02359316E+02
  0
LINE
  8
0
  6
CENTER
 62
6
 10
-1.28749992E+02
 20
1.03859316E+02
 11
-8.17499924E+01
 21
1.03859316E+02
  0
LINE
  8
0
 62
4
 10
-1.00249992E+02
 20
1.05359316E+02
 11
-8.28839670E+01
 21
1.05359316E+02
  0
LINE
  8
0
 62
4
 10
-3.32499924E+01
 20
1.05168371E+02
 11
-3.32499924E+01
 21
1.02544468E+02
  0
LINE
  8
0
 62
4
 10
-3.32499924E+01
 20
1.02544468E+02
 11
-3.47499924E+01
 21
1.01542404E+02
  0
LINE
  8
0
 62
4
 10
-3.32499924E+01
 20
1.02937781E+02
 11
-3.47499924E+01
 21
1.02236997E+02
  0
LINE
  8
0
 62
4
 10
-3.47499924E+01
 20
1.06176228E+02
 11
-3.32499924E+01
 21
1.05168371E+02
  0
LINE
  8
0
 62
4
 10
-1.05812748E+02
 20
1.06176228E+02
 11
-1.00249992E+02
 21
1.06176228E+02
  0
LINE
  8
0
 62
4
 10
-1.05412869E+02
 20
1.06633902E+02
 11
-9.37499924E+01
 21
1.06633902E+02
  0
LINE
  8
0
  6
CENTER
 62
6
 10
-9.87499924E+01
 20
1.12444268E+02
 11
-1.03749992E+02
 21
1.12444268E+02
  0
LINE
  8
0
  6
CENTER
 62
6
 10
-1.01249992E+02
 20
1.14944268E+02
 11
-1.01249992E+02
 21
1.09944268E+02
  0
LINE
  8
0
  6
CENTER
 62
6
 10
-1.06249992E+02
 20
1.08997440E+02
 11
-1.11249992E+02
 21
1.08997440E+02
  0
LINE
  8
0
  6
CENTER
 62
6
 10
-1.08749992E+02
 20
1.11497440E+02
 11
-1.08749992E+02
 21
1.06497440E+02
  0
LINE
  8
0
  6
CENTER
 62
6
 10
-1.13749992E+02
 20
1.12444268E+02
 11
-1.18749992E+02
 21
1.12444268E+02
  0
LINE
  8
0
  6
CENTER
 62
6
 10
-1.16249992E+02
 20
1.14944268E+02
 11
-1.16249992E+02
 21
1.09944268E+02
  0
POLYLINE
  8
0
 62
4
 66
1
  0
VERTEX
  8
0
 62
4
 10
-1.12899992E+02
 20
1.09063427E+02
  0
VERTEX
  8
0
 62
4
 10
-1.12883285E+02
 20
1.08697075E+02
  0
VERTEX
  8
0
 62
4
 10
-1.12833300E+02
 20
1.08333674E+02
  0
VERTEX
  8
0
 62
4
 10
-1.12750438E+02
 20
1.07976147E+02
  0
VERTEX
  8
0
 62
4
 10
-1.12635367E+02
 20
1.07627375E+02
  0
VERTEX
  8
0
 62
4
 10
-1.12489013E+02
 20
1.07290165E+02
  0
VERTEX
  8
0
 62
4
 10
-1.12312555E+02
 20
1.06967232E+02
  0
VERTEX
  8
0
 62
4
 10
-1.12107413E+02
 20
1.06661177E+02
  0
VERTEX
  8
0
 62
4
 10
-1.11875239E+02
 20
1.06374463E+02
  0
VERTEX
  8
0
 62
4
 10
-1.11617902E+02
 20
1.06109399E+02
  0
VERTEX
  8
0
 62
4
 10
-1.11337475E+02
 20
1.05868119E+02
  0
VERTEX
  8
0
 62
4
 10
-1.11036214E+02
 20
1.05652566E+02
  0
VERTEX
  8
0
 62
4
 10
-1.10716547E+02
 20
1.05464475E+02
  0
VERTEX
  8
0
 62
4
 10
-1.10381046E+02
 20
1.05305361E+02
  0
VERTEX
  8
0
 62
4
 10
-1.10032413E+02
 20
1.05176505E+02
  0
VERTEX
  8
0
 62
4
 10
-1.09673454E+02
 20
1.05078943E+02
  0
VERTEX
  8
0
 62
4
 10
-1.09307060E+02
 20
1.05013463E+02
  0
VERTEX
  8
0
 62
4
 10
-1.08936181E+02
 20
1.04980590E+02
  0
VERTEX
  8
0
 62
4
 10
-1.08563803E+02
 20
1.04980590E+02
  0
VERTEX
  8
0
 62
4
 10
-1.08192924E+02
 20
1.05013463E+02
  0
VERTEX
  8
0
 62
4
 10
-1.07826530E+02
 20
1.05078943E+02
  0
VERTEX
  8
0
 62
4
 10
-1.07467571E+02
 20
1.05176504E+02
  0
VERTEX
  8
0
 62
4
 10
-1.07118938E+02
 20
1.05305361E+02
  0
VERTEX
  8
0
 62
4
 10
-1.06783437E+02
 20
1.05464475E+02
  0
VERTEX
  8
0
 62
4
 10
-1.06463770E+02
 20
1.05652566E+02
  0
VERTEX
  8
0
 62
4
 10
-1.06162509E+02
 20
1.05868119E+02
  0
VERTEX
  8
0
 62
4
 10
-1.05882082E+02
 20
1.06109399E+02
  0
VERTEX
  8
0
 62
4
 10
-1.05624745E+02
 20
1.06374463E+02
  0
VERTEX
  8
0
 62
4
 10
-1.05392571E+02
 20
1.06661177E+02
  0
VERTEX
  8
0
 62
4
 10
-1.05187430E+02
 20
1.06967232E+02
  0
VERTEX
  8
0
 62
4
 10
-1.05010971E+02
 20
1.07290165E+02
  0
VERTEX
  8
0
 62
4
 10
-1.04864617E+02
 20
1.07627375E+02
  0
VERTEX
  8
0
 62
4
 10
-1.04749546E+02
 20
1.07976147E+02
  0
VERTEX
  8
0
 62
4
 10
-1.04666684E+02
 20
1.08333673E+02
  0
VERTEX
  8
0
 62
4
 10
-1.04616699E+02
 20
1.08697075E+02
  0
VERTEX
  8
0
 62
4
 10
-1.04599992E+02
 20
1.09063427E+02
  0
SEQEND
  8
0
  0
POLYLINE
  8
0
 62
4
 66
1
  0
VERTEX
  8
0
 62
4
 10
-1.04599992E+02
 20
1.09369047E+02
  0
VERTEX
  8
0
 62
4
 10
-1.04615784E+02
 20
1.09725248E+02
  0
VERTEX
  8
0
 62
4
 10
-1.04663040E+02
 20
1.10078739E+02
  0
VERTEX
  8
0
 62
4
 10
-1.04741400E+02
 20
1.10426828E+02
  0
VERTEX
  8
0
 62
4
 10
-1.04850268E+02
 20
1.10766867E+02
  0
VERTEX
  8
0
 62
4
 10
-1.04988815E+02
 20
1.11096268E+02
  0
VERTEX
  8
0
 62
4
 10
-1.05155987E+02
 20
1.11412523E+02
  0
VERTEX
  8
0
 62
4
 10
-1.05350511E+02
 20
1.11713226E+02
  0
VERTEX
  8
0
 62
4
 10
-1.05570908E+02
 20
1.11996089E+02
  0
VERTEX
  8
0
 62
4
 10
-1.05815499E+02
 20
1.12258959E+02
  0
VERTEX
  8
0
 62
4
 10
-1.06082423E+02
 20
1.12499834E+02
  0
VERTEX
  8
0
 62
4
 10
-1.06369650E+02
 20
1.12716882E+02
  0
VERTEX
  8
0
 62
4
 10
-1.06674992E+02
 20
1.12908451E+02
  0
VERTEX
  8
0
 62
4
 10
-1.06996126E+02
 20
1.13073084E+02
  0
VERTEX
  8
0
 62
4
 10
-1.07330608E+02
 20
1.13209526E+02
  0
VERTEX
  8
0
 62
4
 10
-1.07675893E+02
 20
1.13316740E+02
  0
VERTEX
  8
0
 62
4
 10
-1.08029352E+02
 20
1.13393909E+02
  0
VERTEX
  8
0
 62
4
 10
-1.08388296E+02
 20
1.13440447E+02
  0
VERTEX
  8
0
 62
4
 10
-1.08749992E+02
 20
1.13455999E+02
  0
VERTEX
  8
0
 62
4
 10
-1.09111688E+02
 20
1.13440447E+02
  0
VERTEX
  8
0
 62
4
 10
-1.09470632E+02
 20
1.13393909E+02
  0
VERTEX
  8
0
 62
4
 10
-1.09824091E+02
 20
1.13316740E+02
  0
VERTEX
  8
0
 62
4
 10
-1.10169376E+02
 20
1.13209526E+02
  0
VERTEX
  8
0
 62
4
 10
-1.10503858E+02
 20
1.13073084E+02
  0
VERTEX
  8
0
 62
4
 10
-1.10824992E+02
 20
1.12908451E+02
  0
VERTEX
  8
0
 62
4
 10
-1.11130334E+02
 20
1.12716882E+02
  0
VERTEX
  8
0
 62
4
 10
-1.11417561E+02
 20
1.12499834E+02
  0
VERTEX
  8
0
 62
4
 10
-1.11684485E+02
 20
1.12258959E+02
  0
VERTEX
  8
0
 62
4
 10
-1.11929076E+02
 20
1.11996089E+02
  0
VERTEX
  8
0
 62
4
 10
-1.12149473E+02
 20
1.11713226E+02
  0
VERTEX
  8
0
 62
4
 10
-1.12343997E+02
 20
1.11412523E+02
  0
VERTEX
  8
0
 62
4
 10
-1.12511169E+02
 20
1.11096268E+02
  0
VERTEX
  8
0
 62
4
 10
-1.12649716E+02
 20
1.10766867E+02
  0
VERTEX
  8
0
 62
4
 10
-1.12758584E+02
 20
1.10426828E+02
  0
VERTEX
  8
0
 62
4
 10
-1.12836944E+02
 20
1.10078739E+02
  0
VERTEX
  8
0
 62
4
 10
-1.12884200E+02
 20
1.09725248E+02
  0
VERTEX
  8
0
 62
4
 10
-1.12899992E+02
 20
1.09369047E+02
  0
VERTEX
  8
0
 62
4
 10
-1.12884200E+02
 20
1.09012846E+02
  0
VERTEX
  8
0
 62
4
 10
-1.12836944E+02
 20
1.08659355E+02
  0
VERTEX
  8
0
 62
4
 10
-1.12758584E+02
 20
1.08311266E+02
  0
VERTEX
  8
0
 62
4
 10
-1.12649716E+02
 20
1.07971227E+02
  0
VERTEX
  8
0
 62
4
 10
-1.12511169E+02
 20
1.07641826E+02
  0
VERTEX
  8
0
 62
4
 10
-1.12343997E+02
 20
1.07325571E+02
  0
VERTEX
  8
0
 62
4
 10
-1.12149473E+02
 20
1.07024868E+02
  0
VERTEX
  8
0
 62
4
 10
-1.11929076E+02
 20
1.06742005E+02
  0
VERTEX
  8
0
 62
4
 10
-1.11684485E+02
 20
1.06479135E+02
  0
VERTEX
  8
0
 62
4
 10
-1.11417561E+02
 20
1.06238260E+02
  0
VERTEX
  8
0
 62
4
 10
-1.11130334E+02
 20
1.06021212E+02
  0
VERTEX
  8
0
 62
4
 10
-1.10824992E+02
 20
1.05829643E+02
  0
VERTEX
  8
0
 62
4
 10
-1.10503858E+02
 20
1.05665010E+02
  0
VERTEX
  8
0
 62
4
 10
-1.10169376E+02
 20
1.05528568E+02
  0
VERTEX
  8
0
 62
4
 10
-1.09824091E+02
 20
1.05421354E+02
  0
VERTEX
  8
0
 62
4
 10
-1.09470632E+02
 20
1.05344185E+02
  0
VERTEX
  8
0
 62
4
 10
-1.09111688E+02
 20
1.05297647E+02
  0
VERTEX
  8
0
 62
4
 10
-1.08749992E+02
 20
1.05282095E+02
  0
VERTEX
  8
0
 62
4
 10
-1.08388296E+02
 20
1.05297647E+02
  0
VERTEX
  8
0
 62
4
 10
-1.08029352E+02
 20
1.05344185E+02
  0
VERTEX
  8
0
 62
4
 10
-1.07675893E+02
 20
1.05421354E+02
  0
VERTEX
  8
0
 62
4
 10
-1.07330608E+02
 20
1.05528568E+02
  0
VERTEX
  8
0
 62
4
 10
-1.06996126E+02
 20
1.05665010E+02
  0
VERTEX
  8
0
 62
4
 10
-1.06674992E+02
 20
1.05829643E+02
  0
VERTEX
  8
0
 62
4
 10
-1.06369650E+02
 20
1.06021212E+02
  0
VERTEX
  8
0
 62
4
 10
-1.06082423E+02
 20
1.06238260E+02
  0
VERTEX
  8
0
 62
4
 10
-1.05815499E+02
 20
1.06479135E+02
  0
VERTEX
  8
0
 62
4
 10
-1.05570908E+02
 20
1.06742005E+02
  0
VERTEX
  8
0
 62
4
 10
-1.05350511E+02
 20
1.07024868E+02
  0
VERTEX
  8
0
 62
4
 10
-1.05155987E+02
 20
1.07325571E+02
  0
VERTEX
  8
0
 62
4
 10
-1.04988815E+02
 20
1.07641826E+02
  0
VERTEX
  8
0
 62
4
 10
-1.04850268E+02
 20
1.07971227E+02
  0
VERTEX
  8
0
 62
4
 10
-1.04741400E+02
 20
1.08311266E+02
  0
VERTEX
  8
0
 62
4
 10
-1.04663040E+02
 20
1.08659355E+02
  0
VERTEX
  8
0
 62
4
 10
-1.04615784E+02
 20
1.09012846E+02
  0
VERTEX
  8
0
 62
4
 10
-1.04599992E+02
 20
1.09369047E+02
  0
SEQEND
  8
0
  0
LINE
  8
0
 62
4
 10
-1.12899992E+02
 20
1.09063427E+02
 11
-1.12899992E+02
 21
1.09369047E+02
  0
LINE
  8
0
 62
4
 10
-1.04599992E+02
 20
1.09063427E+02
 11
-1.04599992E+02
 21
1.09369047E+02
  0
ARC
  8
0
 62
4
 10
2.36228308E+01
 20
-2.49304455E+01
 40
1.88658103E+02
 50
1.33811210E+02
 51
1.35318357E+02
  0
ARC
  8
0
 62
4
 10
-2.41122527E+02
 20
-2.49301524E+01
 40
1.88657692E+02
 50
4.46816411E+01
 51
4.61887918E+01
  0
LINE
  8
0
 62
4
 10
-1.05049992E+02
 20
1.12444268E+02
 11
-1.05049992E+02
 21
1.12617916E+02
  0
POLYLINE
  8
0
 62
4
 66
1
  0
VERTEX
  8
0
 62
4
 10
-1.05049992E+02
 20
1.12444268E+02
  0
VERTEX
  8
0
 62
4
 10
-1.05034694E+02
 20
1.12108814E+02
  0
VERTEX
  8
0
 62
4
 10
-1.04988924E+02
 20
1.11776060E+02
  0
VERTEX
  8
0
 62
4
 10
-1.04913051E+02
 20
1.11448686E+02
  0
VERTEX
  8
0
 62
4
 10
-1.04807685E+02
 20
1.11129329E+02
  0
VERTEX
  8
0
 62
4
 10
-1.04673674E+02
 20
1.10820558E+02
  0
VERTEX
  8
0
 62
4
 10
-1.04512097E+02
 20
1.10524861E+02
  0
VERTEX
  8
0
 62
4
 10
-1.04324257E+02
 20
1.10244617E+02
  0
VERTEX
  8
0
 62
4
 10
-1.04111664E+02
 20
1.09982084E+02
  0
VERTEX
  8
0
 62
4
 10
-1.03876030E+02
 20
1.09739375E+02
  0
VERTEX
  8
0
 62
4
 10
-1.03619253E+02
 20
1.09518444E+02
  0
VERTEX
  8
0
 62
4
 10
-1.03343401E+02
 20
1.09321070E+02
  0
VERTEX
  8
0
 62
4
 10
-1.03050693E+02
 20
1.09148842E+02
  0
VERTEX
  8
0
 62
4
 10
-1.02743487E+02
 20
1.09003147E+02
  0
VERTEX
  8
0
 62
4
 10
-1.02424257E+02
 20
1.08885158E+02
  0
VERTEX
  8
0
 62
4
 10
-1.02095572E+02
 20
1.08795825E+02
  0
VERTEX
  8
0
 62
4
 10
-1.01760078E+02
 20
1.08735867E+02
  0
VERTEX
  8
0
 62
4
 10
-1.01420478E+02
 20
1.08705767E+02
  0
VERTEX
  8
0
 62
4
 10
-1.01079506E+02
 20
1.08705767E+02
  0
VERTEX
  8
0
 62
4
 10
-1.00739906E+02
 20
1.08735867E+02
  0
VERTEX
  8
0
 62
4
 10
-1.00404412E+02
 20
1.08795825E+02
  0
VERTEX
  8
0
 62
4
 10
-1.00075727E+02
 20
1.08885158E+02
  0
VERTEX
  8
0
 62
4
 10
-9.97564969E+01
 20
1.09003147E+02
  0
VERTEX
  8
0
 62
4
 10
-9.94492911E+01
 20
1.09148842E+02
  0
VERTEX
  8
0
 62
4
 10
-9.91565835E+01
 20
1.09321070E+02
  0
VERTEX
  8
0
 62
4
 10
-9.88807308E+01
 20
1.09518444E+02
  0
VERTEX
  8
0
 62
4
 10
-9.86239539E+01
 20
1.09739375E+02
  0
VERTEX
  8
0
 62
4
 10
-9.83883204E+01
 20
1.09982084E+02
  0
VERTEX
  8
0
 62
4
 10
-9.81757274E+01
 20
1.10244617E+02
  0
VERTEX
  8
0
 62
4
 10
-9.79878866E+01
 20
1.10524861E+02
  0
VERTEX
  8
0
 62
4
 10
-9.78263103E+01
 20
1.10820558E+02
  0
VERTEX
  8
0
 62
4
 10
-9.76922995E+01
 20
1.11129329E+02
  0
VERTEX
  8
0
 62
4
 10
-9.75869331E+01
 20
1.11448686E+02
  0
VERTEX
  8
0
 62
4
 10
-9.75110595E+01
 20
1.11776060E+02
  0
VERTEX
  8
0
 62
4
 10
-9.74652897E+01
 20
1.12108814E+02
  0
VERTEX
  8
0
 62
4
 10
-9.74499920E+01
 20
1.12444268E+02
  0
SEQEND
  8
0
  0
POLYLINE
  8
0
 62
4
 66
1
  0
VERTEX
  8
0
 62
4
 10
-1.05049992E+02
 20
1.12617916E+02
  0
VERTEX
  8
0
 62
4
 10
-1.05035532E+02
 20
1.12291756E+02
  0
VERTEX
  8
0
 62
4
 10
-1.04992261E+02
 20
1.11968078E+02
  0
VERTEX
  8
0
 62
4
 10
-1.04920510E+02
 20
1.11649345E+02
  0
VERTEX
  8
0
 62
4
 10
-1.04820824E+02
 20
1.11337984E+02
  0
VERTEX
  8
0
 62
4
 10
-1.04693962E+02
 20
1.11036365E+02
  0
VERTEX
  8
0
 62
4
 10
-1.04540889E+02
 20
1.10746781E+02
  0
VERTEX
  8
0
 62
4
 10
-1.04362770E+02
 20
1.10471438E+02
  0
VERTEX
  8
0
 62
4
 10
-1.04160961E+02
 20
1.10212432E+02
  0
VERTEX
  8
0
 62
4
 10
-1.03936998E+02
 20
1.09971732E+02
  0
VERTEX
  8
0
 62
4
 10
-1.03692585E+02
 20
1.09751171E+02
  0
VERTEX
  8
0
 62
4
 10
-1.03429582E+02
 20
1.09552428E+02
  0
VERTEX
  8
0
 62
4
 10
-1.03149992E+02
 20
1.09377016E+02
  0
VERTEX
  8
0
 62
4
 10
-1.02855941E+02
 20
1.09226268E+02
  0
VERTEX
  8
0
 62
4
 10
-1.02549669E+02
 20
1.09101333E+02
  0
VERTEX
  8
0
 62
4
 10
-1.02233504E+02
 20
1.09003161E+02
  0
VERTEX
  8
0
 62
4
 10
-1.01909855E+02
 20
1.08932500E+02
  0
VERTEX
  8
0
 62
4
 10
-1.01581184E+02
 20
1.08889887E+02
  0
VERTEX
  8
0
 62
4
 10
-1.01249992E+02
 20
1.08875647E+02
  0
VERTEX
  8
0
 62
4
 10
-1.00918800E+02
 20
1.08889887E+02
  0
VERTEX
  8
0
 62
4
 10
-1.00590129E+02
 20
1.08932500E+02
  0
VERTEX
  8
0
 62
4
 10
-1.00266480E+02
 20
1.09003161E+02
  0
VERTEX
  8
0
 62
4
 10
-9.99503155E+01
 20
1.09101333E+02
  0
VERTEX
  8
0
 62
4
 10
-9.96440426E+01
 20
1.09226268E+02
  0
VERTEX
  8
0
 62
4
 10
-9.93499920E+01
 20
1.09377016E+02
  0
VERTEX
  8
0
 62
4
 10
-9.90704015E+01
 20
1.09552428E+02
  0
VERTEX
  8
0
 62
4
 10
-9.88073991E+01
 20
1.09751171E+02
  0
VERTEX
  8
0
 62
4
 10
-9.85629862E+01
 20
1.09971732E+02
  0
VERTEX
  8
0
 62
4
 10
-9.83390231E+01
 20
1.10212432E+02
  0
VERTEX
  8
0
 62
4
 10
-9.81372142E+01
 20
1.10471438E+02
  0
VERTEX
  8
0
 62
4
 10
-9.79590954E+01
 20
1.10746781E+02
  0
VERTEX
  8
0
 62
4
 10
-9.78060224E+01
 20
1.11036365E+02
  0
VERTEX
  8
0
 62
4
 10
-9.76791600E+01
 20
1.11337984E+02
  0
VERTEX
  8
0
 62
4
 10
-9.75794738E+01
 20
1.11649345E+02
  0
VERTEX
  8
0
 62
4
 10
-9.75077225E+01
 20
1.11968078E+02
  0
VERTEX
  8
0
 62
4
 10
-9.74644521E+01
 20
1.12291756E+02
  0
VERTEX
  8
0
 62
4
 10
-9.74499920E+01
 20
1.12617916E+02
  0
VERTEX
  8
0
 62
4
 10
-9.74644521E+01
 20
1.12944076E+02
  0
VERTEX
  8
0
 62
4
 10
-9.75077225E+01
 20
1.13267754E+02
  0
VERTEX
  8
0
 62
4
 10
-9.75794738E+01
 20
1.13586487E+02
  0
VERTEX
  8
0
 62
4
 10
-9.76791600E+01
 20
1.13897848E+02
  0
VERTEX
  8
0
 62
4
 10
-9.78060224E+01
 20
1.14199467E+02
  0
VERTEX
  8
0
 62
4
 10
-9.79590954E+01
 20
1.14489051E+02
  0
VERTEX
  8
0
 62
4
 10
-9.81372142E+01
 20
1.14764394E+02
  0
VERTEX
  8
0
 62
4
 10
-9.83390231E+01
 20
1.15023400E+02
  0
VERTEX
  8
0
 62
4
 10
-9.85629862E+01
 20
1.15264100E+02
  0
VERTEX
  8
0
 62
4
 10
-9.88073991E+01
 20
1.15484661E+02
  0
VERTEX
  8
0
 62
4
 10
-9.90704015E+01
 20
1.15683404E+02
  0
VERTEX
  8
0
 62
4
 10
-9.93499920E+01
 20
1.15858816E+02
  0
VERTEX
  8
0
 62
4
 10
-9.96440426E+01
 20
1.16009564E+02
  0
VERTEX
  8
0
 62
4
 10
-9.99503154E+01
 20
1.16134499E+02
  0
VERTEX
  8
0
 62
4
 10
-1.00266480E+02
 20
1.16232671E+02
  0
VERTEX
  8
0
 62
4
 10
-1.00590129E+02
 20
1.16303332E+02
  0
VERTEX
  8
0
 62
4
 10
-1.00918800E+02
 20
1.16345945E+02
  0
VERTEX
  8
0
 62
4
 10
-1.01249992E+02
 20
1.16360185E+02
  0
VERTEX
  8
0
 62
4
 10
-1.01581184E+02
 20
1.16345945E+02
  0
VERTEX
  8
0
 62
4
 10
-1.01909855E+02
 20
1.16303332E+02
  0
VERTEX
  8
0
 62
4
 10
-1.02233504E+02
 20
1.16232671E+02
  0
VERTEX
  8
0
 62
4
 10
-1.02549669E+02
 20
1.16134499E+02
  0
VERTEX
  8
0
 62
4
 10
-1.02855941E+02
 20
1.16009564E+02
  0
VERTEX
  8
0
 62
4
 10
-1.03149992E+02
 20
1.15858816E+02
  0
VERTEX
  8
0
 62
4
 10
-1.03429582E+02
 20
1.15683404E+02
  0
VERTEX
  8
0
 62
4
 10
-1.03692585E+02
 20
1.15484661E+02
  0
VERTEX
  8
0
 62
4
 10
-1.03936998E+02
 20
1.15264100E+02
  0
VERTEX
  8
0
 62
4
 10
-1.04160961E+02
 20
1.15023400E+02
  0
VERTEX
  8
0
 62
4
 10
-1.04362770E+02
 20
1.14764394E+02
  0
VERTEX
  8
0
 62
4
 10
-1.04540889E+02
 20
1.14489051E+02
  0
VERTEX
  8
0
 62
4
 10
-1.04693962E+02
 20
1.14199467E+02
  0
VERTEX
  8
0
 62
4
 10
-1.04820824E+02
 20
1.13897848E+02
  0
VERTEX
  8
0
 62
4
 10
-1.04920510E+02
 20
1.13586487E+02
  0
VERTEX
  8
0
 62
4
 10
-1.04992261E+02
 20
1.13267754E+02
  0
VERTEX
  8
0
 62
4
 10
-1.05035532E+02
 20
1.12944076E+02
  0
VERTEX
  8
0
 62
4
 10
-1.05049992E+02
 20
1.12617916E+02
  0
SEQEND
  8
0
  0
LINE
  8
0
 62
4
 10
-9.74499924E+01
 20
1.12444268E+02
 11
-9.74499924E+01
 21
1.12617916E+02
  0
LINE
  8
0
 62
4
 10
-1.04649992E+02
 20
1.12617916E+02
 11
-1.04649992E+02
 21
1.12814278E+02
  0
POLYLINE
  8
0
 62
4
 66
1
  0
VERTEX
  8
0
 62
4
 10
-1.04649992E+02
 20
1.12617916E+02
  0
VERTEX
  8
0
 62
4
 10
-1.04636305E+02
 20
1.12317773E+02
  0
VERTEX
  8
0
 62
4
 10
-1.04595353E+02
 20
1.12020046E+02
  0
VERTEX
  8
0
 62
4
 10
-1.04527466E+02
 20
1.11727133E+02
  0
VERTEX
  8
0
 62
4
 10
-1.04433191E+02
 20
1.11441391E+02
  0
VERTEX
  8
0
 62
4
 10
-1.04313286E+02
 20
1.11165123E+02
  0
VERTEX
  8
0
 62
4
 10
-1.04168718E+02
 20
1.10900552E+02
  0
VERTEX
  8
0
 62
4
 10
-1.04000650E+02
 20
1.10649807E+02
  0
VERTEX
  8
0
 62
4
 10
-1.03810435E+02
 20
1.10414909E+02
  0
VERTEX
  8
0
 62
4
 10
-1.03599605E+02
 20
1.10197748E+02
  0
VERTEX
  8
0
 62
4
 10
-1.03369857E+02
 20
1.10000073E+02
  0
VERTEX
  8
0
 62
4
 10
-1.03123042E+02
 20
1.09823476E+02
  0
VERTEX
  8
0
 62
4
 10
-1.02861145E+02
 20
1.09669377E+02
  0
VERTEX
  8
0
 62
4
 10
-1.02586277E+02
 20
1.09539019E+02
  0
VERTEX
  8
0
 62
4
 10
-1.02300650E+02
 20
1.09433449E+02
  0
VERTEX
  8
0
 62
4
 10
-1.02006563E+02
 20
1.09353520E+02
  0
VERTEX
  8
0
 62
4
 10
-1.01706385E+02
 20
1.09299873E+02
  0
VERTEX
  8
0
 62
4
 10
-1.01402532E+02
 20
1.09272941E+02
  0
VERTEX
  8
0
 62
4
 10
-1.01097452E+02
 20
1.09272941E+02
  0
VERTEX
  8
0
 62
4
 10
-1.00793599E+02
 20
1.09299873E+02
  0
VERTEX
  8
0
 62
4
 10
-1.00493421E+02
 20
1.09353520E+02
  0
VERTEX
  8
0
 62
4
 10
-1.00199334E+02
 20
1.09433449E+02
  0
VERTEX
  8
0
 62
4
 10
-9.99137069E+01
 20
1.09539019E+02
  0
VERTEX
  8
0
 62
4
 10
-9.96388386E+01
 20
1.09669377E+02
  0
VERTEX
  8
0
 62
4
 10
-9.93769423E+01
 20
1.09823476E+02
  0
VERTEX
  8
0
 62
4
 10
-9.91301267E+01
 20
1.10000073E+02
  0
VERTEX
  8
0
 62
4
 10
-9.89003790E+01
 20
1.10197748E+02
  0
VERTEX
  8
0
 62
4
 10
-9.86895490E+01
 20
1.10414909E+02
  0
VERTEX
  8
0
 62
4
 10
-9.84993342E+01
 20
1.10649807E+02
  0
VERTEX
  8
0
 62
4
 10
-9.83312661E+01
 20
1.10900552E+02
  0
VERTEX
  8
0
 62
4
 10
-9.81866978E+01
 20
1.11165123E+02
  0
VERTEX
  8
0
 62
4
 10
-9.80667934E+01
 20
1.11441391E+02
  0
VERTEX
  8
0
 62
4
 10
-9.79725183E+01
 20
1.11727132E+02
  0
VERTEX
  8
0
 62
4
 10
-9.79046314E+01
 20
1.12020046E+02
  0
VERTEX
  8
0
 62
4
 10
-9.78636794E+01
 20
1.12317773E+02
  0
VERTEX
  8
0
 62
4
 10
-9.78499920E+01
 20
1.12617916E+02
  0
SEQEND
  8
0
  0
POLYLINE
  8
0
 62
4
 66
1
  0
VERTEX
  8
0
 62
4
 10
-1.04649992E+02
 20
1.12814278E+02
  0
VERTEX
  8
0
 62
4
 10
-1.04637054E+02
 20
1.12522450E+02
  0
VERTEX
  8
0
 62
4
 10
-1.04598338E+02
 20
1.12232844E+02
  0
VERTEX
  8
0
 62
4
 10
-1.04534140E+02
 20
1.11947662E+02
  0
VERTEX
  8
0
 62
4
 10
-1.04444947E+02
 20
1.11669076E+02
  0
VERTEX
  8
0
 62
4
 10
-1.04331439E+02
 20
1.11399206E+02
  0
VERTEX
  8
0
 62
4
 10
-1.04194478E+02
 20
1.11140105E+02
  0
VERTEX
  8
0
 62
4
 10
-1.04035109E+02
 20
1.10893745E+02
  0
VERTEX
  8
0
 62
4
 10
-1.03854543E+02
 20
1.10662002E+02
  0
VERTEX
  8
0
 62
4
 10
-1.03654155E+02
 20
1.10446639E+02
  0
VERTEX
  8
0
 62
4
 10
-1.03435470E+02
 20
1.10249296E+02
  0
VERTEX
  8
0
 62
4
 10
-1.03200152E+02
 20
1.10071473E+02
  0
VERTEX
  8
0
 62
4
 10
-1.02949992E+02
 20
1.09914525E+02
  0
VERTEX
  8
0
 62
4
 10
-1.02686894E+02
 20
1.09779645E+02
  0
VERTEX
  8
0
 62
4
 10
-1.02412861E+02
 20
1.09667861E+02
  0
VERTEX
  8
0
 62
4
 10
-1.02129977E+02
 20
1.09580023E+02
  0
VERTEX
  8
0
 62
4
 10
-1.01840396E+02
 20
1.09516800E+02
  0
VERTEX
  8
0
 62
4
 10
-1.01546322E+02
 20
1.09478673E+02
  0
VERTEX
  8
0
 62
4
 10
-1.01249992E+02
 20
1.09465931E+02
  0
VERTEX
  8
0
 62
4
 10
-1.00953662E+02
 20
1.09478673E+02
  0
VERTEX
  8
0
 62
4
 10
-1.00659588E+02
 20
1.09516800E+02
  0
VERTEX
  8
0
 62
4
 10
-1.00370007E+02
 20
1.09580023E+02
  0
VERTEX
  8
0
 62
4
 10
-1.00087124E+02
 20
1.09667861E+02
  0
VERTEX
  8
0
 62
4
 10
-9.98130899E+01
 20
1.09779645E+02
  0
VERTEX
  8
0
 62
4
 10
-9.95499920E+01
 20
1.09914525E+02
  0
VERTEX
  8
0
 62
4
 10
-9.92998321E+01
 20
1.10071473E+02
  0
VERTEX
  8
0
 62
4
 10
-9.90645141E+01
 20
1.10249296E+02
  0
VERTEX
  8
0
 62
4
 10
-9.88458289E+01
 20
1.10446639E+02
  0
VERTEX
  8
0
 62
4
 10
-9.86454409E+01
 20
1.10662002E+02
  0
VERTEX
  8
0
 62
4
 10
-9.84648750E+01
 20
1.10893745E+02
  0
VERTEX
  8
0
 62
4
 10
-9.83055056E+01
 20
1.11140105E+02
  0
VERTEX
  8
0
 62
4
 10
-9.81685455E+01
 20
1.11399206E+02
  0
VERTEX
  8
0
 62
4
 10
-9.80550371E+01
 20
1.11669076E+02
  0
VERTEX
  8
0
 62
4
 10
-9.79658442E+01
 20
1.11947662E+02
  0
VERTEX
  8
0
 62
4
 10
-9.79016456E+01
 20
1.12232844E+02
  0
VERTEX
  8
0
 62
4
 10
-9.78629300E+01
 20
1.12522450E+02
  0
VERTEX
  8
0
 62
4
 10
-9.78499920E+01
 20
1.12814278E+02
  0
VERTEX
  8
0
 62
4
 10
-9.78629300E+01
 20
1.13106106E+02
  0
VERTEX
  8
0
 62
4
 10
-9.79016456E+01
 20
1.13395712E+02
  0
VERTEX
  8
0
 62
4
 10
-9.79658442E+01
 20
1.13680894E+02
  0
VERTEX
  8
0
 62
4
 10
-9.80550371E+01
 20
1.13959480E+02
  0
VERTEX
  8
0
 62
4
 10
-9.81685455E+01
 20
1.14229350E+02
  0
VERTEX
  8
0
 62
4
 10
-9.83055056E+01
 20
1.14488451E+02
  0
VERTEX
  8
0
 62
4
 10
-9.84648750E+01
 20
1.14734811E+02
  0
VERTEX
  8
0
 62
4
 10
-9.86454409E+01
 20
1.14966554E+02
  0
VERTEX
  8
0
 62
4
 10
-9.88458289E+01
 20
1.15181917E+02
  0
VERTEX
  8
0
 62
4
 10
-9.90645141E+01
 20
1.15379260E+02
  0
VERTEX
  8
0
 62
4
 10
-9.92998321E+01
 20
1.15557083E+02
  0
VERTEX
  8
0
 62
4
 10
-9.95499920E+01
 20
1.15714031E+02
  0
VERTEX
  8
0
 62
4
 10
-9.98130899E+01
 20
1.15848911E+02
  0
VERTEX
  8
0
 62
4
 10
-1.00087123E+02
 20
1.15960695E+02
  0
VERTEX
  8
0
 62
4
 10
-1.00370007E+02
 20
1.16048533E+02
  0
VERTEX
  8
0
 62
4
 10
-1.00659588E+02
 20
1.16111756E+02
  0
VERTEX
  8
0
 62
4
 10
-1.00953662E+02
 20
1.16149883E+02
  0
VERTEX
  8
0
 62
4
 10
-1.01249992E+02
 20
1.16162625E+02
  0
VERTEX
  8
0
 62
4
 10
-1.01546322E+02
 20
1.16149883E+02
  0
VERTEX
  8
0
 62
4
 10
-1.01840396E+02
 20
1.16111756E+02
  0
VERTEX
  8
0
 62
4
 10
-1.02129977E+02
 20
1.16048533E+02
  0
VERTEX
  8
0
 62
4
 10
-1.02412860E+02
 20
1.15960695E+02
  0
VERTEX
  8
0
 62
4
 10
-1.02686894E+02
 20
1.15848911E+02
  0
VERTEX
  8
0
 62
4
 10
-1.02949992E+02
 20
1.15714031E+02
  0
VERTEX
  8
0
 62
4
 10
-1.03200152E+02
 20
1.15557083E+02
  0
VERTEX
  8
0
 62
4
 10
-1.03435470E+02
 20
1.15379260E+02
  0
VERTEX
  8
0
 62
4
 10
-1.03654155E+02
 20
1.15181917E+02
  0
VERTEX
  8
0
 62
4
 10
-1.03854543E+02
 20
1.14966554E+02
  0
VERTEX
  8
0
 62
4
 10
-1.04035109E+02
 20
1.14734811E+02
  0
VERTEX
  8
0
 62
4
 10
-1.04194478E+02
 20
1.14488451E+02
  0
VERTEX
  8
0
 62
4
 10
-1.04331439E+02
 20
1.14229350E+02
  0
VERTEX
  8
0
 62
4
 10
-1.04444947E+02
 20
1.13959480E+02
  0
VERTEX
  8
0
 62
4
 10
-1.04534140E+02
 20
1.13680894E+02
  0
VERTEX
  8
0
 62
4
 10
-1.04598338E+02
 20
1.13395712E+02
  0
VERTEX
  8
0
 62
4
 10
-1.04637054E+02
 20
1.13106106E+02
  0
VERTEX
  8
0
 62
4
 10
-1.04649992E+02
 20
1.12814278E+02
  0
SEQEND
  8
0
  0
LINE
  8
0
 62
4
 10
-9.78499923E+01
 20
1.12617916E+02
 11
-9.78499923E+01
 21
1.12814278E+02
  0
ARC
  8
0
 62
4
 10
2.99314763E+01
 20
-2.01934850E+01
 40
1.86971513E+02
 50
1.33801123E+02
 51
1.35321779E+02
  0
ARC
  8
0
 62
4
 10
-2.32431461E+02
 20
-2.01934850E+01
 40
1.86971513E+02
 50
4.46782203E+01
 51
4.61988768E+01
  0
LINE
  8
0
 62
4
 10
-1.23749992E+02
 20
1.02103786E+02
 11
-1.23749992E+02
 21
1.00369449E+02
  0
LINE
  8
0
 62
4
 10
-1.23749992E+02
 20
1.06176228E+02
 11
-1.23749992E+02
 21
1.02103786E+02
  0
LINE
  8
0
 62
4
 10
-1.23749992E+02
 20
1.06633902E+02
 11
-1.12087115E+02
 21
1.06633902E+02
  0
LINE
  8
0
 62
4
 10
-1.23749992E+02
 20
1.02236997E+02
 11
-1.00249992E+02
 21
1.02236997E+02
  0
LINE
  8
0
 62
4
 10
-1.23749992E+02
 20
1.06176228E+02
 11
-1.11687237E+02
 21
1.06176228E+02
  0
LINE
  8
0
 62
4
 10
-1.25249992E+02
 20
1.02544468E+02
 11
-1.23749992E+02
 21
1.01542404E+02
  0
LINE
  8
0
 62
4
 10
-1.25249992E+02
 20
1.02937781E+02
 11
-1.23749992E+02
 21
1.02236997E+02
  0
LINE
  8
0
 62
4
 10
-1.25249992E+02
 20
1.05168371E+02
 11
-1.25249992E+02
 21
1.02544468E+02
  0
LINE
  8
0
 62
4
 10
-1.23749992E+02
 20
1.06176228E+02
 11
-1.25249992E+02
 21
1.05168371E+02
  0
LINE
  8
0
 62
4
 10
-1.23749992E+02
 20
1.02103786E+02
 11
-9.37499924E+01
 21
1.02103786E+02
  0
LINE
  8
0
 62
4
 10
-1.23749992E+02
 20
1.01118978E+02
 11
-9.37499924E+01
 21
1.01118978E+02
  0
LINE
  8
0
 62
4
 10
-1.23749992E+02
 20
1.16875902E+02
 11
-9.37499924E+01
 21
1.16875902E+02
  0
POLYLINE
  8
0
 62
4
 66
1
  0
VERTEX
  8
0
 62
4
 10
-5.92499924E+01
 20
9.26996244E+01
  0
VERTEX
  8
0
 62
4
 10
-5.92580438E+01
 20
9.28761794E+01
  0
VERTEX
  8
0
 62
4
 10
-5.92821332E+01
 20
9.30513128E+01
  0
VERTEX
  8
0
 62
4
 10
-5.93220667E+01
 20
9.32236147E+01
  0
VERTEX
  8
0
 62
4
 10
-5.93775227E+01
 20
9.33916977E+01
  0
VERTEX
  8
0
 62
4
 10
-5.94480547E+01
 20
9.35542085E+01
  0
VERTEX
  8
0
 62
4
 10
-5.95330948E+01
 20
9.37098388E+01
  0
VERTEX
  8
0
 62
4
 10
-5.96319584E+01
 20
9.38573353E+01
  0
VERTEX
  8
0
 62
4
 10
-5.97438495E+01
 20
9.39955107E+01
  0
VERTEX
  8
0
 62
4
 10
-5.98678671E+01
 20
9.41232524E+01
  0
VERTEX
  8
0
 62
4
 10
-6.00030128E+01
 20
9.42395318E+01
  0
VERTEX
  8
0
 62
4
 10
-6.01481984E+01
 20
9.43434128E+01
  0
VERTEX
  8
0
 62
4
 10
-6.03022551E+01
 20
9.44340590E+01
  0
VERTEX
  8
0
 62
4
 10
-6.04639423E+01
 20
9.45107406E+01
  0
VERTEX
  8
0
 62
4
 10
-6.06319584E+01
 20
9.45728401E+01
  0
VERTEX
  8
0
 62
4
 10
-6.08049505E+01
 20
9.46198575E+01
  0
VERTEX
  8
0
 62
4
 10
-6.09815259E+01
 20
9.46514144E+01
  0
VERTEX
  8
0
 62
4
 10
-6.11602627E+01
 20
9.46672566E+01
  0
VERTEX
  8
0
 62
4
 10
-6.13397220E+01
 20
9.46672566E+01
  0
VERTEX
  8
0
 62
4
 10
-6.15184589E+01
 20
9.46514144E+01
  0
VERTEX
  8
0
 62
4
 10
-6.16950343E+01
 20
9.46198575E+01
  0
VERTEX
  8
0
 62
4
 10
-6.18680264E+01
 20
9.45728401E+01
  0
VERTEX
  8
0
 62
4
 10
-6.20360424E+01
 20
9.45107406E+01
  0
VERTEX
  8
0
 62
4
 10
-6.21977297E+01
 20
9.44340590E+01
  0
VERTEX
  8
0
 62
4
 10
-6.23517863E+01
 20
9.43434128E+01
  0
VERTEX
  8
0
 62
4
 10
-6.24969720E+01
 20
9.42395318E+01
  0
VERTEX
  8
0
 62
4
 10
-6.26321177E+01
 20
9.41232524E+01
  0
VERTEX
  8
0
 62
4
 10
-6.27561353E+01
 20
9.39955107E+01
  0
VERTEX
  8
0
 62
4
 10
-6.28680264E+01
 20
9.38573354E+01
  0
VERTEX
  8
0
 62
4
 10
-6.29668900E+01
 20
9.37098388E+01
  0
VERTEX
  8
0
 62
4
 10
-6.30519301E+01
 20
9.35542086E+01
  0
VERTEX
  8
0
 62
4
 10
-6.31224621E+01
 20
9.33916977E+01
  0
VERTEX
  8
0
 62
4
 10
-6.31779181E+01
 20
9.32236147E+01
  0
VERTEX
  8
0
 62
4
 10
-6.32178516E+01
 20
9.30513128E+01
  0
VERTEX
  8
0
 62
4
 10
-6.32419410E+01
 20
9.28761794E+01
  0
VERTEX
  8
0
 62
4
 10
-6.32499924E+01
 20
9.26996244E+01
  0
SEQEND
  8
0
  0
POLYLINE
  8
0
 62
4
 66
1
  0
VERTEX
  8
0
 62
4
 10
-6.32499924E+01
 20
9.21639850E+01
  0
VERTEX
  8
0
 62
4
 10
-6.32423818E+01
 20
9.19923217E+01
  0
VERTEX
  8
0
 62
4
 10
-6.32196079E+01
 20
9.18219649E+01
  0
VERTEX
  8
0
 62
4
 10
-6.31818441E+01
 20
9.16542110E+01
  0
VERTEX
  8
0
 62
4
 10
-6.31293776E+01
 20
9.14903368E+01
  0
VERTEX
  8
0
 62
4
 10
-6.30626080E+01
 20
9.13315895E+01
  0
VERTEX
  8
0
 62
4
 10
-6.29820432E+01
 20
9.11791773E+01
  0
VERTEX
  8
0
 62
4
 10
-6.28882965E+01
 20
9.10342600E+01
  0
VERTEX
  8
0
 62
4
 10
-6.27820813E+01
 20
9.08979406E+01
  0
VERTEX
  8
0
 62
4
 10
-6.26642060E+01
 20
9.07712565E+01
  0
VERTEX
  8
0
 62
4
 10
-6.25355676E+01
 20
9.06551720E+01
  0
VERTEX
  8
0
 62
4
 10
-6.23971453E+01
 20
9.05505704E+01
  0
VERTEX
  8
0
 62
4
 10
-6.22499924E+01
 20
9.04582479E+01
  0
VERTEX
  8
0
 62
4
 10
-6.20952289E+01
 20
9.03789071E+01
  0
VERTEX
  8
0
 62
4
 10
-6.19340327E+01
 20
9.03131518E+01
  0
VERTEX
  8
0
 62
4
 10
-6.17676305E+01
 20
9.02614825E+01
  0
VERTEX
  8
0
 62
4
 10
-6.15972888E+01
 20
9.02242924E+01
  0
VERTEX
  8
0
 62
4
 10
-6.14243039E+01
 20
9.02018645E+01
  0
VERTEX
  8
0
 62
4
 10
-6.12499924E+01
 20
9.01943695E+01
  0
VERTEX
  8
0
 62
4
 10
-6.10756809E+01
 20
9.02018645E+01
  0
VERTEX
  8
0
 62
4
 10
-6.09026961E+01
 20
9.02242924E+01
  0
VERTEX
  8
0
 62
4
 10
-6.07323543E+01
 20
9.02614825E+01
  0
VERTEX
  8
0
 62
4
 10
-6.05659521E+01
 20
9.03131518E+01
  0
VERTEX
  8
0
 62
4
 10
-6.04047559E+01
 20
9.03789071E+01
  0
VERTEX
  8
0
 62
4
 10
-6.02499924E+01
 20
9.04582479E+01
  0
VERTEX
  8
0
 62
4
 10
-6.01028395E+01
 20
9.05505704E+01
  0
VERTEX
  8
0
 62
4
 10
-5.99644172E+01
 20
9.06551720E+01
  0
VERTEX
  8
0
 62
4
 10
-5.98357788E+01
 20
9.07712565E+01
  0
VERTEX
  8
0
 62
4
 10
-5.97179035E+01
 20
9.08979406E+01
  0
VERTEX
  8
0
 62
4
 10
-5.96116883E+01
 20
9.10342600E+01
  0
VERTEX
  8
0
 62
4
 10
-5.95179416E+01
 20
9.11791772E+01
  0
VERTEX
  8
0
 62
4
 10
-5.94373768E+01
 20
9.13315895E+01
  0
VERTEX
  8
0
 62
4
 10
-5.93706072E+01
 20
9.14903368E+01
  0
VERTEX
  8
0
 62
4
 10
-5.93181407E+01
 20
9.16542110E+01
  0
VERTEX
  8
0
 62
4
 10
-5.92803769E+01
 20
9.18219649E+01
  0
VERTEX
  8
0
 62
4
 10
-5.92576030E+01
 20
9.19923217E+01
  0
VERTEX
  8
0
 62
4
 10
-5.92499924E+01
 20
9.21639850E+01
  0
VERTEX
  8
0
 62
4
 10
-5.92576030E+01
 20
9.23356483E+01
  0
VERTEX
  8
0
 62
4
 10
-5.92803769E+01
 20
9.25060051E+01
  0
VERTEX
  8
0
 62
4
 10
-5.93181407E+01
 20
9.26737590E+01
  0
VERTEX
  8
0
 62
4
 10
-5.93706072E+01
 20
9.28376332E+01
  0
VERTEX
  8
0
 62
4
 10
-5.94373768E+01
 20
9.29963805E+01
  0
VERTEX
  8
0
 62
4
 10
-5.95179416E+01
 20
9.31487928E+01
  0
VERTEX
  8
0
 62
4
 10
-5.96116883E+01
 20
9.32937100E+01
  0
VERTEX
  8
0
 62
4
 10
-5.97179035E+01
 20
9.34300294E+01
  0
VERTEX
  8
0
 62
4
 10
-5.98357788E+01
 20
9.35567135E+01
  0
VERTEX
  8
0
 62
4
 10
-5.99644172E+01
 20
9.36727980E+01
  0
VERTEX
  8
0
 62
4
 10
-6.01028395E+01
 20
9.37773996E+01
  0
VERTEX
  8
0
 62
4
 10
-6.02499924E+01
 20
9.38697221E+01
  0
VERTEX
  8
0
 62
4
 10
-6.04047559E+01
 20
9.39490629E+01
  0
VERTEX
  8
0
 62
4
 10
-6.05659521E+01
 20
9.40148182E+01
  0
VERTEX
  8
0
 62
4
 10
-6.07323543E+01
 20
9.40664875E+01
  0
VERTEX
  8
0
 62
4
 10
-6.09026960E+01
 20
9.41036776E+01
  0
VERTEX
  8
0
 62
4
 10
-6.10756809E+01
 20
9.41261055E+01
  0
VERTEX
  8
0
 62
4
 10
-6.12499924E+01
 20
9.41336005E+01
  0
VERTEX
  8
0
 62
4
 10
-6.14243039E+01
 20
9.41261055E+01
  0
VERTEX
  8
0
 62
4
 10
-6.15972888E+01
 20
9.41036776E+01
  0
VERTEX
  8
0
 62
4
 10
-6.17676305E+01
 20
9.40664875E+01
  0
VERTEX
  8
0
 62
4
 10
-6.19340327E+01
 20
9.40148182E+01
  0
VERTEX
  8
0
 62
4
 10
-6.20952289E+01
 20
9.39490629E+01
  0
VERTEX
  8
0
 62
4
 10
-6.22499924E+01
 20
9.38697221E+01
  0
VERTEX
  8
0
 62
4
 10
-6.23971453E+01
 20
9.37773996E+01
  0
VERTEX
  8
0
 62
4
 10
-6.25355676E+01
 20
9.36727980E+01
  0
VERTEX
  8
0
 62
4
 10
-6.26642060E+01
 20
9.35567135E+01
  0
VERTEX
  8
0
 62
4
 10
-6.27820813E+01
 20
9.34300294E+01
  0
VERTEX
  8
0
 62
4
 10
-6.28882965E+01
 20
9.32937100E+01
  0
VERTEX
  8
0
 62
4
 10
-6.29820432E+01
 20
9.31487928E+01
  0
VERTEX
  8
0
 62
4
 10
-6.30626080E+01
 20
9.29963805E+01
  0
VERTEX
  8
0
 62
4
 10
-6.31293776E+01
 20
9.28376332E+01
  0
VERTEX
  8
0
 62
4
 10
-6.31818441E+01
 20
9.26737590E+01
  0
VERTEX
  8
0
 62
4
 10
-6.32196079E+01
 20
9.25060051E+01
  0
VERTEX
  8
0
 62
4
 10
-6.32423818E+01
 20
9.23356483E+01
  0
VERTEX
  8
0
 62
4
 10
-6.32499924E+01
 20
9.21639850E+01
  0
SEQEND
  8
0
  0
LINE
  8
0
 62
4
 10
-6.32499924E+01
 20
9.21639850E+01
 11
-6.32499924E+01
 21
9.26996244E+01
  0
LINE
  8
0
 62
4
 10
-5.92499924E+01
 20
9.21639850E+01
 11
-5.92499924E+01
 21
9.26996244E+01
  0
POLYLINE
  8
0
 62
6
 66
1
  0
VERTEX
  8
0
 62
6
 10
-5.97499924E+01
 20
9.21639850E+01
  0
VERTEX
  8
0
 62
6
 10
-5.97557004E+01
 20
9.22927325E+01
  0
VERTEX
  8
0
 62
6
 10
-5.97727808E+01
 20
9.24205001E+01
  0
VERTEX
  8
0
 62
6
 10
-5.98011037E+01
 20
9.25463155E+01
  0
VERTEX
  8
0
 62
6
 10
-5.98404535E+01
 20
9.26692211E+01
  0
VERTEX
  8
0
 62
6
 10
-5.98905307E+01
 20
9.27882816E+01
  0
VERTEX
  8
0
 62
6
 10
-5.99509543E+01
 20
9.29025908E+01
  0
VERTEX
  8
0
 62
6
 10
-6.00212643E+01
 20
9.30112788E+01
  0
VERTEX
  8
0
 62
6
 10
-6.01009257E+01
 20
9.31135183E+01
  0
VERTEX
  8
0
 62
6
 10
-6.01893322E+01
 20
9.32085314E+01
  0
VERTEX
  8
0
 62
6
 10
-6.02858110E+01
 20
9.32955948E+01
  0
VERTEX
  8
0
 62
6
 10
-6.03896277E+01
 20
9.33740459E+01
  0
VERTEX
  8
0
 62
6
 10
-6.04999924E+01
 20
9.34432878E+01
  0
VERTEX
  8
0
 62
6
 10
-6.06160650E+01
 20
9.35027934E+01
  0
VERTEX
  8
0
 62
6
 10
-6.07369622E+01
 20
9.35521099E+01
  0
VERTEX
  8
0
 62
6
 10
-6.08617638E+01
 20
9.35908619E+01
  0
VERTEX
  8
0
 62
6
 10
-6.09895201E+01
 20
9.36187545E+01
  0
VERTEX
  8
0
 62
6
 10
-6.11192588E+01
 20
9.36355754E+01
  0
VERTEX
  8
0
 62
6
 10
-6.12499924E+01
 20
9.36411966E+01
  0
VERTEX
  8
0
 62
6
 10
-6.13807260E+01
 20
9.36355754E+01
  0
VERTEX
  8
0
 62
6
 10
-6.15104647E+01
 20
9.36187545E+01
  0
VERTEX
  8
0
 62
6
 10
-6.16382210E+01
 20
9.35908619E+01
  0
VERTEX
  8
0
 62
6
 10
-6.17630226E+01
 20
9.35521099E+01
  0
VERTEX
  8
0
 62
6
 10
-6.18839198E+01
 20
9.35027934E+01
  0
VERTEX
  8
0
 62
6
 10
-6.19999924E+01
 20
9.34432878E+01
  0
VERTEX
  8
0
 62
6
 10
-6.21103571E+01
 20
9.33740459E+01
  0
VERTEX
  8
0
 62
6
 10
-6.22141738E+01
 20
9.32955948E+01
  0
VERTEX
  8
0
 62
6
 10
-6.23106526E+01
 20
9.32085314E+01
  0
VERTEX
  8
0
 62
6
 10
-6.23990591E+01
 20
9.31135183E+01
  0
VERTEX
  8
0
 62
6
 10
-6.24787205E+01
 20
9.30112788E+01
  0
VERTEX
  8
0
 62
6
 10
-6.25490305E+01
 20
9.29025908E+01
  0
VERTEX
  8
0
 62
6
 10
-6.26094541E+01
 20
9.27882816E+01
  0
VERTEX
  8
0
 62
6
 10
-6.26595313E+01
 20
9.26692211E+01
  0
VERTEX
  8
0
 62
6
 10
-6.26988811E+01
 20
9.25463155E+01
  0
VERTEX
  8
0
 62
6
 10
-6.27272040E+01
 20
9.24205001E+01
  0
VERTEX
  8
0
 62
6
 10
-6.27442844E+01
 20
9.22927325E+01
  0
VERTEX
  8
0
 62
6
 10
-6.27499924E+01
 20
9.21639850E+01
  0
VERTEX
  8
0
 62
6
 10
-6.27442844E+01
 20
9.20352375E+01
  0
VERTEX
  8
0
 62
6
 10
-6.27272040E+01
 20
9.19074699E+01
  0
VERTEX
  8
0
 62
6
 10
-6.26988811E+01
 20
9.17816545E+01
  0
VERTEX
  8
0
 62
6
 10
-6.26595313E+01
 20
9.16587489E+01
  0
VERTEX
  8
0
 62
6
 10
-6.26094541E+01
 20
9.15396884E+01
  0
VERTEX
  8
0
 62
6
 10
-6.25490305E+01
 20
9.14253792E+01
  0
VERTEX
  8
0
 62
6
 10
-6.24787205E+01
 20
9.13166912E+01
  0
VERTEX
  8
0
 62
6
 10
-6.23990591E+01
 20
9.12144517E+01
  0
VERTEX
  8
0
 62
6
 10
-6.23106526E+01
 20
9.11194386E+01
  0
VERTEX
  8
0
 62
6
 10
-6.22141738E+01
 20
9.10323752E+01
  0
VERTEX
  8
0
 62
6
 10
-6.21103571E+01
 20
9.09539241E+01
  0
VERTEX
  8
0
 62
6
 10
-6.19999924E+01
 20
9.08846822E+01
  0
VERTEX
  8
0
 62
6
 10
-6.18839198E+01
 20
9.08251766E+01
  0
VERTEX
  8
0
 62
6
 10
-6.17630226E+01
 20
9.07758601E+01
  0
VERTEX
  8
0
 62
6
 10
-6.16382210E+01
 20
9.07371081E+01
  0
VERTEX
  8
0
 62
6
 10
-6.15104647E+01
 20
9.07092155E+01
  0
VERTEX
  8
0
 62
6
 10
-6.13807260E+01
 20
9.06923946E+01
  0
VERTEX
  8
0
 62
6
 10
-6.12499924E+01
 20
9.06867734E+01
  0
VERTEX
  8
0
 62
6
 10
-6.11192588E+01
 20
9.06923946E+01
  0
VERTEX
  8
0
 62
6
 10
-6.09895201E+01
 20
9.07092155E+01
  0
VERTEX
  8
0
 62
6
 10
-6.08617638E+01
 20
9.07371081E+01
  0
VERTEX
  8
0
 62
6
 10
-6.07369622E+01
 20
9.07758601E+01
  0
VERTEX
  8
0
 62
6
 10
-6.06160650E+01
 20
9.08251766E+01
  0
VERTEX
  8
0
 62
6
 10
-6.04999924E+01
 20
9.08846822E+01
  0
VERTEX
  8
0
 62
6
 10
-6.03896277E+01
 20
9.09539241E+01
  0
VERTEX
  8
0
 62
6
 10
-6.02858110E+01
 20
9.10323752E+01
  0
VERTEX
  8
0
 62
6
 10
-6.01893322E+01
 20
9.11194386E+01
  0
VERTEX
  8
0
 62
6
 10
-6.01009257E+01
 20
9.12144517E+01
  0
VERTEX
  8
0
 62
6
 10
-6.00212643E+01
 20
9.13166912E+01
  0
VERTEX
  8
0
 62
6
 10
-5.99509543E+01
 20
9.14253792E+01
  0
VERTEX
  8
0
 62
6
 10
-5.98905307E+01
 20
9.15396884E+01
  0
VERTEX
  8
0
 62
6
 10
-5.98404535E+01
 20
9.16587489E+01
  0
VERTEX
  8
0
 62
6
 10
-5.98011037E+01
 20
9.17816545E+01
  0
VERTEX
  8
0
 62
6
 10
-5.97727808E+01
 20
9.19074699E+01
  0
VERTEX
  8
0
 62
6
 10
-5.97557004E+01
 20
9.20352375E+01
  0
VERTEX
  8
0
 62
6
 10
-5.97499924E+01
 20
9.21639850E+01
  0
SEQEND
  8
0
  0
LINE
  8
0
 62
4
 10
-6.22499924E+01
 20
9.27351735E+01
 11
-6.22499924E+01
 21
9.15927965E+01
  0
LINE
  8
0
 62
4
 10
-6.02499924E+01
 20
9.27351735E+01
 11
-6.02499924E+01
 21
9.15927965E+01
  0
LINE
  8
0
 62
4
 10
-6.12499924E+01
 20
9.32965139E+01
 11
-6.22499924E+01
 21
9.27351735E+01
  0
LINE
  8
0
 62
4
 10
-6.12499924E+01
 20
9.32965139E+01
 11
-6.02499924E+01
 21
9.27351735E+01
  0
LINE
  8
0
 62
4
 10
-6.02499924E+01
 20
9.15927965E+01
 11
-6.12499924E+01
 21
9.10216080E+01
  0
LINE
  8
0
 62
4
 10
-6.22499924E+01
 20
9.15927965E+01
 11
-6.12499924E+01
 21
9.10216080E+01
  0
LINE
  8
0
 62
4
 10
-5.42499924E+01
 20
9.15927965E+01
 11
-5.32499924E+01
 21
9.10216080E+01
  0
LINE
  8
0
 62
4
 10
-5.22499924E+01
 20
9.15927965E+01
 11
-5.32499924E+01
 21
9.10216080E+01
  0
LINE
  8
0
 62
4
 10
-5.32499924E+01
 20
9.32965139E+01
 11
-5.22499924E+01
 21
9.27351735E+01
  0
LINE
  8
0
 62
4
 10
-5.32499924E+01
 20
9.32965139E+01
 11
-5.42499924E+01
 21
9.27351735E+01
  0
LINE
  8
0
 62
4
 10
-5.22499924E+01
 20
9.27351735E+01
 11
-5.22499924E+01
 21
9.15927965E+01
  0
LINE
  8
0
 62
4
 10
-5.42499924E+01
 20
9.27351735E+01
 11
-5.42499924E+01
 21
9.15927965E+01
  0
POLYLINE
  8
0
 62
6
 66
1
  0
VERTEX
  8
0
 62
6
 10
-5.17499924E+01
 20
9.21639850E+01
  0
VERTEX
  8
0
 62
6
 10
-5.17557004E+01
 20
9.22927325E+01
  0
VERTEX
  8
0
 62
6
 10
-5.17727808E+01
 20
9.24205001E+01
  0
VERTEX
  8
0
 62
6
 10
-5.18011037E+01
 20
9.25463155E+01
  0
VERTEX
  8
0
 62
6
 10
-5.18404535E+01
 20
9.26692211E+01
  0
VERTEX
  8
0
 62
6
 10
-5.18905307E+01
 20
9.27882816E+01
  0
VERTEX
  8
0
 62
6
 10
-5.19509543E+01
 20
9.29025908E+01
  0
VERTEX
  8
0
 62
6
 10
-5.20212643E+01
 20
9.30112788E+01
  0
VERTEX
  8
0
 62
6
 10
-5.21009257E+01
 20
9.31135183E+01
  0
VERTEX
  8
0
 62
6
 10
-5.21893322E+01
 20
9.32085314E+01
  0
VERTEX
  8
0
 62
6
 10
-5.22858110E+01
 20
9.32955948E+01
  0
VERTEX
  8
0
 62
6
 10
-5.23896277E+01
 20
9.33740459E+01
  0
VERTEX
  8
0
 62
6
 10
-5.24999924E+01
 20
9.34432878E+01
  0
VERTEX
  8
0
 62
6
 10
-5.26160650E+01
 20
9.35027934E+01
  0
VERTEX
  8
0
 62
6
 10
-5.27369622E+01
 20
9.35521099E+01
  0
VERTEX
  8
0
 62
6
 10
-5.28617638E+01
 20
9.35908619E+01
  0
VERTEX
  8
0
 62
6
 10
-5.29895201E+01
 20
9.36187545E+01
  0
VERTEX
  8
0
 62
6
 10
-5.31192588E+01
 20
9.36355754E+01
  0
VERTEX
  8
0
 62
6
 10
-5.32499924E+01
 20
9.36411966E+01
  0
VERTEX
  8
0
 62
6
 10
-5.33807260E+01
 20
9.36355754E+01
  0
VERTEX
  8
0
 62
6
 10
-5.35104647E+01
 20
9.36187545E+01
  0
VERTEX
  8
0
 62
6
 10
-5.36382210E+01
 20
9.35908619E+01
  0
VERTEX
  8
0
 62
6
 10
-5.37630226E+01
 20
9.35521099E+01
  0
VERTEX
  8
0
 62
6
 10
-5.38839198E+01
 20
9.35027934E+01
  0
VERTEX
  8
0
 62
6
 10
-5.39999924E+01
 20
9.34432878E+01
  0
VERTEX
  8
0
 62
6
 10
-5.41103571E+01
 20
9.33740459E+01
  0
VERTEX
  8
0
 62
6
 10
-5.42141738E+01
 20
9.32955948E+01
  0
VERTEX
  8
0
 62
6
 10
-5.43106526E+01
 20
9.32085314E+01
  0
VERTEX
  8
0
 62
6
 10
-5.43990591E+01
 20
9.31135183E+01
  0
VERTEX
  8
0
 62
6
 10
-5.44787205E+01
 20
9.30112788E+01
  0
VERTEX
  8
0
 62
6
 10
-5.45490305E+01
 20
9.29025908E+01
  0
VERTEX
  8
0
 62
6
 10
-5.46094541E+01
 20
9.27882816E+01
  0
VERTEX
  8
0
 62
6
 10
-5.46595313E+01
 20
9.26692211E+01
  0
VERTEX
  8
0
 62
6
 10
-5.46988811E+01
 20
9.25463155E+01
  0
VERTEX
  8
0
 62
6
 10
-5.47272040E+01
 20
9.24205001E+01
  0
VERTEX
  8
0
 62
6
 10
-5.47442844E+01
 20
9.22927325E+01
  0
VERTEX
  8
0
 62
6
 10
-5.47499924E+01
 20
9.21639850E+01
  0
VERTEX
  8
0
 62
6
 10
-5.47442844E+01
 20
9.20352375E+01
  0
VERTEX
  8
0
 62
6
 10
-5.47272040E+01
 20
9.19074699E+01
  0
VERTEX
  8
0
 62
6
 10
-5.46988811E+01
 20
9.17816545E+01
  0
VERTEX
  8
0
 62
6
 10
-5.46595313E+01
 20
9.16587489E+01
  0
VERTEX
  8
0
 62
6
 10
-5.46094541E+01
 20
9.15396884E+01
  0
VERTEX
  8
0
 62
6
 10
-5.45490305E+01
 20
9.14253792E+01
  0
VERTEX
  8
0
 62
6
 10
-5.44787205E+01
 20
9.13166912E+01
  0
VERTEX
  8
0
 62
6
 10
-5.43990591E+01
 20
9.12144517E+01
  0
VERTEX
  8
0
 62
6
 10
-5.43106526E+01
 20
9.11194386E+01
  0
VERTEX
  8
0
 62
6
 10
-5.42141738E+01
 20
9.10323752E+01
  0
VERTEX
  8
0
 62
6
 10
-5.41103571E+01
 20
9.09539241E+01
  0
VERTEX
  8
0
 62
6
 10
-5.39999924E+01
 20
9.08846822E+01
  0
VERTEX
  8
0
 62
6
 10
-5.38839198E+01
 20
9.08251766E+01
  0
VERTEX
  8
0
 62
6
 10
-5.37630226E+01
 20
9.07758601E+01
  0
VERTEX
  8
0
 62
6
 10
-5.36382210E+01
 20
9.07371081E+01
  0
VERTEX
  8
0
 62
6
 10
-5.35104647E+01
 20
9.07092155E+01
  0
VERTEX
  8
0
 62
6
 10
-5.33807260E+01
 20
9.06923946E+01
  0
VERTEX
  8
0
 62
6
 10
-5.32499924E+01
 20
9.06867734E+01
  0
VERTEX
  8
0
 62
6
 10
-5.31192588E+01
 20
9.06923946E+01
  0
VERTEX
  8
0
 62
6
 10
-5.29895201E+01
 20
9.07092155E+01
  0
VERTEX
  8
0
 62
6
 10
-5.28617638E+01
 20
9.07371081E+01
  0
VERTEX
  8
0
 62
6
 10
-5.27369622E+01
 20
9.07758601E+01
  0
VERTEX
  8
0
 62
6
 10
-5.26160650E+01
 20
9.08251766E+01
  0
VERTEX
  8
0
 62
6
 10
-5.24999924E+01
 20
9.08846822E+01
  0
VERTEX
  8
0
 62
6
 10
-5.23896277E+01
 20
9.09539241E+01
  0
VERTEX
  8
0
 62
6
 10
-5.22858110E+01
 20
9.10323752E+01
  0
VERTEX
  8
0
 62
6
 10
-5.21893322E+01
 20
9.11194386E+01
  0
VERTEX
  8
0
 62
6
 10
-5.21009257E+01
 20
9.12144517E+01
  0
VERTEX
  8
0
 62
6
 10
-5.20212643E+01
 20
9.13166912E+01
  0
VERTEX
  8
0
 62
6
 10
-5.19509543E+01
 20
9.14253792E+01
  0
VERTEX
  8
0
 62
6
 10
-5.18905307E+01
 20
9.15396884E+01
  0
VERTEX
  8
0
 62
6
 10
-5.18404535E+01
 20
9.16587489E+01
  0
VERTEX
  8
0
 62
6
 10
-5.18011037E+01
 20
9.17816545E+01
  0
VERTEX
  8
0
 62
6
 10
-5.17727808E+01
 20
9.19074699E+01
  0
VERTEX
  8
0
 62
6
 10
-5.17557004E+01
 20
9.20352375E+01
  0
VERTEX
  8
0
 62
6
 10
-5.17499924E+01
 20
9.21639850E+01
  0
SEQEND
  8
0
  0
LINE
  8
0
 62
4
 10
-5.12499924E+01
 20
9.21639850E+01
 11
-5.12499924E+01
 21
9.26996244E+01
  0
LINE
  8
0
 62
4
 10
-5.52499924E+01
 20
9.21639850E+01
 11
-5.52499924E+01
 21
9.26996244E+01
  0
POLYLINE
  8
0
 62
4
 66
1
  0
VERTEX
  8
0
 62
4
 10
-5.52499924E+01
 20
9.21639850E+01
  0
VERTEX
  8
0
 62
4
 10
-5.52423818E+01
 20
9.19923217E+01
  0
VERTEX
  8
0
 62
4
 10
-5.52196079E+01
 20
9.18219649E+01
  0
VERTEX
  8
0
 62
4
 10
-5.51818441E+01
 20
9.16542110E+01
  0
VERTEX
  8
0
 62
4
 10
-5.51293776E+01
 20
9.14903368E+01
  0
VERTEX
  8
0
 62
4
 10
-5.50626080E+01
 20
9.13315895E+01
  0
VERTEX
  8
0
 62
4
 10
-5.49820432E+01
 20
9.11791773E+01
  0
VERTEX
  8
0
 62
4
 10
-5.48882965E+01
 20
9.10342600E+01
  0
VERTEX
  8
0
 62
4
 10
-5.47820813E+01
 20
9.08979406E+01
  0
VERTEX
  8
0
 62
4
 10
-5.46642060E+01
 20
9.07712565E+01
  0
VERTEX
  8
0
 62
4
 10
-5.45355676E+01
 20
9.06551720E+01
  0
VERTEX
  8
0
 62
4
 10
-5.43971453E+01
 20
9.05505704E+01
  0
VERTEX
  8
0
 62
4
 10
-5.42499924E+01
 20
9.04582479E+01
  0
VERTEX
  8
0
 62
4
 10
-5.40952289E+01
 20
9.03789071E+01
  0
VERTEX
  8
0
 62
4
 10
-5.39340327E+01
 20
9.03131518E+01
  0
VERTEX
  8
0
 62
4
 10
-5.37676305E+01
 20
9.02614825E+01
  0
VERTEX
  8
0
 62
4
 10
-5.35972888E+01
 20
9.02242924E+01
  0
VERTEX
  8
0
 62
4
 10
-5.34243039E+01
 20
9.02018645E+01
  0
VERTEX
  8
0
 62
4
 10
-5.32499924E+01
 20
9.01943695E+01
  0
VERTEX
  8
0
 62
4
 10
-5.30756809E+01
 20
9.02018645E+01
  0
VERTEX
  8
0
 62
4
 10
-5.29026961E+01
 20
9.02242924E+01
  0
VERTEX
  8
0
 62
4
 10
-5.27323543E+01
 20
9.02614825E+01
  0
VERTEX
  8
0
 62
4
 10
-5.25659521E+01
 20
9.03131518E+01
  0
VERTEX
  8
0
 62
4
 10
-5.24047559E+01
 20
9.03789071E+01
  0
VERTEX
  8
0
 62
4
 10
-5.22499924E+01
 20
9.04582479E+01
  0
VERTEX
  8
0
 62
4
 10
-5.21028395E+01
 20
9.05505704E+01
  0
VERTEX
  8
0
 62
4
 10
-5.19644172E+01
 20
9.06551720E+01
  0
VERTEX
  8
0
 62
4
 10
-5.18357788E+01
 20
9.07712565E+01
  0
VERTEX
  8
0
 62
4
 10
-5.17179035E+01
 20
9.08979406E+01
  0
VERTEX
  8
0
 62
4
 10
-5.16116883E+01
 20
9.10342600E+01
  0
VERTEX
  8
0
 62
4
 10
-5.15179416E+01
 20
9.11791772E+01
  0
VERTEX
  8
0
 62
4
 10
-5.14373768E+01
 20
9.13315895E+01
  0
VERTEX
  8
0
 62
4
 10
-5.13706072E+01
 20
9.14903368E+01
  0
VERTEX
  8
0
 62
4
 10
-5.13181407E+01
 20
9.16542110E+01
  0
VERTEX
  8
0
 62
4
 10
-5.12803769E+01
 20
9.18219649E+01
  0
VERTEX
  8
0
 62
4
 10
-5.12576030E+01
 20
9.19923217E+01
  0
VERTEX
  8
0
 62
4
 10
-5.12499924E+01
 20
9.21639850E+01
  0
VERTEX
  8
0
 62
4
 10
-5.12576030E+01
 20
9.23356483E+01
  0
VERTEX
  8
0
 62
4
 10
-5.12803769E+01
 20
9.25060051E+01
  0
VERTEX
  8
0
 62
4
 10
-5.13181407E+01
 20
9.26737590E+01
  0
VERTEX
  8
0
 62
4
 10
-5.13706072E+01
 20
9.28376332E+01
  0
VERTEX
  8
0
 62
4
 10
-5.14373768E+01
 20
9.29963805E+01
  0
VERTEX
  8
0
 62
4
 10
-5.15179416E+01
 20
9.31487928E+01
  0
VERTEX
  8
0
 62
4
 10
-5.16116883E+01
 20
9.32937100E+01
  0
VERTEX
  8
0
 62
4
 10
-5.17179035E+01
 20
9.34300294E+01
  0
VERTEX
  8
0
 62
4
 10
-5.18357788E+01
 20
9.35567135E+01
  0
VERTEX
  8
0
 62
4
 10
-5.19644172E+01
 20
9.36727980E+01
  0
VERTEX
  8
0
 62
4
 10
-5.21028395E+01
 20
9.37773996E+01
  0
VERTEX
  8
0
 62
4
 10
-5.22499924E+01
 20
9.38697221E+01
  0
VERTEX
  8
0
 62
4
 10
-5.24047559E+01
 20
9.39490629E+01
  0
VERTEX
  8
0
 62
4
 10
-5.25659521E+01
 20
9.40148182E+01
  0
VERTEX
  8
0
 62
4
 10
-5.27323543E+01
 20
9.40664875E+01
  0
VERTEX
  8
0
 62
4
 10
-5.29026960E+01
 20
9.41036776E+01
  0
VERTEX
  8
0
 62
4
 10
-5.30756809E+01
 20
9.41261055E+01
  0
VERTEX
  8
0
 62
4
 10
-5.32499924E+01
 20
9.41336005E+01
  0
VERTEX
  8
0
 62
4
 10
-5.34243039E+01
 20
9.41261055E+01
  0
VERTEX
  8
0
 62
4
 10
-5.35972888E+01
 20
9.41036776E+01
  0
VERTEX
  8
0
 62
4
 10
-5.37676305E+01
 20
9.40664875E+01
  0
VERTEX
  8
0
 62
4
 10
-5.39340327E+01
 20
9.40148182E+01
  0
VERTEX
  8
0
 62
4
 10
-5.40952289E+01
 20
9.39490629E+01
  0
VERTEX
  8
0
 62
4
 10
-5.42499924E+01
 20
9.38697221E+01
  0
VERTEX
  8
0
 62
4
 10
-5.43971453E+01
 20
9.37773996E+01
  0
VERTEX
  8
0
 62
4
 10
-5.45355676E+01
 20
9.36727980E+01
  0
VERTEX
  8
0
 62
4
 10
-5.46642060E+01
 20
9.35567135E+01
  0
VERTEX
  8
0
 62
4
 10
-5.47820813E+01
 20
9.34300294E+01
  0
VERTEX
  8
0
 62
4
 10
-5.48882965E+01
 20
9.32937100E+01
  0
VERTEX
  8
0
 62
4
 10
-5.49820432E+01
 20
9.31487928E+01
  0
VERTEX
  8
0
 62
4
 10
-5.50626080E+01
 20
9.29963805E+01
  0
VERTEX
  8
0
 62
4
 10
-5.51293776E+01
 20
9.28376332E+01
  0
VERTEX
  8
0
 62
4
 10
-5.51818441E+01
 20
9.26737590E+01
  0
VERTEX
  8
0
 62
4
 10
-5.52196079E+01
 20
9.25060051E+01
  0
VERTEX
  8
0
 62
4
 10
-5.52423818E+01
 20
9.23356483E+01
  0
VERTEX
  8
0
 62
4
 10
-5.52499924E+01
 20
9.21639850E+01
  0
SEQEND
  8
0
  0
POLYLINE
  8
0
 62
4
 66
1
  0
VERTEX
  8
0
 62
4
 10
-5.12499924E+01
 20
9.26996244E+01
  0
VERTEX
  8
0
 62
4
 10
-5.12580438E+01
 20
9.28761794E+01
  0
VERTEX
  8
0
 62
4
 10
-5.12821332E+01
 20
9.30513128E+01
  0
VERTEX
  8
0
 62
4
 10
-5.13220667E+01
 20
9.32236147E+01
  0
VERTEX
  8
0
 62
4
 10
-5.13775227E+01
 20
9.33916977E+01
  0
VERTEX
  8
0
 62
4
 10
-5.14480547E+01
 20
9.35542085E+01
  0
VERTEX
  8
0
 62
4
 10
-5.15330948E+01
 20
9.37098388E+01
  0
VERTEX
  8
0
 62
4
 10
-5.16319584E+01
 20
9.38573353E+01
  0
VERTEX
  8
0
 62
4
 10
-5.17438495E+01
 20
9.39955107E+01
  0
VERTEX
  8
0
 62
4
 10
-5.18678671E+01
 20
9.41232524E+01
  0
VERTEX
  8
0
 62
4
 10
-5.20030128E+01
 20
9.42395318E+01
  0
VERTEX
  8
0
 62
4
 10
-5.21481984E+01
 20
9.43434128E+01
  0
VERTEX
  8
0
 62
4
 10
-5.23022551E+01
 20
9.44340590E+01
  0
VERTEX
  8
0
 62
4
 10
-5.24639423E+01
 20
9.45107406E+01
  0
VERTEX
  8
0
 62
4
 10
-5.26319584E+01
 20
9.45728401E+01
  0
VERTEX
  8
0
 62
4
 10
-5.28049505E+01
 20
9.46198575E+01
  0
VERTEX
  8
0
 62
4
 10
-5.29815259E+01
 20
9.46514144E+01
  0
VERTEX
  8
0
 62
4
 10
-5.31602627E+01
 20
9.46672566E+01
  0
VERTEX
  8
0
 62
4
 10
-5.33397220E+01
 20
9.46672566E+01
  0
VERTEX
  8
0
 62
4
 10
-5.35184589E+01
 20
9.46514144E+01
  0
VERTEX
  8
0
 62
4
 10
-5.36950343E+01
 20
9.46198575E+01
  0
VERTEX
  8
0
 62
4
 10
-5.38680264E+01
 20
9.45728401E+01
  0
VERTEX
  8
0
 62
4
 10
-5.40360424E+01
 20
9.45107406E+01
  0
VERTEX
  8
0
 62
4
 10
-5.41977297E+01
 20
9.44340590E+01
  0
VERTEX
  8
0
 62
4
 10
-5.43517863E+01
 20
9.43434128E+01
  0
VERTEX
  8
0
 62
4
 10
-5.44969720E+01
 20
9.42395318E+01
  0
VERTEX
  8
0
 62
4
 10
-5.46321177E+01
 20
9.41232524E+01
  0
VERTEX
  8
0
 62
4
 10
-5.47561353E+01
 20
9.39955107E+01
  0
VERTEX
  8
0
 62
4
 10
-5.48680264E+01
 20
9.38573354E+01
  0
VERTEX
  8
0
 62
4
 10
-5.49668900E+01
 20
9.37098388E+01
  0
VERTEX
  8
0
 62
4
 10
-5.50519301E+01
 20
9.35542086E+01
  0
VERTEX
  8
0
 62
4
 10
-5.51224621E+01
 20
9.33916977E+01
  0
VERTEX
  8
0
 62
4
 10
-5.51779181E+01
 20
9.32236147E+01
  0
VERTEX
  8
0
 62
4
 10
-5.52178516E+01
 20
9.30513128E+01
  0
VERTEX
  8
0
 62
4
 10
-5.52419410E+01
 20
9.28761794E+01
  0
VERTEX
  8
0
 62
4
 10
-5.52499924E+01
 20
9.26996244E+01
  0
SEQEND
  8
0
  0
POLYLINE
  8
0
 62
4
 66
1
  0
VERTEX
  8
0
 62
4
 10
-4.44999924E+01
 20
1.10655691E+02
  0
VERTEX
  8
0
 62
4
 10
-4.44914305E+01
 20
1.10462570E+02
  0
VERTEX
  8
0
 62
4
 10
-4.44658098E+01
 20
1.10270918E+02
  0
VERTEX
  8
0
 62
4
 10
-4.44233255E+01
 20
1.10082195E+02
  0
VERTEX
  8
0
 62
4
 10
-4.43643008E+01
 20
1.09897837E+02
  0
VERTEX
  8
0
 62
4
 10
-4.42891849E+01
 20
1.09719246E+02
  0
VERTEX
  8
0
 62
4
 10
-4.41985496E+01
 20
1.09547782E+02
  0
VERTEX
  8
0
 62
4
 10
-4.40930845E+01
 20
1.09384750E+02
  0
VERTEX
  8
0
 62
4
 10
-4.39735924E+01
 20
1.09231391E+02
  0
VERTEX
  8
0
 62
4
 10
-4.38409827E+01
 20
1.09088871E+02
  0
VERTEX
  8
0
 62
4
 10
-4.36962645E+01
 20
1.08958276E+02
  0
VERTEX
  8
0
 62
4
 10
-4.35405394E+01
 20
1.08840600E+02
  0
VERTEX
  8
0
 62
4
 10
-4.33749924E+01
 20
1.08736737E+02
  0
VERTEX
  8
0
 62
4
 10
-4.32008835E+01
 20
1.08647478E+02
  0
VERTEX
  8
0
 62
4
 10
-4.30195377E+01
 20
1.08573504E+02
  0
VERTEX
  8
0
 62
4
 10
-4.28323353E+01
 20
1.08515376E+02
  0
VERTEX
  8
0
 62
4
 10
-4.26407008E+01
 20
1.08473537E+02
  0
VERTEX
  8
0
 62
4
 10
-4.24460928E+01
 20
1.08448305E+02
  0
VERTEX
  8
0
 62
4
 10
-4.22499924E+01
 20
1.08439874E+02
  0
VERTEX
  8
0
 62
4
 10
-4.20538920E+01
 20
1.08448305E+02
  0
VERTEX
  8
0
 62
4
 10
-4.18592840E+01
 20
1.08473537E+02
  0
VERTEX
  8
0
 62
4
 10
-4.16676496E+01
 20
1.08515376E+02
  0
VERTEX
  8
0
 62
4
 10
-4.14804471E+01
 20
1.08573504E+02
  0
VERTEX
  8
0
 62
4
 10
-4.12991013E+01
 20
1.08647478E+02
  0
VERTEX
  8
0
 62
4
 10
-4.11249924E+01
 20
1.08736737E+02
  0
VERTEX
  8
0
 62
4
 10
-4.09594454E+01
 20
1.08840600E+02
  0
VERTEX
  8
0
 62
4
 10
-4.08037203E+01
 20
1.08958276E+02
  0
VERTEX
  8
0
 62
4
 10
-4.06590021E+01
 20
1.09088871E+02
  0
VERTEX
  8
0
 62
4
 10
-4.05263924E+01
 20
1.09231391E+02
  0
VERTEX
  8
0
 62
4
 10
-4.04069003E+01
 20
1.09384750E+02
  0
VERTEX
  8
0
 62
4
 10
-4.03014352E+01
 20
1.09547782E+02
  0
VERTEX
  8
0
 62
4
 10
-4.02107999E+01
 20
1.09719246E+02
  0
VERTEX
  8
0
 62
4
 10
-4.01356840E+01
 20
1.09897837E+02
  0
VERTEX
  8
0
 62
4
 10
-4.00766593E+01
 20
1.10082195E+02
  0
VERTEX
  8
0
 62
4
 10
-4.00341750E+01
 20
1.10270918E+02
  0
VERTEX
  8
0
 62
4
 10
-4.00085543E+01
 20
1.10462570E+02
  0
VERTEX
  8
0
 62
4
 10
-3.99999924E+01
 20
1.10655691E+02
  0
VERTEX
  8
0
 62
4
 10
-4.00085543E+01
 20
1.10848812E+02
  0
VERTEX
  8
0
 62
4
 10
-4.00341750E+01
 20
1.11040464E+02
  0
VERTEX
  8
0
 62
4
 10
-4.00766593E+01
 20
1.11229187E+02
  0
VERTEX
  8
0
 62
4
 10
-4.01356840E+01
 20
1.11413545E+02
  0
VERTEX
  8
0
 62
4
 10
-4.02107999E+01
 20
1.11592136E+02
  0
VERTEX
  8
0
 62
4
 10
-4.03014352E+01
 20
1.11763600E+02
  0
VERTEX
  8
0
 62
4
 10
-4.04069003E+01
 20
1.11926632E+02
  0
VERTEX
  8
0
 62
4
 10
-4.05263924E+01
 20
1.12079991E+02
  0
VERTEX
  8
0
 62
4
 10
-4.06590021E+01
 20
1.12222511E+02
  0
VERTEX
  8
0
 62
4
 10
-4.08037203E+01
 20
1.12353106E+02
  0
VERTEX
  8
0
 62
4
 10
-4.09594454E+01
 20
1.12470782E+02
  0
VERTEX
  8
0
 62
4
 10
-4.11249924E+01
 20
1.12574645E+02
  0
VERTEX
  8
0
 62
4
 10
-4.12991013E+01
 20
1.12663904E+02
  0
VERTEX
  8
0
 62
4
 10
-4.14804471E+01
 20
1.12737878E+02
  0
VERTEX
  8
0
 62
4
 10
-4.16676495E+01
 20
1.12796006E+02
  0
VERTEX
  8
0
 62
4
 10
-4.18592840E+01
 20
1.12837845E+02
  0
VERTEX
  8
0
 62
4
 10
-4.20538920E+01
 20
1.12863077E+02
  0
VERTEX
  8
0
 62
4
 10
-4.22499924E+01
 20
1.12871508E+02
  0
VERTEX
  8
0
 62
4
 10
-4.24460928E+01
 20
1.12863077E+02
  0
VERTEX
  8
0
 62
4
 10
-4.26407008E+01
 20
1.12837845E+02
  0
VERTEX
  8
0
 62
4
 10
-4.28323352E+01
 20
1.12796006E+02
  0
VERTEX
  8
0
 62
4
 10
-4.30195377E+01
 20
1.12737878E+02
  0
VERTEX
  8
0
 62
4
 10
-4.32008835E+01
 20
1.12663904E+02
  0
VERTEX
  8
0
 62
4
 10
-4.33749924E+01
 20
1.12574645E+02
  0
VERTEX
  8
0
 62
4
 10
-4.35405394E+01
 20
1.12470782E+02
  0
VERTEX
  8
0
 62
4
 10
-4.36962645E+01
 20
1.12353106E+02
  0
VERTEX
  8
0
 62
4
 10
-4.38409827E+01
 20
1.12222511E+02
  0
VERTEX
  8
0
 62
4
 10
-4.39735924E+01
 20
1.12079991E+02
  0
VERTEX
  8
0
 62
4
 10
-4.40930845E+01
 20
1.11926632E+02
  0
VERTEX
  8
0
 62
4
 10
-4.41985496E+01
 20
1.11763600E+02
  0
VERTEX
  8
0
 62
4
 10
-4.42891849E+01
 20
1.11592136E+02
  0
VERTEX
  8
0
 62
4
 10
-4.43643008E+01
 20
1.11413545E+02
  0
VERTEX
  8
0
 62
4
 10
-4.44233255E+01
 20
1.11229187E+02
  0
VERTEX
  8
0
 62
4
 10
-4.44658098E+01
 20
1.11040464E+02
  0
VERTEX
  8
0
 62
4
 10
-4.44914305E+01
 20
1.10848812E+02
  0
VERTEX
  8
0
 62
4
 10
-4.44999924E+01
 20
1.10655691E+02
  0
SEQEND
  8
0
  0
LINE
  8
0
 62
4
 10
-4.97499924E+01
 20
1.06647001E+02
 11
-3.47499924E+01
 21
1.06647001E+02
  0
LINE
  8
0
 62
4
 10
-4.97499924E+01
 20
1.06716460E+02
 11
-3.47499924E+01
 21
1.06716460E+02
  0
LINE
  8
0
 62
4
 10
-4.97499924E+01
 20
9.92609429E+01
 11
-3.47499924E+01
 21
9.92609429E+01
  0
LINE
  8
0
 62
4
 10
-6.47499924E+01
 20
8.75208656E+01
 11
-4.97499924E+01
 21
8.75208656E+01
  0
LINE
  8
0
 62
4
 10
-6.35884284E+01
 20
9.78970144E+01
 11
-5.10092451E+01
 21
9.78970144E+01
  0
LINE
  8
0
 62
4
 10
-6.47499924E+01
 20
1.13871789E+02
 11
-4.97499924E+01
 21
1.13871789E+02
  0
LINE
  8
0
 62
4
 10
-6.47499924E+01
 20
1.15087326E+02
 11
-3.47499924E+01
 21
1.15087326E+02
  0
LINE
  8
0
 62
4
 10
-6.47499924E+01
 20
1.16875902E+02
 11
-3.47499924E+01
 21
1.16875902E+02
  0
LINE
  8
0
  6
CENTER
 62
6
 10
-3.86753955E+01
 20
1.10655691E+02
 11
-4.58245893E+01
 21
1.10655691E+02
  0
LINE
  8
0
  6
CENTER
 62
6
 10
-4.22499924E+01
 20
1.14230288E+02
 11
-4.22499924E+01
 21
1.07081094E+02
  0
LINE
  8
0
 62
4
 10
-3.47499924E+01
 20
1.16875902E+02
 11
-3.47499924E+01
 21
9.92609429E+01
  0
LINE
  8
0
 62
4
 10
-6.47499924E+01
 20
1.16875902E+02
 11
-6.47499924E+01
 21
8.75208656E+01
  0
LINE
  8
0
 62
4
 10
-4.97499924E+01
 20
1.15087326E+02
 11
-4.97499924E+01
 21
8.75208656E+01
  0
LINE
  8
0
  6
CENTER
 62
6
 10
-5.07499924E+01
 20
9.26996244E+01
 11
-5.57499924E+01
 21
9.26996244E+01
  0
LINE
  8
0
  6
CENTER
 62
6
 10
-5.32499924E+01
 20
9.51996244E+01
 11
-5.32499924E+01
 21
9.01996244E+01
  0
LINE
  8
0
  6
CENTER
 62
6
 10
-6.12499924E+01
 20
9.51996244E+01
 11
-6.12499924E+01
 21
9.01996244E+01
  0
LINE
  8
0
  6
CENTER
 62
6
 10
-5.87499924E+01
 20
9.26996244E+01
 11
-6.37499924E+01
 21
9.26996244E+01
  0
LINE
  8
0
 62
4
 10
-1.00249992E+02
 20
1.06176228E+02
 11
-1.00249992E+02
 21
1.02103786E+02
  0
LINE
  8
0
 62
4
 10
-1.23749992E+02
 20
1.16875902E+02
 11
-1.23749992E+02
 21
1.06176228E+02
  0
LINE
  8
0
 62
4
 10
-9.37499924E+01
 20
1.00369449E+02
 11
-9.37499924E+01
 21
1.02359316E+02
  0
LINE
  8
0
 62
7
 10
-6.47499924E+01
 20
1.00369449E+02
 11
-1.34249992E+02
 21
1.00369449E+02
  0
LINE
  8
0
 62
7
 10
-3.47499924E+01
 20
9.95194586E+01
 11
-2.82500648E+01
 21
9.95194586E+01
  0
LINE
  8
0
 62
7
 10
-4.97499924E+01
 20
9.42194708E+01
 11
-2.82500648E+01
 21
9.42194708E+01
  0
CIRCLE
  8
0
 62
7
 10
-2.85250019E+02
 20
5.98693884E+01
 40
2.45850000E+00
  0
CIRCLE
  8
0
 62
7
 10
-3.22250050E+02
 20
5.98693884E+01
 40
2.45850000E+00
  0
CIRCLE
  8
0
 62
7
 10
-2.85249897E+02
 20
9.68694494E+01
 40
2.45850000E+00
  0
CIRCLE
  8
0
 62
7
 10
-3.22249943E+02
 20
9.68694494E+01
 40
2.45850000E+00
  0
LINE
  8
0
 62
4
 10
-2.92749958E+02
 20
8.47203176E+01
 11
-3.03749958E+02
 21
9.10711706E+01
  0
LINE
  8
0
 62
4
 10
-2.92749958E+02
 20
7.20186117E+01
 11
-2.92749958E+02
 21
8.47203176E+01
  0
LINE
  8
0
 62
4
 10
-3.03749958E+02
 20
6.56677587E+01
 11
-2.92749958E+02
 21
7.20186117E+01
  0
LINE
  8
0
 62
4
 10
-3.14749958E+02
 20
7.20186117E+01
 11
-3.03749958E+02
 21
6.56677587E+01
  0
LINE
  8
0
 62
4
 10
-3.14749958E+02
 20
8.47203176E+01
 11
-3.14749958E+02
 21
7.20186117E+01
  0
LINE
  8
0
 62
4
 10
-3.03749958E+02
 20
9.10711706E+01
 11
-3.14749958E+02
 21
8.47203176E+01
  0
CIRCLE
  8
0
 62
4
 10
-3.03749958E+02
 20
7.83694647E+01
 40
1.10000000E+01
  0
CIRCLE
  8
0
 62
7
 10
-3.03749958E+02
 20
7.83694647E+01
 40
7.00000000E+00
  0
CIRCLE
  8
0
 62
2
 10
-3.03749958E+02
 20
7.83694647E+01
 40
6.17999268E+00
  0
CIRCLE
  8
0
 62
2
 10
-2.85250019E+02
 20
5.98694799E+01
 40
3.00000000E+00
  0
CIRCLE
  8
0
 62
2
 10
-2.85249897E+02
 20
9.68695410E+01
 40
3.00000000E+00
  0
CIRCLE
  8
0
 62
2
 10
-3.22250050E+02
 20
5.98694799E+01
 40
3.00000000E+00
  0
CIRCLE
  8
0
 62
2
 10
-3.22249943E+02
 20
9.68695410E+01
 40
3.00000000E+00
  0
ARC
  8
0
 62
7
 10
-3.24749943E+02
 20
7.33694342E+01
 40
1.00000000E+00
 50
1.79999977E+02
 51
2.70000028E+02
  0
CIRCLE
  8
0
 62
7
 10
-3.03749958E+02
 20
7.83694647E+01
 40
1.60000000E+01
  0
ARC
  8
0
 62
7
 10
-2.82749943E+02
 20
7.33694342E+01
 40
1.00000000E+00
 50
2.70000018E+02
 51
0.00000000E+00
  0
ARC
  8
0
 62
7
 10
-2.82749943E+02
 20
6.93694342E+01
 40
3.00000000E+00
 50
9.00000369E+01
 51
1.82026399E+02
  0
ARC
  8
0
 62
7
 10
-2.86747440E+02
 20
6.77280004E+01
 40
1.00000000E+00
 50
2.80789094E+02
 51
2.02612098E+00
  0
ARC
  8
0
 62
7
 10
-2.85249943E+02
 20
5.98694036E+01
 40
7.00000000E+00
 50
1.00788641E+02
 51
1.69211298E+02
  0
ARC
  8
0
 62
7
 10
-2.90398441E+02
 20
6.78463018E+01
 40
1.00000000E+00
 50
1.41755781E+02
 51
2.24999368E+02
  0
ARC
  8
0
 62
7
 10
-2.86867985E+02
 20
7.63694647E+01
 40
1.00000000E+00
 50
8.99999681E+01
 51
1.73243759E+02
  0
ARC
  8
0
 62
7
 10
-2.82749943E+02
 20
7.63694647E+01
 40
1.00000000E+00
 50
3.59999986E+02
 51
8.99999681E+01
  0
ARC
  8
0
 62
7
 10
-2.92141376E+02
 20
6.39324224E+01
 40
1.00000000E+00
 50
3.29477756E+02
 51
4.49993490E+01
  0
ARC
  8
0
 62
7
 10
-3.01749958E+02
 20
6.14875067E+01
 40
1.00000000E+00
 50
9.67560773E+01
 51
1.79999951E+02
  0
ARC
  8
0
 62
7
 10
-3.01749958E+02
 20
5.73694647E+01
 40
1.00000000E+00
 50
1.79999951E+02
 51
2.70000001E+02
  0
ARC
  8
0
 62
7
 10
-2.89313007E+02
 20
6.67608526E+01
 40
1.00000000E+00
 50
2.25000628E+02
 51
3.00522440E+02
  0
CIRCLE
  8
0
 62
7
 10
-2.85249943E+02
 20
5.98694036E+01
 40
5.00000000E+00
  0
CIRCLE
  8
0
 62
7
 10
-2.85249943E+02
 20
5.98694036E+01
 40
4.50000000E+00
  0
ARC
  8
0
 62
7
 10
-2.81749958E+02
 20
5.63694494E+01
 40
3.00000000E+00
 50
2.69999963E+02
 51
0.00000000E+00
  0
ARC
  8
0
 62
7
 10
-2.81750034E+02
 20
5.63694494E+01
 40
2.50000000E+00
 50
2.69999963E+02
 51
0.00000000E+00
  0
ARC
  8
0
 62
7
 10
-3.05749958E+02
 20
6.14875067E+01
 40
1.00000000E+00
 50
3.59999973E+02
 51
8.32437569E+01
  0
ARC
  8
0
 62
7
 10
-3.05749958E+02
 20
9.52514227E+01
 40
1.00000000E+00
 50
2.76756086E+02
 51
3.59999959E+02
  0
ARC
  8
0
 62
7
 10
-3.15358540E+02
 20
9.28065069E+01
 40
1.00000000E+00
 50
1.49477747E+02
 51
2.24999340E+02
  0
ARC
  8
0
 62
7
 10
-3.22249943E+02
 20
9.68695257E+01
 40
7.00000000E+00
 50
2.80788623E+02
 51
3.49211279E+02
  0
ARC
  8
0
 62
7
 10
-3.18186939E+02
 20
8.99780767E+01
 40
1.00000000E+00
 50
4.50006194E+01
 51
1.20522431E+02
  0
ARC
  8
0
 62
7
 10
-3.05749958E+02
 20
9.93694647E+01
 40
1.00000000E+00
 50
3.59999959E+02
 51
8.99999956E+01
  0
CIRCLE
  8
0
 62
7
 10
-3.22249943E+02
 20
9.68695257E+01
 40
5.00000000E+00
  0
CIRCLE
  8
0
 62
7
 10
-3.22249943E+02
 20
9.68695257E+01
 40
4.50000000E+00
  0
CIRCLE
  8
0
 62
7
 10
-3.22250019E+02
 20
5.98694647E+01
 40
4.50000000E+00
  0
CIRCLE
  8
0
 62
7
 10
-3.22250019E+02
 20
5.98694647E+01
 40
5.00000000E+00
  0
ARC
  8
0
 62
7
 10
-3.24749943E+02
 20
8.03694647E+01
 40
1.00000000E+00
 50
1.79999964E+02
 51
2.69999946E+02
  0
ARC
  8
0
 62
7
 10
-2.98749958E+02
 20
9.93694799E+01
 40
1.00000000E+00
 50
0.00000000E+00
 51
8.99999818E+01
  0
ARC
  8
0
 62
7
 10
-2.94749943E+02
 20
9.93695257E+01
 40
3.00000000E+00
 50
1.80000569E+02
 51
2.72025811E+02
  0
ARC
  8
0
 62
7
 10
-3.25749958E+02
 20
1.00369495E+02
 40
2.50000000E+00
 50
8.99999818E+01
 51
1.79999964E+02
  0
ARC
  8
0
 62
7
 10
-2.86747440E+02
 20
8.90109289E+01
 40
1.00000000E+00
 50
3.57973879E+02
 51
7.92109058E+01
  0
ARC
  8
0
 62
7
 10
-2.82749943E+02
 20
8.33694952E+01
 40
1.00000000E+00
 50
0.00000000E+00
 51
8.99999818E+01
  0
ARC
  8
0
 62
7
 10
-2.82749943E+02
 20
8.73694952E+01
 40
3.00000000E+00
 50
1.77973583E+02
 51
2.69999946E+02
  0
ARC
  8
0
 62
7
 10
-3.24749943E+02
 20
6.93694342E+01
 40
3.00000000E+00
 50
3.57973625E+02
 51
8.99999818E+01
  0
ARC
  8
0
 62
7
 10
-3.01749958E+02
 20
9.93694647E+01
 40
1.00000000E+00
 50
8.99999818E+01
 51
1.79999964E+02
  0
ARC
  8
0
 62
7
 10
-3.01749958E+02
 20
9.52514074E+01
 40
1.00000000E+00
 50
1.79999964E+02
 51
2.63243741E+02
  0
ARC
  8
0
 62
7
 10
-2.90398411E+02
 20
8.88925512E+01
 40
1.00000000E+00
 50
1.34999959E+02
 51
2.18243614E+02
  0
ARC
  8
0
 62
7
 10
-2.93226810E+02
 20
9.17209814E+01
 40
1.00000000E+00
 50
2.31755794E+02
 51
3.14999380E+02
  0
ARC
  8
0
 62
7
 10
-2.81749958E+02
 20
1.00369495E+02
 40
3.00000000E+00
 50
0.00000000E+00
 51
8.99999818E+01
  0
CIRCLE
  8
0
 62
7
 10
-3.03749958E+02
 20
7.83694647E+01
 40
1.55000010E+01
  0
CIRCLE
  8
0
 62
7
 10
-3.03749958E+02
 20
7.83694647E+01
 40
1.50000000E+01
  0
ARC
  8
0
 62
7
 10
-3.25750004E+02
 20
1.00369495E+02
 40
3.00000000E+00
 50
8.99999818E+01
 51
1.79999964E+02
  0
ARC
  8
0
 62
7
 10
-2.93108524E+02
 20
9.53720281E+01
 40
1.00000000E+00
 50
1.07884614E+01
 51
9.20251808E+01
  0
ARC
  8
0
 62
7
 10
-3.20631901E+02
 20
8.03694647E+01
 40
1.00000000E+00
 50
2.69999963E+02
 51
3.53243768E+02
  0
ARC
  8
0
 62
7
 10
-2.93108524E+02
 20
6.13669012E+01
 40
1.00000000E+00
 50
2.67974819E+02
 51
3.49211538E+02
  0
ARC
  8
0
 62
7
 10
-2.98749958E+02
 20
5.73694342E+01
 40
1.00000000E+00
 50
2.70000018E+02
 51
0.00000000E+00
  0
ARC
  8
0
 62
7
 10
-2.86867985E+02
 20
8.03694647E+01
 40
1.00000000E+00
 50
1.86756090E+02
 51
2.69999963E+02
  0
ARC
  8
0
 62
7
 10
-2.89312931E+02
 20
8.99780310E+01
 40
1.00000000E+00
 50
5.94777518E+01
 51
1.34999345E+02
  0
ARC
  8
0
 62
7
 10
-2.82749943E+02
 20
8.03694647E+01
 40
1.00000000E+00
 50
2.69999963E+02
 51
0.00000000E+00
  0
CIRCLE
  8
0
 62
7
 10
-2.85249897E+02
 20
9.68694647E+01
 40
5.00000000E+00
  0
CIRCLE
  8
0
 62
7
 10
-2.85249897E+02
 20
9.68694647E+01
 40
4.50000000E+00
  0
ARC
  8
0
 62
7
 10
-3.25750004E+02
 20
5.63694494E+01
 40
3.00000000E+00
 50
1.79999964E+02
 51
2.69999946E+02
  0
ARC
  8
0
 62
7
 10
-2.81749958E+02
 20
1.00369434E+02
 40
2.50000000E+00
 50
0.00000000E+00
 51
8.99999818E+01
  0
ARC
  8
0
 62
7
 10
-3.25750004E+02
 20
5.63694799E+01
 40
2.50000000E+00
 50
1.79999964E+02
 51
2.69999946E+02
  0
ARC
  8
0
 62
7
 10
-3.17101505E+02
 20
8.88926275E+01
 40
1.00000000E+00
 50
3.21755790E+02
 51
4.49993763E+01
  0
ARC
  8
0
 62
7
 10
-2.94749943E+02
 20
5.73694036E+01
 40
3.00000000E+00
 50
8.79741887E+01
 51
1.79999431E+02
  0
ARC
  8
0
 62
7
 10
-2.92141376E+02
 20
9.28064459E+01
 40
1.00000000E+00
 50
3.15000624E+02
 51
3.05224488E+01
  0
ARC
  8
0
 62
7
 10
-3.05749958E+02
 20
5.73694647E+01
 40
1.00000000E+00
 50
2.69999991E+02
 51
3.59999973E+02
  0
ARC
  8
0
 62
7
 10
-3.18187016E+02
 20
6.67608831E+01
 40
1.00000000E+00
 50
2.39477760E+02
 51
3.14999353E+02
  0
ARC
  8
0
 62
7
 10
-3.14273136E+02
 20
6.50179327E+01
 40
1.00000000E+00
 50
5.17557857E+01
 51
1.34999372E+02
  0
ARC
  8
0
 62
7
 10
-3.17101582E+02
 20
6.78463629E+01
 40
1.00000000E+00
 50
3.14999968E+02
 51
3.82436225E+01
  0
ARC
  8
0
 62
7
 10
-3.08749989E+02
 20
5.73694342E+01
 40
1.00000000E+00
 50
1.80000036E+02
 51
2.70000018E+02
  0
ARC
  8
0
 62
7
 10
-3.12750004E+02
 20
5.73694036E+01
 40
3.00000000E+00
 50
5.82842824E-04
 51
9.20258231E+01
  0
ARC
  8
0
 62
7
 10
-3.14391361E+02
 20
6.13669012E+01
 40
1.00000000E+00
 50
1.90788497E+02
 51
2.72025217E+02
  0
ARC
  8
0
 62
7
 10
-3.22249943E+02
 20
5.98694036E+01
 40
7.00000000E+00
 50
1.07887209E+01
 51
7.92113774E+01
  0
ARC
  8
0
 62
7
 10
-3.20752445E+02
 20
6.77280004E+01
 40
1.00000000E+00
 50
1.77973898E+02
 51
2.59210925E+02
  0
ARC
  8
0
 62
7
 10
-3.14391361E+02
 20
9.53720281E+01
 40
1.00000000E+00
 50
8.79747829E+01
 51
1.69211502E+02
  0
ARC
  8
0
 62
7
 10
-3.08749989E+02
 20
9.93694799E+01
 40
1.00000000E+00
 50
8.99999818E+01
 51
1.79999964E+02
  0
ARC
  8
0
 62
7
 10
-3.20752445E+02
 20
8.90109289E+01
 40
1.00000000E+00
 50
1.00789058E+02
 51
1.82026085E+02
  0
ARC
  8
0
 62
7
 10
-3.24749943E+02
 20
8.33694952E+01
 40
1.00000000E+00
 50
8.99999818E+01
 51
1.79999964E+02
  0
ARC
  8
0
 62
7
 10
-3.12750004E+02
 20
9.93695257E+01
 40
3.00000000E+00
 50
2.67974177E+02
 51
3.59999417E+02
  0
ARC
  8
0
 62
7
 10
-2.93226887E+02
 20
6.50178717E+01
 40
1.00000000E+00
 50
4.49999637E+01
 51
1.28243618E+02
  0
ARC
  8
0
 62
7
 10
-3.24749943E+02
 20
8.73694952E+01
 40
3.00000000E+00
 50
2.70000018E+02
 51
0.00000000E+00
  0
ARC
  8
0
 62
7
 10
-2.85249943E+02
 20
9.68695257E+01
 40
7.00000000E+00
 50
1.90788702E+02
 51
2.59211358E+02
  0
ARC
  8
0
 62
7
 10
-3.15358570E+02
 20
6.39324835E+01
 40
1.00000000E+00
 50
1.35000615E+02
 51
2.10522426E+02
  0
ARC
  8
0
 62
7
 10
-3.24749943E+02
 20
7.63694647E+01
 40
1.00000000E+00
 50
8.99999549E+01
 51
1.79999991E+02
  0
ARC
  8
0
 62
7
 10
-3.20631901E+02
 20
7.63694647E+01
 40
1.00000000E+00
 50
6.75608163E+00
 51
8.99999549E+01
  0
ARC
  8
0
 62
7
 10
-3.14273060E+02
 20
9.17210577E+01
 40
1.00000000E+00
 50
2.24999972E+02
 51
3.08243613E+02
  0
LINE
  8
0
  6
CENTER
 62
2
 10
-2.85249897E+02
 20
1.05376102E+02
 11
-2.85249897E+02
 21
9.04549749E+01
  0
LINE
  8
0
 62
7
 10
-3.25749958E+02
 20
1.02869495E+02
 11
-2.81749958E+02
 21
1.02869434E+02
  0
LINE
  8
0
 62
7
 10
-2.78749958E+02
 20
1.00369495E+02
 11
-2.78749958E+02
 21
5.63694494E+01
  0
LINE
  8
0
 62
7
 10
-2.79249958E+02
 20
1.00369434E+02
 11
-2.79249958E+02
 21
5.63694494E+01
  0
LINE
  8
0
  6
CENTER
 62
2
 10
-2.76349949E+02
 20
7.83694647E+01
 11
-3.32585438E+02
 21
7.83694647E+01
  0
LINE
  8
0
  6
CENTER
 62
2
 10
-2.93749958E+02
 20
8.67235601E+01
 11
-2.93749958E+02
 21
1.05298481E+02
  0
LINE
  8
0
  6
CENTER
 62
2
 10
-2.91631351E+02
 20
9.68695410E+01
 11
-2.77109684E+02
 21
9.68695410E+01
  0
LINE
  8
0
  6
CENTER
 62
2
 10
-2.91631351E+02
 20
5.98694799E+01
 11
-2.77109684E+02
 21
5.98694799E+01
  0
LINE
  8
0
 62
7
 10
-3.21749943E+02
 20
6.76573065E+01
 11
-3.21749943E+02
 21
6.96194342E+01
  0
LINE
  8
0
 62
7
 10
-3.21749943E+02
 20
8.90816229E+01
 11
-3.21749943E+02
 21
8.71194952E+01
  0
LINE
  8
0
 62
7
 10
-3.14461658E+02
 20
9.63695562E+01
 11
-3.12499989E+02
 21
9.63695562E+01
  0
LINE
  8
0
 62
7
 10
-2.93036991E+02
 20
9.63694494E+01
 11
-2.94999958E+02
 21
9.63694494E+01
  0
LINE
  8
0
 62
7
 10
-2.85749897E+02
 20
8.90807684E+01
 11
-2.85749897E+02
 21
8.71194952E+01
  0
LINE
  8
0
 62
7
 10
-2.85750004E+02
 20
6.76568640E+01
 11
-2.85750004E+02
 21
6.96194342E+01
  0
LINE
  8
0
 62
7
 10
-2.93038029E+02
 20
6.03693884E+01
 11
-2.94999958E+02
 21
6.03693884E+01
  0
LINE
  8
0
 62
7
 10
-3.14463154E+02
 20
6.03694723E+01
 11
-3.12499989E+02
 21
6.03694723E+01
  0
LINE
  8
0
 62
7
 10
-2.83749958E+02
 20
5.38694494E+01
 11
-2.83749958E+02
 21
5.33694494E+01
  0
LINE
  8
0
 62
7
 10
-3.23749958E+02
 20
5.38694799E+01
 11
-3.23749958E+02
 21
5.33694494E+01
  0
LINE
  8
0
 62
7
 10
-2.83749958E+02
 20
1.03369495E+02
 11
-2.83749958E+02
 21
1.02869434E+02
  0
LINE
  8
0
 62
7
 10
-3.23749958E+02
 20
1.03369495E+02
 11
-3.23749958E+02
 21
1.02869495E+02
  0
LINE
  8
0
  6
CENTER
 62
2
 10
-2.85250019E+02
 20
5.14814108E+01
 11
-2.85250019E+02
 21
6.74458044E+01
  0
LINE
  8
0
  6
CENTER
 62
2
 10
-3.03749958E+02
 20
1.06864445E+02
 11
-3.03749958E+02
 21
4.90682104E+01
  0
LINE
  8
0
 62
7
 10
-2.90020228E+02
 20
6.60536480E+01
 11
-2.91105661E+02
 21
6.71390811E+01
  0
LINE
  8
0
 62
7
 10
-2.82749943E+02
 20
7.73694494E+01
 11
-2.86867985E+02
 21
7.73694494E+01
  0
LINE
  8
0
 62
7
 10
-2.91434333E+02
 20
6.46394775E+01
 11
-2.92519820E+02
 21
6.57249645E+01
  0
LINE
  8
0
 62
7
 10
-3.02750019E+02
 20
5.73695028E+01
 11
-3.02750019E+02
 21
6.14875448E+01
  0
LINE
  8
0
 62
7
 10
-3.25750004E+02
 20
5.38694799E+01
 11
-2.81750034E+02
 21
5.38694494E+01
  0
LINE
  8
0
 62
7
 10
-3.08749989E+02
 20
5.63694418E+01
 11
-2.98749958E+02
 21
5.63694418E+01
  0
LINE
  8
0
  6
CENTER
 62
2
 10
-3.07750004E+02
 20
1.05121860E+02
 11
-3.07750004E+02
 21
8.97357061E+01
  0
LINE
  8
0
 62
7
 10
-3.16065869E+02
 20
6.46397551E+01
 11
-3.14980410E+02
 21
6.57252153E+01
  0
LINE
  8
0
 62
7
 10
-3.04750019E+02
 20
5.73695028E+01
 11
-3.04750019E+02
 21
6.14875448E+01
  0
LINE
  8
0
 62
7
 10
-3.17480075E+02
 20
6.60539334E+01
 11
-3.16394602E+02
 21
6.71394071E+01
  0
LINE
  8
0
 62
7
 10
-3.24749943E+02
 20
7.73694799E+01
 11
-3.20631901E+02
 21
7.73694799E+01
  0
LINE
  8
0
 62
7
 10
-3.25749958E+02
 20
8.33694952E+01
 11
-3.25749958E+02
 21
7.33694342E+01
  0
LINE
  8
0
 62
7
 10
-3.08749989E+02
 20
1.00369495E+02
 11
-2.98749958E+02
 21
1.00369495E+02
  0
LINE
  8
0
 62
7
 10
-3.16065751E+02
 20
9.20993656E+01
 11
-3.14980253E+02
 21
9.10138680E+01
  0
LINE
  8
0
 62
7
 10
-3.17480013E+02
 20
9.06851895E+01
 11
-3.16394537E+02
 21
8.95997135E+01
  0
LINE
  8
0
 62
7
 10
-3.24749943E+02
 20
7.93694799E+01
 11
-3.20631901E+02
 21
7.93694799E+01
  0
LINE
  8
0
 62
7
 10
-3.04749943E+02
 20
9.93694647E+01
 11
-3.04749943E+02
 21
9.52514227E+01
  0
LINE
  8
0
 62
7
 10
-3.25750004E+02
 20
5.33694494E+01
 11
-2.81749958E+02
 21
5.33694494E+01
  0
LINE
  8
0
  6
CENTER
 62
2
 10
-3.30694645E+02
 20
5.98694799E+01
 11
-3.15882557E+02
 21
5.98694799E+01
  0
LINE
  8
0
  6
CENTER
 62
2
 10
-3.22250050E+02
 20
5.12464636E+01
 11
-3.22250050E+02
 21
6.78889654E+01
  0
LINE
  8
0
 62
7
 10
-3.28249958E+02
 20
1.00369495E+02
 11
-3.28249958E+02
 21
5.63694799E+01
  0
LINE
  8
0
 62
7
 10
-3.28749989E+02
 20
1.00369495E+02
 11
-3.28749989E+02
 21
5.63694494E+01
  0
LINE
  8
0
 62
7
 10
-3.25750004E+02
 20
1.03369495E+02
 11
-2.81749958E+02
 21
1.03369495E+02
  0
LINE
  8
0
  6
CENTER
 62
2
 10
-3.22249943E+02
 20
1.05272114E+02
 11
-3.22249943E+02
 21
8.89851263E+01
  0
LINE
  8
0
  6
CENTER
 62
2
 10
-3.30839832E+02
 20
9.68695410E+01
 11
-3.16172977E+02
 21
9.68695410E+01
  0
LINE
  8
0
 62
7
 10
-2.81749958E+02
 20
8.33694952E+01
 11
-2.81749958E+02
 21
7.33694342E+01
  0
LINE
  8
0
 62
7
 10
-2.91434367E+02
 20
9.20994811E+01
 11
-2.92519841E+02
 21
9.10140076E+01
  0
LINE
  8
0
 62
7
 10
-3.02749943E+02
 20
9.93694647E+01
 11
-3.02749943E+02
 21
9.52514074E+01
  0
LINE
  8
0
 62
7
 10
-2.90020210E+02
 20
9.06852971E+01
 11
-2.91105684E+02
 21
8.95998236E+01
  0
LINE
  8
0
 62
7
 10
-2.82749943E+02
 20
7.93694647E+01
 11
-2.86867985E+02
 21
7.93694647E+01
  0
LINE
  8
0
 62
6
 10
-3.32263091E+02
 20
9.06868497E+01
 11
-3.29225329E+02
 21
9.12224890E+01
  0
LINE
  8
0
 62
6
 10
-3.32784036E+02
 20
9.36412730E+01
 11
-3.29746274E+02
 21
9.41769123E+01
  0
LINE
  8
0
 62
4
 10
-3.32176267E+02
 20
9.01944458E+01
 11
-3.32870860E+02
 21
9.41336768E+01
  0
LINE
  8
0
 62
4
 10
-3.32176267E+02
 20
9.01944458E+01
 11
-3.29138505E+02
 21
9.07300852E+01
  0
LINE
  8
0
 62
4
 10
-3.32870860E+02
 20
9.41336768E+01
 11
-3.29833098E+02
 21
9.46693162E+01
  0
LINE
  8
0
 62
4
 10
-3.30402242E+02
 20
9.78970907E+01
 11
-3.28791209E+02
 21
8.87604697E+01
  0
LINE
  8
0
 62
4
 10
-3.17694245E+02
 20
1.15087402E+02
 11
-3.24587899E+02
 21
1.13871865E+02
  0
LINE
  8
0
 62
4
 10
-3.24587899E+02
 20
1.13871865E+02
 11
-3.30402242E+02
 21
9.78970907E+01
  0
ARC
  8
0
 62
4
 10
-3.27313997E+02
 20
8.90209419E+01
 40
1.50000000E+00
 50
1.90000000E+02
 51
1.96794373E+02
  0
LINE
  8
0
 62
4
 10
-3.16218235E+02
 20
1.06716537E+02
 11
-3.16710639E+02
 21
1.06629712E+02
  0
LINE
  8
0
 62
4
 10
-3.17116219E+02
 20
1.06050485E+02
 11
-3.16643488E+02
 21
1.03369495E+02
  0
ARC
  8
0
 62
4
 10
-3.16623815E+02
 20
1.06137309E+02
 40
5.00000000E-01
 50
9.99999999E+01
 51
1.90000000E+02
  0
LINE
  8
0
  6
CENTER
 62
6
 10
-3.23408841E+02
 20
9.37712328E+01
 11
-3.30874845E+02
 21
9.24547748E+01
  0
LINE
  8
0
  6
CENTER
 62
6
 10
-3.17843499E+02
 20
1.06937672E+02
 11
-3.04992993E+02
 21
1.09203563E+02
  0
LINE
  8
0
  6
CENTER
 62
6
 10
-3.27685134E+02
 20
1.08756319E+02
 11
-3.05600762E+02
 21
1.12650390E+02
  0
LINE
  8
0
 62
4
 10
-3.08925190E+02
 20
1.05667016E+02
 11
-3.08600727E+02
 21
1.06130398E+02
  0
LINE
  8
0
 62
4
 10
-3.08600727E+02
 20
1.06130398E+02
 11
-3.05744784E+02
 21
1.06633978E+02
  0
LINE
  8
0
 62
4
 10
-3.09417594E+02
 20
1.05580192E+02
 11
-3.09027789E+02
 21
1.03369495E+02
  0
LINE
  8
0
 62
4
 10
-3.09417594E+02
 20
1.05580192E+02
 11
-3.08925190E+02
 21
1.05667016E+02
  0
LINE
  8
0
 62
4
 10
-3.17694245E+02
 20
1.15087402E+02
 11
-3.16218235E+02
 21
1.06716537E+02
  0
LINE
  8
0
 62
4
 10
-3.07550725E+02
 20
1.16875979E+02
 11
-3.17694245E+02
 21
1.15087402E+02
  0
LINE
  8
0
 62
4
 10
-3.16612159E+02
 20
1.06647077E+02
 11
-3.16034232E+02
 21
1.03369495E+02
  0
LINE
  8
0
 62
4
 10
-3.06166707E+02
 20
1.05168447E+02
 11
-3.05849503E+02
 21
1.03369495E+02
  0
LINE
  8
0
 62
4
 10
-3.08149445E+02
 20
1.03369495E+02
 11
-3.08397297E+02
 21
1.04775134E+02
  0
LINE
  8
0
 62
4
 10
-3.05460998E+02
 20
1.06176304E+02
 11
-3.06166707E+02
 21
1.05168447E+02
  0
LINE
  8
0
 62
4
 10
-3.09400229E+02
 20
1.05481711E+02
 11
-3.08397297E+02
 21
1.04775134E+02
  0
LINE
  8
0
 62
4
 10
-3.08397297E+02
 20
1.04775134E+02
 11
-3.06166707E+02
 21
1.05168447E+02
  0
LINE
  8
0
 62
4
 10
-3.09400229E+02
 20
1.05481711E+02
 11
-3.05460998E+02
 21
1.06176304E+02
  0
LINE
  8
0
 62
4
 10
-3.05460998E+02
 20
1.06176304E+02
 11
-3.04966082E+02
 21
1.03369495E+02
  0
LINE
  8
0
  6
CENTER
 62
6
 10
-3.07604262E+02
 20
1.06813815E+02
 11
-3.06562373E+02
 21
1.00904969E+02
  0
LINE
  8
0
  6
CENTER
 62
6
 10
-3.10037741E+02
 20
1.03338447E+02
 11
-3.04128894E+02
 21
1.04380337E+02
  0
LINE
  8
0
 62
4
 10
-3.07429171E+02
 20
1.16186613E+02
 11
-3.06444364E+02
 21
1.16360261E+02
  0
ARC
  8
0
 62
4
 10
-3.04254122E+02
 20
1.10450815E+02
 40
1.00000000E+00
 50
3.28723662E+02
 51
3.57172490E+02
  0
ARC
  8
0
 62
4
 10
-3.05087633E+02
 20
1.15177893E+02
 40
1.00000000E+00
 50
2.28275100E+01
 51
9.99999999E+01
  0
ARC
  8
0
 62
4
 10
-3.15050961E+02
 20
1.10984065E+02
 40
1.18100000E+01
 50
3.57172490E+02
 51
2.28275100E+01
  0
LINE
  8
0
 62
4
 10
-3.06374904E+02
 20
1.15966338E+02
 11
-3.05262072E+02
 21
1.16162561E+02
  0
LINE
  8
0
 62
4
 10
-3.05897372E+02
 20
1.13258117E+02
 11
-3.06444364E+02
 21
1.16360261E+02
  0
LINE
  8
0
 62
4
 10
-3.05066673E+02
 20
1.04976551E+02
 11
-3.06507953E+02
 21
1.13150455E+02
  0
LINE
  8
0
 62
4
 10
-3.06856132E+02
 20
1.12936748E+02
 11
-3.06481905E+02
 21
1.13002734E+02
  0
LINE
  8
0
 62
4
 10
-3.05269985E+02
 20
1.05093015E+02
 11
-3.05092720E+02
 21
1.05124272E+02
  0
LINE
  8
0
 62
4
 10
-3.06507953E+02
 20
1.13150455E+02
 11
-3.04774691E+02
 21
1.13456076E+02
  0
LINE
  8
0
 62
4
 10
-3.05066673E+02
 20
1.04976551E+02
 11
-3.03333411E+02
 21
1.05282172E+02
  0
ARC
  8
0
 62
4
 10
-3.14947109E+02
 20
1.07456241E+02
 40
1.18100000E+01
 50
9.99999999E+00
 51
3.05326991E+01
  0
ARC
  8
0
 62
4
 10
-3.14944421E+02
 20
1.07441000E+02
 40
1.18100000E+01
 50
3.49467301E+02
 51
9.99999999E+00
  0
LINE
  8
0
 62
4
 10
-3.05657960E+02
 20
1.06141574E+02
 11
-3.07550725E+02
 21
1.16875979E+02
  0
LINE
  8
0
 62
4
 10
-3.02032908E+02
 20
1.05058286E+02
 11
-2.99949130E+02
 21
1.16875979E+02
  0
LINE
  8
0
 62
4
 10
-3.02032908E+02
 20
1.05058286E+02
 11
-3.02407135E+02
 21
1.05124272E+02
  0
LINE
  8
0
 62
4
 10
-3.02433182E+02
 20
1.04976551E+02
 11
-3.01764637E+02
 21
1.08768061E+02
  0
LINE
  8
0
 62
4
 10
-3.02375218E+02
 20
1.08875723E+02
 11
-3.01055491E+02
 21
1.16360261E+02
  0
LINE
  8
0
 62
4
 10
-3.00070684E+02
 20
1.16186613E+02
 11
-3.01055491E+02
 21
1.16360261E+02
  0
LINE
  8
0
 62
4
 10
-3.01390410E+02
 20
1.08702074E+02
 11
-3.02375218E+02
 21
1.08875723E+02
  0
ARC
  8
0
 62
4
 10
-3.00546774E+02
 20
1.03120786E+02
 40
5.00000000E-01
 50
2.98293252E+01
 51
1.50170675E+02
  0
CIRCLE
  8
0
 62
4
 10
-3.00286301E+02
 20
1.04597998E+02
 40
5.00000000E-01
  0
CIRCLE
  8
0
 62
4
 10
-3.00286301E+02
 20
1.04597998E+02
 40
3.00000000E-01
  0
ARC
  8
0
 62
4
 10
-3.00546774E+02
 20
1.03120786E+02
 40
3.00000000E-01
 50
5.59992305E+01
 51
1.24000769E+02
  0
ARC
  8
0
 62
4
 10
-3.00416537E+02
 20
1.03859392E+02
 40
1.50000000E+00
 50
3.40937591E+02
 51
1.99062409E+02
  0
LINE
  8
0
 62
4
 10
-2.77097613E+02
 20
9.78970907E+01
 11
-2.78708646E+02
 21
8.87604697E+01
  0
LINE
  8
0
 62
4
 10
-2.89805610E+02
 20
1.15087402E+02
 11
-2.82911956E+02
 21
1.13871865E+02
  0
LINE
  8
0
 62
4
 10
-2.82911956E+02
 20
1.13871865E+02
 11
-2.77097613E+02
 21
9.78970907E+01
  0
ARC
  8
0
 62
4
 10
-2.80185858E+02
 20
8.90209419E+01
 40
1.50000000E+00
 50
3.43189498E+02
 51
3.50000000E+02
  0
LINE
  8
0
 62
4
 10
-2.91281620E+02
 20
1.06716537E+02
 11
-2.90789216E+02
 21
1.06629712E+02
  0
LINE
  8
0
 62
4
 10
-2.90383636E+02
 20
1.06050485E+02
 11
-2.90856367E+02
 21
1.03369495E+02
  0
ARC
  8
0
 62
4
 10
-2.90876040E+02
 20
1.06137309E+02
 40
5.00000000E-01
 50
3.50000000E+02
 51
7.99999999E+01
  0
LINE
  8
0
  6
CENTER
 62
6
 10
-2.83681949E+02
 20
9.36991035E+01
 11
-2.76215944E+02
 21
9.23826456E+01
  0
LINE
  8
0
  6
CENTER
 62
6
 10
-2.89656356E+02
 20
1.06937672E+02
 11
-3.02506862E+02
 21
1.09203563E+02
  0
LINE
  8
0
  6
CENTER
 62
6
 10
-2.79814721E+02
 20
1.08756319E+02
 11
-3.01899093E+02
 21
1.12650390E+02
  0
LINE
  8
0
 62
4
 10
-2.98574665E+02
 20
1.05667016E+02
 11
-2.98899128E+02
 21
1.06130398E+02
  0
LINE
  8
0
 62
4
 10
-2.98899128E+02
 20
1.06130398E+02
 11
-3.01755071E+02
 21
1.06633978E+02
  0
LINE
  8
0
 62
4
 10
-2.98082261E+02
 20
1.05580192E+02
 11
-2.98472066E+02
 21
1.03369495E+02
  0
LINE
  8
0
 62
4
 10
-2.98082261E+02
 20
1.05580192E+02
 11
-2.98574665E+02
 21
1.05667016E+02
  0
LINE
  8
0
 62
4
 10
-2.89805610E+02
 20
1.15087402E+02
 11
-2.91281620E+02
 21
1.06716537E+02
  0
LINE
  8
0
 62
4
 10
-2.99949130E+02
 20
1.16875979E+02
 11
-2.89805610E+02
 21
1.15087402E+02
  0
LINE
  8
0
 62
4
 10
-2.90887696E+02
 20
1.06647077E+02
 11
-2.91465623E+02
 21
1.03369495E+02
  0
LINE
  8
0
 62
4
 10
-2.98099626E+02
 20
1.05481711E+02
 11
-3.02038857E+02
 21
1.06176304E+02
  0
LINE
  8
0
 62
4
 10
-3.02038857E+02
 20
1.06176304E+02
 11
-3.02533773E+02
 21
1.03369495E+02
  0
LINE
  8
0
  6
CENTER
 62
6
 10
-2.99895593E+02
 20
1.06813815E+02
 11
-3.00937482E+02
 21
1.00904969E+02
  0
LINE
  8
0
  6
CENTER
 62
6
 10
-2.97462114E+02
 20
1.03338447E+02
 11
-3.03370961E+02
 21
1.04380337E+02
  0
LINE
  8
0
 62
4
 10
-2.74628995E+02
 20
9.41336768E+01
 11
-2.77666757E+02
 21
9.46693162E+01
  0
LINE
  8
0
 62
4
 10
-2.75323588E+02
 20
9.01944458E+01
 11
-2.78361350E+02
 21
9.07300852E+01
  0
LINE
  8
0
 62
6
 10
-2.74715820E+02
 20
9.36412730E+01
 11
-2.77753581E+02
 21
9.41769123E+01
  0
LINE
  8
0
 62
6
 10
-2.75236764E+02
 20
9.06868497E+01
 11
-2.78274526E+02
 21
9.12224890E+01
  0
LINE
  8
0
 62
4
 10
-2.75323588E+02
 20
9.01944458E+01
 11
-2.74628995E+02
 21
9.41336768E+01
  0
ARC
  8
0
 62
4
 10
-3.02412222E+02
 20
1.15177893E+02
 40
1.00000000E+00
 50
7.99999999E+01
 51
1.57172490E+02
  0
LINE
  8
0
 62
4
 10
-3.01124951E+02
 20
1.15966338E+02
 11
-3.02237783E+02
 21
1.16162561E+02
  0
ARC
  8
0
  6
DASHED
 62
4
 10
-2.92448894E+02
 20
1.10984065E+02
 40
1.18100000E+01
 50
1.63117791E+02
 51
1.82827510E+02
  0
LINE
  8
0
 62
4
 10
-3.02305758E+02
 20
1.09269646E+02
 11
-3.03305860E+02
 21
1.09445991E+02
  0
ARC
  8
0
  6
DASHED
 62
4
 10
-3.03245733E+02
 20
1.10450815E+02
 40
1.00000000E+00
 50
1.82827510E+02
 51
2.60000000E+02
  0
ARC
  8
0
  6
DASHED
 62
4
 10
-2.92555434E+02
 20
1.07441000E+02
 40
1.18100000E+01
 50
1.70000000E+02
 51
1.90532699E+02
  0
ARC
  8
0
  6
DASHED
 62
4
 10
-2.92552746E+02
 20
1.07456241E+02
 40
1.18100000E+01
 50
1.67900933E+02
 51
1.70000000E+02
  0
LINE
  8
0
 62
4
 10
-3.02433182E+02
 20
1.04976551E+02
 11
-3.03749928E+02
 21
1.05208729E+02
  0
ARC
  8
0
 62
4
 10
-2.92448894E+02
 20
1.10984065E+02
 40
1.18100000E+01
 50
1.57172490E+02
 51
1.63117791E+02
  0
LINE
  8
0
  6
DASHED
 62
4
 10
-3.03305860E+02
 20
1.09445991E+02
 11
-3.03418591E+02
 21
1.09465868E+02
  0
LINE
  8
0
  6
DASHED
 62
4
 10
-3.03749928E+02
 20
1.05208729E+02
 11
-3.04166444E+02
 21
1.05282172E+02
  0
CIRCLE
  8
0
 62
7
 10
3.14749981E+02
 20
5.98693884E+01
 40
2.45850000E+00
  0
CIRCLE
  8
0
 62
7
 10
2.77749950E+02
 20
5.98693884E+01
 40
2.45850000E+00
  0
CIRCLE
  8
0
 62
7
 10
3.14750103E+02
 20
9.68694494E+01
 40
2.45850000E+00
  0
CIRCLE
  8
0
 62
7
 10
2.77750057E+02
 20
9.68694494E+01
 40
2.45850000E+00
  0
LINE
  8
0
 62
7
 10
3.05750042E+02
 20
8.38542922E+01
 11
2.96250042E+02
 21
8.93391198E+01
  0
LINE
  8
0
 62
7
 10
3.05750042E+02
 20
7.28846371E+01
 11
3.05750042E+02
 21
8.38542922E+01
  0
LINE
  8
0
 62
7
 10
2.96250042E+02
 20
6.73998096E+01
 11
3.05750042E+02
 21
7.28846371E+01
  0
LINE
  8
0
 62
7
 10
2.86750042E+02
 20
7.28846371E+01
 11
2.96250042E+02
 21
6.73998096E+01
  0
LINE
  8
0
 62
7
 10
2.86750042E+02
 20
8.38542922E+01
 11
2.86750042E+02
 21
7.28846371E+01
  0
LINE
  8
0
 62
7
 10
2.96250042E+02
 20
8.93391198E+01
 11
2.86750042E+02
 21
8.38542922E+01
  0
CIRCLE
  8
0
 62
7
 10
2.96250042E+02
 20
7.83694647E+01
 40
9.50000000E+00
  0
LINE
  8
0
 62
7
 10
2.82750042E+02
 20
8.49078131E+01
 11
2.82750042E+02
 21
7.18311163E+01
  0
LINE
  8
0
 62
7
 10
3.09750042E+02
 20
8.49078131E+01
 11
3.09750042E+02
 21
7.18311163E+01
  0
CIRCLE
  8
0
 62
7
 10
2.96250042E+02
 20
7.83694647E+01
 40
4.99991914E+00
  0
CIRCLE
  8
0
 62
2
 10
2.96250042E+02
 20
7.83694647E+01
 40
5.30001831E+00
  0
CIRCLE
  8
0
 62
7
 10
2.96250042E+02
 20
7.83694647E+01
 40
6.00000000E+00
  0
LINE
  8
0
  6
DASHED
 62
4
 10
2.96250072E+02
 20
1.05208729E+02
 11
2.95833556E+02
 21
1.05282172E+02
  0
LINE
  8
0
  6
DASHED
 62
4
 10
2.96694140E+02
 20
1.09445991E+02
 11
2.96581409E+02
 21
1.09465868E+02
  0
ARC
  8
0
 62
4
 10
3.07551106E+02
 20
1.10984065E+02
 40
1.18100000E+01
 50
1.57172490E+02
 51
1.63117791E+02
  0
LINE
  8
0
 62
4
 10
2.97566818E+02
 20
1.04976551E+02
 11
2.96250072E+02
 21
1.05208729E+02
  0
ARC
  8
0
  6
DASHED
 62
4
 10
3.07447254E+02
 20
1.07456241E+02
 40
1.18100000E+01
 50
1.67900933E+02
 51
1.70000000E+02
  0
ARC
  8
0
  6
DASHED
 62
4
 10
3.07444566E+02
 20
1.07441000E+02
 40
1.18100000E+01
 50
1.70000000E+02
 51
1.90532699E+02
  0
ARC
  8
0
  6
DASHED
 62
4
 10
2.96754267E+02
 20
1.10450815E+02
 40
1.00000000E+00
 50
1.82827510E+02
 51
2.60000000E+02
  0
LINE
  8
0
 62
4
 10
2.97694242E+02
 20
1.09269646E+02
 11
2.96694140E+02
 21
1.09445991E+02
  0
ARC
  8
0
  6
DASHED
 62
4
 10
3.07551106E+02
 20
1.10984065E+02
 40
1.18100000E+01
 50
1.63117791E+02
 51
1.82827510E+02
  0
LINE
  8
0
 62
4
 10
2.98875049E+02
 20
1.15966338E+02
 11
2.97762217E+02
 21
1.16162561E+02
  0
ARC
  8
0
 62
4
 10
2.97587778E+02
 20
1.15177893E+02
 40
1.00000000E+00
 50
7.99999999E+01
 51
1.57172490E+02
  0
LINE
  8
0
 62
4
 10
3.24676412E+02
 20
9.01944458E+01
 11
3.25371005E+02
 21
9.41336768E+01
  0
LINE
  8
0
 62
6
 10
3.24763236E+02
 20
9.06868497E+01
 11
3.21725474E+02
 21
9.12224890E+01
  0
LINE
  8
0
 62
6
 10
3.25284180E+02
 20
9.36412730E+01
 11
3.22246419E+02
 21
9.41769123E+01
  0
LINE
  8
0
 62
4
 10
3.24676412E+02
 20
9.01944458E+01
 11
3.21638650E+02
 21
9.07300852E+01
  0
LINE
  8
0
 62
4
 10
3.25371005E+02
 20
9.41336768E+01
 11
3.22333243E+02
 21
9.46693162E+01
  0
LINE
  8
0
  6
CENTER
 62
6
 10
3.02537886E+02
 20
1.03338447E+02
 11
2.96629039E+02
 21
1.04380337E+02
  0
LINE
  8
0
  6
CENTER
 62
6
 10
3.00104407E+02
 20
1.06813815E+02
 11
2.99062518E+02
 21
1.00904969E+02
  0
LINE
  8
0
 62
4
 10
2.97961143E+02
 20
1.06176304E+02
 11
2.97466227E+02
 21
1.03369495E+02
  0
LINE
  8
0
 62
4
 10
3.01900374E+02
 20
1.05481711E+02
 11
2.97961143E+02
 21
1.06176304E+02
  0
LINE
  8
0
 62
4
 10
3.09112304E+02
 20
1.06647077E+02
 11
3.08534377E+02
 21
1.03369495E+02
  0
LINE
  8
0
 62
4
 10
3.00050870E+02
 20
1.16875979E+02
 11
3.10194390E+02
 21
1.15087402E+02
  0
LINE
  8
0
 62
4
 10
3.10194390E+02
 20
1.15087402E+02
 11
3.08718380E+02
 21
1.06716537E+02
  0
LINE
  8
0
 62
4
 10
3.01917739E+02
 20
1.05580192E+02
 11
3.01425335E+02
 21
1.05667016E+02
  0
LINE
  8
0
 62
4
 10
3.01917739E+02
 20
1.05580192E+02
 11
3.01527934E+02
 21
1.03369495E+02
  0
LINE
  8
0
 62
4
 10
3.01100872E+02
 20
1.06130398E+02
 11
2.98244929E+02
 21
1.06633978E+02
  0
LINE
  8
0
 62
4
 10
3.01425335E+02
 20
1.05667016E+02
 11
3.01100872E+02
 21
1.06130398E+02
  0
LINE
  8
0
  6
CENTER
 62
6
 10
3.20185279E+02
 20
1.08756319E+02
 11
2.98100907E+02
 21
1.12650390E+02
  0
LINE
  8
0
  6
CENTER
 62
6
 10
3.10343644E+02
 20
1.06937672E+02
 11
2.97493138E+02
 21
1.09203563E+02
  0
LINE
  8
0
  6
CENTER
 62
6
 10
3.16318051E+02
 20
9.36991035E+01
 11
3.23784056E+02
 21
9.23826456E+01
  0
ARC
  8
0
 62
4
 10
3.09123960E+02
 20
1.06137309E+02
 40
5.00000000E-01
 50
3.50000000E+02
 51
7.99999999E+01
  0
LINE
  8
0
 62
4
 10
3.09616364E+02
 20
1.06050485E+02
 11
3.09143633E+02
 21
1.03369495E+02
  0
LINE
  8
0
 62
4
 10
3.08718380E+02
 20
1.06716537E+02
 11
3.09210784E+02
 21
1.06629712E+02
  0
ARC
  8
0
 62
4
 10
3.19814142E+02
 20
8.90209419E+01
 40
1.50000000E+00
 50
3.43189498E+02
 51
3.50000000E+02
  0
LINE
  8
0
 62
4
 10
3.17088044E+02
 20
1.13871865E+02
 11
3.22902387E+02
 21
9.78970907E+01
  0
LINE
  8
0
 62
4
 10
3.10194390E+02
 20
1.15087402E+02
 11
3.17088044E+02
 21
1.13871865E+02
  0
LINE
  8
0
 62
4
 10
3.22902387E+02
 20
9.78970907E+01
 11
3.21291354E+02
 21
8.87604697E+01
  0
ARC
  8
0
 62
4
 10
2.99583463E+02
 20
1.03859392E+02
 40
1.50000000E+00
 50
3.40937591E+02
 51
1.99062409E+02
  0
ARC
  8
0
 62
4
 10
2.99453226E+02
 20
1.03120786E+02
 40
3.00000000E-01
 50
5.59992305E+01
 51
1.24000769E+02
  0
CIRCLE
  8
0
 62
4
 10
2.99713699E+02
 20
1.04597998E+02
 40
3.00000000E-01
  0
CIRCLE
  8
0
 62
4
 10
2.99713699E+02
 20
1.04597998E+02
 40
5.00000000E-01
  0
ARC
  8
0
 62
4
 10
2.99453226E+02
 20
1.03120786E+02
 40
5.00000000E-01
 50
2.98293252E+01
 51
1.50170675E+02
  0
LINE
  8
0
 62
4
 10
2.98609590E+02
 20
1.08702074E+02
 11
2.97624782E+02
 21
1.08875723E+02
  0
LINE
  8
0
 62
4
 10
2.99929316E+02
 20
1.16186613E+02
 11
2.98944509E+02
 21
1.16360261E+02
  0
LINE
  8
0
 62
4
 10
2.97624782E+02
 20
1.08875723E+02
 11
2.98944509E+02
 21
1.16360261E+02
  0
LINE
  8
0
 62
4
 10
2.97566818E+02
 20
1.04976551E+02
 11
2.98235363E+02
 21
1.08768061E+02
  0
LINE
  8
0
 62
4
 10
2.97967092E+02
 20
1.05058286E+02
 11
2.97592865E+02
 21
1.05124272E+02
  0
LINE
  8
0
 62
4
 10
2.97967092E+02
 20
1.05058286E+02
 11
3.00050870E+02
 21
1.16875979E+02
  0
LINE
  8
0
 62
4
 10
2.94342040E+02
 20
1.06141574E+02
 11
2.92449275E+02
 21
1.16875979E+02
  0
ARC
  8
0
 62
4
 10
2.85055579E+02
 20
1.07441000E+02
 40
1.18100000E+01
 50
3.49467301E+02
 51
9.99999999E+00
  0
ARC
  8
0
 62
4
 10
2.85052891E+02
 20
1.07456241E+02
 40
1.18100000E+01
 50
9.99999999E+00
 51
3.05326991E+01
  0
LINE
  8
0
 62
4
 10
2.94933327E+02
 20
1.04976551E+02
 11
2.96666589E+02
 21
1.05282172E+02
  0
LINE
  8
0
 62
4
 10
2.93492047E+02
 20
1.13150455E+02
 11
2.95225309E+02
 21
1.13456076E+02
  0
LINE
  8
0
 62
4
 10
2.94730015E+02
 20
1.05093015E+02
 11
2.94907280E+02
 21
1.05124272E+02
  0
LINE
  8
0
 62
4
 10
2.93143868E+02
 20
1.12936748E+02
 11
2.93518095E+02
 21
1.13002734E+02
  0
LINE
  8
0
 62
4
 10
2.94933327E+02
 20
1.04976551E+02
 11
2.93492047E+02
 21
1.13150455E+02
  0
LINE
  8
0
 62
4
 10
2.94102628E+02
 20
1.13258117E+02
 11
2.93555636E+02
 21
1.16360261E+02
  0
LINE
  8
0
 62
4
 10
2.93625096E+02
 20
1.15966338E+02
 11
2.94737928E+02
 21
1.16162561E+02
  0
ARC
  8
0
 62
4
 10
2.84949039E+02
 20
1.10984065E+02
 40
1.18100000E+01
 50
3.57172490E+02
 51
2.28275100E+01
  0
ARC
  8
0
 62
4
 10
2.94912367E+02
 20
1.15177893E+02
 40
1.00000000E+00
 50
2.28275100E+01
 51
9.99999999E+01
  0
ARC
  8
0
 62
4
 10
2.95745878E+02
 20
1.10450815E+02
 40
1.00000000E+00
 50
3.28723662E+02
 51
3.57172490E+02
  0
LINE
  8
0
 62
4
 10
2.92570829E+02
 20
1.16186613E+02
 11
2.93555636E+02
 21
1.16360261E+02
  0
LINE
  8
0
  6
CENTER
 62
6
 10
2.89962259E+02
 20
1.03338447E+02
 11
2.95871106E+02
 21
1.04380337E+02
  0
LINE
  8
0
  6
CENTER
 62
6
 10
2.92395738E+02
 20
1.06813815E+02
 11
2.93437627E+02
 21
1.00904969E+02
  0
LINE
  8
0
 62
4
 10
2.94539002E+02
 20
1.06176304E+02
 11
2.95033918E+02
 21
1.03369495E+02
  0
LINE
  8
0
 62
4
 10
2.90599771E+02
 20
1.05481711E+02
 11
2.94539002E+02
 21
1.06176304E+02
  0
LINE
  8
0
 62
4
 10
2.91602703E+02
 20
1.04775134E+02
 11
2.93833293E+02
 21
1.05168447E+02
  0
LINE
  8
0
 62
4
 10
2.90599771E+02
 20
1.05481711E+02
 11
2.91602703E+02
 21
1.04775134E+02
  0
LINE
  8
0
 62
4
 10
2.94539002E+02
 20
1.06176304E+02
 11
2.93833293E+02
 21
1.05168447E+02
  0
LINE
  8
0
 62
4
 10
2.91850555E+02
 20
1.03369495E+02
 11
2.91602703E+02
 21
1.04775134E+02
  0
LINE
  8
0
 62
4
 10
2.93833293E+02
 20
1.05168447E+02
 11
2.94150497E+02
 21
1.03369495E+02
  0
LINE
  8
0
 62
4
 10
2.83387841E+02
 20
1.06647077E+02
 11
2.83965768E+02
 21
1.03369495E+02
  0
LINE
  8
0
 62
4
 10
2.92449275E+02
 20
1.16875979E+02
 11
2.82305755E+02
 21
1.15087402E+02
  0
LINE
  8
0
 62
4
 10
2.82305755E+02
 20
1.15087402E+02
 11
2.83781765E+02
 21
1.06716537E+02
  0
LINE
  8
0
 62
4
 10
2.90582406E+02
 20
1.05580192E+02
 11
2.91074810E+02
 21
1.05667016E+02
  0
LINE
  8
0
 62
4
 10
2.90582406E+02
 20
1.05580192E+02
 11
2.90972211E+02
 21
1.03369495E+02
  0
LINE
  8
0
 62
4
 10
2.91399273E+02
 20
1.06130398E+02
 11
2.94255216E+02
 21
1.06633978E+02
  0
LINE
  8
0
 62
4
 10
2.91074810E+02
 20
1.05667016E+02
 11
2.91399273E+02
 21
1.06130398E+02
  0
LINE
  8
0
  6
CENTER
 62
6
 10
2.72314866E+02
 20
1.08756319E+02
 11
2.94399238E+02
 21
1.12650390E+02
  0
LINE
  8
0
  6
CENTER
 62
6
 10
2.82156501E+02
 20
1.06937672E+02
 11
2.95007007E+02
 21
1.09203563E+02
  0
LINE
  8
0
  6
CENTER
 62
6
 10
2.76591159E+02
 20
9.37712328E+01
 11
2.69125155E+02
 21
9.24547748E+01
  0
ARC
  8
0
 62
4
 10
2.83376185E+02
 20
1.06137309E+02
 40
5.00000000E-01
 50
9.99999999E+01
 51
1.90000000E+02
  0
LINE
  8
0
 62
4
 10
2.82883781E+02
 20
1.06050485E+02
 11
2.83356512E+02
 21
1.03369495E+02
  0
LINE
  8
0
 62
4
 10
2.83781765E+02
 20
1.06716537E+02
 11
2.83289361E+02
 21
1.06629712E+02
  0
ARC
  8
0
 62
4
 10
2.72686003E+02
 20
8.90209419E+01
 40
1.50000000E+00
 50
1.90000000E+02
 51
1.96794373E+02
  0
LINE
  8
0
 62
4
 10
2.75412101E+02
 20
1.13871865E+02
 11
2.69597758E+02
 21
9.78970907E+01
  0
LINE
  8
0
 62
4
 10
2.82305755E+02
 20
1.15087402E+02
 11
2.75412101E+02
 21
1.13871865E+02
  0
LINE
  8
0
 62
4
 10
2.69597758E+02
 20
9.78970907E+01
 11
2.71208791E+02
 21
8.87604697E+01
  0
LINE
  8
0
 62
4
 10
2.67129140E+02
 20
9.41336768E+01
 11
2.70166902E+02
 21
9.46693162E+01
  0
LINE
  8
0
 62
4
 10
2.67823733E+02
 20
9.01944458E+01
 11
2.70861495E+02
 21
9.07300852E+01
  0
LINE
  8
0
 62
4
 10
2.67823733E+02
 20
9.01944458E+01
 11
2.67129140E+02
 21
9.41336768E+01
  0
LINE
  8
0
 62
6
 10
2.67215964E+02
 20
9.36412730E+01
 11
2.70253726E+02
 21
9.41769123E+01
  0
LINE
  8
0
 62
6
 10
2.67736909E+02
 20
9.06868497E+01
 11
2.70774671E+02
 21
9.12224890E+01
  0
LINE
  8
0
  6
CENTER
 62
2
 10
2.69160168E+02
 20
9.68695410E+01
 11
2.83827023E+02
 21
9.68695410E+01
  0
LINE
  8
0
  6
CENTER
 62
2
 10
2.77750057E+02
 20
1.05272114E+02
 11
2.77750057E+02
 21
8.89851263E+01
  0
LINE
  8
0
 62
7
 10
2.74249996E+02
 20
1.03369495E+02
 11
3.18250042E+02
 21
1.03369495E+02
  0
LINE
  8
0
 62
7
 10
2.71250011E+02
 20
1.00369495E+02
 11
2.71250011E+02
 21
5.63694494E+01
  0
LINE
  8
0
  6
CENTER
 62
2
 10
2.77749950E+02
 20
5.12464636E+01
 11
2.77749950E+02
 21
6.78889654E+01
  0
LINE
  8
0
  6
CENTER
 62
2
 10
2.69305355E+02
 20
5.98694799E+01
 11
2.84117443E+02
 21
5.98694799E+01
  0
LINE
  8
0
 62
7
 10
2.74249996E+02
 20
5.33694494E+01
 11
3.18250042E+02
 21
5.33694494E+01
  0
LINE
  8
0
  6
CENTER
 62
2
 10
3.00250088E+02
 20
1.05121860E+02
 11
3.00250088E+02
 21
8.97357061E+01
  0
LINE
  8
0
  6
CENTER
 62
2
 10
2.96250042E+02
 20
1.06864445E+02
 11
2.96250042E+02
 21
4.90682104E+01
  0
LINE
  8
0
  6
CENTER
 62
2
 10
3.14749981E+02
 20
5.14814108E+01
 11
3.14749981E+02
 21
6.74458044E+01
  0
LINE
  8
0
  6
CENTER
 62
2
 10
3.08368649E+02
 20
5.98694799E+01
 11
3.22890316E+02
 21
5.98694799E+01
  0
LINE
  8
0
  6
CENTER
 62
2
 10
3.08368649E+02
 20
9.68695410E+01
 11
3.22890316E+02
 21
9.68695410E+01
  0
LINE
  8
0
  6
CENTER
 62
2
 10
2.86250042E+02
 20
8.67235601E+01
 11
2.86250042E+02
 21
1.05298481E+02
  0
LINE
  8
0
  6
CENTER
 62
2
 10
3.23650051E+02
 20
7.83694647E+01
 11
2.67414562E+02
 21
7.83694647E+01
  0
LINE
  8
0
 62
7
 10
3.21250042E+02
 20
1.00369495E+02
 11
3.21250042E+02
 21
5.63694494E+01
  0
LINE
  8
0
  6
CENTER
 62
2
 10
3.14750103E+02
 20
1.05376102E+02
 11
3.14750103E+02
 21
9.04549749E+01
  0
ARC
  8
0
 62
7
 10
2.74249996E+02
 20
5.63694494E+01
 40
3.00000000E+00
 50
1.79999964E+02
 51
2.69999946E+02
  0
CIRCLE
  8
0
 62
7
 10
3.14750103E+02
 20
9.68694647E+01
 40
4.50000000E+00
  0
CIRCLE
  8
0
 62
7
 10
3.14750103E+02
 20
9.68694647E+01
 40
5.00000000E+00
  0
ARC
  8
0
 62
7
 10
2.74249996E+02
 20
1.00369495E+02
 40
3.00000000E+00
 50
8.99999818E+01
 51
1.79999964E+02
  0
CIRCLE
  8
0
 62
7
 10
2.96250042E+02
 20
7.83694647E+01
 40
1.50000000E+01
  0
ARC
  8
0
 62
7
 10
3.18250042E+02
 20
1.00369495E+02
 40
3.00000000E+00
 50
0.00000000E+00
 51
8.99999818E+01
  0
CIRCLE
  8
0
 62
7
 10
2.77749981E+02
 20
5.98694647E+01
 40
5.00000000E+00
  0
CIRCLE
  8
0
 62
7
 10
2.77749981E+02
 20
5.98694647E+01
 40
4.50000000E+00
  0
CIRCLE
  8
0
 62
7
 10
2.77750057E+02
 20
9.68695257E+01
 40
4.50000000E+00
  0
CIRCLE
  8
0
 62
7
 10
2.77750057E+02
 20
9.68695257E+01
 40
5.00000000E+00
  0
ARC
  8
0
 62
7
 10
3.18250042E+02
 20
5.63694494E+01
 40
3.00000000E+00
 50
2.69999963E+02
 51
0.00000000E+00
  0
CIRCLE
  8
0
 62
7
 10
3.14750057E+02
 20
5.98694036E+01
 40
4.50000000E+00
  0
CIRCLE
  8
0
 62
7
 10
3.14750057E+02
 20
5.98694036E+01
 40
5.00000000E+00
  0
CIRCLE
  8
0
 62
7
 10
2.96250042E+02
 20
7.83694647E+01
 40
1.60000000E+01
  0
CIRCLE
  8
0
 62
2
 10
2.77750057E+02
 20
9.68695410E+01
 40
3.00000000E+00
  0
CIRCLE
  8
0
 62
2
 10
2.77749950E+02
 20
5.98694799E+01
 40
3.00000000E+00
  0
CIRCLE
  8
0
 62
2
 10
3.14750103E+02
 20
9.68695410E+01
 40
3.00000000E+00
  0
CIRCLE
  8
0
 62
2
 10
3.14749981E+02
 20
5.98694799E+01
 40
3.00000000E+00
  0
LINE
  8
0
  6
PHANTOM
 10
-7.92500000E+01
 20
2.37628397E+02
 11
-7.92500000E+01
 21
1.38814801E+02
  0
LINE
  8
0
  6
PHANTOM
 10
6.72499809E+01
 20
2.37628397E+02
 11
6.72499809E+01
 21
1.39735760E+02
  0
LINE
  8
0
 62
2
 10
-1.99749943E+02
 20
1.92069431E+02
 11
-1.93249981E+02
 21
1.92069431E+02
  0
LINE
  8
0
 62
7
 10
-1.99749943E+02
 20
1.91369434E+02
 11
-1.93249981E+02
 21
1.91369434E+02
  0
LINE
  8
0
 62
2
 10
-1.99749943E+02
 20
2.04669452E+02
 11
-1.93249981E+02
 21
2.04669452E+02
  0
LINE
  8
0
 62
7
 10
-1.99749943E+02
 20
2.05369465E+02
 11
-1.93249981E+02
 21
2.05369465E+02
  0
ARC
  8
0
 62
4
 10
-1.91863995E+02
 20
1.92869465E+02
 40
1.58859473E+01
 50
1.59743839E+02
 51
2.00256161E+02
  0
ARC
  8
0
 62
4
 10
-1.91863995E+02
 20
2.03869465E+02
 40
1.58859474E+01
 50
1.59743839E+02
 51
2.00256161E+02
  0
ARC
  8
0
 62
4
 10
-2.15635893E+02
 20
2.03869465E+02
 40
1.58859499E+01
 50
3.39743842E+02
 51
2.02561578E+01
  0
ARC
  8
0
 62
4
 10
-2.15635893E+02
 20
1.92869465E+02
 40
1.58859499E+01
 50
3.39743842E+02
 51
2.02561578E+01
  0
LINE
  8
0
 62
4
 10
-2.07749943E+02
 20
1.87369465E+02
 11
-1.99749943E+02
 21
1.87369465E+02
  0
LINE
  8
0
 62
4
 10
-2.07749943E+02
 20
2.09369465E+02
 11
-1.99749943E+02
 21
2.09369465E+02
  0
LINE
  8
0
 62
4
 10
-2.06767462E+02
 20
1.98369465E+02
 11
-2.00732423E+02
 21
1.98369465E+02
  0
LINE
  8
0
 62
4
 10
-2.07749943E+02
 20
1.87369465E+02
 11
-2.07749943E+02
 21
2.09369465E+02
  0
LINE
  8
0
 62
4
 10
-1.99749943E+02
 20
1.87369465E+02
 11
-1.99749943E+02
 21
2.09369465E+02
  0
ARC
  8
0
 62
7
 10
2.92499886E+01
 20
2.13869465E+02
 40
5.00000000E-01
 50
0.00000000E+00
 51
8.99999818E+01
  0
ARC
  8
0
 62
7
 10
2.92499886E+01
 20
1.82869465E+02
 40
5.00000000E-01
 50
2.69999963E+02
 51
3.59999945E+02
  0
CIRCLE
  8
0
 62
7
 10
-1.39749943E+02
 20
1.88369465E+02
 40
2.59999990E+00
  0
CIRCLE
  8
0
 62
7
 10
-2.27499962E+01
 20
1.88369465E+02
 40
2.59999990E+00
  0
ARC
  8
0
 62
7
 10
1.72030499E+02
 20
2.03119449E+02
 40
1.37195244E+01
 50
3.39743694E+02
 51
2.02562511E+01
  0
ARC
  8
0
 62
7
 10
1.72030407E+02
 20
1.93619480E+02
 40
1.37196503E+01
 50
3.39743735E+02
 51
2.02562101E+01
  0
ARC
  8
0
 62
7
 10
1.92469555E+02
 20
2.03119449E+02
 40
1.37195244E+01
 50
1.59743713E+02
 51
2.00256269E+02
  0
ARC
  8
0
 62
7
 10
1.92469646E+02
 20
1.93619480E+02
 40
1.37196503E+01
 50
1.59743754E+02
 51
2.00256229E+02
  0
CIRCLE
  8
0
 62
7
 10
-1.52499771E+01
 20
2.02369404E+02
 40
7.00000000E+00
  0
ARC
  8
0
 62
7
 10
-4.25003052E+00
 20
1.80369465E+02
 40
2.00000000E+00
 50
2.70000018E+02
 51
5.46415133E-05
  0
CIRCLE
  8
0
 62
2
 10
-1.52499771E+01
 20
2.02369404E+02
 40
6.57849979E+00
  0
ARC
  8
0
 62
7
 10
2.25002289E+00
 20
1.74401935E+02
 40
5.00000000E-01
 50
2.71000231E+02
 51
1.36603783E-05
  0
ARC
  8
0
 62
7
 10
2.25002289E+00
 20
2.22336994E+02
 40
5.00000000E-01
 50
0.00000000E+00
 51
8.89997895E+01
  0
CIRCLE
  8
0
 62
7
 10
-1.52499771E+01
 20
2.02369404E+02
 40
5.65999985E+00
  0
CIRCLE
  8
0
 62
7
 10
-1.47249981E+02
 20
2.02369404E+02
 40
7.00000000E+00
  0
ARC
  8
0
 62
7
 10
-1.58249928E+02
 20
1.80369465E+02
 40
2.00000000E+00
 50
1.79999977E+02
 51
2.70000028E+02
  0
CIRCLE
  8
0
 62
7
 10
-1.47249981E+02
 20
2.02369404E+02
 40
5.65999985E+00
  0
ARC
  8
0
 62
7
 10
-1.58249928E+02
 20
2.16369465E+02
 40
2.00000000E+00
 50
8.99999818E+01
 51
1.79999964E+02
  0
ARC
  8
0
 62
7
 10
-1.74999996E+02
 20
1.83360859E+02
 40
2.50000000E-01
 50
1.80000008E+02
 51
2.67999216E+02
  0
ARC
  8
0
 62
7
 10
-1.66749989E+02
 20
2.13869465E+02
 40
5.00000000E-01
 50
9.00000231E+01
 51
1.80000005E+02
  0
ARC
  8
0
 62
7
 10
-1.74999996E+02
 20
2.13378071E+02
 40
2.50000000E-01
 50
9.20007768E+01
 51
1.79999991E+02
  0
ARC
  8
0
 62
7
 10
-1.64749981E+02
 20
2.22336994E+02
 40
5.00000000E-01
 50
9.10002155E+01
 51
1.80000005E+02
  0
ARC
  8
0
 62
7
 10
-1.64749981E+02
 20
1.74401935E+02
 40
5.00000000E-01
 50
1.80000008E+02
 51
2.68999785E+02
  0
ARC
  8
0
 62
7
 10
-1.79750019E+02
 20
2.12869465E+02
 40
5.00000000E-01
 50
9.00000231E+01
 51
1.80000005E+02
  0
ARC
  8
0
 62
7
 10
-1.79750019E+02
 20
1.83869449E+02
 40
5.00000000E-01
 50
1.80000008E+02
 51
2.69999998E+02
  0
ARC
  8
0
 62
7
 10
-1.66749989E+02
 20
1.82869465E+02
 40
5.00000000E-01
 50
1.80000008E+02
 51
2.69999998E+02
  0
CIRCLE
  8
0
 62
2
 10
-1.47249981E+02
 20
2.02369404E+02
 40
6.57849979E+00
  0
CIRCLE
  8
0
 62
7
 10
-2.27499962E+01
 20
1.88369465E+02
 40
4.00000000E+00
  0
CIRCLE
  8
0
 62
7
 10
-1.39749943E+02
 20
1.88369465E+02
 40
4.00000000E+00
  0
ARC
  8
0
 62
7
 10
-4.25003052E+00
 20
2.16369465E+02
 40
2.00000000E+00
 50
5.46415133E-05
 51
9.00000369E+01
  0
LINE
  8
0
 62
7
 10
-1.93249981E+02
 20
1.92069431E+02
 11
-1.90249950E+02
 21
1.92069431E+02
  0
LINE
  8
0
 62
7
 10
-1.93249981E+02
 20
2.04669452E+02
 11
-1.90249950E+02
 21
2.04669452E+02
  0
LINE
  8
0
 62
7
 10
-2.14249980E+02
 20
2.03869467E+02
 11
-2.12749952E+02
 21
2.05369464E+02
  0
LINE
  8
0
 62
7
 10
-2.14250008E+02
 20
1.92869459E+02
 11
-2.12749995E+02
 21
1.91369446E+02
  0
LINE
  8
0
 62
7
 10
-2.12749989E+02
 20
1.91369434E+02
 11
-2.12749989E+02
 21
2.05369465E+02
  0
LINE
  8
0
 62
7
 10
-1.87249950E+02
 20
2.05369465E+02
 11
-1.87249950E+02
 21
1.91369434E+02
  0
LINE
  8
0
 62
7
 10
-1.83249947E+02
 20
1.91369473E+02
 11
-1.82249924E+02
 21
1.90369451E+02
  0
LINE
  8
0
 62
7
 10
-1.83249996E+02
 20
2.05369515E+02
 11
-1.82250049E+02
 21
2.06369462E+02
  0
LINE
  8
0
 62
7
 10
-1.90249950E+02
 20
1.91369434E+02
 11
-1.83249905E+02
 21
1.91369434E+02
  0
LINE
  8
0
 62
2
 10
-2.13450001E+02
 20
1.92069431E+02
 11
-2.07749943E+02
 21
1.92069431E+02
  0
LINE
  8
0
 62
7
 10
-2.12749989E+02
 20
1.91369434E+02
 11
-2.07749943E+02
 21
1.91369434E+02
  0
LINE
  8
0
 62
7
 10
-1.90249950E+02
 20
2.05369465E+02
 11
-1.83249981E+02
 21
2.05369465E+02
  0
LINE
  8
0
 62
2
 10
-2.13450001E+02
 20
2.04669452E+02
 11
-2.07749943E+02
 21
2.04669452E+02
  0
LINE
  8
0
 62
7
 10
-1.93249981E+02
 20
1.91369434E+02
 11
-1.93249981E+02
 21
2.05369465E+02
  0
LINE
  8
0
 62
7
 10
-2.12749958E+02
 20
2.05369465E+02
 11
-2.07749943E+02
 21
2.05369465E+02
  0
LINE
  8
0
 62
7
 10
-2.14249989E+02
 20
1.92869434E+02
 11
-2.14249989E+02
 21
2.03869465E+02
  0
LINE
  8
0
 62
7
 10
-1.90249950E+02
 20
2.05369465E+02
 11
-1.90249950E+02
 21
1.91369434E+02
  0
LINE
  8
0
 62
7
 10
-1.82249920E+02
 20
1.90369449E+02
 11
-1.80249950E+02
 21
1.90369449E+02
  0
LINE
  8
0
 62
7
 10
-1.82250011E+02
 20
2.06369434E+02
 11
-1.80249935E+02
 21
2.06369434E+02
  0
LINE
  8
0
 62
7
 10
1.64249949E+02
 20
1.83369483E+02
 11
1.65749939E+02
 21
1.84869474E+02
  0
LINE
  8
0
 62
7
 10
1.64249981E+02
 20
2.13369478E+02
 11
1.65749978E+02
 21
2.11869482E+02
  0
LINE
  8
0
 62
7
 10
1.78749981E+02
 20
2.11869465E+02
 11
1.78749981E+02
 21
1.84869465E+02
  0
LINE
  8
0
 62
7
 10
1.07749981E+02
 20
1.83369465E+02
 11
1.07749981E+02
 21
2.13369465E+02
  0
LINE
  8
0
 62
7
 10
1.04749981E+02
 20
1.83369465E+02
 11
1.64249966E+02
 21
1.83369465E+02
  0
LINE
  8
0
 62
7
 10
1.04749981E+02
 20
2.13369465E+02
 11
1.64249966E+02
 21
2.13369465E+02
  0
LINE
  8
0
 62
7
 10
2.74997711E+00
 20
2.23369465E+02
 11
2.77499733E+01
 21
2.23369465E+02
  0
LINE
  8
0
 62
7
 10
2.74997711E+00
 20
1.73369465E+02
 11
2.77499733E+01
 21
1.73369465E+02
  0
LINE
  8
0
 62
7
 10
2.97499809E+01
 20
2.13869465E+02
 11
2.97499809E+01
 21
1.82869465E+02
  0
LINE
  8
0
 62
7
 10
2.92499886E+01
 20
1.82369465E+02
 11
2.77499733E+01
 21
1.82369465E+02
  0
LINE
  8
0
 62
7
 10
2.77499733E+01
 20
2.23369465E+02
 11
2.77499733E+01
 21
1.73369465E+02
  0
LINE
  8
0
 62
7
 10
2.92499886E+01
 20
2.14369465E+02
 11
2.77499733E+01
 21
2.14369465E+02
  0
LINE
  8
0
  6
CENTER
 62
2
 10
-2.17556385E+02
 20
1.98369465E+02
 11
1.92617352E+02
 21
1.98369465E+02
  0
LINE
  8
0
 62
7
 10
1.04749981E+02
 20
2.06369434E+02
 11
2.97499809E+01
 21
2.06369434E+02
  0
LINE
  8
0
  6
CENTER
 62
2
 10
-1.47249981E+02
 20
1.92353596E+02
 11
-1.47249981E+02
 21
2.12513630E+02
  0
LINE
  8
0
  6
CENTER
 62
2
 10
-1.57366711E+02
 20
2.02369404E+02
 11
-1.37301556E+02
 21
2.02369404E+02
  0
LINE
  8
0
  6
CENTER
 62
2
 10
-1.39749943E+02
 20
1.82449756E+02
 11
-1.39749943E+02
 21
1.93974384E+02
  0
LINE
  8
0
 62
7
 10
-1.79750019E+02
 20
1.83369465E+02
 11
-1.75241047E+02
 21
1.83369465E+02
  0
LINE
  8
0
 62
7
 10
-1.80249935E+02
 20
1.83869449E+02
 11
-1.80249935E+02
 21
2.12869465E+02
  0
LINE
  8
0
 62
7
 10
-1.34249954E+02
 20
1.73369465E+02
 11
-1.34249954E+02
 21
2.23369465E+02
  0
LINE
  8
0
 62
7
 10
-1.66749989E+02
 20
2.14369495E+02
 11
-1.65249973E+02
 21
2.14369495E+02
  0
LINE
  8
0
 62
7
 10
-1.60249935E+02
 20
2.16369465E+02
 11
-1.60249935E+02
 21
1.80369465E+02
  0
LINE
  8
0
 62
7
 10
-1.58249928E+02
 20
1.78369465E+02
 11
-1.34249954E+02
 21
1.78369465E+02
  0
LINE
  8
0
 62
7
 10
-1.58249928E+02
 20
2.18369465E+02
 11
-1.34249954E+02
 21
2.18369465E+02
  0
LINE
  8
0
  6
CENTER
 62
2
 10
-1.45446583E+02
 20
1.88369465E+02
 11
-1.33831100E+02
 21
1.88369465E+02
  0
LINE
  8
0
 62
7
 10
-1.34249930E+02
 20
1.73369580E+02
 11
-1.64758665E+02
 21
1.73902116E+02
  0
LINE
  8
0
 62
7
 10
-1.34249954E+02
 20
2.20369465E+02
 11
-1.08749954E+02
 21
2.20369465E+02
  0
LINE
  8
0
 62
7
 10
-1.34249954E+02
 20
2.19519459E+02
 11
-1.08749954E+02
 21
2.19519459E+02
  0
LINE
  8
0
 62
7
 10
-1.34249954E+02
 20
2.14219471E+02
 11
-1.08749954E+02
 21
2.14219471E+02
  0
LINE
  8
0
  6
CENTER
 62
2
 10
-1.68794971E+02
 20
2.16869465E+02
 11
3.16511497E+01
 21
2.16869465E+02
  0
LINE
  8
0
 62
7
 10
-1.34249954E+02
 20
1.76369480E+02
 11
-6.47500458E+01
 21
1.76369480E+02
  0
LINE
  8
0
 62
7
 10
-1.34249954E+02
 20
1.77219471E+02
 11
-6.47500458E+01
 21
1.77219471E+02
  0
LINE
  8
0
 62
7
 10
-1.34249954E+02
 20
1.82519459E+02
 11
-6.47500458E+01
 21
1.82519459E+02
  0
LINE
  8
0
  6
CENTER
 62
2
 10
-1.68794971E+02
 20
1.79869465E+02
 11
3.16511497E+01
 21
1.79869465E+02
  0
LINE
  8
0
 62
7
 10
-2.13064888E+01
 20
1.88369449E+02
 11
-2.20281768E+01
 21
1.87119433E+02
  0
LINE
  8
0
 62
7
 10
-2.20282936E+01
 20
1.87119495E+02
 11
-2.34716988E+01
 21
1.87119495E+02
  0
LINE
  8
0
 62
7
 10
-2.34716663E+01
 20
1.87119500E+02
 11
-2.41933847E+01
 21
1.88369569E+02
  0
LINE
  8
0
 62
7
 10
-2.41932782E+01
 20
1.88369474E+02
 11
-2.34715979E+01
 21
1.89619477E+02
  0
LINE
  8
0
 62
7
 10
-2.20282936E+01
 20
1.89619541E+02
 11
-2.34716988E+01
 21
1.89619541E+02
  0
LINE
  8
0
 62
7
 10
-2.13066527E+01
 20
1.88369525E+02
 11
-2.20283254E+01
 21
1.89619515E+02
  0
LINE
  8
0
 62
7
 10
-1.79750019E+02
 20
2.13369526E+02
 11
-1.75241047E+02
 21
2.13369526E+02
  0
LINE
  8
0
 62
7
 10
-1.38306427E+02
 20
1.88369410E+02
 11
-1.39028114E+02
 21
1.87119393E+02
  0
LINE
  8
0
 62
7
 10
-1.39028278E+02
 20
1.87119495E+02
 11
-1.40471645E+02
 21
1.87119495E+02
  0
LINE
  8
0
 62
7
 10
-1.40471592E+02
 20
1.87119511E+02
 11
-1.41193288E+02
 21
1.88369540E+02
  0
LINE
  8
0
 62
7
 10
-1.41193213E+02
 20
1.88369485E+02
 11
-1.40471525E+02
 21
1.89619502E+02
  0
LINE
  8
0
 62
7
 10
-1.39028278E+02
 20
1.89619541E+02
 11
-1.40471645E+02
 21
1.89619541E+02
  0
LINE
  8
0
 62
7
 10
-1.38306593E+02
 20
1.88369546E+02
 11
-1.39028273E+02
 21
1.89619549E+02
  0
LINE
  8
0
 62
7
 10
-1.65249935E+02
 20
1.74401935E+02
 11
-1.65249935E+02
 21
2.22336994E+02
  0
LINE
  8
0
 62
7
 10
-1.75008744E+02
 20
2.13628027E+02
 11
-1.67249153E+02
 21
2.13898996E+02
  0
LINE
  8
0
 62
7
 10
-1.75249935E+02
 20
2.13369495E+02
 11
-1.75249935E+02
 21
1.83369419E+02
  0
LINE
  8
0
 62
7
 10
1.04749981E+02
 20
1.90369449E+02
 11
2.97499809E+01
 21
1.90369449E+02
  0
LINE
  8
0
 62
7
 10
1.85750057E+02
 20
1.88869449E+02
 11
1.78750027E+02
 21
1.88869449E+02
  0
LINE
  8
0
 62
7
 10
1.85750057E+02
 20
2.07869434E+02
 11
1.78750027E+02
 21
2.07869434E+02
  0
LINE
  8
0
 62
2
 10
1.89449993E+02
 20
1.93069431E+02
 11
1.85750042E+02
 21
1.93069431E+02
  0
LINE
  8
0
 62
7
 10
1.65749950E+02
 20
2.11869465E+02
 11
1.78749981E+02
 21
2.11869465E+02
  0
LINE
  8
0
 62
7
 10
1.85750042E+02
 20
2.07869434E+02
 11
1.85750042E+02
 21
1.88869419E+02
  0
LINE
  8
0
 62
7
 10
1.84901546E+02
 20
1.98369465E+02
 11
1.79598537E+02
 21
1.98369465E+02
  0
LINE
  8
0
 62
7
 10
1.65749950E+02
 20
1.84869465E+02
 11
1.78749981E+02
 21
1.84869465E+02
  0
LINE
  8
0
 62
7
 10
1.88750072E+02
 20
1.92369434E+02
 11
1.85750042E+02
 21
1.92369434E+02
  0
LINE
  8
0
 62
7
 10
1.89750001E+02
 20
1.93369464E+02
 11
1.88750033E+02
 21
1.92369473E+02
  0
LINE
  8
0
 62
7
 10
1.89749873E+02
 20
2.03369234E+02
 11
1.88749918E+02
 21
2.04369211E+02
  0
LINE
  8
0
 62
2
 10
1.89449993E+02
 20
2.03669452E+02
 11
1.85750042E+02
 21
2.03669452E+02
  0
LINE
  8
0
 62
7
 10
1.88750072E+02
 20
1.92369434E+02
 11
1.88750072E+02
 21
2.04369480E+02
  0
LINE
  8
0
 62
7
 10
1.89750027E+02
 20
1.93369419E+02
 11
1.89750027E+02
 21
2.03369419E+02
  0
LINE
  8
0
 62
7
 10
1.88750072E+02
 20
2.04369465E+02
 11
1.85750042E+02
 21
2.04369465E+02
  0
LINE
  8
0
 62
7
 10
-1.66749989E+02
 20
1.82369495E+02
 11
-1.65249973E+02
 21
1.82369495E+02
  0
LINE
  8
0
 62
7
 10
-1.34249985E+02
 20
2.23369570E+02
 11
-1.64758704E+02
 21
2.22837043E+02
  0
LINE
  8
0
 62
7
 10
-1.67249943E+02
 20
2.13869465E+02
 11
-1.67249943E+02
 21
1.82840046E+02
  0
LINE
  8
0
 62
7
 10
-1.75008761E+02
 20
1.83111133E+02
 11
-1.67249171E+02
 21
1.82840161E+02
  0
LINE
  8
0
 62
7
 10
-2.25002289E+00
 20
2.16369465E+02
 11
-2.25002289E+00
 21
1.80369465E+02
  0
LINE
  8
0
 62
7
 10
-4.25003052E+00
 20
1.78369465E+02
 11
-2.82500267E+01
 21
1.78369465E+02
  0
LINE
  8
0
 62
7
 10
-4.25003052E+00
 20
2.18369465E+02
 11
-2.82500267E+01
 21
2.18369465E+02
  0
LINE
  8
0
  6
CENTER
 62
2
 10
-1.70533943E+01
 20
1.88369465E+02
 11
-2.86688805E+01
 21
1.88369465E+02
  0
LINE
  8
0
 62
7
 10
-2.82500702E+01
 20
1.73369602E+02
 11
2.25866490E+00
 21
1.73902139E+02
  0
LINE
  8
0
 62
7
 10
-2.82499745E+01
 20
2.23369609E+02
 11
2.25872153E+00
 21
2.22837083E+02
  0
LINE
  8
0
 62
7
 10
2.74997711E+00
 20
1.74401935E+02
 11
2.74997711E+00
 21
2.23369465E+02
  0
LINE
  8
0
 62
7
 10
-2.82500267E+01
 20
1.73369465E+02
 11
-2.82500267E+01
 21
2.23369465E+02
  0
LINE
  8
0
  6
CENTER
 62
2
 10
-2.27499962E+01
 20
1.82449756E+02
 11
-2.27499962E+01
 21
1.93974384E+02
  0
LINE
  8
0
  6
CENTER
 62
2
 10
-5.13326645E+00
 20
2.02369404E+02
 11
-2.51984215E+01
 21
2.02369404E+02
  0
LINE
  8
0
  6
CENTER
 62
2
 10
-1.52499771E+01
 20
1.92353596E+02
 11
-1.52499771E+01
 21
2.12513630E+02
  0
LINE
  8
0
 62
7
 10
1.04749981E+02
 20
1.83369465E+02
 11
1.04749981E+02
 21
2.13369465E+02
  0
LINE
  8
0
 62
6
 10
-7.30179949E+01
 20
1.98036105E+02
 11
-7.64820966E+01
 21
1.92036105E+02
  0
LINE
  8
0
 62
4
 10
-6.47500458E+01
 20
1.96536105E+02
 11
-7.38840204E+01
 21
1.96536105E+02
  0
LINE
  8
0
  6
CENTER
 62
6
 10
-2.97500458E+01
 20
1.95036105E+02
 11
-7.67500458E+01
 21
1.95036105E+02
  0
LINE
  8
0
 62
4
 10
-6.47500458E+01
 20
1.93536105E+02
 11
-7.56160712E+01
 21
1.93536105E+02
  0
LINE
  8
0
 62
6
 10
-8.54820051E+01
 20
1.98702824E+02
 11
-8.20179034E+01
 21
2.04702824E+02
  0
LINE
  8
0
 62
4
 10
-9.37499542E+01
 20
2.00202824E+02
 11
-8.46159796E+01
 21
2.00202824E+02
  0
LINE
  8
0
  6
CENTER
 62
6
 10
-1.28749954E+02
 20
2.01702824E+02
 11
-8.17499542E+01
 21
2.01702824E+02
  0
LINE
  8
0
 62
4
 10
-9.37499542E+01
 20
2.03202824E+02
 11
-8.28839288E+01
 21
2.03202824E+02
  0
LINE
  8
0
 62
6
 10
-5.97500458E+01
 20
1.69366144E+02
 11
-5.97500458E+01
 21
1.71717181E+02
  0
LINE
  8
0
 62
6
 10
-6.27500458E+01
 20
1.69366144E+02
 11
-6.27500458E+01
 21
1.71717181E+02
  0
LINE
  8
0
 62
4
 10
-5.92500458E+01
 20
1.69595859E+02
 11
-5.92500458E+01
 21
1.71717181E+02
  0
LINE
  8
0
 62
4
 10
-6.32500458E+01
 20
1.69595859E+02
 11
-6.32500458E+01
 21
1.71717181E+02
  0
LINE
  8
0
 62
4
 10
-4.97500458E+01
 20
1.71717181E+02
 11
-4.97500458E+01
 21
1.84425178E+02
  0
LINE
  8
0
 62
4
 10
-6.47500458E+01
 20
1.71717181E+02
 11
-6.47500458E+01
 21
1.97347068E+02
  0
LINE
  8
0
 62
4
 10
-3.47500458E+01
 20
1.84425178E+02
 11
-3.47500458E+01
 21
1.96374639E+02
  0
LINE
  8
0
  6
CENTER
 62
6
 10
-6.12500458E+01
 20
1.66253886E+02
 11
-6.12500458E+01
 21
1.76519465E+02
  0
LINE
  8
0
  6
CENTER
 62
6
 10
-5.32500458E+01
 20
1.66253886E+02
 11
-5.32500458E+01
 21
1.76519465E+02
  0
LINE
  8
0
  6
CENTER
 62
6
 10
-4.97500458E+01
 20
1.93457883E+02
 11
-4.97500458E+01
 21
1.98457883E+02
  0
LINE
  8
0
 62
4
 10
-4.97500458E+01
 20
1.71717181E+02
 11
-6.47500458E+01
 21
1.71717181E+02
  0
LINE
  8
0
 62
4
 10
-4.97500458E+01
 20
1.77531523E+02
 11
-6.47500458E+01
 21
1.77531523E+02
  0
LINE
  8
0
 62
4
 10
-3.47500458E+01
 20
1.84425178E+02
 11
-6.47500458E+01
 21
1.84425178E+02
  0
LINE
  8
0
 62
4
 10
-3.47500458E+01
 20
1.94568698E+02
 11
-6.47500458E+01
 21
1.94568698E+02
  0
LINE
  8
0
 62
4
 10
-6.06500458E+01
 20
1.97347068E+02
 11
-6.47500458E+01
 21
1.97347068E+02
  0
LINE
  8
0
 62
4
 10
-6.06500458E+01
 20
1.97173420E+02
 11
-6.47500458E+01
 21
1.97173420E+02
  0
LINE
  8
0
 62
4
 10
-3.47500458E+01
 20
1.96374639E+02
 11
-4.56000458E+01
 21
1.96374639E+02
  0
POLYLINE
  8
0
 62
4
 66
1
  0
VERTEX
  8
0
 62
4
 10
-6.32500458E+01
 20
1.69595859E+02
  0
VERTEX
  8
0
 62
4
 10
-6.32419944E+01
 20
1.69564728E+02
  0
VERTEX
  8
0
 62
4
 10
-6.32179050E+01
 20
1.69533847E+02
  0
VERTEX
  8
0
 62
4
 10
-6.31779715E+01
 20
1.69503465E+02
  0
VERTEX
  8
0
 62
4
 10
-6.31225155E+01
 20
1.69473828E+02
  0
VERTEX
  8
0
 62
4
 10
-6.30519835E+01
 20
1.69445173E+02
  0
VERTEX
  8
0
 62
4
 10
-6.29669434E+01
 20
1.69417731E+02
  0
VERTEX
  8
0
 62
4
 10
-6.28680798E+01
 20
1.69391723E+02
  0
VERTEX
  8
0
 62
4
 10
-6.27561887E+01
 20
1.69367359E+02
  0
VERTEX
  8
0
 62
4
 10
-6.26321711E+01
 20
1.69344835E+02
  0
VERTEX
  8
0
 62
4
 10
-6.24970254E+01
 20
1.69324332E+02
  0
VERTEX
  8
0
 62
4
 10
-6.23518398E+01
 20
1.69306015E+02
  0
VERTEX
  8
0
 62
4
 10
-6.21977831E+01
 20
1.69290031E+02
  0
VERTEX
  8
0
 62
4
 10
-6.20360959E+01
 20
1.69276510E+02
  0
VERTEX
  8
0
 62
4
 10
-6.18680798E+01
 20
1.69265561E+02
  0
VERTEX
  8
0
 62
4
 10
-6.16950877E+01
 20
1.69257270E+02
  0
VERTEX
  8
0
 62
4
 10
-6.15185123E+01
 20
1.69251706E+02
  0
VERTEX
  8
0
 62
4
 10
-6.13397755E+01
 20
1.69248912E+02
  0
VERTEX
  8
0
 62
4
 10
-6.11603162E+01
 20
1.69248912E+02
  0
VERTEX
  8
0
 62
4
 10
-6.09815793E+01
 20
1.69251706E+02
  0
VERTEX
  8
0
 62
4
 10
-6.08050039E+01
 20
1.69257270E+02
  0
VERTEX
  8
0
 62
4
 10
-6.06320118E+01
 20
1.69265561E+02
  0
VERTEX
  8
0
 62
4
 10
-6.04639957E+01
 20
1.69276510E+02
  0
VERTEX
  8
0
 62
4
 10
-6.03023085E+01
 20
1.69290031E+02
  0
VERTEX
  8
0
 62
4
 10
-6.01482518E+01
 20
1.69306015E+02
  0
VERTEX
  8
0
 62
4
 10
-6.00030662E+01
 20
1.69324332E+02
  0
VERTEX
  8
0
 62
4
 10
-5.98679205E+01
 20
1.69344835E+02
  0
VERTEX
  8
0
 62
4
 10
-5.97439029E+01
 20
1.69367359E+02
  0
VERTEX
  8
0
 62
4
 10
-5.96320118E+01
 20
1.69391723E+02
  0
VERTEX
  8
0
 62
4
 10
-5.95331482E+01
 20
1.69417731E+02
  0
VERTEX
  8
0
 62
4
 10
-5.94481081E+01
 20
1.69445173E+02
  0
VERTEX
  8
0
 62
4
 10
-5.93775761E+01
 20
1.69473828E+02
  0
VERTEX
  8
0
 62
4
 10
-5.93221201E+01
 20
1.69503465E+02
  0
VERTEX
  8
0
 62
4
 10
-5.92821866E+01
 20
1.69533847E+02
  0
VERTEX
  8
0
 62
4
 10
-5.92580972E+01
 20
1.69564728E+02
  0
VERTEX
  8
0
 62
4
 10
-5.92500458E+01
 20
1.69595859E+02
  0
SEQEND
  8
0
  0
LINE
  8
0
 62
6
 10
-5.17500458E+01
 20
1.69366144E+02
 11
-5.17500458E+01
 21
1.71717181E+02
  0
LINE
  8
0
 62
6
 10
-5.47500458E+01
 20
1.69366144E+02
 11
-5.47500458E+01
 21
1.71717181E+02
  0
LINE
  8
0
 62
4
 10
-5.12500458E+01
 20
1.69595859E+02
 11
-5.12500458E+01
 21
1.71717181E+02
  0
LINE
  8
0
 62
4
 10
-5.52500458E+01
 20
1.69595859E+02
 11
-5.52500458E+01
 21
1.71717181E+02
  0
POLYLINE
  8
0
 62
4
 66
1
  0
VERTEX
  8
0
 62
4
 10
-5.52500458E+01
 20
1.69595859E+02
  0
VERTEX
  8
0
 62
4
 10
-5.52419944E+01
 20
1.69564728E+02
  0
VERTEX
  8
0
 62
4
 10
-5.52179050E+01
 20
1.69533847E+02
  0
VERTEX
  8
0
 62
4
 10
-5.51779715E+01
 20
1.69503465E+02
  0
VERTEX
  8
0
 62
4
 10
-5.51225155E+01
 20
1.69473828E+02
  0
VERTEX
  8
0
 62
4
 10
-5.50519835E+01
 20
1.69445173E+02
  0
VERTEX
  8
0
 62
4
 10
-5.49669434E+01
 20
1.69417731E+02
  0
VERTEX
  8
0
 62
4
 10
-5.48680798E+01
 20
1.69391723E+02
  0
VERTEX
  8
0
 62
4
 10
-5.47561887E+01
 20
1.69367359E+02
  0
VERTEX
  8
0
 62
4
 10
-5.46321711E+01
 20
1.69344835E+02
  0
VERTEX
  8
0
 62
4
 10
-5.44970254E+01
 20
1.69324332E+02
  0
VERTEX
  8
0
 62
4
 10
-5.43518398E+01
 20
1.69306015E+02
  0
VERTEX
  8
0
 62
4
 10
-5.41977831E+01
 20
1.69290031E+02
  0
VERTEX
  8
0
 62
4
 10
-5.40360959E+01
 20
1.69276510E+02
  0
VERTEX
  8
0
 62
4
 10
-5.38680798E+01
 20
1.69265561E+02
  0
VERTEX
  8
0
 62
4
 10
-5.36950877E+01
 20
1.69257270E+02
  0
VERTEX
  8
0
 62
4
 10
-5.35185123E+01
 20
1.69251706E+02
  0
VERTEX
  8
0
 62
4
 10
-5.33397755E+01
 20
1.69248912E+02
  0
VERTEX
  8
0
 62
4
 10
-5.31603162E+01
 20
1.69248912E+02
  0
VERTEX
  8
0
 62
4
 10
-5.29815793E+01
 20
1.69251706E+02
  0
VERTEX
  8
0
 62
4
 10
-5.28050039E+01
 20
1.69257270E+02
  0
VERTEX
  8
0
 62
4
 10
-5.26320118E+01
 20
1.69265561E+02
  0
VERTEX
  8
0
 62
4
 10
-5.24639957E+01
 20
1.69276510E+02
  0
VERTEX
  8
0
 62
4
 10
-5.23023085E+01
 20
1.69290031E+02
  0
VERTEX
  8
0
 62
4
 10
-5.21482518E+01
 20
1.69306015E+02
  0
VERTEX
  8
0
 62
4
 10
-5.20030662E+01
 20
1.69324332E+02
  0
VERTEX
  8
0
 62
4
 10
-5.18679205E+01
 20
1.69344835E+02
  0
VERTEX
  8
0
 62
4
 10
-5.17439029E+01
 20
1.69367359E+02
  0
VERTEX
  8
0
 62
4
 10
-5.16320118E+01
 20
1.69391723E+02
  0
VERTEX
  8
0
 62
4
 10
-5.15331482E+01
 20
1.69417731E+02
  0
VERTEX
  8
0
 62
4
 10
-5.14481081E+01
 20
1.69445173E+02
  0
VERTEX
  8
0
 62
4
 10
-5.13775761E+01
 20
1.69473828E+02
  0
VERTEX
  8
0
 62
4
 10
-5.13221201E+01
 20
1.69503465E+02
  0
VERTEX
  8
0
 62
4
 10
-5.12821866E+01
 20
1.69533847E+02
  0
VERTEX
  8
0
 62
4
 10
-5.12580972E+01
 20
1.69564728E+02
  0
VERTEX
  8
0
 62
4
 10
-5.12500458E+01
 20
1.69595859E+02
  0
SEQEND
  8
0
  0
LINE
  8
0
 62
4
 10
-3.47500458E+01
 20
1.92719193E+02
 11
-3.32500458E+01
 21
1.93722126E+02
  0
LINE
  8
0
 62
4
 10
-3.32500458E+01
 20
1.93722126E+02
 11
-3.32500458E+01
 21
1.96346029E+02
  0
LINE
  8
0
 62
4
 10
-3.32500458E+01
 20
1.95952715E+02
 11
-3.47500458E+01
 21
1.96658424E+02
  0
LINE
  8
0
 62
4
 10
-3.32500458E+01
 20
1.96346029E+02
 11
-3.47500458E+01
 21
1.97353017E+02
  0
LINE
  8
0
 62
4
 10
-3.47500458E+01
 20
1.97353017E+02
 11
-4.56000458E+01
 21
1.97353017E+02
  0
LINE
  8
0
 62
4
 10
-3.47500458E+01
 20
1.96658424E+02
 11
-4.56000458E+01
 21
1.96658424E+02
  0
LINE
  8
0
 62
4
 10
-3.47500458E+01
 20
1.96374639E+02
 11
-3.47500458E+01
 21
1.97347068E+02
  0
POLYLINE
  8
0
 62
4
 66
1
  0
VERTEX
  8
0
 62
4
 10
-5.34500458E+01
 20
1.96005739E+02
  0
VERTEX
  8
0
 62
4
 10
-5.32682308E+01
 20
1.95949892E+02
  0
VERTEX
  8
0
 62
4
 10
-5.30585336E+01
 20
1.95897073E+02
  0
VERTEX
  8
0
 62
4
 10
-5.28226159E+01
 20
1.95847703E+02
  0
VERTEX
  8
0
 62
4
 10
-5.25623476E+01
 20
1.95802171E+02
  0
VERTEX
  8
0
 62
4
 10
-5.22797913E+01
 20
1.95760840E+02
  0
VERTEX
  8
0
 62
4
 10
-5.19771862E+01
 20
1.95724035E+02
  0
VERTEX
  8
0
 62
4
 10
-5.16569307E+01
 20
1.95692050E+02
  0
VERTEX
  8
0
 62
4
 10
-5.13215627E+01
 20
1.95665137E+02
  0
VERTEX
  8
0
 62
4
 10
-5.09737402E+01
 20
1.95643511E+02
  0
VERTEX
  8
0
 62
4
 10
-5.06162196E+01
 20
1.95627341E+02
  0
VERTEX
  8
0
 62
4
 10
-5.02518345E+01
 20
1.95616757E+02
  0
VERTEX
  8
0
 62
4
 10
-4.98834726E+01
 20
1.95611843E+02
  0
VERTEX
  8
0
 62
4
 10
-4.95140533E+01
 20
1.95612636E+02
  0
VERTEX
  8
0
 62
4
 10
-4.91465042E+01
 20
1.95619132E+02
  0
VERTEX
  8
0
 62
4
 10
-4.87837384E+01
 20
1.95631278E+02
  0
VERTEX
  8
0
 62
4
 10
-4.84286307E+01
 20
1.95648978E+02
  0
VERTEX
  8
0
 62
4
 10
-4.80839954E+01
 20
1.95672092E+02
  0
VERTEX
  8
0
 62
4
 10
-4.77525640E+01
 20
1.95700437E+02
  0
VERTEX
  8
0
 62
4
 10
-4.74369629E+01
 20
1.95733788E+02
  0
VERTEX
  8
0
 62
4
 10
-4.71396935E+01
 20
1.95771881E+02
  0
VERTEX
  8
0
 62
4
 10
-4.68631115E+01
 20
1.95814414E+02
  0
VERTEX
  8
0
 62
4
 10
-4.66094091E+01
 20
1.95861049E+02
  0
VERTEX
  8
0
 62
4
 10
-4.63805968E+01
 20
1.95911418E+02
  0
VERTEX
  8
0
 62
4
 10
-4.61784880E+01
 20
1.95965121E+02
  0
VERTEX
  8
0
 62
4
 10
-4.60046845E+01
 20
1.96021733E+02
  0
VERTEX
  8
0
 62
4
 10
-4.58605637E+01
 20
1.96080804E+02
  0
VERTEX
  8
0
 62
4
 10
-4.57472677E+01
 20
1.96141867E+02
  0
VERTEX
  8
0
 62
4
 10
-4.56656945E+01
 20
1.96204437E+02
  0
VERTEX
  8
0
 62
4
 10
-4.56164906E+01
 20
1.96268020E+02
  0
VERTEX
  8
0
 62
4
 10
-4.56000458E+01
 20
1.96332110E+02
  0
SEQEND
  8
0
  0
ARC
  8
0
 62
4
 10
-4.97577841E+01
 20
1.87175004E+02
 40
1.18100000E+01
 50
8.99624577E+01
 51
1.09675998E+02
  0
ARC
  8
0
 62
4
 10
-4.97423075E+01
 20
1.87175004E+02
 40
1.18100000E+01
 50
7.03240015E+01
 51
9.00375421E+01
  0
LINE
  8
0
 62
4
 10
-4.56000458E+01
 20
1.98060035E+02
 11
-4.56000458E+01
 21
1.96332110E+02
  0
LINE
  8
0
 62
4
 10
-5.39000458E+01
 20
1.98060035E+02
 11
-5.39000458E+01
 21
1.97920926E+02
  0
LINE
  8
0
 62
4
 10
-4.57500458E+01
 20
1.95957883E+02
 11
-4.57500458E+01
 21
1.96140113E+02
  0
POLYLINE
  8
0
 62
4
 66
1
  0
VERTEX
  8
0
 62
4
 10
-5.34500458E+01
 20
1.95693961E+02
  0
VERTEX
  8
0
 62
4
 10
-5.33007378E+01
 20
1.95638041E+02
  0
VERTEX
  8
0
 62
4
 10
-5.31234691E+01
 20
1.95584640E+02
  0
VERTEX
  8
0
 62
4
 10
-5.29196357E+01
 20
1.95534178E+02
  0
VERTEX
  8
0
 62
4
 10
-5.26908426E+01
 20
1.95487053E+02
  0
VERTEX
  8
0
 62
4
 10
-5.24388916E+01
 20
1.95443635E+02
  0
VERTEX
  8
0
 62
4
 10
-5.21657666E+01
 20
1.95404267E+02
  0
VERTEX
  8
0
 62
4
 10
-5.18736185E+01
 20
1.95369258E+02
  0
VERTEX
  8
0
 62
4
 10
-5.15647479E+01
 20
1.95338885E+02
  0
VERTEX
  8
0
 62
4
 10
-5.12415870E+01
 20
1.95313386E+02
  0
VERTEX
  8
0
 62
4
 10
-5.09066806E+01
 20
1.95292962E+02
  0
VERTEX
  8
0
 62
4
 10
-5.05626660E+01
 20
1.95277775E+02
  0
VERTEX
  8
0
 62
4
 10
-5.02122523E+01
 20
1.95267943E+02
  0
VERTEX
  8
0
 62
4
 10
-4.98581989E+01
 20
1.95263544E+02
  0
VERTEX
  8
0
 62
4
 10
-4.95032937E+01
 20
1.95264613E+02
  0
VERTEX
  8
0
 62
4
 10
-4.91503317E+01
 20
1.95271141E+02
  0
VERTEX
  8
0
 62
4
 10
-4.88020922E+01
 20
1.95283077E+02
  0
VERTEX
  8
0
 62
4
 10
-4.84613177E+01
 20
1.95300328E+02
  0
VERTEX
  8
0
 62
4
 10
-4.81306914E+01
 20
1.95322756E+02
  0
VERTEX
  8
0
 62
4
 10
-4.78128172E+01
 20
1.95350185E+02
  0
VERTEX
  8
0
 62
4
 10
-4.75101981E+01
 20
1.95382400E+02
  0
VERTEX
  8
0
 62
4
 10
-4.72252172E+01
 20
1.95419147E+02
  0
VERTEX
  8
0
 62
4
 10
-4.69601186E+01
 20
1.95460136E+02
  0
VERTEX
  8
0
 62
4
 10
-4.67169899E+01
 20
1.95505045E+02
  0
VERTEX
  8
0
 62
4
 10
-4.64977456E+01
 20
1.95553520E+02
  0
VERTEX
  8
0
 62
4
 10
-4.63041124E+01
 20
1.95605179E+02
  0
VERTEX
  8
0
 62
4
 10
-4.61376149E+01
 20
1.95659615E+02
  0
VERTEX
  8
0
 62
4
 10
-4.59995642E+01
 20
1.95716400E+02
  0
VERTEX
  8
0
 62
4
 10
-4.58910476E+01
 20
1.95775087E+02
  0
VERTEX
  8
0
 62
4
 10
-4.58129195E+01
 20
1.95835214E+02
  0
VERTEX
  8
0
 62
4
 10
-4.57657952E+01
 20
1.95896306E+02
  0
VERTEX
  8
0
 62
4
 10
-4.57500458E+01
 20
1.95957883E+02
  0
SEQEND
  8
0
  0
ARC
  8
0
 62
4
 10
-4.76314402E+01
 20
1.86473794E+02
 40
1.25124521E+01
 50
9.49416351E+01
 51
1.08095416E+02
  0
ARC
  8
0
 62
4
 10
-5.18686516E+01
 20
1.86473791E+02
 40
1.25124547E+01
 50
7.19045858E+01
 51
8.50583647E+01
  0
POLYLINE
  8
0
 62
4
 66
1
  0
VERTEX
  8
0
 62
4
 10
-5.39000458E+01
 20
1.98065372E+02
  0
VERTEX
  8
0
 62
4
 10
-5.38833391E+01
 20
1.98000774E+02
  0
VERTEX
  8
0
 62
4
 10
-5.38333536E+01
 20
1.97936697E+02
  0
VERTEX
  8
0
 62
4
 10
-5.37504917E+01
 20
1.97873655E+02
  0
VERTEX
  8
0
 62
4
 10
-5.36354205E+01
 20
1.97812157E+02
  0
VERTEX
  8
0
 62
4
 10
-5.34890666E+01
 20
1.97752698E+02
  0
VERTEX
  8
0
 62
4
 10
-5.33126083E+01
 20
1.97695756E+02
  0
VERTEX
  8
0
 62
4
 10
-5.31074663E+01
 20
1.97641790E+02
  0
VERTEX
  8
0
 62
4
 10
-5.28752924E+01
 20
1.97591235E+02
  0
VERTEX
  8
0
 62
4
 10
-5.26179558E+01
 20
1.97544497E+02
  0
VERTEX
  8
0
 62
4
 10
-5.23375285E+01
 20
1.97501953E+02
  0
VERTEX
  8
0
 62
4
 10
-5.20362683E+01
 20
1.97463945E+02
  0
VERTEX
  8
0
 62
4
 10
-5.17166008E+01
 20
1.97430780E+02
  0
VERTEX
  8
0
 62
4
 10
-5.13810997E+01
 20
1.97402724E+02
  0
VERTEX
  8
0
 62
4
 10
-5.10324663E+01
 20
1.97380003E+02
  0
VERTEX
  8
0
 62
4
 10
-5.06735077E+01
 20
1.97362800E+02
  0
VERTEX
  8
0
 62
4
 10
-5.03071139E+01
 20
1.97351254E+02
  0
VERTEX
  8
0
 62
4
 10
-4.99362349E+01
 20
1.97345458E+02
  0
VERTEX
  8
0
 62
4
 10
-4.95638568E+01
 20
1.97345458E+02
  0
VERTEX
  8
0
 62
4
 10
-4.91929778E+01
 20
1.97351254E+02
  0
VERTEX
  8
0
 62
4
 10
-4.88265839E+01
 20
1.97362800E+02
  0
VERTEX
  8
0
 62
4
 10
-4.84676253E+01
 20
1.97380003E+02
  0
VERTEX
  8
0
 62
4
 10
-4.81189919E+01
 20
1.97402724E+02
  0
VERTEX
  8
0
 62
4
 10
-4.77834909E+01
 20
1.97430780E+02
  0
VERTEX
  8
0
 62
4
 10
-4.74638233E+01
 20
1.97463945E+02
  0
VERTEX
  8
0
 62
4
 10
-4.71625631E+01
 20
1.97501953E+02
  0
VERTEX
  8
0
 62
4
 10
-4.68821358E+01
 20
1.97544497E+02
  0
VERTEX
  8
0
 62
4
 10
-4.66247992E+01
 20
1.97591235E+02
  0
VERTEX
  8
0
 62
4
 10
-4.63926253E+01
 20
1.97641790E+02
  0
VERTEX
  8
0
 62
4
 10
-4.61874833E+01
 20
1.97695756E+02
  0
VERTEX
  8
0
 62
4
 10
-4.60110250E+01
 20
1.97752698E+02
  0
VERTEX
  8
0
 62
4
 10
-4.58646711E+01
 20
1.97812157E+02
  0
VERTEX
  8
0
 62
4
 10
-4.57495999E+01
 20
1.97873655E+02
  0
VERTEX
  8
0
 62
4
 10
-4.56667380E+01
 20
1.97936697E+02
  0
VERTEX
  8
0
 62
4
 10
-4.56167525E+01
 20
1.98000774E+02
  0
VERTEX
  8
0
 62
4
 10
-4.56000458E+01
 20
1.98065372E+02
  0
SEQEND
  8
0
  0
ARC
  8
0
 62
4
 10
-4.58500458E+01
 20
1.98060035E+02
 40
2.50000000E-01
 50
0.00000000E+00
 51
7.03240015E+01
  0
ARC
  8
0
 62
4
 10
-5.36500458E+01
 20
1.98060035E+02
 40
2.50000000E-01
 50
1.09675998E+02
 51
1.80000000E+02
  0
LINE
  8
0
 62
4
 10
-5.34500458E+01
 20
1.96334922E+02
 11
-5.34500458E+01
 21
1.95350114E+02
  0
LINE
  8
0
 62
4
 10
-6.10500458E+01
 20
1.96334922E+02
 11
-6.10500458E+01
 21
1.95350114E+02
  0
POLYLINE
  8
0
 62
4
 66
1
  0
VERTEX
  8
0
 62
4
 10
-6.10500458E+01
 20
1.95350114E+02
  0
VERTEX
  8
0
 62
4
 10
-6.10347481E+01
 20
1.95290964E+02
  0
VERTEX
  8
0
 62
4
 10
-6.09889782E+01
 20
1.95232291E+02
  0
VERTEX
  8
0
 62
4
 10
-6.09131047E+01
 20
1.95174566E+02
  0
VERTEX
  8
0
 62
4
 10
-6.08077383E+01
 20
1.95118255E+02
  0
VERTEX
  8
0
 62
4
 10
-6.06737275E+01
 20
1.95063810E+02
  0
VERTEX
  8
0
 62
4
 10
-6.05121512E+01
 20
1.95011671E+02
  0
VERTEX
  8
0
 62
4
 10
-6.03243104E+01
 20
1.94962256E+02
  0
VERTEX
  8
0
 62
4
 10
-6.01117174E+01
 20
1.94915965E+02
  0
VERTEX
  8
0
 62
4
 10
-5.98760839E+01
 20
1.94873168E+02
  0
VERTEX
  8
0
 62
4
 10
-5.96193071E+01
 20
1.94834212E+02
  0
VERTEX
  8
0
 62
4
 10
-5.93434543E+01
 20
1.94799410E+02
  0
VERTEX
  8
0
 62
4
 10
-5.90507467E+01
 20
1.94769042E+02
  0
VERTEX
  8
0
 62
4
 10
-5.87435409E+01
 20
1.94743352E+02
  0
VERTEX
  8
0
 62
4
 10
-5.84243104E+01
 20
1.94722547E+02
  0
VERTEX
  8
0
 62
4
 10
-5.80956254E+01
 20
1.94706795E+02
  0
VERTEX
  8
0
 62
4
 10
-5.77601322E+01
 20
1.94696223E+02
  0
VERTEX
  8
0
 62
4
 10
-5.74205322E+01
 20
1.94690915E+02
  0
VERTEX
  8
0
 62
4
 10
-5.70795595E+01
 20
1.94690915E+02
  0
VERTEX
  8
0
 62
4
 10
-5.67399594E+01
 20
1.94696223E+02
  0
VERTEX
  8
0
 62
4
 10
-5.64044663E+01
 20
1.94706795E+02
  0
VERTEX
  8
0
 62
4
 10
-5.60757812E+01
 20
1.94722547E+02
  0
VERTEX
  8
0
 62
4
 10
-5.57565507E+01
 20
1.94743352E+02
  0
VERTEX
  8
0
 62
4
 10
-5.54493449E+01
 20
1.94769042E+02
  0
VERTEX
  8
0
 62
4
 10
-5.51566373E+01
 20
1.94799410E+02
  0
VERTEX
  8
0
 62
4
 10
-5.48807846E+01
 20
1.94834212E+02
  0
VERTEX
  8
0
 62
4
 10
-5.46240078E+01
 20
1.94873168E+02
  0
VERTEX
  8
0
 62
4
 10
-5.43883742E+01
 20
1.94915965E+02
  0
VERTEX
  8
0
 62
4
 10
-5.41757812E+01
 20
1.94962256E+02
  0
VERTEX
  8
0
 62
4
 10
-5.39879404E+01
 20
1.95011671E+02
  0
VERTEX
  8
0
 62
4
 10
-5.38263641E+01
 20
1.95063810E+02
  0
VERTEX
  8
0
 62
4
 10
-5.36923533E+01
 20
1.95118255E+02
  0
VERTEX
  8
0
 62
4
 10
-5.35869869E+01
 20
1.95174566E+02
  0
VERTEX
  8
0
 62
4
 10
-5.35111134E+01
 20
1.95232291E+02
  0
VERTEX
  8
0
 62
4
 10
-5.34653435E+01
 20
1.95290964E+02
  0
VERTEX
  8
0
 62
4
 10
-5.34500458E+01
 20
1.95350114E+02
  0
SEQEND
  8
0
  0
POLYLINE
  8
0
 62
4
 66
1
  0
VERTEX
  8
0
 62
4
 10
-6.06500458E+01
 20
1.96629613E+02
  0
VERTEX
  8
0
 62
4
 10
-6.07866275E+01
 20
1.96576324E+02
  0
VERTEX
  8
0
 62
4
 10
-6.08955753E+01
 20
1.96521148E+02
  0
VERTEX
  8
0
 62
4
 10
-6.09760381E+01
 20
1.96464518E+02
  0
VERTEX
  8
0
 62
4
 10
-6.10273871E+01
 20
1.96406875E+02
  0
VERTEX
  8
0
 62
4
 10
-6.10492211E+01
 20
1.96348669E+02
  0
VERTEX
  8
0
 62
4
 10
-6.10413694E+01
 20
1.96290356E+02
  0
VERTEX
  8
0
 62
4
 10
-6.10038934E+01
 20
1.96232392E+02
  0
VERTEX
  8
0
 62
4
 10
-6.09370860E+01
 20
1.96175229E+02
  0
VERTEX
  8
0
 62
4
 10
-6.08414692E+01
 20
1.96119313E+02
  0
VERTEX
  8
0
 62
4
 10
-6.07177900E+01
 20
1.96065082E+02
  0
VERTEX
  8
0
 62
4
 10
-6.05670149E+01
 20
1.96012960E+02
  0
VERTEX
  8
0
 62
4
 10
-6.03903220E+01
 20
1.95963353E+02
  0
VERTEX
  8
0
 62
4
 10
-6.01890920E+01
 20
1.95916649E+02
  0
VERTEX
  8
0
 62
4
 10
-5.99648970E+01
 20
1.95873214E+02
  0
VERTEX
  8
0
 62
4
 10
-5.97194891E+01
 20
1.95833387E+02
  0
VERTEX
  8
0
 62
4
 10
-5.94547856E+01
 20
1.95797478E+02
  0
VERTEX
  8
0
 62
4
 10
-5.91728550E+01
 20
1.95765769E+02
  0
VERTEX
  8
0
 62
4
 10
-5.88759001E+01
 20
1.95738507E+02
  0
VERTEX
  8
0
 62
4
 10
-5.85662412E+01
 20
1.95715905E+02
  0
VERTEX
  8
0
 62
4
 10
-5.82462980E+01
 20
1.95698140E+02
  0
VERTEX
  8
0
 62
4
 10
-5.79185704E+01
 20
1.95685351E+02
  0
VERTEX
  8
0
 62
4
 10
-5.75856191E+01
 20
1.95677637E+02
  0
VERTEX
  8
0
 62
4
 10
-5.72500458E+01
 20
1.95675059E+02
  0
VERTEX
  8
0
 62
4
 10
-5.69144724E+01
 20
1.95677637E+02
  0
VERTEX
  8
0
 62
4
 10
-5.65815212E+01
 20
1.95685351E+02
  0
VERTEX
  8
0
 62
4
 10
-5.62537935E+01
 20
1.95698140E+02
  0
VERTEX
  8
0
 62
4
 10
-5.59338503E+01
 20
1.95715905E+02
  0
VERTEX
  8
0
 62
4
 10
-5.56241915E+01
 20
1.95738507E+02
  0
VERTEX
  8
0
 62
4
 10
-5.53272366E+01
 20
1.95765769E+02
  0
VERTEX
  8
0
 62
4
 10
-5.50453059E+01
 20
1.95797478E+02
  0
VERTEX
  8
0
 62
4
 10
-5.47806025E+01
 20
1.95833387E+02
  0
VERTEX
  8
0
 62
4
 10
-5.45351945E+01
 20
1.95873214E+02
  0
VERTEX
  8
0
 62
4
 10
-5.43109996E+01
 20
1.95916649E+02
  0
VERTEX
  8
0
 62
4
 10
-5.41097695E+01
 20
1.95963353E+02
  0
VERTEX
  8
0
 62
4
 10
-5.39330766E+01
 20
1.96012960E+02
  0
VERTEX
  8
0
 62
4
 10
-5.37823016E+01
 20
1.96065082E+02
  0
VERTEX
  8
0
 62
4
 10
-5.36586224E+01
 20
1.96119313E+02
  0
VERTEX
  8
0
 62
4
 10
-5.35630056E+01
 20
1.96175229E+02
  0
VERTEX
  8
0
 62
4
 10
-5.34961982E+01
 20
1.96232392E+02
  0
VERTEX
  8
0
 62
4
 10
-5.34587222E+01
 20
1.96290356E+02
  0
VERTEX
  8
0
 62
4
 10
-5.34508706E+01
 20
1.96348669E+02
  0
VERTEX
  8
0
 62
4
 10
-5.34727045E+01
 20
1.96406875E+02
  0
VERTEX
  8
0
 62
4
 10
-5.35240535E+01
 20
1.96464518E+02
  0
VERTEX
  8
0
 62
4
 10
-5.36045163E+01
 20
1.96521148E+02
  0
VERTEX
  8
0
 62
4
 10
-5.37134641E+01
 20
1.96576324E+02
  0
VERTEX
  8
0
 62
4
 10
-5.38500458E+01
 20
1.96629613E+02
  0
SEQEND
  8
0
  0
LINE
  8
0
 62
4
 10
-5.38500458E+01
 20
1.97608675E+02
 11
-5.38500458E+01
 21
1.96334922E+02
  0
LINE
  8
0
 62
4
 10
-6.06500458E+01
 20
1.97608675E+02
 11
-6.06500458E+01
 21
1.96334922E+02
  0
POLYLINE
  8
0
 62
4
 66
1
  0
VERTEX
  8
0
 62
4
 10
-6.06500458E+01
 20
1.96334922E+02
  0
VERTEX
  8
0
 62
4
 10
-6.06363584E+01
 20
1.96281999E+02
  0
VERTEX
  8
0
 62
4
 10
-6.05954064E+01
 20
1.96229501E+02
  0
VERTEX
  8
0
 62
4
 10
-6.05275195E+01
 20
1.96177853E+02
  0
VERTEX
  8
0
 62
4
 10
-6.04332444E+01
 20
1.96127469E+02
  0
VERTEX
  8
0
 62
4
 10
-6.03133400E+01
 20
1.96078755E+02
  0
VERTEX
  8
0
 62
4
 10
-6.01687717E+01
 20
1.96032104E+02
  0
VERTEX
  8
0
 62
4
 10
-6.00007036E+01
 20
1.95987891E+02
  0
VERTEX
  8
0
 62
4
 10
-5.98104888E+01
 20
1.95946472E+02
  0
VERTEX
  8
0
 62
4
 10
-5.95996588E+01
 20
1.95908181E+02
  0
VERTEX
  8
0
 62
4
 10
-5.93699111E+01
 20
1.95873326E+02
  0
VERTEX
  8
0
 62
4
 10
-5.91230956E+01
 20
1.95842187E+02
  0
VERTEX
  8
0
 62
4
 10
-5.88611993E+01
 20
1.95815015E+02
  0
VERTEX
  8
0
 62
4
 10
-5.85863309E+01
 20
1.95792029E+02
  0
VERTEX
  8
0
 62
4
 10
-5.83007036E+01
 20
1.95773415E+02
  0
VERTEX
  8
0
 62
4
 10
-5.80066170E+01
 20
1.95759321E+02
  0
VERTEX
  8
0
 62
4
 10
-5.77064389E+01
 20
1.95749861E+02
  0
VERTEX
  8
0
 62
4
 10
-5.74025862E+01
 20
1.95745113E+02
  0
VERTEX
  8
0
 62
4
 10
-5.70975054E+01
 20
1.95745113E+02
  0
VERTEX
  8
0
 62
4
 10
-5.67936527E+01
 20
1.95749861E+02
  0
VERTEX
  8
0
 62
4
 10
-5.64934746E+01
 20
1.95759321E+02
  0
VERTEX
  8
0
 62
4
 10
-5.61993880E+01
 20
1.95773415E+02
  0
VERTEX
  8
0
 62
4
 10
-5.59137607E+01
 20
1.95792029E+02
  0
VERTEX
  8
0
 62
4
 10
-5.56388924E+01
 20
1.95815015E+02
  0
VERTEX
  8
0
 62
4
 10
-5.53769961E+01
 20
1.95842187E+02
  0
VERTEX
  8
0
 62
4
 10
-5.51301805E+01
 20
1.95873326E+02
  0
VERTEX
  8
0
 62
4
 10
-5.49004328E+01
 20
1.95908181E+02
  0
VERTEX
  8
0
 62
4
 10
-5.46896028E+01
 20
1.95946472E+02
  0
VERTEX
  8
0
 62
4
 10
-5.44993880E+01
 20
1.95987891E+02
  0
VERTEX
  8
0
 62
4
 10
-5.43313199E+01
 20
1.96032104E+02
  0
VERTEX
  8
0
 62
4
 10
-5.41867517E+01
 20
1.96078755E+02
  0
VERTEX
  8
0
 62
4
 10
-5.40668472E+01
 20
1.96127469E+02
  0
VERTEX
  8
0
 62
4
 10
-5.39725721E+01
 20
1.96177853E+02
  0
VERTEX
  8
0
 62
4
 10
-5.39046852E+01
 20
1.96229501E+02
  0
VERTEX
  8
0
 62
4
 10
-5.38637332E+01
 20
1.96281999E+02
  0
VERTEX
  8
0
 62
4
 10
-5.38500458E+01
 20
1.96334922E+02
  0
SEQEND
  8
0
  0
ARC
  8
0
 62
4
 10
-5.72500458E+01
 20
1.87068461E+02
 40
1.18100000E+01
 50
7.71724899E+01
 51
1.02827510E+02
  0
ARC
  8
0
 62
4
 10
-5.96500461E+01
 20
1.97608675E+02
 40
1.00000000E+00
 50
1.02827510E+02
 51
1.80000000E+02
  0
ARC
  8
0
 62
4
 10
-5.48500455E+01
 20
1.97608675E+02
 40
1.00000000E+00
 50
3.60000000E+02
 51
7.71724899E+01
  0
ARC
  8
0
 62
4
 10
-5.51282922E+01
 20
1.86349318E+02
 40
1.25306621E+01
 50
9.49686598E+01
 51
1.08083352E+02
  0
ARC
  8
0
 62
4
 10
-5.93717994E+01
 20
1.86349317E+02
 40
1.25306626E+01
 50
7.19166483E+01
 51
8.50313400E+01
  0
LINE
  8
0
  6
CENTER
 62
6
 10
-4.72500458E+01
 20
1.95957883E+02
 11
-5.22500458E+01
 21
1.95957883E+02
  0
LINE
  8
0
  6
CENTER
 62
6
 10
-5.72500458E+01
 20
1.92850114E+02
 11
-5.72500458E+01
 21
1.97850114E+02
  0
LINE
  8
0
  6
CENTER
 62
6
 10
-5.47500458E+01
 20
1.95350114E+02
 11
-5.97500458E+01
 21
1.95350114E+02
  0
LINE
  8
0
  6
CENTER
 62
6
 10
-4.22500458E+01
 20
1.92850114E+02
 11
-4.22500458E+01
 21
1.97850114E+02
  0
LINE
  8
0
  6
CENTER
 62
6
 10
-3.97500458E+01
 20
1.95350114E+02
 11
-4.47500458E+01
 21
1.95350114E+02
  0
LINE
  8
0
 62
4
 10
-6.10431564E+01
 20
1.96374639E+02
 11
-6.47500458E+01
 21
1.96374639E+02
  0
LINE
  8
0
 62
6
 10
-9.87499542E+01
 20
2.27372785E+02
 11
-9.87499542E+01
 21
2.25021748E+02
  0
LINE
  8
0
 62
6
 10
-9.57499542E+01
 20
2.27372785E+02
 11
-9.57499542E+01
 21
2.25021748E+02
  0
LINE
  8
0
 62
4
 10
-9.92499542E+01
 20
2.27143070E+02
 11
-9.92499542E+01
 21
2.25021748E+02
  0
LINE
  8
0
 62
4
 10
-9.52499542E+01
 20
2.27143070E+02
 11
-9.52499542E+01
 21
2.25021748E+02
  0
LINE
  8
0
 62
4
 10
-1.08749954E+02
 20
2.25021748E+02
 11
-1.08749954E+02
 21
2.12313752E+02
  0
LINE
  8
0
 62
4
 10
-9.37499542E+01
 20
2.25021748E+02
 11
-9.37499542E+01
 21
1.99391861E+02
  0
LINE
  8
0
 62
4
 10
-1.23749954E+02
 20
2.12313752E+02
 11
-1.23749954E+02
 21
2.00364291E+02
  0
LINE
  8
0
  6
CENTER
 62
6
 10
-9.72499542E+01
 20
2.30485044E+02
 11
-9.72499542E+01
 21
2.20219465E+02
  0
LINE
  8
0
  6
CENTER
 62
6
 10
-1.05249954E+02
 20
2.30485044E+02
 11
-1.05249954E+02
 21
2.20219465E+02
  0
LINE
  8
0
  6
CENTER
 62
6
 10
-1.08749954E+02
 20
2.03281046E+02
 11
-1.08749954E+02
 21
1.98281046E+02
  0
LINE
  8
0
 62
4
 10
-1.08749954E+02
 20
2.25021748E+02
 11
-9.37499542E+01
 21
2.25021748E+02
  0
LINE
  8
0
 62
4
 10
-1.08749954E+02
 20
2.19207406E+02
 11
-9.37499542E+01
 21
2.19207406E+02
  0
LINE
  8
0
 62
4
 10
-1.23749954E+02
 20
2.12313752E+02
 11
-9.37499542E+01
 21
2.12313752E+02
  0
LINE
  8
0
 62
4
 10
-1.23749954E+02
 20
2.02170232E+02
 11
-9.37499542E+01
 21
2.02170232E+02
  0
LINE
  8
0
 62
4
 10
-9.78499542E+01
 20
1.99391861E+02
 11
-9.37499542E+01
 21
1.99391861E+02
  0
LINE
  8
0
 62
4
 10
-9.78499542E+01
 20
1.99565509E+02
 11
-9.37499542E+01
 21
1.99565509E+02
  0
LINE
  8
0
 62
4
 10
-1.23749954E+02
 20
2.00364291E+02
 11
-1.12899954E+02
 21
2.00364291E+02
  0
POLYLINE
  8
0
 62
4
 66
1
  0
VERTEX
  8
0
 62
4
 10
-9.52499542E+01
 20
2.27143070E+02
  0
VERTEX
  8
0
 62
4
 10
-9.52580056E+01
 20
2.27174201E+02
  0
VERTEX
  8
0
 62
4
 10
-9.52820950E+01
 20
2.27205082E+02
  0
VERTEX
  8
0
 62
4
 10
-9.53220285E+01
 20
2.27235464E+02
  0
VERTEX
  8
0
 62
4
 10
-9.53774845E+01
 20
2.27265101E+02
  0
VERTEX
  8
0
 62
4
 10
-9.54480165E+01
 20
2.27293756E+02
  0
VERTEX
  8
0
 62
4
 10
-9.55330566E+01
 20
2.27321198E+02
  0
VERTEX
  8
0
 62
4
 10
-9.56319202E+01
 20
2.27347206E+02
  0
VERTEX
  8
0
 62
4
 10
-9.57438113E+01
 20
2.27371570E+02
  0
VERTEX
  8
0
 62
4
 10
-9.58678289E+01
 20
2.27394094E+02
  0
VERTEX
  8
0
 62
4
 10
-9.60029746E+01
 20
2.27414597E+02
  0
VERTEX
  8
0
 62
4
 10
-9.61481602E+01
 20
2.27432914E+02
  0
VERTEX
  8
0
 62
4
 10
-9.63022169E+01
 20
2.27448898E+02
  0
VERTEX
  8
0
 62
4
 10
-9.64639041E+01
 20
2.27462419E+02
  0
VERTEX
  8
0
 62
4
 10
-9.66319202E+01
 20
2.27473368E+02
  0
VERTEX
  8
0
 62
4
 10
-9.68049123E+01
 20
2.27481659E+02
  0
VERTEX
  8
0
 62
4
 10
-9.69814877E+01
 20
2.27487223E+02
  0
VERTEX
  8
0
 62
4
 10
-9.71602245E+01
 20
2.27490017E+02
  0
VERTEX
  8
0
 62
4
 10
-9.73396838E+01
 20
2.27490017E+02
  0
VERTEX
  8
0
 62
4
 10
-9.75184207E+01
 20
2.27487223E+02
  0
VERTEX
  8
0
 62
4
 10
-9.76949961E+01
 20
2.27481659E+02
  0
VERTEX
  8
0
 62
4
 10
-9.78679882E+01
 20
2.27473368E+02
  0
VERTEX
  8
0
 62
4
 10
-9.80360043E+01
 20
2.27462419E+02
  0
VERTEX
  8
0
 62
4
 10
-9.81976915E+01
 20
2.27448898E+02
  0
VERTEX
  8
0
 62
4
 10
-9.83517482E+01
 20
2.27432914E+02
  0
VERTEX
  8
0
 62
4
 10
-9.84969338E+01
 20
2.27414597E+02
  0
VERTEX
  8
0
 62
4
 10
-9.86320795E+01
 20
2.27394094E+02
  0
VERTEX
  8
0
 62
4
 10
-9.87560971E+01
 20
2.27371570E+02
  0
VERTEX
  8
0
 62
4
 10
-9.88679882E+01
 20
2.27347206E+02
  0
VERTEX
  8
0
 62
4
 10
-9.89668518E+01
 20
2.27321198E+02
  0
VERTEX
  8
0
 62
4
 10
-9.90518919E+01
 20
2.27293756E+02
  0
VERTEX
  8
0
 62
4
 10
-9.91224239E+01
 20
2.27265101E+02
  0
VERTEX
  8
0
 62
4
 10
-9.91778799E+01
 20
2.27235464E+02
  0
VERTEX
  8
0
 62
4
 10
-9.92178134E+01
 20
2.27205082E+02
  0
VERTEX
  8
0
 62
4
 10
-9.92419028E+01
 20
2.27174201E+02
  0
VERTEX
  8
0
 62
4
 10
-9.92499542E+01
 20
2.27143070E+02
  0
SEQEND
  8
0
  0
LINE
  8
0
 62
6
 10
-1.06749954E+02
 20
2.27372785E+02
 11
-1.06749954E+02
 21
2.25021748E+02
  0
LINE
  8
0
 62
6
 10
-1.03749954E+02
 20
2.27372785E+02
 11
-1.03749954E+02
 21
2.25021748E+02
  0
LINE
  8
0
 62
4
 10
-1.07249954E+02
 20
2.27143070E+02
 11
-1.07249954E+02
 21
2.25021748E+02
  0
LINE
  8
0
 62
4
 10
-1.03249954E+02
 20
2.27143070E+02
 11
-1.03249954E+02
 21
2.25021748E+02
  0
POLYLINE
  8
0
 62
4
 66
1
  0
VERTEX
  8
0
 62
4
 10
-1.03249954E+02
 20
2.27143070E+02
  0
VERTEX
  8
0
 62
4
 10
-1.03258005E+02
 20
2.27174201E+02
  0
VERTEX
  8
0
 62
4
 10
-1.03282095E+02
 20
2.27205082E+02
  0
VERTEX
  8
0
 62
4
 10
-1.03322028E+02
 20
2.27235464E+02
  0
VERTEX
  8
0
 62
4
 10
-1.03377484E+02
 20
2.27265101E+02
  0
VERTEX
  8
0
 62
4
 10
-1.03448016E+02
 20
2.27293756E+02
  0
VERTEX
  8
0
 62
4
 10
-1.03533056E+02
 20
2.27321198E+02
  0
VERTEX
  8
0
 62
4
 10
-1.03631920E+02
 20
2.27347206E+02
  0
VERTEX
  8
0
 62
4
 10
-1.03743811E+02
 20
2.27371570E+02
  0
VERTEX
  8
0
 62
4
 10
-1.03867829E+02
 20
2.27394094E+02
  0
VERTEX
  8
0
 62
4
 10
-1.04002974E+02
 20
2.27414597E+02
  0
VERTEX
  8
0
 62
4
 10
-1.04148160E+02
 20
2.27432914E+02
  0
VERTEX
  8
0
 62
4
 10
-1.04302217E+02
 20
2.27448898E+02
  0
VERTEX
  8
0
 62
4
 10
-1.04463904E+02
 20
2.27462419E+02
  0
VERTEX
  8
0
 62
4
 10
-1.04631920E+02
 20
2.27473368E+02
  0
VERTEX
  8
0
 62
4
 10
-1.04804912E+02
 20
2.27481659E+02
  0
VERTEX
  8
0
 62
4
 10
-1.04981487E+02
 20
2.27487223E+02
  0
VERTEX
  8
0
 62
4
 10
-1.05160224E+02
 20
2.27490017E+02
  0
VERTEX
  8
0
 62
4
 10
-1.05339684E+02
 20
2.27490017E+02
  0
VERTEX
  8
0
 62
4
 10
-1.05518421E+02
 20
2.27487223E+02
  0
VERTEX
  8
0
 62
4
 10
-1.05694996E+02
 20
2.27481659E+02
  0
VERTEX
  8
0
 62
4
 10
-1.05867988E+02
 20
2.27473368E+02
  0
VERTEX
  8
0
 62
4
 10
-1.06036004E+02
 20
2.27462419E+02
  0
VERTEX
  8
0
 62
4
 10
-1.06197691E+02
 20
2.27448898E+02
  0
VERTEX
  8
0
 62
4
 10
-1.06351748E+02
 20
2.27432914E+02
  0
VERTEX
  8
0
 62
4
 10
-1.06496934E+02
 20
2.27414597E+02
  0
VERTEX
  8
0
 62
4
 10
-1.06632079E+02
 20
2.27394094E+02
  0
VERTEX
  8
0
 62
4
 10
-1.06756097E+02
 20
2.27371570E+02
  0
VERTEX
  8
0
 62
4
 10
-1.06867988E+02
 20
2.27347206E+02
  0
VERTEX
  8
0
 62
4
 10
-1.06966852E+02
 20
2.27321198E+02
  0
VERTEX
  8
0
 62
4
 10
-1.07051892E+02
 20
2.27293756E+02
  0
VERTEX
  8
0
 62
4
 10
-1.07122424E+02
 20
2.27265101E+02
  0
VERTEX
  8
0
 62
4
 10
-1.07177880E+02
 20
2.27235464E+02
  0
VERTEX
  8
0
 62
4
 10
-1.07217813E+02
 20
2.27205082E+02
  0
VERTEX
  8
0
 62
4
 10
-1.07241903E+02
 20
2.27174201E+02
  0
VERTEX
  8
0
 62
4
 10
-1.07249954E+02
 20
2.27143070E+02
  0
SEQEND
  8
0
  0
LINE
  8
0
 62
4
 10
-1.23749954E+02
 20
2.04019736E+02
 11
-1.25249954E+02
 21
2.03016803E+02
  0
LINE
  8
0
 62
4
 10
-1.25249954E+02
 20
2.03016803E+02
 11
-1.25249954E+02
 21
2.00392901E+02
  0
LINE
  8
0
 62
4
 10
-1.25249954E+02
 20
2.00786214E+02
 11
-1.23749954E+02
 21
2.00080505E+02
  0
LINE
  8
0
 62
4
 10
-1.25249954E+02
 20
2.00392901E+02
 11
-1.23749954E+02
 21
1.99385912E+02
  0
LINE
  8
0
 62
4
 10
-1.23749954E+02
 20
1.99385912E+02
 11
-1.12899954E+02
 21
1.99385912E+02
  0
LINE
  8
0
 62
4
 10
-1.23749954E+02
 20
2.00080505E+02
 11
-1.12899954E+02
 21
2.00080505E+02
  0
LINE
  8
0
 62
4
 10
-1.23749954E+02
 20
2.00364291E+02
 11
-1.23749954E+02
 21
1.99391861E+02
  0
POLYLINE
  8
0
 62
4
 66
1
  0
VERTEX
  8
0
 62
4
 10
-1.05049954E+02
 20
2.00733190E+02
  0
VERTEX
  8
0
 62
4
 10
-1.05231769E+02
 20
2.00789037E+02
  0
VERTEX
  8
0
 62
4
 10
-1.05441466E+02
 20
2.00841856E+02
  0
VERTEX
  8
0
 62
4
 10
-1.05677384E+02
 20
2.00891226E+02
  0
VERTEX
  8
0
 62
4
 10
-1.05937652E+02
 20
2.00936758E+02
  0
VERTEX
  8
0
 62
4
 10
-1.06220209E+02
 20
2.00978089E+02
  0
VERTEX
  8
0
 62
4
 10
-1.06522814E+02
 20
2.01014894E+02
  0
VERTEX
  8
0
 62
4
 10
-1.06843069E+02
 20
2.01046879E+02
  0
VERTEX
  8
0
 62
4
 10
-1.07178437E+02
 20
2.01073792E+02
  0
VERTEX
  8
0
 62
4
 10
-1.07526260E+02
 20
2.01095418E+02
  0
VERTEX
  8
0
 62
4
 10
-1.07883780E+02
 20
2.01111588E+02
  0
VERTEX
  8
0
 62
4
 10
-1.08248165E+02
 20
2.01122172E+02
  0
VERTEX
  8
0
 62
4
 10
-1.08616527E+02
 20
2.01127086E+02
  0
VERTEX
  8
0
 62
4
 10
-1.08985947E+02
 20
2.01126293E+02
  0
VERTEX
  8
0
 62
4
 10
-1.09353496E+02
 20
2.01119797E+02
  0
VERTEX
  8
0
 62
4
 10
-1.09716261E+02
 20
2.01107651E+02
  0
VERTEX
  8
0
 62
4
 10
-1.10071369E+02
 20
2.01089951E+02
  0
VERTEX
  8
0
 62
4
 10
-1.10416004E+02
 20
2.01066837E+02
  0
VERTEX
  8
0
 62
4
 10
-1.10747436E+02
 20
2.01038492E+02
  0
VERTEX
  8
0
 62
4
 10
-1.11063037E+02
 20
2.01005141E+02
  0
VERTEX
  8
0
 62
4
 10
-1.11360306E+02
 20
2.00967048E+02
  0
VERTEX
  8
0
 62
4
 10
-1.11636888E+02
 20
2.00924515E+02
  0
VERTEX
  8
0
 62
4
 10
-1.11890591E+02
 20
2.00877880E+02
  0
VERTEX
  8
0
 62
4
 10
-1.12119403E+02
 20
2.00827511E+02
  0
VERTEX
  8
0
 62
4
 10
-1.12321512E+02
 20
2.00773808E+02
  0
VERTEX
  8
0
 62
4
 10
-1.12495315E+02
 20
2.00717196E+02
  0
VERTEX
  8
0
 62
4
 10
-1.12639436E+02
 20
2.00658125E+02
  0
VERTEX
  8
0
 62
4
 10
-1.12752732E+02
 20
2.00597062E+02
  0
VERTEX
  8
0
 62
4
 10
-1.12834305E+02
 20
2.00534492E+02
  0
VERTEX
  8
0
 62
4
 10
-1.12883509E+02
 20
2.00470909E+02
  0
VERTEX
  8
0
 62
4
 10
-1.12899954E+02
 20
2.00406819E+02
  0
SEQEND
  8
0
  0
ARC
  8
0
 62
4
 10
-1.08742216E+02
 20
2.09563926E+02
 40
1.18100000E+01
 50
2.69962458E+02
 51
2.89675999E+02
  0
ARC
  8
0
 62
4
 10
-1.08757693E+02
 20
2.09563926E+02
 40
1.18100000E+01
 50
2.50324001E+02
 51
2.70037542E+02
  0
LINE
  8
0
 62
4
 10
-1.12899954E+02
 20
1.98678895E+02
 11
-1.12899954E+02
 21
2.00406819E+02
  0
LINE
  8
0
 62
4
 10
-1.04599954E+02
 20
1.98678895E+02
 11
-1.04599954E+02
 21
1.98818004E+02
  0
LINE
  8
0
 62
4
 10
-1.12749954E+02
 20
2.00781046E+02
 11
-1.12749954E+02
 21
2.00598816E+02
  0
POLYLINE
  8
0
 62
4
 66
1
  0
VERTEX
  8
0
 62
4
 10
-1.05049954E+02
 20
2.01044968E+02
  0
VERTEX
  8
0
 62
4
 10
-1.05199262E+02
 20
2.01100888E+02
  0
VERTEX
  8
0
 62
4
 10
-1.05376531E+02
 20
2.01154289E+02
  0
VERTEX
  8
0
 62
4
 10
-1.05580364E+02
 20
2.01204751E+02
  0
VERTEX
  8
0
 62
4
 10
-1.05809157E+02
 20
2.01251876E+02
  0
VERTEX
  8
0
 62
4
 10
-1.06061108E+02
 20
2.01295294E+02
  0
VERTEX
  8
0
 62
4
 10
-1.06334233E+02
 20
2.01334662E+02
  0
VERTEX
  8
0
 62
4
 10
-1.06626381E+02
 20
2.01369671E+02
  0
VERTEX
  8
0
 62
4
 10
-1.06935252E+02
 20
2.01400044E+02
  0
VERTEX
  8
0
 62
4
 10
-1.07258413E+02
 20
2.01425543E+02
  0
VERTEX
  8
0
 62
4
 10
-1.07593319E+02
 20
2.01445967E+02
  0
VERTEX
  8
0
 62
4
 10
-1.07937334E+02
 20
2.01461154E+02
  0
VERTEX
  8
0
 62
4
 10
-1.08287747E+02
 20
2.01470986E+02
  0
VERTEX
  8
0
 62
4
 10
-1.08641801E+02
 20
2.01475385E+02
  0
VERTEX
  8
0
 62
4
 10
-1.08996706E+02
 20
2.01474316E+02
  0
VERTEX
  8
0
 62
4
 10
-1.09349668E+02
 20
2.01467788E+02
  0
VERTEX
  8
0
 62
4
 10
-1.09697908E+02
 20
2.01455852E+02
  0
VERTEX
  8
0
 62
4
 10
-1.10038682E+02
 20
2.01438601E+02
  0
VERTEX
  8
0
 62
4
 10
-1.10369308E+02
 20
2.01416173E+02
  0
VERTEX
  8
0
 62
4
 10
-1.10687183E+02
 20
2.01388744E+02
  0
VERTEX
  8
0
 62
4
 10
-1.10989802E+02
 20
2.01356529E+02
  0
VERTEX
  8
0
 62
4
 10
-1.11274783E+02
 20
2.01319782E+02
  0
VERTEX
  8
0
 62
4
 10
-1.11539881E+02
 20
2.01278793E+02
  0
VERTEX
  8
0
 62
4
 10
-1.11783010E+02
 20
2.01233884E+02
  0
VERTEX
  8
0
 62
4
 10
-1.12002254E+02
 20
2.01185409E+02
  0
VERTEX
  8
0
 62
4
 10
-1.12195887E+02
 20
2.01133750E+02
  0
VERTEX
  8
0
 62
4
 10
-1.12362385E+02
 20
2.01079314E+02
  0
VERTEX
  8
0
 62
4
 10
-1.12500436E+02
 20
2.01022529E+02
  0
VERTEX
  8
0
 62
4
 10
-1.12608952E+02
 20
2.00963842E+02
  0
VERTEX
  8
0
 62
4
 10
-1.12687080E+02
 20
2.00903716E+02
  0
VERTEX
  8
0
 62
4
 10
-1.12734205E+02
 20
2.00842623E+02
  0
VERTEX
  8
0
 62
4
 10
-1.12749954E+02
 20
2.00781046E+02
  0
SEQEND
  8
0
  0
ARC
  8
0
 62
4
 10
-1.10868560E+02
 20
2.10265135E+02
 40
1.25124521E+01
 50
2.74941635E+02
 51
2.88095416E+02
  0
ARC
  8
0
 62
4
 10
-1.06631348E+02
 20
2.10265138E+02
 40
1.25124547E+01
 50
2.51904586E+02
 51
2.65058365E+02
  0
POLYLINE
  8
0
 62
4
 66
1
  0
VERTEX
  8
0
 62
4
 10
-1.04599954E+02
 20
1.98673558E+02
  0
VERTEX
  8
0
 62
4
 10
-1.04616661E+02
 20
1.98738156E+02
  0
VERTEX
  8
0
 62
4
 10
-1.04666646E+02
 20
1.98802233E+02
  0
VERTEX
  8
0
 62
4
 10
-1.04749508E+02
 20
1.98865275E+02
  0
VERTEX
  8
0
 62
4
 10
-1.04864579E+02
 20
1.98926773E+02
  0
VERTEX
  8
0
 62
4
 10
-1.05010933E+02
 20
1.98986232E+02
  0
VERTEX
  8
0
 62
4
 10
-1.05187391E+02
 20
1.99043174E+02
  0
VERTEX
  8
0
 62
4
 10
-1.05392533E+02
 20
1.99097140E+02
  0
VERTEX
  8
0
 62
4
 10
-1.05624707E+02
 20
1.99147695E+02
  0
VERTEX
  8
0
 62
4
 10
-1.05882044E+02
 20
1.99194433E+02
  0
VERTEX
  8
0
 62
4
 10
-1.06162471E+02
 20
1.99236977E+02
  0
VERTEX
  8
0
 62
4
 10
-1.06463732E+02
 20
1.99274985E+02
  0
VERTEX
  8
0
 62
4
 10
-1.06783399E+02
 20
1.99308150E+02
  0
VERTEX
  8
0
 62
4
 10
-1.07118900E+02
 20
1.99336206E+02
  0
VERTEX
  8
0
 62
4
 10
-1.07467533E+02
 20
1.99358927E+02
  0
VERTEX
  8
0
 62
4
 10
-1.07826492E+02
 20
1.99376130E+02
  0
VERTEX
  8
0
 62
4
 10
-1.08192886E+02
 20
1.99387676E+02
  0
VERTEX
  8
0
 62
4
 10
-1.08563765E+02
 20
1.99393472E+02
  0
VERTEX
  8
0
 62
4
 10
-1.08936143E+02
 20
1.99393472E+02
  0
VERTEX
  8
0
 62
4
 10
-1.09307022E+02
 20
1.99387676E+02
  0
VERTEX
  8
0
 62
4
 10
-1.09673416E+02
 20
1.99376130E+02
  0
VERTEX
  8
0
 62
4
 10
-1.10032375E+02
 20
1.99358927E+02
  0
VERTEX
  8
0
 62
4
 10
-1.10381008E+02
 20
1.99336206E+02
  0
VERTEX
  8
0
 62
4
 10
-1.10716509E+02
 20
1.99308150E+02
  0
VERTEX
  8
0
 62
4
 10
-1.11036176E+02
 20
1.99274985E+02
  0
VERTEX
  8
0
 62
4
 10
-1.11337437E+02
 20
1.99236977E+02
  0
VERTEX
  8
0
 62
4
 10
-1.11617864E+02
 20
1.99194433E+02
  0
VERTEX
  8
0
 62
4
 10
-1.11875201E+02
 20
1.99147695E+02
  0
VERTEX
  8
0
 62
4
 10
-1.12107375E+02
 20
1.99097140E+02
  0
VERTEX
  8
0
 62
4
 10
-1.12312516E+02
 20
1.99043174E+02
  0
VERTEX
  8
0
 62
4
 10
-1.12488975E+02
 20
1.98986232E+02
  0
VERTEX
  8
0
 62
4
 10
-1.12635329E+02
 20
1.98926773E+02
  0
VERTEX
  8
0
 62
4
 10
-1.12750400E+02
 20
1.98865275E+02
  0
VERTEX
  8
0
 62
4
 10
-1.12833262E+02
 20
1.98802233E+02
  0
VERTEX
  8
0
 62
4
 10
-1.12883247E+02
 20
1.98738156E+02
  0
VERTEX
  8
0
 62
4
 10
-1.12899954E+02
 20
1.98673558E+02
  0
SEQEND
  8
0
  0
ARC
  8
0
 62
4
 10
-1.12649954E+02
 20
1.98678895E+02
 40
2.50000000E-01
 50
1.80000000E+02
 51
2.50324001E+02
  0
ARC
  8
0
 62
4
 10
-1.04849954E+02
 20
1.98678895E+02
 40
2.50000000E-01
 50
2.89675999E+02
 51
0.00000000E+00
  0
LINE
  8
0
 62
4
 10
-1.05049954E+02
 20
2.00404007E+02
 11
-1.05049954E+02
 21
2.01388815E+02
  0
LINE
  8
0
 62
4
 10
-9.74499542E+01
 20
2.00404007E+02
 11
-9.74499542E+01
 21
2.01388815E+02
  0
POLYLINE
  8
0
 62
4
 66
1
  0
VERTEX
  8
0
 62
4
 10
-9.74499540E+01
 20
2.01388815E+02
  0
VERTEX
  8
0
 62
4
 10
-9.74652517E+01
 20
2.01447965E+02
  0
VERTEX
  8
0
 62
4
 10
-9.75110216E+01
 20
2.01506638E+02
  0
VERTEX
  8
0
 62
4
 10
-9.75868951E+01
 20
2.01564363E+02
  0
VERTEX
  8
0
 62
4
 10
-9.76922615E+01
 20
2.01620674E+02
  0
VERTEX
  8
0
 62
4
 10
-9.78262723E+01
 20
2.01675119E+02
  0
VERTEX
  8
0
 62
4
 10
-9.79878486E+01
 20
2.01727258E+02
  0
VERTEX
  8
0
 62
4
 10
-9.81756894E+01
 20
2.01776673E+02
  0
VERTEX
  8
0
 62
4
 10
-9.83882824E+01
 20
2.01822964E+02
  0
VERTEX
  8
0
 62
4
 10
-9.86239159E+01
 20
2.01865761E+02
  0
VERTEX
  8
0
 62
4
 10
-9.88806927E+01
 20
2.01904717E+02
  0
VERTEX
  8
0
 62
4
 10
-9.91565455E+01
 20
2.01939519E+02
  0
VERTEX
  8
0
 62
4
 10
-9.94492531E+01
 20
2.01969887E+02
  0
VERTEX
  8
0
 62
4
 10
-9.97564589E+01
 20
2.01995577E+02
  0
VERTEX
  8
0
 62
4
 10
-1.00075689E+02
 20
2.02016382E+02
  0
VERTEX
  8
0
 62
4
 10
-1.00404374E+02
 20
2.02032134E+02
  0
VERTEX
  8
0
 62
4
 10
-1.00739868E+02
 20
2.02042706E+02
  0
VERTEX
  8
0
 62
4
 10
-1.01079468E+02
 20
2.02048014E+02
  0
VERTEX
  8
0
 62
4
 10
-1.01420440E+02
 20
2.02048014E+02
  0
VERTEX
  8
0
 62
4
 10
-1.01760040E+02
 20
2.02042706E+02
  0
VERTEX
  8
0
 62
4
 10
-1.02095534E+02
 20
2.02032134E+02
  0
VERTEX
  8
0
 62
4
 10
-1.02424219E+02
 20
2.02016382E+02
  0
VERTEX
  8
0
 62
4
 10
-1.02743449E+02
 20
2.01995577E+02
  0
VERTEX
  8
0
 62
4
 10
-1.03050655E+02
 20
2.01969887E+02
  0
VERTEX
  8
0
 62
4
 10
-1.03343363E+02
 20
2.01939519E+02
  0
VERTEX
  8
0
 62
4
 10
-1.03619215E+02
 20
2.01904717E+02
  0
VERTEX
  8
0
 62
4
 10
-1.03875992E+02
 20
2.01865761E+02
  0
VERTEX
  8
0
 62
4
 10
-1.04111626E+02
 20
2.01822964E+02
  0
VERTEX
  8
0
 62
4
 10
-1.04324219E+02
 20
2.01776673E+02
  0
VERTEX
  8
0
 62
4
 10
-1.04512059E+02
 20
2.01727258E+02
  0
VERTEX
  8
0
 62
4
 10
-1.04673636E+02
 20
2.01675119E+02
  0
VERTEX
  8
0
 62
4
 10
-1.04807646E+02
 20
2.01620674E+02
  0
VERTEX
  8
0
 62
4
 10
-1.04913013E+02
 20
2.01564363E+02
  0
VERTEX
  8
0
 62
4
 10
-1.04988886E+02
 20
2.01506638E+02
  0
VERTEX
  8
0
 62
4
 10
-1.05034656E+02
 20
2.01447965E+02
  0
VERTEX
  8
0
 62
4
 10
-1.05049954E+02
 20
2.01388815E+02
  0
SEQEND
  8
0
  0
POLYLINE
  8
0
 62
4
 66
1
  0
VERTEX
  8
0
 62
4
 10
-9.78499540E+01
 20
2.00109316E+02
  0
VERTEX
  8
0
 62
4
 10
-9.77133723E+01
 20
2.00162605E+02
  0
VERTEX
  8
0
 62
4
 10
-9.76044245E+01
 20
2.00217781E+02
  0
VERTEX
  8
0
 62
4
 10
-9.75239617E+01
 20
2.00274411E+02
  0
VERTEX
  8
0
 62
4
 10
-9.74726127E+01
 20
2.00332054E+02
  0
VERTEX
  8
0
 62
4
 10
-9.74507787E+01
 20
2.00390260E+02
  0
VERTEX
  8
0
 62
4
 10
-9.74586304E+01
 20
2.00448573E+02
  0
VERTEX
  8
0
 62
4
 10
-9.74961064E+01
 20
2.00506537E+02
  0
VERTEX
  8
0
 62
4
 10
-9.75629138E+01
 20
2.00563700E+02
  0
VERTEX
  8
0
 62
4
 10
-9.76585306E+01
 20
2.00619616E+02
  0
VERTEX
  8
0
 62
4
 10
-9.77822098E+01
 20
2.00673847E+02
  0
VERTEX
  8
0
 62
4
 10
-9.79329849E+01
 20
2.00725969E+02
  0
VERTEX
  8
0
 62
4
 10
-9.81096778E+01
 20
2.00775576E+02
  0
VERTEX
  8
0
 62
4
 10
-9.83109078E+01
 20
2.00822280E+02
  0
VERTEX
  8
0
 62
4
 10
-9.85351028E+01
 20
2.00865715E+02
  0
VERTEX
  8
0
 62
4
 10
-9.87805107E+01
 20
2.00905542E+02
  0
VERTEX
  8
0
 62
4
 10
-9.90452142E+01
 20
2.00941451E+02
  0
VERTEX
  8
0
 62
4
 10
-9.93271448E+01
 20
2.00973160E+02
  0
VERTEX
  8
0
 62
4
 10
-9.96240997E+01
 20
2.01000422E+02
  0
VERTEX
  8
0
 62
4
 10
-9.99337586E+01
 20
2.01023024E+02
  0
VERTEX
  8
0
 62
4
 10
-1.00253702E+02
 20
2.01040789E+02
  0
VERTEX
  8
0
 62
4
 10
-1.00581429E+02
 20
2.01053578E+02
  0
VERTEX
  8
0
 62
4
 10
-1.00914381E+02
 20
2.01061292E+02
  0
VERTEX
  8
0
 62
4
 10
-1.01249954E+02
 20
2.01063870E+02
  0
VERTEX
  8
0
 62
4
 10
-1.01585527E+02
 20
2.01061292E+02
  0
VERTEX
  8
0
 62
4
 10
-1.01918479E+02
 20
2.01053578E+02
  0
VERTEX
  8
0
 62
4
 10
-1.02246206E+02
 20
2.01040789E+02
  0
VERTEX
  8
0
 62
4
 10
-1.02566149E+02
 20
2.01023024E+02
  0
VERTEX
  8
0
 62
4
 10
-1.02875808E+02
 20
2.01000422E+02
  0
VERTEX
  8
0
 62
4
 10
-1.03172763E+02
 20
2.00973160E+02
  0
VERTEX
  8
0
 62
4
 10
-1.03454694E+02
 20
2.00941451E+02
  0
VERTEX
  8
0
 62
4
 10
-1.03719397E+02
 20
2.00905542E+02
  0
VERTEX
  8
0
 62
4
 10
-1.03964805E+02
 20
2.00865715E+02
  0
VERTEX
  8
0
 62
4
 10
-1.04189000E+02
 20
2.00822280E+02
  0
VERTEX
  8
0
 62
4
 10
-1.04390230E+02
 20
2.00775576E+02
  0
VERTEX
  8
0
 62
4
 10
-1.04566923E+02
 20
2.00725969E+02
  0
VERTEX
  8
0
 62
4
 10
-1.04717698E+02
 20
2.00673847E+02
  0
VERTEX
  8
0
 62
4
 10
-1.04841377E+02
 20
2.00619616E+02
  0
VERTEX
  8
0
 62
4
 10
-1.04936994E+02
 20
2.00563701E+02
  0
VERTEX
  8
0
 62
4
 10
-1.05003802E+02
 20
2.00506537E+02
  0
VERTEX
  8
0
 62
4
 10
-1.05041278E+02
 20
2.00448573E+02
  0
VERTEX
  8
0
 62
4
 10
-1.05049129E+02
 20
2.00390260E+02
  0
VERTEX
  8
0
 62
4
 10
-1.05027295E+02
 20
2.00332054E+02
  0
VERTEX
  8
0
 62
4
 10
-1.04975946E+02
 20
2.00274411E+02
  0
VERTEX
  8
0
 62
4
 10
-1.04895484E+02
 20
2.00217781E+02
  0
VERTEX
  8
0
 62
4
 10
-1.04786536E+02
 20
2.00162605E+02
  0
VERTEX
  8
0
 62
4
 10
-1.04649954E+02
 20
2.00109316E+02
  0
SEQEND
  8
0
  0
LINE
  8
0
 62
4
 10
-1.04649954E+02
 20
1.99130255E+02
 11
-1.04649954E+02
 21
2.00404007E+02
  0
LINE
  8
0
 62
4
 10
-9.78499542E+01
 20
1.99130255E+02
 11
-9.78499542E+01
 21
2.00404007E+02
  0
POLYLINE
  8
0
 62
4
 66
1
  0
VERTEX
  8
0
 62
4
 10
-9.78499540E+01
 20
2.00404007E+02
  0
VERTEX
  8
0
 62
4
 10
-9.78636414E+01
 20
2.00456930E+02
  0
VERTEX
  8
0
 62
4
 10
-9.79045934E+01
 20
2.00509428E+02
  0
VERTEX
  8
0
 62
4
 10
-9.79724803E+01
 20
2.00561076E+02
  0
VERTEX
  8
0
 62
4
 10
-9.80667554E+01
 20
2.00611460E+02
  0
VERTEX
  8
0
 62
4
 10
-9.81866598E+01
 20
2.00660174E+02
  0
VERTEX
  8
0
 62
4
 10
-9.83312281E+01
 20
2.00706825E+02
  0
VERTEX
  8
0
 62
4
 10
-9.84992962E+01
 20
2.00751038E+02
  0
VERTEX
  8
0
 62
4
 10
-9.86895110E+01
 20
2.00792457E+02
  0
VERTEX
  8
0
 62
4
 10
-9.89003410E+01
 20
2.00830748E+02
  0
VERTEX
  8
0
 62
4
 10
-9.91300887E+01
 20
2.00865603E+02
  0
VERTEX
  8
0
 62
4
 10
-9.93769042E+01
 20
2.00896742E+02
  0
VERTEX
  8
0
 62
4
 10
-9.96388005E+01
 20
2.00923914E+02
  0
VERTEX
  8
0
 62
4
 10
-9.99136689E+01
 20
2.00946900E+02
  0
VERTEX
  8
0
 62
4
 10
-1.00199296E+02
 20
2.00965514E+02
  0
VERTEX
  8
0
 62
4
 10
-1.00493383E+02
 20
2.00979608E+02
  0
VERTEX
  8
0
 62
4
 10
-1.00793561E+02
 20
2.00989068E+02
  0
VERTEX
  8
0
 62
4
 10
-1.01097414E+02
 20
2.00993816E+02
  0
VERTEX
  8
0
 62
4
 10
-1.01402494E+02
 20
2.00993816E+02
  0
VERTEX
  8
0
 62
4
 10
-1.01706347E+02
 20
2.00989068E+02
  0
VERTEX
  8
0
 62
4
 10
-1.02006525E+02
 20
2.00979608E+02
  0
VERTEX
  8
0
 62
4
 10
-1.02300612E+02
 20
2.00965514E+02
  0
VERTEX
  8
0
 62
4
 10
-1.02586239E+02
 20
2.00946900E+02
  0
VERTEX
  8
0
 62
4
 10
-1.02861107E+02
 20
2.00923914E+02
  0
VERTEX
  8
0
 62
4
 10
-1.03123004E+02
 20
2.00896742E+02
  0
VERTEX
  8
0
 62
4
 10
-1.03369819E+02
 20
2.00865603E+02
  0
VERTEX
  8
0
 62
4
 10
-1.03599567E+02
 20
2.00830748E+02
  0
VERTEX
  8
0
 62
4
 10
-1.03810397E+02
 20
2.00792457E+02
  0
VERTEX
  8
0
 62
4
 10
-1.04000612E+02
 20
2.00751038E+02
  0
VERTEX
  8
0
 62
4
 10
-1.04168680E+02
 20
2.00706825E+02
  0
VERTEX
  8
0
 62
4
 10
-1.04313248E+02
 20
2.00660174E+02
  0
VERTEX
  8
0
 62
4
 10
-1.04433153E+02
 20
2.00611460E+02
  0
VERTEX
  8
0
 62
4
 10
-1.04527428E+02
 20
2.00561076E+02
  0
VERTEX
  8
0
 62
4
 10
-1.04595315E+02
 20
2.00509428E+02
  0
VERTEX
  8
0
 62
4
 10
-1.04636267E+02
 20
2.00456930E+02
  0
VERTEX
  8
0
 62
4
 10
-1.04649954E+02
 20
2.00404007E+02
  0
SEQEND
  8
0
  0
ARC
  8
0
 62
4
 10
-1.01249954E+02
 20
2.09670468E+02
 40
1.18100000E+01
 50
2.57172490E+02
 51
2.82827510E+02
  0
ARC
  8
0
 62
4
 10
-9.88499539E+01
 20
1.99130255E+02
 40
1.00000000E+00
 50
2.82827510E+02
 51
5.08888749E-14
  0
ARC
  8
0
 62
4
 10
-1.03649955E+02
 20
1.99130255E+02
 40
1.00000000E+00
 50
1.80000000E+02
 51
2.57172490E+02
  0
ARC
  8
0
 62
4
 10
-1.03371708E+02
 20
2.10389611E+02
 40
1.25306621E+01
 50
2.74968660E+02
 51
2.88083352E+02
  0
ARC
  8
0
 62
4
 10
-9.91282006E+01
 20
2.10389612E+02
 40
1.25306626E+01
 50
2.51916648E+02
 51
2.65031340E+02
  0
LINE
  8
0
  6
CENTER
 62
6
 10
-1.11249954E+02
 20
2.00781046E+02
 11
-1.06249954E+02
 21
2.00781046E+02
  0
LINE
  8
0
  6
CENTER
 62
6
 10
-1.01249954E+02
 20
2.03888815E+02
 11
-1.01249954E+02
 21
1.98888815E+02
  0
LINE
  8
0
  6
CENTER
 62
6
 10
-1.03749954E+02
 20
2.01388815E+02
 11
-9.87499542E+01
 21
2.01388815E+02
  0
LINE
  8
0
  6
CENTER
 62
6
 10
-1.16249954E+02
 20
2.03888815E+02
 11
-1.16249954E+02
 21
1.98888815E+02
  0
LINE
  8
0
  6
CENTER
 62
6
 10
-1.18749954E+02
 20
2.01388815E+02
 11
-1.13749954E+02
 21
2.01388815E+02
  0
LINE
  8
0
 62
4
 10
-9.74568436E+01
 20
2.00364291E+02
 11
-9.37499542E+01
 21
2.00364291E+02
  0
LINE
  8
0
 62
7
 10
-9.37499542E+01
 20
2.20369465E+02
 11
-2.82500267E+01
 21
2.20369465E+02
  0
LINE
  8
0
 62
7
 10
-9.37499542E+01
 20
2.19519459E+02
 11
-2.82500267E+01
 21
2.19519459E+02
  0
LINE
  8
0
 62
7
 10
-9.37499542E+01
 20
2.14219471E+02
 11
-2.82500267E+01
 21
2.14219471E+02
  0
LINE
  8
0
 62
7
 10
-4.97500458E+01
 20
1.82519459E+02
 11
-2.82500267E+01
 21
1.82519459E+02
  0
LINE
  8
0
 62
7
 10
-4.97500458E+01
 20
1.76369480E+02
 11
-2.82500267E+01
 21
1.76369480E+02
  0
LINE
  8
0
 62
7
 10
-4.97500458E+01
 20
1.77219471E+02
 11
-2.82500267E+01
 21
1.77219471E+02
  0
LINE
  8
0
 62
6
 10
-1.20464982E+02
 20
-2.03377284E+02
 11
-1.17035112E+02
 21
-1.99947409E+02
  0
LINE
  8
0
 62
6
 10
-1.17035110E+02
 20
-2.03377282E+02
 11
-1.20464985E+02
 21
-1.99947412E+02
  0
POLYLINE
  8
0
 62
4
 66
1
  0
VERTEX
  8
0
 62
4
 10
-1.22750047E+02
 20
-2.02021491E+02
  0
VERTEX
  8
0
 62
4
 10
-1.22734831E+02
 20
-2.02362496E+02
  0
VERTEX
  8
0
 62
4
 10
-1.22689289E+02
 20
-2.02700906E+02
  0
VERTEX
  8
0
 62
4
 10
-1.22613766E+02
 20
-2.03034146E+02
  0
VERTEX
  8
0
 62
4
 10
-1.22508839E+02
 20
-2.03359679E+02
  0
VERTEX
  8
0
 62
4
 10
-1.22375304E+02
 20
-2.03675029E+02
  0
VERTEX
  8
0
 62
4
 10
-1.22214180E+02
 20
-2.03977794E+02
  0
VERTEX
  8
0
 62
4
 10
-1.22026691E+02
 20
-2.04265672E+02
  0
VERTEX
  8
0
 62
4
 10
-1.21814265E+02
 20
-2.04536470E+02
  0
VERTEX
  8
0
 62
4
 10
-1.21578518E+02
 20
-2.04788128E+02
  0
VERTEX
  8
0
 62
4
 10
-1.21321245E+02
 20
-2.05018731E+02
  0
VERTEX
  8
0
 62
4
 10
-1.21044403E+02
 20
-2.05226524E+02
  0
VERTEX
  8
0
 62
4
 10
-1.20750101E+02
 20
-2.05409925E+02
  0
VERTEX
  8
0
 62
4
 10
-1.20440576E+02
 20
-2.05567538E+02
  0
VERTEX
  8
0
 62
4
 10
-1.20118186E+02
 20
-2.05698165E+02
  0
VERTEX
  8
0
 62
4
 10
-1.19785383E+02
 20
-2.05800810E+02
  0
VERTEX
  8
0
 62
4
 10
-1.19444701E+02
 20
-2.05874692E+02
  0
VERTEX
  8
0
 62
4
 10
-1.19098732E+02
 20
-2.05919250E+02
  0
VERTEX
  8
0
 62
4
 10
-1.18750109E+02
 20
-2.05934144E+02
  0
VERTEX
  8
0
 62
4
 10
-1.18401486E+02
 20
-2.05919261E+02
  0
VERTEX
  8
0
 62
4
 10
-1.18055515E+02
 20
-2.05874714E+02
  0
VERTEX
  8
0
 62
4
 10
-1.17714831E+02
 20
-2.05800842E+02
  0
VERTEX
  8
0
 62
4
 10
-1.17382025E+02
 20
-2.05698208E+02
  0
VERTEX
  8
0
 62
4
 10
-1.17059630E+02
 20
-2.05567592E+02
  0
VERTEX
  8
0
 62
4
 10
-1.16750101E+02
 20
-2.05409988E+02
  0
VERTEX
  8
0
 62
4
 10
-1.16455792E+02
 20
-2.05226597E+02
  0
VERTEX
  8
0
 62
4
 10
-1.16178944E+02
 20
-2.05018813E+02
  0
VERTEX
  8
0
 62
4
 10
-1.15921664E+02
 20
-2.04788218E+02
  0
VERTEX
  8
0
 62
4
 10
-1.15685909E+02
 20
-2.04536567E+02
  0
VERTEX
  8
0
 62
4
 10
-1.15473474E+02
 20
-2.04265775E+02
  0
VERTEX
  8
0
 62
4
 10
-1.15285976E+02
 20
-2.03977904E+02
  0
VERTEX
  8
0
 62
4
 10
-1.15124842E+02
 20
-2.03675143E+02
  0
VERTEX
  8
0
 62
4
 10
-1.14991298E+02
 20
-2.03359798E+02
  0
VERTEX
  8
0
 62
4
 10
-1.14886360E+02
 20
-2.03034268E+02
  0
VERTEX
  8
0
 62
4
 10
-1.14810827E+02
 20
-2.02701030E+02
  0
VERTEX
  8
0
 62
4
 10
-1.14765274E+02
 20
-2.02362622E+02
  0
VERTEX
  8
0
 62
4
 10
-1.14750047E+02
 20
-2.02021617E+02
  0
VERTEX
  8
0
 62
4
 10
-1.14765263E+02
 20
-2.01680612E+02
  0
VERTEX
  8
0
 62
4
 10
-1.14810805E+02
 20
-2.01342202E+02
  0
VERTEX
  8
0
 62
4
 10
-1.14886328E+02
 20
-2.01008962E+02
  0
VERTEX
  8
0
 62
4
 10
-1.14991255E+02
 20
-2.00683429E+02
  0
VERTEX
  8
0
 62
4
 10
-1.15124790E+02
 20
-2.00368079E+02
  0
VERTEX
  8
0
 62
4
 10
-1.15285914E+02
 20
-2.00065314E+02
  0
VERTEX
  8
0
 62
4
 10
-1.15473403E+02
 20
-1.99777436E+02
  0
VERTEX
  8
0
 62
4
 10
-1.15685829E+02
 20
-1.99506638E+02
  0
VERTEX
  8
0
 62
4
 10
-1.15921576E+02
 20
-1.99254980E+02
  0
VERTEX
  8
0
 62
4
 10
-1.16178849E+02
 20
-1.99024377E+02
  0
VERTEX
  8
0
 62
4
 10
-1.16455691E+02
 20
-1.98816584E+02
  0
VERTEX
  8
0
 62
4
 10
-1.16749993E+02
 20
-1.98633183E+02
  0
VERTEX
  8
0
 62
4
 10
-1.17059518E+02
 20
-1.98475570E+02
  0
VERTEX
  8
0
 62
4
 10
-1.17381908E+02
 20
-1.98344943E+02
  0
VERTEX
  8
0
 62
4
 10
-1.17714711E+02
 20
-1.98242298E+02
  0
VERTEX
  8
0
 62
4
 10
-1.18055393E+02
 20
-1.98168416E+02
  0
VERTEX
  8
0
 62
4
 10
-1.18401362E+02
 20
-1.98123858E+02
  0
VERTEX
  8
0
 62
4
 10
-1.18749985E+02
 20
-1.98108964E+02
  0
VERTEX
  8
0
 62
4
 10
-1.19098608E+02
 20
-1.98123847E+02
  0
VERTEX
  8
0
 62
4
 10
-1.19444579E+02
 20
-1.98168394E+02
  0
VERTEX
  8
0
 62
4
 10
-1.19785263E+02
 20
-1.98242266E+02
  0
VERTEX
  8
0
 62
4
 10
-1.20118069E+02
 20
-1.98344900E+02
  0
VERTEX
  8
0
 62
4
 10
-1.20440464E+02
 20
-1.98475516E+02
  0
VERTEX
  8
0
 62
4
 10
-1.20749993E+02
 20
-1.98633120E+02
  0
VERTEX
  8
0
 62
4
 10
-1.21044302E+02
 20
-1.98816511E+02
  0
VERTEX
  8
0
 62
4
 10
-1.21321150E+02
 20
-1.99024295E+02
  0
VERTEX
  8
0
 62
4
 10
-1.21578430E+02
 20
-1.99254890E+02
  0
VERTEX
  8
0
 62
4
 10
-1.21814185E+02
 20
-1.99506541E+02
  0
VERTEX
  8
0
 62
4
 10
-1.22026620E+02
 20
-1.99777333E+02
  0
VERTEX
  8
0
 62
4
 10
-1.22214118E+02
 20
-2.00065204E+02
  0
VERTEX
  8
0
 62
4
 10
-1.22375252E+02
 20
-2.00367965E+02
  0
VERTEX
  8
0
 62
4
 10
-1.22508796E+02
 20
-2.00683310E+02
  0
VERTEX
  8
0
 62
4
 10
-1.22613734E+02
 20
-2.01008840E+02
  0
VERTEX
  8
0
 62
4
 10
-1.22689267E+02
 20
-2.01342078E+02
  0
VERTEX
  8
0
 62
4
 10
-1.22734820E+02
 20
-2.01680486E+02
  0
VERTEX
  8
0
 62
4
 10
-1.22750047E+02
 20
-2.02021491E+02
  0
SEQEND
  8
0
  0
POLYLINE
  8
0
 62
4
 66
1
  0
VERTEX
  8
0
 62
4
 10
-1.22149020E+02
 20
-2.01744636E+02
  0
VERTEX
  8
0
 62
4
 10
-1.22143076E+02
 20
-2.02056121E+02
  0
VERTEX
  8
0
 62
4
 10
-1.22110495E+02
 20
-2.02365839E+02
  0
VERTEX
  8
0
 62
4
 10
-1.22051532E+02
 20
-2.02671358E+02
  0
VERTEX
  8
0
 62
4
 10
-1.21966652E+02
 20
-2.02970281E+02
  0
VERTEX
  8
0
 62
4
 10
-1.21856519E+02
 20
-2.03260261E+02
  0
VERTEX
  8
0
 62
4
 10
-1.21721999E+02
 20
-2.03539021E+02
  0
VERTEX
  8
0
 62
4
 10
-1.21564147E+02
 20
-2.03804372E+02
  0
VERTEX
  8
0
 62
4
 10
-1.21384203E+02
 20
-2.04054232E+02
  0
VERTEX
  8
0
 62
4
 10
-1.21183579E+02
 20
-2.04286639E+02
  0
VERTEX
  8
0
 62
4
 10
-1.20963851E+02
 20
-2.04499769E+02
  0
VERTEX
  8
0
 62
4
 10
-1.20726743E+02
 20
-2.04691947E+02
  0
VERTEX
  8
0
 62
4
 10
-1.20474118E+02
 20
-2.04861667E+02
  0
VERTEX
  8
0
 62
4
 10
-1.20207957E+02
 20
-2.05007594E+02
  0
VERTEX
  8
0
 62
4
 10
-1.19930351E+02
 20
-2.05128584E+02
  0
VERTEX
  8
0
 62
4
 10
-1.19643479E+02
 20
-2.05223687E+02
  0
VERTEX
  8
0
 62
4
 10
-1.19349593E+02
 20
-2.05292156E+02
  0
VERTEX
  8
0
 62
4
 10
-1.19051000E+02
 20
-2.05333453E+02
  0
VERTEX
  8
0
 62
4
 10
-1.18750044E+02
 20
-2.05347255E+02
  0
VERTEX
  8
0
 62
4
 10
-1.18449089E+02
 20
-2.05333453E+02
  0
VERTEX
  8
0
 62
4
 10
-1.18150496E+02
 20
-2.05292156E+02
  0
VERTEX
  8
0
 62
4
 10
-1.17856610E+02
 20
-2.05223687E+02
  0
VERTEX
  8
0
 62
4
 10
-1.17569738E+02
 20
-2.05128584E+02
  0
VERTEX
  8
0
 62
4
 10
-1.17292133E+02
 20
-2.05007594E+02
  0
VERTEX
  8
0
 62
4
 10
-1.17025972E+02
 20
-2.04861667E+02
  0
VERTEX
  8
0
 62
4
 10
-1.16773346E+02
 20
-2.04691947E+02
  0
VERTEX
  8
0
 62
4
 10
-1.16536239E+02
 20
-2.04499769E+02
  0
VERTEX
  8
0
 62
4
 10
-1.16316511E+02
 20
-2.04286639E+02
  0
VERTEX
  8
0
 62
4
 10
-1.16115888E+02
 20
-2.04054232E+02
  0
VERTEX
  8
0
 62
4
 10
-1.15935944E+02
 20
-2.03804372E+02
  0
VERTEX
  8
0
 62
4
 10
-1.15778093E+02
 20
-2.03539021E+02
  0
VERTEX
  8
0
 62
4
 10
-1.15643573E+02
 20
-2.03260261E+02
  0
VERTEX
  8
0
 62
4
 10
-1.15533441E+02
 20
-2.02970281E+02
  0
VERTEX
  8
0
 62
4
 10
-1.15448560E+02
 20
-2.02671358E+02
  0
VERTEX
  8
0
 62
4
 10
-1.15389598E+02
 20
-2.02365839E+02
  0
VERTEX
  8
0
 62
4
 10
-1.15357018E+02
 20
-2.02056121E+02
  0
VERTEX
  8
0
 62
4
 10
-1.15351075E+02
 20
-2.01744636E+02
  0
SEQEND
  8
0
  0
POLYLINE
  8
0
 62
4
 66
1
  0
VERTEX
  8
0
 62
4
 10
-1.22150047E+02
 20
-2.01662270E+02
  0
VERTEX
  8
0
 62
4
 10
-1.22137116E+02
 20
-2.01954021E+02
  0
VERTEX
  8
0
 62
4
 10
-1.22098406E+02
 20
-2.02243551E+02
  0
VERTEX
  8
0
 62
4
 10
-1.22034214E+02
 20
-2.02528658E+02
  0
VERTEX
  8
0
 62
4
 10
-1.21945028E+02
 20
-2.02807172E+02
  0
VERTEX
  8
0
 62
4
 10
-1.21831525E+02
 20
-2.03076974E+02
  0
VERTEX
  8
0
 62
4
 10
-1.21694571E+02
 20
-2.03336009E+02
  0
VERTEX
  8
0
 62
4
 10
-1.21535207E+02
 20
-2.03582306E+02
  0
VERTEX
  8
0
 62
4
 10
-1.21354647E+02
 20
-2.03813992E+02
  0
VERTEX
  8
0
 62
4
 10
-1.21154263E+02
 20
-2.04029302E+02
  0
VERTEX
  8
0
 62
4
 10
-1.20935583E+02
 20
-2.04226598E+02
  0
VERTEX
  8
0
 62
4
 10
-1.20700269E+02
 20
-2.04404379E+02
  0
VERTEX
  8
0
 62
4
 10
-1.20450112E+02
 20
-2.04561291E+02
  0
VERTEX
  8
0
 62
4
 10
-1.20187018E+02
 20
-2.04696140E+02
  0
VERTEX
  8
0
 62
4
 10
-1.19912986E+02
 20
-2.04807901E+02
  0
VERTEX
  8
0
 62
4
 10
-1.19630105E+02
 20
-2.04895721E+02
  0
VERTEX
  8
0
 62
4
 10
-1.19340525E+02
 20
-2.04958934E+02
  0
VERTEX
  8
0
 62
4
 10
-1.19046452E+02
 20
-2.04997058E+02
  0
VERTEX
  8
0
 62
4
 10
-1.18750123E+02
 20
-2.05009803E+02
  0
VERTEX
  8
0
 62
4
 10
-1.18453793E+02
 20
-2.04997072E+02
  0
VERTEX
  8
0
 62
4
 10
-1.18159718E+02
 20
-2.04958961E+02
  0
VERTEX
  8
0
 62
4
 10
-1.17870135E+02
 20
-2.04895761E+02
  0
VERTEX
  8
0
 62
4
 10
-1.17587250E+02
 20
-2.04807953E+02
  0
VERTEX
  8
0
 62
4
 10
-1.17313213E+02
 20
-2.04696205E+02
  0
VERTEX
  8
0
 62
4
 10
-1.17050112E+02
 20
-2.04561367E+02
  0
VERTEX
  8
0
 62
4
 10
-1.16799949E+02
 20
-2.04404467E+02
  0
VERTEX
  8
0
 62
4
 10
-1.16564627E+02
 20
-2.04226696E+02
  0
VERTEX
  8
0
 62
4
 10
-1.16345937E+02
 20
-2.04029410E+02
  0
VERTEX
  8
0
 62
4
 10
-1.16145544E+02
 20
-2.03814109E+02
  0
VERTEX
  8
0
 62
4
 10
-1.15964973E+02
 20
-2.03582432E+02
  0
VERTEX
  8
0
 62
4
 10
-1.15805598E+02
 20
-2.03336142E+02
  0
VERTEX
  8
0
 62
4
 10
-1.15668632E+02
 20
-2.03077113E+02
  0
VERTEX
  8
0
 62
4
 10
-1.15555118E+02
 20
-2.02807317E+02
  0
VERTEX
  8
0
 62
4
 10
-1.15465919E+02
 20
-2.02528807E+02
  0
VERTEX
  8
0
 62
4
 10
-1.15401714E+02
 20
-2.02243702E+02
  0
VERTEX
  8
0
 62
4
 10
-1.15362992E+02
 20
-2.01954173E+02
  0
VERTEX
  8
0
 62
4
 10
-1.15350047E+02
 20
-2.01662424E+02
  0
VERTEX
  8
0
 62
4
 10
-1.15362978E+02
 20
-2.01370673E+02
  0
VERTEX
  8
0
 62
4
 10
-1.15401688E+02
 20
-2.01081143E+02
  0
VERTEX
  8
0
 62
4
 10
-1.15465880E+02
 20
-2.00796036E+02
  0
VERTEX
  8
0
 62
4
 10
-1.15555066E+02
 20
-2.00517522E+02
  0
VERTEX
  8
0
 62
4
 10
-1.15668569E+02
 20
-2.00247720E+02
  0
VERTEX
  8
0
 62
4
 10
-1.15805523E+02
 20
-1.99988685E+02
  0
VERTEX
  8
0
 62
4
 10
-1.15964887E+02
 20
-1.99742388E+02
  0
VERTEX
  8
0
 62
4
 10
-1.16145447E+02
 20
-1.99510702E+02
  0
VERTEX
  8
0
 62
4
 10
-1.16345831E+02
 20
-1.99295392E+02
  0
VERTEX
  8
0
 62
4
 10
-1.16564511E+02
 20
-1.99098096E+02
  0
VERTEX
  8
0
 62
4
 10
-1.16799825E+02
 20
-1.98920315E+02
  0
VERTEX
  8
0
 62
4
 10
-1.17049982E+02
 20
-1.98763403E+02
  0
VERTEX
  8
0
 62
4
 10
-1.17313076E+02
 20
-1.98628554E+02
  0
VERTEX
  8
0
 62
4
 10
-1.17587108E+02
 20
-1.98516793E+02
  0
VERTEX
  8
0
 62
4
 10
-1.17869989E+02
 20
-1.98428973E+02
  0
VERTEX
  8
0
 62
4
 10
-1.18159569E+02
 20
-1.98365760E+02
  0
VERTEX
  8
0
 62
4
 10
-1.18453642E+02
 20
-1.98327636E+02
  0
VERTEX
  8
0
 62
4
 10
-1.18749971E+02
 20
-1.98314891E+02
  0
VERTEX
  8
0
 62
4
 10
-1.19046301E+02
 20
-1.98327622E+02
  0
VERTEX
  8
0
 62
4
 10
-1.19340376E+02
 20
-1.98365733E+02
  0
VERTEX
  8
0
 62
4
 10
-1.19629959E+02
 20
-1.98428933E+02
  0
VERTEX
  8
0
 62
4
 10
-1.19912844E+02
 20
-1.98516741E+02
  0
VERTEX
  8
0
 62
4
 10
-1.20186881E+02
 20
-1.98628489E+02
  0
VERTEX
  8
0
 62
4
 10
-1.20449982E+02
 20
-1.98763327E+02
  0
VERTEX
  8
0
 62
4
 10
-1.20700145E+02
 20
-1.98920227E+02
  0
VERTEX
  8
0
 62
4
 10
-1.20935467E+02
 20
-1.99097998E+02
  0
VERTEX
  8
0
 62
4
 10
-1.21154157E+02
 20
-1.99295284E+02
  0
VERTEX
  8
0
 62
4
 10
-1.21354550E+02
 20
-1.99510585E+02
  0
VERTEX
  8
0
 62
4
 10
-1.21535121E+02
 20
-1.99742262E+02
  0
VERTEX
  8
0
 62
4
 10
-1.21694496E+02
 20
-1.99988552E+02
  0
VERTEX
  8
0
 62
4
 10
-1.21831462E+02
 20
-2.00247581E+02
  0
VERTEX
  8
0
 62
4
 10
-1.21944976E+02
 20
-2.00517377E+02
  0
VERTEX
  8
0
 62
4
 10
-1.22034175E+02
 20
-2.00795887E+02
  0
VERTEX
  8
0
 62
4
 10
-1.22098380E+02
 20
-2.01080992E+02
  0
VERTEX
  8
0
 62
4
 10
-1.22137102E+02
 20
-2.01370521E+02
  0
VERTEX
  8
0
 62
4
 10
-1.22150047E+02
 20
-2.01662270E+02
  0
SEQEND
  8
0
  0
LINE
  8
0
 62
4
 10
-1.27750034E+02
 20
-2.17740352E+02
 11
-9.43747560E+01
 21
-2.17740329E+02
  0
LINE
  8
0
 62
4
 10
-1.27750034E+02
 20
-2.16804750E+02
 11
-9.43747560E+01
 21
-2.16804726E+02
  0
LINE
  8
0
 62
4
 10
-1.27750034E+02
 20
-2.14933545E+02
 11
-9.43747560E+01
 21
-2.14933521E+02
  0
LINE
  8
0
 62
4
 10
-1.27750034E+02
 20
-2.13997942E+02
 11
-9.43747560E+01
 21
-2.13997918E+02
  0
LINE
  8
0
 62
4
 10
-9.43747560E+01
 20
-2.13997942E+02
 11
-9.17500417E+01
 21
-2.09461589E+02
  0
LINE
  8
0
 62
4
 10
-1.27750034E+02
 20
-2.13997942E+02
 11
-1.30750042E+02
 21
-2.09461617E+02
  0
LINE
  8
0
 62
4
 10
-9.43747560E+01
 20
-2.18557721E+02
 11
-9.43747560E+01
 21
-2.13997942E+02
  0
LINE
  8
0
 62
4
 10
-1.27750034E+02
 20
-2.18557721E+02
 11
-1.27750034E+02
 21
-2.13997942E+02
  0
LINE
  8
0
  6
CENTER
 62
6
 10
-1.18750043E+02
 20
-2.07801216E+02
 11
-1.18750052E+02
 21
-1.95001216E+02
  0
LINE
  8
0
  6
CENTER
 62
6
 10
-1.25150047E+02
 20
-2.01397512E+02
 11
-1.12350047E+02
 21
-2.01397503E+02
  0
LINE
  8
0
 62
4
 10
-1.26250069E+02
 20
-1.67358725E+02
 11
-1.11250069E+02
 21
-1.67358714E+02
  0
LINE
  8
0
 62
4
 10
-1.28250051E+02
 20
-1.91396605E+02
 11
-1.09250051E+02
 21
-1.91396591E+02
  0
LINE
  8
0
 62
4
 10
-1.30750051E+02
 20
-1.96754378E+02
 11
-1.30750042E+02
 21
-2.09461617E+02
  0
LINE
  8
0
 62
4
 10
-1.28250051E+02
 20
-1.91396591E+02
 11
-1.28250048E+02
 21
-1.95258075E+02
  0
LINE
  8
0
 62
4
 10
-1.11250069E+02
 20
-1.67358725E+02
 11
-1.11250051E+02
 21
-1.91396593E+02
  0
LINE
  8
0
 62
4
 10
-1.26250069E+02
 20
-1.67358725E+02
 11
-1.26250051E+02
 21
-1.91396603E+02
  0
LINE
  8
0
 62
4
 10
-1.09250051E+02
 20
-1.91396591E+02
 11
-1.09250048E+02
 21
-1.95258075E+02
  0
LINE
  8
0
 62
4
 10
-1.26250052E+02
 20
-1.90834267E+02
 11
-1.11250052E+02
 21
-1.90834256E+02
  0
LINE
  8
0
 62
4
 10
-9.17500508E+01
 20
-1.96754350E+02
 11
-9.17500417E+01
 21
-2.09461592E+02
  0
LINE
  8
0
 62
4
 10
-1.30750042E+02
 20
-2.09461617E+02
 11
-9.17500417E+01
 21
-2.09461589E+02
  0
LINE
  8
0
 62
4
 10
-1.30750043E+02
 20
-2.07994395E+02
 11
-9.17500427E+01
 21
-2.07994367E+02
  0
LINE
  8
0
 62
4
 10
-1.29250048E+02
 20
-1.95254377E+02
 11
-9.32500478E+01
 21
-1.95254351E+02
  0
LINE
  8
0
 62
4
 10
-1.45750070E+02
 20
-1.67454549E+02
 11
-1.40750070E+02
 21
-1.67454545E+02
  0
LINE
  8
0
 62
4
 10
-1.45750069E+02
 20
-1.69771177E+02
 11
-1.40750069E+02
 21
-1.69771173E+02
  0
LINE
  8
0
 62
4
 10
-1.45750062E+02
 20
-1.77117065E+02
 11
-1.40750062E+02
 21
-1.77117061E+02
  0
LINE
  8
0
 62
4
 10
-1.45750059E+02
 20
-1.82136548E+02
 11
-1.40750059E+02
 21
-1.82136545E+02
  0
LINE
  8
0
 62
4
 10
-1.35250053E+02
 20
-1.81789492E+02
 11
-1.26750053E+02
 21
-1.81789486E+02
  0
LINE
  8
0
 62
4
 10
-1.26250063E+02
 20
-1.67789485E+02
 11
-1.35250063E+02
 21
-1.67789492E+02
  0
LINE
  8
0
 62
4
 10
-1.35750063E+02
 20
-1.68289492E+02
 11
-1.35750054E+02
 21
-1.81289492E+02
  0
LINE
  8
0
 62
4
 10
-1.45750070E+02
 20
-1.67454549E+02
 11
-1.45750059E+02
 21
-1.82136548E+02
  0
LINE
  8
0
 62
4
 10
-1.40750070E+02
 20
-1.67454545E+02
 11
-1.40750059E+02
 21
-1.82136545E+02
  0
LINE
  8
0
 62
4
 10
-1.40750063E+02
 20
-1.68535781E+02
 11
-1.35750063E+02
 21
-1.68535777E+02
  0
LINE
  8
0
 62
4
 10
-1.40750054E+02
 20
-1.81035781E+02
 11
-1.35750054E+02
 21
-1.81035777E+02
  0
LINE
  8
0
 62
4
 10
-1.39250063E+02
 20
-1.68535780E+02
 11
-1.39250054E+02
 21
-1.81035780E+02
  0
LINE
  8
0
 62
4
 10
-1.39250062E+02
 20
-1.69035780E+02
 11
-1.35750062E+02
 21
-1.69035777E+02
  0
LINE
  8
0
 62
4
 10
-1.39250054E+02
 20
-1.80535780E+02
 11
-1.35750054E+02
 21
-1.80535777E+02
  0
ARC
  8
0
 62
4
 10
-1.35250555E+02
 20
-1.68289000E+02
 40
4.99508251E-01
 50
8.99436074E+01
 51
1.80056475E+02
  0
ARC
  8
0
 62
4
 10
-1.26749546E+02
 20
-1.82288978E+02
 40
4.99492993E-01
 50
3.59941854E+02
 51
9.00582282E+01
  0
ARC
  8
0
 62
4
 10
-9.32495393E+01
 20
-1.96753844E+02
 40
1.49949266E+00
 50
3.59980652E+02
 51
9.00194298E+01
  0
ARC
  8
0
 62
4
 10
-1.35249546E+02
 20
-1.81288984E+02
 40
5.00508007E-01
 50
1.80058166E+02
 51
2.69941916E+02
  0
ARC
  8
0
 62
4
 10
-1.29250539E+02
 20
-1.96753885E+02
 40
1.49950792E+00
 50
8.99812358E+01
 51
1.80018846E+02
  0
LINE
  8
0
 62
4
 10
-3.25389240E+02
 20
-2.04169416E+02
 11
-3.30633762E+02
 21
-2.20323396E+02
  0
ARC
  8
0
 62
4
 10
-3.12207916E+02
 20
-1.74785777E+02
 40
7.00000000E+00
 50
1.10107658E+02
 51
1.33018360E+02
  0
LINE
  8
0
 62
4
 10
-3.25389240E+02
 20
-2.04169416E+02
 11
-3.18540757E+02
 21
-2.02713726E+02
  0
LINE
  8
0
 62
4
 10
-3.17262581E+02
 20
-2.11131936E+02
 11
-3.16773507E+02
 21
-2.11027980E+02
  0
LINE
  8
0
 62
4
 10
-3.17647699E+02
 20
-2.11724966E+02
 11
-3.16833032E+02
 21
-2.15557675E+02
  0
LINE
  8
0
 62
4
 10
-3.20792267E+02
 20
-1.70477400E+02
 11
-3.16009125E+02
 21
-1.69460712E+02
  0
LINE
  8
0
 62
4
 10
-3.06120052E+02
 20
-1.67358725E+02
 11
-3.00922260E+02
 21
-1.91812415E+02
  0
LINE
  8
0
 62
4
 10
-3.20792267E+02
 20
-1.70477400E+02
 11
-3.15594474E+02
 21
-1.94931090E+02
  0
LINE
  8
0
 62
4
 10
-3.17550769E+02
 20
-1.95346913E+02
 11
-2.98965965E+02
 21
-1.91396591E+02
  0
LINE
  8
0
 62
4
 10
-3.15802386E+02
 20
-1.93952942E+02
 11
-3.01130172E+02
 21
-1.90834267E+02
  0
LINE
  8
0
 62
4
 10
-2.98965965E+02
 20
-1.91396591E+02
 11
-2.98134318E+02
 21
-1.95309182E+02
  0
LINE
  8
0
 62
4
 10
-3.17550769E+02
 20
-1.95346913E+02
 11
-3.16719123E+02
 21
-1.99259504E+02
  0
LINE
  8
0
 62
4
 10
-3.16719123E+02
 20
-1.99259504E+02
 11
-2.98134318E+02
 21
-1.95309182E+02
  0
LINE
  8
0
 62
4
 10
-3.16045816E+02
 20
-2.14451497E+02
 11
-2.92570274E+02
 21
-2.09461617E+02
  0
LINE
  8
0
 62
4
 10
-2.95169170E+02
 20
-1.97234771E+02
 11
-2.92570274E+02
 21
-2.09461617E+02
  0
LINE
  8
0
 62
4
 10
-3.18644712E+02
 20
-2.02224652E+02
 11
-3.16045816E+02
 21
-2.14451497E+02
  0
LINE
  8
0
 62
4
 10
-3.16045816E+02
 20
-2.14451497E+02
 11
-3.14779125E+02
 21
-2.15557675E+02
  0
LINE
  8
0
 62
4
 10
-2.92570274E+02
 20
-2.09461617E+02
 11
-2.94673070E+02
 21
-2.13997942E+02
  0
LINE
  8
0
 62
4
 10
-2.99074734E+02
 20
-2.14933545E+02
 11
-2.94673070E+02
 21
-2.13997942E+02
  0
LINE
  8
0
 62
4
 10
-3.16357684E+02
 20
-2.12984276E+02
 11
-2.92882141E+02
 21
-2.07994395E+02
  0
LINE
  8
0
 62
4
 10
-3.07719722E+02
 20
-2.05525347E+02
 11
-3.03807132E+02
 21
-2.04693700E+02
  0
LINE
  8
0
 62
4
 10
-3.07199943E+02
 20
-2.07970716E+02
 11
-3.03287353E+02
 21
-2.07139069E+02
  0
LINE
  8
0
 62
4
 10
-3.07719722E+02
 20
-2.05525347E+02
 11
-3.07199943E+02
 21
-2.07970716E+02
  0
LINE
  8
0
 62
4
 10
-3.03807132E+02
 20
-2.04693700E+02
 11
-3.03287353E+02
 21
-2.07139069E+02
  0
LINE
  8
0
 62
4
 10
-3.10647273E+02
 20
-1.82132836E+02
 11
-3.05068982E+02
 21
-1.77113357E+02
  0
LINE
  8
0
 62
4
 10
-3.19346318E+02
 20
-1.72470320E+02
 11
-3.13768027E+02
 21
-1.67450841E+02
  0
LINE
  8
0
 62
4
 10
-3.19346318E+02
 20
-1.72470320E+02
 11
-3.17784901E+02
 21
-1.79816209E+02
  0
LINE
  8
0
 62
4
 10
-3.06630399E+02
 20
-1.69767468E+02
 11
-3.05068982E+02
 21
-1.77113357E+02
  0
LINE
  8
0
 62
4
 10
-3.17784901E+02
 20
-1.79816209E+02
 11
-3.10647273E+02
 21
-1.82132836E+02
  0
LINE
  8
0
 62
4
 10
-3.13768027E+02
 20
-1.67450841E+02
 11
-3.06630399E+02
 21
-1.69767468E+02
  0
LINE
  8
0
 62
4
 10
-3.10912976E+02
 20
-1.68377492E+02
 11
-3.06120052E+02
 21
-1.67358725E+02
  0
LINE
  8
0
 62
4
 10
-2.94961258E+02
 20
-1.98212919E+02
 11
-2.94472185E+02
 21
-1.98108963E+02
  0
LINE
  8
0
 62
4
 10
-2.93297965E+02
 20
-2.06038100E+02
 11
-2.92808891E+02
 21
-2.05934144E+02
  0
LINE
  8
0
 62
4
 10
-2.94347438E+02
 20
-1.98695852E+02
 11
-2.92655242E+02
 21
-1.98336165E+02
  0
LINE
  8
0
 62
4
 10
-2.91241443E+02
 20
-2.04987568E+02
 11
-2.92933638E+02
 21
-2.05347255E+02
  0
LINE
  8
0
  6
CENTER
 62
6
 10
-3.24872791E+02
 20
-2.08660174E+02
 11
-2.87771652E+02
 21
-2.00774084E+02
  0
LINE
  8
0
 62
4
 10
-2.94472185E+02
 20
-1.98108963E+02
 11
-2.92808891E+02
 21
-2.05934144E+02
  0
ARC
  8
0
 62
4
 10
-3.17158625E+02
 20
-2.11621011E+02
 40
5.00000533E-01
 50
1.02000061E+02
 51
1.91999939E+02
  0
ARC
  8
0
 62
4
 10
-3.02258783E+02
 20
-2.03831622E+02
 40
1.18077645E+01
 50
3.59024145E+02
 51
2.47266957E+01
  0
ARC
  8
0
 62
4
 10
-3.16199322E+02
 20
-2.01704887E+02
 40
2.50001831E+00
 50
1.02000420E+02
 51
1.91999580E+02
  0
ARC
  8
0
 62
4
 10
-2.97613781E+02
 20
-1.97753383E+02
 40
2.49901570E+00
 50
1.19774281E+01
 51
1.02022572E+02
  0
ARC
  8
0
 62
4
 10
-3.01475453E+02
 20
-2.25282857E+02
 40
1.06241099E+01
 50
7.69401406E+01
 51
1.13739125E+02
  0
CIRCLE
  8
0
 62
4
 10
-3.12207916E+02
 20
-1.74785777E+02
 40
3.75000000E+00
  0
ARC
  8
0
 62
4
 10
-2.91450984E+02
 20
-2.04011322E+02
 40
9.98481423E-01
 50
2.82114125E+02
 51
3.58771982E+02
  0
ARC
  8
0
 62
4
 10
-2.92450474E+02
 20
-1.99311003E+02
 40
9.96112687E-01
 50
2.45301420E+01
 51
1.01862685E+02
  0
ARC
  8
0
 62
4
 10
-3.12207916E+02
 20
-1.74785777E+02
 40
7.00000000E+00
 50
7.09816396E+01
 51
9.39142840E+01
  0
LINE
  8
0
 62
4
 10
-3.30633762E+02
 20
-2.20323396E+02
 11
-3.28750050E+02
 21
-2.29185564E+02
  0
LINE
  8
0
  6
CENTER
 62
6
 10
-3.32852029E+02
 20
-2.26192269E+02
 11
-3.28750050E+02
 21
-2.25320367E+02
  0
LINE
  8
0
 62
6
 10
-3.31334452E+02
 20
-2.27403209E+02
 11
-3.29224241E+02
 21
-2.26954670E+02
  0
LINE
  8
0
 62
4
 10
-3.31081916E+02
 20
-2.23781562E+02
 11
-3.29949852E+02
 21
-2.23540935E+02
  0
LINE
  8
0
 62
4
 10
-3.30252348E+02
 20
-2.27684371E+02
 11
-3.29120285E+02
 21
-2.27443744E+02
  0
LINE
  8
0
 62
4
 10
-3.32006007E+02
 20
-2.24243792E+02
 11
-3.31284553E+02
 21
-2.27637965E+02
  0
LINE
  8
0
 62
4
 10
-3.31081916E+02
 20
-2.23781562E+02
 11
-3.32006007E+02
 21
-2.24243792E+02
  0
LINE
  8
0
 62
4
 10
-3.30252348E+02
 20
-2.27684371E+02
 11
-3.31284553E+02
 21
-2.27637965E+02
  0
LINE
  8
0
 62
6
 10
-3.31958187E+02
 20
-2.24468766E+02
 11
-3.29847976E+02
 21
-2.24020227E+02
  0
LINE
  8
0
 62
4
 10
4.47180761E+01
 20
-2.04169416E+02
 11
4.99625976E+01
 21
-2.20323396E+02
  0
LINE
  8
0
 62
4
 10
3.53746524E+01
 20
-2.14451497E+02
 11
3.41079609E+01
 21
-2.15557675E+02
  0
LINE
  8
0
 62
4
 10
3.69765351E+01
 20
-2.11724966E+02
 11
3.61618677E+01
 21
-2.15557675E+02
  0
ARC
  8
0
 62
4
 10
2.08042887E+01
 20
-2.25282857E+02
 40
1.06241099E+01
 50
6.62608748E+01
 51
1.03059860E+02
  0
LINE
  8
0
 62
4
 10
1.84035703E+01
 20
-2.14933545E+02
 11
1.40019061E+01
 21
-2.13997942E+02
  0
LINE
  8
0
 62
4
 10
3.65914172E+01
 20
-2.11131936E+02
 11
3.61023434E+01
 21
-2.11027980E+02
  0
LINE
  8
0
 62
4
 10
2.70485583E+01
 20
-2.05525347E+02
 11
2.31359679E+01
 21
-2.04693700E+02
  0
LINE
  8
0
 62
4
 10
2.65287790E+01
 20
-2.07970716E+02
 11
2.26161886E+01
 21
-2.07139069E+02
  0
LINE
  8
0
 62
4
 10
2.70485583E+01
 20
-2.05525347E+02
 11
2.65287790E+01
 21
-2.07970716E+02
  0
LINE
  8
0
 62
4
 10
2.31359679E+01
 20
-2.04693700E+02
 11
2.26161886E+01
 21
-2.07139069E+02
  0
LINE
  8
0
 62
4
 10
1.26268009E+01
 20
-2.06038100E+02
 11
1.21377271E+01
 21
-2.05934144E+02
  0
LINE
  8
0
 62
4
 10
1.05702788E+01
 20
-2.04987568E+02
 11
1.22624742E+01
 21
-2.05347255E+02
  0
ARC
  8
0
 62
4
 10
1.07798197E+01
 20
-2.04011322E+02
 40
9.98481423E-01
 50
1.81228019E+02
 51
2.57885875E+02
  0
ARC
  8
0
 62
4
 10
3.64874607E+01
 20
-2.11621011E+02
 40
5.00000533E-01
 50
3.48000061E+02
 51
7.79999389E+01
  0
LINE
  8
0
  6
CENTER
 62
6
 10
4.42016268E+01
 20
-2.08660174E+02
 11
7.10048830E+00
 21
-2.00774084E+02
  0
LINE
  8
0
 62
4
 10
3.56865200E+01
 20
-2.12984276E+02
 11
1.22109776E+01
 21
-2.07994395E+02
  0
LINE
  8
0
 62
4
 10
1.18991100E+01
 20
-2.09461617E+02
 11
1.40019061E+01
 21
-2.13997942E+02
  0
LINE
  8
0
 62
4
 10
3.79735486E+01
 20
-2.02224652E+02
 11
3.53746524E+01
 21
-2.14451497E+02
  0
LINE
  8
0
 62
4
 10
3.53746524E+01
 20
-2.14451497E+02
 11
1.18991100E+01
 21
-2.09461617E+02
  0
LINE
  8
0
 62
4
 10
4.47180761E+01
 20
-2.04169416E+02
 11
3.78695927E+01
 21
-2.02713726E+02
  0
ARC
  8
0
 62
4
 10
3.15376981E+01
 20
-1.74785832E+02
 40
7.00000000E+00
 50
4.69793705E+01
 51
1.09020630E+02
  0
LINE
  8
0
 62
4
 10
2.54488886E+01
 20
-1.67358725E+02
 11
4.01211026E+01
 21
-1.70477400E+02
  0
LINE
  8
0
 62
4
 10
2.54488886E+01
 20
-1.67358725E+02
 11
2.02510964E+01
 21
-1.91812415E+02
  0
LINE
  8
0
 62
4
 10
4.01211026E+01
 20
-1.70477400E+02
 11
3.49233104E+01
 21
-1.94931090E+02
  0
LINE
  8
0
 62
4
 10
3.68796056E+01
 20
-1.95346913E+02
 11
1.82948012E+01
 21
-1.91396591E+02
  0
LINE
  8
0
 62
4
 10
3.51312221E+01
 20
-1.93952942E+02
 11
2.04590080E+01
 21
-1.90834267E+02
  0
LINE
  8
0
 62
4
 10
1.82948012E+01
 20
-1.91396591E+02
 11
1.74631544E+01
 21
-1.95309182E+02
  0
LINE
  8
0
 62
4
 10
3.68796056E+01
 20
-1.95346913E+02
 11
3.60479588E+01
 21
-1.99259504E+02
  0
LINE
  8
0
 62
4
 10
3.60479588E+01
 20
-1.99259504E+02
 11
1.74631544E+01
 21
-1.95309182E+02
  0
LINE
  8
0
 62
4
 10
3.39427033E+01
 20
-1.68211948E+02
 11
3.30968632E+01
 21
-1.67450841E+02
  0
LINE
  8
0
 62
4
 10
3.30968632E+01
 20
-1.67450841E+02
 11
3.20146249E+01
 21
-1.67802098E+02
  0
LINE
  8
0
 62
4
 10
1.42900945E+01
 20
-1.98212919E+02
 11
1.38010207E+01
 21
-1.98108963E+02
  0
LINE
  8
0
 62
4
 10
1.36762737E+01
 20
-1.98695852E+02
 11
1.19840783E+01
 21
-1.98336165E+02
  0
ARC
  8
0
 62
4
 10
1.69426169E+01
 20
-1.97753383E+02
 40
2.49901570E+00
 50
7.79774280E+01
 51
1.68022572E+02
  0
ARC
  8
0
 62
4
 10
1.17793105E+01
 20
-1.99311003E+02
 40
9.96112687E-01
 50
7.81373153E+01
 51
1.55469858E+02
  0
LINE
  8
0
 62
4
 10
3.00348521E+01
 20
-1.96959038E+02
 11
3.01790735E+01
 21
-1.98012034E+02
  0
LINE
  8
0
 62
4
 10
2.33320403E+01
 20
-1.96556652E+02
 11
2.38920852E+01
 21
-1.95653353E+02
  0
LINE
  8
0
  6
CENTER
 62
6
 10
2.73142693E+01
 20
-1.94655808E+02
 11
2.64457685E+01
 21
-1.98741783E+02
  0
LINE
  8
0
 62
4
 10
2.38920852E+01
 20
-1.95653353E+02
 11
3.00348521E+01
 21
-1.96959038E+02
  0
ARC
  8
0
 62
4
 10
3.55281579E+01
 20
-2.01704887E+02
 40
2.50001831E+00
 50
3.48000420E+02
 51
7.79995802E+01
  0
ARC
  8
0
 62
4
 10
2.15876195E+01
 20
-2.03831622E+02
 40
1.18077645E+01
 50
1.55273304E+02
 51
1.80975855E+02
  0
LINE
  8
0
 62
4
 10
1.38010207E+01
 20
-1.98108963E+02
 11
1.21377271E+01
 21
-2.05934144E+02
  0
LINE
  8
0
 62
4
 10
1.44980062E+01
 20
-1.97234771E+02
 11
1.18991100E+01
 21
-2.09461617E+02
  0
LINE
  8
0
 62
6
 10
5.06632880E+01
 20
-2.27403209E+02
 11
4.85530768E+01
 21
-2.26954670E+02
  0
LINE
  8
0
 62
4
 10
5.04107522E+01
 20
-2.23781562E+02
 11
4.92786886E+01
 21
-2.23540935E+02
  0
LINE
  8
0
 62
4
 10
4.95811845E+01
 20
-2.27684371E+02
 11
4.84491210E+01
 21
-2.27443744E+02
  0
LINE
  8
0
 62
4
 10
5.13348427E+01
 20
-2.24243792E+02
 11
5.06133892E+01
 21
-2.27637965E+02
  0
LINE
  8
0
 62
4
 10
5.04107522E+01
 20
-2.23781562E+02
 11
5.13348427E+01
 21
-2.24243792E+02
  0
LINE
  8
0
 62
4
 10
4.95811845E+01
 20
-2.27684371E+02
 11
5.06133892E+01
 21
-2.27637965E+02
  0
LINE
  8
0
 62
6
 10
5.12870230E+01
 20
-2.24468766E+02
 11
4.91768119E+01
 21
-2.24020227E+02
  0
LINE
  8
0
  6
CENTER
 62
6
 10
5.21808647E+01
 20
-2.26192269E+02
 11
4.80788857E+01
 21
-2.25320367E+02
  0
LINE
  8
0
 62
4
 10
4.99625976E+01
 20
-2.20323396E+02
 11
4.80332976E+01
 21
-2.29400039E+02
  0
ARC
  8
0
 62
4
 10
-9.32494489E+01
 20
-1.12119245E+02
 40
1.49950029E+00
 50
2.69980903E+02
 51
1.90971113E-02
  0
ARC
  8
0
 62
4
 10
-1.29250452E+02
 20
-1.12119248E+02
 40
1.49949647E+00
 50
1.79980757E+02
 51
2.70019243E+02
  0
LINE
  8
0
 62
4
 10
-1.28249949E+02
 20
-1.11173376E+02
 11
-1.09249949E+02
 21
-1.11173376E+02
  0
POLYLINE
  8
0
 62
4
 66
1
  0
VERTEX
  8
0
 62
4
 10
-9.96099490E+01
 20
-1.01673062E+02
  0
VERTEX
  8
0
 62
4
 10
-9.96218976E+01
 20
-1.01405373E+02
  0
VERTEX
  8
0
 62
4
 10
-9.96576527E+01
 20
-1.01139722E+02
  0
VERTEX
  8
0
 62
4
 10
-9.97169419E+01
 20
-1.00878129E+02
  0
VERTEX
  8
0
 62
4
 10
-9.97993142E+01
 20
-1.00622587E+02
  0
VERTEX
  8
0
 62
4
 10
-9.99041425E+01
 20
-1.00375039E+02
  0
VERTEX
  8
0
 62
4
 10
-1.00030629E+02
 20
-1.00137370E+02
  0
VERTEX
  8
0
 62
4
 10
-1.00177812E+02
 20
-9.99113888E+01
  0
VERTEX
  8
0
 62
4
 10
-1.00344569E+02
 20
-9.96988148E+01
  0
VERTEX
  8
0
 62
4
 10
-1.00529634E+02
 20
-9.95012659E+01
  0
VERTEX
  8
0
 62
4
 10
-1.00731596E+02
 20
-9.93202458E+01
  0
VERTEX
  8
0
 62
4
 10
-1.00948919E+02
 20
-9.91571320E+01
  0
VERTEX
  8
0
 62
4
 10
-1.01179949E+02
 20
-9.90131659E+01
  0
VERTEX
  8
0
 62
4
 10
-1.01422928E+02
 20
-9.88894432E+01
  0
VERTEX
  8
0
 62
4
 10
-1.01676006E+02
 20
-9.87869056E+01
  0
VERTEX
  8
0
 62
4
 10
-1.01937257E+02
 20
-9.87063334E+01
  0
VERTEX
  8
0
 62
4
 10
-1.02204694E+02
 20
-9.86483397E+01
  0
VERTEX
  8
0
 62
4
 10
-1.02476280E+02
 20
-9.86133661E+01
  0
VERTEX
  8
0
 62
4
 10
-1.02749949E+02
 20
-9.86016785E+01
  0
VERTEX
  8
0
 62
4
 10
-1.03023618E+02
 20
-9.86133661E+01
  0
VERTEX
  8
0
 62
4
 10
-1.03295204E+02
 20
-9.86483397E+01
  0
VERTEX
  8
0
 62
4
 10
-1.03562641E+02
 20
-9.87063334E+01
  0
VERTEX
  8
0
 62
4
 10
-1.03823892E+02
 20
-9.87869056E+01
  0
VERTEX
  8
0
 62
4
 10
-1.04076970E+02
 20
-9.88894432E+01
  0
VERTEX
  8
0
 62
4
 10
-1.04319949E+02
 20
-9.90131659E+01
  0
VERTEX
  8
0
 62
4
 10
-1.04550979E+02
 20
-9.91571320E+01
  0
VERTEX
  8
0
 62
4
 10
-1.04768302E+02
 20
-9.93202458E+01
  0
VERTEX
  8
0
 62
4
 10
-1.04970264E+02
 20
-9.95012659E+01
  0
VERTEX
  8
0
 62
4
 10
-1.05155329E+02
 20
-9.96988148E+01
  0
VERTEX
  8
0
 62
4
 10
-1.05322086E+02
 20
-9.99113888E+01
  0
VERTEX
  8
0
 62
4
 10
-1.05469269E+02
 20
-1.00137370E+02
  0
VERTEX
  8
0
 62
4
 10
-1.05595755E+02
 20
-1.00375039E+02
  0
VERTEX
  8
0
 62
4
 10
-1.05700584E+02
 20
-1.00622587E+02
  0
VERTEX
  8
0
 62
4
 10
-1.05782956E+02
 20
-1.00878129E+02
  0
VERTEX
  8
0
 62
4
 10
-1.05842245E+02
 20
-1.01139722E+02
  0
VERTEX
  8
0
 62
4
 10
-1.05878000E+02
 20
-1.01405373E+02
  0
VERTEX
  8
0
 62
4
 10
-1.05889949E+02
 20
-1.01673062E+02
  0
VERTEX
  8
0
 62
4
 10
-1.05878000E+02
 20
-1.01940751E+02
  0
VERTEX
  8
0
 62
4
 10
-1.05842245E+02
 20
-1.02206402E+02
  0
VERTEX
  8
0
 62
4
 10
-1.05782956E+02
 20
-1.02467995E+02
  0
VERTEX
  8
0
 62
4
 10
-1.05700584E+02
 20
-1.02723537E+02
  0
VERTEX
  8
0
 62
4
 10
-1.05595755E+02
 20
-1.02971085E+02
  0
VERTEX
  8
0
 62
4
 10
-1.05469269E+02
 20
-1.03208754E+02
  0
VERTEX
  8
0
 62
4
 10
-1.05322086E+02
 20
-1.03434735E+02
  0
VERTEX
  8
0
 62
4
 10
-1.05155329E+02
 20
-1.03647309E+02
  0
VERTEX
  8
0
 62
4
 10
-1.04970264E+02
 20
-1.03844858E+02
  0
VERTEX
  8
0
 62
4
 10
-1.04768302E+02
 20
-1.04025878E+02
  0
VERTEX
  8
0
 62
4
 10
-1.04550979E+02
 20
-1.04188992E+02
  0
VERTEX
  8
0
 62
4
 10
-1.04319949E+02
 20
-1.04332958E+02
  0
VERTEX
  8
0
 62
4
 10
-1.04076970E+02
 20
-1.04456681E+02
  0
VERTEX
  8
0
 62
4
 10
-1.03823892E+02
 20
-1.04559218E+02
  0
VERTEX
  8
0
 62
4
 10
-1.03562641E+02
 20
-1.04639791E+02
  0
VERTEX
  8
0
 62
4
 10
-1.03295204E+02
 20
-1.04697784E+02
  0
VERTEX
  8
0
 62
4
 10
-1.03023618E+02
 20
-1.04732758E+02
  0
VERTEX
  8
0
 62
4
 10
-1.02749949E+02
 20
-1.04744445E+02
  0
VERTEX
  8
0
 62
4
 10
-1.02476280E+02
 20
-1.04732758E+02
  0
VERTEX
  8
0
 62
4
 10
-1.02204694E+02
 20
-1.04697784E+02
  0
VERTEX
  8
0
 62
4
 10
-1.01937257E+02
 20
-1.04639791E+02
  0
VERTEX
  8
0
 62
4
 10
-1.01676006E+02
 20
-1.04559218E+02
  0
VERTEX
  8
0
 62
4
 10
-1.01422928E+02
 20
-1.04456681E+02
  0
VERTEX
  8
0
 62
4
 10
-1.01179949E+02
 20
-1.04332958E+02
  0
VERTEX
  8
0
 62
4
 10
-1.00948919E+02
 20
-1.04188992E+02
  0
VERTEX
  8
0
 62
4
 10
-1.00731596E+02
 20
-1.04025878E+02
  0
VERTEX
  8
0
 62
4
 10
-1.00529634E+02
 20
-1.03844858E+02
  0
VERTEX
  8
0
 62
4
 10
-1.00344569E+02
 20
-1.03647309E+02
  0
VERTEX
  8
0
 62
4
 10
-1.00177812E+02
 20
-1.03434735E+02
  0
VERTEX
  8
0
 62
4
 10
-1.00030629E+02
 20
-1.03208754E+02
  0
VERTEX
  8
0
 62
4
 10
-9.99041425E+01
 20
-1.02971085E+02
  0
VERTEX
  8
0
 62
4
 10
-9.97993142E+01
 20
-1.02723537E+02
  0
VERTEX
  8
0
 62
4
 10
-9.97169419E+01
 20
-1.02467995E+02
  0
VERTEX
  8
0
 62
4
 10
-9.96576527E+01
 20
-1.02206402E+02
  0
VERTEX
  8
0
 62
4
 10
-9.96218976E+01
 20
-1.01940751E+02
  0
VERTEX
  8
0
 62
4
 10
-9.96099490E+01
 20
-1.01673062E+02
  0
SEQEND
  8
0
  0
POLYLINE
  8
0
 62
4
 66
1
  0
VERTEX
  8
0
 62
4
 10
-9.92499490E+01
 20
-1.01880973E+02
  0
VERTEX
  8
0
 62
4
 10
-9.92632676E+01
 20
-1.01582594E+02
  0
VERTEX
  8
0
 62
4
 10
-9.93031219E+01
 20
-1.01286486E+02
  0
VERTEX
  8
0
 62
4
 10
-9.93692086E+01
 20
-1.00994902E+02
  0
VERTEX
  8
0
 62
4
 10
-9.94610248E+01
 20
-1.00710061E+02
  0
VERTEX
  8
0
 62
4
 10
-9.95778717E+01
 20
-1.00434132E+02
  0
VERTEX
  8
0
 62
4
 10
-9.97188601E+01
 20
-1.00169215E+02
  0
VERTEX
  8
0
 62
4
 10
-9.98829168E+01
 20
-9.99173245E+01
  0
VERTEX
  8
0
 62
4
 10
-1.00068793E+02
 20
-9.96803789E+01
  0
VERTEX
  8
0
 62
4
 10
-1.00275075E+02
 20
-9.94601812E+01
  0
VERTEX
  8
0
 62
4
 10
-1.00500192E+02
 20
-9.92584071E+01
  0
VERTEX
  8
0
 62
4
 10
-1.00742431E+02
 20
-9.90765924E+01
  0
VERTEX
  8
0
 62
4
 10
-1.00999949E+02
 20
-9.89161207E+01
  0
VERTEX
  8
0
 62
4
 10
-1.01270785E+02
 20
-9.87782132E+01
  0
VERTEX
  8
0
 62
4
 10
-1.01552879E+02
 20
-9.86639197E+01
  0
VERTEX
  8
0
 62
4
 10
-1.01844082E+02
 20
-9.85741099E+01
  0
VERTEX
  8
0
 62
4
 10
-1.02142180E+02
 20
-9.85094673E+01
  0
VERTEX
  8
0
 62
4
 10
-1.02444904E+02
 20
-9.84704839E+01
  0
VERTEX
  8
0
 62
4
 10
-1.02749949E+02
 20
-9.84574564E+01
  0
VERTEX
  8
0
 62
4
 10
-1.03054994E+02
 20
-9.84704839E+01
  0
VERTEX
  8
0
 62
4
 10
-1.03357718E+02
 20
-9.85094673E+01
  0
VERTEX
  8
0
 62
4
 10
-1.03655816E+02
 20
-9.85741099E+01
  0
VERTEX
  8
0
 62
4
 10
-1.03947020E+02
 20
-9.86639197E+01
  0
VERTEX
  8
0
 62
4
 10
-1.04229113E+02
 20
-9.87782132E+01
  0
VERTEX
  8
0
 62
4
 10
-1.04499949E+02
 20
-9.89161207E+01
  0
VERTEX
  8
0
 62
4
 10
-1.04757467E+02
 20
-9.90765924E+01
  0
VERTEX
  8
0
 62
4
 10
-1.04999706E+02
 20
-9.92584071E+01
  0
VERTEX
  8
0
 62
4
 10
-1.05224823E+02
 20
-9.94601812E+01
  0
VERTEX
  8
0
 62
4
 10
-1.05431105E+02
 20
-9.96803790E+01
  0
VERTEX
  8
0
 62
4
 10
-1.05616981E+02
 20
-9.99173246E+01
  0
VERTEX
  8
0
 62
4
 10
-1.05781038E+02
 20
-1.00169215E+02
  0
VERTEX
  8
0
 62
4
 10
-1.05922026E+02
 20
-1.00434132E+02
  0
VERTEX
  8
0
 62
4
 10
-1.06038873E+02
 20
-1.00710061E+02
  0
VERTEX
  8
0
 62
4
 10
-1.06130689E+02
 20
-1.00994902E+02
  0
VERTEX
  8
0
 62
4
 10
-1.06196776E+02
 20
-1.01286486E+02
  0
VERTEX
  8
0
 62
4
 10
-1.06236630E+02
 20
-1.01582594E+02
  0
VERTEX
  8
0
 62
4
 10
-1.06249949E+02
 20
-1.01880973E+02
  0
VERTEX
  8
0
 62
4
 10
-1.06236630E+02
 20
-1.02179352E+02
  0
VERTEX
  8
0
 62
4
 10
-1.06196776E+02
 20
-1.02475460E+02
  0
VERTEX
  8
0
 62
4
 10
-1.06130689E+02
 20
-1.02767044E+02
  0
VERTEX
  8
0
 62
4
 10
-1.06038873E+02
 20
-1.03051885E+02
  0
VERTEX
  8
0
 62
4
 10
-1.05922026E+02
 20
-1.03327814E+02
  0
VERTEX
  8
0
 62
4
 10
-1.05781038E+02
 20
-1.03592731E+02
  0
VERTEX
  8
0
 62
4
 10
-1.05616981E+02
 20
-1.03844621E+02
  0
VERTEX
  8
0
 62
4
 10
-1.05431105E+02
 20
-1.04081567E+02
  0
VERTEX
  8
0
 62
4
 10
-1.05224823E+02
 20
-1.04301765E+02
  0
VERTEX
  8
0
 62
4
 10
-1.04999706E+02
 20
-1.04503539E+02
  0
VERTEX
  8
0
 62
4
 10
-1.04757467E+02
 20
-1.04685354E+02
  0
VERTEX
  8
0
 62
4
 10
-1.04499949E+02
 20
-1.04845825E+02
  0
VERTEX
  8
0
 62
4
 10
-1.04229113E+02
 20
-1.04983733E+02
  0
VERTEX
  8
0
 62
4
 10
-1.03947019E+02
 20
-1.05098026E+02
  0
VERTEX
  8
0
 62
4
 10
-1.03655816E+02
 20
-1.05187836E+02
  0
VERTEX
  8
0
 62
4
 10
-1.03357718E+02
 20
-1.05252479E+02
  0
VERTEX
  8
0
 62
4
 10
-1.03054994E+02
 20
-1.05291462E+02
  0
VERTEX
  8
0
 62
4
 10
-1.02749949E+02
 20
-1.05304490E+02
  0
VERTEX
  8
0
 62
4
 10
-1.02444904E+02
 20
-1.05291462E+02
  0
VERTEX
  8
0
 62
4
 10
-1.02142180E+02
 20
-1.05252479E+02
  0
VERTEX
  8
0
 62
4
 10
-1.01844082E+02
 20
-1.05187836E+02
  0
VERTEX
  8
0
 62
4
 10
-1.01552878E+02
 20
-1.05098026E+02
  0
VERTEX
  8
0
 62
4
 10
-1.01270785E+02
 20
-1.04983733E+02
  0
VERTEX
  8
0
 62
4
 10
-1.00999949E+02
 20
-1.04845825E+02
  0
VERTEX
  8
0
 62
4
 10
-1.00742431E+02
 20
-1.04685354E+02
  0
VERTEX
  8
0
 62
4
 10
-1.00500192E+02
 20
-1.04503539E+02
  0
VERTEX
  8
0
 62
4
 10
-1.00275075E+02
 20
-1.04301765E+02
  0
VERTEX
  8
0
 62
4
 10
-1.00068793E+02
 20
-1.04081567E+02
  0
VERTEX
  8
0
 62
4
 10
-9.98829168E+01
 20
-1.03844621E+02
  0
VERTEX
  8
0
 62
4
 10
-9.97188601E+01
 20
-1.03592731E+02
  0
VERTEX
  8
0
 62
4
 10
-9.95778717E+01
 20
-1.03327814E+02
  0
VERTEX
  8
0
 62
4
 10
-9.94610248E+01
 20
-1.03051885E+02
  0
VERTEX
  8
0
 62
4
 10
-9.93692086E+01
 20
-1.02767044E+02
  0
VERTEX
  8
0
 62
4
 10
-9.93031219E+01
 20
-1.02475460E+02
  0
VERTEX
  8
0
 62
4
 10
-9.92632676E+01
 20
-1.02179352E+02
  0
VERTEX
  8
0
 62
4
 10
-9.92499490E+01
 20
-1.01880973E+02
  0
SEQEND
  8
0
  0
ARC
  8
0
 62
4
 10
-1.14514354E+02
 20
-1.07186475E+02
 40
1.21769740E+01
 50
2.40462101E+02
 51
2.53021762E+02
  0
ARC
  8
0
 62
4
 10
-1.22985544E+02
 20
-1.07186475E+02
 40
1.21769740E+01
 50
2.86978238E+02
 51
2.99537899E+02
  0
POLYLINE
  8
0
 62
4
 66
1
  0
VERTEX
  8
0
 62
4
 10
-1.15349949E+02
 20
-1.17753707E+02
  0
VERTEX
  8
0
 62
4
 10
-1.15362887E+02
 20
-1.17657726E+02
  0
VERTEX
  8
0
 62
4
 10
-1.15401603E+02
 20
-1.17562476E+02
  0
VERTEX
  8
0
 62
4
 10
-1.15465801E+02
 20
-1.17468681E+02
  0
VERTEX
  8
0
 62
4
 10
-1.15554994E+02
 20
-1.17377055E+02
  0
VERTEX
  8
0
 62
4
 10
-1.15668503E+02
 20
-1.17288296E+02
  0
VERTEX
  8
0
 62
4
 10
-1.15805463E+02
 20
-1.17203079E+02
  0
VERTEX
  8
0
 62
4
 10
-1.15964832E+02
 20
-1.17122053E+02
  0
VERTEX
  8
0
 62
4
 10
-1.16145398E+02
 20
-1.17045834E+02
  0
VERTEX
  8
0
 62
4
 10
-1.16345786E+02
 20
-1.16975002E+02
  0
VERTEX
  8
0
 62
4
 10
-1.16564471E+02
 20
-1.16910096E+02
  0
VERTEX
  8
0
 62
4
 10
-1.16799789E+02
 20
-1.16851611E+02
  0
VERTEX
  8
0
 62
4
 10
-1.17049949E+02
 20
-1.16799992E+02
  0
VERTEX
  8
0
 62
4
 10
-1.17313047E+02
 20
-1.16755631E+02
  0
VERTEX
  8
0
 62
4
 10
-1.17587081E+02
 20
-1.16718865E+02
  0
VERTEX
  8
0
 62
4
 10
-1.17869964E+02
 20
-1.16689976E+02
  0
VERTEX
  8
0
 62
4
 10
-1.18159545E+02
 20
-1.16669182E+02
  0
VERTEX
  8
0
 62
4
 10
-1.18453619E+02
 20
-1.16656642E+02
  0
VERTEX
  8
0
 62
4
 10
-1.18749949E+02
 20
-1.16652452E+02
  0
VERTEX
  8
0
 62
4
 10
-1.19046279E+02
 20
-1.16656642E+02
  0
VERTEX
  8
0
 62
4
 10
-1.19340353E+02
 20
-1.16669182E+02
  0
VERTEX
  8
0
 62
4
 10
-1.19629934E+02
 20
-1.16689976E+02
  0
VERTEX
  8
0
 62
4
 10
-1.19912817E+02
 20
-1.16718865E+02
  0
VERTEX
  8
0
 62
4
 10
-1.20186851E+02
 20
-1.16755631E+02
  0
VERTEX
  8
0
 62
4
 10
-1.20449949E+02
 20
-1.16799992E+02
  0
VERTEX
  8
0
 62
4
 10
-1.20700109E+02
 20
-1.16851611E+02
  0
VERTEX
  8
0
 62
4
 10
-1.20935427E+02
 20
-1.16910096E+02
  0
VERTEX
  8
0
 62
4
 10
-1.21154112E+02
 20
-1.16975002E+02
  0
VERTEX
  8
0
 62
4
 10
-1.21354500E+02
 20
-1.17045834E+02
  0
VERTEX
  8
0
 62
4
 10
-1.21535066E+02
 20
-1.17122053E+02
  0
VERTEX
  8
0
 62
4
 10
-1.21694435E+02
 20
-1.17203079E+02
  0
VERTEX
  8
0
 62
4
 10
-1.21831395E+02
 20
-1.17288296E+02
  0
VERTEX
  8
0
 62
4
 10
-1.21944904E+02
 20
-1.17377055E+02
  0
VERTEX
  8
0
 62
4
 10
-1.22034097E+02
 20
-1.17468681E+02
  0
VERTEX
  8
0
 62
4
 10
-1.22098295E+02
 20
-1.17562476E+02
  0
VERTEX
  8
0
 62
4
 10
-1.22137011E+02
 20
-1.17657726E+02
  0
VERTEX
  8
0
 62
4
 10
-1.22149949E+02
 20
-1.17753707E+02
  0
VERTEX
  8
0
 62
4
 10
-1.22137011E+02
 20
-1.17849688E+02
  0
VERTEX
  8
0
 62
4
 10
-1.22098295E+02
 20
-1.17944938E+02
  0
VERTEX
  8
0
 62
4
 10
-1.22034097E+02
 20
-1.18038733E+02
  0
VERTEX
  8
0
 62
4
 10
-1.21944904E+02
 20
-1.18130359E+02
  0
VERTEX
  8
0
 62
4
 10
-1.21831395E+02
 20
-1.18219118E+02
  0
VERTEX
  8
0
 62
4
 10
-1.21694435E+02
 20
-1.18304335E+02
  0
VERTEX
  8
0
 62
4
 10
-1.21535066E+02
 20
-1.18385361E+02
  0
VERTEX
  8
0
 62
4
 10
-1.21354500E+02
 20
-1.18461580E+02
  0
VERTEX
  8
0
 62
4
 10
-1.21154112E+02
 20
-1.18532412E+02
  0
VERTEX
  8
0
 62
4
 10
-1.20935427E+02
 20
-1.18597318E+02
  0
VERTEX
  8
0
 62
4
 10
-1.20700109E+02
 20
-1.18655803E+02
  0
VERTEX
  8
0
 62
4
 10
-1.20449949E+02
 20
-1.18707422E+02
  0
VERTEX
  8
0
 62
4
 10
-1.20186851E+02
 20
-1.18751783E+02
  0
VERTEX
  8
0
 62
4
 10
-1.19912817E+02
 20
-1.18788549E+02
  0
VERTEX
  8
0
 62
4
 10
-1.19629934E+02
 20
-1.18817438E+02
  0
VERTEX
  8
0
 62
4
 10
-1.19340353E+02
 20
-1.18838232E+02
  0
VERTEX
  8
0
 62
4
 10
-1.19046279E+02
 20
-1.18850772E+02
  0
VERTEX
  8
0
 62
4
 10
-1.18749949E+02
 20
-1.18854962E+02
  0
VERTEX
  8
0
 62
4
 10
-1.18453619E+02
 20
-1.18850772E+02
  0
VERTEX
  8
0
 62
4
 10
-1.18159545E+02
 20
-1.18838232E+02
  0
VERTEX
  8
0
 62
4
 10
-1.17869964E+02
 20
-1.18817438E+02
  0
VERTEX
  8
0
 62
4
 10
-1.17587081E+02
 20
-1.18788549E+02
  0
VERTEX
  8
0
 62
4
 10
-1.17313047E+02
 20
-1.18751783E+02
  0
VERTEX
  8
0
 62
4
 10
-1.17049949E+02
 20
-1.18707422E+02
  0
VERTEX
  8
0
 62
4
 10
-1.16799789E+02
 20
-1.18655803E+02
  0
VERTEX
  8
0
 62
4
 10
-1.16564471E+02
 20
-1.18597318E+02
  0
VERTEX
  8
0
 62
4
 10
-1.16345786E+02
 20
-1.18532412E+02
  0
VERTEX
  8
0
 62
4
 10
-1.16145398E+02
 20
-1.18461580E+02
  0
VERTEX
  8
0
 62
4
 10
-1.15964832E+02
 20
-1.18385361E+02
  0
VERTEX
  8
0
 62
4
 10
-1.15805463E+02
 20
-1.18304335E+02
  0
VERTEX
  8
0
 62
4
 10
-1.15668503E+02
 20
-1.18219118E+02
  0
VERTEX
  8
0
 62
4
 10
-1.15554994E+02
 20
-1.18130359E+02
  0
VERTEX
  8
0
 62
4
 10
-1.15465801E+02
 20
-1.18038733E+02
  0
VERTEX
  8
0
 62
4
 10
-1.15401603E+02
 20
-1.17944938E+02
  0
VERTEX
  8
0
 62
4
 10
-1.15362887E+02
 20
-1.17849688E+02
  0
VERTEX
  8
0
 62
4
 10
-1.15349949E+02
 20
-1.17753707E+02
  0
SEQEND
  8
0
  0
POLYLINE
  8
0
 62
4
 66
1
  0
VERTEX
  8
0
 62
4
 10
-1.14749949E+02
 20
-1.15178083E+02
  0
VERTEX
  8
0
 62
4
 10
-1.14766052E+02
 20
-1.15103535E+02
  0
VERTEX
  8
0
 62
4
 10
-1.14814231E+02
 20
-1.15029587E+02
  0
VERTEX
  8
0
 62
4
 10
-1.14894098E+02
 20
-1.14956834E+02
  0
VERTEX
  8
0
 62
4
 10
-1.15005010E+02
 20
-1.14885863E+02
  0
VERTEX
  8
0
 62
4
 10
-1.15146074E+02
 20
-1.14817245E+02
  0
VERTEX
  8
0
 62
4
 10
-1.15316154E+02
 20
-1.14751532E+02
  0
VERTEX
  8
0
 62
4
 10
-1.15513881E+02
 20
-1.14689253E+02
  0
VERTEX
  8
0
 62
4
 10
-1.15737663E+02
 20
-1.14630910E+02
  0
VERTEX
  8
0
 62
4
 10
-1.15985698E+02
 20
-1.14576973E+02
  0
VERTEX
  8
0
 62
4
 10
-1.16255990E+02
 20
-1.14527875E+02
  0
VERTEX
  8
0
 62
4
 10
-1.16546361E+02
 20
-1.14484013E+02
  0
VERTEX
  8
0
 62
4
 10
-1.16854474E+02
 20
-1.14445739E+02
  0
VERTEX
  8
0
 62
4
 10
-1.17177849E+02
 20
-1.14413361E+02
  0
VERTEX
  8
0
 62
4
 10
-1.17513881E+02
 20
-1.14387140E+02
  0
VERTEX
  8
0
 62
4
 10
-1.17859865E+02
 20
-1.14367287E+02
  0
VERTEX
  8
0
 62
4
 10
-1.18213016E+02
 20
-1.14353963E+02
  0
VERTEX
  8
0
 62
4
 10
-1.18570490E+02
 20
-1.14347274E+02
  0
VERTEX
  8
0
 62
4
 10
-1.18929408E+02
 20
-1.14347274E+02
  0
VERTEX
  8
0
 62
4
 10
-1.19286882E+02
 20
-1.14353963E+02
  0
VERTEX
  8
0
 62
4
 10
-1.19640033E+02
 20
-1.14367287E+02
  0
VERTEX
  8
0
 62
4
 10
-1.19986017E+02
 20
-1.14387140E+02
  0
VERTEX
  8
0
 62
4
 10
-1.20322049E+02
 20
-1.14413361E+02
  0
VERTEX
  8
0
 62
4
 10
-1.20645424E+02
 20
-1.14445739E+02
  0
VERTEX
  8
0
 62
4
 10
-1.20953537E+02
 20
-1.14484013E+02
  0
VERTEX
  8
0
 62
4
 10
-1.21243908E+02
 20
-1.14527875E+02
  0
VERTEX
  8
0
 62
4
 10
-1.21514200E+02
 20
-1.14576973E+02
  0
VERTEX
  8
0
 62
4
 10
-1.21762235E+02
 20
-1.14630910E+02
  0
VERTEX
  8
0
 62
4
 10
-1.21986017E+02
 20
-1.14689253E+02
  0
VERTEX
  8
0
 62
4
 10
-1.22183744E+02
 20
-1.14751532E+02
  0
VERTEX
  8
0
 62
4
 10
-1.22353824E+02
 20
-1.14817245E+02
  0
VERTEX
  8
0
 62
4
 10
-1.22494888E+02
 20
-1.14885863E+02
  0
VERTEX
  8
0
 62
4
 10
-1.22605800E+02
 20
-1.14956834E+02
  0
VERTEX
  8
0
 62
4
 10
-1.22685667E+02
 20
-1.15029587E+02
  0
VERTEX
  8
0
 62
4
 10
-1.22733846E+02
 20
-1.15103535E+02
  0
VERTEX
  8
0
 62
4
 10
-1.22749949E+02
 20
-1.15178083E+02
  0
SEQEND
  8
0
  0
LINE
  8
0
 62
4
 10
-1.15349949E+02
 20
-1.16737420E+02
 11
-9.32499487E+01
 21
-1.16737420E+02
  0
ARC
  8
0
 62
4
 10
-1.29250452E+02
 20
-1.15237924E+02
 40
1.49949647E+00
 50
1.79980757E+02
 51
2.70019243E+02
  0
ARC
  8
0
 62
4
 10
-9.32494489E+01
 20
-1.15237920E+02
 40
1.49950029E+00
 50
2.69980903E+02
 51
1.90971113E-02
  0
LINE
  8
0
 62
4
 10
-1.29249949E+02
 20
-1.16737420E+02
 11
-1.22149949E+02
 21
-1.16737420E+02
  0
POLYLINE
  8
0
 62
4
 66
1
  0
VERTEX
  8
0
 62
4
 10
-1.15349949E+02
 20
-1.15667148E+02
  0
VERTEX
  8
0
 62
4
 10
-1.15363640E+02
 20
-1.15603782E+02
  0
VERTEX
  8
0
 62
4
 10
-1.15404595E+02
 20
-1.15540926E+02
  0
VERTEX
  8
0
 62
4
 10
-1.15472485E+02
 20
-1.15479087E+02
  0
VERTEX
  8
0
 62
4
 10
-1.15566763E+02
 20
-1.15418762E+02
  0
VERTEX
  8
0
 62
4
 10
-1.15686670E+02
 20
-1.15360437E+02
  0
VERTEX
  8
0
 62
4
 10
-1.15831240E+02
 20
-1.15304582E+02
  0
VERTEX
  8
0
 62
4
 10
-1.15999310E+02
 20
-1.15251645E+02
  0
VERTEX
  8
0
 62
4
 10
-1.16189527E+02
 20
-1.15202054E+02
  0
VERTEX
  8
0
 62
4
 10
-1.16400358E+02
 20
-1.15156208E+02
  0
VERTEX
  8
0
 62
4
 10
-1.16630106E+02
 20
-1.15114476E+02
  0
VERTEX
  8
0
 62
4
 10
-1.16876923E+02
 20
-1.15077193E+02
  0
VERTEX
  8
0
 62
4
 10
-1.17138819E+02
 20
-1.15044661E+02
  0
VERTEX
  8
0
 62
4
 10
-1.17413687E+02
 20
-1.15017140E+02
  0
VERTEX
  8
0
 62
4
 10
-1.17699314E+02
 20
-1.14994853E+02
  0
VERTEX
  8
0
 62
4
 10
-1.17993401E+02
 20
-1.14977979E+02
  0
VERTEX
  8
0
 62
4
 10
-1.18293578E+02
 20
-1.14966653E+02
  0
VERTEX
  8
0
 62
4
 10
-1.18597430E+02
 20
-1.14960968E+02
  0
VERTEX
  8
0
 62
4
 10
-1.18902509E+02
 20
-1.14960968E+02
  0
VERTEX
  8
0
 62
4
 10
-1.19206361E+02
 20
-1.14966654E+02
  0
VERTEX
  8
0
 62
4
 10
-1.19506537E+02
 20
-1.14977981E+02
  0
VERTEX
  8
0
 62
4
 10
-1.19800622E+02
 20
-1.14994855E+02
  0
VERTEX
  8
0
 62
4
 10
-1.20086248E+02
 20
-1.15017143E+02
  0
VERTEX
  8
0
 62
4
 10
-1.20361115E+02
 20
-1.15044665E+02
  0
VERTEX
  8
0
 62
4
 10
-1.20623009E+02
 20
-1.15077198E+02
  0
VERTEX
  8
0
 62
4
 10
-1.20869823E+02
 20
-1.15114481E+02
  0
VERTEX
  8
0
 62
4
 10
-1.21099570E+02
 20
-1.15156214E+02
  0
VERTEX
  8
0
 62
4
 10
-1.21310398E+02
 20
-1.15202061E+02
  0
VERTEX
  8
0
 62
4
 10
-1.21500612E+02
 20
-1.15251652E+02
  0
VERTEX
  8
0
 62
4
 10
-1.21668678E+02
 20
-1.15304589E+02
  0
VERTEX
  8
0
 62
4
 10
-1.21813246E+02
 20
-1.15360445E+02
  0
VERTEX
  8
0
 62
4
 10
-1.21933149E+02
 20
-1.15418770E+02
  0
VERTEX
  8
0
 62
4
 10
-1.22027424E+02
 20
-1.15479095E+02
  0
VERTEX
  8
0
 62
4
 10
-1.22095310E+02
 20
-1.15540935E+02
  0
VERTEX
  8
0
 62
4
 10
-1.22136262E+02
 20
-1.15603790E+02
  0
VERTEX
  8
0
 62
4
 10
-1.22149949E+02
 20
-1.15667156E+02
  0
SEQEND
  8
0
  0
POLYLINE
  8
0
 62
4
 66
1
  0
VERTEX
  8
0
 62
4
 10
-1.15349949E+02
 20
-1.16105253E+02
  0
VERTEX
  8
0
 62
4
 10
-1.15176897E+02
 20
-1.16041010E+02
  0
VERTEX
  8
0
 62
4
 10
-1.15031854E+02
 20
-1.15973836E+02
  0
VERTEX
  8
0
 62
4
 10
-1.14915957E+02
 20
-1.15904258E+02
  0
VERTEX
  8
0
 62
4
 10
-1.14830115E+02
 20
-1.15832821E+02
  0
VERTEX
  8
0
 62
4
 10
-1.14775000E+02
 20
-1.15760086E+02
  0
VERTEX
  8
0
 62
4
 10
-1.14751045E+02
 20
-1.15686622E+02
  0
VERTEX
  8
0
 62
4
 10
-1.14758437E+02
 20
-1.15613006E+02
  0
VERTEX
  8
0
 62
4
 10
-1.14797119E+02
 20
-1.15539814E+02
  0
VERTEX
  8
0
 62
4
 10
-1.14866786E+02
 20
-1.15467621E+02
  0
VERTEX
  8
0
 62
4
 10
-1.14966894E+02
 20
-1.15396991E+02
  0
VERTEX
  8
0
 62
4
 10
-1.15096657E+02
 20
-1.15328480E+02
  0
VERTEX
  8
0
 62
4
 10
-1.15255058E+02
 20
-1.15262623E+02
  0
VERTEX
  8
0
 62
4
 10
-1.15440856E+02
 20
-1.15199937E+02
  0
VERTEX
  8
0
 62
4
 10
-1.15652593E+02
 20
-1.15140914E+02
  0
VERTEX
  8
0
 62
4
 10
-1.15888611E+02
 20
-1.15086016E+02
  0
VERTEX
  8
0
 62
4
 10
-1.16147058E+02
 20
-1.15035674E+02
  0
VERTEX
  8
0
 62
4
 10
-1.16425910E+02
 20
-1.14990282E+02
  0
VERTEX
  8
0
 62
4
 10
-1.16722980E+02
 20
-1.14950195E+02
  0
VERTEX
  8
0
 62
4
 10
-1.17035939E+02
 20
-1.14915729E+02
  0
VERTEX
  8
0
 62
4
 10
-1.17362334E+02
 20
-1.14887154E+02
  0
VERTEX
  8
0
 62
4
 10
-1.17699606E+02
 20
-1.14864693E+02
  0
VERTEX
  8
0
 62
4
 10
-1.18045113E+02
 20
-1.14848522E+02
  0
VERTEX
  8
0
 62
4
 10
-1.18396144E+02
 20
-1.14838769E+02
  0
VERTEX
  8
0
 62
4
 10
-1.18749949E+02
 20
-1.14835509E+02
  0
VERTEX
  8
0
 62
4
 10
-1.19103754E+02
 20
-1.14838769E+02
  0
VERTEX
  8
0
 62
4
 10
-1.19454785E+02
 20
-1.14848522E+02
  0
VERTEX
  8
0
 62
4
 10
-1.19800292E+02
 20
-1.14864693E+02
  0
VERTEX
  8
0
 62
4
 10
-1.20137564E+02
 20
-1.14887154E+02
  0
VERTEX
  8
0
 62
4
 10
-1.20463959E+02
 20
-1.14915729E+02
  0
VERTEX
  8
0
 62
4
 10
-1.20776918E+02
 20
-1.14950195E+02
  0
VERTEX
  8
0
 62
4
 10
-1.21073988E+02
 20
-1.14990282E+02
  0
VERTEX
  8
0
 62
4
 10
-1.21352840E+02
 20
-1.15035674E+02
  0
VERTEX
  8
0
 62
4
 10
-1.21611287E+02
 20
-1.15086016E+02
  0
VERTEX
  8
0
 62
4
 10
-1.21847305E+02
 20
-1.15140914E+02
  0
VERTEX
  8
0
 62
4
 10
-1.22059042E+02
 20
-1.15199937E+02
  0
VERTEX
  8
0
 62
4
 10
-1.22244840E+02
 20
-1.15262623E+02
  0
VERTEX
  8
0
 62
4
 10
-1.22403241E+02
 20
-1.15328480E+02
  0
VERTEX
  8
0
 62
4
 10
-1.22533004E+02
 20
-1.15396991E+02
  0
VERTEX
  8
0
 62
4
 10
-1.22633112E+02
 20
-1.15467621E+02
  0
VERTEX
  8
0
 62
4
 10
-1.22702779E+02
 20
-1.15539814E+02
  0
VERTEX
  8
0
 62
4
 10
-1.22741461E+02
 20
-1.15613006E+02
  0
VERTEX
  8
0
 62
4
 10
-1.22748853E+02
 20
-1.15686622E+02
  0
VERTEX
  8
0
 62
4
 10
-1.22724898E+02
 20
-1.15760086E+02
  0
VERTEX
  8
0
 62
4
 10
-1.22669783E+02
 20
-1.15832821E+02
  0
VERTEX
  8
0
 62
4
 10
-1.22583941E+02
 20
-1.15904258E+02
  0
VERTEX
  8
0
 62
4
 10
-1.22468044E+02
 20
-1.15973836E+02
  0
VERTEX
  8
0
 62
4
 10
-1.22323001E+02
 20
-1.16041010E+02
  0
VERTEX
  8
0
 62
4
 10
-1.22149949E+02
 20
-1.16105253E+02
  0
SEQEND
  8
0
  0
LINE
  8
0
  6
CENTER
 62
6
 10
-1.23799034E+02
 20
-9.58515346E+01
 11
-1.13700864E+02
 21
-9.58515346E+01
  0
LINE
  8
0
  6
CENTER
 62
6
 10
-1.02749949E+02
 20
-9.67237131E+01
 11
-1.02749949E+02
 21
-1.06622410E+02
  0
POLYLINE
  8
0
 62
4
 66
1
  0
VERTEX
  8
0
 62
4
 10
-1.15749949E+02
 20
-9.58515346E+01
  0
VERTEX
  8
0
 62
4
 10
-1.15761365E+02
 20
-9.55957811E+01
  0
VERTEX
  8
0
 62
4
 10
-1.15795526E+02
 20
-9.53419740E+01
  0
VERTEX
  8
0
 62
4
 10
-1.15852172E+02
 20
-9.50920449E+01
  0
VERTEX
  8
0
 62
4
 10
-1.15930871E+02
 20
-9.48478961E+01
  0
VERTEX
  8
0
 62
4
 10
-1.16031026E+02
 20
-9.46113855E+01
  0
VERTEX
  8
0
 62
4
 10
-1.16151873E+02
 20
-9.43843132E+01
  0
VERTEX
  8
0
 62
4
 10
-1.16292493E+02
 20
-9.41684074E+01
  0
VERTEX
  8
0
 62
4
 10
-1.16451816E+02
 20
-9.39653111E+01
  0
VERTEX
  8
0
 62
4
 10
-1.16628629E+02
 20
-9.37765702E+01
  0
VERTEX
  8
0
 62
4
 10
-1.16821586E+02
 20
-9.36036210E+01
  0
VERTEX
  8
0
 62
4
 10
-1.17029220E+02
 20
-9.34477798E+01
  0
VERTEX
  8
0
 62
4
 10
-1.17249949E+02
 20
-9.33102326E+01
  0
VERTEX
  8
0
 62
4
 10
-1.17482094E+02
 20
-9.31920262E+01
  0
VERTEX
  8
0
 62
4
 10
-1.17723889E+02
 20
-9.30940604E+01
  0
VERTEX
  8
0
 62
4
 10
-1.17973492E+02
 20
-9.30170805E+01
  0
VERTEX
  8
0
 62
4
 10
-1.18229004E+02
 20
-9.29616726E+01
  0
VERTEX
  8
0
 62
4
 10
-1.18488482E+02
 20
-9.29282582E+01
  0
VERTEX
  8
0
 62
4
 10
-1.18749949E+02
 20
-9.29170918E+01
  0
VERTEX
  8
0
 62
4
 10
-1.19011416E+02
 20
-9.29282582E+01
  0
VERTEX
  8
0
 62
4
 10
-1.19270894E+02
 20
-9.29616726E+01
  0
VERTEX
  8
0
 62
4
 10
-1.19526406E+02
 20
-9.30170805E+01
  0
VERTEX
  8
0
 62
4
 10
-1.19776009E+02
 20
-9.30940604E+01
  0
VERTEX
  8
0
 62
4
 10
-1.20017804E+02
 20
-9.31920262E+01
  0
VERTEX
  8
0
 62
4
 10
-1.20249949E+02
 20
-9.33102326E+01
  0
VERTEX
  8
0
 62
4
 10
-1.20470678E+02
 20
-9.34477798E+01
  0
VERTEX
  8
0
 62
4
 10
-1.20678312E+02
 20
-9.36036210E+01
  0
VERTEX
  8
0
 62
4
 10
-1.20871269E+02
 20
-9.37765702E+01
  0
VERTEX
  8
0
 62
4
 10
-1.21048082E+02
 20
-9.39653111E+01
  0
VERTEX
  8
0
 62
4
 10
-1.21207405E+02
 20
-9.41684074E+01
  0
VERTEX
  8
0
 62
4
 10
-1.21348025E+02
 20
-9.43843132E+01
  0
VERTEX
  8
0
 62
4
 10
-1.21468872E+02
 20
-9.46113855E+01
  0
VERTEX
  8
0
 62
4
 10
-1.21569027E+02
 20
-9.48478961E+01
  0
VERTEX
  8
0
 62
4
 10
-1.21647726E+02
 20
-9.50920449E+01
  0
VERTEX
  8
0
 62
4
 10
-1.21704372E+02
 20
-9.53419740E+01
  0
VERTEX
  8
0
 62
4
 10
-1.21738533E+02
 20
-9.55957811E+01
  0
VERTEX
  8
0
 62
4
 10
-1.21749949E+02
 20
-9.58515346E+01
  0
VERTEX
  8
0
 62
4
 10
-1.21738533E+02
 20
-9.61072881E+01
  0
VERTEX
  8
0
 62
4
 10
-1.21704372E+02
 20
-9.63610952E+01
  0
VERTEX
  8
0
 62
4
 10
-1.21647726E+02
 20
-9.66110243E+01
  0
VERTEX
  8
0
 62
4
 10
-1.21569027E+02
 20
-9.68551732E+01
  0
VERTEX
  8
0
 62
4
 10
-1.21468872E+02
 20
-9.70916837E+01
  0
VERTEX
  8
0
 62
4
 10
-1.21348025E+02
 20
-9.73187560E+01
  0
VERTEX
  8
0
 62
4
 10
-1.21207405E+02
 20
-9.75346618E+01
  0
VERTEX
  8
0
 62
4
 10
-1.21048082E+02
 20
-9.77377581E+01
  0
VERTEX
  8
0
 62
4
 10
-1.20871269E+02
 20
-9.79264990E+01
  0
VERTEX
  8
0
 62
4
 10
-1.20678312E+02
 20
-9.80994482E+01
  0
VERTEX
  8
0
 62
4
 10
-1.20470678E+02
 20
-9.82552894E+01
  0
VERTEX
  8
0
 62
4
 10
-1.20249949E+02
 20
-9.83928366E+01
  0
VERTEX
  8
0
 62
4
 10
-1.20017804E+02
 20
-9.85110430E+01
  0
VERTEX
  8
0
 62
4
 10
-1.19776009E+02
 20
-9.86090088E+01
  0
VERTEX
  8
0
 62
4
 10
-1.19526406E+02
 20
-9.86859887E+01
  0
VERTEX
  8
0
 62
4
 10
-1.19270894E+02
 20
-9.87413966E+01
  0
VERTEX
  8
0
 62
4
 10
-1.19011416E+02
 20
-9.87748110E+01
  0
VERTEX
  8
0
 62
4
 10
-1.18749949E+02
 20
-9.87859774E+01
  0
VERTEX
  8
0
 62
4
 10
-1.18488482E+02
 20
-9.87748110E+01
  0
VERTEX
  8
0
 62
4
 10
-1.18229004E+02
 20
-9.87413966E+01
  0
VERTEX
  8
0
 62
4
 10
-1.17973492E+02
 20
-9.86859887E+01
  0
VERTEX
  8
0
 62
4
 10
-1.17723889E+02
 20
-9.86090088E+01
  0
VERTEX
  8
0
 62
4
 10
-1.17482094E+02
 20
-9.85110430E+01
  0
VERTEX
  8
0
 62
4
 10
-1.17249949E+02
 20
-9.83928366E+01
  0
VERTEX
  8
0
 62
4
 10
-1.17029220E+02
 20
-9.82552894E+01
  0
VERTEX
  8
0
 62
4
 10
-1.16821586E+02
 20
-9.80994482E+01
  0
VERTEX
  8
0
 62
4
 10
-1.16628629E+02
 20
-9.79264990E+01
  0
VERTEX
  8
0
 62
4
 10
-1.16451816E+02
 20
-9.77377581E+01
  0
VERTEX
  8
0
 62
4
 10
-1.16292493E+02
 20
-9.75346618E+01
  0
VERTEX
  8
0
 62
4
 10
-1.16151873E+02
 20
-9.73187560E+01
  0
VERTEX
  8
0
 62
4
 10
-1.16031026E+02
 20
-9.70916837E+01
  0
VERTEX
  8
0
 62
4
 10
-1.15930871E+02
 20
-9.68551731E+01
  0
VERTEX
  8
0
 62
4
 10
-1.15852172E+02
 20
-9.66110243E+01
  0
VERTEX
  8
0
 62
4
 10
-1.15795526E+02
 20
-9.63610952E+01
  0
VERTEX
  8
0
 62
4
 10
-1.15761365E+02
 20
-9.61072881E+01
  0
VERTEX
  8
0
 62
4
 10
-1.15749949E+02
 20
-9.58515346E+01
  0
SEQEND
  8
0
  0
LINE
  8
0
  6
CENTER
 62
6
 10
-1.07699297E+02
 20
-1.01673062E+02
 11
-9.78006002E+01
 21
-1.01673062E+02
  0
LINE
  8
0
 62
4
 10
-1.26249949E+02
 20
-1.08385434E+02
 11
-1.11249949E+02
 21
-1.08385434E+02
  0
LINE
  8
0
 62
4
 10
-1.45749949E+02
 20
-1.04238712E+02
 11
-1.40749949E+02
 21
-1.04238712E+02
  0
LINE
  8
0
 62
4
 10
-1.35749949E+02
 20
-9.05997780E+01
 11
-1.35749949E+02
 21
-1.03599778E+02
  0
ARC
  8
0
 62
4
 10
-1.35249449E+02
 20
-9.06002781E+01
 40
5.00500378E-01
 50
9.00572530E+01
 51
1.79942747E+02
  0
LINE
  8
0
 62
4
 10
-1.26249949E+02
 20
-9.00997780E+01
 11
-1.35249949E+02
 21
-9.00997780E+01
  0
LINE
  8
0
 62
4
 10
-1.45749949E+02
 20
-1.02677295E+02
 11
-1.40749949E+02
 21
-1.02677295E+02
  0
LINE
  8
0
 62
4
 10
-1.45749949E+02
 20
-9.55396671E+01
 11
-1.40749949E+02
 21
-9.55396671E+01
  0
LINE
  8
0
 62
4
 10
-1.11249949E+02
 20
-9.06083541E+01
 11
-9.32499487E+01
 21
-9.06083541E+01
  0
LINE
  8
0
  6
CENTER
 62
6
 10
-1.14749949E+02
 20
-7.60416875E+01
 11
-1.14749949E+02
 21
-8.65416875E+01
  0
LINE
  8
0
 62
4
 10
-1.12749949E+02
 20
-7.83016875E+01
 11
-1.12749949E+02
 21
-7.86739326E+01
  0
LINE
  8
0
 62
4
 10
-1.16749949E+02
 20
-7.83016875E+01
 11
-1.16749949E+02
 21
-7.86739326E+01
  0
LINE
  8
0
 62
4
 10
-1.13019949E+02
 20
-7.73016875E+01
 11
-1.16489949E+02
 21
-7.73016875E+01
  0
LINE
  8
0
 62
4
 10
-1.12749949E+02
 20
-7.83016875E+01
 11
-1.13019949E+02
 21
-7.73016875E+01
  0
LINE
  8
0
 62
4
 10
-1.16749949E+02
 20
-7.83016875E+01
 11
-1.16489949E+02
 21
-7.73016875E+01
  0
LINE
  8
0
 62
6
 10
-1.13249949E+02
 20
-7.73016875E+01
 11
-1.13249949E+02
 21
-7.86739326E+01
  0
LINE
  8
0
 62
6
 10
-1.16249949E+02
 20
-7.73016875E+01
 11
-1.16249949E+02
 21
-7.86739326E+01
  0
LINE
  8
0
 62
4
 10
-1.12249949E+02
 20
-8.39184541E+01
 11
-1.25249949E+02
 21
-8.39184541E+01
  0
LINE
  8
0
 62
4
 10
-1.11249949E+02
 20
-7.86739326E+01
 11
-1.26249949E+02
 21
-7.86739326E+01
  0
LINE
  8
0
  6
CENTER
 62
6
 10
-1.22749949E+02
 20
-7.60416875E+01
 11
-1.22749949E+02
 21
-8.65416875E+01
  0
LINE
  8
0
 62
6
 10
-1.24249949E+02
 20
-7.73016875E+01
 11
-1.24249949E+02
 21
-7.86739326E+01
  0
LINE
  8
0
 62
4
 10
-1.20749949E+02
 20
-7.83016875E+01
 11
-1.20749949E+02
 21
-7.86739326E+01
  0
LINE
  8
0
 62
4
 10
-1.24749949E+02
 20
-7.83016875E+01
 11
-1.24749949E+02
 21
-7.86739326E+01
  0
LINE
  8
0
 62
4
 10
-1.21019949E+02
 20
-7.73016875E+01
 11
-1.24489949E+02
 21
-7.73016875E+01
  0
LINE
  8
0
 62
4
 10
-1.20749949E+02
 20
-7.83016875E+01
 11
-1.21019949E+02
 21
-7.73016875E+01
  0
LINE
  8
0
 62
4
 10
-1.24749949E+02
 20
-7.83016875E+01
 11
-1.24489949E+02
 21
-7.73016875E+01
  0
LINE
  8
0
 62
6
 10
-1.21249949E+02
 20
-7.73016875E+01
 11
-1.21249949E+02
 21
-7.86739326E+01
  0
LINE
  8
0
 62
4
 10
-1.14749949E+02
 20
-1.15178083E+02
 11
-1.14749949E+02
 21
-1.15667156E+02
  0
LINE
  8
0
 62
4
 10
-1.22749949E+02
 20
-1.15667156E+02
 11
-1.22749949E+02
 21
-1.15178083E+02
  0
LINE
  8
0
 62
4
 10
-1.15349949E+02
 20
-1.15667156E+02
 11
-1.15349949E+02
 21
-1.17591113E+02
  0
LINE
  8
0
 62
4
 10
-1.22149949E+02
 20
-1.17591113E+02
 11
-1.22149949E+02
 21
-1.15667156E+02
  0
LINE
  8
0
  6
CENTER
 62
6
 10
-1.18749949E+02
 20
-7.14742264E+01
 11
-1.18749949E+02
 21
-1.25191746E+02
  0
LINE
  8
0
 62
4
 10
-1.35249949E+02
 20
-1.04099778E+02
 11
-1.26249949E+02
 21
-1.04099778E+02
  0
LINE
  8
0
 62
4
 10
-1.45749949E+02
 20
-8.99613765E+01
 11
-1.45749949E+02
 21
-1.04238712E+02
  0
LINE
  8
0
 62
4
 10
-1.40749949E+02
 20
-8.99613765E+01
 11
-1.40749949E+02
 21
-1.04238712E+02
  0
LINE
  8
0
 62
4
 10
-1.40749949E+02
 20
-9.08497780E+01
 11
-1.35749949E+02
 21
-9.08497780E+01
  0
LINE
  8
0
 62
4
 10
-1.40749949E+02
 20
-1.03349778E+02
 11
-1.35749949E+02
 21
-1.03349778E+02
  0
LINE
  8
0
 62
4
 10
-1.39249949E+02
 20
-9.08497780E+01
 11
-1.39249949E+02
 21
-1.03349778E+02
  0
LINE
  8
0
 62
4
 10
-1.39249949E+02
 20
-9.13497780E+01
 11
-1.35749949E+02
 21
-9.13497780E+01
  0
LINE
  8
0
 62
4
 10
-1.39249949E+02
 20
-1.02849778E+02
 11
-1.35749949E+02
 21
-1.02849778E+02
  0
LINE
  8
0
 62
4
 10
-1.11249949E+02
 20
-1.08385434E+02
 11
-1.11249949E+02
 21
-7.86739326E+01
  0
LINE
  8
0
 62
4
 10
-1.26249949E+02
 20
-8.85154276E+01
 11
-1.11249949E+02
 21
-8.85154276E+01
  0
LINE
  8
0
 62
4
 10
-1.26249949E+02
 20
-1.03187642E+02
 11
-1.11249949E+02
 21
-1.03187642E+02
  0
LINE
  8
0
 62
4
 10
-1.45749949E+02
 20
-8.99613765E+01
 11
-1.40749949E+02
 21
-8.99613765E+01
  0
LINE
  8
0
 62
4
 10
-9.17499487E+01
 20
-9.21088579E+01
 11
-9.17499487E+01
 21
-1.15237420E+02
  0
LINE
  8
0
 62
4
 10
-1.09249949E+02
 20
-9.17569247E+01
 11
-1.09249949E+02
 21
-1.11173376E+02
  0
LINE
  8
0
 62
4
 10
-1.30749949E+02
 20
-1.15237420E+02
 11
-1.30749949E+02
 21
-1.04099778E+02
  0
LINE
  8
0
 62
4
 10
-1.28249949E+02
 20
-1.04099778E+02
 11
-1.28249949E+02
 21
-1.11173376E+02
  0
LINE
  8
0
 62
4
 10
-1.26249949E+02
 20
-7.86739326E+01
 11
-1.26249949E+02
 21
-1.08385434E+02
  0
LINE
  8
0
 62
4
 10
-1.28249949E+02
 20
-1.10341729E+02
 11
-1.09249949E+02
 21
-1.10341729E+02
  0
LINE
  8
0
 62
4
 10
-1.29249949E+02
 20
-1.13618745E+02
 11
-9.32499487E+01
 21
-1.13618745E+02
  0
LINE
  8
0
 62
4
 10
-1.09249949E+02
 20
-9.17569247E+01
 11
-1.11249949E+02
 21
-9.17569247E+01
  0
ARC
  8
0
 62
4
 10
-9.32504525E+01
 20
-9.21088579E+01
 40
1.50050386E+00
 50
1.92364101E-02
 51
8.99807637E+01
  0
ARC
  8
0
 62
4
 10
-1.35250448E+02
 20
-1.03600278E+02
 40
4.99500622E-01
 50
1.79942690E+02
 51
2.70057311E+02
  0
LINE
  8
0
 62
4
 10
1.90832413E+02
 20
-1.96306195E+02
 11
1.91192413E+02
 21
-1.97284343E+02
  0
LINE
  8
0
 62
4
 10
1.84552413E+02
 20
-1.96306195E+02
 11
1.84192413E+02
 21
-1.97284343E+02
  0
POLYLINE
  8
0
 62
4
 66
1
  0
VERTEX
  8
0
 62
4
 10
1.84233162E+02
 20
-1.97173625E+02
  0
VERTEX
  8
0
 62
4
 10
1.84199513E+02
 20
-1.97238015E+02
  0
VERTEX
  8
0
 62
4
 10
1.84193536E+02
 20
-1.97302773E+02
  0
VERTEX
  8
0
 62
4
 10
1.84215277E+02
 20
-1.97367384E+02
  0
VERTEX
  8
0
 62
4
 10
1.84264565E+02
 20
-1.97431338E+02
  0
VERTEX
  8
0
 62
4
 10
1.84341009E+02
 20
-1.97494127E+02
  0
VERTEX
  8
0
 62
4
 10
1.84444003E+02
 20
-1.97555254E+02
  0
VERTEX
  8
0
 62
4
 10
1.84572732E+02
 20
-1.97614235E+02
  0
VERTEX
  8
0
 62
4
 10
1.84726176E+02
 20
-1.97670602E+02
  0
VERTEX
  8
0
 62
4
 10
1.84903119E+02
 20
-1.97723910E+02
  0
VERTEX
  8
0
 62
4
 10
1.85102159E+02
 20
-1.97773735E+02
  0
VERTEX
  8
0
 62
4
 10
1.85321719E+02
 20
-1.97819683E+02
  0
VERTEX
  8
0
 62
4
 10
1.85560061E+02
 20
-1.97861390E+02
  0
VERTEX
  8
0
 62
4
 10
1.85815295E+02
 20
-1.97898525E+02
  0
VERTEX
  8
0
 62
4
 10
1.86085401E+02
 20
-1.97930795E+02
  0
VERTEX
  8
0
 62
4
 10
1.86368237E+02
 20
-1.97957943E+02
  0
VERTEX
  8
0
 62
4
 10
1.86661564E+02
 20
-1.97979756E+02
  0
VERTEX
  8
0
 62
4
 10
1.86963058E+02
 20
-1.97996058E+02
  0
VERTEX
  8
0
 62
4
 10
1.87270329E+02
 20
-1.98006723E+02
  0
VERTEX
  8
0
 62
4
 10
1.87580945E+02
 20
-1.98011665E+02
  0
VERTEX
  8
0
 62
4
 10
1.87892443E+02
 20
-1.98010845E+02
  0
VERTEX
  8
0
 62
4
 10
1.88202357E+02
 20
-1.98004269E+02
  0
VERTEX
  8
0
 62
4
 10
1.88508231E+02
 20
-1.97991990E+02
  0
VERTEX
  8
0
 62
4
 10
1.88807642E+02
 20
-1.97974104E+02
  0
VERTEX
  8
0
 62
4
 10
1.89098217E+02
 20
-1.97950755E+02
  0
VERTEX
  8
0
 62
4
 10
1.89377656E+02
 20
-1.97922126E+02
  0
VERTEX
  8
0
 62
4
 10
1.89643744E+02
 20
-1.97888444E+02
  0
VERTEX
  8
0
 62
4
 10
1.89894373E+02
 20
-1.97849976E+02
  0
VERTEX
  8
0
 62
4
 10
1.90127558E+02
 20
-1.97807028E+02
  0
VERTEX
  8
0
 62
4
 10
1.90341451E+02
 20
-1.97759938E+02
  0
VERTEX
  8
0
 62
4
 10
1.90534358E+02
 20
-1.97709081E+02
  0
VERTEX
  8
0
 62
4
 10
1.90704750E+02
 20
-1.97654859E+02
  0
VERTEX
  8
0
 62
4
 10
1.90851278E+02
 20
-1.97597702E+02
  0
VERTEX
  8
0
 62
4
 10
1.90972781E+02
 20
-1.97538062E+02
  0
VERTEX
  8
0
 62
4
 10
1.91068297E+02
 20
-1.97476412E+02
  0
VERTEX
  8
0
 62
4
 10
1.91137067E+02
 20
-1.97413241E+02
  0
VERTEX
  8
0
 62
4
 10
1.91178549E+02
 20
-1.97349048E+02
  0
VERTEX
  8
0
 62
4
 10
1.91192413E+02
 20
-1.97284343E+02
  0
SEQEND
  8
0
  0
POLYLINE
  8
0
 62
4
 66
1
  0
VERTEX
  8
0
 62
4
 10
1.90832413E+02
 20
-1.96306195E+02
  0
VERTEX
  8
0
 62
4
 10
1.90820464E+02
 20
-1.96249296E+02
  0
VERTEX
  8
0
 62
4
 10
1.90784709E+02
 20
-1.96192830E+02
  0
VERTEX
  8
0
 62
4
 10
1.90725420E+02
 20
-1.96137227E+02
  0
VERTEX
  8
0
 62
4
 10
1.90643048E+02
 20
-1.96082910E+02
  0
VERTEX
  8
0
 62
4
 10
1.90538219E+02
 20
-1.96030292E+02
  0
VERTEX
  8
0
 62
4
 10
1.90411733E+02
 20
-1.95979774E+02
  0
VERTEX
  8
0
 62
4
 10
1.90264550E+02
 20
-1.95931740E+02
  0
VERTEX
  8
0
 62
4
 10
1.90097793E+02
 20
-1.95886556E+02
  0
VERTEX
  8
0
 62
4
 10
1.89912728E+02
 20
-1.95844565E+02
  0
VERTEX
  8
0
 62
4
 10
1.89710766E+02
 20
-1.95806088E+02
  0
VERTEX
  8
0
 62
4
 10
1.89493443E+02
 20
-1.95771418E+02
  0
VERTEX
  8
0
 62
4
 10
1.89262413E+02
 20
-1.95740817E+02
  0
VERTEX
  8
0
 62
4
 10
1.89019434E+02
 20
-1.95714519E+02
  0
VERTEX
  8
0
 62
4
 10
1.88766356E+02
 20
-1.95692724E+02
  0
VERTEX
  8
0
 62
4
 10
1.88505105E+02
 20
-1.95675597E+02
  0
VERTEX
  8
0
 62
4
 10
1.88237668E+02
 20
-1.95663270E+02
  0
VERTEX
  8
0
 62
4
 10
1.87966082E+02
 20
-1.95655837E+02
  0
VERTEX
  8
0
 62
4
 10
1.87692413E+02
 20
-1.95653352E+02
  0
VERTEX
  8
0
 62
4
 10
1.87418744E+02
 20
-1.95655837E+02
  0
VERTEX
  8
0
 62
4
 10
1.87147158E+02
 20
-1.95663270E+02
  0
VERTEX
  8
0
 62
4
 10
1.86879721E+02
 20
-1.95675597E+02
  0
VERTEX
  8
0
 62
4
 10
1.86618470E+02
 20
-1.95692724E+02
  0
VERTEX
  8
0
 62
4
 10
1.86365392E+02
 20
-1.95714519E+02
  0
VERTEX
  8
0
 62
4
 10
1.86122413E+02
 20
-1.95740817E+02
  0
VERTEX
  8
0
 62
4
 10
1.85891383E+02
 20
-1.95771418E+02
  0
VERTEX
  8
0
 62
4
 10
1.85674060E+02
 20
-1.95806088E+02
  0
VERTEX
  8
0
 62
4
 10
1.85472098E+02
 20
-1.95844565E+02
  0
VERTEX
  8
0
 62
4
 10
1.85287033E+02
 20
-1.95886556E+02
  0
VERTEX
  8
0
 62
4
 10
1.85120276E+02
 20
-1.95931740E+02
  0
VERTEX
  8
0
 62
4
 10
1.84973093E+02
 20
-1.95979774E+02
  0
VERTEX
  8
0
 62
4
 10
1.84846607E+02
 20
-1.96030292E+02
  0
VERTEX
  8
0
 62
4
 10
1.84741778E+02
 20
-1.96082910E+02
  0
VERTEX
  8
0
 62
4
 10
1.84659406E+02
 20
-1.96137227E+02
  0
VERTEX
  8
0
 62
4
 10
1.84600117E+02
 20
-1.96192830E+02
  0
VERTEX
  8
0
 62
4
 10
1.84564362E+02
 20
-1.96249296E+02
  0
VERTEX
  8
0
 62
4
 10
1.84552413E+02
 20
-1.96306195E+02
  0
VERTEX
  8
0
 62
4
 10
1.84564362E+02
 20
-1.96363094E+02
  0
VERTEX
  8
0
 62
4
 10
1.84600117E+02
 20
-1.96419560E+02
  0
VERTEX
  8
0
 62
4
 10
1.84659406E+02
 20
-1.96475163E+02
  0
VERTEX
  8
0
 62
4
 10
1.84741778E+02
 20
-1.96529480E+02
  0
VERTEX
  8
0
 62
4
 10
1.84846607E+02
 20
-1.96582098E+02
  0
VERTEX
  8
0
 62
4
 10
1.84973093E+02
 20
-1.96632616E+02
  0
VERTEX
  8
0
 62
4
 10
1.85120276E+02
 20
-1.96680650E+02
  0
VERTEX
  8
0
 62
4
 10
1.85287033E+02
 20
-1.96725834E+02
  0
VERTEX
  8
0
 62
4
 10
1.85472098E+02
 20
-1.96767825E+02
  0
VERTEX
  8
0
 62
4
 10
1.85674060E+02
 20
-1.96806302E+02
  0
VERTEX
  8
0
 62
4
 10
1.85891383E+02
 20
-1.96840972E+02
  0
VERTEX
  8
0
 62
4
 10
1.86122413E+02
 20
-1.96871573E+02
  0
VERTEX
  8
0
 62
4
 10
1.86365392E+02
 20
-1.96897871E+02
  0
VERTEX
  8
0
 62
4
 10
1.86618470E+02
 20
-1.96919666E+02
  0
VERTEX
  8
0
 62
4
 10
1.86879721E+02
 20
-1.96936793E+02
  0
VERTEX
  8
0
 62
4
 10
1.87147158E+02
 20
-1.96949120E+02
  0
VERTEX
  8
0
 62
4
 10
1.87418744E+02
 20
-1.96956553E+02
  0
VERTEX
  8
0
 62
4
 10
1.87692413E+02
 20
-1.96959038E+02
  0
VERTEX
  8
0
 62
4
 10
1.87966082E+02
 20
-1.96956553E+02
  0
VERTEX
  8
0
 62
4
 10
1.88237668E+02
 20
-1.96949120E+02
  0
VERTEX
  8
0
 62
4
 10
1.88505105E+02
 20
-1.96936793E+02
  0
VERTEX
  8
0
 62
4
 10
1.88766356E+02
 20
-1.96919666E+02
  0
VERTEX
  8
0
 62
4
 10
1.89019434E+02
 20
-1.96897871E+02
  0
VERTEX
  8
0
 62
4
 10
1.89262413E+02
 20
-1.96871573E+02
  0
VERTEX
  8
0
 62
4
 10
1.89493443E+02
 20
-1.96840972E+02
  0
VERTEX
  8
0
 62
4
 10
1.89710766E+02
 20
-1.96806302E+02
  0
VERTEX
  8
0
 62
4
 10
1.89912728E+02
 20
-1.96767825E+02
  0
VERTEX
  8
0
 62
4
 10
1.90097793E+02
 20
-1.96725834E+02
  0
VERTEX
  8
0
 62
4
 10
1.90264550E+02
 20
-1.96680650E+02
  0
VERTEX
  8
0
 62
4
 10
1.90411733E+02
 20
-1.96632616E+02
  0
VERTEX
  8
0
 62
4
 10
1.90538219E+02
 20
-1.96582098E+02
  0
VERTEX
  8
0
 62
4
 10
1.90643048E+02
 20
-1.96529480E+02
  0
VERTEX
  8
0
 62
4
 10
1.90725420E+02
 20
-1.96475163E+02
  0
VERTEX
  8
0
 62
4
 10
1.90784709E+02
 20
-1.96419560E+02
  0
VERTEX
  8
0
 62
4
 10
1.90820464E+02
 20
-1.96363094E+02
  0
VERTEX
  8
0
 62
4
 10
1.90832413E+02
 20
-1.96306195E+02
  0
SEQEND
  8
0
  0
LINE
  8
0
  6
CENTER
 62
6
 10
1.87692413E+02
 20
-1.94223230E+02
 11
1.87692413E+02
 21
-1.96306195E+02
  0
LINE
  8
0
 62
4
 10
1.96192413E+02
 20
-1.95254367E+02
 11
1.78192413E+02
 21
-1.95254367E+02
  0
ARC
  8
0
 62
4
 10
2.14192913E+02
 20
-2.00759004E+02
 40
1.49950029E+00
 50
3.59980903E+02
 51
9.00190969E+01
  0
LINE
  8
0
 62
4
 10
2.14192413E+02
 20
-1.99259504E+02
 11
1.78192413E+02
 21
-1.99259504E+02
  0
ARC
  8
0
 62
4
 10
1.78191913E+02
 20
-2.00759004E+02
 40
1.49950029E+00
 50
8.99809029E+01
 51
1.80019097E+02
  0
LINE
  8
0
 62
4
 10
2.12692413E+02
 20
-2.17740352E+02
 11
2.15692413E+02
 21
-2.14451497E+02
  0
LINE
  8
0
 62
4
 10
1.79692413E+02
 20
-2.17740352E+02
 11
1.76692413E+02
 21
-2.14451497E+02
  0
LINE
  8
0
 62
4
 10
1.96192413E+02
 20
-2.17740352E+02
 11
1.79692413E+02
 21
-2.17740352E+02
  0
LINE
  8
0
 62
4
 10
2.12692413E+02
 20
-2.17740352E+02
 11
2.11192413E+02
 21
-2.17740352E+02
  0
POLYLINE
  8
0
 62
6
 66
1
  0
VERTEX
  8
0
 62
6
 10
2.09192413E+02
 20
-2.25935988E+02
  0
VERTEX
  8
0
 62
6
 10
2.09186705E+02
 20
-2.25808111E+02
  0
VERTEX
  8
0
 62
6
 10
2.09169625E+02
 20
-2.25681208E+02
  0
VERTEX
  8
0
 62
6
 10
2.09141302E+02
 20
-2.25556243E+02
  0
VERTEX
  8
0
 62
6
 10
2.09101952E+02
 20
-2.25434169E+02
  0
VERTEX
  8
0
 62
6
 10
2.09051875E+02
 20
-2.25315913E+02
  0
VERTEX
  8
0
 62
6
 10
2.08991451E+02
 20
-2.25202377E+02
  0
VERTEX
  8
0
 62
6
 10
2.08921141E+02
 20
-2.25094424E+02
  0
VERTEX
  8
0
 62
6
 10
2.08841480E+02
 20
-2.24992876E+02
  0
VERTEX
  8
0
 62
6
 10
2.08753073E+02
 20
-2.24898506E+02
  0
VERTEX
  8
0
 62
6
 10
2.08656594E+02
 20
-2.24812031E+02
  0
VERTEX
  8
0
 62
6
 10
2.08552778E+02
 20
-2.24734111E+02
  0
VERTEX
  8
0
 62
6
 10
2.08442413E+02
 20
-2.24665337E+02
  0
VERTEX
  8
0
 62
6
 10
2.08326340E+02
 20
-2.24606234E+02
  0
VERTEX
  8
0
 62
6
 10
2.08205443E+02
 20
-2.24557251E+02
  0
VERTEX
  8
0
 62
6
 10
2.08080642E+02
 20
-2.24518761E+02
  0
VERTEX
  8
0
 62
6
 10
2.07952885E+02
 20
-2.24491057E+02
  0
VERTEX
  8
0
 62
6
 10
2.07823147E+02
 20
-2.24474350E+02
  0
VERTEX
  8
0
 62
6
 10
2.07692413E+02
 20
-2.24468767E+02
  0
VERTEX
  8
0
 62
6
 10
2.07561679E+02
 20
-2.24474350E+02
  0
VERTEX
  8
0
 62
6
 10
2.07431941E+02
 20
-2.24491057E+02
  0
VERTEX
  8
0
 62
6
 10
2.07304184E+02
 20
-2.24518761E+02
  0
VERTEX
  8
0
 62
6
 10
2.07179383E+02
 20
-2.24557251E+02
  0
VERTEX
  8
0
 62
6
 10
2.07058486E+02
 20
-2.24606234E+02
  0
VERTEX
  8
0
 62
6
 10
2.06942413E+02
 20
-2.24665337E+02
  0
VERTEX
  8
0
 62
6
 10
2.06832048E+02
 20
-2.24734111E+02
  0
VERTEX
  8
0
 62
6
 10
2.06728232E+02
 20
-2.24812031E+02
  0
VERTEX
  8
0
 62
6
 10
2.06631753E+02
 20
-2.24898506E+02
  0
VERTEX
  8
0
 62
6
 10
2.06543346E+02
 20
-2.24992876E+02
  0
VERTEX
  8
0
 62
6
 10
2.06463685E+02
 20
-2.25094424E+02
  0
VERTEX
  8
0
 62
6
 10
2.06393375E+02
 20
-2.25202377E+02
  0
VERTEX
  8
0
 62
6
 10
2.06332951E+02
 20
-2.25315913E+02
  0
VERTEX
  8
0
 62
6
 10
2.06282874E+02
 20
-2.25434169E+02
  0
VERTEX
  8
0
 62
6
 10
2.06243524E+02
 20
-2.25556243E+02
  0
VERTEX
  8
0
 62
6
 10
2.06215201E+02
 20
-2.25681208E+02
  0
VERTEX
  8
0
 62
6
 10
2.06198121E+02
 20
-2.25808111E+02
  0
VERTEX
  8
0
 62
6
 10
2.06192413E+02
 20
-2.25935988E+02
  0
VERTEX
  8
0
 62
6
 10
2.06198121E+02
 20
-2.26063865E+02
  0
VERTEX
  8
0
 62
6
 10
2.06215201E+02
 20
-2.26190768E+02
  0
VERTEX
  8
0
 62
6
 10
2.06243524E+02
 20
-2.26315733E+02
  0
VERTEX
  8
0
 62
6
 10
2.06282874E+02
 20
-2.26437807E+02
  0
VERTEX
  8
0
 62
6
 10
2.06332951E+02
 20
-2.26556063E+02
  0
VERTEX
  8
0
 62
6
 10
2.06393375E+02
 20
-2.26669599E+02
  0
VERTEX
  8
0
 62
6
 10
2.06463685E+02
 20
-2.26777552E+02
  0
VERTEX
  8
0
 62
6
 10
2.06543346E+02
 20
-2.26879100E+02
  0
VERTEX
  8
0
 62
6
 10
2.06631753E+02
 20
-2.26973470E+02
  0
VERTEX
  8
0
 62
6
 10
2.06728232E+02
 20
-2.27059945E+02
  0
VERTEX
  8
0
 62
6
 10
2.06832048E+02
 20
-2.27137865E+02
  0
VERTEX
  8
0
 62
6
 10
2.06942413E+02
 20
-2.27206639E+02
  0
VERTEX
  8
0
 62
6
 10
2.07058486E+02
 20
-2.27265742E+02
  0
VERTEX
  8
0
 62
6
 10
2.07179383E+02
 20
-2.27314725E+02
  0
VERTEX
  8
0
 62
6
 10
2.07304184E+02
 20
-2.27353215E+02
  0
VERTEX
  8
0
 62
6
 10
2.07431941E+02
 20
-2.27380919E+02
  0
VERTEX
  8
0
 62
6
 10
2.07561679E+02
 20
-2.27397626E+02
  0
VERTEX
  8
0
 62
6
 10
2.07692413E+02
 20
-2.27403209E+02
  0
VERTEX
  8
0
 62
6
 10
2.07823147E+02
 20
-2.27397626E+02
  0
VERTEX
  8
0
 62
6
 10
2.07952885E+02
 20
-2.27380919E+02
  0
VERTEX
  8
0
 62
6
 10
2.08080642E+02
 20
-2.27353215E+02
  0
VERTEX
  8
0
 62
6
 10
2.08205443E+02
 20
-2.27314725E+02
  0
VERTEX
  8
0
 62
6
 10
2.08326340E+02
 20
-2.27265742E+02
  0
VERTEX
  8
0
 62
6
 10
2.08442413E+02
 20
-2.27206639E+02
  0
VERTEX
  8
0
 62
6
 10
2.08552778E+02
 20
-2.27137865E+02
  0
VERTEX
  8
0
 62
6
 10
2.08656594E+02
 20
-2.27059945E+02
  0
VERTEX
  8
0
 62
6
 10
2.08753073E+02
 20
-2.26973470E+02
  0
VERTEX
  8
0
 62
6
 10
2.08841480E+02
 20
-2.26879100E+02
  0
VERTEX
  8
0
 62
6
 10
2.08921141E+02
 20
-2.26777552E+02
  0
VERTEX
  8
0
 62
6
 10
2.08991451E+02
 20
-2.26669599E+02
  0
VERTEX
  8
0
 62
6
 10
2.09051875E+02
 20
-2.26556063E+02
  0
VERTEX
  8
0
 62
6
 10
2.09101952E+02
 20
-2.26437807E+02
  0
VERTEX
  8
0
 62
6
 10
2.09141302E+02
 20
-2.26315733E+02
  0
VERTEX
  8
0
 62
6
 10
2.09169625E+02
 20
-2.26190768E+02
  0
VERTEX
  8
0
 62
6
 10
2.09186705E+02
 20
-2.26063865E+02
  0
VERTEX
  8
0
 62
6
 10
2.09192413E+02
 20
-2.25935988E+02
  0
SEQEND
  8
0
  0
POLYLINE
  8
0
 62
4
 66
1
  0
VERTEX
  8
0
 62
4
 10
2.09427413E+02
 20
-2.25940878E+02
  0
VERTEX
  8
0
 62
4
 10
2.09420811E+02
 20
-2.25792967E+02
  0
VERTEX
  8
0
 62
4
 10
2.09401054E+02
 20
-2.25646182E+02
  0
VERTEX
  8
0
 62
4
 10
2.09368294E+02
 20
-2.25501640E+02
  0
VERTEX
  8
0
 62
4
 10
2.09322780E+02
 20
-2.25360440E+02
  0
VERTEX
  8
0
 62
4
 10
2.09264857E+02
 20
-2.25223658E+02
  0
VERTEX
  8
0
 62
4
 10
2.09194967E+02
 20
-2.25092335E+02
  0
VERTEX
  8
0
 62
4
 10
2.09113642E+02
 20
-2.24967469E+02
  0
VERTEX
  8
0
 62
4
 10
2.09021500E+02
 20
-2.24850012E+02
  0
VERTEX
  8
0
 62
4
 10
2.08919243E+02
 20
-2.24740857E+02
  0
VERTEX
  8
0
 62
4
 10
2.08807650E+02
 20
-2.24640835E+02
  0
VERTEX
  8
0
 62
4
 10
2.08687568E+02
 20
-2.24550706E+02
  0
VERTEX
  8
0
 62
4
 10
2.08559913E+02
 20
-2.24471158E+02
  0
VERTEX
  8
0
 62
4
 10
2.08425656E+02
 20
-2.24402796E+02
  0
VERTEX
  8
0
 62
4
 10
2.08285818E+02
 20
-2.24346139E+02
  0
VERTEX
  8
0
 62
4
 10
2.08141464E+02
 20
-2.24301619E+02
  0
VERTEX
  8
0
 62
4
 10
2.07993693E+02
 20
-2.24269574E+02
  0
VERTEX
  8
0
 62
4
 10
2.07843628E+02
 20
-2.24250250E+02
  0
VERTEX
  8
0
 62
4
 10
2.07692413E+02
 20
-2.24243792E+02
  0
VERTEX
  8
0
 62
4
 10
2.07541198E+02
 20
-2.24250250E+02
  0
VERTEX
  8
0
 62
4
 10
2.07391133E+02
 20
-2.24269574E+02
  0
VERTEX
  8
0
 62
4
 10
2.07243362E+02
 20
-2.24301619E+02
  0
VERTEX
  8
0
 62
4
 10
2.07099008E+02
 20
-2.24346139E+02
  0
VERTEX
  8
0
 62
4
 10
2.06959170E+02
 20
-2.24402796E+02
  0
VERTEX
  8
0
 62
4
 10
2.06824913E+02
 20
-2.24471158E+02
  0
VERTEX
  8
0
 62
4
 10
2.06697258E+02
 20
-2.24550706E+02
  0
VERTEX
  8
0
 62
4
 10
2.06577176E+02
 20
-2.24640835E+02
  0
VERTEX
  8
0
 62
4
 10
2.06465583E+02
 20
-2.24740857E+02
  0
VERTEX
  8
0
 62
4
 10
2.06363326E+02
 20
-2.24850012E+02
  0
VERTEX
  8
0
 62
4
 10
2.06271184E+02
 20
-2.24967469E+02
  0
VERTEX
  8
0
 62
4
 10
2.06189859E+02
 20
-2.25092335E+02
  0
VERTEX
  8
0
 62
4
 10
2.06119969E+02
 20
-2.25223658E+02
  0
VERTEX
  8
0
 62
4
 10
2.06062046E+02
 20
-2.25360440E+02
  0
VERTEX
  8
0
 62
4
 10
2.06016532E+02
 20
-2.25501640E+02
  0
VERTEX
  8
0
 62
4
 10
2.05983772E+02
 20
-2.25646182E+02
  0
VERTEX
  8
0
 62
4
 10
2.05964015E+02
 20
-2.25792967E+02
  0
VERTEX
  8
0
 62
4
 10
2.05957413E+02
 20
-2.25940878E+02
  0
VERTEX
  8
0
 62
4
 10
2.05964015E+02
 20
-2.26088789E+02
  0
VERTEX
  8
0
 62
4
 10
2.05983772E+02
 20
-2.26235574E+02
  0
VERTEX
  8
0
 62
4
 10
2.06016532E+02
 20
-2.26380116E+02
  0
VERTEX
  8
0
 62
4
 10
2.06062046E+02
 20
-2.26521316E+02
  0
VERTEX
  8
0
 62
4
 10
2.06119969E+02
 20
-2.26658098E+02
  0
VERTEX
  8
0
 62
4
 10
2.06189859E+02
 20
-2.26789421E+02
  0
VERTEX
  8
0
 62
4
 10
2.06271184E+02
 20
-2.26914287E+02
  0
VERTEX
  8
0
 62
4
 10
2.06363326E+02
 20
-2.27031744E+02
  0
VERTEX
  8
0
 62
4
 10
2.06465583E+02
 20
-2.27140899E+02
  0
VERTEX
  8
0
 62
4
 10
2.06577176E+02
 20
-2.27240921E+02
  0
VERTEX
  8
0
 62
4
 10
2.06697258E+02
 20
-2.27331050E+02
  0
VERTEX
  8
0
 62
4
 10
2.06824913E+02
 20
-2.27410598E+02
  0
VERTEX
  8
0
 62
4
 10
2.06959170E+02
 20
-2.27478960E+02
  0
VERTEX
  8
0
 62
4
 10
2.07099008E+02
 20
-2.27535617E+02
  0
VERTEX
  8
0
 62
4
 10
2.07243362E+02
 20
-2.27580137E+02
  0
VERTEX
  8
0
 62
4
 10
2.07391133E+02
 20
-2.27612182E+02
  0
VERTEX
  8
0
 62
4
 10
2.07541198E+02
 20
-2.27631506E+02
  0
VERTEX
  8
0
 62
4
 10
2.07692413E+02
 20
-2.27637964E+02
  0
VERTEX
  8
0
 62
4
 10
2.07843628E+02
 20
-2.27631506E+02
  0
VERTEX
  8
0
 62
4
 10
2.07993693E+02
 20
-2.27612182E+02
  0
VERTEX
  8
0
 62
4
 10
2.08141464E+02
 20
-2.27580137E+02
  0
VERTEX
  8
0
 62
4
 10
2.08285818E+02
 20
-2.27535617E+02
  0
VERTEX
  8
0
 62
4
 10
2.08425656E+02
 20
-2.27478960E+02
  0
VERTEX
  8
0
 62
4
 10
2.08559913E+02
 20
-2.27410598E+02
  0
VERTEX
  8
0
 62
4
 10
2.08687568E+02
 20
-2.27331050E+02
  0
VERTEX
  8
0
 62
4
 10
2.08807650E+02
 20
-2.27240921E+02
  0
VERTEX
  8
0
 62
4
 10
2.08919243E+02
 20
-2.27140899E+02
  0
VERTEX
  8
0
 62
4
 10
2.09021500E+02
 20
-2.27031744E+02
  0
VERTEX
  8
0
 62
4
 10
2.09113642E+02
 20
-2.26914287E+02
  0
VERTEX
  8
0
 62
4
 10
2.09194967E+02
 20
-2.26789421E+02
  0
VERTEX
  8
0
 62
4
 10
2.09264857E+02
 20
-2.26658098E+02
  0
VERTEX
  8
0
 62
4
 10
2.09322780E+02
 20
-2.26521316E+02
  0
VERTEX
  8
0
 62
4
 10
2.09368294E+02
 20
-2.26380116E+02
  0
VERTEX
  8
0
 62
4
 10
2.09401054E+02
 20
-2.26235574E+02
  0
VERTEX
  8
0
 62
4
 10
2.09420811E+02
 20
-2.26088789E+02
  0
VERTEX
  8
0
 62
4
 10
2.09427413E+02
 20
-2.25940878E+02
  0
SEQEND
  8
0
  0
POLYLINE
  8
0
 62
4
 66
1
  0
VERTEX
  8
0
 62
4
 10
2.07692413E+02
 20
-2.27684371E+02
  0
VERTEX
  8
0
 62
4
 10
2.07866724E+02
 20
-2.27676488E+02
  0
VERTEX
  8
0
 62
4
 10
2.08039709E+02
 20
-2.27652897E+02
  0
VERTEX
  8
0
 62
4
 10
2.08210051E+02
 20
-2.27613779E+02
  0
VERTEX
  8
0
 62
4
 10
2.08376453E+02
 20
-2.27559431E+02
  0
VERTEX
  8
0
 62
4
 10
2.08537650E+02
 20
-2.27490267E+02
  0
VERTEX
  8
0
 62
4
 10
2.08692413E+02
 20
-2.27406814E+02
  0
VERTEX
  8
0
 62
4
 10
2.08839566E+02
 20
-2.27309705E+02
  0
VERTEX
  8
0
 62
4
 10
2.08977988E+02
 20
-2.27199681E+02
  0
VERTEX
  8
0
 62
4
 10
2.09106627E+02
 20
-2.27077579E+02
  0
VERTEX
  8
0
 62
4
 10
2.09224502E+02
 20
-2.26944328E+02
  0
VERTEX
  8
0
 62
4
 10
2.09330717E+02
 20
-2.26800942E+02
  0
VERTEX
  8
0
 62
4
 10
2.09424464E+02
 20
-2.26648512E+02
  0
VERTEX
  8
0
 62
4
 10
2.09505029E+02
 20
-2.26488199E+02
  0
VERTEX
  8
0
 62
4
 10
2.09571798E+02
 20
-2.26321222E+02
  0
VERTEX
  8
0
 62
4
 10
2.09624265E+02
 20
-2.26148853E+02
  0
VERTEX
  8
0
 62
4
 10
2.09662029E+02
 20
-2.25972403E+02
  0
VERTEX
  8
0
 62
4
 10
2.09684802E+02
 20
-2.25793215E+02
  0
VERTEX
  8
0
 62
4
 10
2.09692413E+02
 20
-2.25612653E+02
  0
VERTEX
  8
0
 62
4
 10
2.09684802E+02
 20
-2.25432091E+02
  0
VERTEX
  8
0
 62
4
 10
2.09662029E+02
 20
-2.25252903E+02
  0
VERTEX
  8
0
 62
4
 10
2.09624265E+02
 20
-2.25076453E+02
  0
VERTEX
  8
0
 62
4
 10
2.09571798E+02
 20
-2.24904084E+02
  0
VERTEX
  8
0
 62
4
 10
2.09505029E+02
 20
-2.24737107E+02
  0
VERTEX
  8
0
 62
4
 10
2.09424464E+02
 20
-2.24576794E+02
  0
VERTEX
  8
0
 62
4
 10
2.09330717E+02
 20
-2.24424364E+02
  0
VERTEX
  8
0
 62
4
 10
2.09224502E+02
 20
-2.24280978E+02
  0
VERTEX
  8
0
 62
4
 10
2.09106627E+02
 20
-2.24147727E+02
  0
VERTEX
  8
0
 62
4
 10
2.08977988E+02
 20
-2.24025625E+02
  0
VERTEX
  8
0
 62
4
 10
2.08839566E+02
 20
-2.23915601E+02
  0
VERTEX
  8
0
 62
4
 10
2.08692413E+02
 20
-2.23818492E+02
  0
VERTEX
  8
0
 62
4
 10
2.08537650E+02
 20
-2.23735039E+02
  0
VERTEX
  8
0
 62
4
 10
2.08376453E+02
 20
-2.23665875E+02
  0
VERTEX
  8
0
 62
4
 10
2.08210051E+02
 20
-2.23611527E+02
  0
VERTEX
  8
0
 62
4
 10
2.08039709E+02
 20
-2.23572409E+02
  0
VERTEX
  8
0
 62
4
 10
2.07866724E+02
 20
-2.23548818E+02
  0
VERTEX
  8
0
 62
4
 10
2.07692413E+02
 20
-2.23540935E+02
  0
VERTEX
  8
0
 62
4
 10
2.07518102E+02
 20
-2.23548818E+02
  0
VERTEX
  8
0
 62
4
 10
2.07345117E+02
 20
-2.23572409E+02
  0
VERTEX
  8
0
 62
4
 10
2.07174775E+02
 20
-2.23611527E+02
  0
VERTEX
  8
0
 62
4
 10
2.07008373E+02
 20
-2.23665875E+02
  0
VERTEX
  8
0
 62
4
 10
2.06847176E+02
 20
-2.23735039E+02
  0
VERTEX
  8
0
 62
4
 10
2.06692413E+02
 20
-2.23818492E+02
  0
VERTEX
  8
0
 62
4
 10
2.06545260E+02
 20
-2.23915601E+02
  0
VERTEX
  8
0
 62
4
 10
2.06406838E+02
 20
-2.24025625E+02
  0
VERTEX
  8
0
 62
4
 10
2.06278199E+02
 20
-2.24147727E+02
  0
VERTEX
  8
0
 62
4
 10
2.06160324E+02
 20
-2.24280978E+02
  0
VERTEX
  8
0
 62
4
 10
2.06054109E+02
 20
-2.24424364E+02
  0
VERTEX
  8
0
 62
4
 10
2.05960362E+02
 20
-2.24576794E+02
  0
VERTEX
  8
0
 62
4
 10
2.05879797E+02
 20
-2.24737107E+02
  0
VERTEX
  8
0
 62
4
 10
2.05813028E+02
 20
-2.24904084E+02
  0
VERTEX
  8
0
 62
4
 10
2.05760561E+02
 20
-2.25076453E+02
  0
VERTEX
  8
0
 62
4
 10
2.05722797E+02
 20
-2.25252903E+02
  0
VERTEX
  8
0
 62
4
 10
2.05700024E+02
 20
-2.25432091E+02
  0
VERTEX
  8
0
 62
4
 10
2.05692413E+02
 20
-2.25612653E+02
  0
VERTEX
  8
0
 62
4
 10
2.05700024E+02
 20
-2.25793215E+02
  0
VERTEX
  8
0
 62
4
 10
2.05722797E+02
 20
-2.25972403E+02
  0
VERTEX
  8
0
 62
4
 10
2.05760561E+02
 20
-2.26148853E+02
  0
VERTEX
  8
0
 62
4
 10
2.05813028E+02
 20
-2.26321222E+02
  0
VERTEX
  8
0
 62
4
 10
2.05879797E+02
 20
-2.26488199E+02
  0
VERTEX
  8
0
 62
4
 10
2.05960362E+02
 20
-2.26648512E+02
  0
VERTEX
  8
0
 62
4
 10
2.06054109E+02
 20
-2.26800942E+02
  0
VERTEX
  8
0
 62
4
 10
2.06160324E+02
 20
-2.26944328E+02
  0
VERTEX
  8
0
 62
4
 10
2.06278199E+02
 20
-2.27077579E+02
  0
VERTEX
  8
0
 62
4
 10
2.06406838E+02
 20
-2.27199681E+02
  0
VERTEX
  8
0
 62
4
 10
2.06545260E+02
 20
-2.27309705E+02
  0
VERTEX
  8
0
 62
4
 10
2.06692413E+02
 20
-2.27406814E+02
  0
VERTEX
  8
0
 62
4
 10
2.06847176E+02
 20
-2.27490267E+02
  0
VERTEX
  8
0
 62
4
 10
2.07008373E+02
 20
-2.27559431E+02
  0
VERTEX
  8
0
 62
4
 10
2.07174775E+02
 20
-2.27613779E+02
  0
VERTEX
  8
0
 62
4
 10
2.07345117E+02
 20
-2.27652897E+02
  0
VERTEX
  8
0
 62
4
 10
2.07518102E+02
 20
-2.27676488E+02
  0
VERTEX
  8
0
 62
4
 10
2.07692413E+02
 20
-2.27684371E+02
  0
SEQEND
  8
0
  0
LINE
  8
0
  6
CENTER
 62
6
 10
2.07692413E+02
 20
-2.23013720E+02
 11
2.07692413E+02
 21
-2.28858255E+02
  0
LINE
  8
0
  6
CENTER
 62
6
 10
1.96770145E+02
 20
-2.25935988E+02
 11
2.10614681E+02
 21
-2.25935988E+02
  0
POLYLINE
  8
0
 62
6
 66
1
  0
VERTEX
  8
0
 62
6
 10
2.01192413E+02
 20
-2.25935988E+02
  0
VERTEX
  8
0
 62
6
 10
2.01186705E+02
 20
-2.25808111E+02
  0
VERTEX
  8
0
 62
6
 10
2.01169625E+02
 20
-2.25681208E+02
  0
VERTEX
  8
0
 62
6
 10
2.01141302E+02
 20
-2.25556243E+02
  0
VERTEX
  8
0
 62
6
 10
2.01101952E+02
 20
-2.25434169E+02
  0
VERTEX
  8
0
 62
6
 10
2.01051875E+02
 20
-2.25315913E+02
  0
VERTEX
  8
0
 62
6
 10
2.00991451E+02
 20
-2.25202377E+02
  0
VERTEX
  8
0
 62
6
 10
2.00921141E+02
 20
-2.25094424E+02
  0
VERTEX
  8
0
 62
6
 10
2.00841480E+02
 20
-2.24992876E+02
  0
VERTEX
  8
0
 62
6
 10
2.00753073E+02
 20
-2.24898506E+02
  0
VERTEX
  8
0
 62
6
 10
2.00656594E+02
 20
-2.24812031E+02
  0
VERTEX
  8
0
 62
6
 10
2.00552778E+02
 20
-2.24734111E+02
  0
VERTEX
  8
0
 62
6
 10
2.00442413E+02
 20
-2.24665337E+02
  0
VERTEX
  8
0
 62
6
 10
2.00326340E+02
 20
-2.24606234E+02
  0
VERTEX
  8
0
 62
6
 10
2.00205443E+02
 20
-2.24557251E+02
  0
VERTEX
  8
0
 62
6
 10
2.00080642E+02
 20
-2.24518761E+02
  0
VERTEX
  8
0
 62
6
 10
1.99952885E+02
 20
-2.24491057E+02
  0
VERTEX
  8
0
 62
6
 10
1.99823147E+02
 20
-2.24474350E+02
  0
VERTEX
  8
0
 62
6
 10
1.99692413E+02
 20
-2.24468767E+02
  0
VERTEX
  8
0
 62
6
 10
1.99561679E+02
 20
-2.24474350E+02
  0
VERTEX
  8
0
 62
6
 10
1.99431941E+02
 20
-2.24491057E+02
  0
VERTEX
  8
0
 62
6
 10
1.99304184E+02
 20
-2.24518761E+02
  0
VERTEX
  8
0
 62
6
 10
1.99179383E+02
 20
-2.24557251E+02
  0
VERTEX
  8
0
 62
6
 10
1.99058486E+02
 20
-2.24606234E+02
  0
VERTEX
  8
0
 62
6
 10
1.98942413E+02
 20
-2.24665337E+02
  0
VERTEX
  8
0
 62
6
 10
1.98832048E+02
 20
-2.24734111E+02
  0
VERTEX
  8
0
 62
6
 10
1.98728232E+02
 20
-2.24812031E+02
  0
VERTEX
  8
0
 62
6
 10
1.98631753E+02
 20
-2.24898506E+02
  0
VERTEX
  8
0
 62
6
 10
1.98543346E+02
 20
-2.24992876E+02
  0
VERTEX
  8
0
 62
6
 10
1.98463685E+02
 20
-2.25094424E+02
  0
VERTEX
  8
0
 62
6
 10
1.98393375E+02
 20
-2.25202377E+02
  0
VERTEX
  8
0
 62
6
 10
1.98332951E+02
 20
-2.25315913E+02
  0
VERTEX
  8
0
 62
6
 10
1.98282874E+02
 20
-2.25434169E+02
  0
VERTEX
  8
0
 62
6
 10
1.98243524E+02
 20
-2.25556243E+02
  0
VERTEX
  8
0
 62
6
 10
1.98215201E+02
 20
-2.25681208E+02
  0
VERTEX
  8
0
 62
6
 10
1.98198121E+02
 20
-2.25808111E+02
  0
VERTEX
  8
0
 62
6
 10
1.98192413E+02
 20
-2.25935988E+02
  0
VERTEX
  8
0
 62
6
 10
1.98198121E+02
 20
-2.26063865E+02
  0
VERTEX
  8
0
 62
6
 10
1.98215201E+02
 20
-2.26190768E+02
  0
VERTEX
  8
0
 62
6
 10
1.98243524E+02
 20
-2.26315733E+02
  0
VERTEX
  8
0
 62
6
 10
1.98282874E+02
 20
-2.26437807E+02
  0
VERTEX
  8
0
 62
6
 10
1.98332951E+02
 20
-2.26556063E+02
  0
VERTEX
  8
0
 62
6
 10
1.98393375E+02
 20
-2.26669599E+02
  0
VERTEX
  8
0
 62
6
 10
1.98463685E+02
 20
-2.26777552E+02
  0
VERTEX
  8
0
 62
6
 10
1.98543346E+02
 20
-2.26879100E+02
  0
VERTEX
  8
0
 62
6
 10
1.98631753E+02
 20
-2.26973470E+02
  0
VERTEX
  8
0
 62
6
 10
1.98728232E+02
 20
-2.27059945E+02
  0
VERTEX
  8
0
 62
6
 10
1.98832048E+02
 20
-2.27137865E+02
  0
VERTEX
  8
0
 62
6
 10
1.98942413E+02
 20
-2.27206639E+02
  0
VERTEX
  8
0
 62
6
 10
1.99058486E+02
 20
-2.27265742E+02
  0
VERTEX
  8
0
 62
6
 10
1.99179383E+02
 20
-2.27314725E+02
  0
VERTEX
  8
0
 62
6
 10
1.99304184E+02
 20
-2.27353215E+02
  0
VERTEX
  8
0
 62
6
 10
1.99431941E+02
 20
-2.27380919E+02
  0
VERTEX
  8
0
 62
6
 10
1.99561679E+02
 20
-2.27397626E+02
  0
VERTEX
  8
0
 62
6
 10
1.99692413E+02
 20
-2.27403209E+02
  0
VERTEX
  8
0
 62
6
 10
1.99823147E+02
 20
-2.27397626E+02
  0
VERTEX
  8
0
 62
6
 10
1.99952885E+02
 20
-2.27380919E+02
  0
VERTEX
  8
0
 62
6
 10
2.00080642E+02
 20
-2.27353215E+02
  0
VERTEX
  8
0
 62
6
 10
2.00205443E+02
 20
-2.27314725E+02
  0
VERTEX
  8
0
 62
6
 10
2.00326340E+02
 20
-2.27265742E+02
  0
VERTEX
  8
0
 62
6
 10
2.00442413E+02
 20
-2.27206639E+02
  0
VERTEX
  8
0
 62
6
 10
2.00552778E+02
 20
-2.27137865E+02
  0
VERTEX
  8
0
 62
6
 10
2.00656594E+02
 20
-2.27059945E+02
  0
VERTEX
  8
0
 62
6
 10
2.00753073E+02
 20
-2.26973470E+02
  0
VERTEX
  8
0
 62
6
 10
2.00841480E+02
 20
-2.26879100E+02
  0
VERTEX
  8
0
 62
6
 10
2.00921141E+02
 20
-2.26777552E+02
  0
VERTEX
  8
0
 62
6
 10
2.00991451E+02
 20
-2.26669599E+02
  0
VERTEX
  8
0
 62
6
 10
2.01051875E+02
 20
-2.26556063E+02
  0
VERTEX
  8
0
 62
6
 10
2.01101952E+02
 20
-2.26437807E+02
  0
VERTEX
  8
0
 62
6
 10
2.01141302E+02
 20
-2.26315733E+02
  0
VERTEX
  8
0
 62
6
 10
2.01169625E+02
 20
-2.26190768E+02
  0
VERTEX
  8
0
 62
6
 10
2.01186705E+02
 20
-2.26063865E+02
  0
VERTEX
  8
0
 62
6
 10
2.01192413E+02
 20
-2.25935988E+02
  0
SEQEND
  8
0
  0
POLYLINE
  8
0
 62
4
 66
1
  0
VERTEX
  8
0
 62
4
 10
2.01427413E+02
 20
-2.25940878E+02
  0
VERTEX
  8
0
 62
4
 10
2.01420811E+02
 20
-2.25792967E+02
  0
VERTEX
  8
0
 62
4
 10
2.01401054E+02
 20
-2.25646182E+02
  0
VERTEX
  8
0
 62
4
 10
2.01368294E+02
 20
-2.25501640E+02
  0
VERTEX
  8
0
 62
4
 10
2.01322780E+02
 20
-2.25360440E+02
  0
VERTEX
  8
0
 62
4
 10
2.01264857E+02
 20
-2.25223658E+02
  0
VERTEX
  8
0
 62
4
 10
2.01194967E+02
 20
-2.25092335E+02
  0
VERTEX
  8
0
 62
4
 10
2.01113642E+02
 20
-2.24967469E+02
  0
VERTEX
  8
0
 62
4
 10
2.01021500E+02
 20
-2.24850012E+02
  0
VERTEX
  8
0
 62
4
 10
2.00919243E+02
 20
-2.24740857E+02
  0
VERTEX
  8
0
 62
4
 10
2.00807650E+02
 20
-2.24640835E+02
  0
VERTEX
  8
0
 62
4
 10
2.00687568E+02
 20
-2.24550706E+02
  0
VERTEX
  8
0
 62
4
 10
2.00559913E+02
 20
-2.24471158E+02
  0
VERTEX
  8
0
 62
4
 10
2.00425656E+02
 20
-2.24402796E+02
  0
VERTEX
  8
0
 62
4
 10
2.00285818E+02
 20
-2.24346139E+02
  0
VERTEX
  8
0
 62
4
 10
2.00141464E+02
 20
-2.24301619E+02
  0
VERTEX
  8
0
 62
4
 10
1.99993693E+02
 20
-2.24269574E+02
  0
VERTEX
  8
0
 62
4
 10
1.99843628E+02
 20
-2.24250250E+02
  0
VERTEX
  8
0
 62
4
 10
1.99692413E+02
 20
-2.24243792E+02
  0
VERTEX
  8
0
 62
4
 10
1.99541198E+02
 20
-2.24250250E+02
  0
VERTEX
  8
0
 62
4
 10
1.99391133E+02
 20
-2.24269574E+02
  0
VERTEX
  8
0
 62
4
 10
1.99243362E+02
 20
-2.24301619E+02
  0
VERTEX
  8
0
 62
4
 10
1.99099008E+02
 20
-2.24346139E+02
  0
VERTEX
  8
0
 62
4
 10
1.98959170E+02
 20
-2.24402796E+02
  0
VERTEX
  8
0
 62
4
 10
1.98824913E+02
 20
-2.24471158E+02
  0
VERTEX
  8
0
 62
4
 10
1.98697258E+02
 20
-2.24550706E+02
  0
VERTEX
  8
0
 62
4
 10
1.98577176E+02
 20
-2.24640835E+02
  0
VERTEX
  8
0
 62
4
 10
1.98465583E+02
 20
-2.24740857E+02
  0
VERTEX
  8
0
 62
4
 10
1.98363326E+02
 20
-2.24850012E+02
  0
VERTEX
  8
0
 62
4
 10
1.98271184E+02
 20
-2.24967469E+02
  0
VERTEX
  8
0
 62
4
 10
1.98189859E+02
 20
-2.25092335E+02
  0
VERTEX
  8
0
 62
4
 10
1.98119969E+02
 20
-2.25223658E+02
  0
VERTEX
  8
0
 62
4
 10
1.98062046E+02
 20
-2.25360440E+02
  0
VERTEX
  8
0
 62
4
 10
1.98016532E+02
 20
-2.25501640E+02
  0
VERTEX
  8
0
 62
4
 10
1.97983772E+02
 20
-2.25646182E+02
  0
VERTEX
  8
0
 62
4
 10
1.97964015E+02
 20
-2.25792967E+02
  0
VERTEX
  8
0
 62
4
 10
1.97957413E+02
 20
-2.25940878E+02
  0
VERTEX
  8
0
 62
4
 10
1.97964015E+02
 20
-2.26088789E+02
  0
VERTEX
  8
0
 62
4
 10
1.97983772E+02
 20
-2.26235574E+02
  0
VERTEX
  8
0
 62
4
 10
1.98016532E+02
 20
-2.26380116E+02
  0
VERTEX
  8
0
 62
4
 10
1.98062046E+02
 20
-2.26521316E+02
  0
VERTEX
  8
0
 62
4
 10
1.98119969E+02
 20
-2.26658098E+02
  0
VERTEX
  8
0
 62
4
 10
1.98189859E+02
 20
-2.26789421E+02
  0
VERTEX
  8
0
 62
4
 10
1.98271184E+02
 20
-2.26914287E+02
  0
VERTEX
  8
0
 62
4
 10
1.98363326E+02
 20
-2.27031744E+02
  0
VERTEX
  8
0
 62
4
 10
1.98465583E+02
 20
-2.27140899E+02
  0
VERTEX
  8
0
 62
4
 10
1.98577176E+02
 20
-2.27240921E+02
  0
VERTEX
  8
0
 62
4
 10
1.98697258E+02
 20
-2.27331050E+02
  0
VERTEX
  8
0
 62
4
 10
1.98824913E+02
 20
-2.27410598E+02
  0
VERTEX
  8
0
 62
4
 10
1.98959170E+02
 20
-2.27478960E+02
  0
VERTEX
  8
0
 62
4
 10
1.99099008E+02
 20
-2.27535617E+02
  0
VERTEX
  8
0
 62
4
 10
1.99243362E+02
 20
-2.27580137E+02
  0
VERTEX
  8
0
 62
4
 10
1.99391133E+02
 20
-2.27612182E+02
  0
VERTEX
  8
0
 62
4
 10
1.99541198E+02
 20
-2.27631506E+02
  0
VERTEX
  8
0
 62
4
 10
1.99692413E+02
 20
-2.27637964E+02
  0
VERTEX
  8
0
 62
4
 10
1.99843628E+02
 20
-2.27631506E+02
  0
VERTEX
  8
0
 62
4
 10
1.99993693E+02
 20
-2.27612182E+02
  0
VERTEX
  8
0
 62
4
 10
2.00141464E+02
 20
-2.27580137E+02
  0
VERTEX
  8
0
 62
4
 10
2.00285818E+02
 20
-2.27535617E+02
  0
VERTEX
  8
0
 62
4
 10
2.00425656E+02
 20
-2.27478960E+02
  0
VERTEX
  8
0
 62
4
 10
2.00559913E+02
 20
-2.27410598E+02
  0
VERTEX
  8
0
 62
4
 10
2.00687568E+02
 20
-2.27331050E+02
  0
VERTEX
  8
0
 62
4
 10
2.00807650E+02
 20
-2.27240921E+02
  0
VERTEX
  8
0
 62
4
 10
2.00919243E+02
 20
-2.27140899E+02
  0
VERTEX
  8
0
 62
4
 10
2.01021500E+02
 20
-2.27031744E+02
  0
VERTEX
  8
0
 62
4
 10
2.01113642E+02
 20
-2.26914287E+02
  0
VERTEX
  8
0
 62
4
 10
2.01194967E+02
 20
-2.26789421E+02
  0
VERTEX
  8
0
 62
4
 10
2.01264857E+02
 20
-2.26658098E+02
  0
VERTEX
  8
0
 62
4
 10
2.01322780E+02
 20
-2.26521316E+02
  0
VERTEX
  8
0
 62
4
 10
2.01368294E+02
 20
-2.26380116E+02
  0
VERTEX
  8
0
 62
4
 10
2.01401054E+02
 20
-2.26235574E+02
  0
VERTEX
  8
0
 62
4
 10
2.01420811E+02
 20
-2.26088789E+02
  0
VERTEX
  8
0
 62
4
 10
2.01427413E+02
 20
-2.25940878E+02
  0
SEQEND
  8
0
  0
POLYLINE
  8
0
 62
4
 66
1
  0
VERTEX
  8
0
 62
4
 10
1.99692413E+02
 20
-2.27684371E+02
  0
VERTEX
  8
0
 62
4
 10
1.99866724E+02
 20
-2.27676488E+02
  0
VERTEX
  8
0
 62
4
 10
2.00039709E+02
 20
-2.27652897E+02
  0
VERTEX
  8
0
 62
4
 10
2.00210051E+02
 20
-2.27613779E+02
  0
VERTEX
  8
0
 62
4
 10
2.00376453E+02
 20
-2.27559431E+02
  0
VERTEX
  8
0
 62
4
 10
2.00537650E+02
 20
-2.27490267E+02
  0
VERTEX
  8
0
 62
4
 10
2.00692413E+02
 20
-2.27406814E+02
  0
VERTEX
  8
0
 62
4
 10
2.00839566E+02
 20
-2.27309705E+02
  0
VERTEX
  8
0
 62
4
 10
2.00977988E+02
 20
-2.27199681E+02
  0
VERTEX
  8
0
 62
4
 10
2.01106627E+02
 20
-2.27077579E+02
  0
VERTEX
  8
0
 62
4
 10
2.01224502E+02
 20
-2.26944328E+02
  0
VERTEX
  8
0
 62
4
 10
2.01330717E+02
 20
-2.26800942E+02
  0
VERTEX
  8
0
 62
4
 10
2.01424464E+02
 20
-2.26648512E+02
  0
VERTEX
  8
0
 62
4
 10
2.01505029E+02
 20
-2.26488199E+02
  0
VERTEX
  8
0
 62
4
 10
2.01571798E+02
 20
-2.26321222E+02
  0
VERTEX
  8
0
 62
4
 10
2.01624265E+02
 20
-2.26148853E+02
  0
VERTEX
  8
0
 62
4
 10
2.01662029E+02
 20
-2.25972403E+02
  0
VERTEX
  8
0
 62
4
 10
2.01684802E+02
 20
-2.25793215E+02
  0
VERTEX
  8
0
 62
4
 10
2.01692413E+02
 20
-2.25612653E+02
  0
VERTEX
  8
0
 62
4
 10
2.01684802E+02
 20
-2.25432091E+02
  0
VERTEX
  8
0
 62
4
 10
2.01662029E+02
 20
-2.25252903E+02
  0
VERTEX
  8
0
 62
4
 10
2.01624265E+02
 20
-2.25076453E+02
  0
VERTEX
  8
0
 62
4
 10
2.01571798E+02
 20
-2.24904084E+02
  0
VERTEX
  8
0
 62
4
 10
2.01505029E+02
 20
-2.24737107E+02
  0
VERTEX
  8
0
 62
4
 10
2.01424464E+02
 20
-2.24576794E+02
  0
VERTEX
  8
0
 62
4
 10
2.01330717E+02
 20
-2.24424364E+02
  0
VERTEX
  8
0
 62
4
 10
2.01224502E+02
 20
-2.24280978E+02
  0
VERTEX
  8
0
 62
4
 10
2.01106627E+02
 20
-2.24147727E+02
  0
VERTEX
  8
0
 62
4
 10
2.00977988E+02
 20
-2.24025625E+02
  0
VERTEX
  8
0
 62
4
 10
2.00839566E+02
 20
-2.23915601E+02
  0
VERTEX
  8
0
 62
4
 10
2.00692413E+02
 20
-2.23818492E+02
  0
VERTEX
  8
0
 62
4
 10
2.00537650E+02
 20
-2.23735039E+02
  0
VERTEX
  8
0
 62
4
 10
2.00376453E+02
 20
-2.23665875E+02
  0
VERTEX
  8
0
 62
4
 10
2.00210051E+02
 20
-2.23611527E+02
  0
VERTEX
  8
0
 62
4
 10
2.00039709E+02
 20
-2.23572409E+02
  0
VERTEX
  8
0
 62
4
 10
1.99866724E+02
 20
-2.23548818E+02
  0
VERTEX
  8
0
 62
4
 10
1.99692413E+02
 20
-2.23540935E+02
  0
VERTEX
  8
0
 62
4
 10
1.99518102E+02
 20
-2.23548818E+02
  0
VERTEX
  8
0
 62
4
 10
1.99345117E+02
 20
-2.23572409E+02
  0
VERTEX
  8
0
 62
4
 10
1.99174775E+02
 20
-2.23611527E+02
  0
VERTEX
  8
0
 62
4
 10
1.99008373E+02
 20
-2.23665875E+02
  0
VERTEX
  8
0
 62
4
 10
1.98847176E+02
 20
-2.23735039E+02
  0
VERTEX
  8
0
 62
4
 10
1.98692413E+02
 20
-2.23818492E+02
  0
VERTEX
  8
0
 62
4
 10
1.98545260E+02
 20
-2.23915601E+02
  0
VERTEX
  8
0
 62
4
 10
1.98406838E+02
 20
-2.24025625E+02
  0
VERTEX
  8
0
 62
4
 10
1.98278199E+02
 20
-2.24147727E+02
  0
VERTEX
  8
0
 62
4
 10
1.98160324E+02
 20
-2.24280978E+02
  0
VERTEX
  8
0
 62
4
 10
1.98054109E+02
 20
-2.24424364E+02
  0
VERTEX
  8
0
 62
4
 10
1.97960362E+02
 20
-2.24576794E+02
  0
VERTEX
  8
0
 62
4
 10
1.97879797E+02
 20
-2.24737107E+02
  0
VERTEX
  8
0
 62
4
 10
1.97813028E+02
 20
-2.24904084E+02
  0
VERTEX
  8
0
 62
4
 10
1.97760561E+02
 20
-2.25076453E+02
  0
VERTEX
  8
0
 62
4
 10
1.97722797E+02
 20
-2.25252903E+02
  0
VERTEX
  8
0
 62
4
 10
1.97700024E+02
 20
-2.25432091E+02
  0
VERTEX
  8
0
 62
4
 10
1.97692413E+02
 20
-2.25612653E+02
  0
VERTEX
  8
0
 62
4
 10
1.97700024E+02
 20
-2.25793215E+02
  0
VERTEX
  8
0
 62
4
 10
1.97722797E+02
 20
-2.25972403E+02
  0
VERTEX
  8
0
 62
4
 10
1.97760561E+02
 20
-2.26148853E+02
  0
VERTEX
  8
0
 62
4
 10
1.97813028E+02
 20
-2.26321222E+02
  0
VERTEX
  8
0
 62
4
 10
1.97879797E+02
 20
-2.26488199E+02
  0
VERTEX
  8
0
 62
4
 10
1.97960362E+02
 20
-2.26648512E+02
  0
VERTEX
  8
0
 62
4
 10
1.98054109E+02
 20
-2.26800942E+02
  0
VERTEX
  8
0
 62
4
 10
1.98160324E+02
 20
-2.26944328E+02
  0
VERTEX
  8
0
 62
4
 10
1.98278199E+02
 20
-2.27077579E+02
  0
VERTEX
  8
0
 62
4
 10
1.98406838E+02
 20
-2.27199681E+02
  0
VERTEX
  8
0
 62
4
 10
1.98545260E+02
 20
-2.27309705E+02
  0
VERTEX
  8
0
 62
4
 10
1.98692413E+02
 20
-2.27406814E+02
  0
VERTEX
  8
0
 62
4
 10
1.98847176E+02
 20
-2.27490267E+02
  0
VERTEX
  8
0
 62
4
 10
1.99008373E+02
 20
-2.27559431E+02
  0
VERTEX
  8
0
 62
4
 10
1.99174775E+02
 20
-2.27613779E+02
  0
VERTEX
  8
0
 62
4
 10
1.99345117E+02
 20
-2.27652897E+02
  0
VERTEX
  8
0
 62
4
 10
1.99518102E+02
 20
-2.27676488E+02
  0
VERTEX
  8
0
 62
4
 10
1.99692413E+02
 20
-2.27684371E+02
  0
SEQEND
  8
0
  0
LINE
  8
0
 62
4
 10
2.12692413E+02
 20
-2.19407712E+02
 11
2.12692413E+02
 21
-2.17740352E+02
  0
LINE
  8
0
 62
4
 10
1.79692413E+02
 20
-2.19407712E+02
 11
1.79692413E+02
 21
-2.17740352E+02
  0
LINE
  8
0
 62
4
 10
2.30692413E+02
 20
-1.67450841E+02
 11
2.25692413E+02
 21
-1.67450841E+02
  0
LINE
  8
0
 62
4
 10
2.11192413E+02
 20
-1.70477400E+02
 11
1.96192413E+02
 21
-1.70477400E+02
  0
LINE
  8
0
 62
4
 10
1.96192413E+02
 20
-2.04169416E+02
 11
2.11192413E+02
 21
-2.04169416E+02
  0
LINE
  8
0
 62
4
 10
1.96192413E+02
 20
-2.30589872E+02
 11
2.11192413E+02
 21
-2.30589872E+02
  0
LINE
  8
0
 62
4
 10
2.11192413E+02
 20
-2.04169416E+02
 11
2.11192413E+02
 21
-2.30589872E+02
  0
LINE
  8
0
 62
4
 10
1.96192413E+02
 20
-2.04169416E+02
 11
1.96192413E+02
 21
-2.30589872E+02
  0
LINE
  8
0
  6
CENTER
 62
6
 10
1.99692413E+02
 20
-2.23013720E+02
 11
1.99692413E+02
 21
-2.28858255E+02
  0
LINE
  8
0
 62
4
 10
2.24192413E+02
 20
-1.69035832E+02
 11
2.20692413E+02
 21
-1.69035832E+02
  0
LINE
  8
0
 62
4
 10
2.14192413E+02
 20
-1.95254367E+02
 11
2.11192413E+02
 21
-1.95254367E+02
  0
LINE
  8
0
 62
4
 10
2.30692413E+02
 20
-1.72470320E+02
 11
2.25692413E+02
 21
-1.72470320E+02
  0
LINE
  8
0
 62
4
 10
2.30692413E+02
 20
-1.72474029E+02
 11
2.25692413E+02
 21
-1.72474029E+02
  0
LINE
  8
0
 62
4
 10
2.30692413E+02
 20
-1.79816209E+02
 11
2.25692413E+02
 21
-1.79816209E+02
  0
LINE
  8
0
 62
4
 10
2.11192413E+02
 20
-1.67785832E+02
 11
2.20192413E+02
 21
-1.67785832E+02
  0
LINE
  8
0
 62
4
 10
2.20692413E+02
 20
-1.68285832E+02
 11
2.20692413E+02
 21
-1.81285832E+02
  0
LINE
  8
0
 62
4
 10
2.30692413E+02
 20
-1.67450841E+02
 11
2.30692413E+02
 21
-1.82132836E+02
  0
LINE
  8
0
 62
4
 10
2.25692413E+02
 20
-1.67450841E+02
 11
2.25692413E+02
 21
-1.82132836E+02
  0
LINE
  8
0
 62
4
 10
2.25692413E+02
 20
-1.68535832E+02
 11
2.20692413E+02
 21
-1.68535832E+02
  0
LINE
  8
0
 62
4
 10
2.25692413E+02
 20
-1.81035832E+02
 11
2.20692413E+02
 21
-1.81035832E+02
  0
LINE
  8
0
 62
4
 10
2.24192413E+02
 20
-1.68535832E+02
 11
2.24192413E+02
 21
-1.81035832E+02
  0
LINE
  8
0
 62
4
 10
2.24192413E+02
 20
-1.80535832E+02
 11
2.20692413E+02
 21
-1.80535832E+02
  0
LINE
  8
0
 62
4
 10
2.20192413E+02
 20
-1.81785832E+02
 11
2.11692413E+02
 21
-1.81785832E+02
  0
LINE
  8
0
 62
4
 10
2.30692413E+02
 20
-1.82132836E+02
 11
2.25692413E+02
 21
-1.82132836E+02
  0
LINE
  8
0
 62
4
 10
1.96192413E+02
 20
-2.14451497E+02
 11
1.76692413E+02
 21
-2.14451497E+02
  0
LINE
  8
0
 62
4
 10
1.96192413E+02
 20
-2.12984276E+02
 11
1.76692413E+02
 21
-2.12984276E+02
  0
LINE
  8
0
 62
4
 10
2.11192413E+02
 20
-1.67358725E+02
 11
1.96192413E+02
 21
-1.67358725E+02
  0
LINE
  8
0
 62
4
 10
2.13192413E+02
 20
-1.95346913E+02
 11
1.94192413E+02
 21
-1.95346913E+02
  0
LINE
  8
0
 62
4
 10
2.15692413E+02
 20
-1.96754367E+02
 11
2.15692413E+02
 21
-2.14451497E+02
  0
LINE
  8
0
 62
4
 10
2.15692413E+02
 20
-2.14451497E+02
 11
2.11192413E+02
 21
-2.14451497E+02
  0
LINE
  8
0
 62
4
 10
2.15692413E+02
 20
-2.12984276E+02
 11
2.11192413E+02
 21
-2.12984276E+02
  0
LINE
  8
0
 62
4
 10
2.13192413E+02
 20
-1.95346913E+02
 11
2.13192413E+02
 21
-1.99259504E+02
  0
LINE
  8
0
 62
4
 10
1.96192413E+02
 20
-1.67358725E+02
 11
1.96192413E+02
 21
-1.95346913E+02
  0
LINE
  8
0
 62
4
 10
2.11192413E+02
 20
-1.67358725E+02
 11
2.11192413E+02
 21
-1.95346913E+02
  0
LINE
  8
0
 62
4
 10
1.94192413E+02
 20
-1.95346913E+02
 11
1.94192413E+02
 21
-1.99259504E+02
  0
LINE
  8
0
 62
4
 10
2.11192413E+02
 20
-1.93952942E+02
 11
1.96192413E+02
 21
-1.93952942E+02
  0
LINE
  8
0
 62
4
 10
1.76692413E+02
 20
-1.96754367E+02
 11
1.76692413E+02
 21
-2.14451497E+02
  0
ARC
  8
0
 62
4
 10
2.20192913E+02
 20
-1.68285332E+02
 40
4.99500622E-01
 50
3.59942689E+02
 51
9.00573103E+01
  0
ARC
  8
0
 62
4
 10
2.11691914E+02
 20
-1.82285332E+02
 40
4.99500622E-01
 50
8.99426895E+01
 51
1.80057310E+02
  0
ARC
  8
0
 62
4
 10
1.78191913E+02
 20
-1.96753868E+02
 40
1.49950029E+00
 50
8.99809029E+01
 51
1.80019097E+02
  0
ARC
  8
0
 62
4
 10
2.20191913E+02
 20
-1.81285332E+02
 40
5.00500378E-01
 50
2.70057253E+02
 51
3.59942747E+02
  0
ARC
  8
0
 62
4
 10
2.14192913E+02
 20
-1.96753868E+02
 40
1.49950029E+00
 50
3.59980903E+02
 51
9.00190969E+01
  0
LINE
  8
0
 62
4
 10
1.97192413E+02
 20
-2.20323396E+02
 11
2.10192413E+02
 21
-2.20323396E+02
  0
CIRCLE
  8
0
 62
7
 10
4.15789010E+01
 20
-2.22057721E+02
 40
2.45850000E+00
  0
CIRCLE
  8
0
 62
7
 10
4.57885520E+00
 20
-2.22057721E+02
 40
2.45850000E+00
  0
CIRCLE
  8
0
 62
7
 10
-2.85249943E+02
 20
-2.22057721E+02
 40
2.45850000E+00
  0
CIRCLE
  8
0
 62
7
 10
-3.22249989E+02
 20
-2.22057721E+02
 40
2.45850000E+00
  0
LINE
  8
0
 62
2
 10
1.37017190E+02
 20
-2.45206915E+02
 11
1.54822762E+02
 21
-2.14366760E+02
  0
LINE
  8
0
 62
2
 10
-8.33566691E+01
 20
-2.46090287E+02
 11
-6.34432098E+01
 21
-2.11599164E+02
  0
LINE
  8
0
 62
7
 10
3.25788399E+01
 20
-2.40557706E+02
 11
3.25788399E+01
 21
-2.35072878E+02
  0
CIRCLE
  8
0
 62
2
 10
4.15789010E+01
 20
-2.22057629E+02
 40
3.00000000E+00
  0
CIRCLE
  8
0
 62
2
 10
4.57885520E+00
 20
-2.22057629E+02
 40
3.00000000E+00
  0
ARC
  8
0
 62
7
 10
2.30788399E+01
 20
-2.40557706E+02
 40
1.60000000E+01
 50
0.00000000E+00
 51
1.80000000E+02
  0
CIRCLE
  8
0
 62
7
 10
4.57885520E+00
 20
-2.22057645E+02
 40
5.00000000E+00
  0
CIRCLE
  8
0
 62
7
 10
4.57885520E+00
 20
-2.22057645E+02
 40
4.50000000E+00
  0
ARC
  8
0
 62
7
 10
4.50788399E+01
 20
-2.18557675E+02
 40
3.00000000E+00
 50
0.00000000E+00
 51
8.99999818E+01
  0
ARC
  8
0
 62
7
 10
2.30788399E+01
 20
-2.40557706E+02
 40
1.50000000E+01
 50
0.00000000E+00
 51
1.80000000E+02
  0
ARC
  8
0
 62
7
 10
1.07879417E+00
 20
-2.18557675E+02
 40
3.00000000E+00
 50
8.99999818E+01
 51
1.79999964E+02
  0
CIRCLE
  8
0
 62
7
 10
4.15789010E+01
 20
-2.22057706E+02
 40
5.00000000E+00
  0
CIRCLE
  8
0
 62
7
 10
4.15789010E+01
 20
-2.22057706E+02
 40
4.50000000E+00
  0
LINE
  8
0
  6
CENTER
 62
2
 10
4.15789010E+01
 20
-2.13551068E+02
 11
4.15789010E+01
 21
-2.28472195E+02
  0
LINE
  8
0
 62
7
 10
4.80788399E+01
 20
-2.18557675E+02
 11
4.80788399E+01
 21
-2.40557706E+02
  0
LINE
  8
0
  6
CENTER
 62
2
 10
5.04788491E+01
 20
-2.40557706E+02
 11
-5.75663979E+00
 21
-2.40557706E+02
  0
LINE
  8
0
  6
CENTER
 62
2
 10
1.30788399E+01
 20
-2.32203610E+02
 11
1.30788399E+01
 21
-2.13628689E+02
  0
LINE
  8
0
  6
CENTER
 62
2
 10
3.51974465E+01
 20
-2.22057629E+02
 11
4.97191140E+01
 21
-2.22057629E+02
  0
LINE
  8
0
  6
CENTER
 62
2
 10
2.30788399E+01
 20
-2.12062726E+02
 11
2.30788399E+01
 21
-2.40557706E+02
  0
LINE
  8
0
  6
CENTER
 62
2
 10
2.70788857E+01
 20
-2.13805310E+02
 11
2.70788857E+01
 21
-2.29191464E+02
  0
LINE
  8
0
 62
7
 10
-1.92119057E+00
 20
-2.18557675E+02
 11
-1.92119057E+00
 21
-2.40557706E+02
  0
LINE
  8
0
 62
7
 10
1.07879417E+00
 20
-2.15557675E+02
 11
4.50788399E+01
 21
-2.15557675E+02
  0
LINE
  8
0
  6
CENTER
 62
2
 10
4.57885520E+00
 20
-2.13655057E+02
 11
4.57885520E+00
 21
-2.29942044E+02
  0
LINE
  8
0
  6
CENTER
 62
2
 10
-4.01103432E+00
 20
-2.22057629E+02
 11
1.06558205E+01
 21
-2.22057629E+02
  0
ARC
  8
0
 62
7
 10
2.30788399E+01
 20
-2.40557706E+02
 40
6.00000000E+00
 50
0.00000000E+00
 51
1.80000000E+02
  0
ARC
  8
0
 62
2
 10
2.30788399E+01
 20
-2.40557706E+02
 40
5.30001831E+00
 50
0.00000000E+00
 51
1.80000000E+02
  0
ARC
  8
0
 62
7
 10
2.30788399E+01
 20
-2.40557706E+02
 40
4.99991914E+00
 50
0.00000000E+00
 51
1.80000000E+02
  0
LINE
  8
0
 62
7
 10
3.65788399E+01
 20
-2.34019357E+02
 11
3.65788399E+01
 21
-2.40557706E+02
  0
LINE
  8
0
 62
7
 10
9.57883995E+00
 20
-2.34019357E+02
 11
9.57883995E+00
 21
-2.40557706E+02
  0
ARC
  8
0
 62
7
 10
2.30788399E+01
 20
-2.40557706E+02
 40
9.50000000E+00
 50
0.00000000E+00
 51
1.80000000E+02
  0
LINE
  8
0
 62
7
 10
2.30788399E+01
 20
-2.29588050E+02
 11
1.35788399E+01
 21
-2.35072878E+02
  0
LINE
  8
0
 62
7
 10
1.35788399E+01
 20
-2.35072878E+02
 11
1.35788399E+01
 21
-2.40557706E+02
  0
LINE
  8
0
 62
7
 10
3.25788399E+01
 20
-2.35072878E+02
 11
2.30788399E+01
 21
-2.29588050E+02
  0
TEXT
  8
0
 62
7
 10
1.64121474E+02
 20
1.63113667E+01
 40
6.30000019E+00
  1
(mm)
 41
1.00000000E+00
  7
MONOTXT
  0
TEXT
  8
0
 62
7
 10
-4.10785268E+01
 20
1.63113667E+01
 40
6.30000019E+00
  1
STRETCH LIST
 41
1.05263158E+00
  7
MONOTXT
  0
TEXT
  8
0
 62
7
 10
-1.70228525E+02
 20
-3.56886333E+01
 40
6.30000019E+00
  1
B
 41
1.00000000E+00
  7
MONOTXT
  0
TEXT
  8
0
 62
7
 10
-1.70228525E+02
 20
-2.56886333E+01
 40
6.30000019E+00
  1
A
 41
1.00000000E+00
  7
MONOTXT
  0
LINE
  8
0
 62
7
 10
-1.49367588E+02
 20
2.46136684E+00
 11
-1.37567588E+02
 21
-1.75386332E+01
  0
TEXT
  8
0
 62
7
 10
-1.94128526E+02
 20
-1.56886333E+01
 40
6.30000019E+00
  1
  PLACE
 41
1.20689655E+00
  7
MONOTXT
  0
LINE
  8
0
 62
7
 10
-1.97967588E+02
 20
1.24613668E+01
 11
1.90032412E+02
 21
1.24613668E+01
  0
TEXT
  8
0
 62
7
 10
-1.33728525E+02
 20
-3.56886333E+01
 40
6.30000019E+00
  1
-25
 41
1.00000000E+00
  7
MONOTXT
  0
TEXT
  8
0
 62
7
 10
-1.02228525E+02
 20
-3.56886333E+01
 40
6.30000019E+00
  1
0
 41
1.00000000E+00
  7
MONOTXT
  0
TEXT
  8
0
 62
7
 10
-8.01785258E+01
 20
-3.56886333E+01
 40
6.30000019E+00
  1
25
 41
1.00000000E+00
  7
MONOTXT
  0
LINE
  8
0
 62
7
 10
-1.97967588E+02
 20
-3.75386332E+01
 11
1.90032412E+02
 21
-3.75386332E+01
  0
LINE
  8
0
 62
7
 10
-1.97967588E+02
 20
-2.75386332E+01
 11
1.90032412E+02
 21
-2.75386332E+01
  0
LINE
  8
0
 62
7
 10
-1.97967588E+02
 20
-3.75386332E+01
 11
-1.97967588E+02
 21
1.24613668E+01
  0
LINE
  8
0
 62
7
 10
-1.97967588E+02
 20
2.46136684E+00
 11
-1.49367588E+02
 21
2.46136684E+00
  0
LINE
  8
0
 62
7
 10
-1.97967588E+02
 20
-1.75386332E+01
 11
1.90032412E+02
 21
-1.75386332E+01
  0
LINE
  8
0
 62
7
 10
-1.37567588E+02
 20
-3.75386332E+01
 11
-1.37567588E+02
 21
1.24613668E+01
  0
LINE
  8
0
 62
7
 10
-1.12367588E+02
 20
-3.75386332E+01
 11
-1.12367588E+02
 21
1.24613668E+01
  0
LINE
  8
0
 62
7
 10
-8.71675882E+01
 20
-3.75386332E+01
 11
-8.71675882E+01
 21
1.24613668E+01
  0
LINE
  8
0
 62
7
 10
-6.19675882E+01
 20
-3.75386332E+01
 11
-6.19675882E+01
 21
1.24613668E+01
  0
LINE
  8
0
 62
7
 10
-3.67675882E+01
 20
-3.75386332E+01
 11
-3.67675882E+01
 21
1.24613668E+01
  0
LINE
  8
0
 62
7
 10
-1.15675882E+01
 20
-3.75386332E+01
 11
-1.15675882E+01
 21
1.24613668E+01
  0
LINE
  8
0
 62
7
 10
1.36324118E+01
 20
-3.75386332E+01
 11
1.36324118E+01
 21
1.24613668E+01
  0
LINE
  8
0
 62
7
 10
3.88324118E+01
 20
-3.75386332E+01
 11
3.88324118E+01
 21
1.24613668E+01
  0
LINE
  8
0
 62
7
 10
6.40324118E+01
 20
-3.75386332E+01
 11
6.40324118E+01
 21
1.24613668E+01
  0
LINE
  8
0
 62
7
 10
8.92324118E+01
 20
-3.75386332E+01
 11
8.92324118E+01
 21
1.24613668E+01
  0
LINE
  8
0
 62
7
 10
1.14432412E+02
 20
-3.75386332E+01
 11
1.14432412E+02
 21
1.24613668E+01
  0
LINE
  8
0
 62
7
 10
1.39632412E+02
 20
-3.75386332E+01
 11
1.39632412E+02
 21
1.24613668E+01
  0
LINE
  8
0
 62
7
 10
1.64832412E+02
 20
-3.75386332E+01
 11
1.64832412E+02
 21
1.24613668E+01
  0
LINE
  8
0
 62
7
 10
1.90032412E+02
 20
-3.75386332E+01
 11
1.90032412E+02
 21
1.24613668E+01
  0
TEXT
  8
0
 62
7
 10
-1.30578525E+02
 20
-5.68863326E+00
 40
6.30000019E+00
  1
50
 41
1.00000000E+00
  7
MONOTXT
  0
TEXT
  8
0
 62
7
 10
-1.33728525E+02
 20
-2.56886333E+01
 40
6.30000019E+00
  1
-25
 41
1.00000000E+00
  7
MONOTXT
  0
TEXT
  8
0
 62
7
 10
-1.90978526E+02
 20
4.31136674E+00
 40
6.30000019E+00
  1
STROKE
 41
1.00000000E+00
  7
MONOTXT
  0
TEXT
  8
0
 62
7
 10
-1.94128526E+02
 20
-5.68863326E+00
 40
6.30000019E+00
  1
STRETCH
 41
1.00000000E+00
  7
MONOTXT
  0
TEXT
  8
0
 62
7
 10
-1.05378525E+02
 20
-5.68863326E+00
 40
6.30000019E+00
  1
75
 41
1.00000000E+00
  7
MONOTXT
  0
TEXT
  8
0
 62
7
 10
-1.02228525E+02
 20
-2.56886333E+01
 40
6.30000019E+00
  1
0
 41
1.00000000E+00
  7
MONOTXT
  0
TEXT
  8
0
 62
7
 10
-8.33285259E+01
 20
-5.68863326E+00
 40
6.30000019E+00
  1
100
 41
1.00000000E+00
  7
MONOTXT
  0
TEXT
  8
0
 62
7
 10
-8.01785258E+01
 20
-2.56886333E+01
 40
6.30000019E+00
  1
25
 41
1.00000000E+00
  7
MONOTXT
  0
TEXT
  8
0
 62
7
 10
-5.81285259E+01
 20
-5.68863326E+00
 40
6.30000019E+00
  1
150
 41
1.00000000E+00
  7
MONOTXT
  0
TEXT
  8
0
 62
7
 10
-5.49785258E+01
 20
-2.56886333E+01
 40
6.30000019E+00
  1
75
 41
1.00000000E+00
  7
MONOTXT
  0
TEXT
  8
0
 62
7
 10
-3.29285259E+01
 20
-5.68863326E+00
 40
6.30000019E+00
  1
200
 41
1.00000000E+00
  7
MONOTXT
  0
TEXT
  8
0
 62
7
 10
-3.29285259E+01
 20
-2.56886333E+01
 40
6.30000019E+00
  1
125
 41
1.00000000E+00
  7
MONOTXT
  0
TEXT
  8
0
 62
7
 10
-7.72852589E+00
 20
-5.68863326E+00
 40
6.30000019E+00
  1
250
 41
1.00000000E+00
  7
MONOTXT
  0
TEXT
  8
0
 62
7
 10
-7.72852589E+00
 20
-2.56886333E+01
 40
6.30000019E+00
  1
175
 41
1.00000000E+00
  7
MONOTXT
  0
TEXT
  8
0
 62
7
 10
1.74714741E+01
 20
-5.68863326E+00
 40
6.30000019E+00
  1
300
 41
1.00000000E+00
  7
MONOTXT
  0
TEXT
  8
0
 62
7
 10
1.74714741E+01
 20
-2.56886333E+01
 40
6.30000019E+00
  1
225
 41
1.00000000E+00
  7
MONOTXT
  0
TEXT
  8
0
 62
7
 10
4.26714741E+01
 20
-5.68863326E+00
 40
6.30000019E+00
  1
350
 41
1.00000000E+00
  7
MONOTXT
  0
TEXT
  8
0
 62
7
 10
4.26714741E+01
 20
-2.56886333E+01
 40
6.30000019E+00
  1
275
 41
1.00000000E+00
  7
MONOTXT
  0
TEXT
  8
0
 62
7
 10
6.78714741E+01
 20
-5.68863326E+00
 40
6.30000019E+00
  1
400
 41
1.00000000E+00
  7
MONOTXT
  0
TEXT
  8
0
 62
7
 10
6.78714741E+01
 20
-2.56886333E+01
 40
6.30000019E+00
  1
325
 41
1.00000000E+00
  7
MONOTXT
  0
TEXT
  8
0
 62
7
 10
9.30714741E+01
 20
-5.68863326E+00
 40
6.30000019E+00
  1
450
 41
1.00000000E+00
  7
MONOTXT
  0
TEXT
  8
0
 62
7
 10
9.30714741E+01
 20
-2.56886333E+01
 40
6.30000019E+00
  1
375
 41
1.00000000E+00
  7
MONOTXT
  0
TEXT
  8
0
 62
7
 10
1.18271475E+02
 20
-5.68863326E+00
 40
6.30000019E+00
  1
500
 41
1.00000000E+00
  7
MONOTXT
  0
TEXT
  8
0
 62
7
 10
1.18271475E+02
 20
-2.56886333E+01
 40
6.30000019E+00
  1
425
 41
1.00000000E+00
  7
MONOTXT
  0
TEXT
  8
0
 62
7
 10
1.43471475E+02
 20
-5.68863326E+00
 40
6.30000019E+00
  1
600
 41
1.00000000E+00
  7
MONOTXT
  0
TEXT
  8
0
 62
7
 10
1.43471475E+02
 20
-2.56886333E+01
 40
6.30000019E+00
  1
525
 41
1.00000000E+00
  7
MONOTXT
  0
TEXT
  8
0
 62
7
 10
1.68671475E+02
 20
-5.68863326E+00
 40
6.30000019E+00
  1
700
 41
1.00000000E+00
  7
MONOTXT
  0
TEXT
  8
0
 62
7
 10
1.68671475E+02
 20
-2.56886333E+01
 40
6.30000019E+00
  1
625
 41
1.00000000E+00
  7
MONOTXT
  0
TEXT
  8
0
 62
7
 10
1.68671475E+02
 20
-3.56886333E+01
 40
6.30000019E+00
  1
625
 41
1.00000000E+00
  7
MONOTXT
  0
TEXT
  8
0
 62
7
 10
1.43471475E+02
 20
-3.56886333E+01
 40
6.30000019E+00
  1
525
 41
1.00000000E+00
  7
MONOTXT
  0
TEXT
  8
0
 62
7
 10
1.18271475E+02
 20
-3.56886333E+01
 40
6.30000019E+00
  1
425
 41
1.00000000E+00
  7
MONOTXT
  0
TEXT
  8
0
 62
7
 10
9.30714741E+01
 20
-3.56886333E+01
 40
6.30000019E+00
  1
375
 41
1.00000000E+00
  7
MONOTXT
  0
TEXT
  8
0
 62
7
 10
6.78714741E+01
 20
-3.56886333E+01
 40
6.30000019E+00
  1
325
 41
1.00000000E+00
  7
MONOTXT
  0
TEXT
  8
0
 62
7
 10
4.26714741E+01
 20
-3.56886333E+01
 40
6.30000019E+00
  1
275
 41
1.00000000E+00
  7
MONOTXT
  0
TEXT
  8
0
 62
7
 10
1.74714741E+01
 20
-3.56886333E+01
 40
6.30000019E+00
  1
225
 41
1.00000000E+00
  7
MONOTXT
  0
TEXT
  8
0
 62
7
 10
-7.72852589E+00
 20
-3.56886333E+01
 40
6.30000019E+00
  1
175
 41
1.00000000E+00
  7
MONOTXT
  0
TEXT
  8
0
 62
7
 10
-3.29285259E+01
 20
-3.56886333E+01
 40
6.30000019E+00
  1
125
 41
1.00000000E+00
  7
MONOTXT
  0
TEXT
  8
0
 62
7
 10
-5.49785258E+01
 20
-3.56886333E+01
 40
6.30000019E+00
  1
75
 41
1.00000000E+00
  7
MONOTXT
  0
TEXT
  8
0
 10
2.40496921E+01
 20
2.39478397E+02
 40
6.30000019E+00
  1
STRETCH LINE B
 41
1.09375016E+00
  7
MONOTXT
  0
LINE
  8
0
 62
7
 10
-6.74607345E+01
 20
-2.18557721E+02
 11
-1.34250038E+02
 21
-2.18557721E+02
  0
LINE
  8
0
 62
7
 10
-1.11249949E+02
 20
-8.97076995E+01
 11
-7.10114263E+01
 21
-8.97076995E+01
  0
LINE
  8
0
 62
7
 10
-1.11249949E+02
 20
-8.44077117E+01
 11
-6.79514770E+01
 21
-8.44077117E+01
  0
LINE
  8
0
 62
7
 10
-1.11249949E+02
 20
-8.35577056E+01
 11
-6.74607257E+01
 21
-8.35577056E+01
  0
LINE
  8
0
 62
7
 10
-1.34250038E+02
 20
-2.24707699E+02
 11
-7.10114263E+01
 21
-2.24707699E+02
  0
LINE
  8
0
 62
7
 10
-1.34250038E+02
 20
-2.19407712E+02
 11
-6.79514769E+01
 21
-2.19407712E+02
  0
LINE
  8
0
 62
7
 10
-2.82749989E+02
 20
-2.39557706E+02
 11
-2.86868031E+02
 21
-2.39557706E+02
  0
LINE
  8
0
 62
7
 10
-2.90020256E+02
 20
-2.28241873E+02
 11
-2.91105729E+02
 21
-2.29327347E+02
  0
LINE
  8
0
 62
7
 10
-3.02749989E+02
 20
-2.19557706E+02
 11
-3.02749989E+02
 21
-2.23675763E+02
  0
LINE
  8
0
 62
7
 10
-2.91434413E+02
 20
-2.26827689E+02
 11
-2.92519886E+02
 21
-2.27913163E+02
  0
LINE
  8
0
 62
7
 10
-2.81750004E+02
 20
-2.35557675E+02
 11
-2.81750004E+02
 21
-2.40557706E+02
  0
LINE
  8
0
  6
CENTER
 62
2
 10
-3.30839878E+02
 20
-2.22057629E+02
 11
-3.16173023E+02
 21
-2.22057629E+02
  0
LINE
  8
0
  6
CENTER
 62
2
 10
-3.22249989E+02
 20
-2.13655057E+02
 11
-3.22249989E+02
 21
-2.29942044E+02
  0
LINE
  8
0
 62
7
 10
-3.25750050E+02
 20
-2.15557675E+02
 11
-2.81750004E+02
 21
-2.15557675E+02
  0
LINE
  8
0
 62
7
 10
-3.28750034E+02
 20
-2.18557675E+02
 11
-3.28750034E+02
 21
-2.40557706E+02
  0
LINE
  8
0
 62
7
 10
-3.28250004E+02
 20
-2.18557675E+02
 11
-3.28250004E+02
 21
-2.40557706E+02
  0
LINE
  8
0
 62
7
 10
-3.04749989E+02
 20
-2.19557706E+02
 11
-3.04749989E+02
 21
-2.23675748E+02
  0
LINE
  8
0
 62
7
 10
-3.24749989E+02
 20
-2.39557690E+02
 11
-3.20631947E+02
 21
-2.39557690E+02
  0
LINE
  8
0
 62
7
 10
-3.17480059E+02
 20
-2.28241981E+02
 11
-3.16394582E+02
 21
-2.29327457E+02
  0
LINE
  8
0
 62
7
 10
-3.16065797E+02
 20
-2.26827805E+02
 11
-3.14980299E+02
 21
-2.27913302E+02
  0
LINE
  8
0
 62
7
 10
-3.08750034E+02
 20
-2.18557675E+02
 11
-2.98750004E+02
 21
-2.18557675E+02
  0
LINE
  8
0
 62
7
 10
-3.25750004E+02
 20
-2.35557675E+02
 11
-3.25750004E+02
 21
-2.40557706E+02
  0
LINE
  8
0
  6
CENTER
 62
2
 10
-3.07750050E+02
 20
-2.13805310E+02
 11
-3.07750050E+02
 21
-2.29191464E+02
  0
LINE
  8
0
  6
CENTER
 62
2
 10
-3.03750004E+02
 20
-2.12062726E+02
 11
-3.03750004E+02
 21
-2.40557706E+02
  0
LINE
  8
0
 62
7
 10
-3.23750004E+02
 20
-2.15557675E+02
 11
-3.23750004E+02
 21
-2.16057675E+02
  0
LINE
  8
0
 62
7
 10
-2.83750004E+02
 20
-2.15557675E+02
 11
-2.83750004E+02
 21
-2.16057736E+02
  0
LINE
  8
0
 62
7
 10
-2.85749943E+02
 20
-2.29846402E+02
 11
-2.85749943E+02
 21
-2.31807675E+02
  0
LINE
  8
0
 62
7
 10
-2.93037037E+02
 20
-2.22557721E+02
 11
-2.95000004E+02
 21
-2.22557721E+02
  0
LINE
  8
0
 62
7
 10
-3.14461704E+02
 20
-2.22557614E+02
 11
-3.12500034E+02
 21
-2.22557614E+02
  0
LINE
  8
0
 62
7
 10
-3.21749989E+02
 20
-2.29845547E+02
 11
-3.21749989E+02
 21
-2.31807675E+02
  0
LINE
  8
0
  6
CENTER
 62
2
 10
-2.91631397E+02
 20
-2.22057629E+02
 11
-2.77109730E+02
 21
-2.22057629E+02
  0
LINE
  8
0
  6
CENTER
 62
2
 10
-2.93750004E+02
 20
-2.32203610E+02
 11
-2.93750004E+02
 21
-2.13628689E+02
  0
LINE
  8
0
  6
CENTER
 62
2
 10
-2.76349995E+02
 20
-2.40557706E+02
 11
-3.32585484E+02
 21
-2.40557706E+02
  0
LINE
  8
0
 62
7
 10
-1.80250019E+02
 20
-2.40557706E+02
 11
-1.80250019E+02
 21
-2.26057706E+02
  0
LINE
  8
0
 62
7
 10
-1.34250038E+02
 20
-2.40557706E+02
 11
-1.34250038E+02
 21
-2.15531521E+02
  0
LINE
  8
0
 62
7
 10
-1.75008761E+02
 20
-1.20816037E+02
 11
-1.67249171E+02
 21
-1.21087009E+02
  0
LINE
  8
0
 62
7
 10
-1.67249943E+02
 20
-9.00577056E+01
 11
-1.67249943E+02
 21
-1.21087125E+02
  0
LINE
  8
0
 62
7
 10
-1.34249985E+02
 20
-8.05576006E+01
 11
-1.64758704E+02
 21
-8.10901277E+01
  0
LINE
  8
0
 62
7
 10
-1.66749989E+02
 20
-1.21557675E+02
 11
-1.65249973E+02
 21
-1.21557675E+02
  0
LINE
  8
0
 62
7
 10
-1.75249935E+02
 20
-9.05576750E+01
 11
-1.75249935E+02
 21
-1.20557751E+02
  0
LINE
  8
0
 62
7
 10
-1.75008744E+02
 20
-9.02991437E+01
 11
-1.67249153E+02
 21
-9.00281740E+01
  0
LINE
  8
0
 62
7
 10
-1.65249935E+02
 20
-1.29525235E+02
 11
-1.65249935E+02
 21
-8.15901763E+01
  0
LINE
  8
0
 62
7
 10
-1.38306593E+02
 20
-1.15557625E+02
 11
-1.39028273E+02
 21
-1.14307622E+02
  0
LINE
  8
0
 62
7
 10
-1.39028278E+02
 20
-1.14307629E+02
 11
-1.40471645E+02
 21
-1.14307629E+02
  0
LINE
  8
0
 62
7
 10
-1.41193213E+02
 20
-1.15557685E+02
 11
-1.40471525E+02
 21
-1.14307668E+02
  0
LINE
  8
0
 62
7
 10
-1.40471592E+02
 20
-1.16807660E+02
 11
-1.41193288E+02
 21
-1.15557630E+02
  0
LINE
  8
0
 62
7
 10
-1.39028278E+02
 20
-1.16807675E+02
 11
-1.40471645E+02
 21
-1.16807675E+02
  0
LINE
  8
0
 62
7
 10
-1.38306427E+02
 20
-1.15557760E+02
 11
-1.39028114E+02
 21
-1.16807777E+02
  0
LINE
  8
0
 62
7
 10
-1.79750019E+02
 20
-9.05576445E+01
 11
-1.75241047E+02
 21
-9.05576445E+01
  0
LINE
  8
0
  6
CENTER
 62
2
 10
-1.68794971E+02
 20
-1.24057706E+02
 11
-9.08434116E+01
 21
-1.24057706E+02
  0
LINE
  8
0
 62
7
 10
-1.34249954E+02
 20
-1.21407712E+02
 11
-8.93134369E+01
 21
-1.21407712E+02
  0
LINE
  8
0
 62
7
 10
-1.34249954E+02
 20
-1.26707699E+02
 11
-9.23733863E+01
 21
-1.26707699E+02
  0
LINE
  8
0
 62
7
 10
-1.34249954E+02
 20
-1.27557690E+02
 11
-9.28641287E+01
 21
-1.27557690E+02
  0
LINE
  8
0
  6
CENTER
 62
2
 10
-1.68794971E+02
 20
-8.70577056E+01
 11
-1.26249949E+02
 21
-8.70577056E+01
  0
LINE
  8
0
 62
7
 10
-1.34249954E+02
 20
-8.97076995E+01
 11
-1.26249949E+02
 21
-8.97076995E+01
  0
LINE
  8
0
 62
7
 10
-1.34249954E+02
 20
-8.44077117E+01
 11
-1.26249949E+02
 21
-8.44077117E+01
  0
LINE
  8
0
 62
7
 10
-1.34249954E+02
 20
-8.35577056E+01
 11
-1.26249949E+02
 21
-8.35577056E+01
  0
LINE
  8
0
  6
CENTER
 62
2
 10
-2.16821186E+02
 20
-2.40557706E+02
 11
-8.01624316E+01
 21
-2.40557706E+02
  0
LINE
  8
0
 62
7
 10
-1.34249930E+02
 20
-1.30557590E+02
 11
-1.64758665E+02
 21
-1.30025054E+02
  0
LINE
  8
0
  6
CENTER
 62
2
 10
-1.45446583E+02
 20
-1.15557706E+02
 11
-1.33831100E+02
 21
-1.15557706E+02
  0
LINE
  8
0
 62
7
 10
-1.58249928E+02
 20
-8.55577056E+01
 11
-1.34249954E+02
 21
-8.55577056E+01
  0
LINE
  8
0
 62
7
 10
-1.58249928E+02
 20
-1.25557706E+02
 11
-1.34249954E+02
 21
-1.25557706E+02
  0
LINE
  8
0
 62
7
 10
-1.60249935E+02
 20
-8.75577056E+01
 11
-1.60249935E+02
 21
-1.23557706E+02
  0
LINE
  8
0
 62
7
 10
-1.66749989E+02
 20
-8.95576750E+01
 11
-1.65249973E+02
 21
-8.95576750E+01
  0
LINE
  8
0
 62
7
 10
-1.34249954E+02
 20
-1.30557706E+02
 11
-1.34249954E+02
 21
-1.04099778E+02
  0
LINE
  8
0
 62
7
 10
-1.80249935E+02
 20
-1.20057721E+02
 11
-1.80249935E+02
 21
-9.10577056E+01
  0
LINE
  8
0
 62
7
 10
-1.79750019E+02
 20
-1.20557706E+02
 11
-1.75241047E+02
 21
-1.20557706E+02
  0
LINE
  8
0
  6
CENTER
 62
2
 10
-1.39749943E+02
 20
-1.21477414E+02
 11
-1.39749943E+02
 21
-1.09952786E+02
  0
LINE
  8
0
  6
CENTER
 62
2
 10
-1.57366711E+02
 20
-1.01557767E+02
 11
-1.45749949E+02
 21
-1.01557767E+02
  0
LINE
  8
0
  6
CENTER
 62
2
 10
-1.47249981E+02
 20
-1.11573575E+02
 11
-1.47249981E+02
 21
-9.14135405E+01
  0
LINE
  8
0
  6
CENTER
 62
2
 10
-2.17556385E+02
 20
-1.05557706E+02
 11
-1.30749949E+02
 21
-1.05557706E+02
  0
LINE
  8
0
 62
7
 10
-2.79250004E+02
 20
-2.18557736E+02
 11
-2.79250004E+02
 21
-2.40557706E+02
  0
LINE
  8
0
 62
7
 10
-2.78750004E+02
 20
-2.18557675E+02
 11
-2.78750004E+02
 21
-2.40557706E+02
  0
LINE
  8
0
 62
7
 10
-3.25750004E+02
 20
-2.16057675E+02
 11
-2.81750004E+02
 21
-2.16057736E+02
  0
LINE
  8
0
  6
CENTER
 62
2
 10
-2.85249943E+02
 20
-2.13551068E+02
 11
-2.85249943E+02
 21
-2.28472195E+02
  0
LINE
  8
0
 62
7
 10
-1.79750065E+02
 20
-2.25557675E+02
 11
-1.75241093E+02
 21
-2.25557675E+02
  0
LINE
  8
0
 62
7
 10
-1.75008779E+02
 20
-2.25299248E+02
 11
-1.67249188E+02
 21
-2.25028277E+02
  0
LINE
  8
0
 62
7
 10
-1.60250019E+02
 20
-2.16212308E+02
 11
-1.60250019E+02
 21
-2.15557706E+02
  0
LINE
  8
0
 62
7
 10
-1.65250143E+02
 20
-2.16343278E+02
 11
-1.34250107E+02
 21
-2.15531514E+02
  0
LINE
  8
0
 62
7
 10
-1.60250019E+02
 20
-2.15557706E+02
 11
-1.34250038E+02
 21
-2.15557706E+02
  0
LINE
  8
0
 62
7
 10
-1.65250019E+02
 20
-2.40557706E+02
 11
-1.65250019E+02
 21
-2.16343274E+02
  0
LINE
  8
0
 62
7
 10
-1.66750034E+02
 20
-2.24557706E+02
 11
-1.65250019E+02
 21
-2.24557706E+02
  0
LINE
  8
0
 62
7
 10
-1.75250019E+02
 20
-2.40557706E+02
 11
-1.75250019E+02
 21
-2.25557675E+02
  0
LINE
  8
0
 62
7
 10
-1.67250027E+02
 20
-2.40557706E+02
 11
-1.67250027E+02
 21
-2.25028287E+02
  0
LINE
  8
0
  6
CENTER
 62
2
 10
-6.94814516E+01
 20
-2.22057706E+02
 11
-1.68560375E+02
 21
-2.22057706E+02
  0
LINE
  8
0
  6
CENTER
 62
2
 10
-1.47249989E+02
 20
-2.29567120E+02
 11
-1.47249989E+02
 21
-2.14008938E+02
  0
LINE
  8
0
 62
7
 10
-1.90250019E+02
 20
-2.40557706E+02
 11
-1.90250019E+02
 21
-2.33557721E+02
  0
LINE
  8
0
 62
7
 10
-1.87250019E+02
 20
-2.36684720E+02
 11
-1.87250019E+02
 21
-2.32557736E+02
  0
LINE
  8
0
 62
7
 10
-1.83250019E+02
 20
-2.40557706E+02
 11
-1.83250019E+02
 21
-2.36684720E+02
  0
LINE
  8
0
 62
7
 10
-2.14249989E+02
 20
-2.40557706E+02
 11
-2.14249989E+02
 21
-2.35057721E+02
  0
LINE
  8
0
 62
7
 10
-2.12749989E+02
 20
-2.33557721E+02
 11
-2.07749989E+02
 21
-2.33557721E+02
  0
LINE
  8
0
 62
2
 10
-2.13569935E+02
 20
-2.34377713E+02
 11
-2.07749989E+02
 21
-2.34377713E+02
  0
LINE
  8
0
 62
7
 10
-2.12749989E+02
 20
-2.33557721E+02
 11
-2.12749989E+02
 21
-2.40557706E+02
  0
LINE
  8
0
 62
7
 10
-1.93250019E+02
 20
-2.33557721E+02
 11
-1.93250019E+02
 21
-2.40557706E+02
  0
LINE
  8
0
 62
7
 10
-2.14249904E+02
 20
-2.35057808E+02
 11
-2.12749958E+02
 21
-2.33557815E+02
  0
LINE
  8
0
 62
7
 10
-1.87250004E+02
 20
-2.36684720E+02
 11
-1.83250019E+02
 21
-2.36684720E+02
  0
LINE
  8
0
 62
2
 10
-1.86750005E+02
 20
-2.40557706E+02
 11
-1.83250005E+02
 21
-2.36684720E+02
  0
LINE
  8
0
 62
2
 10
-1.88634626E+02
 20
-2.38472243E+02
 11
-1.86750003E+02
 21
-2.40557706E+02
  0
LINE
  8
0
 62
7
 10
-1.87250019E+02
 20
-2.32557690E+02
 11
-1.80250034E+02
 21
-2.32557690E+02
  0
LINE
  8
0
 62
7
 10
-1.90250021E+02
 20
-2.40557707E+02
 11
-1.87250020E+02
 21
-2.36684720E+02
  0
LINE
  8
0
 62
7
 10
-1.87250016E+02
 20
-2.32557692E+02
 11
-1.90250021E+02
 21
-2.33557724E+02
  0
LINE
  8
0
 62
7
 10
-1.93250019E+02
 20
-2.34377713E+02
 11
-1.90250019E+02
 21
-2.34377713E+02
  0
LINE
  8
0
 62
7
 10
-1.82250011E+02
 20
-9.75577361E+01
 11
-1.80249935E+02
 21
-9.75577361E+01
  0
LINE
  8
0
 62
7
 10
-1.82249920E+02
 20
-1.13557721E+02
 11
-1.80249950E+02
 21
-1.13557721E+02
  0
LINE
  8
0
 62
7
 10
-1.90249950E+02
 20
-9.85577056E+01
 11
-1.90249950E+02
 21
-1.12557736E+02
  0
LINE
  8
0
 62
7
 10
-2.14249989E+02
 20
-1.11057736E+02
 11
-2.14249989E+02
 21
-1.00057706E+02
  0
LINE
  8
0
 62
7
 10
-2.12749958E+02
 20
-9.85577056E+01
 11
-2.07749943E+02
 21
-9.85577056E+01
  0
LINE
  8
0
 62
7
 10
-1.93249981E+02
 20
-1.12557736E+02
 11
-1.93249981E+02
 21
-9.85577056E+01
  0
LINE
  8
0
 62
2
 10
-2.13450001E+02
 20
-9.92577178E+01
 11
-2.07749943E+02
 21
-9.92577178E+01
  0
LINE
  8
0
 62
7
 10
-1.90249950E+02
 20
-9.85577056E+01
 11
-1.83249981E+02
 21
-9.85577056E+01
  0
LINE
  8
0
 62
7
 10
-2.12749989E+02
 20
-1.12557736E+02
 11
-2.07749943E+02
 21
-1.12557736E+02
  0
LINE
  8
0
 62
2
 10
-2.13450001E+02
 20
-1.11857739E+02
 11
-2.07749943E+02
 21
-1.11857739E+02
  0
LINE
  8
0
 62
7
 10
-1.90249950E+02
 20
-1.12557736E+02
 11
-1.83249905E+02
 21
-1.12557736E+02
  0
LINE
  8
0
 62
7
 10
-1.83249996E+02
 20
-9.85576556E+01
 11
-1.82250049E+02
 21
-9.75577085E+01
  0
LINE
  8
0
 62
7
 10
-1.83249947E+02
 20
-1.12557697E+02
 11
-1.82249924E+02
 21
-1.13557719E+02
  0
LINE
  8
0
 62
7
 10
-1.87249950E+02
 20
-9.85577056E+01
 11
-1.87249950E+02
 21
-1.12557736E+02
  0
LINE
  8
0
 62
7
 10
-2.12749989E+02
 20
-1.12557736E+02
 11
-2.12749989E+02
 21
-9.85577056E+01
  0
LINE
  8
0
 62
7
 10
-2.14250008E+02
 20
-1.11057711E+02
 11
-2.12749995E+02
 21
-1.12557724E+02
  0
LINE
  8
0
 62
7
 10
-2.14249980E+02
 20
-1.00057703E+02
 11
-2.12749952E+02
 21
-9.85577064E+01
  0
LINE
  8
0
 62
7
 10
-1.93249981E+02
 20
-9.92577178E+01
 11
-1.90249950E+02
 21
-9.92577178E+01
  0
LINE
  8
0
 62
7
 10
-1.93249981E+02
 20
-1.11857739E+02
 11
-1.90249950E+02
 21
-1.11857739E+02
  0
ARC
  8
0
 62
7
 10
-3.14273106E+02
 20
-2.27206113E+02
 40
1.00000000E+00
 50
2.24999972E+02
 51
3.08243613E+02
  0
ARC
  8
0
 62
7
 10
-2.85249989E+02
 20
-2.22057645E+02
 40
7.00000000E+00
 50
1.90788702E+02
 51
2.59211358E+02
  0
ARC
  8
0
 62
7
 10
-3.24749989E+02
 20
-2.31557675E+02
 40
3.00000000E+00
 50
2.70000018E+02
 51
0.00000000E+00
  0
ARC
  8
0
 62
7
 10
-3.12750050E+02
 20
-2.19557645E+02
 40
3.00000000E+00
 50
2.67974177E+02
 51
3.59999417E+02
  0
ARC
  8
0
 62
7
 10
-3.24749989E+02
 20
-2.35557675E+02
 40
1.00000000E+00
 50
8.99999818E+01
 51
1.79999964E+02
  0
ARC
  8
0
 62
7
 10
-3.20752491E+02
 20
-2.29916241E+02
 40
1.00000000E+00
 50
1.00789058E+02
 51
1.82026085E+02
  0
ARC
  8
0
 62
7
 10
-3.08750034E+02
 20
-2.19557690E+02
 40
1.00000000E+00
 50
8.99999818E+01
 51
1.79999964E+02
  0
ARC
  8
0
 62
7
 10
-3.14391407E+02
 20
-2.23555142E+02
 40
1.00000000E+00
 50
8.79747829E+01
 51
1.69211502E+02
  0
ARC
  8
0
 62
7
 10
-2.92141422E+02
 20
-2.26120724E+02
 40
1.00000000E+00
 50
3.15000624E+02
 51
3.05224488E+01
  0
ARC
  8
0
 62
7
 10
-3.17101551E+02
 20
-2.30034543E+02
 40
1.00000000E+00
 50
3.21755790E+02
 51
4.49993763E+01
  0
CIRCLE
  8
0
 62
7
 10
-1.39749943E+02
 20
-1.15557706E+02
 40
4.00000000E+00
  0
ARC
  8
0
 62
2
 10
-1.47249981E+02
 20
-1.01557767E+02
 40
6.57849979E+00
 50
7.68194476E+01
 51
3.35950142E+02
  0
ARC
  8
0
 62
7
 10
-2.81750004E+02
 20
-2.18557736E+02
 40
2.50000000E+00
 50
0.00000000E+00
 51
8.99999818E+01
  0
ARC
  8
0
 62
7
 10
-1.66749989E+02
 20
-1.21057706E+02
 40
5.00000000E-01
 50
1.80000008E+02
 51
2.69999998E+02
  0
ARC
  8
0
 62
7
 10
-1.79750019E+02
 20
-1.20057721E+02
 40
5.00000000E-01
 50
1.80000008E+02
 51
2.69999998E+02
  0
ARC
  8
0
 62
7
 10
-1.79750019E+02
 20
-9.10577056E+01
 40
5.00000000E-01
 50
9.00000231E+01
 51
1.80000005E+02
  0
ARC
  8
0
 62
7
 10
-1.64749981E+02
 20
-1.29525235E+02
 40
5.00000000E-01
 50
1.80000008E+02
 51
2.68999785E+02
  0
ARC
  8
0
 62
7
 10
-1.64749981E+02
 20
-8.15901763E+01
 40
5.00000000E-01
 50
9.10002155E+01
 51
1.80000005E+02
  0
ARC
  8
0
 62
7
 10
-1.74999996E+02
 20
-9.05490996E+01
 40
2.50000000E-01
 50
9.20007768E+01
 51
1.79999991E+02
  0
ARC
  8
0
 62
7
 10
-1.66749989E+02
 20
-9.00577056E+01
 40
5.00000000E-01
 50
9.00000231E+01
 51
1.80000005E+02
  0
ARC
  8
0
 62
7
 10
-1.74999996E+02
 20
-1.20566312E+02
 40
2.50000000E-01
 50
1.80000008E+02
 51
2.67999216E+02
  0
ARC
  8
0
 62
7
 10
-1.58249928E+02
 20
-8.75577056E+01
 40
2.00000000E+00
 50
8.99999818E+01
 51
1.79999964E+02
  0
ARC
  8
0
 62
7
 10
-1.47249981E+02
 20
-1.01557767E+02
 40
5.65999985E+00
 50
7.46316592E+01
 51
3.31727516E+02
  0
ARC
  8
0
 62
7
 10
-1.58249928E+02
 20
-1.23557706E+02
 40
2.00000000E+00
 50
1.79999977E+02
 51
2.70000028E+02
  0
ARC
  8
0
 62
7
 10
-1.47249981E+02
 20
-1.01557767E+02
 40
7.00000000E+00
 50
7.76261051E+01
 51
3.37480849E+02
  0
CIRCLE
  8
0
 62
7
 10
-2.85249943E+02
 20
-2.22057706E+02
 40
4.50000000E+00
  0
CIRCLE
  8
0
 62
7
 10
-2.85249943E+02
 20
-2.22057706E+02
 40
5.00000000E+00
  0
ARC
  8
0
 62
7
 10
-2.82749989E+02
 20
-2.38557706E+02
 40
1.00000000E+00
 50
2.69999963E+02
 51
0.00000000E+00
  0
ARC
  8
0
 62
7
 10
-2.89312977E+02
 20
-2.28949139E+02
 40
1.00000000E+00
 50
5.94777518E+01
 51
1.34999345E+02
  0
ARC
  8
0
 62
7
 10
-2.86868031E+02
 20
-2.38557706E+02
 40
1.00000000E+00
 50
1.86756090E+02
 51
2.69999963E+02
  0
ARC
  8
0
 62
7
 10
-3.20631947E+02
 20
-2.38557706E+02
 40
1.00000000E+00
 50
2.69999963E+02
 51
3.53243768E+02
  0
ARC
  8
0
 62
7
 10
-2.93108570E+02
 20
-2.23555142E+02
 40
1.00000000E+00
 50
1.07884614E+01
 51
9.20251808E+01
  0
ARC
  8
0
 62
7
 10
-3.25750050E+02
 20
-2.18557675E+02
 40
3.00000000E+00
 50
8.99999818E+01
 51
1.79999964E+02
  0
ARC
  8
0
 62
7
 10
-3.03750004E+02
 20
-2.40557706E+02
 40
1.50000000E+01
 50
0.00000000E+00
 51
1.80000000E+02
  0
ARC
  8
0
 62
7
 10
-3.03750004E+02
 20
-2.40557706E+02
 40
1.55000010E+01
 50
0.00000000E+00
 51
1.80000000E+02
  0
ARC
  8
0
 62
7
 10
-2.81750004E+02
 20
-2.18557675E+02
 40
3.00000000E+00
 50
0.00000000E+00
 51
8.99999818E+01
  0
ARC
  8
0
 62
7
 10
-2.93226856E+02
 20
-2.27206189E+02
 40
1.00000000E+00
 50
2.31755794E+02
 51
3.14999380E+02
  0
ARC
  8
0
 62
7
 10
-2.90398457E+02
 20
-2.30034619E+02
 40
1.00000000E+00
 50
1.34999959E+02
 51
2.18243614E+02
  0
ARC
  8
0
 62
7
 10
-3.01750004E+02
 20
-2.23675763E+02
 40
1.00000000E+00
 50
1.79999964E+02
 51
2.63243741E+02
  0
ARC
  8
0
 62
7
 10
-3.01750004E+02
 20
-2.19557706E+02
 40
1.00000000E+00
 50
8.99999818E+01
 51
1.79999964E+02
  0
ARC
  8
0
 62
7
 10
-2.82749989E+02
 20
-2.31557675E+02
 40
3.00000000E+00
 50
1.77973583E+02
 51
2.69999946E+02
  0
ARC
  8
0
 62
7
 10
-2.82749989E+02
 20
-2.35557675E+02
 40
1.00000000E+00
 50
0.00000000E+00
 51
8.99999818E+01
  0
ARC
  8
0
 62
7
 10
-2.86747486E+02
 20
-2.29916241E+02
 40
1.00000000E+00
 50
3.57973879E+02
 51
7.92109058E+01
  0
ARC
  8
0
 62
7
 10
-3.25750004E+02
 20
-2.18557675E+02
 40
2.50000000E+00
 50
8.99999818E+01
 51
1.79999964E+02
  0
ARC
  8
0
 62
7
 10
-2.94749989E+02
 20
-2.19557645E+02
 40
3.00000000E+00
 50
1.80000569E+02
 51
2.72025811E+02
  0
ARC
  8
0
 62
7
 10
-2.98750004E+02
 20
-2.19557690E+02
 40
1.00000000E+00
 50
0.00000000E+00
 51
8.99999818E+01
  0
ARC
  8
0
 62
7
 10
-3.24749989E+02
 20
-2.38557706E+02
 40
1.00000000E+00
 50
1.79999964E+02
 51
2.69999946E+02
  0
CIRCLE
  8
0
 62
7
 10
-3.22249989E+02
 20
-2.22057645E+02
 40
4.50000000E+00
  0
CIRCLE
  8
0
 62
7
 10
-3.22249989E+02
 20
-2.22057645E+02
 40
5.00000000E+00
  0
ARC
  8
0
 62
7
 10
-3.05750004E+02
 20
-2.19557706E+02
 40
1.00000000E+00
 50
3.59999959E+02
 51
8.99999956E+01
  0
ARC
  8
0
 62
7
 10
-3.18186985E+02
 20
-2.28949093E+02
 40
1.00000000E+00
 50
4.50006194E+01
 51
1.20522431E+02
  0
ARC
  8
0
 62
7
 10
-3.22249989E+02
 20
-2.22057645E+02
 40
7.00000000E+00
 50
2.80788623E+02
 51
3.49211279E+02
  0
ARC
  8
0
 62
7
 10
-3.15358585E+02
 20
-2.26120663E+02
 40
1.00000000E+00
 50
1.49477747E+02
 51
2.24999340E+02
  0
ARC
  8
0
 62
7
 10
-3.05750004E+02
 20
-2.23675748E+02
 40
1.00000000E+00
 50
2.76756086E+02
 51
3.59999959E+02
  0
ARC
  8
0
 62
7
 10
-3.03750004E+02
 20
-2.40557706E+02
 40
1.60000000E+01
 50
0.00000000E+00
 51
1.80000000E+02
  0
CIRCLE
  8
0
 62
2
 10
-3.22249989E+02
 20
-2.22057629E+02
 40
3.00000000E+00
  0
CIRCLE
  8
0
 62
2
 10
-2.85249943E+02
 20
-2.22057629E+02
 40
3.00000000E+00
  0
CIRCLE
  8
0
 62
7
 10
-1.39749943E+02
 20
-1.15557706E+02
 40
2.59999990E+00
  0
ARC
  8
0
 62
7
 10
-1.75000042E+02
 20
-2.25549100E+02
 40
2.50000000E-01
 50
9.20007969E+01
 51
1.80000019E+02
  0
ARC
  8
0
 62
7
 10
-1.79750065E+02
 20
-2.26057706E+02
 40
5.00000000E-01
 50
9.00000369E+01
 51
1.80000019E+02
  0
ARC
  8
0
 62
7
 10
-1.66750034E+02
 20
-2.25057706E+02
 40
5.00000000E-01
 50
9.00000369E+01
 51
1.80000019E+02
  0
ARC
  8
0
 62
7
 10
-1.90250019E+02
 20
-2.40557706E+02
 40
8.00000000E+00
 50
0.00000000E+00
 51
2.89550399E+01
  0
ARC
  8
0
 62
2
 10
-3.03750004E+02
 20
-2.40557706E+02
 40
6.17999268E+00
 50
0.00000000E+00
 51
1.80000000E+02
  0
LINE
  8
0
 62
4
 10
-1.99749943E+02
 20
-1.16557706E+02
 11
-1.99749943E+02
 21
-9.45577056E+01
  0
LINE
  8
0
 62
4
 10
-2.07749943E+02
 20
-1.16557706E+02
 11
-2.07749943E+02
 21
-9.45577056E+01
  0
LINE
  8
0
 62
4
 10
-2.06767462E+02
 20
-1.05557706E+02
 11
-2.00732423E+02
 21
-1.05557706E+02
  0
LINE
  8
0
 62
4
 10
-2.07749943E+02
 20
-9.45577056E+01
 11
-1.99749943E+02
 21
-9.45577056E+01
  0
LINE
  8
0
 62
4
 10
-2.07749943E+02
 20
-1.16557706E+02
 11
-1.99749943E+02
 21
-1.16557706E+02
  0
ARC
  8
0
 62
4
 10
-2.15635893E+02
 20
-1.11057706E+02
 40
1.58859499E+01
 50
3.39743842E+02
 51
2.02561578E+01
  0
ARC
  8
0
 62
4
 10
-2.15635893E+02
 20
-1.00057706E+02
 40
1.58859499E+01
 50
3.39743842E+02
 51
2.02561578E+01
  0
ARC
  8
0
 62
4
 10
-1.91863995E+02
 20
-1.00057706E+02
 40
1.58859474E+01
 50
1.59743839E+02
 51
2.00256161E+02
  0
ARC
  8
0
 62
4
 10
-1.91863995E+02
 20
-1.11057706E+02
 40
1.58859473E+01
 50
1.59743839E+02
 51
2.00256161E+02
  0
ARC
  8
0
 62
7
 10
-3.03750004E+02
 20
-2.40557706E+02
 40
7.00000000E+00
 50
0.00000000E+00
 51
1.80000000E+02
  0
ARC
  8
0
 62
4
 10
-3.03750004E+02
 20
-2.40557706E+02
 40
1.10000000E+01
 50
0.00000000E+00
 51
1.80000000E+02
  0
LINE
  8
0
 62
4
 10
-3.03750004E+02
 20
-2.27856000E+02
 11
-3.14750004E+02
 21
-2.34206853E+02
  0
LINE
  8
0
 62
4
 10
-3.14750004E+02
 20
-2.34206853E+02
 11
-3.14750004E+02
 21
-2.40557706E+02
  0
LINE
  8
0
 62
4
 10
-2.92750004E+02
 20
-2.40557706E+02
 11
-2.92750004E+02
 21
-2.34206853E+02
  0
LINE
  8
0
 62
4
 10
-2.92750004E+02
 20
-2.34206853E+02
 11
-3.03750004E+02
 21
-2.27856000E+02
  0
LINE
  8
0
 62
4
 10
-2.06767508E+02
 20
-2.27856000E+02
 11
-2.00732469E+02
 21
-2.27856000E+02
  0
LINE
  8
0
 62
4
 10
-2.06767508E+02
 20
-2.34206853E+02
 11
-2.00732469E+02
 21
-2.34206853E+02
  0
LINE
  8
0
 62
4
 10
-2.07749989E+02
 20
-2.40557706E+02
 11
-2.07749989E+02
 21
-2.29557706E+02
  0
LINE
  8
0
 62
4
 10
-1.99749989E+02
 20
-2.40557706E+02
 11
-1.99749989E+02
 21
-2.29557706E+02
  0
LINE
  8
0
 62
4
 10
-2.07749989E+02
 20
-2.29557706E+02
 11
-2.06767508E+02
 21
-2.27856000E+02
  0
LINE
  8
0
 62
4
 10
-1.99749989E+02
 20
-2.29557706E+02
 11
-2.00732469E+02
 21
-2.27856000E+02
  0
ARC
  8
0
 62
4
 10
-2.02127179E+02
 20
-2.31031426E+02
 40
5.62281003E+00
 50
1.45615752E+02
 51
2.14384247E+02
  0
ARC
  8
0
 62
4
 10
-1.86732469E+02
 20
-2.40557706E+02
 40
2.10175199E+01
 50
1.62412046E+02
 51
1.80000000E+02
  0
ARC
  8
0
 62
4
 10
-2.05372799E+02
 20
-2.31031426E+02
 40
5.62281003E+00
 50
3.25615753E+02
 51
3.43842476E+01
  0
ARC
  8
0
 62
4
 10
-2.20767508E+02
 20
-2.40557706E+02
 40
2.10175199E+01
 50
1.22042667E-07
 51
1.75879537E+01
  0
LINE
  8
0
 62
7
 10
-1.99749989E+02
 20
-2.33557721E+02
 11
-1.93250019E+02
 21
-2.33557721E+02
  0
LINE
  8
0
 62
2
 10
-1.99749989E+02
 20
-2.34377713E+02
 11
-1.93250019E+02
 21
-2.34377713E+02
  0
LINE
  8
0
 62
7
 10
-1.99749943E+02
 20
-9.85577056E+01
 11
-1.93249981E+02
 21
-9.85577056E+01
  0
LINE
  8
0
 62
2
 10
-1.99749943E+02
 20
-9.92577178E+01
 11
-1.93249981E+02
 21
-9.92577178E+01
  0
LINE
  8
0
 62
7
 10
-1.99749943E+02
 20
-1.12557736E+02
 11
-1.93249981E+02
 21
-1.12557736E+02
  0
LINE
  8
0
 62
2
 10
-1.99749943E+02
 20
-1.11857739E+02
 11
-1.93249981E+02
 21
-1.11857739E+02
  0
LINE
  8
0
  6
CENTER
 62
2
 10
-9.17499487E+01
 20
-1.05557706E+02
 11
-8.01624316E+01
 21
-1.05557706E+02
  0
LINE
  8
0
 62
7
 10
-1.34249954E+02
 20
-9.00997780E+01
 11
-1.34249954E+02
 21
-8.05577056E+01
  0
LINE
  8
0
  6
CENTER
 62
2
 10
-1.11249949E+02
 20
-8.70577056E+01
 11
-6.94814517E+01
 21
-8.70577056E+01
  0
LINE
  8
0
 62
2
 10
-9.88815728E+01
 20
-1.37980209E+02
 11
-6.34432098E+01
 21
-7.65991639E+01
  0
LINE
  8
0
  6
CENTER
 62
2
 10
3.01763561E+02
 20
-2.40557706E+02
 11
1.39701412E+02
 21
-2.40557706E+02
  0
LINE
  8
0
 62
7
 10
2.50192518E+02
 20
-2.16343278E+02
 11
2.19192482E+02
 21
-2.15531514E+02
  0
LINE
  8
0
 62
7
 10
2.45192394E+02
 20
-2.15557706E+02
 11
2.19192413E+02
 21
-2.15557706E+02
  0
LINE
  8
0
  6
CENTER
 62
2
 10
1.50382392E+02
 20
-2.22057706E+02
 11
1.96192413E+02
 21
-2.22057706E+02
  0
LINE
  8
0
 62
2
 10
2.84692364E+02
 20
-2.34377713E+02
 11
2.78192394E+02
 21
-2.34377713E+02
  0
LINE
  8
0
 62
7
 10
2.84692364E+02
 20
-2.33557721E+02
 11
2.78192394E+02
 21
-2.33557721E+02
  0
ARC
  8
0
 62
4
 10
3.05709884E+02
 20
-2.40557706E+02
 40
2.10175199E+01
 50
1.62412046E+02
 51
1.80000000E+02
  0
ARC
  8
0
 62
4
 10
2.90315174E+02
 20
-2.31031426E+02
 40
5.62281003E+00
 50
1.45615752E+02
 51
2.14384247E+02
  0
ARC
  8
0
 62
4
 10
2.71674844E+02
 20
-2.40557706E+02
 40
2.10175199E+01
 50
1.22042641E-07
 51
1.75879537E+01
  0
ARC
  8
0
 62
4
 10
2.87069554E+02
 20
-2.31031426E+02
 40
5.62281003E+00
 50
3.25615753E+02
 51
3.43842476E+01
  0
LINE
  8
0
 62
4
 10
2.84692364E+02
 20
-2.29557706E+02
 11
2.85674844E+02
 21
-2.27856000E+02
  0
LINE
  8
0
 62
4
 10
2.92692364E+02
 20
-2.29557706E+02
 11
2.91709883E+02
 21
-2.27856000E+02
  0
LINE
  8
0
 62
4
 10
2.84692364E+02
 20
-2.40557706E+02
 11
2.84692364E+02
 21
-2.29557706E+02
  0
LINE
  8
0
 62
4
 10
2.92692364E+02
 20
-2.40557706E+02
 11
2.92692364E+02
 21
-2.29557706E+02
  0
LINE
  8
0
 62
4
 10
2.91709883E+02
 20
-2.34206853E+02
 11
2.85674844E+02
 21
-2.34206853E+02
  0
LINE
  8
0
 62
4
 10
2.91709883E+02
 20
-2.27856000E+02
 11
2.85674844E+02
 21
-2.27856000E+02
  0
ARC
  8
0
 62
7
 10
2.75192394E+02
 20
-2.40557706E+02
 40
8.00000000E+00
 50
1.51044960E+02
 51
1.80000000E+02
  0
ARC
  8
0
 62
7
 10
2.51692409E+02
 20
-2.25057706E+02
 40
5.00000000E-01
 50
3.59999981E+02
 51
8.99999635E+01
  0
ARC
  8
0
 62
7
 10
2.64692440E+02
 20
-2.26057706E+02
 40
5.00000000E-01
 50
3.59999981E+02
 51
8.99999635E+01
  0
ARC
  8
0
 62
7
 10
2.59942417E+02
 20
-2.25549100E+02
 40
2.50000000E-01
 50
3.59999981E+02
 51
8.79992029E+01
  0
LINE
  8
0
 62
7
 10
2.78192394E+02
 20
-2.34377713E+02
 11
2.75192394E+02
 21
-2.34377713E+02
  0
LINE
  8
0
 62
7
 10
2.72192391E+02
 20
-2.32557692E+02
 11
2.75192396E+02
 21
-2.33557724E+02
  0
LINE
  8
0
 62
7
 10
2.75192396E+02
 20
-2.40557707E+02
 11
2.72192395E+02
 21
-2.36684720E+02
  0
LINE
  8
0
 62
7
 10
2.72192394E+02
 20
-2.32557690E+02
 11
2.65192409E+02
 21
-2.32557690E+02
  0
LINE
  8
0
 62
2
 10
2.73577002E+02
 20
-2.38472243E+02
 11
2.71692379E+02
 21
-2.40557706E+02
  0
LINE
  8
0
 62
2
 10
2.71692380E+02
 20
-2.40557706E+02
 11
2.68192381E+02
 21
-2.36684720E+02
  0
LINE
  8
0
 62
7
 10
2.72192379E+02
 20
-2.36684720E+02
 11
2.68192394E+02
 21
-2.36684720E+02
  0
LINE
  8
0
 62
7
 10
2.99192279E+02
 20
-2.35057808E+02
 11
2.97692333E+02
 21
-2.33557815E+02
  0
LINE
  8
0
 62
7
 10
2.78192394E+02
 20
-2.33557721E+02
 11
2.78192394E+02
 21
-2.40557706E+02
  0
LINE
  8
0
 62
7
 10
2.97692364E+02
 20
-2.33557721E+02
 11
2.97692364E+02
 21
-2.40557706E+02
  0
LINE
  8
0
 62
2
 10
2.98512310E+02
 20
-2.34377713E+02
 11
2.92692364E+02
 21
-2.34377713E+02
  0
LINE
  8
0
 62
7
 10
2.97692364E+02
 20
-2.33557721E+02
 11
2.92692364E+02
 21
-2.33557721E+02
  0
LINE
  8
0
 62
7
 10
2.99192364E+02
 20
-2.40557706E+02
 11
2.99192364E+02
 21
-2.35057721E+02
  0
LINE
  8
0
 62
7
 10
2.68192394E+02
 20
-2.40557706E+02
 11
2.68192394E+02
 21
-2.36684720E+02
  0
LINE
  8
0
 62
7
 10
2.72192394E+02
 20
-2.36684720E+02
 11
2.72192394E+02
 21
-2.32557736E+02
  0
LINE
  8
0
 62
7
 10
2.75192394E+02
 20
-2.40557706E+02
 11
2.75192394E+02
 21
-2.33557721E+02
  0
LINE
  8
0
  6
CENTER
 62
2
 10
2.32192364E+02
 20
-2.29567120E+02
 11
2.32192364E+02
 21
-2.14008938E+02
  0
LINE
  8
0
 62
7
 10
2.52192402E+02
 20
-2.40557706E+02
 11
2.52192402E+02
 21
-2.25028287E+02
  0
LINE
  8
0
 62
7
 10
2.60192394E+02
 20
-2.40557706E+02
 11
2.60192394E+02
 21
-2.25557675E+02
  0
LINE
  8
0
 62
7
 10
2.51692409E+02
 20
-2.24557706E+02
 11
2.50192394E+02
 21
-2.24557706E+02
  0
LINE
  8
0
 62
7
 10
2.50192394E+02
 20
-2.40557706E+02
 11
2.50192394E+02
 21
-2.16343274E+02
  0
LINE
  8
0
 62
7
 10
2.45192394E+02
 20
-2.16212308E+02
 11
2.45192394E+02
 21
-2.15557706E+02
  0
LINE
  8
0
 62
7
 10
2.59951154E+02
 20
-2.25299248E+02
 11
2.52191563E+02
 21
-2.25028277E+02
  0
LINE
  8
0
 62
7
 10
2.64692440E+02
 20
-2.25557675E+02
 11
2.60183468E+02
 21
-2.25557675E+02
  0
LINE
  8
0
 62
7
 10
2.65192394E+02
 20
-2.40557706E+02
 11
2.65192394E+02
 21
-2.26057706E+02
  0
LINE
  8
0
 62
7
 10
1.52403110E+02
 20
-2.18557721E+02
 11
1.79692413E+02
 21
-2.18557721E+02
  0
LINE
  8
0
 62
7
 10
2.19192413E+02
 20
-2.24707699E+02
 11
2.11192413E+02
 21
-2.24707699E+02
  0
LINE
  8
0
 62
7
 10
2.19192413E+02
 20
-2.19407712E+02
 11
2.11192413E+02
 21
-2.19407712E+02
  0
LINE
  8
0
 62
7
 10
2.19192413E+02
 20
-2.40557706E+02
 11
2.19192413E+02
 21
-2.15531521E+02
  0
LINE
  8
0
 62
7
 10
2.12692413E+02
 20
-2.18557721E+02
 11
2.19192413E+02
 21
-2.18557721E+02
  0
LINE
  8
0
 62
7
 10
1.96192413E+02
 20
-2.19407712E+02
 11
1.51912367E+02
 21
-2.19407712E+02
  0
LINE
  8
0
  6
CENTER
 62
2
 10
2.11192413E+02
 20
-2.22057706E+02
 11
2.53502750E+02
 21
-2.22057706E+02
  0
LINE
  8
0
 62
7
 10
1.96192413E+02
 20
-2.24707699E+02
 11
1.48852418E+02
 21
-2.24707699E+02
  0
TEXT
  8
0
 10
-1.22450289E+02
 20
2.39478397E+02
 40
6.30000019E+00
  1
STRETCH LINE A
 41
1.09375016E+00
  7
MONOTXT
  0
LINE
  8
0
 62
7
 10
2.79799927E+02
 20
-2.56750000E+02
 11
3.99799805E+02
 21
-2.56750000E+02
  0
LINE
  8
0
 62
7
 10
2.79799927E+02
 20
-2.56750000E+02
 11
2.79799927E+02
 21
-2.76750000E+02
  0
TEXT
  8
0
 62
7
 10
2.87585240E+02
 20
-2.71250000E+02
 40
9.00000000E+00
  1
KOGANEI CORP.
 41
1.04838710E+00
  7
MONOTXT
  0
TEXT
  8
0
 62
7
 10
3.15499641E+02
 20
2.63100000E+02
 40
6.30000019E+00
  1
Ver. 1.0
 41
1.08108124E+00
  7
MONOTXT
  0
LINE
  8
0
 62
7
 10
2.79799927E+02
 20
2.56250000E+02
 11
3.99799805E+02
 21
2.56250000E+02
  0
LINE
  8
0
 62
7
 10
2.79799927E+02
 20
2.76250000E+02
 11
2.79799927E+02
 21
2.56250000E+02
  0
TEXT
  8
0
 62
7
 10
-3.85600562E+02
 20
2.38100000E+02
 40
6.30000019E+00
  1
MODEL:DDAP40*75
 41
1.00000015E+00
  7
MONOTXT
  0
LINE
  8
0
 62
7
 10
-3.99250000E+02
 20
2.56250000E+02
 11
-2.79250000E+02
 21
2.56250000E+02
  0
LINE
  8
0
 62
7
 10
-2.79250000E+02
 20
2.76250000E+02
 11
-2.79250000E+02
 21
2.56250000E+02
  0
TEXT
  8
0
 62
7
 10
-3.91900291E+02
 20
2.63100000E+02
 40
6.30000019E+00
  1
NEW DYNA CYLINDER
 41
1.07594953E+00
  7
MONOTXT
  0
LINE
  8
0
 62
7
 10
-3.99250000E+02
 20
-2.76750000E+02
 11
3.99799805E+02
 21
-2.76750000E+02
  0
LINE
  8
0
 62
7
 10
-3.99250000E+02
 20
2.76250000E+02
 11
3.99799805E+02
 21
2.76250000E+02
  0
LINE
  8
0
 62
7
 10
-3.99250000E+02
 20
2.76250000E+02
 11
-3.99250000E+02
 21
-2.76750000E+02
  0
LINE
  8
0
 62
7
 10
3.99799805E+02
 20
2.76250000E+02
 11
3.99799805E+02
 21
-2.76750000E+02
  0
ENDSEC
  0
EOF
