  0
SECTION
  2
HEADER
  9
$ACADVER
  1
AC1003
  9
$EXTMIN
 10
-5.64500000E+02
 20
-4.00500000E+02
  9
$EXTMAX
 10
5.74500000E+02
 20
4.00500000E+02
  9
$LIMMIN
 10
-5.64501000E+02
 20
-4.00501000E+02
  9
$LIMMAX
 10
5.74501000E+02
 20
4.00501000E+02
  9
$SNAPUNIT
 10
1
 20
1
  9
$SNAPBASE
 10
0
 20
0
  9
$GRIDMODE
 70
0
  9
$GRIDUNIT
 10
0
 20
0
  9
$LTSCALE
 40
1.89833333E+01
  9
$TEXTSIZE
 40
3.2
  9
$DIMTAD
 70
0
  9
$LUNITS
 70
2
  9
$LUPREC
 70
4
  9
$FILLETRAD
 40
0
  9
$AUNITS
 70
0
  9
$AUPREC
 70
0
  0
ENDSEC
  0
SECTION
  2
TABLES
  0
TABLE
  2
LTYPE
 70
2
  0
LTYPE
  2
CONTINUOUS
 70
64
  3
Solid-Line
 72
65
 73
0
 40
0
  0
LTYPE
  2
DASHED
 70
64
  3
DASHED
 72
65
 73
2
 40
.75
 49
.5
 49
-.25
  0
LTYPE
  2
HIDDEN
 70
64
  3
HIDDEN
 72
65
 73
2
 40
.375
 49
.25
 49
-.125
  0
LTYPE
  2
CENTER
 70
64
  3
CENTER
 72
65
 73
4
 40
2
 49
1.25
 49
-.25
 49
.25
 49
-.25
  0
LTYPE
  2
PHANTOM
 70
64
  3
PHANTOM
 72
65
 73
6
 40
2.5
 49
1.25
 49
-.25
 49
.25
 49
-.25
 49
.25
 49
-.25
  0
ENDTAB
  0
TABLE
  2
LAYER
 70
1
  0
LAYER
  2
1
 70
0
 62
7
  6
CONTINUOUS
 0
ENDTAB
  0
TABLE
  2
STYLE
 70
2
  0
STYLE
  2
MONOTXT
 70
0
 40
0
 41
1
 50
0
 71
0
 42
.2
  3
monotxt
  0
STYLE
  2
BIGFONT
 70
0
 40
0
 41
1
 50
0
 71
0
 42
.2
  3
txt
  4
bigfont
  0
ENDTAB
  0
ENDSEC
  0
SECTION
  2
ENTITIES
  0
LINE
  8
0
  6
PHANTOM
 10
-2.45000000E+01
 20
2.81313474E+01
 11
-2.45000000E+01
 21
1.90686885E+02
  0
LINE
  8
0
  6
PHANTOM
 10
1.23499962E+02
 20
2.81313474E+01
 11
1.23499962E+02
 21
1.92001967E+02
  0
LINE
  8
0
  6
CENTER
 62
2
 10
-1.70956047E+02
 20
1.00500000E+02
 11
2.62082993E+02
 21
1.00500000E+02
  0
LINE
  8
0
  6
CENTER
 62
2
 10
-9.40001144E+01
 20
1.12414513E+02
 11
-9.40001144E+01
 21
1.40385063E+02
  0
LINE
  8
0
 62
7
 10
-1.13500023E+02
 20
8.15000076E+01
 11
-1.12000023E+02
 21
8.15000076E+01
  0
LINE
  8
0
 62
7
 10
-1.26500053E+02
 20
8.35000076E+01
 11
-1.21991539E+02
 21
8.35000076E+01
  0
LINE
  8
0
 62
7
 10
-1.22000053E+02
 20
8.35000076E+01
 11
-1.22000053E+02
 21
8.34914627E+01
  0
LINE
  8
0
 62
7
 10
-1.21758817E+02
 20
8.32415929E+01
 11
-1.14000088E+02
 21
8.29706521E+01
  0
LINE
  8
0
  6
CENTER
 62
2
 10
8.85638962E+01
 20
7.24999962E+01
 11
-1.15980827E+02
 21
7.24999962E+01
  0
LINE
  8
0
 62
7
 10
5.85087065E+01
 20
6.35500587E+01
 11
2.70000169E+01
 21
6.30000725E+01
  0
LINE
  8
0
 62
7
 10
5.49999313E+01
 20
6.30000038E+01
 11
2.69999466E+01
 21
6.30000038E+01
  0
LINE
  8
0
 62
7
 10
5.49999771E+01
 20
6.34887810E+01
 11
5.49999771E+01
 21
6.30000038E+01
  0
LINE
  8
0
 62
7
 10
2.69999466E+01
 20
6.65000191E+01
 11
-7.99999924E+01
 21
6.65000191E+01
  0
LINE
  8
0
  6
CENTER
 62
2
 10
4.10000229E+01
 20
1.14173172E+02
 11
4.10000229E+01
 21
1.40385063E+02
  0
LINE
  8
0
 62
7
 10
-7.99999924E+01
 20
6.30000038E+01
 11
-7.99999924E+01
 21
1.38000000E+02
  0
LINE
  8
0
 62
7
 10
-1.11508883E+02
 20
6.35500652E+01
 11
-8.00000715E+01
 21
6.30000769E+01
  0
LINE
  8
0
 62
7
 10
-1.08000084E+02
 20
6.30000038E+01
 11
-7.99999924E+01
 21
6.30000038E+01
  0
LINE
  8
0
 62
7
 10
-1.08000084E+02
 20
6.34887810E+01
 11
-1.08000084E+02
 21
6.30000038E+01
  0
LINE
  8
0
 62
7
 10
1.60999943E+02
 20
9.05000305E+01
 11
8.59999390E+01
 21
9.05000305E+01
  0
LINE
  8
0
 62
7
 10
2.57999820E+02
 20
1.06999871E+02
 11
2.56499796E+02
 21
1.08499850E+02
  0
LINE
  8
0
 62
7
 10
2.56499798E+02
 20
9.25000000E+01
 11
2.53999985E+02
 21
9.25000000E+01
  0
LINE
  8
0
 62
7
 10
2.56499924E+02
 20
9.25000076E+01
 11
2.56499924E+02
 21
1.08500008E+02
  0
LINE
  8
0
 62
2
 10
2.57319847E+02
 20
9.33199997E+01
 11
2.53999985E+02
 21
9.33199997E+01
  0
LINE
  8
0
 62
2
 10
2.57319847E+02
 20
1.07680000E+02
 11
2.53999985E+02
 21
1.07680000E+02
  0
LINE
  8
0
 62
7
 10
2.56499798E+02
 20
1.08500008E+02
 11
2.53999985E+02
 21
1.08500008E+02
  0
LINE
  8
0
 62
7
 10
2.57999969E+02
 20
9.40000076E+01
 11
2.57999969E+02
 21
1.07000008E+02
  0
LINE
  8
0
 62
7
 10
2.52729805E+02
 20
1.06849976E+02
 11
2.45270088E+02
 21
1.06849976E+02
  0
LINE
  8
0
 62
7
 10
2.45270249E+02
 20
1.13200037E+02
 11
2.44000035E+02
 21
1.10999961E+02
  0
LINE
  8
0
 62
7
 10
2.54000318E+02
 20
1.11000115E+02
 11
2.52730139E+02
 21
1.13200131E+02
  0
LINE
  8
0
 62
7
 10
2.53999962E+02
 20
1.11000015E+02
 11
2.53999962E+02
 21
9.00000000E+01
  0
LINE
  8
0
 62
7
 10
2.52729805E+02
 20
1.13199989E+02
 11
2.45270088E+02
 21
1.13199989E+02
  0
LINE
  8
0
 62
7
 10
2.58000032E+02
 20
9.40000187E+01
 11
2.56499954E+02
 21
9.24999860E+01
  0
LINE
  8
0
 62
7
 10
2.52729805E+02
 20
8.78000107E+01
 11
2.45270088E+02
 21
8.78000107E+01
  0
LINE
  8
0
 62
7
 10
2.45270350E+02
 20
8.78000922E+01
 11
2.44000193E+02
 21
9.00000685E+01
  0
LINE
  8
0
 62
7
 10
2.54000083E+02
 20
9.00001483E+01
 11
2.52729918E+02
 21
8.78001587E+01
  0
LINE
  8
0
 62
7
 10
2.52729805E+02
 20
9.41500320E+01
 11
2.45270088E+02
 21
9.41500320E+01
  0
LINE
  8
0
 62
7
 10
2.43999908E+02
 20
1.18500000E+02
 11
2.43999908E+02
 21
8.25000000E+01
  0
LINE
  8
0
 62
7
 10
1.60999874E+02
 20
8.25000000E+01
 11
2.43999863E+02
 21
8.25000000E+01
  0
LINE
  8
0
 62
2
 10
2.36499805E+02
 20
1.00500020E+02
 11
2.43999804E+02
 21
9.22539464E+01
  0
LINE
  8
0
 62
2
 10
2.28999770E+02
 20
9.22539915E+01
 11
2.36499768E+02
 21
1.00500064E+02
  0
LINE
  8
0
 62
7
 10
2.28999863E+02
 20
9.22539291E+01
 11
2.43999863E+02
 21
9.22539291E+01
  0
LINE
  8
0
 62
7
 10
5.89999619E+01
 20
6.30000038E+01
 11
8.39999695E+01
 21
6.30000038E+01
  0
LINE
  8
0
 62
7
 10
8.59999619E+01
 20
1.00500015E+02
 11
8.59999619E+01
 21
8.20000076E+01
  0
LINE
  8
0
 62
7
 10
8.39999466E+01
 20
8.15000076E+01
 11
8.54999466E+01
 21
8.15000076E+01
  0
LINE
  8
0
 62
7
 10
-1.08000084E+02
 20
1.37511223E+02
 11
-1.08000084E+02
 21
1.38000000E+02
  0
LINE
  8
0
 62
7
 10
-1.08000084E+02
 20
1.38000000E+02
 11
-7.99999924E+01
 21
1.38000000E+02
  0
LINE
  8
0
 62
7
 10
-1.11508873E+02
 20
1.37449943E+02
 11
-8.00000611E+01
 21
1.37999931E+02
  0
LINE
  8
0
 62
7
 10
-1.12000023E+02
 20
6.40499420E+01
 11
-1.12000023E+02
 21
1.36950066E+02
  0
LINE
  8
0
 62
7
 10
2.69999466E+01
 20
1.34499985E+02
 11
2.09194310E+01
 21
1.34499985E+02
  0
LINE
  8
0
 62
7
 10
-1.22000053E+02
 20
8.35000076E+01
 11
-1.22000053E+02
 21
1.17499992E+02
  0
LINE
  8
0
 62
7
 10
5.49999771E+01
 20
1.37511223E+02
 11
5.49999771E+01
 21
1.38000000E+02
  0
LINE
  8
0
 62
7
 10
5.49999313E+01
 20
1.38000000E+02
 11
2.69999466E+01
 21
1.38000000E+02
  0
LINE
  8
0
 62
7
 10
-1.14000084E+02
 20
8.20000000E+01
 11
-1.14000084E+02
 21
1.19000008E+02
  0
LINE
  8
0
 62
7
 10
5.85087114E+01
 20
1.37449953E+02
 11
2.70000065E+01
 21
1.37999939E+02
  0
LINE
  8
0
  6
CENTER
 62
2
 10
8.85638962E+01
 20
1.28500008E+02
 11
-1.15980827E+02
 21
1.28500008E+02
  0
LINE
  8
0
 62
7
 10
2.69999466E+01
 20
6.30000038E+01
 11
2.69999466E+01
 21
1.38000000E+02
  0
LINE
  8
0
 62
7
 10
5.89999619E+01
 20
6.30000038E+01
 11
5.89999619E+01
 21
1.38000000E+02
  0
LINE
  8
0
 62
7
 10
-1.21758808E+02
 20
1.17758415E+02
 11
-1.14000110E+02
 21
1.18029355E+02
  0
LINE
  8
0
 62
7
 10
-1.22000053E+02
 20
1.17499992E+02
 11
-1.22000053E+02
 21
1.17508545E+02
  0
LINE
  8
0
 62
7
 10
-1.26500053E+02
 20
1.17499992E+02
 11
-1.21991539E+02
 21
1.17499992E+02
  0
LINE
  8
0
 62
7
 10
-1.13500023E+02
 20
1.19500000E+02
 11
-1.12000023E+02
 21
1.19500000E+02
  0
LINE
  8
0
 62
7
 10
-1.27000023E+02
 20
8.40000381E+01
 11
-1.27000023E+02
 21
1.16999969E+02
  0
LINE
  8
0
 62
7
 10
1.60999943E+02
 20
1.10499977E+02
 11
8.59999390E+01
 21
1.10499977E+02
  0
LINE
  8
0
 62
7
 10
8.39999695E+01
 20
6.30000038E+01
 11
8.39999695E+01
 21
1.38000000E+02
  0
LINE
  8
0
 62
7
 10
1.65999889E+02
 20
8.25000000E+01
 11
1.65999889E+02
 21
1.18500000E+02
  0
LINE
  8
0
 62
7
 10
1.60999874E+02
 20
1.18500000E+02
 11
2.43999863E+02
 21
1.18500000E+02
  0
LINE
  8
0
 62
7
 10
1.60999966E+02
 20
8.25000000E+01
 11
1.60999966E+02
 21
1.18500000E+02
  0
LINE
  8
0
 62
2
 10
2.36499808E+02
 20
1.00499976E+02
 11
2.43999806E+02
 21
1.08746049E+02
  0
LINE
  8
0
 62
2
 10
2.28999770E+02
 20
1.08746007E+02
 11
2.36499771E+02
 21
1.00499932E+02
  0
LINE
  8
0
 62
7
 10
2.28999863E+02
 20
1.08746078E+02
 11
2.43999863E+02
 21
1.08746078E+02
  0
LINE
  8
0
 62
7
 10
2.28999908E+02
 20
9.22539368E+01
 11
2.28999908E+02
 21
1.08746063E+02
  0
LINE
  8
0
 62
7
 10
5.89999619E+01
 20
1.38000000E+02
 11
8.39999695E+01
 21
1.38000000E+02
  0
LINE
  8
0
 62
7
 10
8.59999619E+01
 20
1.00499992E+02
 11
8.59999619E+01
 21
1.18999992E+02
  0
LINE
  8
0
 62
7
 10
8.39999466E+01
 20
1.19500000E+02
 11
8.54999466E+01
 21
1.19500000E+02
  0
LINE
  8
0
 62
7
 10
-1.36999992E+02
 20
1.09500000E+02
 11
-1.36999992E+02
 21
9.15000076E+01
  0
LINE
  8
0
 62
7
 10
-1.34000114E+02
 20
1.05767853E+02
 11
-1.30000053E+02
 21
1.05767853E+02
  0
LINE
  8
0
 62
7
 10
-1.30000053E+02
 20
9.52322006E+01
 11
-1.30000053E+02
 21
1.00500008E+02
  0
LINE
  8
0
 62
7
 10
-1.34000114E+02
 20
9.52321930E+01
 11
-1.30000053E+02
 21
9.52321930E+01
  0
LINE
  8
0
 62
7
 10
-1.33999992E+02
 20
9.05000305E+01
 11
-1.33999992E+02
 21
9.52322006E+01
  0
LINE
  8
0
 62
2
 10
-1.36033596E+02
 20
1.04313414E+02
 11
-1.30000014E+02
 21
9.52322456E+01
  0
LINE
  8
0
 62
2
 10
-1.36033609E+02
 20
9.66864024E+01
 11
-1.29999867E+02
 21
1.05767813E+02
  0
LINE
  8
0
 62
7
 10
-1.34000114E+02
 20
9.05000229E+01
 11
-1.27000053E+02
 21
9.05000229E+01
  0
LINE
  8
0
 62
7
 10
-1.33999992E+02
 20
1.10500046E+02
 11
-1.33999992E+02
 21
1.05767868E+02
  0
LINE
  8
0
 62
7
 10
-1.30000053E+02
 20
1.05767868E+02
 11
-1.30000053E+02
 21
1.00500008E+02
  0
LINE
  8
0
 62
7
 10
-1.39999992E+02
 20
9.15000153E+01
 11
-1.39999992E+02
 21
1.09500015E+02
  0
LINE
  8
0
 62
7
 10
-1.68999992E+02
 20
9.30000381E+01
 11
-1.68999992E+02
 21
1.07999847E+02
  0
LINE
  8
0
 62
7
 10
-1.67499992E+02
 20
9.15000153E+01
 11
-1.67499992E+02
 21
1.09500015E+02
  0
LINE
  8
0
 62
7
 10
-1.67499931E+02
 20
1.09500000E+02
 11
-1.59999992E+02
 21
1.09500000E+02
  0
LINE
  8
0
 62
2
 10
-1.68319939E+02
 20
1.08679993E+02
 11
-1.59999992E+02
 21
1.08679993E+02
  0
LINE
  8
0
 62
7
 10
-1.68999884E+02
 20
1.07999803E+02
 11
-1.67499838E+02
 21
1.09499804E+02
  0
LINE
  8
0
 62
7
 10
-1.67499931E+02
 20
9.15000076E+01
 11
-1.59999992E+02
 21
9.15000076E+01
  0
LINE
  8
0
 62
2
 10
-1.68319939E+02
 20
9.23199997E+01
 11
-1.59999992E+02
 21
9.23199997E+01
  0
LINE
  8
0
 62
7
 10
-1.68999996E+02
 20
9.30001272E+01
 11
-1.67499940E+02
 21
9.15001161E+01
  0
LINE
  8
0
 62
7
 10
-1.34000114E+02
 20
1.10499985E+02
 11
-1.27000053E+02
 21
1.10499985E+02
  0
LINE
  8
0
 62
7
 10
-1.37000001E+02
 20
1.03622443E+02
 11
-1.34000013E+02
 21
1.05767540E+02
  0
LINE
  8
0
 62
7
 10
-1.36999991E+02
 20
9.73775577E+01
 11
-1.34000003E+02
 21
9.52319088E+01
  0
LINE
  8
0
 62
7
 10
-1.36999951E+02
 20
1.09499983E+02
 11
-1.33999962E+02
 21
1.10499966E+02
  0
LINE
  8
0
 62
7
 10
-1.37000000E+02
 20
9.15000081E+01
 11
-1.34000008E+02
 21
9.05000332E+01
  0
LINE
  8
0
 62
7
 10
-1.39999992E+02
 20
1.08679993E+02
 11
-1.36999992E+02
 21
1.08679993E+02
  0
LINE
  8
0
 62
7
 10
-1.39999992E+02
 20
9.23199997E+01
 11
-1.36999992E+02
 21
9.23199997E+01
  0
ARC
  8
0
 62
7
 10
-1.13500023E+02
 20
8.20000000E+01
 40
5.00000000E-01
 50
1.79999977E+02
 51
2.69999974E+02
  0
ARC
  8
0
 62
7
 10
5.84999619E+01
 20
6.40499306E+01
 40
5.00000000E-01
 50
2.71000258E+02
 51
3.59999993E+02
  0
ARC
  8
0
 62
7
 10
-1.21750114E+02
 20
8.34914627E+01
 40
2.50000000E-01
 50
1.79999977E+02
 51
2.68001132E+02
  0
ARC
  8
0
 62
7
 10
-1.26500053E+02
 20
8.40000381E+01
 40
5.00000000E-01
 50
1.79999977E+02
 51
2.69999974E+02
  0
ARC
  8
0
 62
7
 10
-1.11500053E+02
 20
6.40499306E+01
 40
5.00000000E-01
 50
1.79999909E+02
 51
2.68999651E+02
  0
ARC
  8
0
 62
7
 10
2.49777802E+02
 20
9.11313553E+01
 40
4.22211885E+00
 50
3.29999842E+02
 51
4.56403895E+01
  0
ARC
  8
0
 62
7
 10
2.48221954E+02
 20
9.11313553E+01
 40
4.22211885E+00
 50
1.34359575E+02
 51
2.10000122E+02
  0
ARC
  8
0
 62
7
 10
2.37492203E+02
 20
1.00500000E+02
 40
1.65077591E+01
 50
3.37376952E+02
 51
2.26229935E+01
  0
ARC
  8
0
 62
7
 10
2.60507645E+02
 20
1.00500000E+02
 40
1.65077591E+01
 50
1.57376970E+02
 51
2.02623012E+02
  0
ARC
  8
0
 62
7
 10
2.48221954E+02
 20
1.09868652E+02
 40
4.22208166E+00
 50
1.49999983E+02
 51
2.25640640E+02
  0
ARC
  8
0
 62
7
 10
2.49777802E+02
 20
1.09868652E+02
 40
4.22208166E+00
 50
3.14359324E+02
 51
2.99999804E+01
  0
ARC
  8
0
 62
7
 10
2.44999985E+02
 20
1.00500000E+02
 40
1.80000000E+01
 50
1.79999977E+02
 51
2.07265533E+02
  0
ARC
  8
0
 62
7
 10
8.54999695E+01
 20
8.20000076E+01
 40
5.00000000E-01
 50
2.70000018E+02
 51
0.00000000E+00
  0
ARC
  8
0
 62
7
 10
-1.26500053E+02
 20
1.16999969E+02
 40
5.00000000E-01
 50
9.00000369E+01
 51
1.80000019E+02
  0
ARC
  8
0
 62
7
 10
-1.21750114E+02
 20
1.17508545E+02
 40
2.50000000E-01
 50
9.19988643E+01
 51
1.80000019E+02
  0
ARC
  8
0
 62
7
 10
5.84999619E+01
 20
1.36950073E+02
 40
5.00000000E-01
 50
6.83018920E-06
 51
8.89997419E+01
  0
ARC
  8
0
 62
7
 10
-1.13500023E+02
 20
1.19000008E+02
 40
5.00000000E-01
 50
9.00000369E+01
 51
1.80000019E+02
  0
ARC
  8
0
 62
7
 10
-1.11500053E+02
 20
1.36950073E+02
 40
5.00000000E-01
 50
9.10003518E+01
 51
1.80000087E+02
  0
ARC
  8
0
 62
7
 10
2.44999985E+02
 20
1.00500000E+02
 40
1.80000000E+01
 50
1.52734464E+02
 51
1.80000019E+02
  0
ARC
  8
0
 62
7
 10
8.54999695E+01
 20
1.18999992E+02
 40
5.00000000E-01
 50
0.00000000E+00
 51
8.99999818E+01
  0
ARC
  8
0
 62
7
 10
-1.38499992E+02
 20
1.00500000E+02
 40
9.99998474E+00
 50
0.00000000E+00
 51
3.17883527E+01
  0
ARC
  8
0
 62
7
 10
-1.38499992E+02
 20
1.00500000E+02
 40
9.99998474E+00
 50
3.28211647E+02
 51
0.00000000E+00
  0
LINE
  8
0
 62
7
 10
-1.48999992E+02
 20
1.09500000E+02
 11
-1.39999992E+02
 21
1.09500000E+02
  0
LINE
  8
0
 62
2
 10
-1.48999992E+02
 20
1.08679993E+02
 11
-1.39999992E+02
 21
1.08679993E+02
  0
LINE
  8
0
 62
7
 10
-1.48999992E+02
 20
9.15000076E+01
 11
-1.39999992E+02
 21
9.15000076E+01
  0
LINE
  8
0
 62
2
 10
-1.48999992E+02
 20
9.23199997E+01
 11
-1.39999992E+02
 21
9.23199997E+01
  0
LINE
  8
0
 62
4
 10
-1.48999992E+02
 20
8.70000000E+01
 11
-1.48999992E+02
 21
1.14000000E+02
  0
LINE
  8
0
 62
4
 10
-1.59999992E+02
 20
8.70000000E+01
 11
-1.59999992E+02
 21
1.14000000E+02
  0
ARC
  8
0
 62
4
 10
-1.34205764E+02
 20
1.00500000E+02
 40
2.57942282E+01
 50
1.62412046E+02
 51
1.97587954E+02
  0
ARC
  8
0
 62
4
 10
-1.74794221E+02
 20
1.00500000E+02
 40
2.57942282E+01
 50
3.42412046E+02
 51
1.75879541E+01
  0
ARC
  8
0
 62
4
 10
-1.55900714E+02
 20
1.12191343E+02
 40
6.90072132E+00
 50
3.25615752E+02
 51
3.43842480E+01
  0
ARC
  8
0
 62
4
 10
-1.53099271E+02
 20
1.12191343E+02
 40
6.90072132E+00
 50
1.45615752E+02
 51
2.14384248E+02
  0
LINE
  8
0
 62
4
 10
-1.50205764E+02
 20
1.16088457E+02
 11
-1.48999992E+02
 21
1.14000000E+02
  0
LINE
  8
0
 62
4
 10
-1.58794221E+02
 20
1.16088457E+02
 11
-1.59999992E+02
 21
1.14000000E+02
  0
LINE
  8
0
 62
4
 10
-1.58794221E+02
 20
1.08294229E+02
 11
-1.50205764E+02
 21
1.08294229E+02
  0
LINE
  8
0
 62
4
 10
-1.58794221E+02
 20
1.16088457E+02
 11
-1.50205764E+02
 21
1.16088457E+02
  0
ARC
  8
0
 62
4
 10
-1.55900714E+02
 20
8.88086570E+01
 40
6.90072132E+00
 50
3.25615752E+02
 51
3.43842480E+01
  0
ARC
  8
0
 62
4
 10
-1.53099271E+02
 20
8.88086570E+01
 40
6.90072132E+00
 50
1.45615752E+02
 51
2.14384248E+02
  0
LINE
  8
0
 62
4
 10
-1.59999992E+02
 20
8.70000000E+01
 11
-1.58794221E+02
 21
8.49115427E+01
  0
LINE
  8
0
 62
4
 10
-1.48999992E+02
 20
8.70000000E+01
 11
-1.50205764E+02
 21
8.49115427E+01
  0
LINE
  8
0
 62
4
 10
-1.58794221E+02
 20
9.27057714E+01
 11
-1.50205764E+02
 21
9.27057714E+01
  0
LINE
  8
0
 62
4
 10
-1.58794221E+02
 20
8.49115427E+01
 11
-1.50205764E+02
 21
8.49115427E+01
  0
LINE
  8
0
 62
7
 10
2.69999466E+01
 20
1.32099998E+02
 11
1.99999924E+01
 21
1.32099998E+02
  0
LINE
  8
0
 62
7
 10
2.69999466E+01
 20
1.24899971E+02
 11
4.99999237E+00
 21
1.24899971E+02
  0
LINE
  8
0
 62
7
 10
2.69999466E+01
 20
7.60999985E+01
 11
-8.00000229E+01
 21
7.60999985E+01
  0
LINE
  8
0
 62
7
 10
2.69999466E+01
 20
6.88999710E+01
 11
-8.00000229E+01
 21
6.88999710E+01
  0
LINE
  8
0
 62
4
 10
-3.89999924E+01
 20
1.37852051E+02
 11
-3.89999924E+01
 21
1.49176910E+02
  0
LINE
  8
0
 62
6
 10
-1.82678958E+01
 20
1.39352051E+02
 11
-2.17319974E+01
 21
1.33352051E+02
  0
LINE
  8
0
 62
6
 10
-3.07320585E+01
 20
1.33352051E+02
 11
-2.72679568E+01
 21
1.39352051E+02
  0
LINE
  8
0
 62
4
 10
-9.99994659E+00
 20
1.37852051E+02
 11
-1.91339212E+01
 21
1.37852051E+02
  0
LINE
  8
0
  6
CENTER
 62
6
 10
2.50000534E+01
 20
1.36352051E+02
 11
-2.19999466E+01
 21
1.36352051E+02
  0
LINE
  8
0
 62
4
 10
-9.99994659E+00
 20
1.34852051E+02
 11
-2.08659720E+01
 21
1.34852051E+02
  0
LINE
  8
0
 62
4
 10
-3.89999924E+01
 20
1.34852051E+02
 11
-2.98660330E+01
 21
1.34852051E+02
  0
LINE
  8
0
  6
CENTER
 62
6
 10
-7.40000076E+01
 20
1.36352051E+02
 11
-2.70000076E+01
 21
1.36352051E+02
  0
LINE
  8
0
 62
4
 10
-4.55000076E+01
 20
1.37852051E+02
 11
-2.81339822E+01
 21
1.37852051E+02
  0
LINE
  8
0
 62
4
 10
-3.89999924E+01
 20
1.34499962E+02
 11
-3.89999924E+01
 21
1.34911063E+02
  0
LINE
  8
0
 62
4
 10
-4.54999924E+01
 20
1.38872198E+02
 11
-4.54999924E+01
 21
1.34911063E+02
  0
LINE
  8
0
 62
4
 10
-6.89999924E+01
 20
1.49176910E+02
 11
-6.89999924E+01
 21
1.38872198E+02
  0
LINE
  8
0
  6
CENTER
 62
6
 10
-4.93499924E+01
 20
1.41568458E+02
 11
-5.86499924E+01
 21
1.41568458E+02
  0
LINE
  8
0
  6
CENTER
 62
6
 10
-5.39999924E+01
 20
1.46218458E+02
 11
-5.39999924E+01
 21
1.36918458E+02
  0
LINE
  8
0
 62
4
 10
1.99999924E+01
 20
1.49176910E+02
 11
1.99999924E+01
 21
1.30653524E+02
  0
LINE
  8
0
  6
CENTER
 62
6
 10
-1.00000076E+01
 20
1.22516164E+02
 11
-3.00000763E+00
 21
1.22516164E+02
  0
LINE
  8
0
  6
CENTER
 62
6
 10
-2.00000763E+00
 20
1.22516164E+02
 11
4.99999237E+00
 21
1.22516164E+02
  0
LINE
  8
0
  6
CENTER
 62
6
 10
1.49999237E+00
 20
1.19016164E+02
 11
1.49999237E+00
 21
1.26016164E+02
  0
LINE
  8
0
  6
CENTER
 62
6
 10
-6.50000763E+00
 20
1.19016164E+02
 11
-6.50000763E+00
 21
1.26016164E+02
  0
LINE
  8
0
 62
4
 10
-1.00000076E+01
 20
1.17675464E+02
 11
-1.00000076E+01
 21
1.49176910E+02
  0
LINE
  8
0
 62
4
 10
4.99999237E+00
 20
1.45994035E+02
 11
4.99999237E+00
 21
1.17675464E+02
  0
LINE
  8
0
  6
CENTER
 62
6
 10
1.60745893E+01
 20
1.41714281E+02
 11
8.92539548E+00
 21
1.41714281E+02
  0
LINE
  8
0
  6
CENTER
 62
6
 10
1.24999924E+01
 20
1.45288878E+02
 11
1.24999924E+01
 21
1.38139684E+02
  0
LINE
  8
0
 62
4
 10
-6.89999924E+01
 20
1.49176910E+02
 11
-3.89999924E+01
 21
1.49176910E+02
  0
LINE
  8
0
 62
4
 10
-1.00000076E+01
 20
1.49176910E+02
 11
1.99999924E+01
 21
1.49176910E+02
  0
LINE
  8
0
 62
4
 10
-1.00000076E+01
 20
1.17675464E+02
 11
4.99999237E+00
 21
1.17675464E+02
  0
LINE
  8
0
 62
4
 10
-1.00000076E+01
 20
1.45994035E+02
 11
1.99999924E+01
 21
1.45994035E+02
  0
LINE
  8
0
 62
4
 10
-1.00000076E+01
 20
1.44603459E+02
 11
4.99999237E+00
 21
1.44603459E+02
  0
LINE
  8
0
 62
4
 10
-9.00000764E+00
 20
1.28222503E+02
 11
3.99999236E+00
 21
1.28222503E+02
  0
LINE
  8
0
 62
4
 10
4.99999237E+00
 20
1.37910055E+02
 11
1.99999924E+01
 21
1.37910055E+02
  0
LINE
  8
0
 62
4
 10
4.99999237E+00
 20
1.37786448E+02
 11
1.99999924E+01
 21
1.37786448E+02
  0
LINE
  8
0
 62
4
 10
4.99999236E+00
 20
1.30653524E+02
 11
1.99999924E+01
 21
1.30653524E+02
  0
POLYLINE
  8
0
 62
4
 66
1
  0
VERTEX
  8
0
 62
4
 10
1.02499924E+01
 20
1.41714281E+02
  0
VERTEX
  8
0
 62
4
 10
1.02585543E+01
 20
1.41527778E+02
  0
VERTEX
  8
0
 62
4
 10
1.02841750E+01
 20
1.41342695E+02
  0
VERTEX
  8
0
 62
4
 10
1.03266593E+01
 20
1.41160440E+02
  0
VERTEX
  8
0
 62
4
 10
1.03856840E+01
 20
1.40982400E+02
  0
VERTEX
  8
0
 62
4
 10
1.04607999E+01
 20
1.40809930E+02
  0
VERTEX
  8
0
 62
4
 10
1.05514352E+01
 20
1.40644342E+02
  0
VERTEX
  8
0
 62
4
 10
1.06569003E+01
 20
1.40486898E+02
  0
VERTEX
  8
0
 62
4
 10
1.07763924E+01
 20
1.40338794E+02
  0
VERTEX
  8
0
 62
4
 10
1.09090021E+01
 20
1.40201159E+02
  0
VERTEX
  8
0
 62
4
 10
1.10537203E+01
 20
1.40075040E+02
  0
VERTEX
  8
0
 62
4
 10
1.12094454E+01
 20
1.39961396E+02
  0
VERTEX
  8
0
 62
4
 10
1.13749924E+01
 20
1.39861093E+02
  0
VERTEX
  8
0
 62
4
 10
1.15491013E+01
 20
1.39774894E+02
  0
VERTEX
  8
0
 62
4
 10
1.17304471E+01
 20
1.39703454E+02
  0
VERTEX
  8
0
 62
4
 10
1.19176495E+01
 20
1.39647318E+02
  0
VERTEX
  8
0
 62
4
 10
1.21092840E+01
 20
1.39606913E+02
  0
VERTEX
  8
0
 62
4
 10
1.23038920E+01
 20
1.39582547E+02
  0
VERTEX
  8
0
 62
4
 10
1.24999924E+01
 20
1.39574404E+02
  0
VERTEX
  8
0
 62
4
 10
1.26960928E+01
 20
1.39582547E+02
  0
VERTEX
  8
0
 62
4
 10
1.28907008E+01
 20
1.39606913E+02
  0
VERTEX
  8
0
 62
4
 10
1.30823352E+01
 20
1.39647318E+02
  0
VERTEX
  8
0
 62
4
 10
1.32695377E+01
 20
1.39703454E+02
  0
VERTEX
  8
0
 62
4
 10
1.34508835E+01
 20
1.39774894E+02
  0
VERTEX
  8
0
 62
4
 10
1.36249924E+01
 20
1.39861093E+02
  0
VERTEX
  8
0
 62
4
 10
1.37905394E+01
 20
1.39961396E+02
  0
VERTEX
  8
0
 62
4
 10
1.39462645E+01
 20
1.40075040E+02
  0
VERTEX
  8
0
 62
4
 10
1.40909827E+01
 20
1.40201159E+02
  0
VERTEX
  8
0
 62
4
 10
1.42235924E+01
 20
1.40338794E+02
  0
VERTEX
  8
0
 62
4
 10
1.43430845E+01
 20
1.40486898E+02
  0
VERTEX
  8
0
 62
4
 10
1.44485496E+01
 20
1.40644342E+02
  0
VERTEX
  8
0
 62
4
 10
1.45391849E+01
 20
1.40809930E+02
  0
VERTEX
  8
0
 62
4
 10
1.46143008E+01
 20
1.40982400E+02
  0
VERTEX
  8
0
 62
4
 10
1.46733255E+01
 20
1.41160440E+02
  0
VERTEX
  8
0
 62
4
 10
1.47158098E+01
 20
1.41342695E+02
  0
VERTEX
  8
0
 62
4
 10
1.47414305E+01
 20
1.41527778E+02
  0
VERTEX
  8
0
 62
4
 10
1.47499924E+01
 20
1.41714281E+02
  0
VERTEX
  8
0
 62
4
 10
1.47414305E+01
 20
1.41900784E+02
  0
VERTEX
  8
0
 62
4
 10
1.47158098E+01
 20
1.42085867E+02
  0
VERTEX
  8
0
 62
4
 10
1.46733255E+01
 20
1.42268122E+02
  0
VERTEX
  8
0
 62
4
 10
1.46143008E+01
 20
1.42446162E+02
  0
VERTEX
  8
0
 62
4
 10
1.45391849E+01
 20
1.42618632E+02
  0
VERTEX
  8
0
 62
4
 10
1.44485496E+01
 20
1.42784220E+02
  0
VERTEX
  8
0
 62
4
 10
1.43430845E+01
 20
1.42941664E+02
  0
VERTEX
  8
0
 62
4
 10
1.42235924E+01
 20
1.43089768E+02
  0
VERTEX
  8
0
 62
4
 10
1.40909827E+01
 20
1.43227403E+02
  0
VERTEX
  8
0
 62
4
 10
1.39462645E+01
 20
1.43353522E+02
  0
VERTEX
  8
0
 62
4
 10
1.37905394E+01
 20
1.43467166E+02
  0
VERTEX
  8
0
 62
4
 10
1.36249924E+01
 20
1.43567469E+02
  0
VERTEX
  8
0
 62
4
 10
1.34508835E+01
 20
1.43653668E+02
  0
VERTEX
  8
0
 62
4
 10
1.32695377E+01
 20
1.43725108E+02
  0
VERTEX
  8
0
 62
4
 10
1.30823353E+01
 20
1.43781244E+02
  0
VERTEX
  8
0
 62
4
 10
1.28907008E+01
 20
1.43821649E+02
  0
VERTEX
  8
0
 62
4
 10
1.26960928E+01
 20
1.43846015E+02
  0
VERTEX
  8
0
 62
4
 10
1.24999924E+01
 20
1.43854158E+02
  0
VERTEX
  8
0
 62
4
 10
1.23038920E+01
 20
1.43846015E+02
  0
VERTEX
  8
0
 62
4
 10
1.21092840E+01
 20
1.43821649E+02
  0
VERTEX
  8
0
 62
4
 10
1.19176496E+01
 20
1.43781244E+02
  0
VERTEX
  8
0
 62
4
 10
1.17304471E+01
 20
1.43725108E+02
  0
VERTEX
  8
0
 62
4
 10
1.15491013E+01
 20
1.43653668E+02
  0
VERTEX
  8
0
 62
4
 10
1.13749924E+01
 20
1.43567469E+02
  0
VERTEX
  8
0
 62
4
 10
1.12094454E+01
 20
1.43467166E+02
  0
VERTEX
  8
0
 62
4
 10
1.10537203E+01
 20
1.43353522E+02
  0
VERTEX
  8
0
 62
4
 10
1.09090021E+01
 20
1.43227403E+02
  0
VERTEX
  8
0
 62
4
 10
1.07763924E+01
 20
1.43089768E+02
  0
VERTEX
  8
0
 62
4
 10
1.06569003E+01
 20
1.42941664E+02
  0
VERTEX
  8
0
 62
4
 10
1.05514352E+01
 20
1.42784220E+02
  0
VERTEX
  8
0
 62
4
 10
1.04607999E+01
 20
1.42618632E+02
  0
VERTEX
  8
0
 62
4
 10
1.03856840E+01
 20
1.42446162E+02
  0
VERTEX
  8
0
 62
4
 10
1.03266593E+01
 20
1.42268122E+02
  0
VERTEX
  8
0
 62
4
 10
1.02841750E+01
 20
1.42085867E+02
  0
VERTEX
  8
0
 62
4
 10
1.02585543E+01
 20
1.41900784E+02
  0
VERTEX
  8
0
 62
4
 10
1.02499924E+01
 20
1.41714281E+02
  0
SEQEND
  8
0
  0
POLYLINE
  8
0
 62
4
 66
1
  0
VERTEX
  8
0
 62
4
 10
3.49999237E+00
 20
1.22516164E+02
  0
VERTEX
  8
0
 62
4
 10
3.49194096E+00
 20
1.22686668E+02
  0
VERTEX
  8
0
 62
4
 10
3.46785155E+00
 20
1.22855799E+02
  0
VERTEX
  8
0
 62
4
 10
3.42791809E+00
 20
1.23022196E+02
  0
VERTEX
  8
0
 62
4
 10
3.37246211E+00
 20
1.23184519E+02
  0
VERTEX
  8
0
 62
4
 10
3.30193011E+00
 20
1.23341460E+02
  0
VERTEX
  8
0
 62
4
 10
3.21688996E+00
 20
1.23491756E+02
  0
VERTEX
  8
0
 62
4
 10
3.11802636E+00
 20
1.23634198E+02
  0
VERTEX
  8
0
 62
4
 10
3.00613530E+00
 20
1.23767638E+02
  0
VERTEX
  8
0
 62
4
 10
2.88211767E+00
 20
1.23891002E+02
  0
VERTEX
  8
0
 62
4
 10
2.74697198E+00
 20
1.24003296E+02
  0
VERTEX
  8
0
 62
4
 10
2.60178633E+00
 20
1.24103617E+02
  0
VERTEX
  8
0
 62
4
 10
2.44772970E+00
 20
1.24191156E+02
  0
VERTEX
  8
0
 62
4
 10
2.28604244E+00
 20
1.24265210E+02
  0
VERTEX
  8
0
 62
4
 10
2.11802636E+00
 20
1.24325181E+02
  0
VERTEX
  8
0
 62
4
 10
1.94503424E+00
 20
1.24370587E+02
  0
VERTEX
  8
0
 62
4
 10
1.76845890E+00
 20
1.24401062E+02
  0
VERTEX
  8
0
 62
4
 10
1.58972203E+00
 20
1.24416362E+02
  0
VERTEX
  8
0
 62
4
 10
1.41026271E+00
 20
1.24416362E+02
  0
VERTEX
  8
0
 62
4
 10
1.23152584E+00
 20
1.24401062E+02
  0
VERTEX
  8
0
 62
4
 10
1.05495051E+00
 20
1.24370587E+02
  0
VERTEX
  8
0
 62
4
 10
8.81958385E-01
 20
1.24325181E+02
  0
VERTEX
  8
0
 62
4
 10
7.13942311E-01
 20
1.24265210E+02
  0
VERTEX
  8
0
 62
4
 10
5.52255049E-01
 20
1.24191156E+02
  0
VERTEX
  8
0
 62
4
 10
3.98198411E-01
 20
1.24103617E+02
  0
VERTEX
  8
0
 62
4
 10
2.53012770E-01
 20
1.24003296E+02
  0
VERTEX
  8
0
 62
4
 10
1.17867076E-01
 20
1.23891002E+02
  0
VERTEX
  8
0
 62
4
 10
-6.15055836E-03
 20
1.23767638E+02
  0
VERTEX
  8
0
 62
4
 10
-1.18041615E-01
 20
1.23634198E+02
  0
VERTEX
  8
0
 62
4
 10
-2.16905214E-01
 20
1.23491756E+02
  0
VERTEX
  8
0
 62
4
 10
-3.01945363E-01
 20
1.23341460E+02
  0
VERTEX
  8
0
 62
4
 10
-3.72477369E-01
 20
1.23184519E+02
  0
VERTEX
  8
0
 62
4
 10
-4.27933350E-01
 20
1.23022196E+02
  0
VERTEX
  8
0
 62
4
 10
-4.67866806E-01
 20
1.22855799E+02
  0
VERTEX
  8
0
 62
4
 10
-4.91956217E-01
 20
1.22686668E+02
  0
VERTEX
  8
0
 62
4
 10
-5.00007630E-01
 20
1.22516164E+02
  0
SEQEND
  8
0
  0
POLYLINE
  8
0
 62
4
 66
1
  0
VERTEX
  8
0
 62
4
 10
3.49999237E+00
 20
1.21640824E+02
  0
VERTEX
  8
0
 62
4
 10
3.49238177E+00
 20
1.21806604E+02
  0
VERTEX
  8
0
 62
4
 10
3.46960788E+00
 20
1.21971122E+02
  0
VERTEX
  8
0
 62
4
 10
3.43184402E+00
 20
1.22133127E+02
  0
VERTEX
  8
0
 62
4
 10
3.37937761E+00
 20
1.22291385E+02
  0
VERTEX
  8
0
 62
4
 10
3.31260794E+00
 20
1.22444692E+02
  0
VERTEX
  8
0
 62
4
 10
3.23204318E+00
 20
1.22591881E+02
  0
VERTEX
  8
0
 62
4
 10
3.13829646E+00
 20
1.22731831E+02
  0
VERTEX
  8
0
 62
4
 10
3.03208126E+00
 20
1.22863479E+02
  0
VERTEX
  8
0
 62
4
 10
2.91420593E+00
 20
1.22985821E+02
  0
VERTEX
  8
0
 62
4
 10
2.78556759E+00
 20
1.23097927E+02
  0
VERTEX
  8
0
 62
4
 10
2.64714524E+00
 20
1.23198944E+02
  0
VERTEX
  8
0
 62
4
 10
2.49999237E+00
 20
1.23288102E+02
  0
VERTEX
  8
0
 62
4
 10
2.34522889E+00
 20
1.23364724E+02
  0
VERTEX
  8
0
 62
4
 10
2.18403266E+00
 20
1.23428226E+02
  0
VERTEX
  8
0
 62
4
 10
2.01763046E+00
 20
1.23478124E+02
  0
VERTEX
  8
0
 62
4
 10
1.84728872E+00
 20
1.23514040E+02
  0
VERTEX
  8
0
 62
4
 10
1.67430385E+00
 20
1.23535699E+02
  0
VERTEX
  8
0
 62
4
 10
1.49999237E+00
 20
1.23542937E+02
  0
VERTEX
  8
0
 62
4
 10
1.32568088E+00
 20
1.23535699E+02
  0
VERTEX
  8
0
 62
4
 10
1.15269601E+00
 20
1.23514040E+02
  0
VERTEX
  8
0
 62
4
 10
9.82354278E-01
 20
1.23478124E+02
  0
VERTEX
  8
0
 62
4
 10
8.15952082E-01
 20
1.23428226E+02
  0
VERTEX
  8
0
 62
4
 10
6.54755845E-01
 20
1.23364724E+02
  0
VERTEX
  8
0
 62
4
 10
4.99992368E-01
 20
1.23288102E+02
  0
VERTEX
  8
0
 62
4
 10
3.52839496E-01
 20
1.23198944E+02
  0
VERTEX
  8
0
 62
4
 10
2.14417149E-01
 20
1.23097927E+02
  0
VERTEX
  8
0
 62
4
 10
8.57788061E-02
 20
1.22985821E+02
  0
VERTEX
  8
0
 62
4
 10
-3.20965176E-02
 20
1.22863479E+02
  0
VERTEX
  8
0
 62
4
 10
-1.38311720E-01
 20
1.22731831E+02
  0
VERTEX
  8
0
 62
4
 10
-2.32058439E-01
 20
1.22591881E+02
  0
VERTEX
  8
0
 62
4
 10
-3.12623205E-01
 20
1.22444692E+02
  0
VERTEX
  8
0
 62
4
 10
-3.79392872E-01
 20
1.22291385E+02
  0
VERTEX
  8
0
 62
4
 10
-4.31859283E-01
 20
1.22133127E+02
  0
VERTEX
  8
0
 62
4
 10
-4.69623136E-01
 20
1.21971122E+02
  0
VERTEX
  8
0
 62
4
 10
-4.92397026E-01
 20
1.21806604E+02
  0
VERTEX
  8
0
 62
4
 10
-5.00007630E-01
 20
1.21640824E+02
  0
VERTEX
  8
0
 62
4
 10
-4.92397026E-01
 20
1.21475044E+02
  0
VERTEX
  8
0
 62
4
 10
-4.69623136E-01
 20
1.21310526E+02
  0
VERTEX
  8
0
 62
4
 10
-4.31859282E-01
 20
1.21148521E+02
  0
VERTEX
  8
0
 62
4
 10
-3.79392870E-01
 20
1.20990263E+02
  0
VERTEX
  8
0
 62
4
 10
-3.12623203E-01
 20
1.20836956E+02
  0
VERTEX
  8
0
 62
4
 10
-2.32058436E-01
 20
1.20689767E+02
  0
VERTEX
  8
0
 62
4
 10
-1.38311717E-01
 20
1.20549817E+02
  0
VERTEX
  8
0
 62
4
 10
-3.20965140E-02
 20
1.20418169E+02
  0
VERTEX
  8
0
 62
4
 10
8.57788101E-02
 20
1.20295827E+02
  0
VERTEX
  8
0
 62
4
 10
2.14417153E-01
 20
1.20183721E+02
  0
VERTEX
  8
0
 62
4
 10
3.52839500E-01
 20
1.20082704E+02
  0
VERTEX
  8
0
 62
4
 10
4.99992373E-01
 20
1.19993546E+02
  0
VERTEX
  8
0
 62
4
 10
6.54755850E-01
 20
1.19916924E+02
  0
VERTEX
  8
0
 62
4
 10
8.15952087E-01
 20
1.19853422E+02
  0
VERTEX
  8
0
 62
4
 10
9.82354284E-01
 20
1.19803524E+02
  0
VERTEX
  8
0
 62
4
 10
1.15269602E+00
 20
1.19767608E+02
  0
VERTEX
  8
0
 62
4
 10
1.32568089E+00
 20
1.19745949E+02
  0
VERTEX
  8
0
 62
4
 10
1.49999237E+00
 20
1.19738711E+02
  0
VERTEX
  8
0
 62
4
 10
1.67430386E+00
 20
1.19745949E+02
  0
VERTEX
  8
0
 62
4
 10
1.84728873E+00
 20
1.19767608E+02
  0
VERTEX
  8
0
 62
4
 10
2.01763046E+00
 20
1.19803524E+02
  0
VERTEX
  8
0
 62
4
 10
2.18403266E+00
 20
1.19853422E+02
  0
VERTEX
  8
0
 62
4
 10
2.34522890E+00
 20
1.19916924E+02
  0
VERTEX
  8
0
 62
4
 10
2.49999237E+00
 20
1.19993546E+02
  0
VERTEX
  8
0
 62
4
 10
2.64714525E+00
 20
1.20082704E+02
  0
VERTEX
  8
0
 62
4
 10
2.78556759E+00
 20
1.20183721E+02
  0
VERTEX
  8
0
 62
4
 10
2.91420594E+00
 20
1.20295827E+02
  0
VERTEX
  8
0
 62
4
 10
3.03208126E+00
 20
1.20418169E+02
  0
VERTEX
  8
0
 62
4
 10
3.13829646E+00
 20
1.20549817E+02
  0
VERTEX
  8
0
 62
4
 10
3.23204318E+00
 20
1.20689767E+02
  0
VERTEX
  8
0
 62
4
 10
3.31260795E+00
 20
1.20836956E+02
  0
VERTEX
  8
0
 62
4
 10
3.37937761E+00
 20
1.20990263E+02
  0
VERTEX
  8
0
 62
4
 10
3.43184402E+00
 20
1.21148521E+02
  0
VERTEX
  8
0
 62
4
 10
3.46960788E+00
 20
1.21310526E+02
  0
VERTEX
  8
0
 62
4
 10
3.49238177E+00
 20
1.21475044E+02
  0
VERTEX
  8
0
 62
4
 10
3.49999237E+00
 20
1.21640824E+02
  0
SEQEND
  8
0
  0
LINE
  8
0
 62
4
 10
-5.00007629E-01
 20
1.21640824E+02
 11
-5.00007629E-01
 21
1.22516164E+02
  0
LINE
  8
0
 62
4
 10
3.49999237E+00
 20
1.21640824E+02
 11
3.49999237E+00
 21
1.22516164E+02
  0
POLYLINE
  8
0
 62
6
 66
1
  0
VERTEX
  8
0
 62
6
 10
-7.63000000E-06
 20
1.21640824E+02
  0
VERTEX
  8
0
 62
6
 10
5.70032242E-03
 20
1.21516489E+02
  0
VERTEX
  8
0
 62
6
 10
2.27807396E-02
 20
1.21393100E+02
  0
VERTEX
  8
0
 62
6
 10
5.11036293E-02
 20
1.21271597E+02
  0
VERTEX
  8
0
 62
6
 10
9.04534371E-02
 20
1.21152903E+02
  0
VERTEX
  8
0
 62
6
 10
1.40530687E-01
 20
1.21037923E+02
  0
VERTEX
  8
0
 62
6
 10
2.00954262E-01
 20
1.20927532E+02
  0
VERTEX
  8
0
 62
6
 10
2.71264301E-01
 20
1.20822569E+02
  0
VERTEX
  8
0
 62
6
 10
3.50925702E-01
 20
1.20723833E+02
  0
VERTEX
  8
0
 62
6
 10
4.39332195E-01
 20
1.20632076E+02
  0
VERTEX
  8
0
 62
6
 10
5.35810952E-01
 20
1.20547997E+02
  0
VERTEX
  8
0
 62
6
 10
6.39627712E-01
 20
1.20472234E+02
  0
VERTEX
  8
0
 62
6
 10
7.49992366E-01
 20
1.20405365E+02
  0
VERTEX
  8
0
 62
6
 10
8.66064973E-01
 20
1.20347899E+02
  0
VERTEX
  8
0
 62
6
 10
9.86962151E-01
 20
1.20300273E+02
  0
VERTEX
  8
0
 62
6
 10
1.11176380E+00
 20
1.20262849E+02
  0
VERTEX
  8
0
 62
6
 10
1.23952010E+00
 20
1.20235912E+02
  0
VERTEX
  8
0
 62
6
 10
1.36925875E+00
 20
1.20219668E+02
  0
VERTEX
  8
0
 62
6
 10
1.49999237E+00
 20
1.20214239E+02
  0
VERTEX
  8
0
 62
6
 10
1.63072598E+00
 20
1.20219668E+02
  0
VERTEX
  8
0
 62
6
 10
1.76046463E+00
 20
1.20235912E+02
  0
VERTEX
  8
0
 62
6
 10
1.88822093E+00
 20
1.20262849E+02
  0
VERTEX
  8
0
 62
6
 10
2.01302258E+00
 20
1.20300273E+02
  0
VERTEX
  8
0
 62
6
 10
2.13391976E+00
 20
1.20347899E+02
  0
VERTEX
  8
0
 62
6
 10
2.24999237E+00
 20
1.20405365E+02
  0
VERTEX
  8
0
 62
6
 10
2.36035702E+00
 20
1.20472234E+02
  0
VERTEX
  8
0
 62
6
 10
2.46417378E+00
 20
1.20547997E+02
  0
VERTEX
  8
0
 62
6
 10
2.56065254E+00
 20
1.20632076E+02
  0
VERTEX
  8
0
 62
6
 10
2.64905903E+00
 20
1.20723833E+02
  0
VERTEX
  8
0
 62
6
 10
2.72872043E+00
 20
1.20822569E+02
  0
VERTEX
  8
0
 62
6
 10
2.79903047E+00
 20
1.20927532E+02
  0
VERTEX
  8
0
 62
6
 10
2.85945405E+00
 20
1.21037923E+02
  0
VERTEX
  8
0
 62
6
 10
2.90953130E+00
 20
1.21152903E+02
  0
VERTEX
  8
0
 62
6
 10
2.94888111E+00
 20
1.21271597E+02
  0
VERTEX
  8
0
 62
6
 10
2.97720400E+00
 20
1.21393100E+02
  0
VERTEX
  8
0
 62
6
 10
2.99428442E+00
 20
1.21516489E+02
  0
VERTEX
  8
0
 62
6
 10
2.99999237E+00
 20
1.21640824E+02
  0
VERTEX
  8
0
 62
6
 10
2.99428442E+00
 20
1.21765159E+02
  0
VERTEX
  8
0
 62
6
 10
2.97720400E+00
 20
1.21888548E+02
  0
VERTEX
  8
0
 62
6
 10
2.94888111E+00
 20
1.22010051E+02
  0
VERTEX
  8
0
 62
6
 10
2.90953130E+00
 20
1.22128745E+02
  0
VERTEX
  8
0
 62
6
 10
2.85945405E+00
 20
1.22243725E+02
  0
VERTEX
  8
0
 62
6
 10
2.79903048E+00
 20
1.22354116E+02
  0
VERTEX
  8
0
 62
6
 10
2.72872044E+00
 20
1.22459079E+02
  0
VERTEX
  8
0
 62
6
 10
2.64905904E+00
 20
1.22557815E+02
  0
VERTEX
  8
0
 62
6
 10
2.56065254E+00
 20
1.22649572E+02
  0
VERTEX
  8
0
 62
6
 10
2.46417379E+00
 20
1.22733651E+02
  0
VERTEX
  8
0
 62
6
 10
2.36035703E+00
 20
1.22809414E+02
  0
VERTEX
  8
0
 62
6
 10
2.24999237E+00
 20
1.22876283E+02
  0
VERTEX
  8
0
 62
6
 10
2.13391976E+00
 20
1.22933749E+02
  0
VERTEX
  8
0
 62
6
 10
2.01302259E+00
 20
1.22981375E+02
  0
VERTEX
  8
0
 62
6
 10
1.88822094E+00
 20
1.23018799E+02
  0
VERTEX
  8
0
 62
6
 10
1.76046464E+00
 20
1.23045736E+02
  0
VERTEX
  8
0
 62
6
 10
1.63072599E+00
 20
1.23061980E+02
  0
VERTEX
  8
0
 62
6
 10
1.49999237E+00
 20
1.23067409E+02
  0
VERTEX
  8
0
 62
6
 10
1.36925876E+00
 20
1.23061980E+02
  0
VERTEX
  8
0
 62
6
 10
1.23952011E+00
 20
1.23045736E+02
  0
VERTEX
  8
0
 62
6
 10
1.11176380E+00
 20
1.23018799E+02
  0
VERTEX
  8
0
 62
6
 10
9.86962157E-01
 20
1.22981375E+02
  0
VERTEX
  8
0
 62
6
 10
8.66064979E-01
 20
1.22933749E+02
  0
VERTEX
  8
0
 62
6
 10
7.49992371E-01
 20
1.22876283E+02
  0
VERTEX
  8
0
 62
6
 10
6.39627717E-01
 20
1.22809414E+02
  0
VERTEX
  8
0
 62
6
 10
5.35810957E-01
 20
1.22733651E+02
  0
VERTEX
  8
0
 62
6
 10
4.39332199E-01
 20
1.22649572E+02
  0
VERTEX
  8
0
 62
6
 10
3.50925706E-01
 20
1.22557815E+02
  0
VERTEX
  8
0
 62
6
 10
2.71264304E-01
 20
1.22459079E+02
  0
VERTEX
  8
0
 62
6
 10
2.00954265E-01
 20
1.22354116E+02
  0
VERTEX
  8
0
 62
6
 10
1.40530690E-01
 20
1.22243725E+02
  0
VERTEX
  8
0
 62
6
 10
9.04534392E-02
 20
1.22128745E+02
  0
VERTEX
  8
0
 62
6
 10
5.11036308E-02
 20
1.22010051E+02
  0
VERTEX
  8
0
 62
6
 10
2.27807407E-02
 20
1.21888548E+02
  0
VERTEX
  8
0
 62
6
 10
5.70032295E-03
 20
1.21765159E+02
  0
VERTEX
  8
0
 62
6
 10
-7.63000000E-06
 20
1.21640824E+02
  0
SEQEND
  8
0
  0
LINE
  8
0
 62
4
 10
4.99992371E-01
 20
1.21089211E+02
 11
4.99992371E-01
 21
1.22192437E+02
  0
LINE
  8
0
 62
4
 10
2.49999237E+00
 20
1.21089211E+02
 11
2.49999237E+00
 21
1.22192437E+02
  0
LINE
  8
0
 62
4
 10
1.49999237E+00
 20
1.22734539E+02
 11
4.99992371E-01
 21
1.22192437E+02
  0
LINE
  8
0
 62
4
 10
1.49999237E+00
 20
1.22734539E+02
 11
2.49999237E+00
 21
1.22192437E+02
  0
LINE
  8
0
 62
4
 10
2.49999237E+00
 20
1.21089211E+02
 11
1.49999237E+00
 21
1.20537598E+02
  0
LINE
  8
0
 62
4
 10
1.49999237E+00
 20
1.20537598E+02
 11
4.99992371E-01
 21
1.21089211E+02
  0
LINE
  8
0
 62
4
 10
-6.50000763E+00
 20
1.20537598E+02
 11
-7.50000763E+00
 21
1.21089211E+02
  0
LINE
  8
0
 62
4
 10
-5.50000763E+00
 20
1.21089211E+02
 11
-6.50000763E+00
 21
1.20537598E+02
  0
LINE
  8
0
 62
4
 10
-6.50000763E+00
 20
1.22734539E+02
 11
-5.50000763E+00
 21
1.22192437E+02
  0
LINE
  8
0
 62
4
 10
-6.50000763E+00
 20
1.22734539E+02
 11
-7.50000763E+00
 21
1.22192437E+02
  0
LINE
  8
0
 62
4
 10
-5.50000763E+00
 20
1.21089211E+02
 11
-5.50000763E+00
 21
1.22192437E+02
  0
LINE
  8
0
 62
4
 10
-7.50000763E+00
 20
1.21089211E+02
 11
-7.50000763E+00
 21
1.22192437E+02
  0
POLYLINE
  8
0
 62
6
 66
1
  0
VERTEX
  8
0
 62
6
 10
-8.00000763E+00
 20
1.21640824E+02
  0
VERTEX
  8
0
 62
6
 10
-7.99429968E+00
 20
1.21516489E+02
  0
VERTEX
  8
0
 62
6
 10
-7.97721926E+00
 20
1.21393100E+02
  0
VERTEX
  8
0
 62
6
 10
-7.94889637E+00
 20
1.21271597E+02
  0
VERTEX
  8
0
 62
6
 10
-7.90954656E+00
 20
1.21152903E+02
  0
VERTEX
  8
0
 62
6
 10
-7.85946931E+00
 20
1.21037923E+02
  0
VERTEX
  8
0
 62
6
 10
-7.79904574E+00
 20
1.20927532E+02
  0
VERTEX
  8
0
 62
6
 10
-7.72873570E+00
 20
1.20822569E+02
  0
VERTEX
  8
0
 62
6
 10
-7.64907430E+00
 20
1.20723833E+02
  0
VERTEX
  8
0
 62
6
 10
-7.56066781E+00
 20
1.20632076E+02
  0
VERTEX
  8
0
 62
6
 10
-7.46418905E+00
 20
1.20547997E+02
  0
VERTEX
  8
0
 62
6
 10
-7.36037229E+00
 20
1.20472234E+02
  0
VERTEX
  8
0
 62
6
 10
-7.25000763E+00
 20
1.20405365E+02
  0
VERTEX
  8
0
 62
6
 10
-7.13393503E+00
 20
1.20347899E+02
  0
VERTEX
  8
0
 62
6
 10
-7.01303785E+00
 20
1.20300273E+02
  0
VERTEX
  8
0
 62
6
 10
-6.88823620E+00
 20
1.20262849E+02
  0
VERTEX
  8
0
 62
6
 10
-6.76047990E+00
 20
1.20235912E+02
  0
VERTEX
  8
0
 62
6
 10
-6.63074125E+00
 20
1.20219668E+02
  0
VERTEX
  8
0
 62
6
 10
-6.50000763E+00
 20
1.20214239E+02
  0
VERTEX
  8
0
 62
6
 10
-6.36927402E+00
 20
1.20219668E+02
  0
VERTEX
  8
0
 62
6
 10
-6.23953537E+00
 20
1.20235912E+02
  0
VERTEX
  8
0
 62
6
 10
-6.11177907E+00
 20
1.20262849E+02
  0
VERTEX
  8
0
 62
6
 10
-5.98697742E+00
 20
1.20300273E+02
  0
VERTEX
  8
0
 62
6
 10
-5.86608024E+00
 20
1.20347899E+02
  0
VERTEX
  8
0
 62
6
 10
-5.75000763E+00
 20
1.20405365E+02
  0
VERTEX
  8
0
 62
6
 10
-5.63964298E+00
 20
1.20472234E+02
  0
VERTEX
  8
0
 62
6
 10
-5.53582622E+00
 20
1.20547997E+02
  0
VERTEX
  8
0
 62
6
 10
-5.43934746E+00
 20
1.20632076E+02
  0
VERTEX
  8
0
 62
6
 10
-5.35094097E+00
 20
1.20723833E+02
  0
VERTEX
  8
0
 62
6
 10
-5.27127957E+00
 20
1.20822569E+02
  0
VERTEX
  8
0
 62
6
 10
-5.20096953E+00
 20
1.20927532E+02
  0
VERTEX
  8
0
 62
6
 10
-5.14054595E+00
 20
1.21037923E+02
  0
VERTEX
  8
0
 62
6
 10
-5.09046870E+00
 20
1.21152903E+02
  0
VERTEX
  8
0
 62
6
 10
-5.05111889E+00
 20
1.21271597E+02
  0
VERTEX
  8
0
 62
6
 10
-5.02279600E+00
 20
1.21393100E+02
  0
VERTEX
  8
0
 62
6
 10
-5.00571558E+00
 20
1.21516489E+02
  0
VERTEX
  8
0
 62
6
 10
-5.00000763E+00
 20
1.21640824E+02
  0
VERTEX
  8
0
 62
6
 10
-5.00571558E+00
 20
1.21765159E+02
  0
VERTEX
  8
0
 62
6
 10
-5.02279600E+00
 20
1.21888548E+02
  0
VERTEX
  8
0
 62
6
 10
-5.05111889E+00
 20
1.22010051E+02
  0
VERTEX
  8
0
 62
6
 10
-5.09046870E+00
 20
1.22128745E+02
  0
VERTEX
  8
0
 62
6
 10
-5.14054595E+00
 20
1.22243725E+02
  0
VERTEX
  8
0
 62
6
 10
-5.20096952E+00
 20
1.22354116E+02
  0
VERTEX
  8
0
 62
6
 10
-5.27127956E+00
 20
1.22459079E+02
  0
VERTEX
  8
0
 62
6
 10
-5.35094096E+00
 20
1.22557815E+02
  0
VERTEX
  8
0
 62
6
 10
-5.43934746E+00
 20
1.22649572E+02
  0
VERTEX
  8
0
 62
6
 10
-5.53582621E+00
 20
1.22733651E+02
  0
VERTEX
  8
0
 62
6
 10
-5.63964297E+00
 20
1.22809414E+02
  0
VERTEX
  8
0
 62
6
 10
-5.75000763E+00
 20
1.22876283E+02
  0
VERTEX
  8
0
 62
6
 10
-5.86608024E+00
 20
1.22933749E+02
  0
VERTEX
  8
0
 62
6
 10
-5.98697741E+00
 20
1.22981375E+02
  0
VERTEX
  8
0
 62
6
 10
-6.11177906E+00
 20
1.23018799E+02
  0
VERTEX
  8
0
 62
6
 10
-6.23953536E+00
 20
1.23045736E+02
  0
VERTEX
  8
0
 62
6
 10
-6.36927401E+00
 20
1.23061980E+02
  0
VERTEX
  8
0
 62
6
 10
-6.50000763E+00
 20
1.23067409E+02
  0
VERTEX
  8
0
 62
6
 10
-6.63074124E+00
 20
1.23061980E+02
  0
VERTEX
  8
0
 62
6
 10
-6.76047989E+00
 20
1.23045736E+02
  0
VERTEX
  8
0
 62
6
 10
-6.88823620E+00
 20
1.23018799E+02
  0
VERTEX
  8
0
 62
6
 10
-7.01303784E+00
 20
1.22981375E+02
  0
VERTEX
  8
0
 62
6
 10
-7.13393502E+00
 20
1.22933749E+02
  0
VERTEX
  8
0
 62
6
 10
-7.25000763E+00
 20
1.22876283E+02
  0
VERTEX
  8
0
 62
6
 10
-7.36037228E+00
 20
1.22809414E+02
  0
VERTEX
  8
0
 62
6
 10
-7.46418904E+00
 20
1.22733651E+02
  0
VERTEX
  8
0
 62
6
 10
-7.56066780E+00
 20
1.22649572E+02
  0
VERTEX
  8
0
 62
6
 10
-7.64907429E+00
 20
1.22557815E+02
  0
VERTEX
  8
0
 62
6
 10
-7.72873570E+00
 20
1.22459079E+02
  0
VERTEX
  8
0
 62
6
 10
-7.79904574E+00
 20
1.22354116E+02
  0
VERTEX
  8
0
 62
6
 10
-7.85946931E+00
 20
1.22243725E+02
  0
VERTEX
  8
0
 62
6
 10
-7.90954656E+00
 20
1.22128745E+02
  0
VERTEX
  8
0
 62
6
 10
-7.94889637E+00
 20
1.22010051E+02
  0
VERTEX
  8
0
 62
6
 10
-7.97721926E+00
 20
1.21888548E+02
  0
VERTEX
  8
0
 62
6
 10
-7.99429968E+00
 20
1.21765159E+02
  0
VERTEX
  8
0
 62
6
 10
-8.00000763E+00
 20
1.21640824E+02
  0
SEQEND
  8
0
  0
LINE
  8
0
 62
4
 10
-4.50000763E+00
 20
1.21640824E+02
 11
-4.50000763E+00
 21
1.22516164E+02
  0
LINE
  8
0
 62
4
 10
-8.50000763E+00
 20
1.21640824E+02
 11
-8.50000763E+00
 21
1.22516164E+02
  0
POLYLINE
  8
0
 62
4
 66
1
  0
VERTEX
  8
0
 62
4
 10
-4.50000763E+00
 20
1.21640824E+02
  0
VERTEX
  8
0
 62
4
 10
-4.50761823E+00
 20
1.21806604E+02
  0
VERTEX
  8
0
 62
4
 10
-4.53039212E+00
 20
1.21971122E+02
  0
VERTEX
  8
0
 62
4
 10
-4.56815598E+00
 20
1.22133127E+02
  0
VERTEX
  8
0
 62
4
 10
-4.62062239E+00
 20
1.22291385E+02
  0
VERTEX
  8
0
 62
4
 10
-4.68739206E+00
 20
1.22444692E+02
  0
VERTEX
  8
0
 62
4
 10
-4.76795682E+00
 20
1.22591881E+02
  0
VERTEX
  8
0
 62
4
 10
-4.86170354E+00
 20
1.22731831E+02
  0
VERTEX
  8
0
 62
4
 10
-4.96791874E+00
 20
1.22863479E+02
  0
VERTEX
  8
0
 62
4
 10
-5.08579407E+00
 20
1.22985821E+02
  0
VERTEX
  8
0
 62
4
 10
-5.21443241E+00
 20
1.23097927E+02
  0
VERTEX
  8
0
 62
4
 10
-5.35285476E+00
 20
1.23198944E+02
  0
VERTEX
  8
0
 62
4
 10
-5.50000763E+00
 20
1.23288102E+02
  0
VERTEX
  8
0
 62
4
 10
-5.65477111E+00
 20
1.23364724E+02
  0
VERTEX
  8
0
 62
4
 10
-5.81596734E+00
 20
1.23428226E+02
  0
VERTEX
  8
0
 62
4
 10
-5.98236954E+00
 20
1.23478124E+02
  0
VERTEX
  8
0
 62
4
 10
-6.15271128E+00
 20
1.23514040E+02
  0
VERTEX
  8
0
 62
4
 10
-6.32569615E+00
 20
1.23535699E+02
  0
VERTEX
  8
0
 62
4
 10
-6.50000763E+00
 20
1.23542937E+02
  0
VERTEX
  8
0
 62
4
 10
-6.67431912E+00
 20
1.23535699E+02
  0
VERTEX
  8
0
 62
4
 10
-6.84730399E+00
 20
1.23514040E+02
  0
VERTEX
  8
0
 62
4
 10
-7.01764572E+00
 20
1.23478124E+02
  0
VERTEX
  8
0
 62
4
 10
-7.18404792E+00
 20
1.23428226E+02
  0
VERTEX
  8
0
 62
4
 10
-7.34524416E+00
 20
1.23364724E+02
  0
VERTEX
  8
0
 62
4
 10
-7.50000763E+00
 20
1.23288102E+02
  0
VERTEX
  8
0
 62
4
 10
-7.64716050E+00
 20
1.23198944E+02
  0
VERTEX
  8
0
 62
4
 10
-7.78558285E+00
 20
1.23097927E+02
  0
VERTEX
  8
0
 62
4
 10
-7.91422119E+00
 20
1.22985821E+02
  0
VERTEX
  8
0
 62
4
 10
-8.03209652E+00
 20
1.22863479E+02
  0
VERTEX
  8
0
 62
4
 10
-8.13831172E+00
 20
1.22731831E+02
  0
VERTEX
  8
0
 62
4
 10
-8.23205844E+00
 20
1.22591881E+02
  0
VERTEX
  8
0
 62
4
 10
-8.31262321E+00
 20
1.22444692E+02
  0
VERTEX
  8
0
 62
4
 10
-8.37939287E+00
 20
1.22291385E+02
  0
VERTEX
  8
0
 62
4
 10
-8.43185928E+00
 20
1.22133127E+02
  0
VERTEX
  8
0
 62
4
 10
-8.46962314E+00
 20
1.21971122E+02
  0
VERTEX
  8
0
 62
4
 10
-8.49239703E+00
 20
1.21806604E+02
  0
VERTEX
  8
0
 62
4
 10
-8.50000763E+00
 20
1.21640824E+02
  0
VERTEX
  8
0
 62
4
 10
-8.49239703E+00
 20
1.21475044E+02
  0
VERTEX
  8
0
 62
4
 10
-8.46962314E+00
 20
1.21310526E+02
  0
VERTEX
  8
0
 62
4
 10
-8.43185928E+00
 20
1.21148521E+02
  0
VERTEX
  8
0
 62
4
 10
-8.37939287E+00
 20
1.20990263E+02
  0
VERTEX
  8
0
 62
4
 10
-8.31262320E+00
 20
1.20836956E+02
  0
VERTEX
  8
0
 62
4
 10
-8.23205844E+00
 20
1.20689767E+02
  0
VERTEX
  8
0
 62
4
 10
-8.13831172E+00
 20
1.20549817E+02
  0
VERTEX
  8
0
 62
4
 10
-8.03209651E+00
 20
1.20418169E+02
  0
VERTEX
  8
0
 62
4
 10
-7.91422119E+00
 20
1.20295827E+02
  0
VERTEX
  8
0
 62
4
 10
-7.78558285E+00
 20
1.20183721E+02
  0
VERTEX
  8
0
 62
4
 10
-7.64716050E+00
 20
1.20082704E+02
  0
VERTEX
  8
0
 62
4
 10
-7.50000763E+00
 20
1.19993546E+02
  0
VERTEX
  8
0
 62
4
 10
-7.34524415E+00
 20
1.19916924E+02
  0
VERTEX
  8
0
 62
4
 10
-7.18404791E+00
 20
1.19853422E+02
  0
VERTEX
  8
0
 62
4
 10
-7.01764572E+00
 20
1.19803524E+02
  0
VERTEX
  8
0
 62
4
 10
-6.84730398E+00
 20
1.19767608E+02
  0
VERTEX
  8
0
 62
4
 10
-6.67431911E+00
 20
1.19745949E+02
  0
VERTEX
  8
0
 62
4
 10
-6.50000763E+00
 20
1.19738711E+02
  0
VERTEX
  8
0
 62
4
 10
-6.32569614E+00
 20
1.19745949E+02
  0
VERTEX
  8
0
 62
4
 10
-6.15271127E+00
 20
1.19767608E+02
  0
VERTEX
  8
0
 62
4
 10
-5.98236954E+00
 20
1.19803524E+02
  0
VERTEX
  8
0
 62
4
 10
-5.81596734E+00
 20
1.19853422E+02
  0
VERTEX
  8
0
 62
4
 10
-5.65477110E+00
 20
1.19916924E+02
  0
VERTEX
  8
0
 62
4
 10
-5.50000763E+00
 20
1.19993546E+02
  0
VERTEX
  8
0
 62
4
 10
-5.35285475E+00
 20
1.20082704E+02
  0
VERTEX
  8
0
 62
4
 10
-5.21443241E+00
 20
1.20183721E+02
  0
VERTEX
  8
0
 62
4
 10
-5.08579406E+00
 20
1.20295827E+02
  0
VERTEX
  8
0
 62
4
 10
-4.96791874E+00
 20
1.20418169E+02
  0
VERTEX
  8
0
 62
4
 10
-4.86170354E+00
 20
1.20549817E+02
  0
VERTEX
  8
0
 62
4
 10
-4.76795682E+00
 20
1.20689767E+02
  0
VERTEX
  8
0
 62
4
 10
-4.68739205E+00
 20
1.20836956E+02
  0
VERTEX
  8
0
 62
4
 10
-4.62062239E+00
 20
1.20990263E+02
  0
VERTEX
  8
0
 62
4
 10
-4.56815598E+00
 20
1.21148521E+02
  0
VERTEX
  8
0
 62
4
 10
-4.53039212E+00
 20
1.21310526E+02
  0
VERTEX
  8
0
 62
4
 10
-4.50761823E+00
 20
1.21475044E+02
  0
VERTEX
  8
0
 62
4
 10
-4.50000763E+00
 20
1.21640824E+02
  0
SEQEND
  8
0
  0
POLYLINE
  8
0
 62
4
 66
1
  0
VERTEX
  8
0
 62
4
 10
-4.50000763E+00
 20
1.22516164E+02
  0
VERTEX
  8
0
 62
4
 10
-4.50805904E+00
 20
1.22686668E+02
  0
VERTEX
  8
0
 62
4
 10
-4.53214845E+00
 20
1.22855799E+02
  0
VERTEX
  8
0
 62
4
 10
-4.57208191E+00
 20
1.23022196E+02
  0
VERTEX
  8
0
 62
4
 10
-4.62753789E+00
 20
1.23184519E+02
  0
VERTEX
  8
0
 62
4
 10
-4.69806989E+00
 20
1.23341460E+02
  0
VERTEX
  8
0
 62
4
 10
-4.78311004E+00
 20
1.23491756E+02
  0
VERTEX
  8
0
 62
4
 10
-4.88197364E+00
 20
1.23634198E+02
  0
VERTEX
  8
0
 62
4
 10
-4.99386470E+00
 20
1.23767638E+02
  0
VERTEX
  8
0
 62
4
 10
-5.11788233E+00
 20
1.23891002E+02
  0
VERTEX
  8
0
 62
4
 10
-5.25302802E+00
 20
1.24003296E+02
  0
VERTEX
  8
0
 62
4
 10
-5.39821367E+00
 20
1.24103617E+02
  0
VERTEX
  8
0
 62
4
 10
-5.55227030E+00
 20
1.24191156E+02
  0
VERTEX
  8
0
 62
4
 10
-5.71395756E+00
 20
1.24265210E+02
  0
VERTEX
  8
0
 62
4
 10
-5.88197364E+00
 20
1.24325181E+02
  0
VERTEX
  8
0
 62
4
 10
-6.05496576E+00
 20
1.24370587E+02
  0
VERTEX
  8
0
 62
4
 10
-6.23154110E+00
 20
1.24401062E+02
  0
VERTEX
  8
0
 62
4
 10
-6.41027797E+00
 20
1.24416362E+02
  0
VERTEX
  8
0
 62
4
 10
-6.58973729E+00
 20
1.24416362E+02
  0
VERTEX
  8
0
 62
4
 10
-6.76847416E+00
 20
1.24401062E+02
  0
VERTEX
  8
0
 62
4
 10
-6.94504949E+00
 20
1.24370587E+02
  0
VERTEX
  8
0
 62
4
 10
-7.11804161E+00
 20
1.24325181E+02
  0
VERTEX
  8
0
 62
4
 10
-7.28605769E+00
 20
1.24265210E+02
  0
VERTEX
  8
0
 62
4
 10
-7.44774495E+00
 20
1.24191156E+02
  0
VERTEX
  8
0
 62
4
 10
-7.60180159E+00
 20
1.24103617E+02
  0
VERTEX
  8
0
 62
4
 10
-7.74698723E+00
 20
1.24003296E+02
  0
VERTEX
  8
0
 62
4
 10
-7.88213292E+00
 20
1.23891002E+02
  0
VERTEX
  8
0
 62
4
 10
-8.00615056E+00
 20
1.23767638E+02
  0
VERTEX
  8
0
 62
4
 10
-8.11804162E+00
 20
1.23634198E+02
  0
VERTEX
  8
0
 62
4
 10
-8.21690521E+00
 20
1.23491756E+02
  0
VERTEX
  8
0
 62
4
 10
-8.30194536E+00
 20
1.23341460E+02
  0
VERTEX
  8
0
 62
4
 10
-8.37247737E+00
 20
1.23184519E+02
  0
VERTEX
  8
0
 62
4
 10
-8.42793335E+00
 20
1.23022196E+02
  0
VERTEX
  8
0
 62
4
 10
-8.46786681E+00
 20
1.22855799E+02
  0
VERTEX
  8
0
 62
4
 10
-8.49195622E+00
 20
1.22686668E+02
  0
VERTEX
  8
0
 62
4
 10
-8.50000763E+00
 20
1.22516164E+02
  0
SEQEND
  8
0
  0
LINE
  8
0
  6
CENTER
 62
6
 10
-4.16999924E+01
 20
1.44897156E+02
 11
-5.12999924E+01
 21
1.44897156E+02
  0
LINE
  8
0
  6
CENTER
 62
6
 10
-4.64999924E+01
 20
1.49697156E+02
 11
-4.64999924E+01
 21
1.40097156E+02
  0
LINE
  8
0
  6
CENTER
 62
6
 10
-5.79253955E+01
 20
1.44897156E+02
 11
-6.50745893E+01
 21
1.44897156E+02
  0
LINE
  8
0
  6
CENTER
 62
6
 10
-6.14999924E+01
 20
1.48471753E+02
 11
-6.14999924E+01
 21
1.41322559E+02
  0
LINE
  8
0
 62
4
 10
-6.89999924E+01
 20
1.38872198E+02
 11
-7.04999924E+01
 21
1.37775934E+02
  0
LINE
  8
0
 62
4
 10
-7.04999924E+01
 20
1.37775934E+02
 11
-7.04999924E+01
 21
1.34921867E+02
  0
LINE
  8
0
 62
4
 10
-7.04999924E+01
 20
1.35621791E+02
 11
-6.89999924E+01
 21
1.35067972E+02
  0
LINE
  8
0
 62
4
 10
-7.04999924E+01
 20
1.34921867E+02
 11
-6.99193690E+01
 21
1.34499962E+02
  0
LINE
  8
0
 62
4
 10
-6.89999924E+01
 20
1.35067972E+02
 11
-4.54999924E+01
 21
1.35067972E+02
  0
LINE
  8
0
 62
4
 10
-6.89999924E+01
 20
1.38872198E+02
 11
-5.69102953E+01
 21
1.38872198E+02
  0
LINE
  8
0
 62
4
 10
-6.89999924E+01
 20
1.39285923E+02
 11
-5.72946246E+01
 21
1.39285923E+02
  0
LINE
  8
0
 62
4
 10
-6.89999924E+01
 20
1.34911063E+02
 11
-3.89999924E+01
 21
1.34911063E+02
  0
LINE
  8
0
 62
4
 10
-6.89999924E+01
 20
1.38872198E+02
 11
-6.89999924E+01
 21
1.34911063E+02
  0
LINE
  8
0
 62
4
 10
-6.89999924E+01
 20
1.34911063E+02
 11
-6.89999924E+01
 21
1.34499962E+02
  0
POLYLINE
  8
0
 62
4
 66
1
  0
VERTEX
  8
0
 62
4
 10
-5.81499924E+01
 20
1.42229755E+02
  0
VERTEX
  8
0
 62
4
 10
-5.81342004E+01
 20
1.41885761E+02
  0
VERTEX
  8
0
 62
4
 10
-5.80869446E+01
 20
1.41544386E+02
  0
VERTEX
  8
0
 62
4
 10
-5.80085846E+01
 20
1.41208226E+02
  0
VERTEX
  8
0
 62
4
 10
-5.78997168E+01
 20
1.40879841E+02
  0
VERTEX
  8
0
 62
4
 10
-5.77611697E+01
 20
1.40561730E+02
  0
VERTEX
  8
0
 62
4
 10
-5.75939978E+01
 20
1.40256313E+02
  0
VERTEX
  8
0
 62
4
 10
-5.73994734E+01
 20
1.39965915E+02
  0
VERTEX
  8
0
 62
4
 10
-5.71790768E+01
 20
1.39692747E+02
  0
VERTEX
  8
0
 62
4
 10
-5.69344856E+01
 20
1.39438886E+02
  0
VERTEX
  8
0
 62
4
 10
-5.66675610E+01
 20
1.39206266E+02
  0
VERTEX
  8
0
 62
4
 10
-5.63803346E+01
 20
1.38996656E+02
  0
VERTEX
  8
0
 62
4
 10
-5.60749924E+01
 20
1.38811653E+02
  0
VERTEX
  8
0
 62
4
 10
-5.57538582E+01
 20
1.38652663E+02
  0
VERTEX
  8
0
 62
4
 10
-5.54193760E+01
 20
1.38520897E+02
  0
VERTEX
  8
0
 62
4
 10
-5.50740914E+01
 20
1.38417357E+02
  0
VERTEX
  8
0
 62
4
 10
-5.47206323E+01
 20
1.38342833E+02
  0
VERTEX
  8
0
 62
4
 10
-5.43616887E+01
 20
1.38297890E+02
  0
VERTEX
  8
0
 62
4
 10
-5.39999924E+01
 20
1.38282870E+02
  0
VERTEX
  8
0
 62
4
 10
-5.36382961E+01
 20
1.38297890E+02
  0
VERTEX
  8
0
 62
4
 10
-5.32793525E+01
 20
1.38342833E+02
  0
VERTEX
  8
0
 62
4
 10
-5.29258934E+01
 20
1.38417357E+02
  0
VERTEX
  8
0
 62
4
 10
-5.25806088E+01
 20
1.38520897E+02
  0
VERTEX
  8
0
 62
4
 10
-5.22461266E+01
 20
1.38652663E+02
  0
VERTEX
  8
0
 62
4
 10
-5.19249924E+01
 20
1.38811653E+02
  0
VERTEX
  8
0
 62
4
 10
-5.16196502E+01
 20
1.38996656E+02
  0
VERTEX
  8
0
 62
4
 10
-5.13324238E+01
 20
1.39206266E+02
  0
VERTEX
  8
0
 62
4
 10
-5.10654993E+01
 20
1.39438886E+02
  0
VERTEX
  8
0
 62
4
 10
-5.08209080E+01
 20
1.39692747E+02
  0
VERTEX
  8
0
 62
4
 10
-5.06005114E+01
 20
1.39965915E+02
  0
VERTEX
  8
0
 62
4
 10
-5.04059870E+01
 20
1.40256313E+02
  0
VERTEX
  8
0
 62
4
 10
-5.02388151E+01
 20
1.40561730E+02
  0
VERTEX
  8
0
 62
4
 10
-5.01002680E+01
 20
1.40879841E+02
  0
VERTEX
  8
0
 62
4
 10
-4.99914002E+01
 20
1.41208226E+02
  0
VERTEX
  8
0
 62
4
 10
-4.99130402E+01
 20
1.41544386E+02
  0
VERTEX
  8
0
 62
4
 10
-4.98657844E+01
 20
1.41885761E+02
  0
VERTEX
  8
0
 62
4
 10
-4.98499924E+01
 20
1.42229755E+02
  0
VERTEX
  8
0
 62
4
 10
-4.98657844E+01
 20
1.42573749E+02
  0
VERTEX
  8
0
 62
4
 10
-4.99130402E+01
 20
1.42915124E+02
  0
VERTEX
  8
0
 62
4
 10
-4.99914002E+01
 20
1.43251284E+02
  0
VERTEX
  8
0
 62
4
 10
-5.01002680E+01
 20
1.43579669E+02
  0
VERTEX
  8
0
 62
4
 10
-5.02388151E+01
 20
1.43897780E+02
  0
VERTEX
  8
0
 62
4
 10
-5.04059870E+01
 20
1.44203197E+02
  0
VERTEX
  8
0
 62
4
 10
-5.06005114E+01
 20
1.44493595E+02
  0
VERTEX
  8
0
 62
4
 10
-5.08209080E+01
 20
1.44766763E+02
  0
VERTEX
  8
0
 62
4
 10
-5.10654993E+01
 20
1.45020624E+02
  0
VERTEX
  8
0
 62
4
 10
-5.13324238E+01
 20
1.45253244E+02
  0
VERTEX
  8
0
 62
4
 10
-5.16196502E+01
 20
1.45462854E+02
  0
VERTEX
  8
0
 62
4
 10
-5.19249924E+01
 20
1.45647857E+02
  0
VERTEX
  8
0
 62
4
 10
-5.22461266E+01
 20
1.45806847E+02
  0
VERTEX
  8
0
 62
4
 10
-5.25806088E+01
 20
1.45938613E+02
  0
VERTEX
  8
0
 62
4
 10
-5.29258934E+01
 20
1.46042153E+02
  0
VERTEX
  8
0
 62
4
 10
-5.32793525E+01
 20
1.46116677E+02
  0
VERTEX
  8
0
 62
4
 10
-5.36382961E+01
 20
1.46161620E+02
  0
VERTEX
  8
0
 62
4
 10
-5.39999924E+01
 20
1.46176640E+02
  0
VERTEX
  8
0
 62
4
 10
-5.43616887E+01
 20
1.46161620E+02
  0
VERTEX
  8
0
 62
4
 10
-5.47206323E+01
 20
1.46116677E+02
  0
VERTEX
  8
0
 62
4
 10
-5.50740914E+01
 20
1.46042153E+02
  0
VERTEX
  8
0
 62
4
 10
-5.54193760E+01
 20
1.45938613E+02
  0
VERTEX
  8
0
 62
4
 10
-5.57538582E+01
 20
1.45806847E+02
  0
VERTEX
  8
0
 62
4
 10
-5.60749924E+01
 20
1.45647857E+02
  0
VERTEX
  8
0
 62
4
 10
-5.63803346E+01
 20
1.45462854E+02
  0
VERTEX
  8
0
 62
4
 10
-5.66675610E+01
 20
1.45253244E+02
  0
VERTEX
  8
0
 62
4
 10
-5.69344855E+01
 20
1.45020624E+02
  0
VERTEX
  8
0
 62
4
 10
-5.71790768E+01
 20
1.44766763E+02
  0
VERTEX
  8
0
 62
4
 10
-5.73994734E+01
 20
1.44493595E+02
  0
VERTEX
  8
0
 62
4
 10
-5.75939978E+01
 20
1.44203197E+02
  0
VERTEX
  8
0
 62
4
 10
-5.77611697E+01
 20
1.43897780E+02
  0
VERTEX
  8
0
 62
4
 10
-5.78997168E+01
 20
1.43579669E+02
  0
VERTEX
  8
0
 62
4
 10
-5.80085846E+01
 20
1.43251284E+02
  0
VERTEX
  8
0
 62
4
 10
-5.80869446E+01
 20
1.42915124E+02
  0
VERTEX
  8
0
 62
4
 10
-5.81342004E+01
 20
1.42573749E+02
  0
VERTEX
  8
0
 62
4
 10
-5.81499924E+01
 20
1.42229755E+02
  0
SEQEND
  8
0
  0
ARC
  8
0
 62
4
 10
1.79293741E+01
 20
6.67969916E+01
 40
1.04392782E+02
 50
1.32228766E+02
 51
1.34907157E+02
  0
ARC
  8
0
 62
4
 10
-1.25929135E+02
 20
6.67972269E+01
 40
1.04392457E+02
 50
4.50928385E+01
 51
4.77712376E+01
  0
POLYLINE
  8
0
 62
4
 66
1
  0
VERTEX
  8
0
 62
4
 10
-5.81499924E+01
 20
1.41685885E+02
  0
VERTEX
  8
0
 62
4
 10
-5.81332857E+01
 20
1.41332089E+02
  0
VERTEX
  8
0
 62
4
 10
-5.80833002E+01
 20
1.40981142E+02
  0
VERTEX
  8
0
 62
4
 10
-5.80004383E+01
 20
1.40635868E+02
  0
VERTEX
  8
0
 62
4
 10
-5.78853671E+01
 20
1.40299049E+02
  0
VERTEX
  8
0
 62
4
 10
-5.77390132E+01
 20
1.39973396E+02
  0
VERTEX
  8
0
 62
4
 10
-5.75625549E+01
 20
1.39661531E+02
  0
VERTEX
  8
0
 62
4
 10
-5.73574129E+01
 20
1.39365964E+02
  0
VERTEX
  8
0
 62
4
 10
-5.71252390E+01
 20
1.39089077E+02
  0
VERTEX
  8
0
 62
4
 10
-5.68679024E+01
 20
1.38833097E+02
  0
VERTEX
  8
0
 62
4
 10
-5.65874751E+01
 20
1.38600086E+02
  0
VERTEX
  8
0
 62
4
 10
-5.62862149E+01
 20
1.38391921E+02
  0
VERTEX
  8
0
 62
4
 10
-5.59665474E+01
 20
1.38210276E+02
  0
VERTEX
  8
0
 62
4
 10
-5.56310463E+01
 20
1.38056615E+02
  0
VERTEX
  8
0
 62
4
 10
-5.52824129E+01
 20
1.37932175E+02
  0
VERTEX
  8
0
 62
4
 10
-5.49234543E+01
 20
1.37837957E+02
  0
VERTEX
  8
0
 62
4
 10
-5.45570605E+01
 20
1.37774721E+02
  0
VERTEX
  8
0
 62
4
 10
-5.41861815E+01
 20
1.37742975E+02
  0
VERTEX
  8
0
 62
4
 10
-5.38138034E+01
 20
1.37742975E+02
  0
VERTEX
  8
0
 62
4
 10
-5.34429244E+01
 20
1.37774721E+02
  0
VERTEX
  8
0
 62
4
 10
-5.30765305E+01
 20
1.37837957E+02
  0
VERTEX
  8
0
 62
4
 10
-5.27175719E+01
 20
1.37932175E+02
  0
VERTEX
  8
0
 62
4
 10
-5.23689385E+01
 20
1.38056615E+02
  0
VERTEX
  8
0
 62
4
 10
-5.20334375E+01
 20
1.38210276E+02
  0
VERTEX
  8
0
 62
4
 10
-5.17137699E+01
 20
1.38391921E+02
  0
VERTEX
  8
0
 62
4
 10
-5.14125097E+01
 20
1.38600086E+02
  0
VERTEX
  8
0
 62
4
 10
-5.11320824E+01
 20
1.38833097E+02
  0
VERTEX
  8
0
 62
4
 10
-5.08747458E+01
 20
1.39089077E+02
  0
VERTEX
  8
0
 62
4
 10
-5.06425719E+01
 20
1.39365964E+02
  0
VERTEX
  8
0
 62
4
 10
-5.04374299E+01
 20
1.39661531E+02
  0
VERTEX
  8
0
 62
4
 10
-5.02609716E+01
 20
1.39973396E+02
  0
VERTEX
  8
0
 62
4
 10
-5.01146177E+01
 20
1.40299049E+02
  0
VERTEX
  8
0
 62
4
 10
-4.99995465E+01
 20
1.40635868E+02
  0
VERTEX
  8
0
 62
4
 10
-4.99166846E+01
 20
1.40981142E+02
  0
VERTEX
  8
0
 62
4
 10
-4.98666991E+01
 20
1.41332089E+02
  0
VERTEX
  8
0
 62
4
 10
-4.98499924E+01
 20
1.41685885E+02
  0
SEQEND
  8
0
  0
LINE
  8
0
 62
4
 10
-5.81499924E+01
 20
1.41685885E+02
 11
-5.81499924E+01
 21
1.42229755E+02
  0
LINE
  8
0
 62
4
 10
-4.98499924E+01
 20
1.41685885E+02
 11
-4.98499924E+01
 21
1.42229755E+02
  0
POLYLINE
  8
0
 62
4
 66
1
  0
VERTEX
  8
0
 62
4
 10
-5.02999924E+01
 20
1.44897156E+02
  0
VERTEX
  8
0
 62
4
 10
-5.02846947E+01
 20
1.44573198E+02
  0
VERTEX
  8
0
 62
4
 10
-5.02389249E+01
 20
1.44251849E+02
  0
VERTEX
  8
0
 62
4
 10
-5.01630513E+01
 20
1.43935695E+02
  0
VERTEX
  8
0
 62
4
 10
-5.00576849E+01
 20
1.43627282E+02
  0
VERTEX
  8
0
 62
4
 10
-4.99236741E+01
 20
1.43329094E+02
  0
VERTEX
  8
0
 62
4
 10
-4.97620978E+01
 20
1.43043530E+02
  0
VERTEX
  8
0
 62
4
 10
-4.95742570E+01
 20
1.42772891E+02
  0
VERTEX
  8
0
 62
4
 10
-4.93616640E+01
 20
1.42519356E+02
  0
VERTEX
  8
0
 62
4
 10
-4.91260305E+01
 20
1.42284965E+02
  0
VERTEX
  8
0
 62
4
 10
-4.88692537E+01
 20
1.42071605E+02
  0
VERTEX
  8
0
 62
4
 10
-4.85934010E+01
 20
1.41880996E+02
  0
VERTEX
  8
0
 62
4
 10
-4.83006933E+01
 20
1.41714671E+02
  0
VERTEX
  8
0
 62
4
 10
-4.79934875E+01
 20
1.41573969E+02
  0
VERTEX
  8
0
 62
4
 10
-4.76742570E+01
 20
1.41460024E+02
  0
VERTEX
  8
0
 62
4
 10
-4.73455720E+01
 20
1.41373752E+02
  0
VERTEX
  8
0
 62
4
 10
-4.70100788E+01
 20
1.41315849E+02
  0
VERTEX
  8
0
 62
4
 10
-4.66704788E+01
 20
1.41286780E+02
  0
VERTEX
  8
0
 62
4
 10
-4.63295061E+01
 20
1.41286780E+02
  0
VERTEX
  8
0
 62
4
 10
-4.59899060E+01
 20
1.41315849E+02
  0
VERTEX
  8
0
 62
4
 10
-4.56544129E+01
 20
1.41373752E+02
  0
VERTEX
  8
0
 62
4
 10
-4.53257278E+01
 20
1.41460024E+02
  0
VERTEX
  8
0
 62
4
 10
-4.50064973E+01
 20
1.41573969E+02
  0
VERTEX
  8
0
 62
4
 10
-4.46992915E+01
 20
1.41714671E+02
  0
VERTEX
  8
0
 62
4
 10
-4.44065839E+01
 20
1.41880996E+02
  0
VERTEX
  8
0
 62
4
 10
-4.41307312E+01
 20
1.42071605E+02
  0
VERTEX
  8
0
 62
4
 10
-4.38739543E+01
 20
1.42284965E+02
  0
VERTEX
  8
0
 62
4
 10
-4.36383208E+01
 20
1.42519356E+02
  0
VERTEX
  8
0
 62
4
 10
-4.34257278E+01
 20
1.42772891E+02
  0
VERTEX
  8
0
 62
4
 10
-4.32378870E+01
 20
1.43043530E+02
  0
VERTEX
  8
0
 62
4
 10
-4.30763107E+01
 20
1.43329094E+02
  0
VERTEX
  8
0
 62
4
 10
-4.29422999E+01
 20
1.43627282E+02
  0
VERTEX
  8
0
 62
4
 10
-4.28369335E+01
 20
1.43935695E+02
  0
VERTEX
  8
0
 62
4
 10
-4.27610599E+01
 20
1.44251849E+02
  0
VERTEX
  8
0
 62
4
 10
-4.27152901E+01
 20
1.44573198E+02
  0
VERTEX
  8
0
 62
4
 10
-4.26999924E+01
 20
1.44897156E+02
  0
SEQEND
  8
0
  0
POLYLINE
  8
0
 62
4
 66
1
  0
VERTEX
  8
0
 62
4
 10
-5.02999924E+01
 20
1.45206173E+02
  0
VERTEX
  8
0
 62
4
 10
-5.02855323E+01
 20
1.44891191E+02
  0
VERTEX
  8
0
 62
4
 10
-5.02422619E+01
 20
1.44578606E+02
  0
VERTEX
  8
0
 62
4
 10
-5.01705106E+01
 20
1.44270797E+02
  0
VERTEX
  8
0
 62
4
 10
-5.00708244E+01
 20
1.43970107E+02
  0
VERTEX
  8
0
 62
4
 10
-4.99439620E+01
 20
1.43678824E+02
  0
VERTEX
  8
0
 62
4
 10
-4.97908890E+01
 20
1.43399166E+02
  0
VERTEX
  8
0
 62
4
 10
-4.96127702E+01
 20
1.43133259E+02
  0
VERTEX
  8
0
 62
4
 10
-4.94109613E+01
 20
1.42883129E+02
  0
VERTEX
  8
0
 62
4
 10
-4.91869982E+01
 20
1.42650679E+02
  0
VERTEX
  8
0
 62
4
 10
-4.89425853E+01
 20
1.42437677E+02
  0
VERTEX
  8
0
 62
4
 10
-4.86795829E+01
 20
1.42245745E+02
  0
VERTEX
  8
0
 62
4
 10
-4.83999924E+01
 20
1.42076344E+02
  0
VERTEX
  8
0
 62
4
 10
-4.81059418E+01
 20
1.41930763E+02
  0
VERTEX
  8
0
 62
4
 10
-4.77996690E+01
 20
1.41810110E+02
  0
VERTEX
  8
0
 62
4
 10
-4.74835048E+01
 20
1.41715303E+02
  0
VERTEX
  8
0
 62
4
 10
-4.71598555E+01
 20
1.41647063E+02
  0
VERTEX
  8
0
 62
4
 10
-4.68311842E+01
 20
1.41605911E+02
  0
VERTEX
  8
0
 62
4
 10
-4.64999924E+01
 20
1.41592158E+02
  0
VERTEX
  8
0
 62
4
 10
-4.61688006E+01
 20
1.41605911E+02
  0
VERTEX
  8
0
 62
4
 10
-4.58401293E+01
 20
1.41647063E+02
  0
VERTEX
  8
0
 62
4
 10
-4.55164800E+01
 20
1.41715303E+02
  0
VERTEX
  8
0
 62
4
 10
-4.52003159E+01
 20
1.41810110E+02
  0
VERTEX
  8
0
 62
4
 10
-4.48940430E+01
 20
1.41930763E+02
  0
VERTEX
  8
0
 62
4
 10
-4.45999924E+01
 20
1.42076344E+02
  0
VERTEX
  8
0
 62
4
 10
-4.43204019E+01
 20
1.42245745E+02
  0
VERTEX
  8
0
 62
4
 10
-4.40573995E+01
 20
1.42437677E+02
  0
VERTEX
  8
0
 62
4
 10
-4.38129866E+01
 20
1.42650679E+02
  0
VERTEX
  8
0
 62
4
 10
-4.35890235E+01
 20
1.42883129E+02
  0
VERTEX
  8
0
 62
4
 10
-4.33872146E+01
 20
1.43133259E+02
  0
VERTEX
  8
0
 62
4
 10
-4.32090958E+01
 20
1.43399166E+02
  0
VERTEX
  8
0
 62
4
 10
-4.30560228E+01
 20
1.43678824E+02
  0
VERTEX
  8
0
 62
4
 10
-4.29291604E+01
 20
1.43970107E+02
  0
VERTEX
  8
0
 62
4
 10
-4.28294742E+01
 20
1.44270797E+02
  0
VERTEX
  8
0
 62
4
 10
-4.27577229E+01
 20
1.44578606E+02
  0
VERTEX
  8
0
 62
4
 10
-4.27144525E+01
 20
1.44891191E+02
  0
VERTEX
  8
0
 62
4
 10
-4.26999924E+01
 20
1.45206173E+02
  0
VERTEX
  8
0
 62
4
 10
-4.27144525E+01
 20
1.45521155E+02
  0
VERTEX
  8
0
 62
4
 10
-4.27577229E+01
 20
1.45833740E+02
  0
VERTEX
  8
0
 62
4
 10
-4.28294742E+01
 20
1.46141549E+02
  0
VERTEX
  8
0
 62
4
 10
-4.29291604E+01
 20
1.46442239E+02
  0
VERTEX
  8
0
 62
4
 10
-4.30560228E+01
 20
1.46733522E+02
  0
VERTEX
  8
0
 62
4
 10
-4.32090958E+01
 20
1.47013180E+02
  0
VERTEX
  8
0
 62
4
 10
-4.33872146E+01
 20
1.47279087E+02
  0
VERTEX
  8
0
 62
4
 10
-4.35890235E+01
 20
1.47529217E+02
  0
VERTEX
  8
0
 62
4
 10
-4.38129866E+01
 20
1.47761667E+02
  0
VERTEX
  8
0
 62
4
 10
-4.40573995E+01
 20
1.47974669E+02
  0
VERTEX
  8
0
 62
4
 10
-4.43204019E+01
 20
1.48166601E+02
  0
VERTEX
  8
0
 62
4
 10
-4.45999924E+01
 20
1.48336002E+02
  0
VERTEX
  8
0
 62
4
 10
-4.48940430E+01
 20
1.48481583E+02
  0
VERTEX
  8
0
 62
4
 10
-4.52003158E+01
 20
1.48602236E+02
  0
VERTEX
  8
0
 62
4
 10
-4.55164800E+01
 20
1.48697043E+02
  0
VERTEX
  8
0
 62
4
 10
-4.58401293E+01
 20
1.48765283E+02
  0
VERTEX
  8
0
 62
4
 10
-4.61688006E+01
 20
1.48806435E+02
  0
VERTEX
  8
0
 62
4
 10
-4.64999924E+01
 20
1.48820188E+02
  0
VERTEX
  8
0
 62
4
 10
-4.68311842E+01
 20
1.48806435E+02
  0
VERTEX
  8
0
 62
4
 10
-4.71598555E+01
 20
1.48765283E+02
  0
VERTEX
  8
0
 62
4
 10
-4.74835048E+01
 20
1.48697043E+02
  0
VERTEX
  8
0
 62
4
 10
-4.77996690E+01
 20
1.48602236E+02
  0
VERTEX
  8
0
 62
4
 10
-4.81059418E+01
 20
1.48481583E+02
  0
VERTEX
  8
0
 62
4
 10
-4.83999924E+01
 20
1.48336002E+02
  0
VERTEX
  8
0
 62
4
 10
-4.86795829E+01
 20
1.48166601E+02
  0
VERTEX
  8
0
 62
4
 10
-4.89425853E+01
 20
1.47974669E+02
  0
VERTEX
  8
0
 62
4
 10
-4.91869982E+01
 20
1.47761667E+02
  0
VERTEX
  8
0
 62
4
 10
-4.94109613E+01
 20
1.47529217E+02
  0
VERTEX
  8
0
 62
4
 10
-4.96127702E+01
 20
1.47279087E+02
  0
VERTEX
  8
0
 62
4
 10
-4.97908890E+01
 20
1.47013180E+02
  0
VERTEX
  8
0
 62
4
 10
-4.99439620E+01
 20
1.46733522E+02
  0
VERTEX
  8
0
 62
4
 10
-5.00708244E+01
 20
1.46442239E+02
  0
VERTEX
  8
0
 62
4
 10
-5.01705106E+01
 20
1.46141549E+02
  0
VERTEX
  8
0
 62
4
 10
-5.02422619E+01
 20
1.45833740E+02
  0
VERTEX
  8
0
 62
4
 10
-5.02855323E+01
 20
1.45521155E+02
  0
VERTEX
  8
0
 62
4
 10
-5.02999924E+01
 20
1.45206173E+02
  0
SEQEND
  8
0
  0
LINE
  8
0
 62
4
 10
-5.02999924E+01
 20
1.44897156E+02
 11
-5.02999924E+01
 21
1.45206173E+02
  0
LINE
  8
0
 62
4
 10
-4.26999924E+01
 20
1.44897156E+02
 11
-4.26999924E+01
 21
1.45206173E+02
  0
POLYLINE
  8
0
 62
4
 66
1
  0
VERTEX
  8
0
 62
4
 10
-4.98999924E+01
 20
1.45206173E+02
  0
VERTEX
  8
0
 62
4
 10
-4.98863050E+01
 20
1.44916316E+02
  0
VERTEX
  8
0
 62
4
 10
-4.98453530E+01
 20
1.44628793E+02
  0
VERTEX
  8
0
 62
4
 10
-4.97774662E+01
 20
1.44345918E+02
  0
VERTEX
  8
0
 62
4
 10
-4.96831910E+01
 20
1.44069970E+02
  0
VERTEX
  8
0
 62
4
 10
-4.95632866E+01
 20
1.43803170E+02
  0
VERTEX
  8
0
 62
4
 10
-4.94187183E+01
 20
1.43547666E+02
  0
VERTEX
  8
0
 62
4
 10
-4.92506502E+01
 20
1.43305515E+02
  0
VERTEX
  8
0
 62
4
 10
-4.90604354E+01
 20
1.43078668E+02
  0
VERTEX
  8
0
 62
4
 10
-4.88496054E+01
 20
1.42868949E+02
  0
VERTEX
  8
0
 62
4
 10
-4.86198578E+01
 20
1.42678049E+02
  0
VERTEX
  8
0
 62
4
 10
-4.83730422E+01
 20
1.42507503E+02
  0
VERTEX
  8
0
 62
4
 10
-4.81111459E+01
 20
1.42358686E+02
  0
VERTEX
  8
0
 62
4
 10
-4.78362775E+01
 20
1.42232795E+02
  0
VERTEX
  8
0
 62
4
 10
-4.75506502E+01
 20
1.42130844E+02
  0
VERTEX
  8
0
 62
4
 10
-4.72565636E+01
 20
1.42053654E+02
  0
VERTEX
  8
0
 62
4
 10
-4.69563855E+01
 20
1.42001846E+02
  0
VERTEX
  8
0
 62
4
 10
-4.66525328E+01
 20
1.41975837E+02
  0
VERTEX
  8
0
 62
4
 10
-4.63474520E+01
 20
1.41975837E+02
  0
VERTEX
  8
0
 62
4
 10
-4.60435993E+01
 20
1.42001846E+02
  0
VERTEX
  8
0
 62
4
 10
-4.57434212E+01
 20
1.42053654E+02
  0
VERTEX
  8
0
 62
4
 10
-4.54493346E+01
 20
1.42130844E+02
  0
VERTEX
  8
0
 62
4
 10
-4.51637073E+01
 20
1.42232795E+02
  0
VERTEX
  8
0
 62
4
 10
-4.48888390E+01
 20
1.42358686E+02
  0
VERTEX
  8
0
 62
4
 10
-4.46269427E+01
 20
1.42507503E+02
  0
VERTEX
  8
0
 62
4
 10
-4.43801271E+01
 20
1.42678049E+02
  0
VERTEX
  8
0
 62
4
 10
-4.41503794E+01
 20
1.42868949E+02
  0
VERTEX
  8
0
 62
4
 10
-4.39395494E+01
 20
1.43078667E+02
  0
VERTEX
  8
0
 62
4
 10
-4.37493346E+01
 20
1.43305515E+02
  0
VERTEX
  8
0
 62
4
 10
-4.35812665E+01
 20
1.43547666E+02
  0
VERTEX
  8
0
 62
4
 10
-4.34366982E+01
 20
1.43803170E+02
  0
VERTEX
  8
0
 62
4
 10
-4.33167938E+01
 20
1.44069970E+02
  0
VERTEX
  8
0
 62
4
 10
-4.32225187E+01
 20
1.44345918E+02
  0
VERTEX
  8
0
 62
4
 10
-4.31546318E+01
 20
1.44628793E+02
  0
VERTEX
  8
0
 62
4
 10
-4.31136798E+01
 20
1.44916316E+02
  0
VERTEX
  8
0
 62
4
 10
-4.30999924E+01
 20
1.45206173E+02
  0
SEQEND
  8
0
  0
LINE
  8
0
 62
4
 10
-4.30999924E+01
 20
1.45604554E+02
 11
-4.30999924E+01
 21
1.45206173E+02
  0
LINE
  8
0
 62
4
 10
-4.98999924E+01
 20
1.45206173E+02
 11
-4.98999924E+01
 21
1.45604554E+02
  0
POLYLINE
  8
0
 62
4
 66
1
  0
VERTEX
  8
0
 62
4
 10
-4.98999924E+01
 20
1.45604554E+02
  0
VERTEX
  8
0
 62
4
 10
-4.98870544E+01
 20
1.45322728E+02
  0
VERTEX
  8
0
 62
4
 10
-4.98483388E+01
 20
1.45043047E+02
  0
VERTEX
  8
0
 62
4
 10
-4.97841402E+01
 20
1.44767639E+02
  0
VERTEX
  8
0
 62
4
 10
-4.96949473E+01
 20
1.44498600E+02
  0
VERTEX
  8
0
 62
4
 10
-4.95814389E+01
 20
1.44237979E+02
  0
VERTEX
  8
0
 62
4
 10
-4.94444788E+01
 20
1.43987758E+02
  0
VERTEX
  8
0
 62
4
 10
-4.92851094E+01
 20
1.43749842E+02
  0
VERTEX
  8
0
 62
4
 10
-4.91045435E+01
 20
1.43526041E+02
  0
VERTEX
  8
0
 62
4
 10
-4.89041555E+01
 20
1.43318059E+02
  0
VERTEX
  8
0
 62
4
 10
-4.86854703E+01
 20
1.43127479E+02
  0
VERTEX
  8
0
 62
4
 10
-4.84501523E+01
 20
1.42955750E+02
  0
VERTEX
  8
0
 62
4
 10
-4.81999924E+01
 20
1.42804181E+02
  0
VERTEX
  8
0
 62
4
 10
-4.79368945E+01
 20
1.42673924E+02
  0
VERTEX
  8
0
 62
4
 10
-4.76628609E+01
 20
1.42565971E+02
  0
VERTEX
  8
0
 62
4
 10
-4.73799772E+01
 20
1.42481144E+02
  0
VERTEX
  8
0
 62
4
 10
-4.70903962E+01
 20
1.42420087E+02
  0
VERTEX
  8
0
 62
4
 10
-4.67963219E+01
 20
1.42383267E+02
  0
VERTEX
  8
0
 62
4
 10
-4.64999924E+01
 20
1.42370962E+02
  0
VERTEX
  8
0
 62
4
 10
-4.62036629E+01
 20
1.42383267E+02
  0
VERTEX
  8
0
 62
4
 10
-4.59095886E+01
 20
1.42420087E+02
  0
VERTEX
  8
0
 62
4
 10
-4.56200076E+01
 20
1.42481144E+02
  0
VERTEX
  8
0
 62
4
 10
-4.53371239E+01
 20
1.42565971E+02
  0
VERTEX
  8
0
 62
4
 10
-4.50630903E+01
 20
1.42673924E+02
  0
VERTEX
  8
0
 62
4
 10
-4.47999924E+01
 20
1.42804181E+02
  0
VERTEX
  8
0
 62
4
 10
-4.45498325E+01
 20
1.42955750E+02
  0
VERTEX
  8
0
 62
4
 10
-4.43145145E+01
 20
1.43127479E+02
  0
VERTEX
  8
0
 62
4
 10
-4.40958293E+01
 20
1.43318059E+02
  0
VERTEX
  8
0
 62
4
 10
-4.38954413E+01
 20
1.43526041E+02
  0
VERTEX
  8
0
 62
4
 10
-4.37148754E+01
 20
1.43749842E+02
  0
VERTEX
  8
0
 62
4
 10
-4.35555060E+01
 20
1.43987758E+02
  0
VERTEX
  8
0
 62
4
 10
-4.34185459E+01
 20
1.44237979E+02
  0
VERTEX
  8
0
 62
4
 10
-4.33050375E+01
 20
1.44498600E+02
  0
VERTEX
  8
0
 62
4
 10
-4.32158446E+01
 20
1.44767639E+02
  0
VERTEX
  8
0
 62
4
 10
-4.31516460E+01
 20
1.45043047E+02
  0
VERTEX
  8
0
 62
4
 10
-4.31129304E+01
 20
1.45322728E+02
  0
VERTEX
  8
0
 62
4
 10
-4.30999924E+01
 20
1.45604554E+02
  0
VERTEX
  8
0
 62
4
 10
-4.31129304E+01
 20
1.45886380E+02
  0
VERTEX
  8
0
 62
4
 10
-4.31516460E+01
 20
1.46166061E+02
  0
VERTEX
  8
0
 62
4
 10
-4.32158446E+01
 20
1.46441469E+02
  0
VERTEX
  8
0
 62
4
 10
-4.33050375E+01
 20
1.46710508E+02
  0
VERTEX
  8
0
 62
4
 10
-4.34185459E+01
 20
1.46971129E+02
  0
VERTEX
  8
0
 62
4
 10
-4.35555060E+01
 20
1.47221350E+02
  0
VERTEX
  8
0
 62
4
 10
-4.37148754E+01
 20
1.47459266E+02
  0
VERTEX
  8
0
 62
4
 10
-4.38954413E+01
 20
1.47683067E+02
  0
VERTEX
  8
0
 62
4
 10
-4.40958293E+01
 20
1.47891049E+02
  0
VERTEX
  8
0
 62
4
 10
-4.43145145E+01
 20
1.48081629E+02
  0
VERTEX
  8
0
 62
4
 10
-4.45498325E+01
 20
1.48253358E+02
  0
VERTEX
  8
0
 62
4
 10
-4.47999924E+01
 20
1.48404927E+02
  0
VERTEX
  8
0
 62
4
 10
-4.50630903E+01
 20
1.48535184E+02
  0
VERTEX
  8
0
 62
4
 10
-4.53371239E+01
 20
1.48643137E+02
  0
VERTEX
  8
0
 62
4
 10
-4.56200076E+01
 20
1.48727964E+02
  0
VERTEX
  8
0
 62
4
 10
-4.59095886E+01
 20
1.48789021E+02
  0
VERTEX
  8
0
 62
4
 10
-4.62036629E+01
 20
1.48825841E+02
  0
VERTEX
  8
0
 62
4
 10
-4.64999924E+01
 20
1.48838146E+02
  0
VERTEX
  8
0
 62
4
 10
-4.67963219E+01
 20
1.48825841E+02
  0
VERTEX
  8
0
 62
4
 10
-4.70903962E+01
 20
1.48789021E+02
  0
VERTEX
  8
0
 62
4
 10
-4.73799772E+01
 20
1.48727964E+02
  0
VERTEX
  8
0
 62
4
 10
-4.76628609E+01
 20
1.48643137E+02
  0
VERTEX
  8
0
 62
4
 10
-4.79368945E+01
 20
1.48535184E+02
  0
VERTEX
  8
0
 62
4
 10
-4.81999924E+01
 20
1.48404927E+02
  0
VERTEX
  8
0
 62
4
 10
-4.84501523E+01
 20
1.48253358E+02
  0
VERTEX
  8
0
 62
4
 10
-4.86854703E+01
 20
1.48081629E+02
  0
VERTEX
  8
0
 62
4
 10
-4.89041555E+01
 20
1.47891049E+02
  0
VERTEX
  8
0
 62
4
 10
-4.91045435E+01
 20
1.47683067E+02
  0
VERTEX
  8
0
 62
4
 10
-4.92851094E+01
 20
1.47459266E+02
  0
VERTEX
  8
0
 62
4
 10
-4.94444788E+01
 20
1.47221350E+02
  0
VERTEX
  8
0
 62
4
 10
-4.95814389E+01
 20
1.46971129E+02
  0
VERTEX
  8
0
 62
4
 10
-4.96949473E+01
 20
1.46710508E+02
  0
VERTEX
  8
0
 62
4
 10
-4.97841402E+01
 20
1.46441469E+02
  0
VERTEX
  8
0
 62
4
 10
-4.98483388E+01
 20
1.46166061E+02
  0
VERTEX
  8
0
 62
4
 10
-4.98870544E+01
 20
1.45886380E+02
  0
VERTEX
  8
0
 62
4
 10
-4.98999924E+01
 20
1.45604554E+02
  0
SEQEND
  8
0
  0
ARC
  8
0
 62
4
 10
2.23145270E+01
 20
7.35510128E+01
 40
9.98837386E+01
 50
1.32163454E+02
 51
1.34962547E+02
  0
ARC
  8
0
 62
4
 10
-1.15314512E+02
 20
7.35510128E+01
 40
9.98837386E+01
 50
4.50374523E+01
 51
4.78365464E+01
  0
LINE
  8
0
 62
4
 10
-5.07053601E+01
 20
1.39285923E+02
 11
-3.89999924E+01
 21
1.39285923E+02
  0
LINE
  8
0
 62
4
 10
-5.10896894E+01
 20
1.38872198E+02
 11
-4.54999924E+01
 21
1.38872198E+02
  0
LINE
  8
0
 62
7
 10
-1.00000076E+01
 20
1.34499985E+02
 11
-7.99999924E+01
 21
1.34499985E+02
  0
LINE
  8
0
 62
7
 10
-1.00000076E+01
 20
1.32099998E+02
 11
-8.00000229E+01
 21
1.32099998E+02
  0
LINE
  8
0
 62
7
 10
-1.00000076E+01
 20
1.24899971E+02
 11
-8.00000229E+01
 21
1.24899971E+02
  0
LINE
  8
0
 62
4
 10
2.15000229E+01
 20
1.37775934E+02
 11
2.15000229E+01
 21
1.34921867E+02
  0
LINE
  8
0
 62
4
 10
2.00000229E+01
 20
1.38872198E+02
 11
2.15000229E+01
 21
1.37775934E+02
  0
LINE
  8
0
 62
4
 10
1.99999924E+01
 20
1.37636130E+02
 11
2.15000229E+01
 21
1.37076010E+02
  0
LINE
  8
0
 62
4
 10
2.15000229E+01
 20
1.34921867E+02
 11
1.99999924E+01
 21
1.33831882E+02
  0
LINE
  8
0
  6
DASHED
 62
7
 10
-3.45000114E+02
 20
1.37500145E+02
 11
-3.35000053E+02
 21
1.37500145E+02
  0
LINE
  8
0
 62
7
 10
-3.65364250E+02
 20
1.15278079E+02
 11
-3.72726141E+02
 21
1.22639969E+02
  0
LINE
  8
0
 62
7
 10
-3.66778673E+02
 20
8.71361375E+01
 11
-3.74140499E+02
 21
7.97743119E+01
  0
LINE
  8
0
 62
7
 10
-3.89000053E+02
 20
6.69999771E+01
 11
-3.89000053E+02
 21
1.34000015E+02
  0
LINE
  8
0
 62
7
 10
-3.85500084E+02
 20
9.94999695E+01
 11
-3.71899742E+02
 21
9.94999695E+01
  0
LINE
  8
0
 62
7
 10
-3.65364394E+02
 20
8.57219023E+01
 11
-3.72726221E+02
 21
7.83600766E+01
  0
LINE
  8
0
 62
7
 10
-3.66778486E+02
 20
1.13863930E+02
 11
-3.74140333E+02
 21
1.21225777E+02
  0
LINE
  8
0
 62
7
 10
-3.50999992E+02
 20
1.34000038E+02
 11
-3.50999992E+02
 21
1.20399757E+02
  0
LINE
  8
0
 62
7
 10
-3.65000084E+02
 20
6.59999924E+01
 11
-3.38999901E+02
 21
6.59999924E+01
  0
LINE
  8
0
 62
7
 10
-3.86500023E+02
 20
8.74998779E+01
 11
-3.86500023E+02
 21
1.13500069E+02
  0
LINE
  8
0
 62
7
 10
-3.85499992E+02
 20
1.01499962E+02
 11
-3.71899742E+02
 21
1.01499962E+02
  0
LINE
  8
0
 62
7
 10
-3.53000053E+02
 20
6.69999771E+01
 11
-3.53000053E+02
 21
8.06002579E+01
  0
LINE
  8
0
 62
7
 10
-3.85500084E+02
 20
1.38000046E+02
 11
-3.18499992E+02
 21
1.38000046E+02
  0
LINE
  8
0
 62
7
 10
-3.89500053E+02
 20
6.69999771E+01
 11
-3.89500053E+02
 21
1.34000015E+02
  0
LINE
  8
0
 62
7
 10
-3.85499992E+02
 20
6.30000038E+01
 11
-3.18499992E+02
 21
6.30000038E+01
  0
LINE
  8
0
  6
CENTER
 62
2
 10
-3.80000084E+02
 20
6.10016251E+01
 11
-3.80000084E+02
 21
8.35345917E+01
  0
LINE
  8
0
  6
CENTER
 62
2
 10
-3.80000053E+02
 20
1.17270416E+02
 11
-3.80000053E+02
 21
1.40057991E+02
  0
LINE
  8
0
  6
CENTER
 62
2
 10
-3.52000023E+02
 20
1.41967552E+02
 11
-3.52000023E+02
 21
5.94739647E+01
  0
LINE
  8
0
 62
7
 10
-3.38636244E+02
 20
1.15278790E+02
 11
-3.31274417E+02
 21
1.22640615E+02
  0
LINE
  8
0
 62
7
 10
-3.37221988E+02
 20
1.13864533E+02
 11
-3.29860139E+02
 21
1.21226379E+02
  0
LINE
  8
0
 62
7
 10
-3.85500084E+02
 20
1.37500031E+02
 11
-3.18499992E+02
 21
1.37500031E+02
  0
LINE
  8
0
 62
7
 10
-3.17499931E+02
 20
8.74998779E+01
 11
-3.17499931E+02
 21
1.13500069E+02
  0
LINE
  8
0
 62
7
 10
-3.18499992E+02
 20
1.01499985E+02
 11
-3.32100243E+02
 21
1.01499985E+02
  0
LINE
  8
0
 62
7
 10
-3.14500023E+02
 20
6.70000000E+01
 11
-3.14500023E+02
 21
1.34000038E+02
  0
LINE
  8
0
  6
CENTER
 62
2
 10
-3.23999901E+02
 20
1.40185295E+02
 11
-3.23999901E+02
 21
1.17270416E+02
  0
LINE
  8
0
  6
CENTER
 62
2
 10
-3.11232262E+02
 20
1.00500000E+02
 11
-3.94477745E+02
 21
1.00500000E+02
  0
LINE
  8
0
  6
CENTER
 62
2
 10
-3.59999931E+02
 20
1.40185295E+02
 11
-3.59999931E+02
 21
1.14218903E+02
  0
LINE
  8
0
  6
CENTER
 62
2
 10
-3.92045097E+02
 20
1.28500076E+02
 11
-3.69894005E+02
 21
1.28500076E+02
  0
LINE
  8
0
 62
7
 10
-3.50999992E+02
 20
6.70000000E+01
 11
-3.50999992E+02
 21
8.06002579E+01
  0
LINE
  8
0
 62
7
 10
-3.37221740E+02
 20
8.71356969E+01
 11
-3.29859959E+02
 21
7.97739131E+01
  0
LINE
  8
0
 62
7
 10
-3.38635997E+02
 20
8.57214403E+01
 11
-3.31274172E+02
 21
7.83596134E+01
  0
LINE
  8
0
 62
7
 10
-3.85499992E+02
 20
6.34999962E+01
 11
-3.18499992E+02
 21
6.34999962E+01
  0
LINE
  8
0
 62
7
 10
-3.14999931E+02
 20
6.70000000E+01
 11
-3.14999931E+02
 21
1.34000038E+02
  0
LINE
  8
0
 62
7
 10
-3.18499992E+02
 20
9.94999924E+01
 11
-3.32100243E+02
 21
9.94999924E+01
  0
LINE
  8
0
  6
CENTER
 62
2
 10
-3.11970238E+02
 20
7.24999733E+01
 11
-3.34503197E+02
 21
7.24999733E+01
  0
LINE
  8
0
 62
7
 10
-3.76999992E+02
 20
1.38000046E+02
 11
-3.76999992E+02
 21
1.37500031E+02
  0
LINE
  8
0
 62
7
 10
-3.26999992E+02
 20
1.38000046E+02
 11
-3.26999992E+02
 21
1.37500031E+02
  0
LINE
  8
0
 62
7
 10
-3.76999992E+02
 20
6.35000076E+01
 11
-3.76999992E+02
 21
6.30000038E+01
  0
LINE
  8
0
 62
7
 10
-3.26999992E+02
 20
6.35000076E+01
 11
-3.26999992E+02
 21
6.30000038E+01
  0
LINE
  8
0
 62
7
 10
-3.65000053E+02
 20
1.35000023E+02
 11
-3.38999901E+02
 21
1.35000023E+02
  0
LINE
  8
0
 62
7
 10
-3.69500084E+02
 20
1.30500206E+02
 11
-3.70763573E+02
 21
1.30500206E+02
  0
LINE
  8
0
 62
7
 10
-3.82000206E+02
 20
1.18000069E+02
 11
-3.82000206E+02
 21
1.19263664E+02
  0
LINE
  8
0
 62
7
 10
-3.34499840E+02
 20
1.30500252E+02
 11
-3.33236412E+02
 21
1.30500252E+02
  0
LINE
  8
0
 62
7
 10
-3.21999748E+02
 20
1.18000069E+02
 11
-3.21999748E+02
 21
1.19263802E+02
  0
LINE
  8
0
 62
7
 10
-3.34499931E+02
 20
7.04998093E+01
 11
-3.33236198E+02
 21
7.04998093E+01
  0
LINE
  8
0
 62
7
 10
-3.21999748E+02
 20
8.29998779E+01
 11
-3.21999748E+02
 21
8.17363281E+01
  0
LINE
  8
0
 62
7
 10
-3.82000206E+02
 20
8.29998779E+01
 11
-3.82000206E+02
 21
8.17364731E+01
  0
LINE
  8
0
 62
7
 10
-3.69500084E+02
 20
7.04997978E+01
 11
-3.70763664E+02
 21
7.04997978E+01
  0
LINE
  8
0
  6
CENTER
 62
2
 10
-3.69766655E+02
 20
7.24999733E+01
 11
-3.92045097E+02
 21
7.24999733E+01
  0
LINE
  8
0
  6
CENTER
 62
2
 10
-3.34630547E+02
 20
1.28500076E+02
 11
-3.12097588E+02
 21
1.28500076E+02
  0
LINE
  8
0
  6
CENTER
 62
2
 10
-3.39999931E+02
 20
1.40214226E+02
 11
-3.39999931E+02
 21
1.10494484E+02
  0
LINE
  8
0
  6
CENTER
 62
2
 10
-3.23999992E+02
 20
8.25604858E+01
 11
-3.23999992E+02
 21
6.10041084E+01
  0
CIRCLE
  8
0
 62
7
 10
-3.80000053E+02
 20
1.28500076E+02
 40
6.50000095E+00
  0
ARC
  8
0
 62
7
 10
-3.74847282E+02
 20
1.20518875E+02
 40
1.00000000E+00
 50
4.49999910E+01
 51
1.22846171E+02
  0
ARC
  8
0
 62
7
 10
-3.72018852E+02
 20
1.23347282E+02
 40
1.00000000E+00
 50
1.47153243E+02
 51
2.24999955E+02
  0
CIRCLE
  8
0
 62
7
 10
-3.80000053E+02
 20
7.24999733E+01
 40
6.50000095E+00
  0
ARC
  8
0
 62
7
 10
-3.67485435E+02
 20
1.13157028E+02
 40
1.00000000E+00
 50
3.20738994E+02
 51
4.49999910E+01
  0
ARC
  8
0
 62
7
 10
-3.64657005E+02
 20
1.15985458E+02
 40
1.00000000E+00
 50
2.24999972E+02
 51
3.09260983E+02
  0
ARC
  8
0
 62
7
 10
-3.71899742E+02
 20
9.85000076E+01
 40
1.00000000E+00
 50
5.73948995E+00
 51
9.00000369E+01
  0
ARC
  8
0
 62
7
 10
-3.85500084E+02
 20
9.85000076E+01
 40
1.00000000E+00
 50
9.00000369E+01
 51
1.80000019E+02
  0
ARC
  8
0
 62
7
 10
-3.23999901E+02
 20
1.28500031E+02
 40
8.50000000E+00
 50
1.73823315E+02
 51
2.76176459E+02
  0
ARC
  8
0
 62
7
 10
-3.67485435E+02
 20
8.78429642E+01
 40
1.00000000E+00
 50
3.14999968E+02
 51
3.92609655E+01
  0
ARC
  8
0
 62
7
 10
-3.64657005E+02
 20
8.50145187E+01
 40
1.00000000E+00
 50
5.07389892E+01
 51
1.34999987E+02
  0
ARC
  8
0
 62
7
 10
-3.72018852E+02
 20
7.76526985E+01
 40
1.00000000E+00
 50
1.34999987E+02
 51
2.12846166E+02
  0
ARC
  8
0
 62
7
 10
-3.74847282E+02
 20
8.04811172E+01
 40
1.00000000E+00
 50
2.37153256E+02
 51
3.14999968E+02
  0
ARC
  8
0
 62
7
 10
-3.85500084E+02
 20
1.34000015E+02
 40
3.50000024E+00
 50
9.00000231E+01
 51
1.79999977E+02
  0
ARC
  8
0
 62
7
 10
-3.49999962E+02
 20
1.20399742E+02
 40
1.00000000E+00
 50
1.79999964E+02
 51
2.64260484E+02
  0
ARC
  8
0
 62
7
 10
-3.49999962E+02
 20
1.34000015E+02
 40
1.00000000E+00
 50
8.99999818E+01
 51
1.79999964E+02
  0
ARC
  8
0
 62
7
 10
-3.85499992E+02
 20
6.69999657E+01
 40
3.50000024E+00
 50
1.80000036E+02
 51
2.69999991E+02
  0
ARC
  8
0
 62
7
 10
-3.85499992E+02
 20
1.02499992E+02
 40
1.00000000E+00
 50
1.80000008E+02
 51
2.70000045E+02
  0
ARC
  8
0
 62
7
 10
-3.71899742E+02
 20
1.02499992E+02
 40
1.00000000E+00
 50
2.70000045E+02
 51
3.54260551E+02
  0
ARC
  8
0
 62
7
 10
-3.53999992E+02
 20
8.06002502E+01
 40
1.00000000E+00
 50
3.59999973E+02
 51
8.42604992E+01
  0
ARC
  8
0
 62
7
 10
-3.53999992E+02
 20
6.69999657E+01
 40
1.00000000E+00
 50
2.69999991E+02
 51
3.59999973E+02
  0
ARC
  8
0
 62
7
 10
-3.85500084E+02
 20
1.34000015E+02
 40
4.00000000E+00
 50
9.00000231E+01
 51
1.79999977E+02
  0
ARC
  8
0
 62
7
 10
-3.85499992E+02
 20
6.69999657E+01
 40
4.00000000E+00
 50
1.80000036E+02
 51
2.69999991E+02
  0
CIRCLE
  8
0
 62
7
 10
-3.80000053E+02
 20
7.24999733E+01
 40
6.00000048E+00
  0
CIRCLE
  8
0
 62
2
 10
-3.23999901E+02
 20
1.28500076E+02
 40
4.00000000E+00
  0
CIRCLE
  8
0
 62
7
 10
-3.80000053E+02
 20
1.28500076E+02
 40
6.00000048E+00
  0
CIRCLE
  8
0
 62
7
 10
-3.23999901E+02
 20
1.28500031E+02
 40
6.50000095E+00
  0
ARC
  8
0
 62
7
 10
-3.36514519E+02
 20
1.13157043E+02
 40
1.00000000E+00
 50
1.34999959E+02
 51
2.19260957E+02
  0
ARC
  8
0
 62
7
 10
-3.39342888E+02
 20
1.15985481E+02
 40
1.00000000E+00
 50
2.30738998E+02
 51
3.14999995E+02
  0
ARC
  8
0
 62
7
 10
-3.31981133E+02
 20
1.23347305E+02
 40
1.00000000E+00
 50
3.14999995E+02
 51
3.28461612E+01
  0
ARC
  8
0
 62
7
 10
-3.29152702E+02
 20
1.20518875E+02
 40
1.00000000E+00
 50
5.71532472E+01
 51
1.34999959E+02
  0
ARC
  8
0
 62
7
 10
-3.18499992E+02
 20
1.34000015E+02
 40
3.50000024E+00
 50
0.00000000E+00
 51
8.99999818E+01
  0
ARC
  8
0
 62
7
 10
-3.18499992E+02
 20
1.02499992E+02
 40
1.00000000E+00
 50
2.69999963E+02
 51
0.00000000E+00
  0
ARC
  8
0
 62
7
 10
-3.32100243E+02
 20
1.02499992E+02
 40
1.00000000E+00
 50
1.85739458E+02
 51
2.69999963E+02
  0
ARC
  8
0
 62
7
 10
-3.18499992E+02
 20
1.34000015E+02
 40
4.00000000E+00
 50
0.00000000E+00
 51
8.99999818E+01
  0
CIRCLE
  8
0
 62
7
 10
-3.23999901E+02
 20
1.28500031E+02
 40
6.00000048E+00
  0
ARC
  8
0
 62
7
 10
-3.34499840E+02
 20
1.34000153E+02
 40
3.50000024E+00
 50
1.80001511E+02
 51
2.70000018E+02
  0
ARC
  8
0
 62
7
 10
-3.38999901E+02
 20
1.34000015E+02
 40
1.00000000E+00
 50
1.77584919E-03
 51
8.99999549E+01
  0
ARC
  8
0
 62
7
 10
-3.33444756E+02
 20
1.29522171E+02
 40
1.00000000E+00
 50
3.53822790E+02
 51
8.43256382E+01
  0
ARC
  8
0
 62
7
 10
-3.18499870E+02
 20
1.18000053E+02
 40
3.50000024E+00
 50
1.79999977E+02
 51
2.69999017E+02
  0
ARC
  8
0
 62
7
 10
-3.22977837E+02
 20
1.19055176E+02
 40
1.00000000E+00
 50
5.67452116E+00
 51
9.61763036E+01
  0
ARC
  8
0
 62
7
 10
-3.18499992E+02
 20
1.13500053E+02
 40
1.00000000E+00
 50
3.59999986E+02
 51
8.99982469E+01
  0
ARC
  8
0
 62
7
 10
-3.85500084E+02
 20
8.74998779E+01
 40
1.00000000E+00
 50
1.80000036E+02
 51
2.69998235E+02
  0
ARC
  8
0
 62
7
 10
-3.85500114E+02
 20
8.29998703E+01
 40
3.50000024E+00
 50
0.00000000E+00
 51
8.99984996E+01
  0
ARC
  8
0
 62
7
 10
-3.81022240E+02
 20
8.19448013E+01
 40
1.00000000E+00
 50
1.85674380E+02
 51
2.76177221E+02
  0
ARC
  8
0
 62
7
 10
-3.80000053E+02
 20
7.24999275E+01
 40
8.50000000E+00
 50
3.53823551E+02
 51
9.61766726E+01
  0
ARC
  8
0
 62
7
 10
-3.70555138E+02
 20
1.29522171E+02
 40
1.00000000E+00
 50
9.56745100E+01
 51
1.86176313E+02
  0
ARC
  8
0
 62
7
 10
-3.69500053E+02
 20
1.34000107E+02
 40
3.50000024E+00
 50
2.70000018E+02
 51
3.59999001E+02
  0
ARC
  8
0
 62
7
 10
-3.65000053E+02
 20
1.34000015E+02
 40
1.00000000E+00
 50
8.99999818E+01
 51
1.79998270E+02
  0
ARC
  8
0
 62
7
 10
-3.65000084E+02
 20
6.69999657E+01
 40
1.00000000E+00
 50
1.80001785E+02
 51
2.69999963E+02
  0
ARC
  8
0
 62
7
 10
-3.69500053E+02
 20
6.69998512E+01
 40
3.50000024E+00
 50
1.49581143E-03
 51
8.99999818E+01
  0
ARC
  8
0
 62
7
 10
-3.70555199E+02
 20
7.14778099E+01
 40
1.00000000E+00
 50
1.73822768E+02
 51
2.64325616E+02
  0
ARC
  8
0
 62
7
 10
-3.80000053E+02
 20
1.28500031E+02
 40
8.50000000E+00
 50
2.63823553E+02
 51
6.17667669E+00
  0
ARC
  8
0
 62
7
 10
-3.81022240E+02
 20
1.19055176E+02
 40
1.00000000E+00
 50
8.38236876E+01
 51
1.74325470E+02
  0
ARC
  8
0
 62
7
 10
-3.85500114E+02
 20
1.18000053E+02
 40
3.50000024E+00
 50
2.70001002E+02
 51
0.00000000E+00
  0
ARC
  8
0
 62
7
 10
-3.85500084E+02
 20
1.13500053E+02
 40
1.00000000E+00
 50
9.00017305E+01
 51
1.80000005E+02
  0
ARC
  8
0
 62
7
 10
-3.34499901E+02
 20
6.69998856E+01
 40
3.50000024E+00
 50
8.99999818E+01
 51
1.79998994E+02
  0
ARC
  8
0
 62
7
 10
-3.38999901E+02
 20
6.69999657E+01
 40
1.00000000E+00
 50
2.70000018E+02
 51
3.59998251E+02
  0
ARC
  8
0
 62
7
 10
-3.49999962E+02
 20
6.70000000E+01
 40
1.00000000E+00
 50
1.79999951E+02
 51
2.70000001E+02
  0
ARC
  8
0
 62
7
 10
-3.49999962E+02
 20
8.06002502E+01
 40
1.00000000E+00
 50
9.57394445E+01
 51
1.79999951E+02
  0
CIRCLE
  8
0
 62
7
 10
-3.52000023E+02
 20
1.00500000E+02
 40
1.75294495E+01
  0
CIRCLE
  8
0
 62
7
 10
-3.52000023E+02
 20
1.00500000E+02
 40
1.90000000E+01
  0
CIRCLE
  8
0
 62
7
 10
-3.23999992E+02
 20
7.24999275E+01
 40
6.50000095E+00
  0
ARC
  8
0
 62
7
 10
-3.39342888E+02
 20
8.50145416E+01
 40
1.00000000E+00
 50
4.49999637E+01
 51
1.29260961E+02
  0
ARC
  8
0
 62
7
 10
-3.36514519E+02
 20
8.78429718E+01
 40
1.00000000E+00
 50
1.40738985E+02
 51
2.24999982E+02
  0
ARC
  8
0
 62
7
 10
-3.29152702E+02
 20
8.04811401E+01
 40
1.00000000E+00
 50
2.25000000E+02
 51
3.02846179E+02
  0
ARC
  8
0
 62
7
 10
-3.31981133E+02
 20
7.76527100E+01
 40
1.00000000E+00
 50
3.27153252E+02
 51
4.49999637E+01
  0
ARC
  8
0
 62
7
 10
-3.18499992E+02
 20
6.70000000E+01
 40
3.50000024E+00
 50
2.70000018E+02
 51
3.59999986E+02
  0
ARC
  8
0
 62
7
 10
-3.32100243E+02
 20
9.85000076E+01
 40
1.00000000E+00
 50
8.99999681E+01
 51
1.74260502E+02
  0
ARC
  8
0
 62
7
 10
-3.18499992E+02
 20
9.85000076E+01
 40
1.00000000E+00
 50
3.59999986E+02
 51
8.99999681E+01
  0
ARC
  8
0
 62
7
 10
-3.18499992E+02
 20
6.70000000E+01
 40
4.00000000E+00
 50
2.70000018E+02
 51
3.59999986E+02
  0
CIRCLE
  8
0
 62
7
 10
-3.23999992E+02
 20
7.24999275E+01
 40
6.00000048E+00
  0
CIRCLE
  8
0
 62
2
 10
-3.80000053E+02
 20
1.28500076E+02
 40
4.00000000E+00
  0
CIRCLE
  8
0
 62
7
 10
-3.52000023E+02
 20
1.00500000E+02
 40
1.70000000E+01
  0
ARC
  8
0
 62
7
 10
-3.18499992E+02
 20
8.74998779E+01
 40
1.00000000E+00
 50
2.70001780E+02
 51
3.59999959E+02
  0
ARC
  8
0
 62
7
 10
-3.18499870E+02
 20
8.29998703E+01
 40
3.50000024E+00
 50
9.00014916E+01
 51
1.79999964E+02
  0
ARC
  8
0
 62
7
 10
-3.22977837E+02
 20
8.19448013E+01
 40
1.00000000E+00
 50
2.63822795E+02
 51
3.54325643E+02
  0
ARC
  8
0
 62
7
 10
-3.23999992E+02
 20
7.24999275E+01
 40
8.50000000E+00
 50
8.38233192E+01
 51
1.86176449E+02
  0
ARC
  8
0
 62
7
 10
-3.33444756E+02
 20
7.14778099E+01
 40
1.00000000E+00
 50
2.75674525E+02
 51
6.17630782E+00
  0
CIRCLE
  8
0
 62
2
 10
-3.80000084E+02
 20
7.24999733E+01
 40
4.00000000E+00
  0
CIRCLE
  8
0
 62
7
 10
-3.80000084E+02
 20
7.24999733E+01
 40
3.32000041E+00
  0
CIRCLE
  8
0
 62
7
 10
-3.80000053E+02
 20
1.28500076E+02
 40
3.32000041E+00
  0
CIRCLE
  8
0
 62
7
 10
-3.23999901E+02
 20
1.28500076E+02
 40
3.32000041E+00
  0
CIRCLE
  8
0
 62
7
 10
-3.23999992E+02
 20
7.24999733E+01
 40
3.32000041E+00
  0
CIRCLE
  8
0
 62
2
 10
-3.23999992E+02
 20
7.24999733E+01
 40
4.00000000E+00
  0
CIRCLE
  8
0
 62
7
 10
-3.52000023E+02
 20
1.00500000E+02
 40
8.99999237E+00
  0
CIRCLE
  8
0
 62
2
 10
-3.52000023E+02
 20
1.00500000E+02
 40
8.18000031E+00
  0
LINE
  8
0
 62
7
 10
-3.53000053E+02
 20
1.34000038E+02
 11
-3.53000053E+02
 21
1.20399757E+02
  0
ARC
  8
0
 62
7
 10
-3.54000084E+02
 20
1.34000015E+02
 40
1.00000000E+00
 50
3.59721787E-05
 51
9.00000179E+01
  0
ARC
  8
0
 62
7
 10
-3.54000084E+02
 20
1.20399742E+02
 40
1.00000000E+00
 50
2.75739516E+02
 51
3.59721787E-05
  0
LINE
  8
0
 62
4
 10
-3.38500023E+02
 20
1.08294229E+02
 11
-3.52000023E+02
 21
1.16088457E+02
  0
LINE
  8
0
 62
4
 10
-3.38500023E+02
 20
9.27057714E+01
 11
-3.38500023E+02
 21
1.08294229E+02
  0
LINE
  8
0
 62
4
 10
-3.52000023E+02
 20
8.49115427E+01
 11
-3.38500023E+02
 21
9.27057714E+01
  0
LINE
  8
0
 62
4
 10
-3.65500023E+02
 20
9.27057714E+01
 11
-3.52000023E+02
 21
8.49115427E+01
  0
LINE
  8
0
 62
4
 10
-3.65500023E+02
 20
1.08294229E+02
 11
-3.65500023E+02
 21
9.27057714E+01
  0
LINE
  8
0
 62
4
 10
-3.52000023E+02
 20
1.16088457E+02
 11
-3.65500023E+02
 21
1.08294229E+02
  0
CIRCLE
  8
0
 62
4
 10
-3.52000023E+02
 20
1.00500000E+02
 40
1.35000000E+01
  0
LINE
  8
0
 62
4
 10
-3.90725914E+02
 20
1.23542990E+02
 11
-3.89500114E+02
 21
1.23941277E+02
  0
LINE
  8
0
 62
4
 10
-3.89500114E+02
 20
1.19770366E+02
 11
-3.90725914E+02
 21
1.23542990E+02
  0
LINE
  8
0
 62
6
 10
-3.90571406E+02
 20
1.23067462E+02
 11
-3.89500114E+02
 21
1.23415546E+02
  0
LINE
  8
0
 62
6
 10
-3.89644355E+02
 20
1.20214292E+02
 11
-3.89500114E+02
 21
1.20261159E+02
  0
LINE
  8
0
  6
CENTER
 62
6
 10
-3.67424563E+02
 20
1.35425053E+02
 11
-3.61718224E+02
 21
1.37279155E+02
  0
LINE
  8
0
  6
CENTER
 62
6
 10
-3.65498445E+02
 20
1.39205274E+02
 11
-3.63644343E+02
 21
1.33498935E+02
  0
LINE
  8
0
 62
4
 10
-3.63287315E+02
 20
1.38872251E+02
 11
-3.63003913E+02
 21
1.38000031E+02
  0
LINE
  8
0
 62
4
 10
-3.65971734E+02
 20
1.38000031E+02
 11
-3.63287315E+02
 21
1.38872251E+02
  0
LINE
  8
0
 62
4
 10
-3.63287315E+02
 20
1.38872251E+02
 11
-3.63731734E+02
 21
1.38000031E+02
  0
LINE
  8
0
 62
4
 10
-3.66845811E+02
 20
1.49176964E+02
 11
-3.76641694E+02
 21
1.45994089E+02
  0
LINE
  8
0
 62
4
 10
-3.66390099E+02
 20
1.38389827E+02
 11
-3.63632035E+02
 21
1.39285976E+02
  0
LINE
  8
0
 62
4
 10
-3.66588710E+02
 20
1.38000031E+02
 11
-3.66390099E+02
 21
1.38389827E+02
  0
LINE
  8
0
  6
CENTER
 62
6
 10
-3.85654236E+02
 20
1.38334156E+02
 11
-3.60259180E+02
 21
1.46585510E+02
  0
LINE
  8
0
  6
CENTER
 62
6
 10
-3.75655271E+02
 20
1.37902899E+02
 11
-3.59177621E+02
 21
1.43256812E+02
  0
LINE
  8
0
 62
4
 10
-3.80921448E+02
 20
1.44603512E+02
 11
-3.76641694E+02
 21
1.45994089E+02
  0
LINE
  8
0
 62
4
 10
-3.74044267E+02
 20
1.38000031E+02
 11
-3.76641694E+02
 21
1.45994089E+02
  0
LINE
  8
0
 62
4
 10
-3.84286090E+02
 20
1.38000031E+02
 11
-3.80921448E+02
 21
1.44603512E+02
  0
LINE
  8
0
 62
4
 10
-3.66629499E+02
 20
1.48511224E+02
 11
-3.65678443E+02
 21
1.48820241E+02
  0
ARC
  8
0
 62
4
 10
-3.62687081E+02
 20
1.43273128E+02
 40
1.00000000E+00
 50
3.36723662E+02
 51
5.17248996E+00
  0
ARC
  8
0
 62
4
 10
-3.64170362E+02
 20
1.47838200E+02
 40
1.00000000E+00
 50
3.08275100E+01
 51
1.08000000E+02
  0
ARC
  8
0
 62
4
 10
-3.73453060E+02
 20
1.42298559E+02
 40
1.18100000E+01
 50
5.17248996E+00
 51
3.08275100E+01
  0
LINE
  8
0
 62
4
 10
-3.65554836E+02
 20
1.48439819E+02
 11
-3.64480142E+02
 21
1.48789008E+02
  0
LINE
  8
0
 62
4
 10
-3.64705039E+02
 20
1.45824413E+02
 11
-3.65678443E+02
 21
1.48820241E+02
  0
LINE
  8
0
 62
4
 10
-3.62814650E+02
 20
1.38000031E+02
 11
-3.65294694E+02
 21
1.45632823E+02
  0
LINE
  8
0
 62
4
 10
-3.65609743E+02
 20
1.45372738E+02
 11
-3.65248342E+02
 21
1.45490164E+02
  0
LINE
  8
0
 62
4
 10
-3.65294694E+02
 20
1.45632823E+02
 11
-3.63620835E+02
 21
1.46176693E+02
  0
LINE
  8
0
 62
4
 10
-3.61926649E+02
 20
1.38000031E+02
 11
-3.61055994E+02
 21
1.38282924E+02
  0
ARC
  8
0
 62
4
 10
-3.72859240E+02
 20
1.38819521E+02
 40
1.18100000E+01
 50
1.80000000E+01
 51
3.85326990E+01
  0
ARC
  8
0
 62
4
 10
-3.72854458E+02
 20
1.38804802E+02
 40
1.18100000E+01
 50
3.57467301E+02
 51
1.80000000E+01
  0
LINE
  8
0
 62
4
 10
-3.63214206E+02
 20
1.38000031E+02
 11
-3.66845811E+02
 21
1.49176964E+02
  0
LINE
  8
0
 62
4
 10
-3.14500023E+02
 20
1.19770178E+02
 11
-3.13274162E+02
 21
1.23542990E+02
  0
LINE
  8
0
 62
4
 10
-3.13274162E+02
 20
1.23542990E+02
 11
-3.14500023E+02
 21
1.23941297E+02
  0
LINE
  8
0
 62
6
 10
-3.13428670E+02
 20
1.23067462E+02
 11
-3.14500023E+02
 21
1.23415566E+02
  0
LINE
  8
0
 62
6
 10
-3.14355721E+02
 20
1.20214292E+02
 11
-3.14500023E+02
 21
1.20261179E+02
  0
LINE
  8
0
  6
CENTER
 62
6
 10
-3.28344805E+02
 20
1.37902899E+02
 11
-3.44463838E+02
 21
1.43140290E+02
  0
LINE
  8
0
  6
CENTER
 62
6
 10
-3.18345841E+02
 20
1.38334156E+02
 11
-3.43382278E+02
 21
1.46468988E+02
  0
LINE
  8
0
 62
4
 10
-3.37411367E+02
 20
1.38000031E+02
 11
-3.37609978E+02
 21
1.38389827E+02
  0
LINE
  8
0
 62
4
 10
-3.37609978E+02
 20
1.38389827E+02
 11
-3.40368042E+02
 21
1.39285976E+02
  0
LINE
  8
0
 62
4
 10
-3.37154265E+02
 20
1.49176964E+02
 11
-3.27358383E+02
 21
1.45994089E+02
  0
LINE
  8
0
 62
4
 10
-3.38028342E+02
 20
1.38000031E+02
 11
-3.40712761E+02
 21
1.38872251E+02
  0
LINE
  8
0
 62
4
 10
-3.40712761E+02
 20
1.38872251E+02
 11
-3.40996163E+02
 21
1.38000031E+02
  0
LINE
  8
0
  6
CENTER
 62
6
 10
-3.38501631E+02
 20
1.39205274E+02
 11
-3.40355733E+02
 21
1.33498935E+02
  0
LINE
  8
0
  6
CENTER
 62
6
 10
-3.36575513E+02
 20
1.35425053E+02
 11
-3.42281852E+02
 21
1.37279155E+02
  0
LINE
  8
0
 62
4
 10
-3.19713986E+02
 20
1.38000031E+02
 11
-3.23078629E+02
 21
1.44603512E+02
  0
LINE
  8
0
 62
4
 10
-3.23078629E+02
 20
1.44603512E+02
 11
-3.27358383E+02
 21
1.45994089E+02
  0
LINE
  8
0
 62
4
 10
-3.27358383E+02
 20
1.45994089E+02
 11
-3.29955810E+02
 21
1.38000031E+02
  0
LINE
  8
0
 62
4
 10
-3.39719106E+02
 20
1.41283195E+02
 11
-3.40670162E+02
 21
1.41592212E+02
  0
LINE
  8
0
 62
4
 10
-3.37370577E+02
 20
1.48511224E+02
 11
-3.38321633E+02
 21
1.48820241E+02
  0
ARC
  8
0
 62
4
 10
-3.41312996E+02
 20
1.43273128E+02
 40
1.00000000E+00
 50
1.74827510E+02
 51
2.52000000E+02
  0
ARC
  8
0
 62
4
 10
-3.39829714E+02
 20
1.47838200E+02
 40
1.00000000E+00
 50
7.19999999E+01
 51
1.49172490E+02
  0
LINE
  8
0
 62
4
 10
-3.40546556E+02
 20
1.41972634E+02
 11
-3.41621250E+02
 21
1.42321824E+02
  0
LINE
  8
0
 62
4
 10
-3.38445240E+02
 20
1.48439819E+02
 11
-3.39519934E+02
 21
1.48789008E+02
  0
LINE
  8
0
 62
4
 10
-3.40670162E+02
 20
1.41592212E+02
 11
-3.38321633E+02
 21
1.48820241E+02
  0
ARC
  8
0
 62
4
 10
-3.30547016E+02
 20
1.42298559E+02
 40
1.18100000E+01
 50
1.49172490E+02
 51
1.74827510E+02
  0
LINE
  8
0
 62
4
 10
-3.41185426E+02
 20
1.38000031E+02
 11
-3.40080507E+02
 21
1.41400621E+02
  0
LINE
  8
0
 62
4
 10
-3.42073427E+02
 20
1.38000031E+02
 11
-3.42944082E+02
 21
1.38282924E+02
  0
ARC
  8
0
 62
4
 10
-3.31140836E+02
 20
1.38819521E+02
 40
1.18100000E+01
 50
1.59900933E+02
 51
1.62000000E+02
  0
ARC
  8
0
 62
4
 10
-3.31145619E+02
 20
1.38804802E+02
 40
1.18100000E+01
 50
1.62000000E+02
 51
1.82532699E+02
  0
LINE
  8
0
 62
4
 10
-3.40785871E+02
 20
1.38000031E+02
 11
-3.37154265E+02
 21
1.49176964E+02
  0
CIRCLE
  8
0
 62
7
 10
3.97999977E+02
 20
1.00500000E+02
 40
6.50000763E+00
  0
CIRCLE
  8
0
 62
2
 10
3.97999977E+02
 20
1.00500000E+02
 40
7.18000031E+00
  0
CIRCLE
  8
0
 62
7
 10
3.97999977E+02
 20
1.00500000E+02
 40
8.00000763E+00
  0
LINE
  8
0
 62
7
 10
4.08999977E+02
 20
1.06850853E+02
 11
3.97999977E+02
 21
1.13201706E+02
  0
LINE
  8
0
 62
7
 10
4.08999977E+02
 20
9.41491470E+01
 11
4.08999977E+02
 21
1.06850853E+02
  0
LINE
  8
0
 62
7
 10
3.97999977E+02
 20
8.77982941E+01
 11
4.08999977E+02
 21
9.41491470E+01
  0
LINE
  8
0
 62
7
 10
3.86999977E+02
 20
9.41491470E+01
 11
3.97999977E+02
 21
8.77982941E+01
  0
LINE
  8
0
 62
7
 10
3.86999977E+02
 20
1.06850853E+02
 11
3.86999977E+02
 21
9.41491470E+01
  0
LINE
  8
0
 62
7
 10
3.97999977E+02
 20
1.13201706E+02
 11
3.86999977E+02
 21
1.06850853E+02
  0
CIRCLE
  8
0
 62
7
 10
3.97999977E+02
 20
1.00500000E+02
 40
1.10000000E+01
  0
LINE
  8
0
 62
7
 10
3.81999977E+02
 20
1.08746211E+02
 11
3.81999977E+02
 21
9.22537887E+01
  0
LINE
  8
0
 62
7
 10
4.13999977E+02
 20
1.08746211E+02
 11
4.13999977E+02
 21
9.22537887E+01
  0
CIRCLE
  8
0
 62
7
 10
3.97999977E+02
 20
1.00500000E+02
 40
1.80000000E+01
  0
LINE
  8
0
 62
4
 10
4.09214129E+02
 20
1.38000031E+02
 11
4.12845735E+02
 21
1.49176964E+02
  0
ARC
  8
0
 62
4
 10
4.18854381E+02
 20
1.38804802E+02
 40
1.18100000E+01
 50
1.62000000E+02
 51
1.82532699E+02
  0
ARC
  8
0
 62
4
 10
4.18859164E+02
 20
1.38819521E+02
 40
1.18100000E+01
 50
1.59900933E+02
 51
1.62000000E+02
  0
LINE
  8
0
 62
4
 10
4.07926573E+02
 20
1.38000031E+02
 11
4.07055918E+02
 21
1.38282924E+02
  0
LINE
  8
0
 62
4
 10
4.08814574E+02
 20
1.38000031E+02
 11
4.09919493E+02
 21
1.41400621E+02
  0
ARC
  8
0
 62
4
 10
4.19452984E+02
 20
1.42298559E+02
 40
1.18100000E+01
 50
1.49172490E+02
 51
1.74827510E+02
  0
LINE
  8
0
 62
4
 10
4.09329838E+02
 20
1.41592212E+02
 11
4.11678367E+02
 21
1.48820241E+02
  0
LINE
  8
0
 62
4
 10
4.11554760E+02
 20
1.48439819E+02
 11
4.10480066E+02
 21
1.48789008E+02
  0
LINE
  8
0
 62
4
 10
4.09453444E+02
 20
1.41972634E+02
 11
4.08378750E+02
 21
1.42321824E+02
  0
ARC
  8
0
 62
4
 10
4.10170286E+02
 20
1.47838200E+02
 40
1.00000000E+00
 50
7.19999999E+01
 51
1.49172490E+02
  0
ARC
  8
0
 62
4
 10
4.08687004E+02
 20
1.43273128E+02
 40
1.00000000E+00
 50
1.74827510E+02
 51
2.52000000E+02
  0
LINE
  8
0
 62
4
 10
4.12629423E+02
 20
1.48511224E+02
 11
4.11678367E+02
 21
1.48820241E+02
  0
LINE
  8
0
 62
4
 10
4.10280894E+02
 20
1.41283195E+02
 11
4.09329838E+02
 21
1.41592212E+02
  0
LINE
  8
0
 62
4
 10
4.22641617E+02
 20
1.45994089E+02
 11
4.20044190E+02
 21
1.38000031E+02
  0
LINE
  8
0
 62
4
 10
4.26921371E+02
 20
1.44603512E+02
 11
4.22641617E+02
 21
1.45994089E+02
  0
LINE
  8
0
 62
4
 10
4.30286014E+02
 20
1.38000031E+02
 11
4.26921371E+02
 21
1.44603512E+02
  0
LINE
  8
0
 62
4
 10
4.09287239E+02
 20
1.38872251E+02
 11
4.09003837E+02
 21
1.38000031E+02
  0
LINE
  8
0
 62
4
 10
4.11971658E+02
 20
1.38000031E+02
 11
4.09287239E+02
 21
1.38872251E+02
  0
LINE
  8
0
 62
4
 10
4.12845735E+02
 20
1.49176964E+02
 11
4.22641617E+02
 21
1.45994089E+02
  0
LINE
  8
0
 62
4
 10
4.12390022E+02
 20
1.38389827E+02
 11
4.09631958E+02
 21
1.39285976E+02
  0
LINE
  8
0
 62
4
 10
4.12588633E+02
 20
1.38000031E+02
 11
4.12390022E+02
 21
1.38389827E+02
  0
LINE
  8
0
  6
CENTER
 62
6
 10
4.31654159E+02
 20
1.38334156E+02
 11
4.06617722E+02
 21
1.46468988E+02
  0
LINE
  8
0
  6
CENTER
 62
6
 10
4.21655195E+02
 20
1.37902899E+02
 11
4.05536162E+02
 21
1.43140290E+02
  0
CIRCLE
  8
0
 62
4
 10
4.26000038E+02
 20
1.28500061E+02
 40
3.60000000E+00
  0
LINE
  8
0
 62
6
 10
4.35644279E+02
 20
1.20214292E+02
 11
4.35499977E+02
 21
1.20261179E+02
  0
LINE
  8
0
 62
6
 10
4.36571330E+02
 20
1.23067462E+02
 11
4.35499977E+02
 21
1.23415566E+02
  0
LINE
  8
0
 62
4
 10
4.36725838E+02
 20
1.23542990E+02
 11
4.35499977E+02
 21
1.23941297E+02
  0
LINE
  8
0
 62
4
 10
4.35499977E+02
 20
1.19770178E+02
 11
4.36725838E+02
 21
1.23542990E+02
  0
LINE
  8
0
 62
4
 10
3.86785794E+02
 20
1.38000031E+02
 11
3.83154189E+02
 21
1.49176964E+02
  0
ARC
  8
0
 62
4
 10
3.77145542E+02
 20
1.38804802E+02
 40
1.18100000E+01
 50
3.57467301E+02
 51
1.80000000E+01
  0
ARC
  8
0
 62
4
 10
3.77140760E+02
 20
1.38819521E+02
 40
1.18100000E+01
 50
1.80000000E+01
 51
3.85326990E+01
  0
LINE
  8
0
 62
4
 10
3.88073351E+02
 20
1.38000031E+02
 11
3.88944006E+02
 21
1.38282924E+02
  0
LINE
  8
0
 62
4
 10
3.84705306E+02
 20
1.45632823E+02
 11
3.86379165E+02
 21
1.46176693E+02
  0
LINE
  8
0
 62
4
 10
3.84390257E+02
 20
1.45372738E+02
 11
3.84751658E+02
 21
1.45490164E+02
  0
LINE
  8
0
 62
4
 10
3.87185350E+02
 20
1.38000031E+02
 11
3.84705306E+02
 21
1.45632823E+02
  0
LINE
  8
0
 62
4
 10
3.85294961E+02
 20
1.45824413E+02
 11
3.84321557E+02
 21
1.48820241E+02
  0
LINE
  8
0
 62
4
 10
3.84445164E+02
 20
1.48439819E+02
 11
3.85519858E+02
 21
1.48789008E+02
  0
ARC
  8
0
 62
4
 10
3.76546940E+02
 20
1.42298559E+02
 40
1.18100000E+01
 50
5.17248996E+00
 51
3.08275100E+01
  0
ARC
  8
0
 62
4
 10
3.85829638E+02
 20
1.47838200E+02
 40
1.00000000E+00
 50
3.08275100E+01
 51
1.08000000E+02
  0
ARC
  8
0
 62
4
 10
3.87312919E+02
 20
1.43273128E+02
 40
1.00000000E+00
 50
3.36723662E+02
 51
5.17248996E+00
  0
LINE
  8
0
 62
4
 10
3.83370501E+02
 20
1.48511224E+02
 11
3.84321557E+02
 21
1.48820241E+02
  0
LINE
  8
0
 62
4
 10
3.65713910E+02
 20
1.38000031E+02
 11
3.69078552E+02
 21
1.44603512E+02
  0
LINE
  8
0
 62
4
 10
3.75955733E+02
 20
1.38000031E+02
 11
3.73358306E+02
 21
1.45994089E+02
  0
LINE
  8
0
 62
4
 10
3.69078552E+02
 20
1.44603512E+02
 11
3.73358306E+02
 21
1.45994089E+02
  0
LINE
  8
0
  6
CENTER
 62
6
 10
3.74344729E+02
 20
1.37902899E+02
 11
3.90822379E+02
 21
1.43256812E+02
  0
LINE
  8
0
  6
CENTER
 62
6
 10
3.64345764E+02
 20
1.38334156E+02
 11
3.89740820E+02
 21
1.46585510E+02
  0
LINE
  8
0
 62
4
 10
3.83411290E+02
 20
1.38000031E+02
 11
3.83609901E+02
 21
1.38389827E+02
  0
LINE
  8
0
 62
4
 10
3.83609901E+02
 20
1.38389827E+02
 11
3.86367965E+02
 21
1.39285976E+02
  0
LINE
  8
0
 62
4
 10
3.83154189E+02
 20
1.49176964E+02
 11
3.73358306E+02
 21
1.45994089E+02
  0
LINE
  8
0
 62
4
 10
3.86712685E+02
 20
1.38872251E+02
 11
3.86268266E+02
 21
1.38000031E+02
  0
LINE
  8
0
 62
4
 10
3.84028266E+02
 20
1.38000031E+02
 11
3.86712685E+02
 21
1.38872251E+02
  0
LINE
  8
0
 62
4
 10
3.86712685E+02
 20
1.38872251E+02
 11
3.86996087E+02
 21
1.38000031E+02
  0
LINE
  8
0
 62
6
 10
3.60355645E+02
 20
1.20214292E+02
 11
3.60499886E+02
 21
1.20261159E+02
  0
LINE
  8
0
 62
6
 10
3.59428594E+02
 20
1.23067462E+02
 11
3.60499886E+02
 21
1.23415546E+02
  0
LINE
  8
0
 62
4
 10
3.60499886E+02
 20
1.19770366E+02
 11
3.59274086E+02
 21
1.23542990E+02
  0
LINE
  8
0
 62
4
 10
3.59274086E+02
 20
1.23542990E+02
 11
3.60499886E+02
 21
1.23941277E+02
  0
CIRCLE
  8
0
 62
4
 10
3.69999886E+02
 20
1.28500061E+02
 40
3.60000000E+00
  0
CIRCLE
  8
0
 62
2
 10
4.26000008E+02
 20
7.24999733E+01
 40
4.00000000E+00
  0
CIRCLE
  8
0
 62
7
 10
4.26000008E+02
 20
7.24999733E+01
 40
3.32000041E+00
  0
CIRCLE
  8
0
 62
7
 10
4.26000099E+02
 20
1.28500076E+02
 40
3.32000041E+00
  0
CIRCLE
  8
0
 62
7
 10
3.69999947E+02
 20
1.28500076E+02
 40
3.32000041E+00
  0
CIRCLE
  8
0
 62
7
 10
3.69999916E+02
 20
7.24999733E+01
 40
3.32000041E+00
  0
CIRCLE
  8
0
 62
2
 10
3.69999916E+02
 20
7.24999733E+01
 40
4.00000000E+00
  0
CIRCLE
  8
0
 62
2
 10
3.69999947E+02
 20
1.28500076E+02
 40
4.00000000E+00
  0
CIRCLE
  8
0
 62
7
 10
4.26000008E+02
 20
7.24999275E+01
 40
6.00000048E+00
  0
ARC
  8
0
 62
7
 10
4.31500008E+02
 20
6.70000000E+01
 40
4.00000000E+00
 50
2.70000018E+02
 51
3.59999986E+02
  0
CIRCLE
  8
0
 62
7
 10
4.26000008E+02
 20
7.24999275E+01
 40
6.50000095E+00
  0
CIRCLE
  8
0
 62
7
 10
3.97999977E+02
 20
1.00500000E+02
 40
1.90000000E+01
  0
CIRCLE
  8
0
 62
7
 10
4.26000099E+02
 20
1.28500031E+02
 40
6.00000048E+00
  0
ARC
  8
0
 62
7
 10
4.31500008E+02
 20
1.34000015E+02
 40
4.00000000E+00
 50
0.00000000E+00
 51
8.99999818E+01
  0
CIRCLE
  8
0
 62
7
 10
4.26000099E+02
 20
1.28500031E+02
 40
6.50000095E+00
  0
CIRCLE
  8
0
 62
7
 10
3.69999947E+02
 20
1.28500076E+02
 40
6.00000048E+00
  0
CIRCLE
  8
0
 62
2
 10
4.26000099E+02
 20
1.28500076E+02
 40
4.00000000E+00
  0
CIRCLE
  8
0
 62
7
 10
3.69999947E+02
 20
7.24999733E+01
 40
6.00000048E+00
  0
ARC
  8
0
 62
7
 10
3.64500008E+02
 20
6.69999657E+01
 40
4.00000000E+00
 50
1.80000036E+02
 51
2.69999991E+02
  0
ARC
  8
0
 62
7
 10
3.64499916E+02
 20
1.34000015E+02
 40
4.00000000E+00
 50
9.00000231E+01
 51
1.79999977E+02
  0
CIRCLE
  8
0
 62
7
 10
3.69999947E+02
 20
7.24999733E+01
 40
6.50000095E+00
  0
CIRCLE
  8
0
 62
7
 10
3.69999947E+02
 20
1.28500076E+02
 40
6.50000095E+00
  0
LINE
  8
0
  6
CENTER
 62
2
 10
4.26000008E+02
 20
8.25604858E+01
 11
4.26000008E+02
 21
6.10041084E+01
  0
LINE
  8
0
  6
CENTER
 62
2
 10
3.85999886E+02
 20
1.40214226E+02
 11
3.85999886E+02
 21
1.10494484E+02
  0
LINE
  8
0
  6
CENTER
 62
2
 10
4.15369453E+02
 20
1.28500076E+02
 11
4.37902412E+02
 21
1.28500076E+02
  0
LINE
  8
0
  6
CENTER
 62
2
 10
3.80233345E+02
 20
7.24999733E+01
 11
3.57954903E+02
 21
7.24999733E+01
  0
LINE
  8
0
  6
CENTER
 62
2
 10
4.38029762E+02
 20
7.24999733E+01
 11
4.15496803E+02
 21
7.24999733E+01
  0
LINE
  8
0
  6
CENTER
 62
2
 10
3.57954903E+02
 20
1.28500076E+02
 11
3.80105995E+02
 21
1.28500076E+02
  0
LINE
  8
0
  6
CENTER
 62
2
 10
4.05999886E+02
 20
1.40185295E+02
 11
4.05999886E+02
 21
1.14218903E+02
  0
LINE
  8
0
  6
CENTER
 62
2
 10
4.38767738E+02
 20
1.00500000E+02
 11
3.55522255E+02
 21
1.00500000E+02
  0
LINE
  8
0
  6
CENTER
 62
2
 10
4.26000099E+02
 20
1.40185295E+02
 11
4.26000099E+02
 21
1.17270416E+02
  0
LINE
  8
0
 62
7
 10
4.35499977E+02
 20
6.70000000E+01
 11
4.35499977E+02
 21
1.34000038E+02
  0
LINE
  8
0
  6
CENTER
 62
2
 10
3.97999977E+02
 20
1.41967552E+02
 11
3.97999977E+02
 21
5.94739647E+01
  0
LINE
  8
0
  6
CENTER
 62
2
 10
3.69999947E+02
 20
1.17270416E+02
 11
3.69999947E+02
 21
1.40057991E+02
  0
LINE
  8
0
  6
CENTER
 62
2
 10
3.69999916E+02
 20
6.10016251E+01
 11
3.69999916E+02
 21
8.35345917E+01
  0
LINE
  8
0
 62
7
 10
3.64500008E+02
 20
6.30000038E+01
 11
4.31500008E+02
 21
6.30000038E+01
  0
LINE
  8
0
 62
7
 10
3.60499947E+02
 20
6.69999771E+01
 11
3.60499947E+02
 21
1.34000015E+02
  0
LINE
  8
0
 62
7
 10
3.64499916E+02
 20
1.38000046E+02
 11
4.31500008E+02
 21
1.38000046E+02
  0
LINE
  8
0
  6
PHANTOM
 10
-2.45000000E+01
 20
1.90686885E+02
 11
-2.45000000E+01
 21
3.53816712E+02
  0
LINE
  8
0
  6
PHANTOM
 10
1.23499962E+02
 20
1.92001967E+02
 11
1.23499962E+02
 21
3.53816712E+02
  0
LINE
  8
0
  6
CENTER
 62
2
 10
-1.71939049E+02
 20
2.80500000E+02
 11
2.63192886E+02
 21
2.80500000E+02
  0
LINE
  8
0
  6
CENTER
 62
2
 10
-1.04364891E+02
 20
2.88500015E+02
 11
-8.27607040E+01
 21
2.88500015E+02
  0
LINE
  8
0
  6
CENTER
 62
2
 10
-9.40001144E+01
 20
2.78499985E+02
 11
-9.40001144E+01
 21
2.99046265E+02
  0
LINE
  8
0
 62
7
 10
-8.61340561E+01
 20
2.70000015E+02
 11
-8.78661728E+01
 21
2.70000015E+02
  0
LINE
  8
0
 62
7
 10
-8.52679537E+01
 20
2.68499889E+02
 11
-8.61339776E+01
 21
2.69999896E+02
  0
LINE
  8
0
 62
7
 10
-1.13500023E+02
 20
2.61499985E+02
 11
-1.12000023E+02
 21
2.61499985E+02
  0
LINE
  8
0
 62
7
 10
-1.26500053E+02
 20
2.63500000E+02
 11
-1.21991539E+02
 21
2.63500000E+02
  0
LINE
  8
0
 62
7
 10
-1.22000053E+02
 20
2.63499985E+02
 11
-1.22000053E+02
 21
2.63491440E+02
  0
LINE
  8
0
 62
7
 10
-1.21758882E+02
 20
2.63241610E+02
 11
-1.14000183E+02
 21
2.62970671E+02
  0
LINE
  8
0
 62
7
 10
-1.11508748E+02
 20
2.43550218E+02
 11
-8.00001194E+01
 21
2.43000233E+02
  0
LINE
  8
0
 62
7
 10
-1.27000023E+02
 20
2.64000015E+02
 11
-1.27000023E+02
 21
2.96999969E+02
  0
LINE
  8
0
 62
7
 10
-1.13500023E+02
 20
2.99500000E+02
 11
-1.12000023E+02
 21
2.99500000E+02
  0
LINE
  8
0
 62
7
 10
-1.26500053E+02
 20
2.97499969E+02
 11
-1.21991539E+02
 21
2.97499969E+02
  0
LINE
  8
0
 62
7
 10
-1.22000053E+02
 20
2.97500015E+02
 11
-1.22000053E+02
 21
2.97508545E+02
  0
LINE
  8
0
 62
7
 10
-1.21758814E+02
 20
2.97758698E+02
 11
-1.14000115E+02
 21
2.98029637E+02
  0
LINE
  8
0
 62
7
 10
-1.12000023E+02
 20
2.44049927E+02
 11
-1.12000023E+02
 21
3.16950089E+02
  0
LINE
  8
0
 62
7
 10
-7.99999924E+01
 20
2.43000046E+02
 11
-7.99999924E+01
 21
3.18000015E+02
  0
LINE
  8
0
 62
7
 10
-1.11508886E+02
 20
3.17450121E+02
 11
-8.00001357E+01
 21
3.18000108E+02
  0
LINE
  8
0
 62
7
 10
-1.14000084E+02
 20
2.61999985E+02
 11
-1.14000084E+02
 21
2.99000015E+02
  0
LINE
  8
0
 62
7
 10
-1.22000053E+02
 20
2.97500015E+02
 11
-1.22000053E+02
 21
2.63499985E+02
  0
LINE
  8
0
 62
7
 10
-1.06000023E+02
 20
3.05500000E+02
 11
-8.00000229E+01
 21
3.05500000E+02
  0
LINE
  8
0
 62
7
 10
-1.06000023E+02
 20
2.55499985E+02
 11
-8.00000229E+01
 21
2.55499985E+02
  0
LINE
  8
0
 62
7
 10
-1.08000084E+02
 20
3.03500015E+02
 11
-1.08000084E+02
 21
2.57500000E+02
  0
LINE
  8
0
 62
7
 10
-8.87318562E+01
 20
2.68499784E+02
 11
-8.78658419E+01
 21
2.69999774E+02
  0
LINE
  8
0
  6
CENTER
 62
2
 10
5.13647995E+01
 20
2.88500015E+02
 11
2.97606277E+01
 21
2.88500015E+02
  0
LINE
  8
0
  6
CENTER
 62
2
 10
4.10000229E+01
 20
2.78499985E+02
 11
4.10000229E+01
 21
2.99046265E+02
  0
LINE
  8
0
 62
7
 10
5.85087098E+01
 20
3.17450139E+02
 11
2.70000355E+01
 21
3.18000125E+02
  0
LINE
  8
0
 62
7
 10
5.89999619E+01
 20
3.18000000E+02
 11
5.89999619E+01
 21
2.43000000E+02
  0
LINE
  8
0
 62
7
 10
2.69999619E+01
 20
3.17999954E+02
 11
2.69999619E+01
 21
2.42999969E+02
  0
LINE
  8
0
 62
7
 10
5.85086496E+01
 20
2.43550095E+02
 11
2.69999295E+01
 21
2.43000108E+02
  0
LINE
  8
0
 62
7
 10
5.29999313E+01
 20
2.55499985E+02
 11
2.69999466E+01
 21
2.55499985E+02
  0
LINE
  8
0
 62
7
 10
5.29999313E+01
 20
3.05499985E+02
 11
2.69999466E+01
 21
3.05499985E+02
  0
LINE
  8
0
 62
7
 10
5.49999771E+01
 20
2.57500000E+02
 11
5.49999771E+01
 21
3.03500015E+02
  0
LINE
  8
0
  6
CENTER
 62
2
 10
8.83764648E+01
 20
3.08500031E+02
 11
-1.15686852E+02
 21
3.08500031E+02
  0
LINE
  8
0
 62
7
 10
2.69999466E+01
 20
3.04899994E+02
 11
-3.89999924E+01
 21
3.04899994E+02
  0
LINE
  8
0
 62
7
 10
2.69999466E+01
 20
3.12100021E+02
 11
-3.89999924E+01
 21
3.12100021E+02
  0
LINE
  8
0
 62
7
 10
2.69999619E+01
 20
3.14499985E+02
 11
-3.89999924E+01
 21
3.14499985E+02
  0
LINE
  8
0
  6
CENTER
 62
2
 10
8.78214951E+01
 20
2.52499969E+02
 11
-1.15392876E+02
 21
2.52499969E+02
  0
LINE
  8
0
 62
7
 10
2.69999466E+01
 20
2.56100021E+02
 11
1.99999924E+01
 21
2.56100021E+02
  0
LINE
  8
0
 62
7
 10
2.69999466E+01
 20
2.48899994E+02
 11
4.99999237E+00
 21
2.48899994E+02
  0
LINE
  8
0
 62
7
 10
2.69999619E+01
 20
2.46500031E+02
 11
4.99999237E+00
 21
2.46500031E+02
  0
LINE
  8
0
  6
CENTER
 62
2
 10
3.39999924E+01
 20
2.74911163E+02
 11
3.39999924E+01
 21
2.61434418E+02
  0
LINE
  8
0
  6
CENTER
 62
2
 10
2.73342514E+01
 20
2.68500000E+02
 11
4.01629868E+01
 21
2.68500000E+02
  0
LINE
  8
0
 62
7
 10
3.57320538E+01
 20
2.68499944E+02
 11
3.48660147E+01
 21
2.69999977E+02
  0
LINE
  8
0
 62
7
 10
3.48659744E+01
 20
2.70000015E+02
 11
3.31339035E+01
 21
2.70000015E+02
  0
LINE
  8
0
 62
7
 10
3.22681194E+01
 20
2.68499880E+02
 11
3.31341242E+01
 21
2.69999853E+02
  0
LINE
  8
0
 62
7
 10
3.31340258E+01
 20
2.67000051E+02
 11
3.22679714E+01
 21
2.68500111E+02
  0
LINE
  8
0
 62
7
 10
3.48659744E+01
 20
2.67000000E+02
 11
3.31339035E+01
 21
2.67000000E+02
  0
LINE
  8
0
 62
7
 10
3.57321588E+01
 20
2.68499842E+02
 11
3.48661311E+01
 21
2.66999829E+02
  0
LINE
  8
0
 62
7
 10
-8.78660267E+01
 20
2.67000006E+02
 11
-8.87320659E+01
 21
2.68500039E+02
  0
LINE
  8
0
 62
7
 10
-8.61340561E+01
 20
2.67000000E+02
 11
-8.78661728E+01
 21
2.67000000E+02
  0
LINE
  8
0
 62
7
 10
-8.52678239E+01
 20
2.68499856E+02
 11
-8.61338611E+01
 21
2.66999827E+02
  0
LINE
  8
0
  6
CENTER
 62
2
 10
-9.36658554E+01
 20
2.68500000E+02
 11
-8.08370895E+01
 21
2.68500000E+02
  0
LINE
  8
0
  6
CENTER
 62
2
 10
-8.70000534E+01
 20
2.74911163E+02
 11
-8.70000534E+01
 21
2.61434418E+02
  0
LINE
  8
0
 62
7
 10
5.89999313E+01
 20
3.18000000E+02
 11
8.39999695E+01
 21
3.18000000E+02
  0
LINE
  8
0
 62
7
 10
5.89999313E+01
 20
2.43000000E+02
 11
8.39999695E+01
 21
2.43000000E+02
  0
LINE
  8
0
 62
7
 10
8.39999695E+01
 20
3.18000000E+02
 11
8.39999695E+01
 21
2.43000000E+02
  0
LINE
  8
0
 62
7
 10
2.43999840E+02
 20
2.96500000E+02
 11
2.43999840E+02
 21
2.64499985E+02
  0
LINE
  8
0
 62
7
 10
1.60999897E+02
 20
2.98500000E+02
 11
1.60999897E+02
 21
2.62500000E+02
  0
LINE
  8
0
 62
7
 10
8.39999466E+01
 20
2.61499985E+02
 11
8.54999466E+01
 21
2.61499985E+02
  0
LINE
  8
0
 62
7
 10
8.39999466E+01
 20
2.99500000E+02
 11
8.54999466E+01
 21
2.99500000E+02
  0
LINE
  8
0
 62
7
 10
8.59999619E+01
 20
2.98999985E+02
 11
8.59999619E+01
 21
2.62000000E+02
  0
LINE
  8
0
 62
7
 10
2.57999969E+02
 20
2.87500076E+02
 11
2.57999969E+02
 21
2.73500031E+02
  0
LINE
  8
0
 62
7
 10
2.56999939E+02
 20
2.88500015E+02
 11
2.53999985E+02
 21
2.88500015E+02
  0
LINE
  8
0
 62
7
 10
2.56999939E+02
 20
2.72500031E+02
 11
2.53999985E+02
 21
2.72500031E+02
  0
LINE
  8
0
 62
2
 10
2.57811852E+02
 20
2.87688080E+02
 11
2.53999985E+02
 21
2.87688080E+02
  0
LINE
  8
0
 62
2
 10
2.57811852E+02
 20
2.73312027E+02
 11
2.53999985E+02
 21
2.73312027E+02
  0
LINE
  8
0
 62
7
 10
2.57000420E+02
 20
2.88500781E+02
 11
2.58000397E+02
 21
2.87500789E+02
  0
LINE
  8
0
 62
7
 10
2.57999940E+02
 20
2.73500055E+02
 11
2.56999907E+02
 21
2.72500021E+02
  0
LINE
  8
0
 62
7
 10
2.56999893E+02
 20
2.88500031E+02
 11
2.56999893E+02
 21
2.72500076E+02
  0
LINE
  8
0
 62
7
 10
2.28999800E+02
 20
2.96500000E+02
 11
2.43999802E+02
 21
2.96500000E+02
  0
LINE
  8
0
 62
7
 10
2.28999800E+02
 20
2.64499985E+02
 11
2.43999802E+02
 21
2.64499985E+02
  0
LINE
  8
0
 62
7
 10
2.26999958E+02
 20
2.98500054E+02
 11
2.28999960E+02
 21
2.96500052E+02
  0
LINE
  8
0
 62
7
 10
2.54000008E+02
 20
2.69500031E+02
 11
2.43999931E+02
 21
2.69500031E+02
  0
LINE
  8
0
 62
7
 10
2.54000008E+02
 20
2.91500031E+02
 11
2.43999931E+02
 21
2.91500031E+02
  0
LINE
  8
0
 62
7
 10
2.52729794E+02
 20
2.80500015E+02
 11
2.45270077E+02
 21
2.80500015E+02
  0
LINE
  8
0
 62
7
 10
2.53999985E+02
 20
2.91500031E+02
 11
2.53999985E+02
 21
2.69500076E+02
  0
LINE
  8
0
 62
7
 10
1.60999874E+02
 20
2.90500031E+02
 11
8.59999390E+01
 21
2.90500031E+02
  0
LINE
  8
0
 62
7
 10
1.60999874E+02
 20
2.70500015E+02
 11
8.59999390E+01
 21
2.70500015E+02
  0
LINE
  8
0
 62
7
 10
2.26999792E+02
 20
2.62500088E+02
 11
2.28999784E+02
 21
2.64500079E+02
  0
LINE
  8
0
 62
7
 10
1.60999874E+02
 20
2.62500000E+02
 11
2.26999819E+02
 21
2.62500000E+02
  0
LINE
  8
0
 62
7
 10
1.60999874E+02
 20
2.98500000E+02
 11
2.26999807E+02
 21
2.98500000E+02
  0
LINE
  8
0
 62
7
 10
1.65999844E+02
 20
2.98500000E+02
 11
1.65999844E+02
 21
2.62500000E+02
  0
LINE
  8
0
 62
7
 10
-1.33999992E+02
 20
2.89000015E+02
 11
-1.33999992E+02
 21
2.72000015E+02
  0
LINE
  8
0
 62
7
 10
-1.28500053E+02
 20
2.70500046E+02
 11
-1.27000053E+02
 21
2.70500046E+02
  0
LINE
  8
0
 62
7
 10
-1.28499992E+02
 20
2.90500046E+02
 11
-1.27000023E+02
 21
2.90500046E+02
  0
LINE
  8
0
 62
7
 10
-1.39999992E+02
 20
2.71500015E+02
 11
-1.39999992E+02
 21
2.89500015E+02
  0
LINE
  8
0
 62
7
 10
-1.68999992E+02
 20
2.73000046E+02
 11
-1.68999992E+02
 21
2.87999847E+02
  0
LINE
  8
0
 62
7
 10
-1.67499992E+02
 20
2.71500015E+02
 11
-1.67499992E+02
 21
2.89500015E+02
  0
LINE
  8
0
 62
7
 10
-1.67499931E+02
 20
2.89500015E+02
 11
-1.59999992E+02
 21
2.89500015E+02
  0
LINE
  8
0
 62
2
 10
-1.68319939E+02
 20
2.88680008E+02
 11
-1.59999992E+02
 21
2.88680008E+02
  0
LINE
  8
0
 62
7
 10
-1.68999849E+02
 20
2.87999841E+02
 11
-1.67499819E+02
 21
2.89499825E+02
  0
LINE
  8
0
 62
7
 10
-1.67499931E+02
 20
2.71500031E+02
 11
-1.59999992E+02
 21
2.71500031E+02
  0
LINE
  8
0
 62
2
 10
-1.68319939E+02
 20
2.72320038E+02
 11
-1.59999992E+02
 21
2.72320038E+02
  0
LINE
  8
0
 62
7
 10
-1.69000042E+02
 20
2.73000154E+02
 11
-1.67500007E+02
 21
2.71500164E+02
  0
LINE
  8
0
 62
7
 10
-1.36999992E+02
 20
2.72000015E+02
 11
-1.36999992E+02
 21
2.89000015E+02
  0
LINE
  8
0
 62
7
 10
-1.36999992E+02
 20
2.72000015E+02
 11
-1.30000053E+02
 21
2.72000015E+02
  0
LINE
  8
0
 62
7
 10
-1.36999992E+02
 20
2.89000031E+02
 11
-1.30000053E+02
 21
2.89000031E+02
  0
LINE
  8
0
 62
7
 10
-1.30000117E+02
 20
2.72000091E+02
 11
-1.28500147E+02
 21
2.70500122E+02
  0
LINE
  8
0
 62
7
 10
-1.30000179E+02
 20
2.89000164E+02
 11
-1.28500156E+02
 21
2.90500188E+02
  0
LINE
  8
0
 62
7
 10
-1.39999992E+02
 20
2.88680008E+02
 11
-1.36999992E+02
 21
2.88680008E+02
  0
LINE
  8
0
 62
7
 10
-1.39999992E+02
 20
2.72320038E+02
 11
-1.36999992E+02
 21
2.72320038E+02
  0
ARC
  8
0
 62
7
 10
-1.26500053E+02
 20
2.64000046E+02
 40
5.00000000E-01
 50
1.79999977E+02
 51
2.69999974E+02
  0
ARC
  8
0
 62
7
 10
-1.21750114E+02
 20
2.63491470E+02
 40
2.50000000E-01
 50
1.79999977E+02
 51
2.68001132E+02
  0
ARC
  8
0
 62
7
 10
-1.11500053E+02
 20
2.44049927E+02
 40
5.00000000E-01
 50
1.79999977E+02
 51
2.68999706E+02
  0
ARC
  8
0
 62
7
 10
-1.13500023E+02
 20
2.61999985E+02
 40
5.00000000E-01
 50
1.79999977E+02
 51
2.69999974E+02
  0
ARC
  8
0
 62
7
 10
-1.26500053E+02
 20
2.96999954E+02
 40
5.00000000E-01
 50
8.99999818E+01
 51
1.79999964E+02
  0
ARC
  8
0
 62
7
 10
-1.21750114E+02
 20
2.97508530E+02
 40
2.50000000E-01
 50
9.19988230E+01
 51
1.79999977E+02
  0
ARC
  8
0
 62
7
 10
-1.11500053E+02
 20
3.16950089E+02
 40
5.00000000E-01
 50
9.10002223E+01
 51
1.79999964E+02
  0
ARC
  8
0
 62
7
 10
-1.13500023E+02
 20
2.98999985E+02
 40
5.00000000E-01
 50
8.99999818E+01
 51
1.79999964E+02
  0
CIRCLE
  8
0
 62
7
 10
-9.40001144E+01
 20
2.88500015E+02
 40
8.71000004E+00
  0
CIRCLE
  8
0
 62
7
 10
-9.40001144E+01
 20
2.88500015E+02
 40
7.44000053E+00
  0
ARC
  8
0
 62
7
 10
-1.06000023E+02
 20
3.03500015E+02
 40
2.00000000E+00
 50
8.99999818E+01
 51
1.79999964E+02
  0
ARC
  8
0
 62
7
 10
-1.06000023E+02
 20
2.57499985E+02
 40
2.00000000E+00
 50
1.79999977E+02
 51
2.70000028E+02
  0
CIRCLE
  8
0
 62
2
 10
-9.40001144E+01
 20
2.88500015E+02
 40
8.32999992E+00
  0
ARC
  8
0
 62
7
 10
5.84999619E+01
 20
3.16950089E+02
 40
5.00000000E-01
 50
5.46415133E-05
 51
8.89997964E+01
  0
ARC
  8
0
 62
7
 10
5.84999619E+01
 20
2.44049881E+02
 40
5.00000000E-01
 50
2.71000313E+02
 51
5.46415133E-05
  0
CIRCLE
  8
0
 62
7
 10
4.10000229E+01
 20
2.88500015E+02
 40
8.71000004E+00
  0
CIRCLE
  8
0
 62
7
 10
4.10000229E+01
 20
2.88500015E+02
 40
7.44000053E+00
  0
ARC
  8
0
 62
7
 10
5.29999619E+01
 20
2.57499985E+02
 40
2.00000000E+00
 50
2.70000073E+02
 51
5.46415133E-05
  0
ARC
  8
0
 62
7
 10
5.29999619E+01
 20
3.03500015E+02
 40
2.00000000E+00
 50
5.46415133E-05
 51
9.00000913E+01
  0
CIRCLE
  8
0
 62
2
 10
4.10000229E+01
 20
2.88500015E+02
 40
8.32999992E+00
  0
ARC
  8
0
 62
7
 10
3.39999924E+01
 20
2.68500000E+02
 40
5.00000000E+00
 50
0.00000000E+00
 51
1.79999964E+02
  0
ARC
  8
0
 62
7
 10
3.39999924E+01
 20
2.68500000E+02
 40
5.00000000E+00
 50
1.79999977E+02
 51
1.00179127E-05
  0
CIRCLE
  8
0
 62
7
 10
3.39999924E+01
 20
2.68500000E+02
 40
2.59999990E+00
  0
ARC
  8
0
 62
7
 10
-8.70000534E+01
 20
2.68500000E+02
 40
5.00000000E+00
 50
0.00000000E+00
 51
1.79999964E+02
  0
ARC
  8
0
 62
7
 10
-8.70000534E+01
 20
2.68500000E+02
 40
5.00000000E+00
 50
1.79999977E+02
 51
1.00179127E-05
  0
CIRCLE
  8
0
 62
7
 10
-8.70000534E+01
 20
2.68500000E+02
 40
2.59999990E+00
  0
ARC
  8
0
 62
7
 10
8.54999695E+01
 20
2.62000000E+02
 40
5.00000000E-01
 50
2.70000018E+02
 51
0.00000000E+00
  0
ARC
  8
0
 62
7
 10
8.54999695E+01
 20
2.98999985E+02
 40
5.00000000E-01
 50
0.00000000E+00
 51
8.99999818E+01
  0
ARC
  8
0
 62
7
 10
2.56542931E+02
 20
2.75000031E+02
 40
1.25430393E+01
 50
1.53992366E+02
 51
1.80000019E+02
  0
ARC
  8
0
 62
7
 10
2.56542931E+02
 20
2.75000031E+02
 40
1.25430393E+01
 50
1.80000036E+02
 51
2.06007552E+02
  0
ARC
  8
0
 62
7
 10
2.41457100E+02
 20
2.86000031E+02
 40
1.25428371E+01
 50
3.33991937E+02
 51
2.60079123E+01
  0
ARC
  8
0
 62
7
 10
2.56542931E+02
 20
2.86000031E+02
 40
1.25430393E+01
 50
1.53992448E+02
 51
1.79999964E+02
  0
ARC
  8
0
 62
7
 10
2.56542931E+02
 20
2.86000031E+02
 40
1.25430393E+01
 50
1.79999964E+02
 51
2.06007617E+02
  0
ARC
  8
0
 62
7
 10
2.41457100E+02
 20
2.75000031E+02
 40
1.25428371E+01
 50
3.33992087E+02
 51
2.60080626E+01
  0
LINE
  8
0
 62
7
 10
-1.48999992E+02
 20
2.89500015E+02
 11
-1.39999992E+02
 21
2.89500015E+02
  0
LINE
  8
0
 62
2
 10
-1.48999992E+02
 20
2.88680008E+02
 11
-1.39999992E+02
 21
2.88680008E+02
  0
LINE
  8
0
 62
7
 10
-1.48999992E+02
 20
2.71500031E+02
 11
-1.39999992E+02
 21
2.71500031E+02
  0
LINE
  8
0
 62
2
 10
-1.48999992E+02
 20
2.72320038E+02
 11
-1.39999992E+02
 21
2.72320038E+02
  0
ARC
  8
0
 62
4
 10
-1.68496385E+02
 20
2.73750000E+02
 40
1.94963929E+01
 50
3.39743842E+02
 51
2.02561580E+01
  0
ARC
  8
0
 62
4
 10
-1.68496385E+02
 20
2.87250000E+02
 40
1.94963929E+01
 50
3.39743842E+02
 51
2.02561580E+01
  0
ARC
  8
0
 62
4
 10
-1.40503599E+02
 20
2.87250000E+02
 40
1.94963929E+01
 50
1.59743842E+02
 51
2.00256158E+02
  0
ARC
  8
0
 62
4
 10
-1.40503599E+02
 20
2.73750000E+02
 40
1.94963929E+01
 50
1.59743842E+02
 51
2.00256158E+02
  0
LINE
  8
0
 62
4
 10
-1.50205764E+02
 20
2.80500000E+02
 11
-1.58794221E+02
 21
2.80500000E+02
  0
LINE
  8
0
 62
4
 10
-1.48999992E+02
 20
2.67000000E+02
 11
-1.59999992E+02
 21
2.67000000E+02
  0
LINE
  8
0
 62
4
 10
-1.48999992E+02
 20
2.94000000E+02
 11
-1.59999992E+02
 21
2.94000000E+02
  0
LINE
  8
0
 62
4
 10
-1.59999992E+02
 20
2.94000000E+02
 11
-1.59999992E+02
 21
2.67000000E+02
  0
LINE
  8
0
 62
4
 10
-1.48999992E+02
 20
2.94000000E+02
 11
-1.48999992E+02
 21
2.67000000E+02
  0
LINE
  8
0
 62
6
 10
-1.82679568E+01
 20
2.70928690E+02
 11
-2.17320584E+01
 21
2.64928690E+02
  0
LINE
  8
0
 62
4
 10
-1.00000076E+01
 20
2.69428690E+02
 11
-1.91339822E+01
 21
2.69428690E+02
  0
LINE
  8
0
  6
CENTER
 62
6
 10
2.49999924E+01
 20
2.67928690E+02
 11
-2.20000076E+01
 21
2.67928690E+02
  0
LINE
  8
0
 62
4
 10
-1.00000076E+01
 20
2.66428690E+02
 11
-2.08660330E+01
 21
2.66428690E+02
  0
LINE
  8
0
 62
6
 10
-3.07320432E+01
 20
2.90071310E+02
 11
-2.72679416E+01
 21
2.96071310E+02
  0
LINE
  8
0
 62
4
 10
-3.89999924E+01
 20
2.91571310E+02
 11
-2.98660178E+01
 21
2.91571310E+02
  0
LINE
  8
0
  6
CENTER
 62
6
 10
-7.39999924E+01
 20
2.93071310E+02
 11
-2.69999924E+01
 21
2.93071310E+02
  0
LINE
  8
0
 62
4
 10
-3.89999924E+01
 20
2.94571310E+02
 11
-2.81339670E+01
 21
2.94571310E+02
  0
LINE
  8
0
 62
4
 10
-5.00007659E-01
 20
2.42392203E+02
 11
-5.00007659E-01
 21
2.43232122E+02
  0
LINE
  8
0
 62
4
 10
3.49999234E+00
 20
2.42392203E+02
 11
3.49999234E+00
 21
2.43232122E+02
  0
LINE
  8
0
 62
6
 10
-7.65877655E-06
 20
2.41983412E+02
 11
-7.65877655E-06
 21
2.43232122E+02
  0
LINE
  8
0
 62
6
 10
2.99999234E+00
 20
2.41983412E+02
 11
2.99999234E+00
 21
2.43232122E+02
  0
LINE
  8
0
  6
CENTER
 62
6
 10
1.24999924E+01
 20
2.64544849E+02
 11
1.24999924E+01
 21
2.69544849E+02
  0
LINE
  8
0
  6
CENTER
 62
6
 10
1.49999234E+00
 20
2.37834391E+02
 11
1.49999234E+00
 21
2.48099969E+02
  0
LINE
  8
0
  6
CENTER
 62
6
 10
-6.50000766E+00
 20
2.37834391E+02
 11
-6.50000766E+00
 21
2.48099969E+02
  0
LINE
  8
0
 62
4
 10
1.99999924E+01
 20
2.55858390E+02
 11
1.99999924E+01
 21
2.68868049E+02
  0
LINE
  8
0
 62
4
 10
-1.00000076E+01
 20
2.43232122E+02
 11
-1.00000076E+01
 21
2.70598544E+02
  0
LINE
  8
0
 62
4
 10
4.99999237E+00
 20
2.43232122E+02
 11
4.99999237E+00
 21
2.55858390E+02
  0
LINE
  8
0
 62
4
 10
2.14999924E+01
 20
2.66500052E+02
 11
2.14999924E+01
 21
2.69354118E+02
  0
LINE
  8
0
 62
4
 10
4.99999237E+00
 20
2.43232122E+02
 11
-1.00000076E+01
 21
2.43232122E+02
  0
LINE
  8
0
 62
4
 10
4.99999237E+00
 20
2.51578636E+02
 11
-1.00000076E+01
 21
2.51578636E+02
  0
LINE
  8
0
 62
4
 10
1.99999924E+01
 20
2.55858390E+02
 11
-1.00000076E+01
 21
2.55858390E+02
  0
LINE
  8
0
 62
4
 10
1.99999924E+01
 20
2.65654273E+02
 11
-1.00000076E+01
 21
2.65654273E+02
  0
LINE
  8
0
 62
4
 10
1.99999924E+01
 20
2.70598544E+02
 11
8.90175995E+00
 21
2.70598544E+02
  0
POLYLINE
  8
0
 62
4
 66
1
  0
VERTEX
  8
0
 62
4
 10
-5.00007660E-01
 20
2.42392203E+02
  0
VERTEX
  8
0
 62
4
 10
-4.91956249E-01
 20
2.42336803E+02
  0
VERTEX
  8
0
 62
4
 10
-4.67866839E-01
 20
2.42281849E+02
  0
VERTEX
  8
0
 62
4
 10
-4.27933383E-01
 20
2.42227783E+02
  0
VERTEX
  8
0
 62
4
 10
-3.72477404E-01
 20
2.42175041E+02
  0
VERTEX
  8
0
 62
4
 10
-3.01945399E-01
 20
2.42124048E+02
  0
VERTEX
  8
0
 62
4
 10
-2.16905252E-01
 20
2.42075214E+02
  0
VERTEX
  8
0
 62
4
 10
-1.18041654E-01
 20
2.42028932E+02
  0
VERTEX
  8
0
 62
4
 10
-6.15059781E-03
 20
2.41985575E+02
  0
VERTEX
  8
0
 62
4
 10
1.17867036E-01
 20
2.41945491E+02
  0
VERTEX
  8
0
 62
4
 10
2.53012729E-01
 20
2.41909005E+02
  0
VERTEX
  8
0
 62
4
 10
3.98198369E-01
 20
2.41876408E+02
  0
VERTEX
  8
0
 62
4
 10
5.52255007E-01
 20
2.41847965E+02
  0
VERTEX
  8
0
 62
4
 10
7.13942268E-01
 20
2.41823904E+02
  0
VERTEX
  8
0
 62
4
 10
8.81958342E-01
 20
2.41804418E+02
  0
VERTEX
  8
0
 62
4
 10
1.05495046E+00
 20
2.41789664E+02
  0
VERTEX
  8
0
 62
4
 10
1.23152580E+00
 20
2.41779762E+02
  0
VERTEX
  8
0
 62
4
 10
1.41026267E+00
 20
2.41774791E+02
  0
VERTEX
  8
0
 62
4
 10
1.58972199E+00
 20
2.41774791E+02
  0
VERTEX
  8
0
 62
4
 10
1.76845886E+00
 20
2.41779762E+02
  0
VERTEX
  8
0
 62
4
 10
1.94503420E+00
 20
2.41789664E+02
  0
VERTEX
  8
0
 62
4
 10
2.11802632E+00
 20
2.41804418E+02
  0
VERTEX
  8
0
 62
4
 10
2.28604239E+00
 20
2.41823904E+02
  0
VERTEX
  8
0
 62
4
 10
2.44772965E+00
 20
2.41847965E+02
  0
VERTEX
  8
0
 62
4
 10
2.60178629E+00
 20
2.41876408E+02
  0
VERTEX
  8
0
 62
4
 10
2.74697193E+00
 20
2.41909005E+02
  0
VERTEX
  8
0
 62
4
 10
2.88211763E+00
 20
2.41945491E+02
  0
VERTEX
  8
0
 62
4
 10
3.00613526E+00
 20
2.41985575E+02
  0
VERTEX
  8
0
 62
4
 10
3.11802632E+00
 20
2.42028932E+02
  0
VERTEX
  8
0
 62
4
 10
3.21688992E+00
 20
2.42075214E+02
  0
VERTEX
  8
0
 62
4
 10
3.30193007E+00
 20
2.42124048E+02
  0
VERTEX
  8
0
 62
4
 10
3.37246208E+00
 20
2.42175041E+02
  0
VERTEX
  8
0
 62
4
 10
3.42791806E+00
 20
2.42227783E+02
  0
VERTEX
  8
0
 62
4
 10
3.46785151E+00
 20
2.42281849E+02
  0
VERTEX
  8
0
 62
4
 10
3.49194093E+00
 20
2.42336803E+02
  0
VERTEX
  8
0
 62
4
 10
3.49999234E+00
 20
2.42392203E+02
  0
SEQEND
  8
0
  0
LINE
  8
0
 62
4
 10
-8.50000766E+00
 20
2.42392203E+02
 11
-8.50000766E+00
 21
2.43232122E+02
  0
LINE
  8
0
 62
6
 10
-8.00000766E+00
 20
2.41983412E+02
 11
-8.00000766E+00
 21
2.43232122E+02
  0
POLYLINE
  8
0
 62
4
 66
1
  0
VERTEX
  8
0
 62
4
 10
-8.50000766E+00
 20
2.42392203E+02
  0
VERTEX
  8
0
 62
4
 10
-8.49195625E+00
 20
2.42336803E+02
  0
VERTEX
  8
0
 62
4
 10
-8.46786684E+00
 20
2.42281849E+02
  0
VERTEX
  8
0
 62
4
 10
-8.42793338E+00
 20
2.42227783E+02
  0
VERTEX
  8
0
 62
4
 10
-8.37247740E+00
 20
2.42175041E+02
  0
VERTEX
  8
0
 62
4
 10
-8.30194540E+00
 20
2.42124048E+02
  0
VERTEX
  8
0
 62
4
 10
-8.21690525E+00
 20
2.42075214E+02
  0
VERTEX
  8
0
 62
4
 10
-8.11804165E+00
 20
2.42028932E+02
  0
VERTEX
  8
0
 62
4
 10
-8.00615060E+00
 20
2.41985575E+02
  0
VERTEX
  8
0
 62
4
 10
-7.88213296E+00
 20
2.41945491E+02
  0
VERTEX
  8
0
 62
4
 10
-7.74698727E+00
 20
2.41909005E+02
  0
VERTEX
  8
0
 62
4
 10
-7.60180163E+00
 20
2.41876408E+02
  0
VERTEX
  8
0
 62
4
 10
-7.44774499E+00
 20
2.41847965E+02
  0
VERTEX
  8
0
 62
4
 10
-7.28605773E+00
 20
2.41823904E+02
  0
VERTEX
  8
0
 62
4
 10
-7.11804166E+00
 20
2.41804418E+02
  0
VERTEX
  8
0
 62
4
 10
-6.94504954E+00
 20
2.41789664E+02
  0
VERTEX
  8
0
 62
4
 10
-6.76847420E+00
 20
2.41779762E+02
  0
VERTEX
  8
0
 62
4
 10
-6.58973733E+00
 20
2.41774791E+02
  0
VERTEX
  8
0
 62
4
 10
-6.41027801E+00
 20
2.41774791E+02
  0
VERTEX
  8
0
 62
4
 10
-6.23154114E+00
 20
2.41779762E+02
  0
VERTEX
  8
0
 62
4
 10
-6.05496580E+00
 20
2.41789664E+02
  0
VERTEX
  8
0
 62
4
 10
-5.88197368E+00
 20
2.41804418E+02
  0
VERTEX
  8
0
 62
4
 10
-5.71395761E+00
 20
2.41823904E+02
  0
VERTEX
  8
0
 62
4
 10
-5.55227035E+00
 20
2.41847965E+02
  0
VERTEX
  8
0
 62
4
 10
-5.39821371E+00
 20
2.41876408E+02
  0
VERTEX
  8
0
 62
4
 10
-5.25302807E+00
 20
2.41909005E+02
  0
VERTEX
  8
0
 62
4
 10
-5.11788237E+00
 20
2.41945491E+02
  0
VERTEX
  8
0
 62
4
 10
-4.99386474E+00
 20
2.41985575E+02
  0
VERTEX
  8
0
 62
4
 10
-4.88197368E+00
 20
2.42028932E+02
  0
VERTEX
  8
0
 62
4
 10
-4.78311008E+00
 20
2.42075214E+02
  0
VERTEX
  8
0
 62
4
 10
-4.69806993E+00
 20
2.42124048E+02
  0
VERTEX
  8
0
 62
4
 10
-4.62753792E+00
 20
2.42175041E+02
  0
VERTEX
  8
0
 62
4
 10
-4.57208194E+00
 20
2.42227783E+02
  0
VERTEX
  8
0
 62
4
 10
-4.53214849E+00
 20
2.42281849E+02
  0
VERTEX
  8
0
 62
4
 10
-4.50805907E+00
 20
2.42336803E+02
  0
VERTEX
  8
0
 62
4
 10
-4.50000766E+00
 20
2.42392203E+02
  0
SEQEND
  8
0
  0
LINE
  8
0
 62
4
 10
-4.50000766E+00
 20
2.42392203E+02
 11
-4.50000766E+00
 21
2.43232122E+02
  0
LINE
  8
0
 62
6
 10
-5.00000766E+00
 20
2.41983412E+02
 11
-5.00000766E+00
 21
2.43232122E+02
  0
LINE
  8
0
 62
4
 10
1.99999924E+01
 20
2.65408543E+02
 11
2.14999924E+01
 21
2.66500052E+02
  0
LINE
  8
0
 62
4
 10
2.14999924E+01
 20
2.68654195E+02
 11
1.99999924E+01
 21
2.69212769E+02
  0
LINE
  8
0
 62
4
 10
1.99999924E+01
 20
2.70448837E+02
 11
2.14999924E+01
 21
2.69354118E+02
  0
LINE
  8
0
 62
4
 10
1.99999924E+01
 20
2.68868049E+02
 11
9.14999239E+00
 21
2.68868049E+02
  0
LINE
  8
0
 62
4
 10
-5.56560573E+00
 20
2.70289527E+02
 11
-1.00000076E+01
 21
2.70289527E+02
  0
LINE
  8
0
 62
4
 10
1.99999924E+01
 20
2.69212769E+02
 11
9.14999239E+00
 21
2.69212769E+02
  0
LINE
  8
0
 62
4
 10
1.99999924E+01
 20
2.70448837E+02
 11
9.04460764E+00
 21
2.70448837E+02
  0
LINE
  8
0
 62
4
 10
1.99999924E+01
 20
2.68868049E+02
 11
1.99999924E+01
 21
2.70448837E+02
  0
LINE
  8
0
 62
4
 10
1.99999924E+01
 20
2.70448837E+02
 11
1.99999924E+01
 21
2.70598544E+02
  0
ARC
  8
0
 62
4
 10
-1.00007307E-01
 20
2.69543217E+02
 40
1.00000000E+00
 50
3.60000000E+02
 51
7.71724899E+01
  0
ARC
  8
0
 62
4
 10
-4.90000795E+00
 20
2.69543217E+02
 40
1.00000000E+00
 50
1.02827510E+02
 51
1.80000000E+02
  0
ARC
  8
0
 62
4
 10
-2.50000763E+00
 20
2.59003003E+02
 40
1.18100000E+01
 50
7.71724899E+01
 51
1.02827510E+02
  0
LINE
  8
0
 62
4
 10
9.14999239E+00
 20
2.70161669E+02
 11
9.14999239E+00
 21
2.68487810E+02
  0
LINE
  8
0
 62
4
 10
8.49992385E-01
 20
2.70161669E+02
 11
8.49992385E-01
 21
2.69855468E+02
  0
POLYLINE
  8
0
 62
4
 66
1
  0
VERTEX
  8
0
 62
4
 10
1.29999238E+00
 20
2.67907014E+02
  0
VERTEX
  8
0
 62
4
 10
1.48180736E+00
 20
2.67807630E+02
  0
VERTEX
  8
0
 62
4
 10
1.69150461E+00
 20
2.67713637E+02
  0
VERTEX
  8
0
 62
4
 10
1.92742225E+00
 20
2.67625779E+02
  0
VERTEX
  8
0
 62
4
 10
2.18769057E+00
 20
2.67544753E+02
  0
VERTEX
  8
0
 62
4
 10
2.47024691E+00
 20
2.67471201E+02
  0
VERTEX
  8
0
 62
4
 10
2.77285196E+00
 20
2.67405706E+02
  0
VERTEX
  8
0
 62
4
 10
3.09310751E+00
 20
2.67348786E+02
  0
VERTEX
  8
0
 62
4
 10
3.42847548E+00
 20
2.67300894E+02
  0
VERTEX
  8
0
 62
4
 10
3.77629801E+00
 20
2.67262408E+02
  0
VERTEX
  8
0
 62
4
 10
4.13381855E+00
 20
2.67233633E+02
  0
VERTEX
  8
0
 62
4
 10
4.49820367E+00
 20
2.67214798E+02
  0
VERTEX
  8
0
 62
4
 10
4.86656557E+00
 20
2.67206052E+02
  0
VERTEX
  8
0
 62
4
 10
5.23598489E+00
 20
2.67207465E+02
  0
VERTEX
  8
0
 62
4
 10
5.60353394E+00
 20
2.67219024E+02
  0
VERTEX
  8
0
 62
4
 10
5.96629980E+00
 20
2.67240638E+02
  0
VERTEX
  8
0
 62
4
 10
6.32140750E+00
 20
2.67272137E+02
  0
VERTEX
  8
0
 62
4
 10
6.66604273E+00
 20
2.67313270E+02
  0
VERTEX
  8
0
 62
4
 10
6.99747421E+00
 20
2.67363711E+02
  0
VERTEX
  8
0
 62
4
 10
7.31307527E+00
 20
2.67423062E+02
  0
VERTEX
  8
0
 62
4
 10
7.61034472E+00
 20
2.67490850E+02
  0
VERTEX
  8
0
 62
4
 10
7.88692663E+00
 20
2.67566540E+02
  0
VERTEX
  8
0
 62
4
 10
8.14062906E+00
 20
2.67649531E+02
  0
VERTEX
  8
0
 62
4
 10
8.36944135E+00
 20
2.67739165E+02
  0
VERTEX
  8
0
 62
4
 10
8.57155014E+00
 20
2.67834732E+02
  0
VERTEX
  8
0
 62
4
 10
8.74535366E+00
 20
2.67935476E+02
  0
VERTEX
  8
0
 62
4
 10
8.88947450E+00
 20
2.68040596E+02
  0
VERTEX
  8
0
 62
4
 10
9.00277046E+00
 20
2.68149261E+02
  0
VERTEX
  8
0
 62
4
 10
9.08434366E+00
 20
2.68260609E+02
  0
VERTEX
  8
0
 62
4
 10
9.13354762E+00
 20
2.68373758E+02
  0
VERTEX
  8
0
 62
4
 10
9.14999238E+00
 20
2.68487810E+02
  0
SEQEND
  8
0
  0
POLYLINE
  8
0
 62
4
 66
1
  0
VERTEX
  8
0
 62
4
 10
9.14999238E+00
 20
2.70161669E+02
  0
VERTEX
  8
0
 62
4
 10
9.13420038E+00
 20
2.70273439E+02
  0
VERTEX
  8
0
 62
4
 10
9.08694455E+00
 20
2.70384359E+02
  0
VERTEX
  8
0
 62
4
 10
9.00858456E+00
 20
2.70493584E+02
  0
VERTEX
  8
0
 62
4
 10
8.89971676E+00
 20
2.70600283E+02
  0
VERTEX
  8
0
 62
4
 10
8.76116969E+00
 20
2.70703643E+02
  0
VERTEX
  8
0
 62
4
 10
8.59399780E+00
 20
2.70802879E+02
  0
VERTEX
  8
0
 62
4
 10
8.39947336E+00
 20
2.70897235E+02
  0
VERTEX
  8
0
 62
4
 10
8.17907682E+00
 20
2.70985993E+02
  0
VERTEX
  8
0
 62
4
 10
7.93448552E+00
 20
2.71068477E+02
  0
VERTEX
  8
0
 62
4
 10
7.66756096E+00
 20
2.71144060E+02
  0
VERTEX
  8
0
 62
4
 10
7.38033459E+00
 20
2.71212166E+02
  0
VERTEX
  8
0
 62
4
 10
7.07499237E+00
 20
2.71272278E+02
  0
VERTEX
  8
0
 62
4
 10
6.75385816E+00
 20
2.71323937E+02
  0
VERTEX
  8
0
 62
4
 10
6.41937597E+00
 20
2.71366750E+02
  0
VERTEX
  8
0
 62
4
 10
6.07409141E+00
 20
2.71400392E+02
  0
VERTEX
  8
0
 62
4
 10
5.72063231E+00
 20
2.71424607E+02
  0
VERTEX
  8
0
 62
4
 10
5.36168870E+00
 20
2.71439210E+02
  0
VERTEX
  8
0
 62
4
 10
4.99999237E+00
 20
2.71444090E+02
  0
VERTEX
  8
0
 62
4
 10
4.63829603E+00
 20
2.71439210E+02
  0
VERTEX
  8
0
 62
4
 10
4.27935243E+00
 20
2.71424607E+02
  0
VERTEX
  8
0
 62
4
 10
3.92589333E+00
 20
2.71400392E+02
  0
VERTEX
  8
0
 62
4
 10
3.58060877E+00
 20
2.71366750E+02
  0
VERTEX
  8
0
 62
4
 10
3.24612658E+00
 20
2.71323937E+02
  0
VERTEX
  8
0
 62
4
 10
2.92499236E+00
 20
2.71272278E+02
  0
VERTEX
  8
0
 62
4
 10
2.61965015E+00
 20
2.71212166E+02
  0
VERTEX
  8
0
 62
4
 10
2.33242378E+00
 20
2.71144060E+02
  0
VERTEX
  8
0
 62
4
 10
2.06549922E+00
 20
2.71068477E+02
  0
VERTEX
  8
0
 62
4
 10
1.82090792E+00
 20
2.70985993E+02
  0
VERTEX
  8
0
 62
4
 10
1.60051138E+00
 20
2.70897235E+02
  0
VERTEX
  8
0
 62
4
 10
1.40598693E+00
 20
2.70802879E+02
  0
VERTEX
  8
0
 62
4
 10
1.23881504E+00
 20
2.70703643E+02
  0
VERTEX
  8
0
 62
4
 10
1.10026798E+00
 20
2.70600283E+02
  0
VERTEX
  8
0
 62
4
 10
9.91400180E-01
 20
2.70493584E+02
  0
VERTEX
  8
0
 62
4
 10
9.13040184E-01
 20
2.70384359E+02
  0
VERTEX
  8
0
 62
4
 10
8.65784362E-01
 20
2.70273439E+02
  0
VERTEX
  8
0
 62
4
 10
8.49992360E-01
 20
2.70161669E+02
  0
VERTEX
  8
0
 62
4
 10
8.65784363E-01
 20
2.70049899E+02
  0
VERTEX
  8
0
 62
4
 10
9.13040186E-01
 20
2.69938979E+02
  0
VERTEX
  8
0
 62
4
 10
9.91400183E-01
 20
2.69829754E+02
  0
VERTEX
  8
0
 62
4
 10
1.10026799E+00
 20
2.69723055E+02
  0
VERTEX
  8
0
 62
4
 10
1.23881505E+00
 20
2.69619695E+02
  0
VERTEX
  8
0
 62
4
 10
1.40598694E+00
 20
2.69520459E+02
  0
VERTEX
  8
0
 62
4
 10
1.60051138E+00
 20
2.69426103E+02
  0
VERTEX
  8
0
 62
4
 10
1.82090793E+00
 20
2.69337345E+02
  0
VERTEX
  8
0
 62
4
 10
2.06549923E+00
 20
2.69254861E+02
  0
VERTEX
  8
0
 62
4
 10
2.33242379E+00
 20
2.69179278E+02
  0
VERTEX
  8
0
 62
4
 10
2.61965016E+00
 20
2.69111172E+02
  0
VERTEX
  8
0
 62
4
 10
2.92499237E+00
 20
2.69051060E+02
  0
VERTEX
  8
0
 62
4
 10
3.24612659E+00
 20
2.68999401E+02
  0
VERTEX
  8
0
 62
4
 10
3.58060878E+00
 20
2.68956588E+02
  0
VERTEX
  8
0
 62
4
 10
3.92589334E+00
 20
2.68922946E+02
  0
VERTEX
  8
0
 62
4
 10
4.27935244E+00
 20
2.68898731E+02
  0
VERTEX
  8
0
 62
4
 10
4.63829605E+00
 20
2.68884128E+02
  0
VERTEX
  8
0
 62
4
 10
4.99999238E+00
 20
2.68879249E+02
  0
VERTEX
  8
0
 62
4
 10
5.36168871E+00
 20
2.68884128E+02
  0
VERTEX
  8
0
 62
4
 10
5.72063232E+00
 20
2.68898731E+02
  0
VERTEX
  8
0
 62
4
 10
6.07409142E+00
 20
2.68922946E+02
  0
VERTEX
  8
0
 62
4
 10
6.41937598E+00
 20
2.68956588E+02
  0
VERTEX
  8
0
 62
4
 10
6.75385817E+00
 20
2.68999401E+02
  0
VERTEX
  8
0
 62
4
 10
7.07499238E+00
 20
2.69051060E+02
  0
VERTEX
  8
0
 62
4
 10
7.38033459E+00
 20
2.69111172E+02
  0
VERTEX
  8
0
 62
4
 10
7.66756096E+00
 20
2.69179278E+02
  0
VERTEX
  8
0
 62
4
 10
7.93448553E+00
 20
2.69254861E+02
  0
VERTEX
  8
0
 62
4
 10
8.17907682E+00
 20
2.69337345E+02
  0
VERTEX
  8
0
 62
4
 10
8.39947337E+00
 20
2.69426103E+02
  0
VERTEX
  8
0
 62
4
 10
8.59399781E+00
 20
2.69520459E+02
  0
VERTEX
  8
0
 62
4
 10
8.76116970E+00
 20
2.69619695E+02
  0
VERTEX
  8
0
 62
4
 10
8.89971676E+00
 20
2.69723055E+02
  0
VERTEX
  8
0
 62
4
 10
9.00858456E+00
 20
2.69829754E+02
  0
VERTEX
  8
0
 62
4
 10
9.08694456E+00
 20
2.69938979E+02
  0
VERTEX
  8
0
 62
4
 10
9.13420038E+00
 20
2.70049899E+02
  0
VERTEX
  8
0
 62
4
 10
9.14999238E+00
 20
2.70161669E+02
  0
SEQEND
  8
0
  0
LINE
  8
0
 62
4
 10
8.99999237E+00
 20
2.68146140E+02
 11
8.99999237E+00
 21
2.68126408E+02
  0
POLYLINE
  8
0
 62
4
 66
1
  0
VERTEX
  8
0
 62
4
 10
1.29999238E+00
 20
2.67656743E+02
  0
VERTEX
  8
0
 62
4
 10
1.44930035E+00
 20
2.67557230E+02
  0
VERTEX
  8
0
 62
4
 10
1.62656903E+00
 20
2.67462200E+02
  0
VERTEX
  8
0
 62
4
 10
1.83040248E+00
 20
2.67372400E+02
  0
VERTEX
  8
0
 62
4
 10
2.05919557E+00
 20
2.67288538E+02
  0
VERTEX
  8
0
 62
4
 10
2.31114662E+00
 20
2.67211274E+02
  0
VERTEX
  8
0
 62
4
 10
2.58427158E+00
 20
2.67141216E+02
  0
VERTEX
  8
0
 62
4
 10
2.87641967E+00
 20
2.67078916E+02
  0
VERTEX
  8
0
 62
4
 10
3.18529030E+00
 20
2.67024865E+02
  0
VERTEX
  8
0
 62
4
 10
3.50845121E+00
 20
2.66979488E+02
  0
VERTEX
  8
0
 62
4
 10
3.84335758E+00
 20
2.66943143E+02
  0
VERTEX
  8
0
 62
4
 10
4.18737214E+00
 20
2.66916116E+02
  0
VERTEX
  8
0
 62
4
 10
4.53778585E+00
 20
2.66898620E+02
  0
VERTEX
  8
0
 62
4
 10
4.89183931E+00
 20
2.66890792E+02
  0
VERTEX
  8
0
 62
4
 10
5.24674445E+00
 20
2.66892694E+02
  0
VERTEX
  8
0
 62
4
 10
5.59970648E+00
 20
2.66904311E+02
  0
VERTEX
  8
0
 62
4
 10
5.94794594E+00
 20
2.66925553E+02
  0
VERTEX
  8
0
 62
4
 10
6.28872052E+00
 20
2.66956250E+02
  0
VERTEX
  8
0
 62
4
 10
6.61934672E+00
 20
2.66996162E+02
  0
VERTEX
  8
0
 62
4
 10
6.93722096E+00
 20
2.67044975E+02
  0
VERTEX
  8
0
 62
4
 10
7.23984006E+00
 20
2.67102303E+02
  0
VERTEX
  8
0
 62
4
 10
7.52482099E+00
 20
2.67167696E+02
  0
VERTEX
  8
0
 62
4
 10
7.78991959E+00
 20
2.67240639E+02
  0
VERTEX
  8
0
 62
4
 10
8.03304830E+00
 20
2.67320556E+02
  0
VERTEX
  8
0
 62
4
 10
8.25229253E+00
 20
2.67406820E+02
  0
VERTEX
  8
0
 62
4
 10
8.44592580E+00
 20
2.67498750E+02
  0
VERTEX
  8
0
 62
4
 10
8.61242330E+00
 20
2.67595623E+02
  0
VERTEX
  8
0
 62
4
 10
8.75047392E+00
 20
2.67696676E+02
  0
VERTEX
  8
0
 62
4
 10
8.85899054E+00
 20
2.67801112E+02
  0
VERTEX
  8
0
 62
4
 10
8.93711862E+00
 20
2.67908111E+02
  0
VERTEX
  8
0
 62
4
 10
8.98424293E+00
 20
2.68016828E+02
  0
VERTEX
  8
0
 62
4
 10
8.99999237E+00
 20
2.68126408E+02
  0
SEQEND
  8
0
  0
ARC
  8
0
 62
4
 10
9.18761442E+00
 20
2.57173172E+02
 40
1.43299558E+01
 50
9.97219440E+01
 51
1.14556488E+02
  0
ARC
  8
0
 62
4
 10
8.12368852E-01
 20
2.57173167E+02
 40
1.43299613E+01
 50
6.54435144E+01
 51
8.02780535E+01
  0
LINE
  8
0
 62
4
 10
1.29999237E+00
 20
2.67995906E+02
 11
1.29999237E+00
 21
2.67044849E+02
  0
POLYLINE
  8
0
 62
4
 66
1
  0
VERTEX
  8
0
 62
4
 10
-6.30000763E+00
 20
2.67044849E+02
  0
VERTEX
  8
0
 62
4
 10
-6.28470995E+00
 20
2.66939589E+02
  0
VERTEX
  8
0
 62
4
 10
-6.23894007E+00
 20
2.66835176E+02
  0
VERTEX
  8
0
 62
4
 10
-6.16306650E+00
 20
2.66732451E+02
  0
VERTEX
  8
0
 62
4
 10
-6.05770014E+00
 20
2.66632242E+02
  0
VERTEX
  8
0
 62
4
 10
-5.92368933E+00
 20
2.66535355E+02
  0
VERTEX
  8
0
 62
4
 10
-5.76211305E+00
 20
2.66442570E+02
  0
VERTEX
  8
0
 62
4
 10
-5.57427222E+00
 20
2.66354634E+02
  0
VERTEX
  8
0
 62
4
 10
-5.36167921E+00
 20
2.66272255E+02
  0
VERTEX
  8
0
 62
4
 10
-5.12604571E+00
 20
2.66196097E+02
  0
VERTEX
  8
0
 62
4
 10
-4.86926889E+00
 20
2.66126772E+02
  0
VERTEX
  8
0
 62
4
 10
-4.59341617E+00
 20
2.66064839E+02
  0
VERTEX
  8
0
 62
4
 10
-4.30070856E+00
 20
2.66010797E+02
  0
VERTEX
  8
0
 62
4
 10
-3.99350277E+00
 20
2.65965080E+02
  0
VERTEX
  8
0
 62
4
 10
-3.67427223E+00
 20
2.65928057E+02
  0
VERTEX
  8
0
 62
4
 10
-3.34558720E+00
 20
2.65900026E+02
  0
VERTEX
  8
0
 62
4
 10
-3.01009406E+00
 20
2.65881212E+02
  0
VERTEX
  8
0
 62
4
 10
-2.67049401E+00
 20
2.65871767E+02
  0
VERTEX
  8
0
 62
4
 10
-2.32952130E+00
 20
2.65871767E+02
  0
VERTEX
  8
0
 62
4
 10
-1.98992124E+00
 20
2.65881212E+02
  0
VERTEX
  8
0
 62
4
 10
-1.65442810E+00
 20
2.65900026E+02
  0
VERTEX
  8
0
 62
4
 10
-1.32574307E+00
 20
2.65928057E+02
  0
VERTEX
  8
0
 62
4
 10
-1.00651253E+00
 20
2.65965080E+02
  0
VERTEX
  8
0
 62
4
 10
-6.99306733E-01
 20
2.66010797E+02
  0
VERTEX
  8
0
 62
4
 10
-4.06599120E-01
 20
2.66064839E+02
  0
VERTEX
  8
0
 62
4
 10
-1.30746401E-01
 20
2.66126772E+02
  0
VERTEX
  8
0
 62
4
 10
1.26030419E-01
 20
2.66196097E+02
  0
VERTEX
  8
0
 62
4
 10
3.61663925E-01
 20
2.66272255E+02
  0
VERTEX
  8
0
 62
4
 10
5.74256934E-01
 20
2.66354634E+02
  0
VERTEX
  8
0
 62
4
 10
7.62097773E-01
 20
2.66442570E+02
  0
VERTEX
  8
0
 62
4
 10
9.23674057E-01
 20
2.66535355E+02
  0
VERTEX
  8
0
 62
4
 10
1.05768487E+00
 20
2.66632242E+02
  0
VERTEX
  8
0
 62
4
 10
1.16305123E+00
 20
2.66732451E+02
  0
VERTEX
  8
0
 62
4
 10
1.23892480E+00
 20
2.66835176E+02
  0
VERTEX
  8
0
 62
4
 10
1.28469468E+00
 20
2.66939589E+02
  0
VERTEX
  8
0
 62
4
 10
1.29999237E+00
 20
2.67044849E+02
  0
SEQEND
  8
0
  0
POLYLINE
  8
0
 62
4
 66
1
  0
VERTEX
  8
0
 62
4
 10
-5.90000764E+00
 20
2.68520325E+02
  0
VERTEX
  8
0
 62
4
 10
-6.03658930E+00
 20
2.68425494E+02
  0
VERTEX
  8
0
 62
4
 10
-6.14553717E+00
 20
2.68327306E+02
  0
VERTEX
  8
0
 62
4
 10
-6.22599995E+00
 20
2.68226529E+02
  0
VERTEX
  8
0
 62
4
 10
-6.27734893E+00
 20
2.68123950E+02
  0
VERTEX
  8
0
 62
4
 10
-6.29918288E+00
 20
2.68020370E+02
  0
VERTEX
  8
0
 62
4
 10
-6.29133121E+00
 20
2.67916599E+02
  0
VERTEX
  8
0
 62
4
 10
-6.25385526E+00
 20
2.67813448E+02
  0
VERTEX
  8
0
 62
4
 10
-6.18704785E+00
 20
2.67711722E+02
  0
VERTEX
  8
0
 62
4
 10
-6.09143101E+00
 20
2.67612217E+02
  0
VERTEX
  8
0
 62
4
 10
-5.96775185E+00
 20
2.67515710E+02
  0
VERTEX
  8
0
 62
4
 10
-5.81697677E+00
 20
2.67422955E+02
  0
VERTEX
  8
0
 62
4
 10
-5.64028387E+00
 20
2.67334677E+02
  0
VERTEX
  8
0
 62
4
 10
-5.43905379E+00
 20
2.67251566E+02
  0
VERTEX
  8
0
 62
4
 10
-5.21485887E+00
 20
2.67174270E+02
  0
VERTEX
  8
0
 62
4
 10
-4.96945091E+00
 20
2.67103395E+02
  0
VERTEX
  8
0
 62
4
 10
-4.70474745E+00
 20
2.67039494E+02
  0
VERTEX
  8
0
 62
4
 10
-4.42281681E+00
 20
2.66983065E+02
  0
VERTEX
  8
0
 62
4
 10
-4.12586191E+00
 20
2.66934551E+02
  0
VERTEX
  8
0
 62
4
 10
-3.81620307E+00
 20
2.66894330E+02
  0
VERTEX
  8
0
 62
4
 10
-3.49625986E+00
 20
2.66862716E+02
  0
VERTEX
  8
0
 62
4
 10
-3.16853224E+00
 20
2.66839956E+02
  0
VERTEX
  8
0
 62
4
 10
-2.83558096E+00
 20
2.66826229E+02
  0
VERTEX
  8
0
 62
4
 10
-2.50000761E+00
 20
2.66821641E+02
  0
VERTEX
  8
0
 62
4
 10
-2.16443426E+00
 20
2.66826229E+02
  0
VERTEX
  8
0
 62
4
 10
-1.83148299E+00
 20
2.66839956E+02
  0
VERTEX
  8
0
 62
4
 10
-1.50375536E+00
 20
2.66862716E+02
  0
VERTEX
  8
0
 62
4
 10
-1.18381216E+00
 20
2.66894330E+02
  0
VERTEX
  8
0
 62
4
 10
-8.74153316E-01
 20
2.66934551E+02
  0
VERTEX
  8
0
 62
4
 10
-5.77198416E-01
 20
2.66983065E+02
  0
VERTEX
  8
0
 62
4
 10
-2.95267777E-01
 20
2.67039494E+02
  0
VERTEX
  8
0
 62
4
 10
-3.05643209E-02
 20
2.67103395E+02
  0
VERTEX
  8
0
 62
4
 10
2.14843637E-01
 20
2.67174270E+02
  0
VERTEX
  8
0
 62
4
 10
4.39038553E-01
 20
2.67251566E+02
  0
VERTEX
  8
0
 62
4
 10
6.40268634E-01
 20
2.67334677E+02
  0
VERTEX
  8
0
 62
4
 10
8.16961528E-01
 20
2.67422955E+02
  0
VERTEX
  8
0
 62
4
 10
9.67736608E-01
 20
2.67515710E+02
  0
VERTEX
  8
0
 62
4
 10
1.09141576E+00
 20
2.67612217E+02
  0
VERTEX
  8
0
 62
4
 10
1.18703260E+00
 20
2.67711722E+02
  0
VERTEX
  8
0
 62
4
 10
1.25384000E+00
 20
2.67813448E+02
  0
VERTEX
  8
0
 62
4
 10
1.29131595E+00
 20
2.67916599E+02
  0
VERTEX
  8
0
 62
4
 10
1.29916762E+00
 20
2.68020370E+02
  0
VERTEX
  8
0
 62
4
 10
1.27733366E+00
 20
2.68123950E+02
  0
VERTEX
  8
0
 62
4
 10
1.22598468E+00
 20
2.68226529E+02
  0
VERTEX
  8
0
 62
4
 10
1.14552190E+00
 20
2.68327306E+02
  0
VERTEX
  8
0
 62
4
 10
1.03657403E+00
 20
2.68425494E+02
  0
VERTEX
  8
0
 62
4
 10
8.99992362E-01
 20
2.68520325E+02
  0
SEQEND
  8
0
  0
LINE
  8
0
 62
4
 10
-6.30000763E+00
 20
2.67995906E+02
 11
-6.30000763E+00
 21
2.67044849E+02
  0
LINE
  8
0
 62
4
 10
8.99992371E-01
 20
2.69543217E+02
 11
8.99992371E-01
 21
2.67995906E+02
  0
POLYLINE
  8
0
 62
4
 66
1
  0
VERTEX
  8
0
 62
4
 10
-5.90000763E+00
 20
2.67995906E+02
  0
VERTEX
  8
0
 62
4
 10
-5.88632023E+00
 20
2.67901726E+02
  0
VERTEX
  8
0
 62
4
 10
-5.84536823E+00
 20
2.67808304E+02
  0
VERTEX
  8
0
 62
4
 10
-5.77748136E+00
 20
2.67716392E+02
  0
VERTEX
  8
0
 62
4
 10
-5.68320619E+00
 20
2.67626731E+02
  0
VERTEX
  8
0
 62
4
 10
-5.56330179E+00
 20
2.67540043E+02
  0
VERTEX
  8
0
 62
4
 10
-5.41873354E+00
 20
2.67457024E+02
  0
VERTEX
  8
0
 62
4
 10
-5.25066542E+00
 20
2.67378345E+02
  0
VERTEX
  8
0
 62
4
 10
-5.06045062E+00
 20
2.67304638E+02
  0
VERTEX
  8
0
 62
4
 10
-4.84962065E+00
 20
2.67236496E+02
  0
VERTEX
  8
0
 62
4
 10
-4.61987297E+00
 20
2.67174469E+02
  0
VERTEX
  8
0
 62
4
 10
-4.37305738E+00
 20
2.67119055E+02
  0
VERTEX
  8
0
 62
4
 10
-4.11116110E+00
 20
2.67070701E+02
  0
VERTEX
  8
0
 62
4
 10
-3.83629275E+00
 20
2.67029797E+02
  0
VERTEX
  8
0
 62
4
 10
-3.55066543E+00
 20
2.66996671E+02
  0
VERTEX
  8
0
 62
4
 10
-3.25657882E+00
 20
2.66971590E+02
  0
VERTEX
  8
0
 62
4
 10
-2.95640075E+00
 20
2.66954757E+02
  0
VERTEX
  8
0
 62
4
 10
-2.65254807E+00
 20
2.66946306E+02
  0
VERTEX
  8
0
 62
4
 10
-2.34746723E+00
 20
2.66946306E+02
  0
VERTEX
  8
0
 62
4
 10
-2.04361454E+00
 20
2.66954757E+02
  0
VERTEX
  8
0
 62
4
 10
-1.74343647E+00
 20
2.66971590E+02
  0
VERTEX
  8
0
 62
4
 10
-1.44934987E+00
 20
2.66996671E+02
  0
VERTEX
  8
0
 62
4
 10
-1.16372254E+00
 20
2.67029797E+02
  0
VERTEX
  8
0
 62
4
 10
-8.88854195E-01
 20
2.67070701E+02
  0
VERTEX
  8
0
 62
4
 10
-6.26957910E-01
 20
2.67119055E+02
  0
VERTEX
  8
0
 62
4
 10
-3.80142320E-01
 20
2.67174469E+02
  0
VERTEX
  8
0
 62
4
 10
-1.50394639E-01
 20
2.67236496E+02
  0
VERTEX
  8
0
 62
4
 10
6.04353402E-02
 20
2.67304638E+02
  0
VERTEX
  8
0
 62
4
 10
2.50650138E-01
 20
2.67378345E+02
  0
VERTEX
  8
0
 62
4
 10
4.18718257E-01
 20
2.67457024E+02
  0
VERTEX
  8
0
 62
4
 10
5.63286511E-01
 20
2.67540043E+02
  0
VERTEX
  8
0
 62
4
 10
6.83190922E-01
 20
2.67626731E+02
  0
VERTEX
  8
0
 62
4
 10
7.77466090E-01
 20
2.67716392E+02
  0
VERTEX
  8
0
 62
4
 10
8.45352967E-01
 20
2.67808304E+02
  0
VERTEX
  8
0
 62
4
 10
8.86304967E-01
 20
2.67901726E+02
  0
VERTEX
  8
0
 62
4
 10
8.99992370E-01
 20
2.67995906E+02
  0
SEQEND
  8
0
  0
LINE
  8
0
 62
4
 10
-5.90000763E+00
 20
2.69543217E+02
 11
-5.90000763E+00
 21
2.67995906E+02
  0
POLYLINE
  8
0
 62
4
 66
1
  0
VERTEX
  8
0
 62
4
 10
-5.90000763E+00
 20
2.69543211E+02
  0
VERTEX
  8
0
 62
4
 10
-5.88631840E+00
 20
2.69449030E+02
  0
VERTEX
  8
0
 62
4
 10
-5.84536459E+00
 20
2.69355609E+02
  0
VERTEX
  8
0
 62
4
 10
-5.77747593E+00
 20
2.69263697E+02
  0
VERTEX
  8
0
 62
4
 10
-5.68319903E+00
 20
2.69174036E+02
  0
VERTEX
  8
0
 62
4
 10
-5.56329294E+00
 20
2.69087348E+02
  0
VERTEX
  8
0
 62
4
 10
-5.41872307E+00
 20
2.69004330E+02
  0
VERTEX
  8
0
 62
4
 10
-5.25065343E+00
 20
2.68925651E+02
  0
VERTEX
  8
0
 62
4
 10
-5.06043720E+00
 20
2.68851944E+02
  0
VERTEX
  8
0
 62
4
 10
-4.84960590E+00
 20
2.68783803E+02
  0
VERTEX
  8
0
 62
4
 10
-4.61985702E+00
 20
2.68721776E+02
  0
VERTEX
  8
0
 62
4
 10
-4.37304035E+00
 20
2.68666363E+02
  0
VERTEX
  8
0
 62
4
 10
-4.11114313E+00
 20
2.68618009E+02
  0
VERTEX
  8
0
 62
4
 10
-3.83627399E+00
 20
2.68577106E+02
  0
VERTEX
  8
0
 62
4
 10
-3.55064603E+00
 20
2.68543980E+02
  0
VERTEX
  8
0
 62
4
 10
-3.25655893E+00
 20
2.68518900E+02
  0
VERTEX
  8
0
 62
4
 10
-2.95638054E+00
 20
2.68502067E+02
  0
VERTEX
  8
0
 62
4
 10
-2.65252769E+00
 20
2.68493617E+02
  0
VERTEX
  8
0
 62
4
 10
-2.34744685E+00
 20
2.68493617E+02
  0
VERTEX
  8
0
 62
4
 10
-2.04359433E+00
 20
2.68502069E+02
  0
VERTEX
  8
0
 62
4
 10
-1.74341658E+00
 20
2.68518903E+02
  0
VERTEX
  8
0
 62
4
 10
-1.44933047E+00
 20
2.68543984E+02
  0
VERTEX
  8
0
 62
4
 10
-1.16370378E+00
 20
2.68577110E+02
  0
VERTEX
  8
0
 62
4
 10
-8.88836231E-01
 20
2.68618015E+02
  0
VERTEX
  8
0
 62
4
 10
-6.26940885E-01
 20
2.68666370E+02
  0
VERTEX
  8
0
 62
4
 10
-3.80126371E-01
 20
2.68721784E+02
  0
VERTEX
  8
0
 62
4
 10
-1.50379894E-01
 20
2.68783811E+02
  0
VERTEX
  8
0
 62
4
 10
6.04487621E-02
 20
2.68851953E+02
  0
VERTEX
  8
0
 62
4
 10
2.50662129E-01
 20
2.68925661E+02
  0
VERTEX
  8
0
 62
4
 10
4.18728720E-01
 20
2.69004341E+02
  0
VERTEX
  8
0
 62
4
 10
5.63295362E-01
 20
2.69087359E+02
  0
VERTEX
  8
0
 62
4
 10
6.83198090E-01
 20
2.69174048E+02
  0
VERTEX
  8
0
 62
4
 10
7.77471517E-01
 20
2.69263709E+02
  0
VERTEX
  8
0
 62
4
 10
8.45356610E-01
 20
2.69355621E+02
  0
VERTEX
  8
0
 62
4
 10
8.86306796E-01
 20
2.69449043E+02
  0
VERTEX
  8
0
 62
4
 10
8.99992370E-01
 20
2.69543223E+02
  0
SEQEND
  8
0
  0
ARC
  8
0
 62
4
 10
1.66049226E+00
 20
2.56688800E+02
 40
1.42127873E+01
 50
9.99307184E+01
 51
1.14652136E+02
  0
ARC
  8
0
 62
4
 10
-6.66050779E+00
 20
2.56688799E+02
 40
1.42127883E+01
 50
6.53478648E+01
 51
8.00692808E+01
  0
LINE
  8
0
  6
CENTER
 62
6
 10
1.49999924E+01
 20
2.67044849E+02
 11
9.99999237E+00
 21
2.67044849E+02
  0
LINE
  8
0
  6
CENTER
 62
6
 10
4.99999237E+00
 20
2.65626408E+02
 11
4.99999237E+00
 21
2.70626408E+02
  0
LINE
  8
0
  6
CENTER
 62
6
 10
7.49999237E+00
 20
2.68126408E+02
 11
2.49999237E+00
 21
2.68126408E+02
  0
LINE
  8
0
  6
CENTER
 62
6
 10
-2.50000763E+00
 20
2.64544849E+02
 11
-2.50000763E+00
 21
2.69544849E+02
  0
LINE
  8
0
  6
CENTER
 62
6
 10
-7.62939453E-06
 20
2.67044849E+02
 11
-5.00000763E+00
 21
2.67044849E+02
  0
LINE
  8
0
 62
4
 10
1.09822479E+00
 20
2.70598544E+02
 11
-2.59577351E-01
 21
2.70598544E+02
  0
LINE
  8
0
 62
4
 10
9.55377099E-01
 20
2.70448837E+02
 11
3.24082242E-01
 21
2.70448837E+02
  0
LINE
  8
0
 62
4
 10
-5.90000763E+00
 20
2.68868049E+02
 11
-1.00000076E+01
 21
2.68868049E+02
  0
LINE
  8
0
 62
4
 10
-4.74043791E+00
 20
2.70598544E+02
 11
-1.00000076E+01
 21
2.70598544E+02
  0
LINE
  8
0
 62
4
 10
-4.84999923E+01
 20
3.18607797E+02
 11
-4.84999923E+01
 21
3.17767878E+02
  0
LINE
  8
0
 62
4
 10
-5.24999923E+01
 20
3.18607797E+02
 11
-5.24999923E+01
 21
3.17767878E+02
  0
LINE
  8
0
 62
6
 10
-4.89999923E+01
 20
3.19016588E+02
 11
-4.89999923E+01
 21
3.17767878E+02
  0
LINE
  8
0
 62
6
 10
-5.19999923E+01
 20
3.19016588E+02
 11
-5.19999923E+01
 21
3.17767878E+02
  0
LINE
  8
0
  6
CENTER
 62
6
 10
-6.14999924E+01
 20
2.96455151E+02
 11
-6.14999924E+01
 21
2.91455151E+02
  0
LINE
  8
0
  6
CENTER
 62
6
 10
-5.04999923E+01
 20
3.23165609E+02
 11
-5.04999923E+01
 21
3.12900031E+02
  0
LINE
  8
0
  6
CENTER
 62
6
 10
-4.24999923E+01
 20
3.23165609E+02
 11
-4.24999923E+01
 21
3.12900031E+02
  0
LINE
  8
0
 62
4
 10
-6.89999924E+01
 20
3.05141610E+02
 11
-6.89999924E+01
 21
2.92131951E+02
  0
LINE
  8
0
 62
4
 10
-3.89999924E+01
 20
3.17767878E+02
 11
-3.89999924E+01
 21
2.90401456E+02
  0
LINE
  8
0
 62
4
 10
-5.39999924E+01
 20
3.17767878E+02
 11
-5.39999924E+01
 21
3.05141610E+02
  0
LINE
  8
0
 62
4
 10
-7.04999924E+01
 20
2.94499948E+02
 11
-7.04999924E+01
 21
2.91645882E+02
  0
LINE
  8
0
 62
4
 10
-5.39999924E+01
 20
3.17767878E+02
 11
-3.89999924E+01
 21
3.17767878E+02
  0
LINE
  8
0
 62
4
 10
-5.39999924E+01
 20
3.09421364E+02
 11
-3.89999924E+01
 21
3.09421364E+02
  0
LINE
  8
0
 62
4
 10
-6.89999924E+01
 20
3.05141610E+02
 11
-3.89999924E+01
 21
3.05141610E+02
  0
LINE
  8
0
 62
4
 10
-6.89999924E+01
 20
2.95345727E+02
 11
-3.89999924E+01
 21
2.95345727E+02
  0
LINE
  8
0
 62
4
 10
-6.89999924E+01
 20
2.90401456E+02
 11
-5.79017600E+01
 21
2.90401456E+02
  0
POLYLINE
  8
0
 62
4
 66
1
  0
VERTEX
  8
0
 62
4
 10
-4.84999923E+01
 20
3.18607797E+02
  0
VERTEX
  8
0
 62
4
 10
-4.85080437E+01
 20
3.18663197E+02
  0
VERTEX
  8
0
 62
4
 10
-4.85321331E+01
 20
3.18718151E+02
  0
VERTEX
  8
0
 62
4
 10
-4.85720666E+01
 20
3.18772217E+02
  0
VERTEX
  8
0
 62
4
 10
-4.86275226E+01
 20
3.18824959E+02
  0
VERTEX
  8
0
 62
4
 10
-4.86980546E+01
 20
3.18875952E+02
  0
VERTEX
  8
0
 62
4
 10
-4.87830947E+01
 20
3.18924786E+02
  0
VERTEX
  8
0
 62
4
 10
-4.88819583E+01
 20
3.18971068E+02
  0
VERTEX
  8
0
 62
4
 10
-4.89938494E+01
 20
3.19014425E+02
  0
VERTEX
  8
0
 62
4
 10
-4.91178670E+01
 20
3.19054509E+02
  0
VERTEX
  8
0
 62
4
 10
-4.92530127E+01
 20
3.19090995E+02
  0
VERTEX
  8
0
 62
4
 10
-4.93981983E+01
 20
3.19123592E+02
  0
VERTEX
  8
0
 62
4
 10
-4.95522550E+01
 20
3.19152035E+02
  0
VERTEX
  8
0
 62
4
 10
-4.97139422E+01
 20
3.19176096E+02
  0
VERTEX
  8
0
 62
4
 10
-4.98819583E+01
 20
3.19195582E+02
  0
VERTEX
  8
0
 62
4
 10
-5.00549504E+01
 20
3.19210336E+02
  0
VERTEX
  8
0
 62
4
 10
-5.02315258E+01
 20
3.19220238E+02
  0
VERTEX
  8
0
 62
4
 10
-5.04102626E+01
 20
3.19225209E+02
  0
VERTEX
  8
0
 62
4
 10
-5.05897219E+01
 20
3.19225209E+02
  0
VERTEX
  8
0
 62
4
 10
-5.07684588E+01
 20
3.19220238E+02
  0
VERTEX
  8
0
 62
4
 10
-5.09450342E+01
 20
3.19210336E+02
  0
VERTEX
  8
0
 62
4
 10
-5.11180263E+01
 20
3.19195582E+02
  0
VERTEX
  8
0
 62
4
 10
-5.12860424E+01
 20
3.19176096E+02
  0
VERTEX
  8
0
 62
4
 10
-5.14477296E+01
 20
3.19152035E+02
  0
VERTEX
  8
0
 62
4
 10
-5.16017863E+01
 20
3.19123592E+02
  0
VERTEX
  8
0
 62
4
 10
-5.17469719E+01
 20
3.19090995E+02
  0
VERTEX
  8
0
 62
4
 10
-5.18821176E+01
 20
3.19054509E+02
  0
VERTEX
  8
0
 62
4
 10
-5.20061352E+01
 20
3.19014426E+02
  0
VERTEX
  8
0
 62
4
 10
-5.21180263E+01
 20
3.18971068E+02
  0
VERTEX
  8
0
 62
4
 10
-5.22168899E+01
 20
3.18924786E+02
  0
VERTEX
  8
0
 62
4
 10
-5.23019300E+01
 20
3.18875952E+02
  0
VERTEX
  8
0
 62
4
 10
-5.23724620E+01
 20
3.18824959E+02
  0
VERTEX
  8
0
 62
4
 10
-5.24279180E+01
 20
3.18772217E+02
  0
VERTEX
  8
0
 62
4
 10
-5.24678515E+01
 20
3.18718151E+02
  0
VERTEX
  8
0
 62
4
 10
-5.24919409E+01
 20
3.18663197E+02
  0
VERTEX
  8
0
 62
4
 10
-5.24999923E+01
 20
3.18607797E+02
  0
SEQEND
  8
0
  0
LINE
  8
0
 62
4
 10
-4.04999923E+01
 20
3.18607797E+02
 11
-4.04999923E+01
 21
3.17767878E+02
  0
LINE
  8
0
 62
6
 10
-4.09999923E+01
 20
3.19016588E+02
 11
-4.09999923E+01
 21
3.17767878E+02
  0
POLYLINE
  8
0
 62
4
 66
1
  0
VERTEX
  8
0
 62
4
 10
-4.04999923E+01
 20
3.18607797E+02
  0
VERTEX
  8
0
 62
4
 10
-4.05080437E+01
 20
3.18663197E+02
  0
VERTEX
  8
0
 62
4
 10
-4.05321331E+01
 20
3.18718151E+02
  0
VERTEX
  8
0
 62
4
 10
-4.05720666E+01
 20
3.18772217E+02
  0
VERTEX
  8
0
 62
4
 10
-4.06275226E+01
 20
3.18824959E+02
  0
VERTEX
  8
0
 62
4
 10
-4.06980546E+01
 20
3.18875952E+02
  0
VERTEX
  8
0
 62
4
 10
-4.07830947E+01
 20
3.18924786E+02
  0
VERTEX
  8
0
 62
4
 10
-4.08819583E+01
 20
3.18971068E+02
  0
VERTEX
  8
0
 62
4
 10
-4.09938494E+01
 20
3.19014425E+02
  0
VERTEX
  8
0
 62
4
 10
-4.11178670E+01
 20
3.19054509E+02
  0
VERTEX
  8
0
 62
4
 10
-4.12530127E+01
 20
3.19090995E+02
  0
VERTEX
  8
0
 62
4
 10
-4.13981983E+01
 20
3.19123592E+02
  0
VERTEX
  8
0
 62
4
 10
-4.15522550E+01
 20
3.19152035E+02
  0
VERTEX
  8
0
 62
4
 10
-4.17139422E+01
 20
3.19176096E+02
  0
VERTEX
  8
0
 62
4
 10
-4.18819583E+01
 20
3.19195582E+02
  0
VERTEX
  8
0
 62
4
 10
-4.20549504E+01
 20
3.19210336E+02
  0
VERTEX
  8
0
 62
4
 10
-4.22315258E+01
 20
3.19220238E+02
  0
VERTEX
  8
0
 62
4
 10
-4.24102626E+01
 20
3.19225209E+02
  0
VERTEX
  8
0
 62
4
 10
-4.25897219E+01
 20
3.19225209E+02
  0
VERTEX
  8
0
 62
4
 10
-4.27684588E+01
 20
3.19220238E+02
  0
VERTEX
  8
0
 62
4
 10
-4.29450342E+01
 20
3.19210336E+02
  0
VERTEX
  8
0
 62
4
 10
-4.31180263E+01
 20
3.19195582E+02
  0
VERTEX
  8
0
 62
4
 10
-4.32860424E+01
 20
3.19176096E+02
  0
VERTEX
  8
0
 62
4
 10
-4.34477296E+01
 20
3.19152035E+02
  0
VERTEX
  8
0
 62
4
 10
-4.36017863E+01
 20
3.19123592E+02
  0
VERTEX
  8
0
 62
4
 10
-4.37469719E+01
 20
3.19090995E+02
  0
VERTEX
  8
0
 62
4
 10
-4.38821176E+01
 20
3.19054509E+02
  0
VERTEX
  8
0
 62
4
 10
-4.40061352E+01
 20
3.19014426E+02
  0
VERTEX
  8
0
 62
4
 10
-4.41180263E+01
 20
3.18971068E+02
  0
VERTEX
  8
0
 62
4
 10
-4.42168899E+01
 20
3.18924786E+02
  0
VERTEX
  8
0
 62
4
 10
-4.43019300E+01
 20
3.18875952E+02
  0
VERTEX
  8
0
 62
4
 10
-4.43724620E+01
 20
3.18824959E+02
  0
VERTEX
  8
0
 62
4
 10
-4.44279180E+01
 20
3.18772217E+02
  0
VERTEX
  8
0
 62
4
 10
-4.44678515E+01
 20
3.18718151E+02
  0
VERTEX
  8
0
 62
4
 10
-4.44919409E+01
 20
3.18663197E+02
  0
VERTEX
  8
0
 62
4
 10
-4.44999923E+01
 20
3.18607797E+02
  0
SEQEND
  8
0
  0
LINE
  8
0
 62
4
 10
-4.44999923E+01
 20
3.18607797E+02
 11
-4.44999923E+01
 21
3.17767878E+02
  0
LINE
  8
0
 62
6
 10
-4.39999923E+01
 20
3.19016588E+02
 11
-4.39999923E+01
 21
3.17767878E+02
  0
LINE
  8
0
 62
4
 10
-6.89999924E+01
 20
2.95591457E+02
 11
-7.04999924E+01
 21
2.94499948E+02
  0
LINE
  8
0
 62
4
 10
-7.04999924E+01
 20
2.92345805E+02
 11
-6.89999924E+01
 21
2.91787231E+02
  0
LINE
  8
0
 62
4
 10
-6.89999924E+01
 20
2.90551163E+02
 11
-7.04999924E+01
 21
2.91645882E+02
  0
LINE
  8
0
 62
4
 10
-6.89999924E+01
 20
2.92131951E+02
 11
-5.81499924E+01
 21
2.92131951E+02
  0
LINE
  8
0
 62
4
 10
-4.34343943E+01
 20
2.90710473E+02
 11
-3.89999924E+01
 21
2.90710473E+02
  0
LINE
  8
0
 62
4
 10
-6.89999924E+01
 20
2.91787231E+02
 11
-5.81499924E+01
 21
2.91787231E+02
  0
LINE
  8
0
 62
4
 10
-6.89999924E+01
 20
2.90551163E+02
 11
-5.80446076E+01
 21
2.90551163E+02
  0
LINE
  8
0
 62
4
 10
-6.89999924E+01
 20
2.92131951E+02
 11
-6.89999924E+01
 21
2.90551163E+02
  0
LINE
  8
0
 62
4
 10
-6.89999924E+01
 20
2.90551163E+02
 11
-6.89999924E+01
 21
2.90401456E+02
  0
ARC
  8
0
 62
4
 10
-4.88999927E+01
 20
2.91456783E+02
 40
1.00000000E+00
 50
1.80000000E+02
 51
2.57172490E+02
  0
ARC
  8
0
 62
4
 10
-4.40999920E+01
 20
2.91456783E+02
 40
1.00000000E+00
 50
2.82827510E+02
 51
0.00000000E+00
  0
ARC
  8
0
 62
4
 10
-4.64999924E+01
 20
3.01996997E+02
 40
1.18100000E+01
 50
2.57172490E+02
 51
2.82827510E+02
  0
LINE
  8
0
 62
4
 10
-5.81499924E+01
 20
2.90838331E+02
 11
-5.81499924E+01
 21
2.92512190E+02
  0
LINE
  8
0
 62
4
 10
-4.98499924E+01
 20
2.90838331E+02
 11
-4.98499924E+01
 21
2.91144532E+02
  0
POLYLINE
  8
0
 62
4
 66
1
  0
VERTEX
  8
0
 62
4
 10
-5.02999924E+01
 20
2.93092986E+02
  0
VERTEX
  8
0
 62
4
 10
-5.04818074E+01
 20
2.93192370E+02
  0
VERTEX
  8
0
 62
4
 10
-5.06915046E+01
 20
2.93286363E+02
  0
VERTEX
  8
0
 62
4
 10
-5.09274223E+01
 20
2.93374221E+02
  0
VERTEX
  8
0
 62
4
 10
-5.11876906E+01
 20
2.93455247E+02
  0
VERTEX
  8
0
 62
4
 10
-5.14702469E+01
 20
2.93528799E+02
  0
VERTEX
  8
0
 62
4
 10
-5.17728520E+01
 20
2.93594294E+02
  0
VERTEX
  8
0
 62
4
 10
-5.20931075E+01
 20
2.93651214E+02
  0
VERTEX
  8
0
 62
4
 10
-5.24284755E+01
 20
2.93699106E+02
  0
VERTEX
  8
0
 62
4
 10
-5.27762980E+01
 20
2.93737592E+02
  0
VERTEX
  8
0
 62
4
 10
-5.31338186E+01
 20
2.93766367E+02
  0
VERTEX
  8
0
 62
4
 10
-5.34982037E+01
 20
2.93785202E+02
  0
VERTEX
  8
0
 62
4
 10
-5.38665656E+01
 20
2.93793948E+02
  0
VERTEX
  8
0
 62
4
 10
-5.42359849E+01
 20
2.93792535E+02
  0
VERTEX
  8
0
 62
4
 10
-5.46035340E+01
 20
2.93780976E+02
  0
VERTEX
  8
0
 62
4
 10
-5.49662998E+01
 20
2.93759362E+02
  0
VERTEX
  8
0
 62
4
 10
-5.53214075E+01
 20
2.93727863E+02
  0
VERTEX
  8
0
 62
4
 10
-5.56660428E+01
 20
2.93686730E+02
  0
VERTEX
  8
0
 62
4
 10
-5.59974742E+01
 20
2.93636289E+02
  0
VERTEX
  8
0
 62
4
 10
-5.63130753E+01
 20
2.93576938E+02
  0
VERTEX
  8
0
 62
4
 10
-5.66103447E+01
 20
2.93509150E+02
  0
VERTEX
  8
0
 62
4
 10
-5.68869267E+01
 20
2.93433460E+02
  0
VERTEX
  8
0
 62
4
 10
-5.71406291E+01
 20
2.93350470E+02
  0
VERTEX
  8
0
 62
4
 10
-5.73694414E+01
 20
2.93260835E+02
  0
VERTEX
  8
0
 62
4
 10
-5.75715502E+01
 20
2.93165268E+02
  0
VERTEX
  8
0
 62
4
 10
-5.77453537E+01
 20
2.93064524E+02
  0
VERTEX
  8
0
 62
4
 10
-5.78894745E+01
 20
2.92959404E+02
  0
VERTEX
  8
0
 62
4
 10
-5.80027705E+01
 20
2.92850739E+02
  0
VERTEX
  8
0
 62
4
 10
-5.80843437E+01
 20
2.92739391E+02
  0
VERTEX
  8
0
 62
4
 10
-5.81335476E+01
 20
2.92626242E+02
  0
VERTEX
  8
0
 62
4
 10
-5.81499924E+01
 20
2.92512190E+02
  0
SEQEND
  8
0
  0
POLYLINE
  8
0
 62
4
 66
1
  0
VERTEX
  8
0
 62
4
 10
-5.81499924E+01
 20
2.90838331E+02
  0
VERTEX
  8
0
 62
4
 10
-5.81342004E+01
 20
2.90726561E+02
  0
VERTEX
  8
0
 62
4
 10
-5.80869446E+01
 20
2.90615641E+02
  0
VERTEX
  8
0
 62
4
 10
-5.80085846E+01
 20
2.90506416E+02
  0
VERTEX
  8
0
 62
4
 10
-5.78997168E+01
 20
2.90399717E+02
  0
VERTEX
  8
0
 62
4
 10
-5.77611697E+01
 20
2.90296357E+02
  0
VERTEX
  8
0
 62
4
 10
-5.75939978E+01
 20
2.90197121E+02
  0
VERTEX
  8
0
 62
4
 10
-5.73994734E+01
 20
2.90102765E+02
  0
VERTEX
  8
0
 62
4
 10
-5.71790768E+01
 20
2.90014007E+02
  0
VERTEX
  8
0
 62
4
 10
-5.69344856E+01
 20
2.89931523E+02
  0
VERTEX
  8
0
 62
4
 10
-5.66675610E+01
 20
2.89855940E+02
  0
VERTEX
  8
0
 62
4
 10
-5.63803346E+01
 20
2.89787834E+02
  0
VERTEX
  8
0
 62
4
 10
-5.60749924E+01
 20
2.89727722E+02
  0
VERTEX
  8
0
 62
4
 10
-5.57538582E+01
 20
2.89676063E+02
  0
VERTEX
  8
0
 62
4
 10
-5.54193760E+01
 20
2.89633250E+02
  0
VERTEX
  8
0
 62
4
 10
-5.50740914E+01
 20
2.89599608E+02
  0
VERTEX
  8
0
 62
4
 10
-5.47206323E+01
 20
2.89575393E+02
  0
VERTEX
  8
0
 62
4
 10
-5.43616887E+01
 20
2.89560790E+02
  0
VERTEX
  8
0
 62
4
 10
-5.39999924E+01
 20
2.89555910E+02
  0
VERTEX
  8
0
 62
4
 10
-5.36382961E+01
 20
2.89560790E+02
  0
VERTEX
  8
0
 62
4
 10
-5.32793525E+01
 20
2.89575393E+02
  0
VERTEX
  8
0
 62
4
 10
-5.29258934E+01
 20
2.89599608E+02
  0
VERTEX
  8
0
 62
4
 10
-5.25806088E+01
 20
2.89633250E+02
  0
VERTEX
  8
0
 62
4
 10
-5.22461266E+01
 20
2.89676063E+02
  0
VERTEX
  8
0
 62
4
 10
-5.19249924E+01
 20
2.89727722E+02
  0
VERTEX
  8
0
 62
4
 10
-5.16196502E+01
 20
2.89787834E+02
  0
VERTEX
  8
0
 62
4
 10
-5.13324238E+01
 20
2.89855940E+02
  0
VERTEX
  8
0
 62
4
 10
-5.10654993E+01
 20
2.89931523E+02
  0
VERTEX
  8
0
 62
4
 10
-5.08209080E+01
 20
2.90014007E+02
  0
VERTEX
  8
0
 62
4
 10
-5.06005114E+01
 20
2.90102765E+02
  0
VERTEX
  8
0
 62
4
 10
-5.04059870E+01
 20
2.90197121E+02
  0
VERTEX
  8
0
 62
4
 10
-5.02388151E+01
 20
2.90296357E+02
  0
VERTEX
  8
0
 62
4
 10
-5.01002680E+01
 20
2.90399717E+02
  0
VERTEX
  8
0
 62
4
 10
-4.99914002E+01
 20
2.90506416E+02
  0
VERTEX
  8
0
 62
4
 10
-4.99130402E+01
 20
2.90615641E+02
  0
VERTEX
  8
0
 62
4
 10
-4.98657844E+01
 20
2.90726561E+02
  0
VERTEX
  8
0
 62
4
 10
-4.98499924E+01
 20
2.90838331E+02
  0
VERTEX
  8
0
 62
4
 10
-4.98657844E+01
 20
2.90950101E+02
  0
VERTEX
  8
0
 62
4
 10
-4.99130402E+01
 20
2.91061021E+02
  0
VERTEX
  8
0
 62
4
 10
-4.99914002E+01
 20
2.91170246E+02
  0
VERTEX
  8
0
 62
4
 10
-5.01002680E+01
 20
2.91276945E+02
  0
VERTEX
  8
0
 62
4
 10
-5.02388151E+01
 20
2.91380305E+02
  0
VERTEX
  8
0
 62
4
 10
-5.04059870E+01
 20
2.91479541E+02
  0
VERTEX
  8
0
 62
4
 10
-5.06005114E+01
 20
2.91573897E+02
  0
VERTEX
  8
0
 62
4
 10
-5.08209080E+01
 20
2.91662655E+02
  0
VERTEX
  8
0
 62
4
 10
-5.10654993E+01
 20
2.91745139E+02
  0
VERTEX
  8
0
 62
4
 10
-5.13324238E+01
 20
2.91820722E+02
  0
VERTEX
  8
0
 62
4
 10
-5.16196502E+01
 20
2.91888828E+02
  0
VERTEX
  8
0
 62
4
 10
-5.19249924E+01
 20
2.91948940E+02
  0
VERTEX
  8
0
 62
4
 10
-5.22461266E+01
 20
2.92000599E+02
  0
VERTEX
  8
0
 62
4
 10
-5.25806088E+01
 20
2.92043412E+02
  0
VERTEX
  8
0
 62
4
 10
-5.29258934E+01
 20
2.92077054E+02
  0
VERTEX
  8
0
 62
4
 10
-5.32793525E+01
 20
2.92101269E+02
  0
VERTEX
  8
0
 62
4
 10
-5.36382961E+01
 20
2.92115872E+02
  0
VERTEX
  8
0
 62
4
 10
-5.39999924E+01
 20
2.92120751E+02
  0
VERTEX
  8
0
 62
4
 10
-5.43616887E+01
 20
2.92115872E+02
  0
VERTEX
  8
0
 62
4
 10
-5.47206323E+01
 20
2.92101269E+02
  0
VERTEX
  8
0
 62
4
 10
-5.50740914E+01
 20
2.92077054E+02
  0
VERTEX
  8
0
 62
4
 10
-5.54193760E+01
 20
2.92043412E+02
  0
VERTEX
  8
0
 62
4
 10
-5.57538582E+01
 20
2.92000599E+02
  0
VERTEX
  8
0
 62
4
 10
-5.60749924E+01
 20
2.91948940E+02
  0
VERTEX
  8
0
 62
4
 10
-5.63803346E+01
 20
2.91888828E+02
  0
VERTEX
  8
0
 62
4
 10
-5.66675610E+01
 20
2.91820722E+02
  0
VERTEX
  8
0
 62
4
 10
-5.69344856E+01
 20
2.91745139E+02
  0
VERTEX
  8
0
 62
4
 10
-5.71790769E+01
 20
2.91662655E+02
  0
VERTEX
  8
0
 62
4
 10
-5.73994734E+01
 20
2.91573897E+02
  0
VERTEX
  8
0
 62
4
 10
-5.75939978E+01
 20
2.91479541E+02
  0
VERTEX
  8
0
 62
4
 10
-5.77611697E+01
 20
2.91380305E+02
  0
VERTEX
  8
0
 62
4
 10
-5.78997168E+01
 20
2.91276945E+02
  0
VERTEX
  8
0
 62
4
 10
-5.80085846E+01
 20
2.91170246E+02
  0
VERTEX
  8
0
 62
4
 10
-5.80869446E+01
 20
2.91061021E+02
  0
VERTEX
  8
0
 62
4
 10
-5.81342004E+01
 20
2.90950101E+02
  0
VERTEX
  8
0
 62
4
 10
-5.81499924E+01
 20
2.90838331E+02
  0
SEQEND
  8
0
  0
LINE
  8
0
 62
4
 10
-5.79999924E+01
 20
2.92853860E+02
 11
-5.79999924E+01
 21
2.92873592E+02
  0
POLYLINE
  8
0
 62
4
 66
1
  0
VERTEX
  8
0
 62
4
 10
-5.02999924E+01
 20
2.93343257E+02
  0
VERTEX
  8
0
 62
4
 10
-5.04493004E+01
 20
2.93442770E+02
  0
VERTEX
  8
0
 62
4
 10
-5.06265691E+01
 20
2.93537800E+02
  0
VERTEX
  8
0
 62
4
 10
-5.08304025E+01
 20
2.93627600E+02
  0
VERTEX
  8
0
 62
4
 10
-5.10591956E+01
 20
2.93711462E+02
  0
VERTEX
  8
0
 62
4
 10
-5.13111466E+01
 20
2.93788726E+02
  0
VERTEX
  8
0
 62
4
 10
-5.15842716E+01
 20
2.93858784E+02
  0
VERTEX
  8
0
 62
4
 10
-5.18764197E+01
 20
2.93921084E+02
  0
VERTEX
  8
0
 62
4
 10
-5.21852903E+01
 20
2.93975135E+02
  0
VERTEX
  8
0
 62
4
 10
-5.25084512E+01
 20
2.94020512E+02
  0
VERTEX
  8
0
 62
4
 10
-5.28433576E+01
 20
2.94056857E+02
  0
VERTEX
  8
0
 62
4
 10
-5.31873722E+01
 20
2.94083884E+02
  0
VERTEX
  8
0
 62
4
 10
-5.35377859E+01
 20
2.94101380E+02
  0
VERTEX
  8
0
 62
4
 10
-5.38918393E+01
 20
2.94109208E+02
  0
VERTEX
  8
0
 62
4
 10
-5.42467445E+01
 20
2.94107306E+02
  0
VERTEX
  8
0
 62
4
 10
-5.45997065E+01
 20
2.94095689E+02
  0
VERTEX
  8
0
 62
4
 10
-5.49479460E+01
 20
2.94074447E+02
  0
VERTEX
  8
0
 62
4
 10
-5.52887205E+01
 20
2.94043750E+02
  0
VERTEX
  8
0
 62
4
 10
-5.56193467E+01
 20
2.94003838E+02
  0
VERTEX
  8
0
 62
4
 10
-5.59372210E+01
 20
2.93955025E+02
  0
VERTEX
  8
0
 62
4
 10
-5.62398401E+01
 20
2.93897697E+02
  0
VERTEX
  8
0
 62
4
 10
-5.65248210E+01
 20
2.93832304E+02
  0
VERTEX
  8
0
 62
4
 10
-5.67899196E+01
 20
2.93759361E+02
  0
VERTEX
  8
0
 62
4
 10
-5.70330483E+01
 20
2.93679444E+02
  0
VERTEX
  8
0
 62
4
 10
-5.72522926E+01
 20
2.93593180E+02
  0
VERTEX
  8
0
 62
4
 10
-5.74459258E+01
 20
2.93501250E+02
  0
VERTEX
  8
0
 62
4
 10
-5.76124233E+01
 20
2.93404377E+02
  0
VERTEX
  8
0
 62
4
 10
-5.77504739E+01
 20
2.93303324E+02
  0
VERTEX
  8
0
 62
4
 10
-5.78589906E+01
 20
2.93198888E+02
  0
VERTEX
  8
0
 62
4
 10
-5.79371186E+01
 20
2.93091889E+02
  0
VERTEX
  8
0
 62
4
 10
-5.79842430E+01
 20
2.92983172E+02
  0
VERTEX
  8
0
 62
4
 10
-5.79999924E+01
 20
2.92873592E+02
  0
SEQEND
  8
0
  0
ARC
  8
0
 62
4
 10
-5.81876144E+01
 20
3.03826828E+02
 40
1.43299558E+01
 50
2.79721944E+02
 51
2.94556489E+02
  0
ARC
  8
0
 62
4
 10
-4.98123689E+01
 20
3.03826833E+02
 40
1.43299613E+01
 50
2.45443514E+02
 51
2.60278053E+02
  0
LINE
  8
0
 62
4
 10
-5.02999924E+01
 20
2.93004094E+02
 11
-5.02999924E+01
 21
2.93955151E+02
  0
POLYLINE
  8
0
 62
4
 66
1
  0
VERTEX
  8
0
 62
4
 10
-4.26999924E+01
 20
2.93955151E+02
  0
VERTEX
  8
0
 62
4
 10
-4.27152901E+01
 20
2.94060411E+02
  0
VERTEX
  8
0
 62
4
 10
-4.27610600E+01
 20
2.94164824E+02
  0
VERTEX
  8
0
 62
4
 10
-4.28369335E+01
 20
2.94267549E+02
  0
VERTEX
  8
0
 62
4
 10
-4.29422999E+01
 20
2.94367758E+02
  0
VERTEX
  8
0
 62
4
 10
-4.30763107E+01
 20
2.94464645E+02
  0
VERTEX
  8
0
 62
4
 10
-4.32378870E+01
 20
2.94557430E+02
  0
VERTEX
  8
0
 62
4
 10
-4.34257278E+01
 20
2.94645366E+02
  0
VERTEX
  8
0
 62
4
 10
-4.36383208E+01
 20
2.94727745E+02
  0
VERTEX
  8
0
 62
4
 10
-4.38739543E+01
 20
2.94803903E+02
  0
VERTEX
  8
0
 62
4
 10
-4.41307311E+01
 20
2.94873228E+02
  0
VERTEX
  8
0
 62
4
 10
-4.44065839E+01
 20
2.94935161E+02
  0
VERTEX
  8
0
 62
4
 10
-4.46992915E+01
 20
2.94989203E+02
  0
VERTEX
  8
0
 62
4
 10
-4.50064973E+01
 20
2.95034920E+02
  0
VERTEX
  8
0
 62
4
 10
-4.53257278E+01
 20
2.95071943E+02
  0
VERTEX
  8
0
 62
4
 10
-4.56544128E+01
 20
2.95099974E+02
  0
VERTEX
  8
0
 62
4
 10
-4.59899060E+01
 20
2.95118788E+02
  0
VERTEX
  8
0
 62
4
 10
-4.63295060E+01
 20
2.95128233E+02
  0
VERTEX
  8
0
 62
4
 10
-4.66704787E+01
 20
2.95128233E+02
  0
VERTEX
  8
0
 62
4
 10
-4.70100788E+01
 20
2.95118788E+02
  0
VERTEX
  8
0
 62
4
 10
-4.73455719E+01
 20
2.95099974E+02
  0
VERTEX
  8
0
 62
4
 10
-4.76742570E+01
 20
2.95071943E+02
  0
VERTEX
  8
0
 62
4
 10
-4.79934875E+01
 20
2.95034920E+02
  0
VERTEX
  8
0
 62
4
 10
-4.83006933E+01
 20
2.94989203E+02
  0
VERTEX
  8
0
 62
4
 10
-4.85934009E+01
 20
2.94935161E+02
  0
VERTEX
  8
0
 62
4
 10
-4.88692536E+01
 20
2.94873228E+02
  0
VERTEX
  8
0
 62
4
 10
-4.91260304E+01
 20
2.94803903E+02
  0
VERTEX
  8
0
 62
4
 10
-4.93616640E+01
 20
2.94727745E+02
  0
VERTEX
  8
0
 62
4
 10
-4.95742570E+01
 20
2.94645366E+02
  0
VERTEX
  8
0
 62
4
 10
-4.97620978E+01
 20
2.94557430E+02
  0
VERTEX
  8
0
 62
4
 10
-4.99236741E+01
 20
2.94464645E+02
  0
VERTEX
  8
0
 62
4
 10
-5.00576849E+01
 20
2.94367758E+02
  0
VERTEX
  8
0
 62
4
 10
-5.01630513E+01
 20
2.94267549E+02
  0
VERTEX
  8
0
 62
4
 10
-5.02389248E+01
 20
2.94164824E+02
  0
VERTEX
  8
0
 62
4
 10
-5.02846947E+01
 20
2.94060411E+02
  0
VERTEX
  8
0
 62
4
 10
-5.02999924E+01
 20
2.93955151E+02
  0
SEQEND
  8
0
  0
POLYLINE
  8
0
 62
4
 66
1
  0
VERTEX
  8
0
 62
4
 10
-4.30999924E+01
 20
2.92479675E+02
  0
VERTEX
  8
0
 62
4
 10
-4.29634107E+01
 20
2.92574506E+02
  0
VERTEX
  8
0
 62
4
 10
-4.28544629E+01
 20
2.92672694E+02
  0
VERTEX
  8
0
 62
4
 10
-4.27740001E+01
 20
2.92773471E+02
  0
VERTEX
  8
0
 62
4
 10
-4.27226511E+01
 20
2.92876050E+02
  0
VERTEX
  8
0
 62
4
 10
-4.27008171E+01
 20
2.92979630E+02
  0
VERTEX
  8
0
 62
4
 10
-4.27086688E+01
 20
2.93083401E+02
  0
VERTEX
  8
0
 62
4
 10
-4.27461448E+01
 20
2.93186552E+02
  0
VERTEX
  8
0
 62
4
 10
-4.28129522E+01
 20
2.93288278E+02
  0
VERTEX
  8
0
 62
4
 10
-4.29085690E+01
 20
2.93387783E+02
  0
VERTEX
  8
0
 62
4
 10
-4.30322482E+01
 20
2.93484290E+02
  0
VERTEX
  8
0
 62
4
 10
-4.31830233E+01
 20
2.93577045E+02
  0
VERTEX
  8
0
 62
4
 10
-4.33597162E+01
 20
2.93665323E+02
  0
VERTEX
  8
0
 62
4
 10
-4.35609462E+01
 20
2.93748434E+02
  0
VERTEX
  8
0
 62
4
 10
-4.37851412E+01
 20
2.93825730E+02
  0
VERTEX
  8
0
 62
4
 10
-4.40305491E+01
 20
2.93896605E+02
  0
VERTEX
  8
0
 62
4
 10
-4.42952526E+01
 20
2.93960506E+02
  0
VERTEX
  8
0
 62
4
 10
-4.45771832E+01
 20
2.94016935E+02
  0
VERTEX
  8
0
 62
4
 10
-4.48741381E+01
 20
2.94065449E+02
  0
VERTEX
  8
0
 62
4
 10
-4.51837970E+01
 20
2.94105670E+02
  0
VERTEX
  8
0
 62
4
 10
-4.55037402E+01
 20
2.94137284E+02
  0
VERTEX
  8
0
 62
4
 10
-4.58314678E+01
 20
2.94160044E+02
  0
VERTEX
  8
0
 62
4
 10
-4.61644191E+01
 20
2.94173771E+02
  0
VERTEX
  8
0
 62
4
 10
-4.64999924E+01
 20
2.94178359E+02
  0
VERTEX
  8
0
 62
4
 10
-4.68355658E+01
 20
2.94173771E+02
  0
VERTEX
  8
0
 62
4
 10
-4.71685170E+01
 20
2.94160044E+02
  0
VERTEX
  8
0
 62
4
 10
-4.74962447E+01
 20
2.94137284E+02
  0
VERTEX
  8
0
 62
4
 10
-4.78161879E+01
 20
2.94105670E+02
  0
VERTEX
  8
0
 62
4
 10
-4.81258467E+01
 20
2.94065449E+02
  0
VERTEX
  8
0
 62
4
 10
-4.84228016E+01
 20
2.94016935E+02
  0
VERTEX
  8
0
 62
4
 10
-4.87047322E+01
 20
2.93960506E+02
  0
VERTEX
  8
0
 62
4
 10
-4.89694357E+01
 20
2.93896605E+02
  0
VERTEX
  8
0
 62
4
 10
-4.92148437E+01
 20
2.93825730E+02
  0
VERTEX
  8
0
 62
4
 10
-4.94390386E+01
 20
2.93748434E+02
  0
VERTEX
  8
0
 62
4
 10
-4.96402687E+01
 20
2.93665323E+02
  0
VERTEX
  8
0
 62
4
 10
-4.98169616E+01
 20
2.93577045E+02
  0
VERTEX
  8
0
 62
4
 10
-4.99677366E+01
 20
2.93484290E+02
  0
VERTEX
  8
0
 62
4
 10
-5.00914158E+01
 20
2.93387783E+02
  0
VERTEX
  8
0
 62
4
 10
-5.01870326E+01
 20
2.93288278E+02
  0
VERTEX
  8
0
 62
4
 10
-5.02538400E+01
 20
2.93186552E+02
  0
VERTEX
  8
0
 62
4
 10
-5.02913160E+01
 20
2.93083401E+02
  0
VERTEX
  8
0
 62
4
 10
-5.02991677E+01
 20
2.92979630E+02
  0
VERTEX
  8
0
 62
4
 10
-5.02773337E+01
 20
2.92876050E+02
  0
VERTEX
  8
0
 62
4
 10
-5.02259847E+01
 20
2.92773471E+02
  0
VERTEX
  8
0
 62
4
 10
-5.01455219E+01
 20
2.92672694E+02
  0
VERTEX
  8
0
 62
4
 10
-5.00365741E+01
 20
2.92574506E+02
  0
VERTEX
  8
0
 62
4
 10
-4.98999924E+01
 20
2.92479675E+02
  0
SEQEND
  8
0
  0
LINE
  8
0
 62
4
 10
-4.26999924E+01
 20
2.93004094E+02
 11
-4.26999924E+01
 21
2.93955151E+02
  0
LINE
  8
0
 62
4
 10
-4.98999924E+01
 20
2.91456783E+02
 11
-4.98999924E+01
 21
2.93004094E+02
  0
POLYLINE
  8
0
 62
4
 66
1
  0
VERTEX
  8
0
 62
4
 10
-4.30999924E+01
 20
2.93004094E+02
  0
VERTEX
  8
0
 62
4
 10
-4.31136798E+01
 20
2.93098274E+02
  0
VERTEX
  8
0
 62
4
 10
-4.31546318E+01
 20
2.93191696E+02
  0
VERTEX
  8
0
 62
4
 10
-4.32225187E+01
 20
2.93283608E+02
  0
VERTEX
  8
0
 62
4
 10
-4.33167938E+01
 20
2.93373269E+02
  0
VERTEX
  8
0
 62
4
 10
-4.34366982E+01
 20
2.93459957E+02
  0
VERTEX
  8
0
 62
4
 10
-4.35812665E+01
 20
2.93542976E+02
  0
VERTEX
  8
0
 62
4
 10
-4.37493346E+01
 20
2.93621655E+02
  0
VERTEX
  8
0
 62
4
 10
-4.39395494E+01
 20
2.93695362E+02
  0
VERTEX
  8
0
 62
4
 10
-4.41503794E+01
 20
2.93763504E+02
  0
VERTEX
  8
0
 62
4
 10
-4.43801271E+01
 20
2.93825531E+02
  0
VERTEX
  8
0
 62
4
 10
-4.46269426E+01
 20
2.93880945E+02
  0
VERTEX
  8
0
 62
4
 10
-4.48888389E+01
 20
2.93929299E+02
  0
VERTEX
  8
0
 62
4
 10
-4.51637073E+01
 20
2.93970203E+02
  0
VERTEX
  8
0
 62
4
 10
-4.54493346E+01
 20
2.94003329E+02
  0
VERTEX
  8
0
 62
4
 10
-4.57434212E+01
 20
2.94028410E+02
  0
VERTEX
  8
0
 62
4
 10
-4.60435993E+01
 20
2.94045243E+02
  0
VERTEX
  8
0
 62
4
 10
-4.63474520E+01
 20
2.94053694E+02
  0
VERTEX
  8
0
 62
4
 10
-4.66525328E+01
 20
2.94053694E+02
  0
VERTEX
  8
0
 62
4
 10
-4.69563855E+01
 20
2.94045243E+02
  0
VERTEX
  8
0
 62
4
 10
-4.72565636E+01
 20
2.94028410E+02
  0
VERTEX
  8
0
 62
4
 10
-4.75506502E+01
 20
2.94003329E+02
  0
VERTEX
  8
0
 62
4
 10
-4.78362775E+01
 20
2.93970203E+02
  0
VERTEX
  8
0
 62
4
 10
-4.81111458E+01
 20
2.93929299E+02
  0
VERTEX
  8
0
 62
4
 10
-4.83730421E+01
 20
2.93880945E+02
  0
VERTEX
  8
0
 62
4
 10
-4.86198577E+01
 20
2.93825531E+02
  0
VERTEX
  8
0
 62
4
 10
-4.88496054E+01
 20
2.93763504E+02
  0
VERTEX
  8
0
 62
4
 10
-4.90604354E+01
 20
2.93695362E+02
  0
VERTEX
  8
0
 62
4
 10
-4.92506502E+01
 20
2.93621655E+02
  0
VERTEX
  8
0
 62
4
 10
-4.94187183E+01
 20
2.93542976E+02
  0
VERTEX
  8
0
 62
4
 10
-4.95632865E+01
 20
2.93459957E+02
  0
VERTEX
  8
0
 62
4
 10
-4.96831910E+01
 20
2.93373269E+02
  0
VERTEX
  8
0
 62
4
 10
-4.97774661E+01
 20
2.93283608E+02
  0
VERTEX
  8
0
 62
4
 10
-4.98453530E+01
 20
2.93191696E+02
  0
VERTEX
  8
0
 62
4
 10
-4.98863050E+01
 20
2.93098274E+02
  0
VERTEX
  8
0
 62
4
 10
-4.98999924E+01
 20
2.93004094E+02
  0
SEQEND
  8
0
  0
LINE
  8
0
 62
4
 10
-4.30999924E+01
 20
2.91456783E+02
 11
-4.30999924E+01
 21
2.93004094E+02
  0
POLYLINE
  8
0
 62
4
 66
1
  0
VERTEX
  8
0
 62
4
 10
-4.30999924E+01
 20
2.91456789E+02
  0
VERTEX
  8
0
 62
4
 10
-4.31136816E+01
 20
2.91550969E+02
  0
VERTEX
  8
0
 62
4
 10
-4.31546354E+01
 20
2.91644391E+02
  0
VERTEX
  8
0
 62
4
 10
-4.32225241E+01
 20
2.91736303E+02
  0
VERTEX
  8
0
 62
4
 10
-4.33168010E+01
 20
2.91825964E+02
  0
VERTEX
  8
0
 62
4
 10
-4.34367071E+01
 20
2.91912652E+02
  0
VERTEX
  8
0
 62
4
 10
-4.35812770E+01
 20
2.91995670E+02
  0
VERTEX
  8
0
 62
4
 10
-4.37493466E+01
 20
2.92074349E+02
  0
VERTEX
  8
0
 62
4
 10
-4.39395628E+01
 20
2.92148056E+02
  0
VERTEX
  8
0
 62
4
 10
-4.41503941E+01
 20
2.92216197E+02
  0
VERTEX
  8
0
 62
4
 10
-4.43801430E+01
 20
2.92278224E+02
  0
VERTEX
  8
0
 62
4
 10
-4.46269597E+01
 20
2.92333637E+02
  0
VERTEX
  8
0
 62
4
 10
-4.48888569E+01
 20
2.92381991E+02
  0
VERTEX
  8
0
 62
4
 10
-4.51637260E+01
 20
2.92422894E+02
  0
VERTEX
  8
0
 62
4
 10
-4.54493540E+01
 20
2.92456020E+02
  0
VERTEX
  8
0
 62
4
 10
-4.57434411E+01
 20
2.92481100E+02
  0
VERTEX
  8
0
 62
4
 10
-4.60436195E+01
 20
2.92497933E+02
  0
VERTEX
  8
0
 62
4
 10
-4.63474723E+01
 20
2.92506383E+02
  0
VERTEX
  8
0
 62
4
 10
-4.66525532E+01
 20
2.92506383E+02
  0
VERTEX
  8
0
 62
4
 10
-4.69564057E+01
 20
2.92497931E+02
  0
VERTEX
  8
0
 62
4
 10
-4.72565834E+01
 20
2.92481097E+02
  0
VERTEX
  8
0
 62
4
 10
-4.75506696E+01
 20
2.92456016E+02
  0
VERTEX
  8
0
 62
4
 10
-4.78362962E+01
 20
2.92422890E+02
  0
VERTEX
  8
0
 62
4
 10
-4.81111638E+01
 20
2.92381985E+02
  0
VERTEX
  8
0
 62
4
 10
-4.83730591E+01
 20
2.92333630E+02
  0
VERTEX
  8
0
 62
4
 10
-4.86198737E+01
 20
2.92278216E+02
  0
VERTEX
  8
0
 62
4
 10
-4.88496201E+01
 20
2.92216189E+02
  0
VERTEX
  8
0
 62
4
 10
-4.90604488E+01
 20
2.92148047E+02
  0
VERTEX
  8
0
 62
4
 10
-4.92506622E+01
 20
2.92074339E+02
  0
VERTEX
  8
0
 62
4
 10
-4.94187287E+01
 20
2.91995659E+02
  0
VERTEX
  8
0
 62
4
 10
-4.95632954E+01
 20
2.91912641E+02
  0
VERTEX
  8
0
 62
4
 10
-4.96831981E+01
 20
2.91825952E+02
  0
VERTEX
  8
0
 62
4
 10
-4.97774715E+01
 20
2.91736291E+02
  0
VERTEX
  8
0
 62
4
 10
-4.98453566E+01
 20
2.91644379E+02
  0
VERTEX
  8
0
 62
4
 10
-4.98863068E+01
 20
2.91550957E+02
  0
VERTEX
  8
0
 62
4
 10
-4.98999924E+01
 20
2.91456777E+02
  0
SEQEND
  8
0
  0
ARC
  8
0
 62
4
 10
-5.06604923E+01
 20
3.04311200E+02
 40
1.42127873E+01
 50
2.79930719E+02
 51
2.94652135E+02
  0
ARC
  8
0
 62
4
 10
-4.23394922E+01
 20
3.04311201E+02
 40
1.42127883E+01
 50
2.45347865E+02
 51
2.60069281E+02
  0
LINE
  8
0
  6
CENTER
 62
6
 10
-6.39999924E+01
 20
2.93955151E+02
 11
-5.89999924E+01
 21
2.93955151E+02
  0
LINE
  8
0
  6
CENTER
 62
6
 10
-5.39999924E+01
 20
2.95373592E+02
 11
-5.39999924E+01
 21
2.90373592E+02
  0
LINE
  8
0
  6
CENTER
 62
6
 10
-5.64999924E+01
 20
2.92873592E+02
 11
-5.14999924E+01
 21
2.92873592E+02
  0
LINE
  8
0
  6
CENTER
 62
6
 10
-4.64999924E+01
 20
2.96455151E+02
 11
-4.64999924E+01
 21
2.91455151E+02
  0
LINE
  8
0
  6
CENTER
 62
6
 10
-4.89999924E+01
 20
2.93955151E+02
 11
-4.39999924E+01
 21
2.93955151E+02
  0
LINE
  8
0
 62
4
 10
-5.00982248E+01
 20
2.90401456E+02
 11
-4.87404226E+01
 21
2.90401456E+02
  0
LINE
  8
0
 62
4
 10
-4.99553771E+01
 20
2.90551163E+02
 11
-4.93240822E+01
 21
2.90551163E+02
  0
LINE
  8
0
 62
4
 10
-4.30999924E+01
 20
2.92131951E+02
 11
-3.89999924E+01
 21
2.92131951E+02
  0
LINE
  8
0
 62
4
 10
-4.42595621E+01
 20
2.90401456E+02
 11
-3.89999924E+01
 21
2.90401456E+02
  0
LINE
  8
0
 62
7
 10
-5.39999924E+01
 20
3.12100021E+02
 11
-8.00000229E+01
 21
3.12100021E+02
  0
LINE
  8
0
 62
7
 10
-5.39999924E+01
 20
3.14499985E+02
 11
-7.99999924E+01
 21
3.14499985E+02
  0
LINE
  8
0
 62
7
 10
-6.89999924E+01
 20
3.04899994E+02
 11
-8.00000229E+01
 21
3.04899994E+02
  0
LINE
  8
0
 62
7
 10
-1.00000076E+01
 20
2.56100021E+02
 11
-8.00000229E+01
 21
2.56100021E+02
  0
LINE
  8
0
 62
7
 10
-1.00000076E+01
 20
2.48899994E+02
 11
-8.00000229E+01
 21
2.48899994E+02
  0
LINE
  8
0
 62
7
 10
-1.00000076E+01
 20
2.46500031E+02
 11
-7.99999924E+01
 21
2.46500031E+02
  0
LINE
  8
0
 62
4
 10
-9.10000813E+01
 20
-2.53358825E+02
 11
-8.60000813E+01
 21
-2.53358816E+02
  0
LINE
  8
0
 62
4
 10
-7.29999852E+01
 20
-2.98696997E+02
 11
-3.99999852E+01
 21
-2.98696938E+02
  0
LINE
  8
0
 62
4
 10
-3.99999852E+01
 20
-3.00500038E+02
 11
-3.99999852E+01
 21
-2.97231822E+02
  0
LINE
  8
0
 62
4
 10
-7.29999852E+01
 20
-3.00500038E+02
 11
-7.29999852E+01
 21
-2.97231881E+02
  0
LINE
  8
0
 62
4
 10
-3.69999951E+01
 20
-2.92482488E+02
 11
-3.99999852E+01
 21
-2.97231822E+02
  0
LINE
  8
0
 62
4
 10
-7.59999951E+01
 20
-2.92482558E+02
 11
-7.29999852E+01
 21
-2.97231881E+02
  0
POLYLINE
  8
0
 62
4
 66
1
  0
VERTEX
  8
0
 62
4
 10
-6.80000041E+01
 20
-2.85228323E+02
  0
VERTEX
  8
0
 62
4
 10
-6.79847879E+01
 20
-2.85557953E+02
  0
VERTEX
  8
0
 62
4
 10
-6.79392451E+01
 20
-2.85885075E+02
  0
VERTEX
  8
0
 62
4
 10
-6.78637222E+01
 20
-2.86207198E+02
  0
VERTEX
  8
0
 62
4
 10
-6.77587942E+01
 20
-2.86521873E+02
  0
VERTEX
  8
0
 62
4
 10
-6.76252595E+01
 20
-2.86826703E+02
  0
VERTEX
  8
0
 62
4
 10
-6.74641344E+01
 20
-2.87119369E+02
  0
VERTEX
  8
0
 62
4
 10
-6.72766451E+01
 20
-2.87397643E+02
  0
VERTEX
  8
0
 62
4
 10
-6.70642187E+01
 20
-2.87659408E+02
  0
VERTEX
  8
0
 62
4
 10
-6.68284717E+01
 20
-2.87902672E+02
  0
VERTEX
  8
0
 62
4
 10
-6.65711984E+01
 20
-2.88125582E+02
  0
VERTEX
  8
0
 62
4
 10
-6.62943568E+01
 20
-2.88326443E+02
  0
VERTEX
  8
0
 62
4
 10
-6.60000537E+01
 20
-2.88503726E+02
  0
VERTEX
  8
0
 62
4
 10
-6.56905291E+01
 20
-2.88656082E+02
  0
VERTEX
  8
0
 62
4
 10
-6.53681385E+01
 20
-2.88782351E+02
  0
VERTEX
  8
0
 62
4
 10
-6.50353356E+01
 20
-2.88881572E+02
  0
VERTEX
  8
0
 62
4
 10
-6.46946532E+01
 20
-2.88952990E+02
  0
VERTEX
  8
0
 62
4
 10
-6.43486841E+01
 20
-2.88996061E+02
  0
VERTEX
  8
0
 62
4
 10
-6.40000614E+01
 20
-2.89010458E+02
  0
VERTEX
  8
0
 62
4
 10
-6.36514382E+01
 20
-2.88996072E+02
  0
VERTEX
  8
0
 62
4
 10
-6.33054678E+01
 20
-2.88953011E+02
  0
VERTEX
  8
0
 62
4
 10
-6.29647832E+01
 20
-2.88881603E+02
  0
VERTEX
  8
0
 62
4
 10
-6.26319773E+01
 20
-2.88782392E+02
  0
VERTEX
  8
0
 62
4
 10
-6.23095830E+01
 20
-2.88656133E+02
  0
VERTEX
  8
0
 62
4
 10
-6.20000537E+01
 20
-2.88503787E+02
  0
VERTEX
  8
0
 62
4
 10
-6.17057453E+01
 20
-2.88326513E+02
  0
VERTEX
  8
0
 62
4
 10
-6.14288975E+01
 20
-2.88125660E+02
  0
VERTEX
  8
0
 62
4
 10
-6.11716175E+01
 20
-2.87902757E+02
  0
VERTEX
  8
0
 62
4
 10
-6.09358631E+01
 20
-2.87659501E+02
  0
VERTEX
  8
0
 62
4
 10
-6.07234288E+01
 20
-2.87397742E+02
  0
VERTEX
  8
0
 62
4
 10
-6.05359311E+01
 20
-2.87119474E+02
  0
VERTEX
  8
0
 62
4
 10
-6.03747972E+01
 20
-2.86826813E+02
  0
VERTEX
  8
0
 62
4
 10
-6.02412532E+01
 20
-2.86521987E+02
  0
VERTEX
  8
0
 62
4
 10
-6.01363156E+01
 20
-2.86207315E+02
  0
VERTEX
  8
0
 62
4
 10
-6.00607830E+01
 20
-2.85885194E+02
  0
VERTEX
  8
0
 62
4
 10
-6.00152303E+01
 20
-2.85558074E+02
  0
VERTEX
  8
0
 62
4
 10
-6.00000041E+01
 20
-2.85228445E+02
  0
VERTEX
  8
0
 62
4
 10
-6.00152203E+01
 20
-2.84898815E+02
  0
VERTEX
  8
0
 62
4
 10
-6.00607631E+01
 20
-2.84571693E+02
  0
VERTEX
  8
0
 62
4
 10
-6.01362860E+01
 20
-2.84249570E+02
  0
VERTEX
  8
0
 62
4
 10
-6.02412140E+01
 20
-2.83934895E+02
  0
VERTEX
  8
0
 62
4
 10
-6.03747487E+01
 20
-2.83630065E+02
  0
VERTEX
  8
0
 62
4
 10
-6.05358739E+01
 20
-2.83337399E+02
  0
VERTEX
  8
0
 62
4
 10
-6.07233631E+01
 20
-2.83059125E+02
  0
VERTEX
  8
0
 62
4
 10
-6.09357895E+01
 20
-2.82797360E+02
  0
VERTEX
  8
0
 62
4
 10
-6.11715365E+01
 20
-2.82554096E+02
  0
VERTEX
  8
0
 62
4
 10
-6.14288098E+01
 20
-2.82331186E+02
  0
VERTEX
  8
0
 62
4
 10
-6.17056514E+01
 20
-2.82130325E+02
  0
VERTEX
  8
0
 62
4
 10
-6.19999545E+01
 20
-2.81953042E+02
  0
VERTEX
  8
0
 62
4
 10
-6.23094792E+01
 20
-2.81800686E+02
  0
VERTEX
  8
0
 62
4
 10
-6.26318697E+01
 20
-2.81674417E+02
  0
VERTEX
  8
0
 62
4
 10
-6.29646726E+01
 20
-2.81575196E+02
  0
VERTEX
  8
0
 62
4
 10
-6.33053550E+01
 20
-2.81503778E+02
  0
VERTEX
  8
0
 62
4
 10
-6.36513241E+01
 20
-2.81460707E+02
  0
VERTEX
  8
0
 62
4
 10
-6.39999468E+01
 20
-2.81446310E+02
  0
VERTEX
  8
0
 62
4
 10
-6.43485700E+01
 20
-2.81460696E+02
  0
VERTEX
  8
0
 62
4
 10
-6.46945404E+01
 20
-2.81503757E+02
  0
VERTEX
  8
0
 62
4
 10
-6.50352250E+01
 20
-2.81575165E+02
  0
VERTEX
  8
0
 62
4
 10
-6.53680309E+01
 20
-2.81674376E+02
  0
VERTEX
  8
0
 62
4
 10
-6.56904252E+01
 20
-2.81800635E+02
  0
VERTEX
  8
0
 62
4
 10
-6.59999545E+01
 20
-2.81952981E+02
  0
VERTEX
  8
0
 62
4
 10
-6.62942629E+01
 20
-2.82130255E+02
  0
VERTEX
  8
0
 62
4
 10
-6.65711107E+01
 20
-2.82331108E+02
  0
VERTEX
  8
0
 62
4
 10
-6.68283907E+01
 20
-2.82554011E+02
  0
VERTEX
  8
0
 62
4
 10
-6.70641451E+01
 20
-2.82797267E+02
  0
VERTEX
  8
0
 62
4
 10
-6.72765794E+01
 20
-2.83059026E+02
  0
VERTEX
  8
0
 62
4
 10
-6.74640771E+01
 20
-2.83337294E+02
  0
VERTEX
  8
0
 62
4
 10
-6.76252110E+01
 20
-2.83629955E+02
  0
VERTEX
  8
0
 62
4
 10
-6.77587550E+01
 20
-2.83934781E+02
  0
VERTEX
  8
0
 62
4
 10
-6.78636926E+01
 20
-2.84249453E+02
  0
VERTEX
  8
0
 62
4
 10
-6.79392252E+01
 20
-2.84571574E+02
  0
VERTEX
  8
0
 62
4
 10
-6.79847779E+01
 20
-2.84898694E+02
  0
VERTEX
  8
0
 62
4
 10
-6.80000041E+01
 20
-2.85228323E+02
  0
SEQEND
  8
0
  0
POLYLINE
  8
0
 62
4
 66
1
  0
VERTEX
  8
0
 62
4
 10
-6.74000051E+01
 20
-2.84636755E+02
  0
VERTEX
  8
0
 62
4
 10
-6.73870722E+01
 20
-2.84919410E+02
  0
VERTEX
  8
0
 62
4
 10
-6.73483617E+01
 20
-2.85199914E+02
  0
VERTEX
  8
0
 62
4
 10
-6.72841681E+01
 20
-2.85476133E+02
  0
VERTEX
  8
0
 62
4
 10
-6.71949801E+01
 20
-2.85745964E+02
  0
VERTEX
  8
0
 62
4
 10
-6.70814764E+01
 20
-2.86007353E+02
  0
VERTEX
  8
0
 62
4
 10
-6.69445208E+01
 20
-2.86258312E+02
  0
VERTEX
  8
0
 62
4
 10
-6.67851557E+01
 20
-2.86496931E+02
  0
VERTEX
  8
0
 62
4
 10
-6.66045940E+01
 20
-2.86721393E+02
  0
VERTEX
  8
0
 62
4
 10
-6.64042097E+01
 20
-2.86929990E+02
  0
VERTEX
  8
0
 62
4
 10
-6.61855280E+01
 20
-2.87121134E+02
  0
VERTEX
  8
0
 62
4
 10
-6.59502131E+01
 20
-2.87293372E+02
  0
VERTEX
  8
0
 62
4
 10
-6.57000560E+01
 20
-2.87445391E+02
  0
VERTEX
  8
0
 62
4
 10
-6.54369604E+01
 20
-2.87576035E+02
  0
VERTEX
  8
0
 62
4
 10
-6.51629288E+01
 20
-2.87684311E+02
  0
VERTEX
  8
0
 62
4
 10
-6.48800466E+01
 20
-2.87769393E+02
  0
VERTEX
  8
0
 62
4
 10
-6.45904668E+01
 20
-2.87830634E+02
  0
VERTEX
  8
0
 62
4
 10
-6.42963931E+01
 20
-2.87867568E+02
  0
VERTEX
  8
0
 62
4
 10
-6.40000638E+01
 20
-2.87879914E+02
  0
VERTEX
  8
0
 62
4
 10
-6.37037341E+01
 20
-2.87867579E+02
  0
VERTEX
  8
0
 62
4
 10
-6.34096591E+01
 20
-2.87830655E+02
  0
VERTEX
  8
0
 62
4
 10
-6.31200771E+01
 20
-2.87769424E+02
  0
VERTEX
  8
0
 62
4
 10
-6.28371918E+01
 20
-2.87684353E+02
  0
VERTEX
  8
0
 62
4
 10
-6.25631562E+01
 20
-2.87576087E+02
  0
VERTEX
  8
0
 62
4
 10
-6.23000560E+01
 20
-2.87445453E+02
  0
VERTEX
  8
0
 62
4
 10
-6.20498933E+01
 20
-2.87293442E+02
  0
VERTEX
  8
0
 62
4
 10
-6.18145722E+01
 20
-2.87121213E+02
  0
VERTEX
  8
0
 62
4
 10
-6.15958836E+01
 20
-2.86930077E+02
  0
VERTEX
  8
0
 62
4
 10
-6.13954918E+01
 20
-2.86721487E+02
  0
VERTEX
  8
0
 62
4
 10
-6.12149218E+01
 20
-2.86497032E+02
  0
VERTEX
  8
0
 62
4
 10
-6.10555481E+01
 20
-2.86258419E+02
  0
VERTEX
  8
0
 62
4
 10
-6.09185834E+01
 20
-2.86007465E+02
  0
VERTEX
  8
0
 62
4
 10
-6.08050703E+01
 20
-2.85746080E+02
  0
VERTEX
  8
0
 62
4
 10
-6.07158725E+01
 20
-2.85476252E+02
  0
VERTEX
  8
0
 62
4
 10
-6.06516689E+01
 20
-2.85200036E+02
  0
VERTEX
  8
0
 62
4
 10
-6.06129482E+01
 20
-2.84919533E+02
  0
VERTEX
  8
0
 62
4
 10
-6.06000051E+01
 20
-2.84636879E+02
  0
VERTEX
  8
0
 62
4
 10
-6.06129380E+01
 20
-2.84354224E+02
  0
VERTEX
  8
0
 62
4
 10
-6.06516485E+01
 20
-2.84073720E+02
  0
VERTEX
  8
0
 62
4
 10
-6.07158421E+01
 20
-2.83797501E+02
  0
VERTEX
  8
0
 62
4
 10
-6.08050301E+01
 20
-2.83527670E+02
  0
VERTEX
  8
0
 62
4
 10
-6.09185338E+01
 20
-2.83266281E+02
  0
VERTEX
  8
0
 62
4
 10
-6.10554894E+01
 20
-2.83015322E+02
  0
VERTEX
  8
0
 62
4
 10
-6.12148545E+01
 20
-2.82776703E+02
  0
VERTEX
  8
0
 62
4
 10
-6.13954162E+01
 20
-2.82552241E+02
  0
VERTEX
  8
0
 62
4
 10
-6.15958005E+01
 20
-2.82343644E+02
  0
VERTEX
  8
0
 62
4
 10
-6.18144822E+01
 20
-2.82152500E+02
  0
VERTEX
  8
0
 62
4
 10
-6.20497971E+01
 20
-2.81980262E+02
  0
VERTEX
  8
0
 62
4
 10
-6.22999542E+01
 20
-2.81828243E+02
  0
VERTEX
  8
0
 62
4
 10
-6.25630498E+01
 20
-2.81697599E+02
  0
VERTEX
  8
0
 62
4
 10
-6.28370814E+01
 20
-2.81589323E+02
  0
VERTEX
  8
0
 62
4
 10
-6.31199636E+01
 20
-2.81504241E+02
  0
VERTEX
  8
0
 62
4
 10
-6.34095435E+01
 20
-2.81443000E+02
  0
VERTEX
  8
0
 62
4
 10
-6.37036171E+01
 20
-2.81406066E+02
  0
VERTEX
  8
0
 62
4
 10
-6.39999464E+01
 20
-2.81393720E+02
  0
VERTEX
  8
0
 62
4
 10
-6.42962761E+01
 20
-2.81406055E+02
  0
VERTEX
  8
0
 62
4
 10
-6.45903511E+01
 20
-2.81442979E+02
  0
VERTEX
  8
0
 62
4
 10
-6.48799331E+01
 20
-2.81504210E+02
  0
VERTEX
  8
0
 62
4
 10
-6.51628184E+01
 20
-2.81589281E+02
  0
VERTEX
  8
0
 62
4
 10
-6.54368540E+01
 20
-2.81697547E+02
  0
VERTEX
  8
0
 62
4
 10
-6.56999542E+01
 20
-2.81828181E+02
  0
VERTEX
  8
0
 62
4
 10
-6.59501169E+01
 20
-2.81980192E+02
  0
VERTEX
  8
0
 62
4
 10
-6.61854380E+01
 20
-2.82152421E+02
  0
VERTEX
  8
0
 62
4
 10
-6.64041266E+01
 20
-2.82343557E+02
  0
VERTEX
  8
0
 62
4
 10
-6.66045185E+01
 20
-2.82552147E+02
  0
VERTEX
  8
0
 62
4
 10
-6.67850884E+01
 20
-2.82776602E+02
  0
VERTEX
  8
0
 62
4
 10
-6.69444621E+01
 20
-2.83015215E+02
  0
VERTEX
  8
0
 62
4
 10
-6.70814268E+01
 20
-2.83266169E+02
  0
VERTEX
  8
0
 62
4
 10
-6.71949399E+01
 20
-2.83527554E+02
  0
VERTEX
  8
0
 62
4
 10
-6.72841377E+01
 20
-2.83797382E+02
  0
VERTEX
  8
0
 62
4
 10
-6.73483413E+01
 20
-2.84073598E+02
  0
VERTEX
  8
0
 62
4
 10
-6.73870620E+01
 20
-2.84354101E+02
  0
VERTEX
  8
0
 62
4
 10
-6.74000051E+01
 20
-2.84636755E+02
  0
SEQEND
  8
0
  0
POLYLINE
  8
0
 62
4
 66
1
  0
VERTEX
  8
0
 62
4
 10
-6.74000041E+01
 20
-2.85228333E+02
  0
VERTEX
  8
0
 62
4
 10
-6.73870344E+01
 20
-2.85508906E+02
  0
VERTEX
  8
0
 62
4
 10
-6.73482158E+01
 20
-2.85787338E+02
  0
VERTEX
  8
0
 62
4
 10
-6.72838445E+01
 20
-2.86061505E+02
  0
VERTEX
  8
0
 62
4
 10
-6.71944118E+01
 20
-2.86329313E+02
  0
VERTEX
  8
0
 62
4
 10
-6.70806002E+01
 20
-2.86588720E+02
  0
VERTEX
  8
0
 62
4
 10
-6.69432784E+01
 20
-2.86837744E+02
  0
VERTEX
  8
0
 62
4
 10
-6.67834942E+01
 20
-2.87074487E+02
  0
VERTEX
  8
0
 62
4
 10
-6.66024672E+01
 20
-2.87297140E+02
  0
VERTEX
  8
0
 62
4
 10
-6.64015789E+01
 20
-2.87504006E+02
  0
VERTEX
  8
0
 62
4
 10
-6.61823624E+01
 20
-2.87693504E+02
  0
VERTEX
  8
0
 62
4
 10
-6.59464907E+01
 20
-2.87864189E+02
  0
VERTEX
  8
0
 62
4
 10
-6.56957640E+01
 20
-2.88014759E+02
  0
VERTEX
  8
0
 62
4
 10
-6.54320957E+01
 20
-2.88144063E+02
  0
VERTEX
  8
0
 62
4
 10
-6.51574980E+01
 20
-2.88251116E+02
  0
VERTEX
  8
0
 62
4
 10
-6.48740666E+01
 20
-2.88335100E+02
  0
VERTEX
  8
0
 62
4
 10
-6.45839646E+01
 20
-2.88395375E+02
  0
VERTEX
  8
0
 62
4
 10
-6.42894060E+01
 20
-2.88431480E+02
  0
VERTEX
  8
0
 62
4
 10
-6.39926387E+01
 20
-2.88443140E+02
  0
VERTEX
  8
0
 62
4
 10
-6.36959277E+01
 20
-2.88430265E+02
  0
VERTEX
  8
0
 62
4
 10
-6.34015373E+01
 20
-2.88392955E+02
  0
VERTEX
  8
0
 62
4
 10
-6.31117142E+01
 20
-2.88331493E+02
  0
VERTEX
  8
0
 62
4
 10
-6.28286703E+01
 20
-2.88246350E+02
  0
VERTEX
  8
0
 62
4
 10
-6.25545657E+01
 20
-2.88138174E+02
  0
VERTEX
  8
0
 62
4
 10
-6.22914924E+01
 20
-2.88007791E+02
  0
VERTEX
  8
0
 62
4
 10
-6.20414579E+01
 20
-2.87856197E+02
  0
VERTEX
  8
0
 62
4
 10
-6.18063706E+01
 20
-2.87684548E+02
  0
VERTEX
  8
0
 62
4
 10
-6.15880244E+01
 20
-2.87494154E+02
  0
VERTEX
  8
0
 62
4
 10
-6.13880859E+01
 20
-2.87286468E+02
  0
VERTEX
  8
0
 62
4
 10
-6.12080808E+01
 20
-2.87063076E+02
  0
VERTEX
  8
0
 62
4
 10
-6.10493830E+01
 20
-2.86825681E+02
  0
VERTEX
  8
0
 62
4
 10
-6.09132035E+01
 20
-2.86576097E+02
  0
VERTEX
  8
0
 62
4
 10
-6.08005817E+01
 20
-2.86316227E+02
  0
VERTEX
  8
0
 62
4
 10
-6.07123770E+01
 20
-2.86048055E+02
  0
VERTEX
  8
0
 62
4
 10
-6.06492626E+01
 20
-2.85773628E+02
  0
VERTEX
  8
0
 62
4
 10
-6.06117202E+01
 20
-2.85495039E+02
  0
VERTEX
  8
0
 62
4
 10
-6.06000362E+01
 20
-2.85214415E+02
  0
VERTEX
  8
0
 62
4
 10
-6.06142999E+01
 20
-2.84933898E+02
  0
SEQEND
  8
0
  0
LINE
  8
0
  6
CENTER
 62
6
 10
-6.39999943E+01
 20
-2.90651769E+02
 11
-6.40000173E+01
 21
-2.77851769E+02
  0
LINE
  8
0
  6
CENTER
 62
6
 10
-7.04000058E+01
 20
-2.84251780E+02
 11
-5.76000058E+01
 21
-2.84251757E+02
  0
LINE
  8
0
 62
4
 10
-7.15000831E+01
 20
-2.52344824E+02
 11
-5.65000831E+01
 21
-2.52344797E+02
  0
LINE
  8
0
 62
4
 10
-7.35000419E+01
 20
-2.75331656E+02
 11
-5.45000419E+01
 21
-2.75331622E+02
  0
LINE
  8
0
 62
4
 10
-7.60000166E+01
 20
-2.80476164E+02
 11
-7.59999951E+01
 21
-2.92482558E+02
  0
LINE
  8
0
 62
4
 10
-7.35000419E+01
 20
-2.75331656E+02
 11
-7.35000353E+01
 21
-2.78976140E+02
  0
LINE
  8
0
 62
4
 10
-5.65000831E+01
 20
-2.52344797E+02
 11
-5.65000419E+01
 21
-2.75331625E+02
  0
LINE
  8
0
 62
4
 10
-7.15000831E+01
 20
-2.52344797E+02
 11
-7.15000419E+01
 21
-2.75331652E+02
  0
LINE
  8
0
 62
4
 10
-5.45000419E+01
 20
-2.75331622E+02
 11
-5.45000353E+01
 21
-2.78976126E+02
  0
LINE
  8
0
 62
4
 10
-7.15000424E+01
 20
-2.75037270E+02
 11
-5.65000424E+01
 21
-2.75037243E+02
  0
LINE
  8
0
 62
4
 10
-3.70000166E+01
 20
-2.80476094E+02
 11
-3.69999951E+01
 21
-2.92482488E+02
  0
LINE
  8
0
 62
4
 10
-7.29999852E+01
 20
-2.97231881E+02
 11
-3.99999852E+01
 21
-2.97231822E+02
  0
LINE
  8
0
 62
4
 10
-7.59999951E+01
 20
-2.92482558E+02
 11
-3.69999951E+01
 21
-2.92482488E+02
  0
LINE
  8
0
 62
4
 10
-7.59999976E+01
 20
-2.91064280E+02
 11
-3.69999976E+01
 21
-2.91064210E+02
  0
LINE
  8
0
 62
4
 10
-7.45000193E+01
 20
-2.78976162E+02
 11
-3.85000193E+01
 21
-2.78976097E+02
  0
LINE
  8
0
 62
4
 10
-9.10000787E+01
 20
-2.54797782E+02
 11
-8.60000787E+01
 21
-2.54797773E+02
  0
LINE
  8
0
 62
4
 10
-9.10000660E+01
 20
-2.61889172E+02
 11
-8.60000660E+01
 21
-2.61889163E+02
  0
LINE
  8
0
 62
4
 10
-9.10000558E+01
 20
-2.67560514E+02
 11
-8.60000558E+01
 21
-2.67560505E+02
  0
LINE
  8
0
 62
4
 10
-8.05000480E+01
 20
-2.67453348E+02
 11
-7.20000480E+01
 21
-2.67453333E+02
  0
LINE
  8
0
 62
4
 10
-7.15000811E+01
 20
-2.53453338E+02
 11
-8.05000811E+01
 21
-2.53453354E+02
  0
LINE
  8
0
 62
4
 10
-8.10000802E+01
 20
-2.53953355E+02
 11
-8.10000569E+01
 21
-2.66953355E+02
  0
LINE
  8
0
 62
4
 10
-9.10000813E+01
 20
-2.53358825E+02
 11
-9.10000558E+01
 21
-2.67560514E+02
  0
LINE
  8
0
 62
4
 10
-8.60000813E+01
 20
-2.53358825E+02
 11
-8.60000558E+01
 21
-2.67560514E+02
  0
LINE
  8
0
 62
4
 10
-8.60000798E+01
 20
-2.54203347E+02
 11
-8.10000798E+01
 21
-2.54203338E+02
  0
LINE
  8
0
 62
4
 10
-8.60000573E+01
 20
-2.66703347E+02
 11
-8.10000573E+01
 21
-2.66703338E+02
  0
LINE
  8
0
 62
4
 10
-8.45000798E+01
 20
-2.54203344E+02
 11
-8.45000573E+01
 21
-2.66703344E+02
  0
LINE
  8
0
 62
4
 10
-8.45000789E+01
 20
-2.54703344E+02
 11
-8.10000789E+01
 21
-2.54703338E+02
  0
LINE
  8
0
 62
4
 10
-8.45000582E+01
 20
-2.66203344E+02
 11
-8.10000582E+01
 21
-2.66203338E+02
  0
ARC
  8
0
 62
4
 10
-8.05025552E+01
 20
-2.53950879E+02
 40
4.97531232E-01
 50
8.97150889E+01
 51
1.80285117E+02
  0
ARC
  8
0
 62
4
 10
-7.19975722E+01
 20
-2.67950858E+02
 40
4.97531232E-01
 50
3.59715089E+02
 51
9.02851166E+01
  0
ARC
  8
0
 62
4
 10
-3.84975376E+01
 20
-2.80473618E+02
 40
1.49752302E+00
 50
3.59905254E+02
 51
9.00949513E+01
  0
ARC
  8
0
 62
4
 10
-8.04975617E+01
 20
-2.66950861E+02
 40
5.02493390E-01
 50
1.80283706E+02
 51
2.69716500E+02
  0
ARC
  8
0
 62
4
 10
-7.45024956E+01
 20
-2.80473683E+02
 40
1.49752302E+00
 50
8.99052542E+01
 51
1.80094952E+02
  0
LINE
  8
0
 62
6
 10
-6.22850678E+01
 20
-2.86351752E+02
 11
-6.57149424E+01
 21
-2.82921882E+02
  0
LINE
  8
0
 62
6
 10
-6.57149400E+01
 20
-2.86351755E+02
 11
-6.22850703E+01
 21
-2.82921880E+02
  0
ARC
  8
0
 62
4
 10
-3.74062906E+02
 20
-2.60453315E+02
 40
7.00000000E+00
 50
7.79182752E+01
 51
1.00872928E+02
  0
ARC
  8
0
 62
4
 10
-3.74062906E+02
 20
-2.60453315E+02
 40
7.00000000E+00
 50
1.17236957E+02
 51
1.40081725E+02
  0
ARC
  8
0
 62
4
 10
-3.56778501E+02
 20
-2.81471137E+02
 40
2.49501993E+00
 50
1.88855230E+01
 51
1.09114477E+02
  0
ARC
  8
0
 62
4
 10
-3.74746424E+02
 20
-2.87663278E+02
 40
2.50001642E+00
 50
1.09000376E+02
 51
1.98999623E+02
  0
CIRCLE
  8
0
 62
4
 10
-3.74062906E+02
 20
-2.60453315E+02
 40
3.75000000E+00
  0
ARC
  8
0
 62
4
 10
-3.51457107E+02
 20
-2.82390306E+02
 40
9.96609194E-01
 50
3.15516728E+01
 51
1.09414475E+02
  0
ARC
  8
0
 62
4
 10
-3.60651060E+02
 20
-2.88076376E+02
 40
1.18067922E+01
 50
6.08754926E+00
 51
3.17195580E+01
  0
ARC
  8
0
 62
4
 10
-3.49898765E+02
 20
-2.86931049E+02
 40
1.00271607E+00
 50
2.88866852E+02
 51
6.16700057E+00
  0
LINE
  8
0
 62
4
 10
-3.53619468E+02
 20
-2.81446287E+02
 11
-3.51014922E+02
 21
-2.89010436E+02
  0
LINE
  8
0
  6
CENTER
 62
6
 10
-3.82507603E+02
 20
-2.95623753E+02
 11
-3.46644084E+02
 21
-2.83274953E+02
  0
LINE
  8
0
 62
4
 10
-3.49574516E+02
 20
-2.87879892E+02
 11
-3.51210263E+02
 21
-2.88443125E+02
  0
LINE
  8
0
 62
4
 10
-3.53424127E+02
 20
-2.82013598E+02
 11
-3.51788380E+02
 21
-2.81450366E+02
  0
LINE
  8
0
 62
4
 10
-3.51487682E+02
 20
-2.89173220E+02
 11
-3.51014922E+02
 21
-2.89010436E+02
  0
LINE
  8
0
 62
4
 10
-3.54092227E+02
 20
-2.81609071E+02
 11
-3.53619468E+02
 21
-2.81446287E+02
  0
LINE
  8
0
 62
4
 10
-3.73551611E+02
 20
-2.53936803E+02
 11
-3.68928026E+02
 21
-2.52344774E+02
  0
LINE
  8
0
 62
4
 10
-3.76511023E+02
 20
-2.53358802E+02
 11
-3.69141016E+02
 21
-2.54797759E+02
  0
LINE
  8
0
 62
4
 10
-3.78990996E+02
 20
-2.66121535E+02
 11
-3.71620989E+02
 21
-2.67560491E+02
  0
LINE
  8
0
 62
4
 10
-3.69141016E+02
 20
-2.54797759E+02
 11
-3.66699255E+02
 21
-2.61889149E+02
  0
LINE
  8
0
 62
4
 10
-3.81432757E+02
 20
-2.59030145E+02
 11
-3.78990996E+02
 21
-2.66121535E+02
  0
LINE
  8
0
 62
4
 10
-3.81432757E+02
 20
-2.59030145E+02
 11
-3.76511023E+02
 21
-2.53358802E+02
  0
LINE
  8
0
 62
4
 10
-3.71620989E+02
 20
-2.67560491E+02
 11
-3.66699255E+02
 21
-2.61889149E+02
  0
LINE
  8
0
 62
4
 10
-3.62082356E+02
 20
-2.89119587E+02
 11
-3.61268436E+02
 21
-2.91483383E+02
  0
LINE
  8
0
 62
4
 10
-3.65864430E+02
 20
-2.90421859E+02
 11
-3.65050510E+02
 21
-2.92785656E+02
  0
LINE
  8
0
 62
4
 10
-3.65050510E+02
 20
-2.92785656E+02
 11
-3.61268436E+02
 21
-2.91483383E+02
  0
LINE
  8
0
 62
4
 10
-3.65864430E+02
 20
-2.90421859E+02
 11
-3.62082356E+02
 21
-2.89119587E+02
  0
LINE
  8
0
 62
4
 10
-3.68075061E+02
 20
-2.96999954E+02
 11
-3.50836545E+02
 21
-2.91064257E+02
  0
LINE
  8
0
 62
4
 10
-3.50348193E+02
 20
-2.92482535E+02
 11
-3.51810656E+02
 21
-2.96999954E+02
  0
LINE
  8
0
 62
4
 10
-3.77110241E+02
 20
-2.88477189E+02
 11
-3.74175617E+02
 21
-2.96999954E+02
  0
LINE
  8
0
 62
4
 10
-3.54417795E+02
 20
-2.80663553E+02
 11
-3.50348193E+02
 21
-2.92482535E+02
  0
LINE
  8
0
 62
4
 10
-3.63467731E+02
 20
-2.96999954E+02
 11
-3.50348193E+02
 21
-2.92482535E+02
  0
LINE
  8
0
 62
4
 10
-3.75560365E+02
 20
-2.85299472E+02
 11
-3.57595512E+02
 21
-2.79113677E+02
  0
LINE
  8
0
 62
4
 10
-3.76862638E+02
 20
-2.81517397E+02
 11
-3.75560365E+02
 21
-2.85299472E+02
  0
LINE
  8
0
 62
4
 10
-3.58897785E+02
 20
-2.75331602E+02
 11
-3.57595512E+02
 21
-2.79113677E+02
  0
LINE
  8
0
 62
4
 10
-3.75297169E+02
 20
-2.79920742E+02
 11
-3.61114390E+02
 21
-2.75037220E+02
  0
LINE
  8
0
 62
4
 10
-3.76862638E+02
 20
-2.81517397E+02
 11
-3.58897785E+02
 21
-2.75331602E+02
  0
LINE
  8
0
 62
4
 10
-3.83110804E+02
 20
-2.57228297E+02
 11
-3.74971600E+02
 21
-2.80866261E+02
  0
LINE
  8
0
 62
4
 10
-3.68928026E+02
 20
-2.52344774E+02
 11
-3.60788822E+02
 21
-2.75982739E+02
  0
LINE
  8
0
 62
4
 10
-3.83110804E+02
 20
-2.57228297E+02
 11
-3.78487218E+02
 21
-2.55636268E+02
  0
LINE
  8
0
 62
4
 10
-3.82148056E+02
 20
-2.90740658E+02
 11
-3.85197434E+02
 21
-2.96999954E+02
  0
LINE
  8
0
 62
4
 10
-3.82148056E+02
 20
-2.90740658E+02
 11
-3.76947457E+02
 21
-2.88949948E+02
  0
ARC
  8
0
 62
4
 10
1.57432328E+02
 20
-2.91549224E+02
 40
9.97523260E-01
 50
2.61759467E+01
 51
7.08169962E+01
  0
LINE
  8
0
 62
4
 10
1.58327549E+02
 20
-2.91109188E+02
 11
1.61197388E+02
 21
-2.96999954E+02
  0
LINE
  8
0
 62
4
 10
1.41864385E+02
 20
-2.90421859E+02
 11
1.41050464E+02
 21
-2.92785656E+02
  0
LINE
  8
0
 62
4
 10
1.41050464E+02
 20
-2.92785656E+02
 11
1.37268390E+02
 21
-2.91483383E+02
  0
LINE
  8
0
 62
4
 10
1.26348147E+02
 20
-2.92482535E+02
 11
1.27810610E+02
 21
-2.96999954E+02
  0
LINE
  8
0
 62
4
 10
1.39467685E+02
 20
-2.96999954E+02
 11
1.26348147E+02
 21
-2.92482535E+02
  0
LINE
  8
0
 62
4
 10
1.44075016E+02
 20
-2.96999954E+02
 11
1.26836500E+02
 21
-2.91064257E+02
  0
ARC
  8
0
 62
4
 10
1.32778455E+02
 20
-2.81471137E+02
 40
2.49501993E+00
 50
7.08855231E+01
 51
1.61114477E+02
  0
ARC
  8
0
 62
4
 10
1.50746378E+02
 20
-2.87663278E+02
 40
2.50001642E+00
 50
3.41000376E+02
 51
7.09996236E+01
  0
ARC
  8
0
 62
4
 10
1.36639039E+02
 20
-2.88115199E+02
 40
1.18081149E+01
 50
1.48089798E+02
 51
1.73718975E+02
  0
ARC
  8
0
 62
4
 10
1.27457062E+02
 20
-2.82390306E+02
 40
9.96609194E-01
 50
7.05855253E+01
 51
1.48448327E+02
  0
ARC
  8
0
 62
4
 10
1.25898719E+02
 20
-2.86931049E+02
 40
1.00271607E+00
 50
1.73833000E+02
 51
2.51133148E+02
  0
LINE
  8
0
 62
4
 10
1.29619422E+02
 20
-2.81446287E+02
 11
1.27014877E+02
 21
-2.89010436E+02
  0
LINE
  8
0
 62
4
 10
1.25574470E+02
 20
-2.87879892E+02
 11
1.27210218E+02
 21
-2.88443125E+02
  0
LINE
  8
0
 62
4
 10
1.29424081E+02
 20
-2.82013598E+02
 11
1.27788334E+02
 21
-2.81450366E+02
  0
LINE
  8
0
 62
4
 10
1.27487636E+02
 20
-2.89173220E+02
 11
1.27014877E+02
 21
-2.89010436E+02
  0
LINE
  8
0
 62
4
 10
1.30092181E+02
 20
-2.81609071E+02
 11
1.29619422E+02
 21
-2.81446287E+02
  0
LINE
  8
0
 62
4
 10
1.51560319E+02
 20
-2.85299472E+02
 11
1.33595466E+02
 21
-2.79113677E+02
  0
LINE
  8
0
 62
4
 10
1.52862592E+02
 20
-2.81517397E+02
 11
1.51560319E+02
 21
-2.85299472E+02
  0
LINE
  8
0
 62
4
 10
1.34897739E+02
 20
-2.75331602E+02
 11
1.33595466E+02
 21
-2.79113677E+02
  0
LINE
  8
0
 62
4
 10
1.52862592E+02
 20
-2.81517397E+02
 11
1.34897739E+02
 21
-2.75331602E+02
  0
LINE
  8
0
  6
CENTER
 62
6
 10
1.43600333E+02
 20
-2.79237191E+02
 11
1.42092796E+02
 21
-2.83615397E+02
  0
LINE
  8
0
 62
4
 10
1.39268578E+02
 20
-2.81067086E+02
 11
1.39934532E+02
 21
-2.80238772E+02
  0
LINE
  8
0
 62
4
 10
1.45872389E+02
 20
-2.82283340E+02
 11
1.45887208E+02
 21
-2.83346063E+02
  0
LINE
  8
0
 62
4
 10
1.39934532E+02
 20
-2.80238772E+02
 11
1.45872389E+02
 21
-2.82283340E+02
  0
LINE
  8
0
 62
4
 10
1.57760101E+02
 20
-2.90607090E+02
 11
1.52947411E+02
 21
-2.88949948E+02
  0
LINE
  8
0
 62
4
 10
1.51297123E+02
 20
-2.79920742E+02
 11
1.37114344E+02
 21
-2.75037220E+02
  0
LINE
  8
0
 62
4
 10
1.30417749E+02
 20
-2.80663553E+02
 11
1.26348147E+02
 21
-2.92482535E+02
  0
LINE
  8
0
 62
4
 10
1.53110195E+02
 20
-2.88477189E+02
 11
1.50175572E+02
 21
-2.96999954E+02
  0
LINE
  8
0
 62
4
 10
1.41864385E+02
 20
-2.90421859E+02
 11
1.38082310E+02
 21
-2.89119587E+02
  0
LINE
  8
0
 62
4
 10
1.38082310E+02
 20
-2.89119587E+02
 11
1.37268390E+02
 21
-2.91483383E+02
  0
LINE
  8
0
  6
CENTER
 62
6
 10
1.58507557E+02
 20
-2.95623753E+02
 11
1.22644038E+02
 21
-2.83274953E+02
  0
LINE
  8
0
 62
4
 10
1.52510977E+02
 20
-2.53358802E+02
 11
1.51381416E+02
 21
-2.53579344E+02
  0
LINE
  8
0
 62
4
 10
1.53265305E+02
 20
-2.54228018E+02
 11
1.52510977E+02
 21
-2.53358802E+02
  0
LINE
  8
0
 62
4
 10
1.44927980E+02
 20
-2.52344774E+02
 11
1.59110758E+02
 21
-2.57228297E+02
  0
ARC
  8
0
 62
4
 10
1.50067581E+02
 20
-2.60454941E+02
 40
7.00000000E+00
 50
3.99182754E+01
 51
1.02081725E+02
  0
LINE
  8
0
 62
4
 10
1.44927980E+02
 20
-2.52344774E+02
 11
1.36788776E+02
 21
-2.75982739E+02
  0
LINE
  8
0
 62
4
 10
1.59110758E+02
 20
-2.57228297E+02
 11
1.50971555E+02
 21
-2.80866261E+02
  0
ARC
  8
0
 62
4
 10
-7.45024841E+01
 20
-1.64770744E+02
 40
1.49750400E+00
 50
1.79904421E+02
 51
2.70095579E+02
  0
ARC
  8
0
 62
4
 10
-3.84974841E+01
 20
-1.64770748E+02
 40
1.49750021E+00
 50
2.69904276E+02
 51
9.57242462E-02
  0
LINE
  8
0
 62
4
 10
-7.34999860E+01
 20
-1.63904450E+02
 11
-5.44999860E+01
 21
-1.63904450E+02
  0
POLYLINE
  8
0
 62
4
 66
1
  0
VERTEX
  8
0
 62
4
 10
-4.48599860E+01
 20
-1.54596480E+02
  0
VERTEX
  8
0
 62
4
 10
-4.48719346E+01
 20
-1.54337721E+02
  0
VERTEX
  8
0
 62
4
 10
-4.49076897E+01
 20
-1.54080931E+02
  0
VERTEX
  8
0
 62
4
 10
-4.49669789E+01
 20
-1.53828065E+02
  0
VERTEX
  8
0
 62
4
 10
-4.50493512E+01
 20
-1.53581047E+02
  0
VERTEX
  8
0
 62
4
 10
-4.51541795E+01
 20
-1.53341757E+02
  0
VERTEX
  8
0
 62
4
 10
-4.52806662E+01
 20
-1.53112016E+02
  0
VERTEX
  8
0
 62
4
 10
-4.54278486E+01
 20
-1.52893573E+02
  0
VERTEX
  8
0
 62
4
 10
-4.55946064E+01
 20
-1.52688090E+02
  0
VERTEX
  8
0
 62
4
 10
-4.57796707E+01
 20
-1.52497131E+02
  0
VERTEX
  8
0
 62
4
 10
-4.59816329E+01
 20
-1.52322149E+02
  0
VERTEX
  8
0
 62
4
 10
-4.61989560E+01
 20
-1.52164476E+02
  0
VERTEX
  8
0
 62
4
 10
-4.64299860E+01
 20
-1.52025313E+02
  0
VERTEX
  8
0
 62
4
 10
-4.66729647E+01
 20
-1.51905717E+02
  0
VERTEX
  8
0
 62
4
 10
-4.69260428E+01
 20
-1.51806600E+02
  0
VERTEX
  8
0
 62
4
 10
-4.71872942E+01
 20
-1.51728715E+02
  0
VERTEX
  8
0
 62
4
 10
-4.74547307E+01
 20
-1.51672656E+02
  0
VERTEX
  8
0
 62
4
 10
-4.77263170E+01
 20
-1.51638849E+02
  0
VERTEX
  8
0
 62
4
 10
-4.79999860E+01
 20
-1.51627552E+02
  0
VERTEX
  8
0
 62
4
 10
-4.82736550E+01
 20
-1.51638849E+02
  0
VERTEX
  8
0
 62
4
 10
-4.85452413E+01
 20
-1.51672656E+02
  0
VERTEX
  8
0
 62
4
 10
-4.88126778E+01
 20
-1.51728715E+02
  0
VERTEX
  8
0
 62
4
 10
-4.90739293E+01
 20
-1.51806600E+02
  0
VERTEX
  8
0
 62
4
 10
-4.93270073E+01
 20
-1.51905717E+02
  0
VERTEX
  8
0
 62
4
 10
-4.95699860E+01
 20
-1.52025313E+02
  0
VERTEX
  8
0
 62
4
 10
-4.98010160E+01
 20
-1.52164476E+02
  0
VERTEX
  8
0
 62
4
 10
-5.00183391E+01
 20
-1.52322149E+02
  0
VERTEX
  8
0
 62
4
 10
-5.02203013E+01
 20
-1.52497131E+02
  0
VERTEX
  8
0
 62
4
 10
-5.04053656E+01
 20
-1.52688090E+02
  0
VERTEX
  8
0
 62
4
 10
-5.05721234E+01
 20
-1.52893573E+02
  0
VERTEX
  8
0
 62
4
 10
-5.07193058E+01
 20
-1.53112016E+02
  0
VERTEX
  8
0
 62
4
 10
-5.08457925E+01
 20
-1.53341757E+02
  0
VERTEX
  8
0
 62
4
 10
-5.09506208E+01
 20
-1.53581047E+02
  0
VERTEX
  8
0
 62
4
 10
-5.10329931E+01
 20
-1.53828065E+02
  0
VERTEX
  8
0
 62
4
 10
-5.10922823E+01
 20
-1.54080931E+02
  0
VERTEX
  8
0
 62
4
 10
-5.11280374E+01
 20
-1.54337721E+02
  0
VERTEX
  8
0
 62
4
 10
-5.11399860E+01
 20
-1.54596480E+02
  0
VERTEX
  8
0
 62
4
 10
-5.11280374E+01
 20
-1.54855239E+02
  0
VERTEX
  8
0
 62
4
 10
-5.10922823E+01
 20
-1.55112029E+02
  0
VERTEX
  8
0
 62
4
 10
-5.10329931E+01
 20
-1.55364895E+02
  0
VERTEX
  8
0
 62
4
 10
-5.09506208E+01
 20
-1.55611913E+02
  0
VERTEX
  8
0
 62
4
 10
-5.08457924E+01
 20
-1.55851203E+02
  0
VERTEX
  8
0
 62
4
 10
-5.07193058E+01
 20
-1.56080944E+02
  0
VERTEX
  8
0
 62
4
 10
-5.05721234E+01
 20
-1.56299387E+02
  0
VERTEX
  8
0
 62
4
 10
-5.04053655E+01
 20
-1.56504870E+02
  0
VERTEX
  8
0
 62
4
 10
-5.02203013E+01
 20
-1.56695829E+02
  0
VERTEX
  8
0
 62
4
 10
-5.00183391E+01
 20
-1.56870811E+02
  0
VERTEX
  8
0
 62
4
 10
-4.98010160E+01
 20
-1.57028484E+02
  0
VERTEX
  8
0
 62
4
 10
-4.95699860E+01
 20
-1.57167647E+02
  0
VERTEX
  8
0
 62
4
 10
-4.93270073E+01
 20
-1.57287243E+02
  0
VERTEX
  8
0
 62
4
 10
-4.90739292E+01
 20
-1.57386360E+02
  0
VERTEX
  8
0
 62
4
 10
-4.88126778E+01
 20
-1.57464245E+02
  0
VERTEX
  8
0
 62
4
 10
-4.85452413E+01
 20
-1.57520304E+02
  0
VERTEX
  8
0
 62
4
 10
-4.82736550E+01
 20
-1.57554111E+02
  0
VERTEX
  8
0
 62
4
 10
-4.79999860E+01
 20
-1.57565408E+02
  0
VERTEX
  8
0
 62
4
 10
-4.77263170E+01
 20
-1.57554111E+02
  0
VERTEX
  8
0
 62
4
 10
-4.74547307E+01
 20
-1.57520304E+02
  0
VERTEX
  8
0
 62
4
 10
-4.71872942E+01
 20
-1.57464245E+02
  0
VERTEX
  8
0
 62
4
 10
-4.69260427E+01
 20
-1.57386360E+02
  0
VERTEX
  8
0
 62
4
 10
-4.66729647E+01
 20
-1.57287243E+02
  0
VERTEX
  8
0
 62
4
 10
-4.64299860E+01
 20
-1.57167647E+02
  0
VERTEX
  8
0
 62
4
 10
-4.61989560E+01
 20
-1.57028484E+02
  0
VERTEX
  8
0
 62
4
 10
-4.59816329E+01
 20
-1.56870811E+02
  0
VERTEX
  8
0
 62
4
 10
-4.57796707E+01
 20
-1.56695829E+02
  0
VERTEX
  8
0
 62
4
 10
-4.55946064E+01
 20
-1.56504870E+02
  0
VERTEX
  8
0
 62
4
 10
-4.54278486E+01
 20
-1.56299387E+02
  0
VERTEX
  8
0
 62
4
 10
-4.52806662E+01
 20
-1.56080944E+02
  0
VERTEX
  8
0
 62
4
 10
-4.51541795E+01
 20
-1.55851203E+02
  0
VERTEX
  8
0
 62
4
 10
-4.50493512E+01
 20
-1.55611913E+02
  0
VERTEX
  8
0
 62
4
 10
-4.49669789E+01
 20
-1.55364895E+02
  0
VERTEX
  8
0
 62
4
 10
-4.49076897E+01
 20
-1.55112029E+02
  0
VERTEX
  8
0
 62
4
 10
-4.48719346E+01
 20
-1.54855239E+02
  0
VERTEX
  8
0
 62
4
 10
-4.48599860E+01
 20
-1.54596480E+02
  0
SEQEND
  8
0
  0
POLYLINE
  8
0
 62
4
 66
1
  0
VERTEX
  8
0
 62
4
 10
-4.44999860E+01
 20
-1.54922048E+02
  0
VERTEX
  8
0
 62
4
 10
-4.45133046E+01
 20
-1.54633622E+02
  0
VERTEX
  8
0
 62
4
 10
-4.45531589E+01
 20
-1.54347391E+02
  0
VERTEX
  8
0
 62
4
 10
-4.46192456E+01
 20
-1.54065534E+02
  0
VERTEX
  8
0
 62
4
 10
-4.47110618E+01
 20
-1.53790196E+02
  0
VERTEX
  8
0
 62
4
 10
-4.48279087E+01
 20
-1.53523471E+02
  0
VERTEX
  8
0
 62
4
 10
-4.49688971E+01
 20
-1.53267390E+02
  0
VERTEX
  8
0
 62
4
 10
-4.51329538E+01
 20
-1.53023903E+02
  0
VERTEX
  8
0
 62
4
 10
-4.53188304E+01
 20
-1.52794861E+02
  0
VERTEX
  8
0
 62
4
 10
-4.55251123E+01
 20
-1.52582009E+02
  0
VERTEX
  8
0
 62
4
 10
-4.57502294E+01
 20
-1.52386966E+02
  0
VERTEX
  8
0
 62
4
 10
-4.59924685E+01
 20
-1.52211216E+02
  0
VERTEX
  8
0
 62
4
 10
-4.62499860E+01
 20
-1.52056097E+02
  0
VERTEX
  8
0
 62
4
 10
-4.65208221E+01
 20
-1.51922790E+02
  0
VERTEX
  8
0
 62
4
 10
-4.68029155E+01
 20
-1.51812309E+02
  0
VERTEX
  8
0
 62
4
 10
-4.70941193E+01
 20
-1.51725495E+02
  0
VERTEX
  8
0
 62
4
 10
-4.73922174E+01
 20
-1.51663009E+02
  0
VERTEX
  8
0
 62
4
 10
-4.76949409E+01
 20
-1.51625326E+02
  0
VERTEX
  8
0
 62
4
 10
-4.79999860E+01
 20
-1.51612733E+02
  0
VERTEX
  8
0
 62
4
 10
-4.83050311E+01
 20
-1.51625326E+02
  0
VERTEX
  8
0
 62
4
 10
-4.86077546E+01
 20
-1.51663009E+02
  0
VERTEX
  8
0
 62
4
 10
-4.89058527E+01
 20
-1.51725495E+02
  0
VERTEX
  8
0
 62
4
 10
-4.91970565E+01
 20
-1.51812309E+02
  0
VERTEX
  8
0
 62
4
 10
-4.94791499E+01
 20
-1.51922790E+02
  0
VERTEX
  8
0
 62
4
 10
-4.97499860E+01
 20
-1.52056097E+02
  0
VERTEX
  8
0
 62
4
 10
-5.00075035E+01
 20
-1.52211216E+02
  0
VERTEX
  8
0
 62
4
 10
-5.02497426E+01
 20
-1.52386966E+02
  0
VERTEX
  8
0
 62
4
 10
-5.04748597E+01
 20
-1.52582009E+02
  0
VERTEX
  8
0
 62
4
 10
-5.06811416E+01
 20
-1.52794861E+02
  0
VERTEX
  8
0
 62
4
 10
-5.08670182E+01
 20
-1.53023903E+02
  0
VERTEX
  8
0
 62
4
 10
-5.10310749E+01
 20
-1.53267390E+02
  0
VERTEX
  8
0
 62
4
 10
-5.11720633E+01
 20
-1.53523471E+02
  0
VERTEX
  8
0
 62
4
 10
-5.12889102E+01
 20
-1.53790196E+02
  0
VERTEX
  8
0
 62
4
 10
-5.13807264E+01
 20
-1.54065534E+02
  0
VERTEX
  8
0
 62
4
 10
-5.14468131E+01
 20
-1.54347391E+02
  0
VERTEX
  8
0
 62
4
 10
-5.14866674E+01
 20
-1.54633622E+02
  0
VERTEX
  8
0
 62
4
 10
-5.14999860E+01
 20
-1.54922048E+02
  0
VERTEX
  8
0
 62
4
 10
-5.14866674E+01
 20
-1.55210474E+02
  0
VERTEX
  8
0
 62
4
 10
-5.14468131E+01
 20
-1.55496705E+02
  0
VERTEX
  8
0
 62
4
 10
-5.13807264E+01
 20
-1.55778562E+02
  0
VERTEX
  8
0
 62
4
 10
-5.12889102E+01
 20
-1.56053900E+02
  0
VERTEX
  8
0
 62
4
 10
-5.11720633E+01
 20
-1.56320625E+02
  0
VERTEX
  8
0
 62
4
 10
-5.10310749E+01
 20
-1.56576706E+02
  0
VERTEX
  8
0
 62
4
 10
-5.08670182E+01
 20
-1.56820193E+02
  0
VERTEX
  8
0
 62
4
 10
-5.06811415E+01
 20
-1.57049235E+02
  0
VERTEX
  8
0
 62
4
 10
-5.04748597E+01
 20
-1.57262087E+02
  0
VERTEX
  8
0
 62
4
 10
-5.02497426E+01
 20
-1.57457130E+02
  0
VERTEX
  8
0
 62
4
 10
-5.00075035E+01
 20
-1.57632880E+02
  0
VERTEX
  8
0
 62
4
 10
-4.97499860E+01
 20
-1.57787999E+02
  0
VERTEX
  8
0
 62
4
 10
-4.94791499E+01
 20
-1.57921306E+02
  0
VERTEX
  8
0
 62
4
 10
-4.91970565E+01
 20
-1.58031787E+02
  0
VERTEX
  8
0
 62
4
 10
-4.89058527E+01
 20
-1.58118601E+02
  0
VERTEX
  8
0
 62
4
 10
-4.86077546E+01
 20
-1.58181087E+02
  0
VERTEX
  8
0
 62
4
 10
-4.83050311E+01
 20
-1.58218770E+02
  0
VERTEX
  8
0
 62
4
 10
-4.79999860E+01
 20
-1.58231363E+02
  0
VERTEX
  8
0
 62
4
 10
-4.76949409E+01
 20
-1.58218770E+02
  0
VERTEX
  8
0
 62
4
 10
-4.73922174E+01
 20
-1.58181087E+02
  0
VERTEX
  8
0
 62
4
 10
-4.70941193E+01
 20
-1.58118601E+02
  0
VERTEX
  8
0
 62
4
 10
-4.68029155E+01
 20
-1.58031787E+02
  0
VERTEX
  8
0
 62
4
 10
-4.65208221E+01
 20
-1.57921306E+02
  0
VERTEX
  8
0
 62
4
 10
-4.62499860E+01
 20
-1.57787999E+02
  0
VERTEX
  8
0
 62
4
 10
-4.59924685E+01
 20
-1.57632880E+02
  0
VERTEX
  8
0
 62
4
 10
-4.57502294E+01
 20
-1.57457130E+02
  0
VERTEX
  8
0
 62
4
 10
-4.55251123E+01
 20
-1.57262087E+02
  0
VERTEX
  8
0
 62
4
 10
-4.53188304E+01
 20
-1.57049235E+02
  0
VERTEX
  8
0
 62
4
 10
-4.51329538E+01
 20
-1.56820193E+02
  0
VERTEX
  8
0
 62
4
 10
-4.49688971E+01
 20
-1.56576705E+02
  0
VERTEX
  8
0
 62
4
 10
-4.48279087E+01
 20
-1.56320625E+02
  0
VERTEX
  8
0
 62
4
 10
-4.47110618E+01
 20
-1.56053900E+02
  0
VERTEX
  8
0
 62
4
 10
-4.46192456E+01
 20
-1.55778562E+02
  0
VERTEX
  8
0
 62
4
 10
-4.45531589E+01
 20
-1.55496705E+02
  0
VERTEX
  8
0
 62
4
 10
-4.45133046E+01
 20
-1.55210474E+02
  0
VERTEX
  8
0
 62
4
 10
-4.44999860E+01
 20
-1.54922048E+02
  0
SEQEND
  8
0
  0
LINE
  8
0
 62
4
 10
-7.14999860E+01
 20
-1.60711140E+02
 11
-5.64999860E+01
 21
-1.60711140E+02
  0
LINE
  8
0
  6
CENTER
 62
6
 10
-6.86760838E+01
 20
-1.45480547E+02
 11
-5.93238882E+01
 21
-1.45480547E+02
  0
LINE
  8
0
 62
4
 10
-6.05999860E+01
 20
-1.71151769E+02
 11
-3.84999860E+01
 21
-1.71151769E+02
  0
POLYLINE
  8
0
 62
4
 66
1
  0
VERTEX
  8
0
 62
4
 10
-6.05999860E+01
 20
-1.69182767E+02
  0
VERTEX
  8
0
 62
4
 10
-6.06136734E+01
 20
-1.69083542E+02
  0
VERTEX
  8
0
 62
4
 10
-6.06546254E+01
 20
-1.68985117E+02
  0
VERTEX
  8
0
 62
4
 10
-6.07225123E+01
 20
-1.68888282E+02
  0
VERTEX
  8
0
 62
4
 10
-6.08167874E+01
 20
-1.68793819E+02
  0
VERTEX
  8
0
 62
4
 10
-6.09366918E+01
 20
-1.68702487E+02
  0
VERTEX
  8
0
 62
4
 10
-6.10812601E+01
 20
-1.68615023E+02
  0
VERTEX
  8
0
 62
4
 10
-6.12493282E+01
 20
-1.68532129E+02
  0
VERTEX
  8
0
 62
4
 10
-6.14395430E+01
 20
-1.68454474E+02
  0
VERTEX
  8
0
 62
4
 10
-6.16503730E+01
 20
-1.68382682E+02
  0
VERTEX
  8
0
 62
4
 10
-6.18801207E+01
 20
-1.68317333E+02
  0
VERTEX
  8
0
 62
4
 10
-6.21269363E+01
 20
-1.68258951E+02
  0
VERTEX
  8
0
 62
4
 10
-6.23888325E+01
 20
-1.68208008E+02
  0
VERTEX
  8
0
 62
4
 10
-6.26637009E+01
 20
-1.68164913E+02
  0
VERTEX
  8
0
 62
4
 10
-6.29493282E+01
 20
-1.68130012E+02
  0
VERTEX
  8
0
 62
4
 10
-6.32434148E+01
 20
-1.68103588E+02
  0
VERTEX
  8
0
 62
4
 10
-6.35435929E+01
 20
-1.68085853E+02
  0
VERTEX
  8
0
 62
4
 10
-6.38474456E+01
 20
-1.68076950E+02
  0
VERTEX
  8
0
 62
4
 10
-6.41525264E+01
 20
-1.68076950E+02
  0
VERTEX
  8
0
 62
4
 10
-6.44563791E+01
 20
-1.68085853E+02
  0
VERTEX
  8
0
 62
4
 10
-6.47565572E+01
 20
-1.68103588E+02
  0
VERTEX
  8
0
 62
4
 10
-6.50506438E+01
 20
-1.68130012E+02
  0
VERTEX
  8
0
 62
4
 10
-6.53362711E+01
 20
-1.68164913E+02
  0
VERTEX
  8
0
 62
4
 10
-6.56111394E+01
 20
-1.68208008E+02
  0
VERTEX
  8
0
 62
4
 10
-6.58730357E+01
 20
-1.68258951E+02
  0
VERTEX
  8
0
 62
4
 10
-6.61198513E+01
 20
-1.68317333E+02
  0
VERTEX
  8
0
 62
4
 10
-6.63495990E+01
 20
-1.68382682E+02
  0
VERTEX
  8
0
 62
4
 10
-6.65604290E+01
 20
-1.68454474E+02
  0
VERTEX
  8
0
 62
4
 10
-6.67506438E+01
 20
-1.68532129E+02
  0
VERTEX
  8
0
 62
4
 10
-6.69187119E+01
 20
-1.68615023E+02
  0
VERTEX
  8
0
 62
4
 10
-6.70632801E+01
 20
-1.68702487E+02
  0
VERTEX
  8
0
 62
4
 10
-6.71831846E+01
 20
-1.68793819E+02
  0
VERTEX
  8
0
 62
4
 10
-6.72774597E+01
 20
-1.68888282E+02
  0
VERTEX
  8
0
 62
4
 10
-6.73453466E+01
 20
-1.68985117E+02
  0
VERTEX
  8
0
 62
4
 10
-6.73862986E+01
 20
-1.69083542E+02
  0
VERTEX
  8
0
 62
4
 10
-6.73999860E+01
 20
-1.69182767E+02
  0
SEQEND
  8
0
  0
LINE
  8
0
 62
4
 10
-6.79999860E+01
 20
-1.68710007E+02
 11
-6.79999860E+01
 21
-1.69182767E+02
  0
LINE
  8
0
 62
4
 10
-5.99999860E+01
 20
-1.68710007E+02
 11
-5.99999860E+01
 21
-1.69182767E+02
  0
POLYLINE
  8
0
 62
4
 66
1
  0
VERTEX
  8
0
 62
4
 10
-6.05999860E+01
 20
-1.69868782E+02
  0
VERTEX
  8
0
 62
4
 10
-6.04269340E+01
 20
-1.69768183E+02
  0
VERTEX
  8
0
 62
4
 10
-6.02818910E+01
 20
-1.69662996E+02
  0
VERTEX
  8
0
 62
4
 10
-6.01659942E+01
 20
-1.69554044E+02
  0
VERTEX
  8
0
 62
4
 10
-6.00801519E+01
 20
-1.69442182E+02
  0
VERTEX
  8
0
 62
4
 10
-6.00250371E+01
 20
-1.69328286E+02
  0
VERTEX
  8
0
 62
4
 10
-6.00010819E+01
 20
-1.69213249E+02
  0
VERTEX
  8
0
 62
4
 10
-6.00084741E+01
 20
-1.69097974E+02
  0
VERTEX
  8
0
 62
4
 10
-6.00471556E+01
 20
-1.68983363E+02
  0
VERTEX
  8
0
 62
4
 10
-6.01168233E+01
 20
-1.68870315E+02
  0
VERTEX
  8
0
 62
4
 10
-6.02169310E+01
 20
-1.68759717E+02
  0
VERTEX
  8
0
 62
4
 10
-6.03466941E+01
 20
-1.68652435E+02
  0
VERTEX
  8
0
 62
4
 10
-6.05050952E+01
 20
-1.68549310E+02
  0
VERTEX
  8
0
 62
4
 10
-6.06908927E+01
 20
-1.68451151E+02
  0
VERTEX
  8
0
 62
4
 10
-6.09026302E+01
 20
-1.68358727E+02
  0
VERTEX
  8
0
 62
4
 10
-6.11386478E+01
 20
-1.68272762E+02
  0
VERTEX
  8
0
 62
4
 10
-6.13970953E+01
 20
-1.68193931E+02
  0
VERTEX
  8
0
 62
4
 10
-6.16759469E+01
 20
-1.68122852E+02
  0
VERTEX
  8
0
 62
4
 10
-6.19730165E+01
 20
-1.68060081E+02
  0
VERTEX
  8
0
 62
4
 10
-6.22859756E+01
 20
-1.68006111E+02
  0
VERTEX
  8
0
 62
4
 10
-6.26123707E+01
 20
-1.67961365E+02
  0
VERTEX
  8
0
 62
4
 10
-6.29496434E+01
 20
-1.67926193E+02
  0
VERTEX
  8
0
 62
4
 10
-6.32951496E+01
 20
-1.67900871E+02
  0
VERTEX
  8
0
 62
4
 10
-6.36461811E+01
 20
-1.67885599E+02
  0
VERTEX
  8
0
 62
4
 10
-6.39999860E+01
 20
-1.67880494E+02
  0
VERTEX
  8
0
 62
4
 10
-6.43537909E+01
 20
-1.67885599E+02
  0
VERTEX
  8
0
 62
4
 10
-6.47048224E+01
 20
-1.67900871E+02
  0
VERTEX
  8
0
 62
4
 10
-6.50503286E+01
 20
-1.67926193E+02
  0
VERTEX
  8
0
 62
4
 10
-6.53876012E+01
 20
-1.67961365E+02
  0
VERTEX
  8
0
 62
4
 10
-6.57139964E+01
 20
-1.68006111E+02
  0
VERTEX
  8
0
 62
4
 10
-6.60269554E+01
 20
-1.68060081E+02
  0
VERTEX
  8
0
 62
4
 10
-6.63240251E+01
 20
-1.68122852E+02
  0
VERTEX
  8
0
 62
4
 10
-6.66028767E+01
 20
-1.68193931E+02
  0
VERTEX
  8
0
 62
4
 10
-6.68613242E+01
 20
-1.68272762E+02
  0
VERTEX
  8
0
 62
4
 10
-6.70973418E+01
 20
-1.68358727E+02
  0
VERTEX
  8
0
 62
4
 10
-6.73090792E+01
 20
-1.68451151E+02
  0
VERTEX
  8
0
 62
4
 10
-6.74948768E+01
 20
-1.68549310E+02
  0
VERTEX
  8
0
 62
4
 10
-6.76532779E+01
 20
-1.68652435E+02
  0
VERTEX
  8
0
 62
4
 10
-6.77830410E+01
 20
-1.68759717E+02
  0
VERTEX
  8
0
 62
4
 10
-6.78831487E+01
 20
-1.68870315E+02
  0
VERTEX
  8
0
 62
4
 10
-6.79528164E+01
 20
-1.68983363E+02
  0
VERTEX
  8
0
 62
4
 10
-6.79914979E+01
 20
-1.69097974E+02
  0
VERTEX
  8
0
 62
4
 10
-6.79988901E+01
 20
-1.69213249E+02
  0
VERTEX
  8
0
 62
4
 10
-6.79749349E+01
 20
-1.69328286E+02
  0
VERTEX
  8
0
 62
4
 10
-6.79198201E+01
 20
-1.69442182E+02
  0
VERTEX
  8
0
 62
4
 10
-6.78339778E+01
 20
-1.69554044E+02
  0
VERTEX
  8
0
 62
4
 10
-6.77180810E+01
 20
-1.69662996E+02
  0
VERTEX
  8
0
 62
4
 10
-6.75730380E+01
 20
-1.69768183E+02
  0
VERTEX
  8
0
 62
4
 10
-6.73999860E+01
 20
-1.69868782E+02
  0
SEQEND
  8
0
  0
POLYLINE
  8
0
 62
4
 66
1
  0
VERTEX
  8
0
 62
4
 10
-5.99999860E+01
 20
-1.68710007E+02
  0
VERTEX
  8
0
 62
4
 10
-6.00160888E+01
 20
-1.68593272E+02
  0
VERTEX
  8
0
 62
4
 10
-6.00642676E+01
 20
-1.68477477E+02
  0
VERTEX
  8
0
 62
4
 10
-6.01441346E+01
 20
-1.68363555E+02
  0
VERTEX
  8
0
 62
4
 10
-6.02550465E+01
 20
-1.68252421E+02
  0
VERTEX
  8
0
 62
4
 10
-6.03961105E+01
 20
-1.68144972E+02
  0
VERTEX
  8
0
 62
4
 10
-6.05661908E+01
 20
-1.68042072E+02
  0
VERTEX
  8
0
 62
4
 10
-6.07639180E+01
 20
-1.67944550E+02
  0
VERTEX
  8
0
 62
4
 10
-6.09877001E+01
 20
-1.67853191E+02
  0
VERTEX
  8
0
 62
4
 10
-6.12357354E+01
 20
-1.67768731E+02
  0
VERTEX
  8
0
 62
4
 10
-6.15060268E+01
 20
-1.67691849E+02
  0
VERTEX
  8
0
 62
4
 10
-6.17963981E+01
 20
-1.67623165E+02
  0
VERTEX
  8
0
 62
4
 10
-6.21045113E+01
 20
-1.67563232E+02
  0
VERTEX
  8
0
 62
4
 10
-6.24278859E+01
 20
-1.67512531E+02
  0
VERTEX
  8
0
 62
4
 10
-6.27639180E+01
 20
-1.67471472E+02
  0
VERTEX
  8
0
 62
4
 10
-6.31099023E+01
 20
-1.67440385E+02
  0
VERTEX
  8
0
 62
4
 10
-6.34630529E+01
 20
-1.67419520E+02
  0
VERTEX
  8
0
 62
4
 10
-6.38205267E+01
 20
-1.67409046E+02
  0
VERTEX
  8
0
 62
4
 10
-6.41794453E+01
 20
-1.67409046E+02
  0
VERTEX
  8
0
 62
4
 10
-6.45369191E+01
 20
-1.67419520E+02
  0
VERTEX
  8
0
 62
4
 10
-6.48900697E+01
 20
-1.67440385E+02
  0
VERTEX
  8
0
 62
4
 10
-6.52360540E+01
 20
-1.67471472E+02
  0
VERTEX
  8
0
 62
4
 10
-6.55720861E+01
 20
-1.67512531E+02
  0
VERTEX
  8
0
 62
4
 10
-6.58954606E+01
 20
-1.67563232E+02
  0
VERTEX
  8
0
 62
4
 10
-6.62035739E+01
 20
-1.67623165E+02
  0
VERTEX
  8
0
 62
4
 10
-6.64939452E+01
 20
-1.67691849E+02
  0
VERTEX
  8
0
 62
4
 10
-6.67642366E+01
 20
-1.67768731E+02
  0
VERTEX
  8
0
 62
4
 10
-6.70122719E+01
 20
-1.67853191E+02
  0
VERTEX
  8
0
 62
4
 10
-6.72360540E+01
 20
-1.67944550E+02
  0
VERTEX
  8
0
 62
4
 10
-6.74337812E+01
 20
-1.68042072E+02
  0
VERTEX
  8
0
 62
4
 10
-6.76038615E+01
 20
-1.68144972E+02
  0
VERTEX
  8
0
 62
4
 10
-6.77449255E+01
 20
-1.68252421E+02
  0
VERTEX
  8
0
 62
4
 10
-6.78558374E+01
 20
-1.68363554E+02
  0
VERTEX
  8
0
 62
4
 10
-6.79357044E+01
 20
-1.68477477E+02
  0
VERTEX
  8
0
 62
4
 10
-6.79838832E+01
 20
-1.68593272E+02
  0
VERTEX
  8
0
 62
4
 10
-6.79999860E+01
 20
-1.68710007E+02
  0
SEQEND
  8
0
  0
LINE
  8
0
  6
CENTER
 62
6
 10
-4.79999860E+01
 20
-1.48852229E+02
 11
-4.79999860E+01
 21
-1.60340731E+02
  0
LINE
  8
0
  6
CENTER
 62
6
 10
-5.37442369E+01
 20
-1.54596480E+02
 11
-4.22557350E+01
 21
-1.54596480E+02
  0
LINE
  8
0
 62
4
 10
-8.09999860E+01
 20
-1.40937056E+02
 11
-8.09999860E+01
 21
-1.53937056E+02
  0
ARC
  8
0
 62
4
 10
-8.04974834E+01
 20
-1.40939559E+02
 40
5.02508801E-01
 50
9.02853429E+01
 51
1.79714657E+02
  0
LINE
  8
0
 62
4
 10
-7.14999860E+01
 20
-1.40437056E+02
 11
-8.04999860E+01
 21
-1.40437056E+02
  0
LINE
  8
0
 62
4
 10
-9.09999860E+01
 20
-1.54800707E+02
 11
-8.59999860E+01
 21
-1.54800707E+02
  0
LINE
  8
0
 62
4
 10
-9.09999860E+01
 20
-1.52358946E+02
 11
-8.59999860E+01
 21
-1.52358946E+02
  0
LINE
  8
0
 62
4
 10
-9.09999860E+01
 20
-1.44988939E+02
 11
-8.59999860E+01
 21
-1.44988939E+02
  0
ARC
  8
0
 62
4
 10
-7.45024841E+01
 20
-1.69654267E+02
 40
1.49750400E+00
 50
1.79904421E+02
 51
2.70095579E+02
  0
LINE
  8
0
 62
4
 10
-7.44999860E+01
 20
-1.71151769E+02
 11
-6.73999860E+01
 21
-1.71151769E+02
  0
ARC
  8
0
 62
4
 10
-3.84974841E+01
 20
-1.69654271E+02
 40
1.49750021E+00
 50
2.69904276E+02
 51
9.57242462E-02
  0
POLYLINE
  8
0
 62
4
 66
1
  0
VERTEX
  8
0
 62
4
 10
-6.09999860E+01
 20
-1.45480547E+02
  0
VERTEX
  8
0
 62
4
 10
-6.10114019E+01
 20
-1.45233325E+02
  0
VERTEX
  8
0
 62
4
 10
-6.10455627E+01
 20
-1.44987984E+02
  0
VERTEX
  8
0
 62
4
 10
-6.11022085E+01
 20
-1.44746392E+02
  0
VERTEX
  8
0
 62
4
 10
-6.11809081E+01
 20
-1.44510388E+02
  0
VERTEX
  8
0
 62
4
 10
-6.12810626E+01
 20
-1.44281767E+02
  0
VERTEX
  8
0
 62
4
 10
-6.14019098E+01
 20
-1.44062269E+02
  0
VERTEX
  8
0
 62
4
 10
-6.15425299E+01
 20
-1.43853565E+02
  0
VERTEX
  8
0
 62
4
 10
-6.17018527E+01
 20
-1.43657244E+02
  0
VERTEX
  8
0
 62
4
 10
-6.18786657E+01
 20
-1.43474799E+02
  0
VERTEX
  8
0
 62
4
 10
-6.20716232E+01
 20
-1.43307619E+02
  0
VERTEX
  8
0
 62
4
 10
-6.22792567E+01
 20
-1.43156977E+02
  0
VERTEX
  8
0
 62
4
 10
-6.24999860E+01
 20
-1.43024018E+02
  0
VERTEX
  8
0
 62
4
 10
-6.27321312E+01
 20
-1.42909754E+02
  0
VERTEX
  8
0
 62
4
 10
-6.29739256E+01
 20
-1.42815057E+02
  0
VERTEX
  8
0
 62
4
 10
-6.32235289E+01
 20
-1.42740645E+02
  0
VERTEX
  8
0
 62
4
 10
-6.34790415E+01
 20
-1.42687085E+02
  0
VERTEX
  8
0
 62
4
 10
-6.37385188E+01
 20
-1.42654785E+02
  0
VERTEX
  8
0
 62
4
 10
-6.39999860E+01
 20
-1.42643991E+02
  0
VERTEX
  8
0
 62
4
 10
-6.42614532E+01
 20
-1.42654785E+02
  0
VERTEX
  8
0
 62
4
 10
-6.45209305E+01
 20
-1.42687085E+02
  0
VERTEX
  8
0
 62
4
 10
-6.47764431E+01
 20
-1.42740645E+02
  0
VERTEX
  8
0
 62
4
 10
-6.50260464E+01
 20
-1.42815057E+02
  0
VERTEX
  8
0
 62
4
 10
-6.52678408E+01
 20
-1.42909754E+02
  0
VERTEX
  8
0
 62
4
 10
-6.54999860E+01
 20
-1.43024018E+02
  0
VERTEX
  8
0
 62
4
 10
-6.57207153E+01
 20
-1.43156977E+02
  0
VERTEX
  8
0
 62
4
 10
-6.59283488E+01
 20
-1.43307619E+02
  0
VERTEX
  8
0
 62
4
 10
-6.61213063E+01
 20
-1.43474799E+02
  0
VERTEX
  8
0
 62
4
 10
-6.62981193E+01
 20
-1.43657244E+02
  0
VERTEX
  8
0
 62
4
 10
-6.64574421E+01
 20
-1.43853565E+02
  0
VERTEX
  8
0
 62
4
 10
-6.65980622E+01
 20
-1.44062269E+02
  0
VERTEX
  8
0
 62
4
 10
-6.67189094E+01
 20
-1.44281767E+02
  0
VERTEX
  8
0
 62
4
 10
-6.68190639E+01
 20
-1.44510388E+02
  0
VERTEX
  8
0
 62
4
 10
-6.68977635E+01
 20
-1.44746392E+02
  0
VERTEX
  8
0
 62
4
 10
-6.69544093E+01
 20
-1.44987984E+02
  0
VERTEX
  8
0
 62
4
 10
-6.69885701E+01
 20
-1.45233325E+02
  0
VERTEX
  8
0
 62
4
 10
-6.69999860E+01
 20
-1.45480547E+02
  0
VERTEX
  8
0
 62
4
 10
-6.69885701E+01
 20
-1.45727769E+02
  0
VERTEX
  8
0
 62
4
 10
-6.69544093E+01
 20
-1.45973110E+02
  0
VERTEX
  8
0
 62
4
 10
-6.68977635E+01
 20
-1.46214702E+02
  0
VERTEX
  8
0
 62
4
 10
-6.68190639E+01
 20
-1.46450706E+02
  0
VERTEX
  8
0
 62
4
 10
-6.67189094E+01
 20
-1.46679327E+02
  0
VERTEX
  8
0
 62
4
 10
-6.65980622E+01
 20
-1.46898825E+02
  0
VERTEX
  8
0
 62
4
 10
-6.64574421E+01
 20
-1.47107529E+02
  0
VERTEX
  8
0
 62
4
 10
-6.62981193E+01
 20
-1.47303850E+02
  0
VERTEX
  8
0
 62
4
 10
-6.61213063E+01
 20
-1.47486295E+02
  0
VERTEX
  8
0
 62
4
 10
-6.59283488E+01
 20
-1.47653475E+02
  0
VERTEX
  8
0
 62
4
 10
-6.57207153E+01
 20
-1.47804117E+02
  0
VERTEX
  8
0
 62
4
 10
-6.54999860E+01
 20
-1.47937076E+02
  0
VERTEX
  8
0
 62
4
 10
-6.52678408E+01
 20
-1.48051340E+02
  0
VERTEX
  8
0
 62
4
 10
-6.50260464E+01
 20
-1.48146037E+02
  0
VERTEX
  8
0
 62
4
 10
-6.47764431E+01
 20
-1.48220449E+02
  0
VERTEX
  8
0
 62
4
 10
-6.45209305E+01
 20
-1.48274009E+02
  0
VERTEX
  8
0
 62
4
 10
-6.42614532E+01
 20
-1.48306309E+02
  0
VERTEX
  8
0
 62
4
 10
-6.39999860E+01
 20
-1.48317103E+02
  0
VERTEX
  8
0
 62
4
 10
-6.37385188E+01
 20
-1.48306309E+02
  0
VERTEX
  8
0
 62
4
 10
-6.34790415E+01
 20
-1.48274009E+02
  0
VERTEX
  8
0
 62
4
 10
-6.32235289E+01
 20
-1.48220449E+02
  0
VERTEX
  8
0
 62
4
 10
-6.29739256E+01
 20
-1.48146037E+02
  0
VERTEX
  8
0
 62
4
 10
-6.27321312E+01
 20
-1.48051340E+02
  0
VERTEX
  8
0
 62
4
 10
-6.24999860E+01
 20
-1.47937076E+02
  0
VERTEX
  8
0
 62
4
 10
-6.22792567E+01
 20
-1.47804117E+02
  0
VERTEX
  8
0
 62
4
 10
-6.20716232E+01
 20
-1.47653475E+02
  0
VERTEX
  8
0
 62
4
 10
-6.18786657E+01
 20
-1.47486295E+02
  0
VERTEX
  8
0
 62
4
 10
-6.17018527E+01
 20
-1.47303850E+02
  0
VERTEX
  8
0
 62
4
 10
-6.15425299E+01
 20
-1.47107529E+02
  0
VERTEX
  8
0
 62
4
 10
-6.14019098E+01
 20
-1.46898825E+02
  0
VERTEX
  8
0
 62
4
 10
-6.12810626E+01
 20
-1.46679327E+02
  0
VERTEX
  8
0
 62
4
 10
-6.11809081E+01
 20
-1.46450706E+02
  0
VERTEX
  8
0
 62
4
 10
-6.11022085E+01
 20
-1.46214702E+02
  0
VERTEX
  8
0
 62
4
 10
-6.10455627E+01
 20
-1.45973110E+02
  0
VERTEX
  8
0
 62
4
 10
-6.10114019E+01
 20
-1.45727769E+02
  0
VERTEX
  8
0
 62
4
 10
-6.09999860E+01
 20
-1.45480547E+02
  0
SEQEND
  8
0
  0
LINE
  8
0
 62
4
 10
-5.64999860E+01
 20
-1.44637324E+02
 11
-5.44999860E+01
 21
-1.44637324E+02
  0
LINE
  8
0
 62
4
 10
-7.34999860E+01
 20
-1.62602177E+02
 11
-5.44999860E+01
 21
-1.62602177E+02
  0
LINE
  8
0
 62
4
 10
-7.14999860E+01
 20
-1.38389158E+02
 11
-5.64999860E+01
 21
-1.38389158E+02
  0
ARC
  8
0
 62
4
 10
-8.05024761E+01
 20
-1.53939546E+02
 40
4.97516125E-01
 50
1.79713229E+02
 51
2.70286771E+02
  0
ARC
  8
0
 62
4
 10
-3.85024921E+01
 20
-1.45756028E+02
 40
1.50250815E+00
 50
9.55645858E-02
 51
8.99044354E+01
  0
LINE
  8
0
 62
4
 10
-7.44999860E+01
 20
-1.66268246E+02
 11
-3.84999860E+01
 21
-1.66268246E+02
  0
LINE
  8
0
 62
4
 10
-5.64999860E+01
 20
-1.44253522E+02
 11
-3.84999860E+01
 21
-1.44253522E+02
  0
LINE
  8
0
 62
4
 10
-7.59999860E+01
 20
-1.54437056E+02
 11
-7.59999860E+01
 21
-1.69500000E+02
  0
LINE
  8
0
 62
4
 10
-5.44999860E+01
 20
-1.44637324E+02
 11
-5.44999860E+01
 21
-1.63904450E+02
  0
LINE
  8
0
 62
4
 10
-7.34999860E+01
 20
-1.63904450E+02
 11
-7.34999860E+01
 21
-1.54437056E+02
  0
LINE
  8
0
 62
4
 10
-3.69999860E+01
 20
-1.45753522E+02
 11
-3.69999860E+01
 21
-1.69651769E+02
  0
LINE
  8
0
 62
4
 10
-9.09999860E+01
 20
-1.40067205E+02
 11
-8.59999860E+01
 21
-1.40067205E+02
  0
LINE
  8
0
 62
4
 10
-7.14999860E+01
 20
-1.52571936E+02
 11
-5.64999860E+01
 21
-1.52571936E+02
  0
LINE
  8
0
 62
4
 10
-8.44999860E+01
 20
-1.53187056E+02
 11
-8.09999860E+01
 21
-1.53187056E+02
  0
LINE
  8
0
 62
4
 10
-8.44999860E+01
 20
-1.41687056E+02
 11
-8.09999860E+01
 21
-1.41687056E+02
  0
LINE
  8
0
 62
4
 10
-8.44999860E+01
 20
-1.41187056E+02
 11
-8.44999860E+01
 21
-1.53687056E+02
  0
LINE
  8
0
 62
4
 10
-8.59999860E+01
 20
-1.53687056E+02
 11
-8.09999860E+01
 21
-1.53687056E+02
  0
LINE
  8
0
 62
4
 10
-8.59999860E+01
 20
-1.41187056E+02
 11
-8.09999860E+01
 21
-1.41187056E+02
  0
LINE
  8
0
 62
4
 10
-8.59999860E+01
 20
-1.40067205E+02
 11
-8.59999860E+01
 21
-1.54800707E+02
  0
LINE
  8
0
 62
4
 10
-9.09999860E+01
 20
-1.54800707E+02
 11
-9.09999860E+01
 21
-1.40067205E+02
  0
LINE
  8
0
 62
4
 10
-8.04999860E+01
 20
-1.54437056E+02
 11
-7.14999860E+01
 21
-1.54437056E+02
  0
LINE
  8
0
  6
CENTER
 62
6
 10
-6.39999860E+01
 20
-1.30612871E+02
 11
-6.39999860E+01
 21
-1.80599969E+02
  0
LINE
  8
0
 62
4
 10
-6.73999860E+01
 20
-1.71380283E+02
 11
-6.73999860E+01
 21
-1.69182767E+02
  0
LINE
  8
0
 62
4
 10
-6.05999860E+01
 20
-1.69182767E+02
 11
-6.05999860E+01
 21
-1.71380283E+02
  0
LINE
  8
0
 62
6
 10
-6.64999860E+01
 20
-1.30752376E+02
 11
-6.64999860E+01
 21
-1.31922376E+02
  0
LINE
  8
0
 62
4
 10
-6.99999860E+01
 20
-1.31752376E+02
 11
-6.97399860E+01
 21
-1.30752376E+02
  0
LINE
  8
0
 62
4
 10
-6.59999860E+01
 20
-1.31752376E+02
 11
-6.62699860E+01
 21
-1.30752376E+02
  0
LINE
  8
0
 62
4
 10
-6.62699860E+01
 20
-1.30752376E+02
 11
-6.97399860E+01
 21
-1.30752376E+02
  0
LINE
  8
0
 62
4
 10
-6.99999860E+01
 20
-1.31752376E+02
 11
-6.99999860E+01
 21
-1.31922376E+02
  0
LINE
  8
0
 62
4
 10
-6.59999860E+01
 20
-1.31752376E+02
 11
-6.59999860E+01
 21
-1.31922376E+02
  0
LINE
  8
0
 62
6
 10
-6.94999860E+01
 20
-1.30752376E+02
 11
-6.94999860E+01
 21
-1.31922376E+02
  0
LINE
  8
0
  6
CENTER
 62
6
 10
-6.79999860E+01
 20
-1.28922376E+02
 11
-6.79999860E+01
 21
-1.39422376E+02
  0
LINE
  8
0
 62
4
 10
-5.64999860E+01
 20
-1.31922376E+02
 11
-7.14999860E+01
 21
-1.31922376E+02
  0
LINE
  8
0
 62
4
 10
-5.64999860E+01
 20
-1.31922376E+02
 11
-5.64999860E+01
 21
-1.60711140E+02
  0
LINE
  8
0
 62
4
 10
-7.14999860E+01
 20
-1.31922376E+02
 11
-7.14999860E+01
 21
-1.60711140E+02
  0
LINE
  8
0
 62
6
 10
-6.14999860E+01
 20
-1.30752376E+02
 11
-6.14999860E+01
 21
-1.31922376E+02
  0
LINE
  8
0
 62
6
 10
-5.84999860E+01
 20
-1.30752376E+02
 11
-5.84999860E+01
 21
-1.31922376E+02
  0
LINE
  8
0
 62
4
 10
-6.19999860E+01
 20
-1.31752376E+02
 11
-6.17399860E+01
 21
-1.30752376E+02
  0
LINE
  8
0
 62
4
 10
-5.79999860E+01
 20
-1.31752376E+02
 11
-5.82699860E+01
 21
-1.30752376E+02
  0
LINE
  8
0
 62
4
 10
-5.82699860E+01
 20
-1.30752376E+02
 11
-6.17399860E+01
 21
-1.30752376E+02
  0
LINE
  8
0
 62
4
 10
-6.19999860E+01
 20
-1.31752376E+02
 11
-6.19999860E+01
 21
-1.31922376E+02
  0
LINE
  8
0
 62
4
 10
-5.79999860E+01
 20
-1.31752376E+02
 11
-5.79999860E+01
 21
-1.31922376E+02
  0
LINE
  8
0
  6
CENTER
 62
6
 10
-5.99999860E+01
 20
-1.28922376E+02
 11
-5.99999860E+01
 21
-1.39422376E+02
  0
ARC
  8
0
 62
4
 10
-6.82355810E+01
 20
-1.60602479E+02
 40
1.21769740E+01
 50
2.83121604E+02
 51
2.99537899E+02
  0
ARC
  8
0
 62
4
 10
-5.97643910E+01
 20
-1.60602479E+02
 40
1.21769740E+01
 50
2.40462101E+02
 51
2.56878396E+02
  0
POLYLINE
  8
0
 62
4
 66
1
  0
VERTEX
  8
0
 62
4
 10
-6.05999860E+01
 20
-1.71157748E+02
  0
VERTEX
  8
0
 62
4
 10
-6.06129240E+01
 20
-1.71031706E+02
  0
VERTEX
  8
0
 62
4
 10
-6.06516396E+01
 20
-1.70906624E+02
  0
VERTEX
  8
0
 62
4
 10
-6.07158382E+01
 20
-1.70783453E+02
  0
VERTEX
  8
0
 62
4
 10
-6.08050311E+01
 20
-1.70663130E+02
  0
VERTEX
  8
0
 62
4
 10
-6.09185395E+01
 20
-1.70546572E+02
  0
VERTEX
  8
0
 62
4
 10
-6.10554996E+01
 20
-1.70434665E+02
  0
VERTEX
  8
0
 62
4
 10
-6.12148690E+01
 20
-1.70328261E+02
  0
VERTEX
  8
0
 62
4
 10
-6.13954349E+01
 20
-1.70228171E+02
  0
VERTEX
  8
0
 62
4
 10
-6.15958229E+01
 20
-1.70135154E+02
  0
VERTEX
  8
0
 62
4
 10
-6.18145081E+01
 20
-1.70049921E+02
  0
VERTEX
  8
0
 62
4
 10
-6.20498261E+01
 20
-1.69973118E+02
  0
VERTEX
  8
0
 62
4
 10
-6.22999860E+01
 20
-1.69905332E+02
  0
VERTEX
  8
0
 62
4
 10
-6.25630839E+01
 20
-1.69847077E+02
  0
VERTEX
  8
0
 62
4
 10
-6.28371175E+01
 20
-1.69798797E+02
  0
VERTEX
  8
0
 62
4
 10
-6.31200012E+01
 20
-1.69760859E+02
  0
VERTEX
  8
0
 62
4
 10
-6.34095822E+01
 20
-1.69733553E+02
  0
VERTEX
  8
0
 62
4
 10
-6.37036565E+01
 20
-1.69717085E+02
  0
VERTEX
  8
0
 62
4
 10
-6.39999860E+01
 20
-1.69711582E+02
  0
VERTEX
  8
0
 62
4
 10
-6.42963155E+01
 20
-1.69717085E+02
  0
VERTEX
  8
0
 62
4
 10
-6.45903898E+01
 20
-1.69733553E+02
  0
VERTEX
  8
0
 62
4
 10
-6.48799708E+01
 20
-1.69760859E+02
  0
VERTEX
  8
0
 62
4
 10
-6.51628545E+01
 20
-1.69798797E+02
  0
VERTEX
  8
0
 62
4
 10
-6.54368881E+01
 20
-1.69847077E+02
  0
VERTEX
  8
0
 62
4
 10
-6.56999860E+01
 20
-1.69905332E+02
  0
VERTEX
  8
0
 62
4
 10
-6.59501459E+01
 20
-1.69973118E+02
  0
VERTEX
  8
0
 62
4
 10
-6.61854639E+01
 20
-1.70049921E+02
  0
VERTEX
  8
0
 62
4
 10
-6.64041491E+01
 20
-1.70135154E+02
  0
VERTEX
  8
0
 62
4
 10
-6.66045371E+01
 20
-1.70228171E+02
  0
VERTEX
  8
0
 62
4
 10
-6.67851030E+01
 20
-1.70328261E+02
  0
VERTEX
  8
0
 62
4
 10
-6.69444724E+01
 20
-1.70434665E+02
  0
VERTEX
  8
0
 62
4
 10
-6.70814325E+01
 20
-1.70546572E+02
  0
VERTEX
  8
0
 62
4
 10
-6.71949409E+01
 20
-1.70663130E+02
  0
VERTEX
  8
0
 62
4
 10
-6.72841338E+01
 20
-1.70783453E+02
  0
VERTEX
  8
0
 62
4
 10
-6.73483324E+01
 20
-1.70906624E+02
  0
VERTEX
  8
0
 62
4
 10
-6.73870480E+01
 20
-1.71031706E+02
  0
VERTEX
  8
0
 62
4
 10
-6.73999860E+01
 20
-1.71157748E+02
  0
VERTEX
  8
0
 62
4
 10
-6.73870480E+01
 20
-1.71283790E+02
  0
VERTEX
  8
0
 62
4
 10
-6.73483324E+01
 20
-1.71408872E+02
  0
VERTEX
  8
0
 62
4
 10
-6.72841338E+01
 20
-1.71532043E+02
  0
VERTEX
  8
0
 62
4
 10
-6.71949409E+01
 20
-1.71652366E+02
  0
VERTEX
  8
0
 62
4
 10
-6.70814325E+01
 20
-1.71768924E+02
  0
VERTEX
  8
0
 62
4
 10
-6.69444724E+01
 20
-1.71880831E+02
  0
VERTEX
  8
0
 62
4
 10
-6.67851029E+01
 20
-1.71987235E+02
  0
VERTEX
  8
0
 62
4
 10
-6.66045371E+01
 20
-1.72087325E+02
  0
VERTEX
  8
0
 62
4
 10
-6.64041491E+01
 20
-1.72180342E+02
  0
VERTEX
  8
0
 62
4
 10
-6.61854639E+01
 20
-1.72265575E+02
  0
VERTEX
  8
0
 62
4
 10
-6.59501459E+01
 20
-1.72342378E+02
  0
VERTEX
  8
0
 62
4
 10
-6.56999860E+01
 20
-1.72410164E+02
  0
VERTEX
  8
0
 62
4
 10
-6.54368881E+01
 20
-1.72468419E+02
  0
VERTEX
  8
0
 62
4
 10
-6.51628545E+01
 20
-1.72516699E+02
  0
VERTEX
  8
0
 62
4
 10
-6.48799707E+01
 20
-1.72554637E+02
  0
VERTEX
  8
0
 62
4
 10
-6.45903898E+01
 20
-1.72581943E+02
  0
VERTEX
  8
0
 62
4
 10
-6.42963155E+01
 20
-1.72598411E+02
  0
VERTEX
  8
0
 62
4
 10
-6.39999860E+01
 20
-1.72603914E+02
  0
VERTEX
  8
0
 62
4
 10
-6.37036565E+01
 20
-1.72598411E+02
  0
VERTEX
  8
0
 62
4
 10
-6.34095822E+01
 20
-1.72581943E+02
  0
VERTEX
  8
0
 62
4
 10
-6.31200012E+01
 20
-1.72554637E+02
  0
VERTEX
  8
0
 62
4
 10
-6.28371175E+01
 20
-1.72516699E+02
  0
VERTEX
  8
0
 62
4
 10
-6.25630839E+01
 20
-1.72468419E+02
  0
VERTEX
  8
0
 62
4
 10
-6.22999860E+01
 20
-1.72410164E+02
  0
VERTEX
  8
0
 62
4
 10
-6.20498261E+01
 20
-1.72342378E+02
  0
VERTEX
  8
0
 62
4
 10
-6.18145081E+01
 20
-1.72265575E+02
  0
VERTEX
  8
0
 62
4
 10
-6.15958229E+01
 20
-1.72180342E+02
  0
VERTEX
  8
0
 62
4
 10
-6.13954349E+01
 20
-1.72087325E+02
  0
VERTEX
  8
0
 62
4
 10
-6.12148690E+01
 20
-1.71987235E+02
  0
VERTEX
  8
0
 62
4
 10
-6.10554996E+01
 20
-1.71880831E+02
  0
VERTEX
  8
0
 62
4
 10
-6.09185395E+01
 20
-1.71768924E+02
  0
VERTEX
  8
0
 62
4
 10
-6.08050311E+01
 20
-1.71652366E+02
  0
VERTEX
  8
0
 62
4
 10
-6.07158382E+01
 20
-1.71532043E+02
  0
VERTEX
  8
0
 62
4
 10
-6.06516396E+01
 20
-1.71408872E+02
  0
VERTEX
  8
0
 62
4
 10
-6.06129240E+01
 20
-1.71283790E+02
  0
VERTEX
  8
0
 62
4
 10
-6.05999860E+01
 20
-1.71157748E+02
  0
SEQEND
  8
0
  0
LINE
  8
0
 62
4
 10
3.30859947E+02
 20
-2.81261079E+02
 11
3.30531351E+02
 21
-2.82054294E+02
  0
LINE
  8
0
 62
4
 10
3.37139947E+02
 20
-2.81261079E+02
 11
3.37499947E+02
 21
-2.82206597E+02
  0
POLYLINE
  8
0
 62
4
 66
1
  0
VERTEX
  8
0
 62
4
 10
3.30531351E+02
 20
-2.82054294E+02
  0
VERTEX
  8
0
 62
4
 10
3.30503574E+02
 20
-2.82154735E+02
  0
VERTEX
  8
0
 62
4
 10
3.30503183E+02
 20
-2.82255582E+02
  0
VERTEX
  8
0
 62
4
 10
3.30530180E+02
 20
-2.82356046E+02
  0
VERTEX
  8
0
 62
4
 10
3.30584355E+02
 20
-2.82455339E+02
  0
VERTEX
  8
0
 62
4
 10
3.30665283E+02
 20
-2.82552683E+02
  0
VERTEX
  8
0
 62
4
 10
3.30772331E+02
 20
-2.82647317E+02
  0
VERTEX
  8
0
 62
4
 10
3.30904659E+02
 20
-2.82738499E+02
  0
VERTEX
  8
0
 62
4
 10
3.31061231E+02
 20
-2.82825515E+02
  0
VERTEX
  8
0
 62
4
 10
3.31240822E+02
 20
-2.82907683E+02
  0
VERTEX
  8
0
 62
4
 10
3.31442023E+02
 20
-2.82984359E+02
  0
VERTEX
  8
0
 62
4
 10
3.31663260E+02
 20
-2.83054944E+02
  0
VERTEX
  8
0
 62
4
 10
3.31902800E+02
 20
-2.83118884E+02
  0
VERTEX
  8
0
 62
4
 10
3.32158765E+02
 20
-2.83175678E+02
  0
VERTEX
  8
0
 62
4
 10
3.32429152E+02
 20
-2.83224882E+02
  0
VERTEX
  8
0
 62
4
 10
3.32711843E+02
 20
-2.83266109E+02
  0
VERTEX
  8
0
 62
4
 10
3.33004623E+02
 20
-2.83299038E+02
  0
VERTEX
  8
0
 62
4
 10
3.33305198E+02
 20
-2.83323411E+02
  0
VERTEX
  8
0
 62
4
 10
3.33611216E+02
 20
-2.83339036E+02
  0
VERTEX
  8
0
 62
4
 10
3.33920278E+02
 20
-2.83345790E+02
  0
VERTEX
  8
0
 62
4
 10
3.34229964E+02
 20
-2.83343622E+02
  0
VERTEX
  8
0
 62
4
 10
3.34537849E+02
 20
-2.83332548E+02
  0
VERTEX
  8
0
 62
4
 10
3.34841520E+02
 20
-2.83312655E+02
  0
VERTEX
  8
0
 62
4
 10
3.35138600E+02
 20
-2.83284098E+02
  0
VERTEX
  8
0
 62
4
 10
3.35426761E+02
 20
-2.83247102E+02
  0
VERTEX
  8
0
 62
4
 10
3.35703746E+02
 20
-2.83201956E+02
  0
VERTEX
  8
0
 62
4
 10
3.35967386E+02
 20
-2.83149013E+02
  0
VERTEX
  8
0
 62
4
 10
3.36215616E+02
 20
-2.83088689E+02
  0
VERTEX
  8
0
 62
4
 10
3.36446491E+02
 20
-2.83021456E+02
  0
VERTEX
  8
0
 62
4
 10
3.36658204E+02
 20
-2.82947840E+02
  0
VERTEX
  8
0
 62
4
 10
3.36849095E+02
 20
-2.82868418E+02
  0
VERTEX
  8
0
 62
4
 10
3.37017669E+02
 20
-2.82783813E+02
  0
VERTEX
  8
0
 62
4
 10
3.37162607E+02
 20
-2.82694686E+02
  0
VERTEX
  8
0
 62
4
 10
3.37282773E+02
 20
-2.82601737E+02
  0
VERTEX
  8
0
 62
4
 10
3.37377226E+02
 20
-2.82505692E+02
  0
VERTEX
  8
0
 62
4
 10
3.37445226E+02
 20
-2.82407305E+02
  0
VERTEX
  8
0
 62
4
 10
3.37486240E+02
 20
-2.82307346E+02
  0
VERTEX
  8
0
 62
4
 10
3.37499947E+02
 20
-2.82206597E+02
  0
SEQEND
  8
0
  0
POLYLINE
  8
0
 62
4
 66
1
  0
VERTEX
  8
0
 62
4
 10
3.37139947E+02
 20
-2.81261079E+02
  0
VERTEX
  8
0
 62
4
 10
3.37127998E+02
 20
-2.81171981E+02
  0
VERTEX
  8
0
 62
4
 10
3.37092243E+02
 20
-2.81083561E+02
  0
VERTEX
  8
0
 62
4
 10
3.37032954E+02
 20
-2.80996492E+02
  0
VERTEX
  8
0
 62
4
 10
3.36950582E+02
 20
-2.80911437E+02
  0
VERTEX
  8
0
 62
4
 10
3.36845753E+02
 20
-2.80829043E+02
  0
VERTEX
  8
0
 62
4
 10
3.36719267E+02
 20
-2.80749937E+02
  0
VERTEX
  8
0
 62
4
 10
3.36572084E+02
 20
-2.80674721E+02
  0
VERTEX
  8
0
 62
4
 10
3.36405327E+02
 20
-2.80603968E+02
  0
VERTEX
  8
0
 62
4
 10
3.36220262E+02
 20
-2.80538215E+02
  0
VERTEX
  8
0
 62
4
 10
3.36018300E+02
 20
-2.80477964E+02
  0
VERTEX
  8
0
 62
4
 10
3.35800977E+02
 20
-2.80423673E+02
  0
VERTEX
  8
0
 62
4
 10
3.35569947E+02
 20
-2.80375755E+02
  0
VERTEX
  8
0
 62
4
 10
3.35326968E+02
 20
-2.80334575E+02
  0
VERTEX
  8
0
 62
4
 10
3.35073890E+02
 20
-2.80300446E+02
  0
VERTEX
  8
0
 62
4
 10
3.34812639E+02
 20
-2.80273628E+02
  0
VERTEX
  8
0
 62
4
 10
3.34545202E+02
 20
-2.80254326E+02
  0
VERTEX
  8
0
 62
4
 10
3.34273616E+02
 20
-2.80242685E+02
  0
VERTEX
  8
0
 62
4
 10
3.33999947E+02
 20
-2.80238795E+02
  0
VERTEX
  8
0
 62
4
 10
3.33726278E+02
 20
-2.80242685E+02
  0
VERTEX
  8
0
 62
4
 10
3.33454692E+02
 20
-2.80254326E+02
  0
VERTEX
  8
0
 62
4
 10
3.33187255E+02
 20
-2.80273628E+02
  0
VERTEX
  8
0
 62
4
 10
3.32926004E+02
 20
-2.80300446E+02
  0
VERTEX
  8
0
 62
4
 10
3.32672926E+02
 20
-2.80334575E+02
  0
VERTEX
  8
0
 62
4
 10
3.32429947E+02
 20
-2.80375755E+02
  0
VERTEX
  8
0
 62
4
 10
3.32198917E+02
 20
-2.80423673E+02
  0
VERTEX
  8
0
 62
4
 10
3.31981594E+02
 20
-2.80477964E+02
  0
VERTEX
  8
0
 62
4
 10
3.31779632E+02
 20
-2.80538215E+02
  0
VERTEX
  8
0
 62
4
 10
3.31594567E+02
 20
-2.80603968E+02
  0
VERTEX
  8
0
 62
4
 10
3.31427810E+02
 20
-2.80674721E+02
  0
VERTEX
  8
0
 62
4
 10
3.31280627E+02
 20
-2.80749937E+02
  0
VERTEX
  8
0
 62
4
 10
3.31154141E+02
 20
-2.80829043E+02
  0
VERTEX
  8
0
 62
4
 10
3.31049312E+02
 20
-2.80911437E+02
  0
VERTEX
  8
0
 62
4
 10
3.30966940E+02
 20
-2.80996492E+02
  0
VERTEX
  8
0
 62
4
 10
3.30907651E+02
 20
-2.81083561E+02
  0
VERTEX
  8
0
 62
4
 10
3.30871896E+02
 20
-2.81171981E+02
  0
VERTEX
  8
0
 62
4
 10
3.30859947E+02
 20
-2.81261079E+02
  0
VERTEX
  8
0
 62
4
 10
3.30871896E+02
 20
-2.81350177E+02
  0
VERTEX
  8
0
 62
4
 10
3.30907651E+02
 20
-2.81438597E+02
  0
VERTEX
  8
0
 62
4
 10
3.30966940E+02
 20
-2.81525666E+02
  0
VERTEX
  8
0
 62
4
 10
3.31049312E+02
 20
-2.81610721E+02
  0
VERTEX
  8
0
 62
4
 10
3.31154141E+02
 20
-2.81693115E+02
  0
VERTEX
  8
0
 62
4
 10
3.31280627E+02
 20
-2.81772221E+02
  0
VERTEX
  8
0
 62
4
 10
3.31427810E+02
 20
-2.81847437E+02
  0
VERTEX
  8
0
 62
4
 10
3.31594567E+02
 20
-2.81918190E+02
  0
VERTEX
  8
0
 62
4
 10
3.31779632E+02
 20
-2.81983943E+02
  0
VERTEX
  8
0
 62
4
 10
3.31981594E+02
 20
-2.82044194E+02
  0
VERTEX
  8
0
 62
4
 10
3.32198917E+02
 20
-2.82098485E+02
  0
VERTEX
  8
0
 62
4
 10
3.32429947E+02
 20
-2.82146403E+02
  0
VERTEX
  8
0
 62
4
 10
3.32672926E+02
 20
-2.82187583E+02
  0
VERTEX
  8
0
 62
4
 10
3.32926004E+02
 20
-2.82221712E+02
  0
VERTEX
  8
0
 62
4
 10
3.33187255E+02
 20
-2.82248530E+02
  0
VERTEX
  8
0
 62
4
 10
3.33454692E+02
 20
-2.82267832E+02
  0
VERTEX
  8
0
 62
4
 10
3.33726278E+02
 20
-2.82279473E+02
  0
VERTEX
  8
0
 62
4
 10
3.33999947E+02
 20
-2.82283363E+02
  0
VERTEX
  8
0
 62
4
 10
3.34273616E+02
 20
-2.82279473E+02
  0
VERTEX
  8
0
 62
4
 10
3.34545202E+02
 20
-2.82267832E+02
  0
VERTEX
  8
0
 62
4
 10
3.34812639E+02
 20
-2.82248530E+02
  0
VERTEX
  8
0
 62
4
 10
3.35073890E+02
 20
-2.82221712E+02
  0
VERTEX
  8
0
 62
4
 10
3.35326968E+02
 20
-2.82187583E+02
  0
VERTEX
  8
0
 62
4
 10
3.35569947E+02
 20
-2.82146403E+02
  0
VERTEX
  8
0
 62
4
 10
3.35800977E+02
 20
-2.82098485E+02
  0
VERTEX
  8
0
 62
4
 10
3.36018300E+02
 20
-2.82044194E+02
  0
VERTEX
  8
0
 62
4
 10
3.36220262E+02
 20
-2.81983943E+02
  0
VERTEX
  8
0
 62
4
 10
3.36405327E+02
 20
-2.81918190E+02
  0
VERTEX
  8
0
 62
4
 10
3.36572084E+02
 20
-2.81847437E+02
  0
VERTEX
  8
0
 62
4
 10
3.36719267E+02
 20
-2.81772221E+02
  0
VERTEX
  8
0
 62
4
 10
3.36845753E+02
 20
-2.81693115E+02
  0
VERTEX
  8
0
 62
4
 10
3.36950582E+02
 20
-2.81610721E+02
  0
VERTEX
  8
0
 62
4
 10
3.37032954E+02
 20
-2.81525666E+02
  0
VERTEX
  8
0
 62
4
 10
3.37092243E+02
 20
-2.81438597E+02
  0
VERTEX
  8
0
 62
4
 10
3.37127998E+02
 20
-2.81350177E+02
  0
VERTEX
  8
0
 62
4
 10
3.37139947E+02
 20
-2.81261079E+02
  0
SEQEND
  8
0
  0
LINE
  8
0
  6
CENTER
 62
6
 10
3.33999947E+02
 20
-2.78601553E+02
 11
3.33999947E+02
 21
-2.81261079E+02
  0
LINE
  8
0
 62
4
 10
3.60499947E+02
 20
-2.83702758E+02
 11
3.60499947E+02
 21
-2.80075972E+02
  0
LINE
  8
0
 62
4
 10
3.42499947E+02
 20
-2.78976140E+02
 11
3.24499947E+02
 21
-2.78976140E+02
  0
LINE
  8
0
 62
4
 10
3.24499947E+02
 20
-2.83702758E+02
 11
3.24499947E+02
 21
-2.80075972E+02
  0
ARC
  8
0
 62
4
 10
3.60502433E+02
 20
-2.80473653E+02
 40
1.49751542E+00
 50
3.59904859E+02
 51
9.00951404E+01
  0
LINE
  8
0
 62
4
 10
3.60499947E+02
 20
-2.78976140E+02
 11
3.57499947E+02
 21
-2.78976140E+02
  0
ARC
  8
0
 62
4
 10
3.24497460E+02
 20
-2.80473653E+02
 40
1.49751542E+00
 50
8.99048594E+01
 51
1.80095141E+02
  0
POLYLINE
  8
0
 62
6
 66
1
  0
VERTEX
  8
0
 62
6
 10
3.55499947E+02
 20
-3.13024585E+02
  0
VERTEX
  8
0
 62
6
 10
3.55494239E+02
 20
-3.12900974E+02
  0
VERTEX
  8
0
 62
6
 10
3.55477159E+02
 20
-3.12778304E+02
  0
VERTEX
  8
0
 62
6
 10
3.55448836E+02
 20
-3.12657508E+02
  0
VERTEX
  8
0
 62
6
 10
3.55409486E+02
 20
-3.12539505E+02
  0
VERTEX
  8
0
 62
6
 10
3.55359409E+02
 20
-3.12425195E+02
  0
VERTEX
  8
0
 62
6
 10
3.55298985E+02
 20
-3.12315446E+02
  0
VERTEX
  8
0
 62
6
 10
3.55228675E+02
 20
-3.12211094E+02
  0
VERTEX
  8
0
 62
6
 10
3.55149014E+02
 20
-3.12112934E+02
  0
VERTEX
  8
0
 62
6
 10
3.55060607E+02
 20
-3.12021711E+02
  0
VERTEX
  8
0
 62
6
 10
3.54964128E+02
 20
-3.11938121E+02
  0
VERTEX
  8
0
 62
6
 10
3.54860312E+02
 20
-3.11862800E+02
  0
VERTEX
  8
0
 62
6
 10
3.54749947E+02
 20
-3.11796320E+02
  0
VERTEX
  8
0
 62
6
 10
3.54633874E+02
 20
-3.11739189E+02
  0
VERTEX
  8
0
 62
6
 10
3.54512977E+02
 20
-3.11691840E+02
  0
VERTEX
  8
0
 62
6
 10
3.54388176E+02
 20
-3.11654634E+02
  0
VERTEX
  8
0
 62
6
 10
3.54260419E+02
 20
-3.11627854E+02
  0
VERTEX
  8
0
 62
6
 10
3.54130681E+02
 20
-3.11611704E+02
  0
VERTEX
  8
0
 62
6
 10
3.53999947E+02
 20
-3.11606307E+02
  0
VERTEX
  8
0
 62
6
 10
3.53869213E+02
 20
-3.11611704E+02
  0
VERTEX
  8
0
 62
6
 10
3.53739475E+02
 20
-3.11627854E+02
  0
VERTEX
  8
0
 62
6
 10
3.53611718E+02
 20
-3.11654634E+02
  0
VERTEX
  8
0
 62
6
 10
3.53486917E+02
 20
-3.11691840E+02
  0
VERTEX
  8
0
 62
6
 10
3.53366020E+02
 20
-3.11739189E+02
  0
VERTEX
  8
0
 62
6
 10
3.53249947E+02
 20
-3.11796320E+02
  0
VERTEX
  8
0
 62
6
 10
3.53139582E+02
 20
-3.11862800E+02
  0
VERTEX
  8
0
 62
6
 10
3.53035766E+02
 20
-3.11938121E+02
  0
VERTEX
  8
0
 62
6
 10
3.52939287E+02
 20
-3.12021711E+02
  0
VERTEX
  8
0
 62
6
 10
3.52850880E+02
 20
-3.12112934E+02
  0
VERTEX
  8
0
 62
6
 10
3.52771219E+02
 20
-3.12211094E+02
  0
VERTEX
  8
0
 62
6
 10
3.52700909E+02
 20
-3.12315446E+02
  0
VERTEX
  8
0
 62
6
 10
3.52640485E+02
 20
-3.12425195E+02
  0
VERTEX
  8
0
 62
6
 10
3.52590408E+02
 20
-3.12539505E+02
  0
VERTEX
  8
0
 62
6
 10
3.52551058E+02
 20
-3.12657508E+02
  0
VERTEX
  8
0
 62
6
 10
3.52522735E+02
 20
-3.12778304E+02
  0
VERTEX
  8
0
 62
6
 10
3.52505655E+02
 20
-3.12900974E+02
  0
VERTEX
  8
0
 62
6
 10
3.52499947E+02
 20
-3.13024585E+02
  0
VERTEX
  8
0
 62
6
 10
3.52505655E+02
 20
-3.13148196E+02
  0
VERTEX
  8
0
 62
6
 10
3.52522735E+02
 20
-3.13270866E+02
  0
VERTEX
  8
0
 62
6
 10
3.52551058E+02
 20
-3.13391662E+02
  0
VERTEX
  8
0
 62
6
 10
3.52590408E+02
 20
-3.13509665E+02
  0
VERTEX
  8
0
 62
6
 10
3.52640485E+02
 20
-3.13623975E+02
  0
VERTEX
  8
0
 62
6
 10
3.52700909E+02
 20
-3.13733724E+02
  0
VERTEX
  8
0
 62
6
 10
3.52771219E+02
 20
-3.13838076E+02
  0
VERTEX
  8
0
 62
6
 10
3.52850880E+02
 20
-3.13936236E+02
  0
VERTEX
  8
0
 62
6
 10
3.52939287E+02
 20
-3.14027459E+02
  0
VERTEX
  8
0
 62
6
 10
3.53035766E+02
 20
-3.14111049E+02
  0
VERTEX
  8
0
 62
6
 10
3.53139582E+02
 20
-3.14186370E+02
  0
VERTEX
  8
0
 62
6
 10
3.53249947E+02
 20
-3.14252850E+02
  0
VERTEX
  8
0
 62
6
 10
3.53366020E+02
 20
-3.14309981E+02
  0
VERTEX
  8
0
 62
6
 10
3.53486917E+02
 20
-3.14357330E+02
  0
VERTEX
  8
0
 62
6
 10
3.53611718E+02
 20
-3.14394536E+02
  0
VERTEX
  8
0
 62
6
 10
3.53739475E+02
 20
-3.14421316E+02
  0
VERTEX
  8
0
 62
6
 10
3.53869213E+02
 20
-3.14437466E+02
  0
VERTEX
  8
0
 62
6
 10
3.53999947E+02
 20
-3.14442863E+02
  0
VERTEX
  8
0
 62
6
 10
3.54130681E+02
 20
-3.14437466E+02
  0
VERTEX
  8
0
 62
6
 10
3.54260419E+02
 20
-3.14421316E+02
  0
VERTEX
  8
0
 62
6
 10
3.54388176E+02
 20
-3.14394536E+02
  0
VERTEX
  8
0
 62
6
 10
3.54512977E+02
 20
-3.14357330E+02
  0
VERTEX
  8
0
 62
6
 10
3.54633874E+02
 20
-3.14309981E+02
  0
VERTEX
  8
0
 62
6
 10
3.54749947E+02
 20
-3.14252850E+02
  0
VERTEX
  8
0
 62
6
 10
3.54860312E+02
 20
-3.14186370E+02
  0
VERTEX
  8
0
 62
6
 10
3.54964128E+02
 20
-3.14111049E+02
  0
VERTEX
  8
0
 62
6
 10
3.55060607E+02
 20
-3.14027459E+02
  0
VERTEX
  8
0
 62
6
 10
3.55149014E+02
 20
-3.13936236E+02
  0
VERTEX
  8
0
 62
6
 10
3.55228675E+02
 20
-3.13838076E+02
  0
VERTEX
  8
0
 62
6
 10
3.55298985E+02
 20
-3.13733724E+02
  0
VERTEX
  8
0
 62
6
 10
3.55359409E+02
 20
-3.13623975E+02
  0
VERTEX
  8
0
 62
6
 10
3.55409486E+02
 20
-3.13509665E+02
  0
VERTEX
  8
0
 62
6
 10
3.55448836E+02
 20
-3.13391662E+02
  0
VERTEX
  8
0
 62
6
 10
3.55477159E+02
 20
-3.13270866E+02
  0
VERTEX
  8
0
 62
6
 10
3.55494239E+02
 20
-3.13148196E+02
  0
VERTEX
  8
0
 62
6
 10
3.55499947E+02
 20
-3.13024585E+02
  0
SEQEND
  8
0
  0
POLYLINE
  8
0
 62
4
 66
1
  0
VERTEX
  8
0
 62
4
 10
3.55734947E+02
 20
-3.13024585E+02
  0
VERTEX
  8
0
 62
4
 10
3.55728345E+02
 20
-3.12882020E+02
  0
VERTEX
  8
0
 62
4
 10
3.55708588E+02
 20
-3.12740540E+02
  0
VERTEX
  8
0
 62
4
 10
3.55675828E+02
 20
-3.12601222E+02
  0
VERTEX
  8
0
 62
4
 10
3.55630314E+02
 20
-3.12465127E+02
  0
VERTEX
  8
0
 62
4
 10
3.55572391E+02
 20
-3.12333288E+02
  0
VERTEX
  8
0
 62
4
 10
3.55502501E+02
 20
-3.12206711E+02
  0
VERTEX
  8
0
 62
4
 10
3.55421176E+02
 20
-3.12086359E+02
  0
VERTEX
  8
0
 62
4
 10
3.55329034E+02
 20
-3.11973147E+02
  0
VERTEX
  8
0
 62
4
 10
3.55226777E+02
 20
-3.11867937E+02
  0
VERTEX
  8
0
 62
4
 10
3.55115184E+02
 20
-3.11771530E+02
  0
VERTEX
  8
0
 62
4
 10
3.54995102E+02
 20
-3.11684659E+02
  0
VERTEX
  8
0
 62
4
 10
3.54867447E+02
 20
-3.11607986E+02
  0
VERTEX
  8
0
 62
4
 10
3.54733190E+02
 20
-3.11542095E+02
  0
VERTEX
  8
0
 62
4
 10
3.54593352E+02
 20
-3.11487485E+02
  0
VERTEX
  8
0
 62
4
 10
3.54448998E+02
 20
-3.11444575E+02
  0
VERTEX
  8
0
 62
4
 10
3.54301227E+02
 20
-3.11413689E+02
  0
VERTEX
  8
0
 62
4
 10
3.54151162E+02
 20
-3.11395062E+02
  0
VERTEX
  8
0
 62
4
 10
3.53999947E+02
 20
-3.11388838E+02
  0
VERTEX
  8
0
 62
4
 10
3.53848732E+02
 20
-3.11395062E+02
  0
VERTEX
  8
0
 62
4
 10
3.53698667E+02
 20
-3.11413689E+02
  0
VERTEX
  8
0
 62
4
 10
3.53550896E+02
 20
-3.11444575E+02
  0
VERTEX
  8
0
 62
4
 10
3.53406542E+02
 20
-3.11487485E+02
  0
VERTEX
  8
0
 62
4
 10
3.53266704E+02
 20
-3.11542095E+02
  0
VERTEX
  8
0
 62
4
 10
3.53132447E+02
 20
-3.11607986E+02
  0
VERTEX
  8
0
 62
4
 10
3.53004792E+02
 20
-3.11684659E+02
  0
VERTEX
  8
0
 62
4
 10
3.52884710E+02
 20
-3.11771530E+02
  0
VERTEX
  8
0
 62
4
 10
3.52773117E+02
 20
-3.11867937E+02
  0
VERTEX
  8
0
 62
4
 10
3.52670860E+02
 20
-3.11973147E+02
  0
VERTEX
  8
0
 62
4
 10
3.52578718E+02
 20
-3.12086359E+02
  0
VERTEX
  8
0
 62
4
 10
3.52497393E+02
 20
-3.12206711E+02
  0
VERTEX
  8
0
 62
4
 10
3.52427503E+02
 20
-3.12333288E+02
  0
VERTEX
  8
0
 62
4
 10
3.52369580E+02
 20
-3.12465127E+02
  0
VERTEX
  8
0
 62
4
 10
3.52324066E+02
 20
-3.12601222E+02
  0
VERTEX
  8
0
 62
4
 10
3.52291306E+02
 20
-3.12740540E+02
  0
VERTEX
  8
0
 62
4
 10
3.52271549E+02
 20
-3.12882020E+02
  0
VERTEX
  8
0
 62
4
 10
3.52264947E+02
 20
-3.13024585E+02
  0
VERTEX
  8
0
 62
4
 10
3.52271549E+02
 20
-3.13167150E+02
  0
VERTEX
  8
0
 62
4
 10
3.52291306E+02
 20
-3.13308630E+02
  0
VERTEX
  8
0
 62
4
 10
3.52324066E+02
 20
-3.13447948E+02
  0
VERTEX
  8
0
 62
4
 10
3.52369580E+02
 20
-3.13584043E+02
  0
VERTEX
  8
0
 62
4
 10
3.52427503E+02
 20
-3.13715882E+02
  0
VERTEX
  8
0
 62
4
 10
3.52497393E+02
 20
-3.13842459E+02
  0
VERTEX
  8
0
 62
4
 10
3.52578718E+02
 20
-3.13962811E+02
  0
VERTEX
  8
0
 62
4
 10
3.52670860E+02
 20
-3.14076023E+02
  0
VERTEX
  8
0
 62
4
 10
3.52773117E+02
 20
-3.14181233E+02
  0
VERTEX
  8
0
 62
4
 10
3.52884710E+02
 20
-3.14277640E+02
  0
VERTEX
  8
0
 62
4
 10
3.53004792E+02
 20
-3.14364511E+02
  0
VERTEX
  8
0
 62
4
 10
3.53132447E+02
 20
-3.14441184E+02
  0
VERTEX
  8
0
 62
4
 10
3.53266704E+02
 20
-3.14507075E+02
  0
VERTEX
  8
0
 62
4
 10
3.53406542E+02
 20
-3.14561685E+02
  0
VERTEX
  8
0
 62
4
 10
3.53550896E+02
 20
-3.14604595E+02
  0
VERTEX
  8
0
 62
4
 10
3.53698667E+02
 20
-3.14635481E+02
  0
VERTEX
  8
0
 62
4
 10
3.53848732E+02
 20
-3.14654108E+02
  0
VERTEX
  8
0
 62
4
 10
3.53999947E+02
 20
-3.14660332E+02
  0
VERTEX
  8
0
 62
4
 10
3.54151162E+02
 20
-3.14654108E+02
  0
VERTEX
  8
0
 62
4
 10
3.54301227E+02
 20
-3.14635481E+02
  0
VERTEX
  8
0
 62
4
 10
3.54448998E+02
 20
-3.14604595E+02
  0
VERTEX
  8
0
 62
4
 10
3.54593352E+02
 20
-3.14561685E+02
  0
VERTEX
  8
0
 62
4
 10
3.54733190E+02
 20
-3.14507075E+02
  0
VERTEX
  8
0
 62
4
 10
3.54867447E+02
 20
-3.14441184E+02
  0
VERTEX
  8
0
 62
4
 10
3.54995102E+02
 20
-3.14364511E+02
  0
VERTEX
  8
0
 62
4
 10
3.55115184E+02
 20
-3.14277640E+02
  0
VERTEX
  8
0
 62
4
 10
3.55226777E+02
 20
-3.14181233E+02
  0
VERTEX
  8
0
 62
4
 10
3.55329034E+02
 20
-3.14076023E+02
  0
VERTEX
  8
0
 62
4
 10
3.55421176E+02
 20
-3.13962811E+02
  0
VERTEX
  8
0
 62
4
 10
3.55502501E+02
 20
-3.13842459E+02
  0
VERTEX
  8
0
 62
4
 10
3.55572391E+02
 20
-3.13715882E+02
  0
VERTEX
  8
0
 62
4
 10
3.55630314E+02
 20
-3.13584043E+02
  0
VERTEX
  8
0
 62
4
 10
3.55675828E+02
 20
-3.13447948E+02
  0
VERTEX
  8
0
 62
4
 10
3.55708588E+02
 20
-3.13308630E+02
  0
VERTEX
  8
0
 62
4
 10
3.55728345E+02
 20
-3.13167150E+02
  0
VERTEX
  8
0
 62
4
 10
3.55734947E+02
 20
-3.13024585E+02
  0
SEQEND
  8
0
  0
POLYLINE
  8
0
 62
4
 66
1
  0
VERTEX
  8
0
 62
4
 10
3.55493024E+02
 20
-3.13857742E+02
  0
VERTEX
  8
0
 62
4
 10
3.55604689E+02
 20
-3.13728174E+02
  0
VERTEX
  8
0
 62
4
 10
3.55703819E+02
 20
-3.13589790E+02
  0
VERTEX
  8
0
 62
4
 10
3.55789637E+02
 20
-3.13443670E+02
  0
VERTEX
  8
0
 62
4
 10
3.55861476E+02
 20
-3.13290956E+02
  0
VERTEX
  8
0
 62
4
 10
3.55918772E+02
 20
-3.13132840E+02
  0
VERTEX
  8
0
 62
4
 10
3.55961078E+02
 20
-3.12970559E+02
  0
VERTEX
  8
0
 62
4
 10
3.55988065E+02
 20
-3.12805380E+02
  0
VERTEX
  8
0
 62
4
 10
3.55999521E+02
 20
-3.12638593E+02
  0
VERTEX
  8
0
 62
4
 10
3.55995356E+02
 20
-3.12471500E+02
  0
VERTEX
  8
0
 62
4
 10
3.55975604E+02
 20
-3.12305409E+02
  0
VERTEX
  8
0
 62
4
 10
3.55940418E+02
 20
-3.12141615E+02
  0
VERTEX
  8
0
 62
4
 10
3.55890073E+02
 20
-3.11981398E+02
  0
VERTEX
  8
0
 62
4
 10
3.55824963E+02
 20
-3.11826010E+02
  0
VERTEX
  8
0
 62
4
 10
3.55745597E+02
 20
-3.11676665E+02
  0
VERTEX
  8
0
 62
4
 10
3.55652593E+02
 20
-3.11534530E+02
  0
VERTEX
  8
0
 62
4
 10
3.55546680E+02
 20
-3.11400714E+02
  0
VERTEX
  8
0
 62
4
 10
3.55428683E+02
 20
-3.11276264E+02
  0
VERTEX
  8
0
 62
4
 10
3.55299526E+02
 20
-3.11162151E+02
  0
VERTEX
  8
0
 62
4
 10
3.55160216E+02
 20
-3.11059266E+02
  0
VERTEX
  8
0
 62
4
 10
3.55011843E+02
 20
-3.10968414E+02
  0
VERTEX
  8
0
 62
4
 10
3.54855564E+02
 20
-3.10890305E+02
  0
VERTEX
  8
0
 62
4
 10
3.54692602E+02
 20
-3.10825547E+02
  0
VERTEX
  8
0
 62
4
 10
3.54524229E+02
 20
-3.10774648E+02
  0
VERTEX
  8
0
 62
4
 10
3.54351760E+02
 20
-3.10738005E+02
  0
VERTEX
  8
0
 62
4
 10
3.54176544E+02
 20
-3.10715904E+02
  0
VERTEX
  8
0
 62
4
 10
3.53999947E+02
 20
-3.10708518E+02
  0
VERTEX
  8
0
 62
4
 10
3.53823350E+02
 20
-3.10715904E+02
  0
VERTEX
  8
0
 62
4
 10
3.53648133E+02
 20
-3.10738005E+02
  0
VERTEX
  8
0
 62
4
 10
3.53475665E+02
 20
-3.10774648E+02
  0
VERTEX
  8
0
 62
4
 10
3.53307292E+02
 20
-3.10825547E+02
  0
VERTEX
  8
0
 62
4
 10
3.53144330E+02
 20
-3.10890305E+02
  0
VERTEX
  8
0
 62
4
 10
3.52988051E+02
 20
-3.10968414E+02
  0
VERTEX
  8
0
 62
4
 10
3.52839678E+02
 20
-3.11059266E+02
  0
VERTEX
  8
0
 62
4
 10
3.52700368E+02
 20
-3.11162151E+02
  0
VERTEX
  8
0
 62
4
 10
3.52571211E+02
 20
-3.11276264E+02
  0
VERTEX
  8
0
 62
4
 10
3.52453214E+02
 20
-3.11400714E+02
  0
VERTEX
  8
0
 62
4
 10
3.52347301E+02
 20
-3.11534530E+02
  0
VERTEX
  8
0
 62
4
 10
3.52254297E+02
 20
-3.11676665E+02
  0
VERTEX
  8
0
 62
4
 10
3.52174931E+02
 20
-3.11826010E+02
  0
VERTEX
  8
0
 62
4
 10
3.52109821E+02
 20
-3.11981398E+02
  0
VERTEX
  8
0
 62
4
 10
3.52059476E+02
 20
-3.12141615E+02
  0
VERTEX
  8
0
 62
4
 10
3.52024290E+02
 20
-3.12305409E+02
  0
VERTEX
  8
0
 62
4
 10
3.52004538E+02
 20
-3.12471500E+02
  0
VERTEX
  8
0
 62
4
 10
3.52000373E+02
 20
-3.12638593E+02
  0
VERTEX
  8
0
 62
4
 10
3.52011829E+02
 20
-3.12805380E+02
  0
VERTEX
  8
0
 62
4
 10
3.52038816E+02
 20
-3.12970559E+02
  0
VERTEX
  8
0
 62
4
 10
3.52081122E+02
 20
-3.13132840E+02
  0
VERTEX
  8
0
 62
4
 10
3.52138418E+02
 20
-3.13290956E+02
  0
VERTEX
  8
0
 62
4
 10
3.52210257E+02
 20
-3.13443670E+02
  0
VERTEX
  8
0
 62
4
 10
3.52296075E+02
 20
-3.13589790E+02
  0
VERTEX
  8
0
 62
4
 10
3.52395205E+02
 20
-3.13728174E+02
  0
VERTEX
  8
0
 62
4
 10
3.52506870E+02
 20
-3.13857742E+02
  0
SEQEND
  8
0
  0
POLYLINE
  8
0
 62
6
 66
1
  0
VERTEX
  8
0
 62
6
 10
3.47499947E+02
 20
-3.13024585E+02
  0
VERTEX
  8
0
 62
6
 10
3.47494239E+02
 20
-3.12900974E+02
  0
VERTEX
  8
0
 62
6
 10
3.47477159E+02
 20
-3.12778304E+02
  0
VERTEX
  8
0
 62
6
 10
3.47448836E+02
 20
-3.12657508E+02
  0
VERTEX
  8
0
 62
6
 10
3.47409486E+02
 20
-3.12539505E+02
  0
VERTEX
  8
0
 62
6
 10
3.47359409E+02
 20
-3.12425195E+02
  0
VERTEX
  8
0
 62
6
 10
3.47298985E+02
 20
-3.12315446E+02
  0
VERTEX
  8
0
 62
6
 10
3.47228675E+02
 20
-3.12211094E+02
  0
VERTEX
  8
0
 62
6
 10
3.47149014E+02
 20
-3.12112934E+02
  0
VERTEX
  8
0
 62
6
 10
3.47060607E+02
 20
-3.12021711E+02
  0
VERTEX
  8
0
 62
6
 10
3.46964128E+02
 20
-3.11938121E+02
  0
VERTEX
  8
0
 62
6
 10
3.46860312E+02
 20
-3.11862800E+02
  0
VERTEX
  8
0
 62
6
 10
3.46749947E+02
 20
-3.11796320E+02
  0
VERTEX
  8
0
 62
6
 10
3.46633874E+02
 20
-3.11739189E+02
  0
VERTEX
  8
0
 62
6
 10
3.46512977E+02
 20
-3.11691840E+02
  0
VERTEX
  8
0
 62
6
 10
3.46388176E+02
 20
-3.11654634E+02
  0
VERTEX
  8
0
 62
6
 10
3.46260419E+02
 20
-3.11627854E+02
  0
VERTEX
  8
0
 62
6
 10
3.46130681E+02
 20
-3.11611704E+02
  0
VERTEX
  8
0
 62
6
 10
3.45999947E+02
 20
-3.11606307E+02
  0
VERTEX
  8
0
 62
6
 10
3.45869213E+02
 20
-3.11611704E+02
  0
VERTEX
  8
0
 62
6
 10
3.45739475E+02
 20
-3.11627854E+02
  0
VERTEX
  8
0
 62
6
 10
3.45611718E+02
 20
-3.11654634E+02
  0
VERTEX
  8
0
 62
6
 10
3.45486917E+02
 20
-3.11691840E+02
  0
VERTEX
  8
0
 62
6
 10
3.45366020E+02
 20
-3.11739189E+02
  0
VERTEX
  8
0
 62
6
 10
3.45249947E+02
 20
-3.11796320E+02
  0
VERTEX
  8
0
 62
6
 10
3.45139582E+02
 20
-3.11862800E+02
  0
VERTEX
  8
0
 62
6
 10
3.45035766E+02
 20
-3.11938121E+02
  0
VERTEX
  8
0
 62
6
 10
3.44939287E+02
 20
-3.12021711E+02
  0
VERTEX
  8
0
 62
6
 10
3.44850880E+02
 20
-3.12112934E+02
  0
VERTEX
  8
0
 62
6
 10
3.44771219E+02
 20
-3.12211094E+02
  0
VERTEX
  8
0
 62
6
 10
3.44700909E+02
 20
-3.12315446E+02
  0
VERTEX
  8
0
 62
6
 10
3.44640485E+02
 20
-3.12425195E+02
  0
VERTEX
  8
0
 62
6
 10
3.44590408E+02
 20
-3.12539505E+02
  0
VERTEX
  8
0
 62
6
 10
3.44551058E+02
 20
-3.12657508E+02
  0
VERTEX
  8
0
 62
6
 10
3.44522735E+02
 20
-3.12778304E+02
  0
VERTEX
  8
0
 62
6
 10
3.44505655E+02
 20
-3.12900974E+02
  0
VERTEX
  8
0
 62
6
 10
3.44499947E+02
 20
-3.13024585E+02
  0
VERTEX
  8
0
 62
6
 10
3.44505655E+02
 20
-3.13148196E+02
  0
VERTEX
  8
0
 62
6
 10
3.44522735E+02
 20
-3.13270866E+02
  0
VERTEX
  8
0
 62
6
 10
3.44551058E+02
 20
-3.13391662E+02
  0
VERTEX
  8
0
 62
6
 10
3.44590408E+02
 20
-3.13509665E+02
  0
VERTEX
  8
0
 62
6
 10
3.44640485E+02
 20
-3.13623975E+02
  0
VERTEX
  8
0
 62
6
 10
3.44700909E+02
 20
-3.13733724E+02
  0
VERTEX
  8
0
 62
6
 10
3.44771219E+02
 20
-3.13838076E+02
  0
VERTEX
  8
0
 62
6
 10
3.44850880E+02
 20
-3.13936236E+02
  0
VERTEX
  8
0
 62
6
 10
3.44939287E+02
 20
-3.14027459E+02
  0
VERTEX
  8
0
 62
6
 10
3.45035766E+02
 20
-3.14111049E+02
  0
VERTEX
  8
0
 62
6
 10
3.45139582E+02
 20
-3.14186370E+02
  0
VERTEX
  8
0
 62
6
 10
3.45249947E+02
 20
-3.14252850E+02
  0
VERTEX
  8
0
 62
6
 10
3.45366020E+02
 20
-3.14309981E+02
  0
VERTEX
  8
0
 62
6
 10
3.45486917E+02
 20
-3.14357330E+02
  0
VERTEX
  8
0
 62
6
 10
3.45611718E+02
 20
-3.14394536E+02
  0
VERTEX
  8
0
 62
6
 10
3.45739475E+02
 20
-3.14421316E+02
  0
VERTEX
  8
0
 62
6
 10
3.45869213E+02
 20
-3.14437466E+02
  0
VERTEX
  8
0
 62
6
 10
3.45999947E+02
 20
-3.14442863E+02
  0
VERTEX
  8
0
 62
6
 10
3.46130681E+02
 20
-3.14437466E+02
  0
VERTEX
  8
0
 62
6
 10
3.46260419E+02
 20
-3.14421316E+02
  0
VERTEX
  8
0
 62
6
 10
3.46388176E+02
 20
-3.14394536E+02
  0
VERTEX
  8
0
 62
6
 10
3.46512977E+02
 20
-3.14357330E+02
  0
VERTEX
  8
0
 62
6
 10
3.46633874E+02
 20
-3.14309981E+02
  0
VERTEX
  8
0
 62
6
 10
3.46749947E+02
 20
-3.14252850E+02
  0
VERTEX
  8
0
 62
6
 10
3.46860312E+02
 20
-3.14186370E+02
  0
VERTEX
  8
0
 62
6
 10
3.46964128E+02
 20
-3.14111049E+02
  0
VERTEX
  8
0
 62
6
 10
3.47060607E+02
 20
-3.14027459E+02
  0
VERTEX
  8
0
 62
6
 10
3.47149014E+02
 20
-3.13936236E+02
  0
VERTEX
  8
0
 62
6
 10
3.47228675E+02
 20
-3.13838076E+02
  0
VERTEX
  8
0
 62
6
 10
3.47298985E+02
 20
-3.13733724E+02
  0
VERTEX
  8
0
 62
6
 10
3.47359409E+02
 20
-3.13623975E+02
  0
VERTEX
  8
0
 62
6
 10
3.47409486E+02
 20
-3.13509665E+02
  0
VERTEX
  8
0
 62
6
 10
3.47448836E+02
 20
-3.13391662E+02
  0
VERTEX
  8
0
 62
6
 10
3.47477159E+02
 20
-3.13270866E+02
  0
VERTEX
  8
0
 62
6
 10
3.47494239E+02
 20
-3.13148196E+02
  0
VERTEX
  8
0
 62
6
 10
3.47499947E+02
 20
-3.13024585E+02
  0
SEQEND
  8
0
  0
POLYLINE
  8
0
 62
4
 66
1
  0
VERTEX
  8
0
 62
4
 10
3.47734947E+02
 20
-3.13024585E+02
  0
VERTEX
  8
0
 62
4
 10
3.47728345E+02
 20
-3.12882020E+02
  0
VERTEX
  8
0
 62
4
 10
3.47708588E+02
 20
-3.12740540E+02
  0
VERTEX
  8
0
 62
4
 10
3.47675828E+02
 20
-3.12601222E+02
  0
VERTEX
  8
0
 62
4
 10
3.47630314E+02
 20
-3.12465127E+02
  0
VERTEX
  8
0
 62
4
 10
3.47572391E+02
 20
-3.12333288E+02
  0
VERTEX
  8
0
 62
4
 10
3.47502501E+02
 20
-3.12206711E+02
  0
VERTEX
  8
0
 62
4
 10
3.47421176E+02
 20
-3.12086359E+02
  0
VERTEX
  8
0
 62
4
 10
3.47329034E+02
 20
-3.11973147E+02
  0
VERTEX
  8
0
 62
4
 10
3.47226777E+02
 20
-3.11867937E+02
  0
VERTEX
  8
0
 62
4
 10
3.47115184E+02
 20
-3.11771530E+02
  0
VERTEX
  8
0
 62
4
 10
3.46995102E+02
 20
-3.11684659E+02
  0
VERTEX
  8
0
 62
4
 10
3.46867447E+02
 20
-3.11607986E+02
  0
VERTEX
  8
0
 62
4
 10
3.46733190E+02
 20
-3.11542095E+02
  0
VERTEX
  8
0
 62
4
 10
3.46593352E+02
 20
-3.11487485E+02
  0
VERTEX
  8
0
 62
4
 10
3.46448998E+02
 20
-3.11444575E+02
  0
VERTEX
  8
0
 62
4
 10
3.46301227E+02
 20
-3.11413689E+02
  0
VERTEX
  8
0
 62
4
 10
3.46151162E+02
 20
-3.11395062E+02
  0
VERTEX
  8
0
 62
4
 10
3.45999947E+02
 20
-3.11388838E+02
  0
VERTEX
  8
0
 62
4
 10
3.45848732E+02
 20
-3.11395062E+02
  0
VERTEX
  8
0
 62
4
 10
3.45698667E+02
 20
-3.11413689E+02
  0
VERTEX
  8
0
 62
4
 10
3.45550896E+02
 20
-3.11444575E+02
  0
VERTEX
  8
0
 62
4
 10
3.45406542E+02
 20
-3.11487485E+02
  0
VERTEX
  8
0
 62
4
 10
3.45266704E+02
 20
-3.11542095E+02
  0
VERTEX
  8
0
 62
4
 10
3.45132447E+02
 20
-3.11607986E+02
  0
VERTEX
  8
0
 62
4
 10
3.45004792E+02
 20
-3.11684659E+02
  0
VERTEX
  8
0
 62
4
 10
3.44884710E+02
 20
-3.11771530E+02
  0
VERTEX
  8
0
 62
4
 10
3.44773117E+02
 20
-3.11867937E+02
  0
VERTEX
  8
0
 62
4
 10
3.44670860E+02
 20
-3.11973147E+02
  0
VERTEX
  8
0
 62
4
 10
3.44578718E+02
 20
-3.12086359E+02
  0
VERTEX
  8
0
 62
4
 10
3.44497393E+02
 20
-3.12206711E+02
  0
VERTEX
  8
0
 62
4
 10
3.44427503E+02
 20
-3.12333288E+02
  0
VERTEX
  8
0
 62
4
 10
3.44369580E+02
 20
-3.12465127E+02
  0
VERTEX
  8
0
 62
4
 10
3.44324066E+02
 20
-3.12601222E+02
  0
VERTEX
  8
0
 62
4
 10
3.44291306E+02
 20
-3.12740540E+02
  0
VERTEX
  8
0
 62
4
 10
3.44271549E+02
 20
-3.12882020E+02
  0
VERTEX
  8
0
 62
4
 10
3.44264947E+02
 20
-3.13024585E+02
  0
VERTEX
  8
0
 62
4
 10
3.44271549E+02
 20
-3.13167150E+02
  0
VERTEX
  8
0
 62
4
 10
3.44291306E+02
 20
-3.13308630E+02
  0
VERTEX
  8
0
 62
4
 10
3.44324066E+02
 20
-3.13447948E+02
  0
VERTEX
  8
0
 62
4
 10
3.44369580E+02
 20
-3.13584043E+02
  0
VERTEX
  8
0
 62
4
 10
3.44427503E+02
 20
-3.13715882E+02
  0
VERTEX
  8
0
 62
4
 10
3.44497393E+02
 20
-3.13842459E+02
  0
VERTEX
  8
0
 62
4
 10
3.44578718E+02
 20
-3.13962811E+02
  0
VERTEX
  8
0
 62
4
 10
3.44670860E+02
 20
-3.14076023E+02
  0
VERTEX
  8
0
 62
4
 10
3.44773117E+02
 20
-3.14181233E+02
  0
VERTEX
  8
0
 62
4
 10
3.44884710E+02
 20
-3.14277640E+02
  0
VERTEX
  8
0
 62
4
 10
3.45004792E+02
 20
-3.14364511E+02
  0
VERTEX
  8
0
 62
4
 10
3.45132447E+02
 20
-3.14441184E+02
  0
VERTEX
  8
0
 62
4
 10
3.45266704E+02
 20
-3.14507075E+02
  0
VERTEX
  8
0
 62
4
 10
3.45406542E+02
 20
-3.14561685E+02
  0
VERTEX
  8
0
 62
4
 10
3.45550896E+02
 20
-3.14604595E+02
  0
VERTEX
  8
0
 62
4
 10
3.45698667E+02
 20
-3.14635481E+02
  0
VERTEX
  8
0
 62
4
 10
3.45848732E+02
 20
-3.14654108E+02
  0
VERTEX
  8
0
 62
4
 10
3.45999947E+02
 20
-3.14660332E+02
  0
VERTEX
  8
0
 62
4
 10
3.46151162E+02
 20
-3.14654108E+02
  0
VERTEX
  8
0
 62
4
 10
3.46301227E+02
 20
-3.14635481E+02
  0
VERTEX
  8
0
 62
4
 10
3.46448998E+02
 20
-3.14604595E+02
  0
VERTEX
  8
0
 62
4
 10
3.46593352E+02
 20
-3.14561685E+02
  0
VERTEX
  8
0
 62
4
 10
3.46733190E+02
 20
-3.14507075E+02
  0
VERTEX
  8
0
 62
4
 10
3.46867447E+02
 20
-3.14441184E+02
  0
VERTEX
  8
0
 62
4
 10
3.46995102E+02
 20
-3.14364511E+02
  0
VERTEX
  8
0
 62
4
 10
3.47115184E+02
 20
-3.14277640E+02
  0
VERTEX
  8
0
 62
4
 10
3.47226777E+02
 20
-3.14181233E+02
  0
VERTEX
  8
0
 62
4
 10
3.47329034E+02
 20
-3.14076023E+02
  0
VERTEX
  8
0
 62
4
 10
3.47421176E+02
 20
-3.13962811E+02
  0
VERTEX
  8
0
 62
4
 10
3.47502501E+02
 20
-3.13842459E+02
  0
VERTEX
  8
0
 62
4
 10
3.47572391E+02
 20
-3.13715882E+02
  0
VERTEX
  8
0
 62
4
 10
3.47630314E+02
 20
-3.13584043E+02
  0
VERTEX
  8
0
 62
4
 10
3.47675828E+02
 20
-3.13447948E+02
  0
VERTEX
  8
0
 62
4
 10
3.47708588E+02
 20
-3.13308630E+02
  0
VERTEX
  8
0
 62
4
 10
3.47728345E+02
 20
-3.13167150E+02
  0
VERTEX
  8
0
 62
4
 10
3.47734947E+02
 20
-3.13024585E+02
  0
SEQEND
  8
0
  0
POLYLINE
  8
0
 62
4
 66
1
  0
VERTEX
  8
0
 62
4
 10
3.47493024E+02
 20
-3.13857742E+02
  0
VERTEX
  8
0
 62
4
 10
3.47604689E+02
 20
-3.13728174E+02
  0
VERTEX
  8
0
 62
4
 10
3.47703819E+02
 20
-3.13589790E+02
  0
VERTEX
  8
0
 62
4
 10
3.47789637E+02
 20
-3.13443670E+02
  0
VERTEX
  8
0
 62
4
 10
3.47861476E+02
 20
-3.13290956E+02
  0
VERTEX
  8
0
 62
4
 10
3.47918772E+02
 20
-3.13132840E+02
  0
VERTEX
  8
0
 62
4
 10
3.47961078E+02
 20
-3.12970559E+02
  0
VERTEX
  8
0
 62
4
 10
3.47988065E+02
 20
-3.12805380E+02
  0
VERTEX
  8
0
 62
4
 10
3.47999521E+02
 20
-3.12638593E+02
  0
VERTEX
  8
0
 62
4
 10
3.47995356E+02
 20
-3.12471500E+02
  0
VERTEX
  8
0
 62
4
 10
3.47975604E+02
 20
-3.12305409E+02
  0
VERTEX
  8
0
 62
4
 10
3.47940418E+02
 20
-3.12141615E+02
  0
VERTEX
  8
0
 62
4
 10
3.47890073E+02
 20
-3.11981398E+02
  0
VERTEX
  8
0
 62
4
 10
3.47824963E+02
 20
-3.11826010E+02
  0
VERTEX
  8
0
 62
4
 10
3.47745597E+02
 20
-3.11676665E+02
  0
VERTEX
  8
0
 62
4
 10
3.47652593E+02
 20
-3.11534530E+02
  0
VERTEX
  8
0
 62
4
 10
3.47546680E+02
 20
-3.11400714E+02
  0
VERTEX
  8
0
 62
4
 10
3.47428683E+02
 20
-3.11276264E+02
  0
VERTEX
  8
0
 62
4
 10
3.47299526E+02
 20
-3.11162151E+02
  0
VERTEX
  8
0
 62
4
 10
3.47160216E+02
 20
-3.11059266E+02
  0
VERTEX
  8
0
 62
4
 10
3.47011843E+02
 20
-3.10968414E+02
  0
VERTEX
  8
0
 62
4
 10
3.46855564E+02
 20
-3.10890305E+02
  0
VERTEX
  8
0
 62
4
 10
3.46692602E+02
 20
-3.10825547E+02
  0
VERTEX
  8
0
 62
4
 10
3.46524229E+02
 20
-3.10774648E+02
  0
VERTEX
  8
0
 62
4
 10
3.46351760E+02
 20
-3.10738005E+02
  0
VERTEX
  8
0
 62
4
 10
3.46176544E+02
 20
-3.10715904E+02
  0
VERTEX
  8
0
 62
4
 10
3.45999947E+02
 20
-3.10708518E+02
  0
VERTEX
  8
0
 62
4
 10
3.45823350E+02
 20
-3.10715904E+02
  0
VERTEX
  8
0
 62
4
 10
3.45648133E+02
 20
-3.10738005E+02
  0
VERTEX
  8
0
 62
4
 10
3.45475665E+02
 20
-3.10774648E+02
  0
VERTEX
  8
0
 62
4
 10
3.45307292E+02
 20
-3.10825547E+02
  0
VERTEX
  8
0
 62
4
 10
3.45144330E+02
 20
-3.10890305E+02
  0
VERTEX
  8
0
 62
4
 10
3.44988051E+02
 20
-3.10968414E+02
  0
VERTEX
  8
0
 62
4
 10
3.44839678E+02
 20
-3.11059266E+02
  0
VERTEX
  8
0
 62
4
 10
3.44700368E+02
 20
-3.11162151E+02
  0
VERTEX
  8
0
 62
4
 10
3.44571211E+02
 20
-3.11276264E+02
  0
VERTEX
  8
0
 62
4
 10
3.44453214E+02
 20
-3.11400714E+02
  0
VERTEX
  8
0
 62
4
 10
3.44347301E+02
 20
-3.11534530E+02
  0
VERTEX
  8
0
 62
4
 10
3.44254297E+02
 20
-3.11676665E+02
  0
VERTEX
  8
0
 62
4
 10
3.44174931E+02
 20
-3.11826010E+02
  0
VERTEX
  8
0
 62
4
 10
3.44109821E+02
 20
-3.11981398E+02
  0
VERTEX
  8
0
 62
4
 10
3.44059476E+02
 20
-3.12141615E+02
  0
VERTEX
  8
0
 62
4
 10
3.44024290E+02
 20
-3.12305409E+02
  0
VERTEX
  8
0
 62
4
 10
3.44004538E+02
 20
-3.12471500E+02
  0
VERTEX
  8
0
 62
4
 10
3.44000373E+02
 20
-3.12638593E+02
  0
VERTEX
  8
0
 62
4
 10
3.44011829E+02
 20
-3.12805380E+02
  0
VERTEX
  8
0
 62
4
 10
3.44038816E+02
 20
-3.12970559E+02
  0
VERTEX
  8
0
 62
4
 10
3.44081122E+02
 20
-3.13132840E+02
  0
VERTEX
  8
0
 62
4
 10
3.44138418E+02
 20
-3.13290956E+02
  0
VERTEX
  8
0
 62
4
 10
3.44210257E+02
 20
-3.13443670E+02
  0
VERTEX
  8
0
 62
4
 10
3.44296075E+02
 20
-3.13589790E+02
  0
VERTEX
  8
0
 62
4
 10
3.44395205E+02
 20
-3.13728174E+02
  0
VERTEX
  8
0
 62
4
 10
3.44506870E+02
 20
-3.13857742E+02
  0
SEQEND
  8
0
  0
LINE
  8
0
 62
4
 10
3.25793850E+02
 20
-3.02900032E+02
 11
3.22999947E+02
 21
-3.00296194E+02
  0
LINE
  8
0
 62
4
 10
3.59206043E+02
 20
-3.02900032E+02
 11
3.61999947E+02
 21
-3.00296194E+02
  0
LINE
  8
0
 62
4
 10
3.57499947E+02
 20
-2.79920765E+02
 11
3.42499947E+02
 21
-2.79920765E+02
  0
LINE
  8
0
 62
4
 10
3.57499947E+02
 20
-2.52344797E+02
 11
3.42499947E+02
 21
-2.52344797E+02
  0
ARC
  8
0
 62
4
 10
3.24497460E+02
 20
-2.86797008E+02
 40
1.49751542E+00
 50
8.99048594E+01
 51
1.80095141E+02
  0
ARC
  8
0
 62
4
 10
3.57997464E+02
 20
-2.67952481E+02
 40
4.97523679E-01
 50
8.97141074E+01
 51
1.80285893E+02
  0
ARC
  8
0
 62
4
 10
3.66502429E+02
 20
-2.53952481E+02
 40
4.97523679E-01
 50
3.59714107E+02
 51
9.02858924E+01
  0
ARC
  8
0
 62
4
 10
3.66497452E+02
 20
-2.66952469E+02
 40
5.02501096E-01
 50
2.70284473E+02
 51
3.59715527E+02
  0
ARC
  8
0
 62
4
 10
3.60502433E+02
 20
-2.86797008E+02
 40
1.49751542E+00
 50
3.59904859E+02
 51
9.00951404E+01
  0
LINE
  8
0
 62
4
 10
3.22999947E+02
 20
-2.80476140E+02
 11
3.22999947E+02
 21
-3.00296194E+02
  0
LINE
  8
0
 62
4
 10
3.40499947E+02
 20
-2.81517420E+02
 11
3.40499947E+02
 21
-2.85517420E+02
  0
LINE
  8
0
 62
4
 10
3.57499947E+02
 20
-2.52344797E+02
 11
3.57499947E+02
 21
-2.81517420E+02
  0
LINE
  8
0
 62
4
 10
3.42499947E+02
 20
-2.52344797E+02
 11
3.42499947E+02
 21
-2.81517420E+02
  0
LINE
  8
0
 62
4
 10
3.59499947E+02
 20
-2.81517420E+02
 11
3.59499947E+02
 21
-2.85517420E+02
  0
LINE
  8
0
 62
4
 10
3.61999947E+02
 20
-2.98877916E+02
 11
3.57499947E+02
 21
-2.98877916E+02
  0
LINE
  8
0
 62
4
 10
3.61999947E+02
 20
-3.00296194E+02
 11
3.57499947E+02
 21
-3.00296194E+02
  0
LINE
  8
0
 62
4
 10
3.61999947E+02
 20
-2.80476140E+02
 11
3.61999947E+02
 21
-3.00296194E+02
  0
LINE
  8
0
 62
4
 10
3.59499947E+02
 20
-2.81517420E+02
 11
3.40499947E+02
 21
-2.81517420E+02
  0
LINE
  8
0
 62
4
 10
3.57499947E+02
 20
-2.57228320E+02
 11
3.42499947E+02
 21
-2.57228320E+02
  0
LINE
  8
0
 62
4
 10
3.42499947E+02
 20
-2.98877916E+02
 11
3.22999947E+02
 21
-2.98877916E+02
  0
LINE
  8
0
 62
4
 10
3.42499947E+02
 20
-3.00296194E+02
 11
3.22999947E+02
 21
-3.00296194E+02
  0
LINE
  8
0
 62
4
 10
3.76999947E+02
 20
-2.67560514E+02
 11
3.71999947E+02
 21
-2.67560514E+02
  0
LINE
  8
0
 62
4
 10
3.66499947E+02
 20
-2.67454964E+02
 11
3.57999947E+02
 21
-2.67454964E+02
  0
LINE
  8
0
 62
4
 10
3.70499947E+02
 20
-2.66204964E+02
 11
3.66999947E+02
 21
-2.66204964E+02
  0
LINE
  8
0
 62
4
 10
3.70499947E+02
 20
-2.54204964E+02
 11
3.70499947E+02
 21
-2.66704964E+02
  0
LINE
  8
0
 62
4
 10
3.71999947E+02
 20
-2.66704964E+02
 11
3.66999947E+02
 21
-2.66704964E+02
  0
LINE
  8
0
 62
4
 10
3.71999947E+02
 20
-2.54204964E+02
 11
3.66999947E+02
 21
-2.54204964E+02
  0
LINE
  8
0
 62
4
 10
3.71999947E+02
 20
-2.53358825E+02
 11
3.71999947E+02
 21
-2.67560514E+02
  0
LINE
  8
0
 62
4
 10
3.76999947E+02
 20
-2.53358825E+02
 11
3.76999947E+02
 21
-2.67560514E+02
  0
LINE
  8
0
 62
4
 10
3.66999947E+02
 20
-2.53954964E+02
 11
3.66999947E+02
 21
-2.66954964E+02
  0
LINE
  8
0
 62
4
 10
3.57499947E+02
 20
-2.53454964E+02
 11
3.66499947E+02
 21
-2.53454964E+02
  0
LINE
  8
0
 62
4
 10
3.76999947E+02
 20
-2.66121558E+02
 11
3.71999947E+02
 21
-2.66121558E+02
  0
LINE
  8
0
 62
4
 10
3.76999947E+02
 20
-2.59030168E+02
 11
3.71999947E+02
 21
-2.59030168E+02
  0
LINE
  8
0
 62
4
 10
3.76999947E+02
 20
-2.53358825E+02
 11
3.71999947E+02
 21
-2.53358825E+02
  0
LINE
  8
0
 62
4
 10
3.60499947E+02
 20
-2.85299495E+02
 11
3.24499947E+02
 21
-2.85299495E+02
  0
LINE
  8
0
 62
4
 10
3.70499947E+02
 20
-2.54704964E+02
 11
3.66999947E+02
 21
-2.54704964E+02
  0
LINE
  8
0
  6
CENTER
 62
6
 10
3.40999947E+02
 20
-3.13024585E+02
 11
3.58999947E+02
 21
-3.13024585E+02
  0
LINE
  8
0
  6
CENTER
 62
6
 10
3.45999947E+02
 20
-3.08034585E+02
 11
3.45999947E+02
 21
-3.18024585E+02
  0
LINE
  8
0
  6
CENTER
 62
6
 10
3.53999947E+02
 20
-3.08034585E+02
 11
3.53999947E+02
 21
-3.18024585E+02
  0
LINE
  8
0
 62
4
 10
3.42499947E+02
 20
-2.91109211E+02
 11
3.42499947E+02
 21
-3.17394641E+02
  0
LINE
  8
0
 62
4
 10
3.57499947E+02
 20
-2.91109211E+02
 11
3.57499947E+02
 21
-3.17394641E+02
  0
LINE
  8
0
 62
4
 10
3.43499947E+02
 20
-3.05990843E+02
 11
3.56499947E+02
 21
-3.05990843E+02
  0
LINE
  8
0
 62
4
 10
3.42499947E+02
 20
-3.17394641E+02
 11
3.57499947E+02
 21
-3.17394641E+02
  0
LINE
  8
0
 62
4
 10
3.42499947E+02
 20
-2.91109211E+02
 11
3.57499947E+02
 21
-2.91109211E+02
  0
LINE
  8
0
 62
2
 10
-3.95265024E+01
 20
-3.46505054E+02
 11
-1.01038207E+01
 21
-2.95543475E+02
  0
LINE
  8
0
 62
7
 10
9.04999466E+01
 20
-3.34500000E+02
 11
9.04999466E+01
 21
-3.00999985E+02
  0
LINE
  8
0
 62
7
 10
1.65499977E+02
 20
-3.34500000E+02
 11
1.65499977E+02
 21
-3.00999962E+02
  0
LINE
  8
0
 62
7
 10
1.38999977E+02
 20
-3.34500000E+02
 11
1.38999977E+02
 21
-3.28149147E+02
  0
LINE
  8
0
 62
7
 10
9.44999161E+01
 20
-2.96999954E+02
 11
1.61500008E+02
 21
-2.96999954E+02
  0
LINE
  8
0
  6
CENTER
 62
2
 10
9.99999466E+01
 20
-3.17729584E+02
 11
9.99999466E+01
 21
-2.94942009E+02
  0
LINE
  8
0
  6
CENTER
 62
2
 10
1.27999977E+02
 20
-2.93032448E+02
 11
1.27999977E+02
 21
-3.34500000E+02
  0
LINE
  8
0
  6
CENTER
 62
2
 10
1.56000099E+02
 20
-2.94814705E+02
 11
1.56000099E+02
 21
-3.17729584E+02
  0
LINE
  8
0
  6
CENTER
 62
2
 10
1.68767738E+02
 20
-3.34500000E+02
 11
8.55222549E+01
 21
-3.34500000E+02
  0
LINE
  8
0
  6
CENTER
 62
2
 10
1.35999886E+02
 20
-2.94814705E+02
 11
1.35999886E+02
 21
-3.20781097E+02
  0
LINE
  8
0
  6
CENTER
 62
2
 10
8.79549026E+01
 20
-3.06499924E+02
 11
1.10105995E+02
 21
-3.06499924E+02
  0
LINE
  8
0
  6
CENTER
 62
2
 10
1.45369453E+02
 20
-3.06499924E+02
 11
1.67902412E+02
 21
-3.06499924E+02
  0
LINE
  8
0
  6
CENTER
 62
2
 10
1.15999886E+02
 20
-2.94785774E+02
 11
1.15999886E+02
 21
-3.24505516E+02
  0
CIRCLE
  8
0
 62
7
 10
9.99999466E+01
 20
-3.06499924E+02
 40
6.50000095E+00
  0
ARC
  8
0
 62
7
 10
9.44999161E+01
 20
-3.00999985E+02
 40
4.00000000E+00
 50
9.00000231E+01
 51
1.79999977E+02
  0
CIRCLE
  8
0
 62
2
 10
1.56000099E+02
 20
-3.06499924E+02
 40
4.00000000E+00
  0
CIRCLE
  8
0
 62
7
 10
9.99999466E+01
 20
-3.06499924E+02
 40
6.00000048E+00
  0
CIRCLE
  8
0
 62
7
 10
1.56000099E+02
 20
-3.06499969E+02
 40
6.50000095E+00
  0
ARC
  8
0
 62
7
 10
1.61500008E+02
 20
-3.00999985E+02
 40
4.00000000E+00
 50
0.00000000E+00
 51
8.99999818E+01
  0
CIRCLE
  8
0
 62
7
 10
1.56000099E+02
 20
-3.06499969E+02
 40
6.00000048E+00
  0
ARC
  8
0
 62
7
 10
1.27999977E+02
 20
-3.34500000E+02
 40
1.90000000E+01
 50
0.00000000E+00
 51
1.80000000E+02
  0
CIRCLE
  8
0
 62
2
 10
9.99999466E+01
 20
-3.06499924E+02
 40
4.00000000E+00
  0
CIRCLE
  8
0
 62
7
 10
9.99999466E+01
 20
-3.06499924E+02
 40
3.32000041E+00
  0
CIRCLE
  8
0
 62
7
 10
1.56000099E+02
 20
-3.06499924E+02
 40
3.32000041E+00
  0
ARC
  8
0
 62
7
 10
1.27999977E+02
 20
-3.34500000E+02
 40
1.80000000E+01
 50
0.00000000E+00
 51
1.80000000E+02
  0
LINE
  8
0
 62
7
 10
1.43999977E+02
 20
-3.26253789E+02
 11
1.43999977E+02
 21
-3.34500000E+02
  0
LINE
  8
0
 62
7
 10
1.11999977E+02
 20
-3.26253789E+02
 11
1.11999977E+02
 21
-3.34500000E+02
  0
ARC
  8
0
 62
7
 10
1.27999977E+02
 20
-3.34500000E+02
 40
1.10000000E+01
 50
0.00000000E+00
 51
1.80000000E+02
  0
LINE
  8
0
 62
7
 10
1.27999977E+02
 20
-3.21798294E+02
 11
1.16999977E+02
 21
-3.28149147E+02
  0
LINE
  8
0
 62
7
 10
1.16999977E+02
 20
-3.28149147E+02
 11
1.16999977E+02
 21
-3.34500000E+02
  0
LINE
  8
0
 62
7
 10
1.38999977E+02
 20
-3.28149147E+02
 11
1.27999977E+02
 21
-3.21798294E+02
  0
ARC
  8
0
 62
7
 10
1.27999977E+02
 20
-3.34500000E+02
 40
8.00000763E+00
 50
0.00000000E+00
 51
1.80000000E+02
  0
ARC
  8
0
 62
2
 10
1.27999977E+02
 20
-3.34500000E+02
 40
7.18000031E+00
 50
0.00000000E+00
 51
1.80000000E+02
  0
ARC
  8
0
 62
7
 10
1.27999977E+02
 20
-3.34500000E+02
 40
6.50000763E+00
 50
0.00000000E+00
 51
1.80000000E+02
  0
TEXT
  8
0
 10
6.17852746E+01
 20
3.54316712E+02
 40
9.00000000E+00
  1
STRETCH LINE B
 41
1.09375000E+00
  7
MONOTXT
  0
TEXT
  8
0
 62
7
 10
-1.39895621E+02
 20
-7.19741815E+01
 40
9.00000000E+00
  1
0
 41
1.00000000E+00
  7
MONOTXT
  0
TEXT
  8
0
 62
7
 10
-1.08395621E+02
 20
-7.19741815E+01
 40
9.00000000E+00
  1
25
 41
1.00000000E+00
  7
MONOTXT
  0
TEXT
  8
0
 62
7
 10
-7.23956210E+01
 20
-7.19741815E+01
 40
9.00000000E+00
  1
75
 41
1.00000000E+00
  7
MONOTXT
  0
TEXT
  8
0
 62
7
 10
-4.08956209E+01
 20
-7.19741815E+01
 40
9.00000000E+00
  1
125
 41
1.00000000E+00
  7
MONOTXT
  0
TEXT
  8
0
 62
7
 10
-4.89562089E+00
 20
-7.19741815E+01
 40
9.00000000E+00
  1
175
 41
1.00000000E+00
  7
MONOTXT
  0
TEXT
  8
0
 62
7
 10
3.11043792E+01
 20
-7.19741815E+01
 40
9.00000000E+00
  1
225
 41
1.00000000E+00
  7
MONOTXT
  0
TEXT
  8
0
 62
7
 10
6.71043792E+01
 20
-7.19741815E+01
 40
9.00000000E+00
  1
275
 41
1.00000000E+00
  7
MONOTXT
  0
TEXT
  8
0
 62
7
 10
1.03104379E+02
 20
-7.19741815E+01
 40
9.00000000E+00
  1
325
 41
1.00000000E+00
  7
MONOTXT
  0
TEXT
  8
0
 62
7
 10
1.39104379E+02
 20
-7.19741815E+01
 40
9.00000000E+00
  1
375
 41
1.00000000E+00
  7
MONOTXT
  0
TEXT
  8
0
 62
7
 10
1.75104379E+02
 20
-7.19741815E+01
 40
9.00000000E+00
  1
425
 41
1.00000000E+00
  7
MONOTXT
  0
TEXT
  8
0
 62
7
 10
2.11104379E+02
 20
-7.19741815E+01
 40
9.00000000E+00
  1
525
 41
1.00000000E+00
  7
MONOTXT
  0
TEXT
  8
0
 62
7
 10
2.47104379E+02
 20
-7.19741815E+01
 40
9.00000000E+00
  1
625
 41
1.00000000E+00
  7
MONOTXT
  0
TEXT
  8
0
 62
7
 10
-1.84895621E+02
 20
-7.19741815E+01
 40
9.00000000E+00
  1
-25
 41
1.00000000E+00
  7
MONOTXT
  0
TEXT
  8
0
 62
7
 10
2.47104379E+02
 20
-5.77241810E+01
 40
9.00000000E+00
  1
625
 41
1.00000000E+00
  7
MONOTXT
  0
TEXT
  8
0
 62
7
 10
2.11104379E+02
 20
-5.77241810E+01
 40
9.00000000E+00
  1
525
 41
1.00000000E+00
  7
MONOTXT
  0
TEXT
  8
0
 62
7
 10
1.75104379E+02
 20
-5.77241810E+01
 40
9.00000000E+00
  1
425
 41
1.00000000E+00
  7
MONOTXT
  0
TEXT
  8
0
 62
7
 10
1.39104379E+02
 20
-5.77241810E+01
 40
9.00000000E+00
  1
375
 41
1.00000000E+00
  7
MONOTXT
  0
TEXT
  8
0
 62
7
 10
1.03104379E+02
 20
-5.77241810E+01
 40
9.00000000E+00
  1
325
 41
1.00000000E+00
  7
MONOTXT
  0
TEXT
  8
0
 62
7
 10
6.71043791E+01
 20
-5.77241810E+01
 40
9.00000000E+00
  1
275
 41
1.00000000E+00
  7
MONOTXT
  0
TEXT
  8
0
 62
7
 10
3.11043791E+01
 20
-5.77241810E+01
 40
9.00000000E+00
  1
225
 41
1.00000000E+00
  7
MONOTXT
  0
TEXT
  8
0
 62
7
 10
-4.89562098E+00
 20
-5.77241810E+01
 40
9.00000000E+00
  1
175
 41
1.00000000E+00
  7
MONOTXT
  0
TEXT
  8
0
 62
7
 10
-4.08956210E+01
 20
-5.77241810E+01
 40
9.00000000E+00
  1
125
 41
1.00000000E+00
  7
MONOTXT
  0
TEXT
  8
0
 62
7
 10
-7.23956211E+01
 20
-5.77241810E+01
 40
9.00000000E+00
  1
75
 41
1.00000000E+00
  7
MONOTXT
  0
TEXT
  8
0
 62
7
 10
-1.08395621E+02
 20
-5.77241810E+01
 40
9.00000000E+00
  1
25
 41
1.00000000E+00
  7
MONOTXT
  0
TEXT
  8
0
 62
7
 10
-1.39895621E+02
 20
-5.77241810E+01
 40
9.00000000E+00
  1
0
 41
1.00000000E+00
  7
MONOTXT
  0
TEXT
  8
0
 62
7
 10
-1.84895621E+02
 20
-5.77241810E+01
 40
9.00000000E+00
  1
-25
 41
1.00000000E+00
  7
MONOTXT
  0
TEXT
  8
0
 62
7
 10
2.47104379E+02
 20
-2.84741806E+01
 40
9.00000000E+00
  1
700
 41
1.00000000E+00
  7
MONOTXT
  0
TEXT
  8
0
 62
7
 10
2.11104379E+02
 20
-2.84741806E+01
 40
9.00000000E+00
  1
600
 41
1.00000000E+00
  7
MONOTXT
  0
TEXT
  8
0
 62
7
 10
1.75104379E+02
 20
-2.84741806E+01
 40
9.00000000E+00
  1
500
 41
1.00000000E+00
  7
MONOTXT
  0
TEXT
  8
0
 62
7
 10
1.39104379E+02
 20
-2.84741806E+01
 40
9.00000000E+00
  1
450
 41
1.00000000E+00
  7
MONOTXT
  0
TEXT
  8
0
 62
7
 10
1.03104379E+02
 20
-2.84741806E+01
 40
9.00000000E+00
  1
400
 41
1.00000000E+00
  7
MONOTXT
  0
TEXT
  8
0
 62
7
 10
6.71043788E+01
 20
-2.84741806E+01
 40
9.00000000E+00
  1
350
 41
1.00000000E+00
  7
MONOTXT
  0
TEXT
  8
0
 62
7
 10
3.11043788E+01
 20
-2.84741806E+01
 40
9.00000000E+00
  1
300
 41
1.00000000E+00
  7
MONOTXT
  0
TEXT
  8
0
 62
7
 10
-4.89562116E+00
 20
-2.84741806E+01
 40
9.00000000E+00
  1
250
 41
1.00000000E+00
  7
MONOTXT
  0
TEXT
  8
0
 62
7
 10
-4.08956212E+01
 20
-2.84741806E+01
 40
9.00000000E+00
  1
200
 41
1.00000000E+00
  7
MONOTXT
  0
TEXT
  8
0
 62
7
 10
-7.68956212E+01
 20
-2.84741806E+01
 40
9.00000000E+00
  1
150
 41
1.00000000E+00
  7
MONOTXT
  0
TEXT
  8
0
 62
7
 10
-1.12895621E+02
 20
-2.84741806E+01
 40
9.00000000E+00
  1
100
 41
1.00000000E+00
  7
MONOTXT
  0
TEXT
  8
0
 62
7
 10
-1.44395621E+02
 20
-2.84741806E+01
 40
9.00000000E+00
  1
75
 41
1.00000000E+00
  7
MONOTXT
  0
TEXT
  8
0
 62
7
 10
-1.80395621E+02
 20
-2.84741806E+01
 40
9.00000000E+00
  1
50
 41
1.00000000E+00
  7
MONOTXT
  0
LINE
  8
0
 62
7
 10
2.77620004E+02
 20
-7.53491813E+01
 11
2.77620004E+02
 21
-1.84918033E+00
  0
LINE
  8
0
 62
7
 10
2.41620004E+02
 20
-7.53491813E+01
 11
2.41620004E+02
 21
-1.84918033E+00
  0
LINE
  8
0
 62
7
 10
2.05620004E+02
 20
-7.53491813E+01
 11
2.05620004E+02
 21
-1.84918033E+00
  0
LINE
  8
0
 62
7
 10
1.69620004E+02
 20
-7.53491813E+01
 11
1.69620004E+02
 21
-1.84918033E+00
  0
LINE
  8
0
 62
7
 10
1.33620004E+02
 20
-7.53491813E+01
 11
1.33620004E+02
 21
-1.84918033E+00
  0
LINE
  8
0
 62
7
 10
9.76200038E+01
 20
-7.53491813E+01
 11
9.76200038E+01
 21
-1.84918033E+00
  0
LINE
  8
0
 62
7
 10
6.16200038E+01
 20
-7.53491813E+01
 11
6.16200038E+01
 21
-1.84918033E+00
  0
LINE
  8
0
 62
7
 10
2.56200038E+01
 20
-7.53491813E+01
 11
2.56200038E+01
 21
-1.84918033E+00
  0
LINE
  8
0
 62
7
 10
-1.03799962E+01
 20
-7.53491813E+01
 11
-1.03799962E+01
 21
-1.84918033E+00
  0
LINE
  8
0
 62
7
 10
-4.63799962E+01
 20
-7.53491813E+01
 11
-4.63799962E+01
 21
-1.84918033E+00
  0
LINE
  8
0
 62
7
 10
-8.23799962E+01
 20
-7.53491813E+01
 11
-8.23799962E+01
 21
-1.84918033E+00
  0
LINE
  8
0
 62
7
 10
-1.18379996E+02
 20
-7.53491813E+01
 11
-1.18379996E+02
 21
-1.84918033E+00
  0
LINE
  8
0
 62
7
 10
-1.54379996E+02
 20
-7.53491813E+01
 11
-1.54379996E+02
 21
-1.84918033E+00
  0
LINE
  8
0
 62
7
 10
-2.72379996E+02
 20
-4.60991808E+01
 11
2.77620004E+02
 21
-4.60991808E+01
  0
LINE
  8
0
 62
7
 10
-2.72380000E+02
 20
-1.84918033E+00
 11
2.77620004E+02
 21
-1.84918033E+00
  0
TEXT
  8
0
 62
7
 10
-2.62094687E+02
 20
-1.38491803E+01
 40
9.00000000E+00
  1
STROKE
 41
1.00000000E+00
  7
MONOTXT
  0
TEXT
  8
0
 62
7
 10
-2.66594683E+02
 20
-3.00991808E+01
 40
9.00000000E+00
  1
STRETCH
 41
1.00000000E+00
  7
MONOTXT
  0
LINE
  8
0
 62
7
 10
-2.72379996E+02
 20
-6.03491813E+01
 11
2.77620004E+02
 21
-6.03491813E+01
  0
LINE
  8
0
 62
7
 10
-2.72379996E+02
 20
-7.53491813E+01
 11
2.77620004E+02
 21
-7.53491813E+01
  0
LINE
  8
0
 62
7
 10
-2.72379996E+02
 20
-1.60991808E+01
 11
-2.07700504E+02
 21
-1.60991808E+01
  0
TEXT
  8
0
 62
7
 10
-2.66594683E+02
 20
-4.30991808E+01
 40
9.00000000E+00
  1
  PLACE
 41
1.20689655E+00
  7
MONOTXT
  0
LINE
  8
0
 62
7
 10
-1.90379996E+02
 20
-4.60991807E+01
 11
-2.07700504E+02
 21
-1.60991809E+01
  0
TEXT
  8
0
 62
7
 10
-2.34594683E+02
 20
-5.77241810E+01
 40
9.00000000E+00
  1
A
 41
1.00000000E+00
  7
MONOTXT
  0
TEXT
  8
0
 62
7
 10
-2.34594683E+02
 20
-7.23491813E+01
 40
9.00000000E+00
  1
B
 41
1.00000000E+00
  7
MONOTXT
  0
LINE
  8
0
 62
7
 10
-1.90379996E+02
 20
-7.53491813E+01
 11
-1.90379996E+02
 21
-1.84918033E+00
  0
LINE
  8
0
 62
7
 10
-2.72379996E+02
 20
-7.53491813E+01
 11
-2.72379996E+02
 21
-1.84918033E+00
  0
TEXT
  8
0
 62
7
 10
2.46905315E+02
 20
3.65081967E+00
 40
9.00000000E+00
  1
(mm)
 41
1.00000000E+00
  7
MONOTXT
  0
TEXT
  8
0
 62
7
 10
-5.00946854E+01
 20
3.65081967E+00
 40
9.00000000E+00
  1
STRETCH LIST
 41
1.05263158E+00
  7
MONOTXT
  0
LINE
  8
0
 62
7
 10
-1.85080512E+01
 20
-3.10100029E+02
 11
-8.00000229E+01
 21
-3.10100029E+02
  0
LINE
  8
0
 62
7
 10
-1.43511134E+01
 20
-3.02900002E+02
 11
-8.00000229E+01
 21
-3.02900002E+02
  0
LINE
  8
0
 62
7
 10
-1.29654807E+01
 20
-3.00500015E+02
 11
-7.99999924E+01
 21
-3.00500015E+02
  0
LINE
  8
0
 62
7
 10
-5.22252726E+01
 20
-2.03499969E+02
 11
-7.99999924E+01
 21
-2.03499969E+02
  0
LINE
  8
0
 62
7
 10
-5.08396531E+01
 20
-2.01100006E+02
 11
-8.00000229E+01
 21
-2.01100006E+02
  0
LINE
  8
0
 62
7
 10
-4.66827153E+01
 20
-1.93899979E+02
 11
-8.00000229E+01
 21
-1.93899979E+02
  0
LINE
  8
0
 62
7
 10
-7.14999860E+01
 20
-1.35500015E+02
 11
-7.99999924E+01
 21
-1.35500015E+02
  0
LINE
  8
0
 62
7
 10
-7.14999860E+01
 20
-1.37899979E+02
 11
-8.00000229E+01
 21
-1.37899979E+02
  0
ARC
  8
0
 62
4
 10
-3.52000023E+02
 20
-3.34500000E+02
 40
1.35000000E+01
 50
0.00000000E+00
 51
1.80000000E+02
  0
LINE
  8
0
 62
4
 10
-3.52000023E+02
 20
-3.18911543E+02
 11
-3.65500023E+02
 21
-3.26705771E+02
  0
LINE
  8
0
 62
4
 10
-3.65500023E+02
 20
-3.26705771E+02
 11
-3.65500023E+02
 21
-3.34500000E+02
  0
LINE
  8
0
 62
4
 10
-3.38500023E+02
 20
-3.34500000E+02
 11
-3.38500023E+02
 21
-3.26705771E+02
  0
LINE
  8
0
 62
4
 10
-3.38500023E+02
 20
-3.26705771E+02
 11
-3.52000023E+02
 21
-3.18911543E+02
  0
LINE
  8
0
 62
4
 10
-1.58794221E+02
 20
-3.18911543E+02
 11
-1.50205764E+02
 21
-3.18911543E+02
  0
LINE
  8
0
 62
4
 10
-1.58794221E+02
 20
-3.26705771E+02
 11
-1.50205764E+02
 21
-3.26705771E+02
  0
LINE
  8
0
 62
4
 10
-1.58794221E+02
 20
-3.18911543E+02
 11
-1.59999992E+02
 21
-3.21000000E+02
  0
LINE
  8
0
 62
4
 10
-1.50205764E+02
 20
-3.18911543E+02
 11
-1.48999992E+02
 21
-3.21000000E+02
  0
ARC
  8
0
 62
4
 10
-1.53099271E+02
 20
-3.22808657E+02
 40
6.90072132E+00
 50
1.45615752E+02
 51
2.14384248E+02
  0
ARC
  8
0
 62
4
 10
-1.55900714E+02
 20
-3.22808657E+02
 40
6.90072132E+00
 50
3.25615752E+02
 51
3.43842480E+01
  0
ARC
  8
0
 62
4
 10
-1.74794221E+02
 20
-3.34500000E+02
 40
2.57942282E+01
 50
2.54444375E-13
 51
1.75879541E+01
  0
ARC
  8
0
 62
4
 10
-1.34205764E+02
 20
-3.34500000E+02
 40
2.57942282E+01
 50
1.62412046E+02
 51
1.80000000E+02
  0
LINE
  8
0
 62
4
 10
-1.59999992E+02
 20
-3.34500000E+02
 11
-1.59999992E+02
 21
-3.21000000E+02
  0
LINE
  8
0
 62
4
 10
-1.48999992E+02
 20
-3.34500000E+02
 11
-1.48999992E+02
 21
-3.21000000E+02
  0
LINE
  8
0
 62
4
 10
-1.48999992E+02
 20
-1.56000000E+02
 11
-1.48999992E+02
 21
-1.83000000E+02
  0
LINE
  8
0
 62
4
 10
-1.59999992E+02
 20
-1.56000000E+02
 11
-1.59999992E+02
 21
-1.83000000E+02
  0
LINE
  8
0
 62
4
 10
-1.48999992E+02
 20
-1.56000000E+02
 11
-1.59999992E+02
 21
-1.56000000E+02
  0
LINE
  8
0
 62
4
 10
-1.48999992E+02
 20
-1.83000000E+02
 11
-1.59999992E+02
 21
-1.83000000E+02
  0
LINE
  8
0
 62
4
 10
-1.50205764E+02
 20
-1.69500000E+02
 11
-1.58794221E+02
 21
-1.69500000E+02
  0
ARC
  8
0
 62
4
 10
-1.40503599E+02
 20
-1.76250000E+02
 40
1.94963929E+01
 50
1.59743842E+02
 51
2.00256158E+02
  0
ARC
  8
0
 62
4
 10
-1.40503599E+02
 20
-1.62750000E+02
 40
1.94963929E+01
 50
1.59743842E+02
 51
2.00256158E+02
  0
ARC
  8
0
 62
4
 10
-1.68496385E+02
 20
-1.62750000E+02
 40
1.94963929E+01
 50
3.39743842E+02
 51
2.02561580E+01
  0
ARC
  8
0
 62
4
 10
-1.68496385E+02
 20
-1.76250000E+02
 40
1.94963929E+01
 50
3.39743842E+02
 51
2.02561580E+01
  0
LINE
  8
0
 62
2
 10
-1.48999992E+02
 20
-1.77679962E+02
 11
-1.39999992E+02
 21
-1.77679962E+02
  0
LINE
  8
0
 62
7
 10
-1.48999992E+02
 20
-1.78499969E+02
 11
-1.39999992E+02
 21
-1.78499969E+02
  0
LINE
  8
0
 62
2
 10
-1.48999992E+02
 20
-1.61319992E+02
 11
-1.39999992E+02
 21
-1.61319992E+02
  0
LINE
  8
0
 62
7
 10
-1.48999992E+02
 20
-1.60499985E+02
 11
-1.39999992E+02
 21
-1.60499985E+02
  0
LINE
  8
0
 62
2
 10
-1.48999992E+02
 20
-3.26320007E+02
 11
-1.39999992E+02
 21
-3.26320007E+02
  0
LINE
  8
0
 62
7
 10
-1.48999992E+02
 20
-3.25500000E+02
 11
-1.39999992E+02
 21
-3.25500000E+02
  0
ARC
  8
0
 62
7
 10
-3.54000084E+02
 20
-3.14600258E+02
 40
1.00000000E+00
 50
2.75739516E+02
 51
3.59721787E-05
  0
ARC
  8
0
 62
7
 10
-3.54000084E+02
 20
-3.00999985E+02
 40
1.00000000E+00
 50
3.59721787E-05
 51
9.00000179E+01
  0
LINE
  8
0
 62
7
 10
-3.53000053E+02
 20
-3.00999962E+02
 11
-3.53000053E+02
 21
-3.14600243E+02
  0
ARC
  8
0
 62
7
 10
-1.38499992E+02
 20
-3.34500000E+02
 40
9.99998474E+00
 50
0.00000000E+00
 51
3.17883527E+01
  0
ARC
  8
0
 62
2
 10
-3.52000023E+02
 20
-3.34500000E+02
 40
8.18000031E+00
 50
0.00000000E+00
 51
1.80000000E+02
  0
ARC
  8
0
 62
7
 10
-3.52000023E+02
 20
-3.34500000E+02
 40
8.99999237E+00
 50
0.00000000E+00
 51
1.80000000E+02
  0
ARC
  8
0
 62
7
 10
-1.11500053E+02
 20
-2.98049927E+02
 40
5.00000000E-01
 50
9.10003518E+01
 51
1.80000087E+02
  0
ARC
  8
0
 62
7
 10
-1.13500023E+02
 20
-3.15999992E+02
 40
5.00000000E-01
 50
9.00000369E+01
 51
1.80000019E+02
  0
ARC
  8
0
 62
7
 10
-1.21750114E+02
 20
-3.17491455E+02
 40
2.50000000E-01
 50
9.19988643E+01
 51
1.80000019E+02
  0
ARC
  8
0
 62
7
 10
-1.26500053E+02
 20
-3.18000031E+02
 40
5.00000000E-01
 50
9.00000369E+01
 51
1.80000019E+02
  0
CIRCLE
  8
0
 62
7
 10
-8.70000534E+01
 20
-1.81500000E+02
 40
2.59999990E+00
  0
ARC
  8
0
 62
7
 10
-8.70000534E+01
 20
-1.81500000E+02
 40
5.00000000E+00
 50
1.79999977E+02
 51
1.00179127E-05
  0
ARC
  8
0
 62
7
 10
-8.70000534E+01
 20
-1.81500000E+02
 40
5.00000000E+00
 50
0.00000000E+00
 51
1.79999964E+02
  0
CIRCLE
  8
0
 62
7
 10
-3.23999901E+02
 20
-3.06499924E+02
 40
3.32000041E+00
  0
CIRCLE
  8
0
 62
7
 10
-3.80000053E+02
 20
-3.06499924E+02
 40
3.32000041E+00
  0
ARC
  8
0
 62
2
 10
-9.40001144E+01
 20
-1.61499985E+02
 40
8.32999992E+00
 50
6.88900096E+01
 51
5.35364402E+01
  0
ARC
  8
0
 62
7
 10
-3.52000023E+02
 20
-3.34500000E+02
 40
1.70000000E+01
 50
0.00000000E+00
 51
1.80000000E+02
  0
CIRCLE
  8
0
 62
2
 10
-3.80000053E+02
 20
-3.06499924E+02
 40
4.00000000E+00
  0
ARC
  8
0
 62
7
 10
-3.52000023E+02
 20
-3.34500000E+02
 40
1.90000000E+01
 50
0.00000000E+00
 51
1.80000000E+02
  0
ARC
  8
0
 62
7
 10
-3.52000023E+02
 20
-3.34500000E+02
 40
1.75294495E+01
 50
0.00000000E+00
 51
1.80000000E+02
  0
ARC
  8
0
 62
7
 10
-3.85500084E+02
 20
-3.21499947E+02
 40
1.00000000E+00
 50
9.00017305E+01
 51
1.80000005E+02
  0
ARC
  8
0
 62
7
 10
-3.85500114E+02
 20
-3.16999947E+02
 40
3.50000024E+00
 50
2.70001002E+02
 51
0.00000000E+00
  0
ARC
  8
0
 62
7
 10
-3.81022240E+02
 20
-3.15944824E+02
 40
1.00000000E+00
 50
8.38236876E+01
 51
1.74325470E+02
  0
ARC
  8
0
 62
7
 10
-3.80000053E+02
 20
-3.06499969E+02
 40
8.50000000E+00
 50
2.63823553E+02
 51
6.17667669E+00
  0
ARC
  8
0
 62
7
 10
-3.65000053E+02
 20
-3.00999985E+02
 40
1.00000000E+00
 50
8.99999818E+01
 51
1.79998270E+02
  0
ARC
  8
0
 62
7
 10
-3.69500053E+02
 20
-3.00999893E+02
 40
3.50000024E+00
 50
2.70000018E+02
 51
3.59999001E+02
  0
ARC
  8
0
 62
7
 10
-3.70555138E+02
 20
-3.05477829E+02
 40
1.00000000E+00
 50
9.56745100E+01
 51
1.86176313E+02
  0
ARC
  8
0
 62
7
 10
-3.18499992E+02
 20
-3.21499947E+02
 40
1.00000000E+00
 50
3.59999986E+02
 51
8.99982469E+01
  0
ARC
  8
0
 62
7
 10
-3.22977837E+02
 20
-3.15944824E+02
 40
1.00000000E+00
 50
5.67452116E+00
 51
9.61763036E+01
  0
ARC
  8
0
 62
7
 10
-3.18499870E+02
 20
-3.16999947E+02
 40
3.50000024E+00
 50
1.79999977E+02
 51
2.69999017E+02
  0
ARC
  8
0
 62
7
 10
-3.33444756E+02
 20
-3.05477829E+02
 40
1.00000000E+00
 50
3.53822790E+02
 51
8.43256382E+01
  0
ARC
  8
0
 62
7
 10
-3.38999901E+02
 20
-3.00999985E+02
 40
1.00000000E+00
 50
1.77584919E-03
 51
8.99999549E+01
  0
ARC
  8
0
 62
7
 10
-3.34499840E+02
 20
-3.00999847E+02
 40
3.50000024E+00
 50
1.80001511E+02
 51
2.70000018E+02
  0
CIRCLE
  8
0
 62
7
 10
-3.23999901E+02
 20
-3.06499969E+02
 40
6.00000048E+00
  0
ARC
  8
0
 62
7
 10
-3.18499992E+02
 20
-3.00999985E+02
 40
4.00000000E+00
 50
0.00000000E+00
 51
8.99999818E+01
  0
ARC
  8
0
 62
7
 10
-3.32100243E+02
 20
-3.32500008E+02
 40
1.00000000E+00
 50
1.85739458E+02
 51
2.69999963E+02
  0
ARC
  8
0
 62
7
 10
-3.18499992E+02
 20
-3.32500008E+02
 40
1.00000000E+00
 50
2.69999963E+02
 51
0.00000000E+00
  0
ARC
  8
0
 62
7
 10
-3.18499992E+02
 20
-3.00999985E+02
 40
3.50000024E+00
 50
0.00000000E+00
 51
8.99999818E+01
  0
ARC
  8
0
 62
7
 10
-3.29152702E+02
 20
-3.14481125E+02
 40
1.00000000E+00
 50
5.71532472E+01
 51
1.34999959E+02
  0
ARC
  8
0
 62
7
 10
-3.31981133E+02
 20
-3.11652695E+02
 40
1.00000000E+00
 50
3.14999995E+02
 51
3.28461612E+01
  0
ARC
  8
0
 62
7
 10
-3.39342888E+02
 20
-3.19014519E+02
 40
1.00000000E+00
 50
2.30738998E+02
 51
3.14999995E+02
  0
ARC
  8
0
 62
7
 10
-3.36514519E+02
 20
-3.21842957E+02
 40
1.00000000E+00
 50
1.34999959E+02
 51
2.19260957E+02
  0
CIRCLE
  8
0
 62
7
 10
-3.23999901E+02
 20
-3.06499969E+02
 40
6.50000095E+00
  0
ARC
  8
0
 62
7
 10
-1.06000023E+02
 20
-1.92500015E+02
 40
2.00000000E+00
 50
1.79999977E+02
 51
2.70000028E+02
  0
ARC
  8
0
 62
7
 10
-1.06000023E+02
 20
-1.46499985E+02
 40
2.00000000E+00
 50
8.99999818E+01
 51
1.79999964E+02
  0
CIRCLE
  8
0
 62
7
 10
-9.40001144E+01
 20
-1.61499985E+02
 40
7.44000053E+00
  0
ARC
  8
0
 62
7
 10
-9.40001144E+01
 20
-1.61499985E+02
 40
8.71000004E+00
 50
6.98519926E+01
 51
5.02774254E+01
  0
ARC
  8
0
 62
7
 10
-1.13500023E+02
 20
-1.51000015E+02
 40
5.00000000E-01
 50
8.99999818E+01
 51
1.79999964E+02
  0
ARC
  8
0
 62
7
 10
-1.11500053E+02
 20
-1.33049911E+02
 40
5.00000000E-01
 50
9.10002223E+01
 51
1.79999964E+02
  0
ARC
  8
0
 62
7
 10
-1.21750114E+02
 20
-1.52491470E+02
 40
2.50000000E-01
 50
9.19988230E+01
 51
1.79999977E+02
  0
ARC
  8
0
 62
7
 10
-1.26500053E+02
 20
-1.53000046E+02
 40
5.00000000E-01
 50
8.99999818E+01
 51
1.79999964E+02
  0
ARC
  8
0
 62
7
 10
-1.13500023E+02
 20
-1.88000015E+02
 40
5.00000000E-01
 50
1.79999977E+02
 51
2.69999974E+02
  0
ARC
  8
0
 62
7
 10
-1.11500053E+02
 20
-2.05950073E+02
 40
5.00000000E-01
 50
1.79999977E+02
 51
2.68999706E+02
  0
ARC
  8
0
 62
7
 10
-1.21750114E+02
 20
-1.86508530E+02
 40
2.50000000E-01
 50
1.79999977E+02
 51
2.68001132E+02
  0
ARC
  8
0
 62
7
 10
-1.26500053E+02
 20
-1.85999954E+02
 40
5.00000000E-01
 50
1.79999977E+02
 51
2.69999974E+02
  0
CIRCLE
  8
0
 62
7
 10
-3.80000053E+02
 20
-3.06499924E+02
 40
6.00000048E+00
  0
CIRCLE
  8
0
 62
2
 10
-3.23999901E+02
 20
-3.06499924E+02
 40
4.00000000E+00
  0
ARC
  8
0
 62
7
 10
-3.85500084E+02
 20
-3.00999985E+02
 40
4.00000000E+00
 50
9.00000231E+01
 51
1.79999977E+02
  0
ARC
  8
0
 62
7
 10
-3.71899742E+02
 20
-3.32500008E+02
 40
1.00000000E+00
 50
2.70000045E+02
 51
3.54260551E+02
  0
ARC
  8
0
 62
7
 10
-3.85499992E+02
 20
-3.32500008E+02
 40
1.00000000E+00
 50
1.80000008E+02
 51
2.70000045E+02
  0
ARC
  8
0
 62
7
 10
-3.49999962E+02
 20
-3.00999985E+02
 40
1.00000000E+00
 50
8.99999818E+01
 51
1.79999964E+02
  0
ARC
  8
0
 62
7
 10
-3.49999962E+02
 20
-3.14600258E+02
 40
1.00000000E+00
 50
1.79999964E+02
 51
2.64260484E+02
  0
ARC
  8
0
 62
7
 10
-3.85500084E+02
 20
-3.00999985E+02
 40
3.50000024E+00
 50
9.00000231E+01
 51
1.79999977E+02
  0
ARC
  8
0
 62
7
 10
-3.23999901E+02
 20
-3.06499969E+02
 40
8.50000000E+00
 50
1.73823315E+02
 51
2.76176459E+02
  0
ARC
  8
0
 62
7
 10
-3.64657005E+02
 20
-3.19014542E+02
 40
1.00000000E+00
 50
2.24999972E+02
 51
3.09260983E+02
  0
ARC
  8
0
 62
7
 10
-3.67485435E+02
 20
-3.21842972E+02
 40
1.00000000E+00
 50
3.20738994E+02
 51
4.49999910E+01
  0
ARC
  8
0
 62
7
 10
-3.72018852E+02
 20
-3.11652718E+02
 40
1.00000000E+00
 50
1.47153243E+02
 51
2.24999955E+02
  0
ARC
  8
0
 62
7
 10
-3.74847282E+02
 20
-3.14481125E+02
 40
1.00000000E+00
 50
4.49999910E+01
 51
1.22846171E+02
  0
CIRCLE
  8
0
 62
7
 10
-3.80000053E+02
 20
-3.06499924E+02
 40
6.50000095E+00
  0
LINE
  8
0
 62
7
 10
-1.39999992E+02
 20
-1.77679962E+02
 11
-1.36999992E+02
 21
-1.77679962E+02
  0
LINE
  8
0
 62
7
 10
-1.39999992E+02
 20
-1.61319992E+02
 11
-1.36999992E+02
 21
-1.61319992E+02
  0
LINE
  8
0
 62
7
 10
-1.30000179E+02
 20
-1.60999836E+02
 11
-1.28500156E+02
 21
-1.59499812E+02
  0
LINE
  8
0
 62
7
 10
-1.30000117E+02
 20
-1.77999909E+02
 11
-1.28500147E+02
 21
-1.79499878E+02
  0
LINE
  8
0
 62
7
 10
-1.36999992E+02
 20
-1.60999969E+02
 11
-1.30000053E+02
 21
-1.60999969E+02
  0
LINE
  8
0
 62
7
 10
-1.36999992E+02
 20
-1.77999985E+02
 11
-1.30000053E+02
 21
-1.77999985E+02
  0
LINE
  8
0
 62
7
 10
-1.36999992E+02
 20
-1.77999985E+02
 11
-1.36999992E+02
 21
-1.60999985E+02
  0
LINE
  8
0
 62
7
 10
-1.69000042E+02
 20
-1.76999846E+02
 11
-1.67500007E+02
 21
-1.78499836E+02
  0
LINE
  8
0
 62
2
 10
-1.68319939E+02
 20
-1.77679962E+02
 11
-1.59999992E+02
 21
-1.77679962E+02
  0
LINE
  8
0
 62
7
 10
-1.67499931E+02
 20
-1.78499969E+02
 11
-1.59999992E+02
 21
-1.78499969E+02
  0
LINE
  8
0
 62
7
 10
-1.68999849E+02
 20
-1.62000159E+02
 11
-1.67499819E+02
 21
-1.60500175E+02
  0
LINE
  8
0
 62
2
 10
-1.68319939E+02
 20
-1.61319992E+02
 11
-1.59999992E+02
 21
-1.61319992E+02
  0
LINE
  8
0
 62
7
 10
-1.67499931E+02
 20
-1.60499985E+02
 11
-1.59999992E+02
 21
-1.60499985E+02
  0
LINE
  8
0
 62
7
 10
-1.67499992E+02
 20
-1.78499985E+02
 11
-1.67499992E+02
 21
-1.60499985E+02
  0
LINE
  8
0
 62
7
 10
-1.68999992E+02
 20
-1.76999954E+02
 11
-1.68999992E+02
 21
-1.62000153E+02
  0
LINE
  8
0
 62
7
 10
-1.39999992E+02
 20
-1.78499985E+02
 11
-1.39999992E+02
 21
-1.60499985E+02
  0
LINE
  8
0
 62
7
 10
-1.28499992E+02
 20
-1.59499954E+02
 11
-1.27000023E+02
 21
-1.59499954E+02
  0
LINE
  8
0
 62
7
 10
-1.28500053E+02
 20
-1.79499954E+02
 11
-1.27000053E+02
 21
-1.79499954E+02
  0
LINE
  8
0
 62
7
 10
-1.33999992E+02
 20
-1.60999985E+02
 11
-1.33999992E+02
 21
-1.77999985E+02
  0
LINE
  8
0
 62
7
 10
-1.39999992E+02
 20
-3.26320007E+02
 11
-1.36999992E+02
 21
-3.26320007E+02
  0
LINE
  8
0
 62
7
 10
-1.36999951E+02
 20
-3.25500017E+02
 11
-1.33999962E+02
 21
-3.24500034E+02
  0
LINE
  8
0
 62
7
 10
-1.37000001E+02
 20
-3.31377557E+02
 11
-1.34000013E+02
 21
-3.29232460E+02
  0
LINE
  8
0
 62
7
 10
-1.34000114E+02
 20
-3.24500015E+02
 11
-1.27000053E+02
 21
-3.24500015E+02
  0
LINE
  8
0
 62
7
 10
-1.68999884E+02
 20
-3.27000197E+02
 11
-1.67499838E+02
 21
-3.25500196E+02
  0
LINE
  8
0
 62
2
 10
-1.68319939E+02
 20
-3.26320007E+02
 11
-1.59999992E+02
 21
-3.26320007E+02
  0
LINE
  8
0
 62
7
 10
-1.67499931E+02
 20
-3.25500000E+02
 11
-1.59999992E+02
 21
-3.25500000E+02
  0
LINE
  8
0
 62
7
 10
-1.67499992E+02
 20
-3.34500000E+02
 11
-1.67499992E+02
 21
-3.25499985E+02
  0
LINE
  8
0
 62
7
 10
-1.68999992E+02
 20
-3.34500000E+02
 11
-1.68999992E+02
 21
-3.27000153E+02
  0
LINE
  8
0
 62
7
 10
-1.39999992E+02
 20
-3.34500000E+02
 11
-1.39999992E+02
 21
-3.25499985E+02
  0
LINE
  8
0
 62
7
 10
-1.30000053E+02
 20
-3.29232132E+02
 11
-1.30000053E+02
 21
-3.34499992E+02
  0
LINE
  8
0
 62
7
 10
-1.33999992E+02
 20
-3.24499954E+02
 11
-1.33999992E+02
 21
-3.29232132E+02
  0
LINE
  8
0
 62
2
 10
-1.33499832E+02
 20
-3.34500000E+02
 11
-1.29999867E+02
 21
-3.29232187E+02
  0
LINE
  8
0
 62
2
 10
-1.36033596E+02
 20
-3.30686586E+02
 11
-1.33499941E+02
 21
-3.34500000E+02
  0
LINE
  8
0
 62
7
 10
-1.34000114E+02
 20
-3.29232147E+02
 11
-1.30000053E+02
 21
-3.29232147E+02
  0
LINE
  8
0
 62
7
 10
-1.36999992E+02
 20
-3.25500000E+02
 11
-1.36999992E+02
 21
-3.34500000E+02
  0
LINE
  8
0
 62
7
 10
-1.27000023E+02
 20
-3.34500000E+02
 11
-1.27000023E+02
 21
-3.18000031E+02
  0
LINE
  8
0
 62
7
 10
-1.13500023E+02
 20
-3.15500000E+02
 11
-1.12000023E+02
 21
-3.15500000E+02
  0
LINE
  8
0
 62
7
 10
-1.26500053E+02
 20
-3.17500008E+02
 11
-1.21991539E+02
 21
-3.17500008E+02
  0
LINE
  8
0
 62
7
 10
-1.22000053E+02
 20
-3.17500008E+02
 11
-1.22000053E+02
 21
-3.17491455E+02
  0
LINE
  8
0
 62
7
 10
-1.21758808E+02
 20
-3.17241585E+02
 11
-1.14000110E+02
 21
-3.16970645E+02
  0
LINE
  8
0
  6
CENTER
 62
2
 10
-1.64295691E+01
 20
-3.06499992E+02
 11
-1.15980827E+02
 21
-3.06499992E+02
  0
LINE
  8
0
 62
7
 10
-1.14000084E+02
 20
-3.34500000E+02
 11
-1.14000084E+02
 21
-3.15999992E+02
  0
LINE
  8
0
 62
7
 10
-1.22000053E+02
 20
-3.34500000E+02
 11
-1.22000053E+02
 21
-3.17500008E+02
  0
LINE
  8
0
 62
7
 10
-1.12000023E+02
 20
-3.34500000E+02
 11
-1.12000023E+02
 21
-2.98049934E+02
  0
LINE
  8
0
 62
7
 10
-1.11508873E+02
 20
-2.97550057E+02
 11
-8.00000611E+01
 21
-2.97000069E+02
  0
LINE
  8
0
 62
7
 10
-1.08000084E+02
 20
-2.97000000E+02
 11
-7.99999924E+01
 21
-2.97000000E+02
  0
LINE
  8
0
 62
7
 10
-1.08000084E+02
 20
-2.97488777E+02
 11
-1.08000084E+02
 21
-2.97000000E+02
  0
LINE
  8
0
  6
CENTER
 62
2
 10
-8.70000534E+01
 20
-1.75088837E+02
 11
-8.70000534E+01
 21
-1.88565582E+02
  0
LINE
  8
0
  6
CENTER
 62
2
 10
-9.36658554E+01
 20
-1.81500000E+02
 11
-8.08370895E+01
 21
-1.81500000E+02
  0
LINE
  8
0
 62
7
 10
-8.52678239E+01
 20
-1.81500144E+02
 11
-8.61338611E+01
 21
-1.83000173E+02
  0
LINE
  8
0
 62
7
 10
-8.61340561E+01
 20
-1.83000000E+02
 11
-8.78661728E+01
 21
-1.83000000E+02
  0
LINE
  8
0
 62
7
 10
-8.78660267E+01
 20
-1.82999994E+02
 11
-8.87320659E+01
 21
-1.81499961E+02
  0
LINE
  8
0
  6
CENTER
 62
2
 10
-4.87612062E+01
 20
-1.97500031E+02
 11
-1.15392876E+02
 21
-1.97500031E+02
  0
LINE
  8
0
 62
7
 10
-1.29654807E+01
 20
-1.35500015E+02
 11
-5.64999860E+01
 21
-1.35500015E+02
  0
LINE
  8
0
 62
7
 10
-1.43511002E+01
 20
-1.37899979E+02
 11
-5.64999860E+01
 21
-1.37899979E+02
  0
LINE
  8
0
 62
7
 10
-1.85080380E+01
 20
-1.45100006E+02
 11
-3.71507649E+01
 21
-1.45100006E+02
  0
LINE
  8
0
  6
CENTER
 62
2
 10
-1.64295559E+01
 20
-1.41499969E+02
 11
-5.64999860E+01
 21
-1.41499969E+02
  0
LINE
  8
0
 62
7
 10
-7.99999924E+01
 20
-3.34500000E+02
 11
-7.99999924E+01
 21
-2.97000000E+02
  0
LINE
  8
0
 62
7
 10
-8.87318562E+01
 20
-1.81500216E+02
 11
-8.78658419E+01
 21
-1.80000226E+02
  0
LINE
  8
0
  6
CENTER
 62
2
 10
-3.39999931E+02
 20
-2.94785774E+02
 11
-3.39999931E+02
 21
-3.24505516E+02
  0
LINE
  8
0
  6
CENTER
 62
2
 10
-3.34630547E+02
 20
-3.06499924E+02
 11
-3.12097588E+02
 21
-3.06499924E+02
  0
LINE
  8
0
 62
7
 10
-3.21999748E+02
 20
-3.16999931E+02
 11
-3.21999748E+02
 21
-3.15736198E+02
  0
LINE
  8
0
 62
7
 10
-3.34499840E+02
 20
-3.04499748E+02
 11
-3.33236412E+02
 21
-3.04499748E+02
  0
LINE
  8
0
 62
7
 10
-3.82000206E+02
 20
-3.16999931E+02
 11
-3.82000206E+02
 21
-3.15736336E+02
  0
LINE
  8
0
 62
7
 10
-3.69500084E+02
 20
-3.04499794E+02
 11
-3.70763573E+02
 21
-3.04499794E+02
  0
LINE
  8
0
 62
7
 10
-3.65000053E+02
 20
-2.99999977E+02
 11
-3.38999901E+02
 21
-2.99999977E+02
  0
LINE
  8
0
 62
7
 10
-3.26999992E+02
 20
-2.96999954E+02
 11
-3.26999992E+02
 21
-2.97499969E+02
  0
LINE
  8
0
 62
7
 10
-3.76999992E+02
 20
-2.96999954E+02
 11
-3.76999992E+02
 21
-2.97499969E+02
  0
LINE
  8
0
 62
7
 10
-3.14999931E+02
 20
-3.34500000E+02
 11
-3.14999931E+02
 21
-3.00999962E+02
  0
LINE
  8
0
  6
CENTER
 62
2
 10
-3.92045097E+02
 20
-3.06499924E+02
 11
-3.69894005E+02
 21
-3.06499924E+02
  0
LINE
  8
0
  6
CENTER
 62
2
 10
-3.59999931E+02
 20
-2.94814705E+02
 11
-3.59999931E+02
 21
-3.20781097E+02
  0
LINE
  8
0
  6
CENTER
 62
2
 10
-3.11232262E+02
 20
-3.34500000E+02
 11
-3.94477745E+02
 21
-3.34500000E+02
  0
LINE
  8
0
  6
CENTER
 62
2
 10
-3.23999901E+02
 20
-2.94814705E+02
 11
-3.23999901E+02
 21
-3.17729584E+02
  0
LINE
  8
0
 62
7
 10
-3.14500023E+02
 20
-3.34500000E+02
 11
-3.14500023E+02
 21
-3.00999962E+02
  0
LINE
  8
0
 62
7
 10
-3.18499992E+02
 20
-3.33500015E+02
 11
-3.32100243E+02
 21
-3.33500015E+02
  0
LINE
  8
0
 62
7
 10
-3.17499931E+02
 20
-3.34500000E+02
 11
-3.17499931E+02
 21
-3.21499931E+02
  0
LINE
  8
0
 62
7
 10
-3.85500084E+02
 20
-2.97499969E+02
 11
-3.18499992E+02
 21
-2.97499969E+02
  0
LINE
  8
0
 62
7
 10
-3.37221988E+02
 20
-3.21135467E+02
 11
-3.29860139E+02
 21
-3.13773621E+02
  0
LINE
  8
0
 62
7
 10
-3.38636244E+02
 20
-3.19721210E+02
 11
-3.31274417E+02
 21
-3.12359385E+02
  0
LINE
  8
0
 62
7
 10
-1.08000084E+02
 20
-1.46499985E+02
 11
-1.08000084E+02
 21
-1.92500000E+02
  0
LINE
  8
0
 62
7
 10
-1.06000023E+02
 20
-1.94500015E+02
 11
-8.00000229E+01
 21
-1.94500015E+02
  0
LINE
  8
0
 62
7
 10
-1.06000023E+02
 20
-1.44500000E+02
 11
-9.09999860E+01
 21
-1.44500000E+02
  0
LINE
  8
0
 62
7
 10
-1.22000053E+02
 20
-1.52499985E+02
 11
-1.22000053E+02
 21
-1.86500015E+02
  0
LINE
  8
0
 62
7
 10
-1.14000084E+02
 20
-1.88000015E+02
 11
-1.14000084E+02
 21
-1.50999985E+02
  0
LINE
  8
0
 62
7
 10
-1.11508886E+02
 20
-1.32549879E+02
 11
-8.00001357E+01
 21
-1.31999892E+02
  0
LINE
  8
0
 62
7
 10
-7.99999924E+01
 20
-2.06999954E+02
 11
-7.99999924E+01
 21
-1.54437056E+02
  0
LINE
  8
0
 62
7
 10
-1.12000023E+02
 20
-2.05950073E+02
 11
-1.12000023E+02
 21
-1.33049911E+02
  0
LINE
  8
0
 62
7
 10
-1.21758814E+02
 20
-1.52241302E+02
 11
-1.14000115E+02
 21
-1.51970363E+02
  0
LINE
  8
0
 62
7
 10
-1.22000053E+02
 20
-1.52499985E+02
 11
-1.22000053E+02
 21
-1.52491455E+02
  0
LINE
  8
0
 62
7
 10
-1.26500053E+02
 20
-1.52500031E+02
 11
-1.21991539E+02
 21
-1.52500031E+02
  0
LINE
  8
0
 62
7
 10
-1.13500023E+02
 20
-1.50500000E+02
 11
-1.12000023E+02
 21
-1.50500000E+02
  0
LINE
  8
0
 62
7
 10
-1.27000023E+02
 20
-1.85999985E+02
 11
-1.27000023E+02
 21
-1.53000031E+02
  0
LINE
  8
0
 62
7
 10
-1.11508748E+02
 20
-2.06449782E+02
 11
-8.00001194E+01
 21
-2.06999767E+02
  0
LINE
  8
0
 62
7
 10
-1.21758882E+02
 20
-1.86758390E+02
 11
-1.14000183E+02
 21
-1.87029329E+02
  0
LINE
  8
0
 62
7
 10
-1.22000053E+02
 20
-1.86500015E+02
 11
-1.22000053E+02
 21
-1.86508560E+02
  0
LINE
  8
0
 62
7
 10
-1.26500053E+02
 20
-1.86500000E+02
 11
-1.21991539E+02
 21
-1.86500000E+02
  0
LINE
  8
0
 62
7
 10
-1.13500023E+02
 20
-1.88500015E+02
 11
-1.12000023E+02
 21
-1.88500015E+02
  0
LINE
  8
0
 62
7
 10
-8.52679537E+01
 20
-1.81500111E+02
 11
-8.61339776E+01
 21
-1.80000104E+02
  0
LINE
  8
0
 62
7
 10
-8.61340561E+01
 20
-1.79999985E+02
 11
-8.78661728E+01
 21
-1.79999985E+02
  0
LINE
  8
0
  6
CENTER
 62
2
 10
-9.40001144E+01
 20
-1.71500015E+02
 11
-9.40001144E+01
 21
-1.50953735E+02
  0
LINE
  8
0
  6
CENTER
 62
2
 10
-1.04364891E+02
 20
-1.61499985E+02
 11
-8.27607040E+01
 21
-1.61499985E+02
  0
LINE
  8
0
  6
CENTER
 62
2
 10
-9.40001144E+01
 20
-3.22585487E+02
 11
-9.40001144E+01
 21
-2.94614937E+02
  0
LINE
  8
0
  6
CENTER
 62
2
 10
-3.52000023E+02
 20
-2.93032448E+02
 11
-3.52000023E+02
 21
-3.34500000E+02
  0
LINE
  8
0
  6
CENTER
 62
2
 10
-3.80000053E+02
 20
-3.17729584E+02
 11
-3.80000053E+02
 21
-2.94942009E+02
  0
LINE
  8
0
 62
7
 10
-3.89500053E+02
 20
-3.34500000E+02
 11
-3.89500053E+02
 21
-3.00999985E+02
  0
LINE
  8
0
 62
7
 10
-3.85500084E+02
 20
-2.96999954E+02
 11
-3.18499992E+02
 21
-2.96999954E+02
  0
LINE
  8
0
 62
7
 10
-3.85499992E+02
 20
-3.33500038E+02
 11
-3.71899742E+02
 21
-3.33500038E+02
  0
LINE
  8
0
 62
7
 10
-3.86500023E+02
 20
-3.34500000E+02
 11
-3.86500023E+02
 21
-3.21499931E+02
  0
LINE
  8
0
 62
7
 10
-3.50999992E+02
 20
-3.00999962E+02
 11
-3.50999992E+02
 21
-3.14600243E+02
  0
LINE
  8
0
 62
7
 10
-3.66778486E+02
 20
-3.21136070E+02
 11
-3.74140333E+02
 21
-3.13774223E+02
  0
LINE
  8
0
 62
7
 10
-3.89000053E+02
 20
-3.34500000E+02
 11
-3.89000053E+02
 21
-3.00999985E+02
  0
LINE
  8
0
 62
7
 10
-3.65364250E+02
 20
-3.19721921E+02
 11
-3.72726141E+02
 21
-3.12360031E+02
  0
LINE
  8
0
  6
DASHED
 62
7
 10
-3.45000114E+02
 20
-2.97499855E+02
 11
-3.35000053E+02
 21
-2.97499855E+02
  0
LINE
  8
0
  6
CENTER
 62
2
 10
-1.70956047E+02
 20
-3.34500000E+02
 11
-3.25953811E+01
 21
-3.34500000E+02
  0
LINE
  8
0
  6
CENTER
 62
2
 10
-1.71939049E+02
 20
-1.69500000E+02
 11
-7.59999860E+01
 21
-1.69500000E+02
  0
LINE
  8
0
 62
7
 10
-7.99999924E+01
 20
-1.40437056E+02
 11
-7.99999924E+01
 21
-1.31999985E+02
  0
LINE
  8
0
  6
CENTER
 62
2
 10
-9.09999860E+01
 20
-1.41499969E+02
 11
-1.15686852E+02
 21
-1.41499969E+02
  0
LINE
  8
0
  6
CENTER
 62
2
 10
-3.69999860E+01
 20
-1.69500000E+02
 11
-3.25953811E+01
 21
-1.69500000E+02
  0
LINE
  8
0
 62
2
 10
-5.55380555E+01
 20
-2.09237878E+02
 11
-1.01038207E+01
 21
-1.30543475E+02
  0
LINE
  8
0
  6
CENTER
 62
2
 10
2.95501347E+02
 20
-3.06499992E+02
 11
3.42499947E+02
 21
-3.06499992E+02
  0
LINE
  8
0
 62
7
 10
3.97508827E+02
 20
-2.97550057E+02
 11
3.66000015E+02
 21
-2.97000069E+02
  0
LINE
  8
0
 62
7
 10
3.94000038E+02
 20
-2.97000000E+02
 11
3.65999947E+02
 21
-2.97000000E+02
  0
LINE
  8
0
  6
CENTER
 62
2
 10
4.56956001E+02
 20
-3.34500000E+02
 11
2.79335535E+02
 21
-3.34500000E+02
  0
LINE
  8
0
  6
CENTER
 62
2
 10
3.80000069E+02
 20
-3.22585487E+02
 11
3.80000069E+02
 21
-2.94614937E+02
  0
LINE
  8
0
 62
7
 10
3.94000038E+02
 20
-2.97488777E+02
 11
3.94000038E+02
 21
-2.97000000E+02
  0
LINE
  8
0
 62
7
 10
3.97999977E+02
 20
-3.34500000E+02
 11
3.97999977E+02
 21
-2.98049934E+02
  0
LINE
  8
0
 62
7
 10
4.08000008E+02
 20
-3.34500000E+02
 11
4.08000008E+02
 21
-3.17500008E+02
  0
LINE
  8
0
 62
7
 10
4.00000038E+02
 20
-3.34500000E+02
 11
4.00000038E+02
 21
-3.15999992E+02
  0
LINE
  8
0
 62
7
 10
4.07758762E+02
 20
-3.17241585E+02
 11
4.00000064E+02
 21
-3.16970645E+02
  0
LINE
  8
0
 62
7
 10
4.08000008E+02
 20
-3.17500008E+02
 11
4.08000008E+02
 21
-3.17491455E+02
  0
LINE
  8
0
 62
7
 10
4.12500008E+02
 20
-3.17500008E+02
 11
4.07991493E+02
 21
-3.17500008E+02
  0
LINE
  8
0
 62
7
 10
3.99499977E+02
 20
-3.15500000E+02
 11
3.97999977E+02
 21
-3.15500000E+02
  0
LINE
  8
0
 62
7
 10
4.12999977E+02
 20
-3.34500000E+02
 11
4.12999977E+02
 21
-3.18000031E+02
  0
LINE
  8
0
 62
7
 10
4.22999947E+02
 20
-3.25500000E+02
 11
4.22999947E+02
 21
-3.34500000E+02
  0
LINE
  8
0
 62
7
 10
4.20000069E+02
 20
-3.29232147E+02
 11
4.16000008E+02
 21
-3.29232147E+02
  0
LINE
  8
0
 62
2
 10
4.22033550E+02
 20
-3.30686586E+02
 11
4.19499895E+02
 21
-3.34500000E+02
  0
LINE
  8
0
 62
2
 10
4.19499787E+02
 20
-3.34500000E+02
 11
4.15999821E+02
 21
-3.29232187E+02
  0
LINE
  8
0
 62
7
 10
4.19999947E+02
 20
-3.24499954E+02
 11
4.19999947E+02
 21
-3.29232132E+02
  0
LINE
  8
0
 62
7
 10
4.16000008E+02
 20
-3.29232132E+02
 11
4.16000008E+02
 21
-3.34499992E+02
  0
LINE
  8
0
 62
7
 10
4.25999947E+02
 20
-3.34500000E+02
 11
4.25999947E+02
 21
-3.25499985E+02
  0
LINE
  8
0
 62
7
 10
4.54999947E+02
 20
-3.34500000E+02
 11
4.54999947E+02
 21
-3.27000153E+02
  0
LINE
  8
0
 62
7
 10
4.53499947E+02
 20
-3.34500000E+02
 11
4.53499947E+02
 21
-3.25499985E+02
  0
LINE
  8
0
 62
7
 10
4.53499886E+02
 20
-3.25500000E+02
 11
4.45999947E+02
 21
-3.25500000E+02
  0
LINE
  8
0
 62
2
 10
4.54319893E+02
 20
-3.26320007E+02
 11
4.45999947E+02
 21
-3.26320007E+02
  0
LINE
  8
0
 62
7
 10
4.54999839E+02
 20
-3.27000197E+02
 11
4.53499792E+02
 21
-3.25500196E+02
  0
LINE
  8
0
 62
7
 10
4.20000069E+02
 20
-3.24500015E+02
 11
4.13000008E+02
 21
-3.24500015E+02
  0
LINE
  8
0
 62
7
 10
4.22999956E+02
 20
-3.31377557E+02
 11
4.19999967E+02
 21
-3.29232460E+02
  0
LINE
  8
0
 62
7
 10
4.22999906E+02
 20
-3.25500017E+02
 11
4.19999917E+02
 21
-3.24500034E+02
  0
LINE
  8
0
 62
7
 10
4.25999947E+02
 20
-3.26320007E+02
 11
4.22999947E+02
 21
-3.26320007E+02
  0
ARC
  8
0
 62
7
 10
4.12500008E+02
 20
-3.18000031E+02
 40
5.00000000E-01
 50
3.59999981E+02
 51
8.99999635E+01
  0
ARC
  8
0
 62
7
 10
4.07750069E+02
 20
-3.17491455E+02
 40
2.50000000E-01
 50
3.59999981E+02
 51
8.80011361E+01
  0
ARC
  8
0
 62
7
 10
3.99499977E+02
 20
-3.15999992E+02
 40
5.00000000E-01
 50
3.59999981E+02
 51
8.99999635E+01
  0
ARC
  8
0
 62
7
 10
3.97500008E+02
 20
-2.98049927E+02
 40
5.00000000E-01
 50
3.59999913E+02
 51
8.89996480E+01
  0
ARC
  8
0
 62
7
 10
4.24499947E+02
 20
-3.34500000E+02
 40
9.99998474E+00
 50
1.48211648E+02
 51
1.80000000E+02
  0
LINE
  8
0
 62
7
 10
4.34999947E+02
 20
-3.25500000E+02
 11
4.25999947E+02
 21
-3.25500000E+02
  0
LINE
  8
0
 62
2
 10
4.34999947E+02
 20
-3.26320007E+02
 11
4.25999947E+02
 21
-3.26320007E+02
  0
LINE
  8
0
 62
4
 10
4.34999947E+02
 20
-3.34500000E+02
 11
4.34999947E+02
 21
-3.21000000E+02
  0
LINE
  8
0
 62
4
 10
4.45999947E+02
 20
-3.34500000E+02
 11
4.45999947E+02
 21
-3.21000000E+02
  0
ARC
  8
0
 62
4
 10
4.20205718E+02
 20
-3.34500000E+02
 40
2.57942282E+01
 50
2.54444375E-13
 51
1.75879541E+01
  0
ARC
  8
0
 62
4
 10
4.60794175E+02
 20
-3.34500000E+02
 40
2.57942282E+01
 50
1.62412046E+02
 51
1.80000000E+02
  0
ARC
  8
0
 62
4
 10
4.41900668E+02
 20
-3.22808657E+02
 40
6.90072132E+00
 50
1.45615752E+02
 51
2.14384248E+02
  0
ARC
  8
0
 62
4
 10
4.39099225E+02
 20
-3.22808657E+02
 40
6.90072132E+00
 50
3.25615752E+02
 51
3.43842480E+01
  0
LINE
  8
0
 62
4
 10
4.36205718E+02
 20
-3.18911543E+02
 11
4.34999947E+02
 21
-3.21000000E+02
  0
LINE
  8
0
 62
4
 10
4.44794175E+02
 20
-3.18911543E+02
 11
4.45999947E+02
 21
-3.21000000E+02
  0
LINE
  8
0
 62
4
 10
4.44794175E+02
 20
-3.26705771E+02
 11
4.36205718E+02
 21
-3.26705771E+02
  0
LINE
  8
0
 62
4
 10
4.44794175E+02
 20
-3.18911543E+02
 11
4.36205718E+02
 21
-3.18911543E+02
  0
LINE
  8
0
 62
7
 10
2.93422864E+02
 20
-3.10100029E+02
 11
3.42499947E+02
 21
-3.10100029E+02
  0
LINE
  8
0
 62
7
 10
2.97579802E+02
 20
-3.02900002E+02
 11
3.42499947E+02
 21
-3.02900002E+02
  0
LINE
  8
0
 62
7
 10
2.98965435E+02
 20
-3.00500015E+02
 11
3.23218646E+02
 21
-3.00500015E+02
  0
LINE
  8
0
 62
7
 10
3.65999947E+02
 20
-3.34500000E+02
 11
3.65999947E+02
 21
-2.97000000E+02
  0
LINE
  8
0
 62
2
 10
2.75469891E+02
 20
-3.41195491E+02
 11
3.04815247E+02
 21
-2.90367843E+02
  0
LINE
  8
0
 62
7
 10
3.61781247E+02
 20
-3.00500015E+02
 11
3.65999947E+02
 21
-3.00500015E+02
  0
LINE
  8
0
 62
7
 10
3.57499947E+02
 20
-3.02900002E+02
 11
3.65999977E+02
 21
-3.02900002E+02
  0
LINE
  8
0
 62
7
 10
3.57499947E+02
 20
-3.10100029E+02
 11
3.65999977E+02
 21
-3.10100029E+02
  0
LINE
  8
0
  6
CENTER
 62
2
 10
3.57499947E+02
 20
-3.06499992E+02
 11
4.01980782E+02
 21
-3.06499992E+02
  0
TEXT
  8
0
 10
-8.62146873E+01
 20
3.54316712E+02
 40
9.00000000E+00
  1
STRETCH LINE A
 41
1.09375000E+00
  7
MONOTXT
  0
LINE
  8
0
 62
7
 10
5.74500000E+02
 20
4.00500000E+02
 11
5.74500000E+02
 21
-4.00500000E+02
  0
LINE
  8
0
 62
7
 10
-5.64500000E+02
 20
4.00500000E+02
 11
5.74500000E+02
 21
4.00500000E+02
  0
LINE
  8
0
 62
7
 10
-5.64500000E+02
 20
-4.00500000E+02
 11
5.74500000E+02
 21
-4.00500000E+02
  0
LINE
  8
0
 62
7
 10
-5.64500000E+02
 20
4.00500000E+02
 11
-5.64500000E+02
 21
-4.00500000E+02
  0
LINE
  8
0
 62
7
 10
-5.64500000E+02
 20
3.70500000E+02
 11
-3.34500000E+02
 21
3.70500000E+02
  0
LINE
  8
0
 62
7
 10
3.44500000E+02
 20
3.70500000E+02
 11
5.74500000E+02
 21
3.70500000E+02
  0
LINE
  8
0
 62
7
 10
3.44500000E+02
 20
-3.70500000E+02
 11
5.74500000E+02
 21
-3.70500000E+02
  0
LINE
  8
0
 62
7
 10
3.44500000E+02
 20
-3.70500000E+02
 11
3.44500000E+02
 21
-4.00500000E+02
  0
LINE
  8
0
 62
7
 10
3.44500000E+02
 20
4.00500000E+02
 11
3.44500000E+02
 21
3.70500000E+02
  0
LINE
  8
0
 62
7
 10
-3.34500000E+02
 20
4.00500000E+02
 11
-3.34500000E+02
 21
3.70500000E+02
  0
TEXT
  8
0
 62
7
 10
-5.37179687E+02
 20
3.34250000E+02
 40
1.25000000E+01
  1
MODEL:DDAP63*75
 41
1.00000015E+00
  7
MONOTXT
  0
TEXT
  8
0
 62
7
 10
4.11285149E+02
 20
3.79250000E+02
 40
1.25000000E+01
  1
Ver. 1.0
 41
1.08108125E+00
  7
MONOTXT
  0
TEXT
  8
0
 62
7
 10
3.50070624E+02
 20
-3.94500000E+02
 40
1.80000000E+01
  1
KOGANEI CORP.
 41
1.04838710E+00
  7
MONOTXT
  0
TEXT
  8
0
 62
7
 10
-5.53964859E+02
 20
3.79250000E+02
 40
1.25000000E+01
  1
NEW DYNA CYLINDER
 41
1.07594953E+00
  7
MONOTXT
  0
ENDSEC
  0
EOF
