  0
SECTION
  2
HEADER
  9
$ACADVER
  1
AC1003
  9
$EXTMIN
 10
-5.64500000E+02
 20
-4.00500000E+02
  9
$EXTMAX
 10
5.74500000E+02
 20
4.00500000E+02
  9
$LIMMIN
 10
-5.64501000E+02
 20
-4.00501000E+02
  9
$LIMMAX
 10
5.74501000E+02
 20
4.00501000E+02
  9
$SNAPUNIT
 10
1
 20
1
  9
$SNAPBASE
 10
0
 20
0
  9
$GRIDMODE
 70
0
  9
$GRIDUNIT
 10
0
 20
0
  9
$LTSCALE
 40
1.89833333E+01
  9
$TEXTSIZE
 40
3.2
  9
$DIMTAD
 70
0
  9
$LUNITS
 70
2
  9
$LUPREC
 70
4
  9
$FILLETRAD
 40
0
  9
$AUNITS
 70
0
  9
$AUPREC
 70
0
  0
ENDSEC
  0
SECTION
  2
TABLES
  0
TABLE
  2
LTYPE
 70
2
  0
LTYPE
  2
CONTINUOUS
 70
64
  3
Solid-Line
 72
65
 73
0
 40
0
  0
LTYPE
  2
DASHED
 70
64
  3
DASHED
 72
65
 73
2
 40
.75
 49
.5
 49
-.25
  0
LTYPE
  2
HIDDEN
 70
64
  3
HIDDEN
 72
65
 73
2
 40
.375
 49
.25
 49
-.125
  0
LTYPE
  2
CENTER
 70
64
  3
CENTER
 72
65
 73
4
 40
2
 49
1.25
 49
-.25
 49
.25
 49
-.25
  0
LTYPE
  2
PHANTOM
 70
64
  3
PHANTOM
 72
65
 73
6
 40
2.5
 49
1.25
 49
-.25
 49
.25
 49
-.25
 49
.25
 49
-.25
  0
ENDTAB
  0
TABLE
  2
LAYER
 70
1
  0
LAYER
  2
1
 70
0
 62
7
  6
CONTINUOUS
 0
ENDTAB
  0
TABLE
  2
STYLE
 70
2
  0
STYLE
  2
MONOTXT
 70
0
 40
0
 41
1
 50
0
 71
0
 42
.2
  3
monotxt
  0
STYLE
  2
BIGFONT
 70
0
 40
0
 41
1
 50
0
 71
0
 42
.2
  3
txt
  4
bigfont
  0
ENDTAB
  0
ENDSEC
  0
SECTION
  2
ENTITIES
  0
LINE
  8
0
  6
PHANTOM
 10
-2.45000000E+01
 20
2.81313474E+01
 11
-2.45000000E+01
 21
1.93317049E+02
  0
LINE
  8
0
  6
PHANTOM
 10
1.38499981E+02
 20
2.81313474E+01
 11
1.38499981E+02
 21
1.97262295E+02
  0
LINE
  8
0
 62
2
 10
-1.69000019E+02
 20
9.03199844E+01
 11
-1.56999989E+02
 21
9.03199844E+01
  0
LINE
  8
0
 62
7
 10
-1.69000019E+02
 20
8.94999695E+01
 11
-1.56999989E+02
 21
8.94999695E+01
  0
LINE
  8
0
 62
2
 10
-1.69000019E+02
 20
1.10680008E+02
 11
-1.56999989E+02
 21
1.10680008E+02
  0
LINE
  8
0
 62
7
 10
-1.69000019E+02
 20
1.11500023E+02
 11
-1.56999989E+02
 21
1.11500023E+02
  0
LINE
  8
0
 62
4
 10
-1.80570957E+02
 20
8.20077251E+01
 11
-1.70429081E+02
 21
8.20077251E+01
  0
LINE
  8
0
 62
4
 10
-1.80570957E+02
 20
1.18958167E+02
 11
-1.70429081E+02
 21
1.18958167E+02
  0
LINE
  8
0
 62
4
 10
-1.82000019E+02
 20
1.16482947E+02
 11
-1.82000019E+02
 21
8.44829430E+01
  0
LINE
  8
0
 62
4
 10
-1.69000019E+02
 20
1.16482947E+02
 11
-1.69000019E+02
 21
8.44829430E+01
  0
LINE
  8
0
 62
4
 10
-1.82000036E+02
 20
1.16482946E+02
 11
-1.80570952E+02
 21
1.18958163E+02
  0
LINE
  8
0
 62
4
 10
-1.70429055E+02
 20
8.20077861E+01
 11
-1.69000008E+02
 21
8.44829145E+01
  0
LINE
  8
0
 62
4
 10
-1.81999982E+02
 20
8.44829893E+01
 11
-1.80570927E+02
 21
8.20077994E+01
  0
LINE
  8
0
 62
4
 10
-1.70429099E+02
 20
1.18958119E+02
 11
-1.69000026E+02
 21
1.16482931E+02
  0
LINE
  8
0
 62
4
 10
-1.80570957E+02
 20
9.14829430E+01
 11
-1.70429081E+02
 21
9.14829430E+01
  0
LINE
  8
0
 62
4
 10
-1.80570957E+02
 20
1.09482943E+02
 11
-1.70429081E+02
 21
1.09482943E+02
  0
ARC
  8
0
 62
4
 10
-1.77562622E+02
 20
8.67453331E+01
 40
8.56342793E+00
 50
3.26410646E+02
 51
3.35892994E+01
  0
ARC
  8
0
 62
4
 10
-1.98054814E+02
 20
1.00482943E+02
 40
2.90548000E+01
 50
3.41955269E+02
 51
1.80446768E+01
  0
ARC
  8
0
 62
4
 10
-1.77562622E+02
 20
1.14220553E+02
 40
8.56342793E+00
 50
3.26410605E+02
 51
3.35892584E+01
  0
ARC
  8
0
 62
4
 10
-1.73437416E+02
 20
8.67453331E+01
 40
8.56342793E+00
 50
1.46410624E+02
 51
2.13589277E+02
  0
ARC
  8
0
 62
4
 10
-1.52945219E+02
 20
1.00482943E+02
 40
2.90548000E+01
 50
1.61955287E+02
 51
1.98044695E+02
  0
ARC
  8
0
 62
4
 10
-1.73437416E+02
 20
1.14220553E+02
 40
8.56342793E+00
 50
1.46410665E+02
 51
2.13589318E+02
  0
ARC
  8
0
 62
7
 10
-1.54500019E+02
 20
1.00499985E+02
 40
1.25000010E+01
 50
3.27140311E+02
 51
3.28596884E+01
  0
ARC
  8
0
 62
7
 10
1.00499973E+02
 20
1.22000008E+02
 40
5.00000000E-01
 50
5.46415133E-05
 51
9.00000369E+01
  0
ARC
  8
0
 62
7
 10
2.62499989E+02
 20
1.00500000E+02
 40
2.25000000E+01
 50
1.55659342E+02
 51
1.80000019E+02
  0
ARC
  8
0
 62
7
 10
-1.20500019E+02
 20
1.22000008E+02
 40
5.00000000E-01
 50
9.00000300E+01
 51
1.80000019E+02
  0
ARC
  8
0
 62
7
 10
-1.34500019E+02
 20
1.21028259E+02
 40
5.00000000E-01
 50
9.20008106E+01
 51
1.80000019E+02
  0
ARC
  8
0
 62
7
 10
-1.18500050E+02
 20
1.46380280E+02
 40
5.00000000E-01
 50
9.10003249E+01
 51
1.80000019E+02
  0
ARC
  8
0
 62
7
 10
-1.39500019E+02
 20
1.19499977E+02
 40
5.00000000E-01
 50
9.00000300E+01
 51
1.80000019E+02
  0
ARC
  8
0
 62
7
 10
6.34999809E+01
 20
1.46380280E+02
 40
5.00000000E-01
 50
3.59999945E+02
 51
8.89996531E+01
  0
ARC
  8
0
 62
7
 10
1.00499973E+02
 20
7.89999962E+01
 40
5.00000000E-01
 50
2.69999963E+02
 51
3.59999945E+02
  0
ARC
  8
0
 62
7
 10
2.62499989E+02
 20
1.00500000E+02
 40
2.25000000E+01
 50
1.79999977E+02
 51
2.04340655E+02
  0
ARC
  8
0
 62
7
 10
2.65121349E+02
 20
8.87999802E+01
 40
6.87861586E+00
 50
3.25460471E+02
 51
3.45397885E+01
  0
ARC
  8
0
 62
7
 10
2.85695538E+02
 20
1.00499985E+02
 40
2.56955738E+01
 50
1.62328885E+02
 51
1.97671207E+02
  0
ARC
  8
0
 62
7
 10
2.46304413E+02
 20
1.00499985E+02
 40
2.56955738E+01
 50
3.42328866E+02
 51
1.76711884E+01
  0
ARC
  8
0
 62
7
 10
2.66878605E+02
 20
1.12199989E+02
 40
6.87861586E+00
 50
1.45460490E+02
 51
2.14539807E+02
  0
ARC
  8
0
 62
7
 10
2.65121349E+02
 20
1.12199989E+02
 40
6.87861586E+00
 50
3.25460266E+02
 51
3.45395836E+01
  0
ARC
  8
0
 62
7
 10
2.66878605E+02
 20
8.87999802E+01
 40
6.87861586E+00
 50
1.45460285E+02
 51
2.14539603E+02
  0
ARC
  8
0
 62
7
 10
-1.20500019E+02
 20
7.89999962E+01
 40
5.00000000E-01
 50
1.79999977E+02
 51
2.69999974E+02
  0
ARC
  8
0
 62
7
 10
-1.34500019E+02
 20
7.99717407E+01
 40
5.00000000E-01
 50
1.79999977E+02
 51
2.67999192E+02
  0
ARC
  8
0
 62
7
 10
-1.18500050E+02
 20
5.46197205E+01
 40
5.00000000E-01
 50
1.79999977E+02
 51
2.68999679E+02
  0
ARC
  8
0
 62
7
 10
-1.39500019E+02
 20
8.15000229E+01
 40
5.00000000E-01
 50
1.79999977E+02
 51
2.69999974E+02
  0
ARC
  8
0
 62
7
 10
6.34999809E+01
 20
5.46197205E+01
 40
5.00000000E-01
 50
2.71000347E+02
 51
5.46415133E-05
  0
LINE
  8
0
  6
CENTER
 62
2
 10
-9.89999580E+01
 20
1.34800056E+02
 11
-9.89999580E+01
 21
1.49952660E+02
  0
LINE
  8
0
  6
CENTER
 62
2
 10
4.39999352E+01
 20
1.34800056E+02
 11
4.39999352E+01
 21
1.49952660E+02
  0
LINE
  8
0
 62
7
 10
-1.56999989E+02
 20
9.03199844E+01
 11
-1.53999989E+02
 21
9.03199844E+01
  0
LINE
  8
0
 62
7
 10
-1.56999989E+02
 20
1.10680008E+02
 11
-1.53999989E+02
 21
1.10680008E+02
  0
LINE
  8
0
 62
2
 10
-1.43999984E+02
 20
9.37176789E+01
 11
-1.52660535E+02
 21
1.05465380E+02
  0
LINE
  8
0
 62
2
 10
-1.44000018E+02
 20
1.07282294E+02
 11
-1.52660564E+02
 21
9.55345992E+01
  0
LINE
  8
0
 62
7
 10
-1.53999998E+02
 20
8.94999823E+01
 11
-1.50999985E+02
 21
8.79999533E+01
  0
LINE
  8
0
 62
7
 10
-1.53999997E+02
 20
1.11500042E+02
 11
-1.50999998E+02
 21
1.13000064E+02
  0
LINE
  8
0
 62
7
 10
-1.53999978E+02
 20
1.03999861E+02
 11
-1.50999980E+02
 21
1.07282276E+02
  0
LINE
  8
0
 62
7
 10
-1.50999977E+02
 20
9.37176854E+01
 11
-1.53999973E+02
 21
9.70001221E+01
  0
LINE
  8
0
 62
7
 10
-1.50999989E+02
 20
1.07282280E+02
 11
-1.44000019E+02
 21
1.07282280E+02
  0
LINE
  8
0
 62
7
 10
-1.50999989E+02
 20
9.37176895E+01
 11
-1.44000019E+02
 21
9.37176895E+01
  0
LINE
  8
0
 62
7
 10
-1.44000019E+02
 20
9.37176895E+01
 11
-1.44000019E+02
 21
1.07282280E+02
  0
LINE
  8
0
 62
7
 10
-1.51000019E+02
 20
1.13000046E+02
 11
-1.40000019E+02
 21
1.13000046E+02
  0
LINE
  8
0
 62
2
 10
-1.93320057E+02
 20
1.10680008E+02
 11
-1.82000019E+02
 21
1.10680008E+02
  0
LINE
  8
0
 62
7
 10
-1.92500050E+02
 20
1.11500023E+02
 11
-1.82000019E+02
 21
1.11500023E+02
  0
LINE
  8
0
 62
7
 10
-1.94000060E+02
 20
1.09999991E+02
 11
-1.92500048E+02
 21
1.11500004E+02
  0
LINE
  8
0
 62
7
 10
-1.50999989E+02
 20
9.37176895E+01
 11
-1.50999989E+02
 21
8.79999619E+01
  0
LINE
  8
0
 62
7
 10
-1.51000019E+02
 20
8.79999466E+01
 11
-1.40000019E+02
 21
8.79999466E+01
  0
LINE
  8
0
 62
2
 10
-1.93320057E+02
 20
9.03199844E+01
 11
-1.82000019E+02
 21
9.03199844E+01
  0
LINE
  8
0
 62
7
 10
-1.94000082E+02
 20
9.10000144E+01
 11
-1.92500069E+02
 21
8.95000020E+01
  0
LINE
  8
0
 62
7
 10
-1.92499989E+02
 20
1.11500023E+02
 11
-1.92499989E+02
 21
8.94999847E+01
  0
LINE
  8
0
 62
7
 10
-1.92500050E+02
 20
8.94999695E+01
 11
-1.82000019E+02
 21
8.94999695E+01
  0
LINE
  8
0
 62
7
 10
-1.56999989E+02
 20
1.11500023E+02
 11
-1.56999989E+02
 21
8.94999847E+01
  0
LINE
  8
0
 62
7
 10
-1.93999989E+02
 20
1.10000046E+02
 11
-1.93999989E+02
 21
9.09999466E+01
  0
LINE
  8
0
 62
7
 10
-1.53999989E+02
 20
8.94999695E+01
 11
-1.53999989E+02
 21
1.11500023E+02
  0
LINE
  8
0
 62
7
 10
-1.50999989E+02
 20
1.07282280E+02
 11
-1.50999989E+02
 21
1.13000000E+02
  0
LINE
  8
0
 62
7
 10
6.39999886E+01
 20
1.47500008E+02
 11
9.89999886E+01
 21
1.47500008E+02
  0
LINE
  8
0
 62
7
 10
2.41999985E+02
 20
9.12263641E+01
 11
2.41999985E+02
 21
1.09773636E+02
  0
LINE
  8
0
 62
7
 10
1.75999978E+02
 20
1.23000000E+02
 11
2.59999989E+02
 21
1.23000000E+02
  0
LINE
  8
0
 62
7
 10
1.75999978E+02
 20
7.80000000E+01
 11
1.75999978E+02
 21
1.23000000E+02
  0
LINE
  8
0
 62
7
 10
9.89999886E+01
 20
1.22500008E+02
 11
1.00499973E+02
 21
1.22500008E+02
  0
LINE
  8
0
 62
7
 10
1.00999981E+02
 20
7.89999962E+01
 11
1.00999981E+02
 21
1.22000008E+02
  0
LINE
  8
0
 62
7
 10
1.75999978E+02
 20
1.13000038E+02
 11
1.00999981E+02
 21
1.13000038E+02
  0
LINE
  8
0
 62
2
 10
2.51000001E+02
 20
1.00500005E+02
 11
2.41999999E+02
 21
1.09773636E+02
  0
LINE
  8
0
 62
2
 10
2.50999985E+02
 20
1.00500001E+02
 11
2.59999988E+02
 21
1.09773633E+02
  0
LINE
  8
0
 62
7
 10
2.41999992E+02
 20
1.09773636E+02
 11
2.59999989E+02
 21
1.09773636E+02
  0
LINE
  8
0
 62
7
 10
2.79999809E+01
 20
1.44000023E+02
 11
2.14999886E+01
 21
1.44000023E+02
  0
LINE
  8
0
  6
CENTER
 62
2
 10
1.03044529E+02
 20
1.35500015E+02
 11
-1.23050587E+02
 21
1.35500015E+02
  0
LINE
  8
0
 62
7
 10
-1.39999989E+02
 20
8.15000076E+01
 11
-1.39999989E+02
 21
1.19499992E+02
  0
LINE
  8
0
 62
7
 10
-1.39500019E+02
 20
1.20000008E+02
 11
-1.35000050E+02
 21
1.20000008E+02
  0
LINE
  8
0
 62
7
 10
-1.19000050E+02
 20
5.46197205E+01
 11
-1.19000050E+02
 21
1.46380280E+02
  0
LINE
  8
0
 62
7
 10
-8.30000191E+01
 20
5.35000534E+01
 11
-8.30000191E+01
 21
1.47499947E+02
  0
LINE
  8
0
 62
7
 10
-1.15000050E+02
 20
1.47500008E+02
 11
-8.30000496E+01
 21
1.47500008E+02
  0
LINE
  8
0
 62
7
 10
-1.18508756E+02
 20
1.46880134E+02
 11
-8.30000353E+01
 21
1.47499941E+02
  0
LINE
  8
0
 62
7
 10
-1.14999989E+02
 20
1.46941444E+02
 11
-1.14999989E+02
 21
1.47499992E+02
  0
LINE
  8
0
 62
7
 10
-1.20500080E+02
 20
1.22499985E+02
 11
-1.19000080E+02
 21
1.22499985E+02
  0
LINE
  8
0
 62
7
 10
-1.34999989E+02
 20
7.99717407E+01
 11
-1.34999989E+02
 21
1.21028259E+02
  0
LINE
  8
0
 62
7
 10
-1.34517463E+02
 20
1.21527871E+02
 11
-1.21000068E+02
 21
1.21999908E+02
  0
LINE
  8
0
 62
7
 10
-1.21000019E+02
 20
7.90000229E+01
 11
-1.21000019E+02
 21
1.21999977E+02
  0
LINE
  8
0
 62
7
 10
6.39999886E+01
 20
5.34999924E+01
 11
6.39999886E+01
 21
1.47500008E+02
  0
LINE
  8
0
 62
7
 10
2.79999809E+01
 20
5.35000744E+01
 11
2.79999809E+01
 21
1.47499924E+02
  0
LINE
  8
0
 62
7
 10
5.99999504E+01
 20
1.47500008E+02
 11
2.79999809E+01
 21
1.47500008E+02
  0
LINE
  8
0
 62
7
 10
6.35087344E+01
 20
1.46880120E+02
 11
2.79999674E+01
 21
1.47499927E+02
  0
LINE
  8
0
 62
7
 10
5.99999733E+01
 20
1.46941444E+02
 11
5.99999733E+01
 21
1.47499992E+02
  0
LINE
  8
0
 62
7
 10
9.89999886E+01
 20
5.34999924E+01
 11
9.89999886E+01
 21
1.47500008E+02
  0
LINE
  8
0
 62
7
 10
6.39999886E+01
 20
5.34999924E+01
 11
9.89999886E+01
 21
5.34999924E+01
  0
LINE
  8
0
 62
7
 10
1.80999991E+02
 20
7.80000000E+01
 11
1.80999991E+02
 21
1.23000000E+02
  0
LINE
  8
0
 62
7
 10
1.75999978E+02
 20
7.80000000E+01
 11
2.59999989E+02
 21
7.80000000E+01
  0
LINE
  8
0
 62
7
 10
9.89999886E+01
 20
7.84999924E+01
 11
1.00499973E+02
 21
7.84999924E+01
  0
LINE
  8
0
 62
7
 10
1.75999978E+02
 20
8.79999619E+01
 11
1.00999981E+02
 21
8.79999619E+01
  0
LINE
  8
0
  6
CENTER
 62
2
 10
-1.97414692E+02
 20
1.00500000E+02
 11
2.81038029E+02
 21
1.00500000E+02
  0
LINE
  8
0
 62
2
 10
2.51000003E+02
 20
1.00499995E+02
 11
2.42000000E+02
 21
9.12263633E+01
  0
LINE
  8
0
 62
2
 10
2.50999988E+02
 20
1.00499997E+02
 11
2.59999990E+02
 21
9.12263656E+01
  0
LINE
  8
0
 62
7
 10
2.41999992E+02
 20
9.12263641E+01
 11
2.59999989E+02
 21
9.12263641E+01
  0
LINE
  8
0
 62
7
 10
2.59999989E+02
 20
7.80000000E+01
 11
2.59999989E+02
 21
1.23000000E+02
  0
LINE
  8
0
 62
7
 10
2.61212872E+02
 20
8.48999831E+01
 11
2.60000421E+02
 21
8.70000099E+01
  0
LINE
  8
0
 62
7
 10
2.70787533E+02
 20
8.48999863E+01
 11
2.61212490E+02
 21
8.48999863E+01
  0
LINE
  8
0
 62
7
 10
2.72000135E+02
 20
8.70000223E+01
 11
2.70787671E+02
 21
8.48999740E+01
  0
LINE
  8
0
 62
7
 10
2.70787533E+02
 20
9.26999969E+01
 11
2.61212490E+02
 21
9.26999969E+01
  0
LINE
  8
0
 62
2
 10
2.76320164E+02
 20
9.13199921E+01
 11
2.71999973E+02
 21
9.13199921E+01
  0
LINE
  8
0
 62
7
 10
2.77000216E+02
 20
9.19999912E+01
 11
2.75500166E+02
 21
9.04999410E+01
  0
LINE
  8
0
 62
7
 10
2.75500080E+02
 20
9.04999847E+01
 11
2.71999973E+02
 21
9.04999847E+01
  0
LINE
  8
0
 62
7
 10
2.71999958E+02
 20
1.13999992E+02
 11
2.71999958E+02
 21
8.69999847E+01
  0
LINE
  8
0
 62
7
 10
2.70787533E+02
 20
1.08299988E+02
 11
2.61212490E+02
 21
1.08299988E+02
  0
LINE
  8
0
 62
7
 10
2.61212550E+02
 20
1.16100085E+02
 11
2.60000072E+02
 21
1.14000010E+02
  0
LINE
  8
0
 62
7
 10
2.72000356E+02
 20
1.13999970E+02
 11
2.70787931E+02
 21
1.16099952E+02
  0
LINE
  8
0
 62
7
 10
2.70787533E+02
 20
1.16099983E+02
 11
2.61212490E+02
 21
1.16099983E+02
  0
LINE
  8
0
 62
2
 10
2.76320164E+02
 20
1.09679977E+02
 11
2.71999973E+02
 21
1.09679977E+02
  0
LINE
  8
0
 62
7
 10
2.75500080E+02
 20
1.10499985E+02
 11
2.71999973E+02
 21
1.10499985E+02
  0
LINE
  8
0
 62
7
 10
2.76999990E+02
 20
1.08999847E+02
 11
2.75499967E+02
 21
1.10499870E+02
  0
LINE
  8
0
 62
7
 10
2.75499966E+02
 20
9.04999847E+01
 11
2.75499966E+02
 21
1.10499985E+02
  0
LINE
  8
0
 62
7
 10
2.76999981E+02
 20
9.19999847E+01
 11
2.76999981E+02
 21
1.08999992E+02
  0
LINE
  8
0
 62
7
 10
2.79999809E+01
 20
5.69999771E+01
 11
-8.30000191E+01
 21
5.69999771E+01
  0
LINE
  8
0
  6
CENTER
 62
2
 10
1.03044529E+02
 20
6.54999847E+01
 11
-1.23050587E+02
 21
6.54999847E+01
  0
LINE
  8
0
 62
7
 10
5.99999733E+01
 20
5.40585518E+01
 11
5.99999733E+01
 21
5.35000038E+01
  0
LINE
  8
0
 62
7
 10
6.35087317E+01
 20
5.41198836E+01
 11
2.79999724E+01
 21
5.35000759E+01
  0
LINE
  8
0
 62
7
 10
5.99999504E+01
 20
5.34999924E+01
 11
2.79999809E+01
 21
5.34999924E+01
  0
LINE
  8
0
 62
7
 10
-1.34517478E+02
 20
7.94721287E+01
 11
-1.21000082E+02
 21
7.90000908E+01
  0
LINE
  8
0
 62
7
 10
-1.20500080E+02
 20
7.85000153E+01
 11
-1.19000080E+02
 21
7.85000153E+01
  0
LINE
  8
0
 62
7
 10
-1.14999989E+02
 20
5.40585518E+01
 11
-1.14999989E+02
 21
5.35000038E+01
  0
LINE
  8
0
 62
7
 10
-1.18508746E+02
 20
5.41198610E+01
 11
-8.30000251E+01
 21
5.35000540E+01
  0
LINE
  8
0
 62
7
 10
-1.15000050E+02
 20
5.34999924E+01
 11
-8.30000496E+01
 21
5.34999924E+01
  0
LINE
  8
0
 62
7
 10
-1.39500019E+02
 20
8.09999924E+01
 11
-1.35000050E+02
 21
8.09999924E+01
  0
LINE
  8
0
 62
7
 10
2.79999504E+01
 20
1.39999985E+02
 11
1.99999886E+01
 21
1.39999985E+02
  0
LINE
  8
0
 62
7
 10
2.79999504E+01
 20
1.30999985E+02
 11
4.99998856E+00
 21
1.30999985E+02
  0
LINE
  8
0
 62
7
 10
2.79999504E+01
 20
6.99999847E+01
 11
-8.30000191E+01
 21
6.99999847E+01
  0
LINE
  8
0
 62
7
 10
2.79999504E+01
 20
6.09999847E+01
 11
-8.30000191E+01
 21
6.09999847E+01
  0
LINE
  8
0
 62
6
 10
-3.07320394E+01
 20
1.40726428E+02
 11
-2.72679378E+01
 21
1.46726428E+02
  0
LINE
  8
0
 62
6
 10
-1.82678767E+01
 20
1.46726428E+02
 11
-2.17319783E+01
 21
1.40726428E+02
  0
LINE
  8
0
 62
4
 10
-9.99992751E+00
 20
1.45226428E+02
 11
-1.91339021E+01
 21
1.45226428E+02
  0
LINE
  8
0
  6
CENTER
 62
6
 10
2.50000725E+01
 20
1.43726428E+02
 11
-2.19999275E+01
 21
1.43726428E+02
  0
LINE
  8
0
 62
4
 10
-9.99992751E+00
 20
1.42226428E+02
 11
-2.08659529E+01
 21
1.42226428E+02
  0
LINE
  8
0
 62
4
 10
-4.54999885E+01
 20
1.45226428E+02
 11
-2.81339631E+01
 21
1.45226428E+02
  0
LINE
  8
0
 62
4
 10
2.14999886E+01
 20
1.42248896E+02
 11
1.99999886E+01
 21
1.41122847E+02
  0
LINE
  8
0
 62
4
 10
2.14999886E+01
 20
1.43097380E+02
 11
1.99999886E+01
 21
1.42621274E+02
  0
LINE
  8
0
 62
4
 10
2.14999886E+01
 20
1.45197451E+02
 11
2.14999886E+01
 21
1.42248896E+02
  0
LINE
  8
0
 62
4
 10
1.99999886E+01
 20
1.46330009E+02
 11
2.14999886E+01
 21
1.45197451E+02
  0
LINE
  8
0
 62
4
 10
-6.89999886E+01
 20
1.44000000E+02
 11
-6.89999886E+01
 21
1.56361392E+02
  0
LINE
  8
0
 62
4
 10
-3.89999886E+01
 20
1.45226428E+02
 11
-3.89999886E+01
 21
1.56361392E+02
  0
LINE
  8
0
 62
4
 10
-1.00000114E+01
 20
1.24976467E+02
 11
-1.00000114E+01
 21
1.56361392E+02
  0
LINE
  8
0
  6
CENTER
 62
6
 10
1.60745854E+01
 20
1.48330616E+02
 11
8.92539167E+00
 21
1.48330616E+02
  0
LINE
  8
0
  6
CENTER
 62
6
 10
1.24999886E+01
 20
1.51905213E+02
 11
1.24999886E+01
 21
1.44756020E+02
  0
LINE
  8
0
 62
4
 10
1.99999886E+01
 20
1.56361392E+02
 11
1.99999886E+01
 21
1.37518159E+02
  0
LINE
  8
0
 62
4
 10
4.99998856E+00
 20
1.24976467E+02
 11
4.99998856E+00
 21
1.56361392E+02
  0
LINE
  8
0
  6
CENTER
 62
6
 10
-1.00000114E+01
 20
1.29159701E+02
 11
-3.00001144E+00
 21
1.29159701E+02
  0
LINE
  8
0
  6
CENTER
 62
6
 10
-6.50001144E+00
 20
1.25659701E+02
 11
-6.50001144E+00
 21
1.32659701E+02
  0
LINE
  8
0
  6
CENTER
 62
6
 10
-2.00001144E+00
 20
1.29159701E+02
 11
4.99998856E+00
 21
1.29159701E+02
  0
LINE
  8
0
  6
CENTER
 62
6
 10
1.49998856E+00
 20
1.25659701E+02
 11
1.49998856E+00
 21
1.32659701E+02
  0
LINE
  8
0
 62
4
 10
-1.00000114E+01
 20
1.56361392E+02
 11
1.99999885E+01
 21
1.56361392E+02
  0
LINE
  8
0
 62
4
 10
-1.00000114E+01
 20
1.24976467E+02
 11
4.99998856E+00
 21
1.24976467E+02
  0
LINE
  8
0
 62
4
 10
-1.00000115E+01
 20
1.52502944E+02
 11
1.99999885E+01
 21
1.52502944E+02
  0
LINE
  8
0
 62
4
 10
-1.00000115E+01
 20
1.49880698E+02
 11
4.99998855E+00
 21
1.49880698E+02
  0
LINE
  8
0
 62
4
 10
-9.00001145E+00
 20
1.36049423E+02
 11
3.99998855E+00
 21
1.36049423E+02
  0
LINE
  8
0
 62
4
 10
4.99998855E+00
 20
1.37518159E+02
 11
1.99999885E+01
 21
1.37518159E+02
  0
LINE
  8
0
 62
4
 10
4.99998855E+00
 20
1.44621881E+02
 11
1.99999885E+01
 21
1.44621881E+02
  0
LINE
  8
0
 62
4
 10
4.99998855E+00
 20
1.44472038E+02
 11
1.99999885E+01
 21
1.44472038E+02
  0
POLYLINE
  8
0
 62
4
 66
1
  0
VERTEX
  8
0
 62
4
 10
1.02499886E+01
 20
1.48330616E+02
  0
VERTEX
  8
0
 62
4
 10
1.02585505E+01
 20
1.48148795E+02
  0
VERTEX
  8
0
 62
4
 10
1.02841712E+01
 20
1.47968357E+02
  0
VERTEX
  8
0
 62
4
 10
1.03266555E+01
 20
1.47790677E+02
  0
VERTEX
  8
0
 62
4
 10
1.03856802E+01
 20
1.47617106E+02
  0
VERTEX
  8
0
 62
4
 10
1.04607961E+01
 20
1.47448965E+02
  0
VERTEX
  8
0
 62
4
 10
1.05514314E+01
 20
1.47287534E+02
  0
VERTEX
  8
0
 62
4
 10
1.06568965E+01
 20
1.47134042E+02
  0
VERTEX
  8
0
 62
4
 10
1.07763886E+01
 20
1.46989656E+02
  0
VERTEX
  8
0
 62
4
 10
1.09089983E+01
 20
1.46855476E+02
  0
VERTEX
  8
0
 62
4
 10
1.10537165E+01
 20
1.46732522E+02
  0
VERTEX
  8
0
 62
4
 10
1.12094416E+01
 20
1.46621731E+02
  0
VERTEX
  8
0
 62
4
 10
1.13749886E+01
 20
1.46523945E+02
  0
VERTEX
  8
0
 62
4
 10
1.15490975E+01
 20
1.46439910E+02
  0
VERTEX
  8
0
 62
4
 10
1.17304433E+01
 20
1.46370263E+02
  0
VERTEX
  8
0
 62
4
 10
1.19176457E+01
 20
1.46315537E+02
  0
VERTEX
  8
0
 62
4
 10
1.21092802E+01
 20
1.46276146E+02
  0
VERTEX
  8
0
 62
4
 10
1.23038882E+01
 20
1.46252391E+02
  0
VERTEX
  8
0
 62
4
 10
1.24999886E+01
 20
1.46244452E+02
  0
VERTEX
  8
0
 62
4
 10
1.26960890E+01
 20
1.46252391E+02
  0
VERTEX
  8
0
 62
4
 10
1.28906970E+01
 20
1.46276146E+02
  0
VERTEX
  8
0
 62
4
 10
1.30823314E+01
 20
1.46315537E+02
  0
VERTEX
  8
0
 62
4
 10
1.32695339E+01
 20
1.46370263E+02
  0
VERTEX
  8
0
 62
4
 10
1.34508797E+01
 20
1.46439910E+02
  0
VERTEX
  8
0
 62
4
 10
1.36249886E+01
 20
1.46523945E+02
  0
VERTEX
  8
0
 62
4
 10
1.37905356E+01
 20
1.46621731E+02
  0
VERTEX
  8
0
 62
4
 10
1.39462607E+01
 20
1.46732522E+02
  0
VERTEX
  8
0
 62
4
 10
1.40909789E+01
 20
1.46855476E+02
  0
VERTEX
  8
0
 62
4
 10
1.42235886E+01
 20
1.46989656E+02
  0
VERTEX
  8
0
 62
4
 10
1.43430807E+01
 20
1.47134042E+02
  0
VERTEX
  8
0
 62
4
 10
1.44485458E+01
 20
1.47287534E+02
  0
VERTEX
  8
0
 62
4
 10
1.45391811E+01
 20
1.47448965E+02
  0
VERTEX
  8
0
 62
4
 10
1.46142970E+01
 20
1.47617106E+02
  0
VERTEX
  8
0
 62
4
 10
1.46733217E+01
 20
1.47790677E+02
  0
VERTEX
  8
0
 62
4
 10
1.47158060E+01
 20
1.47968357E+02
  0
VERTEX
  8
0
 62
4
 10
1.47414267E+01
 20
1.48148795E+02
  0
VERTEX
  8
0
 62
4
 10
1.47499886E+01
 20
1.48330616E+02
  0
VERTEX
  8
0
 62
4
 10
1.47414267E+01
 20
1.48512437E+02
  0
VERTEX
  8
0
 62
4
 10
1.47158060E+01
 20
1.48692875E+02
  0
VERTEX
  8
0
 62
4
 10
1.46733217E+01
 20
1.48870555E+02
  0
VERTEX
  8
0
 62
4
 10
1.46142970E+01
 20
1.49044126E+02
  0
VERTEX
  8
0
 62
4
 10
1.45391811E+01
 20
1.49212267E+02
  0
VERTEX
  8
0
 62
4
 10
1.44485458E+01
 20
1.49373698E+02
  0
VERTEX
  8
0
 62
4
 10
1.43430807E+01
 20
1.49527190E+02
  0
VERTEX
  8
0
 62
4
 10
1.42235886E+01
 20
1.49671576E+02
  0
VERTEX
  8
0
 62
4
 10
1.40909789E+01
 20
1.49805756E+02
  0
VERTEX
  8
0
 62
4
 10
1.39462607E+01
 20
1.49928710E+02
  0
VERTEX
  8
0
 62
4
 10
1.37905356E+01
 20
1.50039501E+02
  0
VERTEX
  8
0
 62
4
 10
1.36249886E+01
 20
1.50137287E+02
  0
VERTEX
  8
0
 62
4
 10
1.34508797E+01
 20
1.50221322E+02
  0
VERTEX
  8
0
 62
4
 10
1.32695339E+01
 20
1.50290969E+02
  0
VERTEX
  8
0
 62
4
 10
1.30823315E+01
 20
1.50345695E+02
  0
VERTEX
  8
0
 62
4
 10
1.28906970E+01
 20
1.50385086E+02
  0
VERTEX
  8
0
 62
4
 10
1.26960890E+01
 20
1.50408841E+02
  0
VERTEX
  8
0
 62
4
 10
1.24999886E+01
 20
1.50416780E+02
  0
VERTEX
  8
0
 62
4
 10
1.23038882E+01
 20
1.50408841E+02
  0
VERTEX
  8
0
 62
4
 10
1.21092802E+01
 20
1.50385086E+02
  0
VERTEX
  8
0
 62
4
 10
1.19176458E+01
 20
1.50345695E+02
  0
VERTEX
  8
0
 62
4
 10
1.17304433E+01
 20
1.50290969E+02
  0
VERTEX
  8
0
 62
4
 10
1.15490975E+01
 20
1.50221322E+02
  0
VERTEX
  8
0
 62
4
 10
1.13749886E+01
 20
1.50137287E+02
  0
VERTEX
  8
0
 62
4
 10
1.12094416E+01
 20
1.50039501E+02
  0
VERTEX
  8
0
 62
4
 10
1.10537165E+01
 20
1.49928710E+02
  0
VERTEX
  8
0
 62
4
 10
1.09089983E+01
 20
1.49805756E+02
  0
VERTEX
  8
0
 62
4
 10
1.07763886E+01
 20
1.49671576E+02
  0
VERTEX
  8
0
 62
4
 10
1.06568965E+01
 20
1.49527190E+02
  0
VERTEX
  8
0
 62
4
 10
1.05514314E+01
 20
1.49373698E+02
  0
VERTEX
  8
0
 62
4
 10
1.04607961E+01
 20
1.49212267E+02
  0
VERTEX
  8
0
 62
4
 10
1.03856802E+01
 20
1.49044126E+02
  0
VERTEX
  8
0
 62
4
 10
1.03266555E+01
 20
1.48870555E+02
  0
VERTEX
  8
0
 62
4
 10
1.02841712E+01
 20
1.48692875E+02
  0
VERTEX
  8
0
 62
4
 10
1.02585505E+01
 20
1.48512437E+02
  0
VERTEX
  8
0
 62
4
 10
1.02499886E+01
 20
1.48330616E+02
  0
SEQEND
  8
0
  0
POLYLINE
  8
0
 62
4
 66
1
  0
VERTEX
  8
0
 62
4
 10
3.49998856E+00
 20
1.29159701E+02
  0
VERTEX
  8
0
 62
4
 10
3.49193715E+00
 20
1.29325925E+02
  0
VERTEX
  8
0
 62
4
 10
3.46784774E+00
 20
1.29490811E+02
  0
VERTEX
  8
0
 62
4
 10
3.42791429E+00
 20
1.29653031E+02
  0
VERTEX
  8
0
 62
4
 10
3.37245831E+00
 20
1.29811279E+02
  0
VERTEX
  8
0
 62
4
 10
3.30192630E+00
 20
1.29964281E+02
  0
VERTEX
  8
0
 62
4
 10
3.21688615E+00
 20
1.30110805E+02
  0
VERTEX
  8
0
 62
4
 10
3.11802256E+00
 20
1.30249671E+02
  0
VERTEX
  8
0
 62
4
 10
3.00613150E+00
 20
1.30379761E+02
  0
VERTEX
  8
0
 62
4
 10
2.88211387E+00
 20
1.30500028E+02
  0
VERTEX
  8
0
 62
4
 10
2.74696818E+00
 20
1.30609504E+02
  0
VERTEX
  8
0
 62
4
 10
2.60178254E+00
 20
1.30707307E+02
  0
VERTEX
  8
0
 62
4
 10
2.44772590E+00
 20
1.30792649E+02
  0
VERTEX
  8
0
 62
4
 10
2.28603864E+00
 20
1.30864844E+02
  0
VERTEX
  8
0
 62
4
 10
2.11802256E+00
 20
1.30923309E+02
  0
VERTEX
  8
0
 62
4
 10
1.94503044E+00
 20
1.30967576E+02
  0
VERTEX
  8
0
 62
4
 10
1.76845511E+00
 20
1.30997286E+02
  0
VERTEX
  8
0
 62
4
 10
1.58971824E+00
 20
1.31012201E+02
  0
VERTEX
  8
0
 62
4
 10
1.41025892E+00
 20
1.31012201E+02
  0
VERTEX
  8
0
 62
4
 10
1.23152205E+00
 20
1.30997286E+02
  0
VERTEX
  8
0
 62
4
 10
1.05494671E+00
 20
1.30967576E+02
  0
VERTEX
  8
0
 62
4
 10
8.81954589E-01
 20
1.30923309E+02
  0
VERTEX
  8
0
 62
4
 10
7.13938514E-01
 20
1.30864844E+02
  0
VERTEX
  8
0
 62
4
 10
5.52251251E-01
 20
1.30792649E+02
  0
VERTEX
  8
0
 62
4
 10
3.98194613E-01
 20
1.30707307E+02
  0
VERTEX
  8
0
 62
4
 10
2.53008971E-01
 20
1.30609504E+02
  0
VERTEX
  8
0
 62
4
 10
1.17863276E-01
 20
1.30500028E+02
  0
VERTEX
  8
0
 62
4
 10
-6.15435926E-03
 20
1.30379761E+02
  0
VERTEX
  8
0
 62
4
 10
-1.18045417E-01
 20
1.30249671E+02
  0
VERTEX
  8
0
 62
4
 10
-2.16909017E-01
 20
1.30110805E+02
  0
VERTEX
  8
0
 62
4
 10
-3.01949167E-01
 20
1.29964281E+02
  0
VERTEX
  8
0
 62
4
 10
-3.72481174E-01
 20
1.29811279E+02
  0
VERTEX
  8
0
 62
4
 10
-4.27937156E-01
 20
1.29653031E+02
  0
VERTEX
  8
0
 62
4
 10
-4.67870614E-01
 20
1.29490811E+02
  0
VERTEX
  8
0
 62
4
 10
-4.91960026E-01
 20
1.29325925E+02
  0
VERTEX
  8
0
 62
4
 10
-5.00011440E-01
 20
1.29159701E+02
  0
SEQEND
  8
0
  0
LINE
  8
0
 62
4
 10
-5.00011444E-01
 20
1.27682824E+02
 11
-5.00011444E-01
 21
1.29159701E+02
  0
LINE
  8
0
 62
4
 10
3.49998856E+00
 20
1.27682824E+02
 11
3.49998856E+00
 21
1.29159701E+02
  0
POLYLINE
  8
0
 62
4
 66
1
  0
VERTEX
  8
0
 62
4
 10
-5.00011440E-01
 20
1.27682824E+02
  0
VERTEX
  8
0
 62
4
 10
-4.92400837E-01
 20
1.27521205E+02
  0
VERTEX
  8
0
 62
4
 10
-4.69626947E-01
 20
1.27360816E+02
  0
VERTEX
  8
0
 62
4
 10
-4.31863094E-01
 20
1.27202878E+02
  0
VERTEX
  8
0
 62
4
 10
-3.79396684E-01
 20
1.27048593E+02
  0
VERTEX
  8
0
 62
4
 10
-3.12627017E-01
 20
1.26899134E+02
  0
VERTEX
  8
0
 62
4
 10
-2.32062251E-01
 20
1.26755640E+02
  0
VERTEX
  8
0
 62
4
 10
-1.38315532E-01
 20
1.26619202E+02
  0
VERTEX
  8
0
 62
4
 10
-3.21003301E-02
 20
1.26490859E+02
  0
VERTEX
  8
0
 62
4
 10
8.57749934E-02
 20
1.26371588E+02
  0
VERTEX
  8
0
 62
4
 10
2.14413336E-01
 20
1.26262296E+02
  0
VERTEX
  8
0
 62
4
 10
3.52835683E-01
 20
1.26163815E+02
  0
VERTEX
  8
0
 62
4
 10
4.99988555E-01
 20
1.26076894E+02
  0
VERTEX
  8
0
 62
4
 10
6.54752031E-01
 20
1.26002196E+02
  0
VERTEX
  8
0
 62
4
 10
8.15948268E-01
 20
1.25940288E+02
  0
VERTEX
  8
0
 62
4
 10
9.82350465E-01
 20
1.25891642E+02
  0
VERTEX
  8
0
 62
4
 10
1.15269220E+00
 20
1.25856628E+02
  0
VERTEX
  8
0
 62
4
 10
1.32567707E+00
 20
1.25835513E+02
  0
VERTEX
  8
0
 62
4
 10
1.49998855E+00
 20
1.25828456E+02
  0
VERTEX
  8
0
 62
4
 10
1.67430004E+00
 20
1.25835513E+02
  0
VERTEX
  8
0
 62
4
 10
1.84728491E+00
 20
1.25856628E+02
  0
VERTEX
  8
0
 62
4
 10
2.01762665E+00
 20
1.25891642E+02
  0
VERTEX
  8
0
 62
4
 10
2.18402884E+00
 20
1.25940288E+02
  0
VERTEX
  8
0
 62
4
 10
2.34522508E+00
 20
1.26002196E+02
  0
VERTEX
  8
0
 62
4
 10
2.49998856E+00
 20
1.26076894E+02
  0
VERTEX
  8
0
 62
4
 10
2.64714143E+00
 20
1.26163815E+02
  0
VERTEX
  8
0
 62
4
 10
2.78556378E+00
 20
1.26262296E+02
  0
VERTEX
  8
0
 62
4
 10
2.91420212E+00
 20
1.26371588E+02
  0
VERTEX
  8
0
 62
4
 10
3.03207744E+00
 20
1.26490859E+02
  0
VERTEX
  8
0
 62
4
 10
3.13829265E+00
 20
1.26619202E+02
  0
VERTEX
  8
0
 62
4
 10
3.23203937E+00
 20
1.26755640E+02
  0
VERTEX
  8
0
 62
4
 10
3.31260413E+00
 20
1.26899134E+02
  0
VERTEX
  8
0
 62
4
 10
3.37937380E+00
 20
1.27048593E+02
  0
VERTEX
  8
0
 62
4
 10
3.43184021E+00
 20
1.27202878E+02
  0
VERTEX
  8
0
 62
4
 10
3.46960407E+00
 20
1.27360816E+02
  0
VERTEX
  8
0
 62
4
 10
3.49237796E+00
 20
1.27521205E+02
  0
VERTEX
  8
0
 62
4
 10
3.49998856E+00
 20
1.27682824E+02
  0
VERTEX
  8
0
 62
4
 10
3.49237796E+00
 20
1.27844443E+02
  0
VERTEX
  8
0
 62
4
 10
3.46960407E+00
 20
1.28004832E+02
  0
VERTEX
  8
0
 62
4
 10
3.43184021E+00
 20
1.28162770E+02
  0
VERTEX
  8
0
 62
4
 10
3.37937380E+00
 20
1.28317055E+02
  0
VERTEX
  8
0
 62
4
 10
3.31260414E+00
 20
1.28466514E+02
  0
VERTEX
  8
0
 62
4
 10
3.23203937E+00
 20
1.28610008E+02
  0
VERTEX
  8
0
 62
4
 10
3.13829265E+00
 20
1.28746446E+02
  0
VERTEX
  8
0
 62
4
 10
3.03207745E+00
 20
1.28874789E+02
  0
VERTEX
  8
0
 62
4
 10
2.91420212E+00
 20
1.28994060E+02
  0
VERTEX
  8
0
 62
4
 10
2.78556378E+00
 20
1.29103352E+02
  0
VERTEX
  8
0
 62
4
 10
2.64714144E+00
 20
1.29201833E+02
  0
VERTEX
  8
0
 62
4
 10
2.49998856E+00
 20
1.29288754E+02
  0
VERTEX
  8
0
 62
4
 10
2.34522509E+00
 20
1.29363452E+02
  0
VERTEX
  8
0
 62
4
 10
2.18402885E+00
 20
1.29425360E+02
  0
VERTEX
  8
0
 62
4
 10
2.01762665E+00
 20
1.29474006E+02
  0
VERTEX
  8
0
 62
4
 10
1.84728492E+00
 20
1.29509020E+02
  0
VERTEX
  8
0
 62
4
 10
1.67430005E+00
 20
1.29530135E+02
  0
VERTEX
  8
0
 62
4
 10
1.49998856E+00
 20
1.29537192E+02
  0
VERTEX
  8
0
 62
4
 10
1.32567708E+00
 20
1.29530135E+02
  0
VERTEX
  8
0
 62
4
 10
1.15269221E+00
 20
1.29509020E+02
  0
VERTEX
  8
0
 62
4
 10
9.82350472E-01
 20
1.29474006E+02
  0
VERTEX
  8
0
 62
4
 10
8.15948275E-01
 20
1.29425360E+02
  0
VERTEX
  8
0
 62
4
 10
6.54752038E-01
 20
1.29363452E+02
  0
VERTEX
  8
0
 62
4
 10
4.99988562E-01
 20
1.29288754E+02
  0
VERTEX
  8
0
 62
4
 10
3.52835689E-01
 20
1.29201833E+02
  0
VERTEX
  8
0
 62
4
 10
2.14413342E-01
 20
1.29103352E+02
  0
VERTEX
  8
0
 62
4
 10
8.57749988E-02
 20
1.28994060E+02
  0
VERTEX
  8
0
 62
4
 10
-3.21003252E-02
 20
1.28874789E+02
  0
VERTEX
  8
0
 62
4
 10
-1.38315528E-01
 20
1.28746446E+02
  0
VERTEX
  8
0
 62
4
 10
-2.32062247E-01
 20
1.28610008E+02
  0
VERTEX
  8
0
 62
4
 10
-3.12627013E-01
 20
1.28466514E+02
  0
VERTEX
  8
0
 62
4
 10
-3.79396681E-01
 20
1.28317055E+02
  0
VERTEX
  8
0
 62
4
 10
-4.31863092E-01
 20
1.28162770E+02
  0
VERTEX
  8
0
 62
4
 10
-4.69626946E-01
 20
1.28004832E+02
  0
VERTEX
  8
0
 62
4
 10
-4.92400836E-01
 20
1.27844443E+02
  0
VERTEX
  8
0
 62
4
 10
-5.00011440E-01
 20
1.27682824E+02
  0
SEQEND
  8
0
  0
POLYLINE
  8
0
 62
6
 66
1
  0
VERTEX
  8
0
 62
6
 10
-1.14400000E-05
 20
1.27682824E+02
  0
VERTEX
  8
0
 62
6
 10
5.69651243E-03
 20
1.27561610E+02
  0
VERTEX
  8
0
 62
6
 10
2.27769296E-02
 20
1.27441318E+02
  0
VERTEX
  8
0
 62
6
 10
5.10998193E-02
 20
1.27322865E+02
  0
VERTEX
  8
0
 62
6
 10
9.04496272E-02
 20
1.27207151E+02
  0
VERTEX
  8
0
 62
6
 10
1.40526877E-01
 20
1.27095057E+02
  0
VERTEX
  8
0
 62
6
 10
2.00950452E-01
 20
1.26987436E+02
  0
VERTEX
  8
0
 62
6
 10
2.71260491E-01
 20
1.26885108E+02
  0
VERTEX
  8
0
 62
6
 10
3.50921892E-01
 20
1.26788851E+02
  0
VERTEX
  8
0
 62
6
 10
4.39328385E-01
 20
1.26699397E+02
  0
VERTEX
  8
0
 62
6
 10
5.35807142E-01
 20
1.26617428E+02
  0
VERTEX
  8
0
 62
6
 10
6.39623902E-01
 20
1.26543567E+02
  0
VERTEX
  8
0
 62
6
 10
7.49988556E-01
 20
1.26478377E+02
  0
VERTEX
  8
0
 62
6
 10
8.66061164E-01
 20
1.26422353E+02
  0
VERTEX
  8
0
 62
6
 10
9.86958341E-01
 20
1.26375922E+02
  0
VERTEX
  8
0
 62
6
 10
1.11175999E+00
 20
1.26339438E+02
  0
VERTEX
  8
0
 62
6
 10
1.23951629E+00
 20
1.26313177E+02
  0
VERTEX
  8
0
 62
6
 10
1.36925494E+00
 20
1.26297341E+02
  0
VERTEX
  8
0
 62
6
 10
1.49998856E+00
 20
1.26292048E+02
  0
VERTEX
  8
0
 62
6
 10
1.63072217E+00
 20
1.26297341E+02
  0
VERTEX
  8
0
 62
6
 10
1.76046082E+00
 20
1.26313177E+02
  0
VERTEX
  8
0
 62
6
 10
1.88821712E+00
 20
1.26339438E+02
  0
VERTEX
  8
0
 62
6
 10
2.01301877E+00
 20
1.26375922E+02
  0
VERTEX
  8
0
 62
6
 10
2.13391595E+00
 20
1.26422353E+02
  0
VERTEX
  8
0
 62
6
 10
2.24998856E+00
 20
1.26478377E+02
  0
VERTEX
  8
0
 62
6
 10
2.36035321E+00
 20
1.26543567E+02
  0
VERTEX
  8
0
 62
6
 10
2.46416997E+00
 20
1.26617428E+02
  0
VERTEX
  8
0
 62
6
 10
2.56064873E+00
 20
1.26699397E+02
  0
VERTEX
  8
0
 62
6
 10
2.64905522E+00
 20
1.26788851E+02
  0
VERTEX
  8
0
 62
6
 10
2.72871662E+00
 20
1.26885108E+02
  0
VERTEX
  8
0
 62
6
 10
2.79902666E+00
 20
1.26987436E+02
  0
VERTEX
  8
0
 62
6
 10
2.85945024E+00
 20
1.27095057E+02
  0
VERTEX
  8
0
 62
6
 10
2.90952749E+00
 20
1.27207151E+02
  0
VERTEX
  8
0
 62
6
 10
2.94887730E+00
 20
1.27322865E+02
  0
VERTEX
  8
0
 62
6
 10
2.97720019E+00
 20
1.27441318E+02
  0
VERTEX
  8
0
 62
6
 10
2.99428061E+00
 20
1.27561610E+02
  0
VERTEX
  8
0
 62
6
 10
2.99998856E+00
 20
1.27682824E+02
  0
VERTEX
  8
0
 62
6
 10
2.99428061E+00
 20
1.27804038E+02
  0
VERTEX
  8
0
 62
6
 10
2.97720019E+00
 20
1.27924330E+02
  0
VERTEX
  8
0
 62
6
 10
2.94887730E+00
 20
1.28042783E+02
  0
VERTEX
  8
0
 62
6
 10
2.90952749E+00
 20
1.28158497E+02
  0
VERTEX
  8
0
 62
6
 10
2.85945024E+00
 20
1.28270591E+02
  0
VERTEX
  8
0
 62
6
 10
2.79902667E+00
 20
1.28378212E+02
  0
VERTEX
  8
0
 62
6
 10
2.72871663E+00
 20
1.28480540E+02
  0
VERTEX
  8
0
 62
6
 10
2.64905523E+00
 20
1.28576797E+02
  0
VERTEX
  8
0
 62
6
 10
2.56064873E+00
 20
1.28666251E+02
  0
VERTEX
  8
0
 62
6
 10
2.46416998E+00
 20
1.28748220E+02
  0
VERTEX
  8
0
 62
6
 10
2.36035322E+00
 20
1.28822081E+02
  0
VERTEX
  8
0
 62
6
 10
2.24998856E+00
 20
1.28887271E+02
  0
VERTEX
  8
0
 62
6
 10
2.13391595E+00
 20
1.28943295E+02
  0
VERTEX
  8
0
 62
6
 10
2.01301878E+00
 20
1.28989726E+02
  0
VERTEX
  8
0
 62
6
 10
1.88821713E+00
 20
1.29026210E+02
  0
VERTEX
  8
0
 62
6
 10
1.76046083E+00
 20
1.29052471E+02
  0
VERTEX
  8
0
 62
6
 10
1.63072218E+00
 20
1.29068307E+02
  0
VERTEX
  8
0
 62
6
 10
1.49998856E+00
 20
1.29073600E+02
  0
VERTEX
  8
0
 62
6
 10
1.36925495E+00
 20
1.29068307E+02
  0
VERTEX
  8
0
 62
6
 10
1.23951630E+00
 20
1.29052471E+02
  0
VERTEX
  8
0
 62
6
 10
1.11175999E+00
 20
1.29026210E+02
  0
VERTEX
  8
0
 62
6
 10
9.86958347E-01
 20
1.28989726E+02
  0
VERTEX
  8
0
 62
6
 10
8.66061169E-01
 20
1.28943295E+02
  0
VERTEX
  8
0
 62
6
 10
7.49988561E-01
 20
1.28887271E+02
  0
VERTEX
  8
0
 62
6
 10
6.39623907E-01
 20
1.28822081E+02
  0
VERTEX
  8
0
 62
6
 10
5.35807147E-01
 20
1.28748220E+02
  0
VERTEX
  8
0
 62
6
 10
4.39328389E-01
 20
1.28666251E+02
  0
VERTEX
  8
0
 62
6
 10
3.50921896E-01
 20
1.28576797E+02
  0
VERTEX
  8
0
 62
6
 10
2.71260494E-01
 20
1.28480540E+02
  0
VERTEX
  8
0
 62
6
 10
2.00950455E-01
 20
1.28378212E+02
  0
VERTEX
  8
0
 62
6
 10
1.40526880E-01
 20
1.28270591E+02
  0
VERTEX
  8
0
 62
6
 10
9.04496292E-02
 20
1.28158497E+02
  0
VERTEX
  8
0
 62
6
 10
5.10998208E-02
 20
1.28042783E+02
  0
VERTEX
  8
0
 62
6
 10
2.27769306E-02
 20
1.27924330E+02
  0
VERTEX
  8
0
 62
6
 10
5.69651293E-03
 20
1.27804038E+02
  0
VERTEX
  8
0
 62
6
 10
-1.14400000E-05
 20
1.27682824E+02
  0
SEQEND
  8
0
  0
LINE
  8
0
 62
4
 10
1.49998856E+00
 20
1.28749086E+02
 11
4.99988556E-01
 21
1.28220591E+02
  0
LINE
  8
0
 62
4
 10
4.99988556E-01
 20
1.28220591E+02
 11
4.99988556E-01
 21
1.27145058E+02
  0
LINE
  8
0
 62
4
 10
4.99988556E-01
 20
1.27145058E+02
 11
1.49998856E+00
 21
1.26607291E+02
  0
LINE
  8
0
 62
4
 10
1.49998856E+00
 20
1.26607291E+02
 11
2.49998856E+00
 21
1.27145058E+02
  0
LINE
  8
0
 62
4
 10
2.49998856E+00
 20
1.27145058E+02
 11
2.49998856E+00
 21
1.28220591E+02
  0
LINE
  8
0
 62
4
 10
2.49998856E+00
 20
1.28220591E+02
 11
1.49998856E+00
 21
1.28749086E+02
  0
LINE
  8
0
 62
4
 10
-5.50001144E+00
 20
1.28220591E+02
 11
-6.50001144E+00
 21
1.28749086E+02
  0
LINE
  8
0
 62
4
 10
-5.50001144E+00
 20
1.27145058E+02
 11
-5.50001144E+00
 21
1.28220591E+02
  0
LINE
  8
0
 62
4
 10
-6.50001144E+00
 20
1.26607291E+02
 11
-5.50001144E+00
 21
1.27145058E+02
  0
LINE
  8
0
 62
4
 10
-7.50001144E+00
 20
1.27145058E+02
 11
-6.50001144E+00
 21
1.26607291E+02
  0
LINE
  8
0
 62
4
 10
-7.50001144E+00
 20
1.28220591E+02
 11
-7.50001144E+00
 21
1.27145058E+02
  0
LINE
  8
0
 62
4
 10
-6.50001144E+00
 20
1.28749086E+02
 11
-7.50001144E+00
 21
1.28220591E+02
  0
POLYLINE
  8
0
 62
6
 66
1
  0
VERTEX
  8
0
 62
6
 10
-8.00001144E+00
 20
1.27682824E+02
  0
VERTEX
  8
0
 62
6
 10
-7.99430349E+00
 20
1.27561610E+02
  0
VERTEX
  8
0
 62
6
 10
-7.97722307E+00
 20
1.27441318E+02
  0
VERTEX
  8
0
 62
6
 10
-7.94890018E+00
 20
1.27322865E+02
  0
VERTEX
  8
0
 62
6
 10
-7.90955037E+00
 20
1.27207151E+02
  0
VERTEX
  8
0
 62
6
 10
-7.85947312E+00
 20
1.27095057E+02
  0
VERTEX
  8
0
 62
6
 10
-7.79904955E+00
 20
1.26987436E+02
  0
VERTEX
  8
0
 62
6
 10
-7.72873951E+00
 20
1.26885108E+02
  0
VERTEX
  8
0
 62
6
 10
-7.64907811E+00
 20
1.26788851E+02
  0
VERTEX
  8
0
 62
6
 10
-7.56067161E+00
 20
1.26699397E+02
  0
VERTEX
  8
0
 62
6
 10
-7.46419286E+00
 20
1.26617428E+02
  0
VERTEX
  8
0
 62
6
 10
-7.36037610E+00
 20
1.26543567E+02
  0
VERTEX
  8
0
 62
6
 10
-7.25001144E+00
 20
1.26478377E+02
  0
VERTEX
  8
0
 62
6
 10
-7.13393884E+00
 20
1.26422353E+02
  0
VERTEX
  8
0
 62
6
 10
-7.01304166E+00
 20
1.26375922E+02
  0
VERTEX
  8
0
 62
6
 10
-6.88824001E+00
 20
1.26339438E+02
  0
VERTEX
  8
0
 62
6
 10
-6.76048371E+00
 20
1.26313177E+02
  0
VERTEX
  8
0
 62
6
 10
-6.63074506E+00
 20
1.26297341E+02
  0
VERTEX
  8
0
 62
6
 10
-6.50001144E+00
 20
1.26292048E+02
  0
VERTEX
  8
0
 62
6
 10
-6.36927783E+00
 20
1.26297341E+02
  0
VERTEX
  8
0
 62
6
 10
-6.23953918E+00
 20
1.26313177E+02
  0
VERTEX
  8
0
 62
6
 10
-6.11178288E+00
 20
1.26339438E+02
  0
VERTEX
  8
0
 62
6
 10
-5.98698123E+00
 20
1.26375922E+02
  0
VERTEX
  8
0
 62
6
 10
-5.86608405E+00
 20
1.26422353E+02
  0
VERTEX
  8
0
 62
6
 10
-5.75001144E+00
 20
1.26478377E+02
  0
VERTEX
  8
0
 62
6
 10
-5.63964679E+00
 20
1.26543567E+02
  0
VERTEX
  8
0
 62
6
 10
-5.53583003E+00
 20
1.26617428E+02
  0
VERTEX
  8
0
 62
6
 10
-5.43935127E+00
 20
1.26699397E+02
  0
VERTEX
  8
0
 62
6
 10
-5.35094478E+00
 20
1.26788851E+02
  0
VERTEX
  8
0
 62
6
 10
-5.27128338E+00
 20
1.26885108E+02
  0
VERTEX
  8
0
 62
6
 10
-5.20097334E+00
 20
1.26987436E+02
  0
VERTEX
  8
0
 62
6
 10
-5.14054976E+00
 20
1.27095057E+02
  0
VERTEX
  8
0
 62
6
 10
-5.09047251E+00
 20
1.27207151E+02
  0
VERTEX
  8
0
 62
6
 10
-5.05112270E+00
 20
1.27322865E+02
  0
VERTEX
  8
0
 62
6
 10
-5.02279981E+00
 20
1.27441318E+02
  0
VERTEX
  8
0
 62
6
 10
-5.00571939E+00
 20
1.27561610E+02
  0
VERTEX
  8
0
 62
6
 10
-5.00001144E+00
 20
1.27682824E+02
  0
VERTEX
  8
0
 62
6
 10
-5.00571939E+00
 20
1.27804038E+02
  0
VERTEX
  8
0
 62
6
 10
-5.02279981E+00
 20
1.27924330E+02
  0
VERTEX
  8
0
 62
6
 10
-5.05112270E+00
 20
1.28042783E+02
  0
VERTEX
  8
0
 62
6
 10
-5.09047251E+00
 20
1.28158497E+02
  0
VERTEX
  8
0
 62
6
 10
-5.14054976E+00
 20
1.28270591E+02
  0
VERTEX
  8
0
 62
6
 10
-5.20097333E+00
 20
1.28378212E+02
  0
VERTEX
  8
0
 62
6
 10
-5.27128337E+00
 20
1.28480540E+02
  0
VERTEX
  8
0
 62
6
 10
-5.35094477E+00
 20
1.28576797E+02
  0
VERTEX
  8
0
 62
6
 10
-5.43935127E+00
 20
1.28666251E+02
  0
VERTEX
  8
0
 62
6
 10
-5.53583002E+00
 20
1.28748220E+02
  0
VERTEX
  8
0
 62
6
 10
-5.63964678E+00
 20
1.28822081E+02
  0
VERTEX
  8
0
 62
6
 10
-5.75001144E+00
 20
1.28887271E+02
  0
VERTEX
  8
0
 62
6
 10
-5.86608405E+00
 20
1.28943295E+02
  0
VERTEX
  8
0
 62
6
 10
-5.98698122E+00
 20
1.28989726E+02
  0
VERTEX
  8
0
 62
6
 10
-6.11178287E+00
 20
1.29026210E+02
  0
VERTEX
  8
0
 62
6
 10
-6.23953917E+00
 20
1.29052471E+02
  0
VERTEX
  8
0
 62
6
 10
-6.36927782E+00
 20
1.29068307E+02
  0
VERTEX
  8
0
 62
6
 10
-6.50001144E+00
 20
1.29073600E+02
  0
VERTEX
  8
0
 62
6
 10
-6.63074505E+00
 20
1.29068307E+02
  0
VERTEX
  8
0
 62
6
 10
-6.76048370E+00
 20
1.29052471E+02
  0
VERTEX
  8
0
 62
6
 10
-6.88824001E+00
 20
1.29026210E+02
  0
VERTEX
  8
0
 62
6
 10
-7.01304165E+00
 20
1.28989726E+02
  0
VERTEX
  8
0
 62
6
 10
-7.13393883E+00
 20
1.28943295E+02
  0
VERTEX
  8
0
 62
6
 10
-7.25001144E+00
 20
1.28887271E+02
  0
VERTEX
  8
0
 62
6
 10
-7.36037609E+00
 20
1.28822081E+02
  0
VERTEX
  8
0
 62
6
 10
-7.46419285E+00
 20
1.28748220E+02
  0
VERTEX
  8
0
 62
6
 10
-7.56067161E+00
 20
1.28666251E+02
  0
VERTEX
  8
0
 62
6
 10
-7.64907810E+00
 20
1.28576797E+02
  0
VERTEX
  8
0
 62
6
 10
-7.72873951E+00
 20
1.28480540E+02
  0
VERTEX
  8
0
 62
6
 10
-7.79904955E+00
 20
1.28378212E+02
  0
VERTEX
  8
0
 62
6
 10
-7.85947312E+00
 20
1.28270591E+02
  0
VERTEX
  8
0
 62
6
 10
-7.90955037E+00
 20
1.28158497E+02
  0
VERTEX
  8
0
 62
6
 10
-7.94890018E+00
 20
1.28042783E+02
  0
VERTEX
  8
0
 62
6
 10
-7.97722307E+00
 20
1.27924330E+02
  0
VERTEX
  8
0
 62
6
 10
-7.99430349E+00
 20
1.27804038E+02
  0
VERTEX
  8
0
 62
6
 10
-8.00001144E+00
 20
1.27682824E+02
  0
SEQEND
  8
0
  0
POLYLINE
  8
0
 62
4
 66
1
  0
VERTEX
  8
0
 62
4
 10
-8.50001144E+00
 20
1.27682824E+02
  0
VERTEX
  8
0
 62
4
 10
-8.49240084E+00
 20
1.27521205E+02
  0
VERTEX
  8
0
 62
4
 10
-8.46962695E+00
 20
1.27360816E+02
  0
VERTEX
  8
0
 62
4
 10
-8.43186309E+00
 20
1.27202878E+02
  0
VERTEX
  8
0
 62
4
 10
-8.37939668E+00
 20
1.27048593E+02
  0
VERTEX
  8
0
 62
4
 10
-8.31262702E+00
 20
1.26899134E+02
  0
VERTEX
  8
0
 62
4
 10
-8.23206225E+00
 20
1.26755640E+02
  0
VERTEX
  8
0
 62
4
 10
-8.13831553E+00
 20
1.26619202E+02
  0
VERTEX
  8
0
 62
4
 10
-8.03210033E+00
 20
1.26490859E+02
  0
VERTEX
  8
0
 62
4
 10
-7.91422501E+00
 20
1.26371588E+02
  0
VERTEX
  8
0
 62
4
 10
-7.78558666E+00
 20
1.26262296E+02
  0
VERTEX
  8
0
 62
4
 10
-7.64716432E+00
 20
1.26163815E+02
  0
VERTEX
  8
0
 62
4
 10
-7.50001144E+00
 20
1.26076894E+02
  0
VERTEX
  8
0
 62
4
 10
-7.34524797E+00
 20
1.26002196E+02
  0
VERTEX
  8
0
 62
4
 10
-7.18405173E+00
 20
1.25940288E+02
  0
VERTEX
  8
0
 62
4
 10
-7.01764954E+00
 20
1.25891642E+02
  0
VERTEX
  8
0
 62
4
 10
-6.84730780E+00
 20
1.25856628E+02
  0
VERTEX
  8
0
 62
4
 10
-6.67432293E+00
 20
1.25835513E+02
  0
VERTEX
  8
0
 62
4
 10
-6.50001145E+00
 20
1.25828456E+02
  0
VERTEX
  8
0
 62
4
 10
-6.32569996E+00
 20
1.25835513E+02
  0
VERTEX
  8
0
 62
4
 10
-6.15271509E+00
 20
1.25856628E+02
  0
VERTEX
  8
0
 62
4
 10
-5.98237335E+00
 20
1.25891642E+02
  0
VERTEX
  8
0
 62
4
 10
-5.81597116E+00
 20
1.25940288E+02
  0
VERTEX
  8
0
 62
4
 10
-5.65477492E+00
 20
1.26002196E+02
  0
VERTEX
  8
0
 62
4
 10
-5.50001144E+00
 20
1.26076894E+02
  0
VERTEX
  8
0
 62
4
 10
-5.35285857E+00
 20
1.26163815E+02
  0
VERTEX
  8
0
 62
4
 10
-5.21443622E+00
 20
1.26262296E+02
  0
VERTEX
  8
0
 62
4
 10
-5.08579788E+00
 20
1.26371588E+02
  0
VERTEX
  8
0
 62
4
 10
-4.96792256E+00
 20
1.26490859E+02
  0
VERTEX
  8
0
 62
4
 10
-4.86170735E+00
 20
1.26619202E+02
  0
VERTEX
  8
0
 62
4
 10
-4.76796063E+00
 20
1.26755640E+02
  0
VERTEX
  8
0
 62
4
 10
-4.68739587E+00
 20
1.26899134E+02
  0
VERTEX
  8
0
 62
4
 10
-4.62062620E+00
 20
1.27048593E+02
  0
VERTEX
  8
0
 62
4
 10
-4.56815979E+00
 20
1.27202878E+02
  0
VERTEX
  8
0
 62
4
 10
-4.53039593E+00
 20
1.27360816E+02
  0
VERTEX
  8
0
 62
4
 10
-4.50762204E+00
 20
1.27521205E+02
  0
VERTEX
  8
0
 62
4
 10
-4.50001144E+00
 20
1.27682824E+02
  0
VERTEX
  8
0
 62
4
 10
-4.50762204E+00
 20
1.27844443E+02
  0
VERTEX
  8
0
 62
4
 10
-4.53039593E+00
 20
1.28004832E+02
  0
VERTEX
  8
0
 62
4
 10
-4.56815979E+00
 20
1.28162770E+02
  0
VERTEX
  8
0
 62
4
 10
-4.62062620E+00
 20
1.28317055E+02
  0
VERTEX
  8
0
 62
4
 10
-4.68739586E+00
 20
1.28466514E+02
  0
VERTEX
  8
0
 62
4
 10
-4.76796063E+00
 20
1.28610008E+02
  0
VERTEX
  8
0
 62
4
 10
-4.86170735E+00
 20
1.28746446E+02
  0
VERTEX
  8
0
 62
4
 10
-4.96792255E+00
 20
1.28874789E+02
  0
VERTEX
  8
0
 62
4
 10
-5.08579788E+00
 20
1.28994060E+02
  0
VERTEX
  8
0
 62
4
 10
-5.21443622E+00
 20
1.29103352E+02
  0
VERTEX
  8
0
 62
4
 10
-5.35285856E+00
 20
1.29201833E+02
  0
VERTEX
  8
0
 62
4
 10
-5.50001144E+00
 20
1.29288754E+02
  0
VERTEX
  8
0
 62
4
 10
-5.65477491E+00
 20
1.29363452E+02
  0
VERTEX
  8
0
 62
4
 10
-5.81597115E+00
 20
1.29425360E+02
  0
VERTEX
  8
0
 62
4
 10
-5.98237335E+00
 20
1.29474006E+02
  0
VERTEX
  8
0
 62
4
 10
-6.15271508E+00
 20
1.29509020E+02
  0
VERTEX
  8
0
 62
4
 10
-6.32569995E+00
 20
1.29530135E+02
  0
VERTEX
  8
0
 62
4
 10
-6.50001144E+00
 20
1.29537192E+02
  0
VERTEX
  8
0
 62
4
 10
-6.67432292E+00
 20
1.29530135E+02
  0
VERTEX
  8
0
 62
4
 10
-6.84730779E+00
 20
1.29509020E+02
  0
VERTEX
  8
0
 62
4
 10
-7.01764953E+00
 20
1.29474006E+02
  0
VERTEX
  8
0
 62
4
 10
-7.18405172E+00
 20
1.29425360E+02
  0
VERTEX
  8
0
 62
4
 10
-7.34524796E+00
 20
1.29363452E+02
  0
VERTEX
  8
0
 62
4
 10
-7.50001144E+00
 20
1.29288754E+02
  0
VERTEX
  8
0
 62
4
 10
-7.64716431E+00
 20
1.29201833E+02
  0
VERTEX
  8
0
 62
4
 10
-7.78558666E+00
 20
1.29103352E+02
  0
VERTEX
  8
0
 62
4
 10
-7.91422500E+00
 20
1.28994060E+02
  0
VERTEX
  8
0
 62
4
 10
-8.03210033E+00
 20
1.28874789E+02
  0
VERTEX
  8
0
 62
4
 10
-8.13831553E+00
 20
1.28746446E+02
  0
VERTEX
  8
0
 62
4
 10
-8.23206225E+00
 20
1.28610008E+02
  0
VERTEX
  8
0
 62
4
 10
-8.31262701E+00
 20
1.28466514E+02
  0
VERTEX
  8
0
 62
4
 10
-8.37939668E+00
 20
1.28317055E+02
  0
VERTEX
  8
0
 62
4
 10
-8.43186309E+00
 20
1.28162770E+02
  0
VERTEX
  8
0
 62
4
 10
-8.46962695E+00
 20
1.28004832E+02
  0
VERTEX
  8
0
 62
4
 10
-8.49240084E+00
 20
1.27844443E+02
  0
VERTEX
  8
0
 62
4
 10
-8.50001144E+00
 20
1.27682824E+02
  0
SEQEND
  8
0
  0
LINE
  8
0
 62
4
 10
-4.50001144E+00
 20
1.27682824E+02
 11
-4.50001144E+00
 21
1.29159701E+02
  0
LINE
  8
0
 62
4
 10
-8.50001144E+00
 20
1.27682824E+02
 11
-8.50001144E+00
 21
1.29159701E+02
  0
POLYLINE
  8
0
 62
4
 66
1
  0
VERTEX
  8
0
 62
4
 10
-4.50001144E+00
 20
1.29159701E+02
  0
VERTEX
  8
0
 62
4
 10
-4.50806285E+00
 20
1.29325925E+02
  0
VERTEX
  8
0
 62
4
 10
-4.53215226E+00
 20
1.29490811E+02
  0
VERTEX
  8
0
 62
4
 10
-4.57208571E+00
 20
1.29653031E+02
  0
VERTEX
  8
0
 62
4
 10
-4.62754169E+00
 20
1.29811279E+02
  0
VERTEX
  8
0
 62
4
 10
-4.69807370E+00
 20
1.29964281E+02
  0
VERTEX
  8
0
 62
4
 10
-4.78311385E+00
 20
1.30110805E+02
  0
VERTEX
  8
0
 62
4
 10
-4.88197744E+00
 20
1.30249671E+02
  0
VERTEX
  8
0
 62
4
 10
-4.99386850E+00
 20
1.30379761E+02
  0
VERTEX
  8
0
 62
4
 10
-5.11788613E+00
 20
1.30500028E+02
  0
VERTEX
  8
0
 62
4
 10
-5.25303182E+00
 20
1.30609504E+02
  0
VERTEX
  8
0
 62
4
 10
-5.39821746E+00
 20
1.30707307E+02
  0
VERTEX
  8
0
 62
4
 10
-5.55227410E+00
 20
1.30792649E+02
  0
VERTEX
  8
0
 62
4
 10
-5.71396136E+00
 20
1.30864844E+02
  0
VERTEX
  8
0
 62
4
 10
-5.88197744E+00
 20
1.30923309E+02
  0
VERTEX
  8
0
 62
4
 10
-6.05496956E+00
 20
1.30967576E+02
  0
VERTEX
  8
0
 62
4
 10
-6.23154489E+00
 20
1.30997286E+02
  0
VERTEX
  8
0
 62
4
 10
-6.41028176E+00
 20
1.31012201E+02
  0
VERTEX
  8
0
 62
4
 10
-6.58974108E+00
 20
1.31012201E+02
  0
VERTEX
  8
0
 62
4
 10
-6.76847795E+00
 20
1.30997286E+02
  0
VERTEX
  8
0
 62
4
 10
-6.94505329E+00
 20
1.30967576E+02
  0
VERTEX
  8
0
 62
4
 10
-7.11804541E+00
 20
1.30923309E+02
  0
VERTEX
  8
0
 62
4
 10
-7.28606149E+00
 20
1.30864844E+02
  0
VERTEX
  8
0
 62
4
 10
-7.44774875E+00
 20
1.30792649E+02
  0
VERTEX
  8
0
 62
4
 10
-7.60180539E+00
 20
1.30707307E+02
  0
VERTEX
  8
0
 62
4
 10
-7.74699103E+00
 20
1.30609504E+02
  0
VERTEX
  8
0
 62
4
 10
-7.88213672E+00
 20
1.30500028E+02
  0
VERTEX
  8
0
 62
4
 10
-8.00615436E+00
 20
1.30379761E+02
  0
VERTEX
  8
0
 62
4
 10
-8.11804542E+00
 20
1.30249671E+02
  0
VERTEX
  8
0
 62
4
 10
-8.21690902E+00
 20
1.30110805E+02
  0
VERTEX
  8
0
 62
4
 10
-8.30194917E+00
 20
1.29964281E+02
  0
VERTEX
  8
0
 62
4
 10
-8.37248117E+00
 20
1.29811279E+02
  0
VERTEX
  8
0
 62
4
 10
-8.42793716E+00
 20
1.29653031E+02
  0
VERTEX
  8
0
 62
4
 10
-8.46787061E+00
 20
1.29490811E+02
  0
VERTEX
  8
0
 62
4
 10
-8.49196003E+00
 20
1.29325925E+02
  0
VERTEX
  8
0
 62
4
 10
-8.50001144E+00
 20
1.29159701E+02
  0
SEQEND
  8
0
  0
LINE
  8
0
 62
4
 10
-7.04999886E+01
 20
1.45197451E+02
 11
-7.04999886E+01
 21
1.44000000E+02
  0
LINE
  8
0
 62
4
 10
-4.54999886E+01
 20
1.46330009E+02
 11
-4.54999886E+01
 21
1.44000000E+02
  0
LINE
  8
0
  6
CENTER
 62
6
 10
-4.93499886E+01
 20
1.48943921E+02
 11
-5.86499886E+01
 21
1.48943921E+02
  0
LINE
  8
0
  6
CENTER
 62
6
 10
-5.39999886E+01
 20
1.53593921E+02
 11
-5.39999886E+01
 21
1.44293921E+02
  0
LINE
  8
0
  6
CENTER
 62
6
 10
-5.79253917E+01
 20
1.52189064E+02
 11
-6.50745854E+01
 21
1.52189064E+02
  0
LINE
  8
0
  6
CENTER
 62
6
 10
-6.14999886E+01
 20
1.55763661E+02
 11
-6.14999886E+01
 21
1.48614467E+02
  0
LINE
  8
0
  6
CENTER
 62
6
 10
-4.16999886E+01
 20
1.52189064E+02
 11
-5.12999886E+01
 21
1.52189064E+02
  0
LINE
  8
0
  6
CENTER
 62
6
 10
-4.64999886E+01
 20
1.56989064E+02
 11
-4.64999886E+01
 21
1.47389064E+02
  0
LINE
  8
0
 62
4
 10
-6.89999886E+01
 20
1.56361392E+02
 11
-3.89999886E+01
 21
1.56361392E+02
  0
LINE
  8
0
 62
4
 10
-6.89999886E+01
 20
1.46718680E+02
 11
-5.72713774E+01
 21
1.46718680E+02
  0
LINE
  8
0
 62
4
 10
-6.89999886E+01
 20
1.46330009E+02
 11
-5.68957454E+01
 21
1.46330009E+02
  0
LINE
  8
0
 62
4
 10
-6.89999886E+01
 20
1.46330009E+02
 11
-7.04999886E+01
 21
1.45197451E+02
  0
LINE
  8
0
 62
4
 10
-5.81499886E+01
 20
1.49086271E+02
 11
-5.81499886E+01
 21
1.49745579E+02
  0
POLYLINE
  8
0
 62
4
 66
1
  0
VERTEX
  8
0
 62
4
 10
-5.81499886E+01
 20
1.49086271E+02
  0
VERTEX
  8
0
 62
4
 10
-5.81332819E+01
 20
1.48741356E+02
  0
VERTEX
  8
0
 62
4
 10
-5.80832964E+01
 20
1.48399217E+02
  0
VERTEX
  8
0
 62
4
 10
-5.80004345E+01
 20
1.48062611E+02
  0
VERTEX
  8
0
 62
4
 10
-5.78853633E+01
 20
1.47734246E+02
  0
VERTEX
  8
0
 62
4
 10
-5.77390094E+01
 20
1.47416768E+02
  0
VERTEX
  8
0
 62
4
 10
-5.75625511E+01
 20
1.47112731E+02
  0
VERTEX
  8
0
 62
4
 10
-5.73574091E+01
 20
1.46824583E+02
  0
VERTEX
  8
0
 62
4
 10
-5.71252352E+01
 20
1.46554646E+02
  0
VERTEX
  8
0
 62
4
 10
-5.68678986E+01
 20
1.46305092E+02
  0
VERTEX
  8
0
 62
4
 10
-5.65874713E+01
 20
1.46077930E+02
  0
VERTEX
  8
0
 62
4
 10
-5.62862111E+01
 20
1.45874989E+02
  0
VERTEX
  8
0
 62
4
 10
-5.59665436E+01
 20
1.45697904E+02
  0
VERTEX
  8
0
 62
4
 10
-5.56310425E+01
 20
1.45548100E+02
  0
VERTEX
  8
0
 62
4
 10
-5.52824091E+01
 20
1.45426783E+02
  0
VERTEX
  8
0
 62
4
 10
-5.49234505E+01
 20
1.45334931E+02
  0
VERTEX
  8
0
 62
4
 10
-5.45570567E+01
 20
1.45273282E+02
  0
VERTEX
  8
0
 62
4
 10
-5.41861777E+01
 20
1.45242332E+02
  0
VERTEX
  8
0
 62
4
 10
-5.38137996E+01
 20
1.45242332E+02
  0
VERTEX
  8
0
 62
4
 10
-5.34429206E+01
 20
1.45273282E+02
  0
VERTEX
  8
0
 62
4
 10
-5.30765267E+01
 20
1.45334931E+02
  0
VERTEX
  8
0
 62
4
 10
-5.27175681E+01
 20
1.45426783E+02
  0
VERTEX
  8
0
 62
4
 10
-5.23689347E+01
 20
1.45548100E+02
  0
VERTEX
  8
0
 62
4
 10
-5.20334337E+01
 20
1.45697904E+02
  0
VERTEX
  8
0
 62
4
 10
-5.17137661E+01
 20
1.45874989E+02
  0
VERTEX
  8
0
 62
4
 10
-5.14125059E+01
 20
1.46077930E+02
  0
VERTEX
  8
0
 62
4
 10
-5.11320786E+01
 20
1.46305092E+02
  0
VERTEX
  8
0
 62
4
 10
-5.08747420E+01
 20
1.46554646E+02
  0
VERTEX
  8
0
 62
4
 10
-5.06425681E+01
 20
1.46824583E+02
  0
VERTEX
  8
0
 62
4
 10
-5.04374261E+01
 20
1.47112730E+02
  0
VERTEX
  8
0
 62
4
 10
-5.02609678E+01
 20
1.47416767E+02
  0
VERTEX
  8
0
 62
4
 10
-5.01146139E+01
 20
1.47734246E+02
  0
VERTEX
  8
0
 62
4
 10
-4.99995427E+01
 20
1.48062611E+02
  0
VERTEX
  8
0
 62
4
 10
-4.99166808E+01
 20
1.48399217E+02
  0
VERTEX
  8
0
 62
4
 10
-4.98666953E+01
 20
1.48741356E+02
  0
VERTEX
  8
0
 62
4
 10
-4.98499886E+01
 20
1.49086271E+02
  0
SEQEND
  8
0
  0
POLYLINE
  8
0
 62
4
 66
1
  0
VERTEX
  8
0
 62
4
 10
-5.81499886E+01
 20
1.49745579E+02
  0
VERTEX
  8
0
 62
4
 10
-5.81341966E+01
 20
1.49410220E+02
  0
VERTEX
  8
0
 62
4
 10
-5.80869408E+01
 20
1.49077413E+02
  0
VERTEX
  8
0
 62
4
 10
-5.80085808E+01
 20
1.48749692E+02
  0
VERTEX
  8
0
 62
4
 10
-5.78997130E+01
 20
1.48429549E+02
  0
VERTEX
  8
0
 62
4
 10
-5.77611659E+01
 20
1.48119423E+02
  0
VERTEX
  8
0
 62
4
 10
-5.75939940E+01
 20
1.47821673E+02
  0
VERTEX
  8
0
 62
4
 10
-5.73994696E+01
 20
1.47538564E+02
  0
VERTEX
  8
0
 62
4
 10
-5.71790730E+01
 20
1.47272252E+02
  0
VERTEX
  8
0
 62
4
 10
-5.69344818E+01
 20
1.47024764E+02
  0
VERTEX
  8
0
 62
4
 10
-5.66675572E+01
 20
1.46797983E+02
  0
VERTEX
  8
0
 62
4
 10
-5.63803308E+01
 20
1.46593635E+02
  0
VERTEX
  8
0
 62
4
 10
-5.60749886E+01
 20
1.46413275E+02
  0
VERTEX
  8
0
 62
4
 10
-5.57538544E+01
 20
1.46258276E+02
  0
VERTEX
  8
0
 62
4
 10
-5.54193722E+01
 20
1.46129818E+02
  0
VERTEX
  8
0
 62
4
 10
-5.50740876E+01
 20
1.46028877E+02
  0
VERTEX
  8
0
 62
4
 10
-5.47206285E+01
 20
1.45956223E+02
  0
VERTEX
  8
0
 62
4
 10
-5.43616849E+01
 20
1.45912408E+02
  0
VERTEX
  8
0
 62
4
 10
-5.39999886E+01
 20
1.45897766E+02
  0
VERTEX
  8
0
 62
4
 10
-5.36382923E+01
 20
1.45912408E+02
  0
VERTEX
  8
0
 62
4
 10
-5.32793487E+01
 20
1.45956223E+02
  0
VERTEX
  8
0
 62
4
 10
-5.29258896E+01
 20
1.46028877E+02
  0
VERTEX
  8
0
 62
4
 10
-5.25806050E+01
 20
1.46129818E+02
  0
VERTEX
  8
0
 62
4
 10
-5.22461228E+01
 20
1.46258276E+02
  0
VERTEX
  8
0
 62
4
 10
-5.19249886E+01
 20
1.46413275E+02
  0
VERTEX
  8
0
 62
4
 10
-5.16196464E+01
 20
1.46593635E+02
  0
VERTEX
  8
0
 62
4
 10
-5.13324200E+01
 20
1.46797983E+02
  0
VERTEX
  8
0
 62
4
 10
-5.10654955E+01
 20
1.47024764E+02
  0
VERTEX
  8
0
 62
4
 10
-5.08209042E+01
 20
1.47272252E+02
  0
VERTEX
  8
0
 62
4
 10
-5.06005076E+01
 20
1.47538564E+02
  0
VERTEX
  8
0
 62
4
 10
-5.04059832E+01
 20
1.47821672E+02
  0
VERTEX
  8
0
 62
4
 10
-5.02388113E+01
 20
1.48119423E+02
  0
VERTEX
  8
0
 62
4
 10
-5.01002642E+01
 20
1.48429549E+02
  0
VERTEX
  8
0
 62
4
 10
-4.99913964E+01
 20
1.48749692E+02
  0
VERTEX
  8
0
 62
4
 10
-4.99130364E+01
 20
1.49077413E+02
  0
VERTEX
  8
0
 62
4
 10
-4.98657806E+01
 20
1.49410220E+02
  0
VERTEX
  8
0
 62
4
 10
-4.98499886E+01
 20
1.49745579E+02
  0
VERTEX
  8
0
 62
4
 10
-4.98657806E+01
 20
1.50080938E+02
  0
VERTEX
  8
0
 62
4
 10
-4.99130364E+01
 20
1.50413745E+02
  0
VERTEX
  8
0
 62
4
 10
-4.99913964E+01
 20
1.50741466E+02
  0
VERTEX
  8
0
 62
4
 10
-5.01002642E+01
 20
1.51061609E+02
  0
VERTEX
  8
0
 62
4
 10
-5.02388113E+01
 20
1.51371735E+02
  0
VERTEX
  8
0
 62
4
 10
-5.04059832E+01
 20
1.51669485E+02
  0
VERTEX
  8
0
 62
4
 10
-5.06005076E+01
 20
1.51952594E+02
  0
VERTEX
  8
0
 62
4
 10
-5.08209042E+01
 20
1.52218906E+02
  0
VERTEX
  8
0
 62
4
 10
-5.10654955E+01
 20
1.52466394E+02
  0
VERTEX
  8
0
 62
4
 10
-5.13324200E+01
 20
1.52693175E+02
  0
VERTEX
  8
0
 62
4
 10
-5.16196464E+01
 20
1.52897523E+02
  0
VERTEX
  8
0
 62
4
 10
-5.19249886E+01
 20
1.53077883E+02
  0
VERTEX
  8
0
 62
4
 10
-5.22461228E+01
 20
1.53232882E+02
  0
VERTEX
  8
0
 62
4
 10
-5.25806050E+01
 20
1.53361340E+02
  0
VERTEX
  8
0
 62
4
 10
-5.29258896E+01
 20
1.53462281E+02
  0
VERTEX
  8
0
 62
4
 10
-5.32793487E+01
 20
1.53534935E+02
  0
VERTEX
  8
0
 62
4
 10
-5.36382923E+01
 20
1.53578750E+02
  0
VERTEX
  8
0
 62
4
 10
-5.39999886E+01
 20
1.53593392E+02
  0
VERTEX
  8
0
 62
4
 10
-5.43616849E+01
 20
1.53578750E+02
  0
VERTEX
  8
0
 62
4
 10
-5.47206285E+01
 20
1.53534935E+02
  0
VERTEX
  8
0
 62
4
 10
-5.50740876E+01
 20
1.53462281E+02
  0
VERTEX
  8
0
 62
4
 10
-5.54193722E+01
 20
1.53361340E+02
  0
VERTEX
  8
0
 62
4
 10
-5.57538544E+01
 20
1.53232882E+02
  0
VERTEX
  8
0
 62
4
 10
-5.60749886E+01
 20
1.53077883E+02
  0
VERTEX
  8
0
 62
4
 10
-5.63803308E+01
 20
1.52897523E+02
  0
VERTEX
  8
0
 62
4
 10
-5.66675572E+01
 20
1.52693175E+02
  0
VERTEX
  8
0
 62
4
 10
-5.69344817E+01
 20
1.52466394E+02
  0
VERTEX
  8
0
 62
4
 10
-5.71790730E+01
 20
1.52218906E+02
  0
VERTEX
  8
0
 62
4
 10
-5.73994696E+01
 20
1.51952594E+02
  0
VERTEX
  8
0
 62
4
 10
-5.75939940E+01
 20
1.51669486E+02
  0
VERTEX
  8
0
 62
4
 10
-5.77611659E+01
 20
1.51371735E+02
  0
VERTEX
  8
0
 62
4
 10
-5.78997130E+01
 20
1.51061609E+02
  0
VERTEX
  8
0
 62
4
 10
-5.80085808E+01
 20
1.50741466E+02
  0
VERTEX
  8
0
 62
4
 10
-5.80869408E+01
 20
1.50413745E+02
  0
VERTEX
  8
0
 62
4
 10
-5.81341966E+01
 20
1.50080938E+02
  0
VERTEX
  8
0
 62
4
 10
-5.81499886E+01
 20
1.49745579E+02
  0
SEQEND
  8
0
  0
LINE
  8
0
 62
4
 10
-4.98499886E+01
 20
1.49086271E+02
 11
-4.98499886E+01
 21
1.49745579E+02
  0
ARC
  8
0
 62
4
 10
5.36593596E-01
 20
9.11661273E+01
 40
8.02368575E+01
 50
1.31121885E+02
 51
1.34565706E+02
  0
ARC
  8
0
 62
4
 10
-1.08536439E+02
 20
9.11662695E+01
 40
8.02366638E+01
 50
4.54342898E+01
 51
4.88781190E+01
  0
POLYLINE
  8
0
 62
4
 66
1
  0
VERTEX
  8
0
 62
4
 10
-5.02999886E+01
 20
1.52189064E+02
  0
VERTEX
  8
0
 62
4
 10
-5.02846909E+01
 20
1.51873238E+02
  0
VERTEX
  8
0
 62
4
 10
-5.02389211E+01
 20
1.51559955E+02
  0
VERTEX
  8
0
 62
4
 10
-5.01630475E+01
 20
1.51251737E+02
  0
VERTEX
  8
0
 62
4
 10
-5.00576811E+01
 20
1.50951066E+02
  0
VERTEX
  8
0
 62
4
 10
-4.99236703E+01
 20
1.50660362E+02
  0
VERTEX
  8
0
 62
4
 10
-4.97620940E+01
 20
1.50381967E+02
  0
VERTEX
  8
0
 62
4
 10
-4.95742532E+01
 20
1.50118121E+02
  0
VERTEX
  8
0
 62
4
 10
-4.93616602E+01
 20
1.49870949E+02
  0
VERTEX
  8
0
 62
4
 10
-4.91260267E+01
 20
1.49642442E+02
  0
VERTEX
  8
0
 62
4
 10
-4.88692499E+01
 20
1.49434438E+02
  0
VERTEX
  8
0
 62
4
 10
-4.85933972E+01
 20
1.49248613E+02
  0
VERTEX
  8
0
 62
4
 10
-4.83006895E+01
 20
1.49086463E+02
  0
VERTEX
  8
0
 62
4
 10
-4.79934837E+01
 20
1.48949293E+02
  0
VERTEX
  8
0
 62
4
 10
-4.76742532E+01
 20
1.48838208E+02
  0
VERTEX
  8
0
 62
4
 10
-4.73455682E+01
 20
1.48754102E+02
  0
VERTEX
  8
0
 62
4
 10
-4.70100750E+01
 20
1.48697652E+02
  0
VERTEX
  8
0
 62
4
 10
-4.66704750E+01
 20
1.48669313E+02
  0
VERTEX
  8
0
 62
4
 10
-4.63295023E+01
 20
1.48669313E+02
  0
VERTEX
  8
0
 62
4
 10
-4.59899022E+01
 20
1.48697652E+02
  0
VERTEX
  8
0
 62
4
 10
-4.56544091E+01
 20
1.48754102E+02
  0
VERTEX
  8
0
 62
4
 10
-4.53257240E+01
 20
1.48838208E+02
  0
VERTEX
  8
0
 62
4
 10
-4.50064935E+01
 20
1.48949293E+02
  0
VERTEX
  8
0
 62
4
 10
-4.46992877E+01
 20
1.49086463E+02
  0
VERTEX
  8
0
 62
4
 10
-4.44065801E+01
 20
1.49248613E+02
  0
VERTEX
  8
0
 62
4
 10
-4.41307274E+01
 20
1.49434438E+02
  0
VERTEX
  8
0
 62
4
 10
-4.38739505E+01
 20
1.49642442E+02
  0
VERTEX
  8
0
 62
4
 10
-4.36383170E+01
 20
1.49870949E+02
  0
VERTEX
  8
0
 62
4
 10
-4.34257240E+01
 20
1.50118121E+02
  0
VERTEX
  8
0
 62
4
 10
-4.32378832E+01
 20
1.50381967E+02
  0
VERTEX
  8
0
 62
4
 10
-4.30763069E+01
 20
1.50660362E+02
  0
VERTEX
  8
0
 62
4
 10
-4.29422961E+01
 20
1.50951066E+02
  0
VERTEX
  8
0
 62
4
 10
-4.28369297E+01
 20
1.51251737E+02
  0
VERTEX
  8
0
 62
4
 10
-4.27610561E+01
 20
1.51559955E+02
  0
VERTEX
  8
0
 62
4
 10
-4.27152863E+01
 20
1.51873238E+02
  0
VERTEX
  8
0
 62
4
 10
-4.26999886E+01
 20
1.52189064E+02
  0
SEQEND
  8
0
  0
POLYLINE
  8
0
 62
4
 66
1
  0
VERTEX
  8
0
 62
4
 10
-4.88863552E+01
 20
1.55305574E+02
  0
VERTEX
  8
0
 62
4
 10
-4.91368878E+01
 20
1.55100627E+02
  0
VERTEX
  8
0
 62
4
 10
-4.93670362E+01
 20
1.54876068E+02
  0
VERTEX
  8
0
 62
4
 10
-4.95750213E+01
 20
1.54633633E+02
  0
VERTEX
  8
0
 62
4
 10
-4.97592352E+01
 20
1.54375197E+02
  0
VERTEX
  8
0
 62
4
 10
-4.99182540E+01
 20
1.54102758E+02
  0
VERTEX
  8
0
 62
4
 10
-5.00508484E+01
 20
1.53818420E+02
  0
VERTEX
  8
0
 62
4
 10
-5.01559933E+01
 20
1.53524383E+02
  0
VERTEX
  8
0
 62
4
 10
-5.02328760E+01
 20
1.53222919E+02
  0
VERTEX
  8
0
 62
4
 10
-5.02809021E+01
 20
1.52916359E+02
  0
VERTEX
  8
0
 62
4
 10
-5.02997003E+01
 20
1.52607072E+02
  0
VERTEX
  8
0
 62
4
 10
-5.02891254E+01
 20
1.52297450E+02
  0
VERTEX
  8
0
 62
4
 10
-5.02492591E+01
 20
1.51989886E+02
  0
VERTEX
  8
0
 62
4
 10
-5.01804095E+01
 20
1.51686758E+02
  0
VERTEX
  8
0
 62
4
 10
-5.00831090E+01
 20
1.51390408E+02
  0
VERTEX
  8
0
 62
4
 10
-4.99581096E+01
 20
1.51103129E+02
  0
VERTEX
  8
0
 62
4
 10
-4.98063777E+01
 20
1.50827139E+02
  0
VERTEX
  8
0
 62
4
 10
-4.96290862E+01
 20
1.50564574E+02
  0
VERTEX
  8
0
 62
4
 10
-4.94276057E+01
 20
1.50317462E+02
  0
VERTEX
  8
0
 62
4
 10
-4.92034936E+01
 20
1.50087715E+02
  0
VERTEX
  8
0
 62
4
 10
-4.89584824E+01
 20
1.49877107E+02
  0
VERTEX
  8
0
 62
4
 10
-4.86944661E+01
 20
1.49687268E+02
  0
VERTEX
  8
0
 62
4
 10
-4.84134858E+01
 20
1.49519664E+02
  0
VERTEX
  8
0
 62
4
 10
-4.81177134E+01
 20
1.49375592E+02
  0
VERTEX
  8
0
 62
4
 10
-4.78094354E+01
 20
1.49256164E+02
  0
VERTEX
  8
0
 62
4
 10
-4.74910349E+01
 20
1.49162305E+02
  0
VERTEX
  8
0
 62
4
 10
-4.71649733E+01
 20
1.49094740E+02
  0
VERTEX
  8
0
 62
4
 10
-4.68337711E+01
 20
1.49053991E+02
  0
VERTEX
  8
0
 62
4
 10
-4.64999886E+01
 20
1.49040372E+02
  0
VERTEX
  8
0
 62
4
 10
-4.61662061E+01
 20
1.49053991E+02
  0
VERTEX
  8
0
 62
4
 10
-4.58350039E+01
 20
1.49094740E+02
  0
VERTEX
  8
0
 62
4
 10
-4.55089423E+01
 20
1.49162305E+02
  0
VERTEX
  8
0
 62
4
 10
-4.51905418E+01
 20
1.49256164E+02
  0
VERTEX
  8
0
 62
4
 10
-4.48822638E+01
 20
1.49375592E+02
  0
VERTEX
  8
0
 62
4
 10
-4.45864914E+01
 20
1.49519664E+02
  0
VERTEX
  8
0
 62
4
 10
-4.43055111E+01
 20
1.49687268E+02
  0
VERTEX
  8
0
 62
4
 10
-4.40414948E+01
 20
1.49877107E+02
  0
VERTEX
  8
0
 62
4
 10
-4.37964836E+01
 20
1.50087715E+02
  0
VERTEX
  8
0
 62
4
 10
-4.35723715E+01
 20
1.50317462E+02
  0
VERTEX
  8
0
 62
4
 10
-4.33708910E+01
 20
1.50564574E+02
  0
VERTEX
  8
0
 62
4
 10
-4.31935995E+01
 20
1.50827139E+02
  0
VERTEX
  8
0
 62
4
 10
-4.30418676E+01
 20
1.51103129E+02
  0
VERTEX
  8
0
 62
4
 10
-4.29168682E+01
 20
1.51390408E+02
  0
VERTEX
  8
0
 62
4
 10
-4.28195677E+01
 20
1.51686758E+02
  0
VERTEX
  8
0
 62
4
 10
-4.27507181E+01
 20
1.51989886E+02
  0
VERTEX
  8
0
 62
4
 10
-4.27108518E+01
 20
1.52297450E+02
  0
VERTEX
  8
0
 62
4
 10
-4.27002769E+01
 20
1.52607072E+02
  0
VERTEX
  8
0
 62
4
 10
-4.27190751E+01
 20
1.52916359E+02
  0
VERTEX
  8
0
 62
4
 10
-4.27671012E+01
 20
1.53222919E+02
  0
VERTEX
  8
0
 62
4
 10
-4.28439839E+01
 20
1.53524383E+02
  0
VERTEX
  8
0
 62
4
 10
-4.29491288E+01
 20
1.53818420E+02
  0
VERTEX
  8
0
 62
4
 10
-4.30817232E+01
 20
1.54102758E+02
  0
VERTEX
  8
0
 62
4
 10
-4.32407420E+01
 20
1.54375197E+02
  0
VERTEX
  8
0
 62
4
 10
-4.34249559E+01
 20
1.54633633E+02
  0
VERTEX
  8
0
 62
4
 10
-4.36329410E+01
 20
1.54876068E+02
  0
VERTEX
  8
0
 62
4
 10
-4.38630894E+01
 20
1.55100627E+02
  0
VERTEX
  8
0
 62
4
 10
-4.41136220E+01
 20
1.55305574E+02
  0
SEQEND
  8
0
  0
LINE
  8
0
 62
4
 10
-5.02999886E+01
 20
1.52189064E+02
 11
-5.02999886E+01
 21
1.52563671E+02
  0
LINE
  8
0
 62
4
 10
-4.26999886E+01
 20
1.52563671E+02
 11
-4.26999886E+01
 21
1.52189064E+02
  0
LINE
  8
0
 62
4
 10
-4.98999886E+01
 20
1.52563671E+02
 11
-4.98999886E+01
 21
1.53060093E+02
  0
POLYLINE
  8
0
 62
4
 66
1
  0
VERTEX
  8
0
 62
4
 10
-4.98999886E+01
 20
1.52563671E+02
  0
VERTEX
  8
0
 62
4
 10
-4.98863012E+01
 20
1.52281090E+02
  0
VERTEX
  8
0
 62
4
 10
-4.98453492E+01
 20
1.52000784E+02
  0
VERTEX
  8
0
 62
4
 10
-4.97774624E+01
 20
1.51725010E+02
  0
VERTEX
  8
0
 62
4
 10
-4.96831872E+01
 20
1.51455988E+02
  0
VERTEX
  8
0
 62
4
 10
-4.95632828E+01
 20
1.51195885E+02
  0
VERTEX
  8
0
 62
4
 10
-4.94187145E+01
 20
1.50946794E+02
  0
VERTEX
  8
0
 62
4
 10
-4.92506464E+01
 20
1.50710722E+02
  0
VERTEX
  8
0
 62
4
 10
-4.90604316E+01
 20
1.50489568E+02
  0
VERTEX
  8
0
 62
4
 10
-4.88496016E+01
 20
1.50285114E+02
  0
VERTEX
  8
0
 62
4
 10
-4.86198540E+01
 20
1.50099006E+02
  0
VERTEX
  8
0
 62
4
 10
-4.83730384E+01
 20
1.49932741E+02
  0
VERTEX
  8
0
 62
4
 10
-4.81111421E+01
 20
1.49787660E+02
  0
VERTEX
  8
0
 62
4
 10
-4.78362737E+01
 20
1.49664929E+02
  0
VERTEX
  8
0
 62
4
 10
-4.75506464E+01
 20
1.49565537E+02
  0
VERTEX
  8
0
 62
4
 10
-4.72565598E+01
 20
1.49490284E+02
  0
VERTEX
  8
0
 62
4
 10
-4.69563817E+01
 20
1.49439776E+02
  0
VERTEX
  8
0
 62
4
 10
-4.66525290E+01
 20
1.49414420E+02
  0
VERTEX
  8
0
 62
4
 10
-4.63474482E+01
 20
1.49414420E+02
  0
VERTEX
  8
0
 62
4
 10
-4.60435955E+01
 20
1.49439776E+02
  0
VERTEX
  8
0
 62
4
 10
-4.57434174E+01
 20
1.49490284E+02
  0
VERTEX
  8
0
 62
4
 10
-4.54493308E+01
 20
1.49565537E+02
  0
VERTEX
  8
0
 62
4
 10
-4.51637035E+01
 20
1.49664929E+02
  0
VERTEX
  8
0
 62
4
 10
-4.48888352E+01
 20
1.49787660E+02
  0
VERTEX
  8
0
 62
4
 10
-4.46269389E+01
 20
1.49932741E+02
  0
VERTEX
  8
0
 62
4
 10
-4.43801233E+01
 20
1.50099006E+02
  0
VERTEX
  8
0
 62
4
 10
-4.41503756E+01
 20
1.50285114E+02
  0
VERTEX
  8
0
 62
4
 10
-4.39395456E+01
 20
1.50489568E+02
  0
VERTEX
  8
0
 62
4
 10
-4.37493308E+01
 20
1.50710722E+02
  0
VERTEX
  8
0
 62
4
 10
-4.35812627E+01
 20
1.50946794E+02
  0
VERTEX
  8
0
 62
4
 10
-4.34366944E+01
 20
1.51195885E+02
  0
VERTEX
  8
0
 62
4
 10
-4.33167900E+01
 20
1.51455988E+02
  0
VERTEX
  8
0
 62
4
 10
-4.32225149E+01
 20
1.51725010E+02
  0
VERTEX
  8
0
 62
4
 10
-4.31546280E+01
 20
1.52000784E+02
  0
VERTEX
  8
0
 62
4
 10
-4.31136760E+01
 20
1.52281090E+02
  0
VERTEX
  8
0
 62
4
 10
-4.30999886E+01
 20
1.52563671E+02
  0
SEQEND
  8
0
  0
LINE
  8
0
 62
4
 10
-4.30999885E+01
 20
1.52563671E+02
 11
-4.30999885E+01
 21
1.53060093E+02
  0
POLYLINE
  8
0
 62
4
 66
1
  0
VERTEX
  8
0
 62
4
 10
-4.98999886E+01
 20
1.53060093E+02
  0
VERTEX
  8
0
 62
4
 10
-4.98870506E+01
 20
1.52785341E+02
  0
VERTEX
  8
0
 62
4
 10
-4.98483350E+01
 20
1.52512680E+02
  0
VERTEX
  8
0
 62
4
 10
-4.97841364E+01
 20
1.52244185E+02
  0
VERTEX
  8
0
 62
4
 10
-4.96949435E+01
 20
1.51981900E+02
  0
VERTEX
  8
0
 62
4
 10
-4.95814351E+01
 20
1.51727821E+02
  0
VERTEX
  8
0
 62
4
 10
-4.94444750E+01
 20
1.51483880E+02
  0
VERTEX
  8
0
 62
4
 10
-4.92851056E+01
 20
1.51251936E+02
  0
VERTEX
  8
0
 62
4
 10
-4.91045397E+01
 20
1.51033753E+02
  0
VERTEX
  8
0
 62
4
 10
-4.89041517E+01
 20
1.50830992E+02
  0
VERTEX
  8
0
 62
4
 10
-4.86854665E+01
 20
1.50645195E+02
  0
VERTEX
  8
0
 62
4
 10
-4.84501485E+01
 20
1.50477778E+02
  0
VERTEX
  8
0
 62
4
 10
-4.81999886E+01
 20
1.50330013E+02
  0
VERTEX
  8
0
 62
4
 10
-4.79368907E+01
 20
1.50203026E+02
  0
VERTEX
  8
0
 62
4
 10
-4.76628571E+01
 20
1.50097782E+02
  0
VERTEX
  8
0
 62
4
 10
-4.73799734E+01
 20
1.50015084E+02
  0
VERTEX
  8
0
 62
4
 10
-4.70903924E+01
 20
1.49955560E+02
  0
VERTEX
  8
0
 62
4
 10
-4.67963181E+01
 20
1.49919664E+02
  0
VERTEX
  8
0
 62
4
 10
-4.64999886E+01
 20
1.49907668E+02
  0
VERTEX
  8
0
 62
4
 10
-4.62036591E+01
 20
1.49919664E+02
  0
VERTEX
  8
0
 62
4
 10
-4.59095848E+01
 20
1.49955560E+02
  0
VERTEX
  8
0
 62
4
 10
-4.56200038E+01
 20
1.50015084E+02
  0
VERTEX
  8
0
 62
4
 10
-4.53371201E+01
 20
1.50097782E+02
  0
VERTEX
  8
0
 62
4
 10
-4.50630865E+01
 20
1.50203026E+02
  0
VERTEX
  8
0
 62
4
 10
-4.47999886E+01
 20
1.50330013E+02
  0
VERTEX
  8
0
 62
4
 10
-4.45498287E+01
 20
1.50477778E+02
  0
VERTEX
  8
0
 62
4
 10
-4.43145107E+01
 20
1.50645195E+02
  0
VERTEX
  8
0
 62
4
 10
-4.40958255E+01
 20
1.50830992E+02
  0
VERTEX
  8
0
 62
4
 10
-4.38954375E+01
 20
1.51033753E+02
  0
VERTEX
  8
0
 62
4
 10
-4.37148716E+01
 20
1.51251936E+02
  0
VERTEX
  8
0
 62
4
 10
-4.35555022E+01
 20
1.51483880E+02
  0
VERTEX
  8
0
 62
4
 10
-4.34185421E+01
 20
1.51727821E+02
  0
VERTEX
  8
0
 62
4
 10
-4.33050337E+01
 20
1.51981900E+02
  0
VERTEX
  8
0
 62
4
 10
-4.32158408E+01
 20
1.52244185E+02
  0
VERTEX
  8
0
 62
4
 10
-4.31516422E+01
 20
1.52512680E+02
  0
VERTEX
  8
0
 62
4
 10
-4.31129266E+01
 20
1.52785341E+02
  0
VERTEX
  8
0
 62
4
 10
-4.30999886E+01
 20
1.53060093E+02
  0
VERTEX
  8
0
 62
4
 10
-4.31129266E+01
 20
1.53334845E+02
  0
VERTEX
  8
0
 62
4
 10
-4.31516422E+01
 20
1.53607506E+02
  0
VERTEX
  8
0
 62
4
 10
-4.32158408E+01
 20
1.53876001E+02
  0
VERTEX
  8
0
 62
4
 10
-4.33050337E+01
 20
1.54138286E+02
  0
VERTEX
  8
0
 62
4
 10
-4.34185421E+01
 20
1.54392365E+02
  0
VERTEX
  8
0
 62
4
 10
-4.35555022E+01
 20
1.54636306E+02
  0
VERTEX
  8
0
 62
4
 10
-4.37148716E+01
 20
1.54868250E+02
  0
VERTEX
  8
0
 62
4
 10
-4.38954375E+01
 20
1.55086433E+02
  0
VERTEX
  8
0
 62
4
 10
-4.40958255E+01
 20
1.55289194E+02
  0
VERTEX
  8
0
 62
4
 10
-4.43145107E+01
 20
1.55474991E+02
  0
VERTEX
  8
0
 62
4
 10
-4.45498287E+01
 20
1.55642408E+02
  0
VERTEX
  8
0
 62
4
 10
-4.47999886E+01
 20
1.55790173E+02
  0
VERTEX
  8
0
 62
4
 10
-4.50630865E+01
 20
1.55917160E+02
  0
VERTEX
  8
0
 62
4
 10
-4.53371201E+01
 20
1.56022404E+02
  0
VERTEX
  8
0
 62
4
 10
-4.56200038E+01
 20
1.56105102E+02
  0
VERTEX
  8
0
 62
4
 10
-4.59095848E+01
 20
1.56164626E+02
  0
VERTEX
  8
0
 62
4
 10
-4.62036591E+01
 20
1.56200522E+02
  0
VERTEX
  8
0
 62
4
 10
-4.64999886E+01
 20
1.56212518E+02
  0
VERTEX
  8
0
 62
4
 10
-4.67963181E+01
 20
1.56200522E+02
  0
VERTEX
  8
0
 62
4
 10
-4.70903924E+01
 20
1.56164626E+02
  0
VERTEX
  8
0
 62
4
 10
-4.73799734E+01
 20
1.56105102E+02
  0
VERTEX
  8
0
 62
4
 10
-4.76628571E+01
 20
1.56022404E+02
  0
VERTEX
  8
0
 62
4
 10
-4.79368907E+01
 20
1.55917160E+02
  0
VERTEX
  8
0
 62
4
 10
-4.81999886E+01
 20
1.55790173E+02
  0
VERTEX
  8
0
 62
4
 10
-4.84501485E+01
 20
1.55642408E+02
  0
VERTEX
  8
0
 62
4
 10
-4.86854665E+01
 20
1.55474991E+02
  0
VERTEX
  8
0
 62
4
 10
-4.89041517E+01
 20
1.55289194E+02
  0
VERTEX
  8
0
 62
4
 10
-4.91045397E+01
 20
1.55086433E+02
  0
VERTEX
  8
0
 62
4
 10
-4.92851056E+01
 20
1.54868250E+02
  0
VERTEX
  8
0
 62
4
 10
-4.94444750E+01
 20
1.54636306E+02
  0
VERTEX
  8
0
 62
4
 10
-4.95814351E+01
 20
1.54392365E+02
  0
VERTEX
  8
0
 62
4
 10
-4.96949435E+01
 20
1.54138286E+02
  0
VERTEX
  8
0
 62
4
 10
-4.97841364E+01
 20
1.53876001E+02
  0
VERTEX
  8
0
 62
4
 10
-4.98483350E+01
 20
1.53607506E+02
  0
VERTEX
  8
0
 62
4
 10
-4.98870506E+01
 20
1.53334845E+02
  0
VERTEX
  8
0
 62
4
 10
-4.98999886E+01
 20
1.53060093E+02
  0
SEQEND
  8
0
  0
ARC
  8
0
 62
4
 10
7.53028844E+00
 20
9.51395741E+01
 40
7.95040043E+01
 50
1.31098609E+02
 51
1.34573756E+02
  0
ARC
  8
0
 62
4
 10
-1.00530266E+02
 20
9.51395741E+01
 40
7.95040043E+01
 50
4.54262442E+01
 51
4.89013908E+01
  0
LINE
  8
0
 62
4
 10
-5.07285997E+01
 20
1.46718680E+02
 11
-3.89999886E+01
 21
1.46718680E+02
  0
LINE
  8
0
 62
4
 10
-5.11042317E+01
 20
1.46330009E+02
 11
-4.54999886E+01
 21
1.46330009E+02
  0
LINE
  8
0
 62
7
 10
-1.98419675E+01
 20
1.44000023E+02
 11
-8.30000191E+01
 21
1.44000023E+02
  0
LINE
  8
0
 62
7
 10
-1.00000114E+01
 20
1.39999985E+02
 11
-8.30000191E+01
 21
1.39999985E+02
  0
LINE
  8
0
 62
7
 10
-1.00000114E+01
 20
1.30999985E+02
 11
-8.30000191E+01
 21
1.30999985E+02
  0
LINE
  8
0
 62
4
 10
-3.75000084E+02
 20
1.09737581E+02
 11
-3.59000022E+02
 21
1.18975223E+02
  0
LINE
  8
0
 62
4
 10
-3.58999929E+02
 20
8.20248469E+01
 11
-3.43000051E+02
 21
9.12623953E+01
  0
LINE
  8
0
 62
4
 10
-3.74999892E+02
 20
9.12624957E+01
 11
-3.58999864E+02
 21
8.20249178E+01
  0
LINE
  8
0
 62
4
 10
-3.58999989E+02
 20
1.18975222E+02
 11
-3.43000016E+02
 21
1.09737641E+02
  0
LINE
  8
0
 62
4
 10
-3.75000050E+02
 20
1.09737610E+02
 11
-3.75000050E+02
 21
9.12623901E+01
  0
LINE
  8
0
 62
4
 10
-3.43000050E+02
 20
1.09737610E+02
 11
-3.43000050E+02
 21
9.12623901E+01
  0
CIRCLE
  8
0
 62
7
 10
-3.59000050E+02
 20
1.00500000E+02
 40
1.10000000E+01
  0
CIRCLE
  8
0
 62
4
 10
-3.59000050E+02
 20
1.00500000E+02
 40
1.60000000E+01
  0
CIRCLE
  8
0
 62
2
 10
-3.59000050E+02
 20
1.00500000E+02
 40
1.01800117E+01
  0
CIRCLE
  8
0
 62
7
 10
-3.94000141E+02
 20
1.35500008E+02
 40
4.18000031E+00
  0
CIRCLE
  8
0
 62
2
 10
-3.24000141E+02
 20
1.35500008E+02
 40
5.00000000E+00
  0
CIRCLE
  8
0
 62
2
 10
-3.94000141E+02
 20
1.35500008E+02
 40
5.00000000E+00
  0
CIRCLE
  8
0
 62
2
 10
-3.24000141E+02
 20
6.55000114E+01
 40
5.00000000E+00
  0
CIRCLE
  8
0
 62
2
 10
-3.94000141E+02
 20
6.55000114E+01
 40
5.00000000E+00
  0
CIRCLE
  8
0
 62
7
 10
-3.94000141E+02
 20
6.55000114E+01
 40
4.18000031E+00
  0
CIRCLE
  8
0
 62
7
 10
-3.24000141E+02
 20
1.35500008E+02
 40
4.18000031E+00
  0
ARC
  8
0
 62
7
 10
-3.36134754E+02
 20
6.24999313E+01
 40
1.00000000E+00
 50
2.70000018E+02
 51
1.38869656E+01
  0
ARC
  8
0
 62
7
 10
-3.81865345E+02
 20
6.25000305E+01
 40
1.00000000E+00
 50
1.66113056E+02
 51
2.70000001E+02
  0
ARC
  8
0
 62
7
 10
-3.21000172E+02
 20
7.76346664E+01
 40
1.00000000E+00
 50
2.56114073E+02
 51
0.00000000E+00
  0
ARC
  8
0
 62
7
 10
-3.36134754E+02
 20
1.38499962E+02
 40
1.00000000E+00
 50
3.46114302E+02
 51
8.99999818E+01
  0
ARC
  8
0
 62
7
 10
-3.81865498E+02
 20
1.38500061E+02
 40
1.00000000E+00
 50
8.99999818E+01
 51
1.93887774E+02
  0
ARC
  8
0
 62
7
 10
-3.97000141E+02
 20
1.23365303E+02
 40
1.00000000E+00
 50
7.61138799E+01
 51
1.79999964E+02
  0
ARC
  8
0
 62
7
 10
-3.97000141E+02
 20
7.76346664E+01
 40
1.00000000E+00
 50
1.79999977E+02
 51
2.83886131E+02
  0
ARC
  8
0
 62
7
 10
-3.24000141E+02
 20
1.35499954E+02
 40
1.15000000E+01
 50
1.66113425E+02
 51
2.83886868E+02
  0
ARC
  8
0
 62
7
 10
-3.16000019E+02
 20
1.43499985E+02
 40
3.40000010E+00
 50
0.00000000E+00
 51
8.99999818E+01
  0
ARC
  8
0
 62
7
 10
-3.16600147E+02
 20
1.02749985E+02
 40
1.00000000E+00
 50
2.69999963E+02
 51
0.00000000E+00
  0
CIRCLE
  8
0
 62
7
 10
-3.59000050E+02
 20
1.00500076E+02
 40
1.95000000E+01
  0
CIRCLE
  8
0
 62
7
 10
-3.24000141E+02
 20
6.55000114E+01
 40
4.18000031E+00
  0
CIRCLE
  8
0
 62
7
 10
-3.59000050E+02
 20
1.00500076E+02
 40
2.20000000E+01
  0
ARC
  8
0
 62
7
 10
-3.56750080E+02
 20
1.23389717E+02
 40
1.00000000E+00
 50
1.79999964E+02
 51
2.64386104E+02
  0
ARC
  8
0
 62
7
 10
-3.40998951E+02
 20
1.42899933E+02
 40
1.00000000E+00
 50
1.27477808E+00
 51
8.99999818E+01
  0
ARC
  8
0
 62
7
 10
-3.41223652E+02
 20
1.15094460E+02
 40
1.00000000E+00
 50
1.34999959E+02
 51
2.19385485E+02
  0
ARC
  8
0
 62
7
 10
-3.44405628E+02
 20
1.18276489E+02
 40
1.00000000E+00
 50
2.30613841E+02
 51
3.14999995E+02
  0
ARC
  8
0
 62
7
 10
-3.36110432E+02
 20
1.02749985E+02
 40
1.00000000E+00
 50
1.85613837E+02
 51
2.69999963E+02
  0
ARC
  8
0
 62
7
 10
-3.16500141E+02
 20
1.23000046E+02
 40
3.50000000E+00
 50
1.79999977E+02
 51
2.68726963E+02
  0
ARC
  8
0
 62
7
 10
-3.16600147E+02
 20
8.24988861E+01
 40
1.00000000E+00
 50
2.71274777E+02
 51
0.00000000E+00
  0
ARC
  8
0
 62
7
 10
-3.44405628E+02
 20
8.27235222E+01
 40
1.00000000E+00
 50
4.49999637E+01
 51
1.29385489E+02
  0
ARC
  8
0
 62
7
 10
-3.41223652E+02
 20
8.59055405E+01
 40
1.00000000E+00
 50
1.40613828E+02
 51
2.24999982E+02
  0
ARC
  8
0
 62
7
 10
-3.56750080E+02
 20
7.76103287E+01
 40
1.00000000E+00
 50
9.56138240E+01
 51
1.79999951E+02
  0
ARC
  8
0
 62
7
 10
-3.36110340E+02
 20
9.82500000E+01
 40
1.00000000E+00
 50
8.99999681E+01
 51
1.74386108E+02
  0
ARC
  8
0
 62
7
 10
-3.31103626E+02
 20
1.25214516E+02
 40
1.00000000E+00
 50
5.53696252E+01
 51
1.34999959E+02
  0
ARC
  8
0
 62
7
 10
-3.34285603E+02
 20
1.28396538E+02
 40
1.00000000E+00
 50
3.14999995E+02
 51
3.46303842E+01
  0
ARC
  8
0
 62
7
 10
-3.36500050E+02
 20
5.80000000E+01
 40
3.50000000E+00
 50
8.99999818E+01
 51
1.78726994E+02
  0
CIRCLE
  8
0
 62
7
 10
-3.24000141E+02
 20
6.55000000E+01
 40
8.00000000E+00
  0
ARC
  8
0
 62
7
 10
-3.16000019E+02
 20
5.75000076E+01
 40
4.00000000E+00
 50
2.70000018E+02
 51
3.59999986E+02
  0
ARC
  8
0
 62
7
 10
-3.24000141E+02
 20
6.55000000E+01
 40
1.15000000E+01
 50
7.61135653E+01
 51
1.93886777E+02
  0
ARC
  8
0
 62
7
 10
-3.16000019E+02
 20
5.75000076E+01
 40
3.40000010E+00
 50
2.70000018E+02
 51
3.59999986E+02
  0
ARC
  8
0
 62
7
 10
-3.56750080E+02
 20
5.80999832E+01
 40
1.00000000E+00
 50
1.79999951E+02
 51
2.70000001E+02
  0
ARC
  8
0
 62
7
 10
-3.16600147E+02
 20
9.82500000E+01
 40
1.00000000E+00
 50
3.59999986E+02
 51
8.99999681E+01
  0
ARC
  8
0
 62
7
 10
-3.31103626E+02
 20
7.57854767E+01
 40
1.00000000E+00
 50
2.25000000E+02
 51
3.04630388E+02
  0
ARC
  8
0
 62
7
 10
-3.34285603E+02
 20
7.26034622E+01
 40
1.00000000E+00
 50
3.25369629E+02
 51
4.49999637E+01
  0
CIRCLE
  8
0
 62
7
 10
-3.24000141E+02
 20
6.55000000E+01
 40
8.70000076E+00
  0
ARC
  8
0
 62
7
 10
-3.76776630E+02
 20
1.15094482E+02
 40
1.00000000E+00
 50
3.20613837E+02
 51
4.49999910E+01
  0
ARC
  8
0
 62
7
 10
-3.73594624E+02
 20
1.18276489E+02
 40
1.00000000E+00
 50
2.24999972E+02
 51
3.09385511E+02
  0
ARC
  8
0
 62
7
 10
-3.73594624E+02
 20
8.27235222E+01
 40
1.00000000E+00
 50
5.06138328E+01
 51
1.34999987E+02
  0
ARC
  8
0
 62
7
 10
-3.81889759E+02
 20
9.82500153E+01
 40
1.00000000E+00
 50
5.61382810E+00
 51
8.99999549E+01
  0
ARC
  8
0
 62
7
 10
-3.76776630E+02
 20
8.59055405E+01
 40
1.00000000E+00
 50
3.14999968E+02
 51
3.93854936E+01
  0
ARC
  8
0
 62
7
 10
-3.77001148E+02
 20
5.81000595E+01
 40
1.00000000E+00
 50
1.81274754E+02
 51
2.70000018E+02
  0
ARC
  8
0
 62
7
 10
-4.01400166E+02
 20
8.24987869E+01
 40
1.00000000E+00
 50
1.79999977E+02
 51
2.68726963E+02
  0
ARC
  8
0
 62
7
 10
-3.81500050E+02
 20
5.79999352E+01
 40
3.50000000E+00
 50
1.27452835E+00
 51
8.99999818E+01
  0
ARC
  8
0
 62
7
 10
-4.01500141E+02
 20
7.79999084E+01
 40
3.50000000E+00
 50
0.00000000E+00
 51
8.87269647E+01
  0
ARC
  8
0
 62
7
 10
-4.01400043E+02
 20
1.18501083E+02
 40
1.00000000E+00
 50
9.12747958E+01
 51
1.79999964E+02
  0
ARC
  8
0
 62
7
 10
-3.81500141E+02
 20
1.43000008E+02
 40
3.50000000E+00
 50
2.70000018E+02
 51
3.58726970E+02
  0
ARC
  8
0
 62
7
 10
-4.01500141E+02
 20
1.22999962E+02
 40
3.50000000E+00
 50
2.71274531E+02
 51
4.99579573E-04
  0
ARC
  8
0
 62
7
 10
-3.36500050E+02
 20
1.43000084E+02
 40
3.50000000E+00
 50
1.81274508E+02
 51
2.70000018E+02
  0
ARC
  8
0
 62
7
 10
-3.16600147E+02
 20
1.18501175E+02
 40
1.00000000E+00
 50
0.00000000E+00
 51
8.87269716E+01
  0
ARC
  8
0
 62
7
 10
-4.02000141E+02
 20
5.75000076E+01
 40
4.00000000E+00
 50
1.80000036E+02
 51
2.69999991E+02
  0
CIRCLE
  8
0
 62
7
 10
-3.24000141E+02
 20
1.35499954E+02
 40
8.70000076E+00
  0
CIRCLE
  8
0
 62
7
 10
-3.94000141E+02
 20
6.55000000E+01
 40
8.00000000E+00
  0
CIRCLE
  8
0
 62
7
 10
-3.94000141E+02
 20
1.35499954E+02
 40
8.00000000E+00
  0
ARC
  8
0
 62
7
 10
-4.02000141E+02
 20
1.43499985E+02
 40
4.00000000E+00
 50
9.00000231E+01
 51
1.79999977E+02
  0
ARC
  8
0
 62
7
 10
-3.94000141E+02
 20
6.55000000E+01
 40
1.15000000E+01
 50
3.46113659E+02
 51
1.03886911E+02
  0
ARC
  8
0
 62
7
 10
-4.02000141E+02
 20
5.75000076E+01
 40
3.40000010E+00
 50
1.80000036E+02
 51
2.69999991E+02
  0
ARC
  8
0
 62
7
 10
-4.01400166E+02
 20
9.82500153E+01
 40
1.00000000E+00
 50
8.99999549E+01
 51
1.79999991E+02
  0
ARC
  8
0
 62
7
 10
-3.61250111E+02
 20
5.81000595E+01
 40
1.00000000E+00
 50
2.69999991E+02
 51
3.59999973E+02
  0
ARC
  8
0
 62
7
 10
-3.40998951E+02
 20
5.80999832E+01
 40
1.00000000E+00
 50
2.70000018E+02
 51
3.58726970E+02
  0
CIRCLE
  8
0
 62
7
 10
-3.24000141E+02
 20
1.35499954E+02
 40
8.00000000E+00
  0
ARC
  8
0
 62
7
 10
-4.02000141E+02
 20
1.43499985E+02
 40
3.40000010E+00
 50
9.00000231E+01
 51
1.79999977E+02
  0
ARC
  8
0
 62
7
 10
-3.83714619E+02
 20
7.26034622E+01
 40
1.00000000E+00
 50
1.34999987E+02
 51
2.14630376E+02
  0
ARC
  8
0
 62
7
 10
-3.86896626E+02
 20
7.57854767E+01
 40
1.00000000E+00
 50
2.35369648E+02
 51
3.14999968E+02
  0
ARC
  8
0
 62
7
 10
-4.01400043E+02
 20
1.02749992E+02
 40
1.00000000E+00
 50
1.79999964E+02
 51
2.69999946E+02
  0
ARC
  8
0
 62
7
 10
-3.16000019E+02
 20
1.43499985E+02
 40
4.00000000E+00
 50
0.00000000E+00
 51
8.99999818E+01
  0
ARC
  8
0
 62
7
 10
-3.94000141E+02
 20
1.35499954E+02
 40
1.15000000E+01
 50
2.56113404E+02
 51
1.38868930E+01
  0
ARC
  8
0
 62
7
 10
-3.61250111E+02
 20
1.42899986E+02
 40
1.00000000E+00
 50
3.59999959E+02
 51
8.99999956E+01
  0
ARC
  8
0
 62
7
 10
-3.86896626E+02
 20
1.25214516E+02
 40
1.00000000E+00
 50
4.49999910E+01
 51
1.24630380E+02
  0
ARC
  8
0
 62
7
 10
-3.83714619E+02
 20
1.28396538E+02
 40
1.00000000E+00
 50
1.45369634E+02
 51
2.24999955E+02
  0
CIRCLE
  8
0
 62
7
 10
-3.94000141E+02
 20
6.55000000E+01
 40
8.70000076E+00
  0
CIRCLE
  8
0
 62
7
 10
-3.94000141E+02
 20
1.35499954E+02
 40
8.70000076E+00
  0
ARC
  8
0
 62
7
 10
-3.16500050E+02
 20
7.80000000E+01
 40
3.50000000E+00
 50
9.12745500E+01
 51
1.79999964E+02
  0
CIRCLE
  8
0
 62
7
 10
-3.59000050E+02
 20
1.00500000E+02
 40
2.10111084E+01
  0
ARC
  8
0
 62
7
 10
-3.77001240E+02
 20
1.42900040E+02
 40
1.00000000E+00
 50
8.99999818E+01
 51
1.78726994E+02
  0
ARC
  8
0
 62
7
 10
-3.56750080E+02
 20
1.42899933E+02
 40
1.00000000E+00
 50
8.99999818E+01
 51
1.79999964E+02
  0
ARC
  8
0
 62
7
 10
-3.61250111E+02
 20
7.76102524E+01
 40
1.00000000E+00
 50
3.59999973E+02
 51
8.43861127E+01
  0
ARC
  8
0
 62
7
 10
-3.81889759E+02
 20
1.02749992E+02
 40
1.00000000E+00
 50
2.69999963E+02
 51
3.54386117E+02
  0
ARC
  8
0
 62
7
 10
-3.61250111E+02
 20
1.23389694E+02
 40
1.00000000E+00
 50
2.75613832E+02
 51
3.59999959E+02
  0
ARC
  8
0
 62
7
 10
-3.21000019E+02
 20
1.23365341E+02
 40
1.00000000E+00
 50
0.00000000E+00
 51
1.03886139E+02
  0
LINE
  8
0
  6
CENTER
 62
2
 10
-3.07465412E+02
 20
1.00500000E+02
 11
-4.09465534E+02
 21
1.00500000E+02
  0
LINE
  8
0
  6
CENTER
 62
2
 10
-3.24000141E+02
 20
5.08976688E+01
 11
-3.24000141E+02
 21
7.95789413E+01
  0
LINE
  8
0
  6
CENTER
 62
2
 10
-3.70000111E+02
 20
1.12496498E+02
 11
-3.70000111E+02
 21
1.50073471E+02
  0
LINE
  8
0
  6
CENTER
 62
2
 10
-3.38222248E+02
 20
1.35500008E+02
 11
-3.09012470E+02
 21
1.35500008E+02
  0
LINE
  8
0
  6
CENTER
 62
2
 10
-3.37809254E+02
 20
6.55000114E+01
 11
-3.09012470E+02
 21
6.55000114E+01
  0
LINE
  8
0
 62
7
 10
-3.81865437E+02
 20
6.15000458E+01
 11
-3.81500141E+02
 21
6.15000458E+01
  0
LINE
  8
0
 62
7
 10
-3.36134754E+02
 20
6.14999466E+01
 11
-3.36500050E+02
 21
6.14999466E+01
  0
LINE
  8
0
 62
7
 10
-3.20000111E+02
 20
7.76346779E+01
 11
-3.20000111E+02
 21
7.80000000E+01
  0
LINE
  8
0
 62
7
 10
-3.98000141E+02
 20
7.76346512E+01
 11
-3.98000141E+02
 21
7.79999084E+01
  0
LINE
  8
0
 62
7
 10
-3.20000019E+02
 20
1.23365341E+02
 11
-3.20000019E+02
 21
1.23000046E+02
  0
LINE
  8
0
 62
7
 10
-3.36134754E+02
 20
1.39499947E+02
 11
-3.36500141E+02
 21
1.39499947E+02
  0
LINE
  8
0
 62
7
 10
-3.81865498E+02
 20
1.39500046E+02
 11
-3.81500202E+02
 21
1.39500046E+02
  0
LINE
  8
0
 62
7
 10
-3.98000080E+02
 20
1.23365318E+02
 11
-3.98000080E+02
 21
1.22999962E+02
  0
LINE
  8
0
 62
7
 10
-3.29000050E+02
 20
5.40999794E+01
 11
-3.29000050E+02
 21
5.35000038E+01
  0
LINE
  8
0
 62
7
 10
-3.89000050E+02
 20
5.41000443E+01
 11
-3.89000050E+02
 21
5.35000305E+01
  0
LINE
  8
0
 62
7
 10
-3.89000050E+02
 20
1.47500031E+02
 11
-3.89000050E+02
 21
1.46900055E+02
  0
LINE
  8
0
 62
7
 10
-3.29000050E+02
 20
1.47499977E+02
 11
-3.29000050E+02
 21
1.46899979E+02
  0
LINE
  8
0
 62
7
 10
-4.02000080E+02
 20
1.47500000E+02
 11
-3.16000172E+02
 21
1.47499954E+02
  0
LINE
  8
0
 62
7
 10
-3.40999043E+02
 20
1.43899971E+02
 11
-3.77001301E+02
 21
1.43899971E+02
  0
LINE
  8
0
  6
CENTER
 62
2
 10
-3.43000141E+02
 20
1.50076981E+02
 11
-3.43000141E+02
 21
1.09871841E+02
  0
LINE
  8
0
 62
7
 10
-3.57750141E+02
 20
1.42899986E+02
 11
-3.57750141E+02
 21
1.23389732E+02
  0
LINE
  8
0
 62
7
 10
-3.43698902E+02
 20
1.17569883E+02
 11
-3.33578844E+02
 21
1.27689937E+02
  0
LINE
  8
0
 62
7
 10
-3.41931125E+02
 20
1.15801997E+02
 11
-3.31811045E+02
 21
1.25922073E+02
  0
LINE
  8
0
  6
CENTER
 62
2
 10
-4.08555622E+02
 20
1.35500008E+02
 11
-3.79309193E+02
 21
1.35500008E+02
  0
LINE
  8
0
  6
CENTER
 62
2
 10
-3.24000141E+02
 20
1.49872696E+02
 11
-3.24000141E+02
 21
1.20135780E+02
  0
LINE
  8
0
 62
7
 10
-3.16000172E+02
 20
1.46899979E+02
 11
-4.02006634E+02
 21
1.46899979E+02
  0
LINE
  8
0
  6
CENTER
 62
2
 10
-3.59000050E+02
 20
1.51355797E+02
 11
-3.59000050E+02
 21
4.95240860E+01
  0
LINE
  8
0
 62
7
 10
-3.57750141E+02
 20
5.81000061E+01
 11
-3.57750141E+02
 21
7.76103287E+01
  0
LINE
  8
0
 62
7
 10
-3.16600208E+02
 20
9.92500000E+01
 11
-3.36110401E+02
 21
9.92500000E+01
  0
LINE
  8
0
 62
7
 10
-3.41930899E+02
 20
8.51983790E+01
 11
-3.31810866E+02
 21
7.50783432E+01
  0
LINE
  8
0
 62
7
 10
-3.43698753E+02
 20
8.34306554E+01
 11
-3.33578698E+02
 21
7.33105980E+01
  0
LINE
  8
0
  6
CENTER
 62
2
 10
-4.08555622E+02
 20
6.55000114E+01
 11
-3.80134998E+02
 21
6.55000114E+01
  0
LINE
  8
0
 62
7
 10
-3.12000141E+02
 20
5.75000076E+01
 11
-3.12000141E+02
 21
1.43499985E+02
  0
LINE
  8
0
 62
7
 10
-3.40998951E+02
 20
5.70999718E+01
 11
-3.77001240E+02
 21
5.70999718E+01
  0
LINE
  8
0
 62
7
 10
-3.15600086E+02
 20
8.24988861E+01
 11
-3.15600086E+02
 21
1.18501183E+02
  0
LINE
  8
0
 62
7
 10
-3.12600117E+02
 20
5.75000076E+01
 11
-3.12600117E+02
 21
1.43499985E+02
  0
LINE
  8
0
 62
7
 10
-4.02000141E+02
 20
5.41000175E+01
 11
-3.16000172E+02
 21
5.40999680E+01
  0
LINE
  8
0
 62
7
 10
-4.01400105E+02
 20
9.92500381E+01
 11
-3.81889820E+02
 21
9.92500381E+01
  0
LINE
  8
0
 62
7
 10
-3.60250141E+02
 20
5.81000443E+01
 11
-3.60250141E+02
 21
7.76102638E+01
  0
LINE
  8
0
 62
7
 10
-3.16600208E+02
 20
1.01749985E+02
 11
-3.36110401E+02
 21
1.01749985E+02
  0
LINE
  8
0
 62
7
 10
-3.74302167E+02
 20
8.34311158E+01
 11
-3.84422266E+02
 21
7.33110170E+01
  0
LINE
  8
0
 62
7
 10
-3.76069847E+02
 20
8.51988828E+01
 11
-3.86189904E+02
 21
7.50788272E+01
  0
LINE
  8
0
 62
7
 10
-4.01400105E+02
 20
1.01750000E+02
 11
-3.81889851E+02
 21
1.01750000E+02
  0
LINE
  8
0
 62
7
 10
-3.60250141E+02
 20
1.42900009E+02
 11
-3.60250141E+02
 21
1.23389694E+02
  0
LINE
  8
0
 62
7
 10
-3.74301849E+02
 20
1.17569458E+02
 11
-3.84421863E+02
 21
1.27689470E+02
  0
LINE
  8
0
 62
7
 10
-3.76069638E+02
 20
1.15801496E+02
 11
-3.86189673E+02
 21
1.25921530E+02
  0
LINE
  8
0
 62
7
 10
-4.02000141E+02
 20
5.35000305E+01
 11
-3.16000172E+02
 21
5.34999924E+01
  0
LINE
  8
0
 62
7
 10
-4.06000172E+02
 20
5.75000305E+01
 11
-4.06000172E+02
 21
1.43500015E+02
  0
LINE
  8
0
  6
CENTER
 62
2
 10
-3.94000141E+02
 20
5.07628822E+01
 11
-3.94000141E+02
 21
8.09070511E+01
  0
LINE
  8
0
  6
CENTER
 62
2
 10
-3.94000141E+02
 20
1.49685341E+02
 11
-3.94000141E+02
 21
1.20961639E+02
  0
LINE
  8
0
 62
7
 10
-4.02400105E+02
 20
8.24987984E+01
 11
-4.02400105E+02
 21
1.18501083E+02
  0
LINE
  8
0
 62
7
 10
-4.05400105E+02
 20
5.75000305E+01
 11
-4.05400105E+02
 21
1.43500015E+02
  0
LINE
  8
0
 62
4
 10
-4.06000050E+02
 20
1.29316799E+02
 11
-4.06089088E+02
 21
1.29537177E+02
  0
LINE
  8
0
 62
4
 10
-4.06089088E+02
 20
1.29537177E+02
 11
-4.06000050E+02
 21
1.29573151E+02
  0
LINE
  8
0
 62
4
 10
-3.81073605E+02
 20
1.56361376E+02
 11
-3.90623599E+02
 21
1.52502929E+02
  0
LINE
  8
0
  6
CENTER
 62
6
 10
-3.99079857E+02
 20
1.44232972E+02
 11
-3.78287704E+02
 21
1.52633547E+02
  0
LINE
  8
0
  6
CENTER
 62
6
 10
-3.89075166E+02
 20
1.44500258E+02
 11
-3.76976581E+02
 21
1.49388404E+02
  0
LINE
  8
0
 62
4
 10
-3.97113886E+02
 20
1.49880682E+02
 11
-3.90623599E+02
 21
1.52502929E+02
  0
LINE
  8
0
 62
4
 10
-3.88602282E+02
 20
1.47499995E+02
 11
-3.90623599E+02
 21
1.52502929E+02
  0
LINE
  8
0
 62
4
 10
-3.98379718E+02
 20
1.47499999E+02
 11
-3.97113886E+02
 21
1.49880682E+02
  0
LINE
  8
0
 62
4
 10
-3.80811380E+02
 20
1.55712348E+02
 11
-3.79884196E+02
 21
1.56086954E+02
  0
ARC
  8
0
 62
4
 10
-3.76513174E+02
 20
1.50762020E+02
 40
1.00000000E+00
 50
3.40723662E+02
 51
9.17248994E+00
  0
ARC
  8
0
 62
4
 10
-3.78311286E+02
 20
1.55212503E+02
 40
1.00000000E+00
 50
3.48275100E+01
 51
1.12000000E+02
  0
ARC
  8
0
 62
4
 10
-3.87184945E+02
 20
1.49038828E+02
 40
1.18100000E+01
 50
9.17248994E+00
 51
3.48275100E+01
  0
LINE
  8
0
 62
4
 10
-3.79734354E+02
 20
1.55716081E+02
 11
-3.78686636E+02
 21
1.56139386E+02
  0
LINE
  8
0
 62
4
 10
-3.78704186E+02
 20
1.53166325E+02
 11
-3.79884196E+02
 21
1.56086954E+02
  0
LINE
  8
0
 62
4
 10
-3.77083530E+02
 20
1.47499991E+02
 11
-3.79279040E+02
 21
1.52934069E+02
  0
LINE
  8
0
 62
4
 10
-3.79575179E+02
 20
1.52652641E+02
 11
-3.79222849E+02
 21
1.52794992E+02
  0
LINE
  8
0
 62
4
 10
-3.79279040E+02
 20
1.52934069E+02
 11
-3.77647196E+02
 21
1.53593377E+02
  0
ARC
  8
0
 62
4
 10
-3.86349886E+02
 20
1.45609688E+02
 40
1.18100000E+01
 50
2.20000000E+01
 51
4.25326990E+01
  0
ARC
  8
0
 62
4
 10
-3.86344089E+02
 20
1.45595339E+02
 40
1.18100000E+01
 50
9.28087917E+00
 51
2.20000000E+01
  0
LINE
  8
0
 62
4
 10
-3.77493373E+02
 20
1.47499991E+02
 11
-3.81073605E+02
 21
1.56361376E+02
  0
LINE
  8
0
 62
4
 10
-3.11910981E+02
 20
1.29537177E+02
 11
-3.12000019E+02
 21
1.29573151E+02
  0
LINE
  8
0
  6
CENTER
 62
6
 10
-3.28924902E+02
 20
1.44500258E+02
 11
-3.41023488E+02
 21
1.49388404E+02
  0
LINE
  8
0
  6
CENTER
 62
6
 10
-3.18920212E+02
 20
1.44232972E+02
 11
-3.39712365E+02
 21
1.52633547E+02
  0
LINE
  8
0
 62
4
 10
-3.36926464E+02
 20
1.56361376E+02
 11
-3.27376470E+02
 21
1.52502929E+02
  0
LINE
  8
0
 62
4
 10
-3.20886183E+02
 20
1.49880682E+02
 11
-3.27376470E+02
 21
1.52502929E+02
  0
LINE
  8
0
 62
4
 10
-3.29397795E+02
 20
1.47499974E+02
 11
-3.27376470E+02
 21
1.52502929E+02
  0
LINE
  8
0
 62
4
 10
-3.19620336E+02
 20
1.47499971E+02
 11
-3.20886183E+02
 21
1.49880682E+02
  0
LINE
  8
0
 62
4
 10
-3.40035699E+02
 20
1.48665750E+02
 11
-3.40962882E+02
 21
1.49040357E+02
  0
LINE
  8
0
 62
4
 10
-3.37188688E+02
 20
1.55712348E+02
 11
-3.38115872E+02
 21
1.56086954E+02
  0
ARC
  8
0
 62
4
 10
-3.41486895E+02
 20
1.50762020E+02
 40
1.00000000E+00
 50
1.70827510E+02
 51
2.48000000E+02
  0
ARC
  8
0
 62
4
 10
-3.39688783E+02
 20
1.55212503E+02
 40
1.00000000E+00
 50
6.79999999E+01
 51
1.45172490E+02
  0
LINE
  8
0
 62
4
 10
-3.40813040E+02
 20
1.49411231E+02
 11
-3.41860757E+02
 21
1.49834536E+02
  0
LINE
  8
0
 62
4
 10
-3.38265715E+02
 20
1.55716081E+02
 11
-3.39313433E+02
 21
1.56139386E+02
  0
LINE
  8
0
 62
4
 10
-3.40962882E+02
 20
1.49040357E+02
 11
-3.38115872E+02
 21
1.56086954E+02
  0
ARC
  8
0
 62
4
 10
-3.30815123E+02
 20
1.49038828E+02
 40
1.18100000E+01
 50
1.45172490E+02
 51
1.70827510E+02
  0
LINE
  8
0
 62
4
 10
-3.40916544E+02
 20
1.47499978E+02
 11
-3.40388028E+02
 21
1.48808101E+02
  0
ARC
  8
0
 62
4
 10
-3.31650182E+02
 20
1.45609688E+02
 40
1.18100000E+01
 50
1.55900933E+02
 51
1.58000000E+02
  0
ARC
  8
0
 62
4
 10
-3.31655980E+02
 20
1.45595339E+02
 40
1.18100000E+01
 50
1.58000000E+02
 51
1.70719176E+02
  0
LINE
  8
0
 62
4
 10
-3.40506701E+02
 20
1.47499978E+02
 11
-3.36926464E+02
 21
1.56361376E+02
  0
LINE
  8
0
 62
4
 10
-3.12000019E+02
 20
1.29316799E+02
 11
-3.11910981E+02
 21
1.29537177E+02
  0
LINE
  8
0
 62
7
 10
4.34499950E+02
 20
1.08294229E+02
 11
4.20999950E+02
 21
1.16088457E+02
  0
LINE
  8
0
 62
7
 10
4.34499950E+02
 20
9.27057714E+01
 11
4.34499950E+02
 21
1.08294229E+02
  0
LINE
  8
0
 62
7
 10
4.20999950E+02
 20
8.49115427E+01
 11
4.34499950E+02
 21
9.27057714E+01
  0
LINE
  8
0
 62
7
 10
4.07499950E+02
 20
9.27057714E+01
 11
4.20999950E+02
 21
8.49115427E+01
  0
LINE
  8
0
 62
7
 10
4.07499950E+02
 20
1.08294229E+02
 11
4.07499950E+02
 21
9.27057714E+01
  0
LINE
  8
0
 62
7
 10
4.20999950E+02
 20
1.16088457E+02
 11
4.07499950E+02
 21
1.08294229E+02
  0
CIRCLE
  8
0
 62
7
 10
4.20999950E+02
 20
1.00500000E+02
 40
1.35000000E+01
  0
LINE
  8
0
 62
7
 10
4.41499943E+02
 20
1.09773636E+02
 11
4.41499943E+02
 21
9.12263641E+01
  0
LINE
  8
0
 62
7
 10
4.00499958E+02
 20
1.09773636E+02
 11
4.00499958E+02
 21
9.12263641E+01
  0
CIRCLE
  8
0
 62
7
 10
4.20999950E+02
 20
1.00500000E+02
 40
8.49985590E+00
  0
CIRCLE
  8
0
 62
2
 10
4.20999950E+02
 20
1.00500000E+02
 40
9.17997742E+00
  0
CIRCLE
  8
0
 62
7
 10
4.20999950E+02
 20
1.00500000E+02
 40
9.99998474E+00
  0
CIRCLE
  8
0
 62
7
 10
4.20999950E+02
 20
1.00500000E+02
 40
2.25000000E+01
  0
LINE
  8
0
 62
4
 10
4.67999981E+02
 20
1.29316799E+02
 11
4.68089019E+02
 21
1.29537177E+02
  0
LINE
  8
0
 62
4
 10
4.39493299E+02
 20
1.47499978E+02
 11
4.43073536E+02
 21
1.56361376E+02
  0
ARC
  8
0
 62
4
 10
4.48344020E+02
 20
1.45595339E+02
 40
1.18100000E+01
 50
1.58000000E+02
 51
1.70719176E+02
  0
ARC
  8
0
 62
4
 10
4.48349818E+02
 20
1.45609688E+02
 40
1.18100000E+01
 50
1.55900933E+02
 51
1.58000000E+02
  0
LINE
  8
0
 62
4
 10
4.39083456E+02
 20
1.47499978E+02
 11
4.39611972E+02
 21
1.48808101E+02
  0
ARC
  8
0
 62
4
 10
4.49184877E+02
 20
1.49038828E+02
 40
1.18100000E+01
 50
1.45172490E+02
 51
1.70827510E+02
  0
LINE
  8
0
 62
4
 10
4.39037118E+02
 20
1.49040357E+02
 11
4.41884128E+02
 21
1.56086954E+02
  0
LINE
  8
0
 62
4
 10
4.41734285E+02
 20
1.55716081E+02
 11
4.40686567E+02
 21
1.56139386E+02
  0
LINE
  8
0
 62
4
 10
4.39186960E+02
 20
1.49411231E+02
 11
4.38139243E+02
 21
1.49834536E+02
  0
ARC
  8
0
 62
4
 10
4.40311217E+02
 20
1.55212503E+02
 40
1.00000000E+00
 50
6.79999999E+01
 51
1.45172490E+02
  0
ARC
  8
0
 62
4
 10
4.38513105E+02
 20
1.50762020E+02
 40
1.00000000E+00
 50
1.70827510E+02
 51
2.48000000E+02
  0
LINE
  8
0
 62
4
 10
4.42811312E+02
 20
1.55712348E+02
 11
4.41884128E+02
 21
1.56086954E+02
  0
LINE
  8
0
 62
4
 10
4.39964301E+02
 20
1.48665750E+02
 11
4.39037118E+02
 21
1.49040357E+02
  0
LINE
  8
0
 62
4
 10
4.60379664E+02
 20
1.47499971E+02
 11
4.59113817E+02
 21
1.49880682E+02
  0
LINE
  8
0
 62
4
 10
4.50602205E+02
 20
1.47499974E+02
 11
4.52623530E+02
 21
1.52502929E+02
  0
LINE
  8
0
 62
4
 10
4.59113817E+02
 20
1.49880682E+02
 11
4.52623530E+02
 21
1.52502929E+02
  0
LINE
  8
0
 62
4
 10
4.43073536E+02
 20
1.56361376E+02
 11
4.52623530E+02
 21
1.52502929E+02
  0
LINE
  8
0
  6
CENTER
 62
6
 10
4.61079788E+02
 20
1.44232972E+02
 11
4.40287635E+02
 21
1.52633547E+02
  0
LINE
  8
0
  6
CENTER
 62
6
 10
4.51075098E+02
 20
1.44500258E+02
 11
4.38976512E+02
 21
1.49388404E+02
  0
LINE
  8
0
 62
4
 10
4.68089019E+02
 20
1.29537177E+02
 11
4.67999981E+02
 21
1.29573151E+02
  0
LINE
  8
0
 62
4
 10
4.02506627E+02
 20
1.47499991E+02
 11
3.98926395E+02
 21
1.56361376E+02
  0
ARC
  8
0
 62
4
 10
3.93655911E+02
 20
1.45595339E+02
 40
1.18100000E+01
 50
9.28087917E+00
 51
2.20000000E+01
  0
ARC
  8
0
 62
4
 10
3.93650114E+02
 20
1.45609688E+02
 40
1.18100000E+01
 50
2.20000000E+01
 51
4.25326990E+01
  0
LINE
  8
0
 62
4
 10
4.00720960E+02
 20
1.52934069E+02
 11
4.02352804E+02
 21
1.53593377E+02
  0
LINE
  8
0
 62
4
 10
4.00424821E+02
 20
1.52652641E+02
 11
4.00777151E+02
 21
1.52794992E+02
  0
LINE
  8
0
 62
4
 10
4.02916470E+02
 20
1.47499991E+02
 11
4.00720960E+02
 21
1.52934069E+02
  0
LINE
  8
0
 62
4
 10
4.01295814E+02
 20
1.53166325E+02
 11
4.00115804E+02
 21
1.56086954E+02
  0
LINE
  8
0
 62
4
 10
4.00265646E+02
 20
1.55716081E+02
 11
4.01313364E+02
 21
1.56139386E+02
  0
ARC
  8
0
 62
4
 10
3.92815055E+02
 20
1.49038828E+02
 40
1.18100000E+01
 50
9.17248994E+00
 51
3.48275100E+01
  0
ARC
  8
0
 62
4
 10
4.01688714E+02
 20
1.55212503E+02
 40
1.00000000E+00
 50
3.48275100E+01
 51
1.12000000E+02
  0
ARC
  8
0
 62
4
 10
4.03486826E+02
 20
1.50762020E+02
 40
1.00000000E+00
 50
3.40723662E+02
 51
9.17248994E+00
  0
LINE
  8
0
 62
4
 10
3.99188620E+02
 20
1.55712348E+02
 11
4.00115804E+02
 21
1.56086954E+02
  0
LINE
  8
0
 62
4
 10
3.81620282E+02
 20
1.47499999E+02
 11
3.82886114E+02
 21
1.49880682E+02
  0
LINE
  8
0
 62
4
 10
3.91397718E+02
 20
1.47499995E+02
 11
3.89376401E+02
 21
1.52502929E+02
  0
LINE
  8
0
 62
4
 10
3.82886114E+02
 20
1.49880682E+02
 11
3.89376401E+02
 21
1.52502929E+02
  0
LINE
  8
0
  6
CENTER
 62
6
 10
3.90924834E+02
 20
1.44500258E+02
 11
4.03023419E+02
 21
1.49388404E+02
  0
LINE
  8
0
  6
CENTER
 62
6
 10
3.80920143E+02
 20
1.44232972E+02
 11
4.01712296E+02
 21
1.52633547E+02
  0
LINE
  8
0
 62
4
 10
3.98926395E+02
 20
1.56361376E+02
 11
3.89376401E+02
 21
1.52502929E+02
  0
LINE
  8
0
 62
4
 10
3.73910912E+02
 20
1.29537177E+02
 11
3.73999950E+02
 21
1.29573151E+02
  0
LINE
  8
0
 62
4
 10
3.73999950E+02
 20
1.29316799E+02
 11
3.73910912E+02
 21
1.29537177E+02
  0
LINE
  8
0
  6
CENTER
 62
2
 10
3.85999859E+02
 20
1.49685341E+02
 11
3.85999859E+02
 21
1.20961639E+02
  0
LINE
  8
0
  6
CENTER
 62
2
 10
3.85999859E+02
 20
5.07628822E+01
 11
3.85999859E+02
 21
8.09070511E+01
  0
LINE
  8
0
 62
7
 10
3.73999828E+02
 20
5.75000305E+01
 11
3.73999828E+02
 21
1.43500015E+02
  0
LINE
  8
0
 62
7
 10
3.77999859E+02
 20
5.35000305E+01
 11
4.63999828E+02
 21
5.34999924E+01
  0
LINE
  8
0
 62
7
 10
4.67999859E+02
 20
5.75000076E+01
 11
4.67999859E+02
 21
1.43499985E+02
  0
LINE
  8
0
  6
CENTER
 62
2
 10
3.71444378E+02
 20
6.55000114E+01
 11
3.99865002E+02
 21
6.55000114E+01
  0
LINE
  8
0
  6
CENTER
 62
2
 10
4.20999950E+02
 20
1.51355797E+02
 11
4.20999950E+02
 21
4.95240860E+01
  0
LINE
  8
0
  6
CENTER
 62
2
 10
4.55999859E+02
 20
1.49872696E+02
 11
4.55999859E+02
 21
1.20135780E+02
  0
LINE
  8
0
  6
CENTER
 62
2
 10
3.71444378E+02
 20
1.35500008E+02
 11
4.00690807E+02
 21
1.35500008E+02
  0
LINE
  8
0
  6
CENTER
 62
2
 10
4.05000042E+02
 20
1.50076981E+02
 11
4.05000042E+02
 21
1.09871841E+02
  0
LINE
  8
0
 62
7
 10
3.77999920E+02
 20
1.47500000E+02
 11
4.63999828E+02
 21
1.47499954E+02
  0
LINE
  8
0
  6
CENTER
 62
2
 10
4.42190746E+02
 20
6.55000114E+01
 11
4.70987530E+02
 21
6.55000114E+01
  0
LINE
  8
0
  6
CENTER
 62
2
 10
4.41777752E+02
 20
1.35500008E+02
 11
4.70987530E+02
 21
1.35500008E+02
  0
LINE
  8
0
  6
CENTER
 62
2
 10
4.32000011E+02
 20
1.12496498E+02
 11
4.32000011E+02
 21
1.50073471E+02
  0
LINE
  8
0
  6
CENTER
 62
2
 10
4.55999859E+02
 20
5.08976688E+01
 11
4.55999859E+02
 21
7.95789413E+01
  0
LINE
  8
0
  6
CENTER
 62
2
 10
4.72534588E+02
 20
1.00500000E+02
 11
3.70534466E+02
 21
1.00500000E+02
  0
CIRCLE
  8
0
 62
7
 10
3.85999859E+02
 20
1.35499954E+02
 40
8.70000076E+00
  0
CIRCLE
  8
0
 62
7
 10
3.85999859E+02
 20
6.55000000E+01
 40
8.70000076E+00
  0
ARC
  8
0
 62
7
 10
4.63999981E+02
 20
1.43499985E+02
 40
4.00000000E+00
 50
0.00000000E+00
 51
8.99999818E+01
  0
CIRCLE
  8
0
 62
7
 10
4.55999859E+02
 20
1.35499954E+02
 40
8.00000000E+00
  0
ARC
  8
0
 62
7
 10
3.77999859E+02
 20
1.43499985E+02
 40
4.00000000E+00
 50
9.00000231E+01
 51
1.79999977E+02
  0
CIRCLE
  8
0
 62
7
 10
3.85999859E+02
 20
1.35499954E+02
 40
8.00000000E+00
  0
CIRCLE
  8
0
 62
7
 10
3.85999859E+02
 20
6.55000000E+01
 40
8.00000000E+00
  0
CIRCLE
  8
0
 62
7
 10
4.55999859E+02
 20
1.35499954E+02
 40
8.70000076E+00
  0
ARC
  8
0
 62
7
 10
3.77999859E+02
 20
5.75000076E+01
 40
4.00000000E+00
 50
1.80000036E+02
 51
2.69999991E+02
  0
CIRCLE
  8
0
 62
7
 10
4.55999859E+02
 20
6.55000000E+01
 40
8.70000076E+00
  0
ARC
  8
0
 62
7
 10
4.63999981E+02
 20
5.75000076E+01
 40
4.00000000E+00
 50
2.70000018E+02
 51
3.59999986E+02
  0
CIRCLE
  8
0
 62
7
 10
4.55999859E+02
 20
6.55000000E+01
 40
8.00000000E+00
  0
CIRCLE
  8
0
 62
7
 10
4.55999859E+02
 20
6.55000114E+01
 40
4.18000031E+00
  0
CIRCLE
  8
0
 62
7
 10
4.55999859E+02
 20
1.35500008E+02
 40
4.18000031E+00
  0
CIRCLE
  8
0
 62
7
 10
3.85999859E+02
 20
6.55000114E+01
 40
4.18000031E+00
  0
CIRCLE
  8
0
 62
2
 10
3.85999859E+02
 20
6.55000114E+01
 40
5.00000000E+00
  0
CIRCLE
  8
0
 62
2
 10
4.55999859E+02
 20
6.55000114E+01
 40
5.00000000E+00
  0
CIRCLE
  8
0
 62
2
 10
3.85999859E+02
 20
1.35500008E+02
 40
5.00000000E+00
  0
CIRCLE
  8
0
 62
2
 10
4.55999859E+02
 20
1.35500008E+02
 40
5.00000000E+00
  0
CIRCLE
  8
0
 62
7
 10
3.85999859E+02
 20
1.35500008E+02
 40
4.18000031E+00
  0
LINE
  8
0
  6
PHANTOM
 10
-2.45000000E+01
 20
1.93317049E+02
 11
-2.45000000E+01
 21
3.53816712E+02
  0
LINE
  8
0
  6
PHANTOM
 10
1.38499981E+02
 20
1.97262295E+02
 11
1.38499981E+02
 21
3.53816712E+02
  0
LINE
  8
0
 62
2
 10
-1.69000019E+02
 20
2.70320023E+02
 11
-1.56999958E+02
 21
2.70320023E+02
  0
LINE
  8
0
 62
7
 10
-1.69000019E+02
 20
2.69500000E+02
 11
-1.56999958E+02
 21
2.69500000E+02
  0
LINE
  8
0
 62
2
 10
-1.69000019E+02
 20
2.90680023E+02
 11
-1.56999958E+02
 21
2.90680023E+02
  0
LINE
  8
0
 62
7
 10
-1.69000019E+02
 20
2.91500031E+02
 11
-1.56999958E+02
 21
2.91500031E+02
  0
LINE
  8
0
 62
4
 10
-1.82000019E+02
 20
2.64500000E+02
 11
-1.69000019E+02
 21
2.64500000E+02
  0
LINE
  8
0
 62
4
 10
-1.82000019E+02
 20
2.96500000E+02
 11
-1.69000019E+02
 21
2.96500000E+02
  0
LINE
  8
0
 62
4
 10
-1.82000019E+02
 20
2.96500000E+02
 11
-1.82000019E+02
 21
2.64500000E+02
  0
LINE
  8
0
 62
4
 10
-1.69000019E+02
 20
2.96500000E+02
 11
-1.69000019E+02
 21
2.64500000E+02
  0
ARC
  8
0
 62
4
 10
-1.58893232E+02
 20
2.88500000E+02
 40
2.31067870E+01
 50
1.59743797E+02
 51
2.00256203E+02
  0
ARC
  8
0
 62
4
 10
-1.58893232E+02
 20
2.72500000E+02
 40
2.31067870E+01
 50
1.59743797E+02
 51
2.00256203E+02
  0
ARC
  8
0
 62
4
 10
-1.92106806E+02
 20
2.88500000E+02
 40
2.31067870E+01
 50
3.39743797E+02
 51
2.02562028E+01
  0
ARC
  8
0
 62
4
 10
-1.92106806E+02
 20
2.72500000E+02
 40
2.31067870E+01
 50
3.39743797E+02
 51
2.02562028E+01
  0
LINE
  8
0
 62
4
 10
-1.80570953E+02
 20
2.80500000E+02
 11
-1.70429085E+02
 21
2.80500000E+02
  0
CIRCLE
  8
0
 62
7
 10
-9.00000191E+01
 20
2.64499924E+02
 40
2.59999990E+00
  0
CIRCLE
  8
0
 62
7
 10
-9.89999886E+01
 20
2.91499954E+02
 40
1.10000000E+01
  0
CIRCLE
  8
0
 62
2
 10
-9.90000191E+01
 20
2.91499954E+02
 40
1.04775009E+01
  0
CIRCLE
  8
0
 62
7
 10
-9.89999886E+01
 20
2.91500015E+02
 40
9.25000000E+00
  0
CIRCLE
  8
0
 62
7
 10
-9.00000191E+01
 20
2.64499924E+02
 40
5.00000000E+00
  0
CIRCLE
  8
0
 62
7
 10
3.49999962E+01
 20
2.64500000E+02
 40
2.59999990E+00
  0
CIRCLE
  8
0
 62
7
 10
4.39999657E+01
 20
2.91500031E+02
 40
1.10000000E+01
  0
CIRCLE
  8
0
 62
2
 10
4.39999962E+01
 20
2.91500031E+02
 40
1.04775009E+01
  0
CIRCLE
  8
0
 62
7
 10
4.39999657E+01
 20
2.91500092E+02
 40
9.25000000E+00
  0
CIRCLE
  8
0
 62
7
 10
3.49999962E+01
 20
2.64500000E+02
 40
5.00000000E+00
  0
ARC
  8
0
 62
7
 10
1.00499973E+02
 20
2.59000015E+02
 40
5.00000000E-01
 50
2.69999963E+02
 51
3.59999945E+02
  0
ARC
  8
0
 62
7
 10
1.00499973E+02
 20
3.01999985E+02
 40
5.00000000E-01
 50
0.00000000E+00
 51
8.99999818E+01
  0
ARC
  8
0
 62
7
 10
2.52604538E+02
 20
2.87250000E+02
 40
1.93954582E+01
 50
3.39633865E+02
 51
2.03662991E+01
  0
ARC
  8
0
 62
7
 10
2.79395947E+02
 20
2.87250000E+02
 40
1.93959160E+01
 50
1.59634334E+02
 51
2.00365826E+02
  0
ARC
  8
0
 62
7
 10
2.52604538E+02
 20
2.73750046E+02
 40
1.93954582E+01
 50
3.39633810E+02
 51
2.03662444E+01
  0
ARC
  8
0
 62
7
 10
2.79395947E+02
 20
2.73750046E+02
 40
1.93959160E+01
 50
1.59634280E+02
 51
2.00365771E+02
  0
ARC
  8
0
 62
7
 10
-1.34500019E+02
 20
3.01028336E+02
 40
5.00000000E-01
 50
9.20007356E+01
 51
1.79999951E+02
  0
ARC
  8
0
 62
7
 10
-1.39500019E+02
 20
2.61500061E+02
 40
5.00000000E-01
 50
1.79999977E+02
 51
2.69999974E+02
  0
ARC
  8
0
 62
7
 10
-1.20500019E+02
 20
3.02000061E+02
 40
5.00000000E-01
 50
8.99999818E+01
 51
1.79999951E+02
  0
ARC
  8
0
 62
7
 10
-1.39500019E+02
 20
2.99500031E+02
 40
5.00000000E-01
 50
8.99999818E+01
 51
1.79999951E+02
  0
ARC
  8
0
 62
7
 10
-1.18499958E+02
 20
3.26380310E+02
 40
5.00000000E-01
 50
9.10002493E+01
 51
1.79999951E+02
  0
ARC
  8
0
 62
7
 10
-1.18499958E+02
 20
2.34619720E+02
 40
5.00000000E-01
 50
1.79999977E+02
 51
2.68999679E+02
  0
ARC
  8
0
 62
7
 10
-1.13000019E+02
 20
3.08500046E+02
 40
2.00000000E+00
 50
8.99999818E+01
 51
1.79999951E+02
  0
ARC
  8
0
 62
7
 10
-1.13000019E+02
 20
2.52500076E+02
 40
2.00000000E+00
 50
1.79999977E+02
 51
2.70000028E+02
  0
ARC
  8
0
 62
7
 10
-1.34500019E+02
 20
2.59971771E+02
 40
5.00000000E-01
 50
1.79999977E+02
 51
2.67999192E+02
  0
ARC
  8
0
 62
7
 10
-1.20500019E+02
 20
2.59000031E+02
 40
5.00000000E-01
 50
1.79999977E+02
 51
2.69999974E+02
  0
ARC
  8
0
 62
7
 10
5.79999809E+01
 20
3.08499954E+02
 40
2.00000000E+00
 50
3.59999973E+02
 51
9.00000094E+01
  0
ARC
  8
0
 62
7
 10
5.79999809E+01
 20
2.52499939E+02
 40
2.00000000E+00
 50
2.69999991E+02
 51
3.59999945E+02
  0
ARC
  8
0
 62
7
 10
6.34999809E+01
 20
3.26380249E+02
 40
5.00000000E-01
 50
3.59999973E+02
 51
8.89996800E+01
  0
ARC
  8
0
 62
7
 10
6.34999580E+01
 20
2.34619690E+02
 40
5.00000000E-01
 50
2.71000272E+02
 51
3.59999959E+02
  0
LINE
  8
0
  6
CENTER
 62
2
 10
-8.52976875E+01
 20
2.91499924E+02
 11
-1.13094929E+02
 21
2.91499924E+02
  0
LINE
  8
0
  6
CENTER
 62
2
 10
-9.90000191E+01
 20
2.77394119E+02
 11
-9.90000191E+01
 21
3.05323227E+02
  0
LINE
  8
0
 62
7
 10
-8.82677978E+01
 20
2.64499838E+02
 11
-8.91338369E+01
 21
2.62999805E+02
  0
LINE
  8
0
 62
7
 10
-8.91339912E+01
 20
2.62999908E+02
 11
-9.08660774E+01
 21
2.62999908E+02
  0
LINE
  8
0
 62
7
 10
-9.08659831E+01
 20
2.62999882E+02
 11
-9.17320528E+01
 21
2.64499968E+02
  0
LINE
  8
0
 62
7
 10
-9.17318342E+01
 20
2.64499697E+02
 11
-9.08658179E+01
 21
2.65999690E+02
  0
LINE
  8
0
 62
7
 10
-8.91339912E+01
 20
2.65999924E+02
 11
-9.08660774E+01
 21
2.65999924E+02
  0
LINE
  8
0
 62
7
 10
-8.82678944E+01
 20
2.64499845E+02
 11
-8.91339336E+01
 21
2.65999878E+02
  0
LINE
  8
0
  6
CENTER
 62
2
 10
-9.81945992E+01
 20
2.64499924E+02
 11
-8.19255867E+01
 21
2.64499924E+02
  0
LINE
  8
0
  6
CENTER
 62
2
 10
-9.00000191E+01
 20
2.72047714E+02
 11
-9.00000191E+01
 21
2.57434326E+02
  0
LINE
  8
0
  6
CENTER
 62
2
 10
3.02976646E+01
 20
2.91500000E+02
 11
5.80949211E+01
 21
2.91500000E+02
  0
LINE
  8
0
  6
CENTER
 62
2
 10
4.39999962E+01
 20
2.77394196E+02
 11
4.39999962E+01
 21
3.05323303E+02
  0
LINE
  8
0
 62
7
 10
3.32677732E+01
 20
2.64499907E+02
 11
3.41338123E+01
 21
2.62999875E+02
  0
LINE
  8
0
 62
7
 10
3.41339684E+01
 20
2.62999985E+02
 11
3.58660545E+01
 21
2.62999985E+02
  0
LINE
  8
0
 62
7
 10
3.58659656E+01
 20
2.62999958E+02
 11
3.67320352E+01
 21
2.64500044E+02
  0
LINE
  8
0
 62
7
 10
3.67318020E+01
 20
2.64499780E+02
 11
3.58657933E+01
 21
2.65999760E+02
  0
LINE
  8
0
 62
7
 10
3.41339684E+01
 20
2.66000000E+02
 11
3.58660545E+01
 21
2.66000000E+02
  0
LINE
  8
0
 62
7
 10
3.32678702E+01
 20
2.64499925E+02
 11
3.41339094E+01
 21
2.65999958E+02
  0
LINE
  8
0
  6
CENTER
 62
2
 10
4.31945763E+01
 20
2.64500000E+02
 11
2.69255638E+01
 21
2.64500000E+02
  0
LINE
  8
0
  6
CENTER
 62
2
 10
3.49999962E+01
 20
2.72047791E+02
 11
3.49999962E+01
 21
2.57434402E+02
  0
LINE
  8
0
 62
7
 10
-1.56999958E+02
 20
2.70320023E+02
 11
-1.53999958E+02
 21
2.70320023E+02
  0
LINE
  8
0
 62
7
 10
-1.56999958E+02
 20
2.90680023E+02
 11
-1.53999958E+02
 21
2.90680023E+02
  0
LINE
  8
0
 62
7
 10
-1.44000100E+02
 20
2.91000100E+02
 11
-1.42000141E+02
 21
2.93000059E+02
  0
LINE
  8
0
 62
7
 10
-1.44000030E+02
 20
2.69999988E+02
 11
-1.41999985E+02
 21
2.67999943E+02
  0
LINE
  8
0
 62
7
 10
-1.53999989E+02
 20
2.70000000E+02
 11
-1.44000019E+02
 21
2.70000000E+02
  0
LINE
  8
0
 62
7
 10
-1.53999989E+02
 20
2.91000000E+02
 11
-1.44000141E+02
 21
2.91000000E+02
  0
LINE
  8
0
 62
2
 10
-1.93320026E+02
 20
2.70320023E+02
 11
-1.82000019E+02
 21
2.70320023E+02
  0
LINE
  8
0
 62
7
 10
-1.93999969E+02
 20
2.71000064E+02
 11
-1.92499978E+02
 21
2.69500073E+02
  0
LINE
  8
0
 62
7
 10
-1.92500019E+02
 20
2.69500000E+02
 11
-1.82000019E+02
 21
2.69500000E+02
  0
LINE
  8
0
 62
2
 10
-1.93320026E+02
 20
2.90680023E+02
 11
-1.82000019E+02
 21
2.90680023E+02
  0
LINE
  8
0
 62
7
 10
-1.93999952E+02
 20
2.89999906E+02
 11
-1.92499918E+02
 21
2.91499940E+02
  0
LINE
  8
0
 62
7
 10
-1.92500019E+02
 20
2.69500000E+02
 11
-1.92500019E+02
 21
2.91500031E+02
  0
LINE
  8
0
 62
7
 10
-1.92500019E+02
 20
2.91500031E+02
 11
-1.82000019E+02
 21
2.91500031E+02
  0
LINE
  8
0
 62
7
 10
-1.56999958E+02
 20
2.69500000E+02
 11
-1.56999958E+02
 21
2.91500031E+02
  0
LINE
  8
0
 62
7
 10
-1.94000019E+02
 20
2.71000122E+02
 11
-1.94000019E+02
 21
2.89999939E+02
  0
LINE
  8
0
 62
7
 10
-1.53999958E+02
 20
2.69999969E+02
 11
-1.53999958E+02
 21
2.91000000E+02
  0
LINE
  8
0
 62
7
 10
-1.50999958E+02
 20
2.91000000E+02
 11
-1.50999958E+02
 21
2.70000000E+02
  0
LINE
  8
0
 62
7
 10
-1.41999989E+02
 20
2.67999954E+02
 11
-1.40000019E+02
 21
2.67999954E+02
  0
LINE
  8
0
 62
7
 10
-1.42000141E+02
 20
2.93000000E+02
 11
-1.39999958E+02
 21
2.93000000E+02
  0
LINE
  8
0
 62
7
 10
2.39999982E+02
 20
3.03000008E+02
 11
2.41999974E+02
 21
3.01000016E+02
  0
LINE
  8
0
 62
7
 10
2.40000007E+02
 20
2.58000013E+02
 11
2.41999998E+02
 21
2.60000004E+02
  0
LINE
  8
0
 62
7
 10
2.42000004E+02
 20
2.60000000E+02
 11
2.59999989E+02
 21
2.60000000E+02
  0
LINE
  8
0
 62
7
 10
2.41999985E+02
 20
3.01000000E+02
 11
2.59999989E+02
 21
3.01000000E+02
  0
LINE
  8
0
 62
7
 10
1.75999978E+02
 20
2.58000000E+02
 11
2.40000011E+02
 21
2.58000000E+02
  0
LINE
  8
0
 62
7
 10
1.80999991E+02
 20
3.03000000E+02
 11
1.80999991E+02
 21
2.58000000E+02
  0
LINE
  8
0
 62
7
 10
1.75999978E+02
 20
3.03000000E+02
 11
1.75999978E+02
 21
2.58000000E+02
  0
LINE
  8
0
 62
7
 10
1.75999978E+02
 20
3.03000000E+02
 11
2.39999992E+02
 21
3.03000000E+02
  0
LINE
  8
0
 62
7
 10
9.89999886E+01
 20
2.58499985E+02
 11
1.00499973E+02
 21
2.58499985E+02
  0
LINE
  8
0
 62
7
 10
1.00999981E+02
 20
3.01999985E+02
 11
1.00999981E+02
 21
2.59000015E+02
  0
LINE
  8
0
 62
7
 10
9.89999886E+01
 20
3.27500000E+02
 11
9.89999886E+01
 21
2.33499985E+02
  0
LINE
  8
0
 62
7
 10
9.89999886E+01
 20
3.02500015E+02
 11
1.00499973E+02
 21
3.02500015E+02
  0
LINE
  8
0
 62
7
 10
6.39999886E+01
 20
2.33499985E+02
 11
9.89999886E+01
 21
2.33499985E+02
  0
LINE
  8
0
 62
7
 10
6.39999886E+01
 20
3.27500000E+02
 11
9.89999886E+01
 21
3.27500000E+02
  0
LINE
  8
0
 62
2
 10
2.76320026E+02
 20
2.71320023E+02
 11
2.71999973E+02
 21
2.71320023E+02
  0
LINE
  8
0
 62
7
 10
2.77000078E+02
 20
2.71999978E+02
 11
2.75500077E+02
 21
2.70499977E+02
  0
LINE
  8
0
 62
7
 10
2.71999973E+02
 20
2.67000031E+02
 11
2.59999981E+02
 21
2.67000031E+02
  0
LINE
  8
0
 62
7
 10
2.75500072E+02
 20
2.70500046E+02
 11
2.75500072E+02
 21
2.90500046E+02
  0
LINE
  8
0
 62
7
 10
2.71999973E+02
 20
2.94000031E+02
 11
2.59999981E+02
 21
2.94000031E+02
  0
LINE
  8
0
 62
7
 10
2.59999989E+02
 20
2.60000000E+02
 11
2.59999989E+02
 21
3.01000000E+02
  0
LINE
  8
0
 62
7
 10
2.70787533E+02
 20
2.80500015E+02
 11
2.61212406E+02
 21
2.80500015E+02
  0
LINE
  8
0
 62
7
 10
2.75500080E+02
 20
2.70499969E+02
 11
2.71999973E+02
 21
2.70499969E+02
  0
LINE
  8
0
 62
7
 10
2.71999958E+02
 20
2.67000031E+02
 11
2.71999958E+02
 21
2.94000031E+02
  0
LINE
  8
0
 62
7
 10
2.75500080E+02
 20
2.90500015E+02
 11
2.71999973E+02
 21
2.90500015E+02
  0
LINE
  8
0
 62
7
 10
2.77000057E+02
 20
2.72000031E+02
 11
2.77000057E+02
 21
2.89000031E+02
  0
LINE
  8
0
 62
7
 10
2.77000046E+02
 20
2.88999813E+02
 11
2.75500001E+02
 21
2.90499858E+02
  0
LINE
  8
0
 62
2
 10
2.76320026E+02
 20
2.89680008E+02
 11
2.71999973E+02
 21
2.89680008E+02
  0
LINE
  8
0
 62
7
 10
2.79999809E+01
 20
2.41000000E+02
 11
4.99998856E+00
 21
2.41000000E+02
  0
LINE
  8
0
 62
7
 10
2.79999809E+01
 20
2.50000000E+02
 11
1.99999886E+01
 21
2.50000000E+02
  0
LINE
  8
0
  6
CENTER
 62
2
 10
1.03665714E+02
 20
2.45500000E+02
 11
-1.22495625E+02
 21
2.45500000E+02
  0
LINE
  8
0
 62
7
 10
2.79999809E+01
 20
2.36999969E+02
 11
4.99998856E+00
 21
2.36999969E+02
  0
LINE
  8
0
 62
7
 10
1.75999978E+02
 20
2.67999969E+02
 11
1.00999981E+02
 21
2.67999969E+02
  0
LINE
  8
0
 62
7
 10
5.79999809E+01
 20
3.10499969E+02
 11
2.79999809E+01
 21
3.10499969E+02
  0
LINE
  8
0
 62
7
 10
5.79999809E+01
 20
2.50499969E+02
 11
2.79999809E+01
 21
2.50499969E+02
  0
LINE
  8
0
 62
7
 10
5.99999733E+01
 20
2.52499939E+02
 11
5.99999733E+01
 21
3.08499954E+02
  0
LINE
  8
0
 62
7
 10
6.35086965E+01
 20
3.26880283E+02
 11
2.79999830E+01
 21
3.27500096E+02
  0
LINE
  8
0
 62
7
 10
2.79999809E+01
 20
2.33499924E+02
 11
2.79999809E+01
 21
3.27499939E+02
  0
LINE
  8
0
 62
7
 10
2.79999809E+01
 20
3.11000000E+02
 11
-3.89999886E+01
 21
3.11000000E+02
  0
LINE
  8
0
 62
7
 10
1.75999978E+02
 20
2.93000000E+02
 11
1.00999981E+02
 21
2.93000000E+02
  0
LINE
  8
0
 62
7
 10
6.39999886E+01
 20
2.34619690E+02
 11
6.39999886E+01
 21
3.26380249E+02
  0
LINE
  8
0
 62
7
 10
6.35086303E+01
 20
2.34119768E+02
 11
2.79998939E+01
 21
2.33499966E+02
  0
LINE
  8
0
  6
CENTER
 62
2
 10
1.04044056E+02
 20
3.15500031E+02
 11
-1.22495625E+02
 21
3.15500031E+02
  0
LINE
  8
0
 62
7
 10
-1.21000019E+02
 20
2.59000015E+02
 11
-1.21000019E+02
 21
3.02000015E+02
  0
LINE
  8
0
 62
7
 10
-1.34517444E+02
 20
3.01528200E+02
 11
-1.21000018E+02
 21
3.02000239E+02
  0
LINE
  8
0
 62
7
 10
-1.20500019E+02
 20
3.02499985E+02
 11
-1.18999989E+02
 21
3.02499985E+02
  0
LINE
  8
0
 62
7
 10
-1.34517470E+02
 20
2.59472350E+02
 11
-1.21000013E+02
 21
2.59000311E+02
  0
LINE
  8
0
 62
7
 10
-1.20500019E+02
 20
2.58499954E+02
 11
-1.18999989E+02
 21
2.58499954E+02
  0
LINE
  8
0
 62
7
 10
-1.39500019E+02
 20
2.60999969E+02
 11
-1.35000050E+02
 21
2.60999969E+02
  0
LINE
  8
0
 62
7
 10
-1.39999958E+02
 20
2.99500031E+02
 11
-1.39999958E+02
 21
2.61500000E+02
  0
LINE
  8
0
 62
7
 10
-1.34999989E+02
 20
3.01063248E+02
 11
-1.34999989E+02
 21
2.59971771E+02
  0
LINE
  8
0
 62
7
 10
-1.39500019E+02
 20
2.99999985E+02
 11
-1.35000050E+02
 21
2.99999985E+02
  0
LINE
  8
0
 62
7
 10
-1.12999989E+02
 20
2.50499969E+02
 11
-8.29999886E+01
 21
2.50499969E+02
  0
LINE
  8
0
 62
7
 10
-1.12999989E+02
 20
3.10499969E+02
 11
-8.29999886E+01
 21
3.10499969E+02
  0
LINE
  8
0
 62
7
 10
-1.14999989E+02
 20
3.08500046E+02
 11
-1.14999989E+02
 21
2.52500015E+02
  0
LINE
  8
0
 62
7
 10
-1.18508741E+02
 20
2.34120065E+02
 11
-8.30000195E+01
 21
2.33500258E+02
  0
LINE
  8
0
 62
7
 10
-8.29999886E+01
 20
3.27500000E+02
 11
-8.29999886E+01
 21
2.33500000E+02
  0
LINE
  8
0
 62
7
 10
-1.19000050E+02
 20
3.26380310E+02
 11
-1.19000050E+02
 21
2.34619690E+02
  0
LINE
  8
0
 62
7
 10
-1.18508887E+02
 20
3.26880512E+02
 11
-8.30000744E+01
 21
3.27500320E+02
  0
LINE
  8
0
  6
CENTER
 62
2
 10
-1.97414692E+02
 20
2.80500000E+02
 11
2.81038029E+02
 21
2.80500000E+02
  0
LINE
  8
0
 62
7
 10
2.79999809E+01
 20
3.24000000E+02
 11
-3.89999886E+01
 21
3.24000000E+02
  0
LINE
  8
0
 62
7
 10
2.79999809E+01
 20
3.20000000E+02
 11
-3.89999886E+01
 21
3.20000000E+02
  0
LINE
  8
0
 62
6
 10
-1.82679606E+01
 20
2.64589954E+02
 11
-2.17320622E+01
 21
2.58589954E+02
  0
LINE
  8
0
 62
4
 10
-1.00000115E+01
 20
2.63089954E+02
 11
-1.91339861E+01
 21
2.63089954E+02
  0
LINE
  8
0
  6
CENTER
 62
6
 10
2.49999885E+01
 20
2.61589954E+02
 11
-2.20000115E+01
 21
2.61589954E+02
  0
LINE
  8
0
 62
4
 10
-1.00000115E+01
 20
2.60089954E+02
 11
-2.08660369E+01
 21
2.60089954E+02
  0
LINE
  8
0
 62
6
 10
-3.07320394E+01
 20
2.96410092E+02
 11
-2.72679378E+01
 21
3.02410092E+02
  0
LINE
  8
0
 62
4
 10
-3.89999885E+01
 20
2.97910092E+02
 11
-2.98660139E+01
 21
2.97910092E+02
  0
LINE
  8
0
  6
CENTER
 62
6
 10
-7.39999885E+01
 20
2.99410092E+02
 11
-2.69999885E+01
 21
2.99410092E+02
  0
LINE
  8
0
 62
4
 10
-3.89999885E+01
 20
3.00910092E+02
 11
-2.81339631E+01
 21
3.00910092E+02
  0
LINE
  8
0
 62
6
 10
2.99998853E+00
 20
2.33664632E+02
 11
2.99998853E+00
 21
2.35031960E+02
  0
LINE
  8
0
 62
6
 10
-1.14734739E-05
 20
2.33664632E+02
 11
-1.14734739E-05
 21
2.35031960E+02
  0
LINE
  8
0
 62
4
 10
3.49998853E+00
 20
2.34160190E+02
 11
3.49998853E+00
 21
2.35031960E+02
  0
LINE
  8
0
 62
4
 10
-5.00011473E-01
 20
2.34160190E+02
 11
-5.00011473E-01
 21
2.35031960E+02
  0
LINE
  8
0
 62
4
 10
4.99998856E+00
 20
2.35031960E+02
 11
4.99998856E+00
 21
2.48876466E+02
  0
LINE
  8
0
 62
4
 10
-1.00000114E+01
 20
2.35031960E+02
 11
-1.00000114E+01
 21
2.64420165E+02
  0
LINE
  8
0
  6
CENTER
 62
6
 10
-6.50001147E+00
 20
2.30234436E+02
 11
-6.50001147E+00
 21
2.40500015E+02
  0
LINE
  8
0
  6
CENTER
 62
6
 10
1.49998853E+00
 20
2.30234436E+02
 11
1.49998853E+00
 21
2.40500015E+02
  0
LINE
  8
0
  6
CENTER
 62
6
 10
1.24999886E+01
 20
2.57612190E+02
 11
1.24999886E+01
 21
2.62612190E+02
  0
LINE
  8
0
 62
4
 10
-5.00001144E+00
 20
2.64193535E+02
 11
-5.00001144E+00
 21
2.63549627E+02
  0
LINE
  8
0
 62
4
 10
1.99999886E+01
 20
2.48876466E+02
 11
1.99999886E+01
 21
2.62322369E+02
  0
LINE
  8
0
 62
4
 10
-3.50001144E+00
 20
2.64193535E+02
 11
-3.50001144E+00
 21
2.63918690E+02
  0
LINE
  8
0
 62
4
 10
2.14999886E+01
 20
2.60114295E+02
 11
2.14999886E+01
 21
2.63062850E+02
  0
LINE
  8
0
 62
4
 10
4.99998856E+00
 20
2.35031960E+02
 11
-1.00000114E+01
 21
2.35031960E+02
  0
LINE
  8
0
 62
4
 10
4.99998856E+00
 20
2.42386179E+02
 11
-1.00000114E+01
 21
2.42386179E+02
  0
LINE
  8
0
 62
4
 10
1.99999886E+01
 20
2.48876466E+02
 11
-1.00000114E+01
 21
2.48876466E+02
  0
LINE
  8
0
 62
4
 10
1.99999886E+01
 20
2.58426460E+02
 11
-1.00000114E+01
 21
2.58426460E+02
  0
LINE
  8
0
 62
4
 10
1.99999886E+01
 20
2.64420165E+02
 11
8.14873318E+00
 21
2.64420165E+02
  0
POLYLINE
  8
0
 62
4
 66
1
  0
VERTEX
  8
0
 62
4
 10
-5.00011470E-01
 20
2.34160190E+02
  0
VERTEX
  8
0
 62
4
 10
-4.91960059E-01
 20
2.34093031E+02
  0
VERTEX
  8
0
 62
4
 10
-4.67870649E-01
 20
2.34026413E+02
  0
VERTEX
  8
0
 62
4
 10
-4.27937193E-01
 20
2.33960872E+02
  0
VERTEX
  8
0
 62
4
 10
-3.72481214E-01
 20
2.33896935E+02
  0
VERTEX
  8
0
 62
4
 10
-3.01949209E-01
 20
2.33835119E+02
  0
VERTEX
  8
0
 62
4
 10
-2.16909062E-01
 20
2.33775919E+02
  0
VERTEX
  8
0
 62
4
 10
-1.18045464E-01
 20
2.33719814E+02
  0
VERTEX
  8
0
 62
4
 10
-6.15440781E-03
 20
2.33667254E+02
  0
VERTEX
  8
0
 62
4
 10
1.17863226E-01
 20
2.33618663E+02
  0
VERTEX
  8
0
 62
4
 10
2.53008919E-01
 20
2.33574432E+02
  0
VERTEX
  8
0
 62
4
 10
3.98194559E-01
 20
2.33534917E+02
  0
VERTEX
  8
0
 62
4
 10
5.52251197E-01
 20
2.33500436E+02
  0
VERTEX
  8
0
 62
4
 10
7.13938458E-01
 20
2.33471268E+02
  0
VERTEX
  8
0
 62
4
 10
8.81954532E-01
 20
2.33447646E+02
  0
VERTEX
  8
0
 62
4
 10
1.05494665E+00
 20
2.33429761E+02
  0
VERTEX
  8
0
 62
4
 10
1.23152199E+00
 20
2.33417757E+02
  0
VERTEX
  8
0
 62
4
 10
1.41025886E+00
 20
2.33411731E+02
  0
VERTEX
  8
0
 62
4
 10
1.58971818E+00
 20
2.33411731E+02
  0
VERTEX
  8
0
 62
4
 10
1.76845505E+00
 20
2.33417757E+02
  0
VERTEX
  8
0
 62
4
 10
1.94503039E+00
 20
2.33429761E+02
  0
VERTEX
  8
0
 62
4
 10
2.11802251E+00
 20
2.33447646E+02
  0
VERTEX
  8
0
 62
4
 10
2.28603858E+00
 20
2.33471268E+02
  0
VERTEX
  8
0
 62
4
 10
2.44772584E+00
 20
2.33500436E+02
  0
VERTEX
  8
0
 62
4
 10
2.60178248E+00
 20
2.33534917E+02
  0
VERTEX
  8
0
 62
4
 10
2.74696812E+00
 20
2.33574432E+02
  0
VERTEX
  8
0
 62
4
 10
2.88211382E+00
 20
2.33618663E+02
  0
VERTEX
  8
0
 62
4
 10
3.00613145E+00
 20
2.33667254E+02
  0
VERTEX
  8
0
 62
4
 10
3.11802251E+00
 20
2.33719814E+02
  0
VERTEX
  8
0
 62
4
 10
3.21688611E+00
 20
2.33775919E+02
  0
VERTEX
  8
0
 62
4
 10
3.30192626E+00
 20
2.33835119E+02
  0
VERTEX
  8
0
 62
4
 10
3.37245827E+00
 20
2.33896935E+02
  0
VERTEX
  8
0
 62
4
 10
3.42791425E+00
 20
2.33960872E+02
  0
VERTEX
  8
0
 62
4
 10
3.46784770E+00
 20
2.34026413E+02
  0
VERTEX
  8
0
 62
4
 10
3.49193712E+00
 20
2.34093031E+02
  0
VERTEX
  8
0
 62
4
 10
3.49998853E+00
 20
2.34160190E+02
  0
SEQEND
  8
0
  0
LINE
  8
0
 62
6
 10
-8.00001147E+00
 20
2.33664632E+02
 11
-8.00001147E+00
 21
2.35031960E+02
  0
LINE
  8
0
 62
4
 10
-8.50001147E+00
 20
2.34160190E+02
 11
-8.50001147E+00
 21
2.35031960E+02
  0
POLYLINE
  8
0
 62
4
 66
1
  0
VERTEX
  8
0
 62
4
 10
-8.50001147E+00
 20
2.34160190E+02
  0
VERTEX
  8
0
 62
4
 10
-8.49196006E+00
 20
2.34093031E+02
  0
VERTEX
  8
0
 62
4
 10
-8.46787065E+00
 20
2.34026413E+02
  0
VERTEX
  8
0
 62
4
 10
-8.42793719E+00
 20
2.33960872E+02
  0
VERTEX
  8
0
 62
4
 10
-8.37248121E+00
 20
2.33896935E+02
  0
VERTEX
  8
0
 62
4
 10
-8.30194921E+00
 20
2.33835119E+02
  0
VERTEX
  8
0
 62
4
 10
-8.21690906E+00
 20
2.33775919E+02
  0
VERTEX
  8
0
 62
4
 10
-8.11804546E+00
 20
2.33719814E+02
  0
VERTEX
  8
0
 62
4
 10
-8.00615441E+00
 20
2.33667254E+02
  0
VERTEX
  8
0
 62
4
 10
-7.88213677E+00
 20
2.33618663E+02
  0
VERTEX
  8
0
 62
4
 10
-7.74699108E+00
 20
2.33574432E+02
  0
VERTEX
  8
0
 62
4
 10
-7.60180544E+00
 20
2.33534917E+02
  0
VERTEX
  8
0
 62
4
 10
-7.44774880E+00
 20
2.33500436E+02
  0
VERTEX
  8
0
 62
4
 10
-7.28606154E+00
 20
2.33471268E+02
  0
VERTEX
  8
0
 62
4
 10
-7.11804547E+00
 20
2.33447646E+02
  0
VERTEX
  8
0
 62
4
 10
-6.94505335E+00
 20
2.33429761E+02
  0
VERTEX
  8
0
 62
4
 10
-6.76847801E+00
 20
2.33417757E+02
  0
VERTEX
  8
0
 62
4
 10
-6.58974114E+00
 20
2.33411731E+02
  0
VERTEX
  8
0
 62
4
 10
-6.41028182E+00
 20
2.33411731E+02
  0
VERTEX
  8
0
 62
4
 10
-6.23154495E+00
 20
2.33417757E+02
  0
VERTEX
  8
0
 62
4
 10
-6.05496961E+00
 20
2.33429761E+02
  0
VERTEX
  8
0
 62
4
 10
-5.88197749E+00
 20
2.33447646E+02
  0
VERTEX
  8
0
 62
4
 10
-5.71396142E+00
 20
2.33471268E+02
  0
VERTEX
  8
0
 62
4
 10
-5.55227416E+00
 20
2.33500436E+02
  0
VERTEX
  8
0
 62
4
 10
-5.39821752E+00
 20
2.33534917E+02
  0
VERTEX
  8
0
 62
4
 10
-5.25303188E+00
 20
2.33574432E+02
  0
VERTEX
  8
0
 62
4
 10
-5.11788618E+00
 20
2.33618663E+02
  0
VERTEX
  8
0
 62
4
 10
-4.99386855E+00
 20
2.33667254E+02
  0
VERTEX
  8
0
 62
4
 10
-4.88197749E+00
 20
2.33719814E+02
  0
VERTEX
  8
0
 62
4
 10
-4.78311389E+00
 20
2.33775919E+02
  0
VERTEX
  8
0
 62
4
 10
-4.69807374E+00
 20
2.33835119E+02
  0
VERTEX
  8
0
 62
4
 10
-4.62754173E+00
 20
2.33896935E+02
  0
VERTEX
  8
0
 62
4
 10
-4.57208575E+00
 20
2.33960872E+02
  0
VERTEX
  8
0
 62
4
 10
-4.53215230E+00
 20
2.34026413E+02
  0
VERTEX
  8
0
 62
4
 10
-4.50806288E+00
 20
2.34093031E+02
  0
VERTEX
  8
0
 62
4
 10
-4.50001147E+00
 20
2.34160190E+02
  0
SEQEND
  8
0
  0
LINE
  8
0
 62
6
 10
-5.00001147E+00
 20
2.33664632E+02
 11
-5.00001147E+00
 21
2.35031960E+02
  0
LINE
  8
0
 62
4
 10
-4.50001147E+00
 20
2.34160190E+02
 11
-4.50001147E+00
 21
2.35031960E+02
  0
LINE
  8
0
 62
4
 10
8.49988556E-01
 20
2.62829355E+02
 11
8.49988556E-01
 21
2.63407486E+02
  0
LINE
  8
0
 62
4
 10
9.14998856E+00
 20
2.61775643E+02
 11
9.14998856E+00
 21
2.63407486E+02
  0
POLYLINE
  8
0
 62
4
 66
1
  0
VERTEX
  8
0
 62
4
 10
1.29897047E+00
 20
2.61072323E+02
  0
VERTEX
  8
0
 62
4
 10
1.48065085E+00
 20
2.60951784E+02
  0
VERTEX
  8
0
 62
4
 10
1.69023394E+00
 20
2.60837777E+02
  0
VERTEX
  8
0
 62
4
 10
1.92605810E+00
 20
2.60731206E+02
  0
VERTEX
  8
0
 62
4
 10
2.18625360E+00
 20
2.60632915E+02
  0
VERTEX
  8
0
 62
4
 10
2.46875752E+00
 20
2.60543684E+02
  0
VERTEX
  8
0
 62
4
 10
2.77133006E+00
 20
2.60464221E+02
  0
VERTEX
  8
0
 62
4
 10
3.09157229E+00
 20
2.60395156E+02
  0
VERTEX
  8
0
 62
4
 10
3.42694520E+00
 20
2.60337035E+02
  0
VERTEX
  8
0
 62
4
 10
3.77478984E+00
 20
2.60290320E+02
  0
VERTEX
  8
0
 62
4
 10
4.13234834E+00
 20
2.60255382E+02
  0
VERTEX
  8
0
 62
4
 10
4.49678584E+00
 20
2.60232496E+02
  0
VERTEX
  8
0
 62
4
 10
4.86521293E+00
 20
2.60221846E+02
  0
VERTEX
  8
0
 62
4
 10
5.23470858E+00
 20
2.60223514E+02
  0
VERTEX
  8
0
 62
4
 10
5.60234327E+00
 20
2.60237489E+02
  0
VERTEX
  8
0
 62
4
 10
5.96520226E+00
 20
2.60263658E+02
  0
VERTEX
  8
0
 62
4
 10
6.32040864E+00
 20
2.60301815E+02
  0
VERTEX
  8
0
 62
4
 10
6.66514620E+00
 20
2.60351657E+02
  0
VERTEX
  8
0
 62
4
 10
6.99668173E+00
 20
2.60412790E+02
  0
VERTEX
  8
0
 62
4
 10
7.31238668E+00
 20
2.60484727E+02
  0
VERTEX
  8
0
 62
4
 10
7.60975801E+00
 20
2.60566899E+02
  0
VERTEX
  8
0
 62
4
 10
7.88643804E+00
 20
2.60658655E+02
  0
VERTEX
  8
0
 62
4
 10
8.14023314E+00
 20
2.60759267E+02
  0
VERTEX
  8
0
 62
4
 10
8.36913113E+00
 20
2.60867936E+02
  0
VERTEX
  8
0
 62
4
 10
8.57131721E+00
 20
2.60983803E+02
  0
VERTEX
  8
0
 62
4
 10
8.74518837E+00
 20
2.61105948E+02
  0
VERTEX
  8
0
 62
4
 10
8.88936608E+00
 20
2.61233402E+02
  0
VERTEX
  8
0
 62
4
 10
9.00270726E+00
 20
2.61365155E+02
  0
VERTEX
  8
0
 62
4
 10
9.08431327E+00
 20
2.61500163E+02
  0
VERTEX
  8
0
 62
4
 10
9.13353713E+00
 20
2.61637355E+02
  0
VERTEX
  8
0
 62
4
 10
9.14998856E+00
 20
2.61775643E+02
  0
SEQEND
  8
0
  0
POLYLINE
  8
0
 62
4
 66
1
  0
VERTEX
  8
0
 62
4
 10
9.14998856E+00
 20
2.63407486E+02
  0
VERTEX
  8
0
 62
4
 10
9.13419656E+00
 20
2.63542980E+02
  0
VERTEX
  8
0
 62
4
 10
9.08694073E+00
 20
2.63677442E+02
  0
VERTEX
  8
0
 62
4
 10
9.00858074E+00
 20
2.63809851E+02
  0
VERTEX
  8
0
 62
4
 10
8.89971294E+00
 20
2.63939196E+02
  0
VERTEX
  8
0
 62
4
 10
8.76116588E+00
 20
2.64064496E+02
  0
VERTEX
  8
0
 62
4
 10
8.59399399E+00
 20
2.64184795E+02
  0
VERTEX
  8
0
 62
4
 10
8.39946954E+00
 20
2.64299178E+02
  0
VERTEX
  8
0
 62
4
 10
8.17907300E+00
 20
2.64406775E+02
  0
VERTEX
  8
0
 62
4
 10
7.93448170E+00
 20
2.64506766E+02
  0
VERTEX
  8
0
 62
4
 10
7.66755714E+00
 20
2.64598392E+02
  0
VERTEX
  8
0
 62
4
 10
7.38033077E+00
 20
2.64680954E+02
  0
VERTEX
  8
0
 62
4
 10
7.07498856E+00
 20
2.64753824E+02
  0
VERTEX
  8
0
 62
4
 10
6.75385434E+00
 20
2.64816448E+02
  0
VERTEX
  8
0
 62
4
 10
6.41937215E+00
 20
2.64868348E+02
  0
VERTEX
  8
0
 62
4
 10
6.07408759E+00
 20
2.64909131E+02
  0
VERTEX
  8
0
 62
4
 10
5.72062849E+00
 20
2.64938485E+02
  0
VERTEX
  8
0
 62
4
 10
5.36168489E+00
 20
2.64956188E+02
  0
VERTEX
  8
0
 62
4
 10
4.99998856E+00
 20
2.64962103E+02
  0
VERTEX
  8
0
 62
4
 10
4.63829222E+00
 20
2.64956188E+02
  0
VERTEX
  8
0
 62
4
 10
4.27934862E+00
 20
2.64938485E+02
  0
VERTEX
  8
0
 62
4
 10
3.92588952E+00
 20
2.64909131E+02
  0
VERTEX
  8
0
 62
4
 10
3.58060496E+00
 20
2.64868348E+02
  0
VERTEX
  8
0
 62
4
 10
3.24612277E+00
 20
2.64816448E+02
  0
VERTEX
  8
0
 62
4
 10
2.92498856E+00
 20
2.64753824E+02
  0
VERTEX
  8
0
 62
4
 10
2.61964635E+00
 20
2.64680954E+02
  0
VERTEX
  8
0
 62
4
 10
2.33241998E+00
 20
2.64598392E+02
  0
VERTEX
  8
0
 62
4
 10
2.06549541E+00
 20
2.64506766E+02
  0
VERTEX
  8
0
 62
4
 10
1.82090412E+00
 20
2.64406775E+02
  0
VERTEX
  8
0
 62
4
 10
1.60050757E+00
 20
2.64299178E+02
  0
VERTEX
  8
0
 62
4
 10
1.40598313E+00
 20
2.64184795E+02
  0
VERTEX
  8
0
 62
4
 10
1.23881124E+00
 20
2.64064496E+02
  0
VERTEX
  8
0
 62
4
 10
1.10026418E+00
 20
2.63939196E+02
  0
VERTEX
  8
0
 62
4
 10
9.91396380E-01
 20
2.63809851E+02
  0
VERTEX
  8
0
 62
4
 10
9.13036384E-01
 20
2.63677442E+02
  0
VERTEX
  8
0
 62
4
 10
8.65780562E-01
 20
2.63542980E+02
  0
VERTEX
  8
0
 62
4
 10
8.49988560E-01
 20
2.63407486E+02
  0
VERTEX
  8
0
 62
4
 10
8.65780563E-01
 20
2.63271992E+02
  0
VERTEX
  8
0
 62
4
 10
9.13036386E-01
 20
2.63137530E+02
  0
VERTEX
  8
0
 62
4
 10
9.91396383E-01
 20
2.63005121E+02
  0
VERTEX
  8
0
 62
4
 10
1.10026419E+00
 20
2.62875776E+02
  0
VERTEX
  8
0
 62
4
 10
1.23881125E+00
 20
2.62750476E+02
  0
VERTEX
  8
0
 62
4
 10
1.40598314E+00
 20
2.62630177E+02
  0
VERTEX
  8
0
 62
4
 10
1.60050758E+00
 20
2.62515794E+02
  0
VERTEX
  8
0
 62
4
 10
1.82090413E+00
 20
2.62408197E+02
  0
VERTEX
  8
0
 62
4
 10
2.06549542E+00
 20
2.62308206E+02
  0
VERTEX
  8
0
 62
4
 10
2.33241999E+00
 20
2.62216580E+02
  0
VERTEX
  8
0
 62
4
 10
2.61964636E+00
 20
2.62134018E+02
  0
VERTEX
  8
0
 62
4
 10
2.92498857E+00
 20
2.62061148E+02
  0
VERTEX
  8
0
 62
4
 10
3.24612278E+00
 20
2.61998524E+02
  0
VERTEX
  8
0
 62
4
 10
3.58060497E+00
 20
2.61946624E+02
  0
VERTEX
  8
0
 62
4
 10
3.92588953E+00
 20
2.61905841E+02
  0
VERTEX
  8
0
 62
4
 10
4.27934863E+00
 20
2.61876487E+02
  0
VERTEX
  8
0
 62
4
 10
4.63829224E+00
 20
2.61858784E+02
  0
VERTEX
  8
0
 62
4
 10
4.99998857E+00
 20
2.61852869E+02
  0
VERTEX
  8
0
 62
4
 10
5.36168490E+00
 20
2.61858784E+02
  0
VERTEX
  8
0
 62
4
 10
5.72062851E+00
 20
2.61876487E+02
  0
VERTEX
  8
0
 62
4
 10
6.07408761E+00
 20
2.61905841E+02
  0
VERTEX
  8
0
 62
4
 10
6.41937216E+00
 20
2.61946624E+02
  0
VERTEX
  8
0
 62
4
 10
6.75385435E+00
 20
2.61998524E+02
  0
VERTEX
  8
0
 62
4
 10
7.07498857E+00
 20
2.62061148E+02
  0
VERTEX
  8
0
 62
4
 10
7.38033078E+00
 20
2.62134018E+02
  0
VERTEX
  8
0
 62
4
 10
7.66755715E+00
 20
2.62216580E+02
  0
VERTEX
  8
0
 62
4
 10
7.93448171E+00
 20
2.62308206E+02
  0
VERTEX
  8
0
 62
4
 10
8.17907301E+00
 20
2.62408197E+02
  0
VERTEX
  8
0
 62
4
 10
8.39946955E+00
 20
2.62515794E+02
  0
VERTEX
  8
0
 62
4
 10
8.59399399E+00
 20
2.62630177E+02
  0
VERTEX
  8
0
 62
4
 10
8.76116588E+00
 20
2.62750476E+02
  0
VERTEX
  8
0
 62
4
 10
8.89971294E+00
 20
2.62875776E+02
  0
VERTEX
  8
0
 62
4
 10
9.00858074E+00
 20
2.63005121E+02
  0
VERTEX
  8
0
 62
4
 10
9.08694074E+00
 20
2.63137530E+02
  0
VERTEX
  8
0
 62
4
 10
9.13419656E+00
 20
2.63271992E+02
  0
VERTEX
  8
0
 62
4
 10
9.14998856E+00
 20
2.63407486E+02
  0
SEQEND
  8
0
  0
ARC
  8
0
 62
4
 10
1.06166958E+01
 20
2.48987345E+02
 40
1.61228529E+01
 50
1.03811346E+02
 51
1.17258955E+02
  0
ARC
  8
0
 62
4
 10
-6.16721300E-01
 20
2.48987337E+02
 40
1.61228609E+01
 50
6.27410478E+01
 51
7.61886514E+01
  0
POLYLINE
  8
0
 62
4
 66
1
  0
VERTEX
  8
0
 62
4
 10
1.29998857E+00
 20
2.60853960E+02
  0
VERTEX
  8
0
 62
4
 10
1.44663113E+00
 20
2.60735254E+02
  0
VERTEX
  8
0
 62
4
 10
1.62034984E+00
 20
2.60621791E+02
  0
VERTEX
  8
0
 62
4
 10
1.81982098E+00
 20
2.60514436E+02
  0
VERTEX
  8
0
 62
4
 10
2.04352461E+00
 20
2.60414006E+02
  0
VERTEX
  8
0
 62
4
 10
2.28975613E+00
 20
2.60321266E+02
  0
VERTEX
  8
0
 62
4
 10
2.55663929E+00
 20
2.60236925E+02
  0
VERTEX
  8
0
 62
4
 10
2.84214048E+00
 20
2.60161623E+02
  0
VERTEX
  8
0
 62
4
 10
3.14408420E+00
 20
2.60095935E+02
  0
VERTEX
  8
0
 62
4
 10
3.46016968E+00
 20
2.60040362E+02
  0
VERTEX
  8
0
 62
4
 10
3.78798840E+00
 20
2.59995327E+02
  0
VERTEX
  8
0
 62
4
 10
4.12504241E+00
 20
2.59961173E+02
  0
VERTEX
  8
0
 62
4
 10
4.46876340E+00
 20
2.59938160E+02
  0
VERTEX
  8
0
 62
4
 10
4.81653226E+00
 20
2.59926463E+02
  0
VERTEX
  8
0
 62
4
 10
5.16569904E+00
 20
2.59926173E+02
  0
VERTEX
  8
0
 62
4
 10
5.51360312E+00
 20
2.59937291E+02
  0
VERTEX
  8
0
 62
4
 10
5.85759352E+00
 20
2.59959732E+02
  0
VERTEX
  8
0
 62
4
 10
6.19504908E+00
 20
2.59993325E+02
  0
VERTEX
  8
0
 62
4
 10
6.52339842E+00
 20
2.60037814E+02
  0
VERTEX
  8
0
 62
4
 10
6.84013957E+00
 20
2.60092861E+02
  0
VERTEX
  8
0
 62
4
 10
7.14285899E+00
 20
2.60158046E+02
  0
VERTEX
  8
0
 62
4
 10
7.42925000E+00
 20
2.60232872E+02
  0
VERTEX
  8
0
 62
4
 10
7.69713034E+00
 20
2.60316769E+02
  0
VERTEX
  8
0
 62
4
 10
7.94445879E+00
 20
2.60409098E+02
  0
VERTEX
  8
0
 62
4
 10
8.16935073E+00
 20
2.60509154E+02
  0
VERTEX
  8
0
 62
4
 10
8.37009253E+00
 20
2.60616177E+02
  0
VERTEX
  8
0
 62
4
 10
8.54515454E+00
 20
2.60729350E+02
  0
VERTEX
  8
0
 62
4
 10
8.69320283E+00
 20
2.60847811E+02
  0
VERTEX
  8
0
 62
4
 10
8.81310927E+00
 20
2.60970657E+02
  0
VERTEX
  8
0
 62
4
 10
8.90396021E+00
 20
2.61096952E+02
  0
VERTEX
  8
0
 62
4
 10
8.96506335E+00
 20
2.61225734E+02
  0
VERTEX
  8
0
 62
4
 10
8.99595312E+00
 20
2.61356022E+02
  0
SEQEND
  8
0
  0
LINE
  8
0
 62
4
 10
8.99988556E-01
 20
2.61039373E+02
 11
8.99988556E-01
 21
2.62517105E+02
  0
POLYLINE
  8
0
 62
4
 66
1
  0
VERTEX
  8
0
 62
4
 10
-5.90001144E+00
 20
2.61039373E+02
  0
VERTEX
  8
0
 62
4
 10
-5.88632404E+00
 20
2.60925203E+02
  0
VERTEX
  8
0
 62
4
 10
-5.84537204E+00
 20
2.60811952E+02
  0
VERTEX
  8
0
 62
4
 10
-5.77748517E+00
 20
2.60700532E+02
  0
VERTEX
  8
0
 62
4
 10
-5.68321000E+00
 20
2.60591840E+02
  0
VERTEX
  8
0
 62
4
 10
-5.56330560E+00
 20
2.60486752E+02
  0
VERTEX
  8
0
 62
4
 10
-5.41873735E+00
 20
2.60386112E+02
  0
VERTEX
  8
0
 62
4
 10
-5.25066923E+00
 20
2.60290733E+02
  0
VERTEX
  8
0
 62
4
 10
-5.06045443E+00
 20
2.60201381E+02
  0
VERTEX
  8
0
 62
4
 10
-4.84962446E+00
 20
2.60118776E+02
  0
VERTEX
  8
0
 62
4
 10
-4.61987678E+00
 20
2.60043584E+02
  0
VERTEX
  8
0
 62
4
 10
-4.37306119E+00
 20
2.59976408E+02
  0
VERTEX
  8
0
 62
4
 10
-4.11116491E+00
 20
2.59917792E+02
  0
VERTEX
  8
0
 62
4
 10
-3.83629656E+00
 20
2.59868205E+02
  0
VERTEX
  8
0
 62
4
 10
-3.55066924E+00
 20
2.59828048E+02
  0
VERTEX
  8
0
 62
4
 10
-3.25658263E+00
 20
2.59797644E+02
  0
VERTEX
  8
0
 62
4
 10
-2.95640456E+00
 20
2.59777238E+02
  0
VERTEX
  8
0
 62
4
 10
-2.65255188E+00
 20
2.59766993E+02
  0
VERTEX
  8
0
 62
4
 10
-2.34747104E+00
 20
2.59766993E+02
  0
VERTEX
  8
0
 62
4
 10
-2.04361835E+00
 20
2.59777238E+02
  0
VERTEX
  8
0
 62
4
 10
-1.74344028E+00
 20
2.59797644E+02
  0
VERTEX
  8
0
 62
4
 10
-1.44935368E+00
 20
2.59828048E+02
  0
VERTEX
  8
0
 62
4
 10
-1.16372635E+00
 20
2.59868205E+02
  0
VERTEX
  8
0
 62
4
 10
-8.88858005E-01
 20
2.59917792E+02
  0
VERTEX
  8
0
 62
4
 10
-6.26961720E-01
 20
2.59976408E+02
  0
VERTEX
  8
0
 62
4
 10
-3.80146130E-01
 20
2.60043584E+02
  0
VERTEX
  8
0
 62
4
 10
-1.50398449E-01
 20
2.60118776E+02
  0
VERTEX
  8
0
 62
4
 10
6.04315302E-02
 20
2.60201381E+02
  0
VERTEX
  8
0
 62
4
 10
2.50646328E-01
 20
2.60290733E+02
  0
VERTEX
  8
0
 62
4
 10
4.18714447E-01
 20
2.60386112E+02
  0
VERTEX
  8
0
 62
4
 10
5.63282701E-01
 20
2.60486752E+02
  0
VERTEX
  8
0
 62
4
 10
6.83187112E-01
 20
2.60591840E+02
  0
VERTEX
  8
0
 62
4
 10
7.77462280E-01
 20
2.60700532E+02
  0
VERTEX
  8
0
 62
4
 10
8.45349157E-01
 20
2.60811952E+02
  0
VERTEX
  8
0
 62
4
 10
8.86301157E-01
 20
2.60925203E+02
  0
VERTEX
  8
0
 62
4
 10
8.99988560E-01
 20
2.61039373E+02
  0
SEQEND
  8
0
  0
POLYLINE
  8
0
 62
4
 66
1
  0
VERTEX
  8
0
 62
4
 10
-5.90001144E+00
 20
2.62087091E+02
  0
VERTEX
  8
0
 62
4
 10
-5.88632404E+00
 20
2.61972921E+02
  0
VERTEX
  8
0
 62
4
 10
-5.84537204E+00
 20
2.61859670E+02
  0
VERTEX
  8
0
 62
4
 10
-5.77748517E+00
 20
2.61748250E+02
  0
VERTEX
  8
0
 62
4
 10
-5.68321000E+00
 20
2.61639558E+02
  0
VERTEX
  8
0
 62
4
 10
-5.56330560E+00
 20
2.61534470E+02
  0
VERTEX
  8
0
 62
4
 10
-5.41873735E+00
 20
2.61433830E+02
  0
VERTEX
  8
0
 62
4
 10
-5.25066923E+00
 20
2.61338451E+02
  0
VERTEX
  8
0
 62
4
 10
-5.06045443E+00
 20
2.61249099E+02
  0
VERTEX
  8
0
 62
4
 10
-4.84962446E+00
 20
2.61166494E+02
  0
VERTEX
  8
0
 62
4
 10
-4.61987678E+00
 20
2.61091302E+02
  0
VERTEX
  8
0
 62
4
 10
-4.37306119E+00
 20
2.61024126E+02
  0
VERTEX
  8
0
 62
4
 10
-4.11116491E+00
 20
2.60965510E+02
  0
VERTEX
  8
0
 62
4
 10
-3.83629656E+00
 20
2.60915923E+02
  0
VERTEX
  8
0
 62
4
 10
-3.55066924E+00
 20
2.60875766E+02
  0
VERTEX
  8
0
 62
4
 10
-3.25658263E+00
 20
2.60845362E+02
  0
VERTEX
  8
0
 62
4
 10
-2.95640456E+00
 20
2.60824956E+02
  0
VERTEX
  8
0
 62
4
 10
-2.65255188E+00
 20
2.60814711E+02
  0
VERTEX
  8
0
 62
4
 10
-2.34747104E+00
 20
2.60814711E+02
  0
VERTEX
  8
0
 62
4
 10
-2.04361835E+00
 20
2.60824956E+02
  0
VERTEX
  8
0
 62
4
 10
-1.74344028E+00
 20
2.60845362E+02
  0
VERTEX
  8
0
 62
4
 10
-1.44935368E+00
 20
2.60875766E+02
  0
VERTEX
  8
0
 62
4
 10
-1.16372635E+00
 20
2.60915923E+02
  0
VERTEX
  8
0
 62
4
 10
-8.88858005E-01
 20
2.60965510E+02
  0
VERTEX
  8
0
 62
4
 10
-6.26961720E-01
 20
2.61024126E+02
  0
VERTEX
  8
0
 62
4
 10
-3.80146130E-01
 20
2.61091302E+02
  0
VERTEX
  8
0
 62
4
 10
-1.50398449E-01
 20
2.61166494E+02
  0
VERTEX
  8
0
 62
4
 10
6.04315302E-02
 20
2.61249099E+02
  0
VERTEX
  8
0
 62
4
 10
2.50646328E-01
 20
2.61338451E+02
  0
VERTEX
  8
0
 62
4
 10
4.18714447E-01
 20
2.61433830E+02
  0
VERTEX
  8
0
 62
4
 10
5.63282701E-01
 20
2.61534470E+02
  0
VERTEX
  8
0
 62
4
 10
6.83187112E-01
 20
2.61639558E+02
  0
VERTEX
  8
0
 62
4
 10
7.77462280E-01
 20
2.61748250E+02
  0
VERTEX
  8
0
 62
4
 10
8.45349157E-01
 20
2.61859670E+02
  0
VERTEX
  8
0
 62
4
 10
8.86301157E-01
 20
2.61972921E+02
  0
VERTEX
  8
0
 62
4
 10
8.99988560E-01
 20
2.62087091E+02
  0
SEQEND
  8
0
  0
LINE
  8
0
 62
4
 10
-5.90001144E+00
 20
2.62517105E+02
 11
-5.90001144E+00
 21
2.61039374E+02
  0
ARC
  8
0
 62
4
 10
-4.90001177E+00
 20
2.62517105E+02
 40
1.00000000E+00
 50
1.02827510E+02
 51
1.80000000E+02
  0
ARC
  8
0
 62
4
 10
-1.00011122E-01
 20
2.62517105E+02
 40
1.00000000E+00
 50
3.60000000E+02
 51
7.71724899E+01
  0
ARC
  8
0
 62
4
 10
2.88737336E+00
 20
2.48760350E+02
 40
1.54729912E+01
 50
1.03783165E+02
 51
1.17543924E+02
  0
ARC
  8
0
 62
4
 10
-7.88739670E+00
 20
2.48760349E+02
 40
1.54729926E+01
 50
6.24560769E+01
 51
7.62168346E+01
  0
LINE
  8
0
 62
4
 10
-6.30001144E+00
 20
2.60112190E+02
 11
-6.30001144E+00
 21
2.61039373E+02
  0
LINE
  8
0
 62
4
 10
1.29998856E+00
 20
2.60112190E+02
 11
1.29998856E+00
 21
2.61039373E+02
  0
POLYLINE
  8
0
 62
4
 66
1
  0
VERTEX
  8
0
 62
4
 10
-6.30001144E+00
 20
2.60112190E+02
  0
VERTEX
  8
0
 62
4
 10
-6.28471376E+00
 20
2.59984588E+02
  0
VERTEX
  8
0
 62
4
 10
-6.23894388E+00
 20
2.59858013E+02
  0
VERTEX
  8
0
 62
4
 10
-6.16307031E+00
 20
2.59733485E+02
  0
VERTEX
  8
0
 62
4
 10
-6.05770395E+00
 20
2.59612006E+02
  0
VERTEX
  8
0
 62
4
 10
-5.92369314E+00
 20
2.59494554E+02
  0
VERTEX
  8
0
 62
4
 10
-5.76211686E+00
 20
2.59382075E+02
  0
VERTEX
  8
0
 62
4
 10
-5.57427603E+00
 20
2.59275475E+02
  0
VERTEX
  8
0
 62
4
 10
-5.36168302E+00
 20
2.59175611E+02
  0
VERTEX
  8
0
 62
4
 10
-5.12604952E+00
 20
2.59083288E+02
  0
VERTEX
  8
0
 62
4
 10
-4.86927270E+00
 20
2.58999249E+02
  0
VERTEX
  8
0
 62
4
 10
-4.59341998E+00
 20
2.58924171E+02
  0
VERTEX
  8
0
 62
4
 10
-4.30071237E+00
 20
2.58858658E+02
  0
VERTEX
  8
0
 62
4
 10
-3.99350658E+00
 20
2.58803238E+02
  0
VERTEX
  8
0
 62
4
 10
-3.67427604E+00
 20
2.58758356E+02
  0
VERTEX
  8
0
 62
4
 10
-3.34559101E+00
 20
2.58724375E+02
  0
VERTEX
  8
0
 62
4
 10
-3.01009787E+00
 20
2.58701568E+02
  0
VERTEX
  8
0
 62
4
 10
-2.67049782E+00
 20
2.58690118E+02
  0
VERTEX
  8
0
 62
4
 10
-2.32952511E+00
 20
2.58690118E+02
  0
VERTEX
  8
0
 62
4
 10
-1.98992505E+00
 20
2.58701568E+02
  0
VERTEX
  8
0
 62
4
 10
-1.65443191E+00
 20
2.58724375E+02
  0
VERTEX
  8
0
 62
4
 10
-1.32574688E+00
 20
2.58758356E+02
  0
VERTEX
  8
0
 62
4
 10
-1.00651634E+00
 20
2.58803238E+02
  0
VERTEX
  8
0
 62
4
 10
-6.99310543E-01
 20
2.58858658E+02
  0
VERTEX
  8
0
 62
4
 10
-4.06602930E-01
 20
2.58924171E+02
  0
VERTEX
  8
0
 62
4
 10
-1.30750211E-01
 20
2.58999249E+02
  0
VERTEX
  8
0
 62
4
 10
1.26026609E-01
 20
2.59083288E+02
  0
VERTEX
  8
0
 62
4
 10
3.61660115E-01
 20
2.59175611E+02
  0
VERTEX
  8
0
 62
4
 10
5.74253124E-01
 20
2.59275475E+02
  0
VERTEX
  8
0
 62
4
 10
7.62093963E-01
 20
2.59382075E+02
  0
VERTEX
  8
0
 62
4
 10
9.23670247E-01
 20
2.59494554E+02
  0
VERTEX
  8
0
 62
4
 10
1.05768106E+00
 20
2.59612006E+02
  0
VERTEX
  8
0
 62
4
 10
1.16304742E+00
 20
2.59733485E+02
  0
VERTEX
  8
0
 62
4
 10
1.23892099E+00
 20
2.59858013E+02
  0
VERTEX
  8
0
 62
4
 10
1.28469087E+00
 20
2.59984588E+02
  0
VERTEX
  8
0
 62
4
 10
1.29998856E+00
 20
2.60112190E+02
  0
SEQEND
  8
0
  0
POLYLINE
  8
0
 62
4
 66
1
  0
VERTEX
  8
0
 62
4
 10
-5.90001145E+00
 20
2.61675101E+02
  0
VERTEX
  8
0
 62
4
 10
-6.03659311E+00
 20
2.61560142E+02
  0
VERTEX
  8
0
 62
4
 10
-6.14554098E+00
 20
2.61441114E+02
  0
VERTEX
  8
0
 62
4
 10
-6.22600376E+00
 20
2.61318946E+02
  0
VERTEX
  8
0
 62
4
 10
-6.27735274E+00
 20
2.61194594E+02
  0
VERTEX
  8
0
 62
4
 10
-6.29918669E+00
 20
2.61069029E+02
  0
VERTEX
  8
0
 62
4
 10
-6.29133502E+00
 20
2.60943233E+02
  0
VERTEX
  8
0
 62
4
 10
-6.25385907E+00
 20
2.60818188E+02
  0
VERTEX
  8
0
 62
4
 10
-6.18705166E+00
 20
2.60694870E+02
  0
VERTEX
  8
0
 62
4
 10
-6.09143482E+00
 20
2.60574245E+02
  0
VERTEX
  8
0
 62
4
 10
-5.96775566E+00
 20
2.60457254E+02
  0
VERTEX
  8
0
 62
4
 10
-5.81698058E+00
 20
2.60344812E+02
  0
VERTEX
  8
0
 62
4
 10
-5.64028768E+00
 20
2.60237797E+02
  0
VERTEX
  8
0
 62
4
 10
-5.43905760E+00
 20
2.60137045E+02
  0
VERTEX
  8
0
 62
4
 10
-5.21486268E+00
 20
2.60043343E+02
  0
VERTEX
  8
0
 62
4
 10
-4.96945472E+00
 20
2.59957424E+02
  0
VERTEX
  8
0
 62
4
 10
-4.70475126E+00
 20
2.59879960E+02
  0
VERTEX
  8
0
 62
4
 10
-4.42282062E+00
 20
2.59811554E+02
  0
VERTEX
  8
0
 62
4
 10
-4.12586572E+00
 20
2.59752743E+02
  0
VERTEX
  8
0
 62
4
 10
-3.81620688E+00
 20
2.59703984E+02
  0
VERTEX
  8
0
 62
4
 10
-3.49626367E+00
 20
2.59665660E+02
  0
VERTEX
  8
0
 62
4
 10
-3.16853605E+00
 20
2.59638070E+02
  0
VERTEX
  8
0
 62
4
 10
-2.83558477E+00
 20
2.59621429E+02
  0
VERTEX
  8
0
 62
4
 10
-2.50001142E+00
 20
2.59615868E+02
  0
VERTEX
  8
0
 62
4
 10
-2.16443807E+00
 20
2.59621429E+02
  0
VERTEX
  8
0
 62
4
 10
-1.83148680E+00
 20
2.59638070E+02
  0
VERTEX
  8
0
 62
4
 10
-1.50375917E+00
 20
2.59665660E+02
  0
VERTEX
  8
0
 62
4
 10
-1.18381597E+00
 20
2.59703984E+02
  0
VERTEX
  8
0
 62
4
 10
-8.74157126E-01
 20
2.59752743E+02
  0
VERTEX
  8
0
 62
4
 10
-5.77202226E-01
 20
2.59811554E+02
  0
VERTEX
  8
0
 62
4
 10
-2.95271587E-01
 20
2.59879960E+02
  0
VERTEX
  8
0
 62
4
 10
-3.05681309E-02
 20
2.59957424E+02
  0
VERTEX
  8
0
 62
4
 10
2.14839827E-01
 20
2.60043343E+02
  0
VERTEX
  8
0
 62
4
 10
4.39034743E-01
 20
2.60137045E+02
  0
VERTEX
  8
0
 62
4
 10
6.40264824E-01
 20
2.60237797E+02
  0
VERTEX
  8
0
 62
4
 10
8.16957718E-01
 20
2.60344812E+02
  0
VERTEX
  8
0
 62
4
 10
9.67732798E-01
 20
2.60457254E+02
  0
VERTEX
  8
0
 62
4
 10
1.09141195E+00
 20
2.60574245E+02
  0
VERTEX
  8
0
 62
4
 10
1.18702879E+00
 20
2.60694870E+02
  0
VERTEX
  8
0
 62
4
 10
1.25383619E+00
 20
2.60818188E+02
  0
VERTEX
  8
0
 62
4
 10
1.29131214E+00
 20
2.60943233E+02
  0
VERTEX
  8
0
 62
4
 10
1.29916381E+00
 20
2.61069029E+02
  0
VERTEX
  8
0
 62
4
 10
1.27732985E+00
 20
2.61194594E+02
  0
VERTEX
  8
0
 62
4
 10
1.22598087E+00
 20
2.61318946E+02
  0
VERTEX
  8
0
 62
4
 10
1.14551809E+00
 20
2.61441114E+02
  0
VERTEX
  8
0
 62
4
 10
1.03657022E+00
 20
2.61560142E+02
  0
VERTEX
  8
0
 62
4
 10
8.99988552E-01
 20
2.61675101E+02
  0
SEQEND
  8
0
  0
ARC
  8
0
 62
4
 10
-2.50001144E+00
 20
2.56621553E+02
 40
7.36533796E+00
 50
6.78494174E+01
 51
1.12150583E+02
  0
LINE
  8
0
  6
CENTER
 62
6
 10
1.49999886E+01
 20
2.60112190E+02
 11
9.99998856E+00
 21
2.60112190E+02
  0
LINE
  8
0
  6
CENTER
 62
6
 10
4.99998856E+00
 20
2.58923313E+02
 11
4.99998856E+00
 21
2.63923313E+02
  0
LINE
  8
0
  6
CENTER
 62
6
 10
7.49998856E+00
 20
2.61423313E+02
 11
2.49998856E+00
 21
2.61423313E+02
  0
LINE
  8
0
  6
CENTER
 62
6
 10
-2.50001144E+00
 20
2.57612190E+02
 11
-2.50001144E+00
 21
2.62612190E+02
  0
LINE
  8
0
  6
CENTER
 62
6
 10
-1.14370514E-05
 20
2.60112190E+02
 11
-5.00001144E+00
 21
2.60112190E+02
  0
LINE
  8
0
 62
4
 10
1.85124393E+00
 20
2.64420165E+02
 11
-1.00000114E+01
 21
2.64420165E+02
  0
LINE
  8
0
 62
4
 10
1.99999886E+01
 20
2.58986373E+02
 11
2.14999886E+01
 21
2.60114295E+02
  0
LINE
  8
0
 62
4
 10
2.14999886E+01
 20
2.62214366E+02
 11
1.99999886E+01
 21
2.62695109E+02
  0
LINE
  8
0
 62
4
 10
2.14999886E+01
 20
2.63062850E+02
 11
1.99999886E+01
 21
2.64193535E+02
  0
LINE
  8
0
 62
4
 10
1.99999886E+01
 20
2.62695109E+02
 11
9.14998856E+00
 21
2.62695109E+02
  0
LINE
  8
0
 62
4
 10
1.99999886E+01
 20
2.64193535E+02
 11
8.58042217E+00
 21
2.64193535E+02
  0
LINE
  8
0
 62
4
 10
1.99999886E+01
 20
2.62322369E+02
 11
9.14998856E+00
 21
2.62322369E+02
  0
LINE
  8
0
 62
4
 10
-5.00001144E+00
 20
2.64045559E+02
 11
-1.00000114E+01
 21
2.64045559E+02
  0
LINE
  8
0
 62
4
 10
-5.90001144E+00
 20
2.62322369E+02
 11
-1.00000114E+01
 21
2.62322369E+02
  0
LINE
  8
0
 62
4
 10
1.41955494E+00
 20
2.64193535E+02
 11
-5.00001144E+00
 21
2.64193535E+02
  0
LINE
  8
0
 62
4
 10
1.99999886E+01
 20
2.64193535E+02
 11
1.99999886E+01
 21
2.64420165E+02
  0
LINE
  8
0
 62
4
 10
1.99999886E+01
 20
2.62322369E+02
 11
1.99999886E+01
 21
2.64193535E+02
  0
LINE
  8
0
 62
6
 10
-5.19999885E+01
 20
3.27335414E+02
 11
-5.19999885E+01
 21
3.25968086E+02
  0
LINE
  8
0
 62
6
 10
-4.89999885E+01
 20
3.27335414E+02
 11
-4.89999885E+01
 21
3.25968086E+02
  0
LINE
  8
0
 62
4
 10
-5.24999885E+01
 20
3.26839856E+02
 11
-5.24999885E+01
 21
3.25968086E+02
  0
LINE
  8
0
 62
4
 10
-4.84999885E+01
 20
3.26839856E+02
 11
-4.84999885E+01
 21
3.25968086E+02
  0
LINE
  8
0
 62
4
 10
-5.39999886E+01
 20
3.25968086E+02
 11
-5.39999886E+01
 21
3.12123580E+02
  0
LINE
  8
0
 62
4
 10
-3.89999886E+01
 20
3.25968086E+02
 11
-3.89999886E+01
 21
2.96579880E+02
  0
LINE
  8
0
  6
CENTER
 62
6
 10
-4.24999885E+01
 20
3.30765609E+02
 11
-4.24999885E+01
 21
3.20500031E+02
  0
LINE
  8
0
  6
CENTER
 62
6
 10
-5.04999885E+01
 20
3.30765609E+02
 11
-5.04999885E+01
 21
3.20500031E+02
  0
LINE
  8
0
  6
CENTER
 62
6
 10
-6.14999886E+01
 20
3.03387856E+02
 11
-6.14999886E+01
 21
2.98387856E+02
  0
LINE
  8
0
 62
4
 10
-4.39999886E+01
 20
2.96806511E+02
 11
-4.39999886E+01
 21
2.97450419E+02
  0
LINE
  8
0
 62
4
 10
-6.89999886E+01
 20
3.12123580E+02
 11
-6.89999886E+01
 21
2.98677677E+02
  0
LINE
  8
0
 62
4
 10
-4.54999886E+01
 20
2.96806511E+02
 11
-4.54999886E+01
 21
2.97081356E+02
  0
LINE
  8
0
 62
4
 10
-7.04999886E+01
 20
3.00885751E+02
 11
-7.04999886E+01
 21
2.97937195E+02
  0
LINE
  8
0
 62
4
 10
-5.39999886E+01
 20
3.25968086E+02
 11
-3.89999886E+01
 21
3.25968086E+02
  0
LINE
  8
0
 62
4
 10
-5.39999886E+01
 20
3.18613867E+02
 11
-3.89999886E+01
 21
3.18613867E+02
  0
LINE
  8
0
 62
4
 10
-6.89999886E+01
 20
3.12123580E+02
 11
-3.89999886E+01
 21
3.12123580E+02
  0
LINE
  8
0
 62
4
 10
-6.89999886E+01
 20
3.02573586E+02
 11
-3.89999886E+01
 21
3.02573586E+02
  0
LINE
  8
0
 62
4
 10
-6.89999886E+01
 20
2.96579880E+02
 11
-5.71487332E+01
 21
2.96579880E+02
  0
POLYLINE
  8
0
 62
4
 66
1
  0
VERTEX
  8
0
 62
4
 10
-4.84999885E+01
 20
3.26839856E+02
  0
VERTEX
  8
0
 62
4
 10
-4.85080399E+01
 20
3.26907015E+02
  0
VERTEX
  8
0
 62
4
 10
-4.85321293E+01
 20
3.26973633E+02
  0
VERTEX
  8
0
 62
4
 10
-4.85720628E+01
 20
3.27039174E+02
  0
VERTEX
  8
0
 62
4
 10
-4.86275188E+01
 20
3.27103111E+02
  0
VERTEX
  8
0
 62
4
 10
-4.86980508E+01
 20
3.27164927E+02
  0
VERTEX
  8
0
 62
4
 10
-4.87830909E+01
 20
3.27224127E+02
  0
VERTEX
  8
0
 62
4
 10
-4.88819545E+01
 20
3.27280232E+02
  0
VERTEX
  8
0
 62
4
 10
-4.89938456E+01
 20
3.27332792E+02
  0
VERTEX
  8
0
 62
4
 10
-4.91178632E+01
 20
3.27381383E+02
  0
VERTEX
  8
0
 62
4
 10
-4.92530089E+01
 20
3.27425614E+02
  0
VERTEX
  8
0
 62
4
 10
-4.93981945E+01
 20
3.27465129E+02
  0
VERTEX
  8
0
 62
4
 10
-4.95522512E+01
 20
3.27499610E+02
  0
VERTEX
  8
0
 62
4
 10
-4.97139384E+01
 20
3.27528778E+02
  0
VERTEX
  8
0
 62
4
 10
-4.98819545E+01
 20
3.27552400E+02
  0
VERTEX
  8
0
 62
4
 10
-5.00549466E+01
 20
3.27570285E+02
  0
VERTEX
  8
0
 62
4
 10
-5.02315220E+01
 20
3.27582289E+02
  0
VERTEX
  8
0
 62
4
 10
-5.04102588E+01
 20
3.27588315E+02
  0
VERTEX
  8
0
 62
4
 10
-5.05897181E+01
 20
3.27588315E+02
  0
VERTEX
  8
0
 62
4
 10
-5.07684550E+01
 20
3.27582289E+02
  0
VERTEX
  8
0
 62
4
 10
-5.09450304E+01
 20
3.27570285E+02
  0
VERTEX
  8
0
 62
4
 10
-5.11180225E+01
 20
3.27552400E+02
  0
VERTEX
  8
0
 62
4
 10
-5.12860386E+01
 20
3.27528778E+02
  0
VERTEX
  8
0
 62
4
 10
-5.14477258E+01
 20
3.27499610E+02
  0
VERTEX
  8
0
 62
4
 10
-5.16017825E+01
 20
3.27465129E+02
  0
VERTEX
  8
0
 62
4
 10
-5.17469681E+01
 20
3.27425614E+02
  0
VERTEX
  8
0
 62
4
 10
-5.18821138E+01
 20
3.27381383E+02
  0
VERTEX
  8
0
 62
4
 10
-5.20061314E+01
 20
3.27332792E+02
  0
VERTEX
  8
0
 62
4
 10
-5.21180225E+01
 20
3.27280232E+02
  0
VERTEX
  8
0
 62
4
 10
-5.22168861E+01
 20
3.27224127E+02
  0
VERTEX
  8
0
 62
4
 10
-5.23019262E+01
 20
3.27164927E+02
  0
VERTEX
  8
0
 62
4
 10
-5.23724582E+01
 20
3.27103111E+02
  0
VERTEX
  8
0
 62
4
 10
-5.24279142E+01
 20
3.27039174E+02
  0
VERTEX
  8
0
 62
4
 10
-5.24678477E+01
 20
3.26973633E+02
  0
VERTEX
  8
0
 62
4
 10
-5.24919371E+01
 20
3.26907015E+02
  0
VERTEX
  8
0
 62
4
 10
-5.24999885E+01
 20
3.26839856E+02
  0
SEQEND
  8
0
  0
LINE
  8
0
 62
6
 10
-4.09999885E+01
 20
3.27335414E+02
 11
-4.09999885E+01
 21
3.25968086E+02
  0
LINE
  8
0
 62
4
 10
-4.04999885E+01
 20
3.26839856E+02
 11
-4.04999885E+01
 21
3.25968086E+02
  0
POLYLINE
  8
0
 62
4
 66
1
  0
VERTEX
  8
0
 62
4
 10
-4.04999885E+01
 20
3.26839856E+02
  0
VERTEX
  8
0
 62
4
 10
-4.05080399E+01
 20
3.26907015E+02
  0
VERTEX
  8
0
 62
4
 10
-4.05321293E+01
 20
3.26973633E+02
  0
VERTEX
  8
0
 62
4
 10
-4.05720628E+01
 20
3.27039174E+02
  0
VERTEX
  8
0
 62
4
 10
-4.06275188E+01
 20
3.27103111E+02
  0
VERTEX
  8
0
 62
4
 10
-4.06980508E+01
 20
3.27164927E+02
  0
VERTEX
  8
0
 62
4
 10
-4.07830909E+01
 20
3.27224127E+02
  0
VERTEX
  8
0
 62
4
 10
-4.08819545E+01
 20
3.27280232E+02
  0
VERTEX
  8
0
 62
4
 10
-4.09938456E+01
 20
3.27332792E+02
  0
VERTEX
  8
0
 62
4
 10
-4.11178632E+01
 20
3.27381383E+02
  0
VERTEX
  8
0
 62
4
 10
-4.12530089E+01
 20
3.27425614E+02
  0
VERTEX
  8
0
 62
4
 10
-4.13981945E+01
 20
3.27465129E+02
  0
VERTEX
  8
0
 62
4
 10
-4.15522512E+01
 20
3.27499610E+02
  0
VERTEX
  8
0
 62
4
 10
-4.17139384E+01
 20
3.27528778E+02
  0
VERTEX
  8
0
 62
4
 10
-4.18819545E+01
 20
3.27552400E+02
  0
VERTEX
  8
0
 62
4
 10
-4.20549466E+01
 20
3.27570285E+02
  0
VERTEX
  8
0
 62
4
 10
-4.22315220E+01
 20
3.27582289E+02
  0
VERTEX
  8
0
 62
4
 10
-4.24102588E+01
 20
3.27588315E+02
  0
VERTEX
  8
0
 62
4
 10
-4.25897181E+01
 20
3.27588315E+02
  0
VERTEX
  8
0
 62
4
 10
-4.27684550E+01
 20
3.27582289E+02
  0
VERTEX
  8
0
 62
4
 10
-4.29450304E+01
 20
3.27570285E+02
  0
VERTEX
  8
0
 62
4
 10
-4.31180225E+01
 20
3.27552400E+02
  0
VERTEX
  8
0
 62
4
 10
-4.32860386E+01
 20
3.27528778E+02
  0
VERTEX
  8
0
 62
4
 10
-4.34477258E+01
 20
3.27499610E+02
  0
VERTEX
  8
0
 62
4
 10
-4.36017825E+01
 20
3.27465129E+02
  0
VERTEX
  8
0
 62
4
 10
-4.37469681E+01
 20
3.27425614E+02
  0
VERTEX
  8
0
 62
4
 10
-4.38821138E+01
 20
3.27381383E+02
  0
VERTEX
  8
0
 62
4
 10
-4.40061314E+01
 20
3.27332792E+02
  0
VERTEX
  8
0
 62
4
 10
-4.41180225E+01
 20
3.27280232E+02
  0
VERTEX
  8
0
 62
4
 10
-4.42168861E+01
 20
3.27224127E+02
  0
VERTEX
  8
0
 62
4
 10
-4.43019262E+01
 20
3.27164927E+02
  0
VERTEX
  8
0
 62
4
 10
-4.43724582E+01
 20
3.27103111E+02
  0
VERTEX
  8
0
 62
4
 10
-4.44279142E+01
 20
3.27039174E+02
  0
VERTEX
  8
0
 62
4
 10
-4.44678477E+01
 20
3.26973633E+02
  0
VERTEX
  8
0
 62
4
 10
-4.44919371E+01
 20
3.26907015E+02
  0
VERTEX
  8
0
 62
4
 10
-4.44999885E+01
 20
3.26839856E+02
  0
SEQEND
  8
0
  0
LINE
  8
0
 62
6
 10
-4.39999885E+01
 20
3.27335414E+02
 11
-4.39999885E+01
 21
3.25968086E+02
  0
LINE
  8
0
 62
4
 10
-4.44999885E+01
 20
3.26839856E+02
 11
-4.44999885E+01
 21
3.25968086E+02
  0
LINE
  8
0
 62
4
 10
-4.98499886E+01
 20
2.98170690E+02
 11
-4.98499886E+01
 21
2.97592560E+02
  0
LINE
  8
0
 62
4
 10
-5.81499886E+01
 20
2.99224403E+02
 11
-5.81499886E+01
 21
2.97592560E+02
  0
POLYLINE
  8
0
 62
4
 66
1
  0
VERTEX
  8
0
 62
4
 10
-5.02989705E+01
 20
2.99927723E+02
  0
VERTEX
  8
0
 62
4
 10
-5.04806509E+01
 20
3.00048262E+02
  0
VERTEX
  8
0
 62
4
 10
-5.06902340E+01
 20
3.00162269E+02
  0
VERTEX
  8
0
 62
4
 10
-5.09260581E+01
 20
3.00268840E+02
  0
VERTEX
  8
0
 62
4
 10
-5.11862536E+01
 20
3.00367131E+02
  0
VERTEX
  8
0
 62
4
 10
-5.14687576E+01
 20
3.00456362E+02
  0
VERTEX
  8
0
 62
4
 10
-5.17713301E+01
 20
3.00535825E+02
  0
VERTEX
  8
0
 62
4
 10
-5.20915723E+01
 20
3.00604890E+02
  0
VERTEX
  8
0
 62
4
 10
-5.24269452E+01
 20
3.00663011E+02
  0
VERTEX
  8
0
 62
4
 10
-5.27747899E+01
 20
3.00709726E+02
  0
VERTEX
  8
0
 62
4
 10
-5.31323484E+01
 20
3.00744664E+02
  0
VERTEX
  8
0
 62
4
 10
-5.34967859E+01
 20
3.00767550E+02
  0
VERTEX
  8
0
 62
4
 10
-5.38652130E+01
 20
3.00778200E+02
  0
VERTEX
  8
0
 62
4
 10
-5.42347086E+01
 20
3.00776532E+02
  0
VERTEX
  8
0
 62
4
 10
-5.46023433E+01
 20
3.00762557E+02
  0
VERTEX
  8
0
 62
4
 10
-5.49652023E+01
 20
3.00736388E+02
  0
VERTEX
  8
0
 62
4
 10
-5.53204087E+01
 20
3.00698231E+02
  0
VERTEX
  8
0
 62
4
 10
-5.56651462E+01
 20
3.00648389E+02
  0
VERTEX
  8
0
 62
4
 10
-5.59966818E+01
 20
3.00587256E+02
  0
VERTEX
  8
0
 62
4
 10
-5.63123867E+01
 20
3.00515319E+02
  0
VERTEX
  8
0
 62
4
 10
-5.66097580E+01
 20
3.00433147E+02
  0
VERTEX
  8
0
 62
4
 10
-5.68864381E+01
 20
3.00341391E+02
  0
VERTEX
  8
0
 62
4
 10
-5.71402332E+01
 20
3.00240779E+02
  0
VERTEX
  8
0
 62
4
 10
-5.73691312E+01
 20
3.00132110E+02
  0
VERTEX
  8
0
 62
4
 10
-5.75713173E+01
 20
3.00016243E+02
  0
VERTEX
  8
0
 62
4
 10
-5.77451884E+01
 20
2.99894098E+02
  0
VERTEX
  8
0
 62
4
 10
-5.78893661E+01
 20
2.99766644E+02
  0
VERTEX
  8
0
 62
4
 10
-5.80027073E+01
 20
2.99634891E+02
  0
VERTEX
  8
0
 62
4
 10
-5.80843133E+01
 20
2.99499883E+02
  0
VERTEX
  8
0
 62
4
 10
-5.81335372E+01
 20
2.99362691E+02
  0
VERTEX
  8
0
 62
4
 10
-5.81499886E+01
 20
2.99224403E+02
  0
SEQEND
  8
0
  0
POLYLINE
  8
0
 62
4
 66
1
  0
VERTEX
  8
0
 62
4
 10
-5.81499886E+01
 20
2.97592560E+02
  0
VERTEX
  8
0
 62
4
 10
-5.81341966E+01
 20
2.97457066E+02
  0
VERTEX
  8
0
 62
4
 10
-5.80869408E+01
 20
2.97322604E+02
  0
VERTEX
  8
0
 62
4
 10
-5.80085808E+01
 20
2.97190195E+02
  0
VERTEX
  8
0
 62
4
 10
-5.78997130E+01
 20
2.97060850E+02
  0
VERTEX
  8
0
 62
4
 10
-5.77611659E+01
 20
2.96935550E+02
  0
VERTEX
  8
0
 62
4
 10
-5.75939940E+01
 20
2.96815251E+02
  0
VERTEX
  8
0
 62
4
 10
-5.73994696E+01
 20
2.96700868E+02
  0
VERTEX
  8
0
 62
4
 10
-5.71790730E+01
 20
2.96593271E+02
  0
VERTEX
  8
0
 62
4
 10
-5.69344817E+01
 20
2.96493280E+02
  0
VERTEX
  8
0
 62
4
 10
-5.66675572E+01
 20
2.96401654E+02
  0
VERTEX
  8
0
 62
4
 10
-5.63803308E+01
 20
2.96319092E+02
  0
VERTEX
  8
0
 62
4
 10
-5.60749886E+01
 20
2.96246222E+02
  0
VERTEX
  8
0
 62
4
 10
-5.57538544E+01
 20
2.96183598E+02
  0
VERTEX
  8
0
 62
4
 10
-5.54193722E+01
 20
2.96131698E+02
  0
VERTEX
  8
0
 62
4
 10
-5.50740876E+01
 20
2.96090915E+02
  0
VERTEX
  8
0
 62
4
 10
-5.47206285E+01
 20
2.96061561E+02
  0
VERTEX
  8
0
 62
4
 10
-5.43616849E+01
 20
2.96043858E+02
  0
VERTEX
  8
0
 62
4
 10
-5.39999886E+01
 20
2.96037943E+02
  0
VERTEX
  8
0
 62
4
 10
-5.36382923E+01
 20
2.96043858E+02
  0
VERTEX
  8
0
 62
4
 10
-5.32793487E+01
 20
2.96061561E+02
  0
VERTEX
  8
0
 62
4
 10
-5.29258896E+01
 20
2.96090915E+02
  0
VERTEX
  8
0
 62
4
 10
-5.25806050E+01
 20
2.96131698E+02
  0
VERTEX
  8
0
 62
4
 10
-5.22461228E+01
 20
2.96183598E+02
  0
VERTEX
  8
0
 62
4
 10
-5.19249886E+01
 20
2.96246222E+02
  0
VERTEX
  8
0
 62
4
 10
-5.16196464E+01
 20
2.96319092E+02
  0
VERTEX
  8
0
 62
4
 10
-5.13324200E+01
 20
2.96401654E+02
  0
VERTEX
  8
0
 62
4
 10
-5.10654955E+01
 20
2.96493280E+02
  0
VERTEX
  8
0
 62
4
 10
-5.08209042E+01
 20
2.96593271E+02
  0
VERTEX
  8
0
 62
4
 10
-5.06005076E+01
 20
2.96700868E+02
  0
VERTEX
  8
0
 62
4
 10
-5.04059832E+01
 20
2.96815251E+02
  0
VERTEX
  8
0
 62
4
 10
-5.02388113E+01
 20
2.96935550E+02
  0
VERTEX
  8
0
 62
4
 10
-5.01002642E+01
 20
2.97060850E+02
  0
VERTEX
  8
0
 62
4
 10
-4.99913964E+01
 20
2.97190195E+02
  0
VERTEX
  8
0
 62
4
 10
-4.99130364E+01
 20
2.97322604E+02
  0
VERTEX
  8
0
 62
4
 10
-4.98657806E+01
 20
2.97457066E+02
  0
VERTEX
  8
0
 62
4
 10
-4.98499886E+01
 20
2.97592560E+02
  0
VERTEX
  8
0
 62
4
 10
-4.98657806E+01
 20
2.97728054E+02
  0
VERTEX
  8
0
 62
4
 10
-4.99130364E+01
 20
2.97862516E+02
  0
VERTEX
  8
0
 62
4
 10
-4.99913964E+01
 20
2.97994925E+02
  0
VERTEX
  8
0
 62
4
 10
-5.01002642E+01
 20
2.98124270E+02
  0
VERTEX
  8
0
 62
4
 10
-5.02388113E+01
 20
2.98249570E+02
  0
VERTEX
  8
0
 62
4
 10
-5.04059832E+01
 20
2.98369869E+02
  0
VERTEX
  8
0
 62
4
 10
-5.06005076E+01
 20
2.98484252E+02
  0
VERTEX
  8
0
 62
4
 10
-5.08209042E+01
 20
2.98591849E+02
  0
VERTEX
  8
0
 62
4
 10
-5.10654955E+01
 20
2.98691840E+02
  0
VERTEX
  8
0
 62
4
 10
-5.13324200E+01
 20
2.98783466E+02
  0
VERTEX
  8
0
 62
4
 10
-5.16196464E+01
 20
2.98866028E+02
  0
VERTEX
  8
0
 62
4
 10
-5.19249886E+01
 20
2.98938898E+02
  0
VERTEX
  8
0
 62
4
 10
-5.22461228E+01
 20
2.99001522E+02
  0
VERTEX
  8
0
 62
4
 10
-5.25806050E+01
 20
2.99053422E+02
  0
VERTEX
  8
0
 62
4
 10
-5.29258896E+01
 20
2.99094205E+02
  0
VERTEX
  8
0
 62
4
 10
-5.32793487E+01
 20
2.99123559E+02
  0
VERTEX
  8
0
 62
4
 10
-5.36382923E+01
 20
2.99141262E+02
  0
VERTEX
  8
0
 62
4
 10
-5.39999886E+01
 20
2.99147177E+02
  0
VERTEX
  8
0
 62
4
 10
-5.43616849E+01
 20
2.99141262E+02
  0
VERTEX
  8
0
 62
4
 10
-5.47206285E+01
 20
2.99123559E+02
  0
VERTEX
  8
0
 62
4
 10
-5.50740876E+01
 20
2.99094205E+02
  0
VERTEX
  8
0
 62
4
 10
-5.54193722E+01
 20
2.99053422E+02
  0
VERTEX
  8
0
 62
4
 10
-5.57538544E+01
 20
2.99001522E+02
  0
VERTEX
  8
0
 62
4
 10
-5.60749886E+01
 20
2.98938898E+02
  0
VERTEX
  8
0
 62
4
 10
-5.63803308E+01
 20
2.98866028E+02
  0
VERTEX
  8
0
 62
4
 10
-5.66675572E+01
 20
2.98783466E+02
  0
VERTEX
  8
0
 62
4
 10
-5.69344817E+01
 20
2.98691840E+02
  0
VERTEX
  8
0
 62
4
 10
-5.71790730E+01
 20
2.98591849E+02
  0
VERTEX
  8
0
 62
4
 10
-5.73994696E+01
 20
2.98484252E+02
  0
VERTEX
  8
0
 62
4
 10
-5.75939940E+01
 20
2.98369869E+02
  0
VERTEX
  8
0
 62
4
 10
-5.77611659E+01
 20
2.98249570E+02
  0
VERTEX
  8
0
 62
4
 10
-5.78997130E+01
 20
2.98124270E+02
  0
VERTEX
  8
0
 62
4
 10
-5.80085808E+01
 20
2.97994925E+02
  0
VERTEX
  8
0
 62
4
 10
-5.80869408E+01
 20
2.97862516E+02
  0
VERTEX
  8
0
 62
4
 10
-5.81341966E+01
 20
2.97728054E+02
  0
VERTEX
  8
0
 62
4
 10
-5.81499886E+01
 20
2.97592560E+02
  0
SEQEND
  8
0
  0
ARC
  8
0
 62
4
 10
-5.96166958E+01
 20
3.12012701E+02
 40
1.61228529E+01
 50
2.83811345E+02
 51
2.97258956E+02
  0
ARC
  8
0
 62
4
 10
-4.83832787E+01
 20
3.12012708E+02
 40
1.61228609E+01
 50
2.42741048E+02
 51
2.56188651E+02
  0
POLYLINE
  8
0
 62
4
 66
1
  0
VERTEX
  8
0
 62
4
 10
-5.02999886E+01
 20
3.00146086E+02
  0
VERTEX
  8
0
 62
4
 10
-5.04466312E+01
 20
3.00264792E+02
  0
VERTEX
  8
0
 62
4
 10
-5.06203499E+01
 20
3.00378255E+02
  0
VERTEX
  8
0
 62
4
 10
-5.08198210E+01
 20
3.00485610E+02
  0
VERTEX
  8
0
 62
4
 10
-5.10435246E+01
 20
3.00586040E+02
  0
VERTEX
  8
0
 62
4
 10
-5.12897562E+01
 20
3.00678780E+02
  0
VERTEX
  8
0
 62
4
 10
-5.15566393E+01
 20
3.00763121E+02
  0
VERTEX
  8
0
 62
4
 10
-5.18421405E+01
 20
3.00838423E+02
  0
VERTEX
  8
0
 62
4
 10
-5.21440842E+01
 20
3.00904111E+02
  0
VERTEX
  8
0
 62
4
 10
-5.24601697E+01
 20
3.00959684E+02
  0
VERTEX
  8
0
 62
4
 10
-5.27879884E+01
 20
3.01004719E+02
  0
VERTEX
  8
0
 62
4
 10
-5.31250424E+01
 20
3.01038873E+02
  0
VERTEX
  8
0
 62
4
 10
-5.34687634E+01
 20
3.01061886E+02
  0
VERTEX
  8
0
 62
4
 10
-5.38165323E+01
 20
3.01073583E+02
  0
VERTEX
  8
0
 62
4
 10
-5.41656991E+01
 20
3.01073873E+02
  0
VERTEX
  8
0
 62
4
 10
-5.45136032E+01
 20
3.01062755E+02
  0
VERTEX
  8
0
 62
4
 10
-5.48575936E+01
 20
3.01040314E+02
  0
VERTEX
  8
0
 62
4
 10
-5.51950491E+01
 20
3.01006721E+02
  0
VERTEX
  8
0
 62
4
 10
-5.55233985E+01
 20
3.00962232E+02
  0
VERTEX
  8
0
 62
4
 10
-5.58401396E+01
 20
3.00907185E+02
  0
VERTEX
  8
0
 62
4
 10
-5.61428590E+01
 20
3.00842000E+02
  0
VERTEX
  8
0
 62
4
 10
-5.64292500E+01
 20
3.00767174E+02
  0
VERTEX
  8
0
 62
4
 10
-5.66971304E+01
 20
3.00683277E+02
  0
VERTEX
  8
0
 62
4
 10
-5.69444588E+01
 20
3.00590948E+02
  0
VERTEX
  8
0
 62
4
 10
-5.71693508E+01
 20
3.00490892E+02
  0
VERTEX
  8
0
 62
4
 10
-5.73700926E+01
 20
3.00383869E+02
  0
VERTEX
  8
0
 62
4
 10
-5.75451546E+01
 20
3.00270696E+02
  0
VERTEX
  8
0
 62
4
 10
-5.76932029E+01
 20
3.00152235E+02
  0
VERTEX
  8
0
 62
4
 10
-5.78131093E+01
 20
3.00029389E+02
  0
VERTEX
  8
0
 62
4
 10
-5.79039602E+01
 20
2.99903094E+02
  0
VERTEX
  8
0
 62
4
 10
-5.79650634E+01
 20
2.99774312E+02
  0
VERTEX
  8
0
 62
4
 10
-5.79959532E+01
 20
2.99644024E+02
  0
SEQEND
  8
0
  0
LINE
  8
0
 62
4
 10
-4.98999886E+01
 20
2.99960672E+02
 11
-4.98999886E+01
 21
2.98482941E+02
  0
POLYLINE
  8
0
 62
4
 66
1
  0
VERTEX
  8
0
 62
4
 10
-4.30999886E+01
 20
2.99960672E+02
  0
VERTEX
  8
0
 62
4
 10
-4.31136760E+01
 20
3.00074842E+02
  0
VERTEX
  8
0
 62
4
 10
-4.31546280E+01
 20
3.00188093E+02
  0
VERTEX
  8
0
 62
4
 10
-4.32225149E+01
 20
3.00299513E+02
  0
VERTEX
  8
0
 62
4
 10
-4.33167900E+01
 20
3.00408205E+02
  0
VERTEX
  8
0
 62
4
 10
-4.34366944E+01
 20
3.00513293E+02
  0
VERTEX
  8
0
 62
4
 10
-4.35812627E+01
 20
3.00613933E+02
  0
VERTEX
  8
0
 62
4
 10
-4.37493308E+01
 20
3.00709312E+02
  0
VERTEX
  8
0
 62
4
 10
-4.39395456E+01
 20
3.00798664E+02
  0
VERTEX
  8
0
 62
4
 10
-4.41503756E+01
 20
3.00881269E+02
  0
VERTEX
  8
0
 62
4
 10
-4.43801233E+01
 20
3.00956461E+02
  0
VERTEX
  8
0
 62
4
 10
-4.46269388E+01
 20
3.01023637E+02
  0
VERTEX
  8
0
 62
4
 10
-4.48888351E+01
 20
3.01082253E+02
  0
VERTEX
  8
0
 62
4
 10
-4.51637035E+01
 20
3.01131840E+02
  0
VERTEX
  8
0
 62
4
 10
-4.54493308E+01
 20
3.01171997E+02
  0
VERTEX
  8
0
 62
4
 10
-4.57434174E+01
 20
3.01202401E+02
  0
VERTEX
  8
0
 62
4
 10
-4.60435955E+01
 20
3.01222807E+02
  0
VERTEX
  8
0
 62
4
 10
-4.63474482E+01
 20
3.01233052E+02
  0
VERTEX
  8
0
 62
4
 10
-4.66525290E+01
 20
3.01233052E+02
  0
VERTEX
  8
0
 62
4
 10
-4.69563817E+01
 20
3.01222807E+02
  0
VERTEX
  8
0
 62
4
 10
-4.72565598E+01
 20
3.01202401E+02
  0
VERTEX
  8
0
 62
4
 10
-4.75506464E+01
 20
3.01171997E+02
  0
VERTEX
  8
0
 62
4
 10
-4.78362737E+01
 20
3.01131840E+02
  0
VERTEX
  8
0
 62
4
 10
-4.81111420E+01
 20
3.01082253E+02
  0
VERTEX
  8
0
 62
4
 10
-4.83730383E+01
 20
3.01023637E+02
  0
VERTEX
  8
0
 62
4
 10
-4.86198539E+01
 20
3.00956461E+02
  0
VERTEX
  8
0
 62
4
 10
-4.88496016E+01
 20
3.00881269E+02
  0
VERTEX
  8
0
 62
4
 10
-4.90604316E+01
 20
3.00798664E+02
  0
VERTEX
  8
0
 62
4
 10
-4.92506464E+01
 20
3.00709312E+02
  0
VERTEX
  8
0
 62
4
 10
-4.94187145E+01
 20
3.00613933E+02
  0
VERTEX
  8
0
 62
4
 10
-4.95632827E+01
 20
3.00513293E+02
  0
VERTEX
  8
0
 62
4
 10
-4.96831872E+01
 20
3.00408205E+02
  0
VERTEX
  8
0
 62
4
 10
-4.97774623E+01
 20
3.00299513E+02
  0
VERTEX
  8
0
 62
4
 10
-4.98453492E+01
 20
3.00188093E+02
  0
VERTEX
  8
0
 62
4
 10
-4.98863012E+01
 20
3.00074842E+02
  0
VERTEX
  8
0
 62
4
 10
-4.98999886E+01
 20
2.99960672E+02
  0
SEQEND
  8
0
  0
POLYLINE
  8
0
 62
4
 66
1
  0
VERTEX
  8
0
 62
4
 10
-4.30999886E+01
 20
2.98912955E+02
  0
VERTEX
  8
0
 62
4
 10
-4.31136760E+01
 20
2.99027125E+02
  0
VERTEX
  8
0
 62
4
 10
-4.31546280E+01
 20
2.99140376E+02
  0
VERTEX
  8
0
 62
4
 10
-4.32225149E+01
 20
2.99251796E+02
  0
VERTEX
  8
0
 62
4
 10
-4.33167900E+01
 20
2.99360488E+02
  0
VERTEX
  8
0
 62
4
 10
-4.34366944E+01
 20
2.99465576E+02
  0
VERTEX
  8
0
 62
4
 10
-4.35812627E+01
 20
2.99566216E+02
  0
VERTEX
  8
0
 62
4
 10
-4.37493308E+01
 20
2.99661595E+02
  0
VERTEX
  8
0
 62
4
 10
-4.39395456E+01
 20
2.99750947E+02
  0
VERTEX
  8
0
 62
4
 10
-4.41503756E+01
 20
2.99833552E+02
  0
VERTEX
  8
0
 62
4
 10
-4.43801233E+01
 20
2.99908744E+02
  0
VERTEX
  8
0
 62
4
 10
-4.46269388E+01
 20
2.99975920E+02
  0
VERTEX
  8
0
 62
4
 10
-4.48888351E+01
 20
3.00034536E+02
  0
VERTEX
  8
0
 62
4
 10
-4.51637035E+01
 20
3.00084123E+02
  0
VERTEX
  8
0
 62
4
 10
-4.54493308E+01
 20
3.00124280E+02
  0
VERTEX
  8
0
 62
4
 10
-4.57434174E+01
 20
3.00154684E+02
  0
VERTEX
  8
0
 62
4
 10
-4.60435955E+01
 20
3.00175090E+02
  0
VERTEX
  8
0
 62
4
 10
-4.63474482E+01
 20
3.00185335E+02
  0
VERTEX
  8
0
 62
4
 10
-4.66525290E+01
 20
3.00185335E+02
  0
VERTEX
  8
0
 62
4
 10
-4.69563817E+01
 20
3.00175090E+02
  0
VERTEX
  8
0
 62
4
 10
-4.72565598E+01
 20
3.00154684E+02
  0
VERTEX
  8
0
 62
4
 10
-4.75506464E+01
 20
3.00124280E+02
  0
VERTEX
  8
0
 62
4
 10
-4.78362737E+01
 20
3.00084123E+02
  0
VERTEX
  8
0
 62
4
 10
-4.81111420E+01
 20
3.00034536E+02
  0
VERTEX
  8
0
 62
4
 10
-4.83730383E+01
 20
2.99975920E+02
  0
VERTEX
  8
0
 62
4
 10
-4.86198539E+01
 20
2.99908744E+02
  0
VERTEX
  8
0
 62
4
 10
-4.88496016E+01
 20
2.99833552E+02
  0
VERTEX
  8
0
 62
4
 10
-4.90604316E+01
 20
2.99750947E+02
  0
VERTEX
  8
0
 62
4
 10
-4.92506464E+01
 20
2.99661595E+02
  0
VERTEX
  8
0
 62
4
 10
-4.94187145E+01
 20
2.99566216E+02
  0
VERTEX
  8
0
 62
4
 10
-4.95632827E+01
 20
2.99465576E+02
  0
VERTEX
  8
0
 62
4
 10
-4.96831872E+01
 20
2.99360488E+02
  0
VERTEX
  8
0
 62
4
 10
-4.97774623E+01
 20
2.99251796E+02
  0
VERTEX
  8
0
 62
4
 10
-4.98453492E+01
 20
2.99140376E+02
  0
VERTEX
  8
0
 62
4
 10
-4.98863012E+01
 20
2.99027125E+02
  0
VERTEX
  8
0
 62
4
 10
-4.98999886E+01
 20
2.98912955E+02
  0
SEQEND
  8
0
  0
LINE
  8
0
 62
4
 10
-4.30999886E+01
 20
2.98482941E+02
 11
-4.30999886E+01
 21
2.99960672E+02
  0
ARC
  8
0
 62
4
 10
-4.40999882E+01
 20
2.98482941E+02
 40
1.00000000E+00
 50
2.82827510E+02
 51
0.00000000E+00
  0
ARC
  8
0
 62
4
 10
-4.88999889E+01
 20
2.98482941E+02
 40
1.00000000E+00
 50
1.80000000E+02
 51
2.57172490E+02
  0
ARC
  8
0
 62
4
 10
-5.18873734E+01
 20
3.12239696E+02
 40
1.54729912E+01
 50
2.83783165E+02
 51
2.97543924E+02
  0
ARC
  8
0
 62
4
 10
-4.11126033E+01
 20
3.12239697E+02
 40
1.54729926E+01
 50
2.42456077E+02
 51
2.56216834E+02
  0
LINE
  8
0
 62
4
 10
-4.26999886E+01
 20
3.00887856E+02
 11
-4.26999886E+01
 21
2.99960672E+02
  0
LINE
  8
0
 62
4
 10
-5.02999886E+01
 20
3.00887856E+02
 11
-5.02999886E+01
 21
2.99960672E+02
  0
POLYLINE
  8
0
 62
4
 66
1
  0
VERTEX
  8
0
 62
4
 10
-4.26999886E+01
 20
3.00887856E+02
  0
VERTEX
  8
0
 62
4
 10
-4.27152863E+01
 20
3.01015458E+02
  0
VERTEX
  8
0
 62
4
 10
-4.27610562E+01
 20
3.01142033E+02
  0
VERTEX
  8
0
 62
4
 10
-4.28369297E+01
 20
3.01266561E+02
  0
VERTEX
  8
0
 62
4
 10
-4.29422961E+01
 20
3.01388040E+02
  0
VERTEX
  8
0
 62
4
 10
-4.30763069E+01
 20
3.01505492E+02
  0
VERTEX
  8
0
 62
4
 10
-4.32378832E+01
 20
3.01617971E+02
  0
VERTEX
  8
0
 62
4
 10
-4.34257240E+01
 20
3.01724571E+02
  0
VERTEX
  8
0
 62
4
 10
-4.36383170E+01
 20
3.01824435E+02
  0
VERTEX
  8
0
 62
4
 10
-4.38739505E+01
 20
3.01916758E+02
  0
VERTEX
  8
0
 62
4
 10
-4.41307273E+01
 20
3.02000797E+02
  0
VERTEX
  8
0
 62
4
 10
-4.44065801E+01
 20
3.02075875E+02
  0
VERTEX
  8
0
 62
4
 10
-4.46992877E+01
 20
3.02141388E+02
  0
VERTEX
  8
0
 62
4
 10
-4.50064935E+01
 20
3.02196808E+02
  0
VERTEX
  8
0
 62
4
 10
-4.53257240E+01
 20
3.02241690E+02
  0
VERTEX
  8
0
 62
4
 10
-4.56544090E+01
 20
3.02275671E+02
  0
VERTEX
  8
0
 62
4
 10
-4.59899022E+01
 20
3.02298478E+02
  0
VERTEX
  8
0
 62
4
 10
-4.63295022E+01
 20
3.02309928E+02
  0
VERTEX
  8
0
 62
4
 10
-4.66704749E+01
 20
3.02309928E+02
  0
VERTEX
  8
0
 62
4
 10
-4.70100750E+01
 20
3.02298478E+02
  0
VERTEX
  8
0
 62
4
 10
-4.73455681E+01
 20
3.02275671E+02
  0
VERTEX
  8
0
 62
4
 10
-4.76742532E+01
 20
3.02241690E+02
  0
VERTEX
  8
0
 62
4
 10
-4.79934837E+01
 20
3.02196808E+02
  0
VERTEX
  8
0
 62
4
 10
-4.83006895E+01
 20
3.02141388E+02
  0
VERTEX
  8
0
 62
4
 10
-4.85933971E+01
 20
3.02075875E+02
  0
VERTEX
  8
0
 62
4
 10
-4.88692498E+01
 20
3.02000797E+02
  0
VERTEX
  8
0
 62
4
 10
-4.91260266E+01
 20
3.01916758E+02
  0
VERTEX
  8
0
 62
4
 10
-4.93616602E+01
 20
3.01824435E+02
  0
VERTEX
  8
0
 62
4
 10
-4.95742532E+01
 20
3.01724571E+02
  0
VERTEX
  8
0
 62
4
 10
-4.97620940E+01
 20
3.01617971E+02
  0
VERTEX
  8
0
 62
4
 10
-4.99236703E+01
 20
3.01505492E+02
  0
VERTEX
  8
0
 62
4
 10
-5.00576811E+01
 20
3.01388040E+02
  0
VERTEX
  8
0
 62
4
 10
-5.01630475E+01
 20
3.01266561E+02
  0
VERTEX
  8
0
 62
4
 10
-5.02389210E+01
 20
3.01142033E+02
  0
VERTEX
  8
0
 62
4
 10
-5.02846909E+01
 20
3.01015458E+02
  0
VERTEX
  8
0
 62
4
 10
-5.02999886E+01
 20
3.00887856E+02
  0
SEQEND
  8
0
  0
POLYLINE
  8
0
 62
4
 66
1
  0
VERTEX
  8
0
 62
4
 10
-4.30999886E+01
 20
2.99324944E+02
  0
VERTEX
  8
0
 62
4
 10
-4.29634069E+01
 20
2.99439903E+02
  0
VERTEX
  8
0
 62
4
 10
-4.28544591E+01
 20
2.99558931E+02
  0
VERTEX
  8
0
 62
4
 10
-4.27739963E+01
 20
2.99681099E+02
  0
VERTEX
  8
0
 62
4
 10
-4.27226473E+01
 20
2.99805451E+02
  0
VERTEX
  8
0
 62
4
 10
-4.27008133E+01
 20
2.99931016E+02
  0
VERTEX
  8
0
 62
4
 10
-4.27086650E+01
 20
3.00056812E+02
  0
VERTEX
  8
0
 62
4
 10
-4.27461410E+01
 20
3.00181857E+02
  0
VERTEX
  8
0
 62
4
 10
-4.28129484E+01
 20
3.00305175E+02
  0
VERTEX
  8
0
 62
4
 10
-4.29085652E+01
 20
3.00425800E+02
  0
VERTEX
  8
0
 62
4
 10
-4.30322444E+01
 20
3.00542791E+02
  0
VERTEX
  8
0
 62
4
 10
-4.31830195E+01
 20
3.00655233E+02
  0
VERTEX
  8
0
 62
4
 10
-4.33597124E+01
 20
3.00762248E+02
  0
VERTEX
  8
0
 62
4
 10
-4.35609424E+01
 20
3.00863000E+02
  0
VERTEX
  8
0
 62
4
 10
-4.37851374E+01
 20
3.00956702E+02
  0
VERTEX
  8
0
 62
4
 10
-4.40305453E+01
 20
3.01042621E+02
  0
VERTEX
  8
0
 62
4
 10
-4.42952488E+01
 20
3.01120085E+02
  0
VERTEX
  8
0
 62
4
 10
-4.45771794E+01
 20
3.01188491E+02
  0
VERTEX
  8
0
 62
4
 10
-4.48741343E+01
 20
3.01247302E+02
  0
VERTEX
  8
0
 62
4
 10
-4.51837932E+01
 20
3.01296061E+02
  0
VERTEX
  8
0
 62
4
 10
-4.55037364E+01
 20
3.01334385E+02
  0
VERTEX
  8
0
 62
4
 10
-4.58314640E+01
 20
3.01361975E+02
  0
VERTEX
  8
0
 62
4
 10
-4.61644153E+01
 20
3.01378616E+02
  0
VERTEX
  8
0
 62
4
 10
-4.64999886E+01
 20
3.01384177E+02
  0
VERTEX
  8
0
 62
4
 10
-4.68355620E+01
 20
3.01378616E+02
  0
VERTEX
  8
0
 62
4
 10
-4.71685132E+01
 20
3.01361975E+02
  0
VERTEX
  8
0
 62
4
 10
-4.74962409E+01
 20
3.01334385E+02
  0
VERTEX
  8
0
 62
4
 10
-4.78161841E+01
 20
3.01296061E+02
  0
VERTEX
  8
0
 62
4
 10
-4.81258429E+01
 20
3.01247302E+02
  0
VERTEX
  8
0
 62
4
 10
-4.84227978E+01
 20
3.01188491E+02
  0
VERTEX
  8
0
 62
4
 10
-4.87047284E+01
 20
3.01120085E+02
  0
VERTEX
  8
0
 62
4
 10
-4.89694319E+01
 20
3.01042621E+02
  0
VERTEX
  8
0
 62
4
 10
-4.92148399E+01
 20
3.00956702E+02
  0
VERTEX
  8
0
 62
4
 10
-4.94390348E+01
 20
3.00863000E+02
  0
VERTEX
  8
0
 62
4
 10
-4.96402649E+01
 20
3.00762248E+02
  0
VERTEX
  8
0
 62
4
 10
-4.98169578E+01
 20
3.00655233E+02
  0
VERTEX
  8
0
 62
4
 10
-4.99677328E+01
 20
3.00542791E+02
  0
VERTEX
  8
0
 62
4
 10
-5.00914120E+01
 20
3.00425800E+02
  0
VERTEX
  8
0
 62
4
 10
-5.01870288E+01
 20
3.00305175E+02
  0
VERTEX
  8
0
 62
4
 10
-5.02538362E+01
 20
3.00181857E+02
  0
VERTEX
  8
0
 62
4
 10
-5.02913122E+01
 20
3.00056812E+02
  0
VERTEX
  8
0
 62
4
 10
-5.02991639E+01
 20
2.99931016E+02
  0
VERTEX
  8
0
 62
4
 10
-5.02773299E+01
 20
2.99805451E+02
  0
VERTEX
  8
0
 62
4
 10
-5.02259809E+01
 20
2.99681099E+02
  0
VERTEX
  8
0
 62
4
 10
-5.01455181E+01
 20
2.99558931E+02
  0
VERTEX
  8
0
 62
4
 10
-5.00365703E+01
 20
2.99439903E+02
  0
VERTEX
  8
0
 62
4
 10
-4.98999886E+01
 20
2.99324944E+02
  0
SEQEND
  8
0
  0
ARC
  8
0
 62
4
 10
-4.64999886E+01
 20
3.04378493E+02
 40
7.36533796E+00
 50
2.47849417E+02
 51
2.92150583E+02
  0
LINE
  8
0
  6
CENTER
 62
6
 10
-6.39999886E+01
 20
3.00887856E+02
 11
-5.89999886E+01
 21
3.00887856E+02
  0
LINE
  8
0
  6
CENTER
 62
6
 10
-5.39999886E+01
 20
3.02076733E+02
 11
-5.39999886E+01
 21
2.97076733E+02
  0
LINE
  8
0
  6
CENTER
 62
6
 10
-5.64999886E+01
 20
2.99576733E+02
 11
-5.14999886E+01
 21
2.99576733E+02
  0
LINE
  8
0
  6
CENTER
 62
6
 10
-4.64999886E+01
 20
3.03387856E+02
 11
-4.64999886E+01
 21
2.98387856E+02
  0
LINE
  8
0
  6
CENTER
 62
6
 10
-4.89999886E+01
 20
3.00887856E+02
 11
-4.39999886E+01
 21
3.00887856E+02
  0
LINE
  8
0
 62
4
 10
-5.08512439E+01
 20
2.96579880E+02
 11
-3.89999886E+01
 21
2.96579880E+02
  0
LINE
  8
0
 62
4
 10
-6.89999886E+01
 20
3.02013673E+02
 11
-7.04999886E+01
 21
3.00885751E+02
  0
LINE
  8
0
 62
4
 10
-7.04999886E+01
 20
2.98785679E+02
 11
-6.89999886E+01
 21
2.98304937E+02
  0
LINE
  8
0
 62
4
 10
-7.04999886E+01
 20
2.97937195E+02
 11
-6.89999886E+01
 21
2.96806511E+02
  0
LINE
  8
0
 62
4
 10
-6.89999886E+01
 20
2.98304937E+02
 11
-5.81499886E+01
 21
2.98304937E+02
  0
LINE
  8
0
 62
4
 10
-6.89999886E+01
 20
2.96806511E+02
 11
-5.75804222E+01
 21
2.96806511E+02
  0
LINE
  8
0
 62
4
 10
-6.89999886E+01
 20
2.98677677E+02
 11
-5.81499886E+01
 21
2.98677677E+02
  0
LINE
  8
0
 62
4
 10
-4.39999886E+01
 20
2.96954487E+02
 11
-3.89999886E+01
 21
2.96954487E+02
  0
LINE
  8
0
 62
4
 10
-4.30999886E+01
 20
2.98677677E+02
 11
-3.89999886E+01
 21
2.98677677E+02
  0
LINE
  8
0
 62
4
 10
-5.04195549E+01
 20
2.96806511E+02
 11
-4.39999886E+01
 21
2.96806511E+02
  0
LINE
  8
0
 62
4
 10
-6.89999886E+01
 20
2.96806511E+02
 11
-6.89999886E+01
 21
2.96579880E+02
  0
LINE
  8
0
 62
4
 10
-6.89999886E+01
 20
2.98677677E+02
 11
-6.89999886E+01
 21
2.96806511E+02
  0
LINE
  8
0
 62
7
 10
-5.39999886E+01
 20
3.24000000E+02
 11
-8.29999886E+01
 21
3.24000000E+02
  0
LINE
  8
0
 62
7
 10
-5.39999886E+01
 20
3.20000000E+02
 11
-8.29999886E+01
 21
3.20000000E+02
  0
LINE
  8
0
 62
7
 10
-6.89999886E+01
 20
3.11000000E+02
 11
-8.29999886E+01
 21
3.11000000E+02
  0
LINE
  8
0
 62
7
 10
-1.00000114E+01
 20
2.50000000E+02
 11
-8.29999886E+01
 21
2.50000000E+02
  0
LINE
  8
0
 62
7
 10
-1.00000114E+01
 20
2.41000000E+02
 11
-8.29999886E+01
 21
2.41000000E+02
  0
LINE
  8
0
 62
7
 10
-1.00000114E+01
 20
2.36999969E+02
 11
-8.29999886E+01
 21
2.36999969E+02
  0
LINE
  8
0
 62
4
 10
-8.10000191E+01
 20
-2.62318859E+02
 11
-8.10000191E+01
 21
-2.75318859E+02
  0
ARC
  8
0
 62
4
 10
-8.05000148E+01
 20
-2.62318864E+02
 40
5.00004272E-01
 50
9.00004895E+01
 51
1.79999510E+02
  0
LINE
  8
0
 62
4
 10
-7.15000191E+01
 20
-2.61818859E+02
 11
-8.05000191E+01
 21
-2.61818859E+02
  0
LINE
  8
0
 62
4
 10
-9.10000191E+01
 20
-2.75731826E+02
 11
-8.60000191E+01
 21
-2.75731826E+02
  0
LINE
  8
0
 62
4
 10
-9.10000191E+01
 20
-2.62827189E+02
 11
-8.60000191E+01
 21
-2.62827189E+02
  0
LINE
  8
0
 62
4
 10
-9.10000191E+01
 20
-2.69740180E+02
 11
-8.60000191E+01
 21
-2.69740180E+02
  0
POLYLINE
  8
0
 62
4
 66
1
  0
VERTEX
  8
0
 62
4
 10
-6.06000191E+01
 20
-2.91335177E+02
  0
VERTEX
  8
0
 62
4
 10
-6.06129571E+01
 20
-2.91055514E+02
  0
VERTEX
  8
0
 62
4
 10
-6.06516727E+01
 20
-2.90777980E+02
  0
VERTEX
  8
0
 62
4
 10
-6.07158713E+01
 20
-2.90504687E+02
  0
VERTEX
  8
0
 62
4
 10
-6.08050642E+01
 20
-2.90237714E+02
  0
VERTEX
  8
0
 62
4
 10
-6.09185726E+01
 20
-2.89979093E+02
  0
VERTEX
  8
0
 62
4
 10
-6.10555327E+01
 20
-2.89730793E+02
  0
VERTEX
  8
0
 62
4
 10
-6.12149021E+01
 20
-2.89494704E+02
  0
VERTEX
  8
0
 62
4
 10
-6.13954680E+01
 20
-2.89272621E+02
  0
VERTEX
  8
0
 62
4
 10
-6.15958560E+01
 20
-2.89066236E+02
  0
VERTEX
  8
0
 62
4
 10
-6.18145412E+01
 20
-2.88877119E+02
  0
VERTEX
  8
0
 62
4
 10
-6.20498592E+01
 20
-2.88706709E+02
  0
VERTEX
  8
0
 62
4
 10
-6.23000191E+01
 20
-2.88556303E+02
  0
VERTEX
  8
0
 62
4
 10
-6.25631170E+01
 20
-2.88427046E+02
  0
VERTEX
  8
0
 62
4
 10
-6.28371506E+01
 20
-2.88319922E+02
  0
VERTEX
  8
0
 62
4
 10
-6.31200343E+01
 20
-2.88235746E+02
  0
VERTEX
  8
0
 62
4
 10
-6.34096153E+01
 20
-2.88175158E+02
  0
VERTEX
  8
0
 62
4
 10
-6.37036896E+01
 20
-2.88138620E+02
  0
VERTEX
  8
0
 62
4
 10
-6.40000191E+01
 20
-2.88126410E+02
  0
VERTEX
  8
0
 62
4
 10
-6.42963486E+01
 20
-2.88138620E+02
  0
VERTEX
  8
0
 62
4
 10
-6.45904229E+01
 20
-2.88175158E+02
  0
VERTEX
  8
0
 62
4
 10
-6.48800039E+01
 20
-2.88235746E+02
  0
VERTEX
  8
0
 62
4
 10
-6.51628876E+01
 20
-2.88319922E+02
  0
VERTEX
  8
0
 62
4
 10
-6.54369212E+01
 20
-2.88427046E+02
  0
VERTEX
  8
0
 62
4
 10
-6.57000191E+01
 20
-2.88556303E+02
  0
VERTEX
  8
0
 62
4
 10
-6.59501790E+01
 20
-2.88706709E+02
  0
VERTEX
  8
0
 62
4
 10
-6.61854970E+01
 20
-2.88877119E+02
  0
VERTEX
  8
0
 62
4
 10
-6.64041822E+01
 20
-2.89066236E+02
  0
VERTEX
  8
0
 62
4
 10
-6.66045702E+01
 20
-2.89272621E+02
  0
VERTEX
  8
0
 62
4
 10
-6.67851361E+01
 20
-2.89494704E+02
  0
VERTEX
  8
0
 62
4
 10
-6.69445055E+01
 20
-2.89730793E+02
  0
VERTEX
  8
0
 62
4
 10
-6.70814656E+01
 20
-2.89979093E+02
  0
VERTEX
  8
0
 62
4
 10
-6.71949740E+01
 20
-2.90237714E+02
  0
VERTEX
  8
0
 62
4
 10
-6.72841669E+01
 20
-2.90504687E+02
  0
VERTEX
  8
0
 62
4
 10
-6.73483655E+01
 20
-2.90777980E+02
  0
VERTEX
  8
0
 62
4
 10
-6.73870811E+01
 20
-2.91055514E+02
  0
VERTEX
  8
0
 62
4
 10
-6.74000191E+01
 20
-2.91335177E+02
  0
VERTEX
  8
0
 62
4
 10
-6.73870811E+01
 20
-2.91614840E+02
  0
VERTEX
  8
0
 62
4
 10
-6.73483655E+01
 20
-2.91892374E+02
  0
VERTEX
  8
0
 62
4
 10
-6.72841669E+01
 20
-2.92165667E+02
  0
VERTEX
  8
0
 62
4
 10
-6.71949740E+01
 20
-2.92432640E+02
  0
VERTEX
  8
0
 62
4
 10
-6.70814656E+01
 20
-2.92691261E+02
  0
VERTEX
  8
0
 62
4
 10
-6.69445055E+01
 20
-2.92939561E+02
  0
VERTEX
  8
0
 62
4
 10
-6.67851360E+01
 20
-2.93175650E+02
  0
VERTEX
  8
0
 62
4
 10
-6.66045702E+01
 20
-2.93397733E+02
  0
VERTEX
  8
0
 62
4
 10
-6.64041822E+01
 20
-2.93604118E+02
  0
VERTEX
  8
0
 62
4
 10
-6.61854970E+01
 20
-2.93793235E+02
  0
VERTEX
  8
0
 62
4
 10
-6.59501790E+01
 20
-2.93963645E+02
  0
VERTEX
  8
0
 62
4
 10
-6.57000191E+01
 20
-2.94114051E+02
  0
VERTEX
  8
0
 62
4
 10
-6.54369212E+01
 20
-2.94243308E+02
  0
VERTEX
  8
0
 62
4
 10
-6.51628876E+01
 20
-2.94350432E+02
  0
VERTEX
  8
0
 62
4
 10
-6.48800038E+01
 20
-2.94434608E+02
  0
VERTEX
  8
0
 62
4
 10
-6.45904229E+01
 20
-2.94495196E+02
  0
VERTEX
  8
0
 62
4
 10
-6.42963486E+01
 20
-2.94531734E+02
  0
VERTEX
  8
0
 62
4
 10
-6.40000191E+01
 20
-2.94543944E+02
  0
VERTEX
  8
0
 62
4
 10
-6.37036896E+01
 20
-2.94531734E+02
  0
VERTEX
  8
0
 62
4
 10
-6.34096153E+01
 20
-2.94495196E+02
  0
VERTEX
  8
0
 62
4
 10
-6.31200343E+01
 20
-2.94434608E+02
  0
VERTEX
  8
0
 62
4
 10
-6.28371506E+01
 20
-2.94350432E+02
  0
VERTEX
  8
0
 62
4
 10
-6.25631170E+01
 20
-2.94243308E+02
  0
VERTEX
  8
0
 62
4
 10
-6.23000191E+01
 20
-2.94114051E+02
  0
VERTEX
  8
0
 62
4
 10
-6.20498592E+01
 20
-2.93963645E+02
  0
VERTEX
  8
0
 62
4
 10
-6.18145412E+01
 20
-2.93793235E+02
  0
VERTEX
  8
0
 62
4
 10
-6.15958560E+01
 20
-2.93604118E+02
  0
VERTEX
  8
0
 62
4
 10
-6.13954680E+01
 20
-2.93397733E+02
  0
VERTEX
  8
0
 62
4
 10
-6.12149021E+01
 20
-2.93175650E+02
  0
VERTEX
  8
0
 62
4
 10
-6.10555327E+01
 20
-2.92939561E+02
  0
VERTEX
  8
0
 62
4
 10
-6.09185726E+01
 20
-2.92691261E+02
  0
VERTEX
  8
0
 62
4
 10
-6.08050642E+01
 20
-2.92432640E+02
  0
VERTEX
  8
0
 62
4
 10
-6.07158713E+01
 20
-2.92165667E+02
  0
VERTEX
  8
0
 62
4
 10
-6.06516727E+01
 20
-2.91892374E+02
  0
VERTEX
  8
0
 62
4
 10
-6.06129571E+01
 20
-2.91614839E+02
  0
VERTEX
  8
0
 62
4
 10
-6.06000191E+01
 20
-2.91335177E+02
  0
SEQEND
  8
0
  0
POLYLINE
  8
0
 62
4
 66
1
  0
VERTEX
  8
0
 62
4
 10
-6.73806891E+01
 20
-2.91676837E+02
  0
VERTEX
  8
0
 62
4
 10
-6.73994439E+01
 20
-2.91952525E+02
  0
VERTEX
  8
0
 62
4
 10
-6.73917179E+01
 20
-2.92228661E+02
  0
VERTEX
  8
0
 62
4
 10
-6.73575713E+01
 20
-2.92503095E+02
  0
VERTEX
  8
0
 62
4
 10
-6.72972701E+01
 20
-2.92773688E+02
  0
VERTEX
  8
0
 62
4
 10
-6.72112840E+01
 20
-2.93038333E+02
  0
VERTEX
  8
0
 62
4
 10
-6.71002829E+01
 20
-2.93294969E+02
  0
VERTEX
  8
0
 62
4
 10
-6.69651314E+01
 20
-2.93541595E+02
  0
VERTEX
  8
0
 62
4
 10
-6.68068823E+01
 20
-2.93776292E+02
  0
VERTEX
  8
0
 62
4
 10
-6.66267684E+01
 20
-2.93997230E+02
  0
VERTEX
  8
0
 62
4
 10
-6.64261926E+01
 20
-2.94202689E+02
  0
VERTEX
  8
0
 62
4
 10
-6.62067175E+01
 20
-2.94391068E+02
  0
VERTEX
  8
0
 62
4
 10
-6.59700527E+01
 20
-2.94560899E+02
  0
VERTEX
  8
0
 62
4
 10
-6.57180418E+01
 20
-2.94710861E+02
  0
VERTEX
  8
0
 62
4
 10
-6.54526478E+01
 20
-2.94839784E+02
  0
VERTEX
  8
0
 62
4
 10
-6.51759382E+01
 20
-2.94946664E+02
  0
VERTEX
  8
0
 62
4
 10
-6.48900685E+01
 20
-2.95030669E+02
  0
VERTEX
  8
0
 62
4
 10
-6.45972654E+01
 20
-2.95091145E+02
  0
VERTEX
  8
0
 62
4
 10
-6.42998099E+01
 20
-2.95127620E+02
  0
VERTEX
  8
0
 62
4
 10
-6.40000191E+01
 20
-2.95139809E+02
  0
VERTEX
  8
0
 62
4
 10
-6.37002283E+01
 20
-2.95127620E+02
  0
VERTEX
  8
0
 62
4
 10
-6.34027728E+01
 20
-2.95091145E+02
  0
VERTEX
  8
0
 62
4
 10
-6.31099698E+01
 20
-2.95030669E+02
  0
VERTEX
  8
0
 62
4
 10
-6.28241000E+01
 20
-2.94946664E+02
  0
VERTEX
  8
0
 62
4
 10
-6.25473904E+01
 20
-2.94839784E+02
  0
VERTEX
  8
0
 62
4
 10
-6.22819964E+01
 20
-2.94710861E+02
  0
VERTEX
  8
0
 62
4
 10
-6.20299855E+01
 20
-2.94560899E+02
  0
VERTEX
  8
0
 62
4
 10
-6.17933207E+01
 20
-2.94391068E+02
  0
VERTEX
  8
0
 62
4
 10
-6.15738456E+01
 20
-2.94202689E+02
  0
VERTEX
  8
0
 62
4
 10
-6.13732698E+01
 20
-2.93997230E+02
  0
VERTEX
  8
0
 62
4
 10
-6.11931559E+01
 20
-2.93776292E+02
  0
VERTEX
  8
0
 62
4
 10
-6.10349068E+01
 20
-2.93541595E+02
  0
VERTEX
  8
0
 62
4
 10
-6.08997553E+01
 20
-2.93294969E+02
  0
VERTEX
  8
0
 62
4
 10
-6.07887542E+01
 20
-2.93038333E+02
  0
VERTEX
  8
0
 62
4
 10
-6.07027681E+01
 20
-2.92773688E+02
  0
VERTEX
  8
0
 62
4
 10
-6.06424669E+01
 20
-2.92503095E+02
  0
VERTEX
  8
0
 62
4
 10
-6.06083203E+01
 20
-2.92228661E+02
  0
VERTEX
  8
0
 62
4
 10
-6.06005943E+01
 20
-2.91952525E+02
  0
VERTEX
  8
0
 62
4
 10
-6.06193491E+01
 20
-2.91676837E+02
  0
SEQEND
  8
0
  0
POLYLINE
  8
0
 62
4
 66
1
  0
VERTEX
  8
0
 62
4
 10
-6.79986112E+01
 20
-2.92107775E+02
  0
VERTEX
  8
0
 62
4
 10
-6.79922821E+01
 20
-2.92434360E+02
  0
VERTEX
  8
0
 62
4
 10
-6.79545350E+01
 20
-2.92759144E+02
  0
VERTEX
  8
0
 62
4
 10
-6.78856670E+01
 20
-2.93079571E+02
  0
VERTEX
  8
0
 62
4
 10
-6.77862201E+01
 20
-2.93393118E+02
  0
VERTEX
  8
0
 62
4
 10
-6.76569768E+01
 20
-2.93697319E+02
  0
VERTEX
  8
0
 62
4
 10
-6.74989544E+01
 20
-2.93989779E+02
  0
VERTEX
  8
0
 62
4
 10
-6.73133963E+01
 20
-2.94268198E+02
  0
VERTEX
  8
0
 62
4
 10
-6.71017629E+01
 20
-2.94530383E+02
  0
VERTEX
  8
0
 62
4
 10
-6.68657197E+01
 20
-2.94774271E+02
  0
VERTEX
  8
0
 62
4
 10
-6.66071242E+01
 20
-2.94997944E+02
  0
VERTEX
  8
0
 62
4
 10
-6.63280115E+01
 20
-2.95199641E+02
  0
VERTEX
  8
0
 62
4
 10
-6.60305782E+01
 20
-2.95377774E+02
  0
VERTEX
  8
0
 62
4
 10
-6.57171650E+01
 20
-2.95530942E+02
  0
VERTEX
  8
0
 62
4
 10
-6.53902384E+01
 20
-2.95657940E+02
  0
VERTEX
  8
0
 62
4
 10
-6.50523711E+01
 20
-2.95757768E+02
  0
VERTEX
  8
0
 62
4
 10
-6.47062221E+01
 20
-2.95829640E+02
  0
VERTEX
  8
0
 62
4
 10
-6.43545155E+01
 20
-2.95872990E+02
  0
VERTEX
  8
0
 62
4
 10
-6.40000191E+01
 20
-2.95887478E+02
  0
VERTEX
  8
0
 62
4
 10
-6.36455227E+01
 20
-2.95872990E+02
  0
VERTEX
  8
0
 62
4
 10
-6.32938161E+01
 20
-2.95829640E+02
  0
VERTEX
  8
0
 62
4
 10
-6.29476671E+01
 20
-2.95757768E+02
  0
VERTEX
  8
0
 62
4
 10
-6.26097998E+01
 20
-2.95657940E+02
  0
VERTEX
  8
0
 62
4
 10
-6.22828732E+01
 20
-2.95530942E+02
  0
VERTEX
  8
0
 62
4
 10
-6.19694600E+01
 20
-2.95377774E+02
  0
VERTEX
  8
0
 62
4
 10
-6.16720267E+01
 20
-2.95199641E+02
  0
VERTEX
  8
0
 62
4
 10
-6.13929140E+01
 20
-2.94997944E+02
  0
VERTEX
  8
0
 62
4
 10
-6.11343185E+01
 20
-2.94774271E+02
  0
VERTEX
  8
0
 62
4
 10
-6.08982753E+01
 20
-2.94530383E+02
  0
VERTEX
  8
0
 62
4
 10
-6.06866419E+01
 20
-2.94268198E+02
  0
VERTEX
  8
0
 62
4
 10
-6.05010838E+01
 20
-2.93989779E+02
  0
VERTEX
  8
0
 62
4
 10
-6.03430614E+01
 20
-2.93697319E+02
  0
VERTEX
  8
0
 62
4
 10
-6.02138181E+01
 20
-2.93393118E+02
  0
VERTEX
  8
0
 62
4
 10
-6.01143712E+01
 20
-2.93079571E+02
  0
VERTEX
  8
0
 62
4
 10
-6.00455032E+01
 20
-2.92759144E+02
  0
VERTEX
  8
0
 62
4
 10
-6.00077561E+01
 20
-2.92434360E+02
  0
VERTEX
  8
0
 62
4
 10
-6.00014270E+01
 20
-2.92107775E+02
  0
SEQEND
  8
0
  0
POLYLINE
  8
0
 62
4
 66
1
  0
VERTEX
  8
0
 62
4
 10
-6.64086130E+01
 20
-2.89070427E+02
  0
VERTEX
  8
0
 62
4
 10
-6.66786488E+01
 20
-2.89275567E+02
  0
VERTEX
  8
0
 62
4
 10
-6.69281623E+01
 20
-2.89501658E+02
  0
VERTEX
  8
0
 62
4
 10
-6.71552418E+01
 20
-2.89746967E+02
  0
VERTEX
  8
0
 62
4
 10
-6.73581475E+01
 20
-2.90009615E+02
  0
VERTEX
  8
0
 62
4
 10
-6.75353249E+01
 20
-2.90287589E+02
  0
VERTEX
  8
0
 62
4
 10
-6.76854165E+01
 20
-2.90578761E+02
  0
VERTEX
  8
0
 62
4
 10
-6.78072724E+01
 20
-2.90880899E+02
  0
VERTEX
  8
0
 62
4
 10
-6.78999590E+01
 20
-2.91191688E+02
  0
VERTEX
  8
0
 62
4
 10
-6.79627662E+01
 20
-2.91508747E+02
  0
VERTEX
  8
0
 62
4
 10
-6.79952128E+01
 20
-2.91829648E+02
  0
VERTEX
  8
0
 62
4
 10
-6.79970502E+01
 20
-2.92151930E+02
  0
VERTEX
  8
0
 62
4
 10
-6.79682642E+01
 20
-2.92473127E+02
  0
VERTEX
  8
0
 62
4
 10
-6.79090756E+01
 20
-2.92790775E+02
  0
VERTEX
  8
0
 62
4
 10
-6.78199376E+01
 20
-2.93102443E+02
  0
VERTEX
  8
0
 62
4
 10
-6.77015334E+01
 20
-2.93405741E+02
  0
VERTEX
  8
0
 62
4
 10
-6.75547699E+01
 20
-2.93698347E+02
  0
VERTEX
  8
0
 62
4
 10
-6.73807717E+01
 20
-2.93978018E+02
  0
VERTEX
  8
0
 62
4
 10
-6.71808718E+01
 20
-2.94242612E+02
  0
VERTEX
  8
0
 62
4
 10
-6.69566018E+01
 20
-2.94490101E+02
  0
VERTEX
  8
0
 62
4
 10
-6.67096799E+01
 20
-2.94718590E+02
  0
VERTEX
  8
0
 62
4
 10
-6.64419980E+01
 20
-2.94926327E+02
  0
VERTEX
  8
0
 62
4
 10
-6.61556068E+01
 20
-2.95111722E+02
  0
VERTEX
  8
0
 62
4
 10
-6.58527005E+01
 20
-2.95273354E+02
  0
VERTEX
  8
0
 62
4
 10
-6.55355999E+01
 20
-2.95409984E+02
  0
VERTEX
  8
0
 62
4
 10
-6.52067344E+01
 20
-2.95520566E+02
  0
VERTEX
  8
0
 62
4
 10
-6.48686237E+01
 20
-2.95604252E+02
  0
VERTEX
  8
0
 62
4
 10
-6.45238582E+01
 20
-2.95660402E+02
  0
VERTEX
  8
0
 62
4
 10
-6.41750792E+01
 20
-2.95688584E+02
  0
VERTEX
  8
0
 62
4
 10
-6.38249590E+01
 20
-2.95688584E+02
  0
VERTEX
  8
0
 62
4
 10
-6.34761801E+01
 20
-2.95660402E+02
  0
VERTEX
  8
0
 62
4
 10
-6.31314145E+01
 20
-2.95604252E+02
  0
VERTEX
  8
0
 62
4
 10
-6.27933038E+01
 20
-2.95520566E+02
  0
VERTEX
  8
0
 62
4
 10
-6.24644383E+01
 20
-2.95409984E+02
  0
VERTEX
  8
0
 62
4
 10
-6.21473377E+01
 20
-2.95273354E+02
  0
VERTEX
  8
0
 62
4
 10
-6.18444315E+01
 20
-2.95111722E+02
  0
VERTEX
  8
0
 62
4
 10
-6.15580403E+01
 20
-2.94926327E+02
  0
VERTEX
  8
0
 62
4
 10
-6.12903583E+01
 20
-2.94718590E+02
  0
VERTEX
  8
0
 62
4
 10
-6.10434364E+01
 20
-2.94490101E+02
  0
VERTEX
  8
0
 62
4
 10
-6.08191664E+01
 20
-2.94242612E+02
  0
VERTEX
  8
0
 62
4
 10
-6.06192665E+01
 20
-2.93978018E+02
  0
VERTEX
  8
0
 62
4
 10
-6.04452683E+01
 20
-2.93698347E+02
  0
VERTEX
  8
0
 62
4
 10
-6.02985048E+01
 20
-2.93405741E+02
  0
VERTEX
  8
0
 62
4
 10
-6.01801006E+01
 20
-2.93102443E+02
  0
VERTEX
  8
0
 62
4
 10
-6.00909626E+01
 20
-2.92790775E+02
  0
VERTEX
  8
0
 62
4
 10
-6.00317740E+01
 20
-2.92473127E+02
  0
VERTEX
  8
0
 62
4
 10
-6.00029880E+01
 20
-2.92151930E+02
  0
VERTEX
  8
0
 62
4
 10
-6.00048254E+01
 20
-2.91829648E+02
  0
VERTEX
  8
0
 62
4
 10
-6.00372720E+01
 20
-2.91508747E+02
  0
VERTEX
  8
0
 62
4
 10
-6.01000792E+01
 20
-2.91191688E+02
  0
VERTEX
  8
0
 62
4
 10
-6.01927658E+01
 20
-2.90880899E+02
  0
VERTEX
  8
0
 62
4
 10
-6.03146217E+01
 20
-2.90578761E+02
  0
VERTEX
  8
0
 62
4
 10
-6.04647133E+01
 20
-2.90287589E+02
  0
VERTEX
  8
0
 62
4
 10
-6.06418907E+01
 20
-2.90009615E+02
  0
VERTEX
  8
0
 62
4
 10
-6.08447964E+01
 20
-2.89746967E+02
  0
VERTEX
  8
0
 62
4
 10
-6.10718759E+01
 20
-2.89501658E+02
  0
VERTEX
  8
0
 62
4
 10
-6.13213894E+01
 20
-2.89275567E+02
  0
VERTEX
  8
0
 62
4
 10
-6.15914252E+01
 20
-2.89070427E+02
  0
SEQEND
  8
0
  0
LINE
  8
0
 62
4
 10
-4.00000191E+01
 20
-3.06000000E+02
 11
-4.00000191E+01
 21
-3.03963458E+02
  0
LINE
  8
0
 62
4
 10
-7.30000191E+01
 20
-3.06000000E+02
 11
-7.30000191E+01
 21
-3.03963458E+02
  0
LINE
  8
0
 62
4
 10
-4.00000191E+01
 20
-3.03963458E+02
 11
-3.70000191E+01
 21
-2.99109245E+02
  0
LINE
  8
0
 62
4
 10
-7.60000191E+01
 20
-2.99109245E+02
 11
-7.30000191E+01
 21
-3.03963458E+02
  0
LINE
  8
0
 62
4
 10
-7.15000191E+01
 20
-2.82457438E+02
 11
-5.65000191E+01
 21
-2.82457438E+02
  0
LINE
  8
0
 62
4
 10
-7.15000191E+01
 20
-2.60365322E+02
 11
-5.65000191E+01
 21
-2.60365322E+02
  0
LINE
  8
0
 62
6
 10
-6.57149539E+01
 20
-2.92557058E+02
 11
-6.22850842E+01
 21
-2.89127183E+02
  0
LINE
  8
0
 62
6
 10
-6.22850818E+01
 20
-2.92557056E+02
 11
-6.57149564E+01
 21
-2.89127186E+02
  0
ARC
  8
0
 62
4
 10
-7.45000162E+01
 20
-2.87579770E+02
 40
1.50000284E+00
 50
9.00001085E+01
 51
1.79999892E+02
  0
ARC
  8
0
 62
4
 10
-8.05000233E+01
 20
-2.75318864E+02
 40
4.99995728E-01
 50
1.79999510E+02
 51
2.70000490E+02
  0
ARC
  8
0
 62
4
 10
-3.85000219E+01
 20
-2.87579770E+02
 40
1.50000284E+00
 50
1.08554370E-04
 51
8.99998913E+01
  0
ARC
  8
0
 62
4
 10
-7.20000233E+01
 20
-2.76318864E+02
 40
5.00004272E-01
 50
4.89585868E-04
 51
8.99995103E+01
  0
LINE
  8
0
 62
4
 10
-8.45000191E+01
 20
-2.74568859E+02
 11
-8.10000191E+01
 21
-2.74568859E+02
  0
LINE
  8
0
 62
4
 10
-8.45000191E+01
 20
-2.63068859E+02
 11
-8.10000191E+01
 21
-2.63068859E+02
  0
LINE
  8
0
 62
4
 10
-8.45000191E+01
 20
-2.62568859E+02
 11
-8.45000191E+01
 21
-2.75068859E+02
  0
LINE
  8
0
 62
4
 10
-8.60000191E+01
 20
-2.75068859E+02
 11
-8.10000191E+01
 21
-2.75068859E+02
  0
LINE
  8
0
 62
4
 10
-8.60000191E+01
 20
-2.62568859E+02
 11
-8.10000191E+01
 21
-2.62568859E+02
  0
LINE
  8
0
 62
4
 10
-8.60000191E+01
 20
-2.61915048E+02
 11
-8.60000191E+01
 21
-2.75731826E+02
  0
LINE
  8
0
 62
4
 10
-9.10000191E+01
 20
-2.61915048E+02
 11
-9.10000191E+01
 21
-2.75731826E+02
  0
LINE
  8
0
 62
4
 10
-8.05000191E+01
 20
-2.75818859E+02
 11
-7.20000191E+01
 21
-2.75818859E+02
  0
LINE
  8
0
 62
4
 10
-9.10000191E+01
 20
-2.61915048E+02
 11
-8.60000191E+01
 21
-2.61915048E+02
  0
LINE
  8
0
 62
4
 10
-7.45000191E+01
 20
-2.86079767E+02
 11
-3.85000191E+01
 21
-2.86079767E+02
  0
LINE
  8
0
 62
4
 10
-7.60000191E+01
 20
-2.97728488E+02
 11
-3.70000191E+01
 21
-2.97728488E+02
  0
LINE
  8
0
 62
4
 10
-7.60000191E+01
 20
-2.99109245E+02
 11
-3.70000191E+01
 21
-2.99109245E+02
  0
LINE
  8
0
 62
4
 10
-7.30000191E+01
 20
-3.03963458E+02
 11
-4.00000191E+01
 21
-3.03963458E+02
  0
LINE
  8
0
 62
4
 10
-3.70000191E+01
 20
-2.87579767E+02
 11
-3.70000191E+01
 21
-2.99109245E+02
  0
LINE
  8
0
 62
4
 10
-5.45000191E+01
 20
-2.82596481E+02
 11
-5.45000191E+01
 21
-2.86079767E+02
  0
LINE
  8
0
 62
4
 10
-7.15000191E+01
 20
-2.60365322E+02
 11
-7.15000191E+01
 21
-2.82596481E+02
  0
LINE
  8
0
 62
4
 10
-5.65000191E+01
 20
-2.60365322E+02
 11
-5.65000191E+01
 21
-2.82596481E+02
  0
LINE
  8
0
 62
4
 10
-7.35000191E+01
 20
-2.82596481E+02
 11
-7.35000191E+01
 21
-2.86079767E+02
  0
LINE
  8
0
 62
4
 10
-7.60000191E+01
 20
-2.87579767E+02
 11
-7.60000191E+01
 21
-2.99109245E+02
  0
LINE
  8
0
 62
4
 10
-7.35000191E+01
 20
-2.82596481E+02
 11
-5.45000191E+01
 21
-2.82596481E+02
  0
LINE
  8
0
  6
CENTER
 62
6
 10
-7.04000191E+01
 20
-2.90842121E+02
 11
-5.76000191E+01
 21
-2.90842121E+02
  0
LINE
  8
0
  6
CENTER
 62
6
 10
-6.40000191E+01
 20
-2.97242121E+02
 11
-6.40000191E+01
 21
-2.84442121E+02
  0
ARC
  8
0
 62
4
 10
-3.90033927E+02
 20
-2.68818852E+02
 40
7.00000000E+00
 50
1.21115777E+02
 51
1.44002341E+02
  0
ARC
  8
0
 62
4
 10
-3.90033927E+02
 20
-2.68818852E+02
 40
7.00000000E+00
 50
8.19976591E+01
 51
1.04884035E+02
  0
ARC
  8
0
 62
4
 10
-3.71325496E+02
 20
-2.88579775E+02
 40
2.50001570E+00
 50
2.30003598E+01
 51
1.12999640E+02
  0
ARC
  8
0
 62
4
 10
-3.88815065E+02
 20
-2.96003652E+02
 40
2.50001192E+00
 50
1.13000273E+02
 51
2.02999727E+02
  0
ARC
  8
0
 62
4
 10
-3.74711123E+02
 20
-2.95484488E+02
 40
1.18036308E+01
 50
1.02898056E+01
 51
3.59747793E+01
  0
CIRCLE
  8
0
 62
4
 10
-3.90033927E+02
 20
-2.68818852E+02
 40
3.75000000E+00
  0
ARC
  8
0
 62
4
 10
-3.65959699E+02
 20
-2.89123612E+02
 40
9.97209177E-01
 50
3.55805360E+01
 51
1.12812291E+02
  0
ARC
  8
0
 62
4
 10
-3.64081174E+02
 20
-2.93545592E+02
 40
9.98345090E-01
 50
2.93107940E+02
 51
9.77816763E+00
  0
LINE
  8
0
 62
4
 10
-3.68173242E+02
 20
-2.88328066E+02
 11
-3.65047393E+02
 21
-2.95692105E+02
  0
LINE
  8
0
  6
CENTER
 62
6
 10
-3.91322999E+02
 20
-3.02499996E+02
 11
-3.61087289E+02
 21
-2.89665699E+02
  0
LINE
  8
0
 62
4
 10
-3.63689359E+02
 20
-2.94463837E+02
 11
-3.65281832E+02
 21
-2.95139802E+02
  0
LINE
  8
0
 62
4
 10
-3.67938804E+02
 20
-2.88880369E+02
 11
-3.66346330E+02
 21
-2.88204404E+02
  0
LINE
  8
0
 62
4
 10
-3.65507646E+02
 20
-2.95887470E+02
 11
-3.65047393E+02
 21
-2.95692105E+02
  0
LINE
  8
0
 62
4
 10
-3.68633495E+02
 20
-2.88523432E+02
 11
-3.68173242E+02
 21
-2.88328066E+02
  0
LINE
  8
0
 62
4
 10
-3.89985002E+02
 20
-2.62279896E+02
 11
-3.85474528E+02
 21
-2.60365314E+02
  0
LINE
  8
0
 62
4
 10
-3.92964411E+02
 20
-2.61915040E+02
 11
-3.85515888E+02
 21
-2.62827181E+02
  0
LINE
  8
0
 62
4
 10
-3.94548061E+02
 20
-2.74819677E+02
 11
-3.87099537E+02
 21
-2.75731818E+02
  0
LINE
  8
0
 62
4
 10
-3.85515888E+02
 20
-2.62827181E+02
 11
-3.82581497E+02
 21
-2.69740172E+02
  0
LINE
  8
0
 62
4
 10
-3.97482451E+02
 20
-2.67906686E+02
 11
-3.94548061E+02
 21
-2.74819677E+02
  0
LINE
  8
0
 62
4
 10
-3.97482451E+02
 20
-2.67906686E+02
 11
-3.92964411E+02
 21
-2.61915040E+02
  0
LINE
  8
0
 62
4
 10
-3.87099537E+02
 20
-2.75731818E+02
 11
-3.82581497E+02
 21
-2.69740172E+02
  0
LINE
  8
0
 62
4
 10
-3.76080253E+02
 20
-2.96573015E+02
 11
-3.75103426E+02
 21
-2.98874277E+02
  0
LINE
  8
0
 62
4
 10
-3.79762273E+02
 20
-2.98135939E+02
 11
-3.78785445E+02
 21
-3.00437201E+02
  0
LINE
  8
0
 62
4
 10
-3.78785445E+02
 20
-3.00437201E+02
 11
-3.75103426E+02
 21
-2.98874277E+02
  0
LINE
  8
0
 62
4
 10
-3.79762273E+02
 20
-2.98135939E+02
 11
-3.76080253E+02
 21
-2.96573015E+02
  0
LINE
  8
0
 62
4
 10
-3.75967184E+02
 20
-3.02500002E+02
 11
-3.64726184E+02
 21
-2.97728480E+02
  0
LINE
  8
0
 62
4
 10
-3.64140087E+02
 20
-2.99109237E+02
 11
-3.64977327E+02
 21
-3.02500006E+02
  0
LINE
  8
0
 62
4
 10
-3.91116342E+02
 20
-2.96980474E+02
 11
-3.88773444E+02
 21
-3.02499997E+02
  0
LINE
  8
0
 62
4
 10
-3.69024226E+02
 20
-2.87602927E+02
 11
-3.64140087E+02
 21
-2.99109237E+02
  0
LINE
  8
0
 62
4
 10
-3.72128230E+02
 20
-3.02500003E+02
 11
-3.64140087E+02
 21
-2.99109237E+02
  0
LINE
  8
0
 62
4
 10
-3.89791908E+02
 20
-2.93702384E+02
 11
-3.72302316E+02
 21
-2.86278492E+02
  0
LINE
  8
0
 62
4
 10
-3.91354833E+02
 20
-2.90020364E+02
 11
-3.89791908E+02
 21
-2.93702384E+02
  0
LINE
  8
0
 62
4
 10
-3.73865240E+02
 20
-2.82596473E+02
 11
-3.72302316E+02
 21
-2.86278492E+02
  0
LINE
  8
0
 62
4
 10
-3.89904554E+02
 20
-2.88318397E+02
 11
-3.76096981E+02
 21
-2.82457430E+02
  0
LINE
  8
0
 62
4
 10
-3.91354833E+02
 20
-2.90020364E+02
 11
-3.73865240E+02
 21
-2.82596473E+02
  0
LINE
  8
0
 62
4
 10
-3.99282101E+02
 20
-2.66226281E+02
 11
-3.89513823E+02
 21
-2.89238902E+02
  0
LINE
  8
0
 62
4
 10
-3.85474528E+02
 20
-2.60365314E+02
 11
-3.75706250E+02
 21
-2.83377935E+02
  0
LINE
  8
0
 62
4
 10
-3.99282101E+02
 20
-2.66226281E+02
 11
-3.94780832E+02
 21
-2.64315606E+02
  0
LINE
  8
0
 62
4
 10
-3.97358966E+02
 20
-3.00173490E+02
 11
-3.98544393E+02
 21
-3.02499994E+02
  0
LINE
  8
0
 62
4
 10
-3.97358966E+02
 20
-3.00173490E+02
 11
-3.90920977E+02
 21
-2.97440726E+02
  0
LINE
  8
0
 62
4
 10
-4.06089118E+02
 20
-3.20462823E+02
 11
-4.06000080E+02
 21
-3.20426849E+02
  0
LINE
  8
0
 62
4
 10
-4.06000080E+02
 20
-3.20683201E+02
 11
-4.06089118E+02
 21
-3.20462823E+02
  0
LINE
  8
0
 62
4
 10
1.26139927E+02
 20
-2.99109237E+02
 11
1.26977167E+02
 21
-3.02500006E+02
  0
LINE
  8
0
 62
4
 10
1.41762113E+02
 20
-2.98135939E+02
 11
1.40785285E+02
 21
-3.00437201E+02
  0
LINE
  8
0
 62
4
 10
1.40785285E+02
 20
-3.00437201E+02
 11
1.37103265E+02
 21
-2.98874277E+02
  0
LINE
  8
0
 62
4
 10
1.34128070E+02
 20
-3.02500003E+02
 11
1.26139927E+02
 21
-2.99109237E+02
  0
LINE
  8
0
 62
4
 10
1.37967023E+02
 20
-3.02500002E+02
 11
1.26726023E+02
 21
-2.97728480E+02
  0
LINE
  8
0
 62
4
 10
1.59358806E+02
 20
-3.00173490E+02
 11
1.60544233E+02
 21
-3.02499994E+02
  0
LINE
  8
0
 62
4
 10
1.59358806E+02
 20
-3.00173490E+02
 11
1.52920817E+02
 21
-2.97440726E+02
  0
LINE
  8
0
 62
4
 10
1.53116182E+02
 20
-2.96980474E+02
 11
1.50773284E+02
 21
-3.02499997E+02
  0
ARC
  8
0
 62
4
 10
1.33325336E+02
 20
-2.88579775E+02
 40
2.50001570E+00
 50
6.70003599E+01
 51
1.56999640E+02
  0
ARC
  8
0
 62
4
 10
1.36710963E+02
 20
-2.95484488E+02
 40
1.18036308E+01
 50
1.44025221E+02
 51
1.69710195E+02
  0
ARC
  8
0
 62
4
 10
1.27959539E+02
 20
-2.89123612E+02
 40
9.97209177E-01
 50
6.71877091E+01
 51
1.44419464E+02
  0
ARC
  8
0
 62
4
 10
1.26081014E+02
 20
-2.93545592E+02
 40
9.98345090E-01
 50
1.70221832E+02
 51
2.46892060E+02
  0
LINE
  8
0
 62
4
 10
1.30173082E+02
 20
-2.88328066E+02
 11
1.27047233E+02
 21
-2.95692105E+02
  0
LINE
  8
0
 62
4
 10
1.25689198E+02
 20
-2.94463837E+02
 11
1.27281672E+02
 21
-2.95139802E+02
  0
LINE
  8
0
 62
4
 10
1.29938644E+02
 20
-2.88880369E+02
 11
1.28346170E+02
 21
-2.88204404E+02
  0
LINE
  8
0
 62
4
 10
1.27507486E+02
 20
-2.95887470E+02
 11
1.27047233E+02
 21
-2.95692105E+02
  0
LINE
  8
0
 62
4
 10
1.30633335E+02
 20
-2.88523432E+02
 11
1.30173082E+02
 21
-2.88328066E+02
  0
LINE
  8
0
 62
4
 10
1.54964251E+02
 20
-2.61915040E+02
 11
1.53831814E+02
 21
-2.62053718E+02
  0
LINE
  8
0
 62
4
 10
1.55651152E+02
 20
-2.62825981E+02
 11
1.54964251E+02
 21
-2.61915040E+02
  0
LINE
  8
0
 62
4
 10
1.51791748E+02
 20
-2.93702384E+02
 11
1.34302156E+02
 21
-2.86278492E+02
  0
LINE
  8
0
 62
4
 10
1.53354672E+02
 20
-2.90020364E+02
 11
1.51791748E+02
 21
-2.93702384E+02
  0
LINE
  8
0
 62
4
 10
1.35865080E+02
 20
-2.82596473E+02
 11
1.34302156E+02
 21
-2.86278492E+02
  0
LINE
  8
0
 62
4
 10
1.51904394E+02
 20
-2.88318397E+02
 11
1.38096821E+02
 21
-2.82457430E+02
  0
LINE
  8
0
 62
4
 10
1.53354672E+02
 20
-2.90020364E+02
 11
1.35865080E+02
 21
-2.82596473E+02
  0
LINE
  8
0
 62
4
 10
1.61281941E+02
 20
-2.66226281E+02
 11
1.51513663E+02
 21
-2.89238902E+02
  0
LINE
  8
0
 62
4
 10
1.47474368E+02
 20
-2.60365314E+02
 11
1.37706090E+02
 21
-2.83377935E+02
  0
LINE
  8
0
 62
4
 10
1.47474368E+02
 20
-2.60365314E+02
 11
1.61281941E+02
 21
-2.66226281E+02
  0
ARC
  8
0
 62
4
 10
1.52033758E+02
 20
-2.68818848E+02
 40
7.00000000E+00
 50
3.59976591E+01
 51
9.80023407E+01
  0
LINE
  8
0
  6
CENTER
 62
6
 10
1.44288254E+02
 20
-2.87066114E+02
 11
1.42464762E+02
 21
-2.91361990E+02
  0
LINE
  8
0
 62
4
 10
1.39825185E+02
 20
-2.88622879E+02
 11
1.40547298E+02
 21
-2.87843038E+02
  0
LINE
  8
0
 62
4
 10
1.46328068E+02
 20
-2.90296829E+02
 11
1.46268719E+02
 21
-2.91357997E+02
  0
LINE
  8
0
 62
4
 10
1.40547298E+02
 20
-2.87843038E+02
 11
1.46328068E+02
 21
-2.90296829E+02
  0
LINE
  8
0
 62
4
 10
1.31024066E+02
 20
-2.87602927E+02
 11
1.26139927E+02
 21
-2.99109237E+02
  0
LINE
  8
0
 62
4
 10
1.41762113E+02
 20
-2.98135939E+02
 11
1.38080093E+02
 21
-2.96573015E+02
  0
LINE
  8
0
 62
4
 10
1.38080093E+02
 20
-2.96573015E+02
 11
1.37103265E+02
 21
-2.98874277E+02
  0
LINE
  8
0
  6
CENTER
 62
6
 10
1.53322839E+02
 20
-3.02499996E+02
 11
1.23087129E+02
 21
-2.89665699E+02
  0
ARC
  8
0
 62
4
 10
1.50814904E+02
 20
-2.96003652E+02
 40
2.50001192E+00
 50
3.37000273E+02
 51
6.69997268E+01
  0
ARC
  8
0
 62
4
 10
-7.44999881E+01
 20
-1.56999087E+02
 40
1.50000046E+00
 50
1.80000018E+02
 51
2.69999983E+02
  0
ARC
  8
0
 62
4
 10
-3.84999852E+01
 20
-1.56999091E+02
 40
1.49999664E+00
 50
2.69999872E+02
 51
1.28225561E-04
  0
LINE
  8
0
 62
4
 10
-7.34999886E+01
 20
-1.56197811E+02
 11
-5.44999886E+01
 21
-1.56197811E+02
  0
POLYLINE
  8
0
 62
4
 66
1
  0
VERTEX
  8
0
 62
4
 10
-4.48599886E+01
 20
-1.47062302E+02
  0
VERTEX
  8
0
 62
4
 10
-4.48719372E+01
 20
-1.46810388E+02
  0
VERTEX
  8
0
 62
4
 10
-4.49076923E+01
 20
-1.46560392E+02
  0
VERTEX
  8
0
 62
4
 10
-4.49669815E+01
 20
-1.46314215E+02
  0
VERTEX
  8
0
 62
4
 10
-4.50493538E+01
 20
-1.46073732E+02
  0
VERTEX
  8
0
 62
4
 10
-4.51541821E+01
 20
-1.45840772E+02
  0
VERTEX
  8
0
 62
4
 10
-4.52806688E+01
 20
-1.45617109E+02
  0
VERTEX
  8
0
 62
4
 10
-4.54278512E+01
 20
-1.45404445E+02
  0
VERTEX
  8
0
 62
4
 10
-4.55946090E+01
 20
-1.45204398E+02
  0
VERTEX
  8
0
 62
4
 10
-4.57796733E+01
 20
-1.45018491E+02
  0
VERTEX
  8
0
 62
4
 10
-4.59816355E+01
 20
-1.44848138E+02
  0
VERTEX
  8
0
 62
4
 10
-4.61989586E+01
 20
-1.44694637E+02
  0
VERTEX
  8
0
 62
4
 10
-4.64299886E+01
 20
-1.44559155E+02
  0
VERTEX
  8
0
 62
4
 10
-4.66729673E+01
 20
-1.44442723E+02
  0
VERTEX
  8
0
 62
4
 10
-4.69260454E+01
 20
-1.44346228E+02
  0
VERTEX
  8
0
 62
4
 10
-4.71872968E+01
 20
-1.44270404E+02
  0
VERTEX
  8
0
 62
4
 10
-4.74547333E+01
 20
-1.44215828E+02
  0
VERTEX
  8
0
 62
4
 10
-4.77263196E+01
 20
-1.44182916E+02
  0
VERTEX
  8
0
 62
4
 10
-4.79999886E+01
 20
-1.44171917E+02
  0
VERTEX
  8
0
 62
4
 10
-4.82736576E+01
 20
-1.44182916E+02
  0
VERTEX
  8
0
 62
4
 10
-4.85452439E+01
 20
-1.44215828E+02
  0
VERTEX
  8
0
 62
4
 10
-4.88126804E+01
 20
-1.44270404E+02
  0
VERTEX
  8
0
 62
4
 10
-4.90739319E+01
 20
-1.44346228E+02
  0
VERTEX
  8
0
 62
4
 10
-4.93270099E+01
 20
-1.44442723E+02
  0
VERTEX
  8
0
 62
4
 10
-4.95699886E+01
 20
-1.44559155E+02
  0
VERTEX
  8
0
 62
4
 10
-4.98010186E+01
 20
-1.44694637E+02
  0
VERTEX
  8
0
 62
4
 10
-5.00183417E+01
 20
-1.44848138E+02
  0
VERTEX
  8
0
 62
4
 10
-5.02203039E+01
 20
-1.45018491E+02
  0
VERTEX
  8
0
 62
4
 10
-5.04053682E+01
 20
-1.45204398E+02
  0
VERTEX
  8
0
 62
4
 10
-5.05721260E+01
 20
-1.45404445E+02
  0
VERTEX
  8
0
 62
4
 10
-5.07193084E+01
 20
-1.45617109E+02
  0
VERTEX
  8
0
 62
4
 10
-5.08457951E+01
 20
-1.45840772E+02
  0
VERTEX
  8
0
 62
4
 10
-5.09506234E+01
 20
-1.46073732E+02
  0
VERTEX
  8
0
 62
4
 10
-5.10329957E+01
 20
-1.46314215E+02
  0
VERTEX
  8
0
 62
4
 10
-5.10922849E+01
 20
-1.46560392E+02
  0
VERTEX
  8
0
 62
4
 10
-5.11280400E+01
 20
-1.46810388E+02
  0
VERTEX
  8
0
 62
4
 10
-5.11399886E+01
 20
-1.47062302E+02
  0
VERTEX
  8
0
 62
4
 10
-5.11280400E+01
 20
-1.47314216E+02
  0
VERTEX
  8
0
 62
4
 10
-5.10922849E+01
 20
-1.47564212E+02
  0
VERTEX
  8
0
 62
4
 10
-5.10329957E+01
 20
-1.47810389E+02
  0
VERTEX
  8
0
 62
4
 10
-5.09506234E+01
 20
-1.48050872E+02
  0
VERTEX
  8
0
 62
4
 10
-5.08457950E+01
 20
-1.48283832E+02
  0
VERTEX
  8
0
 62
4
 10
-5.07193084E+01
 20
-1.48507495E+02
  0
VERTEX
  8
0
 62
4
 10
-5.05721260E+01
 20
-1.48720159E+02
  0
VERTEX
  8
0
 62
4
 10
-5.04053681E+01
 20
-1.48920206E+02
  0
VERTEX
  8
0
 62
4
 10
-5.02203039E+01
 20
-1.49106113E+02
  0
VERTEX
  8
0
 62
4
 10
-5.00183417E+01
 20
-1.49276466E+02
  0
VERTEX
  8
0
 62
4
 10
-4.98010186E+01
 20
-1.49429967E+02
  0
VERTEX
  8
0
 62
4
 10
-4.95699886E+01
 20
-1.49565449E+02
  0
VERTEX
  8
0
 62
4
 10
-4.93270099E+01
 20
-1.49681881E+02
  0
VERTEX
  8
0
 62
4
 10
-4.90739318E+01
 20
-1.49778376E+02
  0
VERTEX
  8
0
 62
4
 10
-4.88126804E+01
 20
-1.49854200E+02
  0
VERTEX
  8
0
 62
4
 10
-4.85452439E+01
 20
-1.49908776E+02
  0
VERTEX
  8
0
 62
4
 10
-4.82736576E+01
 20
-1.49941688E+02
  0
VERTEX
  8
0
 62
4
 10
-4.79999886E+01
 20
-1.49952687E+02
  0
VERTEX
  8
0
 62
4
 10
-4.77263196E+01
 20
-1.49941688E+02
  0
VERTEX
  8
0
 62
4
 10
-4.74547333E+01
 20
-1.49908776E+02
  0
VERTEX
  8
0
 62
4
 10
-4.71872968E+01
 20
-1.49854200E+02
  0
VERTEX
  8
0
 62
4
 10
-4.69260453E+01
 20
-1.49778376E+02
  0
VERTEX
  8
0
 62
4
 10
-4.66729673E+01
 20
-1.49681881E+02
  0
VERTEX
  8
0
 62
4
 10
-4.64299886E+01
 20
-1.49565449E+02
  0
VERTEX
  8
0
 62
4
 10
-4.61989586E+01
 20
-1.49429967E+02
  0
VERTEX
  8
0
 62
4
 10
-4.59816355E+01
 20
-1.49276466E+02
  0
VERTEX
  8
0
 62
4
 10
-4.57796733E+01
 20
-1.49106113E+02
  0
VERTEX
  8
0
 62
4
 10
-4.55946090E+01
 20
-1.48920206E+02
  0
VERTEX
  8
0
 62
4
 10
-4.54278512E+01
 20
-1.48720159E+02
  0
VERTEX
  8
0
 62
4
 10
-4.52806688E+01
 20
-1.48507495E+02
  0
VERTEX
  8
0
 62
4
 10
-4.51541821E+01
 20
-1.48283832E+02
  0
VERTEX
  8
0
 62
4
 10
-4.50493538E+01
 20
-1.48050872E+02
  0
VERTEX
  8
0
 62
4
 10
-4.49669815E+01
 20
-1.47810389E+02
  0
VERTEX
  8
0
 62
4
 10
-4.49076923E+01
 20
-1.47564212E+02
  0
VERTEX
  8
0
 62
4
 10
-4.48719372E+01
 20
-1.47314216E+02
  0
VERTEX
  8
0
 62
4
 10
-4.48599886E+01
 20
-1.47062302E+02
  0
SEQEND
  8
0
  0
POLYLINE
  8
0
 62
4
 66
1
  0
VERTEX
  8
0
 62
4
 10
-4.97554095E+01
 20
-1.44665788E+02
  0
VERTEX
  8
0
 62
4
 10
-5.00166926E+01
 20
-1.44819857E+02
  0
VERTEX
  8
0
 62
4
 10
-5.02621247E+01
 20
-1.44994623E+02
  0
VERTEX
  8
0
 62
4
 10
-5.04897768E+01
 20
-1.45188712E+02
  0
VERTEX
  8
0
 62
4
 10
-5.06978595E+01
 20
-1.45400598E+02
  0
VERTEX
  8
0
 62
4
 10
-5.08847373E+01
 20
-1.45628615E+02
  0
VERTEX
  8
0
 62
4
 10
-5.10489414E+01
 20
-1.45870973E+02
  0
VERTEX
  8
0
 62
4
 10
-5.11891811E+01
 20
-1.46125765E+02
  0
VERTEX
  8
0
 62
4
 10
-5.13043543E+01
 20
-1.46390989E+02
  0
VERTEX
  8
0
 62
4
 10
-5.13935556E+01
 20
-1.46664561E+02
  0
VERTEX
  8
0
 62
4
 10
-5.14560839E+01
 20
-1.46944330E+02
  0
VERTEX
  8
0
 62
4
 10
-5.14914478E+01
 20
-1.47228097E+02
  0
VERTEX
  8
0
 62
4
 10
-5.14993694E+01
 20
-1.47513633E+02
  0
VERTEX
  8
0
 62
4
 10
-5.14797863E+01
 20
-1.47798692E+02
  0
VERTEX
  8
0
 62
4
 10
-5.14328525E+01
 20
-1.48081034E+02
  0
VERTEX
  8
0
 62
4
 10
-5.13589369E+01
 20
-1.48358440E+02
  0
VERTEX
  8
0
 62
4
 10
-5.12586204E+01
 20
-1.48628730E+02
  0
VERTEX
  8
0
 62
4
 10
-5.11326916E+01
 20
-1.48889779E+02
  0
VERTEX
  8
0
 62
4
 10
-5.09821401E+01
 20
-1.49139536E+02
  0
VERTEX
  8
0
 62
4
 10
-5.08081494E+01
 20
-1.49376036E+02
  0
VERTEX
  8
0
 62
4
 10
-5.06120869E+01
 20
-1.49597423E+02
  0
VERTEX
  8
0
 62
4
 10
-5.03954937E+01
 20
-1.49801954E+02
  0
VERTEX
  8
0
 62
4
 10
-5.01600722E+01
 20
-1.49988024E+02
  0
VERTEX
  8
0
 62
4
 10
-4.99076727E+01
 20
-1.50154168E+02
  0
VERTEX
  8
0
 62
4
 10
-4.96402791E+01
 20
-1.50299083E+02
  0
VERTEX
  8
0
 62
4
 10
-4.93599930E+01
 20
-1.50421627E+02
  0
VERTEX
  8
0
 62
4
 10
-4.90690175E+01
 20
-1.50520839E+02
  0
VERTEX
  8
0
 62
4
 10
-4.87696396E+01
 20
-1.50595939E+02
  0
VERTEX
  8
0
 62
4
 10
-4.84642123E+01
 20
-1.50646335E+02
  0
VERTEX
  8
0
 62
4
 10
-4.81551363E+01
 20
-1.50671633E+02
  0
VERTEX
  8
0
 62
4
 10
-4.78448409E+01
 20
-1.50671633E+02
  0
VERTEX
  8
0
 62
4
 10
-4.75357649E+01
 20
-1.50646335E+02
  0
VERTEX
  8
0
 62
4
 10
-4.72303376E+01
 20
-1.50595939E+02
  0
VERTEX
  8
0
 62
4
 10
-4.69309597E+01
 20
-1.50520839E+02
  0
VERTEX
  8
0
 62
4
 10
-4.66399842E+01
 20
-1.50421627E+02
  0
VERTEX
  8
0
 62
4
 10
-4.63596981E+01
 20
-1.50299083E+02
  0
VERTEX
  8
0
 62
4
 10
-4.60923045E+01
 20
-1.50154168E+02
  0
VERTEX
  8
0
 62
4
 10
-4.58399050E+01
 20
-1.49988024E+02
  0
VERTEX
  8
0
 62
4
 10
-4.56044835E+01
 20
-1.49801954E+02
  0
VERTEX
  8
0
 62
4
 10
-4.53878903E+01
 20
-1.49597423E+02
  0
VERTEX
  8
0
 62
4
 10
-4.51918278E+01
 20
-1.49376036E+02
  0
VERTEX
  8
0
 62
4
 10
-4.50178371E+01
 20
-1.49139536E+02
  0
VERTEX
  8
0
 62
4
 10
-4.48672856E+01
 20
-1.48889779E+02
  0
VERTEX
  8
0
 62
4
 10
-4.47413568E+01
 20
-1.48628730E+02
  0
VERTEX
  8
0
 62
4
 10
-4.46410403E+01
 20
-1.48358440E+02
  0
VERTEX
  8
0
 62
4
 10
-4.45671247E+01
 20
-1.48081034E+02
  0
VERTEX
  8
0
 62
4
 10
-4.45201909E+01
 20
-1.47798692E+02
  0
VERTEX
  8
0
 62
4
 10
-4.45006078E+01
 20
-1.47513633E+02
  0
VERTEX
  8
0
 62
4
 10
-4.45085294E+01
 20
-1.47228097E+02
  0
VERTEX
  8
0
 62
4
 10
-4.45438933E+01
 20
-1.46944330E+02
  0
VERTEX
  8
0
 62
4
 10
-4.46064216E+01
 20
-1.46664561E+02
  0
VERTEX
  8
0
 62
4
 10
-4.46956229E+01
 20
-1.46390989E+02
  0
VERTEX
  8
0
 62
4
 10
-4.48107961E+01
 20
-1.46125765E+02
  0
VERTEX
  8
0
 62
4
 10
-4.49510358E+01
 20
-1.45870973E+02
  0
VERTEX
  8
0
 62
4
 10
-4.51152399E+01
 20
-1.45628615E+02
  0
VERTEX
  8
0
 62
4
 10
-4.53021177E+01
 20
-1.45400598E+02
  0
VERTEX
  8
0
 62
4
 10
-4.55102004E+01
 20
-1.45188712E+02
  0
VERTEX
  8
0
 62
4
 10
-4.57378525E+01
 20
-1.44994623E+02
  0
VERTEX
  8
0
 62
4
 10
-4.59832846E+01
 20
-1.44819857E+02
  0
VERTEX
  8
0
 62
4
 10
-4.62445677E+01
 20
-1.44665788E+02
  0
SEQEND
  8
0
  0
POLYLINE
  8
0
 62
4
 66
1
  0
VERTEX
  8
0
 62
4
 10
-6.05999886E+01
 20
-1.63785562E+02
  0
VERTEX
  8
0
 62
4
 10
-6.06129266E+01
 20
-1.63643346E+02
  0
VERTEX
  8
0
 62
4
 10
-6.06516422E+01
 20
-1.63502211E+02
  0
VERTEX
  8
0
 62
4
 10
-6.07158408E+01
 20
-1.63363234E+02
  0
VERTEX
  8
0
 62
4
 10
-6.08050337E+01
 20
-1.63227470E+02
  0
VERTEX
  8
0
 62
4
 10
-6.09185421E+01
 20
-1.63095954E+02
  0
VERTEX
  8
0
 62
4
 10
-6.10555022E+01
 20
-1.62969687E+02
  0
VERTEX
  8
0
 62
4
 10
-6.12148716E+01
 20
-1.62849628E+02
  0
VERTEX
  8
0
 62
4
 10
-6.13954375E+01
 20
-1.62736693E+02
  0
VERTEX
  8
0
 62
4
 10
-6.15958255E+01
 20
-1.62631740E+02
  0
VERTEX
  8
0
 62
4
 10
-6.18145107E+01
 20
-1.62535568E+02
  0
VERTEX
  8
0
 62
4
 10
-6.20498287E+01
 20
-1.62448910E+02
  0
VERTEX
  8
0
 62
4
 10
-6.22999886E+01
 20
-1.62372424E+02
  0
VERTEX
  8
0
 62
4
 10
-6.25630865E+01
 20
-1.62306694E+02
  0
VERTEX
  8
0
 62
4
 10
-6.28371201E+01
 20
-1.62252218E+02
  0
VERTEX
  8
0
 62
4
 10
-6.31200038E+01
 20
-1.62209412E+02
  0
VERTEX
  8
0
 62
4
 10
-6.34095848E+01
 20
-1.62178601E+02
  0
VERTEX
  8
0
 62
4
 10
-6.37036591E+01
 20
-1.62160020E+02
  0
VERTEX
  8
0
 62
4
 10
-6.39999886E+01
 20
-1.62153811E+02
  0
VERTEX
  8
0
 62
4
 10
-6.42963181E+01
 20
-1.62160020E+02
  0
VERTEX
  8
0
 62
4
 10
-6.45903924E+01
 20
-1.62178601E+02
  0
VERTEX
  8
0
 62
4
 10
-6.48799734E+01
 20
-1.62209412E+02
  0
VERTEX
  8
0
 62
4
 10
-6.51628571E+01
 20
-1.62252218E+02
  0
VERTEX
  8
0
 62
4
 10
-6.54368907E+01
 20
-1.62306694E+02
  0
VERTEX
  8
0
 62
4
 10
-6.56999886E+01
 20
-1.62372424E+02
  0
VERTEX
  8
0
 62
4
 10
-6.59501485E+01
 20
-1.62448910E+02
  0
VERTEX
  8
0
 62
4
 10
-6.61854665E+01
 20
-1.62535568E+02
  0
VERTEX
  8
0
 62
4
 10
-6.64041517E+01
 20
-1.62631740E+02
  0
VERTEX
  8
0
 62
4
 10
-6.66045397E+01
 20
-1.62736693E+02
  0
VERTEX
  8
0
 62
4
 10
-6.67851056E+01
 20
-1.62849628E+02
  0
VERTEX
  8
0
 62
4
 10
-6.69444750E+01
 20
-1.62969687E+02
  0
VERTEX
  8
0
 62
4
 10
-6.70814351E+01
 20
-1.63095954E+02
  0
VERTEX
  8
0
 62
4
 10
-6.71949435E+01
 20
-1.63227470E+02
  0
VERTEX
  8
0
 62
4
 10
-6.72841364E+01
 20
-1.63363234E+02
  0
VERTEX
  8
0
 62
4
 10
-6.73483350E+01
 20
-1.63502211E+02
  0
VERTEX
  8
0
 62
4
 10
-6.73870506E+01
 20
-1.63643346E+02
  0
VERTEX
  8
0
 62
4
 10
-6.73999886E+01
 20
-1.63785562E+02
  0
VERTEX
  8
0
 62
4
 10
-6.73870506E+01
 20
-1.63927778E+02
  0
VERTEX
  8
0
 62
4
 10
-6.73483350E+01
 20
-1.64068913E+02
  0
VERTEX
  8
0
 62
4
 10
-6.72841364E+01
 20
-1.64207890E+02
  0
VERTEX
  8
0
 62
4
 10
-6.71949435E+01
 20
-1.64343654E+02
  0
VERTEX
  8
0
 62
4
 10
-6.70814351E+01
 20
-1.64475170E+02
  0
VERTEX
  8
0
 62
4
 10
-6.69444750E+01
 20
-1.64601437E+02
  0
VERTEX
  8
0
 62
4
 10
-6.67851055E+01
 20
-1.64721496E+02
  0
VERTEX
  8
0
 62
4
 10
-6.66045397E+01
 20
-1.64834431E+02
  0
VERTEX
  8
0
 62
4
 10
-6.64041517E+01
 20
-1.64939384E+02
  0
VERTEX
  8
0
 62
4
 10
-6.61854665E+01
 20
-1.65035556E+02
  0
VERTEX
  8
0
 62
4
 10
-6.59501485E+01
 20
-1.65122214E+02
  0
VERTEX
  8
0
 62
4
 10
-6.56999886E+01
 20
-1.65198700E+02
  0
VERTEX
  8
0
 62
4
 10
-6.54368907E+01
 20
-1.65264430E+02
  0
VERTEX
  8
0
 62
4
 10
-6.51628571E+01
 20
-1.65318906E+02
  0
VERTEX
  8
0
 62
4
 10
-6.48799733E+01
 20
-1.65361712E+02
  0
VERTEX
  8
0
 62
4
 10
-6.45903924E+01
 20
-1.65392523E+02
  0
VERTEX
  8
0
 62
4
 10
-6.42963181E+01
 20
-1.65411104E+02
  0
VERTEX
  8
0
 62
4
 10
-6.39999886E+01
 20
-1.65417313E+02
  0
VERTEX
  8
0
 62
4
 10
-6.37036591E+01
 20
-1.65411104E+02
  0
VERTEX
  8
0
 62
4
 10
-6.34095848E+01
 20
-1.65392523E+02
  0
VERTEX
  8
0
 62
4
 10
-6.31200038E+01
 20
-1.65361712E+02
  0
VERTEX
  8
0
 62
4
 10
-6.28371201E+01
 20
-1.65318906E+02
  0
VERTEX
  8
0
 62
4
 10
-6.25630865E+01
 20
-1.65264430E+02
  0
VERTEX
  8
0
 62
4
 10
-6.22999886E+01
 20
-1.65198700E+02
  0
VERTEX
  8
0
 62
4
 10
-6.20498287E+01
 20
-1.65122214E+02
  0
VERTEX
  8
0
 62
4
 10
-6.18145107E+01
 20
-1.65035556E+02
  0
VERTEX
  8
0
 62
4
 10
-6.15958255E+01
 20
-1.64939384E+02
  0
VERTEX
  8
0
 62
4
 10
-6.13954375E+01
 20
-1.64834431E+02
  0
VERTEX
  8
0
 62
4
 10
-6.12148716E+01
 20
-1.64721496E+02
  0
VERTEX
  8
0
 62
4
 10
-6.10555022E+01
 20
-1.64601437E+02
  0
VERTEX
  8
0
 62
4
 10
-6.09185421E+01
 20
-1.64475170E+02
  0
VERTEX
  8
0
 62
4
 10
-6.08050337E+01
 20
-1.64343654E+02
  0
VERTEX
  8
0
 62
4
 10
-6.07158408E+01
 20
-1.64207890E+02
  0
VERTEX
  8
0
 62
4
 10
-6.06516422E+01
 20
-1.64068913E+02
  0
VERTEX
  8
0
 62
4
 10
-6.06129266E+01
 20
-1.63927778E+02
  0
VERTEX
  8
0
 62
4
 10
-6.05999886E+01
 20
-1.63785562E+02
  0
SEQEND
  8
0
  0
LINE
  8
0
  6
CENTER
 62
6
 10
-5.41663828E+01
 20
-1.47062302E+02
 11
-4.18335943E+01
 21
-1.47062302E+02
  0
LINE
  8
0
  6
CENTER
 62
6
 10
-4.79999886E+01
 20
-1.40895907E+02
 11
-4.79999886E+01
 21
-1.53228696E+02
  0
LINE
  8
0
 62
4
 10
-6.08176797E+01
 20
-1.64360054E+02
 11
-3.84999852E+01
 21
-1.64360054E+02
  0
LINE
  8
0
 62
4
 10
-7.44999881E+01
 20
-1.64360054E+02
 11
-6.71822974E+01
 21
-1.64360054E+02
  0
ARC
  8
0
 62
4
 10
-5.97643936E+01
 20
-1.53224808E+02
 40
1.21769740E+01
 50
2.40462101E+02
 51
2.58262147E+02
  0
ARC
  8
0
 62
4
 10
-6.82355835E+01
 20
-1.53224808E+02
 40
1.21769740E+01
 50
2.81737853E+02
 51
2.99537899E+02
  0
POLYLINE
  8
0
 62
4
 66
1
  0
VERTEX
  8
0
 62
4
 10
-6.05999886E+01
 20
-1.61889823E+02
  0
VERTEX
  8
0
 62
4
 10
-6.06136760E+01
 20
-1.61770738E+02
  0
VERTEX
  8
0
 62
4
 10
-6.06546280E+01
 20
-1.61652613E+02
  0
VERTEX
  8
0
 62
4
 10
-6.07225149E+01
 20
-1.61536397E+02
  0
VERTEX
  8
0
 62
4
 10
-6.08167900E+01
 20
-1.61423027E+02
  0
VERTEX
  8
0
 62
4
 10
-6.09366944E+01
 20
-1.61313415E+02
  0
VERTEX
  8
0
 62
4
 10
-6.10812627E+01
 20
-1.61208444E+02
  0
VERTEX
  8
0
 62
4
 10
-6.12493308E+01
 20
-1.61108959E+02
  0
VERTEX
  8
0
 62
4
 10
-6.14395456E+01
 20
-1.61015761E+02
  0
VERTEX
  8
0
 62
4
 10
-6.16503756E+01
 20
-1.60929600E+02
  0
VERTEX
  8
0
 62
4
 10
-6.18801233E+01
 20
-1.60851171E+02
  0
VERTEX
  8
0
 62
4
 10
-6.21269389E+01
 20
-1.60781104E+02
  0
VERTEX
  8
0
 62
4
 10
-6.23888351E+01
 20
-1.60719964E+02
  0
VERTEX
  8
0
 62
4
 10
-6.26637035E+01
 20
-1.60668243E+02
  0
VERTEX
  8
0
 62
4
 10
-6.29493308E+01
 20
-1.60626358E+02
  0
VERTEX
  8
0
 62
4
 10
-6.32434174E+01
 20
-1.60594645E+02
  0
VERTEX
  8
0
 62
4
 10
-6.35435955E+01
 20
-1.60573360E+02
  0
VERTEX
  8
0
 62
4
 10
-6.38474482E+01
 20
-1.60562675E+02
  0
VERTEX
  8
0
 62
4
 10
-6.41525290E+01
 20
-1.60562675E+02
  0
VERTEX
  8
0
 62
4
 10
-6.44563817E+01
 20
-1.60573360E+02
  0
VERTEX
  8
0
 62
4
 10
-6.47565598E+01
 20
-1.60594645E+02
  0
VERTEX
  8
0
 62
4
 10
-6.50506464E+01
 20
-1.60626358E+02
  0
VERTEX
  8
0
 62
4
 10
-6.53362737E+01
 20
-1.60668243E+02
  0
VERTEX
  8
0
 62
4
 10
-6.56111420E+01
 20
-1.60719964E+02
  0
VERTEX
  8
0
 62
4
 10
-6.58730383E+01
 20
-1.60781104E+02
  0
VERTEX
  8
0
 62
4
 10
-6.61198539E+01
 20
-1.60851171E+02
  0
VERTEX
  8
0
 62
4
 10
-6.63496016E+01
 20
-1.60929600E+02
  0
VERTEX
  8
0
 62
4
 10
-6.65604316E+01
 20
-1.61015761E+02
  0
VERTEX
  8
0
 62
4
 10
-6.67506464E+01
 20
-1.61108959E+02
  0
VERTEX
  8
0
 62
4
 10
-6.69187145E+01
 20
-1.61208444E+02
  0
VERTEX
  8
0
 62
4
 10
-6.70632827E+01
 20
-1.61313415E+02
  0
VERTEX
  8
0
 62
4
 10
-6.71831872E+01
 20
-1.61423027E+02
  0
VERTEX
  8
0
 62
4
 10
-6.72774623E+01
 20
-1.61536397E+02
  0
VERTEX
  8
0
 62
4
 10
-6.73453492E+01
 20
-1.61652613E+02
  0
VERTEX
  8
0
 62
4
 10
-6.73863012E+01
 20
-1.61770738E+02
  0
VERTEX
  8
0
 62
4
 10
-6.73999886E+01
 20
-1.61889823E+02
  0
SEQEND
  8
0
  0
LINE
  8
0
 62
4
 10
-6.79999886E+01
 20
-1.61429571E+02
 11
-6.79999886E+01
 21
-1.61889823E+02
  0
LINE
  8
0
 62
4
 10
-5.99999886E+01
 20
-1.61429571E+02
 11
-5.99999886E+01
 21
-1.61889823E+02
  0
POLYLINE
  8
0
 62
4
 66
1
  0
VERTEX
  8
0
 62
4
 10
-6.05999886E+01
 20
-1.62713145E+02
  0
VERTEX
  8
0
 62
4
 10
-6.04269366E+01
 20
-1.62592411E+02
  0
VERTEX
  8
0
 62
4
 10
-6.02818936E+01
 20
-1.62466171E+02
  0
VERTEX
  8
0
 62
4
 10
-6.01659968E+01
 20
-1.62335412E+02
  0
VERTEX
  8
0
 62
4
 10
-6.00801545E+01
 20
-1.62201160E+02
  0
VERTEX
  8
0
 62
4
 10
-6.00250397E+01
 20
-1.62064468E+02
  0
VERTEX
  8
0
 62
4
 10
-6.00010845E+01
 20
-1.61926406E+02
  0
VERTEX
  8
0
 62
4
 10
-6.00084767E+01
 20
-1.61788058E+02
  0
VERTEX
  8
0
 62
4
 10
-6.00471582E+01
 20
-1.61650508E+02
  0
VERTEX
  8
0
 62
4
 10
-6.01168259E+01
 20
-1.61514834E+02
  0
VERTEX
  8
0
 62
4
 10
-6.02169336E+01
 20
-1.61382099E+02
  0
VERTEX
  8
0
 62
4
 10
-6.03466967E+01
 20
-1.61253344E+02
  0
VERTEX
  8
0
 62
4
 10
-6.05050978E+01
 20
-1.61129578E+02
  0
VERTEX
  8
0
 62
4
 10
-6.06908953E+01
 20
-1.61011773E+02
  0
VERTEX
  8
0
 62
4
 10
-6.09026328E+01
 20
-1.60900850E+02
  0
VERTEX
  8
0
 62
4
 10
-6.11386504E+01
 20
-1.60797679E+02
  0
VERTEX
  8
0
 62
4
 10
-6.13970979E+01
 20
-1.60703070E+02
  0
VERTEX
  8
0
 62
4
 10
-6.16759495E+01
 20
-1.60617764E+02
  0
VERTEX
  8
0
 62
4
 10
-6.19730191E+01
 20
-1.60542430E+02
  0
VERTEX
  8
0
 62
4
 10
-6.22859782E+01
 20
-1.60477657E+02
  0
VERTEX
  8
0
 62
4
 10
-6.26123733E+01
 20
-1.60423955E+02
  0
VERTEX
  8
0
 62
4
 10
-6.29496460E+01
 20
-1.60381744E+02
  0
VERTEX
  8
0
 62
4
 10
-6.32951522E+01
 20
-1.60351354E+02
  0
VERTEX
  8
0
 62
4
 10
-6.36461837E+01
 20
-1.60333024E+02
  0
VERTEX
  8
0
 62
4
 10
-6.39999886E+01
 20
-1.60326898E+02
  0
VERTEX
  8
0
 62
4
 10
-6.43537935E+01
 20
-1.60333024E+02
  0
VERTEX
  8
0
 62
4
 10
-6.47048250E+01
 20
-1.60351354E+02
  0
VERTEX
  8
0
 62
4
 10
-6.50503312E+01
 20
-1.60381744E+02
  0
VERTEX
  8
0
 62
4
 10
-6.53876038E+01
 20
-1.60423955E+02
  0
VERTEX
  8
0
 62
4
 10
-6.57139990E+01
 20
-1.60477657E+02
  0
VERTEX
  8
0
 62
4
 10
-6.60269580E+01
 20
-1.60542430E+02
  0
VERTEX
  8
0
 62
4
 10
-6.63240277E+01
 20
-1.60617764E+02
  0
VERTEX
  8
0
 62
4
 10
-6.66028793E+01
 20
-1.60703070E+02
  0
VERTEX
  8
0
 62
4
 10
-6.68613268E+01
 20
-1.60797679E+02
  0
VERTEX
  8
0
 62
4
 10
-6.70973444E+01
 20
-1.60900850E+02
  0
VERTEX
  8
0
 62
4
 10
-6.73090818E+01
 20
-1.61011773E+02
  0
VERTEX
  8
0
 62
4
 10
-6.74948794E+01
 20
-1.61129578E+02
  0
VERTEX
  8
0
 62
4
 10
-6.76532805E+01
 20
-1.61253344E+02
  0
VERTEX
  8
0
 62
4
 10
-6.77830436E+01
 20
-1.61382099E+02
  0
VERTEX
  8
0
 62
4
 10
-6.78831513E+01
 20
-1.61514834E+02
  0
VERTEX
  8
0
 62
4
 10
-6.79528190E+01
 20
-1.61650508E+02
  0
VERTEX
  8
0
 62
4
 10
-6.79915005E+01
 20
-1.61788058E+02
  0
VERTEX
  8
0
 62
4
 10
-6.79988927E+01
 20
-1.61926406E+02
  0
VERTEX
  8
0
 62
4
 10
-6.79749375E+01
 20
-1.62064468E+02
  0
VERTEX
  8
0
 62
4
 10
-6.79198227E+01
 20
-1.62201160E+02
  0
VERTEX
  8
0
 62
4
 10
-6.78339804E+01
 20
-1.62335412E+02
  0
VERTEX
  8
0
 62
4
 10
-6.77180836E+01
 20
-1.62466171E+02
  0
VERTEX
  8
0
 62
4
 10
-6.75730406E+01
 20
-1.62592411E+02
  0
VERTEX
  8
0
 62
4
 10
-6.73999886E+01
 20
-1.62713145E+02
  0
SEQEND
  8
0
  0
POLYLINE
  8
0
 62
4
 66
1
  0
VERTEX
  8
0
 62
4
 10
-5.99999886E+01
 20
-1.61429571E+02
  0
VERTEX
  8
0
 62
4
 10
-6.00160914E+01
 20
-1.61289472E+02
  0
VERTEX
  8
0
 62
4
 10
-6.00642702E+01
 20
-1.61150500E+02
  0
VERTEX
  8
0
 62
4
 10
-6.01441372E+01
 20
-1.61013775E+02
  0
VERTEX
  8
0
 62
4
 10
-6.02550491E+01
 20
-1.60880399E+02
  0
VERTEX
  8
0
 62
4
 10
-6.03961131E+01
 20
-1.60751443E+02
  0
VERTEX
  8
0
 62
4
 10
-6.05661934E+01
 20
-1.60627948E+02
  0
VERTEX
  8
0
 62
4
 10
-6.07639206E+01
 20
-1.60510907E+02
  0
VERTEX
  8
0
 62
4
 10
-6.09877027E+01
 20
-1.60401262E+02
  0
VERTEX
  8
0
 62
4
 10
-6.12357380E+01
 20
-1.60299897E+02
  0
VERTEX
  8
0
 62
4
 10
-6.15060294E+01
 20
-1.60207627E+02
  0
VERTEX
  8
0
 62
4
 10
-6.17964007E+01
 20
-1.60125196E+02
  0
VERTEX
  8
0
 62
4
 10
-6.21045139E+01
 20
-1.60053267E+02
  0
VERTEX
  8
0
 62
4
 10
-6.24278885E+01
 20
-1.59992419E+02
  0
VERTEX
  8
0
 62
4
 10
-6.27639206E+01
 20
-1.59943141E+02
  0
VERTEX
  8
0
 62
4
 10
-6.31099049E+01
 20
-1.59905832E+02
  0
VERTEX
  8
0
 62
4
 10
-6.34630555E+01
 20
-1.59880791E+02
  0
VERTEX
  8
0
 62
4
 10
-6.38205293E+01
 20
-1.59868220E+02
  0
VERTEX
  8
0
 62
4
 10
-6.41794479E+01
 20
-1.59868220E+02
  0
VERTEX
  8
0
 62
4
 10
-6.45369217E+01
 20
-1.59880791E+02
  0
VERTEX
  8
0
 62
4
 10
-6.48900723E+01
 20
-1.59905832E+02
  0
VERTEX
  8
0
 62
4
 10
-6.52360566E+01
 20
-1.59943141E+02
  0
VERTEX
  8
0
 62
4
 10
-6.55720887E+01
 20
-1.59992419E+02
  0
VERTEX
  8
0
 62
4
 10
-6.58954632E+01
 20
-1.60053267E+02
  0
VERTEX
  8
0
 62
4
 10
-6.62035765E+01
 20
-1.60125196E+02
  0
VERTEX
  8
0
 62
4
 10
-6.64939478E+01
 20
-1.60207627E+02
  0
VERTEX
  8
0
 62
4
 10
-6.67642392E+01
 20
-1.60299897E+02
  0
VERTEX
  8
0
 62
4
 10
-6.70122745E+01
 20
-1.60401262E+02
  0
VERTEX
  8
0
 62
4
 10
-6.72360566E+01
 20
-1.60510907E+02
  0
VERTEX
  8
0
 62
4
 10
-6.74337838E+01
 20
-1.60627948E+02
  0
VERTEX
  8
0
 62
4
 10
-6.76038641E+01
 20
-1.60751443E+02
  0
VERTEX
  8
0
 62
4
 10
-6.77449281E+01
 20
-1.60880399E+02
  0
VERTEX
  8
0
 62
4
 10
-6.78558400E+01
 20
-1.61013775E+02
  0
VERTEX
  8
0
 62
4
 10
-6.79357070E+01
 20
-1.61150500E+02
  0
VERTEX
  8
0
 62
4
 10
-6.79838858E+01
 20
-1.61289472E+02
  0
VERTEX
  8
0
 62
4
 10
-6.79999886E+01
 20
-1.61429571E+02
  0
SEQEND
  8
0
  0
POLYLINE
  8
0
 62
4
 66
1
  0
VERTEX
  8
0
 62
4
 10
-6.09999886E+01
 20
-1.36121826E+02
  0
VERTEX
  8
0
 62
4
 10
-6.10114045E+01
 20
-1.35881144E+02
  0
VERTEX
  8
0
 62
4
 10
-6.10455653E+01
 20
-1.35642294E+02
  0
VERTEX
  8
0
 62
4
 10
-6.11022111E+01
 20
-1.35407093E+02
  0
VERTEX
  8
0
 62
4
 10
-6.11809107E+01
 20
-1.35177332E+02
  0
VERTEX
  8
0
 62
4
 10
-6.12810652E+01
 20
-1.34954760E+02
  0
VERTEX
  8
0
 62
4
 10
-6.14019124E+01
 20
-1.34741069E+02
  0
VERTEX
  8
0
 62
4
 10
-6.15425325E+01
 20
-1.34537886E+02
  0
VERTEX
  8
0
 62
4
 10
-6.17018553E+01
 20
-1.34346759E+02
  0
VERTEX
  8
0
 62
4
 10
-6.18786683E+01
 20
-1.34169140E+02
  0
VERTEX
  8
0
 62
4
 10
-6.20716258E+01
 20
-1.34006383E+02
  0
VERTEX
  8
0
 62
4
 10
-6.22792593E+01
 20
-1.33859726E+02
  0
VERTEX
  8
0
 62
4
 10
-6.24999886E+01
 20
-1.33730284E+02
  0
VERTEX
  8
0
 62
4
 10
-6.27321338E+01
 20
-1.33619044E+02
  0
VERTEX
  8
0
 62
4
 10
-6.29739282E+01
 20
-1.33526851E+02
  0
VERTEX
  8
0
 62
4
 10
-6.32235315E+01
 20
-1.33454408E+02
  0
VERTEX
  8
0
 62
4
 10
-6.34790441E+01
 20
-1.33402265E+02
  0
VERTEX
  8
0
 62
4
 10
-6.37385214E+01
 20
-1.33370820E+02
  0
VERTEX
  8
0
 62
4
 10
-6.39999886E+01
 20
-1.33360311E+02
  0
VERTEX
  8
0
 62
4
 10
-6.42614558E+01
 20
-1.33370820E+02
  0
VERTEX
  8
0
 62
4
 10
-6.45209331E+01
 20
-1.33402265E+02
  0
VERTEX
  8
0
 62
4
 10
-6.47764457E+01
 20
-1.33454408E+02
  0
VERTEX
  8
0
 62
4
 10
-6.50260490E+01
 20
-1.33526851E+02
  0
VERTEX
  8
0
 62
4
 10
-6.52678434E+01
 20
-1.33619044E+02
  0
VERTEX
  8
0
 62
4
 10
-6.54999886E+01
 20
-1.33730284E+02
  0
VERTEX
  8
0
 62
4
 10
-6.57207179E+01
 20
-1.33859726E+02
  0
VERTEX
  8
0
 62
4
 10
-6.59283514E+01
 20
-1.34006383E+02
  0
VERTEX
  8
0
 62
4
 10
-6.61213089E+01
 20
-1.34169140E+02
  0
VERTEX
  8
0
 62
4
 10
-6.62981219E+01
 20
-1.34346759E+02
  0
VERTEX
  8
0
 62
4
 10
-6.64574447E+01
 20
-1.34537886E+02
  0
VERTEX
  8
0
 62
4
 10
-6.65980648E+01
 20
-1.34741069E+02
  0
VERTEX
  8
0
 62
4
 10
-6.67189120E+01
 20
-1.34954760E+02
  0
VERTEX
  8
0
 62
4
 10
-6.68190665E+01
 20
-1.35177332E+02
  0
VERTEX
  8
0
 62
4
 10
-6.68977661E+01
 20
-1.35407093E+02
  0
VERTEX
  8
0
 62
4
 10
-6.69544119E+01
 20
-1.35642294E+02
  0
VERTEX
  8
0
 62
4
 10
-6.69885727E+01
 20
-1.35881144E+02
  0
VERTEX
  8
0
 62
4
 10
-6.69999886E+01
 20
-1.36121826E+02
  0
VERTEX
  8
0
 62
4
 10
-6.69885727E+01
 20
-1.36362508E+02
  0
VERTEX
  8
0
 62
4
 10
-6.69544119E+01
 20
-1.36601358E+02
  0
VERTEX
  8
0
 62
4
 10
-6.68977661E+01
 20
-1.36836559E+02
  0
VERTEX
  8
0
 62
4
 10
-6.68190665E+01
 20
-1.37066320E+02
  0
VERTEX
  8
0
 62
4
 10
-6.67189120E+01
 20
-1.37288892E+02
  0
VERTEX
  8
0
 62
4
 10
-6.65980648E+01
 20
-1.37502583E+02
  0
VERTEX
  8
0
 62
4
 10
-6.64574447E+01
 20
-1.37705766E+02
  0
VERTEX
  8
0
 62
4
 10
-6.62981219E+01
 20
-1.37896893E+02
  0
VERTEX
  8
0
 62
4
 10
-6.61213089E+01
 20
-1.38074512E+02
  0
VERTEX
  8
0
 62
4
 10
-6.59283514E+01
 20
-1.38237269E+02
  0
VERTEX
  8
0
 62
4
 10
-6.57207179E+01
 20
-1.38383926E+02
  0
VERTEX
  8
0
 62
4
 10
-6.54999886E+01
 20
-1.38513368E+02
  0
VERTEX
  8
0
 62
4
 10
-6.52678434E+01
 20
-1.38624608E+02
  0
VERTEX
  8
0
 62
4
 10
-6.50260490E+01
 20
-1.38716801E+02
  0
VERTEX
  8
0
 62
4
 10
-6.47764457E+01
 20
-1.38789244E+02
  0
VERTEX
  8
0
 62
4
 10
-6.45209331E+01
 20
-1.38841387E+02
  0
VERTEX
  8
0
 62
4
 10
-6.42614558E+01
 20
-1.38872832E+02
  0
VERTEX
  8
0
 62
4
 10
-6.39999886E+01
 20
-1.38883341E+02
  0
VERTEX
  8
0
 62
4
 10
-6.37385214E+01
 20
-1.38872832E+02
  0
VERTEX
  8
0
 62
4
 10
-6.34790441E+01
 20
-1.38841387E+02
  0
VERTEX
  8
0
 62
4
 10
-6.32235315E+01
 20
-1.38789244E+02
  0
VERTEX
  8
0
 62
4
 10
-6.29739282E+01
 20
-1.38716801E+02
  0
VERTEX
  8
0
 62
4
 10
-6.27321338E+01
 20
-1.38624608E+02
  0
VERTEX
  8
0
 62
4
 10
-6.24999886E+01
 20
-1.38513368E+02
  0
VERTEX
  8
0
 62
4
 10
-6.22792593E+01
 20
-1.38383926E+02
  0
VERTEX
  8
0
 62
4
 10
-6.20716258E+01
 20
-1.38237269E+02
  0
VERTEX
  8
0
 62
4
 10
-6.18786683E+01
 20
-1.38074512E+02
  0
VERTEX
  8
0
 62
4
 10
-6.17018553E+01
 20
-1.37896893E+02
  0
VERTEX
  8
0
 62
4
 10
-6.15425325E+01
 20
-1.37705766E+02
  0
VERTEX
  8
0
 62
4
 10
-6.14019124E+01
 20
-1.37502583E+02
  0
VERTEX
  8
0
 62
4
 10
-6.12810652E+01
 20
-1.37288892E+02
  0
VERTEX
  8
0
 62
4
 10
-6.11809107E+01
 20
-1.37066320E+02
  0
VERTEX
  8
0
 62
4
 10
-6.11022111E+01
 20
-1.36836559E+02
  0
VERTEX
  8
0
 62
4
 10
-6.10455653E+01
 20
-1.36601358E+02
  0
VERTEX
  8
0
 62
4
 10
-6.10114045E+01
 20
-1.36362508E+02
  0
VERTEX
  8
0
 62
4
 10
-6.09999886E+01
 20
-1.36121826E+02
  0
SEQEND
  8
0
  0
LINE
  8
0
  6
CENTER
 62
6
 10
-6.84684674E+01
 20
-1.36121826E+02
 11
-5.95315097E+01
 21
-1.36121826E+02
  0
LINE
  8
0
 62
4
 10
-8.09999886E+01
 20
-1.31966215E+02
 11
-8.09999886E+01
 21
-1.44966215E+02
  0
ARC
  8
0
 62
4
 10
-8.04999890E+01
 20
-1.31966214E+02
 40
4.99999542E-01
 50
8.99999475E+01
 51
1.80000053E+02
  0
LINE
  8
0
 62
4
 10
-7.14999886E+01
 20
-1.31466215E+02
 11
-8.04999886E+01
 21
-1.31466215E+02
  0
LINE
  8
0
 62
4
 10
-9.09999886E+01
 20
-1.45918644E+02
 11
-8.59999886E+01
 21
-1.45918644E+02
  0
LINE
  8
0
 62
4
 10
-9.09999886E+01
 20
-1.42984253E+02
 11
-8.59999886E+01
 21
-1.42984253E+02
  0
LINE
  8
0
 62
4
 10
-9.09999886E+01
 20
-1.35535730E+02
 11
-8.59999886E+01
 21
-1.35535730E+02
  0
ARC
  8
0
 62
4
 10
-7.44999881E+01
 20
-1.62860054E+02
 40
1.50000046E+00
 50
1.80000018E+02
 51
2.69999983E+02
  0
ARC
  8
0
 62
4
 10
-3.84999852E+01
 20
-1.62860058E+02
 40
1.49999664E+00
 50
2.69999872E+02
 51
1.28225561E-04
  0
LINE
  8
0
 62
4
 10
-5.44999886E+01
 20
-1.37185065E+02
 11
-3.84999886E+01
 21
-1.37185065E+02
  0
LINE
  8
0
 62
4
 10
-5.64999886E+01
 20
-1.37145308E+02
 11
-5.44999886E+01
 21
-1.37145308E+02
  0
LINE
  8
0
 62
4
 10
-5.44999886E+01
 20
-1.37145308E+02
 11
-5.44999886E+01
 21
-1.56197811E+02
  0
LINE
  8
0
 62
4
 10
-7.14999886E+01
 20
-1.52793891E+02
 11
-5.64999886E+01
 21
-1.52793891E+02
  0
LINE
  8
0
 62
4
 10
-7.14999886E+01
 20
-1.43025613E+02
 11
-5.64999886E+01
 21
-1.43025613E+02
  0
ARC
  8
0
 62
4
 10
-8.04999843E+01
 20
-1.44966210E+02
 40
5.00004272E-01
 50
1.80000490E+02
 51
2.69999511E+02
  0
ARC
  8
0
 62
4
 10
-3.84999919E+01
 20
-1.38685068E+02
 40
1.50000336E+00
 50
1.28225275E-04
 51
8.99998718E+01
  0
LINE
  8
0
 62
4
 10
-7.44999886E+01
 20
-1.58499087E+02
 11
-3.84999886E+01
 21
-1.58499087E+02
  0
LINE
  8
0
 62
4
 10
-7.34999886E+01
 20
-1.54634901E+02
 11
-5.44999886E+01
 21
-1.54634901E+02
  0
LINE
  8
0
 62
4
 10
-7.59999886E+01
 20
-1.45466215E+02
 11
-7.59999886E+01
 21
-1.62860054E+02
  0
LINE
  8
0
 62
4
 10
-7.34999886E+01
 20
-1.45466215E+02
 11
-7.34999886E+01
 21
-1.56197811E+02
  0
LINE
  8
0
 62
4
 10
-3.69999886E+01
 20
-1.38685065E+02
 11
-3.69999886E+01
 21
-1.62860054E+02
  0
LINE
  8
0
 62
4
 10
-9.09999886E+01
 20
-1.31017690E+02
 11
-8.59999886E+01
 21
-1.31017690E+02
  0
LINE
  8
0
 62
4
 10
-7.14999886E+01
 20
-1.29218040E+02
 11
-5.64999886E+01
 21
-1.29218040E+02
  0
LINE
  8
0
 62
4
 10
-8.44999886E+01
 20
-1.44216215E+02
 11
-8.09999886E+01
 21
-1.44216215E+02
  0
LINE
  8
0
 62
4
 10
-8.44999886E+01
 20
-1.32716215E+02
 11
-8.09999886E+01
 21
-1.32716215E+02
  0
LINE
  8
0
 62
4
 10
-8.44999886E+01
 20
-1.32216215E+02
 11
-8.44999886E+01
 21
-1.44716215E+02
  0
LINE
  8
0
 62
4
 10
-8.59999886E+01
 20
-1.44716215E+02
 11
-8.09999886E+01
 21
-1.44716215E+02
  0
LINE
  8
0
 62
4
 10
-8.59999886E+01
 20
-1.32216215E+02
 11
-8.09999886E+01
 21
-1.32216215E+02
  0
LINE
  8
0
 62
4
 10
-8.59999886E+01
 20
-1.45918644E+02
 11
-8.59999886E+01
 21
-1.31017690E+02
  0
LINE
  8
0
 62
4
 10
-9.09999886E+01
 20
-1.31017690E+02
 11
-9.09999886E+01
 21
-1.45918644E+02
  0
LINE
  8
0
 62
4
 10
-8.04999886E+01
 20
-1.45466215E+02
 11
-7.14999886E+01
 21
-1.45466215E+02
  0
LINE
  8
0
  6
CENTER
 62
6
 10
-6.39999886E+01
 20
-1.22105136E+02
 11
-6.39999886E+01
 21
-1.74499969E+02
  0
LINE
  8
0
 62
4
 10
-6.73999886E+01
 20
-1.63785562E+02
 11
-6.73999886E+01
 21
-1.61889823E+02
  0
LINE
  8
0
 62
4
 10
-6.05999886E+01
 20
-1.61889823E+02
 11
-6.05999886E+01
 21
-1.63785562E+02
  0
LINE
  8
0
  6
CENTER
 62
6
 10
-6.79999886E+01
 20
-1.20345854E+02
 11
-6.79999886E+01
 21
-1.30845854E+02
  0
LINE
  8
0
 62
4
 10
-5.64999886E+01
 20
-1.24025854E+02
 11
-7.14999886E+01
 21
-1.24025854E+02
  0
LINE
  8
0
 62
4
 10
-5.64999886E+01
 20
-1.24025854E+02
 11
-5.64999886E+01
 21
-1.52793891E+02
  0
LINE
  8
0
 62
4
 10
-7.14999886E+01
 20
-1.24025854E+02
 11
-7.14999886E+01
 21
-1.52793891E+02
  0
LINE
  8
0
  6
CENTER
 62
6
 10
-5.99999886E+01
 20
-1.20345854E+02
 11
-5.99999886E+01
 21
-1.30845854E+02
  0
LINE
  8
0
 62
4
 10
3.23139859E+02
 20
-2.89069941E+02
 11
3.23447159E+02
 21
-2.89754023E+02
  0
LINE
  8
0
 62
4
 10
3.16859859E+02
 20
-2.89069941E+02
 11
3.16552559E+02
 21
-2.89754023E+02
  0
POLYLINE
  8
0
 62
4
 66
1
  0
VERTEX
  8
0
 62
4
 10
3.16552559E+02
 20
-2.89754023E+02
  0
VERTEX
  8
0
 62
4
 10
3.16512285E+02
 20
-2.89875313E+02
  0
VERTEX
  8
0
 62
4
 10
3.16499906E+02
 20
-2.89997524E+02
  0
VERTEX
  8
0
 62
4
 10
3.16515521E+02
 20
-2.90119678E+02
  0
VERTEX
  8
0
 62
4
 10
3.16559006E+02
 20
-2.90240799E+02
  0
VERTEX
  8
0
 62
4
 10
3.16630013E+02
 20
-2.90359917E+02
  0
VERTEX
  8
0
 62
4
 10
3.16727973E+02
 20
-2.90476080E+02
  0
VERTEX
  8
0
 62
4
 10
3.16852103E+02
 20
-2.90588358E+02
  0
VERTEX
  8
0
 62
4
 10
3.17001411E+02
 20
-2.90695855E+02
  0
VERTEX
  8
0
 62
4
 10
3.17174701E+02
 20
-2.90797709E+02
  0
VERTEX
  8
0
 62
4
 10
3.17370589E+02
 20
-2.90893106E+02
  0
VERTEX
  8
0
 62
4
 10
3.17587507E+02
 20
-2.90981283E+02
  0
VERTEX
  8
0
 62
4
 10
3.17823719E+02
 20
-2.91061535E+02
  0
VERTEX
  8
0
 62
4
 10
3.18077338E+02
 20
-2.91133220E+02
  0
VERTEX
  8
0
 62
4
 10
3.18346334E+02
 20
-2.91195765E+02
  0
VERTEX
  8
0
 62
4
 10
3.18628556E+02
 20
-2.91248669E+02
  0
VERTEX
  8
0
 62
4
 10
3.18921746E+02
 20
-2.91291509E+02
  0
VERTEX
  8
0
 62
4
 10
3.19223559E+02
 20
-2.91323942E+02
  0
VERTEX
  8
0
 62
4
 10
3.19531581E+02
 20
-2.91345710E+02
  0
VERTEX
  8
0
 62
4
 10
3.19843349E+02
 20
-2.91356637E+02
  0
VERTEX
  8
0
 62
4
 10
3.20156369E+02
 20
-2.91356637E+02
  0
VERTEX
  8
0
 62
4
 10
3.20468137E+02
 20
-2.91345710E+02
  0
VERTEX
  8
0
 62
4
 10
3.20776159E+02
 20
-2.91323942E+02
  0
VERTEX
  8
0
 62
4
 10
3.21077972E+02
 20
-2.91291509E+02
  0
VERTEX
  8
0
 62
4
 10
3.21371162E+02
 20
-2.91248669E+02
  0
VERTEX
  8
0
 62
4
 10
3.21653384E+02
 20
-2.91195765E+02
  0
VERTEX
  8
0
 62
4
 10
3.21922380E+02
 20
-2.91133220E+02
  0
VERTEX
  8
0
 62
4
 10
3.22175998E+02
 20
-2.91061535E+02
  0
VERTEX
  8
0
 62
4
 10
3.22412211E+02
 20
-2.90981283E+02
  0
VERTEX
  8
0
 62
4
 10
3.22629129E+02
 20
-2.90893106E+02
  0
VERTEX
  8
0
 62
4
 10
3.22825017E+02
 20
-2.90797709E+02
  0
VERTEX
  8
0
 62
4
 10
3.22998307E+02
 20
-2.90695855E+02
  0
VERTEX
  8
0
 62
4
 10
3.23147615E+02
 20
-2.90588358E+02
  0
VERTEX
  8
0
 62
4
 10
3.23271745E+02
 20
-2.90476080E+02
  0
VERTEX
  8
0
 62
4
 10
3.23369705E+02
 20
-2.90359917E+02
  0
VERTEX
  8
0
 62
4
 10
3.23440712E+02
 20
-2.90240799E+02
  0
VERTEX
  8
0
 62
4
 10
3.23484197E+02
 20
-2.90119678E+02
  0
VERTEX
  8
0
 62
4
 10
3.23499812E+02
 20
-2.89997524E+02
  0
VERTEX
  8
0
 62
4
 10
3.23487433E+02
 20
-2.89875313E+02
  0
VERTEX
  8
0
 62
4
 10
3.23447159E+02
 20
-2.89754023E+02
  0
SEQEND
  8
0
  0
POLYLINE
  8
0
 62
4
 66
1
  0
VERTEX
  8
0
 62
4
 10
3.23139859E+02
 20
-2.89069941E+02
  0
VERTEX
  8
0
 62
4
 10
3.23127910E+02
 20
-2.88963010E+02
  0
VERTEX
  8
0
 62
4
 10
3.23092155E+02
 20
-2.88856893E+02
  0
VERTEX
  8
0
 62
4
 10
3.23032866E+02
 20
-2.88752397E+02
  0
VERTEX
  8
0
 62
4
 10
3.22950494E+02
 20
-2.88650318E+02
  0
VERTEX
  8
0
 62
4
 10
3.22845665E+02
 20
-2.88551432E+02
  0
VERTEX
  8
0
 62
4
 10
3.22719179E+02
 20
-2.88456493E+02
  0
VERTEX
  8
0
 62
4
 10
3.22571996E+02
 20
-2.88366223E+02
  0
VERTEX
  8
0
 62
4
 10
3.22405239E+02
 20
-2.88281308E+02
  0
VERTEX
  8
0
 62
4
 10
3.22220174E+02
 20
-2.88202395E+02
  0
VERTEX
  8
0
 62
4
 10
3.22018212E+02
 20
-2.88130084E+02
  0
VERTEX
  8
0
 62
4
 10
3.21800889E+02
 20
-2.88064927E+02
  0
VERTEX
  8
0
 62
4
 10
3.21569859E+02
 20
-2.88007418E+02
  0
VERTEX
  8
0
 62
4
 10
3.21326880E+02
 20
-2.87957996E+02
  0
VERTEX
  8
0
 62
4
 10
3.21073802E+02
 20
-2.87917036E+02
  0
VERTEX
  8
0
 62
4
 10
3.20812551E+02
 20
-2.87884851E+02
  0
VERTEX
  8
0
 62
4
 10
3.20545114E+02
 20
-2.87861685E+02
  0
VERTEX
  8
0
 62
4
 10
3.20273528E+02
 20
-2.87847714E+02
  0
VERTEX
  8
0
 62
4
 10
3.19999859E+02
 20
-2.87843045E+02
  0
VERTEX
  8
0
 62
4
 10
3.19726190E+02
 20
-2.87847714E+02
  0
VERTEX
  8
0
 62
4
 10
3.19454604E+02
 20
-2.87861685E+02
  0
VERTEX
  8
0
 62
4
 10
3.19187167E+02
 20
-2.87884851E+02
  0
VERTEX
  8
0
 62
4
 10
3.18925916E+02
 20
-2.87917036E+02
  0
VERTEX
  8
0
 62
4
 10
3.18672838E+02
 20
-2.87957996E+02
  0
VERTEX
  8
0
 62
4
 10
3.18429859E+02
 20
-2.88007418E+02
  0
VERTEX
  8
0
 62
4
 10
3.18198829E+02
 20
-2.88064927E+02
  0
VERTEX
  8
0
 62
4
 10
3.17981506E+02
 20
-2.88130084E+02
  0
VERTEX
  8
0
 62
4
 10
3.17779544E+02
 20
-2.88202395E+02
  0
VERTEX
  8
0
 62
4
 10
3.17594479E+02
 20
-2.88281308E+02
  0
VERTEX
  8
0
 62
4
 10
3.17427722E+02
 20
-2.88366223E+02
  0
VERTEX
  8
0
 62
4
 10
3.17280539E+02
 20
-2.88456493E+02
  0
VERTEX
  8
0
 62
4
 10
3.17154053E+02
 20
-2.88551432E+02
  0
VERTEX
  8
0
 62
4
 10
3.17049224E+02
 20
-2.88650318E+02
  0
VERTEX
  8
0
 62
4
 10
3.16966852E+02
 20
-2.88752397E+02
  0
VERTEX
  8
0
 62
4
 10
3.16907563E+02
 20
-2.88856893E+02
  0
VERTEX
  8
0
 62
4
 10
3.16871808E+02
 20
-2.88963010E+02
  0
VERTEX
  8
0
 62
4
 10
3.16859859E+02
 20
-2.89069941E+02
  0
VERTEX
  8
0
 62
4
 10
3.16871808E+02
 20
-2.89176872E+02
  0
VERTEX
  8
0
 62
4
 10
3.16907563E+02
 20
-2.89282989E+02
  0
VERTEX
  8
0
 62
4
 10
3.16966852E+02
 20
-2.89387485E+02
  0
VERTEX
  8
0
 62
4
 10
3.17049224E+02
 20
-2.89489564E+02
  0
VERTEX
  8
0
 62
4
 10
3.17154053E+02
 20
-2.89588450E+02
  0
VERTEX
  8
0
 62
4
 10
3.17280539E+02
 20
-2.89683389E+02
  0
VERTEX
  8
0
 62
4
 10
3.17427722E+02
 20
-2.89773659E+02
  0
VERTEX
  8
0
 62
4
 10
3.17594479E+02
 20
-2.89858574E+02
  0
VERTEX
  8
0
 62
4
 10
3.17779544E+02
 20
-2.89937487E+02
  0
VERTEX
  8
0
 62
4
 10
3.17981506E+02
 20
-2.90009798E+02
  0
VERTEX
  8
0
 62
4
 10
3.18198829E+02
 20
-2.90074955E+02
  0
VERTEX
  8
0
 62
4
 10
3.18429859E+02
 20
-2.90132464E+02
  0
VERTEX
  8
0
 62
4
 10
3.18672838E+02
 20
-2.90181886E+02
  0
VERTEX
  8
0
 62
4
 10
3.18925916E+02
 20
-2.90222846E+02
  0
VERTEX
  8
0
 62
4
 10
3.19187167E+02
 20
-2.90255031E+02
  0
VERTEX
  8
0
 62
4
 10
3.19454604E+02
 20
-2.90278197E+02
  0
VERTEX
  8
0
 62
4
 10
3.19726190E+02
 20
-2.90292168E+02
  0
VERTEX
  8
0
 62
4
 10
3.19999859E+02
 20
-2.90296837E+02
  0
VERTEX
  8
0
 62
4
 10
3.20273528E+02
 20
-2.90292168E+02
  0
VERTEX
  8
0
 62
4
 10
3.20545114E+02
 20
-2.90278197E+02
  0
VERTEX
  8
0
 62
4
 10
3.20812551E+02
 20
-2.90255031E+02
  0
VERTEX
  8
0
 62
4
 10
3.21073802E+02
 20
-2.90222846E+02
  0
VERTEX
  8
0
 62
4
 10
3.21326880E+02
 20
-2.90181886E+02
  0
VERTEX
  8
0
 62
4
 10
3.21569859E+02
 20
-2.90132464E+02
  0
VERTEX
  8
0
 62
4
 10
3.21800889E+02
 20
-2.90074955E+02
  0
VERTEX
  8
0
 62
4
 10
3.22018212E+02
 20
-2.90009798E+02
  0
VERTEX
  8
0
 62
4
 10
3.22220174E+02
 20
-2.89937487E+02
  0
VERTEX
  8
0
 62
4
 10
3.22405239E+02
 20
-2.89858574E+02
  0
VERTEX
  8
0
 62
4
 10
3.22571996E+02
 20
-2.89773659E+02
  0
VERTEX
  8
0
 62
4
 10
3.22719179E+02
 20
-2.89683389E+02
  0
VERTEX
  8
0
 62
4
 10
3.22845665E+02
 20
-2.89588450E+02
  0
VERTEX
  8
0
 62
4
 10
3.22950494E+02
 20
-2.89489564E+02
  0
VERTEX
  8
0
 62
4
 10
3.23032866E+02
 20
-2.89387485E+02
  0
VERTEX
  8
0
 62
4
 10
3.23092155E+02
 20
-2.89282989E+02
  0
VERTEX
  8
0
 62
4
 10
3.23127910E+02
 20
-2.89176872E+02
  0
VERTEX
  8
0
 62
4
 10
3.23139859E+02
 20
-2.89069941E+02
  0
SEQEND
  8
0
  0
LINE
  8
0
  6
CENTER
 62
6
 10
3.19999859E+02
 20
-2.85236745E+02
 11
3.19999859E+02
 21
-2.89069941E+02
  0
LINE
  8
0
 62
4
 10
3.62999859E+02
 20
-2.75731826E+02
 11
3.57999859E+02
 21
-2.75731826E+02
  0
LINE
  8
0
 62
4
 10
3.62999859E+02
 20
-2.74819685E+02
 11
3.57999859E+02
 21
-2.74819685E+02
  0
LINE
  8
0
 62
4
 10
3.62999859E+02
 20
-2.67906693E+02
 11
3.57999859E+02
 21
-2.67906693E+02
  0
LINE
  8
0
 62
4
 10
3.46499859E+02
 20
-2.92422316E+02
 11
3.46499859E+02
 21
-2.87381862E+02
  0
LINE
  8
0
 62
4
 10
3.10499867E+02
 20
-2.92422316E+02
 11
3.10499867E+02
 21
-2.87381862E+02
  0
POLYLINE
  8
0
 62
4
 66
1
  0
VERTEX
  8
0
 62
4
 10
3.41734859E+02
 20
-3.21735521E+02
  0
VERTEX
  8
0
 62
4
 10
3.41728257E+02
 20
-3.21596327E+02
  0
VERTEX
  8
0
 62
4
 10
3.41708500E+02
 20
-3.21458192E+02
  0
VERTEX
  8
0
 62
4
 10
3.41675740E+02
 20
-3.21322167E+02
  0
VERTEX
  8
0
 62
4
 10
3.41630226E+02
 20
-3.21189289E+02
  0
VERTEX
  8
0
 62
4
 10
3.41572303E+02
 20
-3.21060568E+02
  0
VERTEX
  8
0
 62
4
 10
3.41502413E+02
 20
-3.20936983E+02
  0
VERTEX
  8
0
 62
4
 10
3.41421088E+02
 20
-3.20819476E+02
  0
VERTEX
  8
0
 62
4
 10
3.41328946E+02
 20
-3.20708940E+02
  0
VERTEX
  8
0
 62
4
 10
3.41226689E+02
 20
-3.20606218E+02
  0
VERTEX
  8
0
 62
4
 10
3.41115096E+02
 20
-3.20512090E+02
  0
VERTEX
  8
0
 62
4
 10
3.40995014E+02
 20
-3.20427273E+02
  0
VERTEX
  8
0
 62
4
 10
3.40867359E+02
 20
-3.20352413E+02
  0
VERTEX
  8
0
 62
4
 10
3.40733102E+02
 20
-3.20288079E+02
  0
VERTEX
  8
0
 62
4
 10
3.40593264E+02
 20
-3.20234761E+02
  0
VERTEX
  8
0
 62
4
 10
3.40448910E+02
 20
-3.20192864E+02
  0
VERTEX
  8
0
 62
4
 10
3.40301139E+02
 20
-3.20162708E+02
  0
VERTEX
  8
0
 62
4
 10
3.40151074E+02
 20
-3.20144522E+02
  0
VERTEX
  8
0
 62
4
 10
3.39999859E+02
 20
-3.20138445E+02
  0
VERTEX
  8
0
 62
4
 10
3.39848644E+02
 20
-3.20144522E+02
  0
VERTEX
  8
0
 62
4
 10
3.39698579E+02
 20
-3.20162708E+02
  0
VERTEX
  8
0
 62
4
 10
3.39550808E+02
 20
-3.20192864E+02
  0
VERTEX
  8
0
 62
4
 10
3.39406454E+02
 20
-3.20234761E+02
  0
VERTEX
  8
0
 62
4
 10
3.39266616E+02
 20
-3.20288079E+02
  0
VERTEX
  8
0
 62
4
 10
3.39132359E+02
 20
-3.20352413E+02
  0
VERTEX
  8
0
 62
4
 10
3.39004704E+02
 20
-3.20427273E+02
  0
VERTEX
  8
0
 62
4
 10
3.38884622E+02
 20
-3.20512090E+02
  0
VERTEX
  8
0
 62
4
 10
3.38773029E+02
 20
-3.20606218E+02
  0
VERTEX
  8
0
 62
4
 10
3.38670772E+02
 20
-3.20708940E+02
  0
VERTEX
  8
0
 62
4
 10
3.38578630E+02
 20
-3.20819476E+02
  0
VERTEX
  8
0
 62
4
 10
3.38497305E+02
 20
-3.20936983E+02
  0
VERTEX
  8
0
 62
4
 10
3.38427415E+02
 20
-3.21060568E+02
  0
VERTEX
  8
0
 62
4
 10
3.38369492E+02
 20
-3.21189289E+02
  0
VERTEX
  8
0
 62
4
 10
3.38323978E+02
 20
-3.21322167E+02
  0
VERTEX
  8
0
 62
4
 10
3.38291218E+02
 20
-3.21458192E+02
  0
VERTEX
  8
0
 62
4
 10
3.38271461E+02
 20
-3.21596327E+02
  0
VERTEX
  8
0
 62
4
 10
3.38264859E+02
 20
-3.21735521E+02
  0
VERTEX
  8
0
 62
4
 10
3.38271461E+02
 20
-3.21874715E+02
  0
VERTEX
  8
0
 62
4
 10
3.38291218E+02
 20
-3.22012850E+02
  0
VERTEX
  8
0
 62
4
 10
3.38323978E+02
 20
-3.22148875E+02
  0
VERTEX
  8
0
 62
4
 10
3.38369492E+02
 20
-3.22281753E+02
  0
VERTEX
  8
0
 62
4
 10
3.38427415E+02
 20
-3.22410474E+02
  0
VERTEX
  8
0
 62
4
 10
3.38497305E+02
 20
-3.22534059E+02
  0
VERTEX
  8
0
 62
4
 10
3.38578630E+02
 20
-3.22651566E+02
  0
VERTEX
  8
0
 62
4
 10
3.38670772E+02
 20
-3.22762102E+02
  0
VERTEX
  8
0
 62
4
 10
3.38773029E+02
 20
-3.22864824E+02
  0
VERTEX
  8
0
 62
4
 10
3.38884622E+02
 20
-3.22958952E+02
  0
VERTEX
  8
0
 62
4
 10
3.39004704E+02
 20
-3.23043769E+02
  0
VERTEX
  8
0
 62
4
 10
3.39132359E+02
 20
-3.23118629E+02
  0
VERTEX
  8
0
 62
4
 10
3.39266616E+02
 20
-3.23182963E+02
  0
VERTEX
  8
0
 62
4
 10
3.39406454E+02
 20
-3.23236281E+02
  0
VERTEX
  8
0
 62
4
 10
3.39550808E+02
 20
-3.23278178E+02
  0
VERTEX
  8
0
 62
4
 10
3.39698579E+02
 20
-3.23308334E+02
  0
VERTEX
  8
0
 62
4
 10
3.39848644E+02
 20
-3.23326520E+02
  0
VERTEX
  8
0
 62
4
 10
3.39999859E+02
 20
-3.23332597E+02
  0
VERTEX
  8
0
 62
4
 10
3.40151074E+02
 20
-3.23326520E+02
  0
VERTEX
  8
0
 62
4
 10
3.40301139E+02
 20
-3.23308334E+02
  0
VERTEX
  8
0
 62
4
 10
3.40448910E+02
 20
-3.23278178E+02
  0
VERTEX
  8
0
 62
4
 10
3.40593264E+02
 20
-3.23236281E+02
  0
VERTEX
  8
0
 62
4
 10
3.40733102E+02
 20
-3.23182963E+02
  0
VERTEX
  8
0
 62
4
 10
3.40867359E+02
 20
-3.23118629E+02
  0
VERTEX
  8
0
 62
4
 10
3.40995014E+02
 20
-3.23043769E+02
  0
VERTEX
  8
0
 62
4
 10
3.41115096E+02
 20
-3.22958952E+02
  0
VERTEX
  8
0
 62
4
 10
3.41226689E+02
 20
-3.22864824E+02
  0
VERTEX
  8
0
 62
4
 10
3.41328946E+02
 20
-3.22762102E+02
  0
VERTEX
  8
0
 62
4
 10
3.41421088E+02
 20
-3.22651566E+02
  0
VERTEX
  8
0
 62
4
 10
3.41502413E+02
 20
-3.22534059E+02
  0
VERTEX
  8
0
 62
4
 10
3.41572303E+02
 20
-3.22410474E+02
  0
VERTEX
  8
0
 62
4
 10
3.41630226E+02
 20
-3.22281753E+02
  0
VERTEX
  8
0
 62
4
 10
3.41675740E+02
 20
-3.22148875E+02
  0
VERTEX
  8
0
 62
4
 10
3.41708500E+02
 20
-3.22012850E+02
  0
VERTEX
  8
0
 62
4
 10
3.41728257E+02
 20
-3.21874715E+02
  0
VERTEX
  8
0
 62
4
 10
3.41734859E+02
 20
-3.21735521E+02
  0
SEQEND
  8
0
  0
POLYLINE
  8
0
 62
6
 66
1
  0
VERTEX
  8
0
 62
6
 10
3.41499859E+02
 20
-3.21740123E+02
  0
VERTEX
  8
0
 62
6
 10
3.41494151E+02
 20
-3.21619782E+02
  0
VERTEX
  8
0
 62
6
 10
3.41477071E+02
 20
-3.21500357E+02
  0
VERTEX
  8
0
 62
6
 10
3.41448748E+02
 20
-3.21382757E+02
  0
VERTEX
  8
0
 62
6
 10
3.41409398E+02
 20
-3.21267876E+02
  0
VERTEX
  8
0
 62
6
 10
3.41359321E+02
 20
-3.21156590E+02
  0
VERTEX
  8
0
 62
6
 10
3.41298897E+02
 20
-3.21049744E+02
  0
VERTEX
  8
0
 62
6
 10
3.41228587E+02
 20
-3.20948153E+02
  0
VERTEX
  8
0
 62
6
 10
3.41148926E+02
 20
-3.20852589E+02
  0
VERTEX
  8
0
 62
6
 10
3.41060519E+02
 20
-3.20763780E+02
  0
VERTEX
  8
0
 62
6
 10
3.40964040E+02
 20
-3.20682402E+02
  0
VERTEX
  8
0
 62
6
 10
3.40860224E+02
 20
-3.20609073E+02
  0
VERTEX
  8
0
 62
6
 10
3.40749859E+02
 20
-3.20544352E+02
  0
VERTEX
  8
0
 62
6
 10
3.40633786E+02
 20
-3.20488732E+02
  0
VERTEX
  8
0
 62
6
 10
3.40512889E+02
 20
-3.20442636E+02
  0
VERTEX
  8
0
 62
6
 10
3.40388088E+02
 20
-3.20406414E+02
  0
VERTEX
  8
0
 62
6
 10
3.40260331E+02
 20
-3.20380343E+02
  0
VERTEX
  8
0
 62
6
 10
3.40130593E+02
 20
-3.20364620E+02
  0
VERTEX
  8
0
 62
6
 10
3.39999859E+02
 20
-3.20359366E+02
  0
VERTEX
  8
0
 62
6
 10
3.39869125E+02
 20
-3.20364620E+02
  0
VERTEX
  8
0
 62
6
 10
3.39739387E+02
 20
-3.20380343E+02
  0
VERTEX
  8
0
 62
6
 10
3.39611630E+02
 20
-3.20406414E+02
  0
VERTEX
  8
0
 62
6
 10
3.39486829E+02
 20
-3.20442636E+02
  0
VERTEX
  8
0
 62
6
 10
3.39365932E+02
 20
-3.20488732E+02
  0
VERTEX
  8
0
 62
6
 10
3.39249859E+02
 20
-3.20544352E+02
  0
VERTEX
  8
0
 62
6
 10
3.39139494E+02
 20
-3.20609073E+02
  0
VERTEX
  8
0
 62
6
 10
3.39035678E+02
 20
-3.20682402E+02
  0
VERTEX
  8
0
 62
6
 10
3.38939199E+02
 20
-3.20763780E+02
  0
VERTEX
  8
0
 62
6
 10
3.38850792E+02
 20
-3.20852589E+02
  0
VERTEX
  8
0
 62
6
 10
3.38771131E+02
 20
-3.20948153E+02
  0
VERTEX
  8
0
 62
6
 10
3.38700821E+02
 20
-3.21049744E+02
  0
VERTEX
  8
0
 62
6
 10
3.38640397E+02
 20
-3.21156590E+02
  0
VERTEX
  8
0
 62
6
 10
3.38590320E+02
 20
-3.21267876E+02
  0
VERTEX
  8
0
 62
6
 10
3.38550970E+02
 20
-3.21382757E+02
  0
VERTEX
  8
0
 62
6
 10
3.38522647E+02
 20
-3.21500357E+02
  0
VERTEX
  8
0
 62
6
 10
3.38505567E+02
 20
-3.21619782E+02
  0
VERTEX
  8
0
 62
6
 10
3.38499859E+02
 20
-3.21740123E+02
  0
VERTEX
  8
0
 62
6
 10
3.38505567E+02
 20
-3.21860464E+02
  0
VERTEX
  8
0
 62
6
 10
3.38522647E+02
 20
-3.21979889E+02
  0
VERTEX
  8
0
 62
6
 10
3.38550970E+02
 20
-3.22097489E+02
  0
VERTEX
  8
0
 62
6
 10
3.38590320E+02
 20
-3.22212370E+02
  0
VERTEX
  8
0
 62
6
 10
3.38640397E+02
 20
-3.22323656E+02
  0
VERTEX
  8
0
 62
6
 10
3.38700821E+02
 20
-3.22430502E+02
  0
VERTEX
  8
0
 62
6
 10
3.38771131E+02
 20
-3.22532093E+02
  0
VERTEX
  8
0
 62
6
 10
3.38850792E+02
 20
-3.22627657E+02
  0
VERTEX
  8
0
 62
6
 10
3.38939199E+02
 20
-3.22716466E+02
  0
VERTEX
  8
0
 62
6
 10
3.39035678E+02
 20
-3.22797844E+02
  0
VERTEX
  8
0
 62
6
 10
3.39139494E+02
 20
-3.22871173E+02
  0
VERTEX
  8
0
 62
6
 10
3.39249859E+02
 20
-3.22935894E+02
  0
VERTEX
  8
0
 62
6
 10
3.39365932E+02
 20
-3.22991514E+02
  0
VERTEX
  8
0
 62
6
 10
3.39486829E+02
 20
-3.23037610E+02
  0
VERTEX
  8
0
 62
6
 10
3.39611630E+02
 20
-3.23073832E+02
  0
VERTEX
  8
0
 62
6
 10
3.39739387E+02
 20
-3.23099903E+02
  0
VERTEX
  8
0
 62
6
 10
3.39869125E+02
 20
-3.23115626E+02
  0
VERTEX
  8
0
 62
6
 10
3.39999859E+02
 20
-3.23120880E+02
  0
VERTEX
  8
0
 62
6
 10
3.40130593E+02
 20
-3.23115626E+02
  0
VERTEX
  8
0
 62
6
 10
3.40260331E+02
 20
-3.23099903E+02
  0
VERTEX
  8
0
 62
6
 10
3.40388088E+02
 20
-3.23073832E+02
  0
VERTEX
  8
0
 62
6
 10
3.40512889E+02
 20
-3.23037610E+02
  0
VERTEX
  8
0
 62
6
 10
3.40633786E+02
 20
-3.22991514E+02
  0
VERTEX
  8
0
 62
6
 10
3.40749859E+02
 20
-3.22935894E+02
  0
VERTEX
  8
0
 62
6
 10
3.40860224E+02
 20
-3.22871173E+02
  0
VERTEX
  8
0
 62
6
 10
3.40964040E+02
 20
-3.22797844E+02
  0
VERTEX
  8
0
 62
6
 10
3.41060519E+02
 20
-3.22716466E+02
  0
VERTEX
  8
0
 62
6
 10
3.41148926E+02
 20
-3.22627657E+02
  0
VERTEX
  8
0
 62
6
 10
3.41228587E+02
 20
-3.22532093E+02
  0
VERTEX
  8
0
 62
6
 10
3.41298897E+02
 20
-3.22430502E+02
  0
VERTEX
  8
0
 62
6
 10
3.41359321E+02
 20
-3.22323656E+02
  0
VERTEX
  8
0
 62
6
 10
3.41409398E+02
 20
-3.22212370E+02
  0
VERTEX
  8
0
 62
6
 10
3.41448748E+02
 20
-3.22097489E+02
  0
VERTEX
  8
0
 62
6
 10
3.41477071E+02
 20
-3.21979889E+02
  0
VERTEX
  8
0
 62
6
 10
3.41494151E+02
 20
-3.21860464E+02
  0
VERTEX
  8
0
 62
6
 10
3.41499859E+02
 20
-3.21740123E+02
  0
SEQEND
  8
0
  0
POLYLINE
  8
0
 62
4
 66
1
  0
VERTEX
  8
0
 62
4
 10
3.41725091E+02
 20
-3.21904752E+02
  0
VERTEX
  8
0
 62
4
 10
3.41806945E+02
 20
-3.21762327E+02
  0
VERTEX
  8
0
 62
4
 10
3.41874957E+02
 20
-3.21613860E+02
  0
VERTEX
  8
0
 62
4
 10
3.41928606E+02
 20
-3.21460488E+02
  0
VERTEX
  8
0
 62
4
 10
3.41967481E+02
 20
-3.21303385E+02
  0
VERTEX
  8
0
 62
4
 10
3.41991284E+02
 20
-3.21143755E+02
  0
VERTEX
  8
0
 62
4
 10
3.41999833E+02
 20
-3.20982820E+02
  0
VERTEX
  8
0
 62
4
 10
3.41993062E+02
 20
-3.20821814E+02
  0
VERTEX
  8
0
 62
4
 10
3.41971024E+02
 20
-3.20661969E+02
  0
VERTEX
  8
0
 62
4
 10
3.41933886E+02
 20
-3.20504510E+02
  0
VERTEX
  8
0
 62
4
 10
3.41881935E+02
 20
-3.20350644E+02
  0
VERTEX
  8
0
 62
4
 10
3.41815566E+02
 20
-3.20201548E+02
  0
VERTEX
  8
0
 62
4
 10
3.41735289E+02
 20
-3.20058365E+02
  0
VERTEX
  8
0
 62
4
 10
3.41641719E+02
 20
-3.19922191E+02
  0
VERTEX
  8
0
 62
4
 10
3.41535573E+02
 20
-3.19794070E+02
  0
VERTEX
  8
0
 62
4
 10
3.41417663E+02
 20
-3.19674983E+02
  0
VERTEX
  8
0
 62
4
 10
3.41288893E+02
 20
-3.19565842E+02
  0
VERTEX
  8
0
 62
4
 10
3.41150249E+02
 20
-3.19467484E+02
  0
VERTEX
  8
0
 62
4
 10
3.41002793E+02
 20
-3.19380661E+02
  0
VERTEX
  8
0
 62
4
 10
3.40847655E+02
 20
-3.19306039E+02
  0
VERTEX
  8
0
 62
4
 10
3.40686022E+02
 20
-3.19244189E+02
  0
VERTEX
  8
0
 62
4
 10
3.40519134E+02
 20
-3.19195586E+02
  0
VERTEX
  8
0
 62
4
 10
3.40348268E+02
 20
-3.19160600E+02
  0
VERTEX
  8
0
 62
4
 10
3.40174733E+02
 20
-3.19139501E+02
  0
VERTEX
  8
0
 62
4
 10
3.39999859E+02
 20
-3.19132450E+02
  0
VERTEX
  8
0
 62
4
 10
3.39824985E+02
 20
-3.19139501E+02
  0
VERTEX
  8
0
 62
4
 10
3.39651450E+02
 20
-3.19160600E+02
  0
VERTEX
  8
0
 62
4
 10
3.39480584E+02
 20
-3.19195586E+02
  0
VERTEX
  8
0
 62
4
 10
3.39313696E+02
 20
-3.19244189E+02
  0
VERTEX
  8
0
 62
4
 10
3.39152063E+02
 20
-3.19306039E+02
  0
VERTEX
  8
0
 62
4
 10
3.38996925E+02
 20
-3.19380661E+02
  0
VERTEX
  8
0
 62
4
 10
3.38849469E+02
 20
-3.19467484E+02
  0
VERTEX
  8
0
 62
4
 10
3.38710825E+02
 20
-3.19565842E+02
  0
VERTEX
  8
0
 62
4
 10
3.38582055E+02
 20
-3.19674983E+02
  0
VERTEX
  8
0
 62
4
 10
3.38464145E+02
 20
-3.19794070E+02
  0
VERTEX
  8
0
 62
4
 10
3.38357999E+02
 20
-3.19922191E+02
  0
VERTEX
  8
0
 62
4
 10
3.38264429E+02
 20
-3.20058365E+02
  0
VERTEX
  8
0
 62
4
 10
3.38184152E+02
 20
-3.20201548E+02
  0
VERTEX
  8
0
 62
4
 10
3.38117783E+02
 20
-3.20350644E+02
  0
VERTEX
  8
0
 62
4
 10
3.38065832E+02
 20
-3.20504510E+02
  0
VERTEX
  8
0
 62
4
 10
3.38028694E+02
 20
-3.20661969E+02
  0
VERTEX
  8
0
 62
4
 10
3.38006656E+02
 20
-3.20821814E+02
  0
VERTEX
  8
0
 62
4
 10
3.37999885E+02
 20
-3.20982820E+02
  0
VERTEX
  8
0
 62
4
 10
3.38008434E+02
 20
-3.21143755E+02
  0
VERTEX
  8
0
 62
4
 10
3.38032237E+02
 20
-3.21303385E+02
  0
VERTEX
  8
0
 62
4
 10
3.38071112E+02
 20
-3.21460488E+02
  0
VERTEX
  8
0
 62
4
 10
3.38124761E+02
 20
-3.21613860E+02
  0
VERTEX
  8
0
 62
4
 10
3.38192773E+02
 20
-3.21762327E+02
  0
VERTEX
  8
0
 62
4
 10
3.38274627E+02
 20
-3.21904752E+02
  0
SEQEND
  8
0
  0
POLYLINE
  8
0
 62
4
 66
1
  0
VERTEX
  8
0
 62
4
 10
3.33734859E+02
 20
-3.21735521E+02
  0
VERTEX
  8
0
 62
4
 10
3.33728257E+02
 20
-3.21596327E+02
  0
VERTEX
  8
0
 62
4
 10
3.33708500E+02
 20
-3.21458192E+02
  0
VERTEX
  8
0
 62
4
 10
3.33675740E+02
 20
-3.21322167E+02
  0
VERTEX
  8
0
 62
4
 10
3.33630226E+02
 20
-3.21189289E+02
  0
VERTEX
  8
0
 62
4
 10
3.33572303E+02
 20
-3.21060568E+02
  0
VERTEX
  8
0
 62
4
 10
3.33502413E+02
 20
-3.20936983E+02
  0
VERTEX
  8
0
 62
4
 10
3.33421088E+02
 20
-3.20819476E+02
  0
VERTEX
  8
0
 62
4
 10
3.33328946E+02
 20
-3.20708940E+02
  0
VERTEX
  8
0
 62
4
 10
3.33226689E+02
 20
-3.20606218E+02
  0
VERTEX
  8
0
 62
4
 10
3.33115096E+02
 20
-3.20512090E+02
  0
VERTEX
  8
0
 62
4
 10
3.32995014E+02
 20
-3.20427273E+02
  0
VERTEX
  8
0
 62
4
 10
3.32867359E+02
 20
-3.20352413E+02
  0
VERTEX
  8
0
 62
4
 10
3.32733102E+02
 20
-3.20288079E+02
  0
VERTEX
  8
0
 62
4
 10
3.32593264E+02
 20
-3.20234761E+02
  0
VERTEX
  8
0
 62
4
 10
3.32448910E+02
 20
-3.20192864E+02
  0
VERTEX
  8
0
 62
4
 10
3.32301139E+02
 20
-3.20162708E+02
  0
VERTEX
  8
0
 62
4
 10
3.32151074E+02
 20
-3.20144522E+02
  0
VERTEX
  8
0
 62
4
 10
3.31999859E+02
 20
-3.20138445E+02
  0
VERTEX
  8
0
 62
4
 10
3.31848644E+02
 20
-3.20144522E+02
  0
VERTEX
  8
0
 62
4
 10
3.31698579E+02
 20
-3.20162708E+02
  0
VERTEX
  8
0
 62
4
 10
3.31550808E+02
 20
-3.20192864E+02
  0
VERTEX
  8
0
 62
4
 10
3.31406454E+02
 20
-3.20234761E+02
  0
VERTEX
  8
0
 62
4
 10
3.31266616E+02
 20
-3.20288079E+02
  0
VERTEX
  8
0
 62
4
 10
3.31132359E+02
 20
-3.20352413E+02
  0
VERTEX
  8
0
 62
4
 10
3.31004704E+02
 20
-3.20427273E+02
  0
VERTEX
  8
0
 62
4
 10
3.30884622E+02
 20
-3.20512090E+02
  0
VERTEX
  8
0
 62
4
 10
3.30773029E+02
 20
-3.20606218E+02
  0
VERTEX
  8
0
 62
4
 10
3.30670772E+02
 20
-3.20708940E+02
  0
VERTEX
  8
0
 62
4
 10
3.30578630E+02
 20
-3.20819476E+02
  0
VERTEX
  8
0
 62
4
 10
3.30497305E+02
 20
-3.20936983E+02
  0
VERTEX
  8
0
 62
4
 10
3.30427415E+02
 20
-3.21060568E+02
  0
VERTEX
  8
0
 62
4
 10
3.30369492E+02
 20
-3.21189289E+02
  0
VERTEX
  8
0
 62
4
 10
3.30323978E+02
 20
-3.21322167E+02
  0
VERTEX
  8
0
 62
4
 10
3.30291218E+02
 20
-3.21458192E+02
  0
VERTEX
  8
0
 62
4
 10
3.30271461E+02
 20
-3.21596327E+02
  0
VERTEX
  8
0
 62
4
 10
3.30264859E+02
 20
-3.21735521E+02
  0
VERTEX
  8
0
 62
4
 10
3.30271461E+02
 20
-3.21874715E+02
  0
VERTEX
  8
0
 62
4
 10
3.30291218E+02
 20
-3.22012850E+02
  0
VERTEX
  8
0
 62
4
 10
3.30323978E+02
 20
-3.22148875E+02
  0
VERTEX
  8
0
 62
4
 10
3.30369492E+02
 20
-3.22281753E+02
  0
VERTEX
  8
0
 62
4
 10
3.30427415E+02
 20
-3.22410474E+02
  0
VERTEX
  8
0
 62
4
 10
3.30497305E+02
 20
-3.22534059E+02
  0
VERTEX
  8
0
 62
4
 10
3.30578630E+02
 20
-3.22651566E+02
  0
VERTEX
  8
0
 62
4
 10
3.30670772E+02
 20
-3.22762102E+02
  0
VERTEX
  8
0
 62
4
 10
3.30773029E+02
 20
-3.22864824E+02
  0
VERTEX
  8
0
 62
4
 10
3.30884622E+02
 20
-3.22958952E+02
  0
VERTEX
  8
0
 62
4
 10
3.31004704E+02
 20
-3.23043769E+02
  0
VERTEX
  8
0
 62
4
 10
3.31132359E+02
 20
-3.23118629E+02
  0
VERTEX
  8
0
 62
4
 10
3.31266616E+02
 20
-3.23182963E+02
  0
VERTEX
  8
0
 62
4
 10
3.31406454E+02
 20
-3.23236281E+02
  0
VERTEX
  8
0
 62
4
 10
3.31550808E+02
 20
-3.23278178E+02
  0
VERTEX
  8
0
 62
4
 10
3.31698579E+02
 20
-3.23308334E+02
  0
VERTEX
  8
0
 62
4
 10
3.31848644E+02
 20
-3.23326520E+02
  0
VERTEX
  8
0
 62
4
 10
3.31999859E+02
 20
-3.23332597E+02
  0
VERTEX
  8
0
 62
4
 10
3.32151074E+02
 20
-3.23326520E+02
  0
VERTEX
  8
0
 62
4
 10
3.32301139E+02
 20
-3.23308334E+02
  0
VERTEX
  8
0
 62
4
 10
3.32448910E+02
 20
-3.23278178E+02
  0
VERTEX
  8
0
 62
4
 10
3.32593264E+02
 20
-3.23236281E+02
  0
VERTEX
  8
0
 62
4
 10
3.32733102E+02
 20
-3.23182963E+02
  0
VERTEX
  8
0
 62
4
 10
3.32867359E+02
 20
-3.23118629E+02
  0
VERTEX
  8
0
 62
4
 10
3.32995014E+02
 20
-3.23043769E+02
  0
VERTEX
  8
0
 62
4
 10
3.33115096E+02
 20
-3.22958952E+02
  0
VERTEX
  8
0
 62
4
 10
3.33226689E+02
 20
-3.22864824E+02
  0
VERTEX
  8
0
 62
4
 10
3.33328946E+02
 20
-3.22762102E+02
  0
VERTEX
  8
0
 62
4
 10
3.33421088E+02
 20
-3.22651566E+02
  0
VERTEX
  8
0
 62
4
 10
3.33502413E+02
 20
-3.22534059E+02
  0
VERTEX
  8
0
 62
4
 10
3.33572303E+02
 20
-3.22410474E+02
  0
VERTEX
  8
0
 62
4
 10
3.33630226E+02
 20
-3.22281753E+02
  0
VERTEX
  8
0
 62
4
 10
3.33675740E+02
 20
-3.22148875E+02
  0
VERTEX
  8
0
 62
4
 10
3.33708500E+02
 20
-3.22012850E+02
  0
VERTEX
  8
0
 62
4
 10
3.33728257E+02
 20
-3.21874715E+02
  0
VERTEX
  8
0
 62
4
 10
3.33734859E+02
 20
-3.21735521E+02
  0
SEQEND
  8
0
  0
POLYLINE
  8
0
 62
6
 66
1
  0
VERTEX
  8
0
 62
6
 10
3.33499859E+02
 20
-3.21740123E+02
  0
VERTEX
  8
0
 62
6
 10
3.33494151E+02
 20
-3.21619782E+02
  0
VERTEX
  8
0
 62
6
 10
3.33477071E+02
 20
-3.21500357E+02
  0
VERTEX
  8
0
 62
6
 10
3.33448748E+02
 20
-3.21382757E+02
  0
VERTEX
  8
0
 62
6
 10
3.33409398E+02
 20
-3.21267876E+02
  0
VERTEX
  8
0
 62
6
 10
3.33359321E+02
 20
-3.21156590E+02
  0
VERTEX
  8
0
 62
6
 10
3.33298897E+02
 20
-3.21049744E+02
  0
VERTEX
  8
0
 62
6
 10
3.33228587E+02
 20
-3.20948153E+02
  0
VERTEX
  8
0
 62
6
 10
3.33148926E+02
 20
-3.20852589E+02
  0
VERTEX
  8
0
 62
6
 10
3.33060519E+02
 20
-3.20763780E+02
  0
VERTEX
  8
0
 62
6
 10
3.32964040E+02
 20
-3.20682402E+02
  0
VERTEX
  8
0
 62
6
 10
3.32860224E+02
 20
-3.20609073E+02
  0
VERTEX
  8
0
 62
6
 10
3.32749859E+02
 20
-3.20544352E+02
  0
VERTEX
  8
0
 62
6
 10
3.32633786E+02
 20
-3.20488732E+02
  0
VERTEX
  8
0
 62
6
 10
3.32512889E+02
 20
-3.20442636E+02
  0
VERTEX
  8
0
 62
6
 10
3.32388088E+02
 20
-3.20406414E+02
  0
VERTEX
  8
0
 62
6
 10
3.32260331E+02
 20
-3.20380343E+02
  0
VERTEX
  8
0
 62
6
 10
3.32130593E+02
 20
-3.20364620E+02
  0
VERTEX
  8
0
 62
6
 10
3.31999859E+02
 20
-3.20359366E+02
  0
VERTEX
  8
0
 62
6
 10
3.31869125E+02
 20
-3.20364620E+02
  0
VERTEX
  8
0
 62
6
 10
3.31739387E+02
 20
-3.20380343E+02
  0
VERTEX
  8
0
 62
6
 10
3.31611630E+02
 20
-3.20406414E+02
  0
VERTEX
  8
0
 62
6
 10
3.31486829E+02
 20
-3.20442636E+02
  0
VERTEX
  8
0
 62
6
 10
3.31365932E+02
 20
-3.20488732E+02
  0
VERTEX
  8
0
 62
6
 10
3.31249859E+02
 20
-3.20544352E+02
  0
VERTEX
  8
0
 62
6
 10
3.31139494E+02
 20
-3.20609073E+02
  0
VERTEX
  8
0
 62
6
 10
3.31035678E+02
 20
-3.20682402E+02
  0
VERTEX
  8
0
 62
6
 10
3.30939199E+02
 20
-3.20763780E+02
  0
VERTEX
  8
0
 62
6
 10
3.30850792E+02
 20
-3.20852589E+02
  0
VERTEX
  8
0
 62
6
 10
3.30771131E+02
 20
-3.20948153E+02
  0
VERTEX
  8
0
 62
6
 10
3.30700821E+02
 20
-3.21049744E+02
  0
VERTEX
  8
0
 62
6
 10
3.30640397E+02
 20
-3.21156590E+02
  0
VERTEX
  8
0
 62
6
 10
3.30590320E+02
 20
-3.21267876E+02
  0
VERTEX
  8
0
 62
6
 10
3.30550970E+02
 20
-3.21382757E+02
  0
VERTEX
  8
0
 62
6
 10
3.30522647E+02
 20
-3.21500357E+02
  0
VERTEX
  8
0
 62
6
 10
3.30505567E+02
 20
-3.21619782E+02
  0
VERTEX
  8
0
 62
6
 10
3.30499859E+02
 20
-3.21740123E+02
  0
VERTEX
  8
0
 62
6
 10
3.30505567E+02
 20
-3.21860464E+02
  0
VERTEX
  8
0
 62
6
 10
3.30522647E+02
 20
-3.21979889E+02
  0
VERTEX
  8
0
 62
6
 10
3.30550970E+02
 20
-3.22097489E+02
  0
VERTEX
  8
0
 62
6
 10
3.30590320E+02
 20
-3.22212370E+02
  0
VERTEX
  8
0
 62
6
 10
3.30640397E+02
 20
-3.22323656E+02
  0
VERTEX
  8
0
 62
6
 10
3.30700821E+02
 20
-3.22430502E+02
  0
VERTEX
  8
0
 62
6
 10
3.30771131E+02
 20
-3.22532093E+02
  0
VERTEX
  8
0
 62
6
 10
3.30850792E+02
 20
-3.22627657E+02
  0
VERTEX
  8
0
 62
6
 10
3.30939199E+02
 20
-3.22716466E+02
  0
VERTEX
  8
0
 62
6
 10
3.31035678E+02
 20
-3.22797844E+02
  0
VERTEX
  8
0
 62
6
 10
3.31139494E+02
 20
-3.22871173E+02
  0
VERTEX
  8
0
 62
6
 10
3.31249859E+02
 20
-3.22935894E+02
  0
VERTEX
  8
0
 62
6
 10
3.31365932E+02
 20
-3.22991514E+02
  0
VERTEX
  8
0
 62
6
 10
3.31486829E+02
 20
-3.23037610E+02
  0
VERTEX
  8
0
 62
6
 10
3.31611630E+02
 20
-3.23073832E+02
  0
VERTEX
  8
0
 62
6
 10
3.31739387E+02
 20
-3.23099903E+02
  0
VERTEX
  8
0
 62
6
 10
3.31869125E+02
 20
-3.23115626E+02
  0
VERTEX
  8
0
 62
6
 10
3.31999859E+02
 20
-3.23120880E+02
  0
VERTEX
  8
0
 62
6
 10
3.32130593E+02
 20
-3.23115626E+02
  0
VERTEX
  8
0
 62
6
 10
3.32260331E+02
 20
-3.23099903E+02
  0
VERTEX
  8
0
 62
6
 10
3.32388088E+02
 20
-3.23073832E+02
  0
VERTEX
  8
0
 62
6
 10
3.32512889E+02
 20
-3.23037610E+02
  0
VERTEX
  8
0
 62
6
 10
3.32633786E+02
 20
-3.22991514E+02
  0
VERTEX
  8
0
 62
6
 10
3.32749859E+02
 20
-3.22935894E+02
  0
VERTEX
  8
0
 62
6
 10
3.32860224E+02
 20
-3.22871173E+02
  0
VERTEX
  8
0
 62
6
 10
3.32964040E+02
 20
-3.22797844E+02
  0
VERTEX
  8
0
 62
6
 10
3.33060519E+02
 20
-3.22716466E+02
  0
VERTEX
  8
0
 62
6
 10
3.33148926E+02
 20
-3.22627657E+02
  0
VERTEX
  8
0
 62
6
 10
3.33228587E+02
 20
-3.22532093E+02
  0
VERTEX
  8
0
 62
6
 10
3.33298897E+02
 20
-3.22430502E+02
  0
VERTEX
  8
0
 62
6
 10
3.33359321E+02
 20
-3.22323656E+02
  0
VERTEX
  8
0
 62
6
 10
3.33409398E+02
 20
-3.22212370E+02
  0
VERTEX
  8
0
 62
6
 10
3.33448748E+02
 20
-3.22097489E+02
  0
VERTEX
  8
0
 62
6
 10
3.33477071E+02
 20
-3.21979889E+02
  0
VERTEX
  8
0
 62
6
 10
3.33494151E+02
 20
-3.21860464E+02
  0
VERTEX
  8
0
 62
6
 10
3.33499859E+02
 20
-3.21740123E+02
  0
SEQEND
  8
0
  0
POLYLINE
  8
0
 62
4
 66
1
  0
VERTEX
  8
0
 62
4
 10
3.33725091E+02
 20
-3.21904752E+02
  0
VERTEX
  8
0
 62
4
 10
3.33806945E+02
 20
-3.21762327E+02
  0
VERTEX
  8
0
 62
4
 10
3.33874957E+02
 20
-3.21613860E+02
  0
VERTEX
  8
0
 62
4
 10
3.33928606E+02
 20
-3.21460488E+02
  0
VERTEX
  8
0
 62
4
 10
3.33967481E+02
 20
-3.21303385E+02
  0
VERTEX
  8
0
 62
4
 10
3.33991284E+02
 20
-3.21143755E+02
  0
VERTEX
  8
0
 62
4
 10
3.33999833E+02
 20
-3.20982820E+02
  0
VERTEX
  8
0
 62
4
 10
3.33993062E+02
 20
-3.20821814E+02
  0
VERTEX
  8
0
 62
4
 10
3.33971024E+02
 20
-3.20661969E+02
  0
VERTEX
  8
0
 62
4
 10
3.33933886E+02
 20
-3.20504510E+02
  0
VERTEX
  8
0
 62
4
 10
3.33881935E+02
 20
-3.20350644E+02
  0
VERTEX
  8
0
 62
4
 10
3.33815566E+02
 20
-3.20201548E+02
  0
VERTEX
  8
0
 62
4
 10
3.33735289E+02
 20
-3.20058365E+02
  0
VERTEX
  8
0
 62
4
 10
3.33641719E+02
 20
-3.19922191E+02
  0
VERTEX
  8
0
 62
4
 10
3.33535573E+02
 20
-3.19794070E+02
  0
VERTEX
  8
0
 62
4
 10
3.33417663E+02
 20
-3.19674983E+02
  0
VERTEX
  8
0
 62
4
 10
3.33288893E+02
 20
-3.19565842E+02
  0
VERTEX
  8
0
 62
4
 10
3.33150249E+02
 20
-3.19467484E+02
  0
VERTEX
  8
0
 62
4
 10
3.33002793E+02
 20
-3.19380661E+02
  0
VERTEX
  8
0
 62
4
 10
3.32847655E+02
 20
-3.19306039E+02
  0
VERTEX
  8
0
 62
4
 10
3.32686022E+02
 20
-3.19244189E+02
  0
VERTEX
  8
0
 62
4
 10
3.32519134E+02
 20
-3.19195586E+02
  0
VERTEX
  8
0
 62
4
 10
3.32348268E+02
 20
-3.19160600E+02
  0
VERTEX
  8
0
 62
4
 10
3.32174733E+02
 20
-3.19139501E+02
  0
VERTEX
  8
0
 62
4
 10
3.31999859E+02
 20
-3.19132450E+02
  0
VERTEX
  8
0
 62
4
 10
3.31824985E+02
 20
-3.19139501E+02
  0
VERTEX
  8
0
 62
4
 10
3.31651450E+02
 20
-3.19160600E+02
  0
VERTEX
  8
0
 62
4
 10
3.31480584E+02
 20
-3.19195586E+02
  0
VERTEX
  8
0
 62
4
 10
3.31313696E+02
 20
-3.19244189E+02
  0
VERTEX
  8
0
 62
4
 10
3.31152063E+02
 20
-3.19306039E+02
  0
VERTEX
  8
0
 62
4
 10
3.30996925E+02
 20
-3.19380661E+02
  0
VERTEX
  8
0
 62
4
 10
3.30849469E+02
 20
-3.19467484E+02
  0
VERTEX
  8
0
 62
4
 10
3.30710825E+02
 20
-3.19565842E+02
  0
VERTEX
  8
0
 62
4
 10
3.30582055E+02
 20
-3.19674983E+02
  0
VERTEX
  8
0
 62
4
 10
3.30464145E+02
 20
-3.19794070E+02
  0
VERTEX
  8
0
 62
4
 10
3.30357999E+02
 20
-3.19922191E+02
  0
VERTEX
  8
0
 62
4
 10
3.30264429E+02
 20
-3.20058365E+02
  0
VERTEX
  8
0
 62
4
 10
3.30184152E+02
 20
-3.20201548E+02
  0
VERTEX
  8
0
 62
4
 10
3.30117783E+02
 20
-3.20350644E+02
  0
VERTEX
  8
0
 62
4
 10
3.30065832E+02
 20
-3.20504510E+02
  0
VERTEX
  8
0
 62
4
 10
3.30028694E+02
 20
-3.20661969E+02
  0
VERTEX
  8
0
 62
4
 10
3.30006656E+02
 20
-3.20821814E+02
  0
VERTEX
  8
0
 62
4
 10
3.29999885E+02
 20
-3.20982820E+02
  0
VERTEX
  8
0
 62
4
 10
3.30008434E+02
 20
-3.21143755E+02
  0
VERTEX
  8
0
 62
4
 10
3.30032237E+02
 20
-3.21303385E+02
  0
VERTEX
  8
0
 62
4
 10
3.30071112E+02
 20
-3.21460488E+02
  0
VERTEX
  8
0
 62
4
 10
3.30124761E+02
 20
-3.21613860E+02
  0
VERTEX
  8
0
 62
4
 10
3.30192773E+02
 20
-3.21762327E+02
  0
VERTEX
  8
0
 62
4
 10
3.30274627E+02
 20
-3.21904752E+02
  0
SEQEND
  8
0
  0
LINE
  8
0
 62
4
 10
3.28499859E+02
 20
-2.97440734E+02
 11
3.43499859E+02
 21
-2.97440734E+02
  0
LINE
  8
0
 62
4
 10
3.46191137E+02
 20
-3.09999985E+02
 11
3.47999859E+02
 21
-3.08486792E+02
  0
LINE
  8
0
 62
4
 10
3.08999859E+02
 20
-3.08486792E+02
 11
3.10808581E+02
 21
-3.09999985E+02
  0
LINE
  8
0
 62
4
 10
3.47999859E+02
 20
-3.07106035E+02
 11
3.43499859E+02
 21
-3.07106035E+02
  0
LINE
  8
0
 62
4
 10
3.28499859E+02
 20
-3.07106035E+02
 11
3.08999859E+02
 21
-3.07106035E+02
  0
LINE
  8
0
 62
4
 10
3.28499859E+02
 20
-2.86079767E+02
 11
3.10499859E+02
 21
-2.86079767E+02
  0
ARC
  8
0
 62
4
 10
3.10499867E+02
 20
-2.87579776E+02
 40
1.50000856E+00
 50
9.00003273E+01
 51
1.79999673E+02
  0
LINE
  8
0
 62
4
 10
3.46499859E+02
 20
-2.86079767E+02
 11
3.43499859E+02
 21
-2.86079767E+02
  0
ARC
  8
0
 62
4
 10
3.46499850E+02
 20
-2.87579776E+02
 40
1.50000856E+00
 50
3.27119593E-04
 51
8.99996730E+01
  0
LINE
  8
0
 62
4
 10
3.43499859E+02
 20
-2.60365322E+02
 11
3.28499859E+02
 21
-2.60365322E+02
  0
ARC
  8
0
 62
4
 10
3.10499867E+02
 20
-2.95003657E+02
 40
1.50000856E+00
 50
9.00003273E+01
 51
1.79999673E+02
  0
ARC
  8
0
 62
4
 10
3.43999873E+02
 20
-2.76318870E+02
 40
5.00013809E-01
 50
9.00015821E+01
 51
1.79998418E+02
  0
ARC
  8
0
 62
4
 10
3.52499847E+02
 20
-2.62318868E+02
 40
5.00011902E-01
 50
1.36383594E-03
 51
8.99986360E+01
  0
ARC
  8
0
 62
4
 10
3.52499871E+02
 20
-2.75318868E+02
 40
4.99988098E-01
 50
2.69998636E+02
 51
1.36386840E-03
  0
ARC
  8
0
 62
4
 10
3.46499850E+02
 20
-2.95003657E+02
 40
1.50000856E+00
 50
3.27119593E-04
 51
8.99996730E+01
  0
LINE
  8
0
 62
4
 10
3.08999859E+02
 20
-2.87579767E+02
 11
3.08999859E+02
 21
-3.08503648E+02
  0
LINE
  8
0
 62
4
 10
3.43499859E+02
 20
-2.88318405E+02
 11
3.28499859E+02
 21
-2.88318405E+02
  0
LINE
  8
0
 62
4
 10
3.26499859E+02
 20
-2.90020372E+02
 11
3.26499859E+02
 21
-2.93503648E+02
  0
LINE
  8
0
 62
4
 10
3.43499859E+02
 20
-2.60365322E+02
 11
3.43499859E+02
 21
-2.90020372E+02
  0
LINE
  8
0
 62
4
 10
3.28499859E+02
 20
-2.60365322E+02
 11
3.28499859E+02
 21
-2.90020372E+02
  0
LINE
  8
0
 62
4
 10
3.45499859E+02
 20
-2.90020372E+02
 11
3.45499859E+02
 21
-2.93503648E+02
  0
LINE
  8
0
 62
4
 10
3.47999859E+02
 20
-3.08486792E+02
 11
3.43499859E+02
 21
-3.08486792E+02
  0
LINE
  8
0
 62
4
 10
3.47999859E+02
 20
-2.87579767E+02
 11
3.47999859E+02
 21
-3.08503648E+02
  0
LINE
  8
0
 62
4
 10
3.45499859E+02
 20
-2.90020372E+02
 11
3.26499859E+02
 21
-2.90020372E+02
  0
LINE
  8
0
 62
4
 10
3.43499859E+02
 20
-2.66226289E+02
 11
3.28499859E+02
 21
-2.66226289E+02
  0
LINE
  8
0
 62
4
 10
3.28499859E+02
 20
-3.08486792E+02
 11
3.08999859E+02
 21
-3.08486792E+02
  0
LINE
  8
0
 62
4
 10
3.52499859E+02
 20
-2.75818856E+02
 11
3.43999859E+02
 21
-2.75818856E+02
  0
LINE
  8
0
 62
4
 10
3.56499859E+02
 20
-2.74568856E+02
 11
3.52999859E+02
 21
-2.74568856E+02
  0
LINE
  8
0
 62
4
 10
3.56499859E+02
 20
-2.62568856E+02
 11
3.56499859E+02
 21
-2.75068856E+02
  0
LINE
  8
0
 62
4
 10
3.57999859E+02
 20
-2.75068856E+02
 11
3.52999859E+02
 21
-2.75068856E+02
  0
LINE
  8
0
 62
4
 10
3.57999859E+02
 20
-2.62568856E+02
 11
3.52999859E+02
 21
-2.62568856E+02
  0
LINE
  8
0
 62
4
 10
3.57999859E+02
 20
-2.61915048E+02
 11
3.57999859E+02
 21
-2.75731826E+02
  0
LINE
  8
0
 62
4
 10
3.62999859E+02
 20
-2.61915048E+02
 11
3.62999859E+02
 21
-2.75731826E+02
  0
LINE
  8
0
 62
4
 10
3.52999859E+02
 20
-2.62318856E+02
 11
3.52999859E+02
 21
-2.75318856E+02
  0
LINE
  8
0
 62
4
 10
3.43499859E+02
 20
-2.61818856E+02
 11
3.52499859E+02
 21
-2.61818856E+02
  0
LINE
  8
0
 62
4
 10
3.62999859E+02
 20
-2.61915048E+02
 11
3.57999859E+02
 21
-2.61915048E+02
  0
LINE
  8
0
 62
4
 10
3.46499859E+02
 20
-2.93503648E+02
 11
3.10499859E+02
 21
-2.93503648E+02
  0
LINE
  8
0
 62
4
 10
3.56499859E+02
 20
-2.63068856E+02
 11
3.52999859E+02
 21
-2.63068856E+02
  0
LINE
  8
0
  6
CENTER
 62
6
 10
3.26999859E+02
 20
-3.21740123E+02
 11
3.44999859E+02
 21
-3.21740123E+02
  0
LINE
  8
0
  6
CENTER
 62
6
 10
3.31999859E+02
 20
-3.16740123E+02
 11
3.31999859E+02
 21
-3.26740123E+02
  0
LINE
  8
0
  6
CENTER
 62
6
 10
3.39999859E+02
 20
-3.16740123E+02
 11
3.39999859E+02
 21
-3.26740123E+02
  0
LINE
  8
0
 62
4
 10
3.28499859E+02
 20
-2.97440734E+02
 11
3.28499859E+02
 21
-3.25109131E+02
  0
LINE
  8
0
 62
4
 10
3.43499859E+02
 20
-2.97440734E+02
 11
3.43499859E+02
 21
-3.25109131E+02
  0
LINE
  8
0
 62
4
 10
3.29499859E+02
 20
-3.14137925E+02
 11
3.42499859E+02
 21
-3.14137925E+02
  0
LINE
  8
0
 62
4
 10
3.28499859E+02
 20
-3.25109131E+02
 11
3.43499859E+02
 21
-3.25109131E+02
  0
LINE
  8
0
 62
4
 10
3.28499859E+02
 20
-3.00173498E+02
 11
3.43499859E+02
 21
-3.00173498E+02
  0
LINE
  8
0
 62
7
 10
1.67999828E+02
 20
-3.49500000E+02
 11
1.67999828E+02
 21
-3.06500015E+02
  0
LINE
  8
0
 62
7
 10
7.39997978E+01
 20
-3.49500000E+02
 11
7.39997978E+01
 21
-3.06499985E+02
  0
LINE
  8
0
 62
7
 10
1.34499920E+02
 20
-3.49500000E+02
 11
1.34499920E+02
 21
-3.41705771E+02
  0
CIRCLE
  8
0
 62
7
 10
8.59998283E+01
 20
-3.14499992E+02
 40
4.18000031E+00
  0
CIRCLE
  8
0
 62
2
 10
1.55999828E+02
 20
-3.14499992E+02
 40
5.00000000E+00
  0
CIRCLE
  8
0
 62
2
 10
8.59998283E+01
 20
-3.14499992E+02
 40
5.00000000E+00
  0
CIRCLE
  8
0
 62
7
 10
1.55999828E+02
 20
-3.14499992E+02
 40
4.18000031E+00
  0
CIRCLE
  8
0
 62
7
 10
1.55999828E+02
 20
-3.14500046E+02
 40
8.70000076E+00
  0
CIRCLE
  8
0
 62
7
 10
8.59998283E+01
 20
-3.14500046E+02
 40
8.00000000E+00
  0
ARC
  8
0
 62
7
 10
7.79998283E+01
 20
-3.06500015E+02
 40
4.00000000E+00
 50
9.00000231E+01
 51
1.79999977E+02
  0
CIRCLE
  8
0
 62
7
 10
1.55999828E+02
 20
-3.14500046E+02
 40
8.00000000E+00
  0
ARC
  8
0
 62
7
 10
1.63999950E+02
 20
-3.06500015E+02
 40
4.00000000E+00
 50
0.00000000E+00
 51
8.99999818E+01
  0
CIRCLE
  8
0
 62
7
 10
8.59998283E+01
 20
-3.14500046E+02
 40
8.70000076E+00
  0
LINE
  8
0
  6
CENTER
 62
2
 10
1.72534557E+02
 20
-3.49500000E+02
 11
7.05344353E+01
 21
-3.49500000E+02
  0
LINE
  8
0
  6
CENTER
 62
2
 10
1.31999981E+02
 20
-3.37503502E+02
 11
1.31999981E+02
 21
-2.99926529E+02
  0
LINE
  8
0
  6
CENTER
 62
2
 10
1.41777721E+02
 20
-3.14499992E+02
 11
1.70987499E+02
 21
-3.14499992E+02
  0
LINE
  8
0
 62
7
 10
7.79998894E+01
 20
-3.02500000E+02
 11
1.63999798E+02
 21
-3.02500046E+02
  0
LINE
  8
0
  6
CENTER
 62
2
 10
1.05000011E+02
 20
-2.99923019E+02
 11
1.05000011E+02
 21
-3.40128159E+02
  0
LINE
  8
0
  6
CENTER
 62
2
 10
7.14443474E+01
 20
-3.14499992E+02
 11
1.00690777E+02
 21
-3.14499992E+02
  0
LINE
  8
0
  6
CENTER
 62
2
 10
1.55999828E+02
 20
-3.00127304E+02
 11
1.55999828E+02
 21
-3.29864220E+02
  0
LINE
  8
0
  6
CENTER
 62
2
 10
1.20999920E+02
 20
-2.98644203E+02
 11
1.20999920E+02
 21
-3.49500000E+02
  0
LINE
  8
0
  6
CENTER
 62
2
 10
8.59998283E+01
 20
-3.00314659E+02
 11
8.59998283E+01
 21
-3.29038361E+02
  0
ARC
  8
0
 62
7
 10
1.20999920E+02
 20
-3.49500000E+02
 40
2.25000000E+01
 50
0.00000000E+00
 51
1.80000000E+02
  0
ARC
  8
0
 62
7
 10
1.20999920E+02
 20
-3.49500000E+02
 40
9.99998474E+00
 50
0.00000000E+00
 51
1.80000000E+02
  0
ARC
  8
0
 62
2
 10
1.20999920E+02
 20
-3.49500000E+02
 40
9.17997742E+00
 50
0.00000000E+00
 51
1.80000000E+02
  0
ARC
  8
0
 62
7
 10
1.20999920E+02
 20
-3.49500000E+02
 40
8.49985590E+00
 50
0.00000000E+00
 51
1.80000000E+02
  0
LINE
  8
0
 62
7
 10
1.00499928E+02
 20
-3.40226364E+02
 11
1.00499928E+02
 21
-3.49500000E+02
  0
LINE
  8
0
 62
7
 10
1.41499912E+02
 20
-3.40226364E+02
 11
1.41499912E+02
 21
-3.49500000E+02
  0
ARC
  8
0
 62
7
 10
1.20999920E+02
 20
-3.49500000E+02
 40
1.35000000E+01
 50
0.00000000E+00
 51
1.80000000E+02
  0
LINE
  8
0
 62
7
 10
1.20999920E+02
 20
-3.33911543E+02
 11
1.07499920E+02
 21
-3.41705771E+02
  0
LINE
  8
0
 62
7
 10
1.07499920E+02
 20
-3.41705771E+02
 11
1.07499920E+02
 21
-3.49500000E+02
  0
LINE
  8
0
 62
7
 10
1.34499920E+02
 20
-3.41705771E+02
 11
1.20999920E+02
 21
-3.33911543E+02
  0
LINE
  8
0
 62
7
 10
3.15105246E+02
 20
-7.73429508E+01
 11
3.15105246E+02
 21
-3.84294987E+00
  0
TEXT
  8
0
 62
7
 10
2.84589621E+02
 20
-7.39679511E+01
 40
9.00000000E+00
  1
825
 41
1.00000000E+00
  7
MONOTXT
  0
TEXT
  8
0
 62
7
 10
2.84589621E+02
 20
-5.97179506E+01
 40
9.00000000E+00
  1
825
 41
1.00000000E+00
  7
MONOTXT
  0
TEXT
  8
0
 62
7
 10
2.84589621E+02
 20
-3.04679501E+01
 40
9.00000000E+00
  1
900
 41
1.00000000E+00
  7
MONOTXT
  0
LINE
  8
0
 62
7
 10
2.79105246E+02
 20
-7.73429508E+01
 11
2.79105246E+02
 21
-3.84294987E+00
  0
TEXT
  8
0
 62
7
 10
2.48589621E+02
 20
-7.39679511E+01
 40
9.00000000E+00
  1
725
 41
1.00000000E+00
  7
MONOTXT
  0
TEXT
  8
0
 62
7
 10
2.48589621E+02
 20
-5.97179506E+01
 40
9.00000000E+00
  1
725
 41
1.00000000E+00
  7
MONOTXT
  0
TEXT
  8
0
 62
7
 10
2.48589621E+02
 20
-3.04679501E+01
 40
9.00000000E+00
  1
800
 41
1.00000000E+00
  7
MONOTXT
  0
TEXT
  8
0
 10
7.67852936E+01
 20
3.54316712E+02
 40
9.00000000E+00
  1
STRETCH LINE B
 41
1.09375000E+00
  7
MONOTXT
  0
TEXT
  8
0
 62
7
 10
-4.86094433E+01
 20
1.65705013E+00
 40
9.00000000E+00
  1
STRETCH LIST
 41
1.05263158E+00
  7
MONOTXT
  0
TEXT
  8
0
 62
7
 10
2.84390557E+02
 20
1.65705013E+00
 40
9.00000000E+00
  1
(mm)
 41
1.00000000E+00
  7
MONOTXT
  0
LINE
  8
0
 62
7
 10
-3.06894754E+02
 20
-7.73429508E+01
 11
-3.06894754E+02
 21
-3.84294987E+00
  0
LINE
  8
0
 62
7
 10
-2.24894754E+02
 20
-7.73429508E+01
 11
-2.24894754E+02
 21
-3.84294987E+00
  0
TEXT
  8
0
 62
7
 10
-2.69109441E+02
 20
-7.43429508E+01
 40
9.00000000E+00
  1
B
 41
1.00000000E+00
  7
MONOTXT
  0
TEXT
  8
0
 62
7
 10
-2.69109441E+02
 20
-5.97179506E+01
 40
9.00000000E+00
  1
A
 41
1.00000000E+00
  7
MONOTXT
  0
LINE
  8
0
 62
7
 10
-2.24894754E+02
 20
-4.80929503E+01
 11
-2.42215262E+02
 21
-1.80929504E+01
  0
TEXT
  8
0
 62
7
 10
-3.01109441E+02
 20
-4.50929503E+01
 40
9.00000000E+00
  1
  PLACE
 41
1.20689655E+00
  7
MONOTXT
  0
LINE
  8
0
 62
7
 10
-3.06894754E+02
 20
-1.80929503E+01
 11
-2.42215262E+02
 21
-1.80929503E+01
  0
LINE
  8
0
 62
7
 10
-3.06894754E+02
 20
-7.73429508E+01
 11
3.15105246E+02
 21
-7.73429508E+01
  0
LINE
  8
0
 62
7
 10
-3.06894754E+02
 20
-6.23429508E+01
 11
3.15105246E+02
 21
-6.23429508E+01
  0
TEXT
  8
0
 62
7
 10
-3.01109441E+02
 20
-3.20929503E+01
 40
9.00000000E+00
  1
STRETCH
 41
1.00000000E+00
  7
MONOTXT
  0
TEXT
  8
0
 62
7
 10
-2.96609445E+02
 20
-1.58429499E+01
 40
9.00000000E+00
  1
STROKE
 41
1.00000000E+00
  7
MONOTXT
  0
LINE
  8
0
 62
7
 10
-3.06894758E+02
 20
-3.84294987E+00
 11
3.15105246E+02
 21
-3.84294987E+00
  0
LINE
  8
0
 62
7
 10
-3.06894754E+02
 20
-4.80929503E+01
 11
3.15105246E+02
 21
-4.80929503E+01
  0
LINE
  8
0
 62
7
 10
-1.88894754E+02
 20
-7.73429508E+01
 11
-1.88894754E+02
 21
-3.84294987E+00
  0
LINE
  8
0
 62
7
 10
-1.52894754E+02
 20
-7.73429508E+01
 11
-1.52894754E+02
 21
-3.84294987E+00
  0
LINE
  8
0
 62
7
 10
-1.16894754E+02
 20
-7.73429508E+01
 11
-1.16894754E+02
 21
-3.84294987E+00
  0
LINE
  8
0
 62
7
 10
-8.08947541E+01
 20
-7.73429508E+01
 11
-8.08947541E+01
 21
-3.84294987E+00
  0
LINE
  8
0
 62
7
 10
-4.48947541E+01
 20
-7.73429508E+01
 11
-4.48947541E+01
 21
-3.84294987E+00
  0
LINE
  8
0
 62
7
 10
-8.89475410E+00
 20
-7.73429508E+01
 11
-8.89475410E+00
 21
-3.84294987E+00
  0
LINE
  8
0
 62
7
 10
2.71052459E+01
 20
-7.73429508E+01
 11
2.71052459E+01
 21
-3.84294987E+00
  0
LINE
  8
0
 62
7
 10
6.31052459E+01
 20
-7.73429508E+01
 11
6.31052459E+01
 21
-3.84294987E+00
  0
LINE
  8
0
 62
7
 10
9.91052459E+01
 20
-7.73429508E+01
 11
9.91052459E+01
 21
-3.84294987E+00
  0
LINE
  8
0
 62
7
 10
1.35105246E+02
 20
-7.73429508E+01
 11
1.35105246E+02
 21
-3.84294987E+00
  0
LINE
  8
0
 62
7
 10
1.71105246E+02
 20
-7.73429508E+01
 11
1.71105246E+02
 21
-3.84294987E+00
  0
LINE
  8
0
 62
7
 10
2.07105246E+02
 20
-7.73429508E+01
 11
2.07105246E+02
 21
-3.84294987E+00
  0
LINE
  8
0
 62
7
 10
2.43105246E+02
 20
-7.73429508E+01
 11
2.43105246E+02
 21
-3.84294987E+00
  0
TEXT
  8
0
 62
7
 10
-2.14910379E+02
 20
-3.04679501E+01
 40
9.00000000E+00
  1
50
 41
1.00000000E+00
  7
MONOTXT
  0
TEXT
  8
0
 62
7
 10
-1.78910379E+02
 20
-3.04679501E+01
 40
9.00000000E+00
  1
75
 41
1.00000000E+00
  7
MONOTXT
  0
TEXT
  8
0
 62
7
 10
-1.47410379E+02
 20
-3.04679501E+01
 40
9.00000000E+00
  1
100
 41
1.00000000E+00
  7
MONOTXT
  0
TEXT
  8
0
 62
7
 10
-1.11410379E+02
 20
-3.04679501E+01
 40
9.00000000E+00
  1
150
 41
1.00000000E+00
  7
MONOTXT
  0
TEXT
  8
0
 62
7
 10
-7.54103791E+01
 20
-3.04679501E+01
 40
9.00000000E+00
  1
200
 41
1.00000000E+00
  7
MONOTXT
  0
TEXT
  8
0
 62
7
 10
-3.94103791E+01
 20
-3.04679501E+01
 40
9.00000000E+00
  1
250
 41
1.00000000E+00
  7
MONOTXT
  0
TEXT
  8
0
 62
7
 10
-3.41037910E+00
 20
-3.04679501E+01
 40
9.00000000E+00
  1
300
 41
1.00000000E+00
  7
MONOTXT
  0
TEXT
  8
0
 62
7
 10
3.25896209E+01
 20
-3.04679501E+01
 40
9.00000000E+00
  1
350
 41
1.00000000E+00
  7
MONOTXT
  0
TEXT
  8
0
 62
7
 10
6.85896209E+01
 20
-3.04679501E+01
 40
9.00000000E+00
  1
400
 41
1.00000000E+00
  7
MONOTXT
  0
TEXT
  8
0
 62
7
 10
1.04589621E+02
 20
-3.04679501E+01
 40
9.00000000E+00
  1
450
 41
1.00000000E+00
  7
MONOTXT
  0
TEXT
  8
0
 62
7
 10
1.40589621E+02
 20
-3.04679501E+01
 40
9.00000000E+00
  1
500
 41
1.00000000E+00
  7
MONOTXT
  0
TEXT
  8
0
 62
7
 10
1.76589621E+02
 20
-3.04679501E+01
 40
9.00000000E+00
  1
600
 41
1.00000000E+00
  7
MONOTXT
  0
TEXT
  8
0
 62
7
 10
2.12589621E+02
 20
-3.04679501E+01
 40
9.00000000E+00
  1
700
 41
1.00000000E+00
  7
MONOTXT
  0
TEXT
  8
0
 62
7
 10
-2.19410379E+02
 20
-5.97179506E+01
 40
9.00000000E+00
  1
-25
 41
1.00000000E+00
  7
MONOTXT
  0
TEXT
  8
0
 62
7
 10
-1.74410379E+02
 20
-5.97179506E+01
 40
9.00000000E+00
  1
0
 41
1.00000000E+00
  7
MONOTXT
  0
TEXT
  8
0
 62
7
 10
-1.42910379E+02
 20
-5.97179506E+01
 40
9.00000000E+00
  1
25
 41
1.00000000E+00
  7
MONOTXT
  0
TEXT
  8
0
 62
7
 10
-1.06910379E+02
 20
-5.97179506E+01
 40
9.00000000E+00
  1
75
 41
1.00000000E+00
  7
MONOTXT
  0
TEXT
  8
0
 62
7
 10
-7.54103790E+01
 20
-5.97179506E+01
 40
9.00000000E+00
  1
125
 41
1.00000000E+00
  7
MONOTXT
  0
TEXT
  8
0
 62
7
 10
-3.94103789E+01
 20
-5.97179506E+01
 40
9.00000000E+00
  1
175
 41
1.00000000E+00
  7
MONOTXT
  0
TEXT
  8
0
 62
7
 10
-3.41037887E+00
 20
-5.97179506E+01
 40
9.00000000E+00
  1
225
 41
1.00000000E+00
  7
MONOTXT
  0
TEXT
  8
0
 62
7
 10
3.25896212E+01
 20
-5.97179506E+01
 40
9.00000000E+00
  1
275
 41
1.00000000E+00
  7
MONOTXT
  0
TEXT
  8
0
 62
7
 10
6.85896212E+01
 20
-5.97179506E+01
 40
9.00000000E+00
  1
325
 41
1.00000000E+00
  7
MONOTXT
  0
TEXT
  8
0
 62
7
 10
1.04589621E+02
 20
-5.97179506E+01
 40
9.00000000E+00
  1
375
 41
1.00000000E+00
  7
MONOTXT
  0
TEXT
  8
0
 62
7
 10
1.40589621E+02
 20
-5.97179506E+01
 40
9.00000000E+00
  1
425
 41
1.00000000E+00
  7
MONOTXT
  0
TEXT
  8
0
 62
7
 10
1.76589621E+02
 20
-5.97179506E+01
 40
9.00000000E+00
  1
525
 41
1.00000000E+00
  7
MONOTXT
  0
TEXT
  8
0
 62
7
 10
2.12589621E+02
 20
-5.97179506E+01
 40
9.00000000E+00
  1
625
 41
1.00000000E+00
  7
MONOTXT
  0
TEXT
  8
0
 62
7
 10
-2.19410379E+02
 20
-7.39679511E+01
 40
9.00000000E+00
  1
-25
 41
1.00000000E+00
  7
MONOTXT
  0
TEXT
  8
0
 62
7
 10
2.12589621E+02
 20
-7.39679511E+01
 40
9.00000000E+00
  1
625
 41
1.00000000E+00
  7
MONOTXT
  0
TEXT
  8
0
 62
7
 10
1.76589621E+02
 20
-7.39679511E+01
 40
9.00000000E+00
  1
525
 41
1.00000000E+00
  7
MONOTXT
  0
TEXT
  8
0
 62
7
 10
1.40589621E+02
 20
-7.39679511E+01
 40
9.00000000E+00
  1
425
 41
1.00000000E+00
  7
MONOTXT
  0
TEXT
  8
0
 62
7
 10
1.04589621E+02
 20
-7.39679511E+01
 40
9.00000000E+00
  1
375
 41
1.00000000E+00
  7
MONOTXT
  0
TEXT
  8
0
 62
7
 10
6.85896213E+01
 20
-7.39679511E+01
 40
9.00000000E+00
  1
325
 41
1.00000000E+00
  7
MONOTXT
  0
TEXT
  8
0
 62
7
 10
3.25896213E+01
 20
-7.39679511E+01
 40
9.00000000E+00
  1
275
 41
1.00000000E+00
  7
MONOTXT
  0
TEXT
  8
0
 62
7
 10
-3.41037879E+00
 20
-7.39679511E+01
 40
9.00000000E+00
  1
225
 41
1.00000000E+00
  7
MONOTXT
  0
TEXT
  8
0
 62
7
 10
-3.94103788E+01
 20
-7.39679511E+01
 40
9.00000000E+00
  1
175
 41
1.00000000E+00
  7
MONOTXT
  0
TEXT
  8
0
 62
7
 10
-7.54103789E+01
 20
-7.39679511E+01
 40
9.00000000E+00
  1
125
 41
1.00000000E+00
  7
MONOTXT
  0
TEXT
  8
0
 62
7
 10
-1.06910379E+02
 20
-7.39679511E+01
 40
9.00000000E+00
  1
75
 41
1.00000000E+00
  7
MONOTXT
  0
TEXT
  8
0
 62
7
 10
-1.42910379E+02
 20
-7.39679511E+01
 40
9.00000000E+00
  1
25
 41
1.00000000E+00
  7
MONOTXT
  0
TEXT
  8
0
 62
7
 10
-1.74410379E+02
 20
-7.39679511E+01
 40
9.00000000E+00
  1
0
 41
1.00000000E+00
  7
MONOTXT
  0
LINE
  8
0
 62
7
 10
3.43499859E+02
 20
-3.10000015E+02
 11
3.54999889E+02
 21
-3.10000015E+02
  0
LINE
  8
0
 62
7
 10
3.47999859E+02
 20
-3.05999977E+02
 11
3.54999889E+02
 21
-3.05999977E+02
  0
LINE
  8
0
 62
7
 10
3.43499859E+02
 20
-3.19000015E+02
 11
3.54999889E+02
 21
-3.19000015E+02
  0
LINE
  8
0
 62
7
 10
-1.39315423E+01
 20
-3.19000015E+02
 11
-8.30000496E+01
 21
-3.19000015E+02
  0
LINE
  8
0
 62
7
 10
-8.73538989E+00
 20
-3.10000015E+02
 11
-8.30000496E+01
 21
-3.10000015E+02
  0
LINE
  8
0
 62
7
 10
-6.42596679E+00
 20
-3.05999977E+02
 11
-8.30000496E+01
 21
-3.05999977E+02
  0
LINE
  8
0
 62
7
 10
-5.61554406E+01
 20
-2.13000031E+02
 11
-8.29999886E+01
 21
-2.13000031E+02
  0
LINE
  8
0
 62
7
 10
-5.38460219E+01
 20
-2.09000000E+02
 11
-8.29999886E+01
 21
-2.09000000E+02
  0
LINE
  8
0
 62
7
 10
-4.86498694E+01
 20
-2.00000000E+02
 11
-8.29999886E+01
 21
-2.00000000E+02
  0
LINE
  8
0
 62
7
 10
-7.14999886E+01
 20
-1.30000000E+02
 11
-8.29999886E+01
 21
-1.30000000E+02
  0
LINE
  8
0
 62
7
 10
-7.14999886E+01
 20
-1.26000000E+02
 11
-8.29999886E+01
 21
-1.26000000E+02
  0
LINE
  8
0
 62
4
 10
-4.06089118E+02
 20
-3.20462823E+02
 11
-4.06000080E+02
 21
-3.20426849E+02
  0
LINE
  8
0
 62
4
 10
-4.06000080E+02
 20
-3.20683201E+02
 11
-4.06089118E+02
 21
-3.20462823E+02
  0
LINE
  8
0
 62
7
 10
-8.23535060E+00
 20
-1.30000000E+02
 11
-5.64999886E+01
 21
-1.30000000E+02
  0
LINE
  8
0
 62
7
 10
-5.92594953E+00
 20
-1.26000000E+02
 11
-5.64999886E+01
 21
-1.26000000E+02
  0
LINE
  8
0
  6
CENTER
 62
2
 10
-1.97414692E+02
 20
-1.69500000E+02
 11
-3.10406862E+01
 21
-1.69500000E+02
  0
LINE
  8
0
 62
7
 10
-4.05400135E+02
 20
-3.49500000E+02
 11
-4.05400135E+02
 21
-3.06499985E+02
  0
LINE
  8
0
 62
7
 10
-4.02400135E+02
 20
-3.49500000E+02
 11
-4.02400135E+02
 21
-3.31498917E+02
  0
LINE
  8
0
  6
CENTER
 62
2
 10
-3.94000172E+02
 20
-3.00314659E+02
 11
-3.94000172E+02
 21
-3.29038361E+02
  0
LINE
  8
0
 62
7
 10
-4.06000202E+02
 20
-3.49500000E+02
 11
-4.06000202E+02
 21
-3.06499985E+02
  0
LINE
  8
0
 62
7
 10
-1.18508887E+02
 20
-1.23119488E+02
 11
-8.30000744E+01
 21
-1.22499680E+02
  0
LINE
  8
0
 62
7
 10
-1.19000050E+02
 20
-1.23619690E+02
 11
-1.19000050E+02
 21
-2.15380310E+02
  0
LINE
  8
0
 62
7
 10
-8.29999886E+01
 20
-1.22500000E+02
 11
-8.29999886E+01
 21
-1.32216215E+02
  0
LINE
  8
0
 62
7
 10
-1.18508741E+02
 20
-2.15879935E+02
 11
-8.30000195E+01
 21
-2.16499742E+02
  0
LINE
  8
0
 62
7
 10
-1.14999989E+02
 20
-1.41499954E+02
 11
-1.14999989E+02
 21
-1.97499985E+02
  0
LINE
  8
0
 62
7
 10
-1.12999989E+02
 20
-1.39500031E+02
 11
-9.09999886E+01
 21
-1.39500031E+02
  0
LINE
  8
0
 62
7
 10
-1.12999989E+02
 20
-1.99500031E+02
 11
-8.29999886E+01
 21
-1.99500031E+02
  0
LINE
  8
0
 62
7
 10
-1.39500019E+02
 20
-1.50000015E+02
 11
-1.35000050E+02
 21
-1.50000015E+02
  0
LINE
  8
0
 62
7
 10
-1.34999989E+02
 20
-1.48936752E+02
 11
-1.34999989E+02
 21
-1.90028229E+02
  0
LINE
  8
0
 62
7
 10
-1.39999958E+02
 20
-1.50499969E+02
 11
-1.39999958E+02
 21
-1.88500000E+02
  0
LINE
  8
0
 62
7
 10
-1.39500019E+02
 20
-1.89000031E+02
 11
-1.35000050E+02
 21
-1.89000031E+02
  0
LINE
  8
0
 62
7
 10
-1.20500019E+02
 20
-1.91500046E+02
 11
-1.18999989E+02
 21
-1.91500046E+02
  0
LINE
  8
0
 62
7
 10
-1.34517470E+02
 20
-1.90527650E+02
 11
-1.21000013E+02
 21
-1.90999689E+02
  0
LINE
  8
0
 62
7
 10
-1.20500019E+02
 20
-1.47500015E+02
 11
-1.18999989E+02
 21
-1.47500015E+02
  0
LINE
  8
0
 62
7
 10
-1.34517444E+02
 20
-1.48471800E+02
 11
-1.21000018E+02
 21
-1.47999761E+02
  0
LINE
  8
0
 62
7
 10
-1.21000019E+02
 20
-1.90999985E+02
 11
-1.21000019E+02
 21
-1.47999985E+02
  0
LINE
  8
0
 62
7
 10
-3.76069669E+02
 20
-3.34198504E+02
 11
-3.86189703E+02
 21
-3.24078470E+02
  0
LINE
  8
0
 62
7
 10
-3.74301880E+02
 20
-3.32430542E+02
 11
-3.84421893E+02
 21
-3.22310530E+02
  0
LINE
  8
0
 62
7
 10
-3.60250172E+02
 20
-3.07099991E+02
 11
-3.60250172E+02
 21
-3.26610306E+02
  0
LINE
  8
0
 62
7
 10
-4.01400135E+02
 20
-3.48250000E+02
 11
-3.81889881E+02
 21
-3.48250000E+02
  0
LINE
  8
0
 62
7
 10
-3.16600239E+02
 20
-3.48250015E+02
 11
-3.36110432E+02
 21
-3.48250015E+02
  0
LINE
  8
0
 62
7
 10
-3.12600147E+02
 20
-3.49500000E+02
 11
-3.12600147E+02
 21
-3.06500015E+02
  0
LINE
  8
0
 62
7
 10
-3.15600117E+02
 20
-3.49500000E+02
 11
-3.15600117E+02
 21
-3.31498817E+02
  0
LINE
  8
0
 62
7
 10
-3.12000172E+02
 20
-3.49500000E+02
 11
-3.12000172E+02
 21
-3.06500015E+02
  0
LINE
  8
0
  6
CENTER
 62
2
 10
-3.59000080E+02
 20
-2.98644203E+02
 11
-3.59000080E+02
 21
-3.49500000E+02
  0
LINE
  8
0
 62
7
 10
-3.16000202E+02
 20
-3.03100021E+02
 11
-4.02006664E+02
 21
-3.03100021E+02
  0
LINE
  8
0
  6
CENTER
 62
2
 10
-3.24000172E+02
 20
-3.00127304E+02
 11
-3.24000172E+02
 21
-3.29864220E+02
  0
LINE
  8
0
  6
CENTER
 62
2
 10
-4.08555653E+02
 20
-3.14499992E+02
 11
-3.79309223E+02
 21
-3.14499992E+02
  0
LINE
  8
0
 62
7
 10
-3.41931155E+02
 20
-3.34198003E+02
 11
-3.31811076E+02
 21
-3.24077927E+02
  0
LINE
  8
0
 62
7
 10
-3.43698933E+02
 20
-3.32430117E+02
 11
-3.33578875E+02
 21
-3.22310063E+02
  0
LINE
  8
0
 62
7
 10
-3.57750172E+02
 20
-3.07100014E+02
 11
-3.57750172E+02
 21
-3.26610268E+02
  0
LINE
  8
0
  6
CENTER
 62
2
 10
-3.43000172E+02
 20
-2.99923019E+02
 11
-3.43000172E+02
 21
-3.40128159E+02
  0
LINE
  8
0
 62
7
 10
-3.40999073E+02
 20
-3.06100029E+02
 11
-3.77001331E+02
 21
-3.06100029E+02
  0
LINE
  8
0
 62
7
 10
-4.02000111E+02
 20
-3.02500000E+02
 11
-3.16000202E+02
 21
-3.02500046E+02
  0
LINE
  8
0
 62
7
 10
-3.29000080E+02
 20
-3.02500023E+02
 11
-3.29000080E+02
 21
-3.03100021E+02
  0
LINE
  8
0
 62
7
 10
-3.89000080E+02
 20
-3.02499969E+02
 11
-3.89000080E+02
 21
-3.03099945E+02
  0
LINE
  8
0
 62
7
 10
-3.98000111E+02
 20
-3.26634682E+02
 11
-3.98000111E+02
 21
-3.27000038E+02
  0
LINE
  8
0
 62
7
 10
-3.81865528E+02
 20
-3.10499954E+02
 11
-3.81500233E+02
 21
-3.10499954E+02
  0
LINE
  8
0
 62
7
 10
-3.36134785E+02
 20
-3.10500053E+02
 11
-3.36500172E+02
 21
-3.10500053E+02
  0
LINE
  8
0
 62
7
 10
-3.20000050E+02
 20
-3.26634659E+02
 11
-3.20000050E+02
 21
-3.26999954E+02
  0
LINE
  8
0
  6
CENTER
 62
2
 10
-3.38222279E+02
 20
-3.14499992E+02
 11
-3.09012501E+02
 21
-3.14499992E+02
  0
LINE
  8
0
  6
CENTER
 62
2
 10
-3.70000141E+02
 20
-3.37503502E+02
 11
-3.70000141E+02
 21
-2.99926529E+02
  0
LINE
  8
0
  6
CENTER
 62
2
 10
-3.07465443E+02
 20
-3.49500000E+02
 11
-4.09465565E+02
 21
-3.49500000E+02
  0
LINE
  8
0
  6
CENTER
 62
2
 10
-1.08334092E+01
 20
-1.34499969E+02
 11
-5.64999886E+01
 21
-1.34499969E+02
  0
LINE
  8
0
 62
7
 10
-1.34315030E+01
 20
-1.39000000E+02
 11
-3.69999886E+01
 21
-1.39000000E+02
  0
LINE
  8
0
  6
CENTER
 62
2
 10
-5.12479457E+01
 20
-2.04500000E+02
 11
-1.22495625E+02
 21
-2.04500000E+02
  0
LINE
  8
0
  6
CENTER
 62
2
 10
-1.97414722E+02
 20
-3.49500000E+02
 11
-3.15407167E+01
 21
-3.49500000E+02
  0
LINE
  8
0
 62
7
 10
-1.21000050E+02
 20
-3.49500000E+02
 11
-1.21000050E+02
 21
-3.28000023E+02
  0
LINE
  8
0
 62
7
 10
-1.34517494E+02
 20
-3.28472129E+02
 11
-1.21000098E+02
 21
-3.28000092E+02
  0
LINE
  8
0
 62
7
 10
-1.35000019E+02
 20
-3.49500000E+02
 11
-1.35000019E+02
 21
-3.28971741E+02
  0
LINE
  8
0
 62
7
 10
-1.20500111E+02
 20
-3.27500015E+02
 11
-1.19000111E+02
 21
-3.27500015E+02
  0
LINE
  8
0
 62
7
 10
-1.15000019E+02
 20
-3.03058556E+02
 11
-1.15000019E+02
 21
-3.02500008E+02
  0
LINE
  8
0
 62
7
 10
-1.18508787E+02
 20
-3.03119866E+02
 11
-8.30000658E+01
 21
-3.02500059E+02
  0
LINE
  8
0
 62
7
 10
-1.15000080E+02
 20
-3.02499992E+02
 11
-8.30000801E+01
 21
-3.02499992E+02
  0
LINE
  8
0
 62
7
 10
-8.30000496E+01
 20
-3.49500000E+02
 11
-8.30000496E+01
 21
-3.02500053E+02
  0
LINE
  8
0
 62
7
 10
-1.19000080E+02
 20
-3.49500000E+02
 11
-1.19000080E+02
 21
-3.03619720E+02
  0
LINE
  8
0
 62
7
 10
-1.39500050E+02
 20
-3.29999992E+02
 11
-1.35000080E+02
 21
-3.29999992E+02
  0
LINE
  8
0
 62
7
 10
-1.40000019E+02
 20
-3.49500000E+02
 11
-1.40000019E+02
 21
-3.30500008E+02
  0
LINE
  8
0
  6
CENTER
 62
2
 10
-1.13334485E+01
 20
-3.14499985E+02
 11
-1.23050617E+02
 21
-3.14499985E+02
  0
LINE
  8
0
 62
7
 10
-1.51000019E+02
 20
-3.42717720E+02
 11
-1.51000019E+02
 21
-3.37000000E+02
  0
LINE
  8
0
 62
7
 10
-1.54000019E+02
 20
-3.49500000E+02
 11
-1.54000019E+02
 21
-3.38499977E+02
  0
LINE
  8
0
 62
7
 10
-1.94000019E+02
 20
-3.39999954E+02
 11
-1.94000019E+02
 21
-3.49500000E+02
  0
LINE
  8
0
 62
7
 10
-1.57000019E+02
 20
-3.38499977E+02
 11
-1.57000019E+02
 21
-3.49500000E+02
  0
LINE
  8
0
 62
7
 10
-1.92500019E+02
 20
-3.38499977E+02
 11
-1.92500019E+02
 21
-3.49500000E+02
  0
LINE
  8
0
 62
7
 10
-1.94000091E+02
 20
-3.40000009E+02
 11
-1.92500078E+02
 21
-3.38499996E+02
  0
LINE
  8
0
 62
7
 10
-1.92500080E+02
 20
-3.38499977E+02
 11
-1.82000049E+02
 21
-3.38499977E+02
  0
LINE
  8
0
 62
2
 10
-1.93320087E+02
 20
-3.39319992E+02
 11
-1.82000049E+02
 21
-3.39319992E+02
  0
LINE
  8
0
 62
7
 10
-1.51000050E+02
 20
-3.36999954E+02
 11
-1.40000050E+02
 21
-3.36999954E+02
  0
LINE
  8
0
 62
7
 10
-1.44000050E+02
 20
-3.49500000E+02
 11
-1.44000050E+02
 21
-3.42717720E+02
  0
LINE
  8
0
 62
7
 10
-1.51000019E+02
 20
-3.42717720E+02
 11
-1.44000050E+02
 21
-3.42717720E+02
  0
LINE
  8
0
 62
7
 10
-1.54000008E+02
 20
-3.46000139E+02
 11
-1.51000010E+02
 21
-3.42717724E+02
  0
LINE
  8
0
 62
7
 10
-1.54000027E+02
 20
-3.38499958E+02
 11
-1.51000029E+02
 21
-3.36999936E+02
  0
LINE
  8
0
 62
2
 10
-1.44000048E+02
 20
-3.42717706E+02
 11
-1.49000039E+02
 21
-3.49500000E+02
  0
LINE
  8
0
 62
2
 10
-1.49000026E+02
 20
-3.49500000E+02
 11
-1.52660565E+02
 21
-3.44534620E+02
  0
LINE
  8
0
 62
7
 10
-1.57000019E+02
 20
-3.39319992E+02
 11
-1.54000019E+02
 21
-3.39319992E+02
  0
LINE
  8
0
 62
7
 10
-1.42000141E+02
 20
-1.57000000E+02
 11
-1.39999958E+02
 21
-1.57000000E+02
  0
LINE
  8
0
 62
7
 10
-1.41999989E+02
 20
-1.82000046E+02
 11
-1.40000019E+02
 21
-1.82000046E+02
  0
LINE
  8
0
 62
7
 10
-1.50999958E+02
 20
-1.59000000E+02
 11
-1.50999958E+02
 21
-1.80000000E+02
  0
LINE
  8
0
 62
7
 10
-1.53999958E+02
 20
-1.80000031E+02
 11
-1.53999958E+02
 21
-1.59000000E+02
  0
LINE
  8
0
 62
7
 10
-1.94000019E+02
 20
-1.78999878E+02
 11
-1.94000019E+02
 21
-1.60000061E+02
  0
LINE
  8
0
 62
7
 10
-1.56999958E+02
 20
-1.80500000E+02
 11
-1.56999958E+02
 21
-1.58499969E+02
  0
LINE
  8
0
 62
7
 10
-1.92500019E+02
 20
-1.58499969E+02
 11
-1.82000019E+02
 21
-1.58499969E+02
  0
LINE
  8
0
 62
7
 10
-1.92500019E+02
 20
-1.80500000E+02
 11
-1.92500019E+02
 21
-1.58499969E+02
  0
LINE
  8
0
 62
7
 10
-1.93999952E+02
 20
-1.60000094E+02
 11
-1.92499918E+02
 21
-1.58500060E+02
  0
LINE
  8
0
 62
2
 10
-1.93320026E+02
 20
-1.59319977E+02
 11
-1.82000019E+02
 21
-1.59319977E+02
  0
LINE
  8
0
 62
7
 10
-1.92500019E+02
 20
-1.80500000E+02
 11
-1.82000019E+02
 21
-1.80500000E+02
  0
LINE
  8
0
 62
7
 10
-1.93999969E+02
 20
-1.78999936E+02
 11
-1.92499978E+02
 21
-1.80499927E+02
  0
LINE
  8
0
 62
2
 10
-1.93320026E+02
 20
-1.79679977E+02
 11
-1.82000019E+02
 21
-1.79679977E+02
  0
LINE
  8
0
 62
7
 10
-1.53999989E+02
 20
-1.59000000E+02
 11
-1.44000141E+02
 21
-1.59000000E+02
  0
LINE
  8
0
 62
7
 10
-1.53999989E+02
 20
-1.80000000E+02
 11
-1.44000019E+02
 21
-1.80000000E+02
  0
LINE
  8
0
 62
7
 10
-1.44000030E+02
 20
-1.80000012E+02
 11
-1.41999985E+02
 21
-1.82000057E+02
  0
LINE
  8
0
 62
7
 10
-1.44000100E+02
 20
-1.58999900E+02
 11
-1.42000141E+02
 21
-1.56999941E+02
  0
LINE
  8
0
 62
7
 10
-1.56999958E+02
 20
-1.59319977E+02
 11
-1.53999958E+02
 21
-1.59319977E+02
  0
LINE
  8
0
 62
7
 10
-1.56999958E+02
 20
-1.79679977E+02
 11
-1.53999958E+02
 21
-1.79679977E+02
  0
LINE
  8
0
  6
CENTER
 62
2
 10
-9.00000191E+01
 20
-1.77952286E+02
 11
-9.00000191E+01
 21
-1.92565674E+02
  0
LINE
  8
0
  6
CENTER
 62
2
 10
-9.81945992E+01
 20
-1.85500076E+02
 11
-8.19255867E+01
 21
-1.85500076E+02
  0
LINE
  8
0
 62
7
 10
-8.82678944E+01
 20
-1.85500155E+02
 11
-8.91339336E+01
 21
-1.84000122E+02
  0
LINE
  8
0
 62
7
 10
-8.91339912E+01
 20
-1.84000076E+02
 11
-9.08660774E+01
 21
-1.84000076E+02
  0
LINE
  8
0
 62
7
 10
-9.17318342E+01
 20
-1.85500303E+02
 11
-9.08658179E+01
 21
-1.84000310E+02
  0
LINE
  8
0
 62
7
 10
-9.08659831E+01
 20
-1.87000118E+02
 11
-9.17320528E+01
 21
-1.85500032E+02
  0
LINE
  8
0
 62
7
 10
-8.91339912E+01
 20
-1.87000092E+02
 11
-9.08660774E+01
 21
-1.87000092E+02
  0
LINE
  8
0
 62
7
 10
-8.82677978E+01
 20
-1.85500162E+02
 11
-8.91338369E+01
 21
-1.87000195E+02
  0
LINE
  8
0
  6
CENTER
 62
2
 10
-9.90000191E+01
 20
-1.72605881E+02
 11
-9.90000191E+01
 21
-1.44676773E+02
  0
LINE
  8
0
  6
CENTER
 62
2
 10
-8.52976875E+01
 20
-1.58500076E+02
 11
-1.13094929E+02
 21
-1.58500076E+02
  0
LINE
  8
0
  6
CENTER
 62
2
 10
-9.89999886E+01
 20
-3.15199944E+02
 11
-9.89999886E+01
 21
-3.00047340E+02
  0
ARC
  8
0
 62
7
 10
-3.21000050E+02
 20
-3.26634659E+02
 40
1.00000000E+00
 50
0.00000000E+00
 51
1.03886139E+02
  0
ARC
  8
0
 62
7
 10
-3.61250141E+02
 20
-3.26610306E+02
 40
1.00000000E+00
 50
2.75613832E+02
 51
3.59999959E+02
  0
ARC
  8
0
 62
7
 10
-3.81889790E+02
 20
-3.47250008E+02
 40
1.00000000E+00
 50
2.69999963E+02
 51
3.54386117E+02
  0
ARC
  8
0
 62
7
 10
-3.56750111E+02
 20
-3.07100067E+02
 40
1.00000000E+00
 50
8.99999818E+01
 51
1.79999964E+02
  0
ARC
  8
0
 62
7
 10
-3.77001270E+02
 20
-3.07099960E+02
 40
1.00000000E+00
 50
8.99999818E+01
 51
1.78726994E+02
  0
ARC
  8
0
 62
7
 10
-1.20500019E+02
 20
-1.90999969E+02
 40
5.00000000E-01
 50
1.79999977E+02
 51
2.69999974E+02
  0
ARC
  8
0
 62
7
 10
-1.34500019E+02
 20
-1.90028229E+02
 40
5.00000000E-01
 50
1.79999977E+02
 51
2.67999192E+02
  0
ARC
  8
0
 62
7
 10
-3.59000080E+02
 20
-3.49500000E+02
 40
2.10111084E+01
 50
0.00000000E+00
 51
1.80000000E+02
  0
ARC
  8
0
 62
7
 10
-1.13000019E+02
 20
-1.97499924E+02
 40
2.00000000E+00
 50
1.79999977E+02
 51
2.70000028E+02
  0
CIRCLE
  8
0
 62
7
 10
-3.94000172E+02
 20
-3.14500046E+02
 40
8.70000076E+00
  0
ARC
  8
0
 62
7
 10
-3.83714649E+02
 20
-3.21603462E+02
 40
1.00000000E+00
 50
1.45369634E+02
 51
2.24999955E+02
  0
ARC
  8
0
 62
7
 10
-3.86896656E+02
 20
-3.24785484E+02
 40
1.00000000E+00
 50
4.49999910E+01
 51
1.24630380E+02
  0
ARC
  8
0
 62
7
 10
-3.61250141E+02
 20
-3.07100014E+02
 40
1.00000000E+00
 50
3.59999959E+02
 51
8.99999956E+01
  0
ARC
  8
0
 62
7
 10
-3.94000172E+02
 20
-3.14500046E+02
 40
1.15000000E+01
 50
2.56113404E+02
 51
1.38868930E+01
  0
ARC
  8
0
 62
7
 10
-1.13000019E+02
 20
-1.41499954E+02
 40
2.00000000E+00
 50
8.99999818E+01
 51
1.79999951E+02
  0
ARC
  8
0
 62
7
 10
-1.18499958E+02
 20
-2.15380280E+02
 40
5.00000000E-01
 50
1.79999977E+02
 51
2.68999679E+02
  0
ARC
  8
0
 62
7
 10
-3.16000050E+02
 20
-3.06500015E+02
 40
4.00000000E+00
 50
0.00000000E+00
 51
8.99999818E+01
  0
ARC
  8
0
 62
7
 10
-4.01400074E+02
 20
-3.47250008E+02
 40
1.00000000E+00
 50
1.79999964E+02
 51
2.69999946E+02
  0
ARC
  8
0
 62
7
 10
-4.02000172E+02
 20
-3.06500015E+02
 40
3.40000010E+00
 50
9.00000231E+01
 51
1.79999977E+02
  0
CIRCLE
  8
0
 62
7
 10
-3.24000172E+02
 20
-3.14500046E+02
 40
8.00000000E+00
  0
ARC
  8
0
 62
7
 10
-4.02000172E+02
 20
-3.06500015E+02
 40
4.00000000E+00
 50
9.00000231E+01
 51
1.79999977E+02
  0
CIRCLE
  8
0
 62
7
 10
-3.94000172E+02
 20
-3.14500046E+02
 40
8.00000000E+00
  0
CIRCLE
  8
0
 62
7
 10
-3.24000172E+02
 20
-3.14500046E+02
 40
8.70000076E+00
  0
ARC
  8
0
 62
7
 10
-3.16600178E+02
 20
-3.31498825E+02
 40
1.00000000E+00
 50
0.00000000E+00
 51
8.87269716E+01
  0
ARC
  8
0
 62
7
 10
-3.36500080E+02
 20
-3.06999916E+02
 40
3.50000000E+00
 50
1.81274508E+02
 51
2.70000018E+02
  0
ARC
  8
0
 62
7
 10
-4.01500172E+02
 20
-3.27000038E+02
 40
3.50000000E+00
 50
2.71274531E+02
 51
4.99579573E-04
  0
ARC
  8
0
 62
7
 10
-3.81500172E+02
 20
-3.06999992E+02
 40
3.50000000E+00
 50
2.70000018E+02
 51
3.58726970E+02
  0
ARC
  8
0
 62
7
 10
-4.01400074E+02
 20
-3.31498917E+02
 40
1.00000000E+00
 50
9.12747958E+01
 51
1.79999964E+02
  0
ARC
  8
0
 62
7
 10
-1.18499958E+02
 20
-1.23619690E+02
 40
5.00000000E-01
 50
9.10002493E+01
 51
1.79999951E+02
  0
ARC
  8
0
 62
7
 10
-1.39500019E+02
 20
-1.50499969E+02
 40
5.00000000E-01
 50
8.99999818E+01
 51
1.79999951E+02
  0
ARC
  8
0
 62
7
 10
-1.20500019E+02
 20
-1.47999939E+02
 40
5.00000000E-01
 50
8.99999818E+01
 51
1.79999951E+02
  0
ARC
  8
0
 62
7
 10
-1.39500019E+02
 20
-1.88499939E+02
 40
5.00000000E-01
 50
1.79999977E+02
 51
2.69999974E+02
  0
ARC
  8
0
 62
7
 10
-1.34500019E+02
 20
-1.48971664E+02
 40
5.00000000E-01
 50
9.20007356E+01
 51
1.79999951E+02
  0
ARC
  8
0
 62
7
 10
-3.73594654E+02
 20
-3.31723511E+02
 40
1.00000000E+00
 50
2.24999972E+02
 51
3.09385511E+02
  0
ARC
  8
0
 62
7
 10
-3.76776661E+02
 20
-3.34905518E+02
 40
1.00000000E+00
 50
3.20613837E+02
 51
4.49999910E+01
  0
ARC
  8
0
 62
7
 10
-3.34285633E+02
 20
-3.21603462E+02
 40
1.00000000E+00
 50
3.14999995E+02
 51
3.46303842E+01
  0
ARC
  8
0
 62
7
 10
-3.31103657E+02
 20
-3.24785484E+02
 40
1.00000000E+00
 50
5.53696252E+01
 51
1.34999959E+02
  0
ARC
  8
0
 62
7
 10
-3.16500172E+02
 20
-3.26999954E+02
 40
3.50000000E+00
 50
1.79999977E+02
 51
2.68726963E+02
  0
ARC
  8
0
 62
7
 10
-3.36110462E+02
 20
-3.47250015E+02
 40
1.00000000E+00
 50
1.85613837E+02
 51
2.69999963E+02
  0
ARC
  8
0
 62
7
 10
-3.44405659E+02
 20
-3.31723511E+02
 40
1.00000000E+00
 50
2.30613841E+02
 51
3.14999995E+02
  0
ARC
  8
0
 62
7
 10
-3.41223682E+02
 20
-3.34905540E+02
 40
1.00000000E+00
 50
1.34999959E+02
 51
2.19385485E+02
  0
ARC
  8
0
 62
7
 10
-3.40998981E+02
 20
-3.07100067E+02
 40
1.00000000E+00
 50
1.27477808E+00
 51
8.99999818E+01
  0
ARC
  8
0
 62
7
 10
-3.56750111E+02
 20
-3.26610283E+02
 40
1.00000000E+00
 50
1.79999964E+02
 51
2.64386104E+02
  0
ARC
  8
0
 62
7
 10
-3.59000080E+02
 20
-3.49499924E+02
 40
2.20000000E+01
 50
0.00000000E+00
 51
1.80000199E+02
  0
ARC
  8
0
 62
7
 10
-3.59000080E+02
 20
-3.49499924E+02
 40
1.95000000E+01
 50
0.00000000E+00
 51
1.80000224E+02
  0
ARC
  8
0
 62
7
 10
-3.16600178E+02
 20
-3.47250015E+02
 40
1.00000000E+00
 50
2.69999963E+02
 51
0.00000000E+00
  0
ARC
  8
0
 62
7
 10
-3.16000050E+02
 20
-3.06500015E+02
 40
3.40000010E+00
 50
0.00000000E+00
 51
8.99999818E+01
  0
ARC
  8
0
 62
7
 10
-3.24000172E+02
 20
-3.14500046E+02
 40
1.15000000E+01
 50
1.66113425E+02
 51
2.83886868E+02
  0
ARC
  8
0
 62
7
 10
-3.97000172E+02
 20
-3.26634697E+02
 40
1.00000000E+00
 50
7.61138799E+01
 51
1.79999964E+02
  0
ARC
  8
0
 62
7
 10
-3.81865528E+02
 20
-3.11499939E+02
 40
1.00000000E+00
 50
8.99999818E+01
 51
1.93887774E+02
  0
ARC
  8
0
 62
7
 10
-3.36134785E+02
 20
-3.11500038E+02
 40
1.00000000E+00
 50
3.46114302E+02
 51
8.99999818E+01
  0
CIRCLE
  8
0
 62
7
 10
-3.24000172E+02
 20
-3.14499992E+02
 40
4.18000031E+00
  0
CIRCLE
  8
0
 62
2
 10
-3.94000172E+02
 20
-3.14499992E+02
 40
5.00000000E+00
  0
CIRCLE
  8
0
 62
2
 10
-3.24000172E+02
 20
-3.14499992E+02
 40
5.00000000E+00
  0
CIRCLE
  8
0
 62
7
 10
-3.94000172E+02
 20
-3.14499992E+02
 40
4.18000031E+00
  0
ARC
  8
0
 62
7
 10
-1.39500050E+02
 20
-3.30500023E+02
 40
5.00000000E-01
 50
9.00000300E+01
 51
1.80000019E+02
  0
ARC
  8
0
 62
7
 10
-1.18500080E+02
 20
-3.03619720E+02
 40
5.00000000E-01
 50
9.10003249E+01
 51
1.80000019E+02
  0
ARC
  8
0
 62
7
 10
-1.34500050E+02
 20
-3.28971741E+02
 40
5.00000000E-01
 50
9.20008106E+01
 51
1.80000019E+02
  0
ARC
  8
0
 62
7
 10
-1.20500050E+02
 20
-3.27999992E+02
 40
5.00000000E-01
 50
9.00000300E+01
 51
1.80000019E+02
  0
ARC
  8
0
 62
2
 10
-3.59000080E+02
 20
-3.49500000E+02
 40
1.01800117E+01
 50
0.00000000E+00
 51
1.80000000E+02
  0
ARC
  8
0
 62
7
 10
-1.54500050E+02
 20
-3.49500015E+02
 40
1.25000010E+01
 50
6.99411317E-05
 51
3.28596884E+01
  0
CIRCLE
  8
0
 62
7
 10
-9.00000191E+01
 20
-1.85500076E+02
 40
5.00000000E+00
  0
CIRCLE
  8
0
 62
7
 10
-9.89999886E+01
 20
-1.58499985E+02
 40
9.25000000E+00
  0
CIRCLE
  8
0
 62
2
 10
-9.90000191E+01
 20
-1.58500046E+02
 40
1.04775009E+01
  0
CIRCLE
  8
0
 62
7
 10
-9.89999886E+01
 20
-1.58500046E+02
 40
1.10000000E+01
  0
CIRCLE
  8
0
 62
7
 10
-9.00000191E+01
 20
-1.85500076E+02
 40
2.59999990E+00
  0
ARC
  8
0
 62
4
 10
-3.59000080E+02
 20
-3.49500000E+02
 40
1.60000000E+01
 50
0.00000000E+00
 51
1.80000000E+02
  0
ARC
  8
0
 62
7
 10
-3.59000080E+02
 20
-3.49500000E+02
 40
1.10000000E+01
 50
0.00000000E+00
 51
1.80000000E+02
  0
LINE
  8
0
 62
4
 10
-3.43000080E+02
 20
-3.40262390E+02
 11
-3.43000080E+02
 21
-3.49500000E+02
  0
LINE
  8
0
 62
4
 10
-3.75000080E+02
 20
-3.40262390E+02
 11
-3.75000080E+02
 21
-3.49500000E+02
  0
LINE
  8
0
 62
4
 10
-3.59000019E+02
 20
-3.31024778E+02
 11
-3.43000046E+02
 21
-3.40262359E+02
  0
LINE
  8
0
 62
4
 10
-3.75000115E+02
 20
-3.40262419E+02
 11
-3.59000052E+02
 21
-3.31024777E+02
  0
LINE
  8
0
 62
4
 10
-1.80570953E+02
 20
-1.69500000E+02
 11
-1.70429085E+02
 21
-1.69500000E+02
  0
ARC
  8
0
 62
4
 10
-1.92106806E+02
 20
-1.77500000E+02
 40
2.31067870E+01
 50
3.39743797E+02
 51
2.02562028E+01
  0
ARC
  8
0
 62
4
 10
-1.92106806E+02
 20
-1.61500000E+02
 40
2.31067870E+01
 50
3.39743797E+02
 51
2.02562028E+01
  0
ARC
  8
0
 62
4
 10
-1.58893232E+02
 20
-1.77500000E+02
 40
2.31067870E+01
 50
1.59743797E+02
 51
2.00256203E+02
  0
ARC
  8
0
 62
4
 10
-1.58893232E+02
 20
-1.61500000E+02
 40
2.31067870E+01
 50
1.59743797E+02
 51
2.00256203E+02
  0
LINE
  8
0
 62
4
 10
-1.69000019E+02
 20
-1.53500000E+02
 11
-1.69000019E+02
 21
-1.85500000E+02
  0
LINE
  8
0
 62
4
 10
-1.82000019E+02
 20
-1.53500000E+02
 11
-1.82000019E+02
 21
-1.85500000E+02
  0
LINE
  8
0
 62
4
 10
-1.82000019E+02
 20
-1.53500000E+02
 11
-1.69000019E+02
 21
-1.53500000E+02
  0
LINE
  8
0
 62
4
 10
-1.82000019E+02
 20
-1.85500000E+02
 11
-1.69000019E+02
 21
-1.85500000E+02
  0
ARC
  8
0
 62
4
 10
-1.73437447E+02
 20
-3.35779447E+02
 40
8.56342793E+00
 50
1.46410665E+02
 51
2.13589318E+02
  0
ARC
  8
0
 62
4
 10
-1.52945249E+02
 20
-3.49517057E+02
 40
2.90548000E+01
 50
1.61955287E+02
 51
1.79966364E+02
  0
ARC
  8
0
 62
4
 10
-1.77562652E+02
 20
-3.35779447E+02
 40
8.56342793E+00
 50
3.26410605E+02
 51
3.35892584E+01
  0
ARC
  8
0
 62
4
 10
-1.98054845E+02
 20
-3.49517057E+02
 40
2.90548000E+01
 50
3.36363131E-02
 51
1.80446768E+01
  0
LINE
  8
0
 62
4
 10
-1.80570987E+02
 20
-3.40517057E+02
 11
-1.70429111E+02
 21
-3.40517057E+02
  0
LINE
  8
0
 62
4
 10
-1.70429130E+02
 20
-3.31041881E+02
 11
-1.69000057E+02
 21
-3.33517069E+02
  0
LINE
  8
0
 62
4
 10
-1.82000066E+02
 20
-3.33517054E+02
 11
-1.80570983E+02
 21
-3.31041837E+02
  0
LINE
  8
0
 62
4
 10
-1.69000050E+02
 20
-3.33517053E+02
 11
-1.69000050E+02
 21
-3.49500000E+02
  0
LINE
  8
0
 62
4
 10
-1.82000049E+02
 20
-3.33517053E+02
 11
-1.82000049E+02
 21
-3.49500000E+02
  0
LINE
  8
0
 62
4
 10
-1.80570987E+02
 20
-3.31041833E+02
 11
-1.70429111E+02
 21
-3.31041833E+02
  0
LINE
  8
0
 62
7
 10
-1.69000019E+02
 20
-1.58499969E+02
 11
-1.56999958E+02
 21
-1.58499969E+02
  0
LINE
  8
0
 62
2
 10
-1.69000019E+02
 20
-1.59319977E+02
 11
-1.56999958E+02
 21
-1.59319977E+02
  0
LINE
  8
0
 62
7
 10
-1.69000019E+02
 20
-1.80500000E+02
 11
-1.56999958E+02
 21
-1.80500000E+02
  0
LINE
  8
0
 62
2
 10
-1.69000019E+02
 20
-1.79679977E+02
 11
-1.56999958E+02
 21
-1.79679977E+02
  0
LINE
  8
0
 62
7
 10
-1.69000050E+02
 20
-3.38499977E+02
 11
-1.57000019E+02
 21
-3.38499977E+02
  0
LINE
  8
0
 62
2
 10
-1.69000050E+02
 20
-3.39319992E+02
 11
-1.57000019E+02
 21
-3.39319992E+02
  0
LINE
  8
0
 62
7
 10
-8.29999886E+01
 20
-1.44716215E+02
 11
-8.29999886E+01
 21
-2.16500000E+02
  0
LINE
  8
0
  6
CENTER
 62
2
 10
-9.09999886E+01
 20
-1.34499969E+02
 11
-1.22495625E+02
 21
-1.34499969E+02
  0
LINE
  8
0
 62
2
 10
-6.36129201E+01
 20
-2.25916764E+02
 11
1.20906627E+00
 21
-1.13641790E+02
  0
LINE
  8
0
 62
2
 10
-3.61530967E+01
 20
-3.57488877E+02
 11
7.09035756E-01
 21
-2.93641790E+02
  0
LINE
  8
0
 62
7
 10
2.70920231E+02
 20
-3.19000015E+02
 11
3.28499859E+02
 21
-3.19000015E+02
  0
LINE
  8
0
 62
7
 10
2.76116383E+02
 20
-3.10000015E+02
 11
3.28499859E+02
 21
-3.10000015E+02
  0
LINE
  8
0
 62
7
 10
2.78425807E+02
 20
-3.05999977E+02
 11
3.08999859E+02
 21
-3.05999977E+02
  0
LINE
  8
0
  6
CENTER
 62
2
 10
4.69414562E+02
 20
-3.49500000E+02
 11
2.53311057E+02
 21
-3.49500000E+02
  0
LINE
  8
0
  6
CENTER
 62
2
 10
2.73518325E+02
 20
-3.14499985E+02
 11
3.95050457E+02
 21
-3.14499985E+02
  0
LINE
  8
0
 62
2
 10
4.40999889E+02
 20
-3.39319992E+02
 11
4.28999859E+02
 21
-3.39319992E+02
  0
LINE
  8
0
 62
7
 10
4.40999889E+02
 20
-3.38499977E+02
 11
4.28999859E+02
 21
-3.38499977E+02
  0
LINE
  8
0
 62
4
 10
4.52570827E+02
 20
-3.31041833E+02
 11
4.42428951E+02
 21
-3.31041833E+02
  0
LINE
  8
0
 62
4
 10
4.53999889E+02
 20
-3.33517053E+02
 11
4.53999889E+02
 21
-3.49500000E+02
  0
LINE
  8
0
 62
4
 10
4.40999889E+02
 20
-3.33517053E+02
 11
4.40999889E+02
 21
-3.49500000E+02
  0
LINE
  8
0
 62
4
 10
4.53999906E+02
 20
-3.33517054E+02
 11
4.52570822E+02
 21
-3.31041837E+02
  0
LINE
  8
0
 62
4
 10
4.42428969E+02
 20
-3.31041881E+02
 11
4.40999897E+02
 21
-3.33517069E+02
  0
LINE
  8
0
 62
4
 10
4.52570827E+02
 20
-3.40517057E+02
 11
4.42428951E+02
 21
-3.40517057E+02
  0
ARC
  8
0
 62
4
 10
4.70054684E+02
 20
-3.49517057E+02
 40
2.90548000E+01
 50
1.61955323E+02
 51
1.79966364E+02
  0
ARC
  8
0
 62
4
 10
4.49562492E+02
 20
-3.35779447E+02
 40
8.56342793E+00
 50
1.46410742E+02
 51
2.13589395E+02
  0
ARC
  8
0
 62
4
 10
4.24945089E+02
 20
-3.49517057E+02
 40
2.90548000E+01
 50
3.36363131E-02
 51
1.80447127E+01
  0
ARC
  8
0
 62
4
 10
4.45437287E+02
 20
-3.35779447E+02
 40
8.56342793E+00
 50
3.26410682E+02
 51
3.35893354E+01
  0
ARC
  8
0
 62
7
 10
4.26499889E+02
 20
-3.49500015E+02
 40
1.25000010E+01
 50
1.47140312E+02
 51
1.79999930E+02
  0
ARC
  8
0
 62
7
 10
3.92499889E+02
 20
-3.27999992E+02
 40
5.00000000E-01
 50
3.59999981E+02
 51
8.99999704E+01
  0
ARC
  8
0
 62
7
 10
4.06499889E+02
 20
-3.28971741E+02
 40
5.00000000E-01
 50
3.59999981E+02
 51
8.79991892E+01
  0
ARC
  8
0
 62
7
 10
3.90499920E+02
 20
-3.03619720E+02
 40
5.00000000E-01
 50
3.59999981E+02
 51
8.89996755E+01
  0
ARC
  8
0
 62
7
 10
4.11499889E+02
 20
-3.30500023E+02
 40
5.00000000E-01
 50
3.59999981E+02
 51
8.99999704E+01
  0
LINE
  8
0
  6
CENTER
 62
2
 10
3.70999828E+02
 20
-3.15199944E+02
 11
3.70999828E+02
 21
-3.00047340E+02
  0
LINE
  8
0
 62
7
 10
4.28999859E+02
 20
-3.39319992E+02
 11
4.25999859E+02
 21
-3.39319992E+02
  0
LINE
  8
0
 62
2
 10
4.20999865E+02
 20
-3.49500000E+02
 11
4.24660405E+02
 21
-3.44534620E+02
  0
LINE
  8
0
 62
2
 10
4.15999888E+02
 20
-3.42717706E+02
 11
4.20999879E+02
 21
-3.49500000E+02
  0
LINE
  8
0
 62
7
 10
4.25999867E+02
 20
-3.38499958E+02
 11
4.22999868E+02
 21
-3.36999936E+02
  0
LINE
  8
0
 62
7
 10
4.25999848E+02
 20
-3.46000139E+02
 11
4.22999850E+02
 21
-3.42717724E+02
  0
LINE
  8
0
 62
7
 10
4.22999859E+02
 20
-3.42717720E+02
 11
4.15999889E+02
 21
-3.42717720E+02
  0
LINE
  8
0
 62
7
 10
4.15999889E+02
 20
-3.49500000E+02
 11
4.15999889E+02
 21
-3.42717720E+02
  0
LINE
  8
0
 62
7
 10
4.22999889E+02
 20
-3.36999954E+02
 11
4.11999889E+02
 21
-3.36999954E+02
  0
LINE
  8
0
 62
2
 10
4.65319927E+02
 20
-3.39319992E+02
 11
4.53999889E+02
 21
-3.39319992E+02
  0
LINE
  8
0
 62
7
 10
4.64499920E+02
 20
-3.38499977E+02
 11
4.53999889E+02
 21
-3.38499977E+02
  0
LINE
  8
0
 62
7
 10
4.65999931E+02
 20
-3.40000009E+02
 11
4.64499918E+02
 21
-3.38499996E+02
  0
LINE
  8
0
 62
7
 10
4.64499859E+02
 20
-3.38499977E+02
 11
4.64499859E+02
 21
-3.49500000E+02
  0
LINE
  8
0
 62
7
 10
4.28999859E+02
 20
-3.38499977E+02
 11
4.28999859E+02
 21
-3.49500000E+02
  0
LINE
  8
0
 62
7
 10
4.65999859E+02
 20
-3.39999954E+02
 11
4.65999859E+02
 21
-3.49500000E+02
  0
LINE
  8
0
 62
7
 10
4.25999859E+02
 20
-3.49500000E+02
 11
4.25999859E+02
 21
-3.38499977E+02
  0
LINE
  8
0
 62
7
 10
4.22999859E+02
 20
-3.42717720E+02
 11
4.22999859E+02
 21
-3.37000000E+02
  0
LINE
  8
0
 62
7
 10
4.11999859E+02
 20
-3.49500000E+02
 11
4.11999859E+02
 21
-3.30500008E+02
  0
LINE
  8
0
 62
7
 10
4.11499889E+02
 20
-3.29999992E+02
 11
4.06999920E+02
 21
-3.29999992E+02
  0
LINE
  8
0
 62
7
 10
3.90999920E+02
 20
-3.49500000E+02
 11
3.90999920E+02
 21
-3.03619720E+02
  0
LINE
  8
0
 62
7
 10
3.54999889E+02
 20
-3.49500000E+02
 11
3.54999889E+02
 21
-3.02500053E+02
  0
LINE
  8
0
 62
7
 10
3.86999920E+02
 20
-3.02499992E+02
 11
3.54999920E+02
 21
-3.02499992E+02
  0
LINE
  8
0
 62
7
 10
3.90508627E+02
 20
-3.03119866E+02
 11
3.54999906E+02
 21
-3.02500059E+02
  0
LINE
  8
0
 62
7
 10
3.86999859E+02
 20
-3.03058556E+02
 11
3.86999859E+02
 21
-3.02500008E+02
  0
LINE
  8
0
 62
7
 10
3.92499950E+02
 20
-3.27500015E+02
 11
3.90999950E+02
 21
-3.27500015E+02
  0
LINE
  8
0
 62
7
 10
4.06999859E+02
 20
-3.49500000E+02
 11
4.06999859E+02
 21
-3.28971741E+02
  0
LINE
  8
0
 62
7
 10
4.06517334E+02
 20
-3.28472129E+02
 11
3.92999938E+02
 21
-3.28000092E+02
  0
LINE
  8
0
 62
7
 10
3.92999889E+02
 20
-3.49500000E+02
 11
3.92999889E+02
 21
-3.28000023E+02
  0
LINE
  8
0
 62
2
 10
2.49962266E+02
 20
-3.55300276E+02
 11
2.85537315E+02
 21
-2.93682484E+02
  0
TEXT
  8
0
 10
-8.62146873E+01
 20
3.54316712E+02
 40
9.00000000E+00
  1
STRETCH LINE A
 41
1.09375000E+00
  7
MONOTXT
  0
LINE
  8
0
 62
7
 10
5.74500000E+02
 20
4.00500000E+02
 11
5.74500000E+02
 21
-4.00500000E+02
  0
LINE
  8
0
 62
7
 10
-5.64500000E+02
 20
4.00500000E+02
 11
5.74500000E+02
 21
4.00500000E+02
  0
LINE
  8
0
 62
7
 10
-5.64500000E+02
 20
-4.00500000E+02
 11
5.74500000E+02
 21
-4.00500000E+02
  0
LINE
  8
0
 62
7
 10
-5.64500000E+02
 20
4.00500000E+02
 11
-5.64500000E+02
 21
-4.00500000E+02
  0
LINE
  8
0
 62
7
 10
-5.64500000E+02
 20
3.70500000E+02
 11
-3.34500000E+02
 21
3.70500000E+02
  0
LINE
  8
0
 62
7
 10
3.44500000E+02
 20
3.70500000E+02
 11
5.74500000E+02
 21
3.70500000E+02
  0
LINE
  8
0
 62
7
 10
3.44500000E+02
 20
-3.70500000E+02
 11
5.74500000E+02
 21
-3.70500000E+02
  0
LINE
  8
0
 62
7
 10
3.44500000E+02
 20
-3.70500000E+02
 11
3.44500000E+02
 21
-4.00500000E+02
  0
LINE
  8
0
 62
7
 10
3.44500000E+02
 20
4.00500000E+02
 11
3.44500000E+02
 21
3.70500000E+02
  0
LINE
  8
0
 62
7
 10
-3.34500000E+02
 20
4.00500000E+02
 11
-3.34500000E+02
 21
3.70500000E+02
  0
TEXT
  8
0
 62
7
 10
-5.37179687E+02
 20
3.34250000E+02
 40
1.25000000E+01
  1
MODEL:DDAP80*75
 41
1.00000015E+00
  7
MONOTXT
  0
TEXT
  8
0
 62
7
 10
4.11285149E+02
 20
3.79250000E+02
 40
1.25000000E+01
  1
Ver. 1.0
 41
1.08108125E+00
  7
MONOTXT
  0
TEXT
  8
0
 62
7
 10
3.50070624E+02
 20
-3.94500000E+02
 40
1.80000000E+01
  1
KOGANEI CORP.
 41
1.04838710E+00
  7
MONOTXT
  0
TEXT
  8
0
 62
7
 10
-5.53964859E+02
 20
3.79250000E+02
 40
1.25000000E+01
  1
NEW DYNA CYLINDER
 41
1.07594953E+00
  7
MONOTXT
  0
ENDSEC
  0
EOF
