  0
SECTION
  2
HEADER
  9
$ACADVER
  1
AC1003
  9
$EXTMIN
 10
-2.81250000E+02
 20
-1.95000000E+02
  9
$EXTMAX
 10
2.82099854E+02
 20
1.95500000E+02
  9
$LIMMIN
 10
-2.81251000E+02
 20
-1.95001000E+02
  9
$LIMMAX
 10
2.82100854E+02
 20
1.95501000E+02
  9
$SNAPUNIT
 10
1
 20
1
  9
$SNAPBASE
 10
0
 20
0
  9
$GRIDMODE
 70
0
  9
$GRIDUNIT
 10
0
 20
0
  9
$LTSCALE
 40
9.38916423E+00
  9
$TEXTSIZE
 40
3.2
  9
$DIMTAD
 70
0
  9
$LUNITS
 70
2
  9
$LUPREC
 70
4
  9
$FILLETRAD
 40
0
  9
$AUNITS
 70
0
  9
$AUPREC
 70
0
  0
ENDSEC
  0
SECTION
  2
TABLES
  0
TABLE
  2
LTYPE
 70
2
  0
LTYPE
  2
CONTINUOUS
 70
64
  3
Solid-Line
 72
65
 73
0
 40
0
  0
LTYPE
  2
DASHED
 70
64
  3
DASHED
 72
65
 73
2
 40
.75
 49
.5
 49
-.25
  0
LTYPE
  2
HIDDEN
 70
64
  3
HIDDEN
 72
65
 73
2
 40
.375
 49
.25
 49
-.125
  0
LTYPE
  2
CENTER
 70
64
  3
CENTER
 72
65
 73
4
 40
2
 49
1.25
 49
-.25
 49
.25
 49
-.25
  0
LTYPE
  2
PHANTOM
 70
64
  3
PHANTOM
 72
65
 73
6
 40
2.5
 49
1.25
 49
-.25
 49
.25
 49
-.25
 49
.25
 49
-.25
  0
ENDTAB
  0
TABLE
  2
LAYER
 70
1
  0
LAYER
  2
1
 70
0
 62
7
  6
CONTINUOUS
 0
ENDTAB
  0
TABLE
  2
STYLE
 70
2
  0
STYLE
  2
MONOTXT
 70
0
 40
0
 41
1
 50
0
 71
0
 42
.2
  3
monotxt
  0
STYLE
  2
BIGFONT
 70
0
 40
0
 41
1
 50
0
 71
0
 42
.2
  3
txt
  4
bigfont
  0
ENDTAB
  0
ENDSEC
  0
SECTION
  2
ENTITIES
  0
ARC
  8
0
 62
4
 10
9.29689282E+01
 20
-1.02336092E+02
 40
5.00000000E+00
 50
2.70000018E+02
 51
0.00000000E+00
  0
ARC
  8
0
 62
4
 10
9.29689282E+01
 20
-1.02336092E+02
 40
1.00000000E+00
 50
2.70000018E+02
 51
0.00000000E+00
  0
LINE
  8
0
 62
4
 10
9.79689282E+01
 20
-1.02336092E+02
 11
9.79689282E+01
 21
-5.93361074E+01
  0
LINE
  8
0
  6
CENTER
 62
6
 10
1.00214663E+02
 20
-7.93360921E+01
 11
9.13532446E+01
 21
-7.93360921E+01
  0
LINE
  8
0
 62
4
 10
5.19689291E+01
 20
-1.07336092E+02
 11
9.29689282E+01
 21
-1.07336092E+02
  0
LINE
  8
0
 62
4
 10
9.39689282E+01
 20
-5.93361074E+01
 11
9.79689282E+01
 21
-5.93361074E+01
  0
LINE
  8
0
 62
4
 10
7.29688960E+01
 20
-1.03336100E+02
 11
9.39689230E+01
 21
-9.23360861E+01
  0
LINE
  8
0
  6
CENTER
 62
6
 10
6.79689291E+01
 20
-9.95398427E+01
 11
6.79689291E+01
 21
-1.11271441E+02
  0
LINE
  8
0
 62
4
 10
5.19689291E+01
 20
-1.03336092E+02
 11
5.19689291E+01
 21
-1.07336092E+02
  0
LINE
  8
0
 62
4
 10
9.39689282E+01
 20
-5.93361074E+01
 11
9.39689282E+01
 21
-1.02336092E+02
  0
LINE
  8
0
 62
4
 10
5.19689291E+01
 20
-1.03336092E+02
 11
9.29689282E+01
 21
-1.03336092E+02
  0
CIRCLE
  8
0
 62
4
 10
-7.01818124E+01
 20
-7.93360921E+01
 40
4.84999990E+00
  0
CIRCLE
  8
0
 62
4
 10
-1.54181797E+02
 20
-7.93360921E+01
 40
4.84999990E+00
  0
ARC
  8
0
 62
4
 10
-1.25894001E+02
 20
-9.43360921E+01
 40
2.00000000E+00
 50
8.99999818E+01
 51
1.55556137E+02
  0
ARC
  8
0
 62
4
 10
-9.84696237E+01
 20
-9.43360921E+01
 40
2.00000000E+00
 50
2.44438264E+01
 51
8.99999818E+01
  0
ARC
  8
0
 62
4
 10
-6.53811533E+01
 20
-7.69768087E+01
 40
8.00000000E+00
 50
4.99991704E+00
 51
7.49999233E+01
  0
ARC
  8
0
 62
4
 10
-1.58982456E+02
 20
-7.69768087E+01
 40
8.00000000E+00
 50
1.05000040E+02
 51
1.75000047E+02
  0
ARC
  8
0
 62
4
 10
-1.12181690E+02
 20
-3.73360311E+01
 40
2.50000172E+01
 50
2.41642616E+02
 51
2.98357290E+02
  0
LINE
  8
0
  6
CENTER
 62
6
 10
-1.12181812E+02
 20
-5.47504598E+01
 11
-1.12181812E+02
 21
-1.10482332E+02
  0
LINE
  8
0
 62
4
 10
-6.33105553E+01
 20
-6.92494118E+01
 11
-1.00307477E+02
 21
-5.93361164E+01
  0
LINE
  8
0
 62
4
 10
-1.25894001E+02
 20
-9.23360921E+01
 11
-9.84696237E+01
 21
-9.23360921E+01
  0
LINE
  8
0
  6
CENTER
 62
6
 10
-1.54181797E+02
 20
-7.14587880E+01
 11
-1.54181797E+02
 21
-1.10482332E+02
  0
LINE
  8
0
 62
4
 10
-9.21817694E+01
 20
-1.03336112E+02
 11
-9.66488662E+01
 21
-9.35084995E+01
  0
LINE
  8
0
 62
4
 10
-9.71818124E+01
 20
-9.38154622E+01
 11
-9.71818124E+01
 21
-1.03336092E+02
  0
LINE
  8
0
 62
4
 10
-1.32181791E+02
 20
-1.03336081E+02
 11
-1.27714700E+02
 21
-9.35084825E+01
  0
LINE
  8
0
 62
4
 10
-1.68181844E+02
 20
-1.03336020E+02
 11
-1.66952060E+02
 21
-7.62795267E+01
  0
LINE
  8
0
 62
4
 10
-5.61818520E+01
 20
-1.03336058E+02
 11
-5.74116378E+01
 21
-7.62795486E+01
  0
LINE
  8
0
 62
4
 10
-1.68181797E+02
 20
-1.07336092E+02
 11
-5.61818124E+01
 21
-1.07336092E+02
  0
LINE
  8
0
 62
4
 10
-1.61053002E+02
 20
-6.92494327E+01
 11
-1.24055933E+02
 21
-5.93360978E+01
  0
LINE
  8
0
  6
CENTER
 62
6
 10
-7.01818124E+01
 20
-7.18679448E+01
 11
-7.01818124E+01
 21
-1.10482332E+02
  0
LINE
  8
0
  6
CENTER
 62
6
 10
-1.61818272E+02
 20
-7.93360921E+01
 11
-1.47088627E+02
 21
-7.93360921E+01
  0
LINE
  8
0
 62
4
 10
-1.27181812E+02
 20
-9.38154622E+01
 11
-1.27181812E+02
 21
-1.03336092E+02
  0
LINE
  8
0
 62
4
 10
-1.68181797E+02
 20
-1.03336092E+02
 11
-5.61818124E+01
 21
-1.03336092E+02
  0
LINE
  8
0
  6
CENTER
 62
6
 10
-6.34160959E+01
 20
-7.93360921E+01
 11
-7.60999643E+01
 21
-7.93360921E+01
  0
LINE
  8
0
 62
4
 10
-5.61818124E+01
 20
-1.03336092E+02
 11
-5.61818124E+01
 21
-1.07336092E+02
  0
LINE
  8
0
 62
4
 10
-1.68181797E+02
 20
-1.03336092E+02
 11
-1.68181797E+02
 21
-1.07336092E+02
  0
ARC
  8
0
 62
4
 10
7.49688681E+01
 20
7.75802745E+01
 40
2.00000000E+00
 50
1.79999991E+02
 51
2.56607557E+02
  0
ARC
  8
0
 62
4
 10
7.49688681E+01
 20
1.04420729E+02
 40
2.00000000E+00
 50
1.03392487E+02
 51
1.80000046E+02
  0
ARC
  8
0
 62
4
 10
6.69689291E+01
 20
1.33000502E+02
 40
7.00000000E+00
 50
8.99999818E+01
 51
2.70000001E+02
  0
ARC
  8
0
 62
4
 10
6.89689291E+01
 20
4.90004710E+01
 40
7.00000000E+00
 50
2.70000005E+02
 51
8.99999681E+01
  0
ARC
  8
0
 62
4
 10
6.69689291E+01
 20
4.90004710E+01
 40
7.00000000E+00
 50
8.99999681E+01
 51
2.70000001E+02
  0
ARC
  8
0
 62
4
 10
6.89689291E+01
 20
1.33000502E+02
 40
7.00000000E+00
 50
2.70000005E+02
 51
8.99999681E+01
  0
ARC
  8
0
 62
4
 10
6.39689291E+01
 20
1.35000502E+02
 40
1.20000000E+01
 50
8.99999818E+01
 51
1.80000005E+02
  0
ARC
  8
0
 62
4
 10
6.39689291E+01
 20
4.70004710E+01
 40
1.20000000E+01
 50
1.80000022E+02
 51
2.70000005E+02
  0
LINE
  8
0
 62
4
 10
9.39689870E+01
 20
7.10003580E+01
 11
7.45057341E+01
 21
7.56344515E+01
  0
LINE
  8
0
 62
4
 10
9.39689282E+01
 20
1.06000440E+02
 11
7.50454672E+01
 21
1.06000440E+02
  0
LINE
  8
0
 62
4
 10
9.39689249E+01
 20
1.11000440E+02
 11
7.45056720E+01
 21
1.06366347E+02
  0
LINE
  8
0
 62
4
 10
7.29689291E+01
 20
1.04420729E+02
 11
7.29689291E+01
 21
7.75802745E+01
  0
LINE
  8
0
 62
4
 10
9.39689282E+01
 20
7.60004405E+01
 11
7.50454672E+01
 21
7.60004405E+01
  0
LINE
  8
0
  6
CENTER
 62
6
 10
4.52423361E+01
 20
9.10005015E+01
 11
1.02268748E+02
 21
9.10005015E+01
  0
LINE
  8
0
 62
4
 10
9.39689282E+01
 20
1.16000440E+02
 11
9.79689892E+01
 21
1.16000440E+02
  0
LINE
  8
0
 62
4
 10
9.39689282E+01
 20
6.60004100E+01
 11
9.79689892E+01
 21
6.60004100E+01
  0
LINE
  8
0
  6
CENTER
 62
6
 10
6.79689291E+01
 20
3.87947520E+01
 11
6.79689291E+01
 21
5.91903514E+01
  0
LINE
  8
0
 62
4
 10
6.89689291E+01
 20
4.20004405E+01
 11
6.69689291E+01
 21
4.20004405E+01
  0
LINE
  8
0
 62
4
 10
6.89689291E+01
 20
5.60004405E+01
 11
6.69689291E+01
 21
5.60004405E+01
  0
LINE
  8
0
  6
CENTER
 62
6
 10
1.00057360E+02
 20
4.90004405E+01
 11
5.64697226E+01
 21
4.90004405E+01
  0
LINE
  8
0
 62
4
 10
9.39689282E+01
 20
1.47000502E+02
 11
9.39689282E+01
 21
3.50004405E+01
  0
LINE
  8
0
 62
4
 10
5.19689291E+01
 20
1.35000502E+02
 11
5.19689291E+01
 21
4.70004710E+01
  0
LINE
  8
0
 62
4
 10
9.79689282E+01
 20
3.50004405E+01
 11
6.39689291E+01
 21
3.50004405E+01
  0
LINE
  8
0
 62
4
 10
9.79689282E+01
 20
1.47000440E+02
 11
6.39689291E+01
 21
1.47000440E+02
  0
LINE
  8
0
  6
CENTER
 62
6
 10
6.79689291E+01
 20
1.43206251E+02
 11
6.79689291E+01
 21
1.22810621E+02
  0
LINE
  8
0
 62
4
 10
6.89689291E+01
 20
1.40000440E+02
 11
6.69689291E+01
 21
1.40000440E+02
  0
LINE
  8
0
 62
4
 10
6.89689291E+01
 20
1.26000440E+02
 11
6.69689291E+01
 21
1.26000440E+02
  0
LINE
  8
0
  6
CENTER
 62
6
 10
9.98402737E+01
 20
1.33000440E+02
 11
5.64697226E+01
 21
1.33000440E+02
  0
LINE
  8
0
 62
4
 10
9.79689282E+01
 20
3.50004405E+01
 11
9.79689282E+01
 21
1.47000440E+02
  0
LINE
  8
0
 62
7
 10
2.82099854E+02
 20
1.95500000E+02
 11
2.82099854E+02
 21
-1.95000000E+02
  0
LINE
  8
0
 62
7
 10
-2.81250000E+02
 20
1.95500000E+02
 11
2.82099854E+02
 21
1.95500000E+02
  0
LINE
  8
0
 62
7
 10
-2.81250000E+02
 20
1.95500000E+02
 11
-2.81250000E+02
 21
-1.95000000E+02
  0
LINE
  8
0
 62
7
 10
-2.81250000E+02
 20
-1.95000000E+02
 11
2.82099854E+02
 21
-1.95000000E+02
  0
LINE
  8
0
 62
7
 10
1.62099976E+02
 20
-1.75000000E+02
 11
1.62099976E+02
 21
-1.95000000E+02
  0
LINE
  8
0
 62
7
 10
1.62099976E+02
 20
-1.75000000E+02
 11
2.82099854E+02
 21
-1.75000000E+02
  0
LINE
  8
0
 62
7
 10
1.62099976E+02
 20
1.75500000E+02
 11
2.82099854E+02
 21
1.75500000E+02
  0
LINE
  8
0
 62
7
 10
-2.81250000E+02
 20
1.75500000E+02
 11
-1.61250000E+02
 21
1.75500000E+02
  0
LINE
  8
0
 62
7
 10
1.62099976E+02
 20
1.95500000E+02
 11
1.62099976E+02
 21
1.75500000E+02
  0
LINE
  8
0
 62
7
 10
-1.61250000E+02
 20
1.95500000E+02
 11
-1.61250000E+02
 21
1.75500000E+02
  0
TEXT
  8
0
 62
7
 10
1.97799690E+02
 20
1.82350000E+02
 40
6.30000019E+00
  1
Ver. 1.0
 41
1.08108124E+00
  7
MONOTXT
  0
TEXT
  8
0
 62
7
 10
1.69885289E+02
 20
-1.89500000E+02
 40
9.00000000E+00
  1
KOGANEI CORP.
 41
1.04838710E+00
  7
MONOTXT
  0
TEXT
  8
0
 62
7
 10
-2.73900291E+02
 20
1.82350000E+02
 40
6.30000019E+00
  1
NEW DYNA CYLINDER
 41
1.07594953E+00
  7
MONOTXT
  0
TEXT
  8
0
 62
7
 10
-2.67600562E+02
 20
1.57350000E+02
 40
6.30000019E+00
  1
MODEL:DDAR100-1
 41
1.00000015E+00
  7
MONOTXT
  0
ENDSEC
  0
EOF
