  0
SECTION
  2
HEADER
  9
$ACADVER
  1
AC1003
  9
$EXTMIN
 10
-1.38399994E+02
 20
-9.48000031E+01
  9
$EXTMAX
 10
1.38350006E+02
 20
9.45000000E+01
  9
$LIMMIN
 10
-1.38400994E+02
 20
-9.48010031E+01
  9
$LIMMAX
 10
1.38351006E+02
 20
9.45010000E+01
  9
$SNAPUNIT
 10
1
 20
1
  9
$SNAPBASE
 10
0
 20
0
  9
$GRIDMODE
 70
0
  9
$GRIDUNIT
 10
0
 20
0
  9
$LTSCALE
 40
4.61250000E+00
  9
$TEXTSIZE
 40
3.2
  9
$DIMTAD
 70
0
  9
$LUNITS
 70
2
  9
$LUPREC
 70
4
  9
$FILLETRAD
 40
0
  9
$AUNITS
 70
0
  9
$AUPREC
 70
0
  0
ENDSEC
  0
SECTION
  2
TABLES
  0
TABLE
  2
LTYPE
 70
2
  0
LTYPE
  2
CONTINUOUS
 70
64
  3
Solid-Line
 72
65
 73
0
 40
0
  0
LTYPE
  2
DASHED
 70
64
  3
DASHED
 72
65
 73
2
 40
.75
 49
.5
 49
-.25
  0
LTYPE
  2
HIDDEN
 70
64
  3
HIDDEN
 72
65
 73
2
 40
.375
 49
.25
 49
-.125
  0
LTYPE
  2
CENTER
 70
64
  3
CENTER
 72
65
 73
4
 40
2
 49
1.25
 49
-.25
 49
.25
 49
-.25
  0
LTYPE
  2
PHANTOM
 70
64
  3
PHANTOM
 72
65
 73
6
 40
2.5
 49
1.25
 49
-.25
 49
.25
 49
-.25
 49
.25
 49
-.25
  0
ENDTAB
  0
TABLE
  2
LAYER
 70
1
  0
LAYER
  2
1
 70
0
 62
7
  6
CONTINUOUS
 0
ENDTAB
  0
TABLE
  2
STYLE
 70
2
  0
STYLE
  2
MONOTXT
 70
0
 40
0
 41
1
 50
0
 71
0
 42
.2
  3
monotxt
  0
STYLE
  2
BIGFONT
 70
0
 40
0
 41
1
 50
0
 71
0
 42
.2
  3
txt
  4
bigfont
  0
ENDTAB
  0
ENDSEC
  0
SECTION
  2
ENTITIES
  0
LINE
  8
0
 62
4
 10
4.86680806E+01
 20
-4.94935438E+01
 11
4.86680806E+01
 21
-2.77435247E+01
  0
LINE
  8
0
  6
CENTER
 62
6
 10
5.00761312E+01
 20
-3.72435323E+01
 11
4.40134137E+01
 21
-3.72435323E+01
  0
LINE
  8
0
 62
4
 10
3.46680788E+01
 20
-5.07935535E+01
 11
4.54680686E+01
 21
-4.59935562E+01
  0
LINE
  8
0
  6
CENTER
 62
6
 10
2.51680806E+01
 20
-4.76521589E+01
 11
2.51680806E+01
 21
-5.65547925E+01
  0
LINE
  8
0
 62
4
 10
4.54680684E+01
 20
-2.77435247E+01
 11
4.86680806E+01
 21
-2.77435247E+01
  0
LINE
  8
0
 62
4
 10
1.26680845E+01
 20
-5.07935468E+01
 11
1.26680845E+01
 21
-5.39935438E+01
  0
LINE
  8
0
 62
4
 10
4.54680684E+01
 20
-2.77435247E+01
 11
4.54680684E+01
 21
-4.97935468E+01
  0
LINE
  8
0
 62
4
 10
1.26680845E+01
 20
-5.39935438E+01
 11
4.41680806E+01
 21
-5.39935438E+01
  0
LINE
  8
0
 62
4
 10
1.26680845E+01
 20
-5.07935468E+01
 11
4.44680684E+01
 21
-5.07935468E+01
  0
ARC
  8
0
 62
4
 10
4.44680684E+01
 20
-4.97935468E+01
 40
1.00000000E+00
 50
2.70000018E+02
 51
0.00000000E+00
  0
ARC
  8
0
 62
4
 10
4.41680806E+01
 20
-4.94935438E+01
 40
4.50000000E+00
 50
2.70000018E+02
 51
0.00000000E+00
  0
LINE
  8
0
  6
CENTER
 62
6
 10
-7.68319995E+01
 20
-4.30211431E+01
 11
-7.68319995E+01
 21
-3.24085027E+01
  0
LINE
  8
0
  6
CENTER
 62
6
 10
-8.24988543E+01
 20
-3.72435323E+01
 11
-7.17604205E+01
 21
-3.72435323E+01
  0
LINE
  8
0
 62
4
 10
-6.33319537E+01
 20
-4.59935361E+01
 11
-5.33318774E+01
 21
-4.59935361E+01
  0
LINE
  8
0
  6
CENTER
 62
6
 10
-5.83319232E+01
 20
-2.79298955E+01
 11
-5.83319232E+01
 21
-5.54642469E+01
  0
LINE
  8
0
  6
CENTER
 62
6
 10
-3.98319690E+01
 20
-4.42284452E+01
 11
-3.98319690E+01
 21
-3.18803808E+01
  0
LINE
  8
0
  6
CENTER
 62
6
 10
-4.58825824E+01
 20
-3.72435323E+01
 11
-3.49681155E+01
 21
-3.72435323E+01
  0
LINE
  8
0
 62
4
 10
-8.68319690E+01
 20
-5.39934980E+01
 11
-2.98319613E+01
 21
-5.39934980E+01
  0
LINE
  8
0
 62
4
 10
-8.68319690E+01
 20
-5.07935010E+01
 11
-2.98319613E+01
 21
-5.07935010E+01
  0
LINE
  8
0
 62
4
 10
-8.68319690E+01
 20
-5.07935010E+01
 11
-8.68319690E+01
 21
-5.39934980E+01
  0
LINE
  8
0
 62
4
 10
-2.98319613E+01
 20
-5.07935010E+01
 11
-2.98319613E+01
 21
-5.39934980E+01
  0
LINE
  8
0
  6
CENTER
 62
6
 10
-4.03319690E+01
 20
-4.77355329E+01
 11
-4.03319690E+01
 21
-5.71397230E+01
  0
LINE
  8
0
  6
CENTER
 62
6
 10
-7.63319690E+01
 20
-4.76051313E+01
 11
-7.63319690E+01
 21
-5.71397230E+01
  0
LINE
  8
0
 62
4
 10
-7.99452593E+01
 20
-2.92219551E+01
 11
-7.15606850E+01
 21
-2.77435284E+01
  0
LINE
  8
0
 62
4
 10
-3.67186729E+01
 20
-2.92219602E+01
 11
-4.51031591E+01
 21
-2.77435491E+01
  0
LINE
  8
0
 62
4
 10
-6.43319690E+01
 20
-4.71745283E+01
 11
-6.43319690E+01
 21
-5.07935010E+01
  0
LINE
  8
0
 62
4
 10
-5.23319690E+01
 20
-4.71745283E+01
 11
-5.23319690E+01
 21
-5.07935010E+01
  0
LINE
  8
0
 62
4
 10
-6.63319989E+01
 20
-5.07934785E+01
 11
-6.47166163E+01
 21
-4.69165580E+01
  0
LINE
  8
0
 62
4
 10
-5.19473818E+01
 20
-4.69165706E+01
 11
-5.03319933E+01
 21
-5.07935052E+01
  0
LINE
  8
0
 62
4
 10
-8.68319721E+01
 20
-5.07935008E+01
 11
-8.48603713E+01
 21
-3.44137675E+01
  0
LINE
  8
0
 62
4
 10
-2.98319606E+01
 20
-5.07935014E+01
 11
-3.18035609E+01
 21
-3.44137726E+01
  0
ARC
  8
0
 62
4
 10
-5.83319232E+01
 20
-1.87435399E+01
 40
1.60000000E+01
 50
2.14228791E+02
 51
3.25771115E+02
  0
ARC
  8
0
 62
4
 10
-6.33319690E+01
 20
-4.74934980E+01
 40
1.50000000E+00
 50
8.99999818E+01
 51
1.57380249E+02
  0
ARC
  8
0
 62
4
 10
-5.33319690E+01
 20
-4.74934980E+01
 40
1.50000000E+00
 50
2.26200446E+01
 51
8.99999818E+01
  0
CIRCLE
  8
0
 62
4
 10
-7.68319995E+01
 20
-3.72435323E+01
 40
2.75000000E+00
  0
CIRCLE
  8
0
 62
4
 10
-3.98319690E+01
 20
-3.72435323E+01
 40
2.75000000E+00
  0
ARC
  8
0
 62
4
 10
-3.77605620E+01
 20
-3.51308067E+01
 40
6.00000000E+00
 50
6.86357545E+00
 51
7.99999999E+01
  0
ARC
  8
0
 62
4
 10
-7.89033702E+01
 20
-3.51308017E+01
 40
6.00000000E+00
 50
1.00000000E+02
 51
1.73136424E+02
  0
LINE
  8
0
  6
CENTER
 62
6
 10
5.21358617E+01
 20
5.40064601E+01
 11
5.33342869E+00
 21
5.40064601E+01
  0
LINE
  8
0
 62
4
 10
4.86680806E+01
 20
2.55064601E+01
 11
4.86680806E+01
 21
8.25064601E+01
  0
LINE
  8
0
 62
4
 10
2.61680806E+01
 20
4.15064601E+01
 11
2.41680845E+01
 21
4.15064601E+01
  0
LINE
  8
0
  6
CENTER
 62
6
 10
2.51680806E+01
 20
8.09295558E+01
 11
2.51680806E+01
 21
6.35554713E+01
  0
LINE
  8
0
 62
4
 10
2.61680806E+01
 20
3.05064601E+01
 11
2.41680845E+01
 21
3.05064601E+01
  0
LINE
  8
0
  6
CENTER
 62
6
 10
3.44462941E+01
 20
7.20064601E+01
 11
1.62792905E+01
 21
7.20064601E+01
  0
LINE
  8
0
 62
4
 10
4.86680806E+01
 20
2.55064601E+01
 11
2.06680845E+01
 21
2.55064601E+01
  0
LINE
  8
0
  6
CENTER
 62
6
 10
3.49361242E+01
 20
3.60064601E+01
 11
1.62792905E+01
 21
3.60064601E+01
  0
LINE
  8
0
 62
4
 10
4.54680684E+01
 20
2.55064601E+01
 11
4.54680684E+01
 21
8.25064601E+01
  0
LINE
  8
0
  6
CENTER
 62
6
 10
2.51680806E+01
 20
2.70833644E+01
 11
2.51680806E+01
 21
4.44574488E+01
  0
LINE
  8
0
 62
4
 10
1.26680845E+01
 20
3.35064601E+01
 11
1.26680845E+01
 21
7.45064601E+01
  0
LINE
  8
0
 62
4
 10
2.61680806E+01
 20
7.75064601E+01
 11
2.41680845E+01
 21
7.75064601E+01
  0
LINE
  8
0
 62
4
 10
2.61680806E+01
 20
6.65064601E+01
 11
2.41680845E+01
 21
6.65064601E+01
  0
LINE
  8
0
 62
4
 10
4.86680806E+01
 20
8.25064601E+01
 11
2.06680845E+01
 21
8.25064601E+01
  0
LINE
  8
0
 62
4
 10
4.54680684E+01
 20
4.80064601E+01
 11
3.64693502E+01
 21
4.80064601E+01
  0
LINE
  8
0
 62
4
 10
4.54680684E+01
 20
6.00064601E+01
 11
3.64693502E+01
 21
6.00064601E+01
  0
LINE
  8
0
 62
4
 10
3.46680806E+01
 20
4.92542018E+01
 11
3.46680806E+01
 21
5.87587184E+01
  0
LINE
  8
0
 62
4
 10
4.54680967E+01
 20
4.60064479E+01
 11
3.58949641E+01
 21
4.77792497E+01
  0
LINE
  8
0
 62
4
 10
3.58949161E+01
 20
6.02336238E+01
 11
4.54680524E+01
 21
6.20064263E+01
  0
LINE
  8
0
 62
4
 10
4.54680684E+01
 20
3.80065211E+01
 11
4.86679586E+01
 21
3.80065211E+01
  0
LINE
  8
0
 62
4
 10
4.54680684E+01
 20
7.00065516E+01
 11
4.86679586E+01
 21
7.00065516E+01
  0
LINE
  8
0
  6
CENTER
 62
6
 10
4.37530721E+01
 20
7.25065363E+01
 11
5.03657850E+01
 21
7.25065363E+01
  0
LINE
  8
0
  6
CENTER
 62
6
 10
4.36306165E+01
 20
3.55065058E+01
 11
5.03657850E+01
 21
3.55065058E+01
  0
ARC
  8
0
 62
4
 10
2.61680806E+01
 20
3.60064601E+01
 40
5.50000000E+00
 50
2.70000025E+02
 51
8.99999956E+01
  0
ARC
  8
0
 62
4
 10
2.41680845E+01
 20
3.60064601E+01
 40
5.50000000E+00
 50
8.99999956E+01
 51
2.70000028E+02
  0
ARC
  8
0
 62
4
 10
2.06680845E+01
 20
3.35064601E+01
 40
8.00000000E+00
 50
1.79999977E+02
 51
2.70000028E+02
  0
ARC
  8
0
 62
4
 10
2.61680806E+01
 20
7.20064601E+01
 40
5.50000000E+00
 50
2.70000025E+02
 51
8.99999956E+01
  0
ARC
  8
0
 62
4
 10
2.41680845E+01
 20
7.20064601E+01
 40
5.50000000E+00
 50
8.99999956E+01
 51
2.70000028E+02
  0
ARC
  8
0
 62
4
 10
2.06680845E+01
 20
7.45064601E+01
 40
8.00000000E+00
 50
8.99999956E+01
 51
1.80000032E+02
  0
ARC
  8
0
 62
4
 10
3.61680806E+01
 20
4.92542018E+01
 40
1.50000000E+00
 50
1.79999977E+02
 51
2.59508639E+02
  0
ARC
  8
0
 62
4
 10
3.61680806E+01
 20
5.87587184E+01
 40
1.50000000E+00
 50
1.00491371E+02
 51
1.79999977E+02
  0
LINE
  8
0
 62
7
 10
-1.38399994E+02
 20
9.45000000E+01
 11
1.38350006E+02
 21
9.45000000E+01
  0
LINE
  8
0
 62
7
 10
1.38350006E+02
 20
9.45000000E+01
 11
1.38350006E+02
 21
-9.48000031E+01
  0
LINE
  8
0
 62
7
 10
-1.38399994E+02
 20
-9.48000031E+01
 11
1.38350006E+02
 21
-9.48000031E+01
  0
LINE
  8
0
 62
7
 10
-1.38399994E+02
 20
9.45000000E+01
 11
-1.38399994E+02
 21
-9.48000031E+01
  0
LINE
  8
0
 62
7
 10
7.33500061E+01
 20
-8.48000031E+01
 11
1.38350006E+02
 21
-8.48000031E+01
  0
LINE
  8
0
 62
7
 10
-1.38399994E+02
 20
8.45000000E+01
 11
-7.33999939E+01
 21
8.45000000E+01
  0
LINE
  8
0
 62
7
 10
7.33500061E+01
 20
8.45000000E+01
 11
1.38350006E+02
 21
8.45000000E+01
  0
LINE
  8
0
 62
7
 10
7.33500061E+01
 20
-8.48000031E+01
 11
7.33500061E+01
 21
-9.48000031E+01
  0
LINE
  8
0
 62
7
 10
7.33500061E+01
 20
9.45000000E+01
 11
7.33500061E+01
 21
8.45000000E+01
  0
LINE
  8
0
 62
7
 10
-7.33999939E+01
 20
9.45000000E+01
 11
-7.33999939E+01
 21
8.45000000E+01
  0
TEXT
  8
0
 62
7
 10
7.72426624E+01
 20
-9.20500031E+01
 40
4.50000000E+00
  1
KOGANEI CORP.
 41
1.04838710E+00
  7
MONOTXT
  0
TEXT
  8
0
 62
7
 10
9.35071493E+01
 20
8.79000001E+01
 40
3.19999981E+00
  1
Ver. 1.0
 41
1.08108108E+00
  7
MONOTXT
  0
TEXT
  8
0
 62
7
 10
-1.32642850E+02
 20
8.79000001E+01
 40
3.19999981E+00
  1
NEW DYNA CYLINDER
 41
1.07594937E+00
  7
MONOTXT
  0
TEXT
  8
0
 62
7
 10
-1.29085994E+02
 20
7.29000001E+01
 40
3.19999981E+00
  1
MODEL:DDAR40-1
 41
1.00000000E+00
  7
MONOTXT
  0
ENDSEC
  0
EOF
