  0
SECTION
  2
HEADER
  9
$ACADVER
  1
AC1003
  9
$EXTMIN
 10
-1.94250000E+02
 20
-1.33500000E+02
  9
$EXTMAX
 10
1.94800003E+02
 20
1.32600006E+02
  9
$LIMMIN
 10
-1.94251000E+02
 20
-1.33501000E+02
  9
$LIMMAX
 10
1.94801003E+02
 20
1.32601006E+02
  9
$SNAPUNIT
 10
1
 20
1
  9
$SNAPBASE
 10
0
 20
0
  9
$GRIDMODE
 70
0
  9
$GRIDUNIT
 10
0
 20
0
  9
$LTSCALE
 40
6.48416672E+00
  9
$TEXTSIZE
 40
3.2
  9
$DIMTAD
 70
0
  9
$LUNITS
 70
2
  9
$LUPREC
 70
4
  9
$FILLETRAD
 40
0
  9
$AUNITS
 70
0
  9
$AUPREC
 70
0
  0
ENDSEC
  0
SECTION
  2
TABLES
  0
TABLE
  2
LTYPE
 70
2
  0
LTYPE
  2
CONTINUOUS
 70
64
  3
Solid-Line
 72
65
 73
0
 40
0
  0
LTYPE
  2
DASHED
 70
64
  3
DASHED
 72
65
 73
2
 40
.75
 49
.5
 49
-.25
  0
LTYPE
  2
HIDDEN
 70
64
  3
HIDDEN
 72
65
 73
2
 40
.375
 49
.25
 49
-.125
  0
LTYPE
  2
CENTER
 70
64
  3
CENTER
 72
65
 73
4
 40
2
 49
1.25
 49
-.25
 49
.25
 49
-.25
  0
LTYPE
  2
PHANTOM
 70
64
  3
PHANTOM
 72
65
 73
6
 40
2.5
 49
1.25
 49
-.25
 49
.25
 49
-.25
 49
.25
 49
-.25
  0
ENDTAB
  0
TABLE
  2
LAYER
 70
1
  0
LAYER
  2
1
 70
0
 62
7
  6
CONTINUOUS
 0
ENDTAB
  0
TABLE
  2
STYLE
 70
2
  0
STYLE
  2
MONOTXT
 70
0
 40
0
 41
1
 50
0
 71
0
 42
.2
  3
monotxt
  0
STYLE
  2
BIGFONT
 70
0
 40
0
 41
1
 50
0
 71
0
 42
.2
  3
txt
  4
bigfont
  0
ENDTAB
  0
ENDSEC
  0
SECTION
  2
ENTITIES
  0
POLYLINE
  8
0
 62
4
 66
1
  0
VERTEX
  8
0
 62
4
 10
5.70386046E+01
 20
-5.46677077E+01
  0
VERTEX
  8
0
 62
4
 10
5.68901423E+01
 20
-5.47540512E+01
  0
VERTEX
  8
0
 62
4
 10
5.67423793E+01
 20
-5.48646815E+01
  0
VERTEX
  8
0
 62
4
 10
5.65965944E+01
 20
-5.49986412E+01
  0
VERTEX
  8
0
 62
4
 10
5.64540491E+01
 20
-5.51547711E+01
  0
VERTEX
  8
0
 62
4
 10
5.63159770E+01
 20
-5.53317201E+01
  0
VERTEX
  8
0
 62
4
 10
5.61835728E+01
 20
-5.55279569E+01
  0
VERTEX
  8
0
 62
4
 10
5.60579824E+01
 20
-5.57417834E+01
  0
VERTEX
  8
0
 62
4
 10
5.59402927E+01
 20
-5.59713493E+01
  0
VERTEX
  8
0
 62
4
 10
5.58315219E+01
 20
-5.62146678E+01
  0
VERTEX
  8
0
 62
4
 10
5.57326114E+01
 20
-5.64696335E+01
  0
VERTEX
  8
0
 62
4
 10
5.56444171E+01
 20
-5.67340399E+01
  0
VERTEX
  8
0
 62
4
 10
5.55677022E+01
 20
-5.70055991E+01
  0
VERTEX
  8
0
 62
4
 10
5.55031307E+01
 20
-5.72819609E+01
  0
VERTEX
  8
0
 62
4
 10
5.54512611E+01
 20
-5.75607340E+01
  0
SEQEND
  8
0
  0
ARC
  8
0
 62
4
 10
4.60387731E+01
 20
-6.45605940E+01
 40
1.00000000E+00
 50
8.99999818E+01
 51
1.79999964E+02
  0
ARC
  8
0
 62
4
 10
8.15387715E+01
 20
-6.25605940E+01
 40
1.00000000E+00
 50
1.79999977E+02
 51
2.40000062E+02
  0
ARC
  8
0
 62
4
 10
5.25387712E+01
 20
-6.25605940E+01
 40
1.00000000E+00
 50
2.70000018E+02
 51
3.60000000E+02
  0
ARC
  8
0
 62
4
 10
5.78387896E+01
 20
-6.25605940E+01
 40
1.00000000E+00
 50
2.70000018E+02
 51
3.60000000E+02
  0
ARC
  8
0
 62
4
 10
4.70387731E+01
 20
-5.75605940E+01
 40
3.00000024E+00
 50
8.99999818E+01
 51
1.79999964E+02
  0
LINE
  8
0
 62
4
 10
5.70387712E+01
 20
-6.25605940E+01
 11
5.70387712E+01
 21
-5.45605940E+01
  0
LINE
  8
0
 62
4
 10
5.13387896E+01
 20
-6.45605940E+01
 11
5.13387896E+01
 21
-7.65605634E+01
  0
LINE
  8
0
 62
4
 10
5.46388165E+01
 20
-6.25606176E+01
 11
5.54513252E+01
 21
-5.75605759E+01
  0
LINE
  8
0
 62
4
 10
4.50387731E+01
 20
-6.45605940E+01
 11
4.50387731E+01
 21
-7.65605634E+01
  0
LINE
  8
0
 62
4
 10
4.70387731E+01
 20
-5.45605940E+01
 11
5.70387712E+01
 21
-5.45605940E+01
  0
LINE
  8
0
 62
4
 10
4.60387731E+01
 20
-6.35605940E+01
 11
5.78387896E+01
 21
-6.35605940E+01
  0
LINE
  8
0
 62
4
 10
5.35387712E+01
 20
-6.25605940E+01
 11
8.05387715E+01
 21
-6.25605940E+01
  0
LINE
  8
0
 62
4
 10
8.10387715E+01
 20
-6.34266218E+01
 11
8.10387715E+01
 21
-7.65605634E+01
  0
LINE
  8
0
  6
CENTER
 62
6
 10
6.70387712E+01
 20
-6.00616621E+01
 11
6.70387712E+01
 21
-7.89807752E+01
  0
LINE
  8
0
 62
4
 10
4.40387731E+01
 20
-5.75605940E+01
 11
4.40387731E+01
 21
-7.65605634E+01
  0
LINE
  8
0
 62
4
 10
4.40387731E+01
 20
-7.65605634E+01
 11
8.10387715E+01
 21
-7.65605634E+01
  0
LINE
  8
0
  6
CENTER
 62
6
 10
5.90256182E+01
 20
-6.40605940E+01
 11
4.19073683E+01
 21
-6.40605940E+01
  0
ARC
  8
0
 62
4
 10
-6.12784304E+01
 20
-6.15605787E+01
 40
2.00000000E+00
 50
1.86963100E+02
 51
2.69999998E+02
  0
ARC
  8
0
 62
4
 10
-1.18644229E+02
 20
-6.15605787E+01
 40
2.00000000E+00
 50
2.69999998E+02
 51
3.53036899E+02
  0
CIRCLE
  8
0
 62
4
 10
-7.14613222E+01
 20
-6.40605787E+01
 40
2.75000000E+00
  0
CIRCLE
  8
0
 62
4
 10
-1.08461353E+02
 20
-6.40605787E+01
 40
2.75000000E+00
  0
ARC
  8
0
 62
4
 10
-1.02662128E+02
 20
-6.40130323E+01
 40
3.00000024E+00
 50
9.99991605E+00
 51
4.49999500E+01
  0
ARC
  8
0
 62
4
 10
-1.08700366E+02
 20
-5.65605787E+01
 40
2.00000000E+00
 50
4.49997861E+01
 51
8.99999818E+01
  0
ARC
  8
0
 62
4
 10
-1.13122821E+02
 20
-5.75605787E+01
 40
3.00000024E+00
 50
8.99999818E+01
 51
1.69999993E+02
  0
ARC
  8
0
 62
4
 10
-1.32961322E+02
 20
-6.65605787E+01
 40
3.00000024E+00
 50
8.99999818E+01
 51
1.79999964E+02
  0
CIRCLE
  8
0
 62
4
 10
-1.08461322E+02
 20
-6.40605787E+01
 40
5.50000000E+00
  0
CIRCLE
  8
0
 62
4
 10
-7.14613528E+01
 20
-6.40605787E+01
 40
5.50000000E+00
  0
ARC
  8
0
 62
4
 10
-7.72605471E+01
 20
-6.40130323E+01
 40
3.00000024E+00
 50
1.35000014E+02
 51
1.70000048E+02
  0
ARC
  8
0
 62
4
 10
-7.12223086E+01
 20
-5.65605787E+01
 40
2.00000000E+00
 50
8.99999818E+01
 51
1.35000178E+02
  0
ARC
  8
0
 62
4
 10
-6.67998537E+01
 20
-5.75605787E+01
 40
3.00000024E+00
 50
9.99996985E+00
 51
8.99999818E+01
  0
ARC
  8
0
 62
4
 10
-4.70113405E+01
 20
-6.65605787E+01
 40
3.00000024E+00
 50
0.00000000E+00
 51
8.99999818E+01
  0
LINE
  8
0
 62
4
 10
-9.94612661E+01
 20
-6.48896709E+01
 11
-8.04612966E+01
 21
-6.48890116E+01
  0
LINE
  8
0
  6
CENTER
 62
6
 10
-1.24961353E+02
 20
-5.98653730E+01
 11
-1.24961353E+02
 21
-7.94019331E+01
  0
LINE
  8
0
 62
4
 10
-1.00540765E+02
 20
-6.18917420E+01
 11
-1.07286117E+02
 21
-5.51463906E+01
  0
LINE
  8
0
 62
4
 10
-9.84613437E+01
 20
-7.65605369E+01
 11
-9.97077074E+01
 21
-6.34920742E+01
  0
LINE
  8
0
 62
4
 10
-1.16077219E+02
 20
-5.70396272E+01
 11
-1.18461329E+02
 21
-7.65605696E+01
  0
LINE
  8
0
 62
4
 10
-1.18644229E+02
 20
-6.35605787E+01
 11
-1.32961322E+02
 21
-6.35605787E+01
  0
LINE
  8
0
 62
4
 10
-1.35961353E+02
 20
-6.25605787E+01
 11
-1.35961353E+02
 21
-7.65605634E+01
  0
LINE
  8
0
 62
4
 10
-1.08700366E+02
 20
-5.45605787E+01
 11
-1.13122821E+02
 21
-5.45605787E+01
  0
LINE
  8
0
 62
4
 10
-1.16912174E+02
 20
-6.25605787E+01
 11
-1.35961353E+02
 21
-6.25605787E+01
  0
LINE
  8
0
  6
CENTER
 62
6
 10
-5.49613528E+01
 20
-5.98653730E+01
 11
-5.49613528E+01
 21
-7.94019331E+01
  0
LINE
  8
0
 62
4
 10
-7.93819240E+01
 20
-6.18917166E+01
 11
-7.26365639E+01
 21
-5.51463571E+01
  0
LINE
  8
0
 62
4
 10
-8.14613475E+01
 20
-7.65605634E+01
 11
-8.02149832E+01
 21
-6.34920968E+01
  0
LINE
  8
0
 62
4
 10
-6.38454253E+01
 20
-5.70396223E+01
 11
-6.14613158E+01
 21
-7.65605590E+01
  0
LINE
  8
0
 62
4
 10
-1.35961353E+02
 20
-7.65605634E+01
 11
-4.40113405E+01
 21
-7.65605634E+01
  0
LINE
  8
0
 62
4
 10
-6.30104708E+01
 20
-6.25605787E+01
 11
-4.40113405E+01
 21
-6.25605787E+01
  0
LINE
  8
0
 62
4
 10
-7.12223086E+01
 20
-5.45605787E+01
 11
-6.67998537E+01
 21
-5.45605787E+01
  0
LINE
  8
0
  6
CENTER
 62
6
 10
-7.78426394E+01
 20
-6.40605787E+01
 11
-6.51398043E+01
 21
-6.40605787E+01
  0
LINE
  8
0
 62
4
 10
-1.07961292E+02
 20
-5.45606245E+01
 11
-1.07961292E+02
 21
-5.44712232E+01
  0
LINE
  8
0
  6
CENTER
 62
6
 10
-7.14613222E+01
 20
-7.33581632E+01
 11
-7.14613222E+01
 21
-5.76564954E+01
  0
LINE
  8
0
  6
CENTER
 62
6
 10
-8.99612917E+01
 20
-6.12375349E+01
 11
-8.99612917E+01
 21
-8.08618253E+01
  0
LINE
  8
0
 62
4
 10
-4.40113405E+01
 20
-6.25605787E+01
 11
-4.40113405E+01
 21
-7.65605634E+01
  0
LINE
  8
0
 62
4
 10
-6.12784304E+01
 20
-6.35605787E+01
 11
-4.70113405E+01
 21
-6.35605787E+01
  0
LINE
  8
0
 62
4
 10
-9.85494875E+01
 20
-7.60605634E+01
 11
-8.13731570E+01
 21
-7.60605634E+01
  0
LINE
  8
0
  6
CENTER
 62
6
 10
-1.14914859E+02
 20
-6.40605787E+01
 11
-1.02093860E+02
 21
-6.40605787E+01
  0
LINE
  8
0
  6
CENTER
 62
6
 10
-1.08461353E+02
 20
-7.35401739E+01
 11
-1.08461353E+02
 21
-5.73165296E+01
  0
ARC
  8
0
 62
4
 10
7.70387712E+01
 20
9.04393984E+01
 40
4.00000000E+00
 50
2.98955027E+02
 51
1.00000612E+01
  0
ARC
  8
0
 62
4
 10
7.31123796E+01
 20
1.01189398E+02
 40
6.00000048E+00
 50
9.99995192E+00
 51
8.99999956E+01
  0
ARC
  8
0
 62
4
 10
5.55185076E+01
 20
1.01189398E+02
 40
6.00000048E+00
 50
8.99999956E+01
 51
1.59999981E+02
  0
ARC
  8
0
 62
4
 10
6.70387712E+01
 20
9.64393984E+01
 40
1.35000000E+01
 50
3.15275050E+02
 51
3.51551130E+02
  0
ARC
  8
0
 62
4
 10
6.70387712E+01
 20
9.64393984E+01
 40
1.35000000E+01
 50
1.27222149E+02
 51
2.13748994E+02
  0
CIRCLE
  8
0
 62
4
 10
6.70387712E+01
 20
9.64393984E+01
 40
6.00000048E+00
  0
ARC
  8
0
 62
4
 10
4.28485228E+01
 20
9.26931826E+01
 40
3.00000024E+00
 50
2.93374790E+02
 51
3.39999941E+02
  0
ARC
  8
0
 62
4
 10
7.70387712E+01
 20
3.24394289E+01
 40
4.00000000E+00
 50
3.49999983E+02
 51
6.10449592E+01
  0
ARC
  8
0
 62
4
 10
7.31123796E+01
 20
2.16894289E+01
 40
6.00000048E+00
 50
2.70000038E+02
 51
3.50000076E+02
  0
ARC
  8
0
 62
4
 10
5.55185076E+01
 20
2.16894289E+01
 40
6.00000048E+00
 50
2.00000046E+02
 51
2.70000038E+02
  0
ARC
  8
0
 62
4
 10
6.70387712E+01
 20
2.64394289E+01
 40
1.35000000E+01
 50
8.44889793E+00
 51
4.47249222E+01
  0
ARC
  8
0
 62
4
 10
6.70387712E+01
 20
2.64394289E+01
 40
1.35000000E+01
 50
1.46251016E+02
 51
2.32777874E+02
  0
ARC
  8
0
 62
4
 10
6.70387712E+01
 20
2.64394289E+01
 40
1.45000010E+01
 50
1.33602830E+02
 51
1.48852607E+02
  0
CIRCLE
  8
0
 62
4
 10
6.70387712E+01
 20
2.64394289E+01
 40
6.00000048E+00
  0
ARC
  8
0
 62
4
 10
4.32086912E+01
 20
9.07590700E+01
 40
2.00000000E+00
 50
2.94520349E+02
 51
3.40000104E+02
  0
ARC
  8
0
 62
4
 10
4.35387083E+01
 20
6.87029177E+01
 40
2.00000000E+00
 50
2.23117997E-05
 51
7.55224946E+01
  0
ARC
  8
0
 62
4
 10
4.35387083E+01
 20
6.80029360E+01
 40
2.00000000E+00
 50
2.23117997E-05
 51
7.55224946E+01
  0
ARC
  8
0
 62
4
 10
4.35387083E+01
 20
5.48759218E+01
 40
2.00000000E+00
 50
2.84477540E+02
 51
2.23117997E-05
  0
ARC
  8
0
 62
4
 10
4.35387083E+01
 20
5.41759096E+01
 40
2.00000000E+00
 50
2.84477540E+02
 51
2.23117997E-05
  0
ARC
  8
0
 62
4
 10
4.32086912E+01
 20
3.21197878E+01
 40
2.00000000E+00
 50
1.99999363E+01
 51
6.54796846E+01
  0
ARC
  8
0
 62
4
 10
4.28485228E+01
 20
3.01856447E+01
 40
3.00000024E+00
 50
2.00000865E+01
 51
6.66252444E+01
  0
ARC
  8
0
 62
4
 10
6.70387712E+01
 20
9.64393984E+01
 40
1.45000010E+01
 50
2.11147393E+02
 51
2.26397197E+02
  0
ARC
  8
0
 62
4
 10
5.75387712E+01
 20
3.64394289E+01
 40
5.00000000E-01
 50
1.79999977E+02
 51
2.70000028E+02
  0
ARC
  8
0
 62
4
 10
5.75387712E+01
 20
8.64393984E+01
 40
5.00000000E-01
 50
8.99999956E+01
 51
1.79999977E+02
  0
LINE
  8
0
  6
CENTER
 62
6
 10
6.70387712E+01
 20
8.65436770E+01
 11
6.70387712E+01
 21
1.09313910E+02
  0
LINE
  8
0
 62
4
 10
4.50880808E+01
 20
9.00749898E+01
 11
4.98803080E+01
 21
1.03241526E+02
  0
LINE
  8
0
 62
4
 10
8.09779656E+01
 20
9.11340225E+01
 11
7.90212122E+01
 21
1.02231322E+02
  0
LINE
  8
0
 62
4
 10
7.31123796E+01
 20
1.07189429E+02
 11
5.55185076E+01
 21
1.07189429E+02
  0
LINE
  8
0
 62
4
 10
4.55387083E+01
 20
5.41759096E+01
 11
4.55387083E+01
 21
6.87029177E+01
  0
LINE
  8
0
 62
4
 10
4.40387693E+01
 20
6.99394289E+01
 11
4.40387693E+01
 21
8.99393984E+01
  0
LINE
  8
0
 62
4
 10
7.89752336E+01
 20
3.59394289E+01
 11
5.75387712E+01
 21
3.59394289E+01
  0
LINE
  8
0
 62
4
 10
7.89752336E+01
 20
8.69393984E+01
 11
5.75387712E+01
 21
8.69393984E+01
  0
LINE
  8
0
 62
4
 10
7.31123796E+01
 20
1.56894289E+01
 11
5.55185076E+01
 21
1.56894289E+01
  0
LINE
  8
0
 62
4
 10
4.40387058E+01
 20
7.06394376E+01
 11
5.15386896E+01
 21
7.09394400E+01
  0
LINE
  8
0
 62
4
 10
4.40387693E+01
 20
5.29394289E+01
 11
4.40387693E+01
 21
3.29394289E+01
  0
LINE
  8
0
  6
CENTER
 62
6
 10
6.70387712E+01
 20
3.74127566E+01
 11
6.70387712E+01
 21
1.35649477E+01
  0
LINE
  8
0
 62
4
 10
4.50880837E+01
 20
3.28037967E+01
 11
4.98803109E+01
 21
1.96372602E+01
  0
LINE
  8
0
 62
4
 10
4.40387211E+01
 20
5.22394272E+01
 11
5.15387658E+01
 21
5.19394224E+01
  0
LINE
  8
0
 62
4
 10
5.70387712E+01
 20
5.19394289E+01
 11
5.15387102E+01
 21
5.19394289E+01
  0
LINE
  8
0
 62
4
 10
5.58137957E+01
 20
3.39394289E+01
 11
4.40387693E+01
 21
3.39394289E+01
  0
LINE
  8
0
  6
CENTER
 62
6
 10
7.73532244E+01
 20
2.64394289E+01
 11
5.74148699E+01
 21
2.64394289E+01
  0
LINE
  8
0
 62
4
 10
5.58137957E+01
 20
8.89393984E+01
 11
4.40387693E+01
 21
8.89393984E+01
  0
LINE
  8
0
  6
CENTER
 62
6
 10
6.60615240E+01
 20
6.14394289E+01
 11
4.19250761E+01
 21
6.14394289E+01
  0
LINE
  8
0
  6
CENTER
 62
6
 10
6.17503897E+01
 20
7.99394594E+01
 11
4.19250761E+01
 21
7.99394594E+01
  0
LINE
  8
0
  6
CENTER
 62
6
 10
6.43370710E+01
 20
4.29394289E+01
 11
4.15980383E+01
 21
4.29394289E+01
  0
LINE
  8
0
 62
4
 10
5.70387712E+01
 20
3.64394289E+01
 11
5.70387712E+01
 21
8.64393984E+01
  0
LINE
  8
0
 62
4
 10
8.09779535E+01
 20
3.17448525E+01
 11
7.90212001E+01
 21
2.06475529E+01
  0
LINE
  8
0
 62
4
 10
5.70387712E+01
 20
7.09393984E+01
 11
5.15387102E+01
 21
7.09393984E+01
  0
LINE
  8
0
  6
CENTER
 62
6
 10
7.73532244E+01
 20
9.64393984E+01
 11
5.74148699E+01
 21
9.64393984E+01
  0
LINE
  8
0
 62
4
 10
5.15387712E+01
 20
5.28491884E+01
 11
5.15387712E+01
 21
7.00219485E+01
  0
TEXT
  8
0
 62
7
 10
-1.89357136E+02
 20
1.22850006E+02
 40
4.50000000E+00
  1
NEW DYNA CYLINDER
 41
1.07594914E+00
  7
MONOTXT
  0
TEXT
  8
0
 62
7
 10
-1.85214688E+02
 20
1.05350006E+02
 40
4.50000000E+00
  1
MODEL:DDAR40-2
 41
1.00000000E+00
  7
MONOTXT
  0
LINE
  8
0
 62
7
 10
-1.94250000E+02
 20
1.32600006E+02
 11
1.94800003E+02
 21
1.32600006E+02
  0
LINE
  8
0
 62
7
 10
1.94800003E+02
 20
1.32600006E+02
 11
1.94800003E+02
 21
-1.33500000E+02
  0
LINE
  8
0
 62
7
 10
-1.94250000E+02
 20
1.32600006E+02
 11
-1.94250000E+02
 21
-1.33500000E+02
  0
LINE
  8
0
 62
7
 10
-1.94250000E+02
 20
-1.33500000E+02
 11
1.94800003E+02
 21
-1.33500000E+02
  0
LINE
  8
0
 62
7
 10
1.09800003E+02
 20
-1.18500000E+02
 11
1.09800003E+02
 21
-1.33500000E+02
  0
LINE
  8
0
 62
7
 10
1.09800003E+02
 20
-1.18500000E+02
 11
1.94800003E+02
 21
-1.18500000E+02
  0
LINE
  8
0
 62
7
 10
1.09800003E+02
 20
1.32600006E+02
 11
1.09800003E+02
 21
1.17600006E+02
  0
LINE
  8
0
 62
7
 10
1.09800003E+02
 20
1.17600006E+02
 11
1.94800003E+02
 21
1.17600006E+02
  0
LINE
  8
0
 62
7
 10
-1.94250000E+02
 20
1.17600006E+02
 11
-1.09250000E+02
 21
1.17600006E+02
  0
LINE
  8
0
 62
7
 10
-1.09250000E+02
 20
1.32600006E+02
 11
-1.09250000E+02
 21
1.17600006E+02
  0
TEXT
  8
0
 62
7
 10
1.34942863E+02
 20
1.22850006E+02
 40
4.50000000E+00
  1
Ver. 1.0
 41
1.08108085E+00
  7
MONOTXT
  0
TEXT
  8
0
 62
7
 10
1.15249715E+02
 20
-1.29150000E+02
 40
6.30000019E+00
  1
KOGANEI CORP.
 41
1.04838725E+00
  7
MONOTXT
  0
ENDSEC
  0
EOF
