  0
SECTION
  2
HEADER
  9
$ACADVER
  1
AC1003
  9
$EXTMIN
 10
-5.64500000E+02
 20
-4.00500000E+02
  9
$EXTMAX
 10
5.74500000E+02
 20
4.00500000E+02
  9
$LIMMIN
 10
-5.64501000E+02
 20
-4.00501000E+02
  9
$LIMMAX
 10
5.74501000E+02
 20
4.00501000E+02
  9
$SNAPUNIT
 10
1
 20
1
  9
$SNAPBASE
 10
0
 20
0
  9
$GRIDMODE
 70
0
  9
$GRIDUNIT
 10
0
 20
0
  9
$LTSCALE
 40
1.89833333E+01
  9
$TEXTSIZE
 40
3.2
  9
$DIMTAD
 70
0
  9
$LUNITS
 70
2
  9
$LUPREC
 70
4
  9
$FILLETRAD
 40
0
  9
$AUNITS
 70
0
  9
$AUPREC
 70
0
  0
ENDSEC
  0
SECTION
  2
TABLES
  0
TABLE
  2
LTYPE
 70
2
  0
LTYPE
  2
CONTINUOUS
 70
64
  3
Solid-Line
 72
65
 73
0
 40
0
  0
LTYPE
  2
DASHED
 70
64
  3
DASHED
 72
65
 73
2
 40
.75
 49
.5
 49
-.25
  0
LTYPE
  2
HIDDEN
 70
64
  3
HIDDEN
 72
65
 73
2
 40
.375
 49
.25
 49
-.125
  0
LTYPE
  2
CENTER
 70
64
  3
CENTER
 72
65
 73
4
 40
2
 49
1.25
 49
-.25
 49
.25
 49
-.25
  0
LTYPE
  2
PHANTOM
 70
64
  3
PHANTOM
 72
65
 73
6
 40
2.5
 49
1.25
 49
-.25
 49
.25
 49
-.25
 49
.25
 49
-.25
  0
ENDTAB
  0
TABLE
  2
LAYER
 70
1
  0
LAYER
  2
1
 70
0
 62
7
  6
CONTINUOUS
 0
ENDTAB
  0
TABLE
  2
STYLE
 70
2
  0
STYLE
  2
MONOTXT
 70
0
 40
0
 41
1
 50
0
 71
0
 42
.2
  3
monotxt
  0
STYLE
  2
BIGFONT
 70
0
 40
0
 41
1
 50
0
 71
0
 42
.2
  3
txt
  4
bigfont
  0
ENDTAB
  0
ENDSEC
  0
SECTION
  2
BLOCKS
  0
BLOCK
  8
0
  2
PP1
 70
10
 10
0.0
 20
0.0
  0
LINE
  8
0
  6
DASHED
 62
7
 10
-1.96500027E+02
 20
2.89000000E+02
 11
-1.90499969E+02
 21
2.89000000E+02
  0
LINE
  8
0
  6
DASHED
 62
7
 10
-1.96500001E+02
 20
2.91000000E+02
 11
-1.90499969E+02
 21
2.91000000E+02
  0
LINE
  8
0
  6
DASHED
 62
7
 10
-1.95169909E+02
 20
2.93000000E+02
 11
-1.91830025E+02
 21
2.93000000E+02
  0
LINE
  8
0
  6
DASHED
 62
7
 10
-1.95169826E+02
 20
2.88000000E+02
 11
-1.91830145E+02
 21
2.88000000E+02
  0
LINE
  8
0
  6
DASHED
 62
7
 10
-1.96500014E+02
 20
2.90000000E+02
 11
-1.90499969E+02
 21
2.90000000E+02
  0
LINE
  8
0
  6
DASHED
 62
7
 10
-1.96499988E+02
 20
2.92000000E+02
 11
-1.90499969E+02
 21
2.92000000E+02
  0
LINE
  8
0
  6
DASHED
 62
7
 10
-1.93337380E+02
 20
2.87129834E+02
 11
-1.90499969E+02
 21
2.92044374E+02
  0
LINE
  8
0
  6
DASHED
 62
7
 10
-1.95150750E+02
 20
2.87988987E+02
 11
-1.92150735E+02
 21
2.93185164E+02
  0
LINE
  8
0
  6
DASHED
 62
7
 10
-1.96500019E+02
 20
2.89651984E+02
 11
-1.94265610E+02
 21
2.93522094E+02
  0
LINE
  8
0
  6
DASHED
 62
7
 10
-1.91605366E+02
 20
2.88129770E+02
 11
-1.90499969E+02
 21
2.90044374E+02
  0
LINE
  8
0
  6
DASHED
 62
7
 10
-1.94284719E+02
 20
2.87488996E+02
 11
-1.91284712E+02
 21
2.92685161E+02
  0
LINE
  8
0
  6
DASHED
 62
7
 10
-1.96016780E+02
 20
2.88488977E+02
 11
-1.93016759E+02
 21
2.93685167E+02
  0
LINE
  8
0
  6
DASHED
 62
7
 10
-1.96499992E+02
 20
2.91652029E+02
 11
-1.95997654E+02
 21
2.92522105E+02
  0
LINE
  8
0
  6
DASHED
 62
7
 10
-1.90499969E+02
 20
2.91955626E+02
 11
-1.90739392E+02
 21
2.92370318E+02
  0
LINE
  8
0
  6
DASHED
 62
7
 10
-1.90851717E+02
 20
2.88564871E+02
 11
-1.93851730E+02
 21
2.93761046E+02
  0
LINE
  8
0
  6
DASHED
 62
7
 10
-1.92583787E+02
 20
2.87564903E+02
 11
-1.95583784E+02
 21
2.92761051E+02
  0
LINE
  8
0
  6
DASHED
 62
7
 10
-1.95131674E+02
 20
2.87977974E+02
 11
-1.96500010E+02
 21
2.90348000E+02
  0
LINE
  8
0
  6
DASHED
 62
7
 10
-1.90499969E+02
 20
2.89955626E+02
 11
-1.92471450E+02
 21
2.93370330E+02
  0
LINE
  8
0
  6
DASHED
 62
7
 10
-1.91717752E+02
 20
2.88064887E+02
 11
-1.94717757E+02
 21
2.93261048E+02
  0
LINE
  8
0
  6
DASHED
 62
7
 10
-1.93449821E+02
 20
2.87064919E+02
 11
-1.96449811E+02
 21
2.92261054E+02
  0
ENDBLK
  8
0
  0
BLOCK
  8
0
  2
PP2
 70
10
 10
0.0
 20
0.0
  0
LINE
  8
0
  6
DASHED
 62
7
 10
-1.96500058E+02
 20
-1.61000000E+02
 11
-1.90500000E+02
 21
-1.61000000E+02
  0
LINE
  8
0
  6
DASHED
 62
7
 10
-1.96500032E+02
 20
-1.59000000E+02
 11
-1.90500000E+02
 21
-1.59000000E+02
  0
LINE
  8
0
  6
DASHED
 62
7
 10
-1.95169940E+02
 20
-1.57000000E+02
 11
-1.91830055E+02
 21
-1.57000000E+02
  0
LINE
  8
0
  6
DASHED
 62
7
 10
-1.95169856E+02
 20
-1.62000000E+02
 11
-1.91830175E+02
 21
-1.62000000E+02
  0
LINE
  8
0
  6
DASHED
 62
7
 10
-1.96500045E+02
 20
-1.60000000E+02
 11
-1.90500000E+02
 21
-1.60000000E+02
  0
LINE
  8
0
  6
DASHED
 62
7
 10
-1.96500018E+02
 20
-1.58000000E+02
 11
-1.90500000E+02
 21
-1.58000000E+02
  0
LINE
  8
0
  6
DASHED
 62
7
 10
-1.91605351E+02
 20
-1.61870203E+02
 11
-1.90500000E+02
 21
-1.59955679E+02
  0
LINE
  8
0
  6
DASHED
 62
7
 10
-1.94284726E+02
 20
-1.62511017E+02
 11
-1.91284719E+02
 21
-1.57314852E+02
  0
LINE
  8
0
  6
DASHED
 62
7
 10
-1.96016788E+02
 20
-1.61511036E+02
 11
-1.93016767E+02
 21
-1.56314846E+02
  0
LINE
  8
0
  6
DASHED
 62
7
 10
-1.96500023E+02
 20
-1.58348023E+02
 11
-1.95997639E+02
 21
-1.57477869E+02
  0
LINE
  8
0
  6
DASHED
 62
7
 10
-1.93337365E+02
 20
-1.62870139E+02
 11
-1.90500000E+02
 21
-1.57955679E+02
  0
LINE
  8
0
  6
DASHED
 62
7
 10
-1.95150757E+02
 20
-1.62011027E+02
 11
-1.92150743E+02
 21
-1.56814849E+02
  0
LINE
  8
0
  6
DASHED
 62
7
 10
-1.96500049E+02
 20
-1.60348069E+02
 11
-1.94265595E+02
 21
-1.56477880E+02
  0
LINE
  8
0
  6
DASHED
 62
7
 10
-1.90500000E+02
 20
-1.60044321E+02
 11
-1.92471434E+02
 21
-1.56629697E+02
  0
LINE
  8
0
  6
DASHED
 62
7
 10
-1.91717760E+02
 20
-1.61935100E+02
 11
-1.94717765E+02
 21
-1.56738939E+02
  0
LINE
  8
0
  6
DASHED
 62
7
 10
-1.93449829E+02
 20
-1.62935068E+02
 11
-1.96449819E+02
 21
-1.57738933E+02
  0
LINE
  8
0
  6
DASHED
 62
7
 10
-1.90500000E+02
 20
-1.58044321E+02
 11
-1.90739377E+02
 21
-1.57629709E+02
  0
LINE
  8
0
  6
DASHED
 62
7
 10
-1.90851725E+02
 20
-1.61435116E+02
 11
-1.93851738E+02
 21
-1.56238941E+02
  0
LINE
  8
0
  6
DASHED
 62
7
 10
-1.92583794E+02
 20
-1.62435084E+02
 11
-1.95583792E+02
 21
-1.57238936E+02
  0
LINE
  8
0
  6
DASHED
 62
7
 10
-1.95131659E+02
 20
-1.62022053E+02
 11
-1.96500040E+02
 21
-1.59651947E+02
  0
ENDBLK
  8
0
  0
ENDSEC
  0
SECTION
  2
ENTITIES
  0
LINE
  8
0
  6
PHANTOM
 10
5.50000000E+00
 20
1.88293036E+02
 11
5.50000000E+00
 21
2.93151313E+01
  0
LINE
  8
0
 62
7
 10
1.99999695E+01
 20
1.16350006E+02
 11
-4.95000305E+01
 21
1.16350006E+02
  0
LINE
  8
0
 62
7
 10
1.99999695E+01
 20
1.21649994E+02
 11
-4.95000000E+01
 21
1.21649994E+02
  0
LINE
  8
0
 62
7
 10
1.99999695E+01
 20
1.22499985E+02
 11
-4.95000305E+01
 21
1.22499985E+02
  0
LINE
  8
0
 62
4
 10
-9.00003052E+00
 20
1.22499985E+02
 11
-9.00003052E+00
 21
1.24489851E+02
  0
LINE
  8
0
 62
4
 10
-3.90000305E+01
 20
1.39006438E+02
 11
-3.90000305E+01
 21
1.28306763E+02
  0
LINE
  8
0
 62
4
 10
-1.55000305E+01
 20
1.28306763E+02
 11
-1.55000305E+01
 21
1.24234321E+02
  0
LINE
  8
0
  6
CENTER
 62
6
 10
2.59999695E+01
 20
1.14830160E+02
 11
2.09999695E+01
 21
1.14830160E+02
  0
LINE
  8
0
  6
CENTER
 62
6
 10
2.34999695E+01
 20
1.17330160E+02
 11
2.34999695E+01
 21
1.12330160E+02
  0
LINE
  8
0
  6
CENTER
 62
6
 10
3.14999695E+01
 20
1.17330160E+02
 11
3.14999695E+01
 21
1.12330160E+02
  0
LINE
  8
0
  6
CENTER
 62
6
 10
3.39999695E+01
 20
1.14830160E+02
 11
2.89999695E+01
 21
1.14830160E+02
  0
LINE
  8
0
 62
4
 10
3.49999695E+01
 20
1.37217862E+02
 11
3.49999695E+01
 21
1.09651401E+02
  0
LINE
  8
0
 62
4
 10
1.99999695E+01
 20
1.39006438E+02
 11
1.99999695E+01
 21
1.09651401E+02
  0
LINE
  8
0
 62
4
 10
4.99999695E+01
 20
1.39006438E+02
 11
4.99999695E+01
 21
1.21391478E+02
  0
LINE
  8
0
  6
CENTER
 62
6
 10
4.24999695E+01
 20
1.36360824E+02
 11
4.24999695E+01
 21
1.29211630E+02
  0
LINE
  8
0
  6
CENTER
 62
6
 10
4.60745664E+01
 20
1.32786227E+02
 11
3.89253726E+01
 21
1.32786227E+02
  0
LINE
  8
0
 62
4
 10
1.99999695E+01
 20
1.39006438E+02
 11
4.99999695E+01
 21
1.39006438E+02
  0
LINE
  8
0
 62
4
 10
1.99999695E+01
 20
1.37217862E+02
 11
4.99999695E+01
 21
1.37217862E+02
  0
LINE
  8
0
 62
4
 10
1.99999695E+01
 20
1.36002324E+02
 11
3.49999695E+01
 21
1.36002324E+02
  0
LINE
  8
0
 62
4
 10
2.11615335E+01
 20
1.20027550E+02
 11
3.37407167E+01
 21
1.20027550E+02
  0
LINE
  8
0
 62
4
 10
1.99999695E+01
 20
1.09651401E+02
 11
3.49999695E+01
 21
1.09651401E+02
  0
LINE
  8
0
 62
4
 10
3.49999695E+01
 20
1.21391478E+02
 11
4.99999695E+01
 21
1.21391478E+02
  0
LINE
  8
0
 62
4
 10
3.49999695E+01
 20
1.28846996E+02
 11
4.99999695E+01
 21
1.28846996E+02
  0
LINE
  8
0
 62
4
 10
3.49999695E+01
 20
1.28777536E+02
 11
4.99999695E+01
 21
1.28777536E+02
  0
POLYLINE
  8
0
 62
4
 66
1
  0
VERTEX
  8
0
 62
4
 10
4.02499695E+01
 20
1.32786227E+02
  0
VERTEX
  8
0
 62
4
 10
4.02585314E+01
 20
1.32593106E+02
  0
VERTEX
  8
0
 62
4
 10
4.02841521E+01
 20
1.32401454E+02
  0
VERTEX
  8
0
 62
4
 10
4.03266364E+01
 20
1.32212731E+02
  0
VERTEX
  8
0
 62
4
 10
4.03856611E+01
 20
1.32028373E+02
  0
VERTEX
  8
0
 62
4
 10
4.04607770E+01
 20
1.31849782E+02
  0
VERTEX
  8
0
 62
4
 10
4.05514123E+01
 20
1.31678318E+02
  0
VERTEX
  8
0
 62
4
 10
4.06568774E+01
 20
1.31515286E+02
  0
VERTEX
  8
0
 62
4
 10
4.07763695E+01
 20
1.31361927E+02
  0
VERTEX
  8
0
 62
4
 10
4.09089792E+01
 20
1.31219407E+02
  0
VERTEX
  8
0
 62
4
 10
4.10536974E+01
 20
1.31088812E+02
  0
VERTEX
  8
0
 62
4
 10
4.12094225E+01
 20
1.30971136E+02
  0
VERTEX
  8
0
 62
4
 10
4.13749695E+01
 20
1.30867273E+02
  0
VERTEX
  8
0
 62
4
 10
4.15490784E+01
 20
1.30778014E+02
  0
VERTEX
  8
0
 62
4
 10
4.17304242E+01
 20
1.30704040E+02
  0
VERTEX
  8
0
 62
4
 10
4.19176266E+01
 20
1.30645912E+02
  0
VERTEX
  8
0
 62
4
 10
4.21092611E+01
 20
1.30604073E+02
  0
VERTEX
  8
0
 62
4
 10
4.23038691E+01
 20
1.30578841E+02
  0
VERTEX
  8
0
 62
4
 10
4.24999695E+01
 20
1.30570410E+02
  0
VERTEX
  8
0
 62
4
 10
4.26960699E+01
 20
1.30578841E+02
  0
VERTEX
  8
0
 62
4
 10
4.28906779E+01
 20
1.30604073E+02
  0
VERTEX
  8
0
 62
4
 10
4.30823123E+01
 20
1.30645912E+02
  0
VERTEX
  8
0
 62
4
 10
4.32695148E+01
 20
1.30704040E+02
  0
VERTEX
  8
0
 62
4
 10
4.34508606E+01
 20
1.30778014E+02
  0
VERTEX
  8
0
 62
4
 10
4.36249695E+01
 20
1.30867273E+02
  0
VERTEX
  8
0
 62
4
 10
4.37905165E+01
 20
1.30971136E+02
  0
VERTEX
  8
0
 62
4
 10
4.39462416E+01
 20
1.31088812E+02
  0
VERTEX
  8
0
 62
4
 10
4.40909598E+01
 20
1.31219407E+02
  0
VERTEX
  8
0
 62
4
 10
4.42235695E+01
 20
1.31361927E+02
  0
VERTEX
  8
0
 62
4
 10
4.43430616E+01
 20
1.31515286E+02
  0
VERTEX
  8
0
 62
4
 10
4.44485267E+01
 20
1.31678318E+02
  0
VERTEX
  8
0
 62
4
 10
4.45391620E+01
 20
1.31849782E+02
  0
VERTEX
  8
0
 62
4
 10
4.46142779E+01
 20
1.32028373E+02
  0
VERTEX
  8
0
 62
4
 10
4.46733026E+01
 20
1.32212731E+02
  0
VERTEX
  8
0
 62
4
 10
4.47157869E+01
 20
1.32401454E+02
  0
VERTEX
  8
0
 62
4
 10
4.47414076E+01
 20
1.32593106E+02
  0
VERTEX
  8
0
 62
4
 10
4.47499695E+01
 20
1.32786227E+02
  0
VERTEX
  8
0
 62
4
 10
4.47414076E+01
 20
1.32979348E+02
  0
VERTEX
  8
0
 62
4
 10
4.47157869E+01
 20
1.33171000E+02
  0
VERTEX
  8
0
 62
4
 10
4.46733026E+01
 20
1.33359723E+02
  0
VERTEX
  8
0
 62
4
 10
4.46142779E+01
 20
1.33544081E+02
  0
VERTEX
  8
0
 62
4
 10
4.45391620E+01
 20
1.33722672E+02
  0
VERTEX
  8
0
 62
4
 10
4.44485267E+01
 20
1.33894136E+02
  0
VERTEX
  8
0
 62
4
 10
4.43430616E+01
 20
1.34057168E+02
  0
VERTEX
  8
0
 62
4
 10
4.42235695E+01
 20
1.34210527E+02
  0
VERTEX
  8
0
 62
4
 10
4.40909598E+01
 20
1.34353047E+02
  0
VERTEX
  8
0
 62
4
 10
4.39462416E+01
 20
1.34483642E+02
  0
VERTEX
  8
0
 62
4
 10
4.37905165E+01
 20
1.34601318E+02
  0
VERTEX
  8
0
 62
4
 10
4.36249695E+01
 20
1.34705181E+02
  0
VERTEX
  8
0
 62
4
 10
4.34508606E+01
 20
1.34794440E+02
  0
VERTEX
  8
0
 62
4
 10
4.32695148E+01
 20
1.34868414E+02
  0
VERTEX
  8
0
 62
4
 10
4.30823124E+01
 20
1.34926542E+02
  0
VERTEX
  8
0
 62
4
 10
4.28906779E+01
 20
1.34968381E+02
  0
VERTEX
  8
0
 62
4
 10
4.26960699E+01
 20
1.34993613E+02
  0
VERTEX
  8
0
 62
4
 10
4.24999695E+01
 20
1.35002044E+02
  0
VERTEX
  8
0
 62
4
 10
4.23038691E+01
 20
1.34993613E+02
  0
VERTEX
  8
0
 62
4
 10
4.21092611E+01
 20
1.34968381E+02
  0
VERTEX
  8
0
 62
4
 10
4.19176267E+01
 20
1.34926542E+02
  0
VERTEX
  8
0
 62
4
 10
4.17304242E+01
 20
1.34868414E+02
  0
VERTEX
  8
0
 62
4
 10
4.15490784E+01
 20
1.34794440E+02
  0
VERTEX
  8
0
 62
4
 10
4.13749695E+01
 20
1.34705181E+02
  0
VERTEX
  8
0
 62
4
 10
4.12094225E+01
 20
1.34601318E+02
  0
VERTEX
  8
0
 62
4
 10
4.10536974E+01
 20
1.34483642E+02
  0
VERTEX
  8
0
 62
4
 10
4.09089792E+01
 20
1.34353047E+02
  0
VERTEX
  8
0
 62
4
 10
4.07763695E+01
 20
1.34210527E+02
  0
VERTEX
  8
0
 62
4
 10
4.06568774E+01
 20
1.34057168E+02
  0
VERTEX
  8
0
 62
4
 10
4.05514123E+01
 20
1.33894136E+02
  0
VERTEX
  8
0
 62
4
 10
4.04607770E+01
 20
1.33722672E+02
  0
VERTEX
  8
0
 62
4
 10
4.03856611E+01
 20
1.33544081E+02
  0
VERTEX
  8
0
 62
4
 10
4.03266364E+01
 20
1.33359723E+02
  0
VERTEX
  8
0
 62
4
 10
4.02841521E+01
 20
1.33171000E+02
  0
VERTEX
  8
0
 62
4
 10
4.02585314E+01
 20
1.32979348E+02
  0
VERTEX
  8
0
 62
4
 10
4.02499695E+01
 20
1.32786227E+02
  0
SEQEND
  8
0
  0
POLYLINE
  8
0
 62
4
 66
1
  0
VERTEX
  8
0
 62
4
 10
3.34999695E+01
 20
1.14830160E+02
  0
VERTEX
  8
0
 62
4
 10
3.34919181E+01
 20
1.15006715E+02
  0
VERTEX
  8
0
 62
4
 10
3.34678287E+01
 20
1.15181848E+02
  0
VERTEX
  8
0
 62
4
 10
3.34278952E+01
 20
1.15354150E+02
  0
VERTEX
  8
0
 62
4
 10
3.33724392E+01
 20
1.15522233E+02
  0
VERTEX
  8
0
 62
4
 10
3.33019072E+01
 20
1.15684744E+02
  0
VERTEX
  8
0
 62
4
 10
3.32168671E+01
 20
1.15840374E+02
  0
VERTEX
  8
0
 62
4
 10
3.31180035E+01
 20
1.15987871E+02
  0
VERTEX
  8
0
 62
4
 10
3.30061124E+01
 20
1.16126046E+02
  0
VERTEX
  8
0
 62
4
 10
3.28820948E+01
 20
1.16253788E+02
  0
VERTEX
  8
0
 62
4
 10
3.27469491E+01
 20
1.16370067E+02
  0
VERTEX
  8
0
 62
4
 10
3.26017635E+01
 20
1.16473948E+02
  0
VERTEX
  8
0
 62
4
 10
3.24477068E+01
 20
1.16564595E+02
  0
VERTEX
  8
0
 62
4
 10
3.22860196E+01
 20
1.16641276E+02
  0
VERTEX
  8
0
 62
4
 10
3.21180035E+01
 20
1.16703376E+02
  0
VERTEX
  8
0
 62
4
 10
3.19450114E+01
 20
1.16750393E+02
  0
VERTEX
  8
0
 62
4
 10
3.17684360E+01
 20
1.16781950E+02
  0
VERTEX
  8
0
 62
4
 10
3.15896992E+01
 20
1.16797792E+02
  0
VERTEX
  8
0
 62
4
 10
3.14102399E+01
 20
1.16797792E+02
  0
VERTEX
  8
0
 62
4
 10
3.12315030E+01
 20
1.16781950E+02
  0
VERTEX
  8
0
 62
4
 10
3.10549276E+01
 20
1.16750393E+02
  0
VERTEX
  8
0
 62
4
 10
3.08819355E+01
 20
1.16703376E+02
  0
VERTEX
  8
0
 62
4
 10
3.07139195E+01
 20
1.16641276E+02
  0
VERTEX
  8
0
 62
4
 10
3.05522322E+01
 20
1.16564595E+02
  0
VERTEX
  8
0
 62
4
 10
3.03981756E+01
 20
1.16473948E+02
  0
VERTEX
  8
0
 62
4
 10
3.02529899E+01
 20
1.16370067E+02
  0
VERTEX
  8
0
 62
4
 10
3.01178442E+01
 20
1.16253788E+02
  0
VERTEX
  8
0
 62
4
 10
2.99938266E+01
 20
1.16126046E+02
  0
VERTEX
  8
0
 62
4
 10
2.98819355E+01
 20
1.15987871E+02
  0
VERTEX
  8
0
 62
4
 10
2.97830719E+01
 20
1.15840374E+02
  0
VERTEX
  8
0
 62
4
 10
2.96980318E+01
 20
1.15684744E+02
  0
VERTEX
  8
0
 62
4
 10
2.96274998E+01
 20
1.15522233E+02
  0
VERTEX
  8
0
 62
4
 10
2.95720438E+01
 20
1.15354150E+02
  0
VERTEX
  8
0
 62
4
 10
2.95321103E+01
 20
1.15181848E+02
  0
VERTEX
  8
0
 62
4
 10
2.95080209E+01
 20
1.15006715E+02
  0
VERTEX
  8
0
 62
4
 10
2.94999695E+01
 20
1.14830160E+02
  0
SEQEND
  8
0
  0
POLYLINE
  8
0
 62
4
 66
1
  0
VERTEX
  8
0
 62
4
 10
2.94999695E+01
 20
1.14294520E+02
  0
VERTEX
  8
0
 62
4
 10
2.95075801E+01
 20
1.14122857E+02
  0
VERTEX
  8
0
 62
4
 10
2.95303540E+01
 20
1.13952500E+02
  0
VERTEX
  8
0
 62
4
 10
2.95681178E+01
 20
1.13784746E+02
  0
VERTEX
  8
0
 62
4
 10
2.96205843E+01
 20
1.13620872E+02
  0
VERTEX
  8
0
 62
4
 10
2.96873539E+01
 20
1.13462125E+02
  0
VERTEX
  8
0
 62
4
 10
2.97679187E+01
 20
1.13309712E+02
  0
VERTEX
  8
0
 62
4
 10
2.98616654E+01
 20
1.13164795E+02
  0
VERTEX
  8
0
 62
4
 10
2.99678806E+01
 20
1.13028476E+02
  0
VERTEX
  8
0
 62
4
 10
3.00857559E+01
 20
1.12901792E+02
  0
VERTEX
  8
0
 62
4
 10
3.02143943E+01
 20
1.12785707E+02
  0
VERTEX
  8
0
 62
4
 10
3.03528166E+01
 20
1.12681105E+02
  0
VERTEX
  8
0
 62
4
 10
3.04999695E+01
 20
1.12588783E+02
  0
VERTEX
  8
0
 62
4
 10
3.06547330E+01
 20
1.12509442E+02
  0
VERTEX
  8
0
 62
4
 10
3.08159292E+01
 20
1.12443687E+02
  0
VERTEX
  8
0
 62
4
 10
3.09823314E+01
 20
1.12392018E+02
  0
VERTEX
  8
0
 62
4
 10
3.11526731E+01
 20
1.12354827E+02
  0
VERTEX
  8
0
 62
4
 10
3.13256580E+01
 20
1.12332399E+02
  0
VERTEX
  8
0
 62
4
 10
3.14999695E+01
 20
1.12324904E+02
  0
VERTEX
  8
0
 62
4
 10
3.16742810E+01
 20
1.12332399E+02
  0
VERTEX
  8
0
 62
4
 10
3.18472658E+01
 20
1.12354827E+02
  0
VERTEX
  8
0
 62
4
 10
3.20176076E+01
 20
1.12392018E+02
  0
VERTEX
  8
0
 62
4
 10
3.21840098E+01
 20
1.12443687E+02
  0
VERTEX
  8
0
 62
4
 10
3.23452060E+01
 20
1.12509442E+02
  0
VERTEX
  8
0
 62
4
 10
3.24999695E+01
 20
1.12588783E+02
  0
VERTEX
  8
0
 62
4
 10
3.26471224E+01
 20
1.12681105E+02
  0
VERTEX
  8
0
 62
4
 10
3.27855447E+01
 20
1.12785707E+02
  0
VERTEX
  8
0
 62
4
 10
3.29141831E+01
 20
1.12901792E+02
  0
VERTEX
  8
0
 62
4
 10
3.30320584E+01
 20
1.13028476E+02
  0
VERTEX
  8
0
 62
4
 10
3.31382736E+01
 20
1.13164795E+02
  0
VERTEX
  8
0
 62
4
 10
3.32320203E+01
 20
1.13309712E+02
  0
VERTEX
  8
0
 62
4
 10
3.33125851E+01
 20
1.13462125E+02
  0
VERTEX
  8
0
 62
4
 10
3.33793547E+01
 20
1.13620872E+02
  0
VERTEX
  8
0
 62
4
 10
3.34318212E+01
 20
1.13784746E+02
  0
VERTEX
  8
0
 62
4
 10
3.34695850E+01
 20
1.13952500E+02
  0
VERTEX
  8
0
 62
4
 10
3.34923589E+01
 20
1.14122857E+02
  0
VERTEX
  8
0
 62
4
 10
3.34999695E+01
 20
1.14294520E+02
  0
VERTEX
  8
0
 62
4
 10
3.34923589E+01
 20
1.14466183E+02
  0
VERTEX
  8
0
 62
4
 10
3.34695850E+01
 20
1.14636540E+02
  0
VERTEX
  8
0
 62
4
 10
3.34318212E+01
 20
1.14804294E+02
  0
VERTEX
  8
0
 62
4
 10
3.33793547E+01
 20
1.14968168E+02
  0
VERTEX
  8
0
 62
4
 10
3.33125851E+01
 20
1.15126915E+02
  0
VERTEX
  8
0
 62
4
 10
3.32320203E+01
 20
1.15279328E+02
  0
VERTEX
  8
0
 62
4
 10
3.31382736E+01
 20
1.15424245E+02
  0
VERTEX
  8
0
 62
4
 10
3.30320584E+01
 20
1.15560564E+02
  0
VERTEX
  8
0
 62
4
 10
3.29141831E+01
 20
1.15687248E+02
  0
VERTEX
  8
0
 62
4
 10
3.27855447E+01
 20
1.15803333E+02
  0
VERTEX
  8
0
 62
4
 10
3.26471224E+01
 20
1.15907935E+02
  0
VERTEX
  8
0
 62
4
 10
3.24999695E+01
 20
1.16000257E+02
  0
VERTEX
  8
0
 62
4
 10
3.23452060E+01
 20
1.16079598E+02
  0
VERTEX
  8
0
 62
4
 10
3.21840098E+01
 20
1.16145353E+02
  0
VERTEX
  8
0
 62
4
 10
3.20176076E+01
 20
1.16197022E+02
  0
VERTEX
  8
0
 62
4
 10
3.18472659E+01
 20
1.16234213E+02
  0
VERTEX
  8
0
 62
4
 10
3.16742810E+01
 20
1.16256641E+02
  0
VERTEX
  8
0
 62
4
 10
3.14999695E+01
 20
1.16264136E+02
  0
VERTEX
  8
0
 62
4
 10
3.13256580E+01
 20
1.16256641E+02
  0
VERTEX
  8
0
 62
4
 10
3.11526731E+01
 20
1.16234213E+02
  0
VERTEX
  8
0
 62
4
 10
3.09823314E+01
 20
1.16197022E+02
  0
VERTEX
  8
0
 62
4
 10
3.08159292E+01
 20
1.16145353E+02
  0
VERTEX
  8
0
 62
4
 10
3.06547330E+01
 20
1.16079598E+02
  0
VERTEX
  8
0
 62
4
 10
3.04999695E+01
 20
1.16000257E+02
  0
VERTEX
  8
0
 62
4
 10
3.03528166E+01
 20
1.15907935E+02
  0
VERTEX
  8
0
 62
4
 10
3.02143943E+01
 20
1.15803333E+02
  0
VERTEX
  8
0
 62
4
 10
3.00857559E+01
 20
1.15687248E+02
  0
VERTEX
  8
0
 62
4
 10
2.99678806E+01
 20
1.15560564E+02
  0
VERTEX
  8
0
 62
4
 10
2.98616654E+01
 20
1.15424245E+02
  0
VERTEX
  8
0
 62
4
 10
2.97679187E+01
 20
1.15279328E+02
  0
VERTEX
  8
0
 62
4
 10
2.96873539E+01
 20
1.15126915E+02
  0
VERTEX
  8
0
 62
4
 10
2.96205843E+01
 20
1.14968168E+02
  0
VERTEX
  8
0
 62
4
 10
2.95681178E+01
 20
1.14804294E+02
  0
VERTEX
  8
0
 62
4
 10
2.95303540E+01
 20
1.14636540E+02
  0
VERTEX
  8
0
 62
4
 10
2.95075801E+01
 20
1.14466183E+02
  0
VERTEX
  8
0
 62
4
 10
2.94999695E+01
 20
1.14294520E+02
  0
SEQEND
  8
0
  0
LINE
  8
0
 62
4
 10
2.94999695E+01
 20
1.14294520E+02
 11
2.94999695E+01
 21
1.14830160E+02
  0
LINE
  8
0
 62
4
 10
3.34999695E+01
 20
1.14294520E+02
 11
3.34999695E+01
 21
1.14830160E+02
  0
POLYLINE
  8
0
 62
6
 66
1
  0
VERTEX
  8
0
 62
6
 10
3.29999695E+01
 20
1.14294520E+02
  0
VERTEX
  8
0
 62
6
 10
3.29942615E+01
 20
1.14423267E+02
  0
VERTEX
  8
0
 62
6
 10
3.29771811E+01
 20
1.14551035E+02
  0
VERTEX
  8
0
 62
6
 10
3.29488582E+01
 20
1.14676851E+02
  0
VERTEX
  8
0
 62
6
 10
3.29095084E+01
 20
1.14799756E+02
  0
VERTEX
  8
0
 62
6
 10
3.28594312E+01
 20
1.14918817E+02
  0
VERTEX
  8
0
 62
6
 10
3.27990076E+01
 20
1.15033126E+02
  0
VERTEX
  8
0
 62
6
 10
3.27286976E+01
 20
1.15141814E+02
  0
VERTEX
  8
0
 62
6
 10
3.26490362E+01
 20
1.15244053E+02
  0
VERTEX
  8
0
 62
6
 10
3.25606297E+01
 20
1.15339066E+02
  0
VERTEX
  8
0
 62
6
 10
3.24641509E+01
 20
1.15426130E+02
  0
VERTEX
  8
0
 62
6
 10
3.23603342E+01
 20
1.15504581E+02
  0
VERTEX
  8
0
 62
6
 10
3.22499695E+01
 20
1.15573823E+02
  0
VERTEX
  8
0
 62
6
 10
3.21338969E+01
 20
1.15633328E+02
  0
VERTEX
  8
0
 62
6
 10
3.20129997E+01
 20
1.15682645E+02
  0
VERTEX
  8
0
 62
6
 10
3.18881981E+01
 20
1.15721397E+02
  0
VERTEX
  8
0
 62
6
 10
3.17604418E+01
 20
1.15749289E+02
  0
VERTEX
  8
0
 62
6
 10
3.16307031E+01
 20
1.15766110E+02
  0
VERTEX
  8
0
 62
6
 10
3.14999695E+01
 20
1.15771732E+02
  0
VERTEX
  8
0
 62
6
 10
3.13692359E+01
 20
1.15766110E+02
  0
VERTEX
  8
0
 62
6
 10
3.12394972E+01
 20
1.15749289E+02
  0
VERTEX
  8
0
 62
6
 10
3.11117409E+01
 20
1.15721397E+02
  0
VERTEX
  8
0
 62
6
 10
3.09869393E+01
 20
1.15682645E+02
  0
VERTEX
  8
0
 62
6
 10
3.08660421E+01
 20
1.15633328E+02
  0
VERTEX
  8
0
 62
6
 10
3.07499695E+01
 20
1.15573823E+02
  0
VERTEX
  8
0
 62
6
 10
3.06396048E+01
 20
1.15504581E+02
  0
VERTEX
  8
0
 62
6
 10
3.05357881E+01
 20
1.15426130E+02
  0
VERTEX
  8
0
 62
6
 10
3.04393093E+01
 20
1.15339066E+02
  0
VERTEX
  8
0
 62
6
 10
3.03509028E+01
 20
1.15244053E+02
  0
VERTEX
  8
0
 62
6
 10
3.02712414E+01
 20
1.15141814E+02
  0
VERTEX
  8
0
 62
6
 10
3.02009314E+01
 20
1.15033126E+02
  0
VERTEX
  8
0
 62
6
 10
3.01405078E+01
 20
1.14918817E+02
  0
VERTEX
  8
0
 62
6
 10
3.00904306E+01
 20
1.14799756E+02
  0
VERTEX
  8
0
 62
6
 10
3.00510808E+01
 20
1.14676851E+02
  0
VERTEX
  8
0
 62
6
 10
3.00227579E+01
 20
1.14551035E+02
  0
VERTEX
  8
0
 62
6
 10
3.00056775E+01
 20
1.14423267E+02
  0
VERTEX
  8
0
 62
6
 10
2.99999695E+01
 20
1.14294520E+02
  0
VERTEX
  8
0
 62
6
 10
3.00056775E+01
 20
1.14165773E+02
  0
VERTEX
  8
0
 62
6
 10
3.00227579E+01
 20
1.14038005E+02
  0
VERTEX
  8
0
 62
6
 10
3.00510808E+01
 20
1.13912189E+02
  0
VERTEX
  8
0
 62
6
 10
3.00904306E+01
 20
1.13789284E+02
  0
VERTEX
  8
0
 62
6
 10
3.01405078E+01
 20
1.13670223E+02
  0
VERTEX
  8
0
 62
6
 10
3.02009314E+01
 20
1.13555914E+02
  0
VERTEX
  8
0
 62
6
 10
3.02712414E+01
 20
1.13447226E+02
  0
VERTEX
  8
0
 62
6
 10
3.03509028E+01
 20
1.13344987E+02
  0
VERTEX
  8
0
 62
6
 10
3.04393093E+01
 20
1.13249974E+02
  0
VERTEX
  8
0
 62
6
 10
3.05357881E+01
 20
1.13162910E+02
  0
VERTEX
  8
0
 62
6
 10
3.06396048E+01
 20
1.13084459E+02
  0
VERTEX
  8
0
 62
6
 10
3.07499695E+01
 20
1.13015217E+02
  0
VERTEX
  8
0
 62
6
 10
3.08660421E+01
 20
1.12955712E+02
  0
VERTEX
  8
0
 62
6
 10
3.09869393E+01
 20
1.12906395E+02
  0
VERTEX
  8
0
 62
6
 10
3.11117409E+01
 20
1.12867643E+02
  0
VERTEX
  8
0
 62
6
 10
3.12394972E+01
 20
1.12839751E+02
  0
VERTEX
  8
0
 62
6
 10
3.13692359E+01
 20
1.12822930E+02
  0
VERTEX
  8
0
 62
6
 10
3.14999695E+01
 20
1.12817308E+02
  0
VERTEX
  8
0
 62
6
 10
3.16307031E+01
 20
1.12822930E+02
  0
VERTEX
  8
0
 62
6
 10
3.17604418E+01
 20
1.12839751E+02
  0
VERTEX
  8
0
 62
6
 10
3.18881981E+01
 20
1.12867643E+02
  0
VERTEX
  8
0
 62
6
 10
3.20129997E+01
 20
1.12906395E+02
  0
VERTEX
  8
0
 62
6
 10
3.21338969E+01
 20
1.12955712E+02
  0
VERTEX
  8
0
 62
6
 10
3.22499695E+01
 20
1.13015217E+02
  0
VERTEX
  8
0
 62
6
 10
3.23603342E+01
 20
1.13084459E+02
  0
VERTEX
  8
0
 62
6
 10
3.24641509E+01
 20
1.13162910E+02
  0
VERTEX
  8
0
 62
6
 10
3.25606297E+01
 20
1.13249974E+02
  0
VERTEX
  8
0
 62
6
 10
3.26490362E+01
 20
1.13344987E+02
  0
VERTEX
  8
0
 62
6
 10
3.27286976E+01
 20
1.13447226E+02
  0
VERTEX
  8
0
 62
6
 10
3.27990076E+01
 20
1.13555914E+02
  0
VERTEX
  8
0
 62
6
 10
3.28594312E+01
 20
1.13670223E+02
  0
VERTEX
  8
0
 62
6
 10
3.29095084E+01
 20
1.13789284E+02
  0
VERTEX
  8
0
 62
6
 10
3.29488582E+01
 20
1.13912190E+02
  0
VERTEX
  8
0
 62
6
 10
3.29771811E+01
 20
1.14038005E+02
  0
VERTEX
  8
0
 62
6
 10
3.29942615E+01
 20
1.14165773E+02
  0
VERTEX
  8
0
 62
6
 10
3.29999695E+01
 20
1.14294520E+02
  0
SEQEND
  8
0
  0
LINE
  8
0
 62
4
 10
3.04999695E+01
 20
1.14865709E+02
 11
3.04999695E+01
 21
1.13723332E+02
  0
LINE
  8
0
 62
4
 10
3.24999695E+01
 20
1.14865709E+02
 11
3.24999695E+01
 21
1.13723332E+02
  0
LINE
  8
0
 62
4
 10
3.14999695E+01
 20
1.15427049E+02
 11
3.04999695E+01
 21
1.14865709E+02
  0
LINE
  8
0
 62
4
 10
3.14999695E+01
 20
1.15427049E+02
 11
3.24999695E+01
 21
1.14865709E+02
  0
LINE
  8
0
 62
4
 10
3.24999695E+01
 20
1.13723332E+02
 11
3.14999695E+01
 21
1.13152143E+02
  0
LINE
  8
0
 62
4
 10
3.04999695E+01
 20
1.13723332E+02
 11
3.14999695E+01
 21
1.13152143E+02
  0
LINE
  8
0
 62
4
 10
2.24999695E+01
 20
1.13723332E+02
 11
2.34999695E+01
 21
1.13152143E+02
  0
LINE
  8
0
 62
4
 10
2.44999695E+01
 20
1.13723332E+02
 11
2.34999695E+01
 21
1.13152143E+02
  0
LINE
  8
0
 62
4
 10
2.34999695E+01
 20
1.15427049E+02
 11
2.44999695E+01
 21
1.14865709E+02
  0
LINE
  8
0
 62
4
 10
2.34999695E+01
 20
1.15427049E+02
 11
2.24999695E+01
 21
1.14865709E+02
  0
LINE
  8
0
 62
4
 10
2.44999695E+01
 20
1.14865709E+02
 11
2.44999695E+01
 21
1.13723332E+02
  0
LINE
  8
0
 62
4
 10
2.24999695E+01
 20
1.14865709E+02
 11
2.24999695E+01
 21
1.13723332E+02
  0
POLYLINE
  8
0
 62
6
 66
1
  0
VERTEX
  8
0
 62
6
 10
2.49999695E+01
 20
1.14294520E+02
  0
VERTEX
  8
0
 62
6
 10
2.49942615E+01
 20
1.14423267E+02
  0
VERTEX
  8
0
 62
6
 10
2.49771811E+01
 20
1.14551035E+02
  0
VERTEX
  8
0
 62
6
 10
2.49488582E+01
 20
1.14676851E+02
  0
VERTEX
  8
0
 62
6
 10
2.49095084E+01
 20
1.14799756E+02
  0
VERTEX
  8
0
 62
6
 10
2.48594312E+01
 20
1.14918817E+02
  0
VERTEX
  8
0
 62
6
 10
2.47990076E+01
 20
1.15033126E+02
  0
VERTEX
  8
0
 62
6
 10
2.47286976E+01
 20
1.15141814E+02
  0
VERTEX
  8
0
 62
6
 10
2.46490362E+01
 20
1.15244053E+02
  0
VERTEX
  8
0
 62
6
 10
2.45606297E+01
 20
1.15339066E+02
  0
VERTEX
  8
0
 62
6
 10
2.44641509E+01
 20
1.15426130E+02
  0
VERTEX
  8
0
 62
6
 10
2.43603342E+01
 20
1.15504581E+02
  0
VERTEX
  8
0
 62
6
 10
2.42499695E+01
 20
1.15573823E+02
  0
VERTEX
  8
0
 62
6
 10
2.41338969E+01
 20
1.15633328E+02
  0
VERTEX
  8
0
 62
6
 10
2.40129997E+01
 20
1.15682645E+02
  0
VERTEX
  8
0
 62
6
 10
2.38881981E+01
 20
1.15721397E+02
  0
VERTEX
  8
0
 62
6
 10
2.37604418E+01
 20
1.15749289E+02
  0
VERTEX
  8
0
 62
6
 10
2.36307031E+01
 20
1.15766110E+02
  0
VERTEX
  8
0
 62
6
 10
2.34999695E+01
 20
1.15771732E+02
  0
VERTEX
  8
0
 62
6
 10
2.33692359E+01
 20
1.15766110E+02
  0
VERTEX
  8
0
 62
6
 10
2.32394972E+01
 20
1.15749289E+02
  0
VERTEX
  8
0
 62
6
 10
2.31117409E+01
 20
1.15721397E+02
  0
VERTEX
  8
0
 62
6
 10
2.29869393E+01
 20
1.15682645E+02
  0
VERTEX
  8
0
 62
6
 10
2.28660421E+01
 20
1.15633328E+02
  0
VERTEX
  8
0
 62
6
 10
2.27499695E+01
 20
1.15573823E+02
  0
VERTEX
  8
0
 62
6
 10
2.26396048E+01
 20
1.15504581E+02
  0
VERTEX
  8
0
 62
6
 10
2.25357881E+01
 20
1.15426130E+02
  0
VERTEX
  8
0
 62
6
 10
2.24393093E+01
 20
1.15339066E+02
  0
VERTEX
  8
0
 62
6
 10
2.23509028E+01
 20
1.15244053E+02
  0
VERTEX
  8
0
 62
6
 10
2.22712414E+01
 20
1.15141814E+02
  0
VERTEX
  8
0
 62
6
 10
2.22009314E+01
 20
1.15033126E+02
  0
VERTEX
  8
0
 62
6
 10
2.21405078E+01
 20
1.14918817E+02
  0
VERTEX
  8
0
 62
6
 10
2.20904306E+01
 20
1.14799756E+02
  0
VERTEX
  8
0
 62
6
 10
2.20510808E+01
 20
1.14676851E+02
  0
VERTEX
  8
0
 62
6
 10
2.20227579E+01
 20
1.14551035E+02
  0
VERTEX
  8
0
 62
6
 10
2.20056775E+01
 20
1.14423267E+02
  0
VERTEX
  8
0
 62
6
 10
2.19999695E+01
 20
1.14294520E+02
  0
VERTEX
  8
0
 62
6
 10
2.20056775E+01
 20
1.14165773E+02
  0
VERTEX
  8
0
 62
6
 10
2.20227579E+01
 20
1.14038005E+02
  0
VERTEX
  8
0
 62
6
 10
2.20510808E+01
 20
1.13912189E+02
  0
VERTEX
  8
0
 62
6
 10
2.20904306E+01
 20
1.13789284E+02
  0
VERTEX
  8
0
 62
6
 10
2.21405078E+01
 20
1.13670223E+02
  0
VERTEX
  8
0
 62
6
 10
2.22009314E+01
 20
1.13555914E+02
  0
VERTEX
  8
0
 62
6
 10
2.22712414E+01
 20
1.13447226E+02
  0
VERTEX
  8
0
 62
6
 10
2.23509028E+01
 20
1.13344987E+02
  0
VERTEX
  8
0
 62
6
 10
2.24393093E+01
 20
1.13249974E+02
  0
VERTEX
  8
0
 62
6
 10
2.25357881E+01
 20
1.13162910E+02
  0
VERTEX
  8
0
 62
6
 10
2.26396048E+01
 20
1.13084459E+02
  0
VERTEX
  8
0
 62
6
 10
2.27499695E+01
 20
1.13015217E+02
  0
VERTEX
  8
0
 62
6
 10
2.28660421E+01
 20
1.12955712E+02
  0
VERTEX
  8
0
 62
6
 10
2.29869393E+01
 20
1.12906395E+02
  0
VERTEX
  8
0
 62
6
 10
2.31117409E+01
 20
1.12867643E+02
  0
VERTEX
  8
0
 62
6
 10
2.32394972E+01
 20
1.12839751E+02
  0
VERTEX
  8
0
 62
6
 10
2.33692359E+01
 20
1.12822930E+02
  0
VERTEX
  8
0
 62
6
 10
2.34999695E+01
 20
1.12817308E+02
  0
VERTEX
  8
0
 62
6
 10
2.36307031E+01
 20
1.12822930E+02
  0
VERTEX
  8
0
 62
6
 10
2.37604418E+01
 20
1.12839751E+02
  0
VERTEX
  8
0
 62
6
 10
2.38881981E+01
 20
1.12867643E+02
  0
VERTEX
  8
0
 62
6
 10
2.40129997E+01
 20
1.12906395E+02
  0
VERTEX
  8
0
 62
6
 10
2.41338969E+01
 20
1.12955712E+02
  0
VERTEX
  8
0
 62
6
 10
2.42499695E+01
 20
1.13015217E+02
  0
VERTEX
  8
0
 62
6
 10
2.43603342E+01
 20
1.13084459E+02
  0
VERTEX
  8
0
 62
6
 10
2.44641509E+01
 20
1.13162910E+02
  0
VERTEX
  8
0
 62
6
 10
2.45606297E+01
 20
1.13249974E+02
  0
VERTEX
  8
0
 62
6
 10
2.46490362E+01
 20
1.13344987E+02
  0
VERTEX
  8
0
 62
6
 10
2.47286976E+01
 20
1.13447226E+02
  0
VERTEX
  8
0
 62
6
 10
2.47990076E+01
 20
1.13555914E+02
  0
VERTEX
  8
0
 62
6
 10
2.48594312E+01
 20
1.13670223E+02
  0
VERTEX
  8
0
 62
6
 10
2.49095084E+01
 20
1.13789284E+02
  0
VERTEX
  8
0
 62
6
 10
2.49488582E+01
 20
1.13912190E+02
  0
VERTEX
  8
0
 62
6
 10
2.49771811E+01
 20
1.14038005E+02
  0
VERTEX
  8
0
 62
6
 10
2.49942615E+01
 20
1.14165773E+02
  0
VERTEX
  8
0
 62
6
 10
2.49999695E+01
 20
1.14294520E+02
  0
SEQEND
  8
0
  0
LINE
  8
0
 62
4
 10
2.54999695E+01
 20
1.14294520E+02
 11
2.54999695E+01
 21
1.14830160E+02
  0
LINE
  8
0
 62
4
 10
2.14999695E+01
 20
1.14294520E+02
 11
2.14999695E+01
 21
1.14830160E+02
  0
POLYLINE
  8
0
 62
4
 66
1
  0
VERTEX
  8
0
 62
4
 10
2.14999695E+01
 20
1.14294520E+02
  0
VERTEX
  8
0
 62
4
 10
2.15075801E+01
 20
1.14122857E+02
  0
VERTEX
  8
0
 62
4
 10
2.15303540E+01
 20
1.13952500E+02
  0
VERTEX
  8
0
 62
4
 10
2.15681178E+01
 20
1.13784746E+02
  0
VERTEX
  8
0
 62
4
 10
2.16205843E+01
 20
1.13620872E+02
  0
VERTEX
  8
0
 62
4
 10
2.16873539E+01
 20
1.13462125E+02
  0
VERTEX
  8
0
 62
4
 10
2.17679187E+01
 20
1.13309712E+02
  0
VERTEX
  8
0
 62
4
 10
2.18616654E+01
 20
1.13164795E+02
  0
VERTEX
  8
0
 62
4
 10
2.19678806E+01
 20
1.13028476E+02
  0
VERTEX
  8
0
 62
4
 10
2.20857559E+01
 20
1.12901792E+02
  0
VERTEX
  8
0
 62
4
 10
2.22143943E+01
 20
1.12785707E+02
  0
VERTEX
  8
0
 62
4
 10
2.23528166E+01
 20
1.12681105E+02
  0
VERTEX
  8
0
 62
4
 10
2.24999695E+01
 20
1.12588783E+02
  0
VERTEX
  8
0
 62
4
 10
2.26547330E+01
 20
1.12509442E+02
  0
VERTEX
  8
0
 62
4
 10
2.28159292E+01
 20
1.12443687E+02
  0
VERTEX
  8
0
 62
4
 10
2.29823314E+01
 20
1.12392018E+02
  0
VERTEX
  8
0
 62
4
 10
2.31526731E+01
 20
1.12354827E+02
  0
VERTEX
  8
0
 62
4
 10
2.33256580E+01
 20
1.12332399E+02
  0
VERTEX
  8
0
 62
4
 10
2.34999695E+01
 20
1.12324904E+02
  0
VERTEX
  8
0
 62
4
 10
2.36742810E+01
 20
1.12332399E+02
  0
VERTEX
  8
0
 62
4
 10
2.38472658E+01
 20
1.12354827E+02
  0
VERTEX
  8
0
 62
4
 10
2.40176076E+01
 20
1.12392018E+02
  0
VERTEX
  8
0
 62
4
 10
2.41840098E+01
 20
1.12443687E+02
  0
VERTEX
  8
0
 62
4
 10
2.43452060E+01
 20
1.12509442E+02
  0
VERTEX
  8
0
 62
4
 10
2.44999695E+01
 20
1.12588783E+02
  0
VERTEX
  8
0
 62
4
 10
2.46471224E+01
 20
1.12681105E+02
  0
VERTEX
  8
0
 62
4
 10
2.47855447E+01
 20
1.12785707E+02
  0
VERTEX
  8
0
 62
4
 10
2.49141831E+01
 20
1.12901792E+02
  0
VERTEX
  8
0
 62
4
 10
2.50320584E+01
 20
1.13028476E+02
  0
VERTEX
  8
0
 62
4
 10
2.51382736E+01
 20
1.13164795E+02
  0
VERTEX
  8
0
 62
4
 10
2.52320203E+01
 20
1.13309712E+02
  0
VERTEX
  8
0
 62
4
 10
2.53125851E+01
 20
1.13462125E+02
  0
VERTEX
  8
0
 62
4
 10
2.53793547E+01
 20
1.13620872E+02
  0
VERTEX
  8
0
 62
4
 10
2.54318212E+01
 20
1.13784746E+02
  0
VERTEX
  8
0
 62
4
 10
2.54695850E+01
 20
1.13952500E+02
  0
VERTEX
  8
0
 62
4
 10
2.54923589E+01
 20
1.14122857E+02
  0
VERTEX
  8
0
 62
4
 10
2.54999695E+01
 20
1.14294520E+02
  0
VERTEX
  8
0
 62
4
 10
2.54923589E+01
 20
1.14466183E+02
  0
VERTEX
  8
0
 62
4
 10
2.54695850E+01
 20
1.14636540E+02
  0
VERTEX
  8
0
 62
4
 10
2.54318212E+01
 20
1.14804294E+02
  0
VERTEX
  8
0
 62
4
 10
2.53793547E+01
 20
1.14968168E+02
  0
VERTEX
  8
0
 62
4
 10
2.53125851E+01
 20
1.15126915E+02
  0
VERTEX
  8
0
 62
4
 10
2.52320203E+01
 20
1.15279328E+02
  0
VERTEX
  8
0
 62
4
 10
2.51382736E+01
 20
1.15424245E+02
  0
VERTEX
  8
0
 62
4
 10
2.50320584E+01
 20
1.15560564E+02
  0
VERTEX
  8
0
 62
4
 10
2.49141831E+01
 20
1.15687248E+02
  0
VERTEX
  8
0
 62
4
 10
2.47855447E+01
 20
1.15803333E+02
  0
VERTEX
  8
0
 62
4
 10
2.46471224E+01
 20
1.15907935E+02
  0
VERTEX
  8
0
 62
4
 10
2.44999695E+01
 20
1.16000257E+02
  0
VERTEX
  8
0
 62
4
 10
2.43452060E+01
 20
1.16079598E+02
  0
VERTEX
  8
0
 62
4
 10
2.41840098E+01
 20
1.16145353E+02
  0
VERTEX
  8
0
 62
4
 10
2.40176076E+01
 20
1.16197022E+02
  0
VERTEX
  8
0
 62
4
 10
2.38472659E+01
 20
1.16234213E+02
  0
VERTEX
  8
0
 62
4
 10
2.36742810E+01
 20
1.16256641E+02
  0
VERTEX
  8
0
 62
4
 10
2.34999695E+01
 20
1.16264136E+02
  0
VERTEX
  8
0
 62
4
 10
2.33256580E+01
 20
1.16256641E+02
  0
VERTEX
  8
0
 62
4
 10
2.31526731E+01
 20
1.16234213E+02
  0
VERTEX
  8
0
 62
4
 10
2.29823314E+01
 20
1.16197022E+02
  0
VERTEX
  8
0
 62
4
 10
2.28159292E+01
 20
1.16145353E+02
  0
VERTEX
  8
0
 62
4
 10
2.26547330E+01
 20
1.16079598E+02
  0
VERTEX
  8
0
 62
4
 10
2.24999695E+01
 20
1.16000257E+02
  0
VERTEX
  8
0
 62
4
 10
2.23528166E+01
 20
1.15907935E+02
  0
VERTEX
  8
0
 62
4
 10
2.22143943E+01
 20
1.15803333E+02
  0
VERTEX
  8
0
 62
4
 10
2.20857559E+01
 20
1.15687248E+02
  0
VERTEX
  8
0
 62
4
 10
2.19678806E+01
 20
1.15560564E+02
  0
VERTEX
  8
0
 62
4
 10
2.18616654E+01
 20
1.15424245E+02
  0
VERTEX
  8
0
 62
4
 10
2.17679187E+01
 20
1.15279328E+02
  0
VERTEX
  8
0
 62
4
 10
2.16873539E+01
 20
1.15126915E+02
  0
VERTEX
  8
0
 62
4
 10
2.16205843E+01
 20
1.14968168E+02
  0
VERTEX
  8
0
 62
4
 10
2.15681178E+01
 20
1.14804294E+02
  0
VERTEX
  8
0
 62
4
 10
2.15303540E+01
 20
1.14636540E+02
  0
VERTEX
  8
0
 62
4
 10
2.15075801E+01
 20
1.14466183E+02
  0
VERTEX
  8
0
 62
4
 10
2.14999695E+01
 20
1.14294520E+02
  0
SEQEND
  8
0
  0
POLYLINE
  8
0
 62
4
 66
1
  0
VERTEX
  8
0
 62
4
 10
2.54999695E+01
 20
1.14830160E+02
  0
VERTEX
  8
0
 62
4
 10
2.54919181E+01
 20
1.15006715E+02
  0
VERTEX
  8
0
 62
4
 10
2.54678287E+01
 20
1.15181848E+02
  0
VERTEX
  8
0
 62
4
 10
2.54278952E+01
 20
1.15354150E+02
  0
VERTEX
  8
0
 62
4
 10
2.53724392E+01
 20
1.15522233E+02
  0
VERTEX
  8
0
 62
4
 10
2.53019072E+01
 20
1.15684744E+02
  0
VERTEX
  8
0
 62
4
 10
2.52168671E+01
 20
1.15840374E+02
  0
VERTEX
  8
0
 62
4
 10
2.51180035E+01
 20
1.15987871E+02
  0
VERTEX
  8
0
 62
4
 10
2.50061124E+01
 20
1.16126046E+02
  0
VERTEX
  8
0
 62
4
 10
2.48820948E+01
 20
1.16253788E+02
  0
VERTEX
  8
0
 62
4
 10
2.47469491E+01
 20
1.16370067E+02
  0
VERTEX
  8
0
 62
4
 10
2.46017635E+01
 20
1.16473948E+02
  0
VERTEX
  8
0
 62
4
 10
2.44477068E+01
 20
1.16564595E+02
  0
VERTEX
  8
0
 62
4
 10
2.42860196E+01
 20
1.16641276E+02
  0
VERTEX
  8
0
 62
4
 10
2.41180035E+01
 20
1.16703376E+02
  0
VERTEX
  8
0
 62
4
 10
2.39450114E+01
 20
1.16750393E+02
  0
VERTEX
  8
0
 62
4
 10
2.37684360E+01
 20
1.16781950E+02
  0
VERTEX
  8
0
 62
4
 10
2.35896992E+01
 20
1.16797792E+02
  0
VERTEX
  8
0
 62
4
 10
2.34102399E+01
 20
1.16797792E+02
  0
VERTEX
  8
0
 62
4
 10
2.32315030E+01
 20
1.16781950E+02
  0
VERTEX
  8
0
 62
4
 10
2.30549276E+01
 20
1.16750393E+02
  0
VERTEX
  8
0
 62
4
 10
2.28819355E+01
 20
1.16703376E+02
  0
VERTEX
  8
0
 62
4
 10
2.27139195E+01
 20
1.16641276E+02
  0
VERTEX
  8
0
 62
4
 10
2.25522322E+01
 20
1.16564595E+02
  0
VERTEX
  8
0
 62
4
 10
2.23981756E+01
 20
1.16473948E+02
  0
VERTEX
  8
0
 62
4
 10
2.22529899E+01
 20
1.16370067E+02
  0
VERTEX
  8
0
 62
4
 10
2.21178442E+01
 20
1.16253788E+02
  0
VERTEX
  8
0
 62
4
 10
2.19938266E+01
 20
1.16126046E+02
  0
VERTEX
  8
0
 62
4
 10
2.18819355E+01
 20
1.15987871E+02
  0
VERTEX
  8
0
 62
4
 10
2.17830719E+01
 20
1.15840374E+02
  0
VERTEX
  8
0
 62
4
 10
2.16980318E+01
 20
1.15684744E+02
  0
VERTEX
  8
0
 62
4
 10
2.16274998E+01
 20
1.15522233E+02
  0
VERTEX
  8
0
 62
4
 10
2.15720438E+01
 20
1.15354150E+02
  0
VERTEX
  8
0
 62
4
 10
2.15321103E+01
 20
1.15181848E+02
  0
VERTEX
  8
0
 62
4
 10
2.15080209E+01
 20
1.15006715E+02
  0
VERTEX
  8
0
 62
4
 10
2.14999695E+01
 20
1.14830160E+02
  0
SEQEND
  8
0
  0
LINE
  8
0
 62
4
 10
-3.90000305E+01
 20
1.39006438E+02
 11
-9.00003053E+00
 21
1.39006438E+02
  0
LINE
  8
0
 62
4
 10
-3.90000305E+01
 20
1.23249514E+02
 11
-9.00003052E+00
 21
1.23249514E+02
  0
LINE
  8
0
 62
4
 10
-3.90000305E+01
 20
1.24234321E+02
 11
-9.00003052E+00
 21
1.24234321E+02
  0
LINE
  8
0
 62
4
 10
-3.90000305E+01
 20
1.28306763E+02
 11
-4.05000305E+01
 21
1.27298906E+02
  0
LINE
  8
0
 62
4
 10
-4.05000305E+01
 20
1.27298906E+02
 11
-4.05000305E+01
 21
1.24675004E+02
  0
LINE
  8
0
 62
4
 10
-4.05000305E+01
 20
1.25068317E+02
 11
-3.90000305E+01
 21
1.24367532E+02
  0
LINE
  8
0
 62
4
 10
-4.05000305E+01
 20
1.24675004E+02
 11
-3.90000305E+01
 21
1.23672939E+02
  0
LINE
  8
0
 62
4
 10
-3.90000305E+01
 20
1.28306763E+02
 11
-2.69372754E+01
 21
1.28306763E+02
  0
LINE
  8
0
 62
4
 10
-3.90000305E+01
 20
1.24367532E+02
 11
-1.55000305E+01
 21
1.24367532E+02
  0
LINE
  8
0
 62
4
 10
-3.90000305E+01
 20
1.28764437E+02
 11
-2.73371535E+01
 21
1.28764437E+02
  0
LINE
  8
0
 62
4
 10
-3.90000305E+01
 20
1.28306763E+02
 11
-3.90000305E+01
 21
1.24234321E+02
  0
LINE
  8
0
 62
4
 10
-3.90000305E+01
 20
1.24234321E+02
 11
-3.90000305E+01
 21
1.22499985E+02
  0
ARC
  8
0
 62
4
 10
-1.47681499E+02
 20
1.93705030E+00
 40
1.86971513E+02
 50
4.46782203E+01
 51
4.61988768E+01
  0
ARC
  8
0
 62
4
 10
1.14681438E+02
 20
1.93705030E+00
 40
1.86971513E+02
 50
1.33801123E+02
 51
1.35321779E+02
  0
LINE
  8
0
 62
4
 10
-1.31000305E+01
 20
1.34748451E+02
 11
-1.31000305E+01
 21
1.34944813E+02
  0
POLYLINE
  8
0
 62
4
 66
1
  0
VERTEX
  8
0
 62
4
 10
-1.99000305E+01
 20
1.34944813E+02
  0
VERTEX
  8
0
 62
4
 10
-1.98870925E+01
 20
1.34652985E+02
  0
VERTEX
  8
0
 62
4
 10
-1.98483769E+01
 20
1.34363379E+02
  0
VERTEX
  8
0
 62
4
 10
-1.97841783E+01
 20
1.34078197E+02
  0
VERTEX
  8
0
 62
4
 10
-1.96949854E+01
 20
1.33799611E+02
  0
VERTEX
  8
0
 62
4
 10
-1.95814770E+01
 20
1.33529741E+02
  0
VERTEX
  8
0
 62
4
 10
-1.94445169E+01
 20
1.33270640E+02
  0
VERTEX
  8
0
 62
4
 10
-1.92851475E+01
 20
1.33024280E+02
  0
VERTEX
  8
0
 62
4
 10
-1.91045816E+01
 20
1.32792537E+02
  0
VERTEX
  8
0
 62
4
 10
-1.89041936E+01
 20
1.32577174E+02
  0
VERTEX
  8
0
 62
4
 10
-1.86855084E+01
 20
1.32379831E+02
  0
VERTEX
  8
0
 62
4
 10
-1.84501904E+01
 20
1.32202008E+02
  0
VERTEX
  8
0
 62
4
 10
-1.82000305E+01
 20
1.32045060E+02
  0
VERTEX
  8
0
 62
4
 10
-1.79369326E+01
 20
1.31910180E+02
  0
VERTEX
  8
0
 62
4
 10
-1.76628990E+01
 20
1.31798396E+02
  0
VERTEX
  8
0
 62
4
 10
-1.73800153E+01
 20
1.31710558E+02
  0
VERTEX
  8
0
 62
4
 10
-1.70904343E+01
 20
1.31647335E+02
  0
VERTEX
  8
0
 62
4
 10
-1.67963600E+01
 20
1.31609208E+02
  0
VERTEX
  8
0
 62
4
 10
-1.65000305E+01
 20
1.31596466E+02
  0
VERTEX
  8
0
 62
4
 10
-1.62037010E+01
 20
1.31609208E+02
  0
VERTEX
  8
0
 62
4
 10
-1.59096267E+01
 20
1.31647335E+02
  0
VERTEX
  8
0
 62
4
 10
-1.56200457E+01
 20
1.31710558E+02
  0
VERTEX
  8
0
 62
4
 10
-1.53371620E+01
 20
1.31798396E+02
  0
VERTEX
  8
0
 62
4
 10
-1.50631284E+01
 20
1.31910180E+02
  0
VERTEX
  8
0
 62
4
 10
-1.48000305E+01
 20
1.32045060E+02
  0
VERTEX
  8
0
 62
4
 10
-1.45498706E+01
 20
1.32202008E+02
  0
VERTEX
  8
0
 62
4
 10
-1.43145526E+01
 20
1.32379831E+02
  0
VERTEX
  8
0
 62
4
 10
-1.40958674E+01
 20
1.32577174E+02
  0
VERTEX
  8
0
 62
4
 10
-1.38954794E+01
 20
1.32792537E+02
  0
VERTEX
  8
0
 62
4
 10
-1.37149135E+01
 20
1.33024280E+02
  0
VERTEX
  8
0
 62
4
 10
-1.35555441E+01
 20
1.33270640E+02
  0
VERTEX
  8
0
 62
4
 10
-1.34185840E+01
 20
1.33529741E+02
  0
VERTEX
  8
0
 62
4
 10
-1.33050756E+01
 20
1.33799611E+02
  0
VERTEX
  8
0
 62
4
 10
-1.32158827E+01
 20
1.34078197E+02
  0
VERTEX
  8
0
 62
4
 10
-1.31516841E+01
 20
1.34363379E+02
  0
VERTEX
  8
0
 62
4
 10
-1.31129685E+01
 20
1.34652985E+02
  0
VERTEX
  8
0
 62
4
 10
-1.31000305E+01
 20
1.34944813E+02
  0
VERTEX
  8
0
 62
4
 10
-1.31129685E+01
 20
1.35236641E+02
  0
VERTEX
  8
0
 62
4
 10
-1.31516841E+01
 20
1.35526247E+02
  0
VERTEX
  8
0
 62
4
 10
-1.32158827E+01
 20
1.35811429E+02
  0
VERTEX
  8
0
 62
4
 10
-1.33050756E+01
 20
1.36090015E+02
  0
VERTEX
  8
0
 62
4
 10
-1.34185840E+01
 20
1.36359885E+02
  0
VERTEX
  8
0
 62
4
 10
-1.35555441E+01
 20
1.36618986E+02
  0
VERTEX
  8
0
 62
4
 10
-1.37149135E+01
 20
1.36865346E+02
  0
VERTEX
  8
0
 62
4
 10
-1.38954794E+01
 20
1.37097089E+02
  0
VERTEX
  8
0
 62
4
 10
-1.40958674E+01
 20
1.37312452E+02
  0
VERTEX
  8
0
 62
4
 10
-1.43145526E+01
 20
1.37509795E+02
  0
VERTEX
  8
0
 62
4
 10
-1.45498706E+01
 20
1.37687618E+02
  0
VERTEX
  8
0
 62
4
 10
-1.48000305E+01
 20
1.37844566E+02
  0
VERTEX
  8
0
 62
4
 10
-1.50631284E+01
 20
1.37979446E+02
  0
VERTEX
  8
0
 62
4
 10
-1.53371620E+01
 20
1.38091230E+02
  0
VERTEX
  8
0
 62
4
 10
-1.56200457E+01
 20
1.38179068E+02
  0
VERTEX
  8
0
 62
4
 10
-1.59096267E+01
 20
1.38242291E+02
  0
VERTEX
  8
0
 62
4
 10
-1.62037010E+01
 20
1.38280418E+02
  0
VERTEX
  8
0
 62
4
 10
-1.65000305E+01
 20
1.38293160E+02
  0
VERTEX
  8
0
 62
4
 10
-1.67963600E+01
 20
1.38280418E+02
  0
VERTEX
  8
0
 62
4
 10
-1.70904343E+01
 20
1.38242291E+02
  0
VERTEX
  8
0
 62
4
 10
-1.73800153E+01
 20
1.38179068E+02
  0
VERTEX
  8
0
 62
4
 10
-1.76628990E+01
 20
1.38091230E+02
  0
VERTEX
  8
0
 62
4
 10
-1.79369326E+01
 20
1.37979446E+02
  0
VERTEX
  8
0
 62
4
 10
-1.82000305E+01
 20
1.37844566E+02
  0
VERTEX
  8
0
 62
4
 10
-1.84501904E+01
 20
1.37687618E+02
  0
VERTEX
  8
0
 62
4
 10
-1.86855084E+01
 20
1.37509795E+02
  0
VERTEX
  8
0
 62
4
 10
-1.89041936E+01
 20
1.37312452E+02
  0
VERTEX
  8
0
 62
4
 10
-1.91045816E+01
 20
1.37097089E+02
  0
VERTEX
  8
0
 62
4
 10
-1.92851475E+01
 20
1.36865346E+02
  0
VERTEX
  8
0
 62
4
 10
-1.94445169E+01
 20
1.36618986E+02
  0
VERTEX
  8
0
 62
4
 10
-1.95814770E+01
 20
1.36359885E+02
  0
VERTEX
  8
0
 62
4
 10
-1.96949854E+01
 20
1.36090015E+02
  0
VERTEX
  8
0
 62
4
 10
-1.97841783E+01
 20
1.35811429E+02
  0
VERTEX
  8
0
 62
4
 10
-1.98483769E+01
 20
1.35526247E+02
  0
VERTEX
  8
0
 62
4
 10
-1.98870925E+01
 20
1.35236641E+02
  0
VERTEX
  8
0
 62
4
 10
-1.99000305E+01
 20
1.34944813E+02
  0
SEQEND
  8
0
  0
POLYLINE
  8
0
 62
4
 66
1
  0
VERTEX
  8
0
 62
4
 10
-1.99000305E+01
 20
1.34748451E+02
  0
VERTEX
  8
0
 62
4
 10
-1.98863431E+01
 20
1.34448308E+02
  0
VERTEX
  8
0
 62
4
 10
-1.98453911E+01
 20
1.34150581E+02
  0
VERTEX
  8
0
 62
4
 10
-1.97775043E+01
 20
1.33857668E+02
  0
VERTEX
  8
0
 62
4
 10
-1.96832291E+01
 20
1.33571926E+02
  0
VERTEX
  8
0
 62
4
 10
-1.95633247E+01
 20
1.33295658E+02
  0
VERTEX
  8
0
 62
4
 10
-1.94187564E+01
 20
1.33031087E+02
  0
VERTEX
  8
0
 62
4
 10
-1.92506883E+01
 20
1.32780342E+02
  0
VERTEX
  8
0
 62
4
 10
-1.90604735E+01
 20
1.32545444E+02
  0
VERTEX
  8
0
 62
4
 10
-1.88496435E+01
 20
1.32328283E+02
  0
VERTEX
  8
0
 62
4
 10
-1.86198959E+01
 20
1.32130608E+02
  0
VERTEX
  8
0
 62
4
 10
-1.83730803E+01
 20
1.31954011E+02
  0
VERTEX
  8
0
 62
4
 10
-1.81111840E+01
 20
1.31799912E+02
  0
VERTEX
  8
0
 62
4
 10
-1.78363156E+01
 20
1.31669554E+02
  0
VERTEX
  8
0
 62
4
 10
-1.75506883E+01
 20
1.31563984E+02
  0
VERTEX
  8
0
 62
4
 10
-1.72566017E+01
 20
1.31484055E+02
  0
VERTEX
  8
0
 62
4
 10
-1.69564236E+01
 20
1.31430408E+02
  0
VERTEX
  8
0
 62
4
 10
-1.66525709E+01
 20
1.31403476E+02
  0
VERTEX
  8
0
 62
4
 10
-1.63474901E+01
 20
1.31403476E+02
  0
VERTEX
  8
0
 62
4
 10
-1.60436374E+01
 20
1.31430408E+02
  0
VERTEX
  8
0
 62
4
 10
-1.57434593E+01
 20
1.31484055E+02
  0
VERTEX
  8
0
 62
4
 10
-1.54493727E+01
 20
1.31563984E+02
  0
VERTEX
  8
0
 62
4
 10
-1.51637454E+01
 20
1.31669554E+02
  0
VERTEX
  8
0
 62
4
 10
-1.48888771E+01
 20
1.31799912E+02
  0
VERTEX
  8
0
 62
4
 10
-1.46269808E+01
 20
1.31954011E+02
  0
VERTEX
  8
0
 62
4
 10
-1.43801652E+01
 20
1.32130608E+02
  0
VERTEX
  8
0
 62
4
 10
-1.41504175E+01
 20
1.32328283E+02
  0
VERTEX
  8
0
 62
4
 10
-1.39395875E+01
 20
1.32545444E+02
  0
VERTEX
  8
0
 62
4
 10
-1.37493727E+01
 20
1.32780342E+02
  0
VERTEX
  8
0
 62
4
 10
-1.35813046E+01
 20
1.33031087E+02
  0
VERTEX
  8
0
 62
4
 10
-1.34367363E+01
 20
1.33295658E+02
  0
VERTEX
  8
0
 62
4
 10
-1.33168319E+01
 20
1.33571926E+02
  0
VERTEX
  8
0
 62
4
 10
-1.32225568E+01
 20
1.33857667E+02
  0
VERTEX
  8
0
 62
4
 10
-1.31546699E+01
 20
1.34150581E+02
  0
VERTEX
  8
0
 62
4
 10
-1.31137179E+01
 20
1.34448308E+02
  0
VERTEX
  8
0
 62
4
 10
-1.31000305E+01
 20
1.34748451E+02
  0
SEQEND
  8
0
  0
LINE
  8
0
 62
4
 10
-1.99000305E+01
 20
1.34748451E+02
 11
-1.99000305E+01
 21
1.34944813E+02
  0
LINE
  8
0
 62
4
 10
-1.27000305E+01
 20
1.34574803E+02
 11
-1.27000305E+01
 21
1.34748451E+02
  0
POLYLINE
  8
0
 62
4
 66
1
  0
VERTEX
  8
0
 62
4
 10
-2.03000305E+01
 20
1.34748451E+02
  0
VERTEX
  8
0
 62
4
 10
-2.02855704E+01
 20
1.34422291E+02
  0
VERTEX
  8
0
 62
4
 10
-2.02423000E+01
 20
1.34098613E+02
  0
VERTEX
  8
0
 62
4
 10
-2.01705487E+01
 20
1.33779880E+02
  0
VERTEX
  8
0
 62
4
 10
-2.00708625E+01
 20
1.33468519E+02
  0
VERTEX
  8
0
 62
4
 10
-1.99440001E+01
 20
1.33166900E+02
  0
VERTEX
  8
0
 62
4
 10
-1.97909271E+01
 20
1.32877316E+02
  0
VERTEX
  8
0
 62
4
 10
-1.96128083E+01
 20
1.32601973E+02
  0
VERTEX
  8
0
 62
4
 10
-1.94109994E+01
 20
1.32342967E+02
  0
VERTEX
  8
0
 62
4
 10
-1.91870363E+01
 20
1.32102267E+02
  0
VERTEX
  8
0
 62
4
 10
-1.89426234E+01
 20
1.31881706E+02
  0
VERTEX
  8
0
 62
4
 10
-1.86796210E+01
 20
1.31682963E+02
  0
VERTEX
  8
0
 62
4
 10
-1.84000305E+01
 20
1.31507551E+02
  0
VERTEX
  8
0
 62
4
 10
-1.81059799E+01
 20
1.31356803E+02
  0
VERTEX
  8
0
 62
4
 10
-1.77997071E+01
 20
1.31231868E+02
  0
VERTEX
  8
0
 62
4
 10
-1.74835429E+01
 20
1.31133696E+02
  0
VERTEX
  8
0
 62
4
 10
-1.71598936E+01
 20
1.31063035E+02
  0
VERTEX
  8
0
 62
4
 10
-1.68312223E+01
 20
1.31020422E+02
  0
VERTEX
  8
0
 62
4
 10
-1.65000305E+01
 20
1.31006182E+02
  0
VERTEX
  8
0
 62
4
 10
-1.61688387E+01
 20
1.31020422E+02
  0
VERTEX
  8
0
 62
4
 10
-1.58401674E+01
 20
1.31063035E+02
  0
VERTEX
  8
0
 62
4
 10
-1.55165181E+01
 20
1.31133696E+02
  0
VERTEX
  8
0
 62
4
 10
-1.52003540E+01
 20
1.31231868E+02
  0
VERTEX
  8
0
 62
4
 10
-1.48940811E+01
 20
1.31356803E+02
  0
VERTEX
  8
0
 62
4
 10
-1.46000305E+01
 20
1.31507551E+02
  0
VERTEX
  8
0
 62
4
 10
-1.43204400E+01
 20
1.31682963E+02
  0
VERTEX
  8
0
 62
4
 10
-1.40574376E+01
 20
1.31881706E+02
  0
VERTEX
  8
0
 62
4
 10
-1.38130247E+01
 20
1.32102267E+02
  0
VERTEX
  8
0
 62
4
 10
-1.35890616E+01
 20
1.32342967E+02
  0
VERTEX
  8
0
 62
4
 10
-1.33872527E+01
 20
1.32601973E+02
  0
VERTEX
  8
0
 62
4
 10
-1.32091339E+01
 20
1.32877316E+02
  0
VERTEX
  8
0
 62
4
 10
-1.30560609E+01
 20
1.33166900E+02
  0
VERTEX
  8
0
 62
4
 10
-1.29291985E+01
 20
1.33468519E+02
  0
VERTEX
  8
0
 62
4
 10
-1.28295123E+01
 20
1.33779880E+02
  0
VERTEX
  8
0
 62
4
 10
-1.27577610E+01
 20
1.34098613E+02
  0
VERTEX
  8
0
 62
4
 10
-1.27144906E+01
 20
1.34422291E+02
  0
VERTEX
  8
0
 62
4
 10
-1.27000305E+01
 20
1.34748451E+02
  0
VERTEX
  8
0
 62
4
 10
-1.27144906E+01
 20
1.35074611E+02
  0
VERTEX
  8
0
 62
4
 10
-1.27577610E+01
 20
1.35398289E+02
  0
VERTEX
  8
0
 62
4
 10
-1.28295123E+01
 20
1.35717022E+02
  0
VERTEX
  8
0
 62
4
 10
-1.29291985E+01
 20
1.36028383E+02
  0
VERTEX
  8
0
 62
4
 10
-1.30560609E+01
 20
1.36330002E+02
  0
VERTEX
  8
0
 62
4
 10
-1.32091339E+01
 20
1.36619586E+02
  0
VERTEX
  8
0
 62
4
 10
-1.33872527E+01
 20
1.36894929E+02
  0
VERTEX
  8
0
 62
4
 10
-1.35890616E+01
 20
1.37153935E+02
  0
VERTEX
  8
0
 62
4
 10
-1.38130247E+01
 20
1.37394635E+02
  0
VERTEX
  8
0
 62
4
 10
-1.40574376E+01
 20
1.37615196E+02
  0
VERTEX
  8
0
 62
4
 10
-1.43204400E+01
 20
1.37813939E+02
  0
VERTEX
  8
0
 62
4
 10
-1.46000305E+01
 20
1.37989351E+02
  0
VERTEX
  8
0
 62
4
 10
-1.48940811E+01
 20
1.38140099E+02
  0
VERTEX
  8
0
 62
4
 10
-1.52003539E+01
 20
1.38265034E+02
  0
VERTEX
  8
0
 62
4
 10
-1.55165181E+01
 20
1.38363206E+02
  0
VERTEX
  8
0
 62
4
 10
-1.58401674E+01
 20
1.38433867E+02
  0
VERTEX
  8
0
 62
4
 10
-1.61688387E+01
 20
1.38476480E+02
  0
VERTEX
  8
0
 62
4
 10
-1.65000305E+01
 20
1.38490720E+02
  0
VERTEX
  8
0
 62
4
 10
-1.68312223E+01
 20
1.38476480E+02
  0
VERTEX
  8
0
 62
4
 10
-1.71598936E+01
 20
1.38433867E+02
  0
VERTEX
  8
0
 62
4
 10
-1.74835429E+01
 20
1.38363206E+02
  0
VERTEX
  8
0
 62
4
 10
-1.77997071E+01
 20
1.38265034E+02
  0
VERTEX
  8
0
 62
4
 10
-1.81059799E+01
 20
1.38140099E+02
  0
VERTEX
  8
0
 62
4
 10
-1.84000305E+01
 20
1.37989351E+02
  0
VERTEX
  8
0
 62
4
 10
-1.86796210E+01
 20
1.37813939E+02
  0
VERTEX
  8
0
 62
4
 10
-1.89426234E+01
 20
1.37615196E+02
  0
VERTEX
  8
0
 62
4
 10
-1.91870363E+01
 20
1.37394635E+02
  0
VERTEX
  8
0
 62
4
 10
-1.94109994E+01
 20
1.37153935E+02
  0
VERTEX
  8
0
 62
4
 10
-1.96128083E+01
 20
1.36894929E+02
  0
VERTEX
  8
0
 62
4
 10
-1.97909271E+01
 20
1.36619586E+02
  0
VERTEX
  8
0
 62
4
 10
-1.99440001E+01
 20
1.36330002E+02
  0
VERTEX
  8
0
 62
4
 10
-2.00708625E+01
 20
1.36028383E+02
  0
VERTEX
  8
0
 62
4
 10
-2.01705487E+01
 20
1.35717022E+02
  0
VERTEX
  8
0
 62
4
 10
-2.02423000E+01
 20
1.35398289E+02
  0
VERTEX
  8
0
 62
4
 10
-2.02855704E+01
 20
1.35074611E+02
  0
VERTEX
  8
0
 62
4
 10
-2.03000305E+01
 20
1.34748451E+02
  0
SEQEND
  8
0
  0
POLYLINE
  8
0
 62
4
 66
1
  0
VERTEX
  8
0
 62
4
 10
-2.03000305E+01
 20
1.34574803E+02
  0
VERTEX
  8
0
 62
4
 10
-2.02847328E+01
 20
1.34239349E+02
  0
VERTEX
  8
0
 62
4
 10
-2.02389630E+01
 20
1.33906595E+02
  0
VERTEX
  8
0
 62
4
 10
-2.01630894E+01
 20
1.33579221E+02
  0
VERTEX
  8
0
 62
4
 10
-2.00577230E+01
 20
1.33259864E+02
  0
VERTEX
  8
0
 62
4
 10
-1.99237122E+01
 20
1.32951093E+02
  0
VERTEX
  8
0
 62
4
 10
-1.97621359E+01
 20
1.32655396E+02
  0
VERTEX
  8
0
 62
4
 10
-1.95742951E+01
 20
1.32375152E+02
  0
VERTEX
  8
0
 62
4
 10
-1.93617021E+01
 20
1.32112619E+02
  0
VERTEX
  8
0
 62
4
 10
-1.91260686E+01
 20
1.31869910E+02
  0
VERTEX
  8
0
 62
4
 10
-1.88692918E+01
 20
1.31648979E+02
  0
VERTEX
  8
0
 62
4
 10
-1.85934391E+01
 20
1.31451605E+02
  0
VERTEX
  8
0
 62
4
 10
-1.83007314E+01
 20
1.31279377E+02
  0
VERTEX
  8
0
 62
4
 10
-1.79935256E+01
 20
1.31133682E+02
  0
VERTEX
  8
0
 62
4
 10
-1.76742951E+01
 20
1.31015693E+02
  0
VERTEX
  8
0
 62
4
 10
-1.73456101E+01
 20
1.30926360E+02
  0
VERTEX
  8
0
 62
4
 10
-1.70101169E+01
 20
1.30866402E+02
  0
VERTEX
  8
0
 62
4
 10
-1.66705169E+01
 20
1.30836302E+02
  0
VERTEX
  8
0
 62
4
 10
-1.63295442E+01
 20
1.30836302E+02
  0
VERTEX
  8
0
 62
4
 10
-1.59899441E+01
 20
1.30866402E+02
  0
VERTEX
  8
0
 62
4
 10
-1.56544510E+01
 20
1.30926360E+02
  0
VERTEX
  8
0
 62
4
 10
-1.53257659E+01
 20
1.31015693E+02
  0
VERTEX
  8
0
 62
4
 10
-1.50065354E+01
 20
1.31133682E+02
  0
VERTEX
  8
0
 62
4
 10
-1.46993296E+01
 20
1.31279377E+02
  0
VERTEX
  8
0
 62
4
 10
-1.44066220E+01
 20
1.31451605E+02
  0
VERTEX
  8
0
 62
4
 10
-1.41307693E+01
 20
1.31648979E+02
  0
VERTEX
  8
0
 62
4
 10
-1.38739924E+01
 20
1.31869910E+02
  0
VERTEX
  8
0
 62
4
 10
-1.36383589E+01
 20
1.32112619E+02
  0
VERTEX
  8
0
 62
4
 10
-1.34257659E+01
 20
1.32375152E+02
  0
VERTEX
  8
0
 62
4
 10
-1.32379251E+01
 20
1.32655396E+02
  0
VERTEX
  8
0
 62
4
 10
-1.30763488E+01
 20
1.32951093E+02
  0
VERTEX
  8
0
 62
4
 10
-1.29423380E+01
 20
1.33259864E+02
  0
VERTEX
  8
0
 62
4
 10
-1.28369716E+01
 20
1.33579221E+02
  0
VERTEX
  8
0
 62
4
 10
-1.27610980E+01
 20
1.33906595E+02
  0
VERTEX
  8
0
 62
4
 10
-1.27153282E+01
 20
1.34239349E+02
  0
VERTEX
  8
0
 62
4
 10
-1.27000305E+01
 20
1.34574803E+02
  0
SEQEND
  8
0
  0
LINE
  8
0
 62
4
 10
-2.03000305E+01
 20
1.34574803E+02
 11
-2.03000305E+01
 21
1.34748451E+02
  0
ARC
  8
0
 62
4
 10
-1.56372565E+02
 20
-2.79961712E+00
 40
1.88657692E+02
 50
4.46816411E+01
 51
4.61887918E+01
  0
ARC
  8
0
 62
4
 10
1.08372793E+02
 20
-2.79991014E+00
 40
1.88658103E+02
 50
1.33811210E+02
 51
1.35318357E+02
  0
LINE
  8
0
 62
4
 10
-1.98500305E+01
 20
1.31193962E+02
 11
-1.98500305E+01
 21
1.31499583E+02
  0
LINE
  8
0
 62
4
 10
-2.81500305E+01
 20
1.31193962E+02
 11
-2.81500305E+01
 21
1.31499583E+02
  0
POLYLINE
  8
0
 62
4
 66
1
  0
VERTEX
  8
0
 62
4
 10
-1.98500305E+01
 20
1.31499583E+02
  0
VERTEX
  8
0
 62
4
 10
-1.98658225E+01
 20
1.31855784E+02
  0
VERTEX
  8
0
 62
4
 10
-1.99130783E+01
 20
1.32209275E+02
  0
VERTEX
  8
0
 62
4
 10
-1.99914383E+01
 20
1.32557364E+02
  0
VERTEX
  8
0
 62
4
 10
-2.01003061E+01
 20
1.32897403E+02
  0
VERTEX
  8
0
 62
4
 10
-2.02388532E+01
 20
1.33226804E+02
  0
VERTEX
  8
0
 62
4
 10
-2.04060251E+01
 20
1.33543059E+02
  0
VERTEX
  8
0
 62
4
 10
-2.06005495E+01
 20
1.33843762E+02
  0
VERTEX
  8
0
 62
4
 10
-2.08209461E+01
 20
1.34126625E+02
  0
VERTEX
  8
0
 62
4
 10
-2.10655374E+01
 20
1.34389495E+02
  0
VERTEX
  8
0
 62
4
 10
-2.13324619E+01
 20
1.34630370E+02
  0
VERTEX
  8
0
 62
4
 10
-2.16196883E+01
 20
1.34847418E+02
  0
VERTEX
  8
0
 62
4
 10
-2.19250305E+01
 20
1.35038987E+02
  0
VERTEX
  8
0
 62
4
 10
-2.22461647E+01
 20
1.35203620E+02
  0
VERTEX
  8
0
 62
4
 10
-2.25806469E+01
 20
1.35340062E+02
  0
VERTEX
  8
0
 62
4
 10
-2.29259315E+01
 20
1.35447276E+02
  0
VERTEX
  8
0
 62
4
 10
-2.32793906E+01
 20
1.35524445E+02
  0
VERTEX
  8
0
 62
4
 10
-2.36383342E+01
 20
1.35570983E+02
  0
VERTEX
  8
0
 62
4
 10
-2.40000305E+01
 20
1.35586535E+02
  0
VERTEX
  8
0
 62
4
 10
-2.43617268E+01
 20
1.35570983E+02
  0
VERTEX
  8
0
 62
4
 10
-2.47206704E+01
 20
1.35524445E+02
  0
VERTEX
  8
0
 62
4
 10
-2.50741295E+01
 20
1.35447276E+02
  0
VERTEX
  8
0
 62
4
 10
-2.54194141E+01
 20
1.35340062E+02
  0
VERTEX
  8
0
 62
4
 10
-2.57538963E+01
 20
1.35203620E+02
  0
VERTEX
  8
0
 62
4
 10
-2.60750305E+01
 20
1.35038987E+02
  0
VERTEX
  8
0
 62
4
 10
-2.63803727E+01
 20
1.34847418E+02
  0
VERTEX
  8
0
 62
4
 10
-2.66675991E+01
 20
1.34630370E+02
  0
VERTEX
  8
0
 62
4
 10
-2.69345236E+01
 20
1.34389495E+02
  0
VERTEX
  8
0
 62
4
 10
-2.71791149E+01
 20
1.34126625E+02
  0
VERTEX
  8
0
 62
4
 10
-2.73995115E+01
 20
1.33843762E+02
  0
VERTEX
  8
0
 62
4
 10
-2.75940359E+01
 20
1.33543059E+02
  0
VERTEX
  8
0
 62
4
 10
-2.77612078E+01
 20
1.33226804E+02
  0
VERTEX
  8
0
 62
4
 10
-2.78997549E+01
 20
1.32897403E+02
  0
VERTEX
  8
0
 62
4
 10
-2.80086227E+01
 20
1.32557364E+02
  0
VERTEX
  8
0
 62
4
 10
-2.80869827E+01
 20
1.32209275E+02
  0
VERTEX
  8
0
 62
4
 10
-2.81342385E+01
 20
1.31855784E+02
  0
VERTEX
  8
0
 62
4
 10
-2.81500305E+01
 20
1.31499583E+02
  0
VERTEX
  8
0
 62
4
 10
-2.81342385E+01
 20
1.31143382E+02
  0
VERTEX
  8
0
 62
4
 10
-2.80869827E+01
 20
1.30789891E+02
  0
VERTEX
  8
0
 62
4
 10
-2.80086227E+01
 20
1.30441802E+02
  0
VERTEX
  8
0
 62
4
 10
-2.78997549E+01
 20
1.30101763E+02
  0
VERTEX
  8
0
 62
4
 10
-2.77612078E+01
 20
1.29772362E+02
  0
VERTEX
  8
0
 62
4
 10
-2.75940359E+01
 20
1.29456107E+02
  0
VERTEX
  8
0
 62
4
 10
-2.73995115E+01
 20
1.29155404E+02
  0
VERTEX
  8
0
 62
4
 10
-2.71791149E+01
 20
1.28872541E+02
  0
VERTEX
  8
0
 62
4
 10
-2.69345236E+01
 20
1.28609671E+02
  0
VERTEX
  8
0
 62
4
 10
-2.66675991E+01
 20
1.28368796E+02
  0
VERTEX
  8
0
 62
4
 10
-2.63803727E+01
 20
1.28151748E+02
  0
VERTEX
  8
0
 62
4
 10
-2.60750305E+01
 20
1.27960179E+02
  0
VERTEX
  8
0
 62
4
 10
-2.57538963E+01
 20
1.27795546E+02
  0
VERTEX
  8
0
 62
4
 10
-2.54194141E+01
 20
1.27659104E+02
  0
VERTEX
  8
0
 62
4
 10
-2.50741295E+01
 20
1.27551890E+02
  0
VERTEX
  8
0
 62
4
 10
-2.47206704E+01
 20
1.27474721E+02
  0
VERTEX
  8
0
 62
4
 10
-2.43617268E+01
 20
1.27428183E+02
  0
VERTEX
  8
0
 62
4
 10
-2.40000305E+01
 20
1.27412631E+02
  0
VERTEX
  8
0
 62
4
 10
-2.36383342E+01
 20
1.27428183E+02
  0
VERTEX
  8
0
 62
4
 10
-2.32793906E+01
 20
1.27474721E+02
  0
VERTEX
  8
0
 62
4
 10
-2.29259315E+01
 20
1.27551890E+02
  0
VERTEX
  8
0
 62
4
 10
-2.25806469E+01
 20
1.27659104E+02
  0
VERTEX
  8
0
 62
4
 10
-2.22461647E+01
 20
1.27795546E+02
  0
VERTEX
  8
0
 62
4
 10
-2.19250305E+01
 20
1.27960179E+02
  0
VERTEX
  8
0
 62
4
 10
-2.16196883E+01
 20
1.28151748E+02
  0
VERTEX
  8
0
 62
4
 10
-2.13324619E+01
 20
1.28368796E+02
  0
VERTEX
  8
0
 62
4
 10
-2.10655374E+01
 20
1.28609671E+02
  0
VERTEX
  8
0
 62
4
 10
-2.08209461E+01
 20
1.28872541E+02
  0
VERTEX
  8
0
 62
4
 10
-2.06005495E+01
 20
1.29155404E+02
  0
VERTEX
  8
0
 62
4
 10
-2.04060251E+01
 20
1.29456107E+02
  0
VERTEX
  8
0
 62
4
 10
-2.02388532E+01
 20
1.29772362E+02
  0
VERTEX
  8
0
 62
4
 10
-2.01003061E+01
 20
1.30101763E+02
  0
VERTEX
  8
0
 62
4
 10
-1.99914383E+01
 20
1.30441802E+02
  0
VERTEX
  8
0
 62
4
 10
-1.99130783E+01
 20
1.30789891E+02
  0
VERTEX
  8
0
 62
4
 10
-1.98658225E+01
 20
1.31143382E+02
  0
VERTEX
  8
0
 62
4
 10
-1.98500305E+01
 20
1.31499583E+02
  0
SEQEND
  8
0
  0
POLYLINE
  8
0
 62
4
 66
1
  0
VERTEX
  8
0
 62
4
 10
-2.81500305E+01
 20
1.31193962E+02
  0
VERTEX
  8
0
 62
4
 10
-2.81333238E+01
 20
1.30827610E+02
  0
VERTEX
  8
0
 62
4
 10
-2.80833383E+01
 20
1.30464209E+02
  0
VERTEX
  8
0
 62
4
 10
-2.80004764E+01
 20
1.30106682E+02
  0
VERTEX
  8
0
 62
4
 10
-2.78854052E+01
 20
1.29757910E+02
  0
VERTEX
  8
0
 62
4
 10
-2.77390513E+01
 20
1.29420700E+02
  0
VERTEX
  8
0
 62
4
 10
-2.75625930E+01
 20
1.29097767E+02
  0
VERTEX
  8
0
 62
4
 10
-2.73574510E+01
 20
1.28791712E+02
  0
VERTEX
  8
0
 62
4
 10
-2.71252771E+01
 20
1.28504998E+02
  0
VERTEX
  8
0
 62
4
 10
-2.68679405E+01
 20
1.28239934E+02
  0
VERTEX
  8
0
 62
4
 10
-2.65875132E+01
 20
1.27998654E+02
  0
VERTEX
  8
0
 62
4
 10
-2.62862530E+01
 20
1.27783101E+02
  0
VERTEX
  8
0
 62
4
 10
-2.59665855E+01
 20
1.27595010E+02
  0
VERTEX
  8
0
 62
4
 10
-2.56310844E+01
 20
1.27435896E+02
  0
VERTEX
  8
0
 62
4
 10
-2.52824510E+01
 20
1.27307040E+02
  0
VERTEX
  8
0
 62
4
 10
-2.49234924E+01
 20
1.27209478E+02
  0
VERTEX
  8
0
 62
4
 10
-2.45570986E+01
 20
1.27143998E+02
  0
VERTEX
  8
0
 62
4
 10
-2.41862196E+01
 20
1.27111125E+02
  0
VERTEX
  8
0
 62
4
 10
-2.38138415E+01
 20
1.27111125E+02
  0
VERTEX
  8
0
 62
4
 10
-2.34429625E+01
 20
1.27143998E+02
  0
VERTEX
  8
0
 62
4
 10
-2.30765686E+01
 20
1.27209478E+02
  0
VERTEX
  8
0
 62
4
 10
-2.27176100E+01
 20
1.27307039E+02
  0
VERTEX
  8
0
 62
4
 10
-2.23689766E+01
 20
1.27435896E+02
  0
VERTEX
  8
0
 62
4
 10
-2.20334756E+01
 20
1.27595010E+02
  0
VERTEX
  8
0
 62
4
 10
-2.17138080E+01
 20
1.27783101E+02
  0
VERTEX
  8
0
 62
4
 10
-2.14125478E+01
 20
1.27998654E+02
  0
VERTEX
  8
0
 62
4
 10
-2.11321205E+01
 20
1.28239934E+02
  0
VERTEX
  8
0
 62
4
 10
-2.08747839E+01
 20
1.28504998E+02
  0
VERTEX
  8
0
 62
4
 10
-2.06426100E+01
 20
1.28791712E+02
  0
VERTEX
  8
0
 62
4
 10
-2.04374680E+01
 20
1.29097767E+02
  0
VERTEX
  8
0
 62
4
 10
-2.02610097E+01
 20
1.29420700E+02
  0
VERTEX
  8
0
 62
4
 10
-2.01146558E+01
 20
1.29757910E+02
  0
VERTEX
  8
0
 62
4
 10
-1.99995846E+01
 20
1.30106682E+02
  0
VERTEX
  8
0
 62
4
 10
-1.99167227E+01
 20
1.30464208E+02
  0
VERTEX
  8
0
 62
4
 10
-1.98667372E+01
 20
1.30827610E+02
  0
VERTEX
  8
0
 62
4
 10
-1.98500305E+01
 20
1.31193962E+02
  0
SEQEND
  8
0
  0
LINE
  8
0
  6
CENTER
 62
6
 10
-3.15000305E+01
 20
1.37074803E+02
 11
-3.15000305E+01
 21
1.32074803E+02
  0
LINE
  8
0
  6
CENTER
 62
6
 10
-2.90000305E+01
 20
1.34574803E+02
 11
-3.40000305E+01
 21
1.34574803E+02
  0
LINE
  8
0
  6
CENTER
 62
6
 10
-2.40000305E+01
 20
1.33627976E+02
 11
-2.40000305E+01
 21
1.28627976E+02
  0
LINE
  8
0
  6
CENTER
 62
6
 10
-2.15000305E+01
 20
1.31127976E+02
 11
-2.65000305E+01
 21
1.31127976E+02
  0
LINE
  8
0
  6
CENTER
 62
6
 10
-1.65000305E+01
 20
1.37074803E+02
 11
-1.65000305E+01
 21
1.32074803E+02
  0
LINE
  8
0
  6
CENTER
 62
6
 10
-1.40000305E+01
 20
1.34574803E+02
 11
-1.90000305E+01
 21
1.34574803E+02
  0
LINE
  8
0
 62
4
 10
-2.06629075E+01
 20
1.28764437E+02
 11
-9.00003052E+00
 21
1.28764437E+02
  0
LINE
  8
0
 62
4
 10
-2.10627857E+01
 20
1.28306763E+02
 11
-1.55000305E+01
 21
1.28306763E+02
  0
LINE
  8
0
 62
4
 10
4.99999695E+01
 20
1.28306763E+02
 11
5.14999695E+01
 21
1.27298906E+02
  0
LINE
  8
0
 62
4
 10
5.14999695E+01
 20
1.25068317E+02
 11
4.99999695E+01
 21
1.24367532E+02
  0
LINE
  8
0
 62
4
 10
5.14999695E+01
 20
1.24675004E+02
 11
4.99999695E+01
 21
1.23672939E+02
  0
LINE
  8
0
 62
4
 10
5.14999695E+01
 20
1.27298906E+02
 11
5.14999695E+01
 21
1.24675004E+02
  0
LINE
  8
0
 62
4
 10
-1.55000305E+01
 20
1.27489851E+02
 11
-9.00003052E+00
 21
1.27489851E+02
  0
LINE
  8
0
 62
4
 10
-1.55000305E+01
 20
1.24489851E+02
 11
-9.00003052E+00
 21
1.24489851E+02
  0
LINE
  8
0
 62
4
 10
-1.55000305E+01
 20
1.27489851E+02
 11
1.86599489E+00
 21
1.27489851E+02
  0
LINE
  8
0
  6
CENTER
 62
6
 10
-4.40000305E+01
 20
1.25989851E+02
 11
2.99996949E+00
 21
1.25989851E+02
  0
LINE
  8
0
 62
4
 10
-1.55000305E+01
 20
1.24489851E+02
 11
1.33944098E-01
 21
1.24489851E+02
  0
LINE
  8
0
 62
4
 10
2.00000305E+01
 20
1.24489851E+02
 11
9.13400512E+00
 21
1.24489851E+02
  0
LINE
  8
0
  6
CENTER
 62
6
 10
5.50000305E+01
 20
1.25989851E+02
 11
8.00003053E+00
 21
1.25989851E+02
  0
LINE
  8
0
 62
4
 10
2.00000305E+01
 20
1.27489851E+02
 11
1.08660559E+01
 21
1.27489851E+02
  0
LINE
  8
0
 62
6
 10
-7.32081342E-01
 20
1.22989851E+02
 11
2.73202027E+00
 21
1.28989851E+02
  0
LINE
  8
0
 62
6
 10
1.17320814E+01
 20
1.28989851E+02
 11
8.26797974E+00
 21
1.22989851E+02
  0
LINE
  8
0
 62
4
 10
-9.00003052E+00
 20
1.27489851E+02
 11
-9.00003052E+00
 21
1.39006438E+02
  0
LINE
  8
0
 62
7
 10
-2.42999954E+02
 20
9.34999695E+01
 11
-2.36500000E+02
 21
9.34999695E+01
  0
LINE
  8
0
 62
2
 10
-2.42999954E+02
 20
9.43199615E+01
 11
-2.36500000E+02
 21
9.43199615E+01
  0
LINE
  8
0
 62
2
 10
-2.42999954E+02
 20
1.06679993E+02
 11
-2.36500000E+02
 21
1.06679993E+02
  0
LINE
  8
0
 62
7
 10
-2.42999954E+02
 20
1.07499985E+02
 11
-2.36500000E+02
 21
1.07499985E+02
  0
ARC
  8
0
 62
4
 10
-2.48622764E+02
 20
9.09737206E+01
 40
5.62281017E+00
 50
3.25615753E+02
 51
3.43842467E+01
  0
ARC
  8
0
 62
4
 10
-2.64017474E+02
 20
1.00500000E+02
 40
2.10175199E+01
 50
3.42412047E+02
 51
1.75879537E+01
  0
ARC
  8
0
 62
4
 10
-2.48622764E+02
 20
1.10026279E+02
 40
5.62281003E+00
 50
3.25615753E+02
 51
3.43842476E+01
  0
ARC
  8
0
 62
4
 10
-2.45377144E+02
 20
9.09737206E+01
 40
5.62281017E+00
 50
1.45615753E+02
 51
2.14384247E+02
  0
ARC
  8
0
 62
4
 10
-2.29982434E+02
 20
1.00500000E+02
 40
2.10175199E+01
 50
1.62412046E+02
 51
1.97587953E+02
  0
ARC
  8
0
 62
4
 10
-2.45377144E+02
 20
1.10026279E+02
 40
5.62281003E+00
 50
1.45615752E+02
 51
2.14384247E+02
  0
LINE
  8
0
 62
4
 10
-2.50017474E+02
 20
8.77982941E+01
 11
-2.43982435E+02
 21
8.77982941E+01
  0
LINE
  8
0
 62
4
 10
-2.42999954E+02
 20
8.95000000E+01
 11
-2.43982435E+02
 21
8.77982939E+01
  0
LINE
  8
0
 62
4
 10
-2.50999954E+02
 20
8.95000001E+01
 11
-2.50017474E+02
 21
8.77982941E+01
  0
LINE
  8
0
 62
4
 10
-2.42999954E+02
 20
1.11500000E+02
 11
-2.43982435E+02
 21
1.13201706E+02
  0
LINE
  8
0
 62
4
 10
-2.50999954E+02
 20
1.11500000E+02
 11
-2.50017474E+02
 21
1.13201706E+02
  0
LINE
  8
0
 62
4
 10
-2.42999954E+02
 20
8.95000000E+01
 11
-2.42999954E+02
 21
1.11500000E+02
  0
LINE
  8
0
 62
4
 10
-2.50999954E+02
 20
8.95000000E+01
 11
-2.50999954E+02
 21
1.11500000E+02
  0
LINE
  8
0
 62
4
 10
-2.50017474E+02
 20
9.41491470E+01
 11
-2.43982435E+02
 21
9.41491470E+01
  0
LINE
  8
0
 62
4
 10
-2.50017474E+02
 20
1.06850853E+02
 11
-2.43982435E+02
 21
1.06850853E+02
  0
LINE
  8
0
 62
4
 10
-2.50017474E+02
 20
1.13201706E+02
 11
-2.43982435E+02
 21
1.13201706E+02
  0
ARC
  8
0
 62
7
 10
-2.33500000E+02
 20
1.00500000E+02
 40
8.00000000E+00
 50
3.31044960E+02
 51
2.89550399E+01
  0
ARC
  8
0
 62
7
 10
-2.10000000E+02
 20
1.16000000E+02
 40
5.00000000E-01
 50
8.99999818E+01
 51
1.79999964E+02
  0
ARC
  8
0
 62
7
 10
8.89999714E+01
 20
1.16000000E+02
 40
5.00000000E-01
 50
5.46415133E-05
 51
9.00000369E+01
  0
ARC
  8
0
 62
7
 10
8.89999714E+01
 20
8.50000000E+01
 40
5.00000000E-01
 50
2.70000073E+02
 51
5.46415133E-05
  0
ARC
  8
0
 62
7
 10
-2.23000031E+02
 20
1.15000000E+02
 40
5.00000000E-01
 50
8.99999818E+01
 51
1.79999964E+02
  0
ARC
  8
0
 62
7
 10
-2.18250000E+02
 20
8.54913940E+01
 40
2.50000000E-01
 50
1.79999977E+02
 51
2.67999192E+02
  0
ARC
  8
0
 62
7
 10
-2.10000000E+02
 20
8.50000000E+01
 40
5.00000000E-01
 50
1.79999977E+02
 51
2.69999974E+02
  0
ARC
  8
0
 62
7
 10
-2.23000031E+02
 20
8.60000000E+01
 40
5.00000000E-01
 50
1.79999977E+02
 51
2.69999974E+02
  0
ARC
  8
0
 62
7
 10
-2.18250000E+02
 20
1.15508606E+02
 40
2.50000000E-01
 50
9.20007356E+01
 51
1.79999964E+02
  0
CIRCLE
  8
0
 62
7
 10
-1.69500015E+02
 20
1.00500000E+02
 40
3.29999971E+00
  0
CIRCLE
  8
0
 62
7
 10
-1.69500015E+02
 20
1.00500000E+02
 40
8.00000000E+00
  0
CIRCLE
  8
0
 62
7
 10
-1.69500015E+02
 20
1.00500000E+02
 40
4.00000000E+00
  0
LINE
  8
0
 62
7
 10
-2.33499979E+02
 20
9.34999615E+01
 11
-2.30499990E+02
 21
9.24999801E+01
  0
LINE
  8
0
 62
7
 10
-2.33499985E+02
 20
1.00499984E+02
 11
-2.30499991E+02
 21
9.66270064E+01
  0
LINE
  8
0
 62
7
 10
-2.30500008E+02
 20
1.08500009E+02
 11
-2.33500013E+02
 21
1.07499977E+02
  0
LINE
  8
0
 62
7
 10
-2.33499996E+02
 20
1.00499996E+02
 11
-2.30499997E+02
 21
1.04372980E+02
  0
LINE
  8
0
 62
7
 10
-2.30500000E+02
 20
9.66270142E+01
 11
-2.26500000E+02
 21
9.66270142E+01
  0
LINE
  8
0
  6
CENTER
 62
2
 10
-6.25000305E+01
 20
1.27252365E+02
 11
-6.25000305E+01
 21
1.16071762E+02
  0
LINE
  8
0
 62
7
 10
-2.57499973E+02
 20
9.49999566E+01
 11
-2.55999960E+02
 21
9.34999442E+01
  0
LINE
  8
0
 62
7
 10
-2.57499889E+02
 20
1.05999899E+02
 11
-2.55999942E+02
 21
1.07499891E+02
  0
LINE
  8
0
 62
7
 10
-2.36500000E+02
 20
1.07499985E+02
 11
-2.36500000E+02
 21
9.34999695E+01
  0
LINE
  8
0
 62
7
 10
-2.55999969E+02
 20
1.07499985E+02
 11
-2.55999969E+02
 21
9.34999695E+01
  0
LINE
  8
0
 62
2
 10
-2.56819916E+02
 20
9.43199615E+01
 11
-2.50999954E+02
 21
9.43199615E+01
  0
LINE
  8
0
 62
2
 10
-2.56819916E+02
 20
1.06679993E+02
 11
-2.50999954E+02
 21
1.06679993E+02
  0
LINE
  8
0
 62
7
 10
-2.55999969E+02
 20
9.34999695E+01
 11
-2.50999954E+02
 21
9.34999695E+01
  0
LINE
  8
0
 62
7
 10
-2.55999969E+02
 20
1.07499985E+02
 11
-2.50999954E+02
 21
1.07499985E+02
  0
LINE
  8
0
 62
7
 10
-2.57499969E+02
 20
9.49999542E+01
 11
-2.57499969E+02
 21
1.05999985E+02
  0
LINE
  8
0
 62
7
 10
-2.33500000E+02
 20
9.34999695E+01
 11
-2.33500000E+02
 21
1.07499985E+02
  0
LINE
  8
0
 62
7
 10
-2.30500000E+02
 20
9.24999847E+01
 11
-2.23500031E+02
 21
9.24999847E+01
  0
LINE
  8
0
 62
7
 10
-2.30500000E+02
 20
1.04372986E+02
 11
-2.30500000E+02
 21
1.08499969E+02
  0
LINE
  8
0
 62
7
 10
-2.26500000E+02
 20
9.66270142E+01
 11
-2.26500000E+02
 21
1.04372986E+02
  0
LINE
  8
0
 62
7
 10
-2.18258718E+02
 20
1.15758488E+02
 11
-2.10499150E+02
 21
1.16029458E+02
  0
LINE
  8
0
 62
7
 10
8.24999723E+01
 20
1.24845398E+02
 11
8.24999723E+01
 21
1.25500000E+02
  0
LINE
  8
0
 62
7
 10
8.74999942E+01
 20
1.24714428E+02
 11
5.64999623E+01
 21
1.25526192E+02
  0
LINE
  8
0
 62
7
 10
-2.30500000E+02
 20
9.66270142E+01
 11
-2.30500000E+02
 21
9.24999847E+01
  0
LINE
  8
0
 62
2
 10
-2.31884610E+02
 20
1.02585465E+02
 11
-2.26499996E+02
 21
9.66270273E+01
  0
LINE
  8
0
 62
2
 10
-2.31884596E+02
 20
9.84145363E+01
 11
-2.26499977E+02
 21
1.04372980E+02
  0
LINE
  8
0
 62
7
 10
-2.30500000E+02
 20
1.08500015E+02
 11
-2.23500031E+02
 21
1.08500015E+02
  0
LINE
  8
0
 62
7
 10
-2.30500000E+02
 20
1.04372986E+02
 11
-2.26500000E+02
 21
1.04372986E+02
  0
LINE
  8
0
 62
7
 10
5.64999571E+01
 20
1.21649994E+02
 11
4.99999695E+01
 21
1.21649994E+02
  0
LINE
  8
0
 62
7
 10
8.94999714E+01
 20
1.16000000E+02
 11
8.94999714E+01
 21
8.49705811E+01
  0
LINE
  8
0
 62
7
 10
-7.55000305E+01
 20
7.61546021E+01
 11
-7.55000305E+01
 21
7.55000000E+01
  0
LINE
  8
0
 62
7
 10
-8.05000943E+01
 20
7.62855596E+01
 11
-4.95000776E+01
 21
7.54737956E+01
  0
LINE
  8
0
 62
7
 10
-7.55000305E+01
 20
7.55000000E+01
 11
-4.95000305E+01
 21
7.55000000E+01
  0
LINE
  8
0
 62
7
 10
-4.95000305E+01
 20
1.25500000E+02
 11
-4.95000305E+01
 21
7.54738007E+01
  0
LINE
  8
0
 62
7
 10
-2.10000000E+02
 20
8.45000000E+01
 11
-2.08500000E+02
 21
8.45000000E+01
  0
LINE
  8
0
 62
7
 10
-2.18500000E+02
 20
8.54999695E+01
 11
-2.18500000E+02
 21
1.15508606E+02
  0
LINE
  8
0
 62
7
 10
-2.10500000E+02
 20
1.16000000E+02
 11
-2.10500000E+02
 21
8.49705811E+01
  0
LINE
  8
0
  6
CENTER
 62
2
 10
6.94999719E+01
 20
1.27252365E+02
 11
6.94999719E+01
 21
1.16071762E+02
  0
LINE
  8
0
 62
7
 10
8.24999723E+01
 20
7.61546021E+01
 11
8.24999723E+01
 21
7.55000000E+01
  0
LINE
  8
0
 62
7
 10
-2.18258713E+02
 20
8.52415343E+01
 11
-2.10499130E+02
 21
8.49705637E+01
  0
LINE
  8
0
 62
7
 10
8.75000048E+01
 20
7.62855585E+01
 11
5.64999719E+01
 21
7.54737941E+01
  0
LINE
  8
0
 62
7
 10
8.24999723E+01
 20
7.55000000E+01
 11
5.64999723E+01
 21
7.55000000E+01
  0
LINE
  8
0
 62
7
 10
8.74999714E+01
 20
1.24714432E+02
 11
8.74999714E+01
 21
7.62855682E+01
  0
LINE
  8
0
 62
7
 10
5.64999723E+01
 20
1.25500000E+02
 11
5.64999723E+01
 21
7.55000000E+01
  0
LINE
  8
0
 62
7
 10
8.89999714E+01
 20
8.45000000E+01
 11
8.74999714E+01
 21
8.45000000E+01
  0
LINE
  8
0
 62
7
 10
-2.23000031E+02
 20
8.54999695E+01
 11
-2.18491058E+02
 21
8.54999695E+01
  0
LINE
  8
0
 62
7
 10
-2.23500000E+02
 20
8.60000000E+01
 11
-2.23500000E+02
 21
1.15000000E+02
  0
LINE
  8
0
 62
7
 10
-2.10000000E+02
 20
1.16500000E+02
 11
-2.08500000E+02
 21
1.16500000E+02
  0
LINE
  8
0
 62
7
 10
-7.55000305E+01
 20
1.24845398E+02
 11
-7.55000305E+01
 21
1.25500000E+02
  0
LINE
  8
0
 62
7
 10
-8.05000931E+01
 20
1.24714419E+02
 11
-4.95000688E+01
 21
1.25526183E+02
  0
LINE
  8
0
 62
7
 10
-7.55000305E+01
 20
1.25500000E+02
 11
-4.95000305E+01
 21
1.25500000E+02
  0
LINE
  8
0
 62
7
 10
-2.36500000E+02
 20
9.43199615E+01
 11
-2.33500000E+02
 21
9.43199615E+01
  0
LINE
  8
0
 62
7
 10
-2.36500000E+02
 20
1.06679993E+02
 11
-2.33500000E+02
 21
1.06679993E+02
  0
LINE
  8
0
 62
7
 10
5.64999723E+01
 20
7.85000153E+01
 11
-4.95000305E+01
 21
7.85000153E+01
  0
LINE
  8
0
 62
7
 10
8.89999714E+01
 20
1.16500000E+02
 11
8.74999714E+01
 21
1.16500000E+02
  0
LINE
  8
0
 62
7
 10
-2.23000031E+02
 20
1.15500031E+02
 11
-2.18491058E+02
 21
1.15500031E+02
  0
LINE
  8
0
 62
7
 10
5.64999723E+01
 20
1.22499985E+02
 11
4.99999695E+01
 21
1.22499985E+02
  0
LINE
  8
0
 62
7
 10
8.24999723E+01
 20
1.25500000E+02
 11
5.64999723E+01
 21
1.25500000E+02
  0
LINE
  8
0
  6
CENTER
 62
2
 10
8.97269917E+01
 20
1.19000000E+02
 11
-8.26034546E+01
 21
1.19000000E+02
  0
LINE
  8
0
 62
7
 10
5.64999571E+01
 20
7.93500061E+01
 11
-4.95000000E+01
 21
7.93500061E+01
  0
LINE
  8
0
 62
7
 10
5.64999723E+01
 20
8.46499939E+01
 11
-4.95000305E+01
 21
8.46499939E+01
  0
LINE
  8
0
  6
CENTER
 62
2
 10
8.97269917E+01
 20
8.20000000E+01
 11
-8.26034546E+01
 21
8.20000000E+01
  0
LINE
  8
0
 62
7
 10
5.64999723E+01
 20
1.16350006E+02
 11
3.49999695E+01
 21
1.16350006E+02
  0
LINE
  8
0
  6
CENTER
 62
2
 10
-1.69500015E+02
 20
1.11984344E+02
 11
-1.69500015E+02
 21
8.87921982E+01
  0
LINE
  8
0
 62
7
 10
-1.08500000E+02
 20
1.31499985E+02
 11
-1.08500000E+02
 21
6.95000000E+01
  0
LINE
  8
0
 62
7
 10
-1.08500061E+02
 20
6.95000000E+01
 11
-8.05000305E+01
 21
6.95000000E+01
  0
LINE
  8
0
 62
7
 10
-2.08500000E+02
 20
1.31499985E+02
 11
-2.08500000E+02
 21
6.95000000E+01
  0
LINE
  8
0
 62
7
 10
-2.08500061E+02
 20
6.95000000E+01
 11
-1.81500031E+02
 21
6.95000000E+01
  0
LINE
  8
0
 62
7
 10
-1.67500000E+02
 20
1.01654831E+02
 11
-1.67500000E+02
 21
9.93452911E+01
  0
LINE
  8
0
 62
7
 10
-1.67499918E+02
 20
9.93451538E+01
 11
-1.69499905E+02
 21
9.81904598E+01
  0
LINE
  8
0
 62
7
 10
-1.69499942E+02
 20
9.81905828E+01
 11
-1.71499956E+02
 21
9.93452920E+01
  0
LINE
  8
0
 62
7
 10
-1.71499985E+02
 20
9.93452911E+01
 11
-1.71499985E+02
 21
1.01654716E+02
  0
LINE
  8
0
 62
7
 10
-1.66035919E+02
 20
9.44999847E+01
 11
-1.72964172E+02
 21
9.44999847E+01
  0
LINE
  8
0
 62
7
 10
-1.72964207E+02
 20
9.44998813E+01
 11
-1.76428307E+02
 21
1.00499887E+02
  0
LINE
  8
0
 62
7
 10
-1.81499985E+02
 20
7.96499786E+01
 11
-1.08500000E+02
 21
7.96499786E+01
  0
LINE
  8
0
 62
7
 10
-1.81499985E+02
 20
7.43499908E+01
 11
-1.08500000E+02
 21
7.43499908E+01
  0
LINE
  8
0
 62
7
 10
-1.66036052E+02
 20
9.45001219E+01
 11
-1.62571954E+02
 21
1.00500125E+02
  0
LINE
  8
0
 62
7
 10
-1.81500031E+02
 20
1.28000000E+02
 11
-1.08500061E+02
 21
1.28000000E+02
  0
LINE
  8
0
 62
7
 10
-1.08500061E+02
 20
1.31499985E+02
 11
-8.05000305E+01
 21
1.31499985E+02
  0
LINE
  8
0
 62
7
 10
-8.05000305E+01
 20
1.31499985E+02
 11
-8.05000305E+01
 21
6.95000000E+01
  0
LINE
  8
0
 62
7
 10
-2.08500061E+02
 20
1.31499985E+02
 11
-1.81500031E+02
 21
1.31499985E+02
  0
LINE
  8
0
 62
7
 10
-1.81500031E+02
 20
7.30000000E+01
 11
-1.08500061E+02
 21
7.30000000E+01
  0
LINE
  8
0
 62
7
 10
-1.81499985E+02
 20
1.31499985E+02
 11
-1.81499985E+02
 21
6.95000000E+01
  0
LINE
  8
0
  6
CENTER
 62
2
 10
-9.75000000E+01
 20
1.16000000E+02
 11
-9.75000000E+01
 21
1.33048752E+02
  0
LINE
  8
0
  6
CENTER
 62
2
 10
-2.10727020E+02
 20
7.69999847E+01
 11
-7.83025360E+01
 21
7.69999847E+01
  0
LINE
  8
0
  6
CENTER
 62
2
 10
-2.60378906E+02
 20
1.00500000E+02
 11
9.83872128E+01
 21
1.00500000E+02
  0
LINE
  8
0
 62
7
 10
-1.67499862E+02
 20
1.01654820E+02
 11
-1.69499837E+02
 21
1.02809506E+02
  0
LINE
  8
0
 62
7
 10
-1.69499953E+02
 20
1.02809376E+02
 11
-1.71499927E+02
 21
1.01654689E+02
  0
LINE
  8
0
 62
7
 10
-1.72964249E+02
 20
1.06500082E+02
 11
-1.76428340E+02
 21
1.00500092E+02
  0
LINE
  8
0
 62
7
 10
-1.66035919E+02
 20
1.06500008E+02
 11
-1.72964172E+02
 21
1.06500008E+02
  0
LINE
  8
0
 62
7
 10
-1.66036021E+02
 20
1.06499920E+02
 11
-1.62571921E+02
 21
1.00499914E+02
  0
LINE
  8
0
 62
7
 10
-1.81499985E+02
 20
1.26649994E+02
 11
-1.08500000E+02
 21
1.26649994E+02
  0
LINE
  8
0
  6
CENTER
 62
2
 10
-2.10727020E+02
 20
1.24000000E+02
 11
-7.88661728E+01
 21
1.24000000E+02
  0
LINE
  8
0
 62
7
 10
-1.81499985E+02
 20
1.21350006E+02
 11
-1.08500000E+02
 21
1.21350006E+02
  0
CIRCLE
  8
0
 62
7
 10
-4.18500000E+02
 20
1.00500000E+02
 40
6.99998474E+00
  0
LINE
  8
0
  6
CENTER
 62
2
 10
-3.99999878E+02
 20
7.33769989E+01
 11
-3.99999878E+02
 21
9.00195007E+01
  0
LINE
  8
0
  6
CENTER
 62
2
 10
-3.91555298E+02
 20
8.20000153E+01
 11
-4.06367371E+02
 21
8.20000153E+01
  0
LINE
  8
0
  6
CENTER
 62
2
 10
-4.36999939E+02
 20
7.36119461E+01
 11
-4.36999939E+02
 21
8.95763397E+01
  0
LINE
  8
0
  6
CENTER
 62
2
 10
-4.30618591E+02
 20
8.20000153E+01
 11
-4.45140259E+02
 21
8.20000153E+01
  0
LINE
  8
0
  6
CENTER
 62
2
 10
-4.37000061E+02
 20
1.27506653E+02
 11
-4.37000061E+02
 21
1.12585510E+02
  0
LINE
  8
0
  6
CENTER
 62
2
 10
-4.30618591E+02
 20
1.19000076E+02
 11
-4.45140259E+02
 21
1.19000076E+02
  0
LINE
  8
0
  6
CENTER
 62
2
 10
-4.00000000E+02
 20
1.27402649E+02
 11
-4.00000000E+02
 21
1.11115662E+02
  0
LINE
  8
0
  6
CENTER
 62
2
 10
-3.91410095E+02
 20
1.19000076E+02
 11
-4.06076965E+02
 21
1.19000076E+02
  0
CIRCLE
  8
0
 62
7
 10
-4.42000061E+02
 20
7.69999847E+01
 40
2.45850000E+00
  0
CIRCLE
  8
0
 62
7
 10
-3.95000000E+02
 20
7.69999847E+01
 40
2.45850000E+00
  0
CIRCLE
  8
0
 62
7
 10
-3.95000000E+02
 20
1.24000000E+02
 40
2.45850000E+00
  0
CIRCLE
  8
0
 62
7
 10
-4.42000061E+02
 20
1.24000000E+02
 40
2.45850000E+00
  0
LINE
  8
0
  6
DASHED
 62
4
 10
-4.18055902E+02
 20
1.31576526E+02
 11
-4.18168633E+02
 21
1.31596403E+02
  0
ARC
  8
0
 62
4
 10
-4.07198936E+02
 20
1.33114600E+02
 40
1.18100000E+01
 50
1.57172490E+02
 51
1.63117791E+02
  0
ARC
  8
0
  6
DASHED
 62
4
 10
-4.07302788E+02
 20
1.29586777E+02
 40
1.18100000E+01
 50
1.67900933E+02
 51
1.70676982E+02
  0
ARC
  8
0
  6
DASHED
 62
4
 10
-4.17995775E+02
 20
1.32581350E+02
 40
1.00000000E+00
 50
1.82827510E+02
 51
2.60000000E+02
  0
LINE
  8
0
 62
4
 10
-4.17621902E+02
 20
1.31500000E+02
 11
-4.18055902E+02
 21
1.31576526E+02
  0
ARC
  8
0
  6
DASHED
 62
4
 10
-4.07198936E+02
 20
1.33114600E+02
 40
1.18100000E+01
 50
1.63117791E+02
 51
1.82827510E+02
  0
LINE
  8
0
 62
4
 10
-4.15874993E+02
 20
1.38096874E+02
 11
-4.16987825E+02
 21
1.38293096E+02
  0
ARC
  8
0
 62
4
 10
-4.17162264E+02
 20
1.37308428E+02
 40
1.00000000E+00
 50
7.99999999E+01
 51
1.57172490E+02
  0
LINE
  8
0
 62
4
 10
-4.14699172E+02
 20
1.39006514E+02
 11
-4.04555652E+02
 21
1.37217938E+02
  0
LINE
  8
0
 62
4
 10
-4.04555652E+02
 20
1.37217938E+02
 11
-4.05563879E+02
 21
1.31500000E+02
  0
LINE
  8
0
  6
CENTER
 62
6
 10
-3.98042082E+02
 20
1.31500000E+02
 11
-4.16649135E+02
 21
1.34780925E+02
  0
LINE
  8
0
 62
4
 10
-3.97661998E+02
 20
1.36002401E+02
 11
-3.96023258E+02
 21
1.31500000E+02
  0
LINE
  8
0
 62
4
 10
-4.04555652E+02
 20
1.37217938E+02
 11
-3.97661998E+02
 21
1.36002401E+02
  0
LINE
  8
0
 62
4
 10
-4.14820726E+02
 20
1.38317149E+02
 11
-4.15805533E+02
 21
1.38490797E+02
  0
LINE
  8
0
 62
4
 10
-4.17038199E+02
 20
1.31500000E+02
 11
-4.15805533E+02
 21
1.38490797E+02
  0
LINE
  8
0
 62
4
 10
-4.16022773E+02
 20
1.31500000E+02
 11
-4.14699172E+02
 21
1.39006514E+02
  0
LINE
  8
0
 62
4
 10
-4.20977166E+02
 20
1.31500000E+02
 11
-4.22300767E+02
 21
1.39006514E+02
  0
ARC
  8
0
 62
4
 10
-4.29694463E+02
 20
1.29571535E+02
 40
1.18100000E+01
 50
9.39795954E+00
 51
9.99999999E+00
  0
ARC
  8
0
 62
4
 10
-4.29697151E+02
 20
1.29586777E+02
 40
1.18100000E+01
 50
9.99999999E+00
 51
3.05326991E+01
  0
LINE
  8
0
 62
4
 10
-4.21257995E+02
 20
1.35280991E+02
 11
-4.19524733E+02
 21
1.35586611E+02
  0
LINE
  8
0
 62
4
 10
-4.21606174E+02
 20
1.35067283E+02
 11
-4.21231947E+02
 21
1.35133269E+02
  0
LINE
  8
0
 62
4
 10
-4.20591304E+02
 20
1.31500000E+02
 11
-4.21257995E+02
 21
1.35280991E+02
  0
LINE
  8
0
 62
4
 10
-4.20647414E+02
 20
1.35388652E+02
 11
-4.21194406E+02
 21
1.38490797E+02
  0
LINE
  8
0
 62
4
 10
-4.21124946E+02
 20
1.38096874E+02
 11
-4.20012114E+02
 21
1.38293096E+02
  0
ARC
  8
0
 62
4
 10
-4.29801003E+02
 20
1.33114600E+02
 40
1.18100000E+01
 50
3.57172490E+02
 51
2.28275100E+01
  0
ARC
  8
0
 62
4
 10
-4.19837675E+02
 20
1.37308428E+02
 40
1.00000000E+00
 50
2.28275100E+01
 51
9.99999999E+01
  0
ARC
  8
0
 62
4
 10
-4.19004164E+02
 20
1.32581350E+02
 40
1.00000000E+00
 50
3.28723662E+02
 51
3.57172490E+02
  0
LINE
  8
0
 62
4
 10
-4.22179213E+02
 20
1.38317149E+02
 11
-4.21194406E+02
 21
1.38490797E+02
  0
LINE
  8
0
 62
4
 10
-4.22300767E+02
 20
1.39006514E+02
 11
-4.32444287E+02
 21
1.37217938E+02
  0
LINE
  8
0
 62
4
 10
-4.32444287E+02
 20
1.37217938E+02
 11
-4.31436060E+02
 21
1.31500000E+02
  0
LINE
  8
0
  6
CENTER
 62
6
 10
-4.38957857E+02
 20
1.31500000E+02
 11
-4.20350804E+02
 21
1.34780925E+02
  0
LINE
  8
0
 62
4
 10
-4.39337941E+02
 20
1.36002401E+02
 11
-4.40976681E+02
 21
1.31500000E+02
  0
LINE
  8
0
 62
4
 10
-4.32444287E+02
 20
1.37217938E+02
 11
-4.39337941E+02
 21
1.36002401E+02
  0
ARC
  8
0
 62
7
 10
-4.18500000E+02
 20
1.00500000E+02
 40
1.22500000E+01
 50
3.38910943E+01
 51
8.61089057E+01
  0
ARC
  8
0
 62
7
 10
-4.18500000E+02
 20
1.00500000E+02
 40
1.20000000E+01
 50
3.64435357E+01
 51
8.35564641E+01
  0
ARC
  8
0
 62
7
 10
-4.18500000E+02
 20
1.00500000E+02
 40
1.22500000E+01
 50
3.33891094E+02
 51
2.61089057E+01
  0
ARC
  8
0
 62
7
 10
-4.18500000E+02
 20
1.00500000E+02
 40
1.20000000E+01
 50
3.36443535E+02
 51
2.35564643E+01
  0
ARC
  8
0
 62
7
 10
-4.18500000E+02
 20
1.00500000E+02
 40
1.22500000E+01
 50
2.73891094E+02
 51
3.26108905E+02
  0
ARC
  8
0
 62
7
 10
-4.18500000E+02
 20
1.00500000E+02
 40
1.20000000E+01
 50
2.76443535E+02
 51
3.23556464E+02
  0
ARC
  8
0
 62
7
 10
-4.18500000E+02
 20
1.00500000E+02
 40
1.22500000E+01
 50
2.13891095E+02
 51
2.66108906E+02
  0
ARC
  8
0
 62
7
 10
-4.18500000E+02
 20
1.00500000E+02
 40
1.20000000E+01
 50
2.16443536E+02
 51
2.63556464E+02
  0
ARC
  8
0
 62
7
 10
-4.18500000E+02
 20
1.00500000E+02
 40
1.22500000E+01
 50
1.53891095E+02
 51
2.06108906E+02
  0
ARC
  8
0
 62
7
 10
-4.18500000E+02
 20
1.00500000E+02
 40
1.20000000E+01
 50
1.56443536E+02
 51
2.03556465E+02
  0
CIRCLE
  8
0
 62
2
 10
-4.18500000E+02
 20
1.00500000E+02
 40
6.17999268E+00
  0
LINE
  8
0
 62
4
 10
-4.07500000E+02
 20
1.06850853E+02
 11
-4.18500000E+02
 21
1.13201706E+02
  0
LINE
  8
0
 62
4
 10
-4.07500000E+02
 20
9.41491470E+01
 11
-4.07500000E+02
 21
1.06850853E+02
  0
LINE
  8
0
 62
4
 10
-4.18500000E+02
 20
8.77982941E+01
 11
-4.07500000E+02
 21
9.41491470E+01
  0
LINE
  8
0
 62
4
 10
-4.29500000E+02
 20
9.41491470E+01
 11
-4.18500000E+02
 21
8.77982941E+01
  0
LINE
  8
0
 62
4
 10
-4.29500000E+02
 20
1.06850853E+02
 11
-4.29500000E+02
 21
9.41491470E+01
  0
LINE
  8
0
 62
4
 10
-4.18500000E+02
 20
1.13201706E+02
 11
-4.29500000E+02
 21
1.06850853E+02
  0
CIRCLE
  8
0
 62
4
 10
-4.18500000E+02
 20
1.00500000E+02
 40
1.10000000E+01
  0
ARC
  8
0
 62
7
 10
-4.18500000E+02
 20
1.00500000E+02
 40
1.22500000E+01
 50
9.38910941E+01
 51
1.46108906E+02
  0
ARC
  8
0
 62
7
 10
-4.18500000E+02
 20
1.00500000E+02
 40
1.20000000E+01
 50
9.64435357E+01
 51
1.43556464E+02
  0
CIRCLE
  8
0
 62
7
 10
-4.18500000E+02
 20
1.00500000E+02
 40
1.30000000E+01
  0
ARC
  8
0
 62
7
 10
-4.50659088E+02
 20
9.74999924E+01
 40
6.84088755E+00
 50
1.53989320E+02
 51
2.06010690E+02
  0
ARC
  8
0
 62
7
 10
-4.50659180E+02
 20
1.03499977E+02
 40
6.84084606E+00
 50
1.53989169E+02
 51
2.06010827E+02
  0
ARC
  8
0
 62
7
 10
-3.86340851E+02
 20
9.74999924E+01
 40
6.84088755E+00
 50
3.33989277E+02
 51
2.60106513E+01
  0
ARC
  8
0
 62
7
 10
-3.86340851E+02
 20
1.03499977E+02
 40
6.84084606E+00
 50
3.33989137E+02
 51
2.60107913E+01
  0
ARC
  8
0
 62
7
 10
-4.46000000E+02
 20
7.30000000E+01
 40
3.50000000E+00
 50
1.79999977E+02
 51
2.70000028E+02
  0
ARC
  8
0
 62
7
 10
-3.90999969E+02
 20
7.30000000E+01
 40
3.50000000E+00
 50
2.70000018E+02
 51
0.00000000E+00
  0
CIRCLE
  8
0
 62
7
 10
-4.42000061E+02
 20
1.24000000E+02
 40
4.75000000E+00
  0
CIRCLE
  8
0
 62
7
 10
-4.42000061E+02
 20
1.24000000E+02
 40
4.50000000E+00
  0
CIRCLE
  8
0
 62
2
 10
-4.42000061E+02
 20
1.24000000E+02
 40
3.00000000E+00
  0
CIRCLE
  8
0
 62
7
 10
-3.95000000E+02
 20
1.24000000E+02
 40
4.75000000E+00
  0
CIRCLE
  8
0
 62
7
 10
-3.95000000E+02
 20
1.24000000E+02
 40
4.50000000E+00
  0
CIRCLE
  8
0
 62
2
 10
-3.95000000E+02
 20
1.24000000E+02
 40
3.00000000E+00
  0
CIRCLE
  8
0
 62
7
 10
-4.42000061E+02
 20
7.69999847E+01
 40
4.75000000E+00
  0
CIRCLE
  8
0
 62
7
 10
-4.42000061E+02
 20
7.69999847E+01
 40
4.50000000E+00
  0
CIRCLE
  8
0
 62
2
 10
-4.42000061E+02
 20
7.69999847E+01
 40
3.00000000E+00
  0
CIRCLE
  8
0
 62
2
 10
-3.95000000E+02
 20
7.69999847E+01
 40
3.00000000E+00
  0
CIRCLE
  8
0
 62
7
 10
-3.95000000E+02
 20
7.69999847E+01
 40
4.75000000E+00
  0
CIRCLE
  8
0
 62
7
 10
-3.95000000E+02
 20
7.69999847E+01
 40
4.50000000E+00
  0
ARC
  8
0
 62
7
 10
-3.90999969E+02
 20
1.28000000E+02
 40
3.50000000E+00
 50
0.00000000E+00
 51
8.99999818E+01
  0
ARC
  8
0
 62
7
 10
-4.46000000E+02
 20
1.28000000E+02
 40
3.50000000E+00
 50
8.99999818E+01
 51
1.79999964E+02
  0
LINE
  8
0
 62
7
 10
-3.86000000E+02
 20
9.44999847E+01
 11
-3.79500031E+02
 21
9.44999847E+01
  0
LINE
  8
0
 62
7
 10
-3.74499920E+02
 20
1.03800117E+02
 11
-3.75199949E+02
 21
1.04500146E+02
  0
LINE
  8
0
 62
7
 10
-3.75199874E+02
 20
9.64998678E+01
 11
-3.74499877E+02
 21
9.71998642E+01
  0
LINE
  8
0
 62
7
 10
-4.50999969E+02
 20
9.25000153E+01
 11
-4.50999969E+02
 21
1.08499992E+02
  0
LINE
  8
0
 62
7
 10
-3.75199982E+02
 20
9.65000229E+01
 11
-3.75199982E+02
 21
1.04499977E+02
  0
LINE
  8
0
 62
2
 10
-3.79500031E+02
 20
1.03799965E+02
 11
-3.74500031E+02
 21
1.03799965E+02
  0
LINE
  8
0
 62
2
 10
-3.79500031E+02
 20
9.71999664E+01
 11
-3.74500031E+02
 21
9.71999664E+01
  0
LINE
  8
0
 62
7
 10
-3.79500031E+02
 20
1.04499962E+02
 11
-3.75200104E+02
 21
1.04499962E+02
  0
LINE
  8
0
 62
7
 10
-3.79500031E+02
 20
9.64999847E+01
 11
-3.75200104E+02
 21
9.64999847E+01
  0
LINE
  8
0
 62
7
 10
-4.61800018E+02
 20
9.65000229E+01
 11
-4.61800018E+02
 21
1.04499977E+02
  0
LINE
  8
0
 62
7
 10
-4.61799942E+02
 20
9.65001017E+01
 11
-4.62499971E+02
 21
9.72001305E+01
  0
LINE
  8
0
 62
7
 10
-4.62500057E+02
 20
1.03799909E+02
 11
-4.61800028E+02
 21
1.04499938E+02
  0
LINE
  8
0
 62
7
 10
-4.51000122E+02
 20
9.44999847E+01
 11
-4.57500061E+02
 21
9.44999847E+01
  0
LINE
  8
0
 62
7
 10
-3.74500031E+02
 20
9.72000275E+01
 11
-3.74500031E+02
 21
1.03799980E+02
  0
LINE
  8
0
 62
7
 10
-4.57500061E+02
 20
1.04499962E+02
 11
-4.61800079E+02
 21
1.04499962E+02
  0
LINE
  8
0
 62
2
 10
-4.57500061E+02
 20
1.03799965E+02
 11
-4.62500061E+02
 21
1.03799965E+02
  0
LINE
  8
0
 62
7
 10
-4.57500000E+02
 20
9.45000000E+01
 11
-4.57500000E+02
 21
1.06499985E+02
  0
LINE
  8
0
 62
7
 10
-3.87500061E+02
 20
1.08499977E+02
 11
-3.86000000E+02
 21
1.08499977E+02
  0
LINE
  8
0
 62
7
 10
-3.79500031E+02
 20
9.45000000E+01
 11
-3.79500031E+02
 21
1.06499985E+02
  0
LINE
  8
0
 62
7
 10
-3.85999969E+02
 20
9.25000153E+01
 11
-3.85999969E+02
 21
1.08499992E+02
  0
LINE
  8
0
 62
7
 10
-3.87500061E+02
 20
9.24999924E+01
 11
-3.86000000E+02
 21
9.24999924E+01
  0
LINE
  8
0
 62
7
 10
-3.86000000E+02
 20
1.00499985E+02
 11
-3.80192810E+02
 21
1.00499985E+02
  0
LINE
  8
0
 62
7
 10
-4.51000122E+02
 20
1.06499985E+02
 11
-4.57500061E+02
 21
1.06499985E+02
  0
LINE
  8
0
 62
7
 10
-4.49500031E+02
 20
9.24999924E+01
 11
-4.51000000E+02
 21
9.24999924E+01
  0
LINE
  8
0
 62
7
 10
-4.62500000E+02
 20
9.72000275E+01
 11
-4.62500000E+02
 21
1.03799980E+02
  0
LINE
  8
0
 62
7
 10
-4.49500031E+02
 20
1.08499977E+02
 11
-4.51000000E+02
 21
1.08499977E+02
  0
LINE
  8
0
 62
7
 10
-4.57500061E+02
 20
9.64999847E+01
 11
-4.61800079E+02
 21
9.64999847E+01
  0
LINE
  8
0
 62
7
 10
-4.51000000E+02
 20
1.00499985E+02
 11
-4.56807159E+02
 21
1.00499985E+02
  0
LINE
  8
0
 62
7
 10
-4.39000321E+02
 20
7.52684383E+01
 11
-4.42000361E+02
 21
7.35363752E+01
  0
LINE
  8
0
  6
CENTER
 62
2
 10
-4.31614136E+02
 20
7.69999847E+01
 11
-4.51840118E+02
 21
7.69999847E+01
  0
LINE
  8
0
  6
CENTER
 62
2
 10
-4.42000061E+02
 20
6.72987061E+01
 11
-4.42000061E+02
 21
8.66171799E+01
  0
LINE
  8
0
  6
CENTER
 62
2
 10
-4.05385956E+02
 20
1.24000000E+02
 11
-3.85159851E+02
 21
1.24000000E+02
  0
LINE
  8
0
 62
7
 10
-4.42000162E+02
 20
7.35358297E+01
 11
-4.45000175E+02
 21
7.52678775E+01
  0
LINE
  8
0
 62
7
 10
-4.39000031E+02
 20
1.25732056E+02
 11
-4.39000031E+02
 21
1.22267929E+02
  0
LINE
  8
0
 62
7
 10
-4.39000297E+02
 20
1.22268548E+02
 11
-4.42000363E+02
 21
1.20536469E+02
  0
LINE
  8
0
 62
7
 10
-4.42000137E+02
 20
1.20535902E+02
 11
-4.45000097E+02
 21
1.22267919E+02
  0
LINE
  8
0
 62
7
 10
-4.49499908E+02
 20
1.28000015E+02
 11
-4.49499908E+02
 21
7.30000000E+01
  0
LINE
  8
0
 62
7
 10
-4.45000000E+02
 20
1.22267929E+02
 11
-4.45000000E+02
 21
1.25732056E+02
  0
LINE
  8
0
 62
7
 10
-4.42000348E+02
 20
1.27464636E+02
 11
-4.45000361E+02
 21
1.25732588E+02
  0
LINE
  8
0
 62
7
 10
-3.86000000E+02
 20
1.06499985E+02
 11
-3.79500031E+02
 21
1.06499985E+02
  0
LINE
  8
0
 62
7
 10
-4.39000019E+02
 20
1.25731924E+02
 11
-4.42000005E+02
 21
1.27463957E+02
  0
LINE
  8
0
 62
2
 10
-4.57500061E+02
 20
9.71999664E+01
 11
-4.62500061E+02
 21
9.71999664E+01
  0
LINE
  8
0
  6
CENTER
 62
2
 10
-3.95000000E+02
 20
6.72987061E+01
 11
-3.95000000E+02
 21
8.66171799E+01
  0
LINE
  8
0
 62
7
 10
-3.98000031E+02
 20
7.52679367E+01
 11
-3.98000031E+02
 21
7.87320480E+01
  0
LINE
  8
0
 62
7
 10
-3.98000097E+02
 20
7.87324516E+01
 11
-3.95000137E+02
 21
8.04644689E+01
  0
LINE
  8
0
 62
7
 10
-3.95000064E+02
 20
8.04640265E+01
 11
-3.92000104E+02
 21
7.87320092E+01
  0
LINE
  8
0
 62
7
 10
-3.92000031E+02
 20
7.87320480E+01
 11
-3.92000031E+02
 21
7.52679367E+01
  0
LINE
  8
0
 62
7
 10
-4.39000031E+02
 20
7.52679367E+01
 11
-4.39000031E+02
 21
7.87320480E+01
  0
LINE
  8
0
 62
7
 10
-4.39000199E+02
 20
7.87318887E+01
 11
-4.42000238E+02
 21
8.04639518E+01
  0
LINE
  8
0
 62
7
 10
-4.42000425E+02
 20
8.04644957E+01
 11
-4.45000385E+02
 21
7.87324784E+01
  0
LINE
  8
0
 62
7
 10
-4.45000000E+02
 20
7.87320480E+01
 11
-4.45000000E+02
 21
7.52679367E+01
  0
LINE
  8
0
  6
CENTER
 62
2
 10
-4.42000061E+02
 20
1.33701309E+02
 11
-4.42000061E+02
 21
1.14382797E+02
  0
LINE
  8
0
  6
CENTER
 62
2
 10
-4.31614136E+02
 20
1.24000000E+02
 11
-4.51840118E+02
 21
1.24000000E+02
  0
LINE
  8
0
  6
CENTER
 62
2
 10
-3.71842560E+02
 20
1.00500000E+02
 11
-4.65476318E+02
 21
1.00500000E+02
  0
LINE
  8
0
 62
7
 10
-3.95000111E+02
 20
7.35362914E+01
 11
-3.92000151E+02
 21
7.52683087E+01
  0
LINE
  8
0
 62
7
 10
-3.98000069E+02
 20
7.52678948E+01
 11
-3.95000030E+02
 21
7.35358317E+01
  0
LINE
  8
0
  6
CENTER
 62
2
 10
-4.18500000E+02
 20
1.33701309E+02
 11
-4.18500000E+02
 21
6.67996674E+01
  0
LINE
  8
0
  6
CENTER
 62
2
 10
-4.05385956E+02
 20
7.69999847E+01
 11
-3.85159851E+02
 21
7.69999847E+01
  0
LINE
  8
0
 62
7
 10
-3.98000031E+02
 20
1.25732056E+02
 11
-3.98000031E+02
 21
1.22267929E+02
  0
LINE
  8
0
 62
7
 10
-3.98000142E+02
 20
1.22268041E+02
 11
-3.95000076E+02
 21
1.20535963E+02
  0
LINE
  8
0
 62
7
 10
-3.95000234E+02
 20
1.20536351E+02
 11
-3.92000208E+02
 21
1.22268406E+02
  0
LINE
  8
0
 62
7
 10
-3.92000031E+02
 20
1.22267929E+02
 11
-3.92000031E+02
 21
1.25732056E+02
  0
LINE
  8
0
 62
7
 10
-3.95000039E+02
 20
1.27464099E+02
 11
-3.92000026E+02
 21
1.25732051E+02
  0
LINE
  8
0
 62
7
 10
-3.98000245E+02
 20
1.25732462E+02
 11
-3.95000206E+02
 21
1.27464525E+02
  0
LINE
  8
0
 62
7
 10
-3.87500000E+02
 20
1.28000015E+02
 11
-3.87500000E+02
 21
7.30000000E+01
  0
LINE
  8
0
 62
7
 10
-3.91000000E+02
 20
1.31500000E+02
 11
-4.46000000E+02
 21
1.31500000E+02
  0
LINE
  8
0
  6
CENTER
 62
2
 10
-3.95000000E+02
 20
1.33701309E+02
 11
-3.95000000E+02
 21
1.14382797E+02
  0
LINE
  8
0
 62
7
 10
-3.91000000E+02
 20
6.94999924E+01
 11
-4.46000000E+02
 21
6.94999924E+01
  0
CIRCLE
  8
0
 62
7
 10
2.23000061E+02
 20
8.20000153E+01
 40
2.45850000E+00
  0
CIRCLE
  8
0
 62
7
 10
2.60000122E+02
 20
8.20000153E+01
 40
2.45850000E+00
  0
CIRCLE
  8
0
 62
7
 10
2.60000000E+02
 20
1.19000076E+02
 40
2.45850000E+00
  0
CIRCLE
  8
0
 62
7
 10
2.22999939E+02
 20
1.19000076E+02
 40
2.45850000E+00
  0
LINE
  8
0
 62
7
 10
2.63976742E+02
 20
1.31500000E+02
 11
2.69000031E+02
 21
1.31500000E+02
  0
LINE
  8
0
  6
DASHED
 62
4
 10
2.41500031E+02
 20
1.27339264E+02
 11
2.41083514E+02
 21
1.27412707E+02
  0
LINE
  8
0
  6
DASHED
 62
4
 10
2.41944098E+02
 20
1.31576526E+02
 11
2.41831367E+02
 21
1.31596403E+02
  0
ARC
  8
0
 62
4
 10
2.52801064E+02
 20
1.33114600E+02
 40
1.18100000E+01
 50
1.57172490E+02
 51
1.63117791E+02
  0
LINE
  8
0
 62
4
 10
2.42816776E+02
 20
1.27107086E+02
 11
2.41500031E+02
 21
1.27339264E+02
  0
ARC
  8
0
  6
DASHED
 62
4
 10
2.52697212E+02
 20
1.29586777E+02
 40
1.18100000E+01
 50
1.67900933E+02
 51
1.70000000E+02
  0
ARC
  8
0
  6
DASHED
 62
4
 10
2.52694524E+02
 20
1.29571535E+02
 40
1.18100000E+01
 50
1.70000000E+02
 51
1.90532699E+02
  0
ARC
  8
0
  6
DASHED
 62
4
 10
2.42004225E+02
 20
1.32581350E+02
 40
1.00000000E+00
 50
1.82827510E+02
 51
2.60000000E+02
  0
LINE
  8
0
 62
4
 10
2.42944200E+02
 20
1.31400181E+02
 11
2.41944098E+02
 21
1.31576526E+02
  0
ARC
  8
0
  6
DASHED
 62
4
 10
2.52801064E+02
 20
1.33114600E+02
 40
1.18100000E+01
 50
1.63117791E+02
 51
1.82827510E+02
  0
LINE
  8
0
 62
4
 10
2.44125007E+02
 20
1.38096874E+02
 11
2.43012175E+02
 21
1.38293096E+02
  0
ARC
  8
0
 62
4
 10
2.42837736E+02
 20
1.37308428E+02
 40
1.00000000E+00
 50
7.99999999E+01
 51
1.57172490E+02
  0
LINE
  8
0
 62
4
 10
2.69926370E+02
 20
1.12324981E+02
 11
2.70620963E+02
 21
1.16264212E+02
  0
LINE
  8
0
 62
6
 10
2.70013194E+02
 20
1.12817385E+02
 11
2.66975432E+02
 21
1.13353024E+02
  0
LINE
  8
0
 62
6
 10
2.70534139E+02
 20
1.15771808E+02
 11
2.67496377E+02
 21
1.16307448E+02
  0
LINE
  8
0
 62
4
 10
2.69926370E+02
 20
1.12324981E+02
 11
2.66888608E+02
 21
1.12860620E+02
  0
LINE
  8
0
 62
4
 10
2.70620963E+02
 20
1.16264212E+02
 11
2.67583201E+02
 21
1.16799852E+02
  0
LINE
  8
0
  6
CENTER
 62
6
 10
2.47787844E+02
 20
1.25468983E+02
 11
2.41878997E+02
 21
1.26510872E+02
  0
LINE
  8
0
  6
CENTER
 62
6
 10
2.45354365E+02
 20
1.28944351E+02
 11
2.44312476E+02
 21
1.23035504E+02
  0
LINE
  8
0
 62
4
 10
2.43211101E+02
 20
1.28306839E+02
 11
2.42716185E+02
 21
1.25500031E+02
  0
LINE
  8
0
 62
4
 10
2.47150332E+02
 20
1.27612246E+02
 11
2.43211101E+02
 21
1.28306839E+02
  0
LINE
  8
0
 62
4
 10
2.54362262E+02
 20
1.28777613E+02
 11
2.53784335E+02
 21
1.25500031E+02
  0
LINE
  8
0
 62
4
 10
2.45300828E+02
 20
1.39006514E+02
 11
2.55444348E+02
 21
1.37217938E+02
  0
LINE
  8
0
 62
4
 10
2.55444348E+02
 20
1.37217938E+02
 11
2.53968338E+02
 21
1.28847072E+02
  0
LINE
  8
0
 62
4
 10
2.47167697E+02
 20
1.27710727E+02
 11
2.46675293E+02
 21
1.27797551E+02
  0
LINE
  8
0
 62
4
 10
2.47167697E+02
 20
1.27710727E+02
 11
2.46777892E+02
 21
1.25500031E+02
  0
LINE
  8
0
 62
4
 10
2.46350830E+02
 20
1.28260934E+02
 11
2.43494887E+02
 21
1.28764513E+02
  0
LINE
  8
0
 62
4
 10
2.46675293E+02
 20
1.27797551E+02
 11
2.46350830E+02
 21
1.28260934E+02
  0
LINE
  8
0
  6
CENTER
 62
6
 10
2.65435237E+02
 20
1.30886855E+02
 11
2.43350865E+02
 21
1.34780925E+02
  0
LINE
  8
0
  6
CENTER
 62
6
 10
2.55593602E+02
 20
1.29068207E+02
 11
2.42743096E+02
 21
1.31334098E+02
  0
LINE
  8
0
  6
CENTER
 62
6
 10
2.61568009E+02
 20
1.15829639E+02
 11
2.69034014E+02
 21
1.14513181E+02
  0
ARC
  8
0
 62
4
 10
2.54373918E+02
 20
1.28267844E+02
 40
5.00000000E-01
 50
3.50000000E+02
 51
7.99999999E+01
  0
LINE
  8
0
 62
4
 10
2.54866322E+02
 20
1.28181020E+02
 11
2.54393591E+02
 21
1.25500031E+02
  0
LINE
  8
0
 62
4
 10
2.53968338E+02
 20
1.28847072E+02
 11
2.54460742E+02
 21
1.28760248E+02
  0
ARC
  8
0
 62
4
 10
2.65064100E+02
 20
1.11151477E+02
 40
1.50000000E+00
 50
3.43189498E+02
 51
3.50000000E+02
  0
LINE
  8
0
 62
4
 10
2.62338002E+02
 20
1.36002401E+02
 11
2.68152345E+02
 21
1.20027626E+02
  0
LINE
  8
0
 62
4
 10
2.55444348E+02
 20
1.37217938E+02
 11
2.62338002E+02
 21
1.36002401E+02
  0
LINE
  8
0
 62
4
 10
2.68152345E+02
 20
1.20027626E+02
 11
2.66541312E+02
 21
1.10891005E+02
  0
ARC
  8
0
 62
4
 10
2.44833421E+02
 20
1.25989927E+02
 40
1.50000000E+00
 50
3.40937591E+02
 51
1.99062409E+02
  0
ARC
  8
0
 62
4
 10
2.44703184E+02
 20
1.25251321E+02
 40
3.00000000E-01
 50
5.59992305E+01
 51
1.24000769E+02
  0
CIRCLE
  8
0
 62
4
 10
2.44963657E+02
 20
1.26728533E+02
 40
3.00000000E-01
  0
CIRCLE
  8
0
 62
4
 10
2.44963657E+02
 20
1.26728533E+02
 40
5.00000000E-01
  0
ARC
  8
0
 62
4
 10
2.44703184E+02
 20
1.25251321E+02
 40
5.00000000E-01
 50
2.98293252E+01
 51
1.50170675E+02
  0
LINE
  8
0
 62
4
 10
2.43859548E+02
 20
1.30832610E+02
 11
2.42874740E+02
 21
1.31006258E+02
  0
LINE
  8
0
 62
4
 10
2.45179274E+02
 20
1.38317149E+02
 11
2.44194467E+02
 21
1.38490797E+02
  0
LINE
  8
0
 62
4
 10
2.42874740E+02
 20
1.31006258E+02
 11
2.44194467E+02
 21
1.38490797E+02
  0
LINE
  8
0
 62
4
 10
2.42816776E+02
 20
1.27107086E+02
 11
2.43485321E+02
 21
1.30898596E+02
  0
LINE
  8
0
 62
4
 10
2.43217050E+02
 20
1.27188821E+02
 11
2.42842823E+02
 21
1.27254807E+02
  0
LINE
  8
0
 62
4
 10
2.43217050E+02
 20
1.27188821E+02
 11
2.45300828E+02
 21
1.39006514E+02
  0
LINE
  8
0
 62
4
 10
2.39591998E+02
 20
1.28272110E+02
 11
2.37699233E+02
 21
1.39006514E+02
  0
ARC
  8
0
 62
4
 10
2.30305537E+02
 20
1.29571535E+02
 40
1.18100000E+01
 50
3.49467301E+02
 51
9.99999999E+00
  0
ARC
  8
0
 62
4
 10
2.30302849E+02
 20
1.29586777E+02
 40
1.18100000E+01
 50
9.99999999E+00
 51
3.05326991E+01
  0
LINE
  8
0
 62
4
 10
2.40183285E+02
 20
1.27107086E+02
 11
2.41916547E+02
 21
1.27412707E+02
  0
LINE
  8
0
 62
4
 10
2.38742005E+02
 20
1.35280991E+02
 11
2.40475267E+02
 21
1.35586611E+02
  0
LINE
  8
0
 62
4
 10
2.39979973E+02
 20
1.27223551E+02
 11
2.40157238E+02
 21
1.27254807E+02
  0
LINE
  8
0
 62
4
 10
2.38393826E+02
 20
1.35067283E+02
 11
2.38768053E+02
 21
1.35133269E+02
  0
LINE
  8
0
 62
4
 10
2.40183285E+02
 20
1.27107086E+02
 11
2.38742005E+02
 21
1.35280991E+02
  0
LINE
  8
0
 62
4
 10
2.39352586E+02
 20
1.35388652E+02
 11
2.38805594E+02
 21
1.38490797E+02
  0
LINE
  8
0
 62
4
 10
2.38875054E+02
 20
1.38096874E+02
 11
2.39987886E+02
 21
1.38293096E+02
  0
ARC
  8
0
 62
4
 10
2.30198997E+02
 20
1.33114600E+02
 40
1.18100000E+01
 50
3.57172490E+02
 51
2.28275100E+01
  0
ARC
  8
0
 62
4
 10
2.40162325E+02
 20
1.37308428E+02
 40
1.00000000E+00
 50
2.28275100E+01
 51
9.99999999E+01
  0
ARC
  8
0
 62
4
 10
2.40995836E+02
 20
1.32581350E+02
 40
1.00000000E+00
 50
3.28723662E+02
 51
3.57172490E+02
  0
LINE
  8
0
 62
4
 10
2.37820787E+02
 20
1.38317149E+02
 11
2.38805594E+02
 21
1.38490797E+02
  0
LINE
  8
0
  6
CENTER
 62
6
 10
2.35212217E+02
 20
1.25468983E+02
 11
2.41121064E+02
 21
1.26510872E+02
  0
LINE
  8
0
  6
CENTER
 62
6
 10
2.37645696E+02
 20
1.28944351E+02
 11
2.38687585E+02
 21
1.23035504E+02
  0
LINE
  8
0
 62
4
 10
2.39788960E+02
 20
1.28306839E+02
 11
2.40283876E+02
 21
1.25500031E+02
  0
LINE
  8
0
 62
4
 10
2.35849729E+02
 20
1.27612246E+02
 11
2.39788960E+02
 21
1.28306839E+02
  0
LINE
  8
0
 62
4
 10
2.36852661E+02
 20
1.26905669E+02
 11
2.39083251E+02
 21
1.27298983E+02
  0
LINE
  8
0
 62
4
 10
2.35849729E+02
 20
1.27612246E+02
 11
2.36852661E+02
 21
1.26905669E+02
  0
LINE
  8
0
 62
4
 10
2.39788960E+02
 20
1.28306839E+02
 11
2.39083251E+02
 21
1.27298983E+02
  0
LINE
  8
0
 62
4
 10
2.37100513E+02
 20
1.25500031E+02
 11
2.36852661E+02
 21
1.26905669E+02
  0
LINE
  8
0
 62
4
 10
2.39083251E+02
 20
1.27298983E+02
 11
2.39400455E+02
 21
1.25500031E+02
  0
LINE
  8
0
 62
4
 10
2.28637799E+02
 20
1.28777613E+02
 11
2.29215726E+02
 21
1.25500031E+02
  0
LINE
  8
0
 62
4
 10
2.37699233E+02
 20
1.39006514E+02
 11
2.27555713E+02
 21
1.37217938E+02
  0
LINE
  8
0
 62
4
 10
2.27555713E+02
 20
1.37217938E+02
 11
2.29031723E+02
 21
1.28847072E+02
  0
LINE
  8
0
 62
4
 10
2.35832364E+02
 20
1.27710727E+02
 11
2.36324768E+02
 21
1.27797551E+02
  0
LINE
  8
0
 62
4
 10
2.35832364E+02
 20
1.27710727E+02
 11
2.36222169E+02
 21
1.25500031E+02
  0
LINE
  8
0
 62
4
 10
2.36649231E+02
 20
1.28260934E+02
 11
2.39505174E+02
 21
1.28764513E+02
  0
LINE
  8
0
 62
4
 10
2.36324768E+02
 20
1.27797551E+02
 11
2.36649231E+02
 21
1.28260934E+02
  0
LINE
  8
0
  6
CENTER
 62
6
 10
2.17564824E+02
 20
1.30886855E+02
 11
2.39649196E+02
 21
1.34780925E+02
  0
LINE
  8
0
  6
CENTER
 62
6
 10
2.27406459E+02
 20
1.29068207E+02
 11
2.40256965E+02
 21
1.31334098E+02
  0
LINE
  8
0
  6
CENTER
 62
6
 10
2.21841117E+02
 20
1.15901768E+02
 11
2.14375113E+02
 21
1.14585310E+02
  0
ARC
  8
0
 62
4
 10
2.28626143E+02
 20
1.28267844E+02
 40
5.00000000E-01
 50
9.99999999E+01
 51
1.90000000E+02
  0
LINE
  8
0
 62
4
 10
2.28133739E+02
 20
1.28181020E+02
 11
2.28606470E+02
 21
1.25500031E+02
  0
LINE
  8
0
 62
4
 10
2.29031723E+02
 20
1.28847072E+02
 11
2.28539319E+02
 21
1.28760248E+02
  0
ARC
  8
0
 62
4
 10
2.17935961E+02
 20
1.11151477E+02
 40
1.50000000E+00
 50
1.90000000E+02
 51
1.96794373E+02
  0
LINE
  8
0
 62
4
 10
2.20662059E+02
 20
1.36002401E+02
 11
2.14847716E+02
 21
1.20027626E+02
  0
LINE
  8
0
 62
4
 10
2.27555713E+02
 20
1.37217938E+02
 11
2.20662059E+02
 21
1.36002401E+02
  0
LINE
  8
0
 62
4
 10
2.14847716E+02
 20
1.20027626E+02
 11
2.16458749E+02
 21
1.10891005E+02
  0
LINE
  8
0
 62
4
 10
2.12379098E+02
 20
1.16264212E+02
 11
2.15416860E+02
 21
1.16799852E+02
  0
LINE
  8
0
 62
4
 10
2.13073691E+02
 20
1.12324981E+02
 11
2.16111453E+02
 21
1.12860620E+02
  0
LINE
  8
0
 62
4
 10
2.13073691E+02
 20
1.12324981E+02
 11
2.12379098E+02
 21
1.16264212E+02
  0
LINE
  8
0
 62
6
 10
2.12465923E+02
 20
1.15771808E+02
 11
2.15503684E+02
 21
1.16307448E+02
  0
LINE
  8
0
 62
6
 10
2.12986867E+02
 20
1.12817385E+02
 11
2.16024629E+02
 21
1.13353024E+02
  0
CIRCLE
  8
0
 62
2
 10
2.22999939E+02
 20
1.19000076E+02
 40
3.00000000E+00
  0
CIRCLE
  8
0
 62
2
 10
2.23000061E+02
 20
8.20000153E+01
 40
3.00000000E+00
  0
CIRCLE
  8
0
 62
2
 10
2.60000122E+02
 20
8.20000153E+01
 40
3.00000000E+00
  0
ARC
  8
0
 62
7
 10
2.62500000E+02
 20
9.54999695E+01
 40
1.00000000E+00
 50
2.69999984E+02
 51
1.86693353E-05
  0
ARC
  8
0
 62
7
 10
2.62500000E+02
 20
9.14999695E+01
 40
3.00000000E+00
 50
9.00000162E+01
 51
1.82026372E+02
  0
CIRCLE
  8
0
 62
7
 10
2.41500000E+02
 20
1.00500000E+02
 40
1.60000000E+01
  0
ARC
  8
0
 62
7
 10
2.20500000E+02
 20
9.54999695E+01
 40
1.00000000E+00
 50
1.79999991E+02
 51
2.69999974E+02
  0
ARC
  8
0
 62
7
 10
2.20500000E+02
 20
9.14999695E+01
 40
3.00000000E+00
 50
3.57973601E+02
 51
8.99999618E+01
  0
ARC
  8
0
 62
7
 10
2.24497498E+02
 20
8.98585358E+01
 40
1.00000000E+00
 50
1.77973884E+02
 51
2.59210897E+02
  0
ARC
  8
0
 62
7
 10
2.23000000E+02
 20
8.19999390E+01
 40
7.00000000E+00
 50
1.07887021E+01
 51
7.92113567E+01
  0
ARC
  8
0
 62
7
 10
2.30858582E+02
 20
8.34974365E+01
 40
1.00000000E+00
 50
1.90788456E+02
 51
2.72025183E+02
  0
ARC
  8
0
 62
7
 10
2.32500000E+02
 20
7.94999390E+01
 40
3.00000000E+00
 50
5.68726953E-04
 51
9.20258094E+01
  0
ARC
  8
0
 62
7
 10
2.36500000E+02
 20
7.94999695E+01
 40
1.00000000E+00
 50
1.79999991E+02
 51
2.69999974E+02
  0
ARC
  8
0
 62
7
 10
2.28148499E+02
 20
8.99768372E+01
 40
1.00000000E+00
 50
3.15000634E+02
 51
3.82442202E+01
  0
ARC
  8
0
 62
7
 10
2.30976929E+02
 20
8.71484070E+01
 40
1.00000000E+00
 50
5.17563834E+01
 51
1.35000041E+02
  0
ARC
  8
0
 62
7
 10
2.24618042E+02
 20
9.85000000E+01
 40
1.00000000E+00
 50
6.75624040E+00
 51
9.00000300E+01
  0
ARC
  8
0
 62
7
 10
2.20500000E+02
 20
9.85000000E+01
 40
1.00000000E+00
 50
9.00000300E+01
 51
1.80000019E+02
  0
ARC
  8
0
 62
7
 10
2.29891418E+02
 20
8.60629578E+01
 40
1.00000000E+00
 50
1.35000656E+02
 51
2.10522249E+02
  0
ARC
  8
0
 62
7
 10
2.39500000E+02
 20
8.36180420E+01
 40
1.00000000E+00
 50
4.96325564E-05
 51
8.32439208E+01
  0
ARC
  8
0
 62
7
 10
2.39500000E+02
 20
7.95000000E+01
 40
1.00000000E+00
 50
2.69999998E+02
 51
4.96325564E-05
  0
ARC
  8
0
 62
7
 10
2.27063049E+02
 20
8.88913879E+01
 40
1.00000000E+00
 50
2.39477556E+02
 51
3.14999370E+02
  0
CIRCLE
  8
0
 62
7
 10
2.23000000E+02
 20
8.19999390E+01
 40
5.00000000E+00
  0
CIRCLE
  8
0
 62
7
 10
2.23000000E+02
 20
8.19999390E+01
 40
4.50000000E+00
  0
ARC
  8
0
 62
7
 10
2.19500000E+02
 20
7.84999847E+01
 40
3.00000000E+00
 50
1.79999991E+02
 51
2.70000028E+02
  0
ARC
  8
0
 62
7
 10
2.19500061E+02
 20
7.84999847E+01
 40
2.50000000E+00
 50
1.79999991E+02
 51
2.70000028E+02
  0
ARC
  8
0
 62
7
 10
2.46500061E+02
 20
7.94999695E+01
 40
1.00000000E+00
 50
2.69999984E+02
 51
3.59999964E+02
  0
ARC
  8
0
 62
7
 10
2.50500061E+02
 20
7.94999390E+01
 40
3.00000000E+00
 50
8.79741750E+01
 51
1.79999418E+02
  0
ARC
  8
0
 62
7
 10
2.52141418E+02
 20
8.34974365E+01
 40
1.00000000E+00
 50
2.67974785E+02
 51
3.49211503E+02
  0
ARC
  8
0
 62
7
 10
2.60000000E+02
 20
8.19999390E+01
 40
7.00000000E+00
 50
1.00788621E+02
 51
1.69211284E+02
  0
ARC
  8
0
 62
7
 10
2.58502502E+02
 20
8.98585358E+01
 40
1.00000000E+00
 50
2.80789074E+02
 51
2.02610241E+00
  0
ARC
  8
0
 62
7
 10
2.52141418E+02
 20
1.17502563E+02
 40
1.00000000E+00
 50
1.07884972E+01
 51
9.20252152E+01
  0
ARC
  8
0
 62
7
 10
2.46500061E+02
 20
1.21500031E+02
 40
1.00000000E+00
 50
3.59721781E-05
 51
9.00000162E+01
  0
ARC
  8
0
 62
7
 10
2.58502502E+02
 20
1.11141464E+02
 40
1.00000000E+00
 50
3.57973915E+02
 51
7.92109402E+01
  0
ARC
  8
0
 62
7
 10
2.62500000E+02
 20
1.05500031E+02
 40
1.00000000E+00
 50
3.59721781E-05
 51
9.00000162E+01
  0
ARC
  8
0
 62
7
 10
2.50500061E+02
 20
1.21500061E+02
 40
3.00000000E+00
 50
1.80000582E+02
 51
2.72025825E+02
  0
ARC
  8
0
 62
7
 10
2.62500000E+02
 20
1.09500031E+02
 40
3.00000000E+00
 50
1.79999991E+02
 51
2.69999974E+02
  0
ARC
  8
0
 62
7
 10
2.52023193E+02
 20
8.71484680E+01
 40
1.00000000E+00
 50
4.50006297E+01
 51
1.28244219E+02
  0
ARC
  8
0
 62
7
 10
2.54851624E+02
 20
8.99768982E+01
 40
1.00000000E+00
 50
1.41756382E+02
 51
2.25000037E+02
  0
ARC
  8
0
 62
7
 10
2.43500000E+02
 20
8.36180420E+01
 40
1.00000000E+00
 50
9.67562412E+01
 51
1.80000032E+02
  0
ARC
  8
0
 62
7
 10
2.43500000E+02
 20
7.95000000E+01
 40
1.00000000E+00
 50
1.80000022E+02
 51
2.70000011E+02
  0
ARC
  8
0
 62
7
 10
2.55937073E+02
 20
8.88914185E+01
 40
1.00000000E+00
 50
2.25000642E+02
 51
3.00522242E+02
  0
ARC
  8
0
 62
7
 10
2.58381958E+02
 20
9.85000000E+01
 40
1.00000000E+00
 50
9.00000437E+01
 51
1.73243923E+02
  0
ARC
  8
0
 62
7
 10
2.62500000E+02
 20
9.85000000E+01
 40
1.00000000E+00
 50
8.65142224E-06
 51
9.00000437E+01
  0
ARC
  8
0
 62
7
 10
2.53108643E+02
 20
8.60630188E+01
 40
1.00000000E+00
 50
3.29477575E+02
 51
4.49993865E+01
  0
ARC
  8
0
 62
7
 10
2.58381958E+02
 20
1.02500000E+02
 40
1.00000000E+00
 50
1.86756227E+02
 51
2.70000038E+02
  0
ARC
  8
0
 62
7
 10
2.54851562E+02
 20
1.11023163E+02
 40
1.00000000E+00
 50
1.35000629E+02
 51
2.18244215E+02
  0
ARC
  8
0
 62
7
 10
2.52023132E+02
 20
1.13851593E+02
 40
1.00000000E+00
 50
2.31756382E+02
 51
3.15000026E+02
  0
ARC
  8
0
 62
7
 10
2.43500000E+02
 20
1.17381958E+02
 40
1.00000000E+00
 50
1.80000036E+02
 51
2.63243916E+02
  0
ARC
  8
0
 62
7
 10
2.55937012E+02
 20
1.12108612E+02
 40
1.00000000E+00
 50
5.94775673E+01
 51
1.34999386E+02
  0
ARC
  8
0
 62
7
 10
2.60000000E+02
 20
1.19000061E+02
 40
7.00000000E+00
 50
1.90788716E+02
 51
2.59211379E+02
  0
ARC
  8
0
 62
7
 10
2.53108582E+02
 20
1.14937042E+02
 40
1.00000000E+00
 50
3.15000662E+02
 51
3.05222541E+01
  0
ARC
  8
0
 62
7
 10
2.43500000E+02
 20
1.21500000E+02
 40
1.00000000E+00
 50
9.00000025E+01
 51
1.80000046E+02
  0
ARC
  8
0
 62
7
 10
2.62500000E+02
 20
1.02500000E+02
 40
1.00000000E+00
 50
2.70000052E+02
 51
3.59721781E-05
  0
CIRCLE
  8
0
 62
7
 10
2.60000061E+02
 20
8.20000000E+01
 40
5.00000000E+00
  0
CIRCLE
  8
0
 62
7
 10
2.60000061E+02
 20
8.20000000E+01
 40
4.50000000E+00
  0
CIRCLE
  8
0
 62
7
 10
2.60000000E+02
 20
1.19000061E+02
 40
5.00000000E+00
  0
CIRCLE
  8
0
 62
7
 10
2.60000000E+02
 20
1.19000061E+02
 40
4.50000000E+00
  0
ARC
  8
0
 62
7
 10
2.63500061E+02
 20
7.84999847E+01
 40
3.00000000E+00
 50
2.70000052E+02
 51
3.59721781E-05
  0
ARC
  8
0
 62
7
 10
2.63500061E+02
 20
1.22500031E+02
 40
3.00000000E+00
 50
3.59721781E-05
 51
9.00000162E+01
  0
ARC
  8
0
 62
7
 10
2.63500000E+02
 20
1.22500031E+02
 40
2.50000000E+00
 50
3.59721781E-05
 51
9.00000162E+01
  0
ARC
  8
0
 62
7
 10
2.63500061E+02
 20
7.85000153E+01
 40
2.50000000E+00
 50
2.70000052E+02
 51
3.59721781E-05
  0
ARC
  8
0
 62
7
 10
2.36500000E+02
 20
1.21500031E+02
 40
1.00000000E+00
 50
9.00000162E+01
 51
1.80000005E+02
  0
ARC
  8
0
 62
7
 10
2.32500000E+02
 20
1.21500061E+02
 40
3.00000000E+00
 50
2.67974191E+02
 51
3.59999431E+02
  0
ARC
  8
0
 62
7
 10
2.30858582E+02
 20
1.17502563E+02
 40
1.00000000E+00
 50
8.79748173E+01
 51
1.69211544E+02
  0
ARC
  8
0
 62
7
 10
2.23000000E+02
 20
1.19000061E+02
 40
7.00000000E+00
 50
2.80788643E+02
 51
3.49211298E+02
  0
ARC
  8
0
 62
7
 10
2.24497498E+02
 20
1.11141464E+02
 40
1.00000000E+00
 50
1.00789092E+02
 51
1.82026126E+02
  0
ARC
  8
0
 62
7
 10
2.20500000E+02
 20
1.09500031E+02
 40
3.00000000E+00
 50
2.70000052E+02
 51
2.02641660E+00
  0
ARC
  8
0
 62
7
 10
2.20500000E+02
 20
1.05500031E+02
 40
1.00000000E+00
 50
9.00000162E+01
 51
1.80000005E+02
  0
ARC
  8
0
 62
7
 10
2.19500000E+02
 20
1.22500031E+02
 40
3.00000000E+00
 50
9.00000162E+01
 51
1.80000005E+02
  0
ARC
  8
0
 62
7
 10
2.30976868E+02
 20
1.13851517E+02
 40
1.00000000E+00
 50
2.25000614E+02
 51
3.08244204E+02
  0
ARC
  8
0
 62
7
 10
2.28148438E+02
 20
1.11023087E+02
 40
1.00000000E+00
 50
3.21756388E+02
 51
4.50000423E+01
  0
ARC
  8
0
 62
7
 10
2.39500000E+02
 20
1.17381943E+02
 40
1.00000000E+00
 50
2.76756256E+02
 51
3.59721781E-05
  0
ARC
  8
0
 62
7
 10
2.39500000E+02
 20
1.21500000E+02
 40
1.00000000E+00
 50
3.59721781E-05
 51
9.00000162E+01
  0
ARC
  8
0
 62
7
 10
2.27062988E+02
 20
1.12108566E+02
 40
1.00000000E+00
 50
4.50006569E+01
 51
1.20522253E+02
  0
ARC
  8
0
 62
7
 10
2.24618042E+02
 20
1.02500000E+02
 40
1.00000000E+00
 50
2.70000038E+02
 51
3.53243910E+02
  0
ARC
  8
0
 62
7
 10
2.20500000E+02
 20
1.02500000E+02
 40
1.00000000E+00
 50
1.79999991E+02
 51
2.70000028E+02
  0
ARC
  8
0
 62
7
 10
2.29891418E+02
 20
1.14936981E+02
 40
1.00000000E+00
 50
1.49477556E+02
 51
2.24999381E+02
  0
CIRCLE
  8
0
 62
7
 10
2.22999939E+02
 20
1.19000000E+02
 40
4.50000000E+00
  0
CIRCLE
  8
0
 62
7
 10
2.22999939E+02
 20
1.19000000E+02
 40
5.00000000E+00
  0
ARC
  8
0
 62
7
 10
2.19500000E+02
 20
1.22499969E+02
 40
2.50000000E+00
 50
9.00000162E+01
 51
1.80000005E+02
  0
CIRCLE
  8
0
 62
2
 10
2.60000000E+02
 20
1.19000076E+02
 40
3.00000000E+00
  0
ARC
  8
0
 62
7
 10
2.13999985E+02
 20
1.28000000E+02
 40
3.50000000E+00
 50
8.99999818E+01
 51
1.79999964E+02
  0
ARC
  8
0
 62
7
 10
2.09340866E+02
 20
1.03499977E+02
 40
6.84084606E+00
 50
1.53989169E+02
 51
2.06010827E+02
  0
ARC
  8
0
 62
7
 10
2.09340866E+02
 20
9.74999924E+01
 40
6.84088755E+00
 50
1.53989320E+02
 51
2.06010690E+02
  0
ARC
  8
0
 62
7
 10
2.13999985E+02
 20
7.30000000E+01
 40
3.50000000E+00
 50
1.79999964E+02
 51
2.69999946E+02
  0
ARC
  8
0
 62
7
 10
2.69000031E+02
 20
1.28000000E+02
 40
3.50000000E+00
 50
0.00000000E+00
 51
8.99999818E+01
  0
ARC
  8
0
 62
7
 10
2.73659195E+02
 20
1.03499977E+02
 40
6.84084606E+00
 50
3.33989137E+02
 51
2.60107947E+01
  0
ARC
  8
0
 62
7
 10
2.73659103E+02
 20
9.74999924E+01
 40
6.84088755E+00
 50
3.33989274E+02
 51
2.60106444E+01
  0
ARC
  8
0
 62
7
 10
2.69000031E+02
 20
7.30000000E+01
 40
3.50000000E+00
 50
2.69999963E+02
 51
0.00000000E+00
  0
LINE
  8
0
 62
7
 10
2.23000059E+02
 20
8.54641149E+01
 11
2.26000061E+02
 21
8.37320631E+01
  0
LINE
  8
0
 62
7
 10
2.26000061E+02
 20
8.37320633E+01
 11
2.26000061E+02
 21
8.02679672E+01
  0
LINE
  8
0
 62
7
 10
2.26000062E+02
 20
8.02679678E+01
 11
2.23000054E+02
 21
7.85359121E+01
  0
LINE
  8
0
 62
7
 10
2.22999939E+02
 20
1.22464182E+02
 11
2.25999941E+02
 21
1.20732130E+02
  0
LINE
  8
0
 62
7
 10
2.57000000E+02
 20
1.20732132E+02
 11
2.57000000E+02
 21
1.17268021E+02
  0
LINE
  8
0
 62
7
 10
2.59999997E+02
 20
1.15535980E+02
 11
2.56999996E+02
 21
1.17268031E+02
  0
LINE
  8
0
 62
7
 10
2.62999991E+02
 20
1.17268024E+02
 11
2.59999996E+02
 21
1.15535976E+02
  0
LINE
  8
0
 62
7
 10
2.63000000E+02
 20
1.20732132E+02
 11
2.63000000E+02
 21
1.17268021E+02
  0
LINE
  8
0
 62
7
 10
2.59999991E+02
 20
1.22464177E+02
 11
2.56999996E+02
 21
1.20732129E+02
  0
LINE
  8
0
 62
7
 10
2.19999939E+02
 20
1.20732132E+02
 11
2.19999939E+02
 21
1.17268021E+02
  0
LINE
  8
0
 62
7
 10
2.22999941E+02
 20
1.15535977E+02
 11
2.19999939E+02
 21
1.17268029E+02
  0
LINE
  8
0
 62
7
 10
2.22999938E+02
 20
1.22464181E+02
 11
2.19999930E+02
 21
1.20732125E+02
  0
LINE
  8
0
 62
7
 10
2.30886963E+02
 20
1.18529190E+02
 11
2.32917053E+02
 21
1.18529190E+02
  0
LINE
  8
0
 62
7
 10
2.25999939E+02
 20
1.20732132E+02
 11
2.25999939E+02
 21
1.17268021E+02
  0
LINE
  8
0
 62
7
 10
2.25999938E+02
 20
1.17268028E+02
 11
2.22999930E+02
 21
1.15535973E+02
  0
LINE
  8
0
 62
7
 10
2.60000122E+02
 20
8.54641133E+01
 11
2.63000117E+02
 21
8.37320653E+01
  0
LINE
  8
0
 62
7
 10
2.57000122E+02
 20
8.37320633E+01
 11
2.57000122E+02
 21
8.02679672E+01
  0
LINE
  8
0
 62
7
 10
2.23000062E+02
 20
8.54641201E+01
 11
2.20000054E+02
 21
8.37320644E+01
  0
LINE
  8
0
 62
7
 10
2.19500000E+02
 20
1.05500031E+02
 11
2.19500000E+02
 21
9.54999695E+01
  0
LINE
  8
0
 62
7
 10
2.29184358E+02
 20
1.14229993E+02
 11
2.30269824E+02
 21
1.13144527E+02
  0
LINE
  8
0
 62
7
 10
2.40500000E+02
 20
1.21500000E+02
 11
2.40500000E+02
 21
1.17381943E+02
  0
LINE
  8
0
 62
7
 10
2.27770198E+02
 20
1.12815811E+02
 11
2.28855675E+02
 21
1.11730335E+02
  0
LINE
  8
0
 62
7
 10
2.20500000E+02
 20
1.01500000E+02
 11
2.24618042E+02
 21
1.01500000E+02
  0
LINE
  8
0
 62
7
 10
2.17000000E+02
 20
1.22499969E+02
 11
2.17000000E+02
 21
7.84999847E+01
  0
LINE
  8
0
 62
7
 10
2.19500000E+02
 20
1.25500031E+02
 11
2.63500061E+02
 21
1.25500031E+02
  0
LINE
  8
0
 62
7
 10
2.16500000E+02
 20
1.22500031E+02
 11
2.16500000E+02
 21
7.84999847E+01
  0
LINE
  8
0
 62
7
 10
2.20000061E+02
 20
8.37320633E+01
 11
2.20000061E+02
 21
8.02679672E+01
  0
LINE
  8
0
  6
CENTER
 62
2
 10
2.68589905E+02
 20
1.19000076E+02
 11
2.53923035E+02
 21
1.19000076E+02
  0
LINE
  8
0
  6
CENTER
 62
2
 10
2.60000000E+02
 20
1.27402649E+02
 11
2.60000000E+02
 21
1.11115662E+02
  0
LINE
  8
0
 62
7
 10
2.66500061E+02
 20
1.22500031E+02
 11
2.66500061E+02
 21
7.84999847E+01
  0
LINE
  8
0
 62
7
 10
2.66000000E+02
 20
1.22500031E+02
 11
2.66000000E+02
 21
7.85000153E+01
  0
LINE
  8
0
 62
7
 10
2.19500000E+02
 20
1.24999969E+02
 11
2.63500000E+02
 21
1.25000031E+02
  0
LINE
  8
0
  6
CENTER
 62
2
 10
2.45500061E+02
 20
1.27252396E+02
 11
2.45500061E+02
 21
1.16071793E+02
  0
LINE
  8
0
  6
CENTER
 62
2
 10
2.22999939E+02
 20
1.27506653E+02
 11
2.22999939E+02
 21
1.12585510E+02
  0
LINE
  8
0
 62
7
 10
2.23000061E+02
 20
7.85359107E+01
 11
2.20000059E+02
 21
8.02679626E+01
  0
LINE
  8
0
  6
CENTER
 62
2
 10
2.60000122E+02
 20
7.33769989E+01
 11
2.60000122E+02
 21
9.00195007E+01
  0
LINE
  8
0
  6
CENTER
 62
2
 10
2.68444702E+02
 20
8.20000153E+01
 11
2.53632629E+02
 21
8.20000153E+01
  0
LINE
  8
0
 62
7
 10
2.19500061E+02
 20
7.59999847E+01
 11
2.63500061E+02
 21
7.60000153E+01
  0
LINE
  8
0
 62
7
 10
2.42500000E+02
 20
1.21500000E+02
 11
2.42500000E+02
 21
1.17381958E+02
  0
LINE
  8
0
 62
7
 10
2.62500000E+02
 20
1.01500015E+02
 11
2.58381958E+02
 21
1.01500015E+02
  0
LINE
  8
0
 62
7
 10
2.55229937E+02
 20
1.12815690E+02
 11
2.54144461E+02
 21
1.11730214E+02
  0
LINE
  8
0
 62
7
 10
2.53815767E+02
 20
1.14229947E+02
 11
2.52730291E+02
 21
1.13144471E+02
  0
LINE
  8
0
 62
7
 10
2.36500000E+02
 20
1.22500031E+02
 11
2.46500061E+02
 21
1.22500031E+02
  0
LINE
  8
0
 62
7
 10
2.63500000E+02
 20
1.05500031E+02
 11
2.63500000E+02
 21
9.54999695E+01
  0
LINE
  8
0
 62
7
 10
2.62500000E+02
 20
9.95000153E+01
 11
2.58381958E+02
 21
9.95000153E+01
  0
LINE
  8
0
 62
7
 10
2.55230064E+02
 20
8.81844095E+01
 11
2.54144588E+02
 21
8.92698859E+01
  0
LINE
  8
0
 62
7
 10
2.42500061E+02
 20
7.95000305E+01
 11
2.42500061E+02
 21
8.36180725E+01
  0
LINE
  8
0
 62
7
 10
2.53815850E+02
 20
8.67702393E+01
 11
2.52730385E+02
 21
8.78557049E+01
  0
LINE
  8
0
 62
7
 10
2.36500000E+02
 20
7.84999695E+01
 11
2.46500061E+02
 21
7.84999695E+01
  0
LINE
  8
0
 62
7
 10
2.19500000E+02
 20
7.54999847E+01
 11
2.63500061E+02
 21
7.54999847E+01
  0
LINE
  8
0
 62
7
 10
2.40500061E+02
 20
7.95000305E+01
 11
2.40500061E+02
 21
8.36180725E+01
  0
LINE
  8
0
 62
7
 10
2.29184356E+02
 20
8.67699816E+01
 11
2.30269832E+02
 21
8.78554578E+01
  0
LINE
  8
0
 62
7
 10
2.20500000E+02
 20
9.94999847E+01
 11
2.24618042E+02
 21
9.94999847E+01
  0
LINE
  8
0
 62
7
 10
2.27770207E+02
 20
8.81842600E+01
 11
2.28855640E+02
 21
8.92696931E+01
  0
LINE
  8
0
 62
7
 10
2.59999996E+02
 20
1.22464184E+02
 11
2.62999997E+02
 21
1.20732132E+02
  0
LINE
  8
0
 62
7
 10
2.63000122E+02
 20
8.37320633E+01
 11
2.63000122E+02
 21
8.02679672E+01
  0
LINE
  8
0
 62
7
 10
2.63000115E+02
 20
8.02679644E+01
 11
2.60000119E+02
 21
7.85359164E+01
  0
LINE
  8
0
 62
7
 10
2.60000114E+02
 20
8.54641168E+01
 11
2.57000119E+02
 21
8.37320688E+01
  0
LINE
  8
0
 62
7
 10
2.60000117E+02
 20
7.85359129E+01
 11
2.57000122E+02
 21
8.02679610E+01
  0
LINE
  8
0
  6
CENTER
 62
2
 10
2.23000061E+02
 20
7.36119461E+01
 11
2.23000061E+02
 21
8.95763397E+01
  0
LINE
  8
0
 62
7
 10
2.61500000E+02
 20
1.25500031E+02
 11
2.61500000E+02
 21
1.25000031E+02
  0
LINE
  8
0
 62
7
 10
2.21500000E+02
 20
1.25500031E+02
 11
2.21500000E+02
 21
1.24999969E+02
  0
LINE
  8
0
 62
7
 10
2.61500000E+02
 20
7.60000153E+01
 11
2.61500000E+02
 21
7.54999847E+01
  0
LINE
  8
0
 62
7
 10
2.21500000E+02
 20
7.59999847E+01
 11
2.21500000E+02
 21
7.54999847E+01
  0
LINE
  8
0
 62
7
 10
2.52213196E+02
 20
8.25000153E+01
 11
2.50250061E+02
 21
8.25000153E+01
  0
LINE
  8
0
 62
7
 10
2.30788086E+02
 20
8.24999237E+01
 11
2.32750000E+02
 21
8.24999237E+01
  0
LINE
  8
0
 62
7
 10
2.23500061E+02
 20
8.97873993E+01
 11
2.23500061E+02
 21
9.17499695E+01
  0
LINE
  8
0
 62
7
 10
2.23499939E+02
 20
1.11211304E+02
 11
2.23499939E+02
 21
1.09250031E+02
  0
LINE
  8
0
 62
7
 10
2.52211731E+02
 20
1.18500092E+02
 11
2.50250061E+02
 21
1.18500092E+02
  0
LINE
  8
0
 62
7
 10
2.59500000E+02
 20
1.11212158E+02
 11
2.59500000E+02
 21
1.09250031E+02
  0
LINE
  8
0
 62
7
 10
2.59500000E+02
 20
8.97878418E+01
 11
2.59500000E+02
 21
9.17499695E+01
  0
LINE
  8
0
  6
CENTER
 62
2
 10
2.29381409E+02
 20
8.20000153E+01
 11
2.14859741E+02
 21
8.20000153E+01
  0
LINE
  8
0
  6
CENTER
 62
2
 10
2.29381409E+02
 20
1.19000076E+02
 11
2.14859741E+02
 21
1.19000076E+02
  0
LINE
  8
0
 62
7
 10
2.14000031E+02
 20
1.31500000E+02
 11
2.19023319E+02
 21
1.31500000E+02
  0
LINE
  8
0
 62
7
 10
2.10500023E+02
 20
1.28000015E+02
 11
2.10500023E+02
 21
7.30000000E+01
  0
LINE
  8
0
 62
7
 10
2.09000031E+02
 20
1.06499985E+02
 11
2.02500046E+02
 21
1.06499985E+02
  0
LINE
  8
0
 62
7
 10
2.09000031E+02
 20
1.00499985E+02
 11
2.03192841E+02
 21
1.00499985E+02
  0
LINE
  8
0
 62
7
 10
2.09000031E+02
 20
9.44999847E+01
 11
2.02500046E+02
 21
9.44999847E+01
  0
LINE
  8
0
 62
7
 10
1.97499961E+02
 20
1.03800093E+02
 11
1.98199979E+02
 21
1.04500111E+02
  0
LINE
  8
0
 62
7
 10
1.98199994E+02
 20
9.64998937E+01
 11
1.97500001E+02
 21
9.71998867E+01
  0
LINE
  8
0
 62
7
 10
1.98200005E+02
 20
9.65000229E+01
 11
1.98200005E+02
 21
1.04499977E+02
  0
LINE
  8
0
 62
2
 10
2.02500046E+02
 20
1.03799965E+02
 11
1.97500046E+02
 21
1.03799965E+02
  0
LINE
  8
0
 62
2
 10
2.02500046E+02
 20
9.71999664E+01
 11
1.97500046E+02
 21
9.71999664E+01
  0
LINE
  8
0
 62
7
 10
2.02500046E+02
 20
1.04499962E+02
 11
1.98200119E+02
 21
1.04499962E+02
  0
LINE
  8
0
 62
7
 10
2.02500046E+02
 20
9.64999847E+01
 11
1.98200119E+02
 21
9.64999847E+01
  0
LINE
  8
0
 62
7
 10
2.02500046E+02
 20
9.45000000E+01
 11
2.02500046E+02
 21
1.06499985E+02
  0
LINE
  8
0
 62
7
 10
1.97500046E+02
 20
9.72000275E+01
 11
1.97500046E+02
 21
1.03799980E+02
  0
LINE
  8
0
 62
7
 10
2.10500076E+02
 20
9.24999924E+01
 11
2.09000031E+02
 21
9.24999924E+01
  0
LINE
  8
0
 62
7
 10
2.10500076E+02
 20
1.08499977E+02
 11
2.09000031E+02
 21
1.08499977E+02
  0
LINE
  8
0
 62
7
 10
2.08999985E+02
 20
9.25000153E+01
 11
2.08999985E+02
 21
1.08499992E+02
  0
LINE
  8
0
 62
7
 10
2.72499939E+02
 20
1.28000015E+02
 11
2.72499939E+02
 21
7.30000000E+01
  0
LINE
  8
0
 62
7
 10
2.80500015E+02
 20
9.45000000E+01
 11
2.80500015E+02
 21
1.06499985E+02
  0
LINE
  8
0
 62
7
 10
2.74000137E+02
 20
9.44999847E+01
 11
2.80500076E+02
 21
9.44999847E+01
  0
LINE
  8
0
 62
7
 10
2.74000031E+02
 20
1.00499985E+02
 11
2.79807175E+02
 21
1.00499985E+02
  0
LINE
  8
0
 62
7
 10
2.74000137E+02
 20
1.06499985E+02
 11
2.80500076E+02
 21
1.06499985E+02
  0
LINE
  8
0
 62
7
 10
2.85500085E+02
 20
1.03799875E+02
 11
2.84800075E+02
 21
1.04499885E+02
  0
LINE
  8
0
 62
7
 10
2.84799968E+02
 20
9.65000703E+01
 11
2.85500029E+02
 21
9.72001315E+01
  0
LINE
  8
0
 62
7
 10
2.84800049E+02
 20
9.65000229E+01
 11
2.84800049E+02
 21
1.04499977E+02
  0
LINE
  8
0
 62
2
 10
2.80500076E+02
 20
1.03799965E+02
 11
2.85500076E+02
 21
1.03799965E+02
  0
LINE
  8
0
 62
2
 10
2.80500076E+02
 20
9.71999664E+01
 11
2.85500076E+02
 21
9.71999664E+01
  0
LINE
  8
0
 62
7
 10
2.80500076E+02
 20
1.04499962E+02
 11
2.84800095E+02
 21
1.04499962E+02
  0
LINE
  8
0
 62
7
 10
2.80500076E+02
 20
9.64999847E+01
 11
2.84800095E+02
 21
9.64999847E+01
  0
LINE
  8
0
 62
7
 10
2.85500015E+02
 20
9.72000275E+01
 11
2.85500015E+02
 21
1.03799980E+02
  0
LINE
  8
0
 62
7
 10
2.72500046E+02
 20
9.24999924E+01
 11
2.74000031E+02
 21
9.24999924E+01
  0
LINE
  8
0
 62
7
 10
2.72500046E+02
 20
1.08499977E+02
 11
2.74000031E+02
 21
1.08499977E+02
  0
LINE
  8
0
 62
7
 10
2.73999985E+02
 20
9.25000153E+01
 11
2.73999985E+02
 21
1.08499992E+02
  0
LINE
  8
0
 62
7
 10
2.14000031E+02
 20
6.94999924E+01
 11
2.69000031E+02
 21
6.94999924E+01
  0
LINE
  8
0
  6
CENTER
 62
2
 10
1.95565178E+02
 20
1.00500000E+02
 11
2.87717667E+02
 21
1.00500000E+02
  0
LINE
  8
0
  6
CENTER
 62
2
 10
2.41500000E+02
 20
1.35125900E+02
 11
2.41500000E+02
 21
6.69905014E+01
  0
LINE
  8
0
  6
PHANTOM
 10
5.50000000E+00
 20
3.46114332E+02
 11
5.50000000E+00
 21
1.88293036E+02
  0
LINE
  8
0
 62
7
 10
3.49999542E+01
 20
2.58500015E+02
 11
5.64999571E+01
 21
2.58500015E+02
  0
LINE
  8
0
 62
7
 10
3.49999542E+01
 20
2.59350006E+02
 11
5.64999571E+01
 21
2.59350006E+02
  0
LINE
  8
0
 62
7
 10
3.49999542E+01
 20
2.64649994E+02
 11
5.64999571E+01
 21
2.64649994E+02
  0
LINE
  8
0
 62
7
 10
-8.99995422E+00
 20
2.96350006E+02
 11
5.64999571E+01
 21
2.96350006E+02
  0
LINE
  8
0
 62
7
 10
-8.99995422E+00
 20
3.02500000E+02
 11
5.64999571E+01
 21
3.02500000E+02
  0
LINE
  8
0
 62
7
 10
-8.99995422E+00
 20
3.01649994E+02
 11
5.64999571E+01
 21
3.01649994E+02
  0
LINE
  8
0
 62
4
 10
-1.27068436E+01
 20
2.82494826E+02
 11
-8.99995422E+00
 21
2.82494826E+02
  0
LINE
  8
0
  6
CENTER
 62
6
 10
-3.39999542E+01
 20
2.83519350E+02
 11
-2.89999542E+01
 21
2.83519350E+02
  0
LINE
  8
0
  6
CENTER
 62
6
 10
-3.14999542E+01
 20
2.86019350E+02
 11
-3.14999542E+01
 21
2.81019350E+02
  0
LINE
  8
0
  6
CENTER
 62
6
 10
-1.89999542E+01
 20
2.83519350E+02
 11
-1.39999542E+01
 21
2.83519350E+02
  0
LINE
  8
0
  6
CENTER
 62
6
 10
-1.64999542E+01
 20
2.86019350E+02
 11
-1.64999542E+01
 21
2.81019350E+02
  0
LINE
  8
0
  6
CENTER
 62
6
 10
-2.64999542E+01
 20
2.82911582E+02
 11
-2.14999542E+01
 21
2.82911582E+02
  0
ARC
  8
0
 62
4
 10
-1.43782006E+01
 20
2.92520147E+02
 40
1.25306626E+01
 50
2.51916648E+02
 51
2.65031340E+02
  0
ARC
  8
0
 62
4
 10
-1.86217078E+01
 20
2.92520147E+02
 40
1.25306621E+01
 50
2.74968660E+02
 51
2.88083352E+02
  0
ARC
  8
0
 62
4
 10
-1.88999545E+01
 20
2.81260790E+02
 40
1.00000000E+00
 50
1.80000000E+02
 51
2.57172490E+02
  0
ARC
  8
0
 62
4
 10
-1.40999539E+01
 20
2.81260790E+02
 40
1.00000000E+00
 50
2.82827510E+02
 51
5.08888749E-14
  0
ARC
  8
0
 62
4
 10
-1.64999542E+01
 20
2.91801003E+02
 40
1.18100000E+01
 50
2.57172490E+02
 51
2.82827510E+02
  0
POLYLINE
  8
0
 62
4
 66
1
  0
VERTEX
  8
0
 62
4
 10
-1.30999542E+01
 20
2.82534543E+02
  0
VERTEX
  8
0
 62
4
 10
-1.31136416E+01
 20
2.82587466E+02
  0
VERTEX
  8
0
 62
4
 10
-1.31545936E+01
 20
2.82639964E+02
  0
VERTEX
  8
0
 62
4
 10
-1.32224805E+01
 20
2.82691612E+02
  0
VERTEX
  8
0
 62
4
 10
-1.33167556E+01
 20
2.82741996E+02
  0
VERTEX
  8
0
 62
4
 10
-1.34366600E+01
 20
2.82790710E+02
  0
VERTEX
  8
0
 62
4
 10
-1.35812283E+01
 20
2.82837361E+02
  0
VERTEX
  8
0
 62
4
 10
-1.37492964E+01
 20
2.82881574E+02
  0
VERTEX
  8
0
 62
4
 10
-1.39395112E+01
 20
2.82922993E+02
  0
VERTEX
  8
0
 62
4
 10
-1.41503412E+01
 20
2.82961284E+02
  0
VERTEX
  8
0
 62
4
 10
-1.43800889E+01
 20
2.82996139E+02
  0
VERTEX
  8
0
 62
4
 10
-1.46269044E+01
 20
2.83027278E+02
  0
VERTEX
  8
0
 62
4
 10
-1.48888007E+01
 20
2.83054450E+02
  0
VERTEX
  8
0
 62
4
 10
-1.51636691E+01
 20
2.83077436E+02
  0
VERTEX
  8
0
 62
4
 10
-1.54492964E+01
 20
2.83096050E+02
  0
VERTEX
  8
0
 62
4
 10
-1.57433830E+01
 20
2.83110144E+02
  0
VERTEX
  8
0
 62
4
 10
-1.60435611E+01
 20
2.83119604E+02
  0
VERTEX
  8
0
 62
4
 10
-1.63474138E+01
 20
2.83124352E+02
  0
VERTEX
  8
0
 62
4
 10
-1.66524946E+01
 20
2.83124352E+02
  0
VERTEX
  8
0
 62
4
 10
-1.69563473E+01
 20
2.83119604E+02
  0
VERTEX
  8
0
 62
4
 10
-1.72565254E+01
 20
2.83110144E+02
  0
VERTEX
  8
0
 62
4
 10
-1.75506120E+01
 20
2.83096050E+02
  0
VERTEX
  8
0
 62
4
 10
-1.78362393E+01
 20
2.83077436E+02
  0
VERTEX
  8
0
 62
4
 10
-1.81111076E+01
 20
2.83054450E+02
  0
VERTEX
  8
0
 62
4
 10
-1.83730039E+01
 20
2.83027278E+02
  0
VERTEX
  8
0
 62
4
 10
-1.86198195E+01
 20
2.82996139E+02
  0
VERTEX
  8
0
 62
4
 10
-1.88495672E+01
 20
2.82961284E+02
  0
VERTEX
  8
0
 62
4
 10
-1.90603972E+01
 20
2.82922993E+02
  0
VERTEX
  8
0
 62
4
 10
-1.92506120E+01
 20
2.82881574E+02
  0
VERTEX
  8
0
 62
4
 10
-1.94186801E+01
 20
2.82837361E+02
  0
VERTEX
  8
0
 62
4
 10
-1.95632483E+01
 20
2.82790710E+02
  0
VERTEX
  8
0
 62
4
 10
-1.96831528E+01
 20
2.82741996E+02
  0
VERTEX
  8
0
 62
4
 10
-1.97774279E+01
 20
2.82691612E+02
  0
VERTEX
  8
0
 62
4
 10
-1.98453148E+01
 20
2.82639964E+02
  0
VERTEX
  8
0
 62
4
 10
-1.98862668E+01
 20
2.82587466E+02
  0
VERTEX
  8
0
 62
4
 10
-1.98999542E+01
 20
2.82534543E+02
  0
SEQEND
  8
0
  0
LINE
  8
0
 62
4
 10
-1.30999542E+01
 20
2.81260790E+02
 11
-1.30999542E+01
 21
2.82534543E+02
  0
LINE
  8
0
 62
4
 10
-1.98999542E+01
 20
2.81260790E+02
 11
-1.98999542E+01
 21
2.82534543E+02
  0
POLYLINE
  8
0
 62
4
 66
1
  0
VERTEX
  8
0
 62
4
 10
-1.30999542E+01
 20
2.82239852E+02
  0
VERTEX
  8
0
 62
4
 10
-1.29633725E+01
 20
2.82293141E+02
  0
VERTEX
  8
0
 62
4
 10
-1.28544247E+01
 20
2.82348317E+02
  0
VERTEX
  8
0
 62
4
 10
-1.27739619E+01
 20
2.82404947E+02
  0
VERTEX
  8
0
 62
4
 10
-1.27226129E+01
 20
2.82462590E+02
  0
VERTEX
  8
0
 62
4
 10
-1.27007789E+01
 20
2.82520796E+02
  0
VERTEX
  8
0
 62
4
 10
-1.27086306E+01
 20
2.82579109E+02
  0
VERTEX
  8
0
 62
4
 10
-1.27461066E+01
 20
2.82637073E+02
  0
VERTEX
  8
0
 62
4
 10
-1.28129140E+01
 20
2.82694236E+02
  0
VERTEX
  8
0
 62
4
 10
-1.29085308E+01
 20
2.82750152E+02
  0
VERTEX
  8
0
 62
4
 10
-1.30322100E+01
 20
2.82804383E+02
  0
VERTEX
  8
0
 62
4
 10
-1.31829851E+01
 20
2.82856505E+02
  0
VERTEX
  8
0
 62
4
 10
-1.33596780E+01
 20
2.82906112E+02
  0
VERTEX
  8
0
 62
4
 10
-1.35609080E+01
 20
2.82952816E+02
  0
VERTEX
  8
0
 62
4
 10
-1.37851030E+01
 20
2.82996251E+02
  0
VERTEX
  8
0
 62
4
 10
-1.40305109E+01
 20
2.83036078E+02
  0
VERTEX
  8
0
 62
4
 10
-1.42952144E+01
 20
2.83071987E+02
  0
VERTEX
  8
0
 62
4
 10
-1.45771450E+01
 20
2.83103696E+02
  0
VERTEX
  8
0
 62
4
 10
-1.48740999E+01
 20
2.83130958E+02
  0
VERTEX
  8
0
 62
4
 10
-1.51837588E+01
 20
2.83153560E+02
  0
VERTEX
  8
0
 62
4
 10
-1.55037020E+01
 20
2.83171325E+02
  0
VERTEX
  8
0
 62
4
 10
-1.58314296E+01
 20
2.83184114E+02
  0
VERTEX
  8
0
 62
4
 10
-1.61643809E+01
 20
2.83191828E+02
  0
VERTEX
  8
0
 62
4
 10
-1.64999542E+01
 20
2.83194406E+02
  0
VERTEX
  8
0
 62
4
 10
-1.68355276E+01
 20
2.83191828E+02
  0
VERTEX
  8
0
 62
4
 10
-1.71684788E+01
 20
2.83184114E+02
  0
VERTEX
  8
0
 62
4
 10
-1.74962065E+01
 20
2.83171325E+02
  0
VERTEX
  8
0
 62
4
 10
-1.78161497E+01
 20
2.83153560E+02
  0
VERTEX
  8
0
 62
4
 10
-1.81258085E+01
 20
2.83130958E+02
  0
VERTEX
  8
0
 62
4
 10
-1.84227634E+01
 20
2.83103696E+02
  0
VERTEX
  8
0
 62
4
 10
-1.87046941E+01
 20
2.83071987E+02
  0
VERTEX
  8
0
 62
4
 10
-1.89693975E+01
 20
2.83036078E+02
  0
VERTEX
  8
0
 62
4
 10
-1.92148055E+01
 20
2.82996251E+02
  0
VERTEX
  8
0
 62
4
 10
-1.94390004E+01
 20
2.82952816E+02
  0
VERTEX
  8
0
 62
4
 10
-1.96402305E+01
 20
2.82906112E+02
  0
VERTEX
  8
0
 62
4
 10
-1.98169234E+01
 20
2.82856505E+02
  0
VERTEX
  8
0
 62
4
 10
-1.99676984E+01
 20
2.82804383E+02
  0
VERTEX
  8
0
 62
4
 10
-2.00913776E+01
 20
2.82750152E+02
  0
VERTEX
  8
0
 62
4
 10
-2.01869944E+01
 20
2.82694237E+02
  0
VERTEX
  8
0
 62
4
 10
-2.02538018E+01
 20
2.82637073E+02
  0
VERTEX
  8
0
 62
4
 10
-2.02912778E+01
 20
2.82579109E+02
  0
VERTEX
  8
0
 62
4
 10
-2.02991295E+01
 20
2.82520796E+02
  0
VERTEX
  8
0
 62
4
 10
-2.02772955E+01
 20
2.82462590E+02
  0
VERTEX
  8
0
 62
4
 10
-2.02259465E+01
 20
2.82404947E+02
  0
VERTEX
  8
0
 62
4
 10
-2.01454837E+01
 20
2.82348317E+02
  0
VERTEX
  8
0
 62
4
 10
-2.00365359E+01
 20
2.82293141E+02
  0
VERTEX
  8
0
 62
4
 10
-1.98999542E+01
 20
2.82239852E+02
  0
SEQEND
  8
0
  0
POLYLINE
  8
0
 62
4
 66
1
  0
VERTEX
  8
0
 62
4
 10
-1.26999542E+01
 20
2.83519350E+02
  0
VERTEX
  8
0
 62
4
 10
-1.27152519E+01
 20
2.83578500E+02
  0
VERTEX
  8
0
 62
4
 10
-1.27610218E+01
 20
2.83637173E+02
  0
VERTEX
  8
0
 62
4
 10
-1.28368953E+01
 20
2.83694898E+02
  0
VERTEX
  8
0
 62
4
 10
-1.29422617E+01
 20
2.83751209E+02
  0
VERTEX
  8
0
 62
4
 10
-1.30762725E+01
 20
2.83805654E+02
  0
VERTEX
  8
0
 62
4
 10
-1.32378488E+01
 20
2.83857793E+02
  0
VERTEX
  8
0
 62
4
 10
-1.34256896E+01
 20
2.83907208E+02
  0
VERTEX
  8
0
 62
4
 10
-1.36382826E+01
 20
2.83953499E+02
  0
VERTEX
  8
0
 62
4
 10
-1.38739161E+01
 20
2.83996296E+02
  0
VERTEX
  8
0
 62
4
 10
-1.41306929E+01
 20
2.84035252E+02
  0
VERTEX
  8
0
 62
4
 10
-1.44065457E+01
 20
2.84070054E+02
  0
VERTEX
  8
0
 62
4
 10
-1.46992533E+01
 20
2.84100422E+02
  0
VERTEX
  8
0
 62
4
 10
-1.50064591E+01
 20
2.84126112E+02
  0
VERTEX
  8
0
 62
4
 10
-1.53256896E+01
 20
2.84146917E+02
  0
VERTEX
  8
0
 62
4
 10
-1.56543746E+01
 20
2.84162669E+02
  0
VERTEX
  8
0
 62
4
 10
-1.59898678E+01
 20
2.84173241E+02
  0
VERTEX
  8
0
 62
4
 10
-1.63294678E+01
 20
2.84178549E+02
  0
VERTEX
  8
0
 62
4
 10
-1.66704405E+01
 20
2.84178549E+02
  0
VERTEX
  8
0
 62
4
 10
-1.70100406E+01
 20
2.84173241E+02
  0
VERTEX
  8
0
 62
4
 10
-1.73455337E+01
 20
2.84162669E+02
  0
VERTEX
  8
0
 62
4
 10
-1.76742188E+01
 20
2.84146917E+02
  0
VERTEX
  8
0
 62
4
 10
-1.79934493E+01
 20
2.84126112E+02
  0
VERTEX
  8
0
 62
4
 10
-1.83006551E+01
 20
2.84100422E+02
  0
VERTEX
  8
0
 62
4
 10
-1.85933627E+01
 20
2.84070054E+02
  0
VERTEX
  8
0
 62
4
 10
-1.88692154E+01
 20
2.84035252E+02
  0
VERTEX
  8
0
 62
4
 10
-1.91259922E+01
 20
2.83996296E+02
  0
VERTEX
  8
0
 62
4
 10
-1.93616258E+01
 20
2.83953499E+02
  0
VERTEX
  8
0
 62
4
 10
-1.95742188E+01
 20
2.83907208E+02
  0
VERTEX
  8
0
 62
4
 10
-1.97620596E+01
 20
2.83857793E+02
  0
VERTEX
  8
0
 62
4
 10
-1.99236359E+01
 20
2.83805654E+02
  0
VERTEX
  8
0
 62
4
 10
-2.00576467E+01
 20
2.83751209E+02
  0
VERTEX
  8
0
 62
4
 10
-2.01630131E+01
 20
2.83694898E+02
  0
VERTEX
  8
0
 62
4
 10
-2.02388866E+01
 20
2.83637173E+02
  0
VERTEX
  8
0
 62
4
 10
-2.02846565E+01
 20
2.83578500E+02
  0
VERTEX
  8
0
 62
4
 10
-2.02999542E+01
 20
2.83519350E+02
  0
SEQEND
  8
0
  0
LINE
  8
0
 62
4
 10
-1.26999542E+01
 20
2.82534543E+02
 11
-1.26999542E+01
 21
2.83519350E+02
  0
LINE
  8
0
 62
4
 10
-2.02999542E+01
 20
2.82534543E+02
 11
-2.02999542E+01
 21
2.83519350E+02
  0
ARC
  8
0
 62
4
 10
-2.00999542E+01
 20
2.80809430E+02
 40
2.50000000E-01
 50
2.89675999E+02
 51
0.00000000E+00
  0
ARC
  8
0
 62
4
 10
-2.78999542E+01
 20
2.80809430E+02
 40
2.50000000E-01
 50
1.80000000E+02
 51
2.50324001E+02
  0
POLYLINE
  8
0
 62
4
 66
1
  0
VERTEX
  8
0
 62
4
 10
-1.98499542E+01
 20
2.80804093E+02
  0
VERTEX
  8
0
 62
4
 10
-1.98666609E+01
 20
2.80868691E+02
  0
VERTEX
  8
0
 62
4
 10
-1.99166464E+01
 20
2.80932768E+02
  0
VERTEX
  8
0
 62
4
 10
-1.99995083E+01
 20
2.80995810E+02
  0
VERTEX
  8
0
 62
4
 10
-2.01145795E+01
 20
2.81057308E+02
  0
VERTEX
  8
0
 62
4
 10
-2.02609334E+01
 20
2.81116767E+02
  0
VERTEX
  8
0
 62
4
 10
-2.04373917E+01
 20
2.81173709E+02
  0
VERTEX
  8
0
 62
4
 10
-2.06425337E+01
 20
2.81227675E+02
  0
VERTEX
  8
0
 62
4
 10
-2.08747076E+01
 20
2.81278230E+02
  0
VERTEX
  8
0
 62
4
 10
-2.11320442E+01
 20
2.81324968E+02
  0
VERTEX
  8
0
 62
4
 10
-2.14124715E+01
 20
2.81367512E+02
  0
VERTEX
  8
0
 62
4
 10
-2.17137317E+01
 20
2.81405520E+02
  0
VERTEX
  8
0
 62
4
 10
-2.20333992E+01
 20
2.81438685E+02
  0
VERTEX
  8
0
 62
4
 10
-2.23689003E+01
 20
2.81466741E+02
  0
VERTEX
  8
0
 62
4
 10
-2.27175336E+01
 20
2.81489462E+02
  0
VERTEX
  8
0
 62
4
 10
-2.30764923E+01
 20
2.81506665E+02
  0
VERTEX
  8
0
 62
4
 10
-2.34428861E+01
 20
2.81518211E+02
  0
VERTEX
  8
0
 62
4
 10
-2.38137651E+01
 20
2.81524007E+02
  0
VERTEX
  8
0
 62
4
 10
-2.41861432E+01
 20
2.81524007E+02
  0
VERTEX
  8
0
 62
4
 10
-2.45570222E+01
 20
2.81518211E+02
  0
VERTEX
  8
0
 62
4
 10
-2.49234161E+01
 20
2.81506665E+02
  0
VERTEX
  8
0
 62
4
 10
-2.52823747E+01
 20
2.81489462E+02
  0
VERTEX
  8
0
 62
4
 10
-2.56310081E+01
 20
2.81466741E+02
  0
VERTEX
  8
0
 62
4
 10
-2.59665091E+01
 20
2.81438685E+02
  0
VERTEX
  8
0
 62
4
 10
-2.62861767E+01
 20
2.81405520E+02
  0
VERTEX
  8
0
 62
4
 10
-2.65874369E+01
 20
2.81367512E+02
  0
VERTEX
  8
0
 62
4
 10
-2.68678642E+01
 20
2.81324968E+02
  0
VERTEX
  8
0
 62
4
 10
-2.71252008E+01
 20
2.81278230E+02
  0
VERTEX
  8
0
 62
4
 10
-2.73573747E+01
 20
2.81227675E+02
  0
VERTEX
  8
0
 62
4
 10
-2.75625167E+01
 20
2.81173709E+02
  0
VERTEX
  8
0
 62
4
 10
-2.77389750E+01
 20
2.81116767E+02
  0
VERTEX
  8
0
 62
4
 10
-2.78853289E+01
 20
2.81057308E+02
  0
VERTEX
  8
0
 62
4
 10
-2.80004001E+01
 20
2.80995810E+02
  0
VERTEX
  8
0
 62
4
 10
-2.80832620E+01
 20
2.80932768E+02
  0
VERTEX
  8
0
 62
4
 10
-2.81332475E+01
 20
2.80868691E+02
  0
VERTEX
  8
0
 62
4
 10
-2.81499542E+01
 20
2.80804093E+02
  0
SEQEND
  8
0
  0
ARC
  8
0
 62
4
 10
-2.18813484E+01
 20
2.92395673E+02
 40
1.25124547E+01
 50
2.51904586E+02
 51
2.65058365E+02
  0
ARC
  8
0
 62
4
 10
-2.61185598E+01
 20
2.92395671E+02
 40
1.25124521E+01
 50
2.74941635E+02
 51
2.88095416E+02
  0
POLYLINE
  8
0
 62
4
 66
1
  0
VERTEX
  8
0
 62
4
 10
-2.02999542E+01
 20
2.83175504E+02
  0
VERTEX
  8
0
 62
4
 10
-2.04492622E+01
 20
2.83231424E+02
  0
VERTEX
  8
0
 62
4
 10
-2.06265309E+01
 20
2.83284825E+02
  0
VERTEX
  8
0
 62
4
 10
-2.08303643E+01
 20
2.83335287E+02
  0
VERTEX
  8
0
 62
4
 10
-2.10591574E+01
 20
2.83382412E+02
  0
VERTEX
  8
0
 62
4
 10
-2.13111084E+01
 20
2.83425830E+02
  0
VERTEX
  8
0
 62
4
 10
-2.15842334E+01
 20
2.83465198E+02
  0
VERTEX
  8
0
 62
4
 10
-2.18763815E+01
 20
2.83500207E+02
  0
VERTEX
  8
0
 62
4
 10
-2.21852521E+01
 20
2.83530580E+02
  0
VERTEX
  8
0
 62
4
 10
-2.25084130E+01
 20
2.83556079E+02
  0
VERTEX
  8
0
 62
4
 10
-2.28433194E+01
 20
2.83576503E+02
  0
VERTEX
  8
0
 62
4
 10
-2.31873340E+01
 20
2.83591690E+02
  0
VERTEX
  8
0
 62
4
 10
-2.35377477E+01
 20
2.83601522E+02
  0
VERTEX
  8
0
 62
4
 10
-2.38918011E+01
 20
2.83605921E+02
  0
VERTEX
  8
0
 62
4
 10
-2.42467063E+01
 20
2.83604852E+02
  0
VERTEX
  8
0
 62
4
 10
-2.45996683E+01
 20
2.83598324E+02
  0
VERTEX
  8
0
 62
4
 10
-2.49479078E+01
 20
2.83586388E+02
  0
VERTEX
  8
0
 62
4
 10
-2.52886823E+01
 20
2.83569137E+02
  0
VERTEX
  8
0
 62
4
 10
-2.56193085E+01
 20
2.83546709E+02
  0
VERTEX
  8
0
 62
4
 10
-2.59371828E+01
 20
2.83519280E+02
  0
VERTEX
  8
0
 62
4
 10
-2.62398019E+01
 20
2.83487065E+02
  0
VERTEX
  8
0
 62
4
 10
-2.65247828E+01
 20
2.83450318E+02
  0
VERTEX
  8
0
 62
4
 10
-2.67898814E+01
 20
2.83409329E+02
  0
VERTEX
  8
0
 62
4
 10
-2.70330101E+01
 20
2.83364420E+02
  0
VERTEX
  8
0
 62
4
 10
-2.72522544E+01
 20
2.83315945E+02
  0
VERTEX
  8
0
 62
4
 10
-2.74458876E+01
 20
2.83264286E+02
  0
VERTEX
  8
0
 62
4
 10
-2.76123851E+01
 20
2.83209850E+02
  0
VERTEX
  8
0
 62
4
 10
-2.77504358E+01
 20
2.83153065E+02
  0
VERTEX
  8
0
 62
4
 10
-2.78589524E+01
 20
2.83094378E+02
  0
VERTEX
  8
0
 62
4
 10
-2.79370804E+01
 20
2.83034252E+02
  0
VERTEX
  8
0
 62
4
 10
-2.79842048E+01
 20
2.82973159E+02
  0
VERTEX
  8
0
 62
4
 10
-2.79999542E+01
 20
2.82911582E+02
  0
SEQEND
  8
0
  0
LINE
  8
0
 62
4
 10
-2.79999542E+01
 20
2.82911582E+02
 11
-2.79999542E+01
 21
2.82729352E+02
  0
LINE
  8
0
 62
4
 10
-1.98499542E+01
 20
2.80809430E+02
 11
-1.98499542E+01
 21
2.80948539E+02
  0
LINE
  8
0
 62
4
 10
-2.81499542E+01
 20
2.80809430E+02
 11
-2.81499542E+01
 21
2.82537355E+02
  0
ARC
  8
0
 62
4
 10
-2.40076925E+01
 20
2.91694461E+02
 40
1.18100000E+01
 50
2.50324001E+02
 51
2.70037542E+02
  0
ARC
  8
0
 62
4
 10
-2.39922159E+01
 20
2.91694461E+02
 40
1.18100000E+01
 50
2.69962458E+02
 51
2.89675999E+02
  0
POLYLINE
  8
0
 62
4
 66
1
  0
VERTEX
  8
0
 62
4
 10
-2.02999542E+01
 20
2.82863726E+02
  0
VERTEX
  8
0
 62
4
 10
-2.04817692E+01
 20
2.82919573E+02
  0
VERTEX
  8
0
 62
4
 10
-2.06914664E+01
 20
2.82972392E+02
  0
VERTEX
  8
0
 62
4
 10
-2.09273841E+01
 20
2.83021762E+02
  0
VERTEX
  8
0
 62
4
 10
-2.11876524E+01
 20
2.83067294E+02
  0
VERTEX
  8
0
 62
4
 10
-2.14702087E+01
 20
2.83108625E+02
  0
VERTEX
  8
0
 62
4
 10
-2.17728138E+01
 20
2.83145430E+02
  0
VERTEX
  8
0
 62
4
 10
-2.20930693E+01
 20
2.83177415E+02
  0
VERTEX
  8
0
 62
4
 10
-2.24284373E+01
 20
2.83204328E+02
  0
VERTEX
  8
0
 62
4
 10
-2.27762598E+01
 20
2.83225954E+02
  0
VERTEX
  8
0
 62
4
 10
-2.31337804E+01
 20
2.83242124E+02
  0
VERTEX
  8
0
 62
4
 10
-2.34981655E+01
 20
2.83252708E+02
  0
VERTEX
  8
0
 62
4
 10
-2.38665274E+01
 20
2.83257622E+02
  0
VERTEX
  8
0
 62
4
 10
-2.42359467E+01
 20
2.83256829E+02
  0
VERTEX
  8
0
 62
4
 10
-2.46034958E+01
 20
2.83250333E+02
  0
VERTEX
  8
0
 62
4
 10
-2.49662616E+01
 20
2.83238187E+02
  0
VERTEX
  8
0
 62
4
 10
-2.53213693E+01
 20
2.83220487E+02
  0
VERTEX
  8
0
 62
4
 10
-2.56660046E+01
 20
2.83197373E+02
  0
VERTEX
  8
0
 62
4
 10
-2.59974360E+01
 20
2.83169028E+02
  0
VERTEX
  8
0
 62
4
 10
-2.63130371E+01
 20
2.83135677E+02
  0
VERTEX
  8
0
 62
4
 10
-2.66103065E+01
 20
2.83097584E+02
  0
VERTEX
  8
0
 62
4
 10
-2.68868885E+01
 20
2.83055051E+02
  0
VERTEX
  8
0
 62
4
 10
-2.71405909E+01
 20
2.83008416E+02
  0
VERTEX
  8
0
 62
4
 10
-2.73694032E+01
 20
2.82958047E+02
  0
VERTEX
  8
0
 62
4
 10
-2.75715120E+01
 20
2.82904344E+02
  0
VERTEX
  8
0
 62
4
 10
-2.77453155E+01
 20
2.82847732E+02
  0
VERTEX
  8
0
 62
4
 10
-2.78894363E+01
 20
2.82788661E+02
  0
VERTEX
  8
0
 62
4
 10
-2.80027323E+01
 20
2.82727598E+02
  0
VERTEX
  8
0
 62
4
 10
-2.80843055E+01
 20
2.82665028E+02
  0
VERTEX
  8
0
 62
4
 10
-2.81335094E+01
 20
2.82601445E+02
  0
VERTEX
  8
0
 62
4
 10
-2.81499542E+01
 20
2.82537355E+02
  0
SEQEND
  8
0
  0
LINE
  8
0
 62
4
 10
-3.89999542E+01
 20
2.82494826E+02
 11
-3.89999542E+01
 21
2.81522396E+02
  0
LINE
  8
0
 62
4
 10
-3.89999542E+01
 20
2.82211040E+02
 11
-2.81499542E+01
 21
2.82211040E+02
  0
LINE
  8
0
 62
4
 10
-3.89999542E+01
 20
2.81516448E+02
 11
-2.81499542E+01
 21
2.81516448E+02
  0
LINE
  8
0
 62
4
 10
-4.04999542E+01
 20
2.82523436E+02
 11
-3.89999542E+01
 21
2.81516448E+02
  0
LINE
  8
0
 62
4
 10
-4.04999542E+01
 20
2.82916749E+02
 11
-3.89999542E+01
 21
2.82211040E+02
  0
LINE
  8
0
 62
4
 10
-4.04999542E+01
 20
2.85147339E+02
 11
-4.04999542E+01
 21
2.82523436E+02
  0
LINE
  8
0
 62
4
 10
-3.89999542E+01
 20
2.86150271E+02
 11
-4.04999542E+01
 21
2.85147339E+02
  0
POLYLINE
  8
0
 62
4
 66
1
  0
VERTEX
  8
0
 62
4
 10
-1.84999542E+01
 20
3.09273605E+02
  0
VERTEX
  8
0
 62
4
 10
-1.85080056E+01
 20
3.09304736E+02
  0
VERTEX
  8
0
 62
4
 10
-1.85320950E+01
 20
3.09335617E+02
  0
VERTEX
  8
0
 62
4
 10
-1.85720285E+01
 20
3.09365999E+02
  0
VERTEX
  8
0
 62
4
 10
-1.86274845E+01
 20
3.09395636E+02
  0
VERTEX
  8
0
 62
4
 10
-1.86980165E+01
 20
3.09424291E+02
  0
VERTEX
  8
0
 62
4
 10
-1.87830566E+01
 20
3.09451733E+02
  0
VERTEX
  8
0
 62
4
 10
-1.88819202E+01
 20
3.09477741E+02
  0
VERTEX
  8
0
 62
4
 10
-1.89938113E+01
 20
3.09502105E+02
  0
VERTEX
  8
0
 62
4
 10
-1.91178289E+01
 20
3.09524629E+02
  0
VERTEX
  8
0
 62
4
 10
-1.92529746E+01
 20
3.09545132E+02
  0
VERTEX
  8
0
 62
4
 10
-1.93981602E+01
 20
3.09563449E+02
  0
VERTEX
  8
0
 62
4
 10
-1.95522169E+01
 20
3.09579433E+02
  0
VERTEX
  8
0
 62
4
 10
-1.97139041E+01
 20
3.09592954E+02
  0
VERTEX
  8
0
 62
4
 10
-1.98819202E+01
 20
3.09603903E+02
  0
VERTEX
  8
0
 62
4
 10
-2.00549123E+01
 20
3.09612194E+02
  0
VERTEX
  8
0
 62
4
 10
-2.02314877E+01
 20
3.09617758E+02
  0
VERTEX
  8
0
 62
4
 10
-2.04102245E+01
 20
3.09620552E+02
  0
VERTEX
  8
0
 62
4
 10
-2.05896838E+01
 20
3.09620552E+02
  0
VERTEX
  8
0
 62
4
 10
-2.07684207E+01
 20
3.09617758E+02
  0
VERTEX
  8
0
 62
4
 10
-2.09449961E+01
 20
3.09612194E+02
  0
VERTEX
  8
0
 62
4
 10
-2.11179882E+01
 20
3.09603903E+02
  0
VERTEX
  8
0
 62
4
 10
-2.12860043E+01
 20
3.09592954E+02
  0
VERTEX
  8
0
 62
4
 10
-2.14476915E+01
 20
3.09579433E+02
  0
VERTEX
  8
0
 62
4
 10
-2.16017482E+01
 20
3.09563449E+02
  0
VERTEX
  8
0
 62
4
 10
-2.17469338E+01
 20
3.09545132E+02
  0
VERTEX
  8
0
 62
4
 10
-2.18820795E+01
 20
3.09524629E+02
  0
VERTEX
  8
0
 62
4
 10
-2.20060971E+01
 20
3.09502105E+02
  0
VERTEX
  8
0
 62
4
 10
-2.21179882E+01
 20
3.09477741E+02
  0
VERTEX
  8
0
 62
4
 10
-2.22168518E+01
 20
3.09451733E+02
  0
VERTEX
  8
0
 62
4
 10
-2.23018919E+01
 20
3.09424291E+02
  0
VERTEX
  8
0
 62
4
 10
-2.23724239E+01
 20
3.09395636E+02
  0
VERTEX
  8
0
 62
4
 10
-2.24278799E+01
 20
3.09365999E+02
  0
VERTEX
  8
0
 62
4
 10
-2.24678134E+01
 20
3.09335617E+02
  0
VERTEX
  8
0
 62
4
 10
-2.24919028E+01
 20
3.09304736E+02
  0
VERTEX
  8
0
 62
4
 10
-2.24999542E+01
 20
3.09273605E+02
  0
SEQEND
  8
0
  0
LINE
  8
0
 62
4
 10
-1.84999542E+01
 20
3.09273605E+02
 11
-1.84999542E+01
 21
3.07152284E+02
  0
LINE
  8
0
 62
4
 10
-2.24999542E+01
 20
3.09273605E+02
 11
-2.24999542E+01
 21
3.07152284E+02
  0
LINE
  8
0
 62
6
 10
-1.89999542E+01
 20
3.09503320E+02
 11
-1.89999542E+01
 21
3.07152284E+02
  0
LINE
  8
0
 62
6
 10
-2.19999542E+01
 20
3.09503320E+02
 11
-2.19999542E+01
 21
3.07152284E+02
  0
POLYLINE
  8
0
 62
4
 66
1
  0
VERTEX
  8
0
 62
4
 10
-1.04999542E+01
 20
3.09273605E+02
  0
VERTEX
  8
0
 62
4
 10
-1.05080056E+01
 20
3.09304736E+02
  0
VERTEX
  8
0
 62
4
 10
-1.05320950E+01
 20
3.09335617E+02
  0
VERTEX
  8
0
 62
4
 10
-1.05720285E+01
 20
3.09365999E+02
  0
VERTEX
  8
0
 62
4
 10
-1.06274845E+01
 20
3.09395636E+02
  0
VERTEX
  8
0
 62
4
 10
-1.06980165E+01
 20
3.09424291E+02
  0
VERTEX
  8
0
 62
4
 10
-1.07830566E+01
 20
3.09451733E+02
  0
VERTEX
  8
0
 62
4
 10
-1.08819202E+01
 20
3.09477741E+02
  0
VERTEX
  8
0
 62
4
 10
-1.09938113E+01
 20
3.09502105E+02
  0
VERTEX
  8
0
 62
4
 10
-1.11178289E+01
 20
3.09524629E+02
  0
VERTEX
  8
0
 62
4
 10
-1.12529746E+01
 20
3.09545132E+02
  0
VERTEX
  8
0
 62
4
 10
-1.13981602E+01
 20
3.09563449E+02
  0
VERTEX
  8
0
 62
4
 10
-1.15522169E+01
 20
3.09579433E+02
  0
VERTEX
  8
0
 62
4
 10
-1.17139041E+01
 20
3.09592954E+02
  0
VERTEX
  8
0
 62
4
 10
-1.18819202E+01
 20
3.09603903E+02
  0
VERTEX
  8
0
 62
4
 10
-1.20549123E+01
 20
3.09612194E+02
  0
VERTEX
  8
0
 62
4
 10
-1.22314877E+01
 20
3.09617758E+02
  0
VERTEX
  8
0
 62
4
 10
-1.24102245E+01
 20
3.09620552E+02
  0
VERTEX
  8
0
 62
4
 10
-1.25896838E+01
 20
3.09620552E+02
  0
VERTEX
  8
0
 62
4
 10
-1.27684207E+01
 20
3.09617758E+02
  0
VERTEX
  8
0
 62
4
 10
-1.29449961E+01
 20
3.09612194E+02
  0
VERTEX
  8
0
 62
4
 10
-1.31179882E+01
 20
3.09603903E+02
  0
VERTEX
  8
0
 62
4
 10
-1.32860043E+01
 20
3.09592954E+02
  0
VERTEX
  8
0
 62
4
 10
-1.34476915E+01
 20
3.09579433E+02
  0
VERTEX
  8
0
 62
4
 10
-1.36017482E+01
 20
3.09563449E+02
  0
VERTEX
  8
0
 62
4
 10
-1.37469338E+01
 20
3.09545132E+02
  0
VERTEX
  8
0
 62
4
 10
-1.38820795E+01
 20
3.09524629E+02
  0
VERTEX
  8
0
 62
4
 10
-1.40060971E+01
 20
3.09502105E+02
  0
VERTEX
  8
0
 62
4
 10
-1.41179882E+01
 20
3.09477741E+02
  0
VERTEX
  8
0
 62
4
 10
-1.42168518E+01
 20
3.09451733E+02
  0
VERTEX
  8
0
 62
4
 10
-1.43018919E+01
 20
3.09424291E+02
  0
VERTEX
  8
0
 62
4
 10
-1.43724239E+01
 20
3.09395636E+02
  0
VERTEX
  8
0
 62
4
 10
-1.44278799E+01
 20
3.09365999E+02
  0
VERTEX
  8
0
 62
4
 10
-1.44678134E+01
 20
3.09335617E+02
  0
VERTEX
  8
0
 62
4
 10
-1.44919028E+01
 20
3.09304736E+02
  0
VERTEX
  8
0
 62
4
 10
-1.44999542E+01
 20
3.09273605E+02
  0
SEQEND
  8
0
  0
LINE
  8
0
 62
4
 10
-3.89999542E+01
 20
2.82494826E+02
 11
-2.81499542E+01
 21
2.82494826E+02
  0
LINE
  8
0
 62
4
 10
-1.30999542E+01
 20
2.81696044E+02
 11
-8.99995422E+00
 21
2.81696044E+02
  0
LINE
  8
0
 62
4
 10
-1.30999542E+01
 20
2.81522396E+02
 11
-8.99995422E+00
 21
2.81522396E+02
  0
LINE
  8
0
 62
4
 10
-3.89999542E+01
 20
2.84300767E+02
 11
-8.99995423E+00
 21
2.84300767E+02
  0
LINE
  8
0
 62
4
 10
-3.89999542E+01
 20
2.94444287E+02
 11
-8.99995423E+00
 21
2.94444287E+02
  0
LINE
  8
0
 62
4
 10
-2.39999542E+01
 20
3.01337941E+02
 11
-8.99995423E+00
 21
3.01337941E+02
  0
LINE
  8
0
 62
4
 10
-2.39999542E+01
 20
3.07152284E+02
 11
-8.99995423E+00
 21
3.07152284E+02
  0
LINE
  8
0
  6
CENTER
 62
6
 10
-2.39999542E+01
 20
2.85411582E+02
 11
-2.39999542E+01
 21
2.80411582E+02
  0
LINE
  8
0
  6
CENTER
 62
6
 10
-2.04999542E+01
 20
3.12615579E+02
 11
-2.04999542E+01
 21
3.02350000E+02
  0
LINE
  8
0
  6
CENTER
 62
6
 10
-1.24999542E+01
 20
3.12615579E+02
 11
-1.24999542E+01
 21
3.02350000E+02
  0
LINE
  8
0
 62
4
 10
-3.89999542E+01
 20
2.94444287E+02
 11
-3.89999542E+01
 21
2.82494826E+02
  0
LINE
  8
0
 62
4
 10
-8.99995422E+00
 20
3.07152284E+02
 11
-8.99995422E+00
 21
2.81522396E+02
  0
LINE
  8
0
 62
4
 10
-2.39999542E+01
 20
3.07152284E+02
 11
-2.39999542E+01
 21
2.94444287E+02
  0
LINE
  8
0
 62
4
 10
-1.04999542E+01
 20
3.09273605E+02
 11
-1.04999542E+01
 21
3.07152284E+02
  0
LINE
  8
0
 62
4
 10
-1.44999542E+01
 20
3.09273605E+02
 11
-1.44999542E+01
 21
3.07152284E+02
  0
LINE
  8
0
 62
6
 10
-1.09999542E+01
 20
3.09503320E+02
 11
-1.09999542E+01
 21
3.07152284E+02
  0
LINE
  8
0
 62
6
 10
-1.39999542E+01
 20
3.09503320E+02
 11
-1.39999542E+01
 21
3.07152284E+02
  0
LINE
  8
0
 62
4
 10
2.37068436E+01
 20
2.78505174E+02
 11
1.99999542E+01
 21
2.78505174E+02
  0
LINE
  8
0
  6
CENTER
 62
6
 10
4.49999542E+01
 20
2.77480650E+02
 11
3.99999542E+01
 21
2.77480650E+02
  0
LINE
  8
0
  6
CENTER
 62
6
 10
4.24999542E+01
 20
2.74980650E+02
 11
4.24999542E+01
 21
2.79980650E+02
  0
LINE
  8
0
  6
CENTER
 62
6
 10
2.99999542E+01
 20
2.77480650E+02
 11
2.49999542E+01
 21
2.77480650E+02
  0
LINE
  8
0
  6
CENTER
 62
6
 10
2.74999542E+01
 20
2.74980650E+02
 11
2.74999542E+01
 21
2.79980650E+02
  0
LINE
  8
0
  6
CENTER
 62
6
 10
3.74999542E+01
 20
2.78088418E+02
 11
3.24999542E+01
 21
2.78088418E+02
  0
ARC
  8
0
 62
4
 10
2.53782006E+01
 20
2.68479853E+02
 40
1.25306626E+01
 50
7.19166483E+01
 51
8.50313400E+01
  0
ARC
  8
0
 62
4
 10
2.96217078E+01
 20
2.68479853E+02
 40
1.25306621E+01
 50
9.49686598E+01
 51
1.08083352E+02
  0
ARC
  8
0
 62
4
 10
2.98999545E+01
 20
2.79739210E+02
 40
1.00000000E+00
 50
3.60000000E+02
 51
7.71724899E+01
  0
ARC
  8
0
 62
4
 10
2.50999539E+01
 20
2.79739210E+02
 40
1.00000000E+00
 50
1.02827510E+02
 51
1.80000000E+02
  0
ARC
  8
0
 62
4
 10
2.74999542E+01
 20
2.69198997E+02
 40
1.18100000E+01
 50
7.71724899E+01
 51
1.02827510E+02
  0
POLYLINE
  8
0
 62
4
 66
1
  0
VERTEX
  8
0
 62
4
 10
2.40999542E+01
 20
2.78465457E+02
  0
VERTEX
  8
0
 62
4
 10
2.41136416E+01
 20
2.78412534E+02
  0
VERTEX
  8
0
 62
4
 10
2.41545936E+01
 20
2.78360036E+02
  0
VERTEX
  8
0
 62
4
 10
2.42224805E+01
 20
2.78308388E+02
  0
VERTEX
  8
0
 62
4
 10
2.43167556E+01
 20
2.78258004E+02
  0
VERTEX
  8
0
 62
4
 10
2.44366600E+01
 20
2.78209290E+02
  0
VERTEX
  8
0
 62
4
 10
2.45812283E+01
 20
2.78162639E+02
  0
VERTEX
  8
0
 62
4
 10
2.47492964E+01
 20
2.78118426E+02
  0
VERTEX
  8
0
 62
4
 10
2.49395112E+01
 20
2.78077007E+02
  0
VERTEX
  8
0
 62
4
 10
2.51503412E+01
 20
2.78038716E+02
  0
VERTEX
  8
0
 62
4
 10
2.53800889E+01
 20
2.78003861E+02
  0
VERTEX
  8
0
 62
4
 10
2.56269044E+01
 20
2.77972722E+02
  0
VERTEX
  8
0
 62
4
 10
2.58888007E+01
 20
2.77945550E+02
  0
VERTEX
  8
0
 62
4
 10
2.61636691E+01
 20
2.77922564E+02
  0
VERTEX
  8
0
 62
4
 10
2.64492964E+01
 20
2.77903950E+02
  0
VERTEX
  8
0
 62
4
 10
2.67433830E+01
 20
2.77889856E+02
  0
VERTEX
  8
0
 62
4
 10
2.70435611E+01
 20
2.77880396E+02
  0
VERTEX
  8
0
 62
4
 10
2.73474138E+01
 20
2.77875648E+02
  0
VERTEX
  8
0
 62
4
 10
2.76524946E+01
 20
2.77875648E+02
  0
VERTEX
  8
0
 62
4
 10
2.79563473E+01
 20
2.77880396E+02
  0
VERTEX
  8
0
 62
4
 10
2.82565254E+01
 20
2.77889856E+02
  0
VERTEX
  8
0
 62
4
 10
2.85506120E+01
 20
2.77903950E+02
  0
VERTEX
  8
0
 62
4
 10
2.88362393E+01
 20
2.77922564E+02
  0
VERTEX
  8
0
 62
4
 10
2.91111076E+01
 20
2.77945550E+02
  0
VERTEX
  8
0
 62
4
 10
2.93730039E+01
 20
2.77972722E+02
  0
VERTEX
  8
0
 62
4
 10
2.96198195E+01
 20
2.78003861E+02
  0
VERTEX
  8
0
 62
4
 10
2.98495672E+01
 20
2.78038716E+02
  0
VERTEX
  8
0
 62
4
 10
3.00603972E+01
 20
2.78077007E+02
  0
VERTEX
  8
0
 62
4
 10
3.02506120E+01
 20
2.78118426E+02
  0
VERTEX
  8
0
 62
4
 10
3.04186801E+01
 20
2.78162639E+02
  0
VERTEX
  8
0
 62
4
 10
3.05632483E+01
 20
2.78209290E+02
  0
VERTEX
  8
0
 62
4
 10
3.06831528E+01
 20
2.78258004E+02
  0
VERTEX
  8
0
 62
4
 10
3.07774279E+01
 20
2.78308388E+02
  0
VERTEX
  8
0
 62
4
 10
3.08453148E+01
 20
2.78360036E+02
  0
VERTEX
  8
0
 62
4
 10
3.08862668E+01
 20
2.78412534E+02
  0
VERTEX
  8
0
 62
4
 10
3.08999542E+01
 20
2.78465457E+02
  0
SEQEND
  8
0
  0
LINE
  8
0
 62
4
 10
2.40999542E+01
 20
2.79739210E+02
 11
2.40999542E+01
 21
2.78465457E+02
  0
LINE
  8
0
 62
4
 10
3.08999542E+01
 20
2.79739210E+02
 11
3.08999542E+01
 21
2.78465457E+02
  0
POLYLINE
  8
0
 62
4
 66
1
  0
VERTEX
  8
0
 62
4
 10
2.40999542E+01
 20
2.78760148E+02
  0
VERTEX
  8
0
 62
4
 10
2.39633725E+01
 20
2.78706859E+02
  0
VERTEX
  8
0
 62
4
 10
2.38544247E+01
 20
2.78651683E+02
  0
VERTEX
  8
0
 62
4
 10
2.37739619E+01
 20
2.78595053E+02
  0
VERTEX
  8
0
 62
4
 10
2.37226129E+01
 20
2.78537410E+02
  0
VERTEX
  8
0
 62
4
 10
2.37007789E+01
 20
2.78479204E+02
  0
VERTEX
  8
0
 62
4
 10
2.37086306E+01
 20
2.78420891E+02
  0
VERTEX
  8
0
 62
4
 10
2.37461066E+01
 20
2.78362927E+02
  0
VERTEX
  8
0
 62
4
 10
2.38129140E+01
 20
2.78305764E+02
  0
VERTEX
  8
0
 62
4
 10
2.39085308E+01
 20
2.78249848E+02
  0
VERTEX
  8
0
 62
4
 10
2.40322100E+01
 20
2.78195617E+02
  0
VERTEX
  8
0
 62
4
 10
2.41829851E+01
 20
2.78143495E+02
  0
VERTEX
  8
0
 62
4
 10
2.43596780E+01
 20
2.78093888E+02
  0
VERTEX
  8
0
 62
4
 10
2.45609080E+01
 20
2.78047184E+02
  0
VERTEX
  8
0
 62
4
 10
2.47851030E+01
 20
2.78003749E+02
  0
VERTEX
  8
0
 62
4
 10
2.50305109E+01
 20
2.77963922E+02
  0
VERTEX
  8
0
 62
4
 10
2.52952144E+01
 20
2.77928013E+02
  0
VERTEX
  8
0
 62
4
 10
2.55771450E+01
 20
2.77896304E+02
  0
VERTEX
  8
0
 62
4
 10
2.58740999E+01
 20
2.77869042E+02
  0
VERTEX
  8
0
 62
4
 10
2.61837588E+01
 20
2.77846440E+02
  0
VERTEX
  8
0
 62
4
 10
2.65037020E+01
 20
2.77828675E+02
  0
VERTEX
  8
0
 62
4
 10
2.68314296E+01
 20
2.77815886E+02
  0
VERTEX
  8
0
 62
4
 10
2.71643809E+01
 20
2.77808172E+02
  0
VERTEX
  8
0
 62
4
 10
2.74999542E+01
 20
2.77805594E+02
  0
VERTEX
  8
0
 62
4
 10
2.78355276E+01
 20
2.77808172E+02
  0
VERTEX
  8
0
 62
4
 10
2.81684788E+01
 20
2.77815886E+02
  0
VERTEX
  8
0
 62
4
 10
2.84962065E+01
 20
2.77828675E+02
  0
VERTEX
  8
0
 62
4
 10
2.88161497E+01
 20
2.77846440E+02
  0
VERTEX
  8
0
 62
4
 10
2.91258085E+01
 20
2.77869042E+02
  0
VERTEX
  8
0
 62
4
 10
2.94227634E+01
 20
2.77896304E+02
  0
VERTEX
  8
0
 62
4
 10
2.97046941E+01
 20
2.77928013E+02
  0
VERTEX
  8
0
 62
4
 10
2.99693975E+01
 20
2.77963922E+02
  0
VERTEX
  8
0
 62
4
 10
3.02148055E+01
 20
2.78003749E+02
  0
VERTEX
  8
0
 62
4
 10
3.04390004E+01
 20
2.78047184E+02
  0
VERTEX
  8
0
 62
4
 10
3.06402305E+01
 20
2.78093888E+02
  0
VERTEX
  8
0
 62
4
 10
3.08169234E+01
 20
2.78143495E+02
  0
VERTEX
  8
0
 62
4
 10
3.09676984E+01
 20
2.78195617E+02
  0
VERTEX
  8
0
 62
4
 10
3.10913776E+01
 20
2.78249848E+02
  0
VERTEX
  8
0
 62
4
 10
3.11869944E+01
 20
2.78305764E+02
  0
VERTEX
  8
0
 62
4
 10
3.12538018E+01
 20
2.78362927E+02
  0
VERTEX
  8
0
 62
4
 10
3.12912778E+01
 20
2.78420891E+02
  0
VERTEX
  8
0
 62
4
 10
3.12991294E+01
 20
2.78479204E+02
  0
VERTEX
  8
0
 62
4
 10
3.12772955E+01
 20
2.78537410E+02
  0
VERTEX
  8
0
 62
4
 10
3.12259465E+01
 20
2.78595053E+02
  0
VERTEX
  8
0
 62
4
 10
3.11454837E+01
 20
2.78651683E+02
  0
VERTEX
  8
0
 62
4
 10
3.10365359E+01
 20
2.78706859E+02
  0
VERTEX
  8
0
 62
4
 10
3.08999542E+01
 20
2.78760148E+02
  0
SEQEND
  8
0
  0
POLYLINE
  8
0
 62
4
 66
1
  0
VERTEX
  8
0
 62
4
 10
2.36999542E+01
 20
2.77480650E+02
  0
VERTEX
  8
0
 62
4
 10
2.37152519E+01
 20
2.77421500E+02
  0
VERTEX
  8
0
 62
4
 10
2.37610218E+01
 20
2.77362827E+02
  0
VERTEX
  8
0
 62
4
 10
2.38368953E+01
 20
2.77305102E+02
  0
VERTEX
  8
0
 62
4
 10
2.39422617E+01
 20
2.77248791E+02
  0
VERTEX
  8
0
 62
4
 10
2.40762725E+01
 20
2.77194346E+02
  0
VERTEX
  8
0
 62
4
 10
2.42378488E+01
 20
2.77142207E+02
  0
VERTEX
  8
0
 62
4
 10
2.44256896E+01
 20
2.77092792E+02
  0
VERTEX
  8
0
 62
4
 10
2.46382826E+01
 20
2.77046501E+02
  0
VERTEX
  8
0
 62
4
 10
2.48739161E+01
 20
2.77003704E+02
  0
VERTEX
  8
0
 62
4
 10
2.51306929E+01
 20
2.76964748E+02
  0
VERTEX
  8
0
 62
4
 10
2.54065457E+01
 20
2.76929946E+02
  0
VERTEX
  8
0
 62
4
 10
2.56992533E+01
 20
2.76899578E+02
  0
VERTEX
  8
0
 62
4
 10
2.60064591E+01
 20
2.76873888E+02
  0
VERTEX
  8
0
 62
4
 10
2.63256896E+01
 20
2.76853083E+02
  0
VERTEX
  8
0
 62
4
 10
2.66543746E+01
 20
2.76837331E+02
  0
VERTEX
  8
0
 62
4
 10
2.69898678E+01
 20
2.76826759E+02
  0
VERTEX
  8
0
 62
4
 10
2.73294678E+01
 20
2.76821451E+02
  0
VERTEX
  8
0
 62
4
 10
2.76704405E+01
 20
2.76821451E+02
  0
VERTEX
  8
0
 62
4
 10
2.80100406E+01
 20
2.76826759E+02
  0
VERTEX
  8
0
 62
4
 10
2.83455337E+01
 20
2.76837331E+02
  0
VERTEX
  8
0
 62
4
 10
2.86742188E+01
 20
2.76853083E+02
  0
VERTEX
  8
0
 62
4
 10
2.89934493E+01
 20
2.76873888E+02
  0
VERTEX
  8
0
 62
4
 10
2.93006551E+01
 20
2.76899578E+02
  0
VERTEX
  8
0
 62
4
 10
2.95933627E+01
 20
2.76929946E+02
  0
VERTEX
  8
0
 62
4
 10
2.98692154E+01
 20
2.76964748E+02
  0
VERTEX
  8
0
 62
4
 10
3.01259922E+01
 20
2.77003704E+02
  0
VERTEX
  8
0
 62
4
 10
3.03616258E+01
 20
2.77046501E+02
  0
VERTEX
  8
0
 62
4
 10
3.05742188E+01
 20
2.77092792E+02
  0
VERTEX
  8
0
 62
4
 10
3.07620596E+01
 20
2.77142207E+02
  0
VERTEX
  8
0
 62
4
 10
3.09236359E+01
 20
2.77194346E+02
  0
VERTEX
  8
0
 62
4
 10
3.10576467E+01
 20
2.77248791E+02
  0
VERTEX
  8
0
 62
4
 10
3.11630131E+01
 20
2.77305102E+02
  0
VERTEX
  8
0
 62
4
 10
3.12388866E+01
 20
2.77362827E+02
  0
VERTEX
  8
0
 62
4
 10
3.12846565E+01
 20
2.77421500E+02
  0
VERTEX
  8
0
 62
4
 10
3.12999542E+01
 20
2.77480650E+02
  0
SEQEND
  8
0
  0
LINE
  8
0
 62
4
 10
2.36999542E+01
 20
2.78465457E+02
 11
2.36999542E+01
 21
2.77480650E+02
  0
LINE
  8
0
 62
4
 10
3.12999542E+01
 20
2.78465457E+02
 11
3.12999542E+01
 21
2.77480650E+02
  0
ARC
  8
0
 62
4
 10
3.10999542E+01
 20
2.80190570E+02
 40
2.50000000E-01
 50
1.09675998E+02
 51
1.80000000E+02
  0
ARC
  8
0
 62
4
 10
3.88999542E+01
 20
2.80190570E+02
 40
2.50000000E-01
 50
0.00000000E+00
 51
7.03240015E+01
  0
POLYLINE
  8
0
 62
4
 66
1
  0
VERTEX
  8
0
 62
4
 10
3.08499542E+01
 20
2.80195907E+02
  0
VERTEX
  8
0
 62
4
 10
3.08666609E+01
 20
2.80131309E+02
  0
VERTEX
  8
0
 62
4
 10
3.09166464E+01
 20
2.80067232E+02
  0
VERTEX
  8
0
 62
4
 10
3.09995083E+01
 20
2.80004190E+02
  0
VERTEX
  8
0
 62
4
 10
3.11145795E+01
 20
2.79942692E+02
  0
VERTEX
  8
0
 62
4
 10
3.12609334E+01
 20
2.79883233E+02
  0
VERTEX
  8
0
 62
4
 10
3.14373917E+01
 20
2.79826291E+02
  0
VERTEX
  8
0
 62
4
 10
3.16425337E+01
 20
2.79772325E+02
  0
VERTEX
  8
0
 62
4
 10
3.18747076E+01
 20
2.79721770E+02
  0
VERTEX
  8
0
 62
4
 10
3.21320442E+01
 20
2.79675032E+02
  0
VERTEX
  8
0
 62
4
 10
3.24124715E+01
 20
2.79632488E+02
  0
VERTEX
  8
0
 62
4
 10
3.27137317E+01
 20
2.79594480E+02
  0
VERTEX
  8
0
 62
4
 10
3.30333992E+01
 20
2.79561315E+02
  0
VERTEX
  8
0
 62
4
 10
3.33689003E+01
 20
2.79533259E+02
  0
VERTEX
  8
0
 62
4
 10
3.37175337E+01
 20
2.79510538E+02
  0
VERTEX
  8
0
 62
4
 10
3.40764923E+01
 20
2.79493335E+02
  0
VERTEX
  8
0
 62
4
 10
3.44428861E+01
 20
2.79481789E+02
  0
VERTEX
  8
0
 62
4
 10
3.48137651E+01
 20
2.79475993E+02
  0
VERTEX
  8
0
 62
4
 10
3.51861432E+01
 20
2.79475993E+02
  0
VERTEX
  8
0
 62
4
 10
3.55570222E+01
 20
2.79481789E+02
  0
VERTEX
  8
0
 62
4
 10
3.59234161E+01
 20
2.79493335E+02
  0
VERTEX
  8
0
 62
4
 10
3.62823747E+01
 20
2.79510538E+02
  0
VERTEX
  8
0
 62
4
 10
3.66310081E+01
 20
2.79533259E+02
  0
VERTEX
  8
0
 62
4
 10
3.69665091E+01
 20
2.79561315E+02
  0
VERTEX
  8
0
 62
4
 10
3.72861767E+01
 20
2.79594480E+02
  0
VERTEX
  8
0
 62
4
 10
3.75874369E+01
 20
2.79632488E+02
  0
VERTEX
  8
0
 62
4
 10
3.78678642E+01
 20
2.79675032E+02
  0
VERTEX
  8
0
 62
4
 10
3.81252008E+01
 20
2.79721770E+02
  0
VERTEX
  8
0
 62
4
 10
3.83573747E+01
 20
2.79772325E+02
  0
VERTEX
  8
0
 62
4
 10
3.85625167E+01
 20
2.79826291E+02
  0
VERTEX
  8
0
 62
4
 10
3.87389750E+01
 20
2.79883233E+02
  0
VERTEX
  8
0
 62
4
 10
3.88853289E+01
 20
2.79942692E+02
  0
VERTEX
  8
0
 62
4
 10
3.90004001E+01
 20
2.80004190E+02
  0
VERTEX
  8
0
 62
4
 10
3.90832620E+01
 20
2.80067232E+02
  0
VERTEX
  8
0
 62
4
 10
3.91332475E+01
 20
2.80131309E+02
  0
VERTEX
  8
0
 62
4
 10
3.91499542E+01
 20
2.80195907E+02
  0
SEQEND
  8
0
  0
ARC
  8
0
 62
4
 10
3.28813484E+01
 20
2.68604327E+02
 40
1.25124547E+01
 50
7.19045858E+01
 51
8.50583647E+01
  0
ARC
  8
0
 62
4
 10
3.71185598E+01
 20
2.68604329E+02
 40
1.25124521E+01
 50
9.49416351E+01
 51
1.08095416E+02
  0
POLYLINE
  8
0
 62
4
 66
1
  0
VERTEX
  8
0
 62
4
 10
3.12999542E+01
 20
2.77824496E+02
  0
VERTEX
  8
0
 62
4
 10
3.14492622E+01
 20
2.77768576E+02
  0
VERTEX
  8
0
 62
4
 10
3.16265309E+01
 20
2.77715175E+02
  0
VERTEX
  8
0
 62
4
 10
3.18303643E+01
 20
2.77664713E+02
  0
VERTEX
  8
0
 62
4
 10
3.20591574E+01
 20
2.77617588E+02
  0
VERTEX
  8
0
 62
4
 10
3.23111084E+01
 20
2.77574170E+02
  0
VERTEX
  8
0
 62
4
 10
3.25842334E+01
 20
2.77534802E+02
  0
VERTEX
  8
0
 62
4
 10
3.28763815E+01
 20
2.77499793E+02
  0
VERTEX
  8
0
 62
4
 10
3.31852521E+01
 20
2.77469420E+02
  0
VERTEX
  8
0
 62
4
 10
3.35084130E+01
 20
2.77443921E+02
  0
VERTEX
  8
0
 62
4
 10
3.38433194E+01
 20
2.77423497E+02
  0
VERTEX
  8
0
 62
4
 10
3.41873340E+01
 20
2.77408310E+02
  0
VERTEX
  8
0
 62
4
 10
3.45377477E+01
 20
2.77398478E+02
  0
VERTEX
  8
0
 62
4
 10
3.48918011E+01
 20
2.77394079E+02
  0
VERTEX
  8
0
 62
4
 10
3.52467063E+01
 20
2.77395148E+02
  0
VERTEX
  8
0
 62
4
 10
3.55996683E+01
 20
2.77401676E+02
  0
VERTEX
  8
0
 62
4
 10
3.59479078E+01
 20
2.77413612E+02
  0
VERTEX
  8
0
 62
4
 10
3.62886823E+01
 20
2.77430863E+02
  0
VERTEX
  8
0
 62
4
 10
3.66193086E+01
 20
2.77453291E+02
  0
VERTEX
  8
0
 62
4
 10
3.69371828E+01
 20
2.77480720E+02
  0
VERTEX
  8
0
 62
4
 10
3.72398019E+01
 20
2.77512935E+02
  0
VERTEX
  8
0
 62
4
 10
3.75247828E+01
 20
2.77549682E+02
  0
VERTEX
  8
0
 62
4
 10
3.77898814E+01
 20
2.77590671E+02
  0
VERTEX
  8
0
 62
4
 10
3.80330101E+01
 20
2.77635580E+02
  0
VERTEX
  8
0
 62
4
 10
3.82522544E+01
 20
2.77684055E+02
  0
VERTEX
  8
0
 62
4
 10
3.84458876E+01
 20
2.77735714E+02
  0
VERTEX
  8
0
 62
4
 10
3.86123851E+01
 20
2.77790150E+02
  0
VERTEX
  8
0
 62
4
 10
3.87504358E+01
 20
2.77846935E+02
  0
VERTEX
  8
0
 62
4
 10
3.88589524E+01
 20
2.77905622E+02
  0
VERTEX
  8
0
 62
4
 10
3.89370805E+01
 20
2.77965749E+02
  0
VERTEX
  8
0
 62
4
 10
3.89842048E+01
 20
2.78026841E+02
  0
VERTEX
  8
0
 62
4
 10
3.89999542E+01
 20
2.78088418E+02
  0
SEQEND
  8
0
  0
LINE
  8
0
 62
4
 10
3.89999542E+01
 20
2.78088418E+02
 11
3.89999542E+01
 21
2.78270648E+02
  0
LINE
  8
0
 62
4
 10
3.08499542E+01
 20
2.80190570E+02
 11
3.08499542E+01
 21
2.80051461E+02
  0
LINE
  8
0
 62
4
 10
3.91499542E+01
 20
2.80190570E+02
 11
3.91499542E+01
 21
2.78462645E+02
  0
ARC
  8
0
 62
4
 10
3.50076925E+01
 20
2.69305539E+02
 40
1.18100000E+01
 50
7.03240015E+01
 51
9.00375421E+01
  0
ARC
  8
0
 62
4
 10
3.49922159E+01
 20
2.69305539E+02
 40
1.18100000E+01
 50
8.99624577E+01
 51
1.09675998E+02
  0
POLYLINE
  8
0
 62
4
 66
1
  0
VERTEX
  8
0
 62
4
 10
3.12999542E+01
 20
2.78136274E+02
  0
VERTEX
  8
0
 62
4
 10
3.14817692E+01
 20
2.78080427E+02
  0
VERTEX
  8
0
 62
4
 10
3.16914664E+01
 20
2.78027608E+02
  0
VERTEX
  8
0
 62
4
 10
3.19273841E+01
 20
2.77978238E+02
  0
VERTEX
  8
0
 62
4
 10
3.21876524E+01
 20
2.77932706E+02
  0
VERTEX
  8
0
 62
4
 10
3.24702087E+01
 20
2.77891375E+02
  0
VERTEX
  8
0
 62
4
 10
3.27728138E+01
 20
2.77854570E+02
  0
VERTEX
  8
0
 62
4
 10
3.30930693E+01
 20
2.77822585E+02
  0
VERTEX
  8
0
 62
4
 10
3.34284373E+01
 20
2.77795672E+02
  0
VERTEX
  8
0
 62
4
 10
3.37762598E+01
 20
2.77774046E+02
  0
VERTEX
  8
0
 62
4
 10
3.41337804E+01
 20
2.77757876E+02
  0
VERTEX
  8
0
 62
4
 10
3.44981655E+01
 20
2.77747292E+02
  0
VERTEX
  8
0
 62
4
 10
3.48665274E+01
 20
2.77742378E+02
  0
VERTEX
  8
0
 62
4
 10
3.52359467E+01
 20
2.77743171E+02
  0
VERTEX
  8
0
 62
4
 10
3.56034958E+01
 20
2.77749667E+02
  0
VERTEX
  8
0
 62
4
 10
3.59662616E+01
 20
2.77761813E+02
  0
VERTEX
  8
0
 62
4
 10
3.63213693E+01
 20
2.77779513E+02
  0
VERTEX
  8
0
 62
4
 10
3.66660046E+01
 20
2.77802627E+02
  0
VERTEX
  8
0
 62
4
 10
3.69974360E+01
 20
2.77830972E+02
  0
VERTEX
  8
0
 62
4
 10
3.73130371E+01
 20
2.77864323E+02
  0
VERTEX
  8
0
 62
4
 10
3.76103065E+01
 20
2.77902416E+02
  0
VERTEX
  8
0
 62
4
 10
3.78868885E+01
 20
2.77944949E+02
  0
VERTEX
  8
0
 62
4
 10
3.81405909E+01
 20
2.77991584E+02
  0
VERTEX
  8
0
 62
4
 10
3.83694032E+01
 20
2.78041953E+02
  0
VERTEX
  8
0
 62
4
 10
3.85715120E+01
 20
2.78095656E+02
  0
VERTEX
  8
0
 62
4
 10
3.87453155E+01
 20
2.78152268E+02
  0
VERTEX
  8
0
 62
4
 10
3.88894363E+01
 20
2.78211339E+02
  0
VERTEX
  8
0
 62
4
 10
3.90027323E+01
 20
2.78272402E+02
  0
VERTEX
  8
0
 62
4
 10
3.90843055E+01
 20
2.78334972E+02
  0
VERTEX
  8
0
 62
4
 10
3.91335094E+01
 20
2.78398555E+02
  0
VERTEX
  8
0
 62
4
 10
3.91499542E+01
 20
2.78462645E+02
  0
SEQEND
  8
0
  0
LINE
  8
0
 62
4
 10
4.99999542E+01
 20
2.78505174E+02
 11
4.99999542E+01
 21
2.79477604E+02
  0
LINE
  8
0
 62
4
 10
4.99999542E+01
 20
2.78788960E+02
 11
3.91499542E+01
 21
2.78788960E+02
  0
LINE
  8
0
 62
4
 10
4.99999542E+01
 20
2.79483552E+02
 11
3.91499542E+01
 21
2.79483552E+02
  0
LINE
  8
0
 62
4
 10
5.14999542E+01
 20
2.78476564E+02
 11
4.99999542E+01
 21
2.79483552E+02
  0
LINE
  8
0
 62
4
 10
5.14999542E+01
 20
2.78083251E+02
 11
4.99999542E+01
 21
2.78788960E+02
  0
LINE
  8
0
 62
4
 10
5.14999542E+01
 20
2.75852661E+02
 11
5.14999542E+01
 21
2.78476564E+02
  0
LINE
  8
0
 62
4
 10
4.99999542E+01
 20
2.74849729E+02
 11
5.14999542E+01
 21
2.75852661E+02
  0
POLYLINE
  8
0
 62
4
 66
1
  0
VERTEX
  8
0
 62
4
 10
2.94999542E+01
 20
2.51726395E+02
  0
VERTEX
  8
0
 62
4
 10
2.95080056E+01
 20
2.51695264E+02
  0
VERTEX
  8
0
 62
4
 10
2.95320950E+01
 20
2.51664383E+02
  0
VERTEX
  8
0
 62
4
 10
2.95720285E+01
 20
2.51634001E+02
  0
VERTEX
  8
0
 62
4
 10
2.96274845E+01
 20
2.51604364E+02
  0
VERTEX
  8
0
 62
4
 10
2.96980165E+01
 20
2.51575709E+02
  0
VERTEX
  8
0
 62
4
 10
2.97830566E+01
 20
2.51548267E+02
  0
VERTEX
  8
0
 62
4
 10
2.98819202E+01
 20
2.51522259E+02
  0
VERTEX
  8
0
 62
4
 10
2.99938113E+01
 20
2.51497895E+02
  0
VERTEX
  8
0
 62
4
 10
3.01178289E+01
 20
2.51475371E+02
  0
VERTEX
  8
0
 62
4
 10
3.02529746E+01
 20
2.51454868E+02
  0
VERTEX
  8
0
 62
4
 10
3.03981602E+01
 20
2.51436551E+02
  0
VERTEX
  8
0
 62
4
 10
3.05522169E+01
 20
2.51420567E+02
  0
VERTEX
  8
0
 62
4
 10
3.07139041E+01
 20
2.51407046E+02
  0
VERTEX
  8
0
 62
4
 10
3.08819202E+01
 20
2.51396097E+02
  0
VERTEX
  8
0
 62
4
 10
3.10549123E+01
 20
2.51387806E+02
  0
VERTEX
  8
0
 62
4
 10
3.12314877E+01
 20
2.51382242E+02
  0
VERTEX
  8
0
 62
4
 10
3.14102245E+01
 20
2.51379448E+02
  0
VERTEX
  8
0
 62
4
 10
3.15896838E+01
 20
2.51379448E+02
  0
VERTEX
  8
0
 62
4
 10
3.17684207E+01
 20
2.51382242E+02
  0
VERTEX
  8
0
 62
4
 10
3.19449961E+01
 20
2.51387806E+02
  0
VERTEX
  8
0
 62
4
 10
3.21179882E+01
 20
2.51396097E+02
  0
VERTEX
  8
0
 62
4
 10
3.22860043E+01
 20
2.51407046E+02
  0
VERTEX
  8
0
 62
4
 10
3.24476915E+01
 20
2.51420567E+02
  0
VERTEX
  8
0
 62
4
 10
3.26017482E+01
 20
2.51436551E+02
  0
VERTEX
  8
0
 62
4
 10
3.27469338E+01
 20
2.51454868E+02
  0
VERTEX
  8
0
 62
4
 10
3.28820795E+01
 20
2.51475371E+02
  0
VERTEX
  8
0
 62
4
 10
3.30060971E+01
 20
2.51497895E+02
  0
VERTEX
  8
0
 62
4
 10
3.31179882E+01
 20
2.51522259E+02
  0
VERTEX
  8
0
 62
4
 10
3.32168518E+01
 20
2.51548267E+02
  0
VERTEX
  8
0
 62
4
 10
3.33018919E+01
 20
2.51575709E+02
  0
VERTEX
  8
0
 62
4
 10
3.33724239E+01
 20
2.51604364E+02
  0
VERTEX
  8
0
 62
4
 10
3.34278799E+01
 20
2.51634001E+02
  0
VERTEX
  8
0
 62
4
 10
3.34678134E+01
 20
2.51664383E+02
  0
VERTEX
  8
0
 62
4
 10
3.34919028E+01
 20
2.51695264E+02
  0
VERTEX
  8
0
 62
4
 10
3.34999542E+01
 20
2.51726395E+02
  0
SEQEND
  8
0
  0
LINE
  8
0
 62
4
 10
2.94999542E+01
 20
2.51726395E+02
 11
2.94999542E+01
 21
2.53847716E+02
  0
LINE
  8
0
 62
4
 10
3.34999542E+01
 20
2.51726395E+02
 11
3.34999542E+01
 21
2.53847716E+02
  0
LINE
  8
0
 62
6
 10
2.99999542E+01
 20
2.51496680E+02
 11
2.99999542E+01
 21
2.53847716E+02
  0
LINE
  8
0
 62
6
 10
3.29999542E+01
 20
2.51496680E+02
 11
3.29999542E+01
 21
2.53847716E+02
  0
POLYLINE
  8
0
 62
4
 66
1
  0
VERTEX
  8
0
 62
4
 10
2.14999542E+01
 20
2.51726395E+02
  0
VERTEX
  8
0
 62
4
 10
2.15080056E+01
 20
2.51695264E+02
  0
VERTEX
  8
0
 62
4
 10
2.15320950E+01
 20
2.51664383E+02
  0
VERTEX
  8
0
 62
4
 10
2.15720285E+01
 20
2.51634001E+02
  0
VERTEX
  8
0
 62
4
 10
2.16274845E+01
 20
2.51604364E+02
  0
VERTEX
  8
0
 62
4
 10
2.16980165E+01
 20
2.51575709E+02
  0
VERTEX
  8
0
 62
4
 10
2.17830566E+01
 20
2.51548267E+02
  0
VERTEX
  8
0
 62
4
 10
2.18819202E+01
 20
2.51522259E+02
  0
VERTEX
  8
0
 62
4
 10
2.19938113E+01
 20
2.51497895E+02
  0
VERTEX
  8
0
 62
4
 10
2.21178289E+01
 20
2.51475371E+02
  0
VERTEX
  8
0
 62
4
 10
2.22529746E+01
 20
2.51454868E+02
  0
VERTEX
  8
0
 62
4
 10
2.23981602E+01
 20
2.51436551E+02
  0
VERTEX
  8
0
 62
4
 10
2.25522169E+01
 20
2.51420567E+02
  0
VERTEX
  8
0
 62
4
 10
2.27139041E+01
 20
2.51407046E+02
  0
VERTEX
  8
0
 62
4
 10
2.28819202E+01
 20
2.51396097E+02
  0
VERTEX
  8
0
 62
4
 10
2.30549123E+01
 20
2.51387806E+02
  0
VERTEX
  8
0
 62
4
 10
2.32314877E+01
 20
2.51382242E+02
  0
VERTEX
  8
0
 62
4
 10
2.34102245E+01
 20
2.51379448E+02
  0
VERTEX
  8
0
 62
4
 10
2.35896838E+01
 20
2.51379448E+02
  0
VERTEX
  8
0
 62
4
 10
2.37684207E+01
 20
2.51382242E+02
  0
VERTEX
  8
0
 62
4
 10
2.39449961E+01
 20
2.51387806E+02
  0
VERTEX
  8
0
 62
4
 10
2.41179882E+01
 20
2.51396097E+02
  0
VERTEX
  8
0
 62
4
 10
2.42860043E+01
 20
2.51407046E+02
  0
VERTEX
  8
0
 62
4
 10
2.44476915E+01
 20
2.51420567E+02
  0
VERTEX
  8
0
 62
4
 10
2.46017482E+01
 20
2.51436551E+02
  0
VERTEX
  8
0
 62
4
 10
2.47469338E+01
 20
2.51454868E+02
  0
VERTEX
  8
0
 62
4
 10
2.48820795E+01
 20
2.51475371E+02
  0
VERTEX
  8
0
 62
4
 10
2.50060971E+01
 20
2.51497895E+02
  0
VERTEX
  8
0
 62
4
 10
2.51179882E+01
 20
2.51522259E+02
  0
VERTEX
  8
0
 62
4
 10
2.52168518E+01
 20
2.51548267E+02
  0
VERTEX
  8
0
 62
4
 10
2.53018919E+01
 20
2.51575709E+02
  0
VERTEX
  8
0
 62
4
 10
2.53724239E+01
 20
2.51604364E+02
  0
VERTEX
  8
0
 62
4
 10
2.54278799E+01
 20
2.51634001E+02
  0
VERTEX
  8
0
 62
4
 10
2.54678134E+01
 20
2.51664383E+02
  0
VERTEX
  8
0
 62
4
 10
2.54919028E+01
 20
2.51695264E+02
  0
VERTEX
  8
0
 62
4
 10
2.54999542E+01
 20
2.51726395E+02
  0
SEQEND
  8
0
  0
LINE
  8
0
 62
4
 10
4.99999542E+01
 20
2.78505174E+02
 11
3.91499542E+01
 21
2.78505174E+02
  0
LINE
  8
0
 62
4
 10
2.40999542E+01
 20
2.79303956E+02
 11
1.99999542E+01
 21
2.79303956E+02
  0
LINE
  8
0
 62
4
 10
2.40999542E+01
 20
2.79477604E+02
 11
1.99999542E+01
 21
2.79477604E+02
  0
LINE
  8
0
 62
4
 10
4.99999542E+01
 20
2.76699233E+02
 11
1.99999542E+01
 21
2.76699233E+02
  0
LINE
  8
0
 62
4
 10
4.99999542E+01
 20
2.66555713E+02
 11
1.99999542E+01
 21
2.66555713E+02
  0
LINE
  8
0
 62
4
 10
3.49999542E+01
 20
2.59662059E+02
 11
1.99999542E+01
 21
2.59662059E+02
  0
LINE
  8
0
 62
4
 10
3.49999542E+01
 20
2.53847716E+02
 11
1.99999542E+01
 21
2.53847716E+02
  0
LINE
  8
0
  6
CENTER
 62
6
 10
3.49999542E+01
 20
2.75588418E+02
 11
3.49999542E+01
 21
2.80588418E+02
  0
LINE
  8
0
  6
CENTER
 62
6
 10
3.14999542E+01
 20
2.48384421E+02
 11
3.14999542E+01
 21
2.58650000E+02
  0
LINE
  8
0
  6
CENTER
 62
6
 10
2.34999542E+01
 20
2.48384421E+02
 11
2.34999542E+01
 21
2.58650000E+02
  0
LINE
  8
0
 62
4
 10
4.99999542E+01
 20
2.66555713E+02
 11
4.99999542E+01
 21
2.78505174E+02
  0
LINE
  8
0
 62
4
 10
1.99999542E+01
 20
2.53847716E+02
 11
1.99999542E+01
 21
2.79477604E+02
  0
LINE
  8
0
 62
4
 10
3.49999542E+01
 20
2.53847716E+02
 11
3.49999542E+01
 21
2.66555713E+02
  0
LINE
  8
0
 62
4
 10
2.14999542E+01
 20
2.51726395E+02
 11
2.14999542E+01
 21
2.53847716E+02
  0
LINE
  8
0
 62
4
 10
2.54999542E+01
 20
2.51726395E+02
 11
2.54999542E+01
 21
2.53847716E+02
  0
LINE
  8
0
 62
6
 10
2.19999542E+01
 20
2.51496680E+02
 11
2.19999542E+01
 21
2.53847716E+02
  0
LINE
  8
0
 62
6
 10
2.49999542E+01
 20
2.51496680E+02
 11
2.49999542E+01
 21
2.53847716E+02
  0
LINE
  8
0
 62
4
 10
-8.99995422E+00
 20
2.85333360E+02
 11
1.86607118E+00
 21
2.85333360E+02
  0
LINE
  8
0
  6
CENTER
 62
6
 10
-4.39999542E+01
 20
2.83833360E+02
 11
3.00004578E+00
 21
2.83833360E+02
  0
LINE
  8
0
 62
4
 10
-8.99995422E+00
 20
2.82333360E+02
 11
1.34020384E-01
 21
2.82333360E+02
  0
LINE
  8
0
 62
6
 10
-7.32005056E-01
 20
2.80833359E+02
 11
2.73209656E+00
 21
2.86833359E+02
  0
LINE
  8
0
 62
4
 10
1.99999542E+01
 20
2.75666640E+02
 11
9.13392882E+00
 21
2.75666640E+02
  0
LINE
  8
0
  6
CENTER
 62
6
 10
5.49999542E+01
 20
2.77166640E+02
 11
7.99995422E+00
 21
2.77166640E+02
  0
LINE
  8
0
 62
4
 10
1.99999542E+01
 20
2.78666640E+02
 11
1.08659796E+01
 21
2.78666640E+02
  0
LINE
  8
0
 62
6
 10
1.17320051E+01
 20
2.80166641E+02
 11
8.26790344E+00
 21
2.74166641E+02
  0
LINE
  8
0
 62
7
 10
-2.42999954E+02
 20
2.73499969E+02
 11
-2.36499969E+02
 21
2.73499969E+02
  0
LINE
  8
0
 62
2
 10
-2.42999954E+02
 20
2.74319962E+02
 11
-2.36499969E+02
 21
2.74319962E+02
  0
LINE
  8
0
 62
7
 10
-2.42999954E+02
 20
2.87499985E+02
 11
-2.36499969E+02
 21
2.87499985E+02
  0
LINE
  8
0
 62
2
 10
-2.42999954E+02
 20
2.86679993E+02
 11
-2.36499969E+02
 21
2.86679993E+02
  0
ARC
  8
0
 62
4
 10
-2.35114007E+02
 20
2.75000000E+02
 40
1.58859473E+01
 50
1.59743839E+02
 51
2.00256161E+02
  0
ARC
  8
0
 62
4
 10
-2.35114007E+02
 20
2.86000000E+02
 40
1.58859474E+01
 50
1.59743839E+02
 51
2.00256161E+02
  0
ARC
  8
0
 62
4
 10
-2.58885904E+02
 20
2.86000000E+02
 40
1.58859499E+01
 50
3.39743842E+02
 51
2.02561578E+01
  0
ARC
  8
0
 62
4
 10
-2.58885904E+02
 20
2.75000000E+02
 40
1.58859499E+01
 50
3.39743842E+02
 51
2.02561578E+01
  0
LINE
  8
0
 62
4
 10
-2.50999954E+02
 20
2.69500000E+02
 11
-2.42999954E+02
 21
2.69500000E+02
  0
LINE
  8
0
 62
4
 10
-2.50999954E+02
 20
2.91500000E+02
 11
-2.42999954E+02
 21
2.91500000E+02
  0
LINE
  8
0
 62
4
 10
-2.50017474E+02
 20
2.80500000E+02
 11
-2.43982435E+02
 21
2.80500000E+02
  0
LINE
  8
0
 62
4
 10
-2.50999954E+02
 20
2.69500000E+02
 11
-2.50999954E+02
 21
2.91500000E+02
  0
LINE
  8
0
 62
4
 10
-2.42999954E+02
 20
2.69500000E+02
 11
-2.42999954E+02
 21
2.91500000E+02
  0
LINE
  8
0
 62
7
 10
-2.55999939E+02
 20
2.73499969E+02
 11
-2.50999954E+02
 21
2.73499969E+02
  0
LINE
  8
0
 62
2
 10
-2.56819885E+02
 20
2.74319962E+02
 11
-2.50999954E+02
 21
2.74319962E+02
  0
LINE
  8
0
 62
7
 10
-2.57499942E+02
 20
2.74999957E+02
 11
-2.55999930E+02
 21
2.73499944E+02
  0
LINE
  8
0
 62
7
 10
-2.36499969E+02
 20
2.74319962E+02
 11
-2.33499969E+02
 21
2.74319962E+02
  0
LINE
  8
0
 62
7
 10
-2.55999939E+02
 20
2.87499985E+02
 11
-2.50999954E+02
 21
2.87499985E+02
  0
LINE
  8
0
 62
2
 10
-2.56819885E+02
 20
2.86679993E+02
 11
-2.50999954E+02
 21
2.86679993E+02
  0
LINE
  8
0
 62
7
 10
-2.57499858E+02
 20
2.85999899E+02
 11
-2.55999912E+02
 21
2.87499891E+02
  0
LINE
  8
0
 62
7
 10
-2.36499969E+02
 20
2.87499985E+02
 11
-2.36499969E+02
 21
2.73499969E+02
  0
LINE
  8
0
 62
7
 10
-2.55999939E+02
 20
2.87499985E+02
 11
-2.55999939E+02
 21
2.73499969E+02
  0
LINE
  8
0
 62
7
 10
-2.57499939E+02
 20
2.74999954E+02
 11
-2.57499939E+02
 21
2.85999985E+02
  0
LINE
  8
0
 62
7
 10
-2.36499969E+02
 20
2.86679993E+02
 11
-2.33499969E+02
 21
2.86679993E+02
  0
INSERT
  8
0
  2
PP1
  6
BYBLOCK
 62
0
 10
0.00000000E+00
 20
0.00000000E+00
 41
1.00000000E+00
 42
1.00000000E+00
 50
0.00000000E+00
  0
CIRCLE
  8
0
 62
7
 10
6.19999876E+01
 20
2.70500000E+02
 40
2.09999990E+00
  0
CIRCLE
  8
0
 62
7
 10
-5.49999847E+01
 20
2.70500000E+02
 40
2.09999990E+00
  0
CIRCLE
  8
0
 62
2
 10
6.95000024E+01
 20
2.84499939E+02
 40
6.57849979E+00
  0
CIRCLE
  8
0
 62
7
 10
6.95000024E+01
 20
2.84499939E+02
 40
5.65999985E+00
  0
ARC
  8
0
 62
7
 10
8.04999571E+01
 20
2.62500000E+02
 40
2.00000000E+00
 50
2.70000018E+02
 51
5.46415133E-05
  0
ARC
  8
0
 62
7
 10
8.04999571E+01
 20
2.98500000E+02
 40
2.00000000E+00
 50
5.46415133E-05
 51
9.00000369E+01
  0
CIRCLE
  8
0
 62
7
 10
6.95000024E+01
 20
2.84499939E+02
 40
7.00000000E+00
  0
ARC
  8
0
 62
7
 10
8.70000019E+01
 20
2.56532471E+02
 40
5.00000000E-01
 50
2.71000231E+02
 51
1.36603783E-05
  0
ARC
  8
0
 62
7
 10
8.70000019E+01
 20
3.04467529E+02
 40
5.00000000E-01
 50
0.00000000E+00
 51
8.89997895E+01
  0
ARC
  8
0
 62
7
 10
8.90000019E+01
 20
2.96000000E+02
 40
5.00000000E-01
 50
0.00000000E+00
 51
8.99999818E+01
  0
ARC
  8
0
 62
7
 10
8.90000019E+01
 20
2.65000000E+02
 40
5.00000000E-01
 50
2.70000018E+02
 51
1.36603783E-05
  0
CIRCLE
  8
0
 62
7
 10
6.19999876E+01
 20
2.70500000E+02
 40
4.00000000E+00
  0
CIRCLE
  8
0
 62
2
 10
-6.25000000E+01
 20
2.84499939E+02
 40
6.57849979E+00
  0
CIRCLE
  8
0
 62
7
 10
-6.25000000E+01
 20
2.84499939E+02
 40
5.65999985E+00
  0
ARC
  8
0
 62
7
 10
-7.34999542E+01
 20
2.62500000E+02
 40
2.00000000E+00
 50
1.79999977E+02
 51
2.70000028E+02
  0
ARC
  8
0
 62
7
 10
-7.34999542E+01
 20
2.98500000E+02
 40
2.00000000E+00
 50
8.99999818E+01
 51
1.79999964E+02
  0
CIRCLE
  8
0
 62
7
 10
-6.25000000E+01
 20
2.84499939E+02
 40
7.00000000E+00
  0
ARC
  8
0
 62
7
 10
-8.00000000E+01
 20
2.56532471E+02
 40
5.00000000E-01
 50
1.80000008E+02
 51
2.68999785E+02
  0
ARC
  8
0
 62
7
 10
-8.00000000E+01
 20
3.04467529E+02
 40
5.00000000E-01
 50
9.10002155E+01
 51
1.80000005E+02
  0
ARC
  8
0
 62
7
 10
-2.18250000E+02
 20
2.95508606E+02
 40
2.50000000E-01
 50
9.20007768E+01
 51
1.79999991E+02
  0
ARC
  8
0
 62
7
 10
-2.10000000E+02
 20
2.96000000E+02
 40
5.00000000E-01
 50
9.00000231E+01
 51
1.80000005E+02
  0
ARC
  8
0
 62
7
 10
-2.23000031E+02
 20
2.95000000E+02
 40
5.00000000E-01
 50
9.00000231E+01
 51
1.80000005E+02
  0
ARC
  8
0
 62
7
 10
-2.18250000E+02
 20
2.65491394E+02
 40
2.50000000E-01
 50
1.80000008E+02
 51
2.67999216E+02
  0
ARC
  8
0
 62
7
 10
-2.10000000E+02
 20
2.65000000E+02
 40
5.00000000E-01
 50
1.80000008E+02
 51
2.69999998E+02
  0
ARC
  8
0
 62
7
 10
-2.23000031E+02
 20
2.66000000E+02
 40
5.00000000E-01
 50
1.80000008E+02
 51
2.69999998E+02
  0
CIRCLE
  8
0
 62
7
 10
-5.49999847E+01
 20
2.70500000E+02
 40
4.00000000E+00
  0
CIRCLE
  8
0
 62
7
 10
-1.93499954E+02
 20
2.90500000E+02
 40
5.72249985E+00
  0
CIRCLE
  8
0
 62
7
 10
-1.93499954E+02
 20
2.90500000E+02
 40
6.57849932E+00
  0
CIRCLE
  8
0
 62
2
 10
-9.74999695E+01
 20
2.86500000E+02
 40
6.57849932E+00
  0
ARC
  8
0
 62
7
 10
-1.74712418E+02
 20
3.16974854E+02
 40
2.52511263E+00
 50
4.65209375E+01
 51
1.06521820E+02
  0
CIRCLE
  8
0
 62
7
 10
-9.74999695E+01
 20
2.86500000E+02
 40
5.65999985E+00
  0
CIRCLE
  8
0
 62
7
 10
-9.74999695E+01
 20
2.86500000E+02
 40
7.00000000E+00
  0
ARC
  8
0
 62
7
 10
-1.64287491E+02
 20
3.16974854E+02
 40
2.52511263E+00
 50
7.34780821E+01
 51
1.33478944E+02
  0
ARC
  8
0
 62
7
 10
-1.69499969E+02
 20
2.50561172E+02
 40
9.06113529E+00
 50
2.47449035E+02
 51
2.92550946E+02
  0
ARC
  8
0
 62
7
 10
-1.64287491E+02
 20
2.44025146E+02
 40
2.52511263E+00
 50
2.26520987E+02
 51
2.86521856E+02
  0
ARC
  8
0
 62
7
 10
-1.74712418E+02
 20
2.44025146E+02
 40
2.52511263E+00
 50
2.53478125E+02
 51
3.13479008E+02
  0
ARC
  8
0
 62
7
 10
-1.69499969E+02
 20
3.10438873E+02
 40
9.06113529E+00
 50
6.74489921E+01
 51
1.12550903E+02
  0
LINE
  8
0
 62
7
 10
6.34434717E+01
 20
2.70499971E+02
 11
6.27217838E+01
 21
2.69249954E+02
  0
LINE
  8
0
 62
7
 10
6.27216744E+01
 20
2.69250031E+02
 11
6.12783003E+01
 21
2.69250031E+02
  0
LINE
  8
0
 62
7
 10
6.12783253E+01
 20
2.69250024E+02
 11
6.05566221E+01
 21
2.70500067E+02
  0
LINE
  8
0
 62
7
 10
6.05566768E+01
 20
2.70500016E+02
 11
6.12783647E+01
 21
2.71750032E+02
  0
LINE
  8
0
 62
7
 10
-5.35564903E+01
 20
2.70499981E+02
 11
-5.42781783E+01
 21
2.69249964E+02
  0
LINE
  8
0
 62
7
 10
-5.42782898E+01
 20
2.69250031E+02
 11
-5.57216797E+01
 21
2.69250031E+02
  0
LINE
  8
0
 62
7
 10
-5.57216444E+01
 20
2.69250027E+02
 11
-5.64433476E+01
 21
2.70500070E+02
  0
LINE
  8
0
 62
7
 10
-5.64432787E+01
 20
2.70500022E+02
 11
-5.57215908E+01
 21
2.71750039E+02
  0
LINE
  8
0
 62
7
 10
-2.30499969E+02
 20
2.87500000E+02
 11
-2.30499969E+02
 21
2.73499969E+02
  0
LINE
  8
0
 62
7
 10
-2.26500013E+02
 20
2.87500048E+02
 11
-2.25500063E+02
 21
2.88499998E+02
  0
LINE
  8
0
 62
7
 10
-2.26499978E+02
 20
2.73500023E+02
 11
-2.25499955E+02
 21
2.72500000E+02
  0
LINE
  8
0
 62
7
 10
-2.33499969E+02
 20
2.73499969E+02
 11
-2.26499908E+02
 21
2.73499969E+02
  0
LINE
  8
0
 62
7
 10
-2.33499969E+02
 20
2.87500000E+02
 11
-2.26500000E+02
 21
2.87500000E+02
  0
LINE
  8
0
 62
7
 10
-2.33499969E+02
 20
2.87500000E+02
 11
-2.33499969E+02
 21
2.73499969E+02
  0
LINE
  8
0
 62
7
 10
-2.25499939E+02
 20
2.72499985E+02
 11
-2.23499969E+02
 21
2.72499985E+02
  0
LINE
  8
0
 62
7
 10
-2.25500031E+02
 20
2.88499969E+02
 11
-2.23499939E+02
 21
2.88499969E+02
  0
LINE
  8
0
 62
7
 10
6.27216744E+01
 20
2.71750061E+02
 11
6.12783003E+01
 21
2.71750061E+02
  0
LINE
  8
0
 62
7
 10
6.34433576E+01
 20
2.70500078E+02
 11
6.27216773E+01
 21
2.71750081E+02
  0
LINE
  8
0
 62
7
 10
8.24999571E+01
 20
2.98500000E+02
 11
8.24999571E+01
 21
2.62500000E+02
  0
LINE
  8
0
 62
7
 10
8.04999571E+01
 20
2.60500000E+02
 11
5.64999571E+01
 21
2.60500000E+02
  0
LINE
  8
0
 62
7
 10
8.04999571E+01
 20
3.00500000E+02
 11
5.64999571E+01
 21
3.00500000E+02
  0
LINE
  8
0
  6
CENTER
 62
2
 10
6.76965966E+01
 20
2.70500000E+02
 11
5.60811033E+01
 21
2.70500000E+02
  0
LINE
  8
0
 62
7
 10
5.64999306E+01
 20
2.55500130E+02
 11
8.70086962E+01
 21
2.56032667E+02
  0
LINE
  8
0
 62
7
 10
5.65000214E+01
 20
3.05500062E+02
 11
8.70087270E+01
 21
3.04967535E+02
  0
LINE
  8
0
 62
7
 10
8.94999561E+01
 20
2.96000000E+02
 11
8.94999561E+01
 21
2.64970581E+02
  0
LINE
  8
0
 62
7
 10
8.74999561E+01
 20
2.56532471E+02
 11
8.74999561E+01
 21
3.04467529E+02
  0
LINE
  8
0
 62
7
 10
5.64999571E+01
 20
2.55500000E+02
 11
5.64999571E+01
 21
3.05500000E+02
  0
LINE
  8
0
 62
7
 10
8.90000019E+01
 20
2.96500031E+02
 11
8.75000019E+01
 21
2.96500031E+02
  0
LINE
  8
0
 62
7
 10
8.90000019E+01
 20
2.64500031E+02
 11
8.75000019E+01
 21
2.64500031E+02
  0
LINE
  8
0
  6
CENTER
 62
2
 10
6.19999876E+01
 20
2.64580292E+02
 11
6.19999876E+01
 21
2.76104919E+02
  0
LINE
  8
0
  6
CENTER
 62
2
 10
7.96167173E+01
 20
2.84499939E+02
 11
5.95515623E+01
 21
2.84499939E+02
  0
LINE
  8
0
  6
CENTER
 62
2
 10
6.95000024E+01
 20
2.74484131E+02
 11
6.95000024E+01
 21
2.94644165E+02
  0
LINE
  8
0
 62
7
 10
-4.94999542E+01
 20
3.02500000E+02
 11
-2.39999542E+01
 21
3.02500000E+02
  0
LINE
  8
0
 62
7
 10
-5.42782898E+01
 20
2.71750061E+02
 11
-5.57216797E+01
 21
2.71750061E+02
  0
LINE
  8
0
 62
7
 10
-5.35566197E+01
 20
2.70500094E+02
 11
-5.42782924E+01
 21
2.71750084E+02
  0
LINE
  8
0
 62
7
 10
-4.94999542E+01
 20
3.01649994E+02
 11
-2.39999542E+01
 21
3.01649994E+02
  0
LINE
  8
0
 62
7
 10
-4.94999542E+01
 20
2.96350006E+02
 11
-2.39999542E+01
 21
2.96350006E+02
  0
LINE
  8
0
  6
CENTER
 62
2
 10
-8.27269745E+01
 20
2.99000000E+02
 11
8.96034718E+01
 21
2.99000000E+02
  0
LINE
  8
0
 62
7
 10
-4.94999542E+01
 20
2.58500015E+02
 11
1.99999542E+01
 21
2.58500015E+02
  0
LINE
  8
0
 62
7
 10
-4.94999542E+01
 20
2.59350006E+02
 11
1.99999542E+01
 21
2.59350006E+02
  0
LINE
  8
0
 62
7
 10
-4.94999542E+01
 20
2.64649994E+02
 11
1.99999542E+01
 21
2.64649994E+02
  0
LINE
  8
0
  6
CENTER
 62
2
 10
-8.27269745E+01
 20
2.62000000E+02
 11
8.96034718E+01
 21
2.62000000E+02
  0
LINE
  8
0
 62
7
 10
-7.54999542E+01
 20
2.98500000E+02
 11
-7.54999542E+01
 21
2.62500000E+02
  0
LINE
  8
0
 62
7
 10
-7.34999542E+01
 20
2.60500000E+02
 11
-4.94999542E+01
 21
2.60500000E+02
  0
LINE
  8
0
 62
7
 10
-7.34999542E+01
 20
3.00500000E+02
 11
-4.94999542E+01
 21
3.00500000E+02
  0
LINE
  8
0
  6
CENTER
 62
2
 10
-6.06965942E+01
 20
2.70500000E+02
 11
-4.90811005E+01
 21
2.70500000E+02
  0
LINE
  8
0
 62
7
 10
-4.94999413E+01
 20
2.55500134E+02
 11
-8.00086917E+01
 21
2.56032670E+02
  0
LINE
  8
0
 62
7
 10
-4.95000160E+01
 20
3.05500075E+02
 11
-8.00087359E+01
 21
3.04967548E+02
  0
LINE
  8
0
 62
7
 10
-2.10499954E+02
 20
2.96000000E+02
 11
-2.10499954E+02
 21
2.64970581E+02
  0
LINE
  8
0
 62
7
 10
-2.18499939E+02
 20
2.95500031E+02
 11
-2.18499939E+02
 21
2.65499969E+02
  0
LINE
  8
0
 62
7
 10
-2.18258732E+02
 20
2.95758541E+02
 11
-2.10499149E+02
 21
2.96029510E+02
  0
LINE
  8
0
 62
7
 10
-4.94999542E+01
 20
2.55500000E+02
 11
-4.94999542E+01
 21
3.05500000E+02
  0
LINE
  8
0
 62
7
 10
-2.10000000E+02
 20
2.96500031E+02
 11
-2.08500000E+02
 21
2.96500031E+02
  0
LINE
  8
0
 62
7
 10
-2.23000031E+02
 20
2.95500061E+02
 11
-2.18491058E+02
 21
2.95500061E+02
  0
LINE
  8
0
 62
7
 10
-2.23499939E+02
 20
2.66000000E+02
 11
-2.23499939E+02
 21
2.95000000E+02
  0
LINE
  8
0
 62
7
 10
-2.18258771E+02
 20
2.65241641E+02
 11
-2.10499188E+02
 21
2.64970670E+02
  0
LINE
  8
0
 62
7
 10
-2.10000000E+02
 20
2.64500031E+02
 11
-2.08500000E+02
 21
2.64500031E+02
  0
LINE
  8
0
 62
7
 10
-2.23000031E+02
 20
2.65500000E+02
 11
-2.18491058E+02
 21
2.65500000E+02
  0
LINE
  8
0
  6
CENTER
 62
2
 10
-5.49999847E+01
 20
2.64580292E+02
 11
-5.49999847E+01
 21
2.76104919E+02
  0
LINE
  8
0
  6
CENTER
 62
2
 10
-7.26167145E+01
 20
2.84499939E+02
 11
-5.25515594E+01
 21
2.84499939E+02
  0
LINE
  8
0
  6
CENTER
 62
2
 10
-6.25000000E+01
 20
2.74484131E+02
 11
-6.25000000E+01
 21
2.94644165E+02
  0
LINE
  8
0
  6
CENTER
 62
2
 10
-1.69499969E+02
 20
2.99466125E+02
 11
-1.69499969E+02
 21
3.26587677E+02
  0
LINE
  8
0
 62
7
 10
-1.90499969E+02
 20
2.92232086E+02
 11
-1.90499969E+02
 21
2.88767944E+02
  0
LINE
  8
0
 62
7
 10
-1.90500436E+02
 20
2.88768996E+02
 11
-1.93500455E+02
 21
2.87036944E+02
  0
LINE
  8
0
 62
7
 10
-1.93499892E+02
 20
2.87036094E+02
 11
-1.96499799E+02
 21
2.88768081E+02
  0
LINE
  8
0
 62
7
 10
-1.96499985E+02
 20
2.88767944E+02
 11
-1.96499985E+02
 21
2.92232086E+02
  0
LINE
  8
0
 62
7
 10
-1.93500527E+02
 20
2.93965201E+02
 11
-1.96500527E+02
 21
2.92233161E+02
  0
LINE
  8
0
 62
7
 10
-1.90499940E+02
 20
2.92232257E+02
 11
-1.93499900E+02
 21
2.93964274E+02
  0
LINE
  8
0
 62
7
 10
-1.81499985E+02
 20
3.08000031E+02
 11
-1.08499985E+02
 21
3.08000031E+02
  0
LINE
  8
0
 62
7
 10
-1.08499954E+02
 20
3.06649994E+02
 11
-1.81499985E+02
 21
3.06649994E+02
  0
LINE
  8
0
  6
CENTER
 62
2
 10
-1.69499969E+02
 20
2.61533920E+02
 11
-1.69499969E+02
 21
2.34412354E+02
  0
LINE
  8
0
 62
7
 10
-1.81499939E+02
 20
3.11500000E+02
 11
-1.81499939E+02
 21
2.49500015E+02
  0
LINE
  8
0
 62
7
 10
-2.08499954E+02
 20
3.11500000E+02
 11
-2.08499954E+02
 21
2.49500015E+02
  0
LINE
  8
0
 62
7
 10
-2.08499954E+02
 20
2.49500046E+02
 11
-1.81499985E+02
 21
2.49500046E+02
  0
LINE
  8
0
 62
7
 10
-1.08499985E+02
 20
2.49500046E+02
 11
-8.05000000E+01
 21
2.49500046E+02
  0
LINE
  8
0
 62
7
 10
-1.81499985E+02
 20
2.53500015E+02
 11
-1.08499985E+02
 21
2.53500015E+02
  0
LINE
  8
0
  6
CENTER
 62
2
 10
-1.93499954E+02
 20
2.99778992E+02
 11
-1.93499954E+02
 21
2.81213196E+02
  0
LINE
  8
0
  6
CENTER
 62
2
 10
-2.02559906E+02
 20
2.90500000E+02
 11
-1.84215088E+02
 21
2.90500000E+02
  0
LINE
  8
0
 62
7
 10
-1.08499954E+02
 20
3.11500000E+02
 11
-1.08499954E+02
 21
2.49500015E+02
  0
LINE
  8
0
 62
7
 10
-1.72974945E+02
 20
3.13000000E+02
 11
-1.72974945E+02
 21
3.18807190E+02
  0
LINE
  8
0
 62
7
 10
-1.66199766E+02
 20
3.24500016E+02
 11
-1.65499824E+02
 21
3.23800074E+02
  0
LINE
  8
0
 62
7
 10
-1.73499740E+02
 20
3.23799820E+02
 11
-1.72799728E+02
 21
3.24499833E+02
  0
LINE
  8
0
 62
7
 10
-1.73499954E+02
 20
3.23800018E+02
 11
-1.65499969E+02
 21
3.23800018E+02
  0
LINE
  8
0
 62
2
 10
-1.66199951E+02
 20
3.19500031E+02
 11
-1.66199951E+02
 21
3.24500031E+02
  0
LINE
  8
0
 62
2
 10
-1.72799988E+02
 20
3.19500031E+02
 11
-1.72799988E+02
 21
3.24500031E+02
  0
LINE
  8
0
 62
7
 10
-1.65499969E+02
 20
3.19500031E+02
 11
-1.65499969E+02
 21
3.23799988E+02
  0
LINE
  8
0
 62
7
 10
-1.73499954E+02
 20
3.19500031E+02
 11
-1.73499954E+02
 21
3.23799988E+02
  0
LINE
  8
0
 62
7
 10
-1.66024979E+02
 20
3.13000000E+02
 11
-1.66024979E+02
 21
3.18807190E+02
  0
LINE
  8
0
 62
7
 10
-1.08499954E+02
 20
3.01350006E+02
 11
-1.81499985E+02
 21
3.01350006E+02
  0
LINE
  8
0
  6
CENTER
 62
2
 10
-7.77388992E+01
 20
3.04000000E+02
 11
-2.12942596E+02
 21
3.04000000E+02
  0
LINE
  8
0
 62
7
 10
-1.76449775E+02
 20
3.18806915E+02
 11
-1.75249767E+02
 21
3.19499741E+02
  0
LINE
  8
0
 62
7
 10
-1.63750100E+02
 20
3.19499970E+02
 11
-1.62550065E+02
 21
3.18807129E+02
  0
LINE
  8
0
 62
7
 10
-1.76449982E+02
 20
3.13000000E+02
 11
-1.76449982E+02
 21
3.18807190E+02
  0
LINE
  8
0
 62
7
 10
-1.62549973E+02
 20
3.13000000E+02
 11
-1.62549973E+02
 21
3.18807190E+02
  0
LINE
  8
0
 62
7
 10
-1.75249985E+02
 20
3.19500031E+02
 11
-1.63749969E+02
 21
3.19500031E+02
  0
LINE
  8
0
 62
7
 10
-1.72799988E+02
 20
3.24500031E+02
 11
-1.66199951E+02
 21
3.24500031E+02
  0
LINE
  8
0
 62
7
 10
-1.77500000E+02
 20
3.08000000E+02
 11
-1.77500000E+02
 21
3.13000000E+02
  0
LINE
  8
0
 62
7
 10
-1.61499954E+02
 20
3.08000000E+02
 11
-1.61499954E+02
 21
3.13000000E+02
  0
LINE
  8
0
 62
7
 10
-1.77500000E+02
 20
3.13000031E+02
 11
-1.61499985E+02
 21
3.13000031E+02
  0
LINE
  8
0
 62
7
 10
-1.66199782E+02
 20
2.36499863E+02
 11
-1.65499789E+02
 21
2.37199856E+02
  0
LINE
  8
0
 62
7
 10
-1.73499956E+02
 20
2.37200044E+02
 11
-1.72799927E+02
 21
2.36500015E+02
  0
LINE
  8
0
 62
7
 10
-1.73499954E+02
 20
2.37200012E+02
 11
-1.65499969E+02
 21
2.37200012E+02
  0
LINE
  8
0
 62
2
 10
-1.66199951E+02
 20
2.41500015E+02
 11
-1.66199951E+02
 21
2.36500015E+02
  0
LINE
  8
0
 62
2
 10
-1.72799988E+02
 20
2.41500015E+02
 11
-1.72799988E+02
 21
2.36500015E+02
  0
LINE
  8
0
 62
7
 10
-1.65499969E+02
 20
2.41500015E+02
 11
-1.65499969E+02
 21
2.37200043E+02
  0
LINE
  8
0
 62
7
 10
-1.73499954E+02
 20
2.41500015E+02
 11
-1.73499954E+02
 21
2.37200043E+02
  0
LINE
  8
0
 62
7
 10
-1.66024979E+02
 20
2.48000031E+02
 11
-1.66024979E+02
 21
2.42192841E+02
  0
LINE
  8
0
 62
7
 10
-1.72974945E+02
 20
2.48000031E+02
 11
-1.72974945E+02
 21
2.42192841E+02
  0
LINE
  8
0
 62
7
 10
-1.76450019E+02
 20
2.42192825E+02
 11
-1.75250010E+02
 21
2.41500000E+02
  0
LINE
  8
0
 62
7
 10
-1.63749830E+02
 20
2.41499839E+02
 11
-1.62549834E+02
 21
2.42192657E+02
  0
LINE
  8
0
 62
7
 10
-1.76449982E+02
 20
2.48000031E+02
 11
-1.76449982E+02
 21
2.42192841E+02
  0
LINE
  8
0
 62
7
 10
-1.62549973E+02
 20
2.48000031E+02
 11
-1.62549973E+02
 21
2.42192841E+02
  0
LINE
  8
0
 62
7
 10
-1.75249985E+02
 20
2.41500015E+02
 11
-1.63749969E+02
 21
2.41500015E+02
  0
LINE
  8
0
 62
7
 10
-1.72799988E+02
 20
2.36500015E+02
 11
-1.66199951E+02
 21
2.36500015E+02
  0
LINE
  8
0
 62
7
 10
-1.77500000E+02
 20
2.53500015E+02
 11
-1.77500000E+02
 21
2.48000031E+02
  0
LINE
  8
0
 62
7
 10
-1.61499954E+02
 20
2.53500015E+02
 11
-1.61499954E+02
 21
2.48000031E+02
  0
LINE
  8
0
 62
7
 10
-1.77500000E+02
 20
2.48000000E+02
 11
-1.61499985E+02
 21
2.48000000E+02
  0
LINE
  8
0
 62
7
 10
-1.08499985E+02
 20
3.11500000E+02
 11
-8.05000000E+01
 21
3.11500000E+02
  0
LINE
  8
0
 62
7
 10
-8.04999542E+01
 20
2.49500015E+02
 11
-8.04999542E+01
 21
3.11500000E+02
  0
LINE
  8
0
 62
7
 10
-2.08499954E+02
 20
3.11500000E+02
 11
-1.81499985E+02
 21
3.11500000E+02
  0
LINE
  8
0
  6
CENTER
 62
2
 10
-1.07616699E+02
 20
2.86500000E+02
 11
-8.75515747E+01
 21
2.86500000E+02
  0
LINE
  8
0
  6
CENTER
 62
2
 10
-9.74999695E+01
 20
2.76484222E+02
 11
-9.74999695E+01
 21
2.96644226E+02
  0
LINE
  8
0
  6
CENTER
 62
2
 10
-2.61539398E+02
 20
2.80500000E+02
 11
9.76687565E+01
 21
2.80500000E+02
  0
LINE
  8
0
 62
7
 10
-1.08499954E+02
 20
2.54350021E+02
 11
-1.81499985E+02
 21
2.54350021E+02
  0
LINE
  8
0
 62
7
 10
-1.08499954E+02
 20
2.59650009E+02
 11
-1.81499985E+02
 21
2.59650009E+02
  0
LINE
  8
0
  6
CENTER
 62
2
 10
-7.71752625E+01
 20
2.57000015E+02
 11
-2.12942596E+02
 21
2.57000015E+02
  0
ARC
  8
0
 62
4
 10
-4.45005313E+01
 20
-3.05696179E+02
 40
1.49950792E+00
 50
8.99812358E+01
 51
1.80018846E+02
  0
ARC
  8
0
 62
4
 10
-5.04995382E+01
 20
-2.90231278E+02
 40
5.00508007E-01
 50
1.80058166E+02
 51
2.69941916E+02
  0
ARC
  8
0
 62
4
 10
-8.49953166E+00
 20
-3.05696138E+02
 40
1.49949266E+00
 50
3.59980652E+02
 51
9.00194298E+01
  0
ARC
  8
0
 62
4
 10
-4.19995379E+01
 20
-2.91231273E+02
 40
4.99492993E-01
 50
3.59941854E+02
 51
9.00582282E+01
  0
ARC
  8
0
 62
4
 10
-5.05005472E+01
 20
-2.77231294E+02
 40
4.99508251E-01
 50
8.99436074E+01
 51
1.80056475E+02
  0
LINE
  8
0
 62
4
 10
-5.45000465E+01
 20
-2.89478074E+02
 11
-5.10000465E+01
 21
-2.89478072E+02
  0
LINE
  8
0
 62
4
 10
-5.45000547E+01
 20
-2.77978074E+02
 11
-5.10000547E+01
 21
-2.77978072E+02
  0
LINE
  8
0
 62
4
 10
-5.45000550E+01
 20
-2.77478074E+02
 11
-5.45000461E+01
 21
-2.89978074E+02
  0
LINE
  8
0
 62
4
 10
-5.60000461E+01
 20
-2.89978075E+02
 11
-5.10000461E+01
 21
-2.89978072E+02
  0
LINE
  8
0
 62
4
 10
-5.60000550E+01
 20
-2.77478075E+02
 11
-5.10000550E+01
 21
-2.77478072E+02
  0
LINE
  8
0
 62
4
 10
-5.60000619E+01
 20
-2.76396840E+02
 11
-5.60000515E+01
 21
-2.91078839E+02
  0
LINE
  8
0
 62
4
 10
-6.10000619E+01
 20
-2.76396843E+02
 11
-6.10000515E+01
 21
-2.91078843E+02
  0
LINE
  8
0
 62
4
 10
-5.10000552E+01
 20
-2.77231786E+02
 11
-5.10000459E+01
 21
-2.90231786E+02
  0
LINE
  8
0
 62
4
 10
-4.15000556E+01
 20
-2.76731780E+02
 11
-5.05000556E+01
 21
-2.76731786E+02
  0
LINE
  8
0
 62
4
 10
-5.05000456E+01
 20
-2.90731786E+02
 11
-4.20000456E+01
 21
-2.90731780E+02
  0
LINE
  8
0
 62
4
 10
-6.10000515E+01
 20
-2.91078843E+02
 11
-5.60000515E+01
 21
-2.91078839E+02
  0
LINE
  8
0
 62
4
 10
-6.10000539E+01
 20
-2.86059359E+02
 11
-5.60000539E+01
 21
-2.86059356E+02
  0
LINE
  8
0
 62
4
 10
-6.10000614E+01
 20
-2.78713471E+02
 11
-5.60000614E+01
 21
-2.78713467E+02
  0
LINE
  8
0
 62
4
 10
-6.10000619E+01
 20
-2.76396843E+02
 11
-5.60000619E+01
 21
-2.76396840E+02
  0
LINE
  8
0
 62
4
 10
-4.45000402E+01
 20
-3.04196672E+02
 11
-8.50004016E+00
 21
-3.04196646E+02
  0
LINE
  8
0
 62
4
 10
-4.60000351E+01
 20
-3.16936690E+02
 11
-7.00003510E+00
 21
-3.16936662E+02
  0
LINE
  8
0
 62
4
 10
-4.60000340E+01
 20
-3.18403911E+02
 11
-7.00003405E+00
 21
-3.18403883E+02
  0
LINE
  8
0
 62
4
 10
-7.00004313E+00
 20
-3.05696645E+02
 11
-7.00003405E+00
 21
-3.18403886E+02
  0
LINE
  8
0
 62
4
 10
-4.15000441E+01
 20
-2.99776562E+02
 11
-2.65000441E+01
 21
-2.99776551E+02
  0
LINE
  8
0
 62
4
 10
-2.45000430E+01
 20
-3.00338886E+02
 11
-2.45000403E+01
 21
-3.04200370E+02
  0
LINE
  8
0
 62
4
 10
-4.15000609E+01
 20
-2.76301019E+02
 11
-4.15000437E+01
 21
-3.00338898E+02
  0
LINE
  8
0
 62
4
 10
-2.65000609E+01
 20
-2.76301019E+02
 11
-2.65000437E+01
 21
-3.00338887E+02
  0
LINE
  8
0
 62
4
 10
-4.35000430E+01
 20
-3.00338886E+02
 11
-4.35000403E+01
 21
-3.04200370E+02
  0
LINE
  8
0
 62
4
 10
-4.60000431E+01
 20
-3.05696673E+02
 11
-4.60000340E+01
 21
-3.18403911E+02
  0
LINE
  8
0
 62
4
 10
-4.35000430E+01
 20
-3.00338899E+02
 11
-2.45000430E+01
 21
-3.00338886E+02
  0
LINE
  8
0
 62
4
 10
-4.15000609E+01
 20
-2.76301019E+02
 11
-2.65000609E+01
 21
-2.76301008E+02
  0
LINE
  8
0
  6
CENTER
 62
6
 10
-4.04000398E+01
 20
-3.10339807E+02
 11
-2.76000398E+01
 21
-3.10339798E+02
  0
LINE
  8
0
  6
CENTER
 62
6
 10
-3.40000352E+01
 20
-3.16743510E+02
 11
-3.40000444E+01
 21
-3.03943510E+02
  0
LINE
  8
0
 62
4
 10
-4.30000266E+01
 20
-3.27500015E+02
 11
-4.30000266E+01
 21
-3.22940236E+02
  0
LINE
  8
0
 62
4
 10
-9.62474838E+00
 20
-3.27500015E+02
 11
-9.62474838E+00
 21
-3.22940236E+02
  0
LINE
  8
0
 62
4
 10
-4.30000266E+01
 20
-3.22940236E+02
 11
-4.60000340E+01
 21
-3.18403911E+02
  0
LINE
  8
0
 62
4
 10
-9.62474838E+00
 20
-3.22940236E+02
 11
-7.00003405E+00
 21
-3.18403883E+02
  0
LINE
  8
0
 62
4
 10
-4.30000266E+01
 20
-3.22940236E+02
 11
-9.62474838E+00
 21
-3.22940213E+02
  0
LINE
  8
0
 62
4
 10
-4.30000266E+01
 20
-3.23875839E+02
 11
-9.62474838E+00
 21
-3.23875815E+02
  0
LINE
  8
0
 62
4
 10
-4.30000266E+01
 20
-3.25747044E+02
 11
-9.62474838E+00
 21
-3.25747020E+02
  0
LINE
  8
0
 62
4
 10
-4.30000266E+01
 20
-3.26682647E+02
 11
-9.62474838E+00
 21
-3.26682623E+02
  0
POLYLINE
  8
0
 62
4
 66
1
  0
VERTEX
  8
0
 62
4
 10
-3.74000396E+01
 20
-3.10604564E+02
  0
VERTEX
  8
0
 62
4
 10
-3.73871082E+01
 20
-3.10896315E+02
  0
VERTEX
  8
0
 62
4
 10
-3.73483991E+01
 20
-3.11185845E+02
  0
VERTEX
  8
0
 62
4
 10
-3.72842070E+01
 20
-3.11470952E+02
  0
VERTEX
  8
0
 62
4
 10
-3.71950204E+01
 20
-3.11749466E+02
  0
VERTEX
  8
0
 62
4
 10
-3.70815180E+01
 20
-3.12019268E+02
  0
VERTEX
  8
0
 62
4
 10
-3.69445638E+01
 20
-3.12278303E+02
  0
VERTEX
  8
0
 62
4
 10
-3.67851999E+01
 20
-3.12524600E+02
  0
VERTEX
  8
0
 62
4
 10
-3.66046393E+01
 20
-3.12756286E+02
  0
VERTEX
  8
0
 62
4
 10
-3.64042561E+01
 20
-3.12971596E+02
  0
VERTEX
  8
0
 62
4
 10
-3.61855754E+01
 20
-3.13168892E+02
  0
VERTEX
  8
0
 62
4
 10
-3.59502614E+01
 20
-3.13346673E+02
  0
VERTEX
  8
0
 62
4
 10
-3.57001050E+01
 20
-3.13503585E+02
  0
VERTEX
  8
0
 62
4
 10
-3.54370102E+01
 20
-3.13638434E+02
  0
VERTEX
  8
0
 62
4
 10
-3.51629791E+01
 20
-3.13750195E+02
  0
VERTEX
  8
0
 62
4
 10
-3.48800973E+01
 20
-3.13838015E+02
  0
VERTEX
  8
0
 62
4
 10
-3.45905178E+01
 20
-3.13901228E+02
  0
VERTEX
  8
0
 62
4
 10
-3.42964444E+01
 20
-3.13939352E+02
  0
VERTEX
  8
0
 62
4
 10
-3.40001152E+01
 20
-3.13952097E+02
  0
VERTEX
  8
0
 62
4
 10
-3.37037853E+01
 20
-3.13939366E+02
  0
VERTEX
  8
0
 62
4
 10
-3.34097102E+01
 20
-3.13901255E+02
  0
VERTEX
  8
0
 62
4
 10
-3.31201278E+01
 20
-3.13838055E+02
  0
VERTEX
  8
0
 62
4
 10
-3.28372421E+01
 20
-3.13750247E+02
  0
VERTEX
  8
0
 62
4
 10
-3.25632060E+01
 20
-3.13638499E+02
  0
VERTEX
  8
0
 62
4
 10
-3.23001050E+01
 20
-3.13503661E+02
  0
VERTEX
  8
0
 62
4
 10
-3.20499416E+01
 20
-3.13346761E+02
  0
VERTEX
  8
0
 62
4
 10
-3.18146196E+01
 20
-3.13168990E+02
  0
VERTEX
  8
0
 62
4
 10
-3.15959300E+01
 20
-3.12971704E+02
  0
VERTEX
  8
0
 62
4
 10
-3.13955371E+01
 20
-3.12756403E+02
  0
VERTEX
  8
0
 62
4
 10
-3.12149660E+01
 20
-3.12524726E+02
  0
VERTEX
  8
0
 62
4
 10
-3.10555910E+01
 20
-3.12278436E+02
  0
VERTEX
  8
0
 62
4
 10
-3.09186251E+01
 20
-3.12019407E+02
  0
VERTEX
  8
0
 62
4
 10
-3.08051105E+01
 20
-3.11749611E+02
  0
VERTEX
  8
0
 62
4
 10
-3.07159113E+01
 20
-3.11471101E+02
  0
VERTEX
  8
0
 62
4
 10
-3.06517064E+01
 20
-3.11185996E+02
  0
VERTEX
  8
0
 62
4
 10
-3.06129842E+01
 20
-3.10896467E+02
  0
VERTEX
  8
0
 62
4
 10
-3.06000396E+01
 20
-3.10604718E+02
  0
VERTEX
  8
0
 62
4
 10
-3.06129710E+01
 20
-3.10312967E+02
  0
VERTEX
  8
0
 62
4
 10
-3.06516801E+01
 20
-3.10023437E+02
  0
VERTEX
  8
0
 62
4
 10
-3.07158722E+01
 20
-3.09738330E+02
  0
VERTEX
  8
0
 62
4
 10
-3.08050588E+01
 20
-3.09459816E+02
  0
VERTEX
  8
0
 62
4
 10
-3.09185612E+01
 20
-3.09190014E+02
  0
VERTEX
  8
0
 62
4
 10
-3.10555154E+01
 20
-3.08930979E+02
  0
VERTEX
  8
0
 62
4
 10
-3.12148793E+01
 20
-3.08684682E+02
  0
VERTEX
  8
0
 62
4
 10
-3.13954399E+01
 20
-3.08452996E+02
  0
VERTEX
  8
0
 62
4
 10
-3.15958231E+01
 20
-3.08237686E+02
  0
VERTEX
  8
0
 62
4
 10
-3.18145038E+01
 20
-3.08040390E+02
  0
VERTEX
  8
0
 62
4
 10
-3.20498178E+01
 20
-3.07862609E+02
  0
VERTEX
  8
0
 62
4
 10
-3.22999742E+01
 20
-3.07705697E+02
  0
VERTEX
  8
0
 62
4
 10
-3.25630690E+01
 20
-3.07570848E+02
  0
VERTEX
  8
0
 62
4
 10
-3.28371001E+01
 20
-3.07459087E+02
  0
VERTEX
  8
0
 62
4
 10
-3.31199819E+01
 20
-3.07371267E+02
  0
VERTEX
  8
0
 62
4
 10
-3.34095614E+01
 20
-3.07308054E+02
  0
VERTEX
  8
0
 62
4
 10
-3.37036348E+01
 20
-3.07269930E+02
  0
VERTEX
  8
0
 62
4
 10
-3.39999640E+01
 20
-3.07257185E+02
  0
VERTEX
  8
0
 62
4
 10
-3.42962939E+01
 20
-3.07269916E+02
  0
VERTEX
  8
0
 62
4
 10
-3.45903690E+01
 20
-3.07308027E+02
  0
VERTEX
  8
0
 62
4
 10
-3.48799514E+01
 20
-3.07371227E+02
  0
VERTEX
  8
0
 62
4
 10
-3.51628371E+01
 20
-3.07459035E+02
  0
VERTEX
  8
0
 62
4
 10
-3.54368732E+01
 20
-3.07570783E+02
  0
VERTEX
  8
0
 62
4
 10
-3.56999742E+01
 20
-3.07705621E+02
  0
VERTEX
  8
0
 62
4
 10
-3.59501376E+01
 20
-3.07862521E+02
  0
VERTEX
  8
0
 62
4
 10
-3.61854596E+01
 20
-3.08040292E+02
  0
VERTEX
  8
0
 62
4
 10
-3.64041492E+01
 20
-3.08237578E+02
  0
VERTEX
  8
0
 62
4
 10
-3.66045421E+01
 20
-3.08452879E+02
  0
VERTEX
  8
0
 62
4
 10
-3.67851132E+01
 20
-3.08684556E+02
  0
VERTEX
  8
0
 62
4
 10
-3.69444882E+01
 20
-3.08930846E+02
  0
VERTEX
  8
0
 62
4
 10
-3.70814541E+01
 20
-3.09189875E+02
  0
VERTEX
  8
0
 62
4
 10
-3.71949687E+01
 20
-3.09459671E+02
  0
VERTEX
  8
0
 62
4
 10
-3.72841679E+01
 20
-3.09738181E+02
  0
VERTEX
  8
0
 62
4
 10
-3.73483728E+01
 20
-3.10023286E+02
  0
VERTEX
  8
0
 62
4
 10
-3.73870950E+01
 20
-3.10312815E+02
  0
VERTEX
  8
0
 62
4
 10
-3.74000396E+01
 20
-3.10604564E+02
  0
SEQEND
  8
0
  0
POLYLINE
  8
0
 62
4
 66
1
  0
VERTEX
  8
0
 62
4
 10
-3.73990121E+01
 20
-3.10686931E+02
  0
VERTEX
  8
0
 62
4
 10
-3.73930682E+01
 20
-3.10998416E+02
  0
VERTEX
  8
0
 62
4
 10
-3.73604873E+01
 20
-3.11308134E+02
  0
VERTEX
  8
0
 62
4
 10
-3.73015250E+01
 20
-3.11613653E+02
  0
VERTEX
  8
0
 62
4
 10
-3.72166442E+01
 20
-3.11912576E+02
  0
VERTEX
  8
0
 62
4
 10
-3.71065114E+01
 20
-3.12202556E+02
  0
VERTEX
  8
0
 62
4
 10
-3.69719910E+01
 20
-3.12481316E+02
  0
VERTEX
  8
0
 62
4
 10
-3.68141393E+01
 20
-3.12746667E+02
  0
VERTEX
  8
0
 62
4
 10
-3.66341953E+01
 20
-3.12996527E+02
  0
VERTEX
  8
0
 62
4
 10
-3.64335717E+01
 20
-3.13228934E+02
  0
VERTEX
  8
0
 62
4
 10
-3.62138436E+01
 20
-3.13442064E+02
  0
VERTEX
  8
0
 62
4
 10
-3.59767360E+01
 20
-3.13634242E+02
  0
VERTEX
  8
0
 62
4
 10
-3.57241101E+01
 20
-3.13803962E+02
  0
VERTEX
  8
0
 62
4
 10
-3.54579494E+01
 20
-3.13949889E+02
  0
VERTEX
  8
0
 62
4
 10
-3.51803434E+01
 20
-3.14070879E+02
  0
VERTEX
  8
0
 62
4
 10
-3.48934713E+01
 20
-3.14165982E+02
  0
VERTEX
  8
0
 62
4
 10
-3.45995852E+01
 20
-3.14234451E+02
  0
VERTEX
  8
0
 62
4
 10
-3.43009924E+01
 20
-3.14275748E+02
  0
VERTEX
  8
0
 62
4
 10
-3.40000370E+01
 20
-3.14289550E+02
  0
VERTEX
  8
0
 62
4
 10
-3.36990816E+01
 20
-3.14275748E+02
  0
VERTEX
  8
0
 62
4
 10
-3.34004888E+01
 20
-3.14234451E+02
  0
VERTEX
  8
0
 62
4
 10
-3.31066029E+01
 20
-3.14165982E+02
  0
VERTEX
  8
0
 62
4
 10
-3.28197309E+01
 20
-3.14070879E+02
  0
VERTEX
  8
0
 62
4
 10
-3.25421250E+01
 20
-3.13949889E+02
  0
VERTEX
  8
0
 62
4
 10
-3.22759645E+01
 20
-3.13803962E+02
  0
VERTEX
  8
0
 62
4
 10
-3.20233389E+01
 20
-3.13634242E+02
  0
VERTEX
  8
0
 62
4
 10
-3.17862316E+01
 20
-3.13442064E+02
  0
VERTEX
  8
0
 62
4
 10
-3.15665038E+01
 20
-3.13228934E+02
  0
VERTEX
  8
0
 62
4
 10
-3.13658806E+01
 20
-3.12996527E+02
  0
VERTEX
  8
0
 62
4
 10
-3.11859369E+01
 20
-3.12746667E+02
  0
VERTEX
  8
0
 62
4
 10
-3.10280855E+01
 20
-3.12481316E+02
  0
VERTEX
  8
0
 62
4
 10
-3.08935656E+01
 20
-3.12202556E+02
  0
VERTEX
  8
0
 62
4
 10
-3.07834331E+01
 20
-3.11912576E+02
  0
VERTEX
  8
0
 62
4
 10
-3.06985528E+01
 20
-3.11613653E+02
  0
VERTEX
  8
0
 62
4
 10
-3.06395909E+01
 20
-3.11308134E+02
  0
VERTEX
  8
0
 62
4
 10
-3.06070104E+01
 20
-3.10998416E+02
  0
VERTEX
  8
0
 62
4
 10
-3.06010670E+01
 20
-3.10686931E+02
  0
SEQEND
  8
0
  0
POLYLINE
  8
0
 62
4
 66
1
  0
VERTEX
  8
0
 62
4
 10
-3.80000394E+01
 20
-3.10963785E+02
  0
VERTEX
  8
0
 62
4
 10
-3.79848236E+01
 20
-3.11304790E+02
  0
VERTEX
  8
0
 62
4
 10
-3.79392812E+01
 20
-3.11643200E+02
  0
VERTEX
  8
0
 62
4
 10
-3.78637587E+01
 20
-3.11976440E+02
  0
VERTEX
  8
0
 62
4
 10
-3.77588310E+01
 20
-3.12301973E+02
  0
VERTEX
  8
0
 62
4
 10
-3.76252967E+01
 20
-3.12617323E+02
  0
VERTEX
  8
0
 62
4
 10
-3.74641720E+01
 20
-3.12920088E+02
  0
VERTEX
  8
0
 62
4
 10
-3.72766831E+01
 20
-3.13207966E+02
  0
VERTEX
  8
0
 62
4
 10
-3.70642569E+01
 20
-3.13478764E+02
  0
VERTEX
  8
0
 62
4
 10
-3.68285103E+01
 20
-3.13730422E+02
  0
VERTEX
  8
0
 62
4
 10
-3.65712372E+01
 20
-3.13961025E+02
  0
VERTEX
  8
0
 62
4
 10
-3.62943958E+01
 20
-3.14168818E+02
  0
VERTEX
  8
0
 62
4
 10
-3.60000930E+01
 20
-3.14352219E+02
  0
VERTEX
  8
0
 62
4
 10
-3.56905685E+01
 20
-3.14509832E+02
  0
VERTEX
  8
0
 62
4
 10
-3.53681781E+01
 20
-3.14640459E+02
  0
VERTEX
  8
0
 62
4
 10
-3.50353753E+01
 20
-3.14743104E+02
  0
VERTEX
  8
0
 62
4
 10
-3.46946930E+01
 20
-3.14816986E+02
  0
VERTEX
  8
0
 62
4
 10
-3.43487240E+01
 20
-3.14861544E+02
  0
VERTEX
  8
0
 62
4
 10
-3.40001013E+01
 20
-3.14876438E+02
  0
VERTEX
  8
0
 62
4
 10
-3.36514781E+01
 20
-3.14861555E+02
  0
VERTEX
  8
0
 62
4
 10
-3.33055076E+01
 20
-3.14817008E+02
  0
VERTEX
  8
0
 62
4
 10
-3.29648230E+01
 20
-3.14743136E+02
  0
VERTEX
  8
0
 62
4
 10
-3.26320170E+01
 20
-3.14640502E+02
  0
VERTEX
  8
0
 62
4
 10
-3.23096224E+01
 20
-3.14509886E+02
  0
VERTEX
  8
0
 62
4
 10
-3.20000930E+01
 20
-3.14352282E+02
  0
VERTEX
  8
0
 62
4
 10
-3.17057843E+01
 20
-3.14168891E+02
  0
VERTEX
  8
0
 62
4
 10
-3.14289364E+01
 20
-3.13961107E+02
  0
VERTEX
  8
0
 62
4
 10
-3.11716560E+01
 20
-3.13730512E+02
  0
VERTEX
  8
0
 62
4
 10
-3.09359014E+01
 20
-3.13478861E+02
  0
VERTEX
  8
0
 62
4
 10
-3.07234667E+01
 20
-3.13208069E+02
  0
VERTEX
  8
0
 62
4
 10
-3.05359687E+01
 20
-3.12920198E+02
  0
VERTEX
  8
0
 62
4
 10
-3.03748344E+01
 20
-3.12617437E+02
  0
VERTEX
  8
0
 62
4
 10
-3.02412901E+01
 20
-3.12302092E+02
  0
VERTEX
  8
0
 62
4
 10
-3.01363521E+01
 20
-3.11976562E+02
  0
VERTEX
  8
0
 62
4
 10
-3.00608191E+01
 20
-3.11643324E+02
  0
VERTEX
  8
0
 62
4
 10
-3.00152660E+01
 20
-3.11304916E+02
  0
VERTEX
  8
0
 62
4
 10
-3.00000394E+01
 20
-3.10963911E+02
  0
VERTEX
  8
0
 62
4
 10
-3.00152552E+01
 20
-3.10622906E+02
  0
VERTEX
  8
0
 62
4
 10
-3.00607976E+01
 20
-3.10284496E+02
  0
VERTEX
  8
0
 62
4
 10
-3.01363201E+01
 20
-3.09951256E+02
  0
VERTEX
  8
0
 62
4
 10
-3.02412478E+01
 20
-3.09625723E+02
  0
VERTEX
  8
0
 62
4
 10
-3.03747821E+01
 20
-3.09310373E+02
  0
VERTEX
  8
0
 62
4
 10
-3.05359069E+01
 20
-3.09007608E+02
  0
VERTEX
  8
0
 62
4
 10
-3.07233957E+01
 20
-3.08719730E+02
  0
VERTEX
  8
0
 62
4
 10
-3.09358219E+01
 20
-3.08448932E+02
  0
VERTEX
  8
0
 62
4
 10
-3.11715685E+01
 20
-3.08197274E+02
  0
VERTEX
  8
0
 62
4
 10
-3.14288416E+01
 20
-3.07966671E+02
  0
VERTEX
  8
0
 62
4
 10
-3.17056830E+01
 20
-3.07758878E+02
  0
VERTEX
  8
0
 62
4
 10
-3.19999858E+01
 20
-3.07575477E+02
  0
VERTEX
  8
0
 62
4
 10
-3.23095103E+01
 20
-3.07417864E+02
  0
VERTEX
  8
0
 62
4
 10
-3.26319007E+01
 20
-3.07287237E+02
  0
VERTEX
  8
0
 62
4
 10
-3.29647035E+01
 20
-3.07184592E+02
  0
VERTEX
  8
0
 62
4
 10
-3.33053858E+01
 20
-3.07110710E+02
  0
VERTEX
  8
0
 62
4
 10
-3.36513548E+01
 20
-3.07066152E+02
  0
VERTEX
  8
0
 62
4
 10
-3.39999775E+01
 20
-3.07051258E+02
  0
VERTEX
  8
0
 62
4
 10
-3.43486007E+01
 20
-3.07066141E+02
  0
VERTEX
  8
0
 62
4
 10
-3.46945712E+01
 20
-3.07110688E+02
  0
VERTEX
  8
0
 62
4
 10
-3.50352558E+01
 20
-3.07184560E+02
  0
VERTEX
  8
0
 62
4
 10
-3.53680618E+01
 20
-3.07287194E+02
  0
VERTEX
  8
0
 62
4
 10
-3.56904564E+01
 20
-3.07417810E+02
  0
VERTEX
  8
0
 62
4
 10
-3.59999858E+01
 20
-3.07575414E+02
  0
VERTEX
  8
0
 62
4
 10
-3.62942945E+01
 20
-3.07758805E+02
  0
VERTEX
  8
0
 62
4
 10
-3.65711424E+01
 20
-3.07966589E+02
  0
VERTEX
  8
0
 62
4
 10
-3.68284228E+01
 20
-3.08197184E+02
  0
VERTEX
  8
0
 62
4
 10
-3.70641774E+01
 20
-3.08448835E+02
  0
VERTEX
  8
0
 62
4
 10
-3.72766121E+01
 20
-3.08719627E+02
  0
VERTEX
  8
0
 62
4
 10
-3.74641101E+01
 20
-3.09007498E+02
  0
VERTEX
  8
0
 62
4
 10
-3.76252444E+01
 20
-3.09310259E+02
  0
VERTEX
  8
0
 62
4
 10
-3.77587887E+01
 20
-3.09625604E+02
  0
VERTEX
  8
0
 62
4
 10
-3.78637267E+01
 20
-3.09951134E+02
  0
VERTEX
  8
0
 62
4
 10
-3.79392597E+01
 20
-3.10284372E+02
  0
VERTEX
  8
0
 62
4
 10
-3.79848128E+01
 20
-3.10622780E+02
  0
VERTEX
  8
0
 62
4
 10
-3.80000394E+01
 20
-3.10963785E+02
  0
SEQEND
  8
0
  0
LINE
  8
0
 62
6
 10
-3.22851023E+01
 20
-3.12319576E+02
 11
-3.57149769E+01
 21
-3.08889706E+02
  0
LINE
  8
0
 62
6
 10
-3.57149745E+01
 20
-3.12319579E+02
 11
-3.22851048E+01
 21
-3.08889704E+02
  0
ARC
  8
0
 62
4
 10
-4.26957905E+02
 20
-2.83728072E+02
 40
7.00000000E+00
 50
7.09816396E+01
 51
9.39142840E+01
  0
ARC
  8
0
 62
4
 10
-4.07200463E+02
 20
-3.08253298E+02
 40
9.96112687E-01
 50
2.45301420E+01
 51
1.01862685E+02
  0
ARC
  8
0
 62
4
 10
-4.06200972E+02
 20
-3.12953616E+02
 40
9.98481423E-01
 50
2.82114125E+02
 51
3.58771982E+02
  0
CIRCLE
  8
0
 62
4
 10
-4.26957905E+02
 20
-2.83728072E+02
 40
3.75000000E+00
  0
ARC
  8
0
 62
4
 10
-4.12363769E+02
 20
-3.06695677E+02
 40
2.49901570E+00
 50
1.19774281E+01
 51
1.02022572E+02
  0
ARC
  8
0
 62
4
 10
-4.30949310E+02
 20
-3.10647181E+02
 40
2.50001831E+00
 50
1.02000420E+02
 51
1.91999580E+02
  0
ARC
  8
0
 62
4
 10
-4.17008772E+02
 20
-3.12773916E+02
 40
1.18077645E+01
 50
3.59024145E+02
 51
2.47266957E+01
  0
LINE
  8
0
 62
4
 10
-4.09222173E+02
 20
-3.07051258E+02
 11
-4.07558880E+02
 21
-3.14876438E+02
  0
LINE
  8
0
  6
CENTER
 62
6
 10
-4.39622779E+02
 20
-3.17602468E+02
 11
-4.02521641E+02
 21
-3.09716378E+02
  0
LINE
  8
0
 62
4
 10
-4.05991431E+02
 20
-3.13929863E+02
 11
-4.07683627E+02
 21
-3.14289550E+02
  0
LINE
  8
0
 62
4
 10
-4.09097426E+02
 20
-3.07638146E+02
 11
-4.07405231E+02
 21
-3.07278459E+02
  0
LINE
  8
0
 62
4
 10
-4.08047953E+02
 20
-3.14980394E+02
 11
-4.07558880E+02
 21
-3.14876438E+02
  0
LINE
  8
0
 62
4
 10
-4.09711247E+02
 20
-3.07155214E+02
 11
-4.09222173E+02
 21
-3.07051258E+02
  0
LINE
  8
0
 62
4
 10
-4.25662964E+02
 20
-2.77319786E+02
 11
-4.20870041E+02
 21
-2.76301019E+02
  0
LINE
  8
0
 62
4
 10
-4.28518016E+02
 20
-2.76393135E+02
 11
-4.21380387E+02
 21
-2.78709763E+02
  0
LINE
  8
0
 62
4
 10
-4.32534889E+02
 20
-2.88758503E+02
 11
-4.25397261E+02
 21
-2.91075131E+02
  0
LINE
  8
0
 62
4
 10
-4.21380387E+02
 20
-2.78709763E+02
 11
-4.19818971E+02
 21
-2.86055651E+02
  0
LINE
  8
0
 62
4
 10
-4.34096306E+02
 20
-2.81412615E+02
 11
-4.32534889E+02
 21
-2.88758503E+02
  0
LINE
  8
0
 62
4
 10
-4.34096306E+02
 20
-2.81412615E+02
 11
-4.28518016E+02
 21
-2.76393135E+02
  0
LINE
  8
0
 62
4
 10
-4.25397261E+02
 20
-2.91075131E+02
 11
-4.19818971E+02
 21
-2.86055651E+02
  0
LINE
  8
0
 62
4
 10
-4.18557120E+02
 20
-3.13635995E+02
 11
-4.18037341E+02
 21
-3.16081364E+02
  0
LINE
  8
0
 62
4
 10
-4.22469711E+02
 20
-3.14467641E+02
 11
-4.21949931E+02
 21
-3.16913010E+02
  0
LINE
  8
0
 62
4
 10
-4.21949931E+02
 20
-3.16913010E+02
 11
-4.18037341E+02
 21
-3.16081364E+02
  0
LINE
  8
0
 62
4
 10
-4.22469711E+02
 20
-3.14467641E+02
 11
-4.18557120E+02
 21
-3.13635995E+02
  0
LINE
  8
0
 62
4
 10
-4.14986927E+02
 20
-3.18500000E+02
 11
-4.07632130E+02
 21
-3.16936690E+02
  0
LINE
  8
0
 62
4
 10
-4.07320262E+02
 20
-3.18403911E+02
 11
-4.07364804E+02
 21
-3.18500000E+02
  0
LINE
  8
0
 62
4
 10
-4.33394701E+02
 20
-3.11166947E+02
 11
-4.31836012E+02
 21
-3.18500000E+02
  0
LINE
  8
0
 62
4
 10
-4.09919159E+02
 20
-3.06177066E+02
 11
-4.07320262E+02
 21
-3.18403911E+02
  0
LINE
  8
0
 62
4
 10
-4.07772326E+02
 20
-3.18500000E+02
 11
-4.07320262E+02
 21
-3.18403911E+02
  0
LINE
  8
0
 62
4
 10
-4.31469111E+02
 20
-3.08201798E+02
 11
-4.12884307E+02
 21
-3.04251476E+02
  0
LINE
  8
0
 62
4
 10
-4.32300758E+02
 20
-3.04289208E+02
 11
-4.31469111E+02
 21
-3.08201798E+02
  0
LINE
  8
0
 62
4
 10
-4.13715954E+02
 20
-3.00338886E+02
 11
-4.12884307E+02
 21
-3.04251476E+02
  0
LINE
  8
0
 62
4
 10
-4.30552374E+02
 20
-3.02895237E+02
 11
-4.15880160E+02
 21
-2.99776562E+02
  0
LINE
  8
0
 62
4
 10
-4.32300758E+02
 20
-3.04289208E+02
 11
-4.13715954E+02
 21
-3.00338886E+02
  0
LINE
  8
0
 62
4
 10
-4.35542255E+02
 20
-2.79419694E+02
 11
-4.30344463E+02
 21
-3.03873385E+02
  0
LINE
  8
0
 62
4
 10
-4.20870041E+02
 20
-2.76301019E+02
 11
-4.15672249E+02
 21
-3.00754709E+02
  0
LINE
  8
0
 62
4
 10
-4.35542255E+02
 20
-2.79419694E+02
 11
-4.30759113E+02
 21
-2.78403006E+02
  0
LINE
  8
0
 62
4
 10
-4.40139229E+02
 20
-3.13111710E+02
 11
-4.41888581E+02
 21
-3.18500000E+02
  0
LINE
  8
0
 62
4
 10
-4.40139229E+02
 20
-3.13111710E+02
 11
-4.33290745E+02
 21
-3.11656020E+02
  0
ARC
  8
0
 62
4
 10
-4.26957905E+02
 20
-2.83728072E+02
 40
7.00000000E+00
 50
1.10107658E+02
 51
1.33018360E+02
  0
ARC
  8
0
 62
4
 10
1.29958873E+02
 20
-2.83728127E+02
 40
7.00000000E+00
 50
4.69793705E+01
 51
1.09020630E+02
  0
LINE
  8
0
 62
4
 10
1.43139251E+02
 20
-3.13111710E+02
 11
1.36290768E+02
 21
-3.11656020E+02
  0
LINE
  8
0
 62
4
 10
1.35012592E+02
 20
-3.20074231E+02
 11
1.34523519E+02
 21
-3.19970275E+02
  0
LINE
  8
0
 62
4
 10
1.35397710E+02
 20
-3.20667260E+02
 11
1.34583043E+02
 21
-3.24499969E+02
  0
LINE
  8
0
 62
4
 10
1.48383773E+02
 20
-3.29265690E+02
 11
1.46454473E+02
 21
-3.38342333E+02
  0
LINE
  8
0
 62
4
 10
1.43139251E+02
 20
-3.13111710E+02
 11
1.48383773E+02
 21
-3.29265690E+02
  0
LINE
  8
0
  6
CENTER
 62
6
 10
1.50602040E+02
 20
-3.35134564E+02
 11
1.46500061E+02
 21
-3.34262661E+02
  0
LINE
  8
0
 62
6
 10
1.49084463E+02
 20
-3.36345504E+02
 11
1.46974252E+02
 21
-3.35896964E+02
  0
LINE
  8
0
 62
4
 10
1.48831927E+02
 20
-3.32723857E+02
 11
1.47699864E+02
 21
-3.32483229E+02
  0
LINE
  8
0
 62
4
 10
1.48002360E+02
 20
-3.36626666E+02
 11
1.46870296E+02
 21
-3.36386038E+02
  0
LINE
  8
0
 62
4
 10
1.49756018E+02
 20
-3.33186087E+02
 11
1.49034564E+02
 21
-3.36580259E+02
  0
LINE
  8
0
 62
4
 10
1.48831927E+02
 20
-3.32723857E+02
 11
1.49756018E+02
 21
-3.33186087E+02
  0
LINE
  8
0
 62
4
 10
1.48002360E+02
 20
-3.36626666E+02
 11
1.49034564E+02
 21
-3.36580259E+02
  0
LINE
  8
0
 62
6
 10
1.49708198E+02
 20
-3.33411061E+02
 11
1.47597987E+02
 21
-3.32962522E+02
  0
LINE
  8
0
 62
4
 10
1.23870064E+02
 20
-2.76301019E+02
 11
1.38542278E+02
 21
-2.79419694E+02
  0
LINE
  8
0
 62
4
 10
1.23870064E+02
 20
-2.76301019E+02
 11
1.18672272E+02
 21
-3.00754709E+02
  0
LINE
  8
0
 62
4
 10
1.38542278E+02
 20
-2.79419694E+02
 11
1.33344486E+02
 21
-3.03873385E+02
  0
LINE
  8
0
 62
4
 10
1.35300781E+02
 20
-3.04289208E+02
 11
1.16715976E+02
 21
-3.00338886E+02
  0
LINE
  8
0
 62
4
 10
1.33552397E+02
 20
-3.02895237E+02
 11
1.18880183E+02
 21
-2.99776562E+02
  0
LINE
  8
0
 62
4
 10
1.16715976E+02
 20
-3.00338886E+02
 11
1.15884330E+02
 21
-3.04251476E+02
  0
LINE
  8
0
 62
4
 10
1.35300781E+02
 20
-3.04289208E+02
 11
1.34469134E+02
 21
-3.08201798E+02
  0
LINE
  8
0
 62
4
 10
1.34469134E+02
 20
-3.08201798E+02
 11
1.15884330E+02
 21
-3.04251476E+02
  0
LINE
  8
0
 62
4
 10
1.33795828E+02
 20
-3.23393792E+02
 11
1.10320285E+02
 21
-3.18403911E+02
  0
LINE
  8
0
 62
4
 10
1.12919181E+02
 20
-3.06177066E+02
 11
1.10320285E+02
 21
-3.18403911E+02
  0
LINE
  8
0
 62
4
 10
1.36394724E+02
 20
-3.11166947E+02
 11
1.33795828E+02
 21
-3.23393792E+02
  0
LINE
  8
0
 62
4
 10
1.33795828E+02
 20
-3.23393792E+02
 11
1.32529136E+02
 21
-3.24499969E+02
  0
LINE
  8
0
 62
4
 10
1.10320285E+02
 20
-3.18403911E+02
 11
1.12423081E+02
 21
-3.22940236E+02
  0
LINE
  8
0
 62
4
 10
1.16824746E+02
 20
-3.23875839E+02
 11
1.12423081E+02
 21
-3.22940236E+02
  0
LINE
  8
0
 62
4
 10
1.34107695E+02
 20
-3.21926570E+02
 11
1.10632153E+02
 21
-3.16936690E+02
  0
LINE
  8
0
 62
4
 10
1.25469734E+02
 20
-3.14467641E+02
 11
1.21557143E+02
 21
-3.13635995E+02
  0
LINE
  8
0
 62
4
 10
1.24949954E+02
 20
-3.16913010E+02
 11
1.21037364E+02
 21
-3.16081364E+02
  0
LINE
  8
0
 62
4
 10
1.25469734E+02
 20
-3.14467641E+02
 11
1.24949954E+02
 21
-3.16913010E+02
  0
LINE
  8
0
 62
4
 10
1.21557143E+02
 20
-3.13635995E+02
 11
1.21037364E+02
 21
-3.16081364E+02
  0
LINE
  8
0
 62
4
 10
1.32363879E+02
 20
-2.77154243E+02
 11
1.31518038E+02
 21
-2.76393135E+02
  0
LINE
  8
0
 62
4
 10
1.31518038E+02
 20
-2.76393135E+02
 11
1.30435800E+02
 21
-2.76744393E+02
  0
LINE
  8
0
 62
4
 10
1.12711270E+02
 20
-3.07155214E+02
 11
1.12222196E+02
 21
-3.07051258E+02
  0
LINE
  8
0
 62
4
 10
1.11047976E+02
 20
-3.14980394E+02
 11
1.10558902E+02
 21
-3.14876438E+02
  0
LINE
  8
0
 62
4
 10
1.12097449E+02
 20
-3.07638146E+02
 11
1.10405254E+02
 21
-3.07278459E+02
  0
LINE
  8
0
 62
4
 10
1.08991454E+02
 20
-3.13929863E+02
 11
1.10683649E+02
 21
-3.14289550E+02
  0
LINE
  8
0
  6
CENTER
 62
6
 10
1.42622802E+02
 20
-3.17602468E+02
 11
1.05521664E+02
 21
-3.09716378E+02
  0
LINE
  8
0
 62
4
 10
1.12222196E+02
 20
-3.07051258E+02
 11
1.10558902E+02
 21
-3.14876438E+02
  0
ARC
  8
0
 62
4
 10
1.34908636E+02
 20
-3.20563305E+02
 40
5.00000533E-01
 50
3.48000061E+02
 51
7.79999389E+01
  0
ARC
  8
0
 62
4
 10
1.20008795E+02
 20
-3.12773916E+02
 40
1.18077645E+01
 50
1.55273304E+02
 51
1.80975855E+02
  0
ARC
  8
0
 62
4
 10
1.33949333E+02
 20
-3.10647181E+02
 40
2.50001831E+00
 50
3.48000420E+02
 51
7.79995802E+01
  0
ARC
  8
0
 62
4
 10
1.15363792E+02
 20
-3.06695677E+02
 40
2.49901570E+00
 50
7.79774280E+01
 51
1.68022572E+02
  0
ARC
  8
0
 62
4
 10
1.19225464E+02
 20
-3.34225151E+02
 40
1.06241099E+01
 50
6.62608748E+01
 51
1.03059860E+02
  0
ARC
  8
0
 62
4
 10
1.09200995E+02
 20
-3.12953616E+02
 40
9.98481423E-01
 50
1.81228019E+02
 51
2.57885875E+02
  0
ARC
  8
0
 62
4
 10
1.10200486E+02
 20
-3.08253298E+02
 40
9.96112687E-01
 50
7.81373153E+01
 51
1.55469858E+02
  0
LINE
  8
0
 62
4
 10
1.28456027E+02
 20
-3.05901332E+02
 11
1.28600249E+02
 21
-3.06954328E+02
  0
LINE
  8
0
 62
4
 10
1.21753216E+02
 20
-3.05498946E+02
 11
1.22313260E+02
 21
-3.04595647E+02
  0
LINE
  8
0
  6
CENTER
 62
6
 10
1.25735445E+02
 20
-3.03598103E+02
 11
1.24866944E+02
 21
-3.07684077E+02
  0
LINE
  8
0
 62
4
 10
1.22313260E+02
 20
-3.04595647E+02
 11
1.28456027E+02
 21
-3.05901332E+02
  0
ARC
  8
0
 62
4
 10
-8.49947946E+00
 20
-1.76061539E+02
 40
1.49950029E+00
 50
2.69980903E+02
 51
1.90971113E-02
  0
ARC
  8
0
 62
4
 10
-4.45004829E+01
 20
-1.76061543E+02
 40
1.49949647E+00
 50
1.79980757E+02
 51
2.70019243E+02
  0
LINE
  8
0
 62
4
 10
-4.34999793E+01
 20
-1.75115670E+02
 11
-2.44999793E+01
 21
-1.75115670E+02
  0
POLYLINE
  8
0
 62
4
 66
1
  0
VERTEX
  8
0
 62
4
 10
-1.48599793E+01
 20
-1.65615356E+02
  0
VERTEX
  8
0
 62
4
 10
-1.48719279E+01
 20
-1.65347667E+02
  0
VERTEX
  8
0
 62
4
 10
-1.49076830E+01
 20
-1.65082016E+02
  0
VERTEX
  8
0
 62
4
 10
-1.49669722E+01
 20
-1.64820423E+02
  0
VERTEX
  8
0
 62
4
 10
-1.50493445E+01
 20
-1.64564881E+02
  0
VERTEX
  8
0
 62
4
 10
-1.51541728E+01
 20
-1.64317333E+02
  0
VERTEX
  8
0
 62
4
 10
-1.52806595E+01
 20
-1.64079664E+02
  0
VERTEX
  8
0
 62
4
 10
-1.54278419E+01
 20
-1.63853683E+02
  0
VERTEX
  8
0
 62
4
 10
-1.55945997E+01
 20
-1.63641109E+02
  0
VERTEX
  8
0
 62
4
 10
-1.57796640E+01
 20
-1.63443560E+02
  0
VERTEX
  8
0
 62
4
 10
-1.59816262E+01
 20
-1.63262540E+02
  0
VERTEX
  8
0
 62
4
 10
-1.61989493E+01
 20
-1.63099426E+02
  0
VERTEX
  8
0
 62
4
 10
-1.64299793E+01
 20
-1.62955460E+02
  0
VERTEX
  8
0
 62
4
 10
-1.66729580E+01
 20
-1.62831737E+02
  0
VERTEX
  8
0
 62
4
 10
-1.69260361E+01
 20
-1.62729200E+02
  0
VERTEX
  8
0
 62
4
 10
-1.71872875E+01
 20
-1.62648627E+02
  0
VERTEX
  8
0
 62
4
 10
-1.74547240E+01
 20
-1.62590634E+02
  0
VERTEX
  8
0
 62
4
 10
-1.77263103E+01
 20
-1.62555660E+02
  0
VERTEX
  8
0
 62
4
 10
-1.79999793E+01
 20
-1.62543973E+02
  0
VERTEX
  8
0
 62
4
 10
-1.82736483E+01
 20
-1.62555660E+02
  0
VERTEX
  8
0
 62
4
 10
-1.85452346E+01
 20
-1.62590634E+02
  0
VERTEX
  8
0
 62
4
 10
-1.88126711E+01
 20
-1.62648627E+02
  0
VERTEX
  8
0
 62
4
 10
-1.90739226E+01
 20
-1.62729200E+02
  0
VERTEX
  8
0
 62
4
 10
-1.93270006E+01
 20
-1.62831737E+02
  0
VERTEX
  8
0
 62
4
 10
-1.95699793E+01
 20
-1.62955460E+02
  0
VERTEX
  8
0
 62
4
 10
-1.98010093E+01
 20
-1.63099426E+02
  0
VERTEX
  8
0
 62
4
 10
-2.00183324E+01
 20
-1.63262540E+02
  0
VERTEX
  8
0
 62
4
 10
-2.02202946E+01
 20
-1.63443560E+02
  0
VERTEX
  8
0
 62
4
 10
-2.04053589E+01
 20
-1.63641109E+02
  0
VERTEX
  8
0
 62
4
 10
-2.05721167E+01
 20
-1.63853683E+02
  0
VERTEX
  8
0
 62
4
 10
-2.07192991E+01
 20
-1.64079664E+02
  0
VERTEX
  8
0
 62
4
 10
-2.08457858E+01
 20
-1.64317333E+02
  0
VERTEX
  8
0
 62
4
 10
-2.09506141E+01
 20
-1.64564881E+02
  0
VERTEX
  8
0
 62
4
 10
-2.10329864E+01
 20
-1.64820423E+02
  0
VERTEX
  8
0
 62
4
 10
-2.10922756E+01
 20
-1.65082016E+02
  0
VERTEX
  8
0
 62
4
 10
-2.11280307E+01
 20
-1.65347667E+02
  0
VERTEX
  8
0
 62
4
 10
-2.11399793E+01
 20
-1.65615356E+02
  0
VERTEX
  8
0
 62
4
 10
-2.11280307E+01
 20
-1.65883045E+02
  0
VERTEX
  8
0
 62
4
 10
-2.10922756E+01
 20
-1.66148696E+02
  0
VERTEX
  8
0
 62
4
 10
-2.10329864E+01
 20
-1.66410289E+02
  0
VERTEX
  8
0
 62
4
 10
-2.09506141E+01
 20
-1.66665831E+02
  0
VERTEX
  8
0
 62
4
 10
-2.08457857E+01
 20
-1.66913379E+02
  0
VERTEX
  8
0
 62
4
 10
-2.07192991E+01
 20
-1.67151048E+02
  0
VERTEX
  8
0
 62
4
 10
-2.05721167E+01
 20
-1.67377029E+02
  0
VERTEX
  8
0
 62
4
 10
-2.04053588E+01
 20
-1.67589603E+02
  0
VERTEX
  8
0
 62
4
 10
-2.02202946E+01
 20
-1.67787152E+02
  0
VERTEX
  8
0
 62
4
 10
-2.00183324E+01
 20
-1.67968172E+02
  0
VERTEX
  8
0
 62
4
 10
-1.98010093E+01
 20
-1.68131286E+02
  0
VERTEX
  8
0
 62
4
 10
-1.95699793E+01
 20
-1.68275252E+02
  0
VERTEX
  8
0
 62
4
 10
-1.93270006E+01
 20
-1.68398975E+02
  0
VERTEX
  8
0
 62
4
 10
-1.90739225E+01
 20
-1.68501512E+02
  0
VERTEX
  8
0
 62
4
 10
-1.88126711E+01
 20
-1.68582085E+02
  0
VERTEX
  8
0
 62
4
 10
-1.85452346E+01
 20
-1.68640078E+02
  0
VERTEX
  8
0
 62
4
 10
-1.82736483E+01
 20
-1.68675052E+02
  0
VERTEX
  8
0
 62
4
 10
-1.79999793E+01
 20
-1.68686739E+02
  0
VERTEX
  8
0
 62
4
 10
-1.77263103E+01
 20
-1.68675052E+02
  0
VERTEX
  8
0
 62
4
 10
-1.74547240E+01
 20
-1.68640078E+02
  0
VERTEX
  8
0
 62
4
 10
-1.71872875E+01
 20
-1.68582085E+02
  0
VERTEX
  8
0
 62
4
 10
-1.69260360E+01
 20
-1.68501512E+02
  0
VERTEX
  8
0
 62
4
 10
-1.66729580E+01
 20
-1.68398975E+02
  0
VERTEX
  8
0
 62
4
 10
-1.64299793E+01
 20
-1.68275252E+02
  0
VERTEX
  8
0
 62
4
 10
-1.61989493E+01
 20
-1.68131286E+02
  0
VERTEX
  8
0
 62
4
 10
-1.59816262E+01
 20
-1.67968172E+02
  0
VERTEX
  8
0
 62
4
 10
-1.57796640E+01
 20
-1.67787152E+02
  0
VERTEX
  8
0
 62
4
 10
-1.55945997E+01
 20
-1.67589603E+02
  0
VERTEX
  8
0
 62
4
 10
-1.54278419E+01
 20
-1.67377029E+02
  0
VERTEX
  8
0
 62
4
 10
-1.52806595E+01
 20
-1.67151048E+02
  0
VERTEX
  8
0
 62
4
 10
-1.51541728E+01
 20
-1.66913379E+02
  0
VERTEX
  8
0
 62
4
 10
-1.50493445E+01
 20
-1.66665831E+02
  0
VERTEX
  8
0
 62
4
 10
-1.49669722E+01
 20
-1.66410289E+02
  0
VERTEX
  8
0
 62
4
 10
-1.49076830E+01
 20
-1.66148696E+02
  0
VERTEX
  8
0
 62
4
 10
-1.48719279E+01
 20
-1.65883045E+02
  0
VERTEX
  8
0
 62
4
 10
-1.48599793E+01
 20
-1.65615356E+02
  0
SEQEND
  8
0
  0
POLYLINE
  8
0
 62
4
 66
1
  0
VERTEX
  8
0
 62
4
 10
-1.44999793E+01
 20
-1.65823268E+02
  0
VERTEX
  8
0
 62
4
 10
-1.45132979E+01
 20
-1.65524889E+02
  0
VERTEX
  8
0
 62
4
 10
-1.45531522E+01
 20
-1.65228781E+02
  0
VERTEX
  8
0
 62
4
 10
-1.46192389E+01
 20
-1.64937197E+02
  0
VERTEX
  8
0
 62
4
 10
-1.47110551E+01
 20
-1.64652356E+02
  0
VERTEX
  8
0
 62
4
 10
-1.48279020E+01
 20
-1.64376427E+02
  0
VERTEX
  8
0
 62
4
 10
-1.49688904E+01
 20
-1.64111510E+02
  0
VERTEX
  8
0
 62
4
 10
-1.51329471E+01
 20
-1.63859620E+02
  0
VERTEX
  8
0
 62
4
 10
-1.53188237E+01
 20
-1.63622674E+02
  0
VERTEX
  8
0
 62
4
 10
-1.55251056E+01
 20
-1.63402476E+02
  0
VERTEX
  8
0
 62
4
 10
-1.57502227E+01
 20
-1.63200702E+02
  0
VERTEX
  8
0
 62
4
 10
-1.59924618E+01
 20
-1.63018887E+02
  0
VERTEX
  8
0
 62
4
 10
-1.62499793E+01
 20
-1.62858416E+02
  0
VERTEX
  8
0
 62
4
 10
-1.65208154E+01
 20
-1.62720508E+02
  0
VERTEX
  8
0
 62
4
 10
-1.68029088E+01
 20
-1.62606215E+02
  0
VERTEX
  8
0
 62
4
 10
-1.70941126E+01
 20
-1.62516405E+02
  0
VERTEX
  8
0
 62
4
 10
-1.73922107E+01
 20
-1.62451762E+02
  0
VERTEX
  8
0
 62
4
 10
-1.76949342E+01
 20
-1.62412779E+02
  0
VERTEX
  8
0
 62
4
 10
-1.79999793E+01
 20
-1.62399751E+02
  0
VERTEX
  8
0
 62
4
 10
-1.83050244E+01
 20
-1.62412779E+02
  0
VERTEX
  8
0
 62
4
 10
-1.86077479E+01
 20
-1.62451762E+02
  0
VERTEX
  8
0
 62
4
 10
-1.89058460E+01
 20
-1.62516405E+02
  0
VERTEX
  8
0
 62
4
 10
-1.91970498E+01
 20
-1.62606215E+02
  0
VERTEX
  8
0
 62
4
 10
-1.94791432E+01
 20
-1.62720508E+02
  0
VERTEX
  8
0
 62
4
 10
-1.97499793E+01
 20
-1.62858416E+02
  0
VERTEX
  8
0
 62
4
 10
-2.00074968E+01
 20
-1.63018887E+02
  0
VERTEX
  8
0
 62
4
 10
-2.02497359E+01
 20
-1.63200702E+02
  0
VERTEX
  8
0
 62
4
 10
-2.04748530E+01
 20
-1.63402476E+02
  0
VERTEX
  8
0
 62
4
 10
-2.06811349E+01
 20
-1.63622674E+02
  0
VERTEX
  8
0
 62
4
 10
-2.08670115E+01
 20
-1.63859620E+02
  0
VERTEX
  8
0
 62
4
 10
-2.10310682E+01
 20
-1.64111510E+02
  0
VERTEX
  8
0
 62
4
 10
-2.11720566E+01
 20
-1.64376427E+02
  0
VERTEX
  8
0
 62
4
 10
-2.12889035E+01
 20
-1.64652356E+02
  0
VERTEX
  8
0
 62
4
 10
-2.13807197E+01
 20
-1.64937197E+02
  0
VERTEX
  8
0
 62
4
 10
-2.14468064E+01
 20
-1.65228781E+02
  0
VERTEX
  8
0
 62
4
 10
-2.14866607E+01
 20
-1.65524889E+02
  0
VERTEX
  8
0
 62
4
 10
-2.14999793E+01
 20
-1.65823268E+02
  0
VERTEX
  8
0
 62
4
 10
-2.14866607E+01
 20
-1.66121647E+02
  0
VERTEX
  8
0
 62
4
 10
-2.14468064E+01
 20
-1.66417755E+02
  0
VERTEX
  8
0
 62
4
 10
-2.13807197E+01
 20
-1.66709339E+02
  0
VERTEX
  8
0
 62
4
 10
-2.12889035E+01
 20
-1.66994180E+02
  0
VERTEX
  8
0
 62
4
 10
-2.11720566E+01
 20
-1.67270109E+02
  0
VERTEX
  8
0
 62
4
 10
-2.10310682E+01
 20
-1.67535026E+02
  0
VERTEX
  8
0
 62
4
 10
-2.08670115E+01
 20
-1.67786916E+02
  0
VERTEX
  8
0
 62
4
 10
-2.06811348E+01
 20
-1.68023862E+02
  0
VERTEX
  8
0
 62
4
 10
-2.04748530E+01
 20
-1.68244060E+02
  0
VERTEX
  8
0
 62
4
 10
-2.02497359E+01
 20
-1.68445834E+02
  0
VERTEX
  8
0
 62
4
 10
-2.00074968E+01
 20
-1.68627649E+02
  0
VERTEX
  8
0
 62
4
 10
-1.97499793E+01
 20
-1.68788120E+02
  0
VERTEX
  8
0
 62
4
 10
-1.94791432E+01
 20
-1.68926028E+02
  0
VERTEX
  8
0
 62
4
 10
-1.91970498E+01
 20
-1.69040321E+02
  0
VERTEX
  8
0
 62
4
 10
-1.89058460E+01
 20
-1.69130131E+02
  0
VERTEX
  8
0
 62
4
 10
-1.86077479E+01
 20
-1.69194774E+02
  0
VERTEX
  8
0
 62
4
 10
-1.83050244E+01
 20
-1.69233757E+02
  0
VERTEX
  8
0
 62
4
 10
-1.79999793E+01
 20
-1.69246785E+02
  0
VERTEX
  8
0
 62
4
 10
-1.76949342E+01
 20
-1.69233757E+02
  0
VERTEX
  8
0
 62
4
 10
-1.73922107E+01
 20
-1.69194774E+02
  0
VERTEX
  8
0
 62
4
 10
-1.70941126E+01
 20
-1.69130131E+02
  0
VERTEX
  8
0
 62
4
 10
-1.68029088E+01
 20
-1.69040321E+02
  0
VERTEX
  8
0
 62
4
 10
-1.65208154E+01
 20
-1.68926028E+02
  0
VERTEX
  8
0
 62
4
 10
-1.62499793E+01
 20
-1.68788120E+02
  0
VERTEX
  8
0
 62
4
 10
-1.59924618E+01
 20
-1.68627649E+02
  0
VERTEX
  8
0
 62
4
 10
-1.57502227E+01
 20
-1.68445834E+02
  0
VERTEX
  8
0
 62
4
 10
-1.55251056E+01
 20
-1.68244060E+02
  0
VERTEX
  8
0
 62
4
 10
-1.53188237E+01
 20
-1.68023862E+02
  0
VERTEX
  8
0
 62
4
 10
-1.51329471E+01
 20
-1.67786916E+02
  0
VERTEX
  8
0
 62
4
 10
-1.49688904E+01
 20
-1.67535026E+02
  0
VERTEX
  8
0
 62
4
 10
-1.48279020E+01
 20
-1.67270109E+02
  0
VERTEX
  8
0
 62
4
 10
-1.47110551E+01
 20
-1.66994180E+02
  0
VERTEX
  8
0
 62
4
 10
-1.46192389E+01
 20
-1.66709339E+02
  0
VERTEX
  8
0
 62
4
 10
-1.45531522E+01
 20
-1.66417755E+02
  0
VERTEX
  8
0
 62
4
 10
-1.45132979E+01
 20
-1.66121647E+02
  0
VERTEX
  8
0
 62
4
 10
-1.44999793E+01
 20
-1.65823268E+02
  0
SEQEND
  8
0
  0
ARC
  8
0
 62
4
 10
-2.97643843E+01
 20
-1.71128770E+02
 40
1.21769740E+01
 50
2.40462101E+02
 51
2.53021762E+02
  0
ARC
  8
0
 62
4
 10
-3.82355742E+01
 20
-1.71128770E+02
 40
1.21769740E+01
 50
2.86978238E+02
 51
2.99537899E+02
  0
POLYLINE
  8
0
 62
4
 66
1
  0
VERTEX
  8
0
 62
4
 10
-3.05999793E+01
 20
-1.81696002E+02
  0
VERTEX
  8
0
 62
4
 10
-3.06129173E+01
 20
-1.81600021E+02
  0
VERTEX
  8
0
 62
4
 10
-3.06516329E+01
 20
-1.81504771E+02
  0
VERTEX
  8
0
 62
4
 10
-3.07158315E+01
 20
-1.81410976E+02
  0
VERTEX
  8
0
 62
4
 10
-3.08050244E+01
 20
-1.81319350E+02
  0
VERTEX
  8
0
 62
4
 10
-3.09185328E+01
 20
-1.81230591E+02
  0
VERTEX
  8
0
 62
4
 10
-3.10554929E+01
 20
-1.81145374E+02
  0
VERTEX
  8
0
 62
4
 10
-3.12148623E+01
 20
-1.81064348E+02
  0
VERTEX
  8
0
 62
4
 10
-3.13954282E+01
 20
-1.80988129E+02
  0
VERTEX
  8
0
 62
4
 10
-3.15958162E+01
 20
-1.80917297E+02
  0
VERTEX
  8
0
 62
4
 10
-3.18145014E+01
 20
-1.80852391E+02
  0
VERTEX
  8
0
 62
4
 10
-3.20498194E+01
 20
-1.80793906E+02
  0
VERTEX
  8
0
 62
4
 10
-3.22999793E+01
 20
-1.80742287E+02
  0
VERTEX
  8
0
 62
4
 10
-3.25630772E+01
 20
-1.80697926E+02
  0
VERTEX
  8
0
 62
4
 10
-3.28371108E+01
 20
-1.80661160E+02
  0
VERTEX
  8
0
 62
4
 10
-3.31199945E+01
 20
-1.80632271E+02
  0
VERTEX
  8
0
 62
4
 10
-3.34095755E+01
 20
-1.80611477E+02
  0
VERTEX
  8
0
 62
4
 10
-3.37036498E+01
 20
-1.80598937E+02
  0
VERTEX
  8
0
 62
4
 10
-3.39999793E+01
 20
-1.80594747E+02
  0
VERTEX
  8
0
 62
4
 10
-3.42963088E+01
 20
-1.80598937E+02
  0
VERTEX
  8
0
 62
4
 10
-3.45903831E+01
 20
-1.80611477E+02
  0
VERTEX
  8
0
 62
4
 10
-3.48799641E+01
 20
-1.80632271E+02
  0
VERTEX
  8
0
 62
4
 10
-3.51628478E+01
 20
-1.80661160E+02
  0
VERTEX
  8
0
 62
4
 10
-3.54368814E+01
 20
-1.80697926E+02
  0
VERTEX
  8
0
 62
4
 10
-3.56999793E+01
 20
-1.80742287E+02
  0
VERTEX
  8
0
 62
4
 10
-3.59501392E+01
 20
-1.80793906E+02
  0
VERTEX
  8
0
 62
4
 10
-3.61854572E+01
 20
-1.80852391E+02
  0
VERTEX
  8
0
 62
4
 10
-3.64041424E+01
 20
-1.80917297E+02
  0
VERTEX
  8
0
 62
4
 10
-3.66045304E+01
 20
-1.80988129E+02
  0
VERTEX
  8
0
 62
4
 10
-3.67850963E+01
 20
-1.81064348E+02
  0
VERTEX
  8
0
 62
4
 10
-3.69444657E+01
 20
-1.81145374E+02
  0
VERTEX
  8
0
 62
4
 10
-3.70814258E+01
 20
-1.81230591E+02
  0
VERTEX
  8
0
 62
4
 10
-3.71949342E+01
 20
-1.81319350E+02
  0
VERTEX
  8
0
 62
4
 10
-3.72841271E+01
 20
-1.81410976E+02
  0
VERTEX
  8
0
 62
4
 10
-3.73483257E+01
 20
-1.81504771E+02
  0
VERTEX
  8
0
 62
4
 10
-3.73870413E+01
 20
-1.81600021E+02
  0
VERTEX
  8
0
 62
4
 10
-3.73999793E+01
 20
-1.81696002E+02
  0
VERTEX
  8
0
 62
4
 10
-3.73870413E+01
 20
-1.81791983E+02
  0
VERTEX
  8
0
 62
4
 10
-3.73483257E+01
 20
-1.81887233E+02
  0
VERTEX
  8
0
 62
4
 10
-3.72841271E+01
 20
-1.81981028E+02
  0
VERTEX
  8
0
 62
4
 10
-3.71949342E+01
 20
-1.82072654E+02
  0
VERTEX
  8
0
 62
4
 10
-3.70814258E+01
 20
-1.82161413E+02
  0
VERTEX
  8
0
 62
4
 10
-3.69444657E+01
 20
-1.82246630E+02
  0
VERTEX
  8
0
 62
4
 10
-3.67850962E+01
 20
-1.82327656E+02
  0
VERTEX
  8
0
 62
4
 10
-3.66045304E+01
 20
-1.82403875E+02
  0
VERTEX
  8
0
 62
4
 10
-3.64041424E+01
 20
-1.82474707E+02
  0
VERTEX
  8
0
 62
4
 10
-3.61854572E+01
 20
-1.82539613E+02
  0
VERTEX
  8
0
 62
4
 10
-3.59501392E+01
 20
-1.82598098E+02
  0
VERTEX
  8
0
 62
4
 10
-3.56999793E+01
 20
-1.82649717E+02
  0
VERTEX
  8
0
 62
4
 10
-3.54368814E+01
 20
-1.82694078E+02
  0
VERTEX
  8
0
 62
4
 10
-3.51628478E+01
 20
-1.82730844E+02
  0
VERTEX
  8
0
 62
4
 10
-3.48799640E+01
 20
-1.82759733E+02
  0
VERTEX
  8
0
 62
4
 10
-3.45903831E+01
 20
-1.82780527E+02
  0
VERTEX
  8
0
 62
4
 10
-3.42963088E+01
 20
-1.82793067E+02
  0
VERTEX
  8
0
 62
4
 10
-3.39999793E+01
 20
-1.82797257E+02
  0
VERTEX
  8
0
 62
4
 10
-3.37036498E+01
 20
-1.82793067E+02
  0
VERTEX
  8
0
 62
4
 10
-3.34095755E+01
 20
-1.82780527E+02
  0
VERTEX
  8
0
 62
4
 10
-3.31199945E+01
 20
-1.82759733E+02
  0
VERTEX
  8
0
 62
4
 10
-3.28371108E+01
 20
-1.82730844E+02
  0
VERTEX
  8
0
 62
4
 10
-3.25630772E+01
 20
-1.82694078E+02
  0
VERTEX
  8
0
 62
4
 10
-3.22999793E+01
 20
-1.82649717E+02
  0
VERTEX
  8
0
 62
4
 10
-3.20498194E+01
 20
-1.82598098E+02
  0
VERTEX
  8
0
 62
4
 10
-3.18145014E+01
 20
-1.82539613E+02
  0
VERTEX
  8
0
 62
4
 10
-3.15958162E+01
 20
-1.82474707E+02
  0
VERTEX
  8
0
 62
4
 10
-3.13954282E+01
 20
-1.82403875E+02
  0
VERTEX
  8
0
 62
4
 10
-3.12148623E+01
 20
-1.82327656E+02
  0
VERTEX
  8
0
 62
4
 10
-3.10554929E+01
 20
-1.82246630E+02
  0
VERTEX
  8
0
 62
4
 10
-3.09185328E+01
 20
-1.82161413E+02
  0
VERTEX
  8
0
 62
4
 10
-3.08050244E+01
 20
-1.82072654E+02
  0
VERTEX
  8
0
 62
4
 10
-3.07158315E+01
 20
-1.81981028E+02
  0
VERTEX
  8
0
 62
4
 10
-3.06516329E+01
 20
-1.81887233E+02
  0
VERTEX
  8
0
 62
4
 10
-3.06129173E+01
 20
-1.81791983E+02
  0
VERTEX
  8
0
 62
4
 10
-3.05999793E+01
 20
-1.81696002E+02
  0
SEQEND
  8
0
  0
POLYLINE
  8
0
 62
4
 66
1
  0
VERTEX
  8
0
 62
4
 10
-2.99999793E+01
 20
-1.79120377E+02
  0
VERTEX
  8
0
 62
4
 10
-3.00160821E+01
 20
-1.79045829E+02
  0
VERTEX
  8
0
 62
4
 10
-3.00642609E+01
 20
-1.78971881E+02
  0
VERTEX
  8
0
 62
4
 10
-3.01441279E+01
 20
-1.78899128E+02
  0
VERTEX
  8
0
 62
4
 10
-3.02550398E+01
 20
-1.78828157E+02
  0
VERTEX
  8
0
 62
4
 10
-3.03961038E+01
 20
-1.78759539E+02
  0
VERTEX
  8
0
 62
4
 10
-3.05661841E+01
 20
-1.78693826E+02
  0
VERTEX
  8
0
 62
4
 10
-3.07639113E+01
 20
-1.78631547E+02
  0
VERTEX
  8
0
 62
4
 10
-3.09876934E+01
 20
-1.78573204E+02
  0
VERTEX
  8
0
 62
4
 10
-3.12357287E+01
 20
-1.78519267E+02
  0
VERTEX
  8
0
 62
4
 10
-3.15060201E+01
 20
-1.78470169E+02
  0
VERTEX
  8
0
 62
4
 10
-3.17963914E+01
 20
-1.78426307E+02
  0
VERTEX
  8
0
 62
4
 10
-3.21045046E+01
 20
-1.78388033E+02
  0
VERTEX
  8
0
 62
4
 10
-3.24278792E+01
 20
-1.78355655E+02
  0
VERTEX
  8
0
 62
4
 10
-3.27639113E+01
 20
-1.78329434E+02
  0
VERTEX
  8
0
 62
4
 10
-3.31098956E+01
 20
-1.78309581E+02
  0
VERTEX
  8
0
 62
4
 10
-3.34630462E+01
 20
-1.78296257E+02
  0
VERTEX
  8
0
 62
4
 10
-3.38205200E+01
 20
-1.78289568E+02
  0
VERTEX
  8
0
 62
4
 10
-3.41794386E+01
 20
-1.78289568E+02
  0
VERTEX
  8
0
 62
4
 10
-3.45369124E+01
 20
-1.78296257E+02
  0
VERTEX
  8
0
 62
4
 10
-3.48900630E+01
 20
-1.78309581E+02
  0
VERTEX
  8
0
 62
4
 10
-3.52360473E+01
 20
-1.78329434E+02
  0
VERTEX
  8
0
 62
4
 10
-3.55720794E+01
 20
-1.78355655E+02
  0
VERTEX
  8
0
 62
4
 10
-3.58954539E+01
 20
-1.78388033E+02
  0
VERTEX
  8
0
 62
4
 10
-3.62035672E+01
 20
-1.78426307E+02
  0
VERTEX
  8
0
 62
4
 10
-3.64939385E+01
 20
-1.78470169E+02
  0
VERTEX
  8
0
 62
4
 10
-3.67642299E+01
 20
-1.78519267E+02
  0
VERTEX
  8
0
 62
4
 10
-3.70122652E+01
 20
-1.78573204E+02
  0
VERTEX
  8
0
 62
4
 10
-3.72360473E+01
 20
-1.78631547E+02
  0
VERTEX
  8
0
 62
4
 10
-3.74337745E+01
 20
-1.78693826E+02
  0
VERTEX
  8
0
 62
4
 10
-3.76038548E+01
 20
-1.78759539E+02
  0
VERTEX
  8
0
 62
4
 10
-3.77449188E+01
 20
-1.78828157E+02
  0
VERTEX
  8
0
 62
4
 10
-3.78558307E+01
 20
-1.78899128E+02
  0
VERTEX
  8
0
 62
4
 10
-3.79356977E+01
 20
-1.78971881E+02
  0
VERTEX
  8
0
 62
4
 10
-3.79838765E+01
 20
-1.79045829E+02
  0
VERTEX
  8
0
 62
4
 10
-3.79999793E+01
 20
-1.79120377E+02
  0
SEQEND
  8
0
  0
LINE
  8
0
 62
4
 10
-3.05999793E+01
 20
-1.80679715E+02
 11
-8.49997925E+00
 21
-1.80679715E+02
  0
ARC
  8
0
 62
4
 10
-4.45004829E+01
 20
-1.79180218E+02
 40
1.49949647E+00
 50
1.79980757E+02
 51
2.70019243E+02
  0
ARC
  8
0
 62
4
 10
-8.49947946E+00
 20
-1.79180214E+02
 40
1.49950029E+00
 50
2.69980903E+02
 51
1.90971113E-02
  0
LINE
  8
0
 62
4
 10
-4.44999793E+01
 20
-1.80679715E+02
 11
-3.73999793E+01
 21
-1.80679715E+02
  0
POLYLINE
  8
0
 62
4
 66
1
  0
VERTEX
  8
0
 62
4
 10
-3.05999793E+01
 20
-1.79609443E+02
  0
VERTEX
  8
0
 62
4
 10
-3.06136702E+01
 20
-1.79546077E+02
  0
VERTEX
  8
0
 62
4
 10
-3.06546256E+01
 20
-1.79483221E+02
  0
VERTEX
  8
0
 62
4
 10
-3.07225155E+01
 20
-1.79421382E+02
  0
VERTEX
  8
0
 62
4
 10
-3.08167934E+01
 20
-1.79361057E+02
  0
VERTEX
  8
0
 62
4
 10
-3.09367003E+01
 20
-1.79302732E+02
  0
VERTEX
  8
0
 62
4
 10
-3.10812707E+01
 20
-1.79246877E+02
  0
VERTEX
  8
0
 62
4
 10
-3.12493407E+01
 20
-1.79193940E+02
  0
VERTEX
  8
0
 62
4
 10
-3.14395570E+01
 20
-1.79144349E+02
  0
VERTEX
  8
0
 62
4
 10
-3.16503882E+01
 20
-1.79098503E+02
  0
VERTEX
  8
0
 62
4
 10
-3.18801367E+01
 20
-1.79056771E+02
  0
VERTEX
  8
0
 62
4
 10
-3.21269529E+01
 20
-1.79019488E+02
  0
VERTEX
  8
0
 62
4
 10
-3.23888494E+01
 20
-1.78986956E+02
  0
VERTEX
  8
0
 62
4
 10
-3.26637177E+01
 20
-1.78959435E+02
  0
VERTEX
  8
0
 62
4
 10
-3.29493448E+01
 20
-1.78937148E+02
  0
VERTEX
  8
0
 62
4
 10
-3.32434308E+01
 20
-1.78920274E+02
  0
VERTEX
  8
0
 62
4
 10
-3.35436081E+01
 20
-1.78908948E+02
  0
VERTEX
  8
0
 62
4
 10
-3.38474598E+01
 20
-1.78903263E+02
  0
VERTEX
  8
0
 62
4
 10
-3.41525395E+01
 20
-1.78903263E+02
  0
VERTEX
  8
0
 62
4
 10
-3.44563909E+01
 20
-1.78908949E+02
  0
VERTEX
  8
0
 62
4
 10
-3.47565675E+01
 20
-1.78920276E+02
  0
VERTEX
  8
0
 62
4
 10
-3.50506526E+01
 20
-1.78937150E+02
  0
VERTEX
  8
0
 62
4
 10
-3.53362783E+01
 20
-1.78959438E+02
  0
VERTEX
  8
0
 62
4
 10
-3.56111451E+01
 20
-1.78986960E+02
  0
VERTEX
  8
0
 62
4
 10
-3.58730397E+01
 20
-1.79019493E+02
  0
VERTEX
  8
0
 62
4
 10
-3.61198537E+01
 20
-1.79056776E+02
  0
VERTEX
  8
0
 62
4
 10
-3.63495999E+01
 20
-1.79098509E+02
  0
VERTEX
  8
0
 62
4
 10
-3.65604284E+01
 20
-1.79144356E+02
  0
VERTEX
  8
0
 62
4
 10
-3.67506419E+01
 20
-1.79193947E+02
  0
VERTEX
  8
0
 62
4
 10
-3.69187088E+01
 20
-1.79246884E+02
  0
VERTEX
  8
0
 62
4
 10
-3.70632760E+01
 20
-1.79302740E+02
  0
VERTEX
  8
0
 62
4
 10
-3.71831795E+01
 20
-1.79361065E+02
  0
VERTEX
  8
0
 62
4
 10
-3.72774540E+01
 20
-1.79421390E+02
  0
VERTEX
  8
0
 62
4
 10
-3.73453403E+01
 20
-1.79483230E+02
  0
VERTEX
  8
0
 62
4
 10
-3.73862920E+01
 20
-1.79546085E+02
  0
VERTEX
  8
0
 62
4
 10
-3.73999793E+01
 20
-1.79609451E+02
  0
SEQEND
  8
0
  0
POLYLINE
  8
0
 62
4
 66
1
  0
VERTEX
  8
0
 62
4
 10
-3.05999793E+01
 20
-1.80047548E+02
  0
VERTEX
  8
0
 62
4
 10
-3.04269273E+01
 20
-1.79983305E+02
  0
VERTEX
  8
0
 62
4
 10
-3.02818843E+01
 20
-1.79916131E+02
  0
VERTEX
  8
0
 62
4
 10
-3.01659875E+01
 20
-1.79846553E+02
  0
VERTEX
  8
0
 62
4
 10
-3.00801452E+01
 20
-1.79775116E+02
  0
VERTEX
  8
0
 62
4
 10
-3.00250304E+01
 20
-1.79702381E+02
  0
VERTEX
  8
0
 62
4
 10
-3.00010752E+01
 20
-1.79628917E+02
  0
VERTEX
  8
0
 62
4
 10
-3.00084674E+01
 20
-1.79555301E+02
  0
VERTEX
  8
0
 62
4
 10
-3.00471489E+01
 20
-1.79482109E+02
  0
VERTEX
  8
0
 62
4
 10
-3.01168166E+01
 20
-1.79409916E+02
  0
VERTEX
  8
0
 62
4
 10
-3.02169243E+01
 20
-1.79339286E+02
  0
VERTEX
  8
0
 62
4
 10
-3.03466874E+01
 20
-1.79270775E+02
  0
VERTEX
  8
0
 62
4
 10
-3.05050885E+01
 20
-1.79204918E+02
  0
VERTEX
  8
0
 62
4
 10
-3.06908860E+01
 20
-1.79142232E+02
  0
VERTEX
  8
0
 62
4
 10
-3.09026235E+01
 20
-1.79083209E+02
  0
VERTEX
  8
0
 62
4
 10
-3.11386411E+01
 20
-1.79028311E+02
  0
VERTEX
  8
0
 62
4
 10
-3.13970886E+01
 20
-1.78977969E+02
  0
VERTEX
  8
0
 62
4
 10
-3.16759402E+01
 20
-1.78932577E+02
  0
VERTEX
  8
0
 62
4
 10
-3.19730098E+01
 20
-1.78892490E+02
  0
VERTEX
  8
0
 62
4
 10
-3.22859689E+01
 20
-1.78858024E+02
  0
VERTEX
  8
0
 62
4
 10
-3.26123640E+01
 20
-1.78829449E+02
  0
VERTEX
  8
0
 62
4
 10
-3.29496367E+01
 20
-1.78806988E+02
  0
VERTEX
  8
0
 62
4
 10
-3.32951429E+01
 20
-1.78790817E+02
  0
VERTEX
  8
0
 62
4
 10
-3.36461744E+01
 20
-1.78781064E+02
  0
VERTEX
  8
0
 62
4
 10
-3.39999793E+01
 20
-1.78777804E+02
  0
VERTEX
  8
0
 62
4
 10
-3.43537842E+01
 20
-1.78781064E+02
  0
VERTEX
  8
0
 62
4
 10
-3.47048157E+01
 20
-1.78790817E+02
  0
VERTEX
  8
0
 62
4
 10
-3.50503219E+01
 20
-1.78806988E+02
  0
VERTEX
  8
0
 62
4
 10
-3.53875945E+01
 20
-1.78829449E+02
  0
VERTEX
  8
0
 62
4
 10
-3.57139897E+01
 20
-1.78858024E+02
  0
VERTEX
  8
0
 62
4
 10
-3.60269487E+01
 20
-1.78892490E+02
  0
VERTEX
  8
0
 62
4
 10
-3.63240184E+01
 20
-1.78932577E+02
  0
VERTEX
  8
0
 62
4
 10
-3.66028700E+01
 20
-1.78977969E+02
  0
VERTEX
  8
0
 62
4
 10
-3.68613175E+01
 20
-1.79028311E+02
  0
VERTEX
  8
0
 62
4
 10
-3.70973351E+01
 20
-1.79083209E+02
  0
VERTEX
  8
0
 62
4
 10
-3.73090725E+01
 20
-1.79142232E+02
  0
VERTEX
  8
0
 62
4
 10
-3.74948701E+01
 20
-1.79204918E+02
  0
VERTEX
  8
0
 62
4
 10
-3.76532712E+01
 20
-1.79270775E+02
  0
VERTEX
  8
0
 62
4
 10
-3.77830343E+01
 20
-1.79339286E+02
  0
VERTEX
  8
0
 62
4
 10
-3.78831420E+01
 20
-1.79409916E+02
  0
VERTEX
  8
0
 62
4
 10
-3.79528097E+01
 20
-1.79482109E+02
  0
VERTEX
  8
0
 62
4
 10
-3.79914912E+01
 20
-1.79555301E+02
  0
VERTEX
  8
0
 62
4
 10
-3.79988834E+01
 20
-1.79628917E+02
  0
VERTEX
  8
0
 62
4
 10
-3.79749282E+01
 20
-1.79702381E+02
  0
VERTEX
  8
0
 62
4
 10
-3.79198134E+01
 20
-1.79775116E+02
  0
VERTEX
  8
0
 62
4
 10
-3.78339711E+01
 20
-1.79846553E+02
  0
VERTEX
  8
0
 62
4
 10
-3.77180743E+01
 20
-1.79916131E+02
  0
VERTEX
  8
0
 62
4
 10
-3.75730313E+01
 20
-1.79983305E+02
  0
VERTEX
  8
0
 62
4
 10
-3.73999793E+01
 20
-1.80047548E+02
  0
SEQEND
  8
0
  0
LINE
  8
0
  6
CENTER
 62
6
 10
-3.90490642E+01
 20
-1.59793829E+02
 11
-2.89508944E+01
 21
-1.59793829E+02
  0
LINE
  8
0
  6
CENTER
 62
6
 10
-1.79999793E+01
 20
-1.60666008E+02
 11
-1.79999793E+01
 21
-1.70564705E+02
  0
POLYLINE
  8
0
 62
4
 66
1
  0
VERTEX
  8
0
 62
4
 10
-3.09999793E+01
 20
-1.59793829E+02
  0
VERTEX
  8
0
 62
4
 10
-3.10113952E+01
 20
-1.59538075E+02
  0
VERTEX
  8
0
 62
4
 10
-3.10455560E+01
 20
-1.59284268E+02
  0
VERTEX
  8
0
 62
4
 10
-3.11022018E+01
 20
-1.59034339E+02
  0
VERTEX
  8
0
 62
4
 10
-3.11809014E+01
 20
-1.58790190E+02
  0
VERTEX
  8
0
 62
4
 10
-3.12810559E+01
 20
-1.58553680E+02
  0
VERTEX
  8
0
 62
4
 10
-3.14019031E+01
 20
-1.58326608E+02
  0
VERTEX
  8
0
 62
4
 10
-3.15425232E+01
 20
-1.58110702E+02
  0
VERTEX
  8
0
 62
4
 10
-3.17018460E+01
 20
-1.57907606E+02
  0
VERTEX
  8
0
 62
4
 10
-3.18786590E+01
 20
-1.57718865E+02
  0
VERTEX
  8
0
 62
4
 10
-3.20716165E+01
 20
-1.57545915E+02
  0
VERTEX
  8
0
 62
4
 10
-3.22792500E+01
 20
-1.57390074E+02
  0
VERTEX
  8
0
 62
4
 10
-3.24999793E+01
 20
-1.57252527E+02
  0
VERTEX
  8
0
 62
4
 10
-3.27321245E+01
 20
-1.57134321E+02
  0
VERTEX
  8
0
 62
4
 10
-3.29739189E+01
 20
-1.57036355E+02
  0
VERTEX
  8
0
 62
4
 10
-3.32235222E+01
 20
-1.56959375E+02
  0
VERTEX
  8
0
 62
4
 10
-3.34790348E+01
 20
-1.56903967E+02
  0
VERTEX
  8
0
 62
4
 10
-3.37385121E+01
 20
-1.56870553E+02
  0
VERTEX
  8
0
 62
4
 10
-3.39999793E+01
 20
-1.56859386E+02
  0
VERTEX
  8
0
 62
4
 10
-3.42614465E+01
 20
-1.56870553E+02
  0
VERTEX
  8
0
 62
4
 10
-3.45209238E+01
 20
-1.56903967E+02
  0
VERTEX
  8
0
 62
4
 10
-3.47764364E+01
 20
-1.56959375E+02
  0
VERTEX
  8
0
 62
4
 10
-3.50260397E+01
 20
-1.57036355E+02
  0
VERTEX
  8
0
 62
4
 10
-3.52678341E+01
 20
-1.57134321E+02
  0
VERTEX
  8
0
 62
4
 10
-3.54999793E+01
 20
-1.57252527E+02
  0
VERTEX
  8
0
 62
4
 10
-3.57207086E+01
 20
-1.57390074E+02
  0
VERTEX
  8
0
 62
4
 10
-3.59283421E+01
 20
-1.57545915E+02
  0
VERTEX
  8
0
 62
4
 10
-3.61212996E+01
 20
-1.57718865E+02
  0
VERTEX
  8
0
 62
4
 10
-3.62981126E+01
 20
-1.57907606E+02
  0
VERTEX
  8
0
 62
4
 10
-3.64574354E+01
 20
-1.58110702E+02
  0
VERTEX
  8
0
 62
4
 10
-3.65980555E+01
 20
-1.58326608E+02
  0
VERTEX
  8
0
 62
4
 10
-3.67189027E+01
 20
-1.58553680E+02
  0
VERTEX
  8
0
 62
4
 10
-3.68190572E+01
 20
-1.58790190E+02
  0
VERTEX
  8
0
 62
4
 10
-3.68977568E+01
 20
-1.59034339E+02
  0
VERTEX
  8
0
 62
4
 10
-3.69544026E+01
 20
-1.59284268E+02
  0
VERTEX
  8
0
 62
4
 10
-3.69885634E+01
 20
-1.59538075E+02
  0
VERTEX
  8
0
 62
4
 10
-3.69999793E+01
 20
-1.59793829E+02
  0
VERTEX
  8
0
 62
4
 10
-3.69885634E+01
 20
-1.60049583E+02
  0
VERTEX
  8
0
 62
4
 10
-3.69544026E+01
 20
-1.60303390E+02
  0
VERTEX
  8
0
 62
4
 10
-3.68977568E+01
 20
-1.60553319E+02
  0
VERTEX
  8
0
 62
4
 10
-3.68190572E+01
 20
-1.60797468E+02
  0
VERTEX
  8
0
 62
4
 10
-3.67189027E+01
 20
-1.61033978E+02
  0
VERTEX
  8
0
 62
4
 10
-3.65980555E+01
 20
-1.61261050E+02
  0
VERTEX
  8
0
 62
4
 10
-3.64574354E+01
 20
-1.61476956E+02
  0
VERTEX
  8
0
 62
4
 10
-3.62981126E+01
 20
-1.61680052E+02
  0
VERTEX
  8
0
 62
4
 10
-3.61212996E+01
 20
-1.61868793E+02
  0
VERTEX
  8
0
 62
4
 10
-3.59283421E+01
 20
-1.62041743E+02
  0
VERTEX
  8
0
 62
4
 10
-3.57207086E+01
 20
-1.62197584E+02
  0
VERTEX
  8
0
 62
4
 10
-3.54999793E+01
 20
-1.62335131E+02
  0
VERTEX
  8
0
 62
4
 10
-3.52678341E+01
 20
-1.62453337E+02
  0
VERTEX
  8
0
 62
4
 10
-3.50260397E+01
 20
-1.62551303E+02
  0
VERTEX
  8
0
 62
4
 10
-3.47764364E+01
 20
-1.62628283E+02
  0
VERTEX
  8
0
 62
4
 10
-3.45209238E+01
 20
-1.62683691E+02
  0
VERTEX
  8
0
 62
4
 10
-3.42614465E+01
 20
-1.62717105E+02
  0
VERTEX
  8
0
 62
4
 10
-3.39999793E+01
 20
-1.62728272E+02
  0
VERTEX
  8
0
 62
4
 10
-3.37385121E+01
 20
-1.62717105E+02
  0
VERTEX
  8
0
 62
4
 10
-3.34790348E+01
 20
-1.62683691E+02
  0
VERTEX
  8
0
 62
4
 10
-3.32235222E+01
 20
-1.62628283E+02
  0
VERTEX
  8
0
 62
4
 10
-3.29739189E+01
 20
-1.62551303E+02
  0
VERTEX
  8
0
 62
4
 10
-3.27321245E+01
 20
-1.62453337E+02
  0
VERTEX
  8
0
 62
4
 10
-3.24999793E+01
 20
-1.62335131E+02
  0
VERTEX
  8
0
 62
4
 10
-3.22792500E+01
 20
-1.62197584E+02
  0
VERTEX
  8
0
 62
4
 10
-3.20716165E+01
 20
-1.62041743E+02
  0
VERTEX
  8
0
 62
4
 10
-3.18786590E+01
 20
-1.61868793E+02
  0
VERTEX
  8
0
 62
4
 10
-3.17018460E+01
 20
-1.61680052E+02
  0
VERTEX
  8
0
 62
4
 10
-3.15425232E+01
 20
-1.61476956E+02
  0
VERTEX
  8
0
 62
4
 10
-3.14019031E+01
 20
-1.61261050E+02
  0
VERTEX
  8
0
 62
4
 10
-3.12810559E+01
 20
-1.61033978E+02
  0
VERTEX
  8
0
 62
4
 10
-3.11809014E+01
 20
-1.60797468E+02
  0
VERTEX
  8
0
 62
4
 10
-3.11022018E+01
 20
-1.60553319E+02
  0
VERTEX
  8
0
 62
4
 10
-3.10455560E+01
 20
-1.60303390E+02
  0
VERTEX
  8
0
 62
4
 10
-3.10113952E+01
 20
-1.60049583E+02
  0
VERTEX
  8
0
 62
4
 10
-3.09999793E+01
 20
-1.59793829E+02
  0
SEQEND
  8
0
  0
LINE
  8
0
  6
CENTER
 62
6
 10
-2.29493278E+01
 20
-1.65615356E+02
 11
-1.30506307E+01
 21
-1.65615356E+02
  0
LINE
  8
0
 62
4
 10
-4.14999793E+01
 20
-1.72327728E+02
 11
-2.64999793E+01
 21
-1.72327728E+02
  0
LINE
  8
0
 62
4
 10
-6.09999793E+01
 20
-1.68181007E+02
 11
-5.59999793E+01
 21
-1.68181007E+02
  0
LINE
  8
0
 62
4
 10
-5.09999793E+01
 20
-1.54542072E+02
 11
-5.09999793E+01
 21
-1.67542072E+02
  0
ARC
  8
0
 62
4
 10
-5.04994791E+01
 20
-1.54542573E+02
 40
5.00500378E-01
 50
9.00572530E+01
 51
1.79942747E+02
  0
LINE
  8
0
 62
4
 10
-4.14999793E+01
 20
-1.54042072E+02
 11
-5.04999793E+01
 21
-1.54042072E+02
  0
LINE
  8
0
 62
4
 10
-6.09999793E+01
 20
-1.66619590E+02
 11
-5.59999793E+01
 21
-1.66619590E+02
  0
LINE
  8
0
 62
4
 10
-6.09999793E+01
 20
-1.59481962E+02
 11
-5.59999793E+01
 21
-1.59481962E+02
  0
LINE
  8
0
 62
4
 10
-2.64999793E+01
 20
-1.54550649E+02
 11
-8.49997925E+00
 21
-1.54550649E+02
  0
LINE
  8
0
  6
CENTER
 62
6
 10
-2.99999793E+01
 20
-1.39983982E+02
 11
-2.99999793E+01
 21
-1.50483982E+02
  0
LINE
  8
0
 62
4
 10
-2.79999793E+01
 20
-1.42243982E+02
 11
-2.79999793E+01
 21
-1.42616227E+02
  0
LINE
  8
0
 62
4
 10
-3.19999793E+01
 20
-1.42243982E+02
 11
-3.19999793E+01
 21
-1.42616227E+02
  0
LINE
  8
0
 62
4
 10
-2.82699793E+01
 20
-1.41243982E+02
 11
-3.17399793E+01
 21
-1.41243982E+02
  0
LINE
  8
0
 62
4
 10
-2.79999793E+01
 20
-1.42243982E+02
 11
-2.82699793E+01
 21
-1.41243982E+02
  0
LINE
  8
0
 62
4
 10
-3.19999793E+01
 20
-1.42243982E+02
 11
-3.17399793E+01
 21
-1.41243982E+02
  0
LINE
  8
0
 62
6
 10
-2.84999793E+01
 20
-1.41243982E+02
 11
-2.84999793E+01
 21
-1.42616227E+02
  0
LINE
  8
0
 62
6
 10
-3.14999793E+01
 20
-1.41243982E+02
 11
-3.14999793E+01
 21
-1.42616227E+02
  0
LINE
  8
0
 62
4
 10
-2.74999793E+01
 20
-1.47860749E+02
 11
-4.04999793E+01
 21
-1.47860749E+02
  0
LINE
  8
0
 62
4
 10
-2.64999793E+01
 20
-1.42616227E+02
 11
-4.14999793E+01
 21
-1.42616227E+02
  0
LINE
  8
0
  6
CENTER
 62
6
 10
-3.79999793E+01
 20
-1.39983982E+02
 11
-3.79999793E+01
 21
-1.50483982E+02
  0
LINE
  8
0
 62
6
 10
-3.94999793E+01
 20
-1.41243982E+02
 11
-3.94999793E+01
 21
-1.42616227E+02
  0
LINE
  8
0
 62
4
 10
-3.59999793E+01
 20
-1.42243982E+02
 11
-3.59999793E+01
 21
-1.42616227E+02
  0
LINE
  8
0
 62
4
 10
-3.99999793E+01
 20
-1.42243982E+02
 11
-3.99999793E+01
 21
-1.42616227E+02
  0
LINE
  8
0
 62
4
 10
-3.62699793E+01
 20
-1.41243982E+02
 11
-3.97399793E+01
 21
-1.41243982E+02
  0
LINE
  8
0
 62
4
 10
-3.59999793E+01
 20
-1.42243982E+02
 11
-3.62699793E+01
 21
-1.41243982E+02
  0
LINE
  8
0
 62
4
 10
-3.99999793E+01
 20
-1.42243982E+02
 11
-3.97399793E+01
 21
-1.41243982E+02
  0
LINE
  8
0
 62
6
 10
-3.64999793E+01
 20
-1.41243982E+02
 11
-3.64999793E+01
 21
-1.42616227E+02
  0
LINE
  8
0
 62
4
 10
-2.99999793E+01
 20
-1.79120377E+02
 11
-2.99999793E+01
 21
-1.79609451E+02
  0
LINE
  8
0
 62
4
 10
-3.79999793E+01
 20
-1.79609451E+02
 11
-3.79999793E+01
 21
-1.79120377E+02
  0
LINE
  8
0
 62
4
 10
-3.05999793E+01
 20
-1.79609451E+02
 11
-3.05999793E+01
 21
-1.81533408E+02
  0
LINE
  8
0
 62
4
 10
-3.73999793E+01
 20
-1.81533408E+02
 11
-3.73999793E+01
 21
-1.79609451E+02
  0
LINE
  8
0
  6
CENTER
 62
6
 10
-3.39999793E+01
 20
-1.35416521E+02
 11
-3.39999793E+01
 21
-1.89134040E+02
  0
LINE
  8
0
 62
4
 10
-5.04999793E+01
 20
-1.68042072E+02
 11
-4.14999793E+01
 21
-1.68042072E+02
  0
LINE
  8
0
 62
4
 10
-6.09999793E+01
 20
-1.53903671E+02
 11
-6.09999793E+01
 21
-1.68181007E+02
  0
LINE
  8
0
 62
4
 10
-5.59999793E+01
 20
-1.53903671E+02
 11
-5.59999793E+01
 21
-1.68181007E+02
  0
LINE
  8
0
 62
4
 10
-5.59999793E+01
 20
-1.54792072E+02
 11
-5.09999793E+01
 21
-1.54792072E+02
  0
LINE
  8
0
 62
4
 10
-5.59999793E+01
 20
-1.67292072E+02
 11
-5.09999793E+01
 21
-1.67292072E+02
  0
LINE
  8
0
 62
4
 10
-5.44999793E+01
 20
-1.54792072E+02
 11
-5.44999793E+01
 21
-1.67292072E+02
  0
LINE
  8
0
 62
4
 10
-5.44999793E+01
 20
-1.55292072E+02
 11
-5.09999793E+01
 21
-1.55292072E+02
  0
LINE
  8
0
 62
4
 10
-5.44999793E+01
 20
-1.66792072E+02
 11
-5.09999793E+01
 21
-1.66792072E+02
  0
LINE
  8
0
 62
4
 10
-2.64999793E+01
 20
-1.72327728E+02
 11
-2.64999793E+01
 21
-1.42616227E+02
  0
LINE
  8
0
 62
4
 10
-4.14999793E+01
 20
-1.52457722E+02
 11
-2.64999793E+01
 21
-1.52457722E+02
  0
LINE
  8
0
 62
4
 10
-4.14999793E+01
 20
-1.67129936E+02
 11
-2.64999793E+01
 21
-1.67129936E+02
  0
LINE
  8
0
 62
4
 10
-6.09999793E+01
 20
-1.53903671E+02
 11
-5.59999793E+01
 21
-1.53903671E+02
  0
LINE
  8
0
 62
4
 10
-6.99997925E+00
 20
-1.56051152E+02
 11
-6.99997925E+00
 21
-1.79179715E+02
  0
LINE
  8
0
 62
4
 10
-2.44999793E+01
 20
-1.55699219E+02
 11
-2.44999793E+01
 21
-1.75115670E+02
  0
LINE
  8
0
 62
4
 10
-4.59999793E+01
 20
-1.79179715E+02
 11
-4.59999793E+01
 21
-1.68042072E+02
  0
LINE
  8
0
 62
4
 10
-4.34999793E+01
 20
-1.68042072E+02
 11
-4.34999793E+01
 21
-1.75115670E+02
  0
LINE
  8
0
 62
4
 10
-4.14999793E+01
 20
-1.42616227E+02
 11
-4.14999793E+01
 21
-1.72327728E+02
  0
LINE
  8
0
 62
4
 10
-4.34999793E+01
 20
-1.74284024E+02
 11
-2.44999793E+01
 21
-1.74284024E+02
  0
LINE
  8
0
 62
4
 10
-4.44999793E+01
 20
-1.77561039E+02
 11
-8.49997925E+00
 21
-1.77561039E+02
  0
LINE
  8
0
 62
4
 10
-2.44999793E+01
 20
-1.55699219E+02
 11
-2.64999793E+01
 21
-1.55699219E+02
  0
ARC
  8
0
 62
4
 10
-8.50048303E+00
 20
-1.56051152E+02
 40
1.50050386E+00
 50
1.92364101E-02
 51
8.99807637E+01
  0
ARC
  8
0
 62
4
 10
-5.05004789E+01
 20
-1.67542572E+02
 40
4.99500622E-01
 50
1.79942690E+02
 51
2.70057311E+02
  0
LINE
  8
0
 62
4
 10
2.70500030E+02
 20
-3.29265690E+02
 11
2.83500031E+02
 21
-3.29265690E+02
  0
ARC
  8
0
 62
4
 10
2.87500530E+02
 20
-3.05696162E+02
 40
1.49950029E+00
 50
3.59980903E+02
 51
9.00190969E+01
  0
ARC
  8
0
 62
4
 10
2.93499530E+02
 20
-2.90227626E+02
 40
5.00500378E-01
 50
2.70057253E+02
 51
3.59942747E+02
  0
ARC
  8
0
 62
4
 10
2.51499531E+02
 20
-3.05696162E+02
 40
1.49950029E+00
 50
8.99809029E+01
 51
1.80019097E+02
  0
ARC
  8
0
 62
4
 10
2.84999531E+02
 20
-2.91227627E+02
 40
4.99500622E-01
 50
8.99426895E+01
 51
1.80057310E+02
  0
ARC
  8
0
 62
4
 10
2.93500530E+02
 20
-2.77227627E+02
 40
4.99500622E-01
 50
3.59942689E+02
 51
9.00573103E+01
  0
LINE
  8
0
 62
4
 10
2.50000031E+02
 20
-3.05696662E+02
 11
2.50000031E+02
 21
-3.23393792E+02
  0
LINE
  8
0
 62
4
 10
2.84500031E+02
 20
-3.02895237E+02
 11
2.69500031E+02
 21
-3.02895237E+02
  0
LINE
  8
0
 62
4
 10
2.67500031E+02
 20
-3.04289208E+02
 11
2.67500031E+02
 21
-3.08201798E+02
  0
LINE
  8
0
 62
4
 10
2.84500031E+02
 20
-2.76301019E+02
 11
2.84500031E+02
 21
-3.04289208E+02
  0
LINE
  8
0
 62
4
 10
2.69500031E+02
 20
-2.76301019E+02
 11
2.69500031E+02
 21
-3.04289208E+02
  0
LINE
  8
0
 62
4
 10
2.86500031E+02
 20
-3.04289208E+02
 11
2.86500031E+02
 21
-3.08201798E+02
  0
LINE
  8
0
 62
4
 10
2.89000031E+02
 20
-3.21926570E+02
 11
2.84500031E+02
 21
-3.21926570E+02
  0
LINE
  8
0
 62
4
 10
2.89000031E+02
 20
-3.23393792E+02
 11
2.84500031E+02
 21
-3.23393792E+02
  0
LINE
  8
0
 62
4
 10
2.89000031E+02
 20
-3.05696662E+02
 11
2.89000031E+02
 21
-3.23393792E+02
  0
LINE
  8
0
 62
4
 10
2.86500031E+02
 20
-3.04289208E+02
 11
2.67500031E+02
 21
-3.04289208E+02
  0
LINE
  8
0
 62
4
 10
2.84500031E+02
 20
-2.76301019E+02
 11
2.69500031E+02
 21
-2.76301019E+02
  0
LINE
  8
0
 62
4
 10
2.69500031E+02
 20
-3.21926570E+02
 11
2.50000031E+02
 21
-3.21926570E+02
  0
LINE
  8
0
 62
4
 10
2.69500031E+02
 20
-3.23393792E+02
 11
2.50000031E+02
 21
-3.23393792E+02
  0
LINE
  8
0
 62
4
 10
3.04000031E+02
 20
-2.91075131E+02
 11
2.99000031E+02
 21
-2.91075131E+02
  0
LINE
  8
0
 62
4
 10
2.93500031E+02
 20
-2.90728127E+02
 11
2.85000031E+02
 21
-2.90728127E+02
  0
LINE
  8
0
 62
4
 10
2.97500031E+02
 20
-2.89478127E+02
 11
2.94000031E+02
 21
-2.89478127E+02
  0
LINE
  8
0
 62
4
 10
2.97500031E+02
 20
-2.77478127E+02
 11
2.97500031E+02
 21
-2.89978127E+02
  0
LINE
  8
0
 62
4
 10
2.99000031E+02
 20
-2.89978127E+02
 11
2.94000031E+02
 21
-2.89978127E+02
  0
LINE
  8
0
 62
4
 10
2.99000031E+02
 20
-2.77478127E+02
 11
2.94000031E+02
 21
-2.77478127E+02
  0
LINE
  8
0
 62
4
 10
2.99000031E+02
 20
-2.76393135E+02
 11
2.99000031E+02
 21
-2.91075131E+02
  0
LINE
  8
0
 62
4
 10
3.04000031E+02
 20
-2.76393135E+02
 11
3.04000031E+02
 21
-2.91075131E+02
  0
LINE
  8
0
 62
4
 10
2.94000031E+02
 20
-2.77228127E+02
 11
2.94000031E+02
 21
-2.90228127E+02
  0
LINE
  8
0
 62
4
 10
2.84500031E+02
 20
-2.76728127E+02
 11
2.93500031E+02
 21
-2.76728127E+02
  0
LINE
  8
0
 62
4
 10
3.04000031E+02
 20
-2.88758503E+02
 11
2.99000031E+02
 21
-2.88758503E+02
  0
LINE
  8
0
 62
4
 10
3.04000031E+02
 20
-2.81416323E+02
 11
2.99000031E+02
 21
-2.81416323E+02
  0
LINE
  8
0
 62
4
 10
3.04000031E+02
 20
-2.81412615E+02
 11
2.99000031E+02
 21
-2.81412615E+02
  0
LINE
  8
0
 62
4
 10
2.87500031E+02
 20
-3.04196662E+02
 11
2.84500031E+02
 21
-3.04196662E+02
  0
LINE
  8
0
 62
4
 10
2.97500031E+02
 20
-2.77978127E+02
 11
2.94000031E+02
 21
-2.77978127E+02
  0
LINE
  8
0
  6
CENTER
 62
6
 10
2.73000031E+02
 20
-3.31956014E+02
 11
2.73000031E+02
 21
-3.37800550E+02
  0
LINE
  8
0
 62
4
 10
2.69500031E+02
 20
-3.13111710E+02
 11
2.69500031E+02
 21
-3.39532166E+02
  0
LINE
  8
0
 62
4
 10
2.84500031E+02
 20
-3.13111710E+02
 11
2.84500031E+02
 21
-3.39532166E+02
  0
LINE
  8
0
 62
4
 10
2.69500031E+02
 20
-3.39532166E+02
 11
2.84500031E+02
 21
-3.39532166E+02
  0
LINE
  8
0
 62
4
 10
2.69500031E+02
 20
-3.13111710E+02
 11
2.84500031E+02
 21
-3.13111710E+02
  0
LINE
  8
0
 62
4
 10
2.84500031E+02
 20
-2.79419694E+02
 11
2.69500031E+02
 21
-2.79419694E+02
  0
LINE
  8
0
 62
4
 10
3.04000031E+02
 20
-2.76393135E+02
 11
2.99000031E+02
 21
-2.76393135E+02
  0
LINE
  8
0
 62
4
 10
2.53000031E+02
 20
-3.28350006E+02
 11
2.53000031E+02
 21
-3.26682647E+02
  0
LINE
  8
0
 62
4
 10
2.86000031E+02
 20
-3.28350006E+02
 11
2.86000031E+02
 21
-3.26682647E+02
  0
POLYLINE
  8
0
 62
4
 66
1
  0
VERTEX
  8
0
 62
4
 10
2.73000031E+02
 20
-3.36626665E+02
  0
VERTEX
  8
0
 62
4
 10
2.73174342E+02
 20
-3.36618782E+02
  0
VERTEX
  8
0
 62
4
 10
2.73347327E+02
 20
-3.36595191E+02
  0
VERTEX
  8
0
 62
4
 10
2.73517669E+02
 20
-3.36556073E+02
  0
VERTEX
  8
0
 62
4
 10
2.73684071E+02
 20
-3.36501725E+02
  0
VERTEX
  8
0
 62
4
 10
2.73845268E+02
 20
-3.36432561E+02
  0
VERTEX
  8
0
 62
4
 10
2.74000031E+02
 20
-3.36349108E+02
  0
VERTEX
  8
0
 62
4
 10
2.74147184E+02
 20
-3.36251999E+02
  0
VERTEX
  8
0
 62
4
 10
2.74285606E+02
 20
-3.36141975E+02
  0
VERTEX
  8
0
 62
4
 10
2.74414245E+02
 20
-3.36019873E+02
  0
VERTEX
  8
0
 62
4
 10
2.74532120E+02
 20
-3.35886622E+02
  0
VERTEX
  8
0
 62
4
 10
2.74638335E+02
 20
-3.35743236E+02
  0
VERTEX
  8
0
 62
4
 10
2.74732082E+02
 20
-3.35590806E+02
  0
VERTEX
  8
0
 62
4
 10
2.74812647E+02
 20
-3.35430493E+02
  0
VERTEX
  8
0
 62
4
 10
2.74879416E+02
 20
-3.35263516E+02
  0
VERTEX
  8
0
 62
4
 10
2.74931883E+02
 20
-3.35091147E+02
  0
VERTEX
  8
0
 62
4
 10
2.74969647E+02
 20
-3.34914697E+02
  0
VERTEX
  8
0
 62
4
 10
2.74992420E+02
 20
-3.34735509E+02
  0
VERTEX
  8
0
 62
4
 10
2.75000031E+02
 20
-3.34554947E+02
  0
VERTEX
  8
0
 62
4
 10
2.74992420E+02
 20
-3.34374385E+02
  0
VERTEX
  8
0
 62
4
 10
2.74969647E+02
 20
-3.34195197E+02
  0
VERTEX
  8
0
 62
4
 10
2.74931883E+02
 20
-3.34018747E+02
  0
VERTEX
  8
0
 62
4
 10
2.74879416E+02
 20
-3.33846378E+02
  0
VERTEX
  8
0
 62
4
 10
2.74812647E+02
 20
-3.33679401E+02
  0
VERTEX
  8
0
 62
4
 10
2.74732082E+02
 20
-3.33519088E+02
  0
VERTEX
  8
0
 62
4
 10
2.74638335E+02
 20
-3.33366658E+02
  0
VERTEX
  8
0
 62
4
 10
2.74532120E+02
 20
-3.33223272E+02
  0
VERTEX
  8
0
 62
4
 10
2.74414245E+02
 20
-3.33090021E+02
  0
VERTEX
  8
0
 62
4
 10
2.74285606E+02
 20
-3.32967919E+02
  0
VERTEX
  8
0
 62
4
 10
2.74147184E+02
 20
-3.32857895E+02
  0
VERTEX
  8
0
 62
4
 10
2.74000031E+02
 20
-3.32760786E+02
  0
VERTEX
  8
0
 62
4
 10
2.73845268E+02
 20
-3.32677333E+02
  0
VERTEX
  8
0
 62
4
 10
2.73684071E+02
 20
-3.32608169E+02
  0
VERTEX
  8
0
 62
4
 10
2.73517669E+02
 20
-3.32553821E+02
  0
VERTEX
  8
0
 62
4
 10
2.73347327E+02
 20
-3.32514703E+02
  0
VERTEX
  8
0
 62
4
 10
2.73174342E+02
 20
-3.32491112E+02
  0
VERTEX
  8
0
 62
4
 10
2.73000031E+02
 20
-3.32483229E+02
  0
VERTEX
  8
0
 62
4
 10
2.72825720E+02
 20
-3.32491112E+02
  0
VERTEX
  8
0
 62
4
 10
2.72652735E+02
 20
-3.32514703E+02
  0
VERTEX
  8
0
 62
4
 10
2.72482393E+02
 20
-3.32553821E+02
  0
VERTEX
  8
0
 62
4
 10
2.72315991E+02
 20
-3.32608169E+02
  0
VERTEX
  8
0
 62
4
 10
2.72154794E+02
 20
-3.32677333E+02
  0
VERTEX
  8
0
 62
4
 10
2.72000031E+02
 20
-3.32760786E+02
  0
VERTEX
  8
0
 62
4
 10
2.71852878E+02
 20
-3.32857895E+02
  0
VERTEX
  8
0
 62
4
 10
2.71714456E+02
 20
-3.32967919E+02
  0
VERTEX
  8
0
 62
4
 10
2.71585817E+02
 20
-3.33090021E+02
  0
VERTEX
  8
0
 62
4
 10
2.71467942E+02
 20
-3.33223272E+02
  0
VERTEX
  8
0
 62
4
 10
2.71361727E+02
 20
-3.33366658E+02
  0
VERTEX
  8
0
 62
4
 10
2.71267980E+02
 20
-3.33519088E+02
  0
VERTEX
  8
0
 62
4
 10
2.71187415E+02
 20
-3.33679401E+02
  0
VERTEX
  8
0
 62
4
 10
2.71120646E+02
 20
-3.33846378E+02
  0
VERTEX
  8
0
 62
4
 10
2.71068179E+02
 20
-3.34018747E+02
  0
VERTEX
  8
0
 62
4
 10
2.71030415E+02
 20
-3.34195197E+02
  0
VERTEX
  8
0
 62
4
 10
2.71007642E+02
 20
-3.34374385E+02
  0
VERTEX
  8
0
 62
4
 10
2.71000031E+02
 20
-3.34554947E+02
  0
VERTEX
  8
0
 62
4
 10
2.71007642E+02
 20
-3.34735509E+02
  0
VERTEX
  8
0
 62
4
 10
2.71030415E+02
 20
-3.34914697E+02
  0
VERTEX
  8
0
 62
4
 10
2.71068179E+02
 20
-3.35091147E+02
  0
VERTEX
  8
0
 62
4
 10
2.71120646E+02
 20
-3.35263516E+02
  0
VERTEX
  8
0
 62
4
 10
2.71187415E+02
 20
-3.35430493E+02
  0
VERTEX
  8
0
 62
4
 10
2.71267980E+02
 20
-3.35590806E+02
  0
VERTEX
  8
0
 62
4
 10
2.71361727E+02
 20
-3.35743236E+02
  0
VERTEX
  8
0
 62
4
 10
2.71467942E+02
 20
-3.35886622E+02
  0
VERTEX
  8
0
 62
4
 10
2.71585817E+02
 20
-3.36019873E+02
  0
VERTEX
  8
0
 62
4
 10
2.71714456E+02
 20
-3.36141975E+02
  0
VERTEX
  8
0
 62
4
 10
2.71852878E+02
 20
-3.36251999E+02
  0
VERTEX
  8
0
 62
4
 10
2.72000031E+02
 20
-3.36349108E+02
  0
VERTEX
  8
0
 62
4
 10
2.72154794E+02
 20
-3.36432561E+02
  0
VERTEX
  8
0
 62
4
 10
2.72315991E+02
 20
-3.36501725E+02
  0
VERTEX
  8
0
 62
4
 10
2.72482393E+02
 20
-3.36556073E+02
  0
VERTEX
  8
0
 62
4
 10
2.72652735E+02
 20
-3.36595191E+02
  0
VERTEX
  8
0
 62
4
 10
2.72825720E+02
 20
-3.36618782E+02
  0
VERTEX
  8
0
 62
4
 10
2.73000031E+02
 20
-3.36626665E+02
  0
SEQEND
  8
0
  0
POLYLINE
  8
0
 62
4
 66
1
  0
VERTEX
  8
0
 62
4
 10
2.74735031E+02
 20
-3.34883173E+02
  0
VERTEX
  8
0
 62
4
 10
2.74728429E+02
 20
-3.34735262E+02
  0
VERTEX
  8
0
 62
4
 10
2.74708672E+02
 20
-3.34588477E+02
  0
VERTEX
  8
0
 62
4
 10
2.74675912E+02
 20
-3.34443935E+02
  0
VERTEX
  8
0
 62
4
 10
2.74630398E+02
 20
-3.34302735E+02
  0
VERTEX
  8
0
 62
4
 10
2.74572475E+02
 20
-3.34165953E+02
  0
VERTEX
  8
0
 62
4
 10
2.74502585E+02
 20
-3.34034630E+02
  0
VERTEX
  8
0
 62
4
 10
2.74421260E+02
 20
-3.33909764E+02
  0
VERTEX
  8
0
 62
4
 10
2.74329118E+02
 20
-3.33792307E+02
  0
VERTEX
  8
0
 62
4
 10
2.74226861E+02
 20
-3.33683152E+02
  0
VERTEX
  8
0
 62
4
 10
2.74115268E+02
 20
-3.33583130E+02
  0
VERTEX
  8
0
 62
4
 10
2.73995186E+02
 20
-3.33493001E+02
  0
VERTEX
  8
0
 62
4
 10
2.73867531E+02
 20
-3.33413453E+02
  0
VERTEX
  8
0
 62
4
 10
2.73733274E+02
 20
-3.33345091E+02
  0
VERTEX
  8
0
 62
4
 10
2.73593436E+02
 20
-3.33288434E+02
  0
VERTEX
  8
0
 62
4
 10
2.73449082E+02
 20
-3.33243914E+02
  0
VERTEX
  8
0
 62
4
 10
2.73301311E+02
 20
-3.33211869E+02
  0
VERTEX
  8
0
 62
4
 10
2.73151246E+02
 20
-3.33192545E+02
  0
VERTEX
  8
0
 62
4
 10
2.73000031E+02
 20
-3.33186087E+02
  0
VERTEX
  8
0
 62
4
 10
2.72848816E+02
 20
-3.33192545E+02
  0
VERTEX
  8
0
 62
4
 10
2.72698751E+02
 20
-3.33211869E+02
  0
VERTEX
  8
0
 62
4
 10
2.72550980E+02
 20
-3.33243914E+02
  0
VERTEX
  8
0
 62
4
 10
2.72406626E+02
 20
-3.33288434E+02
  0
VERTEX
  8
0
 62
4
 10
2.72266788E+02
 20
-3.33345091E+02
  0
VERTEX
  8
0
 62
4
 10
2.72132531E+02
 20
-3.33413453E+02
  0
VERTEX
  8
0
 62
4
 10
2.72004876E+02
 20
-3.33493001E+02
  0
VERTEX
  8
0
 62
4
 10
2.71884794E+02
 20
-3.33583130E+02
  0
VERTEX
  8
0
 62
4
 10
2.71773201E+02
 20
-3.33683152E+02
  0
VERTEX
  8
0
 62
4
 10
2.71670944E+02
 20
-3.33792307E+02
  0
VERTEX
  8
0
 62
4
 10
2.71578802E+02
 20
-3.33909764E+02
  0
VERTEX
  8
0
 62
4
 10
2.71497477E+02
 20
-3.34034630E+02
  0
VERTEX
  8
0
 62
4
 10
2.71427587E+02
 20
-3.34165953E+02
  0
VERTEX
  8
0
 62
4
 10
2.71369664E+02
 20
-3.34302735E+02
  0
VERTEX
  8
0
 62
4
 10
2.71324150E+02
 20
-3.34443935E+02
  0
VERTEX
  8
0
 62
4
 10
2.71291390E+02
 20
-3.34588477E+02
  0
VERTEX
  8
0
 62
4
 10
2.71271633E+02
 20
-3.34735262E+02
  0
VERTEX
  8
0
 62
4
 10
2.71265031E+02
 20
-3.34883173E+02
  0
VERTEX
  8
0
 62
4
 10
2.71271633E+02
 20
-3.35031084E+02
  0
VERTEX
  8
0
 62
4
 10
2.71291390E+02
 20
-3.35177869E+02
  0
VERTEX
  8
0
 62
4
 10
2.71324150E+02
 20
-3.35322411E+02
  0
VERTEX
  8
0
 62
4
 10
2.71369664E+02
 20
-3.35463611E+02
  0
VERTEX
  8
0
 62
4
 10
2.71427587E+02
 20
-3.35600393E+02
  0
VERTEX
  8
0
 62
4
 10
2.71497477E+02
 20
-3.35731716E+02
  0
VERTEX
  8
0
 62
4
 10
2.71578802E+02
 20
-3.35856582E+02
  0
VERTEX
  8
0
 62
4
 10
2.71670944E+02
 20
-3.35974039E+02
  0
VERTEX
  8
0
 62
4
 10
2.71773201E+02
 20
-3.36083194E+02
  0
VERTEX
  8
0
 62
4
 10
2.71884794E+02
 20
-3.36183216E+02
  0
VERTEX
  8
0
 62
4
 10
2.72004876E+02
 20
-3.36273345E+02
  0
VERTEX
  8
0
 62
4
 10
2.72132531E+02
 20
-3.36352893E+02
  0
VERTEX
  8
0
 62
4
 10
2.72266788E+02
 20
-3.36421255E+02
  0
VERTEX
  8
0
 62
4
 10
2.72406626E+02
 20
-3.36477912E+02
  0
VERTEX
  8
0
 62
4
 10
2.72550980E+02
 20
-3.36522432E+02
  0
VERTEX
  8
0
 62
4
 10
2.72698751E+02
 20
-3.36554477E+02
  0
VERTEX
  8
0
 62
4
 10
2.72848816E+02
 20
-3.36573801E+02
  0
VERTEX
  8
0
 62
4
 10
2.73000031E+02
 20
-3.36580259E+02
  0
VERTEX
  8
0
 62
4
 10
2.73151246E+02
 20
-3.36573801E+02
  0
VERTEX
  8
0
 62
4
 10
2.73301311E+02
 20
-3.36554477E+02
  0
VERTEX
  8
0
 62
4
 10
2.73449082E+02
 20
-3.36522432E+02
  0
VERTEX
  8
0
 62
4
 10
2.73593436E+02
 20
-3.36477912E+02
  0
VERTEX
  8
0
 62
4
 10
2.73733274E+02
 20
-3.36421255E+02
  0
VERTEX
  8
0
 62
4
 10
2.73867531E+02
 20
-3.36352893E+02
  0
VERTEX
  8
0
 62
4
 10
2.73995186E+02
 20
-3.36273345E+02
  0
VERTEX
  8
0
 62
4
 10
2.74115268E+02
 20
-3.36183216E+02
  0
VERTEX
  8
0
 62
4
 10
2.74226861E+02
 20
-3.36083194E+02
  0
VERTEX
  8
0
 62
4
 10
2.74329118E+02
 20
-3.35974039E+02
  0
VERTEX
  8
0
 62
4
 10
2.74421260E+02
 20
-3.35856582E+02
  0
VERTEX
  8
0
 62
4
 10
2.74502585E+02
 20
-3.35731716E+02
  0
VERTEX
  8
0
 62
4
 10
2.74572475E+02
 20
-3.35600393E+02
  0
VERTEX
  8
0
 62
4
 10
2.74630398E+02
 20
-3.35463611E+02
  0
VERTEX
  8
0
 62
4
 10
2.74675912E+02
 20
-3.35322411E+02
  0
VERTEX
  8
0
 62
4
 10
2.74708672E+02
 20
-3.35177869E+02
  0
VERTEX
  8
0
 62
4
 10
2.74728429E+02
 20
-3.35031084E+02
  0
VERTEX
  8
0
 62
4
 10
2.74735031E+02
 20
-3.34883173E+02
  0
SEQEND
  8
0
  0
POLYLINE
  8
0
 62
6
 66
1
  0
VERTEX
  8
0
 62
6
 10
2.74500031E+02
 20
-3.34878282E+02
  0
VERTEX
  8
0
 62
6
 10
2.74494323E+02
 20
-3.34750405E+02
  0
VERTEX
  8
0
 62
6
 10
2.74477243E+02
 20
-3.34623502E+02
  0
VERTEX
  8
0
 62
6
 10
2.74448920E+02
 20
-3.34498537E+02
  0
VERTEX
  8
0
 62
6
 10
2.74409570E+02
 20
-3.34376463E+02
  0
VERTEX
  8
0
 62
6
 10
2.74359493E+02
 20
-3.34258207E+02
  0
VERTEX
  8
0
 62
6
 10
2.74299069E+02
 20
-3.34144671E+02
  0
VERTEX
  8
0
 62
6
 10
2.74228759E+02
 20
-3.34036718E+02
  0
VERTEX
  8
0
 62
6
 10
2.74149098E+02
 20
-3.33935170E+02
  0
VERTEX
  8
0
 62
6
 10
2.74060691E+02
 20
-3.33840800E+02
  0
VERTEX
  8
0
 62
6
 10
2.73964212E+02
 20
-3.33754325E+02
  0
VERTEX
  8
0
 62
6
 10
2.73860396E+02
 20
-3.33676405E+02
  0
VERTEX
  8
0
 62
6
 10
2.73750031E+02
 20
-3.33607631E+02
  0
VERTEX
  8
0
 62
6
 10
2.73633958E+02
 20
-3.33548528E+02
  0
VERTEX
  8
0
 62
6
 10
2.73513061E+02
 20
-3.33499545E+02
  0
VERTEX
  8
0
 62
6
 10
2.73388260E+02
 20
-3.33461055E+02
  0
VERTEX
  8
0
 62
6
 10
2.73260503E+02
 20
-3.33433351E+02
  0
VERTEX
  8
0
 62
6
 10
2.73130765E+02
 20
-3.33416644E+02
  0
VERTEX
  8
0
 62
6
 10
2.73000031E+02
 20
-3.33411061E+02
  0
VERTEX
  8
0
 62
6
 10
2.72869297E+02
 20
-3.33416644E+02
  0
VERTEX
  8
0
 62
6
 10
2.72739559E+02
 20
-3.33433351E+02
  0
VERTEX
  8
0
 62
6
 10
2.72611802E+02
 20
-3.33461055E+02
  0
VERTEX
  8
0
 62
6
 10
2.72487001E+02
 20
-3.33499545E+02
  0
VERTEX
  8
0
 62
6
 10
2.72366104E+02
 20
-3.33548528E+02
  0
VERTEX
  8
0
 62
6
 10
2.72250031E+02
 20
-3.33607631E+02
  0
VERTEX
  8
0
 62
6
 10
2.72139666E+02
 20
-3.33676405E+02
  0
VERTEX
  8
0
 62
6
 10
2.72035850E+02
 20
-3.33754325E+02
  0
VERTEX
  8
0
 62
6
 10
2.71939371E+02
 20
-3.33840800E+02
  0
VERTEX
  8
0
 62
6
 10
2.71850964E+02
 20
-3.33935170E+02
  0
VERTEX
  8
0
 62
6
 10
2.71771303E+02
 20
-3.34036718E+02
  0
VERTEX
  8
0
 62
6
 10
2.71700993E+02
 20
-3.34144671E+02
  0
VERTEX
  8
0
 62
6
 10
2.71640569E+02
 20
-3.34258207E+02
  0
VERTEX
  8
0
 62
6
 10
2.71590492E+02
 20
-3.34376463E+02
  0
VERTEX
  8
0
 62
6
 10
2.71551142E+02
 20
-3.34498537E+02
  0
VERTEX
  8
0
 62
6
 10
2.71522819E+02
 20
-3.34623502E+02
  0
VERTEX
  8
0
 62
6
 10
2.71505739E+02
 20
-3.34750405E+02
  0
VERTEX
  8
0
 62
6
 10
2.71500031E+02
 20
-3.34878282E+02
  0
VERTEX
  8
0
 62
6
 10
2.71505739E+02
 20
-3.35006159E+02
  0
VERTEX
  8
0
 62
6
 10
2.71522819E+02
 20
-3.35133062E+02
  0
VERTEX
  8
0
 62
6
 10
2.71551142E+02
 20
-3.35258027E+02
  0
VERTEX
  8
0
 62
6
 10
2.71590492E+02
 20
-3.35380101E+02
  0
VERTEX
  8
0
 62
6
 10
2.71640569E+02
 20
-3.35498357E+02
  0
VERTEX
  8
0
 62
6
 10
2.71700993E+02
 20
-3.35611893E+02
  0
VERTEX
  8
0
 62
6
 10
2.71771303E+02
 20
-3.35719846E+02
  0
VERTEX
  8
0
 62
6
 10
2.71850964E+02
 20
-3.35821394E+02
  0
VERTEX
  8
0
 62
6
 10
2.71939371E+02
 20
-3.35915764E+02
  0
VERTEX
  8
0
 62
6
 10
2.72035850E+02
 20
-3.36002239E+02
  0
VERTEX
  8
0
 62
6
 10
2.72139666E+02
 20
-3.36080159E+02
  0
VERTEX
  8
0
 62
6
 10
2.72250031E+02
 20
-3.36148933E+02
  0
VERTEX
  8
0
 62
6
 10
2.72366104E+02
 20
-3.36208036E+02
  0
VERTEX
  8
0
 62
6
 10
2.72487001E+02
 20
-3.36257019E+02
  0
VERTEX
  8
0
 62
6
 10
2.72611802E+02
 20
-3.36295509E+02
  0
VERTEX
  8
0
 62
6
 10
2.72739559E+02
 20
-3.36323213E+02
  0
VERTEX
  8
0
 62
6
 10
2.72869297E+02
 20
-3.36339920E+02
  0
VERTEX
  8
0
 62
6
 10
2.73000031E+02
 20
-3.36345503E+02
  0
VERTEX
  8
0
 62
6
 10
2.73130765E+02
 20
-3.36339920E+02
  0
VERTEX
  8
0
 62
6
 10
2.73260503E+02
 20
-3.36323213E+02
  0
VERTEX
  8
0
 62
6
 10
2.73388260E+02
 20
-3.36295509E+02
  0
VERTEX
  8
0
 62
6
 10
2.73513061E+02
 20
-3.36257019E+02
  0
VERTEX
  8
0
 62
6
 10
2.73633958E+02
 20
-3.36208036E+02
  0
VERTEX
  8
0
 62
6
 10
2.73750031E+02
 20
-3.36148933E+02
  0
VERTEX
  8
0
 62
6
 10
2.73860396E+02
 20
-3.36080159E+02
  0
VERTEX
  8
0
 62
6
 10
2.73964212E+02
 20
-3.36002239E+02
  0
VERTEX
  8
0
 62
6
 10
2.74060691E+02
 20
-3.35915764E+02
  0
VERTEX
  8
0
 62
6
 10
2.74149098E+02
 20
-3.35821394E+02
  0
VERTEX
  8
0
 62
6
 10
2.74228759E+02
 20
-3.35719846E+02
  0
VERTEX
  8
0
 62
6
 10
2.74299069E+02
 20
-3.35611893E+02
  0
VERTEX
  8
0
 62
6
 10
2.74359493E+02
 20
-3.35498357E+02
  0
VERTEX
  8
0
 62
6
 10
2.74409570E+02
 20
-3.35380101E+02
  0
VERTEX
  8
0
 62
6
 10
2.74448920E+02
 20
-3.35258027E+02
  0
VERTEX
  8
0
 62
6
 10
2.74477243E+02
 20
-3.35133062E+02
  0
VERTEX
  8
0
 62
6
 10
2.74494323E+02
 20
-3.35006159E+02
  0
VERTEX
  8
0
 62
6
 10
2.74500031E+02
 20
-3.34878282E+02
  0
SEQEND
  8
0
  0
LINE
  8
0
  6
CENTER
 62
6
 10
2.70077763E+02
 20
-3.34878282E+02
 11
2.83922298E+02
 21
-3.34878282E+02
  0
LINE
  8
0
  6
CENTER
 62
6
 10
2.81000031E+02
 20
-3.31956014E+02
 11
2.81000031E+02
 21
-3.37800550E+02
  0
POLYLINE
  8
0
 62
4
 66
1
  0
VERTEX
  8
0
 62
4
 10
2.81000031E+02
 20
-3.36626665E+02
  0
VERTEX
  8
0
 62
4
 10
2.81174342E+02
 20
-3.36618782E+02
  0
VERTEX
  8
0
 62
4
 10
2.81347327E+02
 20
-3.36595191E+02
  0
VERTEX
  8
0
 62
4
 10
2.81517669E+02
 20
-3.36556073E+02
  0
VERTEX
  8
0
 62
4
 10
2.81684071E+02
 20
-3.36501725E+02
  0
VERTEX
  8
0
 62
4
 10
2.81845268E+02
 20
-3.36432561E+02
  0
VERTEX
  8
0
 62
4
 10
2.82000031E+02
 20
-3.36349108E+02
  0
VERTEX
  8
0
 62
4
 10
2.82147184E+02
 20
-3.36251999E+02
  0
VERTEX
  8
0
 62
4
 10
2.82285606E+02
 20
-3.36141975E+02
  0
VERTEX
  8
0
 62
4
 10
2.82414245E+02
 20
-3.36019873E+02
  0
VERTEX
  8
0
 62
4
 10
2.82532120E+02
 20
-3.35886622E+02
  0
VERTEX
  8
0
 62
4
 10
2.82638335E+02
 20
-3.35743236E+02
  0
VERTEX
  8
0
 62
4
 10
2.82732082E+02
 20
-3.35590806E+02
  0
VERTEX
  8
0
 62
4
 10
2.82812647E+02
 20
-3.35430493E+02
  0
VERTEX
  8
0
 62
4
 10
2.82879416E+02
 20
-3.35263516E+02
  0
VERTEX
  8
0
 62
4
 10
2.82931883E+02
 20
-3.35091147E+02
  0
VERTEX
  8
0
 62
4
 10
2.82969647E+02
 20
-3.34914697E+02
  0
VERTEX
  8
0
 62
4
 10
2.82992420E+02
 20
-3.34735509E+02
  0
VERTEX
  8
0
 62
4
 10
2.83000031E+02
 20
-3.34554947E+02
  0
VERTEX
  8
0
 62
4
 10
2.82992420E+02
 20
-3.34374385E+02
  0
VERTEX
  8
0
 62
4
 10
2.82969647E+02
 20
-3.34195197E+02
  0
VERTEX
  8
0
 62
4
 10
2.82931883E+02
 20
-3.34018747E+02
  0
VERTEX
  8
0
 62
4
 10
2.82879416E+02
 20
-3.33846378E+02
  0
VERTEX
  8
0
 62
4
 10
2.82812647E+02
 20
-3.33679401E+02
  0
VERTEX
  8
0
 62
4
 10
2.82732082E+02
 20
-3.33519088E+02
  0
VERTEX
  8
0
 62
4
 10
2.82638335E+02
 20
-3.33366658E+02
  0
VERTEX
  8
0
 62
4
 10
2.82532120E+02
 20
-3.33223272E+02
  0
VERTEX
  8
0
 62
4
 10
2.82414245E+02
 20
-3.33090021E+02
  0
VERTEX
  8
0
 62
4
 10
2.82285606E+02
 20
-3.32967919E+02
  0
VERTEX
  8
0
 62
4
 10
2.82147184E+02
 20
-3.32857895E+02
  0
VERTEX
  8
0
 62
4
 10
2.82000031E+02
 20
-3.32760786E+02
  0
VERTEX
  8
0
 62
4
 10
2.81845268E+02
 20
-3.32677333E+02
  0
VERTEX
  8
0
 62
4
 10
2.81684071E+02
 20
-3.32608169E+02
  0
VERTEX
  8
0
 62
4
 10
2.81517669E+02
 20
-3.32553821E+02
  0
VERTEX
  8
0
 62
4
 10
2.81347327E+02
 20
-3.32514703E+02
  0
VERTEX
  8
0
 62
4
 10
2.81174342E+02
 20
-3.32491112E+02
  0
VERTEX
  8
0
 62
4
 10
2.81000031E+02
 20
-3.32483229E+02
  0
VERTEX
  8
0
 62
4
 10
2.80825720E+02
 20
-3.32491112E+02
  0
VERTEX
  8
0
 62
4
 10
2.80652735E+02
 20
-3.32514703E+02
  0
VERTEX
  8
0
 62
4
 10
2.80482393E+02
 20
-3.32553821E+02
  0
VERTEX
  8
0
 62
4
 10
2.80315991E+02
 20
-3.32608169E+02
  0
VERTEX
  8
0
 62
4
 10
2.80154794E+02
 20
-3.32677333E+02
  0
VERTEX
  8
0
 62
4
 10
2.80000031E+02
 20
-3.32760786E+02
  0
VERTEX
  8
0
 62
4
 10
2.79852878E+02
 20
-3.32857895E+02
  0
VERTEX
  8
0
 62
4
 10
2.79714456E+02
 20
-3.32967919E+02
  0
VERTEX
  8
0
 62
4
 10
2.79585817E+02
 20
-3.33090021E+02
  0
VERTEX
  8
0
 62
4
 10
2.79467942E+02
 20
-3.33223272E+02
  0
VERTEX
  8
0
 62
4
 10
2.79361727E+02
 20
-3.33366658E+02
  0
VERTEX
  8
0
 62
4
 10
2.79267980E+02
 20
-3.33519088E+02
  0
VERTEX
  8
0
 62
4
 10
2.79187415E+02
 20
-3.33679401E+02
  0
VERTEX
  8
0
 62
4
 10
2.79120646E+02
 20
-3.33846378E+02
  0
VERTEX
  8
0
 62
4
 10
2.79068179E+02
 20
-3.34018747E+02
  0
VERTEX
  8
0
 62
4
 10
2.79030415E+02
 20
-3.34195197E+02
  0
VERTEX
  8
0
 62
4
 10
2.79007642E+02
 20
-3.34374385E+02
  0
VERTEX
  8
0
 62
4
 10
2.79000031E+02
 20
-3.34554947E+02
  0
VERTEX
  8
0
 62
4
 10
2.79007642E+02
 20
-3.34735509E+02
  0
VERTEX
  8
0
 62
4
 10
2.79030415E+02
 20
-3.34914697E+02
  0
VERTEX
  8
0
 62
4
 10
2.79068179E+02
 20
-3.35091147E+02
  0
VERTEX
  8
0
 62
4
 10
2.79120646E+02
 20
-3.35263516E+02
  0
VERTEX
  8
0
 62
4
 10
2.79187415E+02
 20
-3.35430493E+02
  0
VERTEX
  8
0
 62
4
 10
2.79267980E+02
 20
-3.35590806E+02
  0
VERTEX
  8
0
 62
4
 10
2.79361727E+02
 20
-3.35743236E+02
  0
VERTEX
  8
0
 62
4
 10
2.79467942E+02
 20
-3.35886622E+02
  0
VERTEX
  8
0
 62
4
 10
2.79585817E+02
 20
-3.36019873E+02
  0
VERTEX
  8
0
 62
4
 10
2.79714456E+02
 20
-3.36141975E+02
  0
VERTEX
  8
0
 62
4
 10
2.79852878E+02
 20
-3.36251999E+02
  0
VERTEX
  8
0
 62
4
 10
2.80000031E+02
 20
-3.36349108E+02
  0
VERTEX
  8
0
 62
4
 10
2.80154794E+02
 20
-3.36432561E+02
  0
VERTEX
  8
0
 62
4
 10
2.80315991E+02
 20
-3.36501725E+02
  0
VERTEX
  8
0
 62
4
 10
2.80482393E+02
 20
-3.36556073E+02
  0
VERTEX
  8
0
 62
4
 10
2.80652735E+02
 20
-3.36595191E+02
  0
VERTEX
  8
0
 62
4
 10
2.80825720E+02
 20
-3.36618782E+02
  0
VERTEX
  8
0
 62
4
 10
2.81000031E+02
 20
-3.36626665E+02
  0
SEQEND
  8
0
  0
POLYLINE
  8
0
 62
4
 66
1
  0
VERTEX
  8
0
 62
4
 10
2.82735031E+02
 20
-3.34883173E+02
  0
VERTEX
  8
0
 62
4
 10
2.82728429E+02
 20
-3.34735262E+02
  0
VERTEX
  8
0
 62
4
 10
2.82708672E+02
 20
-3.34588477E+02
  0
VERTEX
  8
0
 62
4
 10
2.82675912E+02
 20
-3.34443935E+02
  0
VERTEX
  8
0
 62
4
 10
2.82630398E+02
 20
-3.34302735E+02
  0
VERTEX
  8
0
 62
4
 10
2.82572475E+02
 20
-3.34165953E+02
  0
VERTEX
  8
0
 62
4
 10
2.82502585E+02
 20
-3.34034630E+02
  0
VERTEX
  8
0
 62
4
 10
2.82421260E+02
 20
-3.33909764E+02
  0
VERTEX
  8
0
 62
4
 10
2.82329118E+02
 20
-3.33792307E+02
  0
VERTEX
  8
0
 62
4
 10
2.82226861E+02
 20
-3.33683152E+02
  0
VERTEX
  8
0
 62
4
 10
2.82115268E+02
 20
-3.33583130E+02
  0
VERTEX
  8
0
 62
4
 10
2.81995186E+02
 20
-3.33493001E+02
  0
VERTEX
  8
0
 62
4
 10
2.81867531E+02
 20
-3.33413453E+02
  0
VERTEX
  8
0
 62
4
 10
2.81733274E+02
 20
-3.33345091E+02
  0
VERTEX
  8
0
 62
4
 10
2.81593436E+02
 20
-3.33288434E+02
  0
VERTEX
  8
0
 62
4
 10
2.81449082E+02
 20
-3.33243914E+02
  0
VERTEX
  8
0
 62
4
 10
2.81301311E+02
 20
-3.33211869E+02
  0
VERTEX
  8
0
 62
4
 10
2.81151246E+02
 20
-3.33192545E+02
  0
VERTEX
  8
0
 62
4
 10
2.81000031E+02
 20
-3.33186087E+02
  0
VERTEX
  8
0
 62
4
 10
2.80848816E+02
 20
-3.33192545E+02
  0
VERTEX
  8
0
 62
4
 10
2.80698751E+02
 20
-3.33211869E+02
  0
VERTEX
  8
0
 62
4
 10
2.80550980E+02
 20
-3.33243914E+02
  0
VERTEX
  8
0
 62
4
 10
2.80406626E+02
 20
-3.33288434E+02
  0
VERTEX
  8
0
 62
4
 10
2.80266788E+02
 20
-3.33345091E+02
  0
VERTEX
  8
0
 62
4
 10
2.80132531E+02
 20
-3.33413453E+02
  0
VERTEX
  8
0
 62
4
 10
2.80004876E+02
 20
-3.33493001E+02
  0
VERTEX
  8
0
 62
4
 10
2.79884794E+02
 20
-3.33583130E+02
  0
VERTEX
  8
0
 62
4
 10
2.79773201E+02
 20
-3.33683152E+02
  0
VERTEX
  8
0
 62
4
 10
2.79670944E+02
 20
-3.33792307E+02
  0
VERTEX
  8
0
 62
4
 10
2.79578802E+02
 20
-3.33909764E+02
  0
VERTEX
  8
0
 62
4
 10
2.79497477E+02
 20
-3.34034630E+02
  0
VERTEX
  8
0
 62
4
 10
2.79427587E+02
 20
-3.34165953E+02
  0
VERTEX
  8
0
 62
4
 10
2.79369664E+02
 20
-3.34302735E+02
  0
VERTEX
  8
0
 62
4
 10
2.79324150E+02
 20
-3.34443935E+02
  0
VERTEX
  8
0
 62
4
 10
2.79291390E+02
 20
-3.34588477E+02
  0
VERTEX
  8
0
 62
4
 10
2.79271633E+02
 20
-3.34735262E+02
  0
VERTEX
  8
0
 62
4
 10
2.79265031E+02
 20
-3.34883173E+02
  0
VERTEX
  8
0
 62
4
 10
2.79271633E+02
 20
-3.35031084E+02
  0
VERTEX
  8
0
 62
4
 10
2.79291390E+02
 20
-3.35177869E+02
  0
VERTEX
  8
0
 62
4
 10
2.79324150E+02
 20
-3.35322411E+02
  0
VERTEX
  8
0
 62
4
 10
2.79369664E+02
 20
-3.35463611E+02
  0
VERTEX
  8
0
 62
4
 10
2.79427587E+02
 20
-3.35600393E+02
  0
VERTEX
  8
0
 62
4
 10
2.79497477E+02
 20
-3.35731716E+02
  0
VERTEX
  8
0
 62
4
 10
2.79578802E+02
 20
-3.35856582E+02
  0
VERTEX
  8
0
 62
4
 10
2.79670944E+02
 20
-3.35974039E+02
  0
VERTEX
  8
0
 62
4
 10
2.79773201E+02
 20
-3.36083194E+02
  0
VERTEX
  8
0
 62
4
 10
2.79884794E+02
 20
-3.36183216E+02
  0
VERTEX
  8
0
 62
4
 10
2.80004876E+02
 20
-3.36273345E+02
  0
VERTEX
  8
0
 62
4
 10
2.80132531E+02
 20
-3.36352893E+02
  0
VERTEX
  8
0
 62
4
 10
2.80266788E+02
 20
-3.36421255E+02
  0
VERTEX
  8
0
 62
4
 10
2.80406626E+02
 20
-3.36477912E+02
  0
VERTEX
  8
0
 62
4
 10
2.80550980E+02
 20
-3.36522432E+02
  0
VERTEX
  8
0
 62
4
 10
2.80698751E+02
 20
-3.36554477E+02
  0
VERTEX
  8
0
 62
4
 10
2.80848816E+02
 20
-3.36573801E+02
  0
VERTEX
  8
0
 62
4
 10
2.81000031E+02
 20
-3.36580259E+02
  0
VERTEX
  8
0
 62
4
 10
2.81151246E+02
 20
-3.36573801E+02
  0
VERTEX
  8
0
 62
4
 10
2.81301311E+02
 20
-3.36554477E+02
  0
VERTEX
  8
0
 62
4
 10
2.81449082E+02
 20
-3.36522432E+02
  0
VERTEX
  8
0
 62
4
 10
2.81593436E+02
 20
-3.36477912E+02
  0
VERTEX
  8
0
 62
4
 10
2.81733274E+02
 20
-3.36421255E+02
  0
VERTEX
  8
0
 62
4
 10
2.81867531E+02
 20
-3.36352893E+02
  0
VERTEX
  8
0
 62
4
 10
2.81995186E+02
 20
-3.36273345E+02
  0
VERTEX
  8
0
 62
4
 10
2.82115268E+02
 20
-3.36183216E+02
  0
VERTEX
  8
0
 62
4
 10
2.82226861E+02
 20
-3.36083194E+02
  0
VERTEX
  8
0
 62
4
 10
2.82329118E+02
 20
-3.35974039E+02
  0
VERTEX
  8
0
 62
4
 10
2.82421260E+02
 20
-3.35856582E+02
  0
VERTEX
  8
0
 62
4
 10
2.82502585E+02
 20
-3.35731716E+02
  0
VERTEX
  8
0
 62
4
 10
2.82572475E+02
 20
-3.35600393E+02
  0
VERTEX
  8
0
 62
4
 10
2.82630398E+02
 20
-3.35463611E+02
  0
VERTEX
  8
0
 62
4
 10
2.82675912E+02
 20
-3.35322411E+02
  0
VERTEX
  8
0
 62
4
 10
2.82708672E+02
 20
-3.35177869E+02
  0
VERTEX
  8
0
 62
4
 10
2.82728429E+02
 20
-3.35031084E+02
  0
VERTEX
  8
0
 62
4
 10
2.82735031E+02
 20
-3.34883173E+02
  0
SEQEND
  8
0
  0
POLYLINE
  8
0
 62
6
 66
1
  0
VERTEX
  8
0
 62
6
 10
2.82500031E+02
 20
-3.34878282E+02
  0
VERTEX
  8
0
 62
6
 10
2.82494323E+02
 20
-3.34750405E+02
  0
VERTEX
  8
0
 62
6
 10
2.82477243E+02
 20
-3.34623502E+02
  0
VERTEX
  8
0
 62
6
 10
2.82448920E+02
 20
-3.34498537E+02
  0
VERTEX
  8
0
 62
6
 10
2.82409570E+02
 20
-3.34376463E+02
  0
VERTEX
  8
0
 62
6
 10
2.82359493E+02
 20
-3.34258207E+02
  0
VERTEX
  8
0
 62
6
 10
2.82299069E+02
 20
-3.34144671E+02
  0
VERTEX
  8
0
 62
6
 10
2.82228759E+02
 20
-3.34036718E+02
  0
VERTEX
  8
0
 62
6
 10
2.82149098E+02
 20
-3.33935170E+02
  0
VERTEX
  8
0
 62
6
 10
2.82060691E+02
 20
-3.33840800E+02
  0
VERTEX
  8
0
 62
6
 10
2.81964212E+02
 20
-3.33754325E+02
  0
VERTEX
  8
0
 62
6
 10
2.81860396E+02
 20
-3.33676405E+02
  0
VERTEX
  8
0
 62
6
 10
2.81750031E+02
 20
-3.33607631E+02
  0
VERTEX
  8
0
 62
6
 10
2.81633958E+02
 20
-3.33548528E+02
  0
VERTEX
  8
0
 62
6
 10
2.81513061E+02
 20
-3.33499545E+02
  0
VERTEX
  8
0
 62
6
 10
2.81388260E+02
 20
-3.33461055E+02
  0
VERTEX
  8
0
 62
6
 10
2.81260503E+02
 20
-3.33433351E+02
  0
VERTEX
  8
0
 62
6
 10
2.81130765E+02
 20
-3.33416644E+02
  0
VERTEX
  8
0
 62
6
 10
2.81000031E+02
 20
-3.33411061E+02
  0
VERTEX
  8
0
 62
6
 10
2.80869297E+02
 20
-3.33416644E+02
  0
VERTEX
  8
0
 62
6
 10
2.80739559E+02
 20
-3.33433351E+02
  0
VERTEX
  8
0
 62
6
 10
2.80611802E+02
 20
-3.33461055E+02
  0
VERTEX
  8
0
 62
6
 10
2.80487001E+02
 20
-3.33499545E+02
  0
VERTEX
  8
0
 62
6
 10
2.80366104E+02
 20
-3.33548528E+02
  0
VERTEX
  8
0
 62
6
 10
2.80250031E+02
 20
-3.33607631E+02
  0
VERTEX
  8
0
 62
6
 10
2.80139666E+02
 20
-3.33676405E+02
  0
VERTEX
  8
0
 62
6
 10
2.80035850E+02
 20
-3.33754325E+02
  0
VERTEX
  8
0
 62
6
 10
2.79939371E+02
 20
-3.33840800E+02
  0
VERTEX
  8
0
 62
6
 10
2.79850964E+02
 20
-3.33935170E+02
  0
VERTEX
  8
0
 62
6
 10
2.79771303E+02
 20
-3.34036718E+02
  0
VERTEX
  8
0
 62
6
 10
2.79700993E+02
 20
-3.34144671E+02
  0
VERTEX
  8
0
 62
6
 10
2.79640569E+02
 20
-3.34258207E+02
  0
VERTEX
  8
0
 62
6
 10
2.79590492E+02
 20
-3.34376463E+02
  0
VERTEX
  8
0
 62
6
 10
2.79551142E+02
 20
-3.34498537E+02
  0
VERTEX
  8
0
 62
6
 10
2.79522819E+02
 20
-3.34623502E+02
  0
VERTEX
  8
0
 62
6
 10
2.79505739E+02
 20
-3.34750405E+02
  0
VERTEX
  8
0
 62
6
 10
2.79500031E+02
 20
-3.34878282E+02
  0
VERTEX
  8
0
 62
6
 10
2.79505739E+02
 20
-3.35006159E+02
  0
VERTEX
  8
0
 62
6
 10
2.79522819E+02
 20
-3.35133062E+02
  0
VERTEX
  8
0
 62
6
 10
2.79551142E+02
 20
-3.35258027E+02
  0
VERTEX
  8
0
 62
6
 10
2.79590492E+02
 20
-3.35380101E+02
  0
VERTEX
  8
0
 62
6
 10
2.79640569E+02
 20
-3.35498357E+02
  0
VERTEX
  8
0
 62
6
 10
2.79700993E+02
 20
-3.35611893E+02
  0
VERTEX
  8
0
 62
6
 10
2.79771303E+02
 20
-3.35719846E+02
  0
VERTEX
  8
0
 62
6
 10
2.79850964E+02
 20
-3.35821394E+02
  0
VERTEX
  8
0
 62
6
 10
2.79939371E+02
 20
-3.35915764E+02
  0
VERTEX
  8
0
 62
6
 10
2.80035850E+02
 20
-3.36002239E+02
  0
VERTEX
  8
0
 62
6
 10
2.80139666E+02
 20
-3.36080159E+02
  0
VERTEX
  8
0
 62
6
 10
2.80250031E+02
 20
-3.36148933E+02
  0
VERTEX
  8
0
 62
6
 10
2.80366104E+02
 20
-3.36208036E+02
  0
VERTEX
  8
0
 62
6
 10
2.80487001E+02
 20
-3.36257019E+02
  0
VERTEX
  8
0
 62
6
 10
2.80611802E+02
 20
-3.36295509E+02
  0
VERTEX
  8
0
 62
6
 10
2.80739559E+02
 20
-3.36323213E+02
  0
VERTEX
  8
0
 62
6
 10
2.80869297E+02
 20
-3.36339920E+02
  0
VERTEX
  8
0
 62
6
 10
2.81000031E+02
 20
-3.36345503E+02
  0
VERTEX
  8
0
 62
6
 10
2.81130765E+02
 20
-3.36339920E+02
  0
VERTEX
  8
0
 62
6
 10
2.81260503E+02
 20
-3.36323213E+02
  0
VERTEX
  8
0
 62
6
 10
2.81388260E+02
 20
-3.36295509E+02
  0
VERTEX
  8
0
 62
6
 10
2.81513061E+02
 20
-3.36257019E+02
  0
VERTEX
  8
0
 62
6
 10
2.81633958E+02
 20
-3.36208036E+02
  0
VERTEX
  8
0
 62
6
 10
2.81750031E+02
 20
-3.36148933E+02
  0
VERTEX
  8
0
 62
6
 10
2.81860396E+02
 20
-3.36080159E+02
  0
VERTEX
  8
0
 62
6
 10
2.81964212E+02
 20
-3.36002239E+02
  0
VERTEX
  8
0
 62
6
 10
2.82060691E+02
 20
-3.35915764E+02
  0
VERTEX
  8
0
 62
6
 10
2.82149098E+02
 20
-3.35821394E+02
  0
VERTEX
  8
0
 62
6
 10
2.82228759E+02
 20
-3.35719846E+02
  0
VERTEX
  8
0
 62
6
 10
2.82299069E+02
 20
-3.35611893E+02
  0
VERTEX
  8
0
 62
6
 10
2.82359493E+02
 20
-3.35498357E+02
  0
VERTEX
  8
0
 62
6
 10
2.82409570E+02
 20
-3.35380101E+02
  0
VERTEX
  8
0
 62
6
 10
2.82448920E+02
 20
-3.35258027E+02
  0
VERTEX
  8
0
 62
6
 10
2.82477243E+02
 20
-3.35133062E+02
  0
VERTEX
  8
0
 62
6
 10
2.82494323E+02
 20
-3.35006159E+02
  0
VERTEX
  8
0
 62
6
 10
2.82500031E+02
 20
-3.34878282E+02
  0
SEQEND
  8
0
  0
LINE
  8
0
 62
4
 10
2.86000031E+02
 20
-3.26682647E+02
 11
2.84500031E+02
 21
-3.26682647E+02
  0
LINE
  8
0
 62
4
 10
2.69500031E+02
 20
-3.26682647E+02
 11
2.53000031E+02
 21
-3.26682647E+02
  0
LINE
  8
0
 62
4
 10
2.53000031E+02
 20
-3.26682647E+02
 11
2.50000031E+02
 21
-3.23393792E+02
  0
LINE
  8
0
 62
4
 10
2.86000031E+02
 20
-3.26682647E+02
 11
2.89000031E+02
 21
-3.23393792E+02
  0
ARC
  8
0
 62
4
 10
2.51499531E+02
 20
-3.09701298E+02
 40
1.49950029E+00
 50
8.99809029E+01
 51
1.80019097E+02
  0
LINE
  8
0
 62
4
 10
2.87500031E+02
 20
-3.08201798E+02
 11
2.51500031E+02
 21
-3.08201798E+02
  0
ARC
  8
0
 62
4
 10
2.87500530E+02
 20
-3.09701298E+02
 40
1.49950029E+00
 50
3.59980903E+02
 51
9.00190969E+01
  0
LINE
  8
0
 62
4
 10
2.69500031E+02
 20
-3.04196662E+02
 11
2.51500031E+02
 21
-3.04196662E+02
  0
LINE
  8
0
  6
CENTER
 62
6
 10
2.61000031E+02
 20
-3.03165524E+02
 11
2.61000031E+02
 21
-3.05248490E+02
  0
POLYLINE
  8
0
 62
4
 66
1
  0
VERTEX
  8
0
 62
4
 10
2.64140031E+02
 20
-3.05248490E+02
  0
VERTEX
  8
0
 62
4
 10
2.64128082E+02
 20
-3.05191591E+02
  0
VERTEX
  8
0
 62
4
 10
2.64092327E+02
 20
-3.05135125E+02
  0
VERTEX
  8
0
 62
4
 10
2.64033038E+02
 20
-3.05079522E+02
  0
VERTEX
  8
0
 62
4
 10
2.63950666E+02
 20
-3.05025205E+02
  0
VERTEX
  8
0
 62
4
 10
2.63845837E+02
 20
-3.04972587E+02
  0
VERTEX
  8
0
 62
4
 10
2.63719351E+02
 20
-3.04922069E+02
  0
VERTEX
  8
0
 62
4
 10
2.63572168E+02
 20
-3.04874035E+02
  0
VERTEX
  8
0
 62
4
 10
2.63405411E+02
 20
-3.04828851E+02
  0
VERTEX
  8
0
 62
4
 10
2.63220346E+02
 20
-3.04786860E+02
  0
VERTEX
  8
0
 62
4
 10
2.63018384E+02
 20
-3.04748383E+02
  0
VERTEX
  8
0
 62
4
 10
2.62801061E+02
 20
-3.04713713E+02
  0
VERTEX
  8
0
 62
4
 10
2.62570031E+02
 20
-3.04683112E+02
  0
VERTEX
  8
0
 62
4
 10
2.62327052E+02
 20
-3.04656814E+02
  0
VERTEX
  8
0
 62
4
 10
2.62073974E+02
 20
-3.04635019E+02
  0
VERTEX
  8
0
 62
4
 10
2.61812723E+02
 20
-3.04617892E+02
  0
VERTEX
  8
0
 62
4
 10
2.61545286E+02
 20
-3.04605565E+02
  0
VERTEX
  8
0
 62
4
 10
2.61273700E+02
 20
-3.04598132E+02
  0
VERTEX
  8
0
 62
4
 10
2.61000031E+02
 20
-3.04595647E+02
  0
VERTEX
  8
0
 62
4
 10
2.60726362E+02
 20
-3.04598132E+02
  0
VERTEX
  8
0
 62
4
 10
2.60454776E+02
 20
-3.04605565E+02
  0
VERTEX
  8
0
 62
4
 10
2.60187339E+02
 20
-3.04617892E+02
  0
VERTEX
  8
0
 62
4
 10
2.59926088E+02
 20
-3.04635019E+02
  0
VERTEX
  8
0
 62
4
 10
2.59673010E+02
 20
-3.04656814E+02
  0
VERTEX
  8
0
 62
4
 10
2.59430031E+02
 20
-3.04683112E+02
  0
VERTEX
  8
0
 62
4
 10
2.59199001E+02
 20
-3.04713713E+02
  0
VERTEX
  8
0
 62
4
 10
2.58981678E+02
 20
-3.04748383E+02
  0
VERTEX
  8
0
 62
4
 10
2.58779716E+02
 20
-3.04786860E+02
  0
VERTEX
  8
0
 62
4
 10
2.58594651E+02
 20
-3.04828851E+02
  0
VERTEX
  8
0
 62
4
 10
2.58427894E+02
 20
-3.04874035E+02
  0
VERTEX
  8
0
 62
4
 10
2.58280711E+02
 20
-3.04922069E+02
  0
VERTEX
  8
0
 62
4
 10
2.58154225E+02
 20
-3.04972587E+02
  0
VERTEX
  8
0
 62
4
 10
2.58049396E+02
 20
-3.05025205E+02
  0
VERTEX
  8
0
 62
4
 10
2.57967024E+02
 20
-3.05079522E+02
  0
VERTEX
  8
0
 62
4
 10
2.57907735E+02
 20
-3.05135125E+02
  0
VERTEX
  8
0
 62
4
 10
2.57871980E+02
 20
-3.05191591E+02
  0
VERTEX
  8
0
 62
4
 10
2.57860031E+02
 20
-3.05248490E+02
  0
VERTEX
  8
0
 62
4
 10
2.57871980E+02
 20
-3.05305389E+02
  0
VERTEX
  8
0
 62
4
 10
2.57907735E+02
 20
-3.05361855E+02
  0
VERTEX
  8
0
 62
4
 10
2.57967024E+02
 20
-3.05417458E+02
  0
VERTEX
  8
0
 62
4
 10
2.58049396E+02
 20
-3.05471775E+02
  0
VERTEX
  8
0
 62
4
 10
2.58154225E+02
 20
-3.05524393E+02
  0
VERTEX
  8
0
 62
4
 10
2.58280711E+02
 20
-3.05574911E+02
  0
VERTEX
  8
0
 62
4
 10
2.58427894E+02
 20
-3.05622945E+02
  0
VERTEX
  8
0
 62
4
 10
2.58594651E+02
 20
-3.05668129E+02
  0
VERTEX
  8
0
 62
4
 10
2.58779716E+02
 20
-3.05710120E+02
  0
VERTEX
  8
0
 62
4
 10
2.58981678E+02
 20
-3.05748597E+02
  0
VERTEX
  8
0
 62
4
 10
2.59199001E+02
 20
-3.05783267E+02
  0
VERTEX
  8
0
 62
4
 10
2.59430031E+02
 20
-3.05813868E+02
  0
VERTEX
  8
0
 62
4
 10
2.59673010E+02
 20
-3.05840166E+02
  0
VERTEX
  8
0
 62
4
 10
2.59926088E+02
 20
-3.05861961E+02
  0
VERTEX
  8
0
 62
4
 10
2.60187339E+02
 20
-3.05879088E+02
  0
VERTEX
  8
0
 62
4
 10
2.60454776E+02
 20
-3.05891415E+02
  0
VERTEX
  8
0
 62
4
 10
2.60726362E+02
 20
-3.05898848E+02
  0
VERTEX
  8
0
 62
4
 10
2.61000031E+02
 20
-3.05901333E+02
  0
VERTEX
  8
0
 62
4
 10
2.61273700E+02
 20
-3.05898848E+02
  0
VERTEX
  8
0
 62
4
 10
2.61545286E+02
 20
-3.05891415E+02
  0
VERTEX
  8
0
 62
4
 10
2.61812723E+02
 20
-3.05879088E+02
  0
VERTEX
  8
0
 62
4
 10
2.62073974E+02
 20
-3.05861961E+02
  0
VERTEX
  8
0
 62
4
 10
2.62327052E+02
 20
-3.05840166E+02
  0
VERTEX
  8
0
 62
4
 10
2.62570031E+02
 20
-3.05813868E+02
  0
VERTEX
  8
0
 62
4
 10
2.62801061E+02
 20
-3.05783267E+02
  0
VERTEX
  8
0
 62
4
 10
2.63018384E+02
 20
-3.05748597E+02
  0
VERTEX
  8
0
 62
4
 10
2.63220346E+02
 20
-3.05710120E+02
  0
VERTEX
  8
0
 62
4
 10
2.63405411E+02
 20
-3.05668129E+02
  0
VERTEX
  8
0
 62
4
 10
2.63572168E+02
 20
-3.05622945E+02
  0
VERTEX
  8
0
 62
4
 10
2.63719351E+02
 20
-3.05574911E+02
  0
VERTEX
  8
0
 62
4
 10
2.63845837E+02
 20
-3.05524393E+02
  0
VERTEX
  8
0
 62
4
 10
2.63950666E+02
 20
-3.05471775E+02
  0
VERTEX
  8
0
 62
4
 10
2.64033038E+02
 20
-3.05417458E+02
  0
VERTEX
  8
0
 62
4
 10
2.64092327E+02
 20
-3.05361855E+02
  0
VERTEX
  8
0
 62
4
 10
2.64128082E+02
 20
-3.05305389E+02
  0
VERTEX
  8
0
 62
4
 10
2.64140031E+02
 20
-3.05248490E+02
  0
SEQEND
  8
0
  0
POLYLINE
  8
0
 62
4
 66
1
  0
VERTEX
  8
0
 62
4
 10
2.57540780E+02
 20
-3.06115919E+02
  0
VERTEX
  8
0
 62
4
 10
2.57507131E+02
 20
-3.06180309E+02
  0
VERTEX
  8
0
 62
4
 10
2.57501154E+02
 20
-3.06245067E+02
  0
VERTEX
  8
0
 62
4
 10
2.57522895E+02
 20
-3.06309678E+02
  0
VERTEX
  8
0
 62
4
 10
2.57572183E+02
 20
-3.06373632E+02
  0
VERTEX
  8
0
 62
4
 10
2.57648627E+02
 20
-3.06436421E+02
  0
VERTEX
  8
0
 62
4
 10
2.57751621E+02
 20
-3.06497548E+02
  0
VERTEX
  8
0
 62
4
 10
2.57880350E+02
 20
-3.06556529E+02
  0
VERTEX
  8
0
 62
4
 10
2.58033794E+02
 20
-3.06612896E+02
  0
VERTEX
  8
0
 62
4
 10
2.58210737E+02
 20
-3.06666204E+02
  0
VERTEX
  8
0
 62
4
 10
2.58409777E+02
 20
-3.06716029E+02
  0
VERTEX
  8
0
 62
4
 10
2.58629337E+02
 20
-3.06761977E+02
  0
VERTEX
  8
0
 62
4
 10
2.58867679E+02
 20
-3.06803684E+02
  0
VERTEX
  8
0
 62
4
 10
2.59122913E+02
 20
-3.06840819E+02
  0
VERTEX
  8
0
 62
4
 10
2.59393019E+02
 20
-3.06873089E+02
  0
VERTEX
  8
0
 62
4
 10
2.59675855E+02
 20
-3.06900237E+02
  0
VERTEX
  8
0
 62
4
 10
2.59969182E+02
 20
-3.06922050E+02
  0
VERTEX
  8
0
 62
4
 10
2.60270676E+02
 20
-3.06938352E+02
  0
VERTEX
  8
0
 62
4
 10
2.60577947E+02
 20
-3.06949017E+02
  0
VERTEX
  8
0
 62
4
 10
2.60888563E+02
 20
-3.06953959E+02
  0
VERTEX
  8
0
 62
4
 10
2.61200061E+02
 20
-3.06953139E+02
  0
VERTEX
  8
0
 62
4
 10
2.61509975E+02
 20
-3.06946563E+02
  0
VERTEX
  8
0
 62
4
 10
2.61815849E+02
 20
-3.06934284E+02
  0
VERTEX
  8
0
 62
4
 10
2.62115260E+02
 20
-3.06916398E+02
  0
VERTEX
  8
0
 62
4
 10
2.62405835E+02
 20
-3.06893049E+02
  0
VERTEX
  8
0
 62
4
 10
2.62685274E+02
 20
-3.06864420E+02
  0
VERTEX
  8
0
 62
4
 10
2.62951362E+02
 20
-3.06830738E+02
  0
VERTEX
  8
0
 62
4
 10
2.63201991E+02
 20
-3.06792270E+02
  0
VERTEX
  8
0
 62
4
 10
2.63435176E+02
 20
-3.06749322E+02
  0
VERTEX
  8
0
 62
4
 10
2.63649069E+02
 20
-3.06702232E+02
  0
VERTEX
  8
0
 62
4
 10
2.63841976E+02
 20
-3.06651375E+02
  0
VERTEX
  8
0
 62
4
 10
2.64012368E+02
 20
-3.06597153E+02
  0
VERTEX
  8
0
 62
4
 10
2.64158896E+02
 20
-3.06539996E+02
  0
VERTEX
  8
0
 62
4
 10
2.64280399E+02
 20
-3.06480356E+02
  0
VERTEX
  8
0
 62
4
 10
2.64375915E+02
 20
-3.06418706E+02
  0
VERTEX
  8
0
 62
4
 10
2.64444685E+02
 20
-3.06355535E+02
  0
VERTEX
  8
0
 62
4
 10
2.64486167E+02
 20
-3.06291342E+02
  0
VERTEX
  8
0
 62
4
 10
2.64500031E+02
 20
-3.06226637E+02
  0
SEQEND
  8
0
  0
LINE
  8
0
 62
4
 10
2.57860031E+02
 20
-3.05248490E+02
 11
2.57500031E+02
 21
-3.06226637E+02
  0
LINE
  8
0
 62
4
 10
2.64140031E+02
 20
-3.05248490E+02
 11
2.64500031E+02
 21
-3.06226637E+02
  0
ARC
  8
0
 62
7
 10
-4.18500000E+02
 20
-3.49500000E+02
 40
6.99998474E+00
 50
0.00000000E+00
 51
1.80000000E+02
  0
LINE
  8
0
  6
CENTER
 62
2
 10
-4.00000023E+02
 20
-3.22597351E+02
 11
-4.00000023E+02
 21
-3.38884338E+02
  0
LINE
  8
0
  6
CENTER
 62
2
 10
-3.91410118E+02
 20
-3.30999924E+02
 11
-4.06076988E+02
 21
-3.30999924E+02
  0
CIRCLE
  8
0
 62
7
 10
-3.95000000E+02
 20
-3.26000000E+02
 40
2.45850000E+00
  0
CIRCLE
  8
0
 62
7
 10
-4.42000061E+02
 20
-3.26000000E+02
 40
2.45850000E+00
  0
CIRCLE
  8
0
 62
7
 10
1.40000000E+02
 20
-3.30999924E+02
 40
2.45850000E+00
  0
CIRCLE
  8
0
 62
7
 10
1.02999939E+02
 20
-3.30999924E+02
 40
2.45850000E+00
  0
TEXT
  8
0
 62
7
 10
2.24881178E+02
 20
-3.98065984E+01
 40
9.00000000E+00
  1
725
 41
1.00000000E+00
  7
MONOTXT
  0
TEXT
  8
0
 62
7
 10
1.88881178E+02
 20
-3.98065984E+01
 40
9.00000000E+00
  1
625
 41
1.00000000E+00
  7
MONOTXT
  0
TEXT
  8
0
 62
7
 10
1.52881178E+02
 20
-3.98065984E+01
 40
9.00000000E+00
  1
525
 41
1.00000000E+00
  7
MONOTXT
  0
TEXT
  8
0
 62
7
 10
1.16881178E+02
 20
-3.98065984E+01
 40
9.00000000E+00
  1
425
 41
1.00000000E+00
  7
MONOTXT
  0
TEXT
  8
0
 62
7
 10
8.08811783E+01
 20
-3.98065984E+01
 40
9.00000000E+00
  1
375
 41
1.00000000E+00
  7
MONOTXT
  0
TEXT
  8
0
 62
7
 10
4.48811783E+01
 20
-3.98065984E+01
 40
9.00000000E+00
  1
325
 41
1.00000000E+00
  7
MONOTXT
  0
TEXT
  8
0
 62
7
 10
8.88117828E+00
 20
-3.98065984E+01
 40
9.00000000E+00
  1
275
 41
1.00000000E+00
  7
MONOTXT
  0
TEXT
  8
0
 62
7
 10
-2.71188217E+01
 20
-3.98065984E+01
 40
9.00000000E+00
  1
225
 41
1.00000000E+00
  7
MONOTXT
  0
TEXT
  8
0
 62
7
 10
-6.31188217E+01
 20
-3.98065984E+01
 40
9.00000000E+00
  1
175
 41
1.00000000E+00
  7
MONOTXT
  0
TEXT
  8
0
 62
7
 10
-9.91188220E+01
 20
-3.98065984E+01
 40
9.00000000E+00
  1
125
 41
1.00000000E+00
  7
MONOTXT
  0
TEXT
  8
0
 62
7
 10
-1.30618822E+02
 20
-3.98065984E+01
 40
9.00000000E+00
  1
75
 41
1.00000000E+00
  7
MONOTXT
  0
TEXT
  8
0
 62
7
 10
-1.66618822E+02
 20
-3.98065984E+01
 40
9.00000000E+00
  1
25
 41
1.00000000E+00
  7
MONOTXT
  0
TEXT
  8
0
 62
7
 10
-1.98118822E+02
 20
-3.98065984E+01
 40
9.00000000E+00
  1
0
 41
1.00000000E+00
  7
MONOTXT
  0
TEXT
  8
0
 62
7
 10
-2.43118822E+02
 20
-3.98065984E+01
 40
9.00000000E+00
  1
-25
 41
1.00000000E+00
  7
MONOTXT
  0
TEXT
  8
0
 62
7
 10
2.24881178E+02
 20
-2.48065984E+01
 40
9.00000000E+00
  1
800
 41
1.00000000E+00
  7
MONOTXT
  0
TEXT
  8
0
 62
7
 10
1.88881178E+02
 20
-2.48065984E+01
 40
9.00000000E+00
  1
700
 41
1.00000000E+00
  7
MONOTXT
  0
TEXT
  8
0
 62
7
 10
1.52881178E+02
 20
-2.48065984E+01
 40
9.00000000E+00
  1
600
 41
1.00000000E+00
  7
MONOTXT
  0
TEXT
  8
0
 62
7
 10
1.16881178E+02
 20
-2.48065984E+01
 40
9.00000000E+00
  1
500
 41
1.00000000E+00
  7
MONOTXT
  0
TEXT
  8
0
 62
7
 10
8.08811783E+01
 20
-2.48065984E+01
 40
9.00000000E+00
  1
450
 41
1.00000000E+00
  7
MONOTXT
  0
TEXT
  8
0
 62
7
 10
4.48811783E+01
 20
-2.48065984E+01
 40
9.00000000E+00
  1
400
 41
1.00000000E+00
  7
MONOTXT
  0
TEXT
  8
0
 62
7
 10
8.88117828E+00
 20
-2.48065984E+01
 40
9.00000000E+00
  1
350
 41
1.00000000E+00
  7
MONOTXT
  0
TEXT
  8
0
 62
7
 10
-2.71188217E+01
 20
-2.48065984E+01
 40
9.00000000E+00
  1
300
 41
1.00000000E+00
  7
MONOTXT
  0
TEXT
  8
0
 62
7
 10
-6.31188217E+01
 20
-2.48065984E+01
 40
9.00000000E+00
  1
250
 41
1.00000000E+00
  7
MONOTXT
  0
TEXT
  8
0
 62
7
 10
-9.91188220E+01
 20
-2.48065984E+01
 40
9.00000000E+00
  1
200
 41
1.00000000E+00
  7
MONOTXT
  0
TEXT
  8
0
 62
7
 10
-1.35118822E+02
 20
-2.48065984E+01
 40
9.00000000E+00
  1
150
 41
1.00000000E+00
  7
MONOTXT
  0
TEXT
  8
0
 62
7
 10
-1.71118822E+02
 20
-2.48065984E+01
 40
9.00000000E+00
  1
100
 41
1.00000000E+00
  7
MONOTXT
  0
TEXT
  8
0
 62
7
 10
-2.02618822E+02
 20
-2.48065984E+01
 40
9.00000000E+00
  1
75
 41
1.00000000E+00
  7
MONOTXT
  0
TEXT
  8
0
 62
7
 10
-2.38618822E+02
 20
-2.48065984E+01
 40
9.00000000E+00
  1
50
 41
1.00000000E+00
  7
MONOTXT
  0
LINE
  8
0
 62
7
 10
2.55396803E+02
 20
-4.28065984E+01
 11
2.55396803E+02
 21
-1.28065984E+01
  0
LINE
  8
0
 62
7
 10
2.19396803E+02
 20
-4.28065984E+01
 11
2.19396803E+02
 21
-1.28065984E+01
  0
LINE
  8
0
 62
7
 10
1.83396803E+02
 20
-4.28065984E+01
 11
1.83396803E+02
 21
-1.28065984E+01
  0
LINE
  8
0
 62
7
 10
1.47396803E+02
 20
-4.28065984E+01
 11
1.47396803E+02
 21
-1.28065984E+01
  0
LINE
  8
0
 62
7
 10
1.11396803E+02
 20
-4.28065984E+01
 11
1.11396803E+02
 21
-1.28065984E+01
  0
LINE
  8
0
 62
7
 10
7.53968033E+01
 20
-4.28065984E+01
 11
7.53968033E+01
 21
-1.28065984E+01
  0
LINE
  8
0
 62
7
 10
3.93968033E+01
 20
-4.28065984E+01
 11
3.93968033E+01
 21
-1.28065984E+01
  0
LINE
  8
0
 62
7
 10
3.39680328E+00
 20
-4.28065984E+01
 11
3.39680328E+00
 21
-1.28065984E+01
  0
LINE
  8
0
 62
7
 10
-3.26031967E+01
 20
-4.28065984E+01
 11
-3.26031967E+01
 21
-1.28065984E+01
  0
LINE
  8
0
 62
7
 10
-6.86031967E+01
 20
-4.28065984E+01
 11
-6.86031967E+01
 21
-1.28065984E+01
  0
LINE
  8
0
 62
7
 10
-1.04603197E+02
 20
-4.28065984E+01
 11
-1.04603197E+02
 21
-1.28065984E+01
  0
LINE
  8
0
 62
7
 10
-1.40603197E+02
 20
-4.28065984E+01
 11
-1.40603197E+02
 21
-1.28065984E+01
  0
LINE
  8
0
 62
7
 10
-1.76603197E+02
 20
-4.28065984E+01
 11
-1.76603197E+02
 21
-1.28065984E+01
  0
LINE
  8
0
 62
7
 10
-2.12603197E+02
 20
-4.28065984E+01
 11
-2.12603197E+02
 21
-1.28065984E+01
  0
TEXT
  8
0
 62
7
 10
-8.56188217E+01
 20
-7.30659836E+00
 40
9.00000000E+00
  1
STRETCH LIST
 41
1.05263158E+00
  7
MONOTXT
  0
TEXT
  8
0
 62
7
 10
2.18381178E+02
 20
-7.30659836E+00
 40
9.00000000E+00
  1
(mm)
 41
1.00000000E+00
  7
MONOTXT
  0
LINE
  8
0
 62
7
 10
-2.48603197E+02
 20
-4.28065984E+01
 11
-2.48603197E+02
 21
-1.28065984E+01
  0
LINE
  8
0
 62
7
 10
-3.20603197E+02
 20
-2.78065984E+01
 11
2.55396803E+02
 21
-2.78065984E+01
  0
TEXT
  8
0
 62
7
 10
-3.14817884E+02
 20
-3.98065984E+01
 40
9.00000000E+00
  1
STRETCH
 41
1.00000000E+00
  7
MONOTXT
  0
TEXT
  8
0
 62
7
 10
-3.10317884E+02
 20
-2.48065984E+01
 40
9.00000000E+00
  1
STROKE
 41
1.00000000E+00
  7
MONOTXT
  0
LINE
  8
0
 62
7
 10
-3.20603197E+02
 20
-4.28065984E+01
 11
-3.20603197E+02
 21
-1.28065984E+01
  0
LINE
  8
0
 62
7
 10
-3.20603197E+02
 20
-4.28065984E+01
 11
2.55396803E+02
 21
-4.28065984E+01
  0
LINE
  8
0
 62
7
 10
-3.20603197E+02
 20
-1.28065984E+01
 11
2.55396803E+02
 21
-1.28065984E+01
  0
LINE
  8
0
 62
7
 10
2.84500031E+02
 20
-3.33649994E+02
 11
2.92500031E+02
 21
-3.33649994E+02
  0
LINE
  8
0
  6
CENTER
 62
2
 10
2.84500031E+02
 20
-3.31000000E+02
 11
3.25603455E+02
 21
-3.31000000E+02
  0
LINE
  8
0
 62
7
 10
2.84500031E+02
 20
-3.28350006E+02
 11
2.92500000E+02
 21
-3.28350006E+02
  0
LINE
  8
0
 62
7
 10
2.86000031E+02
 20
-3.27500015E+02
 11
2.92500031E+02
 21
-3.27500015E+02
  0
LINE
  8
0
 62
2
 10
2.10737581E+02
 20
-3.53196612E+02
 11
2.27667851E+02
 21
-3.23872524E+02
  0
LINE
  8
0
 62
2
 10
4.85999954E+02
 20
-3.43320007E+02
 11
4.79500000E+02
 21
-3.43320007E+02
  0
LINE
  8
0
 62
7
 10
4.85999954E+02
 20
-3.42500015E+02
 11
4.79500000E+02
 21
-3.42500015E+02
  0
ARC
  8
0
 62
4
 10
5.07017474E+02
 20
-3.49500000E+02
 40
2.10175199E+01
 50
1.62412046E+02
 51
1.80000000E+02
  0
ARC
  8
0
 62
4
 10
4.91622764E+02
 20
-3.39973721E+02
 40
5.62281003E+00
 50
1.45615752E+02
 51
2.14384247E+02
  0
ARC
  8
0
 62
4
 10
4.72982434E+02
 20
-3.49500000E+02
 40
2.10175199E+01
 50
1.22042794E-07
 51
1.75879537E+01
  0
ARC
  8
0
 62
4
 10
4.88377144E+02
 20
-3.39973721E+02
 40
5.62281003E+00
 50
3.25615753E+02
 51
3.43842476E+01
  0
LINE
  8
0
 62
4
 10
4.85999954E+02
 20
-3.38500000E+02
 11
4.86982435E+02
 21
-3.36798294E+02
  0
LINE
  8
0
 62
4
 10
4.93999954E+02
 20
-3.38500000E+02
 11
4.93017474E+02
 21
-3.36798294E+02
  0
LINE
  8
0
 62
4
 10
4.85999954E+02
 20
-3.49500000E+02
 11
4.85999954E+02
 21
-3.38500000E+02
  0
LINE
  8
0
 62
4
 10
4.93999954E+02
 20
-3.49500000E+02
 11
4.93999954E+02
 21
-3.38500000E+02
  0
LINE
  8
0
 62
4
 10
4.93017474E+02
 20
-3.43149147E+02
 11
4.86982435E+02
 21
-3.43149147E+02
  0
LINE
  8
0
 62
4
 10
4.93017474E+02
 20
-3.36798294E+02
 11
4.86982435E+02
 21
-3.36798294E+02
  0
ARC
  8
0
 62
7
 10
4.76500000E+02
 20
-3.49500000E+02
 40
8.00000000E+00
 50
1.51044960E+02
 51
1.80000000E+02
  0
ARC
  8
0
 62
7
 10
4.53000000E+02
 20
-3.34000000E+02
 40
5.00000000E-01
 50
3.59721787E-05
 51
9.00000179E+01
  0
ARC
  8
0
 62
7
 10
4.66000031E+02
 20
-3.35000000E+02
 40
5.00000000E-01
 50
3.59721787E-05
 51
9.00000179E+01
  0
ARC
  8
0
 62
7
 10
4.61250000E+02
 20
-3.34491394E+02
 40
2.50000000E-01
 50
3.59721787E-05
 51
8.79992642E+01
  0
ARC
  8
0
 62
7
 10
4.12500015E+02
 20
-3.49500000E+02
 40
3.29999971E+00
 50
0.00000000E+00
 51
1.80000000E+02
  0
ARC
  8
0
 62
7
 10
4.12500015E+02
 20
-3.49500000E+02
 40
8.00000000E+00
 50
0.00000000E+00
 51
1.80000000E+02
  0
ARC
  8
0
 62
7
 10
4.12500015E+02
 20
-3.49500000E+02
 40
4.00000000E+00
 50
0.00000000E+00
 51
1.80000000E+02
  0
LINE
  8
0
 62
7
 10
4.73500008E+02
 20
-3.41499991E+02
 11
4.76500013E+02
 21
-3.42500023E+02
  0
LINE
  8
0
 62
7
 10
4.76499996E+02
 20
-3.49500004E+02
 11
4.73499997E+02
 21
-3.45627020E+02
  0
LINE
  8
0
  6
CENTER
 62
2
 10
3.05500031E+02
 20
-3.22747635E+02
 11
3.05500031E+02
 21
-3.33928238E+02
  0
LINE
  8
0
 62
7
 10
5.00499889E+02
 20
-3.44000101E+02
 11
4.98999942E+02
 21
-3.42500109E+02
  0
LINE
  8
0
 62
7
 10
4.79500000E+02
 20
-3.42500015E+02
 11
4.79500000E+02
 21
-3.49500000E+02
  0
LINE
  8
0
 62
7
 10
4.98999969E+02
 20
-3.42500015E+02
 11
4.98999969E+02
 21
-3.49500000E+02
  0
LINE
  8
0
 62
2
 10
4.99819916E+02
 20
-3.43320007E+02
 11
4.93999954E+02
 21
-3.43320007E+02
  0
LINE
  8
0
 62
7
 10
4.98999969E+02
 20
-3.42500015E+02
 11
4.93999954E+02
 21
-3.42500015E+02
  0
LINE
  8
0
 62
7
 10
5.00499969E+02
 20
-3.49500000E+02
 11
5.00499969E+02
 21
-3.44000015E+02
  0
LINE
  8
0
 62
7
 10
4.76500000E+02
 20
-3.49500000E+02
 11
4.76500000E+02
 21
-3.42500015E+02
  0
LINE
  8
0
 62
7
 10
4.73500000E+02
 20
-3.45627014E+02
 11
4.73500000E+02
 21
-3.41500031E+02
  0
LINE
  8
0
 62
7
 10
4.69500000E+02
 20
-3.49500000E+02
 11
4.69500000E+02
 21
-3.45627014E+02
  0
LINE
  8
0
 62
7
 10
4.61258718E+02
 20
-3.34241512E+02
 11
4.53499150E+02
 21
-3.33970542E+02
  0
LINE
  8
0
 62
2
 10
4.74884610E+02
 20
-3.47414535E+02
 11
4.72999985E+02
 21
-3.49500000E+02
  0
LINE
  8
0
 62
2
 10
4.72999972E+02
 20
-3.49500000E+02
 11
4.69499977E+02
 21
-3.45627020E+02
  0
LINE
  8
0
 62
7
 10
4.73500000E+02
 20
-3.41499985E+02
 11
4.66500031E+02
 21
-3.41499985E+02
  0
LINE
  8
0
 62
7
 10
4.73500000E+02
 20
-3.45627014E+02
 11
4.69500000E+02
 21
-3.45627014E+02
  0
LINE
  8
0
 62
7
 10
2.92500031E+02
 20
-3.24500000E+02
 11
2.92500031E+02
 21
-3.49500000E+02
  0
LINE
  8
0
 62
7
 10
4.61500000E+02
 20
-3.49500000E+02
 11
4.61500000E+02
 21
-3.34491394E+02
  0
LINE
  8
0
 62
7
 10
4.53500000E+02
 20
-3.34000000E+02
 11
4.53500000E+02
 21
-3.49500000E+02
  0
LINE
  8
0
 62
7
 10
4.66500000E+02
 20
-3.49500000E+02
 11
4.66500000E+02
 21
-3.35000000E+02
  0
LINE
  8
0
 62
7
 10
4.53000000E+02
 20
-3.33500000E+02
 11
4.51500000E+02
 21
-3.33500000E+02
  0
LINE
  8
0
 62
7
 10
3.18500031E+02
 20
-3.25154602E+02
 11
3.18500031E+02
 21
-3.24500000E+02
  0
LINE
  8
0
 62
7
 10
3.23500093E+02
 20
-3.25285581E+02
 11
2.92500069E+02
 21
-3.24473817E+02
  0
LINE
  8
0
 62
7
 10
3.18500031E+02
 20
-3.24500000E+02
 11
2.92500031E+02
 21
-3.24500000E+02
  0
LINE
  8
0
 62
7
 10
4.79500000E+02
 20
-3.43320007E+02
 11
4.76500000E+02
 21
-3.43320007E+02
  0
LINE
  8
0
 62
7
 10
4.66000031E+02
 20
-3.34499969E+02
 11
4.61491058E+02
 21
-3.34499969E+02
  0
LINE
  8
0
  6
CENTER
 62
2
 10
4.12500015E+02
 20
-3.38015656E+02
 11
4.12500015E+02
 21
-3.49500000E+02
  0
LINE
  8
0
 62
7
 10
3.51500000E+02
 20
-3.18500015E+02
 11
3.51500000E+02
 21
-3.49500000E+02
  0
LINE
  8
0
 62
7
 10
4.51500000E+02
 20
-3.18500015E+02
 11
4.51500000E+02
 21
-3.49500000E+02
  0
LINE
  8
0
 62
7
 10
4.10500000E+02
 20
-3.48345169E+02
 11
4.10500000E+02
 21
-3.49500000E+02
  0
LINE
  8
0
 62
7
 10
4.14499985E+02
 20
-3.49500000E+02
 11
4.14499985E+02
 21
-3.48345284E+02
  0
LINE
  8
0
 62
7
 10
4.24500031E+02
 20
-3.22000000E+02
 11
3.51500061E+02
 21
-3.22000000E+02
  0
LINE
  8
0
 62
7
 10
3.51500061E+02
 20
-3.18500015E+02
 11
3.23500031E+02
 21
-3.18500015E+02
  0
LINE
  8
0
 62
7
 10
3.23500031E+02
 20
-3.18500015E+02
 11
3.23500031E+02
 21
-3.49500000E+02
  0
LINE
  8
0
 62
7
 10
4.51500061E+02
 20
-3.18500015E+02
 11
4.24500031E+02
 21
-3.18500015E+02
  0
LINE
  8
0
 62
7
 10
4.24499985E+02
 20
-3.18500015E+02
 11
4.24499985E+02
 21
-3.49500000E+02
  0
LINE
  8
0
  6
CENTER
 62
2
 10
3.40500000E+02
 20
-3.34000000E+02
 11
3.40500000E+02
 21
-3.16951248E+02
  0
LINE
  8
0
 62
7
 10
4.10499862E+02
 20
-3.48345180E+02
 11
4.12499837E+02
 21
-3.47190494E+02
  0
LINE
  8
0
 62
7
 10
4.12499953E+02
 20
-3.47190624E+02
 11
4.14499927E+02
 21
-3.48345311E+02
  0
LINE
  8
0
 62
7
 10
4.15964249E+02
 20
-3.43499918E+02
 11
4.19428340E+02
 21
-3.49499908E+02
  0
LINE
  8
0
 62
7
 10
4.09035919E+02
 20
-3.43499992E+02
 11
4.15964172E+02
 21
-3.43499992E+02
  0
LINE
  8
0
 62
7
 10
4.09036021E+02
 20
-3.43500080E+02
 11
4.05571921E+02
 21
-3.49500086E+02
  0
LINE
  8
0
 62
7
 10
4.24499985E+02
 20
-3.23350006E+02
 11
3.51500000E+02
 21
-3.23350006E+02
  0
LINE
  8
0
  6
CENTER
 62
2
 10
4.53727020E+02
 20
-3.26000000E+02
 11
3.21866173E+02
 21
-3.26000000E+02
  0
LINE
  8
0
 62
7
 10
4.24499985E+02
 20
-3.28649994E+02
 11
3.51500000E+02
 21
-3.28649994E+02
  0
LINE
  8
0
  6
CENTER
 62
2
 10
5.03378906E+02
 20
-3.49500000E+02
 11
2.12871821E+02
 21
-3.49500000E+02
  0
LINE
  8
0
  6
CENTER
 62
2
 10
2.23552801E+02
 20
-3.31000000E+02
 11
2.69500031E+02
 21
-3.31000000E+02
  0
LINE
  8
0
 62
7
 10
2.25573518E+02
 20
-3.27500015E+02
 11
2.53000031E+02
 21
-3.27500015E+02
  0
LINE
  8
0
 62
7
 10
2.25082776E+02
 20
-3.28350006E+02
 11
2.69500031E+02
 21
-3.28350006E+02
  0
LINE
  8
0
 62
7
 10
2.22022826E+02
 20
-3.33649994E+02
 11
2.69500031E+02
 21
-3.33649994E+02
  0
LINE
  8
0
 62
2
 10
2.73432732E+00
 20
-3.52947573E+02
 11
2.29893373E+01
 21
-3.17864867E+02
  0
LINE
  8
0
 62
2
 10
-1.38939593E+01
 20
-2.01748690E+02
 11
2.29893830E+01
 21
-1.37864867E+02
  0
LINE
  8
0
  6
CENTER
 62
2
 10
-2.64999793E+01
 20
-1.51000000E+02
 11
1.54058104E+01
 21
-1.51000000E+02
  0
LINE
  8
0
 62
7
 10
-4.94999847E+01
 20
-1.54042072E+02
 11
-4.94999847E+01
 21
-1.44500000E+02
  0
LINE
  8
0
  6
CENTER
 62
2
 10
-6.99997925E+00
 20
-1.69500000E+02
 11
4.72483042E+00
 21
-1.69500000E+02
  0
LINE
  8
0
  6
CENTER
 62
2
 10
-7.71752930E+01
 20
-1.92999985E+02
 11
-2.12942627E+02
 21
-1.92999985E+02
  0
LINE
  8
0
 62
7
 10
-1.08499985E+02
 20
-1.90349991E+02
 11
-1.81500015E+02
 21
-1.90349991E+02
  0
LINE
  8
0
 62
7
 10
-1.08499985E+02
 20
-1.95649979E+02
 11
-1.81500015E+02
 21
-1.95649979E+02
  0
LINE
  8
0
 62
7
 10
-1.81499985E+02
 20
-3.28649994E+02
 11
-1.08500000E+02
 21
-3.28649994E+02
  0
LINE
  8
0
  6
CENTER
 62
2
 10
-2.10727020E+02
 20
-3.26000000E+02
 11
-7.88661728E+01
 21
-3.26000000E+02
  0
LINE
  8
0
 62
7
 10
-1.81499985E+02
 20
-3.23350006E+02
 11
-1.08500000E+02
 21
-3.23350006E+02
  0
LINE
  8
0
 62
7
 10
-1.66036021E+02
 20
-3.43500080E+02
 11
-1.62571921E+02
 21
-3.49500086E+02
  0
LINE
  8
0
 62
7
 10
-1.66035919E+02
 20
-3.43499992E+02
 11
-1.72964172E+02
 21
-3.43499992E+02
  0
LINE
  8
0
 62
7
 10
-1.72964249E+02
 20
-3.43499918E+02
 11
-1.76428340E+02
 21
-3.49499908E+02
  0
LINE
  8
0
 62
7
 10
-1.69499953E+02
 20
-3.47190624E+02
 11
-1.71499927E+02
 21
-3.48345311E+02
  0
LINE
  8
0
 62
7
 10
-1.67499862E+02
 20
-3.48345180E+02
 11
-1.69499837E+02
 21
-3.47190494E+02
  0
LINE
  8
0
  6
CENTER
 62
2
 10
-2.61539429E+02
 20
-1.69500000E+02
 11
-4.59999793E+01
 21
-1.69500000E+02
  0
LINE
  8
0
  6
CENTER
 62
2
 10
-9.75000000E+01
 20
-1.73515778E+02
 11
-9.75000000E+01
 21
-1.53355774E+02
  0
LINE
  8
0
  6
CENTER
 62
2
 10
-1.07616730E+02
 20
-1.63500000E+02
 11
-8.75516052E+01
 21
-1.63500000E+02
  0
LINE
  8
0
 62
7
 10
-2.08499985E+02
 20
-1.38500000E+02
 11
-1.81500015E+02
 21
-1.38500000E+02
  0
LINE
  8
0
 62
7
 10
-8.04999847E+01
 20
-2.00499985E+02
 11
-8.04999847E+01
 21
-1.38500000E+02
  0
LINE
  8
0
 62
7
 10
-1.08500015E+02
 20
-1.38500000E+02
 11
-8.05000305E+01
 21
-1.38500000E+02
  0
LINE
  8
0
  6
CENTER
 62
2
 10
-2.60378906E+02
 20
-3.49500000E+02
 11
4.72478465E+00
 21
-3.49500000E+02
  0
LINE
  8
0
  6
CENTER
 62
2
 10
-9.75000000E+01
 20
-3.34000000E+02
 11
-9.75000000E+01
 21
-3.16951248E+02
  0
LINE
  8
0
 62
7
 10
-1.77500031E+02
 20
-2.02000000E+02
 11
-1.61500015E+02
 21
-2.02000000E+02
  0
LINE
  8
0
 62
7
 10
-1.61499985E+02
 20
-1.96499985E+02
 11
-1.61499985E+02
 21
-2.01999969E+02
  0
LINE
  8
0
 62
7
 10
-1.77500031E+02
 20
-1.96499985E+02
 11
-1.77500031E+02
 21
-2.01999969E+02
  0
LINE
  8
0
 62
7
 10
-1.72800018E+02
 20
-2.13499985E+02
 11
-1.66199982E+02
 21
-2.13499985E+02
  0
LINE
  8
0
 62
7
 10
-1.75250015E+02
 20
-2.08499985E+02
 11
-1.63750000E+02
 21
-2.08499985E+02
  0
LINE
  8
0
 62
7
 10
-1.62550003E+02
 20
-2.01999969E+02
 11
-1.62550003E+02
 21
-2.07807159E+02
  0
LINE
  8
0
 62
7
 10
-1.76450012E+02
 20
-2.01999969E+02
 11
-1.76450012E+02
 21
-2.07807159E+02
  0
LINE
  8
0
 62
7
 10
-1.63749860E+02
 20
-2.08500161E+02
 11
-1.62549865E+02
 21
-2.07807343E+02
  0
LINE
  8
0
 62
7
 10
-1.76450049E+02
 20
-2.07807175E+02
 11
-1.75250040E+02
 21
-2.08500000E+02
  0
LINE
  8
0
 62
7
 10
-1.72974976E+02
 20
-2.01999969E+02
 11
-1.72974976E+02
 21
-2.07807159E+02
  0
LINE
  8
0
 62
7
 10
-1.66025009E+02
 20
-2.01999969E+02
 11
-1.66025009E+02
 21
-2.07807159E+02
  0
LINE
  8
0
 62
7
 10
-1.73499985E+02
 20
-2.08499985E+02
 11
-1.73499985E+02
 21
-2.12799957E+02
  0
LINE
  8
0
 62
7
 10
-1.65500000E+02
 20
-2.08499985E+02
 11
-1.65500000E+02
 21
-2.12799957E+02
  0
LINE
  8
0
 62
2
 10
-1.72800018E+02
 20
-2.08499985E+02
 11
-1.72800018E+02
 21
-2.13499985E+02
  0
LINE
  8
0
 62
2
 10
-1.66199982E+02
 20
-2.08499985E+02
 11
-1.66199982E+02
 21
-2.13499985E+02
  0
LINE
  8
0
 62
7
 10
-1.73499985E+02
 20
-2.12799988E+02
 11
-1.65500000E+02
 21
-2.12799988E+02
  0
LINE
  8
0
 62
7
 10
-1.73499986E+02
 20
-2.12799956E+02
 11
-1.72799958E+02
 21
-2.13499985E+02
  0
LINE
  8
0
 62
7
 10
-1.66199813E+02
 20
-2.13500137E+02
 11
-1.65499820E+02
 21
-2.12800144E+02
  0
LINE
  8
0
 62
7
 10
-1.77500031E+02
 20
-1.36999969E+02
 11
-1.61500015E+02
 21
-1.36999969E+02
  0
LINE
  8
0
 62
7
 10
-1.61499985E+02
 20
-1.42000000E+02
 11
-1.61499985E+02
 21
-1.37000000E+02
  0
LINE
  8
0
 62
7
 10
-1.77500031E+02
 20
-1.42000000E+02
 11
-1.77500031E+02
 21
-1.37000000E+02
  0
LINE
  8
0
 62
7
 10
-1.72800018E+02
 20
-1.25499969E+02
 11
-1.66199982E+02
 21
-1.25499969E+02
  0
LINE
  8
0
 62
7
 10
-1.75250015E+02
 20
-1.30499969E+02
 11
-1.63750000E+02
 21
-1.30499969E+02
  0
LINE
  8
0
 62
7
 10
-1.62550003E+02
 20
-1.37000000E+02
 11
-1.62550003E+02
 21
-1.31192810E+02
  0
LINE
  8
0
 62
7
 10
-1.76450012E+02
 20
-1.37000000E+02
 11
-1.76450012E+02
 21
-1.31192810E+02
  0
LINE
  8
0
 62
7
 10
-1.63750130E+02
 20
-1.30500030E+02
 11
-1.62550095E+02
 21
-1.31192871E+02
  0
LINE
  8
0
 62
7
 10
-1.76449806E+02
 20
-1.31193085E+02
 11
-1.75249797E+02
 21
-1.30500259E+02
  0
LINE
  8
0
 62
7
 10
-1.81499985E+02
 20
-3.18500015E+02
 11
-1.81499985E+02
 21
-3.49500000E+02
  0
LINE
  8
0
  6
CENTER
 62
2
 10
-7.77389297E+01
 20
-1.46000000E+02
 11
-2.12942627E+02
 21
-1.46000000E+02
  0
LINE
  8
0
 62
7
 10
-1.08499985E+02
 20
-1.48649994E+02
 11
-1.81500015E+02
 21
-1.48649994E+02
  0
LINE
  8
0
 62
7
 10
-1.66025009E+02
 20
-1.37000000E+02
 11
-1.66025009E+02
 21
-1.31192810E+02
  0
LINE
  8
0
 62
7
 10
-1.73499985E+02
 20
-1.30499969E+02
 11
-1.73499985E+02
 21
-1.26200012E+02
  0
LINE
  8
0
 62
7
 10
-1.65500000E+02
 20
-1.30499969E+02
 11
-1.65500000E+02
 21
-1.26200012E+02
  0
LINE
  8
0
 62
2
 10
-1.72800018E+02
 20
-1.30499969E+02
 11
-1.72800018E+02
 21
-1.25499969E+02
  0
LINE
  8
0
 62
2
 10
-1.66199982E+02
 20
-1.30499969E+02
 11
-1.66199982E+02
 21
-1.25499969E+02
  0
LINE
  8
0
 62
7
 10
-1.73499985E+02
 20
-1.26199982E+02
 11
-1.65500000E+02
 21
-1.26199982E+02
  0
LINE
  8
0
 62
7
 10
-1.73499771E+02
 20
-1.26200180E+02
 11
-1.72799758E+02
 21
-1.25500167E+02
  0
LINE
  8
0
 62
7
 10
-1.66199797E+02
 20
-1.25499984E+02
 11
-1.65499854E+02
 21
-1.26199926E+02
  0
LINE
  8
0
 62
7
 10
-2.08500061E+02
 20
-3.18500015E+02
 11
-1.81500031E+02
 21
-3.18500015E+02
  0
LINE
  8
0
 62
7
 10
-1.72974976E+02
 20
-1.37000000E+02
 11
-1.72974976E+02
 21
-1.31192810E+02
  0
LINE
  8
0
 62
7
 10
-8.05000305E+01
 20
-3.18500015E+02
 11
-8.05000305E+01
 21
-3.49500000E+02
  0
LINE
  8
0
 62
7
 10
-1.08500061E+02
 20
-3.18500015E+02
 11
-8.05000305E+01
 21
-3.18500015E+02
  0
LINE
  8
0
 62
7
 10
-1.81500031E+02
 20
-3.22000000E+02
 11
-1.08500061E+02
 21
-3.22000000E+02
  0
LINE
  8
0
 62
7
 10
-1.08499985E+02
 20
-1.38500000E+02
 11
-1.08499985E+02
 21
-2.00499985E+02
  0
LINE
  8
0
  6
CENTER
 62
2
 10
-2.02559937E+02
 20
-1.59500000E+02
 11
-1.84215118E+02
 21
-1.59500000E+02
  0
LINE
  8
0
  6
CENTER
 62
2
 10
-1.93499985E+02
 20
-1.50221008E+02
 11
-1.93499985E+02
 21
-1.68786804E+02
  0
LINE
  8
0
 62
7
 10
-1.81500015E+02
 20
-1.96499985E+02
 11
-1.08500015E+02
 21
-1.96499985E+02
  0
LINE
  8
0
 62
7
 10
-1.08500015E+02
 20
-2.00499954E+02
 11
-8.05000305E+01
 21
-2.00499954E+02
  0
LINE
  8
0
 62
7
 10
-2.08499985E+02
 20
-2.00499954E+02
 11
-1.81500015E+02
 21
-2.00499954E+02
  0
LINE
  8
0
 62
7
 10
-2.08499985E+02
 20
-1.38500000E+02
 11
-2.08499985E+02
 21
-2.00499985E+02
  0
LINE
  8
0
 62
7
 10
-1.81499969E+02
 20
-1.38500000E+02
 11
-1.81499969E+02
 21
-2.00499985E+02
  0
LINE
  8
0
  6
CENTER
 62
2
 10
-1.69500000E+02
 20
-1.88466080E+02
 11
-1.69500000E+02
 21
-2.15587646E+02
  0
LINE
  8
0
 62
7
 10
-1.71499985E+02
 20
-3.49500000E+02
 11
-1.71499985E+02
 21
-3.48345284E+02
  0
LINE
  8
0
 62
7
 10
-1.67500000E+02
 20
-3.48345169E+02
 11
-1.67500000E+02
 21
-3.49500000E+02
  0
LINE
  8
0
 62
7
 10
-2.08500000E+02
 20
-3.18500015E+02
 11
-2.08500000E+02
 21
-3.49500000E+02
  0
LINE
  8
0
 62
7
 10
-1.08500000E+02
 20
-3.18500015E+02
 11
-1.08500000E+02
 21
-3.49500000E+02
  0
LINE
  8
0
  6
CENTER
 62
2
 10
-1.69500015E+02
 20
-3.38015656E+02
 11
-1.69500015E+02
 21
-3.49500000E+02
  0
LINE
  8
0
 62
7
 10
-1.08499985E+02
 20
-1.43350006E+02
 11
-1.81500015E+02
 21
-1.43350006E+02
  0
LINE
  8
0
 62
7
 10
-1.81500015E+02
 20
-1.41999969E+02
 11
-1.08500015E+02
 21
-1.41999969E+02
  0
LINE
  8
0
 62
7
 10
-1.90499970E+02
 20
-1.57767743E+02
 11
-1.93499931E+02
 21
-1.56035726E+02
  0
LINE
  8
0
 62
7
 10
-1.93500558E+02
 20
-1.56034799E+02
 11
-1.96500557E+02
 21
-1.57766839E+02
  0
LINE
  8
0
 62
7
 10
-1.96500015E+02
 20
-1.61232056E+02
 11
-1.96500015E+02
 21
-1.57767914E+02
  0
LINE
  8
0
 62
7
 10
-1.93499923E+02
 20
-1.62963906E+02
 11
-1.96499830E+02
 21
-1.61231919E+02
  0
LINE
  8
0
 62
7
 10
-1.90500466E+02
 20
-1.61231004E+02
 11
-1.93500486E+02
 21
-1.62963056E+02
  0
LINE
  8
0
 62
7
 10
-1.90500000E+02
 20
-1.57767914E+02
 11
-1.90500000E+02
 21
-1.61232056E+02
  0
LINE
  8
0
  6
CENTER
 62
2
 10
-1.69500000E+02
 20
-1.50533875E+02
 11
-1.69500000E+02
 21
-1.23412323E+02
  0
LINE
  8
0
  6
CENTER
 62
2
 10
1.54057646E+01
 20
-3.31000000E+02
 11
-8.26034546E+01
 21
-3.31000000E+02
  0
LINE
  8
0
 62
7
 10
-2.23000031E+02
 20
-3.34499969E+02
 11
-2.18491058E+02
 21
-3.34499969E+02
  0
LINE
  8
0
 62
7
 10
-2.36500000E+02
 20
-3.43320007E+02
 11
-2.33500000E+02
 21
-3.43320007E+02
  0
LINE
  8
0
 62
7
 10
-7.55000305E+01
 20
-3.24500000E+02
 11
-4.95000305E+01
 21
-3.24500000E+02
  0
LINE
  8
0
 62
7
 10
-8.05000931E+01
 20
-3.25285581E+02
 11
-4.95000688E+01
 21
-3.24473817E+02
  0
LINE
  8
0
 62
7
 10
-7.55000305E+01
 20
-3.25154602E+02
 11
-7.55000305E+01
 21
-3.24500000E+02
  0
LINE
  8
0
 62
7
 10
-2.10000000E+02
 20
-3.33500000E+02
 11
-2.08500000E+02
 21
-3.33500000E+02
  0
LINE
  8
0
  6
CENTER
 62
2
 10
-6.25000305E+01
 20
-1.75515869E+02
 11
-6.25000305E+01
 21
-1.55355835E+02
  0
LINE
  8
0
  6
CENTER
 62
2
 10
-7.26167450E+01
 20
-1.65500061E+02
 11
-6.09999793E+01
 21
-1.65500061E+02
  0
LINE
  8
0
  6
CENTER
 62
2
 10
-5.50000153E+01
 20
-1.85419708E+02
 11
-5.50000153E+01
 21
-1.73895081E+02
  0
LINE
  8
0
 62
7
 10
-2.23000061E+02
 20
-1.84500000E+02
 11
-2.18491089E+02
 21
-1.84500000E+02
  0
LINE
  8
0
 62
7
 10
-2.10000031E+02
 20
-1.85499969E+02
 11
-2.08500031E+02
 21
-1.85499969E+02
  0
LINE
  8
0
 62
7
 10
-2.18258802E+02
 20
-1.84758359E+02
 11
-2.10499219E+02
 21
-1.85029330E+02
  0
LINE
  8
0
 62
7
 10
-2.23499969E+02
 20
-1.84000000E+02
 11
-2.23499969E+02
 21
-1.55000000E+02
  0
LINE
  8
0
 62
7
 10
-2.23000061E+02
 20
-1.54499939E+02
 11
-2.18491089E+02
 21
-1.54499939E+02
  0
LINE
  8
0
 62
7
 10
-2.10000031E+02
 20
-1.53499969E+02
 11
-2.08500031E+02
 21
-1.53499969E+02
  0
LINE
  8
0
 62
7
 10
-4.94999847E+01
 20
-1.94500000E+02
 11
-4.94999847E+01
 21
-1.68042072E+02
  0
LINE
  8
0
 62
7
 10
-2.18258763E+02
 20
-1.54241459E+02
 11
-2.10499180E+02
 21
-1.53970490E+02
  0
LINE
  8
0
 62
7
 10
-2.18499969E+02
 20
-1.54499969E+02
 11
-2.18499969E+02
 21
-1.84500031E+02
  0
LINE
  8
0
 62
7
 10
-2.10499985E+02
 20
-1.54000000E+02
 11
-2.10499985E+02
 21
-1.85029419E+02
  0
LINE
  8
0
 62
7
 10
-4.95000466E+01
 20
-1.44499925E+02
 11
-8.00087664E+01
 21
-1.45032452E+02
  0
LINE
  8
0
 62
7
 10
-4.94999719E+01
 20
-1.94499866E+02
 11
-8.00087222E+01
 21
-1.93967330E+02
  0
LINE
  8
0
  6
CENTER
 62
2
 10
-6.06966248E+01
 20
-1.79500000E+02
 11
-4.90811310E+01
 21
-1.79500000E+02
  0
LINE
  8
0
 62
7
 10
-7.34999847E+01
 20
-1.49500000E+02
 11
-4.94999847E+01
 21
-1.49500000E+02
  0
LINE
  8
0
 62
7
 10
-7.34999847E+01
 20
-1.89500000E+02
 11
-4.94999847E+01
 21
-1.89500000E+02
  0
LINE
  8
0
 62
7
 10
-7.54999847E+01
 20
-1.51500000E+02
 11
-7.54999847E+01
 21
-1.87500000E+02
  0
LINE
  8
0
 62
7
 10
-2.23500000E+02
 20
-3.49500000E+02
 11
-2.23500000E+02
 21
-3.35000000E+02
  0
LINE
  8
0
  6
CENTER
 62
2
 10
-8.27270050E+01
 20
-1.88000000E+02
 11
-5.95614956E+00
 21
-1.88000000E+02
  0
LINE
  8
0
 62
7
 10
-4.94999847E+01
 20
-1.85350006E+02
 11
-4.42617487E+00
 21
-1.85350006E+02
  0
LINE
  8
0
 62
7
 10
-2.10500000E+02
 20
-3.34000000E+02
 11
-2.10500000E+02
 21
-3.49500000E+02
  0
LINE
  8
0
 62
7
 10
-2.18500000E+02
 20
-3.49500000E+02
 11
-2.18500000E+02
 21
-3.34491394E+02
  0
LINE
  8
0
 62
7
 10
-4.94999847E+01
 20
-1.90649994E+02
 11
-7.48612425E+00
 21
-1.90649994E+02
  0
LINE
  8
0
 62
7
 10
-4.94999847E+01
 20
-1.91499985E+02
 11
-7.97686669E+00
 21
-1.91499985E+02
  0
LINE
  8
0
  6
CENTER
 62
2
 10
-8.27270050E+01
 20
-1.51000000E+02
 11
-4.14999793E+01
 21
-1.51000000E+02
  0
LINE
  8
0
 62
7
 10
-4.94999847E+01
 20
-1.53649994E+02
 11
-4.14999793E+01
 21
-1.53649994E+02
  0
LINE
  8
0
 62
7
 10
-4.94999847E+01
 20
-1.48350006E+02
 11
-4.14999793E+01
 21
-1.48350006E+02
  0
LINE
  8
0
 62
7
 10
-5.35566502E+01
 20
-1.79499906E+02
 11
-5.42783229E+01
 21
-1.78249916E+02
  0
LINE
  8
0
 62
7
 10
-5.42783203E+01
 20
-1.78249939E+02
 11
-5.57217102E+01
 21
-1.78249939E+02
  0
LINE
  8
0
 62
7
 10
-4.94999847E+01
 20
-1.47500000E+02
 11
-4.14999793E+01
 21
-1.47500000E+02
  0
LINE
  8
0
 62
7
 10
-4.95000305E+01
 20
-3.24500000E+02
 11
-4.95000305E+01
 21
-3.49500000E+02
  0
LINE
  8
0
 62
7
 10
-2.30500000E+02
 20
-3.45627014E+02
 11
-2.26500000E+02
 21
-3.45627014E+02
  0
LINE
  8
0
 62
7
 10
-2.30500000E+02
 20
-3.41499985E+02
 11
-2.23500031E+02
 21
-3.41499985E+02
  0
LINE
  8
0
 62
2
 10
-2.29999972E+02
 20
-3.49500000E+02
 11
-2.26499977E+02
 21
-3.45627020E+02
  0
LINE
  8
0
 62
2
 10
-2.31884610E+02
 20
-3.47414535E+02
 11
-2.29999985E+02
 21
-3.49500000E+02
  0
LINE
  8
0
 62
7
 10
-2.25500061E+02
 20
-1.61500031E+02
 11
-2.23499969E+02
 21
-1.61500031E+02
  0
LINE
  8
0
 62
7
 10
-2.25499969E+02
 20
-1.77500015E+02
 11
-2.23500000E+02
 21
-1.77500015E+02
  0
LINE
  8
0
 62
7
 10
-2.33500000E+02
 20
-1.62500000E+02
 11
-2.33500000E+02
 21
-1.76500031E+02
  0
LINE
  8
0
 62
7
 10
-2.33500000E+02
 20
-1.62500000E+02
 11
-2.26500031E+02
 21
-1.62500000E+02
  0
LINE
  8
0
 62
7
 10
-2.33500000E+02
 20
-1.76500031E+02
 11
-2.26499939E+02
 21
-1.76500031E+02
  0
LINE
  8
0
 62
7
 10
-2.18258718E+02
 20
-3.34241512E+02
 11
-2.10499150E+02
 21
-3.33970542E+02
  0
LINE
  8
0
 62
7
 10
-2.26500008E+02
 20
-1.76499977E+02
 11
-2.25499985E+02
 21
-1.77500000E+02
  0
LINE
  8
0
 62
7
 10
-2.26500043E+02
 20
-1.62499952E+02
 11
-2.25500094E+02
 21
-1.61500002E+02
  0
LINE
  8
0
 62
7
 10
-2.30500000E+02
 20
-1.62500000E+02
 11
-2.30500000E+02
 21
-1.76500031E+02
  0
LINE
  8
0
 62
7
 10
-2.26500000E+02
 20
-3.49500000E+02
 11
-2.26500000E+02
 21
-3.45627014E+02
  0
LINE
  8
0
 62
7
 10
-2.30500000E+02
 20
-3.45627014E+02
 11
-2.30500000E+02
 21
-3.41500031E+02
  0
LINE
  8
0
 62
7
 10
-2.33500000E+02
 20
-3.49500000E+02
 11
-2.33500000E+02
 21
-3.42500015E+02
  0
LINE
  8
0
 62
7
 10
-5.64433092E+01
 20
-1.79499978E+02
 11
-5.57216213E+01
 21
-1.78249961E+02
  0
LINE
  8
0
 62
7
 10
-5.57216749E+01
 20
-1.80749973E+02
 11
-5.64433781E+01
 21
-1.79499930E+02
  0
LINE
  8
0
 62
7
 10
-5.42783203E+01
 20
-1.80749969E+02
 11
-5.57217102E+01
 21
-1.80749969E+02
  0
LINE
  8
0
 62
7
 10
-5.35565209E+01
 20
-1.79500019E+02
 11
-5.42782088E+01
 21
-1.80750036E+02
  0
LINE
  8
0
 62
7
 10
-2.57499969E+02
 20
-3.49500000E+02
 11
-2.57499969E+02
 21
-3.44000015E+02
  0
LINE
  8
0
 62
7
 10
-2.55999969E+02
 20
-3.42500015E+02
 11
-2.50999954E+02
 21
-3.42500015E+02
  0
LINE
  8
0
 62
2
 10
-2.56819916E+02
 20
-3.43320007E+02
 11
-2.50999954E+02
 21
-3.43320007E+02
  0
LINE
  8
0
 62
7
 10
-2.55999969E+02
 20
-3.42500015E+02
 11
-2.55999969E+02
 21
-3.49500000E+02
  0
LINE
  8
0
 62
7
 10
-2.36500000E+02
 20
-3.42500015E+02
 11
-2.36500000E+02
 21
-3.49500000E+02
  0
LINE
  8
0
 62
7
 10
-2.57499889E+02
 20
-3.44000101E+02
 11
-2.55999942E+02
 21
-3.42500109E+02
  0
LINE
  8
0
  6
CENTER
 62
2
 10
-6.25000305E+01
 20
-3.22747635E+02
 11
-6.25000305E+01
 21
-3.33928238E+02
  0
LINE
  8
0
 62
7
 10
-2.33499996E+02
 20
-3.49500004E+02
 11
-2.30499997E+02
 21
-3.45627020E+02
  0
LINE
  8
0
 62
7
 10
-2.30500008E+02
 20
-3.41499991E+02
 11
-2.33500013E+02
 21
-3.42500023E+02
  0
ARC
  8
0
 62
7
 10
-1.69500000E+02
 20
-1.39561127E+02
 40
9.06113529E+00
 50
6.74489921E+01
 51
1.12550903E+02
  0
ARC
  8
0
 62
7
 10
-1.74712448E+02
 20
-2.05974854E+02
 40
2.52511263E+00
 50
2.53478125E+02
 51
3.13479008E+02
  0
ARC
  8
0
 62
7
 10
-1.64287521E+02
 20
-2.05974854E+02
 40
2.52511263E+00
 50
2.26520987E+02
 51
2.86521856E+02
  0
ARC
  8
0
 62
7
 10
-1.69500000E+02
 20
-1.99438828E+02
 40
9.06113529E+00
 50
2.47449035E+02
 51
2.92550946E+02
  0
ARC
  8
0
 62
7
 10
-1.64287521E+02
 20
-1.33025146E+02
 40
2.52511263E+00
 50
7.34780821E+01
 51
1.33478944E+02
  0
CIRCLE
  8
0
 62
7
 10
-9.75000000E+01
 20
-1.63500000E+02
 40
7.00000000E+00
  0
CIRCLE
  8
0
 62
7
 10
-9.75000000E+01
 20
-1.63500000E+02
 40
5.65999985E+00
  0
ARC
  8
0
 62
7
 10
-1.74712448E+02
 20
-1.33025146E+02
 40
2.52511263E+00
 50
4.65209375E+01
 51
1.06521820E+02
  0
CIRCLE
  8
0
 62
2
 10
-9.75000000E+01
 20
-1.63500000E+02
 40
6.57849932E+00
  0
ARC
  8
0
 62
7
 10
-1.69500015E+02
 20
-3.49500000E+02
 40
4.00000000E+00
 50
0.00000000E+00
 51
1.80000000E+02
  0
ARC
  8
0
 62
7
 10
-1.69500015E+02
 20
-3.49500000E+02
 40
8.00000000E+00
 50
0.00000000E+00
 51
1.80000000E+02
  0
ARC
  8
0
 62
7
 10
-1.69500015E+02
 20
-3.49500000E+02
 40
3.29999971E+00
 50
0.00000000E+00
 51
1.80000000E+02
  0
CIRCLE
  8
0
 62
7
 10
-1.93499985E+02
 20
-1.59500000E+02
 40
6.57849932E+00
  0
CIRCLE
  8
0
 62
7
 10
-1.93499985E+02
 20
-1.59500000E+02
 40
5.72249985E+00
  0
ARC
  8
0
 62
7
 10
-2.18250000E+02
 20
-3.34491394E+02
 40
2.50000000E-01
 50
9.20007356E+01
 51
1.79999964E+02
  0
CIRCLE
  8
0
 62
7
 10
-5.50000153E+01
 20
-1.79500000E+02
 40
4.00000000E+00
  0
ARC
  8
0
 62
7
 10
-2.23000061E+02
 20
-1.84000000E+02
 40
5.00000000E-01
 50
1.80000008E+02
 51
2.69999998E+02
  0
ARC
  8
0
 62
7
 10
-2.10000031E+02
 20
-1.85000000E+02
 40
5.00000000E-01
 50
1.80000008E+02
 51
2.69999998E+02
  0
ARC
  8
0
 62
7
 10
-2.18250031E+02
 20
-1.84508606E+02
 40
2.50000000E-01
 50
1.80000008E+02
 51
2.67999216E+02
  0
ARC
  8
0
 62
7
 10
-2.23000061E+02
 20
-1.55000000E+02
 40
5.00000000E-01
 50
9.00000231E+01
 51
1.80000005E+02
  0
ARC
  8
0
 62
7
 10
-2.10000031E+02
 20
-1.54000000E+02
 40
5.00000000E-01
 50
9.00000231E+01
 51
1.80000005E+02
  0
ARC
  8
0
 62
7
 10
-2.18250031E+02
 20
-1.54491394E+02
 40
2.50000000E-01
 50
9.20007768E+01
 51
1.79999991E+02
  0
ARC
  8
0
 62
7
 10
-8.00000305E+01
 20
-1.45532471E+02
 40
5.00000000E-01
 50
9.10002155E+01
 51
1.80000005E+02
  0
ARC
  8
0
 62
7
 10
-8.00000305E+01
 20
-1.93467529E+02
 40
5.00000000E-01
 50
1.80000008E+02
 51
2.68999785E+02
  0
ARC
  8
0
 62
7
 10
-6.25000305E+01
 20
-1.65500061E+02
 40
7.00000000E+00
 50
7.76259453E+01
 51
3.37480849E+02
  0
ARC
  8
0
 62
7
 10
-7.34999847E+01
 20
-1.51500000E+02
 40
2.00000000E+00
 50
8.99999818E+01
 51
1.79999964E+02
  0
ARC
  8
0
 62
7
 10
-7.34999847E+01
 20
-1.87500000E+02
 40
2.00000000E+00
 50
1.79999977E+02
 51
2.70000028E+02
  0
ARC
  8
0
 62
7
 10
-6.25000305E+01
 20
-1.65500061E+02
 40
5.65999985E+00
 50
7.46314587E+01
 51
3.31727516E+02
  0
ARC
  8
0
 62
2
 10
-6.25000305E+01
 20
-1.65500061E+02
 40
6.57849979E+00
 50
7.68192768E+01
 51
3.35950142E+02
  0
ARC
  8
0
 62
7
 10
-2.23000031E+02
 20
-3.35000000E+02
 40
5.00000000E-01
 50
8.99999818E+01
 51
1.79999964E+02
  0
CIRCLE
  8
0
 62
7
 10
-5.50000153E+01
 20
-1.79500000E+02
 40
2.09999990E+00
  0
ARC
  8
0
 62
7
 10
-2.10000000E+02
 20
-3.34000000E+02
 40
5.00000000E-01
 50
8.99999818E+01
 51
1.79999964E+02
  0
ARC
  8
0
 62
7
 10
-2.33500000E+02
 20
-3.49500000E+02
 40
8.00000000E+00
 50
0.00000000E+00
 51
2.89550399E+01
  0
INSERT
  8
0
  2
PP2
  6
BYBLOCK
 62
0
 10
0.00000000E+00
 20
0.00000000E+00
 41
1.00000000E+00
 42
1.00000000E+00
 50
0.00000000E+00
  0
LINE
  8
0
 62
7
 10
-2.36500000E+02
 20
-1.63320007E+02
 11
-2.33500000E+02
 21
-1.63320007E+02
  0
LINE
  8
0
 62
7
 10
-2.57499969E+02
 20
-1.75000046E+02
 11
-2.57499969E+02
 21
-1.64000015E+02
  0
LINE
  8
0
 62
7
 10
-2.55999969E+02
 20
-1.62500015E+02
 11
-2.55999969E+02
 21
-1.76500031E+02
  0
LINE
  8
0
 62
7
 10
-2.36500000E+02
 20
-1.62500015E+02
 11
-2.36500000E+02
 21
-1.76500031E+02
  0
LINE
  8
0
 62
7
 10
-2.57499889E+02
 20
-1.64000101E+02
 11
-2.55999942E+02
 21
-1.62500109E+02
  0
LINE
  8
0
 62
2
 10
-2.56819916E+02
 20
-1.63320007E+02
 11
-2.50999985E+02
 21
-1.63320007E+02
  0
LINE
  8
0
 62
7
 10
-2.55999969E+02
 20
-1.62500015E+02
 11
-2.50999985E+02
 21
-1.62500015E+02
  0
LINE
  8
0
 62
7
 10
-2.36500000E+02
 20
-1.75680038E+02
 11
-2.33500000E+02
 21
-1.75680038E+02
  0
LINE
  8
0
 62
7
 10
-2.57499973E+02
 20
-1.75000043E+02
 11
-2.55999960E+02
 21
-1.76500056E+02
  0
LINE
  8
0
 62
2
 10
-2.56819916E+02
 20
-1.75680038E+02
 11
-2.50999985E+02
 21
-1.75680038E+02
  0
LINE
  8
0
 62
7
 10
-2.55999969E+02
 20
-1.76500031E+02
 11
-2.50999985E+02
 21
-1.76500031E+02
  0
LINE
  8
0
 62
4
 10
-2.50017474E+02
 20
-3.36798294E+02
 11
-2.43982435E+02
 21
-3.36798294E+02
  0
LINE
  8
0
 62
4
 10
-2.50017474E+02
 20
-3.43149147E+02
 11
-2.43982435E+02
 21
-3.43149147E+02
  0
LINE
  8
0
 62
4
 10
-2.50999954E+02
 20
-3.49500000E+02
 11
-2.50999954E+02
 21
-3.38500000E+02
  0
LINE
  8
0
 62
4
 10
-2.42999954E+02
 20
-3.49500000E+02
 11
-2.42999954E+02
 21
-3.38500000E+02
  0
LINE
  8
0
 62
4
 10
-2.50999954E+02
 20
-3.38500000E+02
 11
-2.50017474E+02
 21
-3.36798294E+02
  0
LINE
  8
0
 62
4
 10
-2.42999954E+02
 20
-3.38500000E+02
 11
-2.43982435E+02
 21
-3.36798294E+02
  0
ARC
  8
0
 62
4
 10
-2.45377144E+02
 20
-3.39973721E+02
 40
5.62281003E+00
 50
1.45615752E+02
 51
2.14384247E+02
  0
ARC
  8
0
 62
4
 10
-2.29982434E+02
 20
-3.49500000E+02
 40
2.10175199E+01
 50
1.62412046E+02
 51
1.80000000E+02
  0
ARC
  8
0
 62
4
 10
-2.48622764E+02
 20
-3.39973721E+02
 40
5.62281003E+00
 50
3.25615753E+02
 51
3.43842476E+01
  0
ARC
  8
0
 62
4
 10
-2.64017474E+02
 20
-3.49500000E+02
 40
2.10175199E+01
 50
1.22042820E-07
 51
1.75879537E+01
  0
LINE
  8
0
 62
4
 10
-2.42999985E+02
 20
-1.80500000E+02
 11
-2.42999985E+02
 21
-1.58500000E+02
  0
LINE
  8
0
 62
4
 10
-2.50999985E+02
 20
-1.80500000E+02
 11
-2.50999985E+02
 21
-1.58500000E+02
  0
LINE
  8
0
 62
4
 10
-2.50017504E+02
 20
-1.69500000E+02
 11
-2.43982465E+02
 21
-1.69500000E+02
  0
LINE
  8
0
 62
4
 10
-2.50999985E+02
 20
-1.58500000E+02
 11
-2.42999985E+02
 21
-1.58500000E+02
  0
LINE
  8
0
 62
4
 10
-2.50999985E+02
 20
-1.80500000E+02
 11
-2.42999985E+02
 21
-1.80500000E+02
  0
ARC
  8
0
 62
4
 10
-2.58885935E+02
 20
-1.75000000E+02
 40
1.58859499E+01
 50
3.39743842E+02
 51
2.02561578E+01
  0
ARC
  8
0
 62
4
 10
-2.58885935E+02
 20
-1.64000000E+02
 40
1.58859499E+01
 50
3.39743842E+02
 51
2.02561578E+01
  0
ARC
  8
0
 62
4
 10
-2.35114037E+02
 20
-1.64000000E+02
 40
1.58859474E+01
 50
1.59743839E+02
 51
2.00256161E+02
  0
ARC
  8
0
 62
4
 10
-2.35114037E+02
 20
-1.75000000E+02
 40
1.58859473E+01
 50
1.59743839E+02
 51
2.00256161E+02
  0
LINE
  8
0
 62
2
 10
-2.42999985E+02
 20
-1.63320007E+02
 11
-2.36500000E+02
 21
-1.63320007E+02
  0
LINE
  8
0
 62
7
 10
-2.42999985E+02
 20
-1.62500015E+02
 11
-2.36500000E+02
 21
-1.62500015E+02
  0
LINE
  8
0
 62
2
 10
-2.42999985E+02
 20
-1.75680038E+02
 11
-2.36500000E+02
 21
-1.75680038E+02
  0
LINE
  8
0
 62
7
 10
-2.42999985E+02
 20
-1.76500031E+02
 11
-2.36500000E+02
 21
-1.76500031E+02
  0
LINE
  8
0
 62
7
 10
-2.42999954E+02
 20
-3.42500015E+02
 11
-2.36500000E+02
 21
-3.42500015E+02
  0
LINE
  8
0
 62
2
 10
-2.42999954E+02
 20
-3.43320007E+02
 11
-2.36500000E+02
 21
-3.43320007E+02
  0
LINE
  8
0
 62
7
 10
-2.64999793E+01
 20
-1.48350006E+02
 11
1.69357851E+01
 21
-1.48350006E+02
  0
LINE
  8
0
 62
7
 10
-2.64999793E+01
 20
-1.47500000E+02
 11
1.74265363E+01
 21
-1.47500000E+02
  0
LINE
  8
0
 62
7
 10
-2.64999793E+01
 20
-1.53649994E+02
 11
1.38758357E+01
 21
-1.53649994E+02
  0
LINE
  8
0
 62
7
 10
1.74264818E+01
 20
-3.27500015E+02
 11
-4.95000305E+01
 21
-3.27500015E+02
  0
LINE
  8
0
 62
7
 10
1.69357393E+01
 20
-3.28350006E+02
 11
-4.95000000E+01
 21
-3.28350006E+02
  0
LINE
  8
0
 62
7
 10
1.38757899E+01
 20
-3.33649994E+02
 11
-4.95000305E+01
 21
-3.33649994E+02
  0
LINE
  8
0
  6
CENTER
 62
2
 10
-4.36999977E+02
 20
-3.22597351E+02
 11
-4.36999977E+02
 21
-3.38884338E+02
  0
LINE
  8
0
  6
CENTER
 62
2
 10
-4.45589882E+02
 20
-3.30999924E+02
 11
-4.30923012E+02
 21
-3.30999924E+02
  0
LINE
  8
0
  6
CENTER
 62
2
 10
-3.95000000E+02
 20
-3.16298691E+02
 11
-3.95000000E+02
 21
-3.35617203E+02
  0
LINE
  8
0
 62
7
 10
-3.91000000E+02
 20
-3.18500000E+02
 11
-4.46000000E+02
 21
-3.18500000E+02
  0
LINE
  8
0
 62
7
 10
-3.87500000E+02
 20
-3.21999985E+02
 11
-3.87500000E+02
 21
-3.49500000E+02
  0
LINE
  8
0
 62
7
 10
-3.98000245E+02
 20
-3.24267538E+02
 11
-3.95000206E+02
 21
-3.22535475E+02
  0
LINE
  8
0
 62
7
 10
-3.95000039E+02
 20
-3.22535901E+02
 11
-3.92000026E+02
 21
-3.24267949E+02
  0
LINE
  8
0
 62
7
 10
-3.92000031E+02
 20
-3.27732071E+02
 11
-3.92000031E+02
 21
-3.24267944E+02
  0
LINE
  8
0
 62
7
 10
-3.95000234E+02
 20
-3.29463649E+02
 11
-3.92000208E+02
 21
-3.27731594E+02
  0
LINE
  8
0
 62
7
 10
-3.98000142E+02
 20
-3.27731959E+02
 11
-3.95000076E+02
 21
-3.29464037E+02
  0
LINE
  8
0
 62
7
 10
-3.98000031E+02
 20
-3.24267944E+02
 11
-3.98000031E+02
 21
-3.27732071E+02
  0
LINE
  8
0
  6
CENTER
 62
2
 10
-4.18500000E+02
 20
-3.16298691E+02
 11
-4.18500000E+02
 21
-3.49500000E+02
  0
LINE
  8
0
  6
CENTER
 62
2
 10
-3.71842560E+02
 20
-3.49500000E+02
 11
-4.65476318E+02
 21
-3.49500000E+02
  0
LINE
  8
0
  6
CENTER
 62
2
 10
-4.31614136E+02
 20
-3.26000000E+02
 11
-4.51840118E+02
 21
-3.26000000E+02
  0
LINE
  8
0
  6
CENTER
 62
2
 10
-4.42000061E+02
 20
-3.16298691E+02
 11
-4.42000061E+02
 21
-3.35617203E+02
  0
LINE
  8
0
 62
7
 10
-4.39000019E+02
 20
-3.24268076E+02
 11
-4.42000005E+02
 21
-3.22536043E+02
  0
LINE
  8
0
 62
7
 10
-3.86000000E+02
 20
-3.43500015E+02
 11
-3.79500031E+02
 21
-3.43500015E+02
  0
LINE
  8
0
 62
7
 10
-4.42000348E+02
 20
-3.22535364E+02
 11
-4.45000361E+02
 21
-3.24267412E+02
  0
LINE
  8
0
 62
7
 10
-4.45000000E+02
 20
-3.27732071E+02
 11
-4.45000000E+02
 21
-3.24267944E+02
  0
LINE
  8
0
 62
7
 10
-4.49499908E+02
 20
-3.21999985E+02
 11
-4.49499908E+02
 21
-3.49500000E+02
  0
LINE
  8
0
 62
7
 10
-4.42000137E+02
 20
-3.29464098E+02
 11
-4.45000097E+02
 21
-3.27732081E+02
  0
LINE
  8
0
 62
7
 10
-4.39000297E+02
 20
-3.27731452E+02
 11
-4.42000363E+02
 21
-3.29463531E+02
  0
LINE
  8
0
 62
7
 10
-4.39000031E+02
 20
-3.24267944E+02
 11
-4.39000031E+02
 21
-3.27732071E+02
  0
LINE
  8
0
  6
CENTER
 62
2
 10
-4.05385956E+02
 20
-3.26000000E+02
 11
-3.85159851E+02
 21
-3.26000000E+02
  0
LINE
  8
0
 62
7
 10
-4.51000000E+02
 20
-3.49500015E+02
 11
-4.56807159E+02
 21
-3.49500015E+02
  0
LINE
  8
0
 62
7
 10
-4.49500031E+02
 20
-3.41500023E+02
 11
-4.51000000E+02
 21
-3.41500023E+02
  0
LINE
  8
0
 62
7
 10
-4.62500000E+02
 20
-3.49500000E+02
 11
-4.62500000E+02
 21
-3.46200020E+02
  0
LINE
  8
0
 62
7
 10
-4.51000122E+02
 20
-3.43500015E+02
 11
-4.57500061E+02
 21
-3.43500015E+02
  0
LINE
  8
0
 62
7
 10
-3.86000000E+02
 20
-3.49500015E+02
 11
-3.80192810E+02
 21
-3.49500015E+02
  0
LINE
  8
0
 62
7
 10
-3.85999969E+02
 20
-3.49500000E+02
 11
-3.85999969E+02
 21
-3.41500008E+02
  0
LINE
  8
0
 62
7
 10
-3.79500031E+02
 20
-3.49500000E+02
 11
-3.79500031E+02
 21
-3.43500015E+02
  0
LINE
  8
0
 62
7
 10
-3.87500061E+02
 20
-3.41500023E+02
 11
-3.86000000E+02
 21
-3.41500023E+02
  0
LINE
  8
0
 62
7
 10
-4.57500000E+02
 20
-3.49500015E+02
 11
-4.57500000E+02
 21
-3.43500015E+02
  0
LINE
  8
0
 62
2
 10
-4.57500061E+02
 20
-3.46200035E+02
 11
-4.62500061E+02
 21
-3.46200035E+02
  0
LINE
  8
0
 62
7
 10
-4.57500061E+02
 20
-3.45500038E+02
 11
-4.61800079E+02
 21
-3.45500038E+02
  0
LINE
  8
0
 62
7
 10
-3.74500031E+02
 20
-3.49500000E+02
 11
-3.74500031E+02
 21
-3.46200020E+02
  0
LINE
  8
0
 62
7
 10
-4.62500057E+02
 20
-3.46200091E+02
 11
-4.61800028E+02
 21
-3.45500062E+02
  0
LINE
  8
0
 62
7
 10
-4.61800018E+02
 20
-3.49500000E+02
 11
-4.61800018E+02
 21
-3.45500023E+02
  0
LINE
  8
0
 62
7
 10
-3.79500031E+02
 20
-3.45500038E+02
 11
-3.75200104E+02
 21
-3.45500038E+02
  0
LINE
  8
0
 62
2
 10
-3.79500031E+02
 20
-3.46200035E+02
 11
-3.74500031E+02
 21
-3.46200035E+02
  0
LINE
  8
0
 62
7
 10
-3.75199982E+02
 20
-3.49500000E+02
 11
-3.75199982E+02
 21
-3.45500023E+02
  0
LINE
  8
0
 62
7
 10
-4.50999969E+02
 20
-3.49500000E+02
 11
-4.50999969E+02
 21
-3.41500008E+02
  0
LINE
  8
0
 62
7
 10
-3.74499920E+02
 20
-3.46199883E+02
 11
-3.75199949E+02
 21
-3.45499854E+02
  0
LINE
  8
0
  6
CENTER
 62
2
 10
1.21500000E+02
 20
-3.14874100E+02
 11
1.21500000E+02
 21
-3.49500000E+02
  0
LINE
  8
0
  6
CENTER
 62
2
 10
7.55651779E+01
 20
-3.49500000E+02
 11
1.67717667E+02
 21
-3.49500000E+02
  0
LINE
  8
0
 62
7
 10
1.53999985E+02
 20
-3.49500000E+02
 11
1.53999985E+02
 21
-3.41500008E+02
  0
LINE
  8
0
 62
7
 10
1.52500046E+02
 20
-3.41500023E+02
 11
1.54000031E+02
 21
-3.41500023E+02
  0
LINE
  8
0
 62
7
 10
1.65500015E+02
 20
-3.49500000E+02
 11
1.65500015E+02
 21
-3.46200020E+02
  0
LINE
  8
0
 62
7
 10
1.60500076E+02
 20
-3.45500038E+02
 11
1.64800095E+02
 21
-3.45500038E+02
  0
LINE
  8
0
 62
2
 10
1.60500076E+02
 20
-3.46200035E+02
 11
1.65500076E+02
 21
-3.46200035E+02
  0
LINE
  8
0
 62
7
 10
1.64800049E+02
 20
-3.49500000E+02
 11
1.64800049E+02
 21
-3.45500023E+02
  0
LINE
  8
0
 62
7
 10
1.65500085E+02
 20
-3.46200125E+02
 11
1.64800075E+02
 21
-3.45500115E+02
  0
LINE
  8
0
 62
7
 10
1.54000137E+02
 20
-3.43500015E+02
 11
1.60500076E+02
 21
-3.43500015E+02
  0
LINE
  8
0
 62
7
 10
1.54000031E+02
 20
-3.49500015E+02
 11
1.59807175E+02
 21
-3.49500015E+02
  0
LINE
  8
0
 62
7
 10
1.60500015E+02
 20
-3.49500000E+02
 11
1.60500015E+02
 21
-3.43500015E+02
  0
LINE
  8
0
 62
7
 10
1.52499939E+02
 20
-3.21999985E+02
 11
1.52499939E+02
 21
-3.49500000E+02
  0
LINE
  8
0
 62
7
 10
8.89999847E+01
 20
-3.49500000E+02
 11
8.89999847E+01
 21
-3.41500008E+02
  0
LINE
  8
0
 62
7
 10
9.05000763E+01
 20
-3.41500023E+02
 11
8.90000305E+01
 21
-3.41500023E+02
  0
LINE
  8
0
 62
7
 10
7.75000458E+01
 20
-3.49500000E+02
 11
7.75000458E+01
 21
-3.46200020E+02
  0
LINE
  8
0
 62
7
 10
8.25000458E+01
 20
-3.49500000E+02
 11
8.25000458E+01
 21
-3.43500015E+02
  0
LINE
  8
0
 62
7
 10
8.25000458E+01
 20
-3.45500038E+02
 11
7.82001190E+01
 21
-3.45500038E+02
  0
LINE
  8
0
 62
2
 10
8.25000458E+01
 20
-3.46200035E+02
 11
7.75000458E+01
 21
-3.46200035E+02
  0
LINE
  8
0
 62
7
 10
7.82000046E+01
 20
-3.49500000E+02
 11
7.82000046E+01
 21
-3.45500023E+02
  0
LINE
  8
0
 62
7
 10
7.74999609E+01
 20
-3.46199907E+02
 11
7.81999789E+01
 21
-3.45499889E+02
  0
LINE
  8
0
 62
7
 10
8.90000305E+01
 20
-3.49500015E+02
 11
8.31928406E+01
 21
-3.49500015E+02
  0
LINE
  8
0
 62
7
 10
8.90000305E+01
 20
-3.43500015E+02
 11
8.25000458E+01
 21
-3.43500015E+02
  0
LINE
  8
0
 62
7
 10
9.05000229E+01
 20
-3.21999985E+02
 11
9.05000229E+01
 21
-3.49500000E+02
  0
LINE
  8
0
 62
7
 10
9.40000305E+01
 20
-3.18500000E+02
 11
1.10364827E+02
 21
-3.18500000E+02
  0
LINE
  8
0
  6
CENTER
 62
2
 10
1.09381409E+02
 20
-3.30999924E+02
 11
9.48597412E+01
 21
-3.30999924E+02
  0
LINE
  8
0
 62
7
 10
1.39500000E+02
 20
-3.38787842E+02
 11
1.39500000E+02
 21
-3.40749969E+02
  0
LINE
  8
0
 62
7
 10
1.32211731E+02
 20
-3.31499908E+02
 11
1.30250061E+02
 21
-3.31499908E+02
  0
LINE
  8
0
 62
7
 10
1.03499939E+02
 20
-3.38788696E+02
 11
1.03499939E+02
 21
-3.40749969E+02
  0
LINE
  8
0
 62
7
 10
1.01500000E+02
 20
-3.24499969E+02
 11
1.01500000E+02
 21
-3.25000031E+02
  0
LINE
  8
0
 62
7
 10
1.41500000E+02
 20
-3.24499969E+02
 11
1.41500000E+02
 21
-3.24999969E+02
  0
LINE
  8
0
 62
7
 10
1.39999996E+02
 20
-3.27535816E+02
 11
1.42999997E+02
 21
-3.29267868E+02
  0
LINE
  8
0
 62
7
 10
1.43500000E+02
 20
-3.44499969E+02
 11
1.43500000E+02
 21
-3.49500000E+02
  0
LINE
  8
0
 62
7
 10
1.16500000E+02
 20
-3.27499969E+02
 11
1.26500061E+02
 21
-3.27499969E+02
  0
LINE
  8
0
 62
7
 10
1.33815767E+02
 20
-3.35770053E+02
 11
1.32730291E+02
 21
-3.36855529E+02
  0
LINE
  8
0
 62
7
 10
1.35229937E+02
 20
-3.37184310E+02
 11
1.34144461E+02
 21
-3.38269786E+02
  0
LINE
  8
0
 62
7
 10
1.42500000E+02
 20
-3.48499985E+02
 11
1.38381958E+02
 21
-3.48499985E+02
  0
LINE
  8
0
 62
7
 10
1.22500000E+02
 20
-3.28500000E+02
 11
1.22500000E+02
 21
-3.32618042E+02
  0
LINE
  8
0
  6
CENTER
 62
2
 10
1.02999939E+02
 20
-3.22493347E+02
 11
1.02999939E+02
 21
-3.37414490E+02
  0
LINE
  8
0
  6
CENTER
 62
2
 10
1.25500061E+02
 20
-3.22747604E+02
 11
1.25500061E+02
 21
-3.33928207E+02
  0
LINE
  8
0
 62
7
 10
9.95000000E+01
 20
-3.25000031E+02
 11
1.43500000E+02
 21
-3.24999969E+02
  0
LINE
  8
0
 62
7
 10
1.46000000E+02
 20
-3.27499969E+02
 11
1.46000000E+02
 21
-3.49500000E+02
  0
LINE
  8
0
 62
7
 10
1.46500061E+02
 20
-3.27499969E+02
 11
1.46500061E+02
 21
-3.49500000E+02
  0
LINE
  8
0
  6
CENTER
 62
2
 10
1.40000000E+02
 20
-3.22597351E+02
 11
1.40000000E+02
 21
-3.38884338E+02
  0
LINE
  8
0
  6
CENTER
 62
2
 10
1.48589905E+02
 20
-3.30999924E+02
 11
1.33923035E+02
 21
-3.30999924E+02
  0
LINE
  8
0
 62
7
 10
9.65000000E+01
 20
-3.27499969E+02
 11
9.65000000E+01
 21
-3.49500000E+02
  0
LINE
  8
0
 62
7
 10
9.95000000E+01
 20
-3.24499969E+02
 11
1.43500061E+02
 21
-3.24499969E+02
  0
LINE
  8
0
 62
7
 10
9.70000000E+01
 20
-3.27500031E+02
 11
9.70000000E+01
 21
-3.49500000E+02
  0
LINE
  8
0
 62
7
 10
1.00500000E+02
 20
-3.48500000E+02
 11
1.04618042E+02
 21
-3.48500000E+02
  0
LINE
  8
0
 62
7
 10
1.07770198E+02
 20
-3.37184189E+02
 11
1.08855675E+02
 21
-3.38269665E+02
  0
LINE
  8
0
 62
7
 10
1.20500000E+02
 20
-3.28500000E+02
 11
1.20500000E+02
 21
-3.32618057E+02
  0
LINE
  8
0
 62
7
 10
1.09184358E+02
 20
-3.35770007E+02
 11
1.10269824E+02
 21
-3.36855473E+02
  0
LINE
  8
0
 62
7
 10
9.95000000E+01
 20
-3.44499969E+02
 11
9.95000000E+01
 21
-3.49500000E+02
  0
LINE
  8
0
 62
7
 10
1.05999938E+02
 20
-3.32731972E+02
 11
1.02999930E+02
 21
-3.34464027E+02
  0
LINE
  8
0
 62
7
 10
1.05999939E+02
 20
-3.29267868E+02
 11
1.05999939E+02
 21
-3.32731979E+02
  0
LINE
  8
0
 62
7
 10
1.10886963E+02
 20
-3.31470810E+02
 11
1.12917053E+02
 21
-3.31470810E+02
  0
LINE
  8
0
 62
7
 10
1.02999938E+02
 20
-3.27535819E+02
 11
9.99999300E+01
 21
-3.29267875E+02
  0
LINE
  8
0
 62
7
 10
1.02999941E+02
 20
-3.34464023E+02
 11
9.99999394E+01
 21
-3.32731971E+02
  0
LINE
  8
0
 62
7
 10
9.99999390E+01
 20
-3.29267868E+02
 11
9.99999390E+01
 21
-3.32731979E+02
  0
LINE
  8
0
 62
7
 10
1.39999991E+02
 20
-3.27535823E+02
 11
1.36999996E+02
 21
-3.29267871E+02
  0
LINE
  8
0
 62
7
 10
1.43000000E+02
 20
-3.29267868E+02
 11
1.43000000E+02
 21
-3.32731979E+02
  0
LINE
  8
0
 62
7
 10
1.42999991E+02
 20
-3.32731976E+02
 11
1.39999996E+02
 21
-3.34464024E+02
  0
LINE
  8
0
 62
7
 10
1.39999997E+02
 20
-3.34464020E+02
 11
1.36999996E+02
 21
-3.32731969E+02
  0
LINE
  8
0
 62
7
 10
1.37000000E+02
 20
-3.29267868E+02
 11
1.37000000E+02
 21
-3.32731979E+02
  0
LINE
  8
0
 62
7
 10
1.02999939E+02
 20
-3.27535818E+02
 11
1.05999941E+02
 21
-3.29267870E+02
  0
ARC
  8
0
 62
7
 10
-4.46000000E+02
 20
-3.22000000E+02
 40
3.50000000E+00
 50
8.99999818E+01
 51
1.79999964E+02
  0
ARC
  8
0
 62
7
 10
-3.90999969E+02
 20
-3.22000000E+02
 40
3.50000000E+00
 50
0.00000000E+00
 51
8.99999818E+01
  0
CIRCLE
  8
0
 62
2
 10
-3.95000000E+02
 20
-3.26000000E+02
 40
3.00000000E+00
  0
CIRCLE
  8
0
 62
7
 10
-3.95000000E+02
 20
-3.26000000E+02
 40
4.50000000E+00
  0
CIRCLE
  8
0
 62
7
 10
-3.95000000E+02
 20
-3.26000000E+02
 40
4.75000000E+00
  0
CIRCLE
  8
0
 62
2
 10
-4.42000061E+02
 20
-3.26000000E+02
 40
3.00000000E+00
  0
CIRCLE
  8
0
 62
7
 10
-4.42000061E+02
 20
-3.26000000E+02
 40
4.50000000E+00
  0
CIRCLE
  8
0
 62
7
 10
-4.42000061E+02
 20
-3.26000000E+02
 40
4.75000000E+00
  0
ARC
  8
0
 62
7
 10
-3.86340851E+02
 20
-3.46500023E+02
 40
6.84084606E+00
 50
3.33989137E+02
 51
2.60107913E+01
  0
ARC
  8
0
 62
7
 10
-4.50659180E+02
 20
-3.46500023E+02
 40
6.84084606E+00
 50
1.53989169E+02
 51
2.06010827E+02
  0
ARC
  8
0
 62
7
 10
1.53659195E+02
 20
-3.46500023E+02
 40
6.84084606E+00
 50
3.33989137E+02
 51
2.60107947E+01
  0
ARC
  8
0
 62
7
 10
1.49000031E+02
 20
-3.22000000E+02
 40
3.50000000E+00
 50
0.00000000E+00
 51
8.99999818E+01
  0
ARC
  8
0
 62
7
 10
8.93408661E+01
 20
-3.46500023E+02
 40
6.84084606E+00
 50
1.53989169E+02
 51
2.06010827E+02
  0
ARC
  8
0
 62
7
 10
9.39999847E+01
 20
-3.22000000E+02
 40
3.50000000E+00
 50
8.99999818E+01
 51
1.79999964E+02
  0
ARC
  8
0
 62
7
 10
-4.18500000E+02
 20
-3.49500000E+02
 40
1.30000000E+01
 50
0.00000000E+00
 51
1.80000000E+02
  0
ARC
  8
0
 62
7
 10
-4.18500000E+02
 20
-3.49500000E+02
 40
1.20000000E+01
 50
9.64435357E+01
 51
1.43556464E+02
  0
ARC
  8
0
 62
7
 10
-4.18500000E+02
 20
-3.49500000E+02
 40
1.22500000E+01
 50
9.38910941E+01
 51
1.46108906E+02
  0
CIRCLE
  8
0
 62
2
 10
1.40000000E+02
 20
-3.30999924E+02
 40
3.00000000E+00
  0
ARC
  8
0
 62
7
 10
9.95000000E+01
 20
-3.27500031E+02
 40
2.50000000E+00
 50
9.00000162E+01
 51
1.80000005E+02
  0
CIRCLE
  8
0
 62
7
 10
1.02999939E+02
 20
-3.31000000E+02
 40
5.00000000E+00
  0
CIRCLE
  8
0
 62
7
 10
1.02999939E+02
 20
-3.31000000E+02
 40
4.50000000E+00
  0
ARC
  8
0
 62
7
 10
1.09891418E+02
 20
-3.35063019E+02
 40
1.00000000E+00
 50
1.49477556E+02
 51
2.24999381E+02
  0
ARC
  8
0
 62
7
 10
1.00500000E+02
 20
-3.47500000E+02
 40
1.00000000E+00
 50
1.79999991E+02
 51
2.70000028E+02
  0
ARC
  8
0
 62
7
 10
1.04618042E+02
 20
-3.47500000E+02
 40
1.00000000E+00
 50
2.70000038E+02
 51
3.53243910E+02
  0
ARC
  8
0
 62
7
 10
1.07062988E+02
 20
-3.37891434E+02
 40
1.00000000E+00
 50
4.50006569E+01
 51
1.20522253E+02
  0
ARC
  8
0
 62
7
 10
1.19500000E+02
 20
-3.28500000E+02
 40
1.00000000E+00
 50
3.59721781E-05
 51
9.00000162E+01
  0
ARC
  8
0
 62
7
 10
1.19500000E+02
 20
-3.32618057E+02
 40
1.00000000E+00
 50
2.76756256E+02
 51
3.59721781E-05
  0
ARC
  8
0
 62
7
 10
1.08148438E+02
 20
-3.38976913E+02
 40
1.00000000E+00
 50
3.21756388E+02
 51
4.50000423E+01
  0
ARC
  8
0
 62
7
 10
1.10976868E+02
 20
-3.36148483E+02
 40
1.00000000E+00
 50
2.25000614E+02
 51
3.08244204E+02
  0
ARC
  8
0
 62
7
 10
9.95000000E+01
 20
-3.27499969E+02
 40
3.00000000E+00
 50
9.00000162E+01
 51
1.80000005E+02
  0
ARC
  8
0
 62
7
 10
1.00500000E+02
 20
-3.44499969E+02
 40
1.00000000E+00
 50
9.00000162E+01
 51
1.80000005E+02
  0
ARC
  8
0
 62
7
 10
1.00500000E+02
 20
-3.40499969E+02
 40
3.00000000E+00
 50
2.70000052E+02
 51
2.02641660E+00
  0
ARC
  8
0
 62
7
 10
1.04497498E+02
 20
-3.38858536E+02
 40
1.00000000E+00
 50
1.00789092E+02
 51
1.82026126E+02
  0
ARC
  8
0
 62
7
 10
1.03000000E+02
 20
-3.30999939E+02
 40
7.00000000E+00
 50
2.80788643E+02
 51
3.49211298E+02
  0
ARC
  8
0
 62
7
 10
1.10858582E+02
 20
-3.32497437E+02
 40
1.00000000E+00
 50
8.79748173E+01
 51
1.69211544E+02
  0
ARC
  8
0
 62
7
 10
1.12500000E+02
 20
-3.28499939E+02
 40
3.00000000E+00
 50
2.67974191E+02
 51
3.59999431E+02
  0
ARC
  8
0
 62
7
 10
1.16500000E+02
 20
-3.28499969E+02
 40
1.00000000E+00
 50
9.00000162E+01
 51
1.80000005E+02
  0
ARC
  8
0
 62
7
 10
1.43500000E+02
 20
-3.27499969E+02
 40
2.50000000E+00
 50
3.59721781E-05
 51
9.00000162E+01
  0
ARC
  8
0
 62
7
 10
1.43500061E+02
 20
-3.27499969E+02
 40
3.00000000E+00
 50
3.59721781E-05
 51
9.00000162E+01
  0
CIRCLE
  8
0
 62
7
 10
1.40000000E+02
 20
-3.30999939E+02
 40
4.50000000E+00
  0
CIRCLE
  8
0
 62
7
 10
1.40000000E+02
 20
-3.30999939E+02
 40
5.00000000E+00
  0
ARC
  8
0
 62
7
 10
1.42500000E+02
 20
-3.47500000E+02
 40
1.00000000E+00
 50
2.70000052E+02
 51
3.59721781E-05
  0
ARC
  8
0
 62
7
 10
1.23500000E+02
 20
-3.28500000E+02
 40
1.00000000E+00
 50
9.00000025E+01
 51
1.80000046E+02
  0
ARC
  8
0
 62
7
 10
1.33108582E+02
 20
-3.35062958E+02
 40
1.00000000E+00
 50
3.15000662E+02
 51
3.05222541E+01
  0
ARC
  8
0
 62
7
 10
1.40000000E+02
 20
-3.30999939E+02
 40
7.00000000E+00
 50
1.90788716E+02
 51
2.59211379E+02
  0
ARC
  8
0
 62
7
 10
1.35937012E+02
 20
-3.37891388E+02
 40
1.00000000E+00
 50
5.94775673E+01
 51
1.34999386E+02
  0
ARC
  8
0
 62
7
 10
1.23500000E+02
 20
-3.32618042E+02
 40
1.00000000E+00
 50
1.80000036E+02
 51
2.63243916E+02
  0
ARC
  8
0
 62
7
 10
1.32023132E+02
 20
-3.36148407E+02
 40
1.00000000E+00
 50
2.31756382E+02
 51
3.15000026E+02
  0
ARC
  8
0
 62
7
 10
1.34851562E+02
 20
-3.38976837E+02
 40
1.00000000E+00
 50
1.35000629E+02
 51
2.18244215E+02
  0
ARC
  8
0
 62
7
 10
1.38381958E+02
 20
-3.47500000E+02
 40
1.00000000E+00
 50
1.86756227E+02
 51
2.70000038E+02
  0
ARC
  8
0
 62
7
 10
1.42500000E+02
 20
-3.40499969E+02
 40
3.00000000E+00
 50
1.79999991E+02
 51
2.69999974E+02
  0
ARC
  8
0
 62
7
 10
1.30500061E+02
 20
-3.28499939E+02
 40
3.00000000E+00
 50
1.80000582E+02
 51
2.72025825E+02
  0
ARC
  8
0
 62
7
 10
1.42500000E+02
 20
-3.44499969E+02
 40
1.00000000E+00
 50
3.59721781E-05
 51
9.00000162E+01
  0
ARC
  8
0
 62
7
 10
1.38502502E+02
 20
-3.38858536E+02
 40
1.00000000E+00
 50
3.57973915E+02
 51
7.92109402E+01
  0
ARC
  8
0
 62
7
 10
1.26500061E+02
 20
-3.28499969E+02
 40
1.00000000E+00
 50
3.59721781E-05
 51
9.00000162E+01
  0
ARC
  8
0
 62
7
 10
1.32141418E+02
 20
-3.32497437E+02
 40
1.00000000E+00
 50
1.07884972E+01
 51
9.20252152E+01
  0
ARC
  8
0
 62
7
 10
1.21500000E+02
 20
-3.49500000E+02
 40
1.60000000E+01
 50
0.00000000E+00
 51
1.80000000E+02
  0
CIRCLE
  8
0
 62
2
 10
1.02999939E+02
 20
-3.30999924E+02
 40
3.00000000E+00
  0
ARC
  8
0
 62
4
 10
-4.18500000E+02
 20
-3.49500000E+02
 40
1.10000000E+01
 50
0.00000000E+00
 51
1.80000000E+02
  0
LINE
  8
0
 62
4
 10
-4.18500000E+02
 20
-3.36798294E+02
 11
-4.29500000E+02
 21
-3.43149147E+02
  0
LINE
  8
0
 62
4
 10
-4.29500000E+02
 20
-3.43149147E+02
 11
-4.29500000E+02
 21
-3.49500000E+02
  0
LINE
  8
0
 62
4
 10
-4.07500000E+02
 20
-3.49500000E+02
 11
-4.07500000E+02
 21
-3.43149147E+02
  0
LINE
  8
0
 62
4
 10
-4.07500000E+02
 20
-3.43149147E+02
 11
-4.18500000E+02
 21
-3.36798294E+02
  0
ARC
  8
0
 62
2
 10
-4.18500000E+02
 20
-3.49500000E+02
 40
6.17999268E+00
 50
0.00000000E+00
 51
1.80000000E+02
  0
ARC
  8
0
 62
7
 10
-4.18500000E+02
 20
-3.49500000E+02
 40
1.20000000E+01
 50
1.56443536E+02
 51
1.80000000E+02
  0
ARC
  8
0
 62
7
 10
-4.18500000E+02
 20
-3.49500000E+02
 40
1.22500000E+01
 50
1.53891095E+02
 51
1.80000000E+02
  0
ARC
  8
0
 62
7
 10
-4.18500000E+02
 20
-3.49500000E+02
 40
1.20000000E+01
 50
0.00000000E+00
 51
1.80000000E+02
  0
ARC
  8
0
 62
7
 10
-4.18500000E+02
 20
-3.49500000E+02
 40
1.22500000E+01
 50
0.00000000E+00
 51
1.80000000E+02
  0
ARC
  8
0
 62
7
 10
-4.18500000E+02
 20
-3.49500000E+02
 40
1.22500000E+01
 50
0.00000000E+00
 51
1.80000000E+02
  0
ARC
  8
0
 62
7
 10
-4.18500000E+02
 20
-3.49500000E+02
 40
1.22500000E+01
 50
0.00000000E+00
 51
1.80000000E+02
  0
ARC
  8
0
 62
7
 10
-4.18500000E+02
 20
-3.49500000E+02
 40
1.20000000E+01
 50
3.64435357E+01
 51
8.35564641E+01
  0
ARC
  8
0
 62
7
 10
-4.18500000E+02
 20
-3.49500000E+02
 40
1.22500000E+01
 50
3.38910943E+01
 51
8.61089057E+01
  0
LINE
  8
0
 62
7
 10
1.44888604E+02
 20
-3.18500000E+02
 11
1.49000031E+02
 21
-3.18500000E+02
  0
TEXT
  8
0
 10
-4.72146873E+01
 20
3.51614332E+02
 40
9.00000000E+00
  1
STRETCH LINE
 41
1.05263158E+00
  7
MONOTXT
  0
LINE
  8
0
 62
7
 10
5.74500000E+02
 20
4.00500000E+02
 11
5.74500000E+02
 21
-4.00500000E+02
  0
LINE
  8
0
 62
7
 10
-5.64500000E+02
 20
4.00500000E+02
 11
5.74500000E+02
 21
4.00500000E+02
  0
LINE
  8
0
 62
7
 10
-5.64500000E+02
 20
-4.00500000E+02
 11
5.74500000E+02
 21
-4.00500000E+02
  0
LINE
  8
0
 62
7
 10
-5.64500000E+02
 20
4.00500000E+02
 11
-5.64500000E+02
 21
-4.00500000E+02
  0
LINE
  8
0
 62
7
 10
-5.64500000E+02
 20
3.70500000E+02
 11
-3.34500000E+02
 21
3.70500000E+02
  0
LINE
  8
0
 62
7
 10
3.44500000E+02
 20
3.70500000E+02
 11
5.74500000E+02
 21
3.70500000E+02
  0
LINE
  8
0
 62
7
 10
3.44500000E+02
 20
-3.70500000E+02
 11
5.74500000E+02
 21
-3.70500000E+02
  0
LINE
  8
0
 62
7
 10
3.44500000E+02
 20
-3.70500000E+02
 11
3.44500000E+02
 21
-4.00500000E+02
  0
LINE
  8
0
 62
7
 10
3.44500000E+02
 20
4.00500000E+02
 11
3.44500000E+02
 21
3.70500000E+02
  0
LINE
  8
0
 62
7
 10
-3.34500000E+02
 20
4.00500000E+02
 11
-3.34500000E+02
 21
3.70500000E+02
  0
TEXT
  8
0
 62
7
 10
-5.37179687E+02
 20
3.34250000E+02
 40
1.25000000E+01
  1
MODEL:DDAR40*75
 41
1.00000015E+00
  7
MONOTXT
  0
TEXT
  8
0
 62
7
 10
4.11285149E+02
 20
3.79250000E+02
 40
1.25000000E+01
  1
Ver. 1.0
 41
1.08108125E+00
  7
MONOTXT
  0
TEXT
  8
0
 62
7
 10
3.50070624E+02
 20
-3.94500000E+02
 40
1.80000000E+01
  1
KOGANEI CORP.
 41
1.04838710E+00
  7
MONOTXT
  0
TEXT
  8
0
 62
7
 10
-5.53964859E+02
 20
3.79250000E+02
 40
1.25000000E+01
  1
NEW DYNA CYLINDER
 41
1.07594953E+00
  7
MONOTXT
  0
ENDSEC
  0
EOF
