  0
SECTION
  2
HEADER
  9
$ACADVER
  1
AC1003
  9
$EXTMIN
 10
-1.94250000E+02
 20
-1.33500000E+02
  9
$EXTMAX
 10
1.94800003E+02
 20
1.32600006E+02
  9
$LIMMIN
 10
-1.94251000E+02
 20
-1.33501000E+02
  9
$LIMMAX
 10
1.94801003E+02
 20
1.32601006E+02
  9
$SNAPUNIT
 10
1
 20
1
  9
$SNAPBASE
 10
0
 20
0
  9
$GRIDMODE
 70
0
  9
$GRIDUNIT
 10
0
 20
0
  9
$LTSCALE
 40
6.48416672E+00
  9
$TEXTSIZE
 40
3.2
  9
$DIMTAD
 70
0
  9
$LUNITS
 70
2
  9
$LUPREC
 70
4
  9
$FILLETRAD
 40
0
  9
$AUNITS
 70
0
  9
$AUPREC
 70
0
  0
ENDSEC
  0
SECTION
  2
TABLES
  0
TABLE
  2
LTYPE
 70
2
  0
LTYPE
  2
CONTINUOUS
 70
64
  3
Solid-Line
 72
65
 73
0
 40
0
  0
LTYPE
  2
DASHED
 70
64
  3
DASHED
 72
65
 73
2
 40
.75
 49
.5
 49
-.25
  0
LTYPE
  2
HIDDEN
 70
64
  3
HIDDEN
 72
65
 73
2
 40
.375
 49
.25
 49
-.125
  0
LTYPE
  2
CENTER
 70
64
  3
CENTER
 72
65
 73
4
 40
2
 49
1.25
 49
-.25
 49
.25
 49
-.25
  0
LTYPE
  2
PHANTOM
 70
64
  3
PHANTOM
 72
65
 73
6
 40
2.5
 49
1.25
 49
-.25
 49
.25
 49
-.25
 49
.25
 49
-.25
  0
ENDTAB
  0
TABLE
  2
LAYER
 70
1
  0
LAYER
  2
1
 70
0
 62
7
  6
CONTINUOUS
 0
ENDTAB
  0
TABLE
  2
STYLE
 70
2
  0
STYLE
  2
MONOTXT
 70
0
 40
0
 41
1
 50
0
 71
0
 42
.2
  3
monotxt
  0
STYLE
  2
BIGFONT
 70
0
 40
0
 41
1
 50
0
 71
0
 42
.2
  3
txt
  4
bigfont
  0
ENDTAB
  0
ENDSEC
  0
SECTION
  2
ENTITIES
  0
ARC
  8
0
 62
4
 10
6.12826903E+01
 20
-6.19419446E+01
 40
1.00000000E+00
 50
2.70000018E+02
 51
0.00000000E+00
  0
ARC
  8
0
 62
4
 10
6.09827025E+01
 20
-6.16419415E+01
 40
4.50000000E+00
 50
2.70000018E+02
 51
0.00000000E+00
  0
LINE
  8
0
 62
4
 10
2.54827006E+01
 20
-6.61419415E+01
 11
6.09827025E+01
 21
-6.61419415E+01
  0
LINE
  8
0
 62
4
 10
2.54827006E+01
 20
-6.29419446E+01
 11
6.12826903E+01
 21
-6.29419446E+01
  0
LINE
  8
0
 62
4
 10
6.22826899E+01
 20
-3.86419415E+01
 11
6.22826899E+01
 21
-6.19419446E+01
  0
LINE
  8
0
  6
CENTER
 62
6
 10
3.74827025E+01
 20
-5.98005566E+01
 11
3.74827025E+01
 21
-6.87031903E+01
  0
LINE
  8
0
 62
4
 10
4.74826788E+01
 20
-6.29419622E+01
 11
6.22826893E+01
 21
-5.61419556E+01
  0
LINE
  8
0
 62
4
 10
6.22826899E+01
 20
-3.86419415E+01
 11
6.54827021E+01
 21
-3.86419415E+01
  0
LINE
  8
0
 62
4
 10
2.54827006E+01
 20
-6.29419446E+01
 11
2.54827006E+01
 21
-6.61419415E+01
  0
LINE
  8
0
 62
4
 10
6.54827021E+01
 20
-6.16433148E+01
 11
6.54827021E+01
 21
-3.86419415E+01
  0
LINE
  8
0
  6
CENTER
 62
6
 10
6.60417355E+01
 20
-4.86419415E+01
 11
6.07315152E+01
 21
-4.86419415E+01
  0
LINE
  8
0
 62
4
 10
6.54827326E+01
 20
-4.36419110E+01
 11
6.54827326E+01
 21
-5.31419720E+01
  0
CIRCLE
  8
0
 62
4
 10
-9.50173490E+01
 20
-4.86419415E+01
 40
2.75000000E+00
  0
ARC
  8
0
 62
4
 10
-6.21692349E+01
 20
-5.71419415E+01
 40
1.00000000E+00
 50
2.38059908E+01
 51
8.99999818E+01
  0
ARC
  8
0
 62
4
 10
-8.08656156E+01
 20
-5.71419415E+01
 40
1.00000000E+00
 50
8.99999818E+01
 51
1.56194023E+02
  0
ARC
  8
0
 62
4
 10
-4.56380460E+01
 20
-4.69402814E+01
 40
6.00000000E+00
 50
9.99998435E+00
 51
7.99999907E+01
  0
ARC
  8
0
 62
4
 10
-9.73968045E+01
 20
-4.69402814E+01
 40
6.00000000E+00
 50
9.99999730E+01
 51
1.69999979E+02
  0
CIRCLE
  8
0
 62
4
 10
-4.80174253E+01
 20
-4.86419415E+01
 40
2.75000000E+00
  0
ARC
  8
0
 62
4
 10
-7.15173642E+01
 20
-2.51419034E+01
 40
1.90000000E+01
 50
2.25277893E+02
 51
3.14721976E+02
  0
LINE
  8
0
 62
4
 10
-1.05517425E+02
 20
-6.29419460E+01
 11
-1.03347195E+02
 21
-4.61703113E+01
  0
LINE
  8
0
 62
4
 10
-3.75174179E+01
 20
-6.29419492E+01
 11
-3.96876489E+01
 21
-4.61703107E+01
  0
LINE
  8
0
  6
CENTER
 62
6
 10
-9.50173490E+01
 20
-4.41419415E+01
 11
-9.50173490E+01
 21
-6.92881665E+01
  0
LINE
  8
0
  6
CENTER
 62
6
 10
-7.15173947E+01
 20
-3.53052563E+01
 11
-7.15173947E+01
 21
-6.95812802E+01
  0
LINE
  8
0
  6
CENTER
 62
6
 10
-4.80174253E+01
 20
-4.41419415E+01
 11
-4.80174253E+01
 21
-6.92881665E+01
  0
LINE
  8
0
  6
CENTER
 62
6
 10
-5.22048032E+01
 20
-4.86419415E+01
 11
-4.40231168E+01
 21
-4.86419415E+01
  0
LINE
  8
0
 62
4
 10
-6.12543079E+01
 20
-5.67383064E+01
 11
-5.85174132E+01
 21
-6.29419372E+01
  0
LINE
  8
0
 62
4
 10
-8.45174250E+01
 20
-6.29419385E+01
 11
-8.17805234E+01
 21
-5.67382921E+01
  0
LINE
  8
0
 62
4
 10
-8.15174253E+01
 20
-5.76089825E+01
 11
-8.15174253E+01
 21
-6.29419446E+01
  0
LINE
  8
0
 62
4
 10
-6.15174253E+01
 20
-5.76089825E+01
 11
-6.15174253E+01
 21
-6.29419446E+01
  0
LINE
  8
0
 62
4
 10
-8.08656156E+01
 20
-5.61419415E+01
 11
-6.21692349E+01
 21
-5.61419415E+01
  0
LINE
  8
0
 62
4
 10
-3.75174253E+01
 20
-6.29419446E+01
 11
-3.75174253E+01
 21
-6.61419415E+01
  0
LINE
  8
0
 62
4
 10
-1.05517425E+02
 20
-6.29419446E+01
 11
-3.75174253E+01
 21
-6.29419446E+01
  0
LINE
  8
0
 62
4
 10
-1.05517425E+02
 20
-6.61419415E+01
 11
-3.75174253E+01
 21
-6.61419415E+01
  0
LINE
  8
0
 62
4
 10
-4.45961788E+01
 20
-4.10314617E+01
 11
-5.81476837E+01
 21
-3.86419656E+01
  0
LINE
  8
0
  6
CENTER
 62
6
 10
-9.95541684E+01
 20
-4.86419415E+01
 11
-9.08502347E+01
 21
-4.86419415E+01
  0
LINE
  8
0
 62
4
 10
-9.84386950E+01
 20
-4.10314456E+01
 11
-8.48870548E+01
 21
-3.86419257E+01
  0
LINE
  8
0
 62
4
 10
-1.05517425E+02
 20
-6.29419446E+01
 11
-1.05517425E+02
 21
-6.61419415E+01
  0
ARC
  8
0
 62
4
 10
4.89827025E+01
 20
5.85845676E+01
 40
1.50000000E+00
 50
1.79999977E+02
 51
2.58541484E+02
  0
ARC
  8
0
 62
4
 10
4.89827025E+01
 20
7.61316867E+01
 40
1.50000000E+00
 50
1.01458642E+02
 51
1.79999977E+02
  0
ARC
  8
0
 62
4
 10
3.84827025E+01
 20
4.38581271E+01
 40
5.50000000E+00
 50
2.70000038E+02
 51
9.00000025E+01
  0
ARC
  8
0
 62
4
 10
3.34827006E+01
 20
9.33581271E+01
 40
8.00000000E+00
 50
9.00000025E+01
 51
1.79999977E+02
  0
ARC
  8
0
 62
4
 10
3.34827006E+01
 20
4.13581271E+01
 40
8.00000000E+00
 50
1.79999977E+02
 51
2.70000028E+02
  0
ARC
  8
0
 62
4
 10
3.64827044E+01
 20
9.08581271E+01
 40
5.50000000E+00
 50
9.00000025E+01
 51
2.70000028E+02
  0
ARC
  8
0
 62
4
 10
3.64827044E+01
 20
4.38581271E+01
 40
5.50000000E+00
 50
9.00000025E+01
 51
2.70000028E+02
  0
ARC
  8
0
 62
4
 10
3.84827025E+01
 20
9.08581271E+01
 40
5.50000000E+00
 50
2.70000038E+02
 51
9.00000025E+01
  0
LINE
  8
0
 62
4
 10
6.22826899E+01
 20
7.73581271E+01
 11
4.90653441E+01
 21
7.73581271E+01
  0
LINE
  8
0
 62
4
 10
6.22826899E+01
 20
5.73581271E+01
 11
4.90653441E+01
 21
5.73581271E+01
  0
LINE
  8
0
 62
4
 10
4.86847214E+01
 20
7.76017416E+01
 11
6.22826841E+01
 21
8.03580846E+01
  0
LINE
  8
0
 62
4
 10
6.22826732E+01
 20
5.43581134E+01
 11
4.86847124E+01
 21
5.71144560E+01
  0
LINE
  8
0
 62
4
 10
4.74827025E+01
 20
5.85845676E+01
 11
4.74827025E+01
 21
7.61316867E+01
  0
LINE
  8
0
 62
4
 10
3.84827025E+01
 20
4.93581271E+01
 11
3.64827044E+01
 21
4.93581271E+01
  0
LINE
  8
0
 62
4
 10
3.84827025E+01
 20
3.83581271E+01
 11
3.64827044E+01
 21
3.83581271E+01
  0
LINE
  8
0
 62
4
 10
2.54827006E+01
 20
4.13581271E+01
 11
2.54827006E+01
 21
9.33581271E+01
  0
LINE
  8
0
  6
CENTER
 62
6
 10
6.77224946E+01
 20
9.08581271E+01
 11
2.85939677E+01
 21
9.08581271E+01
  0
LINE
  8
0
  6
CENTER
 62
6
 10
6.68235374E+01
 20
4.38581271E+01
 11
2.85939677E+01
 21
4.38581271E+01
  0
LINE
  8
0
  6
CENTER
 62
6
 10
3.74827025E+01
 20
3.49350314E+01
 11
3.74827025E+01
 21
5.23091159E+01
  0
LINE
  8
0
 62
4
 10
3.84827025E+01
 20
8.53581271E+01
 11
3.64827044E+01
 21
8.53581271E+01
  0
LINE
  8
0
 62
4
 10
3.84827025E+01
 20
9.63581271E+01
 11
3.64827044E+01
 21
9.63581271E+01
  0
LINE
  8
0
 62
4
 10
6.54827021E+01
 20
3.33581271E+01
 11
3.34827006E+01
 21
3.33581271E+01
  0
LINE
  8
0
 62
4
 10
6.54827021E+01
 20
1.01358127E+02
 11
3.34827006E+01
 21
1.01358127E+02
  0
LINE
  8
0
 62
4
 10
6.22826899E+01
 20
3.33581271E+01
 11
6.22826899E+01
 21
1.01358127E+02
  0
LINE
  8
0
  6
CENTER
 62
6
 10
3.74827025E+01
 20
9.97812228E+01
 11
3.74827025E+01
 21
8.24071384E+01
  0
LINE
  8
0
  6
CENTER
 62
6
 10
2.20465548E+01
 20
6.73581271E+01
 11
6.94465167E+01
 21
6.73581271E+01
  0
LINE
  8
0
 62
4
 10
6.22826899E+01
 20
8.63581271E+01
 11
6.54827021E+01
 21
8.63581271E+01
  0
LINE
  8
0
 62
4
 10
6.22826899E+01
 20
4.83581271E+01
 11
6.54827021E+01
 21
4.83581271E+01
  0
LINE
  8
0
 62
4
 10
6.54827021E+01
 20
1.01358554E+02
 11
6.54827021E+01
 21
3.33585544E+01
  0
TEXT
  8
0
 62
7
 10
-1.89357136E+02
 20
1.22850006E+02
 40
4.50000000E+00
  1
NEW DYNA CYLINDER
 41
1.07594914E+00
  7
MONOTXT
  0
TEXT
  8
0
 62
7
 10
-1.85214688E+02
 20
1.05350006E+02
 40
4.50000000E+00
  1
MODEL:DDAR50-1
 41
1.00000000E+00
  7
MONOTXT
  0
LINE
  8
0
 62
7
 10
-1.94250000E+02
 20
1.32600006E+02
 11
1.94800003E+02
 21
1.32600006E+02
  0
LINE
  8
0
 62
7
 10
1.94800003E+02
 20
1.32600006E+02
 11
1.94800003E+02
 21
-1.33500000E+02
  0
LINE
  8
0
 62
7
 10
-1.94250000E+02
 20
1.32600006E+02
 11
-1.94250000E+02
 21
-1.33500000E+02
  0
LINE
  8
0
 62
7
 10
-1.94250000E+02
 20
-1.33500000E+02
 11
1.94800003E+02
 21
-1.33500000E+02
  0
LINE
  8
0
 62
7
 10
1.09800003E+02
 20
-1.18500000E+02
 11
1.09800003E+02
 21
-1.33500000E+02
  0
LINE
  8
0
 62
7
 10
1.09800003E+02
 20
-1.18500000E+02
 11
1.94800003E+02
 21
-1.18500000E+02
  0
LINE
  8
0
 62
7
 10
1.09800003E+02
 20
1.32600006E+02
 11
1.09800003E+02
 21
1.17600006E+02
  0
LINE
  8
0
 62
7
 10
1.09800003E+02
 20
1.17600006E+02
 11
1.94800003E+02
 21
1.17600006E+02
  0
LINE
  8
0
 62
7
 10
-1.94250000E+02
 20
1.17600006E+02
 11
-1.09250000E+02
 21
1.17600006E+02
  0
LINE
  8
0
 62
7
 10
-1.09250000E+02
 20
1.32600006E+02
 11
-1.09250000E+02
 21
1.17600006E+02
  0
TEXT
  8
0
 62
7
 10
1.34942863E+02
 20
1.22850006E+02
 40
4.50000000E+00
  1
Ver. 1.0
 41
1.08108085E+00
  7
MONOTXT
  0
TEXT
  8
0
 62
7
 10
1.15249715E+02
 20
-1.29150000E+02
 40
6.30000019E+00
  1
KOGANEI CORP.
 41
1.04838725E+00
  7
MONOTXT
  0
ENDSEC
  0
EOF
