  0
SECTION
  2
HEADER
  9
$ACADVER
  1
AC1003
  9
$EXTMIN
 10
-1.94250000E+02
 20
-1.33500000E+02
  9
$EXTMAX
 10
1.94800003E+02
 20
1.32600006E+02
  9
$LIMMIN
 10
-1.94251000E+02
 20
-1.33501000E+02
  9
$LIMMAX
 10
1.94801003E+02
 20
1.32601006E+02
  9
$SNAPUNIT
 10
1
 20
1
  9
$SNAPBASE
 10
0
 20
0
  9
$GRIDMODE
 70
0
  9
$GRIDUNIT
 10
0
 20
0
  9
$LTSCALE
 40
6.48416672E+00
  9
$TEXTSIZE
 40
3.2
  9
$DIMTAD
 70
0
  9
$LUNITS
 70
2
  9
$LUPREC
 70
4
  9
$FILLETRAD
 40
0
  9
$AUNITS
 70
0
  9
$AUPREC
 70
0
  0
ENDSEC
  0
SECTION
  2
TABLES
  0
TABLE
  2
LTYPE
 70
2
  0
LTYPE
  2
CONTINUOUS
 70
64
  3
Solid-Line
 72
65
 73
0
 40
0
  0
LTYPE
  2
DASHED
 70
64
  3
DASHED
 72
65
 73
2
 40
.75
 49
.5
 49
-.25
  0
LTYPE
  2
HIDDEN
 70
64
  3
HIDDEN
 72
65
 73
2
 40
.375
 49
.25
 49
-.125
  0
LTYPE
  2
CENTER
 70
64
  3
CENTER
 72
65
 73
4
 40
2
 49
1.25
 49
-.25
 49
.25
 49
-.25
  0
LTYPE
  2
PHANTOM
 70
64
  3
PHANTOM
 72
65
 73
6
 40
2.5
 49
1.25
 49
-.25
 49
.25
 49
-.25
 49
.25
 49
-.25
  0
ENDTAB
  0
TABLE
  2
LAYER
 70
1
  0
LAYER
  2
1
 70
0
 62
7
  6
CONTINUOUS
 0
ENDTAB
  0
TABLE
  2
STYLE
 70
2
  0
STYLE
  2
MONOTXT
 70
0
 40
0
 41
1
 50
0
 71
0
 42
.2
  3
monotxt
  0
STYLE
  2
BIGFONT
 70
0
 40
0
 41
1
 50
0
 71
0
 42
.2
  3
txt
  4
bigfont
  0
ENDTAB
  0
ENDSEC
  0
SECTION
  2
ENTITIES
  0
LINE
  8
0
 62
4
 10
4.99119265E+01
 20
-8.55269515E+01
 11
7.63561404E+01
 21
-8.55269515E+01
  0
LINE
  8
0
 62
4
 10
4.34119265E+01
 20
-7.75269515E+01
 11
5.59119265E+01
 21
-7.75269515E+01
  0
LINE
  8
0
 62
4
 10
4.29119265E+01
 20
-8.75269515E+01
 11
4.29119265E+01
 21
-1.01526936E+02
  0
LINE
  8
0
 62
4
 10
7.99118589E+01
 20
-1.01526934E+02
 11
7.73102845E+01
 21
-8.62277995E+01
  0
LINE
  8
0
 62
4
 10
4.09119265E+01
 20
-8.00269515E+01
 11
4.09119265E+01
 21
-1.01526936E+02
  0
LINE
  8
0
  6
CENTER
 62
6
 10
6.59119265E+01
 20
-8.33492934E+01
 11
6.59119265E+01
 21
-1.06614537E+02
  0
LINE
  8
0
 62
4
 10
4.39119265E+01
 20
-8.65269515E+01
 11
5.49119265E+01
 21
-8.65269515E+01
  0
LINE
  8
0
 62
4
 10
5.59119265E+01
 20
-8.55269515E+01
 11
5.59119265E+01
 21
-7.75269515E+01
  0
LINE
  8
0
 62
4
 10
4.09119265E+01
 20
-1.01526936E+02
 11
7.99118578E+01
 21
-1.01526936E+02
  0
LINE
  8
0
  6
CENTER
 62
6
 10
5.73310320E+01
 20
-8.70269362E+01
 11
3.83568118E+01
 21
-8.70269362E+01
  0
ARC
  8
0
 62
4
 10
4.39119265E+01
 20
-8.75269515E+01
 40
1.00000000E+00
 50
8.99999818E+01
 51
1.79999964E+02
  0
ARC
  8
0
 62
4
 10
4.34119265E+01
 20
-8.00269515E+01
 40
2.50000000E+00
 50
8.99999818E+01
 51
1.79999964E+02
  0
ARC
  8
0
 62
4
 10
7.63561404E+01
 20
-8.65269515E+01
 40
1.00000000E+00
 50
1.74051559E+01
 51
9.00008562E+01
  0
ARC
  8
0
 62
4
 10
5.49119265E+01
 20
-8.55269515E+01
 40
1.00000000E+00
 50
2.70000018E+02
 51
1.01777750E-13
  0
ARC
  8
0
 62
4
 10
4.99119265E+01
 20
-8.65269515E+01
 40
1.00000000E+00
 50
8.99999818E+01
 51
1.79999964E+02
  0
LINE
  8
0
  6
CENTER
 62
6
 10
-1.14588196E+02
 20
-9.39062010E+01
 11
-1.14588196E+02
 21
-8.24247939E+01
  0
LINE
  8
0
 62
4
 10
-3.85881345E+01
 20
-1.01526936E+02
 11
-3.85881345E+01
 21
-8.85268904E+01
  0
LINE
  8
0
  6
CENTER
 62
6
 10
-4.95881345E+01
 20
-1.06226552E+02
 11
-4.95881345E+01
 21
-8.20262419E+01
  0
LINE
  8
0
 62
4
 10
-1.24501779E+02
 20
-1.01526883E+02
 11
-1.22117680E+02
 21
-8.00059332E+01
  0
LINE
  8
0
 62
4
 10
-1.06558464E+02
 20
-8.00059725E+01
 11
-1.04174369E+02
 21
-1.01526893E+02
  0
LINE
  8
0
  6
CENTER
 62
6
 10
-6.34299772E+01
 20
-8.70269362E+01
 11
-7.22774198E+01
 21
-8.70269362E+01
  0
LINE
  8
0
  6
CENTER
 62
6
 10
-6.75881956E+01
 20
-9.23008010E+01
 11
-6.75881956E+01
 21
-8.24247939E+01
  0
LINE
  8
0
  6
CENTER
 62
6
 10
-1.09802826E+02
 20
-8.70269362E+01
 11
-1.19565521E+02
 21
-8.70269362E+01
  0
LINE
  8
0
 62
4
 10
-5.90850217E+01
 20
-8.55268904E+01
 11
-4.15881345E+01
 21
-8.55268904E+01
  0
LINE
  8
0
 62
4
 10
-1.05162292E+02
 20
-8.45268904E+01
 11
-7.70140226E+01
 21
-8.45268904E+01
  0
LINE
  8
0
 62
4
 10
-1.40588135E+02
 20
-8.55268904E+01
 11
-1.22729309E+02
 21
-8.55268904E+01
  0
LINE
  8
0
  6
CENTER
 62
6
 10
-1.32588135E+02
 20
-8.13840834E+01
 11
-1.32588135E+02
 21
-1.06226552E+02
  0
LINE
  8
0
 62
4
 10
-7.26633909E+01
 20
-7.75268904E+01
 11
-6.30129392E+01
 21
-7.75268904E+01
  0
LINE
  8
0
 62
4
 10
-1.04719177E+02
 20
-8.85268904E+01
 11
-7.74571378E+01
 21
-8.85268904E+01
  0
LINE
  8
0
 62
4
 10
-6.00585695E+01
 20
-8.00059518E+01
 11
-5.76744764E+01
 21
-1.01526865E+02
  0
LINE
  8
0
 62
4
 10
-7.80019465E+01
 20
-1.01526852E+02
 11
-7.56178521E+01
 21
-8.00059313E+01
  0
LINE
  8
0
 62
4
 10
-1.43588135E+02
 20
-8.85268904E+01
 11
-1.43588135E+02
 21
-1.01526936E+02
  0
LINE
  8
0
 62
4
 10
-1.19163330E+02
 20
-7.75268904E+01
 11
-1.09512909E+02
 21
-7.75268904E+01
  0
LINE
  8
0
 62
4
 10
-1.43588135E+02
 20
-1.01526936E+02
 11
-3.85881345E+01
 21
-1.01526936E+02
  0
LINE
  8
0
  6
CENTER
 62
6
 10
-9.10881345E+01
 20
-8.13840834E+01
 11
-9.10881345E+01
 21
-1.06226552E+02
  0
ARC
  8
0
 62
4
 10
-1.19163330E+02
 20
-8.05268904E+01
 40
3.00000000E+00
 50
8.99997636E+01
 51
1.69999911E+02
  0
ARC
  8
0
 62
4
 10
-4.15881345E+01
 20
-8.85268904E+01
 40
3.00000000E+00
 50
3.59721781E-05
 51
8.99999818E+01
  0
ARC
  8
0
 62
4
 10
-6.30129392E+01
 20
-8.05268904E+01
 40
3.00000000E+00
 50
1.00000868E+01
 51
9.00002007E+01
  0
ARC
  8
0
 62
4
 10
-7.26633909E+01
 20
-8.05268904E+01
 40
3.00000000E+00
 50
8.99999818E+01
 51
1.69999966E+02
  0
ARC
  8
0
 62
4
 10
-1.40588135E+02
 20
-8.85268904E+01
 40
3.00000000E+00
 50
8.99999818E+01
 51
1.79999964E+02
  0
ARC
  8
0
 62
4
 10
-1.09512909E+02
 20
-8.05268904E+01
 40
3.00000000E+00
 50
9.99999460E+00
 51
8.99999818E+01
  0
CIRCLE
  8
0
 62
4
 10
-1.14588196E+02
 20
-8.70269362E+01
 40
2.75000000E+00
  0
CIRCLE
  8
0
 62
4
 10
-6.75881956E+01
 20
-8.70269362E+01
 40
2.75000000E+00
  0
ARC
  8
0
 62
4
 10
-1.05162292E+02
 20
-8.35268904E+01
 40
1.00000000E+00
 50
1.86321472E+02
 51
2.69999998E+02
  0
ARC
  8
0
 62
4
 10
-7.70140226E+01
 20
-8.35268904E+01
 40
1.00000000E+00
 50
2.69999998E+02
 51
3.53678531E+02
  0
ARC
  8
0
 62
4
 10
-7.74571378E+01
 20
-8.75268904E+01
 40
1.00000000E+00
 50
2.69999998E+02
 51
3.53678531E+02
  0
ARC
  8
0
 62
4
 10
-1.04719177E+02
 20
-8.75268904E+01
 40
1.00000000E+00
 50
1.86321472E+02
 51
2.69999998E+02
  0
LINE
  8
0
 62
4
 10
5.59119265E+01
 20
3.24733156E+01
 11
5.59119265E+01
 21
9.44729951E+01
  0
LINE
  8
0
  6
CENTER
 62
6
 10
3.84481204E+01
 20
3.99731477E+01
 11
5.93269961E+01
 21
3.99731477E+01
  0
LINE
  8
0
  6
CENTER
 62
6
 10
3.81881716E+01
 20
8.69730867E+01
 11
5.80295794E+01
 21
8.69730867E+01
  0
LINE
  8
0
  6
CENTER
 62
6
 10
6.85391619E+01
 20
6.34731477E+01
 11
3.13970950E+01
 21
6.34731477E+01
  0
LINE
  8
0
  6
CENTER
 62
6
 10
6.59119265E+01
 20
2.94731477E+01
 11
6.59119265E+01
 21
1.44731477E+01
  0
LINE
  8
0
 62
4
 10
4.80146049E+01
 20
7.89336216E+01
 11
4.36772652E+01
 21
7.69154695E+01
  0
LINE
  8
0
 62
4
 10
5.69119265E+01
 20
3.14731477E+01
 11
7.59119265E+01
 21
3.14731477E+01
  0
LINE
  8
0
 62
4
 10
7.96707255E+01
 20
2.61050703E+01
 11
7.79649802E+01
 21
1.64313053E+01
  0
LINE
  8
0
 62
4
 10
5.38780520E+01
 20
1.14731477E+01
 11
7.20560916E+01
 21
1.14731477E+01
  0
LINE
  8
0
 62
4
 10
5.00358279E+01
 20
7.93511384E+01
 11
5.59119265E+01
 21
7.93511384E+01
  0
LINE
  8
0
 62
4
 10
5.59120602E+01
 20
3.24731794E+01
 11
5.69120825E+01
 21
3.14731564E+01
  0
LINE
  8
0
  6
CENTER
 62
6
 10
5.84119265E+01
 20
2.19731477E+01
 11
7.34119265E+01
 21
2.19731477E+01
  0
LINE
  8
0
 62
4
 10
4.09119265E+01
 20
3.00595125E+01
 11
4.09119265E+01
 21
5.03869050E+01
  0
LINE
  8
0
 62
4
 10
5.45656130E+01
 20
3.00595125E+01
 11
4.09119265E+01
 21
3.00595125E+01
  0
LINE
  8
0
 62
4
 10
4.82399279E+01
 20
1.54211175E+01
 11
4.29119792E+01
 21
3.00595371E+01
  0
LINE
  8
0
 62
4
 10
4.29119265E+01
 20
5.03869050E+01
 11
4.09119265E+01
 21
5.03869050E+01
  0
LINE
  8
0
 62
4
 10
5.69119265E+01
 20
9.54731477E+01
 11
7.59119265E+01
 21
9.54731477E+01
  0
LINE
  8
0
 62
4
 10
4.09119265E+01
 20
7.65593904E+01
 11
4.09119265E+01
 21
9.68868440E+01
  0
LINE
  8
0
 62
4
 10
7.96706613E+01
 20
1.00841195E+02
 11
7.79649054E+01
 21
1.10515020E+02
  0
LINE
  8
0
 62
4
 10
5.38780520E+01
 20
1.15473148E+02
 11
7.20560916E+01
 21
1.15473148E+02
  0
LINE
  8
0
 62
4
 10
5.59119351E+01
 20
9.44729759E+01
 11
5.69120438E+01
 21
9.54730852E+01
  0
LINE
  8
0
 62
4
 10
4.29119265E+01
 20
5.03869050E+01
 11
4.29119265E+01
 21
7.65593904E+01
  0
LINE
  8
0
 62
4
 10
4.09119265E+01
 20
9.68868440E+01
 11
5.53454592E+01
 21
9.68868440E+01
  0
LINE
  8
0
 62
4
 10
4.29119770E+01
 20
9.68867917E+01
 11
4.82399248E+01
 21
1.11525212E+02
  0
LINE
  8
0
 62
4
 10
4.09119265E+01
 20
7.65593904E+01
 11
4.29119265E+01
 21
7.65593904E+01
  0
LINE
  8
0
  6
CENTER
 62
6
 10
5.84119265E+01
 20
1.04973148E+02
 11
7.34119265E+01
 21
1.04973148E+02
  0
LINE
  8
0
  6
CENTER
 62
6
 10
6.59119265E+01
 20
9.74731477E+01
 11
6.59119265E+01
 21
1.12473148E+02
  0
LINE
  8
0
 62
4
 10
4.36772901E+01
 20
5.00308211E+01
 11
4.80146299E+01
 21
4.80126690E+01
  0
LINE
  8
0
 62
4
 10
5.59119265E+01
 20
4.75951570E+01
 11
5.00358279E+01
 21
4.75951570E+01
  0
LINE
  8
0
 62
4
 10
4.89119265E+01
 20
4.83718904E+01
 11
4.89119265E+01
 21
7.85744050E+01
  0
CIRCLE
  8
0
 62
4
 10
6.59119265E+01
 20
1.04973148E+02
 40
6.00000000E+00
  0
ARC
  8
0
 62
4
 10
6.59119265E+01
 20
1.04973148E+02
 40
1.30000000E+01
 50
3.13049099E+02
 51
7.85453076E-01
  0
ARC
  8
0
 62
4
 10
5.38780520E+01
 20
1.09473148E+02
 40
6.00000000E+00
 50
9.00000162E+01
 51
1.59999981E+02
  0
ARC
  8
0
 62
4
 10
6.59119265E+01
 20
1.04973087E+02
 40
1.30000000E+01
 50
1.26129005E+02
 51
2.26951012E+02
  0
ARC
  8
0
 62
4
 10
7.59119265E+01
 20
2.74731477E+01
 40
4.00000000E+00
 50
3.39999931E+02
 51
9.00000162E+01
  0
ARC
  8
0
 62
4
 10
7.20560916E+01
 20
1.74731477E+01
 40
6.00000000E+00
 50
2.69999929E+02
 51
3.50000021E+02
  0
ARC
  8
0
 62
4
 10
5.38780520E+01
 20
1.74731477E+01
 40
6.00000000E+00
 50
2.00000059E+02
 51
2.70000038E+02
  0
CIRCLE
  8
0
 62
4
 10
6.59119265E+01
 20
2.19731477E+01
 40
6.00000000E+00
  0
ARC
  8
0
 62
4
 10
6.59119265E+01
 20
2.19731477E+01
 40
1.30000000E+01
 50
3.59214619E+02
 51
4.69509765E+01
  0
ARC
  8
0
 62
4
 10
7.59119265E+01
 20
9.94731477E+01
 40
4.00000000E+00
 50
2.70000052E+02
 51
2.00001412E+01
  0
ARC
  8
0
 62
4
 10
6.59119265E+01
 20
2.19731782E+01
 40
1.30000000E+01
 50
1.33049039E+02
 51
2.33871059E+02
  0
ARC
  8
0
 62
4
 10
7.20560916E+01
 20
1.09473148E+02
 40
6.00000000E+00
 50
1.00000339E+01
 51
9.00001257E+01
  0
TEXT
  8
0
 62
7
 10
-1.89357136E+02
 20
1.22850006E+02
 40
4.50000000E+00
  1
NEW DYNA CYLINDER
 41
1.07594914E+00
  7
MONOTXT
  0
TEXT
  8
0
 62
7
 10
-1.85214688E+02
 20
1.05350006E+02
 40
4.50000000E+00
  1
MODEL:DDAR50-2
 41
1.00000000E+00
  7
MONOTXT
  0
LINE
  8
0
 62
7
 10
-1.94250000E+02
 20
1.32600006E+02
 11
1.94800003E+02
 21
1.32600006E+02
  0
LINE
  8
0
 62
7
 10
1.94800003E+02
 20
1.32600006E+02
 11
1.94800003E+02
 21
-1.33500000E+02
  0
LINE
  8
0
 62
7
 10
-1.94250000E+02
 20
1.32600006E+02
 11
-1.94250000E+02
 21
-1.33500000E+02
  0
LINE
  8
0
 62
7
 10
-1.94250000E+02
 20
-1.33500000E+02
 11
1.94800003E+02
 21
-1.33500000E+02
  0
LINE
  8
0
 62
7
 10
1.09800003E+02
 20
-1.18500000E+02
 11
1.09800003E+02
 21
-1.33500000E+02
  0
LINE
  8
0
 62
7
 10
1.09800003E+02
 20
-1.18500000E+02
 11
1.94800003E+02
 21
-1.18500000E+02
  0
LINE
  8
0
 62
7
 10
1.09800003E+02
 20
1.32600006E+02
 11
1.09800003E+02
 21
1.17600006E+02
  0
LINE
  8
0
 62
7
 10
1.09800003E+02
 20
1.17600006E+02
 11
1.94800003E+02
 21
1.17600006E+02
  0
LINE
  8
0
 62
7
 10
-1.94250000E+02
 20
1.17600006E+02
 11
-1.09250000E+02
 21
1.17600006E+02
  0
LINE
  8
0
 62
7
 10
-1.09250000E+02
 20
1.32600006E+02
 11
-1.09250000E+02
 21
1.17600006E+02
  0
TEXT
  8
0
 62
7
 10
1.34942863E+02
 20
1.22850006E+02
 40
4.50000000E+00
  1
Ver. 1.0
 41
1.08108085E+00
  7
MONOTXT
  0
TEXT
  8
0
 62
7
 10
1.15249715E+02
 20
-1.29150000E+02
 40
6.30000019E+00
  1
KOGANEI CORP.
 41
1.04838725E+00
  7
MONOTXT
  0
ENDSEC
  0
EOF
