  0
SECTION
  2
HEADER
  9
$ACADVER
  1
AC1003
  9
$EXTMIN
 10
-5.64500000E+02
 20
-4.00500000E+02
  9
$EXTMAX
 10
5.75088411E+02
 20
4.00500000E+02
  9
$LIMMIN
 10
-5.64501000E+02
 20
-4.00501000E+02
  9
$LIMMAX
 10
5.75089411E+02
 20
4.00501000E+02
  9
$SNAPUNIT
 10
1
 20
1
  9
$SNAPBASE
 10
0
 20
0
  9
$GRIDMODE
 70
0
  9
$GRIDUNIT
 10
0
 20
0
  9
$LTSCALE
 40
1.89931402E+01
  9
$TEXTSIZE
 40
3.2
  9
$DIMTAD
 70
0
  9
$LUNITS
 70
2
  9
$LUPREC
 70
4
  9
$FILLETRAD
 40
0
  9
$AUNITS
 70
0
  9
$AUPREC
 70
0
  0
ENDSEC
  0
SECTION
  2
TABLES
  0
TABLE
  2
LTYPE
 70
2
  0
LTYPE
  2
CONTINUOUS
 70
64
  3
Solid-Line
 72
65
 73
0
 40
0
  0
LTYPE
  2
DASHED
 70
64
  3
DASHED
 72
65
 73
2
 40
.75
 49
.5
 49
-.25
  0
LTYPE
  2
HIDDEN
 70
64
  3
HIDDEN
 72
65
 73
2
 40
.375
 49
.25
 49
-.125
  0
LTYPE
  2
CENTER
 70
64
  3
CENTER
 72
65
 73
4
 40
2
 49
1.25
 49
-.25
 49
.25
 49
-.25
  0
LTYPE
  2
PHANTOM
 70
64
  3
PHANTOM
 72
65
 73
6
 40
2.5
 49
1.25
 49
-.25
 49
.25
 49
-.25
 49
.25
 49
-.25
  0
ENDTAB
  0
TABLE
  2
LAYER
 70
1
  0
LAYER
  2
1
 70
0
 62
7
  6
CONTINUOUS
 0
ENDTAB
  0
TABLE
  2
STYLE
 70
2
  0
STYLE
  2
MONOTXT
 70
0
 40
0
 41
1
 50
0
 71
0
 42
.2
  3
monotxt
  0
STYLE
  2
BIGFONT
 70
0
 40
0
 41
1
 50
0
 71
0
 42
.2
  3
txt
  4
bigfont
  0
ENDTAB
  0
ENDSEC
  0
SECTION
  2
BLOCKS
  0
BLOCK
  8
0
  2
PP1
 70
10
 10
0.0
 20
0.0
  0
LINE
  8
0
  6
DASHED
 62
7
 10
-2.18169855E+02
 20
2.89000000E+02
 11
-2.14830161E+02
 21
2.89000000E+02
  0
LINE
  8
0
  6
DASHED
 62
7
 10
-2.19500023E+02
 20
2.91000000E+02
 11
-2.13500023E+02
 21
2.91000000E+02
  0
LINE
  8
0
  6
DASHED
 62
7
 10
-2.19500023E+02
 20
2.93000000E+02
 11
-2.13500023E+02
 21
2.93000000E+02
  0
LINE
  8
0
  6
DASHED
 62
7
 10
-2.19500023E+02
 20
2.90000000E+02
 11
-2.13500023E+02
 21
2.90000000E+02
  0
LINE
  8
0
  6
DASHED
 62
7
 10
-2.19500023E+02
 20
2.92000000E+02
 11
-2.13500023E+02
 21
2.92000000E+02
  0
LINE
  8
0
  6
DASHED
 62
7
 10
-2.18169908E+02
 20
2.94000000E+02
 11
-2.14830138E+02
 21
2.94000000E+02
  0
LINE
  8
0
  6
DASHED
 62
7
 10
-2.15612389E+02
 20
2.88548387E+02
 11
-2.13500023E+02
 21
2.92207113E+02
  0
LINE
  8
0
  6
DASHED
 62
7
 10
-2.17788253E+02
 20
2.88779681E+02
 11
-2.14788260E+02
 21
2.93975822E+02
  0
LINE
  8
0
  6
DASHED
 62
7
 10
-2.19500023E+02
 20
2.89814808E+02
 11
-2.16540596E+02
 21
2.94940687E+02
  0
LINE
  8
0
  6
DASHED
 62
7
 10
-2.13880351E+02
 20
2.89548365E+02
 11
-2.13500023E+02
 21
2.90207113E+02
  0
LINE
  8
0
  6
DASHED
 62
7
 10
-2.16922228E+02
 20
2.88279680E+02
 11
-2.13922235E+02
 21
2.93475820E+02
  0
LINE
  8
0
  6
DASHED
 62
7
 10
-2.18654277E+02
 20
2.89279682E+02
 11
-2.15654284E+02
 21
2.94475823E+02
  0
LINE
  8
0
  6
DASHED
 62
7
 10
-2.19500023E+02
 20
2.91814808E+02
 11
-2.18272649E+02
 21
2.93940682E+02
  0
LINE
  8
0
  6
DASHED
 62
7
 10
-2.13500023E+02
 20
2.91792887E+02
 11
-2.14746381E+02
 21
2.93951643E+02
  0
LINE
  8
0
  6
DASHED
 62
7
 10
-2.14355251E+02
 20
2.89274186E+02
 11
-2.17355253E+02
 21
2.94470342E+02
  0
LINE
  8
0
  6
DASHED
 62
7
 10
-2.16087308E+02
 20
2.88274197E+02
 11
-2.19087303E+02
 21
2.93470340E+02
  0
LINE
  8
0
  6
DASHED
 62
7
 10
-2.19138702E+02
 20
2.89559365E+02
 11
-2.19500023E+02
 21
2.90185192E+02
  0
LINE
  8
0
  6
DASHED
 62
7
 10
-2.13500023E+02
 20
2.89792887E+02
 11
-2.16478434E+02
 21
2.94951647E+02
  0
LINE
  8
0
  6
DASHED
 62
7
 10
-2.15221280E+02
 20
2.88774191E+02
 11
-2.18221278E+02
 21
2.93970341E+02
  0
LINE
  8
0
  6
DASHED
 62
7
 10
-2.17406649E+02
 20
2.88559361E+02
 11
-2.19500023E+02
 21
2.92185192E+02
  0
ENDBLK
  8
0
  0
BLOCK
  8
0
  2
PP2
 70
10
 10
0.0
 20
0.0
  0
LINE
  8
0
  6
DASHED
 62
7
 10
-2.18169855E+02
 20
-1.31000000E+02
 11
-2.14830161E+02
 21
-1.31000000E+02
  0
LINE
  8
0
  6
DASHED
 62
7
 10
-2.19500023E+02
 20
-1.29000000E+02
 11
-2.13500023E+02
 21
-1.29000000E+02
  0
LINE
  8
0
  6
DASHED
 62
7
 10
-2.19500023E+02
 20
-1.27000000E+02
 11
-2.13500023E+02
 21
-1.27000000E+02
  0
LINE
  8
0
  6
DASHED
 62
7
 10
-2.19500023E+02
 20
-1.30000000E+02
 11
-2.13500023E+02
 21
-1.30000000E+02
  0
LINE
  8
0
  6
DASHED
 62
7
 10
-2.19500023E+02
 20
-1.28000000E+02
 11
-2.13500023E+02
 21
-1.28000000E+02
  0
LINE
  8
0
  6
DASHED
 62
7
 10
-2.18169908E+02
 20
-1.26000000E+02
 11
-2.14830138E+02
 21
-1.26000000E+02
  0
LINE
  8
0
  6
DASHED
 62
7
 10
-2.15612389E+02
 20
-1.31451613E+02
 11
-2.13500023E+02
 21
-1.27792887E+02
  0
LINE
  8
0
  6
DASHED
 62
7
 10
-2.17788253E+02
 20
-1.31220319E+02
 11
-2.14788260E+02
 21
-1.26024178E+02
  0
LINE
  8
0
  6
DASHED
 62
7
 10
-2.19500023E+02
 20
-1.30185192E+02
 11
-2.16540596E+02
 21
-1.25059313E+02
  0
LINE
  8
0
  6
DASHED
 62
7
 10
-2.13880351E+02
 20
-1.30451635E+02
 11
-2.13500023E+02
 21
-1.29792887E+02
  0
LINE
  8
0
  6
DASHED
 62
7
 10
-2.16922228E+02
 20
-1.31720320E+02
 11
-2.13922235E+02
 21
-1.26524180E+02
  0
LINE
  8
0
  6
DASHED
 62
7
 10
-2.18654277E+02
 20
-1.30720318E+02
 11
-2.15654284E+02
 21
-1.25524177E+02
  0
LINE
  8
0
  6
DASHED
 62
7
 10
-2.19500023E+02
 20
-1.28185192E+02
 11
-2.18272649E+02
 21
-1.26059318E+02
  0
LINE
  8
0
  6
DASHED
 62
7
 10
-2.13500023E+02
 20
-1.28207113E+02
 11
-2.14746381E+02
 21
-1.26048357E+02
  0
LINE
  8
0
  6
DASHED
 62
7
 10
-2.14355251E+02
 20
-1.30725814E+02
 11
-2.17355253E+02
 21
-1.25529658E+02
  0
LINE
  8
0
  6
DASHED
 62
7
 10
-2.16087308E+02
 20
-1.31725803E+02
 11
-2.19087303E+02
 21
-1.26529660E+02
  0
LINE
  8
0
  6
DASHED
 62
7
 10
-2.19138702E+02
 20
-1.30440635E+02
 11
-2.19500023E+02
 21
-1.29814808E+02
  0
LINE
  8
0
  6
DASHED
 62
7
 10
-2.13500023E+02
 20
-1.30207113E+02
 11
-2.16478434E+02
 21
-1.25048353E+02
  0
LINE
  8
0
  6
DASHED
 62
7
 10
-2.15221280E+02
 20
-1.31225809E+02
 11
-2.18221278E+02
 21
-1.26029659E+02
  0
LINE
  8
0
  6
DASHED
 62
7
 10
-2.17406649E+02
 20
-1.31440639E+02
 11
-2.19500023E+02
 21
-1.27814808E+02
  0
ENDBLK
  8
0
  0
ENDSEC
  0
SECTION
  2
ENTITIES
  0
LINE
  8
0
  6
PHANTOM
 10
-9.50000000E+00
 20
1.92202234E+02
 11
-9.50000000E+00
 21
2.93151313E+01
  0
LINE
  8
0
  6
CENTER
 62
2
 10
-2.94227821E+02
 20
1.00500000E+02
 11
8.74966125E+01
 21
1.00500000E+02
  0
LINE
  8
0
  6
CENTER
 62
2
 10
-1.12500000E+02
 20
1.20755203E+02
 11
-1.12500000E+02
 21
1.39548752E+02
  0
LINE
  8
0
 62
7
 10
-1.86036117E+02
 20
9.45001472E+01
 11
-1.82572020E+02
 21
1.00500148E+02
  0
LINE
  8
0
 62
7
 10
-1.92964258E+02
 20
9.44999659E+01
 11
-1.96428366E+02
 21
1.00499985E+02
  0
LINE
  8
0
 62
7
 10
-1.86035881E+02
 20
9.44999847E+01
 11
-1.92964134E+02
 21
9.44999847E+01
  0
LINE
  8
0
 62
7
 10
-1.91499992E+02
 20
9.93453064E+01
 11
-1.91499992E+02
 21
1.01654663E+02
  0
LINE
  8
0
 62
7
 10
-1.89499944E+02
 20
9.81905978E+01
 11
-1.91499932E+02
 21
9.93452918E+01
  0
LINE
  8
0
 62
7
 10
-1.87499895E+02
 20
9.93450414E+01
 11
-1.89499883E+02
 21
9.81903473E+01
  0
LINE
  8
0
 62
7
 10
-1.87499992E+02
 20
1.01654816E+02
 11
-1.87499992E+02
 21
9.93453064E+01
  0
LINE
  8
0
  6
CENTER
 62
2
 10
-1.89499992E+02
 20
1.11945969E+02
 11
-1.89499992E+02
 21
8.87922058E+01
  0
LINE
  8
0
 62
7
 10
-9.55000000E+01
 20
1.37999985E+02
 11
-9.55000000E+01
 21
6.30000000E+01
  0
LINE
  8
0
 62
7
 10
-1.89499874E+02
 20
1.02809226E+02
 11
-1.91499808E+02
 21
1.01654562E+02
  0
LINE
  8
0
 62
7
 10
-1.87499959E+02
 20
1.01654795E+02
 11
-1.89499946E+02
 21
1.02809489E+02
  0
LINE
  8
0
 62
7
 10
-1.92964347E+02
 20
1.06500110E+02
 11
-1.96428453E+02
 21
1.00500094E+02
  0
LINE
  8
0
 62
7
 10
-1.86035881E+02
 20
1.06500015E+02
 11
-1.92964134E+02
 21
1.06500015E+02
  0
LINE
  8
0
 62
7
 10
-1.86036094E+02
 20
1.06499922E+02
 11
-1.82571972E+02
 21
1.00499876E+02
  0
LINE
  8
0
 62
7
 10
-2.03500023E+02
 20
1.24899948E+02
 11
-1.25500000E+02
 21
1.24899948E+02
  0
LINE
  8
0
 62
7
 10
-2.03500023E+02
 20
1.32099960E+02
 11
-1.25500000E+02
 21
1.32099960E+02
  0
LINE
  8
0
  6
CENTER
 62
2
 10
-2.37729271E+02
 20
1.28500015E+02
 11
-8.93312492E+01
 21
1.28500015E+02
  0
LINE
  8
0
 62
7
 10
-2.33500023E+02
 20
1.37999985E+02
 11
-2.33500023E+02
 21
6.30000000E+01
  0
LINE
  8
0
 62
7
 10
-2.33500023E+02
 20
6.30000000E+01
 11
-2.03500023E+02
 21
6.30000000E+01
  0
LINE
  8
0
 62
7
 10
-2.33500023E+02
 20
1.37999985E+02
 11
-2.03500023E+02
 21
1.37999985E+02
  0
LINE
  8
0
 62
7
 10
-2.03500023E+02
 20
1.37999985E+02
 11
-2.03500023E+02
 21
6.30000000E+01
  0
LINE
  8
0
 62
7
 10
-2.03500023E+02
 20
6.65000153E+01
 11
-1.25500000E+02
 21
6.65000153E+01
  0
LINE
  8
0
 62
7
 10
-2.03500023E+02
 20
6.89000397E+01
 11
-1.25500000E+02
 21
6.89000397E+01
  0
LINE
  8
0
  6
CENTER
 62
2
 10
-2.37729271E+02
 20
7.25000000E+01
 11
-8.93312492E+01
 21
7.25000000E+01
  0
LINE
  8
0
 62
7
 10
-2.03500023E+02
 20
7.61000366E+01
 11
-1.25500000E+02
 21
7.61000366E+01
  0
LINE
  8
0
 62
7
 10
-2.03500023E+02
 20
1.34499985E+02
 11
-1.25500000E+02
 21
1.34499985E+02
  0
LINE
  8
0
 62
7
 10
-1.25500000E+02
 20
1.37999985E+02
 11
-9.55000000E+01
 21
1.37999985E+02
  0
LINE
  8
0
 62
7
 10
-1.25500000E+02
 20
1.37999985E+02
 11
-1.25500000E+02
 21
6.30000000E+01
  0
LINE
  8
0
 62
7
 10
-1.25500000E+02
 20
6.30000000E+01
 11
-9.55000000E+01
 21
6.30000000E+01
  0
LINE
  8
0
 62
7
 10
4.15000000E+01
 20
7.96499939E+01
 11
-6.45000000E+01
 21
7.96499939E+01
  0
LINE
  8
0
 62
7
 10
7.40000000E+01
 20
1.19500000E+02
 11
7.25000000E+01
 21
1.19500000E+02
  0
LINE
  8
0
 62
7
 10
-9.05000000E+01
 20
1.30845398E+02
 11
-9.05000000E+01
 21
1.31500000E+02
  0
LINE
  8
0
 62
7
 10
-9.05000000E+01
 20
1.31500000E+02
 11
-6.45000000E+01
 21
1.31500000E+02
  0
LINE
  8
0
 62
7
 10
-9.55000325E+01
 20
1.30714492E+02
 11
-6.45000006E+01
 21
1.31526256E+02
  0
LINE
  8
0
 62
7
 10
4.15000000E+01
 20
1.27499969E+02
 11
3.50000000E+01
 21
1.27499969E+02
  0
LINE
  8
0
 62
7
 10
-2.48500023E+02
 20
1.16999924E+02
 11
-2.48500023E+02
 21
8.39999847E+01
  0
LINE
  8
0
 62
7
 10
-2.35000023E+02
 20
8.14999542E+01
 11
-2.33500023E+02
 21
8.14999542E+01
  0
LINE
  8
0
 62
7
 10
-2.48000023E+02
 20
8.34999542E+01
 11
-2.43491478E+02
 21
8.34999542E+01
  0
LINE
  8
0
 62
7
 10
-2.43500023E+02
 20
8.34999542E+01
 11
-2.43500023E+02
 21
8.34914093E+01
  0
LINE
  8
0
 62
7
 10
-2.43258774E+02
 20
8.32414750E+01
 11
-2.35500075E+02
 21
8.29705353E+01
  0
LINE
  8
0
 62
7
 10
-2.35500023E+02
 20
1.18999954E+02
 11
-2.35500023E+02
 21
8.19999542E+01
  0
LINE
  8
0
 62
7
 10
4.15000000E+01
 20
7.35000000E+01
 11
-6.45000000E+01
 21
7.35000000E+01
  0
LINE
  8
0
 62
7
 10
-6.45000000E+01
 20
1.31500000E+02
 11
-6.45000000E+01
 21
6.94737244E+01
  0
LINE
  8
0
 62
7
 10
-9.05000000E+01
 20
6.95000000E+01
 11
-6.45000000E+01
 21
6.95000000E+01
  0
LINE
  8
0
 62
7
 10
-9.55000256E+01
 20
7.02854882E+01
 11
-6.44999975E+01
 21
6.94737239E+01
  0
LINE
  8
0
 62
7
 10
-9.05000000E+01
 20
7.01546021E+01
 11
-9.05000000E+01
 21
6.95000000E+01
  0
LINE
  8
0
 62
7
 10
-2.43500023E+02
 20
1.17499954E+02
 11
-2.43500023E+02
 21
8.34999542E+01
  0
LINE
  8
0
 62
7
 10
7.40000000E+01
 20
8.15000000E+01
 11
7.25000000E+01
 21
8.15000000E+01
  0
LINE
  8
0
 62
7
 10
7.45000000E+01
 20
1.19000000E+02
 11
7.45000000E+01
 21
8.20000000E+01
  0
LINE
  8
0
 62
7
 10
7.25000000E+01
 20
1.30714508E+02
 11
7.25000000E+01
 21
7.02855835E+01
  0
LINE
  8
0
 62
7
 10
4.15000000E+01
 20
1.31500000E+02
 11
4.15000000E+01
 21
6.94737244E+01
  0
LINE
  8
0
 62
7
 10
6.75000000E+01
 20
6.95000000E+01
 11
4.15000000E+01
 21
6.95000000E+01
  0
LINE
  8
0
 62
7
 10
7.25000192E+01
 20
7.02855076E+01
 11
4.15000178E+01
 21
6.94737440E+01
  0
LINE
  8
0
 62
7
 10
6.75000000E+01
 20
7.01546021E+01
 11
6.75000000E+01
 21
6.95000000E+01
  0
LINE
  8
0
 62
7
 10
4.15000000E+01
 20
7.43500061E+01
 11
-6.45000000E+01
 21
7.43500061E+01
  0
LINE
  8
0
 62
7
 10
-2.55500099E+02
 20
1.10499924E+02
 11
-2.48500069E+02
 21
1.10499924E+02
  0
LINE
  8
0
 62
7
 10
4.15000000E+01
 20
1.21349976E+02
 11
2.00000000E+01
 21
1.21349976E+02
  0
LINE
  8
0
  6
CENTER
 62
2
 10
7.47269897E+01
 20
1.23999969E+02
 11
-9.76034546E+01
 21
1.23999969E+02
  0
LINE
  8
0
 62
7
 10
4.15000000E+01
 20
1.26649963E+02
 11
3.50000000E+01
 21
1.26649963E+02
  0
LINE
  8
0
 62
7
 10
-2.35000023E+02
 20
1.19499954E+02
 11
-2.33500023E+02
 21
1.19499954E+02
  0
LINE
  8
0
 62
7
 10
-2.48000023E+02
 20
1.17499954E+02
 11
-2.43491478E+02
 21
1.17499954E+02
  0
LINE
  8
0
 62
7
 10
-2.43500023E+02
 20
1.17499954E+02
 11
-2.43500023E+02
 21
1.17508499E+02
  0
LINE
  8
0
 62
7
 10
-2.43258768E+02
 20
1.17758454E+02
 11
-2.35500055E+02
 21
1.18029394E+02
  0
LINE
  8
0
 62
7
 10
6.75000000E+01
 20
1.31500000E+02
 11
4.15000000E+01
 21
1.31500000E+02
  0
LINE
  8
0
 62
7
 10
7.25000195E+01
 20
1.30714510E+02
 11
4.15000219E+01
 21
1.31526274E+02
  0
LINE
  8
0
 62
7
 10
6.75000000E+01
 20
1.30845398E+02
 11
6.75000000E+01
 21
1.31500000E+02
  0
LINE
  8
0
 62
2
 10
-2.57533686E+02
 20
9.66864829E+01
 11
-2.51500002E+02
 21
1.05767804E+02
  0
LINE
  8
0
 62
7
 10
-2.58499992E+02
 20
1.09499954E+02
 11
-2.58499992E+02
 21
9.14999542E+01
  0
LINE
  8
0
 62
7
 10
-2.55500099E+02
 20
1.05767807E+02
 11
-2.51500038E+02
 21
1.05767807E+02
  0
LINE
  8
0
 62
2
 10
-2.57533683E+02
 20
1.04313425E+02
 11
-2.51500033E+02
 21
9.52321545E+01
  0
LINE
  8
0
 62
7
 10
-2.55500099E+02
 20
9.52321320E+01
 11
-2.51500038E+02
 21
9.52321320E+01
  0
LINE
  8
0
 62
7
 10
-2.55500008E+02
 20
9.04999542E+01
 11
-2.55500008E+02
 21
9.52321320E+01
  0
LINE
  8
0
  6
CENTER
 62
2
 10
7.47269897E+01
 20
7.70000000E+01
 11
-9.76034546E+01
 21
7.70000000E+01
  0
LINE
  8
0
 62
7
 10
-2.61499992E+02
 20
9.14999542E+01
 11
-2.61499992E+02
 21
1.09499954E+02
  0
LINE
  8
0
 62
7
 10
-2.90500008E+02
 20
9.29999847E+01
 11
-2.90500008E+02
 21
1.07999802E+02
  0
LINE
  8
0
 62
7
 10
-2.89000008E+02
 20
9.14999542E+01
 11
-2.89000008E+02
 21
1.09499954E+02
  0
LINE
  8
0
 62
7
 10
-2.55500099E+02
 20
9.04999542E+01
 11
-2.48500069E+02
 21
9.04999542E+01
  0
LINE
  8
0
 62
7
 10
-2.55500008E+02
 20
1.10499985E+02
 11
-2.55500008E+02
 21
1.05767807E+02
  0
LINE
  8
0
 62
7
 10
-2.51500038E+02
 20
9.52321320E+01
 11
-2.51500038E+02
 21
1.05767807E+02
  0
LINE
  8
0
  6
CENTER
 62
2
 10
5.44999237E+01
 20
1.33685059E+02
 11
5.44999237E+01
 21
1.21799774E+02
  0
LINE
  8
0
 62
7
 10
-2.88999947E+02
 20
1.09499954E+02
 11
-2.81500000E+02
 21
1.09499954E+02
  0
LINE
  8
0
 62
2
 10
-2.89819954E+02
 20
1.08679947E+02
 11
-2.81500000E+02
 21
1.08679947E+02
  0
LINE
  8
0
 62
7
 10
-2.90499937E+02
 20
1.07999821E+02
 11
-2.88999891E+02
 21
1.09499821E+02
  0
LINE
  8
0
 62
7
 10
-2.61499992E+02
 20
1.08679947E+02
 11
-2.58499992E+02
 21
1.08679947E+02
  0
LINE
  8
0
 62
7
 10
-2.61499992E+02
 20
9.23199310E+01
 11
-2.58499992E+02
 21
9.23199310E+01
  0
LINE
  8
0
 62
7
 10
-2.88999947E+02
 20
9.14999542E+01
 11
-2.81500000E+02
 21
9.14999542E+01
  0
LINE
  8
0
 62
2
 10
-2.89819954E+02
 20
9.23199310E+01
 11
-2.81500000E+02
 21
9.23199310E+01
  0
LINE
  8
0
 62
7
 10
-2.90500026E+02
 20
9.30000332E+01
 11
-2.88999991E+02
 21
9.15000437E+01
  0
LINE
  8
0
  6
CENTER
 62
2
 10
-7.75001678E+01
 20
1.33685059E+02
 11
-7.75001678E+01
 21
1.21799774E+02
  0
LINE
  8
0
 62
7
 10
-2.58500008E+02
 20
1.09499944E+02
 11
-2.55500020E+02
 21
1.10499930E+02
  0
LINE
  8
0
 62
7
 10
-2.58499981E+02
 20
1.03622394E+02
 11
-2.55499989E+02
 21
1.05767800E+02
  0
LINE
  8
0
 62
7
 10
-2.58499985E+02
 20
9.73774920E+01
 11
-2.55500008E+02
 21
9.52321425E+01
  0
LINE
  8
0
 62
7
 10
-2.58500014E+02
 20
9.14999627E+01
 11
-2.55500028E+02
 21
9.04999699E+01
  0
CIRCLE
  8
0
 62
7
 10
-1.89499992E+02
 20
1.00500000E+02
 40
4.00000000E+00
  0
CIRCLE
  8
0
 62
7
 10
-1.89499992E+02
 20
1.00500000E+02
 40
8.00000000E+00
  0
CIRCLE
  8
0
 62
7
 10
-1.89499992E+02
 20
1.00500000E+02
 40
3.29999995E+00
  0
ARC
  8
0
 62
7
 10
-2.48000023E+02
 20
8.39999847E+01
 40
5.00000000E-01
 50
1.79999977E+02
 51
2.69999974E+02
  0
ARC
  8
0
 62
7
 10
-2.43250023E+02
 20
8.34914093E+01
 40
2.50000000E-01
 50
1.79999977E+02
 51
2.68001132E+02
  0
ARC
  8
0
 62
7
 10
-2.35000023E+02
 20
8.19999542E+01
 40
5.00000000E-01
 50
1.79999977E+02
 51
2.69999974E+02
  0
ARC
  8
0
 62
7
 10
7.40000000E+01
 20
8.20000000E+01
 40
5.00000000E-01
 50
2.70000073E+02
 51
5.46415133E-05
  0
ARC
  8
0
 62
7
 10
7.40000000E+01
 20
1.19000000E+02
 40
5.00000000E-01
 50
5.46415133E-05
 51
9.00000369E+01
  0
ARC
  8
0
 62
7
 10
-2.43250023E+02
 20
1.17508499E+02
 40
2.50000000E-01
 50
9.19988230E+01
 51
1.79999977E+02
  0
ARC
  8
0
 62
7
 10
-2.35000023E+02
 20
1.18999954E+02
 40
5.00000000E-01
 50
8.99999818E+01
 51
1.79999964E+02
  0
ARC
  8
0
 62
7
 10
-2.59999992E+02
 20
1.00499954E+02
 40
9.99998474E+00
 50
0.00000000E+00
 51
3.17883527E+01
  0
ARC
  8
0
 62
7
 10
-2.59999992E+02
 20
1.00499954E+02
 40
9.99998474E+00
 50
3.28211647E+02
 51
0.00000000E+00
  0
ARC
  8
0
 62
7
 10
-2.48000023E+02
 20
1.16999924E+02
 40
5.00000000E-01
 50
8.99999818E+01
 51
1.79999964E+02
  0
LINE
  8
0
 62
4
 10
-2.80294229E+02
 20
8.49115427E+01
 11
-2.71705771E+02
 21
8.49115427E+01
  0
LINE
  8
0
 62
4
 10
-2.80294229E+02
 20
9.27057714E+01
 11
-2.71705771E+02
 21
9.27057714E+01
  0
LINE
  8
0
 62
4
 10
-2.70500000E+02
 20
8.70000000E+01
 11
-2.71705771E+02
 21
8.49115427E+01
  0
LINE
  8
0
 62
4
 10
-2.81500000E+02
 20
8.70000000E+01
 11
-2.80294229E+02
 21
8.49115427E+01
  0
ARC
  8
0
 62
4
 10
-2.74599279E+02
 20
8.88086570E+01
 40
6.90072132E+00
 50
1.45615752E+02
 51
2.14384248E+02
  0
ARC
  8
0
 62
4
 10
-2.77400721E+02
 20
8.88086570E+01
 40
6.90072132E+00
 50
3.25615752E+02
 51
3.43842480E+01
  0
LINE
  8
0
 62
4
 10
-2.80294229E+02
 20
1.16088457E+02
 11
-2.71705771E+02
 21
1.16088457E+02
  0
LINE
  8
0
 62
4
 10
-2.80294229E+02
 20
1.08294229E+02
 11
-2.71705771E+02
 21
1.08294229E+02
  0
LINE
  8
0
 62
4
 10
-2.80294229E+02
 20
1.16088457E+02
 11
-2.81500000E+02
 21
1.14000000E+02
  0
LINE
  8
0
 62
4
 10
-2.71705771E+02
 20
1.16088457E+02
 11
-2.70500000E+02
 21
1.14000000E+02
  0
ARC
  8
0
 62
4
 10
-2.74599279E+02
 20
1.12191343E+02
 40
6.90072132E+00
 50
1.45615752E+02
 51
2.14384248E+02
  0
ARC
  8
0
 62
4
 10
-2.77400721E+02
 20
1.12191343E+02
 40
6.90072132E+00
 50
3.25615752E+02
 51
3.43842480E+01
  0
ARC
  8
0
 62
4
 10
-2.96294228E+02
 20
1.00500000E+02
 40
2.57942282E+01
 50
3.42412046E+02
 51
1.75879541E+01
  0
ARC
  8
0
 62
4
 10
-2.55705772E+02
 20
1.00500000E+02
 40
2.57942282E+01
 50
1.62412046E+02
 51
1.97587954E+02
  0
LINE
  8
0
 62
4
 10
-2.81500000E+02
 20
8.70000000E+01
 11
-2.81500000E+02
 21
1.14000000E+02
  0
LINE
  8
0
 62
4
 10
-2.70500000E+02
 20
8.70000000E+01
 11
-2.70500000E+02
 21
1.14000000E+02
  0
LINE
  8
0
 62
7
 10
-2.70500000E+02
 20
1.09499954E+02
 11
-2.61499992E+02
 21
1.09499954E+02
  0
LINE
  8
0
 62
2
 10
-2.70500000E+02
 20
1.08679947E+02
 11
-2.61499992E+02
 21
1.08679947E+02
  0
LINE
  8
0
 62
7
 10
-2.70500000E+02
 20
9.14999542E+01
 11
-2.61499992E+02
 21
9.14999542E+01
  0
LINE
  8
0
 62
2
 10
-2.70500000E+02
 20
9.23199310E+01
 11
-2.61499992E+02
 21
9.23199310E+01
  0
LINE
  8
0
 62
4
 10
-2.40000000E+01
 20
1.32489821E+02
 11
-2.40000000E+01
 21
1.44006407E+02
  0
LINE
  8
0
 62
6
 10
-1.57320508E+01
 20
1.27989820E+02
 11
-1.22679492E+01
 21
1.33989820E+02
  0
LINE
  8
0
 62
6
 10
-3.26788813E+00
 20
1.33989821E+02
 11
-6.73198975E+00
 21
1.27989821E+02
  0
LINE
  8
0
 62
4
 10
5.00006104E+00
 20
1.32489821E+02
 11
-4.13391357E+00
 21
1.32489821E+02
  0
LINE
  8
0
  6
CENTER
 62
6
 10
4.00000610E+01
 20
1.30989821E+02
 11
-6.99993896E+00
 21
1.30989821E+02
  0
LINE
  8
0
 62
4
 10
5.00006104E+00
 20
1.29489821E+02
 11
-5.86596437E+00
 21
1.29489821E+02
  0
LINE
  8
0
 62
4
 10
-3.05000000E+01
 20
1.29489821E+02
 11
-1.48660254E+01
 21
1.29489821E+02
  0
LINE
  8
0
  6
CENTER
 62
6
 10
-5.90000000E+01
 20
1.30989821E+02
 11
-1.20000000E+01
 21
1.30989821E+02
  0
LINE
  8
0
 62
4
 10
-3.05000000E+01
 20
1.32489821E+02
 11
-1.31339746E+01
 21
1.32489821E+02
  0
LINE
  8
0
 62
4
 10
-2.40000000E+01
 20
1.27499954E+02
 11
-2.40000000E+01
 21
1.29489821E+02
  0
LINE
  8
0
 62
4
 10
-5.40000000E+01
 20
1.44006407E+02
 11
-5.40000000E+01
 21
1.33306732E+02
  0
LINE
  8
0
 62
4
 10
-3.05000000E+01
 20
1.33306732E+02
 11
-3.05000000E+01
 21
1.29234291E+02
  0
LINE
  8
0
  6
CENTER
 62
6
 10
1.10000000E+01
 20
1.19830129E+02
 11
6.00000000E+00
 21
1.19830129E+02
  0
LINE
  8
0
  6
CENTER
 62
6
 10
8.50000000E+00
 20
1.22330129E+02
 11
8.50000000E+00
 21
1.17330129E+02
  0
LINE
  8
0
  6
CENTER
 62
6
 10
1.65000000E+01
 20
1.22330129E+02
 11
1.65000000E+01
 21
1.17330129E+02
  0
LINE
  8
0
  6
CENTER
 62
6
 10
1.90000000E+01
 20
1.19830129E+02
 11
1.40000000E+01
 21
1.19830129E+02
  0
LINE
  8
0
 62
4
 10
2.00000000E+01
 20
1.42217831E+02
 11
2.00000000E+01
 21
1.14651370E+02
  0
LINE
  8
0
 62
4
 10
5.00000000E+00
 20
1.44006407E+02
 11
5.00000000E+00
 21
1.14651370E+02
  0
LINE
  8
0
 62
4
 10
3.50000000E+01
 20
1.44006407E+02
 11
3.50000000E+01
 21
1.26391448E+02
  0
LINE
  8
0
  6
CENTER
 62
6
 10
2.75000000E+01
 20
1.41360793E+02
 11
2.75000000E+01
 21
1.34211599E+02
  0
LINE
  8
0
  6
CENTER
 62
6
 10
3.10745969E+01
 20
1.37786196E+02
 11
2.39254031E+01
 21
1.37786196E+02
  0
LINE
  8
0
 62
4
 10
4.99999999E+00
 20
1.44006407E+02
 11
3.50000000E+01
 21
1.44006407E+02
  0
LINE
  8
0
 62
4
 10
4.99999999E+00
 20
1.42217831E+02
 11
3.50000000E+01
 21
1.42217831E+02
  0
LINE
  8
0
 62
4
 10
4.99999999E+00
 20
1.41002294E+02
 11
2.00000000E+01
 21
1.41002294E+02
  0
LINE
  8
0
 62
4
 10
6.16156398E+00
 20
1.25027519E+02
 11
1.87407473E+01
 21
1.25027519E+02
  0
LINE
  8
0
 62
4
 10
4.99999999E+00
 20
1.14651370E+02
 11
2.00000000E+01
 21
1.14651370E+02
  0
LINE
  8
0
 62
4
 10
2.00000000E+01
 20
1.26391448E+02
 11
3.50000000E+01
 21
1.26391448E+02
  0
LINE
  8
0
 62
4
 10
2.00000000E+01
 20
1.33846965E+02
 11
3.50000000E+01
 21
1.33846965E+02
  0
LINE
  8
0
 62
4
 10
2.00000000E+01
 20
1.33777506E+02
 11
3.50000000E+01
 21
1.33777506E+02
  0
POLYLINE
  8
0
 62
4
 66
1
  0
VERTEX
  8
0
 62
4
 10
2.52500000E+01
 20
1.37786196E+02
  0
VERTEX
  8
0
 62
4
 10
2.52585619E+01
 20
1.37593075E+02
  0
VERTEX
  8
0
 62
4
 10
2.52841826E+01
 20
1.37401423E+02
  0
VERTEX
  8
0
 62
4
 10
2.53266669E+01
 20
1.37212700E+02
  0
VERTEX
  8
0
 62
4
 10
2.53856916E+01
 20
1.37028342E+02
  0
VERTEX
  8
0
 62
4
 10
2.54608075E+01
 20
1.36849751E+02
  0
VERTEX
  8
0
 62
4
 10
2.55514428E+01
 20
1.36678287E+02
  0
VERTEX
  8
0
 62
4
 10
2.56569079E+01
 20
1.36515255E+02
  0
VERTEX
  8
0
 62
4
 10
2.57764000E+01
 20
1.36361896E+02
  0
VERTEX
  8
0
 62
4
 10
2.59090097E+01
 20
1.36219376E+02
  0
VERTEX
  8
0
 62
4
 10
2.60537279E+01
 20
1.36088781E+02
  0
VERTEX
  8
0
 62
4
 10
2.62094530E+01
 20
1.35971105E+02
  0
VERTEX
  8
0
 62
4
 10
2.63750000E+01
 20
1.35867242E+02
  0
VERTEX
  8
0
 62
4
 10
2.65491089E+01
 20
1.35777983E+02
  0
VERTEX
  8
0
 62
4
 10
2.67304547E+01
 20
1.35704009E+02
  0
VERTEX
  8
0
 62
4
 10
2.69176571E+01
 20
1.35645881E+02
  0
VERTEX
  8
0
 62
4
 10
2.71092916E+01
 20
1.35604042E+02
  0
VERTEX
  8
0
 62
4
 10
2.73038996E+01
 20
1.35578810E+02
  0
VERTEX
  8
0
 62
4
 10
2.75000000E+01
 20
1.35570379E+02
  0
VERTEX
  8
0
 62
4
 10
2.76961004E+01
 20
1.35578810E+02
  0
VERTEX
  8
0
 62
4
 10
2.78907084E+01
 20
1.35604042E+02
  0
VERTEX
  8
0
 62
4
 10
2.80823428E+01
 20
1.35645881E+02
  0
VERTEX
  8
0
 62
4
 10
2.82695453E+01
 20
1.35704009E+02
  0
VERTEX
  8
0
 62
4
 10
2.84508911E+01
 20
1.35777983E+02
  0
VERTEX
  8
0
 62
4
 10
2.86250000E+01
 20
1.35867242E+02
  0
VERTEX
  8
0
 62
4
 10
2.87905470E+01
 20
1.35971105E+02
  0
VERTEX
  8
0
 62
4
 10
2.89462721E+01
 20
1.36088781E+02
  0
VERTEX
  8
0
 62
4
 10
2.90909903E+01
 20
1.36219376E+02
  0
VERTEX
  8
0
 62
4
 10
2.92236000E+01
 20
1.36361896E+02
  0
VERTEX
  8
0
 62
4
 10
2.93430921E+01
 20
1.36515255E+02
  0
VERTEX
  8
0
 62
4
 10
2.94485572E+01
 20
1.36678287E+02
  0
VERTEX
  8
0
 62
4
 10
2.95391925E+01
 20
1.36849751E+02
  0
VERTEX
  8
0
 62
4
 10
2.96143084E+01
 20
1.37028342E+02
  0
VERTEX
  8
0
 62
4
 10
2.96733331E+01
 20
1.37212700E+02
  0
VERTEX
  8
0
 62
4
 10
2.97158174E+01
 20
1.37401423E+02
  0
VERTEX
  8
0
 62
4
 10
2.97414381E+01
 20
1.37593075E+02
  0
VERTEX
  8
0
 62
4
 10
2.97500000E+01
 20
1.37786196E+02
  0
VERTEX
  8
0
 62
4
 10
2.97414381E+01
 20
1.37979317E+02
  0
VERTEX
  8
0
 62
4
 10
2.97158174E+01
 20
1.38170969E+02
  0
VERTEX
  8
0
 62
4
 10
2.96733331E+01
 20
1.38359692E+02
  0
VERTEX
  8
0
 62
4
 10
2.96143084E+01
 20
1.38544050E+02
  0
VERTEX
  8
0
 62
4
 10
2.95391925E+01
 20
1.38722641E+02
  0
VERTEX
  8
0
 62
4
 10
2.94485572E+01
 20
1.38894105E+02
  0
VERTEX
  8
0
 62
4
 10
2.93430921E+01
 20
1.39057137E+02
  0
VERTEX
  8
0
 62
4
 10
2.92236000E+01
 20
1.39210496E+02
  0
VERTEX
  8
0
 62
4
 10
2.90909903E+01
 20
1.39353016E+02
  0
VERTEX
  8
0
 62
4
 10
2.89462721E+01
 20
1.39483611E+02
  0
VERTEX
  8
0
 62
4
 10
2.87905470E+01
 20
1.39601287E+02
  0
VERTEX
  8
0
 62
4
 10
2.86250000E+01
 20
1.39705150E+02
  0
VERTEX
  8
0
 62
4
 10
2.84508911E+01
 20
1.39794409E+02
  0
VERTEX
  8
0
 62
4
 10
2.82695453E+01
 20
1.39868383E+02
  0
VERTEX
  8
0
 62
4
 10
2.80823429E+01
 20
1.39926511E+02
  0
VERTEX
  8
0
 62
4
 10
2.78907084E+01
 20
1.39968350E+02
  0
VERTEX
  8
0
 62
4
 10
2.76961004E+01
 20
1.39993582E+02
  0
VERTEX
  8
0
 62
4
 10
2.75000000E+01
 20
1.40002013E+02
  0
VERTEX
  8
0
 62
4
 10
2.73038996E+01
 20
1.39993582E+02
  0
VERTEX
  8
0
 62
4
 10
2.71092916E+01
 20
1.39968350E+02
  0
VERTEX
  8
0
 62
4
 10
2.69176572E+01
 20
1.39926511E+02
  0
VERTEX
  8
0
 62
4
 10
2.67304547E+01
 20
1.39868383E+02
  0
VERTEX
  8
0
 62
4
 10
2.65491089E+01
 20
1.39794409E+02
  0
VERTEX
  8
0
 62
4
 10
2.63750000E+01
 20
1.39705150E+02
  0
VERTEX
  8
0
 62
4
 10
2.62094530E+01
 20
1.39601287E+02
  0
VERTEX
  8
0
 62
4
 10
2.60537279E+01
 20
1.39483611E+02
  0
VERTEX
  8
0
 62
4
 10
2.59090097E+01
 20
1.39353016E+02
  0
VERTEX
  8
0
 62
4
 10
2.57764000E+01
 20
1.39210496E+02
  0
VERTEX
  8
0
 62
4
 10
2.56569079E+01
 20
1.39057137E+02
  0
VERTEX
  8
0
 62
4
 10
2.55514428E+01
 20
1.38894105E+02
  0
VERTEX
  8
0
 62
4
 10
2.54608075E+01
 20
1.38722641E+02
  0
VERTEX
  8
0
 62
4
 10
2.53856916E+01
 20
1.38544050E+02
  0
VERTEX
  8
0
 62
4
 10
2.53266669E+01
 20
1.38359692E+02
  0
VERTEX
  8
0
 62
4
 10
2.52841826E+01
 20
1.38170969E+02
  0
VERTEX
  8
0
 62
4
 10
2.52585619E+01
 20
1.37979317E+02
  0
VERTEX
  8
0
 62
4
 10
2.52500000E+01
 20
1.37786196E+02
  0
SEQEND
  8
0
  0
POLYLINE
  8
0
 62
4
 66
1
  0
VERTEX
  8
0
 62
4
 10
1.85000000E+01
 20
1.19830129E+02
  0
VERTEX
  8
0
 62
4
 10
1.84919486E+01
 20
1.20006684E+02
  0
VERTEX
  8
0
 62
4
 10
1.84678592E+01
 20
1.20181817E+02
  0
VERTEX
  8
0
 62
4
 10
1.84279257E+01
 20
1.20354119E+02
  0
VERTEX
  8
0
 62
4
 10
1.83724697E+01
 20
1.20522202E+02
  0
VERTEX
  8
0
 62
4
 10
1.83019377E+01
 20
1.20684713E+02
  0
VERTEX
  8
0
 62
4
 10
1.82168976E+01
 20
1.20840343E+02
  0
VERTEX
  8
0
 62
4
 10
1.81180340E+01
 20
1.20987840E+02
  0
VERTEX
  8
0
 62
4
 10
1.80061429E+01
 20
1.21126015E+02
  0
VERTEX
  8
0
 62
4
 10
1.78821253E+01
 20
1.21253757E+02
  0
VERTEX
  8
0
 62
4
 10
1.77469796E+01
 20
1.21370036E+02
  0
VERTEX
  8
0
 62
4
 10
1.76017940E+01
 20
1.21473917E+02
  0
VERTEX
  8
0
 62
4
 10
1.74477373E+01
 20
1.21564564E+02
  0
VERTEX
  8
0
 62
4
 10
1.72860501E+01
 20
1.21641245E+02
  0
VERTEX
  8
0
 62
4
 10
1.71180340E+01
 20
1.21703345E+02
  0
VERTEX
  8
0
 62
4
 10
1.69450419E+01
 20
1.21750362E+02
  0
VERTEX
  8
0
 62
4
 10
1.67684665E+01
 20
1.21781919E+02
  0
VERTEX
  8
0
 62
4
 10
1.65897297E+01
 20
1.21797761E+02
  0
VERTEX
  8
0
 62
4
 10
1.64102704E+01
 20
1.21797761E+02
  0
VERTEX
  8
0
 62
4
 10
1.62315335E+01
 20
1.21781919E+02
  0
VERTEX
  8
0
 62
4
 10
1.60549581E+01
 20
1.21750362E+02
  0
VERTEX
  8
0
 62
4
 10
1.58819660E+01
 20
1.21703345E+02
  0
VERTEX
  8
0
 62
4
 10
1.57139500E+01
 20
1.21641245E+02
  0
VERTEX
  8
0
 62
4
 10
1.55522627E+01
 20
1.21564564E+02
  0
VERTEX
  8
0
 62
4
 10
1.53982061E+01
 20
1.21473917E+02
  0
VERTEX
  8
0
 62
4
 10
1.52530204E+01
 20
1.21370036E+02
  0
VERTEX
  8
0
 62
4
 10
1.51178747E+01
 20
1.21253757E+02
  0
VERTEX
  8
0
 62
4
 10
1.49938571E+01
 20
1.21126015E+02
  0
VERTEX
  8
0
 62
4
 10
1.48819660E+01
 20
1.20987840E+02
  0
VERTEX
  8
0
 62
4
 10
1.47831024E+01
 20
1.20840343E+02
  0
VERTEX
  8
0
 62
4
 10
1.46980623E+01
 20
1.20684713E+02
  0
VERTEX
  8
0
 62
4
 10
1.46275303E+01
 20
1.20522202E+02
  0
VERTEX
  8
0
 62
4
 10
1.45720743E+01
 20
1.20354119E+02
  0
VERTEX
  8
0
 62
4
 10
1.45321408E+01
 20
1.20181817E+02
  0
VERTEX
  8
0
 62
4
 10
1.45080514E+01
 20
1.20006684E+02
  0
VERTEX
  8
0
 62
4
 10
1.45000000E+01
 20
1.19830129E+02
  0
SEQEND
  8
0
  0
POLYLINE
  8
0
 62
4
 66
1
  0
VERTEX
  8
0
 62
4
 10
1.45000000E+01
 20
1.19294490E+02
  0
VERTEX
  8
0
 62
4
 10
1.45076106E+01
 20
1.19122827E+02
  0
VERTEX
  8
0
 62
4
 10
1.45303845E+01
 20
1.18952470E+02
  0
VERTEX
  8
0
 62
4
 10
1.45681483E+01
 20
1.18784716E+02
  0
VERTEX
  8
0
 62
4
 10
1.46206148E+01
 20
1.18620842E+02
  0
VERTEX
  8
0
 62
4
 10
1.46873844E+01
 20
1.18462095E+02
  0
VERTEX
  8
0
 62
4
 10
1.47679492E+01
 20
1.18309682E+02
  0
VERTEX
  8
0
 62
4
 10
1.48616959E+01
 20
1.18164765E+02
  0
VERTEX
  8
0
 62
4
 10
1.49679111E+01
 20
1.18028446E+02
  0
VERTEX
  8
0
 62
4
 10
1.50857864E+01
 20
1.17901762E+02
  0
VERTEX
  8
0
 62
4
 10
1.52144248E+01
 20
1.17785677E+02
  0
VERTEX
  8
0
 62
4
 10
1.53528471E+01
 20
1.17681075E+02
  0
VERTEX
  8
0
 62
4
 10
1.55000000E+01
 20
1.17588753E+02
  0
VERTEX
  8
0
 62
4
 10
1.56547635E+01
 20
1.17509412E+02
  0
VERTEX
  8
0
 62
4
 10
1.58159597E+01
 20
1.17443657E+02
  0
VERTEX
  8
0
 62
4
 10
1.59823619E+01
 20
1.17391988E+02
  0
VERTEX
  8
0
 62
4
 10
1.61527036E+01
 20
1.17354797E+02
  0
VERTEX
  8
0
 62
4
 10
1.63256885E+01
 20
1.17332369E+02
  0
VERTEX
  8
0
 62
4
 10
1.65000000E+01
 20
1.17324874E+02
  0
VERTEX
  8
0
 62
4
 10
1.66743115E+01
 20
1.17332369E+02
  0
VERTEX
  8
0
 62
4
 10
1.68472963E+01
 20
1.17354797E+02
  0
VERTEX
  8
0
 62
4
 10
1.70176381E+01
 20
1.17391988E+02
  0
VERTEX
  8
0
 62
4
 10
1.71840403E+01
 20
1.17443657E+02
  0
VERTEX
  8
0
 62
4
 10
1.73452365E+01
 20
1.17509412E+02
  0
VERTEX
  8
0
 62
4
 10
1.75000000E+01
 20
1.17588753E+02
  0
VERTEX
  8
0
 62
4
 10
1.76471529E+01
 20
1.17681075E+02
  0
VERTEX
  8
0
 62
4
 10
1.77855752E+01
 20
1.17785677E+02
  0
VERTEX
  8
0
 62
4
 10
1.79142136E+01
 20
1.17901762E+02
  0
VERTEX
  8
0
 62
4
 10
1.80320889E+01
 20
1.18028446E+02
  0
VERTEX
  8
0
 62
4
 10
1.81383041E+01
 20
1.18164765E+02
  0
VERTEX
  8
0
 62
4
 10
1.82320508E+01
 20
1.18309682E+02
  0
VERTEX
  8
0
 62
4
 10
1.83126156E+01
 20
1.18462095E+02
  0
VERTEX
  8
0
 62
4
 10
1.83793852E+01
 20
1.18620842E+02
  0
VERTEX
  8
0
 62
4
 10
1.84318517E+01
 20
1.18784716E+02
  0
VERTEX
  8
0
 62
4
 10
1.84696155E+01
 20
1.18952470E+02
  0
VERTEX
  8
0
 62
4
 10
1.84923894E+01
 20
1.19122827E+02
  0
VERTEX
  8
0
 62
4
 10
1.85000000E+01
 20
1.19294490E+02
  0
VERTEX
  8
0
 62
4
 10
1.84923894E+01
 20
1.19466153E+02
  0
VERTEX
  8
0
 62
4
 10
1.84696155E+01
 20
1.19636510E+02
  0
VERTEX
  8
0
 62
4
 10
1.84318517E+01
 20
1.19804264E+02
  0
VERTEX
  8
0
 62
4
 10
1.83793852E+01
 20
1.19968138E+02
  0
VERTEX
  8
0
 62
4
 10
1.83126156E+01
 20
1.20126885E+02
  0
VERTEX
  8
0
 62
4
 10
1.82320508E+01
 20
1.20279298E+02
  0
VERTEX
  8
0
 62
4
 10
1.81383041E+01
 20
1.20424215E+02
  0
VERTEX
  8
0
 62
4
 10
1.80320889E+01
 20
1.20560534E+02
  0
VERTEX
  8
0
 62
4
 10
1.79142136E+01
 20
1.20687218E+02
  0
VERTEX
  8
0
 62
4
 10
1.77855752E+01
 20
1.20803303E+02
  0
VERTEX
  8
0
 62
4
 10
1.76471529E+01
 20
1.20907905E+02
  0
VERTEX
  8
0
 62
4
 10
1.75000000E+01
 20
1.21000227E+02
  0
VERTEX
  8
0
 62
4
 10
1.73452365E+01
 20
1.21079568E+02
  0
VERTEX
  8
0
 62
4
 10
1.71840403E+01
 20
1.21145323E+02
  0
VERTEX
  8
0
 62
4
 10
1.70176381E+01
 20
1.21196992E+02
  0
VERTEX
  8
0
 62
4
 10
1.68472964E+01
 20
1.21234183E+02
  0
VERTEX
  8
0
 62
4
 10
1.66743115E+01
 20
1.21256611E+02
  0
VERTEX
  8
0
 62
4
 10
1.65000000E+01
 20
1.21264106E+02
  0
VERTEX
  8
0
 62
4
 10
1.63256885E+01
 20
1.21256611E+02
  0
VERTEX
  8
0
 62
4
 10
1.61527036E+01
 20
1.21234183E+02
  0
VERTEX
  8
0
 62
4
 10
1.59823619E+01
 20
1.21196992E+02
  0
VERTEX
  8
0
 62
4
 10
1.58159597E+01
 20
1.21145323E+02
  0
VERTEX
  8
0
 62
4
 10
1.56547635E+01
 20
1.21079568E+02
  0
VERTEX
  8
0
 62
4
 10
1.55000000E+01
 20
1.21000227E+02
  0
VERTEX
  8
0
 62
4
 10
1.53528471E+01
 20
1.20907905E+02
  0
VERTEX
  8
0
 62
4
 10
1.52144248E+01
 20
1.20803303E+02
  0
VERTEX
  8
0
 62
4
 10
1.50857864E+01
 20
1.20687218E+02
  0
VERTEX
  8
0
 62
4
 10
1.49679111E+01
 20
1.20560534E+02
  0
VERTEX
  8
0
 62
4
 10
1.48616959E+01
 20
1.20424215E+02
  0
VERTEX
  8
0
 62
4
 10
1.47679492E+01
 20
1.20279298E+02
  0
VERTEX
  8
0
 62
4
 10
1.46873844E+01
 20
1.20126885E+02
  0
VERTEX
  8
0
 62
4
 10
1.46206148E+01
 20
1.19968138E+02
  0
VERTEX
  8
0
 62
4
 10
1.45681483E+01
 20
1.19804264E+02
  0
VERTEX
  8
0
 62
4
 10
1.45303845E+01
 20
1.19636510E+02
  0
VERTEX
  8
0
 62
4
 10
1.45076106E+01
 20
1.19466153E+02
  0
VERTEX
  8
0
 62
4
 10
1.45000000E+01
 20
1.19294490E+02
  0
SEQEND
  8
0
  0
LINE
  8
0
 62
4
 10
1.45000000E+01
 20
1.19294490E+02
 11
1.45000000E+01
 21
1.19830129E+02
  0
LINE
  8
0
 62
4
 10
1.85000000E+01
 20
1.19294490E+02
 11
1.85000000E+01
 21
1.19830129E+02
  0
POLYLINE
  8
0
 62
6
 66
1
  0
VERTEX
  8
0
 62
6
 10
1.80000000E+01
 20
1.19294490E+02
  0
VERTEX
  8
0
 62
6
 10
1.79942920E+01
 20
1.19423237E+02
  0
VERTEX
  8
0
 62
6
 10
1.79772116E+01
 20
1.19551005E+02
  0
VERTEX
  8
0
 62
6
 10
1.79488887E+01
 20
1.19676821E+02
  0
VERTEX
  8
0
 62
6
 10
1.79095389E+01
 20
1.19799726E+02
  0
VERTEX
  8
0
 62
6
 10
1.78594617E+01
 20
1.19918787E+02
  0
VERTEX
  8
0
 62
6
 10
1.77990381E+01
 20
1.20033096E+02
  0
VERTEX
  8
0
 62
6
 10
1.77287281E+01
 20
1.20141784E+02
  0
VERTEX
  8
0
 62
6
 10
1.76490667E+01
 20
1.20244023E+02
  0
VERTEX
  8
0
 62
6
 10
1.75606602E+01
 20
1.20339036E+02
  0
VERTEX
  8
0
 62
6
 10
1.74641814E+01
 20
1.20426100E+02
  0
VERTEX
  8
0
 62
6
 10
1.73603647E+01
 20
1.20504551E+02
  0
VERTEX
  8
0
 62
6
 10
1.72500000E+01
 20
1.20573793E+02
  0
VERTEX
  8
0
 62
6
 10
1.71339274E+01
 20
1.20633298E+02
  0
VERTEX
  8
0
 62
6
 10
1.70130302E+01
 20
1.20682615E+02
  0
VERTEX
  8
0
 62
6
 10
1.68882286E+01
 20
1.20721367E+02
  0
VERTEX
  8
0
 62
6
 10
1.67604723E+01
 20
1.20749259E+02
  0
VERTEX
  8
0
 62
6
 10
1.66307336E+01
 20
1.20766080E+02
  0
VERTEX
  8
0
 62
6
 10
1.65000000E+01
 20
1.20771702E+02
  0
VERTEX
  8
0
 62
6
 10
1.63692664E+01
 20
1.20766080E+02
  0
VERTEX
  8
0
 62
6
 10
1.62395277E+01
 20
1.20749259E+02
  0
VERTEX
  8
0
 62
6
 10
1.61117714E+01
 20
1.20721367E+02
  0
VERTEX
  8
0
 62
6
 10
1.59869698E+01
 20
1.20682615E+02
  0
VERTEX
  8
0
 62
6
 10
1.58660726E+01
 20
1.20633298E+02
  0
VERTEX
  8
0
 62
6
 10
1.57500000E+01
 20
1.20573793E+02
  0
VERTEX
  8
0
 62
6
 10
1.56396353E+01
 20
1.20504551E+02
  0
VERTEX
  8
0
 62
6
 10
1.55358186E+01
 20
1.20426100E+02
  0
VERTEX
  8
0
 62
6
 10
1.54393398E+01
 20
1.20339036E+02
  0
VERTEX
  8
0
 62
6
 10
1.53509333E+01
 20
1.20244023E+02
  0
VERTEX
  8
0
 62
6
 10
1.52712719E+01
 20
1.20141784E+02
  0
VERTEX
  8
0
 62
6
 10
1.52009619E+01
 20
1.20033096E+02
  0
VERTEX
  8
0
 62
6
 10
1.51405383E+01
 20
1.19918787E+02
  0
VERTEX
  8
0
 62
6
 10
1.50904611E+01
 20
1.19799726E+02
  0
VERTEX
  8
0
 62
6
 10
1.50511113E+01
 20
1.19676821E+02
  0
VERTEX
  8
0
 62
6
 10
1.50227884E+01
 20
1.19551005E+02
  0
VERTEX
  8
0
 62
6
 10
1.50057080E+01
 20
1.19423237E+02
  0
VERTEX
  8
0
 62
6
 10
1.50000000E+01
 20
1.19294490E+02
  0
VERTEX
  8
0
 62
6
 10
1.50057080E+01
 20
1.19165743E+02
  0
VERTEX
  8
0
 62
6
 10
1.50227884E+01
 20
1.19037975E+02
  0
VERTEX
  8
0
 62
6
 10
1.50511113E+01
 20
1.18912159E+02
  0
VERTEX
  8
0
 62
6
 10
1.50904611E+01
 20
1.18789254E+02
  0
VERTEX
  8
0
 62
6
 10
1.51405383E+01
 20
1.18670193E+02
  0
VERTEX
  8
0
 62
6
 10
1.52009619E+01
 20
1.18555884E+02
  0
VERTEX
  8
0
 62
6
 10
1.52712719E+01
 20
1.18447196E+02
  0
VERTEX
  8
0
 62
6
 10
1.53509333E+01
 20
1.18344957E+02
  0
VERTEX
  8
0
 62
6
 10
1.54393398E+01
 20
1.18249944E+02
  0
VERTEX
  8
0
 62
6
 10
1.55358186E+01
 20
1.18162880E+02
  0
VERTEX
  8
0
 62
6
 10
1.56396353E+01
 20
1.18084429E+02
  0
VERTEX
  8
0
 62
6
 10
1.57500000E+01
 20
1.18015187E+02
  0
VERTEX
  8
0
 62
6
 10
1.58660726E+01
 20
1.17955682E+02
  0
VERTEX
  8
0
 62
6
 10
1.59869698E+01
 20
1.17906365E+02
  0
VERTEX
  8
0
 62
6
 10
1.61117714E+01
 20
1.17867613E+02
  0
VERTEX
  8
0
 62
6
 10
1.62395277E+01
 20
1.17839721E+02
  0
VERTEX
  8
0
 62
6
 10
1.63692664E+01
 20
1.17822900E+02
  0
VERTEX
  8
0
 62
6
 10
1.65000000E+01
 20
1.17817278E+02
  0
VERTEX
  8
0
 62
6
 10
1.66307336E+01
 20
1.17822900E+02
  0
VERTEX
  8
0
 62
6
 10
1.67604723E+01
 20
1.17839721E+02
  0
VERTEX
  8
0
 62
6
 10
1.68882286E+01
 20
1.17867613E+02
  0
VERTEX
  8
0
 62
6
 10
1.70130302E+01
 20
1.17906365E+02
  0
VERTEX
  8
0
 62
6
 10
1.71339274E+01
 20
1.17955682E+02
  0
VERTEX
  8
0
 62
6
 10
1.72500000E+01
 20
1.18015187E+02
  0
VERTEX
  8
0
 62
6
 10
1.73603647E+01
 20
1.18084429E+02
  0
VERTEX
  8
0
 62
6
 10
1.74641814E+01
 20
1.18162880E+02
  0
VERTEX
  8
0
 62
6
 10
1.75606602E+01
 20
1.18249944E+02
  0
VERTEX
  8
0
 62
6
 10
1.76490667E+01
 20
1.18344957E+02
  0
VERTEX
  8
0
 62
6
 10
1.77287281E+01
 20
1.18447196E+02
  0
VERTEX
  8
0
 62
6
 10
1.77990381E+01
 20
1.18555884E+02
  0
VERTEX
  8
0
 62
6
 10
1.78594617E+01
 20
1.18670193E+02
  0
VERTEX
  8
0
 62
6
 10
1.79095389E+01
 20
1.18789254E+02
  0
VERTEX
  8
0
 62
6
 10
1.79488887E+01
 20
1.18912160E+02
  0
VERTEX
  8
0
 62
6
 10
1.79772116E+01
 20
1.19037975E+02
  0
VERTEX
  8
0
 62
6
 10
1.79942920E+01
 20
1.19165743E+02
  0
VERTEX
  8
0
 62
6
 10
1.80000000E+01
 20
1.19294490E+02
  0
SEQEND
  8
0
  0
LINE
  8
0
 62
4
 10
1.55000000E+01
 20
1.19865678E+02
 11
1.55000000E+01
 21
1.18723301E+02
  0
LINE
  8
0
 62
4
 10
1.75000000E+01
 20
1.19865678E+02
 11
1.75000000E+01
 21
1.18723301E+02
  0
LINE
  8
0
 62
4
 10
1.65000000E+01
 20
1.20427019E+02
 11
1.55000000E+01
 21
1.19865678E+02
  0
LINE
  8
0
 62
4
 10
1.65000000E+01
 20
1.20427019E+02
 11
1.75000000E+01
 21
1.19865678E+02
  0
LINE
  8
0
 62
4
 10
1.75000000E+01
 20
1.18723301E+02
 11
1.65000000E+01
 21
1.18152113E+02
  0
LINE
  8
0
 62
4
 10
1.55000000E+01
 20
1.18723301E+02
 11
1.65000000E+01
 21
1.18152113E+02
  0
LINE
  8
0
 62
4
 10
7.50000000E+00
 20
1.18723301E+02
 11
8.50000000E+00
 21
1.18152113E+02
  0
LINE
  8
0
 62
4
 10
9.50000000E+00
 20
1.18723301E+02
 11
8.50000000E+00
 21
1.18152113E+02
  0
LINE
  8
0
 62
4
 10
8.50000000E+00
 20
1.20427019E+02
 11
9.50000000E+00
 21
1.19865678E+02
  0
LINE
  8
0
 62
4
 10
8.50000000E+00
 20
1.20427019E+02
 11
7.50000000E+00
 21
1.19865678E+02
  0
LINE
  8
0
 62
4
 10
9.50000000E+00
 20
1.19865678E+02
 11
9.50000000E+00
 21
1.18723301E+02
  0
LINE
  8
0
 62
4
 10
7.50000000E+00
 20
1.19865678E+02
 11
7.50000000E+00
 21
1.18723301E+02
  0
POLYLINE
  8
0
 62
6
 66
1
  0
VERTEX
  8
0
 62
6
 10
1.00000000E+01
 20
1.19294490E+02
  0
VERTEX
  8
0
 62
6
 10
9.99429205E+00
 20
1.19423237E+02
  0
VERTEX
  8
0
 62
6
 10
9.97721163E+00
 20
1.19551005E+02
  0
VERTEX
  8
0
 62
6
 10
9.94888874E+00
 20
1.19676821E+02
  0
VERTEX
  8
0
 62
6
 10
9.90953893E+00
 20
1.19799726E+02
  0
VERTEX
  8
0
 62
6
 10
9.85946168E+00
 20
1.19918787E+02
  0
VERTEX
  8
0
 62
6
 10
9.79903811E+00
 20
1.20033096E+02
  0
VERTEX
  8
0
 62
6
 10
9.72872807E+00
 20
1.20141784E+02
  0
VERTEX
  8
0
 62
6
 10
9.64906666E+00
 20
1.20244023E+02
  0
VERTEX
  8
0
 62
6
 10
9.56066017E+00
 20
1.20339036E+02
  0
VERTEX
  8
0
 62
6
 10
9.46418141E+00
 20
1.20426100E+02
  0
VERTEX
  8
0
 62
6
 10
9.36036465E+00
 20
1.20504551E+02
  0
VERTEX
  8
0
 62
6
 10
9.25000000E+00
 20
1.20573793E+02
  0
VERTEX
  8
0
 62
6
 10
9.13392739E+00
 20
1.20633298E+02
  0
VERTEX
  8
0
 62
6
 10
9.01303021E+00
 20
1.20682615E+02
  0
VERTEX
  8
0
 62
6
 10
8.88822857E+00
 20
1.20721367E+02
  0
VERTEX
  8
0
 62
6
 10
8.76047227E+00
 20
1.20749259E+02
  0
VERTEX
  8
0
 62
6
 10
8.63073361E+00
 20
1.20766080E+02
  0
VERTEX
  8
0
 62
6
 10
8.50000000E+00
 20
1.20771702E+02
  0
VERTEX
  8
0
 62
6
 10
8.36926638E+00
 20
1.20766080E+02
  0
VERTEX
  8
0
 62
6
 10
8.23952773E+00
 20
1.20749259E+02
  0
VERTEX
  8
0
 62
6
 10
8.11177143E+00
 20
1.20721367E+02
  0
VERTEX
  8
0
 62
6
 10
7.98696978E+00
 20
1.20682615E+02
  0
VERTEX
  8
0
 62
6
 10
7.86607261E+00
 20
1.20633298E+02
  0
VERTEX
  8
0
 62
6
 10
7.75000000E+00
 20
1.20573793E+02
  0
VERTEX
  8
0
 62
6
 10
7.63963534E+00
 20
1.20504551E+02
  0
VERTEX
  8
0
 62
6
 10
7.53581858E+00
 20
1.20426100E+02
  0
VERTEX
  8
0
 62
6
 10
7.43933983E+00
 20
1.20339036E+02
  0
VERTEX
  8
0
 62
6
 10
7.35093333E+00
 20
1.20244023E+02
  0
VERTEX
  8
0
 62
6
 10
7.27127193E+00
 20
1.20141784E+02
  0
VERTEX
  8
0
 62
6
 10
7.20096189E+00
 20
1.20033096E+02
  0
VERTEX
  8
0
 62
6
 10
7.14053832E+00
 20
1.19918787E+02
  0
VERTEX
  8
0
 62
6
 10
7.09046107E+00
 20
1.19799726E+02
  0
VERTEX
  8
0
 62
6
 10
7.05111126E+00
 20
1.19676821E+02
  0
VERTEX
  8
0
 62
6
 10
7.02278837E+00
 20
1.19551005E+02
  0
VERTEX
  8
0
 62
6
 10
7.00570795E+00
 20
1.19423237E+02
  0
VERTEX
  8
0
 62
6
 10
7.00000000E+00
 20
1.19294490E+02
  0
VERTEX
  8
0
 62
6
 10
7.00570795E+00
 20
1.19165743E+02
  0
VERTEX
  8
0
 62
6
 10
7.02278837E+00
 20
1.19037975E+02
  0
VERTEX
  8
0
 62
6
 10
7.05111126E+00
 20
1.18912159E+02
  0
VERTEX
  8
0
 62
6
 10
7.09046107E+00
 20
1.18789254E+02
  0
VERTEX
  8
0
 62
6
 10
7.14053832E+00
 20
1.18670193E+02
  0
VERTEX
  8
0
 62
6
 10
7.20096190E+00
 20
1.18555884E+02
  0
VERTEX
  8
0
 62
6
 10
7.27127194E+00
 20
1.18447196E+02
  0
VERTEX
  8
0
 62
6
 10
7.35093334E+00
 20
1.18344957E+02
  0
VERTEX
  8
0
 62
6
 10
7.43933983E+00
 20
1.18249944E+02
  0
VERTEX
  8
0
 62
6
 10
7.53581859E+00
 20
1.18162880E+02
  0
VERTEX
  8
0
 62
6
 10
7.63963535E+00
 20
1.18084429E+02
  0
VERTEX
  8
0
 62
6
 10
7.75000000E+00
 20
1.18015187E+02
  0
VERTEX
  8
0
 62
6
 10
7.86607261E+00
 20
1.17955682E+02
  0
VERTEX
  8
0
 62
6
 10
7.98696979E+00
 20
1.17906365E+02
  0
VERTEX
  8
0
 62
6
 10
8.11177144E+00
 20
1.17867613E+02
  0
VERTEX
  8
0
 62
6
 10
8.23952774E+00
 20
1.17839721E+02
  0
VERTEX
  8
0
 62
6
 10
8.36926639E+00
 20
1.17822900E+02
  0
VERTEX
  8
0
 62
6
 10
8.50000000E+00
 20
1.17817278E+02
  0
VERTEX
  8
0
 62
6
 10
8.63073362E+00
 20
1.17822900E+02
  0
VERTEX
  8
0
 62
6
 10
8.76047227E+00
 20
1.17839721E+02
  0
VERTEX
  8
0
 62
6
 10
8.88822857E+00
 20
1.17867613E+02
  0
VERTEX
  8
0
 62
6
 10
9.01303022E+00
 20
1.17906365E+02
  0
VERTEX
  8
0
 62
6
 10
9.13392740E+00
 20
1.17955682E+02
  0
VERTEX
  8
0
 62
6
 10
9.25000000E+00
 20
1.18015187E+02
  0
VERTEX
  8
0
 62
6
 10
9.36036466E+00
 20
1.18084429E+02
  0
VERTEX
  8
0
 62
6
 10
9.46418142E+00
 20
1.18162880E+02
  0
VERTEX
  8
0
 62
6
 10
9.56066017E+00
 20
1.18249944E+02
  0
VERTEX
  8
0
 62
6
 10
9.64906667E+00
 20
1.18344957E+02
  0
VERTEX
  8
0
 62
6
 10
9.72872807E+00
 20
1.18447196E+02
  0
VERTEX
  8
0
 62
6
 10
9.79903811E+00
 20
1.18555884E+02
  0
VERTEX
  8
0
 62
6
 10
9.85946168E+00
 20
1.18670193E+02
  0
VERTEX
  8
0
 62
6
 10
9.90953893E+00
 20
1.18789254E+02
  0
VERTEX
  8
0
 62
6
 10
9.94888874E+00
 20
1.18912160E+02
  0
VERTEX
  8
0
 62
6
 10
9.97721163E+00
 20
1.19037975E+02
  0
VERTEX
  8
0
 62
6
 10
9.99429205E+00
 20
1.19165743E+02
  0
VERTEX
  8
0
 62
6
 10
1.00000000E+01
 20
1.19294490E+02
  0
SEQEND
  8
0
  0
LINE
  8
0
 62
4
 10
1.05000000E+01
 20
1.19294490E+02
 11
1.05000000E+01
 21
1.19830129E+02
  0
LINE
  8
0
 62
4
 10
6.50000000E+00
 20
1.19294490E+02
 11
6.50000000E+00
 21
1.19830129E+02
  0
POLYLINE
  8
0
 62
4
 66
1
  0
VERTEX
  8
0
 62
4
 10
6.50000000E+00
 20
1.19294490E+02
  0
VERTEX
  8
0
 62
4
 10
6.50761060E+00
 20
1.19122827E+02
  0
VERTEX
  8
0
 62
4
 10
6.53038449E+00
 20
1.18952470E+02
  0
VERTEX
  8
0
 62
4
 10
6.56814835E+00
 20
1.18784716E+02
  0
VERTEX
  8
0
 62
4
 10
6.62061476E+00
 20
1.18620842E+02
  0
VERTEX
  8
0
 62
4
 10
6.68738442E+00
 20
1.18462095E+02
  0
VERTEX
  8
0
 62
4
 10
6.76794919E+00
 20
1.18309682E+02
  0
VERTEX
  8
0
 62
4
 10
6.86169591E+00
 20
1.18164765E+02
  0
VERTEX
  8
0
 62
4
 10
6.96791111E+00
 20
1.18028446E+02
  0
VERTEX
  8
0
 62
4
 10
7.08578643E+00
 20
1.17901762E+02
  0
VERTEX
  8
0
 62
4
 10
7.21442478E+00
 20
1.17785677E+02
  0
VERTEX
  8
0
 62
4
 10
7.35284712E+00
 20
1.17681075E+02
  0
VERTEX
  8
0
 62
4
 10
7.49999999E+00
 20
1.17588753E+02
  0
VERTEX
  8
0
 62
4
 10
7.65476347E+00
 20
1.17509412E+02
  0
VERTEX
  8
0
 62
4
 10
7.81595971E+00
 20
1.17443657E+02
  0
VERTEX
  8
0
 62
4
 10
7.98236190E+00
 20
1.17391988E+02
  0
VERTEX
  8
0
 62
4
 10
8.15270364E+00
 20
1.17354797E+02
  0
VERTEX
  8
0
 62
4
 10
8.32568851E+00
 20
1.17332369E+02
  0
VERTEX
  8
0
 62
4
 10
8.49999999E+00
 20
1.17324874E+02
  0
VERTEX
  8
0
 62
4
 10
8.67431148E+00
 20
1.17332369E+02
  0
VERTEX
  8
0
 62
4
 10
8.84729635E+00
 20
1.17354797E+02
  0
VERTEX
  8
0
 62
4
 10
9.01763808E+00
 20
1.17391988E+02
  0
VERTEX
  8
0
 62
4
 10
9.18404028E+00
 20
1.17443657E+02
  0
VERTEX
  8
0
 62
4
 10
9.34523652E+00
 20
1.17509412E+02
  0
VERTEX
  8
0
 62
4
 10
9.50000000E+00
 20
1.17588753E+02
  0
VERTEX
  8
0
 62
4
 10
9.64715287E+00
 20
1.17681075E+02
  0
VERTEX
  8
0
 62
4
 10
9.78557522E+00
 20
1.17785677E+02
  0
VERTEX
  8
0
 62
4
 10
9.91421356E+00
 20
1.17901762E+02
  0
VERTEX
  8
0
 62
4
 10
1.00320889E+01
 20
1.18028446E+02
  0
VERTEX
  8
0
 62
4
 10
1.01383041E+01
 20
1.18164765E+02
  0
VERTEX
  8
0
 62
4
 10
1.02320508E+01
 20
1.18309682E+02
  0
VERTEX
  8
0
 62
4
 10
1.03126156E+01
 20
1.18462095E+02
  0
VERTEX
  8
0
 62
4
 10
1.03793852E+01
 20
1.18620842E+02
  0
VERTEX
  8
0
 62
4
 10
1.04318517E+01
 20
1.18784716E+02
  0
VERTEX
  8
0
 62
4
 10
1.04696155E+01
 20
1.18952470E+02
  0
VERTEX
  8
0
 62
4
 10
1.04923894E+01
 20
1.19122827E+02
  0
VERTEX
  8
0
 62
4
 10
1.05000000E+01
 20
1.19294490E+02
  0
VERTEX
  8
0
 62
4
 10
1.04923894E+01
 20
1.19466153E+02
  0
VERTEX
  8
0
 62
4
 10
1.04696155E+01
 20
1.19636510E+02
  0
VERTEX
  8
0
 62
4
 10
1.04318517E+01
 20
1.19804264E+02
  0
VERTEX
  8
0
 62
4
 10
1.03793852E+01
 20
1.19968138E+02
  0
VERTEX
  8
0
 62
4
 10
1.03126156E+01
 20
1.20126885E+02
  0
VERTEX
  8
0
 62
4
 10
1.02320508E+01
 20
1.20279298E+02
  0
VERTEX
  8
0
 62
4
 10
1.01383041E+01
 20
1.20424215E+02
  0
VERTEX
  8
0
 62
4
 10
1.00320889E+01
 20
1.20560534E+02
  0
VERTEX
  8
0
 62
4
 10
9.91421356E+00
 20
1.20687218E+02
  0
VERTEX
  8
0
 62
4
 10
9.78557522E+00
 20
1.20803303E+02
  0
VERTEX
  8
0
 62
4
 10
9.64715288E+00
 20
1.20907905E+02
  0
VERTEX
  8
0
 62
4
 10
9.50000000E+00
 20
1.21000227E+02
  0
VERTEX
  8
0
 62
4
 10
9.34523653E+00
 20
1.21079568E+02
  0
VERTEX
  8
0
 62
4
 10
9.18404029E+00
 20
1.21145323E+02
  0
VERTEX
  8
0
 62
4
 10
9.01763809E+00
 20
1.21196992E+02
  0
VERTEX
  8
0
 62
4
 10
8.84729636E+00
 20
1.21234183E+02
  0
VERTEX
  8
0
 62
4
 10
8.67431149E+00
 20
1.21256611E+02
  0
VERTEX
  8
0
 62
4
 10
8.50000000E+00
 20
1.21264106E+02
  0
VERTEX
  8
0
 62
4
 10
8.32568852E+00
 20
1.21256611E+02
  0
VERTEX
  8
0
 62
4
 10
8.15270365E+00
 20
1.21234183E+02
  0
VERTEX
  8
0
 62
4
 10
7.98236191E+00
 20
1.21196992E+02
  0
VERTEX
  8
0
 62
4
 10
7.81595972E+00
 20
1.21145323E+02
  0
VERTEX
  8
0
 62
4
 10
7.65476348E+00
 20
1.21079568E+02
  0
VERTEX
  8
0
 62
4
 10
7.50000000E+00
 20
1.21000227E+02
  0
VERTEX
  8
0
 62
4
 10
7.35284713E+00
 20
1.20907905E+02
  0
VERTEX
  8
0
 62
4
 10
7.21442478E+00
 20
1.20803303E+02
  0
VERTEX
  8
0
 62
4
 10
7.08578644E+00
 20
1.20687218E+02
  0
VERTEX
  8
0
 62
4
 10
6.96791112E+00
 20
1.20560534E+02
  0
VERTEX
  8
0
 62
4
 10
6.86169591E+00
 20
1.20424215E+02
  0
VERTEX
  8
0
 62
4
 10
6.76794919E+00
 20
1.20279298E+02
  0
VERTEX
  8
0
 62
4
 10
6.68738443E+00
 20
1.20126885E+02
  0
VERTEX
  8
0
 62
4
 10
6.62061476E+00
 20
1.19968138E+02
  0
VERTEX
  8
0
 62
4
 10
6.56814835E+00
 20
1.19804264E+02
  0
VERTEX
  8
0
 62
4
 10
6.53038449E+00
 20
1.19636510E+02
  0
VERTEX
  8
0
 62
4
 10
6.50761060E+00
 20
1.19466153E+02
  0
VERTEX
  8
0
 62
4
 10
6.50000000E+00
 20
1.19294490E+02
  0
SEQEND
  8
0
  0
POLYLINE
  8
0
 62
4
 66
1
  0
VERTEX
  8
0
 62
4
 10
1.05000000E+01
 20
1.19830129E+02
  0
VERTEX
  8
0
 62
4
 10
1.04919486E+01
 20
1.20006684E+02
  0
VERTEX
  8
0
 62
4
 10
1.04678592E+01
 20
1.20181817E+02
  0
VERTEX
  8
0
 62
4
 10
1.04279257E+01
 20
1.20354119E+02
  0
VERTEX
  8
0
 62
4
 10
1.03724697E+01
 20
1.20522202E+02
  0
VERTEX
  8
0
 62
4
 10
1.03019377E+01
 20
1.20684713E+02
  0
VERTEX
  8
0
 62
4
 10
1.02168976E+01
 20
1.20840343E+02
  0
VERTEX
  8
0
 62
4
 10
1.01180340E+01
 20
1.20987840E+02
  0
VERTEX
  8
0
 62
4
 10
1.00061429E+01
 20
1.21126015E+02
  0
VERTEX
  8
0
 62
4
 10
9.88212531E+00
 20
1.21253757E+02
  0
VERTEX
  8
0
 62
4
 10
9.74697962E+00
 20
1.21370036E+02
  0
VERTEX
  8
0
 62
4
 10
9.60179398E+00
 20
1.21473917E+02
  0
VERTEX
  8
0
 62
4
 10
9.44773734E+00
 20
1.21564564E+02
  0
VERTEX
  8
0
 62
4
 10
9.28605008E+00
 20
1.21641245E+02
  0
VERTEX
  8
0
 62
4
 10
9.11803401E+00
 20
1.21703345E+02
  0
VERTEX
  8
0
 62
4
 10
8.94504188E+00
 20
1.21750362E+02
  0
VERTEX
  8
0
 62
4
 10
8.76846655E+00
 20
1.21781919E+02
  0
VERTEX
  8
0
 62
4
 10
8.58972968E+00
 20
1.21797761E+02
  0
VERTEX
  8
0
 62
4
 10
8.41027036E+00
 20
1.21797761E+02
  0
VERTEX
  8
0
 62
4
 10
8.23153349E+00
 20
1.21781919E+02
  0
VERTEX
  8
0
 62
4
 10
8.05495815E+00
 20
1.21750362E+02
  0
VERTEX
  8
0
 62
4
 10
7.88196603E+00
 20
1.21703345E+02
  0
VERTEX
  8
0
 62
4
 10
7.71394995E+00
 20
1.21641245E+02
  0
VERTEX
  8
0
 62
4
 10
7.55226269E+00
 20
1.21564564E+02
  0
VERTEX
  8
0
 62
4
 10
7.39820605E+00
 20
1.21473917E+02
  0
VERTEX
  8
0
 62
4
 10
7.25302041E+00
 20
1.21370036E+02
  0
VERTEX
  8
0
 62
4
 10
7.11787472E+00
 20
1.21253757E+02
  0
VERTEX
  8
0
 62
4
 10
6.99385708E+00
 20
1.21126015E+02
  0
VERTEX
  8
0
 62
4
 10
6.88196602E+00
 20
1.20987840E+02
  0
VERTEX
  8
0
 62
4
 10
6.78310242E+00
 20
1.20840343E+02
  0
VERTEX
  8
0
 62
4
 10
6.69806227E+00
 20
1.20684713E+02
  0
VERTEX
  8
0
 62
4
 10
6.62753027E+00
 20
1.20522202E+02
  0
VERTEX
  8
0
 62
4
 10
6.57207428E+00
 20
1.20354119E+02
  0
VERTEX
  8
0
 62
4
 10
6.53214083E+00
 20
1.20181817E+02
  0
VERTEX
  8
0
 62
4
 10
6.50805141E+00
 20
1.20006684E+02
  0
VERTEX
  8
0
 62
4
 10
6.50000000E+00
 20
1.19830129E+02
  0
SEQEND
  8
0
  0
LINE
  8
0
 62
4
 10
-5.40000000E+01
 20
1.44006407E+02
 11
-2.40000000E+01
 21
1.44006407E+02
  0
LINE
  8
0
 62
4
 10
-5.40000000E+01
 20
1.28249483E+02
 11
-2.40000000E+01
 21
1.28249483E+02
  0
LINE
  8
0
 62
4
 10
-5.40000000E+01
 20
1.29234291E+02
 11
-2.40000000E+01
 21
1.29234291E+02
  0
LINE
  8
0
 62
4
 10
-5.40000000E+01
 20
1.33306732E+02
 11
-5.55000000E+01
 21
1.32298876E+02
  0
LINE
  8
0
 62
4
 10
-5.55000000E+01
 20
1.32298876E+02
 11
-5.55000000E+01
 21
1.29674973E+02
  0
LINE
  8
0
 62
4
 10
-5.55000000E+01
 20
1.30068286E+02
 11
-5.40000000E+01
 21
1.29367501E+02
  0
LINE
  8
0
 62
4
 10
-5.55000000E+01
 20
1.29674973E+02
 11
-5.40000000E+01
 21
1.28672909E+02
  0
LINE
  8
0
 62
4
 10
-5.40000000E+01
 20
1.33306732E+02
 11
-4.19372448E+01
 21
1.33306732E+02
  0
LINE
  8
0
 62
4
 10
-5.40000000E+01
 20
1.29367501E+02
 11
-3.05000000E+01
 21
1.29367501E+02
  0
LINE
  8
0
 62
4
 10
-5.40000000E+01
 20
1.33764407E+02
 11
-4.23371230E+01
 21
1.33764407E+02
  0
LINE
  8
0
 62
4
 10
-5.40000000E+01
 20
1.33306732E+02
 11
-5.40000000E+01
 21
1.29234291E+02
  0
LINE
  8
0
 62
4
 10
-5.40000000E+01
 20
1.29234291E+02
 11
-5.40000000E+01
 21
1.27499954E+02
  0
ARC
  8
0
 62
4
 10
-1.62681469E+02
 20
6.93701978E+00
 40
1.86971513E+02
 50
4.46782203E+01
 51
4.61988768E+01
  0
ARC
  8
0
 62
4
 10
9.96814687E+01
 20
6.93701978E+00
 40
1.86971513E+02
 50
1.33801123E+02
 51
1.35321779E+02
  0
LINE
  8
0
 62
4
 10
-2.81000000E+01
 20
1.39748421E+02
 11
-2.81000000E+01
 21
1.39944782E+02
  0
POLYLINE
  8
0
 62
4
 66
1
  0
VERTEX
  8
0
 62
4
 10
-3.49000000E+01
 20
1.39944782E+02
  0
VERTEX
  8
0
 62
4
 10
-3.48870620E+01
 20
1.39652954E+02
  0
VERTEX
  8
0
 62
4
 10
-3.48483464E+01
 20
1.39363348E+02
  0
VERTEX
  8
0
 62
4
 10
-3.47841478E+01
 20
1.39078166E+02
  0
VERTEX
  8
0
 62
4
 10
-3.46949549E+01
 20
1.38799580E+02
  0
VERTEX
  8
0
 62
4
 10
-3.45814465E+01
 20
1.38529710E+02
  0
VERTEX
  8
0
 62
4
 10
-3.44444864E+01
 20
1.38270609E+02
  0
VERTEX
  8
0
 62
4
 10
-3.42851170E+01
 20
1.38024249E+02
  0
VERTEX
  8
0
 62
4
 10
-3.41045511E+01
 20
1.37792506E+02
  0
VERTEX
  8
0
 62
4
 10
-3.39041631E+01
 20
1.37577143E+02
  0
VERTEX
  8
0
 62
4
 10
-3.36854779E+01
 20
1.37379800E+02
  0
VERTEX
  8
0
 62
4
 10
-3.34501599E+01
 20
1.37201977E+02
  0
VERTEX
  8
0
 62
4
 10
-3.32000000E+01
 20
1.37045029E+02
  0
VERTEX
  8
0
 62
4
 10
-3.29369021E+01
 20
1.36910149E+02
  0
VERTEX
  8
0
 62
4
 10
-3.26628685E+01
 20
1.36798365E+02
  0
VERTEX
  8
0
 62
4
 10
-3.23799848E+01
 20
1.36710527E+02
  0
VERTEX
  8
0
 62
4
 10
-3.20904038E+01
 20
1.36647304E+02
  0
VERTEX
  8
0
 62
4
 10
-3.17963295E+01
 20
1.36609177E+02
  0
VERTEX
  8
0
 62
4
 10
-3.15000000E+01
 20
1.36596435E+02
  0
VERTEX
  8
0
 62
4
 10
-3.12036705E+01
 20
1.36609177E+02
  0
VERTEX
  8
0
 62
4
 10
-3.09095962E+01
 20
1.36647304E+02
  0
VERTEX
  8
0
 62
4
 10
-3.06200152E+01
 20
1.36710527E+02
  0
VERTEX
  8
0
 62
4
 10
-3.03371315E+01
 20
1.36798365E+02
  0
VERTEX
  8
0
 62
4
 10
-3.00630979E+01
 20
1.36910149E+02
  0
VERTEX
  8
0
 62
4
 10
-2.98000000E+01
 20
1.37045029E+02
  0
VERTEX
  8
0
 62
4
 10
-2.95498401E+01
 20
1.37201977E+02
  0
VERTEX
  8
0
 62
4
 10
-2.93145221E+01
 20
1.37379800E+02
  0
VERTEX
  8
0
 62
4
 10
-2.90958369E+01
 20
1.37577143E+02
  0
VERTEX
  8
0
 62
4
 10
-2.88954489E+01
 20
1.37792506E+02
  0
VERTEX
  8
0
 62
4
 10
-2.87148830E+01
 20
1.38024249E+02
  0
VERTEX
  8
0
 62
4
 10
-2.85555136E+01
 20
1.38270609E+02
  0
VERTEX
  8
0
 62
4
 10
-2.84185535E+01
 20
1.38529710E+02
  0
VERTEX
  8
0
 62
4
 10
-2.83050451E+01
 20
1.38799580E+02
  0
VERTEX
  8
0
 62
4
 10
-2.82158522E+01
 20
1.39078166E+02
  0
VERTEX
  8
0
 62
4
 10
-2.81516536E+01
 20
1.39363348E+02
  0
VERTEX
  8
0
 62
4
 10
-2.81129380E+01
 20
1.39652954E+02
  0
VERTEX
  8
0
 62
4
 10
-2.81000000E+01
 20
1.39944782E+02
  0
VERTEX
  8
0
 62
4
 10
-2.81129380E+01
 20
1.40236610E+02
  0
VERTEX
  8
0
 62
4
 10
-2.81516536E+01
 20
1.40526216E+02
  0
VERTEX
  8
0
 62
4
 10
-2.82158522E+01
 20
1.40811398E+02
  0
VERTEX
  8
0
 62
4
 10
-2.83050451E+01
 20
1.41089984E+02
  0
VERTEX
  8
0
 62
4
 10
-2.84185535E+01
 20
1.41359854E+02
  0
VERTEX
  8
0
 62
4
 10
-2.85555136E+01
 20
1.41618955E+02
  0
VERTEX
  8
0
 62
4
 10
-2.87148830E+01
 20
1.41865315E+02
  0
VERTEX
  8
0
 62
4
 10
-2.88954489E+01
 20
1.42097058E+02
  0
VERTEX
  8
0
 62
4
 10
-2.90958369E+01
 20
1.42312421E+02
  0
VERTEX
  8
0
 62
4
 10
-2.93145221E+01
 20
1.42509764E+02
  0
VERTEX
  8
0
 62
4
 10
-2.95498401E+01
 20
1.42687587E+02
  0
VERTEX
  8
0
 62
4
 10
-2.98000000E+01
 20
1.42844535E+02
  0
VERTEX
  8
0
 62
4
 10
-3.00630979E+01
 20
1.42979415E+02
  0
VERTEX
  8
0
 62
4
 10
-3.03371315E+01
 20
1.43091199E+02
  0
VERTEX
  8
0
 62
4
 10
-3.06200152E+01
 20
1.43179037E+02
  0
VERTEX
  8
0
 62
4
 10
-3.09095962E+01
 20
1.43242260E+02
  0
VERTEX
  8
0
 62
4
 10
-3.12036705E+01
 20
1.43280387E+02
  0
VERTEX
  8
0
 62
4
 10
-3.15000000E+01
 20
1.43293129E+02
  0
VERTEX
  8
0
 62
4
 10
-3.17963295E+01
 20
1.43280387E+02
  0
VERTEX
  8
0
 62
4
 10
-3.20904038E+01
 20
1.43242260E+02
  0
VERTEX
  8
0
 62
4
 10
-3.23799848E+01
 20
1.43179037E+02
  0
VERTEX
  8
0
 62
4
 10
-3.26628685E+01
 20
1.43091199E+02
  0
VERTEX
  8
0
 62
4
 10
-3.29369021E+01
 20
1.42979415E+02
  0
VERTEX
  8
0
 62
4
 10
-3.32000000E+01
 20
1.42844535E+02
  0
VERTEX
  8
0
 62
4
 10
-3.34501599E+01
 20
1.42687587E+02
  0
VERTEX
  8
0
 62
4
 10
-3.36854779E+01
 20
1.42509764E+02
  0
VERTEX
  8
0
 62
4
 10
-3.39041631E+01
 20
1.42312421E+02
  0
VERTEX
  8
0
 62
4
 10
-3.41045511E+01
 20
1.42097058E+02
  0
VERTEX
  8
0
 62
4
 10
-3.42851170E+01
 20
1.41865315E+02
  0
VERTEX
  8
0
 62
4
 10
-3.44444864E+01
 20
1.41618955E+02
  0
VERTEX
  8
0
 62
4
 10
-3.45814465E+01
 20
1.41359854E+02
  0
VERTEX
  8
0
 62
4
 10
-3.46949549E+01
 20
1.41089984E+02
  0
VERTEX
  8
0
 62
4
 10
-3.47841478E+01
 20
1.40811398E+02
  0
VERTEX
  8
0
 62
4
 10
-3.48483464E+01
 20
1.40526216E+02
  0
VERTEX
  8
0
 62
4
 10
-3.48870620E+01
 20
1.40236610E+02
  0
VERTEX
  8
0
 62
4
 10
-3.49000000E+01
 20
1.39944782E+02
  0
SEQEND
  8
0
  0
POLYLINE
  8
0
 62
4
 66
1
  0
VERTEX
  8
0
 62
4
 10
-3.49000000E+01
 20
1.39748421E+02
  0
VERTEX
  8
0
 62
4
 10
-3.48863126E+01
 20
1.39448278E+02
  0
VERTEX
  8
0
 62
4
 10
-3.48453606E+01
 20
1.39150551E+02
  0
VERTEX
  8
0
 62
4
 10
-3.47774738E+01
 20
1.38857638E+02
  0
VERTEX
  8
0
 62
4
 10
-3.46831986E+01
 20
1.38571896E+02
  0
VERTEX
  8
0
 62
4
 10
-3.45632942E+01
 20
1.38295628E+02
  0
VERTEX
  8
0
 62
4
 10
-3.44187259E+01
 20
1.38031057E+02
  0
VERTEX
  8
0
 62
4
 10
-3.42506578E+01
 20
1.37780312E+02
  0
VERTEX
  8
0
 62
4
 10
-3.40604430E+01
 20
1.37545414E+02
  0
VERTEX
  8
0
 62
4
 10
-3.38496130E+01
 20
1.37328253E+02
  0
VERTEX
  8
0
 62
4
 10
-3.36198654E+01
 20
1.37130578E+02
  0
VERTEX
  8
0
 62
4
 10
-3.33730498E+01
 20
1.36953981E+02
  0
VERTEX
  8
0
 62
4
 10
-3.31111535E+01
 20
1.36799882E+02
  0
VERTEX
  8
0
 62
4
 10
-3.28362851E+01
 20
1.36669524E+02
  0
VERTEX
  8
0
 62
4
 10
-3.25506578E+01
 20
1.36563954E+02
  0
VERTEX
  8
0
 62
4
 10
-3.22565712E+01
 20
1.36484025E+02
  0
VERTEX
  8
0
 62
4
 10
-3.19563931E+01
 20
1.36430378E+02
  0
VERTEX
  8
0
 62
4
 10
-3.16525404E+01
 20
1.36403446E+02
  0
VERTEX
  8
0
 62
4
 10
-3.13474596E+01
 20
1.36403446E+02
  0
VERTEX
  8
0
 62
4
 10
-3.10436069E+01
 20
1.36430378E+02
  0
VERTEX
  8
0
 62
4
 10
-3.07434288E+01
 20
1.36484025E+02
  0
VERTEX
  8
0
 62
4
 10
-3.04493422E+01
 20
1.36563954E+02
  0
VERTEX
  8
0
 62
4
 10
-3.01637149E+01
 20
1.36669524E+02
  0
VERTEX
  8
0
 62
4
 10
-2.98888466E+01
 20
1.36799882E+02
  0
VERTEX
  8
0
 62
4
 10
-2.96269503E+01
 20
1.36953981E+02
  0
VERTEX
  8
0
 62
4
 10
-2.93801347E+01
 20
1.37130578E+02
  0
VERTEX
  8
0
 62
4
 10
-2.91503870E+01
 20
1.37328253E+02
  0
VERTEX
  8
0
 62
4
 10
-2.89395570E+01
 20
1.37545414E+02
  0
VERTEX
  8
0
 62
4
 10
-2.87493422E+01
 20
1.37780312E+02
  0
VERTEX
  8
0
 62
4
 10
-2.85812741E+01
 20
1.38031057E+02
  0
VERTEX
  8
0
 62
4
 10
-2.84367058E+01
 20
1.38295628E+02
  0
VERTEX
  8
0
 62
4
 10
-2.83168014E+01
 20
1.38571896E+02
  0
VERTEX
  8
0
 62
4
 10
-2.82225263E+01
 20
1.38857637E+02
  0
VERTEX
  8
0
 62
4
 10
-2.81546394E+01
 20
1.39150551E+02
  0
VERTEX
  8
0
 62
4
 10
-2.81136874E+01
 20
1.39448278E+02
  0
VERTEX
  8
0
 62
4
 10
-2.81000000E+01
 20
1.39748421E+02
  0
SEQEND
  8
0
  0
LINE
  8
0
 62
4
 10
-3.49000000E+01
 20
1.39748421E+02
 11
-3.49000000E+01
 21
1.39944782E+02
  0
LINE
  8
0
 62
4
 10
-2.77000000E+01
 20
1.39574772E+02
 11
-2.77000000E+01
 21
1.39748421E+02
  0
POLYLINE
  8
0
 62
4
 66
1
  0
VERTEX
  8
0
 62
4
 10
-3.53000000E+01
 20
1.39748421E+02
  0
VERTEX
  8
0
 62
4
 10
-3.52855399E+01
 20
1.39422261E+02
  0
VERTEX
  8
0
 62
4
 10
-3.52422695E+01
 20
1.39098583E+02
  0
VERTEX
  8
0
 62
4
 10
-3.51705182E+01
 20
1.38779850E+02
  0
VERTEX
  8
0
 62
4
 10
-3.50708320E+01
 20
1.38468489E+02
  0
VERTEX
  8
0
 62
4
 10
-3.49439696E+01
 20
1.38166870E+02
  0
VERTEX
  8
0
 62
4
 10
-3.47908966E+01
 20
1.37877286E+02
  0
VERTEX
  8
0
 62
4
 10
-3.46127778E+01
 20
1.37601943E+02
  0
VERTEX
  8
0
 62
4
 10
-3.44109689E+01
 20
1.37342937E+02
  0
VERTEX
  8
0
 62
4
 10
-3.41870058E+01
 20
1.37102237E+02
  0
VERTEX
  8
0
 62
4
 10
-3.39425929E+01
 20
1.36881676E+02
  0
VERTEX
  8
0
 62
4
 10
-3.36795905E+01
 20
1.36682933E+02
  0
VERTEX
  8
0
 62
4
 10
-3.34000000E+01
 20
1.36507521E+02
  0
VERTEX
  8
0
 62
4
 10
-3.31059494E+01
 20
1.36356773E+02
  0
VERTEX
  8
0
 62
4
 10
-3.27996766E+01
 20
1.36231838E+02
  0
VERTEX
  8
0
 62
4
 10
-3.24835124E+01
 20
1.36133666E+02
  0
VERTEX
  8
0
 62
4
 10
-3.21598631E+01
 20
1.36063005E+02
  0
VERTEX
  8
0
 62
4
 10
-3.18311918E+01
 20
1.36020392E+02
  0
VERTEX
  8
0
 62
4
 10
-3.15000000E+01
 20
1.36006152E+02
  0
VERTEX
  8
0
 62
4
 10
-3.11688082E+01
 20
1.36020392E+02
  0
VERTEX
  8
0
 62
4
 10
-3.08401369E+01
 20
1.36063005E+02
  0
VERTEX
  8
0
 62
4
 10
-3.05164876E+01
 20
1.36133666E+02
  0
VERTEX
  8
0
 62
4
 10
-3.02003235E+01
 20
1.36231838E+02
  0
VERTEX
  8
0
 62
4
 10
-2.98940506E+01
 20
1.36356773E+02
  0
VERTEX
  8
0
 62
4
 10
-2.96000000E+01
 20
1.36507521E+02
  0
VERTEX
  8
0
 62
4
 10
-2.93204095E+01
 20
1.36682933E+02
  0
VERTEX
  8
0
 62
4
 10
-2.90574071E+01
 20
1.36881676E+02
  0
VERTEX
  8
0
 62
4
 10
-2.88129942E+01
 20
1.37102237E+02
  0
VERTEX
  8
0
 62
4
 10
-2.85890311E+01
 20
1.37342937E+02
  0
VERTEX
  8
0
 62
4
 10
-2.83872222E+01
 20
1.37601943E+02
  0
VERTEX
  8
0
 62
4
 10
-2.82091034E+01
 20
1.37877286E+02
  0
VERTEX
  8
0
 62
4
 10
-2.80560304E+01
 20
1.38166870E+02
  0
VERTEX
  8
0
 62
4
 10
-2.79291680E+01
 20
1.38468489E+02
  0
VERTEX
  8
0
 62
4
 10
-2.78294818E+01
 20
1.38779850E+02
  0
VERTEX
  8
0
 62
4
 10
-2.77577305E+01
 20
1.39098583E+02
  0
VERTEX
  8
0
 62
4
 10
-2.77144601E+01
 20
1.39422261E+02
  0
VERTEX
  8
0
 62
4
 10
-2.77000000E+01
 20
1.39748421E+02
  0
VERTEX
  8
0
 62
4
 10
-2.77144601E+01
 20
1.40074581E+02
  0
VERTEX
  8
0
 62
4
 10
-2.77577305E+01
 20
1.40398259E+02
  0
VERTEX
  8
0
 62
4
 10
-2.78294818E+01
 20
1.40716992E+02
  0
VERTEX
  8
0
 62
4
 10
-2.79291680E+01
 20
1.41028353E+02
  0
VERTEX
  8
0
 62
4
 10
-2.80560304E+01
 20
1.41329972E+02
  0
VERTEX
  8
0
 62
4
 10
-2.82091034E+01
 20
1.41619556E+02
  0
VERTEX
  8
0
 62
4
 10
-2.83872222E+01
 20
1.41894899E+02
  0
VERTEX
  8
0
 62
4
 10
-2.85890311E+01
 20
1.42153905E+02
  0
VERTEX
  8
0
 62
4
 10
-2.88129942E+01
 20
1.42394605E+02
  0
VERTEX
  8
0
 62
4
 10
-2.90574071E+01
 20
1.42615166E+02
  0
VERTEX
  8
0
 62
4
 10
-2.93204095E+01
 20
1.42813909E+02
  0
VERTEX
  8
0
 62
4
 10
-2.96000000E+01
 20
1.42989321E+02
  0
VERTEX
  8
0
 62
4
 10
-2.98940506E+01
 20
1.43140069E+02
  0
VERTEX
  8
0
 62
4
 10
-3.02003234E+01
 20
1.43265004E+02
  0
VERTEX
  8
0
 62
4
 10
-3.05164876E+01
 20
1.43363176E+02
  0
VERTEX
  8
0
 62
4
 10
-3.08401369E+01
 20
1.43433837E+02
  0
VERTEX
  8
0
 62
4
 10
-3.11688082E+01
 20
1.43476450E+02
  0
VERTEX
  8
0
 62
4
 10
-3.15000000E+01
 20
1.43490690E+02
  0
VERTEX
  8
0
 62
4
 10
-3.18311918E+01
 20
1.43476450E+02
  0
VERTEX
  8
0
 62
4
 10
-3.21598631E+01
 20
1.43433837E+02
  0
VERTEX
  8
0
 62
4
 10
-3.24835124E+01
 20
1.43363176E+02
  0
VERTEX
  8
0
 62
4
 10
-3.27996766E+01
 20
1.43265004E+02
  0
VERTEX
  8
0
 62
4
 10
-3.31059494E+01
 20
1.43140069E+02
  0
VERTEX
  8
0
 62
4
 10
-3.34000000E+01
 20
1.42989321E+02
  0
VERTEX
  8
0
 62
4
 10
-3.36795905E+01
 20
1.42813909E+02
  0
VERTEX
  8
0
 62
4
 10
-3.39425929E+01
 20
1.42615166E+02
  0
VERTEX
  8
0
 62
4
 10
-3.41870058E+01
 20
1.42394605E+02
  0
VERTEX
  8
0
 62
4
 10
-3.44109689E+01
 20
1.42153905E+02
  0
VERTEX
  8
0
 62
4
 10
-3.46127778E+01
 20
1.41894899E+02
  0
VERTEX
  8
0
 62
4
 10
-3.47908966E+01
 20
1.41619556E+02
  0
VERTEX
  8
0
 62
4
 10
-3.49439696E+01
 20
1.41329972E+02
  0
VERTEX
  8
0
 62
4
 10
-3.50708320E+01
 20
1.41028353E+02
  0
VERTEX
  8
0
 62
4
 10
-3.51705182E+01
 20
1.40716992E+02
  0
VERTEX
  8
0
 62
4
 10
-3.52422695E+01
 20
1.40398259E+02
  0
VERTEX
  8
0
 62
4
 10
-3.52855399E+01
 20
1.40074581E+02
  0
VERTEX
  8
0
 62
4
 10
-3.53000000E+01
 20
1.39748421E+02
  0
SEQEND
  8
0
  0
POLYLINE
  8
0
 62
4
 66
1
  0
VERTEX
  8
0
 62
4
 10
-3.53000000E+01
 20
1.39574772E+02
  0
VERTEX
  8
0
 62
4
 10
-3.52847023E+01
 20
1.39239318E+02
  0
VERTEX
  8
0
 62
4
 10
-3.52389325E+01
 20
1.38906564E+02
  0
VERTEX
  8
0
 62
4
 10
-3.51630589E+01
 20
1.38579190E+02
  0
VERTEX
  8
0
 62
4
 10
-3.50576925E+01
 20
1.38259833E+02
  0
VERTEX
  8
0
 62
4
 10
-3.49236817E+01
 20
1.37951062E+02
  0
VERTEX
  8
0
 62
4
 10
-3.47621054E+01
 20
1.37655365E+02
  0
VERTEX
  8
0
 62
4
 10
-3.45742646E+01
 20
1.37375121E+02
  0
VERTEX
  8
0
 62
4
 10
-3.43616716E+01
 20
1.37112588E+02
  0
VERTEX
  8
0
 62
4
 10
-3.41260381E+01
 20
1.36869879E+02
  0
VERTEX
  8
0
 62
4
 10
-3.38692613E+01
 20
1.36648948E+02
  0
VERTEX
  8
0
 62
4
 10
-3.35934086E+01
 20
1.36451574E+02
  0
VERTEX
  8
0
 62
4
 10
-3.33007009E+01
 20
1.36279346E+02
  0
VERTEX
  8
0
 62
4
 10
-3.29934951E+01
 20
1.36133651E+02
  0
VERTEX
  8
0
 62
4
 10
-3.26742646E+01
 20
1.36015662E+02
  0
VERTEX
  8
0
 62
4
 10
-3.23455796E+01
 20
1.35926329E+02
  0
VERTEX
  8
0
 62
4
 10
-3.20100864E+01
 20
1.35866371E+02
  0
VERTEX
  8
0
 62
4
 10
-3.16704864E+01
 20
1.35836271E+02
  0
VERTEX
  8
0
 62
4
 10
-3.13295137E+01
 20
1.35836271E+02
  0
VERTEX
  8
0
 62
4
 10
-3.09899136E+01
 20
1.35866371E+02
  0
VERTEX
  8
0
 62
4
 10
-3.06544205E+01
 20
1.35926329E+02
  0
VERTEX
  8
0
 62
4
 10
-3.03257354E+01
 20
1.36015662E+02
  0
VERTEX
  8
0
 62
4
 10
-3.00065049E+01
 20
1.36133651E+02
  0
VERTEX
  8
0
 62
4
 10
-2.96992991E+01
 20
1.36279346E+02
  0
VERTEX
  8
0
 62
4
 10
-2.94065915E+01
 20
1.36451574E+02
  0
VERTEX
  8
0
 62
4
 10
-2.91307388E+01
 20
1.36648948E+02
  0
VERTEX
  8
0
 62
4
 10
-2.88739619E+01
 20
1.36869879E+02
  0
VERTEX
  8
0
 62
4
 10
-2.86383284E+01
 20
1.37112588E+02
  0
VERTEX
  8
0
 62
4
 10
-2.84257354E+01
 20
1.37375121E+02
  0
VERTEX
  8
0
 62
4
 10
-2.82378946E+01
 20
1.37655365E+02
  0
VERTEX
  8
0
 62
4
 10
-2.80763183E+01
 20
1.37951062E+02
  0
VERTEX
  8
0
 62
4
 10
-2.79423075E+01
 20
1.38259833E+02
  0
VERTEX
  8
0
 62
4
 10
-2.78369411E+01
 20
1.38579190E+02
  0
VERTEX
  8
0
 62
4
 10
-2.77610675E+01
 20
1.38906564E+02
  0
VERTEX
  8
0
 62
4
 10
-2.77152977E+01
 20
1.39239318E+02
  0
VERTEX
  8
0
 62
4
 10
-2.77000000E+01
 20
1.39574772E+02
  0
SEQEND
  8
0
  0
LINE
  8
0
 62
4
 10
-3.53000000E+01
 20
1.39574772E+02
 11
-3.53000000E+01
 21
1.39748421E+02
  0
ARC
  8
0
 62
4
 10
-1.71372535E+02
 20
2.20035237E+00
 40
1.88657692E+02
 50
4.46816411E+01
 51
4.61887918E+01
  0
ARC
  8
0
 62
4
 10
9.33728232E+01
 20
2.20005935E+00
 40
1.88658103E+02
 50
1.33811210E+02
 51
1.35318357E+02
  0
LINE
  8
0
 62
4
 10
-3.48500000E+01
 20
1.36193932E+02
 11
-3.48500000E+01
 21
1.36499552E+02
  0
LINE
  8
0
 62
4
 10
-4.31500000E+01
 20
1.36193932E+02
 11
-4.31500000E+01
 21
1.36499552E+02
  0
POLYLINE
  8
0
 62
4
 66
1
  0
VERTEX
  8
0
 62
4
 10
-3.48500000E+01
 20
1.36499552E+02
  0
VERTEX
  8
0
 62
4
 10
-3.48657920E+01
 20
1.36855753E+02
  0
VERTEX
  8
0
 62
4
 10
-3.49130478E+01
 20
1.37209244E+02
  0
VERTEX
  8
0
 62
4
 10
-3.49914078E+01
 20
1.37557333E+02
  0
VERTEX
  8
0
 62
4
 10
-3.51002756E+01
 20
1.37897372E+02
  0
VERTEX
  8
0
 62
4
 10
-3.52388227E+01
 20
1.38226773E+02
  0
VERTEX
  8
0
 62
4
 10
-3.54059946E+01
 20
1.38543028E+02
  0
VERTEX
  8
0
 62
4
 10
-3.56005190E+01
 20
1.38843731E+02
  0
VERTEX
  8
0
 62
4
 10
-3.58209156E+01
 20
1.39126594E+02
  0
VERTEX
  8
0
 62
4
 10
-3.60655069E+01
 20
1.39389464E+02
  0
VERTEX
  8
0
 62
4
 10
-3.63324314E+01
 20
1.39630339E+02
  0
VERTEX
  8
0
 62
4
 10
-3.66196578E+01
 20
1.39847387E+02
  0
VERTEX
  8
0
 62
4
 10
-3.69250000E+01
 20
1.40038956E+02
  0
VERTEX
  8
0
 62
4
 10
-3.72461342E+01
 20
1.40203589E+02
  0
VERTEX
  8
0
 62
4
 10
-3.75806164E+01
 20
1.40340031E+02
  0
VERTEX
  8
0
 62
4
 10
-3.79259010E+01
 20
1.40447245E+02
  0
VERTEX
  8
0
 62
4
 10
-3.82793601E+01
 20
1.40524414E+02
  0
VERTEX
  8
0
 62
4
 10
-3.86383037E+01
 20
1.40570952E+02
  0
VERTEX
  8
0
 62
4
 10
-3.90000000E+01
 20
1.40586504E+02
  0
VERTEX
  8
0
 62
4
 10
-3.93616963E+01
 20
1.40570952E+02
  0
VERTEX
  8
0
 62
4
 10
-3.97206399E+01
 20
1.40524414E+02
  0
VERTEX
  8
0
 62
4
 10
-4.00740990E+01
 20
1.40447245E+02
  0
VERTEX
  8
0
 62
4
 10
-4.04193836E+01
 20
1.40340031E+02
  0
VERTEX
  8
0
 62
4
 10
-4.07538658E+01
 20
1.40203589E+02
  0
VERTEX
  8
0
 62
4
 10
-4.10750000E+01
 20
1.40038956E+02
  0
VERTEX
  8
0
 62
4
 10
-4.13803422E+01
 20
1.39847387E+02
  0
VERTEX
  8
0
 62
4
 10
-4.16675686E+01
 20
1.39630339E+02
  0
VERTEX
  8
0
 62
4
 10
-4.19344931E+01
 20
1.39389464E+02
  0
VERTEX
  8
0
 62
4
 10
-4.21790844E+01
 20
1.39126594E+02
  0
VERTEX
  8
0
 62
4
 10
-4.23994810E+01
 20
1.38843731E+02
  0
VERTEX
  8
0
 62
4
 10
-4.25940054E+01
 20
1.38543028E+02
  0
VERTEX
  8
0
 62
4
 10
-4.27611773E+01
 20
1.38226773E+02
  0
VERTEX
  8
0
 62
4
 10
-4.28997244E+01
 20
1.37897372E+02
  0
VERTEX
  8
0
 62
4
 10
-4.30085922E+01
 20
1.37557333E+02
  0
VERTEX
  8
0
 62
4
 10
-4.30869522E+01
 20
1.37209244E+02
  0
VERTEX
  8
0
 62
4
 10
-4.31342080E+01
 20
1.36855753E+02
  0
VERTEX
  8
0
 62
4
 10
-4.31500000E+01
 20
1.36499552E+02
  0
VERTEX
  8
0
 62
4
 10
-4.31342080E+01
 20
1.36143351E+02
  0
VERTEX
  8
0
 62
4
 10
-4.30869522E+01
 20
1.35789860E+02
  0
VERTEX
  8
0
 62
4
 10
-4.30085922E+01
 20
1.35441771E+02
  0
VERTEX
  8
0
 62
4
 10
-4.28997244E+01
 20
1.35101732E+02
  0
VERTEX
  8
0
 62
4
 10
-4.27611773E+01
 20
1.34772331E+02
  0
VERTEX
  8
0
 62
4
 10
-4.25940054E+01
 20
1.34456076E+02
  0
VERTEX
  8
0
 62
4
 10
-4.23994810E+01
 20
1.34155373E+02
  0
VERTEX
  8
0
 62
4
 10
-4.21790844E+01
 20
1.33872510E+02
  0
VERTEX
  8
0
 62
4
 10
-4.19344931E+01
 20
1.33609640E+02
  0
VERTEX
  8
0
 62
4
 10
-4.16675686E+01
 20
1.33368765E+02
  0
VERTEX
  8
0
 62
4
 10
-4.13803422E+01
 20
1.33151717E+02
  0
VERTEX
  8
0
 62
4
 10
-4.10750000E+01
 20
1.32960148E+02
  0
VERTEX
  8
0
 62
4
 10
-4.07538658E+01
 20
1.32795515E+02
  0
VERTEX
  8
0
 62
4
 10
-4.04193836E+01
 20
1.32659073E+02
  0
VERTEX
  8
0
 62
4
 10
-4.00740990E+01
 20
1.32551859E+02
  0
VERTEX
  8
0
 62
4
 10
-3.97206399E+01
 20
1.32474690E+02
  0
VERTEX
  8
0
 62
4
 10
-3.93616963E+01
 20
1.32428152E+02
  0
VERTEX
  8
0
 62
4
 10
-3.90000000E+01
 20
1.32412600E+02
  0
VERTEX
  8
0
 62
4
 10
-3.86383037E+01
 20
1.32428152E+02
  0
VERTEX
  8
0
 62
4
 10
-3.82793601E+01
 20
1.32474690E+02
  0
VERTEX
  8
0
 62
4
 10
-3.79259010E+01
 20
1.32551859E+02
  0
VERTEX
  8
0
 62
4
 10
-3.75806164E+01
 20
1.32659073E+02
  0
VERTEX
  8
0
 62
4
 10
-3.72461342E+01
 20
1.32795515E+02
  0
VERTEX
  8
0
 62
4
 10
-3.69250000E+01
 20
1.32960148E+02
  0
VERTEX
  8
0
 62
4
 10
-3.66196578E+01
 20
1.33151717E+02
  0
VERTEX
  8
0
 62
4
 10
-3.63324314E+01
 20
1.33368765E+02
  0
VERTEX
  8
0
 62
4
 10
-3.60655069E+01
 20
1.33609640E+02
  0
VERTEX
  8
0
 62
4
 10
-3.58209156E+01
 20
1.33872510E+02
  0
VERTEX
  8
0
 62
4
 10
-3.56005190E+01
 20
1.34155373E+02
  0
VERTEX
  8
0
 62
4
 10
-3.54059946E+01
 20
1.34456076E+02
  0
VERTEX
  8
0
 62
4
 10
-3.52388227E+01
 20
1.34772331E+02
  0
VERTEX
  8
0
 62
4
 10
-3.51002756E+01
 20
1.35101732E+02
  0
VERTEX
  8
0
 62
4
 10
-3.49914078E+01
 20
1.35441771E+02
  0
VERTEX
  8
0
 62
4
 10
-3.49130478E+01
 20
1.35789860E+02
  0
VERTEX
  8
0
 62
4
 10
-3.48657920E+01
 20
1.36143351E+02
  0
VERTEX
  8
0
 62
4
 10
-3.48500000E+01
 20
1.36499552E+02
  0
SEQEND
  8
0
  0
POLYLINE
  8
0
 62
4
 66
1
  0
VERTEX
  8
0
 62
4
 10
-4.31500000E+01
 20
1.36193932E+02
  0
VERTEX
  8
0
 62
4
 10
-4.31332933E+01
 20
1.35827580E+02
  0
VERTEX
  8
0
 62
4
 10
-4.30833078E+01
 20
1.35464179E+02
  0
VERTEX
  8
0
 62
4
 10
-4.30004459E+01
 20
1.35106652E+02
  0
VERTEX
  8
0
 62
4
 10
-4.28853747E+01
 20
1.34757880E+02
  0
VERTEX
  8
0
 62
4
 10
-4.27390208E+01
 20
1.34420670E+02
  0
VERTEX
  8
0
 62
4
 10
-4.25625625E+01
 20
1.34097737E+02
  0
VERTEX
  8
0
 62
4
 10
-4.23574205E+01
 20
1.33791682E+02
  0
VERTEX
  8
0
 62
4
 10
-4.21252466E+01
 20
1.33504968E+02
  0
VERTEX
  8
0
 62
4
 10
-4.18679100E+01
 20
1.33239904E+02
  0
VERTEX
  8
0
 62
4
 10
-4.15874827E+01
 20
1.32998624E+02
  0
VERTEX
  8
0
 62
4
 10
-4.12862225E+01
 20
1.32783071E+02
  0
VERTEX
  8
0
 62
4
 10
-4.09665550E+01
 20
1.32594980E+02
  0
VERTEX
  8
0
 62
4
 10
-4.06310539E+01
 20
1.32435866E+02
  0
VERTEX
  8
0
 62
4
 10
-4.02824205E+01
 20
1.32307010E+02
  0
VERTEX
  8
0
 62
4
 10
-3.99234619E+01
 20
1.32209448E+02
  0
VERTEX
  8
0
 62
4
 10
-3.95570681E+01
 20
1.32143968E+02
  0
VERTEX
  8
0
 62
4
 10
-3.91861891E+01
 20
1.32111095E+02
  0
VERTEX
  8
0
 62
4
 10
-3.88138110E+01
 20
1.32111095E+02
  0
VERTEX
  8
0
 62
4
 10
-3.84429320E+01
 20
1.32143968E+02
  0
VERTEX
  8
0
 62
4
 10
-3.80765381E+01
 20
1.32209448E+02
  0
VERTEX
  8
0
 62
4
 10
-3.77175795E+01
 20
1.32307009E+02
  0
VERTEX
  8
0
 62
4
 10
-3.73689461E+01
 20
1.32435866E+02
  0
VERTEX
  8
0
 62
4
 10
-3.70334451E+01
 20
1.32594980E+02
  0
VERTEX
  8
0
 62
4
 10
-3.67137775E+01
 20
1.32783071E+02
  0
VERTEX
  8
0
 62
4
 10
-3.64125173E+01
 20
1.32998624E+02
  0
VERTEX
  8
0
 62
4
 10
-3.61320900E+01
 20
1.33239904E+02
  0
VERTEX
  8
0
 62
4
 10
-3.58747534E+01
 20
1.33504968E+02
  0
VERTEX
  8
0
 62
4
 10
-3.56425795E+01
 20
1.33791682E+02
  0
VERTEX
  8
0
 62
4
 10
-3.54374375E+01
 20
1.34097737E+02
  0
VERTEX
  8
0
 62
4
 10
-3.52609792E+01
 20
1.34420670E+02
  0
VERTEX
  8
0
 62
4
 10
-3.51146253E+01
 20
1.34757880E+02
  0
VERTEX
  8
0
 62
4
 10
-3.49995541E+01
 20
1.35106652E+02
  0
VERTEX
  8
0
 62
4
 10
-3.49166922E+01
 20
1.35464178E+02
  0
VERTEX
  8
0
 62
4
 10
-3.48667067E+01
 20
1.35827580E+02
  0
VERTEX
  8
0
 62
4
 10
-3.48500000E+01
 20
1.36193932E+02
  0
SEQEND
  8
0
  0
LINE
  8
0
  6
CENTER
 62
6
 10
-4.65000000E+01
 20
1.42074772E+02
 11
-4.65000000E+01
 21
1.37074772E+02
  0
LINE
  8
0
  6
CENTER
 62
6
 10
-4.40000000E+01
 20
1.39574772E+02
 11
-4.90000000E+01
 21
1.39574772E+02
  0
LINE
  8
0
  6
CENTER
 62
6
 10
-3.90000000E+01
 20
1.38627945E+02
 11
-3.90000000E+01
 21
1.33627945E+02
  0
LINE
  8
0
  6
CENTER
 62
6
 10
-3.65000000E+01
 20
1.36127945E+02
 11
-4.15000000E+01
 21
1.36127945E+02
  0
LINE
  8
0
  6
CENTER
 62
6
 10
-3.15000000E+01
 20
1.42074772E+02
 11
-3.15000000E+01
 21
1.37074772E+02
  0
LINE
  8
0
  6
CENTER
 62
6
 10
-2.90000000E+01
 20
1.39574772E+02
 11
-3.40000000E+01
 21
1.39574772E+02
  0
LINE
  8
0
 62
4
 10
-3.56628770E+01
 20
1.33764407E+02
 11
-2.40000000E+01
 21
1.33764407E+02
  0
LINE
  8
0
 62
4
 10
-3.60627552E+01
 20
1.33306732E+02
 11
-3.05000000E+01
 21
1.33306732E+02
  0
LINE
  8
0
 62
4
 10
3.50000000E+01
 20
1.33306732E+02
 11
3.65000000E+01
 21
1.32298876E+02
  0
LINE
  8
0
 62
4
 10
3.65000000E+01
 20
1.30068286E+02
 11
3.50000000E+01
 21
1.29367501E+02
  0
LINE
  8
0
 62
4
 10
3.65000000E+01
 20
1.29674973E+02
 11
3.50000000E+01
 21
1.28672909E+02
  0
LINE
  8
0
 62
4
 10
3.65000000E+01
 20
1.32298876E+02
 11
3.65000000E+01
 21
1.29674973E+02
  0
LINE
  8
0
 62
7
 10
5.00000000E+00
 20
1.27499969E+02
 11
-6.45000000E+01
 21
1.27499969E+02
  0
LINE
  8
0
 62
7
 10
5.00000000E+00
 20
1.26649963E+02
 11
-6.45000000E+01
 21
1.26649963E+02
  0
LINE
  8
0
 62
7
 10
5.00000000E+00
 20
1.21349976E+02
 11
-6.45000000E+01
 21
1.21349976E+02
  0
LINE
  8
0
  6
CENTER
 62
2
 10
-4.04999962E+02
 20
6.74090271E+01
 11
-4.04999962E+02
 21
8.62955627E+01
  0
LINE
  8
0
  6
CENTER
 62
2
 10
-4.14037315E+02
 20
7.69999390E+01
 11
-3.95267433E+02
 21
7.69999390E+01
  0
LINE
  8
0
  6
CENTER
 62
2
 10
-4.51999962E+02
 20
6.73389282E+01
 11
-4.51999962E+02
 21
8.61959839E+01
  0
LINE
  8
0
  6
CENTER
 62
2
 10
-4.62186363E+02
 20
7.69999390E+01
 11
-4.42483727E+02
 21
7.69999390E+01
  0
LINE
  8
0
  6
CENTER
 62
2
 10
-4.52000023E+02
 20
1.33978241E+02
 11
-4.52000023E+02
 21
1.14275604E+02
  0
LINE
  8
0
  6
CENTER
 62
2
 10
-4.61953148E+02
 20
1.23999969E+02
 11
-4.42250572E+02
 21
1.23999969E+02
  0
LINE
  8
0
  6
CENTER
 62
2
 10
-4.05000023E+02
 20
1.33553680E+02
 11
-4.05000023E+02
 21
1.16115631E+02
  0
LINE
  8
0
  6
CENTER
 62
2
 10
-4.14387108E+02
 20
1.23999969E+02
 11
-3.95267433E+02
 21
1.23999969E+02
  0
LINE
  8
0
  6
CENTER
 62
2
 10
-4.28500023E+02
 20
1.40567673E+02
 11
-4.28500023E+02
 21
5.90114326E+01
  0
LINE
  8
0
 62
7
 10
-3.89499962E+02
 20
1.06499985E+02
 11
-3.82999901E+02
 21
1.06499985E+02
  0
LINE
  8
0
 62
7
 10
-4.67500023E+02
 20
1.00499985E+02
 11
-4.73307213E+02
 21
1.00499985E+02
  0
LINE
  8
0
 62
7
 10
-4.66000023E+02
 20
1.08499985E+02
 11
-4.67500023E+02
 21
1.08499985E+02
  0
LINE
  8
0
  6
CENTER
 62
2
 10
-4.79369530E+02
 20
1.00500000E+02
 11
-3.77100548E+02
 21
1.00500000E+02
  0
LINE
  8
0
 62
7
 10
-4.66000023E+02
 20
9.25000000E+01
 11
-4.67500023E+02
 21
9.25000000E+01
  0
LINE
  8
0
 62
7
 10
-4.67500023E+02
 20
1.06499985E+02
 11
-4.73999962E+02
 21
1.06499985E+02
  0
LINE
  8
0
 62
7
 10
-3.89499962E+02
 20
1.00499985E+02
 11
-3.83692772E+02
 21
1.00499985E+02
  0
LINE
  8
0
 62
7
 10
-3.91000023E+02
 20
9.25000000E+01
 11
-3.89499962E+02
 21
9.25000000E+01
  0
LINE
  8
0
 62
7
 10
-3.89499901E+02
 20
9.25000000E+01
 11
-3.89499901E+02
 21
1.08499985E+02
  0
LINE
  8
0
 62
7
 10
-3.82999901E+02
 20
9.45000000E+01
 11
-3.82999901E+02
 21
1.06499985E+02
  0
LINE
  8
0
 62
7
 10
-3.91000023E+02
 20
1.08499985E+02
 11
-3.89499962E+02
 21
1.08499985E+02
  0
LINE
  8
0
 62
7
 10
-4.73999962E+02
 20
9.45000000E+01
 11
-4.73999962E+02
 21
1.06499985E+02
  0
LINE
  8
0
 62
7
 10
-4.77000023E+02
 20
9.72000122E+01
 11
-4.77000023E+02
 21
1.03799973E+02
  0
LINE
  8
0
 62
7
 10
-3.79999901E+02
 20
9.72000122E+01
 11
-3.79999901E+02
 21
1.03799973E+02
  0
LINE
  8
0
 62
7
 10
-4.67500023E+02
 20
9.44999847E+01
 11
-4.73999962E+02
 21
9.44999847E+01
  0
LINE
  8
0
 62
2
 10
-4.73999962E+02
 20
9.71999664E+01
 11
-4.76999962E+02
 21
9.71999664E+01
  0
LINE
  8
0
 62
7
 10
-4.73999962E+02
 20
1.04499969E+02
 11
-4.76300011E+02
 21
1.04499969E+02
  0
LINE
  8
0
 62
7
 10
-4.73999962E+02
 20
9.64999695E+01
 11
-4.76300011E+02
 21
9.64999695E+01
  0
LINE
  8
0
 62
7
 10
-3.82999901E+02
 20
9.64999695E+01
 11
-3.80700035E+02
 21
9.64999695E+01
  0
LINE
  8
0
 62
7
 10
-3.82999901E+02
 20
1.04499969E+02
 11
-3.80700035E+02
 21
1.04499969E+02
  0
LINE
  8
0
 62
2
 10
-3.82999901E+02
 20
9.71999664E+01
 11
-3.80000023E+02
 21
9.71999664E+01
  0
LINE
  8
0
 62
2
 10
-3.82999901E+02
 20
1.03799973E+02
 11
-3.80000023E+02
 21
1.03799973E+02
  0
LINE
  8
0
 62
7
 10
-3.80699974E+02
 20
9.65000153E+01
 11
-3.80699974E+02
 21
1.04499969E+02
  0
LINE
  8
0
 62
7
 10
-4.67499901E+02
 20
9.25000000E+01
 11
-4.67499901E+02
 21
1.08499985E+02
  0
LINE
  8
0
 62
7
 10
-3.80699705E+02
 20
9.64998497E+01
 11
-3.79999676E+02
 21
9.71998784E+01
  0
LINE
  8
0
 62
7
 10
-3.79999783E+02
 20
1.03799980E+02
 11
-3.80699812E+02
 21
1.04500009E+02
  0
LINE
  8
0
 62
7
 10
-4.76299950E+02
 20
9.65000153E+01
 11
-4.76299950E+02
 21
1.04499969E+02
  0
LINE
  8
0
 62
2
 10
-4.73999962E+02
 20
1.03799973E+02
 11
-4.76999962E+02
 21
1.03799973E+02
  0
LINE
  8
0
 62
7
 10
-4.76299918E+02
 20
9.64999610E+01
 11
-4.76999947E+02
 21
9.71999897E+01
  0
LINE
  8
0
 62
7
 10
-4.76999818E+02
 20
1.03799897E+02
 11
-4.76299832E+02
 21
1.04499883E+02
  0
LINE
  8
0
 62
7
 10
-3.89499962E+02
 20
9.44999847E+01
 11
-3.82999901E+02
 21
9.44999847E+01
  0
LINE
  8
0
  6
CENTER
 62
2
 10
-3.87177757E+02
 20
7.25000000E+01
 11
-4.13652428E+02
 21
7.25000000E+01
  0
LINE
  8
0
  6
CENTER
 62
2
 10
-4.00499962E+02
 20
8.54860992E+01
 11
-4.00499962E+02
 21
5.95444832E+01
  0
LINE
  8
0
 62
7
 10
-3.96499884E+02
 20
7.48093638E+01
 11
-4.00499917E+02
 21
7.71187730E+01
  0
LINE
  8
0
 62
7
 10
-4.00499972E+02
 20
7.71186865E+01
 11
-4.04499966E+02
 21
7.48093002E+01
  0
LINE
  8
0
 62
7
 10
-4.04500023E+02
 20
7.01905823E+01
 11
-4.04500023E+02
 21
7.48093872E+01
  0
LINE
  8
0
 62
7
 10
-4.00500058E+02
 20
6.78811908E+01
 11
-4.04500092E+02
 21
7.01906000E+01
  0
LINE
  8
0
 62
7
 10
-3.96499907E+02
 20
7.01905205E+01
 11
-4.00499928E+02
 21
6.78811190E+01
  0
LINE
  8
0
 62
7
 10
-3.96499962E+02
 20
7.48093872E+01
 11
-3.96499962E+02
 21
7.01905823E+01
  0
LINE
  8
0
  6
CENTER
 62
2
 10
-4.69822166E+02
 20
7.25000000E+01
 11
-4.43347496E+02
 21
7.25000000E+01
  0
LINE
  8
0
  6
CENTER
 62
2
 10
-4.56499962E+02
 20
8.54860992E+01
 11
-4.56499962E+02
 21
5.95444832E+01
  0
LINE
  8
0
 62
7
 10
-4.60500053E+02
 20
7.48092985E+01
 11
-4.56499966E+02
 21
7.71187382E+01
  0
LINE
  8
0
 62
7
 10
-4.56500026E+02
 20
7.71188580E+01
 11
-4.52499993E+02
 21
7.48094488E+01
  0
LINE
  8
0
 62
7
 10
-4.52499901E+02
 20
7.01905823E+01
 11
-4.52499901E+02
 21
7.48093872E+01
  0
LINE
  8
0
 62
7
 10
-4.56499962E+02
 20
6.78811479E+01
 11
-4.52499981E+02
 21
7.01905265E+01
  0
LINE
  8
0
 62
7
 10
-4.60499974E+02
 20
7.01905893E+01
 11
-4.56499940E+02
 21
6.78811802E+01
  0
LINE
  8
0
 62
7
 10
-4.60499962E+02
 20
7.48093872E+01
 11
-4.60499962E+02
 21
7.01905823E+01
  0
LINE
  8
0
  6
CENTER
 62
2
 10
-3.87177757E+02
 20
1.28500015E+02
 11
-4.13652428E+02
 21
1.28500015E+02
  0
LINE
  8
0
  6
CENTER
 62
2
 10
-4.00499962E+02
 20
1.15513901E+02
 11
-4.00499962E+02
 21
1.41455521E+02
  0
LINE
  8
0
 62
7
 10
-3.96499874E+02
 20
1.26190486E+02
 11
-4.00499934E+02
 21
1.23881062E+02
  0
LINE
  8
0
 62
7
 10
-4.00500002E+02
 20
1.23881250E+02
 11
-4.04500035E+02
 21
1.26190660E+02
  0
LINE
  8
0
 62
7
 10
-4.04500023E+02
 20
1.30809402E+02
 11
-4.04500023E+02
 21
1.26190598E+02
  0
LINE
  8
0
 62
7
 10
-4.00499912E+02
 20
1.33118668E+02
 11
-4.04499893E+02
 21
1.30809289E+02
  0
LINE
  8
0
 62
7
 10
-3.96499903E+02
 20
1.30809414E+02
 11
-4.00499884E+02
 21
1.33118793E+02
  0
LINE
  8
0
 62
7
 10
-3.96499962E+02
 20
1.26190598E+02
 11
-3.96499962E+02
 21
1.30809402E+02
  0
LINE
  8
0
  6
CENTER
 62
2
 10
-4.69822166E+02
 20
1.28500015E+02
 11
-4.43347496E+02
 21
1.28500015E+02
  0
LINE
  8
0
  6
CENTER
 62
2
 10
-4.56499962E+02
 20
1.15513901E+02
 11
-4.56499962E+02
 21
1.41455521E+02
  0
LINE
  8
0
 62
7
 10
-4.60499981E+02
 20
1.26190540E+02
 11
-4.56499947E+02
 21
1.23881131E+02
  0
LINE
  8
0
 62
7
 10
-4.56499937E+02
 20
1.23881250E+02
 11
-4.52499956E+02
 21
1.26190629E+02
  0
LINE
  8
0
 62
7
 10
-4.52499901E+02
 20
1.30809402E+02
 11
-4.52499901E+02
 21
1.26190598E+02
  0
LINE
  8
0
 62
7
 10
-4.56499984E+02
 20
1.33118771E+02
 11
-4.52500003E+02
 21
1.30809393E+02
  0
LINE
  8
0
 62
7
 10
-4.60499944E+02
 20
1.30809378E+02
 11
-4.56499911E+02
 21
1.33118787E+02
  0
LINE
  8
0
 62
7
 10
-4.60499962E+02
 20
1.26190598E+02
 11
-4.60499962E+02
 21
1.30809402E+02
  0
LINE
  8
0
 62
7
 10
-4.66000023E+02
 20
1.33999985E+02
 11
-4.66000023E+02
 21
6.70000000E+01
  0
LINE
  8
0
 62
7
 10
-3.91000023E+02
 20
1.33999985E+02
 11
-3.91000023E+02
 21
6.70000000E+01
  0
LINE
  8
0
 62
7
 10
-4.61999962E+02
 20
1.37999985E+02
 11
-3.95000023E+02
 21
1.37999985E+02
  0
LINE
  8
0
 62
7
 10
-4.61999962E+02
 20
6.30000000E+01
 11
-3.95000023E+02
 21
6.30000000E+01
  0
ARC
  8
0
 62
7
 10
-3.89840782E+02
 20
1.03499985E+02
 40
6.84084654E+00
 50
3.33989137E+02
 51
2.60107913E+01
  0
ARC
  8
0
 62
7
 10
-3.89840843E+02
 20
9.75000000E+01
 40
6.84088755E+00
 50
3.33989277E+02
 51
2.60106513E+01
  0
ARC
  8
0
 62
7
 10
-4.67159081E+02
 20
1.03499985E+02
 40
6.84084654E+00
 50
1.53989169E+02
 51
2.06010827E+02
  0
ARC
  8
0
 62
7
 10
-4.67159081E+02
 20
9.75000000E+01
 40
6.84088755E+00
 50
1.53989320E+02
 51
2.06010690E+02
  0
CIRCLE
  8
0
 62
7
 10
-4.00499962E+02
 20
7.25000000E+01
 40
6.00000000E+00
  0
CIRCLE
  8
0
 62
7
 10
-4.00499962E+02
 20
7.25000000E+01
 40
6.25000000E+00
  0
CIRCLE
  8
0
 62
2
 10
-4.00499962E+02
 20
7.25000000E+01
 40
4.00000000E+00
  0
CIRCLE
  8
0
 62
7
 10
-4.00499962E+02
 20
7.25000000E+01
 40
3.29999995E+00
  0
CIRCLE
  8
0
 62
7
 10
-4.56499962E+02
 20
7.25000000E+01
 40
6.00000000E+00
  0
CIRCLE
  8
0
 62
7
 10
-4.56499962E+02
 20
7.25000000E+01
 40
6.25000000E+00
  0
CIRCLE
  8
0
 62
2
 10
-4.56499962E+02
 20
7.25000000E+01
 40
4.00000000E+00
  0
CIRCLE
  8
0
 62
7
 10
-4.56499962E+02
 20
7.25000000E+01
 40
3.29999995E+00
  0
CIRCLE
  8
0
 62
7
 10
-4.56499962E+02
 20
1.28500015E+02
 40
3.29999995E+00
  0
CIRCLE
  8
0
 62
7
 10
-4.00499962E+02
 20
1.28500015E+02
 40
6.00000000E+00
  0
CIRCLE
  8
0
 62
7
 10
-4.00499962E+02
 20
1.28500015E+02
 40
6.25000000E+00
  0
CIRCLE
  8
0
 62
2
 10
-4.00499962E+02
 20
1.28500015E+02
 40
4.00000000E+00
  0
CIRCLE
  8
0
 62
7
 10
-4.00499962E+02
 20
1.28500015E+02
 40
3.29999995E+00
  0
CIRCLE
  8
0
 62
7
 10
-4.56499962E+02
 20
1.28500015E+02
 40
6.00000000E+00
  0
CIRCLE
  8
0
 62
7
 10
-4.56499962E+02
 20
1.28500015E+02
 40
6.25000000E+00
  0
CIRCLE
  8
0
 62
2
 10
-4.56499962E+02
 20
1.28500015E+02
 40
4.00000000E+00
  0
ARC
  8
0
 62
7
 10
-4.61999962E+02
 20
6.69999847E+01
 40
4.00000000E+00
 50
1.79999977E+02
 51
2.70000028E+02
  0
ARC
  8
0
 62
7
 10
-3.95000023E+02
 20
1.34000015E+02
 40
4.00000000E+00
 50
0.00000000E+00
 51
8.99999818E+01
  0
ARC
  8
0
 62
7
 10
-4.61999962E+02
 20
1.34000015E+02
 40
4.00000000E+00
 50
8.99999818E+01
 51
1.79999964E+02
  0
ARC
  8
0
 62
7
 10
-3.95000023E+02
 20
6.69999847E+01
 40
4.00000000E+00
 50
2.70000018E+02
 51
0.00000000E+00
  0
CIRCLE
  8
0
 62
7
 10
-4.28500023E+02
 20
1.00500000E+02
 40
1.75294495E+01
  0
CIRCLE
  8
0
 62
7
 10
-4.28500023E+02
 20
1.00500000E+02
 40
1.90000000E+01
  0
CIRCLE
  8
0
 62
7
 10
-4.28500023E+02
 20
1.00500000E+02
 40
1.70000000E+01
  0
CIRCLE
  8
0
 62
7
 10
-4.28500023E+02
 20
1.00500000E+02
 40
8.99999237E+00
  0
CIRCLE
  8
0
 62
2
 10
-4.28500023E+02
 20
1.00500000E+02
 40
8.18000031E+00
  0
CIRCLE
  8
0
 62
6
 10
-4.28500023E+02
 20
1.00500000E+02
 40
9.00000000E+00
  0
CIRCLE
  8
0
 62
4
 10
-4.28500023E+02
 20
1.00500000E+02
 40
1.35000000E+01
  0
LINE
  8
0
 62
4
 10
-4.28500023E+02
 20
1.16088457E+02
 11
-4.42000023E+02
 21
1.08294229E+02
  0
LINE
  8
0
 62
4
 10
-4.42000023E+02
 20
1.08294229E+02
 11
-4.42000023E+02
 21
9.27057714E+01
  0
LINE
  8
0
 62
4
 10
-4.42000023E+02
 20
9.27057714E+01
 11
-4.28500023E+02
 21
8.49115427E+01
  0
LINE
  8
0
 62
4
 10
-4.28500023E+02
 20
8.49115427E+01
 11
-4.15000023E+02
 21
9.27057714E+01
  0
LINE
  8
0
 62
4
 10
-4.15000023E+02
 20
9.27057714E+01
 11
-4.15000023E+02
 21
1.08294229E+02
  0
LINE
  8
0
 62
4
 10
-4.15000023E+02
 20
1.08294229E+02
 11
-4.28500023E+02
 21
1.16088457E+02
  0
LINE
  8
0
 62
4
 10
-4.47444310E+02
 20
1.42217831E+02
 11
-4.54337964E+02
 21
1.41002294E+02
  0
LINE
  8
0
 62
4
 10
-4.54337964E+02
 20
1.41002294E+02
 11
-4.55430715E+02
 21
1.37999985E+02
  0
LINE
  8
0
 62
4
 10
-4.47444310E+02
 20
1.42217831E+02
 11
-4.46700590E+02
 21
1.37999985E+02
  0
LINE
  8
0
 62
4
 10
-4.37300790E+02
 20
1.44006407E+02
 11
-4.47444310E+02
 21
1.42217831E+02
  0
LINE
  8
0
 62
4
 10
-4.37179236E+02
 20
1.43317042E+02
 11
-4.36194428E+02
 21
1.43490690E+02
  0
ARC
  8
0
 62
4
 10
-4.34837698E+02
 20
1.42308321E+02
 40
1.00000000E+00
 50
2.28275100E+01
 51
9.99999999E+01
  0
LINE
  8
0
 62
4
 10
-4.36124969E+02
 20
1.43096767E+02
 11
-4.35012136E+02
 21
1.43292989E+02
  0
LINE
  8
0
 62
4
 10
-4.35647437E+02
 20
1.40388546E+02
 11
-4.36194428E+02
 21
1.43490690E+02
  0
LINE
  8
0
 62
4
 10
-4.36606197E+02
 20
1.40067176E+02
 11
-4.36231970E+02
 21
1.40133163E+02
  0
LINE
  8
0
 62
4
 10
-4.36258018E+02
 20
1.40280884E+02
 11
-4.34524756E+02
 21
1.40586504E+02
  0
LINE
  8
0
 62
4
 10
-4.19699256E+02
 20
1.44006407E+02
 11
-4.09555736E+02
 21
1.42217831E+02
  0
LINE
  8
0
 62
4
 10
-4.09555736E+02
 20
1.42217831E+02
 11
-4.10299456E+02
 21
1.37999985E+02
  0
LINE
  8
0
 62
4
 10
-4.02662082E+02
 20
1.41002294E+02
 11
-4.01569331E+02
 21
1.37999985E+02
  0
LINE
  8
0
 62
4
 10
-4.09555736E+02
 20
1.42217831E+02
 11
-4.02662082E+02
 21
1.41002294E+02
  0
LINE
  8
0
 62
4
 10
-4.19820810E+02
 20
1.43317042E+02
 11
-4.20805617E+02
 21
1.43490690E+02
  0
ARC
  8
0
 62
4
 10
-4.22162348E+02
 20
1.42308321E+02
 40
1.00000000E+00
 50
7.99999999E+01
 51
1.57172490E+02
  0
LINE
  8
0
 62
4
 10
-4.20875077E+02
 20
1.43096767E+02
 11
-4.21987909E+02
 21
1.43292989E+02
  0
LINE
  8
0
  6
CENTER
 62
6
 10
-4.45450437E+02
 20
1.37999985E+02
 11
-4.35350827E+02
 21
1.39780819E+02
  0
ARC
  8
0
 62
4
 10
-4.44801026E+02
 20
1.38114493E+02
 40
1.18100000E+01
 50
3.59444456E+02
 51
2.28275100E+01
  0
LINE
  8
0
 62
4
 10
-4.35855834E+02
 20
1.37999985E+02
 11
-4.36258018E+02
 21
1.40280884E+02
  0
ARC
  8
0
 62
4
 10
-4.44697174E+02
 20
1.34586670E+02
 40
1.18100000E+01
 50
1.67992360E+01
 51
3.05326991E+01
  0
LINE
  8
0
 62
4
 10
-4.36241696E+02
 20
1.37999985E+02
 11
-4.37300790E+02
 21
1.44006407E+02
  0
LINE
  8
0
  6
CENTER
 62
6
 10
-4.11549608E+02
 20
1.37999985E+02
 11
-4.21649219E+02
 21
1.39780819E+02
  0
ARC
  8
0
 62
4
 10
-4.12199019E+02
 20
1.38114493E+02
 40
1.18100000E+01
 50
1.57172490E+02
 51
1.80555544E+02
  0
LINE
  8
0
 62
4
 10
-4.21773777E+02
 20
1.37999985E+02
 11
-4.20805617E+02
 21
1.43490690E+02
  0
LINE
  8
0
 62
4
 10
-4.20758350E+02
 20
1.37999985E+02
 11
-4.19699256E+02
 21
1.44006407E+02
  0
LINE
  8
0
 62
7
 10
3.30433464E+02
 20
9.25000000E+01
 11
3.30433464E+02
 21
1.08499985E+02
  0
LINE
  8
0
 62
7
 10
3.28933556E+02
 20
1.08499985E+02
 11
3.30433525E+02
 21
1.08499985E+02
  0
LINE
  8
0
 62
7
 10
3.28933556E+02
 20
9.25000000E+01
 11
3.30433525E+02
 21
9.25000000E+01
  0
LINE
  8
0
 62
7
 10
3.30433525E+02
 20
1.06499985E+02
 11
3.36933525E+02
 21
1.06499985E+02
  0
LINE
  8
0
 62
7
 10
3.30433525E+02
 20
1.00499985E+02
 11
3.36240715E+02
 21
1.00499985E+02
  0
LINE
  8
0
 62
7
 10
3.30433525E+02
 20
9.44999847E+01
 11
3.36933525E+02
 21
9.44999847E+01
  0
LINE
  8
0
 62
7
 10
3.36933525E+02
 20
9.45000000E+01
 11
3.36933525E+02
 21
1.06499985E+02
  0
LINE
  8
0
 62
7
 10
3.39933556E+02
 20
9.72000122E+01
 11
3.39933556E+02
 21
1.03799973E+02
  0
LINE
  8
0
 62
7
 10
3.36933525E+02
 20
9.64999695E+01
 11
3.39233543E+02
 21
9.64999695E+01
  0
LINE
  8
0
 62
7
 10
3.36933525E+02
 20
1.04499969E+02
 11
3.39233543E+02
 21
1.04499969E+02
  0
LINE
  8
0
 62
2
 10
3.36933525E+02
 20
9.71999664E+01
 11
3.39933495E+02
 21
9.71999664E+01
  0
LINE
  8
0
 62
2
 10
3.36933525E+02
 20
1.03799973E+02
 11
3.39933495E+02
 21
1.03799973E+02
  0
LINE
  8
0
 62
7
 10
3.39233513E+02
 20
9.65000153E+01
 11
3.39233513E+02
 21
1.04499969E+02
  0
LINE
  8
0
 62
7
 10
3.39233472E+02
 20
9.64999025E+01
 11
3.39933523E+02
 21
9.71999528E+01
  0
LINE
  8
0
 62
7
 10
3.39933448E+02
 20
1.03799936E+02
 11
3.39233462E+02
 21
1.04499922E+02
  0
LINE
  8
0
  6
CENTER
 62
2
 10
3.42303032E+02
 20
1.00500000E+02
 11
2.40034126E+02
 21
1.00500000E+02
  0
LINE
  8
0
 62
7
 10
3.28933525E+02
 20
1.33999985E+02
 11
3.28933525E+02
 21
6.70000000E+01
  0
LINE
  8
0
 62
7
 10
2.52433479E+02
 20
9.25000000E+01
 11
2.52433479E+02
 21
1.08499985E+02
  0
LINE
  8
0
 62
7
 10
2.53933540E+02
 20
1.08499985E+02
 11
2.52433510E+02
 21
1.08499985E+02
  0
LINE
  8
0
 62
7
 10
2.53933540E+02
 20
9.25000000E+01
 11
2.52433510E+02
 21
9.25000000E+01
  0
LINE
  8
0
 62
7
 10
2.42933510E+02
 20
9.72000122E+01
 11
2.42933510E+02
 21
1.03799973E+02
  0
LINE
  8
0
 62
7
 10
2.45933479E+02
 20
9.45000000E+01
 11
2.45933479E+02
 21
1.06499985E+02
  0
LINE
  8
0
 62
7
 10
2.45933479E+02
 20
9.64999695E+01
 11
2.43633553E+02
 21
9.64999695E+01
  0
LINE
  8
0
 62
7
 10
2.45933479E+02
 20
1.04499969E+02
 11
2.43633553E+02
 21
1.04499969E+02
  0
LINE
  8
0
 62
2
 10
2.45933479E+02
 20
9.71999664E+01
 11
2.42933540E+02
 21
9.71999664E+01
  0
LINE
  8
0
 62
2
 10
2.45933479E+02
 20
1.03799973E+02
 11
2.42933540E+02
 21
1.03799973E+02
  0
LINE
  8
0
 62
7
 10
2.43633522E+02
 20
9.65000153E+01
 11
2.43633522E+02
 21
1.04499969E+02
  0
LINE
  8
0
 62
7
 10
2.43633359E+02
 20
9.64998838E+01
 11
2.42933352E+02
 21
9.71998910E+01
  0
LINE
  8
0
 62
7
 10
2.42933405E+02
 20
1.03799939E+02
 11
2.43633423E+02
 21
1.04499957E+02
  0
LINE
  8
0
 62
7
 10
2.52433510E+02
 20
9.44999847E+01
 11
2.45933479E+02
 21
9.44999847E+01
  0
LINE
  8
0
 62
7
 10
2.52433510E+02
 20
1.00499985E+02
 11
2.46626320E+02
 21
1.00499985E+02
  0
LINE
  8
0
 62
7
 10
2.52433510E+02
 20
1.06499985E+02
 11
2.45933479E+02
 21
1.06499985E+02
  0
LINE
  8
0
  6
CENTER
 62
2
 10
2.91499977E+02
 20
1.40567673E+02
 11
2.91499977E+02
 21
5.90114326E+01
  0
LINE
  8
0
 62
7
 10
2.53933571E+02
 20
1.33999985E+02
 11
2.53933571E+02
 21
6.70000000E+01
  0
LINE
  8
0
 62
7
 10
3.24933495E+02
 20
6.30000000E+01
 11
2.57933540E+02
 21
6.30000000E+01
  0
LINE
  8
0
 62
7
 10
3.24933495E+02
 20
1.37999985E+02
 11
3.18430669E+02
 21
1.37999985E+02
  0
LINE
  8
0
 62
7
 10
2.73991920E+02
 20
1.19500000E+02
 11
2.85999977E+02
 21
1.19500000E+02
  0
LINE
  8
0
 62
7
 10
2.92500038E+02
 20
7.35000305E+01
 11
2.92500038E+02
 21
8.06002502E+01
  0
LINE
  8
0
 62
7
 10
2.86499977E+02
 20
1.27499969E+02
 11
2.86499977E+02
 21
1.19578766E+02
  0
LINE
  8
0
  6
CENTER
 62
2
 10
2.57813637E+02
 20
7.69999390E+01
 11
2.77516273E+02
 21
7.69999390E+01
  0
LINE
  8
0
 62
7
 10
2.63999977E+02
 20
6.95000000E+01
 11
3.18999977E+02
 21
6.95000000E+01
  0
LINE
  8
0
 62
7
 10
2.60500038E+02
 20
7.30000305E+01
 11
2.60500038E+02
 21
1.28000000E+02
  0
LINE
  8
0
 62
7
 10
2.64000038E+02
 20
7.00000000E+01
 11
3.18999977E+02
 21
7.00000305E+01
  0
LINE
  8
0
 62
7
 10
2.61000038E+02
 20
7.30000305E+01
 11
2.61000038E+02
 21
1.27999969E+02
  0
LINE
  8
0
 62
7
 10
2.73893410E+02
 20
8.14999695E+01
 11
2.85999977E+02
 21
8.14999695E+01
  0
LINE
  8
0
 62
7
 10
2.64500038E+02
 20
9.95000000E+01
 11
2.71600258E+02
 21
9.95000000E+01
  0
LINE
  8
0
 62
7
 10
2.78135875E+02
 20
8.57216543E+01
 11
2.74184338E+02
 21
8.17701162E+01
  0
LINE
  8
0
 62
7
 10
2.76721662E+02
 20
8.71359109E+01
 11
2.72770146E+02
 21
8.31843944E+01
  0
LINE
  8
0
 62
7
 10
2.90500038E+02
 20
7.35000305E+01
 11
2.90500038E+02
 21
8.06002502E+01
  0
LINE
  8
0
 62
7
 10
3.09499977E+02
 20
1.14634033E+02
 11
3.09499977E+02
 21
1.06582764E+02
  0
LINE
  8
0
  6
CENTER
 62
2
 10
3.14999977E+02
 20
1.33553680E+02
 11
3.14999977E+02
 21
1.16115631E+02
  0
LINE
  8
0
 62
7
 10
3.22499962E+02
 20
7.30000000E+01
 11
3.22499962E+02
 21
1.27999969E+02
  0
LINE
  8
0
 62
7
 10
2.64000038E+02
 20
1.31500000E+02
 11
3.18999977E+02
 21
1.31500000E+02
  0
LINE
  8
0
 62
7
 10
3.19499977E+02
 20
8.99686279E+01
 11
3.19499977E+02
 21
1.11031342E+02
  0
LINE
  8
0
 62
7
 10
2.80968605E+02
 20
1.28499969E+02
 11
3.02031349E+02
 21
1.28499969E+02
  0
LINE
  8
0
 62
7
 10
3.21999977E+02
 20
7.30000305E+01
 11
3.21999977E+02
 21
1.27999969E+02
  0
LINE
  8
0
 62
7
 10
3.18499977E+02
 20
9.95000305E+01
 11
3.11399757E+02
 21
9.95000305E+01
  0
LINE
  8
0
 62
7
 10
3.18499977E+02
 20
1.01500031E+02
 11
3.11399757E+02
 21
1.01500031E+02
  0
LINE
  8
0
 62
7
 10
3.06278420E+02
 20
1.13864039E+02
 11
3.10229947E+02
 21
1.17815565E+02
  0
LINE
  8
0
 62
7
 10
3.04864207E+02
 20
1.15278252E+02
 11
3.08815777E+02
 21
1.19229822E+02
  0
LINE
  8
0
 62
7
 10
3.18499977E+02
 20
1.05000031E+02
 11
3.11500038E+02
 21
1.05000031E+02
  0
LINE
  8
0
 62
7
 10
2.78136002E+02
 20
1.15278523E+02
 11
2.74184485E+02
 21
1.19230038E+02
  0
LINE
  8
0
 62
7
 10
2.76721767E+02
 20
1.13864287E+02
 11
2.72770250E+02
 21
1.17815802E+02
  0
LINE
  8
0
 62
7
 10
2.64500038E+02
 20
1.01499969E+02
 11
2.71600258E+02
 21
1.01499969E+02
  0
LINE
  8
0
  6
CENTER
 62
2
 10
2.58046852E+02
 20
1.23999969E+02
 11
2.77749428E+02
 21
1.23999969E+02
  0
LINE
  8
0
 62
7
 10
3.00837379E+02
 20
8.15000000E+01
 11
2.93063515E+02
 21
8.15000000E+01
  0
LINE
  8
0
  6
CENTER
 62
2
 10
3.15000038E+02
 20
6.74090271E+01
 11
3.15000038E+02
 21
8.62955627E+01
  0
LINE
  8
0
  6
CENTER
 62
2
 10
2.67999977E+02
 20
1.33978241E+02
 11
2.67999977E+02
 21
1.14275604E+02
  0
LINE
  8
0
 62
7
 10
2.92499977E+02
 20
1.27499969E+02
 11
2.92499977E+02
 21
1.20399719E+02
  0
LINE
  8
0
 62
7
 10
3.09499977E+02
 20
8.63659668E+01
 11
3.09499977E+02
 21
9.44172363E+01
  0
LINE
  8
0
 62
7
 10
3.10500038E+02
 20
1.18008087E+02
 11
3.10500038E+02
 21
1.06000031E+02
  0
LINE
  8
0
 62
7
 10
3.04864209E+02
 20
8.57217670E+01
 11
3.08815768E+02
 21
8.17702080E+01
  0
LINE
  8
0
 62
7
 10
3.06278433E+02
 20
8.71359699E+01
 11
3.10229993E+02
 21
8.31844109E+01
  0
LINE
  8
0
 62
7
 10
2.90499977E+02
 20
1.27499969E+02
 11
2.90499977E+02
 21
1.20399719E+02
  0
LINE
  8
0
 62
7
 10
2.64000038E+02
 20
1.30999969E+02
 11
3.18999977E+02
 21
1.31000000E+02
  0
LINE
  8
0
 62
7
 10
3.14999982E+02
 20
1.27464068E+02
 11
3.17999977E+02
 21
1.25732020E+02
  0
LINE
  8
0
 62
7
 10
3.17999977E+02
 20
1.25732025E+02
 11
3.17999977E+02
 21
1.22267914E+02
  0
LINE
  8
0
 62
7
 10
2.86499916E+02
 20
7.35000000E+01
 11
2.86499916E+02
 21
8.13660278E+01
  0
LINE
  8
0
 62
7
 10
2.63500038E+02
 20
8.99686279E+01
 11
2.63500038E+02
 21
1.11031342E+02
  0
LINE
  8
0
 62
7
 10
2.80968605E+02
 20
7.25000000E+01
 11
3.02031349E+02
 21
7.25000000E+01
  0
LINE
  8
0
 62
7
 10
3.00837379E+02
 20
1.28499969E+02
 11
3.00837379E+02
 21
1.17047272E+02
  0
LINE
  8
0
 62
7
 10
3.08999916E+02
 20
1.14500000E+02
 11
3.06914284E+02
 21
1.14500000E+02
  0
LINE
  8
0
 62
7
 10
3.09999916E+02
 20
8.34143677E+01
 11
3.09999916E+02
 21
8.55000000E+01
  0
LINE
  8
0
 62
7
 10
3.08999916E+02
 20
8.65000000E+01
 11
3.06914284E+02
 21
8.65000000E+01
  0
LINE
  8
0
 62
7
 10
3.00837379E+02
 20
7.25000000E+01
 11
3.00837379E+02
 21
8.39526978E+01
  0
LINE
  8
0
 62
7
 10
3.09999916E+02
 20
1.17585632E+02
 11
3.09999916E+02
 21
1.15500000E+02
  0
LINE
  8
0
 62
7
 10
2.69499977E+02
 20
1.31500000E+02
 11
2.69499977E+02
 21
1.30999969E+02
  0
LINE
  8
0
 62
7
 10
3.13499977E+02
 20
1.31500000E+02
 11
3.13499977E+02
 21
1.31000000E+02
  0
LINE
  8
0
 62
7
 10
3.13499977E+02
 20
7.00000305E+01
 11
3.13499977E+02
 21
6.95000000E+01
  0
LINE
  8
0
 62
7
 10
2.69499977E+02
 20
7.00000000E+01
 11
2.69499977E+02
 21
6.95000000E+01
  0
LINE
  8
0
  6
CENTER
 62
2
 10
2.68000038E+02
 20
6.73389282E+01
 11
2.68000038E+02
 21
8.61959839E+01
  0
LINE
  8
0
 62
7
 10
2.72500038E+02
 20
8.28934021E+01
 11
2.72500038E+02
 21
9.49999695E+01
  0
LINE
  8
0
 62
7
 10
2.64500038E+02
 20
9.59999695E+01
 11
2.71499916E+02
 21
9.59999695E+01
  0
LINE
  8
0
 62
7
 10
2.73499977E+02
 20
1.17085693E+02
 11
2.73499977E+02
 21
1.11500000E+02
  0
LINE
  8
0
 62
7
 10
2.74499977E+02
 20
1.10500000E+02
 11
2.75344521E+02
 21
1.10500000E+02
  0
LINE
  8
0
 62
7
 10
3.15999977E+02
 20
1.16248596E+02
 11
3.15999977E+02
 21
1.14999969E+02
  0
LINE
  8
0
 62
7
 10
3.07248390E+02
 20
1.25000031E+02
 11
3.05999977E+02
 21
1.25000031E+02
  0
LINE
  8
0
 62
7
 10
2.75751259E+02
 20
1.24999969E+02
 11
2.76999977E+02
 21
1.24999969E+02
  0
LINE
  8
0
 62
7
 10
2.66999977E+02
 20
1.16248352E+02
 11
2.66999977E+02
 21
1.14999969E+02
  0
LINE
  8
0
 62
7
 10
3.16000038E+02
 20
8.47517700E+01
 11
3.16000038E+02
 21
8.60000000E+01
  0
LINE
  8
0
 62
7
 10
3.07248756E+02
 20
7.60000305E+01
 11
3.05999977E+02
 21
7.60000305E+01
  0
LINE
  8
0
 62
7
 10
2.75751564E+02
 20
7.59999390E+01
 11
2.76999977E+02
 21
7.59999390E+01
  0
LINE
  8
0
 62
7
 10
2.67000038E+02
 20
8.47512817E+01
 11
2.67000038E+02
 21
8.60000000E+01
  0
LINE
  8
0
  6
CENTER
 62
2
 10
3.05612892E+02
 20
1.23999969E+02
 11
3.24732567E+02
 21
1.23999969E+02
  0
LINE
  8
0
  6
CENTER
 62
2
 10
3.05962685E+02
 20
7.69999390E+01
 11
3.24732567E+02
 21
7.69999390E+01
  0
LINE
  8
0
 62
7
 10
2.64999977E+02
 20
1.25732025E+02
 11
2.64999977E+02
 21
1.22267914E+02
  0
LINE
  8
0
 62
7
 10
2.70999972E+02
 20
1.22267907E+02
 11
2.67999964E+02
 21
1.20535851E+02
  0
LINE
  8
0
 62
7
 10
2.67999984E+02
 20
1.20535864E+02
 11
2.64999982E+02
 21
1.22267916E+02
  0
LINE
  8
0
 62
7
 10
2.67999972E+02
 20
1.27464059E+02
 11
2.64999964E+02
 21
1.25732003E+02
  0
LINE
  8
0
 62
7
 10
2.70999977E+02
 20
1.25732025E+02
 11
2.70999977E+02
 21
1.22267914E+02
  0
LINE
  8
0
 62
7
 10
2.67999982E+02
 20
1.27464068E+02
 11
2.70999984E+02
 21
1.25732016E+02
  0
LINE
  8
0
 62
7
 10
3.15000038E+02
 20
8.04640447E+01
 11
3.18000033E+02
 21
7.87319966E+01
  0
LINE
  8
0
 62
7
 10
3.17999965E+02
 20
1.22267903E+02
 11
3.14999983E+02
 21
1.20535863E+02
  0
LINE
  8
0
 62
7
 10
3.14999977E+02
 20
1.20535867E+02
 11
3.11999982E+02
 21
1.22267915E+02
  0
LINE
  8
0
 62
7
 10
3.11999977E+02
 20
1.25732025E+02
 11
3.11999977E+02
 21
1.22267914E+02
  0
LINE
  8
0
 62
7
 10
3.14999965E+02
 20
1.27464055E+02
 11
3.11999983E+02
 21
1.25732015E+02
  0
LINE
  8
0
 62
7
 10
3.18000038E+02
 20
7.87319946E+01
 11
3.18000038E+02
 21
7.52678833E+01
  0
LINE
  8
0
 62
7
 10
3.15000033E+02
 20
7.35358443E+01
 11
3.12000038E+02
 21
7.52678924E+01
  0
LINE
  8
0
 62
7
 10
3.18000045E+02
 20
7.52678865E+01
 11
3.15000037E+02
 21
7.35358308E+01
  0
LINE
  8
0
 62
7
 10
2.71000038E+02
 20
7.87319946E+01
 11
2.71000038E+02
 21
7.52678833E+01
  0
LINE
  8
0
 62
7
 10
2.68000032E+02
 20
8.04640487E+01
 11
2.71000041E+02
 21
7.87319930E+01
  0
LINE
  8
0
 62
7
 10
3.12000038E+02
 20
7.87319946E+01
 11
3.12000038E+02
 21
7.52678833E+01
  0
LINE
  8
0
 62
7
 10
2.71000053E+02
 20
7.52678901E+01
 11
2.68000044E+02
 21
7.35358344E+01
  0
LINE
  8
0
 62
7
 10
3.15000045E+02
 20
8.04640388E+01
 11
3.12000037E+02
 21
7.87319832E+01
  0
LINE
  8
0
 62
7
 10
2.68000052E+02
 20
8.04640441E+01
 11
2.65000043E+02
 21
7.87319884E+01
  0
LINE
  8
0
 62
7
 10
2.65000038E+02
 20
7.87319946E+01
 11
2.65000038E+02
 21
7.52678833E+01
  0
LINE
  8
0
 62
7
 10
2.68000041E+02
 20
7.35358407E+01
 11
2.65000032E+02
 21
7.52678964E+01
  0
LINE
  8
0
  6
CENTER
 62
2
 10
2.98500099E+02
 20
1.33685059E+02
 11
2.98500099E+02
 21
1.21799774E+02
  0
ARC
  8
0
 62
7
 10
2.57933540E+02
 20
1.34000015E+02
 40
4.00000000E+00
 50
8.99999818E+01
 51
1.79999964E+02
  0
ARC
  8
0
 62
7
 10
3.30092644E+02
 20
9.75000000E+01
 40
6.84088755E+00
 50
3.33989274E+02
 51
2.60106444E+01
  0
ARC
  8
0
 62
7
 10
3.30092644E+02
 20
1.03499985E+02
 40
6.84084654E+00
 50
3.33989137E+02
 51
2.60107947E+01
  0
ARC
  8
0
 62
7
 10
2.52774391E+02
 20
9.75000000E+01
 40
6.84088755E+00
 50
1.53989320E+02
 51
2.06010690E+02
  0
ARC
  8
0
 62
7
 10
2.52774361E+02
 20
1.03499985E+02
 40
6.84084654E+00
 50
1.53989169E+02
 51
2.06010827E+02
  0
ARC
  8
0
 62
7
 10
2.57933540E+02
 20
6.69999847E+01
 40
4.00000000E+00
 50
1.79999964E+02
 51
2.69999946E+02
  0
ARC
  8
0
 62
7
 10
3.24933495E+02
 20
6.69999847E+01
 40
4.00000000E+00
 50
2.69999963E+02
 51
0.00000000E+00
  0
ARC
  8
0
 62
7
 10
3.24933495E+02
 20
1.34000015E+02
 40
4.00000000E+00
 50
0.00000000E+00
 51
8.99999818E+01
  0
ARC
  8
0
 62
7
 10
3.06985451E+02
 20
8.78429565E+01
 40
1.00000000E+00
 50
1.40739039E+02
 51
2.25000037E+02
  0
ARC
  8
0
 62
7
 10
3.04157021E+02
 20
8.50145264E+01
 40
1.00000000E+00
 50
4.50000149E+01
 51
1.29261016E+02
  0
ARC
  8
0
 62
7
 10
2.76014503E+02
 20
1.13157043E+02
 40
1.00000000E+00
 50
3.20739045E+02
 51
4.50000423E+01
  0
ARC
  8
0
 62
7
 10
2.78842934E+02
 20
1.15985474E+02
 40
1.00000000E+00
 50
2.25000000E+02
 51
3.09261001E+02
  0
ARC
  8
0
 62
7
 10
2.71600258E+02
 20
1.02499969E+02
 40
1.00000000E+00
 50
2.70000038E+02
 51
3.54260543E+02
  0
ARC
  8
0
 62
7
 10
2.85499977E+02
 20
1.27499969E+02
 40
1.00000000E+00
 50
3.59721781E-05
 51
9.00000162E+01
  0
ARC
  8
0
 62
7
 10
2.64500038E+02
 20
1.02500000E+02
 40
1.00000000E+00
 50
1.79999991E+02
 51
2.70000028E+02
  0
ARC
  8
0
 62
7
 10
2.64000038E+02
 20
1.27999969E+02
 40
3.00000000E+00
 50
9.00000162E+01
 51
1.80000005E+02
  0
ARC
  8
0
 62
7
 10
2.89499977E+02
 20
1.27499969E+02
 40
1.00000000E+00
 50
3.59721781E-05
 51
9.00000162E+01
  0
ARC
  8
0
 62
7
 10
2.89499977E+02
 20
1.20399719E+02
 40
1.00000000E+00
 50
2.75739515E+02
 51
3.59721781E-05
  0
CIRCLE
  8
0
 62
7
 10
2.67999977E+02
 20
1.23999969E+02
 40
5.00000000E+00
  0
ARC
  8
0
 62
7
 10
2.72062965E+02
 20
1.17108551E+02
 40
1.00000000E+00
 50
4.50006569E+01
 51
1.20522253E+02
  0
ARC
  8
0
 62
7
 10
2.74891396E+02
 20
1.19936951E+02
 40
1.00000000E+00
 50
1.49477556E+02
 51
2.24999381E+02
  0
ARC
  8
0
 62
7
 10
3.18999977E+02
 20
7.30000305E+01
 40
3.00000000E+00
 50
2.70000011E+02
 51
3.59999964E+02
  0
ARC
  8
0
 62
7
 10
2.93499977E+02
 20
7.35000305E+01
 40
1.00000000E+00
 50
1.80000022E+02
 51
2.70000011E+02
  0
ARC
  8
0
 62
7
 10
2.93499977E+02
 20
8.06002808E+01
 40
1.00000000E+00
 50
9.57394995E+01
 51
1.80000032E+02
  0
CIRCLE
  8
0
 62
7
 10
3.15000038E+02
 20
7.70000305E+01
 40
5.00000000E+00
  0
ARC
  8
0
 62
7
 10
3.10936989E+02
 20
8.38914490E+01
 40
1.00000000E+00
 50
2.25000642E+02
 51
3.00522242E+02
  0
ARC
  8
0
 62
7
 10
3.08108559E+02
 20
8.10630493E+01
 40
1.00000000E+00
 50
3.29477575E+02
 51
4.49993865E+01
  0
ARC
  8
0
 62
7
 10
3.18499977E+02
 20
1.04000031E+02
 40
1.00000000E+00
 50
3.59999981E+02
 51
8.99999618E+01
  0
ARC
  8
0
 62
7
 10
2.64000038E+02
 20
1.28000000E+02
 40
3.50000000E+00
 50
9.00000162E+01
 51
1.80000005E+02
  0
CIRCLE
  8
0
 62
7
 10
2.67999977E+02
 20
1.23999969E+02
 40
4.50000000E+00
  0
ARC
  8
0
 62
7
 10
3.18999977E+02
 20
7.30000000E+01
 40
3.50000000E+00
 50
2.70000011E+02
 51
3.59999964E+02
  0
CIRCLE
  8
0
 62
7
 10
3.15000038E+02
 20
7.70000305E+01
 40
4.50000000E+00
  0
ARC
  8
0
 62
7
 10
2.64500038E+02
 20
1.11031342E+02
 40
1.00000000E+00
 50
9.71808057E+01
 51
1.80000005E+02
  0
ARC
  8
0
 62
7
 10
2.64000038E+02
 20
1.14999969E+02
 40
3.00000000E+00
 50
2.77180780E+02
 51
1.86693353E-05
  0
ARC
  8
0
 62
7
 10
2.67968666E+02
 20
1.16000061E+02
 40
1.00000000E+00
 50
8.97744765E+01
 51
1.72821039E+02
  0
ARC
  8
0
 62
7
 10
2.68000038E+02
 20
1.24000000E+02
 40
7.00000000E+00
 50
2.69775448E+02
 51
2.24721868E-01
  0
ARC
  8
0
 62
7
 10
2.75999977E+02
 20
1.24031372E+02
 40
1.00000000E+00
 50
9.71808057E+01
 51
1.80224691E+02
  0
ARC
  8
0
 62
7
 10
2.76999977E+02
 20
1.28000000E+02
 40
3.00000000E+00
 50
2.69999984E+02
 51
3.52818976E+02
  0
ARC
  8
0
 62
7
 10
2.80968605E+02
 20
1.27499969E+02
 40
1.00000000E+00
 50
9.00000162E+01
 51
1.72818444E+02
  0
ARC
  8
0
 62
7
 10
3.18499977E+02
 20
8.99686279E+01
 40
1.00000000E+00
 50
2.77180773E+02
 51
3.59999964E+02
  0
ARC
  8
0
 62
7
 10
3.18999977E+02
 20
8.60000000E+01
 40
3.00000000E+00
 50
9.71807582E+01
 51
1.80000005E+02
  0
ARC
  8
0
 62
7
 10
3.15031349E+02
 20
8.49999084E+01
 40
1.00000000E+00
 50
2.69774444E+02
 51
3.52820998E+02
  0
ARC
  8
0
 62
7
 10
3.14999977E+02
 20
7.69999695E+01
 40
7.00000000E+00
 50
8.97754191E+01
 51
1.80224691E+02
  0
ARC
  8
0
 62
7
 10
3.07000038E+02
 20
7.69685974E+01
 40
1.00000000E+00
 50
2.77180794E+02
 51
2.24667227E-01
  0
ARC
  8
0
 62
7
 10
3.05999977E+02
 20
7.29999695E+01
 40
3.00000000E+00
 50
9.00000162E+01
 51
1.72818963E+02
  0
ARC
  8
0
 62
7
 10
3.02031349E+02
 20
7.35000000E+01
 40
1.00000000E+00
 50
2.69999984E+02
 51
3.52818403E+02
  0
ARC
  8
0
 62
7
 10
2.85499977E+02
 20
1.19578766E+02
 40
1.00000000E+00
 50
2.87457053E+02
 51
1.86693353E-05
  0
ARC
  8
0
 62
7
 10
3.11500038E+02
 20
1.06000031E+02
 40
1.00000000E+00
 50
1.79999991E+02
 51
2.69999974E+02
  0
ARC
  8
0
 62
7
 10
3.06985451E+02
 20
1.13157013E+02
 40
1.00000000E+00
 50
1.35000014E+02
 51
2.19261011E+02
  0
ARC
  8
0
 62
7
 10
3.04157021E+02
 20
1.15985443E+02
 40
1.00000000E+00
 50
2.30739011E+02
 51
3.15000026E+02
  0
ARC
  8
0
 62
7
 10
3.11399757E+02
 20
1.02500000E+02
 40
1.00000000E+00
 50
1.85739485E+02
 51
2.70000038E+02
  0
ARC
  8
0
 62
7
 10
3.11399757E+02
 20
9.85000000E+01
 40
1.00000000E+00
 50
9.00000437E+01
 51
1.74260556E+02
  0
CIRCLE
  8
0
 62
7
 10
3.14999977E+02
 20
1.24000000E+02
 40
5.00000000E+00
  0
ARC
  8
0
 62
7
 10
3.08108559E+02
 20
1.19936981E+02
 40
1.00000000E+00
 50
3.15000662E+02
 51
3.05222541E+01
  0
ARC
  8
0
 62
7
 10
2.93499977E+02
 20
1.27499969E+02
 40
1.00000000E+00
 50
9.00000025E+01
 51
1.80000046E+02
  0
ARC
  8
0
 62
7
 10
2.93499977E+02
 20
1.20399719E+02
 40
1.00000000E+00
 50
1.80000036E+02
 51
2.64260384E+02
  0
ARC
  8
0
 62
7
 10
3.18499977E+02
 20
1.02500000E+02
 40
1.00000000E+00
 50
2.70000052E+02
 51
3.59721781E-05
  0
ARC
  8
0
 62
7
 10
3.14999977E+02
 20
1.24000000E+02
 40
7.00000000E+00
 50
1.79775319E+02
 51
2.70224577E+02
  0
ARC
  8
0
 62
7
 10
3.10936928E+02
 20
1.17108551E+02
 40
1.00000000E+00
 50
5.94775673E+01
 51
1.34999386E+02
  0
ARC
  8
0
 62
7
 10
3.18999977E+02
 20
1.27999939E+02
 40
3.00000000E+00
 50
2.23117997E-05
 51
8.99999750E+01
  0
ARC
  8
0
 62
7
 10
3.18499977E+02
 20
9.85000000E+01
 40
1.00000000E+00
 50
8.65142224E-06
 51
9.00000437E+01
  0
ARC
  8
0
 62
7
 10
3.18999977E+02
 20
1.27999939E+02
 40
3.50000000E+00
 50
2.23117997E-05
 51
8.99999750E+01
  0
CIRCLE
  8
0
 62
7
 10
3.14999977E+02
 20
1.24000000E+02
 40
4.50000000E+00
  0
ARC
  8
0
 62
7
 10
3.18999977E+02
 20
1.14999969E+02
 40
3.00000000E+00
 50
1.79999991E+02
 51
2.62819259E+02
  0
ARC
  8
0
 62
7
 10
3.05999977E+02
 20
1.28000000E+02
 40
3.00000000E+00
 50
1.87181037E+02
 51
2.69999984E+02
  0
ARC
  8
0
 62
7
 10
3.02031349E+02
 20
1.27499969E+02
 40
1.00000000E+00
 50
7.18159727E+00
 51
9.00000162E+01
  0
ARC
  8
0
 62
7
 10
3.07000038E+02
 20
1.24031372E+02
 40
1.00000000E+00
 50
3.59775350E+02
 51
8.28192267E+01
  0
ARC
  8
0
 62
7
 10
3.15031349E+02
 20
1.16000061E+02
 40
1.00000000E+00
 50
7.17900183E+00
 51
9.02255559E+01
  0
ARC
  8
0
 62
7
 10
3.18499977E+02
 20
1.11031342E+02
 40
1.00000000E+00
 50
3.59721781E-05
 51
8.28192267E+01
  0
ARC
  8
0
 62
7
 10
2.89499977E+02
 20
8.06002502E+01
 40
1.00000000E+00
 50
4.96325564E-05
 51
8.42605536E+01
  0
ARC
  8
0
 62
7
 10
2.78842934E+02
 20
8.50145264E+01
 40
1.00000000E+00
 50
5.07390404E+01
 51
1.35000041E+02
  0
ARC
  8
0
 62
7
 10
2.76014503E+02
 20
8.78429565E+01
 40
1.00000000E+00
 50
3.15000019E+02
 51
3.92610168E+01
  0
ARC
  8
0
 62
7
 10
2.71600258E+02
 20
9.85000000E+01
 40
1.00000000E+00
 50
5.73949849E+00
 51
9.00000300E+01
  0
ARC
  8
0
 62
7
 10
2.89499977E+02
 20
7.35000305E+01
 40
1.00000000E+00
 50
2.69999998E+02
 51
4.96325564E-05
  0
ARC
  8
0
 62
7
 10
2.64000038E+02
 20
7.30000305E+01
 40
3.00000000E+00
 50
1.80000008E+02
 51
2.69999984E+02
  0
ARC
  8
0
 62
7
 10
2.64500038E+02
 20
9.85000000E+01
 40
1.00000000E+00
 50
9.00000300E+01
 51
1.80000019E+02
  0
CIRCLE
  8
0
 62
7
 10
2.68000038E+02
 20
7.69999695E+01
 40
5.00000000E+00
  0
ARC
  8
0
 62
7
 10
2.74891457E+02
 20
8.10629883E+01
 40
1.00000000E+00
 50
1.35000656E+02
 51
2.10522249E+02
  0
ARC
  8
0
 62
7
 10
2.72063026E+02
 20
8.38914185E+01
 40
1.00000000E+00
 50
2.39477556E+02
 51
3.14999370E+02
  0
ARC
  8
0
 62
7
 10
2.63999977E+02
 20
7.30000305E+01
 40
3.50000000E+00
 50
1.80000008E+02
 51
2.69999984E+02
  0
CIRCLE
  8
0
 62
7
 10
2.68000038E+02
 20
7.69999695E+01
 40
4.50000000E+00
  0
ARC
  8
0
 62
7
 10
2.80968605E+02
 20
7.35000000E+01
 40
1.00000000E+00
 50
1.87181557E+02
 51
2.69999984E+02
  0
ARC
  8
0
 62
7
 10
2.76999977E+02
 20
7.29999695E+01
 40
3.00000000E+00
 50
7.18102357E+00
 51
9.00000162E+01
  0
ARC
  8
0
 62
7
 10
2.75999977E+02
 20
7.69685974E+01
 40
1.00000000E+00
 50
1.79775319E+02
 51
2.62819204E+02
  0
ARC
  8
0
 62
7
 10
2.68000038E+02
 20
7.69999695E+01
 40
7.00000000E+00
 50
3.59775295E+02
 51
9.02245653E+01
  0
ARC
  8
0
 62
7
 10
2.67968666E+02
 20
8.49999084E+01
 40
1.00000000E+00
 50
1.87178961E+02
 51
2.70225524E+02
  0
ARC
  8
0
 62
7
 10
2.64000038E+02
 20
8.60000000E+01
 40
3.00000000E+00
 50
3.59721781E-05
 51
8.28192198E+01
  0
ARC
  8
0
 62
7
 10
2.64500038E+02
 20
8.99686279E+01
 40
1.00000000E+00
 50
1.79999991E+02
 51
2.62819204E+02
  0
ARC
  8
0
 62
7
 10
2.85499977E+02
 20
7.35000000E+01
 40
1.00000000E+00
 50
2.69999984E+02
 51
1.86693353E-05
  0
ARC
  8
0
 62
7
 10
2.85499977E+02
 20
8.14212036E+01
 40
1.00000000E+00
 50
3.59721781E-05
 51
7.25429473E+01
  0
CIRCLE
  8
0
 62
7
 10
2.91499977E+02
 20
1.00500000E+02
 40
1.90000000E+01
  0
ARC
  8
0
 62
7
 10
3.08999916E+02
 20
8.55000000E+01
 40
1.00000000E+00
 50
3.59999981E+02
 51
9.00000162E+01
  0
ARC
  8
0
 62
7
 10
3.08999916E+02
 20
1.15500000E+02
 40
1.00000000E+00
 50
2.69999984E+02
 51
1.86693353E-05
  0
ARC
  8
0
 62
7
 10
2.73720070E+02
 20
1.09658325E+02
 40
1.00000000E+00
 50
3.32747622E+02
 51
6.70484293E+01
  0
ARC
  8
0
 62
7
 10
2.71499916E+02
 20
9.49999695E+01
 40
1.00000000E+00
 50
3.59721781E-05
 51
9.00000162E+01
  0
ARC
  8
0
 62
7
 10
2.64500038E+02
 20
9.69999695E+01
 40
1.00000000E+00
 50
1.79999991E+02
 51
2.70000028E+02
  0
ARC
  8
0
 62
7
 10
2.74499977E+02
 20
1.11500000E+02
 40
1.00000000E+00
 50
1.79999991E+02
 51
2.69999974E+02
  0
ARC
  8
0
 62
7
 10
2.73436440E+02
 20
9.54999695E+01
 40
1.00000000E+00
 50
1.94477277E+02
 51
2.69999984E+02
  0
ARC
  8
0
 62
7
 10
3.09563576E+02
 20
1.05500031E+02
 40
1.00000000E+00
 50
1.44772639E+01
 51
9.00000162E+01
  0
ARC
  8
0
 62
7
 10
2.85999977E+02
 20
8.04999695E+01
 40
1.00000000E+00
 50
6.00000492E+01
 51
9.00000162E+01
  0
ARC
  8
0
 62
7
 10
2.86499916E+02
 20
8.24364624E+01
 40
1.00000000E+00
 50
1.79999991E+02
 51
2.55524398E+02
  0
ARC
  8
0
 62
7
 10
2.86499916E+02
 20
1.18563507E+02
 40
1.00000000E+00
 50
1.04475592E+02
 51
1.80000005E+02
  0
ARC
  8
0
 62
7
 10
2.85999977E+02
 20
1.20500031E+02
 40
1.00000000E+00
 50
2.69999984E+02
 51
2.99999950E+02
  0
CIRCLE
  8
0
 62
2
 10
3.14999977E+02
 20
1.23999969E+02
 40
3.00000000E+00
  0
CIRCLE
  8
0
 62
2
 10
3.15000038E+02
 20
7.69999390E+01
 40
3.00000000E+00
  0
CIRCLE
  8
0
 62
2
 10
2.68000038E+02
 20
7.69999390E+01
 40
3.00000000E+00
  0
CIRCLE
  8
0
 62
2
 10
2.67999977E+02
 20
1.23999969E+02
 40
3.00000000E+00
  0
CIRCLE
  8
0
 62
7
 10
3.14999977E+02
 20
1.23999969E+02
 40
2.40000010E+00
  0
CIRCLE
  8
0
 62
7
 10
3.15000038E+02
 20
7.69999390E+01
 40
2.40000010E+00
  0
CIRCLE
  8
0
 62
7
 10
2.68000038E+02
 20
7.69999390E+01
 40
2.40000010E+00
  0
CIRCLE
  8
0
 62
7
 10
2.67999977E+02
 20
1.23999969E+02
 40
2.40000010E+00
  0
LINE
  8
0
 62
6
 10
2.57986844E+02
 20
1.17817278E+02
 11
2.60499977E+02
 21
1.18260411E+02
  0
LINE
  8
0
 62
6
 10
2.57465900E+02
 20
1.20771701E+02
 11
2.60503661E+02
 21
1.21307341E+02
  0
LINE
  8
0
 62
4
 10
2.58073668E+02
 20
1.17324874E+02
 11
2.57379075E+02
 21
1.21264105E+02
  0
LINE
  8
0
 62
4
 10
2.58073668E+02
 20
1.17324874E+02
 11
2.60499977E+02
 21
1.17752698E+02
  0
LINE
  8
0
 62
4
 10
2.57379076E+02
 20
1.21264105E+02
 11
2.60416837E+02
 21
1.21799745E+02
  0
LINE
  8
0
 62
4
 10
2.59847693E+02
 20
1.25027519E+02
 11
2.60499977E+02
 21
1.21328235E+02
  0
LINE
  8
0
 62
4
 10
2.72555690E+02
 20
1.42217831E+02
 11
2.65662036E+02
 21
1.41002294E+02
  0
LINE
  8
0
 62
4
 10
2.65662036E+02
 20
1.41002294E+02
 11
2.61966372E+02
 21
1.30848542E+02
  0
LINE
  8
0
 62
4
 10
2.74031700E+02
 20
1.33846965E+02
 11
2.73539296E+02
 21
1.33760141E+02
  0
LINE
  8
0
 62
4
 10
2.73133716E+02
 20
1.33180913E+02
 11
2.73430106E+02
 21
1.31500000E+02
  0
ARC
  8
0
 62
4
 10
2.73626120E+02
 20
1.33267737E+02
 40
5.00000000E-01
 50
9.99999999E+01
 51
1.90000000E+02
  0
LINE
  8
0
  6
CENTER
 62
6
 10
2.72406437E+02
 20
1.34068101E+02
 11
2.85256942E+02
 21
1.36333991E+02
  0
LINE
  8
0
  6
CENTER
 62
6
 10
2.62564801E+02
 20
1.35886748E+02
 11
2.84649173E+02
 21
1.39780819E+02
  0
LINE
  8
0
 62
4
 10
2.81324745E+02
 20
1.32797445E+02
 11
2.81649209E+02
 21
1.33260827E+02
  0
LINE
  8
0
 62
4
 10
2.81649209E+02
 20
1.33260827E+02
 11
2.84505151E+02
 21
1.33764407E+02
  0
LINE
  8
0
 62
4
 10
2.80832341E+02
 20
1.32710620E+02
 11
2.81045806E+02
 21
1.31500000E+02
  0
LINE
  8
0
 62
4
 10
2.80832341E+02
 20
1.32710620E+02
 11
2.81324745E+02
 21
1.32797445E+02
  0
LINE
  8
0
 62
4
 10
2.72555690E+02
 20
1.42217831E+02
 11
2.74031700E+02
 21
1.33846965E+02
  0
LINE
  8
0
 62
4
 10
2.82699210E+02
 20
1.44006407E+02
 11
2.72555690E+02
 21
1.42217831E+02
  0
LINE
  8
0
 62
4
 10
2.73637777E+02
 20
1.33777506E+02
 11
2.74039362E+02
 21
1.31500000E+02
  0
LINE
  8
0
 62
4
 10
2.84083228E+02
 20
1.32298876E+02
 11
2.84224091E+02
 21
1.31500000E+02
  0
LINE
  8
0
 62
4
 10
2.84788937E+02
 20
1.33306732E+02
 11
2.84083228E+02
 21
1.32298876E+02
  0
LINE
  8
0
 62
4
 10
2.80849706E+02
 20
1.32612140E+02
 11
2.81852638E+02
 21
1.31905563E+02
  0
LINE
  8
0
 62
4
 10
2.81852638E+02
 20
1.31905563E+02
 11
2.84083228E+02
 21
1.32298876E+02
  0
LINE
  8
0
 62
4
 10
2.80849706E+02
 20
1.32612140E+02
 11
2.84788937E+02
 21
1.33306732E+02
  0
LINE
  8
0
 62
4
 10
2.84788937E+02
 20
1.33306732E+02
 11
2.85107512E+02
 21
1.31500000E+02
  0
LINE
  8
0
  6
CENTER
 62
6
 10
2.82645673E+02
 20
1.33944244E+02
 11
2.83076659E+02
 21
1.31500000E+02
  0
LINE
  8
0
  6
CENTER
 62
6
 10
2.80212194E+02
 20
1.30468876E+02
 11
2.86121041E+02
 21
1.31510765E+02
  0
LINE
  8
0
 62
4
 10
2.82820764E+02
 20
1.43317042E+02
 11
2.83805572E+02
 21
1.43490690E+02
  0
ARC
  8
0
 62
4
 10
2.85995813E+02
 20
1.37581243E+02
 40
1.00000000E+00
 50
3.28723662E+02
 51
3.57172490E+02
  0
ARC
  8
0
 62
4
 10
2.85162302E+02
 20
1.42308321E+02
 40
1.00000000E+00
 50
2.28275100E+01
 51
9.99999999E+01
  0
ARC
  8
0
 62
4
 10
2.75198974E+02
 20
1.38114493E+02
 40
1.18100000E+01
 50
3.57172490E+02
 51
2.28275100E+01
  0
LINE
  8
0
 62
4
 10
2.83875031E+02
 20
1.43096767E+02
 11
2.84987864E+02
 21
1.43292989E+02
  0
LINE
  8
0
 62
4
 10
2.84352563E+02
 20
1.40388546E+02
 11
2.83805572E+02
 21
1.43490690E+02
  0
LINE
  8
0
 62
4
 10
2.85183262E+02
 20
1.32106979E+02
 11
2.83741982E+02
 21
1.40280884E+02
  0
LINE
  8
0
 62
4
 10
2.83393803E+02
 20
1.40067176E+02
 11
2.83768030E+02
 21
1.40133163E+02
  0
LINE
  8
0
 62
4
 10
2.84979950E+02
 20
1.32223444E+02
 11
2.85157215E+02
 21
1.32254701E+02
  0
LINE
  8
0
 62
4
 10
2.83741982E+02
 20
1.40280884E+02
 11
2.85475244E+02
 21
1.40586504E+02
  0
LINE
  8
0
 62
4
 10
2.85183262E+02
 20
1.32106979E+02
 11
2.86916524E+02
 21
1.32412600E+02
  0
ARC
  8
0
 62
4
 10
2.75302826E+02
 20
1.34586670E+02
 40
1.18100000E+01
 50
9.99999999E+00
 51
3.05326991E+01
  0
ARC
  8
0
 62
4
 10
2.75305514E+02
 20
1.34571429E+02
 40
1.18100000E+01
 50
3.49467301E+02
 51
9.99999999E+00
  0
LINE
  8
0
 62
4
 10
2.84591975E+02
 20
1.33272003E+02
 11
2.82699210E+02
 21
1.44006407E+02
  0
LINE
  8
0
 62
4
 10
3.24926286E+02
 20
1.17324874E+02
 11
3.25620879E+02
 21
1.21264105E+02
  0
LINE
  8
0
 62
6
 10
3.25013110E+02
 20
1.17817278E+02
 11
3.22499916E+02
 21
1.18260422E+02
  0
LINE
  8
0
 62
6
 10
3.25534055E+02
 20
1.20771701E+02
 11
3.22496293E+02
 21
1.21307341E+02
  0
LINE
  8
0
 62
4
 10
3.24926286E+02
 20
1.17324874E+02
 11
3.22499916E+02
 21
1.17752709E+02
  0
LINE
  8
0
 62
4
 10
3.25620879E+02
 20
1.21264105E+02
 11
3.22583117E+02
 21
1.21799745E+02
  0
LINE
  8
0
  6
CENTER
 62
6
 10
3.02787760E+02
 20
1.30468876E+02
 11
2.96939965E+02
 21
1.31500000E+02
  0
LINE
  8
0
  6
CENTER
 62
6
 10
3.00354281E+02
 20
1.33944244E+02
 11
2.99923295E+02
 21
1.31500000E+02
  0
LINE
  8
0
 62
4
 10
2.98211018E+02
 20
1.33306732E+02
 11
2.97892442E+02
 21
1.31500000E+02
  0
LINE
  8
0
 62
4
 10
3.02150249E+02
 20
1.32612140E+02
 11
2.98211018E+02
 21
1.33306732E+02
  0
LINE
  8
0
 62
4
 10
3.09362178E+02
 20
1.33777506E+02
 11
3.08960592E+02
 21
1.31500000E+02
  0
LINE
  8
0
 62
4
 10
3.00300744E+02
 20
1.44006407E+02
 11
3.10444264E+02
 21
1.42217831E+02
  0
LINE
  8
0
 62
4
 10
3.10444264E+02
 20
1.42217831E+02
 11
3.08968255E+02
 21
1.33846965E+02
  0
LINE
  8
0
 62
4
 10
3.02167613E+02
 20
1.32710620E+02
 11
3.01675209E+02
 21
1.32797445E+02
  0
LINE
  8
0
 62
4
 10
3.02167613E+02
 20
1.32710620E+02
 11
3.01954148E+02
 21
1.31500000E+02
  0
LINE
  8
0
 62
4
 10
3.01350746E+02
 20
1.33260827E+02
 11
2.98494803E+02
 21
1.33764407E+02
  0
LINE
  8
0
 62
4
 10
3.01675209E+02
 20
1.32797445E+02
 11
3.01350746E+02
 21
1.33260827E+02
  0
LINE
  8
0
  6
CENTER
 62
6
 10
3.20435153E+02
 20
1.35886748E+02
 11
2.98350781E+02
 21
1.39780819E+02
  0
LINE
  8
0
  6
CENTER
 62
6
 10
3.10593518E+02
 20
1.34068101E+02
 11
2.97743012E+02
 21
1.36333991E+02
  0
LINE
  8
0
  6
CENTER
 62
6
 10
3.16567925E+02
 20
1.20829532E+02
 11
3.24033930E+02
 21
1.19513074E+02
  0
ARC
  8
0
 62
4
 10
3.09373834E+02
 20
1.33267737E+02
 40
5.00000000E-01
 50
3.50000000E+02
 51
7.99999999E+01
  0
LINE
  8
0
 62
4
 10
3.09866238E+02
 20
1.33180913E+02
 11
3.09569848E+02
 21
1.31500000E+02
  0
LINE
  8
0
 62
4
 10
3.08968255E+02
 20
1.33846965E+02
 11
3.09460658E+02
 21
1.33760141E+02
  0
LINE
  8
0
 62
4
 10
3.17337918E+02
 20
1.41002294E+02
 11
3.21033581E+02
 21
1.30848545E+02
  0
LINE
  8
0
 62
4
 10
3.10444264E+02
 20
1.42217831E+02
 11
3.17337918E+02
 21
1.41002294E+02
  0
LINE
  8
0
 62
4
 10
3.23152261E+02
 20
1.25027519E+02
 11
3.22499916E+02
 21
1.21327889E+02
  0
ARC
  8
0
 62
4
 10
2.99833337E+02
 20
1.30989821E+02
 40
1.50000000E+00
 50
1.98841649E+01
 51
1.60115835E+02
  0
ARC
  8
0
 62
4
 10
2.99963573E+02
 20
1.31728426E+02
 40
3.00000000E-01
 50
3.10410364E+02
 51
2.29589636E+02
  0
ARC
  8
0
 62
4
 10
2.99963573E+02
 20
1.31728426E+02
 40
5.00000000E-01
 50
3.32815800E+02
 51
2.07184200E+02
  0
LINE
  8
0
 62
4
 10
2.98859464E+02
 20
1.35832503E+02
 11
2.97874657E+02
 21
1.36006151E+02
  0
LINE
  8
0
 62
4
 10
3.00179190E+02
 20
1.43317042E+02
 11
2.99194383E+02
 21
1.43490690E+02
  0
ARC
  8
0
 62
4
 10
2.97004141E+02
 20
1.37581243E+02
 40
1.00000000E+00
 50
1.82827510E+02
 51
2.60000000E+02
  0
ARC
  8
0
 62
4
 10
2.97837652E+02
 20
1.42308321E+02
 40
1.00000000E+00
 50
7.99999999E+01
 51
1.57172490E+02
  0
ARC
  8
0
 62
4
 10
3.07800981E+02
 20
1.38114493E+02
 40
1.18100000E+01
 50
1.57172490E+02
 51
1.82827510E+02
  0
LINE
  8
0
 62
4
 10
2.97944116E+02
 20
1.36400074E+02
 11
2.96831283E+02
 21
1.36596297E+02
  0
LINE
  8
0
 62
4
 10
2.99124923E+02
 20
1.43096767E+02
 11
2.98012091E+02
 21
1.43292989E+02
  0
LINE
  8
0
 62
4
 10
2.97874657E+02
 20
1.36006151E+02
 11
2.99194383E+02
 21
1.43490690E+02
  0
LINE
  8
0
 62
4
 10
2.97816692E+02
 20
1.32106979E+02
 11
2.98485237E+02
 21
1.35898489E+02
  0
LINE
  8
0
 62
4
 10
2.98216966E+02
 20
1.32188714E+02
 11
2.97842739E+02
 21
1.32254701E+02
  0
LINE
  8
0
 62
4
 10
2.97816692E+02
 20
1.32106979E+02
 11
2.96083430E+02
 21
1.32412600E+02
  0
ARC
  8
0
 62
4
 10
3.07697128E+02
 20
1.34586670E+02
 40
1.18100000E+01
 50
1.67900933E+02
 51
1.70000000E+02
  0
ARC
  8
0
 62
4
 10
3.07694441E+02
 20
1.34571429E+02
 40
1.18100000E+01
 50
1.70000000E+02
 51
1.90532699E+02
  0
LINE
  8
0
 62
4
 10
2.98216966E+02
 20
1.32188714E+02
 11
3.00300744E+02
 21
1.44006407E+02
  0
LINE
  8
0
 62
4
 10
2.60499977E+02
 20
1.26819654E+02
 11
2.59847693E+02
 21
1.25027519E+02
  0
LINE
  8
0
 62
4
 10
3.22499916E+02
 20
1.26819821E+02
 11
3.23152261E+02
 21
1.25027519E+02
  0
LINE
  8
0
  6
CENTER
 62
6
 10
2.96939965E+02
 20
1.31500000E+02
 11
2.96878913E+02
 21
1.31510765E+02
  0
LINE
  8
0
  6
CENTER
 62
6
 10
2.99923295E+02
 20
1.31500000E+02
 11
2.99312392E+02
 21
1.28035397E+02
  0
LINE
  8
0
 62
4
 10
2.81924150E+02
 20
1.31500000E+02
 11
2.81852638E+02
 21
1.31905563E+02
  0
LINE
  8
0
  6
CENTER
 62
6
 10
2.83076659E+02
 20
1.31500000E+02
 11
2.83687562E+02
 21
1.28035397E+02
  0
LINE
  8
0
  6
CENTER
 62
6
 10
2.58966025E+02
 20
1.19513074E+02
 11
2.66432029E+02
 21
1.20829532E+02
  0
LINE
  8
0
 62
7
 10
2.64569285E+02
 20
1.37999985E+02
 11
2.57933540E+02
 21
1.37999985E+02
  0
LINE
  8
0
 62
7
 10
2.95991536E+02
 20
1.37999985E+02
 11
2.87008419E+02
 21
1.37999985E+02
  0
LINE
  8
0
  6
PHANTOM
 10
-9.50000000E+00
 20
3.46114332E+02
 11
-9.50000000E+00
 21
1.92202234E+02
  0
LINE
  8
0
  6
CENTER
 62
2
 10
-1.12500000E+02
 20
2.81484192E+02
 11
-1.12500000E+02
 21
3.01644226E+02
  0
LINE
  8
0
  6
CENTER
 62
2
 10
-1.22616699E+02
 20
2.91500031E+02
 11
-1.02551544E+02
 21
2.91500031E+02
  0
LINE
  8
0
 62
7
 10
-1.97499931E+02
 20
2.41499954E+02
 11
-1.81499962E+02
 21
2.41499954E+02
  0
LINE
  8
0
 62
7
 10
-1.81499931E+02
 20
2.46499954E+02
 11
-1.81499931E+02
 21
2.41499954E+02
  0
LINE
  8
0
 62
7
 10
-1.97499962E+02
 20
2.46499954E+02
 11
-1.97499962E+02
 21
2.41499954E+02
  0
LINE
  8
0
 62
7
 10
-1.92799950E+02
 20
2.31999954E+02
 11
-1.86199944E+02
 21
2.31999954E+02
  0
LINE
  8
0
 62
7
 10
-1.95249962E+02
 20
2.34999954E+02
 11
-1.83749931E+02
 21
2.34999954E+02
  0
LINE
  8
0
 62
7
 10
-1.82549919E+02
 20
2.41499954E+02
 11
-1.82549919E+02
 21
2.35692764E+02
  0
LINE
  8
0
 62
7
 10
-1.96449913E+02
 20
2.41499954E+02
 11
-1.96449913E+02
 21
2.35692764E+02
  0
LINE
  8
0
 62
7
 10
-1.83749805E+02
 20
2.34999766E+02
 11
-1.82549810E+02
 21
2.35692584E+02
  0
LINE
  8
0
 62
7
 10
-1.96449879E+02
 20
2.35692726E+02
 11
-1.95249950E+02
 21
2.34999947E+02
  0
LINE
  8
0
 62
7
 10
-1.92974937E+02
 20
2.41499954E+02
 11
-1.92974937E+02
 21
2.35692764E+02
  0
LINE
  8
0
 62
7
 10
-1.86024956E+02
 20
2.41499954E+02
 11
-1.86024956E+02
 21
2.35692764E+02
  0
LINE
  8
0
 62
7
 10
-1.93499931E+02
 20
2.34999954E+02
 11
-1.93499931E+02
 21
2.32699966E+02
  0
LINE
  8
0
 62
7
 10
-1.85499931E+02
 20
2.34999954E+02
 11
-1.85499931E+02
 21
2.32699966E+02
  0
LINE
  8
0
 62
2
 10
-1.92799950E+02
 20
2.34999954E+02
 11
-1.92799950E+02
 21
2.31999954E+02
  0
LINE
  8
0
 62
2
 10
-1.86199913E+02
 20
2.34999954E+02
 11
-1.86199913E+02
 21
2.31999954E+02
  0
LINE
  8
0
 62
7
 10
-1.93499931E+02
 20
2.32699966E+02
 11
-1.85499931E+02
 21
2.32699966E+02
  0
LINE
  8
0
 62
7
 10
-1.93499947E+02
 20
2.32700079E+02
 11
-1.92799918E+02
 21
2.32000050E+02
  0
LINE
  8
0
 62
7
 10
-1.86199795E+02
 20
2.31999791E+02
 11
-1.85499788E+02
 21
2.32699798E+02
  0
LINE
  8
0
 62
7
 10
-1.97499931E+02
 20
3.19499969E+02
 11
-1.81499962E+02
 21
3.19499969E+02
  0
LINE
  8
0
 62
7
 10
-1.81499931E+02
 20
3.14499939E+02
 11
-1.81499931E+02
 21
3.19499939E+02
  0
LINE
  8
0
 62
7
 10
-1.97499962E+02
 20
3.14499939E+02
 11
-1.97499962E+02
 21
3.19499939E+02
  0
LINE
  8
0
 62
7
 10
-1.92799950E+02
 20
3.28999969E+02
 11
-1.86199944E+02
 21
3.28999969E+02
  0
LINE
  8
0
 62
7
 10
-1.95249962E+02
 20
3.25999969E+02
 11
-1.83749931E+02
 21
3.25999969E+02
  0
LINE
  8
0
 62
7
 10
-1.82549919E+02
 20
3.19499939E+02
 11
-1.82549919E+02
 21
3.25307129E+02
  0
LINE
  8
0
 62
7
 10
-1.96449913E+02
 20
3.19499939E+02
 11
-1.96449913E+02
 21
3.25307129E+02
  0
LINE
  8
0
 62
7
 10
-1.83749884E+02
 20
3.25999819E+02
 11
-1.82549902E+02
 21
3.25307009E+02
  0
LINE
  8
0
 62
7
 10
-1.96449761E+02
 20
3.25306732E+02
 11
-1.95249752E+02
 21
3.25999558E+02
  0
LINE
  8
0
 62
7
 10
-1.86024956E+02
 20
3.19499939E+02
 11
-1.86024956E+02
 21
3.25307129E+02
  0
LINE
  8
0
 62
7
 10
-1.93499931E+02
 20
3.25999939E+02
 11
-1.93499931E+02
 21
3.28299957E+02
  0
LINE
  8
0
 62
7
 10
-1.85499931E+02
 20
3.25999939E+02
 11
-1.85499931E+02
 21
3.28299957E+02
  0
LINE
  8
0
 62
2
 10
-1.92799950E+02
 20
3.25999939E+02
 11
-1.92799950E+02
 21
3.28999939E+02
  0
LINE
  8
0
 62
2
 10
-1.86199913E+02
 20
3.25999939E+02
 11
-1.86199913E+02
 21
3.28999939E+02
  0
LINE
  8
0
 62
7
 10
-1.93499931E+02
 20
3.28299957E+02
 11
-1.85499931E+02
 21
3.28299957E+02
  0
LINE
  8
0
 62
7
 10
-1.93499726E+02
 20
3.28299719E+02
 11
-1.92799713E+02
 21
3.28999732E+02
  0
LINE
  8
0
 62
7
 10
-1.86199957E+02
 20
3.29000056E+02
 11
-1.85499928E+02
 21
3.28300027E+02
  0
LINE
  8
0
 62
7
 10
-1.92974937E+02
 20
3.19499939E+02
 11
-1.92974937E+02
 21
3.25307129E+02
  0
LINE
  8
0
 62
7
 10
-1.25500000E+02
 20
3.17999969E+02
 11
-9.55000000E+01
 21
3.17999969E+02
  0
LINE
  8
0
  6
CENTER
 62
2
 10
-2.25559898E+02
 20
2.91500031E+02
 11
-2.07215111E+02
 21
2.91500031E+02
  0
LINE
  8
0
  6
CENTER
 62
2
 10
-2.16500023E+02
 20
3.00778961E+02
 11
-2.16500023E+02
 21
2.82213165E+02
  0
LINE
  8
0
  6
CENTER
 62
2
 10
-1.89499931E+02
 20
2.50751114E+02
 11
-1.89499931E+02
 21
2.29912277E+02
  0
LINE
  8
0
 62
7
 10
-2.13499871E+02
 20
2.93232204E+02
 11
-2.16499884E+02
 21
2.94964252E+02
  0
LINE
  8
0
 62
7
 10
-2.16500641E+02
 20
2.94965124E+02
 11
-2.19500641E+02
 21
2.93233084E+02
  0
LINE
  8
0
 62
7
 10
-2.19500023E+02
 20
2.89767944E+02
 11
-2.19500023E+02
 21
2.93232056E+02
  0
LINE
  8
0
 62
7
 10
-2.16499979E+02
 20
2.88036078E+02
 11
-2.19499939E+02
 21
2.89768095E+02
  0
LINE
  8
0
 62
7
 10
-2.13500589E+02
 20
2.89769002E+02
 11
-2.16500602E+02
 21
2.88036954E+02
  0
LINE
  8
0
 62
7
 10
-2.13500023E+02
 20
2.93232056E+02
 11
-2.13500023E+02
 21
2.89767944E+02
  0
LINE
  8
0
  6
CENTER
 62
2
 10
-1.89499931E+02
 20
3.10031677E+02
 11
-1.89499931E+02
 21
3.30587616E+02
  0
LINE
  8
0
  6
CENTER
 62
2
 10
-2.93493446E+02
 20
2.80500000E+02
 11
8.39757996E+01
 21
2.80500000E+02
  0
LINE
  8
0
 62
7
 10
-2.33500023E+02
 20
3.17999969E+02
 11
-2.03500023E+02
 21
3.17999969E+02
  0
LINE
  8
0
 62
7
 10
-9.55000000E+01
 20
3.17999969E+02
 11
-9.55000000E+01
 21
2.42999954E+02
  0
LINE
  8
0
  6
CENTER
 62
2
 10
-2.37729271E+02
 20
2.52499954E+02
 11
-8.93312492E+01
 21
2.52499954E+02
  0
LINE
  8
0
 62
7
 10
-2.03500023E+02
 20
2.56100021E+02
 11
-1.25500000E+02
 21
2.56100021E+02
  0
LINE
  8
0
 62
7
 10
-2.03500023E+02
 20
2.48900009E+02
 11
-1.25500000E+02
 21
2.48900009E+02
  0
LINE
  8
0
 62
7
 10
-2.03500023E+02
 20
3.14499969E+02
 11
-1.25500000E+02
 21
3.14499969E+02
  0
LINE
  8
0
 62
7
 10
-2.33500023E+02
 20
3.17999969E+02
 11
-2.33500023E+02
 21
2.42999954E+02
  0
LINE
  8
0
 62
7
 10
-2.33500023E+02
 20
2.42999954E+02
 11
-2.03500023E+02
 21
2.42999954E+02
  0
LINE
  8
0
 62
7
 10
-2.03500023E+02
 20
2.46499985E+02
 11
-1.25500000E+02
 21
2.46499985E+02
  0
LINE
  8
0
 62
7
 10
-1.25500000E+02
 20
3.17999969E+02
 11
-1.25500000E+02
 21
2.42999954E+02
  0
LINE
  8
0
 62
7
 10
-1.25500000E+02
 20
2.42999954E+02
 11
-9.55000000E+01
 21
2.42999954E+02
  0
LINE
  8
0
 62
7
 10
-2.03500023E+02
 20
3.17999969E+02
 11
-2.03500023E+02
 21
2.42999954E+02
  0
LINE
  8
0
  6
CENTER
 62
2
 10
-2.37729271E+02
 20
3.08500031E+02
 11
-8.93312492E+01
 21
3.08500031E+02
  0
LINE
  8
0
 62
7
 10
-2.03500023E+02
 20
3.04899994E+02
 11
-1.25500000E+02
 21
3.04899994E+02
  0
LINE
  8
0
 62
7
 10
-2.03500023E+02
 20
3.12100006E+02
 11
-1.25500000E+02
 21
3.12100006E+02
  0
LINE
  8
0
 62
7
 10
-2.48500023E+02
 20
2.96999939E+02
 11
-2.48500023E+02
 21
2.64000000E+02
  0
LINE
  8
0
 62
7
 10
-2.48000023E+02
 20
2.97500000E+02
 11
-2.43491478E+02
 21
2.97500000E+02
  0
LINE
  8
0
 62
7
 10
-2.43500023E+02
 20
2.97500000E+02
 11
-2.43500023E+02
 21
2.97508545E+02
  0
LINE
  8
0
 62
7
 10
-2.48000023E+02
 20
2.63500000E+02
 11
-2.43491478E+02
 21
2.63500000E+02
  0
LINE
  8
0
 62
7
 10
-2.35000023E+02
 20
2.99500000E+02
 11
-2.33500023E+02
 21
2.99500000E+02
  0
LINE
  8
0
 62
7
 10
-2.43500023E+02
 20
2.63500000E+02
 11
-2.43500023E+02
 21
2.63491455E+02
  0
LINE
  8
0
 62
7
 10
-2.43258778E+02
 20
2.63241559E+02
 11
-2.35500080E+02
 21
2.62970620E+02
  0
LINE
  8
0
 62
7
 10
-2.35500008E+02
 20
2.99000000E+02
 11
-2.35500008E+02
 21
2.62000031E+02
  0
LINE
  8
0
 62
7
 10
-2.35000023E+02
 20
2.61500000E+02
 11
-2.33500023E+02
 21
2.61500000E+02
  0
LINE
  8
0
 62
7
 10
-2.43258751E+02
 20
2.97758592E+02
 11
-2.35500052E+02
 21
2.98029532E+02
  0
LINE
  8
0
 62
7
 10
-2.43500008E+02
 20
2.97500000E+02
 11
-2.43500008E+02
 21
2.63500000E+02
  0
LINE
  8
0
  6
CENTER
 62
2
 10
-7.15000153E+01
 20
2.61028839E+02
 11
-7.15000153E+01
 21
2.77617859E+02
  0
LINE
  8
0
  6
CENTER
 62
2
 10
-8.03452759E+01
 20
2.68499939E+02
 11
-6.28707581E+01
 21
2.68499939E+02
  0
LINE
  8
0
 62
7
 10
-9.55000020E+01
 20
3.10714597E+02
 11
-6.44999796E+01
 21
3.11526361E+02
  0
LINE
  8
0
 62
7
 10
-9.05000000E+01
 20
2.60499969E+02
 11
-9.05000000E+01
 21
3.00499939E+02
  0
LINE
  8
0
  6
CENTER
 62
2
 10
-7.75000458E+01
 20
2.76257874E+02
 11
-7.75000458E+01
 21
2.99844299E+02
  0
LINE
  8
0
  6
CENTER
 62
2
 10
-8.69101715E+01
 20
2.87499878E+02
 11
-6.75515442E+01
 21
2.87499878E+02
  0
LINE
  8
0
 62
7
 10
-6.45000000E+01
 20
3.11526245E+02
 11
-6.45000000E+01
 21
2.49500000E+02
  0
LINE
  8
0
 62
7
 10
-9.55000312E+01
 20
2.50285525E+02
 11
-6.45000031E+01
 21
2.49473760E+02
  0
LINE
  8
0
 62
7
 10
-8.85000000E+01
 20
3.02499939E+02
 11
-6.45000000E+01
 21
3.02499939E+02
  0
LINE
  8
0
 62
7
 10
-8.85000000E+01
 20
2.58499969E+02
 11
-6.45000000E+01
 21
2.58499969E+02
  0
LINE
  8
0
 62
7
 10
-8.43083954E+01
 20
2.90499878E+02
 11
-7.06916962E+01
 21
2.90499878E+02
  0
LINE
  8
0
 62
7
 10
4.15000000E+01
 20
3.07499939E+02
 11
-2.40000000E+01
 21
3.07499939E+02
  0
LINE
  8
0
  6
CENTER
 62
2
 10
7.47269897E+01
 20
3.04000000E+02
 11
-9.76034546E+01
 21
3.04000000E+02
  0
LINE
  8
0
 62
7
 10
4.15000000E+01
 20
3.01349976E+02
 11
-2.40000000E+01
 21
3.01349976E+02
  0
LINE
  8
0
 62
7
 10
4.15000000E+01
 20
3.06649963E+02
 11
-2.40000000E+01
 21
3.06649963E+02
  0
LINE
  8
0
 62
7
 10
7.44999847E+01
 20
2.61999939E+02
 11
7.44999847E+01
 21
2.98999878E+02
  0
LINE
  8
0
 62
7
 10
7.40000000E+01
 20
2.61499939E+02
 11
7.25000000E+01
 21
2.61499939E+02
  0
LINE
  8
0
 62
7
 10
7.40000000E+01
 20
2.99499939E+02
 11
7.25000000E+01
 21
2.99499939E+02
  0
LINE
  8
0
 62
7
 10
7.25000000E+01
 20
2.50285431E+02
 11
7.25000000E+01
 21
3.10714355E+02
  0
LINE
  8
0
  6
CENTER
 62
2
 10
4.85000153E+01
 20
2.61028839E+02
 11
4.85000153E+01
 21
2.77617859E+02
  0
LINE
  8
0
 62
7
 10
7.25000126E+01
 20
2.50285429E+02
 11
4.14999654E+01
 21
2.49473664E+02
  0
LINE
  8
0
 62
7
 10
6.75000000E+01
 20
3.00499939E+02
 11
6.75000000E+01
 21
2.60499969E+02
  0
LINE
  8
0
  6
CENTER
 62
2
 10
5.73452759E+01
 20
2.68499939E+02
 11
3.98707581E+01
 21
2.68499939E+02
  0
LINE
  8
0
  6
CENTER
 62
2
 10
5.45000458E+01
 20
2.76257874E+02
 11
5.45000458E+01
 21
2.99844299E+02
  0
LINE
  8
0
 62
7
 10
4.15000000E+01
 20
2.49473663E+02
 11
4.15000000E+01
 21
3.11499939E+02
  0
LINE
  8
0
 62
7
 10
7.25000028E+01
 20
3.10714417E+02
 11
4.14999861E+01
 21
3.11526181E+02
  0
LINE
  8
0
 62
7
 10
6.55000000E+01
 20
2.58499969E+02
 11
4.15000000E+01
 21
2.58499969E+02
  0
LINE
  8
0
 62
7
 10
6.55000000E+01
 20
3.02499939E+02
 11
4.15000000E+01
 21
3.02499939E+02
  0
LINE
  8
0
  6
CENTER
 62
2
 10
6.39101715E+01
 20
2.87499878E+02
 11
4.45515442E+01
 21
2.87499878E+02
  0
LINE
  8
0
 62
7
 10
-6.97679584E+01
 20
2.68499913E+02
 11
-7.06339823E+01
 21
2.66999907E+02
  0
LINE
  8
0
 62
7
 10
-7.06339874E+01
 20
2.66999939E+02
 11
-7.23659821E+01
 21
2.66999939E+02
  0
LINE
  8
0
 62
7
 10
-7.23659566E+01
 20
2.66999887E+02
 11
-7.32319957E+01
 21
2.68499920E+02
  0
LINE
  8
0
 62
7
 10
-7.32319790E+01
 20
2.68499922E+02
 11
-7.23659704E+01
 21
2.69999902E+02
  0
LINE
  8
0
 62
7
 10
-7.06339874E+01
 20
2.69999939E+02
 11
-7.23659821E+01
 21
2.69999939E+02
  0
LINE
  8
0
 62
7
 10
-6.97679355E+01
 20
2.68499952E+02
 11
-7.06339594E+01
 21
2.69999958E+02
  0
LINE
  8
0
  6
CENTER
 62
2
 10
7.47269897E+01
 20
2.57000000E+02
 11
-9.76034546E+01
 21
2.57000000E+02
  0
LINE
  8
0
 62
7
 10
4.15000000E+01
 20
2.59649994E+02
 11
2.00000000E+01
 21
2.59649994E+02
  0
LINE
  8
0
 62
7
 10
4.15000000E+01
 20
2.54350006E+02
 11
2.00000000E+01
 21
2.54350006E+02
  0
LINE
  8
0
 62
7
 10
-2.55500008E+02
 20
2.89000000E+02
 11
-2.55500008E+02
 21
2.72000000E+02
  0
LINE
  8
0
 62
7
 10
-2.50000053E+02
 20
2.70500000E+02
 11
-2.48500069E+02
 21
2.70500000E+02
  0
LINE
  8
0
 62
7
 10
-2.49999992E+02
 20
2.90500000E+02
 11
-2.48500023E+02
 21
2.90500000E+02
  0
LINE
  8
0
 62
7
 10
4.15000000E+01
 20
2.53500031E+02
 11
2.00000000E+01
 21
2.53500031E+02
  0
LINE
  8
0
 62
7
 10
-2.61499992E+02
 20
2.71500000E+02
 11
-2.61499992E+02
 21
2.89500000E+02
  0
LINE
  8
0
 62
7
 10
-2.90500008E+02
 20
2.73000000E+02
 11
-2.90500008E+02
 21
2.87999817E+02
  0
LINE
  8
0
 62
7
 10
-2.89000008E+02
 20
2.71500000E+02
 11
-2.89000008E+02
 21
2.89500000E+02
  0
LINE
  8
0
 62
7
 10
-2.88999947E+02
 20
2.89500000E+02
 11
-2.81500000E+02
 21
2.89500000E+02
  0
LINE
  8
0
 62
2
 10
-2.89819954E+02
 20
2.88679993E+02
 11
-2.81500000E+02
 21
2.88679993E+02
  0
LINE
  8
0
 62
7
 10
-2.90499941E+02
 20
2.87999833E+02
 11
-2.88999884E+02
 21
2.89499845E+02
  0
LINE
  8
0
 62
7
 10
-2.88999947E+02
 20
2.71500000E+02
 11
-2.81500000E+02
 21
2.71500000E+02
  0
LINE
  8
0
 62
2
 10
-2.89819954E+02
 20
2.72320007E+02
 11
-2.81500000E+02
 21
2.72320007E+02
  0
LINE
  8
0
 62
7
 10
-2.90500039E+02
 20
2.73000067E+02
 11
-2.89000004E+02
 21
2.71500077E+02
  0
LINE
  8
0
 62
7
 10
-2.61499992E+02
 20
2.72320007E+02
 11
-2.58499992E+02
 21
2.72320007E+02
  0
LINE
  8
0
 62
7
 10
-2.58499992E+02
 20
2.72000000E+02
 11
-2.58499992E+02
 21
2.89000000E+02
  0
LINE
  8
0
 62
7
 10
6.13083954E+01
 20
2.90499878E+02
 11
4.76916962E+01
 21
2.90499878E+02
  0
LINE
  8
0
 62
7
 10
4.67679325E+01
 20
2.68499939E+02
 11
4.76339564E+01
 21
2.69999945E+02
  0
LINE
  8
0
 62
7
 10
4.76339874E+01
 20
2.69999939E+02
 11
4.93659821E+01
 21
2.69999939E+02
  0
LINE
  8
0
 62
7
 10
5.02319563E+01
 20
2.68499924E+02
 11
4.93659476E+01
 21
2.69999904E+02
  0
LINE
  8
0
 62
7
 10
4.93659689E+01
 20
2.66999900E+02
 11
5.02320081E+01
 21
2.68499933E+02
  0
LINE
  8
0
 62
7
 10
4.76339874E+01
 20
2.66999939E+02
 11
4.93659821E+01
 21
2.66999939E+02
  0
LINE
  8
0
 62
7
 10
4.67679356E+01
 20
2.68499915E+02
 11
4.76339595E+01
 21
2.66999908E+02
  0
LINE
  8
0
 62
7
 10
-2.58499992E+02
 20
2.72000000E+02
 11
-2.51500038E+02
 21
2.72000000E+02
  0
LINE
  8
0
 62
7
 10
-2.58499992E+02
 20
2.89000000E+02
 11
-2.51500038E+02
 21
2.89000000E+02
  0
LINE
  8
0
 62
7
 10
-2.51500043E+02
 20
2.71999994E+02
 11
-2.50000073E+02
 21
2.70500025E+02
  0
LINE
  8
0
 62
7
 10
-2.51500101E+02
 20
2.89000059E+02
 11
-2.50000067E+02
 21
2.90500093E+02
  0
LINE
  8
0
 62
7
 10
-2.61499992E+02
 20
2.88679993E+02
 11
-2.58499992E+02
 21
2.88679993E+02
  0
ARC
  8
0
 62
7
 10
-1.89499931E+02
 20
3.16938812E+02
 40
9.06113529E+00
 50
6.74489921E+01
 51
1.12550903E+02
  0
ARC
  8
0
 62
7
 10
-1.94712425E+02
 20
2.37525101E+02
 40
2.52511263E+00
 50
2.53478125E+02
 51
3.13479008E+02
  0
ARC
  8
0
 62
7
 10
-1.84287437E+02
 20
2.37525101E+02
 40
2.52511263E+00
 50
2.26520987E+02
 51
2.86521856E+02
  0
ARC
  8
0
 62
7
 10
-1.89499931E+02
 20
2.44061081E+02
 40
9.06113529E+00
 50
2.47449035E+02
 51
2.92550946E+02
  0
ARC
  8
0
 62
7
 10
-1.84287437E+02
 20
3.23474823E+02
 40
2.52511263E+00
 50
7.34780821E+01
 51
1.33478944E+02
  0
CIRCLE
  8
0
 62
7
 10
-1.12500000E+02
 20
2.91500031E+02
 40
6.99999952E+00
  0
CIRCLE
  8
0
 62
7
 10
-1.12500000E+02
 20
2.91500031E+02
 40
5.65999985E+00
  0
ARC
  8
0
 62
7
 10
-1.94712425E+02
 20
3.23474823E+02
 40
2.52511263E+00
 50
4.65209375E+01
 51
1.06521820E+02
  0
CIRCLE
  8
0
 62
2
 10
-1.12500000E+02
 20
2.91500031E+02
 40
6.57849932E+00
  0
CIRCLE
  8
0
 62
7
 10
-2.16500023E+02
 20
2.91500031E+02
 40
6.57849932E+00
  0
CIRCLE
  8
0
 62
7
 10
-2.16500023E+02
 20
2.91500031E+02
 40
5.72249985E+00
  0
ARC
  8
0
 62
7
 10
-2.48000023E+02
 20
2.96999939E+02
 40
5.00000000E-01
 50
8.99999818E+01
 51
1.79999964E+02
  0
ARC
  8
0
 62
7
 10
-2.43250023E+02
 20
2.97508545E+02
 40
2.50000000E-01
 50
9.19988093E+01
 51
1.79999964E+02
  0
ARC
  8
0
 62
7
 10
-2.35000023E+02
 20
2.99000000E+02
 40
5.00000000E-01
 50
8.99999818E+01
 51
1.79999964E+02
  0
ARC
  8
0
 62
7
 10
-2.35000023E+02
 20
2.62000000E+02
 40
5.00000000E-01
 50
1.79999977E+02
 51
2.69999974E+02
  0
ARC
  8
0
 62
7
 10
-2.43250023E+02
 20
2.63491455E+02
 40
2.50000000E-01
 50
1.79999977E+02
 51
2.68001132E+02
  0
ARC
  8
0
 62
7
 10
-2.48000023E+02
 20
2.64000000E+02
 40
5.00000000E-01
 50
1.79999977E+02
 51
2.69999974E+02
  0
ARC
  8
0
 62
7
 10
-8.85000000E+01
 20
3.00499939E+02
 40
2.00000000E+00
 50
8.99999818E+01
 51
1.79999964E+02
  0
ARC
  8
0
 62
7
 10
-8.85000000E+01
 20
2.60499969E+02
 40
2.00000000E+00
 50
1.79999977E+02
 51
2.70000028E+02
  0
CIRCLE
  8
0
 62
7
 10
-7.15000153E+01
 20
2.68499939E+02
 40
2.59999990E+00
  0
CIRCLE
  8
0
 62
2
 10
5.45000458E+01
 20
2.87499878E+02
 40
8.32999992E+00
  0
ARC
  8
0
 62
7
 10
7.40000000E+01
 20
2.61999939E+02
 40
5.00000000E-01
 50
2.70000073E+02
 51
5.46415133E-05
  0
ARC
  8
0
 62
7
 10
7.40000000E+01
 20
2.98999939E+02
 40
5.00000000E-01
 50
5.46415133E-05
 51
9.00000369E+01
  0
ARC
  8
0
 62
7
 10
6.55000000E+01
 20
2.60499969E+02
 40
2.00000000E+00
 50
2.70000073E+02
 51
5.46415133E-05
  0
ARC
  8
0
 62
7
 10
6.55000000E+01
 20
3.00499939E+02
 40
2.00000000E+00
 50
5.46415133E-05
 51
9.00000913E+01
  0
CIRCLE
  8
0
 62
7
 10
-7.15000153E+01
 20
2.68499939E+02
 40
5.00000000E+00
  0
CIRCLE
  8
0
 62
7
 10
4.85000153E+01
 20
2.68499939E+02
 40
2.59999990E+00
  0
CIRCLE
  8
0
 62
7
 10
4.85000153E+01
 20
2.68499939E+02
 40
5.00000000E+00
  0
CIRCLE
  8
0
 62
7
 10
5.45000458E+01
 20
2.87499878E+02
 40
8.71000004E+00
  0
CIRCLE
  8
0
 62
7
 10
5.45000458E+01
 20
2.87499878E+02
 40
7.44000006E+00
  0
CIRCLE
  8
0
 62
7
 10
-7.75000458E+01
 20
2.87499878E+02
 40
8.71000004E+00
  0
CIRCLE
  8
0
 62
7
 10
-7.75000458E+01
 20
2.87499878E+02
 40
7.44000006E+00
  0
CIRCLE
  8
0
 62
2
 10
-7.75000458E+01
 20
2.87499878E+02
 40
8.32999992E+00
  0
INSERT
  8
0
  2
PP1
  6
BYBLOCK
 62
0
 10
0.00000000E+00
 20
0.00000000E+00
 41
1.00000000E+00
 42
1.00000000E+00
 50
0.00000000E+00
  0
LINE
  8
0
 62
4
 10
-2.70500000E+02
 20
2.94000000E+02
 11
-2.70500000E+02
 21
2.67000000E+02
  0
LINE
  8
0
 62
4
 10
-2.81500000E+02
 20
2.94000000E+02
 11
-2.81500000E+02
 21
2.67000000E+02
  0
LINE
  8
0
 62
4
 10
-2.70500000E+02
 20
2.94000000E+02
 11
-2.81500000E+02
 21
2.94000000E+02
  0
LINE
  8
0
 62
4
 10
-2.70500000E+02
 20
2.67000000E+02
 11
-2.81500000E+02
 21
2.67000000E+02
  0
LINE
  8
0
 62
4
 10
-2.71705771E+02
 20
2.80500000E+02
 11
-2.80294229E+02
 21
2.80500000E+02
  0
ARC
  8
0
 62
4
 10
-2.62003607E+02
 20
2.73750000E+02
 40
1.94963929E+01
 50
1.59743842E+02
 51
2.00256158E+02
  0
ARC
  8
0
 62
4
 10
-2.62003607E+02
 20
2.87250000E+02
 40
1.94963929E+01
 50
1.59743842E+02
 51
2.00256158E+02
  0
ARC
  8
0
 62
4
 10
-2.89996393E+02
 20
2.87250000E+02
 40
1.94963929E+01
 50
3.39743842E+02
 51
2.02561580E+01
  0
ARC
  8
0
 62
4
 10
-2.89996393E+02
 20
2.73750000E+02
 40
1.94963929E+01
 50
3.39743842E+02
 51
2.02561580E+01
  0
LINE
  8
0
 62
7
 10
-2.70500000E+02
 20
2.89500000E+02
 11
-2.61499992E+02
 21
2.89500000E+02
  0
LINE
  8
0
 62
2
 10
-2.70500000E+02
 20
2.88679993E+02
 11
-2.61499992E+02
 21
2.88679993E+02
  0
LINE
  8
0
 62
7
 10
-2.70500000E+02
 20
2.71500000E+02
 11
-2.61499992E+02
 21
2.71500000E+02
  0
LINE
  8
0
 62
2
 10
-2.70500000E+02
 20
2.72320007E+02
 11
-2.61499992E+02
 21
2.72320007E+02
  0
LINE
  8
0
 62
6
 10
-3.26794917E+00
 20
2.75166671E+02
 11
-6.73205078E+00
 21
2.69166671E+02
  0
LINE
  8
0
 62
4
 10
5.00000000E+00
 20
2.73666671E+02
 11
-4.13397461E+00
 21
2.73666671E+02
  0
LINE
  8
0
  6
CENTER
 62
6
 10
4.00000000E+01
 20
2.72166671E+02
 11
-7.00000000E+00
 21
2.72166671E+02
  0
LINE
  8
0
 62
4
 10
5.00000000E+00
 20
2.70666671E+02
 11
-5.86602540E+00
 21
2.70666671E+02
  0
LINE
  8
0
 62
6
 10
-1.57320508E+01
 20
2.85833359E+02
 11
-1.22679492E+01
 21
2.91833359E+02
  0
LINE
  8
0
 62
4
 10
-2.40000000E+01
 20
2.87333360E+02
 11
-1.48660254E+01
 21
2.87333360E+02
  0
LINE
  8
0
  6
CENTER
 62
6
 10
-5.90000000E+01
 20
2.88833360E+02
 11
-1.20000000E+01
 21
2.88833360E+02
  0
LINE
  8
0
 62
4
 10
-2.40000000E+01
 20
2.90333360E+02
 11
-1.31339746E+01
 21
2.90333360E+02
  0
LINE
  8
0
 62
6
 10
9.99999997E+00
 20
2.46496710E+02
 11
9.99999997E+00
 21
2.48847747E+02
  0
LINE
  8
0
 62
6
 10
6.99999997E+00
 20
2.46496710E+02
 11
6.99999997E+00
 21
2.48847747E+02
  0
LINE
  8
0
 62
4
 10
1.05000000E+01
 20
2.46726425E+02
 11
1.05000000E+01
 21
2.48847747E+02
  0
LINE
  8
0
 62
4
 10
6.49999997E+00
 20
2.46726425E+02
 11
6.49999997E+00
 21
2.48847747E+02
  0
LINE
  8
0
 62
4
 10
2.00000000E+01
 20
2.48847747E+02
 11
2.00000000E+01
 21
2.61555744E+02
  0
LINE
  8
0
 62
4
 10
5.00000000E+00
 20
2.48847747E+02
 11
5.00000000E+00
 21
2.74477634E+02
  0
LINE
  8
0
 62
4
 10
3.50000000E+01
 20
2.61555744E+02
 11
3.50000000E+01
 21
2.73505204E+02
  0
LINE
  8
0
  6
CENTER
 62
6
 10
8.49999997E+00
 20
2.43384452E+02
 11
8.49999997E+00
 21
2.53650031E+02
  0
LINE
  8
0
  6
CENTER
 62
6
 10
1.65000000E+01
 20
2.43384452E+02
 11
1.65000000E+01
 21
2.53650031E+02
  0
LINE
  8
0
  6
CENTER
 62
6
 10
2.00000000E+01
 20
2.70588449E+02
 11
2.00000000E+01
 21
2.75588449E+02
  0
LINE
  8
0
 62
4
 10
2.00000000E+01
 20
2.48847747E+02
 11
5.00000001E+00
 21
2.48847747E+02
  0
LINE
  8
0
 62
4
 10
2.00000000E+01
 20
2.54662089E+02
 11
5.00000001E+00
 21
2.54662089E+02
  0
LINE
  8
0
 62
4
 10
3.50000000E+01
 20
2.61555744E+02
 11
5.00000001E+00
 21
2.61555744E+02
  0
LINE
  8
0
 62
4
 10
3.50000000E+01
 20
2.71699263E+02
 11
5.00000001E+00
 21
2.71699263E+02
  0
LINE
  8
0
 62
4
 10
9.10000000E+00
 20
2.74477634E+02
 11
5.00000000E+00
 21
2.74477634E+02
  0
LINE
  8
0
 62
4
 10
9.10000000E+00
 20
2.74303986E+02
 11
5.00000000E+00
 21
2.74303986E+02
  0
LINE
  8
0
 62
4
 10
3.50000000E+01
 20
2.73505204E+02
 11
2.41500000E+01
 21
2.73505204E+02
  0
POLYLINE
  8
0
 62
4
 66
1
  0
VERTEX
  8
0
 62
4
 10
6.49999997E+00
 20
2.46726425E+02
  0
VERTEX
  8
0
 62
4
 10
6.50805138E+00
 20
2.46695294E+02
  0
VERTEX
  8
0
 62
4
 10
6.53214079E+00
 20
2.46664413E+02
  0
VERTEX
  8
0
 62
4
 10
6.57207425E+00
 20
2.46634031E+02
  0
VERTEX
  8
0
 62
4
 10
6.62753023E+00
 20
2.46604394E+02
  0
VERTEX
  8
0
 62
4
 10
6.69806223E+00
 20
2.46575739E+02
  0
VERTEX
  8
0
 62
4
 10
6.78310238E+00
 20
2.46548297E+02
  0
VERTEX
  8
0
 62
4
 10
6.88196598E+00
 20
2.46522289E+02
  0
VERTEX
  8
0
 62
4
 10
6.99385703E+00
 20
2.46497925E+02
  0
VERTEX
  8
0
 62
4
 10
7.11787467E+00
 20
2.46475401E+02
  0
VERTEX
  8
0
 62
4
 10
7.25302036E+00
 20
2.46454898E+02
  0
VERTEX
  8
0
 62
4
 10
7.39820600E+00
 20
2.46436581E+02
  0
VERTEX
  8
0
 62
4
 10
7.55226264E+00
 20
2.46420597E+02
  0
VERTEX
  8
0
 62
4
 10
7.71394990E+00
 20
2.46407076E+02
  0
VERTEX
  8
0
 62
4
 10
7.88196597E+00
 20
2.46396127E+02
  0
VERTEX
  8
0
 62
4
 10
8.05495809E+00
 20
2.46387836E+02
  0
VERTEX
  8
0
 62
4
 10
8.23153343E+00
 20
2.46382272E+02
  0
VERTEX
  8
0
 62
4
 10
8.41027030E+00
 20
2.46379478E+02
  0
VERTEX
  8
0
 62
4
 10
8.58972962E+00
 20
2.46379478E+02
  0
VERTEX
  8
0
 62
4
 10
8.76846649E+00
 20
2.46382272E+02
  0
VERTEX
  8
0
 62
4
 10
8.94504183E+00
 20
2.46387836E+02
  0
VERTEX
  8
0
 62
4
 10
9.11803395E+00
 20
2.46396127E+02
  0
VERTEX
  8
0
 62
4
 10
9.28605002E+00
 20
2.46407076E+02
  0
VERTEX
  8
0
 62
4
 10
9.44773728E+00
 20
2.46420597E+02
  0
VERTEX
  8
0
 62
4
 10
9.60179392E+00
 20
2.46436581E+02
  0
VERTEX
  8
0
 62
4
 10
9.74697956E+00
 20
2.46454898E+02
  0
VERTEX
  8
0
 62
4
 10
9.88212526E+00
 20
2.46475401E+02
  0
VERTEX
  8
0
 62
4
 10
1.00061429E+01
 20
2.46497925E+02
  0
VERTEX
  8
0
 62
4
 10
1.01180340E+01
 20
2.46522289E+02
  0
VERTEX
  8
0
 62
4
 10
1.02168976E+01
 20
2.46548297E+02
  0
VERTEX
  8
0
 62
4
 10
1.03019377E+01
 20
2.46575739E+02
  0
VERTEX
  8
0
 62
4
 10
1.03724697E+01
 20
2.46604394E+02
  0
VERTEX
  8
0
 62
4
 10
1.04279257E+01
 20
2.46634031E+02
  0
VERTEX
  8
0
 62
4
 10
1.04678591E+01
 20
2.46664413E+02
  0
VERTEX
  8
0
 62
4
 10
1.04919486E+01
 20
2.46695294E+02
  0
VERTEX
  8
0
 62
4
 10
1.05000000E+01
 20
2.46726425E+02
  0
SEQEND
  8
0
  0
LINE
  8
0
 62
6
 10
1.80000000E+01
 20
2.46496710E+02
 11
1.80000000E+01
 21
2.48847747E+02
  0
LINE
  8
0
 62
6
 10
1.50000000E+01
 20
2.46496710E+02
 11
1.50000000E+01
 21
2.48847747E+02
  0
LINE
  8
0
 62
4
 10
1.85000000E+01
 20
2.46726425E+02
 11
1.85000000E+01
 21
2.48847747E+02
  0
LINE
  8
0
 62
4
 10
1.45000000E+01
 20
2.46726425E+02
 11
1.45000000E+01
 21
2.48847747E+02
  0
POLYLINE
  8
0
 62
4
 66
1
  0
VERTEX
  8
0
 62
4
 10
1.45000000E+01
 20
2.46726425E+02
  0
VERTEX
  8
0
 62
4
 10
1.45080514E+01
 20
2.46695294E+02
  0
VERTEX
  8
0
 62
4
 10
1.45321408E+01
 20
2.46664413E+02
  0
VERTEX
  8
0
 62
4
 10
1.45720743E+01
 20
2.46634031E+02
  0
VERTEX
  8
0
 62
4
 10
1.46275303E+01
 20
2.46604394E+02
  0
VERTEX
  8
0
 62
4
 10
1.46980623E+01
 20
2.46575739E+02
  0
VERTEX
  8
0
 62
4
 10
1.47831024E+01
 20
2.46548297E+02
  0
VERTEX
  8
0
 62
4
 10
1.48819660E+01
 20
2.46522289E+02
  0
VERTEX
  8
0
 62
4
 10
1.49938571E+01
 20
2.46497925E+02
  0
VERTEX
  8
0
 62
4
 10
1.51178747E+01
 20
2.46475401E+02
  0
VERTEX
  8
0
 62
4
 10
1.52530204E+01
 20
2.46454898E+02
  0
VERTEX
  8
0
 62
4
 10
1.53982060E+01
 20
2.46436581E+02
  0
VERTEX
  8
0
 62
4
 10
1.55522627E+01
 20
2.46420597E+02
  0
VERTEX
  8
0
 62
4
 10
1.57139499E+01
 20
2.46407076E+02
  0
VERTEX
  8
0
 62
4
 10
1.58819660E+01
 20
2.46396127E+02
  0
VERTEX
  8
0
 62
4
 10
1.60549581E+01
 20
2.46387836E+02
  0
VERTEX
  8
0
 62
4
 10
1.62315335E+01
 20
2.46382272E+02
  0
VERTEX
  8
0
 62
4
 10
1.64102703E+01
 20
2.46379478E+02
  0
VERTEX
  8
0
 62
4
 10
1.65897296E+01
 20
2.46379478E+02
  0
VERTEX
  8
0
 62
4
 10
1.67684665E+01
 20
2.46382272E+02
  0
VERTEX
  8
0
 62
4
 10
1.69450419E+01
 20
2.46387836E+02
  0
VERTEX
  8
0
 62
4
 10
1.71180340E+01
 20
2.46396127E+02
  0
VERTEX
  8
0
 62
4
 10
1.72860501E+01
 20
2.46407076E+02
  0
VERTEX
  8
0
 62
4
 10
1.74477373E+01
 20
2.46420597E+02
  0
VERTEX
  8
0
 62
4
 10
1.76017940E+01
 20
2.46436581E+02
  0
VERTEX
  8
0
 62
4
 10
1.77469796E+01
 20
2.46454898E+02
  0
VERTEX
  8
0
 62
4
 10
1.78821253E+01
 20
2.46475401E+02
  0
VERTEX
  8
0
 62
4
 10
1.80061429E+01
 20
2.46497925E+02
  0
VERTEX
  8
0
 62
4
 10
1.81180340E+01
 20
2.46522289E+02
  0
VERTEX
  8
0
 62
4
 10
1.82168976E+01
 20
2.46548297E+02
  0
VERTEX
  8
0
 62
4
 10
1.83019377E+01
 20
2.46575739E+02
  0
VERTEX
  8
0
 62
4
 10
1.83724697E+01
 20
2.46604394E+02
  0
VERTEX
  8
0
 62
4
 10
1.84279257E+01
 20
2.46634031E+02
  0
VERTEX
  8
0
 62
4
 10
1.84678592E+01
 20
2.46664413E+02
  0
VERTEX
  8
0
 62
4
 10
1.84919486E+01
 20
2.46695294E+02
  0
VERTEX
  8
0
 62
4
 10
1.85000000E+01
 20
2.46726425E+02
  0
SEQEND
  8
0
  0
LINE
  8
0
 62
4
 10
3.50000000E+01
 20
2.69849759E+02
 11
3.65000000E+01
 21
2.70852692E+02
  0
LINE
  8
0
 62
4
 10
3.65000000E+01
 20
2.70852692E+02
 11
3.65000000E+01
 21
2.73476594E+02
  0
LINE
  8
0
 62
4
 10
3.65000000E+01
 20
2.73083281E+02
 11
3.50000000E+01
 21
2.73788990E+02
  0
LINE
  8
0
 62
4
 10
3.65000000E+01
 20
2.73476594E+02
 11
3.50000000E+01
 21
2.74483583E+02
  0
LINE
  8
0
 62
4
 10
3.50000000E+01
 20
2.74483583E+02
 11
2.41500000E+01
 21
2.74483583E+02
  0
LINE
  8
0
 62
4
 10
3.50000000E+01
 20
2.73788990E+02
 11
2.41500000E+01
 21
2.73788990E+02
  0
LINE
  8
0
 62
4
 10
3.50000000E+01
 20
2.73505204E+02
 11
3.50000000E+01
 21
2.74477634E+02
  0
POLYLINE
  8
0
 62
4
 66
1
  0
VERTEX
  8
0
 62
4
 10
1.63000000E+01
 20
2.73136305E+02
  0
VERTEX
  8
0
 62
4
 10
1.64818150E+01
 20
2.73080458E+02
  0
VERTEX
  8
0
 62
4
 10
1.66915122E+01
 20
2.73027639E+02
  0
VERTEX
  8
0
 62
4
 10
1.69274299E+01
 20
2.72978269E+02
  0
VERTEX
  8
0
 62
4
 10
1.71876982E+01
 20
2.72932737E+02
  0
VERTEX
  8
0
 62
4
 10
1.74702545E+01
 20
2.72891406E+02
  0
VERTEX
  8
0
 62
4
 10
1.77728596E+01
 20
2.72854601E+02
  0
VERTEX
  8
0
 62
4
 10
1.80931151E+01
 20
2.72822616E+02
  0
VERTEX
  8
0
 62
4
 10
1.84284831E+01
 20
2.72795703E+02
  0
VERTEX
  8
0
 62
4
 10
1.87763056E+01
 20
2.72774077E+02
  0
VERTEX
  8
0
 62
4
 10
1.91338262E+01
 20
2.72757907E+02
  0
VERTEX
  8
0
 62
4
 10
1.94982113E+01
 20
2.72747323E+02
  0
VERTEX
  8
0
 62
4
 10
1.98665732E+01
 20
2.72742409E+02
  0
VERTEX
  8
0
 62
4
 10
2.02359925E+01
 20
2.72743202E+02
  0
VERTEX
  8
0
 62
4
 10
2.06035416E+01
 20
2.72749698E+02
  0
VERTEX
  8
0
 62
4
 10
2.09663074E+01
 20
2.72761844E+02
  0
VERTEX
  8
0
 62
4
 10
2.13214151E+01
 20
2.72779544E+02
  0
VERTEX
  8
0
 62
4
 10
2.16660504E+01
 20
2.72802658E+02
  0
VERTEX
  8
0
 62
4
 10
2.19974818E+01
 20
2.72831003E+02
  0
VERTEX
  8
0
 62
4
 10
2.23130829E+01
 20
2.72864354E+02
  0
VERTEX
  8
0
 62
4
 10
2.26103523E+01
 20
2.72902447E+02
  0
VERTEX
  8
0
 62
4
 10
2.28869343E+01
 20
2.72944980E+02
  0
VERTEX
  8
0
 62
4
 10
2.31406367E+01
 20
2.72991615E+02
  0
VERTEX
  8
0
 62
4
 10
2.33694490E+01
 20
2.73041984E+02
  0
VERTEX
  8
0
 62
4
 10
2.35715578E+01
 20
2.73095687E+02
  0
VERTEX
  8
0
 62
4
 10
2.37453613E+01
 20
2.73152299E+02
  0
VERTEX
  8
0
 62
4
 10
2.38894821E+01
 20
2.73211370E+02
  0
VERTEX
  8
0
 62
4
 10
2.40027781E+01
 20
2.73272433E+02
  0
VERTEX
  8
0
 62
4
 10
2.40843513E+01
 20
2.73335003E+02
  0
VERTEX
  8
0
 62
4
 10
2.41335552E+01
 20
2.73398586E+02
  0
VERTEX
  8
0
 62
4
 10
2.41500000E+01
 20
2.73462676E+02
  0
SEQEND
  8
0
  0
ARC
  8
0
 62
4
 10
1.99922617E+01
 20
2.64305570E+02
 40
1.18100000E+01
 50
8.99624577E+01
 51
1.09675998E+02
  0
ARC
  8
0
 62
4
 10
2.00077383E+01
 20
2.64305570E+02
 40
1.18100000E+01
 50
7.03240015E+01
 51
9.00375421E+01
  0
LINE
  8
0
 62
4
 10
2.41500000E+01
 20
2.75190601E+02
 11
2.41500000E+01
 21
2.73462676E+02
  0
LINE
  8
0
 62
4
 10
1.58500000E+01
 20
2.75190601E+02
 11
1.58500000E+01
 21
2.75051491E+02
  0
LINE
  8
0
 62
4
 10
2.40000000E+01
 20
2.73088449E+02
 11
2.40000000E+01
 21
2.73270679E+02
  0
POLYLINE
  8
0
 62
4
 66
1
  0
VERTEX
  8
0
 62
4
 10
1.63000000E+01
 20
2.72824527E+02
  0
VERTEX
  8
0
 62
4
 10
1.64493080E+01
 20
2.72768607E+02
  0
VERTEX
  8
0
 62
4
 10
1.66265767E+01
 20
2.72715206E+02
  0
VERTEX
  8
0
 62
4
 10
1.68304101E+01
 20
2.72664744E+02
  0
VERTEX
  8
0
 62
4
 10
1.70592032E+01
 20
2.72617619E+02
  0
VERTEX
  8
0
 62
4
 10
1.73111542E+01
 20
2.72574201E+02
  0
VERTEX
  8
0
 62
4
 10
1.75842792E+01
 20
2.72534833E+02
  0
VERTEX
  8
0
 62
4
 10
1.78764273E+01
 20
2.72499824E+02
  0
VERTEX
  8
0
 62
4
 10
1.81852979E+01
 20
2.72469451E+02
  0
VERTEX
  8
0
 62
4
 10
1.85084588E+01
 20
2.72443952E+02
  0
VERTEX
  8
0
 62
4
 10
1.88433652E+01
 20
2.72423528E+02
  0
VERTEX
  8
0
 62
4
 10
1.91873798E+01
 20
2.72408341E+02
  0
VERTEX
  8
0
 62
4
 10
1.95377935E+01
 20
2.72398509E+02
  0
VERTEX
  8
0
 62
4
 10
1.98918469E+01
 20
2.72394110E+02
  0
VERTEX
  8
0
 62
4
 10
2.02467521E+01
 20
2.72395179E+02
  0
VERTEX
  8
0
 62
4
 10
2.05997141E+01
 20
2.72401707E+02
  0
VERTEX
  8
0
 62
4
 10
2.09479536E+01
 20
2.72413643E+02
  0
VERTEX
  8
0
 62
4
 10
2.12887281E+01
 20
2.72430894E+02
  0
VERTEX
  8
0
 62
4
 10
2.16193544E+01
 20
2.72453322E+02
  0
VERTEX
  8
0
 62
4
 10
2.19372286E+01
 20
2.72480751E+02
  0
VERTEX
  8
0
 62
4
 10
2.22398477E+01
 20
2.72512966E+02
  0
VERTEX
  8
0
 62
4
 10
2.25248286E+01
 20
2.72549713E+02
  0
VERTEX
  8
0
 62
4
 10
2.27899272E+01
 20
2.72590702E+02
  0
VERTEX
  8
0
 62
4
 10
2.30330559E+01
 20
2.72635611E+02
  0
VERTEX
  8
0
 62
4
 10
2.32523002E+01
 20
2.72684086E+02
  0
VERTEX
  8
0
 62
4
 10
2.34459334E+01
 20
2.72735745E+02
  0
VERTEX
  8
0
 62
4
 10
2.36124309E+01
 20
2.72790181E+02
  0
VERTEX
  8
0
 62
4
 10
2.37504816E+01
 20
2.72846966E+02
  0
VERTEX
  8
0
 62
4
 10
2.38589982E+01
 20
2.72905653E+02
  0
VERTEX
  8
0
 62
4
 10
2.39371263E+01
 20
2.72965780E+02
  0
VERTEX
  8
0
 62
4
 10
2.39842506E+01
 20
2.73026872E+02
  0
VERTEX
  8
0
 62
4
 10
2.40000000E+01
 20
2.73088449E+02
  0
SEQEND
  8
0
  0
ARC
  8
0
 62
4
 10
2.21186056E+01
 20
2.63604360E+02
 40
1.25124521E+01
 50
9.49416351E+01
 51
1.08095416E+02
  0
ARC
  8
0
 62
4
 10
1.78813942E+01
 20
2.63604357E+02
 40
1.25124547E+01
 50
7.19045858E+01
 51
8.50583647E+01
  0
POLYLINE
  8
0
 62
4
 66
1
  0
VERTEX
  8
0
 62
4
 10
1.58500000E+01
 20
2.75195937E+02
  0
VERTEX
  8
0
 62
4
 10
1.58667067E+01
 20
2.75131339E+02
  0
VERTEX
  8
0
 62
4
 10
1.59166922E+01
 20
2.75067262E+02
  0
VERTEX
  8
0
 62
4
 10
1.59995541E+01
 20
2.75004220E+02
  0
VERTEX
  8
0
 62
4
 10
1.61146253E+01
 20
2.74942722E+02
  0
VERTEX
  8
0
 62
4
 10
1.62609792E+01
 20
2.74883263E+02
  0
VERTEX
  8
0
 62
4
 10
1.64374375E+01
 20
2.74826321E+02
  0
VERTEX
  8
0
 62
4
 10
1.66425795E+01
 20
2.74772355E+02
  0
VERTEX
  8
0
 62
4
 10
1.68747534E+01
 20
2.74721800E+02
  0
VERTEX
  8
0
 62
4
 10
1.71320900E+01
 20
2.74675062E+02
  0
VERTEX
  8
0
 62
4
 10
1.74125173E+01
 20
2.74632518E+02
  0
VERTEX
  8
0
 62
4
 10
1.77137775E+01
 20
2.74594510E+02
  0
VERTEX
  8
0
 62
4
 10
1.80334450E+01
 20
2.74561345E+02
  0
VERTEX
  8
0
 62
4
 10
1.83689461E+01
 20
2.74533289E+02
  0
VERTEX
  8
0
 62
4
 10
1.87175795E+01
 20
2.74510568E+02
  0
VERTEX
  8
0
 62
4
 10
1.90765381E+01
 20
2.74493365E+02
  0
VERTEX
  8
0
 62
4
 10
1.94429319E+01
 20
2.74481819E+02
  0
VERTEX
  8
0
 62
4
 10
1.98138109E+01
 20
2.74476023E+02
  0
VERTEX
  8
0
 62
4
 10
2.01861890E+01
 20
2.74476023E+02
  0
VERTEX
  8
0
 62
4
 10
2.05570680E+01
 20
2.74481819E+02
  0
VERTEX
  8
0
 62
4
 10
2.09234619E+01
 20
2.74493365E+02
  0
VERTEX
  8
0
 62
4
 10
2.12824205E+01
 20
2.74510568E+02
  0
VERTEX
  8
0
 62
4
 10
2.16310539E+01
 20
2.74533289E+02
  0
VERTEX
  8
0
 62
4
 10
2.19665549E+01
 20
2.74561345E+02
  0
VERTEX
  8
0
 62
4
 10
2.22862225E+01
 20
2.74594510E+02
  0
VERTEX
  8
0
 62
4
 10
2.25874827E+01
 20
2.74632518E+02
  0
VERTEX
  8
0
 62
4
 10
2.28679100E+01
 20
2.74675062E+02
  0
VERTEX
  8
0
 62
4
 10
2.31252466E+01
 20
2.74721800E+02
  0
VERTEX
  8
0
 62
4
 10
2.33574205E+01
 20
2.74772355E+02
  0
VERTEX
  8
0
 62
4
 10
2.35625625E+01
 20
2.74826321E+02
  0
VERTEX
  8
0
 62
4
 10
2.37390208E+01
 20
2.74883263E+02
  0
VERTEX
  8
0
 62
4
 10
2.38853747E+01
 20
2.74942722E+02
  0
VERTEX
  8
0
 62
4
 10
2.40004459E+01
 20
2.75004220E+02
  0
VERTEX
  8
0
 62
4
 10
2.40833078E+01
 20
2.75067262E+02
  0
VERTEX
  8
0
 62
4
 10
2.41332933E+01
 20
2.75131339E+02
  0
VERTEX
  8
0
 62
4
 10
2.41500000E+01
 20
2.75195937E+02
  0
SEQEND
  8
0
  0
ARC
  8
0
 62
4
 10
2.39000000E+01
 20
2.75190601E+02
 40
2.50000000E-01
 50
0.00000000E+00
 51
7.03240015E+01
  0
ARC
  8
0
 62
4
 10
1.61000000E+01
 20
2.75190601E+02
 40
2.50000000E-01
 50
1.09675998E+02
 51
1.80000000E+02
  0
LINE
  8
0
 62
4
 10
1.63000000E+01
 20
2.73465488E+02
 11
1.63000000E+01
 21
2.72480680E+02
  0
LINE
  8
0
 62
4
 10
8.70000000E+00
 20
2.73465488E+02
 11
8.70000000E+00
 21
2.72480680E+02
  0
POLYLINE
  8
0
 62
4
 66
1
  0
VERTEX
  8
0
 62
4
 10
8.70000000E+00
 20
2.72480680E+02
  0
VERTEX
  8
0
 62
4
 10
8.71529768E+00
 20
2.72421530E+02
  0
VERTEX
  8
0
 62
4
 10
8.76106756E+00
 20
2.72362857E+02
  0
VERTEX
  8
0
 62
4
 10
8.83694113E+00
 20
2.72305132E+02
  0
VERTEX
  8
0
 62
4
 10
8.94230749E+00
 20
2.72248821E+02
  0
VERTEX
  8
0
 62
4
 10
9.07631830E+00
 20
2.72194376E+02
  0
VERTEX
  8
0
 62
4
 10
9.23789458E+00
 20
2.72142237E+02
  0
VERTEX
  8
0
 62
4
 10
9.42573541E+00
 20
2.72092822E+02
  0
VERTEX
  8
0
 62
4
 10
9.63832842E+00
 20
2.72046531E+02
  0
VERTEX
  8
0
 62
4
 10
9.87396192E+00
 20
2.72003734E+02
  0
VERTEX
  8
0
 62
4
 10
1.01307387E+01
 20
2.71964778E+02
  0
VERTEX
  8
0
 62
4
 10
1.04065915E+01
 20
2.71929976E+02
  0
VERTEX
  8
0
 62
4
 10
1.06992991E+01
 20
2.71899608E+02
  0
VERTEX
  8
0
 62
4
 10
1.10065049E+01
 20
2.71873918E+02
  0
VERTEX
  8
0
 62
4
 10
1.13257354E+01
 20
2.71853113E+02
  0
VERTEX
  8
0
 62
4
 10
1.16544204E+01
 20
2.71837361E+02
  0
VERTEX
  8
0
 62
4
 10
1.19899136E+01
 20
2.71826789E+02
  0
VERTEX
  8
0
 62
4
 10
1.23295136E+01
 20
2.71821481E+02
  0
VERTEX
  8
0
 62
4
 10
1.26704863E+01
 20
2.71821481E+02
  0
VERTEX
  8
0
 62
4
 10
1.30100864E+01
 20
2.71826789E+02
  0
VERTEX
  8
0
 62
4
 10
1.33455795E+01
 20
2.71837361E+02
  0
VERTEX
  8
0
 62
4
 10
1.36742646E+01
 20
2.71853113E+02
  0
VERTEX
  8
0
 62
4
 10
1.39934951E+01
 20
2.71873918E+02
  0
VERTEX
  8
0
 62
4
 10
1.43007009E+01
 20
2.71899608E+02
  0
VERTEX
  8
0
 62
4
 10
1.45934085E+01
 20
2.71929976E+02
  0
VERTEX
  8
0
 62
4
 10
1.48692612E+01
 20
2.71964778E+02
  0
VERTEX
  8
0
 62
4
 10
1.51260380E+01
 20
2.72003734E+02
  0
VERTEX
  8
0
 62
4
 10
1.53616716E+01
 20
2.72046531E+02
  0
VERTEX
  8
0
 62
4
 10
1.55742646E+01
 20
2.72092822E+02
  0
VERTEX
  8
0
 62
4
 10
1.57621054E+01
 20
2.72142237E+02
  0
VERTEX
  8
0
 62
4
 10
1.59236817E+01
 20
2.72194376E+02
  0
VERTEX
  8
0
 62
4
 10
1.60576925E+01
 20
2.72248821E+02
  0
VERTEX
  8
0
 62
4
 10
1.61630589E+01
 20
2.72305132E+02
  0
VERTEX
  8
0
 62
4
 10
1.62389324E+01
 20
2.72362857E+02
  0
VERTEX
  8
0
 62
4
 10
1.62847023E+01
 20
2.72421530E+02
  0
VERTEX
  8
0
 62
4
 10
1.63000000E+01
 20
2.72480680E+02
  0
SEQEND
  8
0
  0
POLYLINE
  8
0
 62
4
 66
1
  0
VERTEX
  8
0
 62
4
 10
9.09999999E+00
 20
2.73760179E+02
  0
VERTEX
  8
0
 62
4
 10
8.96341833E+00
 20
2.73706890E+02
  0
VERTEX
  8
0
 62
4
 10
8.85447046E+00
 20
2.73651714E+02
  0
VERTEX
  8
0
 62
4
 10
8.77400768E+00
 20
2.73595084E+02
  0
VERTEX
  8
0
 62
4
 10
8.72265870E+00
 20
2.73537441E+02
  0
VERTEX
  8
0
 62
4
 10
8.70082475E+00
 20
2.73479235E+02
  0
VERTEX
  8
0
 62
4
 10
8.70867642E+00
 20
2.73420922E+02
  0
VERTEX
  8
0
 62
4
 10
8.74615237E+00
 20
2.73362958E+02
  0
VERTEX
  8
0
 62
4
 10
8.81295978E+00
 20
2.73305795E+02
  0
VERTEX
  8
0
 62
4
 10
8.90857662E+00
 20
2.73249879E+02
  0
VERTEX
  8
0
 62
4
 10
9.03225578E+00
 20
2.73195648E+02
  0
VERTEX
  8
0
 62
4
 10
9.18303086E+00
 20
2.73143526E+02
  0
VERTEX
  8
0
 62
4
 10
9.35972376E+00
 20
2.73093919E+02
  0
VERTEX
  8
0
 62
4
 10
9.56095384E+00
 20
2.73047215E+02
  0
VERTEX
  8
0
 62
4
 10
9.78514876E+00
 20
2.73003780E+02
  0
VERTEX
  8
0
 62
4
 10
1.00305567E+01
 20
2.72963953E+02
  0
VERTEX
  8
0
 62
4
 10
1.02952602E+01
 20
2.72928044E+02
  0
VERTEX
  8
0
 62
4
 10
1.05771908E+01
 20
2.72896335E+02
  0
VERTEX
  8
0
 62
4
 10
1.08741457E+01
 20
2.72869073E+02
  0
VERTEX
  8
0
 62
4
 10
1.11838046E+01
 20
2.72846471E+02
  0
VERTEX
  8
0
 62
4
 10
1.15037478E+01
 20
2.72828706E+02
  0
VERTEX
  8
0
 62
4
 10
1.18314754E+01
 20
2.72815917E+02
  0
VERTEX
  8
0
 62
4
 10
1.21644267E+01
 20
2.72808203E+02
  0
VERTEX
  8
0
 62
4
 10
1.25000000E+01
 20
2.72805625E+02
  0
VERTEX
  8
0
 62
4
 10
1.28355734E+01
 20
2.72808203E+02
  0
VERTEX
  8
0
 62
4
 10
1.31685246E+01
 20
2.72815917E+02
  0
VERTEX
  8
0
 62
4
 10
1.34962523E+01
 20
2.72828706E+02
  0
VERTEX
  8
0
 62
4
 10
1.38161955E+01
 20
2.72846471E+02
  0
VERTEX
  8
0
 62
4
 10
1.41258543E+01
 20
2.72869073E+02
  0
VERTEX
  8
0
 62
4
 10
1.44228092E+01
 20
2.72896335E+02
  0
VERTEX
  8
0
 62
4
 10
1.47047399E+01
 20
2.72928044E+02
  0
VERTEX
  8
0
 62
4
 10
1.49694433E+01
 20
2.72963953E+02
  0
VERTEX
  8
0
 62
4
 10
1.52148513E+01
 20
2.73003780E+02
  0
VERTEX
  8
0
 62
4
 10
1.54390462E+01
 20
2.73047215E+02
  0
VERTEX
  8
0
 62
4
 10
1.56402763E+01
 20
2.73093919E+02
  0
VERTEX
  8
0
 62
4
 10
1.58169692E+01
 20
2.73143526E+02
  0
VERTEX
  8
0
 62
4
 10
1.59677442E+01
 20
2.73195648E+02
  0
VERTEX
  8
0
 62
4
 10
1.60914234E+01
 20
2.73249879E+02
  0
VERTEX
  8
0
 62
4
 10
1.61870402E+01
 20
2.73305795E+02
  0
VERTEX
  8
0
 62
4
 10
1.62538476E+01
 20
2.73362958E+02
  0
VERTEX
  8
0
 62
4
 10
1.62913236E+01
 20
2.73420922E+02
  0
VERTEX
  8
0
 62
4
 10
1.62991752E+01
 20
2.73479235E+02
  0
VERTEX
  8
0
 62
4
 10
1.62773413E+01
 20
2.73537441E+02
  0
VERTEX
  8
0
 62
4
 10
1.62259923E+01
 20
2.73595084E+02
  0
VERTEX
  8
0
 62
4
 10
1.61455295E+01
 20
2.73651714E+02
  0
VERTEX
  8
0
 62
4
 10
1.60365817E+01
 20
2.73706890E+02
  0
VERTEX
  8
0
 62
4
 10
1.59000000E+01
 20
2.73760179E+02
  0
SEQEND
  8
0
  0
LINE
  8
0
 62
4
 10
1.59000000E+01
 20
2.74739240E+02
 11
1.59000000E+01
 21
2.73465488E+02
  0
LINE
  8
0
 62
4
 10
9.10000000E+00
 20
2.74739240E+02
 11
9.10000000E+00
 21
2.73465488E+02
  0
POLYLINE
  8
0
 62
4
 66
1
  0
VERTEX
  8
0
 62
4
 10
9.10000000E+00
 20
2.73465488E+02
  0
VERTEX
  8
0
 62
4
 10
9.11368740E+00
 20
2.73412565E+02
  0
VERTEX
  8
0
 62
4
 10
9.15463940E+00
 20
2.73360067E+02
  0
VERTEX
  8
0
 62
4
 10
9.22252627E+00
 20
2.73308419E+02
  0
VERTEX
  8
0
 62
4
 10
9.31680144E+00
 20
2.73258035E+02
  0
VERTEX
  8
0
 62
4
 10
9.43670584E+00
 20
2.73209321E+02
  0
VERTEX
  8
0
 62
4
 10
9.58127409E+00
 20
2.73162670E+02
  0
VERTEX
  8
0
 62
4
 10
9.74934221E+00
 20
2.73118457E+02
  0
VERTEX
  8
0
 62
4
 10
9.93955701E+00
 20
2.73077038E+02
  0
VERTEX
  8
0
 62
4
 10
1.01503870E+01
 20
2.73038747E+02
  0
VERTEX
  8
0
 62
4
 10
1.03801347E+01
 20
2.73003892E+02
  0
VERTEX
  8
0
 62
4
 10
1.06269502E+01
 20
2.72972753E+02
  0
VERTEX
  8
0
 62
4
 10
1.08888465E+01
 20
2.72945581E+02
  0
VERTEX
  8
0
 62
4
 10
1.11637149E+01
 20
2.72922595E+02
  0
VERTEX
  8
0
 62
4
 10
1.14493422E+01
 20
2.72903981E+02
  0
VERTEX
  8
0
 62
4
 10
1.17434288E+01
 20
2.72889887E+02
  0
VERTEX
  8
0
 62
4
 10
1.20436069E+01
 20
2.72880427E+02
  0
VERTEX
  8
0
 62
4
 10
1.23474596E+01
 20
2.72875679E+02
  0
VERTEX
  8
0
 62
4
 10
1.26525404E+01
 20
2.72875679E+02
  0
VERTEX
  8
0
 62
4
 10
1.29563931E+01
 20
2.72880427E+02
  0
VERTEX
  8
0
 62
4
 10
1.32565712E+01
 20
2.72889887E+02
  0
VERTEX
  8
0
 62
4
 10
1.35506578E+01
 20
2.72903981E+02
  0
VERTEX
  8
0
 62
4
 10
1.38362851E+01
 20
2.72922595E+02
  0
VERTEX
  8
0
 62
4
 10
1.41111534E+01
 20
2.72945581E+02
  0
VERTEX
  8
0
 62
4
 10
1.43730497E+01
 20
2.72972753E+02
  0
VERTEX
  8
0
 62
4
 10
1.46198653E+01
 20
2.73003892E+02
  0
VERTEX
  8
0
 62
4
 10
1.48496130E+01
 20
2.73038747E+02
  0
VERTEX
  8
0
 62
4
 10
1.50604430E+01
 20
2.73077038E+02
  0
VERTEX
  8
0
 62
4
 10
1.52506578E+01
 20
2.73118457E+02
  0
VERTEX
  8
0
 62
4
 10
1.54187259E+01
 20
2.73162670E+02
  0
VERTEX
  8
0
 62
4
 10
1.55632941E+01
 20
2.73209321E+02
  0
VERTEX
  8
0
 62
4
 10
1.56831986E+01
 20
2.73258035E+02
  0
VERTEX
  8
0
 62
4
 10
1.57774737E+01
 20
2.73308419E+02
  0
VERTEX
  8
0
 62
4
 10
1.58453606E+01
 20
2.73360067E+02
  0
VERTEX
  8
0
 62
4
 10
1.58863126E+01
 20
2.73412565E+02
  0
VERTEX
  8
0
 62
4
 10
1.59000000E+01
 20
2.73465488E+02
  0
SEQEND
  8
0
  0
ARC
  8
0
 62
4
 10
1.25000000E+01
 20
2.64199027E+02
 40
1.18100000E+01
 50
7.71724899E+01
 51
1.02827510E+02
  0
ARC
  8
0
 62
4
 10
1.00999997E+01
 20
2.74739240E+02
 40
1.00000000E+00
 50
1.02827510E+02
 51
1.80000000E+02
  0
ARC
  8
0
 62
4
 10
1.49000003E+01
 20
2.74739240E+02
 40
1.00000000E+00
 50
3.60000000E+02
 51
7.71724899E+01
  0
ARC
  8
0
 62
4
 10
1.46217535E+01
 20
2.63479884E+02
 40
1.25306621E+01
 50
9.49686598E+01
 51
1.08083352E+02
  0
ARC
  8
0
 62
4
 10
1.03782464E+01
 20
2.63479883E+02
 40
1.25306626E+01
 50
7.19166483E+01
 51
8.50313400E+01
  0
LINE
  8
0
  6
CENTER
 62
6
 10
2.25000000E+01
 20
2.73088449E+02
 11
1.75000000E+01
 21
2.73088449E+02
  0
LINE
  8
0
  6
CENTER
 62
6
 10
1.25000000E+01
 20
2.69980680E+02
 11
1.25000000E+01
 21
2.74980680E+02
  0
LINE
  8
0
  6
CENTER
 62
6
 10
1.50000000E+01
 20
2.72480680E+02
 11
1.00000000E+01
 21
2.72480680E+02
  0
LINE
  8
0
  6
CENTER
 62
6
 10
2.75000000E+01
 20
2.69980680E+02
 11
2.75000000E+01
 21
2.74980680E+02
  0
LINE
  8
0
  6
CENTER
 62
6
 10
3.00000000E+01
 20
2.72480680E+02
 11
2.50000000E+01
 21
2.72480680E+02
  0
LINE
  8
0
 62
4
 10
8.70688940E+00
 20
2.73505204E+02
 11
5.00000000E+00
 21
2.73505204E+02
  0
LINE
  8
0
 62
6
 10
-2.90000000E+01
 20
3.14503320E+02
 11
-2.90000000E+01
 21
3.12152284E+02
  0
LINE
  8
0
 62
6
 10
-2.60000000E+01
 20
3.14503320E+02
 11
-2.60000000E+01
 21
3.12152284E+02
  0
LINE
  8
0
 62
4
 10
-2.95000000E+01
 20
3.14273605E+02
 11
-2.95000000E+01
 21
3.12152284E+02
  0
LINE
  8
0
 62
4
 10
-2.55000000E+01
 20
3.14273605E+02
 11
-2.55000000E+01
 21
3.12152284E+02
  0
LINE
  8
0
 62
4
 10
-3.90000000E+01
 20
3.12152284E+02
 11
-3.90000000E+01
 21
2.99444287E+02
  0
LINE
  8
0
 62
4
 10
-2.40000000E+01
 20
3.12152284E+02
 11
-2.40000000E+01
 21
2.86522396E+02
  0
LINE
  8
0
 62
4
 10
-5.40000000E+01
 20
2.99444287E+02
 11
-5.40000000E+01
 21
2.87494826E+02
  0
LINE
  8
0
  6
CENTER
 62
6
 10
-2.75000000E+01
 20
3.17615579E+02
 11
-2.75000000E+01
 21
3.07350000E+02
  0
LINE
  8
0
  6
CENTER
 62
6
 10
-3.55000000E+01
 20
3.17615579E+02
 11
-3.55000000E+01
 21
3.07350000E+02
  0
LINE
  8
0
  6
CENTER
 62
6
 10
-3.90000000E+01
 20
2.90411582E+02
 11
-3.90000000E+01
 21
2.85411582E+02
  0
LINE
  8
0
 62
4
 10
-3.90000000E+01
 20
3.12152284E+02
 11
-2.40000000E+01
 21
3.12152284E+02
  0
LINE
  8
0
 62
4
 10
-3.90000000E+01
 20
3.06337941E+02
 11
-2.40000000E+01
 21
3.06337941E+02
  0
LINE
  8
0
 62
4
 10
-5.40000000E+01
 20
2.99444287E+02
 11
-2.40000000E+01
 21
2.99444287E+02
  0
LINE
  8
0
 62
4
 10
-5.40000000E+01
 20
2.89300767E+02
 11
-2.40000000E+01
 21
2.89300767E+02
  0
LINE
  8
0
 62
4
 10
-2.81000000E+01
 20
2.86522396E+02
 11
-2.40000000E+01
 21
2.86522396E+02
  0
LINE
  8
0
 62
4
 10
-2.81000000E+01
 20
2.86696044E+02
 11
-2.40000000E+01
 21
2.86696044E+02
  0
LINE
  8
0
 62
4
 10
-5.40000000E+01
 20
2.87494826E+02
 11
-4.31500000E+01
 21
2.87494826E+02
  0
POLYLINE
  8
0
 62
4
 66
1
  0
VERTEX
  8
0
 62
4
 10
-2.55000000E+01
 20
3.14273605E+02
  0
VERTEX
  8
0
 62
4
 10
-2.55080514E+01
 20
3.14304736E+02
  0
VERTEX
  8
0
 62
4
 10
-2.55321408E+01
 20
3.14335617E+02
  0
VERTEX
  8
0
 62
4
 10
-2.55720743E+01
 20
3.14365999E+02
  0
VERTEX
  8
0
 62
4
 10
-2.56275303E+01
 20
3.14395636E+02
  0
VERTEX
  8
0
 62
4
 10
-2.56980623E+01
 20
3.14424291E+02
  0
VERTEX
  8
0
 62
4
 10
-2.57831024E+01
 20
3.14451733E+02
  0
VERTEX
  8
0
 62
4
 10
-2.58819660E+01
 20
3.14477741E+02
  0
VERTEX
  8
0
 62
4
 10
-2.59938571E+01
 20
3.14502105E+02
  0
VERTEX
  8
0
 62
4
 10
-2.61178747E+01
 20
3.14524629E+02
  0
VERTEX
  8
0
 62
4
 10
-2.62530204E+01
 20
3.14545132E+02
  0
VERTEX
  8
0
 62
4
 10
-2.63982060E+01
 20
3.14563449E+02
  0
VERTEX
  8
0
 62
4
 10
-2.65522627E+01
 20
3.14579433E+02
  0
VERTEX
  8
0
 62
4
 10
-2.67139499E+01
 20
3.14592954E+02
  0
VERTEX
  8
0
 62
4
 10
-2.68819660E+01
 20
3.14603903E+02
  0
VERTEX
  8
0
 62
4
 10
-2.70549581E+01
 20
3.14612194E+02
  0
VERTEX
  8
0
 62
4
 10
-2.72315335E+01
 20
3.14617758E+02
  0
VERTEX
  8
0
 62
4
 10
-2.74102703E+01
 20
3.14620552E+02
  0
VERTEX
  8
0
 62
4
 10
-2.75897296E+01
 20
3.14620552E+02
  0
VERTEX
  8
0
 62
4
 10
-2.77684665E+01
 20
3.14617758E+02
  0
VERTEX
  8
0
 62
4
 10
-2.79450419E+01
 20
3.14612194E+02
  0
VERTEX
  8
0
 62
4
 10
-2.81180340E+01
 20
3.14603903E+02
  0
VERTEX
  8
0
 62
4
 10
-2.82860501E+01
 20
3.14592954E+02
  0
VERTEX
  8
0
 62
4
 10
-2.84477373E+01
 20
3.14579433E+02
  0
VERTEX
  8
0
 62
4
 10
-2.86017940E+01
 20
3.14563449E+02
  0
VERTEX
  8
0
 62
4
 10
-2.87469796E+01
 20
3.14545132E+02
  0
VERTEX
  8
0
 62
4
 10
-2.88821253E+01
 20
3.14524629E+02
  0
VERTEX
  8
0
 62
4
 10
-2.90061429E+01
 20
3.14502105E+02
  0
VERTEX
  8
0
 62
4
 10
-2.91180340E+01
 20
3.14477741E+02
  0
VERTEX
  8
0
 62
4
 10
-2.92168976E+01
 20
3.14451733E+02
  0
VERTEX
  8
0
 62
4
 10
-2.93019377E+01
 20
3.14424291E+02
  0
VERTEX
  8
0
 62
4
 10
-2.93724697E+01
 20
3.14395636E+02
  0
VERTEX
  8
0
 62
4
 10
-2.94279257E+01
 20
3.14365999E+02
  0
VERTEX
  8
0
 62
4
 10
-2.94678592E+01
 20
3.14335617E+02
  0
VERTEX
  8
0
 62
4
 10
-2.94919486E+01
 20
3.14304736E+02
  0
VERTEX
  8
0
 62
4
 10
-2.95000000E+01
 20
3.14273605E+02
  0
SEQEND
  8
0
  0
LINE
  8
0
 62
6
 10
-3.70000000E+01
 20
3.14503320E+02
 11
-3.70000000E+01
 21
3.12152284E+02
  0
LINE
  8
0
 62
6
 10
-3.40000000E+01
 20
3.14503320E+02
 11
-3.40000000E+01
 21
3.12152284E+02
  0
LINE
  8
0
 62
4
 10
-3.75000000E+01
 20
3.14273605E+02
 11
-3.75000000E+01
 21
3.12152284E+02
  0
LINE
  8
0
 62
4
 10
-3.35000000E+01
 20
3.14273605E+02
 11
-3.35000000E+01
 21
3.12152284E+02
  0
POLYLINE
  8
0
 62
4
 66
1
  0
VERTEX
  8
0
 62
4
 10
-3.35000000E+01
 20
3.14273605E+02
  0
VERTEX
  8
0
 62
4
 10
-3.35080514E+01
 20
3.14304736E+02
  0
VERTEX
  8
0
 62
4
 10
-3.35321408E+01
 20
3.14335617E+02
  0
VERTEX
  8
0
 62
4
 10
-3.35720743E+01
 20
3.14365999E+02
  0
VERTEX
  8
0
 62
4
 10
-3.36275303E+01
 20
3.14395636E+02
  0
VERTEX
  8
0
 62
4
 10
-3.36980623E+01
 20
3.14424291E+02
  0
VERTEX
  8
0
 62
4
 10
-3.37831024E+01
 20
3.14451733E+02
  0
VERTEX
  8
0
 62
4
 10
-3.38819660E+01
 20
3.14477741E+02
  0
VERTEX
  8
0
 62
4
 10
-3.39938571E+01
 20
3.14502105E+02
  0
VERTEX
  8
0
 62
4
 10
-3.41178747E+01
 20
3.14524629E+02
  0
VERTEX
  8
0
 62
4
 10
-3.42530204E+01
 20
3.14545132E+02
  0
VERTEX
  8
0
 62
4
 10
-3.43982060E+01
 20
3.14563449E+02
  0
VERTEX
  8
0
 62
4
 10
-3.45522627E+01
 20
3.14579433E+02
  0
VERTEX
  8
0
 62
4
 10
-3.47139499E+01
 20
3.14592954E+02
  0
VERTEX
  8
0
 62
4
 10
-3.48819660E+01
 20
3.14603903E+02
  0
VERTEX
  8
0
 62
4
 10
-3.50549581E+01
 20
3.14612194E+02
  0
VERTEX
  8
0
 62
4
 10
-3.52315335E+01
 20
3.14617758E+02
  0
VERTEX
  8
0
 62
4
 10
-3.54102703E+01
 20
3.14620552E+02
  0
VERTEX
  8
0
 62
4
 10
-3.55897296E+01
 20
3.14620552E+02
  0
VERTEX
  8
0
 62
4
 10
-3.57684665E+01
 20
3.14617758E+02
  0
VERTEX
  8
0
 62
4
 10
-3.59450419E+01
 20
3.14612194E+02
  0
VERTEX
  8
0
 62
4
 10
-3.61180340E+01
 20
3.14603903E+02
  0
VERTEX
  8
0
 62
4
 10
-3.62860501E+01
 20
3.14592954E+02
  0
VERTEX
  8
0
 62
4
 10
-3.64477373E+01
 20
3.14579433E+02
  0
VERTEX
  8
0
 62
4
 10
-3.66017940E+01
 20
3.14563449E+02
  0
VERTEX
  8
0
 62
4
 10
-3.67469796E+01
 20
3.14545132E+02
  0
VERTEX
  8
0
 62
4
 10
-3.68821253E+01
 20
3.14524629E+02
  0
VERTEX
  8
0
 62
4
 10
-3.70061429E+01
 20
3.14502105E+02
  0
VERTEX
  8
0
 62
4
 10
-3.71180340E+01
 20
3.14477741E+02
  0
VERTEX
  8
0
 62
4
 10
-3.72168976E+01
 20
3.14451733E+02
  0
VERTEX
  8
0
 62
4
 10
-3.73019377E+01
 20
3.14424291E+02
  0
VERTEX
  8
0
 62
4
 10
-3.73724697E+01
 20
3.14395636E+02
  0
VERTEX
  8
0
 62
4
 10
-3.74279257E+01
 20
3.14365999E+02
  0
VERTEX
  8
0
 62
4
 10
-3.74678592E+01
 20
3.14335617E+02
  0
VERTEX
  8
0
 62
4
 10
-3.74919486E+01
 20
3.14304736E+02
  0
VERTEX
  8
0
 62
4
 10
-3.75000000E+01
 20
3.14273605E+02
  0
SEQEND
  8
0
  0
LINE
  8
0
 62
4
 10
-5.40000000E+01
 20
2.91150271E+02
 11
-5.55000000E+01
 21
2.90147339E+02
  0
LINE
  8
0
 62
4
 10
-5.55000000E+01
 20
2.90147339E+02
 11
-5.55000000E+01
 21
2.87523436E+02
  0
LINE
  8
0
 62
4
 10
-5.55000000E+01
 20
2.87916749E+02
 11
-5.40000000E+01
 21
2.87211040E+02
  0
LINE
  8
0
 62
4
 10
-5.55000000E+01
 20
2.87523436E+02
 11
-5.40000000E+01
 21
2.86516448E+02
  0
LINE
  8
0
 62
4
 10
-5.40000000E+01
 20
2.86516448E+02
 11
-4.31500000E+01
 21
2.86516448E+02
  0
LINE
  8
0
 62
4
 10
-5.40000000E+01
 20
2.87211040E+02
 11
-4.31500000E+01
 21
2.87211040E+02
  0
LINE
  8
0
 62
4
 10
-5.40000000E+01
 20
2.87494826E+02
 11
-5.40000000E+01
 21
2.86522396E+02
  0
POLYLINE
  8
0
 62
4
 66
1
  0
VERTEX
  8
0
 62
4
 10
-3.53000000E+01
 20
2.87863726E+02
  0
VERTEX
  8
0
 62
4
 10
-3.54818150E+01
 20
2.87919573E+02
  0
VERTEX
  8
0
 62
4
 10
-3.56915122E+01
 20
2.87972392E+02
  0
VERTEX
  8
0
 62
4
 10
-3.59274299E+01
 20
2.88021762E+02
  0
VERTEX
  8
0
 62
4
 10
-3.61876982E+01
 20
2.88067294E+02
  0
VERTEX
  8
0
 62
4
 10
-3.64702545E+01
 20
2.88108625E+02
  0
VERTEX
  8
0
 62
4
 10
-3.67728596E+01
 20
2.88145430E+02
  0
VERTEX
  8
0
 62
4
 10
-3.70931151E+01
 20
2.88177415E+02
  0
VERTEX
  8
0
 62
4
 10
-3.74284831E+01
 20
2.88204328E+02
  0
VERTEX
  8
0
 62
4
 10
-3.77763056E+01
 20
2.88225954E+02
  0
VERTEX
  8
0
 62
4
 10
-3.81338262E+01
 20
2.88242124E+02
  0
VERTEX
  8
0
 62
4
 10
-3.84982113E+01
 20
2.88252708E+02
  0
VERTEX
  8
0
 62
4
 10
-3.88665732E+01
 20
2.88257622E+02
  0
VERTEX
  8
0
 62
4
 10
-3.92359925E+01
 20
2.88256829E+02
  0
VERTEX
  8
0
 62
4
 10
-3.96035416E+01
 20
2.88250333E+02
  0
VERTEX
  8
0
 62
4
 10
-3.99663074E+01
 20
2.88238187E+02
  0
VERTEX
  8
0
 62
4
 10
-4.03214151E+01
 20
2.88220487E+02
  0
VERTEX
  8
0
 62
4
 10
-4.06660504E+01
 20
2.88197373E+02
  0
VERTEX
  8
0
 62
4
 10
-4.09974818E+01
 20
2.88169028E+02
  0
VERTEX
  8
0
 62
4
 10
-4.13130829E+01
 20
2.88135677E+02
  0
VERTEX
  8
0
 62
4
 10
-4.16103523E+01
 20
2.88097584E+02
  0
VERTEX
  8
0
 62
4
 10
-4.18869343E+01
 20
2.88055051E+02
  0
VERTEX
  8
0
 62
4
 10
-4.21406367E+01
 20
2.88008416E+02
  0
VERTEX
  8
0
 62
4
 10
-4.23694490E+01
 20
2.87958047E+02
  0
VERTEX
  8
0
 62
4
 10
-4.25715578E+01
 20
2.87904344E+02
  0
VERTEX
  8
0
 62
4
 10
-4.27453613E+01
 20
2.87847732E+02
  0
VERTEX
  8
0
 62
4
 10
-4.28894821E+01
 20
2.87788661E+02
  0
VERTEX
  8
0
 62
4
 10
-4.30027781E+01
 20
2.87727598E+02
  0
VERTEX
  8
0
 62
4
 10
-4.30843513E+01
 20
2.87665028E+02
  0
VERTEX
  8
0
 62
4
 10
-4.31335552E+01
 20
2.87601445E+02
  0
VERTEX
  8
0
 62
4
 10
-4.31500000E+01
 20
2.87537355E+02
  0
SEQEND
  8
0
  0
ARC
  8
0
 62
4
 10
-3.89922617E+01
 20
2.96694461E+02
 40
1.18100000E+01
 50
2.69962458E+02
 51
2.89675999E+02
  0
ARC
  8
0
 62
4
 10
-3.90077383E+01
 20
2.96694461E+02
 40
1.18100000E+01
 50
2.50324001E+02
 51
2.70037542E+02
  0
LINE
  8
0
 62
4
 10
-4.31500000E+01
 20
2.85809430E+02
 11
-4.31500000E+01
 21
2.87537355E+02
  0
LINE
  8
0
 62
4
 10
-3.48500000E+01
 20
2.85809430E+02
 11
-3.48500000E+01
 21
2.85948539E+02
  0
LINE
  8
0
 62
4
 10
-4.30000000E+01
 20
2.87911582E+02
 11
-4.30000000E+01
 21
2.87729352E+02
  0
POLYLINE
  8
0
 62
4
 66
1
  0
VERTEX
  8
0
 62
4
 10
-3.53000000E+01
 20
2.88175504E+02
  0
VERTEX
  8
0
 62
4
 10
-3.54493080E+01
 20
2.88231424E+02
  0
VERTEX
  8
0
 62
4
 10
-3.56265767E+01
 20
2.88284825E+02
  0
VERTEX
  8
0
 62
4
 10
-3.58304101E+01
 20
2.88335287E+02
  0
VERTEX
  8
0
 62
4
 10
-3.60592032E+01
 20
2.88382412E+02
  0
VERTEX
  8
0
 62
4
 10
-3.63111542E+01
 20
2.88425830E+02
  0
VERTEX
  8
0
 62
4
 10
-3.65842792E+01
 20
2.88465198E+02
  0
VERTEX
  8
0
 62
4
 10
-3.68764273E+01
 20
2.88500207E+02
  0
VERTEX
  8
0
 62
4
 10
-3.71852979E+01
 20
2.88530580E+02
  0
VERTEX
  8
0
 62
4
 10
-3.75084588E+01
 20
2.88556079E+02
  0
VERTEX
  8
0
 62
4
 10
-3.78433652E+01
 20
2.88576503E+02
  0
VERTEX
  8
0
 62
4
 10
-3.81873798E+01
 20
2.88591690E+02
  0
VERTEX
  8
0
 62
4
 10
-3.85377935E+01
 20
2.88601522E+02
  0
VERTEX
  8
0
 62
4
 10
-3.88918469E+01
 20
2.88605921E+02
  0
VERTEX
  8
0
 62
4
 10
-3.92467521E+01
 20
2.88604852E+02
  0
VERTEX
  8
0
 62
4
 10
-3.95997141E+01
 20
2.88598324E+02
  0
VERTEX
  8
0
 62
4
 10
-3.99479536E+01
 20
2.88586388E+02
  0
VERTEX
  8
0
 62
4
 10
-4.02887281E+01
 20
2.88569137E+02
  0
VERTEX
  8
0
 62
4
 10
-4.06193543E+01
 20
2.88546709E+02
  0
VERTEX
  8
0
 62
4
 10
-4.09372286E+01
 20
2.88519280E+02
  0
VERTEX
  8
0
 62
4
 10
-4.12398477E+01
 20
2.88487065E+02
  0
VERTEX
  8
0
 62
4
 10
-4.15248286E+01
 20
2.88450318E+02
  0
VERTEX
  8
0
 62
4
 10
-4.17899272E+01
 20
2.88409329E+02
  0
VERTEX
  8
0
 62
4
 10
-4.20330559E+01
 20
2.88364420E+02
  0
VERTEX
  8
0
 62
4
 10
-4.22523002E+01
 20
2.88315945E+02
  0
VERTEX
  8
0
 62
4
 10
-4.24459334E+01
 20
2.88264286E+02
  0
VERTEX
  8
0
 62
4
 10
-4.26124309E+01
 20
2.88209850E+02
  0
VERTEX
  8
0
 62
4
 10
-4.27504816E+01
 20
2.88153065E+02
  0
VERTEX
  8
0
 62
4
 10
-4.28589982E+01
 20
2.88094378E+02
  0
VERTEX
  8
0
 62
4
 10
-4.29371262E+01
 20
2.88034252E+02
  0
VERTEX
  8
0
 62
4
 10
-4.29842506E+01
 20
2.87973159E+02
  0
VERTEX
  8
0
 62
4
 10
-4.30000000E+01
 20
2.87911582E+02
  0
SEQEND
  8
0
  0
ARC
  8
0
 62
4
 10
-4.11186056E+01
 20
2.97395671E+02
 40
1.25124521E+01
 50
2.74941635E+02
 51
2.88095416E+02
  0
ARC
  8
0
 62
4
 10
-3.68813942E+01
 20
2.97395673E+02
 40
1.25124547E+01
 50
2.51904586E+02
 51
2.65058365E+02
  0
POLYLINE
  8
0
 62
4
 66
1
  0
VERTEX
  8
0
 62
4
 10
-3.48500000E+01
 20
2.85804093E+02
  0
VERTEX
  8
0
 62
4
 10
-3.48667067E+01
 20
2.85868691E+02
  0
VERTEX
  8
0
 62
4
 10
-3.49166922E+01
 20
2.85932768E+02
  0
VERTEX
  8
0
 62
4
 10
-3.49995541E+01
 20
2.85995810E+02
  0
VERTEX
  8
0
 62
4
 10
-3.51146253E+01
 20
2.86057308E+02
  0
VERTEX
  8
0
 62
4
 10
-3.52609792E+01
 20
2.86116767E+02
  0
VERTEX
  8
0
 62
4
 10
-3.54374375E+01
 20
2.86173709E+02
  0
VERTEX
  8
0
 62
4
 10
-3.56425795E+01
 20
2.86227675E+02
  0
VERTEX
  8
0
 62
4
 10
-3.58747534E+01
 20
2.86278230E+02
  0
VERTEX
  8
0
 62
4
 10
-3.61320900E+01
 20
2.86324968E+02
  0
VERTEX
  8
0
 62
4
 10
-3.64125173E+01
 20
2.86367512E+02
  0
VERTEX
  8
0
 62
4
 10
-3.67137775E+01
 20
2.86405520E+02
  0
VERTEX
  8
0
 62
4
 10
-3.70334450E+01
 20
2.86438685E+02
  0
VERTEX
  8
0
 62
4
 10
-3.73689461E+01
 20
2.86466741E+02
  0
VERTEX
  8
0
 62
4
 10
-3.77175794E+01
 20
2.86489462E+02
  0
VERTEX
  8
0
 62
4
 10
-3.80765381E+01
 20
2.86506665E+02
  0
VERTEX
  8
0
 62
4
 10
-3.84429319E+01
 20
2.86518211E+02
  0
VERTEX
  8
0
 62
4
 10
-3.88138109E+01
 20
2.86524007E+02
  0
VERTEX
  8
0
 62
4
 10
-3.91861890E+01
 20
2.86524007E+02
  0
VERTEX
  8
0
 62
4
 10
-3.95570680E+01
 20
2.86518211E+02
  0
VERTEX
  8
0
 62
4
 10
-3.99234619E+01
 20
2.86506665E+02
  0
VERTEX
  8
0
 62
4
 10
-4.02824205E+01
 20
2.86489462E+02
  0
VERTEX
  8
0
 62
4
 10
-4.06310539E+01
 20
2.86466741E+02
  0
VERTEX
  8
0
 62
4
 10
-4.09665549E+01
 20
2.86438685E+02
  0
VERTEX
  8
0
 62
4
 10
-4.12862225E+01
 20
2.86405520E+02
  0
VERTEX
  8
0
 62
4
 10
-4.15874827E+01
 20
2.86367512E+02
  0
VERTEX
  8
0
 62
4
 10
-4.18679100E+01
 20
2.86324968E+02
  0
VERTEX
  8
0
 62
4
 10
-4.21252466E+01
 20
2.86278230E+02
  0
VERTEX
  8
0
 62
4
 10
-4.23574205E+01
 20
2.86227675E+02
  0
VERTEX
  8
0
 62
4
 10
-4.25625625E+01
 20
2.86173709E+02
  0
VERTEX
  8
0
 62
4
 10
-4.27390208E+01
 20
2.86116767E+02
  0
VERTEX
  8
0
 62
4
 10
-4.28853747E+01
 20
2.86057308E+02
  0
VERTEX
  8
0
 62
4
 10
-4.30004459E+01
 20
2.85995810E+02
  0
VERTEX
  8
0
 62
4
 10
-4.30833078E+01
 20
2.85932768E+02
  0
VERTEX
  8
0
 62
4
 10
-4.31332933E+01
 20
2.85868691E+02
  0
VERTEX
  8
0
 62
4
 10
-4.31500000E+01
 20
2.85804093E+02
  0
SEQEND
  8
0
  0
ARC
  8
0
 62
4
 10
-4.29000000E+01
 20
2.85809430E+02
 40
2.50000000E-01
 50
1.80000000E+02
 51
2.50324001E+02
  0
ARC
  8
0
 62
4
 10
-3.51000000E+01
 20
2.85809430E+02
 40
2.50000000E-01
 50
2.89675999E+02
 51
0.00000000E+00
  0
LINE
  8
0
 62
4
 10
-3.53000000E+01
 20
2.87534543E+02
 11
-3.53000000E+01
 21
2.88519350E+02
  0
LINE
  8
0
 62
4
 10
-2.77000000E+01
 20
2.87534543E+02
 11
-2.77000000E+01
 21
2.88519350E+02
  0
POLYLINE
  8
0
 62
4
 66
1
  0
VERTEX
  8
0
 62
4
 10
-2.77000000E+01
 20
2.88519350E+02
  0
VERTEX
  8
0
 62
4
 10
-2.77152977E+01
 20
2.88578500E+02
  0
VERTEX
  8
0
 62
4
 10
-2.77610676E+01
 20
2.88637173E+02
  0
VERTEX
  8
0
 62
4
 10
-2.78369411E+01
 20
2.88694898E+02
  0
VERTEX
  8
0
 62
4
 10
-2.79423075E+01
 20
2.88751209E+02
  0
VERTEX
  8
0
 62
4
 10
-2.80763183E+01
 20
2.88805654E+02
  0
VERTEX
  8
0
 62
4
 10
-2.82378946E+01
 20
2.88857793E+02
  0
VERTEX
  8
0
 62
4
 10
-2.84257354E+01
 20
2.88907208E+02
  0
VERTEX
  8
0
 62
4
 10
-2.86383284E+01
 20
2.88953499E+02
  0
VERTEX
  8
0
 62
4
 10
-2.88739619E+01
 20
2.88996296E+02
  0
VERTEX
  8
0
 62
4
 10
-2.91307387E+01
 20
2.89035252E+02
  0
VERTEX
  8
0
 62
4
 10
-2.94065915E+01
 20
2.89070054E+02
  0
VERTEX
  8
0
 62
4
 10
-2.96992991E+01
 20
2.89100422E+02
  0
VERTEX
  8
0
 62
4
 10
-3.00065049E+01
 20
2.89126112E+02
  0
VERTEX
  8
0
 62
4
 10
-3.03257354E+01
 20
2.89146917E+02
  0
VERTEX
  8
0
 62
4
 10
-3.06544204E+01
 20
2.89162669E+02
  0
VERTEX
  8
0
 62
4
 10
-3.09899136E+01
 20
2.89173241E+02
  0
VERTEX
  8
0
 62
4
 10
-3.13295136E+01
 20
2.89178549E+02
  0
VERTEX
  8
0
 62
4
 10
-3.16704863E+01
 20
2.89178549E+02
  0
VERTEX
  8
0
 62
4
 10
-3.20100864E+01
 20
2.89173241E+02
  0
VERTEX
  8
0
 62
4
 10
-3.23455795E+01
 20
2.89162669E+02
  0
VERTEX
  8
0
 62
4
 10
-3.26742646E+01
 20
2.89146917E+02
  0
VERTEX
  8
0
 62
4
 10
-3.29934951E+01
 20
2.89126112E+02
  0
VERTEX
  8
0
 62
4
 10
-3.33007009E+01
 20
2.89100422E+02
  0
VERTEX
  8
0
 62
4
 10
-3.35934085E+01
 20
2.89070054E+02
  0
VERTEX
  8
0
 62
4
 10
-3.38692612E+01
 20
2.89035252E+02
  0
VERTEX
  8
0
 62
4
 10
-3.41260380E+01
 20
2.88996296E+02
  0
VERTEX
  8
0
 62
4
 10
-3.43616716E+01
 20
2.88953499E+02
  0
VERTEX
  8
0
 62
4
 10
-3.45742646E+01
 20
2.88907208E+02
  0
VERTEX
  8
0
 62
4
 10
-3.47621054E+01
 20
2.88857793E+02
  0
VERTEX
  8
0
 62
4
 10
-3.49236817E+01
 20
2.88805654E+02
  0
VERTEX
  8
0
 62
4
 10
-3.50576925E+01
 20
2.88751209E+02
  0
VERTEX
  8
0
 62
4
 10
-3.51630589E+01
 20
2.88694898E+02
  0
VERTEX
  8
0
 62
4
 10
-3.52389324E+01
 20
2.88637173E+02
  0
VERTEX
  8
0
 62
4
 10
-3.52847023E+01
 20
2.88578500E+02
  0
VERTEX
  8
0
 62
4
 10
-3.53000000E+01
 20
2.88519350E+02
  0
SEQEND
  8
0
  0
POLYLINE
  8
0
 62
4
 66
1
  0
VERTEX
  8
0
 62
4
 10
-2.81000000E+01
 20
2.87239852E+02
  0
VERTEX
  8
0
 62
4
 10
-2.79634183E+01
 20
2.87293141E+02
  0
VERTEX
  8
0
 62
4
 10
-2.78544705E+01
 20
2.87348317E+02
  0
VERTEX
  8
0
 62
4
 10
-2.77740077E+01
 20
2.87404947E+02
  0
VERTEX
  8
0
 62
4
 10
-2.77226587E+01
 20
2.87462590E+02
  0
VERTEX
  8
0
 62
4
 10
-2.77008247E+01
 20
2.87520796E+02
  0
VERTEX
  8
0
 62
4
 10
-2.77086764E+01
 20
2.87579109E+02
  0
VERTEX
  8
0
 62
4
 10
-2.77461524E+01
 20
2.87637073E+02
  0
VERTEX
  8
0
 62
4
 10
-2.78129598E+01
 20
2.87694236E+02
  0
VERTEX
  8
0
 62
4
 10
-2.79085766E+01
 20
2.87750152E+02
  0
VERTEX
  8
0
 62
4
 10
-2.80322558E+01
 20
2.87804383E+02
  0
VERTEX
  8
0
 62
4
 10
-2.81830309E+01
 20
2.87856505E+02
  0
VERTEX
  8
0
 62
4
 10
-2.83597238E+01
 20
2.87906112E+02
  0
VERTEX
  8
0
 62
4
 10
-2.85609538E+01
 20
2.87952816E+02
  0
VERTEX
  8
0
 62
4
 10
-2.87851488E+01
 20
2.87996251E+02
  0
VERTEX
  8
0
 62
4
 10
-2.90305567E+01
 20
2.88036078E+02
  0
VERTEX
  8
0
 62
4
 10
-2.92952602E+01
 20
2.88071987E+02
  0
VERTEX
  8
0
 62
4
 10
-2.95771908E+01
 20
2.88103696E+02
  0
VERTEX
  8
0
 62
4
 10
-2.98741457E+01
 20
2.88130958E+02
  0
VERTEX
  8
0
 62
4
 10
-3.01838046E+01
 20
2.88153560E+02
  0
VERTEX
  8
0
 62
4
 10
-3.05037478E+01
 20
2.88171325E+02
  0
VERTEX
  8
0
 62
4
 10
-3.08314754E+01
 20
2.88184114E+02
  0
VERTEX
  8
0
 62
4
 10
-3.11644267E+01
 20
2.88191828E+02
  0
VERTEX
  8
0
 62
4
 10
-3.15000000E+01
 20
2.88194406E+02
  0
VERTEX
  8
0
 62
4
 10
-3.18355734E+01
 20
2.88191828E+02
  0
VERTEX
  8
0
 62
4
 10
-3.21685246E+01
 20
2.88184114E+02
  0
VERTEX
  8
0
 62
4
 10
-3.24962523E+01
 20
2.88171325E+02
  0
VERTEX
  8
0
 62
4
 10
-3.28161955E+01
 20
2.88153560E+02
  0
VERTEX
  8
0
 62
4
 10
-3.31258543E+01
 20
2.88130958E+02
  0
VERTEX
  8
0
 62
4
 10
-3.34228092E+01
 20
2.88103696E+02
  0
VERTEX
  8
0
 62
4
 10
-3.37047399E+01
 20
2.88071987E+02
  0
VERTEX
  8
0
 62
4
 10
-3.39694433E+01
 20
2.88036078E+02
  0
VERTEX
  8
0
 62
4
 10
-3.42148513E+01
 20
2.87996251E+02
  0
VERTEX
  8
0
 62
4
 10
-3.44390462E+01
 20
2.87952816E+02
  0
VERTEX
  8
0
 62
4
 10
-3.46402763E+01
 20
2.87906112E+02
  0
VERTEX
  8
0
 62
4
 10
-3.48169692E+01
 20
2.87856505E+02
  0
VERTEX
  8
0
 62
4
 10
-3.49677442E+01
 20
2.87804383E+02
  0
VERTEX
  8
0
 62
4
 10
-3.50914234E+01
 20
2.87750152E+02
  0
VERTEX
  8
0
 62
4
 10
-3.51870402E+01
 20
2.87694237E+02
  0
VERTEX
  8
0
 62
4
 10
-3.52538476E+01
 20
2.87637073E+02
  0
VERTEX
  8
0
 62
4
 10
-3.52913236E+01
 20
2.87579109E+02
  0
VERTEX
  8
0
 62
4
 10
-3.52991753E+01
 20
2.87520796E+02
  0
VERTEX
  8
0
 62
4
 10
-3.52773413E+01
 20
2.87462590E+02
  0
VERTEX
  8
0
 62
4
 10
-3.52259923E+01
 20
2.87404947E+02
  0
VERTEX
  8
0
 62
4
 10
-3.51455295E+01
 20
2.87348317E+02
  0
VERTEX
  8
0
 62
4
 10
-3.50365817E+01
 20
2.87293141E+02
  0
VERTEX
  8
0
 62
4
 10
-3.49000000E+01
 20
2.87239852E+02
  0
SEQEND
  8
0
  0
LINE
  8
0
 62
4
 10
-3.49000000E+01
 20
2.86260790E+02
 11
-3.49000000E+01
 21
2.87534543E+02
  0
LINE
  8
0
 62
4
 10
-2.81000000E+01
 20
2.86260790E+02
 11
-2.81000000E+01
 21
2.87534543E+02
  0
POLYLINE
  8
0
 62
4
 66
1
  0
VERTEX
  8
0
 62
4
 10
-2.81000000E+01
 20
2.87534543E+02
  0
VERTEX
  8
0
 62
4
 10
-2.81136874E+01
 20
2.87587466E+02
  0
VERTEX
  8
0
 62
4
 10
-2.81546394E+01
 20
2.87639964E+02
  0
VERTEX
  8
0
 62
4
 10
-2.82225263E+01
 20
2.87691612E+02
  0
VERTEX
  8
0
 62
4
 10
-2.83168014E+01
 20
2.87741996E+02
  0
VERTEX
  8
0
 62
4
 10
-2.84367058E+01
 20
2.87790710E+02
  0
VERTEX
  8
0
 62
4
 10
-2.85812741E+01
 20
2.87837361E+02
  0
VERTEX
  8
0
 62
4
 10
-2.87493422E+01
 20
2.87881574E+02
  0
VERTEX
  8
0
 62
4
 10
-2.89395570E+01
 20
2.87922993E+02
  0
VERTEX
  8
0
 62
4
 10
-2.91503870E+01
 20
2.87961284E+02
  0
VERTEX
  8
0
 62
4
 10
-2.93801347E+01
 20
2.87996139E+02
  0
VERTEX
  8
0
 62
4
 10
-2.96269502E+01
 20
2.88027278E+02
  0
VERTEX
  8
0
 62
4
 10
-2.98888465E+01
 20
2.88054450E+02
  0
VERTEX
  8
0
 62
4
 10
-3.01637149E+01
 20
2.88077436E+02
  0
VERTEX
  8
0
 62
4
 10
-3.04493422E+01
 20
2.88096050E+02
  0
VERTEX
  8
0
 62
4
 10
-3.07434288E+01
 20
2.88110144E+02
  0
VERTEX
  8
0
 62
4
 10
-3.10436069E+01
 20
2.88119604E+02
  0
VERTEX
  8
0
 62
4
 10
-3.13474596E+01
 20
2.88124352E+02
  0
VERTEX
  8
0
 62
4
 10
-3.16525404E+01
 20
2.88124352E+02
  0
VERTEX
  8
0
 62
4
 10
-3.19563931E+01
 20
2.88119604E+02
  0
VERTEX
  8
0
 62
4
 10
-3.22565712E+01
 20
2.88110144E+02
  0
VERTEX
  8
0
 62
4
 10
-3.25506578E+01
 20
2.88096050E+02
  0
VERTEX
  8
0
 62
4
 10
-3.28362851E+01
 20
2.88077436E+02
  0
VERTEX
  8
0
 62
4
 10
-3.31111534E+01
 20
2.88054450E+02
  0
VERTEX
  8
0
 62
4
 10
-3.33730497E+01
 20
2.88027278E+02
  0
VERTEX
  8
0
 62
4
 10
-3.36198653E+01
 20
2.87996139E+02
  0
VERTEX
  8
0
 62
4
 10
-3.38496130E+01
 20
2.87961284E+02
  0
VERTEX
  8
0
 62
4
 10
-3.40604430E+01
 20
2.87922993E+02
  0
VERTEX
  8
0
 62
4
 10
-3.42506578E+01
 20
2.87881574E+02
  0
VERTEX
  8
0
 62
4
 10
-3.44187259E+01
 20
2.87837361E+02
  0
VERTEX
  8
0
 62
4
 10
-3.45632941E+01
 20
2.87790710E+02
  0
VERTEX
  8
0
 62
4
 10
-3.46831986E+01
 20
2.87741996E+02
  0
VERTEX
  8
0
 62
4
 10
-3.47774737E+01
 20
2.87691612E+02
  0
VERTEX
  8
0
 62
4
 10
-3.48453606E+01
 20
2.87639964E+02
  0
VERTEX
  8
0
 62
4
 10
-3.48863126E+01
 20
2.87587466E+02
  0
VERTEX
  8
0
 62
4
 10
-3.49000000E+01
 20
2.87534543E+02
  0
SEQEND
  8
0
  0
ARC
  8
0
 62
4
 10
-3.15000000E+01
 20
2.96801003E+02
 40
1.18100000E+01
 50
2.57172490E+02
 51
2.82827510E+02
  0
ARC
  8
0
 62
4
 10
-2.90999997E+01
 20
2.86260790E+02
 40
1.00000000E+00
 50
2.82827510E+02
 51
5.08888749E-14
  0
ARC
  8
0
 62
4
 10
-3.39000003E+01
 20
2.86260790E+02
 40
1.00000000E+00
 50
1.80000000E+02
 51
2.57172490E+02
  0
ARC
  8
0
 62
4
 10
-3.36217535E+01
 20
2.97520147E+02
 40
1.25306621E+01
 50
2.74968660E+02
 51
2.88083352E+02
  0
ARC
  8
0
 62
4
 10
-2.93782464E+01
 20
2.97520147E+02
 40
1.25306626E+01
 50
2.51916648E+02
 51
2.65031340E+02
  0
LINE
  8
0
  6
CENTER
 62
6
 10
-4.15000000E+01
 20
2.87911582E+02
 11
-3.65000000E+01
 21
2.87911582E+02
  0
LINE
  8
0
  6
CENTER
 62
6
 10
-3.15000000E+01
 20
2.91019350E+02
 11
-3.15000000E+01
 21
2.86019350E+02
  0
LINE
  8
0
  6
CENTER
 62
6
 10
-3.40000000E+01
 20
2.88519350E+02
 11
-2.90000000E+01
 21
2.88519350E+02
  0
LINE
  8
0
  6
CENTER
 62
6
 10
-4.65000000E+01
 20
2.91019350E+02
 11
-4.65000000E+01
 21
2.86019350E+02
  0
LINE
  8
0
  6
CENTER
 62
6
 10
-4.90000000E+01
 20
2.88519350E+02
 11
-4.40000000E+01
 21
2.88519350E+02
  0
LINE
  8
0
 62
4
 10
-2.77068894E+01
 20
2.87494826E+02
 11
-2.40000000E+01
 21
2.87494826E+02
  0
LINE
  8
0
 62
7
 10
-3.90000000E+01
 20
3.07499939E+02
 11
-6.45000000E+01
 21
3.07499939E+02
  0
LINE
  8
0
 62
7
 10
-3.90000000E+01
 20
3.06649963E+02
 11
-6.45000000E+01
 21
3.06649963E+02
  0
LINE
  8
0
 62
7
 10
-3.90000000E+01
 20
3.01349976E+02
 11
-6.45000000E+01
 21
3.01349976E+02
  0
LINE
  8
0
 62
7
 10
5.00000000E+00
 20
2.59649994E+02
 11
-6.45000000E+01
 21
2.59649994E+02
  0
LINE
  8
0
 62
7
 10
5.00000000E+00
 20
2.54350006E+02
 11
-6.45000000E+01
 21
2.54350006E+02
  0
LINE
  8
0
 62
7
 10
5.00000000E+00
 20
2.53500031E+02
 11
-6.45000000E+01
 21
2.53500031E+02
  0
POLYLINE
  8
0
 62
4
 66
1
  0
VERTEX
  8
0
 62
4
 10
-5.23965855E+01
 20
-2.76824424E+02
  0
VERTEX
  8
0
 62
4
 10
-5.23969441E+01
 20
-2.77116754E+02
  0
VERTEX
  8
0
 62
4
 10
-5.23714103E+01
 20
-2.77408001E+02
  0
VERTEX
  8
0
 62
4
 10
-5.23201786E+01
 20
-2.77695944E+02
  0
VERTEX
  8
0
 62
4
 10
-5.22436396E+01
 20
-2.77978389E+02
  0
VERTEX
  8
0
 62
4
 10
-5.21423766E+01
 20
-2.78253184E+02
  0
VERTEX
  8
0
 62
4
 10
-5.20171616E+01
 20
-2.78518232E+02
  0
VERTEX
  8
0
 62
4
 10
-5.18689488E+01
 20
-2.78771515E+02
  0
VERTEX
  8
0
 62
4
 10
-5.16988681E+01
 20
-2.79011102E+02
  0
VERTEX
  8
0
 62
4
 10
-5.15082159E+01
 20
-2.79235166E+02
  0
VERTEX
  8
0
 62
4
 10
-5.12984454E+01
 20
-2.79441999E+02
  0
VERTEX
  8
0
 62
4
 10
-5.10711555E+01
 20
-2.79630026E+02
  0
VERTEX
  8
0
 62
4
 10
-5.08280786E+01
 20
-2.79797812E+02
  0
VERTEX
  8
0
 62
4
 10
-5.05710676E+01
 20
-2.79944079E+02
  0
VERTEX
  8
0
 62
4
 10
-5.03020816E+01
 20
-2.80067712E+02
  0
VERTEX
  8
0
 62
4
 10
-5.00231707E+01
 20
-2.80167769E+02
  0
VERTEX
  8
0
 62
4
 10
-4.97364610E+01
 20
-2.80243486E+02
  0
VERTEX
  8
0
 62
4
 10
-4.94441379E+01
 20
-2.80294288E+02
  0
VERTEX
  8
0
 62
4
 10
-4.91484294E+01
 20
-2.80319786E+02
  0
VERTEX
  8
0
 62
4
 10
-4.88515896E+01
 20
-2.80319786E+02
  0
VERTEX
  8
0
 62
4
 10
-4.85558811E+01
 20
-2.80294288E+02
  0
VERTEX
  8
0
 62
4
 10
-4.82635579E+01
 20
-2.80243487E+02
  0
VERTEX
  8
0
 62
4
 10
-4.79768481E+01
 20
-2.80167769E+02
  0
VERTEX
  8
0
 62
4
 10
-4.76979372E+01
 20
-2.80067713E+02
  0
VERTEX
  8
0
 62
4
 10
-4.74289511E+01
 20
-2.79944080E+02
  0
VERTEX
  8
0
 62
4
 10
-4.71719400E+01
 20
-2.79797813E+02
  0
VERTEX
  8
0
 62
4
 10
-4.69288630E+01
 20
-2.79630027E+02
  0
VERTEX
  8
0
 62
4
 10
-4.67015730E+01
 20
-2.79442001E+02
  0
VERTEX
  8
0
 62
4
 10
-4.64918023E+01
 20
-2.79235168E+02
  0
VERTEX
  8
0
 62
4
 10
-4.63011499E+01
 20
-2.79011104E+02
  0
VERTEX
  8
0
 62
4
 10
-4.61310691E+01
 20
-2.78771517E+02
  0
VERTEX
  8
0
 62
4
 10
-4.59828561E+01
 20
-2.78518234E+02
  0
VERTEX
  8
0
 62
4
 10
-4.58576409E+01
 20
-2.78253186E+02
  0
VERTEX
  8
0
 62
4
 10
-4.57563777E+01
 20
-2.77978391E+02
  0
VERTEX
  8
0
 62
4
 10
-4.56798385E+01
 20
-2.77695946E+02
  0
VERTEX
  8
0
 62
4
 10
-4.56286066E+01
 20
-2.77408003E+02
  0
VERTEX
  8
0
 62
4
 10
-4.56030726E+01
 20
-2.77116756E+02
  0
VERTEX
  8
0
 62
4
 10
-4.56034310E+01
 20
-2.76824427E+02
  0
SEQEND
  8
0
  0
POLYLINE
  8
0
 62
4
 66
1
  0
VERTEX
  8
0
 62
4
 10
-5.30000081E+01
 20
-2.76974539E+02
  0
VERTEX
  8
0
 62
4
 10
-5.29847948E+01
 20
-2.77317866E+02
  0
VERTEX
  8
0
 62
4
 10
-5.29392548E+01
 20
-2.77658581E+02
  0
VERTEX
  8
0
 62
4
 10
-5.28637348E+01
 20
-2.77994090E+02
  0
VERTEX
  8
0
 62
4
 10
-5.27588095E+01
 20
-2.78321841E+02
  0
VERTEX
  8
0
 62
4
 10
-5.26252775E+01
 20
-2.78639339E+02
  0
VERTEX
  8
0
 62
4
 10
-5.24641550E+01
 20
-2.78944167E+02
  0
VERTEX
  8
0
 62
4
 10
-5.22766682E+01
 20
-2.79234006E+02
  0
VERTEX
  8
0
 62
4
 10
-5.20642440E+01
 20
-2.79506649E+02
  0
VERTEX
  8
0
 62
4
 10
-5.18284992E+01
 20
-2.79760023E+02
  0
VERTEX
  8
0
 62
4
 10
-5.15712279E+01
 20
-2.79992198E+02
  0
VERTEX
  8
0
 62
4
 10
-5.12943880E+01
 20
-2.80201407E+02
  0
VERTEX
  8
0
 62
4
 10
-5.10000865E+01
 20
-2.80386059E+02
  0
VERTEX
  8
0
 62
4
 10
-5.06905632E+01
 20
-2.80544748E+02
  0
VERTEX
  8
0
 62
4
 10
-5.03681737E+01
 20
-2.80676266E+02
  0
VERTEX
  8
0
 62
4
 10
-5.00353717E+01
 20
-2.80779612E+02
  0
VERTEX
  8
0
 62
4
 10
-4.96946899E+01
 20
-2.80854000E+02
  0
VERTEX
  8
0
 62
4
 10
-4.93487212E+01
 20
-2.80898864E+02
  0
VERTEX
  8
0
 62
4
 10
-4.90000986E+01
 20
-2.80913862E+02
  0
VERTEX
  8
0
 62
4
 10
-4.86514753E+01
 20
-2.80898880E+02
  0
VERTEX
  8
0
 62
4
 10
-4.83055045E+01
 20
-2.80854032E+02
  0
VERTEX
  8
0
 62
4
 10
-4.79648193E+01
 20
-2.80779660E+02
  0
VERTEX
  8
0
 62
4
 10
-4.76320126E+01
 20
-2.80676329E+02
  0
VERTEX
  8
0
 62
4
 10
-4.73096171E+01
 20
-2.80544826E+02
  0
VERTEX
  8
0
 62
4
 10
-4.70000865E+01
 20
-2.80386151E+02
  0
VERTEX
  8
0
 62
4
 10
-4.67057765E+01
 20
-2.80201513E+02
  0
VERTEX
  8
0
 62
4
 10
-4.64289270E+01
 20
-2.79992316E+02
  0
VERTEX
  8
0
 62
4
 10
-4.61716450E+01
 20
-2.79760153E+02
  0
VERTEX
  8
0
 62
4
 10
-4.59358885E+01
 20
-2.79506790E+02
  0
VERTEX
  8
0
 62
4
 10
-4.57234518E+01
 20
-2.79234156E+02
  0
VERTEX
  8
0
 62
4
 10
-4.55359517E+01
 20
-2.78944326E+02
  0
VERTEX
  8
0
 62
4
 10
-4.53748152E+01
 20
-2.78639505E+02
  0
VERTEX
  8
0
 62
4
 10
-4.52412686E+01
 20
-2.78322014E+02
  0
VERTEX
  8
0
 62
4
 10
-4.51363282E+01
 20
-2.77994268E+02
  0
VERTEX
  8
0
 62
4
 10
-4.50607928E+01
 20
-2.77658762E+02
  0
VERTEX
  8
0
 62
4
 10
-4.50152372E+01
 20
-2.77318049E+02
  0
VERTEX
  8
0
 62
4
 10
-4.50000081E+01
 20
-2.76974723E+02
  0
VERTEX
  8
0
 62
4
 10
-4.50152214E+01
 20
-2.76631396E+02
  0
VERTEX
  8
0
 62
4
 10
-4.50607614E+01
 20
-2.76290681E+02
  0
VERTEX
  8
0
 62
4
 10
-4.51362814E+01
 20
-2.75955172E+02
  0
VERTEX
  8
0
 62
4
 10
-4.52412067E+01
 20
-2.75627421E+02
  0
VERTEX
  8
0
 62
4
 10
-4.53747387E+01
 20
-2.75309923E+02
  0
VERTEX
  8
0
 62
4
 10
-4.55358612E+01
 20
-2.75005095E+02
  0
VERTEX
  8
0
 62
4
 10
-4.57233480E+01
 20
-2.74715256E+02
  0
VERTEX
  8
0
 62
4
 10
-4.59357722E+01
 20
-2.74442613E+02
  0
VERTEX
  8
0
 62
4
 10
-4.61715170E+01
 20
-2.74189239E+02
  0
VERTEX
  8
0
 62
4
 10
-4.64287883E+01
 20
-2.73957064E+02
  0
VERTEX
  8
0
 62
4
 10
-4.67056282E+01
 20
-2.73747855E+02
  0
VERTEX
  8
0
 62
4
 10
-4.69999297E+01
 20
-2.73563203E+02
  0
VERTEX
  8
0
 62
4
 10
-4.73094530E+01
 20
-2.73404514E+02
  0
VERTEX
  8
0
 62
4
 10
-4.76318425E+01
 20
-2.73272996E+02
  0
VERTEX
  8
0
 62
4
 10
-4.79646445E+01
 20
-2.73169650E+02
  0
VERTEX
  8
0
 62
4
 10
-4.83053263E+01
 20
-2.73095262E+02
  0
VERTEX
  8
0
 62
4
 10
-4.86512950E+01
 20
-2.73050398E+02
  0
VERTEX
  8
0
 62
4
 10
-4.89999176E+01
 20
-2.73035400E+02
  0
VERTEX
  8
0
 62
4
 10
-4.93485409E+01
 20
-2.73050382E+02
  0
VERTEX
  8
0
 62
4
 10
-4.96945117E+01
 20
-2.73095230E+02
  0
VERTEX
  8
0
 62
4
 10
-5.00351969E+01
 20
-2.73169602E+02
  0
VERTEX
  8
0
 62
4
 10
-5.03680036E+01
 20
-2.73272933E+02
  0
VERTEX
  8
0
 62
4
 10
-5.06903991E+01
 20
-2.73404436E+02
  0
VERTEX
  8
0
 62
4
 10
-5.09999297E+01
 20
-2.73563111E+02
  0
VERTEX
  8
0
 62
4
 10
-5.12942397E+01
 20
-2.73747749E+02
  0
VERTEX
  8
0
 62
4
 10
-5.15710892E+01
 20
-2.73956946E+02
  0
VERTEX
  8
0
 62
4
 10
-5.18283712E+01
 20
-2.74189109E+02
  0
VERTEX
  8
0
 62
4
 10
-5.20641277E+01
 20
-2.74442472E+02
  0
VERTEX
  8
0
 62
4
 10
-5.22765644E+01
 20
-2.74715106E+02
  0
VERTEX
  8
0
 62
4
 10
-5.24640645E+01
 20
-2.75004936E+02
  0
VERTEX
  8
0
 62
4
 10
-5.26252010E+01
 20
-2.75309757E+02
  0
VERTEX
  8
0
 62
4
 10
-5.27587476E+01
 20
-2.75627248E+02
  0
VERTEX
  8
0
 62
4
 10
-5.28636880E+01
 20
-2.75954994E+02
  0
VERTEX
  8
0
 62
4
 10
-5.29392234E+01
 20
-2.76290500E+02
  0
VERTEX
  8
0
 62
4
 10
-5.29847790E+01
 20
-2.76631213E+02
  0
VERTEX
  8
0
 62
4
 10
-5.30000081E+01
 20
-2.76974539E+02
  0
SEQEND
  8
0
  0
POLYLINE
  8
0
 62
4
 66
1
  0
VERTEX
  8
0
 62
4
 10
-5.24000083E+01
 20
-2.76674142E+02
  0
VERTEX
  8
0
 62
4
 10
-5.23870770E+01
 20
-2.76965970E+02
  0
VERTEX
  8
0
 62
4
 10
-5.23483680E+01
 20
-2.77255577E+02
  0
VERTEX
  8
0
 62
4
 10
-5.22841760E+01
 20
-2.77540760E+02
  0
VERTEX
  8
0
 62
4
 10
-5.21949895E+01
 20
-2.77819349E+02
  0
VERTEX
  8
0
 62
4
 10
-5.20814873E+01
 20
-2.78089222E+02
  0
VERTEX
  8
0
 62
4
 10
-5.19445331E+01
 20
-2.78348326E+02
  0
VERTEX
  8
0
 62
4
 10
-5.17851694E+01
 20
-2.78594689E+02
  0
VERTEX
  8
0
 62
4
 10
-5.16046089E+01
 20
-2.78826436E+02
  0
VERTEX
  8
0
 62
4
 10
-5.14042257E+01
 20
-2.79041803E+02
  0
VERTEX
  8
0
 62
4
 10
-5.11855451E+01
 20
-2.79239152E+02
  0
VERTEX
  8
0
 62
4
 10
-5.09502312E+01
 20
-2.79416980E+02
  0
VERTEX
  8
0
 62
4
 10
-5.07000749E+01
 20
-2.79573934E+02
  0
VERTEX
  8
0
 62
4
 10
-5.04369801E+01
 20
-2.79708819E+02
  0
VERTEX
  8
0
 62
4
 10
-5.01629491E+01
 20
-2.79820610E+02
  0
VERTEX
  8
0
 62
4
 10
-4.98800674E+01
 20
-2.79908454E+02
  0
VERTEX
  8
0
 62
4
 10
-4.95904879E+01
 20
-2.79971684E+02
  0
VERTEX
  8
0
 62
4
 10
-4.92964145E+01
 20
-2.80009818E+02
  0
VERTEX
  8
0
 62
4
 10
-4.90000852E+01
 20
-2.80022566E+02
  0
VERTEX
  8
0
 62
4
 10
-4.87037554E+01
 20
-2.80009832E+02
  0
VERTEX
  8
0
 62
4
 10
-4.84096802E+01
 20
-2.79971711E+02
  0
VERTEX
  8
0
 62
4
 10
-4.81200978E+01
 20
-2.79908494E+02
  0
VERTEX
  8
0
 62
4
 10
-4.78372121E+01
 20
-2.79820663E+02
  0
VERTEX
  8
0
 62
4
 10
-4.75631759E+01
 20
-2.79708885E+02
  0
VERTEX
  8
0
 62
4
 10
-4.73000749E+01
 20
-2.79574012E+02
  0
VERTEX
  8
0
 62
4
 10
-4.70499114E+01
 20
-2.79417070E+02
  0
VERTEX
  8
0
 62
4
 10
-4.68145894E+01
 20
-2.79239252E+02
  0
VERTEX
  8
0
 62
4
 10
-4.65958996E+01
 20
-2.79041914E+02
  0
VERTEX
  8
0
 62
4
 10
-4.63955066E+01
 20
-2.78826555E+02
  0
VERTEX
  8
0
 62
4
 10
-4.62149355E+01
 20
-2.78594817E+02
  0
VERTEX
  8
0
 62
4
 10
-4.60555604E+01
 20
-2.78348461E+02
  0
VERTEX
  8
0
 62
4
 10
-4.59185943E+01
 20
-2.78089363E+02
  0
VERTEX
  8
0
 62
4
 10
-4.58050797E+01
 20
-2.77819495E+02
  0
VERTEX
  8
0
 62
4
 10
-4.57158804E+01
 20
-2.77540911E+02
  0
VERTEX
  8
0
 62
4
 10
-4.56516753E+01
 20
-2.77255731E+02
  0
VERTEX
  8
0
 62
4
 10
-4.56129530E+01
 20
-2.76966125E+02
  0
VERTEX
  8
0
 62
4
 10
-4.56000083E+01
 20
-2.76674298E+02
  0
VERTEX
  8
0
 62
4
 10
-4.56129396E+01
 20
-2.76382470E+02
  0
VERTEX
  8
0
 62
4
 10
-4.56516486E+01
 20
-2.76092863E+02
  0
VERTEX
  8
0
 62
4
 10
-4.57158406E+01
 20
-2.75807680E+02
  0
VERTEX
  8
0
 62
4
 10
-4.58050271E+01
 20
-2.75529091E+02
  0
VERTEX
  8
0
 62
4
 10
-4.59185293E+01
 20
-2.75259218E+02
  0
VERTEX
  8
0
 62
4
 10
-4.60554835E+01
 20
-2.75000114E+02
  0
VERTEX
  8
0
 62
4
 10
-4.62148472E+01
 20
-2.74753751E+02
  0
VERTEX
  8
0
 62
4
 10
-4.63954078E+01
 20
-2.74522004E+02
  0
VERTEX
  8
0
 62
4
 10
-4.65957909E+01
 20
-2.74306637E+02
  0
VERTEX
  8
0
 62
4
 10
-4.68144715E+01
 20
-2.74109288E+02
  0
VERTEX
  8
0
 62
4
 10
-4.70497854E+01
 20
-2.73931460E+02
  0
VERTEX
  8
0
 62
4
 10
-4.72999417E+01
 20
-2.73774506E+02
  0
VERTEX
  8
0
 62
4
 10
-4.75630365E+01
 20
-2.73639621E+02
  0
VERTEX
  8
0
 62
4
 10
-4.78370675E+01
 20
-2.73527830E+02
  0
VERTEX
  8
0
 62
4
 10
-4.81199493E+01
 20
-2.73439986E+02
  0
VERTEX
  8
0
 62
4
 10
-4.84095287E+01
 20
-2.73376756E+02
  0
VERTEX
  8
0
 62
4
 10
-4.87036022E+01
 20
-2.73338622E+02
  0
VERTEX
  8
0
 62
4
 10
-4.89999314E+01
 20
-2.73325874E+02
  0
VERTEX
  8
0
 62
4
 10
-4.92962612E+01
 20
-2.73338608E+02
  0
VERTEX
  8
0
 62
4
 10
-4.95903364E+01
 20
-2.73376729E+02
  0
VERTEX
  8
0
 62
4
 10
-4.98799188E+01
 20
-2.73439946E+02
  0
VERTEX
  8
0
 62
4
 10
-5.01628045E+01
 20
-2.73527777E+02
  0
VERTEX
  8
0
 62
4
 10
-5.04368407E+01
 20
-2.73639555E+02
  0
VERTEX
  8
0
 62
4
 10
-5.06999417E+01
 20
-2.73774428E+02
  0
VERTEX
  8
0
 62
4
 10
-5.09501052E+01
 20
-2.73931370E+02
  0
VERTEX
  8
0
 62
4
 10
-5.11854273E+01
 20
-2.74109188E+02
  0
VERTEX
  8
0
 62
4
 10
-5.14041170E+01
 20
-2.74306526E+02
  0
VERTEX
  8
0
 62
4
 10
-5.16045100E+01
 20
-2.74521885E+02
  0
VERTEX
  8
0
 62
4
 10
-5.17850811E+01
 20
-2.74753623E+02
  0
VERTEX
  8
0
 62
4
 10
-5.19444562E+01
 20
-2.74999979E+02
  0
VERTEX
  8
0
 62
4
 10
-5.20814223E+01
 20
-2.75259077E+02
  0
VERTEX
  8
0
 62
4
 10
-5.21949369E+01
 20
-2.75528945E+02
  0
VERTEX
  8
0
 62
4
 10
-5.22841362E+01
 20
-2.75807529E+02
  0
VERTEX
  8
0
 62
4
 10
-5.23483413E+01
 20
-2.76092709E+02
  0
VERTEX
  8
0
 62
4
 10
-5.23870636E+01
 20
-2.76382315E+02
  0
VERTEX
  8
0
 62
4
 10
-5.24000083E+01
 20
-2.76674142E+02
  0
SEQEND
  8
0
  0
LINE
  8
0
 62
4
 10
-5.79999951E+01
 20
-2.89689106E+02
 11
-2.49999951E+01
 21
-2.89689082E+02
  0
LINE
  8
0
 62
4
 10
-2.19999994E+01
 20
-2.84447485E+02
 11
-2.49999951E+01
 21
-2.88907665E+02
  0
LINE
  8
0
 62
4
 10
-5.79999952E+01
 20
-2.88907689E+02
 11
-6.09999994E+01
 21
-2.84447513E+02
  0
LINE
  8
0
 62
4
 10
-2.49999951E+01
 20
-2.92500046E+02
 11
-2.49999951E+01
 21
-2.88907665E+02
  0
LINE
  8
0
 62
4
 10
-5.79999951E+01
 20
-2.92500046E+02
 11
-5.79999951E+01
 21
-2.88907689E+02
  0
LINE
  8
0
 62
4
 10
-5.79999951E+01
 20
-2.88907689E+02
 11
-2.49999951E+01
 21
-2.88907665E+02
  0
LINE
  8
0
 62
4
 10
-5.65000332E+01
 20
-2.41897400E+02
 11
-4.15000332E+01
 21
-2.41897389E+02
  0
LINE
  8
0
  6
CENTER
 62
6
 10
-4.90000039E+01
 20
-2.82853427E+02
 11
-4.90000131E+01
 21
-2.70053427E+02
  0
LINE
  8
0
  6
CENTER
 62
6
 10
-5.54000085E+01
 20
-2.76453432E+02
 11
-4.26000085E+01
 21
-2.76453422E+02
  0
LINE
  8
0
 62
4
 10
-5.85000158E+01
 20
-2.66170286E+02
 11
-3.95000158E+01
 21
-2.66170273E+02
  0
LINE
  8
0
 62
4
 10
-6.10000086E+01
 20
-2.71571397E+02
 11
-6.09999994E+01
 21
-2.84447513E+02
  0
LINE
  8
0
 62
4
 10
-5.85000158E+01
 20
-2.66170286E+02
 11
-5.85000131E+01
 21
-2.70071381E+02
  0
LINE
  8
0
 62
4
 10
-4.15000332E+01
 20
-2.41897389E+02
 11
-4.15000158E+01
 21
-2.66170286E+02
  0
LINE
  8
0
 62
4
 10
-5.65000332E+01
 20
-2.41897389E+02
 11
-5.65000158E+01
 21
-2.66170285E+02
  0
LINE
  8
0
 62
4
 10
-3.95000158E+01
 20
-2.66170286E+02
 11
-3.95000131E+01
 21
-2.70071382E+02
  0
LINE
  8
0
 62
4
 10
-5.65000163E+01
 20
-2.65532775E+02
 11
-4.15000163E+01
 21
-2.65532764E+02
  0
LINE
  8
0
 62
4
 10
-2.20000086E+01
 20
-2.71571369E+02
 11
-2.19999994E+01
 21
-2.84447485E+02
  0
LINE
  8
0
 62
4
 10
-6.09999994E+01
 20
-2.84447513E+02
 11
-2.19999994E+01
 21
-2.84447485E+02
  0
LINE
  8
0
 62
4
 10
-6.10000004E+01
 20
-2.82970302E+02
 11
-2.20000004E+01
 21
-2.82970274E+02
  0
LINE
  8
0
 62
4
 10
-5.95000096E+01
 20
-2.70071396E+02
 11
-2.35000096E+01
 21
-2.70071371E+02
  0
LINE
  8
0
 62
4
 10
-7.60000333E+01
 20
-2.41722539E+02
 11
-7.10000333E+01
 21
-2.41722535E+02
  0
LINE
  8
0
 62
4
 10
-7.60000315E+01
 20
-2.44286855E+02
 11
-7.10000315E+01
 21
-2.44286851E+02
  0
LINE
  8
0
 62
4
 10
-7.60000262E+01
 20
-2.51682761E+02
 11
-7.10000262E+01
 21
-2.51682757E+02
  0
LINE
  8
0
 62
4
 10
-7.60000227E+01
 20
-2.56504503E+02
 11
-7.10000227E+01
 21
-2.56504499E+02
  0
LINE
  8
0
 62
4
 10
-6.55000230E+01
 20
-2.56107458E+02
 11
-5.70000230E+01
 21
-2.56107452E+02
  0
LINE
  8
0
 62
4
 10
-5.65000330E+01
 20
-2.42107454E+02
 11
-6.55000330E+01
 21
-2.42107460E+02
  0
LINE
  8
0
 62
4
 10
-6.60000327E+01
 20
-2.42607460E+02
 11
-6.60000234E+01
 21
-2.55606951E+02
  0
LINE
  8
0
 62
4
 10
-7.60000333E+01
 20
-2.41722539E+02
 11
-7.60000227E+01
 21
-2.56504503E+02
  0
LINE
  8
0
 62
4
 10
-7.10000333E+01
 20
-2.41722535E+02
 11
-7.10000227E+01
 21
-2.56504503E+02
  0
LINE
  8
0
 62
4
 10
-7.10000325E+01
 20
-2.42857457E+02
 11
-6.60000325E+01
 21
-2.42857454E+02
  0
LINE
  8
0
 62
4
 10
-7.10000236E+01
 20
-2.55357457E+02
 11
-6.60000236E+01
 21
-2.55357454E+02
  0
LINE
  8
0
 62
4
 10
-6.95000325E+01
 20
-2.42857456E+02
 11
-6.95000236E+01
 21
-2.55357456E+02
  0
LINE
  8
0
 62
4
 10
-6.95000321E+01
 20
-2.43357456E+02
 11
-6.60000321E+01
 21
-2.43357454E+02
  0
LINE
  8
0
 62
4
 10
-6.95000239E+01
 20
-2.54857456E+02
 11
-6.60000239E+01
 21
-2.54857454E+02
  0
ARC
  8
0
 62
4
 10
-6.55005247E+01
 20
-2.42606968E+02
 40
4.99508251E-01
 50
8.99436074E+01
 51
1.80056475E+02
  0
ARC
  8
0
 62
4
 10
-5.69995154E+01
 20
-2.56606945E+02
 40
4.99492993E-01
 50
3.59941854E+02
 51
9.00582282E+01
  0
ARC
  8
0
 62
4
 10
-2.34995011E+01
 20
-2.71570863E+02
 40
1.49949266E+00
 50
3.59980652E+02
 51
9.00194298E+01
  0
ARC
  8
0
 62
4
 10
-6.54995156E+01
 20
-2.55606951E+02
 40
5.00508007E-01
 50
1.80058166E+02
 51
2.69941916E+02
  0
ARC
  8
0
 62
4
 10
-5.95005007E+01
 20
-2.71570904E+02
 40
1.49950792E+00
 50
8.99812358E+01
 51
1.80018846E+02
  0
LINE
  8
0
 62
6
 10
-5.07149432E+01
 20
-2.78389157E+02
 11
-4.72850735E+01
 21
-2.74959282E+02
  0
LINE
  8
0
 62
6
 10
-4.72850710E+01
 20
-2.78389155E+02
 11
-5.07149456E+01
 21
-2.74959285E+02
  0
LINE
  8
0
 62
4
 10
-4.54579479E+02
 20
-2.78013156E+02
 11
-4.47684364E+02
 21
-2.76797361E+02
  0
LINE
  8
0
 62
4
 10
-4.54579479E+02
 20
-2.78013156E+02
 11
-4.56029509E+02
 21
-2.82000015E+02
  0
LINE
  8
0
 62
4
 10
-4.48809471E+02
 20
-2.44502096E+02
 11
-4.43993761E+02
 21
-2.43652957E+02
  0
LINE
  8
0
 62
4
 10
-4.34037355E+02
 20
-2.41897374E+02
 11
-4.29696150E+02
 21
-2.66517568E+02
  0
LINE
  8
0
 62
4
 10
-4.48809471E+02
 20
-2.44502096E+02
 11
-4.44468267E+02
 21
-2.69122290E+02
  0
LINE
  8
0
 62
4
 10
-4.46437882E+02
 20
-2.69469587E+02
 11
-4.27726535E+02
 21
-2.66170271E+02
  0
LINE
  8
0
 62
4
 10
-4.44641915E+02
 20
-2.68137482E+02
 11
-4.29869798E+02
 21
-2.65532760E+02
  0
LINE
  8
0
 62
4
 10
-4.27726535E+02
 20
-2.66170271E+02
 11
-4.27031942E+02
 21
-2.70109502E+02
  0
LINE
  8
0
 62
4
 10
-4.46437882E+02
 20
-2.69469587E+02
 11
-4.45743289E+02
 21
-2.73408818E+02
  0
LINE
  8
0
 62
4
 10
-4.45743289E+02
 20
-2.73408818E+02
 11
-4.27031942E+02
 21
-2.70109502E+02
  0
LINE
  8
0
 62
4
 10
-4.24135802E+02
 20
-2.72137401E+02
 11
-4.22396757E+02
 21
-2.82000015E+02
  0
LINE
  8
0
 62
4
 10
-4.47771188E+02
 20
-2.76304957E+02
 11
-4.46766996E+02
 21
-2.82000015E+02
  0
LINE
  8
0
 62
4
 10
-4.36968046E+02
 20
-2.79984918E+02
 11
-4.33028815E+02
 21
-2.79290326E+02
  0
LINE
  8
0
 62
4
 10
-4.33999303E+02
 20
-2.82000015E+02
 11
-4.32594694E+02
 21
-2.81752345E+02
  0
LINE
  8
0
 62
4
 10
-4.36968046E+02
 20
-2.79984918E+02
 11
-4.36612730E+02
 21
-2.82000015E+02
  0
LINE
  8
0
 62
4
 10
-4.33028815E+02
 20
-2.79290326E+02
 11
-4.32594694E+02
 21
-2.81752345E+02
  0
LINE
  8
0
 62
4
 10
-4.39077426E+02
 20
-2.56504488E+02
 11
-4.33327356E+02
 21
-2.51682746E+02
  0
LINE
  8
0
 62
4
 10
-4.47433955E+02
 20
-2.46544266E+02
 11
-4.41683885E+02
 21
-2.41722523E+02
  0
LINE
  8
0
 62
4
 10
-4.47433955E+02
 20
-2.46544266E+02
 11
-4.46129857E+02
 21
-2.53940172E+02
  0
LINE
  8
0
 62
4
 10
-4.34631454E+02
 20
-2.44286839E+02
 11
-4.33327356E+02
 21
-2.51682746E+02
  0
LINE
  8
0
 62
4
 10
-4.46129857E+02
 20
-2.53940172E+02
 11
-4.39077426E+02
 21
-2.56504488E+02
  0
LINE
  8
0
 62
4
 10
-4.41683885E+02
 20
-2.41722523E+02
 11
-4.34631454E+02
 21
-2.44286839E+02
  0
LINE
  8
0
 62
4
 10
-4.38862913E+02
 20
-2.42748250E+02
 11
-4.34037355E+02
 21
-2.41897374E+02
  0
LINE
  8
0
 62
4
 10
-4.23962154E+02
 20
-2.73122209E+02
 11
-4.23469750E+02
 21
-2.73035385E+02
  0
LINE
  8
0
 62
4
 10
-4.22572969E+02
 20
-2.81000671E+02
 11
-4.22080565E+02
 21
-2.80913847E+02
  0
LINE
  8
0
 62
4
 10
-4.23365561E+02
 20
-2.73626269E+02
 11
-4.21661844E+02
 21
-2.73325858E+02
  0
LINE
  8
0
 62
4
 10
-4.20481036E+02
 20
-2.80022551E+02
 11
-4.22184754E+02
 21
-2.80322962E+02
  0
LINE
  8
0
  6
CENTER
 62
6
 10
-4.51275614E+02
 20
-2.82000015E+02
 11
-4.16866311E+02
 21
-2.75932727E+02
  0
LINE
  8
0
 62
4
 10
-4.23469750E+02
 20
-2.73035385E+02
 11
-4.22080565E+02
 21
-2.80913847E+02
  0
ARC
  8
0
 62
4
 10
-4.31451324E+02
 20
-2.78482809E+02
 40
1.18077645E+01
 50
3.57024145E+02
 51
2.27266957E+01
  0
ARC
  8
0
 62
4
 10
-4.45309148E+02
 20
-2.75870852E+02
 40
2.50001831E+00
 50
1.00000420E+02
 51
1.89999580E+02
  0
ARC
  8
0
 62
4
 10
-4.26597023E+02
 20
-2.72570381E+02
 40
2.49901570E+00
 50
9.97742809E+00
 51
1.00022572E+02
  0
CIRCLE
  8
0
 62
4
 10
-4.40380710E+02
 20
-2.49107438E+02
 40
3.75000000E+00
  0
ARC
  8
0
 62
4
 10
-4.20656379E+02
 20
-2.79039586E+02
 40
9.98481423E-01
 50
2.80114125E+02
 51
3.56771982E+02
  0
ARC
  8
0
 62
4
 10
-4.21491222E+02
 20
-2.74307249E+02
 40
9.96112687E-01
 50
2.25301420E+01
 51
9.98626848E+01
  0
ARC
  8
0
 62
4
 10
-4.40380710E+02
 20
-2.49107438E+02
 40
7.00000000E+00
 50
6.89816399E+01
 51
9.19142837E+01
  0
ARC
  8
0
 62
4
 10
-4.40380710E+02
 20
-2.49107438E+02
 40
7.00000000E+00
 50
1.08107658E+02
 51
1.31018360E+02
  0
LINE
  8
0
 62
4
 10
1.16402516E+02
 20
-2.70229082E+02
 11
1.22587109E+02
 21
-2.71319592E+02
  0
LINE
  8
0
 62
4
 10
1.22587109E+02
 20
-2.71319592E+02
 11
1.22767991E+02
 21
-2.72366913E+02
  0
LINE
  8
0
 62
4
 10
1.15874337E+02
 20
-2.71151376E+02
 11
1.16402516E+02
 21
-2.70229082E+02
  0
LINE
  8
0
  6
CENTER
 62
6
 10
1.19883213E+02
 20
-2.68571609E+02
 11
1.19062428E+02
 21
-2.73226508E+02
  0
LINE
  8
0
 62
4
 10
1.42485855E+02
 20
-2.91685939E+02
 11
1.43318119E+02
 21
-2.93974249E+02
  0
ARC
  8
0
 62
4
 10
1.04424770E+02
 20
-2.74307234E+02
 40
9.96112687E-01
 50
8.01373150E+01
 51
1.57469858E+02
  0
ARC
  8
0
 62
4
 10
1.03589927E+02
 20
-2.79039571E+02
 40
9.98481423E-01
 50
1.83228018E+02
 51
2.59885875E+02
  0
ARC
  8
0
 62
4
 10
1.09530571E+02
 20
-2.72570366E+02
 40
2.49901570E+00
 50
7.99774282E+01
 51
1.70022572E+02
  0
ARC
  8
0
 62
4
 10
1.28242696E+02
 20
-2.75870837E+02
 40
2.50001831E+00
 50
3.50000420E+02
 51
7.99995805E+01
  0
ARC
  8
0
 62
4
 10
1.14384872E+02
 20
-2.78482793E+02
 40
1.18077645E+01
 50
1.57273305E+02
 51
1.82975855E+02
  0
ARC
  8
0
 62
4
 10
1.29547482E+02
 20
-2.85747440E+02
 40
5.00000533E-01
 50
3.50000061E+02
 51
7.99999392E+01
  0
LINE
  8
0
 62
4
 10
1.06403298E+02
 20
-2.73035370E+02
 11
1.05014113E+02
 21
-2.80913832E+02
  0
LINE
  8
0
  6
CENTER
 62
6
 10
1.37153617E+02
 20
-2.82519187E+02
 11
9.97998590E+01
 21
-2.75932711E+02
  0
LINE
  8
0
 62
4
 10
1.03414584E+02
 20
-2.80022536E+02
 11
1.05118302E+02
 21
-2.80322947E+02
  0
LINE
  8
0
 62
4
 10
1.06299109E+02
 20
-2.73626254E+02
 11
1.04595392E+02
 21
-2.73325843E+02
  0
LINE
  8
0
 62
4
 10
1.05506517E+02
 20
-2.81000656E+02
 11
1.05014113E+02
 21
-2.80913832E+02
  0
LINE
  8
0
 62
4
 10
1.06895702E+02
 20
-2.73122194E+02
 11
1.06403298E+02
 21
-2.73035370E+02
  0
LINE
  8
0
 62
4
 10
1.24617433E+02
 20
-2.41722508E+02
 11
1.23548113E+02
 21
-2.42111321E+02
  0
LINE
  8
0
 62
4
 10
1.25489320E+02
 20
-2.42453632E+02
 11
1.24617433E+02
 21
-2.41722508E+02
  0
LINE
  8
0
 62
4
 10
1.15962363E+02
 20
-2.79290310E+02
 11
1.15528242E+02
 21
-2.81752330E+02
  0
LINE
  8
0
 62
4
 10
1.19901594E+02
 20
-2.79984903E+02
 11
1.19467473E+02
 21
-2.82446922E+02
  0
LINE
  8
0
 62
4
 10
1.19467473E+02
 20
-2.82446922E+02
 11
1.15528242E+02
 21
-2.81752330E+02
  0
LINE
  8
0
 62
4
 10
1.19901594E+02
 20
-2.79984903E+02
 11
1.15962363E+02
 21
-2.79290310E+02
  0
LINE
  8
0
 62
4
 10
1.28794606E+02
 20
-2.87137827E+02
 11
1.05159220E+02
 21
-2.82970271E+02
  0
LINE
  8
0
 62
4
 10
1.04898748E+02
 20
-2.84447483E+02
 11
1.06952023E+02
 21
-2.88499985E+02
  0
LINE
  8
0
 62
4
 10
1.30704736E+02
 20
-2.76304942E+02
 11
1.28554421E+02
 21
-2.88499985E+02
  0
LINE
  8
0
 62
4
 10
1.07069350E+02
 20
-2.72137386E+02
 11
1.04898748E+02
 21
-2.84447483E+02
  0
LINE
  8
0
 62
4
 10
1.27881629E+02
 20
-2.88499985E+02
 11
1.04898748E+02
 21
-2.84447483E+02
  0
LINE
  8
0
 62
4
 10
1.28676837E+02
 20
-2.73408802E+02
 11
1.09965490E+02
 21
-2.70109487E+02
  0
LINE
  8
0
 62
4
 10
1.29371430E+02
 20
-2.69469571E+02
 11
1.28676837E+02
 21
-2.73408802E+02
  0
LINE
  8
0
 62
4
 10
1.10660083E+02
 20
-2.66170256E+02
 11
1.09965490E+02
 21
-2.70109487E+02
  0
LINE
  8
0
 62
4
 10
1.27575463E+02
 20
-2.68137467E+02
 11
1.12803346E+02
 21
-2.65532744E+02
  0
LINE
  8
0
 62
4
 10
1.29371430E+02
 20
-2.69469571E+02
 11
1.10660083E+02
 21
-2.66170256E+02
  0
LINE
  8
0
 62
4
 10
1.31743019E+02
 20
-2.44502081E+02
 11
1.27401815E+02
 21
-2.69122275E+02
  0
LINE
  8
0
 62
4
 10
1.16970903E+02
 20
-2.41897358E+02
 11
1.12629698E+02
 21
-2.66517552E+02
  0
LINE
  8
0
 62
4
 10
1.16970903E+02
 20
-2.41897358E+02
 11
1.31743019E+02
 21
-2.44502081E+02
  0
LINE
  8
0
 62
6
 10
1.44786409E+02
 20
-2.98070872E+02
 11
1.42661830E+02
 21
-2.97696252E+02
  0
LINE
  8
0
 62
4
 10
1.43193833E+02
 20
-3.01344051E+02
 11
1.44223789E+02
 21
-3.01261649E+02
  0
LINE
  8
0
 62
4
 10
1.43886689E+02
 20
-2.97414668E+02
 11
1.44826348E+02
 21
-2.97844367E+02
  0
LINE
  8
0
 62
4
 10
1.44826348E+02
 20
-2.97844367E+02
 11
1.44223789E+02
 21
-3.01261649E+02
  0
LINE
  8
0
 62
4
 10
1.43193833E+02
 20
-3.01344051E+02
 11
1.42499977E+02
 21
-3.01221706E+02
  0
LINE
  8
0
 62
4
 10
1.43886689E+02
 20
-2.97414668E+02
 11
1.42746917E+02
 21
-2.97213696E+02
  0
LINE
  8
0
 62
6
 10
1.44265464E+02
 20
-3.01025296E+02
 11
1.42499977E+02
 21
-3.00713992E+02
  0
LINE
  8
0
  6
CENTER
 62
6
 10
1.45739856E+02
 20
-2.99762131E+02
 11
1.42499977E+02
 21
-2.99190853E+02
  0
LINE
  8
0
 62
4
 10
1.37513027E+02
 20
-2.78013141E+02
 11
1.41873155E+02
 21
-2.90001319E+02
  0
LINE
  8
0
 62
4
 10
1.43318119E+02
 20
-2.93974249E+02
 11
1.42499977E+02
 21
-2.98614162E+02
  0
LINE
  8
0
 62
4
 10
1.30039886E+02
 20
-2.85834264E+02
 11
1.29569848E+02
 21
-2.88499985E+02
  0
LINE
  8
0
 62
4
 10
1.29634307E+02
 20
-2.85255036E+02
 11
1.29141903E+02
 21
-2.85168212E+02
  0
LINE
  8
0
 62
4
 10
1.37513027E+02
 20
-2.78013141E+02
 11
1.30617912E+02
 21
-2.76797346E+02
  0
ARC
  8
0
 62
4
 10
1.23315205E+02
 20
-2.49107445E+02
 40
7.00000000E+00
 50
4.89793705E+01
 51
1.11020629E+02
  0
ARC
  8
0
 62
4
 10
-2.34994947E+01
 20
-1.41996991E+02
 40
1.49950029E+00
 50
2.69980903E+02
 51
1.90971113E-02
  0
ARC
  8
0
 62
4
 10
-5.95004981E+01
 20
-1.41996995E+02
 40
1.49949647E+00
 50
1.79980757E+02
 51
2.70019243E+02
  0
LINE
  8
0
 62
4
 10
-5.64999945E+01
 20
-1.38370264E+02
 11
-4.14999945E+01
 21
-1.38370264E+02
  0
LINE
  8
0
 62
4
 10
-5.84999945E+01
 20
-1.41034472E+02
 11
-3.94999945E+01
 21
-1.41034472E+02
  0
POLYLINE
  8
0
 62
4
 66
1
  0
VERTEX
  8
0
 62
4
 10
-2.94999945E+01
 20
-1.31678798E+02
  0
VERTEX
  8
0
 62
4
 10
-2.95133131E+01
 20
-1.31378387E+02
  0
VERTEX
  8
0
 62
4
 10
-2.95531674E+01
 20
-1.31080263E+02
  0
VERTEX
  8
0
 62
4
 10
-2.96192541E+01
 20
-1.30786693E+02
  0
VERTEX
  8
0
 62
4
 10
-2.97110703E+01
 20
-1.30499914E+02
  0
VERTEX
  8
0
 62
4
 10
-2.98279172E+01
 20
-1.30222106E+02
  0
VERTEX
  8
0
 62
4
 10
-2.99689056E+01
 20
-1.29955384E+02
  0
VERTEX
  8
0
 62
4
 10
-3.01329623E+01
 20
-1.29701779E+02
  0
VERTEX
  8
0
 62
4
 10
-3.03188389E+01
 20
-1.29463220E+02
  0
VERTEX
  8
0
 62
4
 10
-3.05251208E+01
 20
-1.29241523E+02
  0
VERTEX
  8
0
 62
4
 10
-3.07502379E+01
 20
-1.29038375E+02
  0
VERTEX
  8
0
 62
4
 10
-3.09924770E+01
 20
-1.28855323E+02
  0
VERTEX
  8
0
 62
4
 10
-3.12499945E+01
 20
-1.28693758E+02
  0
VERTEX
  8
0
 62
4
 10
-3.15208306E+01
 20
-1.28554912E+02
  0
VERTEX
  8
0
 62
4
 10
-3.18029240E+01
 20
-1.28439840E+02
  0
VERTEX
  8
0
 62
4
 10
-3.20941278E+01
 20
-1.28349419E+02
  0
VERTEX
  8
0
 62
4
 10
-3.23922259E+01
 20
-1.28284336E+02
  0
VERTEX
  8
0
 62
4
 10
-3.26949494E+01
 20
-1.28245087E+02
  0
VERTEX
  8
0
 62
4
 10
-3.29999945E+01
 20
-1.28231971E+02
  0
VERTEX
  8
0
 62
4
 10
-3.33050396E+01
 20
-1.28245087E+02
  0
VERTEX
  8
0
 62
4
 10
-3.36077631E+01
 20
-1.28284336E+02
  0
VERTEX
  8
0
 62
4
 10
-3.39058612E+01
 20
-1.28349419E+02
  0
VERTEX
  8
0
 62
4
 10
-3.41970650E+01
 20
-1.28439840E+02
  0
VERTEX
  8
0
 62
4
 10
-3.44791584E+01
 20
-1.28554912E+02
  0
VERTEX
  8
0
 62
4
 10
-3.47499945E+01
 20
-1.28693758E+02
  0
VERTEX
  8
0
 62
4
 10
-3.50075120E+01
 20
-1.28855323E+02
  0
VERTEX
  8
0
 62
4
 10
-3.52497511E+01
 20
-1.29038375E+02
  0
VERTEX
  8
0
 62
4
 10
-3.54748682E+01
 20
-1.29241523E+02
  0
VERTEX
  8
0
 62
4
 10
-3.56811501E+01
 20
-1.29463220E+02
  0
VERTEX
  8
0
 62
4
 10
-3.58670267E+01
 20
-1.29701779E+02
  0
VERTEX
  8
0
 62
4
 10
-3.60310834E+01
 20
-1.29955384E+02
  0
VERTEX
  8
0
 62
4
 10
-3.61720718E+01
 20
-1.30222106E+02
  0
VERTEX
  8
0
 62
4
 10
-3.62889187E+01
 20
-1.30499914E+02
  0
VERTEX
  8
0
 62
4
 10
-3.63807349E+01
 20
-1.30786693E+02
  0
VERTEX
  8
0
 62
4
 10
-3.64468216E+01
 20
-1.31080263E+02
  0
VERTEX
  8
0
 62
4
 10
-3.64866759E+01
 20
-1.31378387E+02
  0
VERTEX
  8
0
 62
4
 10
-3.64999945E+01
 20
-1.31678798E+02
  0
VERTEX
  8
0
 62
4
 10
-3.64866759E+01
 20
-1.31979209E+02
  0
VERTEX
  8
0
 62
4
 10
-3.64468216E+01
 20
-1.32277333E+02
  0
VERTEX
  8
0
 62
4
 10
-3.63807349E+01
 20
-1.32570903E+02
  0
VERTEX
  8
0
 62
4
 10
-3.62889187E+01
 20
-1.32857682E+02
  0
VERTEX
  8
0
 62
4
 10
-3.61720718E+01
 20
-1.33135490E+02
  0
VERTEX
  8
0
 62
4
 10
-3.60310834E+01
 20
-1.33402212E+02
  0
VERTEX
  8
0
 62
4
 10
-3.58670267E+01
 20
-1.33655817E+02
  0
VERTEX
  8
0
 62
4
 10
-3.56811500E+01
 20
-1.33894376E+02
  0
VERTEX
  8
0
 62
4
 10
-3.54748682E+01
 20
-1.34116073E+02
  0
VERTEX
  8
0
 62
4
 10
-3.52497511E+01
 20
-1.34319221E+02
  0
VERTEX
  8
0
 62
4
 10
-3.50075120E+01
 20
-1.34502274E+02
  0
VERTEX
  8
0
 62
4
 10
-3.47499945E+01
 20
-1.34663838E+02
  0
VERTEX
  8
0
 62
4
 10
-3.44791584E+01
 20
-1.34802684E+02
  0
VERTEX
  8
0
 62
4
 10
-3.41970650E+01
 20
-1.34917756E+02
  0
VERTEX
  8
0
 62
4
 10
-3.39058612E+01
 20
-1.35008177E+02
  0
VERTEX
  8
0
 62
4
 10
-3.36077631E+01
 20
-1.35073260E+02
  0
VERTEX
  8
0
 62
4
 10
-3.33050396E+01
 20
-1.35112509E+02
  0
VERTEX
  8
0
 62
4
 10
-3.29999945E+01
 20
-1.35125625E+02
  0
VERTEX
  8
0
 62
4
 10
-3.26949494E+01
 20
-1.35112509E+02
  0
VERTEX
  8
0
 62
4
 10
-3.23922259E+01
 20
-1.35073260E+02
  0
VERTEX
  8
0
 62
4
 10
-3.20941278E+01
 20
-1.35008177E+02
  0
VERTEX
  8
0
 62
4
 10
-3.18029240E+01
 20
-1.34917756E+02
  0
VERTEX
  8
0
 62
4
 10
-3.15208306E+01
 20
-1.34802684E+02
  0
VERTEX
  8
0
 62
4
 10
-3.12499945E+01
 20
-1.34663838E+02
  0
VERTEX
  8
0
 62
4
 10
-3.09924770E+01
 20
-1.34502273E+02
  0
VERTEX
  8
0
 62
4
 10
-3.07502379E+01
 20
-1.34319221E+02
  0
VERTEX
  8
0
 62
4
 10
-3.05251208E+01
 20
-1.34116073E+02
  0
VERTEX
  8
0
 62
4
 10
-3.03188389E+01
 20
-1.33894376E+02
  0
VERTEX
  8
0
 62
4
 10
-3.01329623E+01
 20
-1.33655817E+02
  0
VERTEX
  8
0
 62
4
 10
-2.99689056E+01
 20
-1.33402212E+02
  0
VERTEX
  8
0
 62
4
 10
-2.98279172E+01
 20
-1.33135490E+02
  0
VERTEX
  8
0
 62
4
 10
-2.97110703E+01
 20
-1.32857682E+02
  0
VERTEX
  8
0
 62
4
 10
-2.96192541E+01
 20
-1.32570903E+02
  0
VERTEX
  8
0
 62
4
 10
-2.95531674E+01
 20
-1.32277333E+02
  0
VERTEX
  8
0
 62
4
 10
-2.95133131E+01
 20
-1.31979209E+02
  0
VERTEX
  8
0
 62
4
 10
-2.94999945E+01
 20
-1.31678798E+02
  0
SEQEND
  8
0
  0
POLYLINE
  8
0
 62
4
 66
1
  0
VERTEX
  8
0
 62
4
 10
-2.98599945E+01
 20
-1.31505150E+02
  0
VERTEX
  8
0
 62
4
 10
-2.98719431E+01
 20
-1.31235639E+02
  0
VERTEX
  8
0
 62
4
 10
-2.99076982E+01
 20
-1.30968178E+02
  0
VERTEX
  8
0
 62
4
 10
-2.99669874E+01
 20
-1.30704805E+02
  0
VERTEX
  8
0
 62
4
 10
-3.00493597E+01
 20
-1.30447522E+02
  0
VERTEX
  8
0
 62
4
 10
-3.01541880E+01
 20
-1.30198289E+02
  0
VERTEX
  8
0
 62
4
 10
-3.02806747E+01
 20
-1.29959002E+02
  0
VERTEX
  8
0
 62
4
 10
-3.04278571E+01
 20
-1.29731482E+02
  0
VERTEX
  8
0
 62
4
 10
-3.05946149E+01
 20
-1.29517460E+02
  0
VERTEX
  8
0
 62
4
 10
-3.07796792E+01
 20
-1.29318566E+02
  0
VERTEX
  8
0
 62
4
 10
-3.09816414E+01
 20
-1.29136314E+02
  0
VERTEX
  8
0
 62
4
 10
-3.11989645E+01
 20
-1.28972089E+02
  0
VERTEX
  8
0
 62
4
 10
-3.14299945E+01
 20
-1.28827143E+02
  0
VERTEX
  8
0
 62
4
 10
-3.16729732E+01
 20
-1.28702578E+02
  0
VERTEX
  8
0
 62
4
 10
-3.19260513E+01
 20
-1.28599342E+02
  0
VERTEX
  8
0
 62
4
 10
-3.21873027E+01
 20
-1.28518221E+02
  0
VERTEX
  8
0
 62
4
 10
-3.24547392E+01
 20
-1.28459833E+02
  0
VERTEX
  8
0
 62
4
 10
-3.27263255E+01
 20
-1.28424621E+02
  0
VERTEX
  8
0
 62
4
 10
-3.29999945E+01
 20
-1.28412854E+02
  0
VERTEX
  8
0
 62
4
 10
-3.32736635E+01
 20
-1.28424621E+02
  0
VERTEX
  8
0
 62
4
 10
-3.35452498E+01
 20
-1.28459833E+02
  0
VERTEX
  8
0
 62
4
 10
-3.38126863E+01
 20
-1.28518221E+02
  0
VERTEX
  8
0
 62
4
 10
-3.40739378E+01
 20
-1.28599342E+02
  0
VERTEX
  8
0
 62
4
 10
-3.43270158E+01
 20
-1.28702578E+02
  0
VERTEX
  8
0
 62
4
 10
-3.45699945E+01
 20
-1.28827143E+02
  0
VERTEX
  8
0
 62
4
 10
-3.48010245E+01
 20
-1.28972089E+02
  0
VERTEX
  8
0
 62
4
 10
-3.50183476E+01
 20
-1.29136314E+02
  0
VERTEX
  8
0
 62
4
 10
-3.52203098E+01
 20
-1.29318566E+02
  0
VERTEX
  8
0
 62
4
 10
-3.54053741E+01
 20
-1.29517460E+02
  0
VERTEX
  8
0
 62
4
 10
-3.55721319E+01
 20
-1.29731482E+02
  0
VERTEX
  8
0
 62
4
 10
-3.57193143E+01
 20
-1.29959002E+02
  0
VERTEX
  8
0
 62
4
 10
-3.58458010E+01
 20
-1.30198289E+02
  0
VERTEX
  8
0
 62
4
 10
-3.59506293E+01
 20
-1.30447522E+02
  0
VERTEX
  8
0
 62
4
 10
-3.60330016E+01
 20
-1.30704805E+02
  0
VERTEX
  8
0
 62
4
 10
-3.60922908E+01
 20
-1.30968178E+02
  0
VERTEX
  8
0
 62
4
 10
-3.61280459E+01
 20
-1.31235639E+02
  0
VERTEX
  8
0
 62
4
 10
-3.61399945E+01
 20
-1.31505150E+02
  0
VERTEX
  8
0
 62
4
 10
-3.61280459E+01
 20
-1.31774661E+02
  0
VERTEX
  8
0
 62
4
 10
-3.60922908E+01
 20
-1.32042122E+02
  0
VERTEX
  8
0
 62
4
 10
-3.60330016E+01
 20
-1.32305495E+02
  0
VERTEX
  8
0
 62
4
 10
-3.59506293E+01
 20
-1.32562778E+02
  0
VERTEX
  8
0
 62
4
 10
-3.58458009E+01
 20
-1.32812011E+02
  0
VERTEX
  8
0
 62
4
 10
-3.57193143E+01
 20
-1.33051298E+02
  0
VERTEX
  8
0
 62
4
 10
-3.55721319E+01
 20
-1.33278818E+02
  0
VERTEX
  8
0
 62
4
 10
-3.54053740E+01
 20
-1.33492840E+02
  0
VERTEX
  8
0
 62
4
 10
-3.52203098E+01
 20
-1.33691734E+02
  0
VERTEX
  8
0
 62
4
 10
-3.50183476E+01
 20
-1.33873986E+02
  0
VERTEX
  8
0
 62
4
 10
-3.48010245E+01
 20
-1.34038211E+02
  0
VERTEX
  8
0
 62
4
 10
-3.45699945E+01
 20
-1.34183157E+02
  0
VERTEX
  8
0
 62
4
 10
-3.43270158E+01
 20
-1.34307722E+02
  0
VERTEX
  8
0
 62
4
 10
-3.40739377E+01
 20
-1.34410958E+02
  0
VERTEX
  8
0
 62
4
 10
-3.38126863E+01
 20
-1.34492079E+02
  0
VERTEX
  8
0
 62
4
 10
-3.35452498E+01
 20
-1.34550467E+02
  0
VERTEX
  8
0
 62
4
 10
-3.32736635E+01
 20
-1.34585679E+02
  0
VERTEX
  8
0
 62
4
 10
-3.29999945E+01
 20
-1.34597446E+02
  0
VERTEX
  8
0
 62
4
 10
-3.27263255E+01
 20
-1.34585679E+02
  0
VERTEX
  8
0
 62
4
 10
-3.24547392E+01
 20
-1.34550467E+02
  0
VERTEX
  8
0
 62
4
 10
-3.21873027E+01
 20
-1.34492079E+02
  0
VERTEX
  8
0
 62
4
 10
-3.19260512E+01
 20
-1.34410958E+02
  0
VERTEX
  8
0
 62
4
 10
-3.16729732E+01
 20
-1.34307722E+02
  0
VERTEX
  8
0
 62
4
 10
-3.14299945E+01
 20
-1.34183157E+02
  0
VERTEX
  8
0
 62
4
 10
-3.11989645E+01
 20
-1.34038211E+02
  0
VERTEX
  8
0
 62
4
 10
-3.09816414E+01
 20
-1.33873986E+02
  0
VERTEX
  8
0
 62
4
 10
-3.07796792E+01
 20
-1.33691734E+02
  0
VERTEX
  8
0
 62
4
 10
-3.05946149E+01
 20
-1.33492840E+02
  0
VERTEX
  8
0
 62
4
 10
-3.04278571E+01
 20
-1.33278818E+02
  0
VERTEX
  8
0
 62
4
 10
-3.02806747E+01
 20
-1.33051298E+02
  0
VERTEX
  8
0
 62
4
 10
-3.01541880E+01
 20
-1.32812011E+02
  0
VERTEX
  8
0
 62
4
 10
-3.00493597E+01
 20
-1.32562778E+02
  0
VERTEX
  8
0
 62
4
 10
-2.99669874E+01
 20
-1.32305495E+02
  0
VERTEX
  8
0
 62
4
 10
-2.99076982E+01
 20
-1.32042122E+02
  0
VERTEX
  8
0
 62
4
 10
-2.98719431E+01
 20
-1.31774661E+02
  0
VERTEX
  8
0
 62
4
 10
-2.98599945E+01
 20
-1.31505150E+02
  0
SEQEND
  8
0
  0
ARC
  8
0
 62
4
 10
-4.47643995E+01
 20
-1.36830566E+02
 40
1.21769740E+01
 50
2.40462101E+02
 51
2.52020214E+02
  0
ARC
  8
0
 62
4
 10
-5.32355895E+01
 20
-1.36830566E+02
 40
1.21769740E+01
 50
2.87979786E+02
 51
2.99537899E+02
  0
POLYLINE
  8
0
 62
4
 66
1
  0
VERTEX
  8
0
 62
4
 10
-4.55999945E+01
 20
-1.47413712E+02
  0
VERTEX
  8
0
 62
4
 10
-4.56129325E+01
 20
-1.47325759E+02
  0
VERTEX
  8
0
 62
4
 10
-4.56516481E+01
 20
-1.47238476E+02
  0
VERTEX
  8
0
 62
4
 10
-4.57158467E+01
 20
-1.47152527E+02
  0
VERTEX
  8
0
 62
4
 10
-4.58050396E+01
 20
-1.47068565E+02
  0
VERTEX
  8
0
 62
4
 10
-4.59185480E+01
 20
-1.46987230E+02
  0
VERTEX
  8
0
 62
4
 10
-4.60555081E+01
 20
-1.46909141E+02
  0
VERTEX
  8
0
 62
4
 10
-4.62148775E+01
 20
-1.46834892E+02
  0
VERTEX
  8
0
 62
4
 10
-4.63954434E+01
 20
-1.46765048E+02
  0
VERTEX
  8
0
 62
4
 10
-4.65958314E+01
 20
-1.46700141E+02
  0
VERTEX
  8
0
 62
4
 10
-4.68145166E+01
 20
-1.46640664E+02
  0
VERTEX
  8
0
 62
4
 10
-4.70498346E+01
 20
-1.46587071E+02
  0
VERTEX
  8
0
 62
4
 10
-4.72999945E+01
 20
-1.46539769E+02
  0
VERTEX
  8
0
 62
4
 10
-4.75630924E+01
 20
-1.46499118E+02
  0
VERTEX
  8
0
 62
4
 10
-4.78371260E+01
 20
-1.46465428E+02
  0
VERTEX
  8
0
 62
4
 10
-4.81200097E+01
 20
-1.46438955E+02
  0
VERTEX
  8
0
 62
4
 10
-4.84095907E+01
 20
-1.46419901E+02
  0
VERTEX
  8
0
 62
4
 10
-4.87036650E+01
 20
-1.46408410E+02
  0
VERTEX
  8
0
 62
4
 10
-4.89999945E+01
 20
-1.46404570E+02
  0
VERTEX
  8
0
 62
4
 10
-4.92963240E+01
 20
-1.46408410E+02
  0
VERTEX
  8
0
 62
4
 10
-4.95903983E+01
 20
-1.46419901E+02
  0
VERTEX
  8
0
 62
4
 10
-4.98799793E+01
 20
-1.46438955E+02
  0
VERTEX
  8
0
 62
4
 10
-5.01628630E+01
 20
-1.46465428E+02
  0
VERTEX
  8
0
 62
4
 10
-5.04368966E+01
 20
-1.46499118E+02
  0
VERTEX
  8
0
 62
4
 10
-5.06999945E+01
 20
-1.46539769E+02
  0
VERTEX
  8
0
 62
4
 10
-5.09501544E+01
 20
-1.46587071E+02
  0
VERTEX
  8
0
 62
4
 10
-5.11854724E+01
 20
-1.46640664E+02
  0
VERTEX
  8
0
 62
4
 10
-5.14041576E+01
 20
-1.46700141E+02
  0
VERTEX
  8
0
 62
4
 10
-5.16045456E+01
 20
-1.46765048E+02
  0
VERTEX
  8
0
 62
4
 10
-5.17851115E+01
 20
-1.46834892E+02
  0
VERTEX
  8
0
 62
4
 10
-5.19444809E+01
 20
-1.46909141E+02
  0
VERTEX
  8
0
 62
4
 10
-5.20814410E+01
 20
-1.46987230E+02
  0
VERTEX
  8
0
 62
4
 10
-5.21949494E+01
 20
-1.47068565E+02
  0
VERTEX
  8
0
 62
4
 10
-5.22841423E+01
 20
-1.47152527E+02
  0
VERTEX
  8
0
 62
4
 10
-5.23483409E+01
 20
-1.47238476E+02
  0
VERTEX
  8
0
 62
4
 10
-5.23870565E+01
 20
-1.47325759E+02
  0
VERTEX
  8
0
 62
4
 10
-5.23999945E+01
 20
-1.47413712E+02
  0
VERTEX
  8
0
 62
4
 10
-5.23870565E+01
 20
-1.47501665E+02
  0
VERTEX
  8
0
 62
4
 10
-5.23483409E+01
 20
-1.47588948E+02
  0
VERTEX
  8
0
 62
4
 10
-5.22841423E+01
 20
-1.47674897E+02
  0
VERTEX
  8
0
 62
4
 10
-5.21949494E+01
 20
-1.47758859E+02
  0
VERTEX
  8
0
 62
4
 10
-5.20814410E+01
 20
-1.47840194E+02
  0
VERTEX
  8
0
 62
4
 10
-5.19444809E+01
 20
-1.47918283E+02
  0
VERTEX
  8
0
 62
4
 10
-5.17851114E+01
 20
-1.47992532E+02
  0
VERTEX
  8
0
 62
4
 10
-5.16045456E+01
 20
-1.48062376E+02
  0
VERTEX
  8
0
 62
4
 10
-5.14041576E+01
 20
-1.48127283E+02
  0
VERTEX
  8
0
 62
4
 10
-5.11854724E+01
 20
-1.48186760E+02
  0
VERTEX
  8
0
 62
4
 10
-5.09501544E+01
 20
-1.48240353E+02
  0
VERTEX
  8
0
 62
4
 10
-5.06999945E+01
 20
-1.48287655E+02
  0
VERTEX
  8
0
 62
4
 10
-5.04368966E+01
 20
-1.48328306E+02
  0
VERTEX
  8
0
 62
4
 10
-5.01628630E+01
 20
-1.48361996E+02
  0
VERTEX
  8
0
 62
4
 10
-4.98799792E+01
 20
-1.48388469E+02
  0
VERTEX
  8
0
 62
4
 10
-4.95903983E+01
 20
-1.48407523E+02
  0
VERTEX
  8
0
 62
4
 10
-4.92963240E+01
 20
-1.48419014E+02
  0
VERTEX
  8
0
 62
4
 10
-4.89999945E+01
 20
-1.48422854E+02
  0
VERTEX
  8
0
 62
4
 10
-4.87036650E+01
 20
-1.48419014E+02
  0
VERTEX
  8
0
 62
4
 10
-4.84095907E+01
 20
-1.48407523E+02
  0
VERTEX
  8
0
 62
4
 10
-4.81200097E+01
 20
-1.48388469E+02
  0
VERTEX
  8
0
 62
4
 10
-4.78371260E+01
 20
-1.48361996E+02
  0
VERTEX
  8
0
 62
4
 10
-4.75630924E+01
 20
-1.48328306E+02
  0
VERTEX
  8
0
 62
4
 10
-4.72999945E+01
 20
-1.48287655E+02
  0
VERTEX
  8
0
 62
4
 10
-4.70498346E+01
 20
-1.48240353E+02
  0
VERTEX
  8
0
 62
4
 10
-4.68145166E+01
 20
-1.48186760E+02
  0
VERTEX
  8
0
 62
4
 10
-4.65958314E+01
 20
-1.48127283E+02
  0
VERTEX
  8
0
 62
4
 10
-4.63954434E+01
 20
-1.48062376E+02
  0
VERTEX
  8
0
 62
4
 10
-4.62148775E+01
 20
-1.47992532E+02
  0
VERTEX
  8
0
 62
4
 10
-4.60555081E+01
 20
-1.47918283E+02
  0
VERTEX
  8
0
 62
4
 10
-4.59185480E+01
 20
-1.47840194E+02
  0
VERTEX
  8
0
 62
4
 10
-4.58050396E+01
 20
-1.47758859E+02
  0
VERTEX
  8
0
 62
4
 10
-4.57158467E+01
 20
-1.47674897E+02
  0
VERTEX
  8
0
 62
4
 10
-4.56516481E+01
 20
-1.47588948E+02
  0
VERTEX
  8
0
 62
4
 10
-4.56129325E+01
 20
-1.47501665E+02
  0
VERTEX
  8
0
 62
4
 10
-4.55999945E+01
 20
-1.47413712E+02
  0
SEQEND
  8
0
  0
ARC
  8
0
 62
4
 10
-5.94994946E+01
 20
-1.21757748E+02
 40
1.50050004E+00
 50
9.00190906E+01
 51
1.34401209E+02
  0
ARC
  8
0
 62
4
 10
-6.54994944E+01
 20
-1.21186204E+02
 40
5.00500378E-01
 50
9.00572530E+01
 51
1.79942747E+02
  0
ARC
  8
0
 62
4
 10
-6.55004941E+01
 20
-1.34186203E+02
 40
4.99500622E-01
 50
1.79942690E+02
 51
2.70057311E+02
  0
ARC
  8
0
 62
4
 10
-2.35004983E+01
 20
-1.21757752E+02
 40
1.50050386E+00
 50
1.92364101E-02
 51
8.99807637E+01
  0
LINE
  8
0
 62
4
 10
-3.94999945E+01
 20
-1.21628532E+02
 11
-4.14999945E+01
 21
-1.21628532E+02
  0
LINE
  8
0
 62
4
 10
-5.94999945E+01
 20
-1.43496491E+02
 11
-2.34999945E+01
 21
-1.43496491E+02
  0
LINE
  8
0
 62
4
 10
-5.94999945E+01
 20
-1.20257248E+02
 11
-5.64999945E+01
 21
-1.20257248E+02
  0
LINE
  8
0
 62
4
 10
-5.84999945E+01
 20
-1.40339879E+02
 11
-3.94999945E+01
 21
-1.40339879E+02
  0
LINE
  8
0
 62
4
 10
-5.84999945E+01
 20
-1.34670056E+02
 11
-5.84999945E+01
 21
-1.41034472E+02
  0
LINE
  8
0
 62
4
 10
-6.09999945E+01
 20
-1.34670056E+02
 11
-6.09999945E+01
 21
-1.44601214E+02
  0
LINE
  8
0
 62
4
 10
-3.94999945E+01
 20
-1.21628532E+02
 11
-3.94999945E+01
 21
-1.41034472E+02
  0
LINE
  8
0
 62
4
 10
-2.19999945E+01
 20
-1.21757248E+02
 11
-2.19999945E+01
 21
-1.44601714E+02
  0
LINE
  8
0
 62
4
 10
-7.59999945E+01
 20
-1.20632459E+02
 11
-7.09999945E+01
 21
-1.20632459E+02
  0
LINE
  8
0
 62
4
 10
-5.64999945E+01
 20
-1.34029059E+02
 11
-4.14999945E+01
 21
-1.34029059E+02
  0
LINE
  8
0
 62
4
 10
-5.64999945E+01
 20
-1.19256943E+02
 11
-4.14999945E+01
 21
-1.19256943E+02
  0
LINE
  8
0
 62
4
 10
-4.14999945E+01
 20
-1.07681843E+02
 11
-4.14999945E+01
 21
-1.38370264E+02
  0
LINE
  8
0
 62
4
 10
-6.94999945E+01
 20
-1.33435704E+02
 11
-6.59999945E+01
 21
-1.33435704E+02
  0
LINE
  8
0
 62
4
 10
-6.94999945E+01
 20
-1.21935704E+02
 11
-6.59999945E+01
 21
-1.21935704E+02
  0
LINE
  8
0
 62
4
 10
-6.94999945E+01
 20
-1.21435704E+02
 11
-6.94999945E+01
 21
-1.33935704E+02
  0
LINE
  8
0
 62
4
 10
-7.09999945E+01
 20
-1.33935704E+02
 11
-6.59999945E+01
 21
-1.33935704E+02
  0
LINE
  8
0
 62
4
 10
-7.09999945E+01
 20
-1.21435704E+02
 11
-6.59999945E+01
 21
-1.21435704E+02
  0
LINE
  8
0
 62
4
 10
-7.09999945E+01
 20
-1.20632459E+02
 11
-7.09999945E+01
 21
-1.34739058E+02
  0
LINE
  8
0
 62
4
 10
-7.59999945E+01
 20
-1.20632459E+02
 11
-7.59999945E+01
 21
-1.34739058E+02
  0
LINE
  8
0
 62
4
 10
-6.59999945E+01
 20
-1.21170056E+02
 11
-6.59999945E+01
 21
-1.34170056E+02
  0
LINE
  8
0
 62
4
 10
-5.64999945E+01
 20
-1.20685704E+02
 11
-6.54999945E+01
 21
-1.20685704E+02
  0
LINE
  8
0
 62
4
 10
-6.54999945E+01
 20
-1.34685704E+02
 11
-5.64999945E+01
 21
-1.34685704E+02
  0
LINE
  8
0
  6
CENTER
 62
6
 10
-4.89999945E+01
 20
-1.06032184E+02
 11
-4.89999945E+01
 21
-1.49607000E+02
  0
LINE
  8
0
 62
4
 10
-5.23999945E+01
 20
-1.47413712E+02
 11
-5.23999945E+01
 21
-1.45291256E+02
  0
LINE
  8
0
 62
4
 10
-4.55999945E+01
 20
-1.45291256E+02
 11
-4.55999945E+01
 21
-1.47413712E+02
  0
LINE
  8
0
 62
4
 10
-5.29999945E+01
 20
-1.44798852E+02
 11
-5.29999945E+01
 21
-1.45291256E+02
  0
LINE
  8
0
 62
4
 10
-4.49999945E+01
 20
-1.45291256E+02
 11
-4.49999945E+01
 21
-1.44798852E+02
  0
LINE
  8
0
 62
6
 10
-5.14999945E+01
 20
-1.06173614E+02
 11
-5.14999945E+01
 21
-1.07681843E+02
  0
LINE
  8
0
 62
4
 10
-5.49999945E+01
 20
-1.07173614E+02
 11
-5.47399945E+01
 21
-1.06173614E+02
  0
LINE
  8
0
 62
4
 10
-5.09999945E+01
 20
-1.07173614E+02
 11
-5.12699945E+01
 21
-1.06173614E+02
  0
LINE
  8
0
 62
4
 10
-5.12699945E+01
 20
-1.06173614E+02
 11
-5.47399945E+01
 21
-1.06173614E+02
  0
LINE
  8
0
 62
4
 10
-5.49999945E+01
 20
-1.07173614E+02
 11
-5.49999945E+01
 21
-1.07681843E+02
  0
LINE
  8
0
 62
4
 10
-5.09999945E+01
 20
-1.07173614E+02
 11
-5.09999945E+01
 21
-1.07681843E+02
  0
LINE
  8
0
 62
6
 10
-5.44999945E+01
 20
-1.06173614E+02
 11
-5.44999945E+01
 21
-1.07681843E+02
  0
LINE
  8
0
  6
CENTER
 62
6
 10
-5.29999945E+01
 20
-1.04913614E+02
 11
-5.29999945E+01
 21
-1.15413614E+02
  0
LINE
  8
0
 62
4
 10
-4.14999945E+01
 20
-1.07681843E+02
 11
-5.64999945E+01
 21
-1.07681843E+02
  0
LINE
  8
0
 62
4
 10
-4.24999945E+01
 20
-1.13486935E+02
 11
-5.54999945E+01
 21
-1.13486935E+02
  0
LINE
  8
0
 62
4
 10
-5.64999945E+01
 20
-1.07681843E+02
 11
-5.64999945E+01
 21
-1.38370264E+02
  0
LINE
  8
0
 62
6
 10
-4.64999945E+01
 20
-1.06173614E+02
 11
-4.64999945E+01
 21
-1.07681843E+02
  0
LINE
  8
0
 62
6
 10
-4.34999945E+01
 20
-1.06173614E+02
 11
-4.34999945E+01
 21
-1.07681843E+02
  0
LINE
  8
0
 62
4
 10
-4.69999945E+01
 20
-1.07173614E+02
 11
-4.67399945E+01
 21
-1.06173614E+02
  0
LINE
  8
0
 62
4
 10
-4.29999945E+01
 20
-1.07173614E+02
 11
-4.32699945E+01
 21
-1.06173614E+02
  0
LINE
  8
0
 62
4
 10
-4.32699945E+01
 20
-1.06173614E+02
 11
-4.67399945E+01
 21
-1.06173614E+02
  0
LINE
  8
0
 62
4
 10
-4.69999945E+01
 20
-1.07173614E+02
 11
-4.69999945E+01
 21
-1.07681843E+02
  0
LINE
  8
0
 62
4
 10
-4.29999945E+01
 20
-1.07173614E+02
 11
-4.29999945E+01
 21
-1.07681843E+02
  0
LINE
  8
0
  6
CENTER
 62
6
 10
-4.49999945E+01
 20
-1.04913614E+02
 11
-4.49999945E+01
 21
-1.15413614E+02
  0
LINE
  8
0
 62
4
 10
-7.59999945E+01
 20
-1.26382529E+02
 11
-7.09999945E+01
 21
-1.26382529E+02
  0
LINE
  8
0
 62
4
 10
-7.59999945E+01
 20
-1.34739058E+02
 11
-7.09999945E+01
 21
-1.34739058E+02
  0
LINE
  8
0
 62
4
 10
-4.14999945E+01
 20
-1.20257248E+02
 11
-2.34999945E+01
 21
-1.20257248E+02
  0
ARC
  8
0
 62
4
 10
-2.34994947E+01
 20
-1.44601714E+02
 40
1.49950029E+00
 50
2.69980903E+02
 51
1.90971113E-02
  0
LINE
  8
0
 62
4
 10
-5.94999945E+01
 20
-1.46101214E+02
 11
-5.23999945E+01
 21
-1.46101214E+02
  0
ARC
  8
0
 62
4
 10
-5.95004981E+01
 20
-1.44601717E+02
 40
1.49949647E+00
 50
1.79980757E+02
 51
2.70019243E+02
  0
LINE
  8
0
 62
4
 10
-7.59999945E+01
 20
-1.33434960E+02
 11
-7.09999945E+01
 21
-1.33434960E+02
  0
POLYLINE
  8
0
 62
4
 66
1
  0
VERTEX
  8
0
 62
4
 10
-4.59999945E+01
 20
-1.26643001E+02
  0
VERTEX
  8
0
 62
4
 10
-4.60114104E+01
 20
-1.26385506E+02
  0
VERTEX
  8
0
 62
4
 10
-4.60455712E+01
 20
-1.26129971E+02
  0
VERTEX
  8
0
 62
4
 10
-4.61022170E+01
 20
-1.25878340E+02
  0
VERTEX
  8
0
 62
4
 10
-4.61809166E+01
 20
-1.25632529E+02
  0
VERTEX
  8
0
 62
4
 10
-4.62810711E+01
 20
-1.25394408E+02
  0
VERTEX
  8
0
 62
4
 10
-4.64019183E+01
 20
-1.25165789E+02
  0
VERTEX
  8
0
 62
4
 10
-4.65425384E+01
 20
-1.24948413E+02
  0
VERTEX
  8
0
 62
4
 10
-4.67018612E+01
 20
-1.24743934E+02
  0
VERTEX
  8
0
 62
4
 10
-4.68786742E+01
 20
-1.24553908E+02
  0
VERTEX
  8
0
 62
4
 10
-4.70716317E+01
 20
-1.24379781E+02
  0
VERTEX
  8
0
 62
4
 10
-4.72792652E+01
 20
-1.24222879E+02
  0
VERTEX
  8
0
 62
4
 10
-4.74999945E+01
 20
-1.24084395E+02
  0
VERTEX
  8
0
 62
4
 10
-4.77321397E+01
 20
-1.23965384E+02
  0
VERTEX
  8
0
 62
4
 10
-4.79739341E+01
 20
-1.23866751E+02
  0
VERTEX
  8
0
 62
4
 10
-4.82235374E+01
 20
-1.23789247E+02
  0
VERTEX
  8
0
 62
4
 10
-4.84790500E+01
 20
-1.23733462E+02
  0
VERTEX
  8
0
 62
4
 10
-4.87385273E+01
 20
-1.23699820E+02
  0
VERTEX
  8
0
 62
4
 10
-4.89999945E+01
 20
-1.23688578E+02
  0
VERTEX
  8
0
 62
4
 10
-4.92614617E+01
 20
-1.23699820E+02
  0
VERTEX
  8
0
 62
4
 10
-4.95209390E+01
 20
-1.23733462E+02
  0
VERTEX
  8
0
 62
4
 10
-4.97764516E+01
 20
-1.23789247E+02
  0
VERTEX
  8
0
 62
4
 10
-5.00260549E+01
 20
-1.23866751E+02
  0
VERTEX
  8
0
 62
4
 10
-5.02678493E+01
 20
-1.23965384E+02
  0
VERTEX
  8
0
 62
4
 10
-5.04999945E+01
 20
-1.24084395E+02
  0
VERTEX
  8
0
 62
4
 10
-5.07207238E+01
 20
-1.24222879E+02
  0
VERTEX
  8
0
 62
4
 10
-5.09283573E+01
 20
-1.24379781E+02
  0
VERTEX
  8
0
 62
4
 10
-5.11213148E+01
 20
-1.24553908E+02
  0
VERTEX
  8
0
 62
4
 10
-5.12981278E+01
 20
-1.24743934E+02
  0
VERTEX
  8
0
 62
4
 10
-5.14574506E+01
 20
-1.24948413E+02
  0
VERTEX
  8
0
 62
4
 10
-5.15980707E+01
 20
-1.25165789E+02
  0
VERTEX
  8
0
 62
4
 10
-5.17189179E+01
 20
-1.25394408E+02
  0
VERTEX
  8
0
 62
4
 10
-5.18190724E+01
 20
-1.25632529E+02
  0
VERTEX
  8
0
 62
4
 10
-5.18977720E+01
 20
-1.25878340E+02
  0
VERTEX
  8
0
 62
4
 10
-5.19544178E+01
 20
-1.26129971E+02
  0
VERTEX
  8
0
 62
4
 10
-5.19885786E+01
 20
-1.26385506E+02
  0
VERTEX
  8
0
 62
4
 10
-5.19999945E+01
 20
-1.26643001E+02
  0
VERTEX
  8
0
 62
4
 10
-5.19885786E+01
 20
-1.26900496E+02
  0
VERTEX
  8
0
 62
4
 10
-5.19544178E+01
 20
-1.27156031E+02
  0
VERTEX
  8
0
 62
4
 10
-5.18977720E+01
 20
-1.27407662E+02
  0
VERTEX
  8
0
 62
4
 10
-5.18190724E+01
 20
-1.27653473E+02
  0
VERTEX
  8
0
 62
4
 10
-5.17189179E+01
 20
-1.27891594E+02
  0
VERTEX
  8
0
 62
4
 10
-5.15980707E+01
 20
-1.28120213E+02
  0
VERTEX
  8
0
 62
4
 10
-5.14574506E+01
 20
-1.28337589E+02
  0
VERTEX
  8
0
 62
4
 10
-5.12981278E+01
 20
-1.28542068E+02
  0
VERTEX
  8
0
 62
4
 10
-5.11213148E+01
 20
-1.28732094E+02
  0
VERTEX
  8
0
 62
4
 10
-5.09283573E+01
 20
-1.28906221E+02
  0
VERTEX
  8
0
 62
4
 10
-5.07207238E+01
 20
-1.29063123E+02
  0
VERTEX
  8
0
 62
4
 10
-5.04999945E+01
 20
-1.29201607E+02
  0
VERTEX
  8
0
 62
4
 10
-5.02678493E+01
 20
-1.29320618E+02
  0
VERTEX
  8
0
 62
4
 10
-5.00260549E+01
 20
-1.29419251E+02
  0
VERTEX
  8
0
 62
4
 10
-4.97764516E+01
 20
-1.29496755E+02
  0
VERTEX
  8
0
 62
4
 10
-4.95209390E+01
 20
-1.29552540E+02
  0
VERTEX
  8
0
 62
4
 10
-4.92614617E+01
 20
-1.29586182E+02
  0
VERTEX
  8
0
 62
4
 10
-4.89999945E+01
 20
-1.29597424E+02
  0
VERTEX
  8
0
 62
4
 10
-4.87385273E+01
 20
-1.29586182E+02
  0
VERTEX
  8
0
 62
4
 10
-4.84790500E+01
 20
-1.29552540E+02
  0
VERTEX
  8
0
 62
4
 10
-4.82235374E+01
 20
-1.29496755E+02
  0
VERTEX
  8
0
 62
4
 10
-4.79739341E+01
 20
-1.29419251E+02
  0
VERTEX
  8
0
 62
4
 10
-4.77321397E+01
 20
-1.29320618E+02
  0
VERTEX
  8
0
 62
4
 10
-4.74999945E+01
 20
-1.29201607E+02
  0
VERTEX
  8
0
 62
4
 10
-4.72792652E+01
 20
-1.29063123E+02
  0
VERTEX
  8
0
 62
4
 10
-4.70716317E+01
 20
-1.28906221E+02
  0
VERTEX
  8
0
 62
4
 10
-4.68786742E+01
 20
-1.28732094E+02
  0
VERTEX
  8
0
 62
4
 10
-4.67018612E+01
 20
-1.28542068E+02
  0
VERTEX
  8
0
 62
4
 10
-4.65425384E+01
 20
-1.28337589E+02
  0
VERTEX
  8
0
 62
4
 10
-4.64019183E+01
 20
-1.28120213E+02
  0
VERTEX
  8
0
 62
4
 10
-4.62810711E+01
 20
-1.27891594E+02
  0
VERTEX
  8
0
 62
4
 10
-4.61809166E+01
 20
-1.27653473E+02
  0
VERTEX
  8
0
 62
4
 10
-4.61022170E+01
 20
-1.27407662E+02
  0
VERTEX
  8
0
 62
4
 10
-4.60455712E+01
 20
-1.27156031E+02
  0
VERTEX
  8
0
 62
4
 10
-4.60114104E+01
 20
-1.26900496E+02
  0
VERTEX
  8
0
 62
4
 10
-4.59999945E+01
 20
-1.26643001E+02
  0
SEQEND
  8
0
  0
LINE
  8
0
  6
CENTER
 62
6
 10
-5.44865603E+01
 20
-1.26643001E+02
 11
-4.35134286E+01
 21
-1.26643001E+02
  0
LINE
  8
0
  6
CENTER
 62
6
 10
-3.29999945E+01
 20
-1.25983098E+02
 11
-3.29999945E+01
 21
-1.37027201E+02
  0
LINE
  8
0
  6
CENTER
 62
6
 10
-3.85220464E+01
 20
-1.31505150E+02
 11
-2.74779427E+01
 21
-1.31505150E+02
  0
POLYLINE
  8
0
 62
4
 66
1
  0
VERTEX
  8
0
 62
4
 10
-4.49999945E+01
 20
-1.44798852E+02
  0
VERTEX
  8
0
 62
4
 10
-4.50160973E+01
 20
-1.44736589E+02
  0
VERTEX
  8
0
 62
4
 10
-4.50642761E+01
 20
-1.44674828E+02
  0
VERTEX
  8
0
 62
4
 10
-4.51441431E+01
 20
-1.44614065E+02
  0
VERTEX
  8
0
 62
4
 10
-4.52550550E+01
 20
-1.44554790E+02
  0
VERTEX
  8
0
 62
4
 10
-4.53961190E+01
 20
-1.44497480E+02
  0
VERTEX
  8
0
 62
4
 10
-4.55661993E+01
 20
-1.44442596E+02
  0
VERTEX
  8
0
 62
4
 10
-4.57639265E+01
 20
-1.44390581E+02
  0
VERTEX
  8
0
 62
4
 10
-4.59877086E+01
 20
-1.44341853E+02
  0
VERTEX
  8
0
 62
4
 10
-4.62357439E+01
 20
-1.44296804E+02
  0
VERTEX
  8
0
 62
4
 10
-4.65060353E+01
 20
-1.44255798E+02
  0
VERTEX
  8
0
 62
4
 10
-4.67964066E+01
 20
-1.44219164E+02
  0
VERTEX
  8
0
 62
4
 10
-4.71045198E+01
 20
-1.44187197E+02
  0
VERTEX
  8
0
 62
4
 10
-4.74278944E+01
 20
-1.44160155E+02
  0
VERTEX
  8
0
 62
4
 10
-4.77639265E+01
 20
-1.44138255E+02
  0
VERTEX
  8
0
 62
4
 10
-4.81099108E+01
 20
-1.44121674E+02
  0
VERTEX
  8
0
 62
4
 10
-4.84630614E+01
 20
-1.44110546E+02
  0
VERTEX
  8
0
 62
4
 10
-4.88205352E+01
 20
-1.44104959E+02
  0
VERTEX
  8
0
 62
4
 10
-4.91794538E+01
 20
-1.44104959E+02
  0
VERTEX
  8
0
 62
4
 10
-4.95369276E+01
 20
-1.44110546E+02
  0
VERTEX
  8
0
 62
4
 10
-4.98900782E+01
 20
-1.44121674E+02
  0
VERTEX
  8
0
 62
4
 10
-5.02360625E+01
 20
-1.44138255E+02
  0
VERTEX
  8
0
 62
4
 10
-5.05720946E+01
 20
-1.44160155E+02
  0
VERTEX
  8
0
 62
4
 10
-5.08954691E+01
 20
-1.44187197E+02
  0
VERTEX
  8
0
 62
4
 10
-5.12035824E+01
 20
-1.44219164E+02
  0
VERTEX
  8
0
 62
4
 10
-5.14939537E+01
 20
-1.44255798E+02
  0
VERTEX
  8
0
 62
4
 10
-5.17642451E+01
 20
-1.44296804E+02
  0
VERTEX
  8
0
 62
4
 10
-5.20122804E+01
 20
-1.44341853E+02
  0
VERTEX
  8
0
 62
4
 10
-5.22360625E+01
 20
-1.44390581E+02
  0
VERTEX
  8
0
 62
4
 10
-5.24337897E+01
 20
-1.44442596E+02
  0
VERTEX
  8
0
 62
4
 10
-5.26038700E+01
 20
-1.44497480E+02
  0
VERTEX
  8
0
 62
4
 10
-5.27449340E+01
 20
-1.44554790E+02
  0
VERTEX
  8
0
 62
4
 10
-5.28558459E+01
 20
-1.44614065E+02
  0
VERTEX
  8
0
 62
4
 10
-5.29357129E+01
 20
-1.44674828E+02
  0
VERTEX
  8
0
 62
4
 10
-5.29838917E+01
 20
-1.44736589E+02
  0
VERTEX
  8
0
 62
4
 10
-5.29999945E+01
 20
-1.44798852E+02
  0
SEQEND
  8
0
  0
POLYLINE
  8
0
 62
4
 66
1
  0
VERTEX
  8
0
 62
4
 10
-4.55999945E+01
 20
-1.45657155E+02
  0
VERTEX
  8
0
 62
4
 10
-4.54269425E+01
 20
-1.45603499E+02
  0
VERTEX
  8
0
 62
4
 10
-4.52818995E+01
 20
-1.45547396E+02
  0
VERTEX
  8
0
 62
4
 10
-4.51660027E+01
 20
-1.45489284E+02
  0
VERTEX
  8
0
 62
4
 10
-4.50801604E+01
 20
-1.45429620E+02
  0
VERTEX
  8
0
 62
4
 10
-4.50250456E+01
 20
-1.45368871E+02
  0
VERTEX
  8
0
 62
4
 10
-4.50010904E+01
 20
-1.45307514E+02
  0
VERTEX
  8
0
 62
4
 10
-4.50084826E+01
 20
-1.45246030E+02
  0
VERTEX
  8
0
 62
4
 10
-4.50471641E+01
 20
-1.45184900E+02
  0
VERTEX
  8
0
 62
4
 10
-4.51168318E+01
 20
-1.45124604E+02
  0
VERTEX
  8
0
 62
4
 10
-4.52169395E+01
 20
-1.45065614E+02
  0
VERTEX
  8
0
 62
4
 10
-4.53467026E+01
 20
-1.45008393E+02
  0
VERTEX
  8
0
 62
4
 10
-4.55051037E+01
 20
-1.44953389E+02
  0
VERTEX
  8
0
 62
4
 10
-4.56909012E+01
 20
-1.44901034E+02
  0
VERTEX
  8
0
 62
4
 10
-4.59026387E+01
 20
-1.44851738E+02
  0
VERTEX
  8
0
 62
4
 10
-4.61386563E+01
 20
-1.44805887E+02
  0
VERTEX
  8
0
 62
4
 10
-4.63971038E+01
 20
-1.44763841E+02
  0
VERTEX
  8
0
 62
4
 10
-4.66759554E+01
 20
-1.44725929E+02
  0
VERTEX
  8
0
 62
4
 10
-4.69730250E+01
 20
-1.44692449E+02
  0
VERTEX
  8
0
 62
4
 10
-4.72859841E+01
 20
-1.44663663E+02
  0
VERTEX
  8
0
 62
4
 10
-4.76123792E+01
 20
-1.44639797E+02
  0
VERTEX
  8
0
 62
4
 10
-4.79496519E+01
 20
-1.44621037E+02
  0
VERTEX
  8
0
 62
4
 10
-4.82951581E+01
 20
-1.44607532E+02
  0
VERTEX
  8
0
 62
4
 10
-4.86461896E+01
 20
-1.44599386E+02
  0
VERTEX
  8
0
 62
4
 10
-4.89999945E+01
 20
-1.44596663E+02
  0
VERTEX
  8
0
 62
4
 10
-4.93537994E+01
 20
-1.44599386E+02
  0
VERTEX
  8
0
 62
4
 10
-4.97048309E+01
 20
-1.44607532E+02
  0
VERTEX
  8
0
 62
4
 10
-5.00503371E+01
 20
-1.44621037E+02
  0
VERTEX
  8
0
 62
4
 10
-5.03876097E+01
 20
-1.44639797E+02
  0
VERTEX
  8
0
 62
4
 10
-5.07140049E+01
 20
-1.44663663E+02
  0
VERTEX
  8
0
 62
4
 10
-5.10269639E+01
 20
-1.44692449E+02
  0
VERTEX
  8
0
 62
4
 10
-5.13240336E+01
 20
-1.44725929E+02
  0
VERTEX
  8
0
 62
4
 10
-5.16028852E+01
 20
-1.44763841E+02
  0
VERTEX
  8
0
 62
4
 10
-5.18613327E+01
 20
-1.44805887E+02
  0
VERTEX
  8
0
 62
4
 10
-5.20973503E+01
 20
-1.44851738E+02
  0
VERTEX
  8
0
 62
4
 10
-5.23090877E+01
 20
-1.44901034E+02
  0
VERTEX
  8
0
 62
4
 10
-5.24948853E+01
 20
-1.44953389E+02
  0
VERTEX
  8
0
 62
4
 10
-5.26532864E+01
 20
-1.45008393E+02
  0
VERTEX
  8
0
 62
4
 10
-5.27830495E+01
 20
-1.45065614E+02
  0
VERTEX
  8
0
 62
4
 10
-5.28831572E+01
 20
-1.45124604E+02
  0
VERTEX
  8
0
 62
4
 10
-5.29528249E+01
 20
-1.45184900E+02
  0
VERTEX
  8
0
 62
4
 10
-5.29915064E+01
 20
-1.45246030E+02
  0
VERTEX
  8
0
 62
4
 10
-5.29988986E+01
 20
-1.45307514E+02
  0
VERTEX
  8
0
 62
4
 10
-5.29749434E+01
 20
-1.45368871E+02
  0
VERTEX
  8
0
 62
4
 10
-5.29198286E+01
 20
-1.45429620E+02
  0
VERTEX
  8
0
 62
4
 10
-5.28339863E+01
 20
-1.45489284E+02
  0
VERTEX
  8
0
 62
4
 10
-5.27180895E+01
 20
-1.45547396E+02
  0
VERTEX
  8
0
 62
4
 10
-5.25730465E+01
 20
-1.45603499E+02
  0
VERTEX
  8
0
 62
4
 10
-5.23999945E+01
 20
-1.45657155E+02
  0
SEQEND
  8
0
  0
POLYLINE
  8
0
 62
4
 66
1
  0
VERTEX
  8
0
 62
4
 10
-4.55999945E+01
 20
-1.45291256E+02
  0
VERTEX
  8
0
 62
4
 10
-4.56136819E+01
 20
-1.45238333E+02
  0
VERTEX
  8
0
 62
4
 10
-4.56546339E+01
 20
-1.45185835E+02
  0
VERTEX
  8
0
 62
4
 10
-4.57225208E+01
 20
-1.45134187E+02
  0
VERTEX
  8
0
 62
4
 10
-4.58167959E+01
 20
-1.45083803E+02
  0
VERTEX
  8
0
 62
4
 10
-4.59367003E+01
 20
-1.45035089E+02
  0
VERTEX
  8
0
 62
4
 10
-4.60812686E+01
 20
-1.44988438E+02
  0
VERTEX
  8
0
 62
4
 10
-4.62493367E+01
 20
-1.44944225E+02
  0
VERTEX
  8
0
 62
4
 10
-4.64395515E+01
 20
-1.44902806E+02
  0
VERTEX
  8
0
 62
4
 10
-4.66503815E+01
 20
-1.44864515E+02
  0
VERTEX
  8
0
 62
4
 10
-4.68801292E+01
 20
-1.44829660E+02
  0
VERTEX
  8
0
 62
4
 10
-4.71269448E+01
 20
-1.44798521E+02
  0
VERTEX
  8
0
 62
4
 10
-4.73888410E+01
 20
-1.44771349E+02
  0
VERTEX
  8
0
 62
4
 10
-4.76637094E+01
 20
-1.44748363E+02
  0
VERTEX
  8
0
 62
4
 10
-4.79493367E+01
 20
-1.44729749E+02
  0
VERTEX
  8
0
 62
4
 10
-4.82434233E+01
 20
-1.44715655E+02
  0
VERTEX
  8
0
 62
4
 10
-4.85436014E+01
 20
-1.44706195E+02
  0
VERTEX
  8
0
 62
4
 10
-4.88474541E+01
 20
-1.44701447E+02
  0
VERTEX
  8
0
 62
4
 10
-4.91525349E+01
 20
-1.44701447E+02
  0
VERTEX
  8
0
 62
4
 10
-4.94563876E+01
 20
-1.44706195E+02
  0
VERTEX
  8
0
 62
4
 10
-4.97565657E+01
 20
-1.44715655E+02
  0
VERTEX
  8
0
 62
4
 10
-5.00506523E+01
 20
-1.44729749E+02
  0
VERTEX
  8
0
 62
4
 10
-5.03362796E+01
 20
-1.44748363E+02
  0
VERTEX
  8
0
 62
4
 10
-5.06111479E+01
 20
-1.44771349E+02
  0
VERTEX
  8
0
 62
4
 10
-5.08730442E+01
 20
-1.44798521E+02
  0
VERTEX
  8
0
 62
4
 10
-5.11198598E+01
 20
-1.44829660E+02
  0
VERTEX
  8
0
 62
4
 10
-5.13496075E+01
 20
-1.44864515E+02
  0
VERTEX
  8
0
 62
4
 10
-5.15604375E+01
 20
-1.44902806E+02
  0
VERTEX
  8
0
 62
4
 10
-5.17506523E+01
 20
-1.44944225E+02
  0
VERTEX
  8
0
 62
4
 10
-5.19187204E+01
 20
-1.44988438E+02
  0
VERTEX
  8
0
 62
4
 10
-5.20632886E+01
 20
-1.45035089E+02
  0
VERTEX
  8
0
 62
4
 10
-5.21831931E+01
 20
-1.45083803E+02
  0
VERTEX
  8
0
 62
4
 10
-5.22774682E+01
 20
-1.45134187E+02
  0
VERTEX
  8
0
 62
4
 10
-5.23453551E+01
 20
-1.45185835E+02
  0
VERTEX
  8
0
 62
4
 10
-5.23863071E+01
 20
-1.45238333E+02
  0
VERTEX
  8
0
 62
4
 10
-5.23999945E+01
 20
-1.45291256E+02
  0
SEQEND
  8
0
  0
LINE
  8
0
 62
4
 10
-4.55999945E+01
 20
-1.46101214E+02
 11
-2.34999945E+01
 21
-1.46101214E+02
  0
LINE
  8
0
 62
4
 10
2.89139954E+02
 20
-2.70774367E+02
 11
2.89492636E+02
 21
-2.71719892E+02
  0
LINE
  8
0
 62
4
 10
2.82859954E+02
 20
-2.70774367E+02
 11
2.82507273E+02
 21
-2.71719892E+02
  0
POLYLINE
  8
0
 62
4
 66
1
  0
VERTEX
  8
0
 62
4
 10
2.82507273E+02
 20
-2.71719892E+02
  0
VERTEX
  8
0
 62
4
 10
2.82500939E+02
 20
-2.71773592E+02
  0
VERTEX
  8
0
 62
4
 10
2.82521933E+02
 20
-2.71827180E+02
  0
VERTEX
  8
0
 62
4
 10
2.82570091E+02
 20
-2.71880237E+02
  0
VERTEX
  8
0
 62
4
 10
2.82645038E+02
 20
-2.71932348E+02
  0
VERTEX
  8
0
 62
4
 10
2.82746186E+02
 20
-2.71983107E+02
  0
VERTEX
  8
0
 62
4
 10
2.82872748E+02
 20
-2.72032117E+02
  0
VERTEX
  8
0
 62
4
 10
2.83023733E+02
 20
-2.72078995E+02
  0
VERTEX
  8
0
 62
4
 10
2.83197964E+02
 20
-2.72123375E+02
  0
VERTEX
  8
0
 62
4
 10
2.83394078E+02
 20
-2.72164911E+02
  0
VERTEX
  8
0
 62
4
 10
2.83610545E+02
 20
-2.72203277E+02
  0
VERTEX
  8
0
 62
4
 10
2.83845674E+02
 20
-2.72238176E+02
  0
VERTEX
  8
0
 62
4
 10
2.84097628E+02
 20
-2.72269333E+02
  0
VERTEX
  8
0
 62
4
 10
2.84364440E+02
 20
-2.72296506E+02
  0
VERTEX
  8
0
 62
4
 10
2.84644025E+02
 20
-2.72319482E+02
  0
VERTEX
  8
0
 62
4
 10
2.84934200E+02
 20
-2.72338082E+02
  0
VERTEX
  8
0
 62
4
 10
2.85232700E+02
 20
-2.72352161E+02
  0
VERTEX
  8
0
 62
4
 10
2.85537191E+02
 20
-2.72361608E+02
  0
VERTEX
  8
0
 62
4
 10
2.85845297E+02
 20
-2.72366350E+02
  0
VERTEX
  8
0
 62
4
 10
2.86154611E+02
 20
-2.72366350E+02
  0
VERTEX
  8
0
 62
4
 10
2.86462717E+02
 20
-2.72361608E+02
  0
VERTEX
  8
0
 62
4
 10
2.86767208E+02
 20
-2.72352161E+02
  0
VERTEX
  8
0
 62
4
 10
2.87065708E+02
 20
-2.72338082E+02
  0
VERTEX
  8
0
 62
4
 10
2.87355883E+02
 20
-2.72319482E+02
  0
VERTEX
  8
0
 62
4
 10
2.87635468E+02
 20
-2.72296506E+02
  0
VERTEX
  8
0
 62
4
 10
2.87902280E+02
 20
-2.72269333E+02
  0
VERTEX
  8
0
 62
4
 10
2.88154234E+02
 20
-2.72238176E+02
  0
VERTEX
  8
0
 62
4
 10
2.88389363E+02
 20
-2.72203277E+02
  0
VERTEX
  8
0
 62
4
 10
2.88605830E+02
 20
-2.72164911E+02
  0
VERTEX
  8
0
 62
4
 10
2.88801944E+02
 20
-2.72123375E+02
  0
VERTEX
  8
0
 62
4
 10
2.88976175E+02
 20
-2.72078995E+02
  0
VERTEX
  8
0
 62
4
 10
2.89127160E+02
 20
-2.72032117E+02
  0
VERTEX
  8
0
 62
4
 10
2.89253722E+02
 20
-2.71983107E+02
  0
VERTEX
  8
0
 62
4
 10
2.89354870E+02
 20
-2.71932348E+02
  0
VERTEX
  8
0
 62
4
 10
2.89429817E+02
 20
-2.71880237E+02
  0
VERTEX
  8
0
 62
4
 10
2.89477975E+02
 20
-2.71827180E+02
  0
VERTEX
  8
0
 62
4
 10
2.89498969E+02
 20
-2.71773592E+02
  0
VERTEX
  8
0
 62
4
 10
2.89492635E+02
 20
-2.71719892E+02
  0
SEQEND
  8
0
  0
POLYLINE
  8
0
 62
4
 66
1
  0
VERTEX
  8
0
 62
4
 10
2.89139954E+02
 20
-2.70774367E+02
  0
VERTEX
  8
0
 62
4
 10
2.89128005E+02
 20
-2.70726845E+02
  0
VERTEX
  8
0
 62
4
 10
2.89092250E+02
 20
-2.70679684E+02
  0
VERTEX
  8
0
 62
4
 10
2.89032961E+02
 20
-2.70633245E+02
  0
VERTEX
  8
0
 62
4
 10
2.88950589E+02
 20
-2.70587879E+02
  0
VERTEX
  8
0
 62
4
 10
2.88845760E+02
 20
-2.70543932E+02
  0
VERTEX
  8
0
 62
4
 10
2.88719274E+02
 20
-2.70501739E+02
  0
VERTEX
  8
0
 62
4
 10
2.88572091E+02
 20
-2.70461621E+02
  0
VERTEX
  8
0
 62
4
 10
2.88405334E+02
 20
-2.70423884E+02
  0
VERTEX
  8
0
 62
4
 10
2.88220269E+02
 20
-2.70388813E+02
  0
VERTEX
  8
0
 62
4
 10
2.88018307E+02
 20
-2.70356677E+02
  0
VERTEX
  8
0
 62
4
 10
2.87800984E+02
 20
-2.70327720E+02
  0
VERTEX
  8
0
 62
4
 10
2.87569954E+02
 20
-2.70302162E+02
  0
VERTEX
  8
0
 62
4
 10
2.87326975E+02
 20
-2.70280198E+02
  0
VERTEX
  8
0
 62
4
 10
2.87073897E+02
 20
-2.70261995E+02
  0
VERTEX
  8
0
 62
4
 10
2.86812646E+02
 20
-2.70247691E+02
  0
VERTEX
  8
0
 62
4
 10
2.86545209E+02
 20
-2.70237395E+02
  0
VERTEX
  8
0
 62
4
 10
2.86273623E+02
 20
-2.70231187E+02
  0
VERTEX
  8
0
 62
4
 10
2.85999954E+02
 20
-2.70229112E+02
  0
VERTEX
  8
0
 62
4
 10
2.85726285E+02
 20
-2.70231187E+02
  0
VERTEX
  8
0
 62
4
 10
2.85454699E+02
 20
-2.70237395E+02
  0
VERTEX
  8
0
 62
4
 10
2.85187262E+02
 20
-2.70247691E+02
  0
VERTEX
  8
0
 62
4
 10
2.84926011E+02
 20
-2.70261995E+02
  0
VERTEX
  8
0
 62
4
 10
2.84672933E+02
 20
-2.70280198E+02
  0
VERTEX
  8
0
 62
4
 10
2.84429954E+02
 20
-2.70302162E+02
  0
VERTEX
  8
0
 62
4
 10
2.84198924E+02
 20
-2.70327720E+02
  0
VERTEX
  8
0
 62
4
 10
2.83981601E+02
 20
-2.70356677E+02
  0
VERTEX
  8
0
 62
4
 10
2.83779639E+02
 20
-2.70388813E+02
  0
VERTEX
  8
0
 62
4
 10
2.83594574E+02
 20
-2.70423884E+02
  0
VERTEX
  8
0
 62
4
 10
2.83427817E+02
 20
-2.70461621E+02
  0
VERTEX
  8
0
 62
4
 10
2.83280634E+02
 20
-2.70501739E+02
  0
VERTEX
  8
0
 62
4
 10
2.83154148E+02
 20
-2.70543932E+02
  0
VERTEX
  8
0
 62
4
 10
2.83049319E+02
 20
-2.70587879E+02
  0
VERTEX
  8
0
 62
4
 10
2.82966947E+02
 20
-2.70633245E+02
  0
VERTEX
  8
0
 62
4
 10
2.82907658E+02
 20
-2.70679684E+02
  0
VERTEX
  8
0
 62
4
 10
2.82871903E+02
 20
-2.70726845E+02
  0
VERTEX
  8
0
 62
4
 10
2.82859954E+02
 20
-2.70774367E+02
  0
VERTEX
  8
0
 62
4
 10
2.82871903E+02
 20
-2.70821889E+02
  0
VERTEX
  8
0
 62
4
 10
2.82907658E+02
 20
-2.70869050E+02
  0
VERTEX
  8
0
 62
4
 10
2.82966947E+02
 20
-2.70915489E+02
  0
VERTEX
  8
0
 62
4
 10
2.83049319E+02
 20
-2.70960855E+02
  0
VERTEX
  8
0
 62
4
 10
2.83154148E+02
 20
-2.71004802E+02
  0
VERTEX
  8
0
 62
4
 10
2.83280634E+02
 20
-2.71046995E+02
  0
VERTEX
  8
0
 62
4
 10
2.83427817E+02
 20
-2.71087113E+02
  0
VERTEX
  8
0
 62
4
 10
2.83594574E+02
 20
-2.71124850E+02
  0
VERTEX
  8
0
 62
4
 10
2.83779639E+02
 20
-2.71159921E+02
  0
VERTEX
  8
0
 62
4
 10
2.83981601E+02
 20
-2.71192057E+02
  0
VERTEX
  8
0
 62
4
 10
2.84198924E+02
 20
-2.71221014E+02
  0
VERTEX
  8
0
 62
4
 10
2.84429954E+02
 20
-2.71246572E+02
  0
VERTEX
  8
0
 62
4
 10
2.84672933E+02
 20
-2.71268536E+02
  0
VERTEX
  8
0
 62
4
 10
2.84926011E+02
 20
-2.71286739E+02
  0
VERTEX
  8
0
 62
4
 10
2.85187262E+02
 20
-2.71301043E+02
  0
VERTEX
  8
0
 62
4
 10
2.85454699E+02
 20
-2.71311339E+02
  0
VERTEX
  8
0
 62
4
 10
2.85726285E+02
 20
-2.71317547E+02
  0
VERTEX
  8
0
 62
4
 10
2.85999954E+02
 20
-2.71319622E+02
  0
VERTEX
  8
0
 62
4
 10
2.86273623E+02
 20
-2.71317547E+02
  0
VERTEX
  8
0
 62
4
 10
2.86545209E+02
 20
-2.71311339E+02
  0
VERTEX
  8
0
 62
4
 10
2.86812646E+02
 20
-2.71301043E+02
  0
VERTEX
  8
0
 62
4
 10
2.87073897E+02
 20
-2.71286739E+02
  0
VERTEX
  8
0
 62
4
 10
2.87326975E+02
 20
-2.71268536E+02
  0
VERTEX
  8
0
 62
4
 10
2.87569954E+02
 20
-2.71246572E+02
  0
VERTEX
  8
0
 62
4
 10
2.87800984E+02
 20
-2.71221014E+02
  0
VERTEX
  8
0
 62
4
 10
2.88018307E+02
 20
-2.71192057E+02
  0
VERTEX
  8
0
 62
4
 10
2.88220269E+02
 20
-2.71159921E+02
  0
VERTEX
  8
0
 62
4
 10
2.88405334E+02
 20
-2.71124850E+02
  0
VERTEX
  8
0
 62
4
 10
2.88572091E+02
 20
-2.71087113E+02
  0
VERTEX
  8
0
 62
4
 10
2.88719274E+02
 20
-2.71046995E+02
  0
VERTEX
  8
0
 62
4
 10
2.88845760E+02
 20
-2.71004802E+02
  0
VERTEX
  8
0
 62
4
 10
2.88950589E+02
 20
-2.70960855E+02
  0
VERTEX
  8
0
 62
4
 10
2.89032961E+02
 20
-2.70915489E+02
  0
VERTEX
  8
0
 62
4
 10
2.89092250E+02
 20
-2.70869050E+02
  0
VERTEX
  8
0
 62
4
 10
2.89128005E+02
 20
-2.70821889E+02
  0
VERTEX
  8
0
 62
4
 10
2.89139954E+02
 20
-2.70774367E+02
  0
SEQEND
  8
0
  0
LINE
  8
0
  6
CENTER
 62
6
 10
2.85999954E+02
 20
-2.68620236E+02
 11
2.85999954E+02
 21
-2.70774367E+02
  0
LINE
  8
0
 62
4
 10
3.28999954E+02
 20
-2.41722539E+02
 11
3.23999954E+02
 21
-2.41722539E+02
  0
LINE
  8
0
 62
4
 10
3.12499954E+02
 20
-2.72856352E+02
 11
3.12499954E+02
 21
-2.70752254E+02
  0
LINE
  8
0
 62
4
 10
2.76499954E+02
 20
-2.72856352E+02
 11
2.76499954E+02
 21
-2.70752254E+02
  0
LINE
  8
0
 62
4
 10
2.92499954E+02
 20
-2.70071381E+02
 11
2.76499954E+02
 21
-2.70071381E+02
  0
ARC
  8
0
 62
4
 10
3.12500454E+02
 20
-2.71570881E+02
 40
1.49950029E+00
 50
3.59980903E+02
 51
9.00190969E+01
  0
LINE
  8
0
 62
4
 10
3.12499954E+02
 20
-2.70071381E+02
 11
3.11499954E+02
 21
-2.70071381E+02
  0
ARC
  8
0
 62
4
 10
2.76499454E+02
 20
-2.71570881E+02
 40
1.49950029E+00
 50
8.99809029E+01
 51
1.80019097E+02
  0
POLYLINE
  8
0
 62
4
 66
1
  0
VERTEX
  8
0
 62
4
 10
3.07999954E+02
 20
-2.99178418E+02
  0
VERTEX
  8
0
 62
4
 10
3.07992094E+02
 20
-2.99004402E+02
  0
VERTEX
  8
0
 62
4
 10
3.07968574E+02
 20
-2.98831754E+02
  0
VERTEX
  8
0
 62
4
 10
3.07929581E+02
 20
-2.98661831E+02
  0
VERTEX
  8
0
 62
4
 10
3.07875420E+02
 20
-2.98495968E+02
  0
VERTEX
  8
0
 62
4
 10
3.07806517E+02
 20
-2.98335470E+02
  0
VERTEX
  8
0
 62
4
 10
3.07723414E+02
 20
-2.98181598E+02
  0
VERTEX
  8
0
 62
4
 10
3.07626764E+02
 20
-2.98035561E+02
  0
VERTEX
  8
0
 62
4
 10
3.07517326E+02
 20
-2.97898507E+02
  0
VERTEX
  8
0
 62
4
 10
3.07395962E+02
 20
-2.97771514E+02
  0
VERTEX
  8
0
 62
4
 10
3.07263624E+02
 20
-2.97655580E+02
  0
VERTEX
  8
0
 62
4
 10
3.07121353E+02
 20
-2.97551616E+02
  0
VERTEX
  8
0
 62
4
 10
3.06970268E+02
 20
-2.97460439E+02
  0
VERTEX
  8
0
 62
4
 10
3.06811556E+02
 20
-2.97382766E+02
  0
VERTEX
  8
0
 62
4
 10
3.06646464E+02
 20
-2.97319207E+02
  0
VERTEX
  8
0
 62
4
 10
3.06476290E+02
 20
-2.97270263E+02
  0
VERTEX
  8
0
 62
4
 10
3.06302372E+02
 20
-2.97236317E+02
  0
VERTEX
  8
0
 62
4
 10
3.06126077E+02
 20
-2.97217637E+02
  0
VERTEX
  8
0
 62
4
 10
3.05948791E+02
 20
-2.97214369E+02
  0
VERTEX
  8
0
 62
4
 10
3.05771907E+02
 20
-2.97226540E+02
  0
VERTEX
  8
0
 62
4
 10
3.05596815E+02
 20
-2.97254053E+02
  0
VERTEX
  8
0
 62
4
 10
3.05424893E+02
 20
-2.97296693E+02
  0
VERTEX
  8
0
 62
4
 10
3.05257490E+02
 20
-2.97354123E+02
  0
VERTEX
  8
0
 62
4
 10
3.05095924E+02
 20
-2.97425893E+02
  0
VERTEX
  8
0
 62
4
 10
3.04941463E+02
 20
-2.97511439E+02
  0
VERTEX
  8
0
 62
4
 10
3.04795323E+02
 20
-2.97610087E+02
  0
VERTEX
  8
0
 62
4
 10
3.04658651E+02
 20
-2.97721064E+02
  0
VERTEX
  8
0
 62
4
 10
3.04532523E+02
 20
-2.97843495E+02
  0
VERTEX
  8
0
 62
4
 10
3.04417929E+02
 20
-2.97976420E+02
  0
VERTEX
  8
0
 62
4
 10
3.04315770E+02
 20
-2.98118793E+02
  0
VERTEX
  8
0
 62
4
 10
3.04226850E+02
 20
-2.98269495E+02
  0
VERTEX
  8
0
 62
4
 10
3.04151867E+02
 20
-2.98427341E+02
  0
VERTEX
  8
0
 62
4
 10
3.04091411E+02
 20
-2.98591091E+02
  0
VERTEX
  8
0
 62
4
 10
3.04045956E+02
 20
-2.98759458E+02
  0
VERTEX
  8
0
 62
4
 10
3.04015861E+02
 20
-2.98931117E+02
  0
VERTEX
  8
0
 62
4
 10
3.04001362E+02
 20
-2.99104721E+02
  0
VERTEX
  8
0
 62
4
 10
3.04002572E+02
 20
-2.99278904E+02
  0
SEQEND
  8
0
  0
POLYLINE
  8
0
 62
4
 66
1
  0
VERTEX
  8
0
 62
4
 10
3.07734954E+02
 20
-2.99553038E+02
  0
VERTEX
  8
0
 62
4
 10
3.07728352E+02
 20
-2.99404120E+02
  0
VERTEX
  8
0
 62
4
 10
3.07708595E+02
 20
-2.99256336E+02
  0
VERTEX
  8
0
 62
4
 10
3.07675835E+02
 20
-2.99110809E+02
  0
VERTEX
  8
0
 62
4
 10
3.07630321E+02
 20
-2.98968648E+02
  0
VERTEX
  8
0
 62
4
 10
3.07572398E+02
 20
-2.98830935E+02
  0
VERTEX
  8
0
 62
4
 10
3.07502508E+02
 20
-2.98698717E+02
  0
VERTEX
  8
0
 62
4
 10
3.07421183E+02
 20
-2.98573002E+02
  0
VERTEX
  8
0
 62
4
 10
3.07329041E+02
 20
-2.98454744E+02
  0
VERTEX
  8
0
 62
4
 10
3.07226784E+02
 20
-2.98344846E+02
  0
VERTEX
  8
0
 62
4
 10
3.07115191E+02
 20
-2.98244143E+02
  0
VERTEX
  8
0
 62
4
 10
3.06995109E+02
 20
-2.98153401E+02
  0
VERTEX
  8
0
 62
4
 10
3.06867454E+02
 20
-2.98073311E+02
  0
VERTEX
  8
0
 62
4
 10
3.06733197E+02
 20
-2.98004483E+02
  0
VERTEX
  8
0
 62
4
 10
3.06593359E+02
 20
-2.97947440E+02
  0
VERTEX
  8
0
 62
4
 10
3.06449005E+02
 20
-2.97902617E+02
  0
VERTEX
  8
0
 62
4
 10
3.06301234E+02
 20
-2.97870355E+02
  0
VERTEX
  8
0
 62
4
 10
3.06151169E+02
 20
-2.97850898E+02
  0
VERTEX
  8
0
 62
4
 10
3.05999954E+02
 20
-2.97844397E+02
  0
VERTEX
  8
0
 62
4
 10
3.05848739E+02
 20
-2.97850898E+02
  0
VERTEX
  8
0
 62
4
 10
3.05698674E+02
 20
-2.97870355E+02
  0
VERTEX
  8
0
 62
4
 10
3.05550903E+02
 20
-2.97902617E+02
  0
VERTEX
  8
0
 62
4
 10
3.05406549E+02
 20
-2.97947440E+02
  0
VERTEX
  8
0
 62
4
 10
3.05266711E+02
 20
-2.98004483E+02
  0
VERTEX
  8
0
 62
4
 10
3.05132454E+02
 20
-2.98073311E+02
  0
VERTEX
  8
0
 62
4
 10
3.05004799E+02
 20
-2.98153401E+02
  0
VERTEX
  8
0
 62
4
 10
3.04884717E+02
 20
-2.98244143E+02
  0
VERTEX
  8
0
 62
4
 10
3.04773124E+02
 20
-2.98344846E+02
  0
VERTEX
  8
0
 62
4
 10
3.04670867E+02
 20
-2.98454744E+02
  0
VERTEX
  8
0
 62
4
 10
3.04578725E+02
 20
-2.98573002E+02
  0
VERTEX
  8
0
 62
4
 10
3.04497400E+02
 20
-2.98698717E+02
  0
VERTEX
  8
0
 62
4
 10
3.04427510E+02
 20
-2.98830935E+02
  0
VERTEX
  8
0
 62
4
 10
3.04369587E+02
 20
-2.98968648E+02
  0
VERTEX
  8
0
 62
4
 10
3.04324073E+02
 20
-2.99110809E+02
  0
VERTEX
  8
0
 62
4
 10
3.04291313E+02
 20
-2.99256336E+02
  0
VERTEX
  8
0
 62
4
 10
3.04271556E+02
 20
-2.99404120E+02
  0
VERTEX
  8
0
 62
4
 10
3.04264954E+02
 20
-2.99553038E+02
  0
VERTEX
  8
0
 62
4
 10
3.04271556E+02
 20
-2.99701956E+02
  0
VERTEX
  8
0
 62
4
 10
3.04291313E+02
 20
-2.99849740E+02
  0
VERTEX
  8
0
 62
4
 10
3.04324073E+02
 20
-2.99995267E+02
  0
VERTEX
  8
0
 62
4
 10
3.04369587E+02
 20
-3.00137428E+02
  0
VERTEX
  8
0
 62
4
 10
3.04427510E+02
 20
-3.00275141E+02
  0
VERTEX
  8
0
 62
4
 10
3.04497400E+02
 20
-3.00407359E+02
  0
VERTEX
  8
0
 62
4
 10
3.04578725E+02
 20
-3.00533074E+02
  0
VERTEX
  8
0
 62
4
 10
3.04670867E+02
 20
-3.00651332E+02
  0
VERTEX
  8
0
 62
4
 10
3.04773124E+02
 20
-3.00761230E+02
  0
VERTEX
  8
0
 62
4
 10
3.04884717E+02
 20
-3.00861933E+02
  0
VERTEX
  8
0
 62
4
 10
3.05004799E+02
 20
-3.00952675E+02
  0
VERTEX
  8
0
 62
4
 10
3.05132454E+02
 20
-3.01032765E+02
  0
VERTEX
  8
0
 62
4
 10
3.05266711E+02
 20
-3.01101593E+02
  0
VERTEX
  8
0
 62
4
 10
3.05406549E+02
 20
-3.01158636E+02
  0
VERTEX
  8
0
 62
4
 10
3.05550903E+02
 20
-3.01203459E+02
  0
VERTEX
  8
0
 62
4
 10
3.05698674E+02
 20
-3.01235721E+02
  0
VERTEX
  8
0
 62
4
 10
3.05848739E+02
 20
-3.01255178E+02
  0
VERTEX
  8
0
 62
4
 10
3.05999954E+02
 20
-3.01261679E+02
  0
VERTEX
  8
0
 62
4
 10
3.06151169E+02
 20
-3.01255178E+02
  0
VERTEX
  8
0
 62
4
 10
3.06301234E+02
 20
-3.01235721E+02
  0
VERTEX
  8
0
 62
4
 10
3.06449005E+02
 20
-3.01203459E+02
  0
VERTEX
  8
0
 62
4
 10
3.06593359E+02
 20
-3.01158636E+02
  0
VERTEX
  8
0
 62
4
 10
3.06733197E+02
 20
-3.01101593E+02
  0
VERTEX
  8
0
 62
4
 10
3.06867454E+02
 20
-3.01032765E+02
  0
VERTEX
  8
0
 62
4
 10
3.06995109E+02
 20
-3.00952675E+02
  0
VERTEX
  8
0
 62
4
 10
3.07115191E+02
 20
-3.00861933E+02
  0
VERTEX
  8
0
 62
4
 10
3.07226784E+02
 20
-3.00761230E+02
  0
VERTEX
  8
0
 62
4
 10
3.07329041E+02
 20
-3.00651332E+02
  0
VERTEX
  8
0
 62
4
 10
3.07421183E+02
 20
-3.00533074E+02
  0
VERTEX
  8
0
 62
4
 10
3.07502508E+02
 20
-3.00407359E+02
  0
VERTEX
  8
0
 62
4
 10
3.07572398E+02
 20
-3.00275141E+02
  0
VERTEX
  8
0
 62
4
 10
3.07630321E+02
 20
-3.00137428E+02
  0
VERTEX
  8
0
 62
4
 10
3.07675835E+02
 20
-2.99995267E+02
  0
VERTEX
  8
0
 62
4
 10
3.07708595E+02
 20
-2.99849740E+02
  0
VERTEX
  8
0
 62
4
 10
3.07728352E+02
 20
-2.99701956E+02
  0
VERTEX
  8
0
 62
4
 10
3.07734954E+02
 20
-2.99553038E+02
  0
SEQEND
  8
0
  0
POLYLINE
  8
0
 62
4
 66
1
  0
VERTEX
  8
0
 62
4
 10
3.07999954E+02
 20
-2.99379390E+02
  0
VERTEX
  8
0
 62
4
 10
3.07992343E+02
 20
-2.99208156E+02
  0
VERTEX
  8
0
 62
4
 10
3.07969570E+02
 20
-2.99038225E+02
  0
VERTEX
  8
0
 62
4
 10
3.07931806E+02
 20
-2.98870890E+02
  0
VERTEX
  8
0
 62
4
 10
3.07879339E+02
 20
-2.98707426E+02
  0
VERTEX
  8
0
 62
4
 10
3.07812570E+02
 20
-2.98549076E+02
  0
VERTEX
  8
0
 62
4
 10
3.07732005E+02
 20
-2.98397044E+02
  0
VERTEX
  8
0
 62
4
 10
3.07638258E+02
 20
-2.98252489E+02
  0
VERTEX
  8
0
 62
4
 10
3.07532043E+02
 20
-2.98116511E+02
  0
VERTEX
  8
0
 62
4
 10
3.07414168E+02
 20
-2.97990143E+02
  0
VERTEX
  8
0
 62
4
 10
3.07285529E+02
 20
-2.97874349E+02
  0
VERTEX
  8
0
 62
4
 10
3.07147107E+02
 20
-2.97770009E+02
  0
VERTEX
  8
0
 62
4
 10
3.06999954E+02
 20
-2.97677917E+02
  0
VERTEX
  8
0
 62
4
 10
3.06845191E+02
 20
-2.97598775E+02
  0
VERTEX
  8
0
 62
4
 10
3.06683994E+02
 20
-2.97533184E+02
  0
VERTEX
  8
0
 62
4
 10
3.06517592E+02
 20
-2.97481644E+02
  0
VERTEX
  8
0
 62
4
 10
3.06347250E+02
 20
-2.97444547E+02
  0
VERTEX
  8
0
 62
4
 10
3.06174265E+02
 20
-2.97422175E+02
  0
VERTEX
  8
0
 62
4
 10
3.05999954E+02
 20
-2.97414699E+02
  0
VERTEX
  8
0
 62
4
 10
3.05825643E+02
 20
-2.97422175E+02
  0
VERTEX
  8
0
 62
4
 10
3.05652658E+02
 20
-2.97444547E+02
  0
VERTEX
  8
0
 62
4
 10
3.05482316E+02
 20
-2.97481644E+02
  0
VERTEX
  8
0
 62
4
 10
3.05315914E+02
 20
-2.97533184E+02
  0
VERTEX
  8
0
 62
4
 10
3.05154717E+02
 20
-2.97598775E+02
  0
VERTEX
  8
0
 62
4
 10
3.04999954E+02
 20
-2.97677917E+02
  0
VERTEX
  8
0
 62
4
 10
3.04852801E+02
 20
-2.97770009E+02
  0
VERTEX
  8
0
 62
4
 10
3.04714379E+02
 20
-2.97874349E+02
  0
VERTEX
  8
0
 62
4
 10
3.04585740E+02
 20
-2.97990143E+02
  0
VERTEX
  8
0
 62
4
 10
3.04467865E+02
 20
-2.98116511E+02
  0
VERTEX
  8
0
 62
4
 10
3.04361650E+02
 20
-2.98252489E+02
  0
VERTEX
  8
0
 62
4
 10
3.04267903E+02
 20
-2.98397044E+02
  0
VERTEX
  8
0
 62
4
 10
3.04187338E+02
 20
-2.98549076E+02
  0
VERTEX
  8
0
 62
4
 10
3.04120569E+02
 20
-2.98707426E+02
  0
VERTEX
  8
0
 62
4
 10
3.04068102E+02
 20
-2.98870890E+02
  0
VERTEX
  8
0
 62
4
 10
3.04030338E+02
 20
-2.99038225E+02
  0
VERTEX
  8
0
 62
4
 10
3.04007565E+02
 20
-2.99208156E+02
  0
VERTEX
  8
0
 62
4
 10
3.03999954E+02
 20
-2.99379390E+02
  0
VERTEX
  8
0
 62
4
 10
3.04007565E+02
 20
-2.99550624E+02
  0
VERTEX
  8
0
 62
4
 10
3.04030338E+02
 20
-2.99720555E+02
  0
VERTEX
  8
0
 62
4
 10
3.04068102E+02
 20
-2.99887890E+02
  0
VERTEX
  8
0
 62
4
 10
3.04120569E+02
 20
-3.00051354E+02
  0
VERTEX
  8
0
 62
4
 10
3.04187338E+02
 20
-3.00209704E+02
  0
VERTEX
  8
0
 62
4
 10
3.04267903E+02
 20
-3.00361736E+02
  0
VERTEX
  8
0
 62
4
 10
3.04361650E+02
 20
-3.00506291E+02
  0
VERTEX
  8
0
 62
4
 10
3.04467865E+02
 20
-3.00642269E+02
  0
VERTEX
  8
0
 62
4
 10
3.04585740E+02
 20
-3.00768637E+02
  0
VERTEX
  8
0
 62
4
 10
3.04714379E+02
 20
-3.00884431E+02
  0
VERTEX
  8
0
 62
4
 10
3.04852801E+02
 20
-3.00988771E+02
  0
VERTEX
  8
0
 62
4
 10
3.04999954E+02
 20
-3.01080863E+02
  0
VERTEX
  8
0
 62
4
 10
3.05154717E+02
 20
-3.01160005E+02
  0
VERTEX
  8
0
 62
4
 10
3.05315914E+02
 20
-3.01225596E+02
  0
VERTEX
  8
0
 62
4
 10
3.05482316E+02
 20
-3.01277136E+02
  0
VERTEX
  8
0
 62
4
 10
3.05652658E+02
 20
-3.01314233E+02
  0
VERTEX
  8
0
 62
4
 10
3.05825643E+02
 20
-3.01336605E+02
  0
VERTEX
  8
0
 62
4
 10
3.05999954E+02
 20
-3.01344081E+02
  0
VERTEX
  8
0
 62
4
 10
3.06174265E+02
 20
-3.01336605E+02
  0
VERTEX
  8
0
 62
4
 10
3.06347250E+02
 20
-3.01314233E+02
  0
VERTEX
  8
0
 62
4
 10
3.06517592E+02
 20
-3.01277136E+02
  0
VERTEX
  8
0
 62
4
 10
3.06683994E+02
 20
-3.01225596E+02
  0
VERTEX
  8
0
 62
4
 10
3.06845191E+02
 20
-3.01160005E+02
  0
VERTEX
  8
0
 62
4
 10
3.06999954E+02
 20
-3.01080863E+02
  0
VERTEX
  8
0
 62
4
 10
3.07147107E+02
 20
-3.00988771E+02
  0
VERTEX
  8
0
 62
4
 10
3.07285529E+02
 20
-3.00884431E+02
  0
VERTEX
  8
0
 62
4
 10
3.07414168E+02
 20
-3.00768637E+02
  0
VERTEX
  8
0
 62
4
 10
3.07532043E+02
 20
-3.00642269E+02
  0
VERTEX
  8
0
 62
4
 10
3.07638258E+02
 20
-3.00506291E+02
  0
VERTEX
  8
0
 62
4
 10
3.07732005E+02
 20
-3.00361736E+02
  0
VERTEX
  8
0
 62
4
 10
3.07812570E+02
 20
-3.00209704E+02
  0
VERTEX
  8
0
 62
4
 10
3.07879339E+02
 20
-3.00051354E+02
  0
VERTEX
  8
0
 62
4
 10
3.07931806E+02
 20
-2.99887890E+02
  0
VERTEX
  8
0
 62
4
 10
3.07969570E+02
 20
-2.99720555E+02
  0
VERTEX
  8
0
 62
4
 10
3.07992343E+02
 20
-2.99550624E+02
  0
VERTEX
  8
0
 62
4
 10
3.07999954E+02
 20
-2.99379390E+02
  0
SEQEND
  8
0
  0
POLYLINE
  8
0
 62
6
 66
1
  0
VERTEX
  8
0
 62
6
 10
3.07499954E+02
 20
-2.99548114E+02
  0
VERTEX
  8
0
 62
6
 10
3.07494246E+02
 20
-2.99419367E+02
  0
VERTEX
  8
0
 62
6
 10
3.07477166E+02
 20
-2.99291599E+02
  0
VERTEX
  8
0
 62
6
 10
3.07448843E+02
 20
-2.99165783E+02
  0
VERTEX
  8
0
 62
6
 10
3.07409493E+02
 20
-2.99042878E+02
  0
VERTEX
  8
0
 62
6
 10
3.07359416E+02
 20
-2.98923817E+02
  0
VERTEX
  8
0
 62
6
 10
3.07298992E+02
 20
-2.98809508E+02
  0
VERTEX
  8
0
 62
6
 10
3.07228682E+02
 20
-2.98700820E+02
  0
VERTEX
  8
0
 62
6
 10
3.07149021E+02
 20
-2.98598581E+02
  0
VERTEX
  8
0
 62
6
 10
3.07060614E+02
 20
-2.98503568E+02
  0
VERTEX
  8
0
 62
6
 10
3.06964135E+02
 20
-2.98416504E+02
  0
VERTEX
  8
0
 62
6
 10
3.06860319E+02
 20
-2.98338053E+02
  0
VERTEX
  8
0
 62
6
 10
3.06749954E+02
 20
-2.98268811E+02
  0
VERTEX
  8
0
 62
6
 10
3.06633881E+02
 20
-2.98209306E+02
  0
VERTEX
  8
0
 62
6
 10
3.06512984E+02
 20
-2.98159989E+02
  0
VERTEX
  8
0
 62
6
 10
3.06388183E+02
 20
-2.98121237E+02
  0
VERTEX
  8
0
 62
6
 10
3.06260426E+02
 20
-2.98093345E+02
  0
VERTEX
  8
0
 62
6
 10
3.06130688E+02
 20
-2.98076524E+02
  0
VERTEX
  8
0
 62
6
 10
3.05999954E+02
 20
-2.98070902E+02
  0
VERTEX
  8
0
 62
6
 10
3.05869220E+02
 20
-2.98076524E+02
  0
VERTEX
  8
0
 62
6
 10
3.05739482E+02
 20
-2.98093345E+02
  0
VERTEX
  8
0
 62
6
 10
3.05611725E+02
 20
-2.98121237E+02
  0
VERTEX
  8
0
 62
6
 10
3.05486924E+02
 20
-2.98159989E+02
  0
VERTEX
  8
0
 62
6
 10
3.05366027E+02
 20
-2.98209306E+02
  0
VERTEX
  8
0
 62
6
 10
3.05249954E+02
 20
-2.98268811E+02
  0
VERTEX
  8
0
 62
6
 10
3.05139589E+02
 20
-2.98338053E+02
  0
VERTEX
  8
0
 62
6
 10
3.05035773E+02
 20
-2.98416504E+02
  0
VERTEX
  8
0
 62
6
 10
3.04939294E+02
 20
-2.98503568E+02
  0
VERTEX
  8
0
 62
6
 10
3.04850887E+02
 20
-2.98598581E+02
  0
VERTEX
  8
0
 62
6
 10
3.04771226E+02
 20
-2.98700820E+02
  0
VERTEX
  8
0
 62
6
 10
3.04700916E+02
 20
-2.98809508E+02
  0
VERTEX
  8
0
 62
6
 10
3.04640492E+02
 20
-2.98923817E+02
  0
VERTEX
  8
0
 62
6
 10
3.04590415E+02
 20
-2.99042878E+02
  0
VERTEX
  8
0
 62
6
 10
3.04551065E+02
 20
-2.99165783E+02
  0
VERTEX
  8
0
 62
6
 10
3.04522742E+02
 20
-2.99291599E+02
  0
VERTEX
  8
0
 62
6
 10
3.04505662E+02
 20
-2.99419367E+02
  0
VERTEX
  8
0
 62
6
 10
3.04499954E+02
 20
-2.99548114E+02
  0
VERTEX
  8
0
 62
6
 10
3.04505662E+02
 20
-2.99676861E+02
  0
VERTEX
  8
0
 62
6
 10
3.04522742E+02
 20
-2.99804629E+02
  0
VERTEX
  8
0
 62
6
 10
3.04551065E+02
 20
-2.99930445E+02
  0
VERTEX
  8
0
 62
6
 10
3.04590415E+02
 20
-3.00053350E+02
  0
VERTEX
  8
0
 62
6
 10
3.04640492E+02
 20
-3.00172411E+02
  0
VERTEX
  8
0
 62
6
 10
3.04700916E+02
 20
-3.00286720E+02
  0
VERTEX
  8
0
 62
6
 10
3.04771226E+02
 20
-3.00395408E+02
  0
VERTEX
  8
0
 62
6
 10
3.04850887E+02
 20
-3.00497647E+02
  0
VERTEX
  8
0
 62
6
 10
3.04939294E+02
 20
-3.00592660E+02
  0
VERTEX
  8
0
 62
6
 10
3.05035773E+02
 20
-3.00679724E+02
  0
VERTEX
  8
0
 62
6
 10
3.05139589E+02
 20
-3.00758175E+02
  0
VERTEX
  8
0
 62
6
 10
3.05249954E+02
 20
-3.00827417E+02
  0
VERTEX
  8
0
 62
6
 10
3.05366027E+02
 20
-3.00886922E+02
  0
VERTEX
  8
0
 62
6
 10
3.05486924E+02
 20
-3.00936239E+02
  0
VERTEX
  8
0
 62
6
 10
3.05611725E+02
 20
-3.00974991E+02
  0
VERTEX
  8
0
 62
6
 10
3.05739482E+02
 20
-3.01002883E+02
  0
VERTEX
  8
0
 62
6
 10
3.05869220E+02
 20
-3.01019704E+02
  0
VERTEX
  8
0
 62
6
 10
3.05999954E+02
 20
-3.01025326E+02
  0
VERTEX
  8
0
 62
6
 10
3.06130688E+02
 20
-3.01019704E+02
  0
VERTEX
  8
0
 62
6
 10
3.06260426E+02
 20
-3.01002883E+02
  0
VERTEX
  8
0
 62
6
 10
3.06388183E+02
 20
-3.00974991E+02
  0
VERTEX
  8
0
 62
6
 10
3.06512984E+02
 20
-3.00936239E+02
  0
VERTEX
  8
0
 62
6
 10
3.06633881E+02
 20
-3.00886922E+02
  0
VERTEX
  8
0
 62
6
 10
3.06749954E+02
 20
-3.00827417E+02
  0
VERTEX
  8
0
 62
6
 10
3.06860319E+02
 20
-3.00758175E+02
  0
VERTEX
  8
0
 62
6
 10
3.06964135E+02
 20
-3.00679724E+02
  0
VERTEX
  8
0
 62
6
 10
3.07060614E+02
 20
-3.00592660E+02
  0
VERTEX
  8
0
 62
6
 10
3.07149021E+02
 20
-3.00497647E+02
  0
VERTEX
  8
0
 62
6
 10
3.07228682E+02
 20
-3.00395408E+02
  0
VERTEX
  8
0
 62
6
 10
3.07298992E+02
 20
-3.00286720E+02
  0
VERTEX
  8
0
 62
6
 10
3.07359416E+02
 20
-3.00172411E+02
  0
VERTEX
  8
0
 62
6
 10
3.07409493E+02
 20
-3.00053350E+02
  0
VERTEX
  8
0
 62
6
 10
3.07448843E+02
 20
-2.99930444E+02
  0
VERTEX
  8
0
 62
6
 10
3.07477166E+02
 20
-2.99804629E+02
  0
VERTEX
  8
0
 62
6
 10
3.07494246E+02
 20
-2.99676861E+02
  0
VERTEX
  8
0
 62
6
 10
3.07499954E+02
 20
-2.99548114E+02
  0
SEQEND
  8
0
  0
POLYLINE
  8
0
 62
4
 66
1
  0
VERTEX
  8
0
 62
4
 10
2.99999954E+02
 20
-2.99178418E+02
  0
VERTEX
  8
0
 62
4
 10
2.99992094E+02
 20
-2.99004402E+02
  0
VERTEX
  8
0
 62
4
 10
2.99968574E+02
 20
-2.98831754E+02
  0
VERTEX
  8
0
 62
4
 10
2.99929581E+02
 20
-2.98661831E+02
  0
VERTEX
  8
0
 62
4
 10
2.99875420E+02
 20
-2.98495968E+02
  0
VERTEX
  8
0
 62
4
 10
2.99806517E+02
 20
-2.98335470E+02
  0
VERTEX
  8
0
 62
4
 10
2.99723414E+02
 20
-2.98181598E+02
  0
VERTEX
  8
0
 62
4
 10
2.99626764E+02
 20
-2.98035561E+02
  0
VERTEX
  8
0
 62
4
 10
2.99517326E+02
 20
-2.97898507E+02
  0
VERTEX
  8
0
 62
4
 10
2.99395962E+02
 20
-2.97771514E+02
  0
VERTEX
  8
0
 62
4
 10
2.99263624E+02
 20
-2.97655580E+02
  0
VERTEX
  8
0
 62
4
 10
2.99121353E+02
 20
-2.97551616E+02
  0
VERTEX
  8
0
 62
4
 10
2.98970268E+02
 20
-2.97460439E+02
  0
VERTEX
  8
0
 62
4
 10
2.98811556E+02
 20
-2.97382766E+02
  0
VERTEX
  8
0
 62
4
 10
2.98646464E+02
 20
-2.97319207E+02
  0
VERTEX
  8
0
 62
4
 10
2.98476290E+02
 20
-2.97270263E+02
  0
VERTEX
  8
0
 62
4
 10
2.98302372E+02
 20
-2.97236317E+02
  0
VERTEX
  8
0
 62
4
 10
2.98126077E+02
 20
-2.97217637E+02
  0
VERTEX
  8
0
 62
4
 10
2.97948791E+02
 20
-2.97214369E+02
  0
VERTEX
  8
0
 62
4
 10
2.97771907E+02
 20
-2.97226540E+02
  0
VERTEX
  8
0
 62
4
 10
2.97596815E+02
 20
-2.97254053E+02
  0
VERTEX
  8
0
 62
4
 10
2.97424893E+02
 20
-2.97296693E+02
  0
VERTEX
  8
0
 62
4
 10
2.97257490E+02
 20
-2.97354123E+02
  0
VERTEX
  8
0
 62
4
 10
2.97095924E+02
 20
-2.97425893E+02
  0
VERTEX
  8
0
 62
4
 10
2.96941463E+02
 20
-2.97511439E+02
  0
VERTEX
  8
0
 62
4
 10
2.96795323E+02
 20
-2.97610087E+02
  0
VERTEX
  8
0
 62
4
 10
2.96658651E+02
 20
-2.97721064E+02
  0
VERTEX
  8
0
 62
4
 10
2.96532523E+02
 20
-2.97843495E+02
  0
VERTEX
  8
0
 62
4
 10
2.96417929E+02
 20
-2.97976420E+02
  0
VERTEX
  8
0
 62
4
 10
2.96315770E+02
 20
-2.98118793E+02
  0
VERTEX
  8
0
 62
4
 10
2.96226850E+02
 20
-2.98269495E+02
  0
VERTEX
  8
0
 62
4
 10
2.96151867E+02
 20
-2.98427341E+02
  0
VERTEX
  8
0
 62
4
 10
2.96091411E+02
 20
-2.98591091E+02
  0
VERTEX
  8
0
 62
4
 10
2.96045956E+02
 20
-2.98759458E+02
  0
VERTEX
  8
0
 62
4
 10
2.96015861E+02
 20
-2.98931117E+02
  0
VERTEX
  8
0
 62
4
 10
2.96001362E+02
 20
-2.99104721E+02
  0
VERTEX
  8
0
 62
4
 10
2.96002572E+02
 20
-2.99278904E+02
  0
SEQEND
  8
0
  0
POLYLINE
  8
0
 62
4
 66
1
  0
VERTEX
  8
0
 62
4
 10
2.99734954E+02
 20
-2.99553038E+02
  0
VERTEX
  8
0
 62
4
 10
2.99728352E+02
 20
-2.99404120E+02
  0
VERTEX
  8
0
 62
4
 10
2.99708595E+02
 20
-2.99256336E+02
  0
VERTEX
  8
0
 62
4
 10
2.99675835E+02
 20
-2.99110809E+02
  0
VERTEX
  8
0
 62
4
 10
2.99630321E+02
 20
-2.98968648E+02
  0
VERTEX
  8
0
 62
4
 10
2.99572398E+02
 20
-2.98830935E+02
  0
VERTEX
  8
0
 62
4
 10
2.99502508E+02
 20
-2.98698717E+02
  0
VERTEX
  8
0
 62
4
 10
2.99421183E+02
 20
-2.98573002E+02
  0
VERTEX
  8
0
 62
4
 10
2.99329041E+02
 20
-2.98454744E+02
  0
VERTEX
  8
0
 62
4
 10
2.99226784E+02
 20
-2.98344846E+02
  0
VERTEX
  8
0
 62
4
 10
2.99115191E+02
 20
-2.98244143E+02
  0
VERTEX
  8
0
 62
4
 10
2.98995109E+02
 20
-2.98153401E+02
  0
VERTEX
  8
0
 62
4
 10
2.98867454E+02
 20
-2.98073311E+02
  0
VERTEX
  8
0
 62
4
 10
2.98733197E+02
 20
-2.98004483E+02
  0
VERTEX
  8
0
 62
4
 10
2.98593359E+02
 20
-2.97947440E+02
  0
VERTEX
  8
0
 62
4
 10
2.98449005E+02
 20
-2.97902617E+02
  0
VERTEX
  8
0
 62
4
 10
2.98301234E+02
 20
-2.97870355E+02
  0
VERTEX
  8
0
 62
4
 10
2.98151169E+02
 20
-2.97850898E+02
  0
VERTEX
  8
0
 62
4
 10
2.97999954E+02
 20
-2.97844397E+02
  0
VERTEX
  8
0
 62
4
 10
2.97848739E+02
 20
-2.97850898E+02
  0
VERTEX
  8
0
 62
4
 10
2.97698674E+02
 20
-2.97870355E+02
  0
VERTEX
  8
0
 62
4
 10
2.97550903E+02
 20
-2.97902617E+02
  0
VERTEX
  8
0
 62
4
 10
2.97406549E+02
 20
-2.97947440E+02
  0
VERTEX
  8
0
 62
4
 10
2.97266711E+02
 20
-2.98004483E+02
  0
VERTEX
  8
0
 62
4
 10
2.97132454E+02
 20
-2.98073311E+02
  0
VERTEX
  8
0
 62
4
 10
2.97004799E+02
 20
-2.98153401E+02
  0
VERTEX
  8
0
 62
4
 10
2.96884717E+02
 20
-2.98244143E+02
  0
VERTEX
  8
0
 62
4
 10
2.96773124E+02
 20
-2.98344846E+02
  0
VERTEX
  8
0
 62
4
 10
2.96670867E+02
 20
-2.98454744E+02
  0
VERTEX
  8
0
 62
4
 10
2.96578725E+02
 20
-2.98573002E+02
  0
VERTEX
  8
0
 62
4
 10
2.96497400E+02
 20
-2.98698717E+02
  0
VERTEX
  8
0
 62
4
 10
2.96427510E+02
 20
-2.98830935E+02
  0
VERTEX
  8
0
 62
4
 10
2.96369587E+02
 20
-2.98968648E+02
  0
VERTEX
  8
0
 62
4
 10
2.96324073E+02
 20
-2.99110809E+02
  0
VERTEX
  8
0
 62
4
 10
2.96291313E+02
 20
-2.99256336E+02
  0
VERTEX
  8
0
 62
4
 10
2.96271556E+02
 20
-2.99404120E+02
  0
VERTEX
  8
0
 62
4
 10
2.96264954E+02
 20
-2.99553038E+02
  0
VERTEX
  8
0
 62
4
 10
2.96271556E+02
 20
-2.99701956E+02
  0
VERTEX
  8
0
 62
4
 10
2.96291313E+02
 20
-2.99849740E+02
  0
VERTEX
  8
0
 62
4
 10
2.96324073E+02
 20
-2.99995267E+02
  0
VERTEX
  8
0
 62
4
 10
2.96369587E+02
 20
-3.00137428E+02
  0
VERTEX
  8
0
 62
4
 10
2.96427510E+02
 20
-3.00275141E+02
  0
VERTEX
  8
0
 62
4
 10
2.96497400E+02
 20
-3.00407359E+02
  0
VERTEX
  8
0
 62
4
 10
2.96578725E+02
 20
-3.00533074E+02
  0
VERTEX
  8
0
 62
4
 10
2.96670867E+02
 20
-3.00651332E+02
  0
VERTEX
  8
0
 62
4
 10
2.96773124E+02
 20
-3.00761230E+02
  0
VERTEX
  8
0
 62
4
 10
2.96884717E+02
 20
-3.00861933E+02
  0
VERTEX
  8
0
 62
4
 10
2.97004799E+02
 20
-3.00952675E+02
  0
VERTEX
  8
0
 62
4
 10
2.97132454E+02
 20
-3.01032765E+02
  0
VERTEX
  8
0
 62
4
 10
2.97266711E+02
 20
-3.01101593E+02
  0
VERTEX
  8
0
 62
4
 10
2.97406549E+02
 20
-3.01158636E+02
  0
VERTEX
  8
0
 62
4
 10
2.97550903E+02
 20
-3.01203459E+02
  0
VERTEX
  8
0
 62
4
 10
2.97698674E+02
 20
-3.01235721E+02
  0
VERTEX
  8
0
 62
4
 10
2.97848739E+02
 20
-3.01255178E+02
  0
VERTEX
  8
0
 62
4
 10
2.97999954E+02
 20
-3.01261679E+02
  0
VERTEX
  8
0
 62
4
 10
2.98151169E+02
 20
-3.01255178E+02
  0
VERTEX
  8
0
 62
4
 10
2.98301234E+02
 20
-3.01235721E+02
  0
VERTEX
  8
0
 62
4
 10
2.98449005E+02
 20
-3.01203459E+02
  0
VERTEX
  8
0
 62
4
 10
2.98593359E+02
 20
-3.01158636E+02
  0
VERTEX
  8
0
 62
4
 10
2.98733197E+02
 20
-3.01101593E+02
  0
VERTEX
  8
0
 62
4
 10
2.98867454E+02
 20
-3.01032765E+02
  0
VERTEX
  8
0
 62
4
 10
2.98995109E+02
 20
-3.00952675E+02
  0
VERTEX
  8
0
 62
4
 10
2.99115191E+02
 20
-3.00861933E+02
  0
VERTEX
  8
0
 62
4
 10
2.99226784E+02
 20
-3.00761230E+02
  0
VERTEX
  8
0
 62
4
 10
2.99329041E+02
 20
-3.00651332E+02
  0
VERTEX
  8
0
 62
4
 10
2.99421183E+02
 20
-3.00533074E+02
  0
VERTEX
  8
0
 62
4
 10
2.99502508E+02
 20
-3.00407359E+02
  0
VERTEX
  8
0
 62
4
 10
2.99572398E+02
 20
-3.00275141E+02
  0
VERTEX
  8
0
 62
4
 10
2.99630321E+02
 20
-3.00137428E+02
  0
VERTEX
  8
0
 62
4
 10
2.99675835E+02
 20
-2.99995267E+02
  0
VERTEX
  8
0
 62
4
 10
2.99708595E+02
 20
-2.99849740E+02
  0
VERTEX
  8
0
 62
4
 10
2.99728352E+02
 20
-2.99701956E+02
  0
VERTEX
  8
0
 62
4
 10
2.99734954E+02
 20
-2.99553038E+02
  0
SEQEND
  8
0
  0
POLYLINE
  8
0
 62
4
 66
1
  0
VERTEX
  8
0
 62
4
 10
2.99999954E+02
 20
-2.99379390E+02
  0
VERTEX
  8
0
 62
4
 10
2.99992343E+02
 20
-2.99208156E+02
  0
VERTEX
  8
0
 62
4
 10
2.99969570E+02
 20
-2.99038225E+02
  0
VERTEX
  8
0
 62
4
 10
2.99931806E+02
 20
-2.98870890E+02
  0
VERTEX
  8
0
 62
4
 10
2.99879339E+02
 20
-2.98707426E+02
  0
VERTEX
  8
0
 62
4
 10
2.99812570E+02
 20
-2.98549076E+02
  0
VERTEX
  8
0
 62
4
 10
2.99732005E+02
 20
-2.98397044E+02
  0
VERTEX
  8
0
 62
4
 10
2.99638258E+02
 20
-2.98252489E+02
  0
VERTEX
  8
0
 62
4
 10
2.99532043E+02
 20
-2.98116511E+02
  0
VERTEX
  8
0
 62
4
 10
2.99414168E+02
 20
-2.97990143E+02
  0
VERTEX
  8
0
 62
4
 10
2.99285529E+02
 20
-2.97874349E+02
  0
VERTEX
  8
0
 62
4
 10
2.99147107E+02
 20
-2.97770009E+02
  0
VERTEX
  8
0
 62
4
 10
2.98999954E+02
 20
-2.97677917E+02
  0
VERTEX
  8
0
 62
4
 10
2.98845191E+02
 20
-2.97598775E+02
  0
VERTEX
  8
0
 62
4
 10
2.98683994E+02
 20
-2.97533184E+02
  0
VERTEX
  8
0
 62
4
 10
2.98517592E+02
 20
-2.97481644E+02
  0
VERTEX
  8
0
 62
4
 10
2.98347250E+02
 20
-2.97444547E+02
  0
VERTEX
  8
0
 62
4
 10
2.98174265E+02
 20
-2.97422175E+02
  0
VERTEX
  8
0
 62
4
 10
2.97999954E+02
 20
-2.97414699E+02
  0
VERTEX
  8
0
 62
4
 10
2.97825643E+02
 20
-2.97422175E+02
  0
VERTEX
  8
0
 62
4
 10
2.97652658E+02
 20
-2.97444547E+02
  0
VERTEX
  8
0
 62
4
 10
2.97482316E+02
 20
-2.97481644E+02
  0
VERTEX
  8
0
 62
4
 10
2.97315914E+02
 20
-2.97533184E+02
  0
VERTEX
  8
0
 62
4
 10
2.97154717E+02
 20
-2.97598775E+02
  0
VERTEX
  8
0
 62
4
 10
2.96999954E+02
 20
-2.97677917E+02
  0
VERTEX
  8
0
 62
4
 10
2.96852801E+02
 20
-2.97770009E+02
  0
VERTEX
  8
0
 62
4
 10
2.96714379E+02
 20
-2.97874349E+02
  0
VERTEX
  8
0
 62
4
 10
2.96585740E+02
 20
-2.97990143E+02
  0
VERTEX
  8
0
 62
4
 10
2.96467865E+02
 20
-2.98116511E+02
  0
VERTEX
  8
0
 62
4
 10
2.96361650E+02
 20
-2.98252489E+02
  0
VERTEX
  8
0
 62
4
 10
2.96267903E+02
 20
-2.98397044E+02
  0
VERTEX
  8
0
 62
4
 10
2.96187338E+02
 20
-2.98549076E+02
  0
VERTEX
  8
0
 62
4
 10
2.96120569E+02
 20
-2.98707426E+02
  0
VERTEX
  8
0
 62
4
 10
2.96068102E+02
 20
-2.98870890E+02
  0
VERTEX
  8
0
 62
4
 10
2.96030338E+02
 20
-2.99038225E+02
  0
VERTEX
  8
0
 62
4
 10
2.96007565E+02
 20
-2.99208156E+02
  0
VERTEX
  8
0
 62
4
 10
2.95999954E+02
 20
-2.99379390E+02
  0
VERTEX
  8
0
 62
4
 10
2.96007565E+02
 20
-2.99550624E+02
  0
VERTEX
  8
0
 62
4
 10
2.96030338E+02
 20
-2.99720555E+02
  0
VERTEX
  8
0
 62
4
 10
2.96068102E+02
 20
-2.99887890E+02
  0
VERTEX
  8
0
 62
4
 10
2.96120569E+02
 20
-3.00051354E+02
  0
VERTEX
  8
0
 62
4
 10
2.96187338E+02
 20
-3.00209704E+02
  0
VERTEX
  8
0
 62
4
 10
2.96267903E+02
 20
-3.00361736E+02
  0
VERTEX
  8
0
 62
4
 10
2.96361650E+02
 20
-3.00506291E+02
  0
VERTEX
  8
0
 62
4
 10
2.96467865E+02
 20
-3.00642269E+02
  0
VERTEX
  8
0
 62
4
 10
2.96585740E+02
 20
-3.00768637E+02
  0
VERTEX
  8
0
 62
4
 10
2.96714379E+02
 20
-3.00884431E+02
  0
VERTEX
  8
0
 62
4
 10
2.96852801E+02
 20
-3.00988771E+02
  0
VERTEX
  8
0
 62
4
 10
2.96999954E+02
 20
-3.01080863E+02
  0
VERTEX
  8
0
 62
4
 10
2.97154717E+02
 20
-3.01160005E+02
  0
VERTEX
  8
0
 62
4
 10
2.97315914E+02
 20
-3.01225596E+02
  0
VERTEX
  8
0
 62
4
 10
2.97482316E+02
 20
-3.01277136E+02
  0
VERTEX
  8
0
 62
4
 10
2.97652658E+02
 20
-3.01314233E+02
  0
VERTEX
  8
0
 62
4
 10
2.97825643E+02
 20
-3.01336605E+02
  0
VERTEX
  8
0
 62
4
 10
2.97999954E+02
 20
-3.01344081E+02
  0
VERTEX
  8
0
 62
4
 10
2.98174265E+02
 20
-3.01336605E+02
  0
VERTEX
  8
0
 62
4
 10
2.98347250E+02
 20
-3.01314233E+02
  0
VERTEX
  8
0
 62
4
 10
2.98517592E+02
 20
-3.01277136E+02
  0
VERTEX
  8
0
 62
4
 10
2.98683994E+02
 20
-3.01225596E+02
  0
VERTEX
  8
0
 62
4
 10
2.98845191E+02
 20
-3.01160005E+02
  0
VERTEX
  8
0
 62
4
 10
2.98999954E+02
 20
-3.01080863E+02
  0
VERTEX
  8
0
 62
4
 10
2.99147107E+02
 20
-3.00988771E+02
  0
VERTEX
  8
0
 62
4
 10
2.99285529E+02
 20
-3.00884431E+02
  0
VERTEX
  8
0
 62
4
 10
2.99414168E+02
 20
-3.00768637E+02
  0
VERTEX
  8
0
 62
4
 10
2.99532043E+02
 20
-3.00642269E+02
  0
VERTEX
  8
0
 62
4
 10
2.99638258E+02
 20
-3.00506291E+02
  0
VERTEX
  8
0
 62
4
 10
2.99732005E+02
 20
-3.00361736E+02
  0
VERTEX
  8
0
 62
4
 10
2.99812570E+02
 20
-3.00209704E+02
  0
VERTEX
  8
0
 62
4
 10
2.99879339E+02
 20
-3.00051354E+02
  0
VERTEX
  8
0
 62
4
 10
2.99931806E+02
 20
-2.99887890E+02
  0
VERTEX
  8
0
 62
4
 10
2.99969570E+02
 20
-2.99720555E+02
  0
VERTEX
  8
0
 62
4
 10
2.99992343E+02
 20
-2.99550624E+02
  0
VERTEX
  8
0
 62
4
 10
2.99999954E+02
 20
-2.99379390E+02
  0
SEQEND
  8
0
  0
POLYLINE
  8
0
 62
6
 66
1
  0
VERTEX
  8
0
 62
6
 10
2.99499954E+02
 20
-2.99548114E+02
  0
VERTEX
  8
0
 62
6
 10
2.99494246E+02
 20
-2.99419367E+02
  0
VERTEX
  8
0
 62
6
 10
2.99477166E+02
 20
-2.99291599E+02
  0
VERTEX
  8
0
 62
6
 10
2.99448843E+02
 20
-2.99165783E+02
  0
VERTEX
  8
0
 62
6
 10
2.99409493E+02
 20
-2.99042878E+02
  0
VERTEX
  8
0
 62
6
 10
2.99359416E+02
 20
-2.98923817E+02
  0
VERTEX
  8
0
 62
6
 10
2.99298992E+02
 20
-2.98809508E+02
  0
VERTEX
  8
0
 62
6
 10
2.99228682E+02
 20
-2.98700820E+02
  0
VERTEX
  8
0
 62
6
 10
2.99149021E+02
 20
-2.98598581E+02
  0
VERTEX
  8
0
 62
6
 10
2.99060614E+02
 20
-2.98503568E+02
  0
VERTEX
  8
0
 62
6
 10
2.98964135E+02
 20
-2.98416504E+02
  0
VERTEX
  8
0
 62
6
 10
2.98860319E+02
 20
-2.98338053E+02
  0
VERTEX
  8
0
 62
6
 10
2.98749954E+02
 20
-2.98268811E+02
  0
VERTEX
  8
0
 62
6
 10
2.98633881E+02
 20
-2.98209306E+02
  0
VERTEX
  8
0
 62
6
 10
2.98512984E+02
 20
-2.98159989E+02
  0
VERTEX
  8
0
 62
6
 10
2.98388183E+02
 20
-2.98121237E+02
  0
VERTEX
  8
0
 62
6
 10
2.98260426E+02
 20
-2.98093345E+02
  0
VERTEX
  8
0
 62
6
 10
2.98130688E+02
 20
-2.98076524E+02
  0
VERTEX
  8
0
 62
6
 10
2.97999954E+02
 20
-2.98070902E+02
  0
VERTEX
  8
0
 62
6
 10
2.97869220E+02
 20
-2.98076524E+02
  0
VERTEX
  8
0
 62
6
 10
2.97739482E+02
 20
-2.98093345E+02
  0
VERTEX
  8
0
 62
6
 10
2.97611725E+02
 20
-2.98121237E+02
  0
VERTEX
  8
0
 62
6
 10
2.97486924E+02
 20
-2.98159989E+02
  0
VERTEX
  8
0
 62
6
 10
2.97366027E+02
 20
-2.98209306E+02
  0
VERTEX
  8
0
 62
6
 10
2.97249954E+02
 20
-2.98268811E+02
  0
VERTEX
  8
0
 62
6
 10
2.97139589E+02
 20
-2.98338053E+02
  0
VERTEX
  8
0
 62
6
 10
2.97035773E+02
 20
-2.98416504E+02
  0
VERTEX
  8
0
 62
6
 10
2.96939294E+02
 20
-2.98503568E+02
  0
VERTEX
  8
0
 62
6
 10
2.96850887E+02
 20
-2.98598581E+02
  0
VERTEX
  8
0
 62
6
 10
2.96771226E+02
 20
-2.98700820E+02
  0
VERTEX
  8
0
 62
6
 10
2.96700916E+02
 20
-2.98809508E+02
  0
VERTEX
  8
0
 62
6
 10
2.96640492E+02
 20
-2.98923817E+02
  0
VERTEX
  8
0
 62
6
 10
2.96590415E+02
 20
-2.99042878E+02
  0
VERTEX
  8
0
 62
6
 10
2.96551065E+02
 20
-2.99165783E+02
  0
VERTEX
  8
0
 62
6
 10
2.96522742E+02
 20
-2.99291599E+02
  0
VERTEX
  8
0
 62
6
 10
2.96505662E+02
 20
-2.99419367E+02
  0
VERTEX
  8
0
 62
6
 10
2.96499954E+02
 20
-2.99548114E+02
  0
VERTEX
  8
0
 62
6
 10
2.96505662E+02
 20
-2.99676861E+02
  0
VERTEX
  8
0
 62
6
 10
2.96522742E+02
 20
-2.99804629E+02
  0
VERTEX
  8
0
 62
6
 10
2.96551065E+02
 20
-2.99930445E+02
  0
VERTEX
  8
0
 62
6
 10
2.96590415E+02
 20
-3.00053350E+02
  0
VERTEX
  8
0
 62
6
 10
2.96640492E+02
 20
-3.00172411E+02
  0
VERTEX
  8
0
 62
6
 10
2.96700916E+02
 20
-3.00286720E+02
  0
VERTEX
  8
0
 62
6
 10
2.96771226E+02
 20
-3.00395408E+02
  0
VERTEX
  8
0
 62
6
 10
2.96850887E+02
 20
-3.00497647E+02
  0
VERTEX
  8
0
 62
6
 10
2.96939294E+02
 20
-3.00592660E+02
  0
VERTEX
  8
0
 62
6
 10
2.97035773E+02
 20
-3.00679724E+02
  0
VERTEX
  8
0
 62
6
 10
2.97139589E+02
 20
-3.00758175E+02
  0
VERTEX
  8
0
 62
6
 10
2.97249954E+02
 20
-3.00827417E+02
  0
VERTEX
  8
0
 62
6
 10
2.97366027E+02
 20
-3.00886922E+02
  0
VERTEX
  8
0
 62
6
 10
2.97486924E+02
 20
-3.00936239E+02
  0
VERTEX
  8
0
 62
6
 10
2.97611725E+02
 20
-3.00974991E+02
  0
VERTEX
  8
0
 62
6
 10
2.97739482E+02
 20
-3.01002883E+02
  0
VERTEX
  8
0
 62
6
 10
2.97869220E+02
 20
-3.01019704E+02
  0
VERTEX
  8
0
 62
6
 10
2.97999954E+02
 20
-3.01025326E+02
  0
VERTEX
  8
0
 62
6
 10
2.98130688E+02
 20
-3.01019704E+02
  0
VERTEX
  8
0
 62
6
 10
2.98260426E+02
 20
-3.01002883E+02
  0
VERTEX
  8
0
 62
6
 10
2.98388183E+02
 20
-3.00974991E+02
  0
VERTEX
  8
0
 62
6
 10
2.98512984E+02
 20
-3.00936239E+02
  0
VERTEX
  8
0
 62
6
 10
2.98633881E+02
 20
-3.00886922E+02
  0
VERTEX
  8
0
 62
6
 10
2.98749954E+02
 20
-3.00827417E+02
  0
VERTEX
  8
0
 62
6
 10
2.98860319E+02
 20
-3.00758175E+02
  0
VERTEX
  8
0
 62
6
 10
2.98964135E+02
 20
-3.00679724E+02
  0
VERTEX
  8
0
 62
6
 10
2.99060614E+02
 20
-3.00592660E+02
  0
VERTEX
  8
0
 62
6
 10
2.99149021E+02
 20
-3.00497647E+02
  0
VERTEX
  8
0
 62
6
 10
2.99228682E+02
 20
-3.00395408E+02
  0
VERTEX
  8
0
 62
6
 10
2.99298992E+02
 20
-3.00286720E+02
  0
VERTEX
  8
0
 62
6
 10
2.99359416E+02
 20
-3.00172411E+02
  0
VERTEX
  8
0
 62
6
 10
2.99409493E+02
 20
-3.00053350E+02
  0
VERTEX
  8
0
 62
6
 10
2.99448843E+02
 20
-2.99930444E+02
  0
VERTEX
  8
0
 62
6
 10
2.99477166E+02
 20
-2.99804629E+02
  0
VERTEX
  8
0
 62
6
 10
2.99494246E+02
 20
-2.99676861E+02
  0
VERTEX
  8
0
 62
6
 10
2.99499954E+02
 20
-2.99548114E+02
  0
SEQEND
  8
0
  0
LINE
  8
0
 62
4
 10
2.77999954E+02
 20
-2.92033356E+02
 11
2.77999954E+02
 21
-2.93350037E+02
  0
LINE
  8
0
 62
4
 10
3.10999954E+02
 20
-2.92033356E+02
 11
3.10999954E+02
 21
-2.93350037E+02
  0
LINE
  8
0
 62
4
 10
3.10999954E+02
 20
-2.92036520E+02
 11
3.13999954E+02
 21
-2.88618233E+02
  0
LINE
  8
0
 62
4
 10
2.77999954E+02
 20
-2.92036520E+02
 11
2.74999954E+02
 21
-2.88618233E+02
  0
LINE
  8
0
  6
CENTER
 62
6
 10
3.05999954E+02
 20
-2.94554792E+02
 11
3.05999954E+02
 21
-3.04544792E+02
  0
LINE
  8
0
 62
4
 10
3.09499954E+02
 20
-2.68137498E+02
 11
2.94499954E+02
 21
-2.68137498E+02
  0
LINE
  8
0
 62
4
 10
3.08525567E+02
 20
-2.93977443E+02
 11
2.95717076E+02
 21
-2.93977443E+02
  0
LINE
  8
0
 62
4
 10
3.09499954E+02
 20
-2.41897389E+02
 11
2.94499954E+02
 21
-2.41897389E+02
  0
LINE
  8
0
 62
4
 10
2.94499954E+02
 20
-2.78013171E+02
 11
3.09499954E+02
 21
-2.78013171E+02
  0
LINE
  8
0
 62
4
 10
2.94499954E+02
 20
-3.04353705E+02
 11
3.09499954E+02
 21
-3.04353705E+02
  0
LINE
  8
0
 62
4
 10
3.09499954E+02
 20
-2.78013171E+02
 11
3.09499954E+02
 21
-3.04353705E+02
  0
LINE
  8
0
 62
4
 10
2.94499954E+02
 20
-2.78013171E+02
 11
2.94499954E+02
 21
-3.04353705E+02
  0
LINE
  8
0
  6
CENTER
 62
6
 10
2.97999954E+02
 20
-2.94554792E+02
 11
2.97999954E+02
 21
-3.04544792E+02
  0
LINE
  8
0
  6
CENTER
 62
6
 10
2.92999954E+02
 20
-2.99548114E+02
 11
3.10999954E+02
 21
-2.99548114E+02
  0
LINE
  8
0
 62
4
 10
3.22499954E+02
 20
-2.43357476E+02
 11
3.18999954E+02
 21
-2.43357476E+02
  0
LINE
  8
0
 62
4
 10
3.12499954E+02
 20
-2.73408833E+02
 11
2.76499954E+02
 21
-2.73408833E+02
  0
LINE
  8
0
 62
4
 10
3.28999954E+02
 20
-2.46544281E+02
 11
3.23999954E+02
 21
-2.46544281E+02
  0
LINE
  8
0
 62
4
 10
3.28999954E+02
 20
-2.53940187E+02
 11
3.23999954E+02
 21
-2.53940187E+02
  0
LINE
  8
0
 62
4
 10
3.09499954E+02
 20
-2.42107476E+02
 11
3.18499954E+02
 21
-2.42107476E+02
  0
LINE
  8
0
 62
4
 10
3.18999954E+02
 20
-2.42610618E+02
 11
3.18999954E+02
 21
-2.55610618E+02
  0
LINE
  8
0
 62
4
 10
3.28999954E+02
 20
-2.41722539E+02
 11
3.28999954E+02
 21
-2.56504503E+02
  0
LINE
  8
0
 62
4
 10
3.23999954E+02
 20
-2.41722539E+02
 11
3.23999954E+02
 21
-2.56504503E+02
  0
LINE
  8
0
 62
4
 10
3.23999954E+02
 20
-2.42857476E+02
 11
3.18999954E+02
 21
-2.42857476E+02
  0
LINE
  8
0
 62
4
 10
3.23999954E+02
 20
-2.55357476E+02
 11
3.18999954E+02
 21
-2.55357476E+02
  0
LINE
  8
0
 62
4
 10
3.22499954E+02
 20
-2.42857476E+02
 11
3.22499954E+02
 21
-2.55357476E+02
  0
LINE
  8
0
 62
4
 10
3.22499954E+02
 20
-2.54857476E+02
 11
3.18999954E+02
 21
-2.54857476E+02
  0
LINE
  8
0
 62
4
 10
3.18499954E+02
 20
-2.56107476E+02
 11
3.09999954E+02
 21
-2.56107476E+02
  0
LINE
  8
0
 62
4
 10
2.94499954E+02
 20
-2.92033356E+02
 11
2.77999954E+02
 21
-2.92033356E+02
  0
LINE
  8
0
 62
4
 10
3.28999954E+02
 20
-2.56504503E+02
 11
3.23999954E+02
 21
-2.56504503E+02
  0
LINE
  8
0
 62
4
 10
2.94499954E+02
 20
-2.88615070E+02
 11
2.74999954E+02
 21
-2.88615070E+02
  0
LINE
  8
0
 62
4
 10
2.94499954E+02
 20
-2.87137858E+02
 11
2.74999954E+02
 21
-2.87137858E+02
  0
LINE
  8
0
 62
4
 10
3.09499954E+02
 20
-2.44502112E+02
 11
2.94499954E+02
 21
-2.44502112E+02
  0
LINE
  8
0
 62
4
 10
3.11499954E+02
 20
-2.69469602E+02
 11
2.92499954E+02
 21
-2.69469602E+02
  0
LINE
  8
0
 62
4
 10
3.13999954E+02
 20
-2.71571381E+02
 11
3.13999954E+02
 21
-2.88615070E+02
  0
LINE
  8
0
 62
4
 10
3.13999954E+02
 20
-2.88615070E+02
 11
3.09499954E+02
 21
-2.88615070E+02
  0
LINE
  8
0
 62
4
 10
3.13999954E+02
 20
-2.87137858E+02
 11
3.09499954E+02
 21
-2.87137858E+02
  0
LINE
  8
0
 62
4
 10
3.11499954E+02
 20
-2.69469602E+02
 11
3.11499954E+02
 21
-2.73408833E+02
  0
LINE
  8
0
 62
4
 10
2.94499954E+02
 20
-2.41897389E+02
 11
2.94499954E+02
 21
-2.69469602E+02
  0
LINE
  8
0
 62
4
 10
3.09499954E+02
 20
-2.41897389E+02
 11
3.09499954E+02
 21
-2.69469602E+02
  0
LINE
  8
0
 62
4
 10
2.92499954E+02
 20
-2.69469602E+02
 11
2.92499954E+02
 21
-2.73408833E+02
  0
LINE
  8
0
 62
4
 10
2.74999954E+02
 20
-2.71571381E+02
 11
2.74999954E+02
 21
-2.88615070E+02
  0
LINE
  8
0
 62
4
 10
3.10999954E+02
 20
-2.92033356E+02
 11
3.09499954E+02
 21
-2.92033356E+02
  0
ARC
  8
0
 62
4
 10
3.18500454E+02
 20
-2.42606976E+02
 40
4.99500622E-01
 50
3.59942689E+02
 51
9.00573103E+01
  0
ARC
  8
0
 62
4
 10
3.09999455E+02
 20
-2.56606976E+02
 40
4.99500622E-01
 50
8.99426895E+01
 51
1.80057310E+02
  0
ARC
  8
0
 62
4
 10
2.76499454E+02
 20
-2.74908333E+02
 40
1.49950029E+00
 50
8.99809029E+01
 51
1.80019097E+02
  0
ARC
  8
0
 62
4
 10
3.18499454E+02
 20
-2.55606975E+02
 40
5.00500378E-01
 50
2.70057253E+02
 51
3.59942747E+02
  0
ARC
  8
0
 62
4
 10
3.12500454E+02
 20
-2.74908333E+02
 40
1.49950029E+00
 50
3.59980903E+02
 51
9.00190969E+01
  0
LINE
  8
0
  6
CENTER
 62
2
 10
-4.04933617E+02
 20
-2.86446304E+02
 11
-4.04933617E+02
 21
-3.03884354E+02
  0
LINE
  8
0
  6
CENTER
 62
2
 10
-4.14320702E+02
 20
-2.96000015E+02
 11
-3.95201027E+02
 21
-2.96000015E+02
  0
LINE
  8
0
  6
CENTER
 62
2
 10
-4.52066429E+02
 20
-2.86446304E+02
 11
-4.52066429E+02
 21
-3.03884354E+02
  0
LINE
  8
0
  6
CENTER
 62
2
 10
-4.42679344E+02
 20
-2.96000015E+02
 11
-4.61799019E+02
 21
-2.96000015E+02
  0
LINE
  8
0
 62
7
 10
3.06400368E+02
 20
-2.86000000E+02
 11
3.06400368E+02
 21
-3.19500000E+02
  0
TEXT
  8
0
 62
7
 10
-3.93907070E+01
 20
-7.13016393E+00
 40
9.00000000E+00
  1
STRETCH LIST
 41
1.05263158E+00
  7
MONOTXT
  0
TEXT
  8
0
 62
7
 10
3.66609293E+02
 20
-7.13016393E+00
 40
9.00000000E+00
  1
(mm)
 41
1.00000000E+00
  7
MONOTXT
  0
TEXT
  8
0
 62
7
 10
3.74609293E+02
 20
-3.96301639E+01
 40
9.00000000E+00
  1
925
 41
1.00000000E+00
  7
MONOTXT
  0
TEXT
  8
0
 62
7
 10
3.29609293E+02
 20
-3.96301639E+01
 40
9.00000000E+00
  1
825
 41
1.00000000E+00
  7
MONOTXT
  0
TEXT
  8
0
 62
7
 10
2.84609293E+02
 20
-3.96301639E+01
 40
9.00000000E+00
  1
725
 41
1.00000000E+00
  7
MONOTXT
  0
TEXT
  8
0
 62
7
 10
2.39609293E+02
 20
-3.96301639E+01
 40
9.00000000E+00
  1
625
 41
1.00000000E+00
  7
MONOTXT
  0
TEXT
  8
0
 62
7
 10
1.94609293E+02
 20
-3.96301639E+01
 40
9.00000000E+00
  1
525
 41
1.00000000E+00
  7
MONOTXT
  0
TEXT
  8
0
 62
7
 10
1.49609293E+02
 20
-3.96301639E+01
 40
9.00000000E+00
  1
425
 41
1.00000000E+00
  7
MONOTXT
  0
TEXT
  8
0
 62
7
 10
1.04609293E+02
 20
-3.96301639E+01
 40
9.00000000E+00
  1
375
 41
1.00000000E+00
  7
MONOTXT
  0
TEXT
  8
0
 62
7
 10
5.96092931E+01
 20
-3.96301639E+01
 40
9.00000000E+00
  1
325
 41
1.00000000E+00
  7
MONOTXT
  0
TEXT
  8
0
 62
7
 10
1.46092931E+01
 20
-3.96301639E+01
 40
9.00000000E+00
  1
275
 41
1.00000000E+00
  7
MONOTXT
  0
TEXT
  8
0
 62
7
 10
-3.03907069E+01
 20
-3.96301639E+01
 40
9.00000000E+00
  1
225
 41
1.00000000E+00
  7
MONOTXT
  0
TEXT
  8
0
 62
7
 10
-7.53907069E+01
 20
-3.96301639E+01
 40
9.00000000E+00
  1
175
 41
1.00000000E+00
  7
MONOTXT
  0
TEXT
  8
0
 62
7
 10
-1.20390707E+02
 20
-3.96301639E+01
 40
9.00000000E+00
  1
125
 41
1.00000000E+00
  7
MONOTXT
  0
TEXT
  8
0
 62
7
 10
-1.60890707E+02
 20
-3.96301639E+01
 40
9.00000000E+00
  1
75
 41
1.00000000E+00
  7
MONOTXT
  0
TEXT
  8
0
 62
7
 10
-2.05890707E+02
 20
-3.96301639E+01
 40
9.00000000E+00
  1
25
 41
1.00000000E+00
  7
MONOTXT
  0
TEXT
  8
0
 62
7
 10
-2.46390707E+02
 20
-3.96301639E+01
 40
9.00000000E+00
  1
0
 41
1.00000000E+00
  7
MONOTXT
  0
TEXT
  8
0
 62
7
 10
-3.00390707E+02
 20
-3.96301639E+01
 40
9.00000000E+00
  1
-25
 41
1.00000000E+00
  7
MONOTXT
  0
TEXT
  8
0
 62
7
 10
3.70109293E+02
 20
-2.46301639E+01
 40
9.00000000E+00
  1
1000
 41
1.00000000E+00
  7
MONOTXT
  0
TEXT
  8
0
 62
7
 10
3.29609293E+02
 20
-2.46301639E+01
 40
9.00000000E+00
  1
900
 41
1.00000000E+00
  7
MONOTXT
  0
TEXT
  8
0
 62
7
 10
2.84609293E+02
 20
-2.46301639E+01
 40
9.00000000E+00
  1
800
 41
1.00000000E+00
  7
MONOTXT
  0
TEXT
  8
0
 62
7
 10
2.39609293E+02
 20
-2.46301639E+01
 40
9.00000000E+00
  1
700
 41
1.00000000E+00
  7
MONOTXT
  0
TEXT
  8
0
 62
7
 10
1.94609293E+02
 20
-2.46301639E+01
 40
9.00000000E+00
  1
600
 41
1.00000000E+00
  7
MONOTXT
  0
TEXT
  8
0
 62
7
 10
1.49609293E+02
 20
-2.46301639E+01
 40
9.00000000E+00
  1
500
 41
1.00000000E+00
  7
MONOTXT
  0
TEXT
  8
0
 62
7
 10
1.04609293E+02
 20
-2.46301639E+01
 40
9.00000000E+00
  1
450
 41
1.00000000E+00
  7
MONOTXT
  0
TEXT
  8
0
 62
7
 10
5.96092931E+01
 20
-2.46301639E+01
 40
9.00000000E+00
  1
400
 41
1.00000000E+00
  7
MONOTXT
  0
TEXT
  8
0
 62
7
 10
1.46092931E+01
 20
-2.46301639E+01
 40
9.00000000E+00
  1
350
 41
1.00000000E+00
  7
MONOTXT
  0
TEXT
  8
0
 62
7
 10
-3.03907069E+01
 20
-2.46301639E+01
 40
9.00000000E+00
  1
300
 41
1.00000000E+00
  7
MONOTXT
  0
TEXT
  8
0
 62
7
 10
-7.53907069E+01
 20
-2.46301639E+01
 40
9.00000000E+00
  1
250
 41
1.00000000E+00
  7
MONOTXT
  0
TEXT
  8
0
 62
7
 10
-1.20390707E+02
 20
-2.46301639E+01
 40
9.00000000E+00
  1
200
 41
1.00000000E+00
  7
MONOTXT
  0
TEXT
  8
0
 62
7
 10
-1.65390707E+02
 20
-2.46301639E+01
 40
9.00000000E+00
  1
150
 41
1.00000000E+00
  7
MONOTXT
  0
TEXT
  8
0
 62
7
 10
-2.10390707E+02
 20
-2.46301639E+01
 40
9.00000000E+00
  1
100
 41
1.00000000E+00
  7
MONOTXT
  0
TEXT
  8
0
 62
7
 10
-2.50890707E+02
 20
-2.46301639E+01
 40
9.00000000E+00
  1
75
 41
1.00000000E+00
  7
MONOTXT
  0
TEXT
  8
0
 62
7
 10
-2.95890707E+02
 20
-2.46301639E+01
 40
9.00000000E+00
  1
50
 41
1.00000000E+00
  7
MONOTXT
  0
LINE
  8
0
 62
7
 10
4.09624918E+02
 20
-4.26301639E+01
 11
4.09624918E+02
 21
-1.26301639E+01
  0
LINE
  8
0
 62
7
 10
3.64624918E+02
 20
-4.26301639E+01
 11
3.64624918E+02
 21
-1.26301639E+01
  0
LINE
  8
0
 62
7
 10
3.19624918E+02
 20
-4.26301639E+01
 11
3.19624918E+02
 21
-1.26301639E+01
  0
LINE
  8
0
 62
7
 10
2.74624918E+02
 20
-4.26301639E+01
 11
2.74624918E+02
 21
-1.26301639E+01
  0
LINE
  8
0
 62
7
 10
2.29624918E+02
 20
-4.26301639E+01
 11
2.29624918E+02
 21
-1.26301639E+01
  0
LINE
  8
0
 62
7
 10
1.84624918E+02
 20
-4.26301639E+01
 11
1.84624918E+02
 21
-1.26301639E+01
  0
LINE
  8
0
 62
7
 10
1.39624918E+02
 20
-4.26301639E+01
 11
1.39624918E+02
 21
-1.26301639E+01
  0
LINE
  8
0
 62
7
 10
9.46249181E+01
 20
-4.26301639E+01
 11
9.46249181E+01
 21
-1.26301639E+01
  0
LINE
  8
0
 62
7
 10
4.96249181E+01
 20
-4.26301639E+01
 11
4.96249181E+01
 21
-1.26301639E+01
  0
LINE
  8
0
 62
7
 10
4.62491806E+00
 20
-4.26301639E+01
 11
4.62491806E+00
 21
-1.26301639E+01
  0
LINE
  8
0
 62
7
 10
-4.03750819E+01
 20
-4.26301639E+01
 11
-4.03750819E+01
 21
-1.26301639E+01
  0
LINE
  8
0
 62
7
 10
-8.53750819E+01
 20
-4.26301639E+01
 11
-8.53750819E+01
 21
-1.26301639E+01
  0
LINE
  8
0
 62
7
 10
-1.30375082E+02
 20
-4.26301639E+01
 11
-1.30375082E+02
 21
-1.26301639E+01
  0
LINE
  8
0
 62
7
 10
-1.75375082E+02
 20
-4.26301639E+01
 11
-1.75375082E+02
 21
-1.26301639E+01
  0
LINE
  8
0
 62
7
 10
-2.20375082E+02
 20
-4.26301639E+01
 11
-2.20375082E+02
 21
-1.26301639E+01
  0
LINE
  8
0
 62
7
 10
-2.65375082E+02
 20
-4.26301639E+01
 11
-2.65375082E+02
 21
-1.26301639E+01
  0
LINE
  8
0
 62
7
 10
-3.10375082E+02
 20
-4.26301639E+01
 11
-3.10375082E+02
 21
-1.26301639E+01
  0
LINE
  8
0
 62
7
 10
-3.82375082E+02
 20
-2.76301639E+01
 11
4.09624918E+02
 21
-2.76301639E+01
  0
TEXT
  8
0
 62
7
 10
-3.76589769E+02
 20
-3.96301639E+01
 40
9.00000000E+00
  1
STRETCH
 41
1.00000000E+00
  7
MONOTXT
  0
TEXT
  8
0
 62
7
 10
-3.72089769E+02
 20
-2.46301639E+01
 40
9.00000000E+00
  1
STROKE
 41
1.00000000E+00
  7
MONOTXT
  0
LINE
  8
0
 62
7
 10
-3.82375082E+02
 20
-4.26301639E+01
 11
-3.82375082E+02
 21
-1.26301639E+01
  0
LINE
  8
0
 62
7
 10
-3.82375082E+02
 20
-4.26301639E+01
 11
4.09624918E+02
 21
-4.26301639E+01
  0
LINE
  8
0
 62
7
 10
-3.82375082E+02
 20
-1.26301639E+01
 11
4.09624918E+02
 21
-1.26301639E+01
  0
LINE
  8
0
 62
7
 10
1.05330305E+02
 20
-2.82000000E+02
 11
7.79335403E+01
 21
-2.82000000E+02
  0
LINE
  8
0
 62
7
 10
-1.61966791E+00
 20
-2.98650024E+02
 11
-6.45000000E+01
 21
-2.98650024E+02
  0
LINE
  8
0
 62
7
 10
1.44028147E+00
 20
-2.93350037E+02
 11
-6.45000000E+01
 21
-2.93350037E+02
  0
LINE
  8
0
 62
7
 10
1.93103272E+00
 20
-2.92500031E+02
 11
-6.45000000E+01
 21
-2.92500031E+02
  0
LINE
  8
0
 62
7
 10
-2.92458466E+01
 20
-1.66499969E+02
 11
-6.45000000E+01
 21
-1.66499969E+02
  0
LINE
  8
0
 62
7
 10
-2.87551130E+01
 20
-1.65649994E+02
 11
-6.45000000E+01
 21
-1.65649994E+02
  0
LINE
  8
0
 62
7
 10
-2.56951636E+01
 20
-1.60350006E+02
 11
-6.45000000E+01
 21
-1.60350006E+02
  0
LINE
  8
0
 62
7
 10
-5.64999945E+01
 20
-1.18650024E+02
 11
-6.45000000E+01
 21
-1.18650024E+02
  0
LINE
  8
0
 62
7
 10
-5.64999945E+01
 20
-1.13350037E+02
 11
-6.45000000E+01
 21
-1.13350037E+02
  0
LINE
  8
0
 62
7
 10
-5.64999945E+01
 20
-1.12500061E+02
 11
-6.45000000E+01
 21
-1.12500061E+02
  0
LINE
  8
0
 62
2
 10
-2.70500000E+02
 20
-3.11320053E+02
 11
-2.61499992E+02
 21
-3.11320053E+02
  0
LINE
  8
0
 62
7
 10
-2.70500000E+02
 20
-3.10500046E+02
 11
-2.61499992E+02
 21
-3.10500046E+02
  0
LINE
  8
0
 62
2
 10
-2.70500000E+02
 20
-1.47679993E+02
 11
-2.61499992E+02
 21
-1.47679993E+02
  0
LINE
  8
0
 62
7
 10
-2.70500000E+02
 20
-1.48500000E+02
 11
-2.61499992E+02
 21
-1.48500000E+02
  0
LINE
  8
0
 62
2
 10
-2.70500000E+02
 20
-1.31320007E+02
 11
-2.61499992E+02
 21
-1.31320007E+02
  0
LINE
  8
0
 62
7
 10
-2.70500000E+02
 20
-1.30500000E+02
 11
-2.61499992E+02
 21
-1.30500000E+02
  0
ARC
  8
0
 62
4
 10
-2.89996393E+02
 20
-1.46250000E+02
 40
1.94963929E+01
 50
3.39743842E+02
 51
2.02561580E+01
  0
ARC
  8
0
 62
4
 10
-2.89996393E+02
 20
-1.32750000E+02
 40
1.94963929E+01
 50
3.39743842E+02
 51
2.02561580E+01
  0
ARC
  8
0
 62
4
 10
-2.62003607E+02
 20
-1.32750000E+02
 40
1.94963929E+01
 50
1.59743842E+02
 51
2.00256158E+02
  0
ARC
  8
0
 62
4
 10
-2.62003607E+02
 20
-1.46250000E+02
 40
1.94963929E+01
 50
1.59743842E+02
 51
2.00256158E+02
  0
LINE
  8
0
 62
4
 10
-2.71705771E+02
 20
-1.39500000E+02
 11
-2.80294229E+02
 21
-1.39500000E+02
  0
LINE
  8
0
 62
4
 10
-2.70500000E+02
 20
-1.53000000E+02
 11
-2.81500000E+02
 21
-1.53000000E+02
  0
LINE
  8
0
 62
4
 10
-2.70500000E+02
 20
-1.26000000E+02
 11
-2.81500000E+02
 21
-1.26000000E+02
  0
LINE
  8
0
 62
4
 10
-2.81500000E+02
 20
-1.26000000E+02
 11
-2.81500000E+02
 21
-1.53000000E+02
  0
LINE
  8
0
 62
4
 10
-2.70500000E+02
 20
-1.26000000E+02
 11
-2.70500000E+02
 21
-1.53000000E+02
  0
LINE
  8
0
 62
4
 10
-2.70500000E+02
 20
-3.19500000E+02
 11
-2.70500000E+02
 21
-3.06000000E+02
  0
LINE
  8
0
 62
4
 10
-2.81500000E+02
 20
-3.19500000E+02
 11
-2.81500000E+02
 21
-3.06000000E+02
  0
ARC
  8
0
 62
4
 10
-2.55705772E+02
 20
-3.19500000E+02
 40
2.57942282E+01
 50
1.62412046E+02
 51
1.80000000E+02
  0
ARC
  8
0
 62
4
 10
-2.96294228E+02
 20
-3.19500000E+02
 40
2.57942282E+01
 50
2.54444375E-13
 51
1.75879541E+01
  0
ARC
  8
0
 62
4
 10
-2.77400721E+02
 20
-3.07808657E+02
 40
6.90072132E+00
 50
3.25615752E+02
 51
3.43842480E+01
  0
ARC
  8
0
 62
4
 10
-2.74599279E+02
 20
-3.07808657E+02
 40
6.90072132E+00
 50
1.45615752E+02
 51
2.14384248E+02
  0
LINE
  8
0
 62
4
 10
-2.71705771E+02
 20
-3.03911543E+02
 11
-2.70500000E+02
 21
-3.06000000E+02
  0
LINE
  8
0
 62
4
 10
-2.80294229E+02
 20
-3.03911543E+02
 11
-2.81500000E+02
 21
-3.06000000E+02
  0
LINE
  8
0
 62
4
 10
-2.80294229E+02
 20
-3.11705771E+02
 11
-2.71705771E+02
 21
-3.11705771E+02
  0
LINE
  8
0
 62
4
 10
-2.80294229E+02
 20
-3.03911543E+02
 11
-2.71705771E+02
 21
-3.03911543E+02
  0
LINE
  8
0
 62
4
 10
-4.15000023E+02
 20
-3.11705771E+02
 11
-4.28500023E+02
 21
-3.03911543E+02
  0
LINE
  8
0
 62
4
 10
-4.15000023E+02
 20
-3.19500000E+02
 11
-4.15000023E+02
 21
-3.11705771E+02
  0
LINE
  8
0
 62
4
 10
-4.42000023E+02
 20
-3.11705771E+02
 11
-4.42000023E+02
 21
-3.19500000E+02
  0
LINE
  8
0
 62
4
 10
-4.28500023E+02
 20
-3.03911543E+02
 11
-4.42000023E+02
 21
-3.11705771E+02
  0
ARC
  8
0
 62
4
 10
-4.28500023E+02
 20
-3.19500000E+02
 40
1.35000000E+01
 50
0.00000000E+00
 51
1.80000000E+02
  0
INSERT
  8
0
  2
PP2
  6
BYBLOCK
 62
0
 10
0.00000000E+00
 20
0.00000000E+00
 41
1.00000000E+00
 42
1.00000000E+00
 50
0.00000000E+00
  0
CIRCLE
  8
0
 62
7
 10
8.79999771E+01
 20
-2.96000015E+02
 40
2.40000010E+00
  0
CIRCLE
  8
0
 62
7
 10
1.34999977E+02
 20
-2.96000015E+02
 40
2.40000010E+00
  0
CIRCLE
  8
0
 62
2
 10
8.79999771E+01
 20
-2.96000015E+02
 40
3.00000000E+00
  0
CIRCLE
  8
0
 62
2
 10
1.34999977E+02
 20
-2.96000015E+02
 40
3.00000000E+00
  0
ARC
  8
0
 62
7
 10
1.05999977E+02
 20
-2.99499954E+02
 40
1.00000000E+00
 50
2.69999984E+02
 51
2.99999950E+02
  0
ARC
  8
0
 62
7
 10
1.06499916E+02
 20
-3.01436478E+02
 40
1.00000000E+00
 50
1.04475592E+02
 51
1.80000005E+02
  0
ARC
  8
0
 62
7
 10
1.29563576E+02
 20
-3.14499954E+02
 40
1.00000000E+00
 50
1.44772639E+01
 51
9.00000162E+01
  0
ARC
  8
0
 62
7
 10
9.44999771E+01
 20
-3.08499985E+02
 40
1.00000000E+00
 50
1.79999991E+02
 51
2.69999974E+02
  0
ARC
  8
0
 62
7
 10
9.37200699E+01
 20
-3.10341660E+02
 40
1.00000000E+00
 50
3.32747622E+02
 51
6.70484293E+01
  0
ARC
  8
0
 62
7
 10
1.28999916E+02
 20
-3.04499985E+02
 40
1.00000000E+00
 50
2.69999984E+02
 51
1.86693353E-05
  0
ARC
  8
0
 62
7
 10
1.11499977E+02
 20
-3.19499985E+02
 40
1.90000000E+01
 50
0.00000000E+00
 51
1.80000046E+02
  0
ARC
  8
0
 62
7
 10
1.38499977E+02
 20
-3.08968643E+02
 40
1.00000000E+00
 50
3.59721781E-05
 51
8.28192267E+01
  0
ARC
  8
0
 62
7
 10
1.35031349E+02
 20
-3.03999924E+02
 40
1.00000000E+00
 50
7.17900183E+00
 51
9.02255559E+01
  0
ARC
  8
0
 62
7
 10
1.27000038E+02
 20
-2.95968613E+02
 40
1.00000000E+00
 50
3.59775350E+02
 51
8.28192267E+01
  0
ARC
  8
0
 62
7
 10
1.22031349E+02
 20
-2.92500015E+02
 40
1.00000000E+00
 50
7.18159727E+00
 51
9.00000162E+01
  0
ARC
  8
0
 62
7
 10
1.25999977E+02
 20
-2.91999985E+02
 40
3.00000000E+00
 50
1.87181037E+02
 51
2.69999984E+02
  0
ARC
  8
0
 62
7
 10
1.38999977E+02
 20
-3.05000015E+02
 40
3.00000000E+00
 50
1.79999991E+02
 51
2.62819259E+02
  0
CIRCLE
  8
0
 62
7
 10
1.34999977E+02
 20
-2.95999985E+02
 40
4.50000000E+00
  0
ARC
  8
0
 62
7
 10
1.38999977E+02
 20
-2.92000046E+02
 40
3.50000000E+00
 50
2.23117997E-05
 51
8.99999750E+01
  0
ARC
  8
0
 62
7
 10
1.38999977E+02
 20
-2.92000046E+02
 40
3.00000000E+00
 50
2.23117997E-05
 51
8.99999750E+01
  0
ARC
  8
0
 62
7
 10
1.30936928E+02
 20
-3.02891434E+02
 40
1.00000000E+00
 50
5.94775673E+01
 51
1.34999386E+02
  0
ARC
  8
0
 62
7
 10
1.34999977E+02
 20
-2.95999985E+02
 40
7.00000000E+00
 50
1.79775319E+02
 51
2.70224577E+02
  0
ARC
  8
0
 62
7
 10
1.38499977E+02
 20
-3.17499985E+02
 40
1.00000000E+00
 50
2.70000052E+02
 51
3.59721781E-05
  0
ARC
  8
0
 62
7
 10
1.13499977E+02
 20
-2.99600266E+02
 40
1.00000000E+00
 50
1.80000036E+02
 51
2.64260384E+02
  0
ARC
  8
0
 62
7
 10
1.13499977E+02
 20
-2.92500015E+02
 40
1.00000000E+00
 50
9.00000025E+01
 51
1.80000046E+02
  0
ARC
  8
0
 62
7
 10
1.28108559E+02
 20
-3.00063004E+02
 40
1.00000000E+00
 50
3.15000662E+02
 51
3.05222541E+01
  0
CIRCLE
  8
0
 62
7
 10
1.34999977E+02
 20
-2.95999985E+02
 40
5.00000000E+00
  0
ARC
  8
0
 62
7
 10
1.31399757E+02
 20
-3.17499985E+02
 40
1.00000000E+00
 50
1.85739485E+02
 51
2.70000038E+02
  0
ARC
  8
0
 62
7
 10
1.24157021E+02
 20
-3.04014542E+02
 40
1.00000000E+00
 50
2.30739011E+02
 51
3.15000026E+02
  0
ARC
  8
0
 62
7
 10
1.26985451E+02
 20
-3.06842972E+02
 40
1.00000000E+00
 50
1.35000014E+02
 51
2.19261011E+02
  0
ARC
  8
0
 62
7
 10
1.31500038E+02
 20
-3.13999954E+02
 40
1.00000000E+00
 50
1.79999991E+02
 51
2.69999974E+02
  0
ARC
  8
0
 62
7
 10
1.05499977E+02
 20
-3.00421219E+02
 40
1.00000000E+00
 50
2.87457053E+02
 51
1.86693353E-05
  0
ARC
  8
0
 62
7
 10
1.00968605E+02
 20
-2.92500015E+02
 40
1.00000000E+00
 50
9.00000162E+01
 51
1.72818444E+02
  0
ARC
  8
0
 62
7
 10
9.69999771E+01
 20
-2.91999985E+02
 40
3.00000000E+00
 50
2.69999984E+02
 51
3.52818976E+02
  0
ARC
  8
0
 62
7
 10
9.59999771E+01
 20
-2.95968613E+02
 40
1.00000000E+00
 50
9.71808057E+01
 51
1.80224691E+02
  0
ARC
  8
0
 62
7
 10
8.80000381E+01
 20
-2.95999985E+02
 40
7.00000000E+00
 50
2.69775448E+02
 51
2.24721868E-01
  0
ARC
  8
0
 62
7
 10
8.79686661E+01
 20
-3.03999924E+02
 40
1.00000000E+00
 50
8.97744765E+01
 51
1.72821039E+02
  0
ARC
  8
0
 62
7
 10
8.40000381E+01
 20
-3.05000015E+02
 40
3.00000000E+00
 50
2.77180780E+02
 51
1.86693353E-05
  0
ARC
  8
0
 62
7
 10
8.45000381E+01
 20
-3.08968643E+02
 40
1.00000000E+00
 50
9.71808057E+01
 51
1.80000005E+02
  0
CIRCLE
  8
0
 62
7
 10
8.79999771E+01
 20
-2.96000015E+02
 40
4.50000000E+00
  0
ARC
  8
0
 62
7
 10
8.40000381E+01
 20
-2.91999985E+02
 40
3.50000000E+00
 50
9.00000162E+01
 51
1.80000005E+02
  0
ARC
  8
0
 62
7
 10
1.38499977E+02
 20
-3.15999954E+02
 40
1.00000000E+00
 50
3.59999981E+02
 51
8.99999618E+01
  0
ARC
  8
0
 62
7
 10
9.48913956E+01
 20
-3.00063034E+02
 40
1.00000000E+00
 50
1.49477556E+02
 51
2.24999381E+02
  0
ARC
  8
0
 62
7
 10
9.20629654E+01
 20
-3.02891434E+02
 40
1.00000000E+00
 50
4.50006569E+01
 51
1.20522253E+02
  0
CIRCLE
  8
0
 62
7
 10
8.79999771E+01
 20
-2.96000015E+02
 40
5.00000000E+00
  0
ARC
  8
0
 62
7
 10
1.09499977E+02
 20
-2.99600266E+02
 40
1.00000000E+00
 50
2.75739515E+02
 51
3.59721781E-05
  0
ARC
  8
0
 62
7
 10
1.09499977E+02
 20
-2.92500015E+02
 40
1.00000000E+00
 50
3.59721781E-05
 51
9.00000162E+01
  0
ARC
  8
0
 62
7
 10
8.40000381E+01
 20
-2.92000015E+02
 40
3.00000000E+00
 50
9.00000162E+01
 51
1.80000005E+02
  0
ARC
  8
0
 62
7
 10
8.45000381E+01
 20
-3.17499985E+02
 40
1.00000000E+00
 50
1.79999991E+02
 51
2.70000028E+02
  0
ARC
  8
0
 62
7
 10
1.05499977E+02
 20
-2.92500015E+02
 40
1.00000000E+00
 50
3.59721781E-05
 51
9.00000162E+01
  0
ARC
  8
0
 62
7
 10
9.16002579E+01
 20
-3.17500015E+02
 40
1.00000000E+00
 50
2.70000038E+02
 51
3.54260543E+02
  0
ARC
  8
0
 62
7
 10
9.88429337E+01
 20
-3.04014511E+02
 40
1.00000000E+00
 50
2.25000000E+02
 51
3.09261001E+02
  0
ARC
  8
0
 62
7
 10
9.60145035E+01
 20
-3.06842941E+02
 40
1.00000000E+00
 50
3.20739045E+02
 51
4.50000423E+01
  0
ARC
  8
0
 62
2
 10
-7.75000458E+01
 20
-1.32500122E+02
 40
8.32999992E+00
 50
7.96256860E+01
 51
3.50076175E+02
  0
ARC
  8
0
 62
7
 10
-7.75000458E+01
 20
-1.32500122E+02
 40
7.44000006E+00
 50
7.83683038E+01
 51
3.48874743E+02
  0
ARC
  8
0
 62
7
 10
-7.75000458E+01
 20
-1.32500122E+02
 40
8.71000004E+00
 50
8.00829797E+01
 51
3.50513226E+02
  0
ARC
  8
0
 62
7
 10
-4.28500023E+02
 20
-3.19500000E+02
 40
7.49999237E+00
 50
0.00000000E+00
 51
1.80000000E+02
  0
ARC
  8
0
 62
2
 10
-4.28500023E+02
 20
-3.19500000E+02
 40
8.18000031E+00
 50
0.00000000E+00
 51
1.80000000E+02
  0
ARC
  8
0
 62
7
 10
-4.28500023E+02
 20
-3.19500000E+02
 40
8.99999237E+00
 50
0.00000000E+00
 51
1.80000000E+02
  0
ARC
  8
0
 62
7
 10
-2.48000023E+02
 20
-3.03000076E+02
 40
5.00000000E-01
 50
8.99999818E+01
 51
1.79999964E+02
  0
ARC
  8
0
 62
7
 10
-2.59999992E+02
 20
-3.19500046E+02
 40
9.99998474E+00
 50
0.00000000E+00
 51
3.17883527E+01
  0
ARC
  8
0
 62
7
 10
-2.35000023E+02
 20
-3.01000046E+02
 40
5.00000000E-01
 50
8.99999818E+01
 51
1.79999964E+02
  0
ARC
  8
0
 62
7
 10
-2.43250023E+02
 20
-3.02491501E+02
 40
2.50000000E-01
 50
9.19988230E+01
 51
1.79999977E+02
  0
CIRCLE
  8
0
 62
7
 10
-7.15000153E+01
 20
-1.51500061E+02
 40
5.00000000E+00
  0
CIRCLE
  8
0
 62
7
 10
-7.15000153E+01
 20
-1.51500061E+02
 40
2.59999990E+00
  0
ARC
  8
0
 62
7
 10
-4.28500023E+02
 20
-3.19500000E+02
 40
1.70000000E+01
 50
0.00000000E+00
 51
1.80000000E+02
  0
ARC
  8
0
 62
7
 10
-4.28500023E+02
 20
-3.19500000E+02
 40
1.90000000E+01
 50
0.00000000E+00
 51
1.80000000E+02
  0
ARC
  8
0
 62
7
 10
-4.28500023E+02
 20
-3.19500000E+02
 40
1.75294495E+01
 50
0.00000000E+00
 51
1.80000000E+02
  0
ARC
  8
0
 62
7
 10
-8.85000000E+01
 20
-1.59500031E+02
 40
2.00000000E+00
 50
1.79999977E+02
 51
2.70000028E+02
  0
ARC
  8
0
 62
7
 10
-8.85000000E+01
 20
-1.19500061E+02
 40
2.00000000E+00
 50
8.99999818E+01
 51
1.79999964E+02
  0
ARC
  8
0
 62
7
 10
-2.48000023E+02
 20
-1.56000000E+02
 40
5.00000000E-01
 50
1.79999977E+02
 51
2.69999974E+02
  0
ARC
  8
0
 62
7
 10
-2.43250023E+02
 20
-1.56508545E+02
 40
2.50000000E-01
 50
1.79999977E+02
 51
2.68001132E+02
  0
ARC
  8
0
 62
7
 10
-2.35000023E+02
 20
-1.58000000E+02
 40
5.00000000E-01
 50
1.79999977E+02
 51
2.69999974E+02
  0
ARC
  8
0
 62
7
 10
-2.35000023E+02
 20
-1.21000000E+02
 40
5.00000000E-01
 50
8.99999818E+01
 51
1.79999964E+02
  0
ARC
  8
0
 62
7
 10
-2.43250023E+02
 20
-1.22491455E+02
 40
2.50000000E-01
 50
9.19988093E+01
 51
1.79999964E+02
  0
ARC
  8
0
 62
7
 10
-2.48000023E+02
 20
-1.23000061E+02
 40
5.00000000E-01
 50
8.99999818E+01
 51
1.79999964E+02
  0
ARC
  8
0
 62
7
 10
1.44933495E+02
 20
-2.85999969E+02
 40
4.00000000E+00
 50
0.00000000E+00
 51
8.99999818E+01
  0
ARC
  8
0
 62
7
 10
7.27743607E+01
 20
-3.16500000E+02
 40
6.84084654E+00
 50
1.53989169E+02
 51
2.06010827E+02
  0
ARC
  8
0
 62
7
 10
1.50092644E+02
 20
-3.16500000E+02
 40
6.84084654E+00
 50
3.33989137E+02
 51
2.60107947E+01
  0
ARC
  8
0
 62
7
 10
7.79335403E+01
 20
-2.85999969E+02
 40
4.00000000E+00
 50
8.99999818E+01
 51
1.79999964E+02
  0
ARC
  8
0
 62
7
 10
-4.61999962E+02
 20
-2.85999985E+02
 40
4.00000000E+00
 50
8.99999818E+01
 51
1.79999964E+02
  0
ARC
  8
0
 62
7
 10
-3.95000023E+02
 20
-2.85999985E+02
 40
4.00000000E+00
 50
0.00000000E+00
 51
8.99999818E+01
  0
CIRCLE
  8
0
 62
2
 10
-4.56499962E+02
 20
-2.91499985E+02
 40
4.00000000E+00
  0
CIRCLE
  8
0
 62
7
 10
-4.56499962E+02
 20
-2.91499985E+02
 40
6.25000000E+00
  0
CIRCLE
  8
0
 62
7
 10
-4.56499962E+02
 20
-2.91499985E+02
 40
6.00000000E+00
  0
CIRCLE
  8
0
 62
7
 10
-4.00499962E+02
 20
-2.91499985E+02
 40
3.29999995E+00
  0
CIRCLE
  8
0
 62
2
 10
-4.00499962E+02
 20
-2.91499985E+02
 40
4.00000000E+00
  0
CIRCLE
  8
0
 62
7
 10
-4.00499962E+02
 20
-2.91499985E+02
 40
6.25000000E+00
  0
CIRCLE
  8
0
 62
7
 10
-4.00499962E+02
 20
-2.91499985E+02
 40
6.00000000E+00
  0
CIRCLE
  8
0
 62
7
 10
-4.56499962E+02
 20
-2.91499985E+02
 40
3.29999995E+00
  0
CIRCLE
  8
0
 62
7
 10
-2.16500023E+02
 20
-1.28499969E+02
 40
5.72249985E+00
  0
CIRCLE
  8
0
 62
7
 10
-2.16500023E+02
 20
-1.28499969E+02
 40
6.57849932E+00
  0
ARC
  8
0
 62
7
 10
-1.89499992E+02
 20
-3.19500000E+02
 40
3.29999995E+00
 50
0.00000000E+00
 51
1.80000000E+02
  0
ARC
  8
0
 62
7
 10
-1.89499992E+02
 20
-3.19500000E+02
 40
8.00000000E+00
 50
0.00000000E+00
 51
1.80000000E+02
  0
ARC
  8
0
 62
7
 10
-1.89499992E+02
 20
-3.19500000E+02
 40
4.00000000E+00
 50
0.00000000E+00
 51
1.80000000E+02
  0
ARC
  8
0
 62
7
 10
-4.67159081E+02
 20
-3.16500015E+02
 40
6.84084654E+00
 50
1.53989169E+02
 51
2.06010827E+02
  0
ARC
  8
0
 62
7
 10
-3.89840782E+02
 20
-3.16500015E+02
 40
6.84084654E+00
 50
3.33989137E+02
 51
2.60107913E+01
  0
CIRCLE
  8
0
 62
2
 10
-1.12500000E+02
 20
-1.28499969E+02
 40
6.57849932E+00
  0
ARC
  8
0
 62
7
 10
-1.94712425E+02
 20
-9.65251770E+01
 40
2.52511263E+00
 50
4.65209375E+01
 51
1.06521820E+02
  0
CIRCLE
  8
0
 62
7
 10
-1.12500000E+02
 20
-1.28499969E+02
 40
5.65999985E+00
  0
CIRCLE
  8
0
 62
7
 10
-1.12500000E+02
 20
-1.28499969E+02
 40
6.99999952E+00
  0
ARC
  8
0
 62
7
 10
-1.84287437E+02
 20
-9.65251770E+01
 40
2.52511263E+00
 50
7.34780821E+01
 51
1.33478944E+02
  0
ARC
  8
0
 62
7
 10
-1.89499931E+02
 20
-1.75938919E+02
 40
9.06113529E+00
 50
2.47449035E+02
 51
2.92550946E+02
  0
ARC
  8
0
 62
7
 10
-1.84287437E+02
 20
-1.82474899E+02
 40
2.52511263E+00
 50
2.26520987E+02
 51
2.86521856E+02
  0
ARC
  8
0
 62
7
 10
-1.94712425E+02
 20
-1.82474899E+02
 40
2.52511263E+00
 50
2.53478125E+02
 51
3.13479008E+02
  0
ARC
  8
0
 62
7
 10
-1.89499931E+02
 20
-1.03061188E+02
 40
9.06113529E+00
 50
6.74489921E+01
 51
1.12550903E+02
  0
LINE
  8
0
  6
CENTER
 62
2
 10
1.18500099E+02
 20
-2.86314926E+02
 11
1.18500099E+02
 21
-2.98200211E+02
  0
LINE
  8
0
 62
7
 10
1.34999965E+02
 20
-2.92535929E+02
 11
1.31999983E+02
 21
-2.94267970E+02
  0
LINE
  8
0
 62
7
 10
1.31999977E+02
 20
-2.94267960E+02
 11
1.31999977E+02
 21
-2.97732071E+02
  0
LINE
  8
0
 62
7
 10
1.34999977E+02
 20
-2.99464117E+02
 11
1.31999982E+02
 21
-2.97732069E+02
  0
LINE
  8
0
 62
7
 10
1.37999965E+02
 20
-2.97732082E+02
 11
1.34999983E+02
 21
-2.99464122E+02
  0
LINE
  8
0
 62
7
 10
8.79999824E+01
 20
-2.92535917E+02
 11
9.09999842E+01
 21
-2.94267969E+02
  0
LINE
  8
0
 62
7
 10
9.09999771E+01
 20
-2.94267960E+02
 11
9.09999771E+01
 21
-2.97732071E+02
  0
LINE
  8
0
 62
7
 10
8.79999721E+01
 20
-2.92535926E+02
 11
8.49999637E+01
 21
-2.94267981E+02
  0
LINE
  8
0
 62
7
 10
8.79999842E+01
 20
-2.99464121E+02
 11
8.49999824E+01
 21
-2.97732069E+02
  0
LINE
  8
0
 62
7
 10
9.09999721E+01
 20
-2.97732078E+02
 11
8.79999637E+01
 21
-2.99464134E+02
  0
LINE
  8
0
 62
7
 10
8.49999771E+01
 20
-2.94267960E+02
 11
8.49999771E+01
 21
-2.97732071E+02
  0
LINE
  8
0
  6
CENTER
 62
2
 10
1.25612892E+02
 20
-2.96000015E+02
 11
1.44732567E+02
 21
-2.96000015E+02
  0
LINE
  8
0
 62
7
 10
8.69999771E+01
 20
-3.03751633E+02
 11
8.69999771E+01
 21
-3.05000015E+02
  0
LINE
  8
0
 62
7
 10
9.57512589E+01
 20
-2.95000015E+02
 11
9.69999771E+01
 21
-2.95000015E+02
  0
LINE
  8
0
 62
7
 10
1.27248390E+02
 20
-2.94999954E+02
 11
1.25999977E+02
 21
-2.94999954E+02
  0
LINE
  8
0
 62
7
 10
1.35999977E+02
 20
-3.03751389E+02
 11
1.35999977E+02
 21
-3.05000015E+02
  0
LINE
  8
0
 62
7
 10
9.44999771E+01
 20
-3.09499985E+02
 11
9.53445206E+01
 21
-3.09499985E+02
  0
LINE
  8
0
 62
7
 10
9.34999771E+01
 20
-3.02914291E+02
 11
9.34999771E+01
 21
-3.08499985E+02
  0
LINE
  8
0
 62
7
 10
1.33499977E+02
 20
-2.88499985E+02
 11
1.33499977E+02
 21
-2.88999985E+02
  0
LINE
  8
0
 62
7
 10
8.94999771E+01
 20
-2.88499985E+02
 11
8.94999771E+01
 21
-2.89000015E+02
  0
LINE
  8
0
 62
7
 10
1.29999916E+02
 20
-3.02414352E+02
 11
1.29999916E+02
 21
-3.04499985E+02
  0
LINE
  8
0
 62
7
 10
1.28999916E+02
 20
-3.05499985E+02
 11
1.26914284E+02
 21
-3.05499985E+02
  0
LINE
  8
0
 62
7
 10
1.20837379E+02
 20
-2.91500015E+02
 11
1.20837379E+02
 21
-3.02952713E+02
  0
LINE
  8
0
 62
7
 10
8.35000381E+01
 20
-3.19500000E+02
 11
8.35000381E+01
 21
-3.08968643E+02
  0
LINE
  8
0
 62
7
 10
1.37999977E+02
 20
-2.94267960E+02
 11
1.37999977E+02
 21
-2.97732071E+02
  0
LINE
  8
0
 62
7
 10
-2.58499981E+02
 20
-3.16377606E+02
 11
-2.55499989E+02
 21
-3.14232200E+02
  0
LINE
  8
0
 62
7
 10
1.34999982E+02
 20
-2.92535917E+02
 11
1.37999977E+02
 21
-2.94267965E+02
  0
LINE
  8
0
 62
7
 10
-2.58500008E+02
 20
-3.10500056E+02
 11
-2.55500020E+02
 21
-3.09500070E+02
  0
LINE
  8
0
 62
7
 10
8.40000381E+01
 20
-2.89000015E+02
 11
1.38999977E+02
 21
-2.88999985E+02
  0
LINE
  8
0
 62
7
 10
1.10499977E+02
 20
-2.92500015E+02
 11
1.10499977E+02
 21
-2.99600266E+02
  0
LINE
  8
0
  6
CENTER
 62
2
 10
-7.75001678E+01
 20
-2.86314941E+02
 11
-7.75001678E+01
 21
-2.98200226E+02
  0
LINE
  8
0
 62
7
 10
-2.61499992E+02
 20
-3.11320053E+02
 11
-2.58499992E+02
 21
-3.11320053E+02
  0
LINE
  8
0
 62
7
 10
-2.90499937E+02
 20
-3.12000179E+02
 11
-2.88999891E+02
 21
-3.10500179E+02
  0
LINE
  8
0
 62
2
 10
-2.89819954E+02
 20
-3.11320053E+02
 11
-2.81500000E+02
 21
-3.11320053E+02
  0
LINE
  8
0
 62
7
 10
-2.88999947E+02
 20
-3.10500046E+02
 11
-2.81500000E+02
 21
-3.10500046E+02
  0
LINE
  8
0
 62
7
 10
-2.61499992E+02
 20
-1.31320007E+02
 11
-2.58499992E+02
 21
-1.31320007E+02
  0
LINE
  8
0
 62
7
 10
-2.51500101E+02
 20
-1.30999941E+02
 11
-2.50000067E+02
 21
-1.29499907E+02
  0
LINE
  8
0
 62
7
 10
-2.51500043E+02
 20
-1.48000006E+02
 11
-2.50000073E+02
 21
-1.49499975E+02
  0
LINE
  8
0
 62
7
 10
-2.58499992E+02
 20
-1.31000000E+02
 11
-2.51500038E+02
 21
-1.31000000E+02
  0
LINE
  8
0
 62
7
 10
-2.58499992E+02
 20
-1.48000000E+02
 11
-2.51500038E+02
 21
-1.48000000E+02
  0
LINE
  8
0
 62
7
 10
-2.51500038E+02
 20
-3.19500000E+02
 11
-2.51500038E+02
 21
-3.14232193E+02
  0
LINE
  8
0
 62
7
 10
-2.55500008E+02
 20
-3.09500015E+02
 11
-2.55500008E+02
 21
-3.14232193E+02
  0
LINE
  8
0
 62
7
 10
-2.89000008E+02
 20
-3.19500000E+02
 11
-2.89000008E+02
 21
-3.10500046E+02
  0
LINE
  8
0
 62
7
 10
-2.90500008E+02
 20
-3.19500000E+02
 11
-2.90500008E+02
 21
-3.12000198E+02
  0
LINE
  8
0
 62
7
 10
-2.61499992E+02
 20
-3.19500000E+02
 11
-2.61499992E+02
 21
-3.10500046E+02
  0
LINE
  8
0
 62
7
 10
-2.58499992E+02
 20
-1.48000000E+02
 11
-2.58499992E+02
 21
-1.31000000E+02
  0
LINE
  8
0
 62
7
 10
-2.61499992E+02
 20
-1.47679993E+02
 11
-2.58499992E+02
 21
-1.47679993E+02
  0
LINE
  8
0
 62
7
 10
-2.90500039E+02
 20
-1.46999933E+02
 11
-2.89000004E+02
 21
-1.48499923E+02
  0
LINE
  8
0
 62
2
 10
-2.89819954E+02
 20
-1.47679993E+02
 11
-2.81500000E+02
 21
-1.47679993E+02
  0
LINE
  8
0
 62
7
 10
-2.88999947E+02
 20
-1.48500000E+02
 11
-2.81500000E+02
 21
-1.48500000E+02
  0
LINE
  8
0
 62
7
 10
-2.90499941E+02
 20
-1.32000167E+02
 11
-2.88999884E+02
 21
-1.30500155E+02
  0
LINE
  8
0
 62
2
 10
-2.89819954E+02
 20
-1.31320007E+02
 11
-2.81500000E+02
 21
-1.31320007E+02
  0
LINE
  8
0
 62
7
 10
-2.88999947E+02
 20
-1.30500000E+02
 11
-2.81500000E+02
 21
-1.30500000E+02
  0
LINE
  8
0
 62
7
 10
-2.89000008E+02
 20
-1.48500000E+02
 11
-2.89000008E+02
 21
-1.30500000E+02
  0
LINE
  8
0
 62
7
 10
-2.90500008E+02
 20
-1.47000000E+02
 11
-2.90500008E+02
 21
-1.32000183E+02
  0
LINE
  8
0
 62
7
 10
-2.61499992E+02
 20
-1.48500000E+02
 11
-2.61499992E+02
 21
-1.30500000E+02
  0
LINE
  8
0
 62
7
 10
-2.49999992E+02
 20
-1.29500000E+02
 11
-2.48500023E+02
 21
-1.29500000E+02
  0
LINE
  8
0
 62
7
 10
-2.50000053E+02
 20
-1.49500000E+02
 11
-2.48500069E+02
 21
-1.49500000E+02
  0
LINE
  8
0
 62
2
 10
-2.57533683E+02
 20
-3.15686575E+02
 11
-2.55000021E+02
 21
-3.19500000E+02
  0
LINE
  8
0
 62
7
 10
-2.55500008E+02
 20
-1.31000000E+02
 11
-2.55500008E+02
 21
-1.48000000E+02
  0
LINE
  8
0
 62
7
 10
-2.55500099E+02
 20
-3.14232193E+02
 11
-2.51500038E+02
 21
-3.14232193E+02
  0
LINE
  8
0
 62
7
 10
-2.58499992E+02
 20
-3.10500046E+02
 11
-2.58499992E+02
 21
-3.19500000E+02
  0
LINE
  8
0
 62
2
 10
-2.54999962E+02
 20
-3.19500000E+02
 11
-2.51500002E+02
 21
-3.14232196E+02
  0
LINE
  8
0
 62
7
 10
-2.43258768E+02
 20
-3.02241546E+02
 11
-2.35500055E+02
 21
-3.01970606E+02
  0
LINE
  8
0
 62
7
 10
-2.43500023E+02
 20
-3.02500046E+02
 11
-2.43500023E+02
 21
-3.02491501E+02
  0
LINE
  8
0
 62
7
 10
-2.48000023E+02
 20
-3.02500046E+02
 11
-2.43491478E+02
 21
-3.02500046E+02
  0
LINE
  8
0
 62
7
 10
-2.35000023E+02
 20
-3.00500046E+02
 11
-2.33500023E+02
 21
-3.00500046E+02
  0
LINE
  8
0
  6
CENTER
 62
2
 10
-8.96932179E-02
 20
-2.96000031E+02
 11
-9.76034546E+01
 21
-2.96000031E+02
  0
LINE
  8
0
  6
CENTER
 62
2
 10
-2.72251383E+01
 20
-1.63000000E+02
 11
-9.76034546E+01
 21
-1.63000000E+02
  0
LINE
  8
0
 62
7
 10
-2.55500099E+02
 20
-3.09500076E+02
 11
-2.48500069E+02
 21
-3.09500076E+02
  0
LINE
  8
0
 62
7
 10
-6.97679355E+01
 20
-1.51500048E+02
 11
-7.06339594E+01
 21
-1.50000042E+02
  0
LINE
  8
0
 62
7
 10
-7.06339874E+01
 20
-1.50000061E+02
 11
-7.23659821E+01
 21
-1.50000061E+02
  0
LINE
  8
0
 62
7
 10
-7.32319790E+01
 20
-1.51500078E+02
 11
-7.23659704E+01
 21
-1.50000098E+02
  0
LINE
  8
0
 62
7
 10
-7.23659566E+01
 20
-1.53000113E+02
 11
-7.32319957E+01
 21
-1.51500080E+02
  0
LINE
  8
0
 62
7
 10
-7.06339874E+01
 20
-1.53000061E+02
 11
-7.23659821E+01
 21
-1.53000061E+02
  0
LINE
  8
0
 62
7
 10
-6.97679584E+01
 20
-1.51500087E+02
 11
-7.06339823E+01
 21
-1.53000093E+02
  0
LINE
  8
0
 62
7
 10
1.44028141E+00
 20
-1.13350037E+02
 11
-4.14999945E+01
 21
-1.13350037E+02
  0
LINE
  8
0
 62
7
 10
-1.61966797E+00
 20
-1.18650024E+02
 11
-4.14999945E+01
 21
-1.18650024E+02
  0
LINE
  8
0
  6
CENTER
 62
2
 10
-8.96756637E-02
 20
-1.16000000E+02
 11
-4.14999945E+01
 21
-1.16000000E+02
  0
LINE
  8
0
 62
7
 10
1.93101504E+00
 20
-1.12500061E+02
 11
-4.14999945E+01
 21
-1.12500061E+02
  0
LINE
  8
0
 62
7
 10
-2.43500023E+02
 20
-3.02500046E+02
 11
-2.43500023E+02
 21
-3.19500000E+02
  0
LINE
  8
0
 62
7
 10
-8.43083954E+01
 20
-1.29500122E+02
 11
-7.59999945E+01
 21
-1.29500122E+02
  0
LINE
  8
0
 62
7
 10
-6.45000000E+01
 20
-2.88500000E+02
 11
-6.45000000E+01
 21
-3.19500000E+02
  0
LINE
  8
0
 62
7
 10
-2.35500023E+02
 20
-3.01000046E+02
 11
-2.35500023E+02
 21
-3.19500000E+02
  0
LINE
  8
0
 62
7
 10
-2.48500023E+02
 20
-3.03000076E+02
 11
-2.48500023E+02
 21
-3.19500000E+02
  0
LINE
  8
0
 62
7
 10
-8.85000000E+01
 20
-1.61500031E+02
 11
-6.45000000E+01
 21
-1.61500031E+02
  0
LINE
  8
0
 62
7
 10
-8.85000000E+01
 20
-1.17500061E+02
 11
-6.45000000E+01
 21
-1.17500061E+02
  0
LINE
  8
0
 62
7
 10
-9.55000312E+01
 20
-1.69714475E+02
 11
-6.45000031E+01
 21
-1.70526240E+02
  0
LINE
  8
0
 62
7
 10
-6.45000000E+01
 20
-1.08473755E+02
 11
-6.45000000E+01
 21
-1.20685704E+02
  0
LINE
  8
0
  6
CENTER
 62
2
 10
-8.69101715E+01
 20
-1.32500122E+02
 11
-7.59999945E+01
 21
-1.32500122E+02
  0
LINE
  8
0
  6
CENTER
 62
2
 10
-7.75000458E+01
 20
-1.43742126E+02
 11
-7.75000458E+01
 21
-1.20155701E+02
  0
LINE
  8
0
 62
7
 10
-9.05000000E+01
 20
-1.59500031E+02
 11
-9.05000000E+01
 21
-1.19500061E+02
  0
LINE
  8
0
 62
7
 10
-9.55000020E+01
 20
-1.09285403E+02
 11
-6.44999796E+01
 21
-1.08473639E+02
  0
LINE
  8
0
  6
CENTER
 62
2
 10
-8.03452759E+01
 20
-1.51500061E+02
 11
-6.28707581E+01
 21
-1.51500061E+02
  0
LINE
  8
0
  6
CENTER
 62
2
 10
-7.15000153E+01
 20
-1.58971161E+02
 11
-7.15000153E+01
 21
-1.42382141E+02
  0
LINE
  8
0
 62
7
 10
-9.55000325E+01
 20
-2.89285508E+02
 11
-6.45000006E+01
 21
-2.88473744E+02
  0
LINE
  8
0
 62
7
 10
-9.05000000E+01
 20
-2.88500000E+02
 11
-6.45000000E+01
 21
-2.88500000E+02
  0
LINE
  8
0
 62
7
 10
-9.05000000E+01
 20
-2.89154602E+02
 11
-9.05000000E+01
 21
-2.88500000E+02
  0
LINE
  8
0
 62
7
 10
-2.43500008E+02
 20
-1.22500000E+02
 11
-2.43500008E+02
 21
-1.56500000E+02
  0
LINE
  8
0
 62
7
 10
-2.43258751E+02
 20
-1.22241408E+02
 11
-2.35500052E+02
 21
-1.21970468E+02
  0
LINE
  8
0
 62
7
 10
-2.35000023E+02
 20
-1.58500000E+02
 11
-2.33500023E+02
 21
-1.58500000E+02
  0
LINE
  8
0
 62
7
 10
-2.35500008E+02
 20
-1.21000000E+02
 11
-2.35500008E+02
 21
-1.57999969E+02
  0
LINE
  8
0
 62
7
 10
-2.43258778E+02
 20
-1.56758441E+02
 11
-2.35500080E+02
 21
-1.57029380E+02
  0
LINE
  8
0
 62
7
 10
-2.43500023E+02
 20
-1.56500000E+02
 11
-2.43500023E+02
 21
-1.56508545E+02
  0
LINE
  8
0
 62
7
 10
-2.35000023E+02
 20
-1.20500000E+02
 11
-2.33500023E+02
 21
-1.20500000E+02
  0
LINE
  8
0
 62
7
 10
-2.48000023E+02
 20
-1.56500000E+02
 11
-2.43491478E+02
 21
-1.56500000E+02
  0
LINE
  8
0
 62
7
 10
-2.43500023E+02
 20
-1.22500000E+02
 11
-2.43500023E+02
 21
-1.22491455E+02
  0
LINE
  8
0
 62
7
 10
-2.48000023E+02
 20
-1.22500000E+02
 11
-2.43491478E+02
 21
-1.22500000E+02
  0
LINE
  8
0
 62
7
 10
-2.48500023E+02
 20
-1.23000061E+02
 11
-2.48500023E+02
 21
-1.56000000E+02
  0
LINE
  8
0
 62
7
 10
1.30500038E+02
 20
-3.01991898E+02
 11
1.30500038E+02
 21
-3.13999954E+02
  0
LINE
  8
0
 62
7
 10
1.12499977E+02
 20
-2.92500015E+02
 11
1.12499977E+02
 21
-2.99600266E+02
  0
LINE
  8
0
  6
CENTER
 62
2
 10
8.79999771E+01
 20
-2.86021744E+02
 11
8.79999771E+01
 21
-3.05724380E+02
  0
LINE
  8
0
  6
CENTER
 62
2
 10
7.80468521E+01
 20
-2.96000015E+02
 11
9.77494278E+01
 21
-2.96000015E+02
  0
LINE
  8
0
 62
7
 10
8.45000381E+01
 20
-3.18500015E+02
 11
9.16002579E+01
 21
-3.18500015E+02
  0
LINE
  8
0
 62
7
 10
9.67217671E+01
 20
-3.06135698E+02
 11
9.27702503E+01
 21
-3.02184182E+02
  0
LINE
  8
0
 62
7
 10
9.81360020E+01
 20
-3.04721462E+02
 11
9.41844852E+01
 21
-3.00769947E+02
  0
LINE
  8
0
 62
7
 10
1.38499977E+02
 20
-3.14999954E+02
 11
1.31500038E+02
 21
-3.14999954E+02
  0
LINE
  8
0
 62
7
 10
1.24864207E+02
 20
-3.04721733E+02
 11
1.28815777E+02
 21
-3.00770163E+02
  0
LINE
  8
0
 62
7
 10
1.26278420E+02
 20
-3.06135946E+02
 11
1.30229947E+02
 21
-3.02184420E+02
  0
LINE
  8
0
 62
7
 10
1.38499977E+02
 20
-3.18499954E+02
 11
1.31399757E+02
 21
-3.18499954E+02
  0
LINE
  8
0
 62
7
 10
1.41999977E+02
 20
-3.19500000E+02
 11
1.41999977E+02
 21
-2.92000015E+02
  0
LINE
  8
0
 62
7
 10
1.00968605E+02
 20
-2.91500015E+02
 11
1.22031349E+02
 21
-2.91500015E+02
  0
LINE
  8
0
 62
7
 10
1.39499977E+02
 20
-3.19500000E+02
 11
1.39499977E+02
 21
-3.08968643E+02
  0
LINE
  8
0
 62
7
 10
8.40000381E+01
 20
-2.88499985E+02
 11
1.38999977E+02
 21
-2.88499985E+02
  0
LINE
  8
0
 62
7
 10
1.42499962E+02
 20
-3.19500000E+02
 11
1.42499962E+02
 21
-2.92000015E+02
  0
LINE
  8
0
  6
CENTER
 62
2
 10
1.34999977E+02
 20
-2.86446304E+02
 11
1.34999977E+02
 21
-3.03884354E+02
  0
LINE
  8
0
 62
7
 10
1.29499977E+02
 20
-3.05365952E+02
 11
1.29499977E+02
 21
-3.13417221E+02
  0
LINE
  8
0
 62
7
 10
8.10000381E+01
 20
-3.19500000E+02
 11
8.10000381E+01
 21
-2.92000015E+02
  0
LINE
  8
0
 62
7
 10
8.05000381E+01
 20
-3.19500000E+02
 11
8.05000381E+01
 21
-2.91999985E+02
  0
LINE
  8
0
 62
7
 10
1.06499977E+02
 20
-2.92500015E+02
 11
1.06499977E+02
 21
-3.00421219E+02
  0
LINE
  8
0
 62
7
 10
9.39919205E+01
 20
-3.00499985E+02
 11
1.05999977E+02
 21
-3.00499985E+02
  0
LINE
  8
0
 62
7
 10
1.44933495E+02
 20
-2.82000000E+02
 11
1.38963057E+02
 21
-2.82000000E+02
  0
LINE
  8
0
 62
7
 10
7.39335709E+01
 20
-2.86000000E+02
 11
7.39335709E+01
 21
-3.19500000E+02
  0
LINE
  8
0
  6
CENTER
 62
2
 10
1.11499977E+02
 20
-2.79432312E+02
 11
1.11499977E+02
 21
-3.19500000E+02
  0
LINE
  8
0
 62
7
 10
7.24335098E+01
 20
-3.13500000E+02
 11
6.59334793E+01
 21
-3.13500000E+02
  0
LINE
  8
0
 62
7
 10
7.24335098E+01
 20
-3.19500000E+02
 11
6.66263199E+01
 21
-3.19500000E+02
  0
LINE
  8
0
 62
7
 10
6.29334052E+01
 20
-3.16200046E+02
 11
6.36334231E+01
 21
-3.15500028E+02
  0
LINE
  8
0
 62
7
 10
6.36335220E+01
 20
-3.19499985E+02
 11
6.36335220E+01
 21
-3.15500015E+02
  0
LINE
  8
0
 62
2
 10
6.59334793E+01
 20
-3.16200012E+02
 11
6.29335403E+01
 21
-3.16200012E+02
  0
LINE
  8
0
 62
7
 10
6.59334793E+01
 20
-3.15500015E+02
 11
6.36335526E+01
 21
-3.15500015E+02
  0
LINE
  8
0
 62
7
 10
6.59334793E+01
 20
-3.19499985E+02
 11
6.59334793E+01
 21
-3.13500000E+02
  0
LINE
  8
0
 62
7
 10
6.29335098E+01
 20
-3.19499985E+02
 11
6.29335098E+01
 21
-3.16200012E+02
  0
LINE
  8
0
 62
7
 10
7.39335403E+01
 20
-3.11500000E+02
 11
7.24335098E+01
 21
-3.11500000E+02
  0
LINE
  8
0
 62
7
 10
7.24334793E+01
 20
-3.19500000E+02
 11
7.24334793E+01
 21
-3.11500000E+02
  0
LINE
  8
0
 62
7
 10
1.48933525E+02
 20
-2.86000000E+02
 11
1.48933525E+02
 21
-3.19500000E+02
  0
LINE
  8
0
  6
CENTER
 62
2
 10
1.62303032E+02
 20
-3.19499985E+02
 11
6.00341263E+01
 21
-3.19499985E+02
  0
LINE
  8
0
 62
7
 10
1.59933448E+02
 20
-3.16200049E+02
 11
1.59233462E+02
 21
-3.15500063E+02
  0
LINE
  8
0
 62
7
 10
1.59233513E+02
 20
-3.19499985E+02
 11
1.59233513E+02
 21
-3.15500015E+02
  0
LINE
  8
0
 62
2
 10
1.56933525E+02
 20
-3.16200012E+02
 11
1.59933495E+02
 21
-3.16200012E+02
  0
LINE
  8
0
 62
7
 10
1.56933525E+02
 20
-3.15500015E+02
 11
1.59233543E+02
 21
-3.15500015E+02
  0
LINE
  8
0
 62
7
 10
1.59933556E+02
 20
-3.19499985E+02
 11
1.59933556E+02
 21
-3.16200012E+02
  0
LINE
  8
0
 62
7
 10
1.56933525E+02
 20
-3.19499985E+02
 11
1.56933525E+02
 21
-3.13500000E+02
  0
LINE
  8
0
 62
7
 10
1.50433525E+02
 20
-3.19500000E+02
 11
1.56240715E+02
 21
-3.19500000E+02
  0
LINE
  8
0
 62
7
 10
1.50433525E+02
 20
-3.13500000E+02
 11
1.56933525E+02
 21
-3.13500000E+02
  0
LINE
  8
0
 62
7
 10
1.48933556E+02
 20
-3.11500000E+02
 11
1.50433525E+02
 21
-3.11500000E+02
  0
LINE
  8
0
 62
7
 10
1.50433464E+02
 20
-3.19500000E+02
 11
1.50433464E+02
 21
-3.11500000E+02
  0
LINE
  8
0
 62
7
 10
-4.61999962E+02
 20
-2.82000015E+02
 11
-3.95000023E+02
 21
-2.82000015E+02
  0
LINE
  8
0
 62
7
 10
-3.91000023E+02
 20
-2.86000015E+02
 11
-3.91000023E+02
 21
-3.19500000E+02
  0
LINE
  8
0
 62
7
 10
-4.66000023E+02
 20
-2.86000015E+02
 11
-4.66000023E+02
 21
-3.19500000E+02
  0
LINE
  8
0
 62
7
 10
-4.60499962E+02
 20
-2.93809402E+02
 11
-4.60499962E+02
 21
-2.89190598E+02
  0
LINE
  8
0
 62
7
 10
-4.60499944E+02
 20
-2.89190622E+02
 11
-4.56499911E+02
 21
-2.86881213E+02
  0
LINE
  8
0
 62
7
 10
-4.56499984E+02
 20
-2.86881229E+02
 11
-4.52500003E+02
 21
-2.89190607E+02
  0
LINE
  8
0
 62
7
 10
-4.52499901E+02
 20
-2.89190598E+02
 11
-4.52499901E+02
 21
-2.93809402E+02
  0
LINE
  8
0
 62
7
 10
-4.56499937E+02
 20
-2.96118750E+02
 11
-4.52499956E+02
 21
-2.93809371E+02
  0
LINE
  8
0
 62
7
 10
-4.60499981E+02
 20
-2.93809460E+02
 11
-4.56499947E+02
 21
-2.96118869E+02
  0
LINE
  8
0
  6
CENTER
 62
2
 10
-4.56499962E+02
 20
-3.04486099E+02
 11
-4.56499962E+02
 21
-2.78544479E+02
  0
LINE
  8
0
  6
CENTER
 62
2
 10
-4.69822166E+02
 20
-2.91499985E+02
 11
-4.43347496E+02
 21
-2.91499985E+02
  0
LINE
  8
0
 62
7
 10
-3.96499962E+02
 20
-2.93809402E+02
 11
-3.96499962E+02
 21
-2.89190598E+02
  0
LINE
  8
0
 62
7
 10
-3.96499903E+02
 20
-2.89190586E+02
 11
-4.00499884E+02
 21
-2.86881207E+02
  0
LINE
  8
0
 62
7
 10
-4.00499912E+02
 20
-2.86881332E+02
 11
-4.04499893E+02
 21
-2.89190711E+02
  0
LINE
  8
0
 62
7
 10
-4.04500023E+02
 20
-2.89190598E+02
 11
-4.04500023E+02
 21
-2.93809402E+02
  0
LINE
  8
0
 62
7
 10
-4.00500002E+02
 20
-2.96118750E+02
 11
-4.04500035E+02
 21
-2.93809340E+02
  0
LINE
  8
0
 62
7
 10
-3.96499874E+02
 20
-2.93809514E+02
 11
-4.00499934E+02
 21
-2.96118938E+02
  0
LINE
  8
0
  6
CENTER
 62
2
 10
-4.00499962E+02
 20
-3.04486099E+02
 11
-4.00499962E+02
 21
-2.78544479E+02
  0
LINE
  8
0
  6
CENTER
 62
2
 10
-3.87177757E+02
 20
-2.91499985E+02
 11
-4.13652428E+02
 21
-2.91499985E+02
  0
LINE
  8
0
 62
7
 10
-2.03500023E+02
 20
-1.07899994E+02
 11
-1.25500000E+02
 21
-1.07899994E+02
  0
LINE
  8
0
 62
7
 10
-2.03500023E+02
 20
-1.15100006E+02
 11
-1.25500000E+02
 21
-1.15100006E+02
  0
LINE
  8
0
  6
CENTER
 62
2
 10
-2.37729271E+02
 20
-1.11499969E+02
 11
-8.93312492E+01
 21
-1.11499969E+02
  0
LINE
  8
0
 62
7
 10
-1.25500000E+02
 20
-2.82000015E+02
 11
-1.25500000E+02
 21
-3.19500000E+02
  0
LINE
  8
0
 62
7
 10
-1.25500000E+02
 20
-2.82000015E+02
 11
-9.55000000E+01
 21
-2.82000015E+02
  0
LINE
  8
0
 62
7
 10
-2.03500023E+02
 20
-2.85500015E+02
 11
-1.25500000E+02
 21
-2.85500015E+02
  0
LINE
  8
0
 62
7
 10
-2.03500023E+02
 20
-2.82000015E+02
 11
-2.03500023E+02
 21
-3.19500000E+02
  0
LINE
  8
0
 62
7
 10
-2.33500023E+02
 20
-2.82000015E+02
 11
-2.03500023E+02
 21
-2.82000015E+02
  0
LINE
  8
0
 62
7
 10
-2.33500023E+02
 20
-2.82000015E+02
 11
-2.33500023E+02
 21
-3.19500000E+02
  0
LINE
  8
0
 62
7
 10
-2.03500023E+02
 20
-1.02000031E+02
 11
-2.03500023E+02
 21
-1.77000046E+02
  0
LINE
  8
0
 62
7
 10
-1.25500000E+02
 20
-1.77000046E+02
 11
-9.55000000E+01
 21
-1.77000046E+02
  0
LINE
  8
0
 62
7
 10
-1.25500000E+02
 20
-1.02000031E+02
 11
-1.25500000E+02
 21
-1.77000046E+02
  0
LINE
  8
0
 62
7
 10
-2.03500023E+02
 20
-1.73500015E+02
 11
-1.25500000E+02
 21
-1.73500015E+02
  0
LINE
  8
0
 62
7
 10
-2.33500023E+02
 20
-1.77000046E+02
 11
-2.03500023E+02
 21
-1.77000046E+02
  0
LINE
  8
0
 62
7
 10
-2.33500023E+02
 20
-1.02000031E+02
 11
-2.33500023E+02
 21
-1.77000046E+02
  0
LINE
  8
0
 62
7
 10
-2.03500023E+02
 20
-1.05500031E+02
 11
-1.25500000E+02
 21
-1.05500031E+02
  0
LINE
  8
0
 62
7
 10
-2.03500023E+02
 20
-1.71099991E+02
 11
-1.25500000E+02
 21
-1.71099991E+02
  0
LINE
  8
0
 62
7
 10
-2.03500023E+02
 20
-1.63899979E+02
 11
-1.25500000E+02
 21
-1.63899979E+02
  0
LINE
  8
0
  6
CENTER
 62
2
 10
-2.37729271E+02
 20
-1.67500046E+02
 11
-8.93312492E+01
 21
-1.67500046E+02
  0
LINE
  8
0
  6
CENTER
 62
2
 10
-2.37729271E+02
 20
-2.91499985E+02
 11
-8.93312492E+01
 21
-2.91499985E+02
  0
LINE
  8
0
 62
7
 10
-2.03500023E+02
 20
-2.87900040E+02
 11
-1.25500000E+02
 21
-2.87900040E+02
  0
LINE
  8
0
 62
7
 10
-2.03500023E+02
 20
-2.95100052E+02
 11
-1.25500000E+02
 21
-2.95100052E+02
  0
LINE
  8
0
 62
7
 10
-1.86036094E+02
 20
-3.13500078E+02
 11
-1.82571972E+02
 21
-3.19500124E+02
  0
LINE
  8
0
 62
7
 10
-1.86035881E+02
 20
-3.13499985E+02
 11
-1.92964134E+02
 21
-3.13499985E+02
  0
LINE
  8
0
 62
7
 10
-1.92964347E+02
 20
-3.13499890E+02
 11
-1.96428453E+02
 21
-3.19499906E+02
  0
LINE
  8
0
 62
7
 10
-1.87499959E+02
 20
-3.18345205E+02
 11
-1.89499946E+02
 21
-3.17190511E+02
  0
LINE
  8
0
 62
7
 10
-1.89499874E+02
 20
-3.17190774E+02
 11
-1.91499808E+02
 21
-3.18345438E+02
  0
LINE
  8
0
 62
7
 10
-9.55000000E+01
 20
-2.82000015E+02
 11
-9.55000000E+01
 21
-3.19500000E+02
  0
LINE
  8
0
 62
7
 10
-9.55000000E+01
 20
-1.02000031E+02
 11
-9.55000000E+01
 21
-1.77000046E+02
  0
LINE
  8
0
 62
7
 10
-2.33500023E+02
 20
-1.02000031E+02
 11
-2.03500023E+02
 21
-1.02000031E+02
  0
LINE
  8
0
  6
CENTER
 62
2
 10
-2.93493446E+02
 20
-1.39500000E+02
 11
-6.09999945E+01
 21
-1.39500000E+02
  0
LINE
  8
0
 62
7
 10
-4.76999818E+02
 20
-3.16200103E+02
 11
-4.76299832E+02
 21
-3.15500117E+02
  0
LINE
  8
0
 62
2
 10
-4.73999962E+02
 20
-3.16200027E+02
 11
-4.76999962E+02
 21
-3.16200027E+02
  0
LINE
  8
0
 62
7
 10
-4.76299950E+02
 20
-3.19500000E+02
 11
-4.76299950E+02
 21
-3.15500031E+02
  0
LINE
  8
0
 62
7
 10
-3.79999783E+02
 20
-3.16200020E+02
 11
-3.80699812E+02
 21
-3.15499991E+02
  0
LINE
  8
0
  6
CENTER
 62
2
 10
-1.89499931E+02
 20
-1.09968323E+02
 11
-1.89499931E+02
 21
-8.94123840E+01
  0
LINE
  8
0
 62
7
 10
-4.67499901E+02
 20
-3.19500000E+02
 11
-4.67499901E+02
 21
-3.11500015E+02
  0
LINE
  8
0
 62
7
 10
-3.80699974E+02
 20
-3.19500015E+02
 11
-3.80699974E+02
 21
-3.15500031E+02
  0
LINE
  8
0
 62
2
 10
-3.82999901E+02
 20
-3.16200027E+02
 11
-3.80000023E+02
 21
-3.16200027E+02
  0
LINE
  8
0
 62
7
 10
-3.82999901E+02
 20
-3.15500031E+02
 11
-3.80700035E+02
 21
-3.15500031E+02
  0
LINE
  8
0
 62
7
 10
-2.13500023E+02
 20
-1.26767944E+02
 11
-2.13500023E+02
 21
-1.30232056E+02
  0
LINE
  8
0
 62
7
 10
-2.13500589E+02
 20
-1.30230998E+02
 11
-2.16500602E+02
 21
-1.31963046E+02
  0
LINE
  8
0
 62
7
 10
-2.16499979E+02
 20
-1.31963922E+02
 11
-2.19499939E+02
 21
-1.30231905E+02
  0
LINE
  8
0
 62
7
 10
-2.19500023E+02
 20
-1.30232056E+02
 11
-2.19500023E+02
 21
-1.26767944E+02
  0
LINE
  8
0
 62
7
 10
-2.16500641E+02
 20
-1.25034876E+02
 11
-2.19500641E+02
 21
-1.26766916E+02
  0
LINE
  8
0
 62
7
 10
-2.13499871E+02
 20
-1.26767796E+02
 11
-2.16499884E+02
 21
-1.25035748E+02
  0
LINE
  8
0
 62
7
 10
-4.73999962E+02
 20
-3.15500031E+02
 11
-4.76300011E+02
 21
-3.15500031E+02
  0
LINE
  8
0
  6
CENTER
 62
2
 10
-1.89499992E+02
 20
-3.08054031E+02
 11
-1.89499992E+02
 21
-3.19500000E+02
  0
LINE
  8
0
 62
7
 10
-1.87499992E+02
 20
-3.18345184E+02
 11
-1.87499992E+02
 21
-3.19500000E+02
  0
LINE
  8
0
 62
7
 10
-1.91499992E+02
 20
-3.19500000E+02
 11
-1.91499992E+02
 21
-3.18345337E+02
  0
LINE
  8
0
 62
7
 10
-3.79999901E+02
 20
-3.19500015E+02
 11
-3.79999901E+02
 21
-3.16200027E+02
  0
LINE
  8
0
  6
CENTER
 62
2
 10
-1.89499931E+02
 20
-1.69248886E+02
 11
-1.89499931E+02
 21
-1.90087723E+02
  0
LINE
  8
0
  6
CENTER
 62
2
 10
-2.16500023E+02
 20
-1.19221039E+02
 11
-2.16500023E+02
 21
-1.37786835E+02
  0
LINE
  8
0
  6
CENTER
 62
2
 10
-2.25559898E+02
 20
-1.28499969E+02
 11
-2.07215111E+02
 21
-1.28499969E+02
  0
LINE
  8
0
 62
7
 10
-1.25500000E+02
 20
-1.02000031E+02
 11
-9.55000000E+01
 21
-1.02000031E+02
  0
LINE
  8
0
 62
7
 10
-4.77000023E+02
 20
-3.19500000E+02
 11
-4.77000023E+02
 21
-3.16200027E+02
  0
LINE
  8
0
 62
7
 10
-4.73999962E+02
 20
-3.19500000E+02
 11
-4.73999962E+02
 21
-3.13500015E+02
  0
LINE
  8
0
 62
7
 10
-3.91000023E+02
 20
-3.11500015E+02
 11
-3.89499962E+02
 21
-3.11500015E+02
  0
LINE
  8
0
 62
7
 10
-3.82999901E+02
 20
-3.19500015E+02
 11
-3.82999901E+02
 21
-3.13500015E+02
  0
LINE
  8
0
 62
7
 10
-3.89499901E+02
 20
-3.19500000E+02
 11
-3.89499901E+02
 21
-3.11500015E+02
  0
LINE
  8
0
 62
7
 10
-3.89499962E+02
 20
-3.19500015E+02
 11
-3.83692772E+02
 21
-3.19500015E+02
  0
LINE
  8
0
 62
7
 10
-4.67500023E+02
 20
-3.13500015E+02
 11
-4.73999962E+02
 21
-3.13500015E+02
  0
LINE
  8
0
  6
CENTER
 62
2
 10
-4.79369530E+02
 20
-3.19500000E+02
 11
-3.77100548E+02
 21
-3.19500000E+02
  0
LINE
  8
0
 62
7
 10
-4.66000023E+02
 20
-3.11500015E+02
 11
-4.67500023E+02
 21
-3.11500015E+02
  0
LINE
  8
0
 62
7
 10
-4.67500023E+02
 20
-3.19500015E+02
 11
-4.73307213E+02
 21
-3.19500015E+02
  0
LINE
  8
0
 62
7
 10
-3.89499962E+02
 20
-3.13500015E+02
 11
-3.82999901E+02
 21
-3.13500015E+02
  0
LINE
  8
0
 62
7
 10
-1.92974937E+02
 20
-1.00500061E+02
 11
-1.92974937E+02
 21
-9.46928711E+01
  0
LINE
  8
0
 62
7
 10
-1.86199957E+02
 20
-9.09999443E+01
 11
-1.85499928E+02
 21
-9.16999731E+01
  0
LINE
  8
0
 62
7
 10
-1.93499726E+02
 20
-9.17002806E+01
 11
-1.92799713E+02
 21
-9.10002680E+01
  0
LINE
  8
0
 62
7
 10
-1.93499931E+02
 20
-9.17000427E+01
 11
-1.85499931E+02
 21
-9.17000427E+01
  0
LINE
  8
0
 62
2
 10
-1.86199913E+02
 20
-9.40000610E+01
 11
-1.86199913E+02
 21
-9.10000610E+01
  0
LINE
  8
0
 62
2
 10
-1.92799950E+02
 20
-9.40000610E+01
 11
-1.92799950E+02
 21
-9.10000610E+01
  0
LINE
  8
0
 62
7
 10
-1.85499931E+02
 20
-9.40000610E+01
 11
-1.85499931E+02
 21
-9.17000427E+01
  0
LINE
  8
0
 62
7
 10
-1.93499931E+02
 20
-9.40000610E+01
 11
-1.93499931E+02
 21
-9.17000427E+01
  0
LINE
  8
0
 62
7
 10
-1.86024956E+02
 20
-1.00500061E+02
 11
-1.86024956E+02
 21
-9.46928711E+01
  0
LINE
  8
0
 62
7
 10
-1.96449761E+02
 20
-9.46932678E+01
 11
-1.95249752E+02
 21
-9.40004425E+01
  0
LINE
  8
0
 62
7
 10
-1.83749884E+02
 20
-9.40001806E+01
 11
-1.82549902E+02
 21
-9.46929907E+01
  0
LINE
  8
0
 62
7
 10
-1.96449913E+02
 20
-1.00500061E+02
 11
-1.96449913E+02
 21
-9.46928711E+01
  0
LINE
  8
0
 62
7
 10
-1.82549919E+02
 20
-1.00500061E+02
 11
-1.82549919E+02
 21
-9.46928711E+01
  0
LINE
  8
0
 62
7
 10
-1.95249962E+02
 20
-9.40000305E+01
 11
-1.83749931E+02
 21
-9.40000305E+01
  0
LINE
  8
0
 62
7
 10
-1.92799950E+02
 20
-9.10000305E+01
 11
-1.86199944E+02
 21
-9.10000305E+01
  0
LINE
  8
0
 62
7
 10
-1.97499962E+02
 20
-1.05500061E+02
 11
-1.97499962E+02
 21
-1.00500061E+02
  0
LINE
  8
0
  6
CENTER
 62
2
 10
-4.28500023E+02
 20
-2.79432327E+02
 11
-4.28500023E+02
 21
-3.19500000E+02
  0
LINE
  8
0
 62
7
 10
-1.81499931E+02
 20
-1.05500061E+02
 11
-1.81499931E+02
 21
-1.00500061E+02
  0
LINE
  8
0
 62
7
 10
-1.97499931E+02
 20
-1.00500031E+02
 11
-1.81499962E+02
 21
-1.00500031E+02
  0
LINE
  8
0
 62
7
 10
-1.86199795E+02
 20
-1.88000209E+02
 11
-1.85499788E+02
 21
-1.87300202E+02
  0
LINE
  8
0
 62
7
 10
-1.93499947E+02
 20
-1.87299921E+02
 11
-1.92799918E+02
 21
-1.87999950E+02
  0
LINE
  8
0
 62
7
 10
-1.93499931E+02
 20
-1.87300034E+02
 11
-1.85499931E+02
 21
-1.87300034E+02
  0
LINE
  8
0
 62
2
 10
-1.86199913E+02
 20
-1.85000046E+02
 11
-1.86199913E+02
 21
-1.88000046E+02
  0
LINE
  8
0
 62
2
 10
-1.92799950E+02
 20
-1.85000046E+02
 11
-1.92799950E+02
 21
-1.88000046E+02
  0
LINE
  8
0
 62
7
 10
-1.85499931E+02
 20
-1.85000046E+02
 11
-1.85499931E+02
 21
-1.87300034E+02
  0
LINE
  8
0
 62
7
 10
-1.93499931E+02
 20
-1.85000046E+02
 11
-1.93499931E+02
 21
-1.87300034E+02
  0
LINE
  8
0
 62
7
 10
-1.86024956E+02
 20
-1.78500046E+02
 11
-1.86024956E+02
 21
-1.84307236E+02
  0
LINE
  8
0
 62
7
 10
-1.92974937E+02
 20
-1.78500046E+02
 11
-1.92974937E+02
 21
-1.84307236E+02
  0
LINE
  8
0
 62
7
 10
-1.96449879E+02
 20
-1.84307274E+02
 11
-1.95249950E+02
 21
-1.85000053E+02
  0
LINE
  8
0
 62
7
 10
-1.83749805E+02
 20
-1.85000234E+02
 11
-1.82549810E+02
 21
-1.84307416E+02
  0
LINE
  8
0
 62
7
 10
-1.96449913E+02
 20
-1.78500046E+02
 11
-1.96449913E+02
 21
-1.84307236E+02
  0
LINE
  8
0
 62
7
 10
-1.82549919E+02
 20
-1.78500046E+02
 11
-1.82549919E+02
 21
-1.84307236E+02
  0
LINE
  8
0
 62
7
 10
-1.95249962E+02
 20
-1.85000046E+02
 11
-1.83749931E+02
 21
-1.85000046E+02
  0
LINE
  8
0
 62
7
 10
-1.92799950E+02
 20
-1.88000046E+02
 11
-1.86199944E+02
 21
-1.88000046E+02
  0
LINE
  8
0
 62
7
 10
-1.97499962E+02
 20
-1.73500046E+02
 11
-1.97499962E+02
 21
-1.78500046E+02
  0
LINE
  8
0
 62
7
 10
-1.81499931E+02
 20
-1.73500046E+02
 11
-1.81499931E+02
 21
-1.78500046E+02
  0
LINE
  8
0
 62
7
 10
-1.97499931E+02
 20
-1.78500046E+02
 11
-1.81499962E+02
 21
-1.78500046E+02
  0
LINE
  8
0
  6
CENTER
 62
2
 10
-1.12500000E+02
 20
-2.99244797E+02
 11
-1.12500000E+02
 21
-2.80451248E+02
  0
LINE
  8
0
  6
CENTER
 62
2
 10
-2.94227821E+02
 20
-3.19500000E+02
 11
-1.36574069E+01
 21
-3.19500000E+02
  0
LINE
  8
0
  6
CENTER
 62
2
 10
-1.22616699E+02
 20
-1.28499969E+02
 11
-1.02551544E+02
 21
-1.28499969E+02
  0
LINE
  8
0
  6
CENTER
 62
2
 10
-1.12500000E+02
 20
-1.38515808E+02
 11
-1.12500000E+02
 21
-1.18355774E+02
  0
LINE
  8
0
  6
CENTER
 62
2
 10
-5.64999945E+01
 20
-1.16000000E+02
 11
-9.76034546E+01
 21
-1.16000000E+02
  0
LINE
  8
0
 62
7
 10
-6.45000000E+01
 20
-1.34685704E+02
 11
-6.45000000E+01
 21
-1.70500000E+02
  0
LINE
  8
0
  6
CENTER
 62
2
 10
-2.19999945E+01
 20
-1.39500000E+02
 11
-1.36574070E+01
 21
-1.39500000E+02
  0
LINE
  8
0
 62
2
 10
-3.26361227E+01
 20
-1.72372100E+02
 11
5.15871325E+00
 21
-1.06909524E+02
  0
LINE
  8
0
 62
2
 10
-1.99741160E+01
 20
-3.30440861E+02
 11
5.15871325E+00
 21
-2.86909524E+02
  0
LINE
  8
0
 62
7
 10
2.47518221E+02
 20
-2.98650024E+02
 11
2.94499954E+02
 21
-2.98650024E+02
  0
LINE
  8
0
 62
7
 10
2.50578170E+02
 20
-2.93350037E+02
 11
2.94499954E+02
 21
-2.93350037E+02
  0
LINE
  8
0
 62
7
 10
2.51068921E+02
 20
-2.92500031E+02
 11
2.77999954E+02
 21
-2.92500031E+02
  0
LINE
  8
0
  6
CENTER
 62
2
 10
2.49048196E+02
 20
-2.96000031E+02
 11
2.94499954E+02
 21
-2.96000031E+02
  0
LINE
  8
0
  6
CENTER
 62
2
 10
3.65499954E+02
 20
-2.99244797E+02
 11
3.65499954E+02
 21
-2.80451248E+02
  0
LINE
  8
0
  6
CENTER
 62
2
 10
5.47227776E+02
 20
-3.19500000E+02
 11
2.35480482E+02
 21
-3.19500000E+02
  0
LINE
  8
0
 62
7
 10
4.44499947E+02
 20
-3.19500000E+02
 11
4.44499947E+02
 21
-3.18345337E+02
  0
LINE
  8
0
 62
7
 10
4.40499947E+02
 20
-3.18345184E+02
 11
4.40499947E+02
 21
-3.19500000E+02
  0
LINE
  8
0
  6
CENTER
 62
2
 10
4.42499947E+02
 20
-3.08054031E+02
 11
4.42499947E+02
 21
-3.19500000E+02
  0
LINE
  8
0
 62
7
 10
3.48499954E+02
 20
-2.82000015E+02
 11
3.48499954E+02
 21
-3.19500000E+02
  0
LINE
  8
0
 62
7
 10
4.42499828E+02
 20
-3.17190774E+02
 11
4.44499763E+02
 21
-3.18345438E+02
  0
LINE
  8
0
 62
7
 10
4.40499913E+02
 20
-3.18345205E+02
 11
4.42499900E+02
 21
-3.17190511E+02
  0
LINE
  8
0
 62
7
 10
4.45964301E+02
 20
-3.13499890E+02
 11
4.49428407E+02
 21
-3.19499906E+02
  0
LINE
  8
0
 62
7
 10
4.39035835E+02
 20
-3.13499985E+02
 11
4.45964088E+02
 21
-3.13499985E+02
  0
LINE
  8
0
 62
7
 10
4.39036049E+02
 20
-3.13500078E+02
 11
4.35571926E+02
 21
-3.19500124E+02
  0
LINE
  8
0
 62
7
 10
4.56499977E+02
 20
-2.95100052E+02
 11
3.78499954E+02
 21
-2.95100052E+02
  0
LINE
  8
0
 62
7
 10
4.56499977E+02
 20
-2.87900040E+02
 11
3.78499954E+02
 21
-2.87900040E+02
  0
LINE
  8
0
  6
CENTER
 62
2
 10
4.90729225E+02
 20
-2.91499985E+02
 11
3.42331203E+02
 21
-2.91499985E+02
  0
LINE
  8
0
 62
7
 10
4.86499977E+02
 20
-2.82000015E+02
 11
4.86499977E+02
 21
-3.19500000E+02
  0
LINE
  8
0
 62
7
 10
4.86499977E+02
 20
-2.82000015E+02
 11
4.56499977E+02
 21
-2.82000015E+02
  0
LINE
  8
0
 62
7
 10
4.56499977E+02
 20
-2.82000015E+02
 11
4.56499977E+02
 21
-3.19500000E+02
  0
LINE
  8
0
 62
7
 10
4.56499977E+02
 20
-2.85500015E+02
 11
3.78499954E+02
 21
-2.85500015E+02
  0
LINE
  8
0
 62
7
 10
3.78499954E+02
 20
-2.82000015E+02
 11
3.48499954E+02
 21
-2.82000015E+02
  0
LINE
  8
0
 62
7
 10
3.78499954E+02
 20
-2.82000015E+02
 11
3.78499954E+02
 21
-3.19500000E+02
  0
LINE
  8
0
 62
7
 10
3.43499954E+02
 20
-2.89154602E+02
 11
3.43499954E+02
 21
-2.88500000E+02
  0
LINE
  8
0
 62
7
 10
3.43499954E+02
 20
-2.88500000E+02
 11
3.17499954E+02
 21
-2.88500000E+02
  0
LINE
  8
0
 62
7
 10
3.48499987E+02
 20
-2.89285508E+02
 11
3.17499955E+02
 21
-2.88473744E+02
  0
LINE
  8
0
 62
7
 10
5.01499977E+02
 20
-3.03000076E+02
 11
5.01499977E+02
 21
-3.19500000E+02
  0
LINE
  8
0
 62
7
 10
4.88499977E+02
 20
-3.01000046E+02
 11
4.88499977E+02
 21
-3.19500000E+02
  0
LINE
  8
0
 62
7
 10
3.17499954E+02
 20
-2.88500000E+02
 11
3.17499954E+02
 21
-3.19500000E+02
  0
LINE
  8
0
 62
7
 10
4.96499977E+02
 20
-3.02500046E+02
 11
4.96499977E+02
 21
-3.19500000E+02
  0
LINE
  8
0
 62
7
 10
5.08500053E+02
 20
-3.09500076E+02
 11
5.01500023E+02
 21
-3.09500076E+02
  0
LINE
  8
0
 62
7
 10
4.87999977E+02
 20
-3.00500046E+02
 11
4.86499977E+02
 21
-3.00500046E+02
  0
LINE
  8
0
 62
7
 10
5.00999977E+02
 20
-3.02500046E+02
 11
4.96491432E+02
 21
-3.02500046E+02
  0
LINE
  8
0
 62
7
 10
4.96499977E+02
 20
-3.02500046E+02
 11
4.96499977E+02
 21
-3.02491501E+02
  0
LINE
  8
0
 62
7
 10
4.96258723E+02
 20
-3.02241546E+02
 11
4.88500009E+02
 21
-3.01970606E+02
  0
LINE
  8
0
 62
2
 10
5.07999917E+02
 20
-3.19500000E+02
 11
5.04499956E+02
 21
-3.14232196E+02
  0
LINE
  8
0
 62
7
 10
5.11499947E+02
 20
-3.10500046E+02
 11
5.11499947E+02
 21
-3.19500000E+02
  0
LINE
  8
0
 62
7
 10
5.08500053E+02
 20
-3.14232193E+02
 11
5.04499992E+02
 21
-3.14232193E+02
  0
LINE
  8
0
 62
2
 10
5.10533637E+02
 20
-3.15686575E+02
 11
5.07999975E+02
 21
-3.19500000E+02
  0
LINE
  8
0
 62
7
 10
5.14499947E+02
 20
-3.19500000E+02
 11
5.14499947E+02
 21
-3.10500046E+02
  0
LINE
  8
0
 62
7
 10
5.43499962E+02
 20
-3.19500000E+02
 11
5.43499962E+02
 21
-3.12000198E+02
  0
LINE
  8
0
 62
7
 10
5.41999962E+02
 20
-3.19500000E+02
 11
5.41999962E+02
 21
-3.10500046E+02
  0
LINE
  8
0
 62
7
 10
5.08499962E+02
 20
-3.09500015E+02
 11
5.08499962E+02
 21
-3.14232193E+02
  0
LINE
  8
0
 62
7
 10
5.04499992E+02
 20
-3.19500000E+02
 11
5.04499992E+02
 21
-3.14232193E+02
  0
LINE
  8
0
 62
7
 10
5.41999901E+02
 20
-3.10500046E+02
 11
5.34499954E+02
 21
-3.10500046E+02
  0
LINE
  8
0
 62
2
 10
5.42819908E+02
 20
-3.11320053E+02
 11
5.34499954E+02
 21
-3.11320053E+02
  0
LINE
  8
0
 62
7
 10
5.43499891E+02
 20
-3.12000179E+02
 11
5.41999845E+02
 21
-3.10500179E+02
  0
LINE
  8
0
 62
7
 10
5.14499947E+02
 20
-3.11320053E+02
 11
5.11499947E+02
 21
-3.11320053E+02
  0
LINE
  8
0
  6
CENTER
 62
2
 10
3.30500122E+02
 20
-2.86314941E+02
 11
3.30500122E+02
 21
-2.98200226E+02
  0
LINE
  8
0
 62
7
 10
5.11499962E+02
 20
-3.10500056E+02
 11
5.08499974E+02
 21
-3.09500070E+02
  0
LINE
  8
0
 62
7
 10
5.11499935E+02
 20
-3.16377606E+02
 11
5.08499943E+02
 21
-3.14232200E+02
  0
ARC
  8
0
 62
7
 10
4.42499947E+02
 20
-3.19500000E+02
 40
4.00000000E+00
 50
0.00000000E+00
 51
1.80000000E+02
  0
ARC
  8
0
 62
7
 10
4.42499947E+02
 20
-3.19500000E+02
 40
8.00000000E+00
 50
0.00000000E+00
 51
1.80000000E+02
  0
ARC
  8
0
 62
7
 10
4.42499947E+02
 20
-3.19500000E+02
 40
3.29999995E+00
 50
0.00000000E+00
 51
1.80000000E+02
  0
ARC
  8
0
 62
7
 10
4.96249977E+02
 20
-3.02491501E+02
 40
2.50000000E-01
 50
2.23118003E-05
 51
8.80011768E+01
  0
ARC
  8
0
 62
7
 10
4.87999977E+02
 20
-3.01000046E+02
 40
5.00000000E-01
 50
3.59721787E-05
 51
9.00000179E+01
  0
ARC
  8
0
 62
7
 10
5.12999947E+02
 20
-3.19500046E+02
 40
9.99998474E+00
 50
1.48211648E+02
 51
1.80000000E+02
  0
ARC
  8
0
 62
7
 10
5.00999977E+02
 20
-3.03000076E+02
 40
5.00000000E-01
 50
3.59721787E-05
 51
9.00000179E+01
  0
LINE
  8
0
 62
4
 10
5.33294183E+02
 20
-3.03911543E+02
 11
5.24705726E+02
 21
-3.03911543E+02
  0
LINE
  8
0
 62
4
 10
5.33294183E+02
 20
-3.11705771E+02
 11
5.24705726E+02
 21
-3.11705771E+02
  0
LINE
  8
0
 62
4
 10
5.33294183E+02
 20
-3.03911543E+02
 11
5.34499954E+02
 21
-3.06000000E+02
  0
LINE
  8
0
 62
4
 10
5.24705726E+02
 20
-3.03911543E+02
 11
5.23499954E+02
 21
-3.06000000E+02
  0
ARC
  8
0
 62
4
 10
5.27599233E+02
 20
-3.07808657E+02
 40
6.90072132E+00
 50
3.25615752E+02
 51
3.43842480E+01
  0
ARC
  8
0
 62
4
 10
5.30400676E+02
 20
-3.07808657E+02
 40
6.90072132E+00
 50
1.45615752E+02
 51
2.14384248E+02
  0
ARC
  8
0
 62
4
 10
5.49294182E+02
 20
-3.19500000E+02
 40
2.57942282E+01
 50
1.62412046E+02
 51
1.80000000E+02
  0
ARC
  8
0
 62
4
 10
5.08705726E+02
 20
-3.19500000E+02
 40
2.57942282E+01
 50
2.54444375E-13
 51
1.75879541E+01
  0
LINE
  8
0
 62
4
 10
5.34499954E+02
 20
-3.19500000E+02
 11
5.34499954E+02
 21
-3.06000000E+02
  0
LINE
  8
0
 62
4
 10
5.23499954E+02
 20
-3.19500000E+02
 11
5.23499954E+02
 21
-3.06000000E+02
  0
LINE
  8
0
 62
7
 10
5.23499954E+02
 20
-3.10500046E+02
 11
5.14499947E+02
 21
-3.10500046E+02
  0
LINE
  8
0
 62
2
 10
5.23499954E+02
 20
-3.11320053E+02
 11
5.14499947E+02
 21
-3.11320053E+02
  0
LINE
  8
0
 62
2
 10
2.31706738E+02
 20
-3.26036317E+02
 11
2.53696849E+02
 21
-2.87948327E+02
  0
LINE
  8
0
 62
7
 10
3.10999954E+02
 20
-2.92500031E+02
 11
3.17499954E+02
 21
-2.92500031E+02
  0
LINE
  8
0
 62
7
 10
3.09499954E+02
 20
-2.93350037E+02
 11
3.17499954E+02
 21
-2.93350037E+02
  0
LINE
  8
0
  6
CENTER
 62
2
 10
3.09499954E+02
 20
-2.96000031E+02
 11
3.50603409E+02
 21
-2.96000031E+02
  0
LINE
  8
0
 62
7
 10
3.09499954E+02
 20
-2.98650024E+02
 11
3.17499954E+02
 21
-2.98650024E+02
  0
TEXT
  8
0
 10
-6.22146873E+01
 20
3.51614332E+02
 40
9.00000000E+00
  1
STRETCH LINE
 41
1.05263158E+00
  7
MONOTXT
  0
LINE
  8
0
 62
7
 10
5.74500000E+02
 20
4.00500000E+02
 11
5.74500000E+02
 21
-4.00500000E+02
  0
LINE
  8
0
 62
7
 10
-5.64500000E+02
 20
4.00500000E+02
 11
5.74500000E+02
 21
4.00500000E+02
  0
LINE
  8
0
 62
7
 10
-5.64500000E+02
 20
-4.00500000E+02
 11
5.74500000E+02
 21
-4.00500000E+02
  0
LINE
  8
0
 62
7
 10
-5.64500000E+02
 20
4.00500000E+02
 11
-5.64500000E+02
 21
-4.00500000E+02
  0
LINE
  8
0
 62
7
 10
-5.64500000E+02
 20
3.70500000E+02
 11
-3.34500000E+02
 21
3.70500000E+02
  0
LINE
  8
0
 62
7
 10
3.44500000E+02
 20
3.70500000E+02
 11
5.74500000E+02
 21
3.70500000E+02
  0
LINE
  8
0
 62
7
 10
3.44500000E+02
 20
-3.70500000E+02
 11
5.74500000E+02
 21
-3.70500000E+02
  0
LINE
  8
0
 62
7
 10
3.44500000E+02
 20
-3.70500000E+02
 11
3.44500000E+02
 21
-4.00500000E+02
  0
LINE
  8
0
 62
7
 10
3.44500000E+02
 20
4.00500000E+02
 11
3.44500000E+02
 21
3.70500000E+02
  0
LINE
  8
0
 62
7
 10
-3.34500000E+02
 20
4.00500000E+02
 11
-3.34500000E+02
 21
3.70500000E+02
  0
TEXT
  8
0
 62
7
 10
-5.37179687E+02
 20
3.34250000E+02
 40
1.25000000E+01
  1
MODEL:DDAR50*75
 41
1.00000015E+00
  7
MONOTXT
  0
TEXT
  8
0
 62
7
 10
4.11285149E+02
 20
3.79250000E+02
 40
1.25000000E+01
  1
Ver. 1.0
 41
1.08108125E+00
  7
MONOTXT
  0
TEXT
  8
0
 62
7
 10
3.50070624E+02
 20
-3.94500000E+02
 40
1.80000000E+01
  1
KOGANEI CORP.
 41
1.04838710E+00
  7
MONOTXT
  0
TEXT
  8
0
 62
7
 10
-5.53964859E+02
 20
3.79250000E+02
 40
1.25000000E+01
  1
NEW DYNA CYLINDER
 41
1.07594953E+00
  7
MONOTXT
  0
ENDSEC
  0
EOF
