  0
SECTION
  2
HEADER
  9
$ACADVER
  1
AC1003
  9
$EXTMIN
 10
-1.94250000E+02
 20
-1.33500000E+02
  9
$EXTMAX
 10
1.94800003E+02
 20
1.32600006E+02
  9
$LIMMIN
 10
-1.94251000E+02
 20
-1.33501000E+02
  9
$LIMMAX
 10
1.94801003E+02
 20
1.32601006E+02
  9
$SNAPUNIT
 10
1
 20
1
  9
$SNAPBASE
 10
0
 20
0
  9
$GRIDMODE
 70
0
  9
$GRIDUNIT
 10
0
 20
0
  9
$LTSCALE
 40
6.48416672E+00
  9
$TEXTSIZE
 40
3.2
  9
$DIMTAD
 70
0
  9
$LUNITS
 70
2
  9
$LUPREC
 70
4
  9
$FILLETRAD
 40
0
  9
$AUNITS
 70
0
  9
$AUPREC
 70
0
  0
ENDSEC
  0
SECTION
  2
TABLES
  0
TABLE
  2
LTYPE
 70
2
  0
LTYPE
  2
CONTINUOUS
 70
64
  3
Solid-Line
 72
65
 73
0
 40
0
  0
LTYPE
  2
DASHED
 70
64
  3
DASHED
 72
65
 73
2
 40
.75
 49
.5
 49
-.25
  0
LTYPE
  2
HIDDEN
 70
64
  3
HIDDEN
 72
65
 73
2
 40
.375
 49
.25
 49
-.125
  0
LTYPE
  2
CENTER
 70
64
  3
CENTER
 72
65
 73
4
 40
2
 49
1.25
 49
-.25
 49
.25
 49
-.25
  0
LTYPE
  2
PHANTOM
 70
64
  3
PHANTOM
 72
65
 73
6
 40
2.5
 49
1.25
 49
-.25
 49
.25
 49
-.25
 49
.25
 49
-.25
  0
ENDTAB
  0
TABLE
  2
LAYER
 70
1
  0
LAYER
  2
1
 70
0
 62
7
  6
CONTINUOUS
 0
ENDTAB
  0
TABLE
  2
STYLE
 70
2
  0
STYLE
  2
MONOTXT
 70
0
 40
0
 41
1
 50
0
 71
0
 42
.2
  3
monotxt
  0
STYLE
  2
BIGFONT
 70
0
 40
0
 41
1
 50
0
 71
0
 42
.2
  3
txt
  4
bigfont
  0
ENDTAB
  0
ENDSEC
  0
SECTION
  2
ENTITIES
  0
ARC
  8
0
 62
4
 10
6.34632769E+01
 20
-7.79912895E+01
 40
1.00000000E+00
 50
2.70000018E+02
 51
0.00000000E+00
  0
ARC
  8
0
 62
4
 10
6.31632891E+01
 20
-7.76913017E+01
 40
4.50000000E+00
 50
2.70000018E+02
 51
0.00000000E+00
  0
LINE
  8
0
  6
CENTER
 62
6
 10
6.98176012E+01
 20
-6.11912941E+01
 11
6.24418307E+01
 21
-6.11912941E+01
  0
LINE
  8
0
 62
4
 10
6.76632891E+01
 20
-7.76913017E+01
 11
6.76632891E+01
 21
-4.81912941E+01
  0
LINE
  8
0
 62
4
 10
2.36632891E+01
 20
-8.21913017E+01
 11
6.31632891E+01
 21
-8.21913017E+01
  0
LINE
  8
0
 62
4
 10
2.36632891E+01
 20
-7.89912895E+01
 11
6.34632769E+01
 21
-7.89912895E+01
  0
LINE
  8
0
 62
4
 10
6.44632769E+01
 20
-4.81912941E+01
 11
6.44632769E+01
 21
-7.79912895E+01
  0
LINE
  8
0
  6
CENTER
 62
6
 10
3.66632891E+01
 20
-7.58499016E+01
 11
3.66632891E+01
 21
-8.47525505E+01
  0
LINE
  8
0
 62
4
 10
2.36632891E+01
 20
-7.89912895E+01
 11
2.36632891E+01
 21
-8.21913017E+01
  0
LINE
  8
0
 62
4
 10
6.44632769E+01
 20
-4.81912941E+01
 11
6.76632891E+01
 21
-4.81912941E+01
  0
LINE
  8
0
 62
4
 10
4.76632413E+01
 20
-7.89913175E+01
 11
6.44632770E+01
 21
-7.01912972E+01
  0
CIRCLE
  8
0
 62
4
 10
-1.07336787E+02
 20
-6.11912941E+01
 40
3.84999990E+00
  0
CIRCLE
  8
0
 62
4
 10
-5.13368330E+01
 20
-6.11912941E+01
 40
3.84999990E+00
  0
ARC
  8
0
 62
4
 10
-7.93367719E+01
 20
-3.31912712E+01
 40
1.90000000E+01
 50
2.32136577E+02
 51
3.07863517E+02
  0
ARC
  8
0
 62
4
 10
-9.00489454E+01
 20
-7.53912834E+01
 40
2.00000000E+00
 50
8.99999818E+01
 51
1.55555960E+02
  0
ARC
  8
0
 62
4
 10
-6.86246137E+01
 20
-7.53912834E+01
 40
2.00000000E+00
 50
2.44440039E+01
 51
8.99999818E+01
  0
LINE
  8
0
 62
4
 10
-1.19336766E+02
 20
-8.21912997E+01
 11
-1.17156609E+02
 21
-5.87807378E+01
  0
LINE
  8
0
 62
4
 10
-3.93367757E+01
 20
-8.21913080E+01
 11
-4.15169338E+01
 21
-5.87807262E+01
  0
LINE
  8
0
  6
CENTER
 62
6
 10
-7.93368024E+01
 20
-4.23662743E+01
 11
-7.93368024E+01
 21
-8.75738701E+01
  0
LINE
  8
0
  6
CENTER
 62
6
 10
-1.12951381E+02
 20
-6.11912941E+01
 11
-1.01006618E+02
 21
-6.11912941E+01
  0
LINE
  8
0
  6
CENTER
 62
6
 10
-1.07336787E+02
 20
-5.62322487E+01
 11
-1.07336787E+02
 21
-8.82293877E+01
  0
LINE
  8
0
  6
CENTER
 62
6
 10
-5.13368330E+01
 20
-5.57758965E+01
 11
-5.13368330E+01
 21
-8.82293877E+01
  0
LINE
  8
0
 62
4
 10
-1.19336787E+02
 20
-8.53912834E+01
 11
-3.93367719E+01
 21
-8.53912834E+01
  0
LINE
  8
0
 62
4
 10
-1.19336787E+02
 20
-8.21913017E+01
 11
-3.93367719E+01
 21
-8.21913017E+01
  0
LINE
  8
0
 62
4
 10
-1.19336787E+02
 20
-8.21913017E+01
 11
-1.19336787E+02
 21
-8.53912834E+01
  0
LINE
  8
0
  6
CENTER
 62
6
 10
-5.75299024E+01
 20
-6.11912941E+01
 11
-4.51440839E+01
 21
-6.11912941E+01
  0
LINE
  8
0
 62
4
 10
-1.10580262E+02
 20
-5.16440823E+01
 11
-9.09986158E+01
 21
-4.81913097E+01
  0
LINE
  8
0
 62
4
 10
-3.93367719E+01
 20
-8.21913017E+01
 11
-3.93367719E+01
 21
-8.53912834E+01
  0
LINE
  8
0
 62
4
 10
-4.80932736E+01
 20
-5.16440659E+01
 11
-6.76749076E+01
 21
-4.81912954E+01
  0
LINE
  8
0
 62
4
 10
-9.00489454E+01
 20
-7.33912834E+01
 11
-6.86246137E+01
 21
-7.33912834E+01
  0
LINE
  8
0
 62
4
 10
-9.13367872E+01
 20
-7.47903618E+01
 11
-9.13367872E+01
 21
-8.21913017E+01
  0
LINE
  8
0
 62
4
 10
-9.53367432E+01
 20
-8.21912863E+01
 11
-9.18696480E+01
 21
-7.45636744E+01
  0
LINE
  8
0
 62
4
 10
-6.73367719E+01
 20
-7.47903618E+01
 11
-6.73367719E+01
 21
-8.21913017E+01
  0
LINE
  8
0
 62
4
 10
-6.33367484E+01
 20
-8.21912899E+01
 11
-6.68038373E+01
 21
-7.45636918E+01
  0
ARC
  8
0
 62
4
 10
-1.09191076E+02
 20
-5.95225443E+01
 40
8.00000000E+00
 50
1.00000000E+02
 51
1.74679559E+02
  0
ARC
  8
0
 62
4
 10
-4.94824678E+01
 20
-5.95225263E+01
 40
8.00000000E+00
 50
5.32044080E+00
 51
7.99999999E+01
  0
ARC
  8
0
 62
4
 10
4.96632281E+01
 20
5.21885048E+01
 40
2.00000000E+00
 50
1.79999964E+02
 51
2.56607530E+02
  0
ARC
  8
0
 62
4
 10
4.96632281E+01
 20
7.30290809E+01
 40
2.00000000E+00
 50
1.03392453E+02
 51
1.80000019E+02
  0
ARC
  8
0
 62
4
 10
3.76632891E+01
 20
9.06087929E+01
 40
5.50000000E+00
 50
2.69999998E+02
 51
8.99999618E+01
  0
ARC
  8
0
 62
4
 10
3.56632891E+01
 20
9.06087929E+01
 40
5.50000000E+00
 50
8.99999750E+01
 51
2.70000001E+02
  0
ARC
  8
0
 62
4
 10
3.76632891E+01
 20
3.46087929E+01
 40
5.50000000E+00
 50
2.69999998E+02
 51
8.99999618E+01
  0
ARC
  8
0
 62
4
 10
3.56632891E+01
 20
3.46087929E+01
 40
5.50000000E+00
 50
8.99999618E+01
 51
2.70000001E+02
  0
ARC
  8
0
 62
4
 10
3.36632891E+01
 20
9.26087929E+01
 40
1.00000000E+01
 50
8.99999750E+01
 51
1.80000032E+02
  0
ARC
  8
0
 62
4
 10
3.36632891E+01
 20
3.26087929E+01
 40
1.00000000E+01
 50
1.79999964E+02
 51
2.70000001E+02
  0
LINE
  8
0
 62
4
 10
6.44632769E+01
 20
7.46087929E+01
 11
5.02278033E+01
 21
7.46087929E+01
  0
LINE
  8
0
 62
4
 10
6.44632260E+01
 20
4.66088099E+01
 11
4.91999535E+01
 21
5.02429218E+01
  0
LINE
  8
0
 62
4
 10
6.44632280E+01
 20
7.86087295E+01
 11
4.92000158E+01
 21
7.49746319E+01
  0
LINE
  8
0
 62
4
 10
4.76632281E+01
 20
7.30290809E+01
 11
4.76632281E+01
 21
5.21885048E+01
  0
LINE
  8
0
 62
4
 10
6.44632769E+01
 20
5.06087929E+01
 11
5.02278033E+01
 21
5.06087929E+01
  0
LINE
  8
0
  6
CENTER
 62
6
 10
1.75085039E+01
 20
6.26087929E+01
 11
7.29953204E+01
 21
6.26087929E+01
  0
LINE
  8
0
 62
4
 10
6.44632769E+01
 20
4.36087318E+01
 11
6.76632891E+01
 21
4.36087318E+01
  0
LINE
  8
0
 62
4
 10
6.44632769E+01
 20
8.16087929E+01
 11
6.76632891E+01
 21
8.16087929E+01
  0
LINE
  8
0
 62
4
 10
6.76632891E+01
 20
2.26087929E+01
 11
6.76632891E+01
 21
1.02608793E+02
  0
LINE
  8
0
 62
4
 10
6.44632769E+01
 20
1.02608793E+02
 11
6.44632769E+01
 21
2.26087929E+01
  0
LINE
  8
0
  6
CENTER
 62
6
 10
3.66632891E+01
 20
9.80032478E+01
 11
3.66632891E+01
 21
8.31829048E+01
  0
LINE
  8
0
  6
CENTER
 62
6
 10
6.92175112E+01
 20
9.06087929E+01
 11
2.77745562E+01
 21
9.06087929E+01
  0
LINE
  8
0
 62
4
 10
3.76632891E+01
 20
9.61087929E+01
 11
3.56632891E+01
 21
9.61087929E+01
  0
LINE
  8
0
 62
4
 10
3.76632891E+01
 20
8.51087929E+01
 11
3.56632891E+01
 21
8.51087929E+01
  0
LINE
  8
0
  6
CENTER
 62
6
 10
3.66632891E+01
 20
2.67053963E+01
 11
3.66632891E+01
 21
4.27273842E+01
  0
LINE
  8
0
  6
CENTER
 62
6
 10
6.98759852E+01
 20
3.46087929E+01
 11
2.77745562E+01
 21
3.46087929E+01
  0
LINE
  8
0
 62
4
 10
3.76632891E+01
 20
2.91087929E+01
 11
3.56632891E+01
 21
2.91087929E+01
  0
LINE
  8
0
 62
4
 10
3.76632891E+01
 20
4.01087929E+01
 11
3.56632891E+01
 21
4.01087929E+01
  0
LINE
  8
0
 62
4
 10
2.36632891E+01
 20
9.26087929E+01
 11
2.36632891E+01
 21
3.26087929E+01
  0
LINE
  8
0
 62
4
 10
6.76632891E+01
 20
1.02608793E+02
 11
3.36632891E+01
 21
1.02608793E+02
  0
LINE
  8
0
 62
4
 10
6.76632891E+01
 20
2.26087929E+01
 11
3.36632891E+01
 21
2.26087929E+01
  0
TEXT
  8
0
 62
7
 10
-1.89357136E+02
 20
1.22850006E+02
 40
4.50000000E+00
  1
NEW DYNA CYLINDER
 41
1.07594914E+00
  7
MONOTXT
  0
TEXT
  8
0
 62
7
 10
-1.85214688E+02
 20
1.05350006E+02
 40
4.50000000E+00
  1
MODEL:DDAR63-1
 41
1.00000000E+00
  7
MONOTXT
  0
LINE
  8
0
 62
7
 10
-1.94250000E+02
 20
1.32600006E+02
 11
1.94800003E+02
 21
1.32600006E+02
  0
LINE
  8
0
 62
7
 10
1.94800003E+02
 20
1.32600006E+02
 11
1.94800003E+02
 21
-1.33500000E+02
  0
LINE
  8
0
 62
7
 10
-1.94250000E+02
 20
1.32600006E+02
 11
-1.94250000E+02
 21
-1.33500000E+02
  0
LINE
  8
0
 62
7
 10
-1.94250000E+02
 20
-1.33500000E+02
 11
1.94800003E+02
 21
-1.33500000E+02
  0
LINE
  8
0
 62
7
 10
1.09800003E+02
 20
-1.18500000E+02
 11
1.09800003E+02
 21
-1.33500000E+02
  0
LINE
  8
0
 62
7
 10
1.09800003E+02
 20
-1.18500000E+02
 11
1.94800003E+02
 21
-1.18500000E+02
  0
LINE
  8
0
 62
7
 10
1.09800003E+02
 20
1.32600006E+02
 11
1.09800003E+02
 21
1.17600006E+02
  0
LINE
  8
0
 62
7
 10
1.09800003E+02
 20
1.17600006E+02
 11
1.94800003E+02
 21
1.17600006E+02
  0
LINE
  8
0
 62
7
 10
-1.94250000E+02
 20
1.17600006E+02
 11
-1.09250000E+02
 21
1.17600006E+02
  0
LINE
  8
0
 62
7
 10
-1.09250000E+02
 20
1.32600006E+02
 11
-1.09250000E+02
 21
1.17600006E+02
  0
TEXT
  8
0
 62
7
 10
1.34942863E+02
 20
1.22850006E+02
 40
4.50000000E+00
  1
Ver. 1.0
 41
1.08108085E+00
  7
MONOTXT
  0
TEXT
  8
0
 62
7
 10
1.15249715E+02
 20
-1.29150000E+02
 40
6.30000019E+00
  1
KOGANEI CORP.
 41
1.04838725E+00
  7
MONOTXT
  0
ENDSEC
  0
EOF
