  0
SECTION
  2
HEADER
  9
$ACADVER
  1
AC1003
  9
$EXTMIN
 10
-1.94250000E+02
 20
-1.33500000E+02
  9
$EXTMAX
 10
1.94800003E+02
 20
1.32600006E+02
  9
$LIMMIN
 10
-1.94251000E+02
 20
-1.33501000E+02
  9
$LIMMAX
 10
1.94801003E+02
 20
1.32601006E+02
  9
$SNAPUNIT
 10
1
 20
1
  9
$SNAPBASE
 10
0
 20
0
  9
$GRIDMODE
 70
0
  9
$GRIDUNIT
 10
0
 20
0
  9
$LTSCALE
 40
6.48416672E+00
  9
$TEXTSIZE
 40
3.2
  9
$DIMTAD
 70
0
  9
$LUNITS
 70
2
  9
$LUPREC
 70
4
  9
$FILLETRAD
 40
0
  9
$AUNITS
 70
0
  9
$AUPREC
 70
0
  0
ENDSEC
  0
SECTION
  2
TABLES
  0
TABLE
  2
LTYPE
 70
2
  0
LTYPE
  2
CONTINUOUS
 70
64
  3
Solid-Line
 72
65
 73
0
 40
0
  0
LTYPE
  2
DASHED
 70
64
  3
DASHED
 72
65
 73
2
 40
.75
 49
.5
 49
-.25
  0
LTYPE
  2
HIDDEN
 70
64
  3
HIDDEN
 72
65
 73
2
 40
.375
 49
.25
 49
-.125
  0
LTYPE
  2
CENTER
 70
64
  3
CENTER
 72
65
 73
4
 40
2
 49
1.25
 49
-.25
 49
.25
 49
-.25
  0
LTYPE
  2
PHANTOM
 70
64
  3
PHANTOM
 72
65
 73
6
 40
2.5
 49
1.25
 49
-.25
 49
.25
 49
-.25
 49
.25
 49
-.25
  0
ENDTAB
  0
TABLE
  2
LAYER
 70
1
  0
LAYER
  2
1
 70
0
 62
7
  6
CONTINUOUS
 0
ENDTAB
  0
TABLE
  2
STYLE
 70
2
  0
STYLE
  2
MONOTXT
 70
0
 40
0
 41
1
 50
0
 71
0
 42
.2
  3
monotxt
  0
STYLE
  2
BIGFONT
 70
0
 40
0
 41
1
 50
0
 71
0
 42
.2
  3
txt
  4
bigfont
  0
ENDTAB
  0
ENDSEC
  0
SECTION
  2
ENTITIES
  0
LINE
  8
0
 62
4
 10
5.28371421E+01
 20
-8.96623504E+01
 11
5.28371421E+01
 21
-1.04662343E+02
  0
LINE
  8
0
 62
4
 10
6.17465570E+01
 20
-7.59677383E+01
 11
5.98608087E+01
 21
-8.66623451E+01
  0
LINE
  8
0
 62
4
 10
4.65371543E+01
 20
-8.96623504E+01
 11
4.65371543E+01
 21
-1.04662343E+02
  0
LINE
  8
0
 62
4
 10
4.55371543E+01
 20
-7.76623504E+01
 11
4.55371543E+01
 21
-1.04662343E+02
  0
LINE
  8
0
 62
4
 10
5.90371543E+01
 20
-8.66623504E+01
 11
8.60371543E+01
 21
-8.66623504E+01
  0
LINE
  8
0
 62
4
 10
4.85371543E+01
 20
-8.76623504E+01
 11
6.37171470E+01
 21
-8.76623504E+01
  0
LINE
  8
0
 62
4
 10
4.95371543E+01
 20
-7.36623504E+01
 11
6.25371543E+01
 21
-7.36623504E+01
  0
LINE
  8
0
 62
4
 10
8.65371543E+01
 20
-8.75283782E+01
 11
8.65371543E+01
 21
-1.04662343E+02
  0
LINE
  8
0
  6
CENTER
 62
6
 10
7.25371543E+01
 20
-8.51634185E+01
 11
7.25371543E+01
 21
-1.07082555E+02
  0
LINE
  8
0
 62
4
 10
4.55371543E+01
 20
-1.04662343E+02
 11
8.65371543E+01
 21
-1.04662343E+02
  0
LINE
  8
0
  6
CENTER
 62
6
 10
6.57140628E+01
 20
-8.56623504E+01
 11
4.26388389E+01
 21
-8.56623504E+01
  0
LINE
  8
0
 62
4
 10
6.25371543E+01
 20
-8.66623504E+01
 11
6.25371543E+01
 21
-7.36623504E+01
  0
ARC
  8
0
 62
4
 10
4.85371543E+01
 20
-8.96623504E+01
 40
2.00000000E+00
 50
8.99999818E+01
 51
1.79999964E+02
  0
ARC
  8
0
 62
4
 10
4.95371543E+01
 20
-7.76623504E+01
 40
4.00000000E+00
 50
8.99999818E+01
 51
1.79999964E+02
  0
ARC
  8
0
 62
4
 10
5.80371543E+01
 20
-8.66623504E+01
 40
1.00000000E+00
 50
2.70000018E+02
 51
3.60000000E+02
  0
ARC
  8
0
 62
4
 10
8.70371543E+01
 20
-8.66623504E+01
 40
1.00000000E+00
 50
1.79999977E+02
 51
2.40000062E+02
  0
ARC
  8
0
 62
4
 10
6.37171470E+01
 20
-8.66623504E+01
 40
1.00000000E+00
 50
2.70000018E+02
 51
3.60000000E+02
  0
ARC
  8
0
 62
4
 10
6.56857749E+01
 20
-7.66623504E+01
 40
4.00000000E+00
 50
1.41921181E+02
 51
1.69999911E+02
  0
LINE
  8
0
 62
4
 10
-1.37962945E+02
 20
-8.76623656E+01
 11
-1.37962945E+02
 21
-1.04662343E+02
  0
LINE
  8
0
 62
4
 10
-1.01611596E+02
 20
-7.36623656E+01
 11
-1.13314294E+02
 21
-7.36623656E+01
  0
LINE
  8
0
 62
4
 10
-1.17253516E+02
 20
-7.69677808E+01
 11
-1.20726205E+02
 21
-1.04662351E+02
  0
LINE
  8
0
 62
4
 10
-9.41996554E+01
 20
-1.04662340E+02
 11
-9.76723406E+01
 21
-7.69677924E+01
  0
LINE
  8
0
  6
CENTER
 62
6
 10
-9.70889824E+01
 20
-8.66623656E+01
 11
-1.16170647E+02
 21
-8.66623656E+01
  0
LINE
  8
0
  6
CENTER
 62
6
 10
-1.07462945E+02
 20
-7.62839782E+01
 11
-1.07462945E+02
 21
-9.55813872E+01
  0
LINE
  8
0
 62
4
 10
-1.20043588E+02
 20
-8.86623656E+01
 11
-1.35962945E+02
 21
-8.86623656E+01
  0
LINE
  8
0
 62
4
 10
-1.18629372E+02
 20
-8.76623656E+01
 11
-1.37962945E+02
 21
-8.76623656E+01
  0
LINE
  8
0
  6
CENTER
 62
6
 10
-1.26962945E+02
 20
-8.59671599E+01
 11
-1.26962945E+02
 21
-1.07503728E+02
  0
LINE
  8
0
 62
4
 10
-9.46314934E+01
 20
-9.06623656E+01
 11
-6.42943352E+01
 21
-9.06623656E+01
  0
LINE
  8
0
 62
4
 10
-9.57600182E+01
 20
-8.16623656E+01
 11
-6.31658104E+01
 21
-8.16623656E+01
  0
LINE
  8
0
 62
4
 10
-2.09629448E+01
 20
-8.76623656E+01
 11
-2.09629448E+01
 21
-1.04662343E+02
  0
LINE
  8
0
 62
4
 10
-5.73142937E+01
 20
-7.36623656E+01
 11
-4.56115960E+01
 21
-7.36623656E+01
  0
LINE
  8
0
 62
4
 10
-4.16723601E+01
 20
-7.69677663E+01
 11
-3.81996697E+01
 21
-1.04662344E+02
  0
LINE
  8
0
 62
4
 10
-6.47261675E+01
 20
-1.04662355E+02
 11
-6.12534784E+01
 21
-7.69677843E+01
  0
LINE
  8
0
  6
CENTER
 62
6
 10
-6.18369378E+01
 20
-8.66623656E+01
 11
-4.11750725E+01
 21
-8.66623656E+01
  0
LINE
  8
0
  6
CENTER
 62
6
 10
-5.14629448E+01
 20
-7.62839782E+01
 11
-5.14629448E+01
 21
-9.55813872E+01
  0
LINE
  8
0
 62
4
 10
-3.88822869E+01
 20
-8.86623656E+01
 11
-2.29629448E+01
 21
-8.86623656E+01
  0
LINE
  8
0
 62
4
 10
-4.02965020E+01
 20
-8.76623656E+01
 11
-2.09629448E+01
 21
-8.76623656E+01
  0
LINE
  8
0
  6
CENTER
 62
6
 10
-3.19629448E+01
 20
-8.59671599E+01
 11
-3.19629448E+01
 21
-1.07503728E+02
  0
LINE
  8
0
 62
4
 10
-1.37962945E+02
 20
-1.04662343E+02
 11
-2.09629448E+01
 21
-1.04662343E+02
  0
LINE
  8
0
  6
CENTER
 62
6
 10
-7.94629448E+01
 20
-7.12693832E+01
 11
-7.94629448E+01
 21
-1.07503728E+02
  0
CIRCLE
  8
0
 62
4
 10
-1.07462945E+02
 20
-8.66623656E+01
 40
7.25000000E+00
  0
ARC
  8
0
 62
4
 10
-1.13314294E+02
 20
-7.76623656E+01
 40
4.00000000E+00
 50
8.99999818E+01
 51
1.69999911E+02
  0
ARC
  8
0
 62
4
 10
-1.01611596E+02
 20
-7.76623656E+01
 40
4.00000000E+00
 50
9.99995702E+00
 51
8.99999818E+01
  0
ARC
  8
0
 62
4
 10
-1.35962945E+02
 20
-9.06623656E+01
 40
2.00000000E+00
 50
8.99999818E+01
 51
1.79999964E+02
  0
ARC
  8
0
 62
4
 10
-2.29629448E+01
 20
-9.06623656E+01
 40
2.00000000E+00
 50
0.00000000E+00
 51
8.99999818E+01
  0
CIRCLE
  8
0
 62
4
 10
-5.14629448E+01
 20
-8.66623656E+01
 40
7.25000000E+00
  0
ARC
  8
0
 62
4
 10
-4.56115960E+01
 20
-7.76623656E+01
 40
4.00000000E+00
 50
1.00000535E+01
 51
8.99999818E+01
  0
ARC
  8
0
 62
4
 10
-5.73142937E+01
 20
-7.76623656E+01
 40
4.00000000E+00
 50
8.99999818E+01
 51
1.70000007E+02
  0
CIRCLE
  8
0
 62
4
 10
-1.07462945E+02
 20
-8.66623656E+01
 40
3.84999990E+00
  0
CIRCLE
  8
0
 62
4
 10
-5.14629448E+01
 20
-8.66623656E+01
 40
3.84999990E+00
  0
ARC
  8
0
 62
4
 10
-9.57600182E+01
 20
-8.01623656E+01
 40
1.50000000E+00
 50
1.87147146E+02
 51
2.69999998E+02
  0
ARC
  8
0
 62
4
 10
-6.31658104E+01
 20
-8.01623656E+01
 40
1.50000000E+00
 50
2.69999998E+02
 51
3.52852847E+02
  0
ARC
  8
0
 62
4
 10
-6.42943352E+01
 20
-8.91623656E+01
 40
1.50000000E+00
 50
2.69999998E+02
 51
3.52852847E+02
  0
ARC
  8
0
 62
4
 10
-9.46314934E+01
 20
-8.91623656E+01
 40
1.50000000E+00
 50
1.87147146E+02
 51
2.69999998E+02
  0
ARC
  8
0
 62
4
 10
-1.20043588E+02
 20
-8.71623656E+01
 40
1.50000000E+00
 50
2.69999998E+02
 51
3.52852847E+02
  0
ARC
  8
0
 62
4
 10
-3.88822869E+01
 20
-8.71623656E+01
 40
1.50000000E+00
 50
1.87147160E+02
 51
2.69999998E+02
  0
LINE
  8
0
 62
4
 10
7.81832115E+01
 20
1.26837711E+02
 11
5.70120689E+01
 21
1.26837711E+02
  0
LINE
  8
0
 62
4
 10
6.05371543E+01
 20
8.68376496E+01
 11
6.05371543E+01
 21
4.98376496E+01
  0
LINE
  8
0
 62
4
 10
6.25371543E+01
 20
1.05837711E+02
 11
6.25371543E+01
 21
3.08377107E+01
  0
LINE
  8
0
 62
4
 10
6.10370933E+01
 20
4.93376496E+01
 11
6.25370933E+01
 21
4.93376496E+01
  0
LINE
  8
0
 62
4
 10
6.10370933E+01
 20
8.73376496E+01
 11
6.25370933E+01
 21
8.73376496E+01
  0
LINE
  8
0
 62
4
 10
4.66462569E+01
 20
8.43082861E+01
 11
5.55371960E+01
 21
8.57192287E+01
  0
LINE
  8
0
 62
4
 10
4.65452303E+01
 20
5.23829758E+01
 11
5.55371396E+01
 21
5.09560097E+01
  0
LINE
  8
0
 62
4
 10
5.55371543E+01
 20
5.20590852E+01
 11
5.55371543E+01
 21
8.48630403E+01
  0
LINE
  8
0
 62
4
 10
6.14120323E+01
 20
2.84850495E+01
 11
4.66279747E+01
 21
2.84850495E+01
  0
LINE
  8
0
 62
4
 10
6.05371543E+01
 20
5.09560578E+01
 11
5.55371543E+01
 21
5.09560578E+01
  0
LINE
  8
0
 62
4
 10
8.65067734E+01
 20
2.84904047E+01
 11
8.40920473E+01
 21
1.47958129E+01
  0
LINE
  8
0
 62
4
 10
4.63830433E+01
 20
2.74980671E+01
 11
5.13739820E+01
 21
1.37855751E+01
  0
LINE
  8
0
 62
4
 10
6.23234703E+01
 20
3.11299775E+01
 11
4.85371543E+01
 21
3.11299775E+01
  0
LINE
  8
0
 62
4
 10
8.58600303E+01
 20
3.03377107E+01
 11
6.30371543E+01
 21
3.03377107E+01
  0
LINE
  8
0
 62
4
 10
7.81832115E+01
 20
9.83771066E+00
 11
5.70120689E+01
 21
9.83771066E+00
  0
LINE
  8
0
  6
CENTER
 62
6
 10
4.24513999E+01
 20
4.03376496E+01
 11
6.63460094E+01
 21
4.03376496E+01
  0
LINE
  8
0
  6
CENTER
 62
6
 10
8.11403648E+01
 20
2.08377107E+01
 11
6.41829673E+01
 21
2.08377107E+01
  0
LINE
  8
0
  6
CENTER
 62
6
 10
7.25371543E+01
 20
2.93335298E+01
 11
7.25371543E+01
 21
1.23761323E+01
  0
LINE
  8
0
 62
4
 10
4.55371543E+01
 20
5.36009553E+01
 11
4.55371543E+01
 21
2.70744355E+01
  0
LINE
  8
0
 62
4
 10
6.14120323E+01
 20
1.08190372E+02
 11
4.66279747E+01
 21
1.08190372E+02
  0
LINE
  8
0
 62
4
 10
6.05371543E+01
 20
8.57193635E+01
 11
5.55371543E+01
 21
8.57193635E+01
  0
LINE
  8
0
 62
4
 10
8.65067031E+01
 20
1.08185033E+02
 11
8.40919823E+01
 21
1.21879595E+02
  0
LINE
  8
0
 62
4
 10
4.63829893E+01
 20
1.09177372E+02
 11
5.13739280E+01
 21
1.22889864E+02
  0
LINE
  8
0
 62
4
 10
4.65371543E+01
 20
5.43330110E+01
 11
4.65371543E+01
 21
8.23424104E+01
  0
LINE
  8
0
 62
4
 10
6.05371543E+01
 20
8.71300080E+01
 11
4.85371543E+01
 21
8.71300080E+01
  0
LINE
  8
0
 62
4
 10
6.23234703E+01
 20
1.05545474E+02
 11
4.85371543E+01
 21
1.05545474E+02
  0
LINE
  8
0
 62
4
 10
8.58600303E+01
 20
1.06337711E+02
 11
6.30371543E+01
 21
1.06337711E+02
  0
LINE
  8
0
  6
CENTER
 62
6
 10
8.11403648E+01
 20
1.15837711E+02
 11
6.41829673E+01
 21
1.15837711E+02
  0
LINE
  8
0
  6
CENTER
 62
6
 10
7.25371543E+01
 20
1.07341922E+02
 11
7.25371543E+01
 21
1.24299320E+02
  0
LINE
  8
0
 62
4
 10
4.55371543E+01
 20
8.30744660E+01
 11
4.55371543E+01
 21
1.09600955E+02
  0
LINE
  8
0
  6
CENTER
 62
6
 10
4.24513999E+01
 20
9.63376496E+01
 11
6.71016094E+01
 21
9.63376496E+01
  0
LINE
  8
0
  6
CENTER
 62
6
 10
6.82350074E+01
 20
6.83376496E+01
 11
4.17348472E+01
 21
6.83376496E+01
  0
ARC
  8
0
 62
4
 10
7.25371543E+01
 20
2.08377107E+01
 40
1.45000000E+01
 50
1.33602817E+02
 51
1.48169876E+02
  0
ARC
  8
0
 62
4
 10
7.25371543E+01
 20
1.15837711E+02
 40
1.45000000E+01
 50
2.11830138E+02
 51
2.26397197E+02
  0
ARC
  8
0
 62
4
 10
7.25371543E+01
 20
2.08377107E+01
 40
1.35000000E+01
 50
1.45495597E+02
 51
2.34569077E+02
  0
ARC
  8
0
 62
4
 10
7.81832115E+01
 20
1.58377107E+01
 40
6.00000000E+00
 50
2.70000038E+02
 51
3.49999994E+02
  0
ARC
  8
0
 62
4
 10
8.45371543E+01
 20
2.88377107E+01
 40
2.00000000E+00
 50
3.50000243E+02
 51
4.85904268E+01
  0
ARC
  8
0
 62
4
 10
5.70120689E+01
 20
1.58377107E+01
 40
6.00000000E+00
 50
2.00000073E+02
 51
2.70000038E+02
  0
ARC
  8
0
 62
4
 10
7.25371543E+01
 20
2.08377107E+01
 40
1.35000000E+01
 50
1.29816300E+01
 51
4.47249905E+01
  0
ARC
  8
0
 62
4
 10
6.30371543E+01
 20
3.08377107E+01
 40
5.00000000E-01
 50
1.80000050E+02
 51
2.70000038E+02
  0
CIRCLE
  8
0
 62
4
 10
7.25371543E+01
 20
2.08377107E+01
 40
6.00000000E+00
  0
ARC
  8
0
 62
4
 10
4.49734336E+01
 20
2.69850495E+01
 40
1.50000000E+00
 50
2.00000865E+01
 51
6.79251928E+01
  0
ARC
  8
0
 62
4
 10
4.45371543E+01
 20
5.53330110E+01
 40
2.00000000E+00
 50
2.99999964E+02
 51
2.23117997E-05
  0
ARC
  8
0
 62
4
 10
4.45371543E+01
 20
5.43330110E+01
 40
2.00000000E+00
 50
2.99999964E+02
 51
2.23117997E-05
  0
ARC
  8
0
 62
4
 10
4.51207725E+01
 20
2.51182588E+01
 40
2.00000000E+00
 50
1.99999363E+01
 51
7.79843407E+01
  0
ARC
  8
0
 62
4
 10
4.49734336E+01
 20
1.09690372E+02
 40
1.50000000E+00
 50
2.92074841E+02
 51
3.39999941E+02
  0
ARC
  8
0
 62
4
 10
4.45371543E+01
 20
8.13424104E+01
 40
2.00000000E+00
 50
2.23117997E-05
 51
6.00000630E+01
  0
ARC
  8
0
 62
4
 10
4.45371543E+01
 20
8.23424104E+01
 40
2.00000000E+00
 50
2.23117997E-05
 51
6.00000630E+01
  0
ARC
  8
0
 62
4
 10
4.51207725E+01
 20
1.11557132E+02
 40
2.00000000E+00
 50
2.82015694E+02
 51
3.40000104E+02
  0
ARC
  8
0
 62
4
 10
8.45371543E+01
 20
1.07837711E+02
 40
2.00000000E+00
 50
3.11409621E+02
 51
9.99980163E+00
  0
ARC
  8
0
 62
4
 10
7.25371543E+01
 20
1.15837711E+02
 40
1.35000000E+01
 50
3.15275050E+02
 51
3.47018411E+02
  0
ARC
  8
0
 62
4
 10
6.30371543E+01
 20
1.05837711E+02
 40
5.00000000E-01
 50
8.99999956E+01
 51
1.79999977E+02
  0
CIRCLE
  8
0
 62
4
 10
7.25371543E+01
 20
1.15837711E+02
 40
6.00000000E+00
  0
ARC
  8
0
 62
4
 10
6.10371543E+01
 20
4.98376496E+01
 40
5.00000000E-01
 50
1.79999951E+02
 51
2.69999919E+02
  0
ARC
  8
0
 62
4
 10
6.10371543E+01
 20
8.68376496E+01
 40
5.00000000E-01
 50
8.99999618E+01
 51
1.79999951E+02
  0
ARC
  8
0
 62
4
 10
5.70120689E+01
 20
1.20837711E+02
 40
6.00000000E+00
 50
8.99999956E+01
 51
1.59999968E+02
  0
ARC
  8
0
 62
4
 10
7.81832115E+01
 20
1.20837711E+02
 40
6.00000000E+00
 50
1.00000475E+01
 51
8.99999956E+01
  0
ARC
  8
0
 62
4
 10
7.25371543E+01
 20
1.15837711E+02
 40
1.35000000E+01
 50
1.25430960E+02
 51
2.14504413E+02
  0
TEXT
  8
0
 62
7
 10
-1.89357136E+02
 20
1.22850006E+02
 40
4.50000000E+00
  1
NEW DYNA CYLINDER
 41
1.07594914E+00
  7
MONOTXT
  0
TEXT
  8
0
 62
7
 10
-1.85214688E+02
 20
1.05350006E+02
 40
4.50000000E+00
  1
MODEL:DDAR63-2
 41
1.00000000E+00
  7
MONOTXT
  0
LINE
  8
0
 62
7
 10
-1.94250000E+02
 20
1.32600006E+02
 11
1.94800003E+02
 21
1.32600006E+02
  0
LINE
  8
0
 62
7
 10
1.94800003E+02
 20
1.32600006E+02
 11
1.94800003E+02
 21
-1.33500000E+02
  0
LINE
  8
0
 62
7
 10
-1.94250000E+02
 20
1.32600006E+02
 11
-1.94250000E+02
 21
-1.33500000E+02
  0
LINE
  8
0
 62
7
 10
-1.94250000E+02
 20
-1.33500000E+02
 11
1.94800003E+02
 21
-1.33500000E+02
  0
LINE
  8
0
 62
7
 10
1.09800003E+02
 20
-1.18500000E+02
 11
1.09800003E+02
 21
-1.33500000E+02
  0
LINE
  8
0
 62
7
 10
1.09800003E+02
 20
-1.18500000E+02
 11
1.94800003E+02
 21
-1.18500000E+02
  0
LINE
  8
0
 62
7
 10
1.09800003E+02
 20
1.32600006E+02
 11
1.09800003E+02
 21
1.17600006E+02
  0
LINE
  8
0
 62
7
 10
1.09800003E+02
 20
1.17600006E+02
 11
1.94800003E+02
 21
1.17600006E+02
  0
LINE
  8
0
 62
7
 10
-1.94250000E+02
 20
1.17600006E+02
 11
-1.09250000E+02
 21
1.17600006E+02
  0
LINE
  8
0
 62
7
 10
-1.09250000E+02
 20
1.32600006E+02
 11
-1.09250000E+02
 21
1.17600006E+02
  0
TEXT
  8
0
 62
7
 10
1.34942863E+02
 20
1.22850006E+02
 40
4.50000000E+00
  1
Ver. 1.0
 41
1.08108085E+00
  7
MONOTXT
  0
TEXT
  8
0
 62
7
 10
1.15249715E+02
 20
-1.29150000E+02
 40
6.30000019E+00
  1
KOGANEI CORP.
 41
1.04838725E+00
  7
MONOTXT
  0
ENDSEC
  0
EOF
