  0
SECTION
  2
HEADER
  9
$ACADVER
  1
AC1003
  9
$EXTMIN
 10
-5.64500000E+02
 20
-4.00500000E+02
  9
$EXTMAX
 10
5.83588403E+02
 20
4.00500000E+02
  9
$LIMMIN
 10
-5.64501000E+02
 20
-4.00501000E+02
  9
$LIMMAX
 10
5.83589403E+02
 20
4.00501000E+02
  9
$SNAPUNIT
 10
1
 20
1
  9
$SNAPBASE
 10
0
 20
0
  9
$GRIDMODE
 70
0
  9
$GRIDUNIT
 10
0
 20
0
  9
$LTSCALE
 40
1.91348067E+01
  9
$TEXTSIZE
 40
3.2
  9
$DIMTAD
 70
0
  9
$LUNITS
 70
2
  9
$LUPREC
 70
4
  9
$FILLETRAD
 40
0
  9
$AUNITS
 70
0
  9
$AUPREC
 70
0
  0
ENDSEC
  0
SECTION
  2
TABLES
  0
TABLE
  2
LTYPE
 70
2
  0
LTYPE
  2
CONTINUOUS
 70
64
  3
Solid-Line
 72
65
 73
0
 40
0
  0
LTYPE
  2
DASHED
 70
64
  3
DASHED
 72
65
 73
2
 40
.75
 49
.5
 49
-.25
  0
LTYPE
  2
HIDDEN
 70
64
  3
HIDDEN
 72
65
 73
2
 40
.375
 49
.25
 49
-.125
  0
LTYPE
  2
CENTER
 70
64
  3
CENTER
 72
65
 73
4
 40
2
 49
1.25
 49
-.25
 49
.25
 49
-.25
  0
LTYPE
  2
PHANTOM
 70
64
  3
PHANTOM
 72
65
 73
6
 40
2.5
 49
1.25
 49
-.25
 49
.25
 49
-.25
 49
.25
 49
-.25
  0
ENDTAB
  0
TABLE
  2
LAYER
 70
1
  0
LAYER
  2
1
 70
0
 62
7
  6
CONTINUOUS
 0
ENDTAB
  0
TABLE
  2
STYLE
 70
2
  0
STYLE
  2
MONOTXT
 70
0
 40
0
 41
1
 50
0
 71
0
 42
.2
  3
monotxt
  0
STYLE
  2
BIGFONT
 70
0
 40
0
 41
1
 50
0
 71
0
 42
.2
  3
txt
  4
bigfont
  0
ENDTAB
  0
ENDSEC
  0
SECTION
  2
BLOCKS
  0
BLOCK
  8
0
  2
PP1
 70
10
 10
0.0
 20
0.0
  0
LINE
  8
0
  6
DASHED
 62
7
 10
-2.34669855E+02
 20
2.93000000E+02
 11
-2.31330127E+02
 21
2.93000000E+02
  0
LINE
  8
0
  6
DASHED
 62
7
 10
-2.36000001E+02
 20
2.95000000E+02
 11
-2.29999984E+02
 21
2.95000000E+02
  0
LINE
  8
0
  6
DASHED
 62
7
 10
-2.35999966E+02
 20
2.97000000E+02
 11
-2.30000019E+02
 21
2.97000000E+02
  0
LINE
  8
0
  6
DASHED
 62
7
 10
-2.36000019E+02
 20
2.94000000E+02
 11
-2.29999966E+02
 21
2.94000000E+02
  0
LINE
  8
0
  6
DASHED
 62
7
 10
-2.35999984E+02
 20
2.96000000E+02
 11
-2.30000001E+02
 21
2.96000000E+02
  0
LINE
  8
0
  6
DASHED
 62
7
 10
-2.34669903E+02
 20
2.98000000E+02
 11
-2.31330108E+02
 21
2.98000000E+02
  0
LINE
  8
0
  6
DASHED
 62
7
 10
-2.31611118E+02
 20
2.92837775E+02
 11
-2.29999995E+02
 21
2.95628324E+02
  0
LINE
  8
0
  6
DASHED
 62
7
 10
-2.34037608E+02
 20
2.92634971E+02
 11
-2.31037607E+02
 21
2.97831127E+02
  0
LINE
  8
0
  6
DASHED
 62
7
 10
-2.35769658E+02
 20
2.93634973E+02
 11
-2.32769664E+02
 21
2.98831116E+02
  0
LINE
  8
0
  6
DASHED
 62
7
 10
-2.33171584E+02
 20
2.92134970E+02
 11
-2.30171578E+02
 21
2.97331132E+02
  0
LINE
  8
0
  6
DASHED
 62
7
 10
-2.34903633E+02
 20
2.93134972E+02
 11
-2.31903635E+02
 21
2.98331121E+02
  0
LINE
  8
0
  6
DASHED
 62
7
 10
-2.35999997E+02
 20
2.95236015E+02
 11
-2.34271361E+02
 21
2.98230100E+02
  0
LINE
  8
0
  6
DASHED
 62
7
 10
-2.30000008E+02
 20
2.96371699E+02
 11
-2.30745112E+02
 21
2.97662257E+02
  0
LINE
  8
0
  6
DASHED
 62
7
 10
-2.30604593E+02
 20
2.93418872E+02
 11
-2.33604609E+02
 21
2.98615052E+02
  0
LINE
  8
0
  6
DASHED
 62
7
 10
-2.32336660E+02
 20
2.92418899E+02
 11
-2.35336657E+02
 21
2.97615047E+02
  0
LINE
  8
0
  6
DASHED
 62
7
 10
-2.35137412E+02
 20
2.93269945E+02
 11
-2.36000005E+02
 21
2.94764000E+02
  0
LINE
  8
0
  6
DASHED
 62
7
 10
-2.29999972E+02
 20
2.94371638E+02
 11
-2.32477150E+02
 21
2.98662235E+02
  0
LINE
  8
0
  6
DASHED
 62
7
 10
-2.31470627E+02
 20
2.92918886E+02
 11
-2.34470633E+02
 21
2.98115049E+02
  0
LINE
  8
0
  6
DASHED
 62
7
 10
-2.33405359E+02
 20
2.92269941E+02
 11
-2.35999970E+02
 21
2.96763939E+02
  0
ENDBLK
  8
0
  0
BLOCK
  8
0
  2
PP2
 70
10
 10
0.0
 20
0.0
  0
LINE
  8
0
  6
DASHED
 62
7
 10
-2.34669855E+02
 20
-1.27000000E+02
 11
-2.31330127E+02
 21
-1.27000000E+02
  0
LINE
  8
0
  6
DASHED
 62
7
 10
-2.36000001E+02
 20
-1.25000000E+02
 11
-2.29999984E+02
 21
-1.25000000E+02
  0
LINE
  8
0
  6
DASHED
 62
7
 10
-2.35999966E+02
 20
-1.23000000E+02
 11
-2.30000019E+02
 21
-1.23000000E+02
  0
LINE
  8
0
  6
DASHED
 62
7
 10
-2.36000019E+02
 20
-1.26000000E+02
 11
-2.29999966E+02
 21
-1.26000000E+02
  0
LINE
  8
0
  6
DASHED
 62
7
 10
-2.35999984E+02
 20
-1.24000000E+02
 11
-2.30000001E+02
 21
-1.24000000E+02
  0
LINE
  8
0
  6
DASHED
 62
7
 10
-2.34669903E+02
 20
-1.22000000E+02
 11
-2.31330108E+02
 21
-1.22000000E+02
  0
LINE
  8
0
  6
DASHED
 62
7
 10
-2.31611118E+02
 20
-1.27162225E+02
 11
-2.29999995E+02
 21
-1.24371676E+02
  0
LINE
  8
0
  6
DASHED
 62
7
 10
-2.34037608E+02
 20
-1.27365029E+02
 11
-2.31037607E+02
 21
-1.22168873E+02
  0
LINE
  8
0
  6
DASHED
 62
7
 10
-2.35769658E+02
 20
-1.26365027E+02
 11
-2.32769664E+02
 21
-1.21168884E+02
  0
LINE
  8
0
  6
DASHED
 62
7
 10
-2.33171584E+02
 20
-1.27865030E+02
 11
-2.30171578E+02
 21
-1.22668868E+02
  0
LINE
  8
0
  6
DASHED
 62
7
 10
-2.34903633E+02
 20
-1.26865028E+02
 11
-2.31903635E+02
 21
-1.21668879E+02
  0
LINE
  8
0
  6
DASHED
 62
7
 10
-2.35999997E+02
 20
-1.24763985E+02
 11
-2.34271361E+02
 21
-1.21769900E+02
  0
LINE
  8
0
  6
DASHED
 62
7
 10
-2.30000008E+02
 20
-1.23628301E+02
 11
-2.30745112E+02
 21
-1.22337743E+02
  0
LINE
  8
0
  6
DASHED
 62
7
 10
-2.30604593E+02
 20
-1.26581128E+02
 11
-2.33604609E+02
 21
-1.21384948E+02
  0
LINE
  8
0
  6
DASHED
 62
7
 10
-2.32336660E+02
 20
-1.27581101E+02
 11
-2.35336657E+02
 21
-1.22384953E+02
  0
LINE
  8
0
  6
DASHED
 62
7
 10
-2.35137412E+02
 20
-1.26730055E+02
 11
-2.36000005E+02
 21
-1.25236000E+02
  0
LINE
  8
0
  6
DASHED
 62
7
 10
-2.29999972E+02
 20
-1.25628362E+02
 11
-2.32477150E+02
 21
-1.21337765E+02
  0
LINE
  8
0
  6
DASHED
 62
7
 10
-2.31470627E+02
 20
-1.27081114E+02
 11
-2.34470633E+02
 21
-1.21884951E+02
  0
LINE
  8
0
  6
DASHED
 62
7
 10
-2.33405359E+02
 20
-1.27730059E+02
 11
-2.35999970E+02
 21
-1.23236061E+02
  0
ENDBLK
  8
0
  0
ENDSEC
  0
SECTION
  2
ENTITIES
  0
LINE
  8
0
  6
PHANTOM
 10
-2.45000000E+01
 20
1.92202234E+02
 11
-2.45000000E+01
 21
2.93151313E+01
  0
LINE
  8
0
 62
7
 10
-2.82999962E+02
 20
9.15000153E+01
 11
-2.82999962E+02
 21
1.09500015E+02
  0
LINE
  8
0
 62
7
 10
-2.77000114E+02
 20
1.10499985E+02
 11
-2.70000053E+02
 21
1.10499985E+02
  0
LINE
  8
0
 62
7
 10
-3.12000023E+02
 20
9.30000381E+01
 11
-3.12000023E+02
 21
1.07999847E+02
  0
LINE
  8
0
 62
7
 10
-3.10499962E+02
 20
9.15000153E+01
 11
-3.10499962E+02
 21
1.09500015E+02
  0
LINE
  8
0
 62
7
 10
-3.10499962E+02
 20
1.09500000E+02
 11
-3.02999992E+02
 21
1.09500000E+02
  0
LINE
  8
0
 62
2
 10
-3.11319969E+02
 20
1.08679993E+02
 11
-3.02999992E+02
 21
1.08679993E+02
  0
LINE
  8
0
 62
7
 10
-3.11999911E+02
 20
1.07999801E+02
 11
-3.10499854E+02
 21
1.09499812E+02
  0
LINE
  8
0
 62
7
 10
-3.10499962E+02
 20
9.15000076E+01
 11
-3.02999992E+02
 21
9.15000076E+01
  0
LINE
  8
0
 62
2
 10
-3.11319969E+02
 20
9.23199997E+01
 11
-3.02999992E+02
 21
9.23199997E+01
  0
LINE
  8
0
 62
7
 10
-3.12000011E+02
 20
9.30001097E+01
 11
-3.10499954E+02
 21
9.15000987E+01
  0
LINE
  8
0
 62
7
 10
-2.79999992E+02
 20
1.09500000E+02
 11
-2.79999992E+02
 21
9.15000076E+01
  0
LINE
  8
0
 62
7
 10
-2.77000114E+02
 20
1.05767853E+02
 11
-2.73000053E+02
 21
1.05767853E+02
  0
LINE
  8
0
 62
7
 10
-2.73000053E+02
 20
9.52322006E+01
 11
-2.73000053E+02
 21
1.00500008E+02
  0
LINE
  8
0
 62
7
 10
-2.77000114E+02
 20
9.52321930E+01
 11
-2.73000053E+02
 21
9.52321930E+01
  0
LINE
  8
0
 62
7
 10
-2.76999992E+02
 20
9.05000305E+01
 11
-2.76999992E+02
 21
9.52322006E+01
  0
LINE
  8
0
 62
7
 10
-2.79999967E+02
 20
1.09499989E+02
 11
-2.76999978E+02
 21
1.10499973E+02
  0
LINE
  8
0
 62
2
 10
-2.79033614E+02
 20
1.04313406E+02
 11
-2.73000032E+02
 21
9.52322375E+01
  0
LINE
  8
0
 62
2
 10
-2.79033592E+02
 20
9.66863832E+01
 11
-2.72999849E+02
 21
1.05767793E+02
  0
LINE
  8
0
 62
7
 10
-2.77000114E+02
 20
9.05000229E+01
 11
-2.70000053E+02
 21
9.05000229E+01
  0
LINE
  8
0
 62
7
 10
-2.76999992E+02
 20
1.10500046E+02
 11
-2.76999992E+02
 21
1.05767868E+02
  0
LINE
  8
0
 62
7
 10
-2.73000053E+02
 20
1.05767868E+02
 11
-2.73000053E+02
 21
1.00500008E+02
  0
LINE
  8
0
  6
CENTER
 62
2
 10
4.10000534E+01
 20
1.40185059E+02
 11
4.10000534E+01
 21
1.28299774E+02
  0
LINE
  8
0
 62
7
 10
-2.82999962E+02
 20
1.08679993E+02
 11
-2.79999992E+02
 21
1.08679993E+02
  0
LINE
  8
0
 62
7
 10
-2.82999962E+02
 20
9.23199997E+01
 11
-2.79999992E+02
 21
9.23199997E+01
  0
LINE
  8
0
  6
CENTER
 62
2
 10
-9.40000839E+01
 20
1.40185059E+02
 11
-9.40000839E+01
 21
1.28299774E+02
  0
LINE
  8
0
 62
7
 10
-2.70000023E+02
 20
8.40000305E+01
 11
-2.70000023E+02
 21
1.16999985E+02
  0
LINE
  8
0
 62
7
 10
-2.56500023E+02
 20
8.15000076E+01
 11
-2.55000023E+02
 21
8.15000076E+01
  0
LINE
  8
0
 62
7
 10
-2.69500023E+02
 20
8.35000000E+01
 11
-2.64991478E+02
 21
8.35000000E+01
  0
LINE
  8
0
 62
7
 10
-2.65000023E+02
 20
8.35000000E+01
 11
-2.65000023E+02
 21
8.34914551E+01
  0
LINE
  8
0
 62
7
 10
-2.64758697E+02
 20
8.32415180E+01
 11
-2.56999998E+02
 21
8.29705783E+01
  0
LINE
  8
0
 62
7
 10
5.89999771E+01
 20
1.36950073E+02
 11
5.89999771E+01
 21
6.40499268E+01
  0
LINE
  8
0
 62
7
 10
2.69999771E+01
 20
1.38000000E+02
 11
2.69999771E+01
 21
6.30000000E+01
  0
LINE
  8
0
  6
CENTER
 62
2
 10
6.32292252E+01
 20
7.24999924E+01
 11
-1.15248100E+02
 21
7.24999924E+01
  0
LINE
  8
0
 62
7
 10
2.69999771E+01
 20
7.61000366E+01
 11
-8.00000229E+01
 21
7.61000366E+01
  0
LINE
  8
0
 62
7
 10
5.85087194E+01
 20
6.35500374E+01
 11
2.70000146E+01
 21
6.30000510E+01
  0
LINE
  8
0
 62
7
 10
-2.57000023E+02
 20
1.19000000E+02
 11
-2.57000023E+02
 21
8.20000000E+01
  0
LINE
  8
0
 62
7
 10
5.49999924E+01
 20
6.30000000E+01
 11
2.69999771E+01
 21
6.30000000E+01
  0
LINE
  8
0
 62
7
 10
5.49999924E+01
 20
6.34887695E+01
 11
5.49999924E+01
 21
6.30000000E+01
  0
LINE
  8
0
 62
7
 10
-2.65000023E+02
 20
8.35000000E+01
 11
-2.65000023E+02
 21
1.17500015E+02
  0
LINE
  8
0
 62
7
 10
2.69999771E+01
 20
6.89000244E+01
 11
-8.00000229E+01
 21
6.89000244E+01
  0
LINE
  8
0
 62
7
 10
2.69999771E+01
 20
6.65000229E+01
 11
-8.00000229E+01
 21
6.65000229E+01
  0
LINE
  8
0
 62
7
 10
6.04999924E+01
 20
8.15000076E+01
 11
5.89999924E+01
 21
8.15000076E+01
  0
LINE
  8
0
 62
7
 10
-8.00000229E+01
 20
1.38000000E+02
 11
-8.00000229E+01
 21
6.30000000E+01
  0
LINE
  8
0
 62
7
 10
-1.11508724E+02
 20
6.35500467E+01
 11
-8.00000339E+01
 21
6.30000605E+01
  0
LINE
  8
0
 62
7
 10
6.09999924E+01
 20
1.19000000E+02
 11
6.09999924E+01
 21
8.20000000E+01
  0
LINE
  8
0
 62
7
 10
-1.08000023E+02
 20
6.30000000E+01
 11
-8.00000229E+01
 21
6.30000000E+01
  0
LINE
  8
0
 62
7
 10
-1.08000023E+02
 20
6.34887695E+01
 11
-1.08000023E+02
 21
6.30000000E+01
  0
LINE
  8
0
 62
7
 10
2.69999771E+01
 20
1.32099976E+02
 11
1.99999619E+01
 21
1.32099976E+02
  0
LINE
  8
0
 62
7
 10
5.49999924E+01
 20
1.38000000E+02
 11
2.69999771E+01
 21
1.38000000E+02
  0
LINE
  8
0
 62
7
 10
5.49999924E+01
 20
1.37511215E+02
 11
5.49999924E+01
 21
1.38000000E+02
  0
LINE
  8
0
 62
7
 10
6.04999924E+01
 20
1.19500000E+02
 11
5.89999924E+01
 21
1.19500000E+02
  0
LINE
  8
0
 62
7
 10
-1.11508759E+02
 20
1.37449953E+02
 11
-8.00000387E+01
 21
1.37999940E+02
  0
LINE
  8
0
 62
7
 10
-1.08000023E+02
 20
1.38000000E+02
 11
-8.00000229E+01
 21
1.38000000E+02
  0
LINE
  8
0
 62
7
 10
2.69999771E+01
 20
1.34499969E+02
 11
2.09193690E+01
 21
1.34499969E+02
  0
LINE
  8
0
 62
7
 10
-2.56500023E+02
 20
1.19500000E+02
 11
-2.55000023E+02
 21
1.19500000E+02
  0
LINE
  8
0
 62
7
 10
-2.69500023E+02
 20
1.17500015E+02
 11
-2.64991478E+02
 21
1.17500015E+02
  0
LINE
  8
0
 62
7
 10
-2.65000023E+02
 20
1.17500015E+02
 11
-2.65000023E+02
 21
1.17508560E+02
  0
LINE
  8
0
 62
7
 10
-2.64758689E+02
 20
1.17758479E+02
 11
-2.56999990E+02
 21
1.18029419E+02
  0
LINE
  8
0
 62
7
 10
-1.08000023E+02
 20
1.37511215E+02
 11
-1.08000023E+02
 21
1.38000000E+02
  0
LINE
  8
0
 62
7
 10
5.85087244E+01
 20
1.37449971E+02
 11
2.70000348E+01
 21
1.37999957E+02
  0
LINE
  8
0
 62
7
 10
2.69999771E+01
 20
1.24899963E+02
 11
4.99996185E+00
 21
1.24899963E+02
  0
LINE
  8
0
  6
CENTER
 62
2
 10
6.32292252E+01
 20
1.28500015E+02
 11
-1.15248100E+02
 21
1.28500015E+02
  0
LINE
  8
0
 62
7
 10
-2.80000009E+02
 20
1.03622439E+02
 11
-2.77000008E+02
 21
1.05767545E+02
  0
LINE
  8
0
 62
7
 10
-2.79999983E+02
 20
9.73775585E+01
 11
-2.76999996E+02
 21
9.52319096E+01
  0
LINE
  8
0
 62
7
 10
-2.80000003E+02
 20
9.15000089E+01
 11
-2.77000011E+02
 21
9.05000340E+01
  0
LINE
  8
0
  6
CENTER
 62
2
 10
-3.22416832E+02
 20
1.00500000E+02
 11
6.94774246E+01
 21
1.00500000E+02
  0
LINE
  8
0
  6
CENTER
 62
2
 10
-1.33999992E+02
 20
1.33260193E+02
 11
-1.33999992E+02
 21
1.49048767E+02
  0
LINE
  8
0
 62
7
 10
-2.01536062E+02
 20
9.45001398E+01
 11
-1.98071962E+02
 21
1.00500146E+02
  0
LINE
  8
0
 62
7
 10
-2.08464186E+02
 20
9.44999692E+01
 11
-2.11928293E+02
 21
1.00499988E+02
  0
LINE
  8
0
 62
7
 10
-2.01535851E+02
 20
9.45000000E+01
 11
-2.08464073E+02
 21
9.45000000E+01
  0
LINE
  8
0
 62
7
 10
-2.06999962E+02
 20
9.93453064E+01
 11
-2.06999962E+02
 21
1.01654694E+02
  0
LINE
  8
0
 62
7
 10
-2.04999975E+02
 20
9.81906299E+01
 11
-2.06999962E+02
 21
9.93453239E+01
  0
LINE
  8
0
 62
7
 10
-2.02999916E+02
 20
9.93450744E+01
 11
-2.04999903E+02
 21
9.81903804E+01
  0
LINE
  8
0
 62
7
 10
-2.02999962E+02
 20
1.01654846E+02
 11
-2.02999962E+02
 21
9.93453064E+01
  0
LINE
  8
0
  6
CENTER
 62
2
 10
-2.04999992E+02
 20
1.11840088E+02
 11
-2.04999992E+02
 21
8.87922058E+01
  0
LINE
  8
0
 62
7
 10
-2.55000023E+02
 20
1.47500000E+02
 11
-2.55000023E+02
 21
5.35000000E+01
  0
LINE
  8
0
 62
7
 10
-2.01535851E+02
 20
1.06500000E+02
 11
-2.08464073E+02
 21
1.06500000E+02
  0
LINE
  8
0
  6
CENTER
 62
2
 10
-2.59881432E+02
 20
1.35500000E+02
 11
-1.06211662E+02
 21
1.35500000E+02
  0
LINE
  8
0
 62
7
 10
-2.02999917E+02
 20
1.01654830E+02
 11
-2.04999904E+02
 21
1.02809524E+02
  0
LINE
  8
0
 62
7
 10
-2.04999913E+02
 20
1.02809353E+02
 11
-2.06999875E+02
 21
1.01654675E+02
  0
LINE
  8
0
 62
7
 10
-2.08464298E+02
 20
1.06500093E+02
 11
-2.11928402E+02
 21
1.00500081E+02
  0
LINE
  8
0
 62
7
 10
-2.01536060E+02
 20
1.06499868E+02
 11
-1.98071983E+02
 21
1.00499902E+02
  0
LINE
  8
0
 62
7
 10
-2.19999992E+02
 20
1.31000000E+02
 11
-1.46999962E+02
 21
1.31000000E+02
  0
LINE
  8
0
 62
7
 10
-2.19999992E+02
 20
1.40000000E+02
 11
-1.46999962E+02
 21
1.40000000E+02
  0
LINE
  8
0
 62
7
 10
-1.11999992E+02
 20
1.47500000E+02
 11
-1.11999992E+02
 21
5.35000000E+01
  0
LINE
  8
0
 62
7
 10
-2.19999992E+02
 20
1.44000000E+02
 11
-1.46999992E+02
 21
1.44000000E+02
  0
LINE
  8
0
 62
7
 10
-1.46999962E+02
 20
1.47500000E+02
 11
-1.11999992E+02
 21
1.47500000E+02
  0
LINE
  8
0
 62
7
 10
-2.55000023E+02
 20
1.47500000E+02
 11
-2.19999992E+02
 21
1.47500000E+02
  0
LINE
  8
0
 62
7
 10
-2.19999992E+02
 20
1.47500000E+02
 11
-2.19999992E+02
 21
5.35000000E+01
  0
LINE
  8
0
 62
7
 10
-2.55000023E+02
 20
5.35000000E+01
 11
-2.19999992E+02
 21
5.35000000E+01
  0
LINE
  8
0
 62
7
 10
-1.46999962E+02
 20
5.35000000E+01
 11
-1.11999992E+02
 21
5.35000000E+01
  0
LINE
  8
0
 62
7
 10
-1.46999962E+02
 20
1.47500000E+02
 11
-1.46999962E+02
 21
5.35000000E+01
  0
LINE
  8
0
 62
7
 10
-2.19999992E+02
 20
5.70000000E+01
 11
-1.46999992E+02
 21
5.70000000E+01
  0
LINE
  8
0
 62
7
 10
-2.19999992E+02
 20
7.00000000E+01
 11
-1.46999962E+02
 21
7.00000000E+01
  0
LINE
  8
0
  6
CENTER
 62
2
 10
-2.59881432E+02
 20
6.55000000E+01
 11
-1.06211662E+02
 21
6.55000000E+01
  0
LINE
  8
0
 62
7
 10
-2.19999992E+02
 20
6.10000000E+01
 11
-1.46999962E+02
 21
6.10000000E+01
  0
ARC
  8
0
 62
7
 10
-2.81499992E+02
 20
1.00500000E+02
 40
9.99998474E+00
 50
3.28211647E+02
 51
0.00000000E+00
  0
ARC
  8
0
 62
7
 10
-2.81499992E+02
 20
1.00500000E+02
 40
9.99998474E+00
 50
0.00000000E+00
 51
3.17883527E+01
  0
ARC
  8
0
 62
7
 10
-2.56500023E+02
 20
8.20000000E+01
 40
5.00000000E-01
 50
1.79999977E+02
 51
2.69999974E+02
  0
ARC
  8
0
 62
7
 10
5.84999924E+01
 20
6.40499268E+01
 40
5.00000000E-01
 50
2.71000258E+02
 51
3.59999993E+02
  0
ARC
  8
0
 62
7
 10
-2.64750023E+02
 20
8.34914551E+01
 40
2.50000000E-01
 50
1.79999977E+02
 51
2.68001132E+02
  0
ARC
  8
0
 62
7
 10
-2.69500023E+02
 20
8.40000305E+01
 40
5.00000000E-01
 50
1.79999977E+02
 51
2.69999974E+02
  0
ARC
  8
0
 62
7
 10
6.04999924E+01
 20
1.19000000E+02
 40
5.00000000E-01
 50
5.46415133E-05
 51
9.00000369E+01
  0
ARC
  8
0
 62
7
 10
6.04999924E+01
 20
8.20000000E+01
 40
5.00000000E-01
 50
2.70000073E+02
 51
5.46415133E-05
  0
ARC
  8
0
 62
7
 10
-2.69500023E+02
 20
1.16999985E+02
 40
5.00000000E-01
 50
8.99999818E+01
 51
1.79999964E+02
  0
ARC
  8
0
 62
7
 10
-2.64750023E+02
 20
1.17508560E+02
 40
2.50000000E-01
 50
9.19988230E+01
 51
1.79999977E+02
  0
ARC
  8
0
 62
7
 10
-2.56500023E+02
 20
1.19000000E+02
 40
5.00000000E-01
 50
8.99999818E+01
 51
1.79999964E+02
  0
ARC
  8
0
 62
7
 10
5.84999924E+01
 20
1.36950073E+02
 40
5.00000000E-01
 50
3.59999952E+02
 51
8.89996869E+01
  0
CIRCLE
  8
0
 62
7
 10
-2.04999992E+02
 20
1.00500000E+02
 40
4.00000000E+00
  0
CIRCLE
  8
0
 62
7
 10
-2.04999992E+02
 20
1.00500000E+02
 40
8.00000000E+00
  0
CIRCLE
  8
0
 62
7
 10
-2.04999992E+02
 20
1.00500000E+02
 40
3.30000043E+00
  0
ARC
  8
0
 62
7
 10
-1.11499992E+02
 20
1.36950073E+02
 40
5.00000000E-01
 50
9.10002292E+01
 51
1.79999964E+02
  0
ARC
  8
0
 62
7
 10
-1.11499992E+02
 20
6.40499268E+01
 40
5.00000000E-01
 50
1.79999909E+02
 51
2.68999651E+02
  0
LINE
  8
0
 62
4
 10
-2.91999992E+02
 20
8.70000000E+01
 11
-2.91999992E+02
 21
1.14000000E+02
  0
LINE
  8
0
 62
4
 10
-3.02999992E+02
 20
8.70000000E+01
 11
-3.02999992E+02
 21
1.14000000E+02
  0
ARC
  8
0
 62
4
 10
-2.77205764E+02
 20
1.00500000E+02
 40
2.57942282E+01
 50
1.62412046E+02
 51
1.97587954E+02
  0
ARC
  8
0
 62
4
 10
-3.17794221E+02
 20
1.00500000E+02
 40
2.57942282E+01
 50
3.42412046E+02
 51
1.75879541E+01
  0
ARC
  8
0
 62
4
 10
-2.98900714E+02
 20
1.12191343E+02
 40
6.90072132E+00
 50
3.25615752E+02
 51
3.43842480E+01
  0
ARC
  8
0
 62
4
 10
-2.96099271E+02
 20
1.12191343E+02
 40
6.90072132E+00
 50
1.45615752E+02
 51
2.14384248E+02
  0
LINE
  8
0
 62
4
 10
-2.93205764E+02
 20
1.16088457E+02
 11
-2.91999992E+02
 21
1.14000000E+02
  0
LINE
  8
0
 62
4
 10
-3.01794221E+02
 20
1.16088457E+02
 11
-3.02999992E+02
 21
1.14000000E+02
  0
LINE
  8
0
 62
4
 10
-3.01794221E+02
 20
1.08294229E+02
 11
-2.93205764E+02
 21
1.08294229E+02
  0
LINE
  8
0
 62
4
 10
-3.01794221E+02
 20
1.16088457E+02
 11
-2.93205764E+02
 21
1.16088457E+02
  0
ARC
  8
0
 62
4
 10
-2.98900714E+02
 20
8.88086570E+01
 40
6.90072132E+00
 50
3.25615752E+02
 51
3.43842480E+01
  0
ARC
  8
0
 62
4
 10
-2.96099271E+02
 20
8.88086570E+01
 40
6.90072132E+00
 50
1.45615752E+02
 51
2.14384248E+02
  0
LINE
  8
0
 62
4
 10
-3.02999992E+02
 20
8.70000000E+01
 11
-3.01794221E+02
 21
8.49115427E+01
  0
LINE
  8
0
 62
4
 10
-2.91999992E+02
 20
8.70000000E+01
 11
-2.93205764E+02
 21
8.49115427E+01
  0
LINE
  8
0
 62
4
 10
-3.01794221E+02
 20
9.27057714E+01
 11
-2.93205764E+02
 21
9.27057714E+01
  0
LINE
  8
0
 62
4
 10
-3.01794221E+02
 20
8.49115427E+01
 11
-2.93205764E+02
 21
8.49115427E+01
  0
LINE
  8
0
 62
7
 10
-2.91999992E+02
 20
1.09500000E+02
 11
-2.82999962E+02
 21
1.09500000E+02
  0
LINE
  8
0
 62
2
 10
-2.91999992E+02
 20
1.08679993E+02
 11
-2.82999962E+02
 21
1.08679993E+02
  0
LINE
  8
0
 62
7
 10
-2.91999992E+02
 20
9.15000076E+01
 11
-2.82999962E+02
 21
9.15000076E+01
  0
LINE
  8
0
 62
2
 10
-2.91999992E+02
 20
9.23199997E+01
 11
-2.82999962E+02
 21
9.23199997E+01
  0
LINE
  8
0
 62
4
 10
-3.90000229E+01
 20
1.37852058E+02
 11
-3.90000229E+01
 21
1.49176918E+02
  0
LINE
  8
0
 62
6
 10
-1.82679263E+01
 20
1.39352059E+02
 11
-2.17320279E+01
 21
1.33352059E+02
  0
LINE
  8
0
 62
6
 10
-3.07320890E+01
 20
1.33352058E+02
 11
-2.72679874E+01
 21
1.39352058E+02
  0
LINE
  8
0
 62
4
 10
-9.99997711E+00
 20
1.37852058E+02
 11
-1.91339517E+01
 21
1.37852058E+02
  0
LINE
  8
0
  6
CENTER
 62
6
 10
2.50000229E+01
 20
1.36352058E+02
 11
-2.19999771E+01
 21
1.36352058E+02
  0
LINE
  8
0
 62
4
 10
-9.99997711E+00
 20
1.34852058E+02
 11
-2.08660025E+01
 21
1.34852058E+02
  0
LINE
  8
0
 62
4
 10
-3.90000229E+01
 20
1.34852058E+02
 11
-2.98660635E+01
 21
1.34852058E+02
  0
LINE
  8
0
  6
CENTER
 62
6
 10
-7.40000381E+01
 20
1.36352058E+02
 11
-2.70000381E+01
 21
1.36352058E+02
  0
LINE
  8
0
 62
4
 10
-4.55000381E+01
 20
1.37852058E+02
 11
-2.81340127E+01
 21
1.37852058E+02
  0
LINE
  8
0
 62
4
 10
-3.90000229E+01
 20
1.34499969E+02
 11
-3.90000229E+01
 21
1.34911070E+02
  0
LINE
  8
0
 62
4
 10
-4.55000229E+01
 20
1.38872205E+02
 11
-4.55000229E+01
 21
1.34911070E+02
  0
LINE
  8
0
 62
4
 10
-6.90000229E+01
 20
1.49176918E+02
 11
-6.90000229E+01
 21
1.38872205E+02
  0
LINE
  8
0
  6
CENTER
 62
6
 10
-4.93500229E+01
 20
1.41568466E+02
 11
-5.86500229E+01
 21
1.41568466E+02
  0
LINE
  8
0
  6
CENTER
 62
6
 10
-5.40000229E+01
 20
1.46218466E+02
 11
-5.40000229E+01
 21
1.36918466E+02
  0
LINE
  8
0
 62
4
 10
1.99999619E+01
 20
1.49176918E+02
 11
1.99999619E+01
 21
1.30653532E+02
  0
LINE
  8
0
  6
CENTER
 62
6
 10
-1.00000381E+01
 20
1.22516172E+02
 11
-3.00003815E+00
 21
1.22516172E+02
  0
LINE
  8
0
  6
CENTER
 62
6
 10
-2.00003815E+00
 20
1.22516172E+02
 11
4.99996185E+00
 21
1.22516172E+02
  0
LINE
  8
0
  6
CENTER
 62
6
 10
1.49996185E+00
 20
1.19016172E+02
 11
1.49996185E+00
 21
1.26016172E+02
  0
LINE
  8
0
  6
CENTER
 62
6
 10
-6.50003815E+00
 20
1.19016172E+02
 11
-6.50003815E+00
 21
1.26016172E+02
  0
LINE
  8
0
 62
4
 10
-1.00000381E+01
 20
1.17675471E+02
 11
-1.00000381E+01
 21
1.49176918E+02
  0
LINE
  8
0
 62
4
 10
4.99996185E+00
 20
1.45994043E+02
 11
4.99996185E+00
 21
1.17675471E+02
  0
LINE
  8
0
  6
CENTER
 62
6
 10
1.60745587E+01
 20
1.41714289E+02
 11
8.92536497E+00
 21
1.41714289E+02
  0
LINE
  8
0
  6
CENTER
 62
6
 10
1.24999619E+01
 20
1.45288886E+02
 11
1.24999619E+01
 21
1.38139692E+02
  0
LINE
  8
0
 62
4
 10
-6.90000229E+01
 20
1.49176918E+02
 11
-3.90000229E+01
 21
1.49176918E+02
  0
LINE
  8
0
 62
4
 10
-1.00000381E+01
 20
1.49176918E+02
 11
1.99999619E+01
 21
1.49176918E+02
  0
LINE
  8
0
 62
4
 10
-1.00000381E+01
 20
1.17675471E+02
 11
4.99996185E+00
 21
1.17675471E+02
  0
LINE
  8
0
 62
4
 10
-1.00000382E+01
 20
1.45994043E+02
 11
1.99999618E+01
 21
1.45994043E+02
  0
LINE
  8
0
 62
4
 10
-1.00000382E+01
 20
1.44603467E+02
 11
4.99996185E+00
 21
1.44603467E+02
  0
LINE
  8
0
 62
4
 10
-9.00003816E+00
 20
1.28222511E+02
 11
3.99996184E+00
 21
1.28222511E+02
  0
LINE
  8
0
 62
4
 10
4.99996185E+00
 20
1.37910063E+02
 11
1.99999618E+01
 21
1.37910063E+02
  0
LINE
  8
0
 62
4
 10
4.99996185E+00
 20
1.37786456E+02
 11
1.99999618E+01
 21
1.37786456E+02
  0
LINE
  8
0
 62
4
 10
4.99996184E+00
 20
1.30653532E+02
 11
1.99999619E+01
 21
1.30653532E+02
  0
POLYLINE
  8
0
 62
4
 66
1
  0
VERTEX
  8
0
 62
4
 10
1.02499619E+01
 20
1.41714289E+02
  0
VERTEX
  8
0
 62
4
 10
1.02585238E+01
 20
1.41527786E+02
  0
VERTEX
  8
0
 62
4
 10
1.02841445E+01
 20
1.41342703E+02
  0
VERTEX
  8
0
 62
4
 10
1.03266288E+01
 20
1.41160448E+02
  0
VERTEX
  8
0
 62
4
 10
1.03856535E+01
 20
1.40982408E+02
  0
VERTEX
  8
0
 62
4
 10
1.04607694E+01
 20
1.40809938E+02
  0
VERTEX
  8
0
 62
4
 10
1.05514047E+01
 20
1.40644350E+02
  0
VERTEX
  8
0
 62
4
 10
1.06568698E+01
 20
1.40486906E+02
  0
VERTEX
  8
0
 62
4
 10
1.07763619E+01
 20
1.40338802E+02
  0
VERTEX
  8
0
 62
4
 10
1.09089716E+01
 20
1.40201167E+02
  0
VERTEX
  8
0
 62
4
 10
1.10536898E+01
 20
1.40075048E+02
  0
VERTEX
  8
0
 62
4
 10
1.12094149E+01
 20
1.39961404E+02
  0
VERTEX
  8
0
 62
4
 10
1.13749619E+01
 20
1.39861101E+02
  0
VERTEX
  8
0
 62
4
 10
1.15490708E+01
 20
1.39774902E+02
  0
VERTEX
  8
0
 62
4
 10
1.17304166E+01
 20
1.39703462E+02
  0
VERTEX
  8
0
 62
4
 10
1.19176190E+01
 20
1.39647326E+02
  0
VERTEX
  8
0
 62
4
 10
1.21092535E+01
 20
1.39606921E+02
  0
VERTEX
  8
0
 62
4
 10
1.23038615E+01
 20
1.39582555E+02
  0
VERTEX
  8
0
 62
4
 10
1.24999619E+01
 20
1.39574412E+02
  0
VERTEX
  8
0
 62
4
 10
1.26960623E+01
 20
1.39582555E+02
  0
VERTEX
  8
0
 62
4
 10
1.28906703E+01
 20
1.39606921E+02
  0
VERTEX
  8
0
 62
4
 10
1.30823047E+01
 20
1.39647326E+02
  0
VERTEX
  8
0
 62
4
 10
1.32695072E+01
 20
1.39703462E+02
  0
VERTEX
  8
0
 62
4
 10
1.34508530E+01
 20
1.39774902E+02
  0
VERTEX
  8
0
 62
4
 10
1.36249619E+01
 20
1.39861101E+02
  0
VERTEX
  8
0
 62
4
 10
1.37905089E+01
 20
1.39961404E+02
  0
VERTEX
  8
0
 62
4
 10
1.39462340E+01
 20
1.40075048E+02
  0
VERTEX
  8
0
 62
4
 10
1.40909522E+01
 20
1.40201167E+02
  0
VERTEX
  8
0
 62
4
 10
1.42235619E+01
 20
1.40338802E+02
  0
VERTEX
  8
0
 62
4
 10
1.43430540E+01
 20
1.40486906E+02
  0
VERTEX
  8
0
 62
4
 10
1.44485191E+01
 20
1.40644350E+02
  0
VERTEX
  8
0
 62
4
 10
1.45391544E+01
 20
1.40809938E+02
  0
VERTEX
  8
0
 62
4
 10
1.46142703E+01
 20
1.40982408E+02
  0
VERTEX
  8
0
 62
4
 10
1.46732950E+01
 20
1.41160448E+02
  0
VERTEX
  8
0
 62
4
 10
1.47157793E+01
 20
1.41342703E+02
  0
VERTEX
  8
0
 62
4
 10
1.47414000E+01
 20
1.41527786E+02
  0
VERTEX
  8
0
 62
4
 10
1.47499619E+01
 20
1.41714289E+02
  0
VERTEX
  8
0
 62
4
 10
1.47414000E+01
 20
1.41900792E+02
  0
VERTEX
  8
0
 62
4
 10
1.47157793E+01
 20
1.42085875E+02
  0
VERTEX
  8
0
 62
4
 10
1.46732950E+01
 20
1.42268130E+02
  0
VERTEX
  8
0
 62
4
 10
1.46142703E+01
 20
1.42446170E+02
  0
VERTEX
  8
0
 62
4
 10
1.45391544E+01
 20
1.42618640E+02
  0
VERTEX
  8
0
 62
4
 10
1.44485191E+01
 20
1.42784228E+02
  0
VERTEX
  8
0
 62
4
 10
1.43430540E+01
 20
1.42941672E+02
  0
VERTEX
  8
0
 62
4
 10
1.42235619E+01
 20
1.43089776E+02
  0
VERTEX
  8
0
 62
4
 10
1.40909522E+01
 20
1.43227411E+02
  0
VERTEX
  8
0
 62
4
 10
1.39462340E+01
 20
1.43353530E+02
  0
VERTEX
  8
0
 62
4
 10
1.37905089E+01
 20
1.43467174E+02
  0
VERTEX
  8
0
 62
4
 10
1.36249619E+01
 20
1.43567477E+02
  0
VERTEX
  8
0
 62
4
 10
1.34508530E+01
 20
1.43653676E+02
  0
VERTEX
  8
0
 62
4
 10
1.32695072E+01
 20
1.43725116E+02
  0
VERTEX
  8
0
 62
4
 10
1.30823048E+01
 20
1.43781252E+02
  0
VERTEX
  8
0
 62
4
 10
1.28906703E+01
 20
1.43821657E+02
  0
VERTEX
  8
0
 62
4
 10
1.26960623E+01
 20
1.43846023E+02
  0
VERTEX
  8
0
 62
4
 10
1.24999619E+01
 20
1.43854166E+02
  0
VERTEX
  8
0
 62
4
 10
1.23038615E+01
 20
1.43846023E+02
  0
VERTEX
  8
0
 62
4
 10
1.21092535E+01
 20
1.43821657E+02
  0
VERTEX
  8
0
 62
4
 10
1.19176191E+01
 20
1.43781252E+02
  0
VERTEX
  8
0
 62
4
 10
1.17304166E+01
 20
1.43725116E+02
  0
VERTEX
  8
0
 62
4
 10
1.15490708E+01
 20
1.43653676E+02
  0
VERTEX
  8
0
 62
4
 10
1.13749619E+01
 20
1.43567477E+02
  0
VERTEX
  8
0
 62
4
 10
1.12094149E+01
 20
1.43467174E+02
  0
VERTEX
  8
0
 62
4
 10
1.10536898E+01
 20
1.43353530E+02
  0
VERTEX
  8
0
 62
4
 10
1.09089716E+01
 20
1.43227411E+02
  0
VERTEX
  8
0
 62
4
 10
1.07763619E+01
 20
1.43089776E+02
  0
VERTEX
  8
0
 62
4
 10
1.06568698E+01
 20
1.42941672E+02
  0
VERTEX
  8
0
 62
4
 10
1.05514047E+01
 20
1.42784228E+02
  0
VERTEX
  8
0
 62
4
 10
1.04607694E+01
 20
1.42618640E+02
  0
VERTEX
  8
0
 62
4
 10
1.03856535E+01
 20
1.42446170E+02
  0
VERTEX
  8
0
 62
4
 10
1.03266288E+01
 20
1.42268130E+02
  0
VERTEX
  8
0
 62
4
 10
1.02841445E+01
 20
1.42085875E+02
  0
VERTEX
  8
0
 62
4
 10
1.02585238E+01
 20
1.41900792E+02
  0
VERTEX
  8
0
 62
4
 10
1.02499619E+01
 20
1.41714289E+02
  0
SEQEND
  8
0
  0
POLYLINE
  8
0
 62
4
 66
1
  0
VERTEX
  8
0
 62
4
 10
3.49996185E+00
 20
1.22516172E+02
  0
VERTEX
  8
0
 62
4
 10
3.49191044E+00
 20
1.22686676E+02
  0
VERTEX
  8
0
 62
4
 10
3.46782103E+00
 20
1.22855807E+02
  0
VERTEX
  8
0
 62
4
 10
3.42788757E+00
 20
1.23022204E+02
  0
VERTEX
  8
0
 62
4
 10
3.37243159E+00
 20
1.23184527E+02
  0
VERTEX
  8
0
 62
4
 10
3.30189959E+00
 20
1.23341468E+02
  0
VERTEX
  8
0
 62
4
 10
3.21685944E+00
 20
1.23491764E+02
  0
VERTEX
  8
0
 62
4
 10
3.11799584E+00
 20
1.23634206E+02
  0
VERTEX
  8
0
 62
4
 10
3.00610478E+00
 20
1.23767646E+02
  0
VERTEX
  8
0
 62
4
 10
2.88208715E+00
 20
1.23891010E+02
  0
VERTEX
  8
0
 62
4
 10
2.74694146E+00
 20
1.24003304E+02
  0
VERTEX
  8
0
 62
4
 10
2.60175581E+00
 20
1.24103625E+02
  0
VERTEX
  8
0
 62
4
 10
2.44769918E+00
 20
1.24191164E+02
  0
VERTEX
  8
0
 62
4
 10
2.28601192E+00
 20
1.24265218E+02
  0
VERTEX
  8
0
 62
4
 10
2.11799584E+00
 20
1.24325189E+02
  0
VERTEX
  8
0
 62
4
 10
1.94500372E+00
 20
1.24370595E+02
  0
VERTEX
  8
0
 62
4
 10
1.76842838E+00
 20
1.24401070E+02
  0
VERTEX
  8
0
 62
4
 10
1.58969151E+00
 20
1.24416370E+02
  0
VERTEX
  8
0
 62
4
 10
1.41023219E+00
 20
1.24416370E+02
  0
VERTEX
  8
0
 62
4
 10
1.23149532E+00
 20
1.24401070E+02
  0
VERTEX
  8
0
 62
4
 10
1.05491999E+00
 20
1.24370595E+02
  0
VERTEX
  8
0
 62
4
 10
8.81927865E-01
 20
1.24325189E+02
  0
VERTEX
  8
0
 62
4
 10
7.13911791E-01
 20
1.24265218E+02
  0
VERTEX
  8
0
 62
4
 10
5.52224529E-01
 20
1.24191164E+02
  0
VERTEX
  8
0
 62
4
 10
3.98167891E-01
 20
1.24103625E+02
  0
VERTEX
  8
0
 62
4
 10
2.52982250E-01
 20
1.24003304E+02
  0
VERTEX
  8
0
 62
4
 10
1.17836556E-01
 20
1.23891010E+02
  0
VERTEX
  8
0
 62
4
 10
-6.18107836E-03
 20
1.23767646E+02
  0
VERTEX
  8
0
 62
4
 10
-1.18072135E-01
 20
1.23634206E+02
  0
VERTEX
  8
0
 62
4
 10
-2.16935734E-01
 20
1.23491764E+02
  0
VERTEX
  8
0
 62
4
 10
-3.01975883E-01
 20
1.23341468E+02
  0
VERTEX
  8
0
 62
4
 10
-3.72507889E-01
 20
1.23184527E+02
  0
VERTEX
  8
0
 62
4
 10
-4.27963870E-01
 20
1.23022204E+02
  0
VERTEX
  8
0
 62
4
 10
-4.67897326E-01
 20
1.22855807E+02
  0
VERTEX
  8
0
 62
4
 10
-4.91986737E-01
 20
1.22686676E+02
  0
VERTEX
  8
0
 62
4
 10
-5.00038150E-01
 20
1.22516172E+02
  0
SEQEND
  8
0
  0
POLYLINE
  8
0
 62
4
 66
1
  0
VERTEX
  8
0
 62
4
 10
3.49996185E+00
 20
1.21640831E+02
  0
VERTEX
  8
0
 62
4
 10
3.49235125E+00
 20
1.21806611E+02
  0
VERTEX
  8
0
 62
4
 10
3.46957736E+00
 20
1.21971129E+02
  0
VERTEX
  8
0
 62
4
 10
3.43181350E+00
 20
1.22133134E+02
  0
VERTEX
  8
0
 62
4
 10
3.37934709E+00
 20
1.22291392E+02
  0
VERTEX
  8
0
 62
4
 10
3.31257742E+00
 20
1.22444699E+02
  0
VERTEX
  8
0
 62
4
 10
3.23201266E+00
 20
1.22591888E+02
  0
VERTEX
  8
0
 62
4
 10
3.13826594E+00
 20
1.22731838E+02
  0
VERTEX
  8
0
 62
4
 10
3.03205074E+00
 20
1.22863486E+02
  0
VERTEX
  8
0
 62
4
 10
2.91417541E+00
 20
1.22985828E+02
  0
VERTEX
  8
0
 62
4
 10
2.78553707E+00
 20
1.23097934E+02
  0
VERTEX
  8
0
 62
4
 10
2.64711472E+00
 20
1.23198951E+02
  0
VERTEX
  8
0
 62
4
 10
2.49996185E+00
 20
1.23288109E+02
  0
VERTEX
  8
0
 62
4
 10
2.34519837E+00
 20
1.23364731E+02
  0
VERTEX
  8
0
 62
4
 10
2.18400214E+00
 20
1.23428233E+02
  0
VERTEX
  8
0
 62
4
 10
2.01759994E+00
 20
1.23478131E+02
  0
VERTEX
  8
0
 62
4
 10
1.84725820E+00
 20
1.23514047E+02
  0
VERTEX
  8
0
 62
4
 10
1.67427333E+00
 20
1.23535706E+02
  0
VERTEX
  8
0
 62
4
 10
1.49996185E+00
 20
1.23542944E+02
  0
VERTEX
  8
0
 62
4
 10
1.32565036E+00
 20
1.23535706E+02
  0
VERTEX
  8
0
 62
4
 10
1.15266549E+00
 20
1.23514047E+02
  0
VERTEX
  8
0
 62
4
 10
9.82323758E-01
 20
1.23478131E+02
  0
VERTEX
  8
0
 62
4
 10
8.15921562E-01
 20
1.23428233E+02
  0
VERTEX
  8
0
 62
4
 10
6.54725325E-01
 20
1.23364731E+02
  0
VERTEX
  8
0
 62
4
 10
4.99961848E-01
 20
1.23288109E+02
  0
VERTEX
  8
0
 62
4
 10
3.52808976E-01
 20
1.23198951E+02
  0
VERTEX
  8
0
 62
4
 10
2.14386629E-01
 20
1.23097934E+02
  0
VERTEX
  8
0
 62
4
 10
8.57482861E-02
 20
1.22985828E+02
  0
VERTEX
  8
0
 62
4
 10
-3.21270376E-02
 20
1.22863486E+02
  0
VERTEX
  8
0
 62
4
 10
-1.38342240E-01
 20
1.22731838E+02
  0
VERTEX
  8
0
 62
4
 10
-2.32088959E-01
 20
1.22591888E+02
  0
VERTEX
  8
0
 62
4
 10
-3.12653725E-01
 20
1.22444699E+02
  0
VERTEX
  8
0
 62
4
 10
-3.79423392E-01
 20
1.22291392E+02
  0
VERTEX
  8
0
 62
4
 10
-4.31889803E-01
 20
1.22133134E+02
  0
VERTEX
  8
0
 62
4
 10
-4.69653656E-01
 20
1.21971129E+02
  0
VERTEX
  8
0
 62
4
 10
-4.92427546E-01
 20
1.21806611E+02
  0
VERTEX
  8
0
 62
4
 10
-5.00038150E-01
 20
1.21640831E+02
  0
VERTEX
  8
0
 62
4
 10
-4.92427546E-01
 20
1.21475051E+02
  0
VERTEX
  8
0
 62
4
 10
-4.69653656E-01
 20
1.21310533E+02
  0
VERTEX
  8
0
 62
4
 10
-4.31889802E-01
 20
1.21148528E+02
  0
VERTEX
  8
0
 62
4
 10
-3.79423390E-01
 20
1.20990270E+02
  0
VERTEX
  8
0
 62
4
 10
-3.12653723E-01
 20
1.20836963E+02
  0
VERTEX
  8
0
 62
4
 10
-2.32088956E-01
 20
1.20689774E+02
  0
VERTEX
  8
0
 62
4
 10
-1.38342237E-01
 20
1.20549824E+02
  0
VERTEX
  8
0
 62
4
 10
-3.21270340E-02
 20
1.20418176E+02
  0
VERTEX
  8
0
 62
4
 10
8.57482901E-02
 20
1.20295834E+02
  0
VERTEX
  8
0
 62
4
 10
2.14386633E-01
 20
1.20183728E+02
  0
VERTEX
  8
0
 62
4
 10
3.52808980E-01
 20
1.20082711E+02
  0
VERTEX
  8
0
 62
4
 10
4.99961853E-01
 20
1.19993553E+02
  0
VERTEX
  8
0
 62
4
 10
6.54725330E-01
 20
1.19916931E+02
  0
VERTEX
  8
0
 62
4
 10
8.15921567E-01
 20
1.19853429E+02
  0
VERTEX
  8
0
 62
4
 10
9.82323764E-01
 20
1.19803531E+02
  0
VERTEX
  8
0
 62
4
 10
1.15266550E+00
 20
1.19767615E+02
  0
VERTEX
  8
0
 62
4
 10
1.32565037E+00
 20
1.19745956E+02
  0
VERTEX
  8
0
 62
4
 10
1.49996185E+00
 20
1.19738718E+02
  0
VERTEX
  8
0
 62
4
 10
1.67427334E+00
 20
1.19745956E+02
  0
VERTEX
  8
0
 62
4
 10
1.84725821E+00
 20
1.19767615E+02
  0
VERTEX
  8
0
 62
4
 10
2.01759994E+00
 20
1.19803531E+02
  0
VERTEX
  8
0
 62
4
 10
2.18400214E+00
 20
1.19853429E+02
  0
VERTEX
  8
0
 62
4
 10
2.34519838E+00
 20
1.19916931E+02
  0
VERTEX
  8
0
 62
4
 10
2.49996185E+00
 20
1.19993553E+02
  0
VERTEX
  8
0
 62
4
 10
2.64711473E+00
 20
1.20082711E+02
  0
VERTEX
  8
0
 62
4
 10
2.78553707E+00
 20
1.20183728E+02
  0
VERTEX
  8
0
 62
4
 10
2.91417542E+00
 20
1.20295834E+02
  0
VERTEX
  8
0
 62
4
 10
3.03205074E+00
 20
1.20418176E+02
  0
VERTEX
  8
0
 62
4
 10
3.13826594E+00
 20
1.20549824E+02
  0
VERTEX
  8
0
 62
4
 10
3.23201266E+00
 20
1.20689774E+02
  0
VERTEX
  8
0
 62
4
 10
3.31257743E+00
 20
1.20836963E+02
  0
VERTEX
  8
0
 62
4
 10
3.37934709E+00
 20
1.20990270E+02
  0
VERTEX
  8
0
 62
4
 10
3.43181350E+00
 20
1.21148528E+02
  0
VERTEX
  8
0
 62
4
 10
3.46957736E+00
 20
1.21310533E+02
  0
VERTEX
  8
0
 62
4
 10
3.49235125E+00
 20
1.21475051E+02
  0
VERTEX
  8
0
 62
4
 10
3.49996185E+00
 20
1.21640831E+02
  0
SEQEND
  8
0
  0
LINE
  8
0
 62
4
 10
-5.00038147E-01
 20
1.21640831E+02
 11
-5.00038147E-01
 21
1.22516172E+02
  0
LINE
  8
0
 62
4
 10
3.49996185E+00
 20
1.21640831E+02
 11
3.49996185E+00
 21
1.22516172E+02
  0
POLYLINE
  8
0
 62
6
 66
1
  0
VERTEX
  8
0
 62
6
 10
-3.81500000E-05
 20
1.21640831E+02
  0
VERTEX
  8
0
 62
6
 10
5.66980242E-03
 20
1.21516496E+02
  0
VERTEX
  8
0
 62
6
 10
2.27502196E-02
 20
1.21393107E+02
  0
VERTEX
  8
0
 62
6
 10
5.10731093E-02
 20
1.21271604E+02
  0
VERTEX
  8
0
 62
6
 10
9.04229171E-02
 20
1.21152910E+02
  0
VERTEX
  8
0
 62
6
 10
1.40500167E-01
 20
1.21037930E+02
  0
VERTEX
  8
0
 62
6
 10
2.00923742E-01
 20
1.20927539E+02
  0
VERTEX
  8
0
 62
6
 10
2.71233781E-01
 20
1.20822576E+02
  0
VERTEX
  8
0
 62
6
 10
3.50895182E-01
 20
1.20723840E+02
  0
VERTEX
  8
0
 62
6
 10
4.39301675E-01
 20
1.20632083E+02
  0
VERTEX
  8
0
 62
6
 10
5.35780432E-01
 20
1.20548004E+02
  0
VERTEX
  8
0
 62
6
 10
6.39597192E-01
 20
1.20472241E+02
  0
VERTEX
  8
0
 62
6
 10
7.49961846E-01
 20
1.20405372E+02
  0
VERTEX
  8
0
 62
6
 10
8.66034453E-01
 20
1.20347906E+02
  0
VERTEX
  8
0
 62
6
 10
9.86931631E-01
 20
1.20300280E+02
  0
VERTEX
  8
0
 62
6
 10
1.11173328E+00
 20
1.20262856E+02
  0
VERTEX
  8
0
 62
6
 10
1.23948958E+00
 20
1.20235919E+02
  0
VERTEX
  8
0
 62
6
 10
1.36922823E+00
 20
1.20219675E+02
  0
VERTEX
  8
0
 62
6
 10
1.49996185E+00
 20
1.20214246E+02
  0
VERTEX
  8
0
 62
6
 10
1.63069546E+00
 20
1.20219675E+02
  0
VERTEX
  8
0
 62
6
 10
1.76043411E+00
 20
1.20235919E+02
  0
VERTEX
  8
0
 62
6
 10
1.88819041E+00
 20
1.20262856E+02
  0
VERTEX
  8
0
 62
6
 10
2.01299206E+00
 20
1.20300280E+02
  0
VERTEX
  8
0
 62
6
 10
2.13388924E+00
 20
1.20347906E+02
  0
VERTEX
  8
0
 62
6
 10
2.24996185E+00
 20
1.20405372E+02
  0
VERTEX
  8
0
 62
6
 10
2.36032650E+00
 20
1.20472241E+02
  0
VERTEX
  8
0
 62
6
 10
2.46414326E+00
 20
1.20548004E+02
  0
VERTEX
  8
0
 62
6
 10
2.56062202E+00
 20
1.20632083E+02
  0
VERTEX
  8
0
 62
6
 10
2.64902851E+00
 20
1.20723840E+02
  0
VERTEX
  8
0
 62
6
 10
2.72868991E+00
 20
1.20822576E+02
  0
VERTEX
  8
0
 62
6
 10
2.79899995E+00
 20
1.20927539E+02
  0
VERTEX
  8
0
 62
6
 10
2.85942353E+00
 20
1.21037930E+02
  0
VERTEX
  8
0
 62
6
 10
2.90950078E+00
 20
1.21152910E+02
  0
VERTEX
  8
0
 62
6
 10
2.94885059E+00
 20
1.21271604E+02
  0
VERTEX
  8
0
 62
6
 10
2.97717348E+00
 20
1.21393107E+02
  0
VERTEX
  8
0
 62
6
 10
2.99425390E+00
 20
1.21516496E+02
  0
VERTEX
  8
0
 62
6
 10
2.99996185E+00
 20
1.21640831E+02
  0
VERTEX
  8
0
 62
6
 10
2.99425390E+00
 20
1.21765166E+02
  0
VERTEX
  8
0
 62
6
 10
2.97717348E+00
 20
1.21888555E+02
  0
VERTEX
  8
0
 62
6
 10
2.94885059E+00
 20
1.22010058E+02
  0
VERTEX
  8
0
 62
6
 10
2.90950078E+00
 20
1.22128752E+02
  0
VERTEX
  8
0
 62
6
 10
2.85942353E+00
 20
1.22243732E+02
  0
VERTEX
  8
0
 62
6
 10
2.79899996E+00
 20
1.22354123E+02
  0
VERTEX
  8
0
 62
6
 10
2.72868992E+00
 20
1.22459086E+02
  0
VERTEX
  8
0
 62
6
 10
2.64902852E+00
 20
1.22557822E+02
  0
VERTEX
  8
0
 62
6
 10
2.56062202E+00
 20
1.22649579E+02
  0
VERTEX
  8
0
 62
6
 10
2.46414327E+00
 20
1.22733658E+02
  0
VERTEX
  8
0
 62
6
 10
2.36032651E+00
 20
1.22809421E+02
  0
VERTEX
  8
0
 62
6
 10
2.24996185E+00
 20
1.22876290E+02
  0
VERTEX
  8
0
 62
6
 10
2.13388924E+00
 20
1.22933756E+02
  0
VERTEX
  8
0
 62
6
 10
2.01299207E+00
 20
1.22981382E+02
  0
VERTEX
  8
0
 62
6
 10
1.88819042E+00
 20
1.23018806E+02
  0
VERTEX
  8
0
 62
6
 10
1.76043412E+00
 20
1.23045743E+02
  0
VERTEX
  8
0
 62
6
 10
1.63069547E+00
 20
1.23061987E+02
  0
VERTEX
  8
0
 62
6
 10
1.49996185E+00
 20
1.23067416E+02
  0
VERTEX
  8
0
 62
6
 10
1.36922824E+00
 20
1.23061987E+02
  0
VERTEX
  8
0
 62
6
 10
1.23948959E+00
 20
1.23045743E+02
  0
VERTEX
  8
0
 62
6
 10
1.11173328E+00
 20
1.23018806E+02
  0
VERTEX
  8
0
 62
6
 10
9.86931637E-01
 20
1.22981382E+02
  0
VERTEX
  8
0
 62
6
 10
8.66034459E-01
 20
1.22933756E+02
  0
VERTEX
  8
0
 62
6
 10
7.49961851E-01
 20
1.22876290E+02
  0
VERTEX
  8
0
 62
6
 10
6.39597197E-01
 20
1.22809421E+02
  0
VERTEX
  8
0
 62
6
 10
5.35780437E-01
 20
1.22733658E+02
  0
VERTEX
  8
0
 62
6
 10
4.39301679E-01
 20
1.22649579E+02
  0
VERTEX
  8
0
 62
6
 10
3.50895186E-01
 20
1.22557822E+02
  0
VERTEX
  8
0
 62
6
 10
2.71233784E-01
 20
1.22459086E+02
  0
VERTEX
  8
0
 62
6
 10
2.00923745E-01
 20
1.22354123E+02
  0
VERTEX
  8
0
 62
6
 10
1.40500170E-01
 20
1.22243732E+02
  0
VERTEX
  8
0
 62
6
 10
9.04229192E-02
 20
1.22128752E+02
  0
VERTEX
  8
0
 62
6
 10
5.10731108E-02
 20
1.22010058E+02
  0
VERTEX
  8
0
 62
6
 10
2.27502207E-02
 20
1.21888555E+02
  0
VERTEX
  8
0
 62
6
 10
5.66980295E-03
 20
1.21765166E+02
  0
VERTEX
  8
0
 62
6
 10
-3.81500000E-05
 20
1.21640831E+02
  0
SEQEND
  8
0
  0
LINE
  8
0
 62
4
 10
4.99961853E-01
 20
1.21089219E+02
 11
4.99961853E-01
 21
1.22192444E+02
  0
LINE
  8
0
 62
4
 10
2.49996185E+00
 20
1.21089219E+02
 11
2.49996185E+00
 21
1.22192444E+02
  0
LINE
  8
0
 62
4
 10
1.49996185E+00
 20
1.22734546E+02
 11
4.99961853E-01
 21
1.22192444E+02
  0
LINE
  8
0
 62
4
 10
1.49996185E+00
 20
1.22734546E+02
 11
2.49996185E+00
 21
1.22192444E+02
  0
LINE
  8
0
 62
4
 10
2.49996185E+00
 20
1.21089219E+02
 11
1.49996185E+00
 21
1.20537606E+02
  0
LINE
  8
0
 62
4
 10
1.49996185E+00
 20
1.20537606E+02
 11
4.99961853E-01
 21
1.21089219E+02
  0
LINE
  8
0
 62
4
 10
-6.50003815E+00
 20
1.20537606E+02
 11
-7.50003815E+00
 21
1.21089219E+02
  0
LINE
  8
0
 62
4
 10
-5.50003815E+00
 20
1.21089219E+02
 11
-6.50003815E+00
 21
1.20537606E+02
  0
LINE
  8
0
 62
4
 10
-6.50003815E+00
 20
1.22734546E+02
 11
-5.50003815E+00
 21
1.22192444E+02
  0
LINE
  8
0
 62
4
 10
-6.50003815E+00
 20
1.22734546E+02
 11
-7.50003815E+00
 21
1.22192444E+02
  0
LINE
  8
0
 62
4
 10
-5.50003815E+00
 20
1.21089219E+02
 11
-5.50003815E+00
 21
1.22192444E+02
  0
LINE
  8
0
 62
4
 10
-7.50003815E+00
 20
1.21089219E+02
 11
-7.50003815E+00
 21
1.22192444E+02
  0
POLYLINE
  8
0
 62
6
 66
1
  0
VERTEX
  8
0
 62
6
 10
-8.00003815E+00
 20
1.21640831E+02
  0
VERTEX
  8
0
 62
6
 10
-7.99433020E+00
 20
1.21516496E+02
  0
VERTEX
  8
0
 62
6
 10
-7.97724978E+00
 20
1.21393107E+02
  0
VERTEX
  8
0
 62
6
 10
-7.94892689E+00
 20
1.21271604E+02
  0
VERTEX
  8
0
 62
6
 10
-7.90957708E+00
 20
1.21152910E+02
  0
VERTEX
  8
0
 62
6
 10
-7.85949983E+00
 20
1.21037930E+02
  0
VERTEX
  8
0
 62
6
 10
-7.79907626E+00
 20
1.20927539E+02
  0
VERTEX
  8
0
 62
6
 10
-7.72876622E+00
 20
1.20822576E+02
  0
VERTEX
  8
0
 62
6
 10
-7.64910482E+00
 20
1.20723840E+02
  0
VERTEX
  8
0
 62
6
 10
-7.56069833E+00
 20
1.20632083E+02
  0
VERTEX
  8
0
 62
6
 10
-7.46421957E+00
 20
1.20548004E+02
  0
VERTEX
  8
0
 62
6
 10
-7.36040281E+00
 20
1.20472241E+02
  0
VERTEX
  8
0
 62
6
 10
-7.25003815E+00
 20
1.20405372E+02
  0
VERTEX
  8
0
 62
6
 10
-7.13396555E+00
 20
1.20347906E+02
  0
VERTEX
  8
0
 62
6
 10
-7.01306837E+00
 20
1.20300280E+02
  0
VERTEX
  8
0
 62
6
 10
-6.88826672E+00
 20
1.20262856E+02
  0
VERTEX
  8
0
 62
6
 10
-6.76051042E+00
 20
1.20235919E+02
  0
VERTEX
  8
0
 62
6
 10
-6.63077177E+00
 20
1.20219675E+02
  0
VERTEX
  8
0
 62
6
 10
-6.50003815E+00
 20
1.20214246E+02
  0
VERTEX
  8
0
 62
6
 10
-6.36930454E+00
 20
1.20219675E+02
  0
VERTEX
  8
0
 62
6
 10
-6.23956589E+00
 20
1.20235919E+02
  0
VERTEX
  8
0
 62
6
 10
-6.11180959E+00
 20
1.20262856E+02
  0
VERTEX
  8
0
 62
6
 10
-5.98700794E+00
 20
1.20300280E+02
  0
VERTEX
  8
0
 62
6
 10
-5.86611076E+00
 20
1.20347906E+02
  0
VERTEX
  8
0
 62
6
 10
-5.75003815E+00
 20
1.20405372E+02
  0
VERTEX
  8
0
 62
6
 10
-5.63967350E+00
 20
1.20472241E+02
  0
VERTEX
  8
0
 62
6
 10
-5.53585674E+00
 20
1.20548004E+02
  0
VERTEX
  8
0
 62
6
 10
-5.43937798E+00
 20
1.20632083E+02
  0
VERTEX
  8
0
 62
6
 10
-5.35097149E+00
 20
1.20723840E+02
  0
VERTEX
  8
0
 62
6
 10
-5.27131009E+00
 20
1.20822576E+02
  0
VERTEX
  8
0
 62
6
 10
-5.20100005E+00
 20
1.20927539E+02
  0
VERTEX
  8
0
 62
6
 10
-5.14057647E+00
 20
1.21037930E+02
  0
VERTEX
  8
0
 62
6
 10
-5.09049922E+00
 20
1.21152910E+02
  0
VERTEX
  8
0
 62
6
 10
-5.05114941E+00
 20
1.21271604E+02
  0
VERTEX
  8
0
 62
6
 10
-5.02282652E+00
 20
1.21393107E+02
  0
VERTEX
  8
0
 62
6
 10
-5.00574610E+00
 20
1.21516496E+02
  0
VERTEX
  8
0
 62
6
 10
-5.00003815E+00
 20
1.21640831E+02
  0
VERTEX
  8
0
 62
6
 10
-5.00574610E+00
 20
1.21765166E+02
  0
VERTEX
  8
0
 62
6
 10
-5.02282652E+00
 20
1.21888555E+02
  0
VERTEX
  8
0
 62
6
 10
-5.05114941E+00
 20
1.22010058E+02
  0
VERTEX
  8
0
 62
6
 10
-5.09049922E+00
 20
1.22128752E+02
  0
VERTEX
  8
0
 62
6
 10
-5.14057647E+00
 20
1.22243732E+02
  0
VERTEX
  8
0
 62
6
 10
-5.20100004E+00
 20
1.22354123E+02
  0
VERTEX
  8
0
 62
6
 10
-5.27131008E+00
 20
1.22459086E+02
  0
VERTEX
  8
0
 62
6
 10
-5.35097148E+00
 20
1.22557822E+02
  0
VERTEX
  8
0
 62
6
 10
-5.43937798E+00
 20
1.22649579E+02
  0
VERTEX
  8
0
 62
6
 10
-5.53585673E+00
 20
1.22733658E+02
  0
VERTEX
  8
0
 62
6
 10
-5.63967349E+00
 20
1.22809421E+02
  0
VERTEX
  8
0
 62
6
 10
-5.75003815E+00
 20
1.22876290E+02
  0
VERTEX
  8
0
 62
6
 10
-5.86611076E+00
 20
1.22933756E+02
  0
VERTEX
  8
0
 62
6
 10
-5.98700793E+00
 20
1.22981382E+02
  0
VERTEX
  8
0
 62
6
 10
-6.11180958E+00
 20
1.23018806E+02
  0
VERTEX
  8
0
 62
6
 10
-6.23956588E+00
 20
1.23045743E+02
  0
VERTEX
  8
0
 62
6
 10
-6.36930453E+00
 20
1.23061987E+02
  0
VERTEX
  8
0
 62
6
 10
-6.50003815E+00
 20
1.23067416E+02
  0
VERTEX
  8
0
 62
6
 10
-6.63077176E+00
 20
1.23061987E+02
  0
VERTEX
  8
0
 62
6
 10
-6.76051041E+00
 20
1.23045743E+02
  0
VERTEX
  8
0
 62
6
 10
-6.88826672E+00
 20
1.23018806E+02
  0
VERTEX
  8
0
 62
6
 10
-7.01306836E+00
 20
1.22981382E+02
  0
VERTEX
  8
0
 62
6
 10
-7.13396554E+00
 20
1.22933756E+02
  0
VERTEX
  8
0
 62
6
 10
-7.25003815E+00
 20
1.22876290E+02
  0
VERTEX
  8
0
 62
6
 10
-7.36040280E+00
 20
1.22809421E+02
  0
VERTEX
  8
0
 62
6
 10
-7.46421956E+00
 20
1.22733658E+02
  0
VERTEX
  8
0
 62
6
 10
-7.56069832E+00
 20
1.22649579E+02
  0
VERTEX
  8
0
 62
6
 10
-7.64910481E+00
 20
1.22557822E+02
  0
VERTEX
  8
0
 62
6
 10
-7.72876622E+00
 20
1.22459086E+02
  0
VERTEX
  8
0
 62
6
 10
-7.79907626E+00
 20
1.22354123E+02
  0
VERTEX
  8
0
 62
6
 10
-7.85949983E+00
 20
1.22243732E+02
  0
VERTEX
  8
0
 62
6
 10
-7.90957708E+00
 20
1.22128752E+02
  0
VERTEX
  8
0
 62
6
 10
-7.94892689E+00
 20
1.22010058E+02
  0
VERTEX
  8
0
 62
6
 10
-7.97724978E+00
 20
1.21888555E+02
  0
VERTEX
  8
0
 62
6
 10
-7.99433020E+00
 20
1.21765166E+02
  0
VERTEX
  8
0
 62
6
 10
-8.00003815E+00
 20
1.21640831E+02
  0
SEQEND
  8
0
  0
LINE
  8
0
 62
4
 10
-4.50003815E+00
 20
1.21640831E+02
 11
-4.50003815E+00
 21
1.22516172E+02
  0
LINE
  8
0
 62
4
 10
-8.50003815E+00
 20
1.21640831E+02
 11
-8.50003815E+00
 21
1.22516172E+02
  0
POLYLINE
  8
0
 62
4
 66
1
  0
VERTEX
  8
0
 62
4
 10
-4.50003815E+00
 20
1.21640831E+02
  0
VERTEX
  8
0
 62
4
 10
-4.50764875E+00
 20
1.21806611E+02
  0
VERTEX
  8
0
 62
4
 10
-4.53042264E+00
 20
1.21971129E+02
  0
VERTEX
  8
0
 62
4
 10
-4.56818650E+00
 20
1.22133134E+02
  0
VERTEX
  8
0
 62
4
 10
-4.62065291E+00
 20
1.22291392E+02
  0
VERTEX
  8
0
 62
4
 10
-4.68742258E+00
 20
1.22444699E+02
  0
VERTEX
  8
0
 62
4
 10
-4.76798734E+00
 20
1.22591888E+02
  0
VERTEX
  8
0
 62
4
 10
-4.86173406E+00
 20
1.22731838E+02
  0
VERTEX
  8
0
 62
4
 10
-4.96794926E+00
 20
1.22863486E+02
  0
VERTEX
  8
0
 62
4
 10
-5.08582459E+00
 20
1.22985828E+02
  0
VERTEX
  8
0
 62
4
 10
-5.21446293E+00
 20
1.23097934E+02
  0
VERTEX
  8
0
 62
4
 10
-5.35288528E+00
 20
1.23198951E+02
  0
VERTEX
  8
0
 62
4
 10
-5.50003815E+00
 20
1.23288109E+02
  0
VERTEX
  8
0
 62
4
 10
-5.65480163E+00
 20
1.23364731E+02
  0
VERTEX
  8
0
 62
4
 10
-5.81599786E+00
 20
1.23428233E+02
  0
VERTEX
  8
0
 62
4
 10
-5.98240006E+00
 20
1.23478131E+02
  0
VERTEX
  8
0
 62
4
 10
-6.15274180E+00
 20
1.23514047E+02
  0
VERTEX
  8
0
 62
4
 10
-6.32572667E+00
 20
1.23535706E+02
  0
VERTEX
  8
0
 62
4
 10
-6.50003815E+00
 20
1.23542944E+02
  0
VERTEX
  8
0
 62
4
 10
-6.67434964E+00
 20
1.23535706E+02
  0
VERTEX
  8
0
 62
4
 10
-6.84733451E+00
 20
1.23514047E+02
  0
VERTEX
  8
0
 62
4
 10
-7.01767624E+00
 20
1.23478131E+02
  0
VERTEX
  8
0
 62
4
 10
-7.18407844E+00
 20
1.23428233E+02
  0
VERTEX
  8
0
 62
4
 10
-7.34527468E+00
 20
1.23364731E+02
  0
VERTEX
  8
0
 62
4
 10
-7.50003815E+00
 20
1.23288109E+02
  0
VERTEX
  8
0
 62
4
 10
-7.64719102E+00
 20
1.23198951E+02
  0
VERTEX
  8
0
 62
4
 10
-7.78561337E+00
 20
1.23097934E+02
  0
VERTEX
  8
0
 62
4
 10
-7.91425171E+00
 20
1.22985828E+02
  0
VERTEX
  8
0
 62
4
 10
-8.03212704E+00
 20
1.22863486E+02
  0
VERTEX
  8
0
 62
4
 10
-8.13834224E+00
 20
1.22731838E+02
  0
VERTEX
  8
0
 62
4
 10
-8.23208896E+00
 20
1.22591888E+02
  0
VERTEX
  8
0
 62
4
 10
-8.31265373E+00
 20
1.22444699E+02
  0
VERTEX
  8
0
 62
4
 10
-8.37942339E+00
 20
1.22291392E+02
  0
VERTEX
  8
0
 62
4
 10
-8.43188980E+00
 20
1.22133134E+02
  0
VERTEX
  8
0
 62
4
 10
-8.46965366E+00
 20
1.21971129E+02
  0
VERTEX
  8
0
 62
4
 10
-8.49242755E+00
 20
1.21806611E+02
  0
VERTEX
  8
0
 62
4
 10
-8.50003815E+00
 20
1.21640831E+02
  0
VERTEX
  8
0
 62
4
 10
-8.49242755E+00
 20
1.21475051E+02
  0
VERTEX
  8
0
 62
4
 10
-8.46965366E+00
 20
1.21310533E+02
  0
VERTEX
  8
0
 62
4
 10
-8.43188980E+00
 20
1.21148528E+02
  0
VERTEX
  8
0
 62
4
 10
-8.37942339E+00
 20
1.20990270E+02
  0
VERTEX
  8
0
 62
4
 10
-8.31265372E+00
 20
1.20836963E+02
  0
VERTEX
  8
0
 62
4
 10
-8.23208896E+00
 20
1.20689774E+02
  0
VERTEX
  8
0
 62
4
 10
-8.13834224E+00
 20
1.20549824E+02
  0
VERTEX
  8
0
 62
4
 10
-8.03212703E+00
 20
1.20418176E+02
  0
VERTEX
  8
0
 62
4
 10
-7.91425171E+00
 20
1.20295834E+02
  0
VERTEX
  8
0
 62
4
 10
-7.78561337E+00
 20
1.20183728E+02
  0
VERTEX
  8
0
 62
4
 10
-7.64719102E+00
 20
1.20082711E+02
  0
VERTEX
  8
0
 62
4
 10
-7.50003815E+00
 20
1.19993553E+02
  0
VERTEX
  8
0
 62
4
 10
-7.34527467E+00
 20
1.19916931E+02
  0
VERTEX
  8
0
 62
4
 10
-7.18407843E+00
 20
1.19853429E+02
  0
VERTEX
  8
0
 62
4
 10
-7.01767624E+00
 20
1.19803531E+02
  0
VERTEX
  8
0
 62
4
 10
-6.84733450E+00
 20
1.19767615E+02
  0
VERTEX
  8
0
 62
4
 10
-6.67434963E+00
 20
1.19745956E+02
  0
VERTEX
  8
0
 62
4
 10
-6.50003815E+00
 20
1.19738718E+02
  0
VERTEX
  8
0
 62
4
 10
-6.32572666E+00
 20
1.19745956E+02
  0
VERTEX
  8
0
 62
4
 10
-6.15274179E+00
 20
1.19767615E+02
  0
VERTEX
  8
0
 62
4
 10
-5.98240006E+00
 20
1.19803531E+02
  0
VERTEX
  8
0
 62
4
 10
-5.81599786E+00
 20
1.19853429E+02
  0
VERTEX
  8
0
 62
4
 10
-5.65480162E+00
 20
1.19916931E+02
  0
VERTEX
  8
0
 62
4
 10
-5.50003815E+00
 20
1.19993553E+02
  0
VERTEX
  8
0
 62
4
 10
-5.35288527E+00
 20
1.20082711E+02
  0
VERTEX
  8
0
 62
4
 10
-5.21446293E+00
 20
1.20183728E+02
  0
VERTEX
  8
0
 62
4
 10
-5.08582458E+00
 20
1.20295834E+02
  0
VERTEX
  8
0
 62
4
 10
-4.96794926E+00
 20
1.20418176E+02
  0
VERTEX
  8
0
 62
4
 10
-4.86173406E+00
 20
1.20549824E+02
  0
VERTEX
  8
0
 62
4
 10
-4.76798734E+00
 20
1.20689774E+02
  0
VERTEX
  8
0
 62
4
 10
-4.68742257E+00
 20
1.20836963E+02
  0
VERTEX
  8
0
 62
4
 10
-4.62065291E+00
 20
1.20990270E+02
  0
VERTEX
  8
0
 62
4
 10
-4.56818650E+00
 20
1.21148528E+02
  0
VERTEX
  8
0
 62
4
 10
-4.53042264E+00
 20
1.21310533E+02
  0
VERTEX
  8
0
 62
4
 10
-4.50764875E+00
 20
1.21475051E+02
  0
VERTEX
  8
0
 62
4
 10
-4.50003815E+00
 20
1.21640831E+02
  0
SEQEND
  8
0
  0
POLYLINE
  8
0
 62
4
 66
1
  0
VERTEX
  8
0
 62
4
 10
-4.50003815E+00
 20
1.22516172E+02
  0
VERTEX
  8
0
 62
4
 10
-4.50808956E+00
 20
1.22686676E+02
  0
VERTEX
  8
0
 62
4
 10
-4.53217897E+00
 20
1.22855807E+02
  0
VERTEX
  8
0
 62
4
 10
-4.57211243E+00
 20
1.23022204E+02
  0
VERTEX
  8
0
 62
4
 10
-4.62756841E+00
 20
1.23184527E+02
  0
VERTEX
  8
0
 62
4
 10
-4.69810041E+00
 20
1.23341468E+02
  0
VERTEX
  8
0
 62
4
 10
-4.78314056E+00
 20
1.23491764E+02
  0
VERTEX
  8
0
 62
4
 10
-4.88200416E+00
 20
1.23634206E+02
  0
VERTEX
  8
0
 62
4
 10
-4.99389522E+00
 20
1.23767646E+02
  0
VERTEX
  8
0
 62
4
 10
-5.11791285E+00
 20
1.23891010E+02
  0
VERTEX
  8
0
 62
4
 10
-5.25305854E+00
 20
1.24003304E+02
  0
VERTEX
  8
0
 62
4
 10
-5.39824419E+00
 20
1.24103625E+02
  0
VERTEX
  8
0
 62
4
 10
-5.55230082E+00
 20
1.24191164E+02
  0
VERTEX
  8
0
 62
4
 10
-5.71398808E+00
 20
1.24265218E+02
  0
VERTEX
  8
0
 62
4
 10
-5.88200416E+00
 20
1.24325189E+02
  0
VERTEX
  8
0
 62
4
 10
-6.05499628E+00
 20
1.24370595E+02
  0
VERTEX
  8
0
 62
4
 10
-6.23157162E+00
 20
1.24401070E+02
  0
VERTEX
  8
0
 62
4
 10
-6.41030849E+00
 20
1.24416370E+02
  0
VERTEX
  8
0
 62
4
 10
-6.58976781E+00
 20
1.24416370E+02
  0
VERTEX
  8
0
 62
4
 10
-6.76850468E+00
 20
1.24401070E+02
  0
VERTEX
  8
0
 62
4
 10
-6.94508001E+00
 20
1.24370595E+02
  0
VERTEX
  8
0
 62
4
 10
-7.11807213E+00
 20
1.24325189E+02
  0
VERTEX
  8
0
 62
4
 10
-7.28608821E+00
 20
1.24265218E+02
  0
VERTEX
  8
0
 62
4
 10
-7.44777547E+00
 20
1.24191164E+02
  0
VERTEX
  8
0
 62
4
 10
-7.60183211E+00
 20
1.24103625E+02
  0
VERTEX
  8
0
 62
4
 10
-7.74701775E+00
 20
1.24003304E+02
  0
VERTEX
  8
0
 62
4
 10
-7.88216344E+00
 20
1.23891010E+02
  0
VERTEX
  8
0
 62
4
 10
-8.00618108E+00
 20
1.23767646E+02
  0
VERTEX
  8
0
 62
4
 10
-8.11807214E+00
 20
1.23634206E+02
  0
VERTEX
  8
0
 62
4
 10
-8.21693573E+00
 20
1.23491764E+02
  0
VERTEX
  8
0
 62
4
 10
-8.30197588E+00
 20
1.23341468E+02
  0
VERTEX
  8
0
 62
4
 10
-8.37250789E+00
 20
1.23184527E+02
  0
VERTEX
  8
0
 62
4
 10
-8.42796387E+00
 20
1.23022204E+02
  0
VERTEX
  8
0
 62
4
 10
-8.46789733E+00
 20
1.22855807E+02
  0
VERTEX
  8
0
 62
4
 10
-8.49198674E+00
 20
1.22686676E+02
  0
VERTEX
  8
0
 62
4
 10
-8.50003815E+00
 20
1.22516172E+02
  0
SEQEND
  8
0
  0
LINE
  8
0
  6
CENTER
 62
6
 10
-4.17000229E+01
 20
1.44897164E+02
 11
-5.13000229E+01
 21
1.44897164E+02
  0
LINE
  8
0
  6
CENTER
 62
6
 10
-4.65000229E+01
 20
1.49697164E+02
 11
-4.65000229E+01
 21
1.40097164E+02
  0
LINE
  8
0
  6
CENTER
 62
6
 10
-5.79254260E+01
 20
1.44897164E+02
 11
-6.50746198E+01
 21
1.44897164E+02
  0
LINE
  8
0
  6
CENTER
 62
6
 10
-6.15000229E+01
 20
1.48471761E+02
 11
-6.15000229E+01
 21
1.41322567E+02
  0
LINE
  8
0
 62
4
 10
-6.90000229E+01
 20
1.38872205E+02
 11
-7.05000229E+01
 21
1.37775942E+02
  0
LINE
  8
0
 62
4
 10
-7.05000229E+01
 20
1.37775942E+02
 11
-7.05000229E+01
 21
1.34921875E+02
  0
LINE
  8
0
 62
4
 10
-7.05000229E+01
 20
1.35621799E+02
 11
-6.90000229E+01
 21
1.35067979E+02
  0
LINE
  8
0
 62
4
 10
-7.05000229E+01
 20
1.34921875E+02
 11
-6.99193995E+01
 21
1.34499969E+02
  0
LINE
  8
0
 62
4
 10
-6.90000229E+01
 20
1.35067979E+02
 11
-4.55000229E+01
 21
1.35067979E+02
  0
LINE
  8
0
 62
4
 10
-6.90000229E+01
 20
1.38872205E+02
 11
-5.69103258E+01
 21
1.38872205E+02
  0
LINE
  8
0
 62
4
 10
-6.90000229E+01
 20
1.39285930E+02
 11
-5.72946551E+01
 21
1.39285930E+02
  0
LINE
  8
0
 62
4
 10
-6.90000229E+01
 20
1.34911070E+02
 11
-3.90000229E+01
 21
1.34911070E+02
  0
LINE
  8
0
 62
4
 10
-6.90000229E+01
 20
1.38872205E+02
 11
-6.90000229E+01
 21
1.34911070E+02
  0
LINE
  8
0
 62
4
 10
-6.90000229E+01
 20
1.34911070E+02
 11
-6.90000229E+01
 21
1.34499969E+02
  0
POLYLINE
  8
0
 62
4
 66
1
  0
VERTEX
  8
0
 62
4
 10
-5.81500229E+01
 20
1.42229762E+02
  0
VERTEX
  8
0
 62
4
 10
-5.81342309E+01
 20
1.41885768E+02
  0
VERTEX
  8
0
 62
4
 10
-5.80869751E+01
 20
1.41544393E+02
  0
VERTEX
  8
0
 62
4
 10
-5.80086151E+01
 20
1.41208233E+02
  0
VERTEX
  8
0
 62
4
 10
-5.78997473E+01
 20
1.40879848E+02
  0
VERTEX
  8
0
 62
4
 10
-5.77612002E+01
 20
1.40561737E+02
  0
VERTEX
  8
0
 62
4
 10
-5.75940283E+01
 20
1.40256320E+02
  0
VERTEX
  8
0
 62
4
 10
-5.73995039E+01
 20
1.39965922E+02
  0
VERTEX
  8
0
 62
4
 10
-5.71791073E+01
 20
1.39692754E+02
  0
VERTEX
  8
0
 62
4
 10
-5.69345161E+01
 20
1.39438893E+02
  0
VERTEX
  8
0
 62
4
 10
-5.66675915E+01
 20
1.39206273E+02
  0
VERTEX
  8
0
 62
4
 10
-5.63803651E+01
 20
1.38996663E+02
  0
VERTEX
  8
0
 62
4
 10
-5.60750229E+01
 20
1.38811660E+02
  0
VERTEX
  8
0
 62
4
 10
-5.57538887E+01
 20
1.38652670E+02
  0
VERTEX
  8
0
 62
4
 10
-5.54194065E+01
 20
1.38520904E+02
  0
VERTEX
  8
0
 62
4
 10
-5.50741219E+01
 20
1.38417364E+02
  0
VERTEX
  8
0
 62
4
 10
-5.47206628E+01
 20
1.38342840E+02
  0
VERTEX
  8
0
 62
4
 10
-5.43617192E+01
 20
1.38297897E+02
  0
VERTEX
  8
0
 62
4
 10
-5.40000229E+01
 20
1.38282877E+02
  0
VERTEX
  8
0
 62
4
 10
-5.36383266E+01
 20
1.38297897E+02
  0
VERTEX
  8
0
 62
4
 10
-5.32793830E+01
 20
1.38342840E+02
  0
VERTEX
  8
0
 62
4
 10
-5.29259239E+01
 20
1.38417364E+02
  0
VERTEX
  8
0
 62
4
 10
-5.25806393E+01
 20
1.38520904E+02
  0
VERTEX
  8
0
 62
4
 10
-5.22461571E+01
 20
1.38652670E+02
  0
VERTEX
  8
0
 62
4
 10
-5.19250229E+01
 20
1.38811660E+02
  0
VERTEX
  8
0
 62
4
 10
-5.16196807E+01
 20
1.38996663E+02
  0
VERTEX
  8
0
 62
4
 10
-5.13324543E+01
 20
1.39206273E+02
  0
VERTEX
  8
0
 62
4
 10
-5.10655298E+01
 20
1.39438893E+02
  0
VERTEX
  8
0
 62
4
 10
-5.08209385E+01
 20
1.39692754E+02
  0
VERTEX
  8
0
 62
4
 10
-5.06005419E+01
 20
1.39965922E+02
  0
VERTEX
  8
0
 62
4
 10
-5.04060175E+01
 20
1.40256320E+02
  0
VERTEX
  8
0
 62
4
 10
-5.02388456E+01
 20
1.40561737E+02
  0
VERTEX
  8
0
 62
4
 10
-5.01002985E+01
 20
1.40879848E+02
  0
VERTEX
  8
0
 62
4
 10
-4.99914307E+01
 20
1.41208233E+02
  0
VERTEX
  8
0
 62
4
 10
-4.99130707E+01
 20
1.41544393E+02
  0
VERTEX
  8
0
 62
4
 10
-4.98658149E+01
 20
1.41885768E+02
  0
VERTEX
  8
0
 62
4
 10
-4.98500229E+01
 20
1.42229762E+02
  0
VERTEX
  8
0
 62
4
 10
-4.98658149E+01
 20
1.42573756E+02
  0
VERTEX
  8
0
 62
4
 10
-4.99130707E+01
 20
1.42915131E+02
  0
VERTEX
  8
0
 62
4
 10
-4.99914307E+01
 20
1.43251291E+02
  0
VERTEX
  8
0
 62
4
 10
-5.01002985E+01
 20
1.43579676E+02
  0
VERTEX
  8
0
 62
4
 10
-5.02388456E+01
 20
1.43897787E+02
  0
VERTEX
  8
0
 62
4
 10
-5.04060175E+01
 20
1.44203204E+02
  0
VERTEX
  8
0
 62
4
 10
-5.06005419E+01
 20
1.44493602E+02
  0
VERTEX
  8
0
 62
4
 10
-5.08209385E+01
 20
1.44766770E+02
  0
VERTEX
  8
0
 62
4
 10
-5.10655298E+01
 20
1.45020631E+02
  0
VERTEX
  8
0
 62
4
 10
-5.13324543E+01
 20
1.45253251E+02
  0
VERTEX
  8
0
 62
4
 10
-5.16196807E+01
 20
1.45462861E+02
  0
VERTEX
  8
0
 62
4
 10
-5.19250229E+01
 20
1.45647864E+02
  0
VERTEX
  8
0
 62
4
 10
-5.22461571E+01
 20
1.45806854E+02
  0
VERTEX
  8
0
 62
4
 10
-5.25806393E+01
 20
1.45938620E+02
  0
VERTEX
  8
0
 62
4
 10
-5.29259239E+01
 20
1.46042160E+02
  0
VERTEX
  8
0
 62
4
 10
-5.32793830E+01
 20
1.46116684E+02
  0
VERTEX
  8
0
 62
4
 10
-5.36383266E+01
 20
1.46161627E+02
  0
VERTEX
  8
0
 62
4
 10
-5.40000229E+01
 20
1.46176647E+02
  0
VERTEX
  8
0
 62
4
 10
-5.43617192E+01
 20
1.46161627E+02
  0
VERTEX
  8
0
 62
4
 10
-5.47206628E+01
 20
1.46116684E+02
  0
VERTEX
  8
0
 62
4
 10
-5.50741219E+01
 20
1.46042160E+02
  0
VERTEX
  8
0
 62
4
 10
-5.54194065E+01
 20
1.45938620E+02
  0
VERTEX
  8
0
 62
4
 10
-5.57538887E+01
 20
1.45806854E+02
  0
VERTEX
  8
0
 62
4
 10
-5.60750229E+01
 20
1.45647864E+02
  0
VERTEX
  8
0
 62
4
 10
-5.63803651E+01
 20
1.45462861E+02
  0
VERTEX
  8
0
 62
4
 10
-5.66675915E+01
 20
1.45253251E+02
  0
VERTEX
  8
0
 62
4
 10
-5.69345160E+01
 20
1.45020631E+02
  0
VERTEX
  8
0
 62
4
 10
-5.71791073E+01
 20
1.44766770E+02
  0
VERTEX
  8
0
 62
4
 10
-5.73995039E+01
 20
1.44493602E+02
  0
VERTEX
  8
0
 62
4
 10
-5.75940283E+01
 20
1.44203204E+02
  0
VERTEX
  8
0
 62
4
 10
-5.77612002E+01
 20
1.43897787E+02
  0
VERTEX
  8
0
 62
4
 10
-5.78997473E+01
 20
1.43579676E+02
  0
VERTEX
  8
0
 62
4
 10
-5.80086151E+01
 20
1.43251291E+02
  0
VERTEX
  8
0
 62
4
 10
-5.80869751E+01
 20
1.42915131E+02
  0
VERTEX
  8
0
 62
4
 10
-5.81342309E+01
 20
1.42573756E+02
  0
VERTEX
  8
0
 62
4
 10
-5.81500229E+01
 20
1.42229762E+02
  0
SEQEND
  8
0
  0
ARC
  8
0
 62
4
 10
1.79293436E+01
 20
6.67969992E+01
 40
1.04392782E+02
 50
1.32228766E+02
 51
1.34907157E+02
  0
ARC
  8
0
 62
4
 10
-1.25929166E+02
 20
6.67972345E+01
 40
1.04392457E+02
 50
4.50928385E+01
 51
4.77712376E+01
  0
POLYLINE
  8
0
 62
4
 66
1
  0
VERTEX
  8
0
 62
4
 10
-5.81500229E+01
 20
1.41685892E+02
  0
VERTEX
  8
0
 62
4
 10
-5.81333162E+01
 20
1.41332096E+02
  0
VERTEX
  8
0
 62
4
 10
-5.80833307E+01
 20
1.40981149E+02
  0
VERTEX
  8
0
 62
4
 10
-5.80004688E+01
 20
1.40635875E+02
  0
VERTEX
  8
0
 62
4
 10
-5.78853976E+01
 20
1.40299056E+02
  0
VERTEX
  8
0
 62
4
 10
-5.77390437E+01
 20
1.39973403E+02
  0
VERTEX
  8
0
 62
4
 10
-5.75625854E+01
 20
1.39661538E+02
  0
VERTEX
  8
0
 62
4
 10
-5.73574434E+01
 20
1.39365971E+02
  0
VERTEX
  8
0
 62
4
 10
-5.71252695E+01
 20
1.39089084E+02
  0
VERTEX
  8
0
 62
4
 10
-5.68679329E+01
 20
1.38833104E+02
  0
VERTEX
  8
0
 62
4
 10
-5.65875056E+01
 20
1.38600093E+02
  0
VERTEX
  8
0
 62
4
 10
-5.62862454E+01
 20
1.38391928E+02
  0
VERTEX
  8
0
 62
4
 10
-5.59665779E+01
 20
1.38210283E+02
  0
VERTEX
  8
0
 62
4
 10
-5.56310768E+01
 20
1.38056622E+02
  0
VERTEX
  8
0
 62
4
 10
-5.52824434E+01
 20
1.37932182E+02
  0
VERTEX
  8
0
 62
4
 10
-5.49234848E+01
 20
1.37837964E+02
  0
VERTEX
  8
0
 62
4
 10
-5.45570910E+01
 20
1.37774728E+02
  0
VERTEX
  8
0
 62
4
 10
-5.41862120E+01
 20
1.37742982E+02
  0
VERTEX
  8
0
 62
4
 10
-5.38138339E+01
 20
1.37742982E+02
  0
VERTEX
  8
0
 62
4
 10
-5.34429549E+01
 20
1.37774728E+02
  0
VERTEX
  8
0
 62
4
 10
-5.30765610E+01
 20
1.37837964E+02
  0
VERTEX
  8
0
 62
4
 10
-5.27176024E+01
 20
1.37932182E+02
  0
VERTEX
  8
0
 62
4
 10
-5.23689690E+01
 20
1.38056622E+02
  0
VERTEX
  8
0
 62
4
 10
-5.20334680E+01
 20
1.38210283E+02
  0
VERTEX
  8
0
 62
4
 10
-5.17138004E+01
 20
1.38391928E+02
  0
VERTEX
  8
0
 62
4
 10
-5.14125402E+01
 20
1.38600093E+02
  0
VERTEX
  8
0
 62
4
 10
-5.11321129E+01
 20
1.38833104E+02
  0
VERTEX
  8
0
 62
4
 10
-5.08747763E+01
 20
1.39089084E+02
  0
VERTEX
  8
0
 62
4
 10
-5.06426024E+01
 20
1.39365971E+02
  0
VERTEX
  8
0
 62
4
 10
-5.04374604E+01
 20
1.39661538E+02
  0
VERTEX
  8
0
 62
4
 10
-5.02610021E+01
 20
1.39973403E+02
  0
VERTEX
  8
0
 62
4
 10
-5.01146482E+01
 20
1.40299056E+02
  0
VERTEX
  8
0
 62
4
 10
-4.99995770E+01
 20
1.40635875E+02
  0
VERTEX
  8
0
 62
4
 10
-4.99167151E+01
 20
1.40981149E+02
  0
VERTEX
  8
0
 62
4
 10
-4.98667296E+01
 20
1.41332096E+02
  0
VERTEX
  8
0
 62
4
 10
-4.98500229E+01
 20
1.41685892E+02
  0
SEQEND
  8
0
  0
LINE
  8
0
 62
4
 10
-5.81500229E+01
 20
1.41685892E+02
 11
-5.81500229E+01
 21
1.42229762E+02
  0
LINE
  8
0
 62
4
 10
-4.98500229E+01
 20
1.41685892E+02
 11
-4.98500229E+01
 21
1.42229762E+02
  0
POLYLINE
  8
0
 62
4
 66
1
  0
VERTEX
  8
0
 62
4
 10
-5.03000229E+01
 20
1.44897164E+02
  0
VERTEX
  8
0
 62
4
 10
-5.02847252E+01
 20
1.44573206E+02
  0
VERTEX
  8
0
 62
4
 10
-5.02389554E+01
 20
1.44251857E+02
  0
VERTEX
  8
0
 62
4
 10
-5.01630818E+01
 20
1.43935703E+02
  0
VERTEX
  8
0
 62
4
 10
-5.00577154E+01
 20
1.43627290E+02
  0
VERTEX
  8
0
 62
4
 10
-4.99237046E+01
 20
1.43329102E+02
  0
VERTEX
  8
0
 62
4
 10
-4.97621283E+01
 20
1.43043538E+02
  0
VERTEX
  8
0
 62
4
 10
-4.95742875E+01
 20
1.42772899E+02
  0
VERTEX
  8
0
 62
4
 10
-4.93616945E+01
 20
1.42519364E+02
  0
VERTEX
  8
0
 62
4
 10
-4.91260610E+01
 20
1.42284973E+02
  0
VERTEX
  8
0
 62
4
 10
-4.88692842E+01
 20
1.42071613E+02
  0
VERTEX
  8
0
 62
4
 10
-4.85934315E+01
 20
1.41881004E+02
  0
VERTEX
  8
0
 62
4
 10
-4.83007238E+01
 20
1.41714679E+02
  0
VERTEX
  8
0
 62
4
 10
-4.79935180E+01
 20
1.41573977E+02
  0
VERTEX
  8
0
 62
4
 10
-4.76742875E+01
 20
1.41460032E+02
  0
VERTEX
  8
0
 62
4
 10
-4.73456025E+01
 20
1.41373760E+02
  0
VERTEX
  8
0
 62
4
 10
-4.70101093E+01
 20
1.41315857E+02
  0
VERTEX
  8
0
 62
4
 10
-4.66705093E+01
 20
1.41286788E+02
  0
VERTEX
  8
0
 62
4
 10
-4.63295366E+01
 20
1.41286788E+02
  0
VERTEX
  8
0
 62
4
 10
-4.59899365E+01
 20
1.41315857E+02
  0
VERTEX
  8
0
 62
4
 10
-4.56544434E+01
 20
1.41373760E+02
  0
VERTEX
  8
0
 62
4
 10
-4.53257583E+01
 20
1.41460032E+02
  0
VERTEX
  8
0
 62
4
 10
-4.50065278E+01
 20
1.41573977E+02
  0
VERTEX
  8
0
 62
4
 10
-4.46993220E+01
 20
1.41714679E+02
  0
VERTEX
  8
0
 62
4
 10
-4.44066144E+01
 20
1.41881004E+02
  0
VERTEX
  8
0
 62
4
 10
-4.41307617E+01
 20
1.42071613E+02
  0
VERTEX
  8
0
 62
4
 10
-4.38739848E+01
 20
1.42284973E+02
  0
VERTEX
  8
0
 62
4
 10
-4.36383513E+01
 20
1.42519364E+02
  0
VERTEX
  8
0
 62
4
 10
-4.34257583E+01
 20
1.42772899E+02
  0
VERTEX
  8
0
 62
4
 10
-4.32379175E+01
 20
1.43043538E+02
  0
VERTEX
  8
0
 62
4
 10
-4.30763412E+01
 20
1.43329102E+02
  0
VERTEX
  8
0
 62
4
 10
-4.29423304E+01
 20
1.43627290E+02
  0
VERTEX
  8
0
 62
4
 10
-4.28369640E+01
 20
1.43935703E+02
  0
VERTEX
  8
0
 62
4
 10
-4.27610904E+01
 20
1.44251857E+02
  0
VERTEX
  8
0
 62
4
 10
-4.27153206E+01
 20
1.44573206E+02
  0
VERTEX
  8
0
 62
4
 10
-4.27000229E+01
 20
1.44897164E+02
  0
SEQEND
  8
0
  0
POLYLINE
  8
0
 62
4
 66
1
  0
VERTEX
  8
0
 62
4
 10
-5.03000229E+01
 20
1.45206181E+02
  0
VERTEX
  8
0
 62
4
 10
-5.02855628E+01
 20
1.44891199E+02
  0
VERTEX
  8
0
 62
4
 10
-5.02422924E+01
 20
1.44578614E+02
  0
VERTEX
  8
0
 62
4
 10
-5.01705411E+01
 20
1.44270805E+02
  0
VERTEX
  8
0
 62
4
 10
-5.00708549E+01
 20
1.43970115E+02
  0
VERTEX
  8
0
 62
4
 10
-4.99439925E+01
 20
1.43678832E+02
  0
VERTEX
  8
0
 62
4
 10
-4.97909195E+01
 20
1.43399174E+02
  0
VERTEX
  8
0
 62
4
 10
-4.96128007E+01
 20
1.43133267E+02
  0
VERTEX
  8
0
 62
4
 10
-4.94109918E+01
 20
1.42883137E+02
  0
VERTEX
  8
0
 62
4
 10
-4.91870287E+01
 20
1.42650687E+02
  0
VERTEX
  8
0
 62
4
 10
-4.89426158E+01
 20
1.42437685E+02
  0
VERTEX
  8
0
 62
4
 10
-4.86796134E+01
 20
1.42245753E+02
  0
VERTEX
  8
0
 62
4
 10
-4.84000229E+01
 20
1.42076352E+02
  0
VERTEX
  8
0
 62
4
 10
-4.81059723E+01
 20
1.41930771E+02
  0
VERTEX
  8
0
 62
4
 10
-4.77996995E+01
 20
1.41810118E+02
  0
VERTEX
  8
0
 62
4
 10
-4.74835353E+01
 20
1.41715311E+02
  0
VERTEX
  8
0
 62
4
 10
-4.71598860E+01
 20
1.41647071E+02
  0
VERTEX
  8
0
 62
4
 10
-4.68312147E+01
 20
1.41605919E+02
  0
VERTEX
  8
0
 62
4
 10
-4.65000229E+01
 20
1.41592166E+02
  0
VERTEX
  8
0
 62
4
 10
-4.61688311E+01
 20
1.41605919E+02
  0
VERTEX
  8
0
 62
4
 10
-4.58401598E+01
 20
1.41647071E+02
  0
VERTEX
  8
0
 62
4
 10
-4.55165105E+01
 20
1.41715311E+02
  0
VERTEX
  8
0
 62
4
 10
-4.52003464E+01
 20
1.41810118E+02
  0
VERTEX
  8
0
 62
4
 10
-4.48940735E+01
 20
1.41930771E+02
  0
VERTEX
  8
0
 62
4
 10
-4.46000229E+01
 20
1.42076352E+02
  0
VERTEX
  8
0
 62
4
 10
-4.43204324E+01
 20
1.42245753E+02
  0
VERTEX
  8
0
 62
4
 10
-4.40574300E+01
 20
1.42437685E+02
  0
VERTEX
  8
0
 62
4
 10
-4.38130171E+01
 20
1.42650687E+02
  0
VERTEX
  8
0
 62
4
 10
-4.35890540E+01
 20
1.42883137E+02
  0
VERTEX
  8
0
 62
4
 10
-4.33872451E+01
 20
1.43133267E+02
  0
VERTEX
  8
0
 62
4
 10
-4.32091263E+01
 20
1.43399174E+02
  0
VERTEX
  8
0
 62
4
 10
-4.30560533E+01
 20
1.43678832E+02
  0
VERTEX
  8
0
 62
4
 10
-4.29291909E+01
 20
1.43970115E+02
  0
VERTEX
  8
0
 62
4
 10
-4.28295047E+01
 20
1.44270805E+02
  0
VERTEX
  8
0
 62
4
 10
-4.27577534E+01
 20
1.44578614E+02
  0
VERTEX
  8
0
 62
4
 10
-4.27144830E+01
 20
1.44891199E+02
  0
VERTEX
  8
0
 62
4
 10
-4.27000229E+01
 20
1.45206181E+02
  0
VERTEX
  8
0
 62
4
 10
-4.27144830E+01
 20
1.45521163E+02
  0
VERTEX
  8
0
 62
4
 10
-4.27577534E+01
 20
1.45833748E+02
  0
VERTEX
  8
0
 62
4
 10
-4.28295047E+01
 20
1.46141557E+02
  0
VERTEX
  8
0
 62
4
 10
-4.29291909E+01
 20
1.46442247E+02
  0
VERTEX
  8
0
 62
4
 10
-4.30560533E+01
 20
1.46733530E+02
  0
VERTEX
  8
0
 62
4
 10
-4.32091263E+01
 20
1.47013188E+02
  0
VERTEX
  8
0
 62
4
 10
-4.33872451E+01
 20
1.47279095E+02
  0
VERTEX
  8
0
 62
4
 10
-4.35890540E+01
 20
1.47529225E+02
  0
VERTEX
  8
0
 62
4
 10
-4.38130171E+01
 20
1.47761675E+02
  0
VERTEX
  8
0
 62
4
 10
-4.40574300E+01
 20
1.47974677E+02
  0
VERTEX
  8
0
 62
4
 10
-4.43204324E+01
 20
1.48166609E+02
  0
VERTEX
  8
0
 62
4
 10
-4.46000229E+01
 20
1.48336010E+02
  0
VERTEX
  8
0
 62
4
 10
-4.48940735E+01
 20
1.48481591E+02
  0
VERTEX
  8
0
 62
4
 10
-4.52003463E+01
 20
1.48602244E+02
  0
VERTEX
  8
0
 62
4
 10
-4.55165105E+01
 20
1.48697051E+02
  0
VERTEX
  8
0
 62
4
 10
-4.58401598E+01
 20
1.48765291E+02
  0
VERTEX
  8
0
 62
4
 10
-4.61688311E+01
 20
1.48806443E+02
  0
VERTEX
  8
0
 62
4
 10
-4.65000229E+01
 20
1.48820196E+02
  0
VERTEX
  8
0
 62
4
 10
-4.68312147E+01
 20
1.48806443E+02
  0
VERTEX
  8
0
 62
4
 10
-4.71598860E+01
 20
1.48765291E+02
  0
VERTEX
  8
0
 62
4
 10
-4.74835353E+01
 20
1.48697051E+02
  0
VERTEX
  8
0
 62
4
 10
-4.77996995E+01
 20
1.48602244E+02
  0
VERTEX
  8
0
 62
4
 10
-4.81059723E+01
 20
1.48481591E+02
  0
VERTEX
  8
0
 62
4
 10
-4.84000229E+01
 20
1.48336010E+02
  0
VERTEX
  8
0
 62
4
 10
-4.86796134E+01
 20
1.48166609E+02
  0
VERTEX
  8
0
 62
4
 10
-4.89426158E+01
 20
1.47974677E+02
  0
VERTEX
  8
0
 62
4
 10
-4.91870287E+01
 20
1.47761675E+02
  0
VERTEX
  8
0
 62
4
 10
-4.94109918E+01
 20
1.47529225E+02
  0
VERTEX
  8
0
 62
4
 10
-4.96128007E+01
 20
1.47279095E+02
  0
VERTEX
  8
0
 62
4
 10
-4.97909195E+01
 20
1.47013188E+02
  0
VERTEX
  8
0
 62
4
 10
-4.99439925E+01
 20
1.46733530E+02
  0
VERTEX
  8
0
 62
4
 10
-5.00708549E+01
 20
1.46442247E+02
  0
VERTEX
  8
0
 62
4
 10
-5.01705411E+01
 20
1.46141557E+02
  0
VERTEX
  8
0
 62
4
 10
-5.02422924E+01
 20
1.45833748E+02
  0
VERTEX
  8
0
 62
4
 10
-5.02855628E+01
 20
1.45521163E+02
  0
VERTEX
  8
0
 62
4
 10
-5.03000229E+01
 20
1.45206181E+02
  0
SEQEND
  8
0
  0
LINE
  8
0
 62
4
 10
-5.03000229E+01
 20
1.44897164E+02
 11
-5.03000229E+01
 21
1.45206181E+02
  0
LINE
  8
0
 62
4
 10
-4.27000229E+01
 20
1.44897164E+02
 11
-4.27000229E+01
 21
1.45206181E+02
  0
POLYLINE
  8
0
 62
4
 66
1
  0
VERTEX
  8
0
 62
4
 10
-4.99000229E+01
 20
1.45206181E+02
  0
VERTEX
  8
0
 62
4
 10
-4.98863355E+01
 20
1.44916324E+02
  0
VERTEX
  8
0
 62
4
 10
-4.98453835E+01
 20
1.44628801E+02
  0
VERTEX
  8
0
 62
4
 10
-4.97774967E+01
 20
1.44345926E+02
  0
VERTEX
  8
0
 62
4
 10
-4.96832215E+01
 20
1.44069978E+02
  0
VERTEX
  8
0
 62
4
 10
-4.95633171E+01
 20
1.43803178E+02
  0
VERTEX
  8
0
 62
4
 10
-4.94187488E+01
 20
1.43547674E+02
  0
VERTEX
  8
0
 62
4
 10
-4.92506807E+01
 20
1.43305523E+02
  0
VERTEX
  8
0
 62
4
 10
-4.90604659E+01
 20
1.43078676E+02
  0
VERTEX
  8
0
 62
4
 10
-4.88496359E+01
 20
1.42868957E+02
  0
VERTEX
  8
0
 62
4
 10
-4.86198883E+01
 20
1.42678057E+02
  0
VERTEX
  8
0
 62
4
 10
-4.83730727E+01
 20
1.42507511E+02
  0
VERTEX
  8
0
 62
4
 10
-4.81111764E+01
 20
1.42358694E+02
  0
VERTEX
  8
0
 62
4
 10
-4.78363080E+01
 20
1.42232803E+02
  0
VERTEX
  8
0
 62
4
 10
-4.75506807E+01
 20
1.42130852E+02
  0
VERTEX
  8
0
 62
4
 10
-4.72565941E+01
 20
1.42053662E+02
  0
VERTEX
  8
0
 62
4
 10
-4.69564160E+01
 20
1.42001854E+02
  0
VERTEX
  8
0
 62
4
 10
-4.66525633E+01
 20
1.41975845E+02
  0
VERTEX
  8
0
 62
4
 10
-4.63474825E+01
 20
1.41975845E+02
  0
VERTEX
  8
0
 62
4
 10
-4.60436298E+01
 20
1.42001854E+02
  0
VERTEX
  8
0
 62
4
 10
-4.57434517E+01
 20
1.42053662E+02
  0
VERTEX
  8
0
 62
4
 10
-4.54493651E+01
 20
1.42130852E+02
  0
VERTEX
  8
0
 62
4
 10
-4.51637378E+01
 20
1.42232803E+02
  0
VERTEX
  8
0
 62
4
 10
-4.48888695E+01
 20
1.42358694E+02
  0
VERTEX
  8
0
 62
4
 10
-4.46269732E+01
 20
1.42507511E+02
  0
VERTEX
  8
0
 62
4
 10
-4.43801576E+01
 20
1.42678057E+02
  0
VERTEX
  8
0
 62
4
 10
-4.41504099E+01
 20
1.42868957E+02
  0
VERTEX
  8
0
 62
4
 10
-4.39395799E+01
 20
1.43078675E+02
  0
VERTEX
  8
0
 62
4
 10
-4.37493651E+01
 20
1.43305523E+02
  0
VERTEX
  8
0
 62
4
 10
-4.35812970E+01
 20
1.43547674E+02
  0
VERTEX
  8
0
 62
4
 10
-4.34367287E+01
 20
1.43803178E+02
  0
VERTEX
  8
0
 62
4
 10
-4.33168243E+01
 20
1.44069978E+02
  0
VERTEX
  8
0
 62
4
 10
-4.32225492E+01
 20
1.44345926E+02
  0
VERTEX
  8
0
 62
4
 10
-4.31546623E+01
 20
1.44628801E+02
  0
VERTEX
  8
0
 62
4
 10
-4.31137103E+01
 20
1.44916324E+02
  0
VERTEX
  8
0
 62
4
 10
-4.31000229E+01
 20
1.45206181E+02
  0
SEQEND
  8
0
  0
LINE
  8
0
 62
4
 10
-4.31000229E+01
 20
1.45604562E+02
 11
-4.31000229E+01
 21
1.45206181E+02
  0
LINE
  8
0
 62
4
 10
-4.99000229E+01
 20
1.45206181E+02
 11
-4.99000229E+01
 21
1.45604562E+02
  0
POLYLINE
  8
0
 62
4
 66
1
  0
VERTEX
  8
0
 62
4
 10
-4.99000229E+01
 20
1.45604562E+02
  0
VERTEX
  8
0
 62
4
 10
-4.98870849E+01
 20
1.45322736E+02
  0
VERTEX
  8
0
 62
4
 10
-4.98483693E+01
 20
1.45043055E+02
  0
VERTEX
  8
0
 62
4
 10
-4.97841707E+01
 20
1.44767647E+02
  0
VERTEX
  8
0
 62
4
 10
-4.96949778E+01
 20
1.44498608E+02
  0
VERTEX
  8
0
 62
4
 10
-4.95814694E+01
 20
1.44237987E+02
  0
VERTEX
  8
0
 62
4
 10
-4.94445093E+01
 20
1.43987766E+02
  0
VERTEX
  8
0
 62
4
 10
-4.92851399E+01
 20
1.43749850E+02
  0
VERTEX
  8
0
 62
4
 10
-4.91045740E+01
 20
1.43526049E+02
  0
VERTEX
  8
0
 62
4
 10
-4.89041860E+01
 20
1.43318067E+02
  0
VERTEX
  8
0
 62
4
 10
-4.86855008E+01
 20
1.43127487E+02
  0
VERTEX
  8
0
 62
4
 10
-4.84501828E+01
 20
1.42955758E+02
  0
VERTEX
  8
0
 62
4
 10
-4.82000229E+01
 20
1.42804189E+02
  0
VERTEX
  8
0
 62
4
 10
-4.79369250E+01
 20
1.42673932E+02
  0
VERTEX
  8
0
 62
4
 10
-4.76628914E+01
 20
1.42565979E+02
  0
VERTEX
  8
0
 62
4
 10
-4.73800077E+01
 20
1.42481152E+02
  0
VERTEX
  8
0
 62
4
 10
-4.70904267E+01
 20
1.42420095E+02
  0
VERTEX
  8
0
 62
4
 10
-4.67963524E+01
 20
1.42383275E+02
  0
VERTEX
  8
0
 62
4
 10
-4.65000229E+01
 20
1.42370970E+02
  0
VERTEX
  8
0
 62
4
 10
-4.62036934E+01
 20
1.42383275E+02
  0
VERTEX
  8
0
 62
4
 10
-4.59096191E+01
 20
1.42420095E+02
  0
VERTEX
  8
0
 62
4
 10
-4.56200381E+01
 20
1.42481152E+02
  0
VERTEX
  8
0
 62
4
 10
-4.53371544E+01
 20
1.42565979E+02
  0
VERTEX
  8
0
 62
4
 10
-4.50631208E+01
 20
1.42673932E+02
  0
VERTEX
  8
0
 62
4
 10
-4.48000229E+01
 20
1.42804189E+02
  0
VERTEX
  8
0
 62
4
 10
-4.45498630E+01
 20
1.42955758E+02
  0
VERTEX
  8
0
 62
4
 10
-4.43145450E+01
 20
1.43127487E+02
  0
VERTEX
  8
0
 62
4
 10
-4.40958598E+01
 20
1.43318067E+02
  0
VERTEX
  8
0
 62
4
 10
-4.38954718E+01
 20
1.43526049E+02
  0
VERTEX
  8
0
 62
4
 10
-4.37149059E+01
 20
1.43749850E+02
  0
VERTEX
  8
0
 62
4
 10
-4.35555365E+01
 20
1.43987766E+02
  0
VERTEX
  8
0
 62
4
 10
-4.34185764E+01
 20
1.44237987E+02
  0
VERTEX
  8
0
 62
4
 10
-4.33050680E+01
 20
1.44498608E+02
  0
VERTEX
  8
0
 62
4
 10
-4.32158751E+01
 20
1.44767647E+02
  0
VERTEX
  8
0
 62
4
 10
-4.31516765E+01
 20
1.45043055E+02
  0
VERTEX
  8
0
 62
4
 10
-4.31129609E+01
 20
1.45322736E+02
  0
VERTEX
  8
0
 62
4
 10
-4.31000229E+01
 20
1.45604562E+02
  0
VERTEX
  8
0
 62
4
 10
-4.31129609E+01
 20
1.45886388E+02
  0
VERTEX
  8
0
 62
4
 10
-4.31516765E+01
 20
1.46166069E+02
  0
VERTEX
  8
0
 62
4
 10
-4.32158751E+01
 20
1.46441477E+02
  0
VERTEX
  8
0
 62
4
 10
-4.33050680E+01
 20
1.46710516E+02
  0
VERTEX
  8
0
 62
4
 10
-4.34185764E+01
 20
1.46971137E+02
  0
VERTEX
  8
0
 62
4
 10
-4.35555365E+01
 20
1.47221358E+02
  0
VERTEX
  8
0
 62
4
 10
-4.37149059E+01
 20
1.47459274E+02
  0
VERTEX
  8
0
 62
4
 10
-4.38954718E+01
 20
1.47683075E+02
  0
VERTEX
  8
0
 62
4
 10
-4.40958598E+01
 20
1.47891057E+02
  0
VERTEX
  8
0
 62
4
 10
-4.43145450E+01
 20
1.48081637E+02
  0
VERTEX
  8
0
 62
4
 10
-4.45498630E+01
 20
1.48253366E+02
  0
VERTEX
  8
0
 62
4
 10
-4.48000229E+01
 20
1.48404935E+02
  0
VERTEX
  8
0
 62
4
 10
-4.50631208E+01
 20
1.48535192E+02
  0
VERTEX
  8
0
 62
4
 10
-4.53371544E+01
 20
1.48643145E+02
  0
VERTEX
  8
0
 62
4
 10
-4.56200381E+01
 20
1.48727972E+02
  0
VERTEX
  8
0
 62
4
 10
-4.59096191E+01
 20
1.48789029E+02
  0
VERTEX
  8
0
 62
4
 10
-4.62036934E+01
 20
1.48825849E+02
  0
VERTEX
  8
0
 62
4
 10
-4.65000229E+01
 20
1.48838154E+02
  0
VERTEX
  8
0
 62
4
 10
-4.67963524E+01
 20
1.48825849E+02
  0
VERTEX
  8
0
 62
4
 10
-4.70904267E+01
 20
1.48789029E+02
  0
VERTEX
  8
0
 62
4
 10
-4.73800077E+01
 20
1.48727972E+02
  0
VERTEX
  8
0
 62
4
 10
-4.76628914E+01
 20
1.48643145E+02
  0
VERTEX
  8
0
 62
4
 10
-4.79369250E+01
 20
1.48535192E+02
  0
VERTEX
  8
0
 62
4
 10
-4.82000229E+01
 20
1.48404935E+02
  0
VERTEX
  8
0
 62
4
 10
-4.84501828E+01
 20
1.48253366E+02
  0
VERTEX
  8
0
 62
4
 10
-4.86855008E+01
 20
1.48081637E+02
  0
VERTEX
  8
0
 62
4
 10
-4.89041860E+01
 20
1.47891057E+02
  0
VERTEX
  8
0
 62
4
 10
-4.91045740E+01
 20
1.47683075E+02
  0
VERTEX
  8
0
 62
4
 10
-4.92851399E+01
 20
1.47459274E+02
  0
VERTEX
  8
0
 62
4
 10
-4.94445093E+01
 20
1.47221358E+02
  0
VERTEX
  8
0
 62
4
 10
-4.95814694E+01
 20
1.46971137E+02
  0
VERTEX
  8
0
 62
4
 10
-4.96949778E+01
 20
1.46710516E+02
  0
VERTEX
  8
0
 62
4
 10
-4.97841707E+01
 20
1.46441477E+02
  0
VERTEX
  8
0
 62
4
 10
-4.98483693E+01
 20
1.46166069E+02
  0
VERTEX
  8
0
 62
4
 10
-4.98870849E+01
 20
1.45886388E+02
  0
VERTEX
  8
0
 62
4
 10
-4.99000229E+01
 20
1.45604562E+02
  0
SEQEND
  8
0
  0
ARC
  8
0
 62
4
 10
2.23144965E+01
 20
7.35510205E+01
 40
9.98837386E+01
 50
1.32163454E+02
 51
1.34962547E+02
  0
ARC
  8
0
 62
4
 10
-1.15314542E+02
 20
7.35510205E+01
 40
9.98837386E+01
 50
4.50374523E+01
 51
4.78365464E+01
  0
LINE
  8
0
 62
4
 10
-5.07053906E+01
 20
1.39285930E+02
 11
-3.90000229E+01
 21
1.39285930E+02
  0
LINE
  8
0
 62
4
 10
-5.10897199E+01
 20
1.38872205E+02
 11
-4.55000229E+01
 21
1.38872205E+02
  0
LINE
  8
0
 62
7
 10
-1.00000381E+01
 20
1.32099976E+02
 11
-8.00000229E+01
 21
1.32099976E+02
  0
LINE
  8
0
 62
7
 10
-1.00000381E+01
 20
1.34499969E+02
 11
-8.00000229E+01
 21
1.34499969E+02
  0
LINE
  8
0
 62
7
 10
-1.00000381E+01
 20
1.24899963E+02
 11
-8.00000229E+01
 21
1.24899963E+02
  0
LINE
  8
0
 62
4
 10
2.14999924E+01
 20
1.37775942E+02
 11
2.14999924E+01
 21
1.34921875E+02
  0
LINE
  8
0
 62
4
 10
1.99999924E+01
 20
1.38872205E+02
 11
2.14999924E+01
 21
1.37775942E+02
  0
LINE
  8
0
 62
4
 10
1.99999619E+01
 20
1.37636138E+02
 11
2.14999924E+01
 21
1.37076018E+02
  0
LINE
  8
0
 62
4
 10
2.14999924E+01
 20
1.34921875E+02
 11
1.99999619E+01
 21
1.33831889E+02
  0
LINE
  8
0
  6
CENTER
 62
2
 10
-4.36999870E+02
 20
6.10016174E+01
 11
-4.36999870E+02
 21
8.35345917E+01
  0
LINE
  8
0
  6
CENTER
 62
2
 10
-4.47233330E+02
 20
7.24999695E+01
 11
-4.24954917E+02
 21
7.24999695E+01
  0
LINE
  8
0
  6
CENTER
 62
2
 10
-5.05029747E+02
 20
7.24999695E+01
 11
-4.82496788E+02
 21
7.24999695E+01
  0
LINE
  8
0
  6
CENTER
 62
2
 10
-4.93000023E+02
 20
8.25604782E+01
 11
-4.93000023E+02
 21
6.10041046E+01
  0
LINE
  8
0
  6
CENTER
 62
2
 10
-4.93000099E+02
 20
1.40185287E+02
 11
-4.93000099E+02
 21
1.17270401E+02
  0
LINE
  8
0
  6
CENTER
 62
2
 10
-4.82369484E+02
 20
1.28500061E+02
 11
-5.04902443E+02
 21
1.28500061E+02
  0
LINE
  8
0
  6
CENTER
 62
2
 10
-4.36999962E+02
 20
1.17270401E+02
 11
-4.36999962E+02
 21
1.40057983E+02
  0
LINE
  8
0
  6
CENTER
 62
2
 10
-4.24954917E+02
 20
1.28500061E+02
 11
-4.47106010E+02
 21
1.28500061E+02
  0
LINE
  8
0
  6
CENTER
 62
2
 10
-4.65000023E+02
 20
1.49463135E+02
 11
-4.65000023E+02
 21
5.03929558E+01
  0
LINE
  8
0
 62
7
 10
-4.16500023E+02
 20
1.06499969E+02
 11
-4.10000023E+02
 21
1.06499969E+02
  0
LINE
  8
0
 62
7
 10
-5.13499962E+02
 20
1.00500000E+02
 11
-5.19307152E+02
 21
1.00500000E+02
  0
LINE
  8
0
 62
7
 10
-5.12000023E+02
 20
1.08499969E+02
 11
-5.13499962E+02
 21
1.08499969E+02
  0
LINE
  8
0
  6
CENTER
 62
2
 10
-5.24957298E+02
 20
1.00500000E+02
 11
-4.04613792E+02
 21
1.00500000E+02
  0
LINE
  8
0
 62
7
 10
-5.12000023E+02
 20
9.25000000E+01
 11
-5.13499962E+02
 21
9.25000000E+01
  0
LINE
  8
0
 62
7
 10
-5.13499962E+02
 20
1.06499969E+02
 11
-5.20000023E+02
 21
1.06499969E+02
  0
LINE
  8
0
 62
7
 10
-4.16500023E+02
 20
1.00500000E+02
 11
-4.10692833E+02
 21
1.00500000E+02
  0
LINE
  8
0
 62
7
 10
-4.17999962E+02
 20
9.25000000E+01
 11
-4.16500023E+02
 21
9.25000000E+01
  0
LINE
  8
0
 62
7
 10
-4.16499901E+02
 20
9.25000153E+01
 11
-4.16499901E+02
 21
1.08500000E+02
  0
LINE
  8
0
 62
7
 10
-4.09999962E+02
 20
9.45000000E+01
 11
-4.09999962E+02
 21
1.06500000E+02
  0
LINE
  8
0
 62
7
 10
-4.17999962E+02
 20
1.08499969E+02
 11
-4.16500023E+02
 21
1.08499969E+02
  0
LINE
  8
0
 62
7
 10
-5.20000023E+02
 20
9.45000000E+01
 11
-5.20000023E+02
 21
1.06500000E+02
  0
LINE
  8
0
 62
7
 10
-5.22000084E+02
 20
9.72000122E+01
 11
-5.22000084E+02
 21
1.03799988E+02
  0
LINE
  8
0
 62
7
 10
-4.08000023E+02
 20
9.72000122E+01
 11
-4.08000023E+02
 21
1.03799988E+02
  0
LINE
  8
0
 62
7
 10
-5.13499962E+02
 20
9.45000000E+01
 11
-5.20000023E+02
 21
9.45000000E+01
  0
LINE
  8
0
 62
2
 10
-5.20000023E+02
 20
9.71999512E+01
 11
-5.22000023E+02
 21
9.71999512E+01
  0
LINE
  8
0
 62
7
 10
-5.20000023E+02
 20
1.04499969E+02
 11
-5.21300072E+02
 21
1.04499969E+02
  0
LINE
  8
0
 62
7
 10
-5.20000023E+02
 20
9.64999695E+01
 11
-5.21300072E+02
 21
9.64999695E+01
  0
LINE
  8
0
 62
7
 10
-4.09999962E+02
 20
9.64999695E+01
 11
-4.08700096E+02
 21
9.64999695E+01
  0
LINE
  8
0
 62
7
 10
-4.09999962E+02
 20
1.04499969E+02
 11
-4.08700096E+02
 21
1.04499969E+02
  0
LINE
  8
0
 62
2
 10
-4.09999962E+02
 20
9.71999512E+01
 11
-4.08000084E+02
 21
9.71999512E+01
  0
LINE
  8
0
 62
2
 10
-4.09999962E+02
 20
1.03799988E+02
 11
-4.08000084E+02
 21
1.03799988E+02
  0
LINE
  8
0
 62
7
 10
-4.08699974E+02
 20
9.65000305E+01
 11
-4.08699974E+02
 21
1.04500000E+02
  0
LINE
  8
0
 62
7
 10
-5.13499901E+02
 20
9.25000153E+01
 11
-5.13499901E+02
 21
1.08500000E+02
  0
LINE
  8
0
 62
7
 10
-4.08699805E+02
 20
9.64997212E+01
 11
-4.07999798E+02
 21
9.71997283E+01
  0
LINE
  8
0
 62
7
 10
-4.07999948E+02
 20
1.03800046E+02
 11
-4.08699977E+02
 21
1.04500075E+02
  0
LINE
  8
0
 62
7
 10
-5.21300072E+02
 20
9.65000305E+01
 11
-5.21300072E+02
 21
1.04500000E+02
  0
LINE
  8
0
 62
2
 10
-5.20000023E+02
 20
1.03799988E+02
 11
-5.22000023E+02
 21
1.03799988E+02
  0
LINE
  8
0
 62
7
 10
-5.21299995E+02
 20
9.65000202E+01
 11
-5.22000024E+02
 21
9.72000489E+01
  0
LINE
  8
0
 62
7
 10
-5.21999830E+02
 20
1.03799762E+02
 11
-5.21299801E+02
 21
1.04499791E+02
  0
LINE
  8
0
 62
7
 10
-4.16500023E+02
 20
9.45000000E+01
 11
-4.10000023E+02
 21
9.45000000E+01
  0
LINE
  8
0
 62
7
 10
-5.08000023E+02
 20
1.47500000E+02
 11
-4.21999962E+02
 21
1.47500000E+02
  0
LINE
  8
0
 62
7
 10
-5.12000023E+02
 20
1.43500000E+02
 11
-5.12000023E+02
 21
5.75000000E+01
  0
LINE
  8
0
 62
7
 10
-5.08000023E+02
 20
5.35000000E+01
 11
-4.21999962E+02
 21
5.35000000E+01
  0
LINE
  8
0
 62
7
 10
-4.17999962E+02
 20
1.43500000E+02
 11
-4.17999962E+02
 21
5.75000000E+01
  0
LINE
  8
0
  6
CENTER
 62
2
 10
-4.43484093E+02
 20
6.55000000E+01
 11
-4.14947472E+02
 21
6.55000000E+01
  0
LINE
  8
0
  6
CENTER
 62
2
 10
-4.29999901E+02
 20
7.95776367E+01
 11
-4.29999901E+02
 21
5.03929558E+01
  0
LINE
  8
0
 62
7
 10
-4.25000040E+02
 20
6.83868874E+01
 11
-4.30000042E+02
 21
7.12736284E+01
  0
LINE
  8
0
 62
7
 10
-4.29999897E+02
 20
7.12734153E+01
 11
-4.34999898E+02
 21
6.83866743E+01
  0
LINE
  8
0
 62
7
 10
-4.35000023E+02
 20
6.26132507E+01
 11
-4.35000023E+02
 21
6.83867493E+01
  0
LINE
  8
0
 62
7
 10
-4.29999943E+02
 20
5.97265245E+01
 11
-4.34999997E+02
 21
6.26132960E+01
  0
LINE
  8
0
 62
7
 10
-4.24999946E+02
 20
6.26132741E+01
 11
-4.29999947E+02
 21
5.97265330E+01
  0
LINE
  8
0
 62
7
 10
-4.24999962E+02
 20
6.83867493E+01
 11
-4.24999962E+02
 21
6.26132507E+01
  0
LINE
  8
0
  6
CENTER
 62
2
 10
-4.86515892E+02
 20
6.55000000E+01
 11
-5.15052513E+02
 21
6.55000000E+01
  0
LINE
  8
0
  6
CENTER
 62
2
 10
-4.99999962E+02
 20
7.95776367E+01
 11
-4.99999962E+02
 21
5.03929558E+01
  0
LINE
  8
0
 62
7
 10
-5.04999996E+02
 20
6.83868033E+01
 11
-4.99999995E+02
 21
7.12735443E+01
  0
LINE
  8
0
 62
7
 10
-5.00000030E+02
 20
7.12735064E+01
 11
-4.94999976E+02
 21
6.83867349E+01
  0
LINE
  8
0
 62
7
 10
-4.95000023E+02
 20
6.26132507E+01
 11
-4.95000023E+02
 21
6.83867493E+01
  0
LINE
  8
0
 62
7
 10
-4.99999949E+02
 20
5.97264354E+01
 11
-4.94999895E+02
 21
6.26132069E+01
  0
LINE
  8
0
 62
7
 10
-5.05000000E+02
 20
6.26132707E+01
 11
-4.99999999E+02
 21
5.97265296E+01
  0
LINE
  8
0
 62
7
 10
-5.05000023E+02
 20
6.83867493E+01
 11
-5.05000023E+02
 21
6.26132507E+01
  0
LINE
  8
0
  6
CENTER
 62
2
 10
-4.43484093E+02
 20
1.35500000E+02
 11
-4.14947472E+02
 21
1.35500000E+02
  0
LINE
  8
0
  6
CENTER
 62
2
 10
-4.29999901E+02
 20
1.21422363E+02
 11
-4.29999901E+02
 21
1.50607056E+02
  0
LINE
  8
0
 62
7
 10
-4.24999986E+02
 20
1.32613239E+02
 11
-4.29999987E+02
 21
1.29726498E+02
  0
LINE
  8
0
 62
7
 10
-4.30000019E+02
 20
1.29726592E+02
 11
-4.35000021E+02
 21
1.32613333E+02
  0
LINE
  8
0
 62
7
 10
-4.35000023E+02
 20
1.38386749E+02
 11
-4.35000023E+02
 21
1.32613251E+02
  0
LINE
  8
0
 62
7
 10
-4.29999919E+02
 20
1.41273532E+02
 11
-4.34999920E+02
 21
1.38386791E+02
  0
LINE
  8
0
 62
7
 10
-4.24999943E+02
 20
1.38386767E+02
 11
-4.29999944E+02
 21
1.41273508E+02
  0
LINE
  8
0
 62
7
 10
-4.24999962E+02
 20
1.32613251E+02
 11
-4.24999962E+02
 21
1.38386749E+02
  0
LINE
  8
0
  6
CENTER
 62
2
 10
-4.86515892E+02
 20
1.35500000E+02
 11
-5.15052513E+02
 21
1.35500000E+02
  0
LINE
  8
0
  6
CENTER
 62
2
 10
-4.99999962E+02
 20
1.21422363E+02
 11
-4.99999962E+02
 21
1.50607056E+02
  0
LINE
  8
0
 62
7
 10
-5.05000039E+02
 20
1.32613281E+02
 11
-5.00000038E+02
 21
1.29726540E+02
  0
LINE
  8
0
 62
7
 10
-4.99999941E+02
 20
1.29726499E+02
 11
-4.94999940E+02
 21
1.32613240E+02
  0
LINE
  8
0
 62
7
 10
-4.95000023E+02
 20
1.38386749E+02
 11
-4.95000023E+02
 21
1.32613251E+02
  0
LINE
  8
0
 62
7
 10
-4.99999947E+02
 20
1.41273482E+02
 11
-4.94999893E+02
 21
1.38386711E+02
  0
LINE
  8
0
 62
7
 10
-5.04999988E+02
 20
1.38386867E+02
 11
-4.99999987E+02
 21
1.41273608E+02
  0
LINE
  8
0
 62
7
 10
-5.05000023E+02
 20
1.32613251E+02
 11
-5.05000023E+02
 21
1.38386749E+02
  0
CIRCLE
  8
0
 62
7
 10
-4.65000023E+02
 20
1.00500000E+02
 40
8.99999237E+00
  0
CIRCLE
  8
0
 62
2
 10
-4.65000023E+02
 20
1.00500000E+02
 40
8.18000031E+00
  0
CIRCLE
  8
0
 62
7
 10
-4.65000023E+02
 20
1.00500000E+02
 40
1.75294495E+01
  0
CIRCLE
  8
0
 62
7
 10
-4.65000023E+02
 20
1.00500000E+02
 40
1.90000000E+01
  0
CIRCLE
  8
0
 62
7
 10
-4.65000023E+02
 20
1.00500000E+02
 40
1.70000000E+01
  0
ARC
  8
0
 62
7
 10
-4.16840843E+02
 20
1.03500000E+02
 40
6.84084702E+00
 50
3.33989137E+02
 51
2.60107913E+01
  0
ARC
  8
0
 62
7
 10
-4.16840843E+02
 20
9.75000000E+01
 40
6.84088802E+00
 50
3.33989277E+02
 51
2.60106513E+01
  0
ARC
  8
0
 62
7
 10
-5.13159081E+02
 20
1.03500000E+02
 40
6.84084702E+00
 50
1.53989169E+02
 51
2.06010827E+02
  0
ARC
  8
0
 62
7
 10
-5.13159081E+02
 20
9.75000000E+01
 40
6.84088802E+00
 50
1.53989320E+02
 51
2.06010690E+02
  0
ARC
  8
0
 62
7
 10
-5.08000023E+02
 20
1.43500000E+02
 40
4.00000000E+00
 50
8.99999818E+01
 51
1.79999964E+02
  0
ARC
  8
0
 62
7
 10
-5.08000023E+02
 20
5.75000000E+01
 40
4.00000000E+00
 50
1.79999977E+02
 51
2.70000028E+02
  0
ARC
  8
0
 62
7
 10
-4.21999962E+02
 20
5.75000000E+01
 40
4.00000000E+00
 50
2.70000018E+02
 51
0.00000000E+00
  0
ARC
  8
0
 62
7
 10
-4.21999962E+02
 20
1.43500000E+02
 40
4.00000000E+00
 50
0.00000000E+00
 51
8.99999818E+01
  0
CIRCLE
  8
0
 62
7
 10
-4.29999901E+02
 20
6.55000000E+01
 40
8.00002670E+00
  0
CIRCLE
  8
0
 62
7
 10
-4.29999901E+02
 20
6.55000000E+01
 40
8.25002670E+00
  0
CIRCLE
  8
0
 62
2
 10
-4.29999901E+02
 20
6.55000000E+01
 40
5.00000000E+00
  0
CIRCLE
  8
0
 62
7
 10
-4.29999901E+02
 20
6.55000000E+01
 40
4.18000031E+00
  0
CIRCLE
  8
0
 62
7
 10
-4.99999962E+02
 20
6.55000000E+01
 40
8.00002670E+00
  0
CIRCLE
  8
0
 62
7
 10
-4.99999962E+02
 20
6.55000000E+01
 40
8.25002670E+00
  0
CIRCLE
  8
0
 62
2
 10
-4.99999962E+02
 20
6.55000000E+01
 40
5.00000000E+00
  0
CIRCLE
  8
0
 62
7
 10
-4.99999962E+02
 20
6.55000000E+01
 40
4.18000031E+00
  0
CIRCLE
  8
0
 62
7
 10
-4.99999962E+02
 20
1.35500000E+02
 40
4.18000031E+00
  0
CIRCLE
  8
0
 62
7
 10
-4.29999901E+02
 20
1.35500000E+02
 40
8.00002670E+00
  0
CIRCLE
  8
0
 62
7
 10
-4.29999901E+02
 20
1.35500000E+02
 40
8.25002670E+00
  0
CIRCLE
  8
0
 62
2
 10
-4.29999901E+02
 20
1.35500000E+02
 40
5.00000000E+00
  0
CIRCLE
  8
0
 62
7
 10
-4.29999901E+02
 20
1.35500000E+02
 40
4.18000031E+00
  0
CIRCLE
  8
0
 62
7
 10
-4.99999962E+02
 20
1.35500000E+02
 40
8.00002670E+00
  0
CIRCLE
  8
0
 62
7
 10
-4.99999962E+02
 20
1.35500000E+02
 40
8.25002670E+00
  0
CIRCLE
  8
0
 62
2
 10
-4.99999962E+02
 20
1.35500000E+02
 40
5.00000000E+00
  0
LINE
  8
0
 62
4
 10
-4.51500023E+02
 20
1.08294229E+02
 11
-4.65000023E+02
 21
1.16088457E+02
  0
LINE
  8
0
 62
4
 10
-4.51500023E+02
 20
9.27057714E+01
 11
-4.51500023E+02
 21
1.08294229E+02
  0
LINE
  8
0
 62
4
 10
-4.65000023E+02
 20
8.49115427E+01
 11
-4.51500023E+02
 21
9.27057714E+01
  0
LINE
  8
0
 62
4
 10
-4.78500023E+02
 20
9.27057714E+01
 11
-4.65000023E+02
 21
8.49115427E+01
  0
LINE
  8
0
 62
4
 10
-4.78500023E+02
 20
1.08294229E+02
 11
-4.78500023E+02
 21
9.27057714E+01
  0
LINE
  8
0
 62
4
 10
-4.65000023E+02
 20
1.16088457E+02
 11
-4.78500023E+02
 21
1.08294229E+02
  0
CIRCLE
  8
0
 62
4
 10
-4.65000023E+02
 20
1.00500000E+02
 40
1.35000000E+01
  0
LINE
  8
0
 62
4
 10
-4.79845811E+02
 20
1.49176964E+02
 11
-4.85006976E+02
 21
1.47500000E+02
  0
LINE
  8
0
 62
4
 10
-4.79629499E+02
 20
1.48511224E+02
 11
-4.78678443E+02
 21
1.48820241E+02
  0
ARC
  8
0
 62
4
 10
-4.77170362E+02
 20
1.47838200E+02
 40
1.00000000E+00
 50
3.08275100E+01
 51
1.08000000E+02
  0
LINE
  8
0
 62
4
 10
-4.78554836E+02
 20
1.48439819E+02
 11
-4.77480142E+02
 21
1.48789008E+02
  0
LINE
  8
0
 62
4
 10
-4.50154265E+02
 20
1.49176964E+02
 11
-4.44993101E+02
 21
1.47500000E+02
  0
LINE
  8
0
 62
4
 10
-4.50370577E+02
 20
1.48511224E+02
 11
-4.51321633E+02
 21
1.48820241E+02
  0
ARC
  8
0
 62
4
 10
-4.52829714E+02
 20
1.47838200E+02
 40
1.00000000E+00
 50
7.19999999E+01
 51
1.49172490E+02
  0
LINE
  8
0
 62
4
 10
-4.51445240E+02
 20
1.48439819E+02
 11
-4.52519934E+02
 21
1.48789008E+02
  0
LINE
  8
0
 62
4
 10
-4.51750606E+02
 20
1.47500000E+02
 11
-4.51321633E+02
 21
1.48820241E+02
  0
ARC
  8
0
 62
4
 10
-4.43547016E+02
 20
1.42298559E+02
 40
1.18100000E+01
 50
1.49172490E+02
 51
1.53868880E+02
  0
LINE
  8
0
 62
4
 10
-4.50699143E+02
 20
1.47500000E+02
 11
-4.50154265E+02
 21
1.49176964E+02
  0
ARC
  8
0
 62
4
 10
-4.86453060E+02
 20
1.42298559E+02
 40
1.18100000E+01
 50
2.61311204E+01
 51
3.08275100E+01
  0
LINE
  8
0
 62
4
 10
-4.78249471E+02
 20
1.47500000E+02
 11
-4.78678443E+02
 21
1.48820241E+02
  0
LINE
  8
0
 62
4
 10
-4.79300933E+02
 20
1.47500000E+02
 11
-4.79845811E+02
 21
1.49176964E+02
  0
LINE
  8
0
 62
7
 10
2.58500038E+02
 20
9.94999695E+01
 11
2.44899757E+02
 21
9.94999695E+01
  0
LINE
  8
0
 62
7
 10
2.54349648E+02
 20
1.20000031E+02
 11
2.50436501E+02
 21
1.20000031E+02
  0
LINE
  8
0
 62
7
 10
2.39778523E+02
 20
8.71360762E+01
 11
2.47140360E+02
 21
7.97742398E+01
  0
LINE
  8
0
 62
7
 10
2.45085640E+02
 20
1.22000000E+02
 11
2.39541603E+02
 21
1.22000000E+02
  0
LINE
  8
0
 62
7
 10
2.45085640E+02
 20
7.90000076E+01
 11
2.39541603E+02
 21
7.90000076E+01
  0
LINE
  8
0
 62
7
 10
2.48499947E+02
 20
1.18500015E+02
 11
2.44414162E+02
 21
1.18500015E+02
  0
LINE
  8
0
 62
7
 10
2.48499947E+02
 20
1.06500046E+02
 11
2.43999977E+02
 21
1.06500046E+02
  0
LINE
  8
0
 62
7
 10
2.58500038E+02
 20
1.05000008E+02
 11
2.50436501E+02
 21
1.05000008E+02
  0
LINE
  8
0
 62
7
 10
2.43999977E+02
 20
1.18085800E+02
 11
2.43999977E+02
 21
1.02063599E+02
  0
LINE
  8
0
 62
7
 10
2.38541603E+02
 20
1.24268005E+02
 11
2.25999947E+02
 21
1.24268005E+02
  0
LINE
  8
0
 62
7
 10
2.38541603E+02
 20
1.26000031E+02
 11
2.25999947E+02
 21
1.26000031E+02
  0
LINE
  8
0
 62
7
 10
2.43999977E+02
 20
1.22000000E+02
 11
2.43999977E+02
 21
1.20914200E+02
  0
LINE
  8
0
 62
7
 10
2.43999977E+02
 20
7.90000076E+01
 11
2.43999977E+02
 21
8.00858002E+01
  0
LINE
  8
0
 62
7
 10
2.38541603E+02
 20
7.49999695E+01
 11
2.25999947E+02
 21
7.49999695E+01
  0
LINE
  8
0
 62
7
 10
2.43999977E+02
 20
8.29142151E+01
 11
2.43999977E+02
 21
9.89364014E+01
  0
LINE
  8
0
 62
7
 10
2.38541603E+02
 20
7.67319946E+01
 11
2.25999947E+02
 21
7.67319946E+01
  0
LINE
  8
0
  6
CENTER
 62
2
 10
2.53000038E+02
 20
1.17270401E+02
 11
2.53000038E+02
 21
1.40057983E+02
  0
LINE
  8
0
  6
CENTER
 62
2
 10
2.53000130E+02
 20
6.10016174E+01
 11
2.53000130E+02
 21
8.35345917E+01
  0
LINE
  8
0
 62
7
 10
2.62500069E+02
 20
6.69999695E+01
 11
2.62500069E+02
 21
1.34000000E+02
  0
LINE
  8
0
 62
7
 10
2.26000038E+02
 20
6.69999695E+01
 11
2.26000038E+02
 21
8.06002502E+01
  0
LINE
  8
0
 62
7
 10
2.58499977E+02
 20
1.01499969E+02
 11
2.44899757E+02
 21
1.01499969E+02
  0
LINE
  8
0
 62
7
 10
1.91499992E+02
 20
6.35000000E+01
 11
2.58499977E+02
 21
6.35000000E+01
  0
LINE
  8
0
 62
7
 10
2.23999977E+02
 20
1.34000015E+02
 11
2.23999977E+02
 21
1.20399750E+02
  0
LINE
  8
0
 62
7
 10
2.39778430E+02
 20
1.13863957E+02
 11
2.47140289E+02
 21
1.21225815E+02
  0
LINE
  8
0
 62
7
 10
2.38364288E+02
 20
8.57218194E+01
 11
2.45726136E+02
 21
7.83599721E+01
  0
LINE
  8
0
 62
7
 10
2.59500069E+02
 20
8.74998779E+01
 11
2.59500069E+02
 21
1.13500076E+02
  0
LINE
  8
0
 62
7
 10
2.26000008E+02
 20
1.34000000E+02
 11
2.26000008E+02
 21
1.20399750E+02
  0
LINE
  8
0
 62
7
 10
2.62000069E+02
 20
6.69999695E+01
 11
2.62000069E+02
 21
1.34000000E+02
  0
LINE
  8
0
 62
7
 10
2.38364216E+02
 20
1.15278106E+02
 11
2.45726064E+02
 21
1.22639953E+02
  0
LINE
  8
0
 62
7
 10
2.00999977E+02
 20
7.48093719E+01
 11
2.00999977E+02
 21
7.01905670E+01
  0
LINE
  8
0
 62
7
 10
1.96999995E+02
 20
7.71187688E+01
 11
2.00999984E+02
 21
7.48093740E+01
  0
LINE
  8
0
 62
7
 10
2.57000049E+02
 20
1.26190671E+02
 11
2.53000047E+02
 21
1.23881269E+02
  0
LINE
  8
0
 62
7
 10
2.53000046E+02
 20
1.23881251E+02
 11
2.49000044E+02
 21
1.26190653E+02
  0
LINE
  8
0
 62
7
 10
1.96999984E+02
 20
6.78811709E+01
 11
1.92999995E+02
 21
7.01905657E+01
  0
LINE
  8
0
 62
7
 10
1.96999989E+02
 20
7.71187701E+01
 11
1.92999986E+02
 21
7.48093677E+01
  0
LINE
  8
0
 62
7
 10
2.53000044E+02
 20
1.33118856E+02
 11
2.57000046E+02
 21
1.30809454E+02
  0
LINE
  8
0
 62
7
 10
2.57000038E+02
 20
1.30809464E+02
 11
2.57000038E+02
 21
1.26190674E+02
  0
LINE
  8
0
 62
7
 10
2.49000130E+02
 20
7.48093719E+01
 11
2.49000130E+02
 21
7.01905670E+01
  0
LINE
  8
0
 62
7
 10
2.53000114E+02
 20
7.71187652E+01
 11
2.57000116E+02
 21
7.48093627E+01
  0
LINE
  8
0
 62
7
 10
2.57000130E+02
 20
7.48093719E+01
 11
2.57000130E+02
 21
7.01905670E+01
  0
LINE
  8
0
 62
7
 10
2.57000110E+02
 20
7.01905673E+01
 11
2.53000107E+02
 21
6.78811649E+01
  0
LINE
  8
0
 62
7
 10
2.53000118E+02
 20
6.78811629E+01
 11
2.49000116E+02
 21
7.01905654E+01
  0
LINE
  8
0
 62
7
 10
2.53000110E+02
 20
7.71187705E+01
 11
2.49000107E+02
 21
7.48093680E+01
  0
LINE
  8
0
 62
7
 10
1.92999977E+02
 20
7.48093719E+01
 11
1.92999977E+02
 21
7.01905670E+01
  0
LINE
  8
0
 62
7
 10
2.49500069E+02
 20
1.19350876E+02
 11
2.49500069E+02
 21
1.05999992E+02
  0
LINE
  8
0
 62
7
 10
1.91499992E+02
 20
1.37500031E+02
 11
2.58500038E+02
 21
1.37500031E+02
  0
LINE
  8
0
 62
7
 10
2.00999989E+02
 20
7.01905670E+01
 11
1.96999986E+02
 21
6.78811646E+01
  0
LINE
  8
0
 62
7
 10
2.11636060E+02
 20
1.15278608E+02
 11
2.04274233E+02
 21
1.22640432E+02
  0
LINE
  8
0
 62
7
 10
2.10221847E+02
 20
1.13864394E+02
 11
2.02859998E+02
 21
1.21226240E+02
  0
LINE
  8
0
 62
7
 10
1.90499962E+02
 20
8.74998779E+01
 11
1.90499962E+02
 21
1.13500076E+02
  0
LINE
  8
0
 62
7
 10
1.91499992E+02
 20
1.01499985E+02
 11
2.05100258E+02
 21
1.01499985E+02
  0
LINE
  8
0
 62
7
 10
1.87499977E+02
 20
6.70000000E+01
 11
1.87499977E+02
 21
1.34000015E+02
  0
LINE
  8
0
  6
CENTER
 62
2
 10
1.96999901E+02
 20
1.40185287E+02
 11
1.96999901E+02
 21
1.17270401E+02
  0
LINE
  8
0
 62
7
 10
1.87999962E+02
 20
6.70000000E+01
 11
1.87999962E+02
 21
1.34000015E+02
  0
LINE
  8
0
 62
7
 10
2.23999977E+02
 20
1.26000031E+02
 11
2.20999947E+02
 21
1.26000031E+02
  0
LINE
  8
0
 62
7
 10
2.23999977E+02
 20
1.24268005E+02
 11
2.21999977E+02
 21
1.24268005E+02
  0
LINE
  8
0
 62
7
 10
2.21000008E+02
 20
1.34000015E+02
 11
2.21000008E+02
 21
1.26000031E+02
  0
LINE
  8
0
 62
7
 10
2.22000197E+02
 20
1.24268060E+02
 11
2.21000197E+02
 21
1.26000111E+02
  0
LINE
  8
0
 62
7
 10
2.21999977E+02
 20
1.24268005E+02
 11
2.21999977E+02
 21
1.20095917E+02
  0
LINE
  8
0
  6
CENTER
 62
2
 10
2.32999977E+02
 20
1.40185287E+02
 11
2.32999977E+02
 21
1.28300018E+02
  0
LINE
  8
0
  6
CENTER
 62
2
 10
2.65045083E+02
 20
1.28500061E+02
 11
2.42893990E+02
 21
1.28500061E+02
  0
LINE
  8
0
 62
7
 10
2.24000038E+02
 20
6.70000000E+01
 11
2.24000038E+02
 21
8.06002502E+01
  0
LINE
  8
0
 62
7
 10
2.06149193E+02
 20
7.59999771E+01
 11
2.19850807E+02
 21
7.59999771E+01
  0
LINE
  8
0
 62
7
 10
2.00499931E+02
 20
8.16491241E+01
 11
2.00499931E+02
 21
9.53508453E+01
  0
LINE
  8
0
 62
7
 10
1.95650230E+02
 20
8.09999771E+01
 11
1.99563499E+02
 21
8.09999771E+01
  0
LINE
  8
0
 62
7
 10
2.05499962E+02
 20
7.24999390E+01
 11
2.05499962E+02
 21
7.50635071E+01
  0
LINE
  8
0
 62
7
 10
2.10221679E+02
 20
8.71357720E+01
 11
2.02859854E+02
 21
7.97739451E+01
  0
LINE
  8
0
 62
7
 10
2.11635979E+02
 20
8.57215801E+01
 11
2.04274132E+02
 21
7.83597317E+01
  0
LINE
  8
0
 62
7
 10
2.11999901E+02
 20
6.59999924E+01
 11
2.38000069E+02
 21
6.59999924E+01
  0
LINE
  8
0
 62
7
 10
1.91499992E+02
 20
9.95000000E+01
 11
2.05100258E+02
 21
9.95000000E+01
  0
LINE
  8
0
 62
7
 10
1.91499992E+02
 20
6.30000000E+01
 11
2.58499977E+02
 21
6.30000000E+01
  0
LINE
  8
0
 62
7
 10
2.23999977E+02
 20
7.67319946E+01
 11
2.21999977E+02
 21
7.67319946E+01
  0
LINE
  8
0
 62
7
 10
2.23999977E+02
 20
7.49999695E+01
 11
2.20999947E+02
 21
7.49999695E+01
  0
LINE
  8
0
 62
7
 10
2.21000008E+02
 20
6.70000000E+01
 11
2.21000008E+02
 21
7.49999542E+01
  0
LINE
  8
0
 62
7
 10
2.20499977E+02
 20
6.70000000E+01
 11
2.20499977E+02
 21
7.50635071E+01
  0
LINE
  8
0
 62
7
 10
2.18999977E+02
 20
7.69999695E+01
 11
2.18999977E+02
 21
8.11350937E+01
  0
LINE
  8
0
 62
7
 10
2.21999977E+02
 20
7.67319946E+01
 11
2.21999977E+02
 21
8.09040833E+01
  0
LINE
  8
0
 62
7
 10
2.22000196E+02
 20
7.67319397E+01
 11
2.21000189E+02
 21
7.49998756E+01
  0
LINE
  8
0
 62
7
 10
2.06999977E+02
 20
7.70000000E+01
 11
2.06999977E+02
 21
8.10858459E+01
  0
LINE
  8
0
 62
7
 10
2.01499992E+02
 20
8.24999924E+01
 11
2.05585686E+02
 21
8.24999924E+01
  0
LINE
  8
0
 62
7
 10
2.01499992E+02
 20
9.44999695E+01
 11
2.05635124E+02
 21
9.44999695E+01
  0
LINE
  8
0
 62
7
 10
1.91499992E+02
 20
9.60000000E+01
 11
1.99563499E+02
 21
9.60000000E+01
  0
LINE
  8
0
  6
CENTER
 62
2
 10
1.84970253E+02
 20
7.24999695E+01
 11
2.07503212E+02
 21
7.24999695E+01
  0
LINE
  8
0
 62
7
 10
2.49999977E+02
 20
1.38000031E+02
 11
2.49999977E+02
 21
1.37500031E+02
  0
LINE
  8
0
 62
7
 10
1.99999977E+02
 20
1.38000031E+02
 11
1.99999977E+02
 21
1.37500031E+02
  0
LINE
  8
0
 62
7
 10
2.49999977E+02
 20
6.35000000E+01
 11
2.49999977E+02
 21
6.30000000E+01
  0
LINE
  8
0
 62
7
 10
1.99999977E+02
 20
6.35000000E+01
 11
1.99999977E+02
 21
6.30000000E+01
  0
LINE
  8
0
 62
7
 10
2.38541603E+02
 20
1.34000015E+02
 11
2.38541603E+02
 21
1.23000000E+02
  0
LINE
  8
0
 62
7
 10
2.38541603E+02
 20
7.80000000E+01
 11
2.38541603E+02
 21
6.70000000E+01
  0
LINE
  8
0
 62
7
 10
2.20499977E+02
 20
1.34000015E+02
 11
2.20499977E+02
 21
1.25936508E+02
  0
LINE
  8
0
 62
7
 10
2.06149345E+02
 20
1.25000031E+02
 11
2.19850655E+02
 21
1.25000031E+02
  0
LINE
  8
0
 62
7
 10
2.18999977E+02
 20
1.24000031E+02
 11
2.18999977E+02
 21
1.19864914E+02
  0
LINE
  8
0
 62
7
 10
2.08999992E+02
 20
1.15085922E+02
 11
2.08999992E+02
 21
1.10746948E+02
  0
LINE
  8
0
 62
7
 10
2.06999977E+02
 20
1.24000031E+02
 11
2.06999977E+02
 21
1.19914261E+02
  0
LINE
  8
0
 62
7
 10
2.05499962E+02
 20
1.28500031E+02
 11
2.05499962E+02
 21
1.25936508E+02
  0
LINE
  8
0
 62
7
 10
2.11999870E+02
 20
1.35000031E+02
 11
2.38000038E+02
 21
1.35000031E+02
  0
LINE
  8
0
 62
7
 10
1.91499992E+02
 20
1.38000031E+02
 11
2.58500038E+02
 21
1.38000031E+02
  0
LINE
  8
0
 62
7
 10
2.42500038E+02
 20
1.30500214E+02
 11
2.43763588E+02
 21
1.30500214E+02
  0
LINE
  8
0
 62
7
 10
2.55000252E+02
 20
1.18000061E+02
 11
2.55000252E+02
 21
1.19263657E+02
  0
LINE
  8
0
 62
7
 10
2.07499855E+02
 20
1.30500244E+02
 11
2.06236427E+02
 21
1.30500244E+02
  0
LINE
  8
0
 62
7
 10
1.94999779E+02
 20
1.18000061E+02
 11
1.94999779E+02
 21
1.19263794E+02
  0
LINE
  8
0
 62
7
 10
2.07499901E+02
 20
7.04998093E+01
 11
2.06236168E+02
 21
7.04998093E+01
  0
LINE
  8
0
 62
7
 10
1.94999779E+02
 20
8.29998779E+01
 11
1.94999779E+02
 21
8.17363129E+01
  0
LINE
  8
0
 62
7
 10
2.55000252E+02
 20
8.29998779E+01
 11
2.55000252E+02
 21
8.17364655E+01
  0
LINE
  8
0
 62
7
 10
2.42500099E+02
 20
7.04997940E+01
 11
2.43763618E+02
 21
7.04997940E+01
  0
LINE
  8
0
  6
CENTER
 62
2
 10
2.42766670E+02
 20
7.24999695E+01
 11
2.65045083E+02
 21
7.24999695E+01
  0
LINE
  8
0
  6
CENTER
 62
2
 10
2.07630516E+02
 20
1.28500061E+02
 11
1.85097557E+02
 21
1.28500061E+02
  0
LINE
  8
0
  6
CENTER
 62
2
 10
1.96999977E+02
 20
8.25604782E+01
 11
1.96999977E+02
 21
6.10041046E+01
  0
LINE
  8
0
 62
7
 10
2.53000053E+02
 20
1.33118868E+02
 11
2.49000050E+02
 21
1.30809465E+02
  0
LINE
  8
0
 62
7
 10
2.49000038E+02
 20
1.30809464E+02
 11
2.49000038E+02
 21
1.26190674E+02
  0
LINE
  8
0
 62
7
 10
1.96999918E+02
 20
1.33118860E+02
 11
1.92999916E+02
 21
1.30809457E+02
  0
LINE
  8
0
 62
7
 10
1.92999901E+02
 20
1.30809464E+02
 11
1.92999901E+02
 21
1.26190674E+02
  0
LINE
  8
0
 62
7
 10
1.96999912E+02
 20
1.23881259E+02
 11
1.92999910E+02
 21
1.26190661E+02
  0
LINE
  8
0
 62
7
 10
2.00999911E+02
 20
1.26190670E+02
 11
1.96999909E+02
 21
1.23881267E+02
  0
LINE
  8
0
 62
7
 10
2.00999901E+02
 20
1.30809464E+02
 11
2.00999901E+02
 21
1.26190674E+02
  0
LINE
  8
0
 62
7
 10
1.96999910E+02
 20
1.33118864E+02
 11
2.00999912E+02
 21
1.30809462E+02
  0
LINE
  8
0
 62
7
 10
2.73499917E+02
 20
1.06499969E+02
 11
2.79999977E+02
 21
1.06499969E+02
  0
LINE
  8
0
 62
7
 10
2.71999978E+02
 20
9.25000000E+01
 11
2.73499917E+02
 21
9.25000000E+01
  0
LINE
  8
0
 62
7
 10
2.71999978E+02
 20
1.08499969E+02
 11
2.73499917E+02
 21
1.08499969E+02
  0
LINE
  8
0
 62
7
 10
2.73499917E+02
 20
1.00500000E+02
 11
2.79307106E+02
 21
1.00500000E+02
  0
LINE
  8
0
 62
7
 10
2.73499917E+02
 20
9.45000000E+01
 11
2.79999977E+02
 21
9.45000000E+01
  0
LINE
  8
0
 62
7
 10
2.79999977E+02
 20
9.45000000E+01
 11
2.79999977E+02
 21
1.06500000E+02
  0
LINE
  8
0
 62
7
 10
2.82000038E+02
 20
9.72000122E+01
 11
2.82000038E+02
 21
1.03799988E+02
  0
LINE
  8
0
 62
7
 10
2.79999977E+02
 20
9.64999695E+01
 11
2.81300026E+02
 21
9.64999695E+01
  0
LINE
  8
0
 62
7
 10
2.79999977E+02
 20
1.04499969E+02
 11
2.81300026E+02
 21
1.04499969E+02
  0
LINE
  8
0
 62
2
 10
2.79999977E+02
 20
9.71999512E+01
 11
2.81999977E+02
 21
9.71999512E+01
  0
LINE
  8
0
 62
2
 10
2.79999977E+02
 20
1.03799988E+02
 11
2.81999977E+02
 21
1.03799988E+02
  0
LINE
  8
0
 62
7
 10
2.81300026E+02
 20
9.65000305E+01
 11
2.81300026E+02
 21
1.04500000E+02
  0
LINE
  8
0
 62
7
 10
2.81299897E+02
 20
9.65000092E+01
 11
2.81999947E+02
 21
9.72000595E+01
  0
LINE
  8
0
 62
7
 10
2.67999977E+02
 20
1.47500000E+02
 11
2.45006899E+02
 21
1.47500000E+02
  0
LINE
  8
0
 62
7
 10
2.71999978E+02
 20
1.43500000E+02
 11
2.71999978E+02
 21
5.75000000E+01
  0
LINE
  8
0
 62
7
 10
1.76499855E+02
 20
9.25000153E+01
 11
1.76499855E+02
 21
1.08500000E+02
  0
LINE
  8
0
 62
7
 10
1.77999916E+02
 20
1.08499969E+02
 11
1.76499977E+02
 21
1.08499969E+02
  0
LINE
  8
0
 62
7
 10
1.77999916E+02
 20
9.25000000E+01
 11
1.76499977E+02
 21
9.25000000E+01
  0
LINE
  8
0
 62
7
 10
1.67999977E+02
 20
9.72000122E+01
 11
1.67999977E+02
 21
1.03799988E+02
  0
LINE
  8
0
 62
7
 10
1.69999916E+02
 20
9.45000000E+01
 11
1.69999916E+02
 21
1.06500000E+02
  0
LINE
  8
0
 62
7
 10
1.69999916E+02
 20
9.64999695E+01
 11
1.68700050E+02
 21
9.64999695E+01
  0
LINE
  8
0
 62
7
 10
1.69999916E+02
 20
1.04499969E+02
 11
1.68700050E+02
 21
1.04499969E+02
  0
LINE
  8
0
 62
2
 10
1.69999916E+02
 20
9.71999512E+01
 11
1.68000038E+02
 21
9.71999512E+01
  0
LINE
  8
0
 62
2
 10
1.69999916E+02
 20
1.03799988E+02
 11
1.68000038E+02
 21
1.03799988E+02
  0
LINE
  8
0
 62
7
 10
1.68699928E+02
 20
9.65000305E+01
 11
1.68699928E+02
 21
1.04500000E+02
  0
LINE
  8
0
 62
7
 10
1.68699757E+02
 20
9.64997065E+01
 11
1.67999771E+02
 21
9.71996921E+01
  0
LINE
  8
0
 62
7
 10
1.67999911E+02
 20
1.03800042E+02
 11
1.68699939E+02
 21
1.04500071E+02
  0
LINE
  8
0
 62
7
 10
1.76499977E+02
 20
1.00500000E+02
 11
1.70692787E+02
 21
1.00500000E+02
  0
LINE
  8
0
  6
CENTER
 62
2
 10
2.84957253E+02
 20
1.00500000E+02
 11
1.64613747E+02
 21
1.00500000E+02
  0
LINE
  8
0
 62
7
 10
1.76499977E+02
 20
9.45000000E+01
 11
1.69999977E+02
 21
9.45000000E+01
  0
LINE
  8
0
 62
7
 10
1.77999916E+02
 20
1.43500000E+02
 11
1.77999916E+02
 21
5.75000000E+01
  0
LINE
  8
0
 62
7
 10
2.81999786E+02
 20
1.03799741E+02
 11
2.81299725E+02
 21
1.04499802E+02
  0
LINE
  8
0
 62
7
 10
2.67999977E+02
 20
5.35000000E+01
 11
1.81999916E+02
 21
5.35000000E+01
  0
LINE
  8
0
  6
CENTER
 62
2
 10
2.24999977E+02
 20
1.53068634E+02
 11
2.24999977E+02
 21
4.79008751E+01
  0
LINE
  8
0
 62
7
 10
1.76499977E+02
 20
1.06499969E+02
 11
1.69999977E+02
 21
1.06499969E+02
  0
LINE
  8
0
 62
7
 10
2.73499856E+02
 20
9.25000153E+01
 11
2.73499856E+02
 21
1.08500000E+02
  0
CIRCLE
  8
0
 62
7
 10
2.53000038E+02
 20
1.28500061E+02
 40
6.50000048E+00
  0
ARC
  8
0
 62
7
 10
2.47847267E+02
 20
1.20518860E+02
 40
1.00000000E+00
 50
5.71538311E+01
 51
1.35000014E+02
  0
ARC
  8
0
 62
7
 10
2.45018867E+02
 20
1.23347290E+02
 40
1.00000000E+00
 50
3.15000047E+02
 51
3.28467588E+01
  0
CIRCLE
  8
0
 62
7
 10
2.53000038E+02
 20
7.24999695E+01
 40
6.50000048E+00
  0
ARC
  8
0
 62
7
 10
2.58500038E+02
 20
1.04000008E+02
 40
1.00000000E+00
 50
3.59999981E+02
 51
8.99999618E+01
  0
ARC
  8
0
 62
7
 10
2.50436501E+02
 20
1.19000031E+02
 40
1.00000000E+00
 50
9.00000162E+01
 51
1.65522558E+02
  0
ARC
  8
0
 62
7
 10
2.40485481E+02
 20
1.13157028E+02
 40
1.00000000E+00
 50
1.35000014E+02
 51
2.19261011E+02
  0
ARC
  8
0
 62
7
 10
2.37657021E+02
 20
1.15985458E+02
 40
1.00000000E+00
 50
2.30739011E+02
 51
3.15000026E+02
  0
ARC
  8
0
 62
7
 10
2.26999977E+02
 20
1.20399750E+02
 40
1.00000000E+00
 50
1.80000036E+02
 51
2.64260549E+02
  0
ARC
  8
0
 62
7
 10
2.44899757E+02
 20
9.85000000E+01
 40
1.00000000E+00
 50
8.99999618E+01
 51
1.74260515E+02
  0
ARC
  8
0
 62
7
 10
2.58500038E+02
 20
9.85000000E+01
 40
1.00000000E+00
 50
3.59999981E+02
 51
8.99999618E+01
  0
ARC
  8
0
 62
7
 10
1.96999901E+02
 20
1.28500031E+02
 40
8.50000000E+00
 50
2.63823540E+02
 51
6.17668522E+00
  0
ARC
  8
0
 62
7
 10
2.40485481E+02
 20
8.78429565E+01
 40
1.00000000E+00
 50
1.40739039E+02
 51
2.25000037E+02
  0
ARC
  8
0
 62
7
 10
2.37657021E+02
 20
8.50145264E+01
 40
1.00000000E+00
 50
4.50000149E+01
 51
1.29261016E+02
  0
ARC
  8
0
 62
7
 10
2.45018867E+02
 20
7.76526947E+01
 40
1.00000000E+00
 50
3.27153835E+02
 51
4.50000149E+01
  0
ARC
  8
0
 62
7
 10
2.47847267E+02
 20
8.04811172E+01
 40
1.00000000E+00
 50
2.25000027E+02
 51
3.02846743E+02
  0
ARC
  8
0
 62
7
 10
2.58500038E+02
 20
1.34000000E+02
 40
3.50000000E+00
 50
2.23117997E-05
 51
8.99999750E+01
  0
ARC
  8
0
 62
7
 10
2.26999977E+02
 20
1.34000000E+02
 40
1.00000000E+00
 50
9.00000025E+01
 51
1.80000046E+02
  0
ARC
  8
0
 62
7
 10
2.22999977E+02
 20
1.20399750E+02
 40
1.00000000E+00
 50
2.75739515E+02
 51
3.59721781E-05
  0
ARC
  8
0
 62
7
 10
2.22999977E+02
 20
1.34000015E+02
 40
1.00000000E+00
 50
3.59721781E-05
 51
9.00000162E+01
  0
ARC
  8
0
 62
7
 10
2.58500008E+02
 20
6.69999695E+01
 40
3.50000000E+00
 50
2.70000011E+02
 51
3.59999964E+02
  0
ARC
  8
0
 62
7
 10
2.58500008E+02
 20
1.02500000E+02
 40
1.00000000E+00
 50
2.69999956E+02
 51
3.59999992E+02
  0
ARC
  8
0
 62
7
 10
2.44899757E+02
 20
1.02500000E+02
 40
1.00000000E+00
 50
1.85739444E+02
 51
2.69999956E+02
  0
ARC
  8
0
 62
7
 10
2.26999977E+02
 20
8.06002502E+01
 40
1.00000000E+00
 50
9.57394995E+01
 51
1.80000032E+02
  0
ARC
  8
0
 62
7
 10
2.26999977E+02
 20
6.69999695E+01
 40
1.00000000E+00
 50
1.80000022E+02
 51
2.70000011E+02
  0
ARC
  8
0
 62
7
 10
2.58500038E+02
 20
1.34000000E+02
 40
4.00000000E+00
 50
2.23117997E-05
 51
8.99999750E+01
  0
ARC
  8
0
 62
7
 10
2.58500008E+02
 20
6.69999695E+01
 40
4.00000000E+00
 50
2.70000011E+02
 51
3.59999964E+02
  0
CIRCLE
  8
0
 62
7
 10
2.53000038E+02
 20
7.24999695E+01
 40
6.00000000E+00
  0
CIRCLE
  8
0
 62
2
 10
1.96999901E+02
 20
1.28500061E+02
 40
4.00000000E+00
  0
CIRCLE
  8
0
 62
7
 10
2.53000038E+02
 20
1.28500061E+02
 40
6.00000000E+00
  0
ARC
  8
0
 62
7
 10
2.48500008E+02
 20
1.05500000E+02
 40
1.00000000E+00
 50
1.44774824E+01
 51
9.00000025E+01
  0
ARC
  8
0
 62
7
 10
2.50436501E+02
 20
1.06000015E+02
 40
1.00000000E+00
 50
1.94477442E+02
 51
2.69999984E+02
  0
ARC
  8
0
 62
7
 10
2.48500008E+02
 20
1.19500031E+02
 40
1.00000000E+00
 50
2.69999984E+02
 51
3.45522504E+02
  0
CIRCLE
  8
0
 62
7
 10
1.96999901E+02
 20
1.28500031E+02
 40
6.50000048E+00
  0
ARC
  8
0
 62
7
 10
2.09514519E+02
 20
1.13157059E+02
 40
1.00000000E+00
 50
3.20739045E+02
 51
4.50000423E+01
  0
ARC
  8
0
 62
7
 10
2.12342918E+02
 20
1.15985474E+02
 40
1.00000000E+00
 50
2.25000000E+02
 51
3.09261001E+02
  0
ARC
  8
0
 62
7
 10
2.04981133E+02
 20
1.23347305E+02
 40
1.00000000E+00
 50
1.47153844E+02
 51
2.25000010E+02
  0
ARC
  8
0
 62
7
 10
2.02152687E+02
 20
1.20518890E+02
 40
1.00000000E+00
 50
4.50000423E+01
 51
1.22846758E+02
  0
ARC
  8
0
 62
7
 10
1.91499992E+02
 20
1.34000015E+02
 40
3.50000000E+00
 50
9.00000162E+01
 51
1.80000005E+02
  0
ARC
  8
0
 62
7
 10
1.91499992E+02
 20
1.02499992E+02
 40
1.00000000E+00
 50
1.79999991E+02
 51
2.70000028E+02
  0
ARC
  8
0
 62
7
 10
2.05100258E+02
 20
1.02499992E+02
 40
1.00000000E+00
 50
2.70000038E+02
 51
3.54260543E+02
  0
ARC
  8
0
 62
7
 10
1.91499992E+02
 20
1.34000015E+02
 40
4.00000000E+00
 50
9.00000162E+01
 51
1.80000005E+02
  0
CIRCLE
  8
0
 62
7
 10
1.96999901E+02
 20
1.28500031E+02
 40
6.00000000E+00
  0
ARC
  8
0
 62
7
 10
2.21000008E+02
 20
1.20095917E+02
 40
1.00000000E+00
 50
2.81537649E+02
 51
1.86693353E-05
  0
ARC
  8
0
 62
7
 10
2.19999977E+02
 20
1.19864914E+02
 40
1.00000000E+00
 50
1.79999991E+02
 51
2.84477515E+02
  0
ARC
  8
0
 62
7
 10
2.19999977E+02
 20
1.34000015E+02
 40
1.00000000E+00
 50
3.59721781E-05
 51
9.00000162E+01
  0
ARC
  8
0
 62
7
 10
2.07499855E+02
 20
1.34000153E+02
 40
3.50000000E+00
 50
2.69999984E+02
 51
3.59998489E+02
  0
ARC
  8
0
 62
7
 10
2.11999870E+02
 20
1.34000015E+02
 40
1.00000000E+00
 50
9.00000437E+01
 51
1.79998229E+02
  0
ARC
  8
0
 62
7
 10
2.06444786E+02
 20
1.29522171E+02
 40
1.00000000E+00
 50
9.56743599E+01
 51
1.86177214E+02
  0
ARC
  8
0
 62
7
 10
1.91499840E+02
 20
1.18000061E+02
 40
3.50000000E+00
 50
2.70000995E+02
 51
1.86693353E-05
  0
ARC
  8
0
 62
7
 10
1.95977837E+02
 20
1.19055191E+02
 40
1.00000000E+00
 50
8.38236945E+01
 51
1.74325484E+02
  0
ARC
  8
0
 62
7
 10
1.91499992E+02
 20
1.13500076E+02
 40
1.00000000E+00
 50
9.00017511E+01
 51
1.80000019E+02
  0
ARC
  8
0
 62
7
 10
2.58500038E+02
 20
8.74998779E+01
 40
1.00000000E+00
 50
2.70001766E+02
 51
3.59999964E+02
  0
ARC
  8
0
 62
7
 10
2.58500160E+02
 20
8.29998703E+01
 40
3.50000000E+00
 50
9.00014985E+01
 51
1.80000005E+02
  0
ARC
  8
0
 62
7
 10
2.54022194E+02
 20
8.19448013E+01
 40
1.00000000E+00
 50
2.63822781E+02
 51
3.54325620E+02
  0
ARC
  8
0
 62
7
 10
2.53000038E+02
 20
7.24999313E+01
 40
8.50000000E+00
 50
8.38233261E+01
 51
1.86176449E+02
  0
ARC
  8
0
 62
7
 10
2.43555153E+02
 20
1.29522171E+02
 40
1.00000000E+00
 50
3.53823687E+02
 51
8.43254881E+01
  0
ARC
  8
0
 62
7
 10
2.42500038E+02
 20
1.34000122E+02
 40
3.50000000E+00
 50
1.80001006E+02
 51
2.69999984E+02
  0
ARC
  8
0
 62
7
 10
2.38000038E+02
 20
1.34000015E+02
 40
1.00000000E+00
 50
1.72985911E-03
 51
9.00000162E+01
  0
ARC
  8
0
 62
7
 10
2.38000130E+02
 20
6.69999695E+01
 40
1.00000000E+00
 50
2.70000038E+02
 51
3.59998215E+02
  0
ARC
  8
0
 62
7
 10
2.42500099E+02
 20
6.69998474E+01
 40
3.50000000E+00
 50
9.00000162E+01
 51
1.79998502E+02
  0
ARC
  8
0
 62
7
 10
2.43555244E+02
 20
7.14778137E+01
 40
1.00000000E+00
 50
2.75674382E+02
 51
6.17723160E+00
  0
ARC
  8
0
 62
7
 10
2.53000038E+02
 20
1.28500031E+02
 40
8.50000000E+00
 50
1.73823329E+02
 51
2.76176459E+02
  0
ARC
  8
0
 62
7
 10
2.54022194E+02
 20
1.19055191E+02
 40
1.00000000E+00
 50
5.67452970E+00
 51
9.61763105E+01
  0
ARC
  8
0
 62
7
 10
2.58500130E+02
 20
1.18000061E+02
 40
3.50000000E+00
 50
1.79999991E+02
 51
2.69998990E+02
  0
ARC
  8
0
 62
7
 10
2.58500038E+02
 20
1.13500076E+02
 40
1.00000000E+00
 50
3.59999995E+02
 51
8.99982676E+01
  0
ARC
  8
0
 62
7
 10
2.07499931E+02
 20
6.69998856E+01
 40
3.50000000E+00
 50
1.00585906E-03
 51
9.00000162E+01
  0
ARC
  8
0
 62
7
 10
2.11999901E+02
 20
6.69999695E+01
 40
1.00000000E+00
 50
1.80001743E+02
 51
2.69999984E+02
  0
ARC
  8
0
 62
7
 10
2.22999977E+02
 20
6.70000000E+01
 40
1.00000000E+00
 50
2.69999998E+02
 51
4.96325564E-05
  0
ARC
  8
0
 62
7
 10
2.22999977E+02
 20
8.06002502E+01
 40
1.00000000E+00
 50
4.96325564E-05
 51
8.42605536E+01
  0
CIRCLE
  8
0
 62
7
 10
2.24999977E+02
 20
1.00500000E+02
 40
1.90000000E+01
  0
CIRCLE
  8
0
 62
7
 10
1.96999977E+02
 20
7.24999313E+01
 40
6.50000048E+00
  0
ARC
  8
0
 62
7
 10
2.06499992E+02
 20
7.50635071E+01
 40
1.00000000E+00
 50
1.04477449E+02
 51
1.79999991E+02
  0
ARC
  8
0
 62
7
 10
1.91499992E+02
 20
9.70000000E+01
 40
1.00000000E+00
 50
1.79999991E+02
 51
2.70000028E+02
  0
ARC
  8
0
 62
7
 10
2.12342918E+02
 20
8.50145416E+01
 40
1.00000000E+00
 50
5.07390404E+01
 51
1.35000041E+02
  0
ARC
  8
0
 62
7
 10
2.09514519E+02
 20
8.78429718E+01
 40
1.00000000E+00
 50
3.15000019E+02
 51
3.92610168E+01
  0
ARC
  8
0
 62
7
 10
2.02152687E+02
 20
8.04811401E+01
 40
1.00000000E+00
 50
2.37153816E+02
 51
3.14999999E+02
  0
ARC
  8
0
 62
7
 10
2.04981133E+02
 20
7.76527100E+01
 40
1.00000000E+00
 50
1.35000041E+02
 51
2.12846753E+02
  0
ARC
  8
0
 62
7
 10
1.91499992E+02
 20
6.70000000E+01
 40
3.50000000E+00
 50
1.80000008E+02
 51
2.69999984E+02
  0
ARC
  8
0
 62
7
 10
2.05100258E+02
 20
9.85000000E+01
 40
1.00000000E+00
 50
5.73949849E+00
 51
9.00000300E+01
  0
ARC
  8
0
 62
7
 10
1.91499992E+02
 20
9.85000000E+01
 40
1.00000000E+00
 50
9.00000300E+01
 51
1.80000019E+02
  0
ARC
  8
0
 62
7
 10
1.91499992E+02
 20
6.70000000E+01
 40
4.00000000E+00
 50
1.80000008E+02
 51
2.69999984E+02
  0
CIRCLE
  8
0
 62
7
 10
1.96999977E+02
 20
7.24999313E+01
 40
6.00000000E+00
  0
CIRCLE
  8
0
 62
2
 10
2.53000038E+02
 20
1.28500061E+02
 40
4.00000000E+00
  0
ARC
  8
0
 62
7
 10
2.21000008E+02
 20
8.09040756E+01
 40
1.00000000E+00
 50
3.59999981E+02
 51
7.84623514E+01
  0
ARC
  8
0
 62
7
 10
2.21499977E+02
 20
6.70000000E+01
 40
1.00000000E+00
 50
1.79999991E+02
 51
2.21409625E+02
  0
ARC
  8
0
 62
7
 10
2.19999977E+02
 20
8.11350937E+01
 40
1.00000000E+00
 50
7.55224195E+01
 51
1.80000005E+02
  0
ARC
  8
0
 62
7
 10
2.05635124E+02
 20
9.54999695E+01
 40
1.00000000E+00
 50
2.69999998E+02
 51
1.44777010E+01
  0
ARC
  8
0
 62
7
 10
2.19999977E+02
 20
6.70000000E+01
 40
1.00000000E+00
 50
2.70000052E+02
 51
3.59721781E-05
  0
ARC
  8
0
 62
7
 10
2.19500069E+02
 20
7.50635071E+01
 40
1.00000000E+00
 50
3.59999995E+02
 51
7.55225284E+01
  0
ARC
  8
0
 62
7
 10
2.19999977E+02
 20
7.69999619E+01
 40
1.00000000E+00
 50
1.79999991E+02
 51
2.55522267E+02
  0
ARC
  8
0
 62
7
 10
2.05999992E+02
 20
7.70000000E+01
 40
1.00000000E+00
 50
2.84477485E+02
 51
2.23117997E-05
  0
ARC
  8
0
 62
7
 10
2.01499992E+02
 20
8.14999695E+01
 40
1.00000000E+00
 50
8.99999618E+01
 51
1.65522504E+02
  0
ARC
  8
0
 62
7
 10
1.99563530E+02
 20
8.19999619E+01
 40
1.00000000E+00
 50
2.69999984E+02
 51
3.45522463E+02
  0
ARC
  8
0
 62
7
 10
2.01499992E+02
 20
9.55000000E+01
 40
1.00000000E+00
 50
1.94477496E+02
 51
2.70000038E+02
  0
ARC
  8
0
 62
7
 10
1.99563530E+02
 20
9.50000000E+01
 40
1.00000000E+00
 50
1.44775370E+01
 51
9.00000162E+01
  0
ARC
  8
0
 62
7
 10
1.91499992E+02
 20
8.74998779E+01
 40
1.00000000E+00
 50
1.80000036E+02
 51
2.69998222E+02
  0
ARC
  8
0
 62
7
 10
1.91499840E+02
 20
8.29998703E+01
 40
3.50000000E+00
 50
3.59721781E-05
 51
8.99985065E+01
  0
ARC
  8
0
 62
7
 10
1.95977837E+02
 20
8.19448013E+01
 40
1.00000000E+00
 50
1.85674352E+02
 51
2.76177207E+02
  0
ARC
  8
0
 62
7
 10
1.96999977E+02
 20
7.24999313E+01
 40
8.50000000E+00
 50
3.53823551E+02
 51
9.61766794E+01
  0
ARC
  8
0
 62
7
 10
2.06444786E+02
 20
7.14778137E+01
 40
1.00000000E+00
 50
1.73823697E+02
 51
2.64325479E+02
  0
ARC
  8
0
 62
7
 10
2.39541603E+02
 20
7.80000000E+01
 40
1.00000000E+00
 50
9.00000162E+01
 51
1.80000005E+02
  0
ARC
  8
0
 62
7
 10
2.39541603E+02
 20
1.23000000E+02
 40
1.00000000E+00
 50
1.79999991E+02
 51
2.69999974E+02
  0
ARC
  8
0
 62
7
 10
2.37541603E+02
 20
1.34000015E+02
 40
1.00000000E+00
 50
3.59721781E-05
 51
9.00000162E+01
  0
ARC
  8
0
 62
7
 10
2.37541603E+02
 20
6.70000000E+01
 40
1.00000000E+00
 50
2.69999984E+02
 51
1.86693353E-05
  0
ARC
  8
0
 62
7
 10
2.19499977E+02
 20
1.25936508E+02
 40
1.00000000E+00
 50
2.84478387E+02
 51
3.59721781E-05
  0
ARC
  8
0
 62
7
 10
2.19999977E+02
 20
1.24000031E+02
 40
1.00000000E+00
 50
1.04477503E+02
 51
1.80000005E+02
  0
ARC
  8
0
 62
7
 10
2.05999992E+02
 20
1.24000031E+02
 40
1.00000000E+00
 50
3.59721781E-05
 51
7.55225284E+01
  0
ARC
  8
0
 62
7
 10
2.06499992E+02
 20
1.25936508E+02
 40
1.00000000E+00
 50
1.79999991E+02
 51
2.55521639E+02
  0
ARC
  8
0
 62
7
 10
2.21499977E+02
 20
1.34000015E+02
 40
1.00000000E+00
 50
1.38590371E+02
 51
1.80000005E+02
  0
CIRCLE
  8
0
 62
2
 10
2.53000130E+02
 20
7.24999695E+01
 40
4.00000000E+00
  0
CIRCLE
  8
0
 62
7
 10
2.53000130E+02
 20
7.24999695E+01
 40
3.32000017E+00
  0
CIRCLE
  8
0
 62
7
 10
2.53000038E+02
 20
1.28500061E+02
 40
3.32000017E+00
  0
CIRCLE
  8
0
 62
7
 10
1.96999901E+02
 20
1.28500061E+02
 40
3.32000017E+00
  0
CIRCLE
  8
0
 62
7
 10
1.96999977E+02
 20
7.24999695E+01
 40
3.32000017E+00
  0
CIRCLE
  8
0
 62
2
 10
1.96999977E+02
 20
7.24999695E+01
 40
4.00000000E+00
  0
ARC
  8
0
 62
7
 10
2.67999977E+02
 20
5.75000000E+01
 40
4.00000000E+00
 50
2.70000018E+02
 51
5.46415133E-05
  0
ARC
  8
0
 62
7
 10
2.73159035E+02
 20
9.75000000E+01
 40
6.84088802E+00
 50
3.33989328E+02
 51
2.60106991E+01
  0
ARC
  8
0
 62
7
 10
1.81999916E+02
 20
1.43500000E+02
 40
4.00000000E+00
 50
9.00000369E+01
 51
1.80000019E+02
  0
ARC
  8
0
 62
7
 10
2.73159035E+02
 20
1.03500000E+02
 40
6.84084702E+00
 50
3.33989192E+02
 51
2.60108493E+01
  0
ARC
  8
0
 62
7
 10
1.76840797E+02
 20
9.75000000E+01
 40
6.84088802E+00
 50
1.53989374E+02
 51
2.06010745E+02
  0
ARC
  8
0
 62
7
 10
1.76840797E+02
 20
1.03500000E+02
 40
6.84084702E+00
 50
1.53989224E+02
 51
2.06010882E+02
  0
ARC
  8
0
 62
7
 10
1.81999916E+02
 20
5.75000000E+01
 40
4.00000000E+00
 50
1.80000036E+02
 51
2.70000018E+02
  0
ARC
  8
0
 62
7
 10
2.67999977E+02
 20
1.43500000E+02
 40
4.00000000E+00
 50
5.46415133E-05
 51
9.00000369E+01
  0
LINE
  8
0
 62
4
 10
1.86274086E+02
 20
1.23542990E+02
 11
1.87499886E+02
 21
1.23941277E+02
  0
LINE
  8
0
 62
4
 10
1.87499886E+02
 20
1.19770366E+02
 11
1.86274086E+02
 21
1.23542990E+02
  0
LINE
  8
0
 62
6
 10
1.86428594E+02
 20
1.23067462E+02
 11
1.87499886E+02
 21
1.23415546E+02
  0
LINE
  8
0
 62
6
 10
1.87355645E+02
 20
1.20214292E+02
 11
1.87499886E+02
 21
1.20261159E+02
  0
LINE
  8
0
  6
CENTER
 62
6
 10
2.09575437E+02
 20
1.35425053E+02
 11
2.15281776E+02
 21
1.37279155E+02
  0
LINE
  8
0
  6
CENTER
 62
6
 10
2.11501555E+02
 20
1.39205274E+02
 11
2.13355657E+02
 21
1.33498935E+02
  0
LINE
  8
0
 62
4
 10
2.13712685E+02
 20
1.38872251E+02
 11
2.13996087E+02
 21
1.38000031E+02
  0
LINE
  8
0
 62
4
 10
2.11028266E+02
 20
1.38000031E+02
 11
2.13712685E+02
 21
1.38872251E+02
  0
LINE
  8
0
 62
4
 10
2.13712685E+02
 20
1.38872251E+02
 11
2.13268266E+02
 21
1.38000031E+02
  0
LINE
  8
0
 62
4
 10
2.10154189E+02
 20
1.49176964E+02
 11
2.00358306E+02
 21
1.45994089E+02
  0
LINE
  8
0
 62
4
 10
2.10609901E+02
 20
1.38389827E+02
 11
2.13367965E+02
 21
1.39285976E+02
  0
LINE
  8
0
 62
4
 10
2.10411290E+02
 20
1.38000031E+02
 11
2.10609901E+02
 21
1.38389827E+02
  0
LINE
  8
0
  6
CENTER
 62
6
 10
1.91345764E+02
 20
1.38334156E+02
 11
2.16740820E+02
 21
1.46585510E+02
  0
LINE
  8
0
  6
CENTER
 62
6
 10
2.01344729E+02
 20
1.37902899E+02
 11
2.17822379E+02
 21
1.43256812E+02
  0
LINE
  8
0
 62
4
 10
1.96078552E+02
 20
1.44603512E+02
 11
2.00358306E+02
 21
1.45994089E+02
  0
LINE
  8
0
 62
4
 10
2.02955733E+02
 20
1.38000031E+02
 11
2.00358306E+02
 21
1.45994089E+02
  0
LINE
  8
0
 62
4
 10
1.92713910E+02
 20
1.38000031E+02
 11
1.96078552E+02
 21
1.44603512E+02
  0
LINE
  8
0
 62
4
 10
2.10370501E+02
 20
1.48511224E+02
 11
2.11321557E+02
 21
1.48820241E+02
  0
ARC
  8
0
 62
4
 10
2.14312919E+02
 20
1.43273128E+02
 40
1.00000000E+00
 50
3.36723662E+02
 51
5.17248996E+00
  0
ARC
  8
0
 62
4
 10
2.12829638E+02
 20
1.47838200E+02
 40
1.00000000E+00
 50
3.08275100E+01
 51
1.08000000E+02
  0
ARC
  8
0
 62
4
 10
2.03546940E+02
 20
1.42298559E+02
 40
1.18100000E+01
 50
5.17248996E+00
 51
3.08275100E+01
  0
LINE
  8
0
 62
4
 10
2.11445164E+02
 20
1.48439819E+02
 11
2.12519858E+02
 21
1.48789008E+02
  0
LINE
  8
0
 62
4
 10
2.12294961E+02
 20
1.45824413E+02
 11
2.11321557E+02
 21
1.48820241E+02
  0
LINE
  8
0
 62
4
 10
2.14185350E+02
 20
1.38000031E+02
 11
2.11705306E+02
 21
1.45632823E+02
  0
LINE
  8
0
 62
4
 10
2.11390257E+02
 20
1.45372738E+02
 11
2.11751658E+02
 21
1.45490164E+02
  0
LINE
  8
0
 62
4
 10
2.11705306E+02
 20
1.45632823E+02
 11
2.13379165E+02
 21
1.46176693E+02
  0
LINE
  8
0
 62
4
 10
2.15073351E+02
 20
1.38000031E+02
 11
2.15944006E+02
 21
1.38282924E+02
  0
ARC
  8
0
 62
4
 10
2.04140760E+02
 20
1.38819521E+02
 40
1.18100000E+01
 50
1.80000000E+01
 51
3.85326990E+01
  0
ARC
  8
0
 62
4
 10
2.04145542E+02
 20
1.38804802E+02
 40
1.18100000E+01
 50
3.57467301E+02
 51
1.80000000E+01
  0
LINE
  8
0
 62
4
 10
2.13785794E+02
 20
1.38000031E+02
 11
2.10154189E+02
 21
1.49176964E+02
  0
LINE
  8
0
 62
4
 10
2.62499977E+02
 20
1.19770178E+02
 11
2.63725838E+02
 21
1.23542990E+02
  0
LINE
  8
0
 62
4
 10
2.63725838E+02
 20
1.23542990E+02
 11
2.62499977E+02
 21
1.23941297E+02
  0
LINE
  8
0
 62
6
 10
2.63571330E+02
 20
1.23067462E+02
 11
2.62499977E+02
 21
1.23415566E+02
  0
LINE
  8
0
 62
6
 10
2.62644279E+02
 20
1.20214292E+02
 11
2.62499977E+02
 21
1.20261179E+02
  0
LINE
  8
0
  6
CENTER
 62
6
 10
2.48655195E+02
 20
1.37902899E+02
 11
2.32536162E+02
 21
1.43140290E+02
  0
LINE
  8
0
  6
CENTER
 62
6
 10
2.58654159E+02
 20
1.38334156E+02
 11
2.33617722E+02
 21
1.46468988E+02
  0
LINE
  8
0
 62
4
 10
2.39588633E+02
 20
1.38000031E+02
 11
2.39390022E+02
 21
1.38389827E+02
  0
LINE
  8
0
 62
4
 10
2.39390022E+02
 20
1.38389827E+02
 11
2.36631958E+02
 21
1.39285976E+02
  0
LINE
  8
0
 62
4
 10
2.39845735E+02
 20
1.49176964E+02
 11
2.49641617E+02
 21
1.45994089E+02
  0
LINE
  8
0
 62
4
 10
2.38971658E+02
 20
1.38000031E+02
 11
2.36287239E+02
 21
1.38872251E+02
  0
LINE
  8
0
 62
4
 10
2.36287239E+02
 20
1.38872251E+02
 11
2.36003837E+02
 21
1.38000031E+02
  0
LINE
  8
0
  6
CENTER
 62
6
 10
2.38498369E+02
 20
1.39205274E+02
 11
2.36644267E+02
 21
1.33498935E+02
  0
LINE
  8
0
  6
CENTER
 62
6
 10
2.40424487E+02
 20
1.35425053E+02
 11
2.34718148E+02
 21
1.37279155E+02
  0
LINE
  8
0
 62
4
 10
2.57286014E+02
 20
1.38000031E+02
 11
2.53921371E+02
 21
1.44603512E+02
  0
LINE
  8
0
 62
4
 10
2.53921371E+02
 20
1.44603512E+02
 11
2.49641617E+02
 21
1.45994089E+02
  0
LINE
  8
0
 62
4
 10
2.49641617E+02
 20
1.45994089E+02
 11
2.47044190E+02
 21
1.38000031E+02
  0
LINE
  8
0
 62
4
 10
2.37280894E+02
 20
1.41283195E+02
 11
2.36329838E+02
 21
1.41592212E+02
  0
LINE
  8
0
 62
4
 10
2.39629423E+02
 20
1.48511224E+02
 11
2.38678367E+02
 21
1.48820241E+02
  0
ARC
  8
0
 62
4
 10
2.35687004E+02
 20
1.43273128E+02
 40
1.00000000E+00
 50
1.74827510E+02
 51
2.52000000E+02
  0
ARC
  8
0
 62
4
 10
2.37170286E+02
 20
1.47838200E+02
 40
1.00000000E+00
 50
7.19999999E+01
 51
1.49172490E+02
  0
LINE
  8
0
 62
4
 10
2.36453444E+02
 20
1.41972634E+02
 11
2.35378750E+02
 21
1.42321824E+02
  0
LINE
  8
0
 62
4
 10
2.38554760E+02
 20
1.48439819E+02
 11
2.37480066E+02
 21
1.48789008E+02
  0
LINE
  8
0
 62
4
 10
2.36329838E+02
 20
1.41592212E+02
 11
2.38678367E+02
 21
1.48820241E+02
  0
ARC
  8
0
 62
4
 10
2.46452984E+02
 20
1.42298559E+02
 40
1.18100000E+01
 50
1.49172490E+02
 51
1.74827510E+02
  0
LINE
  8
0
 62
4
 10
2.35814574E+02
 20
1.38000031E+02
 11
2.36919493E+02
 21
1.41400621E+02
  0
LINE
  8
0
 62
4
 10
2.34926573E+02
 20
1.38000031E+02
 11
2.34055918E+02
 21
1.38282924E+02
  0
ARC
  8
0
 62
4
 10
2.45859164E+02
 20
1.38819521E+02
 40
1.18100000E+01
 50
1.59900933E+02
 51
1.62000000E+02
  0
ARC
  8
0
 62
4
 10
2.45854381E+02
 20
1.38804802E+02
 40
1.18100000E+01
 50
1.62000000E+02
 51
1.82532699E+02
  0
LINE
  8
0
 62
4
 10
2.36214129E+02
 20
1.38000031E+02
 11
2.39845735E+02
 21
1.49176964E+02
  0
LINE
  8
0
 62
7
 10
2.04993024E+02
 20
1.47500000E+02
 11
1.81999916E+02
 21
1.47500000E+02
  0
LINE
  8
0
 62
7
 10
2.35850102E+02
 20
1.47500000E+02
 11
2.14149822E+02
 21
1.47500000E+02
  0
LINE
  8
0
  6
PHANTOM
 10
-2.45000000E+01
 20
3.46114332E+02
 11
-2.45000000E+01
 21
1.92202234E+02
  0
LINE
  8
0
  6
CENTER
 62
2
 10
-2.04999901E+02
 20
2.38978271E+02
 11
-2.04999901E+02
 21
2.20412354E+02
  0
LINE
  8
0
 62
7
 10
-2.76999992E+02
 20
2.89000000E+02
 11
-2.76999992E+02
 21
2.72000000E+02
  0
LINE
  8
0
 62
7
 10
-2.71500023E+02
 20
2.70500031E+02
 11
-2.70000053E+02
 21
2.70500031E+02
  0
LINE
  8
0
 62
7
 10
-2.71499992E+02
 20
2.90500061E+02
 11
-2.70000023E+02
 21
2.90500061E+02
  0
LINE
  8
0
 62
7
 10
-2.82999962E+02
 20
2.71500000E+02
 11
-2.82999962E+02
 21
2.89500000E+02
  0
LINE
  8
0
 62
7
 10
-3.12000023E+02
 20
2.73000031E+02
 11
-3.12000023E+02
 21
2.87999847E+02
  0
LINE
  8
0
 62
7
 10
-3.10499962E+02
 20
2.71500000E+02
 11
-3.10499962E+02
 21
2.89500000E+02
  0
LINE
  8
0
 62
7
 10
-3.10499962E+02
 20
2.89500000E+02
 11
-3.02999992E+02
 21
2.89500000E+02
  0
LINE
  8
0
 62
2
 10
-3.11319969E+02
 20
2.88679993E+02
 11
-3.02999992E+02
 21
2.88679993E+02
  0
LINE
  8
0
 62
7
 10
-3.11999855E+02
 20
2.87999847E+02
 11
-3.10499820E+02
 21
2.89499836E+02
  0
LINE
  8
0
 62
7
 10
-3.10499962E+02
 20
2.71500031E+02
 11
-3.02999992E+02
 21
2.71500031E+02
  0
LINE
  8
0
 62
2
 10
-3.11319969E+02
 20
2.72320038E+02
 11
-3.02999992E+02
 21
2.72320038E+02
  0
LINE
  8
0
 62
7
 10
-3.12000024E+02
 20
2.73000134E+02
 11
-3.10499989E+02
 21
2.71500145E+02
  0
LINE
  8
0
 62
7
 10
-2.82999962E+02
 20
2.72320038E+02
 11
-2.79999992E+02
 21
2.72320038E+02
  0
LINE
  8
0
 62
7
 10
-2.82999962E+02
 20
2.88679993E+02
 11
-2.79999992E+02
 21
2.88679993E+02
  0
LINE
  8
0
 62
7
 10
-2.79999992E+02
 20
2.72000000E+02
 11
-2.79999992E+02
 21
2.89000000E+02
  0
LINE
  8
0
 62
7
 10
-2.79999992E+02
 20
2.72000000E+02
 11
-2.73000053E+02
 21
2.72000000E+02
  0
LINE
  8
0
 62
7
 10
-2.79999992E+02
 20
2.89000031E+02
 11
-2.73000053E+02
 21
2.89000031E+02
  0
LINE
  8
0
 62
7
 10
-2.73000132E+02
 20
2.72000091E+02
 11
-2.71500163E+02
 21
2.70500122E+02
  0
LINE
  8
0
 62
7
 10
-2.73000172E+02
 20
2.89000152E+02
 11
-2.71500148E+02
 21
2.90500175E+02
  0
LINE
  8
0
  6
CENTER
 62
2
 10
-1.04364861E+02
 20
2.88500000E+02
 11
-8.27607040E+01
 21
2.88500000E+02
  0
LINE
  8
0
  6
CENTER
 62
2
 10
-9.40000839E+01
 20
2.78499969E+02
 11
-9.40000839E+01
 21
2.99046265E+02
  0
LINE
  8
0
 62
7
 10
-8.61340256E+01
 20
2.70000000E+02
 11
-8.78661118E+01
 21
2.70000000E+02
  0
LINE
  8
0
 62
7
 10
-8.52679670E+01
 20
2.68499930E+02
 11
-8.61339909E+01
 21
2.69999937E+02
  0
LINE
  8
0
 62
7
 10
-2.56500023E+02
 20
2.61499969E+02
 11
-2.55000023E+02
 21
2.61499969E+02
  0
LINE
  8
0
 62
7
 10
-2.69500023E+02
 20
2.63500000E+02
 11
-2.64991478E+02
 21
2.63500000E+02
  0
LINE
  8
0
 62
7
 10
-2.65000023E+02
 20
2.63499969E+02
 11
-2.65000023E+02
 21
2.63491425E+02
  0
LINE
  8
0
 62
7
 10
-2.64758788E+02
 20
2.63241536E+02
 11
-2.57000090E+02
 21
2.62970596E+02
  0
LINE
  8
0
 62
7
 10
-1.11508753E+02
 20
2.43550074E+02
 11
-8.00000636E+01
 21
2.43000088E+02
  0
LINE
  8
0
 62
7
 10
-2.70000023E+02
 20
2.64000000E+02
 11
-2.70000023E+02
 21
2.96999969E+02
  0
LINE
  8
0
 62
7
 10
-2.56500023E+02
 20
2.99500000E+02
 11
-2.55000023E+02
 21
2.99500000E+02
  0
LINE
  8
0
 62
7
 10
-2.69500023E+02
 20
2.97499969E+02
 11
-2.64991478E+02
 21
2.97499969E+02
  0
LINE
  8
0
 62
7
 10
-2.65000023E+02
 20
2.97500000E+02
 11
-2.65000023E+02
 21
2.97508545E+02
  0
LINE
  8
0
 62
7
 10
-2.64758785E+02
 20
2.97758628E+02
 11
-2.57000086E+02
 21
2.98029567E+02
  0
LINE
  8
0
 62
7
 10
-7.99999924E+01
 20
2.43000031E+02
 11
-7.99999924E+01
 21
3.18000000E+02
  0
LINE
  8
0
 62
7
 10
-1.11508729E+02
 20
3.17449981E+02
 11
-8.00000091E+01
 21
3.17999968E+02
  0
LINE
  8
0
 62
7
 10
-2.57000023E+02
 20
2.61999969E+02
 11
-2.57000023E+02
 21
2.99000031E+02
  0
LINE
  8
0
 62
7
 10
-2.65000023E+02
 20
2.97500000E+02
 11
-2.65000023E+02
 21
2.63499969E+02
  0
LINE
  8
0
 62
7
 10
-1.05999992E+02
 20
3.05500000E+02
 11
-7.99999924E+01
 21
3.05500000E+02
  0
LINE
  8
0
 62
7
 10
-1.05999992E+02
 20
2.55499969E+02
 11
-7.99999924E+01
 21
2.55499969E+02
  0
LINE
  8
0
 62
7
 10
-1.08000023E+02
 20
3.03500000E+02
 11
-1.08000023E+02
 21
2.57500000E+02
  0
LINE
  8
0
 62
7
 10
-8.87319421E+01
 20
2.68499865E+02
 11
-8.78659258E+01
 21
2.69999858E+02
  0
LINE
  8
0
  6
CENTER
 62
2
 10
5.13648605E+01
 20
2.88500000E+02
 11
2.97606735E+01
 21
2.88500000E+02
  0
LINE
  8
0
  6
CENTER
 62
2
 10
4.10000534E+01
 20
2.78499969E+02
 11
4.10000534E+01
 21
2.99046265E+02
  0
LINE
  8
0
 62
7
 10
6.04999924E+01
 20
2.99500000E+02
 11
5.89999924E+01
 21
2.99500000E+02
  0
LINE
  8
0
 62
7
 10
5.85087250E+01
 20
3.17449982E+02
 11
2.70000354E+01
 21
3.17999969E+02
  0
LINE
  8
0
 62
7
 10
6.04999924E+01
 20
2.61499969E+02
 11
5.89999924E+01
 21
2.61499969E+02
  0
LINE
  8
0
 62
7
 10
5.89999771E+01
 20
3.16950073E+02
 11
5.89999771E+01
 21
2.44049896E+02
  0
LINE
  8
0
 62
7
 10
2.69999924E+01
 20
3.17999939E+02
 11
2.69999924E+01
 21
2.42999969E+02
  0
LINE
  8
0
 62
7
 10
5.85087347E+01
 20
2.43550011E+02
 11
2.70000146E+01
 21
2.43000025E+02
  0
LINE
  8
0
 62
7
 10
6.09999924E+01
 20
2.99000000E+02
 11
6.09999924E+01
 21
2.61999969E+02
  0
LINE
  8
0
 62
7
 10
5.29999924E+01
 20
2.55499969E+02
 11
2.69999924E+01
 21
2.55499969E+02
  0
LINE
  8
0
 62
7
 10
5.29999924E+01
 20
3.05500000E+02
 11
2.69999924E+01
 21
3.05500000E+02
  0
LINE
  8
0
 62
7
 10
5.49999924E+01
 20
2.57500000E+02
 11
5.49999924E+01
 21
3.03500000E+02
  0
LINE
  8
0
  6
CENTER
 62
2
 10
6.32292404E+01
 20
3.08500031E+02
 11
-1.15248100E+02
 21
3.08500031E+02
  0
LINE
  8
0
 62
7
 10
2.69999924E+01
 20
3.04899994E+02
 11
-3.89999924E+01
 21
3.04899994E+02
  0
LINE
  8
0
 62
7
 10
2.69999924E+01
 20
3.12100006E+02
 11
-3.89999924E+01
 21
3.12100006E+02
  0
LINE
  8
0
 62
7
 10
2.69999924E+01
 20
3.14499969E+02
 11
-3.89999924E+01
 21
3.14499969E+02
  0
LINE
  8
0
  6
CENTER
 62
2
 10
6.32292404E+01
 20
2.52499969E+02
 11
-1.15248100E+02
 21
2.52499969E+02
  0
LINE
  8
0
 62
7
 10
2.69999924E+01
 20
2.56100006E+02
 11
1.99999924E+01
 21
2.56100006E+02
  0
LINE
  8
0
 62
7
 10
2.69999924E+01
 20
2.48899994E+02
 11
4.99999237E+00
 21
2.48899994E+02
  0
LINE
  8
0
 62
7
 10
2.69999924E+01
 20
2.46500031E+02
 11
4.99999237E+00
 21
2.46500031E+02
  0
LINE
  8
0
  6
CENTER
 62
2
 10
3.40000229E+01
 20
2.74911133E+02
 11
3.40000229E+01
 21
2.61434387E+02
  0
LINE
  8
0
  6
CENTER
 62
2
 10
2.73342972E+01
 20
2.68500000E+02
 11
4.01630478E+01
 21
2.68500000E+02
  0
LINE
  8
0
 62
7
 10
3.57320816E+01
 20
2.68499885E+02
 11
3.48660424E+01
 21
2.69999917E+02
  0
LINE
  8
0
 62
7
 10
3.48660355E+01
 20
2.70000000E+02
 11
3.31339798E+01
 21
2.70000000E+02
  0
LINE
  8
0
 62
7
 10
3.22681182E+01
 20
2.68499877E+02
 11
3.31341268E+01
 21
2.69999857E+02
  0
LINE
  8
0
 62
7
 10
3.31340238E+01
 20
2.66999975E+02
 11
3.22679847E+01
 21
2.68500008E+02
  0
LINE
  8
0
 62
7
 10
3.48660355E+01
 20
2.66999969E+02
 11
3.31339798E+01
 21
2.66999969E+02
  0
LINE
  8
0
 62
7
 10
3.57321541E+01
 20
2.68499895E+02
 11
3.48661225E+01
 21
2.66999875E+02
  0
LINE
  8
0
 62
7
 10
-8.78659943E+01
 20
2.66999968E+02
 11
-8.87320334E+01
 21
2.68500000E+02
  0
LINE
  8
0
 62
7
 10
-8.61340256E+01
 20
2.66999969E+02
 11
-8.78661118E+01
 21
2.66999969E+02
  0
LINE
  8
0
 62
7
 10
-8.52679591E+01
 20
2.68499913E+02
 11
-8.61339906E+01
 21
2.66999893E+02
  0
LINE
  8
0
  6
CENTER
 62
2
 10
-9.36657639E+01
 20
2.68500000E+02
 11
-8.08370285E+01
 21
2.68500000E+02
  0
LINE
  8
0
  6
CENTER
 62
2
 10
-8.70000534E+01
 20
2.74911133E+02
 11
-8.70000534E+01
 21
2.61434387E+02
  0
LINE
  8
0
  6
CENTER
 62
2
 10
-1.33999992E+02
 20
2.85484222E+02
 11
-1.33999992E+02
 21
3.05644226E+02
  0
LINE
  8
0
  6
CENTER
 62
2
 10
-1.44116722E+02
 20
2.95500000E+02
 11
-1.24051537E+02
 21
2.95500000E+02
  0
LINE
  8
0
 62
7
 10
-2.12999931E+02
 20
2.32000000E+02
 11
-1.96999962E+02
 21
2.32000000E+02
  0
LINE
  8
0
 62
7
 10
-1.96999962E+02
 20
2.36999969E+02
 11
-1.96999962E+02
 21
2.32000000E+02
  0
LINE
  8
0
 62
7
 10
-2.12999931E+02
 20
2.36999969E+02
 11
-2.12999931E+02
 21
2.32000000E+02
  0
LINE
  8
0
 62
7
 10
-2.08299950E+02
 20
2.23500000E+02
 11
-2.01699944E+02
 21
2.23500000E+02
  0
LINE
  8
0
 62
7
 10
-2.10749931E+02
 20
2.25500000E+02
 11
-1.99249931E+02
 21
2.25500000E+02
  0
LINE
  8
0
 62
7
 10
-1.98049919E+02
 20
2.32000000E+02
 11
-1.98049919E+02
 21
2.26192841E+02
  0
LINE
  8
0
 62
7
 10
-2.11949913E+02
 20
2.32000000E+02
 11
-2.11949913E+02
 21
2.26192841E+02
  0
LINE
  8
0
 62
7
 10
-1.99249806E+02
 20
2.25499688E+02
 11
-1.98049797E+02
 21
2.26192513E+02
  0
LINE
  8
0
 62
7
 10
-2.11949973E+02
 20
2.26192785E+02
 11
-2.10749990E+02
 21
2.25499974E+02
  0
LINE
  8
0
 62
7
 10
-2.08474937E+02
 20
2.32000000E+02
 11
-2.08474937E+02
 21
2.26192841E+02
  0
LINE
  8
0
 62
7
 10
-2.01524925E+02
 20
2.32000000E+02
 11
-2.01524925E+02
 21
2.26192841E+02
  0
LINE
  8
0
 62
7
 10
-2.08999962E+02
 20
2.25500000E+02
 11
-2.08999962E+02
 21
2.24200012E+02
  0
LINE
  8
0
 62
7
 10
-2.00999931E+02
 20
2.25500000E+02
 11
-2.00999931E+02
 21
2.24200012E+02
  0
LINE
  8
0
 62
2
 10
-2.08299950E+02
 20
2.25500000E+02
 11
-2.08299950E+02
 21
2.23500000E+02
  0
LINE
  8
0
 62
2
 10
-2.01699913E+02
 20
2.25500000E+02
 11
-2.01699913E+02
 21
2.23500000E+02
  0
LINE
  8
0
 62
7
 10
-2.08999931E+02
 20
2.24199982E+02
 11
-2.00999931E+02
 21
2.24199982E+02
  0
LINE
  8
0
 62
7
 10
-2.08999944E+02
 20
2.24200088E+02
 11
-2.08299959E+02
 21
2.23500103E+02
  0
LINE
  8
0
 62
7
 10
-2.01699803E+02
 20
2.23499876E+02
 11
-2.00999806E+02
 21
2.24199873E+02
  0
LINE
  8
0
 62
7
 10
-2.12999931E+02
 20
3.28999969E+02
 11
-1.96999962E+02
 21
3.28999969E+02
  0
LINE
  8
0
 62
7
 10
-1.96999962E+02
 20
3.23999969E+02
 11
-1.96999962E+02
 21
3.28999969E+02
  0
LINE
  8
0
 62
7
 10
-2.12999931E+02
 20
3.23999969E+02
 11
-2.12999931E+02
 21
3.28999969E+02
  0
LINE
  8
0
 62
7
 10
-2.08299950E+02
 20
3.37499969E+02
 11
-2.01699944E+02
 21
3.37499969E+02
  0
LINE
  8
0
 62
7
 10
-2.10749931E+02
 20
3.35499969E+02
 11
-1.99249931E+02
 21
3.35499969E+02
  0
LINE
  8
0
 62
7
 10
-1.98049919E+02
 20
3.28999969E+02
 11
-1.98049919E+02
 21
3.34807159E+02
  0
LINE
  8
0
 62
7
 10
-2.11949913E+02
 20
3.28999969E+02
 11
-2.11949913E+02
 21
3.34807159E+02
  0
LINE
  8
0
 62
7
 10
-1.99249926E+02
 20
3.35499845E+02
 11
-1.98049944E+02
 21
3.34807035E+02
  0
LINE
  8
0
 62
7
 10
-2.11949809E+02
 20
3.34806856E+02
 11
-2.10749801E+02
 21
3.35499681E+02
  0
LINE
  8
0
 62
7
 10
-2.01524925E+02
 20
3.28999969E+02
 11
-2.01524925E+02
 21
3.34807159E+02
  0
LINE
  8
0
 62
7
 10
-2.08999962E+02
 20
3.35499969E+02
 11
-2.08999962E+02
 21
3.36799957E+02
  0
LINE
  8
0
 62
7
 10
-2.00999931E+02
 20
3.35499969E+02
 11
-2.00999931E+02
 21
3.36799957E+02
  0
LINE
  8
0
 62
2
 10
-2.08299950E+02
 20
3.35499969E+02
 11
-2.08299950E+02
 21
3.37499969E+02
  0
LINE
  8
0
 62
2
 10
-2.01699913E+02
 20
3.35499969E+02
 11
-2.01699913E+02
 21
3.37499969E+02
  0
LINE
  8
0
 62
7
 10
-2.08999931E+02
 20
3.36799957E+02
 11
-2.00999931E+02
 21
3.36799957E+02
  0
LINE
  8
0
 62
7
 10
-2.08999774E+02
 20
3.36799804E+02
 11
-2.08299756E+02
 21
3.37499822E+02
  0
LINE
  8
0
 62
7
 10
-2.01699881E+02
 20
3.37500005E+02
 11
-2.00999895E+02
 21
3.36800020E+02
  0
LINE
  8
0
 62
7
 10
-2.08474937E+02
 20
3.28999969E+02
 11
-2.08474937E+02
 21
3.34807159E+02
  0
LINE
  8
0
  6
CENTER
 62
2
 10
-2.42059898E+02
 20
2.95500000E+02
 11
-2.23715080E+02
 21
2.95500000E+02
  0
LINE
  8
0
  6
CENTER
 62
2
 10
-2.33000023E+02
 20
3.04778961E+02
 11
-2.33000023E+02
 21
2.86213196E+02
  0
LINE
  8
0
 62
7
 10
-2.29999889E+02
 20
2.97232255E+02
 11
-2.32999849E+02
 21
2.98964273E+02
  0
LINE
  8
0
 62
7
 10
-2.33000599E+02
 20
2.98965170E+02
 11
-2.36000612E+02
 21
2.97233122E+02
  0
LINE
  8
0
 62
7
 10
-2.35999962E+02
 20
2.93767944E+02
 11
-2.35999962E+02
 21
2.97232056E+02
  0
LINE
  8
0
 62
7
 10
-2.32999928E+02
 20
2.92036126E+02
 11
-2.35999941E+02
 21
2.93768173E+02
  0
LINE
  8
0
 62
7
 10
-2.30000596E+02
 20
2.93768950E+02
 11
-2.33000608E+02
 21
2.92036902E+02
  0
LINE
  8
0
 62
7
 10
-2.29999962E+02
 20
2.97232056E+02
 11
-2.29999962E+02
 21
2.93767944E+02
  0
LINE
  8
0
  6
CENTER
 62
2
 10
-2.04999901E+02
 20
3.22111389E+02
 11
-2.04999901E+02
 21
3.39087616E+02
  0
LINE
  8
0
  6
CENTER
 62
2
 10
-3.23156761E+02
 20
2.80500000E+02
 11
6.83134537E+01
 21
2.80500000E+02
  0
LINE
  8
0
 62
7
 10
-2.19999992E+02
 20
2.36999969E+02
 11
-1.46999992E+02
 21
2.36999969E+02
  0
LINE
  8
0
 62
7
 10
-1.46999962E+02
 20
2.33500000E+02
 11
-1.11999992E+02
 21
2.33500000E+02
  0
LINE
  8
0
 62
7
 10
-1.46999962E+02
 20
3.27499969E+02
 11
-1.46999962E+02
 21
2.33500000E+02
  0
LINE
  8
0
 62
7
 10
-2.19999992E+02
 20
3.27499969E+02
 11
-2.19999992E+02
 21
2.33500000E+02
  0
LINE
  8
0
 62
7
 10
-2.55000023E+02
 20
2.33500000E+02
 11
-2.19999992E+02
 21
2.33500000E+02
  0
LINE
  8
0
 62
7
 10
-2.55000023E+02
 20
3.27499969E+02
 11
-2.19999992E+02
 21
3.27499969E+02
  0
LINE
  8
0
 62
7
 10
-1.46999962E+02
 20
3.27499969E+02
 11
-1.11999992E+02
 21
3.27499969E+02
  0
LINE
  8
0
 62
7
 10
-2.55000023E+02
 20
3.27499969E+02
 11
-2.55000023E+02
 21
2.33500000E+02
  0
LINE
  8
0
 62
7
 10
-2.19999992E+02
 20
3.23999969E+02
 11
-1.46999992E+02
 21
3.23999969E+02
  0
LINE
  8
0
 62
7
 10
-1.11999992E+02
 20
2.33500000E+02
 11
-1.11999992E+02
 21
3.27499969E+02
  0
LINE
  8
0
  6
CENTER
 62
2
 10
-2.59881432E+02
 20
2.45500000E+02
 11
-1.06211662E+02
 21
2.45500000E+02
  0
LINE
  8
0
 62
7
 10
-2.19999992E+02
 20
2.50000000E+02
 11
-1.46999962E+02
 21
2.50000000E+02
  0
LINE
  8
0
 62
7
 10
-2.19999992E+02
 20
2.41000000E+02
 11
-1.46999962E+02
 21
2.41000000E+02
  0
LINE
  8
0
 62
7
 10
-2.19999992E+02
 20
3.20000031E+02
 11
-1.46999962E+02
 21
3.20000031E+02
  0
LINE
  8
0
 62
7
 10
-2.19999992E+02
 20
3.11000031E+02
 11
-1.46999962E+02
 21
3.11000031E+02
  0
LINE
  8
0
  6
CENTER
 62
2
 10
-2.59881432E+02
 20
3.15500031E+02
 11
-1.06211662E+02
 21
3.15500031E+02
  0
ARC
  8
0
 62
7
 10
-2.69500023E+02
 20
2.64000031E+02
 40
5.00000000E-01
 50
1.79999977E+02
 51
2.69999974E+02
  0
ARC
  8
0
 62
7
 10
-2.64750023E+02
 20
2.63491455E+02
 40
2.50000000E-01
 50
1.79999977E+02
 51
2.68001132E+02
  0
ARC
  8
0
 62
7
 10
-2.56500023E+02
 20
2.61999969E+02
 40
5.00000000E-01
 50
1.79999977E+02
 51
2.69999974E+02
  0
ARC
  8
0
 62
7
 10
-2.69500023E+02
 20
2.96999939E+02
 40
5.00000000E-01
 50
8.99999818E+01
 51
1.79999964E+02
  0
ARC
  8
0
 62
7
 10
-2.64750023E+02
 20
2.97508514E+02
 40
2.50000000E-01
 50
9.19988230E+01
 51
1.79999977E+02
  0
ARC
  8
0
 62
7
 10
-2.56500023E+02
 20
2.99000000E+02
 40
5.00000000E-01
 50
8.99999818E+01
 51
1.79999964E+02
  0
CIRCLE
  8
0
 62
7
 10
-9.40000839E+01
 20
2.88500000E+02
 40
8.71000004E+00
  0
CIRCLE
  8
0
 62
7
 10
-9.40000839E+01
 20
2.88500000E+02
 40
7.44000006E+00
  0
ARC
  8
0
 62
7
 10
-1.05999992E+02
 20
3.03500000E+02
 40
2.00000000E+00
 50
8.99999818E+01
 51
1.79999964E+02
  0
ARC
  8
0
 62
7
 10
-1.05999992E+02
 20
2.57499969E+02
 40
2.00000000E+00
 50
1.79999977E+02
 51
2.70000028E+02
  0
CIRCLE
  8
0
 62
2
 10
-9.40000839E+01
 20
2.88500000E+02
 40
8.32999992E+00
  0
ARC
  8
0
 62
7
 10
5.84999924E+01
 20
3.16950073E+02
 40
5.00000000E-01
 50
5.46415133E-05
 51
8.89997964E+01
  0
ARC
  8
0
 62
7
 10
6.04999924E+01
 20
2.99000000E+02
 40
5.00000000E-01
 50
5.46415133E-05
 51
9.00000369E+01
  0
ARC
  8
0
 62
7
 10
5.84999924E+01
 20
2.44049866E+02
 40
5.00000000E-01
 50
2.71000313E+02
 51
5.46415133E-05
  0
ARC
  8
0
 62
7
 10
6.04999924E+01
 20
2.61999969E+02
 40
5.00000000E-01
 50
2.70000073E+02
 51
5.46415133E-05
  0
CIRCLE
  8
0
 62
7
 10
4.10000534E+01
 20
2.88500000E+02
 40
8.71000004E+00
  0
CIRCLE
  8
0
 62
7
 10
4.10000534E+01
 20
2.88500000E+02
 40
7.44000006E+00
  0
ARC
  8
0
 62
7
 10
5.30000076E+01
 20
2.57499969E+02
 40
2.00000000E+00
 50
2.70000073E+02
 51
5.46415133E-05
  0
ARC
  8
0
 62
7
 10
5.30000076E+01
 20
3.03500000E+02
 40
2.00000000E+00
 50
5.46415133E-05
 51
9.00000913E+01
  0
CIRCLE
  8
0
 62
2
 10
4.10000534E+01
 20
2.88500000E+02
 40
8.32999992E+00
  0
CIRCLE
  8
0
 62
7
 10
-8.70000534E+01
 20
2.68500000E+02
 40
2.59999990E+00
  0
CIRCLE
  8
0
 62
7
 10
3.40000229E+01
 20
2.68500000E+02
 40
2.59999990E+00
  0
CIRCLE
  8
0
 62
7
 10
3.40000229E+01
 20
2.68500000E+02
 40
5.00000000E+00
  0
CIRCLE
  8
0
 62
7
 10
-8.70000534E+01
 20
2.68500000E+02
 40
5.00000000E+00
  0
ARC
  8
0
 62
7
 10
-2.04999901E+02
 20
3.26438812E+02
 40
9.06113625E+00
 50
6.74489921E+01
 51
1.12550903E+02
  0
ARC
  8
0
 62
7
 10
-2.10212425E+02
 20
2.28025116E+02
 40
2.52511263E+00
 50
2.53478125E+02
 51
3.13479008E+02
  0
ARC
  8
0
 62
7
 10
-1.99787437E+02
 20
2.28025116E+02
 40
2.52511263E+00
 50
2.26520987E+02
 51
2.86521856E+02
  0
ARC
  8
0
 62
7
 10
-2.04999901E+02
 20
2.34561127E+02
 40
9.06113625E+00
 50
2.47449035E+02
 51
2.92550946E+02
  0
ARC
  8
0
 62
7
 10
-1.99787437E+02
 20
3.32974854E+02
 40
2.52511263E+00
 50
7.34780821E+01
 51
1.33478944E+02
  0
CIRCLE
  8
0
 62
7
 10
-1.33999992E+02
 20
2.95500000E+02
 40
7.00000048E+00
  0
CIRCLE
  8
0
 62
7
 10
-1.33999992E+02
 20
2.95500000E+02
 40
5.65999985E+00
  0
ARC
  8
0
 62
7
 10
-2.10212425E+02
 20
3.32974854E+02
 40
2.52511263E+00
 50
4.65209375E+01
 51
1.06521820E+02
  0
CIRCLE
  8
0
 62
2
 10
-1.33999992E+02
 20
2.95500000E+02
 40
6.57850027E+00
  0
CIRCLE
  8
0
 62
7
 10
-2.33000023E+02
 20
2.95500000E+02
 40
6.57850027E+00
  0
CIRCLE
  8
0
 62
7
 10
-2.33000023E+02
 20
2.95500000E+02
 40
5.72250032E+00
  0
ARC
  8
0
 62
7
 10
-1.11499992E+02
 20
2.44049896E+02
 40
5.00000000E-01
 50
1.79999977E+02
 51
2.68999706E+02
  0
ARC
  8
0
 62
7
 10
-1.11499992E+02
 20
3.16950073E+02
 40
5.00000000E-01
 50
9.10002223E+01
 51
1.79999964E+02
  0
INSERT
  8
0
  2
PP1
  6
BYBLOCK
 62
0
 10
0.00000000E+00
 20
0.00000000E+00
 41
1.00000000E+00
 42
1.00000000E+00
 50
0.00000000E+00
  0
ARC
  8
0
 62
4
 10
-3.11496385E+02
 20
2.73750000E+02
 40
1.94963929E+01
 50
3.39743842E+02
 51
2.02561580E+01
  0
ARC
  8
0
 62
4
 10
-3.11496385E+02
 20
2.87250000E+02
 40
1.94963929E+01
 50
3.39743842E+02
 51
2.02561580E+01
  0
ARC
  8
0
 62
4
 10
-2.83503599E+02
 20
2.87250000E+02
 40
1.94963929E+01
 50
1.59743842E+02
 51
2.00256158E+02
  0
ARC
  8
0
 62
4
 10
-2.83503599E+02
 20
2.73750000E+02
 40
1.94963929E+01
 50
1.59743842E+02
 51
2.00256158E+02
  0
LINE
  8
0
 62
4
 10
-2.93205764E+02
 20
2.80500000E+02
 11
-3.01794221E+02
 21
2.80500000E+02
  0
LINE
  8
0
 62
4
 10
-2.91999992E+02
 20
2.67000000E+02
 11
-3.02999992E+02
 21
2.67000000E+02
  0
LINE
  8
0
 62
4
 10
-2.91999992E+02
 20
2.94000000E+02
 11
-3.02999992E+02
 21
2.94000000E+02
  0
LINE
  8
0
 62
4
 10
-3.02999992E+02
 20
2.94000000E+02
 11
-3.02999992E+02
 21
2.67000000E+02
  0
LINE
  8
0
 62
4
 10
-2.91999992E+02
 20
2.94000000E+02
 11
-2.91999992E+02
 21
2.67000000E+02
  0
LINE
  8
0
 62
7
 10
-2.91999992E+02
 20
2.89500000E+02
 11
-2.82999962E+02
 21
2.89500000E+02
  0
LINE
  8
0
 62
2
 10
-2.91999992E+02
 20
2.88679993E+02
 11
-2.82999962E+02
 21
2.88679993E+02
  0
LINE
  8
0
 62
7
 10
-2.91999992E+02
 20
2.71500031E+02
 11
-2.82999962E+02
 21
2.71500031E+02
  0
LINE
  8
0
 62
2
 10
-2.91999992E+02
 20
2.72320038E+02
 11
-2.82999962E+02
 21
2.72320038E+02
  0
LINE
  8
0
 62
6
 10
-1.82679568E+01
 20
2.70928690E+02
 11
-2.17320584E+01
 21
2.64928690E+02
  0
LINE
  8
0
 62
4
 10
-1.00000076E+01
 20
2.69428690E+02
 11
-1.91339822E+01
 21
2.69428690E+02
  0
LINE
  8
0
  6
CENTER
 62
6
 10
2.49999924E+01
 20
2.67928690E+02
 11
-2.20000076E+01
 21
2.67928690E+02
  0
LINE
  8
0
 62
4
 10
-1.00000076E+01
 20
2.66428690E+02
 11
-2.08660330E+01
 21
2.66428690E+02
  0
LINE
  8
0
 62
6
 10
-3.07320432E+01
 20
2.90071310E+02
 11
-2.72679416E+01
 21
2.96071310E+02
  0
LINE
  8
0
 62
4
 10
-3.89999924E+01
 20
2.91571310E+02
 11
-2.98660178E+01
 21
2.91571310E+02
  0
LINE
  8
0
  6
CENTER
 62
6
 10
-7.39999924E+01
 20
2.93071310E+02
 11
-2.69999924E+01
 21
2.93071310E+02
  0
LINE
  8
0
 62
4
 10
-3.89999924E+01
 20
2.94571310E+02
 11
-2.81339670E+01
 21
2.94571310E+02
  0
LINE
  8
0
 62
4
 10
-5.00007659E-01
 20
2.42392203E+02
 11
-5.00007659E-01
 21
2.43232122E+02
  0
LINE
  8
0
 62
4
 10
3.49999234E+00
 20
2.42392203E+02
 11
3.49999234E+00
 21
2.43232122E+02
  0
LINE
  8
0
 62
6
 10
-7.65877661E-06
 20
2.41983412E+02
 11
-7.65877661E-06
 21
2.43232122E+02
  0
LINE
  8
0
 62
6
 10
2.99999234E+00
 20
2.41983412E+02
 11
2.99999234E+00
 21
2.43232122E+02
  0
LINE
  8
0
  6
CENTER
 62
6
 10
1.24999924E+01
 20
2.64544849E+02
 11
1.24999924E+01
 21
2.69544849E+02
  0
LINE
  8
0
  6
CENTER
 62
6
 10
1.49999234E+00
 20
2.37834391E+02
 11
1.49999234E+00
 21
2.48099969E+02
  0
LINE
  8
0
  6
CENTER
 62
6
 10
-6.50000766E+00
 20
2.37834391E+02
 11
-6.50000766E+00
 21
2.48099969E+02
  0
LINE
  8
0
 62
4
 10
1.99999924E+01
 20
2.55858390E+02
 11
1.99999924E+01
 21
2.68868049E+02
  0
LINE
  8
0
 62
4
 10
-1.00000076E+01
 20
2.43232122E+02
 11
-1.00000076E+01
 21
2.70598544E+02
  0
LINE
  8
0
 62
4
 10
4.99999237E+00
 20
2.43232122E+02
 11
4.99999237E+00
 21
2.55858390E+02
  0
LINE
  8
0
 62
4
 10
2.14999924E+01
 20
2.66500052E+02
 11
2.14999924E+01
 21
2.69354118E+02
  0
LINE
  8
0
 62
4
 10
4.99999237E+00
 20
2.43232122E+02
 11
-1.00000076E+01
 21
2.43232122E+02
  0
LINE
  8
0
 62
4
 10
4.99999237E+00
 20
2.51578636E+02
 11
-1.00000076E+01
 21
2.51578636E+02
  0
LINE
  8
0
 62
4
 10
1.99999924E+01
 20
2.55858390E+02
 11
-1.00000076E+01
 21
2.55858390E+02
  0
LINE
  8
0
 62
4
 10
1.99999924E+01
 20
2.65654273E+02
 11
-1.00000076E+01
 21
2.65654273E+02
  0
LINE
  8
0
 62
4
 10
1.99999924E+01
 20
2.70598544E+02
 11
8.90175995E+00
 21
2.70598544E+02
  0
POLYLINE
  8
0
 62
4
 66
1
  0
VERTEX
  8
0
 62
4
 10
-5.00007660E-01
 20
2.42392203E+02
  0
VERTEX
  8
0
 62
4
 10
-4.91956249E-01
 20
2.42336803E+02
  0
VERTEX
  8
0
 62
4
 10
-4.67866839E-01
 20
2.42281849E+02
  0
VERTEX
  8
0
 62
4
 10
-4.27933383E-01
 20
2.42227783E+02
  0
VERTEX
  8
0
 62
4
 10
-3.72477404E-01
 20
2.42175041E+02
  0
VERTEX
  8
0
 62
4
 10
-3.01945399E-01
 20
2.42124048E+02
  0
VERTEX
  8
0
 62
4
 10
-2.16905252E-01
 20
2.42075214E+02
  0
VERTEX
  8
0
 62
4
 10
-1.18041654E-01
 20
2.42028932E+02
  0
VERTEX
  8
0
 62
4
 10
-6.15059781E-03
 20
2.41985575E+02
  0
VERTEX
  8
0
 62
4
 10
1.17867036E-01
 20
2.41945491E+02
  0
VERTEX
  8
0
 62
4
 10
2.53012729E-01
 20
2.41909005E+02
  0
VERTEX
  8
0
 62
4
 10
3.98198369E-01
 20
2.41876408E+02
  0
VERTEX
  8
0
 62
4
 10
5.52255007E-01
 20
2.41847965E+02
  0
VERTEX
  8
0
 62
4
 10
7.13942268E-01
 20
2.41823904E+02
  0
VERTEX
  8
0
 62
4
 10
8.81958342E-01
 20
2.41804418E+02
  0
VERTEX
  8
0
 62
4
 10
1.05495046E+00
 20
2.41789664E+02
  0
VERTEX
  8
0
 62
4
 10
1.23152580E+00
 20
2.41779762E+02
  0
VERTEX
  8
0
 62
4
 10
1.41026267E+00
 20
2.41774791E+02
  0
VERTEX
  8
0
 62
4
 10
1.58972199E+00
 20
2.41774791E+02
  0
VERTEX
  8
0
 62
4
 10
1.76845886E+00
 20
2.41779762E+02
  0
VERTEX
  8
0
 62
4
 10
1.94503420E+00
 20
2.41789664E+02
  0
VERTEX
  8
0
 62
4
 10
2.11802632E+00
 20
2.41804418E+02
  0
VERTEX
  8
0
 62
4
 10
2.28604239E+00
 20
2.41823904E+02
  0
VERTEX
  8
0
 62
4
 10
2.44772965E+00
 20
2.41847965E+02
  0
VERTEX
  8
0
 62
4
 10
2.60178629E+00
 20
2.41876408E+02
  0
VERTEX
  8
0
 62
4
 10
2.74697193E+00
 20
2.41909005E+02
  0
VERTEX
  8
0
 62
4
 10
2.88211763E+00
 20
2.41945491E+02
  0
VERTEX
  8
0
 62
4
 10
3.00613526E+00
 20
2.41985575E+02
  0
VERTEX
  8
0
 62
4
 10
3.11802632E+00
 20
2.42028932E+02
  0
VERTEX
  8
0
 62
4
 10
3.21688992E+00
 20
2.42075214E+02
  0
VERTEX
  8
0
 62
4
 10
3.30193007E+00
 20
2.42124048E+02
  0
VERTEX
  8
0
 62
4
 10
3.37246208E+00
 20
2.42175041E+02
  0
VERTEX
  8
0
 62
4
 10
3.42791806E+00
 20
2.42227783E+02
  0
VERTEX
  8
0
 62
4
 10
3.46785151E+00
 20
2.42281849E+02
  0
VERTEX
  8
0
 62
4
 10
3.49194093E+00
 20
2.42336803E+02
  0
VERTEX
  8
0
 62
4
 10
3.49999234E+00
 20
2.42392203E+02
  0
SEQEND
  8
0
  0
LINE
  8
0
 62
4
 10
-8.50000766E+00
 20
2.42392203E+02
 11
-8.50000766E+00
 21
2.43232122E+02
  0
LINE
  8
0
 62
6
 10
-8.00000766E+00
 20
2.41983412E+02
 11
-8.00000766E+00
 21
2.43232122E+02
  0
POLYLINE
  8
0
 62
4
 66
1
  0
VERTEX
  8
0
 62
4
 10
-8.50000766E+00
 20
2.42392203E+02
  0
VERTEX
  8
0
 62
4
 10
-8.49195625E+00
 20
2.42336803E+02
  0
VERTEX
  8
0
 62
4
 10
-8.46786684E+00
 20
2.42281849E+02
  0
VERTEX
  8
0
 62
4
 10
-8.42793338E+00
 20
2.42227783E+02
  0
VERTEX
  8
0
 62
4
 10
-8.37247740E+00
 20
2.42175041E+02
  0
VERTEX
  8
0
 62
4
 10
-8.30194540E+00
 20
2.42124048E+02
  0
VERTEX
  8
0
 62
4
 10
-8.21690525E+00
 20
2.42075214E+02
  0
VERTEX
  8
0
 62
4
 10
-8.11804165E+00
 20
2.42028932E+02
  0
VERTEX
  8
0
 62
4
 10
-8.00615060E+00
 20
2.41985575E+02
  0
VERTEX
  8
0
 62
4
 10
-7.88213296E+00
 20
2.41945491E+02
  0
VERTEX
  8
0
 62
4
 10
-7.74698727E+00
 20
2.41909005E+02
  0
VERTEX
  8
0
 62
4
 10
-7.60180163E+00
 20
2.41876408E+02
  0
VERTEX
  8
0
 62
4
 10
-7.44774499E+00
 20
2.41847965E+02
  0
VERTEX
  8
0
 62
4
 10
-7.28605773E+00
 20
2.41823904E+02
  0
VERTEX
  8
0
 62
4
 10
-7.11804166E+00
 20
2.41804418E+02
  0
VERTEX
  8
0
 62
4
 10
-6.94504954E+00
 20
2.41789664E+02
  0
VERTEX
  8
0
 62
4
 10
-6.76847420E+00
 20
2.41779762E+02
  0
VERTEX
  8
0
 62
4
 10
-6.58973733E+00
 20
2.41774791E+02
  0
VERTEX
  8
0
 62
4
 10
-6.41027801E+00
 20
2.41774791E+02
  0
VERTEX
  8
0
 62
4
 10
-6.23154114E+00
 20
2.41779762E+02
  0
VERTEX
  8
0
 62
4
 10
-6.05496580E+00
 20
2.41789664E+02
  0
VERTEX
  8
0
 62
4
 10
-5.88197368E+00
 20
2.41804418E+02
  0
VERTEX
  8
0
 62
4
 10
-5.71395761E+00
 20
2.41823904E+02
  0
VERTEX
  8
0
 62
4
 10
-5.55227035E+00
 20
2.41847965E+02
  0
VERTEX
  8
0
 62
4
 10
-5.39821371E+00
 20
2.41876408E+02
  0
VERTEX
  8
0
 62
4
 10
-5.25302807E+00
 20
2.41909005E+02
  0
VERTEX
  8
0
 62
4
 10
-5.11788237E+00
 20
2.41945491E+02
  0
VERTEX
  8
0
 62
4
 10
-4.99386474E+00
 20
2.41985575E+02
  0
VERTEX
  8
0
 62
4
 10
-4.88197368E+00
 20
2.42028932E+02
  0
VERTEX
  8
0
 62
4
 10
-4.78311008E+00
 20
2.42075214E+02
  0
VERTEX
  8
0
 62
4
 10
-4.69806993E+00
 20
2.42124048E+02
  0
VERTEX
  8
0
 62
4
 10
-4.62753792E+00
 20
2.42175041E+02
  0
VERTEX
  8
0
 62
4
 10
-4.57208194E+00
 20
2.42227783E+02
  0
VERTEX
  8
0
 62
4
 10
-4.53214849E+00
 20
2.42281849E+02
  0
VERTEX
  8
0
 62
4
 10
-4.50805907E+00
 20
2.42336803E+02
  0
VERTEX
  8
0
 62
4
 10
-4.50000766E+00
 20
2.42392203E+02
  0
SEQEND
  8
0
  0
LINE
  8
0
 62
4
 10
-4.50000766E+00
 20
2.42392203E+02
 11
-4.50000766E+00
 21
2.43232122E+02
  0
LINE
  8
0
 62
6
 10
-5.00000766E+00
 20
2.41983412E+02
 11
-5.00000766E+00
 21
2.43232122E+02
  0
LINE
  8
0
 62
4
 10
1.99999924E+01
 20
2.65408543E+02
 11
2.14999924E+01
 21
2.66500052E+02
  0
LINE
  8
0
 62
4
 10
2.14999924E+01
 20
2.68654195E+02
 11
1.99999924E+01
 21
2.69212769E+02
  0
LINE
  8
0
 62
4
 10
1.99999924E+01
 20
2.70448837E+02
 11
2.14999924E+01
 21
2.69354118E+02
  0
LINE
  8
0
 62
4
 10
1.99999924E+01
 20
2.68868049E+02
 11
9.14999239E+00
 21
2.68868049E+02
  0
LINE
  8
0
 62
4
 10
-5.56560573E+00
 20
2.70289527E+02
 11
-1.00000076E+01
 21
2.70289527E+02
  0
LINE
  8
0
 62
4
 10
1.99999924E+01
 20
2.69212769E+02
 11
9.14999239E+00
 21
2.69212769E+02
  0
LINE
  8
0
 62
4
 10
1.99999924E+01
 20
2.70448837E+02
 11
9.04460764E+00
 21
2.70448837E+02
  0
LINE
  8
0
 62
4
 10
1.99999924E+01
 20
2.68868049E+02
 11
1.99999924E+01
 21
2.70448837E+02
  0
LINE
  8
0
 62
4
 10
1.99999924E+01
 20
2.70448837E+02
 11
1.99999924E+01
 21
2.70598544E+02
  0
ARC
  8
0
 62
4
 10
-1.00007307E-01
 20
2.69543217E+02
 40
1.00000000E+00
 50
3.60000000E+02
 51
7.71724899E+01
  0
ARC
  8
0
 62
4
 10
-4.90000795E+00
 20
2.69543217E+02
 40
1.00000000E+00
 50
1.02827510E+02
 51
1.80000000E+02
  0
ARC
  8
0
 62
4
 10
-2.50000763E+00
 20
2.59003003E+02
 40
1.18100000E+01
 50
7.71724899E+01
 51
1.02827510E+02
  0
LINE
  8
0
 62
4
 10
9.14999239E+00
 20
2.70161669E+02
 11
9.14999239E+00
 21
2.68487810E+02
  0
LINE
  8
0
 62
4
 10
8.49992385E-01
 20
2.70161669E+02
 11
8.49992385E-01
 21
2.69855468E+02
  0
POLYLINE
  8
0
 62
4
 66
1
  0
VERTEX
  8
0
 62
4
 10
1.29999238E+00
 20
2.67907014E+02
  0
VERTEX
  8
0
 62
4
 10
1.48180736E+00
 20
2.67807630E+02
  0
VERTEX
  8
0
 62
4
 10
1.69150461E+00
 20
2.67713637E+02
  0
VERTEX
  8
0
 62
4
 10
1.92742225E+00
 20
2.67625779E+02
  0
VERTEX
  8
0
 62
4
 10
2.18769057E+00
 20
2.67544753E+02
  0
VERTEX
  8
0
 62
4
 10
2.47024691E+00
 20
2.67471201E+02
  0
VERTEX
  8
0
 62
4
 10
2.77285196E+00
 20
2.67405706E+02
  0
VERTEX
  8
0
 62
4
 10
3.09310751E+00
 20
2.67348786E+02
  0
VERTEX
  8
0
 62
4
 10
3.42847548E+00
 20
2.67300894E+02
  0
VERTEX
  8
0
 62
4
 10
3.77629801E+00
 20
2.67262408E+02
  0
VERTEX
  8
0
 62
4
 10
4.13381855E+00
 20
2.67233633E+02
  0
VERTEX
  8
0
 62
4
 10
4.49820367E+00
 20
2.67214798E+02
  0
VERTEX
  8
0
 62
4
 10
4.86656557E+00
 20
2.67206052E+02
  0
VERTEX
  8
0
 62
4
 10
5.23598489E+00
 20
2.67207465E+02
  0
VERTEX
  8
0
 62
4
 10
5.60353394E+00
 20
2.67219024E+02
  0
VERTEX
  8
0
 62
4
 10
5.96629980E+00
 20
2.67240638E+02
  0
VERTEX
  8
0
 62
4
 10
6.32140750E+00
 20
2.67272137E+02
  0
VERTEX
  8
0
 62
4
 10
6.66604273E+00
 20
2.67313270E+02
  0
VERTEX
  8
0
 62
4
 10
6.99747421E+00
 20
2.67363711E+02
  0
VERTEX
  8
0
 62
4
 10
7.31307527E+00
 20
2.67423062E+02
  0
VERTEX
  8
0
 62
4
 10
7.61034472E+00
 20
2.67490850E+02
  0
VERTEX
  8
0
 62
4
 10
7.88692663E+00
 20
2.67566540E+02
  0
VERTEX
  8
0
 62
4
 10
8.14062906E+00
 20
2.67649531E+02
  0
VERTEX
  8
0
 62
4
 10
8.36944135E+00
 20
2.67739165E+02
  0
VERTEX
  8
0
 62
4
 10
8.57155014E+00
 20
2.67834732E+02
  0
VERTEX
  8
0
 62
4
 10
8.74535366E+00
 20
2.67935476E+02
  0
VERTEX
  8
0
 62
4
 10
8.88947450E+00
 20
2.68040596E+02
  0
VERTEX
  8
0
 62
4
 10
9.00277046E+00
 20
2.68149261E+02
  0
VERTEX
  8
0
 62
4
 10
9.08434366E+00
 20
2.68260609E+02
  0
VERTEX
  8
0
 62
4
 10
9.13354762E+00
 20
2.68373758E+02
  0
VERTEX
  8
0
 62
4
 10
9.14999238E+00
 20
2.68487810E+02
  0
SEQEND
  8
0
  0
POLYLINE
  8
0
 62
4
 66
1
  0
VERTEX
  8
0
 62
4
 10
9.14999238E+00
 20
2.70161669E+02
  0
VERTEX
  8
0
 62
4
 10
9.13420038E+00
 20
2.70273439E+02
  0
VERTEX
  8
0
 62
4
 10
9.08694455E+00
 20
2.70384359E+02
  0
VERTEX
  8
0
 62
4
 10
9.00858456E+00
 20
2.70493584E+02
  0
VERTEX
  8
0
 62
4
 10
8.89971676E+00
 20
2.70600283E+02
  0
VERTEX
  8
0
 62
4
 10
8.76116969E+00
 20
2.70703643E+02
  0
VERTEX
  8
0
 62
4
 10
8.59399780E+00
 20
2.70802879E+02
  0
VERTEX
  8
0
 62
4
 10
8.39947336E+00
 20
2.70897235E+02
  0
VERTEX
  8
0
 62
4
 10
8.17907682E+00
 20
2.70985993E+02
  0
VERTEX
  8
0
 62
4
 10
7.93448552E+00
 20
2.71068477E+02
  0
VERTEX
  8
0
 62
4
 10
7.66756096E+00
 20
2.71144060E+02
  0
VERTEX
  8
0
 62
4
 10
7.38033459E+00
 20
2.71212166E+02
  0
VERTEX
  8
0
 62
4
 10
7.07499237E+00
 20
2.71272278E+02
  0
VERTEX
  8
0
 62
4
 10
6.75385816E+00
 20
2.71323937E+02
  0
VERTEX
  8
0
 62
4
 10
6.41937597E+00
 20
2.71366750E+02
  0
VERTEX
  8
0
 62
4
 10
6.07409141E+00
 20
2.71400392E+02
  0
VERTEX
  8
0
 62
4
 10
5.72063231E+00
 20
2.71424607E+02
  0
VERTEX
  8
0
 62
4
 10
5.36168870E+00
 20
2.71439210E+02
  0
VERTEX
  8
0
 62
4
 10
4.99999237E+00
 20
2.71444090E+02
  0
VERTEX
  8
0
 62
4
 10
4.63829603E+00
 20
2.71439210E+02
  0
VERTEX
  8
0
 62
4
 10
4.27935243E+00
 20
2.71424607E+02
  0
VERTEX
  8
0
 62
4
 10
3.92589333E+00
 20
2.71400392E+02
  0
VERTEX
  8
0
 62
4
 10
3.58060877E+00
 20
2.71366750E+02
  0
VERTEX
  8
0
 62
4
 10
3.24612658E+00
 20
2.71323937E+02
  0
VERTEX
  8
0
 62
4
 10
2.92499236E+00
 20
2.71272278E+02
  0
VERTEX
  8
0
 62
4
 10
2.61965015E+00
 20
2.71212166E+02
  0
VERTEX
  8
0
 62
4
 10
2.33242378E+00
 20
2.71144060E+02
  0
VERTEX
  8
0
 62
4
 10
2.06549922E+00
 20
2.71068477E+02
  0
VERTEX
  8
0
 62
4
 10
1.82090792E+00
 20
2.70985993E+02
  0
VERTEX
  8
0
 62
4
 10
1.60051138E+00
 20
2.70897235E+02
  0
VERTEX
  8
0
 62
4
 10
1.40598693E+00
 20
2.70802879E+02
  0
VERTEX
  8
0
 62
4
 10
1.23881504E+00
 20
2.70703643E+02
  0
VERTEX
  8
0
 62
4
 10
1.10026798E+00
 20
2.70600283E+02
  0
VERTEX
  8
0
 62
4
 10
9.91400180E-01
 20
2.70493584E+02
  0
VERTEX
  8
0
 62
4
 10
9.13040184E-01
 20
2.70384359E+02
  0
VERTEX
  8
0
 62
4
 10
8.65784362E-01
 20
2.70273439E+02
  0
VERTEX
  8
0
 62
4
 10
8.49992360E-01
 20
2.70161669E+02
  0
VERTEX
  8
0
 62
4
 10
8.65784363E-01
 20
2.70049899E+02
  0
VERTEX
  8
0
 62
4
 10
9.13040186E-01
 20
2.69938979E+02
  0
VERTEX
  8
0
 62
4
 10
9.91400183E-01
 20
2.69829754E+02
  0
VERTEX
  8
0
 62
4
 10
1.10026799E+00
 20
2.69723055E+02
  0
VERTEX
  8
0
 62
4
 10
1.23881505E+00
 20
2.69619695E+02
  0
VERTEX
  8
0
 62
4
 10
1.40598694E+00
 20
2.69520459E+02
  0
VERTEX
  8
0
 62
4
 10
1.60051138E+00
 20
2.69426103E+02
  0
VERTEX
  8
0
 62
4
 10
1.82090793E+00
 20
2.69337345E+02
  0
VERTEX
  8
0
 62
4
 10
2.06549923E+00
 20
2.69254861E+02
  0
VERTEX
  8
0
 62
4
 10
2.33242379E+00
 20
2.69179278E+02
  0
VERTEX
  8
0
 62
4
 10
2.61965016E+00
 20
2.69111172E+02
  0
VERTEX
  8
0
 62
4
 10
2.92499237E+00
 20
2.69051060E+02
  0
VERTEX
  8
0
 62
4
 10
3.24612659E+00
 20
2.68999401E+02
  0
VERTEX
  8
0
 62
4
 10
3.58060878E+00
 20
2.68956588E+02
  0
VERTEX
  8
0
 62
4
 10
3.92589334E+00
 20
2.68922946E+02
  0
VERTEX
  8
0
 62
4
 10
4.27935244E+00
 20
2.68898731E+02
  0
VERTEX
  8
0
 62
4
 10
4.63829605E+00
 20
2.68884128E+02
  0
VERTEX
  8
0
 62
4
 10
4.99999238E+00
 20
2.68879249E+02
  0
VERTEX
  8
0
 62
4
 10
5.36168871E+00
 20
2.68884128E+02
  0
VERTEX
  8
0
 62
4
 10
5.72063232E+00
 20
2.68898731E+02
  0
VERTEX
  8
0
 62
4
 10
6.07409142E+00
 20
2.68922946E+02
  0
VERTEX
  8
0
 62
4
 10
6.41937598E+00
 20
2.68956588E+02
  0
VERTEX
  8
0
 62
4
 10
6.75385817E+00
 20
2.68999401E+02
  0
VERTEX
  8
0
 62
4
 10
7.07499238E+00
 20
2.69051060E+02
  0
VERTEX
  8
0
 62
4
 10
7.38033459E+00
 20
2.69111172E+02
  0
VERTEX
  8
0
 62
4
 10
7.66756096E+00
 20
2.69179278E+02
  0
VERTEX
  8
0
 62
4
 10
7.93448553E+00
 20
2.69254861E+02
  0
VERTEX
  8
0
 62
4
 10
8.17907682E+00
 20
2.69337345E+02
  0
VERTEX
  8
0
 62
4
 10
8.39947337E+00
 20
2.69426103E+02
  0
VERTEX
  8
0
 62
4
 10
8.59399781E+00
 20
2.69520459E+02
  0
VERTEX
  8
0
 62
4
 10
8.76116970E+00
 20
2.69619695E+02
  0
VERTEX
  8
0
 62
4
 10
8.89971676E+00
 20
2.69723055E+02
  0
VERTEX
  8
0
 62
4
 10
9.00858456E+00
 20
2.69829754E+02
  0
VERTEX
  8
0
 62
4
 10
9.08694456E+00
 20
2.69938979E+02
  0
VERTEX
  8
0
 62
4
 10
9.13420038E+00
 20
2.70049899E+02
  0
VERTEX
  8
0
 62
4
 10
9.14999238E+00
 20
2.70161669E+02
  0
SEQEND
  8
0
  0
LINE
  8
0
 62
4
 10
8.99999237E+00
 20
2.68146140E+02
 11
8.99999237E+00
 21
2.68126408E+02
  0
POLYLINE
  8
0
 62
4
 66
1
  0
VERTEX
  8
0
 62
4
 10
1.29999238E+00
 20
2.67656743E+02
  0
VERTEX
  8
0
 62
4
 10
1.44930035E+00
 20
2.67557230E+02
  0
VERTEX
  8
0
 62
4
 10
1.62656903E+00
 20
2.67462200E+02
  0
VERTEX
  8
0
 62
4
 10
1.83040248E+00
 20
2.67372400E+02
  0
VERTEX
  8
0
 62
4
 10
2.05919557E+00
 20
2.67288538E+02
  0
VERTEX
  8
0
 62
4
 10
2.31114662E+00
 20
2.67211274E+02
  0
VERTEX
  8
0
 62
4
 10
2.58427158E+00
 20
2.67141216E+02
  0
VERTEX
  8
0
 62
4
 10
2.87641967E+00
 20
2.67078916E+02
  0
VERTEX
  8
0
 62
4
 10
3.18529030E+00
 20
2.67024865E+02
  0
VERTEX
  8
0
 62
4
 10
3.50845121E+00
 20
2.66979488E+02
  0
VERTEX
  8
0
 62
4
 10
3.84335758E+00
 20
2.66943143E+02
  0
VERTEX
  8
0
 62
4
 10
4.18737214E+00
 20
2.66916116E+02
  0
VERTEX
  8
0
 62
4
 10
4.53778585E+00
 20
2.66898620E+02
  0
VERTEX
  8
0
 62
4
 10
4.89183931E+00
 20
2.66890792E+02
  0
VERTEX
  8
0
 62
4
 10
5.24674445E+00
 20
2.66892694E+02
  0
VERTEX
  8
0
 62
4
 10
5.59970648E+00
 20
2.66904311E+02
  0
VERTEX
  8
0
 62
4
 10
5.94794594E+00
 20
2.66925553E+02
  0
VERTEX
  8
0
 62
4
 10
6.28872052E+00
 20
2.66956250E+02
  0
VERTEX
  8
0
 62
4
 10
6.61934672E+00
 20
2.66996162E+02
  0
VERTEX
  8
0
 62
4
 10
6.93722096E+00
 20
2.67044975E+02
  0
VERTEX
  8
0
 62
4
 10
7.23984006E+00
 20
2.67102303E+02
  0
VERTEX
  8
0
 62
4
 10
7.52482099E+00
 20
2.67167696E+02
  0
VERTEX
  8
0
 62
4
 10
7.78991959E+00
 20
2.67240639E+02
  0
VERTEX
  8
0
 62
4
 10
8.03304830E+00
 20
2.67320556E+02
  0
VERTEX
  8
0
 62
4
 10
8.25229253E+00
 20
2.67406820E+02
  0
VERTEX
  8
0
 62
4
 10
8.44592580E+00
 20
2.67498750E+02
  0
VERTEX
  8
0
 62
4
 10
8.61242330E+00
 20
2.67595623E+02
  0
VERTEX
  8
0
 62
4
 10
8.75047392E+00
 20
2.67696676E+02
  0
VERTEX
  8
0
 62
4
 10
8.85899054E+00
 20
2.67801112E+02
  0
VERTEX
  8
0
 62
4
 10
8.93711862E+00
 20
2.67908111E+02
  0
VERTEX
  8
0
 62
4
 10
8.98424293E+00
 20
2.68016828E+02
  0
VERTEX
  8
0
 62
4
 10
8.99999237E+00
 20
2.68126408E+02
  0
SEQEND
  8
0
  0
ARC
  8
0
 62
4
 10
9.18761442E+00
 20
2.57173172E+02
 40
1.43299558E+01
 50
9.97219440E+01
 51
1.14556488E+02
  0
ARC
  8
0
 62
4
 10
8.12368852E-01
 20
2.57173167E+02
 40
1.43299613E+01
 50
6.54435144E+01
 51
8.02780535E+01
  0
LINE
  8
0
 62
4
 10
1.29999237E+00
 20
2.67995906E+02
 11
1.29999237E+00
 21
2.67044849E+02
  0
POLYLINE
  8
0
 62
4
 66
1
  0
VERTEX
  8
0
 62
4
 10
-6.30000763E+00
 20
2.67044849E+02
  0
VERTEX
  8
0
 62
4
 10
-6.28470995E+00
 20
2.66939589E+02
  0
VERTEX
  8
0
 62
4
 10
-6.23894007E+00
 20
2.66835176E+02
  0
VERTEX
  8
0
 62
4
 10
-6.16306650E+00
 20
2.66732451E+02
  0
VERTEX
  8
0
 62
4
 10
-6.05770014E+00
 20
2.66632242E+02
  0
VERTEX
  8
0
 62
4
 10
-5.92368933E+00
 20
2.66535355E+02
  0
VERTEX
  8
0
 62
4
 10
-5.76211305E+00
 20
2.66442570E+02
  0
VERTEX
  8
0
 62
4
 10
-5.57427222E+00
 20
2.66354634E+02
  0
VERTEX
  8
0
 62
4
 10
-5.36167921E+00
 20
2.66272255E+02
  0
VERTEX
  8
0
 62
4
 10
-5.12604571E+00
 20
2.66196097E+02
  0
VERTEX
  8
0
 62
4
 10
-4.86926889E+00
 20
2.66126772E+02
  0
VERTEX
  8
0
 62
4
 10
-4.59341617E+00
 20
2.66064839E+02
  0
VERTEX
  8
0
 62
4
 10
-4.30070856E+00
 20
2.66010797E+02
  0
VERTEX
  8
0
 62
4
 10
-3.99350277E+00
 20
2.65965080E+02
  0
VERTEX
  8
0
 62
4
 10
-3.67427223E+00
 20
2.65928057E+02
  0
VERTEX
  8
0
 62
4
 10
-3.34558720E+00
 20
2.65900026E+02
  0
VERTEX
  8
0
 62
4
 10
-3.01009406E+00
 20
2.65881212E+02
  0
VERTEX
  8
0
 62
4
 10
-2.67049401E+00
 20
2.65871767E+02
  0
VERTEX
  8
0
 62
4
 10
-2.32952130E+00
 20
2.65871767E+02
  0
VERTEX
  8
0
 62
4
 10
-1.98992124E+00
 20
2.65881212E+02
  0
VERTEX
  8
0
 62
4
 10
-1.65442810E+00
 20
2.65900026E+02
  0
VERTEX
  8
0
 62
4
 10
-1.32574307E+00
 20
2.65928057E+02
  0
VERTEX
  8
0
 62
4
 10
-1.00651253E+00
 20
2.65965080E+02
  0
VERTEX
  8
0
 62
4
 10
-6.99306733E-01
 20
2.66010797E+02
  0
VERTEX
  8
0
 62
4
 10
-4.06599120E-01
 20
2.66064839E+02
  0
VERTEX
  8
0
 62
4
 10
-1.30746401E-01
 20
2.66126772E+02
  0
VERTEX
  8
0
 62
4
 10
1.26030419E-01
 20
2.66196097E+02
  0
VERTEX
  8
0
 62
4
 10
3.61663925E-01
 20
2.66272255E+02
  0
VERTEX
  8
0
 62
4
 10
5.74256934E-01
 20
2.66354634E+02
  0
VERTEX
  8
0
 62
4
 10
7.62097773E-01
 20
2.66442570E+02
  0
VERTEX
  8
0
 62
4
 10
9.23674057E-01
 20
2.66535355E+02
  0
VERTEX
  8
0
 62
4
 10
1.05768487E+00
 20
2.66632242E+02
  0
VERTEX
  8
0
 62
4
 10
1.16305123E+00
 20
2.66732451E+02
  0
VERTEX
  8
0
 62
4
 10
1.23892480E+00
 20
2.66835176E+02
  0
VERTEX
  8
0
 62
4
 10
1.28469468E+00
 20
2.66939589E+02
  0
VERTEX
  8
0
 62
4
 10
1.29999237E+00
 20
2.67044849E+02
  0
SEQEND
  8
0
  0
POLYLINE
  8
0
 62
4
 66
1
  0
VERTEX
  8
0
 62
4
 10
-5.90000764E+00
 20
2.68520325E+02
  0
VERTEX
  8
0
 62
4
 10
-6.03658930E+00
 20
2.68425494E+02
  0
VERTEX
  8
0
 62
4
 10
-6.14553717E+00
 20
2.68327306E+02
  0
VERTEX
  8
0
 62
4
 10
-6.22599995E+00
 20
2.68226529E+02
  0
VERTEX
  8
0
 62
4
 10
-6.27734893E+00
 20
2.68123950E+02
  0
VERTEX
  8
0
 62
4
 10
-6.29918288E+00
 20
2.68020370E+02
  0
VERTEX
  8
0
 62
4
 10
-6.29133121E+00
 20
2.67916599E+02
  0
VERTEX
  8
0
 62
4
 10
-6.25385526E+00
 20
2.67813448E+02
  0
VERTEX
  8
0
 62
4
 10
-6.18704785E+00
 20
2.67711722E+02
  0
VERTEX
  8
0
 62
4
 10
-6.09143101E+00
 20
2.67612217E+02
  0
VERTEX
  8
0
 62
4
 10
-5.96775185E+00
 20
2.67515710E+02
  0
VERTEX
  8
0
 62
4
 10
-5.81697677E+00
 20
2.67422955E+02
  0
VERTEX
  8
0
 62
4
 10
-5.64028387E+00
 20
2.67334677E+02
  0
VERTEX
  8
0
 62
4
 10
-5.43905379E+00
 20
2.67251566E+02
  0
VERTEX
  8
0
 62
4
 10
-5.21485887E+00
 20
2.67174270E+02
  0
VERTEX
  8
0
 62
4
 10
-4.96945091E+00
 20
2.67103395E+02
  0
VERTEX
  8
0
 62
4
 10
-4.70474745E+00
 20
2.67039494E+02
  0
VERTEX
  8
0
 62
4
 10
-4.42281681E+00
 20
2.66983065E+02
  0
VERTEX
  8
0
 62
4
 10
-4.12586191E+00
 20
2.66934551E+02
  0
VERTEX
  8
0
 62
4
 10
-3.81620307E+00
 20
2.66894330E+02
  0
VERTEX
  8
0
 62
4
 10
-3.49625986E+00
 20
2.66862716E+02
  0
VERTEX
  8
0
 62
4
 10
-3.16853224E+00
 20
2.66839956E+02
  0
VERTEX
  8
0
 62
4
 10
-2.83558096E+00
 20
2.66826229E+02
  0
VERTEX
  8
0
 62
4
 10
-2.50000761E+00
 20
2.66821641E+02
  0
VERTEX
  8
0
 62
4
 10
-2.16443426E+00
 20
2.66826229E+02
  0
VERTEX
  8
0
 62
4
 10
-1.83148299E+00
 20
2.66839956E+02
  0
VERTEX
  8
0
 62
4
 10
-1.50375536E+00
 20
2.66862716E+02
  0
VERTEX
  8
0
 62
4
 10
-1.18381216E+00
 20
2.66894330E+02
  0
VERTEX
  8
0
 62
4
 10
-8.74153316E-01
 20
2.66934551E+02
  0
VERTEX
  8
0
 62
4
 10
-5.77198416E-01
 20
2.66983065E+02
  0
VERTEX
  8
0
 62
4
 10
-2.95267777E-01
 20
2.67039494E+02
  0
VERTEX
  8
0
 62
4
 10
-3.05643209E-02
 20
2.67103395E+02
  0
VERTEX
  8
0
 62
4
 10
2.14843637E-01
 20
2.67174270E+02
  0
VERTEX
  8
0
 62
4
 10
4.39038553E-01
 20
2.67251566E+02
  0
VERTEX
  8
0
 62
4
 10
6.40268634E-01
 20
2.67334677E+02
  0
VERTEX
  8
0
 62
4
 10
8.16961528E-01
 20
2.67422955E+02
  0
VERTEX
  8
0
 62
4
 10
9.67736608E-01
 20
2.67515710E+02
  0
VERTEX
  8
0
 62
4
 10
1.09141576E+00
 20
2.67612217E+02
  0
VERTEX
  8
0
 62
4
 10
1.18703260E+00
 20
2.67711722E+02
  0
VERTEX
  8
0
 62
4
 10
1.25384000E+00
 20
2.67813448E+02
  0
VERTEX
  8
0
 62
4
 10
1.29131595E+00
 20
2.67916599E+02
  0
VERTEX
  8
0
 62
4
 10
1.29916762E+00
 20
2.68020370E+02
  0
VERTEX
  8
0
 62
4
 10
1.27733366E+00
 20
2.68123950E+02
  0
VERTEX
  8
0
 62
4
 10
1.22598468E+00
 20
2.68226529E+02
  0
VERTEX
  8
0
 62
4
 10
1.14552190E+00
 20
2.68327306E+02
  0
VERTEX
  8
0
 62
4
 10
1.03657403E+00
 20
2.68425494E+02
  0
VERTEX
  8
0
 62
4
 10
8.99992362E-01
 20
2.68520325E+02
  0
SEQEND
  8
0
  0
LINE
  8
0
 62
4
 10
-6.30000763E+00
 20
2.67995906E+02
 11
-6.30000763E+00
 21
2.67044849E+02
  0
LINE
  8
0
 62
4
 10
8.99992371E-01
 20
2.69543217E+02
 11
8.99992371E-01
 21
2.67995906E+02
  0
POLYLINE
  8
0
 62
4
 66
1
  0
VERTEX
  8
0
 62
4
 10
-5.90000763E+00
 20
2.67995906E+02
  0
VERTEX
  8
0
 62
4
 10
-5.88632023E+00
 20
2.67901726E+02
  0
VERTEX
  8
0
 62
4
 10
-5.84536823E+00
 20
2.67808304E+02
  0
VERTEX
  8
0
 62
4
 10
-5.77748136E+00
 20
2.67716392E+02
  0
VERTEX
  8
0
 62
4
 10
-5.68320619E+00
 20
2.67626731E+02
  0
VERTEX
  8
0
 62
4
 10
-5.56330179E+00
 20
2.67540043E+02
  0
VERTEX
  8
0
 62
4
 10
-5.41873354E+00
 20
2.67457024E+02
  0
VERTEX
  8
0
 62
4
 10
-5.25066542E+00
 20
2.67378345E+02
  0
VERTEX
  8
0
 62
4
 10
-5.06045062E+00
 20
2.67304638E+02
  0
VERTEX
  8
0
 62
4
 10
-4.84962065E+00
 20
2.67236496E+02
  0
VERTEX
  8
0
 62
4
 10
-4.61987297E+00
 20
2.67174469E+02
  0
VERTEX
  8
0
 62
4
 10
-4.37305738E+00
 20
2.67119055E+02
  0
VERTEX
  8
0
 62
4
 10
-4.11116110E+00
 20
2.67070701E+02
  0
VERTEX
  8
0
 62
4
 10
-3.83629275E+00
 20
2.67029797E+02
  0
VERTEX
  8
0
 62
4
 10
-3.55066543E+00
 20
2.66996671E+02
  0
VERTEX
  8
0
 62
4
 10
-3.25657882E+00
 20
2.66971590E+02
  0
VERTEX
  8
0
 62
4
 10
-2.95640075E+00
 20
2.66954757E+02
  0
VERTEX
  8
0
 62
4
 10
-2.65254807E+00
 20
2.66946306E+02
  0
VERTEX
  8
0
 62
4
 10
-2.34746723E+00
 20
2.66946306E+02
  0
VERTEX
  8
0
 62
4
 10
-2.04361454E+00
 20
2.66954757E+02
  0
VERTEX
  8
0
 62
4
 10
-1.74343647E+00
 20
2.66971590E+02
  0
VERTEX
  8
0
 62
4
 10
-1.44934987E+00
 20
2.66996671E+02
  0
VERTEX
  8
0
 62
4
 10
-1.16372254E+00
 20
2.67029797E+02
  0
VERTEX
  8
0
 62
4
 10
-8.88854195E-01
 20
2.67070701E+02
  0
VERTEX
  8
0
 62
4
 10
-6.26957910E-01
 20
2.67119055E+02
  0
VERTEX
  8
0
 62
4
 10
-3.80142320E-01
 20
2.67174469E+02
  0
VERTEX
  8
0
 62
4
 10
-1.50394639E-01
 20
2.67236496E+02
  0
VERTEX
  8
0
 62
4
 10
6.04353402E-02
 20
2.67304638E+02
  0
VERTEX
  8
0
 62
4
 10
2.50650138E-01
 20
2.67378345E+02
  0
VERTEX
  8
0
 62
4
 10
4.18718257E-01
 20
2.67457024E+02
  0
VERTEX
  8
0
 62
4
 10
5.63286511E-01
 20
2.67540043E+02
  0
VERTEX
  8
0
 62
4
 10
6.83190922E-01
 20
2.67626731E+02
  0
VERTEX
  8
0
 62
4
 10
7.77466090E-01
 20
2.67716392E+02
  0
VERTEX
  8
0
 62
4
 10
8.45352967E-01
 20
2.67808304E+02
  0
VERTEX
  8
0
 62
4
 10
8.86304967E-01
 20
2.67901726E+02
  0
VERTEX
  8
0
 62
4
 10
8.99992370E-01
 20
2.67995906E+02
  0
SEQEND
  8
0
  0
LINE
  8
0
 62
4
 10
-5.90000763E+00
 20
2.69543217E+02
 11
-5.90000763E+00
 21
2.67995906E+02
  0
POLYLINE
  8
0
 62
4
 66
1
  0
VERTEX
  8
0
 62
4
 10
-5.90000763E+00
 20
2.69543211E+02
  0
VERTEX
  8
0
 62
4
 10
-5.88631840E+00
 20
2.69449030E+02
  0
VERTEX
  8
0
 62
4
 10
-5.84536459E+00
 20
2.69355609E+02
  0
VERTEX
  8
0
 62
4
 10
-5.77747593E+00
 20
2.69263697E+02
  0
VERTEX
  8
0
 62
4
 10
-5.68319903E+00
 20
2.69174036E+02
  0
VERTEX
  8
0
 62
4
 10
-5.56329294E+00
 20
2.69087348E+02
  0
VERTEX
  8
0
 62
4
 10
-5.41872307E+00
 20
2.69004330E+02
  0
VERTEX
  8
0
 62
4
 10
-5.25065343E+00
 20
2.68925651E+02
  0
VERTEX
  8
0
 62
4
 10
-5.06043720E+00
 20
2.68851944E+02
  0
VERTEX
  8
0
 62
4
 10
-4.84960590E+00
 20
2.68783803E+02
  0
VERTEX
  8
0
 62
4
 10
-4.61985702E+00
 20
2.68721776E+02
  0
VERTEX
  8
0
 62
4
 10
-4.37304035E+00
 20
2.68666363E+02
  0
VERTEX
  8
0
 62
4
 10
-4.11114313E+00
 20
2.68618009E+02
  0
VERTEX
  8
0
 62
4
 10
-3.83627399E+00
 20
2.68577106E+02
  0
VERTEX
  8
0
 62
4
 10
-3.55064603E+00
 20
2.68543980E+02
  0
VERTEX
  8
0
 62
4
 10
-3.25655893E+00
 20
2.68518900E+02
  0
VERTEX
  8
0
 62
4
 10
-2.95638054E+00
 20
2.68502067E+02
  0
VERTEX
  8
0
 62
4
 10
-2.65252769E+00
 20
2.68493617E+02
  0
VERTEX
  8
0
 62
4
 10
-2.34744685E+00
 20
2.68493617E+02
  0
VERTEX
  8
0
 62
4
 10
-2.04359433E+00
 20
2.68502069E+02
  0
VERTEX
  8
0
 62
4
 10
-1.74341658E+00
 20
2.68518903E+02
  0
VERTEX
  8
0
 62
4
 10
-1.44933047E+00
 20
2.68543984E+02
  0
VERTEX
  8
0
 62
4
 10
-1.16370378E+00
 20
2.68577110E+02
  0
VERTEX
  8
0
 62
4
 10
-8.88836231E-01
 20
2.68618015E+02
  0
VERTEX
  8
0
 62
4
 10
-6.26940885E-01
 20
2.68666370E+02
  0
VERTEX
  8
0
 62
4
 10
-3.80126371E-01
 20
2.68721784E+02
  0
VERTEX
  8
0
 62
4
 10
-1.50379894E-01
 20
2.68783811E+02
  0
VERTEX
  8
0
 62
4
 10
6.04487621E-02
 20
2.68851953E+02
  0
VERTEX
  8
0
 62
4
 10
2.50662129E-01
 20
2.68925661E+02
  0
VERTEX
  8
0
 62
4
 10
4.18728720E-01
 20
2.69004341E+02
  0
VERTEX
  8
0
 62
4
 10
5.63295362E-01
 20
2.69087359E+02
  0
VERTEX
  8
0
 62
4
 10
6.83198090E-01
 20
2.69174048E+02
  0
VERTEX
  8
0
 62
4
 10
7.77471517E-01
 20
2.69263709E+02
  0
VERTEX
  8
0
 62
4
 10
8.45356610E-01
 20
2.69355621E+02
  0
VERTEX
  8
0
 62
4
 10
8.86306796E-01
 20
2.69449043E+02
  0
VERTEX
  8
0
 62
4
 10
8.99992370E-01
 20
2.69543223E+02
  0
SEQEND
  8
0
  0
ARC
  8
0
 62
4
 10
1.66049226E+00
 20
2.56688800E+02
 40
1.42127873E+01
 50
9.99307184E+01
 51
1.14652136E+02
  0
ARC
  8
0
 62
4
 10
-6.66050779E+00
 20
2.56688799E+02
 40
1.42127883E+01
 50
6.53478648E+01
 51
8.00692808E+01
  0
LINE
  8
0
  6
CENTER
 62
6
 10
1.49999924E+01
 20
2.67044849E+02
 11
9.99999237E+00
 21
2.67044849E+02
  0
LINE
  8
0
  6
CENTER
 62
6
 10
4.99999237E+00
 20
2.65626408E+02
 11
4.99999237E+00
 21
2.70626408E+02
  0
LINE
  8
0
  6
CENTER
 62
6
 10
7.49999237E+00
 20
2.68126408E+02
 11
2.49999237E+00
 21
2.68126408E+02
  0
LINE
  8
0
  6
CENTER
 62
6
 10
-2.50000763E+00
 20
2.64544849E+02
 11
-2.50000763E+00
 21
2.69544849E+02
  0
LINE
  8
0
  6
CENTER
 62
6
 10
-7.62939453E-06
 20
2.67044849E+02
 11
-5.00000763E+00
 21
2.67044849E+02
  0
LINE
  8
0
 62
4
 10
1.09822479E+00
 20
2.70598544E+02
 11
-2.59577351E-01
 21
2.70598544E+02
  0
LINE
  8
0
 62
4
 10
9.55377099E-01
 20
2.70448837E+02
 11
3.24082242E-01
 21
2.70448837E+02
  0
LINE
  8
0
 62
4
 10
-5.90000763E+00
 20
2.68868049E+02
 11
-1.00000076E+01
 21
2.68868049E+02
  0
LINE
  8
0
 62
4
 10
-4.74043791E+00
 20
2.70598544E+02
 11
-1.00000076E+01
 21
2.70598544E+02
  0
LINE
  8
0
 62
4
 10
-4.84999923E+01
 20
3.18607797E+02
 11
-4.84999923E+01
 21
3.17767878E+02
  0
LINE
  8
0
 62
4
 10
-5.24999923E+01
 20
3.18607797E+02
 11
-5.24999923E+01
 21
3.17767878E+02
  0
LINE
  8
0
 62
6
 10
-4.89999923E+01
 20
3.19016588E+02
 11
-4.89999923E+01
 21
3.17767878E+02
  0
LINE
  8
0
 62
6
 10
-5.19999923E+01
 20
3.19016588E+02
 11
-5.19999923E+01
 21
3.17767878E+02
  0
LINE
  8
0
  6
CENTER
 62
6
 10
-6.14999924E+01
 20
2.96455151E+02
 11
-6.14999924E+01
 21
2.91455151E+02
  0
LINE
  8
0
  6
CENTER
 62
6
 10
-5.04999923E+01
 20
3.23165609E+02
 11
-5.04999923E+01
 21
3.12900031E+02
  0
LINE
  8
0
  6
CENTER
 62
6
 10
-4.24999923E+01
 20
3.23165609E+02
 11
-4.24999923E+01
 21
3.12900031E+02
  0
LINE
  8
0
 62
4
 10
-6.89999924E+01
 20
3.05141610E+02
 11
-6.89999924E+01
 21
2.92131951E+02
  0
LINE
  8
0
 62
4
 10
-3.89999924E+01
 20
3.17767878E+02
 11
-3.89999924E+01
 21
2.90401456E+02
  0
LINE
  8
0
 62
4
 10
-5.39999924E+01
 20
3.17767878E+02
 11
-5.39999924E+01
 21
3.05141610E+02
  0
LINE
  8
0
 62
4
 10
-7.04999924E+01
 20
2.94499948E+02
 11
-7.04999924E+01
 21
2.91645882E+02
  0
LINE
  8
0
 62
4
 10
-5.39999924E+01
 20
3.17767878E+02
 11
-3.89999924E+01
 21
3.17767878E+02
  0
LINE
  8
0
 62
4
 10
-5.39999924E+01
 20
3.09421364E+02
 11
-3.89999924E+01
 21
3.09421364E+02
  0
LINE
  8
0
 62
4
 10
-6.89999924E+01
 20
3.05141610E+02
 11
-3.89999924E+01
 21
3.05141610E+02
  0
LINE
  8
0
 62
4
 10
-6.89999924E+01
 20
2.95345727E+02
 11
-3.89999924E+01
 21
2.95345727E+02
  0
LINE
  8
0
 62
4
 10
-6.89999924E+01
 20
2.90401456E+02
 11
-5.79017600E+01
 21
2.90401456E+02
  0
POLYLINE
  8
0
 62
4
 66
1
  0
VERTEX
  8
0
 62
4
 10
-4.84999923E+01
 20
3.18607797E+02
  0
VERTEX
  8
0
 62
4
 10
-4.85080437E+01
 20
3.18663197E+02
  0
VERTEX
  8
0
 62
4
 10
-4.85321331E+01
 20
3.18718151E+02
  0
VERTEX
  8
0
 62
4
 10
-4.85720666E+01
 20
3.18772217E+02
  0
VERTEX
  8
0
 62
4
 10
-4.86275226E+01
 20
3.18824959E+02
  0
VERTEX
  8
0
 62
4
 10
-4.86980546E+01
 20
3.18875952E+02
  0
VERTEX
  8
0
 62
4
 10
-4.87830947E+01
 20
3.18924786E+02
  0
VERTEX
  8
0
 62
4
 10
-4.88819583E+01
 20
3.18971068E+02
  0
VERTEX
  8
0
 62
4
 10
-4.89938494E+01
 20
3.19014425E+02
  0
VERTEX
  8
0
 62
4
 10
-4.91178670E+01
 20
3.19054509E+02
  0
VERTEX
  8
0
 62
4
 10
-4.92530127E+01
 20
3.19090995E+02
  0
VERTEX
  8
0
 62
4
 10
-4.93981983E+01
 20
3.19123592E+02
  0
VERTEX
  8
0
 62
4
 10
-4.95522550E+01
 20
3.19152035E+02
  0
VERTEX
  8
0
 62
4
 10
-4.97139422E+01
 20
3.19176096E+02
  0
VERTEX
  8
0
 62
4
 10
-4.98819583E+01
 20
3.19195582E+02
  0
VERTEX
  8
0
 62
4
 10
-5.00549504E+01
 20
3.19210336E+02
  0
VERTEX
  8
0
 62
4
 10
-5.02315258E+01
 20
3.19220238E+02
  0
VERTEX
  8
0
 62
4
 10
-5.04102626E+01
 20
3.19225209E+02
  0
VERTEX
  8
0
 62
4
 10
-5.05897219E+01
 20
3.19225209E+02
  0
VERTEX
  8
0
 62
4
 10
-5.07684588E+01
 20
3.19220238E+02
  0
VERTEX
  8
0
 62
4
 10
-5.09450342E+01
 20
3.19210336E+02
  0
VERTEX
  8
0
 62
4
 10
-5.11180263E+01
 20
3.19195582E+02
  0
VERTEX
  8
0
 62
4
 10
-5.12860424E+01
 20
3.19176096E+02
  0
VERTEX
  8
0
 62
4
 10
-5.14477296E+01
 20
3.19152035E+02
  0
VERTEX
  8
0
 62
4
 10
-5.16017863E+01
 20
3.19123592E+02
  0
VERTEX
  8
0
 62
4
 10
-5.17469719E+01
 20
3.19090995E+02
  0
VERTEX
  8
0
 62
4
 10
-5.18821176E+01
 20
3.19054509E+02
  0
VERTEX
  8
0
 62
4
 10
-5.20061352E+01
 20
3.19014426E+02
  0
VERTEX
  8
0
 62
4
 10
-5.21180263E+01
 20
3.18971068E+02
  0
VERTEX
  8
0
 62
4
 10
-5.22168899E+01
 20
3.18924786E+02
  0
VERTEX
  8
0
 62
4
 10
-5.23019300E+01
 20
3.18875952E+02
  0
VERTEX
  8
0
 62
4
 10
-5.23724620E+01
 20
3.18824959E+02
  0
VERTEX
  8
0
 62
4
 10
-5.24279180E+01
 20
3.18772217E+02
  0
VERTEX
  8
0
 62
4
 10
-5.24678515E+01
 20
3.18718151E+02
  0
VERTEX
  8
0
 62
4
 10
-5.24919409E+01
 20
3.18663197E+02
  0
VERTEX
  8
0
 62
4
 10
-5.24999923E+01
 20
3.18607797E+02
  0
SEQEND
  8
0
  0
LINE
  8
0
 62
4
 10
-4.04999923E+01
 20
3.18607797E+02
 11
-4.04999923E+01
 21
3.17767878E+02
  0
LINE
  8
0
 62
6
 10
-4.09999923E+01
 20
3.19016588E+02
 11
-4.09999923E+01
 21
3.17767878E+02
  0
POLYLINE
  8
0
 62
4
 66
1
  0
VERTEX
  8
0
 62
4
 10
-4.04999923E+01
 20
3.18607797E+02
  0
VERTEX
  8
0
 62
4
 10
-4.05080437E+01
 20
3.18663197E+02
  0
VERTEX
  8
0
 62
4
 10
-4.05321331E+01
 20
3.18718151E+02
  0
VERTEX
  8
0
 62
4
 10
-4.05720666E+01
 20
3.18772217E+02
  0
VERTEX
  8
0
 62
4
 10
-4.06275226E+01
 20
3.18824959E+02
  0
VERTEX
  8
0
 62
4
 10
-4.06980546E+01
 20
3.18875952E+02
  0
VERTEX
  8
0
 62
4
 10
-4.07830947E+01
 20
3.18924786E+02
  0
VERTEX
  8
0
 62
4
 10
-4.08819583E+01
 20
3.18971068E+02
  0
VERTEX
  8
0
 62
4
 10
-4.09938494E+01
 20
3.19014425E+02
  0
VERTEX
  8
0
 62
4
 10
-4.11178670E+01
 20
3.19054509E+02
  0
VERTEX
  8
0
 62
4
 10
-4.12530127E+01
 20
3.19090995E+02
  0
VERTEX
  8
0
 62
4
 10
-4.13981983E+01
 20
3.19123592E+02
  0
VERTEX
  8
0
 62
4
 10
-4.15522550E+01
 20
3.19152035E+02
  0
VERTEX
  8
0
 62
4
 10
-4.17139422E+01
 20
3.19176096E+02
  0
VERTEX
  8
0
 62
4
 10
-4.18819583E+01
 20
3.19195582E+02
  0
VERTEX
  8
0
 62
4
 10
-4.20549504E+01
 20
3.19210336E+02
  0
VERTEX
  8
0
 62
4
 10
-4.22315258E+01
 20
3.19220238E+02
  0
VERTEX
  8
0
 62
4
 10
-4.24102626E+01
 20
3.19225209E+02
  0
VERTEX
  8
0
 62
4
 10
-4.25897219E+01
 20
3.19225209E+02
  0
VERTEX
  8
0
 62
4
 10
-4.27684588E+01
 20
3.19220238E+02
  0
VERTEX
  8
0
 62
4
 10
-4.29450342E+01
 20
3.19210336E+02
  0
VERTEX
  8
0
 62
4
 10
-4.31180263E+01
 20
3.19195582E+02
  0
VERTEX
  8
0
 62
4
 10
-4.32860424E+01
 20
3.19176096E+02
  0
VERTEX
  8
0
 62
4
 10
-4.34477296E+01
 20
3.19152035E+02
  0
VERTEX
  8
0
 62
4
 10
-4.36017863E+01
 20
3.19123592E+02
  0
VERTEX
  8
0
 62
4
 10
-4.37469719E+01
 20
3.19090995E+02
  0
VERTEX
  8
0
 62
4
 10
-4.38821176E+01
 20
3.19054509E+02
  0
VERTEX
  8
0
 62
4
 10
-4.40061352E+01
 20
3.19014426E+02
  0
VERTEX
  8
0
 62
4
 10
-4.41180263E+01
 20
3.18971068E+02
  0
VERTEX
  8
0
 62
4
 10
-4.42168899E+01
 20
3.18924786E+02
  0
VERTEX
  8
0
 62
4
 10
-4.43019300E+01
 20
3.18875952E+02
  0
VERTEX
  8
0
 62
4
 10
-4.43724620E+01
 20
3.18824959E+02
  0
VERTEX
  8
0
 62
4
 10
-4.44279180E+01
 20
3.18772217E+02
  0
VERTEX
  8
0
 62
4
 10
-4.44678515E+01
 20
3.18718151E+02
  0
VERTEX
  8
0
 62
4
 10
-4.44919409E+01
 20
3.18663197E+02
  0
VERTEX
  8
0
 62
4
 10
-4.44999923E+01
 20
3.18607797E+02
  0
SEQEND
  8
0
  0
LINE
  8
0
 62
4
 10
-4.44999923E+01
 20
3.18607797E+02
 11
-4.44999923E+01
 21
3.17767878E+02
  0
LINE
  8
0
 62
6
 10
-4.39999923E+01
 20
3.19016588E+02
 11
-4.39999923E+01
 21
3.17767878E+02
  0
LINE
  8
0
 62
4
 10
-6.89999924E+01
 20
2.95591457E+02
 11
-7.04999924E+01
 21
2.94499948E+02
  0
LINE
  8
0
 62
4
 10
-7.04999924E+01
 20
2.92345805E+02
 11
-6.89999924E+01
 21
2.91787231E+02
  0
LINE
  8
0
 62
4
 10
-6.89999924E+01
 20
2.90551163E+02
 11
-7.04999924E+01
 21
2.91645882E+02
  0
LINE
  8
0
 62
4
 10
-6.89999924E+01
 20
2.92131951E+02
 11
-5.81499924E+01
 21
2.92131951E+02
  0
LINE
  8
0
 62
4
 10
-4.34343943E+01
 20
2.90710473E+02
 11
-3.89999924E+01
 21
2.90710473E+02
  0
LINE
  8
0
 62
4
 10
-6.89999924E+01
 20
2.91787231E+02
 11
-5.81499924E+01
 21
2.91787231E+02
  0
LINE
  8
0
 62
4
 10
-6.89999924E+01
 20
2.90551163E+02
 11
-5.80446076E+01
 21
2.90551163E+02
  0
LINE
  8
0
 62
4
 10
-6.89999924E+01
 20
2.92131951E+02
 11
-6.89999924E+01
 21
2.90551163E+02
  0
LINE
  8
0
 62
4
 10
-6.89999924E+01
 20
2.90551163E+02
 11
-6.89999924E+01
 21
2.90401456E+02
  0
ARC
  8
0
 62
4
 10
-4.88999927E+01
 20
2.91456783E+02
 40
1.00000000E+00
 50
1.80000000E+02
 51
2.57172490E+02
  0
ARC
  8
0
 62
4
 10
-4.40999920E+01
 20
2.91456783E+02
 40
1.00000000E+00
 50
2.82827510E+02
 51
0.00000000E+00
  0
ARC
  8
0
 62
4
 10
-4.64999924E+01
 20
3.01996997E+02
 40
1.18100000E+01
 50
2.57172490E+02
 51
2.82827510E+02
  0
LINE
  8
0
 62
4
 10
-5.81499924E+01
 20
2.90838331E+02
 11
-5.81499924E+01
 21
2.92512190E+02
  0
LINE
  8
0
 62
4
 10
-4.98499924E+01
 20
2.90838331E+02
 11
-4.98499924E+01
 21
2.91144532E+02
  0
POLYLINE
  8
0
 62
4
 66
1
  0
VERTEX
  8
0
 62
4
 10
-5.02999924E+01
 20
2.93092986E+02
  0
VERTEX
  8
0
 62
4
 10
-5.04818074E+01
 20
2.93192370E+02
  0
VERTEX
  8
0
 62
4
 10
-5.06915046E+01
 20
2.93286363E+02
  0
VERTEX
  8
0
 62
4
 10
-5.09274223E+01
 20
2.93374221E+02
  0
VERTEX
  8
0
 62
4
 10
-5.11876906E+01
 20
2.93455247E+02
  0
VERTEX
  8
0
 62
4
 10
-5.14702469E+01
 20
2.93528799E+02
  0
VERTEX
  8
0
 62
4
 10
-5.17728520E+01
 20
2.93594294E+02
  0
VERTEX
  8
0
 62
4
 10
-5.20931075E+01
 20
2.93651214E+02
  0
VERTEX
  8
0
 62
4
 10
-5.24284755E+01
 20
2.93699106E+02
  0
VERTEX
  8
0
 62
4
 10
-5.27762980E+01
 20
2.93737592E+02
  0
VERTEX
  8
0
 62
4
 10
-5.31338186E+01
 20
2.93766367E+02
  0
VERTEX
  8
0
 62
4
 10
-5.34982037E+01
 20
2.93785202E+02
  0
VERTEX
  8
0
 62
4
 10
-5.38665656E+01
 20
2.93793948E+02
  0
VERTEX
  8
0
 62
4
 10
-5.42359849E+01
 20
2.93792535E+02
  0
VERTEX
  8
0
 62
4
 10
-5.46035340E+01
 20
2.93780976E+02
  0
VERTEX
  8
0
 62
4
 10
-5.49662998E+01
 20
2.93759362E+02
  0
VERTEX
  8
0
 62
4
 10
-5.53214075E+01
 20
2.93727863E+02
  0
VERTEX
  8
0
 62
4
 10
-5.56660428E+01
 20
2.93686730E+02
  0
VERTEX
  8
0
 62
4
 10
-5.59974742E+01
 20
2.93636289E+02
  0
VERTEX
  8
0
 62
4
 10
-5.63130753E+01
 20
2.93576938E+02
  0
VERTEX
  8
0
 62
4
 10
-5.66103447E+01
 20
2.93509150E+02
  0
VERTEX
  8
0
 62
4
 10
-5.68869267E+01
 20
2.93433460E+02
  0
VERTEX
  8
0
 62
4
 10
-5.71406291E+01
 20
2.93350470E+02
  0
VERTEX
  8
0
 62
4
 10
-5.73694414E+01
 20
2.93260835E+02
  0
VERTEX
  8
0
 62
4
 10
-5.75715502E+01
 20
2.93165268E+02
  0
VERTEX
  8
0
 62
4
 10
-5.77453537E+01
 20
2.93064524E+02
  0
VERTEX
  8
0
 62
4
 10
-5.78894745E+01
 20
2.92959404E+02
  0
VERTEX
  8
0
 62
4
 10
-5.80027705E+01
 20
2.92850739E+02
  0
VERTEX
  8
0
 62
4
 10
-5.80843437E+01
 20
2.92739391E+02
  0
VERTEX
  8
0
 62
4
 10
-5.81335476E+01
 20
2.92626242E+02
  0
VERTEX
  8
0
 62
4
 10
-5.81499924E+01
 20
2.92512190E+02
  0
SEQEND
  8
0
  0
POLYLINE
  8
0
 62
4
 66
1
  0
VERTEX
  8
0
 62
4
 10
-5.81499924E+01
 20
2.90838331E+02
  0
VERTEX
  8
0
 62
4
 10
-5.81342004E+01
 20
2.90726561E+02
  0
VERTEX
  8
0
 62
4
 10
-5.80869446E+01
 20
2.90615641E+02
  0
VERTEX
  8
0
 62
4
 10
-5.80085846E+01
 20
2.90506416E+02
  0
VERTEX
  8
0
 62
4
 10
-5.78997168E+01
 20
2.90399717E+02
  0
VERTEX
  8
0
 62
4
 10
-5.77611697E+01
 20
2.90296357E+02
  0
VERTEX
  8
0
 62
4
 10
-5.75939978E+01
 20
2.90197121E+02
  0
VERTEX
  8
0
 62
4
 10
-5.73994734E+01
 20
2.90102765E+02
  0
VERTEX
  8
0
 62
4
 10
-5.71790768E+01
 20
2.90014007E+02
  0
VERTEX
  8
0
 62
4
 10
-5.69344856E+01
 20
2.89931523E+02
  0
VERTEX
  8
0
 62
4
 10
-5.66675610E+01
 20
2.89855940E+02
  0
VERTEX
  8
0
 62
4
 10
-5.63803346E+01
 20
2.89787834E+02
  0
VERTEX
  8
0
 62
4
 10
-5.60749924E+01
 20
2.89727722E+02
  0
VERTEX
  8
0
 62
4
 10
-5.57538582E+01
 20
2.89676063E+02
  0
VERTEX
  8
0
 62
4
 10
-5.54193760E+01
 20
2.89633250E+02
  0
VERTEX
  8
0
 62
4
 10
-5.50740914E+01
 20
2.89599608E+02
  0
VERTEX
  8
0
 62
4
 10
-5.47206323E+01
 20
2.89575393E+02
  0
VERTEX
  8
0
 62
4
 10
-5.43616887E+01
 20
2.89560790E+02
  0
VERTEX
  8
0
 62
4
 10
-5.39999924E+01
 20
2.89555910E+02
  0
VERTEX
  8
0
 62
4
 10
-5.36382961E+01
 20
2.89560790E+02
  0
VERTEX
  8
0
 62
4
 10
-5.32793525E+01
 20
2.89575393E+02
  0
VERTEX
  8
0
 62
4
 10
-5.29258934E+01
 20
2.89599608E+02
  0
VERTEX
  8
0
 62
4
 10
-5.25806088E+01
 20
2.89633250E+02
  0
VERTEX
  8
0
 62
4
 10
-5.22461266E+01
 20
2.89676063E+02
  0
VERTEX
  8
0
 62
4
 10
-5.19249924E+01
 20
2.89727722E+02
  0
VERTEX
  8
0
 62
4
 10
-5.16196502E+01
 20
2.89787834E+02
  0
VERTEX
  8
0
 62
4
 10
-5.13324238E+01
 20
2.89855940E+02
  0
VERTEX
  8
0
 62
4
 10
-5.10654993E+01
 20
2.89931523E+02
  0
VERTEX
  8
0
 62
4
 10
-5.08209080E+01
 20
2.90014007E+02
  0
VERTEX
  8
0
 62
4
 10
-5.06005114E+01
 20
2.90102765E+02
  0
VERTEX
  8
0
 62
4
 10
-5.04059870E+01
 20
2.90197121E+02
  0
VERTEX
  8
0
 62
4
 10
-5.02388151E+01
 20
2.90296357E+02
  0
VERTEX
  8
0
 62
4
 10
-5.01002680E+01
 20
2.90399717E+02
  0
VERTEX
  8
0
 62
4
 10
-4.99914002E+01
 20
2.90506416E+02
  0
VERTEX
  8
0
 62
4
 10
-4.99130402E+01
 20
2.90615641E+02
  0
VERTEX
  8
0
 62
4
 10
-4.98657844E+01
 20
2.90726561E+02
  0
VERTEX
  8
0
 62
4
 10
-4.98499924E+01
 20
2.90838331E+02
  0
VERTEX
  8
0
 62
4
 10
-4.98657844E+01
 20
2.90950101E+02
  0
VERTEX
  8
0
 62
4
 10
-4.99130402E+01
 20
2.91061021E+02
  0
VERTEX
  8
0
 62
4
 10
-4.99914002E+01
 20
2.91170246E+02
  0
VERTEX
  8
0
 62
4
 10
-5.01002680E+01
 20
2.91276945E+02
  0
VERTEX
  8
0
 62
4
 10
-5.02388151E+01
 20
2.91380305E+02
  0
VERTEX
  8
0
 62
4
 10
-5.04059870E+01
 20
2.91479541E+02
  0
VERTEX
  8
0
 62
4
 10
-5.06005114E+01
 20
2.91573897E+02
  0
VERTEX
  8
0
 62
4
 10
-5.08209080E+01
 20
2.91662655E+02
  0
VERTEX
  8
0
 62
4
 10
-5.10654993E+01
 20
2.91745139E+02
  0
VERTEX
  8
0
 62
4
 10
-5.13324238E+01
 20
2.91820722E+02
  0
VERTEX
  8
0
 62
4
 10
-5.16196502E+01
 20
2.91888828E+02
  0
VERTEX
  8
0
 62
4
 10
-5.19249924E+01
 20
2.91948940E+02
  0
VERTEX
  8
0
 62
4
 10
-5.22461266E+01
 20
2.92000599E+02
  0
VERTEX
  8
0
 62
4
 10
-5.25806088E+01
 20
2.92043412E+02
  0
VERTEX
  8
0
 62
4
 10
-5.29258934E+01
 20
2.92077054E+02
  0
VERTEX
  8
0
 62
4
 10
-5.32793525E+01
 20
2.92101269E+02
  0
VERTEX
  8
0
 62
4
 10
-5.36382961E+01
 20
2.92115872E+02
  0
VERTEX
  8
0
 62
4
 10
-5.39999924E+01
 20
2.92120751E+02
  0
VERTEX
  8
0
 62
4
 10
-5.43616887E+01
 20
2.92115872E+02
  0
VERTEX
  8
0
 62
4
 10
-5.47206323E+01
 20
2.92101269E+02
  0
VERTEX
  8
0
 62
4
 10
-5.50740914E+01
 20
2.92077054E+02
  0
VERTEX
  8
0
 62
4
 10
-5.54193760E+01
 20
2.92043412E+02
  0
VERTEX
  8
0
 62
4
 10
-5.57538582E+01
 20
2.92000599E+02
  0
VERTEX
  8
0
 62
4
 10
-5.60749924E+01
 20
2.91948940E+02
  0
VERTEX
  8
0
 62
4
 10
-5.63803346E+01
 20
2.91888828E+02
  0
VERTEX
  8
0
 62
4
 10
-5.66675610E+01
 20
2.91820722E+02
  0
VERTEX
  8
0
 62
4
 10
-5.69344856E+01
 20
2.91745139E+02
  0
VERTEX
  8
0
 62
4
 10
-5.71790769E+01
 20
2.91662655E+02
  0
VERTEX
  8
0
 62
4
 10
-5.73994734E+01
 20
2.91573897E+02
  0
VERTEX
  8
0
 62
4
 10
-5.75939978E+01
 20
2.91479541E+02
  0
VERTEX
  8
0
 62
4
 10
-5.77611697E+01
 20
2.91380305E+02
  0
VERTEX
  8
0
 62
4
 10
-5.78997168E+01
 20
2.91276945E+02
  0
VERTEX
  8
0
 62
4
 10
-5.80085846E+01
 20
2.91170246E+02
  0
VERTEX
  8
0
 62
4
 10
-5.80869446E+01
 20
2.91061021E+02
  0
VERTEX
  8
0
 62
4
 10
-5.81342004E+01
 20
2.90950101E+02
  0
VERTEX
  8
0
 62
4
 10
-5.81499924E+01
 20
2.90838331E+02
  0
SEQEND
  8
0
  0
LINE
  8
0
 62
4
 10
-5.79999924E+01
 20
2.92853860E+02
 11
-5.79999924E+01
 21
2.92873592E+02
  0
POLYLINE
  8
0
 62
4
 66
1
  0
VERTEX
  8
0
 62
4
 10
-5.02999924E+01
 20
2.93343257E+02
  0
VERTEX
  8
0
 62
4
 10
-5.04493004E+01
 20
2.93442770E+02
  0
VERTEX
  8
0
 62
4
 10
-5.06265691E+01
 20
2.93537800E+02
  0
VERTEX
  8
0
 62
4
 10
-5.08304025E+01
 20
2.93627600E+02
  0
VERTEX
  8
0
 62
4
 10
-5.10591956E+01
 20
2.93711462E+02
  0
VERTEX
  8
0
 62
4
 10
-5.13111466E+01
 20
2.93788726E+02
  0
VERTEX
  8
0
 62
4
 10
-5.15842716E+01
 20
2.93858784E+02
  0
VERTEX
  8
0
 62
4
 10
-5.18764197E+01
 20
2.93921084E+02
  0
VERTEX
  8
0
 62
4
 10
-5.21852903E+01
 20
2.93975135E+02
  0
VERTEX
  8
0
 62
4
 10
-5.25084512E+01
 20
2.94020512E+02
  0
VERTEX
  8
0
 62
4
 10
-5.28433576E+01
 20
2.94056857E+02
  0
VERTEX
  8
0
 62
4
 10
-5.31873722E+01
 20
2.94083884E+02
  0
VERTEX
  8
0
 62
4
 10
-5.35377859E+01
 20
2.94101380E+02
  0
VERTEX
  8
0
 62
4
 10
-5.38918393E+01
 20
2.94109208E+02
  0
VERTEX
  8
0
 62
4
 10
-5.42467445E+01
 20
2.94107306E+02
  0
VERTEX
  8
0
 62
4
 10
-5.45997065E+01
 20
2.94095689E+02
  0
VERTEX
  8
0
 62
4
 10
-5.49479460E+01
 20
2.94074447E+02
  0
VERTEX
  8
0
 62
4
 10
-5.52887205E+01
 20
2.94043750E+02
  0
VERTEX
  8
0
 62
4
 10
-5.56193467E+01
 20
2.94003838E+02
  0
VERTEX
  8
0
 62
4
 10
-5.59372210E+01
 20
2.93955025E+02
  0
VERTEX
  8
0
 62
4
 10
-5.62398401E+01
 20
2.93897697E+02
  0
VERTEX
  8
0
 62
4
 10
-5.65248210E+01
 20
2.93832304E+02
  0
VERTEX
  8
0
 62
4
 10
-5.67899196E+01
 20
2.93759361E+02
  0
VERTEX
  8
0
 62
4
 10
-5.70330483E+01
 20
2.93679444E+02
  0
VERTEX
  8
0
 62
4
 10
-5.72522926E+01
 20
2.93593180E+02
  0
VERTEX
  8
0
 62
4
 10
-5.74459258E+01
 20
2.93501250E+02
  0
VERTEX
  8
0
 62
4
 10
-5.76124233E+01
 20
2.93404377E+02
  0
VERTEX
  8
0
 62
4
 10
-5.77504739E+01
 20
2.93303324E+02
  0
VERTEX
  8
0
 62
4
 10
-5.78589906E+01
 20
2.93198888E+02
  0
VERTEX
  8
0
 62
4
 10
-5.79371186E+01
 20
2.93091889E+02
  0
VERTEX
  8
0
 62
4
 10
-5.79842430E+01
 20
2.92983172E+02
  0
VERTEX
  8
0
 62
4
 10
-5.79999924E+01
 20
2.92873592E+02
  0
SEQEND
  8
0
  0
ARC
  8
0
 62
4
 10
-5.81876144E+01
 20
3.03826828E+02
 40
1.43299558E+01
 50
2.79721944E+02
 51
2.94556489E+02
  0
ARC
  8
0
 62
4
 10
-4.98123689E+01
 20
3.03826833E+02
 40
1.43299613E+01
 50
2.45443514E+02
 51
2.60278053E+02
  0
LINE
  8
0
 62
4
 10
-5.02999924E+01
 20
2.93004094E+02
 11
-5.02999924E+01
 21
2.93955151E+02
  0
POLYLINE
  8
0
 62
4
 66
1
  0
VERTEX
  8
0
 62
4
 10
-4.26999924E+01
 20
2.93955151E+02
  0
VERTEX
  8
0
 62
4
 10
-4.27152901E+01
 20
2.94060411E+02
  0
VERTEX
  8
0
 62
4
 10
-4.27610600E+01
 20
2.94164824E+02
  0
VERTEX
  8
0
 62
4
 10
-4.28369335E+01
 20
2.94267549E+02
  0
VERTEX
  8
0
 62
4
 10
-4.29422999E+01
 20
2.94367758E+02
  0
VERTEX
  8
0
 62
4
 10
-4.30763107E+01
 20
2.94464645E+02
  0
VERTEX
  8
0
 62
4
 10
-4.32378870E+01
 20
2.94557430E+02
  0
VERTEX
  8
0
 62
4
 10
-4.34257278E+01
 20
2.94645366E+02
  0
VERTEX
  8
0
 62
4
 10
-4.36383208E+01
 20
2.94727745E+02
  0
VERTEX
  8
0
 62
4
 10
-4.38739543E+01
 20
2.94803903E+02
  0
VERTEX
  8
0
 62
4
 10
-4.41307311E+01
 20
2.94873228E+02
  0
VERTEX
  8
0
 62
4
 10
-4.44065839E+01
 20
2.94935161E+02
  0
VERTEX
  8
0
 62
4
 10
-4.46992915E+01
 20
2.94989203E+02
  0
VERTEX
  8
0
 62
4
 10
-4.50064973E+01
 20
2.95034920E+02
  0
VERTEX
  8
0
 62
4
 10
-4.53257278E+01
 20
2.95071943E+02
  0
VERTEX
  8
0
 62
4
 10
-4.56544128E+01
 20
2.95099974E+02
  0
VERTEX
  8
0
 62
4
 10
-4.59899060E+01
 20
2.95118788E+02
  0
VERTEX
  8
0
 62
4
 10
-4.63295060E+01
 20
2.95128233E+02
  0
VERTEX
  8
0
 62
4
 10
-4.66704787E+01
 20
2.95128233E+02
  0
VERTEX
  8
0
 62
4
 10
-4.70100788E+01
 20
2.95118788E+02
  0
VERTEX
  8
0
 62
4
 10
-4.73455719E+01
 20
2.95099974E+02
  0
VERTEX
  8
0
 62
4
 10
-4.76742570E+01
 20
2.95071943E+02
  0
VERTEX
  8
0
 62
4
 10
-4.79934875E+01
 20
2.95034920E+02
  0
VERTEX
  8
0
 62
4
 10
-4.83006933E+01
 20
2.94989203E+02
  0
VERTEX
  8
0
 62
4
 10
-4.85934009E+01
 20
2.94935161E+02
  0
VERTEX
  8
0
 62
4
 10
-4.88692536E+01
 20
2.94873228E+02
  0
VERTEX
  8
0
 62
4
 10
-4.91260304E+01
 20
2.94803903E+02
  0
VERTEX
  8
0
 62
4
 10
-4.93616640E+01
 20
2.94727745E+02
  0
VERTEX
  8
0
 62
4
 10
-4.95742570E+01
 20
2.94645366E+02
  0
VERTEX
  8
0
 62
4
 10
-4.97620978E+01
 20
2.94557430E+02
  0
VERTEX
  8
0
 62
4
 10
-4.99236741E+01
 20
2.94464645E+02
  0
VERTEX
  8
0
 62
4
 10
-5.00576849E+01
 20
2.94367758E+02
  0
VERTEX
  8
0
 62
4
 10
-5.01630513E+01
 20
2.94267549E+02
  0
VERTEX
  8
0
 62
4
 10
-5.02389248E+01
 20
2.94164824E+02
  0
VERTEX
  8
0
 62
4
 10
-5.02846947E+01
 20
2.94060411E+02
  0
VERTEX
  8
0
 62
4
 10
-5.02999924E+01
 20
2.93955151E+02
  0
SEQEND
  8
0
  0
POLYLINE
  8
0
 62
4
 66
1
  0
VERTEX
  8
0
 62
4
 10
-4.30999924E+01
 20
2.92479675E+02
  0
VERTEX
  8
0
 62
4
 10
-4.29634107E+01
 20
2.92574506E+02
  0
VERTEX
  8
0
 62
4
 10
-4.28544629E+01
 20
2.92672694E+02
  0
VERTEX
  8
0
 62
4
 10
-4.27740001E+01
 20
2.92773471E+02
  0
VERTEX
  8
0
 62
4
 10
-4.27226511E+01
 20
2.92876050E+02
  0
VERTEX
  8
0
 62
4
 10
-4.27008171E+01
 20
2.92979630E+02
  0
VERTEX
  8
0
 62
4
 10
-4.27086688E+01
 20
2.93083401E+02
  0
VERTEX
  8
0
 62
4
 10
-4.27461448E+01
 20
2.93186552E+02
  0
VERTEX
  8
0
 62
4
 10
-4.28129522E+01
 20
2.93288278E+02
  0
VERTEX
  8
0
 62
4
 10
-4.29085690E+01
 20
2.93387783E+02
  0
VERTEX
  8
0
 62
4
 10
-4.30322482E+01
 20
2.93484290E+02
  0
VERTEX
  8
0
 62
4
 10
-4.31830233E+01
 20
2.93577045E+02
  0
VERTEX
  8
0
 62
4
 10
-4.33597162E+01
 20
2.93665323E+02
  0
VERTEX
  8
0
 62
4
 10
-4.35609462E+01
 20
2.93748434E+02
  0
VERTEX
  8
0
 62
4
 10
-4.37851412E+01
 20
2.93825730E+02
  0
VERTEX
  8
0
 62
4
 10
-4.40305491E+01
 20
2.93896605E+02
  0
VERTEX
  8
0
 62
4
 10
-4.42952526E+01
 20
2.93960506E+02
  0
VERTEX
  8
0
 62
4
 10
-4.45771832E+01
 20
2.94016935E+02
  0
VERTEX
  8
0
 62
4
 10
-4.48741381E+01
 20
2.94065449E+02
  0
VERTEX
  8
0
 62
4
 10
-4.51837970E+01
 20
2.94105670E+02
  0
VERTEX
  8
0
 62
4
 10
-4.55037402E+01
 20
2.94137284E+02
  0
VERTEX
  8
0
 62
4
 10
-4.58314678E+01
 20
2.94160044E+02
  0
VERTEX
  8
0
 62
4
 10
-4.61644191E+01
 20
2.94173771E+02
  0
VERTEX
  8
0
 62
4
 10
-4.64999924E+01
 20
2.94178359E+02
  0
VERTEX
  8
0
 62
4
 10
-4.68355658E+01
 20
2.94173771E+02
  0
VERTEX
  8
0
 62
4
 10
-4.71685170E+01
 20
2.94160044E+02
  0
VERTEX
  8
0
 62
4
 10
-4.74962447E+01
 20
2.94137284E+02
  0
VERTEX
  8
0
 62
4
 10
-4.78161879E+01
 20
2.94105670E+02
  0
VERTEX
  8
0
 62
4
 10
-4.81258467E+01
 20
2.94065449E+02
  0
VERTEX
  8
0
 62
4
 10
-4.84228016E+01
 20
2.94016935E+02
  0
VERTEX
  8
0
 62
4
 10
-4.87047322E+01
 20
2.93960506E+02
  0
VERTEX
  8
0
 62
4
 10
-4.89694357E+01
 20
2.93896605E+02
  0
VERTEX
  8
0
 62
4
 10
-4.92148437E+01
 20
2.93825730E+02
  0
VERTEX
  8
0
 62
4
 10
-4.94390386E+01
 20
2.93748434E+02
  0
VERTEX
  8
0
 62
4
 10
-4.96402687E+01
 20
2.93665323E+02
  0
VERTEX
  8
0
 62
4
 10
-4.98169616E+01
 20
2.93577045E+02
  0
VERTEX
  8
0
 62
4
 10
-4.99677366E+01
 20
2.93484290E+02
  0
VERTEX
  8
0
 62
4
 10
-5.00914158E+01
 20
2.93387783E+02
  0
VERTEX
  8
0
 62
4
 10
-5.01870326E+01
 20
2.93288278E+02
  0
VERTEX
  8
0
 62
4
 10
-5.02538400E+01
 20
2.93186552E+02
  0
VERTEX
  8
0
 62
4
 10
-5.02913160E+01
 20
2.93083401E+02
  0
VERTEX
  8
0
 62
4
 10
-5.02991677E+01
 20
2.92979630E+02
  0
VERTEX
  8
0
 62
4
 10
-5.02773337E+01
 20
2.92876050E+02
  0
VERTEX
  8
0
 62
4
 10
-5.02259847E+01
 20
2.92773471E+02
  0
VERTEX
  8
0
 62
4
 10
-5.01455219E+01
 20
2.92672694E+02
  0
VERTEX
  8
0
 62
4
 10
-5.00365741E+01
 20
2.92574506E+02
  0
VERTEX
  8
0
 62
4
 10
-4.98999924E+01
 20
2.92479675E+02
  0
SEQEND
  8
0
  0
LINE
  8
0
 62
4
 10
-4.26999924E+01
 20
2.93004094E+02
 11
-4.26999924E+01
 21
2.93955151E+02
  0
LINE
  8
0
 62
4
 10
-4.98999924E+01
 20
2.91456783E+02
 11
-4.98999924E+01
 21
2.93004094E+02
  0
POLYLINE
  8
0
 62
4
 66
1
  0
VERTEX
  8
0
 62
4
 10
-4.30999924E+01
 20
2.93004094E+02
  0
VERTEX
  8
0
 62
4
 10
-4.31136798E+01
 20
2.93098274E+02
  0
VERTEX
  8
0
 62
4
 10
-4.31546318E+01
 20
2.93191696E+02
  0
VERTEX
  8
0
 62
4
 10
-4.32225187E+01
 20
2.93283608E+02
  0
VERTEX
  8
0
 62
4
 10
-4.33167938E+01
 20
2.93373269E+02
  0
VERTEX
  8
0
 62
4
 10
-4.34366982E+01
 20
2.93459957E+02
  0
VERTEX
  8
0
 62
4
 10
-4.35812665E+01
 20
2.93542976E+02
  0
VERTEX
  8
0
 62
4
 10
-4.37493346E+01
 20
2.93621655E+02
  0
VERTEX
  8
0
 62
4
 10
-4.39395494E+01
 20
2.93695362E+02
  0
VERTEX
  8
0
 62
4
 10
-4.41503794E+01
 20
2.93763504E+02
  0
VERTEX
  8
0
 62
4
 10
-4.43801271E+01
 20
2.93825531E+02
  0
VERTEX
  8
0
 62
4
 10
-4.46269426E+01
 20
2.93880945E+02
  0
VERTEX
  8
0
 62
4
 10
-4.48888389E+01
 20
2.93929299E+02
  0
VERTEX
  8
0
 62
4
 10
-4.51637073E+01
 20
2.93970203E+02
  0
VERTEX
  8
0
 62
4
 10
-4.54493346E+01
 20
2.94003329E+02
  0
VERTEX
  8
0
 62
4
 10
-4.57434212E+01
 20
2.94028410E+02
  0
VERTEX
  8
0
 62
4
 10
-4.60435993E+01
 20
2.94045243E+02
  0
VERTEX
  8
0
 62
4
 10
-4.63474520E+01
 20
2.94053694E+02
  0
VERTEX
  8
0
 62
4
 10
-4.66525328E+01
 20
2.94053694E+02
  0
VERTEX
  8
0
 62
4
 10
-4.69563855E+01
 20
2.94045243E+02
  0
VERTEX
  8
0
 62
4
 10
-4.72565636E+01
 20
2.94028410E+02
  0
VERTEX
  8
0
 62
4
 10
-4.75506502E+01
 20
2.94003329E+02
  0
VERTEX
  8
0
 62
4
 10
-4.78362775E+01
 20
2.93970203E+02
  0
VERTEX
  8
0
 62
4
 10
-4.81111458E+01
 20
2.93929299E+02
  0
VERTEX
  8
0
 62
4
 10
-4.83730421E+01
 20
2.93880945E+02
  0
VERTEX
  8
0
 62
4
 10
-4.86198577E+01
 20
2.93825531E+02
  0
VERTEX
  8
0
 62
4
 10
-4.88496054E+01
 20
2.93763504E+02
  0
VERTEX
  8
0
 62
4
 10
-4.90604354E+01
 20
2.93695362E+02
  0
VERTEX
  8
0
 62
4
 10
-4.92506502E+01
 20
2.93621655E+02
  0
VERTEX
  8
0
 62
4
 10
-4.94187183E+01
 20
2.93542976E+02
  0
VERTEX
  8
0
 62
4
 10
-4.95632865E+01
 20
2.93459957E+02
  0
VERTEX
  8
0
 62
4
 10
-4.96831910E+01
 20
2.93373269E+02
  0
VERTEX
  8
0
 62
4
 10
-4.97774661E+01
 20
2.93283608E+02
  0
VERTEX
  8
0
 62
4
 10
-4.98453530E+01
 20
2.93191696E+02
  0
VERTEX
  8
0
 62
4
 10
-4.98863050E+01
 20
2.93098274E+02
  0
VERTEX
  8
0
 62
4
 10
-4.98999924E+01
 20
2.93004094E+02
  0
SEQEND
  8
0
  0
LINE
  8
0
 62
4
 10
-4.30999924E+01
 20
2.91456783E+02
 11
-4.30999924E+01
 21
2.93004094E+02
  0
POLYLINE
  8
0
 62
4
 66
1
  0
VERTEX
  8
0
 62
4
 10
-4.30999924E+01
 20
2.91456789E+02
  0
VERTEX
  8
0
 62
4
 10
-4.31136816E+01
 20
2.91550969E+02
  0
VERTEX
  8
0
 62
4
 10
-4.31546354E+01
 20
2.91644391E+02
  0
VERTEX
  8
0
 62
4
 10
-4.32225241E+01
 20
2.91736303E+02
  0
VERTEX
  8
0
 62
4
 10
-4.33168010E+01
 20
2.91825964E+02
  0
VERTEX
  8
0
 62
4
 10
-4.34367071E+01
 20
2.91912652E+02
  0
VERTEX
  8
0
 62
4
 10
-4.35812770E+01
 20
2.91995670E+02
  0
VERTEX
  8
0
 62
4
 10
-4.37493466E+01
 20
2.92074349E+02
  0
VERTEX
  8
0
 62
4
 10
-4.39395628E+01
 20
2.92148056E+02
  0
VERTEX
  8
0
 62
4
 10
-4.41503941E+01
 20
2.92216197E+02
  0
VERTEX
  8
0
 62
4
 10
-4.43801430E+01
 20
2.92278224E+02
  0
VERTEX
  8
0
 62
4
 10
-4.46269597E+01
 20
2.92333637E+02
  0
VERTEX
  8
0
 62
4
 10
-4.48888569E+01
 20
2.92381991E+02
  0
VERTEX
  8
0
 62
4
 10
-4.51637260E+01
 20
2.92422894E+02
  0
VERTEX
  8
0
 62
4
 10
-4.54493540E+01
 20
2.92456020E+02
  0
VERTEX
  8
0
 62
4
 10
-4.57434411E+01
 20
2.92481100E+02
  0
VERTEX
  8
0
 62
4
 10
-4.60436195E+01
 20
2.92497933E+02
  0
VERTEX
  8
0
 62
4
 10
-4.63474723E+01
 20
2.92506383E+02
  0
VERTEX
  8
0
 62
4
 10
-4.66525532E+01
 20
2.92506383E+02
  0
VERTEX
  8
0
 62
4
 10
-4.69564057E+01
 20
2.92497931E+02
  0
VERTEX
  8
0
 62
4
 10
-4.72565834E+01
 20
2.92481097E+02
  0
VERTEX
  8
0
 62
4
 10
-4.75506696E+01
 20
2.92456016E+02
  0
VERTEX
  8
0
 62
4
 10
-4.78362962E+01
 20
2.92422890E+02
  0
VERTEX
  8
0
 62
4
 10
-4.81111638E+01
 20
2.92381985E+02
  0
VERTEX
  8
0
 62
4
 10
-4.83730591E+01
 20
2.92333630E+02
  0
VERTEX
  8
0
 62
4
 10
-4.86198737E+01
 20
2.92278216E+02
  0
VERTEX
  8
0
 62
4
 10
-4.88496201E+01
 20
2.92216189E+02
  0
VERTEX
  8
0
 62
4
 10
-4.90604488E+01
 20
2.92148047E+02
  0
VERTEX
  8
0
 62
4
 10
-4.92506622E+01
 20
2.92074339E+02
  0
VERTEX
  8
0
 62
4
 10
-4.94187287E+01
 20
2.91995659E+02
  0
VERTEX
  8
0
 62
4
 10
-4.95632954E+01
 20
2.91912641E+02
  0
VERTEX
  8
0
 62
4
 10
-4.96831981E+01
 20
2.91825952E+02
  0
VERTEX
  8
0
 62
4
 10
-4.97774715E+01
 20
2.91736291E+02
  0
VERTEX
  8
0
 62
4
 10
-4.98453566E+01
 20
2.91644379E+02
  0
VERTEX
  8
0
 62
4
 10
-4.98863068E+01
 20
2.91550957E+02
  0
VERTEX
  8
0
 62
4
 10
-4.98999924E+01
 20
2.91456777E+02
  0
SEQEND
  8
0
  0
ARC
  8
0
 62
4
 10
-5.06604923E+01
 20
3.04311200E+02
 40
1.42127873E+01
 50
2.79930719E+02
 51
2.94652135E+02
  0
ARC
  8
0
 62
4
 10
-4.23394922E+01
 20
3.04311201E+02
 40
1.42127883E+01
 50
2.45347865E+02
 51
2.60069281E+02
  0
LINE
  8
0
  6
CENTER
 62
6
 10
-6.39999924E+01
 20
2.93955151E+02
 11
-5.89999924E+01
 21
2.93955151E+02
  0
LINE
  8
0
  6
CENTER
 62
6
 10
-5.39999924E+01
 20
2.95373592E+02
 11
-5.39999924E+01
 21
2.90373592E+02
  0
LINE
  8
0
  6
CENTER
 62
6
 10
-5.64999924E+01
 20
2.92873592E+02
 11
-5.14999924E+01
 21
2.92873592E+02
  0
LINE
  8
0
  6
CENTER
 62
6
 10
-4.64999924E+01
 20
2.96455151E+02
 11
-4.64999924E+01
 21
2.91455151E+02
  0
LINE
  8
0
  6
CENTER
 62
6
 10
-4.89999924E+01
 20
2.93955151E+02
 11
-4.39999924E+01
 21
2.93955151E+02
  0
LINE
  8
0
 62
4
 10
-5.00982248E+01
 20
2.90401456E+02
 11
-4.87404226E+01
 21
2.90401456E+02
  0
LINE
  8
0
 62
4
 10
-4.99553771E+01
 20
2.90551163E+02
 11
-4.93240822E+01
 21
2.90551163E+02
  0
LINE
  8
0
 62
4
 10
-4.30999924E+01
 20
2.92131951E+02
 11
-3.89999924E+01
 21
2.92131951E+02
  0
LINE
  8
0
 62
4
 10
-4.42595621E+01
 20
2.90401456E+02
 11
-3.89999924E+01
 21
2.90401456E+02
  0
LINE
  8
0
 62
7
 10
-5.39999924E+01
 20
3.12100006E+02
 11
-7.99999924E+01
 21
3.12100006E+02
  0
LINE
  8
0
 62
7
 10
-5.39999924E+01
 20
3.14499969E+02
 11
-7.99999924E+01
 21
3.14499969E+02
  0
LINE
  8
0
 62
7
 10
-6.89999924E+01
 20
3.04899994E+02
 11
-7.99999924E+01
 21
3.04899994E+02
  0
LINE
  8
0
 62
7
 10
-1.00000076E+01
 20
2.56100006E+02
 11
-7.99999924E+01
 21
2.56100006E+02
  0
LINE
  8
0
 62
7
 10
-1.00000076E+01
 20
2.48899994E+02
 11
-7.99999924E+01
 21
2.48899994E+02
  0
LINE
  8
0
 62
7
 10
-1.00000076E+01
 20
2.46500031E+02
 11
-7.99999924E+01
 21
2.46500031E+02
  0
LINE
  8
0
 62
4
 10
-9.10001118E+01
 20
-2.38358818E+02
 11
-8.60001118E+01
 21
-2.38358809E+02
  0
LINE
  8
0
 62
4
 10
-7.30000157E+01
 20
-2.83696990E+02
 11
-4.00000157E+01
 21
-2.83696931E+02
  0
LINE
  8
0
 62
4
 10
-4.00000157E+01
 20
-2.85500031E+02
 11
-4.00000157E+01
 21
-2.82231815E+02
  0
LINE
  8
0
 62
4
 10
-7.30000157E+01
 20
-2.85500031E+02
 11
-7.30000157E+01
 21
-2.82231874E+02
  0
LINE
  8
0
 62
4
 10
-3.70000256E+01
 20
-2.77482480E+02
 11
-4.00000157E+01
 21
-2.82231815E+02
  0
LINE
  8
0
 62
4
 10
-7.60000256E+01
 20
-2.77482550E+02
 11
-7.30000157E+01
 21
-2.82231874E+02
  0
POLYLINE
  8
0
 62
4
 66
1
  0
VERTEX
  8
0
 62
4
 10
-6.80000346E+01
 20
-2.70228316E+02
  0
VERTEX
  8
0
 62
4
 10
-6.79848184E+01
 20
-2.70557946E+02
  0
VERTEX
  8
0
 62
4
 10
-6.79392756E+01
 20
-2.70885068E+02
  0
VERTEX
  8
0
 62
4
 10
-6.78637527E+01
 20
-2.71207191E+02
  0
VERTEX
  8
0
 62
4
 10
-6.77588247E+01
 20
-2.71521866E+02
  0
VERTEX
  8
0
 62
4
 10
-6.76252900E+01
 20
-2.71826696E+02
  0
VERTEX
  8
0
 62
4
 10
-6.74641649E+01
 20
-2.72119362E+02
  0
VERTEX
  8
0
 62
4
 10
-6.72766756E+01
 20
-2.72397636E+02
  0
VERTEX
  8
0
 62
4
 10
-6.70642492E+01
 20
-2.72659401E+02
  0
VERTEX
  8
0
 62
4
 10
-6.68285022E+01
 20
-2.72902665E+02
  0
VERTEX
  8
0
 62
4
 10
-6.65712289E+01
 20
-2.73125575E+02
  0
VERTEX
  8
0
 62
4
 10
-6.62943873E+01
 20
-2.73326436E+02
  0
VERTEX
  8
0
 62
4
 10
-6.60000842E+01
 20
-2.73503719E+02
  0
VERTEX
  8
0
 62
4
 10
-6.56905596E+01
 20
-2.73656075E+02
  0
VERTEX
  8
0
 62
4
 10
-6.53681690E+01
 20
-2.73782344E+02
  0
VERTEX
  8
0
 62
4
 10
-6.50353661E+01
 20
-2.73881565E+02
  0
VERTEX
  8
0
 62
4
 10
-6.46946837E+01
 20
-2.73952983E+02
  0
VERTEX
  8
0
 62
4
 10
-6.43487146E+01
 20
-2.73996054E+02
  0
VERTEX
  8
0
 62
4
 10
-6.40000919E+01
 20
-2.74010451E+02
  0
VERTEX
  8
0
 62
4
 10
-6.36514687E+01
 20
-2.73996065E+02
  0
VERTEX
  8
0
 62
4
 10
-6.33054983E+01
 20
-2.73953004E+02
  0
VERTEX
  8
0
 62
4
 10
-6.29648137E+01
 20
-2.73881596E+02
  0
VERTEX
  8
0
 62
4
 10
-6.26320078E+01
 20
-2.73782385E+02
  0
VERTEX
  8
0
 62
4
 10
-6.23096135E+01
 20
-2.73656126E+02
  0
VERTEX
  8
0
 62
4
 10
-6.20000842E+01
 20
-2.73503780E+02
  0
VERTEX
  8
0
 62
4
 10
-6.17057758E+01
 20
-2.73326506E+02
  0
VERTEX
  8
0
 62
4
 10
-6.14289280E+01
 20
-2.73125653E+02
  0
VERTEX
  8
0
 62
4
 10
-6.11716480E+01
 20
-2.72902750E+02
  0
VERTEX
  8
0
 62
4
 10
-6.09358936E+01
 20
-2.72659494E+02
  0
VERTEX
  8
0
 62
4
 10
-6.07234593E+01
 20
-2.72397735E+02
  0
VERTEX
  8
0
 62
4
 10
-6.05359616E+01
 20
-2.72119467E+02
  0
VERTEX
  8
0
 62
4
 10
-6.03748277E+01
 20
-2.71826806E+02
  0
VERTEX
  8
0
 62
4
 10
-6.02412837E+01
 20
-2.71521980E+02
  0
VERTEX
  8
0
 62
4
 10
-6.01363461E+01
 20
-2.71207308E+02
  0
VERTEX
  8
0
 62
4
 10
-6.00608135E+01
 20
-2.70885187E+02
  0
VERTEX
  8
0
 62
4
 10
-6.00152608E+01
 20
-2.70558067E+02
  0
VERTEX
  8
0
 62
4
 10
-6.00000346E+01
 20
-2.70228438E+02
  0
VERTEX
  8
0
 62
4
 10
-6.00152508E+01
 20
-2.69898808E+02
  0
VERTEX
  8
0
 62
4
 10
-6.00607936E+01
 20
-2.69571686E+02
  0
VERTEX
  8
0
 62
4
 10
-6.01363165E+01
 20
-2.69249563E+02
  0
VERTEX
  8
0
 62
4
 10
-6.02412445E+01
 20
-2.68934888E+02
  0
VERTEX
  8
0
 62
4
 10
-6.03747792E+01
 20
-2.68630058E+02
  0
VERTEX
  8
0
 62
4
 10
-6.05359044E+01
 20
-2.68337392E+02
  0
VERTEX
  8
0
 62
4
 10
-6.07233936E+01
 20
-2.68059118E+02
  0
VERTEX
  8
0
 62
4
 10
-6.09358200E+01
 20
-2.67797353E+02
  0
VERTEX
  8
0
 62
4
 10
-6.11715670E+01
 20
-2.67554089E+02
  0
VERTEX
  8
0
 62
4
 10
-6.14288403E+01
 20
-2.67331179E+02
  0
VERTEX
  8
0
 62
4
 10
-6.17056819E+01
 20
-2.67130318E+02
  0
VERTEX
  8
0
 62
4
 10
-6.19999850E+01
 20
-2.66953035E+02
  0
VERTEX
  8
0
 62
4
 10
-6.23095097E+01
 20
-2.66800679E+02
  0
VERTEX
  8
0
 62
4
 10
-6.26319002E+01
 20
-2.66674410E+02
  0
VERTEX
  8
0
 62
4
 10
-6.29647031E+01
 20
-2.66575189E+02
  0
VERTEX
  8
0
 62
4
 10
-6.33053855E+01
 20
-2.66503771E+02
  0
VERTEX
  8
0
 62
4
 10
-6.36513546E+01
 20
-2.66460700E+02
  0
VERTEX
  8
0
 62
4
 10
-6.39999773E+01
 20
-2.66446303E+02
  0
VERTEX
  8
0
 62
4
 10
-6.43486005E+01
 20
-2.66460689E+02
  0
VERTEX
  8
0
 62
4
 10
-6.46945709E+01
 20
-2.66503750E+02
  0
VERTEX
  8
0
 62
4
 10
-6.50352555E+01
 20
-2.66575158E+02
  0
VERTEX
  8
0
 62
4
 10
-6.53680614E+01
 20
-2.66674369E+02
  0
VERTEX
  8
0
 62
4
 10
-6.56904557E+01
 20
-2.66800628E+02
  0
VERTEX
  8
0
 62
4
 10
-6.59999850E+01
 20
-2.66952974E+02
  0
VERTEX
  8
0
 62
4
 10
-6.62942934E+01
 20
-2.67130248E+02
  0
VERTEX
  8
0
 62
4
 10
-6.65711412E+01
 20
-2.67331101E+02
  0
VERTEX
  8
0
 62
4
 10
-6.68284212E+01
 20
-2.67554004E+02
  0
VERTEX
  8
0
 62
4
 10
-6.70641756E+01
 20
-2.67797260E+02
  0
VERTEX
  8
0
 62
4
 10
-6.72766099E+01
 20
-2.68059019E+02
  0
VERTEX
  8
0
 62
4
 10
-6.74641076E+01
 20
-2.68337287E+02
  0
VERTEX
  8
0
 62
4
 10
-6.76252415E+01
 20
-2.68629948E+02
  0
VERTEX
  8
0
 62
4
 10
-6.77587855E+01
 20
-2.68934774E+02
  0
VERTEX
  8
0
 62
4
 10
-6.78637231E+01
 20
-2.69249446E+02
  0
VERTEX
  8
0
 62
4
 10
-6.79392557E+01
 20
-2.69571567E+02
  0
VERTEX
  8
0
 62
4
 10
-6.79848084E+01
 20
-2.69898687E+02
  0
VERTEX
  8
0
 62
4
 10
-6.80000346E+01
 20
-2.70228316E+02
  0
SEQEND
  8
0
  0
POLYLINE
  8
0
 62
4
 66
1
  0
VERTEX
  8
0
 62
4
 10
-6.74000357E+01
 20
-2.69636748E+02
  0
VERTEX
  8
0
 62
4
 10
-6.73871028E+01
 20
-2.69919403E+02
  0
VERTEX
  8
0
 62
4
 10
-6.73483923E+01
 20
-2.70199907E+02
  0
VERTEX
  8
0
 62
4
 10
-6.72841987E+01
 20
-2.70476126E+02
  0
VERTEX
  8
0
 62
4
 10
-6.71950107E+01
 20
-2.70745957E+02
  0
VERTEX
  8
0
 62
4
 10
-6.70815070E+01
 20
-2.71007346E+02
  0
VERTEX
  8
0
 62
4
 10
-6.69445514E+01
 20
-2.71258305E+02
  0
VERTEX
  8
0
 62
4
 10
-6.67851863E+01
 20
-2.71496924E+02
  0
VERTEX
  8
0
 62
4
 10
-6.66046246E+01
 20
-2.71721386E+02
  0
VERTEX
  8
0
 62
4
 10
-6.64042403E+01
 20
-2.71929983E+02
  0
VERTEX
  8
0
 62
4
 10
-6.61855586E+01
 20
-2.72121127E+02
  0
VERTEX
  8
0
 62
4
 10
-6.59502437E+01
 20
-2.72293365E+02
  0
VERTEX
  8
0
 62
4
 10
-6.57000866E+01
 20
-2.72445384E+02
  0
VERTEX
  8
0
 62
4
 10
-6.54369910E+01
 20
-2.72576028E+02
  0
VERTEX
  8
0
 62
4
 10
-6.51629594E+01
 20
-2.72684304E+02
  0
VERTEX
  8
0
 62
4
 10
-6.48800772E+01
 20
-2.72769386E+02
  0
VERTEX
  8
0
 62
4
 10
-6.45904974E+01
 20
-2.72830627E+02
  0
VERTEX
  8
0
 62
4
 10
-6.42964237E+01
 20
-2.72867561E+02
  0
VERTEX
  8
0
 62
4
 10
-6.40000944E+01
 20
-2.72879907E+02
  0
VERTEX
  8
0
 62
4
 10
-6.37037647E+01
 20
-2.72867572E+02
  0
VERTEX
  8
0
 62
4
 10
-6.34096897E+01
 20
-2.72830648E+02
  0
VERTEX
  8
0
 62
4
 10
-6.31201077E+01
 20
-2.72769417E+02
  0
VERTEX
  8
0
 62
4
 10
-6.28372224E+01
 20
-2.72684346E+02
  0
VERTEX
  8
0
 62
4
 10
-6.25631868E+01
 20
-2.72576080E+02
  0
VERTEX
  8
0
 62
4
 10
-6.23000866E+01
 20
-2.72445446E+02
  0
VERTEX
  8
0
 62
4
 10
-6.20499239E+01
 20
-2.72293435E+02
  0
VERTEX
  8
0
 62
4
 10
-6.18146028E+01
 20
-2.72121206E+02
  0
VERTEX
  8
0
 62
4
 10
-6.15959142E+01
 20
-2.71930070E+02
  0
VERTEX
  8
0
 62
4
 10
-6.13955224E+01
 20
-2.71721480E+02
  0
VERTEX
  8
0
 62
4
 10
-6.12149524E+01
 20
-2.71497025E+02
  0
VERTEX
  8
0
 62
4
 10
-6.10555787E+01
 20
-2.71258412E+02
  0
VERTEX
  8
0
 62
4
 10
-6.09186140E+01
 20
-2.71007458E+02
  0
VERTEX
  8
0
 62
4
 10
-6.08051009E+01
 20
-2.70746073E+02
  0
VERTEX
  8
0
 62
4
 10
-6.07159031E+01
 20
-2.70476245E+02
  0
VERTEX
  8
0
 62
4
 10
-6.06516995E+01
 20
-2.70200029E+02
  0
VERTEX
  8
0
 62
4
 10
-6.06129788E+01
 20
-2.69919526E+02
  0
VERTEX
  8
0
 62
4
 10
-6.06000357E+01
 20
-2.69636872E+02
  0
VERTEX
  8
0
 62
4
 10
-6.06129686E+01
 20
-2.69354217E+02
  0
VERTEX
  8
0
 62
4
 10
-6.06516791E+01
 20
-2.69073713E+02
  0
VERTEX
  8
0
 62
4
 10
-6.07158727E+01
 20
-2.68797494E+02
  0
VERTEX
  8
0
 62
4
 10
-6.08050607E+01
 20
-2.68527663E+02
  0
VERTEX
  8
0
 62
4
 10
-6.09185644E+01
 20
-2.68266274E+02
  0
VERTEX
  8
0
 62
4
 10
-6.10555200E+01
 20
-2.68015315E+02
  0
VERTEX
  8
0
 62
4
 10
-6.12148851E+01
 20
-2.67776696E+02
  0
VERTEX
  8
0
 62
4
 10
-6.13954468E+01
 20
-2.67552234E+02
  0
VERTEX
  8
0
 62
4
 10
-6.15958311E+01
 20
-2.67343637E+02
  0
VERTEX
  8
0
 62
4
 10
-6.18145128E+01
 20
-2.67152493E+02
  0
VERTEX
  8
0
 62
4
 10
-6.20498277E+01
 20
-2.66980255E+02
  0
VERTEX
  8
0
 62
4
 10
-6.22999848E+01
 20
-2.66828236E+02
  0
VERTEX
  8
0
 62
4
 10
-6.25630804E+01
 20
-2.66697592E+02
  0
VERTEX
  8
0
 62
4
 10
-6.28371120E+01
 20
-2.66589316E+02
  0
VERTEX
  8
0
 62
4
 10
-6.31199942E+01
 20
-2.66504234E+02
  0
VERTEX
  8
0
 62
4
 10
-6.34095741E+01
 20
-2.66442993E+02
  0
VERTEX
  8
0
 62
4
 10
-6.37036477E+01
 20
-2.66406059E+02
  0
VERTEX
  8
0
 62
4
 10
-6.39999770E+01
 20
-2.66393713E+02
  0
VERTEX
  8
0
 62
4
 10
-6.42963067E+01
 20
-2.66406048E+02
  0
VERTEX
  8
0
 62
4
 10
-6.45903817E+01
 20
-2.66442972E+02
  0
VERTEX
  8
0
 62
4
 10
-6.48799637E+01
 20
-2.66504203E+02
  0
VERTEX
  8
0
 62
4
 10
-6.51628490E+01
 20
-2.66589274E+02
  0
VERTEX
  8
0
 62
4
 10
-6.54368846E+01
 20
-2.66697540E+02
  0
VERTEX
  8
0
 62
4
 10
-6.56999848E+01
 20
-2.66828174E+02
  0
VERTEX
  8
0
 62
4
 10
-6.59501475E+01
 20
-2.66980185E+02
  0
VERTEX
  8
0
 62
4
 10
-6.61854686E+01
 20
-2.67152414E+02
  0
VERTEX
  8
0
 62
4
 10
-6.64041572E+01
 20
-2.67343550E+02
  0
VERTEX
  8
0
 62
4
 10
-6.66045491E+01
 20
-2.67552140E+02
  0
VERTEX
  8
0
 62
4
 10
-6.67851190E+01
 20
-2.67776595E+02
  0
VERTEX
  8
0
 62
4
 10
-6.69444927E+01
 20
-2.68015208E+02
  0
VERTEX
  8
0
 62
4
 10
-6.70814574E+01
 20
-2.68266162E+02
  0
VERTEX
  8
0
 62
4
 10
-6.71949705E+01
 20
-2.68527547E+02
  0
VERTEX
  8
0
 62
4
 10
-6.72841683E+01
 20
-2.68797375E+02
  0
VERTEX
  8
0
 62
4
 10
-6.73483719E+01
 20
-2.69073591E+02
  0
VERTEX
  8
0
 62
4
 10
-6.73870926E+01
 20
-2.69354094E+02
  0
VERTEX
  8
0
 62
4
 10
-6.74000357E+01
 20
-2.69636748E+02
  0
SEQEND
  8
0
  0
POLYLINE
  8
0
 62
4
 66
1
  0
VERTEX
  8
0
 62
4
 10
-6.74000346E+01
 20
-2.70228326E+02
  0
VERTEX
  8
0
 62
4
 10
-6.73870649E+01
 20
-2.70508899E+02
  0
VERTEX
  8
0
 62
4
 10
-6.73482463E+01
 20
-2.70787331E+02
  0
VERTEX
  8
0
 62
4
 10
-6.72838750E+01
 20
-2.71061498E+02
  0
VERTEX
  8
0
 62
4
 10
-6.71944423E+01
 20
-2.71329306E+02
  0
VERTEX
  8
0
 62
4
 10
-6.70806307E+01
 20
-2.71588713E+02
  0
VERTEX
  8
0
 62
4
 10
-6.69433089E+01
 20
-2.71837737E+02
  0
VERTEX
  8
0
 62
4
 10
-6.67835247E+01
 20
-2.72074480E+02
  0
VERTEX
  8
0
 62
4
 10
-6.66024977E+01
 20
-2.72297133E+02
  0
VERTEX
  8
0
 62
4
 10
-6.64016094E+01
 20
-2.72503999E+02
  0
VERTEX
  8
0
 62
4
 10
-6.61823929E+01
 20
-2.72693497E+02
  0
VERTEX
  8
0
 62
4
 10
-6.59465212E+01
 20
-2.72864182E+02
  0
VERTEX
  8
0
 62
4
 10
-6.56957945E+01
 20
-2.73014752E+02
  0
VERTEX
  8
0
 62
4
 10
-6.54321262E+01
 20
-2.73144056E+02
  0
VERTEX
  8
0
 62
4
 10
-6.51575285E+01
 20
-2.73251109E+02
  0
VERTEX
  8
0
 62
4
 10
-6.48740971E+01
 20
-2.73335093E+02
  0
VERTEX
  8
0
 62
4
 10
-6.45839951E+01
 20
-2.73395368E+02
  0
VERTEX
  8
0
 62
4
 10
-6.42894365E+01
 20
-2.73431473E+02
  0
VERTEX
  8
0
 62
4
 10
-6.39926692E+01
 20
-2.73443133E+02
  0
VERTEX
  8
0
 62
4
 10
-6.36959582E+01
 20
-2.73430258E+02
  0
VERTEX
  8
0
 62
4
 10
-6.34015678E+01
 20
-2.73392948E+02
  0
VERTEX
  8
0
 62
4
 10
-6.31117447E+01
 20
-2.73331486E+02
  0
VERTEX
  8
0
 62
4
 10
-6.28287008E+01
 20
-2.73246343E+02
  0
VERTEX
  8
0
 62
4
 10
-6.25545962E+01
 20
-2.73138167E+02
  0
VERTEX
  8
0
 62
4
 10
-6.22915229E+01
 20
-2.73007784E+02
  0
VERTEX
  8
0
 62
4
 10
-6.20414884E+01
 20
-2.72856190E+02
  0
VERTEX
  8
0
 62
4
 10
-6.18064011E+01
 20
-2.72684541E+02
  0
VERTEX
  8
0
 62
4
 10
-6.15880549E+01
 20
-2.72494147E+02
  0
VERTEX
  8
0
 62
4
 10
-6.13881164E+01
 20
-2.72286461E+02
  0
VERTEX
  8
0
 62
4
 10
-6.12081113E+01
 20
-2.72063069E+02
  0
VERTEX
  8
0
 62
4
 10
-6.10494135E+01
 20
-2.71825674E+02
  0
VERTEX
  8
0
 62
4
 10
-6.09132340E+01
 20
-2.71576090E+02
  0
VERTEX
  8
0
 62
4
 10
-6.08006122E+01
 20
-2.71316220E+02
  0
VERTEX
  8
0
 62
4
 10
-6.07124075E+01
 20
-2.71048048E+02
  0
VERTEX
  8
0
 62
4
 10
-6.06492931E+01
 20
-2.70773621E+02
  0
VERTEX
  8
0
 62
4
 10
-6.06117507E+01
 20
-2.70495032E+02
  0
VERTEX
  8
0
 62
4
 10
-6.06000667E+01
 20
-2.70214408E+02
  0
VERTEX
  8
0
 62
4
 10
-6.06143304E+01
 20
-2.69933891E+02
  0
SEQEND
  8
0
  0
LINE
  8
0
  6
CENTER
 62
6
 10
-6.40000249E+01
 20
-2.75651761E+02
 11
-6.40000478E+01
 21
-2.62851761E+02
  0
LINE
  8
0
  6
CENTER
 62
6
 10
-7.04000364E+01
 20
-2.69251773E+02
 11
-5.76000364E+01
 21
-2.69251750E+02
  0
LINE
  8
0
 62
4
 10
-7.15001136E+01
 20
-2.37344817E+02
 11
-5.65001136E+01
 21
-2.37344790E+02
  0
LINE
  8
0
 62
4
 10
-7.35000724E+01
 20
-2.60331648E+02
 11
-5.45000724E+01
 21
-2.60331614E+02
  0
LINE
  8
0
 62
4
 10
-7.60000471E+01
 20
-2.65476157E+02
 11
-7.60000256E+01
 21
-2.77482550E+02
  0
LINE
  8
0
 62
4
 10
-7.35000724E+01
 20
-2.60331648E+02
 11
-7.35000658E+01
 21
-2.63976132E+02
  0
LINE
  8
0
 62
4
 10
-5.65001136E+01
 20
-2.37344790E+02
 11
-5.65000724E+01
 21
-2.60331618E+02
  0
LINE
  8
0
 62
4
 10
-7.15001136E+01
 20
-2.37344790E+02
 11
-7.15000724E+01
 21
-2.60331645E+02
  0
LINE
  8
0
 62
4
 10
-5.45000724E+01
 20
-2.60331614E+02
 11
-5.45000658E+01
 21
-2.63976118E+02
  0
LINE
  8
0
 62
4
 10
-7.15000729E+01
 20
-2.60037262E+02
 11
-5.65000729E+01
 21
-2.60037235E+02
  0
LINE
  8
0
 62
4
 10
-3.70000471E+01
 20
-2.65476087E+02
 11
-3.70000256E+01
 21
-2.77482480E+02
  0
LINE
  8
0
 62
4
 10
-7.30000157E+01
 20
-2.82231874E+02
 11
-4.00000157E+01
 21
-2.82231815E+02
  0
LINE
  8
0
 62
4
 10
-7.60000256E+01
 20
-2.77482550E+02
 11
-3.70000256E+01
 21
-2.77482480E+02
  0
LINE
  8
0
 62
4
 10
-7.60000281E+01
 20
-2.76064272E+02
 11
-3.70000281E+01
 21
-2.76064202E+02
  0
LINE
  8
0
 62
4
 10
-7.45000498E+01
 20
-2.63976154E+02
 11
-3.85000498E+01
 21
-2.63976089E+02
  0
LINE
  8
0
 62
4
 10
-9.10001092E+01
 20
-2.39797775E+02
 11
-8.60001092E+01
 21
-2.39797766E+02
  0
LINE
  8
0
 62
4
 10
-9.10000965E+01
 20
-2.46889164E+02
 11
-8.60000965E+01
 21
-2.46889155E+02
  0
LINE
  8
0
 62
4
 10
-9.10000863E+01
 20
-2.52560507E+02
 11
-8.60000863E+01
 21
-2.52560498E+02
  0
LINE
  8
0
 62
4
 10
-8.05000785E+01
 20
-2.52453340E+02
 11
-7.20000785E+01
 21
-2.52453325E+02
  0
LINE
  8
0
 62
4
 10
-7.15001117E+01
 20
-2.38453331E+02
 11
-8.05001117E+01
 21
-2.38453347E+02
  0
LINE
  8
0
 62
4
 10
-8.10001108E+01
 20
-2.38953348E+02
 11
-8.10000874E+01
 21
-2.51953348E+02
  0
LINE
  8
0
 62
4
 10
-9.10001118E+01
 20
-2.38358818E+02
 11
-9.10000863E+01
 21
-2.52560507E+02
  0
LINE
  8
0
 62
4
 10
-8.60001118E+01
 20
-2.38358818E+02
 11
-8.60000863E+01
 21
-2.52560507E+02
  0
LINE
  8
0
 62
4
 10
-8.60001103E+01
 20
-2.39203340E+02
 11
-8.10001103E+01
 21
-2.39203331E+02
  0
LINE
  8
0
 62
4
 10
-8.60000879E+01
 20
-2.51703340E+02
 11
-8.10000879E+01
 21
-2.51703331E+02
  0
LINE
  8
0
 62
4
 10
-8.45001103E+01
 20
-2.39203337E+02
 11
-8.45000879E+01
 21
-2.51703337E+02
  0
LINE
  8
0
 62
4
 10
-8.45001094E+01
 20
-2.39703337E+02
 11
-8.10001094E+01
 21
-2.39703331E+02
  0
LINE
  8
0
 62
4
 10
-8.45000888E+01
 20
-2.51203337E+02
 11
-8.10000888E+01
 21
-2.51203331E+02
  0
ARC
  8
0
 62
4
 10
-8.05025857E+01
 20
-2.38950872E+02
 40
4.97531232E-01
 50
8.97150889E+01
 51
1.80285117E+02
  0
ARC
  8
0
 62
4
 10
-7.19976027E+01
 20
-2.52950850E+02
 40
4.97531232E-01
 50
3.59715089E+02
 51
9.02851166E+01
  0
ARC
  8
0
 62
4
 10
-3.84975681E+01
 20
-2.65473610E+02
 40
1.49752302E+00
 50
3.59905254E+02
 51
9.00949513E+01
  0
ARC
  8
0
 62
4
 10
-8.04975922E+01
 20
-2.51950853E+02
 40
5.02493390E-01
 50
1.80283706E+02
 51
2.69716500E+02
  0
ARC
  8
0
 62
4
 10
-7.45025262E+01
 20
-2.65473675E+02
 40
1.49752302E+00
 50
8.99052542E+01
 51
1.80094952E+02
  0
LINE
  8
0
 62
6
 10
-6.22850984E+01
 20
-2.71351745E+02
 11
-6.57149730E+01
 21
-2.67921875E+02
  0
LINE
  8
0
 62
6
 10
-6.57149705E+01
 20
-2.71351747E+02
 11
-6.22851008E+01
 21
-2.67921872E+02
  0
ARC
  8
0
 62
4
 10
-4.87062936E+02
 20
-2.45453331E+02
 40
7.00000000E+00
 50
7.79182752E+01
 51
1.00872928E+02
  0
ARC
  8
0
 62
4
 10
-4.87062936E+02
 20
-2.45453331E+02
 40
7.00000000E+00
 50
1.17236957E+02
 51
1.40081725E+02
  0
ARC
  8
0
 62
4
 10
-4.69778532E+02
 20
-2.66471152E+02
 40
2.49501993E+00
 50
1.88855230E+01
 51
1.09114477E+02
  0
ARC
  8
0
 62
4
 10
-4.87746454E+02
 20
-2.72663294E+02
 40
2.50001642E+00
 50
1.09000376E+02
 51
1.76254945E+02
  0
CIRCLE
  8
0
 62
4
 10
-4.87062936E+02
 20
-2.45453331E+02
 40
3.75000000E+00
  0
ARC
  8
0
 62
4
 10
-4.64457138E+02
 20
-2.67390322E+02
 40
9.96609194E-01
 50
3.15516728E+01
 51
1.09414475E+02
  0
ARC
  8
0
 62
4
 10
-4.73651090E+02
 20
-2.73076392E+02
 40
1.18067922E+01
 50
6.08754926E+00
 51
3.17195580E+01
  0
ARC
  8
0
 62
4
 10
-4.62898795E+02
 20
-2.71931064E+02
 40
1.00271607E+00
 50
3.25431261E+02
 51
6.16700057E+00
  0
LINE
  8
0
 62
4
 10
-4.66619498E+02
 20
-2.66446303E+02
 11
-4.64535043E+02
 21
-2.72500000E+02
  0
LINE
  8
0
  6
CENTER
 62
6
 10
-4.71914498E+02
 20
-2.72500000E+02
 11
-4.59644114E+02
 21
-2.68274968E+02
  0
LINE
  8
0
 62
4
 10
-4.66424157E+02
 20
-2.67013614E+02
 11
-4.64788410E+02
 21
-2.66450381E+02
  0
LINE
  8
0
 62
4
 10
-4.67092257E+02
 20
-2.66609087E+02
 11
-4.66619498E+02
 21
-2.66446303E+02
  0
LINE
  8
0
 62
4
 10
-4.86551642E+02
 20
-2.38936818E+02
 11
-4.81928056E+02
 21
-2.37344790E+02
  0
LINE
  8
0
 62
4
 10
-4.89511053E+02
 20
-2.38358818E+02
 11
-4.82141046E+02
 21
-2.39797775E+02
  0
LINE
  8
0
 62
4
 10
-4.91991027E+02
 20
-2.51121550E+02
 11
-4.84621020E+02
 21
-2.52560507E+02
  0
LINE
  8
0
 62
4
 10
-4.82141046E+02
 20
-2.39797775E+02
 11
-4.79699285E+02
 21
-2.46889164E+02
  0
LINE
  8
0
 62
4
 10
-4.94432788E+02
 20
-2.44030161E+02
 11
-4.91991027E+02
 21
-2.51121550E+02
  0
LINE
  8
0
 62
4
 10
-4.94432788E+02
 20
-2.44030161E+02
 11
-4.89511053E+02
 21
-2.38358818E+02
  0
LINE
  8
0
 62
4
 10
-4.84621020E+02
 20
-2.52560507E+02
 11
-4.79699285E+02
 21
-2.46889164E+02
  0
LINE
  8
0
 62
4
 10
-4.67417826E+02
 20
-2.65663568E+02
 11
-4.65063853E+02
 21
-2.72500000E+02
  0
LINE
  8
0
 62
4
 10
-4.88560395E+02
 20
-2.70299487E+02
 11
-4.70595542E+02
 21
-2.64113692E+02
  0
LINE
  8
0
 62
4
 10
-4.89862668E+02
 20
-2.66517413E+02
 11
-4.88560395E+02
 21
-2.70299487E+02
  0
LINE
  8
0
 62
4
 10
-4.71897815E+02
 20
-2.60331618E+02
 11
-4.70595542E+02
 21
-2.64113692E+02
  0
LINE
  8
0
 62
4
 10
-4.88297199E+02
 20
-2.64920758E+02
 11
-4.74114420E+02
 21
-2.60037235E+02
  0
LINE
  8
0
 62
4
 10
-4.89862668E+02
 20
-2.66517413E+02
 11
-4.71897815E+02
 21
-2.60331618E+02
  0
LINE
  8
0
 62
4
 10
-4.96110835E+02
 20
-2.42228312E+02
 11
-4.87971631E+02
 21
-2.65866276E+02
  0
LINE
  8
0
 62
4
 10
-4.81928056E+02
 20
-2.37344790E+02
 11
-4.73788852E+02
 21
-2.60982754E+02
  0
LINE
  8
0
 62
4
 10
-4.96110835E+02
 20
-2.42228312E+02
 11
-4.91487249E+02
 21
-2.40636284E+02
  0
LINE
  8
0
 62
4
 10
-4.87218199E+02
 20
-2.81999969E+02
 11
-4.87180158E+02
 21
-2.81986871E+02
  0
LINE
  8
0
 62
4
 10
1.16934563E+02
 20
-2.65238787E+02
 11
1.22872420E+02
 21
-2.67283355E+02
  0
LINE
  8
0
 62
4
 10
1.22872420E+02
 20
-2.67283355E+02
 11
1.22887238E+02
 21
-2.68346078E+02
  0
LINE
  8
0
 62
4
 10
1.16268608E+02
 20
-2.66067101E+02
 11
1.16934563E+02
 21
-2.65238787E+02
  0
LINE
  8
0
  6
CENTER
 62
6
 10
1.20600364E+02
 20
-2.64237207E+02
 11
1.19092827E+02
 21
-2.68615412E+02
  0
ARC
  8
0
 62
4
 10
1.27067611E+02
 20
-2.45454956E+02
 40
7.00000000E+00
 50
3.99182754E+01
 51
1.02081725E+02
  0
LINE
  8
0
 62
4
 10
1.34760131E+02
 20
-2.75607105E+02
 11
1.29947442E+02
 21
-2.73949963E+02
  0
LINE
  8
0
 62
4
 10
1.35327579E+02
 20
-2.76109203E+02
 11
1.38197419E+02
 21
-2.81999969E+02
  0
LINE
  8
0
 62
4
 10
1.21928010E+02
 20
-2.37344790E+02
 11
1.36110789E+02
 21
-2.42228312E+02
  0
LINE
  8
0
 62
4
 10
1.21928010E+02
 20
-2.37344790E+02
 11
1.13788806E+02
 21
-2.60982754E+02
  0
LINE
  8
0
 62
4
 10
1.36110789E+02
 20
-2.42228312E+02
 11
1.27971585E+02
 21
-2.65866276E+02
  0
LINE
  8
0
 62
4
 10
1.29862622E+02
 20
-2.66517413E+02
 11
1.11897769E+02
 21
-2.60331618E+02
  0
LINE
  8
0
 62
4
 10
1.28297153E+02
 20
-2.64920758E+02
 11
1.14114375E+02
 21
-2.60037235E+02
  0
LINE
  8
0
 62
4
 10
1.11897769E+02
 20
-2.60331618E+02
 11
1.10595497E+02
 21
-2.64113692E+02
  0
LINE
  8
0
 62
4
 10
1.29862622E+02
 20
-2.66517413E+02
 11
1.28560350E+02
 21
-2.70299487E+02
  0
LINE
  8
0
 62
4
 10
1.28560350E+02
 20
-2.70299487E+02
 11
1.10595497E+02
 21
-2.64113692E+02
  0
LINE
  8
0
 62
4
 10
1.16467716E+02
 20
-2.81999969E+02
 11
1.03348178E+02
 21
-2.77482550E+02
  0
LINE
  8
0
 62
4
 10
1.07417780E+02
 20
-2.65663568E+02
 11
1.03348178E+02
 21
-2.77482550E+02
  0
LINE
  8
0
 62
4
 10
1.30110226E+02
 20
-2.73477204E+02
 11
1.27175602E+02
 21
-2.81999969E+02
  0
LINE
  8
0
 62
4
 10
1.03348178E+02
 20
-2.77482550E+02
 11
1.04810640E+02
 21
-2.81999969E+02
  0
LINE
  8
0
 62
4
 10
1.21075046E+02
 20
-2.81999969E+02
 11
1.03836530E+02
 21
-2.76064272E+02
  0
LINE
  8
0
 62
4
 10
1.18864415E+02
 20
-2.75421874E+02
 11
1.15082341E+02
 21
-2.74119602E+02
  0
LINE
  8
0
 62
4
 10
1.18050495E+02
 20
-2.77785671E+02
 11
1.14268420E+02
 21
-2.76483398E+02
  0
LINE
  8
0
 62
4
 10
1.18864415E+02
 20
-2.75421874E+02
 11
1.18050495E+02
 21
-2.77785671E+02
  0
LINE
  8
0
 62
4
 10
1.15082341E+02
 20
-2.74119602E+02
 11
1.14268420E+02
 21
-2.76483398E+02
  0
LINE
  8
0
 62
4
 10
1.30265335E+02
 20
-2.39228034E+02
 11
1.29511008E+02
 21
-2.38358818E+02
  0
LINE
  8
0
 62
4
 10
1.29511008E+02
 20
-2.38358818E+02
 11
1.28381447E+02
 21
-2.38579359E+02
  0
LINE
  8
0
 62
4
 10
1.07092212E+02
 20
-2.66609087E+02
 11
1.06619452E+02
 21
-2.66446303E+02
  0
LINE
  8
0
 62
4
 10
1.04487666E+02
 20
-2.74173235E+02
 11
1.04014907E+02
 21
-2.74010451E+02
  0
LINE
  8
0
 62
4
 10
1.06424112E+02
 20
-2.67013614E+02
 11
1.04788364E+02
 21
-2.66450381E+02
  0
LINE
  8
0
 62
4
 10
1.02574501E+02
 20
-2.72879907E+02
 11
1.04210248E+02
 21
-2.73443140E+02
  0
LINE
  8
0
  6
CENTER
 62
6
 10
1.35507588E+02
 20
-2.80623768E+02
 11
9.96440684E+01
 21
-2.68274968E+02
  0
LINE
  8
0
 62
4
 10
1.06619452E+02
 20
-2.66446303E+02
 11
1.04014907E+02
 21
-2.74010451E+02
  0
ARC
  8
0
 62
4
 10
1.34432358E+02
 20
-2.76549240E+02
 40
9.97523260E-01
 50
2.61759467E+01
 51
7.08169962E+01
  0
ARC
  8
0
 62
4
 10
1.02898749E+02
 20
-2.71931064E+02
 40
1.00271607E+00
 50
1.73833000E+02
 51
2.51133148E+02
  0
ARC
  8
0
 62
4
 10
1.04457092E+02
 20
-2.67390322E+02
 40
9.96609194E-01
 50
7.05855253E+01
 51
1.48448327E+02
  0
ARC
  8
0
 62
4
 10
1.13639070E+02
 20
-2.73115214E+02
 40
1.18081149E+01
 50
1.48089798E+02
 51
1.73718975E+02
  0
ARC
  8
0
 62
4
 10
1.27746408E+02
 20
-2.72663294E+02
 40
2.50001642E+00
 50
3.41000376E+02
 51
7.09996236E+01
  0
ARC
  8
0
 62
4
 10
1.09778486E+02
 20
-2.66471152E+02
 40
2.49501993E+00
 50
7.08855231E+01
 51
1.61114477E+02
  0
POLYLINE
  8
0
 62
4
 66
1
  0
VERTEX
  8
0
 62
4
 10
-6.05999860E+01
 20
-1.41157748E+02
  0
VERTEX
  8
0
 62
4
 10
-6.06129240E+01
 20
-1.41031706E+02
  0
VERTEX
  8
0
 62
4
 10
-6.06516396E+01
 20
-1.40906624E+02
  0
VERTEX
  8
0
 62
4
 10
-6.07158382E+01
 20
-1.40783453E+02
  0
VERTEX
  8
0
 62
4
 10
-6.08050311E+01
 20
-1.40663130E+02
  0
VERTEX
  8
0
 62
4
 10
-6.09185395E+01
 20
-1.40546572E+02
  0
VERTEX
  8
0
 62
4
 10
-6.10554996E+01
 20
-1.40434665E+02
  0
VERTEX
  8
0
 62
4
 10
-6.12148690E+01
 20
-1.40328261E+02
  0
VERTEX
  8
0
 62
4
 10
-6.13954349E+01
 20
-1.40228171E+02
  0
VERTEX
  8
0
 62
4
 10
-6.15958229E+01
 20
-1.40135154E+02
  0
VERTEX
  8
0
 62
4
 10
-6.18145081E+01
 20
-1.40049921E+02
  0
VERTEX
  8
0
 62
4
 10
-6.20498261E+01
 20
-1.39973118E+02
  0
VERTEX
  8
0
 62
4
 10
-6.22999860E+01
 20
-1.39905332E+02
  0
VERTEX
  8
0
 62
4
 10
-6.25630839E+01
 20
-1.39847077E+02
  0
VERTEX
  8
0
 62
4
 10
-6.28371175E+01
 20
-1.39798797E+02
  0
VERTEX
  8
0
 62
4
 10
-6.31200012E+01
 20
-1.39760859E+02
  0
VERTEX
  8
0
 62
4
 10
-6.34095822E+01
 20
-1.39733553E+02
  0
VERTEX
  8
0
 62
4
 10
-6.37036565E+01
 20
-1.39717085E+02
  0
VERTEX
  8
0
 62
4
 10
-6.39999860E+01
 20
-1.39711582E+02
  0
VERTEX
  8
0
 62
4
 10
-6.42963155E+01
 20
-1.39717085E+02
  0
VERTEX
  8
0
 62
4
 10
-6.45903898E+01
 20
-1.39733553E+02
  0
VERTEX
  8
0
 62
4
 10
-6.48799708E+01
 20
-1.39760859E+02
  0
VERTEX
  8
0
 62
4
 10
-6.51628545E+01
 20
-1.39798797E+02
  0
VERTEX
  8
0
 62
4
 10
-6.54368881E+01
 20
-1.39847077E+02
  0
VERTEX
  8
0
 62
4
 10
-6.56999860E+01
 20
-1.39905332E+02
  0
VERTEX
  8
0
 62
4
 10
-6.59501459E+01
 20
-1.39973118E+02
  0
VERTEX
  8
0
 62
4
 10
-6.61854639E+01
 20
-1.40049921E+02
  0
VERTEX
  8
0
 62
4
 10
-6.64041491E+01
 20
-1.40135154E+02
  0
VERTEX
  8
0
 62
4
 10
-6.66045371E+01
 20
-1.40228171E+02
  0
VERTEX
  8
0
 62
4
 10
-6.67851030E+01
 20
-1.40328261E+02
  0
VERTEX
  8
0
 62
4
 10
-6.69444724E+01
 20
-1.40434665E+02
  0
VERTEX
  8
0
 62
4
 10
-6.70814325E+01
 20
-1.40546572E+02
  0
VERTEX
  8
0
 62
4
 10
-6.71949409E+01
 20
-1.40663130E+02
  0
VERTEX
  8
0
 62
4
 10
-6.72841338E+01
 20
-1.40783453E+02
  0
VERTEX
  8
0
 62
4
 10
-6.73483324E+01
 20
-1.40906624E+02
  0
VERTEX
  8
0
 62
4
 10
-6.73870480E+01
 20
-1.41031706E+02
  0
VERTEX
  8
0
 62
4
 10
-6.73999860E+01
 20
-1.41157748E+02
  0
VERTEX
  8
0
 62
4
 10
-6.73870480E+01
 20
-1.41283790E+02
  0
VERTEX
  8
0
 62
4
 10
-6.73483324E+01
 20
-1.41408872E+02
  0
VERTEX
  8
0
 62
4
 10
-6.72841338E+01
 20
-1.41532043E+02
  0
VERTEX
  8
0
 62
4
 10
-6.71949409E+01
 20
-1.41652366E+02
  0
VERTEX
  8
0
 62
4
 10
-6.70814325E+01
 20
-1.41768924E+02
  0
VERTEX
  8
0
 62
4
 10
-6.69444724E+01
 20
-1.41880831E+02
  0
VERTEX
  8
0
 62
4
 10
-6.67851029E+01
 20
-1.41987235E+02
  0
VERTEX
  8
0
 62
4
 10
-6.66045371E+01
 20
-1.42087325E+02
  0
VERTEX
  8
0
 62
4
 10
-6.64041491E+01
 20
-1.42180342E+02
  0
VERTEX
  8
0
 62
4
 10
-6.61854639E+01
 20
-1.42265575E+02
  0
VERTEX
  8
0
 62
4
 10
-6.59501459E+01
 20
-1.42342378E+02
  0
VERTEX
  8
0
 62
4
 10
-6.56999860E+01
 20
-1.42410164E+02
  0
VERTEX
  8
0
 62
4
 10
-6.54368881E+01
 20
-1.42468419E+02
  0
VERTEX
  8
0
 62
4
 10
-6.51628545E+01
 20
-1.42516699E+02
  0
VERTEX
  8
0
 62
4
 10
-6.48799707E+01
 20
-1.42554637E+02
  0
VERTEX
  8
0
 62
4
 10
-6.45903898E+01
 20
-1.42581943E+02
  0
VERTEX
  8
0
 62
4
 10
-6.42963155E+01
 20
-1.42598411E+02
  0
VERTEX
  8
0
 62
4
 10
-6.39999860E+01
 20
-1.42603914E+02
  0
VERTEX
  8
0
 62
4
 10
-6.37036565E+01
 20
-1.42598411E+02
  0
VERTEX
  8
0
 62
4
 10
-6.34095822E+01
 20
-1.42581943E+02
  0
VERTEX
  8
0
 62
4
 10
-6.31200012E+01
 20
-1.42554637E+02
  0
VERTEX
  8
0
 62
4
 10
-6.28371175E+01
 20
-1.42516699E+02
  0
VERTEX
  8
0
 62
4
 10
-6.25630839E+01
 20
-1.42468419E+02
  0
VERTEX
  8
0
 62
4
 10
-6.22999860E+01
 20
-1.42410164E+02
  0
VERTEX
  8
0
 62
4
 10
-6.20498261E+01
 20
-1.42342378E+02
  0
VERTEX
  8
0
 62
4
 10
-6.18145081E+01
 20
-1.42265575E+02
  0
VERTEX
  8
0
 62
4
 10
-6.15958229E+01
 20
-1.42180342E+02
  0
VERTEX
  8
0
 62
4
 10
-6.13954349E+01
 20
-1.42087325E+02
  0
VERTEX
  8
0
 62
4
 10
-6.12148690E+01
 20
-1.41987235E+02
  0
VERTEX
  8
0
 62
4
 10
-6.10554996E+01
 20
-1.41880831E+02
  0
VERTEX
  8
0
 62
4
 10
-6.09185395E+01
 20
-1.41768924E+02
  0
VERTEX
  8
0
 62
4
 10
-6.08050311E+01
 20
-1.41652366E+02
  0
VERTEX
  8
0
 62
4
 10
-6.07158382E+01
 20
-1.41532043E+02
  0
VERTEX
  8
0
 62
4
 10
-6.06516396E+01
 20
-1.41408872E+02
  0
VERTEX
  8
0
 62
4
 10
-6.06129240E+01
 20
-1.41283790E+02
  0
VERTEX
  8
0
 62
4
 10
-6.05999860E+01
 20
-1.41157748E+02
  0
SEQEND
  8
0
  0
ARC
  8
0
 62
4
 10
-7.45024841E+01
 20
-1.34770744E+02
 40
1.49750400E+00
 50
1.79904421E+02
 51
2.70095579E+02
  0
ARC
  8
0
 62
4
 10
-3.84974841E+01
 20
-1.34770748E+02
 40
1.49750021E+00
 50
2.69904276E+02
 51
9.57242462E-02
  0
LINE
  8
0
 62
4
 10
-7.34999860E+01
 20
-1.33904450E+02
 11
-5.44999860E+01
 21
-1.33904450E+02
  0
POLYLINE
  8
0
 62
4
 66
1
  0
VERTEX
  8
0
 62
4
 10
-4.48599860E+01
 20
-1.24596480E+02
  0
VERTEX
  8
0
 62
4
 10
-4.48719346E+01
 20
-1.24337721E+02
  0
VERTEX
  8
0
 62
4
 10
-4.49076897E+01
 20
-1.24080931E+02
  0
VERTEX
  8
0
 62
4
 10
-4.49669789E+01
 20
-1.23828065E+02
  0
VERTEX
  8
0
 62
4
 10
-4.50493512E+01
 20
-1.23581047E+02
  0
VERTEX
  8
0
 62
4
 10
-4.51541795E+01
 20
-1.23341757E+02
  0
VERTEX
  8
0
 62
4
 10
-4.52806662E+01
 20
-1.23112016E+02
  0
VERTEX
  8
0
 62
4
 10
-4.54278486E+01
 20
-1.22893573E+02
  0
VERTEX
  8
0
 62
4
 10
-4.55946064E+01
 20
-1.22688090E+02
  0
VERTEX
  8
0
 62
4
 10
-4.57796707E+01
 20
-1.22497131E+02
  0
VERTEX
  8
0
 62
4
 10
-4.59816329E+01
 20
-1.22322149E+02
  0
VERTEX
  8
0
 62
4
 10
-4.61989560E+01
 20
-1.22164476E+02
  0
VERTEX
  8
0
 62
4
 10
-4.64299860E+01
 20
-1.22025313E+02
  0
VERTEX
  8
0
 62
4
 10
-4.66729647E+01
 20
-1.21905717E+02
  0
VERTEX
  8
0
 62
4
 10
-4.69260428E+01
 20
-1.21806600E+02
  0
VERTEX
  8
0
 62
4
 10
-4.71872942E+01
 20
-1.21728715E+02
  0
VERTEX
  8
0
 62
4
 10
-4.74547307E+01
 20
-1.21672656E+02
  0
VERTEX
  8
0
 62
4
 10
-4.77263170E+01
 20
-1.21638849E+02
  0
VERTEX
  8
0
 62
4
 10
-4.79999860E+01
 20
-1.21627552E+02
  0
VERTEX
  8
0
 62
4
 10
-4.82736550E+01
 20
-1.21638849E+02
  0
VERTEX
  8
0
 62
4
 10
-4.85452413E+01
 20
-1.21672656E+02
  0
VERTEX
  8
0
 62
4
 10
-4.88126778E+01
 20
-1.21728715E+02
  0
VERTEX
  8
0
 62
4
 10
-4.90739293E+01
 20
-1.21806600E+02
  0
VERTEX
  8
0
 62
4
 10
-4.93270073E+01
 20
-1.21905717E+02
  0
VERTEX
  8
0
 62
4
 10
-4.95699860E+01
 20
-1.22025313E+02
  0
VERTEX
  8
0
 62
4
 10
-4.98010160E+01
 20
-1.22164476E+02
  0
VERTEX
  8
0
 62
4
 10
-5.00183391E+01
 20
-1.22322149E+02
  0
VERTEX
  8
0
 62
4
 10
-5.02203013E+01
 20
-1.22497131E+02
  0
VERTEX
  8
0
 62
4
 10
-5.04053656E+01
 20
-1.22688090E+02
  0
VERTEX
  8
0
 62
4
 10
-5.05721234E+01
 20
-1.22893573E+02
  0
VERTEX
  8
0
 62
4
 10
-5.07193058E+01
 20
-1.23112016E+02
  0
VERTEX
  8
0
 62
4
 10
-5.08457925E+01
 20
-1.23341757E+02
  0
VERTEX
  8
0
 62
4
 10
-5.09506208E+01
 20
-1.23581047E+02
  0
VERTEX
  8
0
 62
4
 10
-5.10329931E+01
 20
-1.23828065E+02
  0
VERTEX
  8
0
 62
4
 10
-5.10922823E+01
 20
-1.24080931E+02
  0
VERTEX
  8
0
 62
4
 10
-5.11280374E+01
 20
-1.24337721E+02
  0
VERTEX
  8
0
 62
4
 10
-5.11399860E+01
 20
-1.24596480E+02
  0
VERTEX
  8
0
 62
4
 10
-5.11280374E+01
 20
-1.24855239E+02
  0
VERTEX
  8
0
 62
4
 10
-5.10922823E+01
 20
-1.25112029E+02
  0
VERTEX
  8
0
 62
4
 10
-5.10329931E+01
 20
-1.25364895E+02
  0
VERTEX
  8
0
 62
4
 10
-5.09506208E+01
 20
-1.25611913E+02
  0
VERTEX
  8
0
 62
4
 10
-5.08457924E+01
 20
-1.25851203E+02
  0
VERTEX
  8
0
 62
4
 10
-5.07193058E+01
 20
-1.26080944E+02
  0
VERTEX
  8
0
 62
4
 10
-5.05721234E+01
 20
-1.26299387E+02
  0
VERTEX
  8
0
 62
4
 10
-5.04053655E+01
 20
-1.26504870E+02
  0
VERTEX
  8
0
 62
4
 10
-5.02203013E+01
 20
-1.26695829E+02
  0
VERTEX
  8
0
 62
4
 10
-5.00183391E+01
 20
-1.26870811E+02
  0
VERTEX
  8
0
 62
4
 10
-4.98010160E+01
 20
-1.27028484E+02
  0
VERTEX
  8
0
 62
4
 10
-4.95699860E+01
 20
-1.27167647E+02
  0
VERTEX
  8
0
 62
4
 10
-4.93270073E+01
 20
-1.27287243E+02
  0
VERTEX
  8
0
 62
4
 10
-4.90739292E+01
 20
-1.27386360E+02
  0
VERTEX
  8
0
 62
4
 10
-4.88126778E+01
 20
-1.27464245E+02
  0
VERTEX
  8
0
 62
4
 10
-4.85452413E+01
 20
-1.27520304E+02
  0
VERTEX
  8
0
 62
4
 10
-4.82736550E+01
 20
-1.27554111E+02
  0
VERTEX
  8
0
 62
4
 10
-4.79999860E+01
 20
-1.27565408E+02
  0
VERTEX
  8
0
 62
4
 10
-4.77263170E+01
 20
-1.27554111E+02
  0
VERTEX
  8
0
 62
4
 10
-4.74547307E+01
 20
-1.27520304E+02
  0
VERTEX
  8
0
 62
4
 10
-4.71872942E+01
 20
-1.27464245E+02
  0
VERTEX
  8
0
 62
4
 10
-4.69260427E+01
 20
-1.27386360E+02
  0
VERTEX
  8
0
 62
4
 10
-4.66729647E+01
 20
-1.27287243E+02
  0
VERTEX
  8
0
 62
4
 10
-4.64299860E+01
 20
-1.27167647E+02
  0
VERTEX
  8
0
 62
4
 10
-4.61989560E+01
 20
-1.27028484E+02
  0
VERTEX
  8
0
 62
4
 10
-4.59816329E+01
 20
-1.26870811E+02
  0
VERTEX
  8
0
 62
4
 10
-4.57796707E+01
 20
-1.26695829E+02
  0
VERTEX
  8
0
 62
4
 10
-4.55946064E+01
 20
-1.26504870E+02
  0
VERTEX
  8
0
 62
4
 10
-4.54278486E+01
 20
-1.26299387E+02
  0
VERTEX
  8
0
 62
4
 10
-4.52806662E+01
 20
-1.26080944E+02
  0
VERTEX
  8
0
 62
4
 10
-4.51541795E+01
 20
-1.25851203E+02
  0
VERTEX
  8
0
 62
4
 10
-4.50493512E+01
 20
-1.25611913E+02
  0
VERTEX
  8
0
 62
4
 10
-4.49669789E+01
 20
-1.25364895E+02
  0
VERTEX
  8
0
 62
4
 10
-4.49076897E+01
 20
-1.25112029E+02
  0
VERTEX
  8
0
 62
4
 10
-4.48719346E+01
 20
-1.24855239E+02
  0
VERTEX
  8
0
 62
4
 10
-4.48599860E+01
 20
-1.24596480E+02
  0
SEQEND
  8
0
  0
POLYLINE
  8
0
 62
4
 66
1
  0
VERTEX
  8
0
 62
4
 10
-4.44999860E+01
 20
-1.24922048E+02
  0
VERTEX
  8
0
 62
4
 10
-4.45133046E+01
 20
-1.24633622E+02
  0
VERTEX
  8
0
 62
4
 10
-4.45531589E+01
 20
-1.24347391E+02
  0
VERTEX
  8
0
 62
4
 10
-4.46192456E+01
 20
-1.24065534E+02
  0
VERTEX
  8
0
 62
4
 10
-4.47110618E+01
 20
-1.23790196E+02
  0
VERTEX
  8
0
 62
4
 10
-4.48279087E+01
 20
-1.23523471E+02
  0
VERTEX
  8
0
 62
4
 10
-4.49688971E+01
 20
-1.23267390E+02
  0
VERTEX
  8
0
 62
4
 10
-4.51329538E+01
 20
-1.23023903E+02
  0
VERTEX
  8
0
 62
4
 10
-4.53188304E+01
 20
-1.22794861E+02
  0
VERTEX
  8
0
 62
4
 10
-4.55251123E+01
 20
-1.22582009E+02
  0
VERTEX
  8
0
 62
4
 10
-4.57502294E+01
 20
-1.22386966E+02
  0
VERTEX
  8
0
 62
4
 10
-4.59924685E+01
 20
-1.22211216E+02
  0
VERTEX
  8
0
 62
4
 10
-4.62499860E+01
 20
-1.22056097E+02
  0
VERTEX
  8
0
 62
4
 10
-4.65208221E+01
 20
-1.21922790E+02
  0
VERTEX
  8
0
 62
4
 10
-4.68029155E+01
 20
-1.21812309E+02
  0
VERTEX
  8
0
 62
4
 10
-4.70941193E+01
 20
-1.21725495E+02
  0
VERTEX
  8
0
 62
4
 10
-4.73922174E+01
 20
-1.21663009E+02
  0
VERTEX
  8
0
 62
4
 10
-4.76949409E+01
 20
-1.21625326E+02
  0
VERTEX
  8
0
 62
4
 10
-4.79999860E+01
 20
-1.21612733E+02
  0
VERTEX
  8
0
 62
4
 10
-4.83050311E+01
 20
-1.21625326E+02
  0
VERTEX
  8
0
 62
4
 10
-4.86077546E+01
 20
-1.21663009E+02
  0
VERTEX
  8
0
 62
4
 10
-4.89058527E+01
 20
-1.21725495E+02
  0
VERTEX
  8
0
 62
4
 10
-4.91970565E+01
 20
-1.21812309E+02
  0
VERTEX
  8
0
 62
4
 10
-4.94791499E+01
 20
-1.21922790E+02
  0
VERTEX
  8
0
 62
4
 10
-4.97499860E+01
 20
-1.22056097E+02
  0
VERTEX
  8
0
 62
4
 10
-5.00075035E+01
 20
-1.22211216E+02
  0
VERTEX
  8
0
 62
4
 10
-5.02497426E+01
 20
-1.22386966E+02
  0
VERTEX
  8
0
 62
4
 10
-5.04748597E+01
 20
-1.22582009E+02
  0
VERTEX
  8
0
 62
4
 10
-5.06811416E+01
 20
-1.22794861E+02
  0
VERTEX
  8
0
 62
4
 10
-5.08670182E+01
 20
-1.23023903E+02
  0
VERTEX
  8
0
 62
4
 10
-5.10310749E+01
 20
-1.23267390E+02
  0
VERTEX
  8
0
 62
4
 10
-5.11720633E+01
 20
-1.23523471E+02
  0
VERTEX
  8
0
 62
4
 10
-5.12889102E+01
 20
-1.23790196E+02
  0
VERTEX
  8
0
 62
4
 10
-5.13807264E+01
 20
-1.24065534E+02
  0
VERTEX
  8
0
 62
4
 10
-5.14468131E+01
 20
-1.24347391E+02
  0
VERTEX
  8
0
 62
4
 10
-5.14866674E+01
 20
-1.24633622E+02
  0
VERTEX
  8
0
 62
4
 10
-5.14999860E+01
 20
-1.24922048E+02
  0
VERTEX
  8
0
 62
4
 10
-5.14866674E+01
 20
-1.25210474E+02
  0
VERTEX
  8
0
 62
4
 10
-5.14468131E+01
 20
-1.25496705E+02
  0
VERTEX
  8
0
 62
4
 10
-5.13807264E+01
 20
-1.25778562E+02
  0
VERTEX
  8
0
 62
4
 10
-5.12889102E+01
 20
-1.26053900E+02
  0
VERTEX
  8
0
 62
4
 10
-5.11720633E+01
 20
-1.26320625E+02
  0
VERTEX
  8
0
 62
4
 10
-5.10310749E+01
 20
-1.26576706E+02
  0
VERTEX
  8
0
 62
4
 10
-5.08670182E+01
 20
-1.26820193E+02
  0
VERTEX
  8
0
 62
4
 10
-5.06811415E+01
 20
-1.27049235E+02
  0
VERTEX
  8
0
 62
4
 10
-5.04748597E+01
 20
-1.27262087E+02
  0
VERTEX
  8
0
 62
4
 10
-5.02497426E+01
 20
-1.27457130E+02
  0
VERTEX
  8
0
 62
4
 10
-5.00075035E+01
 20
-1.27632880E+02
  0
VERTEX
  8
0
 62
4
 10
-4.97499860E+01
 20
-1.27787999E+02
  0
VERTEX
  8
0
 62
4
 10
-4.94791499E+01
 20
-1.27921306E+02
  0
VERTEX
  8
0
 62
4
 10
-4.91970565E+01
 20
-1.28031787E+02
  0
VERTEX
  8
0
 62
4
 10
-4.89058527E+01
 20
-1.28118601E+02
  0
VERTEX
  8
0
 62
4
 10
-4.86077546E+01
 20
-1.28181087E+02
  0
VERTEX
  8
0
 62
4
 10
-4.83050311E+01
 20
-1.28218770E+02
  0
VERTEX
  8
0
 62
4
 10
-4.79999860E+01
 20
-1.28231363E+02
  0
VERTEX
  8
0
 62
4
 10
-4.76949409E+01
 20
-1.28218770E+02
  0
VERTEX
  8
0
 62
4
 10
-4.73922174E+01
 20
-1.28181087E+02
  0
VERTEX
  8
0
 62
4
 10
-4.70941193E+01
 20
-1.28118601E+02
  0
VERTEX
  8
0
 62
4
 10
-4.68029155E+01
 20
-1.28031787E+02
  0
VERTEX
  8
0
 62
4
 10
-4.65208221E+01
 20
-1.27921306E+02
  0
VERTEX
  8
0
 62
4
 10
-4.62499860E+01
 20
-1.27787999E+02
  0
VERTEX
  8
0
 62
4
 10
-4.59924685E+01
 20
-1.27632880E+02
  0
VERTEX
  8
0
 62
4
 10
-4.57502294E+01
 20
-1.27457130E+02
  0
VERTEX
  8
0
 62
4
 10
-4.55251123E+01
 20
-1.27262087E+02
  0
VERTEX
  8
0
 62
4
 10
-4.53188304E+01
 20
-1.27049235E+02
  0
VERTEX
  8
0
 62
4
 10
-4.51329538E+01
 20
-1.26820193E+02
  0
VERTEX
  8
0
 62
4
 10
-4.49688971E+01
 20
-1.26576705E+02
  0
VERTEX
  8
0
 62
4
 10
-4.48279087E+01
 20
-1.26320625E+02
  0
VERTEX
  8
0
 62
4
 10
-4.47110618E+01
 20
-1.26053900E+02
  0
VERTEX
  8
0
 62
4
 10
-4.46192456E+01
 20
-1.25778562E+02
  0
VERTEX
  8
0
 62
4
 10
-4.45531589E+01
 20
-1.25496705E+02
  0
VERTEX
  8
0
 62
4
 10
-4.45133046E+01
 20
-1.25210474E+02
  0
VERTEX
  8
0
 62
4
 10
-4.44999860E+01
 20
-1.24922048E+02
  0
SEQEND
  8
0
  0
ARC
  8
0
 62
4
 10
-5.97643910E+01
 20
-1.30602479E+02
 40
1.21769740E+01
 50
2.40462101E+02
 51
2.56878396E+02
  0
ARC
  8
0
 62
4
 10
-6.82355810E+01
 20
-1.30602479E+02
 40
1.21769740E+01
 50
2.83121604E+02
 51
2.99537899E+02
  0
LINE
  8
0
 62
4
 10
-7.14999860E+01
 20
-1.30711140E+02
 11
-5.64999860E+01
 21
-1.30711140E+02
  0
LINE
  8
0
  6
CENTER
 62
6
 10
-6.86760838E+01
 20
-1.15480547E+02
 11
-5.93238882E+01
 21
-1.15480547E+02
  0
LINE
  8
0
 62
4
 10
-6.05999860E+01
 20
-1.41151769E+02
 11
-3.84999860E+01
 21
-1.41151769E+02
  0
POLYLINE
  8
0
 62
4
 66
1
  0
VERTEX
  8
0
 62
4
 10
-6.05999860E+01
 20
-1.39182767E+02
  0
VERTEX
  8
0
 62
4
 10
-6.06136734E+01
 20
-1.39083542E+02
  0
VERTEX
  8
0
 62
4
 10
-6.06546254E+01
 20
-1.38985117E+02
  0
VERTEX
  8
0
 62
4
 10
-6.07225123E+01
 20
-1.38888282E+02
  0
VERTEX
  8
0
 62
4
 10
-6.08167874E+01
 20
-1.38793819E+02
  0
VERTEX
  8
0
 62
4
 10
-6.09366918E+01
 20
-1.38702487E+02
  0
VERTEX
  8
0
 62
4
 10
-6.10812601E+01
 20
-1.38615023E+02
  0
VERTEX
  8
0
 62
4
 10
-6.12493282E+01
 20
-1.38532129E+02
  0
VERTEX
  8
0
 62
4
 10
-6.14395430E+01
 20
-1.38454474E+02
  0
VERTEX
  8
0
 62
4
 10
-6.16503730E+01
 20
-1.38382682E+02
  0
VERTEX
  8
0
 62
4
 10
-6.18801207E+01
 20
-1.38317333E+02
  0
VERTEX
  8
0
 62
4
 10
-6.21269363E+01
 20
-1.38258951E+02
  0
VERTEX
  8
0
 62
4
 10
-6.23888325E+01
 20
-1.38208008E+02
  0
VERTEX
  8
0
 62
4
 10
-6.26637009E+01
 20
-1.38164913E+02
  0
VERTEX
  8
0
 62
4
 10
-6.29493282E+01
 20
-1.38130012E+02
  0
VERTEX
  8
0
 62
4
 10
-6.32434148E+01
 20
-1.38103588E+02
  0
VERTEX
  8
0
 62
4
 10
-6.35435929E+01
 20
-1.38085853E+02
  0
VERTEX
  8
0
 62
4
 10
-6.38474456E+01
 20
-1.38076950E+02
  0
VERTEX
  8
0
 62
4
 10
-6.41525264E+01
 20
-1.38076950E+02
  0
VERTEX
  8
0
 62
4
 10
-6.44563791E+01
 20
-1.38085853E+02
  0
VERTEX
  8
0
 62
4
 10
-6.47565572E+01
 20
-1.38103588E+02
  0
VERTEX
  8
0
 62
4
 10
-6.50506438E+01
 20
-1.38130012E+02
  0
VERTEX
  8
0
 62
4
 10
-6.53362711E+01
 20
-1.38164913E+02
  0
VERTEX
  8
0
 62
4
 10
-6.56111394E+01
 20
-1.38208008E+02
  0
VERTEX
  8
0
 62
4
 10
-6.58730357E+01
 20
-1.38258951E+02
  0
VERTEX
  8
0
 62
4
 10
-6.61198513E+01
 20
-1.38317333E+02
  0
VERTEX
  8
0
 62
4
 10
-6.63495990E+01
 20
-1.38382682E+02
  0
VERTEX
  8
0
 62
4
 10
-6.65604290E+01
 20
-1.38454474E+02
  0
VERTEX
  8
0
 62
4
 10
-6.67506438E+01
 20
-1.38532129E+02
  0
VERTEX
  8
0
 62
4
 10
-6.69187119E+01
 20
-1.38615023E+02
  0
VERTEX
  8
0
 62
4
 10
-6.70632801E+01
 20
-1.38702487E+02
  0
VERTEX
  8
0
 62
4
 10
-6.71831846E+01
 20
-1.38793819E+02
  0
VERTEX
  8
0
 62
4
 10
-6.72774597E+01
 20
-1.38888282E+02
  0
VERTEX
  8
0
 62
4
 10
-6.73453466E+01
 20
-1.38985117E+02
  0
VERTEX
  8
0
 62
4
 10
-6.73862986E+01
 20
-1.39083542E+02
  0
VERTEX
  8
0
 62
4
 10
-6.73999860E+01
 20
-1.39182767E+02
  0
SEQEND
  8
0
  0
LINE
  8
0
 62
4
 10
-6.79999860E+01
 20
-1.38710007E+02
 11
-6.79999860E+01
 21
-1.39182767E+02
  0
LINE
  8
0
 62
4
 10
-5.99999860E+01
 20
-1.38710007E+02
 11
-5.99999860E+01
 21
-1.39182767E+02
  0
POLYLINE
  8
0
 62
4
 66
1
  0
VERTEX
  8
0
 62
4
 10
-6.05999860E+01
 20
-1.39868782E+02
  0
VERTEX
  8
0
 62
4
 10
-6.04269340E+01
 20
-1.39768183E+02
  0
VERTEX
  8
0
 62
4
 10
-6.02818910E+01
 20
-1.39662996E+02
  0
VERTEX
  8
0
 62
4
 10
-6.01659942E+01
 20
-1.39554044E+02
  0
VERTEX
  8
0
 62
4
 10
-6.00801519E+01
 20
-1.39442182E+02
  0
VERTEX
  8
0
 62
4
 10
-6.00250371E+01
 20
-1.39328286E+02
  0
VERTEX
  8
0
 62
4
 10
-6.00010819E+01
 20
-1.39213249E+02
  0
VERTEX
  8
0
 62
4
 10
-6.00084741E+01
 20
-1.39097974E+02
  0
VERTEX
  8
0
 62
4
 10
-6.00471556E+01
 20
-1.38983363E+02
  0
VERTEX
  8
0
 62
4
 10
-6.01168233E+01
 20
-1.38870315E+02
  0
VERTEX
  8
0
 62
4
 10
-6.02169310E+01
 20
-1.38759717E+02
  0
VERTEX
  8
0
 62
4
 10
-6.03466941E+01
 20
-1.38652435E+02
  0
VERTEX
  8
0
 62
4
 10
-6.05050952E+01
 20
-1.38549310E+02
  0
VERTEX
  8
0
 62
4
 10
-6.06908927E+01
 20
-1.38451151E+02
  0
VERTEX
  8
0
 62
4
 10
-6.09026302E+01
 20
-1.38358727E+02
  0
VERTEX
  8
0
 62
4
 10
-6.11386478E+01
 20
-1.38272762E+02
  0
VERTEX
  8
0
 62
4
 10
-6.13970953E+01
 20
-1.38193931E+02
  0
VERTEX
  8
0
 62
4
 10
-6.16759469E+01
 20
-1.38122852E+02
  0
VERTEX
  8
0
 62
4
 10
-6.19730165E+01
 20
-1.38060081E+02
  0
VERTEX
  8
0
 62
4
 10
-6.22859756E+01
 20
-1.38006111E+02
  0
VERTEX
  8
0
 62
4
 10
-6.26123707E+01
 20
-1.37961365E+02
  0
VERTEX
  8
0
 62
4
 10
-6.29496434E+01
 20
-1.37926193E+02
  0
VERTEX
  8
0
 62
4
 10
-6.32951496E+01
 20
-1.37900871E+02
  0
VERTEX
  8
0
 62
4
 10
-6.36461811E+01
 20
-1.37885599E+02
  0
VERTEX
  8
0
 62
4
 10
-6.39999860E+01
 20
-1.37880494E+02
  0
VERTEX
  8
0
 62
4
 10
-6.43537909E+01
 20
-1.37885599E+02
  0
VERTEX
  8
0
 62
4
 10
-6.47048224E+01
 20
-1.37900871E+02
  0
VERTEX
  8
0
 62
4
 10
-6.50503286E+01
 20
-1.37926193E+02
  0
VERTEX
  8
0
 62
4
 10
-6.53876012E+01
 20
-1.37961365E+02
  0
VERTEX
  8
0
 62
4
 10
-6.57139964E+01
 20
-1.38006111E+02
  0
VERTEX
  8
0
 62
4
 10
-6.60269554E+01
 20
-1.38060081E+02
  0
VERTEX
  8
0
 62
4
 10
-6.63240251E+01
 20
-1.38122852E+02
  0
VERTEX
  8
0
 62
4
 10
-6.66028767E+01
 20
-1.38193931E+02
  0
VERTEX
  8
0
 62
4
 10
-6.68613242E+01
 20
-1.38272762E+02
  0
VERTEX
  8
0
 62
4
 10
-6.70973418E+01
 20
-1.38358727E+02
  0
VERTEX
  8
0
 62
4
 10
-6.73090792E+01
 20
-1.38451151E+02
  0
VERTEX
  8
0
 62
4
 10
-6.74948768E+01
 20
-1.38549310E+02
  0
VERTEX
  8
0
 62
4
 10
-6.76532779E+01
 20
-1.38652435E+02
  0
VERTEX
  8
0
 62
4
 10
-6.77830410E+01
 20
-1.38759717E+02
  0
VERTEX
  8
0
 62
4
 10
-6.78831487E+01
 20
-1.38870315E+02
  0
VERTEX
  8
0
 62
4
 10
-6.79528164E+01
 20
-1.38983363E+02
  0
VERTEX
  8
0
 62
4
 10
-6.79914979E+01
 20
-1.39097974E+02
  0
VERTEX
  8
0
 62
4
 10
-6.79988901E+01
 20
-1.39213249E+02
  0
VERTEX
  8
0
 62
4
 10
-6.79749349E+01
 20
-1.39328286E+02
  0
VERTEX
  8
0
 62
4
 10
-6.79198201E+01
 20
-1.39442182E+02
  0
VERTEX
  8
0
 62
4
 10
-6.78339778E+01
 20
-1.39554044E+02
  0
VERTEX
  8
0
 62
4
 10
-6.77180810E+01
 20
-1.39662996E+02
  0
VERTEX
  8
0
 62
4
 10
-6.75730380E+01
 20
-1.39768183E+02
  0
VERTEX
  8
0
 62
4
 10
-6.73999860E+01
 20
-1.39868782E+02
  0
SEQEND
  8
0
  0
POLYLINE
  8
0
 62
4
 66
1
  0
VERTEX
  8
0
 62
4
 10
-5.99999860E+01
 20
-1.38710007E+02
  0
VERTEX
  8
0
 62
4
 10
-6.00160888E+01
 20
-1.38593272E+02
  0
VERTEX
  8
0
 62
4
 10
-6.00642676E+01
 20
-1.38477477E+02
  0
VERTEX
  8
0
 62
4
 10
-6.01441346E+01
 20
-1.38363555E+02
  0
VERTEX
  8
0
 62
4
 10
-6.02550465E+01
 20
-1.38252421E+02
  0
VERTEX
  8
0
 62
4
 10
-6.03961105E+01
 20
-1.38144972E+02
  0
VERTEX
  8
0
 62
4
 10
-6.05661908E+01
 20
-1.38042072E+02
  0
VERTEX
  8
0
 62
4
 10
-6.07639180E+01
 20
-1.37944550E+02
  0
VERTEX
  8
0
 62
4
 10
-6.09877001E+01
 20
-1.37853191E+02
  0
VERTEX
  8
0
 62
4
 10
-6.12357354E+01
 20
-1.37768731E+02
  0
VERTEX
  8
0
 62
4
 10
-6.15060268E+01
 20
-1.37691849E+02
  0
VERTEX
  8
0
 62
4
 10
-6.17963981E+01
 20
-1.37623165E+02
  0
VERTEX
  8
0
 62
4
 10
-6.21045113E+01
 20
-1.37563232E+02
  0
VERTEX
  8
0
 62
4
 10
-6.24278859E+01
 20
-1.37512531E+02
  0
VERTEX
  8
0
 62
4
 10
-6.27639180E+01
 20
-1.37471472E+02
  0
VERTEX
  8
0
 62
4
 10
-6.31099023E+01
 20
-1.37440385E+02
  0
VERTEX
  8
0
 62
4
 10
-6.34630529E+01
 20
-1.37419520E+02
  0
VERTEX
  8
0
 62
4
 10
-6.38205267E+01
 20
-1.37409046E+02
  0
VERTEX
  8
0
 62
4
 10
-6.41794453E+01
 20
-1.37409046E+02
  0
VERTEX
  8
0
 62
4
 10
-6.45369191E+01
 20
-1.37419520E+02
  0
VERTEX
  8
0
 62
4
 10
-6.48900697E+01
 20
-1.37440385E+02
  0
VERTEX
  8
0
 62
4
 10
-6.52360540E+01
 20
-1.37471472E+02
  0
VERTEX
  8
0
 62
4
 10
-6.55720861E+01
 20
-1.37512531E+02
  0
VERTEX
  8
0
 62
4
 10
-6.58954606E+01
 20
-1.37563232E+02
  0
VERTEX
  8
0
 62
4
 10
-6.62035739E+01
 20
-1.37623165E+02
  0
VERTEX
  8
0
 62
4
 10
-6.64939452E+01
 20
-1.37691849E+02
  0
VERTEX
  8
0
 62
4
 10
-6.67642366E+01
 20
-1.37768731E+02
  0
VERTEX
  8
0
 62
4
 10
-6.70122719E+01
 20
-1.37853191E+02
  0
VERTEX
  8
0
 62
4
 10
-6.72360540E+01
 20
-1.37944550E+02
  0
VERTEX
  8
0
 62
4
 10
-6.74337812E+01
 20
-1.38042072E+02
  0
VERTEX
  8
0
 62
4
 10
-6.76038615E+01
 20
-1.38144972E+02
  0
VERTEX
  8
0
 62
4
 10
-6.77449255E+01
 20
-1.38252421E+02
  0
VERTEX
  8
0
 62
4
 10
-6.78558374E+01
 20
-1.38363554E+02
  0
VERTEX
  8
0
 62
4
 10
-6.79357044E+01
 20
-1.38477477E+02
  0
VERTEX
  8
0
 62
4
 10
-6.79838832E+01
 20
-1.38593272E+02
  0
VERTEX
  8
0
 62
4
 10
-6.79999860E+01
 20
-1.38710007E+02
  0
SEQEND
  8
0
  0
LINE
  8
0
  6
CENTER
 62
6
 10
-4.79999860E+01
 20
-1.18852229E+02
 11
-4.79999860E+01
 21
-1.30340731E+02
  0
LINE
  8
0
  6
CENTER
 62
6
 10
-5.37442369E+01
 20
-1.24596480E+02
 11
-4.22557350E+01
 21
-1.24596480E+02
  0
LINE
  8
0
 62
4
 10
-8.09999860E+01
 20
-1.10937056E+02
 11
-8.09999860E+01
 21
-1.23937056E+02
  0
ARC
  8
0
 62
4
 10
-8.04974834E+01
 20
-1.10939559E+02
 40
5.02508801E-01
 50
9.02853429E+01
 51
1.79714657E+02
  0
LINE
  8
0
 62
4
 10
-7.14999860E+01
 20
-1.10437056E+02
 11
-8.04999860E+01
 21
-1.10437056E+02
  0
LINE
  8
0
 62
4
 10
-9.09999860E+01
 20
-1.24800707E+02
 11
-8.59999860E+01
 21
-1.24800707E+02
  0
LINE
  8
0
 62
4
 10
-9.09999860E+01
 20
-1.22358946E+02
 11
-8.59999860E+01
 21
-1.22358946E+02
  0
LINE
  8
0
 62
4
 10
-9.09999860E+01
 20
-1.14988939E+02
 11
-8.59999860E+01
 21
-1.14988939E+02
  0
ARC
  8
0
 62
4
 10
-7.45024841E+01
 20
-1.39654267E+02
 40
1.49750400E+00
 50
1.79904421E+02
 51
2.70095579E+02
  0
LINE
  8
0
 62
4
 10
-7.44999860E+01
 20
-1.41151769E+02
 11
-6.73999860E+01
 21
-1.41151769E+02
  0
ARC
  8
0
 62
4
 10
-3.84974841E+01
 20
-1.39654271E+02
 40
1.49750021E+00
 50
2.69904276E+02
 51
9.57242462E-02
  0
POLYLINE
  8
0
 62
4
 66
1
  0
VERTEX
  8
0
 62
4
 10
-6.09999860E+01
 20
-1.15480547E+02
  0
VERTEX
  8
0
 62
4
 10
-6.10114019E+01
 20
-1.15233325E+02
  0
VERTEX
  8
0
 62
4
 10
-6.10455627E+01
 20
-1.14987984E+02
  0
VERTEX
  8
0
 62
4
 10
-6.11022085E+01
 20
-1.14746392E+02
  0
VERTEX
  8
0
 62
4
 10
-6.11809081E+01
 20
-1.14510388E+02
  0
VERTEX
  8
0
 62
4
 10
-6.12810626E+01
 20
-1.14281767E+02
  0
VERTEX
  8
0
 62
4
 10
-6.14019098E+01
 20
-1.14062269E+02
  0
VERTEX
  8
0
 62
4
 10
-6.15425299E+01
 20
-1.13853565E+02
  0
VERTEX
  8
0
 62
4
 10
-6.17018527E+01
 20
-1.13657244E+02
  0
VERTEX
  8
0
 62
4
 10
-6.18786657E+01
 20
-1.13474799E+02
  0
VERTEX
  8
0
 62
4
 10
-6.20716232E+01
 20
-1.13307619E+02
  0
VERTEX
  8
0
 62
4
 10
-6.22792567E+01
 20
-1.13156977E+02
  0
VERTEX
  8
0
 62
4
 10
-6.24999860E+01
 20
-1.13024018E+02
  0
VERTEX
  8
0
 62
4
 10
-6.27321312E+01
 20
-1.12909754E+02
  0
VERTEX
  8
0
 62
4
 10
-6.29739256E+01
 20
-1.12815057E+02
  0
VERTEX
  8
0
 62
4
 10
-6.32235289E+01
 20
-1.12740645E+02
  0
VERTEX
  8
0
 62
4
 10
-6.34790415E+01
 20
-1.12687085E+02
  0
VERTEX
  8
0
 62
4
 10
-6.37385188E+01
 20
-1.12654785E+02
  0
VERTEX
  8
0
 62
4
 10
-6.39999860E+01
 20
-1.12643991E+02
  0
VERTEX
  8
0
 62
4
 10
-6.42614532E+01
 20
-1.12654785E+02
  0
VERTEX
  8
0
 62
4
 10
-6.45209305E+01
 20
-1.12687085E+02
  0
VERTEX
  8
0
 62
4
 10
-6.47764431E+01
 20
-1.12740645E+02
  0
VERTEX
  8
0
 62
4
 10
-6.50260464E+01
 20
-1.12815057E+02
  0
VERTEX
  8
0
 62
4
 10
-6.52678408E+01
 20
-1.12909754E+02
  0
VERTEX
  8
0
 62
4
 10
-6.54999860E+01
 20
-1.13024018E+02
  0
VERTEX
  8
0
 62
4
 10
-6.57207153E+01
 20
-1.13156977E+02
  0
VERTEX
  8
0
 62
4
 10
-6.59283488E+01
 20
-1.13307619E+02
  0
VERTEX
  8
0
 62
4
 10
-6.61213063E+01
 20
-1.13474799E+02
  0
VERTEX
  8
0
 62
4
 10
-6.62981193E+01
 20
-1.13657244E+02
  0
VERTEX
  8
0
 62
4
 10
-6.64574421E+01
 20
-1.13853565E+02
  0
VERTEX
  8
0
 62
4
 10
-6.65980622E+01
 20
-1.14062269E+02
  0
VERTEX
  8
0
 62
4
 10
-6.67189094E+01
 20
-1.14281767E+02
  0
VERTEX
  8
0
 62
4
 10
-6.68190639E+01
 20
-1.14510388E+02
  0
VERTEX
  8
0
 62
4
 10
-6.68977635E+01
 20
-1.14746392E+02
  0
VERTEX
  8
0
 62
4
 10
-6.69544093E+01
 20
-1.14987984E+02
  0
VERTEX
  8
0
 62
4
 10
-6.69885701E+01
 20
-1.15233325E+02
  0
VERTEX
  8
0
 62
4
 10
-6.69999860E+01
 20
-1.15480547E+02
  0
VERTEX
  8
0
 62
4
 10
-6.69885701E+01
 20
-1.15727769E+02
  0
VERTEX
  8
0
 62
4
 10
-6.69544093E+01
 20
-1.15973110E+02
  0
VERTEX
  8
0
 62
4
 10
-6.68977635E+01
 20
-1.16214702E+02
  0
VERTEX
  8
0
 62
4
 10
-6.68190639E+01
 20
-1.16450706E+02
  0
VERTEX
  8
0
 62
4
 10
-6.67189094E+01
 20
-1.16679327E+02
  0
VERTEX
  8
0
 62
4
 10
-6.65980622E+01
 20
-1.16898825E+02
  0
VERTEX
  8
0
 62
4
 10
-6.64574421E+01
 20
-1.17107529E+02
  0
VERTEX
  8
0
 62
4
 10
-6.62981193E+01
 20
-1.17303850E+02
  0
VERTEX
  8
0
 62
4
 10
-6.61213063E+01
 20
-1.17486295E+02
  0
VERTEX
  8
0
 62
4
 10
-6.59283488E+01
 20
-1.17653475E+02
  0
VERTEX
  8
0
 62
4
 10
-6.57207153E+01
 20
-1.17804117E+02
  0
VERTEX
  8
0
 62
4
 10
-6.54999860E+01
 20
-1.17937076E+02
  0
VERTEX
  8
0
 62
4
 10
-6.52678408E+01
 20
-1.18051340E+02
  0
VERTEX
  8
0
 62
4
 10
-6.50260464E+01
 20
-1.18146037E+02
  0
VERTEX
  8
0
 62
4
 10
-6.47764431E+01
 20
-1.18220449E+02
  0
VERTEX
  8
0
 62
4
 10
-6.45209305E+01
 20
-1.18274009E+02
  0
VERTEX
  8
0
 62
4
 10
-6.42614532E+01
 20
-1.18306309E+02
  0
VERTEX
  8
0
 62
4
 10
-6.39999860E+01
 20
-1.18317103E+02
  0
VERTEX
  8
0
 62
4
 10
-6.37385188E+01
 20
-1.18306309E+02
  0
VERTEX
  8
0
 62
4
 10
-6.34790415E+01
 20
-1.18274009E+02
  0
VERTEX
  8
0
 62
4
 10
-6.32235289E+01
 20
-1.18220449E+02
  0
VERTEX
  8
0
 62
4
 10
-6.29739256E+01
 20
-1.18146037E+02
  0
VERTEX
  8
0
 62
4
 10
-6.27321312E+01
 20
-1.18051340E+02
  0
VERTEX
  8
0
 62
4
 10
-6.24999860E+01
 20
-1.17937076E+02
  0
VERTEX
  8
0
 62
4
 10
-6.22792567E+01
 20
-1.17804117E+02
  0
VERTEX
  8
0
 62
4
 10
-6.20716232E+01
 20
-1.17653475E+02
  0
VERTEX
  8
0
 62
4
 10
-6.18786657E+01
 20
-1.17486295E+02
  0
VERTEX
  8
0
 62
4
 10
-6.17018527E+01
 20
-1.17303850E+02
  0
VERTEX
  8
0
 62
4
 10
-6.15425299E+01
 20
-1.17107529E+02
  0
VERTEX
  8
0
 62
4
 10
-6.14019098E+01
 20
-1.16898825E+02
  0
VERTEX
  8
0
 62
4
 10
-6.12810626E+01
 20
-1.16679327E+02
  0
VERTEX
  8
0
 62
4
 10
-6.11809081E+01
 20
-1.16450706E+02
  0
VERTEX
  8
0
 62
4
 10
-6.11022085E+01
 20
-1.16214702E+02
  0
VERTEX
  8
0
 62
4
 10
-6.10455627E+01
 20
-1.15973110E+02
  0
VERTEX
  8
0
 62
4
 10
-6.10114019E+01
 20
-1.15727769E+02
  0
VERTEX
  8
0
 62
4
 10
-6.09999860E+01
 20
-1.15480547E+02
  0
SEQEND
  8
0
  0
LINE
  8
0
 62
4
 10
-5.64999860E+01
 20
-1.14637324E+02
 11
-5.44999860E+01
 21
-1.14637324E+02
  0
LINE
  8
0
 62
4
 10
-7.34999860E+01
 20
-1.32602177E+02
 11
-5.44999860E+01
 21
-1.32602177E+02
  0
LINE
  8
0
 62
4
 10
-7.14999860E+01
 20
-1.08389158E+02
 11
-5.64999860E+01
 21
-1.08389158E+02
  0
ARC
  8
0
 62
4
 10
-8.05024761E+01
 20
-1.23939546E+02
 40
4.97516125E-01
 50
1.79713229E+02
 51
2.70286771E+02
  0
ARC
  8
0
 62
4
 10
-3.85024921E+01
 20
-1.15756028E+02
 40
1.50250815E+00
 50
9.55645858E-02
 51
8.99044354E+01
  0
LINE
  8
0
 62
4
 10
-7.44999860E+01
 20
-1.36268246E+02
 11
-3.84999860E+01
 21
-1.36268246E+02
  0
LINE
  8
0
 62
4
 10
-5.64999860E+01
 20
-1.14253522E+02
 11
-3.84999860E+01
 21
-1.14253522E+02
  0
LINE
  8
0
 62
4
 10
-7.59999860E+01
 20
-1.24437056E+02
 11
-7.59999860E+01
 21
-1.39500000E+02
  0
LINE
  8
0
 62
4
 10
-5.44999860E+01
 20
-1.14637324E+02
 11
-5.44999860E+01
 21
-1.33904450E+02
  0
LINE
  8
0
 62
4
 10
-7.34999860E+01
 20
-1.33904450E+02
 11
-7.34999860E+01
 21
-1.24437056E+02
  0
LINE
  8
0
 62
4
 10
-3.69999860E+01
 20
-1.15753522E+02
 11
-3.69999860E+01
 21
-1.39651769E+02
  0
LINE
  8
0
 62
4
 10
-9.09999860E+01
 20
-1.10067205E+02
 11
-8.59999860E+01
 21
-1.10067205E+02
  0
LINE
  8
0
 62
4
 10
-7.14999860E+01
 20
-1.22571936E+02
 11
-5.64999860E+01
 21
-1.22571936E+02
  0
LINE
  8
0
 62
4
 10
-8.44999860E+01
 20
-1.23187056E+02
 11
-8.09999860E+01
 21
-1.23187056E+02
  0
LINE
  8
0
 62
4
 10
-8.44999860E+01
 20
-1.11687056E+02
 11
-8.09999860E+01
 21
-1.11687056E+02
  0
LINE
  8
0
 62
4
 10
-8.44999860E+01
 20
-1.11187056E+02
 11
-8.44999860E+01
 21
-1.23687056E+02
  0
LINE
  8
0
 62
4
 10
-8.59999860E+01
 20
-1.23687056E+02
 11
-8.09999860E+01
 21
-1.23687056E+02
  0
LINE
  8
0
 62
4
 10
-8.59999860E+01
 20
-1.11187056E+02
 11
-8.09999860E+01
 21
-1.11187056E+02
  0
LINE
  8
0
 62
4
 10
-8.59999860E+01
 20
-1.10067205E+02
 11
-8.59999860E+01
 21
-1.24800707E+02
  0
LINE
  8
0
 62
4
 10
-9.09999860E+01
 20
-1.24800707E+02
 11
-9.09999860E+01
 21
-1.10067205E+02
  0
LINE
  8
0
 62
4
 10
-8.04999860E+01
 20
-1.24437056E+02
 11
-7.14999860E+01
 21
-1.24437056E+02
  0
LINE
  8
0
  6
CENTER
 62
6
 10
-6.39999860E+01
 20
-1.00612871E+02
 11
-6.39999860E+01
 21
-1.50599969E+02
  0
LINE
  8
0
 62
4
 10
-6.73999860E+01
 20
-1.41151769E+02
 11
-6.73999860E+01
 21
-1.39182767E+02
  0
LINE
  8
0
 62
4
 10
-6.05999860E+01
 20
-1.39182767E+02
 11
-6.05999860E+01
 21
-1.41157748E+02
  0
LINE
  8
0
 62
6
 10
-6.64999860E+01
 20
-1.00752376E+02
 11
-6.64999860E+01
 21
-1.01922376E+02
  0
LINE
  8
0
 62
4
 10
-6.99999860E+01
 20
-1.01752376E+02
 11
-6.97399860E+01
 21
-1.00752376E+02
  0
LINE
  8
0
 62
4
 10
-6.59999860E+01
 20
-1.01752376E+02
 11
-6.62699860E+01
 21
-1.00752376E+02
  0
LINE
  8
0
 62
4
 10
-6.62699860E+01
 20
-1.00752376E+02
 11
-6.97399860E+01
 21
-1.00752376E+02
  0
LINE
  8
0
 62
4
 10
-6.99999860E+01
 20
-1.01752376E+02
 11
-6.99999860E+01
 21
-1.01922376E+02
  0
LINE
  8
0
 62
4
 10
-6.59999860E+01
 20
-1.01752376E+02
 11
-6.59999860E+01
 21
-1.01922376E+02
  0
LINE
  8
0
 62
6
 10
-6.94999860E+01
 20
-1.00752376E+02
 11
-6.94999860E+01
 21
-1.01922376E+02
  0
LINE
  8
0
  6
CENTER
 62
6
 10
-6.79999860E+01
 20
-9.89223758E+01
 11
-6.79999860E+01
 21
-1.09422376E+02
  0
LINE
  8
0
 62
4
 10
-5.64999860E+01
 20
-1.01922376E+02
 11
-7.14999860E+01
 21
-1.01922376E+02
  0
LINE
  8
0
 62
4
 10
-5.64999860E+01
 20
-1.01922376E+02
 11
-5.64999860E+01
 21
-1.30711140E+02
  0
LINE
  8
0
 62
4
 10
-7.14999860E+01
 20
-1.01922376E+02
 11
-7.14999860E+01
 21
-1.30711140E+02
  0
LINE
  8
0
 62
6
 10
-6.14999860E+01
 20
-1.00752376E+02
 11
-6.14999860E+01
 21
-1.01922376E+02
  0
LINE
  8
0
 62
6
 10
-5.84999860E+01
 20
-1.00752376E+02
 11
-5.84999860E+01
 21
-1.01922376E+02
  0
LINE
  8
0
 62
4
 10
-6.19999860E+01
 20
-1.01752376E+02
 11
-6.17399860E+01
 21
-1.00752376E+02
  0
LINE
  8
0
 62
4
 10
-5.79999860E+01
 20
-1.01752376E+02
 11
-5.82699860E+01
 21
-1.00752376E+02
  0
LINE
  8
0
 62
4
 10
-5.82699860E+01
 20
-1.00752376E+02
 11
-6.17399860E+01
 21
-1.00752376E+02
  0
LINE
  8
0
 62
4
 10
-6.19999860E+01
 20
-1.01752376E+02
 11
-6.19999860E+01
 21
-1.01922376E+02
  0
LINE
  8
0
 62
4
 10
-5.79999860E+01
 20
-1.01752376E+02
 11
-5.79999860E+01
 21
-1.01922376E+02
  0
LINE
  8
0
  6
CENTER
 62
6
 10
-5.99999860E+01
 20
-9.89223758E+01
 11
-5.99999860E+01
 21
-1.09422376E+02
  0
LINE
  8
0
 62
4
 10
2.84859977E+02
 20
-2.66261071E+02
 11
2.84531381E+02
 21
-2.67054287E+02
  0
LINE
  8
0
 62
4
 10
2.91139977E+02
 20
-2.66261071E+02
 11
2.91499977E+02
 21
-2.67206589E+02
  0
POLYLINE
  8
0
 62
4
 66
1
  0
VERTEX
  8
0
 62
4
 10
2.84531381E+02
 20
-2.67054286E+02
  0
VERTEX
  8
0
 62
4
 10
2.84503604E+02
 20
-2.67154727E+02
  0
VERTEX
  8
0
 62
4
 10
2.84503213E+02
 20
-2.67255574E+02
  0
VERTEX
  8
0
 62
4
 10
2.84530210E+02
 20
-2.67356038E+02
  0
VERTEX
  8
0
 62
4
 10
2.84584385E+02
 20
-2.67455331E+02
  0
VERTEX
  8
0
 62
4
 10
2.84665313E+02
 20
-2.67552675E+02
  0
VERTEX
  8
0
 62
4
 10
2.84772361E+02
 20
-2.67647309E+02
  0
VERTEX
  8
0
 62
4
 10
2.84904689E+02
 20
-2.67738491E+02
  0
VERTEX
  8
0
 62
4
 10
2.85061261E+02
 20
-2.67825507E+02
  0
VERTEX
  8
0
 62
4
 10
2.85240852E+02
 20
-2.67907675E+02
  0
VERTEX
  8
0
 62
4
 10
2.85442053E+02
 20
-2.67984351E+02
  0
VERTEX
  8
0
 62
4
 10
2.85663290E+02
 20
-2.68054936E+02
  0
VERTEX
  8
0
 62
4
 10
2.85902830E+02
 20
-2.68118876E+02
  0
VERTEX
  8
0
 62
4
 10
2.86158795E+02
 20
-2.68175670E+02
  0
VERTEX
  8
0
 62
4
 10
2.86429182E+02
 20
-2.68224874E+02
  0
VERTEX
  8
0
 62
4
 10
2.86711873E+02
 20
-2.68266101E+02
  0
VERTEX
  8
0
 62
4
 10
2.87004653E+02
 20
-2.68299030E+02
  0
VERTEX
  8
0
 62
4
 10
2.87305228E+02
 20
-2.68323403E+02
  0
VERTEX
  8
0
 62
4
 10
2.87611246E+02
 20
-2.68339028E+02
  0
VERTEX
  8
0
 62
4
 10
2.87920308E+02
 20
-2.68345782E+02
  0
VERTEX
  8
0
 62
4
 10
2.88229994E+02
 20
-2.68343614E+02
  0
VERTEX
  8
0
 62
4
 10
2.88537879E+02
 20
-2.68332540E+02
  0
VERTEX
  8
0
 62
4
 10
2.88841550E+02
 20
-2.68312647E+02
  0
VERTEX
  8
0
 62
4
 10
2.89138630E+02
 20
-2.68284090E+02
  0
VERTEX
  8
0
 62
4
 10
2.89426791E+02
 20
-2.68247094E+02
  0
VERTEX
  8
0
 62
4
 10
2.89703776E+02
 20
-2.68201948E+02
  0
VERTEX
  8
0
 62
4
 10
2.89967416E+02
 20
-2.68149005E+02
  0
VERTEX
  8
0
 62
4
 10
2.90215646E+02
 20
-2.68088681E+02
  0
VERTEX
  8
0
 62
4
 10
2.90446521E+02
 20
-2.68021448E+02
  0
VERTEX
  8
0
 62
4
 10
2.90658234E+02
 20
-2.67947832E+02
  0
VERTEX
  8
0
 62
4
 10
2.90849125E+02
 20
-2.67868410E+02
  0
VERTEX
  8
0
 62
4
 10
2.91017699E+02
 20
-2.67783805E+02
  0
VERTEX
  8
0
 62
4
 10
2.91162637E+02
 20
-2.67694678E+02
  0
VERTEX
  8
0
 62
4
 10
2.91282803E+02
 20
-2.67601729E+02
  0
VERTEX
  8
0
 62
4
 10
2.91377256E+02
 20
-2.67505684E+02
  0
VERTEX
  8
0
 62
4
 10
2.91445256E+02
 20
-2.67407297E+02
  0
VERTEX
  8
0
 62
4
 10
2.91486270E+02
 20
-2.67307338E+02
  0
VERTEX
  8
0
 62
4
 10
2.91499977E+02
 20
-2.67206589E+02
  0
SEQEND
  8
0
  0
POLYLINE
  8
0
 62
4
 66
1
  0
VERTEX
  8
0
 62
4
 10
2.91139977E+02
 20
-2.66261071E+02
  0
VERTEX
  8
0
 62
4
 10
2.91128028E+02
 20
-2.66171973E+02
  0
VERTEX
  8
0
 62
4
 10
2.91092273E+02
 20
-2.66083553E+02
  0
VERTEX
  8
0
 62
4
 10
2.91032984E+02
 20
-2.65996484E+02
  0
VERTEX
  8
0
 62
4
 10
2.90950612E+02
 20
-2.65911429E+02
  0
VERTEX
  8
0
 62
4
 10
2.90845783E+02
 20
-2.65829035E+02
  0
VERTEX
  8
0
 62
4
 10
2.90719297E+02
 20
-2.65749929E+02
  0
VERTEX
  8
0
 62
4
 10
2.90572114E+02
 20
-2.65674713E+02
  0
VERTEX
  8
0
 62
4
 10
2.90405357E+02
 20
-2.65603960E+02
  0
VERTEX
  8
0
 62
4
 10
2.90220292E+02
 20
-2.65538207E+02
  0
VERTEX
  8
0
 62
4
 10
2.90018330E+02
 20
-2.65477956E+02
  0
VERTEX
  8
0
 62
4
 10
2.89801007E+02
 20
-2.65423665E+02
  0
VERTEX
  8
0
 62
4
 10
2.89569977E+02
 20
-2.65375747E+02
  0
VERTEX
  8
0
 62
4
 10
2.89326998E+02
 20
-2.65334567E+02
  0
VERTEX
  8
0
 62
4
 10
2.89073920E+02
 20
-2.65300438E+02
  0
VERTEX
  8
0
 62
4
 10
2.88812669E+02
 20
-2.65273620E+02
  0
VERTEX
  8
0
 62
4
 10
2.88545232E+02
 20
-2.65254318E+02
  0
VERTEX
  8
0
 62
4
 10
2.88273646E+02
 20
-2.65242677E+02
  0
VERTEX
  8
0
 62
4
 10
2.87999977E+02
 20
-2.65238787E+02
  0
VERTEX
  8
0
 62
4
 10
2.87726308E+02
 20
-2.65242677E+02
  0
VERTEX
  8
0
 62
4
 10
2.87454722E+02
 20
-2.65254318E+02
  0
VERTEX
  8
0
 62
4
 10
2.87187285E+02
 20
-2.65273620E+02
  0
VERTEX
  8
0
 62
4
 10
2.86926034E+02
 20
-2.65300438E+02
  0
VERTEX
  8
0
 62
4
 10
2.86672956E+02
 20
-2.65334567E+02
  0
VERTEX
  8
0
 62
4
 10
2.86429977E+02
 20
-2.65375747E+02
  0
VERTEX
  8
0
 62
4
 10
2.86198947E+02
 20
-2.65423665E+02
  0
VERTEX
  8
0
 62
4
 10
2.85981624E+02
 20
-2.65477956E+02
  0
VERTEX
  8
0
 62
4
 10
2.85779662E+02
 20
-2.65538207E+02
  0
VERTEX
  8
0
 62
4
 10
2.85594597E+02
 20
-2.65603960E+02
  0
VERTEX
  8
0
 62
4
 10
2.85427840E+02
 20
-2.65674713E+02
  0
VERTEX
  8
0
 62
4
 10
2.85280657E+02
 20
-2.65749929E+02
  0
VERTEX
  8
0
 62
4
 10
2.85154171E+02
 20
-2.65829035E+02
  0
VERTEX
  8
0
 62
4
 10
2.85049342E+02
 20
-2.65911429E+02
  0
VERTEX
  8
0
 62
4
 10
2.84966970E+02
 20
-2.65996484E+02
  0
VERTEX
  8
0
 62
4
 10
2.84907681E+02
 20
-2.66083553E+02
  0
VERTEX
  8
0
 62
4
 10
2.84871926E+02
 20
-2.66171973E+02
  0
VERTEX
  8
0
 62
4
 10
2.84859977E+02
 20
-2.66261071E+02
  0
VERTEX
  8
0
 62
4
 10
2.84871926E+02
 20
-2.66350169E+02
  0
VERTEX
  8
0
 62
4
 10
2.84907681E+02
 20
-2.66438589E+02
  0
VERTEX
  8
0
 62
4
 10
2.84966970E+02
 20
-2.66525658E+02
  0
VERTEX
  8
0
 62
4
 10
2.85049342E+02
 20
-2.66610713E+02
  0
VERTEX
  8
0
 62
4
 10
2.85154171E+02
 20
-2.66693107E+02
  0
VERTEX
  8
0
 62
4
 10
2.85280657E+02
 20
-2.66772213E+02
  0
VERTEX
  8
0
 62
4
 10
2.85427840E+02
 20
-2.66847429E+02
  0
VERTEX
  8
0
 62
4
 10
2.85594597E+02
 20
-2.66918182E+02
  0
VERTEX
  8
0
 62
4
 10
2.85779662E+02
 20
-2.66983935E+02
  0
VERTEX
  8
0
 62
4
 10
2.85981624E+02
 20
-2.67044186E+02
  0
VERTEX
  8
0
 62
4
 10
2.86198947E+02
 20
-2.67098477E+02
  0
VERTEX
  8
0
 62
4
 10
2.86429977E+02
 20
-2.67146395E+02
  0
VERTEX
  8
0
 62
4
 10
2.86672956E+02
 20
-2.67187575E+02
  0
VERTEX
  8
0
 62
4
 10
2.86926034E+02
 20
-2.67221704E+02
  0
VERTEX
  8
0
 62
4
 10
2.87187285E+02
 20
-2.67248522E+02
  0
VERTEX
  8
0
 62
4
 10
2.87454722E+02
 20
-2.67267824E+02
  0
VERTEX
  8
0
 62
4
 10
2.87726308E+02
 20
-2.67279465E+02
  0
VERTEX
  8
0
 62
4
 10
2.87999977E+02
 20
-2.67283355E+02
  0
VERTEX
  8
0
 62
4
 10
2.88273646E+02
 20
-2.67279465E+02
  0
VERTEX
  8
0
 62
4
 10
2.88545232E+02
 20
-2.67267824E+02
  0
VERTEX
  8
0
 62
4
 10
2.88812669E+02
 20
-2.67248522E+02
  0
VERTEX
  8
0
 62
4
 10
2.89073920E+02
 20
-2.67221704E+02
  0
VERTEX
  8
0
 62
4
 10
2.89326998E+02
 20
-2.67187575E+02
  0
VERTEX
  8
0
 62
4
 10
2.89569977E+02
 20
-2.67146395E+02
  0
VERTEX
  8
0
 62
4
 10
2.89801007E+02
 20
-2.67098477E+02
  0
VERTEX
  8
0
 62
4
 10
2.90018330E+02
 20
-2.67044186E+02
  0
VERTEX
  8
0
 62
4
 10
2.90220292E+02
 20
-2.66983935E+02
  0
VERTEX
  8
0
 62
4
 10
2.90405357E+02
 20
-2.66918182E+02
  0
VERTEX
  8
0
 62
4
 10
2.90572114E+02
 20
-2.66847429E+02
  0
VERTEX
  8
0
 62
4
 10
2.90719297E+02
 20
-2.66772213E+02
  0
VERTEX
  8
0
 62
4
 10
2.90845783E+02
 20
-2.66693107E+02
  0
VERTEX
  8
0
 62
4
 10
2.90950612E+02
 20
-2.66610713E+02
  0
VERTEX
  8
0
 62
4
 10
2.91032984E+02
 20
-2.66525658E+02
  0
VERTEX
  8
0
 62
4
 10
2.91092273E+02
 20
-2.66438589E+02
  0
VERTEX
  8
0
 62
4
 10
2.91128028E+02
 20
-2.66350169E+02
  0
VERTEX
  8
0
 62
4
 10
2.91139977E+02
 20
-2.66261071E+02
  0
SEQEND
  8
0
  0
LINE
  8
0
  6
CENTER
 62
6
 10
2.87999977E+02
 20
-2.63601546E+02
 11
2.87999977E+02
 21
-2.66261071E+02
  0
LINE
  8
0
 62
4
 10
3.14499977E+02
 20
-2.68702750E+02
 11
3.14499977E+02
 21
-2.65075965E+02
  0
LINE
  8
0
 62
4
 10
2.96499977E+02
 20
-2.63976132E+02
 11
2.78499977E+02
 21
-2.63976132E+02
  0
LINE
  8
0
 62
4
 10
2.78499977E+02
 20
-2.68702750E+02
 11
2.78499977E+02
 21
-2.65075965E+02
  0
ARC
  8
0
 62
4
 10
3.14502464E+02
 20
-2.65473645E+02
 40
1.49751542E+00
 50
3.59904859E+02
 51
9.00951404E+01
  0
LINE
  8
0
 62
4
 10
3.14499977E+02
 20
-2.63976132E+02
 11
3.11499977E+02
 21
-2.63976132E+02
  0
ARC
  8
0
 62
4
 10
2.78497490E+02
 20
-2.65473645E+02
 40
1.49751542E+00
 50
8.99048594E+01
 51
1.80095141E+02
  0
POLYLINE
  8
0
 62
6
 66
1
  0
VERTEX
  8
0
 62
6
 10
3.09499977E+02
 20
-2.98024577E+02
  0
VERTEX
  8
0
 62
6
 10
3.09494269E+02
 20
-2.97900966E+02
  0
VERTEX
  8
0
 62
6
 10
3.09477189E+02
 20
-2.97778296E+02
  0
VERTEX
  8
0
 62
6
 10
3.09448866E+02
 20
-2.97657500E+02
  0
VERTEX
  8
0
 62
6
 10
3.09409516E+02
 20
-2.97539497E+02
  0
VERTEX
  8
0
 62
6
 10
3.09359439E+02
 20
-2.97425187E+02
  0
VERTEX
  8
0
 62
6
 10
3.09299015E+02
 20
-2.97315438E+02
  0
VERTEX
  8
0
 62
6
 10
3.09228705E+02
 20
-2.97211086E+02
  0
VERTEX
  8
0
 62
6
 10
3.09149044E+02
 20
-2.97112926E+02
  0
VERTEX
  8
0
 62
6
 10
3.09060637E+02
 20
-2.97021703E+02
  0
VERTEX
  8
0
 62
6
 10
3.08964158E+02
 20
-2.96938113E+02
  0
VERTEX
  8
0
 62
6
 10
3.08860342E+02
 20
-2.96862792E+02
  0
VERTEX
  8
0
 62
6
 10
3.08749977E+02
 20
-2.96796312E+02
  0
VERTEX
  8
0
 62
6
 10
3.08633904E+02
 20
-2.96739181E+02
  0
VERTEX
  8
0
 62
6
 10
3.08513007E+02
 20
-2.96691832E+02
  0
VERTEX
  8
0
 62
6
 10
3.08388206E+02
 20
-2.96654626E+02
  0
VERTEX
  8
0
 62
6
 10
3.08260449E+02
 20
-2.96627846E+02
  0
VERTEX
  8
0
 62
6
 10
3.08130711E+02
 20
-2.96611696E+02
  0
VERTEX
  8
0
 62
6
 10
3.07999977E+02
 20
-2.96606299E+02
  0
VERTEX
  8
0
 62
6
 10
3.07869243E+02
 20
-2.96611696E+02
  0
VERTEX
  8
0
 62
6
 10
3.07739505E+02
 20
-2.96627846E+02
  0
VERTEX
  8
0
 62
6
 10
3.07611748E+02
 20
-2.96654626E+02
  0
VERTEX
  8
0
 62
6
 10
3.07486947E+02
 20
-2.96691832E+02
  0
VERTEX
  8
0
 62
6
 10
3.07366050E+02
 20
-2.96739181E+02
  0
VERTEX
  8
0
 62
6
 10
3.07249977E+02
 20
-2.96796312E+02
  0
VERTEX
  8
0
 62
6
 10
3.07139612E+02
 20
-2.96862792E+02
  0
VERTEX
  8
0
 62
6
 10
3.07035796E+02
 20
-2.96938113E+02
  0
VERTEX
  8
0
 62
6
 10
3.06939317E+02
 20
-2.97021703E+02
  0
VERTEX
  8
0
 62
6
 10
3.06850910E+02
 20
-2.97112926E+02
  0
VERTEX
  8
0
 62
6
 10
3.06771249E+02
 20
-2.97211086E+02
  0
VERTEX
  8
0
 62
6
 10
3.06700939E+02
 20
-2.97315438E+02
  0
VERTEX
  8
0
 62
6
 10
3.06640515E+02
 20
-2.97425187E+02
  0
VERTEX
  8
0
 62
6
 10
3.06590438E+02
 20
-2.97539497E+02
  0
VERTEX
  8
0
 62
6
 10
3.06551088E+02
 20
-2.97657500E+02
  0
VERTEX
  8
0
 62
6
 10
3.06522765E+02
 20
-2.97778296E+02
  0
VERTEX
  8
0
 62
6
 10
3.06505685E+02
 20
-2.97900966E+02
  0
VERTEX
  8
0
 62
6
 10
3.06499977E+02
 20
-2.98024577E+02
  0
VERTEX
  8
0
 62
6
 10
3.06505685E+02
 20
-2.98148188E+02
  0
VERTEX
  8
0
 62
6
 10
3.06522765E+02
 20
-2.98270858E+02
  0
VERTEX
  8
0
 62
6
 10
3.06551088E+02
 20
-2.98391654E+02
  0
VERTEX
  8
0
 62
6
 10
3.06590438E+02
 20
-2.98509657E+02
  0
VERTEX
  8
0
 62
6
 10
3.06640515E+02
 20
-2.98623967E+02
  0
VERTEX
  8
0
 62
6
 10
3.06700939E+02
 20
-2.98733716E+02
  0
VERTEX
  8
0
 62
6
 10
3.06771249E+02
 20
-2.98838068E+02
  0
VERTEX
  8
0
 62
6
 10
3.06850910E+02
 20
-2.98936228E+02
  0
VERTEX
  8
0
 62
6
 10
3.06939317E+02
 20
-2.99027451E+02
  0
VERTEX
  8
0
 62
6
 10
3.07035796E+02
 20
-2.99111041E+02
  0
VERTEX
  8
0
 62
6
 10
3.07139612E+02
 20
-2.99186362E+02
  0
VERTEX
  8
0
 62
6
 10
3.07249977E+02
 20
-2.99252842E+02
  0
VERTEX
  8
0
 62
6
 10
3.07366050E+02
 20
-2.99309973E+02
  0
VERTEX
  8
0
 62
6
 10
3.07486947E+02
 20
-2.99357322E+02
  0
VERTEX
  8
0
 62
6
 10
3.07611748E+02
 20
-2.99394528E+02
  0
VERTEX
  8
0
 62
6
 10
3.07739505E+02
 20
-2.99421308E+02
  0
VERTEX
  8
0
 62
6
 10
3.07869243E+02
 20
-2.99437458E+02
  0
VERTEX
  8
0
 62
6
 10
3.07999977E+02
 20
-2.99442855E+02
  0
VERTEX
  8
0
 62
6
 10
3.08130711E+02
 20
-2.99437458E+02
  0
VERTEX
  8
0
 62
6
 10
3.08260449E+02
 20
-2.99421308E+02
  0
VERTEX
  8
0
 62
6
 10
3.08388206E+02
 20
-2.99394528E+02
  0
VERTEX
  8
0
 62
6
 10
3.08513007E+02
 20
-2.99357322E+02
  0
VERTEX
  8
0
 62
6
 10
3.08633904E+02
 20
-2.99309973E+02
  0
VERTEX
  8
0
 62
6
 10
3.08749977E+02
 20
-2.99252842E+02
  0
VERTEX
  8
0
 62
6
 10
3.08860342E+02
 20
-2.99186362E+02
  0
VERTEX
  8
0
 62
6
 10
3.08964158E+02
 20
-2.99111041E+02
  0
VERTEX
  8
0
 62
6
 10
3.09060637E+02
 20
-2.99027451E+02
  0
VERTEX
  8
0
 62
6
 10
3.09149044E+02
 20
-2.98936228E+02
  0
VERTEX
  8
0
 62
6
 10
3.09228705E+02
 20
-2.98838068E+02
  0
VERTEX
  8
0
 62
6
 10
3.09299015E+02
 20
-2.98733716E+02
  0
VERTEX
  8
0
 62
6
 10
3.09359439E+02
 20
-2.98623967E+02
  0
VERTEX
  8
0
 62
6
 10
3.09409516E+02
 20
-2.98509657E+02
  0
VERTEX
  8
0
 62
6
 10
3.09448866E+02
 20
-2.98391654E+02
  0
VERTEX
  8
0
 62
6
 10
3.09477189E+02
 20
-2.98270858E+02
  0
VERTEX
  8
0
 62
6
 10
3.09494269E+02
 20
-2.98148188E+02
  0
VERTEX
  8
0
 62
6
 10
3.09499977E+02
 20
-2.98024577E+02
  0
SEQEND
  8
0
  0
POLYLINE
  8
0
 62
4
 66
1
  0
VERTEX
  8
0
 62
4
 10
3.09734977E+02
 20
-2.98024577E+02
  0
VERTEX
  8
0
 62
4
 10
3.09728375E+02
 20
-2.97882012E+02
  0
VERTEX
  8
0
 62
4
 10
3.09708618E+02
 20
-2.97740532E+02
  0
VERTEX
  8
0
 62
4
 10
3.09675858E+02
 20
-2.97601214E+02
  0
VERTEX
  8
0
 62
4
 10
3.09630344E+02
 20
-2.97465119E+02
  0
VERTEX
  8
0
 62
4
 10
3.09572421E+02
 20
-2.97333280E+02
  0
VERTEX
  8
0
 62
4
 10
3.09502531E+02
 20
-2.97206703E+02
  0
VERTEX
  8
0
 62
4
 10
3.09421206E+02
 20
-2.97086351E+02
  0
VERTEX
  8
0
 62
4
 10
3.09329064E+02
 20
-2.96973139E+02
  0
VERTEX
  8
0
 62
4
 10
3.09226807E+02
 20
-2.96867929E+02
  0
VERTEX
  8
0
 62
4
 10
3.09115214E+02
 20
-2.96771522E+02
  0
VERTEX
  8
0
 62
4
 10
3.08995132E+02
 20
-2.96684651E+02
  0
VERTEX
  8
0
 62
4
 10
3.08867477E+02
 20
-2.96607978E+02
  0
VERTEX
  8
0
 62
4
 10
3.08733220E+02
 20
-2.96542087E+02
  0
VERTEX
  8
0
 62
4
 10
3.08593382E+02
 20
-2.96487477E+02
  0
VERTEX
  8
0
 62
4
 10
3.08449028E+02
 20
-2.96444567E+02
  0
VERTEX
  8
0
 62
4
 10
3.08301257E+02
 20
-2.96413681E+02
  0
VERTEX
  8
0
 62
4
 10
3.08151192E+02
 20
-2.96395054E+02
  0
VERTEX
  8
0
 62
4
 10
3.07999977E+02
 20
-2.96388830E+02
  0
VERTEX
  8
0
 62
4
 10
3.07848762E+02
 20
-2.96395054E+02
  0
VERTEX
  8
0
 62
4
 10
3.07698697E+02
 20
-2.96413681E+02
  0
VERTEX
  8
0
 62
4
 10
3.07550926E+02
 20
-2.96444567E+02
  0
VERTEX
  8
0
 62
4
 10
3.07406572E+02
 20
-2.96487477E+02
  0
VERTEX
  8
0
 62
4
 10
3.07266734E+02
 20
-2.96542087E+02
  0
VERTEX
  8
0
 62
4
 10
3.07132477E+02
 20
-2.96607978E+02
  0
VERTEX
  8
0
 62
4
 10
3.07004822E+02
 20
-2.96684651E+02
  0
VERTEX
  8
0
 62
4
 10
3.06884740E+02
 20
-2.96771522E+02
  0
VERTEX
  8
0
 62
4
 10
3.06773147E+02
 20
-2.96867929E+02
  0
VERTEX
  8
0
 62
4
 10
3.06670890E+02
 20
-2.96973139E+02
  0
VERTEX
  8
0
 62
4
 10
3.06578748E+02
 20
-2.97086351E+02
  0
VERTEX
  8
0
 62
4
 10
3.06497423E+02
 20
-2.97206703E+02
  0
VERTEX
  8
0
 62
4
 10
3.06427533E+02
 20
-2.97333280E+02
  0
VERTEX
  8
0
 62
4
 10
3.06369610E+02
 20
-2.97465119E+02
  0
VERTEX
  8
0
 62
4
 10
3.06324096E+02
 20
-2.97601214E+02
  0
VERTEX
  8
0
 62
4
 10
3.06291336E+02
 20
-2.97740532E+02
  0
VERTEX
  8
0
 62
4
 10
3.06271579E+02
 20
-2.97882012E+02
  0
VERTEX
  8
0
 62
4
 10
3.06264977E+02
 20
-2.98024577E+02
  0
VERTEX
  8
0
 62
4
 10
3.06271579E+02
 20
-2.98167142E+02
  0
VERTEX
  8
0
 62
4
 10
3.06291336E+02
 20
-2.98308622E+02
  0
VERTEX
  8
0
 62
4
 10
3.06324096E+02
 20
-2.98447940E+02
  0
VERTEX
  8
0
 62
4
 10
3.06369610E+02
 20
-2.98584035E+02
  0
VERTEX
  8
0
 62
4
 10
3.06427533E+02
 20
-2.98715874E+02
  0
VERTEX
  8
0
 62
4
 10
3.06497423E+02
 20
-2.98842451E+02
  0
VERTEX
  8
0
 62
4
 10
3.06578748E+02
 20
-2.98962803E+02
  0
VERTEX
  8
0
 62
4
 10
3.06670890E+02
 20
-2.99076015E+02
  0
VERTEX
  8
0
 62
4
 10
3.06773147E+02
 20
-2.99181225E+02
  0
VERTEX
  8
0
 62
4
 10
3.06884740E+02
 20
-2.99277632E+02
  0
VERTEX
  8
0
 62
4
 10
3.07004822E+02
 20
-2.99364503E+02
  0
VERTEX
  8
0
 62
4
 10
3.07132477E+02
 20
-2.99441176E+02
  0
VERTEX
  8
0
 62
4
 10
3.07266734E+02
 20
-2.99507067E+02
  0
VERTEX
  8
0
 62
4
 10
3.07406572E+02
 20
-2.99561677E+02
  0
VERTEX
  8
0
 62
4
 10
3.07550926E+02
 20
-2.99604587E+02
  0
VERTEX
  8
0
 62
4
 10
3.07698697E+02
 20
-2.99635473E+02
  0
VERTEX
  8
0
 62
4
 10
3.07848762E+02
 20
-2.99654100E+02
  0
VERTEX
  8
0
 62
4
 10
3.07999977E+02
 20
-2.99660324E+02
  0
VERTEX
  8
0
 62
4
 10
3.08151192E+02
 20
-2.99654100E+02
  0
VERTEX
  8
0
 62
4
 10
3.08301257E+02
 20
-2.99635473E+02
  0
VERTEX
  8
0
 62
4
 10
3.08449028E+02
 20
-2.99604587E+02
  0
VERTEX
  8
0
 62
4
 10
3.08593382E+02
 20
-2.99561677E+02
  0
VERTEX
  8
0
 62
4
 10
3.08733220E+02
 20
-2.99507067E+02
  0
VERTEX
  8
0
 62
4
 10
3.08867477E+02
 20
-2.99441176E+02
  0
VERTEX
  8
0
 62
4
 10
3.08995132E+02
 20
-2.99364503E+02
  0
VERTEX
  8
0
 62
4
 10
3.09115214E+02
 20
-2.99277632E+02
  0
VERTEX
  8
0
 62
4
 10
3.09226807E+02
 20
-2.99181225E+02
  0
VERTEX
  8
0
 62
4
 10
3.09329064E+02
 20
-2.99076015E+02
  0
VERTEX
  8
0
 62
4
 10
3.09421206E+02
 20
-2.98962803E+02
  0
VERTEX
  8
0
 62
4
 10
3.09502531E+02
 20
-2.98842451E+02
  0
VERTEX
  8
0
 62
4
 10
3.09572421E+02
 20
-2.98715874E+02
  0
VERTEX
  8
0
 62
4
 10
3.09630344E+02
 20
-2.98584035E+02
  0
VERTEX
  8
0
 62
4
 10
3.09675858E+02
 20
-2.98447940E+02
  0
VERTEX
  8
0
 62
4
 10
3.09708618E+02
 20
-2.98308622E+02
  0
VERTEX
  8
0
 62
4
 10
3.09728375E+02
 20
-2.98167142E+02
  0
VERTEX
  8
0
 62
4
 10
3.09734977E+02
 20
-2.98024577E+02
  0
SEQEND
  8
0
  0
POLYLINE
  8
0
 62
4
 66
1
  0
VERTEX
  8
0
 62
4
 10
3.09493054E+02
 20
-2.98857735E+02
  0
VERTEX
  8
0
 62
4
 10
3.09604719E+02
 20
-2.98728167E+02
  0
VERTEX
  8
0
 62
4
 10
3.09703849E+02
 20
-2.98589783E+02
  0
VERTEX
  8
0
 62
4
 10
3.09789667E+02
 20
-2.98443663E+02
  0
VERTEX
  8
0
 62
4
 10
3.09861506E+02
 20
-2.98290949E+02
  0
VERTEX
  8
0
 62
4
 10
3.09918802E+02
 20
-2.98132833E+02
  0
VERTEX
  8
0
 62
4
 10
3.09961108E+02
 20
-2.97970552E+02
  0
VERTEX
  8
0
 62
4
 10
3.09988095E+02
 20
-2.97805373E+02
  0
VERTEX
  8
0
 62
4
 10
3.09999551E+02
 20
-2.97638586E+02
  0
VERTEX
  8
0
 62
4
 10
3.09995386E+02
 20
-2.97471493E+02
  0
VERTEX
  8
0
 62
4
 10
3.09975634E+02
 20
-2.97305402E+02
  0
VERTEX
  8
0
 62
4
 10
3.09940448E+02
 20
-2.97141608E+02
  0
VERTEX
  8
0
 62
4
 10
3.09890103E+02
 20
-2.96981391E+02
  0
VERTEX
  8
0
 62
4
 10
3.09824993E+02
 20
-2.96826003E+02
  0
VERTEX
  8
0
 62
4
 10
3.09745627E+02
 20
-2.96676658E+02
  0
VERTEX
  8
0
 62
4
 10
3.09652623E+02
 20
-2.96534523E+02
  0
VERTEX
  8
0
 62
4
 10
3.09546710E+02
 20
-2.96400707E+02
  0
VERTEX
  8
0
 62
4
 10
3.09428713E+02
 20
-2.96276257E+02
  0
VERTEX
  8
0
 62
4
 10
3.09299556E+02
 20
-2.96162144E+02
  0
VERTEX
  8
0
 62
4
 10
3.09160246E+02
 20
-2.96059259E+02
  0
VERTEX
  8
0
 62
4
 10
3.09011873E+02
 20
-2.95968407E+02
  0
VERTEX
  8
0
 62
4
 10
3.08855594E+02
 20
-2.95890298E+02
  0
VERTEX
  8
0
 62
4
 10
3.08692632E+02
 20
-2.95825540E+02
  0
VERTEX
  8
0
 62
4
 10
3.08524259E+02
 20
-2.95774641E+02
  0
VERTEX
  8
0
 62
4
 10
3.08351790E+02
 20
-2.95737998E+02
  0
VERTEX
  8
0
 62
4
 10
3.08176574E+02
 20
-2.95715897E+02
  0
VERTEX
  8
0
 62
4
 10
3.07999977E+02
 20
-2.95708511E+02
  0
VERTEX
  8
0
 62
4
 10
3.07823380E+02
 20
-2.95715897E+02
  0
VERTEX
  8
0
 62
4
 10
3.07648163E+02
 20
-2.95737998E+02
  0
VERTEX
  8
0
 62
4
 10
3.07475695E+02
 20
-2.95774641E+02
  0
VERTEX
  8
0
 62
4
 10
3.07307322E+02
 20
-2.95825540E+02
  0
VERTEX
  8
0
 62
4
 10
3.07144360E+02
 20
-2.95890298E+02
  0
VERTEX
  8
0
 62
4
 10
3.06988081E+02
 20
-2.95968407E+02
  0
VERTEX
  8
0
 62
4
 10
3.06839708E+02
 20
-2.96059259E+02
  0
VERTEX
  8
0
 62
4
 10
3.06700398E+02
 20
-2.96162144E+02
  0
VERTEX
  8
0
 62
4
 10
3.06571241E+02
 20
-2.96276257E+02
  0
VERTEX
  8
0
 62
4
 10
3.06453244E+02
 20
-2.96400707E+02
  0
VERTEX
  8
0
 62
4
 10
3.06347331E+02
 20
-2.96534523E+02
  0
VERTEX
  8
0
 62
4
 10
3.06254327E+02
 20
-2.96676658E+02
  0
VERTEX
  8
0
 62
4
 10
3.06174961E+02
 20
-2.96826003E+02
  0
VERTEX
  8
0
 62
4
 10
3.06109851E+02
 20
-2.96981391E+02
  0
VERTEX
  8
0
 62
4
 10
3.06059506E+02
 20
-2.97141608E+02
  0
VERTEX
  8
0
 62
4
 10
3.06024320E+02
 20
-2.97305402E+02
  0
VERTEX
  8
0
 62
4
 10
3.06004568E+02
 20
-2.97471493E+02
  0
VERTEX
  8
0
 62
4
 10
3.06000403E+02
 20
-2.97638586E+02
  0
VERTEX
  8
0
 62
4
 10
3.06011859E+02
 20
-2.97805373E+02
  0
VERTEX
  8
0
 62
4
 10
3.06038846E+02
 20
-2.97970552E+02
  0
VERTEX
  8
0
 62
4
 10
3.06081152E+02
 20
-2.98132833E+02
  0
VERTEX
  8
0
 62
4
 10
3.06138448E+02
 20
-2.98290949E+02
  0
VERTEX
  8
0
 62
4
 10
3.06210287E+02
 20
-2.98443663E+02
  0
VERTEX
  8
0
 62
4
 10
3.06296105E+02
 20
-2.98589783E+02
  0
VERTEX
  8
0
 62
4
 10
3.06395235E+02
 20
-2.98728167E+02
  0
VERTEX
  8
0
 62
4
 10
3.06506900E+02
 20
-2.98857735E+02
  0
SEQEND
  8
0
  0
POLYLINE
  8
0
 62
6
 66
1
  0
VERTEX
  8
0
 62
6
 10
3.01499977E+02
 20
-2.98024577E+02
  0
VERTEX
  8
0
 62
6
 10
3.01494269E+02
 20
-2.97900966E+02
  0
VERTEX
  8
0
 62
6
 10
3.01477189E+02
 20
-2.97778296E+02
  0
VERTEX
  8
0
 62
6
 10
3.01448866E+02
 20
-2.97657500E+02
  0
VERTEX
  8
0
 62
6
 10
3.01409516E+02
 20
-2.97539497E+02
  0
VERTEX
  8
0
 62
6
 10
3.01359439E+02
 20
-2.97425187E+02
  0
VERTEX
  8
0
 62
6
 10
3.01299015E+02
 20
-2.97315438E+02
  0
VERTEX
  8
0
 62
6
 10
3.01228705E+02
 20
-2.97211086E+02
  0
VERTEX
  8
0
 62
6
 10
3.01149044E+02
 20
-2.97112926E+02
  0
VERTEX
  8
0
 62
6
 10
3.01060637E+02
 20
-2.97021703E+02
  0
VERTEX
  8
0
 62
6
 10
3.00964158E+02
 20
-2.96938113E+02
  0
VERTEX
  8
0
 62
6
 10
3.00860342E+02
 20
-2.96862792E+02
  0
VERTEX
  8
0
 62
6
 10
3.00749977E+02
 20
-2.96796312E+02
  0
VERTEX
  8
0
 62
6
 10
3.00633904E+02
 20
-2.96739181E+02
  0
VERTEX
  8
0
 62
6
 10
3.00513007E+02
 20
-2.96691832E+02
  0
VERTEX
  8
0
 62
6
 10
3.00388206E+02
 20
-2.96654626E+02
  0
VERTEX
  8
0
 62
6
 10
3.00260449E+02
 20
-2.96627846E+02
  0
VERTEX
  8
0
 62
6
 10
3.00130711E+02
 20
-2.96611696E+02
  0
VERTEX
  8
0
 62
6
 10
2.99999977E+02
 20
-2.96606299E+02
  0
VERTEX
  8
0
 62
6
 10
2.99869243E+02
 20
-2.96611696E+02
  0
VERTEX
  8
0
 62
6
 10
2.99739505E+02
 20
-2.96627846E+02
  0
VERTEX
  8
0
 62
6
 10
2.99611748E+02
 20
-2.96654626E+02
  0
VERTEX
  8
0
 62
6
 10
2.99486947E+02
 20
-2.96691832E+02
  0
VERTEX
  8
0
 62
6
 10
2.99366050E+02
 20
-2.96739181E+02
  0
VERTEX
  8
0
 62
6
 10
2.99249977E+02
 20
-2.96796312E+02
  0
VERTEX
  8
0
 62
6
 10
2.99139612E+02
 20
-2.96862792E+02
  0
VERTEX
  8
0
 62
6
 10
2.99035796E+02
 20
-2.96938113E+02
  0
VERTEX
  8
0
 62
6
 10
2.98939317E+02
 20
-2.97021703E+02
  0
VERTEX
  8
0
 62
6
 10
2.98850910E+02
 20
-2.97112926E+02
  0
VERTEX
  8
0
 62
6
 10
2.98771249E+02
 20
-2.97211086E+02
  0
VERTEX
  8
0
 62
6
 10
2.98700939E+02
 20
-2.97315438E+02
  0
VERTEX
  8
0
 62
6
 10
2.98640515E+02
 20
-2.97425187E+02
  0
VERTEX
  8
0
 62
6
 10
2.98590438E+02
 20
-2.97539497E+02
  0
VERTEX
  8
0
 62
6
 10
2.98551088E+02
 20
-2.97657500E+02
  0
VERTEX
  8
0
 62
6
 10
2.98522765E+02
 20
-2.97778296E+02
  0
VERTEX
  8
0
 62
6
 10
2.98505685E+02
 20
-2.97900966E+02
  0
VERTEX
  8
0
 62
6
 10
2.98499977E+02
 20
-2.98024577E+02
  0
VERTEX
  8
0
 62
6
 10
2.98505685E+02
 20
-2.98148188E+02
  0
VERTEX
  8
0
 62
6
 10
2.98522765E+02
 20
-2.98270858E+02
  0
VERTEX
  8
0
 62
6
 10
2.98551088E+02
 20
-2.98391654E+02
  0
VERTEX
  8
0
 62
6
 10
2.98590438E+02
 20
-2.98509657E+02
  0
VERTEX
  8
0
 62
6
 10
2.98640515E+02
 20
-2.98623967E+02
  0
VERTEX
  8
0
 62
6
 10
2.98700939E+02
 20
-2.98733716E+02
  0
VERTEX
  8
0
 62
6
 10
2.98771249E+02
 20
-2.98838068E+02
  0
VERTEX
  8
0
 62
6
 10
2.98850910E+02
 20
-2.98936228E+02
  0
VERTEX
  8
0
 62
6
 10
2.98939317E+02
 20
-2.99027451E+02
  0
VERTEX
  8
0
 62
6
 10
2.99035796E+02
 20
-2.99111041E+02
  0
VERTEX
  8
0
 62
6
 10
2.99139612E+02
 20
-2.99186362E+02
  0
VERTEX
  8
0
 62
6
 10
2.99249977E+02
 20
-2.99252842E+02
  0
VERTEX
  8
0
 62
6
 10
2.99366050E+02
 20
-2.99309973E+02
  0
VERTEX
  8
0
 62
6
 10
2.99486947E+02
 20
-2.99357322E+02
  0
VERTEX
  8
0
 62
6
 10
2.99611748E+02
 20
-2.99394528E+02
  0
VERTEX
  8
0
 62
6
 10
2.99739505E+02
 20
-2.99421308E+02
  0
VERTEX
  8
0
 62
6
 10
2.99869243E+02
 20
-2.99437458E+02
  0
VERTEX
  8
0
 62
6
 10
2.99999977E+02
 20
-2.99442855E+02
  0
VERTEX
  8
0
 62
6
 10
3.00130711E+02
 20
-2.99437458E+02
  0
VERTEX
  8
0
 62
6
 10
3.00260449E+02
 20
-2.99421308E+02
  0
VERTEX
  8
0
 62
6
 10
3.00388206E+02
 20
-2.99394528E+02
  0
VERTEX
  8
0
 62
6
 10
3.00513007E+02
 20
-2.99357322E+02
  0
VERTEX
  8
0
 62
6
 10
3.00633904E+02
 20
-2.99309973E+02
  0
VERTEX
  8
0
 62
6
 10
3.00749977E+02
 20
-2.99252842E+02
  0
VERTEX
  8
0
 62
6
 10
3.00860342E+02
 20
-2.99186362E+02
  0
VERTEX
  8
0
 62
6
 10
3.00964158E+02
 20
-2.99111041E+02
  0
VERTEX
  8
0
 62
6
 10
3.01060637E+02
 20
-2.99027451E+02
  0
VERTEX
  8
0
 62
6
 10
3.01149044E+02
 20
-2.98936228E+02
  0
VERTEX
  8
0
 62
6
 10
3.01228705E+02
 20
-2.98838068E+02
  0
VERTEX
  8
0
 62
6
 10
3.01299015E+02
 20
-2.98733716E+02
  0
VERTEX
  8
0
 62
6
 10
3.01359439E+02
 20
-2.98623967E+02
  0
VERTEX
  8
0
 62
6
 10
3.01409516E+02
 20
-2.98509657E+02
  0
VERTEX
  8
0
 62
6
 10
3.01448866E+02
 20
-2.98391654E+02
  0
VERTEX
  8
0
 62
6
 10
3.01477189E+02
 20
-2.98270858E+02
  0
VERTEX
  8
0
 62
6
 10
3.01494269E+02
 20
-2.98148188E+02
  0
VERTEX
  8
0
 62
6
 10
3.01499977E+02
 20
-2.98024577E+02
  0
SEQEND
  8
0
  0
POLYLINE
  8
0
 62
4
 66
1
  0
VERTEX
  8
0
 62
4
 10
3.01734977E+02
 20
-2.98024577E+02
  0
VERTEX
  8
0
 62
4
 10
3.01728375E+02
 20
-2.97882012E+02
  0
VERTEX
  8
0
 62
4
 10
3.01708618E+02
 20
-2.97740532E+02
  0
VERTEX
  8
0
 62
4
 10
3.01675858E+02
 20
-2.97601214E+02
  0
VERTEX
  8
0
 62
4
 10
3.01630344E+02
 20
-2.97465119E+02
  0
VERTEX
  8
0
 62
4
 10
3.01572421E+02
 20
-2.97333280E+02
  0
VERTEX
  8
0
 62
4
 10
3.01502531E+02
 20
-2.97206703E+02
  0
VERTEX
  8
0
 62
4
 10
3.01421206E+02
 20
-2.97086351E+02
  0
VERTEX
  8
0
 62
4
 10
3.01329064E+02
 20
-2.96973139E+02
  0
VERTEX
  8
0
 62
4
 10
3.01226807E+02
 20
-2.96867929E+02
  0
VERTEX
  8
0
 62
4
 10
3.01115214E+02
 20
-2.96771522E+02
  0
VERTEX
  8
0
 62
4
 10
3.00995132E+02
 20
-2.96684651E+02
  0
VERTEX
  8
0
 62
4
 10
3.00867477E+02
 20
-2.96607978E+02
  0
VERTEX
  8
0
 62
4
 10
3.00733220E+02
 20
-2.96542087E+02
  0
VERTEX
  8
0
 62
4
 10
3.00593382E+02
 20
-2.96487477E+02
  0
VERTEX
  8
0
 62
4
 10
3.00449028E+02
 20
-2.96444567E+02
  0
VERTEX
  8
0
 62
4
 10
3.00301257E+02
 20
-2.96413681E+02
  0
VERTEX
  8
0
 62
4
 10
3.00151192E+02
 20
-2.96395054E+02
  0
VERTEX
  8
0
 62
4
 10
2.99999977E+02
 20
-2.96388830E+02
  0
VERTEX
  8
0
 62
4
 10
2.99848762E+02
 20
-2.96395054E+02
  0
VERTEX
  8
0
 62
4
 10
2.99698697E+02
 20
-2.96413681E+02
  0
VERTEX
  8
0
 62
4
 10
2.99550926E+02
 20
-2.96444567E+02
  0
VERTEX
  8
0
 62
4
 10
2.99406572E+02
 20
-2.96487477E+02
  0
VERTEX
  8
0
 62
4
 10
2.99266734E+02
 20
-2.96542087E+02
  0
VERTEX
  8
0
 62
4
 10
2.99132477E+02
 20
-2.96607978E+02
  0
VERTEX
  8
0
 62
4
 10
2.99004822E+02
 20
-2.96684651E+02
  0
VERTEX
  8
0
 62
4
 10
2.98884740E+02
 20
-2.96771522E+02
  0
VERTEX
  8
0
 62
4
 10
2.98773147E+02
 20
-2.96867929E+02
  0
VERTEX
  8
0
 62
4
 10
2.98670890E+02
 20
-2.96973139E+02
  0
VERTEX
  8
0
 62
4
 10
2.98578748E+02
 20
-2.97086351E+02
  0
VERTEX
  8
0
 62
4
 10
2.98497423E+02
 20
-2.97206703E+02
  0
VERTEX
  8
0
 62
4
 10
2.98427533E+02
 20
-2.97333280E+02
  0
VERTEX
  8
0
 62
4
 10
2.98369610E+02
 20
-2.97465119E+02
  0
VERTEX
  8
0
 62
4
 10
2.98324096E+02
 20
-2.97601214E+02
  0
VERTEX
  8
0
 62
4
 10
2.98291336E+02
 20
-2.97740532E+02
  0
VERTEX
  8
0
 62
4
 10
2.98271579E+02
 20
-2.97882012E+02
  0
VERTEX
  8
0
 62
4
 10
2.98264977E+02
 20
-2.98024577E+02
  0
VERTEX
  8
0
 62
4
 10
2.98271579E+02
 20
-2.98167142E+02
  0
VERTEX
  8
0
 62
4
 10
2.98291336E+02
 20
-2.98308622E+02
  0
VERTEX
  8
0
 62
4
 10
2.98324096E+02
 20
-2.98447940E+02
  0
VERTEX
  8
0
 62
4
 10
2.98369610E+02
 20
-2.98584035E+02
  0
VERTEX
  8
0
 62
4
 10
2.98427533E+02
 20
-2.98715874E+02
  0
VERTEX
  8
0
 62
4
 10
2.98497423E+02
 20
-2.98842451E+02
  0
VERTEX
  8
0
 62
4
 10
2.98578748E+02
 20
-2.98962803E+02
  0
VERTEX
  8
0
 62
4
 10
2.98670890E+02
 20
-2.99076015E+02
  0
VERTEX
  8
0
 62
4
 10
2.98773147E+02
 20
-2.99181225E+02
  0
VERTEX
  8
0
 62
4
 10
2.98884740E+02
 20
-2.99277632E+02
  0
VERTEX
  8
0
 62
4
 10
2.99004822E+02
 20
-2.99364503E+02
  0
VERTEX
  8
0
 62
4
 10
2.99132477E+02
 20
-2.99441176E+02
  0
VERTEX
  8
0
 62
4
 10
2.99266734E+02
 20
-2.99507067E+02
  0
VERTEX
  8
0
 62
4
 10
2.99406572E+02
 20
-2.99561677E+02
  0
VERTEX
  8
0
 62
4
 10
2.99550926E+02
 20
-2.99604587E+02
  0
VERTEX
  8
0
 62
4
 10
2.99698697E+02
 20
-2.99635473E+02
  0
VERTEX
  8
0
 62
4
 10
2.99848762E+02
 20
-2.99654100E+02
  0
VERTEX
  8
0
 62
4
 10
2.99999977E+02
 20
-2.99660324E+02
  0
VERTEX
  8
0
 62
4
 10
3.00151192E+02
 20
-2.99654100E+02
  0
VERTEX
  8
0
 62
4
 10
3.00301257E+02
 20
-2.99635473E+02
  0
VERTEX
  8
0
 62
4
 10
3.00449028E+02
 20
-2.99604587E+02
  0
VERTEX
  8
0
 62
4
 10
3.00593382E+02
 20
-2.99561677E+02
  0
VERTEX
  8
0
 62
4
 10
3.00733220E+02
 20
-2.99507067E+02
  0
VERTEX
  8
0
 62
4
 10
3.00867477E+02
 20
-2.99441176E+02
  0
VERTEX
  8
0
 62
4
 10
3.00995132E+02
 20
-2.99364503E+02
  0
VERTEX
  8
0
 62
4
 10
3.01115214E+02
 20
-2.99277632E+02
  0
VERTEX
  8
0
 62
4
 10
3.01226807E+02
 20
-2.99181225E+02
  0
VERTEX
  8
0
 62
4
 10
3.01329064E+02
 20
-2.99076015E+02
  0
VERTEX
  8
0
 62
4
 10
3.01421206E+02
 20
-2.98962803E+02
  0
VERTEX
  8
0
 62
4
 10
3.01502531E+02
 20
-2.98842451E+02
  0
VERTEX
  8
0
 62
4
 10
3.01572421E+02
 20
-2.98715874E+02
  0
VERTEX
  8
0
 62
4
 10
3.01630344E+02
 20
-2.98584035E+02
  0
VERTEX
  8
0
 62
4
 10
3.01675858E+02
 20
-2.98447940E+02
  0
VERTEX
  8
0
 62
4
 10
3.01708618E+02
 20
-2.98308622E+02
  0
VERTEX
  8
0
 62
4
 10
3.01728375E+02
 20
-2.98167142E+02
  0
VERTEX
  8
0
 62
4
 10
3.01734977E+02
 20
-2.98024577E+02
  0
SEQEND
  8
0
  0
POLYLINE
  8
0
 62
4
 66
1
  0
VERTEX
  8
0
 62
4
 10
3.01493054E+02
 20
-2.98857735E+02
  0
VERTEX
  8
0
 62
4
 10
3.01604719E+02
 20
-2.98728167E+02
  0
VERTEX
  8
0
 62
4
 10
3.01703849E+02
 20
-2.98589783E+02
  0
VERTEX
  8
0
 62
4
 10
3.01789667E+02
 20
-2.98443663E+02
  0
VERTEX
  8
0
 62
4
 10
3.01861506E+02
 20
-2.98290949E+02
  0
VERTEX
  8
0
 62
4
 10
3.01918802E+02
 20
-2.98132833E+02
  0
VERTEX
  8
0
 62
4
 10
3.01961108E+02
 20
-2.97970552E+02
  0
VERTEX
  8
0
 62
4
 10
3.01988095E+02
 20
-2.97805373E+02
  0
VERTEX
  8
0
 62
4
 10
3.01999551E+02
 20
-2.97638586E+02
  0
VERTEX
  8
0
 62
4
 10
3.01995386E+02
 20
-2.97471493E+02
  0
VERTEX
  8
0
 62
4
 10
3.01975634E+02
 20
-2.97305402E+02
  0
VERTEX
  8
0
 62
4
 10
3.01940448E+02
 20
-2.97141608E+02
  0
VERTEX
  8
0
 62
4
 10
3.01890103E+02
 20
-2.96981391E+02
  0
VERTEX
  8
0
 62
4
 10
3.01824993E+02
 20
-2.96826003E+02
  0
VERTEX
  8
0
 62
4
 10
3.01745627E+02
 20
-2.96676658E+02
  0
VERTEX
  8
0
 62
4
 10
3.01652623E+02
 20
-2.96534523E+02
  0
VERTEX
  8
0
 62
4
 10
3.01546710E+02
 20
-2.96400707E+02
  0
VERTEX
  8
0
 62
4
 10
3.01428713E+02
 20
-2.96276257E+02
  0
VERTEX
  8
0
 62
4
 10
3.01299556E+02
 20
-2.96162144E+02
  0
VERTEX
  8
0
 62
4
 10
3.01160246E+02
 20
-2.96059259E+02
  0
VERTEX
  8
0
 62
4
 10
3.01011873E+02
 20
-2.95968407E+02
  0
VERTEX
  8
0
 62
4
 10
3.00855594E+02
 20
-2.95890298E+02
  0
VERTEX
  8
0
 62
4
 10
3.00692632E+02
 20
-2.95825540E+02
  0
VERTEX
  8
0
 62
4
 10
3.00524259E+02
 20
-2.95774641E+02
  0
VERTEX
  8
0
 62
4
 10
3.00351790E+02
 20
-2.95737998E+02
  0
VERTEX
  8
0
 62
4
 10
3.00176574E+02
 20
-2.95715897E+02
  0
VERTEX
  8
0
 62
4
 10
2.99999977E+02
 20
-2.95708511E+02
  0
VERTEX
  8
0
 62
4
 10
2.99823380E+02
 20
-2.95715897E+02
  0
VERTEX
  8
0
 62
4
 10
2.99648163E+02
 20
-2.95737998E+02
  0
VERTEX
  8
0
 62
4
 10
2.99475695E+02
 20
-2.95774641E+02
  0
VERTEX
  8
0
 62
4
 10
2.99307322E+02
 20
-2.95825540E+02
  0
VERTEX
  8
0
 62
4
 10
2.99144360E+02
 20
-2.95890298E+02
  0
VERTEX
  8
0
 62
4
 10
2.98988081E+02
 20
-2.95968407E+02
  0
VERTEX
  8
0
 62
4
 10
2.98839708E+02
 20
-2.96059259E+02
  0
VERTEX
  8
0
 62
4
 10
2.98700398E+02
 20
-2.96162144E+02
  0
VERTEX
  8
0
 62
4
 10
2.98571241E+02
 20
-2.96276257E+02
  0
VERTEX
  8
0
 62
4
 10
2.98453244E+02
 20
-2.96400707E+02
  0
VERTEX
  8
0
 62
4
 10
2.98347331E+02
 20
-2.96534523E+02
  0
VERTEX
  8
0
 62
4
 10
2.98254327E+02
 20
-2.96676658E+02
  0
VERTEX
  8
0
 62
4
 10
2.98174961E+02
 20
-2.96826003E+02
  0
VERTEX
  8
0
 62
4
 10
2.98109851E+02
 20
-2.96981391E+02
  0
VERTEX
  8
0
 62
4
 10
2.98059506E+02
 20
-2.97141608E+02
  0
VERTEX
  8
0
 62
4
 10
2.98024320E+02
 20
-2.97305402E+02
  0
VERTEX
  8
0
 62
4
 10
2.98004568E+02
 20
-2.97471493E+02
  0
VERTEX
  8
0
 62
4
 10
2.98000403E+02
 20
-2.97638586E+02
  0
VERTEX
  8
0
 62
4
 10
2.98011859E+02
 20
-2.97805373E+02
  0
VERTEX
  8
0
 62
4
 10
2.98038846E+02
 20
-2.97970552E+02
  0
VERTEX
  8
0
 62
4
 10
2.98081152E+02
 20
-2.98132833E+02
  0
VERTEX
  8
0
 62
4
 10
2.98138448E+02
 20
-2.98290949E+02
  0
VERTEX
  8
0
 62
4
 10
2.98210287E+02
 20
-2.98443663E+02
  0
VERTEX
  8
0
 62
4
 10
2.98296105E+02
 20
-2.98589783E+02
  0
VERTEX
  8
0
 62
4
 10
2.98395235E+02
 20
-2.98728167E+02
  0
VERTEX
  8
0
 62
4
 10
2.98506900E+02
 20
-2.98857735E+02
  0
SEQEND
  8
0
  0
LINE
  8
0
 62
4
 10
2.79793880E+02
 20
-2.87900024E+02
 11
2.76999977E+02
 21
-2.85296186E+02
  0
LINE
  8
0
 62
4
 10
3.13206074E+02
 20
-2.87900024E+02
 11
3.15999977E+02
 21
-2.85296186E+02
  0
LINE
  8
0
 62
4
 10
3.11499977E+02
 20
-2.64920758E+02
 11
2.96499977E+02
 21
-2.64920758E+02
  0
LINE
  8
0
 62
4
 10
3.11499977E+02
 20
-2.37344790E+02
 11
2.96499977E+02
 21
-2.37344790E+02
  0
ARC
  8
0
 62
4
 10
2.78497490E+02
 20
-2.71797000E+02
 40
1.49751542E+00
 50
8.99048594E+01
 51
1.80095141E+02
  0
ARC
  8
0
 62
4
 10
3.11997495E+02
 20
-2.52952473E+02
 40
4.97523679E-01
 50
8.97141074E+01
 51
1.80285893E+02
  0
ARC
  8
0
 62
4
 10
3.20502460E+02
 20
-2.38952473E+02
 40
4.97523679E-01
 50
3.59714107E+02
 51
9.02858924E+01
  0
ARC
  8
0
 62
4
 10
3.20497482E+02
 20
-2.51952461E+02
 40
5.02501096E-01
 50
2.70284473E+02
 51
3.59715527E+02
  0
ARC
  8
0
 62
4
 10
3.14502464E+02
 20
-2.71797000E+02
 40
1.49751542E+00
 50
3.59904859E+02
 51
9.00951404E+01
  0
LINE
  8
0
 62
4
 10
2.76999977E+02
 20
-2.65476132E+02
 11
2.76999977E+02
 21
-2.85296186E+02
  0
LINE
  8
0
 62
4
 10
2.94499977E+02
 20
-2.66517413E+02
 11
2.94499977E+02
 21
-2.70517413E+02
  0
LINE
  8
0
 62
4
 10
3.11499977E+02
 20
-2.37344790E+02
 11
3.11499977E+02
 21
-2.66517413E+02
  0
LINE
  8
0
 62
4
 10
2.96499977E+02
 20
-2.37344790E+02
 11
2.96499977E+02
 21
-2.66517413E+02
  0
LINE
  8
0
 62
4
 10
3.13499977E+02
 20
-2.66517413E+02
 11
3.13499977E+02
 21
-2.70517413E+02
  0
LINE
  8
0
 62
4
 10
3.15999977E+02
 20
-2.83877908E+02
 11
3.11499977E+02
 21
-2.83877908E+02
  0
LINE
  8
0
 62
4
 10
3.15999977E+02
 20
-2.85296186E+02
 11
3.11499977E+02
 21
-2.85296186E+02
  0
LINE
  8
0
 62
4
 10
3.15999977E+02
 20
-2.65476132E+02
 11
3.15999977E+02
 21
-2.85296186E+02
  0
LINE
  8
0
 62
4
 10
3.13499977E+02
 20
-2.66517413E+02
 11
2.94499977E+02
 21
-2.66517413E+02
  0
LINE
  8
0
 62
4
 10
3.11499977E+02
 20
-2.42228312E+02
 11
2.96499977E+02
 21
-2.42228312E+02
  0
LINE
  8
0
 62
4
 10
2.96499977E+02
 20
-2.83877908E+02
 11
2.76999977E+02
 21
-2.83877908E+02
  0
LINE
  8
0
 62
4
 10
2.96499977E+02
 20
-2.85296186E+02
 11
2.76999977E+02
 21
-2.85296186E+02
  0
LINE
  8
0
 62
4
 10
3.30999977E+02
 20
-2.52560507E+02
 11
3.25999977E+02
 21
-2.52560507E+02
  0
LINE
  8
0
 62
4
 10
3.20499977E+02
 20
-2.52454956E+02
 11
3.11999977E+02
 21
-2.52454956E+02
  0
LINE
  8
0
 62
4
 10
3.24499977E+02
 20
-2.51204956E+02
 11
3.20999977E+02
 21
-2.51204956E+02
  0
LINE
  8
0
 62
4
 10
3.24499977E+02
 20
-2.39204956E+02
 11
3.24499977E+02
 21
-2.51704956E+02
  0
LINE
  8
0
 62
4
 10
3.25999977E+02
 20
-2.51704956E+02
 11
3.20999977E+02
 21
-2.51704956E+02
  0
LINE
  8
0
 62
4
 10
3.25999977E+02
 20
-2.39204956E+02
 11
3.20999977E+02
 21
-2.39204956E+02
  0
LINE
  8
0
 62
4
 10
3.25999977E+02
 20
-2.38358818E+02
 11
3.25999977E+02
 21
-2.52560507E+02
  0
LINE
  8
0
 62
4
 10
3.30999977E+02
 20
-2.38358818E+02
 11
3.30999977E+02
 21
-2.52560507E+02
  0
LINE
  8
0
 62
4
 10
3.20999977E+02
 20
-2.38954956E+02
 11
3.20999977E+02
 21
-2.51954956E+02
  0
LINE
  8
0
 62
4
 10
3.11499977E+02
 20
-2.38454956E+02
 11
3.20499977E+02
 21
-2.38454956E+02
  0
LINE
  8
0
 62
4
 10
3.30999977E+02
 20
-2.51121550E+02
 11
3.25999977E+02
 21
-2.51121550E+02
  0
LINE
  8
0
 62
4
 10
3.30999977E+02
 20
-2.44030161E+02
 11
3.25999977E+02
 21
-2.44030161E+02
  0
LINE
  8
0
 62
4
 10
3.30999977E+02
 20
-2.38358818E+02
 11
3.25999977E+02
 21
-2.38358818E+02
  0
LINE
  8
0
 62
4
 10
3.14499977E+02
 20
-2.70299487E+02
 11
2.78499977E+02
 21
-2.70299487E+02
  0
LINE
  8
0
 62
4
 10
3.24499977E+02
 20
-2.39704956E+02
 11
3.20999977E+02
 21
-2.39704956E+02
  0
LINE
  8
0
  6
CENTER
 62
6
 10
2.94999977E+02
 20
-2.98024577E+02
 11
3.12999977E+02
 21
-2.98024577E+02
  0
LINE
  8
0
  6
CENTER
 62
6
 10
2.99999977E+02
 20
-2.93034577E+02
 11
2.99999977E+02
 21
-3.03024577E+02
  0
LINE
  8
0
  6
CENTER
 62
6
 10
3.07999977E+02
 20
-2.93034577E+02
 11
3.07999977E+02
 21
-3.03024577E+02
  0
LINE
  8
0
 62
4
 10
2.96499977E+02
 20
-2.76109203E+02
 11
2.96499977E+02
 21
-3.02394634E+02
  0
LINE
  8
0
 62
4
 10
3.11499977E+02
 20
-2.76109203E+02
 11
3.11499977E+02
 21
-3.02394634E+02
  0
LINE
  8
0
 62
4
 10
2.97499977E+02
 20
-2.90990835E+02
 11
3.10499977E+02
 21
-2.90990835E+02
  0
LINE
  8
0
 62
4
 10
2.96499977E+02
 20
-3.02394634E+02
 11
3.11499977E+02
 21
-3.02394634E+02
  0
LINE
  8
0
 62
4
 10
2.96499977E+02
 20
-2.76109203E+02
 11
3.11499977E+02
 21
-2.76109203E+02
  0
LINE
  8
0
  6
CENTER
 62
2
 10
-4.36999962E+02
 20
-3.02729599E+02
 11
-4.36999962E+02
 21
-2.79942017E+02
  0
LINE
  8
0
  6
CENTER
 62
2
 10
-4.24954917E+02
 20
-2.91499939E+02
 11
-4.47106010E+02
 21
-2.91499939E+02
  0
LINE
  8
0
 62
7
 10
-3.99217737E+02
 20
-5.26679705E+00
 11
3.92782263E+02
 21
-5.26679705E+00
  0
LINE
  8
0
 62
7
 10
-3.99217737E+02
 20
-3.52667971E+01
 11
3.92782263E+02
 21
-3.52667971E+01
  0
LINE
  8
0
 62
7
 10
-3.99217737E+02
 20
-3.52667971E+01
 11
-3.99217737E+02
 21
-5.26679705E+00
  0
TEXT
  8
0
 62
7
 10
-3.88932424E+02
 20
-1.72667971E+01
 40
9.00000000E+00
  1
STROKE
 41
1.00000000E+00
  7
MONOTXT
  0
TEXT
  8
0
 62
7
 10
-3.93432424E+02
 20
-3.22667971E+01
 40
9.00000000E+00
  1
STRETCH
 41
1.00000000E+00
  7
MONOTXT
  0
LINE
  8
0
 62
7
 10
-3.99217737E+02
 20
-2.02667971E+01
 11
3.92782263E+02
 21
-2.02667971E+01
  0
LINE
  8
0
 62
7
 10
-3.27217737E+02
 20
-3.52667971E+01
 11
-3.27217737E+02
 21
-5.26679705E+00
  0
LINE
  8
0
 62
7
 10
-2.82217737E+02
 20
-3.52667971E+01
 11
-2.82217737E+02
 21
-5.26679705E+00
  0
LINE
  8
0
 62
7
 10
-2.37217737E+02
 20
-3.52667971E+01
 11
-2.37217737E+02
 21
-5.26679705E+00
  0
LINE
  8
0
 62
7
 10
-1.92217737E+02
 20
-3.52667971E+01
 11
-1.92217737E+02
 21
-5.26679705E+00
  0
LINE
  8
0
 62
7
 10
-1.47217737E+02
 20
-3.52667971E+01
 11
-1.47217737E+02
 21
-5.26679705E+00
  0
LINE
  8
0
 62
7
 10
-1.02217737E+02
 20
-3.52667971E+01
 11
-1.02217737E+02
 21
-5.26679705E+00
  0
LINE
  8
0
 62
7
 10
-5.72177372E+01
 20
-3.52667971E+01
 11
-5.72177372E+01
 21
-5.26679705E+00
  0
LINE
  8
0
 62
7
 10
-1.22177372E+01
 20
-3.52667971E+01
 11
-1.22177372E+01
 21
-5.26679705E+00
  0
LINE
  8
0
 62
7
 10
3.27822628E+01
 20
-3.52667971E+01
 11
3.27822628E+01
 21
-5.26679705E+00
  0
LINE
  8
0
 62
7
 10
7.77822628E+01
 20
-3.52667971E+01
 11
7.77822628E+01
 21
-5.26679705E+00
  0
LINE
  8
0
 62
7
 10
1.22782263E+02
 20
-3.52667971E+01
 11
1.22782263E+02
 21
-5.26679705E+00
  0
LINE
  8
0
 62
7
 10
1.67782263E+02
 20
-3.52667971E+01
 11
1.67782263E+02
 21
-5.26679705E+00
  0
LINE
  8
0
 62
7
 10
2.12782263E+02
 20
-3.52667971E+01
 11
2.12782263E+02
 21
-5.26679705E+00
  0
LINE
  8
0
 62
7
 10
2.57782263E+02
 20
-3.52667971E+01
 11
2.57782263E+02
 21
-5.26679705E+00
  0
LINE
  8
0
 62
7
 10
3.02782263E+02
 20
-3.52667971E+01
 11
3.02782263E+02
 21
-5.26679705E+00
  0
LINE
  8
0
 62
7
 10
3.47782263E+02
 20
-3.52667971E+01
 11
3.47782263E+02
 21
-5.26679705E+00
  0
LINE
  8
0
 62
7
 10
3.92782263E+02
 20
-3.52667971E+01
 11
3.92782263E+02
 21
-5.26679705E+00
  0
TEXT
  8
0
 62
7
 10
-3.12733362E+02
 20
-1.72667971E+01
 40
9.00000000E+00
  1
50
 41
1.00000000E+00
  7
MONOTXT
  0
TEXT
  8
0
 62
7
 10
-2.67733362E+02
 20
-1.72667971E+01
 40
9.00000000E+00
  1
75
 41
1.00000000E+00
  7
MONOTXT
  0
TEXT
  8
0
 62
7
 10
-2.27233362E+02
 20
-1.72667971E+01
 40
9.00000000E+00
  1
100
 41
1.00000000E+00
  7
MONOTXT
  0
TEXT
  8
0
 62
7
 10
-1.82233362E+02
 20
-1.72667971E+01
 40
9.00000000E+00
  1
150
 41
1.00000000E+00
  7
MONOTXT
  0
TEXT
  8
0
 62
7
 10
-1.37233362E+02
 20
-1.72667971E+01
 40
9.00000000E+00
  1
200
 41
1.00000000E+00
  7
MONOTXT
  0
TEXT
  8
0
 62
7
 10
-9.22333622E+01
 20
-1.72667971E+01
 40
9.00000000E+00
  1
250
 41
1.00000000E+00
  7
MONOTXT
  0
TEXT
  8
0
 62
7
 10
-4.72333622E+01
 20
-1.72667971E+01
 40
9.00000000E+00
  1
300
 41
1.00000000E+00
  7
MONOTXT
  0
TEXT
  8
0
 62
7
 10
-2.23336216E+00
 20
-1.72667971E+01
 40
9.00000000E+00
  1
350
 41
1.00000000E+00
  7
MONOTXT
  0
TEXT
  8
0
 62
7
 10
4.27666378E+01
 20
-1.72667971E+01
 40
9.00000000E+00
  1
400
 41
1.00000000E+00
  7
MONOTXT
  0
TEXT
  8
0
 62
7
 10
8.77666378E+01
 20
-1.72667971E+01
 40
9.00000000E+00
  1
450
 41
1.00000000E+00
  7
MONOTXT
  0
TEXT
  8
0
 62
7
 10
1.32766638E+02
 20
-1.72667971E+01
 40
9.00000000E+00
  1
500
 41
1.00000000E+00
  7
MONOTXT
  0
TEXT
  8
0
 62
7
 10
1.77766638E+02
 20
-1.72667971E+01
 40
9.00000000E+00
  1
600
 41
1.00000000E+00
  7
MONOTXT
  0
TEXT
  8
0
 62
7
 10
2.22766638E+02
 20
-1.72667971E+01
 40
9.00000000E+00
  1
700
 41
1.00000000E+00
  7
MONOTXT
  0
TEXT
  8
0
 62
7
 10
2.67766638E+02
 20
-1.72667971E+01
 40
9.00000000E+00
  1
800
 41
1.00000000E+00
  7
MONOTXT
  0
TEXT
  8
0
 62
7
 10
3.12766638E+02
 20
-1.72667971E+01
 40
9.00000000E+00
  1
900
 41
1.00000000E+00
  7
MONOTXT
  0
TEXT
  8
0
 62
7
 10
3.53266638E+02
 20
-1.72667971E+01
 40
9.00000000E+00
  1
1000
 41
1.00000000E+00
  7
MONOTXT
  0
TEXT
  8
0
 62
7
 10
-3.17233362E+02
 20
-3.22667971E+01
 40
9.00000000E+00
  1
-25
 41
1.00000000E+00
  7
MONOTXT
  0
TEXT
  8
0
 62
7
 10
-2.63233362E+02
 20
-3.22667971E+01
 40
9.00000000E+00
  1
0
 41
1.00000000E+00
  7
MONOTXT
  0
TEXT
  8
0
 62
7
 10
-2.22733362E+02
 20
-3.22667971E+01
 40
9.00000000E+00
  1
25
 41
1.00000000E+00
  7
MONOTXT
  0
TEXT
  8
0
 62
7
 10
-1.77733362E+02
 20
-3.22667971E+01
 40
9.00000000E+00
  1
75
 41
1.00000000E+00
  7
MONOTXT
  0
TEXT
  8
0
 62
7
 10
-1.37233362E+02
 20
-3.22667971E+01
 40
9.00000000E+00
  1
125
 41
1.00000000E+00
  7
MONOTXT
  0
TEXT
  8
0
 62
7
 10
-9.22333622E+01
 20
-3.22667971E+01
 40
9.00000000E+00
  1
175
 41
1.00000000E+00
  7
MONOTXT
  0
TEXT
  8
0
 62
7
 10
-4.72333622E+01
 20
-3.22667971E+01
 40
9.00000000E+00
  1
225
 41
1.00000000E+00
  7
MONOTXT
  0
TEXT
  8
0
 62
7
 10
-2.23336216E+00
 20
-3.22667971E+01
 40
9.00000000E+00
  1
275
 41
1.00000000E+00
  7
MONOTXT
  0
TEXT
  8
0
 62
7
 10
4.27666378E+01
 20
-3.22667971E+01
 40
9.00000000E+00
  1
325
 41
1.00000000E+00
  7
MONOTXT
  0
TEXT
  8
0
 62
7
 10
8.77666378E+01
 20
-3.22667971E+01
 40
9.00000000E+00
  1
375
 41
1.00000000E+00
  7
MONOTXT
  0
TEXT
  8
0
 62
7
 10
1.32766638E+02
 20
-3.22667971E+01
 40
9.00000000E+00
  1
425
 41
1.00000000E+00
  7
MONOTXT
  0
TEXT
  8
0
 62
7
 10
1.77766638E+02
 20
-3.22667971E+01
 40
9.00000000E+00
  1
525
 41
1.00000000E+00
  7
MONOTXT
  0
TEXT
  8
0
 62
7
 10
2.22766638E+02
 20
-3.22667971E+01
 40
9.00000000E+00
  1
625
 41
1.00000000E+00
  7
MONOTXT
  0
TEXT
  8
0
 62
7
 10
2.67766638E+02
 20
-3.22667971E+01
 40
9.00000000E+00
  1
725
 41
1.00000000E+00
  7
MONOTXT
  0
TEXT
  8
0
 62
7
 10
3.12766638E+02
 20
-3.22667971E+01
 40
9.00000000E+00
  1
825
 41
1.00000000E+00
  7
MONOTXT
  0
TEXT
  8
0
 62
7
 10
3.57766638E+02
 20
-3.22667971E+01
 40
9.00000000E+00
  1
925
 41
1.00000000E+00
  7
MONOTXT
  0
TEXT
  8
0
 62
7
 10
3.49766638E+02
 20
2.33202950E-01
 40
9.00000000E+00
  1
(mm)
 41
1.00000000E+00
  7
MONOTXT
  0
TEXT
  8
0
 62
7
 10
-5.62333622E+01
 20
2.33202950E-01
 40
9.00000000E+00
  1
STRETCH LIST
 41
1.05263158E+00
  7
MONOTXT
  0
LINE
  8
0
 62
7
 10
1.01901836E+02
 20
-2.72500000E+02
 11
6.19999161E+01
 21
-2.72500000E+02
  0
LINE
  8
0
 62
7
 10
-1.84236846E+01
 20
-2.95100037E+02
 11
-8.00000229E+01
 21
-2.95100037E+02
  0
LINE
  8
0
 62
7
 10
-1.28811185E+01
 20
-2.85500031E+02
 11
-8.00000229E+01
 21
-2.85500031E+02
  0
LINE
  8
0
 62
7
 10
-1.42667556E+01
 20
-2.87900024E+02
 11
-8.00000229E+01
 21
-2.87900024E+02
  0
LINE
  8
0
 62
7
 10
-5.21409015E+01
 20
-1.73499969E+02
 11
-7.99999924E+01
 21
-1.73499969E+02
  0
LINE
  8
0
 62
7
 10
-5.07552820E+01
 20
-1.71100006E+02
 11
-7.99999924E+01
 21
-1.71100006E+02
  0
LINE
  8
0
 62
7
 10
-4.65983530E+01
 20
-1.63899994E+02
 11
-7.99999924E+01
 21
-1.63899994E+02
  0
LINE
  8
0
 62
7
 10
-7.14999860E+01
 20
-1.05500031E+02
 11
-7.99999924E+01
 21
-1.05500031E+02
  0
LINE
  8
0
 62
7
 10
-7.14999860E+01
 20
-1.07899994E+02
 11
-7.99999924E+01
 21
-1.07899994E+02
  0
LINE
  8
0
 62
2
 10
-2.91999992E+02
 20
-3.11320007E+02
 11
-2.82999962E+02
 21
-3.11320007E+02
  0
LINE
  8
0
 62
7
 10
-2.91999992E+02
 20
-3.10500000E+02
 11
-2.82999962E+02
 21
-3.10500000E+02
  0
LINE
  8
0
 62
2
 10
-2.91999992E+02
 20
-1.47679962E+02
 11
-2.82999962E+02
 21
-1.47679962E+02
  0
LINE
  8
0
 62
7
 10
-2.91999992E+02
 20
-1.48499969E+02
 11
-2.82999962E+02
 21
-1.48499969E+02
  0
LINE
  8
0
 62
2
 10
-2.91999992E+02
 20
-1.31320007E+02
 11
-2.82999962E+02
 21
-1.31320007E+02
  0
LINE
  8
0
 62
7
 10
-2.91999992E+02
 20
-1.30500000E+02
 11
-2.82999962E+02
 21
-1.30500000E+02
  0
LINE
  8
0
 62
4
 10
-2.91999992E+02
 20
-1.26000000E+02
 11
-2.91999992E+02
 21
-1.53000000E+02
  0
LINE
  8
0
 62
4
 10
-3.02999992E+02
 20
-1.26000000E+02
 11
-3.02999992E+02
 21
-1.53000000E+02
  0
LINE
  8
0
 62
4
 10
-2.91999992E+02
 20
-1.26000000E+02
 11
-3.02999992E+02
 21
-1.26000000E+02
  0
LINE
  8
0
 62
4
 10
-2.91999992E+02
 20
-1.53000000E+02
 11
-3.02999992E+02
 21
-1.53000000E+02
  0
LINE
  8
0
 62
4
 10
-2.93205764E+02
 20
-1.39500000E+02
 11
-3.01794221E+02
 21
-1.39500000E+02
  0
ARC
  8
0
 62
4
 10
-2.83503599E+02
 20
-1.46250000E+02
 40
1.94963929E+01
 50
1.59743842E+02
 51
2.00256158E+02
  0
ARC
  8
0
 62
4
 10
-2.83503599E+02
 20
-1.32750000E+02
 40
1.94963929E+01
 50
1.59743842E+02
 51
2.00256158E+02
  0
ARC
  8
0
 62
4
 10
-3.11496385E+02
 20
-1.32750000E+02
 40
1.94963929E+01
 50
3.39743842E+02
 51
2.02561580E+01
  0
ARC
  8
0
 62
4
 10
-3.11496385E+02
 20
-1.46250000E+02
 40
1.94963929E+01
 50
3.39743842E+02
 51
2.02561580E+01
  0
LINE
  8
0
 62
4
 10
-3.01794221E+02
 20
-3.03911543E+02
 11
-2.93205764E+02
 21
-3.03911543E+02
  0
LINE
  8
0
 62
4
 10
-3.01794221E+02
 20
-3.11705771E+02
 11
-2.93205764E+02
 21
-3.11705771E+02
  0
LINE
  8
0
 62
4
 10
-3.01794221E+02
 20
-3.03911543E+02
 11
-3.02999992E+02
 21
-3.06000000E+02
  0
LINE
  8
0
 62
4
 10
-2.93205764E+02
 20
-3.03911543E+02
 11
-2.91999992E+02
 21
-3.06000000E+02
  0
ARC
  8
0
 62
4
 10
-2.96099271E+02
 20
-3.07808657E+02
 40
6.90072132E+00
 50
1.45615752E+02
 51
2.14384248E+02
  0
ARC
  8
0
 62
4
 10
-2.98900714E+02
 20
-3.07808657E+02
 40
6.90072132E+00
 50
3.25615752E+02
 51
3.43842480E+01
  0
ARC
  8
0
 62
4
 10
-3.17794221E+02
 20
-3.19500000E+02
 40
2.57942282E+01
 50
2.54444375E-13
 51
1.75879541E+01
  0
ARC
  8
0
 62
4
 10
-2.77205764E+02
 20
-3.19500000E+02
 40
2.57942282E+01
 50
1.62412046E+02
 51
1.80000000E+02
  0
LINE
  8
0
 62
4
 10
-3.02999992E+02
 20
-3.19500000E+02
 11
-3.02999992E+02
 21
-3.06000000E+02
  0
LINE
  8
0
 62
4
 10
-2.91999992E+02
 20
-3.19500000E+02
 11
-2.91999992E+02
 21
-3.06000000E+02
  0
ARC
  8
0
 62
4
 10
-4.65000023E+02
 20
-3.19500000E+02
 40
1.35000000E+01
 50
0.00000000E+00
 51
1.80000000E+02
  0
LINE
  8
0
 62
4
 10
-4.65000023E+02
 20
-3.03911543E+02
 11
-4.78500023E+02
 21
-3.11705771E+02
  0
LINE
  8
0
 62
4
 10
-4.78500023E+02
 20
-3.11705771E+02
 11
-4.78500023E+02
 21
-3.19500000E+02
  0
LINE
  8
0
 62
4
 10
-4.51500023E+02
 20
-3.19500000E+02
 11
-4.51500023E+02
 21
-3.11705771E+02
  0
LINE
  8
0
 62
4
 10
-4.51500023E+02
 20
-3.11705771E+02
 11
-4.65000023E+02
 21
-3.03911543E+02
  0
INSERT
  8
0
  2
PP2
  6
BYBLOCK
 62
0
 10
0.00000000E+00
 20
0.00000000E+00
 41
1.00000000E+00
 42
1.00000000E+00
 50
0.00000000E+00
  0
CIRCLE
  8
0
 62
2
 10
-4.99999962E+02
 20
-2.84500000E+02
 40
5.00000000E+00
  0
CIRCLE
  8
0
 62
7
 10
-4.99999962E+02
 20
-2.84500000E+02
 40
8.25002670E+00
  0
CIRCLE
  8
0
 62
7
 10
-4.99999962E+02
 20
-2.84500000E+02
 40
8.00002670E+00
  0
CIRCLE
  8
0
 62
7
 10
-4.29999901E+02
 20
-2.84500000E+02
 40
4.18000031E+00
  0
CIRCLE
  8
0
 62
2
 10
-4.29999901E+02
 20
-2.84500000E+02
 40
5.00000000E+00
  0
CIRCLE
  8
0
 62
7
 10
-4.29999901E+02
 20
-2.84500000E+02
 40
8.25002670E+00
  0
CIRCLE
  8
0
 62
7
 10
-4.29999901E+02
 20
-2.84500000E+02
 40
8.00002670E+00
  0
CIRCLE
  8
0
 62
7
 10
-4.99999962E+02
 20
-2.84500000E+02
 40
4.18000031E+00
  0
ARC
  8
0
 62
7
 10
-4.21999962E+02
 20
-2.76500000E+02
 40
4.00000000E+00
 50
0.00000000E+00
 51
8.99999818E+01
  0
ARC
  8
0
 62
7
 10
-5.08000023E+02
 20
-2.76500000E+02
 40
4.00000000E+00
 50
8.99999818E+01
 51
1.79999964E+02
  0
ARC
  8
0
 62
7
 10
1.47999977E+02
 20
-2.76500000E+02
 40
4.00000000E+00
 50
5.46415133E-05
 51
9.00000369E+01
  0
ARC
  8
0
 62
7
 10
5.68407974E+01
 20
-3.16500000E+02
 40
6.84084702E+00
 50
1.53989224E+02
 51
2.06010882E+02
  0
ARC
  8
0
 62
7
 10
1.53159035E+02
 20
-3.16500000E+02
 40
6.84084702E+00
 50
3.33989192E+02
 51
2.60108493E+01
  0
ARC
  8
0
 62
7
 10
-1.11499992E+02
 20
-2.83049927E+02
 40
5.00000000E-01
 50
9.10002292E+01
 51
1.79999964E+02
  0
ARC
  8
0
 62
7
 10
-1.11499992E+02
 20
-1.03049927E+02
 40
5.00000000E-01
 50
9.10002223E+01
 51
1.79999964E+02
  0
ARC
  8
0
 62
7
 10
-1.11499992E+02
 20
-1.75950104E+02
 40
5.00000000E-01
 50
1.79999977E+02
 51
2.68999706E+02
  0
ARC
  8
0
 62
7
 10
6.19999161E+01
 20
-2.76500000E+02
 40
4.00000000E+00
 50
9.00000369E+01
 51
1.80000019E+02
  0
CIRCLE
  8
0
 62
7
 10
-2.33000023E+02
 20
-1.24500000E+02
 40
5.72250032E+00
  0
CIRCLE
  8
0
 62
7
 10
-2.33000023E+02
 20
-1.24500000E+02
 40
6.57850027E+00
  0
ARC
  8
0
 62
7
 10
-2.04999992E+02
 20
-3.19500000E+02
 40
3.30000043E+00
 50
0.00000000E+00
 51
1.80000000E+02
  0
ARC
  8
0
 62
7
 10
-2.04999992E+02
 20
-3.19500000E+02
 40
8.00000000E+00
 50
0.00000000E+00
 51
1.80000000E+02
  0
ARC
  8
0
 62
7
 10
-2.04999992E+02
 20
-3.19500000E+02
 40
4.00000000E+00
 50
0.00000000E+00
 51
1.80000000E+02
  0
ARC
  8
0
 62
7
 10
-5.13159081E+02
 20
-3.16500000E+02
 40
6.84084702E+00
 50
1.53989169E+02
 51
2.06010827E+02
  0
ARC
  8
0
 62
7
 10
-4.16840843E+02
 20
-3.16500000E+02
 40
6.84084702E+00
 50
3.33989137E+02
 51
2.60107913E+01
  0
CIRCLE
  8
0
 62
2
 10
-1.33999992E+02
 20
-1.24500000E+02
 40
6.57850027E+00
  0
ARC
  8
0
 62
7
 10
-2.10212425E+02
 20
-8.70251465E+01
 40
2.52511263E+00
 50
4.65209375E+01
 51
1.06521820E+02
  0
CIRCLE
  8
0
 62
7
 10
-1.33999992E+02
 20
-1.24500000E+02
 40
5.65999985E+00
  0
CIRCLE
  8
0
 62
7
 10
-1.33999992E+02
 20
-1.24500000E+02
 40
7.00000048E+00
  0
ARC
  8
0
 62
7
 10
-1.99787437E+02
 20
-8.70251465E+01
 40
2.52511263E+00
 50
7.34780821E+01
 51
1.33478944E+02
  0
ARC
  8
0
 62
7
 10
-2.04999901E+02
 20
-1.85438873E+02
 40
9.06113625E+00
 50
2.47449035E+02
 51
2.92550946E+02
  0
ARC
  8
0
 62
7
 10
-1.99787437E+02
 20
-1.91974884E+02
 40
2.52511263E+00
 50
2.26520987E+02
 51
2.86521856E+02
  0
ARC
  8
0
 62
7
 10
-2.10212425E+02
 20
-1.91974884E+02
 40
2.52511263E+00
 50
2.53478125E+02
 51
3.13479008E+02
  0
ARC
  8
0
 62
7
 10
-2.04999901E+02
 20
-9.35611877E+01
 40
9.06113625E+00
 50
6.74489921E+01
 51
1.12550903E+02
  0
CIRCLE
  8
0
 62
7
 10
7.69999008E+01
 20
-2.91499939E+02
 40
3.32000017E+00
  0
CIRCLE
  8
0
 62
7
 10
1.33000038E+02
 20
-2.91499939E+02
 40
3.32000017E+00
  0
ARC
  8
0
 62
7
 10
1.01499977E+02
 20
-2.85999985E+02
 40
1.00000000E+00
 50
1.38590371E+02
 51
1.80000005E+02
  0
ARC
  8
0
 62
7
 10
8.64999924E+01
 20
-2.94063492E+02
 40
1.00000000E+00
 50
1.79999991E+02
 51
2.55521639E+02
  0
ARC
  8
0
 62
7
 10
8.59999924E+01
 20
-2.95999969E+02
 40
1.00000000E+00
 50
3.59721781E-05
 51
7.55225284E+01
  0
ARC
  8
0
 62
7
 10
9.99999771E+01
 20
-2.95999969E+02
 40
1.00000000E+00
 50
1.04477503E+02
 51
1.80000005E+02
  0
ARC
  8
0
 62
7
 10
9.94999771E+01
 20
-2.94063492E+02
 40
1.00000000E+00
 50
2.84478387E+02
 51
3.59721781E-05
  0
ARC
  8
0
 62
7
 10
1.17541603E+02
 20
-2.85999985E+02
 40
1.00000000E+00
 50
3.59721781E-05
 51
9.00000162E+01
  0
ARC
  8
0
 62
7
 10
1.19541603E+02
 20
-2.97000000E+02
 40
1.00000000E+00
 50
1.79999991E+02
 51
2.69999974E+02
  0
CIRCLE
  8
0
 62
2
 10
1.33000038E+02
 20
-2.91499939E+02
 40
4.00000000E+00
  0
ARC
  8
0
 62
7
 10
1.04999977E+02
 20
-3.19500000E+02
 40
1.90000000E+01
 50
0.00000000E+00
 51
1.80000000E+02
  0
ARC
  8
0
 62
7
 10
1.38500038E+02
 20
-3.06499924E+02
 40
1.00000000E+00
 50
3.59999995E+02
 51
8.99982676E+01
  0
ARC
  8
0
 62
7
 10
1.38500130E+02
 20
-3.01999939E+02
 40
3.50000000E+00
 50
1.79999991E+02
 51
2.69998990E+02
  0
ARC
  8
0
 62
7
 10
1.34022194E+02
 20
-3.00944809E+02
 40
1.00000000E+00
 50
5.67452970E+00
 51
9.61763105E+01
  0
ARC
  8
0
 62
7
 10
1.33000038E+02
 20
-2.91499969E+02
 40
8.50000000E+00
 50
1.73823329E+02
 51
2.76176459E+02
  0
ARC
  8
0
 62
7
 10
1.18000038E+02
 20
-2.85999985E+02
 40
1.00000000E+00
 50
1.72985911E-03
 51
9.00000162E+01
  0
ARC
  8
0
 62
7
 10
1.22500038E+02
 20
-2.85999878E+02
 40
3.50000000E+00
 50
1.80001006E+02
 51
2.69999984E+02
  0
ARC
  8
0
 62
7
 10
1.23555153E+02
 20
-2.90477829E+02
 40
1.00000000E+00
 50
3.53823687E+02
 51
8.43254881E+01
  0
ARC
  8
0
 62
7
 10
7.14999924E+01
 20
-3.06499924E+02
 40
1.00000000E+00
 50
9.00017511E+01
 51
1.80000019E+02
  0
ARC
  8
0
 62
7
 10
7.59778366E+01
 20
-3.00944809E+02
 40
1.00000000E+00
 50
8.38236945E+01
 51
1.74325484E+02
  0
ARC
  8
0
 62
7
 10
7.14998398E+01
 20
-3.01999939E+02
 40
3.50000000E+00
 50
2.70000995E+02
 51
1.86693353E-05
  0
ARC
  8
0
 62
7
 10
8.64447861E+01
 20
-2.90477829E+02
 40
1.00000000E+00
 50
9.56743599E+01
 51
1.86177214E+02
  0
ARC
  8
0
 62
7
 10
9.19998703E+01
 20
-2.85999985E+02
 40
1.00000000E+00
 50
9.00000437E+01
 51
1.79998229E+02
  0
ARC
  8
0
 62
7
 10
8.74998550E+01
 20
-2.85999847E+02
 40
3.50000000E+00
 50
2.69999984E+02
 51
3.59998489E+02
  0
ARC
  8
0
 62
7
 10
9.99999771E+01
 20
-2.85999985E+02
 40
1.00000000E+00
 50
3.59721781E-05
 51
9.00000162E+01
  0
ARC
  8
0
 62
7
 10
9.99999771E+01
 20
-3.00135086E+02
 40
1.00000000E+00
 50
1.79999991E+02
 51
2.84477515E+02
  0
ARC
  8
0
 62
7
 10
1.01000008E+02
 20
-2.99904083E+02
 40
1.00000000E+00
 50
2.81537649E+02
 51
1.86693353E-05
  0
CIRCLE
  8
0
 62
7
 10
7.69999008E+01
 20
-2.91499969E+02
 40
6.00000000E+00
  0
ARC
  8
0
 62
7
 10
7.14999924E+01
 20
-2.85999985E+02
 40
4.00000000E+00
 50
9.00000162E+01
 51
1.80000005E+02
  0
ARC
  8
0
 62
7
 10
8.51002579E+01
 20
-3.17500008E+02
 40
1.00000000E+00
 50
2.70000038E+02
 51
3.54260543E+02
  0
ARC
  8
0
 62
7
 10
7.14999924E+01
 20
-3.17500008E+02
 40
1.00000000E+00
 50
1.79999991E+02
 51
2.70000028E+02
  0
ARC
  8
0
 62
7
 10
7.14999924E+01
 20
-2.85999985E+02
 40
3.50000000E+00
 50
9.00000162E+01
 51
1.80000005E+02
  0
ARC
  8
0
 62
7
 10
8.21526871E+01
 20
-2.99481110E+02
 40
1.00000000E+00
 50
4.50000423E+01
 51
1.22846758E+02
  0
ARC
  8
0
 62
7
 10
8.49811325E+01
 20
-2.96652695E+02
 40
1.00000000E+00
 50
1.47153844E+02
 51
2.25000010E+02
  0
ARC
  8
0
 62
7
 10
9.23429184E+01
 20
-3.04014526E+02
 40
1.00000000E+00
 50
2.25000000E+02
 51
3.09261001E+02
  0
ARC
  8
0
 62
7
 10
8.95145187E+01
 20
-3.06842941E+02
 40
1.00000000E+00
 50
3.20739045E+02
 51
4.50000423E+01
  0
CIRCLE
  8
0
 62
7
 10
7.69999008E+01
 20
-2.91499969E+02
 40
6.50000048E+00
  0
ARC
  8
0
 62
7
 10
1.28500008E+02
 20
-3.00499969E+02
 40
1.00000000E+00
 50
2.69999984E+02
 51
3.45522504E+02
  0
ARC
  8
0
 62
7
 10
1.30436501E+02
 20
-3.13999985E+02
 40
1.00000000E+00
 50
1.94477442E+02
 51
2.69999984E+02
  0
ARC
  8
0
 62
7
 10
1.28500008E+02
 20
-3.14500000E+02
 40
1.00000000E+00
 50
1.44774824E+01
 51
9.00000025E+01
  0
CIRCLE
  8
0
 62
7
 10
1.33000038E+02
 20
-2.91499939E+02
 40
6.00000000E+00
  0
CIRCLE
  8
0
 62
2
 10
7.69999008E+01
 20
-2.91499939E+02
 40
4.00000000E+00
  0
ARC
  8
0
 62
7
 10
1.38500038E+02
 20
-2.86000000E+02
 40
4.00000000E+00
 50
2.23117997E-05
 51
8.99999750E+01
  0
ARC
  8
0
 62
7
 10
1.24899757E+02
 20
-3.17500000E+02
 40
1.00000000E+00
 50
1.85739444E+02
 51
2.69999956E+02
  0
ARC
  8
0
 62
7
 10
1.38500008E+02
 20
-3.17500000E+02
 40
1.00000000E+00
 50
2.69999956E+02
 51
3.59999992E+02
  0
ARC
  8
0
 62
7
 10
1.02999977E+02
 20
-2.85999985E+02
 40
1.00000000E+00
 50
3.59721781E-05
 51
9.00000162E+01
  0
ARC
  8
0
 62
7
 10
1.02999977E+02
 20
-2.99600250E+02
 40
1.00000000E+00
 50
2.75739515E+02
 51
3.59721781E-05
  0
ARC
  8
0
 62
7
 10
1.06999977E+02
 20
-2.86000000E+02
 40
1.00000000E+00
 50
9.00000025E+01
 51
1.80000046E+02
  0
ARC
  8
0
 62
7
 10
1.38500038E+02
 20
-2.86000000E+02
 40
3.50000000E+00
 50
2.23117997E-05
 51
8.99999750E+01
  0
ARC
  8
0
 62
7
 10
7.69999008E+01
 20
-2.91499969E+02
 40
8.50000000E+00
 50
2.63823540E+02
 51
6.17668522E+00
  0
ARC
  8
0
 62
7
 10
1.06999977E+02
 20
-2.99600250E+02
 40
1.00000000E+00
 50
1.80000036E+02
 51
2.64260549E+02
  0
ARC
  8
0
 62
7
 10
1.17657021E+02
 20
-3.04014542E+02
 40
1.00000000E+00
 50
2.30739011E+02
 51
3.15000026E+02
  0
ARC
  8
0
 62
7
 10
1.20485481E+02
 20
-3.06842972E+02
 40
1.00000000E+00
 50
1.35000014E+02
 51
2.19261011E+02
  0
ARC
  8
0
 62
7
 10
1.30436501E+02
 20
-3.00999969E+02
 40
1.00000000E+00
 50
9.00000162E+01
 51
1.65522558E+02
  0
ARC
  8
0
 62
7
 10
1.38500038E+02
 20
-3.15999992E+02
 40
1.00000000E+00
 50
3.59999981E+02
 51
8.99999618E+01
  0
ARC
  8
0
 62
7
 10
1.25018867E+02
 20
-2.96652710E+02
 40
1.00000000E+00
 50
3.15000047E+02
 51
3.28467588E+01
  0
ARC
  8
0
 62
7
 10
1.27847267E+02
 20
-2.99481140E+02
 40
1.00000000E+00
 50
5.71538311E+01
 51
1.35000014E+02
  0
CIRCLE
  8
0
 62
7
 10
1.33000038E+02
 20
-2.91499939E+02
 40
6.50000048E+00
  0
CIRCLE
  8
0
 62
7
 10
-8.70000534E+01
 20
-1.51500000E+02
 40
5.00000000E+00
  0
ARC
  8
0
 62
7
 10
-2.56500023E+02
 20
-3.01000000E+02
 40
5.00000000E-01
 50
8.99999818E+01
 51
1.79999964E+02
  0
ARC
  8
0
 62
7
 10
-2.64750023E+02
 20
-3.02491440E+02
 40
2.50000000E-01
 50
9.19988230E+01
 51
1.79999977E+02
  0
ARC
  8
0
 62
7
 10
-2.69500023E+02
 20
-3.03000015E+02
 40
5.00000000E-01
 50
8.99999818E+01
 51
1.79999964E+02
  0
CIRCLE
  8
0
 62
7
 10
-8.70000534E+01
 20
-1.51500000E+02
 40
2.59999990E+00
  0
ARC
  8
0
 62
2
 10
-9.40000839E+01
 20
-1.31500000E+02
 40
8.32999992E+00
 50
6.88902342E+01
 51
5.35366168E+01
  0
ARC
  8
0
 62
7
 10
-4.65000023E+02
 20
-3.19500000E+02
 40
1.70000000E+01
 50
0.00000000E+00
 51
1.80000000E+02
  0
ARC
  8
0
 62
7
 10
-4.65000023E+02
 20
-3.19500000E+02
 40
1.90000000E+01
 50
0.00000000E+00
 51
1.80000000E+02
  0
ARC
  8
0
 62
7
 10
-4.65000023E+02
 20
-3.19500000E+02
 40
1.75294495E+01
 50
0.00000000E+00
 51
1.80000000E+02
  0
ARC
  8
0
 62
7
 10
-1.05999992E+02
 20
-1.62500031E+02
 40
2.00000000E+00
 50
1.79999977E+02
 51
2.70000028E+02
  0
ARC
  8
0
 62
7
 10
-1.05999992E+02
 20
-1.16500000E+02
 40
2.00000000E+00
 50
8.99999818E+01
 51
1.79999964E+02
  0
ARC
  8
0
 62
7
 10
-9.40000839E+01
 20
-1.31500000E+02
 40
7.44000006E+00
 50
6.62191812E+01
 51
6.42163030E+01
  0
ARC
  8
0
 62
7
 10
-9.40000839E+01
 20
-1.31500000E+02
 40
8.71000004E+00
 50
6.98522063E+01
 51
5.02775825E+01
  0
ARC
  8
0
 62
7
 10
-2.56500023E+02
 20
-1.21000000E+02
 40
5.00000000E-01
 50
8.99999818E+01
 51
1.79999964E+02
  0
ARC
  8
0
 62
7
 10
-2.64750023E+02
 20
-1.22491486E+02
 40
2.50000000E-01
 50
9.19988230E+01
 51
1.79999977E+02
  0
ARC
  8
0
 62
7
 10
-2.69500023E+02
 20
-1.23000061E+02
 40
5.00000000E-01
 50
8.99999818E+01
 51
1.79999964E+02
  0
ARC
  8
0
 62
7
 10
-2.56500023E+02
 20
-1.58000031E+02
 40
5.00000000E-01
 50
1.79999977E+02
 51
2.69999974E+02
  0
ARC
  8
0
 62
7
 10
-2.64750023E+02
 20
-1.56508545E+02
 40
2.50000000E-01
 50
1.79999977E+02
 51
2.68001132E+02
  0
ARC
  8
0
 62
7
 10
-2.69500023E+02
 20
-1.55999969E+02
 40
5.00000000E-01
 50
1.79999977E+02
 51
2.69999974E+02
  0
ARC
  8
0
 62
7
 10
-2.81499992E+02
 20
-3.19500000E+02
 40
9.99998474E+00
 50
0.00000000E+00
 51
3.17883527E+01
  0
ARC
  8
0
 62
2
 10
-4.65000023E+02
 20
-3.19500000E+02
 40
8.18000031E+00
 50
0.00000000E+00
 51
1.80000000E+02
  0
ARC
  8
0
 62
7
 10
-4.65000023E+02
 20
-3.19500000E+02
 40
8.99999237E+00
 50
0.00000000E+00
 51
1.80000000E+02
  0
LINE
  8
0
 62
7
 10
1.53499856E+02
 20
-3.19500000E+02
 11
1.53499856E+02
 21
-3.11500000E+02
  0
LINE
  8
0
 62
7
 10
-5.05000023E+02
 20
-2.87386749E+02
 11
-5.05000023E+02
 21
-2.81613251E+02
  0
LINE
  8
0
 62
7
 10
-5.04999988E+02
 20
-2.81613133E+02
 11
-4.99999987E+02
 21
-2.78726392E+02
  0
LINE
  8
0
 62
7
 10
-4.99999947E+02
 20
-2.78726518E+02
 11
-4.94999893E+02
 21
-2.81613289E+02
  0
LINE
  8
0
 62
7
 10
-4.95000023E+02
 20
-2.81613251E+02
 11
-4.95000023E+02
 21
-2.87386749E+02
  0
LINE
  8
0
 62
7
 10
-4.99999941E+02
 20
-2.90273501E+02
 11
-4.94999940E+02
 21
-2.87386760E+02
  0
LINE
  8
0
 62
7
 10
-5.05000039E+02
 20
-2.87386719E+02
 11
-5.00000038E+02
 21
-2.90273460E+02
  0
LINE
  8
0
  6
CENTER
 62
2
 10
-4.99999962E+02
 20
-2.98577637E+02
 11
-4.99999962E+02
 21
-2.69392944E+02
  0
LINE
  8
0
  6
CENTER
 62
2
 10
-4.86515892E+02
 20
-2.84500000E+02
 11
-5.15052513E+02
 21
-2.84500000E+02
  0
LINE
  8
0
 62
7
 10
-4.24999962E+02
 20
-2.87386749E+02
 11
-4.24999962E+02
 21
-2.81613251E+02
  0
LINE
  8
0
 62
7
 10
-4.24999943E+02
 20
-2.81613233E+02
 11
-4.29999944E+02
 21
-2.78726492E+02
  0
LINE
  8
0
 62
7
 10
-4.29999919E+02
 20
-2.78726468E+02
 11
-4.34999920E+02
 21
-2.81613209E+02
  0
LINE
  8
0
 62
7
 10
-4.35000023E+02
 20
-2.81613251E+02
 11
-4.35000023E+02
 21
-2.87386749E+02
  0
LINE
  8
0
 62
7
 10
-4.30000019E+02
 20
-2.90273408E+02
 11
-4.35000021E+02
 21
-2.87386667E+02
  0
LINE
  8
0
 62
7
 10
-4.24999986E+02
 20
-2.87386761E+02
 11
-4.29999987E+02
 21
-2.90273502E+02
  0
LINE
  8
0
  6
CENTER
 62
2
 10
-4.29999901E+02
 20
-2.98577637E+02
 11
-4.29999901E+02
 21
-2.69392944E+02
  0
LINE
  8
0
  6
CENTER
 62
2
 10
-4.43484093E+02
 20
-2.84500000E+02
 11
-4.14947472E+02
 21
-2.84500000E+02
  0
LINE
  8
0
 62
7
 10
-4.17999962E+02
 20
-2.76500000E+02
 11
-4.17999962E+02
 21
-3.19500000E+02
  0
LINE
  8
0
 62
7
 10
-5.12000023E+02
 20
-2.76500000E+02
 11
-5.12000023E+02
 21
-3.19500000E+02
  0
LINE
  8
0
 62
7
 10
-5.08000023E+02
 20
-2.72500000E+02
 11
-4.21999962E+02
 21
-2.72500000E+02
  0
LINE
  8
0
  6
CENTER
 62
2
 10
-2.59881432E+02
 20
-1.04499969E+02
 11
-1.06211662E+02
 21
-1.04499969E+02
  0
LINE
  8
0
 62
7
 10
-2.19999992E+02
 20
-1.08999969E+02
 11
-1.46999962E+02
 21
-1.08999969E+02
  0
LINE
  8
0
 62
7
 10
-2.19999992E+02
 20
-9.99999695E+01
 11
-1.46999962E+02
 21
-9.99999695E+01
  0
LINE
  8
0
 62
7
 10
-1.46999962E+02
 20
-2.72500000E+02
 11
-1.46999962E+02
 21
-3.19500000E+02
  0
LINE
  8
0
 62
7
 10
-2.19999992E+02
 20
-2.72500000E+02
 11
-2.19999992E+02
 21
-3.19500000E+02
  0
LINE
  8
0
 62
7
 10
-2.55000023E+02
 20
-2.72500000E+02
 11
-2.19999992E+02
 21
-2.72500000E+02
  0
LINE
  8
0
 62
7
 10
-1.46999962E+02
 20
-2.72500000E+02
 11
-1.11999992E+02
 21
-2.72500000E+02
  0
LINE
  8
0
 62
7
 10
-2.19999992E+02
 20
-2.76000000E+02
 11
-1.46999992E+02
 21
-2.76000000E+02
  0
LINE
  8
0
 62
7
 10
-1.11999992E+02
 20
-2.72500000E+02
 11
-1.11999992E+02
 21
-3.19500000E+02
  0
LINE
  8
0
 62
7
 10
-2.19999992E+02
 20
-1.79000000E+02
 11
-1.46999962E+02
 21
-1.79000000E+02
  0
LINE
  8
0
 62
7
 10
-2.19999992E+02
 20
-1.70000000E+02
 11
-1.46999962E+02
 21
-1.70000000E+02
  0
LINE
  8
0
  6
CENTER
 62
2
 10
-2.59881432E+02
 20
-1.74500000E+02
 11
-1.06211662E+02
 21
-1.74500000E+02
  0
LINE
  8
0
 62
7
 10
-2.19999992E+02
 20
-2.80000000E+02
 11
-1.46999962E+02
 21
-2.80000000E+02
  0
LINE
  8
0
 62
7
 10
-2.19999992E+02
 20
-2.89000000E+02
 11
-1.46999962E+02
 21
-2.89000000E+02
  0
LINE
  8
0
 62
7
 10
-2.01536060E+02
 20
-3.13500132E+02
 11
-1.98071983E+02
 21
-3.19500098E+02
  0
LINE
  8
0
 62
7
 10
5.64999771E+01
 20
-3.13500031E+02
 11
4.99999771E+01
 21
-3.13500031E+02
  0
LINE
  8
0
  6
CENTER
 62
2
 10
1.04999977E+02
 20
-2.66931366E+02
 11
1.04999977E+02
 21
-3.19500000E+02
  0
LINE
  8
0
 62
7
 10
1.61999786E+02
 20
-3.16200259E+02
 11
1.61299725E+02
 21
-3.15500198E+02
  0
LINE
  8
0
 62
7
 10
5.79999161E+01
 20
-2.76500000E+02
 11
5.79999161E+01
 21
-3.19500000E+02
  0
LINE
  8
0
 62
7
 10
-2.08464298E+02
 20
-3.13499907E+02
 11
-2.11928402E+02
 21
-3.19499919E+02
  0
LINE
  8
0
 62
7
 10
-2.04999913E+02
 20
-3.17190647E+02
 11
-2.06999875E+02
 21
-3.18345325E+02
  0
LINE
  8
0
 62
7
 10
-2.02999917E+02
 20
-3.18345170E+02
 11
-2.04999904E+02
 21
-3.17190476E+02
  0
LINE
  8
0
  6
CENTER
 62
2
 10
-2.59881432E+02
 20
-2.84500000E+02
 11
-1.06211662E+02
 21
-2.84500000E+02
  0
LINE
  8
0
  6
CENTER
 62
2
 10
1.64957253E+02
 20
-3.19500000E+02
 11
4.46137466E+01
 21
-3.19500000E+02
  0
LINE
  8
0
 62
7
 10
5.64999771E+01
 20
-3.19500000E+02
 11
5.06927872E+01
 21
-3.19500000E+02
  0
LINE
  8
0
 62
7
 10
4.79999106E+01
 20
-3.16199958E+02
 11
4.86999394E+01
 21
-3.15499929E+02
  0
LINE
  8
0
 62
7
 10
4.86999283E+01
 20
-3.19500000E+02
 11
4.86999283E+01
 21
-3.15500000E+02
  0
LINE
  8
0
 62
2
 10
4.99999161E+01
 20
-3.16200012E+02
 11
4.80000381E+01
 21
-3.16200012E+02
  0
LINE
  8
0
 62
7
 10
4.99999161E+01
 20
-3.15500031E+02
 11
4.87000504E+01
 21
-3.15500031E+02
  0
LINE
  8
0
 62
7
 10
4.99999161E+01
 20
-3.19500000E+02
 11
4.99999161E+01
 21
-3.13500000E+02
  0
LINE
  8
0
 62
7
 10
4.79999771E+01
 20
-3.19500000E+02
 11
4.79999771E+01
 21
-3.16200012E+02
  0
LINE
  8
0
 62
7
 10
5.79999161E+01
 20
-3.11500031E+02
 11
5.64999771E+01
 21
-3.11500031E+02
  0
LINE
  8
0
 62
7
 10
5.64998550E+01
 20
-3.19500000E+02
 11
5.64998550E+01
 21
-3.11500000E+02
  0
LINE
  8
0
 62
7
 10
1.51999978E+02
 20
-2.76500000E+02
 11
1.51999978E+02
 21
-3.19500000E+02
  0
LINE
  8
0
 62
7
 10
1.47999977E+02
 20
-2.72500000E+02
 11
1.30110226E+02
 21
-2.72500000E+02
  0
LINE
  8
0
 62
7
 10
1.61300026E+02
 20
-3.19500000E+02
 11
1.61300026E+02
 21
-3.15500000E+02
  0
LINE
  8
0
 62
2
 10
1.59999977E+02
 20
-3.16200012E+02
 11
1.61999977E+02
 21
-3.16200012E+02
  0
LINE
  8
0
 62
7
 10
1.59999977E+02
 20
-3.15500031E+02
 11
1.61300026E+02
 21
-3.15500031E+02
  0
LINE
  8
0
 62
7
 10
1.62000038E+02
 20
-3.19500000E+02
 11
1.62000038E+02
 21
-3.16200012E+02
  0
LINE
  8
0
 62
7
 10
1.59999977E+02
 20
-3.19500000E+02
 11
1.59999977E+02
 21
-3.13500000E+02
  0
LINE
  8
0
 62
7
 10
-1.11999992E+02
 20
-1.86500000E+02
 11
-1.11999992E+02
 21
-9.25000305E+01
  0
LINE
  8
0
 62
7
 10
1.53499917E+02
 20
-3.19500000E+02
 11
1.59307106E+02
 21
-3.19500000E+02
  0
LINE
  8
0
 62
7
 10
-2.01535851E+02
 20
-3.13500000E+02
 11
-2.08464073E+02
 21
-3.13500000E+02
  0
LINE
  8
0
 62
7
 10
-2.19999992E+02
 20
-9.60000305E+01
 11
-1.46999992E+02
 21
-9.60000305E+01
  0
LINE
  8
0
 62
7
 10
-2.55000023E+02
 20
-2.72500000E+02
 11
-2.55000023E+02
 21
-3.19500000E+02
  0
LINE
  8
0
 62
7
 10
-2.55000023E+02
 20
-9.25000305E+01
 11
-2.55000023E+02
 21
-1.86500000E+02
  0
LINE
  8
0
 62
7
 10
-1.46999962E+02
 20
-9.25000305E+01
 11
-1.11999992E+02
 21
-9.25000305E+01
  0
LINE
  8
0
 62
7
 10
-2.55000023E+02
 20
-9.25000305E+01
 11
-2.19999992E+02
 21
-9.25000305E+01
  0
LINE
  8
0
 62
7
 10
-2.55000023E+02
 20
-1.86500000E+02
 11
-2.19999992E+02
 21
-1.86500000E+02
  0
LINE
  8
0
 62
7
 10
-2.19999992E+02
 20
-9.25000305E+01
 11
-2.19999992E+02
 21
-1.86500000E+02
  0
LINE
  8
0
 62
7
 10
-1.46999962E+02
 20
-9.25000305E+01
 11
-1.46999962E+02
 21
-1.86500000E+02
  0
LINE
  8
0
 62
7
 10
-1.46999962E+02
 20
-1.86500000E+02
 11
-1.11999992E+02
 21
-1.86500000E+02
  0
LINE
  8
0
 62
7
 10
-2.19999992E+02
 20
-1.83000031E+02
 11
-1.46999992E+02
 21
-1.83000031E+02
  0
LINE
  8
0
  6
CENTER
 62
2
 10
-3.23156761E+02
 20
-1.39500000E+02
 11
-7.59999860E+01
 21
-1.39500000E+02
  0
LINE
  8
0
 62
7
 10
-5.21999830E+02
 20
-3.16200238E+02
 11
-5.21299801E+02
 21
-3.15500209E+02
  0
LINE
  8
0
 62
2
 10
-5.20000023E+02
 20
-3.16200012E+02
 11
-5.22000023E+02
 21
-3.16200012E+02
  0
LINE
  8
0
 62
7
 10
-5.21300072E+02
 20
-3.19500000E+02
 11
-5.21300072E+02
 21
-3.15500000E+02
  0
LINE
  8
0
 62
7
 10
-4.07999948E+02
 20
-3.16199954E+02
 11
-4.08699977E+02
 21
-3.15499925E+02
  0
LINE
  8
0
  6
CENTER
 62
2
 10
-2.04999901E+02
 20
-9.78886108E+01
 11
-2.04999901E+02
 21
-8.09123840E+01
  0
LINE
  8
0
 62
7
 10
-5.13499901E+02
 20
-3.19500000E+02
 11
-5.13499901E+02
 21
-3.11500000E+02
  0
LINE
  8
0
 62
7
 10
-4.08699974E+02
 20
-3.19500000E+02
 11
-4.08699974E+02
 21
-3.15500000E+02
  0
LINE
  8
0
 62
2
 10
-4.09999962E+02
 20
-3.16200012E+02
 11
-4.08000084E+02
 21
-3.16200012E+02
  0
LINE
  8
0
 62
7
 10
-4.09999962E+02
 20
-3.15500031E+02
 11
-4.08700096E+02
 21
-3.15500031E+02
  0
LINE
  8
0
 62
7
 10
-2.29999962E+02
 20
-1.22767944E+02
 11
-2.29999962E+02
 21
-1.26232056E+02
  0
LINE
  8
0
 62
7
 10
-2.30000596E+02
 20
-1.26231050E+02
 11
-2.33000608E+02
 21
-1.27963098E+02
  0
LINE
  8
0
 62
7
 10
-2.32999928E+02
 20
-1.27963874E+02
 11
-2.35999941E+02
 21
-1.26231827E+02
  0
LINE
  8
0
 62
7
 10
-2.35999962E+02
 20
-1.26232056E+02
 11
-2.35999962E+02
 21
-1.22767944E+02
  0
LINE
  8
0
 62
7
 10
-2.33000599E+02
 20
-1.21034830E+02
 11
-2.36000612E+02
 21
-1.22766878E+02
  0
LINE
  8
0
 62
7
 10
-2.29999889E+02
 20
-1.22767745E+02
 11
-2.32999849E+02
 21
-1.21035727E+02
  0
LINE
  8
0
 62
7
 10
-5.20000023E+02
 20
-3.15500031E+02
 11
-5.21300072E+02
 21
-3.15500031E+02
  0
LINE
  8
0
  6
CENTER
 62
2
 10
-2.04999992E+02
 20
-3.08159912E+02
 11
-2.04999992E+02
 21
-3.19500000E+02
  0
LINE
  8
0
 62
7
 10
-2.02999962E+02
 20
-3.18345154E+02
 11
-2.02999962E+02
 21
-3.19500000E+02
  0
LINE
  8
0
 62
7
 10
-2.06999962E+02
 20
-3.19500000E+02
 11
-2.06999962E+02
 21
-3.18345306E+02
  0
LINE
  8
0
 62
7
 10
-4.08000023E+02
 20
-3.19500000E+02
 11
-4.08000023E+02
 21
-3.16200012E+02
  0
LINE
  8
0
  6
CENTER
 62
2
 10
-2.04999901E+02
 20
-1.81021729E+02
 11
-2.04999901E+02
 21
-1.99587646E+02
  0
LINE
  8
0
  6
CENTER
 62
2
 10
-2.33000023E+02
 20
-1.15221039E+02
 11
-2.33000023E+02
 21
-1.33786804E+02
  0
LINE
  8
0
  6
CENTER
 62
2
 10
-2.42059898E+02
 20
-1.24500000E+02
 11
-2.23715080E+02
 21
-1.24500000E+02
  0
LINE
  8
0
 62
7
 10
-5.22000084E+02
 20
-3.19500000E+02
 11
-5.22000084E+02
 21
-3.16200012E+02
  0
LINE
  8
0
 62
7
 10
-5.20000023E+02
 20
-3.19500000E+02
 11
-5.20000023E+02
 21
-3.13500000E+02
  0
LINE
  8
0
 62
7
 10
-4.17999962E+02
 20
-3.11500031E+02
 11
-4.16500023E+02
 21
-3.11500031E+02
  0
LINE
  8
0
 62
7
 10
-4.09999962E+02
 20
-3.19500000E+02
 11
-4.09999962E+02
 21
-3.13500000E+02
  0
LINE
  8
0
 62
7
 10
-4.16499901E+02
 20
-3.19500000E+02
 11
-4.16499901E+02
 21
-3.11500000E+02
  0
LINE
  8
0
 62
7
 10
-4.16500023E+02
 20
-3.19500000E+02
 11
-4.10692833E+02
 21
-3.19500000E+02
  0
LINE
  8
0
 62
7
 10
-5.13499962E+02
 20
-3.13500031E+02
 11
-5.20000023E+02
 21
-3.13500031E+02
  0
LINE
  8
0
  6
CENTER
 62
2
 10
-5.24957298E+02
 20
-3.19500000E+02
 11
-4.04613792E+02
 21
-3.19500000E+02
  0
LINE
  8
0
 62
7
 10
-5.12000023E+02
 20
-3.11500031E+02
 11
-5.13499962E+02
 21
-3.11500031E+02
  0
LINE
  8
0
 62
7
 10
-5.13499962E+02
 20
-3.19500000E+02
 11
-5.19307152E+02
 21
-3.19500000E+02
  0
LINE
  8
0
 62
7
 10
-4.16500023E+02
 20
-3.13500031E+02
 11
-4.10000023E+02
 21
-3.13500031E+02
  0
LINE
  8
0
 62
7
 10
1.51999978E+02
 20
-3.11500031E+02
 11
1.53499917E+02
 21
-3.11500031E+02
  0
LINE
  8
0
 62
7
 10
-2.08474937E+02
 20
-9.10000305E+01
 11
-2.08474937E+02
 21
-8.51928406E+01
  0
LINE
  8
0
 62
7
 10
-2.01699881E+02
 20
-8.24999948E+01
 11
-2.00999895E+02
 21
-8.31999804E+01
  0
LINE
  8
0
 62
7
 10
-2.08999774E+02
 20
-8.32001962E+01
 11
-2.08299756E+02
 21
-8.25001782E+01
  0
LINE
  8
0
 62
7
 10
-2.08999931E+02
 20
-8.32000427E+01
 11
-2.00999931E+02
 21
-8.32000427E+01
  0
LINE
  8
0
 62
2
 10
-2.01699913E+02
 20
-8.45000305E+01
 11
-2.01699913E+02
 21
-8.25000305E+01
  0
LINE
  8
0
 62
2
 10
-2.08299950E+02
 20
-8.45000305E+01
 11
-2.08299950E+02
 21
-8.25000305E+01
  0
LINE
  8
0
 62
7
 10
-2.00999931E+02
 20
-8.45000305E+01
 11
-2.00999931E+02
 21
-8.32000427E+01
  0
LINE
  8
0
 62
7
 10
-2.08999962E+02
 20
-8.45000305E+01
 11
-2.08999962E+02
 21
-8.32000427E+01
  0
LINE
  8
0
 62
7
 10
-2.01524925E+02
 20
-9.10000305E+01
 11
-2.01524925E+02
 21
-8.51928406E+01
  0
LINE
  8
0
 62
7
 10
1.53499917E+02
 20
-3.13500031E+02
 11
1.59999977E+02
 21
-3.13500031E+02
  0
LINE
  8
0
 62
7
 10
-2.11949809E+02
 20
-8.51931445E+01
 11
-2.10749801E+02
 21
-8.45003192E+01
  0
LINE
  8
0
 62
7
 10
-1.99249926E+02
 20
-8.45001553E+01
 11
-1.98049944E+02
 21
-8.51929654E+01
  0
LINE
  8
0
 62
7
 10
-2.11949913E+02
 20
-9.10000305E+01
 11
-2.11949913E+02
 21
-8.51928406E+01
  0
LINE
  8
0
 62
7
 10
-1.98049919E+02
 20
-9.10000305E+01
 11
-1.98049919E+02
 21
-8.51928406E+01
  0
LINE
  8
0
 62
7
 10
-2.10749931E+02
 20
-8.45000305E+01
 11
-1.99249931E+02
 21
-8.45000305E+01
  0
LINE
  8
0
 62
7
 10
-2.08299950E+02
 20
-8.25000305E+01
 11
-2.01699944E+02
 21
-8.25000305E+01
  0
LINE
  8
0
 62
7
 10
-2.12999931E+02
 20
-9.60000305E+01
 11
-2.12999931E+02
 21
-9.10000305E+01
  0
LINE
  8
0
  6
CENTER
 62
2
 10
-4.65000023E+02
 20
-2.70536865E+02
 11
-4.65000023E+02
 21
-3.19500000E+02
  0
LINE
  8
0
 62
7
 10
-1.96999962E+02
 20
-9.60000305E+01
 11
-1.96999962E+02
 21
-9.10000305E+01
  0
LINE
  8
0
 62
7
 10
-2.12999931E+02
 20
-9.10000305E+01
 11
-1.96999962E+02
 21
-9.10000305E+01
  0
LINE
  8
0
 62
7
 10
-2.01699803E+02
 20
-1.96500124E+02
 11
-2.00999806E+02
 21
-1.95800127E+02
  0
LINE
  8
0
 62
7
 10
-2.08999944E+02
 20
-1.95799912E+02
 11
-2.08299959E+02
 21
-1.96499897E+02
  0
LINE
  8
0
 62
7
 10
-2.08999931E+02
 20
-1.95800018E+02
 11
-2.00999931E+02
 21
-1.95800018E+02
  0
LINE
  8
0
 62
2
 10
-2.01699913E+02
 20
-1.94500000E+02
 11
-2.01699913E+02
 21
-1.96500000E+02
  0
LINE
  8
0
 62
2
 10
-2.08299950E+02
 20
-1.94500000E+02
 11
-2.08299950E+02
 21
-1.96500000E+02
  0
LINE
  8
0
 62
7
 10
-2.00999931E+02
 20
-1.94500000E+02
 11
-2.00999931E+02
 21
-1.95799988E+02
  0
LINE
  8
0
 62
7
 10
-2.08999962E+02
 20
-1.94500000E+02
 11
-2.08999962E+02
 21
-1.95799988E+02
  0
LINE
  8
0
 62
7
 10
-2.01524925E+02
 20
-1.88000000E+02
 11
-2.01524925E+02
 21
-1.93807159E+02
  0
LINE
  8
0
 62
7
 10
-2.08474937E+02
 20
-1.88000000E+02
 11
-2.08474937E+02
 21
-1.93807159E+02
  0
LINE
  8
0
 62
7
 10
-2.11949973E+02
 20
-1.93807215E+02
 11
-2.10749990E+02
 21
-1.94500026E+02
  0
LINE
  8
0
 62
7
 10
-1.99249806E+02
 20
-1.94500312E+02
 11
-1.98049797E+02
 21
-1.93807487E+02
  0
LINE
  8
0
 62
7
 10
-2.11949913E+02
 20
-1.88000000E+02
 11
-2.11949913E+02
 21
-1.93807159E+02
  0
LINE
  8
0
 62
7
 10
-1.98049919E+02
 20
-1.88000000E+02
 11
-1.98049919E+02
 21
-1.93807159E+02
  0
LINE
  8
0
 62
7
 10
-2.10749931E+02
 20
-1.94500000E+02
 11
-1.99249931E+02
 21
-1.94500000E+02
  0
LINE
  8
0
 62
7
 10
-2.08299950E+02
 20
-1.96500000E+02
 11
-2.01699944E+02
 21
-1.96500000E+02
  0
LINE
  8
0
 62
7
 10
-2.12999931E+02
 20
-1.83000031E+02
 11
-2.12999931E+02
 21
-1.88000000E+02
  0
LINE
  8
0
 62
7
 10
-1.96999962E+02
 20
-1.83000031E+02
 11
-1.96999962E+02
 21
-1.88000000E+02
  0
LINE
  8
0
 62
7
 10
-2.12999931E+02
 20
-1.88000000E+02
 11
-1.96999962E+02
 21
-1.88000000E+02
  0
LINE
  8
0
  6
CENTER
 62
2
 10
-1.33999992E+02
 20
-2.86739807E+02
 11
-1.33999992E+02
 21
-2.70951233E+02
  0
LINE
  8
0
  6
CENTER
 62
2
 10
-3.22416832E+02
 20
-3.19500000E+02
 11
-3.25110100E+01
 21
-3.19500000E+02
  0
LINE
  8
0
  6
CENTER
 62
2
 10
-1.44116722E+02
 20
-1.24500000E+02
 11
-1.24051537E+02
 21
-1.24500000E+02
  0
LINE
  8
0
  6
CENTER
 62
2
 10
-1.33999992E+02
 20
-1.34515778E+02
 11
-1.33999992E+02
 21
-1.14355774E+02
  0
LINE
  8
0
 62
7
 10
7.69999096E+01
 20
-2.86881136E+02
 11
8.09999120E+01
 21
-2.89190538E+02
  0
LINE
  8
0
 62
7
 10
8.09999008E+01
 20
-2.89190536E+02
 11
8.09999008E+01
 21
-2.93809326E+02
  0
LINE
  8
0
 62
7
 10
8.09999109E+01
 20
-2.93809330E+02
 11
7.69999085E+01
 21
-2.96118733E+02
  0
LINE
  8
0
 62
7
 10
7.69999120E+01
 20
-2.96118741E+02
 11
7.29999096E+01
 21
-2.93809339E+02
  0
LINE
  8
0
 62
7
 10
7.29999008E+01
 20
-2.89190536E+02
 11
7.29999008E+01
 21
-2.93809326E+02
  0
LINE
  8
0
 62
7
 10
7.69999185E+01
 20
-2.86881140E+02
 11
7.29999162E+01
 21
-2.89190543E+02
  0
LINE
  8
0
 62
7
 10
1.29000038E+02
 20
-2.89190536E+02
 11
1.29000038E+02
 21
-2.93809326E+02
  0
LINE
  8
0
 62
7
 10
1.33000053E+02
 20
-2.86881132E+02
 11
1.29000050E+02
 21
-2.89190535E+02
  0
LINE
  8
0
  6
CENTER
 62
2
 10
8.76305161E+01
 20
-2.91499939E+02
 11
6.50975571E+01
 21
-2.91499939E+02
  0
LINE
  8
0
 62
7
 10
7.49997787E+01
 20
-3.01999939E+02
 11
7.49997787E+01
 21
-3.00736206E+02
  0
LINE
  8
0
 62
7
 10
8.74998550E+01
 20
-2.89499756E+02
 11
8.62364273E+01
 21
-2.89499756E+02
  0
LINE
  8
0
 62
7
 10
1.35000252E+02
 20
-3.01999939E+02
 11
1.35000252E+02
 21
-3.00736343E+02
  0
LINE
  8
0
 62
7
 10
1.22500038E+02
 20
-2.89499786E+02
 11
1.23763588E+02
 21
-2.89499786E+02
  0
LINE
  8
0
 62
7
 10
7.14999924E+01
 20
-2.81999969E+02
 11
1.38500038E+02
 21
-2.81999969E+02
  0
LINE
  8
0
 62
7
 10
9.19998703E+01
 20
-2.84999969E+02
 11
1.18000038E+02
 21
-2.84999969E+02
  0
LINE
  8
0
 62
7
 10
8.54999619E+01
 20
-2.91499969E+02
 11
8.54999619E+01
 21
-2.94063492E+02
  0
LINE
  8
0
 62
7
 10
8.69999771E+01
 20
-2.95999969E+02
 11
8.69999771E+01
 21
-3.00085739E+02
  0
LINE
  8
0
 62
7
 10
8.89999924E+01
 20
-3.04914078E+02
 11
8.89999924E+01
 21
-3.09253052E+02
  0
LINE
  8
0
 62
7
 10
9.89999771E+01
 20
-2.95999969E+02
 11
9.89999771E+01
 21
-3.00135086E+02
  0
LINE
  8
0
 62
7
 10
8.61493454E+01
 20
-2.94999969E+02
 11
9.98506546E+01
 21
-2.94999969E+02
  0
LINE
  8
0
 62
7
 10
1.00499977E+02
 20
-2.85999985E+02
 11
1.00499977E+02
 21
-2.94063492E+02
  0
LINE
  8
0
 62
7
 10
1.18541603E+02
 20
-2.85999985E+02
 11
1.18541603E+02
 21
-2.97000000E+02
  0
LINE
  8
0
 62
7
 10
7.99999771E+01
 20
-2.81999969E+02
 11
7.99999771E+01
 21
-2.82499969E+02
  0
LINE
  8
0
 62
7
 10
1.29999977E+02
 20
-2.81999969E+02
 11
1.29999977E+02
 21
-2.82499969E+02
  0
LINE
  8
0
  6
CENTER
 62
2
 10
1.45045083E+02
 20
-2.91499939E+02
 11
1.22893990E+02
 21
-2.91499939E+02
  0
LINE
  8
0
  6
CENTER
 62
2
 10
1.12999977E+02
 20
-2.79814713E+02
 11
1.12999977E+02
 21
-2.91699982E+02
  0
LINE
  8
0
 62
7
 10
1.01999977E+02
 20
-2.95731995E+02
 11
1.01999977E+02
 21
-2.99904083E+02
  0
LINE
  8
0
 62
7
 10
1.02000197E+02
 20
-2.95731940E+02
 11
1.01000197E+02
 21
-2.93999889E+02
  0
LINE
  8
0
 62
7
 10
1.01000008E+02
 20
-2.85999985E+02
 11
1.01000008E+02
 21
-2.93999969E+02
  0
LINE
  8
0
 62
7
 10
1.03999977E+02
 20
-2.95731995E+02
 11
1.01999977E+02
 21
-2.95731995E+02
  0
LINE
  8
0
 62
7
 10
1.03999977E+02
 20
-2.93999969E+02
 11
1.00999947E+02
 21
-2.93999969E+02
  0
LINE
  8
0
 62
7
 10
6.79999619E+01
 20
-3.19500000E+02
 11
6.79999619E+01
 21
-2.85999985E+02
  0
LINE
  8
0
  6
CENTER
 62
2
 10
7.69999008E+01
 20
-2.79814713E+02
 11
7.69999008E+01
 21
-3.02729599E+02
  0
LINE
  8
0
 62
7
 10
6.74999771E+01
 20
-3.19500000E+02
 11
6.74999771E+01
 21
-2.85999985E+02
  0
LINE
  8
0
 62
7
 10
7.14999924E+01
 20
-3.18500015E+02
 11
8.51002579E+01
 21
-3.18500015E+02
  0
LINE
  8
0
 62
7
 10
7.04999619E+01
 20
-3.19500000E+02
 11
7.04999619E+01
 21
-3.06499924E+02
  0
LINE
  8
0
 62
7
 10
9.02218468E+01
 20
-3.06135606E+02
 11
8.28599977E+01
 21
-2.98773760E+02
  0
LINE
  8
0
 62
7
 10
9.16360601E+01
 20
-3.04721392E+02
 11
8.42742326E+01
 21
-2.97359568E+02
  0
LINE
  8
0
 62
7
 10
-2.80000009E+02
 20
-3.16377561E+02
 11
-2.77000008E+02
 21
-3.14232455E+02
  0
LINE
  8
0
 62
7
 10
7.14999924E+01
 20
-2.82499969E+02
 11
1.38500038E+02
 21
-2.82499969E+02
  0
LINE
  8
0
 62
7
 10
1.29500069E+02
 20
-3.00649124E+02
 11
1.29500069E+02
 21
-3.14000008E+02
  0
LINE
  8
0
 62
7
 10
1.37000038E+02
 20
-2.89190536E+02
 11
1.37000038E+02
 21
-2.93809326E+02
  0
LINE
  8
0
 62
7
 10
1.33000044E+02
 20
-2.86881144E+02
 11
1.37000046E+02
 21
-2.89190546E+02
  0
LINE
  8
0
 62
7
 10
1.33000046E+02
 20
-2.96118749E+02
 11
1.29000044E+02
 21
-2.93809347E+02
  0
LINE
  8
0
 62
7
 10
1.37000049E+02
 20
-2.93809329E+02
 11
1.33000047E+02
 21
-2.96118731E+02
  0
LINE
  8
0
  6
CENTER
 62
2
 10
-8.70000534E+01
 20
-1.45088867E+02
 11
-8.70000534E+01
 21
-1.58565613E+02
  0
LINE
  8
0
  6
CENTER
 62
2
 10
-9.36657639E+01
 20
-1.51500000E+02
 11
-8.08370285E+01
 21
-1.51500000E+02
  0
LINE
  8
0
 62
7
 10
-8.52679591E+01
 20
-1.51500087E+02
 11
-8.61339906E+01
 21
-1.53000107E+02
  0
LINE
  8
0
 62
7
 10
-8.61340256E+01
 20
-1.53000031E+02
 11
-8.78661118E+01
 21
-1.53000031E+02
  0
LINE
  8
0
 62
7
 10
-8.78659943E+01
 20
-1.53000032E+02
 11
-8.87320334E+01
 21
-1.51500000E+02
  0
LINE
  8
0
  6
CENTER
 62
2
 10
-1.63451937E+01
 20
-2.91499985E+02
 11
-1.15248100E+02
 21
-2.91499985E+02
  0
LINE
  8
0
 62
7
 10
-1.08000023E+02
 20
-2.82488785E+02
 11
-1.08000023E+02
 21
-2.82000000E+02
  0
LINE
  8
0
 62
7
 10
-2.64758689E+02
 20
-3.02241521E+02
 11
-2.56999990E+02
 21
-3.01970581E+02
  0
LINE
  8
0
 62
7
 10
-2.65000023E+02
 20
-3.02499985E+02
 11
-2.65000023E+02
 21
-3.02491440E+02
  0
LINE
  8
0
 62
7
 10
-2.69500023E+02
 20
-3.02499985E+02
 11
-2.64991478E+02
 21
-3.02499985E+02
  0
LINE
  8
0
 62
7
 10
-2.56500023E+02
 20
-3.00500000E+02
 11
-2.55000023E+02
 21
-3.00500000E+02
  0
LINE
  8
0
 62
7
 10
-1.08000023E+02
 20
-2.82000000E+02
 11
-8.00000229E+01
 21
-2.82000000E+02
  0
LINE
  8
0
 62
7
 10
-1.11508759E+02
 20
-2.82550047E+02
 11
-8.00000387E+01
 21
-2.82000060E+02
  0
LINE
  8
0
  6
CENTER
 62
2
 10
-4.86768352E+01
 20
-1.67500031E+02
 11
-1.15248100E+02
 21
-1.67500031E+02
  0
LINE
  8
0
 62
7
 10
-1.28811185E+01
 20
-1.05500031E+02
 11
-5.64999860E+01
 21
-1.05500031E+02
  0
LINE
  8
0
 62
7
 10
-1.42667380E+01
 20
-1.07899994E+02
 11
-5.64999860E+01
 21
-1.07899994E+02
  0
LINE
  8
0
 62
7
 10
-1.84236670E+01
 20
-1.15100006E+02
 11
-3.71507649E+01
 21
-1.15100006E+02
  0
LINE
  8
0
  6
CENTER
 62
2
 10
-1.63451848E+01
 20
-1.11499969E+02
 11
-5.64999860E+01
 21
-1.11499969E+02
  0
LINE
  8
0
 62
7
 10
-8.00000229E+01
 20
-2.82000000E+02
 11
-8.00000229E+01
 21
-3.19500000E+02
  0
LINE
  8
0
 62
7
 10
-8.87319421E+01
 20
-1.51500135E+02
 11
-8.78659258E+01
 21
-1.50000142E+02
  0
LINE
  8
0
 62
7
 10
-2.65000023E+02
 20
-3.19500000E+02
 11
-2.65000023E+02
 21
-3.02499985E+02
  0
LINE
  8
0
 62
7
 10
-2.57000023E+02
 20
-3.01000000E+02
 11
-2.57000023E+02
 21
-3.19500000E+02
  0
LINE
  8
0
 62
7
 10
-2.70000023E+02
 20
-3.19500000E+02
 11
-2.70000023E+02
 21
-3.03000015E+02
  0
LINE
  8
0
 62
7
 10
-1.08000023E+02
 20
-1.16500000E+02
 11
-1.08000023E+02
 21
-1.62500000E+02
  0
LINE
  8
0
 62
7
 10
-1.05999992E+02
 20
-1.64500031E+02
 11
-7.99999924E+01
 21
-1.64500031E+02
  0
LINE
  8
0
 62
7
 10
-1.05999992E+02
 20
-1.14500000E+02
 11
-9.09999860E+01
 21
-1.14500000E+02
  0
LINE
  8
0
 62
7
 10
-2.65000023E+02
 20
-1.22500000E+02
 11
-2.65000023E+02
 21
-1.56500031E+02
  0
LINE
  8
0
 62
7
 10
-2.57000023E+02
 20
-1.58000031E+02
 11
-2.57000023E+02
 21
-1.20999969E+02
  0
LINE
  8
0
 62
7
 10
-1.11508729E+02
 20
-1.02550019E+02
 11
-8.00000091E+01
 21
-1.02000032E+02
  0
LINE
  8
0
 62
7
 10
-7.99999924E+01
 20
-1.76999969E+02
 11
-7.99999924E+01
 21
-1.24437056E+02
  0
LINE
  8
0
 62
7
 10
-2.64758785E+02
 20
-1.22241372E+02
 11
-2.57000086E+02
 21
-1.21970433E+02
  0
LINE
  8
0
 62
7
 10
-2.65000023E+02
 20
-1.22500000E+02
 11
-2.65000023E+02
 21
-1.22491455E+02
  0
LINE
  8
0
 62
7
 10
-2.69500023E+02
 20
-1.22500031E+02
 11
-2.64991478E+02
 21
-1.22500031E+02
  0
LINE
  8
0
 62
7
 10
-2.56500023E+02
 20
-1.20500000E+02
 11
-2.55000023E+02
 21
-1.20500000E+02
  0
LINE
  8
0
 62
7
 10
-2.70000023E+02
 20
-1.56000000E+02
 11
-2.70000023E+02
 21
-1.23000031E+02
  0
LINE
  8
0
 62
7
 10
-1.11508753E+02
 20
-1.76449926E+02
 11
-8.00000636E+01
 21
-1.76999912E+02
  0
LINE
  8
0
 62
7
 10
-2.64758788E+02
 20
-1.56758464E+02
 11
-2.57000090E+02
 21
-1.57029404E+02
  0
LINE
  8
0
 62
7
 10
-2.65000023E+02
 20
-1.56500031E+02
 11
-2.65000023E+02
 21
-1.56508575E+02
  0
LINE
  8
0
 62
7
 10
-2.69500023E+02
 20
-1.56500000E+02
 11
-2.64991478E+02
 21
-1.56500000E+02
  0
LINE
  8
0
 62
7
 10
-2.56500023E+02
 20
-1.58500031E+02
 11
-2.55000023E+02
 21
-1.58500031E+02
  0
LINE
  8
0
 62
7
 10
-8.52679670E+01
 20
-1.51500070E+02
 11
-8.61339909E+01
 21
-1.50000063E+02
  0
LINE
  8
0
 62
7
 10
-8.61340256E+01
 20
-1.50000000E+02
 11
-8.78661118E+01
 21
-1.50000000E+02
  0
LINE
  8
0
  6
CENTER
 62
2
 10
-9.40000839E+01
 20
-1.41500031E+02
 11
-9.40000839E+01
 21
-1.20953735E+02
  0
LINE
  8
0
  6
CENTER
 62
2
 10
-1.04364861E+02
 20
-1.31500000E+02
 11
-8.27607040E+01
 21
-1.31500000E+02
  0
LINE
  8
0
  6
CENTER
 62
2
 10
-9.40000839E+01
 20
-2.79814941E+02
 11
-9.40000839E+01
 21
-2.91700226E+02
  0
LINE
  8
0
 62
7
 10
-2.82999962E+02
 20
-3.11320007E+02
 11
-2.79999992E+02
 21
-3.11320007E+02
  0
LINE
  8
0
 62
7
 10
-2.73000172E+02
 20
-1.30999848E+02
 11
-2.71500148E+02
 21
-1.29499825E+02
  0
LINE
  8
0
 62
7
 10
-2.73000132E+02
 20
-1.47999909E+02
 11
-2.71500163E+02
 21
-1.49499878E+02
  0
LINE
  8
0
 62
7
 10
-2.79999992E+02
 20
-1.30999969E+02
 11
-2.73000053E+02
 21
-1.30999969E+02
  0
LINE
  8
0
 62
7
 10
-2.79999992E+02
 20
-1.48000000E+02
 11
-2.73000053E+02
 21
-1.48000000E+02
  0
LINE
  8
0
 62
7
 10
-2.79999992E+02
 20
-1.48000000E+02
 11
-2.79999992E+02
 21
-1.31000000E+02
  0
LINE
  8
0
 62
7
 10
-2.82999962E+02
 20
-1.31320007E+02
 11
-2.79999992E+02
 21
-1.31320007E+02
  0
LINE
  8
0
 62
7
 10
-2.82999962E+02
 20
-1.47679962E+02
 11
-2.79999992E+02
 21
-1.47679962E+02
  0
LINE
  8
0
 62
7
 10
-3.12000024E+02
 20
-1.46999866E+02
 11
-3.10499989E+02
 21
-1.48499855E+02
  0
LINE
  8
0
 62
2
 10
-3.11319969E+02
 20
-1.47679962E+02
 11
-3.02999992E+02
 21
-1.47679962E+02
  0
LINE
  8
0
 62
7
 10
-3.10499962E+02
 20
-1.48499969E+02
 11
-3.02999992E+02
 21
-1.48499969E+02
  0
LINE
  8
0
 62
7
 10
-3.11999855E+02
 20
-1.32000153E+02
 11
-3.10499820E+02
 21
-1.30500164E+02
  0
LINE
  8
0
 62
2
 10
-3.11319969E+02
 20
-1.31320007E+02
 11
-3.02999992E+02
 21
-1.31320007E+02
  0
LINE
  8
0
 62
7
 10
-3.10499962E+02
 20
-1.30500000E+02
 11
-3.02999992E+02
 21
-1.30500000E+02
  0
LINE
  8
0
 62
7
 10
-3.10499962E+02
 20
-1.48500000E+02
 11
-3.10499962E+02
 21
-1.30500000E+02
  0
LINE
  8
0
 62
7
 10
-3.12000023E+02
 20
-1.46999969E+02
 11
-3.12000023E+02
 21
-1.32000153E+02
  0
LINE
  8
0
 62
7
 10
-2.82999962E+02
 20
-1.48500000E+02
 11
-2.82999962E+02
 21
-1.30500000E+02
  0
LINE
  8
0
 62
7
 10
-2.71499992E+02
 20
-1.29499939E+02
 11
-2.70000023E+02
 21
-1.29499939E+02
  0
LINE
  8
0
 62
7
 10
-2.71500023E+02
 20
-1.49499969E+02
 11
-2.70000053E+02
 21
-1.49499969E+02
  0
LINE
  8
0
 62
7
 10
-2.76999992E+02
 20
-1.31000000E+02
 11
-2.76999992E+02
 21
-1.48000000E+02
  0
LINE
  8
0
 62
7
 10
-2.73000053E+02
 20
-3.14232132E+02
 11
-2.73000053E+02
 21
-3.19499992E+02
  0
LINE
  8
0
 62
7
 10
-2.76999992E+02
 20
-3.09499954E+02
 11
-2.76999992E+02
 21
-3.14232132E+02
  0
LINE
  8
0
 62
2
 10
-2.76499803E+02
 20
-3.19500000E+02
 11
-2.72999849E+02
 21
-3.14232207E+02
  0
LINE
  8
0
 62
2
 10
-2.79033614E+02
 20
-3.15686594E+02
 11
-2.76499964E+02
 21
-3.19500000E+02
  0
LINE
  8
0
 62
7
 10
-2.79999967E+02
 20
-3.10500011E+02
 11
-2.76999978E+02
 21
-3.09500027E+02
  0
LINE
  8
0
 62
7
 10
-2.77000114E+02
 20
-3.14232147E+02
 11
-2.73000053E+02
 21
-3.14232147E+02
  0
LINE
  8
0
 62
7
 10
-2.79999992E+02
 20
-3.10500000E+02
 11
-2.79999992E+02
 21
-3.19500000E+02
  0
LINE
  8
0
 62
7
 10
1.18364216E+02
 20
-3.04721894E+02
 11
1.25726064E+02
 21
-2.97360047E+02
  0
LINE
  8
0
 62
7
 10
1.42000069E+02
 20
-3.19500000E+02
 11
1.42000069E+02
 21
-2.86000000E+02
  0
LINE
  8
0
 62
7
 10
1.06000008E+02
 20
-2.86000000E+02
 11
1.06000008E+02
 21
-2.99600250E+02
  0
LINE
  8
0
 62
7
 10
1.39500069E+02
 20
-3.19500000E+02
 11
1.39500069E+02
 21
-3.06499924E+02
  0
LINE
  8
0
 62
7
 10
1.19778430E+02
 20
-3.06136043E+02
 11
1.27140289E+02
 21
-2.98774185E+02
  0
LINE
  8
0
 62
7
 10
1.03999977E+02
 20
-2.85999985E+02
 11
1.03999977E+02
 21
-2.99600250E+02
  0
LINE
  8
0
 62
7
 10
1.38499977E+02
 20
-3.18500031E+02
 11
1.24899757E+02
 21
-3.18500031E+02
  0
LINE
  8
0
 62
7
 10
1.42500069E+02
 20
-3.19500000E+02
 11
1.42500069E+02
 21
-2.86000000E+02
  0
LINE
  8
0
 62
7
 10
-3.11999911E+02
 20
-3.12000199E+02
 11
-3.10499854E+02
 21
-3.10500188E+02
  0
LINE
  8
0
 62
2
 10
-3.11319969E+02
 20
-3.11320007E+02
 11
-3.02999992E+02
 21
-3.11320007E+02
  0
LINE
  8
0
 62
7
 10
-3.10499962E+02
 20
-3.10500000E+02
 11
-3.02999992E+02
 21
-3.10500000E+02
  0
LINE
  8
0
 62
7
 10
-3.10499962E+02
 20
-3.19500000E+02
 11
-3.10499962E+02
 21
-3.10499985E+02
  0
LINE
  8
0
 62
7
 10
-3.12000023E+02
 20
-3.19500000E+02
 11
-3.12000023E+02
 21
-3.12000153E+02
  0
LINE
  8
0
 62
7
 10
-2.77000114E+02
 20
-3.09500015E+02
 11
-2.70000053E+02
 21
-3.09500015E+02
  0
LINE
  8
0
 62
7
 10
-2.82999962E+02
 20
-3.19500000E+02
 11
-2.82999962E+02
 21
-3.10499985E+02
  0
LINE
  8
0
  6
CENTER
 62
2
 10
1.33000038E+02
 20
-3.02729599E+02
 11
1.33000038E+02
 21
-2.79942017E+02
  0
LINE
  8
0
 62
7
 10
1.23999977E+02
 20
-2.98000000E+02
 11
1.23999977E+02
 21
-2.99085800E+02
  0
LINE
  8
0
 62
7
 10
1.18541603E+02
 20
-2.93999969E+02
 11
1.05999947E+02
 21
-2.93999969E+02
  0
LINE
  8
0
 62
7
 10
1.18541603E+02
 20
-2.95731995E+02
 11
1.05999947E+02
 21
-2.95731995E+02
  0
LINE
  8
0
 62
7
 10
1.23999977E+02
 20
-3.01914200E+02
 11
1.23999977E+02
 21
-3.17936401E+02
  0
LINE
  8
0
 62
7
 10
1.38500038E+02
 20
-3.14999992E+02
 11
1.30436501E+02
 21
-3.14999992E+02
  0
LINE
  8
0
 62
7
 10
1.28499947E+02
 20
-3.13499954E+02
 11
1.23999977E+02
 21
-3.13499954E+02
  0
LINE
  8
0
 62
7
 10
1.28499947E+02
 20
-3.01499985E+02
 11
1.24414162E+02
 21
-3.01499985E+02
  0
LINE
  8
0
 62
7
 10
1.25085640E+02
 20
-2.98000000E+02
 11
1.19541603E+02
 21
-2.98000000E+02
  0
LINE
  8
0
 62
7
 10
1.34349648E+02
 20
-2.99999969E+02
 11
1.30436501E+02
 21
-2.99999969E+02
  0
LINE
  8
0
  6
CENTER
 62
2
 10
-5.05045128E+02
 20
-2.91499939E+02
 11
-4.82894035E+02
 21
-2.91499939E+02
  0
LINE
  8
0
  6
CENTER
 62
2
 10
-4.93000084E+02
 20
-3.02729599E+02
 11
-4.93000084E+02
 21
-2.79942017E+02
  0
LINE
  8
0
  6
CENTER
 62
2
 10
-9.09999860E+01
 20
-1.11499969E+02
 11
-1.15248100E+02
 21
-1.11499969E+02
  0
LINE
  8
0
 62
7
 10
-7.99999924E+01
 20
-1.10437056E+02
 11
-7.99999924E+01
 21
-1.02000000E+02
  0
LINE
  8
0
  6
CENTER
 62
2
 10
-3.69999860E+01
 20
-1.39500000E+02
 11
-3.25110100E+01
 21
-1.39500000E+02
  0
LINE
  8
0
 62
2
 10
-5.81780523E+01
 20
-1.83956621E+02
 11
-1.06208905E+01
 21
-1.01585201E+02
  0
LINE
  8
0
 62
2
 10
-3.75626167E+01
 20
-3.28249639E+02
 11
-1.06208905E+01
 21
-2.81585201E+02
  0
LINE
  8
0
 62
7
 10
2.47338507E+02
 20
-2.95100037E+02
 11
2.96499977E+02
 21
-2.95100037E+02
  0
LINE
  8
0
 62
7
 10
2.52881073E+02
 20
-2.85500031E+02
 11
2.77218701E+02
 21
-2.85500031E+02
  0
LINE
  8
0
 62
7
 10
2.51495436E+02
 20
-2.87900024E+02
 11
2.96499977E+02
 21
-2.87900024E+02
  0
LINE
  8
0
  6
CENTER
 62
2
 10
5.62416786E+02
 20
-3.19500000E+02
 11
2.33251181E+02
 21
-3.19500000E+02
  0
LINE
  8
0
  6
CENTER
 62
2
 10
2.49416998E+02
 20
-2.91499985E+02
 11
2.96499977E+02
 21
-2.91499985E+02
  0
LINE
  8
0
 62
7
 10
5.22999916E+02
 20
-3.19500000E+02
 11
5.22999916E+02
 21
-3.10499985E+02
  0
LINE
  8
0
 62
7
 10
5.17000069E+02
 20
-3.09500015E+02
 11
5.10000008E+02
 21
-3.09500015E+02
  0
LINE
  8
0
 62
7
 10
5.51999977E+02
 20
-3.19500000E+02
 11
5.51999977E+02
 21
-3.12000153E+02
  0
LINE
  8
0
 62
7
 10
5.50499916E+02
 20
-3.19500000E+02
 11
5.50499916E+02
 21
-3.10499985E+02
  0
LINE
  8
0
 62
7
 10
5.50499916E+02
 20
-3.10500000E+02
 11
5.42999947E+02
 21
-3.10500000E+02
  0
LINE
  8
0
 62
2
 10
5.51319923E+02
 20
-3.11320007E+02
 11
5.42999947E+02
 21
-3.11320007E+02
  0
LINE
  8
0
 62
7
 10
5.51999865E+02
 20
-3.12000199E+02
 11
5.50499808E+02
 21
-3.10500188E+02
  0
LINE
  8
0
 62
7
 10
5.19999947E+02
 20
-3.10500000E+02
 11
5.19999947E+02
 21
-3.19500000E+02
  0
LINE
  8
0
 62
7
 10
5.17000069E+02
 20
-3.14232147E+02
 11
5.13000008E+02
 21
-3.14232147E+02
  0
LINE
  8
0
 62
7
 10
5.19999921E+02
 20
-3.10500011E+02
 11
5.16999932E+02
 21
-3.09500027E+02
  0
LINE
  8
0
 62
2
 10
5.19033568E+02
 20
-3.15686594E+02
 11
5.16499918E+02
 21
-3.19500000E+02
  0
LINE
  8
0
 62
2
 10
5.16499757E+02
 20
-3.19500000E+02
 11
5.12999804E+02
 21
-3.14232207E+02
  0
LINE
  8
0
 62
7
 10
5.16999947E+02
 20
-3.09499954E+02
 11
5.16999947E+02
 21
-3.14232132E+02
  0
LINE
  8
0
 62
7
 10
5.13000008E+02
 20
-3.14232132E+02
 11
5.13000008E+02
 21
-3.19499992E+02
  0
LINE
  8
0
 62
7
 10
5.22999916E+02
 20
-3.11320007E+02
 11
5.19999947E+02
 21
-3.11320007E+02
  0
LINE
  8
0
  6
CENTER
 62
2
 10
3.34000038E+02
 20
-2.79814941E+02
 11
3.34000038E+02
 21
-2.91700226E+02
  0
LINE
  8
0
 62
7
 10
5.09999977E+02
 20
-3.19500000E+02
 11
5.09999977E+02
 21
-3.03000015E+02
  0
LINE
  8
0
 62
7
 10
4.96999977E+02
 20
-3.01000000E+02
 11
4.96999977E+02
 21
-3.19500000E+02
  0
LINE
  8
0
 62
7
 10
5.04999977E+02
 20
-3.19500000E+02
 11
5.04999977E+02
 21
-3.02499985E+02
  0
LINE
  8
0
 62
7
 10
3.19999977E+02
 20
-2.82000000E+02
 11
3.19999977E+02
 21
-3.19500000E+02
  0
LINE
  8
0
 62
7
 10
3.51508713E+02
 20
-2.82550047E+02
 11
3.19999993E+02
 21
-2.82000060E+02
  0
LINE
  8
0
 62
7
 10
3.47999977E+02
 20
-2.82000000E+02
 11
3.19999977E+02
 21
-2.82000000E+02
  0
LINE
  8
0
 62
7
 10
4.96499977E+02
 20
-3.00500000E+02
 11
4.94999977E+02
 21
-3.00500000E+02
  0
LINE
  8
0
 62
7
 10
5.09499977E+02
 20
-3.02499985E+02
 11
5.04991432E+02
 21
-3.02499985E+02
  0
LINE
  8
0
 62
7
 10
5.04999977E+02
 20
-3.02499985E+02
 11
5.04999977E+02
 21
-3.02491440E+02
  0
LINE
  8
0
 62
7
 10
5.04758643E+02
 20
-3.02241521E+02
 11
4.96999944E+02
 21
-3.01970581E+02
  0
LINE
  8
0
 62
7
 10
3.47999977E+02
 20
-2.82488785E+02
 11
3.47999977E+02
 21
-2.82000000E+02
  0
LINE
  8
0
 62
7
 10
5.19999963E+02
 20
-3.16377561E+02
 11
5.16999962E+02
 21
-3.14232455E+02
  0
LINE
  8
0
  6
CENTER
 62
2
 10
3.73999947E+02
 20
-2.86739807E+02
 11
3.73999947E+02
 21
-2.70951233E+02
  0
LINE
  8
0
 62
7
 10
4.46999916E+02
 20
-3.19500000E+02
 11
4.46999916E+02
 21
-3.18345306E+02
  0
LINE
  8
0
 62
7
 10
4.42999916E+02
 20
-3.18345154E+02
 11
4.42999916E+02
 21
-3.19500000E+02
  0
LINE
  8
0
  6
CENTER
 62
2
 10
4.44999947E+02
 20
-3.08159912E+02
 11
4.44999947E+02
 21
-3.19500000E+02
  0
LINE
  8
0
 62
7
 10
4.94999977E+02
 20
-2.72500000E+02
 11
4.94999977E+02
 21
-3.19500000E+02
  0
LINE
  8
0
 62
7
 10
4.41535805E+02
 20
-3.13500000E+02
 11
4.48464027E+02
 21
-3.13500000E+02
  0
LINE
  8
0
  6
CENTER
 62
2
 10
4.99881386E+02
 20
-2.84500000E+02
 11
3.46211617E+02
 21
-2.84500000E+02
  0
LINE
  8
0
 62
7
 10
4.42999871E+02
 20
-3.18345170E+02
 11
4.44999859E+02
 21
-3.17190476E+02
  0
LINE
  8
0
 62
7
 10
4.44999867E+02
 20
-3.17190647E+02
 11
4.46999829E+02
 21
-3.18345325E+02
  0
LINE
  8
0
 62
7
 10
4.48464252E+02
 20
-3.13499907E+02
 11
4.51928356E+02
 21
-3.19499919E+02
  0
LINE
  8
0
 62
7
 10
4.41536014E+02
 20
-3.13500132E+02
 11
4.38071937E+02
 21
-3.19500098E+02
  0
LINE
  8
0
 62
7
 10
4.59999947E+02
 20
-2.89000000E+02
 11
3.86999916E+02
 21
-2.89000000E+02
  0
LINE
  8
0
 62
7
 10
4.59999947E+02
 20
-2.80000000E+02
 11
3.86999916E+02
 21
-2.80000000E+02
  0
LINE
  8
0
 62
7
 10
3.51999947E+02
 20
-2.72500000E+02
 11
3.51999947E+02
 21
-3.19500000E+02
  0
LINE
  8
0
 62
7
 10
4.59999947E+02
 20
-2.76000000E+02
 11
3.86999947E+02
 21
-2.76000000E+02
  0
LINE
  8
0
 62
7
 10
3.86999916E+02
 20
-2.72500000E+02
 11
3.51999947E+02
 21
-2.72500000E+02
  0
LINE
  8
0
 62
7
 10
4.94999977E+02
 20
-2.72500000E+02
 11
4.59999947E+02
 21
-2.72500000E+02
  0
LINE
  8
0
 62
7
 10
4.59999947E+02
 20
-2.72500000E+02
 11
4.59999947E+02
 21
-3.19500000E+02
  0
LINE
  8
0
 62
7
 10
3.86999916E+02
 20
-2.72500000E+02
 11
3.86999916E+02
 21
-3.19500000E+02
  0
ARC
  8
0
 62
7
 10
5.21499947E+02
 20
-3.19500000E+02
 40
9.99998474E+00
 50
1.48211648E+02
 51
1.80000000E+02
  0
ARC
  8
0
 62
7
 10
5.09499977E+02
 20
-3.03000015E+02
 40
5.00000000E-01
 50
3.59721787E-05
 51
9.00000179E+01
  0
ARC
  8
0
 62
7
 10
5.04749977E+02
 20
-3.02491440E+02
 40
2.50000000E-01
 50
2.23118003E-05
 51
8.80011768E+01
  0
ARC
  8
0
 62
7
 10
4.96499977E+02
 20
-3.01000000E+02
 40
5.00000000E-01
 50
3.59721787E-05
 51
9.00000179E+01
  0
ARC
  8
0
 62
7
 10
4.44999947E+02
 20
-3.19500000E+02
 40
4.00000000E+00
 50
0.00000000E+00
 51
1.80000000E+02
  0
ARC
  8
0
 62
7
 10
4.44999947E+02
 20
-3.19500000E+02
 40
8.00000000E+00
 50
0.00000000E+00
 51
1.80000000E+02
  0
ARC
  8
0
 62
7
 10
4.44999947E+02
 20
-3.19500000E+02
 40
3.30000043E+00
 50
0.00000000E+00
 51
1.80000000E+02
  0
ARC
  8
0
 62
7
 10
3.51499947E+02
 20
-2.83049927E+02
 40
5.00000000E-01
 50
3.59721787E-05
 51
8.89997711E+01
  0
LINE
  8
0
 62
4
 10
5.31999947E+02
 20
-3.19500000E+02
 11
5.31999947E+02
 21
-3.06000000E+02
  0
LINE
  8
0
 62
4
 10
5.42999947E+02
 20
-3.19500000E+02
 11
5.42999947E+02
 21
-3.06000000E+02
  0
ARC
  8
0
 62
4
 10
5.17205718E+02
 20
-3.19500000E+02
 40
2.57942282E+01
 50
2.54444375E-13
 51
1.75879541E+01
  0
ARC
  8
0
 62
4
 10
5.57794175E+02
 20
-3.19500000E+02
 40
2.57942282E+01
 50
1.62412046E+02
 51
1.80000000E+02
  0
ARC
  8
0
 62
4
 10
5.38900668E+02
 20
-3.07808657E+02
 40
6.90072132E+00
 50
1.45615752E+02
 51
2.14384248E+02
  0
ARC
  8
0
 62
4
 10
5.36099225E+02
 20
-3.07808657E+02
 40
6.90072132E+00
 50
3.25615752E+02
 51
3.43842480E+01
  0
LINE
  8
0
 62
4
 10
5.33205718E+02
 20
-3.03911543E+02
 11
5.31999947E+02
 21
-3.06000000E+02
  0
LINE
  8
0
 62
4
 10
5.41794175E+02
 20
-3.03911543E+02
 11
5.42999947E+02
 21
-3.06000000E+02
  0
LINE
  8
0
 62
4
 10
5.41794175E+02
 20
-3.11705771E+02
 11
5.33205718E+02
 21
-3.11705771E+02
  0
LINE
  8
0
 62
4
 10
5.41794175E+02
 20
-3.03911543E+02
 11
5.33205718E+02
 21
-3.03911543E+02
  0
LINE
  8
0
 62
7
 10
5.31999947E+02
 20
-3.10500000E+02
 11
5.22999916E+02
 21
-3.10500000E+02
  0
LINE
  8
0
 62
2
 10
5.31999947E+02
 20
-3.11320007E+02
 11
5.22999916E+02
 21
-3.11320007E+02
  0
LINE
  8
0
 62
2
 10
2.31357809E+02
 20
-3.22779417E+02
 11
2.58010585E+02
 21
-2.76615455E+02
  0
LINE
  8
0
 62
7
 10
3.15781253E+02
 20
-2.85500031E+02
 11
3.19999977E+02
 21
-2.85500031E+02
  0
LINE
  8
0
 62
7
 10
3.11499977E+02
 20
-2.95100037E+02
 11
3.19999977E+02
 21
-2.95100037E+02
  0
LINE
  8
0
 62
7
 10
3.11499977E+02
 20
-2.87900024E+02
 11
3.19999977E+02
 21
-2.87900024E+02
  0
LINE
  8
0
  6
CENTER
 62
2
 10
3.11499977E+02
 20
-2.91499985E+02
 11
3.55248055E+02
 21
-2.91499985E+02
  0
TEXT
  8
0
 10
-7.72146873E+01
 20
3.51614332E+02
 40
9.00000000E+00
  1
STRETCH LINE
 41
1.05263158E+00
  7
MONOTXT
  0
LINE
  8
0
 62
7
 10
5.74500000E+02
 20
4.00500000E+02
 11
5.74500000E+02
 21
-4.00500000E+02
  0
LINE
  8
0
 62
7
 10
-5.64500000E+02
 20
4.00500000E+02
 11
5.74500000E+02
 21
4.00500000E+02
  0
LINE
  8
0
 62
7
 10
-5.64500000E+02
 20
-4.00500000E+02
 11
5.74500000E+02
 21
-4.00500000E+02
  0
LINE
  8
0
 62
7
 10
-5.64500000E+02
 20
4.00500000E+02
 11
-5.64500000E+02
 21
-4.00500000E+02
  0
LINE
  8
0
 62
7
 10
-5.64500000E+02
 20
3.70500000E+02
 11
-3.34500000E+02
 21
3.70500000E+02
  0
LINE
  8
0
 62
7
 10
3.44500000E+02
 20
3.70500000E+02
 11
5.74500000E+02
 21
3.70500000E+02
  0
LINE
  8
0
 62
7
 10
3.44500000E+02
 20
-3.70500000E+02
 11
5.74500000E+02
 21
-3.70500000E+02
  0
LINE
  8
0
 62
7
 10
3.44500000E+02
 20
-3.70500000E+02
 11
3.44500000E+02
 21
-4.00500000E+02
  0
LINE
  8
0
 62
7
 10
3.44500000E+02
 20
4.00500000E+02
 11
3.44500000E+02
 21
3.70500000E+02
  0
LINE
  8
0
 62
7
 10
-3.34500000E+02
 20
4.00500000E+02
 11
-3.34500000E+02
 21
3.70500000E+02
  0
TEXT
  8
0
 62
7
 10
-5.37179687E+02
 20
3.34250000E+02
 40
1.25000000E+01
  1
MODEL:DDAR63*75
 41
1.00000015E+00
  7
MONOTXT
  0
TEXT
  8
0
 62
7
 10
4.11285149E+02
 20
3.79250000E+02
 40
1.25000000E+01
  1
Ver. 1.0
 41
1.08108125E+00
  7
MONOTXT
  0
TEXT
  8
0
 62
7
 10
3.50070624E+02
 20
-3.94500000E+02
 40
1.80000000E+01
  1
KOGANEI CORP.
 41
1.04838710E+00
  7
MONOTXT
  0
TEXT
  8
0
 62
7
 10
-5.53964859E+02
 20
3.79250000E+02
 40
1.25000000E+01
  1
NEW DYNA CYLINDER
 41
1.07594953E+00
  7
MONOTXT
  0
ENDSEC
  0
EOF
