  0
SECTION
  2
HEADER
  9
$ACADVER
  1
AC1003
  9
$EXTMIN
 10
-1.94250000E+02
 20
-1.33500000E+02
  9
$EXTMAX
 10
1.94800003E+02
 20
1.32600006E+02
  9
$LIMMIN
 10
-1.94251000E+02
 20
-1.33501000E+02
  9
$LIMMAX
 10
1.94801003E+02
 20
1.32601006E+02
  9
$SNAPUNIT
 10
1
 20
1
  9
$SNAPBASE
 10
0
 20
0
  9
$GRIDMODE
 70
0
  9
$GRIDUNIT
 10
0
 20
0
  9
$LTSCALE
 40
6.48416672E+00
  9
$TEXTSIZE
 40
3.2
  9
$DIMTAD
 70
0
  9
$LUNITS
 70
2
  9
$LUPREC
 70
4
  9
$FILLETRAD
 40
0
  9
$AUNITS
 70
0
  9
$AUPREC
 70
0
  0
ENDSEC
  0
SECTION
  2
TABLES
  0
TABLE
  2
LTYPE
 70
2
  0
LTYPE
  2
CONTINUOUS
 70
64
  3
Solid-Line
 72
65
 73
0
 40
0
  0
LTYPE
  2
DASHED
 70
64
  3
DASHED
 72
65
 73
2
 40
.75
 49
.5
 49
-.25
  0
LTYPE
  2
HIDDEN
 70
64
  3
HIDDEN
 72
65
 73
2
 40
.375
 49
.25
 49
-.125
  0
LTYPE
  2
CENTER
 70
64
  3
CENTER
 72
65
 73
4
 40
2
 49
1.25
 49
-.25
 49
.25
 49
-.25
  0
LTYPE
  2
PHANTOM
 70
64
  3
PHANTOM
 72
65
 73
6
 40
2.5
 49
1.25
 49
-.25
 49
.25
 49
-.25
 49
.25
 49
-.25
  0
ENDTAB
  0
TABLE
  2
LAYER
 70
1
  0
LAYER
  2
1
 70
0
 62
7
  6
CONTINUOUS
 0
ENDTAB
  0
TABLE
  2
STYLE
 70
2
  0
STYLE
  2
MONOTXT
 70
0
 40
0
 41
1
 50
0
 71
0
 42
.2
  3
monotxt
  0
STYLE
  2
BIGFONT
 70
0
 40
0
 41
1
 50
0
 71
0
 42
.2
  3
txt
  4
bigfont
  0
ENDTAB
  0
ENDSEC
  0
SECTION
  2
ENTITIES
  0
ARC
  8
0
 62
4
 10
6.96394340E+01
 20
-8.26351475E+01
 40
1.00000000E+00
 50
2.70000018E+02
 51
0.00000000E+00
  0
ARC
  8
0
 62
4
 10
6.96394340E+01
 20
-8.26351475E+01
 40
5.00000000E+00
 50
2.70000018E+02
 51
0.00000000E+00
  0
LINE
  8
0
 62
4
 10
4.96394316E+01
 20
-8.36351388E+01
 11
7.06394341E+01
 21
-7.26351375E+01
  0
LINE
  8
0
 62
4
 10
2.86394321E+01
 20
-8.76351475E+01
 11
6.96394340E+01
 21
-8.76351475E+01
  0
LINE
  8
0
 62
4
 10
2.86394321E+01
 20
-8.36351475E+01
 11
2.86394321E+01
 21
-8.76351475E+01
  0
LINE
  8
0
  6
CENTER
 62
6
 10
7.75468132E+01
 20
-6.56351551E+01
 11
6.86926357E+01
 21
-6.56351551E+01
  0
LINE
  8
0
 62
4
 10
7.46394340E+01
 20
-8.26351475E+01
 11
7.46394340E+01
 21
-4.96351704E+01
  0
LINE
  8
0
 62
4
 10
7.06394340E+01
 20
-4.96351704E+01
 11
7.06394340E+01
 21
-8.26351475E+01
  0
LINE
  8
0
 62
4
 10
2.86394321E+01
 20
-8.36351475E+01
 11
6.96394340E+01
 21
-8.36351475E+01
  0
LINE
  8
0
  6
CENTER
 62
6
 10
4.46394359E+01
 20
-7.98388829E+01
 11
4.46394359E+01
 21
-9.15704808E+01
  0
LINE
  8
0
 62
4
 10
7.06394340E+01
 20
-4.96351704E+01
 11
7.46394340E+01
 21
-4.96351704E+01
  0
CIRCLE
  8
0
 62
4
 10
-1.39360621E+02
 20
-6.56351551E+01
 40
4.84999990E+00
  0
CIRCLE
  8
0
 62
4
 10
-6.93606213E+01
 20
-6.56351551E+01
 40
4.84999990E+00
  0
ARC
  8
0
 62
4
 10
-1.04360560E+02
 20
-3.06350636E+01
 40
2.20000019E+01
 50
2.39727650E+02
 51
3.00272257E+02
  0
ARC
  8
0
 62
4
 10
-1.16072795E+02
 20
-7.86351475E+01
 40
2.00000000E+00
 50
8.99999818E+01
 51
1.55556137E+02
  0
ARC
  8
0
 62
4
 10
-9.26484478E+01
 20
-7.86351475E+01
 40
2.00000000E+00
 50
2.44438264E+01
 51
8.99999818E+01
  0
LINE
  8
0
 62
4
 10
-5.58606235E+01
 20
-8.76351488E+01
 11
-5.83338520E+01
 21
-6.17535467E+01
  0
LINE
  8
0
 62
4
 10
-1.52860622E+02
 20
-8.76351482E+01
 11
-1.50387409E+02
 21
-6.17535447E+01
  0
LINE
  8
0
  6
CENTER
 62
6
 10
-1.04360621E+02
 20
-4.40853428E+01
 11
-1.04360621E+02
 21
-9.72438397E+01
  0
LINE
  8
0
 62
4
 10
-1.52860621E+02
 20
-8.76351475E+01
 11
-1.52860621E+02
 21
-9.16351475E+01
  0
LINE
  8
0
 62
4
 10
-1.52860621E+02
 20
-8.76351475E+01
 11
-5.58606213E+01
 21
-8.76351475E+01
  0
LINE
  8
0
 62
4
 10
-1.52860621E+02
 20
-9.16351475E+01
 11
-5.58606213E+01
 21
-9.16351475E+01
  0
LINE
  8
0
 62
4
 10
-1.17360621E+02
 20
-7.81145024E+01
 11
-1.17360621E+02
 21
-8.76351475E+01
  0
LINE
  8
0
 62
4
 10
-1.22360640E+02
 20
-8.76351237E+01
 11
-1.17893556E+02
 21
-7.78075387E+01
  0
LINE
  8
0
 62
4
 10
-1.16072795E+02
 20
-7.66351475E+01
 11
-9.26484478E+01
 21
-7.66351475E+01
  0
LINE
  8
0
 62
4
 10
-9.13606213E+01
 20
-7.81145024E+01
 11
-9.13606213E+01
 21
-8.76351475E+01
  0
LINE
  8
0
 62
4
 10
-8.63606408E+01
 20
-8.76351526E+01
 11
-9.08277376E+01
 21
-7.78075398E+01
  0
LINE
  8
0
 62
4
 10
-5.58606213E+01
 20
-8.76351475E+01
 11
-5.58606213E+01
 21
-9.16351475E+01
  0
LINE
  8
0
 62
4
 10
-6.49083890E+01
 20
-5.46360873E+01
 11
-9.32701633E+01
 21
-4.96351411E+01
  0
LINE
  8
0
 62
4
 10
-1.43812871E+02
 20
-5.46360820E+01
 11
-1.15451003E+02
 21
-4.96351192E+01
  0
LINE
  8
0
  6
CENTER
 62
6
 10
-1.39360621E+02
 20
-5.87995075E+01
 11
-1.39360621E+02
 21
-9.72438397E+01
  0
LINE
  8
0
  6
CENTER
 62
6
 10
-1.45722041E+02
 20
-6.56351551E+01
 11
-1.33100978E+02
 21
-6.56351551E+01
  0
LINE
  8
0
  6
CENTER
 62
6
 10
-6.93606213E+01
 20
-5.87995075E+01
 11
-6.93606213E+01
 21
-9.56023258E+01
  0
LINE
  8
0
  6
CENTER
 62
6
 10
-7.60450848E+01
 20
-6.56351551E+01
 11
-6.30623119E+01
 21
-6.56351551E+01
  0
ARC
  8
0
 62
4
 10
-1.42423686E+02
 20
-6.25145440E+01
 40
8.00000000E+00
 50
1.00000000E+02
 51
1.74541462E+02
  0
ARC
  8
0
 62
4
 10
-6.62975745E+01
 20
-6.25145493E+01
 40
8.00000000E+00
 50
5.45857136E+00
 51
7.99999999E+01
  0
ARC
  8
0
 62
4
 10
5.16394359E+01
 20
8.37851101E+01
 40
2.00000000E+00
 50
1.03392473E+02
 51
1.80000046E+02
  0
ARC
  8
0
 62
4
 10
5.16394359E+01
 20
6.09446560E+01
 40
2.00000000E+00
 50
1.79999991E+02
 51
2.56607557E+02
  0
ARC
  8
0
 62
4
 10
4.56394359E+01
 20
3.73648525E+01
 40
7.00000000E+00
 50
2.70000018E+02
 51
8.99999681E+01
  0
ARC
  8
0
 62
4
 10
4.36394359E+01
 20
3.73648525E+01
 40
7.00000000E+00
 50
8.99999681E+01
 51
2.70000001E+02
  0
ARC
  8
0
 62
4
 10
4.06394359E+01
 20
3.58648525E+01
 40
1.20000000E+01
 50
1.79999951E+02
 51
2.70000001E+02
  0
ARC
  8
0
 62
4
 10
4.56394359E+01
 20
1.07364807E+02
 40
7.00000000E+00
 50
2.70000018E+02
 51
8.99999681E+01
  0
ARC
  8
0
 62
4
 10
4.36394359E+01
 20
1.07364807E+02
 40
7.00000000E+00
 50
8.99999818E+01
 51
2.70000001E+02
  0
ARC
  8
0
 62
4
 10
4.06394359E+01
 20
1.08864807E+02
 40
1.20000000E+01
 50
8.99999681E+01
 51
1.80000005E+02
  0
LINE
  8
0
 62
4
 10
7.06394340E+01
 20
5.93648220E+01
 11
5.17160961E+01
 21
5.93648220E+01
  0
LINE
  8
0
 62
4
 10
7.06394340E+01
 20
8.53648220E+01
 11
5.17160961E+01
 21
8.53648220E+01
  0
LINE
  8
0
 62
4
 10
7.06394702E+01
 20
5.43648617E+01
 11
5.11762208E+01
 21
5.89989671E+01
  0
LINE
  8
0
 62
4
 10
7.06394715E+01
 20
9.03648885E+01
 11
5.11762203E+01
 21
8.57307797E+01
  0
LINE
  8
0
 62
4
 10
4.96394359E+01
 20
6.09446560E+01
 11
4.96394359E+01
 21
8.37851101E+01
  0
LINE
  8
0
  6
CENTER
 62
6
 10
2.20726673E+01
 20
7.23648220E+01
 11
8.00315935E+01
 21
7.23648220E+01
  0
LINE
  8
0
 62
4
 10
7.46394340E+01
 20
1.20864807E+02
 11
7.46394340E+01
 21
2.38648525E+01
  0
LINE
  8
0
 62
4
 10
4.56394359E+01
 20
3.03648525E+01
 11
4.36394359E+01
 21
3.03648525E+01
  0
LINE
  8
0
 62
4
 10
7.06394340E+01
 20
5.03647915E+01
 11
7.46394340E+01
 21
5.03647915E+01
  0
LINE
  8
0
 62
4
 10
7.06394340E+01
 20
9.43648220E+01
 11
7.46394340E+01
 21
9.43648220E+01
  0
LINE
  8
0
 62
4
 10
7.46394340E+01
 20
2.38648525E+01
 11
4.06394359E+01
 21
2.38648525E+01
  0
LINE
  8
0
  6
CENTER
 62
6
 10
4.46394359E+01
 20
2.71591335E+01
 11
4.46394359E+01
 21
4.75547939E+01
  0
LINE
  8
0
 62
4
 10
4.56394359E+01
 20
4.43648525E+01
 11
4.36394359E+01
 21
4.43648525E+01
  0
LINE
  8
0
  6
CENTER
 62
6
 10
7.65803539E+01
 20
3.73648525E+01
 11
3.31402866E+01
 21
3.73648525E+01
  0
LINE
  8
0
  6
CENTER
 62
6
 10
4.46394359E+01
 20
1.17570617E+02
 11
4.46394359E+01
 21
9.71750026E+01
  0
LINE
  8
0
 62
4
 10
4.56394359E+01
 20
1.14364807E+02
 11
4.36394359E+01
 21
1.14364807E+02
  0
LINE
  8
0
 62
4
 10
4.56394359E+01
 20
1.00364807E+02
 11
4.36394359E+01
 21
1.00364807E+02
  0
LINE
  8
0
  6
CENTER
 62
6
 10
7.70142509E+01
 20
1.07364807E+02
 11
3.31402866E+01
 21
1.07364807E+02
  0
LINE
  8
0
 62
4
 10
7.46394340E+01
 20
1.20864807E+02
 11
4.06394359E+01
 21
1.20864807E+02
  0
LINE
  8
0
 62
4
 10
7.06394340E+01
 20
2.38648525E+01
 11
7.06394340E+01
 21
1.20864807E+02
  0
LINE
  8
0
 62
4
 10
2.86394321E+01
 20
3.58648525E+01
 11
2.86394321E+01
 21
1.08864807E+02
  0
TEXT
  8
0
 62
7
 10
-1.89357136E+02
 20
1.22850006E+02
 40
4.50000000E+00
  1
NEW DYNA CYLINDER
 41
1.07594914E+00
  7
MONOTXT
  0
TEXT
  8
0
 62
7
 10
-1.85214688E+02
 20
1.05350006E+02
 40
4.50000000E+00
  1
MODEL:DDAR80-1
 41
1.00000000E+00
  7
MONOTXT
  0
LINE
  8
0
 62
7
 10
-1.94250000E+02
 20
1.32600006E+02
 11
1.94800003E+02
 21
1.32600006E+02
  0
LINE
  8
0
 62
7
 10
1.94800003E+02
 20
1.32600006E+02
 11
1.94800003E+02
 21
-1.33500000E+02
  0
LINE
  8
0
 62
7
 10
-1.94250000E+02
 20
1.32600006E+02
 11
-1.94250000E+02
 21
-1.33500000E+02
  0
LINE
  8
0
 62
7
 10
-1.94250000E+02
 20
-1.33500000E+02
 11
1.94800003E+02
 21
-1.33500000E+02
  0
LINE
  8
0
 62
7
 10
1.09800003E+02
 20
-1.18500000E+02
 11
1.09800003E+02
 21
-1.33500000E+02
  0
LINE
  8
0
 62
7
 10
1.09800003E+02
 20
-1.18500000E+02
 11
1.94800003E+02
 21
-1.18500000E+02
  0
LINE
  8
0
 62
7
 10
1.09800003E+02
 20
1.32600006E+02
 11
1.09800003E+02
 21
1.17600006E+02
  0
LINE
  8
0
 62
7
 10
1.09800003E+02
 20
1.17600006E+02
 11
1.94800003E+02
 21
1.17600006E+02
  0
LINE
  8
0
 62
7
 10
-1.94250000E+02
 20
1.17600006E+02
 11
-1.09250000E+02
 21
1.17600006E+02
  0
LINE
  8
0
 62
7
 10
-1.09250000E+02
 20
1.32600006E+02
 11
-1.09250000E+02
 21
1.17600006E+02
  0
TEXT
  8
0
 62
7
 10
1.34942863E+02
 20
1.22850006E+02
 40
4.50000000E+00
  1
Ver. 1.0
 41
1.08108085E+00
  7
MONOTXT
  0
TEXT
  8
0
 62
7
 10
1.15249715E+02
 20
-1.29150000E+02
 40
6.30000019E+00
  1
KOGANEI CORP.
 41
1.04838725E+00
  7
MONOTXT
  0
ENDSEC
  0
EOF
