  0
SECTION
  2
HEADER
  9
$ACADVER
  1
AC1003
  9
$EXTMIN
 10
-2.81250000E+02
 20
-1.95000000E+02
  9
$EXTMAX
 10
2.82099854E+02
 20
1.95500000E+02
  9
$LIMMIN
 10
-2.81251000E+02
 20
-1.95001000E+02
  9
$LIMMAX
 10
2.82100854E+02
 20
1.95501000E+02
  9
$SNAPUNIT
 10
1
 20
1
  9
$SNAPBASE
 10
0
 20
0
  9
$GRIDMODE
 70
0
  9
$GRIDUNIT
 10
0
 20
0
  9
$LTSCALE
 40
9.38916423E+00
  9
$TEXTSIZE
 40
3.2
  9
$DIMTAD
 70
0
  9
$LUNITS
 70
2
  9
$LUPREC
 70
4
  9
$FILLETRAD
 40
0
  9
$AUNITS
 70
0
  9
$AUPREC
 70
0
  0
ENDSEC
  0
SECTION
  2
TABLES
  0
TABLE
  2
LTYPE
 70
2
  0
LTYPE
  2
CONTINUOUS
 70
64
  3
Solid-Line
 72
65
 73
0
 40
0
  0
LTYPE
  2
DASHED
 70
64
  3
DASHED
 72
65
 73
2
 40
.75
 49
.5
 49
-.25
  0
LTYPE
  2
HIDDEN
 70
64
  3
HIDDEN
 72
65
 73
2
 40
.375
 49
.25
 49
-.125
  0
LTYPE
  2
CENTER
 70
64
  3
CENTER
 72
65
 73
4
 40
2
 49
1.25
 49
-.25
 49
.25
 49
-.25
  0
LTYPE
  2
PHANTOM
 70
64
  3
PHANTOM
 72
65
 73
6
 40
2.5
 49
1.25
 49
-.25
 49
.25
 49
-.25
 49
.25
 49
-.25
  0
ENDTAB
  0
TABLE
  2
LAYER
 70
1
  0
LAYER
  2
1
 70
0
 62
7
  6
CONTINUOUS
 0
ENDTAB
  0
TABLE
  2
STYLE
 70
2
  0
STYLE
  2
MONOTXT
 70
0
 40
0
 41
1
 50
0
 71
0
 42
.2
  3
monotxt
  0
STYLE
  2
BIGFONT
 70
0
 40
0
 41
1
 50
0
 71
0
 42
.2
  3
txt
  4
bigfont
  0
ENDTAB
  0
ENDSEC
  0
SECTION
  2
ENTITIES
  0
LINE
  8
0
 62
4
 10
7.00527802E+01
 20
-8.44300506E+01
 11
7.10527802E+01
 21
-8.44300506E+01
  0
LINE
  8
0
 62
4
 10
7.00527802E+01
 20
-7.96800506E+01
 11
7.00527802E+01
 21
-8.44300506E+01
  0
LINE
  8
0
 62
4
 10
5.10527802E+01
 20
-7.86800506E+01
 11
6.90527802E+01
 21
-7.86800506E+01
  0
LINE
  8
0
  6
CENTER
 62
6
 10
8.40527782E+01
 20
-8.91597030E+01
 11
8.40527782E+01
 21
-1.21873891E+02
  0
LINE
  8
0
 62
4
 10
1.02052724E+02
 20
-1.15680046E+02
 11
9.89066081E+01
 21
-9.44111479E+01
  0
LINE
  8
0
 62
4
 10
5.10527802E+01
 20
-9.56800506E+01
 11
5.10527802E+01
 21
-1.15680073E+02
  0
LINE
  8
0
 62
4
 10
5.20527802E+01
 20
-9.46800506E+01
 11
7.10527802E+01
 21
-9.46800506E+01
  0
LINE
  8
0
 62
4
 10
5.00527802E+01
 20
-7.96800506E+01
 11
5.00527802E+01
 21
-1.15680073E+02
  0
LINE
  8
0
 62
4
 10
5.00527802E+01
 20
-1.15680043E+02
 11
1.02052723E+02
 21
-1.15680043E+02
  0
LINE
  8
0
  6
CENTER
 62
6
 10
7.30424652E+01
 20
-9.36800506E+01
 11
4.77409821E+01
 21
-9.36800506E+01
  0
LINE
  8
0
 62
4
 10
7.10527802E+01
 20
-9.36800506E+01
 11
7.10527802E+01
 21
-8.44300506E+01
  0
LINE
  8
0
 62
4
 10
6.70527802E+01
 20
-9.36800506E+01
 11
9.79435253E+01
 21
-9.36800506E+01
  0
ARC
  8
0
 62
4
 10
6.90527802E+01
 20
-7.96800506E+01
 40
1.00000000E+00
 50
3.60000000E+02
 51
8.99999818E+01
  0
ARC
  8
0
 62
4
 10
5.10527802E+01
 20
-7.96800506E+01
 40
1.00000000E+00
 50
8.99999818E+01
 51
1.79999964E+02
  0
ARC
  8
0
 62
4
 10
9.79435253E+01
 20
-9.46800506E+01
 40
1.00000000E+00
 50
1.55990251E+01
 51
9.00000913E+01
  0
ARC
  8
0
 62
4
 10
6.70527802E+01
 20
-9.46800506E+01
 40
1.00000000E+00
 50
8.99999818E+01
 51
1.79999964E+02
  0
ARC
  8
0
 62
4
 10
5.20527802E+01
 20
-9.56800506E+01
 40
1.00000000E+00
 50
8.99999818E+01
 51
1.79999964E+02
  0
LINE
  8
0
 62
4
 10
-2.01447220E+02
 20
-1.15680043E+02
 11
-5.44472199E+01
 21
-1.15680043E+02
  0
LINE
  8
0
  6
CENTER
 62
6
 10
-1.74947220E+02
 20
-9.36800506E+01
 11
-1.52947220E+02
 21
-9.36800506E+01
  0
LINE
  8
0
  6
CENTER
 62
6
 10
-1.62947220E+02
 20
-8.36800506E+01
 11
-1.62947220E+02
 21
-1.05180051E+02
  0
LINE
  8
0
  6
CENTER
 62
6
 10
-9.29472199E+01
 20
-8.38177306E+01
 11
-9.29472199E+01
 21
-1.05180051E+02
  0
LINE
  8
0
  6
CENTER
 62
6
 10
-1.02947220E+02
 20
-9.36800506E+01
 11
-8.09472199E+01
 21
-9.36800506E+01
  0
LINE
  8
0
 62
4
 10
-2.00447220E+02
 20
-9.26800506E+01
 11
-1.77609970E+02
 21
-9.26800506E+01
  0
LINE
  8
0
 62
4
 10
-2.01447220E+02
 20
-9.36800506E+01
 11
-2.01447220E+02
 21
-1.15680104E+02
  0
LINE
  8
0
  6
CENTER
 62
6
 10
-1.88447220E+02
 20
-8.69810912E+01
 11
-1.88447220E+02
 21
-1.24680104E+02
  0
LINE
  8
0
 62
4
 10
-1.70106796E+02
 20
-7.86800506E+01
 11
-1.55787613E+02
 21
-7.86800506E+01
  0
LINE
  8
0
 62
4
 10
-1.50863529E+02
 20
-8.28118132E+01
 11
-1.46831244E+02
 21
-1.15680096E+02
  0
LINE
  8
0
 62
4
 10
-1.09063189E+02
 20
-1.15680075E+02
 11
-1.05030904E+02
 21
-8.28117945E+01
  0
LINE
  8
0
 62
4
 10
-1.00106827E+02
 20
-7.86800506E+01
 11
-8.57876740E+01
 21
-7.86800506E+01
  0
LINE
  8
0
 62
4
 10
-8.08636468E+01
 20
-8.28118214E+01
 11
-7.68313634E+01
 21
-1.15680096E+02
  0
LINE
  8
0
  6
CENTER
 62
6
 10
-6.74472199E+01
 20
-8.69810912E+01
 11
-6.74472199E+01
 21
-1.24680104E+02
  0
LINE
  8
0
 62
4
 10
-5.54472199E+01
 20
-9.26800506E+01
 11
-7.82845002E+01
 21
-9.26800506E+01
  0
LINE
  8
0
 62
4
 10
-5.44472199E+01
 20
-9.36800506E+01
 11
-5.44472199E+01
 21
-1.15680104E+02
  0
LINE
  8
0
 62
4
 10
-1.79063116E+02
 20
-1.15680100E+02
 11
-1.75030829E+02
 21
-8.28118044E+01
  0
LINE
  8
0
  6
CENTER
 62
6
 10
-1.27947220E+02
 20
-6.84084365E+01
 11
-1.27947220E+02
 21
-1.24680104E+02
  0
LINE
  8
0
 62
4
 10
-1.51204758E+02
 20
-8.08768813E+01
 11
-1.04247147E+02
 21
-8.08768813E+01
  0
CIRCLE
  8
0
 62
4
 10
-1.62947220E+02
 20
-9.36800506E+01
 40
9.00000000E+00
  0
ARC
  8
0
 62
4
 10
-2.00447220E+02
 20
-9.36800506E+01
 40
1.00000000E+00
 50
8.99999818E+01
 51
1.79999964E+02
  0
ARC
  8
0
 62
4
 10
-1.70106796E+02
 20
-8.36800506E+01
 40
5.00000000E+00
 50
8.99998730E+01
 51
1.69999966E+02
  0
ARC
  8
0
 62
4
 10
-1.55787613E+02
 20
-8.36800506E+01
 40
5.00000000E+00
 50
9.99999117E+00
 51
8.99999274E+01
  0
ARC
  8
0
 62
4
 10
-1.00106827E+02
 20
-8.36800506E+01
 40
5.00000000E+00
 50
8.99999818E+01
 51
1.69999966E+02
  0
ARC
  8
0
 62
4
 10
-8.57876740E+01
 20
-8.36800506E+01
 40
5.00000000E+00
 50
1.00000151E+01
 51
9.00000913E+01
  0
ARC
  8
0
 62
4
 10
-1.77609970E+02
 20
-9.16800506E+01
 40
1.00000000E+00
 50
2.70000455E+02
 51
3.50000084E+02
  0
ARC
  8
0
 62
4
 10
-7.82845002E+01
 20
-9.16800506E+01
 40
1.00000000E+00
 50
1.89999911E+02
 51
2.69999547E+02
  0
ARC
  8
0
 62
4
 10
-5.54472199E+01
 20
-9.36800506E+01
 40
1.00000000E+00
 50
3.59721781E-05
 51
9.00000162E+01
  0
CIRCLE
  8
0
 62
4
 10
-9.29472199E+01
 20
-9.36800506E+01
 40
9.00000000E+00
  0
CIRCLE
  8
0
 62
4
 10
-1.62947220E+02
 20
-9.36800506E+01
 40
4.84999990E+00
  0
CIRCLE
  8
0
 62
4
 10
-9.29472199E+01
 20
-9.36800506E+01
 40
4.84999990E+00
  0
LINE
  8
0
  6
CENTER
 62
6
 10
8.65952625E+01
 20
8.63199418E+01
 11
4.48096008E+01
 21
8.63199418E+01
  0
LINE
  8
0
 62
4
 10
7.10527802E+01
 20
3.93199723E+01
 11
7.10527802E+01
 21
1.33319942E+02
  0
LINE
  8
0
  6
CENTER
 62
6
 10
4.48096008E+01
 20
5.13199418E+01
 11
7.67591515E+01
 21
5.13199418E+01
  0
LINE
  8
0
  6
CENTER
 62
6
 10
4.48096008E+01
 20
1.21319942E+02
 11
7.67591515E+01
 21
1.21319942E+02
  0
LINE
  8
0
 62
4
 10
7.20527802E+01
 20
1.34319942E+02
 11
9.60527782E+01
 21
1.34319942E+02
  0
LINE
  8
0
 62
4
 10
6.56195526E+01
 20
1.59319942E+02
 11
9.19896679E+01
 21
1.59319942E+02
  0
LINE
  8
0
 62
4
 10
5.10527802E+01
 20
1.05204097E+02
 11
5.10527802E+01
 21
1.37435909E+02
  0
LINE
  8
0
 62
4
 10
1.02052804E+02
 20
1.40319923E+02
 11
9.98682542E+01
 21
1.52709122E+02
  0
LINE
  8
0
  6
CENTER
 62
6
 10
8.40527782E+01
 20
1.37819942E+02
 11
8.40527782E+01
 21
1.55819942E+02
  0
LINE
  8
0
  6
CENTER
 62
6
 10
7.50527802E+01
 20
1.46819942E+02
 11
9.30527782E+01
 21
1.46819942E+02
  0
LINE
  8
0
 62
4
 10
5.10527802E+01
 20
1.37435909E+02
 11
6.98774261E+01
 21
1.37435909E+02
  0
LINE
  8
0
 62
4
 10
5.20534693E+01
 20
1.37435612E+02
 11
5.81027404E+01
 21
1.54055852E+02
  0
LINE
  8
0
 62
4
 10
6.31762288E+01
 20
1.09668129E+02
 11
5.36482953E+01
 21
1.05844310E+02
  0
LINE
  8
0
 62
4
 10
6.50676727E+01
 20
1.10020015E+02
 11
7.00527802E+01
 21
1.10020015E+02
  0
LINE
  8
0
 62
4
 10
6.31761310E+01
 20
6.29718225E+01
 11
5.36481976E+01
 21
6.67956417E+01
  0
LINE
  8
0
 62
4
 10
5.20527802E+01
 20
6.74358781E+01
 11
5.20527802E+01
 21
1.05204097E+02
  0
LINE
  8
0
 62
4
 10
5.10527802E+01
 20
1.05204097E+02
 11
5.20527802E+01
 21
1.05204097E+02
  0
LINE
  8
0
 62
4
 10
5.10527802E+01
 20
6.74358781E+01
 11
5.10527802E+01
 21
3.52040665E+01
  0
LINE
  8
0
 62
4
 10
5.10527802E+01
 20
6.74358781E+01
 11
5.20527802E+01
 21
6.74358781E+01
  0
LINE
  8
0
 62
4
 10
6.50676727E+01
 20
6.26199601E+01
 11
7.00527802E+01
 21
6.26199601E+01
  0
LINE
  8
0
 62
4
 10
6.40527802E+01
 20
1.08882808E+02
 11
6.40527802E+01
 21
6.37571671E+01
  0
LINE
  8
0
 62
4
 10
7.20527802E+01
 20
3.83199723E+01
 11
9.60527782E+01
 21
3.83199723E+01
  0
LINE
  8
0
 62
4
 10
1.02052728E+02
 20
3.23200871E+01
 11
9.98681786E+01
 21
1.99308877E+01
  0
LINE
  8
0
  6
CENTER
 62
6
 10
7.50527802E+01
 20
2.58199723E+01
 11
9.30527782E+01
 21
2.58199723E+01
  0
LINE
  8
0
  6
CENTER
 62
6
 10
8.40527782E+01
 20
3.48199723E+01
 11
8.40527782E+01
 21
1.68199723E+01
  0
LINE
  8
0
 62
4
 10
6.56195526E+01
 20
1.33199723E+01
 11
9.19896679E+01
 21
1.33199723E+01
  0
LINE
  8
0
 62
4
 10
5.20534905E+01
 20
3.52043320E+01
 11
5.81027616E+01
 21
1.85840913E+01
  0
LINE
  8
0
 62
4
 10
5.10527802E+01
 20
3.52040665E+01
 11
6.98774872E+01
 21
3.52040665E+01
  0
LINE
  8
0
 62
4
 10
7.00527802E+01
 20
1.33688869E+02
 11
7.00527802E+01
 21
3.89510453E+01
  0
LINE
  8
0
 62
4
 10
7.00527802E+01
 20
3.89510453E+01
 11
7.11233253E+01
 21
3.89510453E+01
  0
LINE
  8
0
 62
4
 10
7.00527802E+01
 20
1.33688869E+02
 11
7.11233139E+01
 21
1.33688869E+02
  0
ARC
  8
0
 62
4
 10
8.40527782E+01
 20
1.46819942E+02
 40
1.70000000E+01
 50
1.32667846E+02
 51
2.27332028E+02
  0
ARC
  8
0
 62
4
 10
9.60527782E+01
 20
1.40319942E+02
 40
6.00000000E+00
 50
2.69999984E+02
 51
3.59999527E+02
  0
ARC
  8
0
 62
4
 10
9.19896679E+01
 20
1.51319942E+02
 40
8.00000000E+00
 50
1.00000339E+01
 51
9.00000707E+01
  0
ARC
  8
0
 62
4
 10
7.20527802E+01
 20
1.33319942E+02
 40
1.00000000E+00
 50
9.00000162E+01
 51
1.79999977E+02
  0
ARC
  8
0
 62
4
 10
8.40527782E+01
 20
1.46819942E+02
 40
1.70000000E+01
 50
3.12667844E+02
 51
3.57512190E+02
  0
CIRCLE
  8
0
 62
4
 10
8.40527782E+01
 20
1.46819942E+02
 40
7.00000000E+00
  0
ARC
  8
0
 62
4
 10
6.56195526E+01
 20
1.51319942E+02
 40
8.00000000E+00
 50
9.00000162E+01
 51
1.59999981E+02
  0
ARC
  8
0
 62
4
 10
7.20527802E+01
 20
3.93199723E+01
 40
1.00000000E+00
 50
1.80000077E+02
 51
2.70000038E+02
  0
ARC
  8
0
 62
4
 10
8.40527782E+01
 20
2.58199723E+01
 40
1.70000000E+01
 50
1.32668023E+02
 51
2.27332205E+02
  0
ARC
  8
0
 62
4
 10
9.60527782E+01
 20
3.23199723E+01
 40
6.00000000E+00
 50
5.27745818E-04
 51
9.00000707E+01
  0
ARC
  8
0
 62
4
 10
8.40527782E+01
 20
2.58199723E+01
 40
1.70000000E+01
 50
2.48786418E+00
 51
4.73322103E+01
  0
CIRCLE
  8
0
 62
4
 10
8.40527782E+01
 20
2.58199723E+01
 40
7.00000000E+00
  0
ARC
  8
0
 62
4
 10
9.19896679E+01
 20
2.13199723E+01
 40
8.00000000E+00
 50
2.69999984E+02
 51
3.50000021E+02
  0
ARC
  8
0
 62
4
 10
6.56195526E+01
 20
2.13199723E+01
 40
8.00000000E+00
 50
2.00000059E+02
 51
2.70000038E+02
  0
TEXT
  8
0
 62
7
 10
-2.73900291E+02
 20
1.82350000E+02
 40
6.30000019E+00
  1
NEW DYNA CYLINDER
 41
1.07594953E+00
  7
MONOTXT
  0
TEXT
  8
0
 62
7
 10
-2.67600562E+02
 20
1.57350000E+02
 40
6.30000019E+00
  1
MODEL:DDAR80-2
 41
1.00000015E+00
  7
MONOTXT
  0
LINE
  8
0
 62
7
 10
2.82099854E+02
 20
1.95500000E+02
 11
2.82099854E+02
 21
-1.95000000E+02
  0
LINE
  8
0
 62
7
 10
-2.81250000E+02
 20
1.95500000E+02
 11
2.82099854E+02
 21
1.95500000E+02
  0
LINE
  8
0
 62
7
 10
-2.81250000E+02
 20
1.95500000E+02
 11
-2.81250000E+02
 21
-1.95000000E+02
  0
LINE
  8
0
 62
7
 10
-2.81250000E+02
 20
-1.95000000E+02
 11
2.82099854E+02
 21
-1.95000000E+02
  0
LINE
  8
0
 62
7
 10
1.62099976E+02
 20
-1.75000000E+02
 11
1.62099976E+02
 21
-1.95000000E+02
  0
LINE
  8
0
 62
7
 10
1.62099976E+02
 20
-1.75000000E+02
 11
2.82099854E+02
 21
-1.75000000E+02
  0
LINE
  8
0
 62
7
 10
1.62099976E+02
 20
1.75500000E+02
 11
2.82099854E+02
 21
1.75500000E+02
  0
LINE
  8
0
 62
7
 10
-2.81250000E+02
 20
1.75500000E+02
 11
-1.61250000E+02
 21
1.75500000E+02
  0
LINE
  8
0
 62
7
 10
1.62099976E+02
 20
1.95500000E+02
 11
1.62099976E+02
 21
1.75500000E+02
  0
LINE
  8
0
 62
7
 10
-1.61250000E+02
 20
1.95500000E+02
 11
-1.61250000E+02
 21
1.75500000E+02
  0
TEXT
  8
0
 62
7
 10
1.97799690E+02
 20
1.82350000E+02
 40
6.30000019E+00
  1
Ver. 1.0
 41
1.08108124E+00
  7
MONOTXT
  0
TEXT
  8
0
 62
7
 10
1.69885289E+02
 20
-1.89500000E+02
 40
9.00000000E+00
  1
KOGANEI CORP.
 41
1.04838710E+00
  7
MONOTXT
  0
ENDSEC
  0
EOF
