  0
SECTION
  2
HEADER
  9
$ACADVER
  1
AC1003
  9
$EXTMIN
 10
-8.20500000E+02
 20
-5.74500000E+02
  9
$EXTMAX
 10
8.20500000E+02
 20
5.74500000E+02
  9
$LIMMIN
 10
-8.20501000E+02
 20
-5.74501000E+02
  9
$LIMMAX
 10
8.20501000E+02
 20
5.74501000E+02
  9
$SNAPUNIT
 10
1
 20
1
  9
$SNAPBASE
 10
0
 20
0
  9
$GRIDMODE
 70
0
  9
$GRIDUNIT
 10
0
 20
0
  9
$LTSCALE
 40
2.73500000E+01
  9
$TEXTSIZE
 40
3.2
  9
$DIMTAD
 70
0
  9
$LUNITS
 70
2
  9
$LUPREC
 70
4
  9
$FILLETRAD
 40
0
  9
$AUNITS
 70
0
  9
$AUPREC
 70
0
  0
ENDSEC
  0
SECTION
  2
TABLES
  0
TABLE
  2
LTYPE
 70
2
  0
LTYPE
  2
CONTINUOUS
 70
64
  3
Solid-Line
 72
65
 73
0
 40
0
  0
LTYPE
  2
DASHED
 70
64
  3
DASHED
 72
65
 73
2
 40
.75
 49
.5
 49
-.25
  0
LTYPE
  2
HIDDEN
 70
64
  3
HIDDEN
 72
65
 73
2
 40
.375
 49
.25
 49
-.125
  0
LTYPE
  2
CENTER
 70
64
  3
CENTER
 72
65
 73
4
 40
2
 49
1.25
 49
-.25
 49
.25
 49
-.25
  0
LTYPE
  2
PHANTOM
 70
64
  3
PHANTOM
 72
65
 73
6
 40
2.5
 49
1.25
 49
-.25
 49
.25
 49
-.25
 49
.25
 49
-.25
  0
ENDTAB
  0
TABLE
  2
LAYER
 70
1
  0
LAYER
  2
1
 70
0
 62
7
  6
CONTINUOUS
 0
ENDTAB
  0
TABLE
  2
STYLE
 70
2
  0
STYLE
  2
MONOTXT
 70
0
 40
0
 41
1
 50
0
 71
0
 42
.2
  3
monotxt
  0
STYLE
  2
BIGFONT
 70
0
 40
0
 41
1
 50
0
 71
0
 42
.2
  3
txt
  4
bigfont
  0
ENDTAB
  0
ENDSEC
  0
SECTION
  2
BLOCKS
  0
BLOCK
  8
0
  2
PP1
 70
10
 10
0.0
 20
0.0
  0
LINE
  8
0
  6
DASHED
 62
7
 10
-3.58669799E+02
 20
3.89000000E+02
 11
-3.55330147E+02
 21
3.89000000E+02
  0
LINE
  8
0
  6
DASHED
 62
7
 10
-3.59999982E+02
 20
3.91000000E+02
 11
-3.53999943E+02
 21
3.91000000E+02
  0
LINE
  8
0
  6
DASHED
 62
7
 10
-3.59999947E+02
 20
3.93000000E+02
 11
-3.53999943E+02
 21
3.93000000E+02
  0
LINE
  8
0
  6
DASHED
 62
7
 10
-3.60000000E+02
 20
3.90000000E+02
 11
-3.53999943E+02
 21
3.90000000E+02
  0
LINE
  8
0
  6
DASHED
 62
7
 10
-3.59999964E+02
 20
3.92000000E+02
 11
-3.53999943E+02
 21
3.92000000E+02
  0
LINE
  8
0
  6
DASHED
 62
7
 10
-3.58669924E+02
 20
3.94000000E+02
 11
-3.55329989E+02
 21
3.94000000E+02
  0
LINE
  8
0
  6
DASHED
 62
7
 10
-3.56672584E+02
 20
3.88224964E+02
 11
-3.53999943E+02
 21
3.92854113E+02
  0
LINE
  8
0
  6
DASHED
 62
7
 10
-3.58568337E+02
 20
3.88941422E+02
 11
-3.55568323E+02
 21
3.94137599E+02
  0
LINE
  8
0
  6
DASHED
 62
7
 10
-3.59999992E+02
 20
3.90461724E+02
 11
-3.57600791E+02
 21
3.94617261E+02
  0
LINE
  8
0
  6
DASHED
 62
7
 10
-3.54940554E+02
 20
3.89224926E+02
 11
-3.53999943E+02
 21
3.90854113E+02
  0
LINE
  8
0
  6
DASHED
 62
7
 10
-3.57702306E+02
 20
3.88441432E+02
 11
-3.54702292E+02
 21
3.93637608E+02
  0
LINE
  8
0
  6
DASHED
 62
7
 10
-3.59434368E+02
 20
3.89441413E+02
 11
-3.56434354E+02
 21
3.94637589E+02
  0
LINE
  8
0
  6
DASHED
 62
7
 10
-3.59999956E+02
 20
3.92461785E+02
 11
-3.59332838E+02
 21
3.93617268E+02
  0
LINE
  8
0
  6
DASHED
 62
7
 10
-3.53999943E+02
 20
3.91145887E+02
 11
-3.55806648E+02
 21
3.94275193E+02
  0
LINE
  8
0
  6
DASHED
 62
7
 10
-3.55135347E+02
 20
3.89112465E+02
 11
-3.58135355E+02
 21
3.94308632E+02
  0
LINE
  8
0
  6
DASHED
 62
7
 10
-3.56867409E+02
 20
3.88112484E+02
 11
-3.59867408E+02
 21
3.93308635E+02
  0
LINE
  8
0
  6
DASHED
 62
7
 10
-3.53999943E+02
 20
3.93145887E+02
 11
-3.54074619E+02
 21
3.93275230E+02
  0
LINE
  8
0
  6
DASHED
 62
7
 10
-3.54269317E+02
 20
3.89612456E+02
 11
-3.57269329E+02
 21
3.94808630E+02
  0
LINE
  8
0
  6
DASHED
 62
7
 10
-3.56001378E+02
 20
3.88612474E+02
 11
-3.59001382E+02
 21
3.93808633E+02
  0
LINE
  8
0
  6
DASHED
 62
7
 10
-3.58466879E+02
 20
3.88882847E+02
 11
-3.59999973E+02
 21
3.91538243E+02
  0
ENDBLK
  8
0
  0
BLOCK
  8
0
  2
PP2
 70
10
 10
0.0
 20
0.0
  0
LINE
  8
0
  6
DASHED
 62
7
 10
-3.57336452E+02
 20
-2.27000000E+02
 11
-3.56663373E+02
 21
-2.27000000E+02
  0
LINE
  8
0
  6
DASHED
 62
7
 10
-3.59999935E+02
 20
-2.25000000E+02
 11
-3.53999882E+02
 21
-2.25000000E+02
  0
LINE
  8
0
  6
DASHED
 62
7
 10
-3.59999899E+02
 20
-2.23000000E+02
 11
-3.53999882E+02
 21
-2.23000000E+02
  0
LINE
  8
0
  6
DASHED
 62
7
 10
-3.58271063E+02
 20
-2.21000000E+02
 11
-3.55728736E+02
 21
-2.21000000E+02
  0
LINE
  8
0
  6
DASHED
 62
7
 10
-3.59068546E+02
 20
-2.26000000E+02
 11
-3.54931278E+02
 21
-2.26000000E+02
  0
LINE
  8
0
  6
DASHED
 62
7
 10
-3.59999917E+02
 20
-2.24000000E+02
 11
-3.53999882E+02
 21
-2.24000000E+02
  0
LINE
  8
0
  6
DASHED
 62
7
 10
-3.59999882E+02
 20
-2.22000000E+02
 11
-3.53999882E+02
 21
-2.22000000E+02
  0
LINE
  8
0
  6
DASHED
 62
7
 10
-3.56005996E+02
 20
-2.26620473E+02
 11
-3.53999882E+02
 21
-2.23145781E+02
  0
LINE
  8
0
  6
DASHED
 62
7
 10
-3.58235006E+02
 20
-2.26481232E+02
 11
-3.55234993E+02
 21
-2.21285056E+02
  0
LINE
  8
0
  6
DASHED
 62
7
 10
-3.59967068E+02
 20
-2.25481251E+02
 11
-3.56967054E+02
 21
-2.20285074E+02
  0
LINE
  8
0
  6
DASHED
 62
7
 10
-3.54273967E+02
 20
-2.25620510E+02
 11
-3.53999882E+02
 21
-2.25145781E+02
  0
LINE
  8
0
  6
DASHED
 62
7
 10
-3.57368976E+02
 20
-2.26981223E+02
 11
-3.54368962E+02
 21
-2.21785046E+02
  0
LINE
  8
0
  6
DASHED
 62
7
 10
-3.59101037E+02
 20
-2.25981242E+02
 11
-3.56101023E+02
 21
-2.20785065E+02
  0
LINE
  8
0
  6
DASHED
 62
7
 10
-3.59999909E+02
 20
-2.23538133E+02
 11
-3.58666243E+02
 21
-2.21228157E+02
  0
LINE
  8
0
  6
DASHED
 62
7
 10
-3.53999882E+02
 20
-2.24854219E+02
 11
-3.56473297E+02
 21
-2.20570138E+02
  0
LINE
  8
0
  6
DASHED
 62
7
 10
-3.55468647E+02
 20
-2.26310242E+02
 11
-3.58468654E+02
 21
-2.21114079E+02
  0
LINE
  8
0
  6
DASHED
 62
7
 10
-3.57401498E+02
 20
-2.26962446E+02
 11
-3.59999890E+02
 21
-2.22461900E+02
  0
LINE
  8
0
  6
DASHED
 62
7
 10
-3.53999882E+02
 20
-2.22854219E+02
 11
-3.54741268E+02
 21
-2.21570101E+02
  0
LINE
  8
0
  6
DASHED
 62
7
 10
-3.54602617E+02
 20
-2.25810252E+02
 11
-3.57602627E+02
 21
-2.20614080E+02
  0
LINE
  8
0
  6
DASHED
 62
7
 10
-3.56334678E+02
 20
-2.26810233E+02
 11
-3.59334680E+02
 21
-2.21614077E+02
  0
LINE
  8
0
  6
DASHED
 62
7
 10
-3.59133527E+02
 20
-2.25962484E+02
 11
-3.59999925E+02
 21
-2.24461839E+02
  0
ENDBLK
  8
0
  0
ENDSEC
  0
SECTION
  2
ENTITIES
  0
LINE
  8
0
  6
PHANTOM
 10
-1.22500000E+02
 20
2.71489706E+02
 11
-1.22500000E+02
 21
1.00499992E+02
  0
LINE
  8
0
 62
7
 10
-1.07999981E+02
 20
1.87000015E+02
 11
-1.80999989E+02
 21
1.87000015E+02
  0
LINE
  8
0
 62
7
 10
-1.07999981E+02
 20
1.96000031E+02
 11
-1.80999989E+02
 21
1.96000031E+02
  0
LINE
  8
0
 62
7
 10
-1.17841950E+02
 20
2.00000015E+02
 11
-1.80999989E+02
 21
2.00000015E+02
  0
LINE
  8
0
 62
4
 10
-1.49104201E+02
 20
2.02330024E+02
 11
-1.43499958E+02
 21
2.02330024E+02
  0
LINE
  8
0
 62
4
 10
-1.48728569E+02
 20
2.02718695E+02
 11
-1.36999958E+02
 21
2.02718695E+02
  0
ARC
  8
0
 62
4
 10
-1.98530235E+02
 20
1.51139589E+02
 40
7.95040043E+01
 50
4.54262442E+01
 51
4.89013908E+01
  0
ARC
  8
0
 62
4
 10
-9.04696810E+01
 20
1.51139589E+02
 40
7.95040043E+01
 50
1.31098609E+02
 51
1.34573756E+02
  0
POLYLINE
  8
0
 62
4
 66
1
  0
VERTEX
  8
0
 62
4
 10
-1.47899958E+02
 20
2.09060109E+02
  0
VERTEX
  8
0
 62
4
 10
-1.47887020E+02
 20
2.08785357E+02
  0
VERTEX
  8
0
 62
4
 10
-1.47848304E+02
 20
2.08512696E+02
  0
VERTEX
  8
0
 62
4
 10
-1.47784106E+02
 20
2.08244201E+02
  0
VERTEX
  8
0
 62
4
 10
-1.47694913E+02
 20
2.07981916E+02
  0
VERTEX
  8
0
 62
4
 10
-1.47581405E+02
 20
2.07727837E+02
  0
VERTEX
  8
0
 62
4
 10
-1.47444444E+02
 20
2.07483896E+02
  0
VERTEX
  8
0
 62
4
 10
-1.47285075E+02
 20
2.07251952E+02
  0
VERTEX
  8
0
 62
4
 10
-1.47104509E+02
 20
2.07033769E+02
  0
VERTEX
  8
0
 62
4
 10
-1.46904121E+02
 20
2.06831008E+02
  0
VERTEX
  8
0
 62
4
 10
-1.46685436E+02
 20
2.06645211E+02
  0
VERTEX
  8
0
 62
4
 10
-1.46450118E+02
 20
2.06477794E+02
  0
VERTEX
  8
0
 62
4
 10
-1.46199958E+02
 20
2.06330029E+02
  0
VERTEX
  8
0
 62
4
 10
-1.45936860E+02
 20
2.06203042E+02
  0
VERTEX
  8
0
 62
4
 10
-1.45662827E+02
 20
2.06097798E+02
  0
VERTEX
  8
0
 62
4
 10
-1.45379943E+02
 20
2.06015100E+02
  0
VERTEX
  8
0
 62
4
 10
-1.45090362E+02
 20
2.05955576E+02
  0
VERTEX
  8
0
 62
4
 10
-1.44796288E+02
 20
2.05919680E+02
  0
VERTEX
  8
0
 62
4
 10
-1.44499958E+02
 20
2.05907684E+02
  0
VERTEX
  8
0
 62
4
 10
-1.44203628E+02
 20
2.05919680E+02
  0
VERTEX
  8
0
 62
4
 10
-1.43909554E+02
 20
2.05955576E+02
  0
VERTEX
  8
0
 62
4
 10
-1.43619973E+02
 20
2.06015100E+02
  0
VERTEX
  8
0
 62
4
 10
-1.43337090E+02
 20
2.06097798E+02
  0
VERTEX
  8
0
 62
4
 10
-1.43063056E+02
 20
2.06203042E+02
  0
VERTEX
  8
0
 62
4
 10
-1.42799958E+02
 20
2.06330029E+02
  0
VERTEX
  8
0
 62
4
 10
-1.42549798E+02
 20
2.06477794E+02
  0
VERTEX
  8
0
 62
4
 10
-1.42314480E+02
 20
2.06645211E+02
  0
VERTEX
  8
0
 62
4
 10
-1.42095795E+02
 20
2.06831008E+02
  0
VERTEX
  8
0
 62
4
 10
-1.41895407E+02
 20
2.07033769E+02
  0
VERTEX
  8
0
 62
4
 10
-1.41714841E+02
 20
2.07251952E+02
  0
VERTEX
  8
0
 62
4
 10
-1.41555472E+02
 20
2.07483896E+02
  0
VERTEX
  8
0
 62
4
 10
-1.41418511E+02
 20
2.07727837E+02
  0
VERTEX
  8
0
 62
4
 10
-1.41305003E+02
 20
2.07981916E+02
  0
VERTEX
  8
0
 62
4
 10
-1.41215810E+02
 20
2.08244201E+02
  0
VERTEX
  8
0
 62
4
 10
-1.41151612E+02
 20
2.08512696E+02
  0
VERTEX
  8
0
 62
4
 10
-1.41112896E+02
 20
2.08785357E+02
  0
VERTEX
  8
0
 62
4
 10
-1.41099958E+02
 20
2.09060109E+02
  0
VERTEX
  8
0
 62
4
 10
-1.41112896E+02
 20
2.09334861E+02
  0
VERTEX
  8
0
 62
4
 10
-1.41151612E+02
 20
2.09607522E+02
  0
VERTEX
  8
0
 62
4
 10
-1.41215810E+02
 20
2.09876017E+02
  0
VERTEX
  8
0
 62
4
 10
-1.41305003E+02
 20
2.10138302E+02
  0
VERTEX
  8
0
 62
4
 10
-1.41418511E+02
 20
2.10392381E+02
  0
VERTEX
  8
0
 62
4
 10
-1.41555472E+02
 20
2.10636322E+02
  0
VERTEX
  8
0
 62
4
 10
-1.41714841E+02
 20
2.10868266E+02
  0
VERTEX
  8
0
 62
4
 10
-1.41895407E+02
 20
2.11086449E+02
  0
VERTEX
  8
0
 62
4
 10
-1.42095795E+02
 20
2.11289210E+02
  0
VERTEX
  8
0
 62
4
 10
-1.42314480E+02
 20
2.11475007E+02
  0
VERTEX
  8
0
 62
4
 10
-1.42549798E+02
 20
2.11642424E+02
  0
VERTEX
  8
0
 62
4
 10
-1.42799958E+02
 20
2.11790189E+02
  0
VERTEX
  8
0
 62
4
 10
-1.43063056E+02
 20
2.11917176E+02
  0
VERTEX
  8
0
 62
4
 10
-1.43337089E+02
 20
2.12022420E+02
  0
VERTEX
  8
0
 62
4
 10
-1.43619973E+02
 20
2.12105118E+02
  0
VERTEX
  8
0
 62
4
 10
-1.43909554E+02
 20
2.12164642E+02
  0
VERTEX
  8
0
 62
4
 10
-1.44203628E+02
 20
2.12200538E+02
  0
VERTEX
  8
0
 62
4
 10
-1.44499958E+02
 20
2.12212534E+02
  0
VERTEX
  8
0
 62
4
 10
-1.44796288E+02
 20
2.12200538E+02
  0
VERTEX
  8
0
 62
4
 10
-1.45090362E+02
 20
2.12164642E+02
  0
VERTEX
  8
0
 62
4
 10
-1.45379943E+02
 20
2.12105118E+02
  0
VERTEX
  8
0
 62
4
 10
-1.45662826E+02
 20
2.12022420E+02
  0
VERTEX
  8
0
 62
4
 10
-1.45936860E+02
 20
2.11917176E+02
  0
VERTEX
  8
0
 62
4
 10
-1.46199958E+02
 20
2.11790189E+02
  0
VERTEX
  8
0
 62
4
 10
-1.46450118E+02
 20
2.11642424E+02
  0
VERTEX
  8
0
 62
4
 10
-1.46685436E+02
 20
2.11475007E+02
  0
VERTEX
  8
0
 62
4
 10
-1.46904121E+02
 20
2.11289210E+02
  0
VERTEX
  8
0
 62
4
 10
-1.47104509E+02
 20
2.11086449E+02
  0
VERTEX
  8
0
 62
4
 10
-1.47285075E+02
 20
2.10868266E+02
  0
VERTEX
  8
0
 62
4
 10
-1.47444444E+02
 20
2.10636322E+02
  0
VERTEX
  8
0
 62
4
 10
-1.47581405E+02
 20
2.10392381E+02
  0
VERTEX
  8
0
 62
4
 10
-1.47694913E+02
 20
2.10138302E+02
  0
VERTEX
  8
0
 62
4
 10
-1.47784106E+02
 20
2.09876017E+02
  0
VERTEX
  8
0
 62
4
 10
-1.47848304E+02
 20
2.09607522E+02
  0
VERTEX
  8
0
 62
4
 10
-1.47887020E+02
 20
2.09334861E+02
  0
VERTEX
  8
0
 62
4
 10
-1.47899958E+02
 20
2.09060109E+02
  0
SEQEND
  8
0
  0
LINE
  8
0
 62
4
 10
-1.41099958E+02
 20
2.08563686E+02
 11
-1.41099958E+02
 21
2.09060109E+02
  0
POLYLINE
  8
0
 62
4
 66
1
  0
VERTEX
  8
0
 62
4
 10
-1.47899958E+02
 20
2.08563686E+02
  0
VERTEX
  8
0
 62
4
 10
-1.47886271E+02
 20
2.08281105E+02
  0
VERTEX
  8
0
 62
4
 10
-1.47845319E+02
 20
2.08000799E+02
  0
VERTEX
  8
0
 62
4
 10
-1.47777432E+02
 20
2.07725025E+02
  0
VERTEX
  8
0
 62
4
 10
-1.47683157E+02
 20
2.07456003E+02
  0
VERTEX
  8
0
 62
4
 10
-1.47563252E+02
 20
2.07195900E+02
  0
VERTEX
  8
0
 62
4
 10
-1.47418684E+02
 20
2.06946809E+02
  0
VERTEX
  8
0
 62
4
 10
-1.47250616E+02
 20
2.06710737E+02
  0
VERTEX
  8
0
 62
4
 10
-1.47060401E+02
 20
2.06489583E+02
  0
VERTEX
  8
0
 62
4
 10
-1.46849571E+02
 20
2.06285129E+02
  0
VERTEX
  8
0
 62
4
 10
-1.46619823E+02
 20
2.06099021E+02
  0
VERTEX
  8
0
 62
4
 10
-1.46373008E+02
 20
2.05932756E+02
  0
VERTEX
  8
0
 62
4
 10
-1.46111111E+02
 20
2.05787675E+02
  0
VERTEX
  8
0
 62
4
 10
-1.45836243E+02
 20
2.05664944E+02
  0
VERTEX
  8
0
 62
4
 10
-1.45550616E+02
 20
2.05565552E+02
  0
VERTEX
  8
0
 62
4
 10
-1.45256529E+02
 20
2.05490299E+02
  0
VERTEX
  8
0
 62
4
 10
-1.44956351E+02
 20
2.05439791E+02
  0
VERTEX
  8
0
 62
4
 10
-1.44652498E+02
 20
2.05414435E+02
  0
VERTEX
  8
0
 62
4
 10
-1.44347418E+02
 20
2.05414435E+02
  0
VERTEX
  8
0
 62
4
 10
-1.44043565E+02
 20
2.05439791E+02
  0
VERTEX
  8
0
 62
4
 10
-1.43743387E+02
 20
2.05490299E+02
  0
VERTEX
  8
0
 62
4
 10
-1.43449300E+02
 20
2.05565552E+02
  0
VERTEX
  8
0
 62
4
 10
-1.43163673E+02
 20
2.05664944E+02
  0
VERTEX
  8
0
 62
4
 10
-1.42888805E+02
 20
2.05787675E+02
  0
VERTEX
  8
0
 62
4
 10
-1.42626908E+02
 20
2.05932756E+02
  0
VERTEX
  8
0
 62
4
 10
-1.42380093E+02
 20
2.06099021E+02
  0
VERTEX
  8
0
 62
4
 10
-1.42150345E+02
 20
2.06285129E+02
  0
VERTEX
  8
0
 62
4
 10
-1.41939515E+02
 20
2.06489583E+02
  0
VERTEX
  8
0
 62
4
 10
-1.41749300E+02
 20
2.06710737E+02
  0
VERTEX
  8
0
 62
4
 10
-1.41581232E+02
 20
2.06946809E+02
  0
VERTEX
  8
0
 62
4
 10
-1.41436664E+02
 20
2.07195900E+02
  0
VERTEX
  8
0
 62
4
 10
-1.41316759E+02
 20
2.07456003E+02
  0
VERTEX
  8
0
 62
4
 10
-1.41222484E+02
 20
2.07725025E+02
  0
VERTEX
  8
0
 62
4
 10
-1.41154597E+02
 20
2.08000799E+02
  0
VERTEX
  8
0
 62
4
 10
-1.41113645E+02
 20
2.08281105E+02
  0
VERTEX
  8
0
 62
4
 10
-1.41099958E+02
 20
2.08563686E+02
  0
SEQEND
  8
0
  0
LINE
  8
0
 62
4
 10
-1.47899958E+02
 20
2.08563686E+02
 11
-1.47899958E+02
 21
2.09060109E+02
  0
LINE
  8
0
 62
4
 10
-1.40699958E+02
 20
2.08563686E+02
 11
-1.40699958E+02
 21
2.08189080E+02
  0
LINE
  8
0
 62
4
 10
-1.48299958E+02
 20
2.08189080E+02
 11
-1.48299958E+02
 21
2.08563686E+02
  0
POLYLINE
  8
0
 62
4
 66
1
  0
VERTEX
  8
0
 62
4
 10
-1.46886325E+02
 20
2.11305589E+02
  0
VERTEX
  8
0
 62
4
 10
-1.47136857E+02
 20
2.11100642E+02
  0
VERTEX
  8
0
 62
4
 10
-1.47367006E+02
 20
2.10876083E+02
  0
VERTEX
  8
0
 62
4
 10
-1.47574991E+02
 20
2.10633648E+02
  0
VERTEX
  8
0
 62
4
 10
-1.47759205E+02
 20
2.10375212E+02
  0
VERTEX
  8
0
 62
4
 10
-1.47918223E+02
 20
2.10102773E+02
  0
VERTEX
  8
0
 62
4
 10
-1.48050818E+02
 20
2.09818435E+02
  0
VERTEX
  8
0
 62
4
 10
-1.48155963E+02
 20
2.09524398E+02
  0
VERTEX
  8
0
 62
4
 10
-1.48232845E+02
 20
2.09222934E+02
  0
VERTEX
  8
0
 62
4
 10
-1.48280871E+02
 20
2.08916374E+02
  0
VERTEX
  8
0
 62
4
 10
-1.48299670E+02
 20
2.08607087E+02
  0
VERTEX
  8
0
 62
4
 10
-1.48289095E+02
 20
2.08297465E+02
  0
VERTEX
  8
0
 62
4
 10
-1.48249228E+02
 20
2.07989901E+02
  0
VERTEX
  8
0
 62
4
 10
-1.48180379E+02
 20
2.07686773E+02
  0
VERTEX
  8
0
 62
4
 10
-1.48083078E+02
 20
2.07390423E+02
  0
VERTEX
  8
0
 62
4
 10
-1.47958079E+02
 20
2.07103144E+02
  0
VERTEX
  8
0
 62
4
 10
-1.47806347E+02
 20
2.06827154E+02
  0
VERTEX
  8
0
 62
4
 10
-1.47629056E+02
 20
2.06564589E+02
  0
VERTEX
  8
0
 62
4
 10
-1.47427575E+02
 20
2.06317477E+02
  0
VERTEX
  8
0
 62
4
 10
-1.47203463E+02
 20
2.06087730E+02
  0
VERTEX
  8
0
 62
4
 10
-1.46958452E+02
 20
2.05877122E+02
  0
VERTEX
  8
0
 62
4
 10
-1.46694436E+02
 20
2.05687283E+02
  0
VERTEX
  8
0
 62
4
 10
-1.46413455E+02
 20
2.05519679E+02
  0
VERTEX
  8
0
 62
4
 10
-1.46117683E+02
 20
2.05375607E+02
  0
VERTEX
  8
0
 62
4
 10
-1.45809405E+02
 20
2.05256179E+02
  0
VERTEX
  8
0
 62
4
 10
-1.45491004E+02
 20
2.05162320E+02
  0
VERTEX
  8
0
 62
4
 10
-1.45164943E+02
 20
2.05094755E+02
  0
VERTEX
  8
0
 62
4
 10
-1.44833740E+02
 20
2.05054006E+02
  0
VERTEX
  8
0
 62
4
 10
-1.44499958E+02
 20
2.05040387E+02
  0
VERTEX
  8
0
 62
4
 10
-1.44166176E+02
 20
2.05054006E+02
  0
VERTEX
  8
0
 62
4
 10
-1.43834973E+02
 20
2.05094755E+02
  0
VERTEX
  8
0
 62
4
 10
-1.43508912E+02
 20
2.05162320E+02
  0
VERTEX
  8
0
 62
4
 10
-1.43190511E+02
 20
2.05256179E+02
  0
VERTEX
  8
0
 62
4
 10
-1.42882233E+02
 20
2.05375607E+02
  0
VERTEX
  8
0
 62
4
 10
-1.42586461E+02
 20
2.05519679E+02
  0
VERTEX
  8
0
 62
4
 10
-1.42305480E+02
 20
2.05687283E+02
  0
VERTEX
  8
0
 62
4
 10
-1.42041464E+02
 20
2.05877122E+02
  0
VERTEX
  8
0
 62
4
 10
-1.41796453E+02
 20
2.06087730E+02
  0
VERTEX
  8
0
 62
4
 10
-1.41572341E+02
 20
2.06317477E+02
  0
VERTEX
  8
0
 62
4
 10
-1.41370860E+02
 20
2.06564589E+02
  0
VERTEX
  8
0
 62
4
 10
-1.41193569E+02
 20
2.06827154E+02
  0
VERTEX
  8
0
 62
4
 10
-1.41041837E+02
 20
2.07103144E+02
  0
VERTEX
  8
0
 62
4
 10
-1.40916838E+02
 20
2.07390423E+02
  0
VERTEX
  8
0
 62
4
 10
-1.40819537E+02
 20
2.07686773E+02
  0
VERTEX
  8
0
 62
4
 10
-1.40750688E+02
 20
2.07989901E+02
  0
VERTEX
  8
0
 62
4
 10
-1.40710821E+02
 20
2.08297465E+02
  0
VERTEX
  8
0
 62
4
 10
-1.40700246E+02
 20
2.08607087E+02
  0
VERTEX
  8
0
 62
4
 10
-1.40719045E+02
 20
2.08916374E+02
  0
VERTEX
  8
0
 62
4
 10
-1.40767071E+02
 20
2.09222934E+02
  0
VERTEX
  8
0
 62
4
 10
-1.40843953E+02
 20
2.09524398E+02
  0
VERTEX
  8
0
 62
4
 10
-1.40949098E+02
 20
2.09818435E+02
  0
VERTEX
  8
0
 62
4
 10
-1.41081693E+02
 20
2.10102773E+02
  0
VERTEX
  8
0
 62
4
 10
-1.41240711E+02
 20
2.10375212E+02
  0
VERTEX
  8
0
 62
4
 10
-1.41424925E+02
 20
2.10633648E+02
  0
VERTEX
  8
0
 62
4
 10
-1.41632910E+02
 20
2.10876083E+02
  0
VERTEX
  8
0
 62
4
 10
-1.41863059E+02
 20
2.11100642E+02
  0
VERTEX
  8
0
 62
4
 10
-1.42113591E+02
 20
2.11305589E+02
  0
SEQEND
  8
0
  0
POLYLINE
  8
0
 62
4
 66
1
  0
VERTEX
  8
0
 62
4
 10
-1.48299958E+02
 20
2.08189080E+02
  0
VERTEX
  8
0
 62
4
 10
-1.48284660E+02
 20
2.07873254E+02
  0
VERTEX
  8
0
 62
4
 10
-1.48238890E+02
 20
2.07559971E+02
  0
VERTEX
  8
0
 62
4
 10
-1.48163017E+02
 20
2.07251753E+02
  0
VERTEX
  8
0
 62
4
 10
-1.48057651E+02
 20
2.06951082E+02
  0
VERTEX
  8
0
 62
4
 10
-1.47923640E+02
 20
2.06660378E+02
  0
VERTEX
  8
0
 62
4
 10
-1.47762063E+02
 20
2.06381983E+02
  0
VERTEX
  8
0
 62
4
 10
-1.47574223E+02
 20
2.06118137E+02
  0
VERTEX
  8
0
 62
4
 10
-1.47361630E+02
 20
2.05870965E+02
  0
VERTEX
  8
0
 62
4
 10
-1.47125996E+02
 20
2.05642458E+02
  0
VERTEX
  8
0
 62
4
 10
-1.46869219E+02
 20
2.05434454E+02
  0
VERTEX
  8
0
 62
4
 10
-1.46593367E+02
 20
2.05248629E+02
  0
VERTEX
  8
0
 62
4
 10
-1.46300659E+02
 20
2.05086479E+02
  0
VERTEX
  8
0
 62
4
 10
-1.45993453E+02
 20
2.04949309E+02
  0
VERTEX
  8
0
 62
4
 10
-1.45674223E+02
 20
2.04838224E+02
  0
VERTEX
  8
0
 62
4
 10
-1.45345538E+02
 20
2.04754118E+02
  0
VERTEX
  8
0
 62
4
 10
-1.45010044E+02
 20
2.04697668E+02
  0
VERTEX
  8
0
 62
4
 10
-1.44670444E+02
 20
2.04669329E+02
  0
VERTEX
  8
0
 62
4
 10
-1.44329472E+02
 20
2.04669329E+02
  0
VERTEX
  8
0
 62
4
 10
-1.43989872E+02
 20
2.04697668E+02
  0
VERTEX
  8
0
 62
4
 10
-1.43654378E+02
 20
2.04754118E+02
  0
VERTEX
  8
0
 62
4
 10
-1.43325693E+02
 20
2.04838224E+02
  0
VERTEX
  8
0
 62
4
 10
-1.43006463E+02
 20
2.04949309E+02
  0
VERTEX
  8
0
 62
4
 10
-1.42699257E+02
 20
2.05086479E+02
  0
VERTEX
  8
0
 62
4
 10
-1.42406549E+02
 20
2.05248629E+02
  0
VERTEX
  8
0
 62
4
 10
-1.42130697E+02
 20
2.05434454E+02
  0
VERTEX
  8
0
 62
4
 10
-1.41873920E+02
 20
2.05642458E+02
  0
VERTEX
  8
0
 62
4
 10
-1.41638286E+02
 20
2.05870965E+02
  0
VERTEX
  8
0
 62
4
 10
-1.41425693E+02
 20
2.06118137E+02
  0
VERTEX
  8
0
 62
4
 10
-1.41237853E+02
 20
2.06381983E+02
  0
VERTEX
  8
0
 62
4
 10
-1.41076276E+02
 20
2.06660378E+02
  0
VERTEX
  8
0
 62
4
 10
-1.40942265E+02
 20
2.06951082E+02
  0
VERTEX
  8
0
 62
4
 10
-1.40836899E+02
 20
2.07251753E+02
  0
VERTEX
  8
0
 62
4
 10
-1.40761026E+02
 20
2.07559971E+02
  0
VERTEX
  8
0
 62
4
 10
-1.40715256E+02
 20
2.07873254E+02
  0
VERTEX
  8
0
 62
4
 10
-1.40699958E+02
 20
2.08189080E+02
  0
SEQEND
  8
0
  0
ARC
  8
0
 62
4
 10
-2.06536409E+02
 20
1.47166285E+02
 40
8.02366638E+01
 50
4.54342898E+01
 51
4.88781190E+01
  0
ARC
  8
0
 62
4
 10
-9.74633759E+01
 20
1.47166143E+02
 40
8.02368575E+01
 50
1.31121885E+02
 51
1.34565706E+02
  0
LINE
  8
0
 62
4
 10
-1.47849958E+02
 20
2.05086287E+02
 11
-1.47849958E+02
 21
2.05745594E+02
  0
POLYLINE
  8
0
 62
4
 66
1
  0
VERTEX
  8
0
 62
4
 10
-1.56149958E+02
 20
2.05745594E+02
  0
VERTEX
  8
0
 62
4
 10
-1.56134166E+02
 20
2.05410235E+02
  0
VERTEX
  8
0
 62
4
 10
-1.56086910E+02
 20
2.05077428E+02
  0
VERTEX
  8
0
 62
4
 10
-1.56008550E+02
 20
2.04749707E+02
  0
VERTEX
  8
0
 62
4
 10
-1.55899682E+02
 20
2.04429564E+02
  0
VERTEX
  8
0
 62
4
 10
-1.55761135E+02
 20
2.04119438E+02
  0
VERTEX
  8
0
 62
4
 10
-1.55593963E+02
 20
2.03821688E+02
  0
VERTEX
  8
0
 62
4
 10
-1.55399439E+02
 20
2.03538579E+02
  0
VERTEX
  8
0
 62
4
 10
-1.55179042E+02
 20
2.03272267E+02
  0
VERTEX
  8
0
 62
4
 10
-1.54934451E+02
 20
2.03024779E+02
  0
VERTEX
  8
0
 62
4
 10
-1.54667527E+02
 20
2.02797998E+02
  0
VERTEX
  8
0
 62
4
 10
-1.54380300E+02
 20
2.02593650E+02
  0
VERTEX
  8
0
 62
4
 10
-1.54074958E+02
 20
2.02413290E+02
  0
VERTEX
  8
0
 62
4
 10
-1.53753824E+02
 20
2.02258291E+02
  0
VERTEX
  8
0
 62
4
 10
-1.53419342E+02
 20
2.02129833E+02
  0
VERTEX
  8
0
 62
4
 10
-1.53074057E+02
 20
2.02028892E+02
  0
VERTEX
  8
0
 62
4
 10
-1.52720598E+02
 20
2.01956238E+02
  0
VERTEX
  8
0
 62
4
 10
-1.52361654E+02
 20
2.01912423E+02
  0
VERTEX
  8
0
 62
4
 10
-1.51999958E+02
 20
2.01897781E+02
  0
VERTEX
  8
0
 62
4
 10
-1.51638262E+02
 20
2.01912423E+02
  0
VERTEX
  8
0
 62
4
 10
-1.51279318E+02
 20
2.01956238E+02
  0
VERTEX
  8
0
 62
4
 10
-1.50925859E+02
 20
2.02028892E+02
  0
VERTEX
  8
0
 62
4
 10
-1.50580574E+02
 20
2.02129833E+02
  0
VERTEX
  8
0
 62
4
 10
-1.50246092E+02
 20
2.02258291E+02
  0
VERTEX
  8
0
 62
4
 10
-1.49924958E+02
 20
2.02413290E+02
  0
VERTEX
  8
0
 62
4
 10
-1.49619616E+02
 20
2.02593650E+02
  0
VERTEX
  8
0
 62
4
 10
-1.49332389E+02
 20
2.02797998E+02
  0
VERTEX
  8
0
 62
4
 10
-1.49065465E+02
 20
2.03024779E+02
  0
VERTEX
  8
0
 62
4
 10
-1.48820874E+02
 20
2.03272267E+02
  0
VERTEX
  8
0
 62
4
 10
-1.48600477E+02
 20
2.03538579E+02
  0
VERTEX
  8
0
 62
4
 10
-1.48405953E+02
 20
2.03821687E+02
  0
VERTEX
  8
0
 62
4
 10
-1.48238781E+02
 20
2.04119438E+02
  0
VERTEX
  8
0
 62
4
 10
-1.48100234E+02
 20
2.04429564E+02
  0
VERTEX
  8
0
 62
4
 10
-1.47991366E+02
 20
2.04749707E+02
  0
VERTEX
  8
0
 62
4
 10
-1.47913006E+02
 20
2.05077428E+02
  0
VERTEX
  8
0
 62
4
 10
-1.47865750E+02
 20
2.05410235E+02
  0
VERTEX
  8
0
 62
4
 10
-1.47849958E+02
 20
2.05745594E+02
  0
VERTEX
  8
0
 62
4
 10
-1.47865750E+02
 20
2.06080953E+02
  0
VERTEX
  8
0
 62
4
 10
-1.47913006E+02
 20
2.06413760E+02
  0
VERTEX
  8
0
 62
4
 10
-1.47991366E+02
 20
2.06741481E+02
  0
VERTEX
  8
0
 62
4
 10
-1.48100234E+02
 20
2.07061624E+02
  0
VERTEX
  8
0
 62
4
 10
-1.48238781E+02
 20
2.07371750E+02
  0
VERTEX
  8
0
 62
4
 10
-1.48405953E+02
 20
2.07669500E+02
  0
VERTEX
  8
0
 62
4
 10
-1.48600477E+02
 20
2.07952609E+02
  0
VERTEX
  8
0
 62
4
 10
-1.48820874E+02
 20
2.08218921E+02
  0
VERTEX
  8
0
 62
4
 10
-1.49065465E+02
 20
2.08466409E+02
  0
VERTEX
  8
0
 62
4
 10
-1.49332389E+02
 20
2.08693190E+02
  0
VERTEX
  8
0
 62
4
 10
-1.49619616E+02
 20
2.08897538E+02
  0
VERTEX
  8
0
 62
4
 10
-1.49924958E+02
 20
2.09077898E+02
  0
VERTEX
  8
0
 62
4
 10
-1.50246092E+02
 20
2.09232897E+02
  0
VERTEX
  8
0
 62
4
 10
-1.50580574E+02
 20
2.09361355E+02
  0
VERTEX
  8
0
 62
4
 10
-1.50925859E+02
 20
2.09462296E+02
  0
VERTEX
  8
0
 62
4
 10
-1.51279318E+02
 20
2.09534950E+02
  0
VERTEX
  8
0
 62
4
 10
-1.51638262E+02
 20
2.09578765E+02
  0
VERTEX
  8
0
 62
4
 10
-1.51999958E+02
 20
2.09593407E+02
  0
VERTEX
  8
0
 62
4
 10
-1.52361654E+02
 20
2.09578765E+02
  0
VERTEX
  8
0
 62
4
 10
-1.52720598E+02
 20
2.09534950E+02
  0
VERTEX
  8
0
 62
4
 10
-1.53074057E+02
 20
2.09462296E+02
  0
VERTEX
  8
0
 62
4
 10
-1.53419342E+02
 20
2.09361355E+02
  0
VERTEX
  8
0
 62
4
 10
-1.53753824E+02
 20
2.09232897E+02
  0
VERTEX
  8
0
 62
4
 10
-1.54074958E+02
 20
2.09077898E+02
  0
VERTEX
  8
0
 62
4
 10
-1.54380300E+02
 20
2.08897538E+02
  0
VERTEX
  8
0
 62
4
 10
-1.54667527E+02
 20
2.08693190E+02
  0
VERTEX
  8
0
 62
4
 10
-1.54934451E+02
 20
2.08466409E+02
  0
VERTEX
  8
0
 62
4
 10
-1.55179042E+02
 20
2.08218921E+02
  0
VERTEX
  8
0
 62
4
 10
-1.55399439E+02
 20
2.07952609E+02
  0
VERTEX
  8
0
 62
4
 10
-1.55593963E+02
 20
2.07669501E+02
  0
VERTEX
  8
0
 62
4
 10
-1.55761135E+02
 20
2.07371750E+02
  0
VERTEX
  8
0
 62
4
 10
-1.55899682E+02
 20
2.07061624E+02
  0
VERTEX
  8
0
 62
4
 10
-1.56008550E+02
 20
2.06741481E+02
  0
VERTEX
  8
0
 62
4
 10
-1.56086910E+02
 20
2.06413760E+02
  0
VERTEX
  8
0
 62
4
 10
-1.56134166E+02
 20
2.06080953E+02
  0
VERTEX
  8
0
 62
4
 10
-1.56149958E+02
 20
2.05745594E+02
  0
SEQEND
  8
0
  0
POLYLINE
  8
0
 62
4
 66
1
  0
VERTEX
  8
0
 62
4
 10
-1.56149958E+02
 20
2.05086287E+02
  0
VERTEX
  8
0
 62
4
 10
-1.56133251E+02
 20
2.04741372E+02
  0
VERTEX
  8
0
 62
4
 10
-1.56083266E+02
 20
2.04399233E+02
  0
VERTEX
  8
0
 62
4
 10
-1.56000404E+02
 20
2.04062627E+02
  0
VERTEX
  8
0
 62
4
 10
-1.55885333E+02
 20
2.03734262E+02
  0
VERTEX
  8
0
 62
4
 10
-1.55738979E+02
 20
2.03416784E+02
  0
VERTEX
  8
0
 62
4
 10
-1.55562521E+02
 20
2.03112747E+02
  0
VERTEX
  8
0
 62
4
 10
-1.55357379E+02
 20
2.02824599E+02
  0
VERTEX
  8
0
 62
4
 10
-1.55125205E+02
 20
2.02554662E+02
  0
VERTEX
  8
0
 62
4
 10
-1.54867868E+02
 20
2.02305108E+02
  0
VERTEX
  8
0
 62
4
 10
-1.54587441E+02
 20
2.02077946E+02
  0
VERTEX
  8
0
 62
4
 10
-1.54286180E+02
 20
2.01875005E+02
  0
VERTEX
  8
0
 62
4
 10
-1.53966513E+02
 20
2.01697920E+02
  0
VERTEX
  8
0
 62
4
 10
-1.53631012E+02
 20
2.01548116E+02
  0
VERTEX
  8
0
 62
4
 10
-1.53282379E+02
 20
2.01426799E+02
  0
VERTEX
  8
0
 62
4
 10
-1.52923420E+02
 20
2.01334947E+02
  0
VERTEX
  8
0
 62
4
 10
-1.52557026E+02
 20
2.01273298E+02
  0
VERTEX
  8
0
 62
4
 10
-1.52186147E+02
 20
2.01242348E+02
  0
VERTEX
  8
0
 62
4
 10
-1.51813769E+02
 20
2.01242348E+02
  0
VERTEX
  8
0
 62
4
 10
-1.51442890E+02
 20
2.01273298E+02
  0
VERTEX
  8
0
 62
4
 10
-1.51076496E+02
 20
2.01334947E+02
  0
VERTEX
  8
0
 62
4
 10
-1.50717537E+02
 20
2.01426799E+02
  0
VERTEX
  8
0
 62
4
 10
-1.50368904E+02
 20
2.01548116E+02
  0
VERTEX
  8
0
 62
4
 10
-1.50033403E+02
 20
2.01697920E+02
  0
VERTEX
  8
0
 62
4
 10
-1.49713736E+02
 20
2.01875005E+02
  0
VERTEX
  8
0
 62
4
 10
-1.49412475E+02
 20
2.02077946E+02
  0
VERTEX
  8
0
 62
4
 10
-1.49132048E+02
 20
2.02305108E+02
  0
VERTEX
  8
0
 62
4
 10
-1.48874711E+02
 20
2.02554662E+02
  0
VERTEX
  8
0
 62
4
 10
-1.48642537E+02
 20
2.02824599E+02
  0
VERTEX
  8
0
 62
4
 10
-1.48437396E+02
 20
2.03112746E+02
  0
VERTEX
  8
0
 62
4
 10
-1.48260937E+02
 20
2.03416783E+02
  0
VERTEX
  8
0
 62
4
 10
-1.48114583E+02
 20
2.03734262E+02
  0
VERTEX
  8
0
 62
4
 10
-1.47999512E+02
 20
2.04062627E+02
  0
VERTEX
  8
0
 62
4
 10
-1.47916650E+02
 20
2.04399233E+02
  0
VERTEX
  8
0
 62
4
 10
-1.47866665E+02
 20
2.04741372E+02
  0
VERTEX
  8
0
 62
4
 10
-1.47849958E+02
 20
2.05086287E+02
  0
SEQEND
  8
0
  0
LINE
  8
0
 62
4
 10
-1.56149958E+02
 20
2.05086287E+02
 11
-1.56149958E+02
 21
2.05745594E+02
  0
LINE
  8
0
 62
4
 10
-1.66999958E+02
 20
2.02330024E+02
 11
-1.68499958E+02
 21
2.01197467E+02
  0
LINE
  8
0
 62
4
 10
-1.66999958E+02
 20
2.02330024E+02
 11
-1.54895715E+02
 21
2.02330024E+02
  0
LINE
  8
0
 62
4
 10
-1.66999958E+02
 20
2.02718695E+02
 11
-1.55271347E+02
 21
2.02718695E+02
  0
LINE
  8
0
 62
4
 10
-1.66999958E+02
 20
2.12361407E+02
 11
-1.36999958E+02
 21
2.12361407E+02
  0
LINE
  8
0
  6
CENTER
 62
6
 10
-1.44499958E+02
 20
2.12989080E+02
 11
-1.44499958E+02
 21
2.03389080E+02
  0
LINE
  8
0
  6
CENTER
 62
6
 10
-1.39699958E+02
 20
2.08189080E+02
 11
-1.49299958E+02
 21
2.08189080E+02
  0
LINE
  8
0
  6
CENTER
 62
6
 10
-1.59499958E+02
 20
2.11763677E+02
 11
-1.59499958E+02
 21
2.04614483E+02
  0
LINE
  8
0
  6
CENTER
 62
6
 10
-1.55925361E+02
 20
2.08189080E+02
 11
-1.63074555E+02
 21
2.08189080E+02
  0
LINE
  8
0
  6
CENTER
 62
6
 10
-1.51999958E+02
 20
2.09593936E+02
 11
-1.51999958E+02
 21
2.00293936E+02
  0
LINE
  8
0
  6
CENTER
 62
6
 10
-1.47349958E+02
 20
2.04943936E+02
 11
-1.56649958E+02
 21
2.04943936E+02
  0
LINE
  8
0
 62
4
 10
-1.43499958E+02
 20
2.02330024E+02
 11
-1.43499958E+02
 21
2.00000015E+02
  0
LINE
  8
0
 62
4
 10
-1.68499958E+02
 20
2.01197467E+02
 11
-1.68499958E+02
 21
2.00000015E+02
  0
POLYLINE
  8
0
 62
4
 66
1
  0
VERTEX
  8
0
 62
4
 10
-1.02499981E+02
 20
1.85159716E+02
  0
VERTEX
  8
0
 62
4
 10
-1.02508032E+02
 20
1.85325940E+02
  0
VERTEX
  8
0
 62
4
 10
-1.02532122E+02
 20
1.85490826E+02
  0
VERTEX
  8
0
 62
4
 10
-1.02572055E+02
 20
1.85653046E+02
  0
VERTEX
  8
0
 62
4
 10
-1.02627511E+02
 20
1.85811294E+02
  0
VERTEX
  8
0
 62
4
 10
-1.02698043E+02
 20
1.85964296E+02
  0
VERTEX
  8
0
 62
4
 10
-1.02783083E+02
 20
1.86110820E+02
  0
VERTEX
  8
0
 62
4
 10
-1.02881947E+02
 20
1.86249686E+02
  0
VERTEX
  8
0
 62
4
 10
-1.02993838E+02
 20
1.86379776E+02
  0
VERTEX
  8
0
 62
4
 10
-1.03117856E+02
 20
1.86500043E+02
  0
VERTEX
  8
0
 62
4
 10
-1.03253001E+02
 20
1.86609519E+02
  0
VERTEX
  8
0
 62
4
 10
-1.03398187E+02
 20
1.86707322E+02
  0
VERTEX
  8
0
 62
4
 10
-1.03552244E+02
 20
1.86792664E+02
  0
VERTEX
  8
0
 62
4
 10
-1.03713931E+02
 20
1.86864859E+02
  0
VERTEX
  8
0
 62
4
 10
-1.03881947E+02
 20
1.86923324E+02
  0
VERTEX
  8
0
 62
4
 10
-1.04054939E+02
 20
1.86967591E+02
  0
VERTEX
  8
0
 62
4
 10
-1.04231514E+02
 20
1.86997301E+02
  0
VERTEX
  8
0
 62
4
 10
-1.04410251E+02
 20
1.87012216E+02
  0
VERTEX
  8
0
 62
4
 10
-1.04589711E+02
 20
1.87012216E+02
  0
VERTEX
  8
0
 62
4
 10
-1.04768448E+02
 20
1.86997301E+02
  0
VERTEX
  8
0
 62
4
 10
-1.04945023E+02
 20
1.86967591E+02
  0
VERTEX
  8
0
 62
4
 10
-1.05118015E+02
 20
1.86923324E+02
  0
VERTEX
  8
0
 62
4
 10
-1.05286031E+02
 20
1.86864859E+02
  0
VERTEX
  8
0
 62
4
 10
-1.05447718E+02
 20
1.86792664E+02
  0
VERTEX
  8
0
 62
4
 10
-1.05601775E+02
 20
1.86707322E+02
  0
VERTEX
  8
0
 62
4
 10
-1.05746961E+02
 20
1.86609519E+02
  0
VERTEX
  8
0
 62
4
 10
-1.05882106E+02
 20
1.86500043E+02
  0
VERTEX
  8
0
 62
4
 10
-1.06006124E+02
 20
1.86379776E+02
  0
VERTEX
  8
0
 62
4
 10
-1.06118015E+02
 20
1.86249686E+02
  0
VERTEX
  8
0
 62
4
 10
-1.06216879E+02
 20
1.86110820E+02
  0
VERTEX
  8
0
 62
4
 10
-1.06301919E+02
 20
1.85964296E+02
  0
VERTEX
  8
0
 62
4
 10
-1.06372451E+02
 20
1.85811294E+02
  0
VERTEX
  8
0
 62
4
 10
-1.06427907E+02
 20
1.85653046E+02
  0
VERTEX
  8
0
 62
4
 10
-1.06467840E+02
 20
1.85490826E+02
  0
VERTEX
  8
0
 62
4
 10
-1.06491930E+02
 20
1.85325940E+02
  0
VERTEX
  8
0
 62
4
 10
-1.06499981E+02
 20
1.85159716E+02
  0
SEQEND
  8
0
  0
LINE
  8
0
 62
4
 10
-1.06499981E+02
 20
1.83682840E+02
 11
-1.06499981E+02
 21
1.85159716E+02
  0
LINE
  8
0
 62
4
 10
-1.02499981E+02
 20
1.83682840E+02
 11
-1.02499981E+02
 21
1.85159716E+02
  0
POLYLINE
  8
0
 62
4
 66
1
  0
VERTEX
  8
0
 62
4
 10
-1.06499981E+02
 20
1.83682840E+02
  0
VERTEX
  8
0
 62
4
 10
-1.06492370E+02
 20
1.83521221E+02
  0
VERTEX
  8
0
 62
4
 10
-1.06469597E+02
 20
1.83360832E+02
  0
VERTEX
  8
0
 62
4
 10
-1.06431833E+02
 20
1.83202894E+02
  0
VERTEX
  8
0
 62
4
 10
-1.06379366E+02
 20
1.83048609E+02
  0
VERTEX
  8
0
 62
4
 10
-1.06312597E+02
 20
1.82899150E+02
  0
VERTEX
  8
0
 62
4
 10
-1.06232032E+02
 20
1.82755656E+02
  0
VERTEX
  8
0
 62
4
 10
-1.06138285E+02
 20
1.82619218E+02
  0
VERTEX
  8
0
 62
4
 10
-1.06032070E+02
 20
1.82490875E+02
  0
VERTEX
  8
0
 62
4
 10
-1.05914195E+02
 20
1.82371604E+02
  0
VERTEX
  8
0
 62
4
 10
-1.05785556E+02
 20
1.82262312E+02
  0
VERTEX
  8
0
 62
4
 10
-1.05647134E+02
 20
1.82163831E+02
  0
VERTEX
  8
0
 62
4
 10
-1.05499981E+02
 20
1.82076910E+02
  0
VERTEX
  8
0
 62
4
 10
-1.05345218E+02
 20
1.82002212E+02
  0
VERTEX
  8
0
 62
4
 10
-1.05184021E+02
 20
1.81940304E+02
  0
VERTEX
  8
0
 62
4
 10
-1.05017619E+02
 20
1.81891658E+02
  0
VERTEX
  8
0
 62
4
 10
-1.04847277E+02
 20
1.81856644E+02
  0
VERTEX
  8
0
 62
4
 10
-1.04674292E+02
 20
1.81835529E+02
  0
VERTEX
  8
0
 62
4
 10
-1.04499981E+02
 20
1.81828472E+02
  0
VERTEX
  8
0
 62
4
 10
-1.04325670E+02
 20
1.81835529E+02
  0
VERTEX
  8
0
 62
4
 10
-1.04152685E+02
 20
1.81856644E+02
  0
VERTEX
  8
0
 62
4
 10
-1.03982343E+02
 20
1.81891658E+02
  0
VERTEX
  8
0
 62
4
 10
-1.03815941E+02
 20
1.81940304E+02
  0
VERTEX
  8
0
 62
4
 10
-1.03654744E+02
 20
1.82002212E+02
  0
VERTEX
  8
0
 62
4
 10
-1.03499981E+02
 20
1.82076910E+02
  0
VERTEX
  8
0
 62
4
 10
-1.03352828E+02
 20
1.82163831E+02
  0
VERTEX
  8
0
 62
4
 10
-1.03214406E+02
 20
1.82262312E+02
  0
VERTEX
  8
0
 62
4
 10
-1.03085767E+02
 20
1.82371604E+02
  0
VERTEX
  8
0
 62
4
 10
-1.02967892E+02
 20
1.82490875E+02
  0
VERTEX
  8
0
 62
4
 10
-1.02861677E+02
 20
1.82619218E+02
  0
VERTEX
  8
0
 62
4
 10
-1.02767930E+02
 20
1.82755656E+02
  0
VERTEX
  8
0
 62
4
 10
-1.02687365E+02
 20
1.82899150E+02
  0
VERTEX
  8
0
 62
4
 10
-1.02620596E+02
 20
1.83048609E+02
  0
VERTEX
  8
0
 62
4
 10
-1.02568129E+02
 20
1.83202894E+02
  0
VERTEX
  8
0
 62
4
 10
-1.02530365E+02
 20
1.83360832E+02
  0
VERTEX
  8
0
 62
4
 10
-1.02507592E+02
 20
1.83521221E+02
  0
VERTEX
  8
0
 62
4
 10
-1.02499981E+02
 20
1.83682840E+02
  0
VERTEX
  8
0
 62
4
 10
-1.02507592E+02
 20
1.83844459E+02
  0
VERTEX
  8
0
 62
4
 10
-1.02530365E+02
 20
1.84004848E+02
  0
VERTEX
  8
0
 62
4
 10
-1.02568129E+02
 20
1.84162786E+02
  0
VERTEX
  8
0
 62
4
 10
-1.02620596E+02
 20
1.84317071E+02
  0
VERTEX
  8
0
 62
4
 10
-1.02687365E+02
 20
1.84466530E+02
  0
VERTEX
  8
0
 62
4
 10
-1.02767930E+02
 20
1.84610024E+02
  0
VERTEX
  8
0
 62
4
 10
-1.02861677E+02
 20
1.84746462E+02
  0
VERTEX
  8
0
 62
4
 10
-1.02967892E+02
 20
1.84874805E+02
  0
VERTEX
  8
0
 62
4
 10
-1.03085767E+02
 20
1.84994076E+02
  0
VERTEX
  8
0
 62
4
 10
-1.03214406E+02
 20
1.85103368E+02
  0
VERTEX
  8
0
 62
4
 10
-1.03352828E+02
 20
1.85201849E+02
  0
VERTEX
  8
0
 62
4
 10
-1.03499981E+02
 20
1.85288770E+02
  0
VERTEX
  8
0
 62
4
 10
-1.03654744E+02
 20
1.85363468E+02
  0
VERTEX
  8
0
 62
4
 10
-1.03815941E+02
 20
1.85425376E+02
  0
VERTEX
  8
0
 62
4
 10
-1.03982343E+02
 20
1.85474022E+02
  0
VERTEX
  8
0
 62
4
 10
-1.04152685E+02
 20
1.85509036E+02
  0
VERTEX
  8
0
 62
4
 10
-1.04325670E+02
 20
1.85530151E+02
  0
VERTEX
  8
0
 62
4
 10
-1.04499981E+02
 20
1.85537208E+02
  0
VERTEX
  8
0
 62
4
 10
-1.04674292E+02
 20
1.85530151E+02
  0
VERTEX
  8
0
 62
4
 10
-1.04847277E+02
 20
1.85509036E+02
  0
VERTEX
  8
0
 62
4
 10
-1.05017619E+02
 20
1.85474022E+02
  0
VERTEX
  8
0
 62
4
 10
-1.05184021E+02
 20
1.85425376E+02
  0
VERTEX
  8
0
 62
4
 10
-1.05345218E+02
 20
1.85363468E+02
  0
VERTEX
  8
0
 62
4
 10
-1.05499981E+02
 20
1.85288770E+02
  0
VERTEX
  8
0
 62
4
 10
-1.05647134E+02
 20
1.85201849E+02
  0
VERTEX
  8
0
 62
4
 10
-1.05785556E+02
 20
1.85103368E+02
  0
VERTEX
  8
0
 62
4
 10
-1.05914195E+02
 20
1.84994076E+02
  0
VERTEX
  8
0
 62
4
 10
-1.06032070E+02
 20
1.84874805E+02
  0
VERTEX
  8
0
 62
4
 10
-1.06138285E+02
 20
1.84746462E+02
  0
VERTEX
  8
0
 62
4
 10
-1.06232032E+02
 20
1.84610024E+02
  0
VERTEX
  8
0
 62
4
 10
-1.06312597E+02
 20
1.84466530E+02
  0
VERTEX
  8
0
 62
4
 10
-1.06379366E+02
 20
1.84317071E+02
  0
VERTEX
  8
0
 62
4
 10
-1.06431833E+02
 20
1.84162786E+02
  0
VERTEX
  8
0
 62
4
 10
-1.06469597E+02
 20
1.84004848E+02
  0
VERTEX
  8
0
 62
4
 10
-1.06492370E+02
 20
1.83844459E+02
  0
VERTEX
  8
0
 62
4
 10
-1.06499981E+02
 20
1.83682840E+02
  0
SEQEND
  8
0
  0
POLYLINE
  8
0
 62
6
 66
1
  0
VERTEX
  8
0
 62
6
 10
-1.05999981E+02
 20
1.83682840E+02
  0
VERTEX
  8
0
 62
6
 10
-1.05994273E+02
 20
1.83561626E+02
  0
VERTEX
  8
0
 62
6
 10
-1.05977193E+02
 20
1.83441334E+02
  0
VERTEX
  8
0
 62
6
 10
-1.05948870E+02
 20
1.83322881E+02
  0
VERTEX
  8
0
 62
6
 10
-1.05909520E+02
 20
1.83207167E+02
  0
VERTEX
  8
0
 62
6
 10
-1.05859443E+02
 20
1.83095073E+02
  0
VERTEX
  8
0
 62
6
 10
-1.05799019E+02
 20
1.82987452E+02
  0
VERTEX
  8
0
 62
6
 10
-1.05728709E+02
 20
1.82885124E+02
  0
VERTEX
  8
0
 62
6
 10
-1.05649048E+02
 20
1.82788867E+02
  0
VERTEX
  8
0
 62
6
 10
-1.05560641E+02
 20
1.82699413E+02
  0
VERTEX
  8
0
 62
6
 10
-1.05464162E+02
 20
1.82617444E+02
  0
VERTEX
  8
0
 62
6
 10
-1.05360346E+02
 20
1.82543583E+02
  0
VERTEX
  8
0
 62
6
 10
-1.05249981E+02
 20
1.82478393E+02
  0
VERTEX
  8
0
 62
6
 10
-1.05133908E+02
 20
1.82422369E+02
  0
VERTEX
  8
0
 62
6
 10
-1.05013011E+02
 20
1.82375938E+02
  0
VERTEX
  8
0
 62
6
 10
-1.04888210E+02
 20
1.82339454E+02
  0
VERTEX
  8
0
 62
6
 10
-1.04760453E+02
 20
1.82313193E+02
  0
VERTEX
  8
0
 62
6
 10
-1.04630715E+02
 20
1.82297357E+02
  0
VERTEX
  8
0
 62
6
 10
-1.04499981E+02
 20
1.82292064E+02
  0
VERTEX
  8
0
 62
6
 10
-1.04369247E+02
 20
1.82297357E+02
  0
VERTEX
  8
0
 62
6
 10
-1.04239509E+02
 20
1.82313193E+02
  0
VERTEX
  8
0
 62
6
 10
-1.04111752E+02
 20
1.82339454E+02
  0
VERTEX
  8
0
 62
6
 10
-1.03986951E+02
 20
1.82375938E+02
  0
VERTEX
  8
0
 62
6
 10
-1.03866054E+02
 20
1.82422369E+02
  0
VERTEX
  8
0
 62
6
 10
-1.03749981E+02
 20
1.82478393E+02
  0
VERTEX
  8
0
 62
6
 10
-1.03639616E+02
 20
1.82543583E+02
  0
VERTEX
  8
0
 62
6
 10
-1.03535800E+02
 20
1.82617444E+02
  0
VERTEX
  8
0
 62
6
 10
-1.03439321E+02
 20
1.82699413E+02
  0
VERTEX
  8
0
 62
6
 10
-1.03350914E+02
 20
1.82788867E+02
  0
VERTEX
  8
0
 62
6
 10
-1.03271253E+02
 20
1.82885124E+02
  0
VERTEX
  8
0
 62
6
 10
-1.03200943E+02
 20
1.82987452E+02
  0
VERTEX
  8
0
 62
6
 10
-1.03140519E+02
 20
1.83095073E+02
  0
VERTEX
  8
0
 62
6
 10
-1.03090442E+02
 20
1.83207167E+02
  0
VERTEX
  8
0
 62
6
 10
-1.03051092E+02
 20
1.83322881E+02
  0
VERTEX
  8
0
 62
6
 10
-1.03022769E+02
 20
1.83441334E+02
  0
VERTEX
  8
0
 62
6
 10
-1.03005689E+02
 20
1.83561626E+02
  0
VERTEX
  8
0
 62
6
 10
-1.02999981E+02
 20
1.83682840E+02
  0
VERTEX
  8
0
 62
6
 10
-1.03005689E+02
 20
1.83804054E+02
  0
VERTEX
  8
0
 62
6
 10
-1.03022769E+02
 20
1.83924346E+02
  0
VERTEX
  8
0
 62
6
 10
-1.03051092E+02
 20
1.84042799E+02
  0
VERTEX
  8
0
 62
6
 10
-1.03090442E+02
 20
1.84158513E+02
  0
VERTEX
  8
0
 62
6
 10
-1.03140519E+02
 20
1.84270607E+02
  0
VERTEX
  8
0
 62
6
 10
-1.03200943E+02
 20
1.84378228E+02
  0
VERTEX
  8
0
 62
6
 10
-1.03271253E+02
 20
1.84480556E+02
  0
VERTEX
  8
0
 62
6
 10
-1.03350914E+02
 20
1.84576813E+02
  0
VERTEX
  8
0
 62
6
 10
-1.03439321E+02
 20
1.84666267E+02
  0
VERTEX
  8
0
 62
6
 10
-1.03535800E+02
 20
1.84748236E+02
  0
VERTEX
  8
0
 62
6
 10
-1.03639616E+02
 20
1.84822097E+02
  0
VERTEX
  8
0
 62
6
 10
-1.03749981E+02
 20
1.84887287E+02
  0
VERTEX
  8
0
 62
6
 10
-1.03866054E+02
 20
1.84943311E+02
  0
VERTEX
  8
0
 62
6
 10
-1.03986951E+02
 20
1.84989742E+02
  0
VERTEX
  8
0
 62
6
 10
-1.04111752E+02
 20
1.85026226E+02
  0
VERTEX
  8
0
 62
6
 10
-1.04239509E+02
 20
1.85052487E+02
  0
VERTEX
  8
0
 62
6
 10
-1.04369247E+02
 20
1.85068323E+02
  0
VERTEX
  8
0
 62
6
 10
-1.04499981E+02
 20
1.85073616E+02
  0
VERTEX
  8
0
 62
6
 10
-1.04630715E+02
 20
1.85068323E+02
  0
VERTEX
  8
0
 62
6
 10
-1.04760453E+02
 20
1.85052487E+02
  0
VERTEX
  8
0
 62
6
 10
-1.04888210E+02
 20
1.85026226E+02
  0
VERTEX
  8
0
 62
6
 10
-1.05013011E+02
 20
1.84989742E+02
  0
VERTEX
  8
0
 62
6
 10
-1.05133908E+02
 20
1.84943311E+02
  0
VERTEX
  8
0
 62
6
 10
-1.05249981E+02
 20
1.84887287E+02
  0
VERTEX
  8
0
 62
6
 10
-1.05360346E+02
 20
1.84822097E+02
  0
VERTEX
  8
0
 62
6
 10
-1.05464162E+02
 20
1.84748236E+02
  0
VERTEX
  8
0
 62
6
 10
-1.05560641E+02
 20
1.84666267E+02
  0
VERTEX
  8
0
 62
6
 10
-1.05649048E+02
 20
1.84576813E+02
  0
VERTEX
  8
0
 62
6
 10
-1.05728709E+02
 20
1.84480556E+02
  0
VERTEX
  8
0
 62
6
 10
-1.05799019E+02
 20
1.84378228E+02
  0
VERTEX
  8
0
 62
6
 10
-1.05859443E+02
 20
1.84270607E+02
  0
VERTEX
  8
0
 62
6
 10
-1.05909520E+02
 20
1.84158513E+02
  0
VERTEX
  8
0
 62
6
 10
-1.05948870E+02
 20
1.84042799E+02
  0
VERTEX
  8
0
 62
6
 10
-1.05977193E+02
 20
1.83924346E+02
  0
VERTEX
  8
0
 62
6
 10
-1.05994273E+02
 20
1.83804054E+02
  0
VERTEX
  8
0
 62
6
 10
-1.05999981E+02
 20
1.83682840E+02
  0
SEQEND
  8
0
  0
LINE
  8
0
 62
4
 10
-1.04499981E+02
 20
1.84749101E+02
 11
-1.05499981E+02
 21
1.84220606E+02
  0
LINE
  8
0
 62
4
 10
-1.05499981E+02
 20
1.84220606E+02
 11
-1.05499981E+02
 21
1.83145073E+02
  0
LINE
  8
0
 62
4
 10
-1.05499981E+02
 20
1.83145073E+02
 11
-1.04499981E+02
 21
1.82607306E+02
  0
LINE
  8
0
 62
4
 10
-1.04499981E+02
 20
1.82607306E+02
 11
-1.03499981E+02
 21
1.83145073E+02
  0
LINE
  8
0
 62
4
 10
-1.03499981E+02
 20
1.83145073E+02
 11
-1.03499981E+02
 21
1.84220606E+02
  0
LINE
  8
0
 62
4
 10
-1.03499981E+02
 20
1.84220606E+02
 11
-1.04499981E+02
 21
1.84749101E+02
  0
LINE
  8
0
 62
4
 10
-9.54999809E+01
 20
1.84220606E+02
 11
-9.64999809E+01
 21
1.84749101E+02
  0
LINE
  8
0
 62
4
 10
-9.54999809E+01
 20
1.83145073E+02
 11
-9.54999809E+01
 21
1.84220606E+02
  0
LINE
  8
0
 62
4
 10
-9.64999809E+01
 20
1.82607306E+02
 11
-9.54999809E+01
 21
1.83145073E+02
  0
LINE
  8
0
 62
4
 10
-9.74999809E+01
 20
1.83145073E+02
 11
-9.64999809E+01
 21
1.82607306E+02
  0
LINE
  8
0
 62
4
 10
-9.74999809E+01
 20
1.84220606E+02
 11
-9.74999809E+01
 21
1.83145073E+02
  0
LINE
  8
0
 62
4
 10
-9.64999809E+01
 20
1.84749101E+02
 11
-9.74999809E+01
 21
1.84220606E+02
  0
POLYLINE
  8
0
 62
6
 66
1
  0
VERTEX
  8
0
 62
6
 10
-9.79999809E+01
 20
1.83682840E+02
  0
VERTEX
  8
0
 62
6
 10
-9.79942729E+01
 20
1.83561626E+02
  0
VERTEX
  8
0
 62
6
 10
-9.79771925E+01
 20
1.83441334E+02
  0
VERTEX
  8
0
 62
6
 10
-9.79488696E+01
 20
1.83322881E+02
  0
VERTEX
  8
0
 62
6
 10
-9.79095198E+01
 20
1.83207167E+02
  0
VERTEX
  8
0
 62
6
 10
-9.78594426E+01
 20
1.83095073E+02
  0
VERTEX
  8
0
 62
6
 10
-9.77990190E+01
 20
1.82987452E+02
  0
VERTEX
  8
0
 62
6
 10
-9.77287090E+01
 20
1.82885124E+02
  0
VERTEX
  8
0
 62
6
 10
-9.76490476E+01
 20
1.82788867E+02
  0
VERTEX
  8
0
 62
6
 10
-9.75606411E+01
 20
1.82699413E+02
  0
VERTEX
  8
0
 62
6
 10
-9.74641623E+01
 20
1.82617444E+02
  0
VERTEX
  8
0
 62
6
 10
-9.73603456E+01
 20
1.82543583E+02
  0
VERTEX
  8
0
 62
6
 10
-9.72499809E+01
 20
1.82478393E+02
  0
VERTEX
  8
0
 62
6
 10
-9.71339083E+01
 20
1.82422369E+02
  0
VERTEX
  8
0
 62
6
 10
-9.70130111E+01
 20
1.82375938E+02
  0
VERTEX
  8
0
 62
6
 10
-9.68882095E+01
 20
1.82339454E+02
  0
VERTEX
  8
0
 62
6
 10
-9.67604532E+01
 20
1.82313193E+02
  0
VERTEX
  8
0
 62
6
 10
-9.66307145E+01
 20
1.82297357E+02
  0
VERTEX
  8
0
 62
6
 10
-9.64999809E+01
 20
1.82292064E+02
  0
VERTEX
  8
0
 62
6
 10
-9.63692473E+01
 20
1.82297357E+02
  0
VERTEX
  8
0
 62
6
 10
-9.62395086E+01
 20
1.82313193E+02
  0
VERTEX
  8
0
 62
6
 10
-9.61117523E+01
 20
1.82339454E+02
  0
VERTEX
  8
0
 62
6
 10
-9.59869507E+01
 20
1.82375938E+02
  0
VERTEX
  8
0
 62
6
 10
-9.58660535E+01
 20
1.82422369E+02
  0
VERTEX
  8
0
 62
6
 10
-9.57499809E+01
 20
1.82478393E+02
  0
VERTEX
  8
0
 62
6
 10
-9.56396162E+01
 20
1.82543583E+02
  0
VERTEX
  8
0
 62
6
 10
-9.55357995E+01
 20
1.82617444E+02
  0
VERTEX
  8
0
 62
6
 10
-9.54393207E+01
 20
1.82699413E+02
  0
VERTEX
  8
0
 62
6
 10
-9.53509142E+01
 20
1.82788867E+02
  0
VERTEX
  8
0
 62
6
 10
-9.52712528E+01
 20
1.82885124E+02
  0
VERTEX
  8
0
 62
6
 10
-9.52009428E+01
 20
1.82987452E+02
  0
VERTEX
  8
0
 62
6
 10
-9.51405192E+01
 20
1.83095073E+02
  0
VERTEX
  8
0
 62
6
 10
-9.50904420E+01
 20
1.83207167E+02
  0
VERTEX
  8
0
 62
6
 10
-9.50510922E+01
 20
1.83322881E+02
  0
VERTEX
  8
0
 62
6
 10
-9.50227693E+01
 20
1.83441334E+02
  0
VERTEX
  8
0
 62
6
 10
-9.50056889E+01
 20
1.83561626E+02
  0
VERTEX
  8
0
 62
6
 10
-9.49999809E+01
 20
1.83682840E+02
  0
VERTEX
  8
0
 62
6
 10
-9.50056889E+01
 20
1.83804054E+02
  0
VERTEX
  8
0
 62
6
 10
-9.50227693E+01
 20
1.83924346E+02
  0
VERTEX
  8
0
 62
6
 10
-9.50510922E+01
 20
1.84042799E+02
  0
VERTEX
  8
0
 62
6
 10
-9.50904420E+01
 20
1.84158513E+02
  0
VERTEX
  8
0
 62
6
 10
-9.51405192E+01
 20
1.84270607E+02
  0
VERTEX
  8
0
 62
6
 10
-9.52009428E+01
 20
1.84378228E+02
  0
VERTEX
  8
0
 62
6
 10
-9.52712528E+01
 20
1.84480556E+02
  0
VERTEX
  8
0
 62
6
 10
-9.53509142E+01
 20
1.84576813E+02
  0
VERTEX
  8
0
 62
6
 10
-9.54393207E+01
 20
1.84666267E+02
  0
VERTEX
  8
0
 62
6
 10
-9.55357995E+01
 20
1.84748236E+02
  0
VERTEX
  8
0
 62
6
 10
-9.56396162E+01
 20
1.84822097E+02
  0
VERTEX
  8
0
 62
6
 10
-9.57499809E+01
 20
1.84887287E+02
  0
VERTEX
  8
0
 62
6
 10
-9.58660535E+01
 20
1.84943311E+02
  0
VERTEX
  8
0
 62
6
 10
-9.59869507E+01
 20
1.84989742E+02
  0
VERTEX
  8
0
 62
6
 10
-9.61117523E+01
 20
1.85026226E+02
  0
VERTEX
  8
0
 62
6
 10
-9.62395086E+01
 20
1.85052487E+02
  0
VERTEX
  8
0
 62
6
 10
-9.63692473E+01
 20
1.85068323E+02
  0
VERTEX
  8
0
 62
6
 10
-9.64999809E+01
 20
1.85073616E+02
  0
VERTEX
  8
0
 62
6
 10
-9.66307145E+01
 20
1.85068323E+02
  0
VERTEX
  8
0
 62
6
 10
-9.67604532E+01
 20
1.85052487E+02
  0
VERTEX
  8
0
 62
6
 10
-9.68882095E+01
 20
1.85026226E+02
  0
VERTEX
  8
0
 62
6
 10
-9.70130111E+01
 20
1.84989742E+02
  0
VERTEX
  8
0
 62
6
 10
-9.71339083E+01
 20
1.84943311E+02
  0
VERTEX
  8
0
 62
6
 10
-9.72499809E+01
 20
1.84887287E+02
  0
VERTEX
  8
0
 62
6
 10
-9.73603456E+01
 20
1.84822097E+02
  0
VERTEX
  8
0
 62
6
 10
-9.74641623E+01
 20
1.84748236E+02
  0
VERTEX
  8
0
 62
6
 10
-9.75606411E+01
 20
1.84666267E+02
  0
VERTEX
  8
0
 62
6
 10
-9.76490476E+01
 20
1.84576813E+02
  0
VERTEX
  8
0
 62
6
 10
-9.77287090E+01
 20
1.84480556E+02
  0
VERTEX
  8
0
 62
6
 10
-9.77990190E+01
 20
1.84378228E+02
  0
VERTEX
  8
0
 62
6
 10
-9.78594426E+01
 20
1.84270607E+02
  0
VERTEX
  8
0
 62
6
 10
-9.79095198E+01
 20
1.84158513E+02
  0
VERTEX
  8
0
 62
6
 10
-9.79488696E+01
 20
1.84042799E+02
  0
VERTEX
  8
0
 62
6
 10
-9.79771925E+01
 20
1.83924346E+02
  0
VERTEX
  8
0
 62
6
 10
-9.79942729E+01
 20
1.83804054E+02
  0
VERTEX
  8
0
 62
6
 10
-9.79999809E+01
 20
1.83682840E+02
  0
SEQEND
  8
0
  0
POLYLINE
  8
0
 62
4
 66
1
  0
VERTEX
  8
0
 62
4
 10
-9.84999809E+01
 20
1.83682840E+02
  0
VERTEX
  8
0
 62
4
 10
-9.84923703E+01
 20
1.83521221E+02
  0
VERTEX
  8
0
 62
4
 10
-9.84695964E+01
 20
1.83360832E+02
  0
VERTEX
  8
0
 62
4
 10
-9.84318326E+01
 20
1.83202894E+02
  0
VERTEX
  8
0
 62
4
 10
-9.83793661E+01
 20
1.83048609E+02
  0
VERTEX
  8
0
 62
4
 10
-9.83125965E+01
 20
1.82899150E+02
  0
VERTEX
  8
0
 62
4
 10
-9.82320317E+01
 20
1.82755656E+02
  0
VERTEX
  8
0
 62
4
 10
-9.81382850E+01
 20
1.82619218E+02
  0
VERTEX
  8
0
 62
4
 10
-9.80320698E+01
 20
1.82490875E+02
  0
VERTEX
  8
0
 62
4
 10
-9.79141945E+01
 20
1.82371604E+02
  0
VERTEX
  8
0
 62
4
 10
-9.77855561E+01
 20
1.82262312E+02
  0
VERTEX
  8
0
 62
4
 10
-9.76471338E+01
 20
1.82163831E+02
  0
VERTEX
  8
0
 62
4
 10
-9.74999809E+01
 20
1.82076910E+02
  0
VERTEX
  8
0
 62
4
 10
-9.73452174E+01
 20
1.82002212E+02
  0
VERTEX
  8
0
 62
4
 10
-9.71840212E+01
 20
1.81940304E+02
  0
VERTEX
  8
0
 62
4
 10
-9.70176190E+01
 20
1.81891658E+02
  0
VERTEX
  8
0
 62
4
 10
-9.68472773E+01
 20
1.81856644E+02
  0
VERTEX
  8
0
 62
4
 10
-9.66742924E+01
 20
1.81835529E+02
  0
VERTEX
  8
0
 62
4
 10
-9.64999809E+01
 20
1.81828472E+02
  0
VERTEX
  8
0
 62
4
 10
-9.63256694E+01
 20
1.81835529E+02
  0
VERTEX
  8
0
 62
4
 10
-9.61526845E+01
 20
1.81856644E+02
  0
VERTEX
  8
0
 62
4
 10
-9.59823428E+01
 20
1.81891658E+02
  0
VERTEX
  8
0
 62
4
 10
-9.58159406E+01
 20
1.81940304E+02
  0
VERTEX
  8
0
 62
4
 10
-9.56547444E+01
 20
1.82002212E+02
  0
VERTEX
  8
0
 62
4
 10
-9.54999809E+01
 20
1.82076910E+02
  0
VERTEX
  8
0
 62
4
 10
-9.53528280E+01
 20
1.82163831E+02
  0
VERTEX
  8
0
 62
4
 10
-9.52144057E+01
 20
1.82262312E+02
  0
VERTEX
  8
0
 62
4
 10
-9.50857673E+01
 20
1.82371604E+02
  0
VERTEX
  8
0
 62
4
 10
-9.49678920E+01
 20
1.82490875E+02
  0
VERTEX
  8
0
 62
4
 10
-9.48616768E+01
 20
1.82619218E+02
  0
VERTEX
  8
0
 62
4
 10
-9.47679301E+01
 20
1.82755656E+02
  0
VERTEX
  8
0
 62
4
 10
-9.46873653E+01
 20
1.82899150E+02
  0
VERTEX
  8
0
 62
4
 10
-9.46205957E+01
 20
1.83048609E+02
  0
VERTEX
  8
0
 62
4
 10
-9.45681292E+01
 20
1.83202894E+02
  0
VERTEX
  8
0
 62
4
 10
-9.45303654E+01
 20
1.83360832E+02
  0
VERTEX
  8
0
 62
4
 10
-9.45075915E+01
 20
1.83521221E+02
  0
VERTEX
  8
0
 62
4
 10
-9.44999809E+01
 20
1.83682840E+02
  0
VERTEX
  8
0
 62
4
 10
-9.45075915E+01
 20
1.83844459E+02
  0
VERTEX
  8
0
 62
4
 10
-9.45303654E+01
 20
1.84004848E+02
  0
VERTEX
  8
0
 62
4
 10
-9.45681292E+01
 20
1.84162786E+02
  0
VERTEX
  8
0
 62
4
 10
-9.46205957E+01
 20
1.84317071E+02
  0
VERTEX
  8
0
 62
4
 10
-9.46873653E+01
 20
1.84466530E+02
  0
VERTEX
  8
0
 62
4
 10
-9.47679301E+01
 20
1.84610024E+02
  0
VERTEX
  8
0
 62
4
 10
-9.48616768E+01
 20
1.84746462E+02
  0
VERTEX
  8
0
 62
4
 10
-9.49678920E+01
 20
1.84874805E+02
  0
VERTEX
  8
0
 62
4
 10
-9.50857673E+01
 20
1.84994076E+02
  0
VERTEX
  8
0
 62
4
 10
-9.52144057E+01
 20
1.85103368E+02
  0
VERTEX
  8
0
 62
4
 10
-9.53528280E+01
 20
1.85201849E+02
  0
VERTEX
  8
0
 62
4
 10
-9.54999809E+01
 20
1.85288770E+02
  0
VERTEX
  8
0
 62
4
 10
-9.56547444E+01
 20
1.85363468E+02
  0
VERTEX
  8
0
 62
4
 10
-9.58159406E+01
 20
1.85425376E+02
  0
VERTEX
  8
0
 62
4
 10
-9.59823428E+01
 20
1.85474022E+02
  0
VERTEX
  8
0
 62
4
 10
-9.61526845E+01
 20
1.85509036E+02
  0
VERTEX
  8
0
 62
4
 10
-9.63256694E+01
 20
1.85530151E+02
  0
VERTEX
  8
0
 62
4
 10
-9.64999809E+01
 20
1.85537208E+02
  0
VERTEX
  8
0
 62
4
 10
-9.66742924E+01
 20
1.85530151E+02
  0
VERTEX
  8
0
 62
4
 10
-9.68472773E+01
 20
1.85509036E+02
  0
VERTEX
  8
0
 62
4
 10
-9.70176190E+01
 20
1.85474022E+02
  0
VERTEX
  8
0
 62
4
 10
-9.71840212E+01
 20
1.85425376E+02
  0
VERTEX
  8
0
 62
4
 10
-9.73452174E+01
 20
1.85363468E+02
  0
VERTEX
  8
0
 62
4
 10
-9.74999809E+01
 20
1.85288770E+02
  0
VERTEX
  8
0
 62
4
 10
-9.76471338E+01
 20
1.85201849E+02
  0
VERTEX
  8
0
 62
4
 10
-9.77855561E+01
 20
1.85103368E+02
  0
VERTEX
  8
0
 62
4
 10
-9.79141945E+01
 20
1.84994076E+02
  0
VERTEX
  8
0
 62
4
 10
-9.80320698E+01
 20
1.84874805E+02
  0
VERTEX
  8
0
 62
4
 10
-9.81382850E+01
 20
1.84746462E+02
  0
VERTEX
  8
0
 62
4
 10
-9.82320317E+01
 20
1.84610024E+02
  0
VERTEX
  8
0
 62
4
 10
-9.83125965E+01
 20
1.84466530E+02
  0
VERTEX
  8
0
 62
4
 10
-9.83793661E+01
 20
1.84317071E+02
  0
VERTEX
  8
0
 62
4
 10
-9.84318326E+01
 20
1.84162786E+02
  0
VERTEX
  8
0
 62
4
 10
-9.84695964E+01
 20
1.84004848E+02
  0
VERTEX
  8
0
 62
4
 10
-9.84923703E+01
 20
1.83844459E+02
  0
VERTEX
  8
0
 62
4
 10
-9.84999809E+01
 20
1.83682840E+02
  0
SEQEND
  8
0
  0
LINE
  8
0
 62
4
 10
-9.44999809E+01
 20
1.83682840E+02
 11
-9.44999809E+01
 21
1.85159716E+02
  0
LINE
  8
0
 62
4
 10
-9.84999809E+01
 20
1.83682840E+02
 11
-9.84999809E+01
 21
1.85159716E+02
  0
POLYLINE
  8
0
 62
4
 66
1
  0
VERTEX
  8
0
 62
4
 10
-9.44999809E+01
 20
1.85159716E+02
  0
VERTEX
  8
0
 62
4
 10
-9.45080323E+01
 20
1.85325940E+02
  0
VERTEX
  8
0
 62
4
 10
-9.45321217E+01
 20
1.85490826E+02
  0
VERTEX
  8
0
 62
4
 10
-9.45720552E+01
 20
1.85653046E+02
  0
VERTEX
  8
0
 62
4
 10
-9.46275112E+01
 20
1.85811294E+02
  0
VERTEX
  8
0
 62
4
 10
-9.46980432E+01
 20
1.85964296E+02
  0
VERTEX
  8
0
 62
4
 10
-9.47830833E+01
 20
1.86110820E+02
  0
VERTEX
  8
0
 62
4
 10
-9.48819469E+01
 20
1.86249686E+02
  0
VERTEX
  8
0
 62
4
 10
-9.49938380E+01
 20
1.86379776E+02
  0
VERTEX
  8
0
 62
4
 10
-9.51178556E+01
 20
1.86500043E+02
  0
VERTEX
  8
0
 62
4
 10
-9.52530013E+01
 20
1.86609519E+02
  0
VERTEX
  8
0
 62
4
 10
-9.53981869E+01
 20
1.86707322E+02
  0
VERTEX
  8
0
 62
4
 10
-9.55522436E+01
 20
1.86792664E+02
  0
VERTEX
  8
0
 62
4
 10
-9.57139308E+01
 20
1.86864859E+02
  0
VERTEX
  8
0
 62
4
 10
-9.58819469E+01
 20
1.86923324E+02
  0
VERTEX
  8
0
 62
4
 10
-9.60549390E+01
 20
1.86967591E+02
  0
VERTEX
  8
0
 62
4
 10
-9.62315144E+01
 20
1.86997301E+02
  0
VERTEX
  8
0
 62
4
 10
-9.64102512E+01
 20
1.87012216E+02
  0
VERTEX
  8
0
 62
4
 10
-9.65897105E+01
 20
1.87012216E+02
  0
VERTEX
  8
0
 62
4
 10
-9.67684474E+01
 20
1.86997301E+02
  0
VERTEX
  8
0
 62
4
 10
-9.69450228E+01
 20
1.86967591E+02
  0
VERTEX
  8
0
 62
4
 10
-9.71180149E+01
 20
1.86923324E+02
  0
VERTEX
  8
0
 62
4
 10
-9.72860309E+01
 20
1.86864859E+02
  0
VERTEX
  8
0
 62
4
 10
-9.74477182E+01
 20
1.86792664E+02
  0
VERTEX
  8
0
 62
4
 10
-9.76017748E+01
 20
1.86707322E+02
  0
VERTEX
  8
0
 62
4
 10
-9.77469605E+01
 20
1.86609519E+02
  0
VERTEX
  8
0
 62
4
 10
-9.78821062E+01
 20
1.86500043E+02
  0
VERTEX
  8
0
 62
4
 10
-9.80061238E+01
 20
1.86379776E+02
  0
VERTEX
  8
0
 62
4
 10
-9.81180149E+01
 20
1.86249686E+02
  0
VERTEX
  8
0
 62
4
 10
-9.82168785E+01
 20
1.86110820E+02
  0
VERTEX
  8
0
 62
4
 10
-9.83019186E+01
 20
1.85964296E+02
  0
VERTEX
  8
0
 62
4
 10
-9.83724506E+01
 20
1.85811294E+02
  0
VERTEX
  8
0
 62
4
 10
-9.84279066E+01
 20
1.85653046E+02
  0
VERTEX
  8
0
 62
4
 10
-9.84678401E+01
 20
1.85490826E+02
  0
VERTEX
  8
0
 62
4
 10
-9.84919295E+01
 20
1.85325940E+02
  0
VERTEX
  8
0
 62
4
 10
-9.84999809E+01
 20
1.85159716E+02
  0
SEQEND
  8
0
  0
POLYLINE
  8
0
 62
4
 66
1
  0
VERTEX
  8
0
 62
4
 10
-8.77499809E+01
 20
2.04330632E+02
  0
VERTEX
  8
0
 62
4
 10
-8.77414190E+01
 20
2.04148811E+02
  0
VERTEX
  8
0
 62
4
 10
-8.77157983E+01
 20
2.03968373E+02
  0
VERTEX
  8
0
 62
4
 10
-8.76733140E+01
 20
2.03790693E+02
  0
VERTEX
  8
0
 62
4
 10
-8.76142893E+01
 20
2.03617122E+02
  0
VERTEX
  8
0
 62
4
 10
-8.75391734E+01
 20
2.03448981E+02
  0
VERTEX
  8
0
 62
4
 10
-8.74485381E+01
 20
2.03287550E+02
  0
VERTEX
  8
0
 62
4
 10
-8.73430730E+01
 20
2.03134058E+02
  0
VERTEX
  8
0
 62
4
 10
-8.72235809E+01
 20
2.02989672E+02
  0
VERTEX
  8
0
 62
4
 10
-8.70909712E+01
 20
2.02855492E+02
  0
VERTEX
  8
0
 62
4
 10
-8.69462530E+01
 20
2.02732538E+02
  0
VERTEX
  8
0
 62
4
 10
-8.67905279E+01
 20
2.02621747E+02
  0
VERTEX
  8
0
 62
4
 10
-8.66249809E+01
 20
2.02523961E+02
  0
VERTEX
  8
0
 62
4
 10
-8.64508720E+01
 20
2.02439926E+02
  0
VERTEX
  8
0
 62
4
 10
-8.62695262E+01
 20
2.02370279E+02
  0
VERTEX
  8
0
 62
4
 10
-8.60823238E+01
 20
2.02315553E+02
  0
VERTEX
  8
0
 62
4
 10
-8.58906893E+01
 20
2.02276162E+02
  0
VERTEX
  8
0
 62
4
 10
-8.56960813E+01
 20
2.02252407E+02
  0
VERTEX
  8
0
 62
4
 10
-8.54999809E+01
 20
2.02244468E+02
  0
VERTEX
  8
0
 62
4
 10
-8.53038805E+01
 20
2.02252407E+02
  0
VERTEX
  8
0
 62
4
 10
-8.51092725E+01
 20
2.02276162E+02
  0
VERTEX
  8
0
 62
4
 10
-8.49176381E+01
 20
2.02315553E+02
  0
VERTEX
  8
0
 62
4
 10
-8.47304356E+01
 20
2.02370279E+02
  0
VERTEX
  8
0
 62
4
 10
-8.45490898E+01
 20
2.02439926E+02
  0
VERTEX
  8
0
 62
4
 10
-8.43749809E+01
 20
2.02523961E+02
  0
VERTEX
  8
0
 62
4
 10
-8.42094339E+01
 20
2.02621747E+02
  0
VERTEX
  8
0
 62
4
 10
-8.40537088E+01
 20
2.02732538E+02
  0
VERTEX
  8
0
 62
4
 10
-8.39089906E+01
 20
2.02855492E+02
  0
VERTEX
  8
0
 62
4
 10
-8.37763809E+01
 20
2.02989672E+02
  0
VERTEX
  8
0
 62
4
 10
-8.36568888E+01
 20
2.03134058E+02
  0
VERTEX
  8
0
 62
4
 10
-8.35514237E+01
 20
2.03287550E+02
  0
VERTEX
  8
0
 62
4
 10
-8.34607884E+01
 20
2.03448981E+02
  0
VERTEX
  8
0
 62
4
 10
-8.33856725E+01
 20
2.03617122E+02
  0
VERTEX
  8
0
 62
4
 10
-8.33266478E+01
 20
2.03790693E+02
  0
VERTEX
  8
0
 62
4
 10
-8.32841635E+01
 20
2.03968373E+02
  0
VERTEX
  8
0
 62
4
 10
-8.32585428E+01
 20
2.04148811E+02
  0
VERTEX
  8
0
 62
4
 10
-8.32499809E+01
 20
2.04330632E+02
  0
VERTEX
  8
0
 62
4
 10
-8.32585428E+01
 20
2.04512453E+02
  0
VERTEX
  8
0
 62
4
 10
-8.32841635E+01
 20
2.04692891E+02
  0
VERTEX
  8
0
 62
4
 10
-8.33266478E+01
 20
2.04870571E+02
  0
VERTEX
  8
0
 62
4
 10
-8.33856725E+01
 20
2.05044142E+02
  0
VERTEX
  8
0
 62
4
 10
-8.34607884E+01
 20
2.05212283E+02
  0
VERTEX
  8
0
 62
4
 10
-8.35514237E+01
 20
2.05373714E+02
  0
VERTEX
  8
0
 62
4
 10
-8.36568888E+01
 20
2.05527206E+02
  0
VERTEX
  8
0
 62
4
 10
-8.37763809E+01
 20
2.05671592E+02
  0
VERTEX
  8
0
 62
4
 10
-8.39089906E+01
 20
2.05805772E+02
  0
VERTEX
  8
0
 62
4
 10
-8.40537088E+01
 20
2.05928726E+02
  0
VERTEX
  8
0
 62
4
 10
-8.42094339E+01
 20
2.06039517E+02
  0
VERTEX
  8
0
 62
4
 10
-8.43749809E+01
 20
2.06137303E+02
  0
VERTEX
  8
0
 62
4
 10
-8.45490898E+01
 20
2.06221338E+02
  0
VERTEX
  8
0
 62
4
 10
-8.47304356E+01
 20
2.06290985E+02
  0
VERTEX
  8
0
 62
4
 10
-8.49176380E+01
 20
2.06345711E+02
  0
VERTEX
  8
0
 62
4
 10
-8.51092725E+01
 20
2.06385102E+02
  0
VERTEX
  8
0
 62
4
 10
-8.53038805E+01
 20
2.06408857E+02
  0
VERTEX
  8
0
 62
4
 10
-8.54999809E+01
 20
2.06416796E+02
  0
VERTEX
  8
0
 62
4
 10
-8.56960813E+01
 20
2.06408857E+02
  0
VERTEX
  8
0
 62
4
 10
-8.58906893E+01
 20
2.06385102E+02
  0
VERTEX
  8
0
 62
4
 10
-8.60823237E+01
 20
2.06345711E+02
  0
VERTEX
  8
0
 62
4
 10
-8.62695262E+01
 20
2.06290985E+02
  0
VERTEX
  8
0
 62
4
 10
-8.64508720E+01
 20
2.06221338E+02
  0
VERTEX
  8
0
 62
4
 10
-8.66249809E+01
 20
2.06137303E+02
  0
VERTEX
  8
0
 62
4
 10
-8.67905279E+01
 20
2.06039517E+02
  0
VERTEX
  8
0
 62
4
 10
-8.69462530E+01
 20
2.05928726E+02
  0
VERTEX
  8
0
 62
4
 10
-8.70909712E+01
 20
2.05805772E+02
  0
VERTEX
  8
0
 62
4
 10
-8.72235809E+01
 20
2.05671592E+02
  0
VERTEX
  8
0
 62
4
 10
-8.73430730E+01
 20
2.05527206E+02
  0
VERTEX
  8
0
 62
4
 10
-8.74485381E+01
 20
2.05373714E+02
  0
VERTEX
  8
0
 62
4
 10
-8.75391734E+01
 20
2.05212283E+02
  0
VERTEX
  8
0
 62
4
 10
-8.76142893E+01
 20
2.05044142E+02
  0
VERTEX
  8
0
 62
4
 10
-8.76733140E+01
 20
2.04870571E+02
  0
VERTEX
  8
0
 62
4
 10
-8.77157983E+01
 20
2.04692891E+02
  0
VERTEX
  8
0
 62
4
 10
-8.77414190E+01
 20
2.04512453E+02
  0
VERTEX
  8
0
 62
4
 10
-8.77499809E+01
 20
2.04330632E+02
  0
SEQEND
  8
0
  0
LINE
  8
0
 62
4
 10
-9.29999809E+01
 20
2.00472054E+02
 11
-7.79999809E+01
 21
2.00472054E+02
  0
LINE
  8
0
 62
4
 10
-9.29999809E+01
 20
2.00621896E+02
 11
-7.79999809E+01
 21
2.00621896E+02
  0
LINE
  8
0
 62
4
 10
-9.29999809E+01
 20
1.93518175E+02
 11
-7.79999809E+01
 21
1.93518175E+02
  0
LINE
  8
0
 62
4
 10
-1.06999981E+02
 20
1.92049438E+02
 11
-9.39999809E+01
 21
1.92049438E+02
  0
LINE
  8
0
 62
4
 10
-1.07999981E+02
 20
2.05880713E+02
 11
-9.29999809E+01
 21
2.05880713E+02
  0
LINE
  8
0
 62
4
 10
-1.07999981E+02
 20
2.08502959E+02
 11
-7.79999809E+01
 21
2.08502959E+02
  0
LINE
  8
0
 62
4
 10
-1.07999981E+02
 20
1.80976483E+02
 11
-9.29999809E+01
 21
1.80976483E+02
  0
LINE
  8
0
 62
4
 10
-1.07999981E+02
 20
2.12361407E+02
 11
-7.79999809E+01
 21
2.12361407E+02
  0
LINE
  8
0
  6
CENTER
 62
6
 10
-9.64999809E+01
 20
1.81659716E+02
 11
-9.64999809E+01
 21
1.88659716E+02
  0
LINE
  8
0
  6
CENTER
 62
6
 10
-9.99999809E+01
 20
1.85159716E+02
 11
-9.29999809E+01
 21
1.85159716E+02
  0
LINE
  8
0
  6
CENTER
 62
6
 10
-1.04499981E+02
 20
1.81659716E+02
 11
-1.04499981E+02
 21
1.88659716E+02
  0
LINE
  8
0
  6
CENTER
 62
6
 10
-1.07999981E+02
 20
1.85159716E+02
 11
-1.00999981E+02
 21
1.85159716E+02
  0
LINE
  8
0
 62
4
 10
-9.29999809E+01
 20
1.80976483E+02
 11
-9.29999809E+01
 21
2.12361407E+02
  0
LINE
  8
0
 62
4
 10
-7.79999809E+01
 20
2.12361407E+02
 11
-7.79999809E+01
 21
1.93518175E+02
  0
LINE
  8
0
  6
CENTER
 62
6
 10
-8.54999809E+01
 20
2.07905229E+02
 11
-8.54999809E+01
 21
2.00756035E+02
  0
LINE
  8
0
  6
CENTER
 62
6
 10
-8.19253840E+01
 20
2.04330632E+02
 11
-8.90745778E+01
 21
2.04330632E+02
  0
LINE
  8
0
 62
4
 10
-1.07999981E+02
 20
1.80976483E+02
 11
-1.07999981E+02
 21
2.12361407E+02
  0
LINE
  8
0
 62
4
 10
-1.36999958E+02
 20
2.01226443E+02
 11
-1.36999958E+02
 21
2.12361407E+02
  0
LINE
  8
0
 62
4
 10
-1.66999958E+02
 20
2.00000015E+02
 11
-1.66999958E+02
 21
2.12361407E+02
  0
LINE
  8
0
 62
4
 10
-7.79999809E+01
 20
2.02330024E+02
 11
-7.64999809E+01
 21
2.01197467E+02
  0
LINE
  8
0
 62
4
 10
-7.64999809E+01
 20
2.01197467E+02
 11
-7.64999809E+01
 21
1.98248911E+02
  0
LINE
  8
0
 62
4
 10
-7.64999809E+01
 20
1.99097395E+02
 11
-7.79999809E+01
 21
1.98621289E+02
  0
LINE
  8
0
 62
4
 10
-7.64999809E+01
 20
1.98248911E+02
 11
-7.79999809E+01
 21
1.97122862E+02
  0
LINE
  8
0
 62
4
 10
-1.43499958E+02
 20
2.01226443E+02
 11
-1.26133933E+02
 21
2.01226443E+02
  0
LINE
  8
0
 62
4
 10
-1.07999897E+02
 20
1.98226443E+02
 11
-1.18865922E+02
 21
1.98226443E+02
  0
LINE
  8
0
  6
CENTER
 62
6
 10
-7.29998970E+01
 20
1.99726443E+02
 11
-1.19999897E+02
 21
1.99726443E+02
  0
LINE
  8
0
 62
4
 10
-1.07999897E+02
 20
2.01226443E+02
 11
-1.17133872E+02
 21
2.01226443E+02
  0
LINE
  8
0
 62
6
 10
-1.16267846E+02
 20
2.02726443E+02
 11
-1.19731948E+02
 21
1.96726443E+02
  0
LINE
  8
0
 62
6
 10
-1.28732009E+02
 20
1.96726443E+02
 11
-1.25267907E+02
 21
2.02726443E+02
  0
LINE
  8
0
 62
7
 10
-4.28999943E+02
 20
1.67500046E+02
 11
-4.16999943E+02
 21
1.67500046E+02
  0
LINE
  8
0
 62
2
 10
-4.28999943E+02
 20
1.66680023E+02
 11
-4.16999943E+02
 21
1.66680023E+02
  0
LINE
  8
0
 62
2
 10
-4.28999943E+02
 20
1.46320000E+02
 11
-4.16999943E+02
 21
1.46320000E+02
  0
LINE
  8
0
 62
7
 10
-4.28999943E+02
 20
1.45499985E+02
 11
-4.16999943E+02
 21
1.45499985E+02
  0
LINE
  8
0
 62
4
 10
-4.40570881E+02
 20
1.38007740E+02
 11
-4.30429005E+02
 21
1.38007740E+02
  0
LINE
  8
0
 62
4
 10
-4.40570881E+02
 20
1.74958182E+02
 11
-4.30429005E+02
 21
1.74958182E+02
  0
LINE
  8
0
 62
4
 10
-4.41999943E+02
 20
1.72482962E+02
 11
-4.41999943E+02
 21
1.40482958E+02
  0
LINE
  8
0
 62
4
 10
-4.28999943E+02
 20
1.72482962E+02
 11
-4.28999943E+02
 21
1.40482958E+02
  0
LINE
  8
0
 62
4
 10
-4.41999959E+02
 20
1.72482961E+02
 11
-4.40570876E+02
 21
1.74958179E+02
  0
LINE
  8
0
 62
4
 10
-4.30428978E+02
 20
1.38007801E+02
 11
-4.28999932E+02
 21
1.40482930E+02
  0
LINE
  8
0
 62
4
 10
-4.41999906E+02
 20
1.40483005E+02
 11
-4.40570851E+02
 21
1.38007815E+02
  0
LINE
  8
0
 62
4
 10
-4.30429023E+02
 20
1.74958135E+02
 11
-4.28999950E+02
 21
1.72482946E+02
  0
LINE
  8
0
 62
4
 10
-4.40570881E+02
 20
1.47482958E+02
 11
-4.30429005E+02
 21
1.47482958E+02
  0
LINE
  8
0
 62
4
 10
-4.40570881E+02
 20
1.65482958E+02
 11
-4.30429005E+02
 21
1.65482958E+02
  0
ARC
  8
0
 62
4
 10
-4.37562546E+02
 20
1.42745348E+02
 40
8.56342793E+00
 50
3.26410646E+02
 51
3.35892994E+01
  0
ARC
  8
0
 62
4
 10
-4.58054738E+02
 20
1.56482958E+02
 40
2.90548000E+01
 50
3.41955269E+02
 51
1.80446768E+01
  0
ARC
  8
0
 62
4
 10
-4.37562546E+02
 20
1.70220568E+02
 40
8.56342793E+00
 50
3.26410605E+02
 51
3.35892584E+01
  0
ARC
  8
0
 62
4
 10
-4.33437340E+02
 20
1.42745348E+02
 40
8.56342793E+00
 50
1.46410624E+02
 51
2.13589277E+02
  0
ARC
  8
0
 62
4
 10
-4.12945143E+02
 20
1.56482958E+02
 40
2.90548000E+01
 50
1.61955287E+02
 51
1.98044695E+02
  0
ARC
  8
0
 62
4
 10
-4.33437340E+02
 20
1.70220568E+02
 40
8.56342793E+00
 50
1.46410665E+02
 51
2.13589318E+02
  0
ARC
  8
0
 62
7
 10
-3.44999733E+01
 20
2.02380295E+02
 40
5.00000000E-01
 50
3.59999891E+02
 51
8.89995981E+01
  0
ARC
  8
0
 62
7
 10
-2.16499989E+02
 20
2.02380295E+02
 40
5.00000000E-01
 50
9.10002493E+01
 51
1.79999964E+02
  0
ARC
  8
0
 62
7
 10
-4.14499973E+02
 20
1.56500000E+02
 40
1.25000010E+01
 50
3.27140311E+02
 51
3.28596884E+01
  0
ARC
  8
0
 62
7
 10
-3.80499943E+02
 20
1.78000015E+02
 40
5.00000000E-01
 50
8.99999818E+01
 51
1.79999964E+02
  0
ARC
  8
0
 62
7
 10
-3.94499943E+02
 20
1.75500015E+02
 40
5.00000000E-01
 50
8.99999818E+01
 51
1.79999964E+02
  0
ARC
  8
0
 62
7
 10
-3.89499943E+02
 20
1.77028275E+02
 40
5.00000000E-01
 50
9.20007356E+01
 51
1.79999964E+02
  0
ARC
  8
0
 62
7
 10
-3.24999809E+01
 20
1.78000015E+02
 40
5.00000000E-01
 50
5.46415133E-05
 51
9.00000369E+01
  0
ARC
  8
0
 62
7
 10
-3.24999809E+01
 20
1.35000008E+02
 40
5.00000000E-01
 50
2.70000073E+02
 51
5.46415133E-05
  0
ARC
  8
0
 62
7
 10
-3.44999733E+01
 20
1.10619736E+02
 40
5.00000000E-01
 50
2.71000347E+02
 51
5.46415133E-05
  0
ARC
  8
0
 62
7
 10
-3.89499943E+02
 20
1.35971748E+02
 40
5.00000000E-01
 50
1.79999977E+02
 51
2.67999192E+02
  0
ARC
  8
0
 62
7
 10
-3.80499943E+02
 20
1.35000008E+02
 40
5.00000000E-01
 50
1.79999977E+02
 51
2.69999974E+02
  0
ARC
  8
0
 62
7
 10
-2.16499989E+02
 20
1.10619736E+02
 40
5.00000000E-01
 50
1.79999977E+02
 51
2.68999679E+02
  0
ARC
  8
0
 62
7
 10
-3.94499943E+02
 20
1.37500015E+02
 40
5.00000000E-01
 50
1.79999977E+02
 51
2.69999974E+02
  0
CIRCLE
  8
0
 62
7
 10
-3.25999973E+02
 20
1.56500015E+02
 40
3.30000043E+00
  0
CIRCLE
  8
0
 62
7
 10
-3.25999973E+02
 20
1.56500015E+02
 40
8.00000000E+00
  0
CIRCLE
  8
0
 62
7
 10
-3.25999973E+02
 20
1.56500015E+02
 40
4.00000000E+00
  0
LINE
  8
0
 62
2
 10
-4.03999934E+02
 20
1.49717697E+02
 11
-4.12660494E+02
 21
1.61465410E+02
  0
LINE
  8
0
 62
2
 10
-4.03999966E+02
 20
1.63282305E+02
 11
-4.12660508E+02
 21
1.51534617E+02
  0
LINE
  8
0
 62
7
 10
-4.13999948E+02
 20
1.45499996E+02
 11
-4.10999936E+02
 21
1.43999967E+02
  0
LINE
  8
0
 62
7
 10
-4.13999963E+02
 20
1.67500036E+02
 11
-4.10999950E+02
 21
1.69000065E+02
  0
LINE
  8
0
 62
7
 10
-4.13999928E+02
 20
1.59999875E+02
 11
-4.10999930E+02
 21
1.63282290E+02
  0
LINE
  8
0
 62
7
 10
-4.10999919E+02
 20
1.49717700E+02
 11
-4.13999936E+02
 21
1.53000159E+02
  0
LINE
  8
0
 62
7
 10
-4.03999943E+02
 20
1.49717705E+02
 11
-4.03999943E+02
 21
1.63282295E+02
  0
LINE
  8
0
 62
7
 10
-6.99999809E+01
 20
2.00000015E+02
 11
-7.64999809E+01
 21
2.00000015E+02
  0
LINE
  8
0
  6
CENTER
 62
2
 10
-3.12208042E+01
 20
1.91500031E+02
 11
-2.19524479E+02
 21
1.91500031E+02
  0
LINE
  8
0
 62
7
 10
-6.99999809E+01
 20
1.87000015E+02
 11
-9.29999809E+01
 21
1.87000015E+02
  0
LINE
  8
0
 62
7
 10
-6.99999809E+01
 20
1.96000031E+02
 11
-7.79999809E+01
 21
1.96000031E+02
  0
LINE
  8
0
 62
7
 10
-4.52500004E+02
 20
1.67500046E+02
 11
-4.41999943E+02
 21
1.67500046E+02
  0
LINE
  8
0
 62
7
 10
-4.54000012E+02
 20
1.66000006E+02
 11
-4.52499989E+02
 21
1.67500029E+02
  0
LINE
  8
0
 62
7
 10
-6.99999809E+01
 20
1.09500008E+02
 11
-6.99999809E+01
 21
2.03500015E+02
  0
LINE
  8
0
 62
7
 10
-3.25000038E+01
 20
1.78500015E+02
 11
-3.40000038E+01
 21
1.78500015E+02
  0
LINE
  8
0
 62
7
 10
-3.79999886E+01
 20
2.02941467E+02
 11
-3.79999886E+01
 21
2.03500015E+02
  0
LINE
  8
0
 62
7
 10
-3.44912886E+01
 20
2.02880205E+02
 11
-7.00000193E+01
 21
2.03500012E+02
  0
LINE
  8
0
 62
7
 10
-3.80000000E+01
 20
2.03500015E+02
 11
-7.00000038E+01
 21
2.03500015E+02
  0
LINE
  8
0
 62
7
 10
-3.89517487E+02
 20
1.77527935E+02
 11
-3.81000030E+02
 21
1.77999975E+02
  0
LINE
  8
0
 62
7
 10
-4.10999973E+02
 20
1.69000061E+02
 11
-3.94999973E+02
 21
1.69000061E+02
  0
LINE
  8
0
 62
7
 10
-3.94499973E+02
 20
1.76000000E+02
 11
-3.89999973E+02
 21
1.76000000E+02
  0
LINE
  8
0
 62
7
 10
-4.16999943E+02
 20
1.66680023E+02
 11
-4.13999943E+02
 21
1.66680023E+02
  0
LINE
  8
0
 62
2
 10
-4.53320011E+02
 20
1.66680023E+02
 11
-4.41999943E+02
 21
1.66680023E+02
  0
LINE
  8
0
 62
7
 10
-3.39999809E+01
 20
1.10619736E+02
 11
-3.39999809E+01
 21
2.02380295E+02
  0
LINE
  8
0
 62
7
 10
-2.12999973E+02
 20
2.02941467E+02
 11
-2.12999973E+02
 21
2.03500015E+02
  0
LINE
  8
0
 62
7
 10
-2.16508769E+02
 20
2.02880223E+02
 11
-1.81000017E+02
 21
2.03500030E+02
  0
LINE
  8
0
 62
7
 10
-2.13000004E+02
 20
2.03500015E+02
 11
-1.81000004E+02
 21
2.03500015E+02
  0
LINE
  8
0
 62
7
 10
-1.80999989E+02
 20
1.09500008E+02
 11
-1.80999989E+02
 21
2.03500015E+02
  0
LINE
  8
0
 62
7
 10
-6.99999809E+01
 20
1.17000000E+02
 11
-1.80999989E+02
 21
1.17000000E+02
  0
LINE
  8
0
 62
7
 10
-6.99999809E+01
 20
1.26000000E+02
 11
-1.80999989E+02
 21
1.26000000E+02
  0
LINE
  8
0
  6
CENTER
 62
2
 10
-3.12208042E+01
 20
1.21500000E+02
 11
-2.19524479E+02
 21
1.21500000E+02
  0
LINE
  8
0
 62
7
 10
-6.99999809E+01
 20
1.13000000E+02
 11
-1.80999989E+02
 21
1.13000000E+02
  0
LINE
  8
0
 62
7
 10
-4.16999943E+02
 20
1.46320000E+02
 11
-4.13999943E+02
 21
1.46320000E+02
  0
LINE
  8
0
 62
2
 10
-4.53320011E+02
 20
1.46320000E+02
 11
-4.41999943E+02
 21
1.46320000E+02
  0
LINE
  8
0
 62
7
 10
-4.54000023E+02
 20
1.47000040E+02
 11
-4.52500010E+02
 21
1.45500027E+02
  0
LINE
  8
0
 62
7
 10
-4.52499943E+02
 20
1.67500046E+02
 11
-4.52499943E+02
 21
1.45500000E+02
  0
LINE
  8
0
 62
7
 10
-4.52500004E+02
 20
1.45499985E+02
 11
-4.41999943E+02
 21
1.45499985E+02
  0
LINE
  8
0
 62
7
 10
-4.16999943E+02
 20
1.67500046E+02
 11
-4.16999943E+02
 21
1.45500000E+02
  0
LINE
  8
0
 62
7
 10
-4.53999943E+02
 20
1.66000061E+02
 11
-4.53999943E+02
 21
1.46999962E+02
  0
LINE
  8
0
 62
7
 10
-4.13999943E+02
 20
1.45499985E+02
 11
-4.13999943E+02
 21
1.67500046E+02
  0
LINE
  8
0
 62
7
 10
-4.10999943E+02
 20
1.63282295E+02
 11
-4.03999943E+02
 21
1.63282295E+02
  0
LINE
  8
0
 62
7
 10
-4.10999943E+02
 20
1.63282295E+02
 11
-4.10999943E+02
 21
1.69000015E+02
  0
LINE
  8
0
 62
7
 10
-3.80499973E+02
 20
1.78500015E+02
 11
-3.78999973E+02
 21
1.78500015E+02
  0
LINE
  8
0
 62
7
 10
-4.10999943E+02
 20
1.49717705E+02
 11
-4.10999943E+02
 21
1.43999977E+02
  0
LINE
  8
0
 62
7
 10
-4.10999973E+02
 20
1.43999962E+02
 11
-3.94999973E+02
 21
1.43999962E+02
  0
LINE
  8
0
 62
7
 10
-4.10999943E+02
 20
1.49717705E+02
 11
-4.03999943E+02
 21
1.49717705E+02
  0
LINE
  8
0
 62
7
 10
-3.19999886E+01
 20
1.78000015E+02
 11
-3.19999886E+01
 21
1.35000031E+02
  0
LINE
  8
0
 62
7
 10
-3.25000038E+01
 20
1.34500015E+02
 11
-3.40000038E+01
 21
1.34500015E+02
  0
LINE
  8
0
 62
7
 10
-3.79999886E+01
 20
1.10058563E+02
 11
-3.79999886E+01
 21
1.09500008E+02
  0
LINE
  8
0
 62
7
 10
-3.44912590E+01
 20
1.10119854E+02
 11
-6.99999945E+01
 21
1.09500047E+02
  0
LINE
  8
0
 62
7
 10
-3.80000000E+01
 20
1.09500008E+02
 11
-7.00000038E+01
 21
1.09500008E+02
  0
LINE
  8
0
 62
7
 10
-3.80999943E+02
 20
1.77999969E+02
 11
-3.80999943E+02
 21
1.35000031E+02
  0
LINE
  8
0
  6
CENTER
 62
2
 10
-1.96999973E+02
 20
1.90800064E+02
 11
-1.96999973E+02
 21
2.05952667E+02
  0
LINE
  8
0
 62
7
 10
-3.89517471E+02
 20
1.35472110E+02
 11
-3.81000015E+02
 21
1.35000070E+02
  0
LINE
  8
0
 62
7
 10
-3.89999943E+02
 20
1.35971748E+02
 11
-3.89999943E+02
 21
1.77028275E+02
  0
LINE
  8
0
 62
7
 10
-3.80499973E+02
 20
1.34500015E+02
 11
-3.78999973E+02
 21
1.34500015E+02
  0
LINE
  8
0
  6
CENTER
 62
2
 10
-5.39999962E+01
 20
1.90800064E+02
 11
-5.39999962E+01
 21
2.05952667E+02
  0
LINE
  8
0
 62
7
 10
-2.12999973E+02
 20
1.10058563E+02
 11
-2.12999973E+02
 21
1.09500008E+02
  0
LINE
  8
0
 62
7
 10
-2.16508714E+02
 20
1.10119812E+02
 11
-1.80999993E+02
 21
1.09500005E+02
  0
LINE
  8
0
 62
7
 10
-2.13000004E+02
 20
1.09500008E+02
 11
-1.81000004E+02
 21
1.09500008E+02
  0
LINE
  8
0
 62
7
 10
-3.94499973E+02
 20
1.37000015E+02
 11
-3.89999973E+02
 21
1.37000015E+02
  0
LINE
  8
0
 62
7
 10
-3.94999943E+02
 20
1.37500015E+02
 11
-3.94999943E+02
 21
1.75500015E+02
  0
LINE
  8
0
 62
7
 10
-2.16999989E+02
 20
2.12500000E+02
 11
-2.16999989E+02
 21
1.00499992E+02
  0
LINE
  8
0
  6
CENTER
 62
2
 10
-2.40999973E+02
 20
1.93603287E+02
 11
-2.40999973E+02
 21
2.14952621E+02
  0
LINE
  8
0
 62
7
 10
-3.43999943E+02
 20
1.10000000E+02
 11
-2.55999928E+02
 21
1.10000000E+02
  0
LINE
  8
0
  6
CENTER
 62
2
 10
-3.86066441E+02
 20
1.14500008E+02
 11
-2.10520222E+02
 21
1.14500008E+02
  0
LINE
  8
0
 62
7
 10
-3.43999943E+02
 20
1.19000000E+02
 11
-2.55999928E+02
 21
1.19000000E+02
  0
LINE
  8
0
 62
7
 10
-2.55999928E+02
 20
2.12500000E+02
 11
-2.55999928E+02
 21
1.00499992E+02
  0
LINE
  8
0
 62
7
 10
-3.43999943E+02
 20
2.12500000E+02
 11
-3.43999943E+02
 21
1.00499992E+02
  0
LINE
  8
0
 62
7
 10
-3.43999943E+02
 20
2.10000000E+02
 11
-2.55999958E+02
 21
2.10000000E+02
  0
LINE
  8
0
 62
7
 10
-3.43999943E+02
 20
2.02999985E+02
 11
-2.55999928E+02
 21
2.02999985E+02
  0
LINE
  8
0
  6
CENTER
 62
2
 10
-3.86066441E+02
 20
1.98499985E+02
 11
-2.10520222E+02
 21
1.98499985E+02
  0
LINE
  8
0
 62
7
 10
-3.43999943E+02
 20
1.94000015E+02
 11
-2.55999928E+02
 21
1.94000015E+02
  0
LINE
  8
0
 62
7
 10
-3.29464352E+02
 20
1.62500133E+02
 11
-3.32928462E+02
 21
1.56500110E+02
  0
LINE
  8
0
 62
7
 10
-3.22535801E+02
 20
1.62500000E+02
 11
-3.29464054E+02
 21
1.62500000E+02
  0
LINE
  8
0
 62
7
 10
-3.22536127E+02
 20
1.62499648E+02
 11
-3.19072042E+02
 21
1.56499668E+02
  0
LINE
  8
0
 62
7
 10
-3.23999901E+02
 20
1.57654932E+02
 11
-3.25999915E+02
 21
1.58809641E+02
  0
LINE
  8
0
 62
7
 10
-3.25999875E+02
 20
1.58809240E+02
 11
-3.27999849E+02
 21
1.57654554E+02
  0
LINE
  8
0
 62
7
 10
-3.78999943E+02
 20
2.12500000E+02
 11
-3.78999943E+02
 21
1.00499992E+02
  0
LINE
  8
0
 62
7
 10
-2.55999928E+02
 20
2.12500000E+02
 11
-2.16999958E+02
 21
2.12500000E+02
  0
LINE
  8
0
 62
7
 10
-3.78999943E+02
 20
2.12500000E+02
 11
-3.43999943E+02
 21
2.12500000E+02
  0
LINE
  8
0
 62
7
 10
-2.55999928E+02
 20
1.00499992E+02
 11
-2.16999958E+02
 21
1.00499992E+02
  0
LINE
  8
0
 62
7
 10
-3.43999943E+02
 20
1.02999992E+02
 11
-2.55999928E+02
 21
1.02999992E+02
  0
LINE
  8
0
 62
7
 10
-3.78999943E+02
 20
1.00499992E+02
 11
-3.43999943E+02
 21
1.00499992E+02
  0
LINE
  8
0
  6
CENTER
 62
2
 10
-3.25999973E+02
 20
1.67824478E+02
 11
-3.25999973E+02
 21
1.44792175E+02
  0
LINE
  8
0
 62
7
 10
-3.23999943E+02
 20
1.57654991E+02
 11
-3.23999943E+02
 21
1.55345306E+02
  0
LINE
  8
0
 62
7
 10
-3.23999802E+02
 20
1.55344952E+02
 11
-3.25999816E+02
 21
1.54190243E+02
  0
LINE
  8
0
 62
7
 10
-3.25999893E+02
 20
1.54190540E+02
 11
-3.27999907E+02
 21
1.55345249E+02
  0
LINE
  8
0
 62
7
 10
-3.27999943E+02
 20
1.55345306E+02
 11
-3.27999943E+02
 21
1.57654686E+02
  0
LINE
  8
0
 62
7
 10
-3.22535801E+02
 20
1.50499992E+02
 11
-3.29464054E+02
 21
1.50499992E+02
  0
LINE
  8
0
 62
7
 10
-3.29464237E+02
 20
1.50500057E+02
 11
-3.32928337E+02
 21
1.56500063E+02
  0
LINE
  8
0
 62
7
 10
-3.22536269E+02
 20
1.50500281E+02
 11
-3.19072171E+02
 21
1.56500283E+02
  0
LINE
  8
0
  6
CENTER
 62
2
 10
-4.57875919E+02
 20
1.56500015E+02
 11
-1.60737457E+01
 21
1.56500015E+02
  0
LINE
  8
0
  6
CENTER
 62
2
 10
-5.96944462E+02
 20
1.21500031E+02
 11
-6.25365086E+02
 21
1.21500031E+02
  0
LINE
  8
0
  6
CENTER
 62
2
 10
-6.11499928E+02
 20
1.06762894E+02
 11
-6.11499928E+02
 21
1.36907051E+02
  0
LINE
  8
0
  6
CENTER
 62
2
 10
-6.81499958E+02
 20
1.06897675E+02
 11
-6.81499958E+02
 21
1.35578941E+02
  0
LINE
  8
0
  6
CENTER
 62
2
 10
-6.67690830E+02
 20
1.21500031E+02
 11
-6.96487690E+02
 21
1.21500031E+02
  0
LINE
  8
0
  6
CENTER
 62
2
 10
-6.81499958E+02
 20
2.05872696E+02
 11
-6.81499958E+02
 21
1.76135773E+02
  0
LINE
  8
0
  6
CENTER
 62
2
 10
-6.67277836E+02
 20
1.91500015E+02
 11
-6.96487690E+02
 21
1.91500015E+02
  0
LINE
  8
0
  6
CENTER
 62
2
 10
-5.96944462E+02
 20
1.91500015E+02
 11
-6.26190937E+02
 21
1.91500015E+02
  0
LINE
  8
0
  6
CENTER
 62
2
 10
-6.11499928E+02
 20
2.05685349E+02
 11
-6.11499928E+02
 21
1.76961655E+02
  0
LINE
  8
0
 62
4
 10
-6.62499977E+02
 20
1.65737596E+02
 11
-6.46499915E+02
 21
1.74975238E+02
  0
LINE
  8
0
 62
4
 10
-6.46499822E+02
 20
1.38024862E+02
 11
-6.30499944E+02
 21
1.47262411E+02
  0
LINE
  8
0
 62
4
 10
-6.62499786E+02
 20
1.47262511E+02
 11
-6.46499758E+02
 21
1.38024933E+02
  0
LINE
  8
0
 62
4
 10
-6.46499882E+02
 20
1.74975237E+02
 11
-6.30499909E+02
 21
1.65737656E+02
  0
LINE
  8
0
 62
4
 10
-6.62499943E+02
 20
1.65737625E+02
 11
-6.62499943E+02
 21
1.47262405E+02
  0
LINE
  8
0
 62
4
 10
-6.30499943E+02
 20
1.65737625E+02
 11
-6.30499943E+02
 21
1.47262405E+02
  0
CIRCLE
  8
0
 62
7
 10
-6.46499943E+02
 20
1.56500015E+02
 40
1.10000000E+01
  0
CIRCLE
  8
0
 62
4
 10
-6.46499943E+02
 20
1.56500015E+02
 40
1.60000000E+01
  0
CIRCLE
  8
0
 62
7
 10
-6.46499943E+02
 20
1.56500015E+02
 40
2.10111084E+01
  0
CIRCLE
  8
0
 62
7
 10
-6.46499943E+02
 20
1.56500092E+02
 40
1.95000000E+01
  0
CIRCLE
  8
0
 62
7
 10
-6.46499943E+02
 20
1.56500092E+02
 40
2.20000000E+01
  0
CIRCLE
  8
0
 62
2
 10
-6.46499943E+02
 20
1.56500015E+02
 40
1.01800117E+01
  0
CIRCLE
  8
0
 62
2
 10
-6.88499943E+02
 20
1.98499985E+02
 40
5.00000000E+00
  0
CIRCLE
  8
0
 62
7
 10
-6.88499943E+02
 20
1.98499985E+02
 40
8.25002670E+00
  0
CIRCLE
  8
0
 62
7
 10
-6.88499943E+02
 20
1.98499985E+02
 40
8.00002670E+00
  0
CIRCLE
  8
0
 62
7
 10
-6.04499882E+02
 20
1.98499985E+02
 40
4.18000031E+00
  0
CIRCLE
  8
0
 62
2
 10
-6.04499882E+02
 20
1.98499985E+02
 40
5.00000000E+00
  0
CIRCLE
  8
0
 62
7
 10
-6.04499882E+02
 20
1.98499985E+02
 40
8.25002670E+00
  0
CIRCLE
  8
0
 62
7
 10
-6.04499882E+02
 20
1.98499985E+02
 40
8.00002670E+00
  0
CIRCLE
  8
0
 62
7
 10
-6.88499943E+02
 20
1.98499985E+02
 40
4.18000031E+00
  0
CIRCLE
  8
0
 62
7
 10
-6.88499943E+02
 20
1.14500008E+02
 40
4.18000031E+00
  0
CIRCLE
  8
0
 62
2
 10
-6.88499943E+02
 20
1.14500008E+02
 40
5.00000000E+00
  0
CIRCLE
  8
0
 62
7
 10
-6.88499943E+02
 20
1.14500008E+02
 40
8.25002670E+00
  0
CIRCLE
  8
0
 62
7
 10
-6.88499943E+02
 20
1.14500008E+02
 40
8.00002670E+00
  0
CIRCLE
  8
0
 62
7
 10
-6.04499882E+02
 20
1.14500008E+02
 40
4.18000031E+00
  0
CIRCLE
  8
0
 62
2
 10
-6.04499882E+02
 20
1.14500008E+02
 40
5.00000000E+00
  0
CIRCLE
  8
0
 62
7
 10
-6.04499882E+02
 20
1.14500008E+02
 40
8.25002670E+00
  0
CIRCLE
  8
0
 62
7
 10
-6.04499882E+02
 20
1.14500008E+02
 40
8.00002670E+00
  0
ARC
  8
0
 62
7
 10
-5.95499943E+02
 20
2.07500000E+02
 40
5.00000000E+00
 50
0.00000000E+00
 51
8.99999818E+01
  0
ARC
  8
0
 62
7
 10
-5.95499943E+02
 20
1.05499992E+02
 40
5.00000000E+00
 50
2.70000018E+02
 51
0.00000000E+00
  0
ARC
  8
0
 62
7
 10
-6.97499943E+02
 20
2.07500000E+02
 40
5.00000000E+00
 50
8.99999818E+01
 51
1.79999964E+02
  0
ARC
  8
0
 62
7
 10
-6.97499943E+02
 20
1.05499992E+02
 40
5.00000000E+00
 50
1.79999977E+02
 51
2.70000028E+02
  0
ARC
  8
0
 62
7
 10
-7.04659122E+02
 20
1.53499985E+02
 40
6.84088802E+00
 50
1.53989320E+02
 51
2.06010690E+02
  0
ARC
  8
0
 62
7
 10
-7.04659122E+02
 20
1.59499969E+02
 40
6.84084702E+00
 50
1.53989169E+02
 51
2.06010827E+02
  0
ARC
  8
0
 62
7
 10
-5.88340855E+02
 20
1.53499985E+02
 40
6.84088802E+00
 50
3.33989277E+02
 51
2.60106513E+01
  0
ARC
  8
0
 62
7
 10
-5.88340855E+02
 20
1.59499969E+02
 40
6.84084702E+00
 50
3.33989137E+02
 51
2.60107913E+01
  0
LINE
  8
0
 62
7
 10
-5.90499973E+02
 20
2.07500000E+02
 11
-5.90499973E+02
 21
1.05499992E+02
  0
LINE
  8
0
 62
7
 10
-7.02499943E+02
 20
2.07500000E+02
 11
-7.02499943E+02
 21
1.05499992E+02
  0
LINE
  8
0
 62
7
 10
-6.93500004E+02
 20
1.95613251E+02
 11
-6.93500004E+02
 21
2.01386749E+02
  0
LINE
  8
0
 62
7
 10
-6.93499960E+02
 20
2.01386734E+02
 11
-6.88499959E+02
 21
2.04273475E+02
  0
LINE
  8
0
 62
7
 10
-6.88500071E+02
 20
2.04273540E+02
 11
-6.83499964E+02
 21
2.01386738E+02
  0
LINE
  8
0
 62
7
 10
-6.83499943E+02
 20
2.01386749E+02
 11
-6.83499943E+02
 21
1.95613251E+02
  0
LINE
  8
0
 62
7
 10
-6.88499898E+02
 20
1.92726340E+02
 11
-6.83499923E+02
 21
1.95613065E+02
  0
LINE
  8
0
 62
7
 10
-6.93499935E+02
 20
1.95613244E+02
 11
-6.88499934E+02
 21
1.92726503E+02
  0
LINE
  8
0
  6
CENTER
 62
2
 10
-6.88499943E+02
 20
1.84422333E+02
 11
-6.88499943E+02
 21
2.13607056E+02
  0
LINE
  8
0
  6
CENTER
 62
2
 10
-6.75015873E+02
 20
1.98499985E+02
 11
-7.03552494E+02
 21
1.98499985E+02
  0
LINE
  8
0
 62
7
 10
-5.99499882E+02
 20
1.95613251E+02
 11
-5.99499882E+02
 21
2.01386749E+02
  0
LINE
  8
0
 62
7
 10
-5.99499882E+02
 20
2.01386733E+02
 11
-6.04499884E+02
 21
2.04273474E+02
  0
LINE
  8
0
 62
7
 10
-6.04499979E+02
 20
2.04273290E+02
 11
-6.09499953E+02
 21
2.01386564E+02
  0
LINE
  8
0
 62
7
 10
-6.09499882E+02
 20
2.01386749E+02
 11
-6.09499882E+02
 21
1.95613251E+02
  0
LINE
  8
0
 62
7
 10
-6.04499864E+02
 20
1.92726477E+02
 11
-6.09499865E+02
 21
1.95613218E+02
  0
LINE
  8
0
 62
7
 10
-5.99499884E+02
 20
1.95613267E+02
 11
-6.04499885E+02
 21
1.92726526E+02
  0
LINE
  8
0
  6
CENTER
 62
2
 10
-6.04499882E+02
 20
1.84422333E+02
 11
-6.04499882E+02
 21
2.13607056E+02
  0
LINE
  8
0
  6
CENTER
 62
2
 10
-6.17984013E+02
 20
1.98499985E+02
 11
-5.89447330E+02
 21
1.98499985E+02
  0
LINE
  8
0
 62
7
 10
-6.93500004E+02
 20
1.17386742E+02
 11
-6.93500004E+02
 21
1.11613235E+02
  0
LINE
  8
0
 62
7
 10
-6.93499951E+02
 20
1.11613344E+02
 11
-6.88500002E+02
 21
1.08726634E+02
  0
LINE
  8
0
 62
7
 10
-6.88499852E+02
 20
1.08726387E+02
 11
-6.83499824E+02
 21
1.11613143E+02
  0
LINE
  8
0
 62
7
 10
-6.83499943E+02
 20
1.11613235E+02
 11
-6.83499943E+02
 21
1.17386742E+02
  0
LINE
  8
0
 62
7
 10
-6.88499965E+02
 20
1.20273483E+02
 11
-6.83499911E+02
 21
1.17386712E+02
  0
LINE
  8
0
 62
7
 10
-6.93499963E+02
 20
1.17386683E+02
 11
-6.88499935E+02
 21
1.20273439E+02
  0
LINE
  8
0
  6
CENTER
 62
2
 10
-6.88499943E+02
 20
1.28577637E+02
 11
-6.88499943E+02
 21
9.93929482E+01
  0
LINE
  8
0
  6
CENTER
 62
2
 10
-6.75015873E+02
 20
1.14500008E+02
 11
-7.03552494E+02
 21
1.14500008E+02
  0
LINE
  8
0
 62
7
 10
-5.99499882E+02
 20
1.17386742E+02
 11
-5.99499882E+02
 21
1.11613235E+02
  0
LINE
  8
0
 62
7
 10
-5.99499815E+02
 20
1.11613152E+02
 11
-6.04499790E+02
 21
1.08726426E+02
  0
LINE
  8
0
 62
7
 10
-6.04499853E+02
 20
1.08726562E+02
 11
-6.09499907E+02
 21
1.11613334E+02
  0
LINE
  8
0
 62
7
 10
-6.09499882E+02
 20
1.11613235E+02
 11
-6.09499882E+02
 21
1.17386742E+02
  0
LINE
  8
0
 62
7
 10
-6.04499774E+02
 20
1.20273429E+02
 11
-6.09499775E+02
 21
1.17386688E+02
  0
LINE
  8
0
 62
7
 10
-5.99499845E+02
 20
1.17386741E+02
 11
-6.04499820E+02
 21
1.20273467E+02
  0
LINE
  8
0
  6
CENTER
 62
2
 10
-6.04499882E+02
 20
1.28577637E+02
 11
-6.04499882E+02
 21
9.93929482E+01
  0
LINE
  8
0
  6
CENTER
 62
2
 10
-6.17984013E+02
 20
1.14500008E+02
 11
-5.89447330E+02
 21
1.14500008E+02
  0
LINE
  8
0
 62
7
 10
-6.97499943E+02
 20
2.12500000E+02
 11
-5.95499882E+02
 21
2.12500000E+02
  0
LINE
  8
0
 62
7
 10
-6.97499943E+02
 20
1.00499992E+02
 11
-5.95499882E+02
 21
1.00499992E+02
  0
LINE
  8
0
 62
7
 10
-5.87999973E+02
 20
1.50499992E+02
 11
-5.81499943E+02
 21
1.50499992E+02
  0
LINE
  8
0
 62
7
 10
-7.13499608E+02
 20
1.59799443E+02
 11
-7.12799579E+02
 21
1.60499472E+02
  0
LINE
  8
0
 62
7
 10
-7.12799924E+02
 20
1.52499982E+02
 11
-7.13499952E+02
 21
1.53200010E+02
  0
LINE
  8
0
 62
2
 10
-7.11499943E+02
 20
1.59799957E+02
 11
-7.13499943E+02
 21
1.59799957E+02
  0
LINE
  8
0
 62
7
 10
-7.12800053E+02
 20
1.52500000E+02
 11
-7.12800053E+02
 21
1.60499954E+02
  0
LINE
  8
0
 62
7
 10
-5.79499963E+02
 20
1.59800186E+02
 11
-5.80199884E+02
 21
1.60500107E+02
  0
LINE
  8
0
 62
7
 10
-5.80199539E+02
 20
1.52499408E+02
 11
-5.79499553E+02
 21
1.53199393E+02
  0
LINE
  8
0
 62
7
 10
-7.04999882E+02
 20
1.48499985E+02
 11
-7.04999882E+02
 21
1.64500008E+02
  0
LINE
  8
0
 62
7
 10
-5.80199986E+02
 20
1.52500000E+02
 11
-5.80199986E+02
 21
1.60499954E+02
  0
LINE
  8
0
 62
2
 10
-5.81499882E+02
 20
1.59799957E+02
 11
-5.79499973E+02
 21
1.59799957E+02
  0
LINE
  8
0
 62
2
 10
-5.81499882E+02
 20
1.53199959E+02
 11
-5.79499973E+02
 21
1.53199959E+02
  0
LINE
  8
0
 62
7
 10
-5.81499882E+02
 20
1.60499954E+02
 11
-5.80200047E+02
 21
1.60499954E+02
  0
LINE
  8
0
 62
7
 10
-5.81499882E+02
 20
1.52499962E+02
 11
-5.80200047E+02
 21
1.52499962E+02
  0
LINE
  8
0
 62
7
 10
-7.11499943E+02
 20
1.52499962E+02
 11
-7.12799992E+02
 21
1.52499962E+02
  0
LINE
  8
0
 62
7
 10
-7.11499943E+02
 20
1.60499954E+02
 11
-7.12799992E+02
 21
1.60499954E+02
  0
LINE
  8
0
 62
2
 10
-7.11499943E+02
 20
1.53199959E+02
 11
-7.13499943E+02
 21
1.53199959E+02
  0
LINE
  8
0
 62
7
 10
-7.04999943E+02
 20
1.50499992E+02
 11
-7.11499943E+02
 21
1.50499992E+02
  0
LINE
  8
0
 62
7
 10
-5.79499912E+02
 20
1.53199997E+02
 11
-5.79499912E+02
 21
1.59799957E+02
  0
LINE
  8
0
 62
7
 10
-7.13500004E+02
 20
1.53199997E+02
 11
-7.13500004E+02
 21
1.59799957E+02
  0
LINE
  8
0
 62
7
 10
-7.11500004E+02
 20
1.50499992E+02
 11
-7.11500004E+02
 21
1.62500000E+02
  0
LINE
  8
0
 62
7
 10
-5.90499882E+02
 20
1.64499969E+02
 11
-5.87999973E+02
 21
1.64499969E+02
  0
LINE
  8
0
 62
7
 10
-5.81499882E+02
 20
1.50499992E+02
 11
-5.81499882E+02
 21
1.62500000E+02
  0
LINE
  8
0
 62
7
 10
-5.87999882E+02
 20
1.48499985E+02
 11
-5.87999882E+02
 21
1.64500008E+02
  0
LINE
  8
0
 62
7
 10
-5.90499882E+02
 20
1.48499985E+02
 11
-5.87999973E+02
 21
1.48499985E+02
  0
LINE
  8
0
 62
7
 10
-5.87999973E+02
 20
1.56499977E+02
 11
-5.82192692E+02
 21
1.56499977E+02
  0
LINE
  8
0
 62
7
 10
-7.04999943E+02
 20
1.62499962E+02
 11
-7.11499943E+02
 21
1.62499962E+02
  0
LINE
  8
0
 62
7
 10
-7.02499943E+02
 20
1.48499985E+02
 11
-7.04999943E+02
 21
1.48499985E+02
  0
LINE
  8
0
  6
CENTER
 62
2
 10
-7.17961735E+02
 20
1.56500015E+02
 11
-5.75648655E+02
 21
1.56500015E+02
  0
LINE
  8
0
 62
7
 10
-7.02499943E+02
 20
1.64499969E+02
 11
-7.04999943E+02
 21
1.64499969E+02
  0
LINE
  8
0
 62
7
 10
-7.04999943E+02
 20
1.56499977E+02
 11
-7.10807133E+02
 21
1.56499977E+02
  0
LINE
  8
0
 62
7
 10
-5.87999973E+02
 20
1.62499962E+02
 11
-5.81499943E+02
 21
1.62499962E+02
  0
LINE
  8
0
  6
CENTER
 62
2
 10
-6.46499943E+02
 20
2.15976288E+02
 11
-6.46499943E+02
 21
9.53659058E+01
  0
LINE
  8
0
 62
4
 10
2.14500134E+02
 20
1.85316814E+02
 11
2.14589172E+02
 21
1.85537192E+02
  0
LINE
  8
0
 62
4
 10
1.85993452E+02
 20
2.03499993E+02
 11
1.89573689E+02
 21
2.12361392E+02
  0
ARC
  8
0
 62
4
 10
1.94844173E+02
 20
2.01595354E+02
 40
1.18100000E+01
 50
1.58000000E+02
 51
1.70719176E+02
  0
ARC
  8
0
 62
4
 10
1.94849970E+02
 20
2.01609704E+02
 40
1.18100000E+01
 50
1.55900933E+02
 51
1.58000000E+02
  0
LINE
  8
0
 62
4
 10
1.85583608E+02
 20
2.03499994E+02
 11
1.86112124E+02
 21
2.04808116E+02
  0
ARC
  8
0
 62
4
 10
1.95685029E+02
 20
2.05038844E+02
 40
1.18100000E+01
 50
1.45172490E+02
 51
1.70827510E+02
  0
LINE
  8
0
 62
4
 10
1.85537270E+02
 20
2.05040372E+02
 11
1.88384280E+02
 21
2.12086970E+02
  0
LINE
  8
0
 62
4
 10
1.88234438E+02
 20
2.11716096E+02
 11
1.87186720E+02
 21
2.12139402E+02
  0
LINE
  8
0
 62
4
 10
1.85687113E+02
 20
2.05411246E+02
 11
1.84639395E+02
 21
2.05834551E+02
  0
ARC
  8
0
 62
4
 10
1.86811369E+02
 20
2.11212519E+02
 40
1.00000000E+00
 50
6.79999999E+01
 51
1.45172490E+02
  0
ARC
  8
0
 62
4
 10
1.85013258E+02
 20
2.06762035E+02
 40
1.00000000E+00
 50
1.70827510E+02
 51
2.48000000E+02
  0
LINE
  8
0
 62
4
 10
1.89311464E+02
 20
2.11712363E+02
 11
1.88384280E+02
 21
2.12086970E+02
  0
LINE
  8
0
 62
4
 10
1.86464454E+02
 20
2.04665766E+02
 11
1.85537270E+02
 21
2.05040372E+02
  0
LINE
  8
0
 62
4
 10
2.06879816E+02
 20
2.03499986E+02
 11
2.05613969E+02
 21
2.05880698E+02
  0
LINE
  8
0
 62
4
 10
1.97102358E+02
 20
2.03499989E+02
 11
1.99123683E+02
 21
2.08502944E+02
  0
LINE
  8
0
 62
4
 10
2.05613969E+02
 20
2.05880698E+02
 11
1.99123683E+02
 21
2.08502944E+02
  0
LINE
  8
0
 62
4
 10
1.89573689E+02
 20
2.12361392E+02
 11
1.99123683E+02
 21
2.08502944E+02
  0
LINE
  8
0
  6
CENTER
 62
6
 10
2.07579941E+02
 20
2.00232987E+02
 11
1.86787788E+02
 21
2.08633562E+02
  0
LINE
  8
0
  6
CENTER
 62
6
 10
1.97575250E+02
 20
2.00500273E+02
 11
1.85476665E+02
 21
2.05388419E+02
  0
LINE
  8
0
 62
4
 10
2.14589172E+02
 20
1.85537192E+02
 11
2.14500134E+02
 21
1.85573166E+02
  0
LINE
  8
0
 62
4
 10
1.49006780E+02
 20
2.03500007E+02
 11
1.45426548E+02
 21
2.12361392E+02
  0
ARC
  8
0
 62
4
 10
1.40156064E+02
 20
2.01595354E+02
 40
1.18100000E+01
 50
9.28087917E+00
 51
2.20000000E+01
  0
ARC
  8
0
 62
4
 10
1.40150266E+02
 20
2.01609704E+02
 40
1.18100000E+01
 50
2.20000000E+01
 51
4.25326990E+01
  0
LINE
  8
0
 62
4
 10
1.47221113E+02
 20
2.08934084E+02
 11
1.48852957E+02
 21
2.09593392E+02
  0
LINE
  8
0
 62
4
 10
1.46924974E+02
 20
2.08652656E+02
 11
1.47277304E+02
 21
2.08795007E+02
  0
LINE
  8
0
 62
4
 10
1.49416623E+02
 20
2.03500006E+02
 11
1.47221113E+02
 21
2.08934084E+02
  0
LINE
  8
0
 62
4
 10
1.47795967E+02
 20
2.09166340E+02
 11
1.46615956E+02
 21
2.12086970E+02
  0
LINE
  8
0
 62
4
 10
1.46765799E+02
 20
2.11716096E+02
 11
1.47813517E+02
 21
2.12139402E+02
  0
ARC
  8
0
 62
4
 10
1.39315207E+02
 20
2.05038844E+02
 40
1.18100000E+01
 50
9.17248994E+00
 51
3.48275100E+01
  0
ARC
  8
0
 62
4
 10
1.48188867E+02
 20
2.11212519E+02
 40
1.00000000E+00
 50
3.48275100E+01
 51
1.12000000E+02
  0
ARC
  8
0
 62
4
 10
1.49986979E+02
 20
2.06762035E+02
 40
1.00000000E+00
 50
3.40723662E+02
 51
9.17248994E+00
  0
LINE
  8
0
 62
4
 10
1.45688772E+02
 20
2.11712363E+02
 11
1.46615956E+02
 21
2.12086970E+02
  0
LINE
  8
0
 62
4
 10
1.28120435E+02
 20
2.03500014E+02
 11
1.29386267E+02
 21
2.05880698E+02
  0
LINE
  8
0
 62
4
 10
1.37897870E+02
 20
2.03500011E+02
 11
1.35876554E+02
 21
2.08502944E+02
  0
LINE
  8
0
 62
4
 10
1.29386267E+02
 20
2.05880698E+02
 11
1.35876554E+02
 21
2.08502944E+02
  0
LINE
  8
0
  6
CENTER
 62
6
 10
1.37424986E+02
 20
2.00500273E+02
 11
1.49523572E+02
 21
2.05388419E+02
  0
LINE
  8
0
  6
CENTER
 62
6
 10
1.27420296E+02
 20
2.00232987E+02
 11
1.48212449E+02
 21
2.08633562E+02
  0
LINE
  8
0
 62
4
 10
1.45426548E+02
 20
2.12361392E+02
 11
1.35876554E+02
 21
2.08502944E+02
  0
LINE
  8
0
 62
4
 10
1.20411065E+02
 20
1.85537192E+02
 11
1.20500103E+02
 21
1.85573166E+02
  0
LINE
  8
0
 62
4
 10
1.20500103E+02
 20
1.85316814E+02
 11
1.20411065E+02
 21
1.85537192E+02
  0
ARC
  8
0
 62
7
 10
1.29500088E+02
 20
1.33634682E+02
 40
1.00000000E+00
 50
1.79999991E+02
 51
2.83885939E+02
  0
ARC
  8
0
 62
7
 10
1.44634762E+02
 20
1.18499954E+02
 40
1.00000000E+00
 50
1.66113028E+02
 51
2.69999974E+02
  0
ARC
  8
0
 62
7
 10
1.90365398E+02
 20
1.18500046E+02
 40
1.00000000E+00
 50
2.69999998E+02
 51
1.38869442E+01
  0
ARC
  8
0
 62
7
 10
2.05500164E+02
 20
1.33634659E+02
 40
1.00000000E+00
 50
2.56113881E+02
 51
1.86693353E-05
  0
ARC
  8
0
 62
7
 10
2.05500118E+02
 20
1.79365326E+02
 40
1.00000000E+00
 50
3.59721781E-05
 51
1.03886119E+02
  0
ARC
  8
0
 62
7
 10
1.90365444E+02
 20
1.94500076E+02
 40
1.00000000E+00
 50
3.46112226E+02
 51
9.00000162E+01
  0
ARC
  8
0
 62
7
 10
1.44634762E+02
 20
1.94499985E+02
 40
1.00000000E+00
 50
9.00000162E+01
 51
1.93885698E+02
  0
ARC
  8
0
 62
7
 10
1.29500042E+02
 20
1.79365341E+02
 40
1.00000000E+00
 50
7.61138592E+01
 51
1.80000005E+02
  0
CIRCLE
  8
0
 62
7
 10
1.67500103E+02
 20
1.56500092E+02
 40
2.20000000E+01
  0
ARC
  8
0
 62
7
 10
1.65250103E+02
 20
1.79389740E+02
 40
1.00000000E+00
 50
2.75613894E+02
 51
3.59721781E-05
  0
ARC
  8
0
 62
7
 10
1.44610409E+02
 20
1.58750000E+02
 40
1.00000000E+00
 50
2.70000038E+02
 51
3.54386163E+02
  0
ARC
  8
0
 62
7
 10
1.52905636E+02
 20
1.74276505E+02
 40
1.00000000E+00
 50
2.25000000E+02
 51
3.09386157E+02
  0
ARC
  8
0
 62
7
 10
1.49723629E+02
 20
1.71094467E+02
 40
1.00000000E+00
 50
3.20614517E+02
 51
4.50000423E+01
  0
ARC
  8
0
 62
7
 10
1.49499004E+02
 20
1.98899963E+02
 40
1.00000000E+00
 50
9.00000162E+01
 51
1.78725219E+02
  0
ARC
  8
0
 62
7
 10
1.25100063E+02
 20
1.74501190E+02
 40
1.00000000E+00
 50
9.12730270E+01
 51
1.80000005E+02
  0
ARC
  8
0
 62
7
 10
1.45000103E+02
 20
1.99000076E+02
 40
3.50000024E+00
 50
2.69999984E+02
 51
3.58725492E+02
  0
ARC
  8
0
 62
7
 10
1.25000088E+02
 20
1.79000076E+02
 40
3.50000024E+00
 50
2.71273049E+02
 51
1.86693353E-05
  0
CIRCLE
  8
0
 62
7
 10
1.32500088E+02
 20
1.91499985E+02
 40
8.00000000E+00
  0
ARC
  8
0
 62
7
 10
1.24500072E+02
 20
1.99499985E+02
 40
4.00000000E+00
 50
9.00000162E+01
 51
1.80000005E+02
  0
ARC
  8
0
 62
7
 10
1.32500088E+02
 20
1.91499985E+02
 40
1.15000000E+01
 50
2.56113130E+02
 51
1.38865754E+01
  0
ARC
  8
0
 62
7
 10
1.24500072E+02
 20
1.99499985E+02
 40
3.40000033E+00
 50
9.00000162E+01
 51
1.80000005E+02
  0
ARC
  8
0
 62
7
 10
1.25100063E+02
 20
1.58750000E+02
 40
1.00000000E+00
 50
1.79999991E+02
 51
2.70000028E+02
  0
ARC
  8
0
 62
7
 10
1.65250103E+02
 20
1.98899963E+02
 40
1.00000000E+00
 50
3.59721781E-05
 51
9.00000162E+01
  0
ARC
  8
0
 62
7
 10
1.42785580E+02
 20
1.84396530E+02
 40
1.00000000E+00
 50
1.45369621E+02
 51
2.25000010E+02
  0
ARC
  8
0
 62
7
 10
1.39603573E+02
 20
1.81214523E+02
 40
1.00000000E+00
 50
4.50000423E+01
 51
1.24630380E+02
  0
CIRCLE
  8
0
 62
7
 10
1.32500088E+02
 20
1.91499985E+02
 40
8.69999981E+00
  0
ARC
  8
0
 62
7
 10
1.49498959E+02
 20
1.14099983E+02
 40
1.00000000E+00
 50
1.81273033E+02
 51
2.69999984E+02
  0
ARC
  8
0
 62
7
 10
1.44610317E+02
 20
1.54250015E+02
 40
1.00000000E+00
 50
5.61389128E+00
 51
9.00000300E+01
  0
ARC
  8
0
 62
7
 10
1.65250103E+02
 20
1.33610329E+02
 40
1.00000000E+00
 50
4.96325564E-05
 51
8.43861746E+01
  0
ARC
  8
0
 62
7
 10
1.49723629E+02
 20
1.41905533E+02
 40
1.00000000E+00
 50
3.15000019E+02
 51
3.93861731E+01
  0
ARC
  8
0
 62
7
 10
1.52905636E+02
 20
1.38723526E+02
 40
1.00000000E+00
 50
5.06145124E+01
 51
1.35000041E+02
  0
ARC
  8
0
 62
7
 10
1.25100109E+02
 20
1.38498901E+02
 40
1.00000000E+00
 50
1.79999991E+02
 51
2.68725214E+02
  0
ARC
  8
0
 62
7
 10
1.45000057E+02
 20
1.14000008E+02
 40
3.50000024E+00
 50
1.27300564E+00
 51
9.00000162E+01
  0
ARC
  8
0
 62
7
 10
1.25000042E+02
 20
1.34000015E+02
 40
3.50000024E+00
 50
3.59721781E-05
 51
8.87254481E+01
  0
CIRCLE
  8
0
 62
2
 10
2.02500118E+02
 20
1.91500015E+02
 40
5.00000000E+00
  0
CIRCLE
  8
0
 62
7
 10
1.32500088E+02
 20
1.21500008E+02
 40
8.00000000E+00
  0
ARC
  8
0
 62
7
 10
1.24500072E+02
 20
1.13500015E+02
 40
4.00000000E+00
 50
1.80000008E+02
 51
2.69999984E+02
  0
ARC
  8
0
 62
7
 10
1.32500088E+02
 20
1.21500008E+02
 40
1.15000000E+01
 50
3.46113223E+02
 51
1.03886433E+02
  0
ARC
  8
0
 62
7
 10
1.24500072E+02
 20
1.13500015E+02
 40
3.40000033E+00
 50
1.80000008E+02
 51
2.69999984E+02
  0
ARC
  8
0
 62
7
 10
1.65250103E+02
 20
1.14100006E+02
 40
1.00000000E+00
 50
2.69999998E+02
 51
4.96325564E-05
  0
ARC
  8
0
 62
7
 10
1.25100109E+02
 20
1.54250015E+02
 40
1.00000000E+00
 50
9.00000300E+01
 51
1.80000019E+02
  0
ARC
  8
0
 62
7
 10
1.39603573E+02
 20
1.31785492E+02
 40
1.00000000E+00
 50
2.35369606E+02
 51
3.14999999E+02
  0
ARC
  8
0
 62
7
 10
1.42785580E+02
 20
1.28603470E+02
 40
1.00000000E+00
 50
1.35000041E+02
 51
2.14630376E+02
  0
CIRCLE
  8
0
 62
7
 10
1.32500088E+02
 20
1.21500008E+02
 40
8.69999981E+00
  0
ARC
  8
0
 62
7
 10
1.69750103E+02
 20
1.33610275E+02
 40
1.00000000E+00
 50
9.56138854E+01
 51
1.80000032E+02
  0
ARC
  8
0
 62
7
 10
1.90389751E+02
 20
1.54250023E+02
 40
1.00000000E+00
 50
9.00000437E+01
 51
1.74386177E+02
  0
ARC
  8
0
 62
7
 10
1.82094570E+02
 20
1.38723526E+02
 40
1.00000000E+00
 50
4.50000149E+01
 51
1.29386172E+02
  0
ARC
  8
0
 62
7
 10
1.85276577E+02
 20
1.41905548E+02
 40
1.00000000E+00
 50
1.40614511E+02
 51
2.25000037E+02
  0
ARC
  8
0
 62
7
 10
1.90389797E+02
 20
1.58750015E+02
 40
1.00000000E+00
 50
1.85613878E+02
 51
2.70000038E+02
  0
ARC
  8
0
 62
7
 10
1.69750103E+02
 20
1.79389694E+02
 40
1.00000000E+00
 50
1.80000036E+02
 51
2.64386169E+02
  0
ARC
  8
0
 62
7
 10
1.85276577E+02
 20
1.71094498E+02
 40
1.00000000E+00
 50
1.35000014E+02
 51
2.19386168E+02
  0
ARC
  8
0
 62
7
 10
1.82094570E+02
 20
1.74276505E+02
 40
1.00000000E+00
 50
2.30614484E+02
 51
3.15000026E+02
  0
ARC
  8
0
 62
7
 10
1.85501202E+02
 20
1.14100052E+02
 40
1.00000000E+00
 50
2.69999984E+02
 51
3.58725246E+02
  0
ARC
  8
0
 62
7
 10
2.09900143E+02
 20
1.38498810E+02
 40
1.00000000E+00
 50
2.71273049E+02
 51
1.86693353E-05
  0
ARC
  8
0
 62
7
 10
1.90000103E+02
 20
1.13999954E+02
 40
3.50000024E+00
 50
9.00000162E+01
 51
1.78725478E+02
  0
ARC
  8
0
 62
7
 10
2.10000118E+02
 20
1.33999924E+02
 40
3.50000024E+00
 50
9.12730339E+01
 51
1.80000005E+02
  0
ARC
  8
0
 62
7
 10
1.85501247E+02
 20
1.98900040E+02
 40
1.00000000E+00
 50
1.27300564E+00
 51
9.00000162E+01
  0
ARC
  8
0
 62
7
 10
2.09900051E+02
 20
1.74501099E+02
 40
1.00000000E+00
 50
3.59721781E-05
 51
8.87252023E+01
  0
ARC
  8
0
 62
7
 10
2.10000164E+02
 20
1.78999985E+02
 40
3.50000024E+00
 50
1.79999500E+02
 51
2.68725460E+02
  0
ARC
  8
0
 62
7
 10
1.90000149E+02
 20
1.99000015E+02
 40
3.50000024E+00
 50
1.81273033E+02
 51
2.69999984E+02
  0
ARC
  8
0
 62
7
 10
2.10500088E+02
 20
1.13500015E+02
 40
4.00000000E+00
 50
2.70000011E+02
 51
3.59999964E+02
  0
CIRCLE
  8
0
 62
7
 10
2.02500118E+02
 20
1.21500008E+02
 40
8.00000000E+00
  0
CIRCLE
  8
0
 62
2
 10
1.32500088E+02
 20
1.91500015E+02
 40
5.00000000E+00
  0
CIRCLE
  8
0
 62
7
 10
2.02500118E+02
 20
1.91499985E+02
 40
8.00000000E+00
  0
ARC
  8
0
 62
7
 10
2.10500088E+02
 20
1.99500000E+02
 40
4.00000000E+00
 50
2.23117997E-05
 51
8.99999750E+01
  0
ARC
  8
0
 62
7
 10
2.02500118E+02
 20
1.21500008E+02
 40
1.15000000E+01
 50
7.61130875E+01
 51
1.93886340E+02
  0
ARC
  8
0
 62
7
 10
2.10500088E+02
 20
1.13500015E+02
 40
3.40000033E+00
 50
2.70000011E+02
 51
3.59999964E+02
  0
ARC
  8
0
 62
7
 10
2.09900143E+02
 20
1.54250023E+02
 40
1.00000000E+00
 50
8.65142224E-06
 51
9.00000437E+01
  0
ARC
  8
0
 62
7
 10
1.69750103E+02
 20
1.14100052E+02
 40
1.00000000E+00
 50
1.80000022E+02
 51
2.70000011E+02
  0
ARC
  8
0
 62
7
 10
2.10500088E+02
 20
1.99500000E+02
 40
3.40000033E+00
 50
2.23117997E-05
 51
8.99999750E+01
  0
ARC
  8
0
 62
7
 10
1.92214626E+02
 20
1.28603485E+02
 40
1.00000000E+00
 50
3.25369626E+02
 51
4.50000149E+01
  0
ARC
  8
0
 62
7
 10
1.95396633E+02
 20
1.31785492E+02
 40
1.00000000E+00
 50
2.25000027E+02
 51
3.04630351E+02
  0
ARC
  8
0
 62
7
 10
2.09900051E+02
 20
1.58750015E+02
 40
1.00000000E+00
 50
2.70000052E+02
 51
3.59721781E-05
  0
ARC
  8
0
 62
7
 10
2.02500118E+02
 20
1.91499985E+02
 40
1.15000000E+01
 50
1.66113111E+02
 51
2.83886595E+02
  0
ARC
  8
0
 62
7
 10
1.69750103E+02
 20
1.98900009E+02
 40
1.00000000E+00
 50
9.00000025E+01
 51
1.80000046E+02
  0
ARC
  8
0
 62
7
 10
1.95396633E+02
 20
1.81214523E+02
 40
1.00000000E+00
 50
5.53696217E+01
 51
1.35000014E+02
  0
ARC
  8
0
 62
7
 10
1.92214626E+02
 20
1.84396561E+02
 40
1.00000000E+00
 50
3.15000047E+02
 51
3.46303671E+01
  0
CIRCLE
  8
0
 62
7
 10
2.02500118E+02
 20
1.21500008E+02
 40
8.69999981E+00
  0
CIRCLE
  8
0
 62
7
 10
2.02500118E+02
 20
1.91499985E+02
 40
8.69999981E+00
  0
CIRCLE
  8
0
 62
7
 10
1.32500088E+02
 20
1.91500015E+02
 40
4.18000031E+00
  0
CIRCLE
  8
0
 62
7
 10
2.02500118E+02
 20
1.91500015E+02
 40
4.18000031E+00
  0
CIRCLE
  8
0
 62
7
 10
2.02500118E+02
 20
1.21500031E+02
 40
4.18000031E+00
  0
CIRCLE
  8
0
 62
2
 10
2.02500118E+02
 20
1.21500031E+02
 40
5.00000000E+00
  0
CIRCLE
  8
0
 62
2
 10
1.32500088E+02
 20
1.21500031E+02
 40
5.00000000E+00
  0
CIRCLE
  8
0
 62
7
 10
1.32500088E+02
 20
1.21500031E+02
 40
4.18000031E+00
  0
ARC
  8
0
 62
7
 10
2.18500088E+02
 20
1.05499992E+02
 40
5.00000000E+00
 50
2.69999963E+02
 51
0.00000000E+00
  0
ARC
  8
0
 62
7
 10
1.16500111E+02
 20
2.07500000E+02
 40
5.00000000E+00
 50
8.99999818E+01
 51
1.79999964E+02
  0
ARC
  8
0
 62
7
 10
2.18500088E+02
 20
2.07500000E+02
 40
5.00000000E+00
 50
0.00000000E+00
 51
8.99999818E+01
  0
ARC
  8
0
 62
7
 10
1.09340992E+02
 20
1.59499969E+02
 40
6.84084702E+00
 50
1.53989169E+02
 51
2.06010827E+02
  0
ARC
  8
0
 62
7
 10
1.09340992E+02
 20
1.53499985E+02
 40
6.84088802E+00
 50
1.53989320E+02
 51
2.06010690E+02
  0
ARC
  8
0
 62
7
 10
1.16500111E+02
 20
1.05499992E+02
 40
5.00000000E+00
 50
1.79999964E+02
 51
2.69999946E+02
  0
ARC
  8
0
 62
7
 10
2.25659283E+02
 20
1.59499969E+02
 40
6.84084702E+00
 50
3.33989137E+02
 51
2.60107947E+01
  0
ARC
  8
0
 62
7
 10
2.25659283E+02
 20
1.53499985E+02
 40
6.84088802E+00
 50
3.33989274E+02
 51
2.60106444E+01
  0
LINE
  8
0
 62
7
 10
1.32500081E+02
 20
1.97273509E+02
 11
1.37500080E+02
 21
1.94386758E+02
  0
LINE
  8
0
 62
7
 10
1.37500088E+02
 20
1.94386765E+02
 11
1.37500088E+02
 21
1.88613266E+02
  0
LINE
  8
0
 62
7
 10
1.37500085E+02
 20
1.88613263E+02
 11
1.32500089E+02
 21
1.85726514E+02
  0
LINE
  8
0
  6
CENTER
 62
2
 10
1.78500164E+02
 20
1.90800049E+02
 11
1.78500164E+02
 21
2.05952637E+02
  0
LINE
  8
0
 62
7
 10
2.02500105E+02
 20
1.85726506E+02
 11
1.97500109E+02
 21
1.88613256E+02
  0
LINE
  8
0
 62
7
 10
1.32500088E+02
 20
1.27273539E+02
 11
1.37500084E+02
 21
1.24386790E+02
  0
LINE
  8
0
 62
7
 10
1.37500088E+02
 20
1.24386787E+02
 11
1.37500088E+02
 21
1.18613281E+02
  0
LINE
  8
0
  6
CENTER
 62
2
 10
1.32500088E+02
 20
1.06897675E+02
 11
1.32500088E+02
 21
1.35578941E+02
  0
LINE
  8
0
  6
CENTER
 62
2
 10
1.46722210E+02
 20
1.91500015E+02
 11
1.17512356E+02
 21
1.91500015E+02
  0
LINE
  8
0
  6
CENTER
 62
2
 10
1.46309216E+02
 20
1.21500031E+02
 11
1.17512356E+02
 21
1.21500031E+02
  0
LINE
  8
0
 62
7
 10
1.90365398E+02
 20
1.17500046E+02
 11
1.90000103E+02
 21
1.17500046E+02
  0
LINE
  8
0
 62
7
 10
1.44634716E+02
 20
1.17499954E+02
 11
1.45000011E+02
 21
1.17499954E+02
  0
LINE
  8
0
 62
7
 10
1.28500103E+02
 20
1.33634682E+02
 11
1.28500103E+02
 21
1.34000015E+02
  0
LINE
  8
0
 62
7
 10
2.06500149E+02
 20
1.33634659E+02
 11
2.06500149E+02
 21
1.33999924E+02
  0
LINE
  8
0
 62
7
 10
1.28500011E+02
 20
1.79365341E+02
 11
1.28500011E+02
 21
1.79000076E+02
  0
LINE
  8
0
 62
7
 10
1.44634716E+02
 20
1.95499969E+02
 11
1.45000103E+02
 21
1.95499969E+02
  0
LINE
  8
0
 62
7
 10
1.90365444E+02
 20
1.95500061E+02
 11
1.90000149E+02
 21
1.95500061E+02
  0
LINE
  8
0
 62
7
 10
2.06500103E+02
 20
1.79365326E+02
 11
2.06500103E+02
 21
1.78999985E+02
  0
LINE
  8
0
 62
7
 10
1.37500103E+02
 20
1.10099991E+02
 11
1.37500103E+02
 21
1.09500008E+02
  0
LINE
  8
0
 62
7
 10
1.97500103E+02
 20
1.10100044E+02
 11
1.97500103E+02
 21
1.09500046E+02
  0
LINE
  8
0
 62
7
 10
1.97500103E+02
 20
2.03500015E+02
 11
1.97500103E+02
 21
2.02900040E+02
  0
LINE
  8
0
 62
7
 10
1.37500103E+02
 20
2.03499985E+02
 11
1.37500103E+02
 21
2.02899979E+02
  0
LINE
  8
0
 62
7
 10
1.49499004E+02
 20
1.99899979E+02
 11
1.85501247E+02
 21
1.99899979E+02
  0
LINE
  8
0
 62
7
 10
1.66250088E+02
 20
1.98899963E+02
 11
1.66250088E+02
 21
1.79389740E+02
  0
LINE
  8
0
 62
7
 10
1.52198649E+02
 20
1.73569537E+02
 11
1.42078597E+02
 21
1.83689586E+02
  0
LINE
  8
0
 62
7
 10
1.50430748E+02
 20
1.71801667E+02
 11
1.40310679E+02
 21
1.81921732E+02
  0
LINE
  8
0
  6
CENTER
 62
2
 10
2.17055584E+02
 20
1.91500015E+02
 11
1.87809109E+02
 21
1.91500015E+02
  0
LINE
  8
0
  6
CENTER
 62
2
 10
1.32500088E+02
 20
2.05872696E+02
 11
1.32500088E+02
 21
1.76135773E+02
  0
LINE
  8
0
 62
7
 10
1.24500072E+02
 20
2.02899979E+02
 11
2.10500042E+02
 21
2.02900040E+02
  0
LINE
  8
0
 62
7
 10
1.66250088E+02
 20
1.14100021E+02
 11
1.66250088E+02
 21
1.33610329E+02
  0
LINE
  8
0
 62
7
 10
1.25100109E+02
 20
1.55250008E+02
 11
1.44610317E+02
 21
1.55250008E+02
  0
LINE
  8
0
 62
7
 10
1.50430720E+02
 20
1.41198418E+02
 11
1.40310687E+02
 21
1.31078382E+02
  0
LINE
  8
0
 62
7
 10
1.52198509E+02
 20
1.39430630E+02
 11
1.42078476E+02
 21
1.29310594E+02
  0
LINE
  8
0
 62
7
 10
1.24500072E+02
 20
1.09500008E+02
 11
2.10500088E+02
 21
1.09500046E+02
  0
LINE
  8
0
  6
CENTER
 62
2
 10
2.17055584E+02
 20
1.21500031E+02
 11
1.88634960E+02
 21
1.21500031E+02
  0
LINE
  8
0
 62
7
 10
1.20500088E+02
 20
1.13500015E+02
 11
1.20500088E+02
 21
1.99499985E+02
  0
LINE
  8
0
 62
7
 10
1.49498913E+02
 20
1.13099991E+02
 11
1.85501202E+02
 21
1.13099991E+02
  0
LINE
  8
0
 62
7
 10
1.24100124E+02
 20
1.38498901E+02
 11
1.24100124E+02
 21
1.74501190E+02
  0
LINE
  8
0
 62
7
 10
1.32500085E+02
 20
1.97273517E+02
 11
1.27500089E+02
 21
1.94386768E+02
  0
LINE
  8
0
 62
7
 10
2.07500118E+02
 20
1.24386787E+02
 11
2.07500118E+02
 21
1.18613281E+02
  0
LINE
  8
0
 62
7
 10
2.07500112E+02
 20
1.18613282E+02
 11
2.02500116E+02
 21
1.15726533E+02
  0
LINE
  8
0
 62
7
 10
1.32500084E+02
 20
1.15726536E+02
 11
1.27500088E+02
 21
1.18613285E+02
  0
LINE
  8
0
 62
7
 10
1.32500091E+02
 20
1.27273540E+02
 11
1.27500081E+02
 21
1.24386783E+02
  0
LINE
  8
0
 62
7
 10
2.02500102E+02
 20
1.27273530E+02
 11
2.07500098E+02
 21
1.24386780E+02
  0
LINE
  8
0
 62
7
 10
2.02500109E+02
 20
1.97273510E+02
 11
2.07500105E+02
 21
1.94386760E+02
  0
LINE
  8
0
 62
7
 10
1.97500118E+02
 20
1.24386787E+02
 11
1.97500118E+02
 21
1.18613281E+02
  0
LINE
  8
0
 62
7
 10
2.07500118E+02
 20
1.94386765E+02
 11
2.07500118E+02
 21
1.88613266E+02
  0
LINE
  8
0
 62
7
 10
1.32500080E+02
 20
1.85726504E+02
 11
1.27500081E+02
 21
1.88613256E+02
  0
LINE
  8
0
 62
7
 10
1.27500088E+02
 20
1.94386765E+02
 11
1.27500088E+02
 21
1.88613266E+02
  0
LINE
  8
0
 62
7
 10
1.97500118E+02
 20
1.94386765E+02
 11
1.97500118E+02
 21
1.88613266E+02
  0
LINE
  8
0
 62
7
 10
2.02500107E+02
 20
1.97273513E+02
 11
1.97500111E+02
 21
1.94386764E+02
  0
LINE
  8
0
 62
7
 10
2.13900127E+02
 20
1.13500038E+02
 11
2.13900127E+02
 21
1.99500000E+02
  0
LINE
  8
0
 62
7
 10
1.24500072E+02
 20
1.10099991E+02
 11
2.10500088E+02
 21
1.10100044E+02
  0
LINE
  8
0
 62
7
 10
2.10900127E+02
 20
1.38498810E+02
 11
2.10900127E+02
 21
1.74501099E+02
  0
LINE
  8
0
 62
7
 10
1.24500072E+02
 20
2.03499985E+02
 11
2.10500042E+02
 21
2.03500015E+02
  0
LINE
  8
0
  6
CENTER
 62
2
 10
2.02500118E+02
 20
2.05685349E+02
 11
2.02500118E+02
 21
1.76961655E+02
  0
LINE
  8
0
  6
CENTER
 62
2
 10
2.02500118E+02
 20
1.06762894E+02
 11
2.02500118E+02
 21
1.36907051E+02
  0
LINE
  8
0
 62
7
 10
2.14500118E+02
 20
1.13500038E+02
 11
2.14500118E+02
 21
1.99500000E+02
  0
LINE
  8
0
 62
7
 10
1.84569536E+02
 20
1.71801579E+02
 11
1.94689603E+02
 21
1.81921645E+02
  0
LINE
  8
0
 62
7
 10
1.82801667E+02
 20
1.73569384E+02
 11
1.92921702E+02
 21
1.83689418E+02
  0
LINE
  8
0
 62
7
 10
1.68750118E+02
 20
1.98900009E+02
 11
1.68750118E+02
 21
1.79389694E+02
  0
LINE
  8
0
 62
7
 10
2.09900051E+02
 20
1.57750015E+02
 11
1.90389797E+02
 21
1.57750015E+02
  0
LINE
  8
0
 62
7
 10
1.84569585E+02
 20
1.41198687E+02
 11
1.94689620E+02
 21
1.31078653E+02
  0
LINE
  8
0
 62
7
 10
1.82801797E+02
 20
1.39430769E+02
 11
1.92921848E+02
 21
1.29310719E+02
  0
LINE
  8
0
 62
7
 10
1.25100063E+02
 20
1.57749992E+02
 11
1.44610363E+02
 21
1.57749992E+02
  0
LINE
  8
0
 62
7
 10
1.68750118E+02
 20
1.14100052E+02
 11
1.68750118E+02
 21
1.33610275E+02
  0
LINE
  8
0
 62
7
 10
2.09900051E+02
 20
1.55250046E+02
 11
1.90389751E+02
 21
1.55250046E+02
  0
LINE
  8
0
 62
7
 10
1.21100124E+02
 20
1.13500015E+02
 11
1.21100124E+02
 21
1.99499985E+02
  0
LINE
  8
0
 62
7
 10
1.37500090E+02
 20
1.18613286E+02
 11
1.32500081E+02
 21
1.15726529E+02
  0
LINE
  8
0
 62
7
 10
1.27500088E+02
 20
1.24386787E+02
 11
1.27500088E+02
 21
1.18613281E+02
  0
LINE
  8
0
 62
7
 10
2.07500105E+02
 20
1.88613262E+02
 11
2.02500109E+02
 21
1.85726513E+02
  0
LINE
  8
0
 62
7
 10
2.02500112E+02
 20
1.27273536E+02
 11
1.97500116E+02
 21
1.24386787E+02
  0
LINE
  8
0
 62
7
 10
2.02500106E+02
 20
1.15726540E+02
 11
1.97500109E+02
 21
1.18613289E+02
  0
LINE
  8
0
  6
CENTER
 62
2
 10
1.67500103E+02
 20
2.15976288E+02
 11
1.67500103E+02
 21
9.53659058E+01
  0
LINE
  8
0
 62
7
 10
2.18500088E+02
 20
2.12500000E+02
 11
1.16500034E+02
 21
2.12500000E+02
  0
LINE
  8
0
 62
7
 10
1.11500111E+02
 20
2.07500000E+02
 11
1.11500111E+02
 21
1.05499992E+02
  0
LINE
  8
0
 62
7
 10
1.09000111E+02
 20
1.62499962E+02
 11
1.02500095E+02
 21
1.62499962E+02
  0
LINE
  8
0
 62
7
 10
1.09000111E+02
 20
1.56499977E+02
 11
1.03192844E+02
 21
1.56499977E+02
  0
LINE
  8
0
 62
7
 10
1.09000111E+02
 20
1.50499992E+02
 11
1.02500095E+02
 21
1.50499992E+02
  0
LINE
  8
0
 62
7
 10
2.26000011E+02
 20
1.48499985E+02
 11
2.26000011E+02
 21
1.64500008E+02
  0
LINE
  8
0
 62
7
 10
1.01199667E+02
 20
1.52499416E+02
 11
1.00499719E+02
 21
1.53199364E+02
  0
LINE
  8
0
 62
7
 10
1.01200123E+02
 20
1.52500000E+02
 11
1.01200123E+02
 21
1.60499954E+02
  0
LINE
  8
0
 62
2
 10
1.02500019E+02
 20
1.59799957E+02
 11
1.00500126E+02
 21
1.59799957E+02
  0
LINE
  8
0
 62
2
 10
1.02500019E+02
 20
1.53199959E+02
 11
1.00500126E+02
 21
1.53199959E+02
  0
LINE
  8
0
 62
7
 10
1.02500019E+02
 20
1.60499954E+02
 11
1.01200199E+02
 21
1.60499954E+02
  0
LINE
  8
0
 62
7
 10
1.02500019E+02
 20
1.52499962E+02
 11
1.01200199E+02
 21
1.52499962E+02
  0
LINE
  8
0
 62
7
 10
1.02500019E+02
 20
1.50499992E+02
 11
1.02500019E+02
 21
1.62500000E+02
  0
LINE
  8
0
 62
7
 10
1.00500050E+02
 20
1.53199997E+02
 11
1.00500050E+02
 21
1.59799957E+02
  0
LINE
  8
0
 62
7
 10
1.11500034E+02
 20
1.48499985E+02
 11
1.09000111E+02
 21
1.48499985E+02
  0
LINE
  8
0
 62
7
 10
1.11500034E+02
 20
1.64499969E+02
 11
1.09000111E+02
 21
1.64499969E+02
  0
LINE
  8
0
 62
7
 10
1.09000019E+02
 20
1.48499985E+02
 11
1.09000019E+02
 21
1.64500008E+02
  0
LINE
  8
0
 62
7
 10
2.23500088E+02
 20
2.07500000E+02
 11
2.23500088E+02
 21
1.05499992E+02
  0
LINE
  8
0
 62
7
 10
2.18500088E+02
 20
1.00499992E+02
 11
1.16500034E+02
 21
1.00499992E+02
  0
LINE
  8
0
 62
7
 10
2.34499783E+02
 20
1.59799385E+02
 11
2.33799727E+02
 21
1.60499441E+02
  0
LINE
  8
0
 62
7
 10
2.33800120E+02
 20
1.52499945E+02
 11
2.34500171E+02
 21
1.53199995E+02
  0
LINE
  8
0
 62
7
 10
2.33800228E+02
 20
1.52500000E+02
 11
2.33800228E+02
 21
1.60499954E+02
  0
LINE
  8
0
 62
2
 10
2.32500103E+02
 20
1.59799957E+02
 11
2.34500072E+02
 21
1.59799957E+02
  0
LINE
  8
0
 62
2
 10
2.32500103E+02
 20
1.53199959E+02
 11
2.34500072E+02
 21
1.53199959E+02
  0
LINE
  8
0
 62
7
 10
2.32500103E+02
 20
1.60499954E+02
 11
2.33800152E+02
 21
1.60499954E+02
  0
LINE
  8
0
 62
7
 10
2.32500103E+02
 20
1.52499962E+02
 11
2.33800152E+02
 21
1.52499962E+02
  0
LINE
  8
0
 62
7
 10
2.34500149E+02
 20
1.53199997E+02
 11
2.34500149E+02
 21
1.59799957E+02
  0
LINE
  8
0
  6
CENTER
 62
2
 10
2.38961895E+02
 20
1.56500015E+02
 11
9.66488075E+01
 21
1.56500015E+02
  0
LINE
  8
0
 62
7
 10
2.32500179E+02
 20
1.50499992E+02
 11
2.32500179E+02
 21
1.62500000E+02
  0
LINE
  8
0
 62
7
 10
2.26000088E+02
 20
1.50499992E+02
 11
2.32500103E+02
 21
1.50499992E+02
  0
LINE
  8
0
 62
7
 10
2.26000088E+02
 20
1.56499977E+02
 11
2.31807278E+02
 21
1.56499977E+02
  0
LINE
  8
0
 62
7
 10
2.26000088E+02
 20
1.62499962E+02
 11
2.32500103E+02
 21
1.62499962E+02
  0
LINE
  8
0
 62
7
 10
2.23500088E+02
 20
1.48499985E+02
 11
2.26000088E+02
 21
1.48499985E+02
  0
LINE
  8
0
 62
7
 10
2.23500088E+02
 20
1.64499969E+02
 11
2.26000088E+02
 21
1.64499969E+02
  0
LINE
  8
0
 62
7
 10
1.00500161E+02
 20
1.59800124E+02
 11
1.01200082E+02
 21
1.60500045E+02
  0
LINE
  8
0
  6
PHANTOM
 10
-1.22500000E+02
 20
4.42114332E+02
 11
-1.22500000E+02
 21
2.71489706E+02
  0
LINE
  8
0
 62
7
 10
-1.08000011E+02
 20
3.37000000E+02
 11
-1.80999989E+02
 21
3.37000000E+02
  0
LINE
  8
0
 62
7
 10
-1.08000011E+02
 20
3.32999969E+02
 11
-1.80999989E+02
 21
3.32999969E+02
  0
LINE
  8
0
 62
7
 10
-1.08000011E+02
 20
3.46000000E+02
 11
-1.80999989E+02
 21
3.46000000E+02
  0
LINE
  8
0
 62
7
 10
-1.66999989E+02
 20
4.07000000E+02
 11
-1.80999989E+02
 21
4.07000000E+02
  0
LINE
  8
0
 62
7
 10
-1.51999989E+02
 20
4.20000031E+02
 11
-1.80999989E+02
 21
4.20000031E+02
  0
LINE
  8
0
 62
7
 10
-1.51999989E+02
 20
4.16000000E+02
 11
-1.80999989E+02
 21
4.16000000E+02
  0
LINE
  8
0
 62
4
 10
-1.66999989E+02
 20
3.94677647E+02
 11
-1.66999989E+02
 21
3.92806480E+02
  0
LINE
  8
0
 62
4
 10
-1.66999989E+02
 20
3.92806480E+02
 11
-1.66999989E+02
 21
3.92579850E+02
  0
LINE
  8
0
 62
4
 10
-1.48419555E+02
 20
3.92806480E+02
 11
-1.41999989E+02
 21
3.92806480E+02
  0
LINE
  8
0
 62
4
 10
-1.41099989E+02
 20
3.94677647E+02
 11
-1.36999989E+02
 21
3.94677647E+02
  0
LINE
  8
0
 62
4
 10
-1.41999989E+02
 20
3.92954456E+02
 11
-1.36999989E+02
 21
3.92954456E+02
  0
LINE
  8
0
 62
4
 10
-1.66999989E+02
 20
3.94677647E+02
 11
-1.56149989E+02
 21
3.94677647E+02
  0
LINE
  8
0
 62
4
 10
-1.66999989E+02
 20
3.92806480E+02
 11
-1.55580422E+02
 21
3.92806480E+02
  0
LINE
  8
0
 62
4
 10
-1.66999989E+02
 20
3.94304907E+02
 11
-1.56149989E+02
 21
3.94304907E+02
  0
LINE
  8
0
 62
4
 10
-1.68499989E+02
 20
3.93937165E+02
 11
-1.66999989E+02
 21
3.92806480E+02
  0
LINE
  8
0
 62
4
 10
-1.68499989E+02
 20
3.94785649E+02
 11
-1.66999989E+02
 21
3.94304907E+02
  0
LINE
  8
0
 62
4
 10
-1.66999989E+02
 20
3.98013642E+02
 11
-1.68499989E+02
 21
3.96885720E+02
  0
LINE
  8
0
 62
4
 10
-1.48851244E+02
 20
3.92579850E+02
 11
-1.36999989E+02
 21
3.92579850E+02
  0
LINE
  8
0
  6
CENTER
 62
6
 10
-1.46999989E+02
 20
3.96887826E+02
 11
-1.41999989E+02
 21
3.96887826E+02
  0
LINE
  8
0
  6
CENTER
 62
6
 10
-1.44499989E+02
 20
3.99387826E+02
 11
-1.44499989E+02
 21
3.94387826E+02
  0
LINE
  8
0
  6
CENTER
 62
6
 10
-1.54499989E+02
 20
3.95576703E+02
 11
-1.49499989E+02
 21
3.95576703E+02
  0
LINE
  8
0
  6
CENTER
 62
6
 10
-1.51999989E+02
 20
3.98076703E+02
 11
-1.51999989E+02
 21
3.93076703E+02
  0
LINE
  8
0
  6
CENTER
 62
6
 10
-1.61999989E+02
 20
3.96887826E+02
 11
-1.56999989E+02
 21
3.96887826E+02
  0
ARC
  8
0
 62
4
 10
-1.44499989E+02
 20
4.00378462E+02
 40
7.36533796E+00
 50
2.47849417E+02
 51
2.92150583E+02
  0
POLYLINE
  8
0
 62
4
 66
1
  0
VERTEX
  8
0
 62
4
 10
-1.41099989E+02
 20
3.95324914E+02
  0
VERTEX
  8
0
 62
4
 10
-1.40963407E+02
 20
3.95439873E+02
  0
VERTEX
  8
0
 62
4
 10
-1.40854459E+02
 20
3.95558901E+02
  0
VERTEX
  8
0
 62
4
 10
-1.40773997E+02
 20
3.95681069E+02
  0
VERTEX
  8
0
 62
4
 10
-1.40722648E+02
 20
3.95805421E+02
  0
VERTEX
  8
0
 62
4
 10
-1.40700814E+02
 20
3.95930986E+02
  0
VERTEX
  8
0
 62
4
 10
-1.40708665E+02
 20
3.96056782E+02
  0
VERTEX
  8
0
 62
4
 10
-1.40746141E+02
 20
3.96181827E+02
  0
VERTEX
  8
0
 62
4
 10
-1.40812949E+02
 20
3.96305145E+02
  0
VERTEX
  8
0
 62
4
 10
-1.40908566E+02
 20
3.96425770E+02
  0
VERTEX
  8
0
 62
4
 10
-1.41032245E+02
 20
3.96542761E+02
  0
VERTEX
  8
0
 62
4
 10
-1.41183020E+02
 20
3.96655203E+02
  0
VERTEX
  8
0
 62
4
 10
-1.41359713E+02
 20
3.96762218E+02
  0
VERTEX
  8
0
 62
4
 10
-1.41560943E+02
 20
3.96862970E+02
  0
VERTEX
  8
0
 62
4
 10
-1.41785138E+02
 20
3.96956672E+02
  0
VERTEX
  8
0
 62
4
 10
-1.42030546E+02
 20
3.97042591E+02
  0
VERTEX
  8
0
 62
4
 10
-1.42295249E+02
 20
3.97120055E+02
  0
VERTEX
  8
0
 62
4
 10
-1.42577180E+02
 20
3.97188461E+02
  0
VERTEX
  8
0
 62
4
 10
-1.42874135E+02
 20
3.97247272E+02
  0
VERTEX
  8
0
 62
4
 10
-1.43183794E+02
 20
3.97296031E+02
  0
VERTEX
  8
0
 62
4
 10
-1.43503737E+02
 20
3.97334355E+02
  0
VERTEX
  8
0
 62
4
 10
-1.43831464E+02
 20
3.97361945E+02
  0
VERTEX
  8
0
 62
4
 10
-1.44164416E+02
 20
3.97378586E+02
  0
VERTEX
  8
0
 62
4
 10
-1.44499989E+02
 20
3.97384147E+02
  0
VERTEX
  8
0
 62
4
 10
-1.44835562E+02
 20
3.97378586E+02
  0
VERTEX
  8
0
 62
4
 10
-1.45168514E+02
 20
3.97361945E+02
  0
VERTEX
  8
0
 62
4
 10
-1.45496241E+02
 20
3.97334355E+02
  0
VERTEX
  8
0
 62
4
 10
-1.45816184E+02
 20
3.97296031E+02
  0
VERTEX
  8
0
 62
4
 10
-1.46125843E+02
 20
3.97247272E+02
  0
VERTEX
  8
0
 62
4
 10
-1.46422798E+02
 20
3.97188461E+02
  0
VERTEX
  8
0
 62
4
 10
-1.46704729E+02
 20
3.97120055E+02
  0
VERTEX
  8
0
 62
4
 10
-1.46969432E+02
 20
3.97042591E+02
  0
VERTEX
  8
0
 62
4
 10
-1.47214840E+02
 20
3.96956672E+02
  0
VERTEX
  8
0
 62
4
 10
-1.47439035E+02
 20
3.96862970E+02
  0
VERTEX
  8
0
 62
4
 10
-1.47640265E+02
 20
3.96762218E+02
  0
VERTEX
  8
0
 62
4
 10
-1.47816958E+02
 20
3.96655203E+02
  0
VERTEX
  8
0
 62
4
 10
-1.47967733E+02
 20
3.96542761E+02
  0
VERTEX
  8
0
 62
4
 10
-1.48091412E+02
 20
3.96425770E+02
  0
VERTEX
  8
0
 62
4
 10
-1.48187029E+02
 20
3.96305145E+02
  0
VERTEX
  8
0
 62
4
 10
-1.48253837E+02
 20
3.96181827E+02
  0
VERTEX
  8
0
 62
4
 10
-1.48291313E+02
 20
3.96056782E+02
  0
VERTEX
  8
0
 62
4
 10
-1.48299164E+02
 20
3.95930986E+02
  0
VERTEX
  8
0
 62
4
 10
-1.48277330E+02
 20
3.95805421E+02
  0
VERTEX
  8
0
 62
4
 10
-1.48225981E+02
 20
3.95681069E+02
  0
VERTEX
  8
0
 62
4
 10
-1.48145519E+02
 20
3.95558901E+02
  0
VERTEX
  8
0
 62
4
 10
-1.48036571E+02
 20
3.95439873E+02
  0
VERTEX
  8
0
 62
4
 10
-1.47899989E+02
 20
3.95324914E+02
  0
SEQEND
  8
0
  0
POLYLINE
  8
0
 62
4
 66
1
  0
VERTEX
  8
0
 62
4
 10
-1.40699989E+02
 20
3.96887826E+02
  0
VERTEX
  8
0
 62
4
 10
-1.40715287E+02
 20
3.97015428E+02
  0
VERTEX
  8
0
 62
4
 10
-1.40761057E+02
 20
3.97142003E+02
  0
VERTEX
  8
0
 62
4
 10
-1.40836930E+02
 20
3.97266531E+02
  0
VERTEX
  8
0
 62
4
 10
-1.40942296E+02
 20
3.97388010E+02
  0
VERTEX
  8
0
 62
4
 10
-1.41076307E+02
 20
3.97505462E+02
  0
VERTEX
  8
0
 62
4
 10
-1.41237884E+02
 20
3.97617941E+02
  0
VERTEX
  8
0
 62
4
 10
-1.41425724E+02
 20
3.97724541E+02
  0
VERTEX
  8
0
 62
4
 10
-1.41638317E+02
 20
3.97824405E+02
  0
VERTEX
  8
0
 62
4
 10
-1.41873951E+02
 20
3.97916728E+02
  0
VERTEX
  8
0
 62
4
 10
-1.42130728E+02
 20
3.98000767E+02
  0
VERTEX
  8
0
 62
4
 10
-1.42406580E+02
 20
3.98075845E+02
  0
VERTEX
  8
0
 62
4
 10
-1.42699288E+02
 20
3.98141358E+02
  0
VERTEX
  8
0
 62
4
 10
-1.43006494E+02
 20
3.98196778E+02
  0
VERTEX
  8
0
 62
4
 10
-1.43325724E+02
 20
3.98241660E+02
  0
VERTEX
  8
0
 62
4
 10
-1.43654409E+02
 20
3.98275641E+02
  0
VERTEX
  8
0
 62
4
 10
-1.43989903E+02
 20
3.98298448E+02
  0
VERTEX
  8
0
 62
4
 10
-1.44329503E+02
 20
3.98309898E+02
  0
VERTEX
  8
0
 62
4
 10
-1.44670475E+02
 20
3.98309898E+02
  0
VERTEX
  8
0
 62
4
 10
-1.45010075E+02
 20
3.98298448E+02
  0
VERTEX
  8
0
 62
4
 10
-1.45345569E+02
 20
3.98275641E+02
  0
VERTEX
  8
0
 62
4
 10
-1.45674254E+02
 20
3.98241660E+02
  0
VERTEX
  8
0
 62
4
 10
-1.45993484E+02
 20
3.98196778E+02
  0
VERTEX
  8
0
 62
4
 10
-1.46300690E+02
 20
3.98141358E+02
  0
VERTEX
  8
0
 62
4
 10
-1.46593398E+02
 20
3.98075845E+02
  0
VERTEX
  8
0
 62
4
 10
-1.46869250E+02
 20
3.98000767E+02
  0
VERTEX
  8
0
 62
4
 10
-1.47126027E+02
 20
3.97916728E+02
  0
VERTEX
  8
0
 62
4
 10
-1.47361661E+02
 20
3.97824405E+02
  0
VERTEX
  8
0
 62
4
 10
-1.47574254E+02
 20
3.97724541E+02
  0
VERTEX
  8
0
 62
4
 10
-1.47762094E+02
 20
3.97617941E+02
  0
VERTEX
  8
0
 62
4
 10
-1.47923671E+02
 20
3.97505462E+02
  0
VERTEX
  8
0
 62
4
 10
-1.48057681E+02
 20
3.97388010E+02
  0
VERTEX
  8
0
 62
4
 10
-1.48163048E+02
 20
3.97266531E+02
  0
VERTEX
  8
0
 62
4
 10
-1.48238921E+02
 20
3.97142003E+02
  0
VERTEX
  8
0
 62
4
 10
-1.48284691E+02
 20
3.97015428E+02
  0
VERTEX
  8
0
 62
4
 10
-1.48299989E+02
 20
3.96887826E+02
  0
SEQEND
  8
0
  0
LINE
  8
0
 62
4
 10
-1.48299989E+02
 20
3.96887826E+02
 11
-1.48299989E+02
 21
3.95960642E+02
  0
LINE
  8
0
 62
4
 10
-1.40699989E+02
 20
3.96887826E+02
 11
-1.40699989E+02
 21
3.95960642E+02
  0
ARC
  8
0
 62
4
 10
-1.39112603E+02
 20
4.08239667E+02
 40
1.54729926E+01
 50
2.42456077E+02
 51
2.56216834E+02
  0
ARC
  8
0
 62
4
 10
-1.49887373E+02
 20
4.08239665E+02
 40
1.54729912E+01
 50
2.83783165E+02
 51
2.97543924E+02
  0
ARC
  8
0
 62
4
 10
-1.46899989E+02
 20
3.94482911E+02
 40
1.00000000E+00
 50
1.80000000E+02
 51
2.57172490E+02
  0
ARC
  8
0
 62
4
 10
-1.42099988E+02
 20
3.94482911E+02
 40
1.00000000E+00
 50
2.82827510E+02
 51
0.00000000E+00
  0
LINE
  8
0
 62
4
 10
-1.41099989E+02
 20
3.94482911E+02
 11
-1.41099989E+02
 21
3.95960642E+02
  0
POLYLINE
  8
0
 62
4
 66
1
  0
VERTEX
  8
0
 62
4
 10
-1.41099989E+02
 20
3.94912924E+02
  0
VERTEX
  8
0
 62
4
 10
-1.41113676E+02
 20
3.95027094E+02
  0
VERTEX
  8
0
 62
4
 10
-1.41154628E+02
 20
3.95140345E+02
  0
VERTEX
  8
0
 62
4
 10
-1.41222515E+02
 20
3.95251765E+02
  0
VERTEX
  8
0
 62
4
 10
-1.41316790E+02
 20
3.95360457E+02
  0
VERTEX
  8
0
 62
4
 10
-1.41436695E+02
 20
3.95465545E+02
  0
VERTEX
  8
0
 62
4
 10
-1.41581263E+02
 20
3.95566185E+02
  0
VERTEX
  8
0
 62
4
 10
-1.41749331E+02
 20
3.95661564E+02
  0
VERTEX
  8
0
 62
4
 10
-1.41939546E+02
 20
3.95750916E+02
  0
VERTEX
  8
0
 62
4
 10
-1.42150376E+02
 20
3.95833521E+02
  0
VERTEX
  8
0
 62
4
 10
-1.42380124E+02
 20
3.95908713E+02
  0
VERTEX
  8
0
 62
4
 10
-1.42626939E+02
 20
3.95975889E+02
  0
VERTEX
  8
0
 62
4
 10
-1.42888836E+02
 20
3.96034505E+02
  0
VERTEX
  8
0
 62
4
 10
-1.43163704E+02
 20
3.96084092E+02
  0
VERTEX
  8
0
 62
4
 10
-1.43449331E+02
 20
3.96124249E+02
  0
VERTEX
  8
0
 62
4
 10
-1.43743418E+02
 20
3.96154653E+02
  0
VERTEX
  8
0
 62
4
 10
-1.44043596E+02
 20
3.96175059E+02
  0
VERTEX
  8
0
 62
4
 10
-1.44347449E+02
 20
3.96185304E+02
  0
VERTEX
  8
0
 62
4
 10
-1.44652529E+02
 20
3.96185304E+02
  0
VERTEX
  8
0
 62
4
 10
-1.44956382E+02
 20
3.96175059E+02
  0
VERTEX
  8
0
 62
4
 10
-1.45256560E+02
 20
3.96154653E+02
  0
VERTEX
  8
0
 62
4
 10
-1.45550647E+02
 20
3.96124249E+02
  0
VERTEX
  8
0
 62
4
 10
-1.45836274E+02
 20
3.96084092E+02
  0
VERTEX
  8
0
 62
4
 10
-1.46111142E+02
 20
3.96034505E+02
  0
VERTEX
  8
0
 62
4
 10
-1.46373039E+02
 20
3.95975889E+02
  0
VERTEX
  8
0
 62
4
 10
-1.46619854E+02
 20
3.95908713E+02
  0
VERTEX
  8
0
 62
4
 10
-1.46849602E+02
 20
3.95833521E+02
  0
VERTEX
  8
0
 62
4
 10
-1.47060432E+02
 20
3.95750916E+02
  0
VERTEX
  8
0
 62
4
 10
-1.47250647E+02
 20
3.95661564E+02
  0
VERTEX
  8
0
 62
4
 10
-1.47418715E+02
 20
3.95566185E+02
  0
VERTEX
  8
0
 62
4
 10
-1.47563283E+02
 20
3.95465545E+02
  0
VERTEX
  8
0
 62
4
 10
-1.47683188E+02
 20
3.95360457E+02
  0
VERTEX
  8
0
 62
4
 10
-1.47777463E+02
 20
3.95251765E+02
  0
VERTEX
  8
0
 62
4
 10
-1.47845350E+02
 20
3.95140345E+02
  0
VERTEX
  8
0
 62
4
 10
-1.47886302E+02
 20
3.95027094E+02
  0
VERTEX
  8
0
 62
4
 10
-1.47899989E+02
 20
3.94912924E+02
  0
SEQEND
  8
0
  0
POLYLINE
  8
0
 62
4
 66
1
  0
VERTEX
  8
0
 62
4
 10
-1.41099989E+02
 20
3.95960642E+02
  0
VERTEX
  8
0
 62
4
 10
-1.41113676E+02
 20
3.96074812E+02
  0
VERTEX
  8
0
 62
4
 10
-1.41154628E+02
 20
3.96188063E+02
  0
VERTEX
  8
0
 62
4
 10
-1.41222515E+02
 20
3.96299483E+02
  0
VERTEX
  8
0
 62
4
 10
-1.41316790E+02
 20
3.96408175E+02
  0
VERTEX
  8
0
 62
4
 10
-1.41436695E+02
 20
3.96513263E+02
  0
VERTEX
  8
0
 62
4
 10
-1.41581263E+02
 20
3.96613903E+02
  0
VERTEX
  8
0
 62
4
 10
-1.41749331E+02
 20
3.96709282E+02
  0
VERTEX
  8
0
 62
4
 10
-1.41939546E+02
 20
3.96798634E+02
  0
VERTEX
  8
0
 62
4
 10
-1.42150376E+02
 20
3.96881239E+02
  0
VERTEX
  8
0
 62
4
 10
-1.42380124E+02
 20
3.96956431E+02
  0
VERTEX
  8
0
 62
4
 10
-1.42626939E+02
 20
3.97023607E+02
  0
VERTEX
  8
0
 62
4
 10
-1.42888836E+02
 20
3.97082223E+02
  0
VERTEX
  8
0
 62
4
 10
-1.43163704E+02
 20
3.97131810E+02
  0
VERTEX
  8
0
 62
4
 10
-1.43449331E+02
 20
3.97171967E+02
  0
VERTEX
  8
0
 62
4
 10
-1.43743418E+02
 20
3.97202371E+02
  0
VERTEX
  8
0
 62
4
 10
-1.44043596E+02
 20
3.97222777E+02
  0
VERTEX
  8
0
 62
4
 10
-1.44347449E+02
 20
3.97233022E+02
  0
VERTEX
  8
0
 62
4
 10
-1.44652529E+02
 20
3.97233022E+02
  0
VERTEX
  8
0
 62
4
 10
-1.44956382E+02
 20
3.97222777E+02
  0
VERTEX
  8
0
 62
4
 10
-1.45256560E+02
 20
3.97202371E+02
  0
VERTEX
  8
0
 62
4
 10
-1.45550647E+02
 20
3.97171967E+02
  0
VERTEX
  8
0
 62
4
 10
-1.45836274E+02
 20
3.97131810E+02
  0
VERTEX
  8
0
 62
4
 10
-1.46111142E+02
 20
3.97082223E+02
  0
VERTEX
  8
0
 62
4
 10
-1.46373039E+02
 20
3.97023607E+02
  0
VERTEX
  8
0
 62
4
 10
-1.46619854E+02
 20
3.96956431E+02
  0
VERTEX
  8
0
 62
4
 10
-1.46849602E+02
 20
3.96881239E+02
  0
VERTEX
  8
0
 62
4
 10
-1.47060432E+02
 20
3.96798634E+02
  0
VERTEX
  8
0
 62
4
 10
-1.47250647E+02
 20
3.96709282E+02
  0
VERTEX
  8
0
 62
4
 10
-1.47418715E+02
 20
3.96613903E+02
  0
VERTEX
  8
0
 62
4
 10
-1.47563283E+02
 20
3.96513263E+02
  0
VERTEX
  8
0
 62
4
 10
-1.47683188E+02
 20
3.96408175E+02
  0
VERTEX
  8
0
 62
4
 10
-1.47777463E+02
 20
3.96299483E+02
  0
VERTEX
  8
0
 62
4
 10
-1.47845350E+02
 20
3.96188063E+02
  0
VERTEX
  8
0
 62
4
 10
-1.47886302E+02
 20
3.96074812E+02
  0
VERTEX
  8
0
 62
4
 10
-1.47899989E+02
 20
3.95960642E+02
  0
SEQEND
  8
0
  0
LINE
  8
0
 62
4
 10
-1.47899989E+02
 20
3.95960642E+02
 11
-1.47899989E+02
 21
3.94482911E+02
  0
POLYLINE
  8
0
 62
4
 66
1
  0
VERTEX
  8
0
 62
4
 10
-1.48299989E+02
 20
3.96146056E+02
  0
VERTEX
  8
0
 62
4
 10
-1.48446632E+02
 20
3.96264762E+02
  0
VERTEX
  8
0
 62
4
 10
-1.48620350E+02
 20
3.96378225E+02
  0
VERTEX
  8
0
 62
4
 10
-1.48819821E+02
 20
3.96485580E+02
  0
VERTEX
  8
0
 62
4
 10
-1.49043525E+02
 20
3.96586010E+02
  0
VERTEX
  8
0
 62
4
 10
-1.49289757E+02
 20
3.96678750E+02
  0
VERTEX
  8
0
 62
4
 10
-1.49556640E+02
 20
3.96763091E+02
  0
VERTEX
  8
0
 62
4
 10
-1.49842141E+02
 20
3.96838393E+02
  0
VERTEX
  8
0
 62
4
 10
-1.50144085E+02
 20
3.96904081E+02
  0
VERTEX
  8
0
 62
4
 10
-1.50460170E+02
 20
3.96959654E+02
  0
VERTEX
  8
0
 62
4
 10
-1.50787989E+02
 20
3.97004689E+02
  0
VERTEX
  8
0
 62
4
 10
-1.51125043E+02
 20
3.97038843E+02
  0
VERTEX
  8
0
 62
4
 10
-1.51468764E+02
 20
3.97061856E+02
  0
VERTEX
  8
0
 62
4
 10
-1.51816533E+02
 20
3.97073553E+02
  0
VERTEX
  8
0
 62
4
 10
-1.52165699E+02
 20
3.97073843E+02
  0
VERTEX
  8
0
 62
4
 10
-1.52513604E+02
 20
3.97062725E+02
  0
VERTEX
  8
0
 62
4
 10
-1.52857594E+02
 20
3.97040284E+02
  0
VERTEX
  8
0
 62
4
 10
-1.53195050E+02
 20
3.97006691E+02
  0
VERTEX
  8
0
 62
4
 10
-1.53523399E+02
 20
3.96962202E+02
  0
VERTEX
  8
0
 62
4
 10
-1.53840140E+02
 20
3.96907155E+02
  0
VERTEX
  8
0
 62
4
 10
-1.54142859E+02
 20
3.96841970E+02
  0
VERTEX
  8
0
 62
4
 10
-1.54429250E+02
 20
3.96767144E+02
  0
VERTEX
  8
0
 62
4
 10
-1.54697131E+02
 20
3.96683247E+02
  0
VERTEX
  8
0
 62
4
 10
-1.54944459E+02
 20
3.96590918E+02
  0
VERTEX
  8
0
 62
4
 10
-1.55169351E+02
 20
3.96490862E+02
  0
VERTEX
  8
0
 62
4
 10
-1.55370093E+02
 20
3.96383839E+02
  0
VERTEX
  8
0
 62
4
 10
-1.55545155E+02
 20
3.96270666E+02
  0
VERTEX
  8
0
 62
4
 10
-1.55693203E+02
 20
3.96152205E+02
  0
VERTEX
  8
0
 62
4
 10
-1.55813110E+02
 20
3.96029359E+02
  0
VERTEX
  8
0
 62
4
 10
-1.55903961E+02
 20
3.95903064E+02
  0
VERTEX
  8
0
 62
4
 10
-1.55965064E+02
 20
3.95774282E+02
  0
VERTEX
  8
0
 62
4
 10
-1.55995954E+02
 20
3.95643994E+02
  0
SEQEND
  8
0
  0
ARC
  8
0
 62
4
 10
-1.46383279E+02
 20
4.08012678E+02
 40
1.61228609E+01
 50
2.42741048E+02
 51
2.56188651E+02
  0
ARC
  8
0
 62
4
 10
-1.57616696E+02
 20
4.08012670E+02
 40
1.61228529E+01
 50
2.83811345E+02
 51
2.97258956E+02
  0
POLYLINE
  8
0
 62
4
 66
1
  0
VERTEX
  8
0
 62
4
 10
-1.56149989E+02
 20
3.93592529E+02
  0
VERTEX
  8
0
 62
4
 10
-1.56134197E+02
 20
3.93457035E+02
  0
VERTEX
  8
0
 62
4
 10
-1.56086941E+02
 20
3.93322573E+02
  0
VERTEX
  8
0
 62
4
 10
-1.56008581E+02
 20
3.93190164E+02
  0
VERTEX
  8
0
 62
4
 10
-1.55899713E+02
 20
3.93060819E+02
  0
VERTEX
  8
0
 62
4
 10
-1.55761166E+02
 20
3.92935519E+02
  0
VERTEX
  8
0
 62
4
 10
-1.55593994E+02
 20
3.92815220E+02
  0
VERTEX
  8
0
 62
4
 10
-1.55399470E+02
 20
3.92700837E+02
  0
VERTEX
  8
0
 62
4
 10
-1.55179073E+02
 20
3.92593240E+02
  0
VERTEX
  8
0
 62
4
 10
-1.54934482E+02
 20
3.92493249E+02
  0
VERTEX
  8
0
 62
4
 10
-1.54667558E+02
 20
3.92401623E+02
  0
VERTEX
  8
0
 62
4
 10
-1.54380331E+02
 20
3.92319061E+02
  0
VERTEX
  8
0
 62
4
 10
-1.54074989E+02
 20
3.92246191E+02
  0
VERTEX
  8
0
 62
4
 10
-1.53753855E+02
 20
3.92183567E+02
  0
VERTEX
  8
0
 62
4
 10
-1.53419373E+02
 20
3.92131667E+02
  0
VERTEX
  8
0
 62
4
 10
-1.53074088E+02
 20
3.92090884E+02
  0
VERTEX
  8
0
 62
4
 10
-1.52720629E+02
 20
3.92061530E+02
  0
VERTEX
  8
0
 62
4
 10
-1.52361685E+02
 20
3.92043827E+02
  0
VERTEX
  8
0
 62
4
 10
-1.51999989E+02
 20
3.92037912E+02
  0
VERTEX
  8
0
 62
4
 10
-1.51638293E+02
 20
3.92043827E+02
  0
VERTEX
  8
0
 62
4
 10
-1.51279349E+02
 20
3.92061530E+02
  0
VERTEX
  8
0
 62
4
 10
-1.50925890E+02
 20
3.92090884E+02
  0
VERTEX
  8
0
 62
4
 10
-1.50580605E+02
 20
3.92131667E+02
  0
VERTEX
  8
0
 62
4
 10
-1.50246123E+02
 20
3.92183567E+02
  0
VERTEX
  8
0
 62
4
 10
-1.49924989E+02
 20
3.92246191E+02
  0
VERTEX
  8
0
 62
4
 10
-1.49619647E+02
 20
3.92319061E+02
  0
VERTEX
  8
0
 62
4
 10
-1.49332420E+02
 20
3.92401623E+02
  0
VERTEX
  8
0
 62
4
 10
-1.49065496E+02
 20
3.92493249E+02
  0
VERTEX
  8
0
 62
4
 10
-1.48820905E+02
 20
3.92593240E+02
  0
VERTEX
  8
0
 62
4
 10
-1.48600508E+02
 20
3.92700837E+02
  0
VERTEX
  8
0
 62
4
 10
-1.48405984E+02
 20
3.92815220E+02
  0
VERTEX
  8
0
 62
4
 10
-1.48238812E+02
 20
3.92935519E+02
  0
VERTEX
  8
0
 62
4
 10
-1.48100265E+02
 20
3.93060819E+02
  0
VERTEX
  8
0
 62
4
 10
-1.47991397E+02
 20
3.93190164E+02
  0
VERTEX
  8
0
 62
4
 10
-1.47913037E+02
 20
3.93322573E+02
  0
VERTEX
  8
0
 62
4
 10
-1.47865781E+02
 20
3.93457035E+02
  0
VERTEX
  8
0
 62
4
 10
-1.47849989E+02
 20
3.93592529E+02
  0
VERTEX
  8
0
 62
4
 10
-1.47865781E+02
 20
3.93728023E+02
  0
VERTEX
  8
0
 62
4
 10
-1.47913037E+02
 20
3.93862485E+02
  0
VERTEX
  8
0
 62
4
 10
-1.47991397E+02
 20
3.93994894E+02
  0
VERTEX
  8
0
 62
4
 10
-1.48100265E+02
 20
3.94124239E+02
  0
VERTEX
  8
0
 62
4
 10
-1.48238812E+02
 20
3.94249539E+02
  0
VERTEX
  8
0
 62
4
 10
-1.48405984E+02
 20
3.94369838E+02
  0
VERTEX
  8
0
 62
4
 10
-1.48600508E+02
 20
3.94484221E+02
  0
VERTEX
  8
0
 62
4
 10
-1.48820905E+02
 20
3.94591818E+02
  0
VERTEX
  8
0
 62
4
 10
-1.49065496E+02
 20
3.94691809E+02
  0
VERTEX
  8
0
 62
4
 10
-1.49332420E+02
 20
3.94783435E+02
  0
VERTEX
  8
0
 62
4
 10
-1.49619647E+02
 20
3.94865997E+02
  0
VERTEX
  8
0
 62
4
 10
-1.49924989E+02
 20
3.94938867E+02
  0
VERTEX
  8
0
 62
4
 10
-1.50246123E+02
 20
3.95001491E+02
  0
VERTEX
  8
0
 62
4
 10
-1.50580605E+02
 20
3.95053391E+02
  0
VERTEX
  8
0
 62
4
 10
-1.50925890E+02
 20
3.95094174E+02
  0
VERTEX
  8
0
 62
4
 10
-1.51279349E+02
 20
3.95123528E+02
  0
VERTEX
  8
0
 62
4
 10
-1.51638293E+02
 20
3.95141231E+02
  0
VERTEX
  8
0
 62
4
 10
-1.51999989E+02
 20
3.95147146E+02
  0
VERTEX
  8
0
 62
4
 10
-1.52361685E+02
 20
3.95141231E+02
  0
VERTEX
  8
0
 62
4
 10
-1.52720629E+02
 20
3.95123528E+02
  0
VERTEX
  8
0
 62
4
 10
-1.53074088E+02
 20
3.95094174E+02
  0
VERTEX
  8
0
 62
4
 10
-1.53419373E+02
 20
3.95053391E+02
  0
VERTEX
  8
0
 62
4
 10
-1.53753855E+02
 20
3.95001491E+02
  0
VERTEX
  8
0
 62
4
 10
-1.54074989E+02
 20
3.94938867E+02
  0
VERTEX
  8
0
 62
4
 10
-1.54380331E+02
 20
3.94865997E+02
  0
VERTEX
  8
0
 62
4
 10
-1.54667558E+02
 20
3.94783435E+02
  0
VERTEX
  8
0
 62
4
 10
-1.54934482E+02
 20
3.94691809E+02
  0
VERTEX
  8
0
 62
4
 10
-1.55179073E+02
 20
3.94591818E+02
  0
VERTEX
  8
0
 62
4
 10
-1.55399470E+02
 20
3.94484221E+02
  0
VERTEX
  8
0
 62
4
 10
-1.55593994E+02
 20
3.94369838E+02
  0
VERTEX
  8
0
 62
4
 10
-1.55761166E+02
 20
3.94249539E+02
  0
VERTEX
  8
0
 62
4
 10
-1.55899713E+02
 20
3.94124239E+02
  0
VERTEX
  8
0
 62
4
 10
-1.56008581E+02
 20
3.93994894E+02
  0
VERTEX
  8
0
 62
4
 10
-1.56086941E+02
 20
3.93862485E+02
  0
VERTEX
  8
0
 62
4
 10
-1.56134197E+02
 20
3.93728023E+02
  0
VERTEX
  8
0
 62
4
 10
-1.56149989E+02
 20
3.93592529E+02
  0
SEQEND
  8
0
  0
POLYLINE
  8
0
 62
4
 66
1
  0
VERTEX
  8
0
 62
4
 10
-1.48298971E+02
 20
3.95927693E+02
  0
VERTEX
  8
0
 62
4
 10
-1.48480651E+02
 20
3.96048232E+02
  0
VERTEX
  8
0
 62
4
 10
-1.48690234E+02
 20
3.96162239E+02
  0
VERTEX
  8
0
 62
4
 10
-1.48926059E+02
 20
3.96268810E+02
  0
VERTEX
  8
0
 62
4
 10
-1.49186254E+02
 20
3.96367101E+02
  0
VERTEX
  8
0
 62
4
 10
-1.49468758E+02
 20
3.96456332E+02
  0
VERTEX
  8
0
 62
4
 10
-1.49771330E+02
 20
3.96535795E+02
  0
VERTEX
  8
0
 62
4
 10
-1.50091573E+02
 20
3.96604860E+02
  0
VERTEX
  8
0
 62
4
 10
-1.50426946E+02
 20
3.96662981E+02
  0
VERTEX
  8
0
 62
4
 10
-1.50774790E+02
 20
3.96709696E+02
  0
VERTEX
  8
0
 62
4
 10
-1.51132349E+02
 20
3.96744634E+02
  0
VERTEX
  8
0
 62
4
 10
-1.51496786E+02
 20
3.96767520E+02
  0
VERTEX
  8
0
 62
4
 10
-1.51865213E+02
 20
3.96778170E+02
  0
VERTEX
  8
0
 62
4
 10
-1.52234709E+02
 20
3.96776502E+02
  0
VERTEX
  8
0
 62
4
 10
-1.52602344E+02
 20
3.96762527E+02
  0
VERTEX
  8
0
 62
4
 10
-1.52965203E+02
 20
3.96736358E+02
  0
VERTEX
  8
0
 62
4
 10
-1.53320409E+02
 20
3.96698201E+02
  0
VERTEX
  8
0
 62
4
 10
-1.53665147E+02
 20
3.96648359E+02
  0
VERTEX
  8
0
 62
4
 10
-1.53996682E+02
 20
3.96587226E+02
  0
VERTEX
  8
0
 62
4
 10
-1.54312387E+02
 20
3.96515289E+02
  0
VERTEX
  8
0
 62
4
 10
-1.54609758E+02
 20
3.96433117E+02
  0
VERTEX
  8
0
 62
4
 10
-1.54886438E+02
 20
3.96341361E+02
  0
VERTEX
  8
0
 62
4
 10
-1.55140234E+02
 20
3.96240749E+02
  0
VERTEX
  8
0
 62
4
 10
-1.55369132E+02
 20
3.96132080E+02
  0
VERTEX
  8
0
 62
4
 10
-1.55571318E+02
 20
3.96016213E+02
  0
VERTEX
  8
0
 62
4
 10
-1.55745189E+02
 20
3.95894068E+02
  0
VERTEX
  8
0
 62
4
 10
-1.55889367E+02
 20
3.95766614E+02
  0
VERTEX
  8
0
 62
4
 10
-1.56002708E+02
 20
3.95634861E+02
  0
VERTEX
  8
0
 62
4
 10
-1.56084314E+02
 20
3.95499853E+02
  0
VERTEX
  8
0
 62
4
 10
-1.56133538E+02
 20
3.95362661E+02
  0
VERTEX
  8
0
 62
4
 10
-1.56149989E+02
 20
3.95224373E+02
  0
SEQEND
  8
0
  0
LINE
  8
0
 62
4
 10
-1.56149989E+02
 20
3.95224373E+02
 11
-1.56149989E+02
 21
3.93592529E+02
  0
LINE
  8
0
 62
4
 10
-1.47849989E+02
 20
3.94170660E+02
 11
-1.47849989E+02
 21
3.93592529E+02
  0
LINE
  8
0
 62
4
 10
-1.42499989E+02
 20
4.22839825E+02
 11
-1.42499989E+02
 21
4.21968055E+02
  0
LINE
  8
0
 62
6
 10
-1.41999989E+02
 20
4.23335383E+02
 11
-1.41999989E+02
 21
4.21968055E+02
  0
POLYLINE
  8
0
 62
4
 66
1
  0
VERTEX
  8
0
 62
4
 10
-1.38499989E+02
 20
4.22839825E+02
  0
VERTEX
  8
0
 62
4
 10
-1.38508040E+02
 20
4.22906984E+02
  0
VERTEX
  8
0
 62
4
 10
-1.38532130E+02
 20
4.22973602E+02
  0
VERTEX
  8
0
 62
4
 10
-1.38572063E+02
 20
4.23039143E+02
  0
VERTEX
  8
0
 62
4
 10
-1.38627519E+02
 20
4.23103080E+02
  0
VERTEX
  8
0
 62
4
 10
-1.38698051E+02
 20
4.23164896E+02
  0
VERTEX
  8
0
 62
4
 10
-1.38783091E+02
 20
4.23224096E+02
  0
VERTEX
  8
0
 62
4
 10
-1.38881955E+02
 20
4.23280201E+02
  0
VERTEX
  8
0
 62
4
 10
-1.38993846E+02
 20
4.23332761E+02
  0
VERTEX
  8
0
 62
4
 10
-1.39117864E+02
 20
4.23381352E+02
  0
VERTEX
  8
0
 62
4
 10
-1.39253009E+02
 20
4.23425583E+02
  0
VERTEX
  8
0
 62
4
 10
-1.39398195E+02
 20
4.23465098E+02
  0
VERTEX
  8
0
 62
4
 10
-1.39552252E+02
 20
4.23499579E+02
  0
VERTEX
  8
0
 62
4
 10
-1.39713939E+02
 20
4.23528747E+02
  0
VERTEX
  8
0
 62
4
 10
-1.39881955E+02
 20
4.23552369E+02
  0
VERTEX
  8
0
 62
4
 10
-1.40054947E+02
 20
4.23570254E+02
  0
VERTEX
  8
0
 62
4
 10
-1.40231522E+02
 20
4.23582258E+02
  0
VERTEX
  8
0
 62
4
 10
-1.40410259E+02
 20
4.23588284E+02
  0
VERTEX
  8
0
 62
4
 10
-1.40589719E+02
 20
4.23588284E+02
  0
VERTEX
  8
0
 62
4
 10
-1.40768456E+02
 20
4.23582258E+02
  0
VERTEX
  8
0
 62
4
 10
-1.40945031E+02
 20
4.23570254E+02
  0
VERTEX
  8
0
 62
4
 10
-1.41118023E+02
 20
4.23552369E+02
  0
VERTEX
  8
0
 62
4
 10
-1.41286039E+02
 20
4.23528747E+02
  0
VERTEX
  8
0
 62
4
 10
-1.41447726E+02
 20
4.23499579E+02
  0
VERTEX
  8
0
 62
4
 10
-1.41601783E+02
 20
4.23465098E+02
  0
VERTEX
  8
0
 62
4
 10
-1.41746969E+02
 20
4.23425583E+02
  0
VERTEX
  8
0
 62
4
 10
-1.41882114E+02
 20
4.23381352E+02
  0
VERTEX
  8
0
 62
4
 10
-1.42006132E+02
 20
4.23332761E+02
  0
VERTEX
  8
0
 62
4
 10
-1.42118023E+02
 20
4.23280201E+02
  0
VERTEX
  8
0
 62
4
 10
-1.42216887E+02
 20
4.23224096E+02
  0
VERTEX
  8
0
 62
4
 10
-1.42301927E+02
 20
4.23164896E+02
  0
VERTEX
  8
0
 62
4
 10
-1.42372459E+02
 20
4.23103080E+02
  0
VERTEX
  8
0
 62
4
 10
-1.42427915E+02
 20
4.23039143E+02
  0
VERTEX
  8
0
 62
4
 10
-1.42467848E+02
 20
4.22973602E+02
  0
VERTEX
  8
0
 62
4
 10
-1.42491938E+02
 20
4.22906984E+02
  0
VERTEX
  8
0
 62
4
 10
-1.42499989E+02
 20
4.22839825E+02
  0
SEQEND
  8
0
  0
LINE
  8
0
 62
4
 10
-1.38499989E+02
 20
4.22839825E+02
 11
-1.38499989E+02
 21
4.21968055E+02
  0
LINE
  8
0
 62
6
 10
-1.38999989E+02
 20
4.23335383E+02
 11
-1.38999989E+02
 21
4.21968055E+02
  0
POLYLINE
  8
0
 62
4
 66
1
  0
VERTEX
  8
0
 62
4
 10
-1.46499989E+02
 20
4.22839825E+02
  0
VERTEX
  8
0
 62
4
 10
-1.46508040E+02
 20
4.22906984E+02
  0
VERTEX
  8
0
 62
4
 10
-1.46532130E+02
 20
4.22973602E+02
  0
VERTEX
  8
0
 62
4
 10
-1.46572063E+02
 20
4.23039143E+02
  0
VERTEX
  8
0
 62
4
 10
-1.46627519E+02
 20
4.23103080E+02
  0
VERTEX
  8
0
 62
4
 10
-1.46698051E+02
 20
4.23164896E+02
  0
VERTEX
  8
0
 62
4
 10
-1.46783091E+02
 20
4.23224096E+02
  0
VERTEX
  8
0
 62
4
 10
-1.46881955E+02
 20
4.23280201E+02
  0
VERTEX
  8
0
 62
4
 10
-1.46993846E+02
 20
4.23332761E+02
  0
VERTEX
  8
0
 62
4
 10
-1.47117864E+02
 20
4.23381352E+02
  0
VERTEX
  8
0
 62
4
 10
-1.47253009E+02
 20
4.23425583E+02
  0
VERTEX
  8
0
 62
4
 10
-1.47398195E+02
 20
4.23465098E+02
  0
VERTEX
  8
0
 62
4
 10
-1.47552252E+02
 20
4.23499579E+02
  0
VERTEX
  8
0
 62
4
 10
-1.47713939E+02
 20
4.23528747E+02
  0
VERTEX
  8
0
 62
4
 10
-1.47881955E+02
 20
4.23552369E+02
  0
VERTEX
  8
0
 62
4
 10
-1.48054947E+02
 20
4.23570254E+02
  0
VERTEX
  8
0
 62
4
 10
-1.48231522E+02
 20
4.23582258E+02
  0
VERTEX
  8
0
 62
4
 10
-1.48410259E+02
 20
4.23588284E+02
  0
VERTEX
  8
0
 62
4
 10
-1.48589719E+02
 20
4.23588284E+02
  0
VERTEX
  8
0
 62
4
 10
-1.48768456E+02
 20
4.23582258E+02
  0
VERTEX
  8
0
 62
4
 10
-1.48945031E+02
 20
4.23570254E+02
  0
VERTEX
  8
0
 62
4
 10
-1.49118023E+02
 20
4.23552369E+02
  0
VERTEX
  8
0
 62
4
 10
-1.49286039E+02
 20
4.23528747E+02
  0
VERTEX
  8
0
 62
4
 10
-1.49447726E+02
 20
4.23499579E+02
  0
VERTEX
  8
0
 62
4
 10
-1.49601783E+02
 20
4.23465098E+02
  0
VERTEX
  8
0
 62
4
 10
-1.49746969E+02
 20
4.23425583E+02
  0
VERTEX
  8
0
 62
4
 10
-1.49882114E+02
 20
4.23381352E+02
  0
VERTEX
  8
0
 62
4
 10
-1.50006132E+02
 20
4.23332761E+02
  0
VERTEX
  8
0
 62
4
 10
-1.50118023E+02
 20
4.23280201E+02
  0
VERTEX
  8
0
 62
4
 10
-1.50216887E+02
 20
4.23224096E+02
  0
VERTEX
  8
0
 62
4
 10
-1.50301927E+02
 20
4.23164896E+02
  0
VERTEX
  8
0
 62
4
 10
-1.50372459E+02
 20
4.23103080E+02
  0
VERTEX
  8
0
 62
4
 10
-1.50427915E+02
 20
4.23039143E+02
  0
VERTEX
  8
0
 62
4
 10
-1.50467848E+02
 20
4.22973602E+02
  0
VERTEX
  8
0
 62
4
 10
-1.50491938E+02
 20
4.22906984E+02
  0
VERTEX
  8
0
 62
4
 10
-1.50499989E+02
 20
4.22839825E+02
  0
SEQEND
  8
0
  0
LINE
  8
0
 62
4
 10
-1.66999989E+02
 20
3.92579850E+02
 11
-1.55148733E+02
 21
3.92579850E+02
  0
LINE
  8
0
 62
4
 10
-1.66999989E+02
 20
3.98573555E+02
 11
-1.36999989E+02
 21
3.98573555E+02
  0
LINE
  8
0
 62
4
 10
-1.66999989E+02
 20
4.08123549E+02
 11
-1.36999989E+02
 21
4.08123549E+02
  0
LINE
  8
0
 62
4
 10
-1.51999989E+02
 20
4.14613836E+02
 11
-1.36999989E+02
 21
4.14613836E+02
  0
LINE
  8
0
 62
4
 10
-1.51999989E+02
 20
4.21968055E+02
 11
-1.36999989E+02
 21
4.21968055E+02
  0
LINE
  8
0
 62
4
 10
-1.68499989E+02
 20
3.96885720E+02
 11
-1.68499989E+02
 21
3.93937165E+02
  0
LINE
  8
0
 62
4
 10
-1.43499989E+02
 20
3.92806480E+02
 11
-1.43499989E+02
 21
3.93081325E+02
  0
LINE
  8
0
 62
4
 10
-1.66999989E+02
 20
4.08123549E+02
 11
-1.66999989E+02
 21
3.94677647E+02
  0
LINE
  8
0
 62
4
 10
-1.41999989E+02
 20
3.92806480E+02
 11
-1.41999989E+02
 21
3.93450388E+02
  0
LINE
  8
0
  6
CENTER
 62
6
 10
-1.59499989E+02
 20
3.99387826E+02
 11
-1.59499989E+02
 21
3.94387826E+02
  0
LINE
  8
0
  6
CENTER
 62
6
 10
-1.48499989E+02
 20
4.26765579E+02
 11
-1.48499989E+02
 21
4.16500000E+02
  0
LINE
  8
0
  6
CENTER
 62
6
 10
-1.40499989E+02
 20
4.26765579E+02
 11
-1.40499989E+02
 21
4.16500000E+02
  0
LINE
  8
0
 62
4
 10
-1.36999989E+02
 20
4.21968055E+02
 11
-1.36999989E+02
 21
3.92579850E+02
  0
LINE
  8
0
 62
4
 10
-1.51999989E+02
 20
4.21968055E+02
 11
-1.51999989E+02
 21
4.08123549E+02
  0
LINE
  8
0
 62
4
 10
-1.46499989E+02
 20
4.22839825E+02
 11
-1.46499989E+02
 21
4.21968055E+02
  0
LINE
  8
0
 62
4
 10
-1.50499989E+02
 20
4.22839825E+02
 11
-1.50499989E+02
 21
4.21968055E+02
  0
LINE
  8
0
 62
6
 10
-1.46999989E+02
 20
4.23335383E+02
 11
-1.46999989E+02
 21
4.21968055E+02
  0
LINE
  8
0
 62
6
 10
-1.49999989E+02
 20
4.23335383E+02
 11
-1.49999989E+02
 21
4.21968055E+02
  0
LINE
  8
0
 62
4
 10
-7.80000114E+01
 20
3.58322338E+02
 11
-7.80000114E+01
 21
3.60193504E+02
  0
LINE
  8
0
 62
4
 10
-7.80000114E+01
 20
3.60193504E+02
 11
-7.80000114E+01
 21
3.60420135E+02
  0
LINE
  8
0
 62
4
 10
-9.65804451E+01
 20
3.60193504E+02
 11
-1.03000011E+02
 21
3.60193504E+02
  0
LINE
  8
0
 62
4
 10
-1.03900011E+02
 20
3.58322338E+02
 11
-1.08000011E+02
 21
3.58322338E+02
  0
LINE
  8
0
 62
4
 10
-1.03000011E+02
 20
3.60045528E+02
 11
-1.08000011E+02
 21
3.60045528E+02
  0
LINE
  8
0
 62
4
 10
-7.80000114E+01
 20
3.58322338E+02
 11
-8.88500114E+01
 21
3.58322338E+02
  0
LINE
  8
0
 62
4
 10
-7.80000114E+01
 20
3.60193504E+02
 11
-8.94195778E+01
 21
3.60193504E+02
  0
LINE
  8
0
 62
4
 10
-7.80000114E+01
 20
3.58695078E+02
 11
-8.88500114E+01
 21
3.58695078E+02
  0
LINE
  8
0
 62
4
 10
-7.65000114E+01
 20
3.59062820E+02
 11
-7.80000114E+01
 21
3.60193504E+02
  0
LINE
  8
0
 62
4
 10
-7.65000114E+01
 20
3.58214336E+02
 11
-7.80000114E+01
 21
3.58695078E+02
  0
LINE
  8
0
 62
4
 10
-7.80000114E+01
 20
3.54986343E+02
 11
-7.65000114E+01
 21
3.56114264E+02
  0
LINE
  8
0
 62
4
 10
-9.61487561E+01
 20
3.60420135E+02
 11
-1.08000011E+02
 21
3.60420135E+02
  0
LINE
  8
0
  6
CENTER
 62
6
 10
-9.80000114E+01
 20
3.56112159E+02
 11
-1.03000011E+02
 21
3.56112159E+02
  0
LINE
  8
0
  6
CENTER
 62
6
 10
-1.00500011E+02
 20
3.53612159E+02
 11
-1.00500011E+02
 21
3.58612159E+02
  0
LINE
  8
0
  6
CENTER
 62
6
 10
-9.05000114E+01
 20
3.57423282E+02
 11
-9.55000114E+01
 21
3.57423282E+02
  0
LINE
  8
0
  6
CENTER
 62
6
 10
-9.30000114E+01
 20
3.54923282E+02
 11
-9.30000114E+01
 21
3.59923282E+02
  0
LINE
  8
0
  6
CENTER
 62
6
 10
-8.30000114E+01
 20
3.56112159E+02
 11
-8.80000114E+01
 21
3.56112159E+02
  0
ARC
  8
0
 62
4
 10
-1.00500011E+02
 20
3.52621523E+02
 40
7.36533796E+00
 50
6.78494174E+01
 51
1.12150583E+02
  0
POLYLINE
  8
0
 62
4
 66
1
  0
VERTEX
  8
0
 62
4
 10
-1.03900011E+02
 20
3.57675071E+02
  0
VERTEX
  8
0
 62
4
 10
-1.04036593E+02
 20
3.57560112E+02
  0
VERTEX
  8
0
 62
4
 10
-1.04145541E+02
 20
3.57441084E+02
  0
VERTEX
  8
0
 62
4
 10
-1.04226003E+02
 20
3.57318916E+02
  0
VERTEX
  8
0
 62
4
 10
-1.04277352E+02
 20
3.57194564E+02
  0
VERTEX
  8
0
 62
4
 10
-1.04299186E+02
 20
3.57068999E+02
  0
VERTEX
  8
0
 62
4
 10
-1.04291335E+02
 20
3.56943203E+02
  0
VERTEX
  8
0
 62
4
 10
-1.04253859E+02
 20
3.56818158E+02
  0
VERTEX
  8
0
 62
4
 10
-1.04187051E+02
 20
3.56694840E+02
  0
VERTEX
  8
0
 62
4
 10
-1.04091434E+02
 20
3.56574215E+02
  0
VERTEX
  8
0
 62
4
 10
-1.03967755E+02
 20
3.56457224E+02
  0
VERTEX
  8
0
 62
4
 10
-1.03816980E+02
 20
3.56344782E+02
  0
VERTEX
  8
0
 62
4
 10
-1.03640287E+02
 20
3.56237767E+02
  0
VERTEX
  8
0
 62
4
 10
-1.03439057E+02
 20
3.56137015E+02
  0
VERTEX
  8
0
 62
4
 10
-1.03214862E+02
 20
3.56043313E+02
  0
VERTEX
  8
0
 62
4
 10
-1.02969454E+02
 20
3.55957394E+02
  0
VERTEX
  8
0
 62
4
 10
-1.02704751E+02
 20
3.55879930E+02
  0
VERTEX
  8
0
 62
4
 10
-1.02422820E+02
 20
3.55811524E+02
  0
VERTEX
  8
0
 62
4
 10
-1.02125865E+02
 20
3.55752713E+02
  0
VERTEX
  8
0
 62
4
 10
-1.01816206E+02
 20
3.55703954E+02
  0
VERTEX
  8
0
 62
4
 10
-1.01496263E+02
 20
3.55665630E+02
  0
VERTEX
  8
0
 62
4
 10
-1.01168536E+02
 20
3.55638040E+02
  0
VERTEX
  8
0
 62
4
 10
-1.00835584E+02
 20
3.55621399E+02
  0
VERTEX
  8
0
 62
4
 10
-1.00500011E+02
 20
3.55615838E+02
  0
VERTEX
  8
0
 62
4
 10
-1.00164438E+02
 20
3.55621399E+02
  0
VERTEX
  8
0
 62
4
 10
-9.98314864E+01
 20
3.55638040E+02
  0
VERTEX
  8
0
 62
4
 10
-9.95037587E+01
 20
3.55665630E+02
  0
VERTEX
  8
0
 62
4
 10
-9.91838155E+01
 20
3.55703954E+02
  0
VERTEX
  8
0
 62
4
 10
-9.88741567E+01
 20
3.55752713E+02
  0
VERTEX
  8
0
 62
4
 10
-9.85772018E+01
 20
3.55811524E+02
  0
VERTEX
  8
0
 62
4
 10
-9.82952711E+01
 20
3.55879930E+02
  0
VERTEX
  8
0
 62
4
 10
-9.80305677E+01
 20
3.55957394E+02
  0
VERTEX
  8
0
 62
4
 10
-9.77851597E+01
 20
3.56043313E+02
  0
VERTEX
  8
0
 62
4
 10
-9.75609648E+01
 20
3.56137015E+02
  0
VERTEX
  8
0
 62
4
 10
-9.73597347E+01
 20
3.56237767E+02
  0
VERTEX
  8
0
 62
4
 10
-9.71830418E+01
 20
3.56344782E+02
  0
VERTEX
  8
0
 62
4
 10
-9.70322668E+01
 20
3.56457224E+02
  0
VERTEX
  8
0
 62
4
 10
-9.69085876E+01
 20
3.56574215E+02
  0
VERTEX
  8
0
 62
4
 10
-9.68129708E+01
 20
3.56694840E+02
  0
VERTEX
  8
0
 62
4
 10
-9.67461634E+01
 20
3.56818158E+02
  0
VERTEX
  8
0
 62
4
 10
-9.67086874E+01
 20
3.56943203E+02
  0
VERTEX
  8
0
 62
4
 10
-9.67008358E+01
 20
3.57068999E+02
  0
VERTEX
  8
0
 62
4
 10
-9.67226697E+01
 20
3.57194564E+02
  0
VERTEX
  8
0
 62
4
 10
-9.67740187E+01
 20
3.57318916E+02
  0
VERTEX
  8
0
 62
4
 10
-9.68544815E+01
 20
3.57441084E+02
  0
VERTEX
  8
0
 62
4
 10
-9.69634293E+01
 20
3.57560112E+02
  0
VERTEX
  8
0
 62
4
 10
-9.71000110E+01
 20
3.57675071E+02
  0
SEQEND
  8
0
  0
POLYLINE
  8
0
 62
4
 66
1
  0
VERTEX
  8
0
 62
4
 10
-1.04300011E+02
 20
3.56112159E+02
  0
VERTEX
  8
0
 62
4
 10
-1.04284713E+02
 20
3.55984557E+02
  0
VERTEX
  8
0
 62
4
 10
-1.04238943E+02
 20
3.55857982E+02
  0
VERTEX
  8
0
 62
4
 10
-1.04163070E+02
 20
3.55733454E+02
  0
VERTEX
  8
0
 62
4
 10
-1.04057704E+02
 20
3.55611975E+02
  0
VERTEX
  8
0
 62
4
 10
-1.03923693E+02
 20
3.55494523E+02
  0
VERTEX
  8
0
 62
4
 10
-1.03762116E+02
 20
3.55382044E+02
  0
VERTEX
  8
0
 62
4
 10
-1.03574276E+02
 20
3.55275444E+02
  0
VERTEX
  8
0
 62
4
 10
-1.03361683E+02
 20
3.55175580E+02
  0
VERTEX
  8
0
 62
4
 10
-1.03126049E+02
 20
3.55083257E+02
  0
VERTEX
  8
0
 62
4
 10
-1.02869272E+02
 20
3.54999218E+02
  0
VERTEX
  8
0
 62
4
 10
-1.02593420E+02
 20
3.54924140E+02
  0
VERTEX
  8
0
 62
4
 10
-1.02300712E+02
 20
3.54858627E+02
  0
VERTEX
  8
0
 62
4
 10
-1.01993506E+02
 20
3.54803207E+02
  0
VERTEX
  8
0
 62
4
 10
-1.01674276E+02
 20
3.54758325E+02
  0
VERTEX
  8
0
 62
4
 10
-1.01345591E+02
 20
3.54724344E+02
  0
VERTEX
  8
0
 62
4
 10
-1.01010097E+02
 20
3.54701537E+02
  0
VERTEX
  8
0
 62
4
 10
-1.00670497E+02
 20
3.54690087E+02
  0
VERTEX
  8
0
 62
4
 10
-1.00329525E+02
 20
3.54690087E+02
  0
VERTEX
  8
0
 62
4
 10
-9.99899246E+01
 20
3.54701537E+02
  0
VERTEX
  8
0
 62
4
 10
-9.96544315E+01
 20
3.54724344E+02
  0
VERTEX
  8
0
 62
4
 10
-9.93257464E+01
 20
3.54758325E+02
  0
VERTEX
  8
0
 62
4
 10
-9.90065159E+01
 20
3.54803207E+02
  0
VERTEX
  8
0
 62
4
 10
-9.86993101E+01
 20
3.54858627E+02
  0
VERTEX
  8
0
 62
4
 10
-9.84066025E+01
 20
3.54924140E+02
  0
VERTEX
  8
0
 62
4
 10
-9.81307498E+01
 20
3.54999218E+02
  0
VERTEX
  8
0
 62
4
 10
-9.78739730E+01
 20
3.55083257E+02
  0
VERTEX
  8
0
 62
4
 10
-9.76383394E+01
 20
3.55175580E+02
  0
VERTEX
  8
0
 62
4
 10
-9.74257464E+01
 20
3.55275444E+02
  0
VERTEX
  8
0
 62
4
 10
-9.72379056E+01
 20
3.55382044E+02
  0
VERTEX
  8
0
 62
4
 10
-9.70763293E+01
 20
3.55494523E+02
  0
VERTEX
  8
0
 62
4
 10
-9.69423185E+01
 20
3.55611975E+02
  0
VERTEX
  8
0
 62
4
 10
-9.68369521E+01
 20
3.55733454E+02
  0
VERTEX
  8
0
 62
4
 10
-9.67610786E+01
 20
3.55857982E+02
  0
VERTEX
  8
0
 62
4
 10
-9.67153087E+01
 20
3.55984557E+02
  0
VERTEX
  8
0
 62
4
 10
-9.67000110E+01
 20
3.56112159E+02
  0
SEQEND
  8
0
  0
LINE
  8
0
 62
4
 10
-9.67000114E+01
 20
3.56112159E+02
 11
-9.67000114E+01
 21
3.57039343E+02
  0
LINE
  8
0
 62
4
 10
-1.04300011E+02
 20
3.56112159E+02
 11
-1.04300011E+02
 21
3.57039343E+02
  0
ARC
  8
0
 62
4
 10
-1.05887397E+02
 20
3.44760318E+02
 40
1.54729926E+01
 50
6.24560769E+01
 51
7.62168346E+01
  0
ARC
  8
0
 62
4
 10
-9.51126266E+01
 20
3.44760319E+02
 40
1.54729912E+01
 50
1.03783165E+02
 51
1.17543924E+02
  0
ARC
  8
0
 62
4
 10
-9.81000111E+01
 20
3.58517074E+02
 40
1.00000000E+00
 50
3.60000000E+02
 51
7.71724899E+01
  0
ARC
  8
0
 62
4
 10
-1.02900012E+02
 20
3.58517074E+02
 40
1.00000000E+00
 50
1.02827510E+02
 51
1.80000000E+02
  0
LINE
  8
0
 62
4
 10
-1.03900011E+02
 20
3.58517074E+02
 11
-1.03900011E+02
 21
3.57039343E+02
  0
POLYLINE
  8
0
 62
4
 66
1
  0
VERTEX
  8
0
 62
4
 10
-1.03900011E+02
 20
3.58087061E+02
  0
VERTEX
  8
0
 62
4
 10
-1.03886324E+02
 20
3.57972891E+02
  0
VERTEX
  8
0
 62
4
 10
-1.03845372E+02
 20
3.57859640E+02
  0
VERTEX
  8
0
 62
4
 10
-1.03777485E+02
 20
3.57748220E+02
  0
VERTEX
  8
0
 62
4
 10
-1.03683210E+02
 20
3.57639528E+02
  0
VERTEX
  8
0
 62
4
 10
-1.03563305E+02
 20
3.57534440E+02
  0
VERTEX
  8
0
 62
4
 10
-1.03418737E+02
 20
3.57433800E+02
  0
VERTEX
  8
0
 62
4
 10
-1.03250669E+02
 20
3.57338421E+02
  0
VERTEX
  8
0
 62
4
 10
-1.03060454E+02
 20
3.57249069E+02
  0
VERTEX
  8
0
 62
4
 10
-1.02849624E+02
 20
3.57166464E+02
  0
VERTEX
  8
0
 62
4
 10
-1.02619876E+02
 20
3.57091272E+02
  0
VERTEX
  8
0
 62
4
 10
-1.02373061E+02
 20
3.57024096E+02
  0
VERTEX
  8
0
 62
4
 10
-1.02111164E+02
 20
3.56965480E+02
  0
VERTEX
  8
0
 62
4
 10
-1.01836296E+02
 20
3.56915893E+02
  0
VERTEX
  8
0
 62
4
 10
-1.01550669E+02
 20
3.56875736E+02
  0
VERTEX
  8
0
 62
4
 10
-1.01256582E+02
 20
3.56845332E+02
  0
VERTEX
  8
0
 62
4
 10
-1.00956404E+02
 20
3.56824926E+02
  0
VERTEX
  8
0
 62
4
 10
-1.00652551E+02
 20
3.56814681E+02
  0
VERTEX
  8
0
 62
4
 10
-1.00347471E+02
 20
3.56814681E+02
  0
VERTEX
  8
0
 62
4
 10
-1.00043618E+02
 20
3.56824926E+02
  0
VERTEX
  8
0
 62
4
 10
-9.97434398E+01
 20
3.56845332E+02
  0
VERTEX
  8
0
 62
4
 10
-9.94493532E+01
 20
3.56875736E+02
  0
VERTEX
  8
0
 62
4
 10
-9.91637259E+01
 20
3.56915893E+02
  0
VERTEX
  8
0
 62
4
 10
-9.88888576E+01
 20
3.56965480E+02
  0
VERTEX
  8
0
 62
4
 10
-9.86269613E+01
 20
3.57024096E+02
  0
VERTEX
  8
0
 62
4
 10
-9.83801457E+01
 20
3.57091272E+02
  0
VERTEX
  8
0
 62
4
 10
-9.81503980E+01
 20
3.57166464E+02
  0
VERTEX
  8
0
 62
4
 10
-9.79395680E+01
 20
3.57249069E+02
  0
VERTEX
  8
0
 62
4
 10
-9.77493532E+01
 20
3.57338421E+02
  0
VERTEX
  8
0
 62
4
 10
-9.75812851E+01
 20
3.57433800E+02
  0
VERTEX
  8
0
 62
4
 10
-9.74367169E+01
 20
3.57534440E+02
  0
VERTEX
  8
0
 62
4
 10
-9.73168124E+01
 20
3.57639528E+02
  0
VERTEX
  8
0
 62
4
 10
-9.72225373E+01
 20
3.57748220E+02
  0
VERTEX
  8
0
 62
4
 10
-9.71546504E+01
 20
3.57859640E+02
  0
VERTEX
  8
0
 62
4
 10
-9.71136984E+01
 20
3.57972891E+02
  0
VERTEX
  8
0
 62
4
 10
-9.71000110E+01
 20
3.58087061E+02
  0
SEQEND
  8
0
  0
POLYLINE
  8
0
 62
4
 66
1
  0
VERTEX
  8
0
 62
4
 10
-1.03900011E+02
 20
3.57039343E+02
  0
VERTEX
  8
0
 62
4
 10
-1.03886324E+02
 20
3.56925173E+02
  0
VERTEX
  8
0
 62
4
 10
-1.03845372E+02
 20
3.56811922E+02
  0
VERTEX
  8
0
 62
4
 10
-1.03777485E+02
 20
3.56700502E+02
  0
VERTEX
  8
0
 62
4
 10
-1.03683210E+02
 20
3.56591810E+02
  0
VERTEX
  8
0
 62
4
 10
-1.03563305E+02
 20
3.56486722E+02
  0
VERTEX
  8
0
 62
4
 10
-1.03418737E+02
 20
3.56386082E+02
  0
VERTEX
  8
0
 62
4
 10
-1.03250669E+02
 20
3.56290703E+02
  0
VERTEX
  8
0
 62
4
 10
-1.03060454E+02
 20
3.56201351E+02
  0
VERTEX
  8
0
 62
4
 10
-1.02849624E+02
 20
3.56118746E+02
  0
VERTEX
  8
0
 62
4
 10
-1.02619876E+02
 20
3.56043554E+02
  0
VERTEX
  8
0
 62
4
 10
-1.02373061E+02
 20
3.55976378E+02
  0
VERTEX
  8
0
 62
4
 10
-1.02111164E+02
 20
3.55917762E+02
  0
VERTEX
  8
0
 62
4
 10
-1.01836296E+02
 20
3.55868175E+02
  0
VERTEX
  8
0
 62
4
 10
-1.01550669E+02
 20
3.55828018E+02
  0
VERTEX
  8
0
 62
4
 10
-1.01256582E+02
 20
3.55797614E+02
  0
VERTEX
  8
0
 62
4
 10
-1.00956404E+02
 20
3.55777208E+02
  0
VERTEX
  8
0
 62
4
 10
-1.00652551E+02
 20
3.55766963E+02
  0
VERTEX
  8
0
 62
4
 10
-1.00347471E+02
 20
3.55766963E+02
  0
VERTEX
  8
0
 62
4
 10
-1.00043618E+02
 20
3.55777208E+02
  0
VERTEX
  8
0
 62
4
 10
-9.97434398E+01
 20
3.55797614E+02
  0
VERTEX
  8
0
 62
4
 10
-9.94493532E+01
 20
3.55828018E+02
  0
VERTEX
  8
0
 62
4
 10
-9.91637259E+01
 20
3.55868175E+02
  0
VERTEX
  8
0
 62
4
 10
-9.88888576E+01
 20
3.55917762E+02
  0
VERTEX
  8
0
 62
4
 10
-9.86269613E+01
 20
3.55976378E+02
  0
VERTEX
  8
0
 62
4
 10
-9.83801457E+01
 20
3.56043554E+02
  0
VERTEX
  8
0
 62
4
 10
-9.81503980E+01
 20
3.56118746E+02
  0
VERTEX
  8
0
 62
4
 10
-9.79395680E+01
 20
3.56201351E+02
  0
VERTEX
  8
0
 62
4
 10
-9.77493532E+01
 20
3.56290703E+02
  0
VERTEX
  8
0
 62
4
 10
-9.75812851E+01
 20
3.56386082E+02
  0
VERTEX
  8
0
 62
4
 10
-9.74367169E+01
 20
3.56486722E+02
  0
VERTEX
  8
0
 62
4
 10
-9.73168124E+01
 20
3.56591810E+02
  0
VERTEX
  8
0
 62
4
 10
-9.72225373E+01
 20
3.56700502E+02
  0
VERTEX
  8
0
 62
4
 10
-9.71546504E+01
 20
3.56811922E+02
  0
VERTEX
  8
0
 62
4
 10
-9.71136984E+01
 20
3.56925173E+02
  0
VERTEX
  8
0
 62
4
 10
-9.71000110E+01
 20
3.57039343E+02
  0
SEQEND
  8
0
  0
LINE
  8
0
 62
4
 10
-9.71000114E+01
 20
3.57039343E+02
 11
-9.71000114E+01
 21
3.58517074E+02
  0
POLYLINE
  8
0
 62
4
 66
1
  0
VERTEX
  8
0
 62
4
 10
-9.67000114E+01
 20
3.56853929E+02
  0
VERTEX
  8
0
 62
4
 10
-9.65533688E+01
 20
3.56735223E+02
  0
VERTEX
  8
0
 62
4
 10
-9.63796501E+01
 20
3.56621760E+02
  0
VERTEX
  8
0
 62
4
 10
-9.61801790E+01
 20
3.56514405E+02
  0
VERTEX
  8
0
 62
4
 10
-9.59564754E+01
 20
3.56413975E+02
  0
VERTEX
  8
0
 62
4
 10
-9.57102438E+01
 20
3.56321235E+02
  0
VERTEX
  8
0
 62
4
 10
-9.54433607E+01
 20
3.56236894E+02
  0
VERTEX
  8
0
 62
4
 10
-9.51578595E+01
 20
3.56161592E+02
  0
VERTEX
  8
0
 62
4
 10
-9.48559158E+01
 20
3.56095904E+02
  0
VERTEX
  8
0
 62
4
 10
-9.45398303E+01
 20
3.56040331E+02
  0
VERTEX
  8
0
 62
4
 10
-9.42120116E+01
 20
3.55995296E+02
  0
VERTEX
  8
0
 62
4
 10
-9.38749576E+01
 20
3.55961142E+02
  0
VERTEX
  8
0
 62
4
 10
-9.35312366E+01
 20
3.55938129E+02
  0
VERTEX
  8
0
 62
4
 10
-9.31834677E+01
 20
3.55926432E+02
  0
VERTEX
  8
0
 62
4
 10
-9.28343009E+01
 20
3.55926142E+02
  0
VERTEX
  8
0
 62
4
 10
-9.24863968E+01
 20
3.55937260E+02
  0
VERTEX
  8
0
 62
4
 10
-9.21424064E+01
 20
3.55959701E+02
  0
VERTEX
  8
0
 62
4
 10
-9.18049509E+01
 20
3.55993294E+02
  0
VERTEX
  8
0
 62
4
 10
-9.14766015E+01
 20
3.56037783E+02
  0
VERTEX
  8
0
 62
4
 10
-9.11598604E+01
 20
3.56092830E+02
  0
VERTEX
  8
0
 62
4
 10
-9.08571410E+01
 20
3.56158015E+02
  0
VERTEX
  8
0
 62
4
 10
-9.05707500E+01
 20
3.56232841E+02
  0
VERTEX
  8
0
 62
4
 10
-9.03028696E+01
 20
3.56316738E+02
  0
VERTEX
  8
0
 62
4
 10
-9.00555412E+01
 20
3.56409067E+02
  0
VERTEX
  8
0
 62
4
 10
-8.98306492E+01
 20
3.56509123E+02
  0
VERTEX
  8
0
 62
4
 10
-8.96299074E+01
 20
3.56616146E+02
  0
VERTEX
  8
0
 62
4
 10
-8.94548454E+01
 20
3.56729319E+02
  0
VERTEX
  8
0
 62
4
 10
-8.93067971E+01
 20
3.56847780E+02
  0
VERTEX
  8
0
 62
4
 10
-8.91868907E+01
 20
3.56970626E+02
  0
VERTEX
  8
0
 62
4
 10
-8.90960398E+01
 20
3.57096921E+02
  0
VERTEX
  8
0
 62
4
 10
-8.90349366E+01
 20
3.57225703E+02
  0
VERTEX
  8
0
 62
4
 10
-8.90040468E+01
 20
3.57355991E+02
  0
SEQEND
  8
0
  0
ARC
  8
0
 62
4
 10
-9.86167213E+01
 20
3.44987307E+02
 40
1.61228609E+01
 50
6.27410478E+01
 51
7.61886514E+01
  0
ARC
  8
0
 62
4
 10
-8.73833042E+01
 20
3.44987314E+02
 40
1.61228529E+01
 50
1.03811346E+02
 51
1.17258955E+02
  0
POLYLINE
  8
0
 62
4
 66
1
  0
VERTEX
  8
0
 62
4
 10
-8.88500114E+01
 20
3.59407456E+02
  0
VERTEX
  8
0
 62
4
 10
-8.88658034E+01
 20
3.59542950E+02
  0
VERTEX
  8
0
 62
4
 10
-8.89130592E+01
 20
3.59677412E+02
  0
VERTEX
  8
0
 62
4
 10
-8.89914192E+01
 20
3.59809821E+02
  0
VERTEX
  8
0
 62
4
 10
-8.91002870E+01
 20
3.59939166E+02
  0
VERTEX
  8
0
 62
4
 10
-8.92388341E+01
 20
3.60064466E+02
  0
VERTEX
  8
0
 62
4
 10
-8.94060060E+01
 20
3.60184765E+02
  0
VERTEX
  8
0
 62
4
 10
-8.96005304E+01
 20
3.60299148E+02
  0
VERTEX
  8
0
 62
4
 10
-8.98209270E+01
 20
3.60406745E+02
  0
VERTEX
  8
0
 62
4
 10
-9.00655183E+01
 20
3.60506736E+02
  0
VERTEX
  8
0
 62
4
 10
-9.03324428E+01
 20
3.60598362E+02
  0
VERTEX
  8
0
 62
4
 10
-9.06196692E+01
 20
3.60680924E+02
  0
VERTEX
  8
0
 62
4
 10
-9.09250114E+01
 20
3.60753794E+02
  0
VERTEX
  8
0
 62
4
 10
-9.12461456E+01
 20
3.60816418E+02
  0
VERTEX
  8
0
 62
4
 10
-9.15806278E+01
 20
3.60868318E+02
  0
VERTEX
  8
0
 62
4
 10
-9.19259124E+01
 20
3.60909101E+02
  0
VERTEX
  8
0
 62
4
 10
-9.22793715E+01
 20
3.60938455E+02
  0
VERTEX
  8
0
 62
4
 10
-9.26383151E+01
 20
3.60956158E+02
  0
VERTEX
  8
0
 62
4
 10
-9.30000114E+01
 20
3.60962073E+02
  0
VERTEX
  8
0
 62
4
 10
-9.33617077E+01
 20
3.60956158E+02
  0
VERTEX
  8
0
 62
4
 10
-9.37206513E+01
 20
3.60938455E+02
  0
VERTEX
  8
0
 62
4
 10
-9.40741104E+01
 20
3.60909101E+02
  0
VERTEX
  8
0
 62
4
 10
-9.44193950E+01
 20
3.60868318E+02
  0
VERTEX
  8
0
 62
4
 10
-9.47538772E+01
 20
3.60816418E+02
  0
VERTEX
  8
0
 62
4
 10
-9.50750114E+01
 20
3.60753794E+02
  0
VERTEX
  8
0
 62
4
 10
-9.53803536E+01
 20
3.60680924E+02
  0
VERTEX
  8
0
 62
4
 10
-9.56675800E+01
 20
3.60598362E+02
  0
VERTEX
  8
0
 62
4
 10
-9.59345045E+01
 20
3.60506736E+02
  0
VERTEX
  8
0
 62
4
 10
-9.61790958E+01
 20
3.60406745E+02
  0
VERTEX
  8
0
 62
4
 10
-9.63994924E+01
 20
3.60299148E+02
  0
VERTEX
  8
0
 62
4
 10
-9.65940168E+01
 20
3.60184765E+02
  0
VERTEX
  8
0
 62
4
 10
-9.67611887E+01
 20
3.60064466E+02
  0
VERTEX
  8
0
 62
4
 10
-9.68997358E+01
 20
3.59939166E+02
  0
VERTEX
  8
0
 62
4
 10
-9.70086036E+01
 20
3.59809821E+02
  0
VERTEX
  8
0
 62
4
 10
-9.70869636E+01
 20
3.59677412E+02
  0
VERTEX
  8
0
 62
4
 10
-9.71342194E+01
 20
3.59542950E+02
  0
VERTEX
  8
0
 62
4
 10
-9.71500114E+01
 20
3.59407456E+02
  0
VERTEX
  8
0
 62
4
 10
-9.71342194E+01
 20
3.59271962E+02
  0
VERTEX
  8
0
 62
4
 10
-9.70869636E+01
 20
3.59137500E+02
  0
VERTEX
  8
0
 62
4
 10
-9.70086036E+01
 20
3.59005091E+02
  0
VERTEX
  8
0
 62
4
 10
-9.68997358E+01
 20
3.58875746E+02
  0
VERTEX
  8
0
 62
4
 10
-9.67611887E+01
 20
3.58750446E+02
  0
VERTEX
  8
0
 62
4
 10
-9.65940168E+01
 20
3.58630147E+02
  0
VERTEX
  8
0
 62
4
 10
-9.63994924E+01
 20
3.58515764E+02
  0
VERTEX
  8
0
 62
4
 10
-9.61790958E+01
 20
3.58408167E+02
  0
VERTEX
  8
0
 62
4
 10
-9.59345045E+01
 20
3.58308176E+02
  0
VERTEX
  8
0
 62
4
 10
-9.56675800E+01
 20
3.58216550E+02
  0
VERTEX
  8
0
 62
4
 10
-9.53803536E+01
 20
3.58133988E+02
  0
VERTEX
  8
0
 62
4
 10
-9.50750114E+01
 20
3.58061118E+02
  0
VERTEX
  8
0
 62
4
 10
-9.47538772E+01
 20
3.57998494E+02
  0
VERTEX
  8
0
 62
4
 10
-9.44193950E+01
 20
3.57946594E+02
  0
VERTEX
  8
0
 62
4
 10
-9.40741104E+01
 20
3.57905811E+02
  0
VERTEX
  8
0
 62
4
 10
-9.37206513E+01
 20
3.57876457E+02
  0
VERTEX
  8
0
 62
4
 10
-9.33617077E+01
 20
3.57858754E+02
  0
VERTEX
  8
0
 62
4
 10
-9.30000114E+01
 20
3.57852839E+02
  0
VERTEX
  8
0
 62
4
 10
-9.26383151E+01
 20
3.57858754E+02
  0
VERTEX
  8
0
 62
4
 10
-9.22793715E+01
 20
3.57876457E+02
  0
VERTEX
  8
0
 62
4
 10
-9.19259124E+01
 20
3.57905811E+02
  0
VERTEX
  8
0
 62
4
 10
-9.15806278E+01
 20
3.57946594E+02
  0
VERTEX
  8
0
 62
4
 10
-9.12461456E+01
 20
3.57998494E+02
  0
VERTEX
  8
0
 62
4
 10
-9.09250114E+01
 20
3.58061118E+02
  0
VERTEX
  8
0
 62
4
 10
-9.06196692E+01
 20
3.58133988E+02
  0
VERTEX
  8
0
 62
4
 10
-9.03324428E+01
 20
3.58216550E+02
  0
VERTEX
  8
0
 62
4
 10
-9.00655183E+01
 20
3.58308176E+02
  0
VERTEX
  8
0
 62
4
 10
-8.98209270E+01
 20
3.58408167E+02
  0
VERTEX
  8
0
 62
4
 10
-8.96005304E+01
 20
3.58515764E+02
  0
VERTEX
  8
0
 62
4
 10
-8.94060060E+01
 20
3.58630147E+02
  0
VERTEX
  8
0
 62
4
 10
-8.92388341E+01
 20
3.58750446E+02
  0
VERTEX
  8
0
 62
4
 10
-8.91002870E+01
 20
3.58875746E+02
  0
VERTEX
  8
0
 62
4
 10
-8.89914192E+01
 20
3.59005091E+02
  0
VERTEX
  8
0
 62
4
 10
-8.89130592E+01
 20
3.59137500E+02
  0
VERTEX
  8
0
 62
4
 10
-8.88658034E+01
 20
3.59271962E+02
  0
VERTEX
  8
0
 62
4
 10
-8.88500114E+01
 20
3.59407456E+02
  0
SEQEND
  8
0
  0
POLYLINE
  8
0
 62
4
 66
1
  0
VERTEX
  8
0
 62
4
 10
-9.67010295E+01
 20
3.57072292E+02
  0
VERTEX
  8
0
 62
4
 10
-9.65193491E+01
 20
3.56951753E+02
  0
VERTEX
  8
0
 62
4
 10
-9.63097660E+01
 20
3.56837746E+02
  0
VERTEX
  8
0
 62
4
 10
-9.60739419E+01
 20
3.56731175E+02
  0
VERTEX
  8
0
 62
4
 10
-9.58137464E+01
 20
3.56632884E+02
  0
VERTEX
  8
0
 62
4
 10
-9.55312424E+01
 20
3.56543653E+02
  0
VERTEX
  8
0
 62
4
 10
-9.52286699E+01
 20
3.56464190E+02
  0
VERTEX
  8
0
 62
4
 10
-9.49084277E+01
 20
3.56395125E+02
  0
VERTEX
  8
0
 62
4
 10
-9.45730548E+01
 20
3.56337004E+02
  0
VERTEX
  8
0
 62
4
 10
-9.42252101E+01
 20
3.56290289E+02
  0
VERTEX
  8
0
 62
4
 10
-9.38676516E+01
 20
3.56255351E+02
  0
VERTEX
  8
0
 62
4
 10
-9.35032141E+01
 20
3.56232465E+02
  0
VERTEX
  8
0
 62
4
 10
-9.31347870E+01
 20
3.56221815E+02
  0
VERTEX
  8
0
 62
4
 10
-9.27652914E+01
 20
3.56223483E+02
  0
VERTEX
  8
0
 62
4
 10
-9.23976567E+01
 20
3.56237458E+02
  0
VERTEX
  8
0
 62
4
 10
-9.20347977E+01
 20
3.56263627E+02
  0
VERTEX
  8
0
 62
4
 10
-9.16795913E+01
 20
3.56301784E+02
  0
VERTEX
  8
0
 62
4
 10
-9.13348538E+01
 20
3.56351626E+02
  0
VERTEX
  8
0
 62
4
 10
-9.10033182E+01
 20
3.56412759E+02
  0
VERTEX
  8
0
 62
4
 10
-9.06876133E+01
 20
3.56484696E+02
  0
VERTEX
  8
0
 62
4
 10
-9.03902420E+01
 20
3.56566868E+02
  0
VERTEX
  8
0
 62
4
 10
-9.01135619E+01
 20
3.56658624E+02
  0
VERTEX
  8
0
 62
4
 10
-8.98597668E+01
 20
3.56759236E+02
  0
VERTEX
  8
0
 62
4
 10
-8.96308688E+01
 20
3.56867905E+02
  0
VERTEX
  8
0
 62
4
 10
-8.94286827E+01
 20
3.56983772E+02
  0
VERTEX
  8
0
 62
4
 10
-8.92548116E+01
 20
3.57105917E+02
  0
VERTEX
  8
0
 62
4
 10
-8.91106339E+01
 20
3.57233371E+02
  0
VERTEX
  8
0
 62
4
 10
-8.89972927E+01
 20
3.57365124E+02
  0
VERTEX
  8
0
 62
4
 10
-8.89156867E+01
 20
3.57500132E+02
  0
VERTEX
  8
0
 62
4
 10
-8.88664628E+01
 20
3.57637324E+02
  0
VERTEX
  8
0
 62
4
 10
-8.88500114E+01
 20
3.57775612E+02
  0
SEQEND
  8
0
  0
LINE
  8
0
 62
4
 10
-8.88500114E+01
 20
3.57775612E+02
 11
-8.88500114E+01
 21
3.59407456E+02
  0
LINE
  8
0
 62
4
 10
-9.71500114E+01
 20
3.58829325E+02
 11
-9.71500114E+01
 21
3.59407456E+02
  0
LINE
  8
0
 62
4
 10
-1.02500011E+02
 20
3.30160160E+02
 11
-1.02500011E+02
 21
3.31031930E+02
  0
LINE
  8
0
 62
6
 10
-1.03000011E+02
 20
3.29664602E+02
 11
-1.03000011E+02
 21
3.31031930E+02
  0
POLYLINE
  8
0
 62
4
 66
1
  0
VERTEX
  8
0
 62
4
 10
-1.06500011E+02
 20
3.30160160E+02
  0
VERTEX
  8
0
 62
4
 10
-1.06491960E+02
 20
3.30093001E+02
  0
VERTEX
  8
0
 62
4
 10
-1.06467870E+02
 20
3.30026383E+02
  0
VERTEX
  8
0
 62
4
 10
-1.06427937E+02
 20
3.29960842E+02
  0
VERTEX
  8
0
 62
4
 10
-1.06372481E+02
 20
3.29896905E+02
  0
VERTEX
  8
0
 62
4
 10
-1.06301949E+02
 20
3.29835089E+02
  0
VERTEX
  8
0
 62
4
 10
-1.06216909E+02
 20
3.29775889E+02
  0
VERTEX
  8
0
 62
4
 10
-1.06118045E+02
 20
3.29719784E+02
  0
VERTEX
  8
0
 62
4
 10
-1.06006154E+02
 20
3.29667224E+02
  0
VERTEX
  8
0
 62
4
 10
-1.05882136E+02
 20
3.29618633E+02
  0
VERTEX
  8
0
 62
4
 10
-1.05746991E+02
 20
3.29574402E+02
  0
VERTEX
  8
0
 62
4
 10
-1.05601805E+02
 20
3.29534887E+02
  0
VERTEX
  8
0
 62
4
 10
-1.05447748E+02
 20
3.29500406E+02
  0
VERTEX
  8
0
 62
4
 10
-1.05286061E+02
 20
3.29471238E+02
  0
VERTEX
  8
0
 62
4
 10
-1.05118045E+02
 20
3.29447616E+02
  0
VERTEX
  8
0
 62
4
 10
-1.04945053E+02
 20
3.29429731E+02
  0
VERTEX
  8
0
 62
4
 10
-1.04768478E+02
 20
3.29417727E+02
  0
VERTEX
  8
0
 62
4
 10
-1.04589741E+02
 20
3.29411701E+02
  0
VERTEX
  8
0
 62
4
 10
-1.04410281E+02
 20
3.29411701E+02
  0
VERTEX
  8
0
 62
4
 10
-1.04231544E+02
 20
3.29417727E+02
  0
VERTEX
  8
0
 62
4
 10
-1.04054969E+02
 20
3.29429731E+02
  0
VERTEX
  8
0
 62
4
 10
-1.03881977E+02
 20
3.29447616E+02
  0
VERTEX
  8
0
 62
4
 10
-1.03713961E+02
 20
3.29471238E+02
  0
VERTEX
  8
0
 62
4
 10
-1.03552274E+02
 20
3.29500406E+02
  0
VERTEX
  8
0
 62
4
 10
-1.03398217E+02
 20
3.29534887E+02
  0
VERTEX
  8
0
 62
4
 10
-1.03253031E+02
 20
3.29574402E+02
  0
VERTEX
  8
0
 62
4
 10
-1.03117886E+02
 20
3.29618633E+02
  0
VERTEX
  8
0
 62
4
 10
-1.02993868E+02
 20
3.29667224E+02
  0
VERTEX
  8
0
 62
4
 10
-1.02881977E+02
 20
3.29719784E+02
  0
VERTEX
  8
0
 62
4
 10
-1.02783113E+02
 20
3.29775889E+02
  0
VERTEX
  8
0
 62
4
 10
-1.02698073E+02
 20
3.29835089E+02
  0
VERTEX
  8
0
 62
4
 10
-1.02627541E+02
 20
3.29896905E+02
  0
VERTEX
  8
0
 62
4
 10
-1.02572085E+02
 20
3.29960842E+02
  0
VERTEX
  8
0
 62
4
 10
-1.02532152E+02
 20
3.30026383E+02
  0
VERTEX
  8
0
 62
4
 10
-1.02508062E+02
 20
3.30093001E+02
  0
VERTEX
  8
0
 62
4
 10
-1.02500011E+02
 20
3.30160160E+02
  0
SEQEND
  8
0
  0
LINE
  8
0
 62
4
 10
-1.06500011E+02
 20
3.30160160E+02
 11
-1.06500011E+02
 21
3.31031930E+02
  0
LINE
  8
0
 62
6
 10
-1.06000011E+02
 20
3.29664602E+02
 11
-1.06000011E+02
 21
3.31031930E+02
  0
POLYLINE
  8
0
 62
4
 66
1
  0
VERTEX
  8
0
 62
4
 10
-9.85000115E+01
 20
3.30160160E+02
  0
VERTEX
  8
0
 62
4
 10
-9.84919601E+01
 20
3.30093001E+02
  0
VERTEX
  8
0
 62
4
 10
-9.84678707E+01
 20
3.30026383E+02
  0
VERTEX
  8
0
 62
4
 10
-9.84279372E+01
 20
3.29960842E+02
  0
VERTEX
  8
0
 62
4
 10
-9.83724812E+01
 20
3.29896905E+02
  0
VERTEX
  8
0
 62
4
 10
-9.83019492E+01
 20
3.29835089E+02
  0
VERTEX
  8
0
 62
4
 10
-9.82169091E+01
 20
3.29775889E+02
  0
VERTEX
  8
0
 62
4
 10
-9.81180455E+01
 20
3.29719784E+02
  0
VERTEX
  8
0
 62
4
 10
-9.80061544E+01
 20
3.29667224E+02
  0
VERTEX
  8
0
 62
4
 10
-9.78821368E+01
 20
3.29618633E+02
  0
VERTEX
  8
0
 62
4
 10
-9.77469911E+01
 20
3.29574402E+02
  0
VERTEX
  8
0
 62
4
 10
-9.76018055E+01
 20
3.29534887E+02
  0
VERTEX
  8
0
 62
4
 10
-9.74477488E+01
 20
3.29500406E+02
  0
VERTEX
  8
0
 62
4
 10
-9.72860616E+01
 20
3.29471238E+02
  0
VERTEX
  8
0
 62
4
 10
-9.71180455E+01
 20
3.29447616E+02
  0
VERTEX
  8
0
 62
4
 10
-9.69450534E+01
 20
3.29429731E+02
  0
VERTEX
  8
0
 62
4
 10
-9.67684780E+01
 20
3.29417727E+02
  0
VERTEX
  8
0
 62
4
 10
-9.65897412E+01
 20
3.29411701E+02
  0
VERTEX
  8
0
 62
4
 10
-9.64102819E+01
 20
3.29411701E+02
  0
VERTEX
  8
0
 62
4
 10
-9.62315450E+01
 20
3.29417727E+02
  0
VERTEX
  8
0
 62
4
 10
-9.60549696E+01
 20
3.29429731E+02
  0
VERTEX
  8
0
 62
4
 10
-9.58819775E+01
 20
3.29447616E+02
  0
VERTEX
  8
0
 62
4
 10
-9.57139614E+01
 20
3.29471238E+02
  0
VERTEX
  8
0
 62
4
 10
-9.55522742E+01
 20
3.29500406E+02
  0
VERTEX
  8
0
 62
4
 10
-9.53982175E+01
 20
3.29534887E+02
  0
VERTEX
  8
0
 62
4
 10
-9.52530319E+01
 20
3.29574402E+02
  0
VERTEX
  8
0
 62
4
 10
-9.51178862E+01
 20
3.29618633E+02
  0
VERTEX
  8
0
 62
4
 10
-9.49938686E+01
 20
3.29667224E+02
  0
VERTEX
  8
0
 62
4
 10
-9.48819775E+01
 20
3.29719784E+02
  0
VERTEX
  8
0
 62
4
 10
-9.47831139E+01
 20
3.29775889E+02
  0
VERTEX
  8
0
 62
4
 10
-9.46980738E+01
 20
3.29835089E+02
  0
VERTEX
  8
0
 62
4
 10
-9.46275418E+01
 20
3.29896905E+02
  0
VERTEX
  8
0
 62
4
 10
-9.45720858E+01
 20
3.29960842E+02
  0
VERTEX
  8
0
 62
4
 10
-9.45321523E+01
 20
3.30026383E+02
  0
VERTEX
  8
0
 62
4
 10
-9.45080629E+01
 20
3.30093001E+02
  0
VERTEX
  8
0
 62
4
 10
-9.45000115E+01
 20
3.30160160E+02
  0
SEQEND
  8
0
  0
LINE
  8
0
 62
4
 10
-7.80000114E+01
 20
3.60420135E+02
 11
-8.98512668E+01
 21
3.60420135E+02
  0
LINE
  8
0
 62
4
 10
-7.80000114E+01
 20
3.54426429E+02
 11
-1.08000011E+02
 21
3.54426429E+02
  0
LINE
  8
0
 62
4
 10
-7.80000114E+01
 20
3.44876436E+02
 11
-1.08000011E+02
 21
3.44876436E+02
  0
LINE
  8
0
 62
4
 10
-9.30000114E+01
 20
3.38386149E+02
 11
-1.08000011E+02
 21
3.38386149E+02
  0
LINE
  8
0
 62
4
 10
-9.30000114E+01
 20
3.31031930E+02
 11
-1.08000011E+02
 21
3.31031930E+02
  0
LINE
  8
0
 62
4
 10
-7.65000114E+01
 20
3.56114264E+02
 11
-7.65000114E+01
 21
3.59062820E+02
  0
LINE
  8
0
 62
4
 10
-1.01500011E+02
 20
3.60193504E+02
 11
-1.01500011E+02
 21
3.59918659E+02
  0
LINE
  8
0
 62
4
 10
-7.80000114E+01
 20
3.44876436E+02
 11
-7.80000114E+01
 21
3.58322338E+02
  0
LINE
  8
0
 62
4
 10
-1.03000011E+02
 20
3.60193504E+02
 11
-1.03000011E+02
 21
3.59549596E+02
  0
LINE
  8
0
  6
CENTER
 62
6
 10
-8.55000114E+01
 20
3.53612159E+02
 11
-8.55000114E+01
 21
3.58612159E+02
  0
LINE
  8
0
  6
CENTER
 62
6
 10
-9.65000115E+01
 20
3.26234406E+02
 11
-9.65000115E+01
 21
3.36499985E+02
  0
LINE
  8
0
  6
CENTER
 62
6
 10
-1.04500011E+02
 20
3.26234406E+02
 11
-1.04500011E+02
 21
3.36499985E+02
  0
LINE
  8
0
 62
4
 10
-1.08000011E+02
 20
3.31031930E+02
 11
-1.08000011E+02
 21
3.60420135E+02
  0
LINE
  8
0
 62
4
 10
-9.30000114E+01
 20
3.31031930E+02
 11
-9.30000114E+01
 21
3.44876436E+02
  0
LINE
  8
0
 62
4
 10
-9.85000115E+01
 20
3.30160160E+02
 11
-9.85000115E+01
 21
3.31031930E+02
  0
LINE
  8
0
 62
4
 10
-9.45000115E+01
 20
3.30160160E+02
 11
-9.45000115E+01
 21
3.31031930E+02
  0
LINE
  8
0
 62
6
 10
-9.80000115E+01
 20
3.29664602E+02
 11
-9.80000115E+01
 21
3.31031930E+02
  0
LINE
  8
0
 62
6
 10
-9.50000115E+01
 20
3.29664602E+02
 11
-9.50000115E+01
 21
3.31031930E+02
  0
LINE
  8
0
 62
4
 10
-1.36999989E+02
 20
3.96910061E+02
 11
-1.26133963E+02
 21
3.96910061E+02
  0
LINE
  8
0
  6
CENTER
 62
6
 10
-1.71999989E+02
 20
3.95410061E+02
 11
-1.24999989E+02
 21
3.95410061E+02
  0
LINE
  8
0
 62
4
 10
-1.36999989E+02
 20
3.93910061E+02
 11
-1.27866014E+02
 21
3.93910061E+02
  0
LINE
  8
0
 62
6
 10
-1.28732039E+02
 20
3.92410061E+02
 11
-1.25267938E+02
 21
3.98410061E+02
  0
LINE
  8
0
 62
4
 10
-1.08000011E+02
 20
3.56089924E+02
 11
-1.18866037E+02
 21
3.56089924E+02
  0
LINE
  8
0
  6
CENTER
 62
6
 10
-7.30000115E+01
 20
3.57589924E+02
 11
-1.20000011E+02
 21
3.57589924E+02
  0
LINE
  8
0
 62
4
 10
-1.08000011E+02
 20
3.59089924E+02
 11
-1.17133986E+02
 21
3.59089924E+02
  0
LINE
  8
0
 62
6
 10
-1.16267961E+02
 20
3.60589924E+02
 11
-1.19732062E+02
 21
3.54589924E+02
  0
LINE
  8
0
 62
2
 10
-4.28999943E+02
 20
3.66320038E+02
 11
-4.16999973E+02
 21
3.66320038E+02
  0
LINE
  8
0
 62
7
 10
-4.28999943E+02
 20
3.65500000E+02
 11
-4.16999973E+02
 21
3.65500000E+02
  0
LINE
  8
0
 62
2
 10
-4.28999943E+02
 20
3.86680023E+02
 11
-4.16999973E+02
 21
3.86680023E+02
  0
LINE
  8
0
 62
7
 10
-4.28999943E+02
 20
3.87500031E+02
 11
-4.16999973E+02
 21
3.87500031E+02
  0
LINE
  8
0
 62
4
 10
-4.41999943E+02
 20
3.60500000E+02
 11
-4.28999943E+02
 21
3.60500000E+02
  0
LINE
  8
0
 62
4
 10
-4.41999943E+02
 20
3.92500000E+02
 11
-4.28999943E+02
 21
3.92500000E+02
  0
LINE
  8
0
 62
4
 10
-4.41999943E+02
 20
3.92500000E+02
 11
-4.41999943E+02
 21
3.60500000E+02
  0
LINE
  8
0
 62
4
 10
-4.28999943E+02
 20
3.92500000E+02
 11
-4.28999943E+02
 21
3.60500000E+02
  0
ARC
  8
0
 62
4
 10
-4.18893156E+02
 20
3.84500000E+02
 40
2.31067870E+01
 50
1.59743797E+02
 51
2.00256203E+02
  0
ARC
  8
0
 62
4
 10
-4.18893156E+02
 20
3.68500000E+02
 40
2.31067870E+01
 50
1.59743797E+02
 51
2.00256203E+02
  0
ARC
  8
0
 62
4
 10
-4.52106730E+02
 20
3.84500000E+02
 40
2.31067870E+01
 50
3.39743797E+02
 51
2.02562028E+01
  0
ARC
  8
0
 62
4
 10
-4.52106730E+02
 20
3.68500000E+02
 40
2.31067870E+01
 50
3.39743797E+02
 51
2.02562028E+01
  0
LINE
  8
0
 62
4
 10
-4.40570877E+02
 20
3.76500000E+02
 11
-4.30429008E+02
 21
3.76500000E+02
  0
INSERT
  8
0
  2
PP1
  6
BYBLOCK
 62
0
 10
0.00000000E+00
 20
0.00000000E+00
 41
1.00000000E+00
 42
1.00000000E+00
 50
0.00000000E+00
  0
CIRCLE
  8
0
 62
7
 10
-1.96999973E+02
 20
3.87499969E+02
 40
1.10000000E+01
  0
CIRCLE
  8
0
 62
2
 10
-1.97000004E+02
 20
3.87499969E+02
 40
1.04775009E+01
  0
CIRCLE
  8
0
 62
7
 10
-1.96999973E+02
 20
3.87500031E+02
 40
9.25000000E+00
  0
CIRCLE
  8
0
 62
7
 10
-5.40000267E+01
 20
3.87499969E+02
 40
1.10000000E+01
  0
CIRCLE
  8
0
 62
7
 10
-6.30000229E+01
 20
3.60500000E+02
 40
5.00000000E+00
  0
CIRCLE
  8
0
 62
7
 10
-6.30000229E+01
 20
3.60500000E+02
 40
2.59999990E+00
  0
CIRCLE
  8
0
 62
7
 10
-1.88000004E+02
 20
3.60499939E+02
 40
5.00000000E+00
  0
ARC
  8
0
 62
7
 10
-3.25000343E+01
 20
3.97999939E+02
 40
5.00000000E-01
 50
3.59999973E+02
 51
8.99999549E+01
  0
ARC
  8
0
 62
7
 10
-3.25000343E+01
 20
3.54999939E+02
 40
5.00000000E-01
 50
2.69999991E+02
 51
3.59999945E+02
  0
ARC
  8
0
 62
7
 10
-4.00000343E+01
 20
4.04499939E+02
 40
2.00000000E+00
 50
3.59999973E+02
 51
9.00000094E+01
  0
ARC
  8
0
 62
7
 10
-4.00000343E+01
 20
3.48499939E+02
 40
2.00000000E+00
 50
2.69999991E+02
 51
3.59999945E+02
  0
ARC
  8
0
 62
7
 10
-3.45000267E+01
 20
4.22380249E+02
 40
5.00000000E-01
 50
3.59999973E+02
 51
8.89996800E+01
  0
ARC
  8
0
 62
7
 10
-3.45000496E+01
 20
3.30619690E+02
 40
5.00000000E-01
 50
2.71000272E+02
 51
3.59999959E+02
  0
CIRCLE
  8
0
 62
7
 10
-1.88000004E+02
 20
3.60499939E+02
 40
2.59999990E+00
  0
CIRCLE
  8
0
 62
2
 10
-5.40000038E+01
 20
3.87499969E+02
 40
1.04775009E+01
  0
CIRCLE
  8
0
 62
7
 10
-5.40000267E+01
 20
3.87500031E+02
 40
9.25000000E+00
  0
ARC
  8
0
 62
7
 10
-3.89499943E+02
 20
3.97028320E+02
 40
5.00000000E-01
 50
9.20007356E+01
 51
1.79999951E+02
  0
ARC
  8
0
 62
7
 10
-3.89499943E+02
 20
3.55971771E+02
 40
5.00000000E-01
 50
1.79999977E+02
 51
2.67999192E+02
  0
ARC
  8
0
 62
7
 10
-3.80499943E+02
 20
3.55000031E+02
 40
5.00000000E-01
 50
1.79999977E+02
 51
2.69999974E+02
  0
ARC
  8
0
 62
7
 10
-3.94499943E+02
 20
3.57500061E+02
 40
5.00000000E-01
 50
1.79999977E+02
 51
2.69999974E+02
  0
ARC
  8
0
 62
7
 10
-3.94499943E+02
 20
3.95500031E+02
 40
5.00000000E-01
 50
8.99999818E+01
 51
1.79999951E+02
  0
ARC
  8
0
 62
7
 10
-3.80499943E+02
 20
3.98000061E+02
 40
5.00000000E-01
 50
8.99999818E+01
 51
1.79999951E+02
  0
ARC
  8
0
 62
7
 10
-2.10999989E+02
 20
3.48500061E+02
 40
2.00000000E+00
 50
1.79999977E+02
 51
2.70000028E+02
  0
ARC
  8
0
 62
7
 10
-2.10999989E+02
 20
4.04500031E+02
 40
2.00000000E+00
 50
8.99999818E+01
 51
1.79999951E+02
  0
ARC
  8
0
 62
7
 10
-2.16499973E+02
 20
3.30619720E+02
 40
5.00000000E-01
 50
1.79999977E+02
 51
2.68999679E+02
  0
ARC
  8
0
 62
7
 10
-2.16499973E+02
 20
4.22380280E+02
 40
5.00000000E-01
 50
9.10002493E+01
 51
1.79999951E+02
  0
CIRCLE
  8
0
 62
7
 10
-3.56999973E+02
 20
3.91500000E+02
 40
5.72250080E+00
  0
CIRCLE
  8
0
 62
7
 10
-3.56999973E+02
 20
3.91500000E+02
 40
6.57850027E+00
  0
CIRCLE
  8
0
 62
2
 10
-2.40999973E+02
 20
3.91500061E+02
 40
8.32999992E+00
  0
CIRCLE
  8
0
 62
7
 10
-2.40999973E+02
 20
3.91500061E+02
 40
7.44000006E+00
  0
CIRCLE
  8
0
 62
7
 10
-2.40999973E+02
 20
3.91500061E+02
 40
8.71000004E+00
  0
ARC
  8
0
 62
7
 10
-3.31212406E+02
 20
4.38974823E+02
 40
2.52511263E+00
 50
4.65209375E+01
 51
1.06521820E+02
  0
ARC
  8
0
 62
7
 10
-3.20787418E+02
 20
4.38974823E+02
 40
2.52511263E+00
 50
7.34780821E+01
 51
1.33478944E+02
  0
ARC
  8
0
 62
7
 10
-3.25999882E+02
 20
3.20561127E+02
 40
9.06113625E+00
 50
2.47449035E+02
 51
2.92550946E+02
  0
ARC
  8
0
 62
7
 10
-3.20787418E+02
 20
3.14025116E+02
 40
2.52511263E+00
 50
2.26520987E+02
 51
2.86521856E+02
  0
ARC
  8
0
 62
7
 10
-3.31212406E+02
 20
3.14025116E+02
 40
2.52511263E+00
 50
2.53478125E+02
 51
3.13479008E+02
  0
ARC
  8
0
 62
7
 10
-3.25999882E+02
 20
4.32438812E+02
 40
9.06113625E+00
 50
6.74489921E+01
 51
1.12550903E+02
  0
LINE
  8
0
 62
7
 10
-7.00000114E+01
 20
4.20000031E+02
 11
-1.36999989E+02
 21
4.20000031E+02
  0
LINE
  8
0
 62
7
 10
-7.00000114E+01
 20
4.16000000E+02
 11
-1.36999989E+02
 21
4.16000000E+02
  0
LINE
  8
0
  6
CENTER
 62
2
 10
-3.12208347E+01
 20
4.11500000E+02
 11
-2.19524509E+02
 21
4.11500000E+02
  0
LINE
  8
0
 62
7
 10
-7.00000114E+01
 20
4.07000000E+02
 11
-1.36999989E+02
 21
4.07000000E+02
  0
LINE
  8
0
 62
2
 10
-4.53320011E+02
 20
3.66320038E+02
 11
-4.41999943E+02
 21
3.66320038E+02
  0
LINE
  8
0
 62
7
 10
-4.53999985E+02
 20
3.67000095E+02
 11
-4.52499973E+02
 21
3.65500083E+02
  0
LINE
  8
0
 62
7
 10
-4.52500034E+02
 20
3.65500000E+02
 11
-4.41999943E+02
 21
3.65500000E+02
  0
LINE
  8
0
 62
7
 10
-4.16999973E+02
 20
3.66320038E+02
 11
-4.13999973E+02
 21
3.66320038E+02
  0
LINE
  8
0
 62
7
 10
-4.16999973E+02
 20
3.86680023E+02
 11
-4.13999973E+02
 21
3.86680023E+02
  0
LINE
  8
0
 62
2
 10
-4.53320011E+02
 20
3.86680023E+02
 11
-4.41999943E+02
 21
3.86680023E+02
  0
LINE
  8
0
 62
7
 10
-4.53999950E+02
 20
3.85999913E+02
 11
-4.52499916E+02
 21
3.87499947E+02
  0
LINE
  8
0
 62
7
 10
-4.52500004E+02
 20
3.65500000E+02
 11
-4.52500004E+02
 21
3.87500031E+02
  0
LINE
  8
0
 62
7
 10
-4.52500034E+02
 20
3.87500031E+02
 11
-4.41999943E+02
 21
3.87500031E+02
  0
LINE
  8
0
 62
7
 10
-4.16999973E+02
 20
3.65500000E+02
 11
-4.16999973E+02
 21
3.87500031E+02
  0
LINE
  8
0
 62
7
 10
-4.54000004E+02
 20
3.67000122E+02
 11
-4.54000004E+02
 21
3.85999939E+02
  0
LINE
  8
0
 62
7
 10
-4.13999973E+02
 20
3.65999969E+02
 11
-4.13999973E+02
 21
3.87000000E+02
  0
LINE
  8
0
 62
7
 10
-6.12677614E+01
 20
3.60499913E+02
 11
-6.21338082E+01
 21
3.58999867E+02
  0
LINE
  8
0
 62
7
 10
-6.21339912E+01
 20
3.58999969E+02
 11
-6.38660774E+01
 21
3.58999969E+02
  0
LINE
  8
0
 62
7
 10
-6.38660501E+01
 20
3.58999957E+02
 11
-6.47321045E+01
 21
3.60500016E+02
  0
LINE
  8
0
 62
7
 10
-6.47318187E+01
 20
3.60499767E+02
 11
-6.38657947E+01
 21
3.61999773E+02
  0
LINE
  8
0
 62
7
 10
-6.21339912E+01
 20
3.62000000E+02
 11
-6.38660774E+01
 21
3.62000000E+02
  0
LINE
  8
0
 62
7
 10
-6.12679024E+01
 20
3.60499848E+02
 11
-6.21339263E+01
 21
3.61999854E+02
  0
LINE
  8
0
 62
7
 10
-4.13999973E+02
 20
3.87000000E+02
 11
-3.99000126E+02
 21
3.87000000E+02
  0
LINE
  8
0
 62
7
 10
-4.10999973E+02
 20
3.87000000E+02
 11
-4.10999973E+02
 21
3.66000000E+02
  0
LINE
  8
0
 62
7
 10
-3.96999973E+02
 20
3.63999969E+02
 11
-3.95000004E+02
 21
3.63999969E+02
  0
LINE
  8
0
 62
7
 10
-3.97000126E+02
 20
3.89000000E+02
 11
-3.94999973E+02
 21
3.89000000E+02
  0
LINE
  8
0
  6
CENTER
 62
2
 10
-7.11945992E+01
 20
3.60500000E+02
 11
-5.49255905E+01
 21
3.60500000E+02
  0
LINE
  8
0
  6
CENTER
 62
2
 10
-6.30000229E+01
 20
3.68047791E+02
 11
-6.30000229E+01
 21
3.53434387E+02
  0
LINE
  8
0
 62
7
 10
-7.00000114E+01
 20
3.37000000E+02
 11
-9.30000114E+01
 21
3.37000000E+02
  0
LINE
  8
0
 62
7
 10
-7.00000114E+01
 20
3.46000000E+02
 11
-7.80000114E+01
 21
3.46000000E+02
  0
LINE
  8
0
  6
CENTER
 62
2
 10
-3.12208347E+01
 20
3.41500000E+02
 11
-2.19524509E+02
 21
3.41500000E+02
  0
LINE
  8
0
 62
7
 10
-7.00000114E+01
 20
3.32999969E+02
 11
-9.30000114E+01
 21
3.32999969E+02
  0
LINE
  8
0
 62
7
 10
-3.99000094E+02
 20
3.87000114E+02
 11
-3.97000138E+02
 21
3.89000070E+02
  0
LINE
  8
0
 62
7
 10
-3.99000030E+02
 20
3.66000002E+02
 11
-3.96999984E+02
 21
3.63999957E+02
  0
LINE
  8
0
 62
7
 10
-4.13999973E+02
 20
3.66000000E+02
 11
-3.99000034E+02
 21
3.66000000E+02
  0
LINE
  8
0
 62
7
 10
-1.88865968E+02
 20
3.58999912E+02
 11
-1.89732038E+02
 21
3.60499998E+02
  0
LINE
  8
0
 62
7
 10
-1.87133976E+02
 20
3.58999939E+02
 11
-1.88866062E+02
 21
3.58999939E+02
  0
LINE
  8
0
 62
7
 10
-1.86267768E+02
 20
3.60499850E+02
 11
-1.87133807E+02
 21
3.58999817E+02
  0
LINE
  8
0
  6
CENTER
 62
2
 10
-1.97000004E+02
 20
3.73394135E+02
 11
-1.97000004E+02
 21
4.01323242E+02
  0
LINE
  8
0
  6
CENTER
 62
2
 10
-1.83297672E+02
 20
3.87499939E+02
 11
-2.11094929E+02
 21
3.87499939E+02
  0
LINE
  8
0
  6
CENTER
 62
2
 10
-1.96194584E+02
 20
3.60499939E+02
 11
-1.79925571E+02
 21
3.60499939E+02
  0
LINE
  8
0
 62
7
 10
-3.20000191E+01
 20
3.97999939E+02
 11
-3.20000191E+01
 21
3.54999939E+02
  0
LINE
  8
0
 62
7
 10
-3.25000572E+01
 20
3.54500000E+02
 11
-3.40000572E+01
 21
3.54500000E+02
  0
LINE
  8
0
 62
7
 10
-3.25000572E+01
 20
3.98499969E+02
 11
-3.40000572E+01
 21
3.98499969E+02
  0
LINE
  8
0
 62
7
 10
-4.00000572E+01
 20
4.06499969E+02
 11
-7.00000572E+01
 21
4.06499969E+02
  0
LINE
  8
0
 62
7
 10
-4.00000572E+01
 20
3.46499969E+02
 11
-7.00000572E+01
 21
3.46499969E+02
  0
LINE
  8
0
 62
7
 10
-3.80000191E+01
 20
3.48499939E+02
 11
-3.80000191E+01
 21
4.04499939E+02
  0
LINE
  8
0
  6
CENTER
 62
2
 10
-5.40000267E+01
 20
3.74242981E+02
 11
-5.40000267E+01
 21
4.02501221E+02
  0
LINE
  8
0
  6
CENTER
 62
2
 10
-4.01990929E+01
 20
3.87500000E+02
 11
-6.82116051E+01
 21
3.87500000E+02
  0
LINE
  8
0
 62
7
 10
-3.44913087E+01
 20
4.22880166E+02
 11
-7.00000204E+01
 21
4.23499979E+02
  0
LINE
  8
0
 62
7
 10
-7.00000114E+01
 20
3.29499939E+02
 11
-7.00000114E+01
 21
4.23499939E+02
  0
LINE
  8
0
 62
7
 10
-3.40000114E+01
 20
3.30619690E+02
 11
-3.40000114E+01
 21
4.22380249E+02
  0
LINE
  8
0
 62
7
 10
-3.44913713E+01
 20
3.30119657E+02
 11
-7.00001049E+01
 21
3.29499855E+02
  0
LINE
  8
0
  6
CENTER
 62
2
 10
-1.88000004E+02
 20
3.68047729E+02
 11
-1.88000004E+02
 21
3.53434357E+02
  0
LINE
  8
0
 62
7
 10
-1.89731804E+02
 20
3.60499710E+02
 11
-1.88865788E+02
 21
3.61999703E+02
  0
LINE
  8
0
 62
7
 10
-1.87133976E+02
 20
3.61999939E+02
 11
-1.88866062E+02
 21
3.61999939E+02
  0
LINE
  8
0
 62
7
 10
-1.86267883E+02
 20
3.60499873E+02
 11
-1.87133922E+02
 21
3.61999906E+02
  0
LINE
  8
0
 62
7
 10
-3.80999943E+02
 20
3.55000031E+02
 11
-3.80999943E+02
 21
3.98000000E+02
  0
LINE
  8
0
 62
7
 10
-3.89517434E+02
 20
3.97528138E+02
 11
-3.80999978E+02
 21
3.98000178E+02
  0
LINE
  8
0
 62
7
 10
-3.80499943E+02
 20
3.98499969E+02
 11
-3.78999943E+02
 21
3.98499969E+02
  0
LINE
  8
0
 62
7
 10
-3.89517434E+02
 20
3.55472264E+02
 11
-3.80999977E+02
 21
3.55000224E+02
  0
LINE
  8
0
 62
7
 10
-3.80499943E+02
 20
3.54499939E+02
 11
-3.78999943E+02
 21
3.54499939E+02
  0
LINE
  8
0
 62
7
 10
-3.94499943E+02
 20
3.56999969E+02
 11
-3.89999943E+02
 21
3.56999969E+02
  0
LINE
  8
0
 62
7
 10
-3.94999943E+02
 20
3.95500031E+02
 11
-3.94999943E+02
 21
3.57500031E+02
  0
LINE
  8
0
 62
7
 10
-3.89999943E+02
 20
3.97063232E+02
 11
-3.89999943E+02
 21
3.55971771E+02
  0
LINE
  8
0
 62
7
 10
-3.94499943E+02
 20
3.95999969E+02
 11
-3.89999943E+02
 21
3.95999969E+02
  0
LINE
  8
0
 62
7
 10
-2.10999989E+02
 20
3.46499969E+02
 11
-1.80999989E+02
 21
3.46499969E+02
  0
LINE
  8
0
 62
7
 10
-2.10999989E+02
 20
4.06499969E+02
 11
-1.80999989E+02
 21
4.06499969E+02
  0
LINE
  8
0
 62
7
 10
-2.12999989E+02
 20
4.04500031E+02
 11
-2.12999989E+02
 21
3.48500031E+02
  0
LINE
  8
0
 62
7
 10
-2.16508767E+02
 20
3.30119945E+02
 11
-1.81000046E+02
 21
3.29500138E+02
  0
LINE
  8
0
 62
7
 10
-1.80999989E+02
 20
4.23500000E+02
 11
-1.80999989E+02
 21
3.29500031E+02
  0
LINE
  8
0
 62
7
 10
-2.16508702E+02
 20
4.22880424E+02
 11
-1.80999981E+02
 21
4.23500231E+02
  0
LINE
  8
0
  6
CENTER
 62
2
 10
-3.66059849E+02
 20
3.91500000E+02
 11
-3.47715061E+02
 21
3.91500000E+02
  0
LINE
  8
0
 62
7
 10
-3.53999943E+02
 20
3.93232086E+02
 11
-3.53999943E+02
 21
3.89767944E+02
  0
LINE
  8
0
 62
7
 10
-3.54000763E+02
 20
3.89769411E+02
 11
-3.57000776E+02
 21
3.88037363E+02
  0
LINE
  8
0
 62
7
 10
-3.56999946E+02
 20
3.88036319E+02
 11
-3.59999907E+02
 21
3.89768336E+02
  0
LINE
  8
0
 62
7
 10
-3.59999943E+02
 20
3.89767944E+02
 11
-3.59999943E+02
 21
3.93232086E+02
  0
LINE
  8
0
 62
7
 10
-3.57000826E+02
 20
3.94965703E+02
 11
-3.60000839E+02
 21
3.93233655E+02
  0
LINE
  8
0
 62
7
 10
-3.53999896E+02
 20
3.93232407E+02
 11
-3.56999856E+02
 21
3.94964424E+02
  0
LINE
  8
0
  6
CENTER
 62
2
 10
-3.56999973E+02
 20
4.00778992E+02
 11
-3.56999973E+02
 21
3.82213196E+02
  0
LINE
  8
0
  6
CENTER
 62
2
 10
-2.40999973E+02
 20
3.78243011E+02
 11
-2.40999973E+02
 21
4.06501282E+02
  0
LINE
  8
0
  6
CENTER
 62
2
 10
-2.54800922E+02
 20
3.91500000E+02
 11
-2.26788395E+02
 21
3.91500000E+02
  0
LINE
  8
0
  6
CENTER
 62
2
 10
-4.60301365E+02
 20
3.76500000E+02
 11
-1.91733763E+01
 21
3.76500000E+02
  0
LINE
  8
0
 62
7
 10
-3.43999943E+02
 20
4.30000000E+02
 11
-2.55999958E+02
 21
4.30000000E+02
  0
LINE
  8
0
  6
CENTER
 62
2
 10
-3.86066441E+02
 20
4.18500061E+02
 11
-2.10520222E+02
 21
4.18500061E+02
  0
LINE
  8
0
 62
7
 10
-3.43999943E+02
 20
4.14000000E+02
 11
-2.55999928E+02
 21
4.14000000E+02
  0
LINE
  8
0
 62
7
 10
-3.43999943E+02
 20
4.23000031E+02
 11
-2.55999928E+02
 21
4.23000031E+02
  0
LINE
  8
0
 62
7
 10
-3.43999943E+02
 20
3.30000000E+02
 11
-2.55999928E+02
 21
3.30000000E+02
  0
LINE
  8
0
 62
7
 10
-3.43999943E+02
 20
3.39000000E+02
 11
-2.55999928E+02
 21
3.39000000E+02
  0
LINE
  8
0
  6
CENTER
 62
2
 10
-3.86066441E+02
 20
3.34500000E+02
 11
-2.10520222E+02
 21
3.34500000E+02
  0
LINE
  8
0
 62
7
 10
-2.16999989E+02
 20
3.20500000E+02
 11
-2.16999989E+02
 21
4.32500000E+02
  0
LINE
  8
0
 62
7
 10
-3.78999943E+02
 20
4.32500000E+02
 11
-3.43999943E+02
 21
4.32500000E+02
  0
LINE
  8
0
 62
7
 10
-3.78999943E+02
 20
3.20500000E+02
 11
-3.43999943E+02
 21
3.20500000E+02
  0
LINE
  8
0
 62
7
 10
-3.78999943E+02
 20
4.32500000E+02
 11
-3.78999943E+02
 21
3.20500000E+02
  0
LINE
  8
0
 62
7
 10
-3.43999943E+02
 20
4.32500000E+02
 11
-3.43999943E+02
 21
3.20500000E+02
  0
LINE
  8
0
 62
7
 10
-2.55999928E+02
 20
4.32500000E+02
 11
-2.55999928E+02
 21
3.20500000E+02
  0
LINE
  8
0
 62
7
 10
-2.55999928E+02
 20
4.32500000E+02
 11
-2.16999958E+02
 21
4.32500000E+02
  0
LINE
  8
0
 62
7
 10
-2.55999928E+02
 20
3.20500000E+02
 11
-2.16999958E+02
 21
3.20500000E+02
  0
LINE
  8
0
  6
CENTER
 62
2
 10
-3.25999882E+02
 20
4.28111389E+02
 11
-3.25999882E+02
 21
4.45087616E+02
  0
LINE
  8
0
 62
7
 10
-3.43999943E+02
 20
3.22999939E+02
 11
-2.55999958E+02
 21
3.22999939E+02
  0
LINE
  8
0
  6
CENTER
 62
2
 10
-3.25999882E+02
 20
3.24978241E+02
 11
-3.25999882E+02
 21
3.06412354E+02
  0
LINE
  8
0
 62
7
 10
-3.29474918E+02
 20
4.34999969E+02
 11
-3.29474918E+02
 21
4.40807159E+02
  0
LINE
  8
0
 62
7
 10
-3.22700030E+02
 20
4.43500095E+02
 11
-3.22000109E+02
 21
4.42800175E+02
  0
LINE
  8
0
 62
7
 10
-3.29999621E+02
 20
4.42799635E+02
 11
-3.29299609E+02
 21
4.43499648E+02
  0
LINE
  8
0
 62
7
 10
-3.29999912E+02
 20
4.42799988E+02
 11
-3.21999912E+02
 21
4.42799988E+02
  0
LINE
  8
0
 62
2
 10
-3.22699894E+02
 20
4.41499969E+02
 11
-3.22699894E+02
 21
4.43499939E+02
  0
LINE
  8
0
 62
2
 10
-3.29299931E+02
 20
4.41499969E+02
 11
-3.29299931E+02
 21
4.43499939E+02
  0
LINE
  8
0
 62
7
 10
-3.21999912E+02
 20
4.41499969E+02
 11
-3.21999912E+02
 21
4.42799957E+02
  0
LINE
  8
0
 62
7
 10
-3.29999943E+02
 20
4.41499969E+02
 11
-3.29999943E+02
 21
4.42799957E+02
  0
LINE
  8
0
 62
7
 10
-3.22524876E+02
 20
4.34999969E+02
 11
-3.22524876E+02
 21
4.40807159E+02
  0
LINE
  8
0
 62
7
 10
-3.32949588E+02
 20
4.40806603E+02
 11
-3.31749579E+02
 21
4.41499429E+02
  0
LINE
  8
0
 62
7
 10
-3.20249738E+02
 20
4.41499814E+02
 11
-3.19049730E+02
 21
4.40806989E+02
  0
LINE
  8
0
 62
7
 10
-3.32949894E+02
 20
4.34999969E+02
 11
-3.32949894E+02
 21
4.40807159E+02
  0
LINE
  8
0
 62
7
 10
-3.19049900E+02
 20
4.34999969E+02
 11
-3.19049900E+02
 21
4.40807159E+02
  0
LINE
  8
0
 62
7
 10
-3.31749882E+02
 20
4.41499969E+02
 11
-3.20249882E+02
 21
4.41499969E+02
  0
LINE
  8
0
 62
7
 10
-3.29299900E+02
 20
4.43499969E+02
 11
-3.22699894E+02
 21
4.43499969E+02
  0
LINE
  8
0
 62
7
 10
-3.33999912E+02
 20
4.29999969E+02
 11
-3.33999912E+02
 21
4.34999969E+02
  0
LINE
  8
0
 62
7
 10
-3.17999943E+02
 20
4.29999969E+02
 11
-3.17999943E+02
 21
4.34999969E+02
  0
LINE
  8
0
 62
7
 10
-3.33999882E+02
 20
4.35000000E+02
 11
-3.17999943E+02
 21
4.35000000E+02
  0
LINE
  8
0
 62
7
 10
-3.22699567E+02
 20
3.09499639E+02
 11
-3.21999565E+02
 21
3.10199641E+02
  0
LINE
  8
0
 62
7
 10
-3.30000078E+02
 20
3.10200258E+02
 11
-3.29300050E+02
 21
3.09500230E+02
  0
LINE
  8
0
 62
7
 10
-3.29999912E+02
 20
3.10199951E+02
 11
-3.21999912E+02
 21
3.10199951E+02
  0
LINE
  8
0
 62
2
 10
-3.22699894E+02
 20
3.11499969E+02
 11
-3.22699894E+02
 21
3.09500000E+02
  0
LINE
  8
0
 62
2
 10
-3.29299931E+02
 20
3.11499969E+02
 11
-3.29299931E+02
 21
3.09500000E+02
  0
LINE
  8
0
 62
7
 10
-3.21999912E+02
 20
3.11499969E+02
 11
-3.21999912E+02
 21
3.10200012E+02
  0
LINE
  8
0
 62
7
 10
-3.29999943E+02
 20
3.11499969E+02
 11
-3.29999943E+02
 21
3.10200012E+02
  0
LINE
  8
0
 62
7
 10
-3.22524876E+02
 20
3.18000000E+02
 11
-3.22524876E+02
 21
3.12192841E+02
  0
LINE
  8
0
 62
7
 10
-3.29474918E+02
 20
3.18000000E+02
 11
-3.29474918E+02
 21
3.12192841E+02
  0
LINE
  8
0
 62
7
 10
-3.32950118E+02
 20
3.12192728E+02
 11
-3.31750109E+02
 21
3.11499903E+02
  0
LINE
  8
0
 62
7
 10
-3.20249767E+02
 20
3.11499698E+02
 11
-3.19049758E+02
 21
3.12192523E+02
  0
LINE
  8
0
 62
7
 10
-3.32949894E+02
 20
3.18000000E+02
 11
-3.32949894E+02
 21
3.12192841E+02
  0
LINE
  8
0
 62
7
 10
-3.19049900E+02
 20
3.18000000E+02
 11
-3.19049900E+02
 21
3.12192841E+02
  0
LINE
  8
0
 62
7
 10
-3.31749882E+02
 20
3.11500000E+02
 11
-3.20249882E+02
 21
3.11500000E+02
  0
LINE
  8
0
 62
7
 10
-3.29299900E+02
 20
3.09500000E+02
 11
-3.22699894E+02
 21
3.09500000E+02
  0
LINE
  8
0
 62
7
 10
-3.33999912E+02
 20
3.22999939E+02
 11
-3.33999912E+02
 21
3.18000000E+02
  0
LINE
  8
0
 62
7
 10
-3.17999943E+02
 20
3.22999939E+02
 11
-3.17999943E+02
 21
3.18000000E+02
  0
LINE
  8
0
 62
7
 10
-3.33999882E+02
 20
3.18000000E+02
 11
-3.17999943E+02
 21
3.18000000E+02
  0
LINE
  8
0
  6
CENTER
 62
6
 10
-1.61999897E+02
 20
-4.06472352E+02
 11
-1.61999897E+02
 21
-3.93672352E+02
  0
LINE
  8
0
  6
CENTER
 62
6
 10
-1.68399897E+02
 20
-4.00072352E+02
 11
-1.55599897E+02
 21
-4.00072352E+02
  0
LINE
  8
0
 62
4
 10
-1.71499897E+02
 20
-3.91826712E+02
 11
-1.52499897E+02
 21
-3.91826712E+02
  0
LINE
  8
0
 62
4
 10
-1.73999897E+02
 20
-3.96809998E+02
 11
-1.73999897E+02
 21
-4.08339476E+02
  0
LINE
  8
0
 62
4
 10
-1.71499897E+02
 20
-3.91826712E+02
 11
-1.71499897E+02
 21
-3.95309998E+02
  0
LINE
  8
0
 62
4
 10
-1.54499897E+02
 20
-3.69595552E+02
 11
-1.54499897E+02
 21
-3.91826712E+02
  0
LINE
  8
0
 62
4
 10
-1.69499897E+02
 20
-3.69595552E+02
 11
-1.69499897E+02
 21
-3.91826712E+02
  0
LINE
  8
0
 62
4
 10
-1.52499897E+02
 20
-3.91826712E+02
 11
-1.52499897E+02
 21
-3.95309998E+02
  0
LINE
  8
0
 62
4
 10
-1.34999897E+02
 20
-3.96809998E+02
 11
-1.34999897E+02
 21
-4.08339476E+02
  0
LINE
  8
0
 62
4
 10
-1.70999897E+02
 20
-4.13193689E+02
 11
-1.37999897E+02
 21
-4.13193689E+02
  0
LINE
  8
0
 62
4
 10
-1.73999897E+02
 20
-4.08339476E+02
 11
-1.34999897E+02
 21
-4.08339476E+02
  0
LINE
  8
0
 62
4
 10
-1.73999897E+02
 20
-4.06958719E+02
 11
-1.34999897E+02
 21
-4.06958719E+02
  0
LINE
  8
0
 62
4
 10
-1.72499897E+02
 20
-3.95309998E+02
 11
-1.36499897E+02
 21
-3.95309998E+02
  0
LINE
  8
0
 62
4
 10
-1.88999897E+02
 20
-3.71145279E+02
 11
-1.83999897E+02
 21
-3.71145279E+02
  0
LINE
  8
0
 62
4
 10
-1.78499897E+02
 20
-3.85049090E+02
 11
-1.69999897E+02
 21
-3.85049090E+02
  0
LINE
  8
0
 62
4
 10
-1.88999897E+02
 20
-3.71145279E+02
 11
-1.88999897E+02
 21
-3.84962056E+02
  0
LINE
  8
0
 62
4
 10
-1.83999897E+02
 20
-3.71145279E+02
 11
-1.83999897E+02
 21
-3.84962056E+02
  0
LINE
  8
0
 62
4
 10
-1.83999897E+02
 20
-3.71799090E+02
 11
-1.78999897E+02
 21
-3.71799090E+02
  0
LINE
  8
0
 62
4
 10
-1.83999897E+02
 20
-3.84299090E+02
 11
-1.78999897E+02
 21
-3.84299090E+02
  0
LINE
  8
0
 62
4
 10
-1.82499897E+02
 20
-3.71799090E+02
 11
-1.82499897E+02
 21
-3.84299090E+02
  0
LINE
  8
0
 62
4
 10
-1.82499897E+02
 20
-3.72299090E+02
 11
-1.78999897E+02
 21
-3.72299090E+02
  0
LINE
  8
0
 62
4
 10
-1.82499897E+02
 20
-3.83799090E+02
 11
-1.78999897E+02
 21
-3.83799090E+02
  0
ARC
  8
0
 62
4
 10
-1.69999901E+02
 20
-3.85549095E+02
 40
5.00004272E-01
 50
4.89585868E-04
 51
8.99995103E+01
  0
ARC
  8
0
 62
4
 10
-1.36499900E+02
 20
-3.96810001E+02
 40
1.50000284E+00
 50
1.08554370E-04
 51
8.99998913E+01
  0
ARC
  8
0
 62
4
 10
-1.78499901E+02
 20
-3.84549095E+02
 40
4.99995728E-01
 50
1.79999510E+02
 51
2.70000490E+02
  0
ARC
  8
0
 62
4
 10
-1.72499894E+02
 20
-3.96810001E+02
 40
1.50000284E+00
 50
9.00001085E+01
 51
1.79999892E+02
  0
LINE
  8
0
 62
6
 10
-1.60284960E+02
 20
-4.01787286E+02
 11
-1.63714834E+02
 21
-3.98357417E+02
  0
LINE
  8
0
 62
6
 10
-1.63714832E+02
 20
-4.01787289E+02
 11
-1.60284962E+02
 21
-3.98357414E+02
  0
LINE
  8
0
 62
4
 10
-1.69499897E+02
 20
-3.69595552E+02
 11
-1.54499897E+02
 21
-3.69595552E+02
  0
LINE
  8
0
 62
4
 10
-1.69499897E+02
 20
-3.91687669E+02
 11
-1.54499897E+02
 21
-3.91687669E+02
  0
LINE
  8
0
 62
4
 10
-1.73999897E+02
 20
-4.08339476E+02
 11
-1.70999897E+02
 21
-4.13193689E+02
  0
LINE
  8
0
 62
4
 10
-1.37999897E+02
 20
-4.13193689E+02
 11
-1.34999897E+02
 21
-4.08339476E+02
  0
LINE
  8
0
 62
4
 10
-1.70999897E+02
 20
-4.15230231E+02
 11
-1.70999897E+02
 21
-4.13193689E+02
  0
LINE
  8
0
 62
4
 10
-1.37999897E+02
 20
-4.15230231E+02
 11
-1.37999897E+02
 21
-4.13193689E+02
  0
POLYLINE
  8
0
 62
4
 66
1
  0
VERTEX
  8
0
 62
4
 10
-1.64408491E+02
 20
-3.98300658E+02
  0
VERTEX
  8
0
 62
4
 10
-1.64678527E+02
 20
-3.98505798E+02
  0
VERTEX
  8
0
 62
4
 10
-1.64928040E+02
 20
-3.98731889E+02
  0
VERTEX
  8
0
 62
4
 10
-1.65155120E+02
 20
-3.98977198E+02
  0
VERTEX
  8
0
 62
4
 10
-1.65358025E+02
 20
-3.99239846E+02
  0
VERTEX
  8
0
 62
4
 10
-1.65535203E+02
 20
-3.99517820E+02
  0
VERTEX
  8
0
 62
4
 10
-1.65685294E+02
 20
-3.99808992E+02
  0
VERTEX
  8
0
 62
4
 10
-1.65807150E+02
 20
-4.00111130E+02
  0
VERTEX
  8
0
 62
4
 10
-1.65899837E+02
 20
-4.00421919E+02
  0
VERTEX
  8
0
 62
4
 10
-1.65962644E+02
 20
-4.00738978E+02
  0
VERTEX
  8
0
 62
4
 10
-1.65995091E+02
 20
-4.01059879E+02
  0
VERTEX
  8
0
 62
4
 10
-1.65996928E+02
 20
-4.01382161E+02
  0
VERTEX
  8
0
 62
4
 10
-1.65968142E+02
 20
-4.01703358E+02
  0
VERTEX
  8
0
 62
4
 10
-1.65908953E+02
 20
-4.02021006E+02
  0
VERTEX
  8
0
 62
4
 10
-1.65819816E+02
 20
-4.02332674E+02
  0
VERTEX
  8
0
 62
4
 10
-1.65701411E+02
 20
-4.02635972E+02
  0
VERTEX
  8
0
 62
4
 10
-1.65554648E+02
 20
-4.02928578E+02
  0
VERTEX
  8
0
 62
4
 10
-1.65380650E+02
 20
-4.03208249E+02
  0
VERTEX
  8
0
 62
4
 10
-1.65180750E+02
 20
-4.03472843E+02
  0
VERTEX
  8
0
 62
4
 10
-1.64956480E+02
 20
-4.03720332E+02
  0
VERTEX
  8
0
 62
4
 10
-1.64709558E+02
 20
-4.03948821E+02
  0
VERTEX
  8
0
 62
4
 10
-1.64441876E+02
 20
-4.04156558E+02
  0
VERTEX
  8
0
 62
4
 10
-1.64155485E+02
 20
-4.04341953E+02
  0
VERTEX
  8
0
 62
4
 10
-1.63852578E+02
 20
-4.04503585E+02
  0
VERTEX
  8
0
 62
4
 10
-1.63535478E+02
 20
-4.04640215E+02
  0
VERTEX
  8
0
 62
4
 10
-1.63206612E+02
 20
-4.04750797E+02
  0
VERTEX
  8
0
 62
4
 10
-1.62868502E+02
 20
-4.04834483E+02
  0
VERTEX
  8
0
 62
4
 10
-1.62523736E+02
 20
-4.04890633E+02
  0
VERTEX
  8
0
 62
4
 10
-1.62174957E+02
 20
-4.04918815E+02
  0
VERTEX
  8
0
 62
4
 10
-1.61824837E+02
 20
-4.04918815E+02
  0
VERTEX
  8
0
 62
4
 10
-1.61476058E+02
 20
-4.04890633E+02
  0
VERTEX
  8
0
 62
4
 10
-1.61131292E+02
 20
-4.04834483E+02
  0
VERTEX
  8
0
 62
4
 10
-1.60793182E+02
 20
-4.04750797E+02
  0
VERTEX
  8
0
 62
4
 10
-1.60464316E+02
 20
-4.04640215E+02
  0
VERTEX
  8
0
 62
4
 10
-1.60147216E+02
 20
-4.04503585E+02
  0
VERTEX
  8
0
 62
4
 10
-1.59844309E+02
 20
-4.04341953E+02
  0
VERTEX
  8
0
 62
4
 10
-1.59557918E+02
 20
-4.04156558E+02
  0
VERTEX
  8
0
 62
4
 10
-1.59290236E+02
 20
-4.03948821E+02
  0
VERTEX
  8
0
 62
4
 10
-1.59043314E+02
 20
-4.03720332E+02
  0
VERTEX
  8
0
 62
4
 10
-1.58819044E+02
 20
-4.03472843E+02
  0
VERTEX
  8
0
 62
4
 10
-1.58619144E+02
 20
-4.03208249E+02
  0
VERTEX
  8
0
 62
4
 10
-1.58445146E+02
 20
-4.02928578E+02
  0
VERTEX
  8
0
 62
4
 10
-1.58298383E+02
 20
-4.02635972E+02
  0
VERTEX
  8
0
 62
4
 10
-1.58179978E+02
 20
-4.02332674E+02
  0
VERTEX
  8
0
 62
4
 10
-1.58090841E+02
 20
-4.02021006E+02
  0
VERTEX
  8
0
 62
4
 10
-1.58031652E+02
 20
-4.01703358E+02
  0
VERTEX
  8
0
 62
4
 10
-1.58002866E+02
 20
-4.01382161E+02
  0
VERTEX
  8
0
 62
4
 10
-1.58004703E+02
 20
-4.01059879E+02
  0
VERTEX
  8
0
 62
4
 10
-1.58037150E+02
 20
-4.00738978E+02
  0
VERTEX
  8
0
 62
4
 10
-1.58099957E+02
 20
-4.00421919E+02
  0
VERTEX
  8
0
 62
4
 10
-1.58192644E+02
 20
-4.00111130E+02
  0
VERTEX
  8
0
 62
4
 10
-1.58314500E+02
 20
-3.99808992E+02
  0
VERTEX
  8
0
 62
4
 10
-1.58464591E+02
 20
-3.99517820E+02
  0
VERTEX
  8
0
 62
4
 10
-1.58641769E+02
 20
-3.99239846E+02
  0
VERTEX
  8
0
 62
4
 10
-1.58844674E+02
 20
-3.98977198E+02
  0
VERTEX
  8
0
 62
4
 10
-1.59071754E+02
 20
-3.98731889E+02
  0
VERTEX
  8
0
 62
4
 10
-1.59321267E+02
 20
-3.98505798E+02
  0
VERTEX
  8
0
 62
4
 10
-1.59591303E+02
 20
-3.98300658E+02
  0
SEQEND
  8
0
  0
POLYLINE
  8
0
 62
4
 66
1
  0
VERTEX
  8
0
 62
4
 10
-1.65998489E+02
 20
-4.01338006E+02
  0
VERTEX
  8
0
 62
4
 10
-1.65992160E+02
 20
-4.01664591E+02
  0
VERTEX
  8
0
 62
4
 10
-1.65954413E+02
 20
-4.01989375E+02
  0
VERTEX
  8
0
 62
4
 10
-1.65885545E+02
 20
-4.02309802E+02
  0
VERTEX
  8
0
 62
4
 10
-1.65786098E+02
 20
-4.02623349E+02
  0
VERTEX
  8
0
 62
4
 10
-1.65656855E+02
 20
-4.02927550E+02
  0
VERTEX
  8
0
 62
4
 10
-1.65498832E+02
 20
-4.03220010E+02
  0
VERTEX
  8
0
 62
4
 10
-1.65313274E+02
 20
-4.03498429E+02
  0
VERTEX
  8
0
 62
4
 10
-1.65101641E+02
 20
-4.03760614E+02
  0
VERTEX
  8
0
 62
4
 10
-1.64865598E+02
 20
-4.04004502E+02
  0
VERTEX
  8
0
 62
4
 10
-1.64607002E+02
 20
-4.04228175E+02
  0
VERTEX
  8
0
 62
4
 10
-1.64327889E+02
 20
-4.04429872E+02
  0
VERTEX
  8
0
 62
4
 10
-1.64030456E+02
 20
-4.04608005E+02
  0
VERTEX
  8
0
 62
4
 10
-1.63717043E+02
 20
-4.04761173E+02
  0
VERTEX
  8
0
 62
4
 10
-1.63390116E+02
 20
-4.04888171E+02
  0
VERTEX
  8
0
 62
4
 10
-1.63052249E+02
 20
-4.04987999E+02
  0
VERTEX
  8
0
 62
4
 10
-1.62706100E+02
 20
-4.05059871E+02
  0
VERTEX
  8
0
 62
4
 10
-1.62354393E+02
 20
-4.05103221E+02
  0
VERTEX
  8
0
 62
4
 10
-1.61999897E+02
 20
-4.05117709E+02
  0
VERTEX
  8
0
 62
4
 10
-1.61645401E+02
 20
-4.05103221E+02
  0
VERTEX
  8
0
 62
4
 10
-1.61293694E+02
 20
-4.05059871E+02
  0
VERTEX
  8
0
 62
4
 10
-1.60947545E+02
 20
-4.04987999E+02
  0
VERTEX
  8
0
 62
4
 10
-1.60609678E+02
 20
-4.04888171E+02
  0
VERTEX
  8
0
 62
4
 10
-1.60282751E+02
 20
-4.04761173E+02
  0
VERTEX
  8
0
 62
4
 10
-1.59969338E+02
 20
-4.04608005E+02
  0
VERTEX
  8
0
 62
4
 10
-1.59671905E+02
 20
-4.04429872E+02
  0
VERTEX
  8
0
 62
4
 10
-1.59392792E+02
 20
-4.04228175E+02
  0
VERTEX
  8
0
 62
4
 10
-1.59134196E+02
 20
-4.04004502E+02
  0
VERTEX
  8
0
 62
4
 10
-1.58898153E+02
 20
-4.03760614E+02
  0
VERTEX
  8
0
 62
4
 10
-1.58686520E+02
 20
-4.03498429E+02
  0
VERTEX
  8
0
 62
4
 10
-1.58500962E+02
 20
-4.03220010E+02
  0
VERTEX
  8
0
 62
4
 10
-1.58342939E+02
 20
-4.02927550E+02
  0
VERTEX
  8
0
 62
4
 10
-1.58213696E+02
 20
-4.02623349E+02
  0
VERTEX
  8
0
 62
4
 10
-1.58114249E+02
 20
-4.02309802E+02
  0
VERTEX
  8
0
 62
4
 10
-1.58045381E+02
 20
-4.01989375E+02
  0
VERTEX
  8
0
 62
4
 10
-1.58007634E+02
 20
-4.01664591E+02
  0
VERTEX
  8
0
 62
4
 10
-1.58001305E+02
 20
-4.01338006E+02
  0
SEQEND
  8
0
  0
POLYLINE
  8
0
 62
4
 66
1
  0
VERTEX
  8
0
 62
4
 10
-1.65380567E+02
 20
-4.00907068E+02
  0
VERTEX
  8
0
 62
4
 10
-1.65399322E+02
 20
-4.01182756E+02
  0
VERTEX
  8
0
 62
4
 10
-1.65391596E+02
 20
-4.01458892E+02
  0
VERTEX
  8
0
 62
4
 10
-1.65357449E+02
 20
-4.01733326E+02
  0
VERTEX
  8
0
 62
4
 10
-1.65297148E+02
 20
-4.02003919E+02
  0
VERTEX
  8
0
 62
4
 10
-1.65211162E+02
 20
-4.02268564E+02
  0
VERTEX
  8
0
 62
4
 10
-1.65100161E+02
 20
-4.02525200E+02
  0
VERTEX
  8
0
 62
4
 10
-1.64965009E+02
 20
-4.02771826E+02
  0
VERTEX
  8
0
 62
4
 10
-1.64806760E+02
 20
-4.03006523E+02
  0
VERTEX
  8
0
 62
4
 10
-1.64626646E+02
 20
-4.03227461E+02
  0
VERTEX
  8
0
 62
4
 10
-1.64426071E+02
 20
-4.03432920E+02
  0
VERTEX
  8
0
 62
4
 10
-1.64206595E+02
 20
-4.03621299E+02
  0
VERTEX
  8
0
 62
4
 10
-1.63969931E+02
 20
-4.03791130E+02
  0
VERTEX
  8
0
 62
4
 10
-1.63717920E+02
 20
-4.03941092E+02
  0
VERTEX
  8
0
 62
4
 10
-1.63452526E+02
 20
-4.04070015E+02
  0
VERTEX
  8
0
 62
4
 10
-1.63175816E+02
 20
-4.04176895E+02
  0
VERTEX
  8
0
 62
4
 10
-1.62889946E+02
 20
-4.04260900E+02
  0
VERTEX
  8
0
 62
4
 10
-1.62597143E+02
 20
-4.04321376E+02
  0
VERTEX
  8
0
 62
4
 10
-1.62299688E+02
 20
-4.04357851E+02
  0
VERTEX
  8
0
 62
4
 10
-1.61999897E+02
 20
-4.04370040E+02
  0
VERTEX
  8
0
 62
4
 10
-1.61700106E+02
 20
-4.04357851E+02
  0
VERTEX
  8
0
 62
4
 10
-1.61402651E+02
 20
-4.04321376E+02
  0
VERTEX
  8
0
 62
4
 10
-1.61109848E+02
 20
-4.04260900E+02
  0
VERTEX
  8
0
 62
4
 10
-1.60823978E+02
 20
-4.04176895E+02
  0
VERTEX
  8
0
 62
4
 10
-1.60547268E+02
 20
-4.04070015E+02
  0
VERTEX
  8
0
 62
4
 10
-1.60281874E+02
 20
-4.03941092E+02
  0
VERTEX
  8
0
 62
4
 10
-1.60029863E+02
 20
-4.03791130E+02
  0
VERTEX
  8
0
 62
4
 10
-1.59793199E+02
 20
-4.03621299E+02
  0
VERTEX
  8
0
 62
4
 10
-1.59573723E+02
 20
-4.03432920E+02
  0
VERTEX
  8
0
 62
4
 10
-1.59373148E+02
 20
-4.03227461E+02
  0
VERTEX
  8
0
 62
4
 10
-1.59193034E+02
 20
-4.03006523E+02
  0
VERTEX
  8
0
 62
4
 10
-1.59034785E+02
 20
-4.02771826E+02
  0
VERTEX
  8
0
 62
4
 10
-1.58899633E+02
 20
-4.02525200E+02
  0
VERTEX
  8
0
 62
4
 10
-1.58788632E+02
 20
-4.02268564E+02
  0
VERTEX
  8
0
 62
4
 10
-1.58702646E+02
 20
-4.02003919E+02
  0
VERTEX
  8
0
 62
4
 10
-1.58642345E+02
 20
-4.01733326E+02
  0
VERTEX
  8
0
 62
4
 10
-1.58608198E+02
 20
-4.01458892E+02
  0
VERTEX
  8
0
 62
4
 10
-1.58600472E+02
 20
-4.01182756E+02
  0
VERTEX
  8
0
 62
4
 10
-1.58619227E+02
 20
-4.00907068E+02
  0
SEQEND
  8
0
  0
POLYLINE
  8
0
 62
4
 66
1
  0
VERTEX
  8
0
 62
4
 10
-1.58599897E+02
 20
-4.00565408E+02
  0
VERTEX
  8
0
 62
4
 10
-1.58612835E+02
 20
-4.00285745E+02
  0
VERTEX
  8
0
 62
4
 10
-1.58651551E+02
 20
-4.00008211E+02
  0
VERTEX
  8
0
 62
4
 10
-1.58715749E+02
 20
-3.99734918E+02
  0
VERTEX
  8
0
 62
4
 10
-1.58804942E+02
 20
-3.99467945E+02
  0
VERTEX
  8
0
 62
4
 10
-1.58918451E+02
 20
-3.99209324E+02
  0
VERTEX
  8
0
 62
4
 10
-1.59055411E+02
 20
-3.98961024E+02
  0
VERTEX
  8
0
 62
4
 10
-1.59214780E+02
 20
-3.98724935E+02
  0
VERTEX
  8
0
 62
4
 10
-1.59395346E+02
 20
-3.98502852E+02
  0
VERTEX
  8
0
 62
4
 10
-1.59595734E+02
 20
-3.98296467E+02
  0
VERTEX
  8
0
 62
4
 10
-1.59814419E+02
 20
-3.98107350E+02
  0
VERTEX
  8
0
 62
4
 10
-1.60049737E+02
 20
-3.97936940E+02
  0
VERTEX
  8
0
 62
4
 10
-1.60299897E+02
 20
-3.97786534E+02
  0
VERTEX
  8
0
 62
4
 10
-1.60562995E+02
 20
-3.97657277E+02
  0
VERTEX
  8
0
 62
4
 10
-1.60837029E+02
 20
-3.97550153E+02
  0
VERTEX
  8
0
 62
4
 10
-1.61119912E+02
 20
-3.97465977E+02
  0
VERTEX
  8
0
 62
4
 10
-1.61409493E+02
 20
-3.97405389E+02
  0
VERTEX
  8
0
 62
4
 10
-1.61703567E+02
 20
-3.97368851E+02
  0
VERTEX
  8
0
 62
4
 10
-1.61999897E+02
 20
-3.97356641E+02
  0
VERTEX
  8
0
 62
4
 10
-1.62296227E+02
 20
-3.97368851E+02
  0
VERTEX
  8
0
 62
4
 10
-1.62590301E+02
 20
-3.97405389E+02
  0
VERTEX
  8
0
 62
4
 10
-1.62879882E+02
 20
-3.97465977E+02
  0
VERTEX
  8
0
 62
4
 10
-1.63162765E+02
 20
-3.97550153E+02
  0
VERTEX
  8
0
 62
4
 10
-1.63436799E+02
 20
-3.97657277E+02
  0
VERTEX
  8
0
 62
4
 10
-1.63699897E+02
 20
-3.97786534E+02
  0
VERTEX
  8
0
 62
4
 10
-1.63950057E+02
 20
-3.97936940E+02
  0
VERTEX
  8
0
 62
4
 10
-1.64185375E+02
 20
-3.98107350E+02
  0
VERTEX
  8
0
 62
4
 10
-1.64404060E+02
 20
-3.98296467E+02
  0
VERTEX
  8
0
 62
4
 10
-1.64604448E+02
 20
-3.98502852E+02
  0
VERTEX
  8
0
 62
4
 10
-1.64785014E+02
 20
-3.98724935E+02
  0
VERTEX
  8
0
 62
4
 10
-1.64944383E+02
 20
-3.98961024E+02
  0
VERTEX
  8
0
 62
4
 10
-1.65081343E+02
 20
-3.99209324E+02
  0
VERTEX
  8
0
 62
4
 10
-1.65194852E+02
 20
-3.99467945E+02
  0
VERTEX
  8
0
 62
4
 10
-1.65284045E+02
 20
-3.99734918E+02
  0
VERTEX
  8
0
 62
4
 10
-1.65348243E+02
 20
-4.00008211E+02
  0
VERTEX
  8
0
 62
4
 10
-1.65386959E+02
 20
-4.00285745E+02
  0
VERTEX
  8
0
 62
4
 10
-1.65399897E+02
 20
-4.00565408E+02
  0
VERTEX
  8
0
 62
4
 10
-1.65386959E+02
 20
-4.00845071E+02
  0
VERTEX
  8
0
 62
4
 10
-1.65348243E+02
 20
-4.01122605E+02
  0
VERTEX
  8
0
 62
4
 10
-1.65284045E+02
 20
-4.01395898E+02
  0
VERTEX
  8
0
 62
4
 10
-1.65194852E+02
 20
-4.01662871E+02
  0
VERTEX
  8
0
 62
4
 10
-1.65081343E+02
 20
-4.01921492E+02
  0
VERTEX
  8
0
 62
4
 10
-1.64944383E+02
 20
-4.02169792E+02
  0
VERTEX
  8
0
 62
4
 10
-1.64785014E+02
 20
-4.02405881E+02
  0
VERTEX
  8
0
 62
4
 10
-1.64604448E+02
 20
-4.02627964E+02
  0
VERTEX
  8
0
 62
4
 10
-1.64404060E+02
 20
-4.02834349E+02
  0
VERTEX
  8
0
 62
4
 10
-1.64185375E+02
 20
-4.03023466E+02
  0
VERTEX
  8
0
 62
4
 10
-1.63950057E+02
 20
-4.03193876E+02
  0
VERTEX
  8
0
 62
4
 10
-1.63699897E+02
 20
-4.03344282E+02
  0
VERTEX
  8
0
 62
4
 10
-1.63436799E+02
 20
-4.03473539E+02
  0
VERTEX
  8
0
 62
4
 10
-1.63162765E+02
 20
-4.03580663E+02
  0
VERTEX
  8
0
 62
4
 10
-1.62879882E+02
 20
-4.03664839E+02
  0
VERTEX
  8
0
 62
4
 10
-1.62590301E+02
 20
-4.03725427E+02
  0
VERTEX
  8
0
 62
4
 10
-1.62296227E+02
 20
-4.03761965E+02
  0
VERTEX
  8
0
 62
4
 10
-1.61999897E+02
 20
-4.03774175E+02
  0
VERTEX
  8
0
 62
4
 10
-1.61703567E+02
 20
-4.03761965E+02
  0
VERTEX
  8
0
 62
4
 10
-1.61409493E+02
 20
-4.03725427E+02
  0
VERTEX
  8
0
 62
4
 10
-1.61119912E+02
 20
-4.03664839E+02
  0
VERTEX
  8
0
 62
4
 10
-1.60837029E+02
 20
-4.03580663E+02
  0
VERTEX
  8
0
 62
4
 10
-1.60562995E+02
 20
-4.03473539E+02
  0
VERTEX
  8
0
 62
4
 10
-1.60299897E+02
 20
-4.03344282E+02
  0
VERTEX
  8
0
 62
4
 10
-1.60049737E+02
 20
-4.03193876E+02
  0
VERTEX
  8
0
 62
4
 10
-1.59814419E+02
 20
-4.03023466E+02
  0
VERTEX
  8
0
 62
4
 10
-1.59595734E+02
 20
-4.02834349E+02
  0
VERTEX
  8
0
 62
4
 10
-1.59395346E+02
 20
-4.02627964E+02
  0
VERTEX
  8
0
 62
4
 10
-1.59214780E+02
 20
-4.02405881E+02
  0
VERTEX
  8
0
 62
4
 10
-1.59055411E+02
 20
-4.02169792E+02
  0
VERTEX
  8
0
 62
4
 10
-1.58918451E+02
 20
-4.01921492E+02
  0
VERTEX
  8
0
 62
4
 10
-1.58804942E+02
 20
-4.01662871E+02
  0
VERTEX
  8
0
 62
4
 10
-1.58715749E+02
 20
-4.01395898E+02
  0
VERTEX
  8
0
 62
4
 10
-1.58651551E+02
 20
-4.01122605E+02
  0
VERTEX
  8
0
 62
4
 10
-1.58612835E+02
 20
-4.00845070E+02
  0
VERTEX
  8
0
 62
4
 10
-1.58599897E+02
 20
-4.00565408E+02
  0
SEQEND
  8
0
  0
LINE
  8
0
 62
4
 10
-1.88999897E+02
 20
-3.78970411E+02
 11
-1.83999897E+02
 21
-3.78970411E+02
  0
LINE
  8
0
 62
4
 10
-1.88999897E+02
 20
-3.72057420E+02
 11
-1.83999897E+02
 21
-3.72057420E+02
  0
LINE
  8
0
 62
4
 10
-1.88999897E+02
 20
-3.84962056E+02
 11
-1.83999897E+02
 21
-3.84962056E+02
  0
LINE
  8
0
 62
4
 10
-1.69499897E+02
 20
-3.71049090E+02
 11
-1.78499897E+02
 21
-3.71049090E+02
  0
ARC
  8
0
 62
4
 10
-1.78499893E+02
 20
-3.71549095E+02
 40
5.00004272E-01
 50
9.00004895E+01
 51
1.79999510E+02
  0
LINE
  8
0
 62
4
 10
-1.78999897E+02
 20
-3.71549090E+02
 11
-1.78999897E+02
 21
-3.84549090E+02
  0
ARC
  8
0
 62
4
 10
-6.77533736E+02
 20
-3.78049090E+02
 40
7.00000000E+00
 50
1.21115777E+02
 51
1.44002341E+02
  0
ARC
  8
0
 62
4
 10
-6.77533736E+02
 20
-3.78049090E+02
 40
7.00000000E+00
 50
8.19976591E+01
 51
1.04884035E+02
  0
ARC
  8
0
 62
4
 10
-6.58825306E+02
 20
-3.97810014E+02
 40
2.50001570E+00
 50
2.30003598E+01
 51
1.12999640E+02
  0
ARC
  8
0
 62
4
 10
-6.62210932E+02
 20
-4.04714727E+02
 40
1.18036308E+01
 50
1.02898056E+01
 51
3.59747793E+01
  0
CIRCLE
  8
0
 62
4
 10
-6.77533736E+02
 20
-3.78049090E+02
 40
3.75000000E+00
  0
ARC
  8
0
 62
4
 10
-6.53459508E+02
 20
-3.98353850E+02
 40
9.97209177E-01
 50
3.55805360E+01
 51
1.12812291E+02
  0
ARC
  8
0
 62
4
 10
-6.51580983E+02
 20
-4.02775831E+02
 40
9.98345090E-01
 50
2.61703858E+00
 51
9.77816763E+00
  0
LINE
  8
0
 62
4
 10
-6.55673052E+02
 20
-3.97558305E+02
 11
-6.53477693E+02
 21
-4.02730246E+02
  0
LINE
  8
0
  6
CENTER
 62
6
 10
-6.57620164E+02
 20
-4.02730246E+02
 11
-6.48587098E+02
 21
-3.98895937E+02
  0
LINE
  8
0
 62
4
 10
-6.55438613E+02
 20
-3.98110607E+02
 11
-6.53846140E+02
 21
-3.97434643E+02
  0
LINE
  8
0
 62
4
 10
-6.56133304E+02
 20
-3.97753670E+02
 11
-6.55673052E+02
 21
-3.97558305E+02
  0
LINE
  8
0
 62
4
 10
-6.77484811E+02
 20
-3.71510135E+02
 11
-6.72974338E+02
 21
-3.69595552E+02
  0
LINE
  8
0
 62
4
 10
-6.80464221E+02
 20
-3.71145279E+02
 11
-6.73015697E+02
 21
-3.72057420E+02
  0
LINE
  8
0
 62
4
 10
-6.82047870E+02
 20
-3.84049916E+02
 11
-6.74599347E+02
 21
-3.84962056E+02
  0
LINE
  8
0
 62
4
 10
-6.73015697E+02
 20
-3.72057420E+02
 11
-6.70081307E+02
 21
-3.78970411E+02
  0
LINE
  8
0
 62
4
 10
-6.84982261E+02
 20
-3.77136924E+02
 11
-6.82047870E+02
 21
-3.84049916E+02
  0
LINE
  8
0
 62
4
 10
-6.84982261E+02
 20
-3.77136924E+02
 11
-6.80464221E+02
 21
-3.71145279E+02
  0
LINE
  8
0
 62
4
 10
-6.74599347E+02
 20
-3.84962056E+02
 11
-6.70081307E+02
 21
-3.78970411E+02
  0
LINE
  8
0
 62
4
 10
-6.56524035E+02
 20
-3.96833165E+02
 11
-6.54020873E+02
 21
-4.02730246E+02
  0
LINE
  8
0
 62
4
 10
-6.76814949E+02
 20
-4.02730246E+02
 11
-6.59802125E+02
 21
-3.95508731E+02
  0
LINE
  8
0
 62
4
 10
-6.78854642E+02
 20
-3.99250603E+02
 11
-6.77377621E+02
 21
-4.02730246E+02
  0
LINE
  8
0
 62
4
 10
-6.61365050E+02
 20
-3.91826712E+02
 11
-6.59802125E+02
 21
-3.95508731E+02
  0
LINE
  8
0
 62
4
 10
-6.77404363E+02
 20
-3.97548636E+02
 11
-6.63596791E+02
 21
-3.91687669E+02
  0
LINE
  8
0
 62
4
 10
-6.78854642E+02
 20
-3.99250603E+02
 11
-6.61365050E+02
 21
-3.91826712E+02
  0
LINE
  8
0
 62
4
 10
-6.86781910E+02
 20
-3.75456519E+02
 11
-6.77013632E+02
 21
-3.98469141E+02
  0
LINE
  8
0
 62
4
 10
-6.72974338E+02
 20
-3.69595552E+02
 11
-6.63206059E+02
 21
-3.92608174E+02
  0
LINE
  8
0
 62
4
 10
-6.86781910E+02
 20
-3.75456519E+02
 11
-6.82280642E+02
 21
-3.73545844E+02
  0
ARC
  8
0
 62
4
 10
1.11825504E+02
 20
-3.97810014E+02
 40
2.50001570E+00
 50
6.70003599E+01
 51
1.56999640E+02
  0
ARC
  8
0
 62
4
 10
1.29315072E+02
 20
-4.05233891E+02
 40
2.50001192E+00
 50
3.37000273E+02
 51
6.69997268E+01
  0
ARC
  8
0
 62
4
 10
1.15211131E+02
 20
-4.04714727E+02
 40
1.18036308E+01
 50
1.44025221E+02
 51
1.69710195E+02
  0
ARC
  8
0
 62
4
 10
1.06459707E+02
 20
-3.98353850E+02
 40
9.97209177E-01
 50
6.71877091E+01
 51
1.44419464E+02
  0
ARC
  8
0
 62
4
 10
1.04581181E+02
 20
-4.02775831E+02
 40
9.98345090E-01
 50
1.70221832E+02
 51
2.46892060E+02
  0
LINE
  8
0
 62
4
 10
1.08673250E+02
 20
-3.97558305E+02
 11
1.05547401E+02
 21
-4.04922343E+02
  0
LINE
  8
0
  6
CENTER
 62
6
 10
1.31823006E+02
 20
-4.11730235E+02
 11
1.01587296E+02
 21
-3.98895937E+02
  0
LINE
  8
0
 62
4
 10
1.04189366E+02
 20
-4.03694076E+02
 11
1.05781840E+02
 21
-4.04370040E+02
  0
LINE
  8
0
 62
4
 10
1.08438811E+02
 20
-3.98110607E+02
 11
1.06846338E+02
 21
-3.97434643E+02
  0
LINE
  8
0
 62
4
 10
1.06007653E+02
 20
-4.05117709E+02
 11
1.05547401E+02
 21
-4.04922343E+02
  0
LINE
  8
0
 62
4
 10
1.09133502E+02
 20
-3.97753670E+02
 11
1.08673250E+02
 21
-3.97558305E+02
  0
LINE
  8
0
 62
4
 10
1.33464419E+02
 20
-3.71145279E+02
 11
1.32331982E+02
 21
-3.71283956E+02
  0
LINE
  8
0
 62
4
 10
1.34151320E+02
 20
-3.72056219E+02
 11
1.33464419E+02
 21
-3.71145279E+02
  0
LINE
  8
0
 62
4
 10
1.16580261E+02
 20
-4.05803253E+02
 11
1.15603433E+02
 21
-4.08104515E+02
  0
LINE
  8
0
 62
4
 10
1.20262280E+02
 20
-4.07366178E+02
 11
1.19285453E+02
 21
-4.09667440E+02
  0
LINE
  8
0
 62
4
 10
1.19285453E+02
 20
-4.09667440E+02
 11
1.15603433E+02
 21
-4.08104515E+02
  0
LINE
  8
0
 62
4
 10
1.20262280E+02
 20
-4.07366178E+02
 11
1.16580261E+02
 21
-4.05803253E+02
  0
LINE
  8
0
 62
4
 10
1.16467191E+02
 20
-4.11730240E+02
 11
1.05226191E+02
 21
-4.06958719E+02
  0
LINE
  8
0
 62
4
 10
1.04640095E+02
 20
-4.08339476E+02
 11
1.05477334E+02
 21
-4.11730244E+02
  0
LINE
  8
0
 62
4
 10
1.31616350E+02
 20
-4.06210712E+02
 11
1.29273452E+02
 21
-4.11730236E+02
  0
LINE
  8
0
 62
4
 10
1.09524234E+02
 20
-3.96833165E+02
 11
1.04640095E+02
 21
-4.08339476E+02
  0
LINE
  8
0
 62
4
 10
1.12628238E+02
 20
-4.11730241E+02
 11
1.04640095E+02
 21
-4.08339476E+02
  0
LINE
  8
0
 62
4
 10
1.30291916E+02
 20
-4.02932622E+02
 11
1.12802324E+02
 21
-3.95508731E+02
  0
LINE
  8
0
 62
4
 10
1.31854840E+02
 20
-3.99250603E+02
 11
1.30291916E+02
 21
-4.02932622E+02
  0
LINE
  8
0
 62
4
 10
1.14365248E+02
 20
-3.91826712E+02
 11
1.12802324E+02
 21
-3.95508731E+02
  0
LINE
  8
0
 62
4
 10
1.30404562E+02
 20
-3.97548636E+02
 11
1.16596989E+02
 21
-3.91687669E+02
  0
LINE
  8
0
 62
4
 10
1.31854840E+02
 20
-3.99250603E+02
 11
1.14365248E+02
 21
-3.91826712E+02
  0
LINE
  8
0
 62
4
 10
1.39782109E+02
 20
-3.75456519E+02
 11
1.30013831E+02
 21
-3.98469141E+02
  0
LINE
  8
0
 62
4
 10
1.25974536E+02
 20
-3.69595552E+02
 11
1.16206258E+02
 21
-3.92608174E+02
  0
LINE
  8
0
 62
4
 10
1.25974536E+02
 20
-3.69595552E+02
 11
1.39782109E+02
 21
-3.75456519E+02
  0
LINE
  8
0
 62
4
 10
1.37858974E+02
 20
-4.09403729E+02
 11
1.39044401E+02
 21
-4.11730232E+02
  0
LINE
  8
0
 62
4
 10
1.37858974E+02
 20
-4.09403729E+02
 11
1.31420985E+02
 21
-4.06670965E+02
  0
ARC
  8
0
 62
4
 10
1.30533926E+02
 20
-3.78049087E+02
 40
7.00000000E+00
 50
3.59976591E+01
 51
9.80023407E+01
  0
LINE
  8
0
  6
CENTER
 62
6
 10
1.22788422E+02
 20
-3.96296353E+02
 11
1.20964930E+02
 21
-4.00592229E+02
  0
LINE
  8
0
 62
4
 10
1.18325353E+02
 20
-3.97853118E+02
 11
1.19047466E+02
 21
-3.97073276E+02
  0
LINE
  8
0
 62
4
 10
1.24828236E+02
 20
-3.99527068E+02
 11
1.24768887E+02
 21
-4.00588236E+02
  0
LINE
  8
0
 62
4
 10
1.19047466E+02
 20
-3.97073276E+02
 11
1.24828236E+02
 21
-3.99527068E+02
  0
LINE
  8
0
  6
CENTER
 62
6
 10
-1.57999928E+02
 20
-1.89576131E+02
 11
-1.57999928E+02
 21
-2.00076131E+02
  0
LINE
  8
0
 62
4
 10
-1.69499928E+02
 20
-1.93256131E+02
 11
-1.69499928E+02
 21
-2.22024168E+02
  0
LINE
  8
0
 62
4
 10
-1.54499928E+02
 20
-1.93256131E+02
 11
-1.54499928E+02
 21
-2.22024168E+02
  0
LINE
  8
0
 62
4
 10
-1.54499928E+02
 20
-1.93256131E+02
 11
-1.69499928E+02
 21
-1.93256131E+02
  0
LINE
  8
0
  6
CENTER
 62
6
 10
-1.65999928E+02
 20
-1.89576131E+02
 11
-1.65999928E+02
 21
-2.00076131E+02
  0
LINE
  8
0
 62
4
 10
-1.58599928E+02
 20
-2.31120100E+02
 11
-1.58599928E+02
 21
-2.33015838E+02
  0
LINE
  8
0
 62
4
 10
-1.65399928E+02
 20
-2.33015838E+02
 11
-1.65399928E+02
 21
-2.31120100E+02
  0
LINE
  8
0
  6
CENTER
 62
6
 10
-1.61999928E+02
 20
-1.91335412E+02
 11
-1.61999928E+02
 21
-2.43730246E+02
  0
LINE
  8
0
 62
4
 10
-1.78499928E+02
 20
-2.14696491E+02
 11
-1.69499928E+02
 21
-2.14696491E+02
  0
LINE
  8
0
 62
4
 10
-1.88999928E+02
 20
-2.00247967E+02
 11
-1.88999928E+02
 21
-2.15148920E+02
  0
LINE
  8
0
 62
4
 10
-1.83999928E+02
 20
-2.15148920E+02
 11
-1.83999928E+02
 21
-2.00247967E+02
  0
LINE
  8
0
 62
4
 10
-1.83999928E+02
 20
-2.01446491E+02
 11
-1.78999928E+02
 21
-2.01446491E+02
  0
LINE
  8
0
 62
4
 10
-1.83999928E+02
 20
-2.13946491E+02
 11
-1.78999928E+02
 21
-2.13946491E+02
  0
LINE
  8
0
 62
4
 10
-1.82499928E+02
 20
-2.01446491E+02
 11
-1.82499928E+02
 21
-2.13946491E+02
  0
LINE
  8
0
 62
4
 10
-1.82499928E+02
 20
-2.01946491E+02
 11
-1.78999928E+02
 21
-2.01946491E+02
  0
LINE
  8
0
 62
4
 10
-1.82499928E+02
 20
-2.13446491E+02
 11
-1.78999928E+02
 21
-2.13446491E+02
  0
LINE
  8
0
 62
4
 10
-1.69499928E+02
 20
-1.98448317E+02
 11
-1.54499928E+02
 21
-1.98448317E+02
  0
LINE
  8
0
 62
4
 10
-1.88999928E+02
 20
-2.00247967E+02
 11
-1.83999928E+02
 21
-2.00247967E+02
  0
LINE
  8
0
 62
4
 10
-1.34999928E+02
 20
-2.07915341E+02
 11
-1.34999928E+02
 21
-2.32090331E+02
  0
LINE
  8
0
 62
4
 10
-1.71499928E+02
 20
-2.14696491E+02
 11
-1.71499928E+02
 21
-2.25428087E+02
  0
LINE
  8
0
 62
4
 10
-1.73999928E+02
 20
-2.14696491E+02
 11
-1.73999928E+02
 21
-2.32090331E+02
  0
LINE
  8
0
 62
4
 10
-1.71499928E+02
 20
-2.23865177E+02
 11
-1.52499928E+02
 21
-2.23865177E+02
  0
LINE
  8
0
 62
4
 10
-1.72499928E+02
 20
-2.27729364E+02
 11
-1.36499928E+02
 21
-2.27729364E+02
  0
ARC
  8
0
 62
4
 10
-1.36499931E+02
 20
-2.07915345E+02
 40
1.50000336E+00
 50
1.28225275E-04
 51
8.99998718E+01
  0
ARC
  8
0
 62
4
 10
-1.78499923E+02
 20
-2.14196487E+02
 40
5.00004272E-01
 50
1.80000490E+02
 51
2.69999511E+02
  0
LINE
  8
0
 62
4
 10
-1.69499928E+02
 20
-2.12255889E+02
 11
-1.54499928E+02
 21
-2.12255889E+02
  0
LINE
  8
0
 62
4
 10
-1.69499928E+02
 20
-2.22024168E+02
 11
-1.54499928E+02
 21
-2.22024168E+02
  0
LINE
  8
0
 62
4
 10
-1.52499928E+02
 20
-2.06375585E+02
 11
-1.52499928E+02
 21
-2.25428087E+02
  0
LINE
  8
0
 62
4
 10
-1.54499928E+02
 20
-2.06375585E+02
 11
-1.52499928E+02
 21
-2.06375585E+02
  0
LINE
  8
0
 62
4
 10
-1.52499928E+02
 20
-2.06415341E+02
 11
-1.36499928E+02
 21
-2.06415341E+02
  0
ARC
  8
0
 62
4
 10
-1.36499924E+02
 20
-2.32090334E+02
 40
1.49999664E+00
 50
2.69999872E+02
 51
1.28225561E-04
  0
ARC
  8
0
 62
4
 10
-1.72499927E+02
 20
-2.32090330E+02
 40
1.50000046E+00
 50
1.80000018E+02
 51
2.69999983E+02
  0
LINE
  8
0
 62
4
 10
-1.88999928E+02
 20
-2.04766006E+02
 11
-1.83999928E+02
 21
-2.04766006E+02
  0
LINE
  8
0
 62
4
 10
-1.88999928E+02
 20
-2.12214530E+02
 11
-1.83999928E+02
 21
-2.12214530E+02
  0
LINE
  8
0
 62
4
 10
-1.88999928E+02
 20
-2.15148920E+02
 11
-1.83999928E+02
 21
-2.15148920E+02
  0
LINE
  8
0
 62
4
 10
-1.69499928E+02
 20
-2.00696491E+02
 11
-1.78499928E+02
 21
-2.00696491E+02
  0
ARC
  8
0
 62
4
 10
-1.78499928E+02
 20
-2.01196491E+02
 40
4.99999542E-01
 50
8.99999475E+01
 51
1.80000053E+02
  0
LINE
  8
0
 62
4
 10
-1.78999928E+02
 20
-2.01196491E+02
 11
-1.78999928E+02
 21
-2.14196491E+02
  0
LINE
  8
0
  6
CENTER
 62
6
 10
-1.66468406E+02
 20
-2.05352103E+02
 11
-1.57531449E+02
 21
-2.05352103E+02
  0
POLYLINE
  8
0
 62
4
 66
1
  0
VERTEX
  8
0
 62
4
 10
-1.58999928E+02
 20
-2.05352103E+02
  0
VERTEX
  8
0
 62
4
 10
-1.59011344E+02
 20
-2.05111421E+02
  0
VERTEX
  8
0
 62
4
 10
-1.59045505E+02
 20
-2.04872571E+02
  0
VERTEX
  8
0
 62
4
 10
-1.59102151E+02
 20
-2.04637370E+02
  0
VERTEX
  8
0
 62
4
 10
-1.59180850E+02
 20
-2.04407609E+02
  0
VERTEX
  8
0
 62
4
 10
-1.59281005E+02
 20
-2.04185037E+02
  0
VERTEX
  8
0
 62
4
 10
-1.59401852E+02
 20
-2.03971346E+02
  0
VERTEX
  8
0
 62
4
 10
-1.59542472E+02
 20
-2.03768163E+02
  0
VERTEX
  8
0
 62
4
 10
-1.59701795E+02
 20
-2.03577036E+02
  0
VERTEX
  8
0
 62
4
 10
-1.59878608E+02
 20
-2.03399417E+02
  0
VERTEX
  8
0
 62
4
 10
-1.60071565E+02
 20
-2.03236660E+02
  0
VERTEX
  8
0
 62
4
 10
-1.60279199E+02
 20
-2.03090003E+02
  0
VERTEX
  8
0
 62
4
 10
-1.60499928E+02
 20
-2.02960561E+02
  0
VERTEX
  8
0
 62
4
 10
-1.60732073E+02
 20
-2.02849321E+02
  0
VERTEX
  8
0
 62
4
 10
-1.60973868E+02
 20
-2.02757128E+02
  0
VERTEX
  8
0
 62
4
 10
-1.61223471E+02
 20
-2.02684685E+02
  0
VERTEX
  8
0
 62
4
 10
-1.61478983E+02
 20
-2.02632542E+02
  0
VERTEX
  8
0
 62
4
 10
-1.61738461E+02
 20
-2.02601097E+02
  0
VERTEX
  8
0
 62
4
 10
-1.61999928E+02
 20
-2.02590588E+02
  0
VERTEX
  8
0
 62
4
 10
-1.62261395E+02
 20
-2.02601097E+02
  0
VERTEX
  8
0
 62
4
 10
-1.62520873E+02
 20
-2.02632542E+02
  0
VERTEX
  8
0
 62
4
 10
-1.62776385E+02
 20
-2.02684685E+02
  0
VERTEX
  8
0
 62
4
 10
-1.63025988E+02
 20
-2.02757128E+02
  0
VERTEX
  8
0
 62
4
 10
-1.63267783E+02
 20
-2.02849321E+02
  0
VERTEX
  8
0
 62
4
 10
-1.63499928E+02
 20
-2.02960561E+02
  0
VERTEX
  8
0
 62
4
 10
-1.63720657E+02
 20
-2.03090003E+02
  0
VERTEX
  8
0
 62
4
 10
-1.63928291E+02
 20
-2.03236660E+02
  0
VERTEX
  8
0
 62
4
 10
-1.64121248E+02
 20
-2.03399417E+02
  0
VERTEX
  8
0
 62
4
 10
-1.64298061E+02
 20
-2.03577036E+02
  0
VERTEX
  8
0
 62
4
 10
-1.64457384E+02
 20
-2.03768163E+02
  0
VERTEX
  8
0
 62
4
 10
-1.64598004E+02
 20
-2.03971346E+02
  0
VERTEX
  8
0
 62
4
 10
-1.64718851E+02
 20
-2.04185037E+02
  0
VERTEX
  8
0
 62
4
 10
-1.64819006E+02
 20
-2.04407609E+02
  0
VERTEX
  8
0
 62
4
 10
-1.64897705E+02
 20
-2.04637370E+02
  0
VERTEX
  8
0
 62
4
 10
-1.64954351E+02
 20
-2.04872571E+02
  0
VERTEX
  8
0
 62
4
 10
-1.64988512E+02
 20
-2.05111421E+02
  0
VERTEX
  8
0
 62
4
 10
-1.64999928E+02
 20
-2.05352103E+02
  0
VERTEX
  8
0
 62
4
 10
-1.64988512E+02
 20
-2.05592785E+02
  0
VERTEX
  8
0
 62
4
 10
-1.64954351E+02
 20
-2.05831635E+02
  0
VERTEX
  8
0
 62
4
 10
-1.64897705E+02
 20
-2.06066836E+02
  0
VERTEX
  8
0
 62
4
 10
-1.64819006E+02
 20
-2.06296597E+02
  0
VERTEX
  8
0
 62
4
 10
-1.64718851E+02
 20
-2.06519169E+02
  0
VERTEX
  8
0
 62
4
 10
-1.64598004E+02
 20
-2.06732860E+02
  0
VERTEX
  8
0
 62
4
 10
-1.64457384E+02
 20
-2.06936043E+02
  0
VERTEX
  8
0
 62
4
 10
-1.64298061E+02
 20
-2.07127170E+02
  0
VERTEX
  8
0
 62
4
 10
-1.64121248E+02
 20
-2.07304789E+02
  0
VERTEX
  8
0
 62
4
 10
-1.63928291E+02
 20
-2.07467546E+02
  0
VERTEX
  8
0
 62
4
 10
-1.63720657E+02
 20
-2.07614203E+02
  0
VERTEX
  8
0
 62
4
 10
-1.63499928E+02
 20
-2.07743645E+02
  0
VERTEX
  8
0
 62
4
 10
-1.63267783E+02
 20
-2.07854885E+02
  0
VERTEX
  8
0
 62
4
 10
-1.63025988E+02
 20
-2.07947078E+02
  0
VERTEX
  8
0
 62
4
 10
-1.62776385E+02
 20
-2.08019521E+02
  0
VERTEX
  8
0
 62
4
 10
-1.62520873E+02
 20
-2.08071664E+02
  0
VERTEX
  8
0
 62
4
 10
-1.62261395E+02
 20
-2.08103109E+02
  0
VERTEX
  8
0
 62
4
 10
-1.61999928E+02
 20
-2.08113618E+02
  0
VERTEX
  8
0
 62
4
 10
-1.61738461E+02
 20
-2.08103109E+02
  0
VERTEX
  8
0
 62
4
 10
-1.61478983E+02
 20
-2.08071664E+02
  0
VERTEX
  8
0
 62
4
 10
-1.61223471E+02
 20
-2.08019521E+02
  0
VERTEX
  8
0
 62
4
 10
-1.60973868E+02
 20
-2.07947078E+02
  0
VERTEX
  8
0
 62
4
 10
-1.60732073E+02
 20
-2.07854885E+02
  0
VERTEX
  8
0
 62
4
 10
-1.60499928E+02
 20
-2.07743645E+02
  0
VERTEX
  8
0
 62
4
 10
-1.60279199E+02
 20
-2.07614203E+02
  0
VERTEX
  8
0
 62
4
 10
-1.60071565E+02
 20
-2.07467546E+02
  0
VERTEX
  8
0
 62
4
 10
-1.59878608E+02
 20
-2.07304789E+02
  0
VERTEX
  8
0
 62
4
 10
-1.59701795E+02
 20
-2.07127170E+02
  0
VERTEX
  8
0
 62
4
 10
-1.59542472E+02
 20
-2.06936043E+02
  0
VERTEX
  8
0
 62
4
 10
-1.59401852E+02
 20
-2.06732860E+02
  0
VERTEX
  8
0
 62
4
 10
-1.59281005E+02
 20
-2.06519169E+02
  0
VERTEX
  8
0
 62
4
 10
-1.59180850E+02
 20
-2.06296597E+02
  0
VERTEX
  8
0
 62
4
 10
-1.59102151E+02
 20
-2.06066836E+02
  0
VERTEX
  8
0
 62
4
 10
-1.59045505E+02
 20
-2.05831635E+02
  0
VERTEX
  8
0
 62
4
 10
-1.59011344E+02
 20
-2.05592785E+02
  0
VERTEX
  8
0
 62
4
 10
-1.58999928E+02
 20
-2.05352103E+02
  0
SEQEND
  8
0
  0
POLYLINE
  8
0
 62
4
 66
1
  0
VERTEX
  8
0
 62
4
 10
-1.57999928E+02
 20
-2.30659847E+02
  0
VERTEX
  8
0
 62
4
 10
-1.58016031E+02
 20
-2.30519748E+02
  0
VERTEX
  8
0
 62
4
 10
-1.58064210E+02
 20
-2.30380776E+02
  0
VERTEX
  8
0
 62
4
 10
-1.58144077E+02
 20
-2.30244051E+02
  0
VERTEX
  8
0
 62
4
 10
-1.58254989E+02
 20
-2.30110675E+02
  0
VERTEX
  8
0
 62
4
 10
-1.58396053E+02
 20
-2.29981719E+02
  0
VERTEX
  8
0
 62
4
 10
-1.58566133E+02
 20
-2.29858224E+02
  0
VERTEX
  8
0
 62
4
 10
-1.58763860E+02
 20
-2.29741183E+02
  0
VERTEX
  8
0
 62
4
 10
-1.58987642E+02
 20
-2.29631538E+02
  0
VERTEX
  8
0
 62
4
 10
-1.59235677E+02
 20
-2.29530173E+02
  0
VERTEX
  8
0
 62
4
 10
-1.59505969E+02
 20
-2.29437903E+02
  0
VERTEX
  8
0
 62
4
 10
-1.59796340E+02
 20
-2.29355472E+02
  0
VERTEX
  8
0
 62
4
 10
-1.60104453E+02
 20
-2.29283543E+02
  0
VERTEX
  8
0
 62
4
 10
-1.60427828E+02
 20
-2.29222695E+02
  0
VERTEX
  8
0
 62
4
 10
-1.60763860E+02
 20
-2.29173417E+02
  0
VERTEX
  8
0
 62
4
 10
-1.61109844E+02
 20
-2.29136108E+02
  0
VERTEX
  8
0
 62
4
 10
-1.61462995E+02
 20
-2.29111067E+02
  0
VERTEX
  8
0
 62
4
 10
-1.61820469E+02
 20
-2.29098496E+02
  0
VERTEX
  8
0
 62
4
 10
-1.62179387E+02
 20
-2.29098496E+02
  0
VERTEX
  8
0
 62
4
 10
-1.62536861E+02
 20
-2.29111067E+02
  0
VERTEX
  8
0
 62
4
 10
-1.62890012E+02
 20
-2.29136108E+02
  0
VERTEX
  8
0
 62
4
 10
-1.63235996E+02
 20
-2.29173417E+02
  0
VERTEX
  8
0
 62
4
 10
-1.63572028E+02
 20
-2.29222695E+02
  0
VERTEX
  8
0
 62
4
 10
-1.63895403E+02
 20
-2.29283543E+02
  0
VERTEX
  8
0
 62
4
 10
-1.64203516E+02
 20
-2.29355472E+02
  0
VERTEX
  8
0
 62
4
 10
-1.64493887E+02
 20
-2.29437903E+02
  0
VERTEX
  8
0
 62
4
 10
-1.64764179E+02
 20
-2.29530173E+02
  0
VERTEX
  8
0
 62
4
 10
-1.65012214E+02
 20
-2.29631538E+02
  0
VERTEX
  8
0
 62
4
 10
-1.65235996E+02
 20
-2.29741183E+02
  0
VERTEX
  8
0
 62
4
 10
-1.65433723E+02
 20
-2.29858224E+02
  0
VERTEX
  8
0
 62
4
 10
-1.65603803E+02
 20
-2.29981719E+02
  0
VERTEX
  8
0
 62
4
 10
-1.65744867E+02
 20
-2.30110675E+02
  0
VERTEX
  8
0
 62
4
 10
-1.65855779E+02
 20
-2.30244051E+02
  0
VERTEX
  8
0
 62
4
 10
-1.65935646E+02
 20
-2.30380776E+02
  0
VERTEX
  8
0
 62
4
 10
-1.65983825E+02
 20
-2.30519748E+02
  0
VERTEX
  8
0
 62
4
 10
-1.65999928E+02
 20
-2.30659847E+02
  0
SEQEND
  8
0
  0
POLYLINE
  8
0
 62
4
 66
1
  0
VERTEX
  8
0
 62
4
 10
-1.58599928E+02
 20
-2.31943422E+02
  0
VERTEX
  8
0
 62
4
 10
-1.58426876E+02
 20
-2.31822688E+02
  0
VERTEX
  8
0
 62
4
 10
-1.58281833E+02
 20
-2.31696448E+02
  0
VERTEX
  8
0
 62
4
 10
-1.58165936E+02
 20
-2.31565689E+02
  0
VERTEX
  8
0
 62
4
 10
-1.58080094E+02
 20
-2.31431437E+02
  0
VERTEX
  8
0
 62
4
 10
-1.58024979E+02
 20
-2.31294745E+02
  0
VERTEX
  8
0
 62
4
 10
-1.58001024E+02
 20
-2.31156683E+02
  0
VERTEX
  8
0
 62
4
 10
-1.58008416E+02
 20
-2.31018335E+02
  0
VERTEX
  8
0
 62
4
 10
-1.58047098E+02
 20
-2.30880785E+02
  0
VERTEX
  8
0
 62
4
 10
-1.58116765E+02
 20
-2.30745111E+02
  0
VERTEX
  8
0
 62
4
 10
-1.58216873E+02
 20
-2.30612376E+02
  0
VERTEX
  8
0
 62
4
 10
-1.58346636E+02
 20
-2.30483621E+02
  0
VERTEX
  8
0
 62
4
 10
-1.58505037E+02
 20
-2.30359855E+02
  0
VERTEX
  8
0
 62
4
 10
-1.58690835E+02
 20
-2.30242050E+02
  0
VERTEX
  8
0
 62
4
 10
-1.58902572E+02
 20
-2.30131127E+02
  0
VERTEX
  8
0
 62
4
 10
-1.59138590E+02
 20
-2.30027956E+02
  0
VERTEX
  8
0
 62
4
 10
-1.59397037E+02
 20
-2.29933347E+02
  0
VERTEX
  8
0
 62
4
 10
-1.59675889E+02
 20
-2.29848041E+02
  0
VERTEX
  8
0
 62
4
 10
-1.59972959E+02
 20
-2.29772707E+02
  0
VERTEX
  8
0
 62
4
 10
-1.60285918E+02
 20
-2.29707934E+02
  0
VERTEX
  8
0
 62
4
 10
-1.60612313E+02
 20
-2.29654232E+02
  0
VERTEX
  8
0
 62
4
 10
-1.60949585E+02
 20
-2.29612021E+02
  0
VERTEX
  8
0
 62
4
 10
-1.61295092E+02
 20
-2.29581631E+02
  0
VERTEX
  8
0
 62
4
 10
-1.61646123E+02
 20
-2.29563301E+02
  0
VERTEX
  8
0
 62
4
 10
-1.61999928E+02
 20
-2.29557175E+02
  0
VERTEX
  8
0
 62
4
 10
-1.62353733E+02
 20
-2.29563301E+02
  0
VERTEX
  8
0
 62
4
 10
-1.62704764E+02
 20
-2.29581631E+02
  0
VERTEX
  8
0
 62
4
 10
-1.63050271E+02
 20
-2.29612021E+02
  0
VERTEX
  8
0
 62
4
 10
-1.63387543E+02
 20
-2.29654232E+02
  0
VERTEX
  8
0
 62
4
 10
-1.63713938E+02
 20
-2.29707934E+02
  0
VERTEX
  8
0
 62
4
 10
-1.64026897E+02
 20
-2.29772707E+02
  0
VERTEX
  8
0
 62
4
 10
-1.64323967E+02
 20
-2.29848041E+02
  0
VERTEX
  8
0
 62
4
 10
-1.64602819E+02
 20
-2.29933347E+02
  0
VERTEX
  8
0
 62
4
 10
-1.64861266E+02
 20
-2.30027956E+02
  0
VERTEX
  8
0
 62
4
 10
-1.65097284E+02
 20
-2.30131127E+02
  0
VERTEX
  8
0
 62
4
 10
-1.65309021E+02
 20
-2.30242050E+02
  0
VERTEX
  8
0
 62
4
 10
-1.65494819E+02
 20
-2.30359855E+02
  0
VERTEX
  8
0
 62
4
 10
-1.65653220E+02
 20
-2.30483621E+02
  0
VERTEX
  8
0
 62
4
 10
-1.65782983E+02
 20
-2.30612376E+02
  0
VERTEX
  8
0
 62
4
 10
-1.65883091E+02
 20
-2.30745111E+02
  0
VERTEX
  8
0
 62
4
 10
-1.65952758E+02
 20
-2.30880785E+02
  0
VERTEX
  8
0
 62
4
 10
-1.65991440E+02
 20
-2.31018335E+02
  0
VERTEX
  8
0
 62
4
 10
-1.65998832E+02
 20
-2.31156683E+02
  0
VERTEX
  8
0
 62
4
 10
-1.65974877E+02
 20
-2.31294745E+02
  0
VERTEX
  8
0
 62
4
 10
-1.65919762E+02
 20
-2.31431437E+02
  0
VERTEX
  8
0
 62
4
 10
-1.65833920E+02
 20
-2.31565689E+02
  0
VERTEX
  8
0
 62
4
 10
-1.65718023E+02
 20
-2.31696448E+02
  0
VERTEX
  8
0
 62
4
 10
-1.65572980E+02
 20
-2.31822688E+02
  0
VERTEX
  8
0
 62
4
 10
-1.65399928E+02
 20
-2.31943422E+02
  0
SEQEND
  8
0
  0
LINE
  8
0
 62
4
 10
-1.57999928E+02
 20
-2.30659847E+02
 11
-1.57999928E+02
 21
-2.31120100E+02
  0
LINE
  8
0
 62
4
 10
-1.65999928E+02
 20
-2.30659847E+02
 11
-1.65999928E+02
 21
-2.31120100E+02
  0
POLYLINE
  8
0
 62
4
 66
1
  0
VERTEX
  8
0
 62
4
 10
-1.58599928E+02
 20
-2.31120100E+02
  0
VERTEX
  8
0
 62
4
 10
-1.58613615E+02
 20
-2.31001015E+02
  0
VERTEX
  8
0
 62
4
 10
-1.58654567E+02
 20
-2.30882890E+02
  0
VERTEX
  8
0
 62
4
 10
-1.58722454E+02
 20
-2.30766674E+02
  0
VERTEX
  8
0
 62
4
 10
-1.58816729E+02
 20
-2.30653304E+02
  0
VERTEX
  8
0
 62
4
 10
-1.58936634E+02
 20
-2.30543692E+02
  0
VERTEX
  8
0
 62
4
 10
-1.59081202E+02
 20
-2.30438721E+02
  0
VERTEX
  8
0
 62
4
 10
-1.59249270E+02
 20
-2.30339236E+02
  0
VERTEX
  8
0
 62
4
 10
-1.59439485E+02
 20
-2.30246038E+02
  0
VERTEX
  8
0
 62
4
 10
-1.59650315E+02
 20
-2.30159877E+02
  0
VERTEX
  8
0
 62
4
 10
-1.59880063E+02
 20
-2.30081448E+02
  0
VERTEX
  8
0
 62
4
 10
-1.60126878E+02
 20
-2.30011381E+02
  0
VERTEX
  8
0
 62
4
 10
-1.60388775E+02
 20
-2.29950241E+02
  0
VERTEX
  8
0
 62
4
 10
-1.60663643E+02
 20
-2.29898520E+02
  0
VERTEX
  8
0
 62
4
 10
-1.60949270E+02
 20
-2.29856635E+02
  0
VERTEX
  8
0
 62
4
 10
-1.61243357E+02
 20
-2.29824922E+02
  0
VERTEX
  8
0
 62
4
 10
-1.61543535E+02
 20
-2.29803637E+02
  0
VERTEX
  8
0
 62
4
 10
-1.61847388E+02
 20
-2.29792952E+02
  0
VERTEX
  8
0
 62
4
 10
-1.62152468E+02
 20
-2.29792952E+02
  0
VERTEX
  8
0
 62
4
 10
-1.62456321E+02
 20
-2.29803637E+02
  0
VERTEX
  8
0
 62
4
 10
-1.62756499E+02
 20
-2.29824922E+02
  0
VERTEX
  8
0
 62
4
 10
-1.63050586E+02
 20
-2.29856635E+02
  0
VERTEX
  8
0
 62
4
 10
-1.63336213E+02
 20
-2.29898520E+02
  0
VERTEX
  8
0
 62
4
 10
-1.63611081E+02
 20
-2.29950241E+02
  0
VERTEX
  8
0
 62
4
 10
-1.63872978E+02
 20
-2.30011381E+02
  0
VERTEX
  8
0
 62
4
 10
-1.64119793E+02
 20
-2.30081448E+02
  0
VERTEX
  8
0
 62
4
 10
-1.64349541E+02
 20
-2.30159877E+02
  0
VERTEX
  8
0
 62
4
 10
-1.64560371E+02
 20
-2.30246038E+02
  0
VERTEX
  8
0
 62
4
 10
-1.64750586E+02
 20
-2.30339236E+02
  0
VERTEX
  8
0
 62
4
 10
-1.64918654E+02
 20
-2.30438721E+02
  0
VERTEX
  8
0
 62
4
 10
-1.65063222E+02
 20
-2.30543692E+02
  0
VERTEX
  8
0
 62
4
 10
-1.65183127E+02
 20
-2.30653304E+02
  0
VERTEX
  8
0
 62
4
 10
-1.65277402E+02
 20
-2.30766674E+02
  0
VERTEX
  8
0
 62
4
 10
-1.65345289E+02
 20
-2.30882890E+02
  0
VERTEX
  8
0
 62
4
 10
-1.65386241E+02
 20
-2.31001015E+02
  0
VERTEX
  8
0
 62
4
 10
-1.65399928E+02
 20
-2.31120100E+02
  0
SEQEND
  8
0
  0
ARC
  8
0
 62
4
 10
-1.66235523E+02
 20
-2.22455084E+02
 40
1.21769740E+01
 50
2.81737853E+02
 51
2.99537899E+02
  0
ARC
  8
0
 62
4
 10
-1.57764333E+02
 20
-2.22455084E+02
 40
1.21769740E+01
 50
2.40462101E+02
 51
2.58262147E+02
  0
LINE
  8
0
 62
4
 10
-1.72499927E+02
 20
-2.33590331E+02
 11
-1.65182236E+02
 21
-2.33590331E+02
  0
LINE
  8
0
 62
4
 10
-1.58817619E+02
 20
-2.33590331E+02
 11
-1.36499924E+02
 21
-2.33590331E+02
  0
LINE
  8
0
  6
CENTER
 62
6
 10
-1.45999928E+02
 20
-2.10126184E+02
 11
-1.45999928E+02
 21
-2.22458973E+02
  0
LINE
  8
0
  6
CENTER
 62
6
 10
-1.52166322E+02
 20
-2.16292578E+02
 11
-1.39833533E+02
 21
-2.16292578E+02
  0
POLYLINE
  8
0
 62
4
 66
1
  0
VERTEX
  8
0
 62
4
 10
-1.58599928E+02
 20
-2.33015838E+02
  0
VERTEX
  8
0
 62
4
 10
-1.58612866E+02
 20
-2.32873622E+02
  0
VERTEX
  8
0
 62
4
 10
-1.58651582E+02
 20
-2.32732487E+02
  0
VERTEX
  8
0
 62
4
 10
-1.58715780E+02
 20
-2.32593510E+02
  0
VERTEX
  8
0
 62
4
 10
-1.58804973E+02
 20
-2.32457746E+02
  0
VERTEX
  8
0
 62
4
 10
-1.58918482E+02
 20
-2.32326230E+02
  0
VERTEX
  8
0
 62
4
 10
-1.59055442E+02
 20
-2.32199963E+02
  0
VERTEX
  8
0
 62
4
 10
-1.59214811E+02
 20
-2.32079904E+02
  0
VERTEX
  8
0
 62
4
 10
-1.59395377E+02
 20
-2.31966969E+02
  0
VERTEX
  8
0
 62
4
 10
-1.59595765E+02
 20
-2.31862016E+02
  0
VERTEX
  8
0
 62
4
 10
-1.59814450E+02
 20
-2.31765844E+02
  0
VERTEX
  8
0
 62
4
 10
-1.60049768E+02
 20
-2.31679186E+02
  0
VERTEX
  8
0
 62
4
 10
-1.60299928E+02
 20
-2.31602700E+02
  0
VERTEX
  8
0
 62
4
 10
-1.60563026E+02
 20
-2.31536970E+02
  0
VERTEX
  8
0
 62
4
 10
-1.60837060E+02
 20
-2.31482494E+02
  0
VERTEX
  8
0
 62
4
 10
-1.61119943E+02
 20
-2.31439688E+02
  0
VERTEX
  8
0
 62
4
 10
-1.61409524E+02
 20
-2.31408877E+02
  0
VERTEX
  8
0
 62
4
 10
-1.61703598E+02
 20
-2.31390296E+02
  0
VERTEX
  8
0
 62
4
 10
-1.61999928E+02
 20
-2.31384087E+02
  0
VERTEX
  8
0
 62
4
 10
-1.62296258E+02
 20
-2.31390296E+02
  0
VERTEX
  8
0
 62
4
 10
-1.62590332E+02
 20
-2.31408877E+02
  0
VERTEX
  8
0
 62
4
 10
-1.62879913E+02
 20
-2.31439688E+02
  0
VERTEX
  8
0
 62
4
 10
-1.63162796E+02
 20
-2.31482494E+02
  0
VERTEX
  8
0
 62
4
 10
-1.63436830E+02
 20
-2.31536970E+02
  0
VERTEX
  8
0
 62
4
 10
-1.63699928E+02
 20
-2.31602700E+02
  0
VERTEX
  8
0
 62
4
 10
-1.63950088E+02
 20
-2.31679186E+02
  0
VERTEX
  8
0
 62
4
 10
-1.64185406E+02
 20
-2.31765844E+02
  0
VERTEX
  8
0
 62
4
 10
-1.64404091E+02
 20
-2.31862016E+02
  0
VERTEX
  8
0
 62
4
 10
-1.64604479E+02
 20
-2.31966969E+02
  0
VERTEX
  8
0
 62
4
 10
-1.64785045E+02
 20
-2.32079904E+02
  0
VERTEX
  8
0
 62
4
 10
-1.64944414E+02
 20
-2.32199963E+02
  0
VERTEX
  8
0
 62
4
 10
-1.65081374E+02
 20
-2.32326230E+02
  0
VERTEX
  8
0
 62
4
 10
-1.65194883E+02
 20
-2.32457746E+02
  0
VERTEX
  8
0
 62
4
 10
-1.65284076E+02
 20
-2.32593510E+02
  0
VERTEX
  8
0
 62
4
 10
-1.65348274E+02
 20
-2.32732487E+02
  0
VERTEX
  8
0
 62
4
 10
-1.65386990E+02
 20
-2.32873622E+02
  0
VERTEX
  8
0
 62
4
 10
-1.65399928E+02
 20
-2.33015838E+02
  0
VERTEX
  8
0
 62
4
 10
-1.65386990E+02
 20
-2.33158054E+02
  0
VERTEX
  8
0
 62
4
 10
-1.65348274E+02
 20
-2.33299189E+02
  0
VERTEX
  8
0
 62
4
 10
-1.65284076E+02
 20
-2.33438166E+02
  0
VERTEX
  8
0
 62
4
 10
-1.65194883E+02
 20
-2.33573930E+02
  0
VERTEX
  8
0
 62
4
 10
-1.65081374E+02
 20
-2.33705446E+02
  0
VERTEX
  8
0
 62
4
 10
-1.64944414E+02
 20
-2.33831713E+02
  0
VERTEX
  8
0
 62
4
 10
-1.64785045E+02
 20
-2.33951772E+02
  0
VERTEX
  8
0
 62
4
 10
-1.64604479E+02
 20
-2.34064707E+02
  0
VERTEX
  8
0
 62
4
 10
-1.64404091E+02
 20
-2.34169660E+02
  0
VERTEX
  8
0
 62
4
 10
-1.64185406E+02
 20
-2.34265832E+02
  0
VERTEX
  8
0
 62
4
 10
-1.63950088E+02
 20
-2.34352490E+02
  0
VERTEX
  8
0
 62
4
 10
-1.63699928E+02
 20
-2.34428976E+02
  0
VERTEX
  8
0
 62
4
 10
-1.63436830E+02
 20
-2.34494706E+02
  0
VERTEX
  8
0
 62
4
 10
-1.63162796E+02
 20
-2.34549182E+02
  0
VERTEX
  8
0
 62
4
 10
-1.62879913E+02
 20
-2.34591988E+02
  0
VERTEX
  8
0
 62
4
 10
-1.62590332E+02
 20
-2.34622799E+02
  0
VERTEX
  8
0
 62
4
 10
-1.62296258E+02
 20
-2.34641380E+02
  0
VERTEX
  8
0
 62
4
 10
-1.61999928E+02
 20
-2.34647589E+02
  0
VERTEX
  8
0
 62
4
 10
-1.61703598E+02
 20
-2.34641380E+02
  0
VERTEX
  8
0
 62
4
 10
-1.61409524E+02
 20
-2.34622799E+02
  0
VERTEX
  8
0
 62
4
 10
-1.61119943E+02
 20
-2.34591988E+02
  0
VERTEX
  8
0
 62
4
 10
-1.60837060E+02
 20
-2.34549182E+02
  0
VERTEX
  8
0
 62
4
 10
-1.60563026E+02
 20
-2.34494706E+02
  0
VERTEX
  8
0
 62
4
 10
-1.60299928E+02
 20
-2.34428976E+02
  0
VERTEX
  8
0
 62
4
 10
-1.60049768E+02
 20
-2.34352490E+02
  0
VERTEX
  8
0
 62
4
 10
-1.59814450E+02
 20
-2.34265832E+02
  0
VERTEX
  8
0
 62
4
 10
-1.59595765E+02
 20
-2.34169660E+02
  0
VERTEX
  8
0
 62
4
 10
-1.59395377E+02
 20
-2.34064707E+02
  0
VERTEX
  8
0
 62
4
 10
-1.59214811E+02
 20
-2.33951772E+02
  0
VERTEX
  8
0
 62
4
 10
-1.59055442E+02
 20
-2.33831713E+02
  0
VERTEX
  8
0
 62
4
 10
-1.58918482E+02
 20
-2.33705446E+02
  0
VERTEX
  8
0
 62
4
 10
-1.58804973E+02
 20
-2.33573930E+02
  0
VERTEX
  8
0
 62
4
 10
-1.58715780E+02
 20
-2.33438166E+02
  0
VERTEX
  8
0
 62
4
 10
-1.58651582E+02
 20
-2.33299189E+02
  0
VERTEX
  8
0
 62
4
 10
-1.58612866E+02
 20
-2.33158054E+02
  0
VERTEX
  8
0
 62
4
 10
-1.58599928E+02
 20
-2.33015838E+02
  0
SEQEND
  8
0
  0
POLYLINE
  8
0
 62
4
 66
1
  0
VERTEX
  8
0
 62
4
 10
-1.47755349E+02
 20
-2.13896065E+02
  0
VERTEX
  8
0
 62
4
 10
-1.48016632E+02
 20
-2.14050134E+02
  0
VERTEX
  8
0
 62
4
 10
-1.48262064E+02
 20
-2.14224900E+02
  0
VERTEX
  8
0
 62
4
 10
-1.48489716E+02
 20
-2.14418989E+02
  0
VERTEX
  8
0
 62
4
 10
-1.48697799E+02
 20
-2.14630875E+02
  0
VERTEX
  8
0
 62
4
 10
-1.48884677E+02
 20
-2.14858892E+02
  0
VERTEX
  8
0
 62
4
 10
-1.49048881E+02
 20
-2.15101250E+02
  0
VERTEX
  8
0
 62
4
 10
-1.49189121E+02
 20
-2.15356042E+02
  0
VERTEX
  8
0
 62
4
 10
-1.49304294E+02
 20
-2.15621266E+02
  0
VERTEX
  8
0
 62
4
 10
-1.49393495E+02
 20
-2.15894838E+02
  0
VERTEX
  8
0
 62
4
 10
-1.49456023E+02
 20
-2.16174607E+02
  0
VERTEX
  8
0
 62
4
 10
-1.49491387E+02
 20
-2.16458374E+02
  0
VERTEX
  8
0
 62
4
 10
-1.49499309E+02
 20
-2.16743910E+02
  0
VERTEX
  8
0
 62
4
 10
-1.49479726E+02
 20
-2.17028969E+02
  0
VERTEX
  8
0
 62
4
 10
-1.49432792E+02
 20
-2.17311311E+02
  0
VERTEX
  8
0
 62
4
 10
-1.49358876E+02
 20
-2.17588717E+02
  0
VERTEX
  8
0
 62
4
 10
-1.49258560E+02
 20
-2.17859007E+02
  0
VERTEX
  8
0
 62
4
 10
-1.49132631E+02
 20
-2.18120056E+02
  0
VERTEX
  8
0
 62
4
 10
-1.48982080E+02
 20
-2.18369813E+02
  0
VERTEX
  8
0
 62
4
 10
-1.48808089E+02
 20
-2.18606313E+02
  0
VERTEX
  8
0
 62
4
 10
-1.48612026E+02
 20
-2.18827700E+02
  0
VERTEX
  8
0
 62
4
 10
-1.48395433E+02
 20
-2.19032231E+02
  0
VERTEX
  8
0
 62
4
 10
-1.48160012E+02
 20
-2.19218301E+02
  0
VERTEX
  8
0
 62
4
 10
-1.47907612E+02
 20
-2.19384445E+02
  0
VERTEX
  8
0
 62
4
 10
-1.47640218E+02
 20
-2.19529360E+02
  0
VERTEX
  8
0
 62
4
 10
-1.47359932E+02
 20
-2.19651904E+02
  0
VERTEX
  8
0
 62
4
 10
-1.47068957E+02
 20
-2.19751116E+02
  0
VERTEX
  8
0
 62
4
 10
-1.46769579E+02
 20
-2.19826216E+02
  0
VERTEX
  8
0
 62
4
 10
-1.46464152E+02
 20
-2.19876612E+02
  0
VERTEX
  8
0
 62
4
 10
-1.46155076E+02
 20
-2.19901910E+02
  0
VERTEX
  8
0
 62
4
 10
-1.45844780E+02
 20
-2.19901910E+02
  0
VERTEX
  8
0
 62
4
 10
-1.45535704E+02
 20
-2.19876612E+02
  0
VERTEX
  8
0
 62
4
 10
-1.45230277E+02
 20
-2.19826216E+02
  0
VERTEX
  8
0
 62
4
 10
-1.44930899E+02
 20
-2.19751116E+02
  0
VERTEX
  8
0
 62
4
 10
-1.44639924E+02
 20
-2.19651904E+02
  0
VERTEX
  8
0
 62
4
 10
-1.44359638E+02
 20
-2.19529360E+02
  0
VERTEX
  8
0
 62
4
 10
-1.44092244E+02
 20
-2.19384445E+02
  0
VERTEX
  8
0
 62
4
 10
-1.43839844E+02
 20
-2.19218301E+02
  0
VERTEX
  8
0
 62
4
 10
-1.43604423E+02
 20
-2.19032231E+02
  0
VERTEX
  8
0
 62
4
 10
-1.43387830E+02
 20
-2.18827700E+02
  0
VERTEX
  8
0
 62
4
 10
-1.43191767E+02
 20
-2.18606313E+02
  0
VERTEX
  8
0
 62
4
 10
-1.43017776E+02
 20
-2.18369813E+02
  0
VERTEX
  8
0
 62
4
 10
-1.42867225E+02
 20
-2.18120056E+02
  0
VERTEX
  8
0
 62
4
 10
-1.42741296E+02
 20
-2.17859007E+02
  0
VERTEX
  8
0
 62
4
 10
-1.42640980E+02
 20
-2.17588717E+02
  0
VERTEX
  8
0
 62
4
 10
-1.42567064E+02
 20
-2.17311311E+02
  0
VERTEX
  8
0
 62
4
 10
-1.42520130E+02
 20
-2.17028969E+02
  0
VERTEX
  8
0
 62
4
 10
-1.42500547E+02
 20
-2.16743910E+02
  0
VERTEX
  8
0
 62
4
 10
-1.42508469E+02
 20
-2.16458374E+02
  0
VERTEX
  8
0
 62
4
 10
-1.42543833E+02
 20
-2.16174607E+02
  0
VERTEX
  8
0
 62
4
 10
-1.42606361E+02
 20
-2.15894838E+02
  0
VERTEX
  8
0
 62
4
 10
-1.42695562E+02
 20
-2.15621266E+02
  0
VERTEX
  8
0
 62
4
 10
-1.42810735E+02
 20
-2.15356042E+02
  0
VERTEX
  8
0
 62
4
 10
-1.42950975E+02
 20
-2.15101250E+02
  0
VERTEX
  8
0
 62
4
 10
-1.43115179E+02
 20
-2.14858892E+02
  0
VERTEX
  8
0
 62
4
 10
-1.43302057E+02
 20
-2.14630875E+02
  0
VERTEX
  8
0
 62
4
 10
-1.43510140E+02
 20
-2.14418989E+02
  0
VERTEX
  8
0
 62
4
 10
-1.43737792E+02
 20
-2.14224900E+02
  0
VERTEX
  8
0
 62
4
 10
-1.43983224E+02
 20
-2.14050134E+02
  0
VERTEX
  8
0
 62
4
 10
-1.44244507E+02
 20
-2.13896065E+02
  0
SEQEND
  8
0
  0
POLYLINE
  8
0
 62
4
 66
1
  0
VERTEX
  8
0
 62
4
 10
-1.42859928E+02
 20
-2.16292578E+02
  0
VERTEX
  8
0
 62
4
 10
-1.42871877E+02
 20
-2.16040664E+02
  0
VERTEX
  8
0
 62
4
 10
-1.42907632E+02
 20
-2.15790668E+02
  0
VERTEX
  8
0
 62
4
 10
-1.42966921E+02
 20
-2.15544491E+02
  0
VERTEX
  8
0
 62
4
 10
-1.43049293E+02
 20
-2.15304008E+02
  0
VERTEX
  8
0
 62
4
 10
-1.43154122E+02
 20
-2.15071048E+02
  0
VERTEX
  8
0
 62
4
 10
-1.43280608E+02
 20
-2.14847385E+02
  0
VERTEX
  8
0
 62
4
 10
-1.43427791E+02
 20
-2.14634721E+02
  0
VERTEX
  8
0
 62
4
 10
-1.43594548E+02
 20
-2.14434674E+02
  0
VERTEX
  8
0
 62
4
 10
-1.43779613E+02
 20
-2.14248767E+02
  0
VERTEX
  8
0
 62
4
 10
-1.43981575E+02
 20
-2.14078414E+02
  0
VERTEX
  8
0
 62
4
 10
-1.44198898E+02
 20
-2.13924913E+02
  0
VERTEX
  8
0
 62
4
 10
-1.44429928E+02
 20
-2.13789431E+02
  0
VERTEX
  8
0
 62
4
 10
-1.44672907E+02
 20
-2.13672999E+02
  0
VERTEX
  8
0
 62
4
 10
-1.44925985E+02
 20
-2.13576504E+02
  0
VERTEX
  8
0
 62
4
 10
-1.45187236E+02
 20
-2.13500680E+02
  0
VERTEX
  8
0
 62
4
 10
-1.45454673E+02
 20
-2.13446104E+02
  0
VERTEX
  8
0
 62
4
 10
-1.45726259E+02
 20
-2.13413192E+02
  0
VERTEX
  8
0
 62
4
 10
-1.45999928E+02
 20
-2.13402193E+02
  0
VERTEX
  8
0
 62
4
 10
-1.46273597E+02
 20
-2.13413192E+02
  0
VERTEX
  8
0
 62
4
 10
-1.46545183E+02
 20
-2.13446104E+02
  0
VERTEX
  8
0
 62
4
 10
-1.46812620E+02
 20
-2.13500680E+02
  0
VERTEX
  8
0
 62
4
 10
-1.47073871E+02
 20
-2.13576504E+02
  0
VERTEX
  8
0
 62
4
 10
-1.47326949E+02
 20
-2.13672999E+02
  0
VERTEX
  8
0
 62
4
 10
-1.47569928E+02
 20
-2.13789431E+02
  0
VERTEX
  8
0
 62
4
 10
-1.47800958E+02
 20
-2.13924913E+02
  0
VERTEX
  8
0
 62
4
 10
-1.48018281E+02
 20
-2.14078414E+02
  0
VERTEX
  8
0
 62
4
 10
-1.48220243E+02
 20
-2.14248767E+02
  0
VERTEX
  8
0
 62
4
 10
-1.48405308E+02
 20
-2.14434674E+02
  0
VERTEX
  8
0
 62
4
 10
-1.48572065E+02
 20
-2.14634721E+02
  0
VERTEX
  8
0
 62
4
 10
-1.48719248E+02
 20
-2.14847385E+02
  0
VERTEX
  8
0
 62
4
 10
-1.48845734E+02
 20
-2.15071048E+02
  0
VERTEX
  8
0
 62
4
 10
-1.48950563E+02
 20
-2.15304008E+02
  0
VERTEX
  8
0
 62
4
 10
-1.49032935E+02
 20
-2.15544491E+02
  0
VERTEX
  8
0
 62
4
 10
-1.49092224E+02
 20
-2.15790668E+02
  0
VERTEX
  8
0
 62
4
 10
-1.49127979E+02
 20
-2.16040664E+02
  0
VERTEX
  8
0
 62
4
 10
-1.49139928E+02
 20
-2.16292578E+02
  0
VERTEX
  8
0
 62
4
 10
-1.49127979E+02
 20
-2.16544492E+02
  0
VERTEX
  8
0
 62
4
 10
-1.49092224E+02
 20
-2.16794488E+02
  0
VERTEX
  8
0
 62
4
 10
-1.49032935E+02
 20
-2.17040665E+02
  0
VERTEX
  8
0
 62
4
 10
-1.48950563E+02
 20
-2.17281148E+02
  0
VERTEX
  8
0
 62
4
 10
-1.48845734E+02
 20
-2.17514108E+02
  0
VERTEX
  8
0
 62
4
 10
-1.48719248E+02
 20
-2.17737771E+02
  0
VERTEX
  8
0
 62
4
 10
-1.48572065E+02
 20
-2.17950435E+02
  0
VERTEX
  8
0
 62
4
 10
-1.48405308E+02
 20
-2.18150482E+02
  0
VERTEX
  8
0
 62
4
 10
-1.48220243E+02
 20
-2.18336389E+02
  0
VERTEX
  8
0
 62
4
 10
-1.48018281E+02
 20
-2.18506742E+02
  0
VERTEX
  8
0
 62
4
 10
-1.47800958E+02
 20
-2.18660243E+02
  0
VERTEX
  8
0
 62
4
 10
-1.47569928E+02
 20
-2.18795725E+02
  0
VERTEX
  8
0
 62
4
 10
-1.47326949E+02
 20
-2.18912157E+02
  0
VERTEX
  8
0
 62
4
 10
-1.47073871E+02
 20
-2.19008652E+02
  0
VERTEX
  8
0
 62
4
 10
-1.46812620E+02
 20
-2.19084476E+02
  0
VERTEX
  8
0
 62
4
 10
-1.46545183E+02
 20
-2.19139052E+02
  0
VERTEX
  8
0
 62
4
 10
-1.46273597E+02
 20
-2.19171964E+02
  0
VERTEX
  8
0
 62
4
 10
-1.45999928E+02
 20
-2.19182963E+02
  0
VERTEX
  8
0
 62
4
 10
-1.45726259E+02
 20
-2.19171964E+02
  0
VERTEX
  8
0
 62
4
 10
-1.45454673E+02
 20
-2.19139052E+02
  0
VERTEX
  8
0
 62
4
 10
-1.45187236E+02
 20
-2.19084476E+02
  0
VERTEX
  8
0
 62
4
 10
-1.44925985E+02
 20
-2.19008652E+02
  0
VERTEX
  8
0
 62
4
 10
-1.44672907E+02
 20
-2.18912157E+02
  0
VERTEX
  8
0
 62
4
 10
-1.44429928E+02
 20
-2.18795725E+02
  0
VERTEX
  8
0
 62
4
 10
-1.44198898E+02
 20
-2.18660243E+02
  0
VERTEX
  8
0
 62
4
 10
-1.43981575E+02
 20
-2.18506742E+02
  0
VERTEX
  8
0
 62
4
 10
-1.43779613E+02
 20
-2.18336389E+02
  0
VERTEX
  8
0
 62
4
 10
-1.43594548E+02
 20
-2.18150482E+02
  0
VERTEX
  8
0
 62
4
 10
-1.43427791E+02
 20
-2.17950435E+02
  0
VERTEX
  8
0
 62
4
 10
-1.43280608E+02
 20
-2.17737771E+02
  0
VERTEX
  8
0
 62
4
 10
-1.43154122E+02
 20
-2.17514108E+02
  0
VERTEX
  8
0
 62
4
 10
-1.43049293E+02
 20
-2.17281148E+02
  0
VERTEX
  8
0
 62
4
 10
-1.42966921E+02
 20
-2.17040665E+02
  0
VERTEX
  8
0
 62
4
 10
-1.42907632E+02
 20
-2.16794488E+02
  0
VERTEX
  8
0
 62
4
 10
-1.42871877E+02
 20
-2.16544492E+02
  0
VERTEX
  8
0
 62
4
 10
-1.42859928E+02
 20
-2.16292578E+02
  0
SEQEND
  8
0
  0
LINE
  8
0
 62
4
 10
-1.71499928E+02
 20
-2.25428087E+02
 11
-1.52499928E+02
 21
-2.25428087E+02
  0
ARC
  8
0
 62
4
 10
-1.36499924E+02
 20
-2.26229367E+02
 40
1.49999664E+00
 50
2.69999872E+02
 51
1.28225561E-04
  0
ARC
  8
0
 62
4
 10
-1.72499927E+02
 20
-2.26229364E+02
 40
1.50000046E+00
 50
1.80000018E+02
 51
2.69999983E+02
  0
LINE
  8
0
 62
4
 10
3.83500225E+02
 20
-4.09403729E+02
 11
3.98500225E+02
 21
-4.09403729E+02
  0
LINE
  8
0
 62
4
 10
3.83500225E+02
 20
-4.34339361E+02
 11
3.98500225E+02
 21
-4.34339361E+02
  0
LINE
  8
0
 62
4
 10
3.84500225E+02
 20
-4.23368156E+02
 11
3.97500225E+02
 21
-4.23368156E+02
  0
LINE
  8
0
 62
4
 10
3.98500225E+02
 20
-4.06670965E+02
 11
3.98500225E+02
 21
-4.34339361E+02
  0
LINE
  8
0
 62
4
 10
3.83500225E+02
 20
-4.06670965E+02
 11
3.83500225E+02
 21
-4.34339361E+02
  0
LINE
  8
0
  6
CENTER
 62
6
 10
3.95000225E+02
 20
-4.25970354E+02
 11
3.95000225E+02
 21
-4.35970354E+02
  0
LINE
  8
0
  6
CENTER
 62
6
 10
3.87000225E+02
 20
-4.25970354E+02
 11
3.87000225E+02
 21
-4.35970354E+02
  0
LINE
  8
0
  6
CENTER
 62
6
 10
3.82000225E+02
 20
-4.30970354E+02
 11
4.00000225E+02
 21
-4.30970354E+02
  0
LINE
  8
0
 62
4
 10
4.11500225E+02
 20
-3.72299087E+02
 11
4.08000225E+02
 21
-3.72299087E+02
  0
LINE
  8
0
 62
4
 10
4.01500225E+02
 20
-4.02733879E+02
 11
3.65500225E+02
 21
-4.02733879E+02
  0
LINE
  8
0
 62
4
 10
4.18000225E+02
 20
-3.71145279E+02
 11
4.13000225E+02
 21
-3.71145279E+02
  0
LINE
  8
0
 62
4
 10
3.98500225E+02
 20
-3.71049087E+02
 11
4.07500225E+02
 21
-3.71049087E+02
  0
LINE
  8
0
 62
4
 10
4.08000225E+02
 20
-3.71549087E+02
 11
4.08000225E+02
 21
-3.84549087E+02
  0
LINE
  8
0
 62
4
 10
4.18000225E+02
 20
-3.71145279E+02
 11
4.18000225E+02
 21
-3.84962056E+02
  0
LINE
  8
0
 62
4
 10
4.13000225E+02
 20
-3.71145279E+02
 11
4.13000225E+02
 21
-3.84962056E+02
  0
LINE
  8
0
 62
4
 10
4.13000225E+02
 20
-3.71799087E+02
 11
4.08000225E+02
 21
-3.71799087E+02
  0
LINE
  8
0
 62
4
 10
4.13000225E+02
 20
-3.84299087E+02
 11
4.08000225E+02
 21
-3.84299087E+02
  0
LINE
  8
0
 62
4
 10
4.11500225E+02
 20
-3.71799087E+02
 11
4.11500225E+02
 21
-3.84299087E+02
  0
LINE
  8
0
 62
4
 10
4.11500225E+02
 20
-3.83799087E+02
 11
4.08000225E+02
 21
-3.83799087E+02
  0
LINE
  8
0
 62
4
 10
4.07500225E+02
 20
-3.85049087E+02
 11
3.99000225E+02
 21
-3.85049087E+02
  0
LINE
  8
0
 62
4
 10
3.83500225E+02
 20
-4.17717023E+02
 11
3.64000225E+02
 21
-4.17717023E+02
  0
LINE
  8
0
 62
4
 10
3.98500225E+02
 20
-3.75456519E+02
 11
3.83500225E+02
 21
-3.75456519E+02
  0
LINE
  8
0
 62
4
 10
4.00500225E+02
 20
-3.99250603E+02
 11
3.81500225E+02
 21
-3.99250603E+02
  0
LINE
  8
0
 62
4
 10
4.03000225E+02
 20
-3.96809998E+02
 11
4.03000225E+02
 21
-4.17733879E+02
  0
LINE
  8
0
 62
4
 10
4.03000225E+02
 20
-4.17717023E+02
 11
3.98500225E+02
 21
-4.17717023E+02
  0
LINE
  8
0
 62
4
 10
4.00500225E+02
 20
-3.99250603E+02
 11
4.00500225E+02
 21
-4.02733879E+02
  0
LINE
  8
0
 62
4
 10
3.83500225E+02
 20
-3.69595552E+02
 11
3.83500225E+02
 21
-3.99250603E+02
  0
LINE
  8
0
 62
4
 10
3.98500225E+02
 20
-3.69595552E+02
 11
3.98500225E+02
 21
-3.99250603E+02
  0
LINE
  8
0
 62
4
 10
3.81500225E+02
 20
-3.99250603E+02
 11
3.81500225E+02
 21
-4.02733879E+02
  0
LINE
  8
0
 62
4
 10
3.98500225E+02
 20
-3.97548636E+02
 11
3.83500225E+02
 21
-3.97548636E+02
  0
LINE
  8
0
 62
4
 10
3.64000225E+02
 20
-3.96809998E+02
 11
3.64000225E+02
 21
-4.17733879E+02
  0
ARC
  8
0
 62
4
 10
4.01500217E+02
 20
-4.04233887E+02
 40
1.50000856E+00
 50
3.27119593E-04
 51
8.99996730E+01
  0
ARC
  8
0
 62
4
 10
4.07500237E+02
 20
-3.84549099E+02
 40
4.99988098E-01
 50
2.69998636E+02
 51
1.36386840E-03
  0
ARC
  8
0
 62
4
 10
4.07500213E+02
 20
-3.71549099E+02
 40
5.00011902E-01
 50
1.36383594E-03
 51
8.99986360E+01
  0
ARC
  8
0
 62
4
 10
3.99000239E+02
 20
-3.85549101E+02
 40
5.00013809E-01
 50
9.00015821E+01
 51
1.79998418E+02
  0
ARC
  8
0
 62
4
 10
3.65500234E+02
 20
-4.04233887E+02
 40
1.50000856E+00
 50
9.00003273E+01
 51
1.79999673E+02
  0
LINE
  8
0
 62
4
 10
3.98500225E+02
 20
-3.69595552E+02
 11
3.83500225E+02
 21
-3.69595552E+02
  0
ARC
  8
0
 62
4
 10
4.01500217E+02
 20
-3.96810007E+02
 40
1.50000856E+00
 50
3.27119593E-04
 51
8.99996730E+01
  0
LINE
  8
0
 62
4
 10
4.01500225E+02
 20
-3.95309998E+02
 11
3.98500225E+02
 21
-3.95309998E+02
  0
ARC
  8
0
 62
4
 10
3.65500234E+02
 20
-3.96810007E+02
 40
1.50000856E+00
 50
9.00003273E+01
 51
1.79999673E+02
  0
LINE
  8
0
 62
4
 10
3.83500225E+02
 20
-3.95309998E+02
 11
3.65500225E+02
 21
-3.95309998E+02
  0
LINE
  8
0
 62
4
 10
3.83500225E+02
 20
-4.16336266E+02
 11
3.64000225E+02
 21
-4.16336266E+02
  0
LINE
  8
0
 62
4
 10
4.03000225E+02
 20
-4.16336266E+02
 11
3.98500225E+02
 21
-4.16336266E+02
  0
LINE
  8
0
 62
4
 10
3.64000225E+02
 20
-4.17717023E+02
 11
3.65808947E+02
 21
-4.19230216E+02
  0
LINE
  8
0
 62
4
 10
4.01191503E+02
 20
-4.19230216E+02
 11
4.03000225E+02
 21
-4.17717023E+02
  0
LINE
  8
0
 62
4
 10
3.83500225E+02
 20
-4.06670965E+02
 11
3.98500225E+02
 21
-4.06670965E+02
  0
POLYLINE
  8
0
 62
4
 66
1
  0
VERTEX
  8
0
 62
4
 10
3.88725457E+02
 20
-4.31134983E+02
  0
VERTEX
  8
0
 62
4
 10
3.88807311E+02
 20
-4.30992558E+02
  0
VERTEX
  8
0
 62
4
 10
3.88875323E+02
 20
-4.30844091E+02
  0
VERTEX
  8
0
 62
4
 10
3.88928972E+02
 20
-4.30690719E+02
  0
VERTEX
  8
0
 62
4
 10
3.88967847E+02
 20
-4.30533616E+02
  0
VERTEX
  8
0
 62
4
 10
3.88991650E+02
 20
-4.30373986E+02
  0
VERTEX
  8
0
 62
4
 10
3.89000199E+02
 20
-4.30213051E+02
  0
VERTEX
  8
0
 62
4
 10
3.88993428E+02
 20
-4.30052045E+02
  0
VERTEX
  8
0
 62
4
 10
3.88971390E+02
 20
-4.29892200E+02
  0
VERTEX
  8
0
 62
4
 10
3.88934252E+02
 20
-4.29734741E+02
  0
VERTEX
  8
0
 62
4
 10
3.88882301E+02
 20
-4.29580875E+02
  0
VERTEX
  8
0
 62
4
 10
3.88815932E+02
 20
-4.29431779E+02
  0
VERTEX
  8
0
 62
4
 10
3.88735655E+02
 20
-4.29288596E+02
  0
VERTEX
  8
0
 62
4
 10
3.88642085E+02
 20
-4.29152422E+02
  0
VERTEX
  8
0
 62
4
 10
3.88535939E+02
 20
-4.29024301E+02
  0
VERTEX
  8
0
 62
4
 10
3.88418029E+02
 20
-4.28905214E+02
  0
VERTEX
  8
0
 62
4
 10
3.88289259E+02
 20
-4.28796073E+02
  0
VERTEX
  8
0
 62
4
 10
3.88150615E+02
 20
-4.28697715E+02
  0
VERTEX
  8
0
 62
4
 10
3.88003159E+02
 20
-4.28610892E+02
  0
VERTEX
  8
0
 62
4
 10
3.87848021E+02
 20
-4.28536270E+02
  0
VERTEX
  8
0
 62
4
 10
3.87686388E+02
 20
-4.28474420E+02
  0
VERTEX
  8
0
 62
4
 10
3.87519500E+02
 20
-4.28425817E+02
  0
VERTEX
  8
0
 62
4
 10
3.87348634E+02
 20
-4.28390831E+02
  0
VERTEX
  8
0
 62
4
 10
3.87175099E+02
 20
-4.28369732E+02
  0
VERTEX
  8
0
 62
4
 10
3.87000225E+02
 20
-4.28362681E+02
  0
VERTEX
  8
0
 62
4
 10
3.86825351E+02
 20
-4.28369732E+02
  0
VERTEX
  8
0
 62
4
 10
3.86651816E+02
 20
-4.28390831E+02
  0
VERTEX
  8
0
 62
4
 10
3.86480950E+02
 20
-4.28425817E+02
  0
VERTEX
  8
0
 62
4
 10
3.86314062E+02
 20
-4.28474420E+02
  0
VERTEX
  8
0
 62
4
 10
3.86152429E+02
 20
-4.28536270E+02
  0
VERTEX
  8
0
 62
4
 10
3.85997291E+02
 20
-4.28610892E+02
  0
VERTEX
  8
0
 62
4
 10
3.85849835E+02
 20
-4.28697715E+02
  0
VERTEX
  8
0
 62
4
 10
3.85711191E+02
 20
-4.28796073E+02
  0
VERTEX
  8
0
 62
4
 10
3.85582421E+02
 20
-4.28905214E+02
  0
VERTEX
  8
0
 62
4
 10
3.85464511E+02
 20
-4.29024301E+02
  0
VERTEX
  8
0
 62
4
 10
3.85358365E+02
 20
-4.29152422E+02
  0
VERTEX
  8
0
 62
4
 10
3.85264795E+02
 20
-4.29288596E+02
  0
VERTEX
  8
0
 62
4
 10
3.85184518E+02
 20
-4.29431779E+02
  0
VERTEX
  8
0
 62
4
 10
3.85118149E+02
 20
-4.29580875E+02
  0
VERTEX
  8
0
 62
4
 10
3.85066198E+02
 20
-4.29734741E+02
  0
VERTEX
  8
0
 62
4
 10
3.85029060E+02
 20
-4.29892200E+02
  0
VERTEX
  8
0
 62
4
 10
3.85007022E+02
 20
-4.30052045E+02
  0
VERTEX
  8
0
 62
4
 10
3.85000251E+02
 20
-4.30213051E+02
  0
VERTEX
  8
0
 62
4
 10
3.85008800E+02
 20
-4.30373986E+02
  0
VERTEX
  8
0
 62
4
 10
3.85032603E+02
 20
-4.30533616E+02
  0
VERTEX
  8
0
 62
4
 10
3.85071478E+02
 20
-4.30690719E+02
  0
VERTEX
  8
0
 62
4
 10
3.85125127E+02
 20
-4.30844091E+02
  0
VERTEX
  8
0
 62
4
 10
3.85193139E+02
 20
-4.30992558E+02
  0
VERTEX
  8
0
 62
4
 10
3.85274993E+02
 20
-4.31134983E+02
  0
SEQEND
  8
0
  0
POLYLINE
  8
0
 62
6
 66
1
  0
VERTEX
  8
0
 62
6
 10
3.88500225E+02
 20
-4.30970354E+02
  0
VERTEX
  8
0
 62
6
 10
3.88494517E+02
 20
-4.30850013E+02
  0
VERTEX
  8
0
 62
6
 10
3.88477437E+02
 20
-4.30730588E+02
  0
VERTEX
  8
0
 62
6
 10
3.88449114E+02
 20
-4.30612988E+02
  0
VERTEX
  8
0
 62
6
 10
3.88409764E+02
 20
-4.30498107E+02
  0
VERTEX
  8
0
 62
6
 10
3.88359687E+02
 20
-4.30386821E+02
  0
VERTEX
  8
0
 62
6
 10
3.88299263E+02
 20
-4.30279975E+02
  0
VERTEX
  8
0
 62
6
 10
3.88228953E+02
 20
-4.30178384E+02
  0
VERTEX
  8
0
 62
6
 10
3.88149292E+02
 20
-4.30082820E+02
  0
VERTEX
  8
0
 62
6
 10
3.88060885E+02
 20
-4.29994011E+02
  0
VERTEX
  8
0
 62
6
 10
3.87964406E+02
 20
-4.29912633E+02
  0
VERTEX
  8
0
 62
6
 10
3.87860590E+02
 20
-4.29839304E+02
  0
VERTEX
  8
0
 62
6
 10
3.87750225E+02
 20
-4.29774583E+02
  0
VERTEX
  8
0
 62
6
 10
3.87634152E+02
 20
-4.29718963E+02
  0
VERTEX
  8
0
 62
6
 10
3.87513255E+02
 20
-4.29672867E+02
  0
VERTEX
  8
0
 62
6
 10
3.87388454E+02
 20
-4.29636645E+02
  0
VERTEX
  8
0
 62
6
 10
3.87260697E+02
 20
-4.29610574E+02
  0
VERTEX
  8
0
 62
6
 10
3.87130959E+02
 20
-4.29594851E+02
  0
VERTEX
  8
0
 62
6
 10
3.87000225E+02
 20
-4.29589597E+02
  0
VERTEX
  8
0
 62
6
 10
3.86869491E+02
 20
-4.29594851E+02
  0
VERTEX
  8
0
 62
6
 10
3.86739753E+02
 20
-4.29610574E+02
  0
VERTEX
  8
0
 62
6
 10
3.86611996E+02
 20
-4.29636645E+02
  0
VERTEX
  8
0
 62
6
 10
3.86487195E+02
 20
-4.29672867E+02
  0
VERTEX
  8
0
 62
6
 10
3.86366298E+02
 20
-4.29718963E+02
  0
VERTEX
  8
0
 62
6
 10
3.86250225E+02
 20
-4.29774583E+02
  0
VERTEX
  8
0
 62
6
 10
3.86139860E+02
 20
-4.29839304E+02
  0
VERTEX
  8
0
 62
6
 10
3.86036044E+02
 20
-4.29912633E+02
  0
VERTEX
  8
0
 62
6
 10
3.85939565E+02
 20
-4.29994011E+02
  0
VERTEX
  8
0
 62
6
 10
3.85851158E+02
 20
-4.30082820E+02
  0
VERTEX
  8
0
 62
6
 10
3.85771497E+02
 20
-4.30178384E+02
  0
VERTEX
  8
0
 62
6
 10
3.85701187E+02
 20
-4.30279975E+02
  0
VERTEX
  8
0
 62
6
 10
3.85640763E+02
 20
-4.30386821E+02
  0
VERTEX
  8
0
 62
6
 10
3.85590686E+02
 20
-4.30498107E+02
  0
VERTEX
  8
0
 62
6
 10
3.85551336E+02
 20
-4.30612988E+02
  0
VERTEX
  8
0
 62
6
 10
3.85523013E+02
 20
-4.30730588E+02
  0
VERTEX
  8
0
 62
6
 10
3.85505933E+02
 20
-4.30850013E+02
  0
VERTEX
  8
0
 62
6
 10
3.85500225E+02
 20
-4.30970354E+02
  0
VERTEX
  8
0
 62
6
 10
3.85505933E+02
 20
-4.31090695E+02
  0
VERTEX
  8
0
 62
6
 10
3.85523013E+02
 20
-4.31210120E+02
  0
VERTEX
  8
0
 62
6
 10
3.85551336E+02
 20
-4.31327720E+02
  0
VERTEX
  8
0
 62
6
 10
3.85590686E+02
 20
-4.31442601E+02
  0
VERTEX
  8
0
 62
6
 10
3.85640763E+02
 20
-4.31553887E+02
  0
VERTEX
  8
0
 62
6
 10
3.85701187E+02
 20
-4.31660733E+02
  0
VERTEX
  8
0
 62
6
 10
3.85771497E+02
 20
-4.31762324E+02
  0
VERTEX
  8
0
 62
6
 10
3.85851158E+02
 20
-4.31857888E+02
  0
VERTEX
  8
0
 62
6
 10
3.85939565E+02
 20
-4.31946697E+02
  0
VERTEX
  8
0
 62
6
 10
3.86036044E+02
 20
-4.32028075E+02
  0
VERTEX
  8
0
 62
6
 10
3.86139860E+02
 20
-4.32101404E+02
  0
VERTEX
  8
0
 62
6
 10
3.86250225E+02
 20
-4.32166125E+02
  0
VERTEX
  8
0
 62
6
 10
3.86366298E+02
 20
-4.32221745E+02
  0
VERTEX
  8
0
 62
6
 10
3.86487195E+02
 20
-4.32267841E+02
  0
VERTEX
  8
0
 62
6
 10
3.86611996E+02
 20
-4.32304063E+02
  0
VERTEX
  8
0
 62
6
 10
3.86739753E+02
 20
-4.32330134E+02
  0
VERTEX
  8
0
 62
6
 10
3.86869491E+02
 20
-4.32345857E+02
  0
VERTEX
  8
0
 62
6
 10
3.87000225E+02
 20
-4.32351111E+02
  0
VERTEX
  8
0
 62
6
 10
3.87130959E+02
 20
-4.32345857E+02
  0
VERTEX
  8
0
 62
6
 10
3.87260697E+02
 20
-4.32330134E+02
  0
VERTEX
  8
0
 62
6
 10
3.87388454E+02
 20
-4.32304063E+02
  0
VERTEX
  8
0
 62
6
 10
3.87513255E+02
 20
-4.32267841E+02
  0
VERTEX
  8
0
 62
6
 10
3.87634152E+02
 20
-4.32221745E+02
  0
VERTEX
  8
0
 62
6
 10
3.87750225E+02
 20
-4.32166125E+02
  0
VERTEX
  8
0
 62
6
 10
3.87860590E+02
 20
-4.32101404E+02
  0
VERTEX
  8
0
 62
6
 10
3.87964406E+02
 20
-4.32028075E+02
  0
VERTEX
  8
0
 62
6
 10
3.88060885E+02
 20
-4.31946697E+02
  0
VERTEX
  8
0
 62
6
 10
3.88149292E+02
 20
-4.31857888E+02
  0
VERTEX
  8
0
 62
6
 10
3.88228953E+02
 20
-4.31762324E+02
  0
VERTEX
  8
0
 62
6
 10
3.88299263E+02
 20
-4.31660733E+02
  0
VERTEX
  8
0
 62
6
 10
3.88359687E+02
 20
-4.31553887E+02
  0
VERTEX
  8
0
 62
6
 10
3.88409764E+02
 20
-4.31442601E+02
  0
VERTEX
  8
0
 62
6
 10
3.88449114E+02
 20
-4.31327720E+02
  0
VERTEX
  8
0
 62
6
 10
3.88477437E+02
 20
-4.31210120E+02
  0
VERTEX
  8
0
 62
6
 10
3.88494517E+02
 20
-4.31090695E+02
  0
VERTEX
  8
0
 62
6
 10
3.88500225E+02
 20
-4.30970354E+02
  0
SEQEND
  8
0
  0
POLYLINE
  8
0
 62
4
 66
1
  0
VERTEX
  8
0
 62
4
 10
3.88735225E+02
 20
-4.30965752E+02
  0
VERTEX
  8
0
 62
4
 10
3.88728623E+02
 20
-4.30826558E+02
  0
VERTEX
  8
0
 62
4
 10
3.88708866E+02
 20
-4.30688423E+02
  0
VERTEX
  8
0
 62
4
 10
3.88676106E+02
 20
-4.30552398E+02
  0
VERTEX
  8
0
 62
4
 10
3.88630592E+02
 20
-4.30419520E+02
  0
VERTEX
  8
0
 62
4
 10
3.88572669E+02
 20
-4.30290799E+02
  0
VERTEX
  8
0
 62
4
 10
3.88502779E+02
 20
-4.30167214E+02
  0
VERTEX
  8
0
 62
4
 10
3.88421454E+02
 20
-4.30049707E+02
  0
VERTEX
  8
0
 62
4
 10
3.88329312E+02
 20
-4.29939171E+02
  0
VERTEX
  8
0
 62
4
 10
3.88227055E+02
 20
-4.29836449E+02
  0
VERTEX
  8
0
 62
4
 10
3.88115462E+02
 20
-4.29742321E+02
  0
VERTEX
  8
0
 62
4
 10
3.87995380E+02
 20
-4.29657504E+02
  0
VERTEX
  8
0
 62
4
 10
3.87867725E+02
 20
-4.29582644E+02
  0
VERTEX
  8
0
 62
4
 10
3.87733468E+02
 20
-4.29518310E+02
  0
VERTEX
  8
0
 62
4
 10
3.87593630E+02
 20
-4.29464992E+02
  0
VERTEX
  8
0
 62
4
 10
3.87449276E+02
 20
-4.29423095E+02
  0
VERTEX
  8
0
 62
4
 10
3.87301505E+02
 20
-4.29392939E+02
  0
VERTEX
  8
0
 62
4
 10
3.87151440E+02
 20
-4.29374753E+02
  0
VERTEX
  8
0
 62
4
 10
3.87000225E+02
 20
-4.29368676E+02
  0
VERTEX
  8
0
 62
4
 10
3.86849010E+02
 20
-4.29374753E+02
  0
VERTEX
  8
0
 62
4
 10
3.86698945E+02
 20
-4.29392939E+02
  0
VERTEX
  8
0
 62
4
 10
3.86551174E+02
 20
-4.29423095E+02
  0
VERTEX
  8
0
 62
4
 10
3.86406820E+02
 20
-4.29464992E+02
  0
VERTEX
  8
0
 62
4
 10
3.86266982E+02
 20
-4.29518310E+02
  0
VERTEX
  8
0
 62
4
 10
3.86132725E+02
 20
-4.29582644E+02
  0
VERTEX
  8
0
 62
4
 10
3.86005070E+02
 20
-4.29657504E+02
  0
VERTEX
  8
0
 62
4
 10
3.85884988E+02
 20
-4.29742321E+02
  0
VERTEX
  8
0
 62
4
 10
3.85773395E+02
 20
-4.29836449E+02
  0
VERTEX
  8
0
 62
4
 10
3.85671138E+02
 20
-4.29939171E+02
  0
VERTEX
  8
0
 62
4
 10
3.85578996E+02
 20
-4.30049707E+02
  0
VERTEX
  8
0
 62
4
 10
3.85497671E+02
 20
-4.30167214E+02
  0
VERTEX
  8
0
 62
4
 10
3.85427781E+02
 20
-4.30290799E+02
  0
VERTEX
  8
0
 62
4
 10
3.85369858E+02
 20
-4.30419520E+02
  0
VERTEX
  8
0
 62
4
 10
3.85324344E+02
 20
-4.30552398E+02
  0
VERTEX
  8
0
 62
4
 10
3.85291584E+02
 20
-4.30688423E+02
  0
VERTEX
  8
0
 62
4
 10
3.85271827E+02
 20
-4.30826558E+02
  0
VERTEX
  8
0
 62
4
 10
3.85265225E+02
 20
-4.30965752E+02
  0
VERTEX
  8
0
 62
4
 10
3.85271827E+02
 20
-4.31104946E+02
  0
VERTEX
  8
0
 62
4
 10
3.85291584E+02
 20
-4.31243081E+02
  0
VERTEX
  8
0
 62
4
 10
3.85324344E+02
 20
-4.31379106E+02
  0
VERTEX
  8
0
 62
4
 10
3.85369858E+02
 20
-4.31511984E+02
  0
VERTEX
  8
0
 62
4
 10
3.85427781E+02
 20
-4.31640705E+02
  0
VERTEX
  8
0
 62
4
 10
3.85497671E+02
 20
-4.31764290E+02
  0
VERTEX
  8
0
 62
4
 10
3.85578996E+02
 20
-4.31881797E+02
  0
VERTEX
  8
0
 62
4
 10
3.85671138E+02
 20
-4.31992333E+02
  0
VERTEX
  8
0
 62
4
 10
3.85773395E+02
 20
-4.32095055E+02
  0
VERTEX
  8
0
 62
4
 10
3.85884988E+02
 20
-4.32189183E+02
  0
VERTEX
  8
0
 62
4
 10
3.86005070E+02
 20
-4.32274000E+02
  0
VERTEX
  8
0
 62
4
 10
3.86132725E+02
 20
-4.32348860E+02
  0
VERTEX
  8
0
 62
4
 10
3.86266982E+02
 20
-4.32413194E+02
  0
VERTEX
  8
0
 62
4
 10
3.86406820E+02
 20
-4.32466512E+02
  0
VERTEX
  8
0
 62
4
 10
3.86551174E+02
 20
-4.32508409E+02
  0
VERTEX
  8
0
 62
4
 10
3.86698945E+02
 20
-4.32538565E+02
  0
VERTEX
  8
0
 62
4
 10
3.86849010E+02
 20
-4.32556751E+02
  0
VERTEX
  8
0
 62
4
 10
3.87000225E+02
 20
-4.32562828E+02
  0
VERTEX
  8
0
 62
4
 10
3.87151440E+02
 20
-4.32556751E+02
  0
VERTEX
  8
0
 62
4
 10
3.87301505E+02
 20
-4.32538565E+02
  0
VERTEX
  8
0
 62
4
 10
3.87449276E+02
 20
-4.32508409E+02
  0
VERTEX
  8
0
 62
4
 10
3.87593630E+02
 20
-4.32466512E+02
  0
VERTEX
  8
0
 62
4
 10
3.87733468E+02
 20
-4.32413194E+02
  0
VERTEX
  8
0
 62
4
 10
3.87867725E+02
 20
-4.32348860E+02
  0
VERTEX
  8
0
 62
4
 10
3.87995380E+02
 20
-4.32274000E+02
  0
VERTEX
  8
0
 62
4
 10
3.88115462E+02
 20
-4.32189183E+02
  0
VERTEX
  8
0
 62
4
 10
3.88227055E+02
 20
-4.32095055E+02
  0
VERTEX
  8
0
 62
4
 10
3.88329312E+02
 20
-4.31992333E+02
  0
VERTEX
  8
0
 62
4
 10
3.88421454E+02
 20
-4.31881797E+02
  0
VERTEX
  8
0
 62
4
 10
3.88502779E+02
 20
-4.31764290E+02
  0
VERTEX
  8
0
 62
4
 10
3.88572669E+02
 20
-4.31640705E+02
  0
VERTEX
  8
0
 62
4
 10
3.88630592E+02
 20
-4.31511984E+02
  0
VERTEX
  8
0
 62
4
 10
3.88676106E+02
 20
-4.31379106E+02
  0
VERTEX
  8
0
 62
4
 10
3.88708866E+02
 20
-4.31243081E+02
  0
VERTEX
  8
0
 62
4
 10
3.88728623E+02
 20
-4.31104946E+02
  0
VERTEX
  8
0
 62
4
 10
3.88735225E+02
 20
-4.30965752E+02
  0
SEQEND
  8
0
  0
POLYLINE
  8
0
 62
4
 66
1
  0
VERTEX
  8
0
 62
4
 10
3.96725457E+02
 20
-4.31134983E+02
  0
VERTEX
  8
0
 62
4
 10
3.96807311E+02
 20
-4.30992558E+02
  0
VERTEX
  8
0
 62
4
 10
3.96875323E+02
 20
-4.30844091E+02
  0
VERTEX
  8
0
 62
4
 10
3.96928972E+02
 20
-4.30690719E+02
  0
VERTEX
  8
0
 62
4
 10
3.96967847E+02
 20
-4.30533616E+02
  0
VERTEX
  8
0
 62
4
 10
3.96991650E+02
 20
-4.30373986E+02
  0
VERTEX
  8
0
 62
4
 10
3.97000199E+02
 20
-4.30213051E+02
  0
VERTEX
  8
0
 62
4
 10
3.96993428E+02
 20
-4.30052045E+02
  0
VERTEX
  8
0
 62
4
 10
3.96971390E+02
 20
-4.29892200E+02
  0
VERTEX
  8
0
 62
4
 10
3.96934252E+02
 20
-4.29734741E+02
  0
VERTEX
  8
0
 62
4
 10
3.96882301E+02
 20
-4.29580875E+02
  0
VERTEX
  8
0
 62
4
 10
3.96815932E+02
 20
-4.29431779E+02
  0
VERTEX
  8
0
 62
4
 10
3.96735655E+02
 20
-4.29288596E+02
  0
VERTEX
  8
0
 62
4
 10
3.96642085E+02
 20
-4.29152422E+02
  0
VERTEX
  8
0
 62
4
 10
3.96535939E+02
 20
-4.29024301E+02
  0
VERTEX
  8
0
 62
4
 10
3.96418029E+02
 20
-4.28905214E+02
  0
VERTEX
  8
0
 62
4
 10
3.96289259E+02
 20
-4.28796073E+02
  0
VERTEX
  8
0
 62
4
 10
3.96150615E+02
 20
-4.28697715E+02
  0
VERTEX
  8
0
 62
4
 10
3.96003159E+02
 20
-4.28610892E+02
  0
VERTEX
  8
0
 62
4
 10
3.95848021E+02
 20
-4.28536270E+02
  0
VERTEX
  8
0
 62
4
 10
3.95686388E+02
 20
-4.28474420E+02
  0
VERTEX
  8
0
 62
4
 10
3.95519500E+02
 20
-4.28425817E+02
  0
VERTEX
  8
0
 62
4
 10
3.95348634E+02
 20
-4.28390831E+02
  0
VERTEX
  8
0
 62
4
 10
3.95175099E+02
 20
-4.28369732E+02
  0
VERTEX
  8
0
 62
4
 10
3.95000225E+02
 20
-4.28362681E+02
  0
VERTEX
  8
0
 62
4
 10
3.94825351E+02
 20
-4.28369732E+02
  0
VERTEX
  8
0
 62
4
 10
3.94651816E+02
 20
-4.28390831E+02
  0
VERTEX
  8
0
 62
4
 10
3.94480950E+02
 20
-4.28425817E+02
  0
VERTEX
  8
0
 62
4
 10
3.94314062E+02
 20
-4.28474420E+02
  0
VERTEX
  8
0
 62
4
 10
3.94152429E+02
 20
-4.28536270E+02
  0
VERTEX
  8
0
 62
4
 10
3.93997291E+02
 20
-4.28610892E+02
  0
VERTEX
  8
0
 62
4
 10
3.93849835E+02
 20
-4.28697715E+02
  0
VERTEX
  8
0
 62
4
 10
3.93711191E+02
 20
-4.28796073E+02
  0
VERTEX
  8
0
 62
4
 10
3.93582421E+02
 20
-4.28905214E+02
  0
VERTEX
  8
0
 62
4
 10
3.93464511E+02
 20
-4.29024301E+02
  0
VERTEX
  8
0
 62
4
 10
3.93358365E+02
 20
-4.29152422E+02
  0
VERTEX
  8
0
 62
4
 10
3.93264795E+02
 20
-4.29288596E+02
  0
VERTEX
  8
0
 62
4
 10
3.93184518E+02
 20
-4.29431779E+02
  0
VERTEX
  8
0
 62
4
 10
3.93118149E+02
 20
-4.29580875E+02
  0
VERTEX
  8
0
 62
4
 10
3.93066198E+02
 20
-4.29734741E+02
  0
VERTEX
  8
0
 62
4
 10
3.93029060E+02
 20
-4.29892200E+02
  0
VERTEX
  8
0
 62
4
 10
3.93007022E+02
 20
-4.30052045E+02
  0
VERTEX
  8
0
 62
4
 10
3.93000251E+02
 20
-4.30213051E+02
  0
VERTEX
  8
0
 62
4
 10
3.93008800E+02
 20
-4.30373986E+02
  0
VERTEX
  8
0
 62
4
 10
3.93032603E+02
 20
-4.30533616E+02
  0
VERTEX
  8
0
 62
4
 10
3.93071478E+02
 20
-4.30690719E+02
  0
VERTEX
  8
0
 62
4
 10
3.93125127E+02
 20
-4.30844091E+02
  0
VERTEX
  8
0
 62
4
 10
3.93193139E+02
 20
-4.30992558E+02
  0
VERTEX
  8
0
 62
4
 10
3.93274993E+02
 20
-4.31134983E+02
  0
SEQEND
  8
0
  0
POLYLINE
  8
0
 62
6
 66
1
  0
VERTEX
  8
0
 62
6
 10
3.96500225E+02
 20
-4.30970354E+02
  0
VERTEX
  8
0
 62
6
 10
3.96494517E+02
 20
-4.30850013E+02
  0
VERTEX
  8
0
 62
6
 10
3.96477437E+02
 20
-4.30730588E+02
  0
VERTEX
  8
0
 62
6
 10
3.96449114E+02
 20
-4.30612988E+02
  0
VERTEX
  8
0
 62
6
 10
3.96409764E+02
 20
-4.30498107E+02
  0
VERTEX
  8
0
 62
6
 10
3.96359687E+02
 20
-4.30386821E+02
  0
VERTEX
  8
0
 62
6
 10
3.96299263E+02
 20
-4.30279975E+02
  0
VERTEX
  8
0
 62
6
 10
3.96228953E+02
 20
-4.30178384E+02
  0
VERTEX
  8
0
 62
6
 10
3.96149292E+02
 20
-4.30082820E+02
  0
VERTEX
  8
0
 62
6
 10
3.96060885E+02
 20
-4.29994011E+02
  0
VERTEX
  8
0
 62
6
 10
3.95964406E+02
 20
-4.29912633E+02
  0
VERTEX
  8
0
 62
6
 10
3.95860590E+02
 20
-4.29839304E+02
  0
VERTEX
  8
0
 62
6
 10
3.95750225E+02
 20
-4.29774583E+02
  0
VERTEX
  8
0
 62
6
 10
3.95634152E+02
 20
-4.29718963E+02
  0
VERTEX
  8
0
 62
6
 10
3.95513255E+02
 20
-4.29672867E+02
  0
VERTEX
  8
0
 62
6
 10
3.95388454E+02
 20
-4.29636645E+02
  0
VERTEX
  8
0
 62
6
 10
3.95260697E+02
 20
-4.29610574E+02
  0
VERTEX
  8
0
 62
6
 10
3.95130959E+02
 20
-4.29594851E+02
  0
VERTEX
  8
0
 62
6
 10
3.95000225E+02
 20
-4.29589597E+02
  0
VERTEX
  8
0
 62
6
 10
3.94869491E+02
 20
-4.29594851E+02
  0
VERTEX
  8
0
 62
6
 10
3.94739753E+02
 20
-4.29610574E+02
  0
VERTEX
  8
0
 62
6
 10
3.94611996E+02
 20
-4.29636645E+02
  0
VERTEX
  8
0
 62
6
 10
3.94487195E+02
 20
-4.29672867E+02
  0
VERTEX
  8
0
 62
6
 10
3.94366298E+02
 20
-4.29718963E+02
  0
VERTEX
  8
0
 62
6
 10
3.94250225E+02
 20
-4.29774583E+02
  0
VERTEX
  8
0
 62
6
 10
3.94139860E+02
 20
-4.29839304E+02
  0
VERTEX
  8
0
 62
6
 10
3.94036044E+02
 20
-4.29912633E+02
  0
VERTEX
  8
0
 62
6
 10
3.93939565E+02
 20
-4.29994011E+02
  0
VERTEX
  8
0
 62
6
 10
3.93851158E+02
 20
-4.30082820E+02
  0
VERTEX
  8
0
 62
6
 10
3.93771497E+02
 20
-4.30178384E+02
  0
VERTEX
  8
0
 62
6
 10
3.93701187E+02
 20
-4.30279975E+02
  0
VERTEX
  8
0
 62
6
 10
3.93640763E+02
 20
-4.30386821E+02
  0
VERTEX
  8
0
 62
6
 10
3.93590686E+02
 20
-4.30498107E+02
  0
VERTEX
  8
0
 62
6
 10
3.93551336E+02
 20
-4.30612988E+02
  0
VERTEX
  8
0
 62
6
 10
3.93523013E+02
 20
-4.30730588E+02
  0
VERTEX
  8
0
 62
6
 10
3.93505933E+02
 20
-4.30850013E+02
  0
VERTEX
  8
0
 62
6
 10
3.93500225E+02
 20
-4.30970354E+02
  0
VERTEX
  8
0
 62
6
 10
3.93505933E+02
 20
-4.31090695E+02
  0
VERTEX
  8
0
 62
6
 10
3.93523013E+02
 20
-4.31210120E+02
  0
VERTEX
  8
0
 62
6
 10
3.93551336E+02
 20
-4.31327720E+02
  0
VERTEX
  8
0
 62
6
 10
3.93590686E+02
 20
-4.31442601E+02
  0
VERTEX
  8
0
 62
6
 10
3.93640763E+02
 20
-4.31553887E+02
  0
VERTEX
  8
0
 62
6
 10
3.93701187E+02
 20
-4.31660733E+02
  0
VERTEX
  8
0
 62
6
 10
3.93771497E+02
 20
-4.31762324E+02
  0
VERTEX
  8
0
 62
6
 10
3.93851158E+02
 20
-4.31857888E+02
  0
VERTEX
  8
0
 62
6
 10
3.93939565E+02
 20
-4.31946697E+02
  0
VERTEX
  8
0
 62
6
 10
3.94036044E+02
 20
-4.32028075E+02
  0
VERTEX
  8
0
 62
6
 10
3.94139860E+02
 20
-4.32101404E+02
  0
VERTEX
  8
0
 62
6
 10
3.94250225E+02
 20
-4.32166125E+02
  0
VERTEX
  8
0
 62
6
 10
3.94366298E+02
 20
-4.32221745E+02
  0
VERTEX
  8
0
 62
6
 10
3.94487195E+02
 20
-4.32267841E+02
  0
VERTEX
  8
0
 62
6
 10
3.94611996E+02
 20
-4.32304063E+02
  0
VERTEX
  8
0
 62
6
 10
3.94739753E+02
 20
-4.32330134E+02
  0
VERTEX
  8
0
 62
6
 10
3.94869491E+02
 20
-4.32345857E+02
  0
VERTEX
  8
0
 62
6
 10
3.95000225E+02
 20
-4.32351111E+02
  0
VERTEX
  8
0
 62
6
 10
3.95130959E+02
 20
-4.32345857E+02
  0
VERTEX
  8
0
 62
6
 10
3.95260697E+02
 20
-4.32330134E+02
  0
VERTEX
  8
0
 62
6
 10
3.95388454E+02
 20
-4.32304063E+02
  0
VERTEX
  8
0
 62
6
 10
3.95513255E+02
 20
-4.32267841E+02
  0
VERTEX
  8
0
 62
6
 10
3.95634152E+02
 20
-4.32221745E+02
  0
VERTEX
  8
0
 62
6
 10
3.95750225E+02
 20
-4.32166125E+02
  0
VERTEX
  8
0
 62
6
 10
3.95860590E+02
 20
-4.32101404E+02
  0
VERTEX
  8
0
 62
6
 10
3.95964406E+02
 20
-4.32028075E+02
  0
VERTEX
  8
0
 62
6
 10
3.96060885E+02
 20
-4.31946697E+02
  0
VERTEX
  8
0
 62
6
 10
3.96149292E+02
 20
-4.31857888E+02
  0
VERTEX
  8
0
 62
6
 10
3.96228953E+02
 20
-4.31762324E+02
  0
VERTEX
  8
0
 62
6
 10
3.96299263E+02
 20
-4.31660733E+02
  0
VERTEX
  8
0
 62
6
 10
3.96359687E+02
 20
-4.31553887E+02
  0
VERTEX
  8
0
 62
6
 10
3.96409764E+02
 20
-4.31442601E+02
  0
VERTEX
  8
0
 62
6
 10
3.96449114E+02
 20
-4.31327720E+02
  0
VERTEX
  8
0
 62
6
 10
3.96477437E+02
 20
-4.31210120E+02
  0
VERTEX
  8
0
 62
6
 10
3.96494517E+02
 20
-4.31090695E+02
  0
VERTEX
  8
0
 62
6
 10
3.96500225E+02
 20
-4.30970354E+02
  0
SEQEND
  8
0
  0
POLYLINE
  8
0
 62
4
 66
1
  0
VERTEX
  8
0
 62
4
 10
3.96735225E+02
 20
-4.30965752E+02
  0
VERTEX
  8
0
 62
4
 10
3.96728623E+02
 20
-4.30826558E+02
  0
VERTEX
  8
0
 62
4
 10
3.96708866E+02
 20
-4.30688423E+02
  0
VERTEX
  8
0
 62
4
 10
3.96676106E+02
 20
-4.30552398E+02
  0
VERTEX
  8
0
 62
4
 10
3.96630592E+02
 20
-4.30419520E+02
  0
VERTEX
  8
0
 62
4
 10
3.96572669E+02
 20
-4.30290799E+02
  0
VERTEX
  8
0
 62
4
 10
3.96502779E+02
 20
-4.30167214E+02
  0
VERTEX
  8
0
 62
4
 10
3.96421454E+02
 20
-4.30049707E+02
  0
VERTEX
  8
0
 62
4
 10
3.96329312E+02
 20
-4.29939171E+02
  0
VERTEX
  8
0
 62
4
 10
3.96227055E+02
 20
-4.29836449E+02
  0
VERTEX
  8
0
 62
4
 10
3.96115462E+02
 20
-4.29742321E+02
  0
VERTEX
  8
0
 62
4
 10
3.95995380E+02
 20
-4.29657504E+02
  0
VERTEX
  8
0
 62
4
 10
3.95867725E+02
 20
-4.29582644E+02
  0
VERTEX
  8
0
 62
4
 10
3.95733468E+02
 20
-4.29518310E+02
  0
VERTEX
  8
0
 62
4
 10
3.95593630E+02
 20
-4.29464992E+02
  0
VERTEX
  8
0
 62
4
 10
3.95449276E+02
 20
-4.29423095E+02
  0
VERTEX
  8
0
 62
4
 10
3.95301505E+02
 20
-4.29392939E+02
  0
VERTEX
  8
0
 62
4
 10
3.95151440E+02
 20
-4.29374753E+02
  0
VERTEX
  8
0
 62
4
 10
3.95000225E+02
 20
-4.29368676E+02
  0
VERTEX
  8
0
 62
4
 10
3.94849010E+02
 20
-4.29374753E+02
  0
VERTEX
  8
0
 62
4
 10
3.94698945E+02
 20
-4.29392939E+02
  0
VERTEX
  8
0
 62
4
 10
3.94551174E+02
 20
-4.29423095E+02
  0
VERTEX
  8
0
 62
4
 10
3.94406820E+02
 20
-4.29464992E+02
  0
VERTEX
  8
0
 62
4
 10
3.94266982E+02
 20
-4.29518310E+02
  0
VERTEX
  8
0
 62
4
 10
3.94132725E+02
 20
-4.29582644E+02
  0
VERTEX
  8
0
 62
4
 10
3.94005070E+02
 20
-4.29657504E+02
  0
VERTEX
  8
0
 62
4
 10
3.93884988E+02
 20
-4.29742321E+02
  0
VERTEX
  8
0
 62
4
 10
3.93773395E+02
 20
-4.29836449E+02
  0
VERTEX
  8
0
 62
4
 10
3.93671138E+02
 20
-4.29939171E+02
  0
VERTEX
  8
0
 62
4
 10
3.93578996E+02
 20
-4.30049707E+02
  0
VERTEX
  8
0
 62
4
 10
3.93497671E+02
 20
-4.30167214E+02
  0
VERTEX
  8
0
 62
4
 10
3.93427781E+02
 20
-4.30290799E+02
  0
VERTEX
  8
0
 62
4
 10
3.93369858E+02
 20
-4.30419520E+02
  0
VERTEX
  8
0
 62
4
 10
3.93324344E+02
 20
-4.30552398E+02
  0
VERTEX
  8
0
 62
4
 10
3.93291584E+02
 20
-4.30688423E+02
  0
VERTEX
  8
0
 62
4
 10
3.93271827E+02
 20
-4.30826558E+02
  0
VERTEX
  8
0
 62
4
 10
3.93265225E+02
 20
-4.30965752E+02
  0
VERTEX
  8
0
 62
4
 10
3.93271827E+02
 20
-4.31104946E+02
  0
VERTEX
  8
0
 62
4
 10
3.93291584E+02
 20
-4.31243081E+02
  0
VERTEX
  8
0
 62
4
 10
3.93324344E+02
 20
-4.31379106E+02
  0
VERTEX
  8
0
 62
4
 10
3.93369858E+02
 20
-4.31511984E+02
  0
VERTEX
  8
0
 62
4
 10
3.93427781E+02
 20
-4.31640705E+02
  0
VERTEX
  8
0
 62
4
 10
3.93497671E+02
 20
-4.31764290E+02
  0
VERTEX
  8
0
 62
4
 10
3.93578996E+02
 20
-4.31881797E+02
  0
VERTEX
  8
0
 62
4
 10
3.93671138E+02
 20
-4.31992333E+02
  0
VERTEX
  8
0
 62
4
 10
3.93773395E+02
 20
-4.32095055E+02
  0
VERTEX
  8
0
 62
4
 10
3.93884988E+02
 20
-4.32189183E+02
  0
VERTEX
  8
0
 62
4
 10
3.94005070E+02
 20
-4.32274000E+02
  0
VERTEX
  8
0
 62
4
 10
3.94132725E+02
 20
-4.32348860E+02
  0
VERTEX
  8
0
 62
4
 10
3.94266982E+02
 20
-4.32413194E+02
  0
VERTEX
  8
0
 62
4
 10
3.94406820E+02
 20
-4.32466512E+02
  0
VERTEX
  8
0
 62
4
 10
3.94551174E+02
 20
-4.32508409E+02
  0
VERTEX
  8
0
 62
4
 10
3.94698945E+02
 20
-4.32538565E+02
  0
VERTEX
  8
0
 62
4
 10
3.94849010E+02
 20
-4.32556751E+02
  0
VERTEX
  8
0
 62
4
 10
3.95000225E+02
 20
-4.32562828E+02
  0
VERTEX
  8
0
 62
4
 10
3.95151440E+02
 20
-4.32556751E+02
  0
VERTEX
  8
0
 62
4
 10
3.95301505E+02
 20
-4.32538565E+02
  0
VERTEX
  8
0
 62
4
 10
3.95449276E+02
 20
-4.32508409E+02
  0
VERTEX
  8
0
 62
4
 10
3.95593630E+02
 20
-4.32466512E+02
  0
VERTEX
  8
0
 62
4
 10
3.95733468E+02
 20
-4.32413194E+02
  0
VERTEX
  8
0
 62
4
 10
3.95867725E+02
 20
-4.32348860E+02
  0
VERTEX
  8
0
 62
4
 10
3.95995380E+02
 20
-4.32274000E+02
  0
VERTEX
  8
0
 62
4
 10
3.96115462E+02
 20
-4.32189183E+02
  0
VERTEX
  8
0
 62
4
 10
3.96227055E+02
 20
-4.32095055E+02
  0
VERTEX
  8
0
 62
4
 10
3.96329312E+02
 20
-4.31992333E+02
  0
VERTEX
  8
0
 62
4
 10
3.96421454E+02
 20
-4.31881797E+02
  0
VERTEX
  8
0
 62
4
 10
3.96502779E+02
 20
-4.31764290E+02
  0
VERTEX
  8
0
 62
4
 10
3.96572669E+02
 20
-4.31640705E+02
  0
VERTEX
  8
0
 62
4
 10
3.96630592E+02
 20
-4.31511984E+02
  0
VERTEX
  8
0
 62
4
 10
3.96676106E+02
 20
-4.31379106E+02
  0
VERTEX
  8
0
 62
4
 10
3.96708866E+02
 20
-4.31243081E+02
  0
VERTEX
  8
0
 62
4
 10
3.96728623E+02
 20
-4.31104946E+02
  0
VERTEX
  8
0
 62
4
 10
3.96735225E+02
 20
-4.30965752E+02
  0
SEQEND
  8
0
  0
LINE
  8
0
 62
4
 10
3.65500234E+02
 20
-4.01652547E+02
 11
3.65500234E+02
 21
-3.96612093E+02
  0
LINE
  8
0
 62
4
 10
4.01500225E+02
 20
-4.01652547E+02
 11
4.01500225E+02
 21
-3.96612093E+02
  0
LINE
  8
0
 62
4
 10
4.18000225E+02
 20
-3.77136924E+02
 11
4.13000225E+02
 21
-3.77136924E+02
  0
LINE
  8
0
 62
4
 10
4.18000225E+02
 20
-3.84049916E+02
 11
4.13000225E+02
 21
-3.84049916E+02
  0
LINE
  8
0
 62
4
 10
4.18000225E+02
 20
-3.84962056E+02
 11
4.13000225E+02
 21
-3.84962056E+02
  0
LINE
  8
0
  6
CENTER
 62
6
 10
3.75000225E+02
 20
-3.94466975E+02
 11
3.75000225E+02
 21
-3.98300172E+02
  0
POLYLINE
  8
0
 62
4
 66
1
  0
VERTEX
  8
0
 62
4
 10
3.78140225E+02
 20
-3.98300172E+02
  0
VERTEX
  8
0
 62
4
 10
3.78128276E+02
 20
-3.98193241E+02
  0
VERTEX
  8
0
 62
4
 10
3.78092521E+02
 20
-3.98087124E+02
  0
VERTEX
  8
0
 62
4
 10
3.78033232E+02
 20
-3.97982628E+02
  0
VERTEX
  8
0
 62
4
 10
3.77950860E+02
 20
-3.97880549E+02
  0
VERTEX
  8
0
 62
4
 10
3.77846031E+02
 20
-3.97781663E+02
  0
VERTEX
  8
0
 62
4
 10
3.77719545E+02
 20
-3.97686724E+02
  0
VERTEX
  8
0
 62
4
 10
3.77572362E+02
 20
-3.97596454E+02
  0
VERTEX
  8
0
 62
4
 10
3.77405605E+02
 20
-3.97511539E+02
  0
VERTEX
  8
0
 62
4
 10
3.77220540E+02
 20
-3.97432626E+02
  0
VERTEX
  8
0
 62
4
 10
3.77018578E+02
 20
-3.97360315E+02
  0
VERTEX
  8
0
 62
4
 10
3.76801255E+02
 20
-3.97295158E+02
  0
VERTEX
  8
0
 62
4
 10
3.76570225E+02
 20
-3.97237649E+02
  0
VERTEX
  8
0
 62
4
 10
3.76327246E+02
 20
-3.97188227E+02
  0
VERTEX
  8
0
 62
4
 10
3.76074168E+02
 20
-3.97147267E+02
  0
VERTEX
  8
0
 62
4
 10
3.75812917E+02
 20
-3.97115082E+02
  0
VERTEX
  8
0
 62
4
 10
3.75545480E+02
 20
-3.97091916E+02
  0
VERTEX
  8
0
 62
4
 10
3.75273894E+02
 20
-3.97077945E+02
  0
VERTEX
  8
0
 62
4
 10
3.75000225E+02
 20
-3.97073276E+02
  0
VERTEX
  8
0
 62
4
 10
3.74726556E+02
 20
-3.97077945E+02
  0
VERTEX
  8
0
 62
4
 10
3.74454970E+02
 20
-3.97091916E+02
  0
VERTEX
  8
0
 62
4
 10
3.74187533E+02
 20
-3.97115082E+02
  0
VERTEX
  8
0
 62
4
 10
3.73926282E+02
 20
-3.97147267E+02
  0
VERTEX
  8
0
 62
4
 10
3.73673204E+02
 20
-3.97188227E+02
  0
VERTEX
  8
0
 62
4
 10
3.73430225E+02
 20
-3.97237649E+02
  0
VERTEX
  8
0
 62
4
 10
3.73199195E+02
 20
-3.97295158E+02
  0
VERTEX
  8
0
 62
4
 10
3.72981872E+02
 20
-3.97360315E+02
  0
VERTEX
  8
0
 62
4
 10
3.72779910E+02
 20
-3.97432626E+02
  0
VERTEX
  8
0
 62
4
 10
3.72594845E+02
 20
-3.97511539E+02
  0
VERTEX
  8
0
 62
4
 10
3.72428088E+02
 20
-3.97596454E+02
  0
VERTEX
  8
0
 62
4
 10
3.72280905E+02
 20
-3.97686724E+02
  0
VERTEX
  8
0
 62
4
 10
3.72154419E+02
 20
-3.97781663E+02
  0
VERTEX
  8
0
 62
4
 10
3.72049590E+02
 20
-3.97880549E+02
  0
VERTEX
  8
0
 62
4
 10
3.71967218E+02
 20
-3.97982628E+02
  0
VERTEX
  8
0
 62
4
 10
3.71907929E+02
 20
-3.98087124E+02
  0
VERTEX
  8
0
 62
4
 10
3.71872174E+02
 20
-3.98193241E+02
  0
VERTEX
  8
0
 62
4
 10
3.71860225E+02
 20
-3.98300172E+02
  0
VERTEX
  8
0
 62
4
 10
3.71872174E+02
 20
-3.98407103E+02
  0
VERTEX
  8
0
 62
4
 10
3.71907929E+02
 20
-3.98513220E+02
  0
VERTEX
  8
0
 62
4
 10
3.71967218E+02
 20
-3.98617716E+02
  0
VERTEX
  8
0
 62
4
 10
3.72049590E+02
 20
-3.98719795E+02
  0
VERTEX
  8
0
 62
4
 10
3.72154419E+02
 20
-3.98818681E+02
  0
VERTEX
  8
0
 62
4
 10
3.72280905E+02
 20
-3.98913620E+02
  0
VERTEX
  8
0
 62
4
 10
3.72428088E+02
 20
-3.99003890E+02
  0
VERTEX
  8
0
 62
4
 10
3.72594845E+02
 20
-3.99088805E+02
  0
VERTEX
  8
0
 62
4
 10
3.72779910E+02
 20
-3.99167718E+02
  0
VERTEX
  8
0
 62
4
 10
3.72981872E+02
 20
-3.99240029E+02
  0
VERTEX
  8
0
 62
4
 10
3.73199195E+02
 20
-3.99305186E+02
  0
VERTEX
  8
0
 62
4
 10
3.73430225E+02
 20
-3.99362695E+02
  0
VERTEX
  8
0
 62
4
 10
3.73673204E+02
 20
-3.99412117E+02
  0
VERTEX
  8
0
 62
4
 10
3.73926282E+02
 20
-3.99453077E+02
  0
VERTEX
  8
0
 62
4
 10
3.74187533E+02
 20
-3.99485262E+02
  0
VERTEX
  8
0
 62
4
 10
3.74454970E+02
 20
-3.99508428E+02
  0
VERTEX
  8
0
 62
4
 10
3.74726556E+02
 20
-3.99522399E+02
  0
VERTEX
  8
0
 62
4
 10
3.75000225E+02
 20
-3.99527068E+02
  0
VERTEX
  8
0
 62
4
 10
3.75273894E+02
 20
-3.99522399E+02
  0
VERTEX
  8
0
 62
4
 10
3.75545480E+02
 20
-3.99508428E+02
  0
VERTEX
  8
0
 62
4
 10
3.75812917E+02
 20
-3.99485262E+02
  0
VERTEX
  8
0
 62
4
 10
3.76074168E+02
 20
-3.99453077E+02
  0
VERTEX
  8
0
 62
4
 10
3.76327246E+02
 20
-3.99412117E+02
  0
VERTEX
  8
0
 62
4
 10
3.76570225E+02
 20
-3.99362695E+02
  0
VERTEX
  8
0
 62
4
 10
3.76801255E+02
 20
-3.99305186E+02
  0
VERTEX
  8
0
 62
4
 10
3.77018578E+02
 20
-3.99240029E+02
  0
VERTEX
  8
0
 62
4
 10
3.77220540E+02
 20
-3.99167718E+02
  0
VERTEX
  8
0
 62
4
 10
3.77405605E+02
 20
-3.99088805E+02
  0
VERTEX
  8
0
 62
4
 10
3.77572362E+02
 20
-3.99003890E+02
  0
VERTEX
  8
0
 62
4
 10
3.77719545E+02
 20
-3.98913620E+02
  0
VERTEX
  8
0
 62
4
 10
3.77846031E+02
 20
-3.98818681E+02
  0
VERTEX
  8
0
 62
4
 10
3.77950860E+02
 20
-3.98719795E+02
  0
VERTEX
  8
0
 62
4
 10
3.78033232E+02
 20
-3.98617716E+02
  0
VERTEX
  8
0
 62
4
 10
3.78092521E+02
 20
-3.98513220E+02
  0
VERTEX
  8
0
 62
4
 10
3.78128276E+02
 20
-3.98407103E+02
  0
VERTEX
  8
0
 62
4
 10
3.78140225E+02
 20
-3.98300172E+02
  0
SEQEND
  8
0
  0
POLYLINE
  8
0
 62
4
 66
1
  0
VERTEX
  8
0
 62
4
 10
3.71552925E+02
 20
-3.98984254E+02
  0
VERTEX
  8
0
 62
4
 10
3.71512651E+02
 20
-3.99105544E+02
  0
VERTEX
  8
0
 62
4
 10
3.71500272E+02
 20
-3.99227755E+02
  0
VERTEX
  8
0
 62
4
 10
3.71515887E+02
 20
-3.99349909E+02
  0
VERTEX
  8
0
 62
4
 10
3.71559372E+02
 20
-3.99471030E+02
  0
VERTEX
  8
0
 62
4
 10
3.71630379E+02
 20
-3.99590148E+02
  0
VERTEX
  8
0
 62
4
 10
3.71728339E+02
 20
-3.99706311E+02
  0
VERTEX
  8
0
 62
4
 10
3.71852469E+02
 20
-3.99818589E+02
  0
VERTEX
  8
0
 62
4
 10
3.72001777E+02
 20
-3.99926086E+02
  0
VERTEX
  8
0
 62
4
 10
3.72175067E+02
 20
-4.00027940E+02
  0
VERTEX
  8
0
 62
4
 10
3.72370955E+02
 20
-4.00123337E+02
  0
VERTEX
  8
0
 62
4
 10
3.72587873E+02
 20
-4.00211514E+02
  0
VERTEX
  8
0
 62
4
 10
3.72824085E+02
 20
-4.00291766E+02
  0
VERTEX
  8
0
 62
4
 10
3.73077704E+02
 20
-4.00363451E+02
  0
VERTEX
  8
0
 62
4
 10
3.73346700E+02
 20
-4.00425996E+02
  0
VERTEX
  8
0
 62
4
 10
3.73628922E+02
 20
-4.00478900E+02
  0
VERTEX
  8
0
 62
4
 10
3.73922112E+02
 20
-4.00521740E+02
  0
VERTEX
  8
0
 62
4
 10
3.74223925E+02
 20
-4.00554173E+02
  0
VERTEX
  8
0
 62
4
 10
3.74531947E+02
 20
-4.00575941E+02
  0
VERTEX
  8
0
 62
4
 10
3.74843715E+02
 20
-4.00586868E+02
  0
VERTEX
  8
0
 62
4
 10
3.75156735E+02
 20
-4.00586868E+02
  0
VERTEX
  8
0
 62
4
 10
3.75468503E+02
 20
-4.00575941E+02
  0
VERTEX
  8
0
 62
4
 10
3.75776525E+02
 20
-4.00554173E+02
  0
VERTEX
  8
0
 62
4
 10
3.76078338E+02
 20
-4.00521740E+02
  0
VERTEX
  8
0
 62
4
 10
3.76371528E+02
 20
-4.00478900E+02
  0
VERTEX
  8
0
 62
4
 10
3.76653750E+02
 20
-4.00425996E+02
  0
VERTEX
  8
0
 62
4
 10
3.76922746E+02
 20
-4.00363451E+02
  0
VERTEX
  8
0
 62
4
 10
3.77176364E+02
 20
-4.00291766E+02
  0
VERTEX
  8
0
 62
4
 10
3.77412577E+02
 20
-4.00211514E+02
  0
VERTEX
  8
0
 62
4
 10
3.77629495E+02
 20
-4.00123337E+02
  0
VERTEX
  8
0
 62
4
 10
3.77825383E+02
 20
-4.00027940E+02
  0
VERTEX
  8
0
 62
4
 10
3.77998673E+02
 20
-3.99926086E+02
  0
VERTEX
  8
0
 62
4
 10
3.78147981E+02
 20
-3.99818589E+02
  0
VERTEX
  8
0
 62
4
 10
3.78272111E+02
 20
-3.99706311E+02
  0
VERTEX
  8
0
 62
4
 10
3.78370071E+02
 20
-3.99590148E+02
  0
VERTEX
  8
0
 62
4
 10
3.78441078E+02
 20
-3.99471030E+02
  0
VERTEX
  8
0
 62
4
 10
3.78484563E+02
 20
-3.99349909E+02
  0
VERTEX
  8
0
 62
4
 10
3.78500178E+02
 20
-3.99227755E+02
  0
VERTEX
  8
0
 62
4
 10
3.78487799E+02
 20
-3.99105544E+02
  0
VERTEX
  8
0
 62
4
 10
3.78447525E+02
 20
-3.98984254E+02
  0
SEQEND
  8
0
  0
LINE
  8
0
 62
4
 10
3.71860225E+02
 20
-3.98300172E+02
 11
3.71552925E+02
 21
-3.98984253E+02
  0
LINE
  8
0
 62
4
 10
3.78140225E+02
 20
-3.98300172E+02
 11
3.78447525E+02
 21
-3.98984253E+02
  0
LINE
  8
0
  6
CENTER
 62
2
 10
-6.11499905E+02
 20
-4.09544898E+02
 11
-6.11499905E+02
 21
-4.38268591E+02
  0
LINE
  8
0
  6
CENTER
 62
2
 10
-5.96944439E+02
 20
-4.23730231E+02
 11
-6.26190914E+02
 21
-4.23730231E+02
  0
LINE
  8
0
  6
CENTER
 62
2
 10
-6.81499981E+02
 20
-4.09544898E+02
 11
-6.81499981E+02
 21
-4.38268591E+02
  0
LINE
  8
0
  6
CENTER
 62
2
 10
-6.96055447E+02
 20
-4.23730231E+02
 11
-6.66808971E+02
 21
-4.23730231E+02
  0
TEXT
  8
0
 62
7
 10
5.10428434E+02
 20
1.66458496E+01
 40
1.25000000E+01
  1
(mm)
 41
1.00000000E+00
  7
MONOTXT
  0
TEXT
  8
0
 62
7
 10
-1.23571566E+02
 20
1.66458496E+01
 40
1.25000000E+01
  1
STRETCH LIST
 41
1.05263158E+00
  7
MONOTXT
  0
TEXT
  8
0
 62
7
 10
5.15428434E+02
 20
-2.83541504E+01
 40
1.25000000E+01
  1
925
 41
1.00000000E+00
  7
MONOTXT
  0
TEXT
  8
0
 62
7
 10
4.52928434E+02
 20
-2.83541504E+01
 40
1.25000000E+01
  1
825
 41
1.00000000E+00
  7
MONOTXT
  0
TEXT
  8
0
 62
7
 10
3.90428434E+02
 20
-2.83541504E+01
 40
1.25000000E+01
  1
725
 41
1.00000000E+00
  7
MONOTXT
  0
TEXT
  8
0
 62
7
 10
3.27928434E+02
 20
-2.83541504E+01
 40
1.25000000E+01
  1
625
 41
1.00000000E+00
  7
MONOTXT
  0
TEXT
  8
0
 62
7
 10
2.65428434E+02
 20
-2.83541504E+01
 40
1.25000000E+01
  1
525
 41
1.00000000E+00
  7
MONOTXT
  0
TEXT
  8
0
 62
7
 10
2.02928435E+02
 20
-2.83541504E+01
 40
1.25000000E+01
  1
425
 41
1.00000000E+00
  7
MONOTXT
  0
TEXT
  8
0
 62
7
 10
1.40428435E+02
 20
-2.83541504E+01
 40
1.25000000E+01
  1
375
 41
1.00000000E+00
  7
MONOTXT
  0
TEXT
  8
0
 62
7
 10
7.79284342E+01
 20
-2.83541504E+01
 40
1.25000000E+01
  1
325
 41
1.00000000E+00
  7
MONOTXT
  0
TEXT
  8
0
 62
7
 10
1.54284342E+01
 20
-2.83541504E+01
 40
1.25000000E+01
  1
275
 41
1.00000000E+00
  7
MONOTXT
  0
TEXT
  8
0
 62
7
 10
-4.70715658E+01
 20
-2.83541504E+01
 40
1.25000000E+01
  1
225
 41
1.00000000E+00
  7
MONOTXT
  0
TEXT
  8
0
 62
7
 10
-1.09571566E+02
 20
-2.83541504E+01
 40
1.25000000E+01
  1
175
 41
1.00000000E+00
  7
MONOTXT
  0
TEXT
  8
0
 62
7
 10
-1.72071565E+02
 20
-2.83541504E+01
 40
1.25000000E+01
  1
125
 41
1.00000000E+00
  7
MONOTXT
  0
TEXT
  8
0
 62
7
 10
-2.28321565E+02
 20
-2.83541504E+01
 40
1.25000000E+01
  1
75
 41
1.00000000E+00
  7
MONOTXT
  0
TEXT
  8
0
 62
7
 10
-2.90821566E+02
 20
-2.83541504E+01
 40
1.25000000E+01
  1
25
 41
1.00000000E+00
  7
MONOTXT
  0
TEXT
  8
0
 62
7
 10
-3.47071566E+02
 20
-2.83541504E+01
 40
1.25000000E+01
  1
0
 41
1.00000000E+00
  7
MONOTXT
  0
TEXT
  8
0
 62
7
 10
-4.22071566E+02
 20
-2.83541504E+01
 40
1.25000000E+01
  1
-25
 41
1.00000000E+00
  7
MONOTXT
  0
TEXT
  8
0
 62
7
 10
5.09178434E+02
 20
-8.35415040E+00
 40
1.25000000E+01
  1
1000
 41
1.00000000E+00
  7
MONOTXT
  0
TEXT
  8
0
 62
7
 10
4.52928434E+02
 20
-8.35415040E+00
 40
1.25000000E+01
  1
900
 41
1.00000000E+00
  7
MONOTXT
  0
TEXT
  8
0
 62
7
 10
3.90428434E+02
 20
-8.35415040E+00
 40
1.25000000E+01
  1
800
 41
1.00000000E+00
  7
MONOTXT
  0
TEXT
  8
0
 62
7
 10
3.27928434E+02
 20
-8.35415040E+00
 40
1.25000000E+01
  1
700
 41
1.00000000E+00
  7
MONOTXT
  0
TEXT
  8
0
 62
7
 10
2.65428434E+02
 20
-8.35415040E+00
 40
1.25000000E+01
  1
600
 41
1.00000000E+00
  7
MONOTXT
  0
TEXT
  8
0
 62
7
 10
2.02928435E+02
 20
-8.35415040E+00
 40
1.25000000E+01
  1
500
 41
1.00000000E+00
  7
MONOTXT
  0
TEXT
  8
0
 62
7
 10
1.40428435E+02
 20
-8.35415040E+00
 40
1.25000000E+01
  1
450
 41
1.00000000E+00
  7
MONOTXT
  0
TEXT
  8
0
 62
7
 10
7.79284342E+01
 20
-8.35415040E+00
 40
1.25000000E+01
  1
400
 41
1.00000000E+00
  7
MONOTXT
  0
TEXT
  8
0
 62
7
 10
1.54284342E+01
 20
-8.35415040E+00
 40
1.25000000E+01
  1
350
 41
1.00000000E+00
  7
MONOTXT
  0
TEXT
  8
0
 62
7
 10
-4.70715658E+01
 20
-8.35415040E+00
 40
1.25000000E+01
  1
300
 41
1.00000000E+00
  7
MONOTXT
  0
TEXT
  8
0
 62
7
 10
-1.09571566E+02
 20
-8.35415040E+00
 40
1.25000000E+01
  1
250
 41
1.00000000E+00
  7
MONOTXT
  0
TEXT
  8
0
 62
7
 10
-1.72071565E+02
 20
-8.35415040E+00
 40
1.25000000E+01
  1
200
 41
1.00000000E+00
  7
MONOTXT
  0
TEXT
  8
0
 62
7
 10
-2.34571565E+02
 20
-8.35415040E+00
 40
1.25000000E+01
  1
150
 41
1.00000000E+00
  7
MONOTXT
  0
TEXT
  8
0
 62
7
 10
-2.97071566E+02
 20
-8.35415040E+00
 40
1.25000000E+01
  1
100
 41
1.00000000E+00
  7
MONOTXT
  0
TEXT
  8
0
 62
7
 10
-3.53321566E+02
 20
-8.35415040E+00
 40
1.25000000E+01
  1
75
 41
1.00000000E+00
  7
MONOTXT
  0
TEXT
  8
0
 62
7
 10
-4.15821566E+02
 20
-8.35415040E+00
 40
1.25000000E+01
  1
50
 41
1.00000000E+00
  7
MONOTXT
  0
LINE
  8
0
 62
7
 10
5.64061247E+02
 20
-3.21041504E+01
 11
5.64061247E+02
 21
7.89584960E+00
  0
LINE
  8
0
 62
7
 10
5.01561247E+02
 20
-3.21041504E+01
 11
5.01561247E+02
 21
7.89584960E+00
  0
LINE
  8
0
 62
7
 10
4.39061247E+02
 20
-3.21041504E+01
 11
4.39061247E+02
 21
7.89584960E+00
  0
LINE
  8
0
 62
7
 10
3.76561247E+02
 20
-3.21041504E+01
 11
3.76561247E+02
 21
7.89584960E+00
  0
LINE
  8
0
 62
7
 10
3.14061247E+02
 20
-3.21041504E+01
 11
3.14061247E+02
 21
7.89584960E+00
  0
LINE
  8
0
 62
7
 10
2.51561247E+02
 20
-3.21041504E+01
 11
2.51561247E+02
 21
7.89584960E+00
  0
LINE
  8
0
 62
7
 10
1.89061247E+02
 20
-3.21041504E+01
 11
1.89061247E+02
 21
7.89584960E+00
  0
LINE
  8
0
 62
7
 10
1.26561247E+02
 20
-3.21041504E+01
 11
1.26561247E+02
 21
7.89584960E+00
  0
LINE
  8
0
 62
7
 10
6.40612467E+01
 20
-3.21041504E+01
 11
6.40612467E+01
 21
7.89584960E+00
  0
LINE
  8
0
 62
7
 10
1.56124672E+00
 20
-3.21041504E+01
 11
1.56124672E+00
 21
7.89584960E+00
  0
LINE
  8
0
 62
7
 10
-6.09387533E+01
 20
-3.21041504E+01
 11
-6.09387533E+01
 21
7.89584960E+00
  0
LINE
  8
0
 62
7
 10
-1.23438753E+02
 20
-3.21041504E+01
 11
-1.23438753E+02
 21
7.89584960E+00
  0
LINE
  8
0
 62
7
 10
-1.85938753E+02
 20
-3.21041504E+01
 11
-1.85938753E+02
 21
7.89584960E+00
  0
LINE
  8
0
 62
7
 10
-2.48438753E+02
 20
-3.21041504E+01
 11
-2.48438753E+02
 21
7.89584960E+00
  0
LINE
  8
0
 62
7
 10
-3.10938753E+02
 20
-3.21041504E+01
 11
-3.10938753E+02
 21
7.89584960E+00
  0
LINE
  8
0
 62
7
 10
-3.73438753E+02
 20
-3.21041504E+01
 11
-3.73438753E+02
 21
7.89584960E+00
  0
TEXT
  8
0
 62
7
 10
-5.28321566E+02
 20
-2.83541504E+01
 40
1.25000000E+01
  1
STRETCH
 41
1.00000000E+00
  7
MONOTXT
  0
TEXT
  8
0
 62
7
 10
-5.22071566E+02
 20
-8.35415039E+00
 40
1.25000000E+01
  1
STROKE
 41
1.00000000E+00
  7
MONOTXT
  0
LINE
  8
0
 62
7
 10
-4.35938753E+02
 20
-3.21041504E+01
 11
-4.35938753E+02
 21
7.89584960E+00
  0
LINE
  8
0
 62
7
 10
-5.35938753E+02
 20
-3.21041504E+01
 11
-5.35938753E+02
 21
7.89584960E+00
  0
LINE
  8
0
 62
7
 10
-5.35938753E+02
 20
-3.21041504E+01
 11
5.64061247E+02
 21
-3.21041504E+01
  0
LINE
  8
0
 62
7
 10
-5.35938753E+02
 20
-1.21041504E+01
 11
5.64061247E+02
 21
-1.21041504E+01
  0
LINE
  8
0
 62
7
 10
-5.35938753E+02
 20
7.89584961E+00
 11
5.64061247E+02
 21
7.89584961E+00
  0
LINE
  8
0
 62
7
 10
3.98500225E+02
 20
-4.28230231E+02
 11
4.10000256E+02
 21
-4.28230231E+02
  0
LINE
  8
0
  6
CENTER
 62
2
 10
3.98500225E+02
 20
-4.23730216E+02
 11
4.48524746E+02
 21
-4.23730216E+02
  0
LINE
  8
0
 62
7
 10
3.98500225E+02
 20
-4.19230216E+02
 11
4.10000256E+02
 21
-4.19230216E+02
  0
LINE
  8
0
 62
7
 10
4.03000225E+02
 20
-4.15230231E+02
 11
4.10000256E+02
 21
-4.15230231E+02
  0
LINE
  8
0
 62
2
 10
3.08765252E+02
 20
-4.62750781E+02
 11
3.39825329E+02
 21
-4.08953150E+02
  0
LINE
  8
0
 62
7
 10
4.10000256E+02
 20
-4.58730231E+02
 11
4.10000256E+02
 21
-4.11730231E+02
  0
LINE
  8
0
 62
7
 10
3.36201255E+02
 20
-4.15230231E+02
 11
3.64000225E+02
 21
-4.15230231E+02
  0
LINE
  8
0
 62
7
 10
3.33891862E+02
 20
-4.19230216E+02
 11
3.83500225E+02
 21
-4.19230216E+02
  0
LINE
  8
0
 62
7
 10
3.28695701E+02
 20
-4.28230231E+02
 11
3.83500225E+02
 21
-4.28230231E+02
  0
LINE
  8
0
 62
7
 10
6.58000210E+02
 20
-4.47730200E+02
 11
6.46000210E+02
 21
-4.47730200E+02
  0
LINE
  8
0
 62
2
 10
6.58000210E+02
 20
-4.48550223E+02
 11
6.46000210E+02
 21
-4.48550223E+02
  0
LINE
  8
0
 62
4
 10
6.69571148E+02
 20
-4.40272064E+02
 11
6.59429272E+02
 21
-4.40272064E+02
  0
LINE
  8
0
 62
4
 10
6.71000210E+02
 20
-4.42747284E+02
 11
6.71000210E+02
 21
-4.58730231E+02
  0
LINE
  8
0
 62
4
 10
6.58000210E+02
 20
-4.42747284E+02
 11
6.58000210E+02
 21
-4.58730231E+02
  0
LINE
  8
0
 62
4
 10
6.71000226E+02
 20
-4.42747285E+02
 11
6.69571143E+02
 21
-4.40272068E+02
  0
LINE
  8
0
 62
4
 10
6.59429290E+02
 20
-4.40272112E+02
 11
6.58000217E+02
 21
-4.42747300E+02
  0
LINE
  8
0
 62
4
 10
6.69571148E+02
 20
-4.49747288E+02
 11
6.59429272E+02
 21
-4.49747288E+02
  0
ARC
  8
0
 62
4
 10
6.87055005E+02
 20
-4.58747288E+02
 40
2.90548000E+01
 50
1.61955323E+02
 51
1.79966364E+02
  0
ARC
  8
0
 62
4
 10
6.66562813E+02
 20
-4.45009678E+02
 40
8.56342793E+00
 50
1.46410742E+02
 51
2.13589395E+02
  0
ARC
  8
0
 62
4
 10
6.41945410E+02
 20
-4.58747288E+02
 40
2.90548000E+01
 50
3.36363131E-02
 51
1.80447127E+01
  0
ARC
  8
0
 62
4
 10
6.62437607E+02
 20
-4.45009678E+02
 40
8.56342793E+00
 50
3.26410682E+02
 51
3.35893354E+01
  0
ARC
  8
0
 62
7
 10
4.45500256E+02
 20
-4.12849951E+02
 40
5.00000000E-01
 50
3.59721787E-05
 51
8.89997505E+01
  0
ARC
  8
0
 62
7
 10
6.43500240E+02
 20
-4.58730246E+02
 40
1.25000010E+01
 50
1.47140312E+02
 51
1.79999930E+02
  0
ARC
  8
0
 62
7
 10
6.09500210E+02
 20
-4.37230231E+02
 40
5.00000000E-01
 50
3.59721787E-05
 51
9.00000179E+01
  0
ARC
  8
0
 62
7
 10
6.23500210E+02
 20
-4.39730231E+02
 40
5.00000000E-01
 50
3.59721787E-05
 51
9.00000179E+01
  0
ARC
  8
0
 62
7
 10
6.18500210E+02
 20
-4.38201972E+02
 40
5.00000000E-01
 50
3.59721787E-05
 51
8.79992642E+01
  0
ARC
  8
0
 62
7
 10
5.55000240E+02
 20
-4.58730231E+02
 40
3.30000043E+00
 50
0.00000000E+00
 51
1.80000000E+02
  0
ARC
  8
0
 62
7
 10
5.55000240E+02
 20
-4.58730231E+02
 40
8.00000000E+00
 50
5.22134666E-01
 51
1.80000000E+02
  0
ARC
  8
0
 62
7
 10
5.55000240E+02
 20
-4.58730231E+02
 40
4.00000000E+00
 50
0.00000000E+00
 51
1.80000000E+02
  0
LINE
  8
0
 62
2
 10
6.38000210E+02
 20
-4.58730231E+02
 11
6.41660761E+02
 21
-4.53764836E+02
  0
LINE
  8
0
 62
2
 10
6.33000234E+02
 20
-4.51947941E+02
 11
6.38000222E+02
 21
-4.58730231E+02
  0
LINE
  8
0
 62
7
 10
6.43000230E+02
 20
-4.47730210E+02
 11
6.40000217E+02
 21
-4.46230181E+02
  0
LINE
  8
0
 62
7
 10
6.43000195E+02
 20
-4.55230371E+02
 11
6.40000197E+02
 21
-4.51947956E+02
  0
LINE
  8
0
 62
7
 10
6.33000210E+02
 20
-4.58730231E+02
 11
6.33000210E+02
 21
-4.51947951E+02
  0
LINE
  8
0
 62
7
 10
6.81500271E+02
 20
-4.47730200E+02
 11
6.71000210E+02
 21
-4.47730200E+02
  0
LINE
  8
0
 62
7
 10
6.83000279E+02
 20
-4.49230240E+02
 11
6.81500256E+02
 21
-4.47730217E+02
  0
LINE
  8
0
 62
7
 10
6.18517754E+02
 20
-4.37702311E+02
 11
6.10000297E+02
 21
-4.37230271E+02
  0
LINE
  8
0
 62
7
 10
6.40000240E+02
 20
-4.46230185E+02
 11
6.24000240E+02
 21
-4.46230185E+02
  0
LINE
  8
0
 62
7
 10
6.23500240E+02
 20
-4.39230246E+02
 11
6.19000240E+02
 21
-4.39230246E+02
  0
LINE
  8
0
 62
7
 10
6.46000210E+02
 20
-4.48550223E+02
 11
6.43000210E+02
 21
-4.48550223E+02
  0
LINE
  8
0
 62
2
 10
6.82320278E+02
 20
-4.48550223E+02
 11
6.71000210E+02
 21
-4.48550223E+02
  0
LINE
  8
0
 62
7
 10
4.42000240E+02
 20
-4.12288779E+02
 11
4.42000240E+02
 21
-4.11730231E+02
  0
LINE
  8
0
 62
7
 10
6.81500210E+02
 20
-4.47730200E+02
 11
6.81500210E+02
 21
-4.58730231E+02
  0
LINE
  8
0
 62
7
 10
6.46000210E+02
 20
-4.47730200E+02
 11
6.46000210E+02
 21
-4.58730231E+02
  0
LINE
  8
0
 62
7
 10
6.83000210E+02
 20
-4.49230185E+02
 11
6.83000210E+02
 21
-4.58730231E+02
  0
LINE
  8
0
 62
7
 10
6.43000210E+02
 20
-4.58730231E+02
 11
6.43000210E+02
 21
-4.47730200E+02
  0
LINE
  8
0
 62
7
 10
6.40000210E+02
 20
-4.51947951E+02
 11
6.33000210E+02
 21
-4.51947951E+02
  0
LINE
  8
0
 62
7
 10
6.40000210E+02
 20
-4.51947951E+02
 11
6.40000210E+02
 21
-4.46230231E+02
  0
LINE
  8
0
 62
7
 10
6.09500240E+02
 20
-4.36730231E+02
 11
6.08000240E+02
 21
-4.36730231E+02
  0
LINE
  8
0
 62
7
 10
6.10000210E+02
 20
-4.37230277E+02
 11
6.10000210E+02
 21
-4.58730231E+02
  0
LINE
  8
0
  6
CENTER
 62
2
 10
4.26000240E+02
 20
-4.24430182E+02
 11
4.26000240E+02
 21
-4.09277579E+02
  0
LINE
  8
0
 62
7
 10
6.19000210E+02
 20
-4.58730231E+02
 11
6.19000210E+02
 21
-4.38201972E+02
  0
LINE
  8
0
 62
7
 10
6.24000210E+02
 20
-4.58730231E+02
 11
6.24000210E+02
 21
-4.39730231E+02
  0
LINE
  8
0
 62
7
 10
4.46000256E+02
 20
-4.02730246E+02
 11
4.46000256E+02
 21
-4.58730231E+02
  0
LINE
  8
0
  6
CENTER
 62
2
 10
4.70000240E+02
 20
-4.21626959E+02
 11
4.70000240E+02
 21
-4.00277625E+02
  0
LINE
  8
0
 62
7
 10
4.85000195E+02
 20
-4.02730246E+02
 11
4.85000195E+02
 21
-4.58730231E+02
  0
LINE
  8
0
 62
7
 10
5.73000210E+02
 20
-4.02730246E+02
 11
5.73000210E+02
 21
-4.58730231E+02
  0
LINE
  8
0
 62
7
 10
5.73000210E+02
 20
-4.05230246E+02
 11
4.85000225E+02
 21
-4.05230246E+02
  0
LINE
  8
0
 62
7
 10
5.73000210E+02
 20
-4.12230261E+02
 11
4.85000195E+02
 21
-4.12230261E+02
  0
LINE
  8
0
  6
CENTER
 62
2
 10
6.15066708E+02
 20
-4.16730261E+02
 11
4.39520489E+02
 21
-4.16730261E+02
  0
LINE
  8
0
 62
7
 10
5.73000210E+02
 20
-4.21230231E+02
 11
4.85000195E+02
 21
-4.21230231E+02
  0
LINE
  8
0
 62
7
 10
5.58464619E+02
 20
-4.52730114E+02
 11
5.61928729E+02
 21
-4.58730136E+02
  0
LINE
  8
0
 62
7
 10
5.51536068E+02
 20
-4.52730246E+02
 11
5.58464321E+02
 21
-4.52730246E+02
  0
LINE
  8
0
 62
7
 10
5.51536394E+02
 20
-4.52730599E+02
 11
5.48072309E+02
 21
-4.58730578E+02
  0
LINE
  8
0
 62
7
 10
5.53000168E+02
 20
-4.57575314E+02
 11
5.55000182E+02
 21
-4.56420605E+02
  0
LINE
  8
0
 62
7
 10
5.55000142E+02
 20
-4.56421006E+02
 11
5.57000117E+02
 21
-4.57575692E+02
  0
LINE
  8
0
 62
7
 10
6.08000210E+02
 20
-4.02730246E+02
 11
6.08000210E+02
 21
-4.58730231E+02
  0
LINE
  8
0
 62
7
 10
4.85000195E+02
 20
-4.02730246E+02
 11
4.46000225E+02
 21
-4.02730246E+02
  0
LINE
  8
0
 62
7
 10
6.08000210E+02
 20
-4.02730246E+02
 11
5.73000210E+02
 21
-4.02730246E+02
  0
LINE
  8
0
  6
CENTER
 62
2
 10
5.55000240E+02
 20
-4.47405768E+02
 11
5.55000240E+02
 21
-4.58730231E+02
  0
LINE
  8
0
 62
7
 10
5.53000210E+02
 20
-4.57575255E+02
 11
5.53000210E+02
 21
-4.58730231E+02
  0
LINE
  8
0
 62
7
 10
5.57000210E+02
 20
-4.58730231E+02
 11
5.57000210E+02
 21
-4.57575560E+02
  0
LINE
  8
0
  6
CENTER
 62
2
 10
6.86876186E+02
 20
-4.58730231E+02
 11
3.11086518E+02
 21
-4.58730231E+02
  0
LINE
  8
0
 62
7
 10
4.42000271E+02
 20
-4.11730231E+02
 11
4.10000271E+02
 21
-4.11730231E+02
  0
LINE
  8
0
 62
7
 10
4.45509036E+02
 20
-4.12350024E+02
 11
4.10000284E+02
 21
-4.11730216E+02
  0
LINE
  8
0
  6
CENTER
 62
2
 10
3.31293786E+02
 20
-4.23730216E+02
 11
3.83500225E+02
 21
-4.23730216E+02
  0
LINE
  8
0
 62
7
 10
1.03583878E+02
 20
-4.02730246E+02
 11
4.85000954E+01
 21
-4.02730246E+02
  0
LINE
  8
0
 62
2
 10
-1.36047053E+02
 20
-4.65193187E+02
 11
-1.04907800E+02
 21
-4.11258420E+02
  0
LINE
  8
0
 62
2
 10
-1.60910720E+02
 20
-2.88258336E+02
 11
-1.04907800E+02
 21
-1.91258435E+02
  0
LINE
  8
0
 62
7
 10
-1.80999928E+02
 20
-2.13946491E+02
 11
-1.80999928E+02
 21
-2.85730216E+02
  0
LINE
  8
0
  6
CENTER
 62
2
 10
-1.88999928E+02
 20
-2.03730246E+02
 11
-2.19524448E+02
 21
-2.03730246E+02
  0
LINE
  8
0
 62
7
 10
3.25002218E+01
 20
-4.55430122E+02
 11
3.32001427E+01
 21
-4.54730201E+02
  0
LINE
  8
0
 62
7
 10
1.55500149E+02
 20
-4.50730277E+02
 11
1.58000149E+02
 21
-4.50730277E+02
  0
LINE
  8
0
 62
7
 10
1.58000149E+02
 20
-4.52730284E+02
 11
1.64500164E+02
 21
-4.52730284E+02
  0
LINE
  8
0
 62
7
 10
1.58000149E+02
 20
-4.58730269E+02
 11
1.63807339E+02
 21
-4.58730269E+02
  0
LINE
  8
0
 62
7
 10
1.64500240E+02
 20
-4.58730231E+02
 11
1.64500240E+02
 21
-4.52730246E+02
  0
LINE
  8
0
  6
CENTER
 62
2
 10
1.70961956E+02
 20
-4.58730231E+02
 11
2.86488686E+01
 21
-4.58730231E+02
  0
LINE
  8
0
 62
7
 10
1.66500210E+02
 20
-4.58730231E+02
 11
1.66500210E+02
 21
-4.55430289E+02
  0
LINE
  8
0
 62
7
 10
1.64500164E+02
 20
-4.54730292E+02
 11
1.65800213E+02
 21
-4.54730292E+02
  0
LINE
  8
0
 62
2
 10
1.64500164E+02
 20
-4.55430289E+02
 11
1.66500134E+02
 21
-4.55430289E+02
  0
LINE
  8
0
 62
7
 10
1.65800289E+02
 20
-4.58730231E+02
 11
1.65800289E+02
 21
-4.54730292E+02
  0
LINE
  8
0
 62
7
 10
1.66499844E+02
 20
-4.55430861E+02
 11
1.65799788E+02
 21
-4.54730805E+02
  0
LINE
  8
0
 62
7
 10
1.55500149E+02
 20
-4.07730246E+02
 11
1.55500149E+02
 21
-4.58730231E+02
  0
LINE
  8
0
 62
7
 10
4.10000801E+01
 20
-4.58730231E+02
 11
4.10000801E+01
 21
-4.50730239E+02
  0
LINE
  8
0
 62
7
 10
4.35000954E+01
 20
-4.50730277E+02
 11
4.10001717E+01
 21
-4.50730277E+02
  0
LINE
  8
0
 62
7
 10
3.25001106E+01
 20
-4.58730231E+02
 11
3.25001106E+01
 21
-4.55430289E+02
  0
LINE
  8
0
 62
7
 10
3.45000801E+01
 20
-4.58730231E+02
 11
3.45000801E+01
 21
-4.52730246E+02
  0
LINE
  8
0
 62
7
 10
3.45000801E+01
 20
-4.54730292E+02
 11
3.32002602E+01
 21
-4.54730292E+02
  0
LINE
  8
0
 62
2
 10
3.45000801E+01
 20
-4.55430289E+02
 11
3.25001869E+01
 21
-4.55430289E+02
  0
LINE
  8
0
 62
7
 10
3.32001839E+01
 20
-4.58730231E+02
 11
3.32001839E+01
 21
-4.54730292E+02
  0
LINE
  8
0
  6
CENTER
 62
2
 10
-4.57875858E+02
 20
-4.58730231E+02
 11
-1.32315663E+02
 21
-4.58730231E+02
  0
LINE
  8
0
 62
7
 10
-3.33999821E+02
 20
-2.97230246E+02
 11
-3.17999882E+02
 21
-2.97230246E+02
  0
LINE
  8
0
 62
7
 10
-3.17999882E+02
 20
-2.92230307E+02
 11
-3.17999882E+02
 21
-2.97230246E+02
  0
LINE
  8
0
 62
7
 10
-3.33999851E+02
 20
-2.92230307E+02
 11
-3.33999851E+02
 21
-2.97230246E+02
  0
LINE
  8
0
 62
7
 10
-3.29299839E+02
 20
-3.05730246E+02
 11
-3.22699833E+02
 21
-3.05730246E+02
  0
LINE
  8
0
 62
7
 10
-3.31749821E+02
 20
-3.03730246E+02
 11
-3.20249821E+02
 21
-3.03730246E+02
  0
LINE
  8
0
 62
7
 10
-3.19049839E+02
 20
-2.97230246E+02
 11
-3.19049839E+02
 21
-3.03037406E+02
  0
LINE
  8
0
 62
7
 10
-3.32949833E+02
 20
-2.97230246E+02
 11
-3.32949833E+02
 21
-3.03037406E+02
  0
LINE
  8
0
 62
7
 10
-3.20249706E+02
 20
-3.03730549E+02
 11
-3.19049697E+02
 21
-3.03037723E+02
  0
LINE
  8
0
 62
7
 10
-3.32950056E+02
 20
-3.03037518E+02
 11
-3.31750048E+02
 21
-3.03730343E+02
  0
LINE
  8
0
 62
7
 10
-3.29474857E+02
 20
-2.97230246E+02
 11
-3.29474857E+02
 21
-3.03037406E+02
  0
LINE
  8
0
 62
7
 10
-3.22524815E+02
 20
-2.97230246E+02
 11
-3.22524815E+02
 21
-3.03037406E+02
  0
LINE
  8
0
 62
7
 10
-3.29999882E+02
 20
-3.03730277E+02
 11
-3.29999882E+02
 21
-3.05030234E+02
  0
LINE
  8
0
 62
7
 10
-3.21999851E+02
 20
-3.03730277E+02
 11
-3.21999851E+02
 21
-3.05030234E+02
  0
LINE
  8
0
 62
2
 10
-3.29299870E+02
 20
-3.03730277E+02
 11
-3.29299870E+02
 21
-3.05730246E+02
  0
LINE
  8
0
 62
2
 10
-3.22699833E+02
 20
-3.03730277E+02
 11
-3.22699833E+02
 21
-3.05730246E+02
  0
LINE
  8
0
 62
7
 10
-3.29999851E+02
 20
-3.05030295E+02
 11
-3.21999851E+02
 21
-3.05030295E+02
  0
LINE
  8
0
 62
7
 10
-3.30000017E+02
 20
-3.05029988E+02
 11
-3.29299989E+02
 21
-3.05730016E+02
  0
LINE
  8
0
 62
7
 10
-3.22699506E+02
 20
-3.05730607E+02
 11
-3.21999504E+02
 21
-3.05030605E+02
  0
LINE
  8
0
 62
7
 10
-3.33999821E+02
 20
-1.80230246E+02
 11
-3.17999882E+02
 21
-1.80230246E+02
  0
LINE
  8
0
 62
7
 10
-3.17999882E+02
 20
-1.85230277E+02
 11
-3.17999882E+02
 21
-1.80230277E+02
  0
LINE
  8
0
  6
CENTER
 62
2
 10
-6.46499943E+02
 20
-3.99253958E+02
 11
-6.46499943E+02
 21
-4.58730231E+02
  0
LINE
  8
0
 62
7
 10
-3.33999851E+02
 20
-1.85230277E+02
 11
-3.33999851E+02
 21
-1.80230277E+02
  0
LINE
  8
0
 62
7
 10
-3.29299839E+02
 20
-1.71730277E+02
 11
-3.22699833E+02
 21
-1.71730277E+02
  0
LINE
  8
0
 62
7
 10
-3.31749821E+02
 20
-1.73730277E+02
 11
-3.20249821E+02
 21
-1.73730277E+02
  0
LINE
  8
0
 62
7
 10
-3.19049839E+02
 20
-1.80230277E+02
 11
-3.19049839E+02
 21
-1.74423087E+02
  0
LINE
  8
0
 62
7
 10
-3.32949833E+02
 20
-1.80230277E+02
 11
-3.32949833E+02
 21
-1.74423087E+02
  0
LINE
  8
0
 62
7
 10
-3.20249677E+02
 20
-1.73730432E+02
 11
-3.19049669E+02
 21
-1.74423257E+02
  0
LINE
  8
0
 62
7
 10
-3.32949527E+02
 20
-1.74423643E+02
 11
-3.31749518E+02
 21
-1.73730817E+02
  0
LINE
  8
0
 62
7
 10
-3.22524815E+02
 20
-1.80230277E+02
 11
-3.22524815E+02
 21
-1.74423087E+02
  0
LINE
  8
0
 62
7
 10
-3.29999882E+02
 20
-1.73730277E+02
 11
-3.29999882E+02
 21
-1.72430289E+02
  0
LINE
  8
0
 62
7
 10
-3.21999851E+02
 20
-1.73730277E+02
 11
-3.21999851E+02
 21
-1.72430289E+02
  0
LINE
  8
0
 62
2
 10
-3.29299870E+02
 20
-1.73730277E+02
 11
-3.29299870E+02
 21
-1.71730307E+02
  0
LINE
  8
0
 62
2
 10
-3.22699833E+02
 20
-1.73730277E+02
 11
-3.22699833E+02
 21
-1.71730307E+02
  0
LINE
  8
0
 62
7
 10
-3.29999851E+02
 20
-1.72430258E+02
 11
-3.21999851E+02
 21
-1.72430258E+02
  0
LINE
  8
0
 62
7
 10
-3.29999560E+02
 20
-1.72430611E+02
 11
-3.29299548E+02
 21
-1.71730598E+02
  0
LINE
  8
0
 62
7
 10
-3.22699969E+02
 20
-1.71730151E+02
 11
-3.22000048E+02
 21
-1.72430072E+02
  0
LINE
  8
0
 62
7
 10
-3.29474857E+02
 20
-1.80230277E+02
 11
-3.29474857E+02
 21
-1.74423087E+02
  0
LINE
  8
0
 62
7
 10
-5.87999973E+02
 20
-4.52730284E+02
 11
-5.81499943E+02
 21
-4.52730284E+02
  0
LINE
  8
0
 62
7
 10
-7.04999943E+02
 20
-4.58730269E+02
 11
-7.10807133E+02
 21
-4.58730269E+02
  0
LINE
  8
0
 62
7
 10
-7.02499943E+02
 20
-4.50730277E+02
 11
-7.04999943E+02
 21
-4.50730277E+02
  0
LINE
  8
0
  6
CENTER
 62
2
 10
-7.17961735E+02
 20
-4.58730231E+02
 11
-5.75648655E+02
 21
-4.58730231E+02
  0
LINE
  8
0
 62
7
 10
-7.04999943E+02
 20
-4.52730284E+02
 11
-7.11499943E+02
 21
-4.52730284E+02
  0
LINE
  8
0
 62
7
 10
-5.87999973E+02
 20
-4.58730269E+02
 11
-5.82192692E+02
 21
-4.58730269E+02
  0
LINE
  8
0
 62
7
 10
-5.87999882E+02
 20
-4.58730231E+02
 11
-5.87999882E+02
 21
-4.50730239E+02
  0
LINE
  8
0
 62
7
 10
-5.81499882E+02
 20
-4.58730231E+02
 11
-5.81499882E+02
 21
-4.52730246E+02
  0
LINE
  8
0
 62
7
 10
-5.90499882E+02
 20
-4.50730277E+02
 11
-5.87999973E+02
 21
-4.50730277E+02
  0
LINE
  8
0
 62
7
 10
-7.11500004E+02
 20
-4.58730231E+02
 11
-7.11500004E+02
 21
-4.52730246E+02
  0
LINE
  8
0
 62
7
 10
-7.13500004E+02
 20
-4.58730231E+02
 11
-7.13500004E+02
 21
-4.55430289E+02
  0
LINE
  8
0
  6
CENTER
 62
2
 10
-3.25999821E+02
 20
-2.90252005E+02
 11
-3.25999821E+02
 21
-3.08817893E+02
  0
LINE
  8
0
 62
7
 10
-5.79499912E+02
 20
-4.58730269E+02
 11
-5.79499912E+02
 21
-4.55430289E+02
  0
LINE
  8
0
 62
7
 10
-3.27999882E+02
 20
-4.58730231E+02
 11
-3.27999882E+02
 21
-4.57575560E+02
  0
LINE
  8
0
 62
7
 10
-3.23999882E+02
 20
-4.57575255E+02
 11
-3.23999882E+02
 21
-4.58730231E+02
  0
LINE
  8
0
  6
CENTER
 62
2
 10
-3.25999912E+02
 20
-4.47405768E+02
 11
-3.25999912E+02
 21
-4.58730231E+02
  0
LINE
  8
0
 62
7
 10
-7.11499943E+02
 20
-4.54730292E+02
 11
-7.12799992E+02
 21
-4.54730292E+02
  0
LINE
  8
0
 62
7
 10
-3.43999882E+02
 20
-2.92230307E+02
 11
-2.55999897E+02
 21
-2.92230307E+02
  0
LINE
  8
0
 62
7
 10
-5.81499882E+02
 20
-4.54730292E+02
 11
-5.80200047E+02
 21
-4.54730292E+02
  0
LINE
  8
0
 62
2
 10
-5.81499882E+02
 20
-4.55430289E+02
 11
-5.79499973E+02
 21
-4.55430289E+02
  0
LINE
  8
0
 62
7
 10
-5.80199986E+02
 20
-4.58730269E+02
 11
-5.80199986E+02
 21
-4.54730292E+02
  0
LINE
  8
0
 62
7
 10
-7.04999882E+02
 20
-4.58730231E+02
 11
-7.04999882E+02
 21
-4.50730239E+02
  0
LINE
  8
0
  6
CENTER
 62
2
 10
-3.25999821E+02
 20
-1.87118857E+02
 11
-3.25999821E+02
 21
-1.70142630E+02
  0
LINE
  8
0
 62
7
 10
-5.79499963E+02
 20
-4.55430060E+02
 11
-5.80199884E+02
 21
-4.54730139E+02
  0
LINE
  8
0
 62
7
 10
-7.12800053E+02
 20
-4.58730231E+02
 11
-7.12800053E+02
 21
-4.54730292E+02
  0
LINE
  8
0
 62
2
 10
-7.11499943E+02
 20
-4.55430289E+02
 11
-7.13499943E+02
 21
-4.55430289E+02
  0
LINE
  8
0
 62
7
 10
-7.13499608E+02
 20
-4.55430803E+02
 11
-7.12799579E+02
 21
-4.54730774E+02
  0
LINE
  8
0
 62
7
 10
-2.55999866E+02
 20
-2.94730246E+02
 11
-2.16999897E+02
 21
-2.94730246E+02
  0
LINE
  8
0
 62
7
 10
-2.55999866E+02
 20
-1.82730246E+02
 11
-2.16999897E+02
 21
-1.82730246E+02
  0
LINE
  8
0
 62
7
 10
-2.55999866E+02
 20
-1.82730246E+02
 11
-2.55999866E+02
 21
-2.94730246E+02
  0
LINE
  8
0
 62
7
 10
-3.43999882E+02
 20
-1.82730246E+02
 11
-3.43999882E+02
 21
-2.94730246E+02
  0
LINE
  8
0
 62
7
 10
-3.78999882E+02
 20
-4.02730246E+02
 11
-3.43999882E+02
 21
-4.02730246E+02
  0
LINE
  8
0
 62
7
 10
-2.55999866E+02
 20
-4.02730246E+02
 11
-2.16999897E+02
 21
-4.02730246E+02
  0
LINE
  8
0
 62
7
 10
-3.78999882E+02
 20
-1.82730246E+02
 11
-3.78999882E+02
 21
-2.94730246E+02
  0
LINE
  8
0
 62
7
 10
-3.78999882E+02
 20
-2.94730246E+02
 11
-3.43999882E+02
 21
-2.94730246E+02
  0
LINE
  8
0
 62
7
 10
-3.78999882E+02
 20
-4.02730246E+02
 11
-3.78999882E+02
 21
-4.58730231E+02
  0
LINE
  8
0
 62
7
 10
-3.78999882E+02
 20
-1.82730246E+02
 11
-3.43999882E+02
 21
-1.82730246E+02
  0
LINE
  8
0
 62
7
 10
-2.16999928E+02
 20
-2.94730246E+02
 11
-2.16999928E+02
 21
-1.82730246E+02
  0
LINE
  8
0
 62
7
 10
-3.25999814E+02
 20
-4.56421006E+02
 11
-3.27999788E+02
 21
-4.57575692E+02
  0
LINE
  8
0
 62
7
 10
-3.23999840E+02
 20
-4.57575314E+02
 11
-3.25999854E+02
 21
-4.56420605E+02
  0
LINE
  8
0
 62
7
 10
-3.22536066E+02
 20
-4.52730599E+02
 11
-3.19071981E+02
 21
-4.58730578E+02
  0
LINE
  8
0
 62
7
 10
-3.22535740E+02
 20
-4.52730246E+02
 11
-3.29463993E+02
 21
-4.52730246E+02
  0
LINE
  8
0
 62
7
 10
-3.29464291E+02
 20
-4.52730114E+02
 11
-3.32928401E+02
 21
-4.58730136E+02
  0
LINE
  8
0
 62
7
 10
-3.43999882E+02
 20
-4.21230231E+02
 11
-2.55999866E+02
 21
-4.21230231E+02
  0
LINE
  8
0
  6
CENTER
 62
2
 10
-3.86066380E+02
 20
-4.16730261E+02
 11
-2.10520161E+02
 21
-4.16730261E+02
  0
LINE
  8
0
 62
7
 10
-3.43999882E+02
 20
-4.12230261E+02
 11
-2.55999866E+02
 21
-4.12230261E+02
  0
LINE
  8
0
  6
CENTER
 62
2
 10
-3.86066380E+02
 20
-2.80730246E+02
 11
-2.10520161E+02
 21
-2.80730246E+02
  0
LINE
  8
0
 62
7
 10
-3.43999882E+02
 20
-2.76230246E+02
 11
-2.55999866E+02
 21
-2.76230246E+02
  0
LINE
  8
0
 62
7
 10
-3.43999882E+02
 20
-2.85230246E+02
 11
-2.55999866E+02
 21
-2.85230246E+02
  0
LINE
  8
0
 62
7
 10
-3.43999882E+02
 20
-4.05230246E+02
 11
-2.55999897E+02
 21
-4.05230246E+02
  0
LINE
  8
0
 62
7
 10
-3.43999882E+02
 20
-4.02730246E+02
 11
-3.43999882E+02
 21
-4.58730231E+02
  0
LINE
  8
0
 62
7
 10
-2.55999866E+02
 20
-4.02730246E+02
 11
-2.55999866E+02
 21
-4.58730231E+02
  0
LINE
  8
0
 62
7
 10
-3.43999882E+02
 20
-1.92230216E+02
 11
-2.55999866E+02
 21
-1.92230216E+02
  0
LINE
  8
0
 62
7
 10
-3.43999882E+02
 20
-2.01230246E+02
 11
-2.55999866E+02
 21
-2.01230246E+02
  0
LINE
  8
0
  6
CENTER
 62
2
 10
-3.86066380E+02
 20
-1.96730185E+02
 11
-2.10520161E+02
 21
-1.96730185E+02
  0
LINE
  8
0
 62
7
 10
-6.97499943E+02
 20
-4.02730246E+02
 11
-5.95499882E+02
 21
-4.02730246E+02
  0
LINE
  8
0
  6
CENTER
 62
2
 10
-6.17984013E+02
 20
-4.16730261E+02
 11
-5.89447330E+02
 21
-4.16730261E+02
  0
LINE
  8
0
  6
CENTER
 62
2
 10
-6.04499882E+02
 20
-4.30807913E+02
 11
-6.04499882E+02
 21
-4.01623190E+02
  0
LINE
  8
0
 62
7
 10
-5.99499884E+02
 20
-4.19616979E+02
 11
-6.04499885E+02
 21
-4.22503720E+02
  0
LINE
  8
0
 62
7
 10
-6.04499864E+02
 20
-4.22503769E+02
 11
-6.09499865E+02
 21
-4.19617028E+02
  0
LINE
  8
0
 62
7
 10
-6.09499882E+02
 20
-4.13843497E+02
 11
-6.09499882E+02
 21
-4.19616995E+02
  0
LINE
  8
0
 62
7
 10
-6.04499979E+02
 20
-4.10956956E+02
 11
-6.09499953E+02
 21
-4.13843682E+02
  0
LINE
  8
0
 62
7
 10
-5.99499882E+02
 20
-4.13843513E+02
 11
-6.04499884E+02
 21
-4.10956772E+02
  0
LINE
  8
0
 62
7
 10
-5.99499882E+02
 20
-4.19616995E+02
 11
-5.99499882E+02
 21
-4.13843497E+02
  0
LINE
  8
0
  6
CENTER
 62
2
 10
-6.75015873E+02
 20
-4.16730261E+02
 11
-7.03552494E+02
 21
-4.16730261E+02
  0
LINE
  8
0
  6
CENTER
 62
2
 10
-6.88499943E+02
 20
-4.30807913E+02
 11
-6.88499943E+02
 21
-4.01623190E+02
  0
LINE
  8
0
 62
7
 10
-6.93499935E+02
 20
-4.19617002E+02
 11
-6.88499934E+02
 21
-4.22503743E+02
  0
LINE
  8
0
 62
7
 10
-6.88499898E+02
 20
-4.22503907E+02
 11
-6.83499923E+02
 21
-4.19617181E+02
  0
LINE
  8
0
 62
7
 10
-6.83499943E+02
 20
-4.13843497E+02
 11
-6.83499943E+02
 21
-4.19616995E+02
  0
LINE
  8
0
 62
7
 10
-6.88500071E+02
 20
-4.10956706E+02
 11
-6.83499964E+02
 21
-4.13843508E+02
  0
LINE
  8
0
 62
7
 10
-6.93499960E+02
 20
-4.13843512E+02
 11
-6.88499959E+02
 21
-4.10956771E+02
  0
LINE
  8
0
 62
7
 10
-6.93500004E+02
 20
-4.19616995E+02
 11
-6.93500004E+02
 21
-4.13843497E+02
  0
LINE
  8
0
 62
7
 10
-3.43999882E+02
 20
-1.85230246E+02
 11
-2.55999897E+02
 21
-1.85230246E+02
  0
LINE
  8
0
  6
CENTER
 62
2
 10
-4.60301304E+02
 20
-2.38730246E+02
 11
-1.32315663E+02
 21
-2.38730246E+02
  0
LINE
  8
0
  6
CENTER
 62
2
 10
-2.40999912E+02
 20
-4.21626959E+02
 11
-2.40999912E+02
 21
-4.00277625E+02
  0
LINE
  8
0
  6
CENTER
 62
2
 10
-2.54800861E+02
 20
-2.23730246E+02
 11
-2.26788334E+02
 21
-2.23730246E+02
  0
LINE
  8
0
  6
CENTER
 62
2
 10
-2.40999912E+02
 20
-2.36987235E+02
 11
-2.40999912E+02
 21
-2.08728964E+02
  0
LINE
  8
0
 62
7
 10
-2.16999928E+02
 20
-4.02730246E+02
 11
-2.16999928E+02
 21
-4.58730231E+02
  0
LINE
  8
0
  6
CENTER
 62
2
 10
-3.56999912E+02
 20
-2.14451254E+02
 11
-3.56999912E+02
 21
-2.33017050E+02
  0
LINE
  8
0
 62
7
 10
-3.53999835E+02
 20
-2.21997839E+02
 11
-3.56999795E+02
 21
-2.20265822E+02
  0
LINE
  8
0
 62
7
 10
-3.57000765E+02
 20
-2.20264543E+02
 11
-3.60000778E+02
 21
-2.21996591E+02
  0
LINE
  8
0
 62
7
 10
-3.59999882E+02
 20
-2.25462302E+02
 11
-3.59999882E+02
 21
-2.21998160E+02
  0
LINE
  8
0
 62
7
 10
-3.56999885E+02
 20
-2.27193927E+02
 11
-3.59999845E+02
 21
-2.25461910E+02
  0
LINE
  8
0
 62
7
 10
-3.54000702E+02
 20
-2.25460835E+02
 11
-3.57000715E+02
 21
-2.27192883E+02
  0
LINE
  8
0
 62
7
 10
-3.53999882E+02
 20
-2.21998160E+02
 11
-3.53999882E+02
 21
-2.25462302E+02
  0
LINE
  8
0
  6
CENTER
 62
2
 10
-3.66059788E+02
 20
-2.23730246E+02
 11
-3.47715000E+02
 21
-2.23730246E+02
  0
LINE
  8
0
 62
7
 10
-7.02499943E+02
 20
-4.07730246E+02
 11
-7.02499943E+02
 21
-4.58730231E+02
  0
LINE
  8
0
 62
7
 10
-5.90499973E+02
 20
-4.07730246E+02
 11
-5.90499973E+02
 21
-4.58730231E+02
  0
LINE
  8
0
 62
7
 10
1.58000072E+02
 20
-4.58730231E+02
 11
1.58000072E+02
 21
-4.50730239E+02
  0
LINE
  8
0
 62
7
 10
4.10001717E+01
 20
-4.58730269E+02
 11
3.51929054E+01
 21
-4.58730269E+02
  0
LINE
  8
0
 62
7
 10
4.10001717E+01
 20
-4.52730284E+02
 11
3.45001564E+01
 21
-4.52730284E+02
  0
LINE
  8
0
 62
7
 10
4.35001717E+01
 20
-4.07730246E+02
 11
4.35001717E+01
 21
-4.58730231E+02
  0
LINE
  8
0
 62
7
 10
1.50500149E+02
 20
-4.02730246E+02
 11
1.30377819E+02
 21
-4.02730246E+02
  0
LINE
  8
0
  6
CENTER
 62
2
 10
9.95001640E+01
 20
-3.99253958E+02
 11
9.95001640E+01
 21
-4.58730231E+02
  0
LINE
  8
0
 62
7
 10
1.39500166E+02
 20
-4.26616984E+02
 11
1.34500170E+02
 21
-4.29503733E+02
  0
LINE
  8
0
 62
7
 10
5.31001854E+01
 20
-4.58730231E+02
 11
5.31001854E+01
 21
-4.15730261E+02
  0
LINE
  8
0
 62
7
 10
5.71001244E+01
 20
-4.57480254E+02
 11
7.66104240E+01
 21
-4.57480254E+02
  0
LINE
  8
0
 62
7
 10
1.41900112E+02
 20
-4.57480231E+02
 11
1.22389858E+02
 21
-4.57480231E+02
  0
LINE
  8
0
 62
7
 10
1.00750179E+02
 20
-4.16330237E+02
 11
1.00750179E+02
 21
-4.35840552E+02
  0
LINE
  8
0
 62
7
 10
1.14801728E+02
 20
-4.41660863E+02
 11
1.24921763E+02
 21
-4.31540829E+02
  0
LINE
  8
0
 62
7
 10
1.16569597E+02
 20
-4.43428667E+02
 11
1.26689664E+02
 21
-4.33308601E+02
  0
LINE
  8
0
 62
7
 10
1.46500179E+02
 20
-4.58730231E+02
 11
1.46500179E+02
 21
-4.15730246E+02
  0
LINE
  8
0
  6
CENTER
 62
2
 10
1.34500179E+02
 20
-4.09544898E+02
 11
1.34500179E+02
 21
-4.38268591E+02
  0
LINE
  8
0
 62
7
 10
5.65001335E+01
 20
-4.11730261E+02
 11
1.42500103E+02
 21
-4.11730231E+02
  0
LINE
  8
0
 62
7
 10
1.42900188E+02
 20
-4.58730231E+02
 11
1.42900188E+02
 21
-4.40729148E+02
  0
LINE
  8
0
 62
7
 10
1.45900188E+02
 20
-4.58730231E+02
 11
1.45900188E+02
 21
-4.15730246E+02
  0
LINE
  8
0
 62
7
 10
1.34500168E+02
 20
-4.17956733E+02
 11
1.29500172E+02
 21
-4.20843483E+02
  0
LINE
  8
0
 62
7
 10
1.29500179E+02
 20
-4.20843482E+02
 11
1.29500179E+02
 21
-4.26616980E+02
  0
LINE
  8
0
 62
7
 10
5.95001488E+01
 20
-4.20843482E+02
 11
5.95001488E+01
 21
-4.26616980E+02
  0
LINE
  8
0
 62
7
 10
6.45001412E+01
 20
-4.29503742E+02
 11
5.95001416E+01
 21
-4.26616991E+02
  0
LINE
  8
0
 62
7
 10
1.39500179E+02
 20
-4.20843482E+02
 11
1.39500179E+02
 21
-4.26616980E+02
  0
LINE
  8
0
 62
7
 10
1.34500170E+02
 20
-4.17956737E+02
 11
1.39500166E+02
 21
-4.20843486E+02
  0
LINE
  8
0
 62
7
 10
-3.94999882E+02
 20
-4.58730231E+02
 11
-3.94999882E+02
 21
-4.39730231E+02
  0
LINE
  8
0
 62
7
 10
-2.16508641E+02
 20
-1.92349822E+02
 11
-1.80999920E+02
 21
-1.91730015E+02
  0
LINE
  8
0
 62
7
 10
-1.80999928E+02
 20
-1.91730246E+02
 11
-1.80999928E+02
 21
-2.01446491E+02
  0
LINE
  8
0
 62
7
 10
-2.16508706E+02
 20
-2.85110301E+02
 11
-1.80999985E+02
 21
-2.85730108E+02
  0
LINE
  8
0
 62
7
 10
-2.12999928E+02
 20
-2.10730216E+02
 11
-2.12999928E+02
 21
-2.66730216E+02
  0
LINE
  8
0
 62
7
 10
-2.10999928E+02
 20
-2.08730277E+02
 11
-1.88999928E+02
 21
-2.08730277E+02
  0
LINE
  8
0
 62
7
 10
-2.10999928E+02
 20
-2.68730277E+02
 11
-1.80999928E+02
 21
-2.68730277E+02
  0
LINE
  8
0
 62
7
 10
-3.89999882E+02
 20
-4.58730231E+02
 11
-3.89999882E+02
 21
-4.38201972E+02
  0
LINE
  8
0
 62
7
 10
-3.94499882E+02
 20
-2.19230277E+02
 11
-3.89999882E+02
 21
-2.19230277E+02
  0
LINE
  8
0
 62
7
 10
-3.89999882E+02
 20
-2.18167014E+02
 11
-3.89999882E+02
 21
-2.59258475E+02
  0
LINE
  8
0
 62
7
 10
-3.94999882E+02
 20
-2.19730216E+02
 11
-3.94999882E+02
 21
-2.57730216E+02
  0
LINE
  8
0
 62
7
 10
-3.94499882E+02
 20
-2.58230277E+02
 11
-3.89999882E+02
 21
-2.58230277E+02
  0
LINE
  8
0
 62
7
 10
-3.80499882E+02
 20
-2.60730307E+02
 11
-3.78999882E+02
 21
-2.60730307E+02
  0
LINE
  8
0
 62
7
 10
-3.89517373E+02
 20
-2.59757982E+02
 11
-3.80999916E+02
 21
-2.60230022E+02
  0
LINE
  8
0
 62
7
 10
-3.80499882E+02
 20
-2.16730277E+02
 11
-3.78999882E+02
 21
-2.16730277E+02
  0
LINE
  8
0
 62
7
 10
-3.89517373E+02
 20
-2.17702108E+02
 11
-3.80999917E+02
 21
-2.17230068E+02
  0
LINE
  8
0
 62
7
 10
-3.80999882E+02
 20
-2.60230216E+02
 11
-3.80999882E+02
 21
-2.17230246E+02
  0
LINE
  8
0
  6
CENTER
 62
2
 10
-1.96999912E+02
 20
-4.24430182E+02
 11
-1.96999912E+02
 21
-4.09277579E+02
  0
LINE
  8
0
 62
7
 10
-3.80999882E+02
 20
-4.37230277E+02
 11
-3.80999882E+02
 21
-4.58730231E+02
  0
LINE
  8
0
 62
7
 10
-1.86267822E+02
 20
-2.54730373E+02
 11
-1.87133861E+02
 21
-2.53230340E+02
  0
LINE
  8
0
 62
7
 10
-1.87133915E+02
 20
-2.53230307E+02
 11
-1.88866001E+02
 21
-2.53230307E+02
  0
LINE
  8
0
 62
7
 10
-1.89731743E+02
 20
-2.54730536E+02
 11
-1.88865727E+02
 21
-2.53230543E+02
  0
LINE
  8
0
  6
CENTER
 62
2
 10
-1.87999943E+02
 20
-2.47182517E+02
 11
-1.87999943E+02
 21
-2.61795889E+02
  0
LINE
  8
0
  6
CENTER
 62
2
 10
-1.96194523E+02
 20
-2.54730307E+02
 11
-1.79925510E+02
 21
-2.54730307E+02
  0
LINE
  8
0
  6
CENTER
 62
2
 10
-1.83297611E+02
 20
-2.27730307E+02
 11
-2.11094868E+02
 21
-2.27730307E+02
  0
LINE
  8
0
  6
CENTER
 62
2
 10
-1.96999943E+02
 20
-2.41836112E+02
 11
-1.96999943E+02
 21
-2.13907004E+02
  0
LINE
  8
0
 62
7
 10
-1.86267707E+02
 20
-2.54730396E+02
 11
-1.87133746E+02
 21
-2.56230429E+02
  0
LINE
  8
0
 62
7
 10
-1.87133915E+02
 20
-2.56230307E+02
 11
-1.88866001E+02
 21
-2.56230307E+02
  0
LINE
  8
0
 62
7
 10
-1.88865907E+02
 20
-2.56230334E+02
 11
-1.89731977E+02
 21
-2.54730248E+02
  0
LINE
  8
0
 62
7
 10
-4.13999912E+02
 20
-2.49230246E+02
 11
-3.98999973E+02
 21
-2.49230246E+02
  0
LINE
  8
0
 62
7
 10
-3.98999969E+02
 20
-2.49230244E+02
 11
-3.96999923E+02
 21
-2.51230289E+02
  0
LINE
  8
0
 62
7
 10
-3.99000033E+02
 20
-2.28230132E+02
 11
-3.97000077E+02
 21
-2.26230176E+02
  0
LINE
  8
0
  6
CENTER
 62
2
 10
-1.52522923E+02
 20
-2.73730246E+02
 11
-2.19524448E+02
 21
-2.73730246E+02
  0
LINE
  8
0
 62
7
 10
-3.80499912E+02
 20
-4.36730231E+02
 11
-3.78999912E+02
 21
-4.36730231E+02
  0
LINE
  8
0
 62
7
 10
-3.97000065E+02
 20
-2.26230246E+02
 11
-3.94999912E+02
 21
-2.26230246E+02
  0
LINE
  8
0
 62
7
 10
-3.96999912E+02
 20
-2.51230277E+02
 11
-3.94999943E+02
 21
-2.51230277E+02
  0
LINE
  8
0
 62
7
 10
-4.10999882E+02
 20
-4.51947951E+02
 11
-4.10999882E+02
 21
-4.46230231E+02
  0
LINE
  8
0
 62
7
 10
-4.10999912E+02
 20
-2.28230246E+02
 11
-4.10999912E+02
 21
-2.49230246E+02
  0
LINE
  8
0
 62
7
 10
-4.13999912E+02
 20
-2.28230246E+02
 11
-3.99000065E+02
 21
-2.28230246E+02
  0
LINE
  8
0
 62
7
 10
-4.10999882E+02
 20
-4.51947951E+02
 11
-4.03999882E+02
 21
-4.51947951E+02
  0
LINE
  8
0
 62
7
 10
-4.13999882E+02
 20
-4.58730231E+02
 11
-4.13999882E+02
 21
-4.47730200E+02
  0
LINE
  8
0
 62
7
 10
-4.53999882E+02
 20
-4.49230185E+02
 11
-4.53999882E+02
 21
-4.58730231E+02
  0
LINE
  8
0
 62
7
 10
-4.16999882E+02
 20
-4.47730200E+02
 11
-4.16999882E+02
 21
-4.58730231E+02
  0
LINE
  8
0
 62
7
 10
-4.52499882E+02
 20
-4.47730200E+02
 11
-4.52499882E+02
 21
-4.58730231E+02
  0
LINE
  8
0
 62
7
 10
-1.80999928E+02
 20
-4.58730231E+02
 11
-1.80999928E+02
 21
-4.11730231E+02
  0
LINE
  8
0
 62
7
 10
-2.12999943E+02
 20
-4.11730231E+02
 11
-1.80999943E+02
 21
-4.11730231E+02
  0
LINE
  8
0
 62
7
 10
-2.16508708E+02
 20
-4.12350024E+02
 11
-1.80999956E+02
 21
-4.11730216E+02
  0
LINE
  8
0
 62
7
 10
-2.12999912E+02
 20
-4.12288779E+02
 11
-2.12999912E+02
 21
-4.11730231E+02
  0
LINE
  8
0
 62
7
 10
-4.13999912E+02
 20
-2.49230277E+02
 11
-4.13999912E+02
 21
-2.28230246E+02
  0
LINE
  8
0
 62
7
 10
-4.53999943E+02
 20
-2.48230124E+02
 11
-4.53999943E+02
 21
-2.29230307E+02
  0
LINE
  8
0
 62
7
 10
-4.16999912E+02
 20
-2.49730246E+02
 11
-4.16999912E+02
 21
-2.27730216E+02
  0
LINE
  8
0
 62
7
 10
-4.52499973E+02
 20
-2.27730216E+02
 11
-4.41999882E+02
 21
-2.27730216E+02
  0
LINE
  8
0
 62
7
 10
-4.52499943E+02
 20
-2.49730246E+02
 11
-4.52499943E+02
 21
-2.27730216E+02
  0
LINE
  8
0
 62
7
 10
-4.53999889E+02
 20
-2.29230333E+02
 11
-4.52499855E+02
 21
-2.27730299E+02
  0
LINE
  8
0
 62
2
 10
-4.53319950E+02
 20
-2.28550223E+02
 11
-4.41999882E+02
 21
-2.28550223E+02
  0
LINE
  8
0
 62
2
 10
-4.53319950E+02
 20
-4.48550223E+02
 11
-4.41999882E+02
 21
-4.48550223E+02
  0
LINE
  8
0
 62
7
 10
-4.16999912E+02
 20
-2.28550223E+02
 11
-4.13999912E+02
 21
-2.28550223E+02
  0
LINE
  8
0
 62
7
 10
-4.16999912E+02
 20
-2.48910208E+02
 11
-4.13999912E+02
 21
-2.48910208E+02
  0
LINE
  8
0
 62
7
 10
-4.52499973E+02
 20
-2.49730246E+02
 11
-4.41999882E+02
 21
-2.49730246E+02
  0
LINE
  8
0
 62
7
 10
-4.53999924E+02
 20
-2.48230151E+02
 11
-4.52499911E+02
 21
-2.49730163E+02
  0
LINE
  8
0
 62
2
 10
-4.53319950E+02
 20
-2.48910208E+02
 11
-4.41999882E+02
 21
-2.48910208E+02
  0
LINE
  8
0
 62
7
 10
-4.16999882E+02
 20
-4.48550223E+02
 11
-4.13999882E+02
 21
-4.48550223E+02
  0
LINE
  8
0
 62
7
 10
-1.14706480E+02
 20
-2.08230246E+02
 11
-1.34999928E+02
 21
-2.08230246E+02
  0
LINE
  8
0
  6
CENTER
 62
2
 10
-1.12108404E+02
 20
-2.03730246E+02
 11
-1.54499928E+02
 21
-2.03730246E+02
  0
LINE
  8
0
 62
7
 10
-1.09510328E+02
 20
-1.99230246E+02
 11
-1.54499928E+02
 21
-1.99230246E+02
  0
LINE
  8
0
 62
7
 10
-1.07200909E+02
 20
-1.95230216E+02
 11
-1.54499928E+02
 21
-1.95230216E+02
  0
LINE
  8
0
 62
7
 10
-3.94499912E+02
 20
-4.39230246E+02
 11
-3.89999912E+02
 21
-4.39230246E+02
  0
LINE
  8
0
 62
7
 10
-4.10999912E+02
 20
-4.46230185E+02
 11
-3.94999912E+02
 21
-4.46230185E+02
  0
LINE
  8
0
 62
7
 10
-3.89517426E+02
 20
-4.37702311E+02
 11
-3.80999969E+02
 21
-4.37230271E+02
  0
LINE
  8
0
 62
7
 10
-4.53999951E+02
 20
-4.49230240E+02
 11
-4.52499928E+02
 21
-4.47730217E+02
  0
LINE
  8
0
 62
7
 10
-4.52499943E+02
 20
-4.47730200E+02
 11
-4.41999882E+02
 21
-4.47730200E+02
  0
LINE
  8
0
  6
CENTER
 62
2
 10
-1.12108395E+02
 20
-4.23730216E+02
 11
-2.19524418E+02
 21
-4.23730216E+02
  0
LINE
  8
0
 62
7
 10
-4.03999882E+02
 20
-4.58730231E+02
 11
-4.03999882E+02
 21
-4.51947951E+02
  0
LINE
  8
0
 62
7
 10
-4.13999867E+02
 20
-4.55230371E+02
 11
-4.10999869E+02
 21
-4.51947956E+02
  0
LINE
  8
0
 62
7
 10
-4.13999902E+02
 20
-4.47730210E+02
 11
-4.10999889E+02
 21
-4.46230181E+02
  0
LINE
  8
0
 62
2
 10
-4.03999905E+02
 20
-4.51947941E+02
 11
-4.08999894E+02
 21
-4.58730231E+02
  0
LINE
  8
0
 62
2
 10
-4.08999882E+02
 20
-4.58730231E+02
 11
-4.12660433E+02
 21
-4.53764836E+02
  0
LINE
  8
0
 62
7
 10
6.45001463E+01
 20
-4.17956729E+02
 11
5.95001499E+01
 21
-4.20843479E+02
  0
LINE
  8
0
 62
7
 10
5.61001854E+01
 20
-4.58730231E+02
 11
5.61001854E+01
 21
-4.40729056E+02
  0
LINE
  8
0
 62
7
 10
5.25001488E+01
 20
-4.58730231E+02
 11
5.25001488E+01
 21
-4.15730261E+02
  0
LINE
  8
0
 62
7
 10
5.65001335E+01
 20
-4.12330267E+02
 11
1.42500103E+02
 21
-4.12330206E+02
  0
LINE
  8
0
  6
CENTER
 62
2
 10
6.45001488E+01
 20
-4.09357550E+02
 11
6.45001488E+01
 21
-4.39094473E+02
  0
LINE
  8
0
  6
CENTER
 62
2
 10
1.49055645E+02
 20
-4.23730231E+02
 11
1.19809170E+02
 21
-4.23730231E+02
  0
LINE
  8
0
 62
7
 10
8.24308088E+01
 20
-4.43428579E+02
 11
7.23107399E+01
 21
-4.33308514E+02
  0
LINE
  8
0
 62
7
 10
8.41987103E+01
 20
-4.41660709E+02
 11
7.40786576E+01
 21
-4.31540660E+02
  0
LINE
  8
0
 62
7
 10
9.82501488E+01
 20
-4.16330283E+02
 11
9.82501488E+01
 21
-4.35840506E+02
  0
LINE
  8
0
 62
7
 10
8.14990654E+01
 20
-4.15330267E+02
 11
1.17501308E+02
 21
-4.15330267E+02
  0
LINE
  8
0
 62
7
 10
6.95001640E+01
 20
-4.11730261E+02
 11
6.95001640E+01
 21
-4.12330267E+02
  0
LINE
  8
0
 62
7
 10
1.29500164E+02
 20
-4.11730231E+02
 11
1.29500164E+02
 21
-4.12330206E+02
  0
LINE
  8
0
 62
7
 10
1.38500164E+02
 20
-4.35864920E+02
 11
1.38500164E+02
 21
-4.36230261E+02
  0
LINE
  8
0
 62
7
 10
1.22365505E+02
 20
-4.19730185E+02
 11
1.22000210E+02
 21
-4.19730185E+02
  0
LINE
  8
0
 62
7
 10
7.66347771E+01
 20
-4.19730277E+02
 11
7.70001640E+01
 21
-4.19730277E+02
  0
LINE
  8
0
 62
7
 10
6.05000725E+01
 20
-4.35864905E+02
 11
6.05000725E+01
 21
-4.36230170E+02
  0
LINE
  8
0
  6
CENTER
 62
2
 10
7.87222710E+01
 20
-4.23730231E+02
 11
4.95124168E+01
 21
-4.23730231E+02
  0
LINE
  8
0
 62
7
 10
1.34500166E+02
 20
-4.29503740E+02
 11
1.29500170E+02
 21
-4.26616990E+02
  0
LINE
  8
0
  6
CENTER
 62
2
 10
1.10500225E+02
 20
-4.24430197E+02
 11
1.10500225E+02
 21
-4.09277609E+02
  0
LINE
  8
0
 62
7
 10
6.95001463E+01
 20
-4.26616983E+02
 11
6.45001499E+01
 21
-4.29503732E+02
  0
LINE
  8
0
 62
7
 10
6.95001488E+01
 20
-4.20843482E+02
 11
6.95001488E+01
 21
-4.26616980E+02
  0
LINE
  8
0
 62
7
 10
6.45001416E+01
 20
-4.17956737E+02
 11
6.95001412E+01
 21
-4.20843488E+02
  0
ARC
  8
0
 62
7
 10
1.57659344E+02
 20
-4.55730277E+02
 40
6.84084702E+00
 50
3.33989137E+02
 51
2.60107947E+01
  0
ARC
  8
0
 62
7
 10
-3.25999821E+02
 20
-1.82791434E+02
 40
9.06113625E+00
 50
6.74489921E+01
 51
1.12550903E+02
  0
ARC
  8
0
 62
7
 10
-3.31212345E+02
 20
-3.01205130E+02
 40
2.52511263E+00
 50
2.53478125E+02
 51
3.13479008E+02
  0
ARC
  8
0
 62
7
 10
-3.20787357E+02
 20
-3.01205130E+02
 40
2.52511263E+00
 50
2.26520987E+02
 51
2.86521856E+02
  0
ARC
  8
0
 62
7
 10
-3.25999821E+02
 20
-2.94669119E+02
 40
9.06113625E+00
 50
2.47449035E+02
 51
2.92550946E+02
  0
ARC
  8
0
 62
7
 10
-3.20787357E+02
 20
-1.76255423E+02
 40
2.52511263E+00
 50
7.34780821E+01
 51
1.33478944E+02
  0
ARC
  8
0
 62
7
 10
-3.31212345E+02
 20
-1.76255423E+02
 40
2.52511263E+00
 50
4.65209375E+01
 51
1.06521820E+02
  0
ARC
  8
0
 62
7
 10
-5.88340855E+02
 20
-4.55730277E+02
 40
6.84084702E+00
 50
3.33989137E+02
 51
2.60107913E+01
  0
ARC
  8
0
 62
7
 10
-7.04659122E+02
 20
-4.55730277E+02
 40
6.84084702E+00
 50
1.53989169E+02
 51
2.06010827E+02
  0
ARC
  8
0
 62
7
 10
-3.25999912E+02
 20
-4.58730231E+02
 40
4.00000000E+00
 50
0.00000000E+00
 51
1.80000000E+02
  0
ARC
  8
0
 62
7
 10
-3.25999912E+02
 20
-4.58730231E+02
 40
8.00000000E+00
 50
0.00000000E+00
 51
1.79477865E+02
  0
ARC
  8
0
 62
7
 10
-3.25999912E+02
 20
-4.58730231E+02
 40
3.30000043E+00
 50
0.00000000E+00
 51
1.80000000E+02
  0
ARC
  8
0
 62
7
 10
-6.97499943E+02
 20
-4.07730246E+02
 40
5.00000000E+00
 50
8.99999818E+01
 51
1.79999964E+02
  0
ARC
  8
0
 62
7
 10
-5.95499943E+02
 20
-4.07730246E+02
 40
5.00000000E+00
 50
0.00000000E+00
 51
8.99999818E+01
  0
CIRCLE
  8
0
 62
7
 10
-6.88499943E+02
 20
-4.16730261E+02
 40
4.18000031E+00
  0
CIRCLE
  8
0
 62
7
 10
-6.04499882E+02
 20
-4.16730261E+02
 40
8.00002670E+00
  0
CIRCLE
  8
0
 62
7
 10
-6.04499882E+02
 20
-4.16730261E+02
 40
8.25002670E+00
  0
CIRCLE
  8
0
 62
2
 10
-6.04499882E+02
 20
-4.16730261E+02
 40
5.00000000E+00
  0
CIRCLE
  8
0
 62
7
 10
-6.04499882E+02
 20
-4.16730261E+02
 40
4.18000031E+00
  0
CIRCLE
  8
0
 62
7
 10
-6.88499943E+02
 20
-4.16730261E+02
 40
8.00002670E+00
  0
CIRCLE
  8
0
 62
7
 10
-6.88499943E+02
 20
-4.16730261E+02
 40
8.25002670E+00
  0
CIRCLE
  8
0
 62
2
 10
-6.88499943E+02
 20
-4.16730261E+02
 40
5.00000000E+00
  0
CIRCLE
  8
0
 62
7
 10
-2.40999912E+02
 20
-2.23730185E+02
 40
8.71000004E+00
  0
CIRCLE
  8
0
 62
7
 10
-2.40999912E+02
 20
-2.23730185E+02
 40
7.44000006E+00
  0
CIRCLE
  8
0
 62
2
 10
-2.40999912E+02
 20
-2.23730185E+02
 40
8.32999992E+00
  0
CIRCLE
  8
0
 62
7
 10
-3.56999912E+02
 20
-2.23730246E+02
 40
6.57850027E+00
  0
CIRCLE
  8
0
 62
7
 10
-3.56999912E+02
 20
-2.23730246E+02
 40
5.72250080E+00
  0
ARC
  8
0
 62
7
 10
4.13410530E+01
 20
-4.55730277E+02
 40
6.84084702E+00
 50
1.53989169E+02
 51
2.06010827E+02
  0
ARC
  8
0
 62
7
 10
1.50500149E+02
 20
-4.07730246E+02
 40
5.00000000E+00
 50
0.00000000E+00
 51
8.99999818E+01
  0
ARC
  8
0
 62
7
 10
4.85001717E+01
 20
-4.07730246E+02
 40
5.00000000E+00
 50
8.99999818E+01
 51
1.79999964E+02
  0
ARC
  8
0
 62
2
 10
-6.46499943E+02
 20
-4.58730231E+02
 40
1.01800117E+01
 50
0.00000000E+00
 51
1.80000000E+02
  0
ARC
  8
0
 62
7
 10
-2.16499912E+02
 20
-1.92849967E+02
 40
5.00000000E-01
 50
9.10002493E+01
 51
1.79999951E+02
  0
ARC
  8
0
 62
7
 10
-2.16499912E+02
 20
-2.84610526E+02
 40
5.00000000E-01
 50
1.79999977E+02
 51
2.68999679E+02
  0
ARC
  8
0
 62
7
 10
-2.10999928E+02
 20
-2.10730216E+02
 40
2.00000000E+00
 50
8.99999818E+01
 51
1.79999951E+02
  0
ARC
  8
0
 62
7
 10
-2.10999928E+02
 20
-2.66730185E+02
 40
2.00000000E+00
 50
1.79999977E+02
 51
2.70000028E+02
  0
ARC
  8
0
 62
7
 10
-3.80499882E+02
 20
-2.17230185E+02
 40
5.00000000E-01
 50
8.99999818E+01
 51
1.79999951E+02
  0
ARC
  8
0
 62
7
 10
-3.94499882E+02
 20
-2.19730216E+02
 40
5.00000000E-01
 50
8.99999818E+01
 51
1.79999951E+02
  0
ARC
  8
0
 62
7
 10
-3.94499882E+02
 20
-2.57730185E+02
 40
5.00000000E-01
 50
1.79999977E+02
 51
2.69999974E+02
  0
ARC
  8
0
 62
7
 10
-3.80499882E+02
 20
-2.60230216E+02
 40
5.00000000E-01
 50
1.79999977E+02
 51
2.69999974E+02
  0
ARC
  8
0
 62
7
 10
-3.89499882E+02
 20
-2.59258475E+02
 40
5.00000000E-01
 50
1.79999977E+02
 51
2.67999192E+02
  0
ARC
  8
0
 62
7
 10
-3.89499882E+02
 20
-2.18201926E+02
 40
5.00000000E-01
 50
9.20007356E+01
 51
1.79999951E+02
  0
ARC
  8
0
 62
7
 10
-6.46499943E+02
 20
-4.58730155E+02
 40
2.20000000E+01
 50
0.00000000E+00
 51
1.80000199E+02
  0
ARC
  8
0
 62
7
 10
-6.46499943E+02
 20
-4.58730155E+02
 40
1.95000000E+01
 50
0.00000000E+00
 51
1.80000224E+02
  0
ARC
  8
0
 62
7
 10
-6.46499943E+02
 20
-4.58730231E+02
 40
2.10111084E+01
 50
0.00000000E+00
 51
1.80000000E+02
  0
CIRCLE
  8
0
 62
7
 10
-1.87999943E+02
 20
-2.54730307E+02
 40
2.59999990E+00
  0
CIRCLE
  8
0
 62
7
 10
-1.87999943E+02
 20
-2.54730307E+02
 40
5.00000000E+00
  0
ARC
  8
0
 62
7
 10
-3.89499882E+02
 20
-4.38201972E+02
 40
5.00000000E-01
 50
9.20007356E+01
 51
1.79999964E+02
  0
ARC
  8
0
 62
7
 10
-3.94499882E+02
 20
-4.39730231E+02
 40
5.00000000E-01
 50
8.99999818E+01
 51
1.79999964E+02
  0
ARC
  8
0
 62
7
 10
-3.80499882E+02
 20
-4.37230231E+02
 40
5.00000000E-01
 50
8.99999818E+01
 51
1.79999964E+02
  0
ARC
  8
0
 62
7
 10
-4.14499912E+02
 20
-4.58730246E+02
 40
1.25000010E+01
 50
6.99411317E-05
 51
3.28596884E+01
  0
ARC
  8
0
 62
7
 10
-2.16499928E+02
 20
-4.12849951E+02
 40
5.00000000E-01
 50
9.10002493E+01
 51
1.79999964E+02
  0
CIRCLE
  8
0
 62
7
 10
-1.96999912E+02
 20
-2.27730216E+02
 40
9.25000000E+00
  0
CIRCLE
  8
0
 62
2
 10
-1.96999943E+02
 20
-2.27730277E+02
 40
1.04775009E+01
  0
CIRCLE
  8
0
 62
7
 10
-1.96999912E+02
 20
-2.27730277E+02
 40
1.10000000E+01
  0
CIRCLE
  8
0
 62
7
 10
1.34500179E+02
 20
-4.23730231E+02
 40
4.18000031E+00
  0
CIRCLE
  8
0
 62
7
 10
6.45001488E+01
 20
-4.23730231E+02
 40
4.18000031E+00
  0
CIRCLE
  8
0
 62
7
 10
1.34500179E+02
 20
-4.23730261E+02
 40
8.69999981E+00
  0
ARC
  8
0
 62
7
 10
1.24214687E+02
 20
-4.30833685E+02
 40
1.00000000E+00
 50
3.15000047E+02
 51
3.46303671E+01
  0
ARC
  8
0
 62
7
 10
1.27396694E+02
 20
-4.34015723E+02
 40
1.00000000E+00
 50
5.53696217E+01
 51
1.35000014E+02
  0
ARC
  8
0
 62
7
 10
1.01750164E+02
 20
-4.16330237E+02
 40
1.00000000E+00
 50
9.00000025E+01
 51
1.80000046E+02
  0
ARC
  8
0
 62
7
 10
1.34500179E+02
 20
-4.23730261E+02
 40
1.15000000E+01
 50
1.66113111E+02
 51
2.83886595E+02
  0
ARC
  8
0
 62
7
 10
1.41900112E+02
 20
-4.56480231E+02
 40
1.00000000E+00
 50
2.70000052E+02
 51
3.59721781E-05
  0
ARC
  8
0
 62
7
 10
1.42500149E+02
 20
-4.15730246E+02
 40
3.40000033E+00
 50
2.23117997E-05
 51
8.99999750E+01
  0
ARC
  8
0
 62
7
 10
1.42500149E+02
 20
-4.15730246E+02
 40
4.00000000E+00
 50
2.23117997E-05
 51
8.99999750E+01
  0
CIRCLE
  8
0
 62
7
 10
1.34500179E+02
 20
-4.23730261E+02
 40
8.00000000E+00
  0
CIRCLE
  8
0
 62
2
 10
6.45001488E+01
 20
-4.23730231E+02
 40
5.00000000E+00
  0
ARC
  8
0
 62
7
 10
1.22000210E+02
 20
-4.16230231E+02
 40
3.50000024E+00
 50
1.81273033E+02
 51
2.69999984E+02
  0
ARC
  8
0
 62
7
 10
1.42000225E+02
 20
-4.36230261E+02
 40
3.50000024E+00
 50
1.79999500E+02
 51
2.68725460E+02
  0
ARC
  8
0
 62
7
 10
1.41900112E+02
 20
-4.40729148E+02
 40
1.00000000E+00
 50
3.59721781E-05
 51
8.87252023E+01
  0
ARC
  8
0
 62
7
 10
1.17501308E+02
 20
-4.16330206E+02
 40
1.00000000E+00
 50
1.27300564E+00
 51
9.00000162E+01
  0
ARC
  8
0
 62
7
 10
1.14094631E+02
 20
-4.40953742E+02
 40
1.00000000E+00
 50
2.30614484E+02
 51
3.15000026E+02
  0
ARC
  8
0
 62
7
 10
1.17276638E+02
 20
-4.44135748E+02
 40
1.00000000E+00
 50
1.35000014E+02
 51
2.19386168E+02
  0
ARC
  8
0
 62
7
 10
1.01750164E+02
 20
-4.35840552E+02
 40
1.00000000E+00
 50
1.80000036E+02
 51
2.64386169E+02
  0
ARC
  8
0
 62
7
 10
1.22389858E+02
 20
-4.56480231E+02
 40
1.00000000E+00
 50
1.85613878E+02
 51
2.70000038E+02
  0
CIRCLE
  8
0
 62
2
 10
1.34500179E+02
 20
-4.23730231E+02
 40
5.00000000E+00
  0
CIRCLE
  8
0
 62
7
 10
6.45001488E+01
 20
-4.23730261E+02
 40
8.69999981E+00
  0
ARC
  8
0
 62
7
 10
7.16036339E+01
 20
-4.34015723E+02
 40
1.00000000E+00
 50
4.50000423E+01
 51
1.24630380E+02
  0
ARC
  8
0
 62
7
 10
7.47856407E+01
 20
-4.30833716E+02
 40
1.00000000E+00
 50
1.45369621E+02
 51
2.25000010E+02
  0
ARC
  8
0
 62
7
 10
9.72501640E+01
 20
-4.16330283E+02
 40
1.00000000E+00
 50
3.59721781E-05
 51
9.00000162E+01
  0
ARC
  8
0
 62
7
 10
5.71001244E+01
 20
-4.56480246E+02
 40
1.00000000E+00
 50
1.79999991E+02
 51
2.70000028E+02
  0
ARC
  8
0
 62
7
 10
5.65001335E+01
 20
-4.15730261E+02
 40
3.40000033E+00
 50
9.00000162E+01
 51
1.80000005E+02
  0
ARC
  8
0
 62
7
 10
6.45001488E+01
 20
-4.23730261E+02
 40
1.15000000E+01
 50
2.56113130E+02
 51
1.38865754E+01
  0
ARC
  8
0
 62
7
 10
5.65001335E+01
 20
-4.15730261E+02
 40
4.00000000E+00
 50
9.00000162E+01
 51
1.80000005E+02
  0
CIRCLE
  8
0
 62
7
 10
6.45001488E+01
 20
-4.23730261E+02
 40
8.00000000E+00
  0
ARC
  8
0
 62
7
 10
5.70001488E+01
 20
-4.36230170E+02
 40
3.50000024E+00
 50
2.71273049E+02
 51
1.86693353E-05
  0
ARC
  8
0
 62
7
 10
7.70001640E+01
 20
-4.16230170E+02
 40
3.50000024E+00
 50
2.69999984E+02
 51
3.58725492E+02
  0
ARC
  8
0
 62
7
 10
5.71001244E+01
 20
-4.40729056E+02
 40
1.00000000E+00
 50
9.12730270E+01
 51
1.80000005E+02
  0
ARC
  8
0
 62
7
 10
8.14990654E+01
 20
-4.16330283E+02
 40
1.00000000E+00
 50
9.00000162E+01
 51
1.78725219E+02
  0
ARC
  8
0
 62
7
 10
8.17236900E+01
 20
-4.44135779E+02
 40
1.00000000E+00
 50
3.20614517E+02
 51
4.50000423E+01
  0
ARC
  8
0
 62
7
 10
8.49056969E+01
 20
-4.40953742E+02
 40
1.00000000E+00
 50
2.25000000E+02
 51
3.09386157E+02
  0
ARC
  8
0
 62
7
 10
7.66104698E+01
 20
-4.56480246E+02
 40
1.00000000E+00
 50
2.70000038E+02
 51
3.54386163E+02
  0
ARC
  8
0
 62
7
 10
9.72501640E+01
 20
-4.35840506E+02
 40
1.00000000E+00
 50
2.75613894E+02
 51
3.59721781E-05
  0
ARC
  8
0
 62
7
 10
9.95001640E+01
 20
-4.58730155E+02
 40
2.20000000E+01
 50
0.00000000E+00
 51
1.80000199E+02
  0
ARC
  8
0
 62
7
 10
6.15001030E+01
 20
-4.35864905E+02
 40
1.00000000E+00
 50
7.61138592E+01
 51
1.80000005E+02
  0
ARC
  8
0
 62
7
 10
7.66348228E+01
 20
-4.20730261E+02
 40
1.00000000E+00
 50
9.00000162E+01
 51
1.93885698E+02
  0
ARC
  8
0
 62
7
 10
1.22365505E+02
 20
-4.20730170E+02
 40
1.00000000E+00
 50
3.46112226E+02
 51
9.00000162E+01
  0
ARC
  8
0
 62
7
 10
1.37500179E+02
 20
-4.35864920E+02
 40
1.00000000E+00
 50
3.59721781E-05
 51
1.03886119E+02
  0
INSERT
  8
0
  2
PP2
  6
BYBLOCK
 62
0
 10
0.00000000E+00
 20
0.00000000E+00
 41
1.00000000E+00
 42
1.00000000E+00
 50
0.00000000E+00
  0
LINE
  8
0
 62
4
 10
-4.40570816E+02
 20
-2.38730246E+02
 11
-4.30428947E+02
 21
-2.38730246E+02
  0
ARC
  8
0
 62
4
 10
-4.52106669E+02
 20
-2.46730246E+02
 40
2.31067870E+01
 50
3.39743797E+02
 51
2.02562028E+01
  0
ARC
  8
0
 62
4
 10
-4.52106669E+02
 20
-2.30730246E+02
 40
2.31067870E+01
 50
3.39743797E+02
 51
2.02562028E+01
  0
ARC
  8
0
 62
4
 10
-4.18893095E+02
 20
-2.46730246E+02
 40
2.31067870E+01
 50
1.59743797E+02
 51
2.00256203E+02
  0
ARC
  8
0
 62
4
 10
-4.18893095E+02
 20
-2.30730246E+02
 40
2.31067870E+01
 50
1.59743797E+02
 51
2.00256203E+02
  0
LINE
  8
0
 62
4
 10
-4.28999882E+02
 20
-2.22730246E+02
 11
-4.28999882E+02
 21
-2.54730246E+02
  0
LINE
  8
0
 62
4
 10
-4.41999882E+02
 20
-2.22730246E+02
 11
-4.41999882E+02
 21
-2.54730246E+02
  0
LINE
  8
0
 62
4
 10
-4.41999882E+02
 20
-2.22730246E+02
 11
-4.28999882E+02
 21
-2.22730246E+02
  0
LINE
  8
0
 62
4
 10
-4.41999882E+02
 20
-2.54730246E+02
 11
-4.28999882E+02
 21
-2.54730246E+02
  0
ARC
  8
0
 62
4
 10
-4.33437279E+02
 20
-4.45009678E+02
 40
8.56342793E+00
 50
1.46410665E+02
 51
2.13589318E+02
  0
ARC
  8
0
 62
4
 10
-4.12945081E+02
 20
-4.58747288E+02
 40
2.90548000E+01
 50
1.61955287E+02
 51
1.79966364E+02
  0
ARC
  8
0
 62
4
 10
-4.37562485E+02
 20
-4.45009678E+02
 40
8.56342793E+00
 50
3.26410605E+02
 51
3.35892584E+01
  0
ARC
  8
0
 62
4
 10
-4.58054677E+02
 20
-4.58747288E+02
 40
2.90548000E+01
 50
3.36363131E-02
 51
1.80446768E+01
  0
LINE
  8
0
 62
4
 10
-4.40570820E+02
 20
-4.49747288E+02
 11
-4.30428944E+02
 21
-4.49747288E+02
  0
LINE
  8
0
 62
4
 10
-4.30428962E+02
 20
-4.40272112E+02
 11
-4.28999889E+02
 21
-4.42747300E+02
  0
LINE
  8
0
 62
4
 10
-4.41999898E+02
 20
-4.42747285E+02
 11
-4.40570815E+02
 21
-4.40272068E+02
  0
LINE
  8
0
 62
4
 10
-4.28999882E+02
 20
-4.42747284E+02
 11
-4.28999882E+02
 21
-4.58730231E+02
  0
LINE
  8
0
 62
4
 10
-4.41999882E+02
 20
-4.42747284E+02
 11
-4.41999882E+02
 21
-4.58730231E+02
  0
LINE
  8
0
 62
4
 10
-4.40570820E+02
 20
-4.40272064E+02
 11
-4.30428944E+02
 21
-4.40272064E+02
  0
ARC
  8
0
 62
4
 10
-6.46499943E+02
 20
-4.58730231E+02
 40
1.60000000E+01
 50
0.00000000E+00
 51
1.80000000E+02
  0
ARC
  8
0
 62
7
 10
-6.46499943E+02
 20
-4.58730231E+02
 40
1.10000000E+01
 50
0.00000000E+00
 51
1.80000000E+02
  0
LINE
  8
0
 62
4
 10
-6.30499943E+02
 20
-4.49492621E+02
 11
-6.30499943E+02
 21
-4.58730231E+02
  0
LINE
  8
0
 62
4
 10
-6.62499943E+02
 20
-4.49492621E+02
 11
-6.62499943E+02
 21
-4.58730231E+02
  0
LINE
  8
0
 62
4
 10
-6.46499882E+02
 20
-4.40255009E+02
 11
-6.30499909E+02
 21
-4.49492590E+02
  0
LINE
  8
0
 62
4
 10
-6.62499977E+02
 20
-4.49492650E+02
 11
-6.46499915E+02
 21
-4.40255008E+02
  0
LINE
  8
0
 62
7
 10
-4.28999882E+02
 20
-2.27730216E+02
 11
-4.16999912E+02
 21
-2.27730216E+02
  0
LINE
  8
0
 62
2
 10
-4.28999882E+02
 20
-2.28550223E+02
 11
-4.16999912E+02
 21
-2.28550223E+02
  0
LINE
  8
0
 62
7
 10
-4.28999882E+02
 20
-2.49730246E+02
 11
-4.16999912E+02
 21
-2.49730246E+02
  0
LINE
  8
0
 62
2
 10
-4.28999882E+02
 20
-2.48910208E+02
 11
-4.16999912E+02
 21
-2.48910208E+02
  0
LINE
  8
0
 62
2
 10
-4.28999882E+02
 20
-4.48550223E+02
 11
-4.16999882E+02
 21
-4.48550223E+02
  0
LINE
  8
0
 62
7
 10
-4.28999882E+02
 20
-4.47730200E+02
 11
-4.16999882E+02
 21
-4.47730200E+02
  0
LINE
  8
0
 62
7
 10
-1.69499928E+02
 20
-1.99230246E+02
 11
-1.80999928E+02
 21
-1.99230246E+02
  0
LINE
  8
0
 62
7
 10
-1.69499928E+02
 20
-1.95230216E+02
 11
-1.80999928E+02
 21
-1.95230216E+02
  0
LINE
  8
0
 62
7
 10
-1.49924847E+02
 20
-2.69230246E+02
 11
-1.80999928E+02
 21
-2.69230246E+02
  0
LINE
  8
0
 62
7
 10
-1.57430418E+02
 20
-2.82230277E+02
 11
-1.80999928E+02
 21
-2.82230277E+02
  0
LINE
  8
0
 62
7
 10
-1.55120999E+02
 20
-2.78230246E+02
 11
-1.80999928E+02
 21
-2.78230246E+02
  0
LINE
  8
0
 62
7
 10
-1.07200927E+02
 20
-4.15230231E+02
 11
-1.80999928E+02
 21
-4.15230231E+02
  0
LINE
  8
0
 62
7
 10
-1.09510319E+02
 20
-4.19230216E+02
 11
-1.80999928E+02
 21
-4.19230216E+02
  0
LINE
  8
0
 62
7
 10
-1.14706480E+02
 20
-4.28230231E+02
 11
-1.80999928E+02
 21
-4.28230231E+02
  0
TEXT
  8
0
 10
-1.95714854E+02
 20
4.60864332E+02
 40
1.25000000E+01
  1
STRETCH LINE
 41
1.05263174E+00
  7
MONOTXT
  0
LINE
  8
0
 62
7
 10
-8.20500000E+02
 20
-5.74500000E+02
 11
8.20500000E+02
 21
-5.74500000E+02
  0
LINE
  8
0
 62
7
 10
-8.20500000E+02
 20
5.74500000E+02
 11
-8.20500000E+02
 21
-5.74500000E+02
  0
LINE
  8
0
 62
7
 10
8.20500000E+02
 20
5.74500000E+02
 11
8.20500000E+02
 21
-5.74500000E+02
  0
LINE
  8
0
 62
7
 10
-8.20500000E+02
 20
5.74500000E+02
 11
8.20500000E+02
 21
5.74500000E+02
  0
LINE
  8
0
 62
7
 10
-8.20500000E+02
 20
5.24500000E+02
 11
-4.70500000E+02
 21
5.24500000E+02
  0
LINE
  8
0
 62
7
 10
4.70500000E+02
 20
-5.24500000E+02
 11
8.20500000E+02
 21
-5.24500000E+02
  0
LINE
  8
0
 62
7
 10
4.70500000E+02
 20
5.74500000E+02
 11
4.70500000E+02
 21
5.24500000E+02
  0
LINE
  8
0
 62
7
 10
-4.70500000E+02
 20
5.74500000E+02
 11
-4.70500000E+02
 21
5.24500000E+02
  0
LINE
  8
0
 62
7
 10
4.70500000E+02
 20
-5.24500000E+02
 11
4.70500000E+02
 21
-5.74500000E+02
  0
LINE
  8
0
 62
7
 10
4.70500000E+02
 20
5.24500000E+02
 11
8.20500000E+02
 21
5.24500000E+02
  0
TEXT
  8
0
 62
7
 10
-7.84358752E+02
 20
4.75500000E+02
 40
1.80000000E+01
  1
MODEL:DDAR80*75
 41
1.00000000E+00
  7
MONOTXT
  0
TEXT
  8
0
 62
7
 10
4.86570312E+02
 20
-5.62000000E+02
 40
2.50000000E+01
  1
KOGANEI CORP.
 41
1.04838710E+00
  7
MONOTXT
  0
TEXT
  8
0
 62
7
 10
5.76070624E+02
 20
5.40500000E+02
 40
1.80000000E+01
  1
Ver. 1.0
 41
1.08108108E+00
  7
MONOTXT
  0
TEXT
  8
0
 62
7
 10
-7.95929376E+02
 20
5.40500000E+02
 40
1.80000000E+01
  1
NEW DYNA CYLINDER
 41
1.07594937E+00
  7
MONOTXT
  0
ENDSEC
  0
EOF
