  0
SECTION
  2
HEADER
  9
$ACADVER
  1
AC1003
  9
$EXTMIN
 10
-8.20500000E+02
 20
-5.74500000E+02
  9
$EXTMAX
 10
8.35584142E+02
 20
5.74500000E+02
  9
$LIMMIN
 10
-8.20501000E+02
 20
-5.74501000E+02
  9
$LIMMAX
 10
8.35585142E+02
 20
5.74501000E+02
  9
$SNAPUNIT
 10
1
 20
1
  9
$SNAPBASE
 10
0
 20
0
  9
$GRIDMODE
 70
0
  9
$GRIDUNIT
 10
0
 20
0
  9
$LTSCALE
 40
2.76014024E+01
  9
$TEXTSIZE
 40
3.2
  9
$DIMTAD
 70
0
  9
$LUNITS
 70
2
  9
$LUPREC
 70
4
  9
$FILLETRAD
 40
0
  9
$AUNITS
 70
0
  9
$AUPREC
 70
0
  0
ENDSEC
  0
SECTION
  2
TABLES
  0
TABLE
  2
LTYPE
 70
2
  0
LTYPE
  2
CONTINUOUS
 70
64
  3
Solid-Line
 72
65
 73
0
 40
0
  0
LTYPE
  2
DASHED
 70
64
  3
DASHED
 72
65
 73
2
 40
.75
 49
.5
 49
-.25
  0
LTYPE
  2
HIDDEN
 70
64
  3
HIDDEN
 72
65
 73
2
 40
.375
 49
.25
 49
-.125
  0
LTYPE
  2
CENTER
 70
64
  3
CENTER
 72
65
 73
4
 40
2
 49
1.25
 49
-.25
 49
.25
 49
-.25
  0
LTYPE
  2
PHANTOM
 70
64
  3
PHANTOM
 72
65
 73
6
 40
2.5
 49
1.25
 49
-.25
 49
.25
 49
-.25
 49
.25
 49
-.25
  0
ENDTAB
  0
TABLE
  2
LAYER
 70
1
  0
LAYER
  2
1
 70
0
 62
7
  6
CONTINUOUS
 0
ENDTAB
  0
TABLE
  2
STYLE
 70
2
  0
STYLE
  2
MONOTXT
 70
0
 40
0
 41
1
 50
0
 71
0
 42
.2
  3
monotxt
  0
STYLE
  2
BIGFONT
 70
0
 40
0
 41
1
 50
0
 71
0
 42
.2
  3
txt
  4
bigfont
  0
ENDTAB
  0
ENDSEC
  0
SECTION
  2
BLOCKS
  0
BLOCK
  8
0
  2
PP1
 70
10
 10
0.0
 20
0.0
  0
LINE
  8
0
  6
DASHED
 62
7
 10
-1.65669775E+02
 20
3.89000000E+02
 11
-1.62330059E+02
 21
3.89000000E+02
  0
LINE
  8
0
  6
DASHED
 62
7
 10
-1.66999967E+02
 20
3.91000000E+02
 11
-1.60999924E+02
 21
3.91000000E+02
  0
LINE
  8
0
  6
DASHED
 62
7
 10
-1.66999940E+02
 20
3.93000000E+02
 11
-1.60999977E+02
 21
3.93000000E+02
  0
LINE
  8
0
  6
DASHED
 62
7
 10
-1.66999980E+02
 20
3.90000000E+02
 11
-1.60999897E+02
 21
3.90000000E+02
  0
LINE
  8
0
  6
DASHED
 62
7
 10
-1.66999953E+02
 20
3.92000000E+02
 11
-1.60999950E+02
 21
3.92000000E+02
  0
LINE
  8
0
  6
DASHED
 62
7
 10
-1.65669875E+02
 20
3.94000000E+02
 11
-1.62330025E+02
 21
3.94000000E+02
  0
LINE
  8
0
  6
DASHED
 62
7
 10
-1.62188109E+02
 20
3.89081955E+02
 11
-1.60999928E+02
 21
3.91139945E+02
  0
LINE
  8
0
  6
DASHED
 62
7
 10
-1.64826058E+02
 20
3.88512893E+02
 11
-1.61826065E+02
 21
3.93709034E+02
  0
LINE
  8
0
  6
DASHED
 62
7
 10
-1.66558121E+02
 20
3.89512873E+02
 11
-1.63558108E+02
 21
3.94709047E+02
  0
LINE
  8
0
  6
DASHED
 62
7
 10
-1.66999943E+02
 20
3.92747613E+02
 11
-1.66580380E+02
 21
3.93474318E+02
  0
LINE
  8
0
  6
DASHED
 62
7
 10
-1.63920162E+02
 20
3.88081951E+02
 11
-1.60999980E+02
 21
3.93139854E+02
  0
LINE
  8
0
  6
DASHED
 62
7
 10
-1.65692089E+02
 20
3.89012883E+02
 11
-1.62692086E+02
 21
3.94209040E+02
  0
LINE
  8
0
  6
DASHED
 62
7
 10
-1.66999970E+02
 20
3.90747567E+02
 11
-1.64848327E+02
 21
3.94474322E+02
  0
LINE
  8
0
  6
DASHED
 62
7
 10
-1.60999973E+02
 20
3.92860133E+02
 11
-1.61322092E+02
 21
3.93418059E+02
  0
LINE
  8
0
  6
DASHED
 62
7
 10
-1.61393059E+02
 20
3.89540979E+02
 11
-1.64393077E+02
 21
3.94737162E+02
  0
LINE
  8
0
  6
DASHED
 62
7
 10
-1.63125109E+02
 20
3.88540976E+02
 11
-1.66125127E+02
 21
3.93737160E+02
  0
LINE
  8
0
  6
DASHED
 62
7
 10
-1.65714403E+02
 20
3.89025766E+02
 11
-1.66999963E+02
 21
3.91252421E+02
  0
LINE
  8
0
  6
DASHED
 62
7
 10
-1.60999920E+02
 20
3.90860042E+02
 11
-1.63054158E+02
 21
3.94418086E+02
  0
LINE
  8
0
  6
DASHED
 62
7
 10
-1.62259084E+02
 20
3.89040978E+02
 11
-1.65259102E+02
 21
3.94237161E+02
  0
LINE
  8
0
  6
DASHED
 62
7
 10
-1.63991134E+02
 20
3.88040975E+02
 11
-1.66991151E+02
 21
3.93237159E+02
  0
ENDBLK
  8
0
  0
BLOCK
  8
0
  2
PP2
 70
10
 10
0.0
 20
0.0
  0
LINE
  8
0
  6
DASHED
 62
7
 10
-3.71669830E+02
 20
3.89000000E+02
 11
-3.68330166E+02
 21
3.89000000E+02
  0
LINE
  8
0
  6
DASHED
 62
7
 10
-3.72999966E+02
 20
3.91000000E+02
 11
-3.66999998E+02
 21
3.91000000E+02
  0
LINE
  8
0
  6
DASHED
 62
7
 10
-3.72999913E+02
 20
3.93000000E+02
 11
-3.66999998E+02
 21
3.93000000E+02
  0
LINE
  8
0
  6
DASHED
 62
7
 10
-3.72999992E+02
 20
3.90000000E+02
 11
-3.66999998E+02
 21
3.90000000E+02
  0
LINE
  8
0
  6
DASHED
 62
7
 10
-3.72999939E+02
 20
3.92000000E+02
 11
-3.66999998E+02
 21
3.92000000E+02
  0
LINE
  8
0
  6
DASHED
 62
7
 10
-3.71669885E+02
 20
3.94000000E+02
 11
-3.68330060E+02
 21
3.94000000E+02
  0
LINE
  8
0
  6
DASHED
 62
7
 10
-3.67493098E+02
 20
3.89483283E+02
 11
-3.66999998E+02
 21
3.90337357E+02
  0
LINE
  8
0
  6
DASHED
 62
7
 10
-3.70478600E+02
 20
3.88312241E+02
 11
-3.67478594E+02
 21
3.93508404E+02
  0
LINE
  8
0
  6
DASHED
 62
7
 10
-3.72210650E+02
 20
3.89312243E+02
 11
-3.69210644E+02
 21
3.94508407E+02
  0
LINE
  8
0
  6
DASHED
 62
7
 10
-3.72999941E+02
 20
3.91945152E+02
 11
-3.71885421E+02
 21
3.93875556E+02
  0
LINE
  8
0
  6
DASHED
 62
7
 10
-3.69225151E+02
 20
3.88483278E+02
 11
-3.66999998E+02
 21
3.92337357E+02
  0
LINE
  8
0
  6
DASHED
 62
7
 10
-3.71344625E+02
 20
3.88812242E+02
 11
-3.68344619E+02
 21
3.94008406E+02
  0
LINE
  8
0
  6
DASHED
 62
7
 10
-3.72999993E+02
 20
3.89945060E+02
 11
-3.70153341E+02
 21
3.94875606E+02
  0
LINE
  8
0
  6
DASHED
 62
7
 10
-3.67045608E+02
 20
3.89741642E+02
 11
-3.70045614E+02
 21
3.94937805E+02
  0
LINE
  8
0
  6
DASHED
 62
7
 10
-3.68777658E+02
 20
3.88741640E+02
 11
-3.71777650E+02
 21
3.93937780E+02
  0
LINE
  8
0
  6
DASHED
 62
7
 10
-3.71019419E+02
 20
3.88624484E+02
 11
-3.72999938E+02
 21
3.92054843E+02
  0
LINE
  8
0
  6
DASHED
 62
7
 10
-3.66999998E+02
 20
3.91662643E+02
 11
-3.68359178E+02
 21
3.94016811E+02
  0
LINE
  8
0
  6
DASHED
 62
7
 10
-3.67911633E+02
 20
3.89241641E+02
 11
-3.70911632E+02
 21
3.94437792E+02
  0
LINE
  8
0
  6
DASHED
 62
7
 10
-3.69643682E+02
 20
3.88241639E+02
 11
-3.72643669E+02
 21
3.93437767E+02
  0
LINE
  8
0
  6
DASHED
 62
7
 10
-3.72751472E+02
 20
3.89624488E+02
 11
-3.72999991E+02
 21
3.90054935E+02
  0
ENDBLK
  8
0
  0
BLOCK
  8
0
  2
PP3
 70
10
 10
0.0
 20
0.0
  0
LINE
  8
0
  6
DASHED
 62
7
 10
-4.06276081E+02
 20
-1.99000000E+02
 11
-4.05124574E+02
 21
-1.99000000E+02
  0
LINE
  8
0
  6
DASHED
 62
7
 10
-4.08700312E+02
 20
-1.97000000E+02
 11
-4.02700328E+02
 21
-1.97000000E+02
  0
LINE
  8
0
  6
DASHED
 62
7
 10
-4.08700259E+02
 20
-1.95000000E+02
 11
-4.02700328E+02
 21
-1.95000000E+02
  0
LINE
  8
0
  6
DASHED
 62
7
 10
-4.06732267E+02
 20
-1.93000000E+02
 11
-4.04668357E+02
 21
-1.93000000E+02
  0
LINE
  8
0
  6
DASHED
 62
7
 10
-4.08008127E+02
 20
-1.98000000E+02
 11
-4.03392529E+02
 21
-1.98000000E+02
  0
LINE
  8
0
  6
DASHED
 62
7
 10
-4.08700286E+02
 20
-1.96000000E+02
 11
-4.02700328E+02
 21
-1.96000000E+02
  0
LINE
  8
0
  6
DASHED
 62
7
 10
-4.08464260E+02
 20
-1.94000000E+02
 11
-4.02936311E+02
 21
-1.94000000E+02
  0
LINE
  8
0
  6
DASHED
 62
7
 10
-4.04521520E+02
 20
-1.98651825E+02
 11
-4.02700328E+02
 21
-1.95497428E+02
  0
LINE
  8
0
  6
DASHED
 62
7
 10
-4.06842975E+02
 20
-1.98672703E+02
 11
-4.03842968E+02
 21
-1.93476540E+02
  0
LINE
  8
0
  6
DASHED
 62
7
 10
-4.08575024E+02
 20
-1.97672701E+02
 11
-4.05575018E+02
 21
-1.92476538E+02
  0
LINE
  8
0
  6
DASHED
 62
7
 10
-4.02789467E+02
 20
-1.97651821E+02
 11
-4.02700328E+02
 21
-1.97497428E+02
  0
LINE
  8
0
  6
DASHED
 62
7
 10
-4.05976950E+02
 20
-1.99172704E+02
 11
-4.02976944E+02
 21
-1.93976541E+02
  0
LINE
  8
0
  6
DASHED
 62
7
 10
-4.07709000E+02
 20
-1.98172702E+02
 11
-4.04708993E+02
 21
-1.92976539E+02
  0
LINE
  8
0
  6
DASHED
 62
7
 10
-4.08700283E+02
 20
-1.95889655E+02
 11
-4.07181784E+02
 21
-1.93259537E+02
  0
LINE
  8
0
  6
DASHED
 62
7
 10
-4.02700328E+02
 20
-1.96502572E+02
 11
-4.04749630E+02
 21
-1.92953077E+02
  0
LINE
  8
0
  6
DASHED
 62
7
 10
-4.03957023E+02
 20
-1.98325912E+02
 11
-4.06957020E+02
 21
-1.93129765E+02
  0
LINE
  8
0
  6
DASHED
 62
7
 10
-4.05689073E+02
 20
-1.99325914E+02
 11
-4.08689056E+02
 21
-1.94129790E+02
  0
LINE
  8
0
  6
DASHED
 62
7
 10
-4.02700328E+02
 20
-1.94502572E+02
 11
-4.03017576E+02
 21
-1.93953081E+02
  0
LINE
  8
0
  6
DASHED
 62
7
 10
-4.03090998E+02
 20
-1.97825911E+02
 11
-4.06091002E+02
 21
-1.92629753E+02
  0
LINE
  8
0
  6
DASHED
 62
7
 10
-4.04823048E+02
 20
-1.98825913E+02
 11
-4.07823038E+02
 21
-1.93629778E+02
  0
LINE
  8
0
  6
DASHED
 62
7
 10
-4.07409871E+02
 20
-1.98345405E+02
 11
-4.08700289E+02
 21
-1.96110335E+02
  0
ENDBLK
  8
0
  0
BLOCK
  8
0
  2
PP4
 70
10
 10
0.0
 20
0.0
  0
LINE
  8
0
  6
DASHED
 62
7
 10
-2.00275992E+02
 20
-1.99000000E+02
 11
-1.99124468E+02
 21
-1.99000000E+02
  0
LINE
  8
0
  6
DASHED
 62
7
 10
-2.02700305E+02
 20
-1.97000000E+02
 11
-1.96700237E+02
 21
-1.97000000E+02
  0
LINE
  8
0
  6
DASHED
 62
7
 10
-2.02700278E+02
 20
-1.95000000E+02
 11
-1.96700290E+02
 21
-1.95000000E+02
  0
LINE
  8
0
  6
DASHED
 62
7
 10
-2.00732238E+02
 20
-1.93000000E+02
 11
-1.98668312E+02
 21
-1.93000000E+02
  0
LINE
  8
0
  6
DASHED
 62
7
 10
-2.02008091E+02
 20
-1.98000000E+02
 11
-1.97392422E+02
 21
-1.98000000E+02
  0
LINE
  8
0
  6
DASHED
 62
7
 10
-2.02700291E+02
 20
-1.96000000E+02
 11
-1.96700263E+02
 21
-1.96000000E+02
  0
LINE
  8
0
  6
DASHED
 62
7
 10
-2.02464284E+02
 20
-1.94000000E+02
 11
-1.96936292E+02
 21
-1.94000000E+02
  0
LINE
  8
0
  6
DASHED
 62
7
 10
-1.99216531E+02
 20
-1.99053153E+02
 11
-1.96700298E+02
 21
-1.94694910E+02
  0
LINE
  8
0
  6
DASHED
 62
7
 10
-2.01190437E+02
 20
-1.98472059E+02
 11
-1.98190437E+02
 21
-1.93275906E+02
  0
LINE
  8
0
  6
DASHED
 62
7
 10
-2.02700306E+02
 20
-1.97087228E+02
 11
-2.00144695E+02
 21
-1.92660781E+02
  0
LINE
  8
0
  6
DASHED
 62
7
 10
-1.97484477E+02
 20
-1.98053148E+02
 11
-1.96700245E+02
 21
-1.96694818E+02
  0
LINE
  8
0
  6
DASHED
 62
7
 10
-2.00324406E+02
 20
-1.98972049E+02
 11
-1.97324415E+02
 21
-1.93775913E+02
  0
LINE
  8
0
  6
DASHED
 62
7
 10
-2.02056469E+02
 20
-1.97972070E+02
 11
-1.99056458E+02
 21
-1.92775899E+02
  0
LINE
  8
0
  6
DASHED
 62
7
 10
-2.02700279E+02
 20
-1.95087183E+02
 11
-2.01876749E+02
 21
-1.93660786E+02
  0
LINE
  8
0
  6
DASHED
 62
7
 10
-1.96700229E+02
 20
-1.97305210E+02
 11
-1.99444615E+02
 21
-1.92551793E+02
  0
LINE
  8
0
  6
DASHED
 62
7
 10
-1.98304474E+02
 20
-1.98526575E+02
 11
-2.01304492E+02
 21
-1.93330392E+02
  0
LINE
  8
0
  6
DASHED
 62
7
 10
-2.00372818E+02
 20
-1.98944099E+02
 11
-2.02700277E+02
 21
-1.94912821E+02
  0
LINE
  8
0
  6
DASHED
 62
7
 10
-1.96700282E+02
 20
-1.95305118E+02
 11
-1.97712549E+02
 21
-1.93551820E+02
  0
LINE
  8
0
  6
DASHED
 62
7
 10
-1.97438449E+02
 20
-1.98026574E+02
 11
-2.00438467E+02
 21
-1.92830391E+02
  0
LINE
  8
0
  6
DASHED
 62
7
 10
-1.99170499E+02
 20
-1.99026576E+02
 11
-2.02170517E+02
 21
-1.93830393E+02
  0
LINE
  8
0
  6
DASHED
 62
7
 10
-2.02104845E+02
 20
-1.97944141E+02
 11
-2.02700304E+02
 21
-1.96912776E+02
  0
ENDBLK
  8
0
  0
ENDSEC
  0
SECTION
  2
ENTITIES
  0
LINE
  8
0
  6
CENTER
 62
2
 10
-2.66999968E+02
 20
2.10276733E+02
 11
-2.66999968E+02
 21
2.32675613E+02
  0
LINE
  8
0
 62
7
 10
-2.79499968E+02
 20
2.16499985E+02
 11
-2.79499968E+02
 21
2.27500000E+02
  0
LINE
  8
0
 62
7
 10
-2.54499952E+02
 20
2.16499985E+02
 11
-2.54499952E+02
 21
2.27500000E+02
  0
LINE
  8
0
  6
PHANTOM
 10
-1.55000000E+01
 20
2.64026071E+02
 11
-1.55000000E+01
 21
7.53245902E+01
  0
LINE
  8
0
 62
7
 10
-9.99979019E-01
 20
1.84000015E+02
 11
-7.39999981E+01
 21
1.84000015E+02
  0
LINE
  8
0
 62
7
 10
2.90907540E+01
 20
2.00000015E+02
 11
3.70000172E+01
 21
2.00000015E+02
  0
LINE
  8
0
 62
7
 10
-9.99979019E-01
 20
1.93000031E+02
 11
-7.39999981E+01
 21
1.93000031E+02
  0
LINE
  8
0
 62
4
 10
3.05000210E+01
 20
1.98917276E+02
 11
3.05000210E+01
 21
1.95916934E+02
  0
LINE
  8
0
 62
4
 10
3.05000210E+01
 20
1.95916934E+02
 11
2.90000210E+01
 21
1.94771107E+02
  0
LINE
  8
0
 62
4
 10
3.05000210E+01
 20
1.96856214E+02
 11
2.90000210E+01
 21
1.96429880E+02
  0
LINE
  8
0
 62
4
 10
2.90000210E+01
 20
2.00069725E+02
 11
3.05000210E+01
 21
1.98917276E+02
  0
LINE
  8
0
 62
4
 10
-4.21138254E+01
 20
2.00069725E+02
 11
-3.64999981E+01
 21
2.00069725E+02
  0
LINE
  8
0
 62
4
 10
-4.17440396E+01
 20
2.00441767E+02
 11
-2.99999981E+01
 21
2.00441767E+02
  0
LINE
  8
0
 62
4
 10
-5.99999981E+01
 20
2.00441767E+02
 11
-4.82559565E+01
 21
2.00441767E+02
  0
LINE
  8
0
 62
4
 10
-4.91499981E+01
 20
2.02783258E+02
 11
-4.91499981E+01
 21
2.03513118E+02
  0
POLYLINE
  8
0
 62
4
 66
1
  0
VERTEX
  8
0
 62
4
 10
-4.91499981E+01
 20
2.02783258E+02
  0
VERTEX
  8
0
 62
4
 10
-4.91324200E+01
 20
2.02436052E+02
  0
VERTEX
  8
0
 62
4
 10
-4.90798348E+01
 20
2.02091788E+02
  0
VERTEX
  8
0
 62
4
 10
-4.89926878E+01
 20
2.01753381E+02
  0
VERTEX
  8
0
 62
4
 10
-4.88717173E+01
 20
2.01423698E+02
  0
VERTEX
  8
0
 62
4
 10
-4.87179481E+01
 20
2.01105533E+02
  0
VERTEX
  8
0
 62
4
 10
-4.85326829E+01
 20
2.00801581E+02
  0
VERTEX
  8
0
 62
4
 10
-4.83174910E+01
 20
2.00514416E+02
  0
VERTEX
  8
0
 62
4
 10
-4.80741955E+01
 20
2.00246471E+02
  0
VERTEX
  8
0
 62
4
 10
-4.78048574E+01
 20
2.00000016E+02
  0
SEQEND
  8
0
  0
LINE
  8
0
 62
4
 10
-4.08499981E+01
 20
2.02783258E+02
 11
-4.08499981E+01
 21
2.03513118E+02
  0
ARC
  8
0
 62
4
 10
-7.21824353E+00
 20
1.62254814E+02
 40
5.61788594E+01
 50
1.29870864E+02
 51
1.34748244E+02
  0
ARC
  8
0
 62
4
 10
-8.27816884E+01
 20
1.62254885E+02
 40
5.61787639E+01
 50
4.52517517E+01
 51
5.01291401E+01
  0
POLYLINE
  8
0
 62
4
 66
1
  0
VERTEX
  8
0
 62
4
 10
-4.12999981E+01
 20
2.05810539E+02
  0
VERTEX
  8
0
 62
4
 10
-4.12940094E+01
 20
2.05616483E+02
  0
VERTEX
  8
0
 62
4
 10
-4.12760620E+01
 20
2.05423039E+02
  0
VERTEX
  8
0
 62
4
 10
-4.12462125E+01
 20
2.05230816E+02
  0
VERTEX
  8
0
 62
4
 10
-4.12045551E+01
 20
2.05040421E+02
  0
SEQEND
  8
0
  0
LINE
  8
0
 62
4
 10
-4.12999981E+01
 20
2.05810539E+02
 11
-4.12999981E+01
 21
2.06225232E+02
  0
LINE
  8
0
 62
4
 10
-4.08999981E+01
 20
2.06225232E+02
 11
-4.08999981E+01
 21
2.06694169E+02
  0
LINE
  8
0
 62
4
 10
-3.36999981E+01
 20
2.05810539E+02
 11
-3.36999981E+01
 21
2.06225232E+02
  0
LINE
  8
0
 62
4
 10
-3.40999981E+01
 20
2.06225232E+02
 11
-3.40999981E+01
 21
2.06694169E+02
  0
ARC
  8
0
 62
4
 10
9.58084415E+00
 20
1.55426173E+02
 40
6.99948777E+01
 50
1.30344131E+02
 51
1.34257830E+02
  0
ARC
  8
0
 62
4
 10
-8.45808403E+01
 20
1.55426173E+02
 40
6.99948777E+01
 50
4.57421700E+01
 51
4.96558689E+01
  0
POLYLINE
  8
0
 62
4
 66
1
  0
VERTEX
  8
0
 62
4
 10
-4.09622041E+01
 20
2.04385315E+02
  0
VERTEX
  8
0
 62
4
 10
-4.08118311E+01
 20
2.04115039E+02
  0
VERTEX
  8
0
 62
4
 10
-4.06360385E+01
 20
2.03857776E+02
  0
VERTEX
  8
0
 62
4
 10
-4.04361756E+01
 20
2.03615502E+02
  0
VERTEX
  8
0
 62
4
 10
-4.02137763E+01
 20
2.03390075E+02
  0
VERTEX
  8
0
 62
4
 10
-3.99705478E+01
 20
2.03183226E+02
  0
VERTEX
  8
0
 62
4
 10
-3.97083568E+01
 20
2.02996543E+02
  0
VERTEX
  8
0
 62
4
 10
-3.94292158E+01
 20
2.02831459E+02
  0
VERTEX
  8
0
 62
4
 10
-3.91352673E+01
 20
2.02689240E+02
  0
VERTEX
  8
0
 62
4
 10
-3.88287674E+01
 20
2.02570978E+02
  0
VERTEX
  8
0
 62
4
 10
-3.85120688E+01
 20
2.02477581E+02
  0
VERTEX
  8
0
 62
4
 10
-3.81876021E+01
 20
2.02409766E+02
  0
VERTEX
  8
0
 62
4
 10
-3.78578577E+01
 20
2.02368054E+02
  0
VERTEX
  8
0
 62
4
 10
-3.75253667E+01
 20
2.02352763E+02
  0
VERTEX
  8
0
 62
4
 10
-3.71926809E+01
 20
2.02364013E+02
  0
VERTEX
  8
0
 62
4
 10
-3.68623539E+01
 20
2.02401716E+02
  0
VERTEX
  8
0
 62
4
 10
-3.65369211E+01
 20
2.02465582E+02
  0
VERTEX
  8
0
 62
4
 10
-3.62188803E+01
 20
2.02555123E+02
  0
VERTEX
  8
0
 62
4
 10
-3.59106726E+01
 20
2.02669651E+02
  0
VERTEX
  8
0
 62
4
 10
-3.56146635E+01
 20
2.02808285E+02
  0
VERTEX
  8
0
 62
4
 10
-3.53331252E+01
 20
2.02969964E+02
  0
VERTEX
  8
0
 62
4
 10
-3.50682184E+01
 20
2.03153445E+02
  0
VERTEX
  8
0
 62
4
 10
-3.48219765E+01
 20
2.03357320E+02
  0
VERTEX
  8
0
 62
4
 10
-3.45962894E+01
 20
2.03580024E+02
  0
VERTEX
  8
0
 62
4
 10
-3.43928895E+01
 20
2.03819849E+02
  0
VERTEX
  8
0
 62
4
 10
-3.42133378E+01
 20
2.04074953E+02
  0
VERTEX
  8
0
 62
4
 10
-3.40590125E+01
 20
2.04343378E+02
  0
VERTEX
  8
0
 62
4
 10
-3.39310982E+01
 20
2.04623064E+02
  0
VERTEX
  8
0
 62
4
 10
-3.38305765E+01
 20
2.04911865E+02
  0
VERTEX
  8
0
 62
4
 10
-3.37582191E+01
 20
2.05207563E+02
  0
VERTEX
  8
0
 62
4
 10
-3.37145813E+01
 20
2.05507890E+02
  0
VERTEX
  8
0
 62
4
 10
-3.36999981E+01
 20
2.05810539E+02
  0
SEQEND
  8
0
  0
POLYLINE
  8
0
 62
4
 66
1
  0
VERTEX
  8
0
 62
4
 10
-4.08999981E+01
 20
2.06694169E+02
  0
VERTEX
  8
0
 62
4
 10
-4.08870601E+01
 20
2.06424521E+02
  0
VERTEX
  8
0
 62
4
 10
-4.08483445E+01
 20
2.06156924E+02
  0
VERTEX
  8
0
 62
4
 10
-4.07841459E+01
 20
2.05893417E+02
  0
VERTEX
  8
0
 62
4
 10
-4.06949530E+01
 20
2.05636004E+02
  0
VERTEX
  8
0
 62
4
 10
-4.05814446E+01
 20
2.05386644E+02
  0
VERTEX
  8
0
 62
4
 10
-4.04444845E+01
 20
2.05147235E+02
  0
VERTEX
  8
0
 62
4
 10
-4.02851151E+01
 20
2.04919599E+02
  0
VERTEX
  8
0
 62
4
 10
-4.01045492E+01
 20
2.04705469E+02
  0
VERTEX
  8
0
 62
4
 10
-3.99041612E+01
 20
2.04506474E+02
  0
VERTEX
  8
0
 62
4
 10
-3.96854760E+01
 20
2.04324128E+02
  0
VERTEX
  8
0
 62
4
 10
-3.94501580E+01
 20
2.04159820E+02
  0
VERTEX
  8
0
 62
4
 10
-3.91999981E+01
 20
2.04014800E+02
  0
VERTEX
  8
0
 62
4
 10
-3.89369002E+01
 20
2.03890172E+02
  0
VERTEX
  8
0
 62
4
 10
-3.86628666E+01
 20
2.03786884E+02
  0
VERTEX
  8
0
 62
4
 10
-3.83799829E+01
 20
2.03705722E+02
  0
VERTEX
  8
0
 62
4
 10
-3.80904019E+01
 20
2.03647303E+02
  0
VERTEX
  8
0
 62
4
 10
-3.77963276E+01
 20
2.03612074E+02
  0
VERTEX
  8
0
 62
4
 10
-3.74999981E+01
 20
2.03600301E+02
  0
VERTEX
  8
0
 62
4
 10
-3.72036686E+01
 20
2.03612074E+02
  0
VERTEX
  8
0
 62
4
 10
-3.69095943E+01
 20
2.03647303E+02
  0
VERTEX
  8
0
 62
4
 10
-3.66200133E+01
 20
2.03705722E+02
  0
VERTEX
  8
0
 62
4
 10
-3.63371296E+01
 20
2.03786884E+02
  0
VERTEX
  8
0
 62
4
 10
-3.60630960E+01
 20
2.03890172E+02
  0
VERTEX
  8
0
 62
4
 10
-3.57999981E+01
 20
2.04014800E+02
  0
VERTEX
  8
0
 62
4
 10
-3.55498382E+01
 20
2.04159820E+02
  0
VERTEX
  8
0
 62
4
 10
-3.53145202E+01
 20
2.04324128E+02
  0
VERTEX
  8
0
 62
4
 10
-3.50958350E+01
 20
2.04506474E+02
  0
VERTEX
  8
0
 62
4
 10
-3.48954470E+01
 20
2.04705469E+02
  0
VERTEX
  8
0
 62
4
 10
-3.47148811E+01
 20
2.04919599E+02
  0
VERTEX
  8
0
 62
4
 10
-3.45555117E+01
 20
2.05147235E+02
  0
VERTEX
  8
0
 62
4
 10
-3.44185516E+01
 20
2.05386644E+02
  0
VERTEX
  8
0
 62
4
 10
-3.43050432E+01
 20
2.05636004E+02
  0
VERTEX
  8
0
 62
4
 10
-3.42158503E+01
 20
2.05893417E+02
  0
VERTEX
  8
0
 62
4
 10
-3.41516517E+01
 20
2.06156924E+02
  0
VERTEX
  8
0
 62
4
 10
-3.41129361E+01
 20
2.06424521E+02
  0
VERTEX
  8
0
 62
4
 10
-3.40999981E+01
 20
2.06694169E+02
  0
VERTEX
  8
0
 62
4
 10
-3.41129361E+01
 20
2.06963817E+02
  0
VERTEX
  8
0
 62
4
 10
-3.41516517E+01
 20
2.07231414E+02
  0
VERTEX
  8
0
 62
4
 10
-3.42158503E+01
 20
2.07494921E+02
  0
VERTEX
  8
0
 62
4
 10
-3.43050432E+01
 20
2.07752334E+02
  0
VERTEX
  8
0
 62
4
 10
-3.44185516E+01
 20
2.08001694E+02
  0
VERTEX
  8
0
 62
4
 10
-3.45555117E+01
 20
2.08241103E+02
  0
VERTEX
  8
0
 62
4
 10
-3.47148811E+01
 20
2.08468739E+02
  0
VERTEX
  8
0
 62
4
 10
-3.48954470E+01
 20
2.08682869E+02
  0
VERTEX
  8
0
 62
4
 10
-3.50958350E+01
 20
2.08881864E+02
  0
VERTEX
  8
0
 62
4
 10
-3.53145202E+01
 20
2.09064210E+02
  0
VERTEX
  8
0
 62
4
 10
-3.55498382E+01
 20
2.09228518E+02
  0
VERTEX
  8
0
 62
4
 10
-3.57999981E+01
 20
2.09373538E+02
  0
VERTEX
  8
0
 62
4
 10
-3.60630960E+01
 20
2.09498166E+02
  0
VERTEX
  8
0
 62
4
 10
-3.63371296E+01
 20
2.09601454E+02
  0
VERTEX
  8
0
 62
4
 10
-3.66200133E+01
 20
2.09682616E+02
  0
VERTEX
  8
0
 62
4
 10
-3.69095943E+01
 20
2.09741035E+02
  0
VERTEX
  8
0
 62
4
 10
-3.72036686E+01
 20
2.09776264E+02
  0
VERTEX
  8
0
 62
4
 10
-3.74999981E+01
 20
2.09788037E+02
  0
VERTEX
  8
0
 62
4
 10
-3.77963276E+01
 20
2.09776264E+02
  0
VERTEX
  8
0
 62
4
 10
-3.80904019E+01
 20
2.09741035E+02
  0
VERTEX
  8
0
 62
4
 10
-3.83799829E+01
 20
2.09682616E+02
  0
VERTEX
  8
0
 62
4
 10
-3.86628666E+01
 20
2.09601454E+02
  0
VERTEX
  8
0
 62
4
 10
-3.89369002E+01
 20
2.09498166E+02
  0
VERTEX
  8
0
 62
4
 10
-3.91999981E+01
 20
2.09373538E+02
  0
VERTEX
  8
0
 62
4
 10
-3.94501580E+01
 20
2.09228518E+02
  0
VERTEX
  8
0
 62
4
 10
-3.96854760E+01
 20
2.09064210E+02
  0
VERTEX
  8
0
 62
4
 10
-3.99041612E+01
 20
2.08881864E+02
  0
VERTEX
  8
0
 62
4
 10
-4.01045492E+01
 20
2.08682869E+02
  0
VERTEX
  8
0
 62
4
 10
-4.02851151E+01
 20
2.08468739E+02
  0
VERTEX
  8
0
 62
4
 10
-4.04444845E+01
 20
2.08241103E+02
  0
VERTEX
  8
0
 62
4
 10
-4.05814446E+01
 20
2.08001694E+02
  0
VERTEX
  8
0
 62
4
 10
-4.06949530E+01
 20
2.07752334E+02
  0
VERTEX
  8
0
 62
4
 10
-4.07841459E+01
 20
2.07494921E+02
  0
VERTEX
  8
0
 62
4
 10
-4.08483445E+01
 20
2.07231414E+02
  0
VERTEX
  8
0
 62
4
 10
-4.08870601E+01
 20
2.06963817E+02
  0
VERTEX
  8
0
 62
4
 10
-4.08999981E+01
 20
2.06694169E+02
  0
SEQEND
  8
0
  0
POLYLINE
  8
0
 62
4
 66
1
  0
VERTEX
  8
0
 62
4
 10
-4.08999981E+01
 20
2.06225232E+02
  0
VERTEX
  8
0
 62
4
 10
-4.08863107E+01
 20
2.05947900E+02
  0
VERTEX
  8
0
 62
4
 10
-4.08453587E+01
 20
2.05672800E+02
  0
VERTEX
  8
0
 62
4
 10
-4.07774719E+01
 20
2.05402149E+02
  0
VERTEX
  8
0
 62
4
 10
-4.06831967E+01
 20
2.05138125E+02
  0
VERTEX
  8
0
 62
4
 10
-4.05632923E+01
 20
2.04882853E+02
  0
VERTEX
  8
0
 62
4
 10
-4.04187240E+01
 20
2.04638389E+02
  0
VERTEX
  8
0
 62
4
 10
-4.02506559E+01
 20
2.04406702E+02
  0
VERTEX
  8
0
 62
4
 10
-4.00604411E+01
 20
2.04189656E+02
  0
VERTEX
  8
0
 62
4
 10
-3.98496111E+01
 20
2.03989000E+02
  0
VERTEX
  8
0
 62
4
 10
-3.96198635E+01
 20
2.03806348E+02
  0
VERTEX
  8
0
 62
4
 10
-3.93730479E+01
 20
2.03643172E+02
  0
VERTEX
  8
0
 62
4
 10
-3.91111516E+01
 20
2.03500785E+02
  0
VERTEX
  8
0
 62
4
 10
-3.88362832E+01
 20
2.03380334E+02
  0
VERTEX
  8
0
 62
4
 10
-3.85506559E+01
 20
2.03282788E+02
  0
VERTEX
  8
0
 62
4
 10
-3.82565693E+01
 20
2.03208933E+02
  0
VERTEX
  8
0
 62
4
 10
-3.79563912E+01
 20
2.03159364E+02
  0
VERTEX
  8
0
 62
4
 10
-3.76525385E+01
 20
2.03134479E+02
  0
VERTEX
  8
0
 62
4
 10
-3.73474577E+01
 20
2.03134479E+02
  0
VERTEX
  8
0
 62
4
 10
-3.70436050E+01
 20
2.03159364E+02
  0
VERTEX
  8
0
 62
4
 10
-3.67434269E+01
 20
2.03208933E+02
  0
VERTEX
  8
0
 62
4
 10
-3.64493403E+01
 20
2.03282788E+02
  0
VERTEX
  8
0
 62
4
 10
-3.61637130E+01
 20
2.03380334E+02
  0
VERTEX
  8
0
 62
4
 10
-3.58888447E+01
 20
2.03500785E+02
  0
VERTEX
  8
0
 62
4
 10
-3.56269484E+01
 20
2.03643172E+02
  0
VERTEX
  8
0
 62
4
 10
-3.53801328E+01
 20
2.03806348E+02
  0
VERTEX
  8
0
 62
4
 10
-3.51503851E+01
 20
2.03989000E+02
  0
VERTEX
  8
0
 62
4
 10
-3.49395551E+01
 20
2.04189656E+02
  0
VERTEX
  8
0
 62
4
 10
-3.47493403E+01
 20
2.04406702E+02
  0
VERTEX
  8
0
 62
4
 10
-3.45812722E+01
 20
2.04638389E+02
  0
VERTEX
  8
0
 62
4
 10
-3.44367039E+01
 20
2.04882853E+02
  0
VERTEX
  8
0
 62
4
 10
-3.43167995E+01
 20
2.05138125E+02
  0
VERTEX
  8
0
 62
4
 10
-3.42225244E+01
 20
2.05402149E+02
  0
VERTEX
  8
0
 62
4
 10
-3.41546375E+01
 20
2.05672800E+02
  0
VERTEX
  8
0
 62
4
 10
-3.41136855E+01
 20
2.05947900E+02
  0
VERTEX
  8
0
 62
4
 10
-3.40999981E+01
 20
2.06225232E+02
  0
SEQEND
  8
0
  0
POLYLINE
  8
0
 62
4
 66
1
  0
VERTEX
  8
0
 62
4
 10
-3.97639664E+01
 20
2.09002396E+02
  0
VERTEX
  8
0
 62
4
 10
-4.00229686E+01
 20
2.08810967E+02
  0
VERTEX
  8
0
 62
4
 10
-4.02625178E+01
 20
2.08599601E+02
  0
VERTEX
  8
0
 62
4
 10
-4.04807669E+01
 20
2.08369927E+02
  0
VERTEX
  8
0
 62
4
 10
-4.06760332E+01
 20
2.08123718E+02
  0
VERTEX
  8
0
 62
4
 10
-4.08468110E+01
 20
2.07862870E+02
  0
VERTEX
  8
0
 62
4
 10
-4.09917836E+01
 20
2.07589395E+02
  0
VERTEX
  8
0
 62
4
 10
-4.11098332E+01
 20
2.07305403E+02
  0
VERTEX
  8
0
 62
4
 10
-4.12000496E+01
 20
2.07013081E+02
  0
VERTEX
  8
0
 62
4
 10
-4.12617372E+01
 20
2.06714685E+02
  0
VERTEX
  8
0
 62
4
 10
-4.12944204E+01
 20
2.06412516E+02
  0
VERTEX
  8
0
 62
4
 10
-4.12978471E+01
 20
2.06108902E+02
  0
VERTEX
  8
0
 62
4
 10
-4.12719909E+01
 20
2.05806185E+02
  0
VERTEX
  8
0
 62
4
 10
-4.12170513E+01
 20
2.05506699E+02
  0
VERTEX
  8
0
 62
4
 10
-4.11334518E+01
 20
2.05212753E+02
  0
VERTEX
  8
0
 62
4
 10
-4.10218369E+01
 20
2.04926614E+02
  0
VERTEX
  8
0
 62
4
 10
-4.08830673E+01
 20
2.04650488E+02
  0
VERTEX
  8
0
 62
4
 10
-4.07182130E+01
 20
2.04386504E+02
  0
VERTEX
  8
0
 62
4
 10
-4.05285450E+01
 20
2.04136697E+02
  0
VERTEX
  8
0
 62
4
 10
-4.03155258E+01
 20
2.03902993E+02
  0
VERTEX
  8
0
 62
4
 10
-4.00807977E+01
 20
2.03687195E+02
  0
VERTEX
  8
0
 62
4
 10
-3.98261708E+01
 20
2.03490966E+02
  0
VERTEX
  8
0
 62
4
 10
-3.95536081E+01
 20
2.03315819E+02
  0
VERTEX
  8
0
 62
4
 10
-3.92652113E+01
 20
2.03163105E+02
  0
VERTEX
  8
0
 62
4
 10
-3.89632041E+01
 20
2.03034001E+02
  0
VERTEX
  8
0
 62
4
 10
-3.86499150E+01
 20
2.02929502E+02
  0
VERTEX
  8
0
 62
4
 10
-3.83277595E+01
 20
2.02850415E+02
  0
VERTEX
  8
0
 62
4
 10
-3.79992218E+01
 20
2.02797349E+02
  0
VERTEX
  8
0
 62
4
 10
-3.76668348E+01
 20
2.02770713E+02
  0
VERTEX
  8
0
 62
4
 10
-3.73331615E+01
 20
2.02770713E+02
  0
VERTEX
  8
0
 62
4
 10
-3.70007745E+01
 20
2.02797349E+02
  0
VERTEX
  8
0
 62
4
 10
-3.66722367E+01
 20
2.02850415E+02
  0
VERTEX
  8
0
 62
4
 10
-3.63500813E+01
 20
2.02929502E+02
  0
VERTEX
  8
0
 62
4
 10
-3.60367922E+01
 20
2.03034000E+02
  0
VERTEX
  8
0
 62
4
 10
-3.57347849E+01
 20
2.03163104E+02
  0
VERTEX
  8
0
 62
4
 10
-3.54463882E+01
 20
2.03315819E+02
  0
VERTEX
  8
0
 62
4
 10
-3.51738255E+01
 20
2.03490966E+02
  0
VERTEX
  8
0
 62
4
 10
-3.49191985E+01
 20
2.03687195E+02
  0
VERTEX
  8
0
 62
4
 10
-3.46844705E+01
 20
2.03902993E+02
  0
VERTEX
  8
0
 62
4
 10
-3.44714512E+01
 20
2.04136697E+02
  0
VERTEX
  8
0
 62
4
 10
-3.42817832E+01
 20
2.04386504E+02
  0
VERTEX
  8
0
 62
4
 10
-3.41169289E+01
 20
2.04650488E+02
  0
VERTEX
  8
0
 62
4
 10
-3.39781593E+01
 20
2.04926614E+02
  0
VERTEX
  8
0
 62
4
 10
-3.38665445E+01
 20
2.05212753E+02
  0
VERTEX
  8
0
 62
4
 10
-3.37829449E+01
 20
2.05506699E+02
  0
VERTEX
  8
0
 62
4
 10
-3.37280053E+01
 20
2.05806185E+02
  0
VERTEX
  8
0
 62
4
 10
-3.37021491E+01
 20
2.06108902E+02
  0
VERTEX
  8
0
 62
4
 10
-3.37055758E+01
 20
2.06412516E+02
  0
VERTEX
  8
0
 62
4
 10
-3.37382590E+01
 20
2.06714685E+02
  0
VERTEX
  8
0
 62
4
 10
-3.37999466E+01
 20
2.07013081E+02
  0
VERTEX
  8
0
 62
4
 10
-3.38901630E+01
 20
2.07305403E+02
  0
VERTEX
  8
0
 62
4
 10
-3.40082126E+01
 20
2.07589395E+02
  0
VERTEX
  8
0
 62
4
 10
-3.41531852E+01
 20
2.07862870E+02
  0
VERTEX
  8
0
 62
4
 10
-3.43239630E+01
 20
2.08123718E+02
  0
VERTEX
  8
0
 62
4
 10
-3.45192292E+01
 20
2.08369927E+02
  0
VERTEX
  8
0
 62
4
 10
-3.47374784E+01
 20
2.08599601E+02
  0
VERTEX
  8
0
 62
4
 10
-3.49770275E+01
 20
2.08810967E+02
  0
VERTEX
  8
0
 62
4
 10
-3.52360298E+01
 20
2.09002396E+02
  0
SEQEND
  8
0
  0
LINE
  8
0
 62
4
 10
-5.99999981E+01
 20
2.00069725E+02
 11
-5.99999981E+01
 21
2.00000015E+02
  0
LINE
  8
0
 62
4
 10
-5.99999981E+01
 20
2.00069725E+02
 11
-4.78861708E+01
 21
2.00069725E+02
  0
LINE
  8
0
 62
4
 10
-5.99999981E+01
 20
2.00069725E+02
 11
-6.00907311E+01
 21
2.00000015E+02
  0
POLYLINE
  8
0
 62
4
 66
1
  0
VERTEX
  8
0
 62
4
 10
4.50002098E+00
 20
1.81830530E+02
  0
VERTEX
  8
0
 62
4
 10
4.49196957E+00
 20
1.81993667E+02
  0
VERTEX
  8
0
 62
4
 10
4.46788016E+00
 20
1.82155490E+02
  0
VERTEX
  8
0
 62
4
 10
4.42794671E+00
 20
1.82314696E+02
  0
VERTEX
  8
0
 62
4
 10
4.37249073E+00
 20
1.82470005E+02
  0
VERTEX
  8
0
 62
4
 10
4.30195872E+00
 20
1.82620165E+02
  0
VERTEX
  8
0
 62
4
 10
4.21691857E+00
 20
1.82763967E+02
  0
VERTEX
  8
0
 62
4
 10
4.11805498E+00
 20
1.82900254E+02
  0
VERTEX
  8
0
 62
4
 10
4.00616392E+00
 20
1.83027927E+02
  0
VERTEX
  8
0
 62
4
 10
3.88214629E+00
 20
1.83145961E+02
  0
VERTEX
  8
0
 62
4
 10
3.74700060E+00
 20
1.83253403E+02
  0
VERTEX
  8
0
 62
4
 10
3.60181496E+00
 20
1.83349389E+02
  0
VERTEX
  8
0
 62
4
 10
3.44775832E+00
 20
1.83433146E+02
  0
VERTEX
  8
0
 62
4
 10
3.28607106E+00
 20
1.83503999E+02
  0
VERTEX
  8
0
 62
4
 10
3.11805498E+00
 20
1.83561379E+02
  0
VERTEX
  8
0
 62
4
 10
2.94506286E+00
 20
1.83604823E+02
  0
VERTEX
  8
0
 62
4
 10
2.76848753E+00
 20
1.83633982E+02
  0
VERTEX
  8
0
 62
4
 10
2.58975066E+00
 20
1.83648620E+02
  0
VERTEX
  8
0
 62
4
 10
2.41029134E+00
 20
1.83648620E+02
  0
VERTEX
  8
0
 62
4
 10
2.23155447E+00
 20
1.83633982E+02
  0
VERTEX
  8
0
 62
4
 10
2.05497913E+00
 20
1.83604823E+02
  0
VERTEX
  8
0
 62
4
 10
1.88198701E+00
 20
1.83561379E+02
  0
VERTEX
  8
0
 62
4
 10
1.71397093E+00
 20
1.83503999E+02
  0
VERTEX
  8
0
 62
4
 10
1.55228367E+00
 20
1.83433146E+02
  0
VERTEX
  8
0
 62
4
 10
1.39822703E+00
 20
1.83349389E+02
  0
VERTEX
  8
0
 62
4
 10
1.25304139E+00
 20
1.83253403E+02
  0
VERTEX
  8
0
 62
4
 10
1.11789570E+00
 20
1.83145961E+02
  0
VERTEX
  8
0
 62
4
 10
9.93878061E-01
 20
1.83027927E+02
  0
VERTEX
  8
0
 62
4
 10
8.81987003E-01
 20
1.82900254E+02
  0
VERTEX
  8
0
 62
4
 10
7.83123403E-01
 20
1.82763967E+02
  0
VERTEX
  8
0
 62
4
 10
6.98083253E-01
 20
1.82620165E+02
  0
VERTEX
  8
0
 62
4
 10
6.27551246E-01
 20
1.82470005E+02
  0
VERTEX
  8
0
 62
4
 10
5.72095264E-01
 20
1.82314696E+02
  0
VERTEX
  8
0
 62
4
 10
5.32161806E-01
 20
1.82155490E+02
  0
VERTEX
  8
0
 62
4
 10
5.08072394E-01
 20
1.81993667E+02
  0
VERTEX
  8
0
 62
4
 10
5.00020980E-01
 20
1.81830530E+02
  0
SEQEND
  8
0
  0
LINE
  8
0
 62
4
 10
5.00020981E-01
 20
1.80195613E+02
 11
5.00020981E-01
 21
1.81830530E+02
  0
POLYLINE
  8
0
 62
4
 66
1
  0
VERTEX
  8
0
 62
4
 10
5.00020980E-01
 20
1.80195613E+02
  0
VERTEX
  8
0
 62
4
 10
5.07631583E-01
 20
1.80036996E+02
  0
VERTEX
  8
0
 62
4
 10
5.30405473E-01
 20
1.79879587E+02
  0
VERTEX
  8
0
 62
4
 10
5.68169326E-01
 20
1.79724582E+02
  0
VERTEX
  8
0
 62
4
 10
6.20635736E-01
 20
1.79573163E+02
  0
VERTEX
  8
0
 62
4
 10
6.87405403E-01
 20
1.79426481E+02
  0
VERTEX
  8
0
 62
4
 10
7.67970169E-01
 20
1.79285652E+02
  0
VERTEX
  8
0
 62
4
 10
8.61716888E-01
 20
1.79151748E+02
  0
VERTEX
  8
0
 62
4
 10
9.67932090E-01
 20
1.79025789E+02
  0
VERTEX
  8
0
 62
4
 10
1.08580741E+00
 20
1.78908733E+02
  0
VERTEX
  8
0
 62
4
 10
1.21444576E+00
 20
1.78801472E+02
  0
VERTEX
  8
0
 62
4
 10
1.35286810E+00
 20
1.78704820E+02
  0
VERTEX
  8
0
 62
4
 10
1.50002098E+00
 20
1.78619514E+02
  0
VERTEX
  8
0
 62
4
 10
1.65478445E+00
 20
1.78546203E+02
  0
VERTEX
  8
0
 62
4
 10
1.81598069E+00
 20
1.78485445E+02
  0
VERTEX
  8
0
 62
4
 10
1.98238288E+00
 20
1.78437703E+02
  0
VERTEX
  8
0
 62
4
 10
2.15272462E+00
 20
1.78403339E+02
  0
VERTEX
  8
0
 62
4
 10
2.32570949E+00
 20
1.78382616E+02
  0
VERTEX
  8
0
 62
4
 10
2.50002097E+00
 20
1.78375691E+02
  0
VERTEX
  8
0
 62
4
 10
2.67433246E+00
 20
1.78382616E+02
  0
VERTEX
  8
0
 62
4
 10
2.84731733E+00
 20
1.78403339E+02
  0
VERTEX
  8
0
 62
4
 10
3.01765907E+00
 20
1.78437703E+02
  0
VERTEX
  8
0
 62
4
 10
3.18406126E+00
 20
1.78485445E+02
  0
VERTEX
  8
0
 62
4
 10
3.34525750E+00
 20
1.78546203E+02
  0
VERTEX
  8
0
 62
4
 10
3.50002098E+00
 20
1.78619514E+02
  0
VERTEX
  8
0
 62
4
 10
3.64717385E+00
 20
1.78704820E+02
  0
VERTEX
  8
0
 62
4
 10
3.78559620E+00
 20
1.78801471E+02
  0
VERTEX
  8
0
 62
4
 10
3.91423454E+00
 20
1.78908733E+02
  0
VERTEX
  8
0
 62
4
 10
4.03210986E+00
 20
1.79025789E+02
  0
VERTEX
  8
0
 62
4
 10
4.13832507E+00
 20
1.79151748E+02
  0
VERTEX
  8
0
 62
4
 10
4.23207179E+00
 20
1.79285652E+02
  0
VERTEX
  8
0
 62
4
 10
4.31263655E+00
 20
1.79426481E+02
  0
VERTEX
  8
0
 62
4
 10
4.37940622E+00
 20
1.79573163E+02
  0
VERTEX
  8
0
 62
4
 10
4.43187263E+00
 20
1.79724582E+02
  0
VERTEX
  8
0
 62
4
 10
4.46963649E+00
 20
1.79879587E+02
  0
VERTEX
  8
0
 62
4
 10
4.49241038E+00
 20
1.80036996E+02
  0
VERTEX
  8
0
 62
4
 10
4.50002098E+00
 20
1.80195613E+02
  0
VERTEX
  8
0
 62
4
 10
4.49241038E+00
 20
1.80354230E+02
  0
VERTEX
  8
0
 62
4
 10
4.46963649E+00
 20
1.80511639E+02
  0
VERTEX
  8
0
 62
4
 10
4.43187263E+00
 20
1.80666644E+02
  0
VERTEX
  8
0
 62
4
 10
4.37940622E+00
 20
1.80818063E+02
  0
VERTEX
  8
0
 62
4
 10
4.31263656E+00
 20
1.80964745E+02
  0
VERTEX
  8
0
 62
4
 10
4.23207179E+00
 20
1.81105574E+02
  0
VERTEX
  8
0
 62
4
 10
4.13832507E+00
 20
1.81239478E+02
  0
VERTEX
  8
0
 62
4
 10
4.03210987E+00
 20
1.81365437E+02
  0
VERTEX
  8
0
 62
4
 10
3.91423454E+00
 20
1.81482493E+02
  0
VERTEX
  8
0
 62
4
 10
3.78559620E+00
 20
1.81589755E+02
  0
VERTEX
  8
0
 62
4
 10
3.64717386E+00
 20
1.81686406E+02
  0
VERTEX
  8
0
 62
4
 10
3.50002098E+00
 20
1.81771712E+02
  0
VERTEX
  8
0
 62
4
 10
3.34525751E+00
 20
1.81845023E+02
  0
VERTEX
  8
0
 62
4
 10
3.18406127E+00
 20
1.81905781E+02
  0
VERTEX
  8
0
 62
4
 10
3.01765907E+00
 20
1.81953523E+02
  0
VERTEX
  8
0
 62
4
 10
2.84731734E+00
 20
1.81987887E+02
  0
VERTEX
  8
0
 62
4
 10
2.67433247E+00
 20
1.82008610E+02
  0
VERTEX
  8
0
 62
4
 10
2.50002098E+00
 20
1.82015535E+02
  0
VERTEX
  8
0
 62
4
 10
2.32570950E+00
 20
1.82008610E+02
  0
VERTEX
  8
0
 62
4
 10
2.15272463E+00
 20
1.81987887E+02
  0
VERTEX
  8
0
 62
4
 10
1.98238289E+00
 20
1.81953523E+02
  0
VERTEX
  8
0
 62
4
 10
1.81598070E+00
 20
1.81905781E+02
  0
VERTEX
  8
0
 62
4
 10
1.65478446E+00
 20
1.81845023E+02
  0
VERTEX
  8
0
 62
4
 10
1.50002098E+00
 20
1.81771712E+02
  0
VERTEX
  8
0
 62
4
 10
1.35286811E+00
 20
1.81686406E+02
  0
VERTEX
  8
0
 62
4
 10
1.21444576E+00
 20
1.81589755E+02
  0
VERTEX
  8
0
 62
4
 10
1.08580742E+00
 20
1.81482493E+02
  0
VERTEX
  8
0
 62
4
 10
9.67932095E-01
 20
1.81365437E+02
  0
VERTEX
  8
0
 62
4
 10
8.61716892E-01
 20
1.81239478E+02
  0
VERTEX
  8
0
 62
4
 10
7.67970173E-01
 20
1.81105574E+02
  0
VERTEX
  8
0
 62
4
 10
6.87405406E-01
 20
1.80964745E+02
  0
VERTEX
  8
0
 62
4
 10
6.20635739E-01
 20
1.80818063E+02
  0
VERTEX
  8
0
 62
4
 10
5.68169328E-01
 20
1.80666644E+02
  0
VERTEX
  8
0
 62
4
 10
5.30405474E-01
 20
1.80511639E+02
  0
VERTEX
  8
0
 62
4
 10
5.07631584E-01
 20
1.80354230E+02
  0
VERTEX
  8
0
 62
4
 10
5.00020980E-01
 20
1.80195613E+02
  0
SEQEND
  8
0
  0
LINE
  8
0
 62
4
 10
4.50002098E+00
 20
1.80195613E+02
 11
4.50002098E+00
 21
1.81830530E+02
  0
POLYLINE
  8
0
 62
6
 66
1
  0
VERTEX
  8
0
 62
6
 10
1.00002096E+00
 20
1.80195613E+02
  0
VERTEX
  8
0
 62
6
 10
1.00572891E+00
 20
1.80076650E+02
  0
VERTEX
  8
0
 62
6
 10
1.02280933E+00
 20
1.79958593E+02
  0
VERTEX
  8
0
 62
6
 10
1.05113222E+00
 20
1.79842340E+02
  0
VERTEX
  8
0
 62
6
 10
1.09048203E+00
 20
1.79728775E+02
  0
VERTEX
  8
0
 62
6
 10
1.14055928E+00
 20
1.79618764E+02
  0
VERTEX
  8
0
 62
6
 10
1.20098285E+00
 20
1.79513142E+02
  0
VERTEX
  8
0
 62
6
 10
1.27129289E+00
 20
1.79412714E+02
  0
VERTEX
  8
0
 62
6
 10
1.35095430E+00
 20
1.79318245E+02
  0
VERTEX
  8
0
 62
6
 10
1.43936079E+00
 20
1.79230453E+02
  0
VERTEX
  8
0
 62
6
 10
1.53583955E+00
 20
1.79150007E+02
  0
VERTEX
  8
0
 62
6
 10
1.63965631E+00
 20
1.79077518E+02
  0
VERTEX
  8
0
 62
6
 10
1.75002097E+00
 20
1.79013539E+02
  0
VERTEX
  8
0
 62
6
 10
1.86609358E+00
 20
1.78958556E+02
  0
VERTEX
  8
0
 62
6
 10
1.98699075E+00
 20
1.78912987E+02
  0
VERTEX
  8
0
 62
6
 10
2.11179240E+00
 20
1.78877180E+02
  0
VERTEX
  8
0
 62
6
 10
2.23954871E+00
 20
1.78851408E+02
  0
VERTEX
  8
0
 62
6
 10
2.36928736E+00
 20
1.78835865E+02
  0
VERTEX
  8
0
 62
6
 10
2.50002098E+00
 20
1.78830671E+02
  0
VERTEX
  8
0
 62
6
 10
2.63075459E+00
 20
1.78835865E+02
  0
VERTEX
  8
0
 62
6
 10
2.76049325E+00
 20
1.78851408E+02
  0
VERTEX
  8
0
 62
6
 10
2.88824955E+00
 20
1.78877180E+02
  0
VERTEX
  8
0
 62
6
 10
3.01305120E+00
 20
1.78912987E+02
  0
VERTEX
  8
0
 62
6
 10
3.13394838E+00
 20
1.78958556E+02
  0
VERTEX
  8
0
 62
6
 10
3.25002099E+00
 20
1.79013539E+02
  0
VERTEX
  8
0
 62
6
 10
3.36038564E+00
 20
1.79077518E+02
  0
VERTEX
  8
0
 62
6
 10
3.46420240E+00
 20
1.79150007E+02
  0
VERTEX
  8
0
 62
6
 10
3.56068116E+00
 20
1.79230453E+02
  0
VERTEX
  8
0
 62
6
 10
3.64908766E+00
 20
1.79318245E+02
  0
VERTEX
  8
0
 62
6
 10
3.72874906E+00
 20
1.79412714E+02
  0
VERTEX
  8
0
 62
6
 10
3.79905910E+00
 20
1.79513142E+02
  0
VERTEX
  8
0
 62
6
 10
3.85948268E+00
 20
1.79618764E+02
  0
VERTEX
  8
0
 62
6
 10
3.90955993E+00
 20
1.79728775E+02
  0
VERTEX
  8
0
 62
6
 10
3.94890974E+00
 20
1.79842340E+02
  0
VERTEX
  8
0
 62
6
 10
3.97723263E+00
 20
1.79958593E+02
  0
VERTEX
  8
0
 62
6
 10
3.99431305E+00
 20
1.80076650E+02
  0
VERTEX
  8
0
 62
6
 10
4.00002100E+00
 20
1.80195613E+02
  0
VERTEX
  8
0
 62
6
 10
3.99431305E+00
 20
1.80314576E+02
  0
VERTEX
  8
0
 62
6
 10
3.97723263E+00
 20
1.80432633E+02
  0
VERTEX
  8
0
 62
6
 10
3.94890974E+00
 20
1.80548886E+02
  0
VERTEX
  8
0
 62
6
 10
3.90955993E+00
 20
1.80662451E+02
  0
VERTEX
  8
0
 62
6
 10
3.85948268E+00
 20
1.80772462E+02
  0
VERTEX
  8
0
 62
6
 10
3.79905910E+00
 20
1.80878084E+02
  0
VERTEX
  8
0
 62
6
 10
3.72874906E+00
 20
1.80978512E+02
  0
VERTEX
  8
0
 62
6
 10
3.64908766E+00
 20
1.81072981E+02
  0
VERTEX
  8
0
 62
6
 10
3.56068117E+00
 20
1.81160773E+02
  0
VERTEX
  8
0
 62
6
 10
3.46420241E+00
 20
1.81241219E+02
  0
VERTEX
  8
0
 62
6
 10
3.36038565E+00
 20
1.81313708E+02
  0
VERTEX
  8
0
 62
6
 10
3.25002099E+00
 20
1.81377687E+02
  0
VERTEX
  8
0
 62
6
 10
3.13394838E+00
 20
1.81432670E+02
  0
VERTEX
  8
0
 62
6
 10
3.01305120E+00
 20
1.81478239E+02
  0
VERTEX
  8
0
 62
6
 10
2.88824955E+00
 20
1.81514046E+02
  0
VERTEX
  8
0
 62
6
 10
2.76049325E+00
 20
1.81539818E+02
  0
VERTEX
  8
0
 62
6
 10
2.63075460E+00
 20
1.81555361E+02
  0
VERTEX
  8
0
 62
6
 10
2.50002098E+00
 20
1.81560555E+02
  0
VERTEX
  8
0
 62
6
 10
2.36928737E+00
 20
1.81555361E+02
  0
VERTEX
  8
0
 62
6
 10
2.23954871E+00
 20
1.81539818E+02
  0
VERTEX
  8
0
 62
6
 10
2.11179241E+00
 20
1.81514046E+02
  0
VERTEX
  8
0
 62
6
 10
1.98699076E+00
 20
1.81478239E+02
  0
VERTEX
  8
0
 62
6
 10
1.86609358E+00
 20
1.81432670E+02
  0
VERTEX
  8
0
 62
6
 10
1.75002097E+00
 20
1.81377687E+02
  0
VERTEX
  8
0
 62
6
 10
1.63965632E+00
 20
1.81313708E+02
  0
VERTEX
  8
0
 62
6
 10
1.53583955E+00
 20
1.81241219E+02
  0
VERTEX
  8
0
 62
6
 10
1.43936079E+00
 20
1.81160773E+02
  0
VERTEX
  8
0
 62
6
 10
1.35095430E+00
 20
1.81072981E+02
  0
VERTEX
  8
0
 62
6
 10
1.27129290E+00
 20
1.80978512E+02
  0
VERTEX
  8
0
 62
6
 10
1.20098286E+00
 20
1.80878084E+02
  0
VERTEX
  8
0
 62
6
 10
1.14055928E+00
 20
1.80772462E+02
  0
VERTEX
  8
0
 62
6
 10
1.09048203E+00
 20
1.80662451E+02
  0
VERTEX
  8
0
 62
6
 10
1.05113222E+00
 20
1.80548886E+02
  0
VERTEX
  8
0
 62
6
 10
1.02280933E+00
 20
1.80432633E+02
  0
VERTEX
  8
0
 62
6
 10
1.00572891E+00
 20
1.80314576E+02
  0
VERTEX
  8
0
 62
6
 10
1.00002096E+00
 20
1.80195613E+02
  0
SEQEND
  8
0
  0
LINE
  8
0
 62
4
 10
1.50002098E+00
 20
1.79667835E+02
 11
1.50002098E+00
 21
1.80723391E+02
  0
LINE
  8
0
 62
4
 10
2.50002098E+00
 20
1.81242068E+02
 11
1.50002098E+00
 21
1.80723391E+02
  0
LINE
  8
0
 62
4
 10
2.50002098E+00
 20
1.79140058E+02
 11
1.50002098E+00
 21
1.79667835E+02
  0
LINE
  8
0
 62
4
 10
2.50002098E+00
 20
1.81242068E+02
 11
3.50002098E+00
 21
1.80723391E+02
  0
LINE
  8
0
 62
4
 10
3.50002098E+00
 20
1.79667835E+02
 11
3.50002098E+00
 21
1.80723391E+02
  0
LINE
  8
0
 62
4
 10
2.50002098E+00
 20
1.79140058E+02
 11
3.50002098E+00
 21
1.79667835E+02
  0
LINE
  8
0
 62
4
 10
1.05000210E+01
 20
1.79140058E+02
 11
1.15000210E+01
 21
1.79667835E+02
  0
LINE
  8
0
 62
4
 10
1.15000210E+01
 20
1.79667835E+02
 11
1.15000210E+01
 21
1.80723391E+02
  0
LINE
  8
0
 62
4
 10
1.05000210E+01
 20
1.81242068E+02
 11
1.15000210E+01
 21
1.80723391E+02
  0
LINE
  8
0
 62
4
 10
1.05000210E+01
 20
1.79140058E+02
 11
9.50002098E+00
 21
1.79667835E+02
  0
LINE
  8
0
 62
4
 10
1.05000210E+01
 20
1.81242068E+02
 11
9.50002098E+00
 21
1.80723391E+02
  0
LINE
  8
0
 62
4
 10
9.50002098E+00
 20
1.79667835E+02
 11
9.50002098E+00
 21
1.80723391E+02
  0
POLYLINE
  8
0
 62
6
 66
1
  0
VERTEX
  8
0
 62
6
 10
9.00002098E+00
 20
1.80195613E+02
  0
VERTEX
  8
0
 62
6
 10
9.00572893E+00
 20
1.80076650E+02
  0
VERTEX
  8
0
 62
6
 10
9.02280935E+00
 20
1.79958593E+02
  0
VERTEX
  8
0
 62
6
 10
9.05113224E+00
 20
1.79842340E+02
  0
VERTEX
  8
0
 62
6
 10
9.09048205E+00
 20
1.79728775E+02
  0
VERTEX
  8
0
 62
6
 10
9.14055930E+00
 20
1.79618764E+02
  0
VERTEX
  8
0
 62
6
 10
9.20098287E+00
 20
1.79513142E+02
  0
VERTEX
  8
0
 62
6
 10
9.27129291E+00
 20
1.79412714E+02
  0
VERTEX
  8
0
 62
6
 10
9.35095432E+00
 20
1.79318245E+02
  0
VERTEX
  8
0
 62
6
 10
9.43936081E+00
 20
1.79230453E+02
  0
VERTEX
  8
0
 62
6
 10
9.53583957E+00
 20
1.79150007E+02
  0
VERTEX
  8
0
 62
6
 10
9.63965633E+00
 20
1.79077518E+02
  0
VERTEX
  8
0
 62
6
 10
9.75002099E+00
 20
1.79013539E+02
  0
VERTEX
  8
0
 62
6
 10
9.86609360E+00
 20
1.78958556E+02
  0
VERTEX
  8
0
 62
6
 10
9.98699077E+00
 20
1.78912987E+02
  0
VERTEX
  8
0
 62
6
 10
1.01117924E+01
 20
1.78877180E+02
  0
VERTEX
  8
0
 62
6
 10
1.02395487E+01
 20
1.78851408E+02
  0
VERTEX
  8
0
 62
6
 10
1.03692874E+01
 20
1.78835865E+02
  0
VERTEX
  8
0
 62
6
 10
1.05000210E+01
 20
1.78830671E+02
  0
VERTEX
  8
0
 62
6
 10
1.06307546E+01
 20
1.78835865E+02
  0
VERTEX
  8
0
 62
6
 10
1.07604933E+01
 20
1.78851408E+02
  0
VERTEX
  8
0
 62
6
 10
1.08882496E+01
 20
1.78877180E+02
  0
VERTEX
  8
0
 62
6
 10
1.10130512E+01
 20
1.78912987E+02
  0
VERTEX
  8
0
 62
6
 10
1.11339484E+01
 20
1.78958556E+02
  0
VERTEX
  8
0
 62
6
 10
1.12500210E+01
 20
1.79013539E+02
  0
VERTEX
  8
0
 62
6
 10
1.13603857E+01
 20
1.79077518E+02
  0
VERTEX
  8
0
 62
6
 10
1.14642024E+01
 20
1.79150007E+02
  0
VERTEX
  8
0
 62
6
 10
1.15606812E+01
 20
1.79230453E+02
  0
VERTEX
  8
0
 62
6
 10
1.16490877E+01
 20
1.79318245E+02
  0
VERTEX
  8
0
 62
6
 10
1.17287491E+01
 20
1.79412714E+02
  0
VERTEX
  8
0
 62
6
 10
1.17990591E+01
 20
1.79513142E+02
  0
VERTEX
  8
0
 62
6
 10
1.18594827E+01
 20
1.79618764E+02
  0
VERTEX
  8
0
 62
6
 10
1.19095599E+01
 20
1.79728775E+02
  0
VERTEX
  8
0
 62
6
 10
1.19489098E+01
 20
1.79842340E+02
  0
VERTEX
  8
0
 62
6
 10
1.19772326E+01
 20
1.79958593E+02
  0
VERTEX
  8
0
 62
6
 10
1.19943131E+01
 20
1.80076650E+02
  0
VERTEX
  8
0
 62
6
 10
1.20000210E+01
 20
1.80195613E+02
  0
VERTEX
  8
0
 62
6
 10
1.19943131E+01
 20
1.80314576E+02
  0
VERTEX
  8
0
 62
6
 10
1.19772326E+01
 20
1.80432633E+02
  0
VERTEX
  8
0
 62
6
 10
1.19489098E+01
 20
1.80548886E+02
  0
VERTEX
  8
0
 62
6
 10
1.19095600E+01
 20
1.80662451E+02
  0
VERTEX
  8
0
 62
6
 10
1.18594827E+01
 20
1.80772462E+02
  0
VERTEX
  8
0
 62
6
 10
1.17990591E+01
 20
1.80878084E+02
  0
VERTEX
  8
0
 62
6
 10
1.17287491E+01
 20
1.80978512E+02
  0
VERTEX
  8
0
 62
6
 10
1.16490877E+01
 20
1.81072981E+02
  0
VERTEX
  8
0
 62
6
 10
1.15606812E+01
 20
1.81160773E+02
  0
VERTEX
  8
0
 62
6
 10
1.14642024E+01
 20
1.81241219E+02
  0
VERTEX
  8
0
 62
6
 10
1.13603857E+01
 20
1.81313708E+02
  0
VERTEX
  8
0
 62
6
 10
1.12500210E+01
 20
1.81377687E+02
  0
VERTEX
  8
0
 62
6
 10
1.11339484E+01
 20
1.81432670E+02
  0
VERTEX
  8
0
 62
6
 10
1.10130512E+01
 20
1.81478239E+02
  0
VERTEX
  8
0
 62
6
 10
1.08882496E+01
 20
1.81514046E+02
  0
VERTEX
  8
0
 62
6
 10
1.07604933E+01
 20
1.81539818E+02
  0
VERTEX
  8
0
 62
6
 10
1.06307546E+01
 20
1.81555361E+02
  0
VERTEX
  8
0
 62
6
 10
1.05000210E+01
 20
1.81560555E+02
  0
VERTEX
  8
0
 62
6
 10
1.03692874E+01
 20
1.81555361E+02
  0
VERTEX
  8
0
 62
6
 10
1.02395487E+01
 20
1.81539818E+02
  0
VERTEX
  8
0
 62
6
 10
1.01117924E+01
 20
1.81514046E+02
  0
VERTEX
  8
0
 62
6
 10
9.98699078E+00
 20
1.81478239E+02
  0
VERTEX
  8
0
 62
6
 10
9.86609360E+00
 20
1.81432670E+02
  0
VERTEX
  8
0
 62
6
 10
9.75002099E+00
 20
1.81377687E+02
  0
VERTEX
  8
0
 62
6
 10
9.63965634E+00
 20
1.81313708E+02
  0
VERTEX
  8
0
 62
6
 10
9.53583957E+00
 20
1.81241219E+02
  0
VERTEX
  8
0
 62
6
 10
9.43936081E+00
 20
1.81160773E+02
  0
VERTEX
  8
0
 62
6
 10
9.35095432E+00
 20
1.81072981E+02
  0
VERTEX
  8
0
 62
6
 10
9.27129292E+00
 20
1.80978512E+02
  0
VERTEX
  8
0
 62
6
 10
9.20098288E+00
 20
1.80878084E+02
  0
VERTEX
  8
0
 62
6
 10
9.14055930E+00
 20
1.80772462E+02
  0
VERTEX
  8
0
 62
6
 10
9.09048205E+00
 20
1.80662451E+02
  0
VERTEX
  8
0
 62
6
 10
9.05113224E+00
 20
1.80548886E+02
  0
VERTEX
  8
0
 62
6
 10
9.02280935E+00
 20
1.80432633E+02
  0
VERTEX
  8
0
 62
6
 10
9.00572893E+00
 20
1.80314576E+02
  0
VERTEX
  8
0
 62
6
 10
9.00002098E+00
 20
1.80195613E+02
  0
SEQEND
  8
0
  0
LINE
  8
0
 62
4
 10
1.25000210E+01
 20
1.80195613E+02
 11
1.25000210E+01
 21
1.81830530E+02
  0
POLYLINE
  8
0
 62
4
 66
1
  0
VERTEX
  8
0
 62
4
 10
8.50002100E+00
 20
1.80195613E+02
  0
VERTEX
  8
0
 62
4
 10
8.50763160E+00
 20
1.80036996E+02
  0
VERTEX
  8
0
 62
4
 10
8.53040549E+00
 20
1.79879587E+02
  0
VERTEX
  8
0
 62
4
 10
8.56816935E+00
 20
1.79724582E+02
  0
VERTEX
  8
0
 62
4
 10
8.62063576E+00
 20
1.79573163E+02
  0
VERTEX
  8
0
 62
4
 10
8.68740542E+00
 20
1.79426481E+02
  0
VERTEX
  8
0
 62
4
 10
8.76797019E+00
 20
1.79285652E+02
  0
VERTEX
  8
0
 62
4
 10
8.86171691E+00
 20
1.79151748E+02
  0
VERTEX
  8
0
 62
4
 10
8.96793211E+00
 20
1.79025789E+02
  0
VERTEX
  8
0
 62
4
 10
9.08580743E+00
 20
1.78908733E+02
  0
VERTEX
  8
0
 62
4
 10
9.21444578E+00
 20
1.78801472E+02
  0
VERTEX
  8
0
 62
4
 10
9.35286812E+00
 20
1.78704820E+02
  0
VERTEX
  8
0
 62
4
 10
9.50002100E+00
 20
1.78619514E+02
  0
VERTEX
  8
0
 62
4
 10
9.65478447E+00
 20
1.78546203E+02
  0
VERTEX
  8
0
 62
4
 10
9.81598071E+00
 20
1.78485445E+02
  0
VERTEX
  8
0
 62
4
 10
9.98238290E+00
 20
1.78437703E+02
  0
VERTEX
  8
0
 62
4
 10
1.01527246E+01
 20
1.78403339E+02
  0
VERTEX
  8
0
 62
4
 10
1.03257095E+01
 20
1.78382616E+02
  0
VERTEX
  8
0
 62
4
 10
1.05000210E+01
 20
1.78375691E+02
  0
VERTEX
  8
0
 62
4
 10
1.06743325E+01
 20
1.78382616E+02
  0
VERTEX
  8
0
 62
4
 10
1.08473174E+01
 20
1.78403339E+02
  0
VERTEX
  8
0
 62
4
 10
1.10176591E+01
 20
1.78437703E+02
  0
VERTEX
  8
0
 62
4
 10
1.11840613E+01
 20
1.78485445E+02
  0
VERTEX
  8
0
 62
4
 10
1.13452575E+01
 20
1.78546203E+02
  0
VERTEX
  8
0
 62
4
 10
1.15000210E+01
 20
1.78619514E+02
  0
VERTEX
  8
0
 62
4
 10
1.16471739E+01
 20
1.78704820E+02
  0
VERTEX
  8
0
 62
4
 10
1.17855962E+01
 20
1.78801471E+02
  0
VERTEX
  8
0
 62
4
 10
1.19142346E+01
 20
1.78908733E+02
  0
VERTEX
  8
0
 62
4
 10
1.20321099E+01
 20
1.79025789E+02
  0
VERTEX
  8
0
 62
4
 10
1.21383251E+01
 20
1.79151748E+02
  0
VERTEX
  8
0
 62
4
 10
1.22320718E+01
 20
1.79285652E+02
  0
VERTEX
  8
0
 62
4
 10
1.23126366E+01
 20
1.79426481E+02
  0
VERTEX
  8
0
 62
4
 10
1.23794062E+01
 20
1.79573163E+02
  0
VERTEX
  8
0
 62
4
 10
1.24318727E+01
 20
1.79724582E+02
  0
VERTEX
  8
0
 62
4
 10
1.24696365E+01
 20
1.79879587E+02
  0
VERTEX
  8
0
 62
4
 10
1.24924104E+01
 20
1.80036996E+02
  0
VERTEX
  8
0
 62
4
 10
1.25000210E+01
 20
1.80195613E+02
  0
VERTEX
  8
0
 62
4
 10
1.24924104E+01
 20
1.80354230E+02
  0
VERTEX
  8
0
 62
4
 10
1.24696365E+01
 20
1.80511639E+02
  0
VERTEX
  8
0
 62
4
 10
1.24318727E+01
 20
1.80666644E+02
  0
VERTEX
  8
0
 62
4
 10
1.23794062E+01
 20
1.80818063E+02
  0
VERTEX
  8
0
 62
4
 10
1.23126366E+01
 20
1.80964745E+02
  0
VERTEX
  8
0
 62
4
 10
1.22320718E+01
 20
1.81105574E+02
  0
VERTEX
  8
0
 62
4
 10
1.21383251E+01
 20
1.81239478E+02
  0
VERTEX
  8
0
 62
4
 10
1.20321099E+01
 20
1.81365437E+02
  0
VERTEX
  8
0
 62
4
 10
1.19142346E+01
 20
1.81482493E+02
  0
VERTEX
  8
0
 62
4
 10
1.17855962E+01
 20
1.81589755E+02
  0
VERTEX
  8
0
 62
4
 10
1.16471739E+01
 20
1.81686406E+02
  0
VERTEX
  8
0
 62
4
 10
1.15000210E+01
 20
1.81771712E+02
  0
VERTEX
  8
0
 62
4
 10
1.13452575E+01
 20
1.81845023E+02
  0
VERTEX
  8
0
 62
4
 10
1.11840613E+01
 20
1.81905781E+02
  0
VERTEX
  8
0
 62
4
 10
1.10176591E+01
 20
1.81953523E+02
  0
VERTEX
  8
0
 62
4
 10
1.08473174E+01
 20
1.81987887E+02
  0
VERTEX
  8
0
 62
4
 10
1.06743325E+01
 20
1.82008610E+02
  0
VERTEX
  8
0
 62
4
 10
1.05000210E+01
 20
1.82015535E+02
  0
VERTEX
  8
0
 62
4
 10
1.03257095E+01
 20
1.82008610E+02
  0
VERTEX
  8
0
 62
4
 10
1.01527246E+01
 20
1.81987887E+02
  0
VERTEX
  8
0
 62
4
 10
9.98238291E+00
 20
1.81953523E+02
  0
VERTEX
  8
0
 62
4
 10
9.81598072E+00
 20
1.81905781E+02
  0
VERTEX
  8
0
 62
4
 10
9.65478448E+00
 20
1.81845023E+02
  0
VERTEX
  8
0
 62
4
 10
9.50002100E+00
 20
1.81771712E+02
  0
VERTEX
  8
0
 62
4
 10
9.35286813E+00
 20
1.81686406E+02
  0
VERTEX
  8
0
 62
4
 10
9.21444578E+00
 20
1.81589755E+02
  0
VERTEX
  8
0
 62
4
 10
9.08580744E+00
 20
1.81482493E+02
  0
VERTEX
  8
0
 62
4
 10
8.96793211E+00
 20
1.81365437E+02
  0
VERTEX
  8
0
 62
4
 10
8.86171691E+00
 20
1.81239478E+02
  0
VERTEX
  8
0
 62
4
 10
8.76797019E+00
 20
1.81105574E+02
  0
VERTEX
  8
0
 62
4
 10
8.68740543E+00
 20
1.80964745E+02
  0
VERTEX
  8
0
 62
4
 10
8.62063576E+00
 20
1.80818063E+02
  0
VERTEX
  8
0
 62
4
 10
8.56816935E+00
 20
1.80666644E+02
  0
VERTEX
  8
0
 62
4
 10
8.53040549E+00
 20
1.80511639E+02
  0
VERTEX
  8
0
 62
4
 10
8.50763160E+00
 20
1.80354230E+02
  0
VERTEX
  8
0
 62
4
 10
8.50002100E+00
 20
1.80195613E+02
  0
SEQEND
  8
0
  0
LINE
  8
0
 62
4
 10
8.50002098E+00
 20
1.80195613E+02
 11
8.50002098E+00
 21
1.81830530E+02
  0
POLYLINE
  8
0
 62
4
 66
1
  0
VERTEX
  8
0
 62
4
 10
1.25000210E+01
 20
1.81830530E+02
  0
VERTEX
  8
0
 62
4
 10
1.24919696E+01
 20
1.81993667E+02
  0
VERTEX
  8
0
 62
4
 10
1.24678802E+01
 20
1.82155490E+02
  0
VERTEX
  8
0
 62
4
 10
1.24279467E+01
 20
1.82314696E+02
  0
VERTEX
  8
0
 62
4
 10
1.23724907E+01
 20
1.82470005E+02
  0
VERTEX
  8
0
 62
4
 10
1.23019587E+01
 20
1.82620165E+02
  0
VERTEX
  8
0
 62
4
 10
1.22169186E+01
 20
1.82763967E+02
  0
VERTEX
  8
0
 62
4
 10
1.21180550E+01
 20
1.82900254E+02
  0
VERTEX
  8
0
 62
4
 10
1.20061639E+01
 20
1.83027927E+02
  0
VERTEX
  8
0
 62
4
 10
1.18821463E+01
 20
1.83145961E+02
  0
VERTEX
  8
0
 62
4
 10
1.17470006E+01
 20
1.83253403E+02
  0
VERTEX
  8
0
 62
4
 10
1.16018150E+01
 20
1.83349389E+02
  0
VERTEX
  8
0
 62
4
 10
1.14477583E+01
 20
1.83433146E+02
  0
VERTEX
  8
0
 62
4
 10
1.12860711E+01
 20
1.83503999E+02
  0
VERTEX
  8
0
 62
4
 10
1.11180550E+01
 20
1.83561379E+02
  0
VERTEX
  8
0
 62
4
 10
1.09450629E+01
 20
1.83604823E+02
  0
VERTEX
  8
0
 62
4
 10
1.07684875E+01
 20
1.83633982E+02
  0
VERTEX
  8
0
 62
4
 10
1.05897507E+01
 20
1.83648620E+02
  0
VERTEX
  8
0
 62
4
 10
1.04102914E+01
 20
1.83648620E+02
  0
VERTEX
  8
0
 62
4
 10
1.02315545E+01
 20
1.83633982E+02
  0
VERTEX
  8
0
 62
4
 10
1.00549791E+01
 20
1.83604823E+02
  0
VERTEX
  8
0
 62
4
 10
9.88198703E+00
 20
1.83561379E+02
  0
VERTEX
  8
0
 62
4
 10
9.71397095E+00
 20
1.83503999E+02
  0
VERTEX
  8
0
 62
4
 10
9.55228369E+00
 20
1.83433146E+02
  0
VERTEX
  8
0
 62
4
 10
9.39822705E+00
 20
1.83349389E+02
  0
VERTEX
  8
0
 62
4
 10
9.25304141E+00
 20
1.83253403E+02
  0
VERTEX
  8
0
 62
4
 10
9.11789572E+00
 20
1.83145961E+02
  0
VERTEX
  8
0
 62
4
 10
8.99387808E+00
 20
1.83027927E+02
  0
VERTEX
  8
0
 62
4
 10
8.88198702E+00
 20
1.82900254E+02
  0
VERTEX
  8
0
 62
4
 10
8.78312342E+00
 20
1.82763967E+02
  0
VERTEX
  8
0
 62
4
 10
8.69808327E+00
 20
1.82620165E+02
  0
VERTEX
  8
0
 62
4
 10
8.62755127E+00
 20
1.82470005E+02
  0
VERTEX
  8
0
 62
4
 10
8.57209528E+00
 20
1.82314696E+02
  0
VERTEX
  8
0
 62
4
 10
8.53216183E+00
 20
1.82155490E+02
  0
VERTEX
  8
0
 62
4
 10
8.50807241E+00
 20
1.81993667E+02
  0
VERTEX
  8
0
 62
4
 10
8.50002100E+00
 20
1.81830530E+02
  0
SEQEND
  8
0
  0
POLYLINE
  8
0
 62
4
 66
1
  0
VERTEX
  8
0
 62
4
 10
2.37500210E+01
 20
2.01539199E+02
  0
VERTEX
  8
0
 62
4
 10
2.37414591E+01
 20
2.01717643E+02
  0
VERTEX
  8
0
 62
4
 10
2.37158384E+01
 20
2.01894729E+02
  0
VERTEX
  8
0
 62
4
 10
2.36733541E+01
 20
2.02069108E+02
  0
VERTEX
  8
0
 62
4
 10
2.36143294E+01
 20
2.02239455E+02
  0
VERTEX
  8
0
 62
4
 10
2.35392135E+01
 20
2.02404473E+02
  0
VERTEX
  8
0
 62
4
 10
2.34485782E+01
 20
2.02562905E+02
  0
VERTEX
  8
0
 62
4
 10
2.33431131E+01
 20
2.02713547E+02
  0
VERTEX
  8
0
 62
4
 10
2.32236210E+01
 20
2.02855251E+02
  0
VERTEX
  8
0
 62
4
 10
2.30910113E+01
 20
2.02986939E+02
  0
VERTEX
  8
0
 62
4
 10
2.29462931E+01
 20
2.03107608E+02
  0
VERTEX
  8
0
 62
4
 10
2.27905680E+01
 20
2.03216341E+02
  0
VERTEX
  8
0
 62
4
 10
2.26250210E+01
 20
2.03312311E+02
  0
VERTEX
  8
0
 62
4
 10
2.24509121E+01
 20
2.03394785E+02
  0
VERTEX
  8
0
 62
4
 10
2.22695663E+01
 20
2.03463138E+02
  0
VERTEX
  8
0
 62
4
 10
2.20823639E+01
 20
2.03516848E+02
  0
VERTEX
  8
0
 62
4
 10
2.18907294E+01
 20
2.03555507E+02
  0
VERTEX
  8
0
 62
4
 10
2.16961214E+01
 20
2.03578821E+02
  0
VERTEX
  8
0
 62
4
 10
2.15000210E+01
 20
2.03586612E+02
  0
VERTEX
  8
0
 62
4
 10
2.13039206E+01
 20
2.03578821E+02
  0
VERTEX
  8
0
 62
4
 10
2.11093126E+01
 20
2.03555507E+02
  0
VERTEX
  8
0
 62
4
 10
2.09176781E+01
 20
2.03516848E+02
  0
VERTEX
  8
0
 62
4
 10
2.07304757E+01
 20
2.03463138E+02
  0
VERTEX
  8
0
 62
4
 10
2.05491299E+01
 20
2.03394785E+02
  0
VERTEX
  8
0
 62
4
 10
2.03750210E+01
 20
2.03312311E+02
  0
VERTEX
  8
0
 62
4
 10
2.02094740E+01
 20
2.03216341E+02
  0
VERTEX
  8
0
 62
4
 10
2.00537489E+01
 20
2.03107608E+02
  0
VERTEX
  8
0
 62
4
 10
1.99090307E+01
 20
2.02986939E+02
  0
VERTEX
  8
0
 62
4
 10
1.97764210E+01
 20
2.02855251E+02
  0
VERTEX
  8
0
 62
4
 10
1.96569289E+01
 20
2.02713547E+02
  0
VERTEX
  8
0
 62
4
 10
1.95514638E+01
 20
2.02562905E+02
  0
VERTEX
  8
0
 62
4
 10
1.94608285E+01
 20
2.02404473E+02
  0
VERTEX
  8
0
 62
4
 10
1.93857126E+01
 20
2.02239455E+02
  0
VERTEX
  8
0
 62
4
 10
1.93266879E+01
 20
2.02069108E+02
  0
VERTEX
  8
0
 62
4
 10
1.92842036E+01
 20
2.01894729E+02
  0
VERTEX
  8
0
 62
4
 10
1.92585829E+01
 20
2.01717643E+02
  0
VERTEX
  8
0
 62
4
 10
1.92500210E+01
 20
2.01539199E+02
  0
VERTEX
  8
0
 62
4
 10
1.92585829E+01
 20
2.01360755E+02
  0
VERTEX
  8
0
 62
4
 10
1.92842036E+01
 20
2.01183669E+02
  0
VERTEX
  8
0
 62
4
 10
1.93266879E+01
 20
2.01009290E+02
  0
VERTEX
  8
0
 62
4
 10
1.93857126E+01
 20
2.00838943E+02
  0
VERTEX
  8
0
 62
4
 10
1.94608285E+01
 20
2.00673925E+02
  0
VERTEX
  8
0
 62
4
 10
1.95514638E+01
 20
2.00515493E+02
  0
VERTEX
  8
0
 62
4
 10
1.96569289E+01
 20
2.00364851E+02
  0
VERTEX
  8
0
 62
4
 10
1.97764210E+01
 20
2.00223147E+02
  0
VERTEX
  8
0
 62
4
 10
1.99090307E+01
 20
2.00091459E+02
  0
VERTEX
  8
0
 62
4
 10
2.00537489E+01
 20
1.99970790E+02
  0
VERTEX
  8
0
 62
4
 10
2.02094740E+01
 20
1.99862057E+02
  0
VERTEX
  8
0
 62
4
 10
2.03750210E+01
 20
1.99766087E+02
  0
VERTEX
  8
0
 62
4
 10
2.05491299E+01
 20
1.99683613E+02
  0
VERTEX
  8
0
 62
4
 10
2.07304757E+01
 20
1.99615260E+02
  0
VERTEX
  8
0
 62
4
 10
2.09176782E+01
 20
1.99561550E+02
  0
VERTEX
  8
0
 62
4
 10
2.11093126E+01
 20
1.99522891E+02
  0
VERTEX
  8
0
 62
4
 10
2.13039206E+01
 20
1.99499577E+02
  0
VERTEX
  8
0
 62
4
 10
2.15000210E+01
 20
1.99491786E+02
  0
VERTEX
  8
0
 62
4
 10
2.16961214E+01
 20
1.99499577E+02
  0
VERTEX
  8
0
 62
4
 10
2.18907294E+01
 20
1.99522891E+02
  0
VERTEX
  8
0
 62
4
 10
2.20823639E+01
 20
1.99561550E+02
  0
VERTEX
  8
0
 62
4
 10
2.22695663E+01
 20
1.99615260E+02
  0
VERTEX
  8
0
 62
4
 10
2.24509121E+01
 20
1.99683613E+02
  0
VERTEX
  8
0
 62
4
 10
2.26250210E+01
 20
1.99766087E+02
  0
VERTEX
  8
0
 62
4
 10
2.27905680E+01
 20
1.99862057E+02
  0
VERTEX
  8
0
 62
4
 10
2.29462931E+01
 20
1.99970790E+02
  0
VERTEX
  8
0
 62
4
 10
2.30910113E+01
 20
2.00091459E+02
  0
VERTEX
  8
0
 62
4
 10
2.32236210E+01
 20
2.00223147E+02
  0
VERTEX
  8
0
 62
4
 10
2.33431131E+01
 20
2.00364851E+02
  0
VERTEX
  8
0
 62
4
 10
2.34485782E+01
 20
2.00515493E+02
  0
VERTEX
  8
0
 62
4
 10
2.35392135E+01
 20
2.00673925E+02
  0
VERTEX
  8
0
 62
4
 10
2.36143294E+01
 20
2.00838943E+02
  0
VERTEX
  8
0
 62
4
 10
2.36733541E+01
 20
2.01009290E+02
  0
VERTEX
  8
0
 62
4
 10
2.37158384E+01
 20
2.01183669E+02
  0
VERTEX
  8
0
 62
4
 10
2.37414591E+01
 20
2.01360755E+02
  0
VERTEX
  8
0
 62
4
 10
2.37500210E+01
 20
2.01539199E+02
  0
SEQEND
  8
0
  0
LINE
  8
0
  6
CENTER
 62
6
 10
2.15000210E+01
 20
2.05113795E+02
 11
2.15000210E+01
 21
1.97964602E+02
  0
LINE
  8
0
  6
CENTER
 62
6
 10
2.50746179E+01
 20
2.01539199E+02
 11
1.79254241E+01
 21
2.01539199E+02
  0
LINE
  8
0
 62
4
 10
1.40000210E+01
 20
1.97733476E+02
 11
2.90000210E+01
 21
1.97733476E+02
  0
LINE
  8
0
 62
4
 10
1.40000210E+01
 20
1.97899353E+02
 11
2.90000210E+01
 21
1.97899353E+02
  0
LINE
  8
0
 62
4
 10
-9.99979037E-01
 20
1.77767706E+02
 11
1.40000210E+01
 21
1.77767706E+02
  0
LINE
  8
0
 62
4
 10
1.40000210E+01
 20
1.90908767E+02
 11
2.90000210E+01
 21
1.90908767E+02
  0
LINE
  8
0
 62
4
 10
2.10225546E-05
 20
1.88592275E+02
 11
1.30000210E+01
 21
1.88592275E+02
  0
LINE
  8
0
 62
4
 10
-9.99979037E-01
 20
2.02731172E+02
 11
1.40000210E+01
 21
2.02731172E+02
  0
LINE
  8
0
 62
4
 10
-9.99979037E-01
 20
2.05634024E+02
 11
2.90000210E+01
 21
2.05634024E+02
  0
LINE
  8
0
 62
4
 10
-9.99979019E-01
 20
2.09905365E+02
 11
2.90000210E+01
 21
2.09905365E+02
  0
LINE
  8
0
 62
4
 10
-5.99999981E+01
 20
2.09905365E+02
 11
-2.99999981E+01
 21
2.09905365E+02
  0
LINE
  8
0
  6
CENTER
 62
6
 10
7.00002098E+00
 20
1.81830530E+02
 11
1.40000210E+01
 21
1.81830530E+02
  0
LINE
  8
0
  6
CENTER
 62
6
 10
2.50002098E+00
 20
1.78330530E+02
 11
2.50002098E+00
 21
1.85330530E+02
  0
LINE
  8
0
  6
CENTER
 62
6
 10
-9.99979019E-01
 20
1.81830530E+02
 11
6.00002098E+00
 21
1.81830530E+02
  0
LINE
  8
0
  6
CENTER
 62
6
 10
1.05000210E+01
 20
1.78330530E+02
 11
1.05000210E+01
 21
1.85330530E+02
  0
LINE
  8
0
 62
4
 10
2.90000210E+01
 20
2.09905365E+02
 11
2.90000210E+01
 21
1.90908767E+02
  0
LINE
  8
0
 62
4
 10
-9.99979019E-01
 20
1.77767706E+02
 11
-9.99979019E-01
 21
2.09905365E+02
  0
LINE
  8
0
 62
4
 10
1.40000210E+01
 20
1.77767706E+02
 11
1.40000210E+01
 21
2.05634024E+02
  0
LINE
  8
0
  6
CENTER
 62
6
 10
-3.74999981E+01
 20
2.10610539E+02
 11
-3.74999981E+01
 21
2.01010539E+02
  0
LINE
  8
0
  6
CENTER
 62
6
 10
-3.26999981E+01
 20
2.05810539E+02
 11
-4.22999981E+01
 21
2.05810539E+02
  0
LINE
  8
0
  6
CENTER
 62
6
 10
-5.24999981E+01
 20
2.09385136E+02
 11
-5.24999981E+01
 21
2.02235942E+02
  0
LINE
  8
0
  6
CENTER
 62
6
 10
-4.89254012E+01
 20
2.05810539E+02
 11
-5.60745950E+01
 21
2.05810539E+02
  0
LINE
  8
0
  6
CENTER
 62
6
 10
-4.49999981E+01
 20
2.07275674E+02
 11
-4.49999981E+01
 21
1.97975674E+02
  0
LINE
  8
0
  6
CENTER
 62
6
 10
-4.03499981E+01
 20
2.02625674E+02
 11
-4.96499981E+01
 21
2.02625674E+02
  0
LINE
  8
0
 62
4
 10
-5.99999981E+01
 20
2.09905365E+02
 11
-5.99999981E+01
 21
2.00069725E+02
  0
LINE
  8
0
 62
4
 10
-3.64999981E+01
 20
2.00069725E+02
 11
-3.64999981E+01
 21
2.00000015E+02
  0
LINE
  8
0
 62
4
 10
-2.99999981E+01
 20
2.00000015E+02
 11
-2.99999981E+01
 21
2.09905365E+02
  0
POLYLINE
  8
0
 62
4
 66
1
  0
VERTEX
  8
0
 62
4
 10
-4.21951388E+01
 20
2.00000016E+02
  0
VERTEX
  8
0
 62
4
 10
-4.19258007E+01
 20
2.00246471E+02
  0
VERTEX
  8
0
 62
4
 10
-4.16825052E+01
 20
2.00514416E+02
  0
VERTEX
  8
0
 62
4
 10
-4.14673133E+01
 20
2.00801581E+02
  0
VERTEX
  8
0
 62
4
 10
-4.12820481E+01
 20
2.01105533E+02
  0
VERTEX
  8
0
 62
4
 10
-4.11282789E+01
 20
2.01423698E+02
  0
VERTEX
  8
0
 62
4
 10
-4.10073084E+01
 20
2.01753381E+02
  0
VERTEX
  8
0
 62
4
 10
-4.09201614E+01
 20
2.02091788E+02
  0
VERTEX
  8
0
 62
4
 10
-4.08675762E+01
 20
2.02436052E+02
  0
VERTEX
  8
0
 62
4
 10
-4.08499981E+01
 20
2.02783258E+02
  0
SEQEND
  8
0
  0
POLYLINE
  8
0
 62
4
 66
1
  0
VERTEX
  8
0
 62
4
 10
-4.34777176E+01
 20
2.00000012E+02
  0
VERTEX
  8
0
 62
4
 10
-4.31450090E+01
 20
2.00135027E+02
  0
VERTEX
  8
0
 62
4
 10
-4.28265942E+01
 20
2.00296071E+02
  0
VERTEX
  8
0
 62
4
 10
-4.25249269E+01
 20
2.00481906E+02
  0
VERTEX
  8
0
 62
4
 10
-4.22423315E+01
 20
2.00691097E+02
  0
VERTEX
  8
0
 62
4
 10
-4.19809856E+01
 20
2.00922034E+02
  0
VERTEX
  8
0
 62
4
 10
-4.17429030E+01
 20
2.01172937E+02
  0
VERTEX
  8
0
 62
4
 10
-4.15299183E+01
 20
2.01441872E+02
  0
VERTEX
  8
0
 62
4
 10
-4.13436727E+01
 20
2.01726768E+02
  0
VERTEX
  8
0
 62
4
 10
-4.11856013E+01
 20
2.02025428E+02
  0
VERTEX
  8
0
 62
4
 10
-4.10569222E+01
 20
2.02335552E+02
  0
VERTEX
  8
0
 62
4
 10
-4.09586268E+01
 20
2.02654750E+02
  0
VERTEX
  8
0
 62
4
 10
-4.08914727E+01
 20
2.02980562E+02
  0
VERTEX
  8
0
 62
4
 10
-4.08559773E+01
 20
2.03310478E+02
  0
VERTEX
  8
0
 62
4
 10
-4.08524140E+01
 20
2.03641955E+02
  0
VERTEX
  8
0
 62
4
 10
-4.08808105E+01
 20
2.03972440E+02
  0
VERTEX
  8
0
 62
4
 10
-4.09409477E+01
 20
2.04299385E+02
  0
VERTEX
  8
0
 62
4
 10
-4.10323625E+01
 20
2.04620271E+02
  0
VERTEX
  8
0
 62
4
 10
-4.11543503E+01
 20
2.04932626E+02
  0
VERTEX
  8
0
 62
4
 10
-4.13059711E+01
 20
2.05234043E+02
  0
VERTEX
  8
0
 62
4
 10
-4.14860567E+01
 20
2.05522199E+02
  0
VERTEX
  8
0
 62
4
 10
-4.16932193E+01
 20
2.05794874E+02
  0
VERTEX
  8
0
 62
4
 10
-4.19258627E+01
 20
2.06049967E+02
  0
VERTEX
  8
0
 62
4
 10
-4.21821941E+01
 20
2.06285512E+02
  0
VERTEX
  8
0
 62
4
 10
-4.24602385E+01
 20
2.06499694E+02
  0
VERTEX
  8
0
 62
4
 10
-4.27578532E+01
 20
2.06690862E+02
  0
VERTEX
  8
0
 62
4
 10
-4.30727450E+01
 20
2.06857544E+02
  0
VERTEX
  8
0
 62
4
 10
-4.34024875E+01
 20
2.06998455E+02
  0
VERTEX
  8
0
 62
4
 10
-4.37445398E+01
 20
2.07112509E+02
  0
VERTEX
  8
0
 62
4
 10
-4.40962661E+01
 20
2.07198828E+02
  0
VERTEX
  8
0
 62
4
 10
-4.44549563E+01
 20
2.07256747E+02
  0
VERTEX
  8
0
 62
4
 10
-4.48178463E+01
 20
2.07285818E+02
  0
VERTEX
  8
0
 62
4
 10
-4.51821400E+01
 20
2.07285818E+02
  0
VERTEX
  8
0
 62
4
 10
-4.55450301E+01
 20
2.07256748E+02
  0
VERTEX
  8
0
 62
4
 10
-4.59037204E+01
 20
2.07198830E+02
  0
VERTEX
  8
0
 62
4
 10
-4.62554470E+01
 20
2.07112512E+02
  0
VERTEX
  8
0
 62
4
 10
-4.65974995E+01
 20
2.06998458E+02
  0
VERTEX
  8
0
 62
4
 10
-4.69272424E+01
 20
2.06857548E+02
  0
VERTEX
  8
0
 62
4
 10
-4.72421347E+01
 20
2.06690867E+02
  0
VERTEX
  8
0
 62
4
 10
-4.75397499E+01
 20
2.06499699E+02
  0
VERTEX
  8
0
 62
4
 10
-4.78177948E+01
 20
2.06285518E+02
  0
VERTEX
  8
0
 62
4
 10
-4.80741269E+01
 20
2.06049974E+02
  0
VERTEX
  8
0
 62
4
 10
-4.83067709E+01
 20
2.05794882E+02
  0
VERTEX
  8
0
 62
4
 10
-4.85139343E+01
 20
2.05522207E+02
  0
VERTEX
  8
0
 62
4
 10
-4.86940206E+01
 20
2.05234051E+02
  0
VERTEX
  8
0
 62
4
 10
-4.88456422E+01
 20
2.04932635E+02
  0
VERTEX
  8
0
 62
4
 10
-4.89676308E+01
 20
2.04620280E+02
  0
VERTEX
  8
0
 62
4
 10
-4.90590464E+01
 20
2.04299393E+02
  0
VERTEX
  8
0
 62
4
 10
-4.91191845E+01
 20
2.03972449E+02
  0
VERTEX
  8
0
 62
4
 10
-4.91475818E+01
 20
2.03641964E+02
  0
VERTEX
  8
0
 62
4
 10
-4.91440195E+01
 20
2.03310487E+02
  0
VERTEX
  8
0
 62
4
 10
-4.91085249E+01
 20
2.02980571E+02
  0
VERTEX
  8
0
 62
4
 10
-4.90413716E+01
 20
2.02654759E+02
  0
VERTEX
  8
0
 62
4
 10
-4.89430771E+01
 20
2.02335561E+02
  0
VERTEX
  8
0
 62
4
 10
-4.88143988E+01
 20
2.02025436E+02
  0
VERTEX
  8
0
 62
4
 10
-4.86563282E+01
 20
2.01726776E+02
  0
VERTEX
  8
0
 62
4
 10
-4.84700833E+01
 20
2.01441880E+02
  0
VERTEX
  8
0
 62
4
 10
-4.82570994E+01
 20
2.01172944E+02
  0
VERTEX
  8
0
 62
4
 10
-4.80190174E+01
 20
2.00922041E+02
  0
VERTEX
  8
0
 62
4
 10
-4.77576721E+01
 20
2.00691103E+02
  0
VERTEX
  8
0
 62
4
 10
-4.74750773E+01
 20
2.00481911E+02
  0
VERTEX
  8
0
 62
4
 10
-4.71734104E+01
 20
2.00296076E+02
  0
VERTEX
  8
0
 62
4
 10
-4.68549961E+01
 20
2.00135031E+02
  0
VERTEX
  8
0
 62
4
 10
-4.65222879E+01
 20
2.00000015E+02
  0
SEQEND
  8
0
  0
LINE
  8
0
  6
CENTER
 62
6
 10
-1.55000000E+01
 20
1.97420416E+02
 11
3.40000210E+01
 21
1.97420416E+02
  0
LINE
  8
0
 62
6
 10
-9.26792819E+00
 20
2.00420416E+02
 11
-1.27320298E+01
 21
1.94420416E+02
  0
LINE
  8
0
 62
4
 10
-9.99979001E-01
 20
1.95920416E+02
 11
-1.18660044E+01
 21
1.95920416E+02
  0
LINE
  8
0
 62
4
 10
-9.99979001E-01
 20
1.98920416E+02
 11
-1.01339536E+01
 21
1.98920416E+02
  0
LINE
  8
0
 62
2
 10
-4.41499937E+02
 20
1.34319992E+02
 11
-4.29999937E+02
 21
1.34319992E+02
  0
LINE
  8
0
 62
7
 10
-4.41499937E+02
 20
1.33499985E+02
 11
-4.29999937E+02
 21
1.33499985E+02
  0
LINE
  8
0
 62
2
 10
-4.41499937E+02
 20
1.58679993E+02
 11
-4.29999937E+02
 21
1.58679993E+02
  0
LINE
  8
0
 62
7
 10
-4.41499937E+02
 20
1.59500000E+02
 11
-4.29999937E+02
 21
1.59500000E+02
  0
LINE
  8
0
 62
4
 10
-4.55499937E+02
 20
1.64500000E+02
 11
-4.55499937E+02
 21
1.28500000E+02
  0
LINE
  8
0
 62
4
 10
-4.53892241E+02
 20
1.25715393E+02
 11
-4.43107634E+02
 21
1.25715393E+02
  0
LINE
  8
0
 62
4
 10
-4.53892241E+02
 20
1.36107697E+02
 11
-4.43107634E+02
 21
1.36107697E+02
  0
LINE
  8
0
 62
4
 10
-4.53892241E+02
 20
1.56892303E+02
 11
-4.43107634E+02
 21
1.56892303E+02
  0
LINE
  8
0
 62
4
 10
-4.53892241E+02
 20
1.67284607E+02
 11
-4.43107634E+02
 21
1.67284607E+02
  0
LINE
  8
0
 62
4
 10
-4.55499946E+02
 20
1.64499999E+02
 11
-4.53892267E+02
 21
1.67284608E+02
  0
LINE
  8
0
 62
4
 10
-4.55499960E+02
 20
1.28500090E+02
 11
-4.53892255E+02
 21
1.25715482E+02
  0
LINE
  8
0
 62
4
 10
-4.41499937E+02
 20
1.64500012E+02
 11
-4.43107617E+02
 21
1.67284634E+02
  0
LINE
  8
0
 62
4
 10
-4.41499937E+02
 20
1.64500000E+02
 11
-4.41499937E+02
 21
1.28500000E+02
  0
LINE
  8
0
 62
4
 10
-4.41499968E+02
 20
1.28499997E+02
 11
-4.43107660E+02
 21
1.25715407E+02
  0
ARC
  8
0
 62
4
 10
-4.50700891E+02
 20
1.30911545E+02
 40
9.20095253E+00
 50
3.25615707E+02
 51
3.43842378E+01
  0
ARC
  8
0
 62
4
 10
-4.75892202E+02
 20
1.46500000E+02
 40
3.43922653E+01
 50
3.42412030E+02
 51
1.75879147E+01
  0
ARC
  8
0
 62
4
 10
-4.50700891E+02
 20
1.62088455E+02
 40
9.20095253E+00
 50
3.25615707E+02
 51
3.43842378E+01
  0
ARC
  8
0
 62
4
 10
-4.46298983E+02
 20
1.30911545E+02
 40
9.20095253E+00
 50
1.45615726E+02
 51
2.14384256E+02
  0
ARC
  8
0
 62
4
 10
-4.21107672E+02
 20
1.46500000E+02
 40
3.43922653E+01
 50
1.62412050E+02
 51
1.97587933E+02
  0
ARC
  8
0
 62
4
 10
-4.46298983E+02
 20
1.62088455E+02
 40
9.20095253E+00
 50
1.45615726E+02
 51
2.14384256E+02
  0
ARC
  8
0
 62
7
 10
-4.29999937E+02
 20
1.46500015E+02
 40
1.50000248E+01
 50
3.30073440E+02
 51
2.99266002E+01
  0
ARC
  8
0
 62
7
 10
7.25000095E+01
 20
9.16197433E+01
 40
5.00000000E-01
 50
2.71000347E+02
 51
0.00000000E+00
  0
ARC
  8
0
 62
7
 10
7.25000095E+01
 20
9.16197205E+01
 40
5.00000000E-01
 50
2.71000347E+02
 51
5.46415133E-05
  0
ARC
  8
0
 62
7
 10
7.45000019E+01
 20
1.21999992E+02
 40
5.00000000E-01
 50
2.70000073E+02
 51
5.46415133E-05
  0
ARC
  8
0
 62
7
 10
7.45000019E+01
 20
1.71000000E+02
 40
5.00000000E-01
 50
5.46415133E-05
 51
9.00000369E+01
  0
ARC
  8
0
 62
7
 10
-4.12499937E+02
 20
1.24000000E+02
 40
5.00000000E-01
 50
1.79999977E+02
 51
2.69999974E+02
  0
ARC
  8
0
 62
7
 10
-4.07499937E+02
 20
1.22971725E+02
 40
5.00000000E-01
 50
1.79999977E+02
 51
2.67999192E+02
  0
ARC
  8
0
 62
7
 10
-1.09499968E+02
 20
9.16197205E+01
 40
5.00000000E-01
 50
1.79999977E+02
 51
2.68999679E+02
  0
ARC
  8
0
 62
7
 10
-3.93499907E+02
 20
1.21999992E+02
 40
5.00000000E-01
 50
1.79999977E+02
 51
2.69999974E+02
  0
ARC
  8
0
 62
7
 10
7.45000019E+01
 20
1.71000000E+02
 40
5.00000000E-01
 50
3.59999891E+02
 51
8.99998730E+01
  0
ARC
  8
0
 62
7
 10
-4.12499937E+02
 20
1.69000015E+02
 40
5.00000000E-01
 50
8.99999818E+01
 51
1.79999964E+02
  0
ARC
  8
0
 62
7
 10
-1.09499968E+02
 20
2.01380280E+02
 40
5.00000000E-01
 50
9.10002493E+01
 51
1.79999964E+02
  0
ARC
  8
0
 62
7
 10
-3.93499907E+02
 20
1.71000000E+02
 40
5.00000000E-01
 50
8.99999818E+01
 51
1.79999964E+02
  0
ARC
  8
0
 62
7
 10
7.25000095E+01
 20
2.01380249E+02
 40
5.00000000E-01
 50
3.59999945E+02
 51
8.89995981E+01
  0
ARC
  8
0
 62
7
 10
7.25000095E+01
 20
2.01380280E+02
 40
5.00000000E-01
 50
3.59999891E+02
 51
8.89995981E+01
  0
ARC
  8
0
 62
7
 10
-4.07499937E+02
 20
1.70028275E+02
 40
5.00000000E-01
 50
9.20007356E+01
 51
1.79999964E+02
  0
CIRCLE
  8
0
 62
7
 10
-1.94999968E+02
 20
1.46500000E+02
 40
8.00000000E+00
  0
CIRCLE
  8
0
 62
7
 10
-1.94999968E+02
 20
1.46500000E+02
 40
3.30000043E+00
  0
CIRCLE
  8
0
 62
7
 10
-1.94999968E+02
 20
1.46500000E+02
 40
4.00000000E+00
  0
ARC
  8
0
 62
2
 10
-2.66999968E+02
 20
2.78682785E+02
 40
6.34267845E+01
 50
2.58633859E+02
 51
2.81366109E+02
  0
ARC
  8
0
 62
2
 10
-2.66999968E+02
 20
2.78682785E+02
 40
6.70004044E+01
 50
2.56623899E+02
 51
2.83376097E+02
  0
CIRCLE
  8
0
 62
7
 10
-3.38999968E+02
 20
1.46500000E+02
 40
3.30000043E+00
  0
CIRCLE
  8
0
 62
7
 10
-3.38999968E+02
 20
1.46500000E+02
 40
8.00000000E+00
  0
CIRCLE
  8
0
 62
7
 10
-3.38999968E+02
 20
1.46500000E+02
 40
4.00000000E+00
  0
LINE
  8
0
 62
2
 10
-4.16999903E+02
 20
1.39016649E+02
 11
-4.24777681E+02
 21
1.50657434E+02
  0
LINE
  8
0
 62
7
 10
-4.26999907E+02
 20
1.46499995E+02
 11
-4.22999891E+02
 21
1.53983364E+02
  0
LINE
  8
0
 62
7
 10
-4.22999908E+02
 20
1.39016664E+02
 11
-4.26999922E+02
 21
1.46500016E+02
  0
LINE
  8
0
 62
2
 10
-4.16999900E+02
 20
1.53983351E+02
 11
-4.24777678E+02
 21
1.42342565E+02
  0
LINE
  8
0
 62
7
 10
-4.26999897E+02
 20
1.59499979E+02
 11
-4.22999883E+02
 21
1.61500023E+02
  0
LINE
  8
0
 62
7
 10
-4.16999937E+02
 20
1.39016655E+02
 11
-4.16999937E+02
 21
1.53983376E+02
  0
LINE
  8
0
 62
7
 10
-4.22999907E+02
 20
1.53983376E+02
 11
-4.22999907E+02
 21
1.61500046E+02
  0
LINE
  8
0
 62
7
 10
-4.22999907E+02
 20
1.39016655E+02
 11
-4.22999907E+02
 21
1.31499962E+02
  0
LINE
  8
0
 62
7
 10
-4.22999907E+02
 20
1.31499962E+02
 11
-4.12999937E+02
 21
1.31499962E+02
  0
LINE
  8
0
  6
CENTER
 62
2
 10
7.57791996E+01
 20
1.04499992E+02
 11
-1.12524473E+02
 21
1.04499992E+02
  0
LINE
  8
0
 62
7
 10
-4.26999903E+02
 20
1.33499973E+02
 11
-4.22999907E+02
 21
1.31499962E+02
  0
LINE
  8
0
 62
7
 10
-4.22999907E+02
 20
1.39016655E+02
 11
-4.16999937E+02
 21
1.39016655E+02
  0
LINE
  8
0
 62
7
 10
-4.22999907E+02
 20
1.53983376E+02
 11
-4.16999937E+02
 21
1.53983376E+02
  0
LINE
  8
0
 62
7
 10
3.70000172E+01
 20
1.08999985E+02
 11
-7.39999981E+01
 21
1.08999985E+02
  0
LINE
  8
0
 62
7
 10
-7.39999981E+01
 20
9.29999771E+01
 11
3.70000172E+01
 21
9.29999771E+01
  0
LINE
  8
0
 62
7
 10
3.70000172E+01
 20
9.99999771E+01
 11
-7.39999981E+01
 21
9.99999771E+01
  0
LINE
  8
0
 62
7
 10
7.50000095E+01
 20
1.70999985E+02
 11
7.50000095E+01
 21
1.22000008E+02
  0
LINE
  8
0
 62
7
 10
7.25087537E+01
 20
9.11198265E+01
 11
3.70000135E+01
 21
9.05000192E+01
  0
LINE
  8
0
 62
7
 10
6.90000019E+01
 20
9.10585632E+01
 11
6.90000019E+01
 21
9.05000038E+01
  0
LINE
  8
0
 62
7
 10
6.90000095E+01
 20
9.05000038E+01
 11
3.70000057E+01
 21
9.05000038E+01
  0
LINE
  8
0
 62
7
 10
7.45000095E+01
 20
1.21500000E+02
 11
7.30000095E+01
 21
1.21500000E+02
  0
LINE
  8
0
 62
7
 10
-3.93999907E+02
 20
1.70999954E+02
 11
-3.93999907E+02
 21
1.22000008E+02
  0
LINE
  8
0
  6
CENTER
 62
2
 10
5.29999638E+01
 20
1.89800049E+02
 11
5.29999638E+01
 21
2.04763657E+02
  0
LINE
  8
0
 62
7
 10
-4.07999937E+02
 20
1.70028275E+02
 11
-4.07999937E+02
 21
1.22971725E+02
  0
LINE
  8
0
 62
7
 10
-4.12499937E+02
 20
1.23499985E+02
 11
-4.07999937E+02
 21
1.23499985E+02
  0
LINE
  8
0
 62
7
 10
-4.07999937E+02
 20
1.22936745E+02
 11
-4.07999937E+02
 21
1.23000000E+02
  0
LINE
  8
0
 62
7
 10
-4.12999937E+02
 20
1.24000000E+02
 11
-4.12999937E+02
 21
1.69000015E+02
  0
LINE
  8
0
 62
7
 10
-4.07517423E+02
 20
1.22472050E+02
 11
-3.93999967E+02
 21
1.22000010E+02
  0
LINE
  8
0
 62
7
 10
-1.09508675E+02
 20
9.11198331E+01
 11
-7.39999408E+01
 21
9.05000258E+01
  0
LINE
  8
0
 62
7
 10
-1.05999983E+02
 20
9.10585632E+01
 11
-1.05999983E+02
 21
9.05000038E+01
  0
LINE
  8
0
 62
7
 10
-1.05999983E+02
 20
9.05000038E+01
 11
-7.39999676E+01
 21
9.05000038E+01
  0
LINE
  8
0
 62
7
 10
-3.93499907E+02
 20
1.21500000E+02
 11
-3.91999937E+02
 21
1.21500000E+02
  0
LINE
  8
0
 62
7
 10
7.45000095E+01
 20
1.71500015E+02
 11
7.30000095E+01
 21
1.71500015E+02
  0
LINE
  8
0
  6
CENTER
 62
2
 10
7.57791996E+01
 20
1.88500000E+02
 11
-1.12524473E+02
 21
1.88500000E+02
  0
LINE
  8
0
 62
2
 10
-4.66320005E+02
 20
1.34319992E+02
 11
-4.55499937E+02
 21
1.34319992E+02
  0
LINE
  8
0
 62
7
 10
-4.66999968E+02
 20
1.34999966E+02
 11
-4.65499977E+02
 21
1.33499976E+02
  0
LINE
  8
0
 62
7
 10
-4.65499998E+02
 20
1.33499985E+02
 11
-4.55499937E+02
 21
1.33499985E+02
  0
LINE
  8
0
 62
7
 10
-4.29999937E+02
 20
1.34319992E+02
 11
-4.26999937E+02
 21
1.34319992E+02
  0
LINE
  8
0
 62
7
 10
-4.29999937E+02
 20
1.58679993E+02
 11
-4.26999937E+02
 21
1.58679993E+02
  0
LINE
  8
0
 62
2
 10
-4.66320005E+02
 20
1.58679993E+02
 11
-4.55499937E+02
 21
1.58679993E+02
  0
LINE
  8
0
 62
7
 10
-4.66999784E+02
 20
1.57999807E+02
 11
-4.65499772E+02
 21
1.59499820E+02
  0
LINE
  8
0
 62
7
 10
-4.65499937E+02
 20
1.33499985E+02
 11
-4.65499937E+02
 21
1.59500000E+02
  0
LINE
  8
0
 62
7
 10
-4.65499998E+02
 20
1.59500000E+02
 11
-4.55499937E+02
 21
1.59500000E+02
  0
LINE
  8
0
 62
7
 10
-4.29999937E+02
 20
1.33499985E+02
 11
-4.29999937E+02
 21
1.59500000E+02
  0
LINE
  8
0
 62
7
 10
-4.66999937E+02
 20
1.34999924E+02
 11
-4.66999937E+02
 21
1.57999695E+02
  0
LINE
  8
0
 62
7
 10
6.90000095E+01
 20
2.02500000E+02
 11
3.70000057E+01
 21
2.02500000E+02
  0
LINE
  8
0
 62
7
 10
-4.26999937E+02
 20
1.33499985E+02
 11
-4.26999937E+02
 21
1.59500000E+02
  0
LINE
  8
0
 62
7
 10
-4.12499937E+02
 20
1.69500015E+02
 11
-4.07999937E+02
 21
1.69500015E+02
  0
LINE
  8
0
 62
7
 10
-4.07999937E+02
 20
1.70063248E+02
 11
-4.07999937E+02
 21
1.70000000E+02
  0
LINE
  8
0
 62
7
 10
-4.07517435E+02
 20
1.70527918E+02
 11
-3.93999978E+02
 21
1.70999958E+02
  0
LINE
  8
0
 62
7
 10
-1.09508699E+02
 20
2.01880187E+02
 11
-7.39999644E+01
 21
2.02499994E+02
  0
LINE
  8
0
 62
7
 10
-1.05999983E+02
 20
2.01941452E+02
 11
-1.05999983E+02
 21
2.02500000E+02
  0
LINE
  8
0
 62
7
 10
-1.05999983E+02
 20
2.02500000E+02
 11
-7.39999676E+01
 21
2.02500000E+02
  0
LINE
  8
0
 62
7
 10
-3.93499907E+02
 20
1.71500015E+02
 11
-3.91999937E+02
 21
1.71500015E+02
  0
LINE
  8
0
 62
7
 10
-7.39999981E+01
 20
2.00000015E+02
 11
-9.99979019E-01
 21
2.00000015E+02
  0
LINE
  8
0
 62
7
 10
6.90000019E+01
 20
2.01941452E+02
 11
6.90000019E+01
 21
2.02500000E+02
  0
LINE
  8
0
 62
7
 10
7.25087541E+01
 20
2.01880175E+02
 11
3.70000100E+01
 21
2.02499982E+02
  0
LINE
  8
0
  6
CENTER
 62
2
 10
-8.99999828E+01
 20
1.89800034E+02
 11
-8.99999828E+01
 21
2.04763641E+02
  0
LINE
  8
0
 62
7
 10
3.70000172E+01
 20
1.93000031E+02
 11
2.90000210E+01
 21
1.93000031E+02
  0
LINE
  8
0
 62
7
 10
3.70000172E+01
 20
1.84000015E+02
 11
1.40000210E+01
 21
1.84000015E+02
  0
LINE
  8
0
 62
7
 10
3.70000172E+01
 20
2.02500000E+02
 11
3.70000172E+01
 21
9.05000038E+01
  0
LINE
  8
0
 62
7
 10
7.30000172E+01
 20
2.01380249E+02
 11
7.30000172E+01
 21
9.16197433E+01
  0
LINE
  8
0
 62
7
 10
-4.22999907E+02
 20
1.61500046E+02
 11
-4.12999937E+02
 21
1.61500046E+02
  0
LINE
  8
0
 62
7
 10
-7.39999981E+01
 20
2.02500000E+02
 11
-7.39999981E+01
 21
9.05000153E+01
  0
LINE
  8
0
 62
7
 10
-1.09999983E+02
 20
2.01380280E+02
 11
-1.09999983E+02
 21
9.16197205E+01
  0
LINE
  8
0
 62
7
 10
-1.09999983E+02
 20
2.15500000E+02
 11
-1.09999983E+02
 21
7.74999809E+01
  0
LINE
  8
0
 62
7
 10
-2.54500047E+02
 20
2.16499986E+02
 11
-2.51500044E+02
 21
2.13499982E+02
  0
LINE
  8
0
 62
7
 10
-2.79499876E+02
 20
2.16499859E+02
 11
-2.82499874E+02
 21
2.13499861E+02
  0
LINE
  8
0
 62
7
 10
-2.51499998E+02
 20
2.13499985E+02
 11
-1.77999998E+02
 21
2.13499985E+02
  0
LINE
  8
0
 62
7
 10
-1.98463653E+02
 20
1.40500369E+02
 11
-2.01927730E+02
 21
1.46500336E+02
  0
LINE
  8
0
  6
CENTER
 62
2
 10
-1.94999968E+02
 20
1.57581039E+02
 11
-1.94999968E+02
 21
1.34792191E+02
  0
LINE
  8
0
 62
7
 10
-1.96999983E+02
 20
1.47655258E+02
 11
-1.96999983E+02
 21
1.45345291E+02
  0
LINE
  8
0
 62
7
 10
-1.97000266E+02
 20
1.45344816E+02
 11
-1.95000251E+02
 21
1.44190107E+02
  0
LINE
  8
0
 62
7
 10
-1.94999789E+02
 20
1.44190391E+02
 11
-1.92999775E+02
 21
1.45345100E+02
  0
LINE
  8
0
 62
7
 10
-1.92999998E+02
 20
1.45345291E+02
 11
-1.92999998E+02
 21
1.47654846E+02
  0
LINE
  8
0
 62
7
 10
-1.98464140E+02
 20
1.40499954E+02
 11
-1.91535887E+02
 21
1.40499954E+02
  0
LINE
  8
0
 62
7
 10
-1.91535717E+02
 20
1.40499943E+02
 11
-1.88071619E+02
 21
1.46499946E+02
  0
LINE
  8
0
 62
7
 10
-1.78000044E+02
 20
8.71703987E+01
 11
-1.09999983E+02
 21
8.71703987E+01
  0
LINE
  8
0
  6
CENTER
 62
2
 10
-3.98348204E+02
 20
9.44999924E+01
 11
-1.02375975E+02
 21
9.44999924E+01
  0
LINE
  8
0
 62
7
 10
-3.55999968E+02
 20
9.99999542E+01
 11
-1.78000044E+02
 21
9.99999542E+01
  0
LINE
  8
0
 62
7
 10
-3.55999968E+02
 20
8.89999886E+01
 11
-1.78000044E+02
 21
8.89999886E+01
  0
LINE
  8
0
 62
7
 10
-3.92000029E+02
 20
2.05829559E+02
 11
-3.55999968E+02
 21
2.05829559E+02
  0
LINE
  8
0
 62
7
 10
-3.92000029E+02
 20
8.71703987E+01
 11
-3.55999968E+02
 21
8.71703987E+01
  0
LINE
  8
0
 62
7
 10
-1.78000044E+02
 20
2.05829559E+02
 11
-1.09999983E+02
 21
2.05829559E+02
  0
LINE
  8
0
 62
7
 10
-3.42464575E+02
 20
1.52500197E+02
 11
-3.45928673E+02
 21
1.46500194E+02
  0
LINE
  8
0
 62
7
 10
-3.36999691E+02
 20
1.47655078E+02
 11
-3.38999705E+02
 21
1.48809787E+02
  0
LINE
  8
0
 62
7
 10
-3.38999875E+02
 20
1.48809304E+02
 11
-3.40999849E+02
 21
1.47654617E+02
  0
LINE
  8
0
 62
7
 10
-3.35535826E+02
 20
1.52500000E+02
 11
-3.42464079E+02
 21
1.52500000E+02
  0
LINE
  8
0
 62
7
 10
-3.35536518E+02
 20
1.52499631E+02
 11
-3.32072411E+02
 21
1.46499612E+02
  0
LINE
  8
0
 62
7
 10
-1.96999995E+02
 20
1.47654938E+02
 11
-1.95000000E+02
 21
1.48809636E+02
  0
LINE
  8
0
 62
7
 10
-1.95000011E+02
 20
1.48809539E+02
 11
-1.92999997E+02
 21
1.47654830E+02
  0
LINE
  8
0
 62
7
 10
-1.98463776E+02
 20
1.52499745E+02
 11
-2.01927865E+02
 21
1.46499758E+02
  0
LINE
  8
0
 62
7
 10
-1.98464140E+02
 20
1.52500000E+02
 11
-1.91535887E+02
 21
1.52500000E+02
  0
LINE
  8
0
 62
7
 10
-1.91535685E+02
 20
1.52500177E+02
 11
-1.88071608E+02
 21
1.46500210E+02
  0
LINE
  8
0
 62
7
 10
-3.55999968E+02
 20
1.93000000E+02
 11
-1.78000044E+02
 21
1.93000000E+02
  0
LINE
  8
0
  6
CENTER
 62
2
 10
-3.98348204E+02
 20
1.98499985E+02
 11
-1.02375975E+02
 21
1.98499985E+02
  0
LINE
  8
0
 62
7
 10
-3.55999968E+02
 20
2.04000015E+02
 11
-1.78000044E+02
 21
2.04000015E+02
  0
LINE
  8
0
 62
7
 10
-3.55999968E+02
 20
2.13499985E+02
 11
-2.82499968E+02
 21
2.13499985E+02
  0
LINE
  8
0
 62
7
 10
-1.78000044E+02
 20
7.74999580E+01
 11
-1.09999983E+02
 21
7.74999580E+01
  0
LINE
  8
0
 62
7
 10
-3.55999968E+02
 20
2.15500046E+02
 11
-3.55999968E+02
 21
7.74999809E+01
  0
LINE
  8
0
 62
7
 10
-1.78000044E+02
 20
2.15500046E+02
 11
-1.78000044E+02
 21
7.74999809E+01
  0
LINE
  8
0
 62
7
 10
-3.92000029E+02
 20
7.74999580E+01
 11
-3.55999968E+02
 21
7.74999580E+01
  0
LINE
  8
0
 62
7
 10
-3.55999968E+02
 20
7.94999962E+01
 11
-1.78000044E+02
 21
7.94999962E+01
  0
LINE
  8
0
 62
7
 10
-1.77999998E+02
 20
2.15500000E+02
 11
-1.09999983E+02
 21
2.15500000E+02
  0
LINE
  8
0
 62
7
 10
-3.92000029E+02
 20
2.15500000E+02
 11
-3.55999968E+02
 21
2.15500000E+02
  0
LINE
  8
0
  6
CENTER
 62
2
 10
-3.38999968E+02
 20
1.57581039E+02
 11
-3.38999968E+02
 21
1.34792191E+02
  0
LINE
  8
0
 62
7
 10
-3.36999998E+02
 20
1.47655258E+02
 11
-3.36999998E+02
 21
1.45345291E+02
  0
LINE
  8
0
 62
7
 10
-3.36999679E+02
 20
1.45344681E+02
 11
-3.38999693E+02
 21
1.44189972E+02
  0
LINE
  8
0
 62
7
 10
-3.39000019E+02
 20
1.44190593E+02
 11
-3.41000033E+02
 21
1.45345302E+02
  0
LINE
  8
0
 62
7
 10
-3.40999937E+02
 20
1.45345291E+02
 11
-3.40999937E+02
 21
1.47654800E+02
  0
LINE
  8
0
 62
7
 10
-3.35535826E+02
 20
1.40499954E+02
 11
-3.42464079E+02
 21
1.40499954E+02
  0
LINE
  8
0
 62
7
 10
-3.42464499E+02
 20
1.40499816E+02
 11
-3.45928622E+02
 21
1.46499862E+02
  0
LINE
  8
0
 62
7
 10
-3.35536564E+02
 20
1.40500404E+02
 11
-3.32072468E+02
 21
1.46500403E+02
  0
LINE
  8
0
 62
7
 10
-3.91999937E+02
 20
2.15500046E+02
 11
-3.91999937E+02
 21
7.74999809E+01
  0
LINE
  8
0
  6
CENTER
 62
2
 10
-4.70520781E+02
 20
1.46500000E+02
 11
8.16331425E+01
 21
1.46500000E+02
  0
LINE
  8
0
 62
7
 10
-2.79499820E+02
 20
2.27499862E+02
 11
-2.78499843E+02
 21
2.28499839E+02
  0
LINE
  8
0
 62
7
 10
-2.78499998E+02
 20
2.28499985E+02
 11
-2.55499983E+02
 21
2.28499985E+02
  0
LINE
  8
0
 62
7
 10
-2.55500015E+02
 20
2.28499966E+02
 11
-2.54500014E+02
 21
2.27499965E+02
  0
LINE
  8
0
 62
7
 10
-2.79499968E+02
 20
2.27500000E+02
 11
-2.54499998E+02
 21
2.27500000E+02
  0
LINE
  8
0
  6
CENTER
 62
2
 10
-5.86499968E+02
 20
8.88216553E+01
 11
-5.86499968E+02
 21
1.18863586E+02
  0
LINE
  8
0
  6
CENTER
 62
2
 10
-5.70431395E+02
 20
1.04499931E+02
 11
-6.01996122E+02
 21
1.04499931E+02
  0
LINE
  8
0
  6
CENTER
 62
2
 10
-6.70499937E+02
 20
8.89276390E+01
 11
-6.70499937E+02
 21
1.19496140E+02
  0
LINE
  8
0
  6
CENTER
 62
2
 10
-6.55693739E+02
 20
1.04499931E+02
 11
-6.86875624E+02
 21
1.04499931E+02
  0
LINE
  8
0
  6
CENTER
 62
2
 10
-6.70499937E+02
 20
2.05392670E+02
 11
-6.70499937E+02
 21
1.73642136E+02
  0
LINE
  8
0
  6
CENTER
 62
2
 10
-6.55693739E+02
 20
1.88499939E+02
 11
-6.86783155E+02
 21
1.88499939E+02
  0
LINE
  8
0
  6
CENTER
 62
2
 10
-5.86499968E+02
 20
2.04980713E+02
 11
-5.86499968E+02
 21
1.74073746E+02
  0
LINE
  8
0
  6
CENTER
 62
2
 10
-5.70536070E+02
 20
1.88499939E+02
 11
-6.02390959E+02
 21
1.88499939E+02
  0
LINE
  8
0
 62
4
 10
-6.46500116E+02
 20
1.36107722E+02
 11
-6.28500124E+02
 21
1.25715424E+02
  0
LINE
  8
0
 62
4
 10
-6.28500171E+02
 20
1.67284608E+02
 11
-6.10500166E+02
 21
1.56892302E+02
  0
LINE
  8
0
 62
4
 10
-6.28500107E+02
 20
1.25715373E+02
 11
-6.10500105E+02
 21
1.36107677E+02
  0
LINE
  8
0
 62
4
 10
-6.46500094E+02
 20
1.56892269E+02
 11
-6.28500092E+02
 21
1.67284573E+02
  0
LINE
  8
0
 62
4
 10
-6.10500029E+02
 20
1.56892303E+02
 11
-6.10500029E+02
 21
1.36107697E+02
  0
LINE
  8
0
 62
4
 10
-6.46500036E+02
 20
1.56892303E+02
 11
-6.46500036E+02
 21
1.36107697E+02
  0
CIRCLE
  8
0
 62
4
 10
-6.28500029E+02
 20
1.46500000E+02
 40
1.80000000E+01
  0
CIRCLE
  8
0
 62
7
 10
-6.28500029E+02
 20
1.46500000E+02
 40
2.40000000E+01
  0
CIRCLE
  8
0
 62
7
 10
-6.28499907E+02
 20
1.46500061E+02
 40
2.35000153E+01
  0
CIRCLE
  8
0
 62
7
 10
-6.28499907E+02
 20
1.46500061E+02
 40
2.50000153E+01
  0
CIRCLE
  8
0
 62
2
 10
-6.28500029E+02
 20
1.46500000E+02
 40
1.21799841E+01
  0
CIRCLE
  8
0
 62
7
 10
-6.28500029E+02
 20
1.46500000E+02
 40
1.29999914E+01
  0
ARC
  8
0
 62
7
 10
-6.28500029E+02
 20
1.46500000E+02
 40
9.10000076E+01
 50
3.10690569E+02
 51
3.19309445E+02
  0
CIRCLE
  8
0
 62
7
 10
-5.76499907E+02
 20
9.44999924E+01
 40
5.00000000E+00
  0
CIRCLE
  8
0
 62
2
 10
-5.76499907E+02
 20
9.44999924E+01
 40
6.00000048E+00
  0
CIRCLE
  8
0
 62
7
 10
-5.76499907E+02
 20
1.98499985E+02
 40
5.00000000E+00
  0
CIRCLE
  8
0
 62
7
 10
-6.80499968E+02
 20
1.98499985E+02
 40
1.00000000E+01
  0
CIRCLE
  8
0
 62
2
 10
-6.80499968E+02
 20
1.98499985E+02
 40
6.00000048E+00
  0
CIRCLE
  8
0
 62
7
 10
-6.80499968E+02
 20
1.98499985E+02
 40
5.00000000E+00
  0
CIRCLE
  8
0
 62
7
 10
-6.80499968E+02
 20
1.98499985E+02
 40
1.02500000E+01
  0
CIRCLE
  8
0
 62
7
 10
-5.76499907E+02
 20
1.98499985E+02
 40
1.02500000E+01
  0
CIRCLE
  8
0
 62
7
 10
-5.76499907E+02
 20
1.98499985E+02
 40
1.00000000E+01
  0
CIRCLE
  8
0
 62
2
 10
-5.76499907E+02
 20
1.98499985E+02
 40
6.00000048E+00
  0
ARC
  8
0
 62
7
 10
-6.28500029E+02
 20
1.46500000E+02
 40
9.10000076E+01
 50
2.20690533E+02
 51
2.29309412E+02
  0
ARC
  8
0
 62
7
 10
-6.28500029E+02
 20
1.46500000E+02
 40
9.10000076E+01
 50
4.06905549E+01
 51
4.93094306E+01
  0
CIRCLE
  8
0
 62
7
 10
-5.76499907E+02
 20
9.44999924E+01
 40
1.00000000E+01
  0
CIRCLE
  8
0
 62
7
 10
-5.76499907E+02
 20
9.44999924E+01
 40
1.02500000E+01
  0
CIRCLE
  8
0
 62
7
 10
-6.80499968E+02
 20
9.44999924E+01
 40
1.00000000E+01
  0
CIRCLE
  8
0
 62
7
 10
-6.80499968E+02
 20
9.44999924E+01
 40
1.02500000E+01
  0
CIRCLE
  8
0
 62
7
 10
-6.80499968E+02
 20
9.44999924E+01
 40
5.00000000E+00
  0
CIRCLE
  8
0
 62
2
 10
-6.80499968E+02
 20
9.44999924E+01
 40
6.00000048E+00
  0
ARC
  8
0
 62
7
 10
-6.28500029E+02
 20
1.46500000E+02
 40
9.10000076E+01
 50
1.30690588E+02
 51
1.39309467E+02
  0
ARC
  8
0
 62
7
 10
-7.00159086E+02
 20
1.43500000E+02
 40
6.84088802E+00
 50
1.53989320E+02
 51
2.06010690E+02
  0
ARC
  8
0
 62
7
 10
-7.00159086E+02
 20
1.49499954E+02
 40
6.84084749E+00
 50
1.53989169E+02
 51
2.06010827E+02
  0
ARC
  8
0
 62
7
 10
-5.56840788E+02
 20
1.43500000E+02
 40
6.84088802E+00
 50
3.33989277E+02
 51
2.60106513E+01
  0
ARC
  8
0
 62
7
 10
-5.56840788E+02
 20
1.49499954E+02
 40
6.84084749E+00
 50
3.33989137E+02
 51
2.60107913E+01
  0
LINE
  8
0
 62
7
 10
-6.39999968E+02
 20
2.28499985E+02
 11
-6.16999907E+02
 21
2.28499985E+02
  0
LINE
  8
0
 62
7
 10
-6.40999907E+02
 20
2.15500000E+02
 11
-6.40999907E+02
 21
2.27500000E+02
  0
LINE
  8
0
 62
7
 10
-6.15999968E+02
 20
2.15500000E+02
 11
-6.15999968E+02
 21
2.27500000E+02
  0
LINE
  8
0
 62
7
 10
-6.40999591E+02
 20
2.27499709E+02
 11
-6.39999612E+02
 21
2.28499688E+02
  0
LINE
  8
0
 62
7
 10
-6.16999695E+02
 20
2.28499990E+02
 11
-6.15999759E+02
 21
2.27500054E+02
  0
LINE
  8
0
 62
7
 10
-6.74500835E+02
 20
1.95037461E+02
 11
-6.80500874E+02
 21
1.91573327E+02
  0
LINE
  8
0
  6
CENTER
 62
2
 10
-6.80499968E+02
 20
1.76733414E+02
 11
-6.80499968E+02
 21
2.20123596E+02
  0
LINE
  8
0
  6
CENTER
 62
2
 10
-6.59293974E+02
 20
1.98499985E+02
 11
-7.03358671E+02
 21
1.98499985E+02
  0
LINE
  8
0
 62
7
 10
-6.80500236E+02
 20
1.91571645E+02
 11
-6.86500090E+02
 21
1.95035672E+02
  0
LINE
  8
0
 62
7
 10
-6.86499968E+02
 20
2.01964111E+02
 11
-6.86499968E+02
 21
1.95035904E+02
  0
LINE
  8
0
 62
7
 10
-6.74500230E+02
 20
2.01964052E+02
 11
-6.80500190E+02
 21
2.05428141E+02
  0
LINE
  8
0
 62
7
 10
-6.80500980E+02
 20
2.05429682E+02
 11
-6.86501019E+02
 21
2.01965548E+02
  0
LINE
  8
0
 62
7
 10
-6.74499968E+02
 20
1.95035904E+02
 11
-6.74499968E+02
 21
2.01964111E+02
  0
LINE
  8
0
  6
CENTER
 62
2
 10
-5.97705900E+02
 20
1.98499985E+02
 11
-5.53641020E+02
 21
1.98499985E+02
  0
LINE
  8
0
  6
CENTER
 62
2
 10
-5.76499907E+02
 20
1.76733414E+02
 11
-5.76499907E+02
 21
2.20123596E+02
  0
LINE
  8
0
 62
7
 10
-5.82500280E+02
 20
1.95035928E+02
 11
-5.76500268E+02
 21
1.91571809E+02
  0
LINE
  8
0
 62
7
 10
-5.76500808E+02
 20
1.91573176E+02
 11
-5.70500769E+02
 21
1.95037310E+02
  0
LINE
  8
0
 62
7
 10
-5.70499907E+02
 20
2.01964111E+02
 11
-5.70499907E+02
 21
1.95035904E+02
  0
LINE
  8
0
 62
7
 10
-5.76500101E+02
 20
2.05428147E+02
 11
-5.70500089E+02
 21
2.01964028E+02
  0
LINE
  8
0
 62
7
 10
-5.82500840E+02
 20
2.01965568E+02
 11
-5.76500960E+02
 21
2.05429611E+02
  0
LINE
  8
0
 62
7
 10
-5.82499907E+02
 20
1.95035904E+02
 11
-5.82499907E+02
 21
2.01964111E+02
  0
LINE
  8
0
 62
7
 10
-6.40999907E+02
 20
2.27500000E+02
 11
-6.15999968E+02
 21
2.27500000E+02
  0
LINE
  8
0
 62
7
 10
-5.82499907E+02
 20
9.79640961E+01
 11
-5.82499907E+02
 21
9.10358925E+01
  0
LINE
  8
0
 62
7
 10
-5.82500141E+02
 20
9.10357187E+01
 11
-5.76500235E+02
 21
8.75716610E+01
  0
LINE
  8
0
 62
7
 10
-5.76500564E+02
 20
8.75729149E+01
 11
-5.70500499E+02
 21
9.10370642E+01
  0
LINE
  8
0
 62
7
 10
-5.70499907E+02
 20
9.10358925E+01
 11
-5.70499907E+02
 21
9.79640961E+01
  0
LINE
  8
0
 62
7
 10
-5.76500332E+02
 20
1.01428152E+02
 11
-5.70500373E+02
 21
9.79640633E+01
  0
LINE
  8
0
 62
7
 10
-5.82500551E+02
 20
9.79652277E+01
 11
-5.76500591E+02
 21
1.01429316E+02
  0
LINE
  8
0
  6
CENTER
 62
2
 10
-5.76499907E+02
 20
1.16266609E+02
 11
-5.76499907E+02
 21
7.28763847E+01
  0
LINE
  8
0
  6
CENTER
 62
2
 10
-5.97705900E+02
 20
9.44999924E+01
 11
-5.53641020E+02
 21
9.44999924E+01
  0
LINE
  8
0
 62
7
 10
-6.74499968E+02
 20
9.79640961E+01
 11
-6.74499968E+02
 21
9.10358925E+01
  0
LINE
  8
0
 62
7
 10
-6.74500785E+02
 20
9.10372294E+01
 11
-6.80500718E+02
 21
8.75731564E+01
  0
LINE
  8
0
 62
7
 10
-6.80500474E+02
 20
8.75716981E+01
 11
-6.86500539E+02
 21
9.10358474E+01
  0
LINE
  8
0
 62
7
 10
-6.86499968E+02
 20
9.10358925E+01
 11
-6.86499968E+02
 21
9.79640961E+01
  0
LINE
  8
0
 62
7
 10
-6.80500850E+02
 20
1.01429496E+02
 11
-6.86500837E+02
 21
9.79653929E+01
  0
LINE
  8
0
 62
7
 10
-6.74500302E+02
 20
9.79639041E+01
 11
-6.80500262E+02
 21
1.01427992E+02
  0
LINE
  8
0
  6
CENTER
 62
2
 10
-6.80499968E+02
 20
1.16266609E+02
 11
-6.80499968E+02
 21
7.28763847E+01
  0
LINE
  8
0
  6
CENTER
 62
2
 10
-6.59293974E+02
 20
9.44999924E+01
 11
-7.03358671E+02
 21
9.44999924E+01
  0
LINE
  8
0
 62
7
 10
-6.87829496E+02
 20
2.15499954E+02
 11
-5.69170378E+02
 21
2.15499954E+02
  0
LINE
  8
0
 62
7
 10
-5.59500029E+02
 20
2.05829605E+02
 11
-5.59500029E+02
 21
8.71704216E+01
  0
LINE
  8
0
 62
7
 10
-6.97500029E+02
 20
2.05829605E+02
 11
-6.97500029E+02
 21
8.71704216E+01
  0
LINE
  8
0
 62
7
 10
-6.87829496E+02
 20
7.74999809E+01
 11
-5.69170378E+02
 21
7.74999809E+01
  0
LINE
  8
0
 62
7
 10
-5.56500029E+02
 20
1.40499954E+02
 11
-5.49999968E+02
 21
1.40499954E+02
  0
LINE
  8
0
 62
7
 10
-7.07999219E+02
 20
1.49799262E+02
 11
-7.07299169E+02
 21
1.50499313E+02
  0
LINE
  8
0
 62
7
 10
-7.07299859E+02
 20
1.42499908E+02
 11
-7.07999974E+02
 21
1.43200023E+02
  0
LINE
  8
0
 62
2
 10
-7.07000090E+02
 20
1.49799973E+02
 11
-7.08000029E+02
 21
1.49799973E+02
  0
LINE
  8
0
 62
7
 10
-7.07300016E+02
 20
1.42500015E+02
 11
-7.07300016E+02
 21
1.50499985E+02
  0
LINE
  8
0
 62
7
 10
-5.48999915E+02
 20
1.49800093E+02
 11
-5.49699857E+02
 21
1.50500036E+02
  0
LINE
  8
0
 62
7
 10
-5.49699232E+02
 20
1.42499488E+02
 11
-5.48999290E+02
 21
1.43199430E+02
  0
LINE
  8
0
 62
7
 10
-7.00499846E+02
 20
1.38499985E+02
 11
-7.00499846E+02
 21
1.54500015E+02
  0
LINE
  8
0
 62
7
 10
-5.49700041E+02
 20
1.42500015E+02
 11
-5.49700041E+02
 21
1.50499985E+02
  0
LINE
  8
0
 62
2
 10
-5.49999968E+02
 20
1.49799973E+02
 11
-5.49000029E+02
 21
1.49799973E+02
  0
LINE
  8
0
 62
2
 10
-5.49999968E+02
 20
1.43199936E+02
 11
-5.49000029E+02
 21
1.43199936E+02
  0
LINE
  8
0
 62
7
 10
-5.49999968E+02
 20
1.50499939E+02
 11
-5.49700041E+02
 21
1.50499939E+02
  0
LINE
  8
0
 62
7
 10
-5.49999968E+02
 20
1.42499924E+02
 11
-5.49700041E+02
 21
1.42499924E+02
  0
LINE
  8
0
 62
7
 10
-7.07000090E+02
 20
1.42499924E+02
 11
-7.07300016E+02
 21
1.42499924E+02
  0
LINE
  8
0
 62
7
 10
-7.07000090E+02
 20
1.50499939E+02
 11
-7.07300016E+02
 21
1.50499939E+02
  0
LINE
  8
0
 62
2
 10
-7.07000090E+02
 20
1.43199936E+02
 11
-7.08000029E+02
 21
1.43199936E+02
  0
LINE
  8
0
 62
7
 10
-7.00500029E+02
 20
1.40499954E+02
 11
-7.07000090E+02
 21
1.40499954E+02
  0
LINE
  8
0
 62
7
 10
-5.48999846E+02
 20
1.43200027E+02
 11
-5.48999846E+02
 21
1.49799973E+02
  0
LINE
  8
0
 62
7
 10
-7.08000029E+02
 20
1.43200027E+02
 11
-7.08000029E+02
 21
1.49799973E+02
  0
LINE
  8
0
 62
7
 10
-7.07000090E+02
 20
1.40500000E+02
 11
-7.07000090E+02
 21
1.52500000E+02
  0
LINE
  8
0
 62
7
 10
-5.59500029E+02
 20
1.54499969E+02
 11
-5.56500029E+02
 21
1.54499969E+02
  0
LINE
  8
0
 62
7
 10
-5.49999968E+02
 20
1.40500000E+02
 11
-5.49999968E+02
 21
1.52500000E+02
  0
LINE
  8
0
 62
7
 10
-5.56499846E+02
 20
1.38499985E+02
 11
-5.56499846E+02
 21
1.54500015E+02
  0
LINE
  8
0
 62
7
 10
-5.59500029E+02
 20
1.38499985E+02
 11
-5.56500029E+02
 21
1.38499985E+02
  0
LINE
  8
0
 62
7
 10
-5.56500029E+02
 20
1.46499954E+02
 11
-5.50692656E+02
 21
1.46499954E+02
  0
LINE
  8
0
 62
7
 10
-7.00500029E+02
 20
1.52499954E+02
 11
-7.07000090E+02
 21
1.52499954E+02
  0
LINE
  8
0
 62
7
 10
-6.97500029E+02
 20
1.38499985E+02
 11
-7.00500029E+02
 21
1.38499985E+02
  0
LINE
  8
0
  6
CENTER
 62
2
 10
-7.13011259E+02
 20
1.46500000E+02
 11
-5.44148649E+02
 21
1.46500000E+02
  0
LINE
  8
0
 62
7
 10
-6.97500029E+02
 20
1.54499969E+02
 11
-7.00500029E+02
 21
1.54499969E+02
  0
LINE
  8
0
 62
7
 10
-7.00500029E+02
 20
1.46499954E+02
 11
-7.06307219E+02
 21
1.46499954E+02
  0
LINE
  8
0
 62
7
 10
-5.56500029E+02
 20
1.52499954E+02
 11
-5.49999968E+02
 21
1.52499954E+02
  0
LINE
  8
0
  6
CENTER
 62
2
 10
-6.28500029E+02
 20
2.34423538E+02
 11
-6.28500029E+02
 21
7.19476280E+01
  0
LINE
  8
0
 62
4
 10
2.59296633E+02
 20
2.02500000E+02
 11
2.57446568E+02
 21
2.06559597E+02
  0
LINE
  8
0
 62
4
 10
2.58879033E+02
 20
2.02500000E+02
 11
2.55504214E+02
 21
2.09905365E+02
  0
LINE
  8
0
 62
4
 10
2.47559870E+02
 20
2.02500000E+02
 11
2.46131612E+02
 21
2.05634024E+02
  0
LINE
  8
0
 62
4
 10
2.39651620E+02
 20
2.02500000E+02
 11
2.39761884E+02
 21
2.02731172E+02
  0
ARC
  8
0
 62
4
 10
2.50708354E+02
 20
1.98919679E+02
 40
1.18100000E+01
 50
1.76475088E+01
 51
2.45000000E+01
  0
ARC
  8
0
 62
4
 10
2.50701936E+02
 20
1.98933762E+02
 40
1.18100000E+01
 50
2.45000000E+01
 51
4.50326991E+01
  0
LINE
  8
0
 62
4
 10
2.57446568E+02
 20
2.06559597E+02
 11
2.59048100E+02
 21
2.07289457E+02
  0
LINE
  8
0
 62
4
 10
2.57162987E+02
 20
2.06265520E+02
 11
2.57508772E+02
 21
2.06423103E+02
  0
LINE
  8
0
 62
4
 10
2.58010744E+02
 20
2.06816707E+02
 11
2.56704460E+02
 21
2.09683085E+02
  0
LINE
  8
0
 62
4
 10
2.56870337E+02
 20
2.09319100E+02
 11
2.57898594E+02
 21
2.09787704E+02
  0
ARC
  8
0
 62
4
 10
2.49718095E+02
 20
2.02323213E+02
 40
1.18100000E+01
 50
1.16724900E+01
 51
3.73275101E+01
  0
ARC
  8
0
 62
4
 10
2.58314017E+02
 20
2.08878076E+02
 40
1.00000000E+00
 50
3.73275101E+01
 51
1.14500000E+02
  0
ARC
  8
0
 62
4
 10
2.60304545E+02
 20
2.04510261E+02
 40
1.00000000E+00
 50
3.43223662E+02
 51
1.16724900E+01
  0
LINE
  8
0
 62
4
 10
2.55794499E+02
 20
2.09268392E+02
 11
2.56704460E+02
 21
2.09683085E+02
  0
LINE
  8
0
 62
4
 10
2.39761884E+02
 20
2.02731172E+02
 11
2.46131612E+02
 21
2.05634024E+02
  0
LINE
  8
0
  6
CENTER
 62
6
 10
2.53577833E+02
 20
2.00235880E+02
 11
2.62806631E+02
 21
2.04441685E+02
  0
LINE
  8
0
  6
CENTER
 62
6
 10
2.52126407E+02
 20
2.03420744E+02
 11
2.61355205E+02
 21
2.07626550E+02
  0
LINE
  8
0
 62
4
 10
2.55504214E+02
 20
2.09905365E+02
 11
2.46131612E+02
 21
2.05634024E+02
  0
LINE
  8
0
  6
CENTER
 62
6
 10
3.17422171E+02
 20
2.00235880E+02
 11
3.08193372E+02
 21
2.04441685E+02
  0
LINE
  8
0
  6
CENTER
 62
6
 10
3.18873597E+02
 20
2.03420744E+02
 11
3.09644799E+02
 21
2.07626550E+02
  0
LINE
  8
0
 62
4
 10
3.11703432E+02
 20
2.02500000E+02
 11
3.11708112E+02
 21
2.02510270E+02
  0
LINE
  8
0
 62
4
 10
3.31348444E+02
 20
2.02500000E+02
 11
3.31238181E+02
 21
2.02731172E+02
  0
LINE
  8
0
 62
4
 10
3.11730646E+02
 20
2.02500000E+02
 11
3.11143936E+02
 21
2.02767379E+02
  0
LINE
  8
0
 62
4
 10
3.12121032E+02
 20
2.02500000E+02
 11
3.15495851E+02
 21
2.09905365E+02
  0
LINE
  8
0
 62
4
 10
3.23440195E+02
 20
2.02500000E+02
 11
3.24868452E+02
 21
2.05634024E+02
  0
ARC
  8
0
 62
4
 10
3.20291711E+02
 20
1.98919679E+02
 40
1.18100000E+01
 50
1.55500000E+02
 51
1.62352491E+02
  0
ARC
  8
0
 62
4
 10
3.20298129E+02
 20
1.98933762E+02
 40
1.18100000E+01
 50
1.53400933E+02
 51
1.55500000E+02
  0
ARC
  8
0
 62
4
 10
3.21281970E+02
 20
2.02323213E+02
 40
1.18100000E+01
 50
1.42672490E+02
 51
1.68327510E+02
  0
LINE
  8
0
 62
4
 10
3.11143936E+02
 20
2.02767379E+02
 11
3.14295605E+02
 21
2.09683085E+02
  0
LINE
  8
0
 62
4
 10
3.14129727E+02
 20
2.09319100E+02
 11
3.13101471E+02
 21
2.09787704E+02
  0
LINE
  8
0
 62
4
 10
3.11309813E+02
 20
2.03131364E+02
 11
3.10281557E+02
 21
2.03599967E+02
  0
ARC
  8
0
 62
4
 10
3.12686048E+02
 20
2.08878076E+02
 40
1.00000000E+00
 50
6.55000000E+01
 51
1.42672490E+02
  0
ARC
  8
0
 62
4
 10
3.10695520E+02
 20
2.04510261E+02
 40
1.00000000E+00
 50
1.68327510E+02
 51
2.45500000E+02
  0
LINE
  8
0
 62
4
 10
3.15205566E+02
 20
2.09268392E+02
 11
3.14295605E+02
 21
2.09683085E+02
  0
LINE
  8
0
 62
4
 10
3.31238181E+02
 20
2.02731172E+02
 11
3.24868452E+02
 21
2.05634024E+02
  0
LINE
  8
0
 62
4
 10
3.15495851E+02
 20
2.09905365E+02
 11
3.24868452E+02
 21
2.05634024E+02
  0
CIRCLE
  8
0
 62
7
 10
3.27500063E+02
 20
1.04499931E+02
 40
4.17999983E+00
  0
CIRCLE
  8
0
 62
7
 10
2.43500093E+02
 20
1.88499939E+02
 40
8.00000000E+00
  0
CIRCLE
  8
0
 62
7
 10
2.43500093E+02
 20
1.88499939E+02
 40
8.69999981E+00
  0
CIRCLE
  8
0
 62
7
 10
2.43500093E+02
 20
1.04499931E+02
 40
8.00000000E+00
  0
CIRCLE
  8
0
 62
7
 10
2.43500093E+02
 20
1.04499931E+02
 40
8.69999981E+00
  0
CIRCLE
  8
0
 62
7
 10
3.27500063E+02
 20
1.04499908E+02
 40
8.00000000E+00
  0
CIRCLE
  8
0
 62
7
 10
3.27500063E+02
 20
1.88499939E+02
 40
4.17999983E+00
  0
CIRCLE
  8
0
 62
7
 10
2.43500093E+02
 20
1.88499939E+02
 40
4.17999983E+00
  0
CIRCLE
  8
0
 62
7
 10
2.43500093E+02
 20
1.04499931E+02
 40
4.17999983E+00
  0
CIRCLE
  8
0
 62
2
 10
2.43500093E+02
 20
1.88499939E+02
 40
5.00000000E+00
  0
CIRCLE
  8
0
 62
2
 10
2.43500093E+02
 20
1.04499931E+02
 40
5.00000000E+00
  0
CIRCLE
  8
0
 62
7
 10
3.27500063E+02
 20
1.04499908E+02
 40
8.69999981E+00
  0
ARC
  8
0
 62
7
 10
2.50603563E+02
 20
1.78214478E+02
 40
1.00000000E+00
 50
4.50000423E+01
 51
1.24630380E+02
  0
ARC
  8
0
 62
7
 10
2.53785524E+02
 20
1.81396500E+02
 40
1.00000000E+00
 50
1.45369621E+02
 51
2.25000010E+02
  0
ARC
  8
0
 62
7
 10
2.65593233E+02
 20
1.63224838E+02
 40
1.00000000E+00
 50
3.19964774E+02
 51
4.50000423E+01
  0
ARC
  8
0
 62
7
 10
2.68775255E+02
 20
1.66406845E+02
 40
1.00000000E+00
 50
2.25000013E+02
 51
3.10035571E+02
  0
ARC
  8
0
 62
7
 10
2.83250048E+02
 20
1.97899948E+02
 40
1.00000000E+00
 50
3.59721781E-05
 51
9.00000162E+01
  0
ARC
  8
0
 62
7
 10
2.83250048E+02
 20
1.72402512E+02
 40
1.00000000E+00
 50
2.74964207E+02
 51
3.59721781E-05
  0
ARC
  8
0
 62
7
 10
2.59597551E+02
 20
1.48749931E+02
 40
1.00000000E+00
 50
2.70000045E+02
 51
3.55035851E+02
  0
ARC
  8
0
 62
7
 10
2.34100069E+02
 20
1.48749931E+02
 40
1.00000000E+00
 50
1.79999991E+02
 51
2.70000028E+02
  0
ARC
  8
0
 62
7
 10
2.53785524E+02
 20
1.11603432E+02
 40
1.00000000E+00
 50
1.35000041E+02
 51
2.14630376E+02
  0
ARC
  8
0
 62
7
 10
2.50603563E+02
 20
1.14785400E+02
 40
1.00000000E+00
 50
2.35369606E+02
 51
3.14999999E+02
  0
ARC
  8
0
 62
7
 10
2.68775148E+02
 20
1.26593056E+02
 40
1.00000000E+00
 50
4.99647701E+01
 51
1.35000041E+02
  0
ARC
  8
0
 62
7
 10
2.65593187E+02
 20
1.29775085E+02
 40
1.00000000E+00
 50
3.15000019E+02
 51
4.00355739E+01
  0
ARC
  8
0
 62
7
 10
2.34100069E+02
 20
1.44249939E+02
 40
1.00000000E+00
 50
9.00000300E+01
 51
1.80000019E+02
  0
ARC
  8
0
 62
7
 10
2.59597551E+02
 20
1.44249939E+02
 40
1.00000000E+00
 50
4.96420369E+00
 51
9.00000300E+01
  0
ARC
  8
0
 62
7
 10
2.83250048E+02
 20
1.20597397E+02
 40
1.00000000E+00
 50
4.96325564E-05
 51
8.50358549E+01
  0
ARC
  8
0
 62
7
 10
2.83250048E+02
 20
9.50999374E+01
 40
1.00000000E+00
 50
2.69999998E+02
 51
4.96325564E-05
  0
ARC
  8
0
 62
7
 10
3.20396547E+02
 20
1.14785385E+02
 40
1.00000000E+00
 50
2.25000027E+02
 51
3.04630351E+02
  0
ARC
  8
0
 62
7
 10
3.17214571E+02
 20
1.11603355E+02
 40
1.00000000E+00
 50
3.25369626E+02
 51
4.50000149E+01
  0
ARC
  8
0
 62
7
 10
3.05406923E+02
 20
1.29775024E+02
 40
1.00000000E+00
 50
1.39964769E+02
 51
2.25000037E+02
  0
ARC
  8
0
 62
7
 10
3.02224947E+02
 20
1.26593033E+02
 40
1.00000000E+00
 50
4.50000149E+01
 51
1.30035587E+02
  0
ARC
  8
0
 62
7
 10
2.87750063E+02
 20
9.50999374E+01
 40
1.00000000E+00
 50
1.80000022E+02
 51
2.70000011E+02
  0
ARC
  8
0
 62
7
 10
2.87750063E+02
 20
1.20597397E+02
 40
1.00000000E+00
 50
9.49641976E+01
 51
1.80000032E+02
  0
ARC
  8
0
 62
7
 10
3.11402620E+02
 20
1.44249939E+02
 40
1.00000000E+00
 50
9.00000437E+01
 51
1.75035851E+02
  0
ARC
  8
0
 62
7
 10
3.36900087E+02
 20
1.44249939E+02
 40
1.00000000E+00
 50
8.65142224E-06
 51
9.00000437E+01
  0
ARC
  8
0
 62
7
 10
2.34500093E+02
 20
1.97499939E+02
 40
4.40000010E+00
 50
9.00000162E+01
 51
1.80000005E+02
  0
ARC
  8
0
 62
7
 10
2.43500093E+02
 20
1.04499931E+02
 40
1.15000000E+01
 50
3.41325588E+02
 51
1.08675064E+02
  0
ARC
  8
0
 62
7
 10
3.27500063E+02
 20
1.04499931E+02
 40
1.15000000E+01
 50
7.22986043E+01
 51
1.98674999E+02
  0
ARC
  8
0
 62
7
 10
3.36500063E+02
 20
9.54999466E+01
 40
4.40000010E+00
 50
2.70000052E+02
 51
3.59721781E-05
  0
ARC
  8
0
 62
7
 10
2.34500093E+02
 20
9.54999084E+01
 40
4.40000010E+00
 50
1.79999991E+02
 51
2.70000028E+02
  0
ARC
  8
0
 62
7
 10
2.34500093E+02
 20
1.97499939E+02
 40
5.00000000E+00
 50
9.00000162E+01
 51
1.80000005E+02
  0
CIRCLE
  8
0
 62
7
 10
2.43500093E+02
 20
1.88499939E+02
 40
8.00000000E+00
  0
CIRCLE
  8
0
 62
2
 10
3.27500063E+02
 20
1.04499931E+02
 40
5.00000000E+00
  0
ARC
  8
0
 62
7
 10
3.36500063E+02
 20
9.54999466E+01
 40
5.00000000E+00
 50
2.70000052E+02
 51
3.59721781E-05
  0
CIRCLE
  8
0
 62
7
 10
3.27500063E+02
 20
1.04499908E+02
 40
8.00000000E+00
  0
CIRCLE
  8
0
 62
2
 10
3.27500063E+02
 20
1.88499939E+02
 40
5.00000000E+00
  0
ARC
  8
0
 62
7
 10
2.34500093E+02
 20
9.54999466E+01
 40
5.00000000E+00
 50
1.79999991E+02
 51
2.70000028E+02
  0
CIRCLE
  8
0
 62
7
 10
2.43500093E+02
 20
1.04499931E+02
 40
8.00000000E+00
  0
ARC
  8
0
 62
7
 10
2.34100069E+02
 20
1.71516098E+02
 40
1.00000000E+00
 50
8.54104432E+01
 51
1.80000005E+02
  0
ARC
  8
0
 62
7
 10
2.60484087E+02
 20
1.97899948E+02
 40
1.00000000E+00
 50
9.00000162E+01
 51
1.84587802E+02
  0
ARC
  8
0
 62
7
 10
3.36499971E+02
 20
1.16499802E+02
 40
4.19999981E+00
 50
8.55868260E+01
 51
1.81010245E+02
  0
ARC
  8
0
 62
7
 10
3.15500002E+02
 20
9.54999466E+01
 40
4.00000000E+00
 50
8.81873319E+01
 51
1.84588444E+02
  0
ARC
  8
0
 62
7
 10
2.55499956E+02
 20
9.55000610E+01
 40
4.00000000E+00
 50
3.55409848E+02
 51
9.18104672E+01
  0
ARC
  8
0
 62
7
 10
2.34500093E+02
 20
1.16500000E+02
 40
4.00000000E+00
 50
3.58186935E+02
 51
9.45886668E+01
  0
ARC
  8
0
 62
7
 10
3.36900087E+02
 20
1.21684402E+02
 40
1.00000000E+00
 50
2.65585872E+02
 51
1.86693353E-05
  0
ARC
  8
0
 62
7
 10
3.10515963E+02
 20
9.50999451E+01
 40
1.00000000E+00
 50
2.69999998E+02
 51
4.58865257E+00
  0
ARC
  8
0
 62
7
 10
2.60483934E+02
 20
9.50999069E+01
 40
1.00000000E+00
 50
1.75409449E+02
 51
2.69999974E+02
  0
ARC
  8
0
 62
7
 10
2.34100069E+02
 20
1.21483978E+02
 40
1.00000000E+00
 50
1.79999991E+02
 51
2.74587812E+02
  0
ARC
  8
0
 62
7
 10
2.55341921E+02
 20
1.92502457E+02
 40
1.00000000E+00
 50
8.81864507E+01
 51
1.98675204E+02
  0
ARC
  8
0
 62
7
 10
2.39497713E+02
 20
1.76658035E+02
 40
1.00000000E+00
 50
7.13256097E+01
 51
1.81810060E+02
  0
ARC
  8
0
 62
7
 10
3.31300722E+02
 20
1.16408119E+02
 40
1.00000000E+00
 50
2.52299371E+02
 51
1.01068540E+00
  0
ARC
  8
0
 62
7
 10
3.15658175E+02
 20
1.00497437E+02
 40
1.00000000E+00
 50
2.68186500E+02
 51
1.86751801E+01
  0
ARC
  8
0
 62
7
 10
2.55342028E+02
 20
1.00497551E+02
 40
1.00000000E+00
 50
1.61325626E+02
 51
2.71810056E+02
  0
ARC
  8
0
 62
7
 10
2.39497606E+02
 20
1.16341797E+02
 40
1.00000000E+00
 50
1.78187368E+02
 51
2.88674667E+02
  0
ARC
  8
0
 62
7
 10
2.43500093E+02
 20
1.88499939E+02
 40
1.15000000E+01
 50
2.51325577E+02
 51
1.86749751E+01
  0
ARC
  8
0
 62
7
 10
2.55500154E+02
 20
1.97499939E+02
 40
4.00000000E+00
 50
2.68187375E+02
 51
4.58865257E+00
  0
ARC
  8
0
 62
7
 10
2.34500200E+02
 20
1.76500046E+02
 40
4.00000000E+00
 50
2.65409591E+02
 51
1.81044602E+00
  0
CIRCLE
  8
0
 62
7
 10
3.27500063E+02
 20
1.88499924E+02
 40
8.00000000E+00
  0
CIRCLE
  8
0
 62
7
 10
3.27500063E+02
 20
1.88499924E+02
 40
8.69999981E+00
  0
ARC
  8
0
 62
7
 10
3.17214571E+02
 20
1.81396439E+02
 40
1.00000000E+00
 50
3.15000047E+02
 51
3.46303671E+01
  0
ARC
  8
0
 62
7
 10
3.20396639E+02
 20
1.78214447E+02
 40
1.00000000E+00
 50
5.53696217E+01
 51
1.35000014E+02
  0
ARC
  8
0
 62
7
 10
3.36900087E+02
 20
1.48749908E+02
 40
1.00000000E+00
 50
2.70000052E+02
 51
3.59721781E-05
  0
ARC
  8
0
 62
7
 10
2.87750063E+02
 20
1.97899948E+02
 40
1.00000000E+00
 50
9.00000025E+01
 51
1.80000046E+02
  0
ARC
  8
0
 62
7
 10
3.11402620E+02
 20
1.48749931E+02
 40
1.00000000E+00
 50
1.84964190E+02
 51
2.70000038E+02
  0
ARC
  8
0
 62
7
 10
3.05407015E+02
 20
1.63224808E+02
 40
1.00000000E+00
 50
1.35000014E+02
 51
2.20035582E+02
  0
ARC
  8
0
 62
7
 10
3.02224947E+02
 20
1.66406815E+02
 40
1.00000000E+00
 50
2.29964741E+02
 51
3.15000026E+02
  0
ARC
  8
0
 62
7
 10
2.87750063E+02
 20
1.72402451E+02
 40
1.00000000E+00
 50
1.80000036E+02
 51
2.65035857E+02
  0
ARC
  8
0
 62
7
 10
3.27500063E+02
 20
1.88499939E+02
 40
1.15000000E+01
 50
1.61325558E+02
 51
2.88675076E+02
  0
ARC
  8
0
 62
7
 10
3.36500063E+02
 20
1.97499954E+02
 40
4.40000010E+00
 50
3.59721781E-05
 51
9.00000162E+01
  0
ARC
  8
0
 62
7
 10
3.36500063E+02
 20
1.97499939E+02
 40
5.00000000E+00
 50
3.59721781E-05
 51
9.00000162E+01
  0
CIRCLE
  8
0
 62
7
 10
3.27500063E+02
 20
1.88499924E+02
 40
8.00000000E+00
  0
ARC
  8
0
 62
7
 10
3.36500063E+02
 20
1.76499878E+02
 40
4.00000000E+00
 50
1.78186904E+02
 51
2.74588685E+02
  0
ARC
  8
0
 62
7
 10
3.15500216E+02
 20
1.97499802E+02
 40
4.00000000E+00
 50
1.75409585E+02
 51
2.71810493E+02
  0
ARC
  8
0
 62
7
 10
3.36900087E+02
 20
1.71515900E+02
 40
1.00000000E+00
 50
3.59721781E-05
 51
9.45895342E+01
  0
ARC
  8
0
 62
7
 10
3.10516268E+02
 20
1.97899963E+02
 40
1.00000000E+00
 50
3.55410354E+02
 51
9.00000162E+01
  0
ARC
  8
0
 62
7
 10
3.31502565E+02
 20
1.76658081E+02
 40
1.00000000E+00
 50
3.58187399E+02
 51
1.08674648E+02
  0
ARC
  8
0
 62
7
 10
3.15658175E+02
 20
1.92502319E+02
 40
1.00000000E+00
 50
3.41325670E+02
 51
9.18100369E+01
  0
CIRCLE
  8
0
 62
7
 10
2.85500002E+02
 20
1.46500000E+02
 40
2.50000153E+01
  0
ARC
  8
0
 62
7
 10
2.85500002E+02
 20
1.46500000E+02
 40
9.10000076E+01
 50
3.10690569E+02
 51
3.19309435E+02
  0
ARC
  8
0
 62
7
 10
2.85500002E+02
 20
1.46500000E+02
 40
9.10000076E+01
 50
4.06905105E+01
 51
4.93093896E+01
  0
ARC
  8
0
 62
7
 10
2.85500002E+02
 20
1.46500000E+02
 40
9.10000076E+01
 50
1.30690533E+02
 51
1.39309413E+02
  0
ARC
  8
0
 62
7
 10
2.13840807E+02
 20
1.49499954E+02
 40
6.84084749E+00
 50
1.53989169E+02
 51
2.06010827E+02
  0
ARC
  8
0
 62
7
 10
2.13840807E+02
 20
1.43499954E+02
 40
6.84088802E+00
 50
1.53989320E+02
 51
2.06010690E+02
  0
ARC
  8
0
 62
7
 10
2.85500002E+02
 20
1.46500000E+02
 40
9.10000076E+01
 50
2.20690546E+02
 51
2.29309425E+02
  0
ARC
  8
0
 62
7
 10
3.57159151E+02
 20
1.49499954E+02
 40
6.84084749E+00
 50
3.33989137E+02
 51
2.60107947E+01
  0
ARC
  8
0
 62
7
 10
3.57159151E+02
 20
1.43499954E+02
 40
6.84088802E+00
 50
3.33989274E+02
 51
2.60106444E+01
  0
LINE
  8
0
 62
7
 10
3.27500071E+02
 20
1.10273440E+02
 11
3.32500067E+02
 21
1.07386690E+02
  0
LINE
  8
0
 62
7
 10
3.32500063E+02
 20
1.07386681E+02
 11
3.32500063E+02
 21
1.01613182E+02
  0
LINE
  8
0
 62
7
 10
3.32500067E+02
 20
1.01613184E+02
 11
3.27500071E+02
 21
9.87264343E+01
  0
LINE
  8
0
 62
7
 10
2.48500078E+02
 20
1.91386688E+02
 11
2.48500078E+02
 21
1.85613190E+02
  0
LINE
  8
0
 62
7
 10
3.27500071E+02
 20
1.82726440E+02
 11
3.22500074E+02
 21
1.85613189E+02
  0
LINE
  8
0
 62
7
 10
3.32500062E+02
 20
1.85613190E+02
 11
3.27500066E+02
 21
1.82726441E+02
  0
LINE
  8
0
 62
7
 10
2.48500075E+02
 20
1.85613188E+02
 11
2.43500079E+02
 21
1.82726439E+02
  0
LINE
  8
0
 62
7
 10
3.32500063E+02
 20
1.91386688E+02
 11
3.32500063E+02
 21
1.85613190E+02
  0
LINE
  8
0
 62
7
 10
2.43500088E+02
 20
1.82726449E+02
 11
2.38500091E+02
 21
1.85613199E+02
  0
LINE
  8
0
 62
7
 10
2.43500075E+02
 20
1.94273442E+02
 11
2.38500079E+02
 21
1.91386693E+02
  0
LINE
  8
0
 62
7
 10
2.38500093E+02
 20
1.07386681E+02
 11
2.38500093E+02
 21
1.01613182E+02
  0
LINE
  8
0
 62
7
 10
2.43500080E+02
 20
1.10273435E+02
 11
2.48500090E+02
 21
1.07386679E+02
  0
LINE
  8
0
 62
7
 10
2.48500078E+02
 20
1.07386681E+02
 11
2.48500078E+02
 21
1.01613182E+02
  0
LINE
  8
0
 62
7
 10
3.22500063E+02
 20
1.91386688E+02
 11
3.22500063E+02
 21
1.85613190E+02
  0
LINE
  8
0
 62
7
 10
3.27500063E+02
 20
1.94273442E+02
 11
3.22500067E+02
 21
1.91386693E+02
  0
LINE
  8
0
 62
7
 10
2.48500080E+02
 20
1.01613181E+02
 11
2.43500084E+02
 21
9.87264318E+01
  0
LINE
  8
0
 62
7
 10
2.43500090E+02
 20
9.87264247E+01
 11
2.38500080E+02
 21
1.01613182E+02
  0
LINE
  8
0
 62
7
 10
2.43500080E+02
 20
1.10273435E+02
 11
2.38500084E+02
 21
1.07386686E+02
  0
LINE
  8
0
 62
7
 10
3.27500074E+02
 20
1.94273443E+02
 11
3.32500071E+02
 21
1.91386694E+02
  0
LINE
  8
0
  6
CENTER
 62
2
 10
2.97500063E+02
 20
1.89799942E+02
 11
2.97500063E+02
 21
2.04763550E+02
  0
LINE
  8
0
 62
7
 10
2.43500091E+02
 20
1.94273452E+02
 11
2.48500088E+02
 21
1.91386703E+02
  0
LINE
  8
0
 62
2
 10
2.36416704E+02
 20
1.46464714E+02
 11
2.36416704E+02
 21
1.46500000E+02
  0
LINE
  8
0
 62
7
 10
2.30100069E+02
 20
1.97499939E+02
 11
2.30100069E+02
 21
9.54999084E+01
  0
LINE
  8
0
 62
7
 10
3.36500063E+02
 20
9.10999451E+01
 11
2.34500093E+02
 21
9.10999451E+01
  0
LINE
  8
0
 62
7
 10
2.33100054E+02
 20
1.71516098E+02
 11
2.33100054E+02
 21
1.21483978E+02
  0
LINE
  8
0
 62
7
 10
2.34100069E+02
 20
1.47749939E+02
 11
2.59597551E+02
 21
1.47749939E+02
  0
LINE
  8
0
 62
7
 10
2.66300285E+02
 20
1.29068046E+02
 11
2.51310628E+02
 21
1.14078386E+02
  0
LINE
  8
0
 62
7
 10
2.68068192E+02
 20
1.27300204E+02
 11
2.53078535E+02
 21
1.12310544E+02
  0
LINE
  8
0
 62
7
 10
2.34100069E+02
 20
1.45249939E+02
 11
2.59597551E+02
 21
1.45249939E+02
  0
LINE
  8
0
 62
7
 10
3.02932204E+02
 20
1.27300296E+02
 11
3.17921879E+02
 21
1.12310621E+02
  0
LINE
  8
0
 62
7
 10
3.04699933E+02
 20
1.29068100E+02
 11
3.19689614E+02
 21
1.14078421E+02
  0
LINE
  8
0
 62
7
 10
3.10516024E+02
 20
9.40999527E+01
 11
2.60483873E+02
 21
9.40999527E+01
  0
LINE
  8
0
 62
7
 10
2.86750109E+02
 20
9.50999069E+01
 11
2.86750109E+02
 21
1.20597397E+02
  0
LINE
  8
0
 62
7
 10
3.36900087E+02
 20
1.45249939E+02
 11
3.11402620E+02
 21
1.45249939E+02
  0
LINE
  8
0
 62
7
 10
2.29500093E+02
 20
1.97499939E+02
 11
2.29500093E+02
 21
9.54999466E+01
  0
LINE
  8
0
  6
CENTER
 62
2
 10
2.43500093E+02
 20
2.05392670E+02
 11
2.43500093E+02
 21
1.73642136E+02
  0
LINE
  8
0
 62
7
 10
3.36500063E+02
 20
9.04999428E+01
 11
2.34500093E+02
 21
9.04999428E+01
  0
LINE
  8
0
  6
CENTER
 62
2
 10
3.27500063E+02
 20
8.88216553E+01
 11
3.27500063E+02
 21
1.18863586E+02
  0
LINE
  8
0
  6
CENTER
 62
2
 10
3.43568636E+02
 20
1.04499931E+02
 11
3.12003908E+02
 21
1.04499931E+02
  0
LINE
  8
0
 62
7
 10
2.84250109E+02
 20
9.50999069E+01
 11
2.84250109E+02
 21
1.20597397E+02
  0
LINE
  8
0
 62
7
 10
3.27500067E+02
 20
1.10273437E+02
 11
3.22500071E+02
 21
1.07386688E+02
  0
LINE
  8
0
 62
7
 10
3.22500063E+02
 20
1.07386681E+02
 11
3.22500063E+02
 21
1.01613182E+02
  0
LINE
  8
0
 62
7
 10
3.27500067E+02
 20
9.87264365E+01
 11
3.22500071E+02
 21
1.01613186E+02
  0
LINE
  8
0
  6
CENTER
 62
2
 10
2.43500093E+02
 20
8.89276390E+01
 11
2.43500093E+02
 21
1.19496140E+02
  0
LINE
  8
0
  6
CENTER
 62
2
 10
2.58306292E+02
 20
1.88499939E+02
 11
2.27216875E+02
 21
1.88499939E+02
  0
LINE
  8
0
  6
CENTER
 62
2
 10
2.58306292E+02
 20
1.04499931E+02
 11
2.27124407E+02
 21
1.04499931E+02
  0
LINE
  8
0
 62
7
 10
3.20500093E+02
 20
2.02499939E+02
 11
3.20500093E+02
 21
2.01899963E+02
  0
LINE
  8
0
  6
CENTER
 62
2
 10
3.27500063E+02
 20
2.04980713E+02
 11
3.27500063E+02
 21
1.74073746E+02
  0
LINE
  8
0
  6
CENTER
 62
2
 10
3.43463961E+02
 20
1.88499939E+02
 11
3.11609072E+02
 21
1.88499939E+02
  0
LINE
  8
0
 62
7
 10
3.41500063E+02
 20
1.97499939E+02
 11
3.41500063E+02
 21
9.54999466E+01
  0
LINE
  8
0
 62
7
 10
3.36500063E+02
 20
2.02499939E+02
 11
2.34500093E+02
 21
2.02499939E+02
  0
LINE
  8
0
 62
7
 10
2.86750109E+02
 20
1.97899948E+02
 11
2.86750109E+02
 21
1.72402451E+02
  0
LINE
  8
0
 62
7
 10
3.36900087E+02
 20
1.47749939E+02
 11
3.11402620E+02
 21
1.47749939E+02
  0
LINE
  8
0
 62
7
 10
3.37900118E+02
 20
1.71515900E+02
 11
3.37900118E+02
 21
1.21684402E+02
  0
LINE
  8
0
 62
7
 10
3.10516222E+02
 20
1.98899948E+02
 11
2.60484087E+02
 21
1.98899948E+02
  0
LINE
  8
0
 62
7
 10
3.02932106E+02
 20
1.65699683E+02
 11
3.17921765E+02
 21
1.80689340E+02
  0
LINE
  8
0
 62
7
 10
3.04699878E+02
 20
1.63931953E+02
 11
3.19689537E+02
 21
1.78921611E+02
  0
LINE
  8
0
 62
7
 10
3.40900087E+02
 20
1.97499954E+02
 11
3.40900087E+02
 21
9.54999466E+01
  0
LINE
  8
0
 62
7
 10
3.36500063E+02
 20
2.01899963E+02
 11
2.34500093E+02
 21
2.01899963E+02
  0
LINE
  8
0
 62
7
 10
2.50500109E+02
 20
9.10999451E+01
 11
2.50500109E+02
 21
9.04999428E+01
  0
LINE
  8
0
 62
7
 10
3.20500093E+02
 20
9.10999451E+01
 11
3.20500093E+02
 21
9.04999428E+01
  0
LINE
  8
0
 62
7
 10
2.50500109E+02
 20
2.02499939E+02
 11
2.50500109E+02
 21
2.01899963E+02
  0
LINE
  8
0
 62
7
 10
2.66300409E+02
 20
1.63932079E+02
 11
2.51310739E+02
 21
1.78921742E+02
  0
LINE
  8
0
 62
7
 10
2.68068184E+02
 20
1.65699816E+02
 11
2.53078514E+02
 21
1.80689480E+02
  0
LINE
  8
0
 62
7
 10
2.84250109E+02
 20
1.97899948E+02
 11
2.84250109E+02
 21
1.72402512E+02
  0
LINE
  8
0
 62
7
 10
2.38500093E+02
 20
1.91386688E+02
 11
2.38500093E+02
 21
1.85613190E+02
  0
LINE
  8
0
 62
7
 10
3.44829531E+02
 20
7.74999580E+01
 11
2.26170382E+02
 21
7.74999580E+01
  0
LINE
  8
0
 62
7
 10
3.44829531E+02
 20
2.15499954E+02
 11
2.26170382E+02
 21
2.15499954E+02
  0
LINE
  8
0
 62
7
 10
2.16499956E+02
 20
2.05829605E+02
 11
2.16499956E+02
 21
8.71703987E+01
  0
LINE
  8
0
 62
7
 10
2.13500032E+02
 20
1.52499908E+02
 11
2.07000017E+02
 21
1.52499908E+02
  0
LINE
  8
0
 62
7
 10
2.13500032E+02
 20
1.46499954E+02
 11
2.07692751E+02
 21
1.46499954E+02
  0
LINE
  8
0
 62
7
 10
2.13500032E+02
 20
1.40499954E+02
 11
2.07000017E+02
 21
1.40499954E+02
  0
LINE
  8
0
 62
7
 10
2.06000067E+02
 20
1.49799997E+02
 11
2.06699999E+02
 21
1.50499928E+02
  0
LINE
  8
0
 62
7
 10
2.06699492E+02
 20
1.42499477E+02
 11
2.05999485E+02
 21
1.43199485E+02
  0
LINE
  8
0
 62
7
 10
2.06700014E+02
 20
1.42499969E+02
 11
2.06700014E+02
 21
1.50499939E+02
  0
LINE
  8
0
 62
2
 10
2.06999941E+02
 20
1.49799927E+02
 11
2.06000032E+02
 21
1.49799927E+02
  0
LINE
  8
0
 62
2
 10
2.06999941E+02
 20
1.43199936E+02
 11
2.06000032E+02
 21
1.43199936E+02
  0
LINE
  8
0
 62
7
 10
2.06999941E+02
 20
1.50499939E+02
 11
2.06700106E+02
 21
1.50499939E+02
  0
LINE
  8
0
 62
7
 10
2.06999941E+02
 20
1.42499924E+02
 11
2.06700106E+02
 21
1.42499924E+02
  0
LINE
  8
0
 62
7
 10
2.06999971E+02
 20
1.40499954E+02
 11
2.06999971E+02
 21
1.52500000E+02
  0
LINE
  8
0
 62
7
 10
2.05999941E+02
 20
1.43199982E+02
 11
2.05999941E+02
 21
1.49799927E+02
  0
LINE
  8
0
 62
7
 10
2.16499987E+02
 20
1.38499939E+02
 11
2.13500032E+02
 21
1.38499939E+02
  0
LINE
  8
0
 62
7
 10
2.16499987E+02
 20
1.54499969E+02
 11
2.13500032E+02
 21
1.54499969E+02
  0
LINE
  8
0
 62
7
 10
2.13499941E+02
 20
1.38499985E+02
 11
2.13499941E+02
 21
1.54500015E+02
  0
LINE
  8
0
 62
7
 10
3.54500002E+02
 20
2.05829605E+02
 11
3.54500002E+02
 21
8.71703987E+01
  0
LINE
  8
0
  6
CENTER
 62
2
 10
2.85500002E+02
 20
2.36234039E+02
 11
2.85500002E+02
 21
7.19476051E+01
  0
LINE
  8
0
 62
7
 10
3.64999498E+02
 20
1.49799378E+02
 11
3.64299459E+02
 21
1.50499417E+02
  0
LINE
  8
0
 62
7
 10
3.64299954E+02
 20
1.42499905E+02
 11
3.65000069E+02
 21
1.43200020E+02
  0
LINE
  8
0
 62
7
 10
3.64300081E+02
 20
1.42499969E+02
 11
3.64300081E+02
 21
1.50499939E+02
  0
LINE
  8
0
 62
2
 10
3.64000063E+02
 20
1.49799927E+02
 11
3.64999971E+02
 21
1.49799927E+02
  0
LINE
  8
0
 62
2
 10
3.64000063E+02
 20
1.43199936E+02
 11
3.64999971E+02
 21
1.43199936E+02
  0
LINE
  8
0
 62
7
 10
3.64000063E+02
 20
1.50499939E+02
 11
3.64300051E+02
 21
1.50499939E+02
  0
LINE
  8
0
 62
7
 10
3.64000063E+02
 20
1.42499924E+02
 11
3.64300051E+02
 21
1.42499924E+02
  0
LINE
  8
0
 62
7
 10
3.65000032E+02
 20
1.43199982E+02
 11
3.65000032E+02
 21
1.49799927E+02
  0
LINE
  8
0
  6
CENTER
 62
2
 10
3.70011324E+02
 20
1.46500000E+02
 11
2.01148714E+02
 21
1.46500000E+02
  0
LINE
  8
0
 62
7
 10
3.64000002E+02
 20
1.40499954E+02
 11
3.64000002E+02
 21
1.52500000E+02
  0
LINE
  8
0
 62
7
 10
3.57499971E+02
 20
1.40499954E+02
 11
3.64000063E+02
 21
1.40499954E+02
  0
LINE
  8
0
 62
7
 10
3.57499971E+02
 20
1.46499954E+02
 11
3.63307161E+02
 21
1.46499954E+02
  0
LINE
  8
0
 62
7
 10
3.57499971E+02
 20
1.52499908E+02
 11
3.64000063E+02
 21
1.52499908E+02
  0
LINE
  8
0
 62
7
 10
3.54499941E+02
 20
1.38499939E+02
 11
3.57499971E+02
 21
1.38499939E+02
  0
LINE
  8
0
 62
7
 10
3.54499941E+02
 20
1.54499969E+02
 11
3.57499971E+02
 21
1.54499969E+02
  0
LINE
  8
0
 62
7
 10
3.57499880E+02
 20
1.38499985E+02
 11
3.57499880E+02
 21
1.54500015E+02
  0
LINE
  8
0
 62
7
 10
2.97000330E+02
 20
2.28499982E+02
 11
2.98000266E+02
 21
2.27500046E+02
  0
LINE
  8
0
 62
7
 10
2.73000510E+02
 20
2.27499667E+02
 11
2.74000468E+02
 21
2.28499625E+02
  0
LINE
  8
0
 62
7
 10
2.98000109E+02
 20
2.15500000E+02
 11
2.98000109E+02
 21
2.27500000E+02
  0
LINE
  8
0
 62
7
 10
2.73000170E+02
 20
2.15500000E+02
 11
2.73000170E+02
 21
2.27500000E+02
  0
LINE
  8
0
 62
7
 10
2.74000109E+02
 20
2.28499985E+02
 11
2.97000170E+02
 21
2.28499985E+02
  0
LINE
  8
0
 62
7
 10
2.73000170E+02
 20
2.27500000E+02
 11
2.98000109E+02
 21
2.27500000E+02
  0
LINE
  8
0
  6
PHANTOM
 10
-1.55000000E+01
 20
4.42114332E+02
 11
-1.55000000E+01
 21
2.64026071E+02
  0
LINE
  8
0
 62
7
 10
1.20735419E+01
 20
3.23000000E+02
 11
3.69999943E+01
 21
3.23000000E+02
  0
LINE
  8
0
 62
7
 10
4.07354192E+00
 20
3.23000000E+02
 11
8.92645421E+00
 21
3.23000000E+02
  0
LINE
  8
0
 62
7
 10
-1.00000191E+00
 20
3.29999969E+02
 11
-7.39999981E+01
 21
3.29999969E+02
  0
LINE
  8
0
 62
7
 10
-1.00000191E+00
 20
3.39000000E+02
 11
-7.39999981E+01
 21
3.39000000E+02
  0
LINE
  8
0
 62
7
 10
-5.99999981E+01
 20
4.14000000E+02
 11
-7.39999981E+01
 21
4.14000000E+02
  0
LINE
  8
0
 62
7
 10
-4.49999981E+01
 20
4.23000031E+02
 11
-7.39999981E+01
 21
4.23000031E+02
  0
LINE
  8
0
 62
7
 10
-3.19264253E+01
 20
4.30000000E+02
 11
3.69999943E+01
 21
4.30000000E+02
  0
LINE
  8
0
 62
7
 10
-3.99264253E+01
 20
4.30000000E+02
 11
-3.50735708E+01
 21
4.30000000E+02
  0
LINE
  8
0
 62
4
 10
-3.49999981E+01
 20
4.01284237E+02
 11
-2.99999981E+01
 21
4.01284237E+02
  0
LINE
  8
0
  6
CENTER
 62
6
 10
-3.99999981E+01
 20
4.04629730E+02
 11
-3.49999981E+01
 21
4.04629730E+02
  0
LINE
  8
0
  6
CENTER
 62
6
 10
-3.74999981E+01
 20
4.07129730E+02
 11
-3.74999981E+01
 21
4.02129730E+02
  0
LINE
  8
0
  6
CENTER
 62
6
 10
-4.74999981E+01
 20
4.03178303E+02
 11
-4.24999981E+01
 21
4.03178303E+02
  0
LINE
  8
0
  6
CENTER
 62
6
 10
-4.49999981E+01
 20
4.05678303E+02
 11
-4.49999981E+01
 21
4.00678303E+02
  0
LINE
  8
0
 62
4
 10
-4.24890677E+01
 20
3.99860757E+02
 11
-2.99999981E+01
 21
3.99860757E+02
  0
LINE
  8
0
 62
4
 10
-4.18005073E+01
 20
4.00134928E+02
 11
-3.49999981E+01
 21
4.00134928E+02
  0
LINE
  8
0
 62
4
 10
-4.08499981E+01
 20
4.01793701E+02
 11
-4.01230474E+01
 21
4.01793701E+02
  0
LINE
  8
0
 62
4
 10
-4.08499981E+01
 20
4.02183040E+02
 11
-4.06718888E+01
 21
4.02183040E+02
  0
LINE
  8
0
 62
4
 10
-3.43281074E+01
 20
4.02183040E+02
 11
-2.99999981E+01
 21
4.02183040E+02
  0
LINE
  8
0
  6
CENTER
 62
6
 10
-5.49999981E+01
 20
4.04629730E+02
 11
-4.99999981E+01
 21
4.04629730E+02
  0
ARC
  8
0
 62
4
 10
-3.12529393E+01
 20
4.16720687E+02
 40
1.64201386E+01
 50
2.40783600E+02
 51
2.49877812E+02
  0
ARC
  8
0
 62
4
 10
-4.37470563E+01
 20
4.16720686E+02
 40
1.64201370E+01
 50
2.90122188E+02
 51
2.99216401E+02
  0
POLYLINE
  8
0
 62
4
 66
1
  0
VERTEX
  8
0
 62
4
 10
-4.08999981E+01
 20
4.02690782E+02
  0
VERTEX
  8
0
 62
4
 10
-4.08870601E+01
 20
4.02567896E+02
  0
VERTEX
  8
0
 62
4
 10
-4.08483445E+01
 20
4.02445946E+02
  0
VERTEX
  8
0
 62
4
 10
-4.07841459E+01
 20
4.02325858E+02
  0
VERTEX
  8
0
 62
4
 10
-4.06949530E+01
 20
4.02208548E+02
  0
VERTEX
  8
0
 62
4
 10
-4.05814446E+01
 20
4.02094908E+02
  0
VERTEX
  8
0
 62
4
 10
-4.04444845E+01
 20
4.01985803E+02
  0
VERTEX
  8
0
 62
4
 10
-4.02851151E+01
 20
4.01882064E+02
  0
VERTEX
  8
0
 62
4
 10
-4.01045492E+01
 20
4.01784479E+02
  0
VERTEX
  8
0
 62
4
 10
-3.99041612E+01
 20
4.01693792E+02
  0
VERTEX
  8
0
 62
4
 10
-3.96854760E+01
 20
4.01610692E+02
  0
VERTEX
  8
0
 62
4
 10
-3.94501580E+01
 20
4.01535813E+02
  0
VERTEX
  8
0
 62
4
 10
-3.91999981E+01
 20
4.01469723E+02
  0
VERTEX
  8
0
 62
4
 10
-3.89369002E+01
 20
4.01412927E+02
  0
VERTEX
  8
0
 62
4
 10
-3.86628666E+01
 20
4.01365856E+02
  0
VERTEX
  8
0
 62
4
 10
-3.83799829E+01
 20
4.01328868E+02
  0
VERTEX
  8
0
 62
4
 10
-3.80904019E+01
 20
4.01302245E+02
  0
VERTEX
  8
0
 62
4
 10
-3.77963276E+01
 20
4.01286190E+02
  0
VERTEX
  8
0
 62
4
 10
-3.74999981E+01
 20
4.01280825E+02
  0
VERTEX
  8
0
 62
4
 10
-3.72036686E+01
 20
4.01286190E+02
  0
VERTEX
  8
0
 62
4
 10
-3.69095943E+01
 20
4.01302245E+02
  0
VERTEX
  8
0
 62
4
 10
-3.66200133E+01
 20
4.01328868E+02
  0
VERTEX
  8
0
 62
4
 10
-3.63371296E+01
 20
4.01365856E+02
  0
VERTEX
  8
0
 62
4
 10
-3.60630960E+01
 20
4.01412927E+02
  0
VERTEX
  8
0
 62
4
 10
-3.57999981E+01
 20
4.01469723E+02
  0
VERTEX
  8
0
 62
4
 10
-3.55498382E+01
 20
4.01535813E+02
  0
VERTEX
  8
0
 62
4
 10
-3.53145202E+01
 20
4.01610692E+02
  0
VERTEX
  8
0
 62
4
 10
-3.50958350E+01
 20
4.01693792E+02
  0
VERTEX
  8
0
 62
4
 10
-3.48954470E+01
 20
4.01784479E+02
  0
VERTEX
  8
0
 62
4
 10
-3.47148812E+01
 20
4.01882064E+02
  0
VERTEX
  8
0
 62
4
 10
-3.45555117E+01
 20
4.01985803E+02
  0
VERTEX
  8
0
 62
4
 10
-3.44185516E+01
 20
4.02094908E+02
  0
VERTEX
  8
0
 62
4
 10
-3.43050432E+01
 20
4.02208548E+02
  0
VERTEX
  8
0
 62
4
 10
-3.42158503E+01
 20
4.02325858E+02
  0
VERTEX
  8
0
 62
4
 10
-3.41516517E+01
 20
4.02445946E+02
  0
VERTEX
  8
0
 62
4
 10
-3.41129361E+01
 20
4.02567896E+02
  0
VERTEX
  8
0
 62
4
 10
-3.40999981E+01
 20
4.02690782E+02
  0
VERTEX
  8
0
 62
4
 10
-3.41129361E+01
 20
4.02813668E+02
  0
VERTEX
  8
0
 62
4
 10
-3.41516517E+01
 20
4.02935618E+02
  0
VERTEX
  8
0
 62
4
 10
-3.42158503E+01
 20
4.03055706E+02
  0
VERTEX
  8
0
 62
4
 10
-3.43050432E+01
 20
4.03173016E+02
  0
VERTEX
  8
0
 62
4
 10
-3.44185516E+01
 20
4.03286656E+02
  0
VERTEX
  8
0
 62
4
 10
-3.45555117E+01
 20
4.03395761E+02
  0
VERTEX
  8
0
 62
4
 10
-3.47148811E+01
 20
4.03499500E+02
  0
VERTEX
  8
0
 62
4
 10
-3.48954470E+01
 20
4.03597085E+02
  0
VERTEX
  8
0
 62
4
 10
-3.50958350E+01
 20
4.03687772E+02
  0
VERTEX
  8
0
 62
4
 10
-3.53145202E+01
 20
4.03770872E+02
  0
VERTEX
  8
0
 62
4
 10
-3.55498382E+01
 20
4.03845751E+02
  0
VERTEX
  8
0
 62
4
 10
-3.57999981E+01
 20
4.03911841E+02
  0
VERTEX
  8
0
 62
4
 10
-3.60630960E+01
 20
4.03968637E+02
  0
VERTEX
  8
0
 62
4
 10
-3.63371296E+01
 20
4.04015708E+02
  0
VERTEX
  8
0
 62
4
 10
-3.66200133E+01
 20
4.04052696E+02
  0
VERTEX
  8
0
 62
4
 10
-3.69095943E+01
 20
4.04079319E+02
  0
VERTEX
  8
0
 62
4
 10
-3.72036686E+01
 20
4.04095374E+02
  0
VERTEX
  8
0
 62
4
 10
-3.74999981E+01
 20
4.04100739E+02
  0
VERTEX
  8
0
 62
4
 10
-3.77963276E+01
 20
4.04095374E+02
  0
VERTEX
  8
0
 62
4
 10
-3.80904019E+01
 20
4.04079319E+02
  0
VERTEX
  8
0
 62
4
 10
-3.83799829E+01
 20
4.04052696E+02
  0
VERTEX
  8
0
 62
4
 10
-3.86628666E+01
 20
4.04015708E+02
  0
VERTEX
  8
0
 62
4
 10
-3.89369002E+01
 20
4.03968637E+02
  0
VERTEX
  8
0
 62
4
 10
-3.91999981E+01
 20
4.03911841E+02
  0
VERTEX
  8
0
 62
4
 10
-3.94501580E+01
 20
4.03845751E+02
  0
VERTEX
  8
0
 62
4
 10
-3.96854760E+01
 20
4.03770872E+02
  0
VERTEX
  8
0
 62
4
 10
-3.99041612E+01
 20
4.03687772E+02
  0
VERTEX
  8
0
 62
4
 10
-4.01045492E+01
 20
4.03597085E+02
  0
VERTEX
  8
0
 62
4
 10
-4.02851151E+01
 20
4.03499500E+02
  0
VERTEX
  8
0
 62
4
 10
-4.04444845E+01
 20
4.03395761E+02
  0
VERTEX
  8
0
 62
4
 10
-4.05814446E+01
 20
4.03286656E+02
  0
VERTEX
  8
0
 62
4
 10
-4.06949530E+01
 20
4.03173016E+02
  0
VERTEX
  8
0
 62
4
 10
-4.07841459E+01
 20
4.03055706E+02
  0
VERTEX
  8
0
 62
4
 10
-4.08483445E+01
 20
4.02935618E+02
  0
VERTEX
  8
0
 62
4
 10
-4.08870601E+01
 20
4.02813668E+02
  0
VERTEX
  8
0
 62
4
 10
-4.08999981E+01
 20
4.02690782E+02
  0
SEQEND
  8
0
  0
POLYLINE
  8
0
 62
4
 66
1
  0
VERTEX
  8
0
 62
4
 10
-3.40999981E+01
 20
4.03719769E+02
  0
VERTEX
  8
0
 62
4
 10
-3.41136855E+01
 20
4.03846157E+02
  0
VERTEX
  8
0
 62
4
 10
-3.41546375E+01
 20
4.03971527E+02
  0
VERTEX
  8
0
 62
4
 10
-3.42225244E+01
 20
4.04094870E+02
  0
VERTEX
  8
0
 62
4
 10
-3.43167995E+01
 20
4.04215192E+02
  0
VERTEX
  8
0
 62
4
 10
-3.44367039E+01
 20
4.04331526E+02
  0
VERTEX
  8
0
 62
4
 10
-3.45812722E+01
 20
4.04442935E+02
  0
VERTEX
  8
0
 62
4
 10
-3.47493403E+01
 20
4.04548521E+02
  0
VERTEX
  8
0
 62
4
 10
-3.49395551E+01
 20
4.04647434E+02
  0
VERTEX
  8
0
 62
4
 10
-3.51503851E+01
 20
4.04738879E+02
  0
VERTEX
  8
0
 62
4
 10
-3.53801328E+01
 20
4.04822118E+02
  0
VERTEX
  8
0
 62
4
 10
-3.56269483E+01
 20
4.04896481E+02
  0
VERTEX
  8
0
 62
4
 10
-3.58888446E+01
 20
4.04961371E+02
  0
VERTEX
  8
0
 62
4
 10
-3.61637130E+01
 20
4.05016264E+02
  0
VERTEX
  8
0
 62
4
 10
-3.64493403E+01
 20
4.05060718E+02
  0
VERTEX
  8
0
 62
4
 10
-3.67434269E+01
 20
4.05094375E+02
  0
VERTEX
  8
0
 62
4
 10
-3.70436050E+01
 20
4.05116966E+02
  0
VERTEX
  8
0
 62
4
 10
-3.73474577E+01
 20
4.05128306E+02
  0
VERTEX
  8
0
 62
4
 10
-3.76525385E+01
 20
4.05128306E+02
  0
VERTEX
  8
0
 62
4
 10
-3.79563912E+01
 20
4.05116966E+02
  0
VERTEX
  8
0
 62
4
 10
-3.82565693E+01
 20
4.05094375E+02
  0
VERTEX
  8
0
 62
4
 10
-3.85506559E+01
 20
4.05060718E+02
  0
VERTEX
  8
0
 62
4
 10
-3.88362832E+01
 20
4.05016264E+02
  0
VERTEX
  8
0
 62
4
 10
-3.91111515E+01
 20
4.04961371E+02
  0
VERTEX
  8
0
 62
4
 10
-3.93730478E+01
 20
4.04896481E+02
  0
VERTEX
  8
0
 62
4
 10
-3.96198634E+01
 20
4.04822118E+02
  0
VERTEX
  8
0
 62
4
 10
-3.98496111E+01
 20
4.04738879E+02
  0
VERTEX
  8
0
 62
4
 10
-4.00604411E+01
 20
4.04647434E+02
  0
VERTEX
  8
0
 62
4
 10
-4.02506559E+01
 20
4.04548521E+02
  0
VERTEX
  8
0
 62
4
 10
-4.04187240E+01
 20
4.04442935E+02
  0
VERTEX
  8
0
 62
4
 10
-4.05632922E+01
 20
4.04331526E+02
  0
VERTEX
  8
0
 62
4
 10
-4.06831967E+01
 20
4.04215192E+02
  0
VERTEX
  8
0
 62
4
 10
-4.07774718E+01
 20
4.04094870E+02
  0
VERTEX
  8
0
 62
4
 10
-4.08453587E+01
 20
4.03971527E+02
  0
VERTEX
  8
0
 62
4
 10
-4.08863107E+01
 20
4.03846157E+02
  0
VERTEX
  8
0
 62
4
 10
-4.08999981E+01
 20
4.03719769E+02
  0
SEQEND
  8
0
  0
POLYLINE
  8
0
 62
4
 66
1
  0
VERTEX
  8
0
 62
4
 10
-3.40999981E+01
 20
4.03016011E+02
  0
VERTEX
  8
0
 62
4
 10
-3.39634164E+01
 20
4.03143272E+02
  0
VERTEX
  8
0
 62
4
 10
-3.38544686E+01
 20
4.03275038E+02
  0
VERTEX
  8
0
 62
4
 10
-3.37740058E+01
 20
4.03410279E+02
  0
VERTEX
  8
0
 62
4
 10
-3.37226568E+01
 20
4.03547937E+02
  0
VERTEX
  8
0
 62
4
 10
-3.37008228E+01
 20
4.03686939E+02
  0
VERTEX
  8
0
 62
4
 10
-3.37086745E+01
 20
4.03826197E+02
  0
VERTEX
  8
0
 62
4
 10
-3.37461505E+01
 20
4.03964623E+02
  0
VERTEX
  8
0
 62
4
 10
-3.38129579E+01
 20
4.04101137E+02
  0
VERTEX
  8
0
 62
4
 10
-3.39085747E+01
 20
4.04234670E+02
  0
VERTEX
  8
0
 62
4
 10
-3.40322539E+01
 20
4.04364180E+02
  0
VERTEX
  8
0
 62
4
 10
-3.41830290E+01
 20
4.04488655E+02
  0
VERTEX
  8
0
 62
4
 10
-3.43597219E+01
 20
4.04607122E+02
  0
VERTEX
  8
0
 62
4
 10
-3.45609519E+01
 20
4.04718655E+02
  0
VERTEX
  8
0
 62
4
 10
-3.47851469E+01
 20
4.04822384E+02
  0
VERTEX
  8
0
 62
4
 10
-3.50305548E+01
 20
4.04917497E+02
  0
VERTEX
  8
0
 62
4
 10
-3.52952583E+01
 20
4.05003251E+02
  0
VERTEX
  8
0
 62
4
 10
-3.55771889E+01
 20
4.05078977E+02
  0
VERTEX
  8
0
 62
4
 10
-3.58741438E+01
 20
4.05144082E+02
  0
VERTEX
  8
0
 62
4
 10
-3.61838027E+01
 20
4.05198058E+02
  0
VERTEX
  8
0
 62
4
 10
-3.65037459E+01
 20
4.05240483E+02
  0
VERTEX
  8
0
 62
4
 10
-3.68314735E+01
 20
4.05271025E+02
  0
VERTEX
  8
0
 62
4
 10
-3.71644248E+01
 20
4.05289447E+02
  0
VERTEX
  8
0
 62
4
 10
-3.74999981E+01
 20
4.05295603E+02
  0
VERTEX
  8
0
 62
4
 10
-3.78355715E+01
 20
4.05289447E+02
  0
VERTEX
  8
0
 62
4
 10
-3.81685227E+01
 20
4.05271025E+02
  0
VERTEX
  8
0
 62
4
 10
-3.84962504E+01
 20
4.05240483E+02
  0
VERTEX
  8
0
 62
4
 10
-3.88161936E+01
 20
4.05198058E+02
  0
VERTEX
  8
0
 62
4
 10
-3.91258524E+01
 20
4.05144082E+02
  0
VERTEX
  8
0
 62
4
 10
-3.94228073E+01
 20
4.05078977E+02
  0
VERTEX
  8
0
 62
4
 10
-3.97047379E+01
 20
4.05003251E+02
  0
VERTEX
  8
0
 62
4
 10
-3.99694414E+01
 20
4.04917497E+02
  0
VERTEX
  8
0
 62
4
 10
-4.02148494E+01
 20
4.04822384E+02
  0
VERTEX
  8
0
 62
4
 10
-4.04390443E+01
 20
4.04718655E+02
  0
VERTEX
  8
0
 62
4
 10
-4.06402744E+01
 20
4.04607122E+02
  0
VERTEX
  8
0
 62
4
 10
-4.08169673E+01
 20
4.04488655E+02
  0
VERTEX
  8
0
 62
4
 10
-4.09677423E+01
 20
4.04364180E+02
  0
VERTEX
  8
0
 62
4
 10
-4.10914215E+01
 20
4.04234670E+02
  0
VERTEX
  8
0
 62
4
 10
-4.11870383E+01
 20
4.04101137E+02
  0
VERTEX
  8
0
 62
4
 10
-4.12538457E+01
 20
4.03964623E+02
  0
VERTEX
  8
0
 62
4
 10
-4.12913217E+01
 20
4.03826197E+02
  0
VERTEX
  8
0
 62
4
 10
-4.12991734E+01
 20
4.03686939E+02
  0
VERTEX
  8
0
 62
4
 10
-4.12773394E+01
 20
4.03547937E+02
  0
VERTEX
  8
0
 62
4
 10
-4.12259904E+01
 20
4.03410279E+02
  0
VERTEX
  8
0
 62
4
 10
-4.11455276E+01
 20
4.03275038E+02
  0
VERTEX
  8
0
 62
4
 10
-4.10365798E+01
 20
4.03143272E+02
  0
VERTEX
  8
0
 62
4
 10
-4.08999981E+01
 20
4.03016011E+02
  0
SEQEND
  8
0
  0
POLYLINE
  8
0
 62
4
 66
1
  0
VERTEX
  8
0
 62
4
 10
-3.36999981E+01
 20
4.04629730E+02
  0
VERTEX
  8
0
 62
4
 10
-3.37152958E+01
 20
4.04770987E+02
  0
VERTEX
  8
0
 62
4
 10
-3.37610657E+01
 20
4.04911106E+02
  0
VERTEX
  8
0
 62
4
 10
-3.38369392E+01
 20
4.05048960E+02
  0
VERTEX
  8
0
 62
4
 10
-3.39423056E+01
 20
4.05183438E+02
  0
VERTEX
  8
0
 62
4
 10
-3.40763164E+01
 20
4.05313459E+02
  0
VERTEX
  8
0
 62
4
 10
-3.42378927E+01
 20
4.05437974E+02
  0
VERTEX
  8
0
 62
4
 10
-3.44257335E+01
 20
4.05555982E+02
  0
VERTEX
  8
0
 62
4
 10
-3.46383265E+01
 20
4.05666532E+02
  0
VERTEX
  8
0
 62
4
 10
-3.48739600E+01
 20
4.05768735E+02
  0
VERTEX
  8
0
 62
4
 10
-3.51307368E+01
 20
4.05861767E+02
  0
VERTEX
  8
0
 62
4
 10
-3.54065896E+01
 20
4.05944879E+02
  0
VERTEX
  8
0
 62
4
 10
-3.56992972E+01
 20
4.06017403E+02
  0
VERTEX
  8
0
 62
4
 10
-3.60065030E+01
 20
4.06078753E+02
  0
VERTEX
  8
0
 62
4
 10
-3.63257335E+01
 20
4.06128437E+02
  0
VERTEX
  8
0
 62
4
 10
-3.66544185E+01
 20
4.06166055E+02
  0
VERTEX
  8
0
 62
4
 10
-3.69899117E+01
 20
4.06191303E+02
  0
VERTEX
  8
0
 62
4
 10
-3.73295117E+01
 20
4.06203978E+02
  0
VERTEX
  8
0
 62
4
 10
-3.76704844E+01
 20
4.06203978E+02
  0
VERTEX
  8
0
 62
4
 10
-3.80100845E+01
 20
4.06191303E+02
  0
VERTEX
  8
0
 62
4
 10
-3.83455776E+01
 20
4.06166055E+02
  0
VERTEX
  8
0
 62
4
 10
-3.86742627E+01
 20
4.06128438E+02
  0
VERTEX
  8
0
 62
4
 10
-3.89934932E+01
 20
4.06078753E+02
  0
VERTEX
  8
0
 62
4
 10
-3.93006990E+01
 20
4.06017403E+02
  0
VERTEX
  8
0
 62
4
 10
-3.95934066E+01
 20
4.05944879E+02
  0
VERTEX
  8
0
 62
4
 10
-3.98692593E+01
 20
4.05861767E+02
  0
VERTEX
  8
0
 62
4
 10
-4.01260361E+01
 20
4.05768735E+02
  0
VERTEX
  8
0
 62
4
 10
-4.03616697E+01
 20
4.05666532E+02
  0
VERTEX
  8
0
 62
4
 10
-4.05742627E+01
 20
4.05555982E+02
  0
VERTEX
  8
0
 62
4
 10
-4.07621035E+01
 20
4.05437974E+02
  0
VERTEX
  8
0
 62
4
 10
-4.09236798E+01
 20
4.05313459E+02
  0
VERTEX
  8
0
 62
4
 10
-4.10576906E+01
 20
4.05183439E+02
  0
VERTEX
  8
0
 62
4
 10
-4.11630570E+01
 20
4.05048960E+02
  0
VERTEX
  8
0
 62
4
 10
-4.12389305E+01
 20
4.04911106E+02
  0
VERTEX
  8
0
 62
4
 10
-4.12847004E+01
 20
4.04770987E+02
  0
VERTEX
  8
0
 62
4
 10
-4.12999981E+01
 20
4.04629730E+02
  0
SEQEND
  8
0
  0
ARC
  8
0
 62
4
 10
-3.86303940E+01
 20
4.16015614E+02
 40
1.67245676E+01
 50
2.40885798E+02
 51
2.54028789E+02
  0
ARC
  8
0
 62
4
 10
-5.13695988E+01
 20
4.16015606E+02
 40
1.67245585E+01
 50
2.85971208E+02
 51
2.99114206E+02
  0
POLYLINE
  8
0
 62
4
 66
1
  0
VERTEX
  8
0
 62
4
 10
-4.91499981E+01
 20
4.01230986E+02
  0
VERTEX
  8
0
 62
4
 10
-4.91342061E+01
 20
4.01080993E+02
  0
VERTEX
  8
0
 62
4
 10
-4.90869503E+01
 20
4.00932142E+02
  0
VERTEX
  8
0
 62
4
 10
-4.90085903E+01
 20
4.00785564E+02
  0
VERTEX
  8
0
 62
4
 10
-4.88997225E+01
 20
4.00642377E+02
  0
VERTEX
  8
0
 62
4
 10
-4.87611754E+01
 20
4.00503670E+02
  0
VERTEX
  8
0
 62
4
 10
-4.85940035E+01
 20
4.00370498E+02
  0
VERTEX
  8
0
 62
4
 10
-4.83994791E+01
 20
4.00243874E+02
  0
VERTEX
  8
0
 62
4
 10
-4.81790825E+01
 20
4.00124763E+02
  0
VERTEX
  8
0
 62
4
 10
-4.79344912E+01
 20
4.00014072E+02
  0
VERTEX
  8
0
 62
4
 10
-4.76675667E+01
 20
3.99912641E+02
  0
VERTEX
  8
0
 62
4
 10
-4.73803403E+01
 20
3.99821244E+02
  0
VERTEX
  8
0
 62
4
 10
-4.70749981E+01
 20
3.99740576E+02
  0
VERTEX
  8
0
 62
4
 10
-4.67538639E+01
 20
3.99671251E+02
  0
VERTEX
  8
0
 62
4
 10
-4.64193817E+01
 20
3.99613797E+02
  0
VERTEX
  8
0
 62
4
 10
-4.60740971E+01
 20
3.99568650E+02
  0
VERTEX
  8
0
 62
4
 10
-4.57206380E+01
 20
3.99536155E+02
  0
VERTEX
  8
0
 62
4
 10
-4.53616944E+01
 20
3.99516558E+02
  0
VERTEX
  8
0
 62
4
 10
-4.49999981E+01
 20
3.99510009E+02
  0
VERTEX
  8
0
 62
4
 10
-4.46383018E+01
 20
3.99516558E+02
  0
VERTEX
  8
0
 62
4
 10
-4.42793582E+01
 20
3.99536155E+02
  0
VERTEX
  8
0
 62
4
 10
-4.39258991E+01
 20
3.99568650E+02
  0
VERTEX
  8
0
 62
4
 10
-4.35806145E+01
 20
3.99613797E+02
  0
VERTEX
  8
0
 62
4
 10
-4.32461323E+01
 20
3.99671251E+02
  0
VERTEX
  8
0
 62
4
 10
-4.29249981E+01
 20
3.99740576E+02
  0
VERTEX
  8
0
 62
4
 10
-4.26196559E+01
 20
3.99821244E+02
  0
VERTEX
  8
0
 62
4
 10
-4.23324295E+01
 20
3.99912641E+02
  0
VERTEX
  8
0
 62
4
 10
-4.20655050E+01
 20
4.00014072E+02
  0
VERTEX
  8
0
 62
4
 10
-4.18209137E+01
 20
4.00124763E+02
  0
VERTEX
  8
0
 62
4
 10
-4.16005171E+01
 20
4.00243874E+02
  0
VERTEX
  8
0
 62
4
 10
-4.14059927E+01
 20
4.00370498E+02
  0
VERTEX
  8
0
 62
4
 10
-4.12388208E+01
 20
4.00503670E+02
  0
VERTEX
  8
0
 62
4
 10
-4.11002737E+01
 20
4.00642377E+02
  0
VERTEX
  8
0
 62
4
 10
-4.09914059E+01
 20
4.00785564E+02
  0
VERTEX
  8
0
 62
4
 10
-4.09130459E+01
 20
4.00932141E+02
  0
VERTEX
  8
0
 62
4
 10
-4.08657901E+01
 20
4.01080993E+02
  0
VERTEX
  8
0
 62
4
 10
-4.08499981E+01
 20
4.01230986E+02
  0
VERTEX
  8
0
 62
4
 10
-4.08657901E+01
 20
4.01380979E+02
  0
VERTEX
  8
0
 62
4
 10
-4.09130459E+01
 20
4.01529830E+02
  0
VERTEX
  8
0
 62
4
 10
-4.09914059E+01
 20
4.01676408E+02
  0
VERTEX
  8
0
 62
4
 10
-4.11002737E+01
 20
4.01819595E+02
  0
VERTEX
  8
0
 62
4
 10
-4.12388208E+01
 20
4.01958302E+02
  0
VERTEX
  8
0
 62
4
 10
-4.14059927E+01
 20
4.02091474E+02
  0
VERTEX
  8
0
 62
4
 10
-4.16005171E+01
 20
4.02218098E+02
  0
VERTEX
  8
0
 62
4
 10
-4.18209137E+01
 20
4.02337209E+02
  0
VERTEX
  8
0
 62
4
 10
-4.20655050E+01
 20
4.02447900E+02
  0
VERTEX
  8
0
 62
4
 10
-4.23324295E+01
 20
4.02549331E+02
  0
VERTEX
  8
0
 62
4
 10
-4.26196559E+01
 20
4.02640728E+02
  0
VERTEX
  8
0
 62
4
 10
-4.29249981E+01
 20
4.02721396E+02
  0
VERTEX
  8
0
 62
4
 10
-4.32461323E+01
 20
4.02790721E+02
  0
VERTEX
  8
0
 62
4
 10
-4.35806145E+01
 20
4.02848175E+02
  0
VERTEX
  8
0
 62
4
 10
-4.39258991E+01
 20
4.02893322E+02
  0
VERTEX
  8
0
 62
4
 10
-4.42793582E+01
 20
4.02925817E+02
  0
VERTEX
  8
0
 62
4
 10
-4.46383018E+01
 20
4.02945414E+02
  0
VERTEX
  8
0
 62
4
 10
-4.49999981E+01
 20
4.02951963E+02
  0
VERTEX
  8
0
 62
4
 10
-4.53616944E+01
 20
4.02945414E+02
  0
VERTEX
  8
0
 62
4
 10
-4.57206380E+01
 20
4.02925817E+02
  0
VERTEX
  8
0
 62
4
 10
-4.60740971E+01
 20
4.02893322E+02
  0
VERTEX
  8
0
 62
4
 10
-4.64193817E+01
 20
4.02848175E+02
  0
VERTEX
  8
0
 62
4
 10
-4.67538639E+01
 20
4.02790721E+02
  0
VERTEX
  8
0
 62
4
 10
-4.70749981E+01
 20
4.02721396E+02
  0
VERTEX
  8
0
 62
4
 10
-4.73803403E+01
 20
4.02640728E+02
  0
VERTEX
  8
0
 62
4
 10
-4.76675667E+01
 20
4.02549331E+02
  0
VERTEX
  8
0
 62
4
 10
-4.79344912E+01
 20
4.02447900E+02
  0
VERTEX
  8
0
 62
4
 10
-4.81790825E+01
 20
4.02337209E+02
  0
VERTEX
  8
0
 62
4
 10
-4.83994791E+01
 20
4.02218098E+02
  0
VERTEX
  8
0
 62
4
 10
-4.85940035E+01
 20
4.02091474E+02
  0
VERTEX
  8
0
 62
4
 10
-4.87611754E+01
 20
4.01958302E+02
  0
VERTEX
  8
0
 62
4
 10
-4.88997225E+01
 20
4.01819595E+02
  0
VERTEX
  8
0
 62
4
 10
-4.90085903E+01
 20
4.01676408E+02
  0
VERTEX
  8
0
 62
4
 10
-4.90869503E+01
 20
4.01529831E+02
  0
VERTEX
  8
0
 62
4
 10
-4.91342061E+01
 20
4.01380979E+02
  0
VERTEX
  8
0
 62
4
 10
-4.91499981E+01
 20
4.01230986E+02
  0
SEQEND
  8
0
  0
POLYLINE
  8
0
 62
4
 66
1
  0
VERTEX
  8
0
 62
4
 10
-4.12896236E+01
 20
4.03603404E+02
  0
VERTEX
  8
0
 62
4
 10
-4.14700544E+01
 20
4.03737462E+02
  0
VERTEX
  8
0
 62
4
 10
-4.16785770E+01
 20
4.03864318E+02
  0
VERTEX
  8
0
 62
4
 10
-4.19135319E+01
 20
4.03982963E+02
  0
VERTEX
  8
0
 62
4
 10
-4.21730492E+01
 20
4.04092453E+02
  0
VERTEX
  8
0
 62
4
 10
-4.24550638E+01
 20
4.04191916E+02
  0
VERTEX
  8
0
 62
4
 10
-4.27573313E+01
 20
4.04280560E+02
  0
VERTEX
  8
0
 62
4
 10
-4.30774462E+01
 20
4.04357681E+02
  0
VERTEX
  8
0
 62
4
 10
-4.34128611E+01
 20
4.04422665E+02
  0
VERTEX
  8
0
 62
4
 10
-4.37609065E+01
 20
4.04474994E+02
  0
VERTEX
  8
0
 62
4
 10
-4.41188129E+01
 20
4.04514252E+02
  0
VERTEX
  8
0
 62
4
 10
-4.44837318E+01
 20
4.04540126E+02
  0
VERTEX
  8
0
 62
4
 10
-4.48527592E+01
 20
4.04552411E+02
  0
VERTEX
  8
0
 62
4
 10
-4.52229584E+01
 20
4.04551009E+02
  0
VERTEX
  8
0
 62
4
 10
-4.55913832E+01
 20
4.04535931E+02
  0
VERTEX
  8
0
 62
4
 10
-4.59551017E+01
 20
4.04507297E+02
  0
VERTEX
  8
0
 62
4
 10
-4.63112194E+01
 20
4.04465335E+02
  0
VERTEX
  8
0
 62
4
 10
-4.66569022E+01
 20
4.04410379E+02
  0
VERTEX
  8
0
 62
4
 10
-4.69893991E+01
 20
4.04342866E+02
  0
VERTEX
  8
0
 62
4
 10
-4.73060642E+01
 20
4.04263333E+02
  0
VERTEX
  8
0
 62
4
 10
-4.76043772E+01
 20
4.04172414E+02
  0
VERTEX
  8
0
 62
4
 10
-4.78819643E+01
 20
4.04070832E+02
  0
VERTEX
  8
0
 62
4
 10
-4.81366164E+01
 20
4.03959395E+02
  0
VERTEX
  8
0
 62
4
 10
-4.83663068E+01
 20
4.03838990E+02
  0
VERTEX
  8
0
 62
4
 10
-4.85692077E+01
 20
4.03710576E+02
  0
VERTEX
  8
0
 62
4
 10
-4.87437044E+01
 20
4.03575174E+02
  0
VERTEX
  8
0
 62
4
 10
-4.88884082E+01
 20
4.03433861E+02
  0
VERTEX
  8
0
 62
4
 10
-4.90021675E+01
 20
4.03287764E+02
  0
VERTEX
  8
0
 62
4
 10
-4.90840771E+01
 20
4.03138043E+02
  0
VERTEX
  8
0
 62
4
 10
-4.91334850E+01
 20
4.02985891E+02
  0
VERTEX
  8
0
 62
4
 10
-4.91499981E+01
 20
4.02832518E+02
  0
SEQEND
  8
0
  0
POLYLINE
  8
0
 62
4
 66
1
  0
VERTEX
  8
0
 62
4
 10
-4.12999981E+01
 20
4.03808582E+02
  0
VERTEX
  8
0
 62
4
 10
-4.14498988E+01
 20
4.03942599E+02
  0
VERTEX
  8
0
 62
4
 10
-4.16279583E+01
 20
4.04070554E+02
  0
VERTEX
  8
0
 62
4
 10
-4.18327644E+01
 20
4.04191431E+02
  0
VERTEX
  8
0
 62
4
 10
-4.20626926E+01
 20
4.04304272E+02
  0
VERTEX
  8
0
 62
4
 10
-4.23159191E+01
 20
4.04408183E+02
  0
VERTEX
  8
0
 62
4
 10
-4.25904353E+01
 20
4.04502338E+02
  0
VERTEX
  8
0
 62
4
 10
-4.28840638E+01
 20
4.04585991E+02
  0
VERTEX
  8
0
 62
4
 10
-4.31944757E+01
 20
4.04658478E+02
  0
VERTEX
  8
0
 62
4
 10
-4.35192086E+01
 20
4.04719225E+02
  0
VERTEX
  8
0
 62
4
 10
-4.38556870E+01
 20
4.04767750E+02
  0
VERTEX
  8
0
 62
4
 10
-4.42012419E+01
 20
4.04803667E+02
  0
VERTEX
  8
0
 62
4
 10
-4.45531325E+01
 20
4.04826692E+02
  0
VERTEX
  8
0
 62
4
 10
-4.49085675E+01
 20
4.04836643E+02
  0
VERTEX
  8
0
 62
4
 10
-4.52647277E+01
 20
4.04833439E+02
  0
VERTEX
  8
0
 62
4
 10
-4.56187882E+01
 20
4.04817107E+02
  0
VERTEX
  8
0
 62
4
 10
-4.59679404E+01
 20
4.04787777E+02
  0
VERTEX
  8
0
 62
4
 10
-4.63094151E+01
 20
4.04745680E+02
  0
VERTEX
  8
0
 62
4
 10
-4.66405037E+01
 20
4.04691152E+02
  0
VERTEX
  8
0
 62
4
 10
-4.69585800E+01
 20
4.04624623E+02
  0
VERTEX
  8
0
 62
4
 10
-4.72611211E+01
 20
4.04546622E+02
  0
VERTEX
  8
0
 62
4
 10
-4.75457273E+01
 20
4.04457769E+02
  0
VERTEX
  8
0
 62
4
 10
-4.78101411E+01
 20
4.04358766E+02
  0
VERTEX
  8
0
 62
4
 10
-4.80522653E+01
 20
4.04250401E+02
  0
VERTEX
  8
0
 62
4
 10
-4.82701793E+01
 20
4.04133531E+02
  0
VERTEX
  8
0
 62
4
 10
-4.84621547E+01
 20
4.04009085E+02
  0
VERTEX
  8
0
 62
4
 10
-4.86266687E+01
 20
4.03878049E+02
  0
VERTEX
  8
0
 62
4
 10
-4.87624165E+01
 20
4.03741463E+02
  0
VERTEX
  8
0
 62
4
 10
-4.88683213E+01
 20
4.03600410E+02
  0
VERTEX
  8
0
 62
4
 10
-4.89435431E+01
 20
4.03456009E+02
  0
VERTEX
  8
0
 62
4
 10
-4.89874853E+01
 20
4.03309405E+02
  0
SEQEND
  8
0
  0
LINE
  8
0
 62
4
 10
-4.91499981E+01
 20
4.01230986E+02
 11
-4.91499981E+01
 21
4.02832518E+02
  0
LINE
  8
0
 62
4
 10
-4.08499981E+01
 20
4.02449867E+02
 11
-4.08499981E+01
 21
4.01230986E+02
  0
LINE
  8
0
 62
4
 10
-3.40999981E+01
 20
4.03719769E+02
 11
-3.40999981E+01
 21
4.02690782E+02
  0
LINE
  8
0
 62
4
 10
-4.08999981E+01
 20
4.03719769E+02
 11
-4.08999981E+01
 21
4.02690782E+02
  0
LINE
  8
0
 62
4
 10
-3.36999981E+01
 20
4.03719769E+02
 11
-3.36999981E+01
 21
4.04629730E+02
  0
LINE
  8
0
 62
4
 10
-4.12999981E+01
 20
4.04629730E+02
 11
-4.12999981E+01
 21
4.03719769E+02
  0
LINE
  8
0
 62
4
 10
-5.99999981E+01
 20
4.00134928E+02
 11
-5.99999981E+01
 21
3.99860757E+02
  0
LINE
  8
0
 62
4
 10
-5.99999981E+01
 20
4.02183040E+02
 11
-5.99999981E+01
 21
4.00134928E+02
  0
LINE
  8
0
 62
4
 10
-5.99999981E+01
 20
4.02183040E+02
 11
-4.91499981E+01
 21
4.02183040E+02
  0
LINE
  8
0
 62
4
 10
-6.14999981E+01
 20
4.01285304E+02
 11
-5.99999981E+01
 21
4.00134928E+02
  0
LINE
  8
0
 62
4
 10
-5.99999981E+01
 20
4.00134928E+02
 11
-4.81994889E+01
 21
4.00134928E+02
  0
LINE
  8
0
 62
4
 10
-6.14999981E+01
 20
4.02224584E+02
 11
-5.99999981E+01
 21
4.01793701E+02
  0
LINE
  8
0
 62
4
 10
-5.99999981E+01
 20
4.01793701E+02
 11
-4.91499981E+01
 21
4.01793701E+02
  0
LINE
  8
0
 62
4
 10
-5.99999981E+01
 20
4.05433546E+02
 11
-6.14999981E+01
 21
4.04285646E+02
  0
LINE
  8
0
 62
4
 10
-5.99999981E+01
 20
3.99860757E+02
 11
-4.75109285E+01
 21
3.99860757E+02
  0
LINE
  8
0
 62
4
 10
-5.99999981E+01
 20
4.06495849E+02
 11
-2.99999981E+01
 21
4.06495849E+02
  0
LINE
  8
0
 62
4
 10
-5.99999981E+01
 20
4.15868450E+02
 11
-2.99999981E+01
 21
4.15868450E+02
  0
LINE
  8
0
 62
4
 10
-4.49999981E+01
 20
4.22238179E+02
 11
-2.99999981E+01
 21
4.22238179E+02
  0
LINE
  8
0
 62
4
 10
-4.49999981E+01
 20
4.28982087E+02
 11
-2.99999981E+01
 21
4.28982087E+02
  0
LINE
  8
0
 62
4
 10
-3.54999981E+01
 20
4.29488082E+02
 11
-3.54999981E+01
 21
4.28982087E+02
  0
LINE
  8
0
 62
6
 10
-3.49999981E+01
 20
4.30036669E+02
 11
-3.49999981E+01
 21
4.28982087E+02
  0
POLYLINE
  8
0
 62
4
 66
1
  0
VERTEX
  8
0
 62
4
 10
-3.14999980E+01
 20
4.29488082E+02
  0
VERTEX
  8
0
 62
4
 10
-3.15080495E+01
 20
4.29562428E+02
  0
VERTEX
  8
0
 62
4
 10
-3.15321389E+01
 20
4.29636175E+02
  0
VERTEX
  8
0
 62
4
 10
-3.15720723E+01
 20
4.29708729E+02
  0
VERTEX
  8
0
 62
4
 10
-3.16275283E+01
 20
4.29779508E+02
  0
VERTEX
  8
0
 62
4
 10
-3.16980603E+01
 20
4.29847939E+02
  0
VERTEX
  8
0
 62
4
 10
-3.17831005E+01
 20
4.29913474E+02
  0
VERTEX
  8
0
 62
4
 10
-3.18819641E+01
 20
4.29975583E+02
  0
VERTEX
  8
0
 62
4
 10
-3.19938551E+01
 20
4.30033767E+02
  0
VERTEX
  8
0
 62
4
 10
-3.21178728E+01
 20
4.30087558E+02
  0
VERTEX
  8
0
 62
4
 10
-3.22530185E+01
 20
4.30136522E+02
  0
VERTEX
  8
0
 62
4
 10
-3.23982041E+01
 20
4.30180266E+02
  0
VERTEX
  8
0
 62
4
 10
-3.25522607E+01
 20
4.30218436E+02
  0
VERTEX
  8
0
 62
4
 10
-3.27139480E+01
 20
4.30250726E+02
  0
VERTEX
  8
0
 62
4
 10
-3.28819641E+01
 20
4.30276875E+02
  0
VERTEX
  8
0
 62
4
 10
-3.30549562E+01
 20
4.30296674E+02
  0
VERTEX
  8
0
 62
4
 10
-3.32315316E+01
 20
4.30309962E+02
  0
VERTEX
  8
0
 62
4
 10
-3.34102684E+01
 20
4.30316633E+02
  0
VERTEX
  8
0
 62
4
 10
-3.35897278E+01
 20
4.30316633E+02
  0
VERTEX
  8
0
 62
4
 10
-3.37684646E+01
 20
4.30309962E+02
  0
VERTEX
  8
0
 62
4
 10
-3.39450400E+01
 20
4.30296674E+02
  0
VERTEX
  8
0
 62
4
 10
-3.41180321E+01
 20
4.30276875E+02
  0
VERTEX
  8
0
 62
4
 10
-3.42860482E+01
 20
4.30250726E+02
  0
VERTEX
  8
0
 62
4
 10
-3.44477355E+01
 20
4.30218436E+02
  0
VERTEX
  8
0
 62
4
 10
-3.46017921E+01
 20
4.30180266E+02
  0
VERTEX
  8
0
 62
4
 10
-3.47469777E+01
 20
4.30136522E+02
  0
VERTEX
  8
0
 62
4
 10
-3.48821234E+01
 20
4.30087558E+02
  0
VERTEX
  8
0
 62
4
 10
-3.50061411E+01
 20
4.30033767E+02
  0
VERTEX
  8
0
 62
4
 10
-3.51180321E+01
 20
4.29975583E+02
  0
VERTEX
  8
0
 62
4
 10
-3.52168957E+01
 20
4.29913474E+02
  0
VERTEX
  8
0
 62
4
 10
-3.53019359E+01
 20
4.29847939E+02
  0
VERTEX
  8
0
 62
4
 10
-3.53724679E+01
 20
4.29779508E+02
  0
VERTEX
  8
0
 62
4
 10
-3.54279239E+01
 20
4.29708729E+02
  0
VERTEX
  8
0
 62
4
 10
-3.54678573E+01
 20
4.29636175E+02
  0
VERTEX
  8
0
 62
4
 10
-3.54919467E+01
 20
4.29562428E+02
  0
VERTEX
  8
0
 62
4
 10
-3.54999982E+01
 20
4.29488082E+02
  0
SEQEND
  8
0
  0
LINE
  8
0
 62
4
 10
-3.14999981E+01
 20
4.29488082E+02
 11
-3.14999981E+01
 21
4.28982087E+02
  0
LINE
  8
0
 62
6
 10
-3.19999981E+01
 20
4.30036669E+02
 11
-3.19999981E+01
 21
4.28982087E+02
  0
POLYLINE
  8
0
 62
4
 66
1
  0
VERTEX
  8
0
 62
4
 10
-3.94999980E+01
 20
4.29488082E+02
  0
VERTEX
  8
0
 62
4
 10
-3.95080495E+01
 20
4.29562428E+02
  0
VERTEX
  8
0
 62
4
 10
-3.95321389E+01
 20
4.29636175E+02
  0
VERTEX
  8
0
 62
4
 10
-3.95720723E+01
 20
4.29708729E+02
  0
VERTEX
  8
0
 62
4
 10
-3.96275283E+01
 20
4.29779508E+02
  0
VERTEX
  8
0
 62
4
 10
-3.96980603E+01
 20
4.29847939E+02
  0
VERTEX
  8
0
 62
4
 10
-3.97831005E+01
 20
4.29913474E+02
  0
VERTEX
  8
0
 62
4
 10
-3.98819641E+01
 20
4.29975583E+02
  0
VERTEX
  8
0
 62
4
 10
-3.99938551E+01
 20
4.30033767E+02
  0
VERTEX
  8
0
 62
4
 10
-4.01178728E+01
 20
4.30087558E+02
  0
VERTEX
  8
0
 62
4
 10
-4.02530185E+01
 20
4.30136522E+02
  0
VERTEX
  8
0
 62
4
 10
-4.03982041E+01
 20
4.30180266E+02
  0
VERTEX
  8
0
 62
4
 10
-4.05522607E+01
 20
4.30218436E+02
  0
VERTEX
  8
0
 62
4
 10
-4.07139480E+01
 20
4.30250726E+02
  0
VERTEX
  8
0
 62
4
 10
-4.08819641E+01
 20
4.30276875E+02
  0
VERTEX
  8
0
 62
4
 10
-4.10549562E+01
 20
4.30296674E+02
  0
VERTEX
  8
0
 62
4
 10
-4.12315316E+01
 20
4.30309962E+02
  0
VERTEX
  8
0
 62
4
 10
-4.14102684E+01
 20
4.30316633E+02
  0
VERTEX
  8
0
 62
4
 10
-4.15897278E+01
 20
4.30316633E+02
  0
VERTEX
  8
0
 62
4
 10
-4.17684646E+01
 20
4.30309962E+02
  0
VERTEX
  8
0
 62
4
 10
-4.19450400E+01
 20
4.30296674E+02
  0
VERTEX
  8
0
 62
4
 10
-4.21180321E+01
 20
4.30276875E+02
  0
VERTEX
  8
0
 62
4
 10
-4.22860482E+01
 20
4.30250726E+02
  0
VERTEX
  8
0
 62
4
 10
-4.24477355E+01
 20
4.30218436E+02
  0
VERTEX
  8
0
 62
4
 10
-4.26017921E+01
 20
4.30180266E+02
  0
VERTEX
  8
0
 62
4
 10
-4.27469777E+01
 20
4.30136522E+02
  0
VERTEX
  8
0
 62
4
 10
-4.28821234E+01
 20
4.30087558E+02
  0
VERTEX
  8
0
 62
4
 10
-4.30061411E+01
 20
4.30033767E+02
  0
VERTEX
  8
0
 62
4
 10
-4.31180321E+01
 20
4.29975583E+02
  0
VERTEX
  8
0
 62
4
 10
-4.32168957E+01
 20
4.29913474E+02
  0
VERTEX
  8
0
 62
4
 10
-4.33019359E+01
 20
4.29847939E+02
  0
VERTEX
  8
0
 62
4
 10
-4.33724679E+01
 20
4.29779508E+02
  0
VERTEX
  8
0
 62
4
 10
-4.34279239E+01
 20
4.29708729E+02
  0
VERTEX
  8
0
 62
4
 10
-4.34678573E+01
 20
4.29636175E+02
  0
VERTEX
  8
0
 62
4
 10
-4.34919467E+01
 20
4.29562428E+02
  0
VERTEX
  8
0
 62
4
 10
-4.34999982E+01
 20
4.29488082E+02
  0
SEQEND
  8
0
  0
LINE
  8
0
 62
4
 10
-6.14999981E+01
 20
4.04285646E+02
 11
-6.14999981E+01
 21
4.01285304E+02
  0
LINE
  8
0
 62
4
 10
-3.64999981E+01
 20
4.01343189E+02
 11
-3.64999981E+01
 21
4.00134928E+02
  0
LINE
  8
0
 62
4
 10
-5.99999981E+01
 20
4.09000031E+02
 11
-5.99999981E+01
 21
4.09400031E+02
  0
LINE
  8
0
 62
4
 10
-3.49999981E+01
 20
4.01735186E+02
 11
-3.49999981E+01
 21
4.00134928E+02
  0
LINE
  8
0
  6
CENTER
 62
6
 10
-5.24999981E+01
 20
4.07129730E+02
 11
-5.24999981E+01
 21
4.02129730E+02
  0
LINE
  8
0
  6
CENTER
 62
6
 10
-4.14999981E+01
 20
4.33765609E+02
 11
-4.14999981E+01
 21
4.23500031E+02
  0
LINE
  8
0
  6
CENTER
 62
6
 10
-3.34999981E+01
 20
4.33765609E+02
 11
-3.34999981E+01
 21
4.23500031E+02
  0
LINE
  8
0
 62
4
 10
-5.99999981E+01
 20
4.15868450E+02
 11
-5.99999981E+01
 21
4.02183040E+02
  0
LINE
  8
0
 62
4
 10
-2.99999981E+01
 20
4.28982087E+02
 11
-2.99999981E+01
 21
3.99860757E+02
  0
LINE
  8
0
 62
4
 10
-4.49999981E+01
 20
4.28982087E+02
 11
-4.49999981E+01
 21
4.15868450E+02
  0
LINE
  8
0
 62
4
 10
-3.94999981E+01
 20
4.29488082E+02
 11
-3.94999981E+01
 21
4.28982087E+02
  0
LINE
  8
0
 62
4
 10
-4.34999981E+01
 20
4.29488082E+02
 11
-4.34999981E+01
 21
4.28982087E+02
  0
LINE
  8
0
 62
6
 10
-3.99999981E+01
 20
4.30036669E+02
 11
-3.99999981E+01
 21
4.28982087E+02
  0
LINE
  8
0
 62
6
 10
-4.29999981E+01
 20
4.30036669E+02
 11
-4.29999981E+01
 21
4.28982087E+02
  0
LINE
  8
0
 62
4
 10
3.99999811E+00
 20
3.51715778E+02
 11
-1.00000189E+00
 21
3.51715778E+02
  0
LINE
  8
0
  6
CENTER
 62
6
 10
8.99999809E+00
 20
3.48370285E+02
 11
3.99999809E+00
 21
3.48370285E+02
  0
LINE
  8
0
  6
CENTER
 62
6
 10
6.49999809E+00
 20
3.45870285E+02
 11
6.49999809E+00
 21
3.50870285E+02
  0
LINE
  8
0
  6
CENTER
 62
6
 10
1.64999981E+01
 20
3.49821712E+02
 11
1.14999981E+01
 21
3.49821712E+02
  0
LINE
  8
0
  6
CENTER
 62
6
 10
1.39999981E+01
 20
3.47321712E+02
 11
1.39999981E+01
 21
3.52321712E+02
  0
LINE
  8
0
 62
4
 10
1.14890677E+01
 20
3.53139258E+02
 11
-1.00000189E+00
 21
3.53139258E+02
  0
LINE
  8
0
 62
4
 10
1.08005073E+01
 20
3.52865087E+02
 11
3.99999809E+00
 21
3.52865087E+02
  0
LINE
  8
0
 62
4
 10
9.84999809E+00
 20
3.51206314E+02
 11
9.12304741E+00
 21
3.51206314E+02
  0
LINE
  8
0
 62
4
 10
9.84999809E+00
 20
3.50816976E+02
 11
9.67188880E+00
 21
3.50816976E+02
  0
LINE
  8
0
 62
4
 10
3.32810738E+00
 20
3.50816976E+02
 11
-1.00000191E+00
 21
3.50816976E+02
  0
LINE
  8
0
  6
CENTER
 62
6
 10
2.39999981E+01
 20
3.48370285E+02
 11
1.89999981E+01
 21
3.48370285E+02
  0
ARC
  8
0
 62
4
 10
2.52939282E-01
 20
3.36279328E+02
 40
1.64201386E+01
 50
6.07835994E+01
 51
6.98778124E+01
  0
ARC
  8
0
 62
4
 10
1.27470563E+01
 20
3.36279330E+02
 40
1.64201370E+01
 50
1.10122188E+02
 51
1.19216401E+02
  0
POLYLINE
  8
0
 62
4
 66
1
  0
VERTEX
  8
0
 62
4
 10
9.89999809E+00
 20
3.50309233E+02
  0
VERTEX
  8
0
 62
4
 10
9.88706006E+00
 20
3.50432119E+02
  0
VERTEX
  8
0
 62
4
 10
9.84834445E+00
 20
3.50554069E+02
  0
VERTEX
  8
0
 62
4
 10
9.78414590E+00
 20
3.50674157E+02
  0
VERTEX
  8
0
 62
4
 10
9.69495300E+00
 20
3.50791467E+02
  0
VERTEX
  8
0
 62
4
 10
9.58144457E+00
 20
3.50905107E+02
  0
VERTEX
  8
0
 62
4
 10
9.44448446E+00
 20
3.51014212E+02
  0
VERTEX
  8
0
 62
4
 10
9.28511504E+00
 20
3.51117951E+02
  0
VERTEX
  8
0
 62
4
 10
9.10454920E+00
 20
3.51215536E+02
  0
VERTEX
  8
0
 62
4
 10
8.90416115E+00
 20
3.51306223E+02
  0
VERTEX
  8
0
 62
4
 10
8.68547596E+00
 20
3.51389323E+02
  0
VERTEX
  8
0
 62
4
 10
8.45015797E+00
 20
3.51464202E+02
  0
VERTEX
  8
0
 62
4
 10
8.19999809E+00
 20
3.51530292E+02
  0
VERTEX
  8
0
 62
4
 10
7.93690018E+00
 20
3.51587088E+02
  0
VERTEX
  8
0
 62
4
 10
7.66286658E+00
 20
3.51634159E+02
  0
VERTEX
  8
0
 62
4
 10
7.37998284E+00
 20
3.51671147E+02
  0
VERTEX
  8
0
 62
4
 10
7.09040189E+00
 20
3.51697770E+02
  0
VERTEX
  8
0
 62
4
 10
6.79632761E+00
 20
3.51713825E+02
  0
VERTEX
  8
0
 62
4
 10
6.49999809E+00
 20
3.51719190E+02
  0
VERTEX
  8
0
 62
4
 10
6.20366856E+00
 20
3.51713825E+02
  0
VERTEX
  8
0
 62
4
 10
5.90959428E+00
 20
3.51697770E+02
  0
VERTEX
  8
0
 62
4
 10
5.62001333E+00
 20
3.51671147E+02
  0
VERTEX
  8
0
 62
4
 10
5.33712960E+00
 20
3.51634159E+02
  0
VERTEX
  8
0
 62
4
 10
5.06309600E+00
 20
3.51587088E+02
  0
VERTEX
  8
0
 62
4
 10
4.79999809E+00
 20
3.51530292E+02
  0
VERTEX
  8
0
 62
4
 10
4.54983820E+00
 20
3.51464202E+02
  0
VERTEX
  8
0
 62
4
 10
4.31452021E+00
 20
3.51389323E+02
  0
VERTEX
  8
0
 62
4
 10
4.09583503E+00
 20
3.51306223E+02
  0
VERTEX
  8
0
 62
4
 10
3.89544698E+00
 20
3.51215536E+02
  0
VERTEX
  8
0
 62
4
 10
3.71488114E+00
 20
3.51117951E+02
  0
VERTEX
  8
0
 62
4
 10
3.55551172E+00
 20
3.51014212E+02
  0
VERTEX
  8
0
 62
4
 10
3.41855161E+00
 20
3.50905107E+02
  0
VERTEX
  8
0
 62
4
 10
3.30504318E+00
 20
3.50791467E+02
  0
VERTEX
  8
0
 62
4
 10
3.21585028E+00
 20
3.50674157E+02
  0
VERTEX
  8
0
 62
4
 10
3.15165173E+00
 20
3.50554069E+02
  0
VERTEX
  8
0
 62
4
 10
3.11293612E+00
 20
3.50432119E+02
  0
VERTEX
  8
0
 62
4
 10
3.09999809E+00
 20
3.50309233E+02
  0
VERTEX
  8
0
 62
4
 10
3.11293612E+00
 20
3.50186347E+02
  0
VERTEX
  8
0
 62
4
 10
3.15165173E+00
 20
3.50064397E+02
  0
VERTEX
  8
0
 62
4
 10
3.21585028E+00
 20
3.49944309E+02
  0
VERTEX
  8
0
 62
4
 10
3.30504318E+00
 20
3.49826999E+02
  0
VERTEX
  8
0
 62
4
 10
3.41855162E+00
 20
3.49713359E+02
  0
VERTEX
  8
0
 62
4
 10
3.55551172E+00
 20
3.49604254E+02
  0
VERTEX
  8
0
 62
4
 10
3.71488114E+00
 20
3.49500515E+02
  0
VERTEX
  8
0
 62
4
 10
3.89544699E+00
 20
3.49402930E+02
  0
VERTEX
  8
0
 62
4
 10
4.09583504E+00
 20
3.49312243E+02
  0
VERTEX
  8
0
 62
4
 10
4.31452022E+00
 20
3.49229143E+02
  0
VERTEX
  8
0
 62
4
 10
4.54983821E+00
 20
3.49154264E+02
  0
VERTEX
  8
0
 62
4
 10
4.79999810E+00
 20
3.49088174E+02
  0
VERTEX
  8
0
 62
4
 10
5.06309601E+00
 20
3.49031378E+02
  0
VERTEX
  8
0
 62
4
 10
5.33712961E+00
 20
3.48984307E+02
  0
VERTEX
  8
0
 62
4
 10
5.62001334E+00
 20
3.48947319E+02
  0
VERTEX
  8
0
 62
4
 10
5.90959429E+00
 20
3.48920696E+02
  0
VERTEX
  8
0
 62
4
 10
6.20366857E+00
 20
3.48904641E+02
  0
VERTEX
  8
0
 62
4
 10
6.49999810E+00
 20
3.48899276E+02
  0
VERTEX
  8
0
 62
4
 10
6.79632762E+00
 20
3.48904641E+02
  0
VERTEX
  8
0
 62
4
 10
7.09040190E+00
 20
3.48920696E+02
  0
VERTEX
  8
0
 62
4
 10
7.37998285E+00
 20
3.48947319E+02
  0
VERTEX
  8
0
 62
4
 10
7.66286658E+00
 20
3.48984307E+02
  0
VERTEX
  8
0
 62
4
 10
7.93690019E+00
 20
3.49031378E+02
  0
VERTEX
  8
0
 62
4
 10
8.19999810E+00
 20
3.49088174E+02
  0
VERTEX
  8
0
 62
4
 10
8.45015798E+00
 20
3.49154264E+02
  0
VERTEX
  8
0
 62
4
 10
8.68547597E+00
 20
3.49229143E+02
  0
VERTEX
  8
0
 62
4
 10
8.90416115E+00
 20
3.49312243E+02
  0
VERTEX
  8
0
 62
4
 10
9.10454920E+00
 20
3.49402930E+02
  0
VERTEX
  8
0
 62
4
 10
9.28511505E+00
 20
3.49500515E+02
  0
VERTEX
  8
0
 62
4
 10
9.44448447E+00
 20
3.49604254E+02
  0
VERTEX
  8
0
 62
4
 10
9.58144457E+00
 20
3.49713359E+02
  0
VERTEX
  8
0
 62
4
 10
9.69495300E+00
 20
3.49826999E+02
  0
VERTEX
  8
0
 62
4
 10
9.78414590E+00
 20
3.49944309E+02
  0
VERTEX
  8
0
 62
4
 10
9.84834445E+00
 20
3.50064397E+02
  0
VERTEX
  8
0
 62
4
 10
9.88706006E+00
 20
3.50186347E+02
  0
VERTEX
  8
0
 62
4
 10
9.89999809E+00
 20
3.50309233E+02
  0
SEQEND
  8
0
  0
POLYLINE
  8
0
 62
4
 66
1
  0
VERTEX
  8
0
 62
4
 10
3.09999809E+00
 20
3.49280247E+02
  0
VERTEX
  8
0
 62
4
 10
3.11368549E+00
 20
3.49153859E+02
  0
VERTEX
  8
0
 62
4
 10
3.15463749E+00
 20
3.49028489E+02
  0
VERTEX
  8
0
 62
4
 10
3.22252436E+00
 20
3.48905146E+02
  0
VERTEX
  8
0
 62
4
 10
3.31679953E+00
 20
3.48784824E+02
  0
VERTEX
  8
0
 62
4
 10
3.43670393E+00
 20
3.48668490E+02
  0
VERTEX
  8
0
 62
4
 10
3.58127218E+00
 20
3.48557081E+02
  0
VERTEX
  8
0
 62
4
 10
3.74934030E+00
 20
3.48451495E+02
  0
VERTEX
  8
0
 62
4
 10
3.93955510E+00
 20
3.48352582E+02
  0
VERTEX
  8
0
 62
4
 10
4.15038507E+00
 20
3.48261137E+02
  0
VERTEX
  8
0
 62
4
 10
4.38013275E+00
 20
3.48177898E+02
  0
VERTEX
  8
0
 62
4
 10
4.62694834E+00
 20
3.48103535E+02
  0
VERTEX
  8
0
 62
4
 10
4.88884462E+00
 20
3.48038645E+02
  0
VERTEX
  8
0
 62
4
 10
5.16371297E+00
 20
3.47983752E+02
  0
VERTEX
  8
0
 62
4
 10
5.44934029E+00
 20
3.47939298E+02
  0
VERTEX
  8
0
 62
4
 10
5.74342690E+00
 20
3.47905641E+02
  0
VERTEX
  8
0
 62
4
 10
6.04360497E+00
 20
3.47883050E+02
  0
VERTEX
  8
0
 62
4
 10
6.34745765E+00
 20
3.47871710E+02
  0
VERTEX
  8
0
 62
4
 10
6.65253849E+00
 20
3.47871710E+02
  0
VERTEX
  8
0
 62
4
 10
6.95639118E+00
 20
3.47883050E+02
  0
VERTEX
  8
0
 62
4
 10
7.25656925E+00
 20
3.47905641E+02
  0
VERTEX
  8
0
 62
4
 10
7.55065585E+00
 20
3.47939298E+02
  0
VERTEX
  8
0
 62
4
 10
7.83628318E+00
 20
3.47983752E+02
  0
VERTEX
  8
0
 62
4
 10
8.11115152E+00
 20
3.48038645E+02
  0
VERTEX
  8
0
 62
4
 10
8.37304781E+00
 20
3.48103535E+02
  0
VERTEX
  8
0
 62
4
 10
8.61986340E+00
 20
3.48177898E+02
  0
VERTEX
  8
0
 62
4
 10
8.84961108E+00
 20
3.48261137E+02
  0
VERTEX
  8
0
 62
4
 10
9.06044106E+00
 20
3.48352582E+02
  0
VERTEX
  8
0
 62
4
 10
9.25065586E+00
 20
3.48451495E+02
  0
VERTEX
  8
0
 62
4
 10
9.41872398E+00
 20
3.48557081E+02
  0
VERTEX
  8
0
 62
4
 10
9.56329223E+00
 20
3.48668490E+02
  0
VERTEX
  8
0
 62
4
 10
9.68319664E+00
 20
3.48784824E+02
  0
VERTEX
  8
0
 62
4
 10
9.77747181E+00
 20
3.48905146E+02
  0
VERTEX
  8
0
 62
4
 10
9.84535869E+00
 20
3.49028489E+02
  0
VERTEX
  8
0
 62
4
 10
9.88631069E+00
 20
3.49153859E+02
  0
VERTEX
  8
0
 62
4
 10
9.89999809E+00
 20
3.49280247E+02
  0
SEQEND
  8
0
  0
POLYLINE
  8
0
 62
4
 66
1
  0
VERTEX
  8
0
 62
4
 10
3.09999808E+00
 20
3.49984005E+02
  0
VERTEX
  8
0
 62
4
 10
2.96341642E+00
 20
3.49856744E+02
  0
VERTEX
  8
0
 62
4
 10
2.85446855E+00
 20
3.49724978E+02
  0
VERTEX
  8
0
 62
4
 10
2.77400577E+00
 20
3.49589737E+02
  0
VERTEX
  8
0
 62
4
 10
2.72265679E+00
 20
3.49452079E+02
  0
VERTEX
  8
0
 62
4
 10
2.70082284E+00
 20
3.49313077E+02
  0
VERTEX
  8
0
 62
4
 10
2.70867451E+00
 20
3.49173819E+02
  0
VERTEX
  8
0
 62
4
 10
2.74615046E+00
 20
3.49035393E+02
  0
VERTEX
  8
0
 62
4
 10
2.81295787E+00
 20
3.48898879E+02
  0
VERTEX
  8
0
 62
4
 10
2.90857471E+00
 20
3.48765346E+02
  0
VERTEX
  8
0
 62
4
 10
3.03225387E+00
 20
3.48635836E+02
  0
VERTEX
  8
0
 62
4
 10
3.18302895E+00
 20
3.48511361E+02
  0
VERTEX
  8
0
 62
4
 10
3.35972185E+00
 20
3.48392894E+02
  0
VERTEX
  8
0
 62
4
 10
3.56095193E+00
 20
3.48281361E+02
  0
VERTEX
  8
0
 62
4
 10
3.78514685E+00
 20
3.48177632E+02
  0
VERTEX
  8
0
 62
4
 10
4.03055481E+00
 20
3.48082519E+02
  0
VERTEX
  8
0
 62
4
 10
4.29525827E+00
 20
3.47996765E+02
  0
VERTEX
  8
0
 62
4
 10
4.57718891E+00
 20
3.47921039E+02
  0
VERTEX
  8
0
 62
4
 10
4.87414381E+00
 20
3.47855934E+02
  0
VERTEX
  8
0
 62
4
 10
5.18380265E+00
 20
3.47801958E+02
  0
VERTEX
  8
0
 62
4
 10
5.50374586E+00
 20
3.47759533E+02
  0
VERTEX
  8
0
 62
4
 10
5.83147348E+00
 20
3.47728991E+02
  0
VERTEX
  8
0
 62
4
 10
6.16442476E+00
 20
3.47710569E+02
  0
VERTEX
  8
0
 62
4
 10
6.49999811E+00
 20
3.47704413E+02
  0
VERTEX
  8
0
 62
4
 10
6.83557146E+00
 20
3.47710569E+02
  0
VERTEX
  8
0
 62
4
 10
7.16852273E+00
 20
3.47728991E+02
  0
VERTEX
  8
0
 62
4
 10
7.49625036E+00
 20
3.47759533E+02
  0
VERTEX
  8
0
 62
4
 10
7.81619356E+00
 20
3.47801958E+02
  0
VERTEX
  8
0
 62
4
 10
8.12585240E+00
 20
3.47855934E+02
  0
VERTEX
  8
0
 62
4
 10
8.42280730E+00
 20
3.47921039E+02
  0
VERTEX
  8
0
 62
4
 10
8.70473794E+00
 20
3.47996765E+02
  0
VERTEX
  8
0
 62
4
 10
8.96944140E+00
 20
3.48082519E+02
  0
VERTEX
  8
0
 62
4
 10
9.21484936E+00
 20
3.48177632E+02
  0
VERTEX
  8
0
 62
4
 10
9.43904427E+00
 20
3.48281361E+02
  0
VERTEX
  8
0
 62
4
 10
9.64027435E+00
 20
3.48392894E+02
  0
VERTEX
  8
0
 62
4
 10
9.81696725E+00
 20
3.48511361E+02
  0
VERTEX
  8
0
 62
4
 10
9.96774233E+00
 20
3.48635836E+02
  0
VERTEX
  8
0
 62
4
 10
1.00914215E+01
 20
3.48765346E+02
  0
VERTEX
  8
0
 62
4
 10
1.01870383E+01
 20
3.48898879E+02
  0
VERTEX
  8
0
 62
4
 10
1.02538457E+01
 20
3.49035393E+02
  0
VERTEX
  8
0
 62
4
 10
1.02913217E+01
 20
3.49173819E+02
  0
VERTEX
  8
0
 62
4
 10
1.02991733E+01
 20
3.49313077E+02
  0
VERTEX
  8
0
 62
4
 10
1.02773394E+01
 20
3.49452079E+02
  0
VERTEX
  8
0
 62
4
 10
1.02259904E+01
 20
3.49589737E+02
  0
VERTEX
  8
0
 62
4
 10
1.01455276E+01
 20
3.49724978E+02
  0
VERTEX
  8
0
 62
4
 10
1.00365797E+01
 20
3.49856744E+02
  0
VERTEX
  8
0
 62
4
 10
9.89999808E+00
 20
3.49984005E+02
  0
SEQEND
  8
0
  0
POLYLINE
  8
0
 62
4
 66
1
  0
VERTEX
  8
0
 62
4
 10
2.69999809E+00
 20
3.48370285E+02
  0
VERTEX
  8
0
 62
4
 10
2.71529577E+00
 20
3.48229028E+02
  0
VERTEX
  8
0
 62
4
 10
2.76106565E+00
 20
3.48088909E+02
  0
VERTEX
  8
0
 62
4
 10
2.83693922E+00
 20
3.47951055E+02
  0
VERTEX
  8
0
 62
4
 10
2.94230558E+00
 20
3.47816576E+02
  0
VERTEX
  8
0
 62
4
 10
3.07631639E+00
 20
3.47686556E+02
  0
VERTEX
  8
0
 62
4
 10
3.23789267E+00
 20
3.47562041E+02
  0
VERTEX
  8
0
 62
4
 10
3.42573350E+00
 20
3.47444033E+02
  0
VERTEX
  8
0
 62
4
 10
3.63832651E+00
 20
3.47333483E+02
  0
VERTEX
  8
0
 62
4
 10
3.87396001E+00
 20
3.47231280E+02
  0
VERTEX
  8
0
 62
4
 10
4.13073683E+00
 20
3.47138248E+02
  0
VERTEX
  8
0
 62
4
 10
4.40658955E+00
 20
3.47055136E+02
  0
VERTEX
  8
0
 62
4
 10
4.69929716E+00
 20
3.46982612E+02
  0
VERTEX
  8
0
 62
4
 10
5.00650295E+00
 20
3.46921262E+02
  0
VERTEX
  8
0
 62
4
 10
5.32573349E+00
 20
3.46871578E+02
  0
VERTEX
  8
0
 62
4
 10
5.65441852E+00
 20
3.46833960E+02
  0
VERTEX
  8
0
 62
4
 10
5.98991166E+00
 20
3.46808712E+02
  0
VERTEX
  8
0
 62
4
 10
6.32951171E+00
 20
3.46796037E+02
  0
VERTEX
  8
0
 62
4
 10
6.67048442E+00
 20
3.46796037E+02
  0
VERTEX
  8
0
 62
4
 10
7.01008448E+00
 20
3.46808712E+02
  0
VERTEX
  8
0
 62
4
 10
7.34557762E+00
 20
3.46833960E+02
  0
VERTEX
  8
0
 62
4
 10
7.67426265E+00
 20
3.46871577E+02
  0
VERTEX
  8
0
 62
4
 10
7.99349319E+00
 20
3.46921262E+02
  0
VERTEX
  8
0
 62
4
 10
8.30069899E+00
 20
3.46982612E+02
  0
VERTEX
  8
0
 62
4
 10
8.59340660E+00
 20
3.47055136E+02
  0
VERTEX
  8
0
 62
4
 10
8.86925932E+00
 20
3.47138248E+02
  0
VERTEX
  8
0
 62
4
 10
9.12603614E+00
 20
3.47231280E+02
  0
VERTEX
  8
0
 62
4
 10
9.36166964E+00
 20
3.47333483E+02
  0
VERTEX
  8
0
 62
4
 10
9.57426265E+00
 20
3.47444033E+02
  0
VERTEX
  8
0
 62
4
 10
9.76210349E+00
 20
3.47562041E+02
  0
VERTEX
  8
0
 62
4
 10
9.92367978E+00
 20
3.47686556E+02
  0
VERTEX
  8
0
 62
4
 10
1.00576906E+01
 20
3.47816576E+02
  0
VERTEX
  8
0
 62
4
 10
1.01630570E+01
 20
3.47951055E+02
  0
VERTEX
  8
0
 62
4
 10
1.02389305E+01
 20
3.48088909E+02
  0
VERTEX
  8
0
 62
4
 10
1.02847004E+01
 20
3.48229028E+02
  0
VERTEX
  8
0
 62
4
 10
1.02999981E+01
 20
3.48370285E+02
  0
SEQEND
  8
0
  0
ARC
  8
0
 62
4
 10
7.63039404E+00
 20
3.36984401E+02
 40
1.67245676E+01
 50
6.08857978E+01
 51
7.40287885E+01
  0
ARC
  8
0
 62
4
 10
2.03695988E+01
 20
3.36984410E+02
 40
1.67245585E+01
 50
1.05971208E+02
 51
1.19114206E+02
  0
POLYLINE
  8
0
 62
4
 66
1
  0
VERTEX
  8
0
 62
4
 10
1.81499981E+01
 20
3.51769029E+02
  0
VERTEX
  8
0
 62
4
 10
1.81342061E+01
 20
3.51919022E+02
  0
VERTEX
  8
0
 62
4
 10
1.80869503E+01
 20
3.52067874E+02
  0
VERTEX
  8
0
 62
4
 10
1.80085903E+01
 20
3.52214451E+02
  0
VERTEX
  8
0
 62
4
 10
1.78997225E+01
 20
3.52357638E+02
  0
VERTEX
  8
0
 62
4
 10
1.77611754E+01
 20
3.52496345E+02
  0
VERTEX
  8
0
 62
4
 10
1.75940035E+01
 20
3.52629517E+02
  0
VERTEX
  8
0
 62
4
 10
1.73994791E+01
 20
3.52756141E+02
  0
VERTEX
  8
0
 62
4
 10
1.71790825E+01
 20
3.52875252E+02
  0
VERTEX
  8
0
 62
4
 10
1.69344912E+01
 20
3.52985943E+02
  0
VERTEX
  8
0
 62
4
 10
1.66675667E+01
 20
3.53087374E+02
  0
VERTEX
  8
0
 62
4
 10
1.63803403E+01
 20
3.53178771E+02
  0
VERTEX
  8
0
 62
4
 10
1.60749981E+01
 20
3.53259439E+02
  0
VERTEX
  8
0
 62
4
 10
1.57538639E+01
 20
3.53328764E+02
  0
VERTEX
  8
0
 62
4
 10
1.54193817E+01
 20
3.53386218E+02
  0
VERTEX
  8
0
 62
4
 10
1.50740971E+01
 20
3.53431365E+02
  0
VERTEX
  8
0
 62
4
 10
1.47206380E+01
 20
3.53463860E+02
  0
VERTEX
  8
0
 62
4
 10
1.43616944E+01
 20
3.53483457E+02
  0
VERTEX
  8
0
 62
4
 10
1.39999981E+01
 20
3.53490006E+02
  0
VERTEX
  8
0
 62
4
 10
1.36383018E+01
 20
3.53483457E+02
  0
VERTEX
  8
0
 62
4
 10
1.32793582E+01
 20
3.53463860E+02
  0
VERTEX
  8
0
 62
4
 10
1.29258991E+01
 20
3.53431365E+02
  0
VERTEX
  8
0
 62
4
 10
1.25806145E+01
 20
3.53386218E+02
  0
VERTEX
  8
0
 62
4
 10
1.22461323E+01
 20
3.53328764E+02
  0
VERTEX
  8
0
 62
4
 10
1.19249981E+01
 20
3.53259439E+02
  0
VERTEX
  8
0
 62
4
 10
1.16196559E+01
 20
3.53178771E+02
  0
VERTEX
  8
0
 62
4
 10
1.13324295E+01
 20
3.53087374E+02
  0
VERTEX
  8
0
 62
4
 10
1.10655050E+01
 20
3.52985943E+02
  0
VERTEX
  8
0
 62
4
 10
1.08209137E+01
 20
3.52875252E+02
  0
VERTEX
  8
0
 62
4
 10
1.06005171E+01
 20
3.52756141E+02
  0
VERTEX
  8
0
 62
4
 10
1.04059927E+01
 20
3.52629517E+02
  0
VERTEX
  8
0
 62
4
 10
1.02388208E+01
 20
3.52496345E+02
  0
VERTEX
  8
0
 62
4
 10
1.01002737E+01
 20
3.52357638E+02
  0
VERTEX
  8
0
 62
4
 10
9.99140592E+00
 20
3.52214451E+02
  0
VERTEX
  8
0
 62
4
 10
9.91304592E+00
 20
3.52067874E+02
  0
VERTEX
  8
0
 62
4
 10
9.86579010E+00
 20
3.51919022E+02
  0
VERTEX
  8
0
 62
4
 10
9.84999810E+00
 20
3.51769029E+02
  0
VERTEX
  8
0
 62
4
 10
9.86579010E+00
 20
3.51619036E+02
  0
VERTEX
  8
0
 62
4
 10
9.91304593E+00
 20
3.51470184E+02
  0
VERTEX
  8
0
 62
4
 10
9.99140592E+00
 20
3.51323607E+02
  0
VERTEX
  8
0
 62
4
 10
1.01002737E+01
 20
3.51180420E+02
  0
VERTEX
  8
0
 62
4
 10
1.02388208E+01
 20
3.51041713E+02
  0
VERTEX
  8
0
 62
4
 10
1.04059927E+01
 20
3.50908541E+02
  0
VERTEX
  8
0
 62
4
 10
1.06005171E+01
 20
3.50781917E+02
  0
VERTEX
  8
0
 62
4
 10
1.08209137E+01
 20
3.50662806E+02
  0
VERTEX
  8
0
 62
4
 10
1.10655050E+01
 20
3.50552115E+02
  0
VERTEX
  8
0
 62
4
 10
1.13324295E+01
 20
3.50450684E+02
  0
VERTEX
  8
0
 62
4
 10
1.16196559E+01
 20
3.50359287E+02
  0
VERTEX
  8
0
 62
4
 10
1.19249981E+01
 20
3.50278619E+02
  0
VERTEX
  8
0
 62
4
 10
1.22461323E+01
 20
3.50209294E+02
  0
VERTEX
  8
0
 62
4
 10
1.25806145E+01
 20
3.50151840E+02
  0
VERTEX
  8
0
 62
4
 10
1.29258991E+01
 20
3.50106693E+02
  0
VERTEX
  8
0
 62
4
 10
1.32793582E+01
 20
3.50074198E+02
  0
VERTEX
  8
0
 62
4
 10
1.36383018E+01
 20
3.50054601E+02
  0
VERTEX
  8
0
 62
4
 10
1.39999981E+01
 20
3.50048052E+02
  0
VERTEX
  8
0
 62
4
 10
1.43616944E+01
 20
3.50054601E+02
  0
VERTEX
  8
0
 62
4
 10
1.47206380E+01
 20
3.50074198E+02
  0
VERTEX
  8
0
 62
4
 10
1.50740971E+01
 20
3.50106693E+02
  0
VERTEX
  8
0
 62
4
 10
1.54193817E+01
 20
3.50151840E+02
  0
VERTEX
  8
0
 62
4
 10
1.57538639E+01
 20
3.50209294E+02
  0
VERTEX
  8
0
 62
4
 10
1.60749981E+01
 20
3.50278619E+02
  0
VERTEX
  8
0
 62
4
 10
1.63803403E+01
 20
3.50359287E+02
  0
VERTEX
  8
0
 62
4
 10
1.66675667E+01
 20
3.50450684E+02
  0
VERTEX
  8
0
 62
4
 10
1.69344912E+01
 20
3.50552115E+02
  0
VERTEX
  8
0
 62
4
 10
1.71790825E+01
 20
3.50662806E+02
  0
VERTEX
  8
0
 62
4
 10
1.73994791E+01
 20
3.50781917E+02
  0
VERTEX
  8
0
 62
4
 10
1.75940035E+01
 20
3.50908541E+02
  0
VERTEX
  8
0
 62
4
 10
1.77611754E+01
 20
3.51041713E+02
  0
VERTEX
  8
0
 62
4
 10
1.78997225E+01
 20
3.51180420E+02
  0
VERTEX
  8
0
 62
4
 10
1.80085903E+01
 20
3.51323607E+02
  0
VERTEX
  8
0
 62
4
 10
1.80869503E+01
 20
3.51470184E+02
  0
VERTEX
  8
0
 62
4
 10
1.81342061E+01
 20
3.51619036E+02
  0
VERTEX
  8
0
 62
4
 10
1.81499981E+01
 20
3.51769029E+02
  0
SEQEND
  8
0
  0
POLYLINE
  8
0
 62
4
 66
1
  0
VERTEX
  8
0
 62
4
 10
1.02896236E+01
 20
3.49396611E+02
  0
VERTEX
  8
0
 62
4
 10
1.04700544E+01
 20
3.49262553E+02
  0
VERTEX
  8
0
 62
4
 10
1.06785770E+01
 20
3.49135697E+02
  0
VERTEX
  8
0
 62
4
 10
1.09135319E+01
 20
3.49017052E+02
  0
VERTEX
  8
0
 62
4
 10
1.11730492E+01
 20
3.48907562E+02
  0
VERTEX
  8
0
 62
4
 10
1.14550638E+01
 20
3.48808099E+02
  0
VERTEX
  8
0
 62
4
 10
1.17573313E+01
 20
3.48719455E+02
  0
VERTEX
  8
0
 62
4
 10
1.20774462E+01
 20
3.48642334E+02
  0
VERTEX
  8
0
 62
4
 10
1.24128611E+01
 20
3.48577350E+02
  0
VERTEX
  8
0
 62
4
 10
1.27609066E+01
 20
3.48525021E+02
  0
VERTEX
  8
0
 62
4
 10
1.31188129E+01
 20
3.48485763E+02
  0
VERTEX
  8
0
 62
4
 10
1.34837318E+01
 20
3.48459889E+02
  0
VERTEX
  8
0
 62
4
 10
1.38527592E+01
 20
3.48447604E+02
  0
VERTEX
  8
0
 62
4
 10
1.42229584E+01
 20
3.48449006E+02
  0
VERTEX
  8
0
 62
4
 10
1.45913832E+01
 20
3.48464084E+02
  0
VERTEX
  8
0
 62
4
 10
1.49551017E+01
 20
3.48492718E+02
  0
VERTEX
  8
0
 62
4
 10
1.53112194E+01
 20
3.48534680E+02
  0
VERTEX
  8
0
 62
4
 10
1.56569022E+01
 20
3.48589636E+02
  0
VERTEX
  8
0
 62
4
 10
1.59893991E+01
 20
3.48657149E+02
  0
VERTEX
  8
0
 62
4
 10
1.63060642E+01
 20
3.48736682E+02
  0
VERTEX
  8
0
 62
4
 10
1.66043772E+01
 20
3.48827601E+02
  0
VERTEX
  8
0
 62
4
 10
1.68819643E+01
 20
3.48929183E+02
  0
VERTEX
  8
0
 62
4
 10
1.71366164E+01
 20
3.49040620E+02
  0
VERTEX
  8
0
 62
4
 10
1.73663068E+01
 20
3.49161025E+02
  0
VERTEX
  8
0
 62
4
 10
1.75692077E+01
 20
3.49289439E+02
  0
VERTEX
  8
0
 62
4
 10
1.77437044E+01
 20
3.49424841E+02
  0
VERTEX
  8
0
 62
4
 10
1.78884082E+01
 20
3.49566154E+02
  0
VERTEX
  8
0
 62
4
 10
1.80021675E+01
 20
3.49712251E+02
  0
VERTEX
  8
0
 62
4
 10
1.80840771E+01
 20
3.49861972E+02
  0
VERTEX
  8
0
 62
4
 10
1.81334850E+01
 20
3.50014124E+02
  0
VERTEX
  8
0
 62
4
 10
1.81499981E+01
 20
3.50167497E+02
  0
SEQEND
  8
0
  0
POLYLINE
  8
0
 62
4
 66
1
  0
VERTEX
  8
0
 62
4
 10
1.02999981E+01
 20
3.49191433E+02
  0
VERTEX
  8
0
 62
4
 10
1.04498988E+01
 20
3.49057416E+02
  0
VERTEX
  8
0
 62
4
 10
1.06279583E+01
 20
3.48929461E+02
  0
VERTEX
  8
0
 62
4
 10
1.08327644E+01
 20
3.48808584E+02
  0
VERTEX
  8
0
 62
4
 10
1.10626926E+01
 20
3.48695743E+02
  0
VERTEX
  8
0
 62
4
 10
1.13159191E+01
 20
3.48591832E+02
  0
VERTEX
  8
0
 62
4
 10
1.15904353E+01
 20
3.48497677E+02
  0
VERTEX
  8
0
 62
4
 10
1.18840638E+01
 20
3.48414024E+02
  0
VERTEX
  8
0
 62
4
 10
1.21944757E+01
 20
3.48341537E+02
  0
VERTEX
  8
0
 62
4
 10
1.25192086E+01
 20
3.48280790E+02
  0
VERTEX
  8
0
 62
4
 10
1.28556870E+01
 20
3.48232265E+02
  0
VERTEX
  8
0
 62
4
 10
1.32012420E+01
 20
3.48196348E+02
  0
VERTEX
  8
0
 62
4
 10
1.35531325E+01
 20
3.48173323E+02
  0
VERTEX
  8
0
 62
4
 10
1.39085675E+01
 20
3.48163372E+02
  0
VERTEX
  8
0
 62
4
 10
1.42647277E+01
 20
3.48166576E+02
  0
VERTEX
  8
0
 62
4
 10
1.46187882E+01
 20
3.48182908E+02
  0
VERTEX
  8
0
 62
4
 10
1.49679404E+01
 20
3.48212238E+02
  0
VERTEX
  8
0
 62
4
 10
1.53094151E+01
 20
3.48254335E+02
  0
VERTEX
  8
0
 62
4
 10
1.56405037E+01
 20
3.48308863E+02
  0
VERTEX
  8
0
 62
4
 10
1.59585800E+01
 20
3.48375392E+02
  0
VERTEX
  8
0
 62
4
 10
1.62611211E+01
 20
3.48453393E+02
  0
VERTEX
  8
0
 62
4
 10
1.65457273E+01
 20
3.48542246E+02
  0
VERTEX
  8
0
 62
4
 10
1.68101411E+01
 20
3.48641249E+02
  0
VERTEX
  8
0
 62
4
 10
1.70522653E+01
 20
3.48749614E+02
  0
VERTEX
  8
0
 62
4
 10
1.72701793E+01
 20
3.48866484E+02
  0
VERTEX
  8
0
 62
4
 10
1.74621547E+01
 20
3.48990930E+02
  0
VERTEX
  8
0
 62
4
 10
1.76266687E+01
 20
3.49121966E+02
  0
VERTEX
  8
0
 62
4
 10
1.77624165E+01
 20
3.49258552E+02
  0
VERTEX
  8
0
 62
4
 10
1.78683213E+01
 20
3.49399605E+02
  0
VERTEX
  8
0
 62
4
 10
1.79435431E+01
 20
3.49544006E+02
  0
VERTEX
  8
0
 62
4
 10
1.79874853E+01
 20
3.49690610E+02
  0
SEQEND
  8
0
  0
LINE
  8
0
 62
4
 10
1.81499981E+01
 20
3.51769029E+02
 11
1.81499981E+01
 21
3.50167497E+02
  0
LINE
  8
0
 62
4
 10
9.84999809E+00
 20
3.50550148E+02
 11
9.84999809E+00
 21
3.51769029E+02
  0
LINE
  8
0
 62
4
 10
3.09999809E+00
 20
3.49280247E+02
 11
3.09999809E+00
 21
3.50309233E+02
  0
LINE
  8
0
 62
4
 10
9.89999809E+00
 20
3.49280247E+02
 11
9.89999809E+00
 21
3.50309233E+02
  0
LINE
  8
0
 62
4
 10
2.69999809E+00
 20
3.49280247E+02
 11
2.69999809E+00
 21
3.48370285E+02
  0
LINE
  8
0
 62
4
 10
1.02999981E+01
 20
3.48370285E+02
 11
1.02999981E+01
 21
3.49280247E+02
  0
LINE
  8
0
 62
4
 10
2.89999981E+01
 20
3.52865087E+02
 11
2.89999981E+01
 21
3.53139258E+02
  0
LINE
  8
0
 62
4
 10
2.89999981E+01
 20
3.50816976E+02
 11
2.89999981E+01
 21
3.52865087E+02
  0
LINE
  8
0
 62
4
 10
2.89999981E+01
 20
3.50816976E+02
 11
1.81499981E+01
 21
3.50816976E+02
  0
LINE
  8
0
 62
4
 10
3.04999981E+01
 20
3.51714711E+02
 11
2.89999981E+01
 21
3.52865087E+02
  0
LINE
  8
0
 62
4
 10
2.89999981E+01
 20
3.52865087E+02
 11
1.71994889E+01
 21
3.52865087E+02
  0
LINE
  8
0
 62
4
 10
3.04999981E+01
 20
3.50775431E+02
 11
2.89999981E+01
 21
3.51206314E+02
  0
LINE
  8
0
 62
4
 10
2.89999981E+01
 20
3.51206314E+02
 11
1.81499981E+01
 21
3.51206314E+02
  0
LINE
  8
0
 62
4
 10
2.89999981E+01
 20
3.47566469E+02
 11
3.04999981E+01
 21
3.48714369E+02
  0
LINE
  8
0
 62
4
 10
2.89999981E+01
 20
3.53139258E+02
 11
1.65109285E+01
 21
3.53139258E+02
  0
LINE
  8
0
 62
4
 10
2.89999981E+01
 20
3.46504166E+02
 11
-1.00000189E+00
 21
3.46504166E+02
  0
LINE
  8
0
 62
4
 10
2.89999981E+01
 20
3.37131565E+02
 11
-1.00000191E+00
 21
3.37131565E+02
  0
LINE
  8
0
 62
4
 10
1.39999981E+01
 20
3.30761836E+02
 11
-1.00000189E+00
 21
3.30761836E+02
  0
LINE
  8
0
 62
4
 10
1.39999981E+01
 20
3.24017928E+02
 11
-1.00000191E+00
 21
3.24017928E+02
  0
LINE
  8
0
 62
4
 10
4.49999813E+00
 20
3.23511934E+02
 11
4.49999813E+00
 21
3.24017928E+02
  0
LINE
  8
0
 62
6
 10
3.99999813E+00
 20
3.22963346E+02
 11
3.99999813E+00
 21
3.24017928E+02
  0
POLYLINE
  8
0
 62
4
 66
1
  0
VERTEX
  8
0
 62
4
 10
4.99998000E-01
 20
3.23511934E+02
  0
VERTEX
  8
0
 62
4
 10
5.08049412E-01
 20
3.23437588E+02
  0
VERTEX
  8
0
 62
4
 10
5.32138823E-01
 20
3.23363841E+02
  0
VERTEX
  8
0
 62
4
 10
5.72072280E-01
 20
3.23291287E+02
  0
VERTEX
  8
0
 62
4
 10
6.27528262E-01
 20
3.23220508E+02
  0
VERTEX
  8
0
 62
4
 10
6.98060269E-01
 20
3.23152077E+02
  0
VERTEX
  8
0
 62
4
 10
7.83100420E-01
 20
3.23086542E+02
  0
VERTEX
  8
0
 62
4
 10
8.81964021E-01
 20
3.23024433E+02
  0
VERTEX
  8
0
 62
4
 10
9.93855081E-01
 20
3.22966249E+02
  0
VERTEX
  8
0
 62
4
 10
1.11787272E+00
 20
3.22912458E+02
  0
VERTEX
  8
0
 62
4
 10
1.25301842E+00
 20
3.22863494E+02
  0
VERTEX
  8
0
 62
4
 10
1.39820406E+00
 20
3.22819750E+02
  0
VERTEX
  8
0
 62
4
 10
1.55226070E+00
 20
3.22781580E+02
  0
VERTEX
  8
0
 62
4
 10
1.71394797E+00
 20
3.22749290E+02
  0
VERTEX
  8
0
 62
4
 10
1.88196405E+00
 20
3.22723141E+02
  0
VERTEX
  8
0
 62
4
 10
2.05495617E+00
 20
3.22703342E+02
  0
VERTEX
  8
0
 62
4
 10
2.23153152E+00
 20
3.22690054E+02
  0
VERTEX
  8
0
 62
4
 10
2.41026839E+00
 20
3.22683383E+02
  0
VERTEX
  8
0
 62
4
 10
2.58972772E+00
 20
3.22683383E+02
  0
VERTEX
  8
0
 62
4
 10
2.76846459E+00
 20
3.22690054E+02
  0
VERTEX
  8
0
 62
4
 10
2.94503994E+00
 20
3.22703342E+02
  0
VERTEX
  8
0
 62
4
 10
3.11803206E+00
 20
3.22723141E+02
  0
VERTEX
  8
0
 62
4
 10
3.28604814E+00
 20
3.22749290E+02
  0
VERTEX
  8
0
 62
4
 10
3.44773541E+00
 20
3.22781580E+02
  0
VERTEX
  8
0
 62
4
 10
3.60179205E+00
 20
3.22819750E+02
  0
VERTEX
  8
0
 62
4
 10
3.74697770E+00
 20
3.22863494E+02
  0
VERTEX
  8
0
 62
4
 10
3.88212339E+00
 20
3.22912458E+02
  0
VERTEX
  8
0
 62
4
 10
4.00614103E+00
 20
3.22966249E+02
  0
VERTEX
  8
0
 62
4
 10
4.11803209E+00
 20
3.23024433E+02
  0
VERTEX
  8
0
 62
4
 10
4.21689570E+00
 20
3.23086542E+02
  0
VERTEX
  8
0
 62
4
 10
4.30193585E+00
 20
3.23152077E+02
  0
VERTEX
  8
0
 62
4
 10
4.37246785E+00
 20
3.23220508E+02
  0
VERTEX
  8
0
 62
4
 10
4.42792384E+00
 20
3.23291287E+02
  0
VERTEX
  8
0
 62
4
 10
4.46785729E+00
 20
3.23363841E+02
  0
VERTEX
  8
0
 62
4
 10
4.49194671E+00
 20
3.23437588E+02
  0
VERTEX
  8
0
 62
4
 10
4.49999812E+00
 20
3.23511934E+02
  0
SEQEND
  8
0
  0
LINE
  8
0
 62
4
 10
4.99998126E-01
 20
3.23511934E+02
 11
4.99998126E-01
 21
3.24017928E+02
  0
LINE
  8
0
 62
6
 10
9.99998126E-01
 20
3.22963346E+02
 11
9.99998126E-01
 21
3.24017928E+02
  0
POLYLINE
  8
0
 62
4
 66
1
  0
VERTEX
  8
0
 62
4
 10
8.49999804E+00
 20
3.23511934E+02
  0
VERTEX
  8
0
 62
4
 10
8.50804945E+00
 20
3.23437588E+02
  0
VERTEX
  8
0
 62
4
 10
8.53213886E+00
 20
3.23363841E+02
  0
VERTEX
  8
0
 62
4
 10
8.57207232E+00
 20
3.23291287E+02
  0
VERTEX
  8
0
 62
4
 10
8.62752830E+00
 20
3.23220508E+02
  0
VERTEX
  8
0
 62
4
 10
8.69806031E+00
 20
3.23152077E+02
  0
VERTEX
  8
0
 62
4
 10
8.78310046E+00
 20
3.23086542E+02
  0
VERTEX
  8
0
 62
4
 10
8.88196406E+00
 20
3.23024433E+02
  0
VERTEX
  8
0
 62
4
 10
8.99385512E+00
 20
3.22966249E+02
  0
VERTEX
  8
0
 62
4
 10
9.11787276E+00
 20
3.22912458E+02
  0
VERTEX
  8
0
 62
4
 10
9.25301846E+00
 20
3.22863494E+02
  0
VERTEX
  8
0
 62
4
 10
9.39820410E+00
 20
3.22819750E+02
  0
VERTEX
  8
0
 62
4
 10
9.55226074E+00
 20
3.22781580E+02
  0
VERTEX
  8
0
 62
4
 10
9.71394801E+00
 20
3.22749290E+02
  0
VERTEX
  8
0
 62
4
 10
9.88196409E+00
 20
3.22723141E+02
  0
VERTEX
  8
0
 62
4
 10
1.00549562E+01
 20
3.22703342E+02
  0
VERTEX
  8
0
 62
4
 10
1.02315316E+01
 20
3.22690054E+02
  0
VERTEX
  8
0
 62
4
 10
1.04102684E+01
 20
3.22683383E+02
  0
VERTEX
  8
0
 62
4
 10
1.05897278E+01
 20
3.22683383E+02
  0
VERTEX
  8
0
 62
4
 10
1.07684646E+01
 20
3.22690054E+02
  0
VERTEX
  8
0
 62
4
 10
1.09450400E+01
 20
3.22703342E+02
  0
VERTEX
  8
0
 62
4
 10
1.11180321E+01
 20
3.22723141E+02
  0
VERTEX
  8
0
 62
4
 10
1.12860482E+01
 20
3.22749290E+02
  0
VERTEX
  8
0
 62
4
 10
1.14477354E+01
 20
3.22781580E+02
  0
VERTEX
  8
0
 62
4
 10
1.16017921E+01
 20
3.22819750E+02
  0
VERTEX
  8
0
 62
4
 10
1.17469777E+01
 20
3.22863494E+02
  0
VERTEX
  8
0
 62
4
 10
1.18821234E+01
 20
3.22912458E+02
  0
VERTEX
  8
0
 62
4
 10
1.20061411E+01
 20
3.22966249E+02
  0
VERTEX
  8
0
 62
4
 10
1.21180321E+01
 20
3.23024433E+02
  0
VERTEX
  8
0
 62
4
 10
1.22168957E+01
 20
3.23086542E+02
  0
VERTEX
  8
0
 62
4
 10
1.23019359E+01
 20
3.23152077E+02
  0
VERTEX
  8
0
 62
4
 10
1.23724679E+01
 20
3.23220508E+02
  0
VERTEX
  8
0
 62
4
 10
1.24279239E+01
 20
3.23291287E+02
  0
VERTEX
  8
0
 62
4
 10
1.24678573E+01
 20
3.23363841E+02
  0
VERTEX
  8
0
 62
4
 10
1.24919467E+01
 20
3.23437588E+02
  0
VERTEX
  8
0
 62
4
 10
1.24999982E+01
 20
3.23511934E+02
  0
SEQEND
  8
0
  0
LINE
  8
0
 62
4
 10
3.04999981E+01
 20
3.48714369E+02
 11
3.04999981E+01
 21
3.51714711E+02
  0
LINE
  8
0
 62
4
 10
5.49999809E+00
 20
3.51656827E+02
 11
5.49999809E+00
 21
3.52865087E+02
  0
LINE
  8
0
 62
4
 10
2.89999981E+01
 20
3.43999985E+02
 11
2.89999981E+01
 21
3.43599985E+02
  0
LINE
  8
0
 62
4
 10
3.99999809E+00
 20
3.51264829E+02
 11
3.99999809E+00
 21
3.52865087E+02
  0
LINE
  8
0
  6
CENTER
 62
6
 10
2.14999981E+01
 20
3.45870285E+02
 11
2.14999981E+01
 21
3.50870285E+02
  0
LINE
  8
0
  6
CENTER
 62
6
 10
1.04999981E+01
 20
3.19234406E+02
 11
1.04999981E+01
 21
3.29499985E+02
  0
LINE
  8
0
  6
CENTER
 62
6
 10
2.49999806E+00
 20
3.19234406E+02
 11
2.49999806E+00
 21
3.29499985E+02
  0
LINE
  8
0
 62
4
 10
2.89999981E+01
 20
3.37131565E+02
 11
2.89999981E+01
 21
3.50816976E+02
  0
LINE
  8
0
 62
4
 10
-1.00000191E+00
 20
3.24017928E+02
 11
-1.00000191E+00
 21
3.53139258E+02
  0
LINE
  8
0
 62
4
 10
1.39999981E+01
 20
3.24017928E+02
 11
1.39999981E+01
 21
3.37131565E+02
  0
LINE
  8
0
 62
4
 10
8.49999813E+00
 20
3.23511934E+02
 11
8.49999813E+00
 21
3.24017928E+02
  0
LINE
  8
0
 62
4
 10
1.24999981E+01
 20
3.23511934E+02
 11
1.24999981E+01
 21
3.24017928E+02
  0
LINE
  8
0
 62
6
 10
8.99999813E+00
 20
3.22963346E+02
 11
8.99999813E+00
 21
3.24017928E+02
  0
LINE
  8
0
 62
6
 10
1.19999981E+01
 20
3.22963346E+02
 11
1.19999981E+01
 21
3.24017928E+02
  0
LINE
  8
0
  6
CENTER
 62
6
 10
-6.49999981E+01
 20
4.02784237E+02
 11
-1.49999981E+01
 21
4.02784237E+02
  0
LINE
  8
0
 62
6
 10
-2.17320489E+01
 20
3.99784237E+02
 11
-1.82679473E+01
 21
4.05784237E+02
  0
LINE
  8
0
 62
4
 10
-2.99999981E+01
 20
4.04284237E+02
 11
-1.91339727E+01
 21
4.04284237E+02
  0
LINE
  8
0
 62
4
 10
-2.99999981E+01
 20
4.01284237E+02
 11
-2.08660235E+01
 21
4.01284237E+02
  0
LINE
  8
0
  6
CENTER
 62
6
 10
3.39999981E+01
 20
3.50215778E+02
 11
-1.60000019E+01
 21
3.50215778E+02
  0
LINE
  8
0
 62
6
 10
-9.26795106E+00
 20
3.53215778E+02
 11
-1.27320527E+01
 21
3.47215778E+02
  0
LINE
  8
0
 62
4
 10
-1.00000187E+00
 20
3.48715778E+02
 11
-1.18660273E+01
 21
3.48715778E+02
  0
LINE
  8
0
 62
4
 10
-1.00000187E+00
 20
3.51715778E+02
 11
-1.01339765E+01
 21
3.51715778E+02
  0
LINE
  8
0
 62
2
 10
-4.41499937E+02
 20
3.64320007E+02
 11
-4.29999937E+02
 21
3.64320007E+02
  0
LINE
  8
0
 62
7
 10
-4.41499937E+02
 20
3.63500000E+02
 11
-4.29999937E+02
 21
3.63500000E+02
  0
LINE
  8
0
 62
2
 10
-4.41499937E+02
 20
3.88679962E+02
 11
-4.29999937E+02
 21
3.88679962E+02
  0
LINE
  8
0
 62
7
 10
-4.41499937E+02
 20
3.89499969E+02
 11
-4.29999937E+02
 21
3.89499969E+02
  0
LINE
  8
0
 62
4
 10
-4.55499937E+02
 20
3.58500065E+02
 11
-4.41499937E+02
 21
3.58500065E+02
  0
LINE
  8
0
 62
4
 10
-4.55499937E+02
 20
3.94499935E+02
 11
-4.41499937E+02
 21
3.94499935E+02
  0
LINE
  8
0
 62
4
 10
-4.55499937E+02
 20
3.94499935E+02
 11
-4.55499937E+02
 21
3.58500065E+02
  0
LINE
  8
0
 62
4
 10
-4.41499937E+02
 20
3.94499935E+02
 11
-4.41499937E+02
 21
3.58500065E+02
  0
LINE
  8
0
 62
4
 10
-4.53892428E+02
 20
3.76499928E+02
 11
-4.43107446E+02
 21
3.76499928E+02
  0
ARC
  8
0
 62
4
 10
-4.29501906E+02
 20
3.67499924E+02
 40
2.59980309E+01
 50
1.59746143E+02
 51
2.00253857E+02
  0
ARC
  8
0
 62
4
 10
-4.29501906E+02
 20
3.85499931E+02
 40
2.59980309E+01
 50
1.59746143E+02
 51
2.00253857E+02
  0
ARC
  8
0
 62
4
 10
-4.67497968E+02
 20
3.85499931E+02
 40
2.59980309E+01
 50
3.39746143E+02
 51
2.02538569E+01
  0
ARC
  8
0
 62
4
 10
-4.67497968E+02
 20
3.67499924E+02
 40
2.59980309E+01
 50
3.39746143E+02
 51
2.02538569E+01
  0
INSERT
  8
0
  2
PP1
  6
BYBLOCK
 62
0
 10
0.00000000E+00
 20
0.00000000E+00
 41
1.00000000E+00
 42
1.00000000E+00
 50
0.00000000E+00
  0
INSERT
  8
0
  2
PP2
  6
BYBLOCK
 62
0
 10
0.00000000E+00
 20
0.00000000E+00
 41
1.00000000E+00
 42
1.00000000E+00
 50
0.00000000E+00
  0
CIRCLE
  8
0
 62
2
 10
5.29999943E+01
 20
3.88500000E+02
 40
1.04775000E+01
  0
CIRCLE
  8
0
 62
7
 10
5.29999409E+01
 20
3.88500000E+02
 40
1.10000000E+01
  0
ARC
  8
0
 62
7
 10
6.69999561E+01
 20
4.09499939E+02
 40
2.00000000E+00
 50
3.59999986E+02
 51
9.00000094E+01
  0
ARC
  8
0
 62
7
 10
6.69999561E+01
 20
3.43499939E+02
 40
2.00000000E+00
 50
2.69999991E+02
 51
3.59999959E+02
  0
CIRCLE
  8
0
 62
7
 10
5.29999409E+01
 20
3.88500061E+02
 40
9.25000000E+00
  0
ARC
  8
0
 62
7
 10
7.24999638E+01
 20
4.31380280E+02
 40
5.00000000E-01
 50
3.59999986E+02
 51
8.89996737E+01
  0
ARC
  8
0
 62
7
 10
7.44999561E+01
 20
4.00999908E+02
 40
5.00000000E-01
 50
3.59999986E+02
 51
8.99999549E+01
  0
ARC
  8
0
 62
7
 10
7.44999561E+01
 20
3.51999939E+02
 40
5.00000000E-01
 50
2.69999991E+02
 51
3.59999959E+02
  0
ARC
  8
0
 62
7
 10
7.24999638E+01
 20
3.21619690E+02
 40
5.00000000E-01
 50
2.71000258E+02
 51
3.59999959E+02
  0
CIRCLE
  8
0
 62
2
 10
-8.99999828E+01
 20
3.88500000E+02
 40
1.04775000E+01
  0
CIRCLE
  8
0
 62
7
 10
-8.99999523E+01
 20
3.88500000E+02
 40
1.10000000E+01
  0
ARC
  8
0
 62
7
 10
-1.03999937E+02
 20
3.43500092E+02
 40
2.00000000E+00
 50
1.79999977E+02
 51
2.70000028E+02
  0
ARC
  8
0
 62
7
 10
-1.03999937E+02
 20
4.09500061E+02
 40
2.00000000E+00
 50
8.99999818E+01
 51
1.79999951E+02
  0
CIRCLE
  8
0
 62
7
 10
-8.99999523E+01
 20
3.88500061E+02
 40
9.25000000E+00
  0
ARC
  8
0
 62
7
 10
-1.09499952E+02
 20
3.21619751E+02
 40
5.00000000E-01
 50
1.79999977E+02
 51
2.68999679E+02
  0
ARC
  8
0
 62
7
 10
-4.12499907E+02
 20
3.54000061E+02
 40
5.00000000E-01
 50
1.79999977E+02
 51
2.69999974E+02
  0
ARC
  8
0
 62
7
 10
-3.93499876E+02
 20
3.52000061E+02
 40
5.00000000E-01
 50
1.79999977E+02
 51
2.69999974E+02
  0
ARC
  8
0
 62
7
 10
-4.07499907E+02
 20
3.52971832E+02
 40
5.00000000E-01
 50
1.79999977E+02
 51
2.67999192E+02
  0
ARC
  8
0
 62
7
 10
-3.93499876E+02
 20
4.01000061E+02
 40
5.00000000E-01
 50
8.99999818E+01
 51
1.79999951E+02
  0
ARC
  8
0
 62
7
 10
-4.07499907E+02
 20
4.00028320E+02
 40
5.00000000E-01
 50
9.20007356E+01
 51
1.79999951E+02
  0
ARC
  8
0
 62
7
 10
-4.12499907E+02
 20
3.99000061E+02
 40
5.00000000E-01
 50
8.99999818E+01
 51
1.79999951E+02
  0
ARC
  8
0
 62
7
 10
-1.09499952E+02
 20
4.31380310E+02
 40
5.00000000E-01
 50
9.10002493E+01
 51
1.79999951E+02
  0
CIRCLE
  8
0
 62
7
 10
4.39999638E+01
 20
3.58500000E+02
 40
5.00000000E+00
  0
CIRCLE
  8
0
 62
7
 10
4.39999638E+01
 20
3.58500000E+02
 40
2.59999990E+00
  0
CIRCLE
  8
0
 62
7
 10
-8.09999676E+01
 20
3.58499969E+02
 40
5.00000000E+00
  0
CIRCLE
  8
0
 62
7
 10
-8.09999676E+01
 20
3.58499969E+02
 40
2.59999990E+00
  0
CIRCLE
  8
0
 62
2
 10
-2.66999968E+02
 20
3.76500000E+02
 40
1.55000010E+01
  0
CIRCLE
  8
0
 62
7
 10
-2.66999968E+02
 20
3.76500000E+02
 40
1.25000010E+01
  0
ARC
  8
0
 62
7
 10
-2.00212523E+02
 20
3.00525116E+02
 40
2.52511263E+00
 50
2.53478180E+02
 51
3.13479049E+02
  0
ARC
  8
0
 62
7
 10
-1.89787504E+02
 20
4.52474854E+02
 40
2.52511263E+00
 50
7.34781915E+01
 51
1.33479081E+02
  0
ARC
  8
0
 62
7
 10
-2.00212523E+02
 20
4.52474854E+02
 40
2.52511263E+00
 50
4.65210741E+01
 51
1.06521937E+02
  0
ARC
  8
0
 62
7
 10
-1.95000059E+02
 20
4.45938782E+02
 40
9.06113625E+00
 50
6.74491016E+01
 51
1.12551013E+02
  0
ARC
  8
0
 62
7
 10
-1.89787504E+02
 20
3.00525116E+02
 40
2.52511263E+00
 50
2.26521028E+02
 51
2.86521911E+02
  0
CIRCLE
  8
0
 62
7
 10
-1.63999937E+02
 20
3.91500000E+02
 40
5.72250080E+00
  0
CIRCLE
  8
0
 62
7
 10
-1.63999937E+02
 20
3.91500000E+02
 40
6.57850027E+00
  0
ARC
  8
0
 62
7
 10
-1.95000059E+02
 20
3.07061096E+02
 40
9.06113625E+00
 50
2.47449090E+02
 51
2.92551001E+02
  0
CIRCLE
  8
0
 62
7
 10
-3.69999998E+02
 20
3.91500000E+02
 40
5.72250080E+00
  0
CIRCLE
  8
0
 62
7
 10
-3.69999998E+02
 20
3.91500000E+02
 40
6.57850027E+00
  0
CIRCLE
  8
0
 62
2
 10
-2.66999968E+02
 20
3.76500000E+02
 40
8.32999992E+00
  0
CIRCLE
  8
0
 62
7
 10
-2.66999968E+02
 20
3.76500000E+02
 40
7.44000053E+00
  0
CIRCLE
  8
0
 62
7
 10
-2.66999968E+02
 20
3.76500000E+02
 40
8.71000004E+00
  0
ARC
  8
0
 62
7
 10
-3.44212431E+02
 20
4.52474854E+02
 40
2.52511263E+00
 50
4.65209375E+01
 51
1.06521820E+02
  0
ARC
  8
0
 62
7
 10
-3.33787413E+02
 20
4.52474854E+02
 40
2.52511263E+00
 50
7.34780821E+01
 51
1.33478944E+02
  0
ARC
  8
0
 62
7
 10
-3.38999968E+02
 20
3.07061096E+02
 40
9.06113625E+00
 50
2.47449035E+02
 51
2.92550946E+02
  0
ARC
  8
0
 62
7
 10
-3.33787413E+02
 20
3.00525116E+02
 40
2.52511263E+00
 50
2.26520987E+02
 51
2.86521856E+02
  0
ARC
  8
0
 62
7
 10
-3.44212431E+02
 20
3.00525116E+02
 40
2.52511263E+00
 50
2.53478125E+02
 51
3.13479008E+02
  0
ARC
  8
0
 62
7
 10
-3.38999968E+02
 20
4.45938782E+02
 40
9.06113625E+00
 50
6.74489921E+01
 51
1.12550903E+02
  0
LINE
  8
0
 62
7
 10
-4.26999937E+02
 20
3.89500000E+02
 11
-4.16999998E+02
 21
3.89500000E+02
  0
LINE
  8
0
 62
7
 10
-7.39999981E+01
 20
3.23000000E+02
 11
9.26454205E-01
 21
3.23000000E+02
  0
LINE
  8
0
 62
7
 10
-4.16999906E+02
 20
3.63500003E+02
 11
-4.14999860E+02
 21
3.61499958E+02
  0
LINE
  8
0
 62
7
 10
-4.14999846E+02
 20
3.61499969E+02
 11
-4.12999937E+02
 21
3.61499969E+02
  0
LINE
  8
0
 62
7
 10
-4.16999996E+02
 20
3.89500071E+02
 11
-4.14999972E+02
 21
3.91500094E+02
  0
LINE
  8
0
 62
7
 10
-4.23999907E+02
 20
3.63500000E+02
 11
-4.23999907E+02
 21
3.89500000E+02
  0
LINE
  8
0
 62
7
 10
-4.14999968E+02
 20
3.91500061E+02
 11
-4.12999907E+02
 21
3.91500061E+02
  0
LINE
  8
0
 62
7
 10
-7.39999981E+01
 20
4.30000000E+02
 11
-4.30735708E+01
 21
4.30000000E+02
  0
LINE
  8
0
 62
7
 10
3.69999943E+01
 20
4.23000031E+02
 11
-2.99999981E+01
 21
4.23000031E+02
  0
LINE
  8
0
 62
7
 10
3.69999943E+01
 20
4.14000000E+02
 11
-2.99999981E+01
 21
4.14000000E+02
  0
LINE
  8
0
  6
CENTER
 62
2
 10
7.57791996E+01
 20
4.18500031E+02
 11
-1.12524473E+02
 21
4.18500031E+02
  0
LINE
  8
0
 62
7
 10
7.49999561E+01
 20
4.00999847E+02
 11
7.49999561E+01
 21
3.51999908E+02
  0
LINE
  8
0
 62
7
 10
6.69999332E+01
 20
3.41500000E+02
 11
3.69999294E+01
 21
3.41500000E+02
  0
LINE
  8
0
 62
7
 10
6.69999332E+01
 20
4.11500000E+02
 11
3.69999294E+01
 21
4.11500000E+02
  0
LINE
  8
0
  6
CENTER
 62
2
 10
5.29999638E+01
 20
3.74394135E+02
 11
5.29999638E+01
 21
4.02323273E+02
  0
LINE
  8
0
 62
7
 10
3.69999943E+01
 20
3.20499756E+02
 11
3.69999943E+01
 21
4.32499969E+02
  0
LINE
  8
0
 62
7
 10
7.25087018E+01
 20
4.31880165E+02
 11
3.69999806E+01
 21
4.32499967E+02
  0
LINE
  8
0
 62
7
 10
7.44999332E+01
 20
4.01500000E+02
 11
7.29999332E+01
 21
4.01500000E+02
  0
LINE
  8
0
 62
7
 10
7.25086493E+01
 20
3.21119601E+02
 11
3.69999510E+01
 21
3.20499789E+02
  0
LINE
  8
0
 62
7
 10
7.29999638E+01
 20
4.31380219E+02
 11
7.29999638E+01
 21
3.21619629E+02
  0
LINE
  8
0
 62
7
 10
7.44999332E+01
 20
3.51500000E+02
 11
7.29999332E+01
 21
3.51500000E+02
  0
LINE
  8
0
  6
CENTER
 62
2
 10
3.92976627E+01
 20
3.88500000E+02
 11
6.70949116E+01
 21
3.88500000E+02
  0
LINE
  8
0
 62
7
 10
6.89999485E+01
 20
3.43499908E+02
 11
6.89999485E+01
 21
4.09499908E+02
  0
LINE
  8
0
 62
7
 10
-3.93999907E+02
 20
3.52000122E+02
 11
-3.93999907E+02
 21
4.01000031E+02
  0
LINE
  8
0
 62
7
 10
-1.03999937E+02
 20
4.11499939E+02
 11
-7.39999523E+01
 21
4.11499939E+02
  0
LINE
  8
0
 62
7
 10
-1.03999937E+02
 20
3.41499969E+02
 11
-7.39999523E+01
 21
3.41499969E+02
  0
LINE
  8
0
  6
CENTER
 62
2
 10
-8.99999828E+01
 20
3.74394165E+02
 11
-8.99999828E+01
 21
4.02323273E+02
  0
LINE
  8
0
 62
7
 10
-7.39999981E+01
 20
4.32500183E+02
 11
-7.39999981E+01
 21
3.20500000E+02
  0
LINE
  8
0
 62
7
 10
-4.07517364E+02
 20
3.52472359E+02
 11
-3.93999908E+02
 21
3.52000319E+02
  0
LINE
  8
0
 62
7
 10
-4.07999907E+02
 20
4.00028320E+02
 11
-4.07999907E+02
 21
3.52971802E+02
  0
LINE
  8
0
 62
7
 10
-4.12499876E+02
 20
3.53499969E+02
 11
-4.07999876E+02
 21
3.53499969E+02
  0
LINE
  8
0
 62
7
 10
-1.09508635E+02
 20
3.21120000E+02
 11
-7.39999313E+01
 21
3.20500193E+02
  0
LINE
  8
0
 62
7
 10
-4.07999907E+02
 20
3.52936768E+02
 11
-4.07999907E+02
 21
3.53000061E+02
  0
LINE
  8
0
 62
7
 10
-3.93499876E+02
 20
3.51499969E+02
 11
-3.91999876E+02
 21
3.51499969E+02
  0
LINE
  8
0
 62
7
 10
-4.07517372E+02
 20
4.00528231E+02
 11
-3.93999915E+02
 21
4.01000271E+02
  0
LINE
  8
0
 62
7
 10
-4.12499876E+02
 20
3.99499969E+02
 11
-4.07999876E+02
 21
3.99499969E+02
  0
LINE
  8
0
 62
7
 10
-1.09508649E+02
 20
4.31880470E+02
 11
-7.39999149E+01
 21
4.32500277E+02
  0
LINE
  8
0
 62
7
 10
-4.07999907E+02
 20
4.00063293E+02
 11
-4.07999907E+02
 21
4.00000061E+02
  0
LINE
  8
0
 62
7
 10
-4.12999907E+02
 20
3.54000061E+02
 11
-4.12999907E+02
 21
3.99000061E+02
  0
LINE
  8
0
 62
7
 10
-1.09999983E+02
 20
3.21619751E+02
 11
-1.09999983E+02
 21
4.31380280E+02
  0
LINE
  8
0
 62
7
 10
-3.93499876E+02
 20
4.01499939E+02
 11
-3.91999876E+02
 21
4.01499939E+02
  0
LINE
  8
0
  6
CENTER
 62
2
 10
-7.62976360E+01
 20
3.88499969E+02
 11
-1.04094908E+02
 21
3.88499969E+02
  0
LINE
  8
0
 62
7
 10
-1.05999968E+02
 20
4.09500061E+02
 11
-1.05999968E+02
 21
3.43500061E+02
  0
LINE
  8
0
 62
7
 10
-4.26999937E+02
 20
3.63500000E+02
 11
-4.26999937E+02
 21
3.89500000E+02
  0
LINE
  8
0
 62
7
 10
4.57322701E+01
 20
3.58499871E+02
 11
4.48662309E+01
 21
3.56999838E+02
  0
LINE
  8
0
 62
7
 10
4.48659992E+01
 20
3.56999969E+02
 11
4.31339130E+01
 21
3.56999969E+02
  0
LINE
  8
0
 62
7
 10
4.31339564E+01
 20
3.56999935E+02
 11
4.22678868E+01
 21
3.58500021E+02
  0
LINE
  8
0
 62
7
 10
4.22682565E+01
 20
3.58499770E+02
 11
4.31342652E+01
 21
3.59999750E+02
  0
LINE
  8
0
 62
7
 10
4.48659992E+01
 20
3.60000000E+02
 11
4.31339130E+01
 21
3.60000000E+02
  0
LINE
  8
0
 62
7
 10
4.57321220E+01
 20
3.58499872E+02
 11
4.48660981E+01
 21
3.59999878E+02
  0
LINE
  8
0
 62
7
 10
3.69999943E+01
 20
3.29999969E+02
 11
1.39999981E+01
 21
3.29999969E+02
  0
LINE
  8
0
 62
7
 10
3.69999943E+01
 20
3.39000000E+02
 11
2.89999981E+01
 21
3.39000000E+02
  0
LINE
  8
0
  6
CENTER
 62
2
 10
7.57791996E+01
 20
3.34500000E+02
 11
-1.12524473E+02
 21
3.34500000E+02
  0
LINE
  8
0
 62
7
 10
-4.29999937E+02
 20
3.64320007E+02
 11
-4.26999937E+02
 21
3.64320007E+02
  0
LINE
  8
0
 62
7
 10
-4.29999937E+02
 20
3.88679962E+02
 11
-4.26999937E+02
 21
3.88679962E+02
  0
LINE
  8
0
 62
2
 10
-4.66319975E+02
 20
3.64320007E+02
 11
-4.55499937E+02
 21
3.64320007E+02
  0
LINE
  8
0
 62
7
 10
-4.66999951E+02
 20
3.64999949E+02
 11
-4.65499939E+02
 21
3.63499937E+02
  0
LINE
  8
0
 62
7
 10
-4.65499968E+02
 20
3.63500000E+02
 11
-4.55499937E+02
 21
3.63500000E+02
  0
LINE
  8
0
 62
2
 10
-4.66319975E+02
 20
3.88679962E+02
 11
-4.55499937E+02
 21
3.88679962E+02
  0
LINE
  8
0
 62
7
 10
-4.66999789E+02
 20
3.87999812E+02
 11
-4.65499774E+02
 21
3.89499827E+02
  0
LINE
  8
0
 62
7
 10
-4.65499937E+02
 20
3.63500000E+02
 11
-4.65499937E+02
 21
3.89500000E+02
  0
LINE
  8
0
 62
7
 10
-4.65499968E+02
 20
3.89499969E+02
 11
-4.55499937E+02
 21
3.89499969E+02
  0
LINE
  8
0
 62
7
 10
-4.29999937E+02
 20
3.63500000E+02
 11
-4.29999937E+02
 21
3.89500000E+02
  0
LINE
  8
0
 62
7
 10
-4.66999937E+02
 20
3.64999939E+02
 11
-4.66999937E+02
 21
3.87999695E+02
  0
LINE
  8
0
  6
CENTER
 62
2
 10
3.58053951E+01
 20
3.58500000E+02
 11
5.20744038E+01
 21
3.58500000E+02
  0
LINE
  8
0
  6
CENTER
 62
2
 10
4.39999638E+01
 20
3.66047729E+02
 11
4.39999638E+01
 21
3.51434357E+02
  0
LINE
  8
0
 62
7
 10
-8.18659041E+01
 20
3.56999959E+02
 11
-8.27319737E+01
 21
3.58500044E+02
  0
LINE
  8
0
 62
7
 10
-8.01339550E+01
 20
3.56999969E+02
 11
-8.18660259E+01
 21
3.56999969E+02
  0
LINE
  8
0
 62
7
 10
-7.92677200E+01
 20
3.58499851E+02
 11
-8.01337592E+01
 21
3.56999818E+02
  0
LINE
  8
0
 62
7
 10
-4.26999937E+02
 20
3.63500000E+02
 11
-4.16999907E+02
 21
3.63500000E+02
  0
LINE
  8
0
  6
CENTER
 62
2
 10
-8.91945477E+01
 20
3.58499969E+02
 11
-7.29255505E+01
 21
3.58499969E+02
  0
LINE
  8
0
  6
CENTER
 62
2
 10
-8.09999676E+01
 20
3.66047729E+02
 11
-8.09999676E+01
 21
3.51434357E+02
  0
LINE
  8
0
 62
7
 10
-8.27317488E+01
 20
3.58499724E+02
 11
-8.18657402E+01
 21
3.59999704E+02
  0
LINE
  8
0
 62
7
 10
-8.01339550E+01
 20
3.59999969E+02
 11
-8.18660259E+01
 21
3.59999969E+02
  0
LINE
  8
0
 62
7
 10
-7.92678748E+01
 20
3.58499887E+02
 11
-8.01338987E+01
 21
3.59999894E+02
  0
LINE
  8
0
 62
7
 10
-1.98300399E+02
 20
2.96999505E+02
 11
-1.99000406E+02
 21
2.97699512E+02
  0
LINE
  8
0
 62
7
 10
-1.90999648E+02
 20
2.97700003E+02
 11
-1.91699601E+02
 21
2.97000050E+02
  0
LINE
  8
0
 62
7
 10
-1.91000029E+02
 20
2.97699921E+02
 11
-1.99000044E+02
 21
2.97699921E+02
  0
LINE
  8
0
 62
2
 10
-1.98300032E+02
 20
2.98000000E+02
 11
-1.98300032E+02
 21
2.97000000E+02
  0
LINE
  8
0
 62
2
 10
-1.91699995E+02
 20
2.98000000E+02
 11
-1.91699995E+02
 21
2.97000000E+02
  0
LINE
  8
0
 62
7
 10
-1.98999998E+02
 20
2.98000000E+02
 11
-1.98999998E+02
 21
2.97700012E+02
  0
LINE
  8
0
 62
7
 10
-1.90999983E+02
 20
2.98000000E+02
 11
-1.90999983E+02
 21
2.97700012E+02
  0
LINE
  8
0
 62
7
 10
-1.98475035E+02
 20
3.04500000E+02
 11
-1.98475035E+02
 21
2.98692810E+02
  0
LINE
  8
0
 62
7
 10
-1.91524992E+02
 20
3.04500000E+02
 11
-1.91524992E+02
 21
2.98692810E+02
  0
LINE
  8
0
 62
7
 10
-1.88049855E+02
 20
2.98692797E+02
 11
-1.89249804E+02
 21
2.98000006E+02
  0
LINE
  8
0
 62
7
 10
-2.00750279E+02
 20
2.97999532E+02
 11
-2.01950288E+02
 21
2.98692357E+02
  0
LINE
  8
0
 62
7
 10
-1.88050016E+02
 20
3.04500000E+02
 11
-1.88050016E+02
 21
2.98692810E+02
  0
LINE
  8
0
 62
7
 10
-2.01950010E+02
 20
3.04500000E+02
 11
-2.01950010E+02
 21
2.98692810E+02
  0
LINE
  8
0
 62
7
 10
-1.89250044E+02
 20
2.97999939E+02
 11
-2.00750074E+02
 21
2.97999939E+02
  0
LINE
  8
0
 62
7
 10
-1.91700041E+02
 20
2.97000000E+02
 11
-1.98300032E+02
 21
2.97000000E+02
  0
LINE
  8
0
 62
7
 10
-1.86999998E+02
 20
3.09499969E+02
 11
-1.86999998E+02
 21
3.04500000E+02
  0
LINE
  8
0
 62
7
 10
-2.02999983E+02
 20
3.09499969E+02
 11
-2.02999983E+02
 21
3.04500000E+02
  0
LINE
  8
0
 62
7
 10
-1.87000044E+02
 20
3.04500000E+02
 11
-2.02999983E+02
 21
3.04500000E+02
  0
LINE
  8
0
  6
CENTER
 62
2
 10
-1.95000059E+02
 20
3.12478271E+02
 11
-1.95000059E+02
 21
2.93912354E+02
  0
LINE
  8
0
 62
7
 10
-1.98299633E+02
 20
4.55999987E+02
 11
-1.98999629E+02
 21
4.55299990E+02
  0
LINE
  8
0
 62
7
 10
-1.91000473E+02
 20
4.55299526E+02
 11
-1.91700480E+02
 21
4.55999534E+02
  0
LINE
  8
0
 62
7
 10
-1.91000029E+02
 20
4.55299988E+02
 11
-1.99000044E+02
 21
4.55299988E+02
  0
LINE
  8
0
 62
2
 10
-1.98300032E+02
 20
4.54999969E+02
 11
-1.98300032E+02
 21
4.55999969E+02
  0
LINE
  8
0
 62
2
 10
-1.91699995E+02
 20
4.54999969E+02
 11
-1.91699995E+02
 21
4.55999969E+02
  0
LINE
  8
0
 62
7
 10
-1.98999998E+02
 20
4.54999969E+02
 11
-1.98999998E+02
 21
4.55299957E+02
  0
LINE
  8
0
 62
7
 10
-1.90999983E+02
 20
4.54999969E+02
 11
-1.90999983E+02
 21
4.55299957E+02
  0
LINE
  8
0
 62
7
 10
-1.98475035E+02
 20
4.48499969E+02
 11
-1.98475035E+02
 21
4.54307159E+02
  0
LINE
  8
0
 62
7
 10
-1.91524992E+02
 20
4.48499969E+02
 11
-1.91524992E+02
 21
4.54307159E+02
  0
LINE
  8
0
 62
7
 10
-1.88050329E+02
 20
4.54306545E+02
 11
-1.89250258E+02
 21
4.54999325E+02
  0
LINE
  8
0
 62
7
 10
-2.00749933E+02
 20
4.54999665E+02
 11
-2.01949922E+02
 21
4.54306852E+02
  0
LINE
  8
0
 62
7
 10
-1.88050016E+02
 20
4.48499969E+02
 11
-1.88050016E+02
 21
4.54307159E+02
  0
LINE
  8
0
 62
7
 10
-2.01950010E+02
 20
4.48499969E+02
 11
-2.01950010E+02
 21
4.54307159E+02
  0
LINE
  8
0
 62
7
 10
-1.89250044E+02
 20
4.54999969E+02
 11
-2.00750074E+02
 21
4.54999969E+02
  0
LINE
  8
0
 62
7
 10
-1.91700041E+02
 20
4.55999969E+02
 11
-1.98300032E+02
 21
4.55999969E+02
  0
LINE
  8
0
 62
7
 10
-1.86999998E+02
 20
4.43499939E+02
 11
-1.86999998E+02
 21
4.48499969E+02
  0
LINE
  8
0
 62
7
 10
-2.02999983E+02
 20
4.43499939E+02
 11
-2.02999983E+02
 21
4.48499969E+02
  0
LINE
  8
0
 62
7
 10
-1.87000044E+02
 20
4.48499969E+02
 11
-2.02999983E+02
 21
4.48499969E+02
  0
LINE
  8
0
  6
CENTER
 62
2
 10
-1.95000059E+02
 20
4.41611359E+02
 11
-1.95000059E+02
 21
4.58587616E+02
  0
LINE
  8
0
  6
CENTER
 62
2
 10
-1.54940016E+02
 20
3.91500000E+02
 11
-1.73284895E+02
 21
3.91500000E+02
  0
LINE
  8
0
 62
7
 10
-1.66999983E+02
 20
3.93232086E+02
 11
-1.66999983E+02
 21
3.89767975E+02
  0
LINE
  8
0
 62
7
 10
-1.66998860E+02
 20
3.89769731E+02
 11
-1.63998953E+02
 21
3.88037745E+02
  0
LINE
  8
0
 62
7
 10
-1.64000419E+02
 20
3.88037041E+02
 11
-1.61000439E+02
 21
3.89769069E+02
  0
LINE
  8
0
 62
7
 10
-1.60999983E+02
 20
3.89767975E+02
 11
-1.60999983E+02
 21
3.93232086E+02
  0
LINE
  8
0
 62
7
 10
-1.63998877E+02
 20
3.94966069E+02
 11
-1.60998890E+02
 21
3.93234037E+02
  0
LINE
  8
0
 62
7
 10
-1.67000471E+02
 20
3.93233163E+02
 11
-1.64000366E+02
 21
3.94965264E+02
  0
LINE
  8
0
  6
CENTER
 62
2
 10
-1.63999937E+02
 20
4.00779022E+02
 11
-1.63999937E+02
 21
3.82213226E+02
  0
LINE
  8
0
 62
7
 10
-3.92000029E+02
 20
4.35829620E+02
 11
-3.55999968E+02
 21
4.35829620E+02
  0
LINE
  8
0
 62
7
 10
-3.92000029E+02
 20
3.17170410E+02
 11
-3.55999968E+02
 21
3.17170410E+02
  0
LINE
  8
0
 62
7
 10
-1.78000044E+02
 20
3.17170410E+02
 11
-1.09999983E+02
 21
3.17170410E+02
  0
LINE
  8
0
 62
7
 10
-1.78000044E+02
 20
4.35829620E+02
 11
-1.09999983E+02
 21
4.35829620E+02
  0
LINE
  8
0
  6
CENTER
 62
2
 10
-4.02076323E+02
 20
4.28499939E+02
 11
-1.02375975E+02
 21
4.28499939E+02
  0
LINE
  8
0
 62
7
 10
-3.55999968E+02
 20
4.23000000E+02
 11
-1.77999998E+02
 21
4.23000000E+02
  0
LINE
  8
0
 62
7
 10
-3.55999968E+02
 20
4.33999969E+02
 11
-1.77999998E+02
 21
4.33999969E+02
  0
LINE
  8
0
 62
7
 10
-3.55999968E+02
 20
3.19000000E+02
 11
-1.77999998E+02
 21
3.19000000E+02
  0
LINE
  8
0
 62
7
 10
-3.55999968E+02
 20
3.30000000E+02
 11
-1.77999998E+02
 21
3.30000000E+02
  0
LINE
  8
0
  6
CENTER
 62
2
 10
-4.02076323E+02
 20
3.24499969E+02
 11
-1.02375975E+02
 21
3.24499969E+02
  0
LINE
  8
0
  6
CENTER
 62
2
 10
-3.79059965E+02
 20
3.91500000E+02
 11
-3.60715025E+02
 21
3.91500000E+02
  0
LINE
  8
0
 62
7
 10
-3.66999998E+02
 20
3.93232086E+02
 11
-3.66999998E+02
 21
3.89767975E+02
  0
LINE
  8
0
 62
7
 10
-3.67001323E+02
 20
3.89770188E+02
 11
-3.70001349E+02
 21
3.88038132E+02
  0
LINE
  8
0
 62
7
 10
-3.70000039E+02
 20
3.88036567E+02
 11
-3.72999946E+02
 21
3.89768554E+02
  0
LINE
  8
0
 62
7
 10
-3.72999907E+02
 20
3.89767975E+02
 11
-3.72999907E+02
 21
3.93232086E+02
  0
LINE
  8
0
 62
7
 10
-3.70001361E+02
 20
3.94966529E+02
 11
-3.73001368E+02
 21
3.93234485E+02
  0
LINE
  8
0
 62
7
 10
-3.66999834E+02
 20
3.93232618E+02
 11
-3.69999899E+02
 21
3.94964696E+02
  0
LINE
  8
0
  6
CENTER
 62
2
 10
-3.69999998E+02
 20
4.00779022E+02
 11
-3.69999998E+02
 21
3.82213226E+02
  0
LINE
  8
0
 62
7
 10
-1.77999998E+02
 20
4.45500000E+02
 11
-1.09999983E+02
 21
4.45500000E+02
  0
LINE
  8
0
 62
7
 10
-1.77999952E+02
 20
3.07500000E+02
 11
-1.09999983E+02
 21
3.07500000E+02
  0
LINE
  8
0
  6
CENTER
 62
2
 10
-2.66999968E+02
 20
3.55000458E+02
 11
-2.66999968E+02
 21
3.99087708E+02
  0
LINE
  8
0
 62
7
 10
-1.09999983E+02
 20
4.45500000E+02
 11
-1.09999983E+02
 21
3.07500000E+02
  0
LINE
  8
0
  6
CENTER
 62
2
 10
-4.75145475E+02
 20
3.76500000E+02
 11
8.21826878E+01
 21
3.76500000E+02
  0
LINE
  8
0
 62
7
 10
-3.55999968E+02
 20
4.43499939E+02
 11
-1.77999952E+02
 21
4.43499939E+02
  0
LINE
  8
0
 62
7
 10
-3.91999937E+02
 20
4.45500000E+02
 11
-3.91999937E+02
 21
3.07500000E+02
  0
LINE
  8
0
 62
7
 10
-3.92000029E+02
 20
4.45500000E+02
 11
-3.55999968E+02
 21
4.45500000E+02
  0
LINE
  8
0
 62
7
 10
-1.77999998E+02
 20
4.45500000E+02
 11
-1.77999998E+02
 21
3.07500000E+02
  0
LINE
  8
0
 62
7
 10
-3.55999968E+02
 20
4.45500000E+02
 11
-3.55999968E+02
 21
3.07500000E+02
  0
LINE
  8
0
 62
7
 10
-3.92000029E+02
 20
3.07500000E+02
 11
-3.55999968E+02
 21
3.07500000E+02
  0
LINE
  8
0
  6
CENTER
 62
2
 10
-3.38999968E+02
 20
4.41611359E+02
 11
-3.38999968E+02
 21
4.58587616E+02
  0
LINE
  8
0
 62
7
 10
-3.55999968E+02
 20
3.09499969E+02
 11
-1.77999952E+02
 21
3.09499969E+02
  0
LINE
  8
0
  6
CENTER
 62
2
 10
-3.38999968E+02
 20
3.12478271E+02
 11
-3.38999968E+02
 21
2.93912354E+02
  0
LINE
  8
0
 62
7
 10
-3.42474974E+02
 20
4.48499969E+02
 11
-3.42474974E+02
 21
4.54307159E+02
  0
LINE
  8
0
 62
7
 10
-3.35700056E+02
 20
4.56000111E+02
 11
-3.35000113E+02
 21
4.55300168E+02
  0
LINE
  8
0
 62
7
 10
-3.42999555E+02
 20
4.55299613E+02
 11
-3.42299548E+02
 21
4.55999620E+02
  0
LINE
  8
0
 62
7
 10
-3.42999907E+02
 20
4.55299988E+02
 11
-3.34999937E+02
 21
4.55299988E+02
  0
LINE
  8
0
 62
2
 10
-3.35699949E+02
 20
4.54999969E+02
 11
-3.35699949E+02
 21
4.55999969E+02
  0
LINE
  8
0
 62
2
 10
-3.42299986E+02
 20
4.54999969E+02
 11
-3.42299986E+02
 21
4.55999969E+02
  0
LINE
  8
0
 62
7
 10
-3.34999937E+02
 20
4.54999969E+02
 11
-3.34999937E+02
 21
4.55299957E+02
  0
LINE
  8
0
 62
7
 10
-3.42999937E+02
 20
4.54999969E+02
 11
-3.42999937E+02
 21
4.55299957E+02
  0
LINE
  8
0
 62
7
 10
-3.35524900E+02
 20
4.48499969E+02
 11
-3.35524900E+02
 21
4.54307159E+02
  0
LINE
  8
0
 62
7
 10
-3.45949506E+02
 20
4.54306350E+02
 11
-3.44749497E+02
 21
4.54999175E+02
  0
LINE
  8
0
 62
7
 10
-3.33250134E+02
 20
4.54999749E+02
 11
-3.32050099E+02
 21
4.54306908E+02
  0
LINE
  8
0
 62
7
 10
-3.45949858E+02
 20
4.48499969E+02
 11
-3.45949858E+02
 21
4.54307159E+02
  0
LINE
  8
0
 62
7
 10
-3.32049925E+02
 20
4.48499969E+02
 11
-3.32049925E+02
 21
4.54307159E+02
  0
LINE
  8
0
 62
7
 10
-3.44749937E+02
 20
4.54999969E+02
 11
-3.33249907E+02
 21
4.54999969E+02
  0
LINE
  8
0
 62
7
 10
-3.42299986E+02
 20
4.55999969E+02
 11
-3.35699949E+02
 21
4.55999969E+02
  0
LINE
  8
0
 62
7
 10
-3.46999968E+02
 20
4.43499939E+02
 11
-3.46999968E+02
 21
4.48499969E+02
  0
LINE
  8
0
 62
7
 10
-3.30999937E+02
 20
4.43499939E+02
 11
-3.30999937E+02
 21
4.48499969E+02
  0
LINE
  8
0
 62
7
 10
-3.46999876E+02
 20
4.48499969E+02
 11
-3.30999937E+02
 21
4.48499969E+02
  0
LINE
  8
0
 62
7
 10
-3.35699474E+02
 20
2.96999552E+02
 11
-3.34999475E+02
 21
2.97699551E+02
  0
LINE
  8
0
 62
7
 10
-3.43000060E+02
 20
2.97700270E+02
 11
-3.42300053E+02
 21
2.97000263E+02
  0
LINE
  8
0
 62
7
 10
-3.42999907E+02
 20
2.97699921E+02
 11
-3.34999937E+02
 21
2.97699921E+02
  0
LINE
  8
0
 62
2
 10
-3.35699949E+02
 20
2.98000000E+02
 11
-3.35699949E+02
 21
2.97000000E+02
  0
LINE
  8
0
 62
2
 10
-3.42299986E+02
 20
2.98000000E+02
 11
-3.42299986E+02
 21
2.97000000E+02
  0
LINE
  8
0
 62
7
 10
-3.34999937E+02
 20
2.98000000E+02
 11
-3.34999937E+02
 21
2.97700012E+02
  0
LINE
  8
0
 62
7
 10
-3.42999937E+02
 20
2.98000000E+02
 11
-3.42999937E+02
 21
2.97700012E+02
  0
LINE
  8
0
 62
7
 10
-3.35524900E+02
 20
3.04500000E+02
 11
-3.35524900E+02
 21
2.98692810E+02
  0
LINE
  8
0
 62
7
 10
-3.42474974E+02
 20
3.04500000E+02
 11
-3.42474974E+02
 21
2.98692810E+02
  0
LINE
  8
0
 62
7
 10
-3.45950251E+02
 20
2.98692752E+02
 11
-3.44750321E+02
 21
2.97999973E+02
  0
LINE
  8
0
 62
7
 10
-3.33249586E+02
 20
2.97999495E+02
 11
-3.32049577E+02
 21
2.98692321E+02
  0
LINE
  8
0
 62
7
 10
-3.45949858E+02
 20
3.04500000E+02
 11
-3.45949858E+02
 21
2.98692810E+02
  0
LINE
  8
0
 62
7
 10
-3.32049925E+02
 20
3.04500000E+02
 11
-3.32049925E+02
 21
2.98692810E+02
  0
LINE
  8
0
 62
7
 10
-3.44749937E+02
 20
2.97999939E+02
 11
-3.33249907E+02
 21
2.97999939E+02
  0
LINE
  8
0
 62
7
 10
-3.42299986E+02
 20
2.97000000E+02
 11
-3.35699949E+02
 21
2.97000000E+02
  0
LINE
  8
0
 62
7
 10
-3.46999968E+02
 20
3.09499969E+02
 11
-3.46999968E+02
 21
3.04500000E+02
  0
LINE
  8
0
 62
7
 10
-3.30999937E+02
 20
3.09499969E+02
 11
-3.30999937E+02
 21
3.04500000E+02
  0
LINE
  8
0
 62
7
 10
-3.46999876E+02
 20
3.04500000E+02
 11
-3.30999937E+02
 21
3.04500000E+02
  0
LINE
  8
0
  6
CENTER
 62
6
 10
-7.47003279E+01
 20
-3.77007385E+02
 11
-7.47003279E+01
 21
-3.81580875E+02
  0
LINE
  8
0
 62
4
 10
-1.17700328E+02
 20
-3.69882945E+02
 11
-1.12700328E+02
 21
-3.69882945E+02
  0
LINE
  8
0
 62
4
 10
-1.17700328E+02
 20
-3.63737272E+02
 11
-1.12700328E+02
 21
-3.63737272E+02
  0
LINE
  8
0
 62
4
 10
-1.17700328E+02
 20
-3.56930901E+02
 11
-1.12700328E+02
 21
-3.56930901E+02
  0
LINE
  8
0
 62
6
 10
-9.24152627E+01
 20
-3.85887881E+02
 11
-8.89853930E+01
 21
-3.82458006E+02
  0
LINE
  8
0
 62
6
 10
-8.89853906E+01
 20
-3.85887878E+02
 11
-9.24152652E+01
 21
-3.82458009E+02
  0
POLYLINE
  8
0
 62
4
 66
1
  0
VERTEX
  8
0
 62
4
 10
-9.40771025E+01
 20
-3.85076675E+02
  0
VERTEX
  8
0
 62
4
 10
-9.40989835E+01
 20
-3.85349587E+02
  0
VERTEX
  8
0
 62
4
 10
-9.40940649E+01
 20
-3.85623182E+02
  0
VERTEX
  8
0
 62
4
 10
-9.40623853E+01
 20
-3.85895303E+02
  0
VERTEX
  8
0
 62
4
 10
-9.40041947E+01
 20
-3.86163803E+02
  0
VERTEX
  8
0
 62
4
 10
-9.39199519E+01
 20
-3.86426567E+02
  0
VERTEX
  8
0
 62
4
 10
-9.38103212E+01
 20
-3.86681522E+02
  0
VERTEX
  8
0
 62
4
 10
-9.36761670E+01
 20
-3.86926657E+02
  0
VERTEX
  8
0
 62
4
 10
-9.35185472E+01
 20
-3.87160039E+02
  0
VERTEX
  8
0
 62
4
 10
-9.33387047E+01
 20
-3.87379829E+02
  0
VERTEX
  8
0
 62
4
 10
-9.31380576E+01
 20
-3.87584292E+02
  0
VERTEX
  8
0
 62
4
 10
-9.29181881E+01
 20
-3.87771818E+02
  0
VERTEX
  8
0
 62
4
 10
-9.26808299E+01
 20
-3.87940926E+02
  0
VERTEX
  8
0
 62
4
 10
-9.24278548E+01
 20
-3.88090284E+02
  0
VERTEX
  8
0
 62
4
 10
-9.21612575E+01
 20
-3.88218714E+02
  0
VERTEX
  8
0
 62
4
 10
-9.18831402E+01
 20
-3.88325203E+02
  0
VERTEX
  8
0
 62
4
 10
-9.15956959E+01
 20
-3.88408911E+02
  0
VERTEX
  8
0
 62
4
 10
-9.13011914E+01
 20
-3.88469179E+02
  0
VERTEX
  8
0
 62
4
 10
-9.10019489E+01
 20
-3.88505530E+02
  0
VERTEX
  8
0
 62
4
 10
-9.07003279E+01
 20
-3.88517679E+02
  0
VERTEX
  8
0
 62
4
 10
-9.03987069E+01
 20
-3.88505530E+02
  0
VERTEX
  8
0
 62
4
 10
-9.00994644E+01
 20
-3.88469179E+02
  0
VERTEX
  8
0
 62
4
 10
-8.98049599E+01
 20
-3.88408911E+02
  0
VERTEX
  8
0
 62
4
 10
-8.95175156E+01
 20
-3.88325203E+02
  0
VERTEX
  8
0
 62
4
 10
-8.92393983E+01
 20
-3.88218714E+02
  0
VERTEX
  8
0
 62
4
 10
-8.89728010E+01
 20
-3.88090284E+02
  0
VERTEX
  8
0
 62
4
 10
-8.87198259E+01
 20
-3.87940926E+02
  0
VERTEX
  8
0
 62
4
 10
-8.84824677E+01
 20
-3.87771818E+02
  0
VERTEX
  8
0
 62
4
 10
-8.82625982E+01
 20
-3.87584292E+02
  0
VERTEX
  8
0
 62
4
 10
-8.80619511E+01
 20
-3.87379829E+02
  0
VERTEX
  8
0
 62
4
 10
-8.78821086E+01
 20
-3.87160039E+02
  0
VERTEX
  8
0
 62
4
 10
-8.77244888E+01
 20
-3.86926657E+02
  0
VERTEX
  8
0
 62
4
 10
-8.75903346E+01
 20
-3.86681522E+02
  0
VERTEX
  8
0
 62
4
 10
-8.74807039E+01
 20
-3.86426567E+02
  0
VERTEX
  8
0
 62
4
 10
-8.73964611E+01
 20
-3.86163803E+02
  0
VERTEX
  8
0
 62
4
 10
-8.73382705E+01
 20
-3.85895303E+02
  0
VERTEX
  8
0
 62
4
 10
-8.73065909E+01
 20
-3.85623182E+02
  0
VERTEX
  8
0
 62
4
 10
-8.73016723E+01
 20
-3.85349587E+02
  0
VERTEX
  8
0
 62
4
 10
-8.73235533E+01
 20
-3.85076675E+02
  0
SEQEND
  8
0
  0
POLYLINE
  8
0
 62
4
 66
1
  0
VERTEX
  8
0
 62
4
 10
-8.73003279E+01
 20
-3.84706242E+02
  0
VERTEX
  8
0
 62
4
 10
-8.73132659E+01
 20
-3.84429554E+02
  0
VERTEX
  8
0
 62
4
 10
-8.73519815E+01
 20
-3.84154971E+02
  0
VERTEX
  8
0
 62
4
 10
-8.74161801E+01
 20
-3.83884585E+02
  0
VERTEX
  8
0
 62
4
 10
-8.75053730E+01
 20
-3.83620451E+02
  0
VERTEX
  8
0
 62
4
 10
-8.76188814E+01
 20
-3.83364581E+02
  0
VERTEX
  8
0
 62
4
 10
-8.77558415E+01
 20
-3.83118922E+02
  0
VERTEX
  8
0
 62
4
 10
-8.79152109E+01
 20
-3.82885343E+02
  0
VERTEX
  8
0
 62
4
 10
-8.80957768E+01
 20
-3.82665622E+02
  0
VERTEX
  8
0
 62
4
 10
-8.82961648E+01
 20
-3.82461432E+02
  0
VERTEX
  8
0
 62
4
 10
-8.85148500E+01
 20
-3.82274326E+02
  0
VERTEX
  8
0
 62
4
 10
-8.87501680E+01
 20
-3.82105729E+02
  0
VERTEX
  8
0
 62
4
 10
-8.90003279E+01
 20
-3.81956922E+02
  0
VERTEX
  8
0
 62
4
 10
-8.92634258E+01
 20
-3.81829040E+02
  0
VERTEX
  8
0
 62
4
 10
-8.95374594E+01
 20
-3.81723056E+02
  0
VERTEX
  8
0
 62
4
 10
-8.98203431E+01
 20
-3.81639775E+02
  0
VERTEX
  8
0
 62
4
 10
-9.01099241E+01
 20
-3.81579831E+02
  0
VERTEX
  8
0
 62
4
 10
-9.04039984E+01
 20
-3.81543682E+02
  0
VERTEX
  8
0
 62
4
 10
-9.07003279E+01
 20
-3.81531601E+02
  0
VERTEX
  8
0
 62
4
 10
-9.09966574E+01
 20
-3.81543682E+02
  0
VERTEX
  8
0
 62
4
 10
-9.12907317E+01
 20
-3.81579831E+02
  0
VERTEX
  8
0
 62
4
 10
-9.15803127E+01
 20
-3.81639775E+02
  0
VERTEX
  8
0
 62
4
 10
-9.18631964E+01
 20
-3.81723056E+02
  0
VERTEX
  8
0
 62
4
 10
-9.21372300E+01
 20
-3.81829040E+02
  0
VERTEX
  8
0
 62
4
 10
-9.24003279E+01
 20
-3.81956922E+02
  0
VERTEX
  8
0
 62
4
 10
-9.26504878E+01
 20
-3.82105729E+02
  0
VERTEX
  8
0
 62
4
 10
-9.28858058E+01
 20
-3.82274326E+02
  0
VERTEX
  8
0
 62
4
 10
-9.31044910E+01
 20
-3.82461432E+02
  0
VERTEX
  8
0
 62
4
 10
-9.33048790E+01
 20
-3.82665622E+02
  0
VERTEX
  8
0
 62
4
 10
-9.34854449E+01
 20
-3.82885343E+02
  0
VERTEX
  8
0
 62
4
 10
-9.36448143E+01
 20
-3.83118922E+02
  0
VERTEX
  8
0
 62
4
 10
-9.37817744E+01
 20
-3.83364581E+02
  0
VERTEX
  8
0
 62
4
 10
-9.38952828E+01
 20
-3.83620451E+02
  0
VERTEX
  8
0
 62
4
 10
-9.39844757E+01
 20
-3.83884585E+02
  0
VERTEX
  8
0
 62
4
 10
-9.40486743E+01
 20
-3.84154971E+02
  0
VERTEX
  8
0
 62
4
 10
-9.40873899E+01
 20
-3.84429554E+02
  0
VERTEX
  8
0
 62
4
 10
-9.41003279E+01
 20
-3.84706242E+02
  0
VERTEX
  8
0
 62
4
 10
-9.40873899E+01
 20
-3.84982930E+02
  0
VERTEX
  8
0
 62
4
 10
-9.40486743E+01
 20
-3.85257513E+02
  0
VERTEX
  8
0
 62
4
 10
-9.39844757E+01
 20
-3.85527899E+02
  0
VERTEX
  8
0
 62
4
 10
-9.38952828E+01
 20
-3.85792033E+02
  0
VERTEX
  8
0
 62
4
 10
-9.37817744E+01
 20
-3.86047903E+02
  0
VERTEX
  8
0
 62
4
 10
-9.36448143E+01
 20
-3.86293562E+02
  0
VERTEX
  8
0
 62
4
 10
-9.34854448E+01
 20
-3.86527141E+02
  0
VERTEX
  8
0
 62
4
 10
-9.33048790E+01
 20
-3.86746862E+02
  0
VERTEX
  8
0
 62
4
 10
-9.31044910E+01
 20
-3.86951052E+02
  0
VERTEX
  8
0
 62
4
 10
-9.28858058E+01
 20
-3.87138158E+02
  0
VERTEX
  8
0
 62
4
 10
-9.26504878E+01
 20
-3.87306755E+02
  0
VERTEX
  8
0
 62
4
 10
-9.24003279E+01
 20
-3.87455562E+02
  0
VERTEX
  8
0
 62
4
 10
-9.21372300E+01
 20
-3.87583444E+02
  0
VERTEX
  8
0
 62
4
 10
-9.18631964E+01
 20
-3.87689428E+02
  0
VERTEX
  8
0
 62
4
 10
-9.15803126E+01
 20
-3.87772709E+02
  0
VERTEX
  8
0
 62
4
 10
-9.12907317E+01
 20
-3.87832653E+02
  0
VERTEX
  8
0
 62
4
 10
-9.09966574E+01
 20
-3.87868802E+02
  0
VERTEX
  8
0
 62
4
 10
-9.07003279E+01
 20
-3.87880883E+02
  0
VERTEX
  8
0
 62
4
 10
-9.04039984E+01
 20
-3.87868802E+02
  0
VERTEX
  8
0
 62
4
 10
-9.01099241E+01
 20
-3.87832653E+02
  0
VERTEX
  8
0
 62
4
 10
-8.98203431E+01
 20
-3.87772709E+02
  0
VERTEX
  8
0
 62
4
 10
-8.95374594E+01
 20
-3.87689428E+02
  0
VERTEX
  8
0
 62
4
 10
-8.92634258E+01
 20
-3.87583444E+02
  0
VERTEX
  8
0
 62
4
 10
-8.90003279E+01
 20
-3.87455562E+02
  0
VERTEX
  8
0
 62
4
 10
-8.87501680E+01
 20
-3.87306755E+02
  0
VERTEX
  8
0
 62
4
 10
-8.85148500E+01
 20
-3.87138158E+02
  0
VERTEX
  8
0
 62
4
 10
-8.82961648E+01
 20
-3.86951052E+02
  0
VERTEX
  8
0
 62
4
 10
-8.80957768E+01
 20
-3.86746862E+02
  0
VERTEX
  8
0
 62
4
 10
-8.79152109E+01
 20
-3.86527141E+02
  0
VERTEX
  8
0
 62
4
 10
-8.77558415E+01
 20
-3.86293562E+02
  0
VERTEX
  8
0
 62
4
 10
-8.76188814E+01
 20
-3.86047903E+02
  0
VERTEX
  8
0
 62
4
 10
-8.75053730E+01
 20
-3.85792033E+02
  0
VERTEX
  8
0
 62
4
 10
-8.74161801E+01
 20
-3.85527899E+02
  0
VERTEX
  8
0
 62
4
 10
-8.73519815E+01
 20
-3.85257513E+02
  0
VERTEX
  8
0
 62
4
 10
-8.73132659E+01
 20
-3.84982930E+02
  0
VERTEX
  8
0
 62
4
 10
-8.73003279E+01
 20
-3.84706242E+02
  0
SEQEND
  8
0
  0
POLYLINE
  8
0
 62
4
 66
1
  0
VERTEX
  8
0
 62
4
 10
-9.47003279E+01
 20
-3.85541887E+02
  0
VERTEX
  8
0
 62
4
 10
-9.46851067E+01
 20
-3.85848639E+02
  0
VERTEX
  8
0
 62
4
 10
-9.46395588E+01
 20
-3.86153056E+02
  0
VERTEX
  8
0
 62
4
 10
-9.45640310E+01
 20
-3.86452821E+02
  0
VERTEX
  8
0
 62
4
 10
-9.44590979E+01
 20
-3.86745654E+02
  0
VERTEX
  8
0
 62
4
 10
-9.43255584E+01
 20
-3.87029326E+02
  0
VERTEX
  8
0
 62
4
 10
-9.41644285E+01
 20
-3.87301677E+02
  0
VERTEX
  8
0
 62
4
 10
-9.39769347E+01
 20
-3.87560635E+02
  0
VERTEX
  8
0
 62
4
 10
-9.37645040E+01
 20
-3.87804229E+02
  0
VERTEX
  8
0
 62
4
 10
-9.35287529E+01
 20
-3.88030605E+02
  0
VERTEX
  8
0
 62
4
 10
-9.32714758E+01
 20
-3.88238041E+02
  0
VERTEX
  8
0
 62
4
 10
-9.29946307E+01
 20
-3.88424957E+02
  0
VERTEX
  8
0
 62
4
 10
-9.27003245E+01
 20
-3.88589931E+02
  0
VERTEX
  8
0
 62
4
 10
-9.23907970E+01
 20
-3.88731708E+02
  0
VERTEX
  8
0
 62
4
 10
-9.20684041E+01
 20
-3.88849209E+02
  0
VERTEX
  8
0
 62
4
 10
-9.17355993E+01
 20
-3.88941538E+02
  0
VERTEX
  8
0
 62
4
 10
-9.13949154E+01
 20
-3.89007994E+02
  0
VERTEX
  8
0
 62
4
 10
-9.10489452E+01
 20
-3.89048071E+02
  0
VERTEX
  8
0
 62
4
 10
-9.07003219E+01
 20
-3.89061464E+02
  0
VERTEX
  8
0
 62
4
 10
-9.03516986E+01
 20
-3.89048070E+02
  0
VERTEX
  8
0
 62
4
 10
-9.00057286E+01
 20
-3.89007992E+02
  0
VERTEX
  8
0
 62
4
 10
-8.96650450E+01
 20
-3.88941535E+02
  0
VERTEX
  8
0
 62
4
 10
-8.93322405E+01
 20
-3.88849205E+02
  0
VERTEX
  8
0
 62
4
 10
-8.90098479E+01
 20
-3.88731704E+02
  0
VERTEX
  8
0
 62
4
 10
-8.87003210E+01
 20
-3.88589926E+02
  0
VERTEX
  8
0
 62
4
 10
-8.84060153E+01
 20
-3.88424951E+02
  0
VERTEX
  8
0
 62
4
 10
-8.81291708E+01
 20
-3.88238034E+02
  0
VERTEX
  8
0
 62
4
 10
-8.78718944E+01
 20
-3.88030598E+02
  0
VERTEX
  8
0
 62
4
 10
-8.76361441E+01
 20
-3.87804221E+02
  0
VERTEX
  8
0
 62
4
 10
-8.74237142E+01
 20
-3.87560626E+02
  0
VERTEX
  8
0
 62
4
 10
-8.72362213E+01
 20
-3.87301668E+02
  0
VERTEX
  8
0
 62
4
 10
-8.70750924E+01
 20
-3.87029316E+02
  0
VERTEX
  8
0
 62
4
 10
-8.69415538E+01
 20
-3.86745644E+02
  0
VERTEX
  8
0
 62
4
 10
-8.68366218E+01
 20
-3.86452811E+02
  0
VERTEX
  8
0
 62
4
 10
-8.67610949E+01
 20
-3.86153045E+02
  0
VERTEX
  8
0
 62
4
 10
-8.67155481E+01
 20
-3.85848628E+02
  0
VERTEX
  8
0
 62
4
 10
-8.67003279E+01
 20
-3.85541876E+02
  0
SEQEND
  8
0
  0
POLYLINE
  8
0
 62
4
 66
1
  0
VERTEX
  8
0
 62
4
 10
-9.34330756E+01
 20
-3.82817432E+02
  0
VERTEX
  8
0
 62
4
 10
-9.36805472E+01
 20
-3.83053374E+02
  0
VERTEX
  8
0
 62
4
 10
-9.39046927E+01
 20
-3.83308794E+02
  0
VERTEX
  8
0
 62
4
 10
-9.41037577E+01
 20
-3.83581692E+02
  0
VERTEX
  8
0
 62
4
 10
-9.42761842E+01
 20
-3.83869933E+02
  0
VERTEX
  8
0
 62
4
 10
-9.44206225E+01
 20
-3.84171260E+02
  0
VERTEX
  8
0
 62
4
 10
-9.45359422E+01
 20
-3.84483315E+02
  0
VERTEX
  8
0
 62
4
 10
-9.46212406E+01
 20
-3.84803655E+02
  0
VERTEX
  8
0
 62
4
 10
-9.46758502E+01
 20
-3.85129773E+02
  0
VERTEX
  8
0
 62
4
 10
-9.46993434E+01
 20
-3.85459117E+02
  0
VERTEX
  8
0
 62
4
 10
-9.46915365E+01
 20
-3.85789109E+02
  0
VERTEX
  8
0
 62
4
 10
-9.46524905E+01
 20
-3.86117166E+02
  0
VERTEX
  8
0
 62
4
 10
-9.45825110E+01
 20
-3.86440720E+02
  0
VERTEX
  8
0
 62
4
 10
-9.44821457E+01
 20
-3.86757239E+02
  0
VERTEX
  8
0
 62
4
 10
-9.43521803E+01
 20
-3.87064246E+02
  0
VERTEX
  8
0
 62
4
 10
-9.41936319E+01
 20
-3.87359337E+02
  0
VERTEX
  8
0
 62
4
 10
-9.40077415E+01
 20
-3.87640202E+02
  0
VERTEX
  8
0
 62
4
 10
-9.37959641E+01
 20
-3.87904645E+02
  0
VERTEX
  8
0
 62
4
 10
-9.35599572E+01
 20
-3.88150594E+02
  0
VERTEX
  8
0
 62
4
 10
-9.33015681E+01
 20
-3.88376125E+02
  0
VERTEX
  8
0
 62
4
 10
-9.30228191E+01
 20
-3.88579472E+02
  0
VERTEX
  8
0
 62
4
 10
-9.27258921E+01
 20
-3.88759045E+02
  0
VERTEX
  8
0
 62
4
 10
-9.24131110E+01
 20
-3.88913436E+02
  0
VERTEX
  8
0
 62
4
 10
-9.20869240E+01
 20
-3.89041439E+02
  0
VERTEX
  8
0
 62
4
 10
-9.17498842E+01
 20
-3.89142051E+02
  0
VERTEX
  8
0
 62
4
 10
-9.14046295E+01
 20
-3.89214484E+02
  0
VERTEX
  8
0
 62
4
 10
-9.10538622E+01
 20
-3.89258172E+02
  0
VERTEX
  8
0
 62
4
 10
-9.07003279E+01
 20
-3.89272773E+02
  0
VERTEX
  8
0
 62
4
 10
-9.03467935E+01
 20
-3.89258172E+02
  0
VERTEX
  8
0
 62
4
 10
-8.99960263E+01
 20
-3.89214484E+02
  0
VERTEX
  8
0
 62
4
 10
-8.96507716E+01
 20
-3.89142051E+02
  0
VERTEX
  8
0
 62
4
 10
-8.93137318E+01
 20
-3.89041439E+02
  0
VERTEX
  8
0
 62
4
 10
-8.89875448E+01
 20
-3.88913436E+02
  0
VERTEX
  8
0
 62
4
 10
-8.86747637E+01
 20
-3.88759044E+02
  0
VERTEX
  8
0
 62
4
 10
-8.83778367E+01
 20
-3.88579472E+02
  0
VERTEX
  8
0
 62
4
 10
-8.80990877E+01
 20
-3.88376125E+02
  0
VERTEX
  8
0
 62
4
 10
-8.78406986E+01
 20
-3.88150594E+02
  0
VERTEX
  8
0
 62
4
 10
-8.76046917E+01
 20
-3.87904645E+02
  0
VERTEX
  8
0
 62
4
 10
-8.73929143E+01
 20
-3.87640202E+02
  0
VERTEX
  8
0
 62
4
 10
-8.72070239E+01
 20
-3.87359337E+02
  0
VERTEX
  8
0
 62
4
 10
-8.70484755E+01
 20
-3.87064246E+02
  0
VERTEX
  8
0
 62
4
 10
-8.69185101E+01
 20
-3.86757239E+02
  0
VERTEX
  8
0
 62
4
 10
-8.68181448E+01
 20
-3.86440720E+02
  0
VERTEX
  8
0
 62
4
 10
-8.67481653E+01
 20
-3.86117166E+02
  0
VERTEX
  8
0
 62
4
 10
-8.67091193E+01
 20
-3.85789109E+02
  0
VERTEX
  8
0
 62
4
 10
-8.67013124E+01
 20
-3.85459117E+02
  0
VERTEX
  8
0
 62
4
 10
-8.67248056E+01
 20
-3.85129773E+02
  0
VERTEX
  8
0
 62
4
 10
-8.67794152E+01
 20
-3.84803655E+02
  0
VERTEX
  8
0
 62
4
 10
-8.68647136E+01
 20
-3.84483315E+02
  0
VERTEX
  8
0
 62
4
 10
-8.69800333E+01
 20
-3.84171260E+02
  0
VERTEX
  8
0
 62
4
 10
-8.71244716E+01
 20
-3.83869933E+02
  0
VERTEX
  8
0
 62
4
 10
-8.72968981E+01
 20
-3.83581692E+02
  0
VERTEX
  8
0
 62
4
 10
-8.74959631E+01
 20
-3.83308794E+02
  0
VERTEX
  8
0
 62
4
 10
-8.77201086E+01
 20
-3.83053374E+02
  0
VERTEX
  8
0
 62
4
 10
-8.79675802E+01
 20
-3.82817432E+02
  0
SEQEND
  8
0
  0
LINE
  8
0
  6
CENTER
 62
6
 10
-9.07003279E+01
 20
-3.79569409E+02
 11
-9.07003279E+01
 21
-3.90536815E+02
  0
LINE
  8
0
  6
CENTER
 62
6
 10
-9.67643332E+01
 20
-3.84172943E+02
 11
-8.48180443E+01
 21
-3.84172943E+02
  0
LINE
  8
0
 62
4
 10
-1.02700328E+02
 20
-3.92444850E+02
 11
-9.97003279E+01
 21
-3.97337936E+02
  0
LINE
  8
0
 62
4
 10
-6.37003279E+01
 20
-3.92444850E+02
 11
-6.67003279E+01
 21
-3.97337936E+02
  0
ARC
  8
0
 62
4
 10
-1.01200325E+02
 20
-3.81172557E+02
 40
1.50000284E+00
 50
9.00001085E+01
 51
1.79999892E+02
  0
ARC
  8
0
 62
4
 10
-1.07200332E+02
 20
-3.69576603E+02
 40
4.99995728E-01
 50
1.79999510E+02
 51
2.70000490E+02
  0
ARC
  8
0
 62
4
 10
-6.52003307E+01
 20
-3.81172557E+02
 40
1.50000284E+00
 50
1.08554370E-04
 51
8.99998913E+01
  0
ARC
  8
0
 62
4
 10
-9.87003322E+01
 20
-3.70576603E+02
 40
5.00004272E-01
 50
4.89585868E-04
 51
8.99995103E+01
  0
ARC
  8
0
 62
4
 10
-1.07200324E+02
 20
-3.56576603E+02
 40
5.00004272E-01
 50
9.00004895E+01
 51
1.79999510E+02
  0
LINE
  8
0
 62
4
 10
-1.11200328E+02
 20
-3.68826599E+02
 11
-1.07700328E+02
 21
-3.68826599E+02
  0
LINE
  8
0
 62
4
 10
-1.11200328E+02
 20
-3.57326599E+02
 11
-1.07700328E+02
 21
-3.57326599E+02
  0
LINE
  8
0
 62
4
 10
-1.11200328E+02
 20
-3.56826599E+02
 11
-1.11200328E+02
 21
-3.69326599E+02
  0
LINE
  8
0
 62
4
 10
-1.12700328E+02
 20
-3.69326599E+02
 11
-1.07700328E+02
 21
-3.69326599E+02
  0
LINE
  8
0
 62
4
 10
-1.12700328E+02
 20
-3.56826599E+02
 11
-1.07700328E+02
 21
-3.56826599E+02
  0
LINE
  8
0
 62
4
 10
-1.12700328E+02
 20
-3.56279265E+02
 11
-1.12700328E+02
 21
-3.69882945E+02
  0
LINE
  8
0
 62
4
 10
-1.17700328E+02
 20
-3.56279265E+02
 11
-1.17700328E+02
 21
-3.69882945E+02
  0
LINE
  8
0
 62
4
 10
-1.07700328E+02
 20
-3.56576599E+02
 11
-1.07700328E+02
 21
-3.69576599E+02
  0
LINE
  8
0
 62
4
 10
-9.82003279E+01
 20
-3.56076599E+02
 11
-1.07200328E+02
 21
-3.56076599E+02
  0
LINE
  8
0
 62
4
 10
-1.07200328E+02
 20
-3.70076599E+02
 11
-9.87003279E+01
 21
-3.70076599E+02
  0
LINE
  8
0
 62
4
 10
-1.17700328E+02
 20
-3.56279265E+02
 11
-1.12700328E+02
 21
-3.56279265E+02
  0
LINE
  8
0
 62
4
 10
-1.01200328E+02
 20
-3.79672554E+02
 11
-6.52003279E+01
 21
-3.79672554E+02
  0
LINE
  8
0
 62
4
 10
-1.02700328E+02
 20
-3.91085389E+02
 11
-6.37003279E+01
 21
-3.91085389E+02
  0
LINE
  8
0
 62
4
 10
-1.02700328E+02
 20
-3.92444850E+02
 11
-6.37003279E+01
 21
-3.92444850E+02
  0
LINE
  8
0
 62
4
 10
-6.37003279E+01
 20
-3.81172554E+02
 11
-6.37003279E+01
 21
-3.92444850E+02
  0
LINE
  8
0
 62
4
 10
-9.82003279E+01
 20
-3.76220477E+02
 11
-8.32003279E+01
 21
-3.76220477E+02
  0
LINE
  8
0
 62
4
 10
-8.12003279E+01
 20
-3.76281548E+02
 11
-8.12003279E+01
 21
-3.79672554E+02
  0
LINE
  8
0
 62
4
 10
-9.82003279E+01
 20
-3.54469090E+02
 11
-9.82003279E+01
 21
-3.76281548E+02
  0
LINE
  8
0
 62
4
 10
-8.32003279E+01
 20
-3.54469090E+02
 11
-8.32003279E+01
 21
-3.76281548E+02
  0
LINE
  8
0
 62
4
 10
-1.00200328E+02
 20
-3.76281548E+02
 11
-1.00200328E+02
 21
-3.79672554E+02
  0
LINE
  8
0
 62
4
 10
-1.02700328E+02
 20
-3.81172554E+02
 11
-1.02700328E+02
 21
-3.92444850E+02
  0
LINE
  8
0
 62
4
 10
-1.00200328E+02
 20
-3.76281548E+02
 11
-8.12003279E+01
 21
-3.76281548E+02
  0
LINE
  8
0
 62
4
 10
-9.82003279E+01
 20
-3.54469090E+02
 11
-8.32003279E+01
 21
-3.54469090E+02
  0
ARC
  8
0
 62
4
 10
-7.03830885E+02
 20
-3.63076660E+02
 40
7.00000000E+00
 50
1.23115777E+02
 51
1.46002341E+02
  0
ARC
  8
0
 62
4
 10
-7.03830885E+02
 20
-3.63076660E+02
 40
7.00000000E+00
 50
8.39976594E+01
 51
1.06884035E+02
  0
ARC
  8
0
 62
4
 10
-6.84444205E+02
 20
-3.82172630E+02
 40
2.50001570E+00
 50
2.50003598E+01
 51
1.14999640E+02
  0
CIRCLE
  8
0
 62
4
 10
-7.03830885E+02
 20
-3.63076660E+02
 40
3.75000000E+00
  0
ARC
  8
0
 62
4
 10
-6.79062697E+02
 20
-3.82528872E+02
 40
9.97209177E-01
 50
4.14788233E+01
 51
1.14812291E+02
  0
LINE
  8
0
 62
4
 10
-6.81302656E+02
 20
-3.81811063E+02
 11
-6.81275930E+02
 21
-3.81868377E+02
  0
LINE
  8
0
 62
4
 10
-6.80005847E+02
 20
-3.81868377E+02
 11
-6.79481173E+02
 21
-3.81623718E+02
  0
LINE
  8
0
 62
4
 10
-6.81425568E+02
 20
-3.81868377E+02
 11
-6.81302656E+02
 21
-3.81811063E+02
  0
LINE
  8
0
 62
4
 10
-7.04010197E+02
 20
-3.56539980E+02
 11
-6.99569289E+02
 21
-3.54469151E+02
  0
LINE
  8
0
 62
4
 10
-7.07000524E+02
 20
-3.56279326E+02
 11
-6.99524705E+02
 21
-3.56930962E+02
  0
LINE
  8
0
 62
4
 10
-7.08132843E+02
 20
-3.69231371E+02
 11
-7.00657024E+02
 21
-3.69883006E+02
  0
LINE
  8
0
 62
4
 10
-6.99524705E+02
 20
-3.56930962E+02
 11
-6.96350842E+02
 21
-3.63737333E+02
  0
LINE
  8
0
 62
4
 10
-7.11306706E+02
 20
-3.62424999E+02
 11
-7.08132843E+02
 21
-3.69231371E+02
  0
LINE
  8
0
 62
4
 10
-7.11306706E+02
 20
-3.62424999E+02
 11
-7.07000524E+02
 21
-3.56279326E+02
  0
LINE
  8
0
 62
4
 10
-7.00657024E+02
 20
-3.69883006E+02
 11
-6.96350842E+02
 21
-3.63737333E+02
  0
LINE
  8
0
 62
4
 10
-6.82178428E+02
 20
-3.81116064E+02
 11
-6.81827619E+02
 21
-3.81868377E+02
  0
LINE
  8
0
 62
4
 10
-6.89707273E+02
 20
-3.81868377E+02
 11
-6.85500743E+02
 21
-3.79906840E+02
  0
LINE
  8
0
 62
4
 10
-6.87191216E+02
 20
-3.76281609E+02
 11
-6.85500743E+02
 21
-3.79906840E+02
  0
LINE
  8
0
 62
4
 10
-7.01538281E+02
 20
-3.81868377E+02
 11
-6.89426450E+02
 21
-3.76220538E+02
  0
LINE
  8
0
 62
4
 10
-6.99172080E+02
 20
-3.81868377E+02
 11
-6.87191216E+02
 21
-3.76281609E+02
  0
LINE
  8
0
 62
4
 10
-7.13163905E+02
 20
-3.60808425E+02
 11
-7.03343488E+02
 21
-3.81868377E+02
  0
LINE
  8
0
 62
4
 10
-6.99569289E+02
 20
-3.54469151E+02
 11
-6.89003832E+02
 21
-3.77126846E+02
  0
LINE
  8
0
 62
4
 10
-7.13163905E+02
 20
-3.60808425E+02
 11
-7.08732060E+02
 21
-3.58741821E+02
  0
LINE
  8
0
 62
4
 10
-6.37997066E+02
 20
-3.94868393E+02
 11
-6.37992386E+02
 21
-3.94858123E+02
  0
LINE
  8
0
 62
4
 10
1.37286747E+02
 20
-3.81688384E+02
 11
1.42978360E+02
 21
-3.84342427E+02
  0
LINE
  8
0
 62
4
 10
1.42978360E+02
 20
-3.84342427E+02
 11
1.42882013E+02
 21
-3.85400878E+02
  0
LINE
  8
0
 62
4
 10
1.36537858E+02
 20
-3.82442550E+02
 11
1.37286747E+02
 21
-3.81688384E+02
  0
LINE
  8
0
  6
CENTER
 62
6
 10
1.41081633E+02
 20
-3.80980097E+02
 11
1.39080234E+02
 21
-3.85272112E+02
  0
ARC
  8
0
 62
4
 10
1.49430145E+02
 20
-3.63076656E+02
 40
7.00000000E+00
 50
3.39976591E+01
 51
9.60023410E+01
  0
LINE
  8
0
 62
4
 10
1.55656469E+02
 20
-3.94667838E+02
 11
1.49317774E+02
 21
-3.91712056E+02
  0
LINE
  8
0
 62
4
 10
1.55656469E+02
 20
-3.94667838E+02
 11
1.55749990E+02
 21
-3.94868393E+02
  0
LINE
  8
0
 62
4
 10
1.45168557E+02
 20
-3.54469151E+02
 11
1.58763173E+02
 21
-3.60808425E+02
  0
LINE
  8
0
 62
4
 10
1.45168557E+02
 20
-3.54469151E+02
 11
1.34603100E+02
 21
-3.77126846E+02
  0
LINE
  8
0
 62
4
 10
1.58763173E+02
 20
-3.60808425E+02
 11
1.48197717E+02
 21
-3.83466119E+02
  0
LINE
  8
0
 62
4
 10
1.50010332E+02
 20
-3.84311356E+02
 11
1.32790484E+02
 21
-3.76281609E+02
  0
LINE
  8
0
 62
4
 10
1.48620335E+02
 20
-3.82559812E+02
 11
1.35025718E+02
 21
-3.76220538E+02
  0
LINE
  8
0
 62
4
 10
1.32790484E+02
 20
-3.76281609E+02
 11
1.31100011E+02
 21
-3.79906840E+02
  0
LINE
  8
0
 62
4
 10
1.50010332E+02
 20
-3.84311356E+02
 11
1.48319859E+02
 21
-3.87936587E+02
  0
LINE
  8
0
 62
4
 10
1.48319859E+02
 20
-3.87936587E+02
 11
1.31100011E+02
 21
-3.79906840E+02
  0
LINE
  8
0
 62
4
 10
1.27692140E+02
 20
-3.94868393E+02
 11
1.22494968E+02
 21
-3.92444911E+02
  0
LINE
  8
0
 62
4
 10
1.27777696E+02
 20
-3.81116064E+02
 11
1.22494968E+02
 21
-3.92444911E+02
  0
LINE
  8
0
 62
4
 10
1.49529083E+02
 20
-3.91258902E+02
 11
1.47845950E+02
 21
-3.94868393E+02
  0
LINE
  8
0
 62
4
 10
1.22494968E+02
 20
-3.92444911E+02
 11
1.23004346E+02
 21
-3.94868393E+02
  0
LINE
  8
0
 62
4
 10
1.31241443E+02
 20
-3.94868393E+02
 11
1.23128895E+02
 21
-3.91085450E+02
  0
LINE
  8
0
 62
4
 10
1.38141605E+02
 20
-3.92017412E+02
 11
1.34516374E+02
 21
-3.90326939E+02
  0
LINE
  8
0
 62
4
 10
1.37085059E+02
 20
-3.94283182E+02
 11
1.33459828E+02
 21
-3.92592709E+02
  0
LINE
  8
0
 62
4
 10
1.38141605E+02
 20
-3.92017412E+02
 11
1.37085059E+02
 21
-3.94283182E+02
  0
LINE
  8
0
 62
4
 10
1.34516374E+02
 20
-3.90326939E+02
 11
1.33459828E+02
 21
-3.92592709E+02
  0
LINE
  8
0
 62
4
 10
1.53254483E+02
 20
-3.57213684E+02
 11
1.52599792E+02
 21
-3.56279326E+02
  0
LINE
  8
0
 62
4
 10
1.52599792E+02
 20
-3.56279326E+02
 11
1.51463205E+02
 21
-3.56378398E+02
  0
LINE
  8
0
 62
4
 10
1.27355078E+02
 20
-3.82022372E+02
 11
1.26901924E+02
 21
-3.81811063E+02
  0
LINE
  8
0
 62
4
 10
1.23974132E+02
 20
-3.89272834E+02
 11
1.23520978E+02
 21
-3.89061525E+02
  0
LINE
  8
0
 62
4
 10
1.26648353E+02
 20
-3.82354847E+02
 11
1.25080441E+02
 21
-3.81623718E+02
  0
LINE
  8
0
 62
4
 10
1.22206636E+02
 20
-3.87786611E+02
 11
1.23774549E+02
 21
-3.88517740E+02
  0
LINE
  8
0
  6
CENTER
 62
6
 10
1.45438652E+02
 20
-3.94868393E+02
 11
1.19773604E+02
 21
-3.82900584E+02
  0
LINE
  8
0
 62
4
 10
1.26901924E+02
 20
-3.81811063E+02
 11
1.23520978E+02
 21
-3.89061525E+02
  0
ARC
  8
0
 62
4
 10
1.22630259E+02
 20
-3.86882599E+02
 40
9.98345090E-01
 50
1.68221832E+02
 51
2.44892061E+02
  0
ARC
  8
0
 62
4
 10
1.24661965E+02
 20
-3.82528872E+02
 40
9.97209177E-01
 50
6.51877094E+01
 51
1.42419464E+02
  0
ARC
  8
0
 62
4
 10
1.33186066E+02
 20
-3.89191294E+02
 40
1.18036308E+01
 50
1.42025221E+02
 51
1.67710194E+02
  0
ARC
  8
0
 62
4
 10
1.47263298E+02
 20
-3.90202362E+02
 40
2.50001192E+00
 50
3.35000273E+02
 51
6.49997271E+01
  0
ARC
  8
0
 62
4
 10
1.30043473E+02
 20
-3.82172630E+02
 40
2.50001570E+00
 50
6.50003596E+01
 51
1.54999640E+02
  0
LINE
  8
0
 62
4
 10
1.36003209E+02
 20
-3.94868393E+02
 11
1.36007889E+02
 21
-3.94858123E+02
  0
LINE
  8
0
  6
CENTER
 62
6
 10
-8.67003279E+01
 20
-1.55688301E+02
 11
-8.67003279E+01
 21
-1.66188301E+02
  0
LINE
  8
0
 62
4
 10
-9.82003279E+01
 20
-1.58387991E+02
 11
-9.82003279E+01
 21
-1.86064995E+02
  0
LINE
  8
0
 62
4
 10
-8.32003279E+01
 20
-1.58387991E+02
 11
-8.32003279E+01
 21
-1.86064995E+02
  0
LINE
  8
0
 62
4
 10
-8.32003279E+01
 20
-1.61904922E+02
 11
-9.82003279E+01
 21
-1.61904922E+02
  0
LINE
  8
0
 62
4
 10
-8.32003279E+01
 20
-1.58387991E+02
 11
-9.82003279E+01
 21
-1.58387991E+02
  0
LINE
  8
0
  6
CENTER
 62
6
 10
-9.47003279E+01
 20
-1.55688301E+02
 11
-9.47003279E+01
 21
-1.66188301E+02
  0
LINE
  8
0
  6
CENTER
 62
6
 10
-9.07003279E+01
 20
-1.56300207E+02
 11
-9.07003279E+01
 21
-2.08868301E+02
  0
LINE
  8
0
 62
4
 10
-1.07200328E+02
 20
-1.78237942E+02
 11
-9.82003279E+01
 21
-1.78237942E+02
  0
LINE
  8
0
 62
4
 10
-9.82003279E+01
 20
-1.64237942E+02
 11
-1.07200328E+02
 21
-1.64237942E+02
  0
LINE
  8
0
 62
4
 10
-1.07700328E+02
 20
-1.64737942E+02
 11
-1.07700328E+02
 21
-1.77737942E+02
  0
LINE
  8
0
 62
4
 10
-1.17700328E+02
 20
-1.63762121E+02
 11
-1.17700328E+02
 21
-1.78717985E+02
  0
LINE
  8
0
 62
4
 10
-1.12700328E+02
 20
-1.63762121E+02
 11
-1.12700328E+02
 21
-1.78717985E+02
  0
LINE
  8
0
 62
4
 10
-1.12700328E+02
 20
-1.64987942E+02
 11
-1.07700328E+02
 21
-1.64987942E+02
  0
LINE
  8
0
 62
4
 10
-1.12700328E+02
 20
-1.77487942E+02
 11
-1.07700328E+02
 21
-1.77487942E+02
  0
LINE
  8
0
 62
4
 10
-1.11200328E+02
 20
-1.64987942E+02
 11
-1.11200328E+02
 21
-1.77487942E+02
  0
LINE
  8
0
 62
4
 10
-1.11200328E+02
 20
-1.65487942E+02
 11
-1.07700328E+02
 21
-1.65487942E+02
  0
LINE
  8
0
 62
4
 10
-1.11200328E+02
 20
-1.76987942E+02
 11
-1.07700328E+02
 21
-1.76987942E+02
  0
LINE
  8
0
 62
4
 10
-9.82003279E+01
 20
-1.75499539E+02
 11
-8.32003279E+01
 21
-1.75499539E+02
  0
LINE
  8
0
 62
4
 10
-9.82003279E+01
 20
-1.86064995E+02
 11
-8.32003279E+01
 21
-1.86064995E+02
  0
LINE
  8
0
 62
4
 10
-1.17700328E+02
 20
-1.63762121E+02
 11
-1.12700328E+02
 21
-1.63762121E+02
  0
LINE
  8
0
 62
4
 10
-6.37003279E+01
 20
-1.72404785E+02
 11
-6.37003279E+01
 21
-1.96673127E+02
  0
LINE
  8
0
 62
4
 10
-1.00200328E+02
 20
-1.78237942E+02
 11
-1.00200328E+02
 21
-1.89568070E+02
  0
LINE
  8
0
 62
4
 10
-8.12003279E+01
 20
-1.70657763E+02
 11
-8.12003279E+01
 21
-1.89568070E+02
  0
LINE
  8
0
 62
4
 10
-1.02700328E+02
 20
-1.78237942E+02
 11
-1.02700328E+02
 21
-1.96673127E+02
  0
LINE
  8
0
 62
4
 10
-1.00200328E+02
 20
-1.87877611E+02
 11
-8.12003279E+01
 21
-1.87877611E+02
  0
LINE
  8
0
 62
4
 10
-1.01200328E+02
 20
-1.98173127E+02
 11
-9.37092884E+01
 21
-1.98173127E+02
  0
LINE
  8
0
 62
4
 10
-8.12003279E+01
 20
-1.70657763E+02
 11
-8.32003279E+01
 21
-1.70657763E+02
  0
ARC
  8
0
 62
4
 10
-6.52003312E+01
 20
-1.72404789E+02
 40
1.50000336E+00
 50
1.28225275E-04
 51
8.99998718E+01
  0
ARC
  8
0
 62
4
 10
-6.52003245E+01
 20
-1.96673131E+02
 40
1.49999664E+00
 50
2.69999872E+02
 51
1.28225561E-04
  0
ARC
  8
0
 62
4
 10
-1.07200324E+02
 20
-1.77737938E+02
 40
5.00004272E-01
 50
1.80000490E+02
 51
2.69999511E+02
  0
ARC
  8
0
 62
4
 10
-1.07200328E+02
 20
-1.64737942E+02
 40
4.99999542E-01
 50
8.99999475E+01
 51
1.80000053E+02
  0
ARC
  8
0
 62
4
 10
-1.01200327E+02
 20
-1.96673127E+02
 40
1.50000046E+00
 50
1.80000018E+02
 51
2.69999983E+02
  0
LINE
  8
0
 62
4
 10
-8.12003279E+01
 20
-1.70904785E+02
 11
-6.52003279E+01
 21
-1.70904785E+02
  0
LINE
  8
0
 62
4
 10
-1.01200328E+02
 20
-1.91833853E+02
 11
-6.52003279E+01
 21
-1.91833853E+02
  0
LINE
  8
0
 62
4
 10
-1.17700328E+02
 20
-1.68068303E+02
 11
-1.12700328E+02
 21
-1.68068303E+02
  0
LINE
  8
0
 62
4
 10
-1.17700328E+02
 20
-1.75544122E+02
 11
-1.12700328E+02
 21
-1.75544122E+02
  0
LINE
  8
0
 62
4
 10
-1.17700328E+02
 20
-1.78717985E+02
 11
-1.12700328E+02
 21
-1.78717985E+02
  0
LINE
  8
0
  6
CENTER
 62
6
 10
-9.62013354E+01
 20
-1.68702230E+02
 11
-8.51993204E+01
 21
-1.68702230E+02
  0
POLYLINE
  8
0
 62
4
 66
1
  0
VERTEX
  8
0
 62
4
 10
-8.77003279E+01
 20
-1.68702230E+02
  0
VERTEX
  8
0
 62
4
 10
-8.77117438E+01
 20
-1.68465260E+02
  0
VERTEX
  8
0
 62
4
 10
-8.77459046E+01
 20
-1.68230094E+02
  0
VERTEX
  8
0
 62
4
 10
-8.78025504E+01
 20
-1.67998521E+02
  0
VERTEX
  8
0
 62
4
 10
-8.78812500E+01
 20
-1.67772303E+02
  0
VERTEX
  8
0
 62
4
 10
-8.79814045E+01
 20
-1.67553163E+02
  0
VERTEX
  8
0
 62
4
 10
-8.81022517E+01
 20
-1.67342768E+02
  0
VERTEX
  8
0
 62
4
 10
-8.82428718E+01
 20
-1.67142720E+02
  0
VERTEX
  8
0
 62
4
 10
-8.84021946E+01
 20
-1.66954540E+02
  0
VERTEX
  8
0
 62
4
 10
-8.85790076E+01
 20
-1.66779661E+02
  0
VERTEX
  8
0
 62
4
 10
-8.87719651E+01
 20
-1.66619414E+02
  0
VERTEX
  8
0
 62
4
 10
-8.89795986E+01
 20
-1.66475018E+02
  0
VERTEX
  8
0
 62
4
 10
-8.92003279E+01
 20
-1.66347573E+02
  0
VERTEX
  8
0
 62
4
 10
-8.94324731E+01
 20
-1.66238049E+02
  0
VERTEX
  8
0
 62
4
 10
-8.96742675E+01
 20
-1.66147278E+02
  0
VERTEX
  8
0
 62
4
 10
-8.99238708E+01
 20
-1.66075952E+02
  0
VERTEX
  8
0
 62
4
 10
-9.01793834E+01
 20
-1.66024613E+02
  0
VERTEX
  8
0
 62
4
 10
-9.04388607E+01
 20
-1.65993653E+02
  0
VERTEX
  8
0
 62
4
 10
-9.07003279E+01
 20
-1.65983307E+02
  0
VERTEX
  8
0
 62
4
 10
-9.09617951E+01
 20
-1.65993653E+02
  0
VERTEX
  8
0
 62
4
 10
-9.12212724E+01
 20
-1.66024613E+02
  0
VERTEX
  8
0
 62
4
 10
-9.14767850E+01
 20
-1.66075952E+02
  0
VERTEX
  8
0
 62
4
 10
-9.17263883E+01
 20
-1.66147278E+02
  0
VERTEX
  8
0
 62
4
 10
-9.19681827E+01
 20
-1.66238049E+02
  0
VERTEX
  8
0
 62
4
 10
-9.22003279E+01
 20
-1.66347573E+02
  0
VERTEX
  8
0
 62
4
 10
-9.24210572E+01
 20
-1.66475018E+02
  0
VERTEX
  8
0
 62
4
 10
-9.26286907E+01
 20
-1.66619414E+02
  0
VERTEX
  8
0
 62
4
 10
-9.28216482E+01
 20
-1.66779661E+02
  0
VERTEX
  8
0
 62
4
 10
-9.29984612E+01
 20
-1.66954540E+02
  0
VERTEX
  8
0
 62
4
 10
-9.31577840E+01
 20
-1.67142720E+02
  0
VERTEX
  8
0
 62
4
 10
-9.32984041E+01
 20
-1.67342768E+02
  0
VERTEX
  8
0
 62
4
 10
-9.34192513E+01
 20
-1.67553163E+02
  0
VERTEX
  8
0
 62
4
 10
-9.35194058E+01
 20
-1.67772303E+02
  0
VERTEX
  8
0
 62
4
 10
-9.35981054E+01
 20
-1.67998521E+02
  0
VERTEX
  8
0
 62
4
 10
-9.36547512E+01
 20
-1.68230094E+02
  0
VERTEX
  8
0
 62
4
 10
-9.36889120E+01
 20
-1.68465260E+02
  0
VERTEX
  8
0
 62
4
 10
-9.37003279E+01
 20
-1.68702230E+02
  0
VERTEX
  8
0
 62
4
 10
-9.36889120E+01
 20
-1.68939200E+02
  0
VERTEX
  8
0
 62
4
 10
-9.36547512E+01
 20
-1.69174366E+02
  0
VERTEX
  8
0
 62
4
 10
-9.35981054E+01
 20
-1.69405939E+02
  0
VERTEX
  8
0
 62
4
 10
-9.35194058E+01
 20
-1.69632157E+02
  0
VERTEX
  8
0
 62
4
 10
-9.34192513E+01
 20
-1.69851297E+02
  0
VERTEX
  8
0
 62
4
 10
-9.32984041E+01
 20
-1.70061692E+02
  0
VERTEX
  8
0
 62
4
 10
-9.31577840E+01
 20
-1.70261740E+02
  0
VERTEX
  8
0
 62
4
 10
-9.29984612E+01
 20
-1.70449920E+02
  0
VERTEX
  8
0
 62
4
 10
-9.28216482E+01
 20
-1.70624799E+02
  0
VERTEX
  8
0
 62
4
 10
-9.26286907E+01
 20
-1.70785046E+02
  0
VERTEX
  8
0
 62
4
 10
-9.24210572E+01
 20
-1.70929442E+02
  0
VERTEX
  8
0
 62
4
 10
-9.22003279E+01
 20
-1.71056887E+02
  0
VERTEX
  8
0
 62
4
 10
-9.19681827E+01
 20
-1.71166411E+02
  0
VERTEX
  8
0
 62
4
 10
-9.17263883E+01
 20
-1.71257182E+02
  0
VERTEX
  8
0
 62
4
 10
-9.14767850E+01
 20
-1.71328508E+02
  0
VERTEX
  8
0
 62
4
 10
-9.12212724E+01
 20
-1.71379847E+02
  0
VERTEX
  8
0
 62
4
 10
-9.09617951E+01
 20
-1.71410807E+02
  0
VERTEX
  8
0
 62
4
 10
-9.07003279E+01
 20
-1.71421153E+02
  0
VERTEX
  8
0
 62
4
 10
-9.04388607E+01
 20
-1.71410807E+02
  0
VERTEX
  8
0
 62
4
 10
-9.01793834E+01
 20
-1.71379847E+02
  0
VERTEX
  8
0
 62
4
 10
-8.99238708E+01
 20
-1.71328508E+02
  0
VERTEX
  8
0
 62
4
 10
-8.96742675E+01
 20
-1.71257182E+02
  0
VERTEX
  8
0
 62
4
 10
-8.94324731E+01
 20
-1.71166411E+02
  0
VERTEX
  8
0
 62
4
 10
-8.92003279E+01
 20
-1.71056887E+02
  0
VERTEX
  8
0
 62
4
 10
-8.89795986E+01
 20
-1.70929442E+02
  0
VERTEX
  8
0
 62
4
 10
-8.87719651E+01
 20
-1.70785046E+02
  0
VERTEX
  8
0
 62
4
 10
-8.85790076E+01
 20
-1.70624799E+02
  0
VERTEX
  8
0
 62
4
 10
-8.84021946E+01
 20
-1.70449920E+02
  0
VERTEX
  8
0
 62
4
 10
-8.82428718E+01
 20
-1.70261740E+02
  0
VERTEX
  8
0
 62
4
 10
-8.81022517E+01
 20
-1.70061692E+02
  0
VERTEX
  8
0
 62
4
 10
-8.79814045E+01
 20
-1.69851297E+02
  0
VERTEX
  8
0
 62
4
 10
-8.78812500E+01
 20
-1.69632157E+02
  0
VERTEX
  8
0
 62
4
 10
-8.78025504E+01
 20
-1.69405939E+02
  0
VERTEX
  8
0
 62
4
 10
-8.77459046E+01
 20
-1.69174366E+02
  0
VERTEX
  8
0
 62
4
 10
-8.77117438E+01
 20
-1.68939200E+02
  0
VERTEX
  8
0
 62
4
 10
-8.77003279E+01
 20
-1.68702230E+02
  0
SEQEND
  8
0
  0
LINE
  8
0
  6
CENTER
 62
6
 10
-8.03093446E+01
 20
-1.80535572E+02
 11
-6.90913111E+01
 21
-1.80535572E+02
  0
LINE
  8
0
  6
CENTER
 62
6
 10
-7.47003279E+01
 20
-1.74926555E+02
 11
-7.47003279E+01
 21
-1.86144589E+02
  0
POLYLINE
  8
0
 62
4
 66
1
  0
VERTEX
  8
0
 62
4
 10
-8.73003279E+01
 20
-1.96347156E+02
  0
VERTEX
  8
0
 62
4
 10
-8.71272759E+01
 20
-1.96216570E+02
  0
VERTEX
  8
0
 62
4
 10
-8.69822329E+01
 20
-1.96080027E+02
  0
VERTEX
  8
0
 62
4
 10
-8.68663361E+01
 20
-1.95938597E+02
  0
VERTEX
  8
0
 62
4
 10
-8.67804938E+01
 20
-1.95793389E+02
  0
VERTEX
  8
0
 62
4
 10
-8.67253790E+01
 20
-1.95645541E+02
  0
VERTEX
  8
0
 62
4
 10
-8.67014238E+01
 20
-1.95496213E+02
  0
VERTEX
  8
0
 62
4
 10
-8.67088160E+01
 20
-1.95346574E+02
  0
VERTEX
  8
0
 62
4
 10
-8.67474975E+01
 20
-1.95197799E+02
  0
VERTEX
  8
0
 62
4
 10
-8.68171652E+01
 20
-1.95051052E+02
  0
VERTEX
  8
0
 62
4
 10
-8.69172729E+01
 20
-1.94907485E+02
  0
VERTEX
  8
0
 62
4
 10
-8.70470360E+01
 20
-1.94768223E+02
  0
VERTEX
  8
0
 62
4
 10
-8.72054371E+01
 20
-1.94634357E+02
  0
VERTEX
  8
0
 62
4
 10
-8.73912346E+01
 20
-1.94506937E+02
  0
VERTEX
  8
0
 62
4
 10
-8.76029721E+01
 20
-1.94386962E+02
  0
VERTEX
  8
0
 62
4
 10
-8.78389897E+01
 20
-1.94275372E+02
  0
VERTEX
  8
0
 62
4
 10
-8.80974372E+01
 20
-1.94173042E+02
  0
VERTEX
  8
0
 62
4
 10
-8.83762888E+01
 20
-1.94080774E+02
  0
VERTEX
  8
0
 62
4
 10
-8.86733584E+01
 20
-1.93999291E+02
  0
VERTEX
  8
0
 62
4
 10
-8.89863175E+01
 20
-1.93929233E+02
  0
VERTEX
  8
0
 62
4
 10
-8.93127126E+01
 20
-1.93871148E+02
  0
VERTEX
  8
0
 62
4
 10
-8.96499853E+01
 20
-1.93825492E+02
  0
VERTEX
  8
0
 62
4
 10
-8.99954915E+01
 20
-1.93792622E+02
  0
VERTEX
  8
0
 62
4
 10
-9.03465230E+01
 20
-1.93772797E+02
  0
VERTEX
  8
0
 62
4
 10
-9.07003279E+01
 20
-1.93766171E+02
  0
VERTEX
  8
0
 62
4
 10
-9.10541328E+01
 20
-1.93772797E+02
  0
VERTEX
  8
0
 62
4
 10
-9.14051643E+01
 20
-1.93792622E+02
  0
VERTEX
  8
0
 62
4
 10
-9.17506705E+01
 20
-1.93825492E+02
  0
VERTEX
  8
0
 62
4
 10
-9.20879431E+01
 20
-1.93871148E+02
  0
VERTEX
  8
0
 62
4
 10
-9.24143383E+01
 20
-1.93929233E+02
  0
VERTEX
  8
0
 62
4
 10
-9.27272973E+01
 20
-1.93999291E+02
  0
VERTEX
  8
0
 62
4
 10
-9.30243670E+01
 20
-1.94080774E+02
  0
VERTEX
  8
0
 62
4
 10
-9.33032186E+01
 20
-1.94173042E+02
  0
VERTEX
  8
0
 62
4
 10
-9.35616661E+01
 20
-1.94275372E+02
  0
VERTEX
  8
0
 62
4
 10
-9.37976837E+01
 20
-1.94386962E+02
  0
VERTEX
  8
0
 62
4
 10
-9.40094211E+01
 20
-1.94506937E+02
  0
VERTEX
  8
0
 62
4
 10
-9.41952187E+01
 20
-1.94634357E+02
  0
VERTEX
  8
0
 62
4
 10
-9.43536198E+01
 20
-1.94768223E+02
  0
VERTEX
  8
0
 62
4
 10
-9.44833829E+01
 20
-1.94907485E+02
  0
VERTEX
  8
0
 62
4
 10
-9.45834906E+01
 20
-1.95051052E+02
  0
VERTEX
  8
0
 62
4
 10
-9.46531583E+01
 20
-1.95197799E+02
  0
VERTEX
  8
0
 62
4
 10
-9.46918398E+01
 20
-1.95346574E+02
  0
VERTEX
  8
0
 62
4
 10
-9.46992320E+01
 20
-1.95496213E+02
  0
VERTEX
  8
0
 62
4
 10
-9.46752768E+01
 20
-1.95645541E+02
  0
VERTEX
  8
0
 62
4
 10
-9.46201620E+01
 20
-1.95793389E+02
  0
VERTEX
  8
0
 62
4
 10
-9.45343197E+01
 20
-1.95938597E+02
  0
VERTEX
  8
0
 62
4
 10
-9.44184229E+01
 20
-1.96080027E+02
  0
VERTEX
  8
0
 62
4
 10
-9.42733799E+01
 20
-1.96216570E+02
  0
VERTEX
  8
0
 62
4
 10
-9.41003279E+01
 20
-1.96347156E+02
  0
SEQEND
  8
0
  0
POLYLINE
  8
0
 62
4
 66
1
  0
VERTEX
  8
0
 62
4
 10
-8.67003279E+01
 20
-1.95003490E+02
  0
VERTEX
  8
0
 62
4
 10
-8.67164307E+01
 20
-1.94851957E+02
  0
VERTEX
  8
0
 62
4
 10
-8.67646095E+01
 20
-1.94701644E+02
  0
VERTEX
  8
0
 62
4
 10
-8.68444765E+01
 20
-1.94553762E+02
  0
VERTEX
  8
0
 62
4
 10
-8.69553884E+01
 20
-1.94409500E+02
  0
VERTEX
  8
0
 62
4
 10
-8.70964524E+01
 20
-1.94270021E+02
  0
VERTEX
  8
0
 62
4
 10
-8.72665327E+01
 20
-1.94136448E+02
  0
VERTEX
  8
0
 62
4
 10
-8.74642599E+01
 20
-1.94009855E+02
  0
VERTEX
  8
0
 62
4
 10
-8.76880420E+01
 20
-1.93891262E+02
  0
VERTEX
  8
0
 62
4
 10
-8.79360773E+01
 20
-1.93781625E+02
  0
VERTEX
  8
0
 62
4
 10
-8.82063687E+01
 20
-1.93681825E+02
  0
VERTEX
  8
0
 62
4
 10
-8.84967400E+01
 20
-1.93592666E+02
  0
VERTEX
  8
0
 62
4
 10
-8.88048532E+01
 20
-1.93514867E+02
  0
VERTEX
  8
0
 62
4
 10
-8.91282278E+01
 20
-1.93449053E+02
  0
VERTEX
  8
0
 62
4
 10
-8.94642599E+01
 20
-1.93395755E+02
  0
VERTEX
  8
0
 62
4
 10
-8.98102442E+01
 20
-1.93355401E+02
  0
VERTEX
  8
0
 62
4
 10
-9.01633948E+01
 20
-1.93328316E+02
  0
VERTEX
  8
0
 62
4
 10
-9.05208686E+01
 20
-1.93314719E+02
  0
VERTEX
  8
0
 62
4
 10
-9.08797872E+01
 20
-1.93314719E+02
  0
VERTEX
  8
0
 62
4
 10
-9.12372610E+01
 20
-1.93328316E+02
  0
VERTEX
  8
0
 62
4
 10
-9.15904116E+01
 20
-1.93355401E+02
  0
VERTEX
  8
0
 62
4
 10
-9.19363959E+01
 20
-1.93395755E+02
  0
VERTEX
  8
0
 62
4
 10
-9.22724280E+01
 20
-1.93449053E+02
  0
VERTEX
  8
0
 62
4
 10
-9.25958025E+01
 20
-1.93514867E+02
  0
VERTEX
  8
0
 62
4
 10
-9.29039158E+01
 20
-1.93592666E+02
  0
VERTEX
  8
0
 62
4
 10
-9.31942871E+01
 20
-1.93681825E+02
  0
VERTEX
  8
0
 62
4
 10
-9.34645785E+01
 20
-1.93781625E+02
  0
VERTEX
  8
0
 62
4
 10
-9.37126138E+01
 20
-1.93891262E+02
  0
VERTEX
  8
0
 62
4
 10
-9.39363959E+01
 20
-1.94009855E+02
  0
VERTEX
  8
0
 62
4
 10
-9.41341231E+01
 20
-1.94136448E+02
  0
VERTEX
  8
0
 62
4
 10
-9.43042034E+01
 20
-1.94270021E+02
  0
VERTEX
  8
0
 62
4
 10
-9.44452674E+01
 20
-1.94409500E+02
  0
VERTEX
  8
0
 62
4
 10
-9.45561793E+01
 20
-1.94553762E+02
  0
VERTEX
  8
0
 62
4
 10
-9.46360463E+01
 20
-1.94701644E+02
  0
VERTEX
  8
0
 62
4
 10
-9.46842251E+01
 20
-1.94851957E+02
  0
VERTEX
  8
0
 62
4
 10
-9.47003279E+01
 20
-1.95003490E+02
  0
SEQEND
  8
0
  0
LINE
  8
0
 62
4
 10
-8.67003279E+01
 20
-1.95003490E+02
 11
-8.67003279E+01
 21
-1.95456644E+02
  0
LINE
  8
0
 62
4
 10
-9.47003279E+01
 20
-1.95003490E+02
 11
-9.47003279E+01
 21
-1.95456644E+02
  0
LINE
  8
0
 62
4
 10
-8.73003279E+01
 20
-1.95456644E+02
 11
-8.73003279E+01
 21
-1.97421145E+02
  0
LINE
  8
0
 62
4
 10
-9.41003279E+01
 20
-1.95456644E+02
 11
-9.41003279E+01
 21
-1.97421145E+02
  0
POLYLINE
  8
0
 62
4
 66
1
  0
VERTEX
  8
0
 62
4
 10
-8.73003279E+01
 20
-1.95456644E+02
  0
VERTEX
  8
0
 62
4
 10
-8.73140153E+01
 20
-1.95327841E+02
  0
VERTEX
  8
0
 62
4
 10
-8.73549673E+01
 20
-1.95200075E+02
  0
VERTEX
  8
0
 62
4
 10
-8.74228542E+01
 20
-1.95074375E+02
  0
VERTEX
  8
0
 62
4
 10
-8.75171293E+01
 20
-1.94951753E+02
  0
VERTEX
  8
0
 62
4
 10
-8.76370337E+01
 20
-1.94833196E+02
  0
VERTEX
  8
0
 62
4
 10
-8.77816020E+01
 20
-1.94719658E+02
  0
VERTEX
  8
0
 62
4
 10
-8.79496701E+01
 20
-1.94612054E+02
  0
VERTEX
  8
0
 62
4
 10
-8.81398849E+01
 20
-1.94511250E+02
  0
VERTEX
  8
0
 62
4
 10
-8.83507149E+01
 20
-1.94418059E+02
  0
VERTEX
  8
0
 62
4
 10
-8.85804626E+01
 20
-1.94333229E+02
  0
VERTEX
  8
0
 62
4
 10
-8.88272782E+01
 20
-1.94257444E+02
  0
VERTEX
  8
0
 62
4
 10
-8.90891744E+01
 20
-1.94191314E+02
  0
VERTEX
  8
0
 62
4
 10
-8.93640428E+01
 20
-1.94135373E+02
  0
VERTEX
  8
0
 62
4
 10
-8.96496701E+01
 20
-1.94090069E+02
  0
VERTEX
  8
0
 62
4
 10
-8.99437567E+01
 20
-1.94055768E+02
  0
VERTEX
  8
0
 62
4
 10
-9.02439348E+01
 20
-1.94032746E+02
  0
VERTEX
  8
0
 62
4
 10
-9.05477875E+01
 20
-1.94021189E+02
  0
VERTEX
  8
0
 62
4
 10
-9.08528683E+01
 20
-1.94021189E+02
  0
VERTEX
  8
0
 62
4
 10
-9.11567210E+01
 20
-1.94032746E+02
  0
VERTEX
  8
0
 62
4
 10
-9.14568991E+01
 20
-1.94055768E+02
  0
VERTEX
  8
0
 62
4
 10
-9.17509857E+01
 20
-1.94090069E+02
  0
VERTEX
  8
0
 62
4
 10
-9.20366130E+01
 20
-1.94135373E+02
  0
VERTEX
  8
0
 62
4
 10
-9.23114813E+01
 20
-1.94191314E+02
  0
VERTEX
  8
0
 62
4
 10
-9.25733776E+01
 20
-1.94257444E+02
  0
VERTEX
  8
0
 62
4
 10
-9.28201932E+01
 20
-1.94333229E+02
  0
VERTEX
  8
0
 62
4
 10
-9.30499409E+01
 20
-1.94418059E+02
  0
VERTEX
  8
0
 62
4
 10
-9.32607709E+01
 20
-1.94511250E+02
  0
VERTEX
  8
0
 62
4
 10
-9.34509857E+01
 20
-1.94612054E+02
  0
VERTEX
  8
0
 62
4
 10
-9.36190538E+01
 20
-1.94719658E+02
  0
VERTEX
  8
0
 62
4
 10
-9.37636220E+01
 20
-1.94833196E+02
  0
VERTEX
  8
0
 62
4
 10
-9.38835265E+01
 20
-1.94951753E+02
  0
VERTEX
  8
0
 62
4
 10
-9.39778016E+01
 20
-1.95074375E+02
  0
VERTEX
  8
0
 62
4
 10
-9.40456885E+01
 20
-1.95200075E+02
  0
VERTEX
  8
0
 62
4
 10
-9.40866405E+01
 20
-1.95327841E+02
  0
VERTEX
  8
0
 62
4
 10
-9.41003279E+01
 20
-1.95456644E+02
  0
SEQEND
  8
0
  0
POLYLINE
  8
0
 62
4
 66
1
  0
VERTEX
  8
0
 62
4
 10
-8.73003279E+01
 20
-1.97421145E+02
  0
VERTEX
  8
0
 62
4
 10
-8.73132659E+01
 20
-1.97280385E+02
  0
VERTEX
  8
0
 62
4
 10
-8.73519815E+01
 20
-1.97140697E+02
  0
VERTEX
  8
0
 62
4
 10
-8.74161801E+01
 20
-1.97003143E+02
  0
VERTEX
  8
0
 62
4
 10
-8.75053730E+01
 20
-1.96868770E+02
  0
VERTEX
  8
0
 62
4
 10
-8.76188814E+01
 20
-1.96738601E+02
  0
VERTEX
  8
0
 62
4
 10
-8.77558415E+01
 20
-1.96613627E+02
  0
VERTEX
  8
0
 62
4
 10
-8.79152109E+01
 20
-1.96494799E+02
  0
VERTEX
  8
0
 62
4
 10
-8.80957768E+01
 20
-1.96383020E+02
  0
VERTEX
  8
0
 62
4
 10
-8.82961648E+01
 20
-1.96279142E+02
  0
VERTEX
  8
0
 62
4
 10
-8.85148500E+01
 20
-1.96183956E+02
  0
VERTEX
  8
0
 62
4
 10
-8.87501680E+01
 20
-1.96098185E+02
  0
VERTEX
  8
0
 62
4
 10
-8.90003279E+01
 20
-1.96022483E+02
  0
VERTEX
  8
0
 62
4
 10
-8.92634258E+01
 20
-1.95957426E+02
  0
VERTEX
  8
0
 62
4
 10
-8.95374594E+01
 20
-1.95903508E+02
  0
VERTEX
  8
0
 62
4
 10
-8.98203431E+01
 20
-1.95861140E+02
  0
VERTEX
  8
0
 62
4
 10
-9.01099241E+01
 20
-1.95830645E+02
  0
VERTEX
  8
0
 62
4
 10
-9.04039984E+01
 20
-1.95812255E+02
  0
VERTEX
  8
0
 62
4
 10
-9.07003279E+01
 20
-1.95806109E+02
  0
VERTEX
  8
0
 62
4
 10
-9.09966574E+01
 20
-1.95812255E+02
  0
VERTEX
  8
0
 62
4
 10
-9.12907317E+01
 20
-1.95830645E+02
  0
VERTEX
  8
0
 62
4
 10
-9.15803127E+01
 20
-1.95861140E+02
  0
VERTEX
  8
0
 62
4
 10
-9.18631964E+01
 20
-1.95903508E+02
  0
VERTEX
  8
0
 62
4
 10
-9.21372300E+01
 20
-1.95957426E+02
  0
VERTEX
  8
0
 62
4
 10
-9.24003279E+01
 20
-1.96022483E+02
  0
VERTEX
  8
0
 62
4
 10
-9.26504878E+01
 20
-1.96098185E+02
  0
VERTEX
  8
0
 62
4
 10
-9.28858058E+01
 20
-1.96183956E+02
  0
VERTEX
  8
0
 62
4
 10
-9.31044910E+01
 20
-1.96279142E+02
  0
VERTEX
  8
0
 62
4
 10
-9.33048790E+01
 20
-1.96383020E+02
  0
VERTEX
  8
0
 62
4
 10
-9.34854449E+01
 20
-1.96494799E+02
  0
VERTEX
  8
0
 62
4
 10
-9.36448143E+01
 20
-1.96613627E+02
  0
VERTEX
  8
0
 62
4
 10
-9.37817744E+01
 20
-1.96738601E+02
  0
VERTEX
  8
0
 62
4
 10
-9.38952828E+01
 20
-1.96868770E+02
  0
VERTEX
  8
0
 62
4
 10
-9.39844757E+01
 20
-1.97003143E+02
  0
VERTEX
  8
0
 62
4
 10
-9.40486743E+01
 20
-1.97140697E+02
  0
VERTEX
  8
0
 62
4
 10
-9.40873899E+01
 20
-1.97280385E+02
  0
VERTEX
  8
0
 62
4
 10
-9.41003279E+01
 20
-1.97421145E+02
  0
VERTEX
  8
0
 62
4
 10
-9.40873899E+01
 20
-1.97561905E+02
  0
VERTEX
  8
0
 62
4
 10
-9.40486743E+01
 20
-1.97701593E+02
  0
VERTEX
  8
0
 62
4
 10
-9.39844757E+01
 20
-1.97839147E+02
  0
VERTEX
  8
0
 62
4
 10
-9.38952828E+01
 20
-1.97973520E+02
  0
VERTEX
  8
0
 62
4
 10
-9.37817744E+01
 20
-1.98103689E+02
  0
VERTEX
  8
0
 62
4
 10
-9.36448143E+01
 20
-1.98228663E+02
  0
VERTEX
  8
0
 62
4
 10
-9.34854448E+01
 20
-1.98347491E+02
  0
VERTEX
  8
0
 62
4
 10
-9.33048790E+01
 20
-1.98459270E+02
  0
VERTEX
  8
0
 62
4
 10
-9.31044910E+01
 20
-1.98563148E+02
  0
VERTEX
  8
0
 62
4
 10
-9.28858058E+01
 20
-1.98658334E+02
  0
VERTEX
  8
0
 62
4
 10
-9.26504878E+01
 20
-1.98744105E+02
  0
VERTEX
  8
0
 62
4
 10
-9.24003279E+01
 20
-1.98819807E+02
  0
VERTEX
  8
0
 62
4
 10
-9.21372300E+01
 20
-1.98884864E+02
  0
VERTEX
  8
0
 62
4
 10
-9.18631964E+01
 20
-1.98938782E+02
  0
VERTEX
  8
0
 62
4
 10
-9.15803126E+01
 20
-1.98981150E+02
  0
VERTEX
  8
0
 62
4
 10
-9.12907317E+01
 20
-1.99011645E+02
  0
VERTEX
  8
0
 62
4
 10
-9.09966574E+01
 20
-1.99030035E+02
  0
VERTEX
  8
0
 62
4
 10
-9.07003279E+01
 20
-1.99036181E+02
  0
VERTEX
  8
0
 62
4
 10
-9.04039984E+01
 20
-1.99030035E+02
  0
VERTEX
  8
0
 62
4
 10
-9.01099241E+01
 20
-1.99011645E+02
  0
VERTEX
  8
0
 62
4
 10
-8.98203431E+01
 20
-1.98981150E+02
  0
VERTEX
  8
0
 62
4
 10
-8.95374594E+01
 20
-1.98938782E+02
  0
VERTEX
  8
0
 62
4
 10
-8.92634258E+01
 20
-1.98884864E+02
  0
VERTEX
  8
0
 62
4
 10
-8.90003279E+01
 20
-1.98819807E+02
  0
VERTEX
  8
0
 62
4
 10
-8.87501680E+01
 20
-1.98744105E+02
  0
VERTEX
  8
0
 62
4
 10
-8.85148500E+01
 20
-1.98658334E+02
  0
VERTEX
  8
0
 62
4
 10
-8.82961648E+01
 20
-1.98563148E+02
  0
VERTEX
  8
0
 62
4
 10
-8.80957768E+01
 20
-1.98459270E+02
  0
VERTEX
  8
0
 62
4
 10
-8.79152109E+01
 20
-1.98347491E+02
  0
VERTEX
  8
0
 62
4
 10
-8.77558415E+01
 20
-1.98228663E+02
  0
VERTEX
  8
0
 62
4
 10
-8.76188814E+01
 20
-1.98103689E+02
  0
VERTEX
  8
0
 62
4
 10
-8.75053730E+01
 20
-1.97973520E+02
  0
VERTEX
  8
0
 62
4
 10
-8.74161801E+01
 20
-1.97839147E+02
  0
VERTEX
  8
0
 62
4
 10
-8.73519815E+01
 20
-1.97701593E+02
  0
VERTEX
  8
0
 62
4
 10
-8.73132659E+01
 20
-1.97561905E+02
  0
VERTEX
  8
0
 62
4
 10
-8.73003279E+01
 20
-1.97421145E+02
  0
SEQEND
  8
0
  0
ARC
  8
0
 62
4
 10
-9.49359229E+01
 20
-1.86749191E+02
 40
1.21769740E+01
 50
2.81737853E+02
 51
2.99537899E+02
  0
ARC
  8
0
 62
4
 10
-8.64647329E+01
 20
-1.86749191E+02
 40
1.21769740E+01
 50
2.40462101E+02
 51
2.58262147E+02
  0
LINE
  8
0
 62
4
 10
-8.76913674E+01
 20
-1.98173127E+02
 11
-6.52003279E+01
 21
-1.98173127E+02
  0
POLYLINE
  8
0
 62
4
 66
1
  0
VERTEX
  8
0
 62
4
 10
-7.68052858E+01
 20
-1.78423904E+02
  0
VERTEX
  8
0
 62
4
 10
-7.70418294E+01
 20
-1.78600505E+02
  0
VERTEX
  8
0
 62
4
 10
-7.72604204E+01
 20
-1.78795183E+02
  0
VERTEX
  8
0
 62
4
 10
-7.74593829E+01
 20
-1.79006445E+02
  0
VERTEX
  8
0
 62
4
 10
-7.76371913E+01
 20
-1.79232671E+02
  0
VERTEX
  8
0
 62
4
 10
-7.77924823E+01
 20
-1.79472127E+02
  0
VERTEX
  8
0
 62
4
 10
-7.79240654E+01
 20
-1.79722976E+02
  0
VERTEX
  8
0
 62
4
 10
-7.80309317E+01
 20
-1.79983296E+02
  0
VERTEX
  8
0
 62
4
 10
-7.81122618E+01
 20
-1.80251091E+02
  0
VERTEX
  8
0
 62
4
 10
-7.81674321E+01
 20
-1.80524308E+02
  0
VERTEX
  8
0
 62
4
 10
-7.81960197E+01
 20
-1.80800851E+02
  0
VERTEX
  8
0
 62
4
 10
-7.81978054E+01
 20
-1.81078600E+02
  0
VERTEX
  8
0
 62
4
 10
-7.81727754E+01
 20
-1.81355426E+02
  0
VERTEX
  8
0
 62
4
 10
-7.81211218E+01
 20
-1.81629207E+02
  0
VERTEX
  8
0
 62
4
 10
-7.80432404E+01
 20
-1.81897842E+02
  0
VERTEX
  8
0
 62
4
 10
-7.79397285E+01
 20
-1.82159273E+02
  0
VERTEX
  8
0
 62
4
 10
-7.78113796E+01
 20
-1.82411496E+02
  0
VERTEX
  8
0
 62
4
 10
-7.76591780E+01
 20
-1.82652575E+02
  0
VERTEX
  8
0
 62
4
 10
-7.74842904E+01
 20
-1.82880664E+02
  0
VERTEX
  8
0
 62
4
 10
-7.72880578E+01
 20
-1.83094013E+02
  0
VERTEX
  8
0
 62
4
 10
-7.70719847E+01
 20
-1.83290986E+02
  0
VERTEX
  8
0
 62
4
 10
-7.68377279E+01
 20
-1.83470073E+02
  0
VERTEX
  8
0
 62
4
 10
-7.65870833E+01
 20
-1.83629901E+02
  0
VERTEX
  8
0
 62
4
 10
-7.63219727E+01
 20
-1.83769245E+02
  0
VERTEX
  8
0
 62
4
 10
-7.60444287E+01
 20
-1.83887036E+02
  0
VERTEX
  8
0
 62
4
 10
-7.57565794E+01
 20
-1.83982372E+02
  0
VERTEX
  8
0
 62
4
 10
-7.54606316E+01
 20
-1.84054520E+02
  0
VERTEX
  8
0
 62
4
 10
-7.51588544E+01
 20
-1.84102929E+02
  0
VERTEX
  8
0
 62
4
 10
-7.48535617E+01
 20
-1.84127226E+02
  0
VERTEX
  8
0
 62
4
 10
-7.45470941E+01
 20
-1.84127226E+02
  0
VERTEX
  8
0
 62
4
 10
-7.42418014E+01
 20
-1.84102929E+02
  0
VERTEX
  8
0
 62
4
 10
-7.39400243E+01
 20
-1.84054520E+02
  0
VERTEX
  8
0
 62
4
 10
-7.36440765E+01
 20
-1.83982372E+02
  0
VERTEX
  8
0
 62
4
 10
-7.33562271E+01
 20
-1.83887036E+02
  0
VERTEX
  8
0
 62
4
 10
-7.30786832E+01
 20
-1.83769245E+02
  0
VERTEX
  8
0
 62
4
 10
-7.28135726E+01
 20
-1.83629901E+02
  0
VERTEX
  8
0
 62
4
 10
-7.25629280E+01
 20
-1.83470073E+02
  0
VERTEX
  8
0
 62
4
 10
-7.23286711E+01
 20
-1.83290986E+02
  0
VERTEX
  8
0
 62
4
 10
-7.21125980E+01
 20
-1.83094013E+02
  0
VERTEX
  8
0
 62
4
 10
-7.19163654E+01
 20
-1.82880664E+02
  0
VERTEX
  8
0
 62
4
 10
-7.17414779E+01
 20
-1.82652575E+02
  0
VERTEX
  8
0
 62
4
 10
-7.15892762E+01
 20
-1.82411496E+02
  0
VERTEX
  8
0
 62
4
 10
-7.14609273E+01
 20
-1.82159273E+02
  0
VERTEX
  8
0
 62
4
 10
-7.13574154E+01
 20
-1.81897842E+02
  0
VERTEX
  8
0
 62
4
 10
-7.12795341E+01
 20
-1.81629207E+02
  0
VERTEX
  8
0
 62
4
 10
-7.12278804E+01
 20
-1.81355426E+02
  0
VERTEX
  8
0
 62
4
 10
-7.12028504E+01
 20
-1.81078600E+02
  0
VERTEX
  8
0
 62
4
 10
-7.12046361E+01
 20
-1.80800851E+02
  0
VERTEX
  8
0
 62
4
 10
-7.12332237E+01
 20
-1.80524308E+02
  0
VERTEX
  8
0
 62
4
 10
-7.12883940E+01
 20
-1.80251091E+02
  0
VERTEX
  8
0
 62
4
 10
-7.13697241E+01
 20
-1.79983297E+02
  0
VERTEX
  8
0
 62
4
 10
-7.14765904E+01
 20
-1.79722976E+02
  0
VERTEX
  8
0
 62
4
 10
-7.16081735E+01
 20
-1.79472127E+02
  0
VERTEX
  8
0
 62
4
 10
-7.17634645E+01
 20
-1.79232671E+02
  0
VERTEX
  8
0
 62
4
 10
-7.19412729E+01
 20
-1.79006445E+02
  0
VERTEX
  8
0
 62
4
 10
-7.21402353E+01
 20
-1.78795183E+02
  0
VERTEX
  8
0
 62
4
 10
-7.23588263E+01
 20
-1.78600505E+02
  0
VERTEX
  8
0
 62
4
 10
-7.25953699E+01
 20
-1.78423904E+02
  0
SEQEND
  8
0
  0
POLYLINE
  8
0
 62
4
 66
1
  0
VERTEX
  8
0
 62
4
 10
-7.15603279E+01
 20
-1.80535572E+02
  0
VERTEX
  8
0
 62
4
 10
-7.15722765E+01
 20
-1.80287544E+02
  0
VERTEX
  8
0
 62
4
 10
-7.16080316E+01
 20
-1.80041403E+02
  0
VERTEX
  8
0
 62
4
 10
-7.16673208E+01
 20
-1.79799023E+02
  0
VERTEX
  8
0
 62
4
 10
-7.17496931E+01
 20
-1.79562249E+02
  0
VERTEX
  8
0
 62
4
 10
-7.18545214E+01
 20
-1.79332882E+02
  0
VERTEX
  8
0
 62
4
 10
-7.19810081E+01
 20
-1.79112669E+02
  0
VERTEX
  8
0
 62
4
 10
-7.21281905E+01
 20
-1.78903284E+02
  0
VERTEX
  8
0
 62
4
 10
-7.22949483E+01
 20
-1.78706323E+02
  0
VERTEX
  8
0
 62
4
 10
-7.24800126E+01
 20
-1.78523283E+02
  0
VERTEX
  8
0
 62
4
 10
-7.26819748E+01
 20
-1.78355558E+02
  0
VERTEX
  8
0
 62
4
 10
-7.28992979E+01
 20
-1.78204424E+02
  0
VERTEX
  8
0
 62
4
 10
-7.31303279E+01
 20
-1.78071031E+02
  0
VERTEX
  8
0
 62
4
 10
-7.33733066E+01
 20
-1.77956395E+02
  0
VERTEX
  8
0
 62
4
 10
-7.36263847E+01
 20
-1.77861389E+02
  0
VERTEX
  8
0
 62
4
 10
-7.38876361E+01
 20
-1.77786734E+02
  0
VERTEX
  8
0
 62
4
 10
-7.41550726E+01
 20
-1.77733000E+02
  0
VERTEX
  8
0
 62
4
 10
-7.44266589E+01
 20
-1.77700595E+02
  0
VERTEX
  8
0
 62
4
 10
-7.47003279E+01
 20
-1.77689766E+02
  0
VERTEX
  8
0
 62
4
 10
-7.49739969E+01
 20
-1.77700595E+02
  0
VERTEX
  8
0
 62
4
 10
-7.52455832E+01
 20
-1.77733000E+02
  0
VERTEX
  8
0
 62
4
 10
-7.55130197E+01
 20
-1.77786734E+02
  0
VERTEX
  8
0
 62
4
 10
-7.57742712E+01
 20
-1.77861389E+02
  0
VERTEX
  8
0
 62
4
 10
-7.60273492E+01
 20
-1.77956395E+02
  0
VERTEX
  8
0
 62
4
 10
-7.62703279E+01
 20
-1.78071031E+02
  0
VERTEX
  8
0
 62
4
 10
-7.65013579E+01
 20
-1.78204424E+02
  0
VERTEX
  8
0
 62
4
 10
-7.67186810E+01
 20
-1.78355558E+02
  0
VERTEX
  8
0
 62
4
 10
-7.69206432E+01
 20
-1.78523283E+02
  0
VERTEX
  8
0
 62
4
 10
-7.71057075E+01
 20
-1.78706323E+02
  0
VERTEX
  8
0
 62
4
 10
-7.72724653E+01
 20
-1.78903284E+02
  0
VERTEX
  8
0
 62
4
 10
-7.74196477E+01
 20
-1.79112669E+02
  0
VERTEX
  8
0
 62
4
 10
-7.75461344E+01
 20
-1.79332882E+02
  0
VERTEX
  8
0
 62
4
 10
-7.76509627E+01
 20
-1.79562249E+02
  0
VERTEX
  8
0
 62
4
 10
-7.77333350E+01
 20
-1.79799023E+02
  0
VERTEX
  8
0
 62
4
 10
-7.77926242E+01
 20
-1.80041403E+02
  0
VERTEX
  8
0
 62
4
 10
-7.78283793E+01
 20
-1.80287544E+02
  0
VERTEX
  8
0
 62
4
 10
-7.78403279E+01
 20
-1.80535572E+02
  0
VERTEX
  8
0
 62
4
 10
-7.78283793E+01
 20
-1.80783600E+02
  0
VERTEX
  8
0
 62
4
 10
-7.77926242E+01
 20
-1.81029741E+02
  0
VERTEX
  8
0
 62
4
 10
-7.77333350E+01
 20
-1.81272121E+02
  0
VERTEX
  8
0
 62
4
 10
-7.76509627E+01
 20
-1.81508895E+02
  0
VERTEX
  8
0
 62
4
 10
-7.75461343E+01
 20
-1.81738262E+02
  0
VERTEX
  8
0
 62
4
 10
-7.74196477E+01
 20
-1.81958475E+02
  0
VERTEX
  8
0
 62
4
 10
-7.72724653E+01
 20
-1.82167860E+02
  0
VERTEX
  8
0
 62
4
 10
-7.71057074E+01
 20
-1.82364821E+02
  0
VERTEX
  8
0
 62
4
 10
-7.69206432E+01
 20
-1.82547861E+02
  0
VERTEX
  8
0
 62
4
 10
-7.67186810E+01
 20
-1.82715586E+02
  0
VERTEX
  8
0
 62
4
 10
-7.65013579E+01
 20
-1.82866720E+02
  0
VERTEX
  8
0
 62
4
 10
-7.62703279E+01
 20
-1.83000113E+02
  0
VERTEX
  8
0
 62
4
 10
-7.60273492E+01
 20
-1.83114749E+02
  0
VERTEX
  8
0
 62
4
 10
-7.57742711E+01
 20
-1.83209755E+02
  0
VERTEX
  8
0
 62
4
 10
-7.55130197E+01
 20
-1.83284410E+02
  0
VERTEX
  8
0
 62
4
 10
-7.52455832E+01
 20
-1.83338144E+02
  0
VERTEX
  8
0
 62
4
 10
-7.49739969E+01
 20
-1.83370549E+02
  0
VERTEX
  8
0
 62
4
 10
-7.47003279E+01
 20
-1.83381378E+02
  0
VERTEX
  8
0
 62
4
 10
-7.44266589E+01
 20
-1.83370549E+02
  0
VERTEX
  8
0
 62
4
 10
-7.41550726E+01
 20
-1.83338144E+02
  0
VERTEX
  8
0
 62
4
 10
-7.38876361E+01
 20
-1.83284410E+02
  0
VERTEX
  8
0
 62
4
 10
-7.36263846E+01
 20
-1.83209755E+02
  0
VERTEX
  8
0
 62
4
 10
-7.33733066E+01
 20
-1.83114749E+02
  0
VERTEX
  8
0
 62
4
 10
-7.31303279E+01
 20
-1.83000113E+02
  0
VERTEX
  8
0
 62
4
 10
-7.28992979E+01
 20
-1.82866720E+02
  0
VERTEX
  8
0
 62
4
 10
-7.26819748E+01
 20
-1.82715586E+02
  0
VERTEX
  8
0
 62
4
 10
-7.24800126E+01
 20
-1.82547861E+02
  0
VERTEX
  8
0
 62
4
 10
-7.22949483E+01
 20
-1.82364821E+02
  0
VERTEX
  8
0
 62
4
 10
-7.21281905E+01
 20
-1.82167860E+02
  0
VERTEX
  8
0
 62
4
 10
-7.19810081E+01
 20
-1.81958475E+02
  0
VERTEX
  8
0
 62
4
 10
-7.18545214E+01
 20
-1.81738262E+02
  0
VERTEX
  8
0
 62
4
 10
-7.17496931E+01
 20
-1.81508895E+02
  0
VERTEX
  8
0
 62
4
 10
-7.16673208E+01
 20
-1.81272121E+02
  0
VERTEX
  8
0
 62
4
 10
-7.16080316E+01
 20
-1.81029741E+02
  0
VERTEX
  8
0
 62
4
 10
-7.15722765E+01
 20
-1.80783600E+02
  0
VERTEX
  8
0
 62
4
 10
-7.15603279E+01
 20
-1.80535572E+02
  0
SEQEND
  8
0
  0
LINE
  8
0
 62
4
 10
-1.00200328E+02
 20
-1.89568070E+02
 11
-8.12003279E+01
 21
-1.89568070E+02
  0
ARC
  8
0
 62
4
 10
-6.52003279E+01
 20
-1.90333857E+02
 40
1.49999664E+00
 50
2.69999872E+02
 51
1.28225561E-04
  0
ARC
  8
0
 62
4
 10
-1.01200331E+02
 20
-1.90333853E+02
 40
1.50000046E+00
 50
1.80000018E+02
 51
2.69999983E+02
  0
LINE
  8
0
 62
4
 10
3.67439672E+02
 20
-3.83015345E+02
 11
3.67731518E+02
 21
-3.83631170E+02
  0
LINE
  8
0
 62
4
 10
3.61159672E+02
 20
-3.83015345E+02
 11
3.60867827E+02
 21
-3.83631170E+02
  0
POLYLINE
  8
0
 62
4
 66
1
  0
VERTEX
  8
0
 62
4
 10
3.60867826E+02
 20
-3.83631171E+02
  0
VERTEX
  8
0
 62
4
 10
3.60820536E+02
 20
-3.83760384E+02
  0
VERTEX
  8
0
 62
4
 10
3.60800431E+02
 20
-3.83890857E+02
  0
VERTEX
  8
0
 62
4
 10
3.60807667E+02
 20
-3.84021571E+02
  0
VERTEX
  8
0
 62
4
 10
3.60842187E+02
 20
-3.84151505E+02
  0
VERTEX
  8
0
 62
4
 10
3.60903724E+02
 20
-3.84279642E+02
  0
VERTEX
  8
0
 62
4
 10
3.60991794E+02
 20
-3.84404982E+02
  0
VERTEX
  8
0
 62
4
 10
3.61105711E+02
 20
-3.84526546E+02
  0
VERTEX
  8
0
 62
4
 10
3.61244585E+02
 20
-3.84643383E+02
  0
VERTEX
  8
0
 62
4
 10
3.61407329E+02
 20
-3.84754581E+02
  0
VERTEX
  8
0
 62
4
 10
3.61592673E+02
 20
-3.84859271E+02
  0
VERTEX
  8
0
 62
4
 10
3.61799168E+02
 20
-3.84956635E+02
  0
VERTEX
  8
0
 62
4
 10
3.62025201E+02
 20
-3.85045911E+02
  0
VERTEX
  8
0
 62
4
 10
3.62269006E+02
 20
-3.85126404E+02
  0
VERTEX
  8
0
 62
4
 10
3.62528677E+02
 20
-3.85197483E+02
  0
VERTEX
  8
0
 62
4
 10
3.62802187E+02
 20
-3.85258593E+02
  0
VERTEX
  8
0
 62
4
 10
3.63087397E+02
 20
-3.85309257E+02
  0
VERTEX
  8
0
 62
4
 10
3.63382079E+02
 20
-3.85349079E+02
  0
VERTEX
  8
0
 62
4
 10
3.63683931E+02
 20
-3.85377747E+02
  0
VERTEX
  8
0
 62
4
 10
3.63990594E+02
 20
-3.85395038E+02
  0
VERTEX
  8
0
 62
4
 10
3.64299672E+02
 20
-3.85400817E+02
  0
VERTEX
  8
0
 62
4
 10
3.64608750E+02
 20
-3.85395038E+02
  0
VERTEX
  8
0
 62
4
 10
3.64915413E+02
 20
-3.85377747E+02
  0
VERTEX
  8
0
 62
4
 10
3.65217265E+02
 20
-3.85349079E+02
  0
VERTEX
  8
0
 62
4
 10
3.65511947E+02
 20
-3.85309257E+02
  0
VERTEX
  8
0
 62
4
 10
3.65797157E+02
 20
-3.85258593E+02
  0
VERTEX
  8
0
 62
4
 10
3.66070667E+02
 20
-3.85197483E+02
  0
VERTEX
  8
0
 62
4
 10
3.66330338E+02
 20
-3.85126404E+02
  0
VERTEX
  8
0
 62
4
 10
3.66574143E+02
 20
-3.85045911E+02
  0
VERTEX
  8
0
 62
4
 10
3.66800176E+02
 20
-3.84956635E+02
  0
VERTEX
  8
0
 62
4
 10
3.67006671E+02
 20
-3.84859271E+02
  0
VERTEX
  8
0
 62
4
 10
3.67192015E+02
 20
-3.84754581E+02
  0
VERTEX
  8
0
 62
4
 10
3.67354759E+02
 20
-3.84643383E+02
  0
VERTEX
  8
0
 62
4
 10
3.67493633E+02
 20
-3.84526546E+02
  0
VERTEX
  8
0
 62
4
 10
3.67607550E+02
 20
-3.84404982E+02
  0
VERTEX
  8
0
 62
4
 10
3.67695620E+02
 20
-3.84279642E+02
  0
VERTEX
  8
0
 62
4
 10
3.67757157E+02
 20
-3.84151505E+02
  0
VERTEX
  8
0
 62
4
 10
3.67791677E+02
 20
-3.84021571E+02
  0
VERTEX
  8
0
 62
4
 10
3.67798913E+02
 20
-3.83890857E+02
  0
VERTEX
  8
0
 62
4
 10
3.67778808E+02
 20
-3.83760384E+02
  0
VERTEX
  8
0
 62
4
 10
3.67731518E+02
 20
-3.83631171E+02
  0
SEQEND
  8
0
  0
POLYLINE
  8
0
 62
4
 66
1
  0
VERTEX
  8
0
 62
4
 10
3.67439672E+02
 20
-3.83015345E+02
  0
VERTEX
  8
0
 62
4
 10
3.67427723E+02
 20
-3.82899687E+02
  0
VERTEX
  8
0
 62
4
 10
3.67391968E+02
 20
-3.82784910E+02
  0
VERTEX
  8
0
 62
4
 10
3.67332679E+02
 20
-3.82671887E+02
  0
VERTEX
  8
0
 62
4
 10
3.67250307E+02
 20
-3.82561477E+02
  0
VERTEX
  8
0
 62
4
 10
3.67145478E+02
 20
-3.82454522E+02
  0
VERTEX
  8
0
 62
4
 10
3.67018992E+02
 20
-3.82351834E+02
  0
VERTEX
  8
0
 62
4
 10
3.66871809E+02
 20
-3.82254197E+02
  0
VERTEX
  8
0
 62
4
 10
3.66705052E+02
 20
-3.82162352E+02
  0
VERTEX
  8
0
 62
4
 10
3.66519987E+02
 20
-3.82076999E+02
  0
VERTEX
  8
0
 62
4
 10
3.66318025E+02
 20
-3.81998788E+02
  0
VERTEX
  8
0
 62
4
 10
3.66100702E+02
 20
-3.81928313E+02
  0
VERTEX
  8
0
 62
4
 10
3.65869672E+02
 20
-3.81866111E+02
  0
VERTEX
  8
0
 62
4
 10
3.65626693E+02
 20
-3.81812655E+02
  0
VERTEX
  8
0
 62
4
 10
3.65373615E+02
 20
-3.81768353E+02
  0
VERTEX
  8
0
 62
4
 10
3.65112364E+02
 20
-3.81733541E+02
  0
VERTEX
  8
0
 62
4
 10
3.64844927E+02
 20
-3.81708484E+02
  0
VERTEX
  8
0
 62
4
 10
3.64573341E+02
 20
-3.81693373E+02
  0
VERTEX
  8
0
 62
4
 10
3.64299672E+02
 20
-3.81688324E+02
  0
VERTEX
  8
0
 62
4
 10
3.64026003E+02
 20
-3.81693373E+02
  0
VERTEX
  8
0
 62
4
 10
3.63754417E+02
 20
-3.81708484E+02
  0
VERTEX
  8
0
 62
4
 10
3.63486980E+02
 20
-3.81733541E+02
  0
VERTEX
  8
0
 62
4
 10
3.63225729E+02
 20
-3.81768353E+02
  0
VERTEX
  8
0
 62
4
 10
3.62972651E+02
 20
-3.81812655E+02
  0
VERTEX
  8
0
 62
4
 10
3.62729672E+02
 20
-3.81866111E+02
  0
VERTEX
  8
0
 62
4
 10
3.62498642E+02
 20
-3.81928313E+02
  0
VERTEX
  8
0
 62
4
 10
3.62281319E+02
 20
-3.81998788E+02
  0
VERTEX
  8
0
 62
4
 10
3.62079357E+02
 20
-3.82076999E+02
  0
VERTEX
  8
0
 62
4
 10
3.61894292E+02
 20
-3.82162352E+02
  0
VERTEX
  8
0
 62
4
 10
3.61727535E+02
 20
-3.82254197E+02
  0
VERTEX
  8
0
 62
4
 10
3.61580352E+02
 20
-3.82351834E+02
  0
VERTEX
  8
0
 62
4
 10
3.61453866E+02
 20
-3.82454522E+02
  0
VERTEX
  8
0
 62
4
 10
3.61349037E+02
 20
-3.82561477E+02
  0
VERTEX
  8
0
 62
4
 10
3.61266665E+02
 20
-3.82671887E+02
  0
VERTEX
  8
0
 62
4
 10
3.61207376E+02
 20
-3.82784910E+02
  0
VERTEX
  8
0
 62
4
 10
3.61171621E+02
 20
-3.82899687E+02
  0
VERTEX
  8
0
 62
4
 10
3.61159672E+02
 20
-3.83015345E+02
  0
VERTEX
  8
0
 62
4
 10
3.61171621E+02
 20
-3.83131003E+02
  0
VERTEX
  8
0
 62
4
 10
3.61207376E+02
 20
-3.83245780E+02
  0
VERTEX
  8
0
 62
4
 10
3.61266665E+02
 20
-3.83358803E+02
  0
VERTEX
  8
0
 62
4
 10
3.61349037E+02
 20
-3.83469213E+02
  0
VERTEX
  8
0
 62
4
 10
3.61453866E+02
 20
-3.83576168E+02
  0
VERTEX
  8
0
 62
4
 10
3.61580352E+02
 20
-3.83678856E+02
  0
VERTEX
  8
0
 62
4
 10
3.61727535E+02
 20
-3.83776493E+02
  0
VERTEX
  8
0
 62
4
 10
3.61894292E+02
 20
-3.83868338E+02
  0
VERTEX
  8
0
 62
4
 10
3.62079357E+02
 20
-3.83953691E+02
  0
VERTEX
  8
0
 62
4
 10
3.62281319E+02
 20
-3.84031902E+02
  0
VERTEX
  8
0
 62
4
 10
3.62498642E+02
 20
-3.84102377E+02
  0
VERTEX
  8
0
 62
4
 10
3.62729672E+02
 20
-3.84164579E+02
  0
VERTEX
  8
0
 62
4
 10
3.62972651E+02
 20
-3.84218035E+02
  0
VERTEX
  8
0
 62
4
 10
3.63225729E+02
 20
-3.84262337E+02
  0
VERTEX
  8
0
 62
4
 10
3.63486980E+02
 20
-3.84297149E+02
  0
VERTEX
  8
0
 62
4
 10
3.63754417E+02
 20
-3.84322206E+02
  0
VERTEX
  8
0
 62
4
 10
3.64026003E+02
 20
-3.84337317E+02
  0
VERTEX
  8
0
 62
4
 10
3.64299672E+02
 20
-3.84342366E+02
  0
VERTEX
  8
0
 62
4
 10
3.64573341E+02
 20
-3.84337317E+02
  0
VERTEX
  8
0
 62
4
 10
3.64844927E+02
 20
-3.84322206E+02
  0
VERTEX
  8
0
 62
4
 10
3.65112364E+02
 20
-3.84297149E+02
  0
VERTEX
  8
0
 62
4
 10
3.65373615E+02
 20
-3.84262337E+02
  0
VERTEX
  8
0
 62
4
 10
3.65626693E+02
 20
-3.84218035E+02
  0
VERTEX
  8
0
 62
4
 10
3.65869672E+02
 20
-3.84164579E+02
  0
VERTEX
  8
0
 62
4
 10
3.66100702E+02
 20
-3.84102377E+02
  0
VERTEX
  8
0
 62
4
 10
3.66318025E+02
 20
-3.84031902E+02
  0
VERTEX
  8
0
 62
4
 10
3.66519987E+02
 20
-3.83953691E+02
  0
VERTEX
  8
0
 62
4
 10
3.66705052E+02
 20
-3.83868338E+02
  0
VERTEX
  8
0
 62
4
 10
3.66871809E+02
 20
-3.83776493E+02
  0
VERTEX
  8
0
 62
4
 10
3.67018992E+02
 20
-3.83678856E+02
  0
VERTEX
  8
0
 62
4
 10
3.67145478E+02
 20
-3.83576168E+02
  0
VERTEX
  8
0
 62
4
 10
3.67250307E+02
 20
-3.83469213E+02
  0
VERTEX
  8
0
 62
4
 10
3.67332679E+02
 20
-3.83358803E+02
  0
VERTEX
  8
0
 62
4
 10
3.67391968E+02
 20
-3.83245780E+02
  0
VERTEX
  8
0
 62
4
 10
3.67427723E+02
 20
-3.83131003E+02
  0
VERTEX
  8
0
 62
4
 10
3.67439672E+02
 20
-3.83015345E+02
  0
SEQEND
  8
0
  0
LINE
  8
0
  6
CENTER
 62
6
 10
3.64299672E+02
 20
-3.81172554E+02
 11
3.64299672E+02
 21
-3.83015345E+02
  0
LINE
  8
0
 62
4
 10
4.07299672E+02
 20
-3.69882945E+02
 11
4.02299672E+02
 21
-3.69882945E+02
  0
LINE
  8
0
 62
4
 10
4.07299672E+02
 20
-3.69231309E+02
 11
4.02299672E+02
 21
-3.69231309E+02
  0
LINE
  8
0
 62
4
 10
4.07299672E+02
 20
-3.62424938E+02
 11
4.02299672E+02
 21
-3.62424938E+02
  0
LINE
  8
0
 62
4
 10
3.90799664E+02
 20
-3.86516450E+02
 11
3.90799664E+02
 21
-3.80881420E+02
  0
LINE
  8
0
 62
4
 10
3.54799672E+02
 20
-3.86516450E+02
 11
3.54799672E+02
 21
-3.80881420E+02
  0
POLYLINE
  8
0
 62
4
 66
1
  0
VERTEX
  8
0
 62
4
 10
3.86032394E+02
 20
-4.16507382E+02
  0
VERTEX
  8
0
 62
4
 10
3.86114395E+02
 20
-4.16364064E+02
  0
VERTEX
  8
0
 62
4
 10
3.86182000E+02
 20
-4.16214702E+02
  0
VERTEX
  8
0
 62
4
 10
3.86234674E+02
 20
-4.16060481E+02
  0
VERTEX
  8
0
 62
4
 10
3.86271998E+02
 20
-4.15902623E+02
  0
VERTEX
  8
0
 62
4
 10
3.86293676E+02
 20
-4.15742382E+02
  0
VERTEX
  8
0
 62
4
 10
3.86299537E+02
 20
-4.15581029E+02
  0
VERTEX
  8
0
 62
4
 10
3.86289533E+02
 20
-4.15419843E+02
  0
VERTEX
  8
0
 62
4
 10
3.86263745E+02
 20
-4.15260103E+02
  0
VERTEX
  8
0
 62
4
 10
3.86222376E+02
 20
-4.15103076E+02
  0
VERTEX
  8
0
 62
4
 10
3.86165756E+02
 20
-4.14950008E+02
  0
VERTEX
  8
0
 62
4
 10
3.86094332E+02
 20
-4.14802112E+02
  0
VERTEX
  8
0
 62
4
 10
3.86008673E+02
 20
-4.14660563E+02
  0
VERTEX
  8
0
 62
4
 10
3.85909456E+02
 20
-4.14526483E+02
  0
VERTEX
  8
0
 62
4
 10
3.85797470E+02
 20
-4.14400936E+02
  0
VERTEX
  8
0
 62
4
 10
3.85673602E+02
 20
-4.14284918E+02
  0
VERTEX
  8
0
 62
4
 10
3.85538835E+02
 20
-4.14179348E+02
  0
VERTEX
  8
0
 62
4
 10
3.85394239E+02
 20
-4.14085064E+02
  0
VERTEX
  8
0
 62
4
 10
3.85240960E+02
 20
-4.14002815E+02
  0
VERTEX
  8
0
 62
4
 10
3.85080214E+02
 20
-4.13933253E+02
  0
VERTEX
  8
0
 62
4
 10
3.84913276E+02
 20
-4.13876929E+02
  0
VERTEX
  8
0
 62
4
 10
3.84741471E+02
 20
-4.13834290E+02
  0
VERTEX
  8
0
 62
4
 10
3.84566161E+02
 20
-4.13805675E+02
  0
VERTEX
  8
0
 62
4
 10
3.84388737E+02
 20
-4.13791311E+02
  0
VERTEX
  8
0
 62
4
 10
3.84210607E+02
 20
-4.13791311E+02
  0
VERTEX
  8
0
 62
4
 10
3.84033183E+02
 20
-4.13805675E+02
  0
VERTEX
  8
0
 62
4
 10
3.83857873E+02
 20
-4.13834290E+02
  0
VERTEX
  8
0
 62
4
 10
3.83686068E+02
 20
-4.13876929E+02
  0
VERTEX
  8
0
 62
4
 10
3.83519130E+02
 20
-4.13933253E+02
  0
VERTEX
  8
0
 62
4
 10
3.83358384E+02
 20
-4.14002815E+02
  0
VERTEX
  8
0
 62
4
 10
3.83205105E+02
 20
-4.14085064E+02
  0
VERTEX
  8
0
 62
4
 10
3.83060509E+02
 20
-4.14179348E+02
  0
VERTEX
  8
0
 62
4
 10
3.82925742E+02
 20
-4.14284918E+02
  0
VERTEX
  8
0
 62
4
 10
3.82801874E+02
 20
-4.14400936E+02
  0
VERTEX
  8
0
 62
4
 10
3.82689888E+02
 20
-4.14526483E+02
  0
VERTEX
  8
0
 62
4
 10
3.82590671E+02
 20
-4.14660563E+02
  0
VERTEX
  8
0
 62
4
 10
3.82505012E+02
 20
-4.14802112E+02
  0
VERTEX
  8
0
 62
4
 10
3.82433588E+02
 20
-4.14950008E+02
  0
VERTEX
  8
0
 62
4
 10
3.82376968E+02
 20
-4.15103076E+02
  0
VERTEX
  8
0
 62
4
 10
3.82335599E+02
 20
-4.15260103E+02
  0
VERTEX
  8
0
 62
4
 10
3.82309811E+02
 20
-4.15419843E+02
  0
VERTEX
  8
0
 62
4
 10
3.82299807E+02
 20
-4.15581029E+02
  0
VERTEX
  8
0
 62
4
 10
3.82305668E+02
 20
-4.15742383E+02
  0
VERTEX
  8
0
 62
4
 10
3.82327346E+02
 20
-4.15902623E+02
  0
VERTEX
  8
0
 62
4
 10
3.82364670E+02
 20
-4.16060481E+02
  0
VERTEX
  8
0
 62
4
 10
3.82417344E+02
 20
-4.16214702E+02
  0
VERTEX
  8
0
 62
4
 10
3.82484949E+02
 20
-4.16364064E+02
  0
VERTEX
  8
0
 62
4
 10
3.82566950E+02
 20
-4.16507382E+02
  0
SEQEND
  8
0
  0
POLYLINE
  8
0
 62
6
 66
1
  0
VERTEX
  8
0
 62
6
 10
3.85799672E+02
 20
-4.16431358E+02
  0
VERTEX
  8
0
 62
6
 10
3.85793964E+02
 20
-4.16312873E+02
  0
VERTEX
  8
0
 62
6
 10
3.85776884E+02
 20
-4.16195290E+02
  0
VERTEX
  8
0
 62
6
 10
3.85748561E+02
 20
-4.16079503E+02
  0
VERTEX
  8
0
 62
6
 10
3.85709211E+02
 20
-4.15966395E+02
  0
VERTEX
  8
0
 62
6
 10
3.85659134E+02
 20
-4.15856825E+02
  0
VERTEX
  8
0
 62
6
 10
3.85598710E+02
 20
-4.15751627E+02
  0
VERTEX
  8
0
 62
6
 10
3.85528400E+02
 20
-4.15651603E+02
  0
VERTEX
  8
0
 62
6
 10
3.85448739E+02
 20
-4.15557513E+02
  0
VERTEX
  8
0
 62
6
 10
3.85360332E+02
 20
-4.15470073E+02
  0
VERTEX
  8
0
 62
6
 10
3.85263853E+02
 20
-4.15389950E+02
  0
VERTEX
  8
0
 62
6
 10
3.85160037E+02
 20
-4.15317752E+02
  0
VERTEX
  8
0
 62
6
 10
3.85049672E+02
 20
-4.15254030E+02
  0
VERTEX
  8
0
 62
6
 10
3.84933599E+02
 20
-4.15199267E+02
  0
VERTEX
  8
0
 62
6
 10
3.84812702E+02
 20
-4.15153882E+02
  0
VERTEX
  8
0
 62
6
 10
3.84687901E+02
 20
-4.15118219E+02
  0
VERTEX
  8
0
 62
6
 10
3.84560144E+02
 20
-4.15092550E+02
  0
VERTEX
  8
0
 62
6
 10
3.84430406E+02
 20
-4.15077069E+02
  0
VERTEX
  8
0
 62
6
 10
3.84299672E+02
 20
-4.15071896E+02
  0
VERTEX
  8
0
 62
6
 10
3.84168938E+02
 20
-4.15077069E+02
  0
VERTEX
  8
0
 62
6
 10
3.84039200E+02
 20
-4.15092550E+02
  0
VERTEX
  8
0
 62
6
 10
3.83911443E+02
 20
-4.15118219E+02
  0
VERTEX
  8
0
 62
6
 10
3.83786642E+02
 20
-4.15153882E+02
  0
VERTEX
  8
0
 62
6
 10
3.83665745E+02
 20
-4.15199267E+02
  0
VERTEX
  8
0
 62
6
 10
3.83549672E+02
 20
-4.15254030E+02
  0
VERTEX
  8
0
 62
6
 10
3.83439307E+02
 20
-4.15317752E+02
  0
VERTEX
  8
0
 62
6
 10
3.83335491E+02
 20
-4.15389950E+02
  0
VERTEX
  8
0
 62
6
 10
3.83239012E+02
 20
-4.15470073E+02
  0
VERTEX
  8
0
 62
6
 10
3.83150605E+02
 20
-4.15557513E+02
  0
VERTEX
  8
0
 62
6
 10
3.83070944E+02
 20
-4.15651603E+02
  0
VERTEX
  8
0
 62
6
 10
3.83000634E+02
 20
-4.15751627E+02
  0
VERTEX
  8
0
 62
6
 10
3.82940210E+02
 20
-4.15856825E+02
  0
VERTEX
  8
0
 62
6
 10
3.82890133E+02
 20
-4.15966395E+02
  0
VERTEX
  8
0
 62
6
 10
3.82850783E+02
 20
-4.16079503E+02
  0
VERTEX
  8
0
 62
6
 10
3.82822460E+02
 20
-4.16195290E+02
  0
VERTEX
  8
0
 62
6
 10
3.82805380E+02
 20
-4.16312873E+02
  0
VERTEX
  8
0
 62
6
 10
3.82799672E+02
 20
-4.16431358E+02
  0
VERTEX
  8
0
 62
6
 10
3.82805380E+02
 20
-4.16549843E+02
  0
VERTEX
  8
0
 62
6
 10
3.82822460E+02
 20
-4.16667426E+02
  0
VERTEX
  8
0
 62
6
 10
3.82850783E+02
 20
-4.16783213E+02
  0
VERTEX
  8
0
 62
6
 10
3.82890133E+02
 20
-4.16896321E+02
  0
VERTEX
  8
0
 62
6
 10
3.82940210E+02
 20
-4.17005891E+02
  0
VERTEX
  8
0
 62
6
 10
3.83000634E+02
 20
-4.17111089E+02
  0
VERTEX
  8
0
 62
6
 10
3.83070944E+02
 20
-4.17211113E+02
  0
VERTEX
  8
0
 62
6
 10
3.83150605E+02
 20
-4.17305203E+02
  0
VERTEX
  8
0
 62
6
 10
3.83239012E+02
 20
-4.17392643E+02
  0
VERTEX
  8
0
 62
6
 10
3.83335491E+02
 20
-4.17472766E+02
  0
VERTEX
  8
0
 62
6
 10
3.83439307E+02
 20
-4.17544964E+02
  0
VERTEX
  8
0
 62
6
 10
3.83549672E+02
 20
-4.17608686E+02
  0
VERTEX
  8
0
 62
6
 10
3.83665745E+02
 20
-4.17663449E+02
  0
VERTEX
  8
0
 62
6
 10
3.83786642E+02
 20
-4.17708834E+02
  0
VERTEX
  8
0
 62
6
 10
3.83911443E+02
 20
-4.17744497E+02
  0
VERTEX
  8
0
 62
6
 10
3.84039200E+02
 20
-4.17770166E+02
  0
VERTEX
  8
0
 62
6
 10
3.84168938E+02
 20
-4.17785647E+02
  0
VERTEX
  8
0
 62
6
 10
3.84299672E+02
 20
-4.17790820E+02
  0
VERTEX
  8
0
 62
6
 10
3.84430406E+02
 20
-4.17785647E+02
  0
VERTEX
  8
0
 62
6
 10
3.84560144E+02
 20
-4.17770166E+02
  0
VERTEX
  8
0
 62
6
 10
3.84687901E+02
 20
-4.17744497E+02
  0
VERTEX
  8
0
 62
6
 10
3.84812702E+02
 20
-4.17708834E+02
  0
VERTEX
  8
0
 62
6
 10
3.84933599E+02
 20
-4.17663449E+02
  0
VERTEX
  8
0
 62
6
 10
3.85049672E+02
 20
-4.17608686E+02
  0
VERTEX
  8
0
 62
6
 10
3.85160037E+02
 20
-4.17544964E+02
  0
VERTEX
  8
0
 62
6
 10
3.85263853E+02
 20
-4.17472766E+02
  0
VERTEX
  8
0
 62
6
 10
3.85360332E+02
 20
-4.17392643E+02
  0
VERTEX
  8
0
 62
6
 10
3.85448739E+02
 20
-4.17305203E+02
  0
VERTEX
  8
0
 62
6
 10
3.85528400E+02
 20
-4.17211113E+02
  0
VERTEX
  8
0
 62
6
 10
3.85598710E+02
 20
-4.17111089E+02
  0
VERTEX
  8
0
 62
6
 10
3.85659134E+02
 20
-4.17005891E+02
  0
VERTEX
  8
0
 62
6
 10
3.85709211E+02
 20
-4.16896321E+02
  0
VERTEX
  8
0
 62
6
 10
3.85748561E+02
 20
-4.16783213E+02
  0
VERTEX
  8
0
 62
6
 10
3.85776884E+02
 20
-4.16667426E+02
  0
VERTEX
  8
0
 62
6
 10
3.85793964E+02
 20
-4.16549843E+02
  0
VERTEX
  8
0
 62
6
 10
3.85799672E+02
 20
-4.16431358E+02
  0
SEQEND
  8
0
  0
POLYLINE
  8
0
 62
4
 66
1
  0
VERTEX
  8
0
 62
4
 10
3.86034672E+02
 20
-4.16426826E+02
  0
VERTEX
  8
0
 62
4
 10
3.86028070E+02
 20
-4.16289778E+02
  0
VERTEX
  8
0
 62
4
 10
3.86008313E+02
 20
-4.16153774E+02
  0
VERTEX
  8
0
 62
4
 10
3.85975553E+02
 20
-4.16019848E+02
  0
VERTEX
  8
0
 62
4
 10
3.85930039E+02
 20
-4.15889018E+02
  0
VERTEX
  8
0
 62
4
 10
3.85872116E+02
 20
-4.15762282E+02
  0
VERTEX
  8
0
 62
4
 10
3.85802226E+02
 20
-4.15640604E+02
  0
VERTEX
  8
0
 62
4
 10
3.85720901E+02
 20
-4.15524909E+02
  0
VERTEX
  8
0
 62
4
 10
3.85628759E+02
 20
-4.15416078E+02
  0
VERTEX
  8
0
 62
4
 10
3.85526502E+02
 20
-4.15314940E+02
  0
VERTEX
  8
0
 62
4
 10
3.85414909E+02
 20
-4.15222264E+02
  0
VERTEX
  8
0
 62
4
 10
3.85294827E+02
 20
-4.15138755E+02
  0
VERTEX
  8
0
 62
4
 10
3.85167172E+02
 20
-4.15065050E+02
  0
VERTEX
  8
0
 62
4
 10
3.85032915E+02
 20
-4.15001708E+02
  0
VERTEX
  8
0
 62
4
 10
3.84893077E+02
 20
-4.14949212E+02
  0
VERTEX
  8
0
 62
4
 10
3.84748723E+02
 20
-4.14907962E+02
  0
VERTEX
  8
0
 62
4
 10
3.84600952E+02
 20
-4.14878271E+02
  0
VERTEX
  8
0
 62
4
 10
3.84450887E+02
 20
-4.14860366E+02
  0
VERTEX
  8
0
 62
4
 10
3.84299672E+02
 20
-4.14854382E+02
  0
VERTEX
  8
0
 62
4
 10
3.84148457E+02
 20
-4.14860366E+02
  0
VERTEX
  8
0
 62
4
 10
3.83998392E+02
 20
-4.14878271E+02
  0
VERTEX
  8
0
 62
4
 10
3.83850621E+02
 20
-4.14907962E+02
  0
VERTEX
  8
0
 62
4
 10
3.83706267E+02
 20
-4.14949212E+02
  0
VERTEX
  8
0
 62
4
 10
3.83566429E+02
 20
-4.15001708E+02
  0
VERTEX
  8
0
 62
4
 10
3.83432172E+02
 20
-4.15065050E+02
  0
VERTEX
  8
0
 62
4
 10
3.83304517E+02
 20
-4.15138755E+02
  0
VERTEX
  8
0
 62
4
 10
3.83184435E+02
 20
-4.15222264E+02
  0
VERTEX
  8
0
 62
4
 10
3.83072842E+02
 20
-4.15314940E+02
  0
VERTEX
  8
0
 62
4
 10
3.82970585E+02
 20
-4.15416078E+02
  0
VERTEX
  8
0
 62
4
 10
3.82878443E+02
 20
-4.15524909E+02
  0
VERTEX
  8
0
 62
4
 10
3.82797118E+02
 20
-4.15640604E+02
  0
VERTEX
  8
0
 62
4
 10
3.82727228E+02
 20
-4.15762282E+02
  0
VERTEX
  8
0
 62
4
 10
3.82669305E+02
 20
-4.15889018E+02
  0
VERTEX
  8
0
 62
4
 10
3.82623791E+02
 20
-4.16019848E+02
  0
VERTEX
  8
0
 62
4
 10
3.82591031E+02
 20
-4.16153774E+02
  0
VERTEX
  8
0
 62
4
 10
3.82571274E+02
 20
-4.16289778E+02
  0
VERTEX
  8
0
 62
4
 10
3.82564672E+02
 20
-4.16426826E+02
  0
VERTEX
  8
0
 62
4
 10
3.82571274E+02
 20
-4.16563874E+02
  0
VERTEX
  8
0
 62
4
 10
3.82591031E+02
 20
-4.16699878E+02
  0
VERTEX
  8
0
 62
4
 10
3.82623791E+02
 20
-4.16833804E+02
  0
VERTEX
  8
0
 62
4
 10
3.82669305E+02
 20
-4.16964634E+02
  0
VERTEX
  8
0
 62
4
 10
3.82727228E+02
 20
-4.17091370E+02
  0
VERTEX
  8
0
 62
4
 10
3.82797118E+02
 20
-4.17213048E+02
  0
VERTEX
  8
0
 62
4
 10
3.82878443E+02
 20
-4.17328743E+02
  0
VERTEX
  8
0
 62
4
 10
3.82970585E+02
 20
-4.17437574E+02
  0
VERTEX
  8
0
 62
4
 10
3.83072842E+02
 20
-4.17538712E+02
  0
VERTEX
  8
0
 62
4
 10
3.83184435E+02
 20
-4.17631388E+02
  0
VERTEX
  8
0
 62
4
 10
3.83304517E+02
 20
-4.17714897E+02
  0
VERTEX
  8
0
 62
4
 10
3.83432172E+02
 20
-4.17788602E+02
  0
VERTEX
  8
0
 62
4
 10
3.83566429E+02
 20
-4.17851944E+02
  0
VERTEX
  8
0
 62
4
 10
3.83706267E+02
 20
-4.17904440E+02
  0
VERTEX
  8
0
 62
4
 10
3.83850621E+02
 20
-4.17945690E+02
  0
VERTEX
  8
0
 62
4
 10
3.83998392E+02
 20
-4.17975381E+02
  0
VERTEX
  8
0
 62
4
 10
3.84148457E+02
 20
-4.17993286E+02
  0
VERTEX
  8
0
 62
4
 10
3.84299672E+02
 20
-4.17999270E+02
  0
VERTEX
  8
0
 62
4
 10
3.84450887E+02
 20
-4.17993286E+02
  0
VERTEX
  8
0
 62
4
 10
3.84600952E+02
 20
-4.17975381E+02
  0
VERTEX
  8
0
 62
4
 10
3.84748723E+02
 20
-4.17945690E+02
  0
VERTEX
  8
0
 62
4
 10
3.84893077E+02
 20
-4.17904440E+02
  0
VERTEX
  8
0
 62
4
 10
3.85032915E+02
 20
-4.17851944E+02
  0
VERTEX
  8
0
 62
4
 10
3.85167172E+02
 20
-4.17788602E+02
  0
VERTEX
  8
0
 62
4
 10
3.85294827E+02
 20
-4.17714897E+02
  0
VERTEX
  8
0
 62
4
 10
3.85414909E+02
 20
-4.17631388E+02
  0
VERTEX
  8
0
 62
4
 10
3.85526502E+02
 20
-4.17538712E+02
  0
VERTEX
  8
0
 62
4
 10
3.85628759E+02
 20
-4.17437574E+02
  0
VERTEX
  8
0
 62
4
 10
3.85720901E+02
 20
-4.17328743E+02
  0
VERTEX
  8
0
 62
4
 10
3.85802226E+02
 20
-4.17213048E+02
  0
VERTEX
  8
0
 62
4
 10
3.85872116E+02
 20
-4.17091370E+02
  0
VERTEX
  8
0
 62
4
 10
3.85930039E+02
 20
-4.16964634E+02
  0
VERTEX
  8
0
 62
4
 10
3.85975553E+02
 20
-4.16833804E+02
  0
VERTEX
  8
0
 62
4
 10
3.86008313E+02
 20
-4.16699878E+02
  0
VERTEX
  8
0
 62
4
 10
3.86028070E+02
 20
-4.16563874E+02
  0
VERTEX
  8
0
 62
4
 10
3.86034672E+02
 20
-4.16426826E+02
  0
SEQEND
  8
0
  0
POLYLINE
  8
0
 62
4
 66
1
  0
VERTEX
  8
0
 62
4
 10
3.78032394E+02
 20
-4.16507382E+02
  0
VERTEX
  8
0
 62
4
 10
3.78114395E+02
 20
-4.16364064E+02
  0
VERTEX
  8
0
 62
4
 10
3.78182000E+02
 20
-4.16214702E+02
  0
VERTEX
  8
0
 62
4
 10
3.78234674E+02
 20
-4.16060481E+02
  0
VERTEX
  8
0
 62
4
 10
3.78271998E+02
 20
-4.15902623E+02
  0
VERTEX
  8
0
 62
4
 10
3.78293676E+02
 20
-4.15742382E+02
  0
VERTEX
  8
0
 62
4
 10
3.78299537E+02
 20
-4.15581029E+02
  0
VERTEX
  8
0
 62
4
 10
3.78289533E+02
 20
-4.15419843E+02
  0
VERTEX
  8
0
 62
4
 10
3.78263745E+02
 20
-4.15260103E+02
  0
VERTEX
  8
0
 62
4
 10
3.78222376E+02
 20
-4.15103076E+02
  0
VERTEX
  8
0
 62
4
 10
3.78165756E+02
 20
-4.14950008E+02
  0
VERTEX
  8
0
 62
4
 10
3.78094332E+02
 20
-4.14802112E+02
  0
VERTEX
  8
0
 62
4
 10
3.78008673E+02
 20
-4.14660563E+02
  0
VERTEX
  8
0
 62
4
 10
3.77909456E+02
 20
-4.14526483E+02
  0
VERTEX
  8
0
 62
4
 10
3.77797470E+02
 20
-4.14400936E+02
  0
VERTEX
  8
0
 62
4
 10
3.77673602E+02
 20
-4.14284918E+02
  0
VERTEX
  8
0
 62
4
 10
3.77538835E+02
 20
-4.14179348E+02
  0
VERTEX
  8
0
 62
4
 10
3.77394239E+02
 20
-4.14085064E+02
  0
VERTEX
  8
0
 62
4
 10
3.77240960E+02
 20
-4.14002815E+02
  0
VERTEX
  8
0
 62
4
 10
3.77080214E+02
 20
-4.13933253E+02
  0
VERTEX
  8
0
 62
4
 10
3.76913276E+02
 20
-4.13876929E+02
  0
VERTEX
  8
0
 62
4
 10
3.76741471E+02
 20
-4.13834290E+02
  0
VERTEX
  8
0
 62
4
 10
3.76566161E+02
 20
-4.13805675E+02
  0
VERTEX
  8
0
 62
4
 10
3.76388737E+02
 20
-4.13791311E+02
  0
VERTEX
  8
0
 62
4
 10
3.76210607E+02
 20
-4.13791311E+02
  0
VERTEX
  8
0
 62
4
 10
3.76033183E+02
 20
-4.13805675E+02
  0
VERTEX
  8
0
 62
4
 10
3.75857873E+02
 20
-4.13834290E+02
  0
VERTEX
  8
0
 62
4
 10
3.75686068E+02
 20
-4.13876929E+02
  0
VERTEX
  8
0
 62
4
 10
3.75519130E+02
 20
-4.13933253E+02
  0
VERTEX
  8
0
 62
4
 10
3.75358384E+02
 20
-4.14002815E+02
  0
VERTEX
  8
0
 62
4
 10
3.75205105E+02
 20
-4.14085064E+02
  0
VERTEX
  8
0
 62
4
 10
3.75060509E+02
 20
-4.14179348E+02
  0
VERTEX
  8
0
 62
4
 10
3.74925742E+02
 20
-4.14284918E+02
  0
VERTEX
  8
0
 62
4
 10
3.74801874E+02
 20
-4.14400936E+02
  0
VERTEX
  8
0
 62
4
 10
3.74689888E+02
 20
-4.14526483E+02
  0
VERTEX
  8
0
 62
4
 10
3.74590671E+02
 20
-4.14660563E+02
  0
VERTEX
  8
0
 62
4
 10
3.74505012E+02
 20
-4.14802112E+02
  0
VERTEX
  8
0
 62
4
 10
3.74433588E+02
 20
-4.14950008E+02
  0
VERTEX
  8
0
 62
4
 10
3.74376968E+02
 20
-4.15103076E+02
  0
VERTEX
  8
0
 62
4
 10
3.74335599E+02
 20
-4.15260103E+02
  0
VERTEX
  8
0
 62
4
 10
3.74309811E+02
 20
-4.15419843E+02
  0
VERTEX
  8
0
 62
4
 10
3.74299807E+02
 20
-4.15581029E+02
  0
VERTEX
  8
0
 62
4
 10
3.74305668E+02
 20
-4.15742383E+02
  0
VERTEX
  8
0
 62
4
 10
3.74327346E+02
 20
-4.15902623E+02
  0
VERTEX
  8
0
 62
4
 10
3.74364670E+02
 20
-4.16060481E+02
  0
VERTEX
  8
0
 62
4
 10
3.74417344E+02
 20
-4.16214702E+02
  0
VERTEX
  8
0
 62
4
 10
3.74484949E+02
 20
-4.16364064E+02
  0
VERTEX
  8
0
 62
4
 10
3.74566950E+02
 20
-4.16507382E+02
  0
SEQEND
  8
0
  0
POLYLINE
  8
0
 62
6
 66
1
  0
VERTEX
  8
0
 62
6
 10
3.77799672E+02
 20
-4.16431358E+02
  0
VERTEX
  8
0
 62
6
 10
3.77793964E+02
 20
-4.16312873E+02
  0
VERTEX
  8
0
 62
6
 10
3.77776884E+02
 20
-4.16195290E+02
  0
VERTEX
  8
0
 62
6
 10
3.77748561E+02
 20
-4.16079503E+02
  0
VERTEX
  8
0
 62
6
 10
3.77709211E+02
 20
-4.15966395E+02
  0
VERTEX
  8
0
 62
6
 10
3.77659134E+02
 20
-4.15856825E+02
  0
VERTEX
  8
0
 62
6
 10
3.77598710E+02
 20
-4.15751627E+02
  0
VERTEX
  8
0
 62
6
 10
3.77528400E+02
 20
-4.15651603E+02
  0
VERTEX
  8
0
 62
6
 10
3.77448739E+02
 20
-4.15557513E+02
  0
VERTEX
  8
0
 62
6
 10
3.77360332E+02
 20
-4.15470073E+02
  0
VERTEX
  8
0
 62
6
 10
3.77263853E+02
 20
-4.15389950E+02
  0
VERTEX
  8
0
 62
6
 10
3.77160037E+02
 20
-4.15317752E+02
  0
VERTEX
  8
0
 62
6
 10
3.77049672E+02
 20
-4.15254030E+02
  0
VERTEX
  8
0
 62
6
 10
3.76933599E+02
 20
-4.15199267E+02
  0
VERTEX
  8
0
 62
6
 10
3.76812702E+02
 20
-4.15153882E+02
  0
VERTEX
  8
0
 62
6
 10
3.76687901E+02
 20
-4.15118219E+02
  0
VERTEX
  8
0
 62
6
 10
3.76560144E+02
 20
-4.15092550E+02
  0
VERTEX
  8
0
 62
6
 10
3.76430406E+02
 20
-4.15077069E+02
  0
VERTEX
  8
0
 62
6
 10
3.76299672E+02
 20
-4.15071896E+02
  0
VERTEX
  8
0
 62
6
 10
3.76168938E+02
 20
-4.15077069E+02
  0
VERTEX
  8
0
 62
6
 10
3.76039200E+02
 20
-4.15092550E+02
  0
VERTEX
  8
0
 62
6
 10
3.75911443E+02
 20
-4.15118219E+02
  0
VERTEX
  8
0
 62
6
 10
3.75786642E+02
 20
-4.15153882E+02
  0
VERTEX
  8
0
 62
6
 10
3.75665745E+02
 20
-4.15199267E+02
  0
VERTEX
  8
0
 62
6
 10
3.75549672E+02
 20
-4.15254030E+02
  0
VERTEX
  8
0
 62
6
 10
3.75439307E+02
 20
-4.15317752E+02
  0
VERTEX
  8
0
 62
6
 10
3.75335491E+02
 20
-4.15389950E+02
  0
VERTEX
  8
0
 62
6
 10
3.75239012E+02
 20
-4.15470073E+02
  0
VERTEX
  8
0
 62
6
 10
3.75150605E+02
 20
-4.15557513E+02
  0
VERTEX
  8
0
 62
6
 10
3.75070944E+02
 20
-4.15651603E+02
  0
VERTEX
  8
0
 62
6
 10
3.75000634E+02
 20
-4.15751627E+02
  0
VERTEX
  8
0
 62
6
 10
3.74940210E+02
 20
-4.15856825E+02
  0
VERTEX
  8
0
 62
6
 10
3.74890133E+02
 20
-4.15966395E+02
  0
VERTEX
  8
0
 62
6
 10
3.74850783E+02
 20
-4.16079503E+02
  0
VERTEX
  8
0
 62
6
 10
3.74822460E+02
 20
-4.16195290E+02
  0
VERTEX
  8
0
 62
6
 10
3.74805380E+02
 20
-4.16312873E+02
  0
VERTEX
  8
0
 62
6
 10
3.74799672E+02
 20
-4.16431358E+02
  0
VERTEX
  8
0
 62
6
 10
3.74805380E+02
 20
-4.16549843E+02
  0
VERTEX
  8
0
 62
6
 10
3.74822460E+02
 20
-4.16667426E+02
  0
VERTEX
  8
0
 62
6
 10
3.74850783E+02
 20
-4.16783213E+02
  0
VERTEX
  8
0
 62
6
 10
3.74890133E+02
 20
-4.16896321E+02
  0
VERTEX
  8
0
 62
6
 10
3.74940210E+02
 20
-4.17005891E+02
  0
VERTEX
  8
0
 62
6
 10
3.75000634E+02
 20
-4.17111089E+02
  0
VERTEX
  8
0
 62
6
 10
3.75070944E+02
 20
-4.17211113E+02
  0
VERTEX
  8
0
 62
6
 10
3.75150605E+02
 20
-4.17305203E+02
  0
VERTEX
  8
0
 62
6
 10
3.75239012E+02
 20
-4.17392643E+02
  0
VERTEX
  8
0
 62
6
 10
3.75335491E+02
 20
-4.17472766E+02
  0
VERTEX
  8
0
 62
6
 10
3.75439307E+02
 20
-4.17544964E+02
  0
VERTEX
  8
0
 62
6
 10
3.75549672E+02
 20
-4.17608686E+02
  0
VERTEX
  8
0
 62
6
 10
3.75665745E+02
 20
-4.17663449E+02
  0
VERTEX
  8
0
 62
6
 10
3.75786642E+02
 20
-4.17708834E+02
  0
VERTEX
  8
0
 62
6
 10
3.75911443E+02
 20
-4.17744497E+02
  0
VERTEX
  8
0
 62
6
 10
3.76039200E+02
 20
-4.17770166E+02
  0
VERTEX
  8
0
 62
6
 10
3.76168938E+02
 20
-4.17785647E+02
  0
VERTEX
  8
0
 62
6
 10
3.76299672E+02
 20
-4.17790820E+02
  0
VERTEX
  8
0
 62
6
 10
3.76430406E+02
 20
-4.17785647E+02
  0
VERTEX
  8
0
 62
6
 10
3.76560144E+02
 20
-4.17770166E+02
  0
VERTEX
  8
0
 62
6
 10
3.76687901E+02
 20
-4.17744497E+02
  0
VERTEX
  8
0
 62
6
 10
3.76812702E+02
 20
-4.17708834E+02
  0
VERTEX
  8
0
 62
6
 10
3.76933599E+02
 20
-4.17663449E+02
  0
VERTEX
  8
0
 62
6
 10
3.77049672E+02
 20
-4.17608686E+02
  0
VERTEX
  8
0
 62
6
 10
3.77160037E+02
 20
-4.17544964E+02
  0
VERTEX
  8
0
 62
6
 10
3.77263853E+02
 20
-4.17472766E+02
  0
VERTEX
  8
0
 62
6
 10
3.77360332E+02
 20
-4.17392643E+02
  0
VERTEX
  8
0
 62
6
 10
3.77448739E+02
 20
-4.17305203E+02
  0
VERTEX
  8
0
 62
6
 10
3.77528400E+02
 20
-4.17211113E+02
  0
VERTEX
  8
0
 62
6
 10
3.77598710E+02
 20
-4.17111089E+02
  0
VERTEX
  8
0
 62
6
 10
3.77659134E+02
 20
-4.17005891E+02
  0
VERTEX
  8
0
 62
6
 10
3.77709211E+02
 20
-4.16896321E+02
  0
VERTEX
  8
0
 62
6
 10
3.77748561E+02
 20
-4.16783213E+02
  0
VERTEX
  8
0
 62
6
 10
3.77776884E+02
 20
-4.16667426E+02
  0
VERTEX
  8
0
 62
6
 10
3.77793964E+02
 20
-4.16549843E+02
  0
VERTEX
  8
0
 62
6
 10
3.77799672E+02
 20
-4.16431358E+02
  0
SEQEND
  8
0
  0
POLYLINE
  8
0
 62
4
 66
1
  0
VERTEX
  8
0
 62
4
 10
3.78034672E+02
 20
-4.16426826E+02
  0
VERTEX
  8
0
 62
4
 10
3.78028070E+02
 20
-4.16289778E+02
  0
VERTEX
  8
0
 62
4
 10
3.78008313E+02
 20
-4.16153774E+02
  0
VERTEX
  8
0
 62
4
 10
3.77975553E+02
 20
-4.16019848E+02
  0
VERTEX
  8
0
 62
4
 10
3.77930039E+02
 20
-4.15889018E+02
  0
VERTEX
  8
0
 62
4
 10
3.77872116E+02
 20
-4.15762282E+02
  0
VERTEX
  8
0
 62
4
 10
3.77802226E+02
 20
-4.15640604E+02
  0
VERTEX
  8
0
 62
4
 10
3.77720901E+02
 20
-4.15524909E+02
  0
VERTEX
  8
0
 62
4
 10
3.77628759E+02
 20
-4.15416078E+02
  0
VERTEX
  8
0
 62
4
 10
3.77526502E+02
 20
-4.15314940E+02
  0
VERTEX
  8
0
 62
4
 10
3.77414909E+02
 20
-4.15222264E+02
  0
VERTEX
  8
0
 62
4
 10
3.77294827E+02
 20
-4.15138755E+02
  0
VERTEX
  8
0
 62
4
 10
3.77167172E+02
 20
-4.15065050E+02
  0
VERTEX
  8
0
 62
4
 10
3.77032915E+02
 20
-4.15001708E+02
  0
VERTEX
  8
0
 62
4
 10
3.76893077E+02
 20
-4.14949212E+02
  0
VERTEX
  8
0
 62
4
 10
3.76748723E+02
 20
-4.14907962E+02
  0
VERTEX
  8
0
 62
4
 10
3.76600952E+02
 20
-4.14878271E+02
  0
VERTEX
  8
0
 62
4
 10
3.76450887E+02
 20
-4.14860366E+02
  0
VERTEX
  8
0
 62
4
 10
3.76299672E+02
 20
-4.14854382E+02
  0
VERTEX
  8
0
 62
4
 10
3.76148457E+02
 20
-4.14860366E+02
  0
VERTEX
  8
0
 62
4
 10
3.75998392E+02
 20
-4.14878271E+02
  0
VERTEX
  8
0
 62
4
 10
3.75850621E+02
 20
-4.14907962E+02
  0
VERTEX
  8
0
 62
4
 10
3.75706267E+02
 20
-4.14949212E+02
  0
VERTEX
  8
0
 62
4
 10
3.75566429E+02
 20
-4.15001708E+02
  0
VERTEX
  8
0
 62
4
 10
3.75432172E+02
 20
-4.15065050E+02
  0
VERTEX
  8
0
 62
4
 10
3.75304517E+02
 20
-4.15138755E+02
  0
VERTEX
  8
0
 62
4
 10
3.75184435E+02
 20
-4.15222264E+02
  0
VERTEX
  8
0
 62
4
 10
3.75072842E+02
 20
-4.15314940E+02
  0
VERTEX
  8
0
 62
4
 10
3.74970585E+02
 20
-4.15416078E+02
  0
VERTEX
  8
0
 62
4
 10
3.74878443E+02
 20
-4.15524909E+02
  0
VERTEX
  8
0
 62
4
 10
3.74797118E+02
 20
-4.15640604E+02
  0
VERTEX
  8
0
 62
4
 10
3.74727228E+02
 20
-4.15762282E+02
  0
VERTEX
  8
0
 62
4
 10
3.74669305E+02
 20
-4.15889018E+02
  0
VERTEX
  8
0
 62
4
 10
3.74623791E+02
 20
-4.16019848E+02
  0
VERTEX
  8
0
 62
4
 10
3.74591031E+02
 20
-4.16153774E+02
  0
VERTEX
  8
0
 62
4
 10
3.74571274E+02
 20
-4.16289778E+02
  0
VERTEX
  8
0
 62
4
 10
3.74564672E+02
 20
-4.16426826E+02
  0
VERTEX
  8
0
 62
4
 10
3.74571274E+02
 20
-4.16563874E+02
  0
VERTEX
  8
0
 62
4
 10
3.74591031E+02
 20
-4.16699878E+02
  0
VERTEX
  8
0
 62
4
 10
3.74623791E+02
 20
-4.16833804E+02
  0
VERTEX
  8
0
 62
4
 10
3.74669305E+02
 20
-4.16964634E+02
  0
VERTEX
  8
0
 62
4
 10
3.74727228E+02
 20
-4.17091370E+02
  0
VERTEX
  8
0
 62
4
 10
3.74797118E+02
 20
-4.17213048E+02
  0
VERTEX
  8
0
 62
4
 10
3.74878443E+02
 20
-4.17328743E+02
  0
VERTEX
  8
0
 62
4
 10
3.74970585E+02
 20
-4.17437574E+02
  0
VERTEX
  8
0
 62
4
 10
3.75072842E+02
 20
-4.17538712E+02
  0
VERTEX
  8
0
 62
4
 10
3.75184435E+02
 20
-4.17631388E+02
  0
VERTEX
  8
0
 62
4
 10
3.75304517E+02
 20
-4.17714897E+02
  0
VERTEX
  8
0
 62
4
 10
3.75432172E+02
 20
-4.17788602E+02
  0
VERTEX
  8
0
 62
4
 10
3.75566429E+02
 20
-4.17851944E+02
  0
VERTEX
  8
0
 62
4
 10
3.75706267E+02
 20
-4.17904440E+02
  0
VERTEX
  8
0
 62
4
 10
3.75850621E+02
 20
-4.17945690E+02
  0
VERTEX
  8
0
 62
4
 10
3.75998392E+02
 20
-4.17975381E+02
  0
VERTEX
  8
0
 62
4
 10
3.76148457E+02
 20
-4.17993286E+02
  0
VERTEX
  8
0
 62
4
 10
3.76299672E+02
 20
-4.17999270E+02
  0
VERTEX
  8
0
 62
4
 10
3.76450887E+02
 20
-4.17993286E+02
  0
VERTEX
  8
0
 62
4
 10
3.76600952E+02
 20
-4.17975381E+02
  0
VERTEX
  8
0
 62
4
 10
3.76748723E+02
 20
-4.17945690E+02
  0
VERTEX
  8
0
 62
4
 10
3.76893077E+02
 20
-4.17904440E+02
  0
VERTEX
  8
0
 62
4
 10
3.77032915E+02
 20
-4.17851944E+02
  0
VERTEX
  8
0
 62
4
 10
3.77167172E+02
 20
-4.17788602E+02
  0
VERTEX
  8
0
 62
4
 10
3.77294827E+02
 20
-4.17714897E+02
  0
VERTEX
  8
0
 62
4
 10
3.77414909E+02
 20
-4.17631388E+02
  0
VERTEX
  8
0
 62
4
 10
3.77526502E+02
 20
-4.17538712E+02
  0
VERTEX
  8
0
 62
4
 10
3.77628759E+02
 20
-4.17437574E+02
  0
VERTEX
  8
0
 62
4
 10
3.77720901E+02
 20
-4.17328743E+02
  0
VERTEX
  8
0
 62
4
 10
3.77802226E+02
 20
-4.17213048E+02
  0
VERTEX
  8
0
 62
4
 10
3.77872116E+02
 20
-4.17091370E+02
  0
VERTEX
  8
0
 62
4
 10
3.77930039E+02
 20
-4.16964634E+02
  0
VERTEX
  8
0
 62
4
 10
3.77975553E+02
 20
-4.16833804E+02
  0
VERTEX
  8
0
 62
4
 10
3.78008313E+02
 20
-4.16699878E+02
  0
VERTEX
  8
0
 62
4
 10
3.78028070E+02
 20
-4.16563874E+02
  0
VERTEX
  8
0
 62
4
 10
3.78034672E+02
 20
-4.16426826E+02
  0
SEQEND
  8
0
  0
LINE
  8
0
  6
CENTER
 62
6
 10
3.84299672E+02
 20
-4.11431358E+02
 11
3.84299672E+02
 21
-4.21431358E+02
  0
LINE
  8
0
  6
CENTER
 62
6
 10
3.76299672E+02
 20
-4.11431358E+02
 11
3.76299672E+02
 21
-4.21431358E+02
  0
LINE
  8
0
  6
CENTER
 62
6
 10
3.71299672E+02
 20
-4.16431358E+02
 11
3.89299672E+02
 21
-4.16431358E+02
  0
LINE
  8
0
 62
4
 10
3.72799672E+02
 20
-3.91711995E+02
 11
3.87799672E+02
 21
-3.91711995E+02
  0
LINE
  8
0
 62
4
 10
3.72799672E+02
 20
-3.79672554E+02
 11
3.54799672E+02
 21
-3.79672554E+02
  0
ARC
  8
0
 62
4
 10
3.54799681E+02
 20
-3.81172562E+02
 40
1.50000856E+00
 50
9.00003273E+01
 51
1.79999673E+02
  0
LINE
  8
0
 62
4
 10
3.90799672E+02
 20
-3.79672554E+02
 11
3.87799672E+02
 21
-3.79672554E+02
  0
ARC
  8
0
 62
4
 10
3.90799664E+02
 20
-3.81172562E+02
 40
1.50000856E+00
 50
3.27119593E-04
 51
8.99996730E+01
  0
LINE
  8
0
 62
4
 10
3.87799672E+02
 20
-3.82559751E+02
 11
3.72799672E+02
 21
-3.82559751E+02
  0
LINE
  8
0
 62
4
 10
3.87799672E+02
 20
-3.54469090E+02
 11
3.72799672E+02
 21
-3.54469090E+02
  0
ARC
  8
0
 62
4
 10
3.54799681E+02
 20
-3.89436535E+02
 40
1.50000856E+00
 50
9.00003273E+01
 51
1.79999673E+02
  0
ARC
  8
0
 62
4
 10
3.88299686E+02
 20
-3.70576609E+02
 40
5.00013809E-01
 50
9.00015821E+01
 51
1.79998418E+02
  0
ARC
  8
0
 62
4
 10
3.96799660E+02
 20
-3.56576607E+02
 40
5.00011902E-01
 50
1.36383594E-03
 51
8.99986360E+01
  0
ARC
  8
0
 62
4
 10
3.96799684E+02
 20
-3.69576607E+02
 40
4.99988098E-01
 50
2.69998636E+02
 51
1.36386840E-03
  0
ARC
  8
0
 62
4
 10
3.90799664E+02
 20
-3.89436535E+02
 40
1.50000856E+00
 50
3.27119593E-04
 51
8.99996730E+01
  0
LINE
  8
0
 62
4
 10
3.53299672E+02
 20
-3.81172554E+02
 11
3.53299672E+02
 21
-4.04368301E+02
  0
LINE
  8
0
 62
4
 10
3.70799672E+02
 20
-3.84311295E+02
 11
3.70799672E+02
 21
-3.87936526E+02
  0
LINE
  8
0
 62
4
 10
3.87799672E+02
 20
-3.54469090E+02
 11
3.87799672E+02
 21
-3.84311295E+02
  0
LINE
  8
0
 62
4
 10
3.72799672E+02
 20
-3.54469090E+02
 11
3.72799672E+02
 21
-3.84311295E+02
  0
LINE
  8
0
 62
4
 10
3.89799672E+02
 20
-3.84311295E+02
 11
3.89799672E+02
 21
-3.87936526E+02
  0
LINE
  8
0
 62
4
 10
3.92299672E+02
 20
-3.81172554E+02
 11
3.92299672E+02
 21
-4.04368301E+02
  0
LINE
  8
0
 62
4
 10
3.89799672E+02
 20
-3.84311295E+02
 11
3.70799672E+02
 21
-3.84311295E+02
  0
LINE
  8
0
 62
4
 10
3.87799672E+02
 20
-3.60808364E+02
 11
3.72799672E+02
 21
-3.60808364E+02
  0
LINE
  8
0
 62
4
 10
3.96799672E+02
 20
-3.70076595E+02
 11
3.88299672E+02
 21
-3.70076595E+02
  0
LINE
  8
0
 62
4
 10
4.00799672E+02
 20
-3.68826595E+02
 11
3.97299672E+02
 21
-3.68826595E+02
  0
LINE
  8
0
 62
4
 10
4.00799672E+02
 20
-3.56826595E+02
 11
4.00799672E+02
 21
-3.69326595E+02
  0
LINE
  8
0
 62
4
 10
4.02299672E+02
 20
-3.69326595E+02
 11
3.97299672E+02
 21
-3.69326595E+02
  0
LINE
  8
0
 62
4
 10
4.02299672E+02
 20
-3.56826595E+02
 11
3.97299672E+02
 21
-3.56826595E+02
  0
LINE
  8
0
 62
4
 10
4.02299672E+02
 20
-3.56279265E+02
 11
4.02299672E+02
 21
-3.69882945E+02
  0
LINE
  8
0
 62
4
 10
4.07299672E+02
 20
-3.56279265E+02
 11
4.07299672E+02
 21
-3.69882945E+02
  0
LINE
  8
0
 62
4
 10
3.97299672E+02
 20
-3.56576595E+02
 11
3.97299672E+02
 21
-3.69576595E+02
  0
LINE
  8
0
 62
4
 10
3.87799672E+02
 20
-3.56076595E+02
 11
3.96799672E+02
 21
-3.56076595E+02
  0
LINE
  8
0
 62
4
 10
4.07299672E+02
 20
-3.56279265E+02
 11
4.02299672E+02
 21
-3.56279265E+02
  0
LINE
  8
0
 62
4
 10
3.90799672E+02
 20
-3.87936526E+02
 11
3.54799672E+02
 21
-3.87936526E+02
  0
LINE
  8
0
 62
4
 10
4.00799672E+02
 20
-3.57326595E+02
 11
3.97299672E+02
 21
-3.57326595E+02
  0
LINE
  8
0
 62
4
 10
3.72799672E+02
 20
-3.91711995E+02
 11
3.72799672E+02
 21
-4.19640278E+02
  0
LINE
  8
0
 62
4
 10
3.87799672E+02
 20
-3.91711995E+02
 11
3.87799672E+02
 21
-4.19640278E+02
  0
LINE
  8
0
 62
4
 10
3.73799672E+02
 20
-4.08872019E+02
 11
3.86799672E+02
 21
-4.08872019E+02
  0
LINE
  8
0
 62
4
 10
3.72799672E+02
 20
-4.19640278E+02
 11
3.87799672E+02
 21
-4.19640278E+02
  0
LINE
  8
0
 62
4
 10
3.72799672E+02
 20
-3.94667777E+02
 11
3.87799672E+02
 21
-3.94667777E+02
  0
LINE
  8
0
  6
CENTER
 62
2
 10
-6.22200252E+02
 20
-3.92387619E+02
 11
-6.22200252E+02
 21
-4.23294586E+02
  0
LINE
  8
0
  6
CENTER
 62
2
 10
-6.06236354E+02
 20
-4.08868393E+02
 11
-6.38091243E+02
 21
-4.08868393E+02
  0
LINE
  8
0
  6
CENTER
 62
2
 10
-7.06200465E+02
 20
-3.92387619E+02
 11
-7.06200465E+02
 21
-4.23294586E+02
  0
LINE
  8
0
  6
CENTER
 62
2
 10
-7.22164363E+02
 20
-4.08868393E+02
 11
-6.90309474E+02
 21
-4.08868393E+02
  0
TEXT
  8
0
 62
7
 10
4.93023580E+02
 20
-4.00162295E+01
 40
1.25000000E+01
  1
925
 41
1.00000000E+00
  7
MONOTXT
  0
TEXT
  8
0
 62
7
 10
4.30523580E+02
 20
-4.00162295E+01
 40
1.25000000E+01
  1
825
 41
1.00000000E+00
  7
MONOTXT
  0
TEXT
  8
0
 62
7
 10
3.68023580E+02
 20
-4.00162295E+01
 40
1.25000000E+01
  1
725
 41
1.00000000E+00
  7
MONOTXT
  0
TEXT
  8
0
 62
7
 10
3.05523580E+02
 20
-4.00162295E+01
 40
1.25000000E+01
  1
625
 41
1.00000000E+00
  7
MONOTXT
  0
TEXT
  8
0
 62
7
 10
2.43023581E+02
 20
-4.00162295E+01
 40
1.25000000E+01
  1
525
 41
1.00000000E+00
  7
MONOTXT
  0
TEXT
  8
0
 62
7
 10
1.80523581E+02
 20
-4.00162295E+01
 40
1.25000000E+01
  1
425
 41
1.00000000E+00
  7
MONOTXT
  0
TEXT
  8
0
 62
7
 10
1.18023580E+02
 20
-4.00162295E+01
 40
1.25000000E+01
  1
375
 41
1.00000000E+00
  7
MONOTXT
  0
TEXT
  8
0
 62
7
 10
5.55235809E+01
 20
-4.00162295E+01
 40
1.25000000E+01
  1
325
 41
1.00000000E+00
  7
MONOTXT
  0
TEXT
  8
0
 62
7
 10
-6.97641906E+00
 20
-4.00162295E+01
 40
1.25000000E+01
  1
275
 41
1.00000000E+00
  7
MONOTXT
  0
TEXT
  8
0
 62
7
 10
-6.94764191E+01
 20
-4.00162295E+01
 40
1.25000000E+01
  1
225
 41
1.00000000E+00
  7
MONOTXT
  0
TEXT
  8
0
 62
7
 10
-1.31976419E+02
 20
-4.00162295E+01
 40
1.25000000E+01
  1
175
 41
1.00000000E+00
  7
MONOTXT
  0
TEXT
  8
0
 62
7
 10
-1.94476419E+02
 20
-4.00162295E+01
 40
1.25000000E+01
  1
125
 41
1.00000000E+00
  7
MONOTXT
  0
TEXT
  8
0
 62
7
 10
-2.50726419E+02
 20
-4.00162295E+01
 40
1.25000000E+01
  1
75
 41
1.00000000E+00
  7
MONOTXT
  0
TEXT
  8
0
 62
7
 10
-3.13226420E+02
 20
-4.00162295E+01
 40
1.25000000E+01
  1
25
 41
1.00000000E+00
  7
MONOTXT
  0
TEXT
  8
0
 62
7
 10
-3.69476420E+02
 20
-4.00162295E+01
 40
1.25000000E+01
  1
0
 41
1.00000000E+00
  7
MONOTXT
  0
TEXT
  8
0
 62
7
 10
-4.44476420E+02
 20
-4.00162295E+01
 40
1.25000000E+01
  1
-25
 41
1.00000000E+00
  7
MONOTXT
  0
TEXT
  8
0
 62
7
 10
4.86773580E+02
 20
-2.00162295E+01
 40
1.25000000E+01
  1
1000
 41
1.00000000E+00
  7
MONOTXT
  0
TEXT
  8
0
 62
7
 10
4.30523580E+02
 20
-2.00162295E+01
 40
1.25000000E+01
  1
900
 41
1.00000000E+00
  7
MONOTXT
  0
TEXT
  8
0
 62
7
 10
3.68023580E+02
 20
-2.00162295E+01
 40
1.25000000E+01
  1
800
 41
1.00000000E+00
  7
MONOTXT
  0
TEXT
  8
0
 62
7
 10
3.05523580E+02
 20
-2.00162295E+01
 40
1.25000000E+01
  1
700
 41
1.00000000E+00
  7
MONOTXT
  0
TEXT
  8
0
 62
7
 10
2.43023581E+02
 20
-2.00162295E+01
 40
1.25000000E+01
  1
600
 41
1.00000000E+00
  7
MONOTXT
  0
TEXT
  8
0
 62
7
 10
1.80523581E+02
 20
-2.00162295E+01
 40
1.25000000E+01
  1
500
 41
1.00000000E+00
  7
MONOTXT
  0
TEXT
  8
0
 62
7
 10
1.18023580E+02
 20
-2.00162295E+01
 40
1.25000000E+01
  1
450
 41
1.00000000E+00
  7
MONOTXT
  0
TEXT
  8
0
 62
7
 10
5.55235809E+01
 20
-2.00162295E+01
 40
1.25000000E+01
  1
400
 41
1.00000000E+00
  7
MONOTXT
  0
TEXT
  8
0
 62
7
 10
-6.97641906E+00
 20
-2.00162295E+01
 40
1.25000000E+01
  1
350
 41
1.00000000E+00
  7
MONOTXT
  0
TEXT
  8
0
 62
7
 10
-6.94764191E+01
 20
-2.00162295E+01
 40
1.25000000E+01
  1
300
 41
1.00000000E+00
  7
MONOTXT
  0
TEXT
  8
0
 62
7
 10
-1.31976419E+02
 20
-2.00162295E+01
 40
1.25000000E+01
  1
250
 41
1.00000000E+00
  7
MONOTXT
  0
TEXT
  8
0
 62
7
 10
-1.94476419E+02
 20
-2.00162295E+01
 40
1.25000000E+01
  1
200
 41
1.00000000E+00
  7
MONOTXT
  0
TEXT
  8
0
 62
7
 10
-2.56976420E+02
 20
-2.00162295E+01
 40
1.25000000E+01
  1
150
 41
1.00000000E+00
  7
MONOTXT
  0
TEXT
  8
0
 62
7
 10
-3.19476420E+02
 20
-2.00162295E+01
 40
1.25000000E+01
  1
100
 41
1.00000000E+00
  7
MONOTXT
  0
TEXT
  8
0
 62
7
 10
-3.75726420E+02
 20
-2.00162295E+01
 40
1.25000000E+01
  1
75
 41
1.00000000E+00
  7
MONOTXT
  0
TEXT
  8
0
 62
7
 10
-4.38226420E+02
 20
-2.00162295E+01
 40
1.25000000E+01
  1
50
 41
1.00000000E+00
  7
MONOTXT
  0
LINE
  8
0
 62
7
 10
5.41656393E+02
 20
-4.37662295E+01
 11
5.41656393E+02
 21
-3.76622952E+00
  0
LINE
  8
0
 62
7
 10
4.79156393E+02
 20
-4.37662295E+01
 11
4.79156393E+02
 21
-3.76622952E+00
  0
LINE
  8
0
 62
7
 10
4.16656393E+02
 20
-4.37662295E+01
 11
4.16656393E+02
 21
-3.76622952E+00
  0
LINE
  8
0
 62
7
 10
3.54156393E+02
 20
-4.37662295E+01
 11
3.54156393E+02
 21
-3.76622952E+00
  0
LINE
  8
0
 62
7
 10
2.91656393E+02
 20
-4.37662295E+01
 11
2.91656393E+02
 21
-3.76622952E+00
  0
LINE
  8
0
 62
7
 10
2.29156393E+02
 20
-4.37662295E+01
 11
2.29156393E+02
 21
-3.76622952E+00
  0
LINE
  8
0
 62
7
 10
1.66656393E+02
 20
-4.37662295E+01
 11
1.66656393E+02
 21
-3.76622952E+00
  0
LINE
  8
0
 62
7
 10
1.04156393E+02
 20
-4.37662295E+01
 11
1.04156393E+02
 21
-3.76622952E+00
  0
LINE
  8
0
 62
7
 10
4.16563934E+01
 20
-4.37662295E+01
 11
4.16563934E+01
 21
-3.76622952E+00
  0
LINE
  8
0
 62
7
 10
-2.08436066E+01
 20
-4.37662295E+01
 11
-2.08436066E+01
 21
-3.76622952E+00
  0
LINE
  8
0
 62
7
 10
-8.33436066E+01
 20
-4.37662295E+01
 11
-8.33436066E+01
 21
-3.76622952E+00
  0
LINE
  8
0
 62
7
 10
-1.45843607E+02
 20
-4.37662295E+01
 11
-1.45843607E+02
 21
-3.76622952E+00
  0
LINE
  8
0
 62
7
 10
-2.08343607E+02
 20
-4.37662295E+01
 11
-2.08343607E+02
 21
-3.76622952E+00
  0
LINE
  8
0
 62
7
 10
-2.70843607E+02
 20
-4.37662295E+01
 11
-2.70843607E+02
 21
-3.76622952E+00
  0
LINE
  8
0
 62
7
 10
-3.33343607E+02
 20
-4.37662295E+01
 11
-3.33343607E+02
 21
-3.76622952E+00
  0
LINE
  8
0
 62
7
 10
-3.95843607E+02
 20
-4.37662295E+01
 11
-3.95843607E+02
 21
-3.76622952E+00
  0
TEXT
  8
0
 62
7
 10
-5.50726420E+02
 20
-4.00162295E+01
 40
1.25000000E+01
  1
STRETCH
 41
1.00000000E+00
  7
MONOTXT
  0
TEXT
  8
0
 62
7
 10
-5.44476420E+02
 20
-2.00162295E+01
 40
1.25000000E+01
  1
STROKE
 41
1.00000000E+00
  7
MONOTXT
  0
LINE
  8
0
 62
7
 10
-4.58343607E+02
 20
-4.37662295E+01
 11
-4.58343607E+02
 21
-3.76622952E+00
  0
LINE
  8
0
 62
7
 10
-5.58343607E+02
 20
-4.37662295E+01
 11
-5.58343607E+02
 21
-3.76622952E+00
  0
LINE
  8
0
 62
7
 10
-5.58343607E+02
 20
-4.37662295E+01
 11
5.41656393E+02
 21
-4.37662295E+01
  0
LINE
  8
0
 62
7
 10
-5.58343607E+02
 20
-2.37662295E+01
 11
5.41656393E+02
 21
-2.37662295E+01
  0
LINE
  8
0
 62
7
 10
-5.58343607E+02
 20
-3.76622951E+00
 11
5.41656393E+02
 21
-3.76622951E+00
  0
TEXT
  8
0
 62
7
 10
-8.19764191E+01
 20
4.98377050E+00
 40
1.25000000E+01
  1
STRETCH LIST
 41
1.05263158E+00
  7
MONOTXT
  0
TEXT
  8
0
 62
7
 10
4.88023580E+02
 20
4.98377050E+00
 40
1.25000000E+01
  1
(mm)
 41
1.00000000E+00
  7
MONOTXT
  0
TEXT
  8
0
 10
-8.91328125E+01
 20
4.60864332E+02
 40
1.25000000E+01
  1
STRETCH LINE
 41
1.05263158E+00
  7
MONOTXT
  0
LINE
  8
0
  6
CENTER
 62
2
 10
-5.06221110E+02
 20
-4.50868331E+02
 11
-6.57175350E+01
 21
-4.50868331E+02
  0
LINE
  8
0
 62
7
 10
-3.82700206E+02
 20
-2.82868331E+02
 11
-3.66700267E+02
 21
-2.82868331E+02
  0
LINE
  8
0
 62
7
 10
-3.66700267E+02
 20
-2.77868362E+02
 11
-3.66700267E+02
 21
-2.82868331E+02
  0
LINE
  8
0
 62
7
 10
-3.82700297E+02
 20
-2.77868362E+02
 11
-3.82700297E+02
 21
-2.82868331E+02
  0
LINE
  8
0
 62
7
 10
-3.78000316E+02
 20
-2.90368331E+02
 11
-3.71400279E+02
 21
-2.90368331E+02
  0
LINE
  8
0
 62
7
 10
-3.80450267E+02
 20
-2.89368393E+02
 11
-3.68950236E+02
 21
-2.89368393E+02
  0
LINE
  8
0
 62
7
 10
-3.67750255E+02
 20
-2.82868331E+02
 11
-3.67750255E+02
 21
-2.88675521E+02
  0
LINE
  8
0
 62
7
 10
-3.81650188E+02
 20
-2.82868331E+02
 11
-3.81650188E+02
 21
-2.88675521E+02
  0
LINE
  8
0
 62
7
 10
-3.68949916E+02
 20
-2.89368836E+02
 11
-3.67749907E+02
 21
-2.88676011E+02
  0
LINE
  8
0
 62
7
 10
-3.81650580E+02
 20
-2.88675579E+02
 11
-3.80450651E+02
 21
-2.89368359E+02
  0
LINE
  8
0
 62
7
 10
-3.78175303E+02
 20
-2.82868331E+02
 11
-3.78175303E+02
 21
-2.88675521E+02
  0
LINE
  8
0
 62
7
 10
-3.71225230E+02
 20
-2.82868331E+02
 11
-3.71225230E+02
 21
-2.88675521E+02
  0
LINE
  8
0
 62
7
 10
-3.78700267E+02
 20
-2.89368331E+02
 11
-3.78700267E+02
 21
-2.89668319E+02
  0
LINE
  8
0
 62
7
 10
-3.70700267E+02
 20
-2.89368331E+02
 11
-3.70700267E+02
 21
-2.89668319E+02
  0
LINE
  8
0
 62
2
 10
-3.78000316E+02
 20
-2.89368331E+02
 11
-3.78000316E+02
 21
-2.90368331E+02
  0
LINE
  8
0
 62
2
 10
-3.71400279E+02
 20
-2.89368331E+02
 11
-3.71400279E+02
 21
-2.90368331E+02
  0
LINE
  8
0
 62
7
 10
-3.78700236E+02
 20
-2.89668411E+02
 11
-3.70700267E+02
 21
-2.89668411E+02
  0
LINE
  8
0
 62
7
 10
-3.78700390E+02
 20
-2.89668061E+02
 11
-3.78000382E+02
 21
-2.90368069E+02
  0
LINE
  8
0
 62
7
 10
-3.71399804E+02
 20
-2.90368779E+02
 11
-3.70699805E+02
 21
-2.89668780E+02
  0
LINE
  8
0
 62
7
 10
-3.82700206E+02
 20
-1.38868362E+02
 11
-3.66700267E+02
 21
-1.38868362E+02
  0
LINE
  8
0
 62
7
 10
-3.66700267E+02
 20
-1.43868393E+02
 11
-3.66700267E+02
 21
-1.38868362E+02
  0
LINE
  8
0
 62
7
 10
-3.82700297E+02
 20
-1.43868393E+02
 11
-3.82700297E+02
 21
-1.38868362E+02
  0
LINE
  8
0
 62
7
 10
-3.78000316E+02
 20
-1.31368362E+02
 11
-3.71400279E+02
 21
-1.31368362E+02
  0
LINE
  8
0
 62
7
 10
-3.80450267E+02
 20
-1.32368362E+02
 11
-3.68950236E+02
 21
-1.32368362E+02
  0
LINE
  8
0
 62
7
 10
-3.67750255E+02
 20
-1.38868362E+02
 11
-3.67750255E+02
 21
-1.33061172E+02
  0
LINE
  8
0
 62
7
 10
-3.81650188E+02
 20
-1.38868362E+02
 11
-3.81650188E+02
 21
-1.33061172E+02
  0
LINE
  8
0
 62
7
 10
-3.68950464E+02
 20
-1.32368583E+02
 11
-3.67750429E+02
 21
-1.33061424E+02
  0
LINE
  8
0
 62
7
 10
-3.81649836E+02
 20
-1.33061982E+02
 11
-3.80449827E+02
 21
-1.32369157E+02
  0
LINE
  8
0
 62
7
 10
-4.27700267E+02
 20
-3.81868286E+02
 11
-4.27700267E+02
 21
-4.50868331E+02
  0
LINE
  8
0
 62
7
 10
-3.71225230E+02
 20
-1.38868362E+02
 11
-3.71225230E+02
 21
-1.33061172E+02
  0
LINE
  8
0
 62
7
 10
-3.78700267E+02
 20
-1.32368362E+02
 11
-3.78700267E+02
 21
-1.32068374E+02
  0
LINE
  8
0
 62
7
 10
-3.70700267E+02
 20
-1.32368362E+02
 11
-3.70700267E+02
 21
-1.32068374E+02
  0
LINE
  8
0
 62
2
 10
-3.78000316E+02
 20
-1.32368362E+02
 11
-3.78000316E+02
 21
-1.31368362E+02
  0
LINE
  8
0
 62
2
 10
-3.71400279E+02
 20
-1.32368362E+02
 11
-3.71400279E+02
 21
-1.31368362E+02
  0
LINE
  8
0
 62
7
 10
-3.78700236E+02
 20
-1.32068344E+02
 11
-3.70700267E+02
 21
-1.32068344E+02
  0
LINE
  8
0
 62
7
 10
-3.78699885E+02
 20
-1.32068719E+02
 11
-3.77999878E+02
 21
-1.31368712E+02
  0
LINE
  8
0
 62
7
 10
-3.71400386E+02
 20
-1.31368221E+02
 11
-3.70700443E+02
 21
-1.32068163E+02
  0
LINE
  8
0
 62
7
 10
-3.78175303E+02
 20
-1.38868362E+02
 11
-3.78175303E+02
 21
-1.33061172E+02
  0
LINE
  8
0
  6
CENTER
 62
2
 10
-3.74700297E+02
 20
-2.74890060E+02
 11
-3.74700297E+02
 21
-2.93455978E+02
  0
LINE
  8
0
 62
7
 10
-3.76700267E+02
 20
-4.50868331E+02
 11
-3.76700267E+02
 21
-4.49713531E+02
  0
LINE
  8
0
 62
7
 10
-3.72700328E+02
 20
-4.49713073E+02
 11
-3.72700328E+02
 21
-4.50868331E+02
  0
LINE
  8
0
  6
CENTER
 62
2
 10
-3.74700297E+02
 20
-4.39787292E+02
 11
-3.74700297E+02
 21
-4.50868331E+02
  0
LINE
  8
0
 62
7
 10
-3.91700297E+02
 20
-2.77868362E+02
 11
-2.13700282E+02
 21
-2.77868362E+02
  0
LINE
  8
0
  6
CENTER
 62
2
 10
-3.74700297E+02
 20
-1.45756973E+02
 11
-3.74700297E+02
 21
-1.28780716E+02
  0
LINE
  8
0
 62
7
 10
-4.27700358E+02
 20
-2.79868331E+02
 11
-3.91700297E+02
 21
-2.79868331E+02
  0
LINE
  8
0
 62
7
 10
-3.91700297E+02
 20
-1.41868331E+02
 11
-3.91700297E+02
 21
-2.79868331E+02
  0
LINE
  8
0
 62
7
 10
-2.13700328E+02
 20
-1.41868331E+02
 11
-2.13700328E+02
 21
-2.79868331E+02
  0
LINE
  8
0
 62
7
 10
-4.27700358E+02
 20
-1.41868331E+02
 11
-3.91700297E+02
 21
-1.41868331E+02
  0
LINE
  8
0
 62
7
 10
-4.27700358E+02
 20
-3.81868331E+02
 11
-3.91700297E+02
 21
-3.81868331E+02
  0
LINE
  8
0
 62
7
 10
-2.13700328E+02
 20
-3.81868331E+02
 11
-1.45700313E+02
 21
-3.81868331E+02
  0
LINE
  8
0
 62
7
 10
-4.27700267E+02
 20
-1.41868331E+02
 11
-4.27700267E+02
 21
-2.79868331E+02
  0
LINE
  8
0
 62
7
 10
-2.13700374E+02
 20
-3.81868286E+02
 11
-2.13700374E+02
 21
-4.50868331E+02
  0
LINE
  8
0
 62
7
 10
-3.91700297E+02
 20
-3.81868286E+02
 11
-3.91700297E+02
 21
-4.50868331E+02
  0
LINE
  8
0
 62
7
 10
-3.91700297E+02
 20
-3.83868347E+02
 11
-3.18200297E+02
 21
-3.83868347E+02
  0
LINE
  8
0
 62
7
 10
-3.91700297E+02
 20
-1.43868393E+02
 11
-2.13700282E+02
 21
-1.43868393E+02
  0
LINE
  8
0
 62
7
 10
-3.91700297E+02
 20
-3.93368316E+02
 11
-2.13700374E+02
 21
-3.93368316E+02
  0
LINE
  8
0
  6
CENTER
 62
2
 10
-4.34048533E+02
 20
-3.98868347E+02
 11
-1.38076304E+02
 21
-3.98868347E+02
  0
LINE
  8
0
 62
7
 10
-3.91700297E+02
 20
-4.04368331E+02
 11
-2.13700374E+02
 21
-4.04368331E+02
  0
LINE
  8
0
 62
7
 10
-2.27236015E+02
 20
-4.44868155E+02
 11
-2.23771938E+02
 21
-4.50868121E+02
  0
LINE
  8
0
 62
7
 10
-2.34164470E+02
 20
-4.44868331E+02
 11
-2.27236217E+02
 21
-4.44868331E+02
  0
LINE
  8
0
 62
7
 10
-2.34164106E+02
 20
-4.44868586E+02
 11
-2.37628195E+02
 21
-4.50868574E+02
  0
LINE
  8
0
 62
7
 10
-2.30700341E+02
 20
-4.48558792E+02
 11
-2.28700327E+02
 21
-4.49713501E+02
  0
LINE
  8
0
 62
7
 10
-2.32700324E+02
 20
-4.49713394E+02
 11
-2.30700330E+02
 21
-4.48558696E+02
  0
LINE
  8
0
 62
7
 10
-3.71236848E+02
 20
-4.44868700E+02
 11
-3.67772740E+02
 21
-4.50868719E+02
  0
LINE
  8
0
 62
7
 10
-3.71236156E+02
 20
-4.44868331E+02
 11
-3.78164409E+02
 21
-4.44868331E+02
  0
LINE
  8
0
  6
CENTER
 62
2
 10
-5.10845805E+02
 20
-2.10868331E+02
 11
-6.57174892E+01
 21
-2.10868331E+02
  0
LINE
  8
0
 62
7
 10
-1.45700313E+02
 20
-1.41868331E+02
 11
-1.45700313E+02
 21
-2.79868331E+02
  0
LINE
  8
0
  6
CENTER
 62
2
 10
-3.02700297E+02
 20
-2.32367874E+02
 11
-3.02700297E+02
 21
-1.88280624E+02
  0
LINE
  8
0
 62
7
 10
-2.13700282E+02
 20
-2.79868331E+02
 11
-1.45700313E+02
 21
-2.79868331E+02
  0
LINE
  8
0
 62
7
 10
-3.74700204E+02
 20
-4.48559028E+02
 11
-3.76700179E+02
 21
-4.49713714E+02
  0
LINE
  8
0
 62
7
 10
-3.72700021E+02
 20
-4.49713254E+02
 11
-3.74700035E+02
 21
-4.48558545E+02
  0
LINE
  8
0
 62
7
 10
-2.13700328E+02
 20
-1.41868331E+02
 11
-1.45700313E+02
 21
-1.41868331E+02
  0
LINE
  8
0
 62
7
 10
-3.78164905E+02
 20
-4.44868135E+02
 11
-3.81629003E+02
 21
-4.50868138E+02
  0
LINE
  8
0
  6
CENTER
 62
2
 10
-4.05700328E+02
 20
-1.86589309E+02
 11
-4.05700328E+02
 21
-2.05155105E+02
  0
LINE
  8
0
 62
7
 10
-4.02700163E+02
 20
-1.94135713E+02
 11
-4.05700229E+02
 21
-1.92403635E+02
  0
LINE
  8
0
 62
7
 10
-4.05701691E+02
 20
-1.92401802E+02
 11
-4.08701698E+02
 21
-1.94133846E+02
  0
LINE
  8
0
 62
7
 10
-4.08700236E+02
 20
-1.97600357E+02
 11
-4.08700236E+02
 21
-1.94136245E+02
  0
LINE
  8
0
 62
7
 10
-4.05700369E+02
 20
-1.99331765E+02
 11
-4.08700276E+02
 21
-1.97599778E+02
  0
LINE
  8
0
 62
7
 10
-4.02701653E+02
 20
-1.97598144E+02
 11
-4.05701679E+02
 21
-1.99330199E+02
  0
LINE
  8
0
 62
7
 10
-4.02700328E+02
 20
-1.94136245E+02
 11
-4.02700328E+02
 21
-1.97600357E+02
  0
LINE
  8
0
  6
CENTER
 62
2
 10
-4.14760295E+02
 20
-1.95868331E+02
 11
-3.96415355E+02
 21
-1.95868331E+02
  0
LINE
  8
0
 62
7
 10
-2.13700374E+02
 20
-3.91538772E+02
 11
-1.45700313E+02
 21
-3.91538772E+02
  0
LINE
  8
0
 62
7
 10
-3.15200297E+02
 20
-3.69868331E+02
 11
-2.90200328E+02
 21
-3.69868331E+02
  0
LINE
  8
0
  6
CENTER
 62
2
 10
-4.37776652E+02
 20
-2.62868362E+02
 11
-1.38076304E+02
 21
-2.62868362E+02
  0
LINE
  8
0
 62
7
 10
-3.91700297E+02
 20
-2.57368331E+02
 11
-2.13700328E+02
 21
-2.57368331E+02
  0
LINE
  8
0
 62
7
 10
-3.91700297E+02
 20
-2.68368331E+02
 11
-2.13700328E+02
 21
-2.68368331E+02
  0
LINE
  8
0
 62
7
 10
-3.91700297E+02
 20
-1.53368362E+02
 11
-2.13700328E+02
 21
-1.53368362E+02
  0
LINE
  8
0
 62
7
 10
-3.91700297E+02
 20
-1.64368331E+02
 11
-2.13700328E+02
 21
-1.64368331E+02
  0
LINE
  8
0
  6
CENTER
 62
2
 10
-4.37776652E+02
 20
-1.58868393E+02
 11
-1.38076304E+02
 21
-1.58868393E+02
  0
LINE
  8
0
 62
7
 10
-4.27700358E+02
 20
-3.91538772E+02
 11
-3.91700297E+02
 21
-3.91538772E+02
  0
LINE
  8
0
 62
7
 10
-2.13700374E+02
 20
-1.51538711E+02
 11
-1.45700313E+02
 21
-1.51538711E+02
  0
LINE
  8
0
 62
7
 10
-2.13700374E+02
 20
-2.70197921E+02
 11
-1.45700313E+02
 21
-2.70197921E+02
  0
LINE
  8
0
 62
7
 10
-4.27700358E+02
 20
-2.70197921E+02
 11
-3.91700297E+02
 21
-2.70197921E+02
  0
LINE
  8
0
 62
7
 10
-4.27700358E+02
 20
-1.51538711E+02
 11
-3.91700297E+02
 21
-1.51538711E+02
  0
LINE
  8
0
  6
CENTER
 62
2
 10
-3.02700297E+02
 20
-3.87091598E+02
 11
-3.02700297E+02
 21
-3.64692718E+02
  0
LINE
  8
0
 62
7
 10
-2.28700328E+02
 20
-4.50868331E+02
 11
-2.28700328E+02
 21
-4.49713485E+02
  0
LINE
  8
0
 62
7
 10
-2.32700313E+02
 20
-4.49713073E+02
 11
-2.32700313E+02
 21
-4.50868331E+02
  0
LINE
  8
0
  6
CENTER
 62
2
 10
-2.30700297E+02
 20
-4.39787292E+02
 11
-2.30700297E+02
 21
-4.50868331E+02
  0
LINE
  8
0
  6
CENTER
 62
2
 10
-1.99700267E+02
 20
-1.86589309E+02
 11
-1.99700267E+02
 21
-2.05155105E+02
  0
LINE
  8
0
 62
7
 10
-2.02700801E+02
 20
-1.94135169E+02
 11
-1.99700696E+02
 21
-1.92403067E+02
  0
LINE
  8
0
 62
7
 10
-1.99699207E+02
 20
-1.92402262E+02
 11
-1.96699220E+02
 21
-1.94134295E+02
  0
LINE
  8
0
 62
7
 10
-1.96700313E+02
 20
-1.97600357E+02
 11
-1.96700313E+02
 21
-1.94136245E+02
  0
LINE
  8
0
 62
7
 10
-1.99700749E+02
 20
-1.99331291E+02
 11
-1.96700769E+02
 21
-1.97599262E+02
  0
LINE
  8
0
 62
7
 10
-2.02699190E+02
 20
-1.97598600E+02
 11
-1.99699283E+02
 21
-1.99330587E+02
  0
LINE
  8
0
 62
7
 10
-2.02700313E+02
 20
-1.94136245E+02
 11
-2.02700313E+02
 21
-1.97600357E+02
  0
LINE
  8
0
  6
CENTER
 62
2
 10
-1.90640346E+02
 20
-1.95868331E+02
 11
-2.08985225E+02
 21
-1.95868331E+02
  0
LINE
  8
0
  6
CENTER
 62
2
 10
-2.30700389E+02
 20
-1.45756973E+02
 11
-2.30700389E+02
 21
-1.28780716E+02
  0
LINE
  8
0
 62
7
 10
-2.22700374E+02
 20
-1.38868362E+02
 11
-2.38700313E+02
 21
-1.38868362E+02
  0
LINE
  8
0
 62
7
 10
-2.38700313E+02
 20
-1.43868393E+02
 11
-2.38700313E+02
 21
-1.38868362E+02
  0
LINE
  8
0
 62
7
 10
-2.22700328E+02
 20
-1.43868393E+02
 11
-2.22700328E+02
 21
-1.38868362E+02
  0
LINE
  8
0
 62
7
 10
-2.27400371E+02
 20
-1.31368362E+02
 11
-2.34000361E+02
 21
-1.31368362E+02
  0
LINE
  8
0
 62
7
 10
-2.24950374E+02
 20
-1.32368362E+02
 11
-2.36450404E+02
 21
-1.32368362E+02
  0
LINE
  8
0
 62
7
 10
-2.37650340E+02
 20
-1.38868362E+02
 11
-2.37650340E+02
 21
-1.33061172E+02
  0
LINE
  8
0
 62
7
 10
-2.23750346E+02
 20
-1.38868362E+02
 11
-2.23750346E+02
 21
-1.33061172E+02
  0
LINE
  8
0
 62
7
 10
-2.36450263E+02
 20
-1.32368666E+02
 11
-2.37650252E+02
 21
-1.33061480E+02
  0
LINE
  8
0
 62
7
 10
-2.23750659E+02
 20
-1.33061786E+02
 11
-2.24950588E+02
 21
-1.32369007E+02
  0
LINE
  8
0
 62
7
 10
-2.27225322E+02
 20
-1.38868362E+02
 11
-2.27225322E+02
 21
-1.33061172E+02
  0
LINE
  8
0
 62
7
 10
-2.34175365E+02
 20
-1.38868362E+02
 11
-2.34175365E+02
 21
-1.33061172E+02
  0
LINE
  8
0
 62
7
 10
-2.26700313E+02
 20
-1.32368362E+02
 11
-2.26700313E+02
 21
-1.32068374E+02
  0
LINE
  8
0
 62
7
 10
-2.34700328E+02
 20
-1.32368362E+02
 11
-2.34700328E+02
 21
-1.32068374E+02
  0
LINE
  8
0
 62
2
 10
-2.27400325E+02
 20
-1.32368362E+02
 11
-2.27400325E+02
 21
-1.31368362E+02
  0
LINE
  8
0
 62
2
 10
-2.34000361E+02
 20
-1.32368362E+02
 11
-2.34000361E+02
 21
-1.31368362E+02
  0
LINE
  8
0
 62
7
 10
-2.26700358E+02
 20
-1.32068344E+02
 11
-2.34700374E+02
 21
-1.32068344E+02
  0
LINE
  8
0
 62
7
 10
-2.26700803E+02
 20
-1.32068805E+02
 11
-2.27400810E+02
 21
-1.31368798E+02
  0
LINE
  8
0
 62
7
 10
-2.33999962E+02
 20
-1.31368345E+02
 11
-2.34699959E+02
 21
-1.32068341E+02
  0
LINE
  8
0
  6
CENTER
 62
2
 10
-2.30700389E+02
 20
-2.74890060E+02
 11
-2.30700389E+02
 21
-2.93455978E+02
  0
LINE
  8
0
 62
7
 10
-2.22700374E+02
 20
-2.82868331E+02
 11
-2.38700313E+02
 21
-2.82868331E+02
  0
LINE
  8
0
 62
7
 10
-2.38700313E+02
 20
-2.77868362E+02
 11
-2.38700313E+02
 21
-2.82868331E+02
  0
LINE
  8
0
 62
7
 10
-2.22700328E+02
 20
-2.77868362E+02
 11
-2.22700328E+02
 21
-2.82868331E+02
  0
LINE
  8
0
 62
7
 10
-2.27400371E+02
 20
-2.90368331E+02
 11
-2.34000361E+02
 21
-2.90368331E+02
  0
LINE
  8
0
 62
7
 10
-2.24950374E+02
 20
-2.89368393E+02
 11
-2.36450404E+02
 21
-2.89368393E+02
  0
LINE
  8
0
 62
7
 10
-2.37650340E+02
 20
-2.82868331E+02
 11
-2.37650340E+02
 21
-2.88675521E+02
  0
LINE
  8
0
 62
7
 10
-2.23750346E+02
 20
-2.82868331E+02
 11
-2.23750346E+02
 21
-2.88675521E+02
  0
LINE
  8
0
 62
7
 10
-2.36450609E+02
 20
-2.89368799E+02
 11
-2.37650617E+02
 21
-2.88675974E+02
  0
LINE
  8
0
 62
7
 10
-2.23750185E+02
 20
-2.88675535E+02
 11
-2.24950134E+02
 21
-2.89368326E+02
  0
LINE
  8
0
 62
7
 10
-2.27225322E+02
 20
-2.82868331E+02
 11
-2.27225322E+02
 21
-2.88675521E+02
  0
LINE
  8
0
 62
7
 10
-2.34175365E+02
 20
-2.82868331E+02
 11
-2.34175365E+02
 21
-2.88675521E+02
  0
LINE
  8
0
 62
7
 10
-2.26700313E+02
 20
-2.89368331E+02
 11
-2.26700313E+02
 21
-2.89668319E+02
  0
LINE
  8
0
 62
7
 10
-2.34700328E+02
 20
-2.89368331E+02
 11
-2.34700328E+02
 21
-2.89668319E+02
  0
LINE
  8
0
 62
2
 10
-2.27400325E+02
 20
-2.89368331E+02
 11
-2.27400325E+02
 21
-2.90368331E+02
  0
LINE
  8
0
 62
2
 10
-2.34000361E+02
 20
-2.89368331E+02
 11
-2.34000361E+02
 21
-2.90368331E+02
  0
LINE
  8
0
 62
7
 10
-2.26700358E+02
 20
-2.89668411E+02
 11
-2.34700374E+02
 21
-2.89668411E+02
  0
LINE
  8
0
 62
7
 10
-2.26699977E+02
 20
-2.89668328E+02
 11
-2.27399931E+02
 21
-2.90368282E+02
  0
LINE
  8
0
 62
7
 10
-2.34000728E+02
 20
-2.90368826E+02
 11
-2.34700736E+02
 21
-2.89668819E+02
  0
LINE
  8
0
 62
7
 10
-2.87200328E+02
 20
-3.83868347E+02
 11
-2.13700328E+02
 21
-3.83868347E+02
  0
LINE
  8
0
 62
7
 10
-3.15200206E+02
 20
-3.80868473E+02
 11
-3.18200204E+02
 21
-3.83868471E+02
  0
LINE
  8
0
 62
7
 10
-2.90200377E+02
 20
-3.80868346E+02
 11
-2.87200373E+02
 21
-3.83868349E+02
  0
LINE
  8
0
 62
7
 10
-2.91200345E+02
 20
-3.68868366E+02
 11
-2.90200344E+02
 21
-3.69868367E+02
  0
LINE
  8
0
 62
7
 10
-3.14200328E+02
 20
-3.68868347E+02
 11
-2.91200313E+02
 21
-3.68868347E+02
  0
LINE
  8
0
 62
7
 10
-3.15200297E+02
 20
-3.80868347E+02
 11
-3.15200297E+02
 21
-3.69868331E+02
  0
LINE
  8
0
 62
7
 10
-2.90200282E+02
 20
-3.80868347E+02
 11
-2.90200282E+02
 21
-3.69868331E+02
  0
LINE
  8
0
 62
7
 10
-3.15200149E+02
 20
-3.69868469E+02
 11
-3.14200173E+02
 21
-3.68868492E+02
  0
LINE
  8
0
 62
7
 10
-1.45700313E+02
 20
-3.81868331E+02
 11
-1.45700313E+02
 21
-4.50868331E+02
  0
LINE
  8
0
 62
7
 10
-1.45700313E+02
 20
-3.95988052E+02
 11
-1.45700313E+02
 21
-4.50868331E+02
  0
LINE
  8
0
 62
7
 10
-1.09700328E+02
 20
-3.94868331E+02
 11
-1.09700328E+02
 21
-4.50868331E+02
  0
LINE
  8
0
 62
7
 10
-1.14968205E+02
 20
-2.28868444E+02
 11
-1.15834228E+02
 21
-2.27368438E+02
  0
LINE
  8
0
 62
7
 10
-1.15834285E+02
 20
-2.27368362E+02
 11
-1.17566356E+02
 21
-2.27368362E+02
  0
LINE
  8
0
 62
7
 10
-1.18432079E+02
 20
-2.28868608E+02
 11
-1.17566070E+02
 21
-2.27368627E+02
  0
LINE
  8
0
 62
7
 10
-4.58700236E+02
 20
-4.35868286E+02
 11
-4.48700267E+02
 21
-4.35868286E+02
  0
LINE
  8
0
  6
CENTER
 62
2
 10
-1.16700297E+02
 20
-2.21320602E+02
 11
-1.16700297E+02
 21
-2.35933975E+02
  0
LINE
  8
0
  6
CENTER
 62
2
 10
-1.24894877E+02
 20
-2.28868362E+02
 11
-1.08625880E+02
 21
-2.28868362E+02
  0
LINE
  8
0
  6
CENTER
 62
2
 10
-1.25700313E+02
 20
-4.07568298E+02
 11
-1.25700313E+02
 21
-3.92604690E+02
  0
LINE
  8
0
 62
7
 10
-4.62700267E+02
 20
-2.23868331E+02
 11
-4.52700236E+02
 21
-2.23868331E+02
  0
LINE
  8
0
 62
7
 10
-1.14968050E+02
 20
-2.28868480E+02
 11
-1.15834089E+02
 21
-2.30368513E+02
  0
LINE
  8
0
 62
7
 10
-1.15834285E+02
 20
-2.30368362E+02
 11
-1.17566356E+02
 21
-2.30368362E+02
  0
LINE
  8
0
 62
7
 10
-1.17566234E+02
 20
-2.30368373E+02
 11
-1.18432304E+02
 21
-2.28868287E+02
  0
LINE
  8
0
 62
7
 10
-1.09700328E+02
 20
-3.97368316E+02
 11
-3.48292868E+01
 21
-3.97368316E+02
  0
LINE
  8
0
 62
7
 10
-4.29200236E+02
 20
-4.25868316E+02
 11
-4.27700267E+02
 21
-4.25868316E+02
  0
LINE
  8
0
 62
7
 10
-1.41700313E+02
 20
-3.94868331E+02
 11
-1.09700297E+02
 21
-3.94868331E+02
  0
LINE
  8
0
 62
7
 10
-1.41700313E+02
 20
-3.95426879E+02
 11
-1.41700313E+02
 21
-3.94868331E+02
  0
LINE
  8
0
 62
7
 10
-1.45209029E+02
 20
-3.95488144E+02
 11
-1.09700294E+02
 21
-3.94868337E+02
  0
LINE
  8
0
 62
7
 10
-4.43217765E+02
 20
-4.26840413E+02
 11
-4.29700308E+02
 21
-4.26368373E+02
  0
LINE
  8
0
 62
7
 10
-4.43700267E+02
 20
-4.27305084E+02
 11
-4.43700267E+02
 21
-4.27368331E+02
  0
LINE
  8
0
 62
7
 10
-4.48200267E+02
 20
-4.27868316E+02
 11
-4.43700267E+02
 21
-4.27868316E+02
  0
LINE
  8
0
 62
7
 10
-4.62700267E+02
 20
-4.50868331E+02
 11
-4.62700267E+02
 21
-4.37868331E+02
  0
LINE
  8
0
 62
7
 10
-5.02700267E+02
 20
-2.22368393E+02
 11
-5.02700267E+02
 21
-1.99368637E+02
  0
LINE
  8
0
 62
7
 10
-4.65700267E+02
 20
-2.23868331E+02
 11
-4.65700267E+02
 21
-1.97868331E+02
  0
LINE
  8
0
 62
7
 10
-5.01200297E+02
 20
-1.97868362E+02
 11
-4.91200267E+02
 21
-1.97868362E+02
  0
LINE
  8
0
 62
7
 10
-5.01200267E+02
 20
-2.23868331E+02
 11
-5.01200267E+02
 21
-1.97868331E+02
  0
LINE
  8
0
 62
7
 10
-5.02700119E+02
 20
-1.99368519E+02
 11
-5.01200104E+02
 21
-1.97868504E+02
  0
LINE
  8
0
 62
2
 10
-5.02020305E+02
 20
-1.98688369E+02
 11
-4.91200267E+02
 21
-1.98688369E+02
  0
LINE
  8
0
 62
7
 10
-5.01200297E+02
 20
-2.23868331E+02
 11
-4.91200267E+02
 21
-2.23868331E+02
  0
LINE
  8
0
 62
7
 10
-5.02700281E+02
 20
-2.22368382E+02
 11
-5.01200269E+02
 21
-2.23868394E+02
  0
LINE
  8
0
 62
2
 10
-5.02020305E+02
 20
-2.23048324E+02
 11
-4.91200267E+02
 21
-2.23048324E+02
  0
LINE
  8
0
 62
7
 10
-4.65700267E+02
 20
-1.98688369E+02
 11
-4.62700267E+02
 21
-1.98688369E+02
  0
LINE
  8
0
 62
7
 10
-4.65700267E+02
 20
-2.23048324E+02
 11
-4.62700267E+02
 21
-2.23048324E+02
  0
LINE
  8
0
  6
CENTER
 62
2
 10
-8.99662005E+01
 20
-2.52868331E+02
 11
-1.48224803E+02
 21
-2.52868331E+02
  0
LINE
  8
0
 62
7
 10
-4.62700267E+02
 20
-2.23868331E+02
 11
-4.62700267E+02
 21
-1.97868331E+02
  0
LINE
  8
0
 62
7
 10
-5.02700267E+02
 20
-4.50868331E+02
 11
-5.02700267E+02
 21
-4.39368637E+02
  0
LINE
  8
0
 62
7
 10
-4.65700267E+02
 20
-4.50868331E+02
 11
-4.65700267E+02
 21
-4.37868331E+02
  0
LINE
  8
0
 62
7
 10
-5.01200328E+02
 20
-4.37868331E+02
 11
-4.91200267E+02
 21
-4.37868331E+02
  0
LINE
  8
0
 62
7
 10
-5.01200267E+02
 20
-4.50868331E+02
 11
-5.01200267E+02
 21
-4.37868331E+02
  0
LINE
  8
0
 62
7
 10
-5.02700114E+02
 20
-4.39368524E+02
 11
-5.01200101E+02
 21
-4.37868512E+02
  0
LINE
  8
0
 62
2
 10
-5.02020335E+02
 20
-4.38688339E+02
 11
-4.91200267E+02
 21
-4.38688339E+02
  0
LINE
  8
0
 62
7
 10
-4.65700267E+02
 20
-4.38688339E+02
 11
-4.62700267E+02
 21
-4.38688339E+02
  0
LINE
  8
0
  6
CENTER
 62
2
 10
-4.14688237E+01
 20
-4.08868331E+02
 11
-1.48224803E+02
 21
-4.08868331E+02
  0
LINE
  8
0
 62
7
 10
-1.41700297E+02
 20
-1.77868270E+02
 11
-1.41700297E+02
 21
-2.43868270E+02
  0
LINE
  8
0
  6
CENTER
 62
2
 10
-1.11997966E+02
 20
-1.98868362E+02
 11
-1.39795238E+02
 21
-1.98868362E+02
  0
LINE
  8
0
 62
7
 10
-4.29200206E+02
 20
-1.85868393E+02
 11
-4.27700206E+02
 21
-1.85868393E+02
  0
LINE
  8
0
 62
7
 10
-1.45700313E+02
 20
-2.65748581E+02
 11
-1.45700313E+02
 21
-1.55988052E+02
  0
LINE
  8
0
 62
7
 10
-4.48700236E+02
 20
-2.33368270E+02
 11
-4.48700236E+02
 21
-1.88368270E+02
  0
LINE
  8
0
 62
7
 10
-4.43700236E+02
 20
-1.87305038E+02
 11
-4.43700236E+02
 21
-1.87368270E+02
  0
LINE
  8
0
 62
7
 10
-1.45208979E+02
 20
-1.55487861E+02
 11
-1.09700245E+02
 21
-1.54868054E+02
  0
LINE
  8
0
 62
7
 10
-4.48200206E+02
 20
-1.87868362E+02
 11
-4.43700206E+02
 21
-1.87868362E+02
  0
LINE
  8
0
 62
7
 10
-4.43217702E+02
 20
-1.86840100E+02
 11
-4.29700245E+02
 21
-1.86368061E+02
  0
LINE
  8
0
 62
7
 10
-4.29200206E+02
 20
-2.35868362E+02
 11
-4.27700206E+02
 21
-2.35868362E+02
  0
LINE
  8
0
 62
7
 10
-4.43700236E+02
 20
-2.34431564E+02
 11
-4.43700236E+02
 21
-2.34368270E+02
  0
LINE
  8
0
 62
7
 10
-1.45208965E+02
 20
-2.66248332E+02
 11
-1.09700261E+02
 21
-2.66868138E+02
  0
LINE
  8
0
 62
7
 10
-4.48200206E+02
 20
-2.33868362E+02
 11
-4.43700206E+02
 21
-2.33868362E+02
  0
LINE
  8
0
 62
7
 10
-4.43700236E+02
 20
-1.87340011E+02
 11
-4.43700236E+02
 21
-2.34396530E+02
  0
LINE
  8
0
 62
7
 10
-4.43217694E+02
 20
-2.34895973E+02
 11
-4.29700238E+02
 21
-2.35368013E+02
  0
LINE
  8
0
 62
7
 10
-1.09700328E+02
 20
-1.54868148E+02
 11
-1.09700328E+02
 21
-1.64987942E+02
  0
LINE
  8
0
 62
7
 10
-4.48700267E+02
 20
-4.50868331E+02
 11
-4.48700267E+02
 21
-4.28368316E+02
  0
LINE
  8
0
 62
7
 10
-4.43700267E+02
 20
-4.27340057E+02
 11
-4.43700267E+02
 21
-4.50868331E+02
  0
LINE
  8
0
  6
CENTER
 62
2
 10
-1.25700313E+02
 20
-2.12974166E+02
 11
-1.25700313E+02
 21
-1.85045059E+02
  0
LINE
  8
0
 62
7
 10
-1.39700267E+02
 20
-2.45868362E+02
 11
-1.09700282E+02
 21
-2.45868362E+02
  0
LINE
  8
0
 62
7
 10
-1.39700267E+02
 20
-1.75868393E+02
 11
-1.17700328E+02
 21
-1.75868393E+02
  0
LINE
  8
0
 62
7
 10
-4.29700236E+02
 20
-2.35368209E+02
 11
-4.29700236E+02
 21
-1.86368301E+02
  0
LINE
  8
0
 62
7
 10
-4.29700236E+02
 20
-4.26368377E+02
 11
-4.29700236E+02
 21
-4.50868331E+02
  0
LINE
  8
0
  6
CENTER
 62
2
 10
-4.14687603E+01
 20
-1.68868301E+02
 11
-8.32003279E+01
 21
-1.68868301E+02
  0
LINE
  8
0
 62
7
 10
-4.40668541E+01
 20
-1.73368331E+02
 11
-6.37003279E+01
 21
-1.73368331E+02
  0
LINE
  8
0
 62
7
 10
-3.88706841E+01
 20
-1.64368301E+02
 11
-8.32003279E+01
 21
-1.64368301E+02
  0
LINE
  8
0
 62
7
 10
-4.50700297E+02
 20
-1.95868270E+02
 11
-4.48700236E+02
 21
-1.95868270E+02
  0
LINE
  8
0
 62
7
 10
-4.59700236E+02
 20
-2.23868331E+02
 11
-4.59700236E+02
 21
-1.97868331E+02
  0
LINE
  8
0
 62
7
 10
-4.52700326E+02
 20
-1.97868261E+02
 11
-4.50700302E+02
 21
-1.95868237E+02
  0
LINE
  8
0
 62
7
 10
-4.50700175E+02
 20
-2.25868362E+02
 11
-4.48700267E+02
 21
-2.25868362E+02
  0
LINE
  8
0
 62
7
 10
-4.52700235E+02
 20
-2.23868328E+02
 11
-4.50700190E+02
 21
-2.25868373E+02
  0
LINE
  8
0
 62
7
 10
-4.58700236E+02
 20
-4.43384956E+02
 11
-4.52700267E+02
 21
-4.43384956E+02
  0
LINE
  8
0
 62
7
 10
-1.09700328E+02
 20
-2.64368331E+02
 11
-9.66057286E+01
 21
-2.64368331E+02
  0
LINE
  8
0
 62
7
 10
-4.62700267E+02
 20
-1.97868331E+02
 11
-4.52700328E+02
 21
-1.97868331E+02
  0
LINE
  8
0
 62
7
 10
-4.58700236E+02
 20
-4.43384956E+02
 11
-4.58700236E+02
 21
-4.35868286E+02
  0
LINE
  8
0
 62
7
 10
-4.52700267E+02
 20
-4.50868331E+02
 11
-4.52700267E+02
 21
-4.43384956E+02
  0
LINE
  8
0
 62
7
 10
-4.62700226E+02
 20
-4.37868353E+02
 11
-4.58700213E+02
 21
-4.35868308E+02
  0
LINE
  8
0
 62
2
 10
-4.52700230E+02
 20
-4.43384981E+02
 11
-4.57700222E+02
 21
-4.50868331E+02
  0
LINE
  8
0
 62
7
 10
-4.62700236E+02
 20
-4.50868336E+02
 11
-4.58700221E+02
 21
-4.43384967E+02
  0
LINE
  8
0
 62
2
 10
-4.57700226E+02
 20
-4.50868331E+02
 11
-4.60478011E+02
 21
-4.46710897E+02
  0
ARC
  8
0
 62
7
 10
-3.74700297E+02
 20
-1.41429550E+02
 40
9.06113625E+00
 50
6.74489921E+01
 51
1.12550903E+02
  0
ARC
  8
0
 62
7
 10
-3.79912761E+02
 20
-2.86843216E+02
 40
2.52511263E+00
 50
2.53478125E+02
 51
3.13479008E+02
  0
ARC
  8
0
 62
7
 10
-3.69487742E+02
 20
-2.86843216E+02
 40
2.52511263E+00
 50
2.26520987E+02
 51
2.86521856E+02
  0
ARC
  8
0
 62
7
 10
-3.74700297E+02
 20
-2.80307235E+02
 40
9.06113625E+00
 50
2.47449035E+02
 51
2.92550946E+02
  0
ARC
  8
0
 62
7
 10
-3.69487742E+02
 20
-1.34893478E+02
 40
2.52511263E+00
 50
7.34780821E+01
 51
1.33478944E+02
  0
ARC
  8
0
 62
7
 10
-3.79912761E+02
 20
-1.34893478E+02
 40
2.52511263E+00
 50
4.65209375E+01
 51
1.06521820E+02
  0
ARC
  8
0
 62
7
 10
-3.74700297E+02
 20
-4.50868331E+02
 40
4.00000000E+00
 50
0.00000000E+00
 51
1.80000000E+02
  0
ARC
  8
0
 62
7
 10
-3.74700297E+02
 20
-4.50868331E+02
 40
8.00000000E+00
 50
0.00000000E+00
 51
1.80000000E+02
  0
ARC
  8
0
 62
7
 10
-3.74700297E+02
 20
-4.50868331E+02
 40
3.30000043E+00
 50
0.00000000E+00
 51
1.80000000E+02
  0
CIRCLE
  8
0
 62
7
 10
-3.02700297E+02
 20
-2.10868331E+02
 40
8.71000004E+00
  0
CIRCLE
  8
0
 62
7
 10
-3.02700297E+02
 20
-2.10868331E+02
 40
7.44000053E+00
  0
CIRCLE
  8
0
 62
2
 10
-3.02700297E+02
 20
-2.10868331E+02
 40
8.32999992E+00
  0
CIRCLE
  8
0
 62
7
 10
-4.05700328E+02
 20
-1.95868331E+02
 40
6.57850027E+00
  0
CIRCLE
  8
0
 62
7
 10
-4.05700328E+02
 20
-1.95868331E+02
 40
5.72250080E+00
  0
ARC
  8
0
 62
2
 10
-3.02700297E+02
 20
-3.18685546E+02
 40
6.70004044E+01
 50
2.56623899E+02
 51
2.83376097E+02
  0
ARC
  8
0
 62
2
 10
-3.02700297E+02
 20
-3.18685546E+02
 40
6.34267845E+01
 50
2.58633859E+02
 51
2.81366109E+02
  0
ARC
  8
0
 62
7
 10
-2.30700389E+02
 20
-2.80307235E+02
 40
9.06113625E+00
 50
2.47449090E+02
 51
2.92551001E+02
  0
ARC
  8
0
 62
7
 10
-2.30700297E+02
 20
-4.50868331E+02
 40
4.00000000E+00
 50
0.00000000E+00
 51
1.80000000E+02
  0
ARC
  8
0
 62
7
 10
-2.30700297E+02
 20
-4.50868331E+02
 40
3.30000043E+00
 50
0.00000000E+00
 51
1.80000000E+02
  0
ARC
  8
0
 62
7
 10
-2.30700297E+02
 20
-4.50868331E+02
 40
8.00000000E+00
 50
0.00000000E+00
 51
1.80000000E+02
  0
CIRCLE
  8
0
 62
7
 10
-1.99700267E+02
 20
-1.95868331E+02
 40
6.57850027E+00
  0
CIRCLE
  8
0
 62
7
 10
-1.99700267E+02
 20
-1.95868331E+02
 40
5.72250080E+00
  0
ARC
  8
0
 62
7
 10
-2.25487834E+02
 20
-2.86843216E+02
 40
2.52511263E+00
 50
2.26521028E+02
 51
2.86521911E+02
  0
ARC
  8
0
 62
7
 10
-2.30700389E+02
 20
-1.41429550E+02
 40
9.06113625E+00
 50
6.74491016E+01
 51
1.12551013E+02
  0
ARC
  8
0
 62
7
 10
-2.35912852E+02
 20
-1.34893478E+02
 40
2.52511263E+00
 50
4.65210741E+01
 51
1.06521937E+02
  0
ARC
  8
0
 62
7
 10
-2.25487834E+02
 20
-1.34893478E+02
 40
2.52511263E+00
 50
7.34781915E+01
 51
1.33479081E+02
  0
ARC
  8
0
 62
7
 10
-2.35912852E+02
 20
-2.86843216E+02
 40
2.52511263E+00
 50
2.53478180E+02
 51
3.13479049E+02
  0
CIRCLE
  8
0
 62
7
 10
-3.02700297E+02
 20
-2.10868331E+02
 40
1.25000010E+01
  0
CIRCLE
  8
0
 62
2
 10
-3.02700297E+02
 20
-2.10868331E+02
 40
1.55000010E+01
  0
CIRCLE
  8
0
 62
7
 10
-1.16700297E+02
 20
-2.28868362E+02
 40
2.59999990E+00
  0
CIRCLE
  8
0
 62
7
 10
-1.16700297E+02
 20
-2.28868362E+02
 40
5.00000000E+00
  0
ARC
  8
0
 62
7
 10
-4.43200267E+02
 20
-4.27340057E+02
 40
5.00000000E-01
 50
9.20007356E+01
 51
1.79999964E+02
  0
ARC
  8
0
 62
7
 10
-4.29200236E+02
 20
-4.26368331E+02
 40
5.00000000E-01
 50
8.99999818E+01
 51
1.79999964E+02
  0
ARC
  8
0
 62
7
 10
-1.45200297E+02
 20
-3.95988052E+02
 40
5.00000000E-01
 50
9.10002493E+01
 51
1.79999964E+02
  0
ARC
  8
0
 62
7
 10
-4.48200267E+02
 20
-4.28368316E+02
 40
5.00000000E-01
 50
8.99999818E+01
 51
1.79999964E+02
  0
ARC
  8
0
 62
7
 10
-1.45200282E+02
 20
-1.55988021E+02
 40
5.00000000E-01
 50
9.10002493E+01
 51
1.79999951E+02
  0
ARC
  8
0
 62
7
 10
-4.48200236E+02
 20
-1.88368270E+02
 40
5.00000000E-01
 50
8.99999818E+01
 51
1.79999951E+02
  0
ARC
  8
0
 62
7
 10
-4.43200236E+02
 20
-1.87340011E+02
 40
5.00000000E-01
 50
9.20007356E+01
 51
1.79999951E+02
  0
ARC
  8
0
 62
7
 10
-4.29200206E+02
 20
-1.86368270E+02
 40
5.00000000E-01
 50
8.99999818E+01
 51
1.79999951E+02
  0
ARC
  8
0
 62
7
 10
-4.43200236E+02
 20
-2.34396499E+02
 40
5.00000000E-01
 50
1.79999977E+02
 51
2.67999192E+02
  0
ARC
  8
0
 62
7
 10
-4.29200206E+02
 20
-2.35368270E+02
 40
5.00000000E-01
 50
1.79999977E+02
 51
2.69999974E+02
  0
ARC
  8
0
 62
7
 10
-4.48200236E+02
 20
-2.33368270E+02
 40
5.00000000E-01
 50
1.79999977E+02
 51
2.69999974E+02
  0
ARC
  8
0
 62
7
 10
-1.45200282E+02
 20
-2.65748581E+02
 40
5.00000000E-01
 50
1.79999977E+02
 51
2.68999679E+02
  0
CIRCLE
  8
0
 62
7
 10
-1.25700282E+02
 20
-1.98868270E+02
 40
9.25000000E+00
  0
ARC
  8
0
 62
7
 10
-1.39700267E+02
 20
-1.77868270E+02
 40
2.00000000E+00
 50
8.99999818E+01
 51
1.79999951E+02
  0
ARC
  8
0
 62
7
 10
-1.39700267E+02
 20
-2.43868240E+02
 40
2.00000000E+00
 50
1.79999977E+02
 51
2.70000028E+02
  0
CIRCLE
  8
0
 62
7
 10
-1.25700282E+02
 20
-1.98868331E+02
 40
1.10000000E+01
  0
CIRCLE
  8
0
 62
2
 10
-1.25700313E+02
 20
-1.98868331E+02
 40
1.04775000E+01
  0
ARC
  8
0
 62
7
 10
-4.65700267E+02
 20
-4.50868316E+02
 40
1.50000248E+01
 50
3.59999942E+02
 51
2.99266002E+01
  0
INSERT
  8
0
  2
PP3
  6
BYBLOCK
 62
0
 10
0.00000000E+00
 20
0.00000000E+00
 41
1.00000000E+00
 42
1.00000000E+00
 50
0.00000000E+00
  0
INSERT
  8
0
  2
PP4
  6
BYBLOCK
 62
0
 10
0.00000000E+00
 20
0.00000000E+00
 41
1.00000000E+00
 42
1.00000000E+00
 50
0.00000000E+00
  0
ARC
  8
0
 62
4
 10
-5.03198298E+02
 20
-2.19868408E+02
 40
2.59980309E+01
 50
3.39746143E+02
 51
2.02538569E+01
  0
ARC
  8
0
 62
4
 10
-5.03198298E+02
 20
-2.01868400E+02
 40
2.59980309E+01
 50
3.39746143E+02
 51
2.02538569E+01
  0
ARC
  8
0
 62
4
 10
-4.65202236E+02
 20
-2.01868400E+02
 40
2.59980309E+01
 50
1.59746143E+02
 51
2.00253857E+02
  0
ARC
  8
0
 62
4
 10
-4.65202236E+02
 20
-2.19868408E+02
 40
2.59980309E+01
 50
1.59746143E+02
 51
2.00253857E+02
  0
LINE
  8
0
 62
4
 10
-4.89592758E+02
 20
-2.10868404E+02
 11
-4.78807776E+02
 21
-2.10868404E+02
  0
LINE
  8
0
 62
4
 10
-4.77200267E+02
 20
-1.92868396E+02
 11
-4.77200267E+02
 21
-2.28868267E+02
  0
LINE
  8
0
 62
4
 10
-4.91200267E+02
 20
-1.92868396E+02
 11
-4.91200267E+02
 21
-2.28868267E+02
  0
LINE
  8
0
 62
4
 10
-4.91200267E+02
 20
-1.92868396E+02
 11
-4.77200267E+02
 21
-1.92868396E+02
  0
LINE
  8
0
 62
4
 10
-4.91200267E+02
 20
-2.28868267E+02
 11
-4.77200267E+02
 21
-2.28868267E+02
  0
ARC
  8
0
 62
4
 10
-4.81999312E+02
 20
-4.35279876E+02
 40
9.20095253E+00
 50
1.45615726E+02
 51
2.14384256E+02
  0
ARC
  8
0
 62
4
 10
-4.56808002E+02
 20
-4.50868331E+02
 40
3.43922653E+01
 50
1.62412050E+02
 51
1.80000000E+02
  0
ARC
  8
0
 62
4
 10
-4.86401221E+02
 20
-4.35279876E+02
 40
9.20095253E+00
 50
3.25615707E+02
 51
3.43842378E+01
  0
ARC
  8
0
 62
4
 10
-5.11592532E+02
 20
-4.50868331E+02
 40
3.43922653E+01
 50
0.00000000E+00
 51
1.75879147E+01
  0
LINE
  8
0
 62
4
 10
-4.77200267E+02
 20
-4.32868331E+02
 11
-4.77200267E+02
 21
-4.50868331E+02
  0
LINE
  8
0
 62
4
 10
-4.77200266E+02
 20
-4.32868319E+02
 11
-4.78807947E+02
 21
-4.30083698E+02
  0
LINE
  8
0
 62
4
 10
-4.91200276E+02
 20
-4.32868333E+02
 11
-4.89592597E+02
 21
-4.30083723E+02
  0
LINE
  8
0
 62
4
 10
-4.89592570E+02
 20
-4.30083725E+02
 11
-4.78807963E+02
 21
-4.30083725E+02
  0
LINE
  8
0
 62
4
 10
-4.89592570E+02
 20
-4.40476028E+02
 11
-4.78807963E+02
 21
-4.40476028E+02
  0
LINE
  8
0
 62
4
 10
-4.91200267E+02
 20
-4.32868331E+02
 11
-4.91200267E+02
 21
-4.50868331E+02
  0
LINE
  8
0
 62
7
 10
-4.77200267E+02
 20
-1.97868362E+02
 11
-4.65700267E+02
 21
-1.97868362E+02
  0
LINE
  8
0
 62
2
 10
-4.77200267E+02
 20
-1.98688369E+02
 11
-4.65700267E+02
 21
-1.98688369E+02
  0
LINE
  8
0
 62
7
 10
-4.77200267E+02
 20
-2.23868331E+02
 11
-4.65700267E+02
 21
-2.23868331E+02
  0
LINE
  8
0
 62
2
 10
-4.77200267E+02
 20
-2.23048324E+02
 11
-4.65700267E+02
 21
-2.23048324E+02
  0
LINE
  8
0
 62
7
 10
-4.77200267E+02
 20
-4.37868331E+02
 11
-4.65700267E+02
 21
-4.37868331E+02
  0
LINE
  8
0
 62
2
 10
-4.77200267E+02
 20
-4.38688339E+02
 11
-4.65700267E+02
 21
-4.38688339E+02
  0
LINE
  8
0
 62
7
 10
-1.09700328E+02
 20
-1.57368331E+02
 11
-3.48292498E+01
 21
-1.57368331E+02
  0
LINE
  8
0
 62
7
 10
-1.07537026E+02
 20
-1.64368301E+02
 11
-1.09700328E+02
 21
-1.64368301E+02
  0
LINE
  8
0
 62
7
 10
-8.73681243E+01
 20
-2.48368331E+02
 11
-1.09700328E+02
 21
-2.48368331E+02
  0
LINE
  8
0
 62
7
 10
-9.25642943E+01
 20
-2.57368362E+02
 11
-1.09700328E+02
 21
-2.57368362E+02
  0
LINE
  8
0
 62
7
 10
-3.88707298E+01
 20
-4.04368301E+02
 11
-1.09700328E+02
 21
-4.04368301E+02
  0
LINE
  8
0
 62
7
 10
-4.40668911E+01
 20
-4.13368316E+02
 11
-1.09700328E+02
 21
-4.13368316E+02
  0
LINE
  8
0
 62
7
 10
9.72998400E+01
 20
-3.69868331E+02
 11
1.22299779E+02
 21
-3.69868331E+02
  0
LINE
  8
0
 62
7
 10
9.82997789E+01
 20
-3.68868347E+02
 11
1.21299840E+02
 21
-3.68868347E+02
  0
LINE
  8
0
 62
7
 10
9.72998400E+01
 20
-3.81868331E+02
 11
9.72998400E+01
 21
-3.69868331E+02
  0
LINE
  8
0
 62
7
 10
1.22299779E+02
 20
-3.81868331E+02
 11
1.22299779E+02
 21
-3.69868331E+02
  0
LINE
  8
0
 62
7
 10
9.73001806E+01
 20
-3.69868664E+02
 11
9.83001385E+01
 21
-3.68868706E+02
  0
LINE
  8
0
 62
7
 10
1.21300000E+02
 20
-3.68868349E+02
 11
1.22299937E+02
 21
-3.69868286E+02
  0
LINE
  8
0
 62
7
 10
1.81799550E+02
 20
-4.50868331E+02
 11
1.81799550E+02
 21
-4.42868316E+02
  0
LINE
  8
0
 62
7
 10
1.78799611E+02
 20
-4.42868362E+02
 11
1.81799642E+02
 21
-4.42868362E+02
  0
LINE
  8
0
 62
7
 10
1.81799642E+02
 20
-4.44868423E+02
 11
1.88299733E+02
 21
-4.44868423E+02
  0
LINE
  8
0
 62
7
 10
1.81799642E+02
 20
-4.50868377E+02
 11
1.87606832E+02
 21
-4.50868377E+02
  0
LINE
  8
0
 62
7
 10
1.88299672E+02
 20
-4.50868331E+02
 11
1.88299672E+02
 21
-4.44868331E+02
  0
LINE
  8
0
  6
CENTER
 62
2
 10
1.94310994E+02
 20
-4.50868331E+02
 11
2.54483843E+01
 21
-4.50868331E+02
  0
LINE
  8
0
 62
7
 10
1.89299703E+02
 20
-4.50868331E+02
 11
1.89299703E+02
 21
-4.47568405E+02
  0
LINE
  8
0
 62
7
 10
1.88299733E+02
 20
-4.46868393E+02
 11
1.88599721E+02
 21
-4.46868393E+02
  0
LINE
  8
0
 62
2
 10
1.88299733E+02
 20
-4.47568405E+02
 11
1.89299642E+02
 21
-4.47568405E+02
  0
LINE
  8
0
 62
7
 10
1.88599751E+02
 20
-4.50868331E+02
 11
1.88599751E+02
 21
-4.46868393E+02
  0
LINE
  8
0
 62
7
 10
1.89299168E+02
 20
-4.47568954E+02
 11
1.88599129E+02
 21
-4.46868914E+02
  0
LINE
  8
0
  6
CENTER
 62
2
 10
1.09799672E+02
 20
-3.61134292E+02
 11
1.09799672E+02
 21
-4.50868331E+02
  0
LINE
  8
0
 62
7
 10
1.78799672E+02
 20
-3.91538726E+02
 11
1.78799672E+02
 21
-4.50868331E+02
  0
LINE
  8
0
 62
7
 10
3.77996111E+01
 20
-4.50868331E+02
 11
3.77996111E+01
 21
-4.42868316E+02
  0
LINE
  8
0
 62
7
 10
4.07996569E+01
 20
-4.42868362E+02
 11
3.77997026E+01
 21
-4.42868362E+02
  0
LINE
  8
0
 62
7
 10
3.02996111E+01
 20
-4.50868331E+02
 11
3.02996111E+01
 21
-4.47568405E+02
  0
LINE
  8
0
 62
7
 10
3.12996416E+01
 20
-4.50868331E+02
 11
3.12996416E+01
 21
-4.44868331E+02
  0
LINE
  8
0
 62
7
 10
3.12996111E+01
 20
-4.46868393E+02
 11
3.09997759E+01
 21
-4.46868393E+02
  0
LINE
  8
0
 62
2
 10
3.12996111E+01
 20
-4.47568405E+02
 11
3.02997026E+01
 21
-4.47568405E+02
  0
LINE
  8
0
 62
7
 10
3.09996843E+01
 20
-4.50868331E+02
 11
3.09996843E+01
 21
-4.46868393E+02
  0
LINE
  8
0
 62
7
 10
3.02997371E+01
 20
-4.47568335E+02
 11
3.09996687E+01
 21
-4.46868403E+02
  0
LINE
  8
0
 62
7
 10
3.77997026E+01
 20
-4.50868377E+02
 11
3.19924211E+01
 21
-4.50868377E+02
  0
LINE
  8
0
 62
7
 10
3.77997026E+01
 20
-4.44868423E+02
 11
3.12996874E+01
 21
-4.44868423E+02
  0
LINE
  8
0
 62
7
 10
4.07996263E+01
 20
-3.91538726E+02
 11
4.07996263E+01
 21
-4.50868331E+02
  0
LINE
  8
0
 62
7
 10
1.69129201E+02
 20
-3.81868377E+02
 11
1.48942756E+02
 21
-3.81868377E+02
  0
LINE
  8
0
 62
7
 10
6.27997637E+01
 20
-4.05981643E+02
 11
6.27997637E+01
 21
-4.11755142E+02
  0
LINE
  8
0
 62
7
 10
1.08549779E+02
 20
-3.99468383E+02
 11
1.08549779E+02
 21
-4.24965820E+02
  0
LINE
  8
0
 62
7
 10
9.23678540E+01
 20
-4.31668515E+02
 11
7.73781842E+01
 21
-4.16678852E+02
  0
LINE
  8
0
 62
7
 10
9.06000793E+01
 20
-4.33436253E+02
 11
7.56104095E+01
 21
-4.18446589E+02
  0
LINE
  8
0
 62
7
 10
7.47997789E+01
 20
-3.94868393E+02
 11
7.47997789E+01
 21
-3.95468368E+02
  0
LINE
  8
0
 62
7
 10
1.60799733E+02
 20
-3.95468368E+02
 11
5.87997637E+01
 21
-3.95468368E+02
  0
LINE
  8
0
 62
7
 10
1.65199758E+02
 20
-3.99868377E+02
 11
1.65199758E+02
 21
-4.50868331E+02
  0
LINE
  8
0
 62
7
 10
1.28999548E+02
 20
-4.33436378E+02
 11
1.43989208E+02
 21
-4.18446720E+02
  0
LINE
  8
0
 62
7
 10
1.27231776E+02
 20
-4.31668649E+02
 11
1.42221435E+02
 21
-4.16678991E+02
  0
LINE
  8
0
 62
7
 10
1.34815892E+02
 20
-3.98468383E+02
 11
8.47837572E+01
 21
-3.98468383E+02
  0
LINE
  8
0
 62
7
 10
1.62199788E+02
 20
-4.25852432E+02
 11
1.62199788E+02
 21
-4.50868331E+02
  0
LINE
  8
0
 62
7
 10
1.61199758E+02
 20
-4.49618393E+02
 11
1.35702291E+02
 21
-4.49618393E+02
  0
LINE
  8
0
 62
7
 10
1.11049779E+02
 20
-3.99468383E+02
 11
1.11049779E+02
 21
-4.24965881E+02
  0
LINE
  8
0
 62
7
 10
1.60799733E+02
 20
-3.94868393E+02
 11
5.87997637E+01
 21
-3.94868393E+02
  0
LINE
  8
0
 62
7
 10
1.65799733E+02
 20
-3.99868393E+02
 11
1.65799733E+02
 21
-4.50868331E+02
  0
LINE
  8
0
  6
CENTER
 62
2
 10
1.67763631E+02
 20
-4.08868393E+02
 11
1.35908742E+02
 21
-4.08868393E+02
  0
LINE
  8
0
  6
CENTER
 62
2
 10
1.51799733E+02
 20
-3.92387619E+02
 11
1.51799733E+02
 21
-4.23294586E+02
  0
LINE
  8
0
 62
7
 10
1.44799764E+02
 20
-3.94868393E+02
 11
1.44799764E+02
 21
-3.95468368E+02
  0
LINE
  8
0
  6
CENTER
 62
2
 10
8.26059618E+01
 20
-4.08868393E+02
 11
5.15165453E+01
 21
-4.08868393E+02
  0
LINE
  8
0
  6
CENTER
 62
2
 10
6.77997637E+01
 20
-3.91975662E+02
 11
6.77997637E+01
 21
-4.23726196E+02
  0
LINE
  8
0
 62
7
 10
5.37997637E+01
 20
-3.99868393E+02
 11
5.37997637E+01
 21
-4.50868331E+02
  0
LINE
  8
0
 62
7
 10
5.83997393E+01
 20
-4.49618393E+02
 11
8.38972216E+01
 21
-4.49618393E+02
  0
LINE
  8
0
 62
7
 10
5.73997240E+01
 20
-4.25852233E+02
 11
5.73997240E+01
 21
-4.50868331E+02
  0
LINE
  8
0
 62
7
 10
5.43997393E+01
 20
-3.99868393E+02
 11
5.43997393E+01
 21
-4.50868331E+02
  0
LINE
  8
0
 62
2
 10
6.07163744E+01
 20
-4.50903617E+02
 11
6.07163744E+01
 21
-4.50868331E+02
  0
LINE
  8
0
 62
7
 10
6.77997616E+01
 20
-4.03094879E+02
 11
7.27997579E+01
 21
-4.05981628E+02
  0
LINE
  8
0
  6
CENTER
 62
2
 10
1.21799733E+02
 20
-4.07568389E+02
 11
1.21799733E+02
 21
-3.92604782E+02
  0
LINE
  8
0
 62
7
 10
1.51799744E+02
 20
-4.03094888E+02
 11
1.56799741E+02
 21
-4.05981637E+02
  0
LINE
  8
0
 62
7
 10
1.51799733E+02
 20
-4.03094889E+02
 11
1.46799737E+02
 21
-4.05981638E+02
  0
LINE
  8
0
 62
7
 10
1.46799733E+02
 20
-4.05981643E+02
 11
1.46799733E+02
 21
-4.11755142E+02
  0
LINE
  8
0
 62
7
 10
6.77997452E+01
 20
-4.03094889E+02
 11
6.27997489E+01
 21
-4.05981639E+02
  0
LINE
  8
0
 62
7
 10
6.77997579E+01
 20
-4.14641882E+02
 11
6.27997616E+01
 21
-4.11755133E+02
  0
LINE
  8
0
 62
7
 10
1.56799733E+02
 20
-4.05981643E+02
 11
1.56799733E+02
 21
-4.11755142E+02
  0
LINE
  8
0
 62
7
 10
7.27997452E+01
 20
-4.11755143E+02
 11
6.77997489E+01
 21
-4.14641893E+02
  0
LINE
  8
0
 62
7
 10
1.56799732E+02
 20
-4.11755141E+02
 11
1.51799736E+02
 21
-4.14641891E+02
  0
LINE
  8
0
 62
7
 10
1.51799741E+02
 20
-4.14641891E+02
 11
1.46799744E+02
 21
-4.11755142E+02
  0
LINE
  8
0
 62
7
 10
7.27997484E+01
 20
-4.05981643E+02
 11
7.27997484E+01
 21
-4.11755142E+02
  0
ARC
  8
0
 62
7
 10
1.81458821E+02
 20
-4.47868377E+02
 40
6.84084749E+00
 50
3.33989137E+02
 51
2.60107947E+01
  0
ARC
  8
0
 62
7
 10
3.81404772E+01
 20
-4.47868377E+02
 40
6.84084749E+00
 50
1.53989169E+02
 51
2.06010827E+02
  0
ARC
  8
0
 62
7
 10
1.09799672E+02
 20
-4.50868331E+02
 40
9.10000076E+01
 50
1.30690533E+02
 51
1.39309413E+02
  0
ARC
  8
0
 62
7
 10
1.09799672E+02
 20
-4.50868331E+02
 40
9.10000076E+01
 50
4.06905105E+01
 51
4.93093896E+01
  0
ARC
  8
0
 62
7
 10
1.09799672E+02
 20
-4.50868331E+02
 40
2.50000153E+01
 50
0.00000000E+00
 51
1.80000000E+02
  0
ARC
  8
0
 62
7
 10
1.39957845E+02
 20
-4.04866012E+02
 40
1.00000000E+00
 50
3.41325670E+02
 51
9.18100369E+01
  0
ARC
  8
0
 62
7
 10
1.55802236E+02
 20
-4.20710250E+02
 40
1.00000000E+00
 50
3.58187399E+02
 51
1.08674648E+02
  0
ARC
  8
0
 62
7
 10
1.34815938E+02
 20
-3.99468368E+02
 40
1.00000000E+00
 50
3.55410354E+02
 51
9.00000162E+01
  0
ARC
  8
0
 62
7
 10
1.61199758E+02
 20
-4.25852432E+02
 40
1.00000000E+00
 50
3.59721781E-05
 51
9.45895342E+01
  0
ARC
  8
0
 62
7
 10
1.39799886E+02
 20
-3.99868530E+02
 40
4.00000000E+00
 50
1.75409585E+02
 51
2.71810493E+02
  0
ARC
  8
0
 62
7
 10
1.60799733E+02
 20
-4.20868454E+02
 40
4.00000000E+00
 50
1.78186904E+02
 51
2.74588685E+02
  0
CIRCLE
  8
0
 62
7
 10
1.51799733E+02
 20
-4.08868408E+02
 40
8.00000000E+00
  0
ARC
  8
0
 62
7
 10
1.60799733E+02
 20
-3.99868393E+02
 40
5.00000000E+00
 50
3.59721781E-05
 51
9.00000162E+01
  0
ARC
  8
0
 62
7
 10
1.60799733E+02
 20
-3.99868377E+02
 40
4.40000010E+00
 50
3.59721781E-05
 51
9.00000162E+01
  0
ARC
  8
0
 62
7
 10
1.51799733E+02
 20
-4.08868393E+02
 40
1.15000000E+01
 50
1.61325558E+02
 51
2.88675076E+02
  0
ARC
  8
0
 62
7
 10
1.12049733E+02
 20
-4.24965881E+02
 40
1.00000000E+00
 50
1.80000036E+02
 51
2.65035857E+02
  0
ARC
  8
0
 62
7
 10
1.26524617E+02
 20
-4.30961517E+02
 40
1.00000000E+00
 50
2.29964741E+02
 51
3.15000026E+02
  0
ARC
  8
0
 62
7
 10
1.29706685E+02
 20
-4.34143524E+02
 40
1.00000000E+00
 50
1.35000014E+02
 51
2.20035582E+02
  0
ARC
  8
0
 62
7
 10
1.35702291E+02
 20
-4.48618400E+02
 40
1.00000000E+00
 50
1.84964190E+02
 51
2.70000038E+02
  0
ARC
  8
0
 62
7
 10
1.12049733E+02
 20
-3.99468383E+02
 40
1.00000000E+00
 50
9.00000025E+01
 51
1.80000046E+02
  0
ARC
  8
0
 62
7
 10
1.61199758E+02
 20
-4.48618423E+02
 40
1.00000000E+00
 50
2.70000052E+02
 51
3.59721781E-05
  0
ARC
  8
0
 62
7
 10
1.44696309E+02
 20
-4.19153884E+02
 40
1.00000000E+00
 50
5.53696217E+01
 51
1.35000014E+02
  0
ARC
  8
0
 62
7
 10
1.41514241E+02
 20
-4.15971893E+02
 40
1.00000000E+00
 50
3.15000047E+02
 51
3.46303671E+01
  0
CIRCLE
  8
0
 62
7
 10
1.51799733E+02
 20
-4.08868408E+02
 40
8.69999981E+00
  0
CIRCLE
  8
0
 62
7
 10
1.51799733E+02
 20
-4.08868408E+02
 40
8.00000000E+00
  0
ARC
  8
0
 62
7
 10
5.87998705E+01
 20
-4.20868286E+02
 40
4.00000000E+00
 50
2.65409591E+02
 51
1.81044602E+00
  0
ARC
  8
0
 62
7
 10
7.97998247E+01
 20
-3.99868393E+02
 40
4.00000000E+00
 50
2.68187375E+02
 51
4.58865257E+00
  0
ARC
  8
0
 62
7
 10
6.77997637E+01
 20
-4.08868393E+02
 40
1.15000000E+01
 50
2.51325577E+02
 51
1.86749751E+01
  0
ARC
  8
0
 62
7
 10
6.37973833E+01
 20
-4.20710296E+02
 40
1.00000000E+00
 50
7.13256097E+01
 51
1.81810060E+02
  0
ARC
  8
0
 62
7
 10
7.96415911E+01
 20
-4.04865875E+02
 40
1.00000000E+00
 50
8.81864507E+01
 51
1.98675204E+02
  0
ARC
  8
0
 62
7
 10
8.47837572E+01
 20
-3.99468383E+02
 40
1.00000000E+00
 50
9.00000162E+01
 51
1.84587802E+02
  0
ARC
  8
0
 62
7
 10
5.83997393E+01
 20
-4.25852233E+02
 40
1.00000000E+00
 50
8.54104432E+01
 51
1.80000005E+02
  0
CIRCLE
  8
0
 62
2
 10
1.51799733E+02
 20
-4.08868393E+02
 40
5.00000000E+00
  0
CIRCLE
  8
0
 62
7
 10
6.77997637E+01
 20
-4.08868393E+02
 40
8.00000000E+00
  0
ARC
  8
0
 62
7
 10
5.87997637E+01
 20
-3.99868393E+02
 40
5.00000000E+00
 50
9.00000162E+01
 51
1.80000005E+02
  0
ARC
  8
0
 62
7
 10
5.87997637E+01
 20
-3.99868393E+02
 40
4.40000010E+00
 50
9.00000162E+01
 51
1.80000005E+02
  0
ARC
  8
0
 62
7
 10
5.83997393E+01
 20
-4.48618400E+02
 40
1.00000000E+00
 50
1.79999991E+02
 51
2.70000028E+02
  0
ARC
  8
0
 62
7
 10
8.38972216E+01
 20
-4.48618400E+02
 40
1.00000000E+00
 50
2.70000045E+02
 51
3.55035851E+02
  0
ARC
  8
0
 62
7
 10
1.07549718E+02
 20
-4.24965820E+02
 40
1.00000000E+00
 50
2.74964207E+02
 51
3.59721781E-05
  0
ARC
  8
0
 62
7
 10
1.07549718E+02
 20
-3.99468383E+02
 40
1.00000000E+00
 50
3.59721781E-05
 51
9.00000162E+01
  0
ARC
  8
0
 62
7
 10
9.30749254E+01
 20
-4.30961486E+02
 40
1.00000000E+00
 50
2.25000013E+02
 51
3.10035571E+02
  0
ARC
  8
0
 62
7
 10
8.98929033E+01
 20
-4.34143493E+02
 40
1.00000000E+00
 50
3.19964774E+02
 51
4.50000423E+01
  0
ARC
  8
0
 62
7
 10
7.80851946E+01
 20
-4.15971832E+02
 40
1.00000000E+00
 50
1.45369621E+02
 51
2.25000010E+02
  0
ARC
  8
0
 62
7
 10
7.49032335E+01
 20
-4.19153854E+02
 40
1.00000000E+00
 50
4.50000423E+01
 51
1.24630380E+02
  0
CIRCLE
  8
0
 62
2
 10
6.77997637E+01
 20
-4.08868393E+02
 40
5.00000000E+00
  0
CIRCLE
  8
0
 62
7
 10
6.77997637E+01
 20
-4.08868393E+02
 40
4.17999983E+00
  0
CIRCLE
  8
0
 62
7
 10
1.51799733E+02
 20
-4.08868393E+02
 40
4.17999983E+00
  0
CIRCLE
  8
0
 62
7
 10
6.77997637E+01
 20
-4.08868393E+02
 40
8.69999981E+00
  0
CIRCLE
  8
0
 62
7
 10
6.77997637E+01
 20
-4.08868393E+02
 40
8.00000000E+00
  0
LINE
  8
0
  6
CENTER
 62
2
 10
-6.64200358E+02
 20
-3.62944793E+02
 11
-6.64200358E+02
 21
-4.50868331E+02
  0
LINE
  8
0
 62
7
 10
-5.92200358E+02
 20
-4.44868377E+02
 11
-5.85700297E+02
 21
-4.44868377E+02
  0
LINE
  8
0
 62
7
 10
-7.36200358E+02
 20
-4.50868377E+02
 11
-7.42007548E+02
 21
-4.50868377E+02
  0
LINE
  8
0
 62
7
 10
-7.33200358E+02
 20
-4.42868362E+02
 11
-7.36200358E+02
 21
-4.42868362E+02
  0
LINE
  8
0
  6
CENTER
 62
2
 10
-7.48711589E+02
 20
-4.50868331E+02
 11
-5.79848979E+02
 21
-4.50868331E+02
  0
LINE
  8
0
 62
7
 10
-7.36200358E+02
 20
-4.44868377E+02
 11
-7.42700419E+02
 21
-4.44868377E+02
  0
LINE
  8
0
 62
7
 10
-5.92200358E+02
 20
-4.50868377E+02
 11
-5.86392985E+02
 21
-4.50868377E+02
  0
LINE
  8
0
 62
7
 10
-5.92200175E+02
 20
-4.50868331E+02
 11
-5.92200175E+02
 21
-4.42868316E+02
  0
LINE
  8
0
 62
7
 10
-5.85700297E+02
 20
-4.50868331E+02
 11
-5.85700297E+02
 21
-4.44868331E+02
  0
LINE
  8
0
 62
7
 10
-5.95200358E+02
 20
-4.42868362E+02
 11
-5.92200358E+02
 21
-4.42868362E+02
  0
LINE
  8
0
 62
7
 10
-7.42700419E+02
 20
-4.50868331E+02
 11
-7.42700419E+02
 21
-4.44868331E+02
  0
LINE
  8
0
 62
7
 10
-7.43700358E+02
 20
-4.50868331E+02
 11
-7.43700358E+02
 21
-4.47568359E+02
  0
LINE
  8
0
 62
7
 10
-5.84700175E+02
 20
-4.50868331E+02
 11
-5.84700175E+02
 21
-4.47568359E+02
  0
LINE
  8
0
 62
7
 10
-7.42700419E+02
 20
-4.46868393E+02
 11
-7.43000346E+02
 21
-4.46868393E+02
  0
LINE
  8
0
 62
7
 10
-5.85700297E+02
 20
-4.46868393E+02
 11
-5.85400371E+02
 21
-4.46868393E+02
  0
LINE
  8
0
 62
2
 10
-5.85700297E+02
 20
-4.47568359E+02
 11
-5.84700358E+02
 21
-4.47568359E+02
  0
LINE
  8
0
 62
7
 10
-5.85400371E+02
 20
-4.50868331E+02
 11
-5.85400371E+02
 21
-4.46868347E+02
  0
LINE
  8
0
 62
7
 10
-7.36200175E+02
 20
-4.50868331E+02
 11
-7.36200175E+02
 21
-4.42868316E+02
  0
LINE
  8
0
 62
7
 10
-5.84700245E+02
 20
-4.47568238E+02
 11
-5.85400187E+02
 21
-4.46868296E+02
  0
LINE
  8
0
 62
7
 10
-7.43000346E+02
 20
-4.50868331E+02
 11
-7.43000346E+02
 21
-4.46868347E+02
  0
LINE
  8
0
 62
2
 10
-7.42700419E+02
 20
-4.47568359E+02
 11
-7.43700358E+02
 21
-4.47568359E+02
  0
LINE
  8
0
 62
7
 10
-7.43699549E+02
 20
-4.47569069E+02
 11
-7.42999499E+02
 21
-4.46869019E+02
  0
LINE
  8
0
 62
7
 10
-7.33200358E+02
 20
-3.91538726E+02
 11
-7.33200358E+02
 21
-4.50868331E+02
  0
LINE
  8
0
 62
7
 10
-5.95200358E+02
 20
-3.91538726E+02
 11
-5.95200358E+02
 21
-4.50868331E+02
  0
LINE
  8
0
 62
7
 10
-7.23529826E+02
 20
-3.81868377E+02
 11
-6.04870708E+02
 21
-3.81868377E+02
  0
LINE
  8
0
 62
7
 10
-6.76700236E+02
 20
-3.69868331E+02
 11
-6.51700297E+02
 21
-3.69868331E+02
  0
LINE
  8
0
 62
7
 10
-6.18200236E+02
 20
-4.02332428E+02
 11
-6.18200236E+02
 21
-3.95404220E+02
  0
LINE
  8
0
 62
7
 10
-6.18201170E+02
 20
-3.95402763E+02
 11
-6.12201290E+02
 21
-3.91938721E+02
  0
LINE
  8
0
 62
7
 10
-6.12200431E+02
 20
-3.91940185E+02
 11
-6.06200419E+02
 21
-3.95404303E+02
  0
LINE
  8
0
 62
7
 10
-6.06200236E+02
 20
-3.95404220E+02
 11
-6.06200236E+02
 21
-4.02332428E+02
  0
LINE
  8
0
 62
7
 10
-6.12201138E+02
 20
-4.05795155E+02
 11
-6.06201099E+02
 21
-4.02331021E+02
  0
LINE
  8
0
 62
7
 10
-6.18200610E+02
 20
-4.02332404E+02
 11
-6.12200598E+02
 21
-4.05796523E+02
  0
LINE
  8
0
  6
CENTER
 62
2
 10
-6.12200236E+02
 20
-4.20634918E+02
 11
-6.12200236E+02
 21
-3.77244735E+02
  0
LINE
  8
0
  6
CENTER
 62
2
 10
-6.33406230E+02
 20
-3.98868347E+02
 11
-5.89341350E+02
 21
-3.98868347E+02
  0
LINE
  8
0
 62
7
 10
-7.10200297E+02
 20
-4.02332428E+02
 11
-7.10200297E+02
 21
-3.95404220E+02
  0
LINE
  8
0
 62
7
 10
-7.16201310E+02
 20
-3.91938649E+02
 11
-7.22201349E+02
 21
-3.95402783E+02
  0
LINE
  8
0
 62
7
 10
-7.10200560E+02
 20
-3.95404279E+02
 11
-7.16200519E+02
 21
-3.91940191E+02
  0
LINE
  8
0
 62
7
 10
-7.22200297E+02
 20
-3.95404220E+02
 11
-7.22200297E+02
 21
-4.02332428E+02
  0
LINE
  8
0
 62
7
 10
-7.16200565E+02
 20
-4.05796686E+02
 11
-7.22200419E+02
 21
-4.02332659E+02
  0
LINE
  8
0
  6
CENTER
 62
2
 10
-6.94994304E+02
 20
-3.98868347E+02
 11
-7.39059001E+02
 21
-3.98868347E+02
  0
LINE
  8
0
  6
CENTER
 62
2
 10
-7.16200297E+02
 20
-4.20634918E+02
 11
-7.16200297E+02
 21
-3.77244735E+02
  0
LINE
  8
0
 62
7
 10
-7.10201165E+02
 20
-4.02330870E+02
 11
-7.16201204E+02
 21
-4.05795004E+02
  0
LINE
  8
0
 62
7
 10
-6.52700025E+02
 20
-3.68868341E+02
 11
-6.51700089E+02
 21
-3.69868278E+02
  0
LINE
  8
0
 62
7
 10
-6.76699921E+02
 20
-3.69868623E+02
 11
-6.75699941E+02
 21
-3.68868643E+02
  0
LINE
  8
0
 62
7
 10
-6.51700297E+02
 20
-3.81868331E+02
 11
-6.51700297E+02
 21
-3.69868331E+02
  0
LINE
  8
0
 62
7
 10
-6.76700236E+02
 20
-3.81868331E+02
 11
-6.76700236E+02
 21
-3.69868331E+02
  0
LINE
  8
0
 62
7
 10
-6.75700297E+02
 20
-3.68868347E+02
 11
-6.52700236E+02
 21
-3.68868347E+02
  0
ARC
  8
0
 62
7
 10
-5.92541118E+02
 20
-4.47868377E+02
 40
6.84084749E+00
 50
3.33989137E+02
 51
2.60107913E+01
  0
ARC
  8
0
 62
7
 10
-7.35859416E+02
 20
-4.47868377E+02
 40
6.84084749E+00
 50
1.53989169E+02
 51
2.06010827E+02
  0
ARC
  8
0
 62
7
 10
-6.64200358E+02
 20
-4.50868331E+02
 40
9.10000076E+01
 50
1.30690588E+02
 51
1.39309467E+02
  0
ARC
  8
0
 62
7
 10
-6.64200358E+02
 20
-4.50868331E+02
 40
9.10000076E+01
 50
4.06905549E+01
 51
4.93094306E+01
  0
CIRCLE
  8
0
 62
2
 10
-6.12200236E+02
 20
-3.98868347E+02
 40
6.00000048E+00
  0
CIRCLE
  8
0
 62
7
 10
-6.12200236E+02
 20
-3.98868347E+02
 40
1.00000000E+01
  0
CIRCLE
  8
0
 62
7
 10
-6.12200236E+02
 20
-3.98868347E+02
 40
1.02500000E+01
  0
CIRCLE
  8
0
 62
7
 10
-7.16200297E+02
 20
-3.98868347E+02
 40
1.02500000E+01
  0
CIRCLE
  8
0
 62
7
 10
-7.16200297E+02
 20
-3.98868347E+02
 40
5.00000000E+00
  0
CIRCLE
  8
0
 62
2
 10
-7.16200297E+02
 20
-3.98868347E+02
 40
6.00000048E+00
  0
CIRCLE
  8
0
 62
7
 10
-7.16200297E+02
 20
-3.98868347E+02
 40
1.00000000E+01
  0
CIRCLE
  8
0
 62
7
 10
-6.12200236E+02
 20
-3.98868347E+02
 40
5.00000000E+00
  0
ARC
  8
0
 62
7
 10
-6.64200358E+02
 20
-4.50868331E+02
 40
1.29999914E+01
 50
0.00000000E+00
 51
1.80000000E+02
  0
ARC
  8
0
 62
2
 10
-6.64200358E+02
 20
-4.50868331E+02
 40
1.21799841E+01
 50
0.00000000E+00
 51
1.80000000E+02
  0
ARC
  8
0
 62
7
 10
-6.64200236E+02
 20
-4.50868270E+02
 40
2.50000153E+01
 50
0.00000000E+00
 51
1.80000140E+02
  0
ARC
  8
0
 62
7
 10
-6.64200236E+02
 20
-4.50868270E+02
 40
2.35000153E+01
 50
0.00000000E+00
 51
1.80000149E+02
  0
ARC
  8
0
 62
7
 10
-6.64200358E+02
 20
-4.50868331E+02
 40
2.40000000E+01
 50
0.00000000E+00
 51
1.80000000E+02
  0
ARC
  8
0
 62
4
 10
-6.64200358E+02
 20
-4.50868331E+02
 40
1.80000000E+01
 50
0.00000000E+00
 51
1.80000000E+02
  0
LINE
  8
0
 62
4
 10
-6.82200366E+02
 20
-4.40476028E+02
 11
-6.82200366E+02
 21
-4.50868331E+02
  0
LINE
  8
0
 62
4
 10
-6.46200358E+02
 20
-4.40476028E+02
 11
-6.46200358E+02
 21
-4.50868331E+02
  0
LINE
  8
0
 62
4
 10
-6.82200423E+02
 20
-4.40476062E+02
 11
-6.64200421E+02
 21
-4.30083758E+02
  0
LINE
  8
0
 62
4
 10
-6.64200501E+02
 20
-4.30083723E+02
 11
-6.46200496E+02
 21
-4.40476029E+02
  0
LINE
  8
0
 62
2
 10
-1.01191433E+02
 20
-2.72311005E+02
 11
-3.06888536E+01
 21
-1.50196955E+02
  0
LINE
  8
0
  6
CENTER
 62
2
 10
-1.17700328E+02
 20
-1.68868301E+02
 11
-1.48224803E+02
 21
-1.68868301E+02
  0
LINE
  8
0
 62
7
 10
-1.09700328E+02
 20
-1.77487942E+02
 11
-1.09700328E+02
 21
-2.66868331E+02
  0
LINE
  8
0
 62
2
 10
-6.90374109E+01
 20
-4.56618525E+02
 11
-3.06888993E+01
 21
-3.90196955E+02
  0
LINE
  8
0
 62
7
 10
1.26875198E+02
 20
-3.81868377E+02
 11
1.25605115E+02
 21
-3.81868377E+02
  0
LINE
  8
0
 62
7
 10
1.23914855E+02
 20
-3.81868377E+02
 11
5.04700518E+01
 21
-3.81868377E+02
  0
LINE
  8
0
  6
CENTER
 62
2
 10
7.95820455E+02
 20
-4.50868331E+02
 11
2.93540383E+02
 21
-4.50868331E+02
  0
LINE
  8
0
 62
7
 10
5.03299672E+02
 20
-3.81868331E+02
 11
4.35299657E+02
 21
-3.81868331E+02
  0
LINE
  8
0
  6
CENTER
 62
2
 10
7.23647878E+02
 20
-3.98868347E+02
 11
4.27675649E+02
 21
-3.98868347E+02
  0
LINE
  8
0
 62
7
 10
5.03299718E+02
 20
-3.91538772E+02
 11
4.35299657E+02
 21
-3.91538772E+02
  0
LINE
  8
0
 62
2
 10
7.66799611E+02
 20
-4.38688339E+02
 11
7.55299611E+02
 21
-4.38688339E+02
  0
LINE
  8
0
 62
7
 10
7.66799611E+02
 20
-4.37868331E+02
 11
7.55299611E+02
 21
-4.37868331E+02
  0
LINE
  8
0
 62
4
 10
7.80799611E+02
 20
-4.32868331E+02
 11
7.80799611E+02
 21
-4.50868331E+02
  0
LINE
  8
0
 62
4
 10
7.79191915E+02
 20
-4.40476028E+02
 11
7.68407308E+02
 21
-4.40476028E+02
  0
LINE
  8
0
 62
4
 10
7.79191915E+02
 20
-4.30083725E+02
 11
7.68407308E+02
 21
-4.30083725E+02
  0
LINE
  8
0
 62
4
 10
7.80799620E+02
 20
-4.32868333E+02
 11
7.79191941E+02
 21
-4.30083723E+02
  0
LINE
  8
0
 62
4
 10
7.66799611E+02
 20
-4.32868319E+02
 11
7.68407291E+02
 21
-4.30083698E+02
  0
LINE
  8
0
 62
4
 10
7.66799611E+02
 20
-4.32868331E+02
 11
7.66799611E+02
 21
-4.50868331E+02
  0
ARC
  8
0
 62
4
 10
8.01191876E+02
 20
-4.50868331E+02
 40
3.43922653E+01
 50
1.62412085E+02
 51
1.80000000E+02
  0
ARC
  8
0
 62
4
 10
7.76000566E+02
 20
-4.35279876E+02
 40
9.20095253E+00
 50
1.45615762E+02
 51
2.14384293E+02
  0
ARC
  8
0
 62
4
 10
7.46407346E+02
 20
-4.50868331E+02
 40
3.43922653E+01
 50
0.00000000E+00
 51
1.75879507E+01
  0
ARC
  8
0
 62
4
 10
7.71598657E+02
 20
-4.35279876E+02
 40
9.20095253E+00
 50
3.25615743E+02
 51
3.43842738E+01
  0
ARC
  8
0
 62
7
 10
7.55299611E+02
 20
-4.50868316E+02
 40
1.50000248E+01
 50
1.50073400E+02
 51
1.80000058E+02
  0
ARC
  8
0
 62
7
 10
7.37799611E+02
 20
-4.28368316E+02
 40
5.00000000E-01
 50
3.59721787E-05
 51
9.00000179E+01
  0
ARC
  8
0
 62
7
 10
7.18799581E+02
 20
-4.26368331E+02
 40
5.00000000E-01
 50
3.59721787E-05
 51
9.00000179E+01
  0
ARC
  8
0
 62
7
 10
7.32799611E+02
 20
-4.27340057E+02
 40
5.00000000E-01
 50
3.59721787E-05
 51
8.79992642E+01
  0
ARC
  8
0
 62
7
 10
5.20299642E+02
 20
-4.50868331E+02
 40
8.00000000E+00
 50
0.00000000E+00
 51
1.80000000E+02
  0
ARC
  8
0
 62
7
 10
5.20299642E+02
 20
-4.50868331E+02
 40
3.30000043E+00
 50
0.00000000E+00
 51
1.80000000E+02
  0
ARC
  8
0
 62
7
 10
5.20299642E+02
 20
-4.50868331E+02
 40
4.00000000E+00
 50
0.00000000E+00
 51
1.80000000E+02
  0
ARC
  8
0
 62
2
 10
5.92299642E+02
 20
-3.18685546E+02
 40
6.34267845E+01
 50
2.58633891E+02
 51
2.81366141E+02
  0
ARC
  8
0
 62
2
 10
5.92299642E+02
 20
-3.18685546E+02
 40
6.70004044E+01
 50
2.56623903E+02
 51
2.83376101E+02
  0
ARC
  8
0
 62
7
 10
6.64299642E+02
 20
-4.50868331E+02
 40
3.30000043E+00
 50
0.00000000E+00
 51
1.80000000E+02
  0
ARC
  8
0
 62
7
 10
6.64299642E+02
 20
-4.50868331E+02
 40
8.00000000E+00
 50
0.00000000E+00
 51
1.80000000E+02
  0
ARC
  8
0
 62
7
 10
6.64299642E+02
 20
-4.50868331E+02
 40
4.00000000E+00
 50
0.00000000E+00
 51
1.80000000E+02
  0
LINE
  8
0
 62
2
 10
7.47299570E+02
 20
-4.50868331E+02
 11
7.50077355E+02
 21
-4.46710897E+02
  0
LINE
  8
0
 62
7
 10
7.52299581E+02
 20
-4.50868336E+02
 11
7.48299565E+02
 21
-4.43384967E+02
  0
LINE
  8
0
 62
2
 10
7.42299574E+02
 20
-4.43384981E+02
 11
7.47299566E+02
 21
-4.50868331E+02
  0
LINE
  8
0
 62
7
 10
7.52299571E+02
 20
-4.37868353E+02
 11
7.48299557E+02
 21
-4.35868308E+02
  0
LINE
  8
0
 62
7
 10
7.42299611E+02
 20
-4.50868331E+02
 11
7.42299611E+02
 21
-4.43384956E+02
  0
LINE
  8
0
 62
7
 10
7.48299581E+02
 20
-4.43384956E+02
 11
7.48299581E+02
 21
-4.35868286E+02
  0
LINE
  8
0
 62
7
 10
7.48299581E+02
 20
-4.43384956E+02
 11
7.42299611E+02
 21
-4.43384956E+02
  0
LINE
  8
0
 62
7
 10
7.19299581E+02
 20
-4.26368377E+02
 11
7.19299581E+02
 21
-4.50868331E+02
  0
LINE
  8
0
 62
7
 10
7.33299611E+02
 20
-4.27340057E+02
 11
7.33299611E+02
 21
-4.50868331E+02
  0
LINE
  8
0
 62
7
 10
7.38299611E+02
 20
-4.50868331E+02
 11
7.38299611E+02
 21
-4.28368316E+02
  0
LINE
  8
0
 62
7
 10
7.55299611E+02
 20
-4.38688339E+02
 11
7.52299611E+02
 21
-4.38688339E+02
  0
LINE
  8
0
 62
2
 10
7.91619679E+02
 20
-4.38688339E+02
 11
7.80799611E+02
 21
-4.38688339E+02
  0
LINE
  8
0
 62
7
 10
7.92299458E+02
 20
-4.39368524E+02
 11
7.90799446E+02
 21
-4.37868512E+02
  0
LINE
  8
0
 62
7
 10
7.90799611E+02
 20
-4.50868331E+02
 11
7.90799611E+02
 21
-4.37868331E+02
  0
LINE
  8
0
 62
7
 10
7.90799672E+02
 20
-4.37868331E+02
 11
7.80799611E+02
 21
-4.37868331E+02
  0
LINE
  8
0
 62
7
 10
7.55299611E+02
 20
-4.50868331E+02
 11
7.55299611E+02
 21
-4.37868331E+02
  0
LINE
  8
0
 62
7
 10
7.92299611E+02
 20
-4.50868331E+02
 11
7.92299611E+02
 21
-4.39368637E+02
  0
LINE
  8
0
 62
7
 10
7.52299611E+02
 20
-4.50868331E+02
 11
7.52299611E+02
 21
-4.37868331E+02
  0
LINE
  8
0
 62
7
 10
7.37799611E+02
 20
-4.27868316E+02
 11
7.33299611E+02
 21
-4.27868316E+02
  0
LINE
  8
0
 62
7
 10
7.33299611E+02
 20
-4.27305084E+02
 11
7.33299611E+02
 21
-4.27368331E+02
  0
LINE
  8
0
 62
7
 10
7.32817109E+02
 20
-4.26840413E+02
 11
7.19299652E+02
 21
-4.26368373E+02
  0
LINE
  8
0
 62
7
 10
7.18799581E+02
 20
-4.25868316E+02
 11
7.17299611E+02
 21
-4.25868316E+02
  0
LINE
  8
0
 62
7
 10
7.48299581E+02
 20
-4.35868286E+02
 11
7.38299611E+02
 21
-4.35868286E+02
  0
LINE
  8
0
 62
7
 10
6.04799494E+02
 20
-3.69868469E+02
 11
6.03799517E+02
 21
-3.68868492E+02
  0
LINE
  8
0
 62
7
 10
5.79799626E+02
 20
-3.80868347E+02
 11
5.79799626E+02
 21
-3.69868331E+02
  0
LINE
  8
0
 62
7
 10
6.04799642E+02
 20
-3.80868347E+02
 11
6.04799642E+02
 21
-3.69868331E+02
  0
LINE
  8
0
 62
7
 10
6.03799672E+02
 20
-3.68868347E+02
 11
5.80799657E+02
 21
-3.68868347E+02
  0
LINE
  8
0
 62
7
 10
5.80799689E+02
 20
-3.68868366E+02
 11
5.79799688E+02
 21
-3.69868367E+02
  0
LINE
  8
0
 62
7
 10
5.79799721E+02
 20
-3.80868346E+02
 11
5.76799718E+02
 21
-3.83868349E+02
  0
LINE
  8
0
 62
7
 10
6.04799550E+02
 20
-3.80868473E+02
 11
6.07799548E+02
 21
-3.83868471E+02
  0
LINE
  8
0
 62
7
 10
5.76799672E+02
 20
-3.83868347E+02
 11
5.03299672E+02
 21
-3.83868347E+02
  0
LINE
  8
0
  6
CENTER
 62
2
 10
5.20299642E+02
 20
-4.39787292E+02
 11
5.20299642E+02
 21
-4.50868331E+02
  0
LINE
  8
0
 62
7
 10
5.22299657E+02
 20
-4.49713073E+02
 11
5.22299657E+02
 21
-4.50868331E+02
  0
LINE
  8
0
 62
7
 10
5.18299672E+02
 20
-4.50868331E+02
 11
5.18299672E+02
 21
-4.49713485E+02
  0
LINE
  8
0
  6
CENTER
 62
2
 10
5.92299642E+02
 20
-3.87091598E+02
 11
5.92299642E+02
 21
-3.64692718E+02
  0
LINE
  8
0
 62
7
 10
7.17299703E+02
 20
-3.91538772E+02
 11
6.81299642E+02
 21
-3.91538772E+02
  0
LINE
  8
0
 62
7
 10
6.04799642E+02
 20
-3.69868331E+02
 11
5.79799672E+02
 21
-3.69868331E+02
  0
LINE
  8
0
 62
7
 10
6.67764249E+02
 20
-4.44868135E+02
 11
6.71228347E+02
 21
-4.50868138E+02
  0
LINE
  8
0
 62
7
 10
6.62299365E+02
 20
-4.49713254E+02
 11
6.64299379E+02
 21
-4.48558545E+02
  0
LINE
  8
0
 62
7
 10
6.64299549E+02
 20
-4.48559028E+02
 11
6.66299523E+02
 21
-4.49713714E+02
  0
LINE
  8
0
 62
7
 10
6.60835500E+02
 20
-4.44868331E+02
 11
6.67763753E+02
 21
-4.44868331E+02
  0
LINE
  8
0
 62
7
 10
6.60836192E+02
 20
-4.44868700E+02
 11
6.57372085E+02
 21
-4.50868719E+02
  0
LINE
  8
0
 62
7
 10
5.22299669E+02
 20
-4.49713394E+02
 11
5.20299674E+02
 21
-4.48558696E+02
  0
LINE
  8
0
 62
7
 10
5.20299685E+02
 20
-4.48558792E+02
 11
5.18299671E+02
 21
-4.49713501E+02
  0
LINE
  8
0
 62
7
 10
5.23763450E+02
 20
-4.44868586E+02
 11
5.27227539E+02
 21
-4.50868574E+02
  0
LINE
  8
0
 62
7
 10
5.23763814E+02
 20
-4.44868331E+02
 11
5.16835561E+02
 21
-4.44868331E+02
  0
LINE
  8
0
 62
7
 10
5.16835359E+02
 20
-4.44868155E+02
 11
5.13371282E+02
 21
-4.50868121E+02
  0
LINE
  8
0
 62
7
 10
6.81299642E+02
 20
-4.04368331E+02
 11
5.03299718E+02
 21
-4.04368331E+02
  0
LINE
  8
0
 62
7
 10
6.81299642E+02
 20
-3.93368316E+02
 11
5.03299718E+02
 21
-3.93368316E+02
  0
LINE
  8
0
 62
7
 10
6.81299642E+02
 20
-3.83868347E+02
 11
6.07799642E+02
 21
-3.83868347E+02
  0
LINE
  8
0
 62
7
 10
6.81299642E+02
 20
-3.81868286E+02
 11
6.81299642E+02
 21
-4.50868331E+02
  0
LINE
  8
0
 62
7
 10
5.03299718E+02
 20
-3.81868286E+02
 11
5.03299718E+02
 21
-4.50868331E+02
  0
LINE
  8
0
 62
7
 10
7.17299703E+02
 20
-3.81868331E+02
 11
6.81299642E+02
 21
-3.81868331E+02
  0
LINE
  8
0
  6
CENTER
 62
2
 10
6.64299642E+02
 20
-4.39787292E+02
 11
6.64299642E+02
 21
-4.50868331E+02
  0
LINE
  8
0
 62
7
 10
6.62299672E+02
 20
-4.49713073E+02
 11
6.62299672E+02
 21
-4.50868331E+02
  0
LINE
  8
0
 62
7
 10
6.66299611E+02
 20
-4.50868331E+02
 11
6.66299611E+02
 21
-4.49713531E+02
  0
LINE
  8
0
 62
7
 10
7.17299611E+02
 20
-3.81868286E+02
 11
7.17299611E+02
 21
-4.50868331E+02
  0
LINE
  8
0
 62
7
 10
4.31299657E+02
 20
-3.94868331E+02
 11
3.99299642E+02
 21
-3.94868331E+02
  0
LINE
  8
0
 62
7
 10
4.34808373E+02
 20
-3.95488144E+02
 11
3.99299638E+02
 21
-3.94868337E+02
  0
LINE
  8
0
  6
CENTER
 62
2
 10
3.17789094E+02
 20
-4.08868331E+02
 11
3.72799672E+02
 21
-4.08868331E+02
  0
ARC
  8
0
 62
7
 10
4.34799642E+02
 20
-3.95988052E+02
 40
5.00000000E-01
 50
3.59721787E-05
 51
8.89997505E+01
  0
LINE
  8
0
 62
7
 10
4.31299657E+02
 20
-3.95426879E+02
 11
4.31299657E+02
 21
-3.94868331E+02
  0
LINE
  8
0
  6
CENTER
 62
2
 10
4.15299657E+02
 20
-4.07568298E+02
 11
4.15299657E+02
 21
-3.92604690E+02
  0
LINE
  8
0
 62
7
 10
4.35299657E+02
 20
-3.95988052E+02
 11
4.35299657E+02
 21
-4.50868331E+02
  0
LINE
  8
0
 62
7
 10
4.35299657E+02
 20
-3.81868331E+02
 11
4.35299657E+02
 21
-4.50868331E+02
  0
LINE
  8
0
 62
7
 10
3.99299672E+02
 20
-3.97368316E+02
 11
3.92299672E+02
 21
-3.97368316E+02
  0
LINE
  8
0
 62
7
 10
3.20387188E+02
 20
-4.04368301E+02
 11
3.72799672E+02
 21
-4.04368301E+02
  0
LINE
  8
0
 62
7
 10
3.15191027E+02
 20
-4.13368316E+02
 11
3.72799672E+02
 21
-4.13368316E+02
  0
LINE
  8
0
 62
7
 10
3.99299672E+02
 20
-3.94868331E+02
 11
3.99299672E+02
 21
-4.50868331E+02
  0
LINE
  8
0
 62
2
 10
2.86886861E+02
 20
-4.62392570E+02
 11
3.34703872E+02
 21
-3.79571078E+02
  0
LINE
  8
0
 62
7
 10
3.53299672E+02
 20
-3.97368316E+02
 11
3.24428631E+02
 21
-3.97368316E+02
  0
LINE
  8
0
  6
CENTER
 62
2
 10
3.87799672E+02
 20
-4.08868331E+02
 11
4.37824147E+02
 21
-4.08868331E+02
  0
LINE
  8
0
 62
7
 10
3.87799672E+02
 20
-4.04368301E+02
 11
3.99299672E+02
 21
-4.04368301E+02
  0
LINE
  8
0
 62
7
 10
3.87799672E+02
 20
-4.13368316E+02
 11
3.99299672E+02
 21
-4.13368316E+02
  0
LINE
  8
0
 62
7
 10
-8.20500000E+02
 20
-5.74500000E+02
 11
8.20500000E+02
 21
-5.74500000E+02
  0
LINE
  8
0
 62
7
 10
-8.20500000E+02
 20
5.74500000E+02
 11
-8.20500000E+02
 21
-5.74500000E+02
  0
LINE
  8
0
 62
7
 10
8.20500000E+02
 20
5.74500000E+02
 11
8.20500000E+02
 21
-5.74500000E+02
  0
LINE
  8
0
 62
7
 10
-8.20500000E+02
 20
5.74500000E+02
 11
8.20500000E+02
 21
5.74500000E+02
  0
LINE
  8
0
 62
7
 10
-8.20500000E+02
 20
5.24500000E+02
 11
-4.70500000E+02
 21
5.24500000E+02
  0
LINE
  8
0
 62
7
 10
4.70500000E+02
 20
-5.24500000E+02
 11
8.20500000E+02
 21
-5.24500000E+02
  0
LINE
  8
0
 62
7
 10
4.70500000E+02
 20
5.74500000E+02
 11
4.70500000E+02
 21
5.24500000E+02
  0
LINE
  8
0
 62
7
 10
-4.70500000E+02
 20
5.74500000E+02
 11
-4.70500000E+02
 21
5.24500000E+02
  0
LINE
  8
0
 62
7
 10
4.70500000E+02
 20
-5.24500000E+02
 11
4.70500000E+02
 21
-5.74500000E+02
  0
LINE
  8
0
 62
7
 10
4.70500000E+02
 20
5.24500000E+02
 11
8.20500000E+02
 21
5.24500000E+02
  0
TEXT
  8
0
 62
7
 10
-7.84358752E+02
 20
4.75500000E+02
 40
1.80000000E+01
  1
MODEL:DDARR100*75
 41
1.00000000E+00
  7
MONOTXT
  0
TEXT
  8
0
 62
7
 10
4.86570312E+02
 20
-5.62000000E+02
 40
2.50000000E+01
  1
KOGANEI CORP.
 41
1.04838710E+00
  7
MONOTXT
  0
TEXT
  8
0
 62
7
 10
5.76070624E+02
 20
5.40500000E+02
 40
1.80000000E+01
  1
Ver. 1.0
 41
1.08108108E+00
  7
MONOTXT
  0
TEXT
  8
0
 62
7
 10
-7.95929376E+02
 20
5.40500000E+02
 40
1.80000000E+01
  1
NEW DYNA CYLINDER
 41
1.07594937E+00
  7
MONOTXT
  0
ENDSEC
  0
EOF
