  0
SECTION
  2
HEADER
  9
$ACADVER
  1
AC1003
  9
$EXTMIN
 10
-5.64500000E+02
 20
-4.00500000E+02
  9
$EXTMAX
 10
5.74500000E+02
 20
4.00500000E+02
  9
$LIMMIN
 10
-5.64501000E+02
 20
-4.00501000E+02
  9
$LIMMAX
 10
5.74501000E+02
 20
4.00501000E+02
  9
$SNAPUNIT
 10
1
 20
1
  9
$SNAPBASE
 10
0
 20
0
  9
$GRIDMODE
 70
0
  9
$GRIDUNIT
 10
0
 20
0
  9
$LTSCALE
 40
1.89833333E+01
  9
$TEXTSIZE
 40
3.2
  9
$DIMTAD
 70
0
  9
$LUNITS
 70
2
  9
$LUPREC
 70
4
  9
$FILLETRAD
 40
0
  9
$AUNITS
 70
0
  9
$AUPREC
 70
0
  0
ENDSEC
  0
SECTION
  2
TABLES
  0
TABLE
  2
LTYPE
 70
2
  0
LTYPE
  2
CONTINUOUS
 70
64
  3
Solid-Line
 72
65
 73
0
 40
0
  0
LTYPE
  2
DASHED
 70
64
  3
DASHED
 72
65
 73
2
 40
.75
 49
.5
 49
-.25
  0
LTYPE
  2
HIDDEN
 70
64
  3
HIDDEN
 72
65
 73
2
 40
.375
 49
.25
 49
-.125
  0
LTYPE
  2
CENTER
 70
64
  3
CENTER
 72
65
 73
4
 40
2
 49
1.25
 49
-.25
 49
.25
 49
-.25
  0
LTYPE
  2
PHANTOM
 70
64
  3
PHANTOM
 72
65
 73
6
 40
2.5
 49
1.25
 49
-.25
 49
.25
 49
-.25
 49
.25
 49
-.25
  0
ENDTAB
  0
TABLE
  2
LAYER
 70
1
  0
LAYER
  2
1
 70
0
 62
7
  6
CONTINUOUS
 0
ENDTAB
  0
TABLE
  2
STYLE
 70
2
  0
STYLE
  2
MONOTXT
 70
0
 40
0
 41
1
 50
0
 71
0
 42
.2
  3
monotxt
  0
STYLE
  2
BIGFONT
 70
0
 40
0
 41
1
 50
0
 71
0
 42
.2
  3
txt
  4
bigfont
  0
ENDTAB
  0
ENDSEC
  0
SECTION
  2
BLOCKS
  0
BLOCK
  8
0
  2
PP1
 70
10
 10
0.0
 20
0.0
  0
LINE
  8
0
  6
DASHED
 62
7
 10
-2.74500026E+02
 20
2.69000000E+02
 11
-2.68499974E+02
 21
2.69000000E+02
  0
LINE
  8
0
  6
DASHED
 62
7
 10
-2.74499991E+02
 20
2.71000000E+02
 11
-2.68500009E+02
 21
2.71000000E+02
  0
LINE
  8
0
  6
DASHED
 62
7
 10
-2.73169935E+02
 20
2.73000000E+02
 11
-2.69830093E+02
 21
2.73000000E+02
  0
LINE
  8
0
  6
DASHED
 62
7
 10
-2.73169863E+02
 20
2.68000000E+02
 11
-2.69830135E+02
 21
2.68000000E+02
  0
LINE
  8
0
  6
DASHED
 62
7
 10
-2.74500009E+02
 20
2.70000000E+02
 11
-2.68499991E+02
 21
2.70000000E+02
  0
LINE
  8
0
  6
DASHED
 62
7
 10
-2.74499974E+02
 20
2.72000000E+02
 11
-2.68500026E+02
 21
2.72000000E+02
  0
LINE
  8
0
  6
DASHED
 62
7
 10
-2.68652791E+02
 20
2.68679716E+02
 11
-2.68499973E+02
 21
2.68944406E+02
  0
LINE
  8
0
  6
DASHED
 62
7
 10
-2.71808437E+02
 20
2.67213978E+02
 11
-2.68808430E+02
 21
2.72410141E+02
  0
LINE
  8
0
  6
DASHED
 62
7
 10
-2.73540486E+02
 20
2.68213980E+02
 11
-2.70540480E+02
 21
2.73410143E+02
  0
LINE
  8
0
  6
DASHED
 62
7
 10
-2.74499999E+02
 20
2.70552055E+02
 11
-2.73045047E+02
 21
2.73072105E+02
  0
LINE
  8
0
  6
DASHED
 62
7
 10
-2.70384812E+02
 20
2.67679768E+02
 11
-2.68500008E+02
 21
2.70944345E+02
  0
LINE
  8
0
  6
DASHED
 62
7
 10
-2.72674461E+02
 20
2.67713979E+02
 11
-2.69674455E+02
 21
2.72910142E+02
  0
LINE
  8
0
  6
DASHED
 62
7
 10
-2.74406511E+02
 20
2.68713981E+02
 11
-2.71406505E+02
 21
2.73910144E+02
  0
LINE
  8
0
  6
DASHED
 62
7
 10
-2.68500010E+02
 20
2.71055659E+02
 11
-2.69518817E+02
 21
2.72820284E+02
  0
LINE
  8
0
  6
DASHED
 62
7
 10
-2.69241448E+02
 20
2.68339867E+02
 11
-2.72241472E+02
 21
2.73536061E+02
  0
LINE
  8
0
  6
DASHED
 62
7
 10
-2.70973514E+02
 20
2.67339893E+02
 11
-2.73973512E+02
 21
2.72536043E+02
  0
LINE
  8
0
  6
DASHED
 62
7
 10
-2.73911111E+02
 20
2.68427961E+02
 11
-2.74500019E+02
 21
2.69447979E+02
  0
LINE
  8
0
  6
DASHED
 62
7
 10
-2.68499975E+02
 20
2.69055598E+02
 11
-2.71250870E+02
 21
2.73820289E+02
  0
LINE
  8
0
  6
DASHED
 62
7
 10
-2.70107481E+02
 20
2.67839880E+02
 11
-2.73107492E+02
 21
2.73036052E+02
  0
LINE
  8
0
  6
DASHED
 62
7
 10
-2.72179058E+02
 20
2.67427957E+02
 11
-2.74499983E+02
 21
2.71447918E+02
  0
ENDBLK
  8
0
  0
BLOCK
  8
0
  2
PP2
 70
10
 10
0.0
 20
0.0
  0
LINE
  8
0
  6
DASHED
 62
7
 10
-1.25500031E+02
 20
2.69000000E+02
 11
-1.19499974E+02
 21
2.69000000E+02
  0
LINE
  8
0
  6
DASHED
 62
7
 10
-1.25500031E+02
 20
2.71000000E+02
 11
-1.19500009E+02
 21
2.71000000E+02
  0
LINE
  8
0
  6
DASHED
 62
7
 10
-1.24169968E+02
 20
2.73000000E+02
 11
-1.20830093E+02
 21
2.73000000E+02
  0
LINE
  8
0
  6
DASHED
 62
7
 10
-1.24169892E+02
 20
2.68000000E+02
 11
-1.20830164E+02
 21
2.68000000E+02
  0
LINE
  8
0
  6
DASHED
 62
7
 10
-1.25500031E+02
 20
2.70000000E+02
 11
-1.19499991E+02
 21
2.70000000E+02
  0
LINE
  8
0
  6
DASHED
 62
7
 10
-1.25500031E+02
 20
2.72000000E+02
 11
-1.19500026E+02
 21
2.72000000E+02
  0
LINE
  8
0
  6
DASHED
 62
7
 10
-1.21450247E+02
 20
2.67642001E+02
 11
-1.19500009E+02
 21
2.71019913E+02
  0
LINE
  8
0
  6
DASHED
 62
7
 10
-1.23707190E+02
 20
2.67732862E+02
 11
-1.20707178E+02
 21
2.72929035E+02
  0
LINE
  8
0
  6
DASHED
 62
7
 10
-1.25439247E+02
 20
2.68732851E+02
 11
-1.22439228E+02
 21
2.73929037E+02
  0
LINE
  8
0
  6
DASHED
 62
7
 10
-1.19718212E+02
 20
2.68641975E+02
 11
-1.19499974E+02
 21
2.69019974E+02
  0
LINE
  8
0
  6
DASHED
 62
7
 10
-1.22841161E+02
 20
2.67232868E+02
 11
-1.19841153E+02
 21
2.72429034E+02
  0
LINE
  8
0
  6
DASHED
 62
7
 10
-1.24573218E+02
 20
2.68232857E+02
 11
-1.21573203E+02
 21
2.73429036E+02
  0
LINE
  8
0
  6
DASHED
 62
7
 10
-1.25500031E+02
 20
2.70627571E+02
 11
-1.24110477E+02
 21
2.73034347E+02
  0
LINE
  8
0
  6
DASHED
 62
7
 10
-1.19499973E+02
 20
2.68980025E+02
 11
-1.22316316E+02
 21
2.73858074E+02
  0
LINE
  8
0
  6
DASHED
 62
7
 10
-1.21140210E+02
 20
2.67820998E+02
 11
-1.24140223E+02
 21
2.73017174E+02
  0
LINE
  8
0
  6
DASHED
 62
7
 10
-1.23244497E+02
 20
2.67465731E+02
 11
-1.25500031E+02
 21
2.71372429E+02
  0
LINE
  8
0
  6
DASHED
 62
7
 10
-1.19500008E+02
 20
2.70980086E+02
 11
-1.20584263E+02
 21
2.72858070E+02
  0
LINE
  8
0
  6
DASHED
 62
7
 10
-1.20274181E+02
 20
2.68320992E+02
 11
-1.23274198E+02
 21
2.73517175E+02
  0
LINE
  8
0
  6
DASHED
 62
7
 10
-1.22006239E+02
 20
2.67321005E+02
 11
-1.25006248E+02
 21
2.72517173E+02
  0
LINE
  8
0
  6
DASHED
 62
7
 10
-1.24976535E+02
 20
2.68465709E+02
 11
-1.25500031E+02
 21
2.69372429E+02
  0
ENDBLK
  8
0
  0
BLOCK
  8
0
  2
PP3
 70
10
 10
0.0
 20
0.0
  0
LINE
  8
0
  6
DASHED
 62
7
 10
-1.25500092E+02
 20
-1.31000000E+02
 11
-1.19500035E+02
 21
-1.31000000E+02
  0
LINE
  8
0
  6
DASHED
 62
7
 10
-1.25500092E+02
 20
-1.29000000E+02
 11
-1.19500070E+02
 21
-1.29000000E+02
  0
LINE
  8
0
  6
DASHED
 62
7
 10
-1.24170030E+02
 20
-1.27000000E+02
 11
-1.20830154E+02
 21
-1.27000000E+02
  0
LINE
  8
0
  6
DASHED
 62
7
 10
-1.24169953E+02
 20
-1.32000000E+02
 11
-1.20830225E+02
 21
-1.32000000E+02
  0
LINE
  8
0
  6
DASHED
 62
7
 10
-1.25500092E+02
 20
-1.30000000E+02
 11
-1.19500052E+02
 21
-1.30000000E+02
  0
LINE
  8
0
  6
DASHED
 62
7
 10
-1.25500092E+02
 20
-1.28000000E+02
 11
-1.19500087E+02
 21
-1.28000000E+02
  0
LINE
  8
0
  6
DASHED
 62
7
 10
-1.21450217E+02
 20
-1.32357946E+02
 11
-1.19500070E+02
 21
-1.28980193E+02
  0
LINE
  8
0
  6
DASHED
 62
7
 10
-1.23707205E+02
 20
-1.32267164E+02
 11
-1.20707193E+02
 21
-1.27070991E+02
  0
LINE
  8
0
  6
DASHED
 62
7
 10
-1.25439262E+02
 20
-1.31267175E+02
 11
-1.22439243E+02
 21
-1.26070989E+02
  0
LINE
  8
0
  6
DASHED
 62
7
 10
-1.19718181E+02
 20
-1.31357972E+02
 11
-1.19500035E+02
 21
-1.30980132E+02
  0
LINE
  8
0
  6
DASHED
 62
7
 10
-1.22841176E+02
 20
-1.32767158E+02
 11
-1.19841168E+02
 21
-1.27570992E+02
  0
LINE
  8
0
  6
DASHED
 62
7
 10
-1.24573233E+02
 20
-1.31767170E+02
 11
-1.21573218E+02
 21
-1.26570990E+02
  0
LINE
  8
0
  6
DASHED
 62
7
 10
-1.25500092E+02
 20
-1.29372535E+02
 11
-1.24110447E+02
 21
-1.26965600E+02
  0
LINE
  8
0
  6
DASHED
 62
7
 10
-1.19500034E+02
 20
-1.31019869E+02
 11
-1.22316285E+02
 21
-1.26141979E+02
  0
LINE
  8
0
  6
DASHED
 62
7
 10
-1.21140225E+02
 20
-1.32178975E+02
 11
-1.24140238E+02
 21
-1.26982800E+02
  0
LINE
  8
0
  6
DASHED
 62
7
 10
-1.23244467E+02
 20
-1.32534322E+02
 11
-1.25500092E+02
 21
-1.28627465E+02
  0
LINE
  8
0
  6
DASHED
 62
7
 10
-1.19500069E+02
 20
-1.29019808E+02
 11
-1.20584232E+02
 21
-1.27141983E+02
  0
LINE
  8
0
  6
DASHED
 62
7
 10
-1.20274196E+02
 20
-1.31678982E+02
 11
-1.23274214E+02
 21
-1.26482799E+02
  0
LINE
  8
0
  6
DASHED
 62
7
 10
-1.22006254E+02
 20
-1.32678969E+02
 11
-1.25006263E+02
 21
-1.27482801E+02
  0
LINE
  8
0
  6
DASHED
 62
7
 10
-1.24976505E+02
 20
-1.31534344E+02
 11
-1.25500092E+02
 21
-1.30627465E+02
  0
ENDBLK
  8
0
  0
BLOCK
  8
0
  2
PP4
 70
10
 10
0.0
 20
0.0
  0
LINE
  8
0
  6
DASHED
 62
7
 10
-2.74500087E+02
 20
-1.31000000E+02
 11
-2.68500035E+02
 21
-1.31000000E+02
  0
LINE
  8
0
  6
DASHED
 62
7
 10
-2.74500052E+02
 20
-1.29000000E+02
 11
-2.68500070E+02
 21
-1.29000000E+02
  0
LINE
  8
0
  6
DASHED
 62
7
 10
-2.73169996E+02
 20
-1.27000000E+02
 11
-2.69830154E+02
 21
-1.27000000E+02
  0
LINE
  8
0
  6
DASHED
 62
7
 10
-2.73169924E+02
 20
-1.32000000E+02
 11
-2.69830196E+02
 21
-1.32000000E+02
  0
LINE
  8
0
  6
DASHED
 62
7
 10
-2.74500070E+02
 20
-1.30000000E+02
 11
-2.68500052E+02
 21
-1.30000000E+02
  0
LINE
  8
0
  6
DASHED
 62
7
 10
-2.74500035E+02
 20
-1.28000000E+02
 11
-2.68500087E+02
 21
-1.28000000E+02
  0
LINE
  8
0
  6
DASHED
 62
7
 10
-2.68652761E+02
 20
-1.31320232E+02
 11
-2.68500034E+02
 21
-1.31055700E+02
  0
LINE
  8
0
  6
DASHED
 62
7
 10
-2.71808452E+02
 20
-1.32786048E+02
 11
-2.68808445E+02
 21
-1.27589885E+02
  0
LINE
  8
0
  6
DASHED
 62
7
 10
-2.73540501E+02
 20
-1.31786046E+02
 11
-2.70540495E+02
 21
-1.26589883E+02
  0
LINE
  8
0
  6
DASHED
 62
7
 10
-2.74500060E+02
 20
-1.29448051E+02
 11
-2.73045017E+02
 21
-1.26927842E+02
  0
LINE
  8
0
  6
DASHED
 62
7
 10
-2.70384781E+02
 20
-1.32320179E+02
 11
-2.68500069E+02
 21
-1.29055761E+02
  0
LINE
  8
0
  6
DASHED
 62
7
 10
-2.72674477E+02
 20
-1.32286047E+02
 11
-2.69674470E+02
 21
-1.27089884E+02
  0
LINE
  8
0
  6
DASHED
 62
7
 10
-2.74406526E+02
 20
-1.31286045E+02
 11
-2.71406520E+02
 21
-1.26089882E+02
  0
LINE
  8
0
  6
DASHED
 62
7
 10
-2.68500071E+02
 20
-1.28944235E+02
 11
-2.69518786E+02
 21
-1.27179768E+02
  0
LINE
  8
0
  6
DASHED
 62
7
 10
-2.69241463E+02
 20
-1.31660107E+02
 11
-2.72241487E+02
 21
-1.26463913E+02
  0
LINE
  8
0
  6
DASHED
 62
7
 10
-2.70973529E+02
 20
-1.32660080E+02
 11
-2.73973528E+02
 21
-1.27463930E+02
  0
LINE
  8
0
  6
DASHED
 62
7
 10
-2.73911081E+02
 20
-1.31572092E+02
 11
-2.74500080E+02
 21
-1.30551916E+02
  0
LINE
  8
0
  6
DASHED
 62
7
 10
-2.68500036E+02
 20
-1.30944297E+02
 11
-2.71250840E+02
 21
-1.26179764E+02
  0
LINE
  8
0
  6
DASHED
 62
7
 10
-2.70107496E+02
 20
-1.32160094E+02
 11
-2.73107507E+02
 21
-1.26963922E+02
  0
LINE
  8
0
  6
DASHED
 62
7
 10
-2.72179027E+02
 20
-1.32572096E+02
 11
-2.74500044E+02
 21
-1.28551977E+02
  0
ENDBLK
  8
0
  0
ENDSEC
  0
SECTION
  2
ENTITIES
  0
LINE
  8
0
  6
PHANTOM
 10
5.50000000E+00
 20
1.89596102E+02
 11
5.50000000E+00
 21
6.44390164E+01
  0
LINE
  8
0
 62
7
 10
5.64999542E+01
 20
1.16350006E+02
 11
3.49999542E+01
 21
1.16350006E+02
  0
LINE
  8
0
  6
CENTER
 62
2
 10
8.97269745E+01
 20
8.19999962E+01
 11
-8.26034546E+01
 21
8.19999962E+01
  0
LINE
  8
0
 62
7
 10
5.64999542E+01
 20
8.46499901E+01
 11
-4.95000458E+01
 21
8.46499901E+01
  0
LINE
  8
0
 62
7
 10
5.64999390E+01
 20
7.93500023E+01
 11
-4.95000153E+01
 21
7.93500023E+01
  0
LINE
  8
0
 62
7
 10
8.74999542E+01
 20
8.64999962E+01
 11
8.74999542E+01
 21
7.75000038E+01
  0
LINE
  8
0
  6
CENTER
 62
2
 10
8.97269745E+01
 20
1.19000000E+02
 11
-8.26034546E+01
 21
1.19000000E+02
  0
LINE
  8
0
 62
7
 10
-8.05000305E+01
 20
8.64999962E+01
 11
-8.05000305E+01
 21
7.75000038E+01
  0
LINE
  8
0
 62
7
 10
8.24999542E+01
 20
1.25500000E+02
 11
5.64999542E+01
 21
1.25500000E+02
  0
LINE
  8
0
 62
7
 10
5.64999542E+01
 20
1.22499985E+02
 11
4.99999542E+01
 21
1.22499985E+02
  0
LINE
  8
0
 62
7
 10
-3.01000061E+02
 20
1.15500031E+02
 11
-2.96491089E+02
 21
1.15500031E+02
  0
LINE
  8
0
 62
7
 10
8.89999542E+01
 20
1.16500000E+02
 11
8.74999542E+01
 21
1.16500000E+02
  0
LINE
  8
0
 62
7
 10
5.64999542E+01
 20
7.85000114E+01
 11
-4.95000458E+01
 21
7.85000114E+01
  0
LINE
  8
0
 62
7
 10
-3.14500031E+02
 20
1.06679993E+02
 11
-3.11500031E+02
 21
1.06679993E+02
  0
LINE
  8
0
 62
7
 10
-3.14500031E+02
 20
9.43199577E+01
 11
-3.11500031E+02
 21
9.43199577E+01
  0
LINE
  8
0
 62
7
 10
-7.55000305E+01
 20
1.25500000E+02
 11
-4.95000458E+01
 21
1.25500000E+02
  0
LINE
  8
0
 62
7
 10
-8.05000924E+01
 20
1.24714421E+02
 11
-4.95000834E+01
 21
1.25526185E+02
  0
LINE
  8
0
 62
7
 10
-7.55000305E+01
 20
1.24845398E+02
 11
-7.55000305E+01
 21
1.25500000E+02
  0
LINE
  8
0
 62
7
 10
-2.88000031E+02
 20
1.16500000E+02
 11
-2.86500031E+02
 21
1.16500000E+02
  0
LINE
  8
0
 62
7
 10
-3.01500031E+02
 20
8.59999962E+01
 11
-3.01500031E+02
 21
1.15000000E+02
  0
LINE
  8
0
 62
7
 10
-3.01000061E+02
 20
8.54999657E+01
 11
-2.96491089E+02
 21
8.54999657E+01
  0
LINE
  8
0
 62
7
 10
8.89999542E+01
 20
8.44999962E+01
 11
8.74999542E+01
 21
8.44999962E+01
  0
LINE
  8
0
 62
7
 10
5.64999542E+01
 20
1.25500000E+02
 11
5.64999542E+01
 21
7.54999962E+01
  0
LINE
  8
0
 62
7
 10
8.74999542E+01
 20
1.24714432E+02
 11
8.74999542E+01
 21
7.62855644E+01
  0
LINE
  8
0
 62
7
 10
8.24999542E+01
 20
7.54999962E+01
 11
5.64999542E+01
 21
7.54999962E+01
  0
LINE
  8
0
 62
7
 10
8.74999961E+01
 20
7.62855523E+01
 11
5.64999565E+01
 21
7.54737877E+01
  0
LINE
  8
0
 62
7
 10
-2.96258729E+02
 20
8.52415328E+01
 11
-2.88499146E+02
 21
8.49705622E+01
  0
LINE
  8
0
 62
7
 10
8.24999542E+01
 20
7.61545982E+01
 11
8.24999542E+01
 21
7.54999962E+01
  0
LINE
  8
0
  6
CENTER
 62
2
 10
6.94999542E+01
 20
1.27252365E+02
 11
6.94999542E+01
 21
1.16071762E+02
  0
LINE
  8
0
 62
7
 10
-2.88500031E+02
 20
1.16000000E+02
 11
-2.88500031E+02
 21
8.49705772E+01
  0
LINE
  8
0
 62
7
 10
-2.96500031E+02
 20
8.54999657E+01
 11
-2.96500031E+02
 21
1.15508606E+02
  0
LINE
  8
0
 62
7
 10
-2.88000031E+02
 20
8.44999962E+01
 11
-2.86500031E+02
 21
8.44999962E+01
  0
LINE
  8
0
 62
7
 10
-4.95000458E+01
 20
1.25500000E+02
 11
-4.95000458E+01
 21
7.54737968E+01
  0
LINE
  8
0
 62
7
 10
-8.05000305E+01
 20
1.24714432E+02
 11
-8.05000305E+01
 21
7.62855644E+01
  0
LINE
  8
0
 62
7
 10
-7.55000305E+01
 20
7.54999962E+01
 11
-4.95000458E+01
 21
7.54999962E+01
  0
LINE
  8
0
 62
7
 10
-8.05001002E+01
 20
7.62855585E+01
 11
-4.95000911E+01
 21
7.54737947E+01
  0
LINE
  8
0
 62
7
 10
-7.55000305E+01
 20
7.61545982E+01
 11
-7.55000305E+01
 21
7.54999962E+01
  0
LINE
  8
0
 62
7
 10
8.94999542E+01
 20
1.16000000E+02
 11
8.94999542E+01
 21
8.49705772E+01
  0
LINE
  8
0
 62
7
 10
5.64999390E+01
 20
1.21649994E+02
 11
4.99999542E+01
 21
1.21649994E+02
  0
LINE
  8
0
 62
7
 10
-3.08500031E+02
 20
1.04372986E+02
 11
-3.04500031E+02
 21
1.04372986E+02
  0
LINE
  8
0
 62
7
 10
-3.08500031E+02
 20
1.08500015E+02
 11
-3.01500061E+02
 21
1.08500015E+02
  0
LINE
  8
0
 62
2
 10
-3.09884626E+02
 20
9.84145481E+01
 11
-3.04500012E+02
 21
1.04372986E+02
  0
LINE
  8
0
 62
2
 10
-3.09884649E+02
 20
1.02585459E+02
 11
-3.04500035E+02
 21
9.66270212E+01
  0
LINE
  8
0
 62
7
 10
-3.08500031E+02
 20
9.66270103E+01
 11
-3.08500031E+02
 21
9.24999809E+01
  0
LINE
  8
0
 62
7
 10
8.74999882E+01
 20
1.24714423E+02
 11
5.64999487E+01
 21
1.25526188E+02
  0
LINE
  8
0
 62
7
 10
8.24999542E+01
 20
1.24845398E+02
 11
8.24999542E+01
 21
1.25500000E+02
  0
LINE
  8
0
 62
7
 10
-2.96258760E+02
 20
1.15758477E+02
 11
-2.88499177E+02
 21
1.16029447E+02
  0
LINE
  8
0
 62
7
 10
-3.04500031E+02
 20
9.66270103E+01
 11
-3.04500031E+02
 21
1.04372986E+02
  0
LINE
  8
0
 62
7
 10
-3.08500031E+02
 20
1.04372986E+02
 11
-3.08500031E+02
 21
1.08499969E+02
  0
LINE
  8
0
 62
7
 10
-3.08500031E+02
 20
9.24999809E+01
 11
-3.01500061E+02
 21
9.24999809E+01
  0
LINE
  8
0
 62
7
 10
-3.11500031E+02
 20
9.34999657E+01
 11
-3.11500031E+02
 21
1.07499985E+02
  0
LINE
  8
0
 62
7
 10
-3.35500031E+02
 20
9.49999504E+01
 11
-3.35500031E+02
 21
1.05999985E+02
  0
LINE
  8
0
 62
7
 10
-3.34000031E+02
 20
1.07499985E+02
 11
-3.28999969E+02
 21
1.07499985E+02
  0
LINE
  8
0
 62
7
 10
-3.34000031E+02
 20
9.34999657E+01
 11
-3.28999969E+02
 21
9.34999657E+01
  0
LINE
  8
0
 62
2
 10
-3.34819977E+02
 20
1.06679993E+02
 11
-3.28999969E+02
 21
1.06679993E+02
  0
LINE
  8
0
 62
2
 10
-3.34819977E+02
 20
9.43199577E+01
 11
-3.28999969E+02
 21
9.43199577E+01
  0
LINE
  8
0
 62
7
 10
-3.34000031E+02
 20
1.07499985E+02
 11
-3.34000031E+02
 21
9.34999657E+01
  0
LINE
  8
0
 62
7
 10
-3.14500031E+02
 20
1.07499985E+02
 11
-3.14500031E+02
 21
9.34999657E+01
  0
LINE
  8
0
 62
7
 10
-3.35499902E+02
 20
1.05999890E+02
 11
-3.33999955E+02
 21
1.07499883E+02
  0
LINE
  8
0
 62
7
 10
-3.35500025E+02
 20
9.49999705E+01
 11
-3.34000013E+02
 21
9.34999581E+01
  0
LINE
  8
0
  6
CENTER
 62
2
 10
-6.25000305E+01
 20
1.27252365E+02
 11
-6.25000305E+01
 21
1.16071762E+02
  0
LINE
  8
0
 62
7
 10
-3.08500031E+02
 20
9.66270103E+01
 11
-3.04500031E+02
 21
9.66270103E+01
  0
LINE
  8
0
 62
7
 10
-3.11500037E+02
 20
1.00499999E+02
 11
-3.08500034E+02
 21
1.04372989E+02
  0
LINE
  8
0
 62
7
 10
-3.08500035E+02
 20
1.08500026E+02
 11
-3.11500040E+02
 21
1.07499994E+02
  0
LINE
  8
0
 62
7
 10
-3.11500012E+02
 20
1.00499970E+02
 11
-3.08500028E+02
 21
9.66270041E+01
  0
LINE
  8
0
 62
7
 10
-3.11500032E+02
 20
9.34999640E+01
 11
-3.08500042E+02
 21
9.24999827E+01
  0
LINE
  8
0
 62
7
 10
-2.47499862E+02
 20
1.02809273E+02
 11
-2.49499850E+02
 21
1.01654579E+02
  0
LINE
  8
0
 62
7
 10
-2.59500031E+02
 20
1.26649994E+02
 11
-1.33500000E+02
 21
1.26649994E+02
  0
LINE
  8
0
  6
CENTER
 62
2
 10
-3.39010223E+02
 20
1.00500000E+02
 11
9.62018433E+01
 21
1.00500000E+02
  0
LINE
  8
0
  6
CENTER
 62
2
 10
-2.90672394E+02
 20
7.69999809E+01
 11
-7.35515442E+01
 21
7.69999809E+01
  0
LINE
  8
0
 62
7
 10
-2.59499969E+02
 20
1.31500000E+02
 11
-2.59499969E+02
 21
6.94999962E+01
  0
LINE
  8
0
 62
7
 10
-2.59499969E+02
 20
7.29999809E+01
 11
-1.33500000E+02
 21
7.29999809E+01
  0
LINE
  8
0
 62
7
 10
-2.86500031E+02
 20
1.31499969E+02
 11
-2.59500031E+02
 21
1.31499969E+02
  0
LINE
  8
0
 62
7
 10
-8.05000305E+01
 20
1.31500000E+02
 11
-8.05000305E+01
 21
6.94999962E+01
  0
LINE
  8
0
 62
7
 10
-1.33500000E+02
 20
1.31499969E+02
 11
-8.05000000E+01
 21
1.31499969E+02
  0
LINE
  8
0
 62
7
 10
-2.59500031E+02
 20
1.28000031E+02
 11
-2.08500000E+02
 21
1.28000031E+02
  0
LINE
  8
0
 62
7
 10
-2.44036174E+02
 20
9.45001349E+01
 11
-2.40572074E+02
 21
1.00500141E+02
  0
LINE
  8
0
 62
7
 10
-2.59500031E+02
 20
7.43499870E+01
 11
-1.33500000E+02
 21
7.43499870E+01
  0
LINE
  8
0
 62
7
 10
-2.50964338E+02
 20
1.06500214E+02
 11
-2.54428430E+02
 21
1.00500221E+02
  0
LINE
  8
0
 62
7
 10
-2.44035919E+02
 20
1.06500000E+02
 11
-2.50964142E+02
 21
1.06500000E+02
  0
LINE
  8
0
 62
7
 10
-2.59500031E+02
 20
7.96499748E+01
 11
-1.33500000E+02
 21
7.96499748E+01
  0
LINE
  8
0
 62
7
 10
-2.45499994E+02
 20
1.01654790E+02
 11
-2.47499928E+02
 21
1.02809453E+02
  0
LINE
  8
0
 62
7
 10
-2.44036180E+02
 20
1.06499900E+02
 11
-2.40572072E+02
 21
1.00499881E+02
  0
LINE
  8
0
 62
7
 10
-1.47499926E+02
 20
1.01654735E+02
 11
-1.45499938E+02
 21
1.02809429E+02
  0
LINE
  8
0
 62
7
 10
-1.45499966E+02
 20
1.02809363E+02
 11
-1.43499979E+02
 21
1.01654669E+02
  0
LINE
  8
0
 62
7
 10
-1.48964117E+02
 20
1.06499977E+02
 11
-1.52428221E+02
 21
1.00499964E+02
  0
LINE
  8
0
 62
7
 10
-1.48964081E+02
 20
1.06500000E+02
 11
-1.42035858E+02
 21
1.06500000E+02
  0
LINE
  8
0
 62
7
 10
-1.42035929E+02
 20
1.06500085E+02
 11
-1.38571837E+02
 21
1.00500092E+02
  0
LINE
  8
0
 62
7
 10
-2.59500031E+02
 20
1.21350006E+02
 11
-1.33500000E+02
 21
1.21350006E+02
  0
LINE
  8
0
  6
CENTER
 62
2
 10
-2.90672394E+02
 20
1.24000000E+02
 11
-7.35515442E+01
 21
1.24000000E+02
  0
LINE
  8
0
 62
7
 10
-2.06500031E+02
 20
1.37500000E+02
 11
-1.86500000E+02
 21
1.37500000E+02
  0
LINE
  8
0
 62
7
 10
-2.50964256E+02
 20
9.44998542E+01
 11
-2.54428364E+02
 21
1.00499873E+02
  0
LINE
  8
0
 62
7
 10
-2.44035919E+02
 20
9.44999962E+01
 11
-2.50964142E+02
 21
9.44999962E+01
  0
LINE
  8
0
 62
7
 10
-2.49500031E+02
 20
9.93452759E+01
 11
-2.49500031E+02
 21
1.01654663E+02
  0
LINE
  8
0
 62
7
 10
-2.47499919E+02
 20
9.81905746E+01
 11
-2.49499907E+02
 21
9.93452687E+01
  0
LINE
  8
0
 62
7
 10
-2.45499952E+02
 20
9.93450840E+01
 11
-2.47499940E+02
 21
9.81903900E+01
  0
LINE
  8
0
 62
7
 10
-2.45500031E+02
 20
1.01654846E+02
 11
-2.45500031E+02
 21
9.93452759E+01
  0
LINE
  8
0
 62
7
 10
-2.86500031E+02
 20
6.94999809E+01
 11
-2.59500031E+02
 21
6.94999809E+01
  0
LINE
  8
0
 62
7
 10
-2.86500031E+02
 20
1.31500000E+02
 11
-2.86500031E+02
 21
6.94999962E+01
  0
LINE
  8
0
 62
7
 10
-1.33500000E+02
 20
6.94999809E+01
 11
-8.05000000E+01
 21
6.94999809E+01
  0
LINE
  8
0
 62
7
 10
-1.33500000E+02
 20
1.31500000E+02
 11
-1.33500000E+02
 21
6.94999962E+01
  0
LINE
  8
0
  6
CENTER
 62
2
 10
-2.47500031E+02
 20
1.12027557E+02
 11
-2.47500031E+02
 21
8.87921867E+01
  0
LINE
  8
0
 62
7
 10
-1.42035950E+02
 20
9.44999661E+01
 11
-1.38571854E+02
 21
1.00499965E+02
  0
LINE
  8
0
 62
7
 10
-1.48964081E+02
 20
9.44999962E+01
 11
-1.42035858E+02
 21
9.44999962E+01
  0
LINE
  8
0
 62
7
 10
-1.43499939E+02
 20
9.93452759E+01
 11
-1.43499939E+02
 21
1.01654663E+02
  0
LINE
  8
0
 62
7
 10
-1.45499974E+02
 20
9.81905354E+01
 11
-1.43499986E+02
 21
9.93452294E+01
  0
LINE
  8
0
 62
7
 10
-1.47500013E+02
 20
9.93451822E+01
 11
-1.45500025E+02
 21
9.81904882E+01
  0
LINE
  8
0
 62
7
 10
-1.47499969E+02
 20
1.01654846E+02
 11
-1.47499969E+02
 21
9.93452759E+01
  0
LINE
  8
0
  6
CENTER
 62
2
 10
-1.45499939E+02
 20
1.12027557E+02
 11
-1.45499939E+02
 21
8.87921867E+01
  0
LINE
  8
0
 62
7
 10
-1.48963994E+02
 20
9.45000800E+01
 11
-1.52428102E+02
 21
1.00500099E+02
  0
LINE
  8
0
 62
7
 10
-1.84500000E+02
 20
1.28000031E+02
 11
-1.33500000E+02
 21
1.28000031E+02
  0
LINE
  8
0
 62
7
 10
-2.06499963E+02
 20
1.29999932E+02
 11
-2.08499944E+02
 21
1.27999952E+02
  0
LINE
  8
0
 62
7
 10
-1.86499985E+02
 20
1.30000062E+02
 11
-1.84499983E+02
 21
1.28000059E+02
  0
LINE
  8
0
  6
CENTER
 62
2
 10
-1.96500000E+02
 20
1.23990601E+02
 11
-1.96500000E+02
 21
1.39548798E+02
  0
LINE
  8
0
 62
7
 10
-1.87000008E+02
 20
1.38000081E+02
 11
-1.86499975E+02
 21
1.37500048E+02
  0
LINE
  8
0
 62
7
 10
-2.05999895E+02
 20
1.37999941E+02
 11
-2.06499908E+02
 21
1.37499953E+02
  0
LINE
  8
0
 62
7
 10
-2.06000000E+02
 20
1.38000031E+02
 11
-1.87000031E+02
 21
1.38000031E+02
  0
LINE
  8
0
 62
7
 10
-1.86500000E+02
 20
1.30000061E+02
 11
-1.86500000E+02
 21
1.37500031E+02
  0
LINE
  8
0
 62
7
 10
-2.06500000E+02
 20
1.30000000E+02
 11
-2.06500000E+02
 21
1.37500061E+02
  0
ARC
  8
0
 62
7
 10
8.89999542E+01
 20
1.16000000E+02
 40
5.00000000E-01
 50
3.59999891E+02
 51
8.99998730E+01
  0
ARC
  8
0
 62
7
 10
-2.96250031E+02
 20
1.15508606E+02
 40
2.50000000E-01
 50
9.20007356E+01
 51
1.79999964E+02
  0
ARC
  8
0
 62
7
 10
-3.01000061E+02
 20
8.59999962E+01
 40
5.00000000E-01
 50
1.79999977E+02
 51
2.69999974E+02
  0
ARC
  8
0
 62
7
 10
-2.88000031E+02
 20
8.49999962E+01
 40
5.00000000E-01
 50
1.79999977E+02
 51
2.69999974E+02
  0
ARC
  8
0
 62
7
 10
-2.96250031E+02
 20
8.54913902E+01
 40
2.50000000E-01
 50
1.79999977E+02
 51
2.67999192E+02
  0
ARC
  8
0
 62
7
 10
-3.01000061E+02
 20
1.15000000E+02
 40
5.00000000E-01
 50
8.99999818E+01
 51
1.79999964E+02
  0
ARC
  8
0
 62
7
 10
8.89999542E+01
 20
8.49999962E+01
 40
5.00000000E-01
 50
2.70000073E+02
 51
5.46415133E-05
  0
ARC
  8
0
 62
7
 10
8.89999542E+01
 20
1.16000000E+02
 40
5.00000000E-01
 50
5.46415133E-05
 51
9.00000369E+01
  0
ARC
  8
0
 62
7
 10
-2.88000031E+02
 20
1.16000000E+02
 40
5.00000000E-01
 50
8.99999818E+01
 51
1.79999964E+02
  0
ARC
  8
0
 62
7
 10
-3.11500031E+02
 20
1.00500000E+02
 40
8.00000000E+00
 50
3.31044960E+02
 51
2.89550399E+01
  0
ARC
  8
0
 62
2
 10
-1.96500000E+02
 20
1.52743713E+02
 40
2.75000153E+01
 50
2.44127917E+02
 51
2.51597487E+02
  0
ARC
  8
0
 62
2
 10
-1.96500000E+02
 20
1.52743713E+02
 40
2.48450584E+01
 50
2.46265773E+02
 51
2.93734160E+02
  0
ARC
  8
0
 62
2
 10
-1.96500000E+02
 20
1.52743713E+02
 40
2.75000153E+01
 50
2.88402494E+02
 51
2.95872064E+02
  0
CIRCLE
  8
0
 62
7
 10
-2.47500031E+02
 20
1.00500000E+02
 40
4.00000000E+00
  0
CIRCLE
  8
0
 62
7
 10
-2.47500031E+02
 20
1.00500000E+02
 40
8.00000000E+00
  0
CIRCLE
  8
0
 62
7
 10
-2.47500031E+02
 20
1.00500000E+02
 40
3.29999995E+00
  0
CIRCLE
  8
0
 62
7
 10
-1.45499939E+02
 20
1.00500000E+02
 40
4.00000000E+00
  0
CIRCLE
  8
0
 62
7
 10
-1.45499939E+02
 20
1.00500000E+02
 40
3.29999995E+00
  0
CIRCLE
  8
0
 62
7
 10
-1.45499939E+02
 20
1.00500000E+02
 40
8.00000000E+00
  0
LINE
  8
0
 62
4
 10
-3.28017489E+02
 20
1.13201706E+02
 11
-3.21982450E+02
 21
1.13201706E+02
  0
LINE
  8
0
 62
4
 10
-3.28017489E+02
 20
1.06850853E+02
 11
-3.21982450E+02
 21
1.06850853E+02
  0
LINE
  8
0
 62
4
 10
-3.28017489E+02
 20
9.41491470E+01
 11
-3.21982450E+02
 21
9.41491470E+01
  0
LINE
  8
0
 62
4
 10
-3.28999969E+02
 20
8.95000000E+01
 11
-3.28999969E+02
 21
1.11500000E+02
  0
LINE
  8
0
 62
4
 10
-3.20999969E+02
 20
8.95000000E+01
 11
-3.20999969E+02
 21
1.11500000E+02
  0
LINE
  8
0
 62
4
 10
-3.28999970E+02
 20
1.11500000E+02
 11
-3.28017489E+02
 21
1.13201706E+02
  0
LINE
  8
0
 62
4
 10
-3.20999969E+02
 20
1.11500000E+02
 11
-3.21982450E+02
 21
1.13201706E+02
  0
LINE
  8
0
 62
4
 10
-3.28999970E+02
 20
8.95000001E+01
 11
-3.28017489E+02
 21
8.77982941E+01
  0
LINE
  8
0
 62
4
 10
-3.20999969E+02
 20
8.95000000E+01
 11
-3.21982450E+02
 21
8.77982939E+01
  0
LINE
  8
0
 62
4
 10
-3.28017489E+02
 20
8.77982941E+01
 11
-3.21982450E+02
 21
8.77982941E+01
  0
ARC
  8
0
 62
4
 10
-3.23377159E+02
 20
1.10026279E+02
 40
5.62281003E+00
 50
1.45615752E+02
 51
2.14384247E+02
  0
ARC
  8
0
 62
4
 10
-3.07982450E+02
 20
1.00500000E+02
 40
2.10175199E+01
 50
1.62412046E+02
 51
1.97587953E+02
  0
ARC
  8
0
 62
4
 10
-3.23377159E+02
 20
9.09737206E+01
 40
5.62281017E+00
 50
1.45615753E+02
 51
2.14384247E+02
  0
ARC
  8
0
 62
4
 10
-3.26622780E+02
 20
1.10026279E+02
 40
5.62281003E+00
 50
3.25615753E+02
 51
3.43842476E+01
  0
ARC
  8
0
 62
4
 10
-3.42017489E+02
 20
1.00500000E+02
 40
2.10175199E+01
 50
3.42412047E+02
 51
1.75879537E+01
  0
ARC
  8
0
 62
4
 10
-3.26622780E+02
 20
9.09737206E+01
 40
5.62281017E+00
 50
3.25615753E+02
 51
3.43842467E+01
  0
LINE
  8
0
 62
7
 10
-3.20999969E+02
 20
9.34999657E+01
 11
-3.14500031E+02
 21
9.34999657E+01
  0
LINE
  8
0
 62
7
 10
-3.20999969E+02
 20
1.07499985E+02
 11
-3.14500031E+02
 21
1.07499985E+02
  0
LINE
  8
0
 62
2
 10
-3.20999969E+02
 20
1.06679993E+02
 11
-3.14500031E+02
 21
1.06679993E+02
  0
LINE
  8
0
 62
2
 10
-3.20999969E+02
 20
9.43199577E+01
 11
-3.14500031E+02
 21
9.43199577E+01
  0
LINE
  8
0
 62
4
 10
-9.00004578E+00
 20
1.27489851E+02
 11
-9.00004578E+00
 21
1.39006438E+02
  0
LINE
  8
0
 62
6
 10
1.17320661E+01
 20
1.28989851E+02
 11
8.26796449E+00
 21
1.22989851E+02
  0
LINE
  8
0
 62
6
 10
-7.32096601E-01
 20
1.22989851E+02
 11
2.73200501E+00
 21
1.28989851E+02
  0
LINE
  8
0
 62
4
 10
2.00000153E+01
 20
1.27489851E+02
 11
1.08660407E+01
 21
1.27489851E+02
  0
LINE
  8
0
  6
CENTER
 62
6
 10
5.50000153E+01
 20
1.25989851E+02
 11
8.00001527E+00
 21
1.25989851E+02
  0
LINE
  8
0
 62
4
 10
2.00000153E+01
 20
1.24489851E+02
 11
9.13398986E+00
 21
1.24489851E+02
  0
LINE
  8
0
 62
4
 10
-1.55000458E+01
 20
1.24489851E+02
 11
1.33928839E-01
 21
1.24489851E+02
  0
LINE
  8
0
  6
CENTER
 62
6
 10
-4.40000458E+01
 20
1.25989851E+02
 11
2.99995423E+00
 21
1.25989851E+02
  0
LINE
  8
0
 62
4
 10
-1.55000458E+01
 20
1.27489851E+02
 11
1.86597963E+00
 21
1.27489851E+02
  0
LINE
  8
0
 62
4
 10
-1.55000458E+01
 20
1.24489851E+02
 11
-9.00004578E+00
 21
1.24489851E+02
  0
LINE
  8
0
 62
4
 10
-1.55000458E+01
 20
1.27489851E+02
 11
-9.00004578E+00
 21
1.27489851E+02
  0
LINE
  8
0
 62
4
 10
5.14999542E+01
 20
1.27298906E+02
 11
5.14999542E+01
 21
1.24675004E+02
  0
LINE
  8
0
 62
4
 10
5.14999542E+01
 20
1.24675004E+02
 11
4.99999542E+01
 21
1.23672939E+02
  0
LINE
  8
0
 62
4
 10
5.14999542E+01
 20
1.25068317E+02
 11
4.99999542E+01
 21
1.24367532E+02
  0
LINE
  8
0
 62
4
 10
4.99999542E+01
 20
1.28306763E+02
 11
5.14999542E+01
 21
1.27298906E+02
  0
LINE
  8
0
 62
4
 10
-2.10628009E+01
 20
1.28306763E+02
 11
-1.55000458E+01
 21
1.28306763E+02
  0
LINE
  8
0
 62
4
 10
-2.06629228E+01
 20
1.28764437E+02
 11
-9.00004578E+00
 21
1.28764437E+02
  0
LINE
  8
0
  6
CENTER
 62
6
 10
-1.40000458E+01
 20
1.34574803E+02
 11
-1.90000458E+01
 21
1.34574803E+02
  0
LINE
  8
0
  6
CENTER
 62
6
 10
-1.65000458E+01
 20
1.37074803E+02
 11
-1.65000458E+01
 21
1.32074803E+02
  0
LINE
  8
0
  6
CENTER
 62
6
 10
-2.15000458E+01
 20
1.31127976E+02
 11
-2.65000458E+01
 21
1.31127976E+02
  0
LINE
  8
0
  6
CENTER
 62
6
 10
-2.40000458E+01
 20
1.33627976E+02
 11
-2.40000458E+01
 21
1.28627976E+02
  0
LINE
  8
0
  6
CENTER
 62
6
 10
-2.90000458E+01
 20
1.34574803E+02
 11
-3.40000458E+01
 21
1.34574803E+02
  0
LINE
  8
0
  6
CENTER
 62
6
 10
-3.15000458E+01
 20
1.37074803E+02
 11
-3.15000458E+01
 21
1.32074803E+02
  0
POLYLINE
  8
0
 62
4
 66
1
  0
VERTEX
  8
0
 62
4
 10
-2.81500458E+01
 20
1.31193962E+02
  0
VERTEX
  8
0
 62
4
 10
-2.81333391E+01
 20
1.30827610E+02
  0
VERTEX
  8
0
 62
4
 10
-2.80833536E+01
 20
1.30464209E+02
  0
VERTEX
  8
0
 62
4
 10
-2.80004917E+01
 20
1.30106682E+02
  0
VERTEX
  8
0
 62
4
 10
-2.78854205E+01
 20
1.29757910E+02
  0
VERTEX
  8
0
 62
4
 10
-2.77390666E+01
 20
1.29420700E+02
  0
VERTEX
  8
0
 62
4
 10
-2.75626083E+01
 20
1.29097767E+02
  0
VERTEX
  8
0
 62
4
 10
-2.73574663E+01
 20
1.28791712E+02
  0
VERTEX
  8
0
 62
4
 10
-2.71252924E+01
 20
1.28504998E+02
  0
VERTEX
  8
0
 62
4
 10
-2.68679558E+01
 20
1.28239934E+02
  0
VERTEX
  8
0
 62
4
 10
-2.65875285E+01
 20
1.27998654E+02
  0
VERTEX
  8
0
 62
4
 10
-2.62862683E+01
 20
1.27783101E+02
  0
VERTEX
  8
0
 62
4
 10
-2.59666008E+01
 20
1.27595010E+02
  0
VERTEX
  8
0
 62
4
 10
-2.56310997E+01
 20
1.27435896E+02
  0
VERTEX
  8
0
 62
4
 10
-2.52824663E+01
 20
1.27307040E+02
  0
VERTEX
  8
0
 62
4
 10
-2.49235077E+01
 20
1.27209478E+02
  0
VERTEX
  8
0
 62
4
 10
-2.45571139E+01
 20
1.27143998E+02
  0
VERTEX
  8
0
 62
4
 10
-2.41862349E+01
 20
1.27111125E+02
  0
VERTEX
  8
0
 62
4
 10
-2.38138568E+01
 20
1.27111125E+02
  0
VERTEX
  8
0
 62
4
 10
-2.34429778E+01
 20
1.27143998E+02
  0
VERTEX
  8
0
 62
4
 10
-2.30765839E+01
 20
1.27209478E+02
  0
VERTEX
  8
0
 62
4
 10
-2.27176253E+01
 20
1.27307039E+02
  0
VERTEX
  8
0
 62
4
 10
-2.23689919E+01
 20
1.27435896E+02
  0
VERTEX
  8
0
 62
4
 10
-2.20334909E+01
 20
1.27595010E+02
  0
VERTEX
  8
0
 62
4
 10
-2.17138233E+01
 20
1.27783101E+02
  0
VERTEX
  8
0
 62
4
 10
-2.14125631E+01
 20
1.27998654E+02
  0
VERTEX
  8
0
 62
4
 10
-2.11321358E+01
 20
1.28239934E+02
  0
VERTEX
  8
0
 62
4
 10
-2.08747992E+01
 20
1.28504998E+02
  0
VERTEX
  8
0
 62
4
 10
-2.06426253E+01
 20
1.28791712E+02
  0
VERTEX
  8
0
 62
4
 10
-2.04374833E+01
 20
1.29097767E+02
  0
VERTEX
  8
0
 62
4
 10
-2.02610250E+01
 20
1.29420700E+02
  0
VERTEX
  8
0
 62
4
 10
-2.01146711E+01
 20
1.29757910E+02
  0
VERTEX
  8
0
 62
4
 10
-1.99995999E+01
 20
1.30106682E+02
  0
VERTEX
  8
0
 62
4
 10
-1.99167380E+01
 20
1.30464208E+02
  0
VERTEX
  8
0
 62
4
 10
-1.98667525E+01
 20
1.30827610E+02
  0
VERTEX
  8
0
 62
4
 10
-1.98500458E+01
 20
1.31193962E+02
  0
SEQEND
  8
0
  0
POLYLINE
  8
0
 62
4
 66
1
  0
VERTEX
  8
0
 62
4
 10
-1.98500458E+01
 20
1.31499583E+02
  0
VERTEX
  8
0
 62
4
 10
-1.98658378E+01
 20
1.31855784E+02
  0
VERTEX
  8
0
 62
4
 10
-1.99130936E+01
 20
1.32209275E+02
  0
VERTEX
  8
0
 62
4
 10
-1.99914536E+01
 20
1.32557364E+02
  0
VERTEX
  8
0
 62
4
 10
-2.01003214E+01
 20
1.32897403E+02
  0
VERTEX
  8
0
 62
4
 10
-2.02388685E+01
 20
1.33226804E+02
  0
VERTEX
  8
0
 62
4
 10
-2.04060404E+01
 20
1.33543059E+02
  0
VERTEX
  8
0
 62
4
 10
-2.06005648E+01
 20
1.33843762E+02
  0
VERTEX
  8
0
 62
4
 10
-2.08209614E+01
 20
1.34126625E+02
  0
VERTEX
  8
0
 62
4
 10
-2.10655527E+01
 20
1.34389495E+02
  0
VERTEX
  8
0
 62
4
 10
-2.13324772E+01
 20
1.34630370E+02
  0
VERTEX
  8
0
 62
4
 10
-2.16197036E+01
 20
1.34847418E+02
  0
VERTEX
  8
0
 62
4
 10
-2.19250458E+01
 20
1.35038987E+02
  0
VERTEX
  8
0
 62
4
 10
-2.22461800E+01
 20
1.35203620E+02
  0
VERTEX
  8
0
 62
4
 10
-2.25806622E+01
 20
1.35340062E+02
  0
VERTEX
  8
0
 62
4
 10
-2.29259468E+01
 20
1.35447276E+02
  0
VERTEX
  8
0
 62
4
 10
-2.32794059E+01
 20
1.35524445E+02
  0
VERTEX
  8
0
 62
4
 10
-2.36383495E+01
 20
1.35570983E+02
  0
VERTEX
  8
0
 62
4
 10
-2.40000458E+01
 20
1.35586535E+02
  0
VERTEX
  8
0
 62
4
 10
-2.43617421E+01
 20
1.35570983E+02
  0
VERTEX
  8
0
 62
4
 10
-2.47206857E+01
 20
1.35524445E+02
  0
VERTEX
  8
0
 62
4
 10
-2.50741448E+01
 20
1.35447276E+02
  0
VERTEX
  8
0
 62
4
 10
-2.54194294E+01
 20
1.35340062E+02
  0
VERTEX
  8
0
 62
4
 10
-2.57539116E+01
 20
1.35203620E+02
  0
VERTEX
  8
0
 62
4
 10
-2.60750458E+01
 20
1.35038987E+02
  0
VERTEX
  8
0
 62
4
 10
-2.63803880E+01
 20
1.34847418E+02
  0
VERTEX
  8
0
 62
4
 10
-2.66676144E+01
 20
1.34630370E+02
  0
VERTEX
  8
0
 62
4
 10
-2.69345389E+01
 20
1.34389495E+02
  0
VERTEX
  8
0
 62
4
 10
-2.71791302E+01
 20
1.34126625E+02
  0
VERTEX
  8
0
 62
4
 10
-2.73995268E+01
 20
1.33843762E+02
  0
VERTEX
  8
0
 62
4
 10
-2.75940512E+01
 20
1.33543059E+02
  0
VERTEX
  8
0
 62
4
 10
-2.77612231E+01
 20
1.33226804E+02
  0
VERTEX
  8
0
 62
4
 10
-2.78997702E+01
 20
1.32897403E+02
  0
VERTEX
  8
0
 62
4
 10
-2.80086380E+01
 20
1.32557364E+02
  0
VERTEX
  8
0
 62
4
 10
-2.80869980E+01
 20
1.32209275E+02
  0
VERTEX
  8
0
 62
4
 10
-2.81342538E+01
 20
1.31855784E+02
  0
VERTEX
  8
0
 62
4
 10
-2.81500458E+01
 20
1.31499583E+02
  0
VERTEX
  8
0
 62
4
 10
-2.81342538E+01
 20
1.31143382E+02
  0
VERTEX
  8
0
 62
4
 10
-2.80869980E+01
 20
1.30789891E+02
  0
VERTEX
  8
0
 62
4
 10
-2.80086380E+01
 20
1.30441802E+02
  0
VERTEX
  8
0
 62
4
 10
-2.78997702E+01
 20
1.30101763E+02
  0
VERTEX
  8
0
 62
4
 10
-2.77612231E+01
 20
1.29772362E+02
  0
VERTEX
  8
0
 62
4
 10
-2.75940512E+01
 20
1.29456107E+02
  0
VERTEX
  8
0
 62
4
 10
-2.73995268E+01
 20
1.29155404E+02
  0
VERTEX
  8
0
 62
4
 10
-2.71791302E+01
 20
1.28872541E+02
  0
VERTEX
  8
0
 62
4
 10
-2.69345389E+01
 20
1.28609671E+02
  0
VERTEX
  8
0
 62
4
 10
-2.66676144E+01
 20
1.28368796E+02
  0
VERTEX
  8
0
 62
4
 10
-2.63803880E+01
 20
1.28151748E+02
  0
VERTEX
  8
0
 62
4
 10
-2.60750458E+01
 20
1.27960179E+02
  0
VERTEX
  8
0
 62
4
 10
-2.57539116E+01
 20
1.27795546E+02
  0
VERTEX
  8
0
 62
4
 10
-2.54194294E+01
 20
1.27659104E+02
  0
VERTEX
  8
0
 62
4
 10
-2.50741448E+01
 20
1.27551890E+02
  0
VERTEX
  8
0
 62
4
 10
-2.47206857E+01
 20
1.27474721E+02
  0
VERTEX
  8
0
 62
4
 10
-2.43617421E+01
 20
1.27428183E+02
  0
VERTEX
  8
0
 62
4
 10
-2.40000458E+01
 20
1.27412631E+02
  0
VERTEX
  8
0
 62
4
 10
-2.36383495E+01
 20
1.27428183E+02
  0
VERTEX
  8
0
 62
4
 10
-2.32794059E+01
 20
1.27474721E+02
  0
VERTEX
  8
0
 62
4
 10
-2.29259468E+01
 20
1.27551890E+02
  0
VERTEX
  8
0
 62
4
 10
-2.25806622E+01
 20
1.27659104E+02
  0
VERTEX
  8
0
 62
4
 10
-2.22461800E+01
 20
1.27795546E+02
  0
VERTEX
  8
0
 62
4
 10
-2.19250458E+01
 20
1.27960179E+02
  0
VERTEX
  8
0
 62
4
 10
-2.16197036E+01
 20
1.28151748E+02
  0
VERTEX
  8
0
 62
4
 10
-2.13324772E+01
 20
1.28368796E+02
  0
VERTEX
  8
0
 62
4
 10
-2.10655527E+01
 20
1.28609671E+02
  0
VERTEX
  8
0
 62
4
 10
-2.08209614E+01
 20
1.28872541E+02
  0
VERTEX
  8
0
 62
4
 10
-2.06005648E+01
 20
1.29155404E+02
  0
VERTEX
  8
0
 62
4
 10
-2.04060404E+01
 20
1.29456107E+02
  0
VERTEX
  8
0
 62
4
 10
-2.02388685E+01
 20
1.29772362E+02
  0
VERTEX
  8
0
 62
4
 10
-2.01003214E+01
 20
1.30101763E+02
  0
VERTEX
  8
0
 62
4
 10
-1.99914536E+01
 20
1.30441802E+02
  0
VERTEX
  8
0
 62
4
 10
-1.99130936E+01
 20
1.30789891E+02
  0
VERTEX
  8
0
 62
4
 10
-1.98658378E+01
 20
1.31143382E+02
  0
VERTEX
  8
0
 62
4
 10
-1.98500458E+01
 20
1.31499583E+02
  0
SEQEND
  8
0
  0
LINE
  8
0
 62
4
 10
-2.81500458E+01
 20
1.31193962E+02
 11
-2.81500458E+01
 21
1.31499583E+02
  0
LINE
  8
0
 62
4
 10
-1.98500458E+01
 20
1.31193962E+02
 11
-1.98500458E+01
 21
1.31499583E+02
  0
ARC
  8
0
 62
4
 10
1.08372777E+02
 20
-2.79991014E+00
 40
1.88658103E+02
 50
1.33811210E+02
 51
1.35318357E+02
  0
ARC
  8
0
 62
4
 10
-1.56372580E+02
 20
-2.79961712E+00
 40
1.88657692E+02
 50
4.46816411E+01
 51
4.61887918E+01
  0
LINE
  8
0
 62
4
 10
-2.03000458E+01
 20
1.34574803E+02
 11
-2.03000458E+01
 21
1.34748451E+02
  0
POLYLINE
  8
0
 62
4
 66
1
  0
VERTEX
  8
0
 62
4
 10
-2.03000458E+01
 20
1.34574803E+02
  0
VERTEX
  8
0
 62
4
 10
-2.02847481E+01
 20
1.34239349E+02
  0
VERTEX
  8
0
 62
4
 10
-2.02389783E+01
 20
1.33906595E+02
  0
VERTEX
  8
0
 62
4
 10
-2.01631047E+01
 20
1.33579221E+02
  0
VERTEX
  8
0
 62
4
 10
-2.00577383E+01
 20
1.33259864E+02
  0
VERTEX
  8
0
 62
4
 10
-1.99237275E+01
 20
1.32951093E+02
  0
VERTEX
  8
0
 62
4
 10
-1.97621512E+01
 20
1.32655396E+02
  0
VERTEX
  8
0
 62
4
 10
-1.95743104E+01
 20
1.32375152E+02
  0
VERTEX
  8
0
 62
4
 10
-1.93617174E+01
 20
1.32112619E+02
  0
VERTEX
  8
0
 62
4
 10
-1.91260839E+01
 20
1.31869910E+02
  0
VERTEX
  8
0
 62
4
 10
-1.88693071E+01
 20
1.31648979E+02
  0
VERTEX
  8
0
 62
4
 10
-1.85934544E+01
 20
1.31451605E+02
  0
VERTEX
  8
0
 62
4
 10
-1.83007467E+01
 20
1.31279377E+02
  0
VERTEX
  8
0
 62
4
 10
-1.79935409E+01
 20
1.31133682E+02
  0
VERTEX
  8
0
 62
4
 10
-1.76743104E+01
 20
1.31015693E+02
  0
VERTEX
  8
0
 62
4
 10
-1.73456254E+01
 20
1.30926360E+02
  0
VERTEX
  8
0
 62
4
 10
-1.70101322E+01
 20
1.30866402E+02
  0
VERTEX
  8
0
 62
4
 10
-1.66705322E+01
 20
1.30836302E+02
  0
VERTEX
  8
0
 62
4
 10
-1.63295595E+01
 20
1.30836302E+02
  0
VERTEX
  8
0
 62
4
 10
-1.59899594E+01
 20
1.30866402E+02
  0
VERTEX
  8
0
 62
4
 10
-1.56544663E+01
 20
1.30926360E+02
  0
VERTEX
  8
0
 62
4
 10
-1.53257812E+01
 20
1.31015693E+02
  0
VERTEX
  8
0
 62
4
 10
-1.50065507E+01
 20
1.31133682E+02
  0
VERTEX
  8
0
 62
4
 10
-1.46993449E+01
 20
1.31279377E+02
  0
VERTEX
  8
0
 62
4
 10
-1.44066373E+01
 20
1.31451605E+02
  0
VERTEX
  8
0
 62
4
 10
-1.41307846E+01
 20
1.31648979E+02
  0
VERTEX
  8
0
 62
4
 10
-1.38740077E+01
 20
1.31869910E+02
  0
VERTEX
  8
0
 62
4
 10
-1.36383742E+01
 20
1.32112619E+02
  0
VERTEX
  8
0
 62
4
 10
-1.34257812E+01
 20
1.32375152E+02
  0
VERTEX
  8
0
 62
4
 10
-1.32379404E+01
 20
1.32655396E+02
  0
VERTEX
  8
0
 62
4
 10
-1.30763641E+01
 20
1.32951093E+02
  0
VERTEX
  8
0
 62
4
 10
-1.29423533E+01
 20
1.33259864E+02
  0
VERTEX
  8
0
 62
4
 10
-1.28369869E+01
 20
1.33579221E+02
  0
VERTEX
  8
0
 62
4
 10
-1.27611133E+01
 20
1.33906595E+02
  0
VERTEX
  8
0
 62
4
 10
-1.27153435E+01
 20
1.34239349E+02
  0
VERTEX
  8
0
 62
4
 10
-1.27000458E+01
 20
1.34574803E+02
  0
SEQEND
  8
0
  0
POLYLINE
  8
0
 62
4
 66
1
  0
VERTEX
  8
0
 62
4
 10
-2.03000458E+01
 20
1.34748451E+02
  0
VERTEX
  8
0
 62
4
 10
-2.02855857E+01
 20
1.34422291E+02
  0
VERTEX
  8
0
 62
4
 10
-2.02423153E+01
 20
1.34098613E+02
  0
VERTEX
  8
0
 62
4
 10
-2.01705640E+01
 20
1.33779880E+02
  0
VERTEX
  8
0
 62
4
 10
-2.00708778E+01
 20
1.33468519E+02
  0
VERTEX
  8
0
 62
4
 10
-1.99440154E+01
 20
1.33166900E+02
  0
VERTEX
  8
0
 62
4
 10
-1.97909424E+01
 20
1.32877316E+02
  0
VERTEX
  8
0
 62
4
 10
-1.96128236E+01
 20
1.32601973E+02
  0
VERTEX
  8
0
 62
4
 10
-1.94110147E+01
 20
1.32342967E+02
  0
VERTEX
  8
0
 62
4
 10
-1.91870516E+01
 20
1.32102267E+02
  0
VERTEX
  8
0
 62
4
 10
-1.89426387E+01
 20
1.31881706E+02
  0
VERTEX
  8
0
 62
4
 10
-1.86796363E+01
 20
1.31682963E+02
  0
VERTEX
  8
0
 62
4
 10
-1.84000458E+01
 20
1.31507551E+02
  0
VERTEX
  8
0
 62
4
 10
-1.81059952E+01
 20
1.31356803E+02
  0
VERTEX
  8
0
 62
4
 10
-1.77997224E+01
 20
1.31231868E+02
  0
VERTEX
  8
0
 62
4
 10
-1.74835582E+01
 20
1.31133696E+02
  0
VERTEX
  8
0
 62
4
 10
-1.71599089E+01
 20
1.31063035E+02
  0
VERTEX
  8
0
 62
4
 10
-1.68312376E+01
 20
1.31020422E+02
  0
VERTEX
  8
0
 62
4
 10
-1.65000458E+01
 20
1.31006182E+02
  0
VERTEX
  8
0
 62
4
 10
-1.61688540E+01
 20
1.31020422E+02
  0
VERTEX
  8
0
 62
4
 10
-1.58401827E+01
 20
1.31063035E+02
  0
VERTEX
  8
0
 62
4
 10
-1.55165334E+01
 20
1.31133696E+02
  0
VERTEX
  8
0
 62
4
 10
-1.52003693E+01
 20
1.31231868E+02
  0
VERTEX
  8
0
 62
4
 10
-1.48940964E+01
 20
1.31356803E+02
  0
VERTEX
  8
0
 62
4
 10
-1.46000458E+01
 20
1.31507551E+02
  0
VERTEX
  8
0
 62
4
 10
-1.43204553E+01
 20
1.31682963E+02
  0
VERTEX
  8
0
 62
4
 10
-1.40574529E+01
 20
1.31881706E+02
  0
VERTEX
  8
0
 62
4
 10
-1.38130400E+01
 20
1.32102267E+02
  0
VERTEX
  8
0
 62
4
 10
-1.35890769E+01
 20
1.32342967E+02
  0
VERTEX
  8
0
 62
4
 10
-1.33872680E+01
 20
1.32601973E+02
  0
VERTEX
  8
0
 62
4
 10
-1.32091492E+01
 20
1.32877316E+02
  0
VERTEX
  8
0
 62
4
 10
-1.30560762E+01
 20
1.33166900E+02
  0
VERTEX
  8
0
 62
4
 10
-1.29292138E+01
 20
1.33468519E+02
  0
VERTEX
  8
0
 62
4
 10
-1.28295276E+01
 20
1.33779880E+02
  0
VERTEX
  8
0
 62
4
 10
-1.27577763E+01
 20
1.34098613E+02
  0
VERTEX
  8
0
 62
4
 10
-1.27145059E+01
 20
1.34422291E+02
  0
VERTEX
  8
0
 62
4
 10
-1.27000458E+01
 20
1.34748451E+02
  0
VERTEX
  8
0
 62
4
 10
-1.27145059E+01
 20
1.35074611E+02
  0
VERTEX
  8
0
 62
4
 10
-1.27577763E+01
 20
1.35398289E+02
  0
VERTEX
  8
0
 62
4
 10
-1.28295276E+01
 20
1.35717022E+02
  0
VERTEX
  8
0
 62
4
 10
-1.29292138E+01
 20
1.36028383E+02
  0
VERTEX
  8
0
 62
4
 10
-1.30560762E+01
 20
1.36330002E+02
  0
VERTEX
  8
0
 62
4
 10
-1.32091492E+01
 20
1.36619586E+02
  0
VERTEX
  8
0
 62
4
 10
-1.33872680E+01
 20
1.36894929E+02
  0
VERTEX
  8
0
 62
4
 10
-1.35890769E+01
 20
1.37153935E+02
  0
VERTEX
  8
0
 62
4
 10
-1.38130400E+01
 20
1.37394635E+02
  0
VERTEX
  8
0
 62
4
 10
-1.40574529E+01
 20
1.37615196E+02
  0
VERTEX
  8
0
 62
4
 10
-1.43204553E+01
 20
1.37813939E+02
  0
VERTEX
  8
0
 62
4
 10
-1.46000458E+01
 20
1.37989351E+02
  0
VERTEX
  8
0
 62
4
 10
-1.48940964E+01
 20
1.38140099E+02
  0
VERTEX
  8
0
 62
4
 10
-1.52003692E+01
 20
1.38265034E+02
  0
VERTEX
  8
0
 62
4
 10
-1.55165334E+01
 20
1.38363206E+02
  0
VERTEX
  8
0
 62
4
 10
-1.58401827E+01
 20
1.38433867E+02
  0
VERTEX
  8
0
 62
4
 10
-1.61688540E+01
 20
1.38476480E+02
  0
VERTEX
  8
0
 62
4
 10
-1.65000458E+01
 20
1.38490720E+02
  0
VERTEX
  8
0
 62
4
 10
-1.68312376E+01
 20
1.38476480E+02
  0
VERTEX
  8
0
 62
4
 10
-1.71599089E+01
 20
1.38433867E+02
  0
VERTEX
  8
0
 62
4
 10
-1.74835582E+01
 20
1.38363206E+02
  0
VERTEX
  8
0
 62
4
 10
-1.77997224E+01
 20
1.38265034E+02
  0
VERTEX
  8
0
 62
4
 10
-1.81059952E+01
 20
1.38140099E+02
  0
VERTEX
  8
0
 62
4
 10
-1.84000458E+01
 20
1.37989351E+02
  0
VERTEX
  8
0
 62
4
 10
-1.86796363E+01
 20
1.37813939E+02
  0
VERTEX
  8
0
 62
4
 10
-1.89426387E+01
 20
1.37615196E+02
  0
VERTEX
  8
0
 62
4
 10
-1.91870516E+01
 20
1.37394635E+02
  0
VERTEX
  8
0
 62
4
 10
-1.94110147E+01
 20
1.37153935E+02
  0
VERTEX
  8
0
 62
4
 10
-1.96128236E+01
 20
1.36894929E+02
  0
VERTEX
  8
0
 62
4
 10
-1.97909424E+01
 20
1.36619586E+02
  0
VERTEX
  8
0
 62
4
 10
-1.99440154E+01
 20
1.36330002E+02
  0
VERTEX
  8
0
 62
4
 10
-2.00708778E+01
 20
1.36028383E+02
  0
VERTEX
  8
0
 62
4
 10
-2.01705640E+01
 20
1.35717022E+02
  0
VERTEX
  8
0
 62
4
 10
-2.02423153E+01
 20
1.35398289E+02
  0
VERTEX
  8
0
 62
4
 10
-2.02855857E+01
 20
1.35074611E+02
  0
VERTEX
  8
0
 62
4
 10
-2.03000458E+01
 20
1.34748451E+02
  0
SEQEND
  8
0
  0
LINE
  8
0
 62
4
 10
-1.27000458E+01
 20
1.34574803E+02
 11
-1.27000458E+01
 21
1.34748451E+02
  0
LINE
  8
0
 62
4
 10
-1.99000458E+01
 20
1.34748451E+02
 11
-1.99000458E+01
 21
1.34944813E+02
  0
POLYLINE
  8
0
 62
4
 66
1
  0
VERTEX
  8
0
 62
4
 10
-1.99000458E+01
 20
1.34748451E+02
  0
VERTEX
  8
0
 62
4
 10
-1.98863584E+01
 20
1.34448308E+02
  0
VERTEX
  8
0
 62
4
 10
-1.98454064E+01
 20
1.34150581E+02
  0
VERTEX
  8
0
 62
4
 10
-1.97775196E+01
 20
1.33857668E+02
  0
VERTEX
  8
0
 62
4
 10
-1.96832444E+01
 20
1.33571926E+02
  0
VERTEX
  8
0
 62
4
 10
-1.95633400E+01
 20
1.33295658E+02
  0
VERTEX
  8
0
 62
4
 10
-1.94187717E+01
 20
1.33031087E+02
  0
VERTEX
  8
0
 62
4
 10
-1.92507036E+01
 20
1.32780342E+02
  0
VERTEX
  8
0
 62
4
 10
-1.90604888E+01
 20
1.32545444E+02
  0
VERTEX
  8
0
 62
4
 10
-1.88496588E+01
 20
1.32328283E+02
  0
VERTEX
  8
0
 62
4
 10
-1.86199112E+01
 20
1.32130608E+02
  0
VERTEX
  8
0
 62
4
 10
-1.83730956E+01
 20
1.31954011E+02
  0
VERTEX
  8
0
 62
4
 10
-1.81111993E+01
 20
1.31799912E+02
  0
VERTEX
  8
0
 62
4
 10
-1.78363309E+01
 20
1.31669554E+02
  0
VERTEX
  8
0
 62
4
 10
-1.75507036E+01
 20
1.31563984E+02
  0
VERTEX
  8
0
 62
4
 10
-1.72566170E+01
 20
1.31484055E+02
  0
VERTEX
  8
0
 62
4
 10
-1.69564389E+01
 20
1.31430408E+02
  0
VERTEX
  8
0
 62
4
 10
-1.66525862E+01
 20
1.31403476E+02
  0
VERTEX
  8
0
 62
4
 10
-1.63475054E+01
 20
1.31403476E+02
  0
VERTEX
  8
0
 62
4
 10
-1.60436527E+01
 20
1.31430408E+02
  0
VERTEX
  8
0
 62
4
 10
-1.57434746E+01
 20
1.31484055E+02
  0
VERTEX
  8
0
 62
4
 10
-1.54493880E+01
 20
1.31563984E+02
  0
VERTEX
  8
0
 62
4
 10
-1.51637607E+01
 20
1.31669554E+02
  0
VERTEX
  8
0
 62
4
 10
-1.48888924E+01
 20
1.31799912E+02
  0
VERTEX
  8
0
 62
4
 10
-1.46269961E+01
 20
1.31954011E+02
  0
VERTEX
  8
0
 62
4
 10
-1.43801805E+01
 20
1.32130608E+02
  0
VERTEX
  8
0
 62
4
 10
-1.41504328E+01
 20
1.32328283E+02
  0
VERTEX
  8
0
 62
4
 10
-1.39396028E+01
 20
1.32545444E+02
  0
VERTEX
  8
0
 62
4
 10
-1.37493880E+01
 20
1.32780342E+02
  0
VERTEX
  8
0
 62
4
 10
-1.35813199E+01
 20
1.33031087E+02
  0
VERTEX
  8
0
 62
4
 10
-1.34367516E+01
 20
1.33295658E+02
  0
VERTEX
  8
0
 62
4
 10
-1.33168472E+01
 20
1.33571926E+02
  0
VERTEX
  8
0
 62
4
 10
-1.32225721E+01
 20
1.33857667E+02
  0
VERTEX
  8
0
 62
4
 10
-1.31546852E+01
 20
1.34150581E+02
  0
VERTEX
  8
0
 62
4
 10
-1.31137332E+01
 20
1.34448308E+02
  0
VERTEX
  8
0
 62
4
 10
-1.31000458E+01
 20
1.34748451E+02
  0
SEQEND
  8
0
  0
POLYLINE
  8
0
 62
4
 66
1
  0
VERTEX
  8
0
 62
4
 10
-1.99000458E+01
 20
1.34944813E+02
  0
VERTEX
  8
0
 62
4
 10
-1.98871078E+01
 20
1.34652985E+02
  0
VERTEX
  8
0
 62
4
 10
-1.98483922E+01
 20
1.34363379E+02
  0
VERTEX
  8
0
 62
4
 10
-1.97841936E+01
 20
1.34078197E+02
  0
VERTEX
  8
0
 62
4
 10
-1.96950007E+01
 20
1.33799611E+02
  0
VERTEX
  8
0
 62
4
 10
-1.95814923E+01
 20
1.33529741E+02
  0
VERTEX
  8
0
 62
4
 10
-1.94445322E+01
 20
1.33270640E+02
  0
VERTEX
  8
0
 62
4
 10
-1.92851628E+01
 20
1.33024280E+02
  0
VERTEX
  8
0
 62
4
 10
-1.91045969E+01
 20
1.32792537E+02
  0
VERTEX
  8
0
 62
4
 10
-1.89042089E+01
 20
1.32577174E+02
  0
VERTEX
  8
0
 62
4
 10
-1.86855237E+01
 20
1.32379831E+02
  0
VERTEX
  8
0
 62
4
 10
-1.84502057E+01
 20
1.32202008E+02
  0
VERTEX
  8
0
 62
4
 10
-1.82000458E+01
 20
1.32045060E+02
  0
VERTEX
  8
0
 62
4
 10
-1.79369479E+01
 20
1.31910180E+02
  0
VERTEX
  8
0
 62
4
 10
-1.76629143E+01
 20
1.31798396E+02
  0
VERTEX
  8
0
 62
4
 10
-1.73800306E+01
 20
1.31710558E+02
  0
VERTEX
  8
0
 62
4
 10
-1.70904496E+01
 20
1.31647335E+02
  0
VERTEX
  8
0
 62
4
 10
-1.67963753E+01
 20
1.31609208E+02
  0
VERTEX
  8
0
 62
4
 10
-1.65000458E+01
 20
1.31596466E+02
  0
VERTEX
  8
0
 62
4
 10
-1.62037163E+01
 20
1.31609208E+02
  0
VERTEX
  8
0
 62
4
 10
-1.59096420E+01
 20
1.31647335E+02
  0
VERTEX
  8
0
 62
4
 10
-1.56200610E+01
 20
1.31710558E+02
  0
VERTEX
  8
0
 62
4
 10
-1.53371773E+01
 20
1.31798396E+02
  0
VERTEX
  8
0
 62
4
 10
-1.50631437E+01
 20
1.31910180E+02
  0
VERTEX
  8
0
 62
4
 10
-1.48000458E+01
 20
1.32045060E+02
  0
VERTEX
  8
0
 62
4
 10
-1.45498859E+01
 20
1.32202008E+02
  0
VERTEX
  8
0
 62
4
 10
-1.43145679E+01
 20
1.32379831E+02
  0
VERTEX
  8
0
 62
4
 10
-1.40958827E+01
 20
1.32577174E+02
  0
VERTEX
  8
0
 62
4
 10
-1.38954947E+01
 20
1.32792537E+02
  0
VERTEX
  8
0
 62
4
 10
-1.37149288E+01
 20
1.33024280E+02
  0
VERTEX
  8
0
 62
4
 10
-1.35555594E+01
 20
1.33270640E+02
  0
VERTEX
  8
0
 62
4
 10
-1.34185993E+01
 20
1.33529741E+02
  0
VERTEX
  8
0
 62
4
 10
-1.33050909E+01
 20
1.33799611E+02
  0
VERTEX
  8
0
 62
4
 10
-1.32158980E+01
 20
1.34078197E+02
  0
VERTEX
  8
0
 62
4
 10
-1.31516994E+01
 20
1.34363379E+02
  0
VERTEX
  8
0
 62
4
 10
-1.31129838E+01
 20
1.34652985E+02
  0
VERTEX
  8
0
 62
4
 10
-1.31000458E+01
 20
1.34944813E+02
  0
VERTEX
  8
0
 62
4
 10
-1.31129838E+01
 20
1.35236641E+02
  0
VERTEX
  8
0
 62
4
 10
-1.31516994E+01
 20
1.35526247E+02
  0
VERTEX
  8
0
 62
4
 10
-1.32158980E+01
 20
1.35811429E+02
  0
VERTEX
  8
0
 62
4
 10
-1.33050909E+01
 20
1.36090015E+02
  0
VERTEX
  8
0
 62
4
 10
-1.34185993E+01
 20
1.36359885E+02
  0
VERTEX
  8
0
 62
4
 10
-1.35555594E+01
 20
1.36618986E+02
  0
VERTEX
  8
0
 62
4
 10
-1.37149288E+01
 20
1.36865346E+02
  0
VERTEX
  8
0
 62
4
 10
-1.38954947E+01
 20
1.37097089E+02
  0
VERTEX
  8
0
 62
4
 10
-1.40958827E+01
 20
1.37312452E+02
  0
VERTEX
  8
0
 62
4
 10
-1.43145679E+01
 20
1.37509795E+02
  0
VERTEX
  8
0
 62
4
 10
-1.45498859E+01
 20
1.37687618E+02
  0
VERTEX
  8
0
 62
4
 10
-1.48000458E+01
 20
1.37844566E+02
  0
VERTEX
  8
0
 62
4
 10
-1.50631437E+01
 20
1.37979446E+02
  0
VERTEX
  8
0
 62
4
 10
-1.53371773E+01
 20
1.38091230E+02
  0
VERTEX
  8
0
 62
4
 10
-1.56200610E+01
 20
1.38179068E+02
  0
VERTEX
  8
0
 62
4
 10
-1.59096420E+01
 20
1.38242291E+02
  0
VERTEX
  8
0
 62
4
 10
-1.62037163E+01
 20
1.38280418E+02
  0
VERTEX
  8
0
 62
4
 10
-1.65000458E+01
 20
1.38293160E+02
  0
VERTEX
  8
0
 62
4
 10
-1.67963753E+01
 20
1.38280418E+02
  0
VERTEX
  8
0
 62
4
 10
-1.70904496E+01
 20
1.38242291E+02
  0
VERTEX
  8
0
 62
4
 10
-1.73800306E+01
 20
1.38179068E+02
  0
VERTEX
  8
0
 62
4
 10
-1.76629143E+01
 20
1.38091230E+02
  0
VERTEX
  8
0
 62
4
 10
-1.79369479E+01
 20
1.37979446E+02
  0
VERTEX
  8
0
 62
4
 10
-1.82000458E+01
 20
1.37844566E+02
  0
VERTEX
  8
0
 62
4
 10
-1.84502057E+01
 20
1.37687618E+02
  0
VERTEX
  8
0
 62
4
 10
-1.86855237E+01
 20
1.37509795E+02
  0
VERTEX
  8
0
 62
4
 10
-1.89042089E+01
 20
1.37312452E+02
  0
VERTEX
  8
0
 62
4
 10
-1.91045969E+01
 20
1.37097089E+02
  0
VERTEX
  8
0
 62
4
 10
-1.92851628E+01
 20
1.36865346E+02
  0
VERTEX
  8
0
 62
4
 10
-1.94445322E+01
 20
1.36618986E+02
  0
VERTEX
  8
0
 62
4
 10
-1.95814923E+01
 20
1.36359885E+02
  0
VERTEX
  8
0
 62
4
 10
-1.96950007E+01
 20
1.36090015E+02
  0
VERTEX
  8
0
 62
4
 10
-1.97841936E+01
 20
1.35811429E+02
  0
VERTEX
  8
0
 62
4
 10
-1.98483922E+01
 20
1.35526247E+02
  0
VERTEX
  8
0
 62
4
 10
-1.98871078E+01
 20
1.35236641E+02
  0
VERTEX
  8
0
 62
4
 10
-1.99000458E+01
 20
1.34944813E+02
  0
SEQEND
  8
0
  0
LINE
  8
0
 62
4
 10
-1.31000457E+01
 20
1.34748451E+02
 11
-1.31000457E+01
 21
1.34944813E+02
  0
ARC
  8
0
 62
4
 10
1.14681423E+02
 20
1.93705030E+00
 40
1.86971513E+02
 50
1.33801123E+02
 51
1.35321779E+02
  0
ARC
  8
0
 62
4
 10
-1.47681514E+02
 20
1.93705030E+00
 40
1.86971513E+02
 50
4.46782203E+01
 51
4.61988768E+01
  0
LINE
  8
0
 62
4
 10
-3.90000458E+01
 20
1.24234321E+02
 11
-3.90000458E+01
 21
1.22499985E+02
  0
LINE
  8
0
 62
4
 10
-3.90000458E+01
 20
1.28306763E+02
 11
-3.90000458E+01
 21
1.24234321E+02
  0
LINE
  8
0
 62
4
 10
-3.90000458E+01
 20
1.28764437E+02
 11
-2.73371688E+01
 21
1.28764437E+02
  0
LINE
  8
0
 62
4
 10
-3.90000458E+01
 20
1.24367532E+02
 11
-1.55000458E+01
 21
1.24367532E+02
  0
LINE
  8
0
 62
4
 10
-3.90000458E+01
 20
1.28306763E+02
 11
-2.69372906E+01
 21
1.28306763E+02
  0
LINE
  8
0
 62
4
 10
-4.05000458E+01
 20
1.24675004E+02
 11
-3.90000458E+01
 21
1.23672939E+02
  0
LINE
  8
0
 62
4
 10
-4.05000458E+01
 20
1.25068317E+02
 11
-3.90000458E+01
 21
1.24367532E+02
  0
LINE
  8
0
 62
4
 10
-4.05000458E+01
 20
1.27298906E+02
 11
-4.05000458E+01
 21
1.24675004E+02
  0
LINE
  8
0
 62
4
 10
-3.90000458E+01
 20
1.28306763E+02
 11
-4.05000458E+01
 21
1.27298906E+02
  0
LINE
  8
0
 62
4
 10
-3.90000458E+01
 20
1.24234321E+02
 11
-9.00004578E+00
 21
1.24234321E+02
  0
LINE
  8
0
 62
4
 10
-3.90000458E+01
 20
1.23249514E+02
 11
-9.00004578E+00
 21
1.23249514E+02
  0
LINE
  8
0
 62
4
 10
-3.90000458E+01
 20
1.39006438E+02
 11
-9.00004578E+00
 21
1.39006438E+02
  0
POLYLINE
  8
0
 62
4
 66
1
  0
VERTEX
  8
0
 62
4
 10
2.54999542E+01
 20
1.14830160E+02
  0
VERTEX
  8
0
 62
4
 10
2.54919028E+01
 20
1.15006715E+02
  0
VERTEX
  8
0
 62
4
 10
2.54678134E+01
 20
1.15181848E+02
  0
VERTEX
  8
0
 62
4
 10
2.54278799E+01
 20
1.15354150E+02
  0
VERTEX
  8
0
 62
4
 10
2.53724239E+01
 20
1.15522233E+02
  0
VERTEX
  8
0
 62
4
 10
2.53018919E+01
 20
1.15684744E+02
  0
VERTEX
  8
0
 62
4
 10
2.52168518E+01
 20
1.15840374E+02
  0
VERTEX
  8
0
 62
4
 10
2.51179882E+01
 20
1.15987871E+02
  0
VERTEX
  8
0
 62
4
 10
2.50060971E+01
 20
1.16126046E+02
  0
VERTEX
  8
0
 62
4
 10
2.48820795E+01
 20
1.16253788E+02
  0
VERTEX
  8
0
 62
4
 10
2.47469338E+01
 20
1.16370067E+02
  0
VERTEX
  8
0
 62
4
 10
2.46017482E+01
 20
1.16473948E+02
  0
VERTEX
  8
0
 62
4
 10
2.44476915E+01
 20
1.16564595E+02
  0
VERTEX
  8
0
 62
4
 10
2.42860043E+01
 20
1.16641276E+02
  0
VERTEX
  8
0
 62
4
 10
2.41179882E+01
 20
1.16703376E+02
  0
VERTEX
  8
0
 62
4
 10
2.39449961E+01
 20
1.16750393E+02
  0
VERTEX
  8
0
 62
4
 10
2.37684207E+01
 20
1.16781950E+02
  0
VERTEX
  8
0
 62
4
 10
2.35896839E+01
 20
1.16797792E+02
  0
VERTEX
  8
0
 62
4
 10
2.34102246E+01
 20
1.16797792E+02
  0
VERTEX
  8
0
 62
4
 10
2.32314877E+01
 20
1.16781950E+02
  0
VERTEX
  8
0
 62
4
 10
2.30549123E+01
 20
1.16750393E+02
  0
VERTEX
  8
0
 62
4
 10
2.28819202E+01
 20
1.16703376E+02
  0
VERTEX
  8
0
 62
4
 10
2.27139042E+01
 20
1.16641276E+02
  0
VERTEX
  8
0
 62
4
 10
2.25522169E+01
 20
1.16564595E+02
  0
VERTEX
  8
0
 62
4
 10
2.23981603E+01
 20
1.16473948E+02
  0
VERTEX
  8
0
 62
4
 10
2.22529746E+01
 20
1.16370067E+02
  0
VERTEX
  8
0
 62
4
 10
2.21178289E+01
 20
1.16253788E+02
  0
VERTEX
  8
0
 62
4
 10
2.19938113E+01
 20
1.16126046E+02
  0
VERTEX
  8
0
 62
4
 10
2.18819202E+01
 20
1.15987871E+02
  0
VERTEX
  8
0
 62
4
 10
2.17830566E+01
 20
1.15840374E+02
  0
VERTEX
  8
0
 62
4
 10
2.16980165E+01
 20
1.15684744E+02
  0
VERTEX
  8
0
 62
4
 10
2.16274845E+01
 20
1.15522233E+02
  0
VERTEX
  8
0
 62
4
 10
2.15720285E+01
 20
1.15354150E+02
  0
VERTEX
  8
0
 62
4
 10
2.15320950E+01
 20
1.15181848E+02
  0
VERTEX
  8
0
 62
4
 10
2.15080056E+01
 20
1.15006715E+02
  0
VERTEX
  8
0
 62
4
 10
2.14999542E+01
 20
1.14830160E+02
  0
SEQEND
  8
0
  0
POLYLINE
  8
0
 62
4
 66
1
  0
VERTEX
  8
0
 62
4
 10
2.14999542E+01
 20
1.14294520E+02
  0
VERTEX
  8
0
 62
4
 10
2.15075648E+01
 20
1.14122857E+02
  0
VERTEX
  8
0
 62
4
 10
2.15303387E+01
 20
1.13952500E+02
  0
VERTEX
  8
0
 62
4
 10
2.15681025E+01
 20
1.13784746E+02
  0
VERTEX
  8
0
 62
4
 10
2.16205690E+01
 20
1.13620872E+02
  0
VERTEX
  8
0
 62
4
 10
2.16873386E+01
 20
1.13462125E+02
  0
VERTEX
  8
0
 62
4
 10
2.17679034E+01
 20
1.13309712E+02
  0
VERTEX
  8
0
 62
4
 10
2.18616501E+01
 20
1.13164795E+02
  0
VERTEX
  8
0
 62
4
 10
2.19678653E+01
 20
1.13028476E+02
  0
VERTEX
  8
0
 62
4
 10
2.20857406E+01
 20
1.12901792E+02
  0
VERTEX
  8
0
 62
4
 10
2.22143790E+01
 20
1.12785707E+02
  0
VERTEX
  8
0
 62
4
 10
2.23528013E+01
 20
1.12681105E+02
  0
VERTEX
  8
0
 62
4
 10
2.24999542E+01
 20
1.12588783E+02
  0
VERTEX
  8
0
 62
4
 10
2.26547177E+01
 20
1.12509442E+02
  0
VERTEX
  8
0
 62
4
 10
2.28159139E+01
 20
1.12443687E+02
  0
VERTEX
  8
0
 62
4
 10
2.29823161E+01
 20
1.12392018E+02
  0
VERTEX
  8
0
 62
4
 10
2.31526578E+01
 20
1.12354827E+02
  0
VERTEX
  8
0
 62
4
 10
2.33256427E+01
 20
1.12332399E+02
  0
VERTEX
  8
0
 62
4
 10
2.34999542E+01
 20
1.12324904E+02
  0
VERTEX
  8
0
 62
4
 10
2.36742657E+01
 20
1.12332399E+02
  0
VERTEX
  8
0
 62
4
 10
2.38472505E+01
 20
1.12354827E+02
  0
VERTEX
  8
0
 62
4
 10
2.40175923E+01
 20
1.12392018E+02
  0
VERTEX
  8
0
 62
4
 10
2.41839945E+01
 20
1.12443687E+02
  0
VERTEX
  8
0
 62
4
 10
2.43451907E+01
 20
1.12509442E+02
  0
VERTEX
  8
0
 62
4
 10
2.44999542E+01
 20
1.12588783E+02
  0
VERTEX
  8
0
 62
4
 10
2.46471071E+01
 20
1.12681105E+02
  0
VERTEX
  8
0
 62
4
 10
2.47855294E+01
 20
1.12785707E+02
  0
VERTEX
  8
0
 62
4
 10
2.49141678E+01
 20
1.12901792E+02
  0
VERTEX
  8
0
 62
4
 10
2.50320431E+01
 20
1.13028476E+02
  0
VERTEX
  8
0
 62
4
 10
2.51382583E+01
 20
1.13164795E+02
  0
VERTEX
  8
0
 62
4
 10
2.52320050E+01
 20
1.13309712E+02
  0
VERTEX
  8
0
 62
4
 10
2.53125698E+01
 20
1.13462125E+02
  0
VERTEX
  8
0
 62
4
 10
2.53793394E+01
 20
1.13620872E+02
  0
VERTEX
  8
0
 62
4
 10
2.54318059E+01
 20
1.13784746E+02
  0
VERTEX
  8
0
 62
4
 10
2.54695697E+01
 20
1.13952500E+02
  0
VERTEX
  8
0
 62
4
 10
2.54923436E+01
 20
1.14122857E+02
  0
VERTEX
  8
0
 62
4
 10
2.54999542E+01
 20
1.14294520E+02
  0
VERTEX
  8
0
 62
4
 10
2.54923436E+01
 20
1.14466183E+02
  0
VERTEX
  8
0
 62
4
 10
2.54695697E+01
 20
1.14636540E+02
  0
VERTEX
  8
0
 62
4
 10
2.54318059E+01
 20
1.14804294E+02
  0
VERTEX
  8
0
 62
4
 10
2.53793394E+01
 20
1.14968168E+02
  0
VERTEX
  8
0
 62
4
 10
2.53125698E+01
 20
1.15126915E+02
  0
VERTEX
  8
0
 62
4
 10
2.52320050E+01
 20
1.15279328E+02
  0
VERTEX
  8
0
 62
4
 10
2.51382583E+01
 20
1.15424245E+02
  0
VERTEX
  8
0
 62
4
 10
2.50320431E+01
 20
1.15560564E+02
  0
VERTEX
  8
0
 62
4
 10
2.49141678E+01
 20
1.15687248E+02
  0
VERTEX
  8
0
 62
4
 10
2.47855294E+01
 20
1.15803333E+02
  0
VERTEX
  8
0
 62
4
 10
2.46471071E+01
 20
1.15907935E+02
  0
VERTEX
  8
0
 62
4
 10
2.44999542E+01
 20
1.16000257E+02
  0
VERTEX
  8
0
 62
4
 10
2.43451907E+01
 20
1.16079598E+02
  0
VERTEX
  8
0
 62
4
 10
2.41839945E+01
 20
1.16145353E+02
  0
VERTEX
  8
0
 62
4
 10
2.40175923E+01
 20
1.16197022E+02
  0
VERTEX
  8
0
 62
4
 10
2.38472506E+01
 20
1.16234213E+02
  0
VERTEX
  8
0
 62
4
 10
2.36742657E+01
 20
1.16256641E+02
  0
VERTEX
  8
0
 62
4
 10
2.34999542E+01
 20
1.16264136E+02
  0
VERTEX
  8
0
 62
4
 10
2.33256427E+01
 20
1.16256641E+02
  0
VERTEX
  8
0
 62
4
 10
2.31526578E+01
 20
1.16234213E+02
  0
VERTEX
  8
0
 62
4
 10
2.29823161E+01
 20
1.16197022E+02
  0
VERTEX
  8
0
 62
4
 10
2.28159139E+01
 20
1.16145353E+02
  0
VERTEX
  8
0
 62
4
 10
2.26547177E+01
 20
1.16079598E+02
  0
VERTEX
  8
0
 62
4
 10
2.24999542E+01
 20
1.16000257E+02
  0
VERTEX
  8
0
 62
4
 10
2.23528013E+01
 20
1.15907935E+02
  0
VERTEX
  8
0
 62
4
 10
2.22143790E+01
 20
1.15803333E+02
  0
VERTEX
  8
0
 62
4
 10
2.20857406E+01
 20
1.15687248E+02
  0
VERTEX
  8
0
 62
4
 10
2.19678653E+01
 20
1.15560564E+02
  0
VERTEX
  8
0
 62
4
 10
2.18616501E+01
 20
1.15424245E+02
  0
VERTEX
  8
0
 62
4
 10
2.17679034E+01
 20
1.15279328E+02
  0
VERTEX
  8
0
 62
4
 10
2.16873386E+01
 20
1.15126915E+02
  0
VERTEX
  8
0
 62
4
 10
2.16205690E+01
 20
1.14968168E+02
  0
VERTEX
  8
0
 62
4
 10
2.15681025E+01
 20
1.14804294E+02
  0
VERTEX
  8
0
 62
4
 10
2.15303387E+01
 20
1.14636540E+02
  0
VERTEX
  8
0
 62
4
 10
2.15075648E+01
 20
1.14466183E+02
  0
VERTEX
  8
0
 62
4
 10
2.14999542E+01
 20
1.14294520E+02
  0
SEQEND
  8
0
  0
LINE
  8
0
 62
4
 10
2.14999542E+01
 20
1.14294520E+02
 11
2.14999542E+01
 21
1.14830160E+02
  0
LINE
  8
0
 62
4
 10
2.54999542E+01
 20
1.14294520E+02
 11
2.54999542E+01
 21
1.14830160E+02
  0
POLYLINE
  8
0
 62
6
 66
1
  0
VERTEX
  8
0
 62
6
 10
2.49999542E+01
 20
1.14294520E+02
  0
VERTEX
  8
0
 62
6
 10
2.49942462E+01
 20
1.14423267E+02
  0
VERTEX
  8
0
 62
6
 10
2.49771658E+01
 20
1.14551035E+02
  0
VERTEX
  8
0
 62
6
 10
2.49488429E+01
 20
1.14676851E+02
  0
VERTEX
  8
0
 62
6
 10
2.49094931E+01
 20
1.14799756E+02
  0
VERTEX
  8
0
 62
6
 10
2.48594159E+01
 20
1.14918817E+02
  0
VERTEX
  8
0
 62
6
 10
2.47989923E+01
 20
1.15033126E+02
  0
VERTEX
  8
0
 62
6
 10
2.47286823E+01
 20
1.15141814E+02
  0
VERTEX
  8
0
 62
6
 10
2.46490209E+01
 20
1.15244053E+02
  0
VERTEX
  8
0
 62
6
 10
2.45606144E+01
 20
1.15339066E+02
  0
VERTEX
  8
0
 62
6
 10
2.44641356E+01
 20
1.15426130E+02
  0
VERTEX
  8
0
 62
6
 10
2.43603189E+01
 20
1.15504581E+02
  0
VERTEX
  8
0
 62
6
 10
2.42499542E+01
 20
1.15573823E+02
  0
VERTEX
  8
0
 62
6
 10
2.41338816E+01
 20
1.15633328E+02
  0
VERTEX
  8
0
 62
6
 10
2.40129844E+01
 20
1.15682645E+02
  0
VERTEX
  8
0
 62
6
 10
2.38881828E+01
 20
1.15721397E+02
  0
VERTEX
  8
0
 62
6
 10
2.37604265E+01
 20
1.15749289E+02
  0
VERTEX
  8
0
 62
6
 10
2.36306878E+01
 20
1.15766110E+02
  0
VERTEX
  8
0
 62
6
 10
2.34999542E+01
 20
1.15771732E+02
  0
VERTEX
  8
0
 62
6
 10
2.33692206E+01
 20
1.15766110E+02
  0
VERTEX
  8
0
 62
6
 10
2.32394819E+01
 20
1.15749289E+02
  0
VERTEX
  8
0
 62
6
 10
2.31117256E+01
 20
1.15721397E+02
  0
VERTEX
  8
0
 62
6
 10
2.29869240E+01
 20
1.15682645E+02
  0
VERTEX
  8
0
 62
6
 10
2.28660268E+01
 20
1.15633328E+02
  0
VERTEX
  8
0
 62
6
 10
2.27499542E+01
 20
1.15573823E+02
  0
VERTEX
  8
0
 62
6
 10
2.26395895E+01
 20
1.15504581E+02
  0
VERTEX
  8
0
 62
6
 10
2.25357728E+01
 20
1.15426130E+02
  0
VERTEX
  8
0
 62
6
 10
2.24392940E+01
 20
1.15339066E+02
  0
VERTEX
  8
0
 62
6
 10
2.23508875E+01
 20
1.15244053E+02
  0
VERTEX
  8
0
 62
6
 10
2.22712261E+01
 20
1.15141814E+02
  0
VERTEX
  8
0
 62
6
 10
2.22009161E+01
 20
1.15033126E+02
  0
VERTEX
  8
0
 62
6
 10
2.21404925E+01
 20
1.14918817E+02
  0
VERTEX
  8
0
 62
6
 10
2.20904153E+01
 20
1.14799756E+02
  0
VERTEX
  8
0
 62
6
 10
2.20510655E+01
 20
1.14676851E+02
  0
VERTEX
  8
0
 62
6
 10
2.20227426E+01
 20
1.14551035E+02
  0
VERTEX
  8
0
 62
6
 10
2.20056622E+01
 20
1.14423267E+02
  0
VERTEX
  8
0
 62
6
 10
2.19999542E+01
 20
1.14294520E+02
  0
VERTEX
  8
0
 62
6
 10
2.20056622E+01
 20
1.14165773E+02
  0
VERTEX
  8
0
 62
6
 10
2.20227426E+01
 20
1.14038005E+02
  0
VERTEX
  8
0
 62
6
 10
2.20510655E+01
 20
1.13912189E+02
  0
VERTEX
  8
0
 62
6
 10
2.20904153E+01
 20
1.13789284E+02
  0
VERTEX
  8
0
 62
6
 10
2.21404925E+01
 20
1.13670223E+02
  0
VERTEX
  8
0
 62
6
 10
2.22009161E+01
 20
1.13555914E+02
  0
VERTEX
  8
0
 62
6
 10
2.22712261E+01
 20
1.13447226E+02
  0
VERTEX
  8
0
 62
6
 10
2.23508875E+01
 20
1.13344987E+02
  0
VERTEX
  8
0
 62
6
 10
2.24392940E+01
 20
1.13249974E+02
  0
VERTEX
  8
0
 62
6
 10
2.25357728E+01
 20
1.13162910E+02
  0
VERTEX
  8
0
 62
6
 10
2.26395895E+01
 20
1.13084459E+02
  0
VERTEX
  8
0
 62
6
 10
2.27499542E+01
 20
1.13015217E+02
  0
VERTEX
  8
0
 62
6
 10
2.28660268E+01
 20
1.12955712E+02
  0
VERTEX
  8
0
 62
6
 10
2.29869240E+01
 20
1.12906395E+02
  0
VERTEX
  8
0
 62
6
 10
2.31117256E+01
 20
1.12867643E+02
  0
VERTEX
  8
0
 62
6
 10
2.32394819E+01
 20
1.12839751E+02
  0
VERTEX
  8
0
 62
6
 10
2.33692206E+01
 20
1.12822930E+02
  0
VERTEX
  8
0
 62
6
 10
2.34999542E+01
 20
1.12817308E+02
  0
VERTEX
  8
0
 62
6
 10
2.36306878E+01
 20
1.12822930E+02
  0
VERTEX
  8
0
 62
6
 10
2.37604265E+01
 20
1.12839751E+02
  0
VERTEX
  8
0
 62
6
 10
2.38881828E+01
 20
1.12867643E+02
  0
VERTEX
  8
0
 62
6
 10
2.40129844E+01
 20
1.12906395E+02
  0
VERTEX
  8
0
 62
6
 10
2.41338816E+01
 20
1.12955712E+02
  0
VERTEX
  8
0
 62
6
 10
2.42499542E+01
 20
1.13015217E+02
  0
VERTEX
  8
0
 62
6
 10
2.43603189E+01
 20
1.13084459E+02
  0
VERTEX
  8
0
 62
6
 10
2.44641356E+01
 20
1.13162910E+02
  0
VERTEX
  8
0
 62
6
 10
2.45606144E+01
 20
1.13249974E+02
  0
VERTEX
  8
0
 62
6
 10
2.46490209E+01
 20
1.13344987E+02
  0
VERTEX
  8
0
 62
6
 10
2.47286823E+01
 20
1.13447226E+02
  0
VERTEX
  8
0
 62
6
 10
2.47989923E+01
 20
1.13555914E+02
  0
VERTEX
  8
0
 62
6
 10
2.48594159E+01
 20
1.13670223E+02
  0
VERTEX
  8
0
 62
6
 10
2.49094931E+01
 20
1.13789284E+02
  0
VERTEX
  8
0
 62
6
 10
2.49488429E+01
 20
1.13912190E+02
  0
VERTEX
  8
0
 62
6
 10
2.49771658E+01
 20
1.14038005E+02
  0
VERTEX
  8
0
 62
6
 10
2.49942462E+01
 20
1.14165773E+02
  0
VERTEX
  8
0
 62
6
 10
2.49999542E+01
 20
1.14294520E+02
  0
SEQEND
  8
0
  0
LINE
  8
0
 62
4
 10
2.24999542E+01
 20
1.14865709E+02
 11
2.24999542E+01
 21
1.13723332E+02
  0
LINE
  8
0
 62
4
 10
2.44999542E+01
 20
1.14865709E+02
 11
2.44999542E+01
 21
1.13723332E+02
  0
LINE
  8
0
 62
4
 10
2.34999542E+01
 20
1.15427049E+02
 11
2.24999542E+01
 21
1.14865709E+02
  0
LINE
  8
0
 62
4
 10
2.34999542E+01
 20
1.15427049E+02
 11
2.44999542E+01
 21
1.14865709E+02
  0
LINE
  8
0
 62
4
 10
2.44999542E+01
 20
1.13723332E+02
 11
2.34999542E+01
 21
1.13152143E+02
  0
LINE
  8
0
 62
4
 10
2.24999542E+01
 20
1.13723332E+02
 11
2.34999542E+01
 21
1.13152143E+02
  0
LINE
  8
0
 62
4
 10
3.04999542E+01
 20
1.13723332E+02
 11
3.14999542E+01
 21
1.13152143E+02
  0
LINE
  8
0
 62
4
 10
3.24999542E+01
 20
1.13723332E+02
 11
3.14999542E+01
 21
1.13152143E+02
  0
LINE
  8
0
 62
4
 10
3.14999542E+01
 20
1.15427049E+02
 11
3.24999542E+01
 21
1.14865709E+02
  0
LINE
  8
0
 62
4
 10
3.14999542E+01
 20
1.15427049E+02
 11
3.04999542E+01
 21
1.14865709E+02
  0
LINE
  8
0
 62
4
 10
3.24999542E+01
 20
1.14865709E+02
 11
3.24999542E+01
 21
1.13723332E+02
  0
LINE
  8
0
 62
4
 10
3.04999542E+01
 20
1.14865709E+02
 11
3.04999542E+01
 21
1.13723332E+02
  0
POLYLINE
  8
0
 62
6
 66
1
  0
VERTEX
  8
0
 62
6
 10
3.29999542E+01
 20
1.14294520E+02
  0
VERTEX
  8
0
 62
6
 10
3.29942462E+01
 20
1.14423267E+02
  0
VERTEX
  8
0
 62
6
 10
3.29771658E+01
 20
1.14551035E+02
  0
VERTEX
  8
0
 62
6
 10
3.29488429E+01
 20
1.14676851E+02
  0
VERTEX
  8
0
 62
6
 10
3.29094931E+01
 20
1.14799756E+02
  0
VERTEX
  8
0
 62
6
 10
3.28594159E+01
 20
1.14918817E+02
  0
VERTEX
  8
0
 62
6
 10
3.27989923E+01
 20
1.15033126E+02
  0
VERTEX
  8
0
 62
6
 10
3.27286823E+01
 20
1.15141814E+02
  0
VERTEX
  8
0
 62
6
 10
3.26490209E+01
 20
1.15244053E+02
  0
VERTEX
  8
0
 62
6
 10
3.25606144E+01
 20
1.15339066E+02
  0
VERTEX
  8
0
 62
6
 10
3.24641356E+01
 20
1.15426130E+02
  0
VERTEX
  8
0
 62
6
 10
3.23603189E+01
 20
1.15504581E+02
  0
VERTEX
  8
0
 62
6
 10
3.22499542E+01
 20
1.15573823E+02
  0
VERTEX
  8
0
 62
6
 10
3.21338816E+01
 20
1.15633328E+02
  0
VERTEX
  8
0
 62
6
 10
3.20129844E+01
 20
1.15682645E+02
  0
VERTEX
  8
0
 62
6
 10
3.18881828E+01
 20
1.15721397E+02
  0
VERTEX
  8
0
 62
6
 10
3.17604265E+01
 20
1.15749289E+02
  0
VERTEX
  8
0
 62
6
 10
3.16306878E+01
 20
1.15766110E+02
  0
VERTEX
  8
0
 62
6
 10
3.14999542E+01
 20
1.15771732E+02
  0
VERTEX
  8
0
 62
6
 10
3.13692206E+01
 20
1.15766110E+02
  0
VERTEX
  8
0
 62
6
 10
3.12394819E+01
 20
1.15749289E+02
  0
VERTEX
  8
0
 62
6
 10
3.11117256E+01
 20
1.15721397E+02
  0
VERTEX
  8
0
 62
6
 10
3.09869240E+01
 20
1.15682645E+02
  0
VERTEX
  8
0
 62
6
 10
3.08660268E+01
 20
1.15633328E+02
  0
VERTEX
  8
0
 62
6
 10
3.07499542E+01
 20
1.15573823E+02
  0
VERTEX
  8
0
 62
6
 10
3.06395895E+01
 20
1.15504581E+02
  0
VERTEX
  8
0
 62
6
 10
3.05357728E+01
 20
1.15426130E+02
  0
VERTEX
  8
0
 62
6
 10
3.04392940E+01
 20
1.15339066E+02
  0
VERTEX
  8
0
 62
6
 10
3.03508875E+01
 20
1.15244053E+02
  0
VERTEX
  8
0
 62
6
 10
3.02712261E+01
 20
1.15141814E+02
  0
VERTEX
  8
0
 62
6
 10
3.02009161E+01
 20
1.15033126E+02
  0
VERTEX
  8
0
 62
6
 10
3.01404925E+01
 20
1.14918817E+02
  0
VERTEX
  8
0
 62
6
 10
3.00904153E+01
 20
1.14799756E+02
  0
VERTEX
  8
0
 62
6
 10
3.00510655E+01
 20
1.14676851E+02
  0
VERTEX
  8
0
 62
6
 10
3.00227426E+01
 20
1.14551035E+02
  0
VERTEX
  8
0
 62
6
 10
3.00056622E+01
 20
1.14423267E+02
  0
VERTEX
  8
0
 62
6
 10
2.99999542E+01
 20
1.14294520E+02
  0
VERTEX
  8
0
 62
6
 10
3.00056622E+01
 20
1.14165773E+02
  0
VERTEX
  8
0
 62
6
 10
3.00227426E+01
 20
1.14038005E+02
  0
VERTEX
  8
0
 62
6
 10
3.00510655E+01
 20
1.13912189E+02
  0
VERTEX
  8
0
 62
6
 10
3.00904153E+01
 20
1.13789284E+02
  0
VERTEX
  8
0
 62
6
 10
3.01404925E+01
 20
1.13670223E+02
  0
VERTEX
  8
0
 62
6
 10
3.02009161E+01
 20
1.13555914E+02
  0
VERTEX
  8
0
 62
6
 10
3.02712261E+01
 20
1.13447226E+02
  0
VERTEX
  8
0
 62
6
 10
3.03508875E+01
 20
1.13344987E+02
  0
VERTEX
  8
0
 62
6
 10
3.04392940E+01
 20
1.13249974E+02
  0
VERTEX
  8
0
 62
6
 10
3.05357728E+01
 20
1.13162910E+02
  0
VERTEX
  8
0
 62
6
 10
3.06395895E+01
 20
1.13084459E+02
  0
VERTEX
  8
0
 62
6
 10
3.07499542E+01
 20
1.13015217E+02
  0
VERTEX
  8
0
 62
6
 10
3.08660268E+01
 20
1.12955712E+02
  0
VERTEX
  8
0
 62
6
 10
3.09869240E+01
 20
1.12906395E+02
  0
VERTEX
  8
0
 62
6
 10
3.11117256E+01
 20
1.12867643E+02
  0
VERTEX
  8
0
 62
6
 10
3.12394819E+01
 20
1.12839751E+02
  0
VERTEX
  8
0
 62
6
 10
3.13692206E+01
 20
1.12822930E+02
  0
VERTEX
  8
0
 62
6
 10
3.14999542E+01
 20
1.12817308E+02
  0
VERTEX
  8
0
 62
6
 10
3.16306878E+01
 20
1.12822930E+02
  0
VERTEX
  8
0
 62
6
 10
3.17604265E+01
 20
1.12839751E+02
  0
VERTEX
  8
0
 62
6
 10
3.18881828E+01
 20
1.12867643E+02
  0
VERTEX
  8
0
 62
6
 10
3.20129844E+01
 20
1.12906395E+02
  0
VERTEX
  8
0
 62
6
 10
3.21338816E+01
 20
1.12955712E+02
  0
VERTEX
  8
0
 62
6
 10
3.22499542E+01
 20
1.13015217E+02
  0
VERTEX
  8
0
 62
6
 10
3.23603189E+01
 20
1.13084459E+02
  0
VERTEX
  8
0
 62
6
 10
3.24641356E+01
 20
1.13162910E+02
  0
VERTEX
  8
0
 62
6
 10
3.25606144E+01
 20
1.13249974E+02
  0
VERTEX
  8
0
 62
6
 10
3.26490209E+01
 20
1.13344987E+02
  0
VERTEX
  8
0
 62
6
 10
3.27286823E+01
 20
1.13447226E+02
  0
VERTEX
  8
0
 62
6
 10
3.27989923E+01
 20
1.13555914E+02
  0
VERTEX
  8
0
 62
6
 10
3.28594159E+01
 20
1.13670223E+02
  0
VERTEX
  8
0
 62
6
 10
3.29094931E+01
 20
1.13789284E+02
  0
VERTEX
  8
0
 62
6
 10
3.29488429E+01
 20
1.13912190E+02
  0
VERTEX
  8
0
 62
6
 10
3.29771658E+01
 20
1.14038005E+02
  0
VERTEX
  8
0
 62
6
 10
3.29942462E+01
 20
1.14165773E+02
  0
VERTEX
  8
0
 62
6
 10
3.29999542E+01
 20
1.14294520E+02
  0
SEQEND
  8
0
  0
LINE
  8
0
 62
4
 10
3.34999542E+01
 20
1.14294520E+02
 11
3.34999542E+01
 21
1.14830160E+02
  0
LINE
  8
0
 62
4
 10
2.94999542E+01
 20
1.14294520E+02
 11
2.94999542E+01
 21
1.14830160E+02
  0
POLYLINE
  8
0
 62
4
 66
1
  0
VERTEX
  8
0
 62
4
 10
2.94999542E+01
 20
1.14294520E+02
  0
VERTEX
  8
0
 62
4
 10
2.95075648E+01
 20
1.14122857E+02
  0
VERTEX
  8
0
 62
4
 10
2.95303387E+01
 20
1.13952500E+02
  0
VERTEX
  8
0
 62
4
 10
2.95681025E+01
 20
1.13784746E+02
  0
VERTEX
  8
0
 62
4
 10
2.96205690E+01
 20
1.13620872E+02
  0
VERTEX
  8
0
 62
4
 10
2.96873386E+01
 20
1.13462125E+02
  0
VERTEX
  8
0
 62
4
 10
2.97679034E+01
 20
1.13309712E+02
  0
VERTEX
  8
0
 62
4
 10
2.98616501E+01
 20
1.13164795E+02
  0
VERTEX
  8
0
 62
4
 10
2.99678653E+01
 20
1.13028476E+02
  0
VERTEX
  8
0
 62
4
 10
3.00857406E+01
 20
1.12901792E+02
  0
VERTEX
  8
0
 62
4
 10
3.02143790E+01
 20
1.12785707E+02
  0
VERTEX
  8
0
 62
4
 10
3.03528013E+01
 20
1.12681105E+02
  0
VERTEX
  8
0
 62
4
 10
3.04999542E+01
 20
1.12588783E+02
  0
VERTEX
  8
0
 62
4
 10
3.06547177E+01
 20
1.12509442E+02
  0
VERTEX
  8
0
 62
4
 10
3.08159139E+01
 20
1.12443687E+02
  0
VERTEX
  8
0
 62
4
 10
3.09823161E+01
 20
1.12392018E+02
  0
VERTEX
  8
0
 62
4
 10
3.11526578E+01
 20
1.12354827E+02
  0
VERTEX
  8
0
 62
4
 10
3.13256427E+01
 20
1.12332399E+02
  0
VERTEX
  8
0
 62
4
 10
3.14999542E+01
 20
1.12324904E+02
  0
VERTEX
  8
0
 62
4
 10
3.16742657E+01
 20
1.12332399E+02
  0
VERTEX
  8
0
 62
4
 10
3.18472505E+01
 20
1.12354827E+02
  0
VERTEX
  8
0
 62
4
 10
3.20175923E+01
 20
1.12392018E+02
  0
VERTEX
  8
0
 62
4
 10
3.21839945E+01
 20
1.12443687E+02
  0
VERTEX
  8
0
 62
4
 10
3.23451907E+01
 20
1.12509442E+02
  0
VERTEX
  8
0
 62
4
 10
3.24999542E+01
 20
1.12588783E+02
  0
VERTEX
  8
0
 62
4
 10
3.26471071E+01
 20
1.12681105E+02
  0
VERTEX
  8
0
 62
4
 10
3.27855294E+01
 20
1.12785707E+02
  0
VERTEX
  8
0
 62
4
 10
3.29141678E+01
 20
1.12901792E+02
  0
VERTEX
  8
0
 62
4
 10
3.30320431E+01
 20
1.13028476E+02
  0
VERTEX
  8
0
 62
4
 10
3.31382583E+01
 20
1.13164795E+02
  0
VERTEX
  8
0
 62
4
 10
3.32320050E+01
 20
1.13309712E+02
  0
VERTEX
  8
0
 62
4
 10
3.33125698E+01
 20
1.13462125E+02
  0
VERTEX
  8
0
 62
4
 10
3.33793394E+01
 20
1.13620872E+02
  0
VERTEX
  8
0
 62
4
 10
3.34318059E+01
 20
1.13784746E+02
  0
VERTEX
  8
0
 62
4
 10
3.34695697E+01
 20
1.13952500E+02
  0
VERTEX
  8
0
 62
4
 10
3.34923436E+01
 20
1.14122857E+02
  0
VERTEX
  8
0
 62
4
 10
3.34999542E+01
 20
1.14294520E+02
  0
VERTEX
  8
0
 62
4
 10
3.34923436E+01
 20
1.14466183E+02
  0
VERTEX
  8
0
 62
4
 10
3.34695697E+01
 20
1.14636540E+02
  0
VERTEX
  8
0
 62
4
 10
3.34318059E+01
 20
1.14804294E+02
  0
VERTEX
  8
0
 62
4
 10
3.33793394E+01
 20
1.14968168E+02
  0
VERTEX
  8
0
 62
4
 10
3.33125698E+01
 20
1.15126915E+02
  0
VERTEX
  8
0
 62
4
 10
3.32320050E+01
 20
1.15279328E+02
  0
VERTEX
  8
0
 62
4
 10
3.31382583E+01
 20
1.15424245E+02
  0
VERTEX
  8
0
 62
4
 10
3.30320431E+01
 20
1.15560564E+02
  0
VERTEX
  8
0
 62
4
 10
3.29141678E+01
 20
1.15687248E+02
  0
VERTEX
  8
0
 62
4
 10
3.27855294E+01
 20
1.15803333E+02
  0
VERTEX
  8
0
 62
4
 10
3.26471071E+01
 20
1.15907935E+02
  0
VERTEX
  8
0
 62
4
 10
3.24999542E+01
 20
1.16000257E+02
  0
VERTEX
  8
0
 62
4
 10
3.23451907E+01
 20
1.16079598E+02
  0
VERTEX
  8
0
 62
4
 10
3.21839945E+01
 20
1.16145353E+02
  0
VERTEX
  8
0
 62
4
 10
3.20175923E+01
 20
1.16197022E+02
  0
VERTEX
  8
0
 62
4
 10
3.18472506E+01
 20
1.16234213E+02
  0
VERTEX
  8
0
 62
4
 10
3.16742657E+01
 20
1.16256641E+02
  0
VERTEX
  8
0
 62
4
 10
3.14999542E+01
 20
1.16264136E+02
  0
VERTEX
  8
0
 62
4
 10
3.13256427E+01
 20
1.16256641E+02
  0
VERTEX
  8
0
 62
4
 10
3.11526578E+01
 20
1.16234213E+02
  0
VERTEX
  8
0
 62
4
 10
3.09823161E+01
 20
1.16197022E+02
  0
VERTEX
  8
0
 62
4
 10
3.08159139E+01
 20
1.16145353E+02
  0
VERTEX
  8
0
 62
4
 10
3.06547177E+01
 20
1.16079598E+02
  0
VERTEX
  8
0
 62
4
 10
3.04999542E+01
 20
1.16000257E+02
  0
VERTEX
  8
0
 62
4
 10
3.03528013E+01
 20
1.15907935E+02
  0
VERTEX
  8
0
 62
4
 10
3.02143790E+01
 20
1.15803333E+02
  0
VERTEX
  8
0
 62
4
 10
3.00857406E+01
 20
1.15687248E+02
  0
VERTEX
  8
0
 62
4
 10
2.99678653E+01
 20
1.15560564E+02
  0
VERTEX
  8
0
 62
4
 10
2.98616501E+01
 20
1.15424245E+02
  0
VERTEX
  8
0
 62
4
 10
2.97679034E+01
 20
1.15279328E+02
  0
VERTEX
  8
0
 62
4
 10
2.96873386E+01
 20
1.15126915E+02
  0
VERTEX
  8
0
 62
4
 10
2.96205690E+01
 20
1.14968168E+02
  0
VERTEX
  8
0
 62
4
 10
2.95681025E+01
 20
1.14804294E+02
  0
VERTEX
  8
0
 62
4
 10
2.95303387E+01
 20
1.14636540E+02
  0
VERTEX
  8
0
 62
4
 10
2.95075648E+01
 20
1.14466183E+02
  0
VERTEX
  8
0
 62
4
 10
2.94999542E+01
 20
1.14294520E+02
  0
SEQEND
  8
0
  0
POLYLINE
  8
0
 62
4
 66
1
  0
VERTEX
  8
0
 62
4
 10
3.34999542E+01
 20
1.14830160E+02
  0
VERTEX
  8
0
 62
4
 10
3.34919028E+01
 20
1.15006715E+02
  0
VERTEX
  8
0
 62
4
 10
3.34678134E+01
 20
1.15181848E+02
  0
VERTEX
  8
0
 62
4
 10
3.34278799E+01
 20
1.15354150E+02
  0
VERTEX
  8
0
 62
4
 10
3.33724239E+01
 20
1.15522233E+02
  0
VERTEX
  8
0
 62
4
 10
3.33018919E+01
 20
1.15684744E+02
  0
VERTEX
  8
0
 62
4
 10
3.32168518E+01
 20
1.15840374E+02
  0
VERTEX
  8
0
 62
4
 10
3.31179882E+01
 20
1.15987871E+02
  0
VERTEX
  8
0
 62
4
 10
3.30060971E+01
 20
1.16126046E+02
  0
VERTEX
  8
0
 62
4
 10
3.28820795E+01
 20
1.16253788E+02
  0
VERTEX
  8
0
 62
4
 10
3.27469338E+01
 20
1.16370067E+02
  0
VERTEX
  8
0
 62
4
 10
3.26017482E+01
 20
1.16473948E+02
  0
VERTEX
  8
0
 62
4
 10
3.24476915E+01
 20
1.16564595E+02
  0
VERTEX
  8
0
 62
4
 10
3.22860043E+01
 20
1.16641276E+02
  0
VERTEX
  8
0
 62
4
 10
3.21179882E+01
 20
1.16703376E+02
  0
VERTEX
  8
0
 62
4
 10
3.19449961E+01
 20
1.16750393E+02
  0
VERTEX
  8
0
 62
4
 10
3.17684207E+01
 20
1.16781950E+02
  0
VERTEX
  8
0
 62
4
 10
3.15896839E+01
 20
1.16797792E+02
  0
VERTEX
  8
0
 62
4
 10
3.14102246E+01
 20
1.16797792E+02
  0
VERTEX
  8
0
 62
4
 10
3.12314877E+01
 20
1.16781950E+02
  0
VERTEX
  8
0
 62
4
 10
3.10549123E+01
 20
1.16750393E+02
  0
VERTEX
  8
0
 62
4
 10
3.08819202E+01
 20
1.16703376E+02
  0
VERTEX
  8
0
 62
4
 10
3.07139042E+01
 20
1.16641276E+02
  0
VERTEX
  8
0
 62
4
 10
3.05522169E+01
 20
1.16564595E+02
  0
VERTEX
  8
0
 62
4
 10
3.03981603E+01
 20
1.16473948E+02
  0
VERTEX
  8
0
 62
4
 10
3.02529746E+01
 20
1.16370067E+02
  0
VERTEX
  8
0
 62
4
 10
3.01178289E+01
 20
1.16253788E+02
  0
VERTEX
  8
0
 62
4
 10
2.99938113E+01
 20
1.16126046E+02
  0
VERTEX
  8
0
 62
4
 10
2.98819202E+01
 20
1.15987871E+02
  0
VERTEX
  8
0
 62
4
 10
2.97830566E+01
 20
1.15840374E+02
  0
VERTEX
  8
0
 62
4
 10
2.96980165E+01
 20
1.15684744E+02
  0
VERTEX
  8
0
 62
4
 10
2.96274845E+01
 20
1.15522233E+02
  0
VERTEX
  8
0
 62
4
 10
2.95720285E+01
 20
1.15354150E+02
  0
VERTEX
  8
0
 62
4
 10
2.95320950E+01
 20
1.15181848E+02
  0
VERTEX
  8
0
 62
4
 10
2.95080056E+01
 20
1.15006715E+02
  0
VERTEX
  8
0
 62
4
 10
2.94999542E+01
 20
1.14830160E+02
  0
SEQEND
  8
0
  0
POLYLINE
  8
0
 62
4
 66
1
  0
VERTEX
  8
0
 62
4
 10
4.02499542E+01
 20
1.32786227E+02
  0
VERTEX
  8
0
 62
4
 10
4.02585161E+01
 20
1.32593106E+02
  0
VERTEX
  8
0
 62
4
 10
4.02841368E+01
 20
1.32401454E+02
  0
VERTEX
  8
0
 62
4
 10
4.03266211E+01
 20
1.32212731E+02
  0
VERTEX
  8
0
 62
4
 10
4.03856458E+01
 20
1.32028373E+02
  0
VERTEX
  8
0
 62
4
 10
4.04607617E+01
 20
1.31849782E+02
  0
VERTEX
  8
0
 62
4
 10
4.05513970E+01
 20
1.31678318E+02
  0
VERTEX
  8
0
 62
4
 10
4.06568621E+01
 20
1.31515286E+02
  0
VERTEX
  8
0
 62
4
 10
4.07763542E+01
 20
1.31361927E+02
  0
VERTEX
  8
0
 62
4
 10
4.09089639E+01
 20
1.31219407E+02
  0
VERTEX
  8
0
 62
4
 10
4.10536821E+01
 20
1.31088812E+02
  0
VERTEX
  8
0
 62
4
 10
4.12094072E+01
 20
1.30971136E+02
  0
VERTEX
  8
0
 62
4
 10
4.13749542E+01
 20
1.30867273E+02
  0
VERTEX
  8
0
 62
4
 10
4.15490631E+01
 20
1.30778014E+02
  0
VERTEX
  8
0
 62
4
 10
4.17304089E+01
 20
1.30704040E+02
  0
VERTEX
  8
0
 62
4
 10
4.19176113E+01
 20
1.30645912E+02
  0
VERTEX
  8
0
 62
4
 10
4.21092458E+01
 20
1.30604073E+02
  0
VERTEX
  8
0
 62
4
 10
4.23038538E+01
 20
1.30578841E+02
  0
VERTEX
  8
0
 62
4
 10
4.24999542E+01
 20
1.30570410E+02
  0
VERTEX
  8
0
 62
4
 10
4.26960546E+01
 20
1.30578841E+02
  0
VERTEX
  8
0
 62
4
 10
4.28906626E+01
 20
1.30604073E+02
  0
VERTEX
  8
0
 62
4
 10
4.30822970E+01
 20
1.30645912E+02
  0
VERTEX
  8
0
 62
4
 10
4.32694995E+01
 20
1.30704040E+02
  0
VERTEX
  8
0
 62
4
 10
4.34508453E+01
 20
1.30778014E+02
  0
VERTEX
  8
0
 62
4
 10
4.36249542E+01
 20
1.30867273E+02
  0
VERTEX
  8
0
 62
4
 10
4.37905012E+01
 20
1.30971136E+02
  0
VERTEX
  8
0
 62
4
 10
4.39462263E+01
 20
1.31088812E+02
  0
VERTEX
  8
0
 62
4
 10
4.40909445E+01
 20
1.31219407E+02
  0
VERTEX
  8
0
 62
4
 10
4.42235542E+01
 20
1.31361927E+02
  0
VERTEX
  8
0
 62
4
 10
4.43430463E+01
 20
1.31515286E+02
  0
VERTEX
  8
0
 62
4
 10
4.44485114E+01
 20
1.31678318E+02
  0
VERTEX
  8
0
 62
4
 10
4.45391467E+01
 20
1.31849782E+02
  0
VERTEX
  8
0
 62
4
 10
4.46142626E+01
 20
1.32028373E+02
  0
VERTEX
  8
0
 62
4
 10
4.46732873E+01
 20
1.32212731E+02
  0
VERTEX
  8
0
 62
4
 10
4.47157716E+01
 20
1.32401454E+02
  0
VERTEX
  8
0
 62
4
 10
4.47413923E+01
 20
1.32593106E+02
  0
VERTEX
  8
0
 62
4
 10
4.47499542E+01
 20
1.32786227E+02
  0
VERTEX
  8
0
 62
4
 10
4.47413923E+01
 20
1.32979348E+02
  0
VERTEX
  8
0
 62
4
 10
4.47157716E+01
 20
1.33171000E+02
  0
VERTEX
  8
0
 62
4
 10
4.46732873E+01
 20
1.33359723E+02
  0
VERTEX
  8
0
 62
4
 10
4.46142626E+01
 20
1.33544081E+02
  0
VERTEX
  8
0
 62
4
 10
4.45391467E+01
 20
1.33722672E+02
  0
VERTEX
  8
0
 62
4
 10
4.44485114E+01
 20
1.33894136E+02
  0
VERTEX
  8
0
 62
4
 10
4.43430463E+01
 20
1.34057168E+02
  0
VERTEX
  8
0
 62
4
 10
4.42235542E+01
 20
1.34210527E+02
  0
VERTEX
  8
0
 62
4
 10
4.40909445E+01
 20
1.34353047E+02
  0
VERTEX
  8
0
 62
4
 10
4.39462263E+01
 20
1.34483642E+02
  0
VERTEX
  8
0
 62
4
 10
4.37905012E+01
 20
1.34601318E+02
  0
VERTEX
  8
0
 62
4
 10
4.36249542E+01
 20
1.34705181E+02
  0
VERTEX
  8
0
 62
4
 10
4.34508453E+01
 20
1.34794440E+02
  0
VERTEX
  8
0
 62
4
 10
4.32694995E+01
 20
1.34868414E+02
  0
VERTEX
  8
0
 62
4
 10
4.30822971E+01
 20
1.34926542E+02
  0
VERTEX
  8
0
 62
4
 10
4.28906626E+01
 20
1.34968381E+02
  0
VERTEX
  8
0
 62
4
 10
4.26960546E+01
 20
1.34993613E+02
  0
VERTEX
  8
0
 62
4
 10
4.24999542E+01
 20
1.35002044E+02
  0
VERTEX
  8
0
 62
4
 10
4.23038538E+01
 20
1.34993613E+02
  0
VERTEX
  8
0
 62
4
 10
4.21092458E+01
 20
1.34968381E+02
  0
VERTEX
  8
0
 62
4
 10
4.19176114E+01
 20
1.34926542E+02
  0
VERTEX
  8
0
 62
4
 10
4.17304089E+01
 20
1.34868414E+02
  0
VERTEX
  8
0
 62
4
 10
4.15490631E+01
 20
1.34794440E+02
  0
VERTEX
  8
0
 62
4
 10
4.13749542E+01
 20
1.34705181E+02
  0
VERTEX
  8
0
 62
4
 10
4.12094072E+01
 20
1.34601318E+02
  0
VERTEX
  8
0
 62
4
 10
4.10536821E+01
 20
1.34483642E+02
  0
VERTEX
  8
0
 62
4
 10
4.09089639E+01
 20
1.34353047E+02
  0
VERTEX
  8
0
 62
4
 10
4.07763542E+01
 20
1.34210527E+02
  0
VERTEX
  8
0
 62
4
 10
4.06568621E+01
 20
1.34057168E+02
  0
VERTEX
  8
0
 62
4
 10
4.05513970E+01
 20
1.33894136E+02
  0
VERTEX
  8
0
 62
4
 10
4.04607617E+01
 20
1.33722672E+02
  0
VERTEX
  8
0
 62
4
 10
4.03856458E+01
 20
1.33544081E+02
  0
VERTEX
  8
0
 62
4
 10
4.03266211E+01
 20
1.33359723E+02
  0
VERTEX
  8
0
 62
4
 10
4.02841368E+01
 20
1.33171000E+02
  0
VERTEX
  8
0
 62
4
 10
4.02585161E+01
 20
1.32979348E+02
  0
VERTEX
  8
0
 62
4
 10
4.02499542E+01
 20
1.32786227E+02
  0
SEQEND
  8
0
  0
LINE
  8
0
 62
4
 10
3.49999542E+01
 20
1.28777536E+02
 11
4.99999542E+01
 21
1.28777536E+02
  0
LINE
  8
0
 62
4
 10
3.49999542E+01
 20
1.28846996E+02
 11
4.99999542E+01
 21
1.28846996E+02
  0
LINE
  8
0
 62
4
 10
3.49999542E+01
 20
1.21391478E+02
 11
4.99999542E+01
 21
1.21391478E+02
  0
LINE
  8
0
 62
4
 10
1.99999542E+01
 20
1.09651401E+02
 11
3.49999542E+01
 21
1.09651401E+02
  0
LINE
  8
0
 62
4
 10
2.11615182E+01
 20
1.20027550E+02
 11
3.37407015E+01
 21
1.20027550E+02
  0
LINE
  8
0
 62
4
 10
1.99999542E+01
 20
1.36002324E+02
 11
3.49999542E+01
 21
1.36002324E+02
  0
LINE
  8
0
 62
4
 10
1.99999542E+01
 20
1.37217862E+02
 11
4.99999542E+01
 21
1.37217862E+02
  0
LINE
  8
0
 62
4
 10
1.99999542E+01
 20
1.39006438E+02
 11
4.99999542E+01
 21
1.39006438E+02
  0
LINE
  8
0
  6
CENTER
 62
6
 10
4.60745511E+01
 20
1.32786227E+02
 11
3.89253573E+01
 21
1.32786227E+02
  0
LINE
  8
0
  6
CENTER
 62
6
 10
4.24999542E+01
 20
1.36360824E+02
 11
4.24999542E+01
 21
1.29211630E+02
  0
LINE
  8
0
 62
4
 10
4.99999542E+01
 20
1.39006438E+02
 11
4.99999542E+01
 21
1.21391478E+02
  0
LINE
  8
0
 62
4
 10
1.99999542E+01
 20
1.39006438E+02
 11
1.99999542E+01
 21
1.09651401E+02
  0
LINE
  8
0
 62
4
 10
3.49999542E+01
 20
1.37217862E+02
 11
3.49999542E+01
 21
1.09651401E+02
  0
LINE
  8
0
  6
CENTER
 62
6
 10
3.39999542E+01
 20
1.14830160E+02
 11
2.89999542E+01
 21
1.14830160E+02
  0
LINE
  8
0
  6
CENTER
 62
6
 10
3.14999542E+01
 20
1.17330160E+02
 11
3.14999542E+01
 21
1.12330160E+02
  0
LINE
  8
0
  6
CENTER
 62
6
 10
2.34999542E+01
 20
1.17330160E+02
 11
2.34999542E+01
 21
1.12330160E+02
  0
LINE
  8
0
  6
CENTER
 62
6
 10
2.59999542E+01
 20
1.14830160E+02
 11
2.09999542E+01
 21
1.14830160E+02
  0
LINE
  8
0
 62
4
 10
-1.55000458E+01
 20
1.28306763E+02
 11
-1.55000458E+01
 21
1.24234321E+02
  0
LINE
  8
0
 62
4
 10
-3.90000458E+01
 20
1.39006438E+02
 11
-3.90000458E+01
 21
1.28306763E+02
  0
LINE
  8
0
 62
4
 10
-9.00004578E+00
 20
1.22499985E+02
 11
-9.00004578E+00
 21
1.24489851E+02
  0
LINE
  8
0
 62
7
 10
1.99999542E+01
 20
1.22499985E+02
 11
-4.95000458E+01
 21
1.22499985E+02
  0
LINE
  8
0
 62
7
 10
1.99999542E+01
 20
1.21649994E+02
 11
-4.95000153E+01
 21
1.21649994E+02
  0
LINE
  8
0
 62
7
 10
1.99999542E+01
 20
1.16350006E+02
 11
-4.95000458E+01
 21
1.16350006E+02
  0
LINE
  8
0
  6
CENTER
 62
2
 10
-4.39555328E+02
 20
8.20000114E+01
 11
-4.54367401E+02
 21
8.20000114E+01
  0
LINE
  8
0
  6
CENTER
 62
2
 10
-4.47999908E+02
 20
7.33769951E+01
 11
-4.47999908E+02
 21
9.00194969E+01
  0
LINE
  8
0
  6
CENTER
 62
2
 10
-4.78618622E+02
 20
8.20000114E+01
 11
-4.93140287E+02
 21
8.20000114E+01
  0
LINE
  8
0
  6
CENTER
 62
2
 10
-4.84999968E+02
 20
7.36119423E+01
 11
-4.84999968E+02
 21
8.95763359E+01
  0
LINE
  8
0
  6
CENTER
 62
2
 10
-4.78618622E+02
 20
1.19000076E+02
 11
-4.93140287E+02
 21
1.19000076E+02
  0
LINE
  8
0
  6
CENTER
 62
2
 10
-4.85000090E+02
 20
1.27506653E+02
 11
-4.85000090E+02
 21
1.12585510E+02
  0
LINE
  8
0
  6
CENTER
 62
2
 10
-4.48000031E+02
 20
1.27402649E+02
 11
-4.48000031E+02
 21
1.11115662E+02
  0
LINE
  8
0
  6
CENTER
 62
2
 10
-4.39410126E+02
 20
1.19000076E+02
 11
-4.54076996E+02
 21
1.19000076E+02
  0
LINE
  8
0
 62
7
 10
-4.39000031E+02
 20
6.94999962E+01
 11
-4.94000031E+02
 21
6.94999962E+01
  0
LINE
  8
0
  6
CENTER
 62
2
 10
-4.42999969E+02
 20
1.33701294E+02
 11
-4.42999969E+02
 21
1.14382812E+02
  0
LINE
  8
0
 62
7
 10
-4.39000031E+02
 20
1.31500000E+02
 11
-4.94000031E+02
 21
1.31500000E+02
  0
LINE
  8
0
 62
7
 10
-4.97500092E+02
 20
1.28000000E+02
 11
-4.97500092E+02
 21
7.29999962E+01
  0
LINE
  8
0
 62
7
 10
-4.46000459E+02
 20
1.25732688E+02
 11
-4.43000394E+02
 21
1.27464766E+02
  0
LINE
  8
0
 62
7
 10
-4.43000230E+02
 20
1.27464087E+02
 11
-4.40000111E+02
 21
1.25731978E+02
  0
LINE
  8
0
 62
7
 10
-4.39999969E+02
 20
1.22267944E+02
 11
-4.39999969E+02
 21
1.25732025E+02
  0
LINE
  8
0
 62
7
 10
-4.43000371E+02
 20
1.20536657E+02
 11
-4.40000385E+02
 21
1.22268690E+02
  0
LINE
  8
0
 62
7
 10
-4.46000178E+02
 20
1.22267992E+02
 11
-4.43000165E+02
 21
1.20535945E+02
  0
LINE
  8
0
 62
7
 10
-4.46000092E+02
 20
1.25732025E+02
 11
-4.46000092E+02
 21
1.22267944E+02
  0
LINE
  8
0
  6
CENTER
 62
2
 10
-4.53385956E+02
 20
7.69999809E+01
 11
-4.33159882E+02
 21
7.69999809E+01
  0
LINE
  8
0
  6
CENTER
 62
2
 10
-4.66500031E+02
 20
1.40931305E+02
 11
-4.66500031E+02
 21
6.72996635E+01
  0
LINE
  8
0
 62
7
 10
-4.46000128E+02
 20
7.52678676E+01
 11
-4.43000062E+02
 21
7.35357893E+01
  0
LINE
  8
0
 62
7
 10
-4.43000297E+02
 20
7.35364988E+01
 11
-4.40000310E+02
 21
7.52685314E+01
  0
LINE
  8
0
  6
CENTER
 62
2
 10
-4.19842560E+02
 20
1.00500000E+02
 11
-5.13476349E+02
 21
1.00500000E+02
  0
LINE
  8
0
  6
CENTER
 62
2
 10
-4.79614044E+02
 20
1.24000000E+02
 11
-4.99840179E+02
 21
1.24000000E+02
  0
LINE
  8
0
  6
CENTER
 62
2
 10
-4.90000092E+02
 20
1.33701294E+02
 11
-4.90000092E+02
 21
1.14382812E+02
  0
LINE
  8
0
 62
7
 10
-4.93000031E+02
 20
7.87320366E+01
 11
-4.93000031E+02
 21
7.52679253E+01
  0
LINE
  8
0
 62
7
 10
-4.90000535E+02
 20
8.04648171E+01
 11
-4.93000495E+02
 21
7.87327998E+01
  0
LINE
  8
0
 62
7
 10
-4.87000280E+02
 20
7.87319449E+01
 11
-4.90000240E+02
 21
8.04639622E+01
  0
LINE
  8
0
 62
7
 10
-4.87000031E+02
 20
7.52679253E+01
 11
-4.87000031E+02
 21
7.87320366E+01
  0
LINE
  8
0
 62
7
 10
-4.39999969E+02
 20
7.87320366E+01
 11
-4.39999969E+02
 21
7.52679253E+01
  0
LINE
  8
0
 62
7
 10
-4.43000119E+02
 20
8.04639444E+01
 11
-4.40000159E+02
 21
7.87319271E+01
  0
LINE
  8
0
 62
7
 10
-4.46000261E+02
 20
7.87327424E+01
 11
-4.43000274E+02
 21
8.04647749E+01
  0
LINE
  8
0
 62
7
 10
-4.46000092E+02
 20
7.52679253E+01
 11
-4.46000092E+02
 21
7.87320366E+01
  0
LINE
  8
0
  6
CENTER
 62
2
 10
-4.42999969E+02
 20
6.72986870E+01
 11
-4.42999969E+02
 21
8.66171684E+01
  0
LINE
  8
0
 62
2
 10
-5.05500092E+02
 20
9.71999474E+01
 11
-5.10499969E+02
 21
9.71999474E+01
  0
LINE
  8
0
 62
7
 10
-4.87000119E+02
 20
1.25731948E+02
 11
-4.90000132E+02
 21
1.27463995E+02
  0
LINE
  8
0
 62
7
 10
-4.33999969E+02
 20
1.06500000E+02
 11
-4.27500031E+02
 21
1.06500000E+02
  0
LINE
  8
0
 62
7
 10
-4.90000439E+02
 20
1.27464863E+02
 11
-4.93000452E+02
 21
1.25732815E+02
  0
LINE
  8
0
 62
7
 10
-4.93000031E+02
 20
1.22267944E+02
 11
-4.93000031E+02
 21
1.25732025E+02
  0
LINE
  8
0
 62
7
 10
-4.90000249E+02
 20
1.20535782E+02
 11
-4.93000156E+02
 21
1.22267769E+02
  0
LINE
  8
0
 62
7
 10
-4.87000400E+02
 20
1.22268733E+02
 11
-4.90000413E+02
 21
1.20536685E+02
  0
LINE
  8
0
 62
7
 10
-4.87000031E+02
 20
1.25732025E+02
 11
-4.87000031E+02
 21
1.22267944E+02
  0
LINE
  8
0
 62
7
 10
-4.35500031E+02
 20
1.28000000E+02
 11
-4.35500031E+02
 21
7.29999962E+01
  0
LINE
  8
0
 62
7
 10
-4.90000297E+02
 20
7.35357319E+01
 11
-4.93000310E+02
 21
7.52677797E+01
  0
LINE
  8
0
  6
CENTER
 62
2
 10
-4.53385956E+02
 20
1.24000000E+02
 11
-4.33159882E+02
 21
1.24000000E+02
  0
LINE
  8
0
  6
CENTER
 62
2
 10
-4.90000092E+02
 20
6.72986870E+01
 11
-4.90000092E+02
 21
8.66171684E+01
  0
LINE
  8
0
  6
CENTER
 62
2
 10
-4.79614044E+02
 20
7.69999809E+01
 11
-4.99840179E+02
 21
7.69999809E+01
  0
LINE
  8
0
 62
7
 10
-4.87000465E+02
 20
7.52686346E+01
 11
-4.90000478E+02
 21
7.35365867E+01
  0
LINE
  8
0
 62
7
 10
-4.99000031E+02
 20
1.00500000E+02
 11
-5.04807220E+02
 21
1.00500000E+02
  0
LINE
  8
0
 62
7
 10
-5.05500092E+02
 20
9.64999657E+01
 11
-5.09800018E+02
 21
9.64999657E+01
  0
LINE
  8
0
 62
7
 10
-4.97500092E+02
 20
1.08499969E+02
 11
-4.99000031E+02
 21
1.08499969E+02
  0
LINE
  8
0
 62
7
 10
-5.10499969E+02
 20
9.72000084E+01
 11
-5.10499969E+02
 21
1.03799988E+02
  0
LINE
  8
0
 62
7
 10
-4.97500092E+02
 20
9.24999962E+01
 11
-4.99000031E+02
 21
9.24999962E+01
  0
LINE
  8
0
 62
7
 10
-4.99000031E+02
 20
1.06500000E+02
 11
-5.05500092E+02
 21
1.06500000E+02
  0
LINE
  8
0
 62
7
 10
-4.34000031E+02
 20
1.00500000E+02
 11
-4.28192841E+02
 21
1.00500000E+02
  0
LINE
  8
0
 62
7
 10
-4.35500031E+02
 20
9.24999962E+01
 11
-4.33999969E+02
 21
9.24999962E+01
  0
LINE
  8
0
 62
7
 10
-4.33999969E+02
 20
9.24999962E+01
 11
-4.33999969E+02
 21
1.08500000E+02
  0
LINE
  8
0
 62
7
 10
-4.27499969E+02
 20
9.44999962E+01
 11
-4.27499969E+02
 21
1.06500000E+02
  0
LINE
  8
0
 62
7
 10
-4.35500031E+02
 20
1.08499969E+02
 11
-4.33999969E+02
 21
1.08499969E+02
  0
LINE
  8
0
 62
7
 10
-5.05500092E+02
 20
9.44999962E+01
 11
-5.05500092E+02
 21
1.06500000E+02
  0
LINE
  8
0
 62
2
 10
-5.05500092E+02
 20
1.03799957E+02
 11
-5.10499969E+02
 21
1.03799957E+02
  0
LINE
  8
0
 62
7
 10
-5.05500092E+02
 20
1.04499969E+02
 11
-5.09800018E+02
 21
1.04499969E+02
  0
LINE
  8
0
 62
7
 10
-4.22499969E+02
 20
9.72000084E+01
 11
-4.22499969E+02
 21
1.03799988E+02
  0
LINE
  8
0
 62
7
 10
-4.99000031E+02
 20
9.44999962E+01
 11
-5.05500092E+02
 21
9.44999962E+01
  0
LINE
  8
0
 62
7
 10
-5.10499952E+02
 20
1.03799868E+02
 11
-5.09799923E+02
 21
1.04499897E+02
  0
LINE
  8
0
 62
7
 10
-5.09799989E+02
 20
9.65001688E+01
 11
-5.10500017E+02
 21
9.72001976E+01
  0
LINE
  8
0
 62
7
 10
-5.09800018E+02
 20
9.64999962E+01
 11
-5.09800018E+02
 21
1.04499969E+02
  0
LINE
  8
0
 62
7
 10
-4.27500031E+02
 20
9.64999657E+01
 11
-4.23200104E+02
 21
9.64999657E+01
  0
LINE
  8
0
 62
7
 10
-4.27500031E+02
 20
1.04499969E+02
 11
-4.23200104E+02
 21
1.04499969E+02
  0
LINE
  8
0
 62
2
 10
-4.27500031E+02
 20
9.71999474E+01
 11
-4.22500092E+02
 21
9.71999474E+01
  0
LINE
  8
0
 62
2
 10
-4.27500031E+02
 20
1.03799957E+02
 11
-4.22500092E+02
 21
1.03799957E+02
  0
LINE
  8
0
 62
7
 10
-4.23200043E+02
 20
9.64999962E+01
 11
-4.23200043E+02
 21
1.04499969E+02
  0
LINE
  8
0
 62
7
 10
-4.99000031E+02
 20
9.24999962E+01
 11
-4.99000031E+02
 21
1.08500000E+02
  0
LINE
  8
0
 62
7
 10
-4.23199845E+02
 20
9.64998378E+01
 11
-4.22499816E+02
 21
9.71998665E+01
  0
LINE
  8
0
 62
7
 10
-4.22499902E+02
 20
1.03800076E+02
 11
-4.23199887E+02
 21
1.04500062E+02
  0
LINE
  8
0
 62
7
 10
-4.56999977E+02
 20
1.38000016E+02
 11
-4.56499944E+02
 21
1.37499983E+02
  0
LINE
  8
0
 62
7
 10
-4.33999969E+02
 20
9.44999962E+01
 11
-4.27500031E+02
 21
9.44999962E+01
  0
LINE
  8
0
 62
7
 10
-4.56500031E+02
 20
1.31500000E+02
 11
-4.56500031E+02
 21
1.37500031E+02
  0
LINE
  8
0
 62
7
 10
-4.75999853E+02
 20
1.37999877E+02
 11
-4.76499856E+02
 21
1.37499900E+02
  0
LINE
  8
0
 62
7
 10
-4.76500031E+02
 20
1.31500000E+02
 11
-4.76500031E+02
 21
1.37500061E+02
  0
LINE
  8
0
 62
7
 10
-4.76000092E+02
 20
1.38000031E+02
 11
-4.57000031E+02
 21
1.38000031E+02
  0
LINE
  8
0
 62
7
 10
-4.76500031E+02
 20
1.37500031E+02
 11
-4.56500031E+02
 21
1.37500031E+02
  0
CIRCLE
  8
0
 62
7
 10
-4.66134308E+02
 20
1.00500000E+02
 40
1.60000000E+01
  0
CIRCLE
  8
0
 62
7
 10
-4.66134308E+02
 20
1.00500000E+02
 40
1.55000010E+01
  0
CIRCLE
  8
0
 62
7
 10
-4.66134308E+02
 20
1.00500000E+02
 40
1.50000000E+01
  0
ARC
  8
0
 62
7
 10
-4.94000031E+02
 20
1.28000000E+02
 40
3.50000024E+00
 50
8.99999818E+01
 51
1.79999964E+02
  0
ARC
  8
0
 62
7
 10
-4.94000031E+02
 20
7.29999962E+01
 40
3.50000024E+00
 50
1.79999977E+02
 51
2.70000028E+02
  0
CIRCLE
  8
0
 62
7
 10
-4.42999969E+02
 20
7.69999809E+01
 40
4.50000000E+00
  0
CIRCLE
  8
0
 62
7
 10
-4.42999969E+02
 20
7.69999809E+01
 40
4.74999952E+00
  0
CIRCLE
  8
0
 62
2
 10
-4.42999969E+02
 20
7.69999809E+01
 40
3.00000000E+00
  0
CIRCLE
  8
0
 62
2
 10
-4.90000092E+02
 20
7.69999809E+01
 40
3.00000000E+00
  0
CIRCLE
  8
0
 62
7
 10
-4.90000092E+02
 20
7.69999809E+01
 40
4.50000000E+00
  0
CIRCLE
  8
0
 62
7
 10
-4.90000092E+02
 20
7.69999809E+01
 40
4.74999952E+00
  0
CIRCLE
  8
0
 62
7
 10
-4.90000092E+02
 20
7.69999809E+01
 40
2.40000010E+00
  0
CIRCLE
  8
0
 62
2
 10
-4.42999969E+02
 20
1.24000000E+02
 40
3.00000000E+00
  0
CIRCLE
  8
0
 62
7
 10
-4.42999969E+02
 20
1.24000000E+02
 40
4.50000000E+00
  0
CIRCLE
  8
0
 62
7
 10
-4.42999969E+02
 20
1.24000000E+02
 40
4.74999952E+00
  0
CIRCLE
  8
0
 62
7
 10
-4.42999969E+02
 20
1.24000000E+02
 40
2.40000010E+00
  0
CIRCLE
  8
0
 62
2
 10
-4.90000092E+02
 20
1.24000000E+02
 40
3.00000000E+00
  0
CIRCLE
  8
0
 62
7
 10
-4.90000092E+02
 20
1.24000000E+02
 40
4.50000000E+00
  0
CIRCLE
  8
0
 62
7
 10
-4.90000092E+02
 20
1.24000000E+02
 40
4.74999952E+00
  0
CIRCLE
  8
0
 62
7
 10
-4.90000092E+02
 20
1.24000000E+02
 40
2.40000010E+00
  0
ARC
  8
0
 62
7
 10
-4.39000031E+02
 20
1.28000000E+02
 40
3.50000024E+00
 50
0.00000000E+00
 51
8.99999818E+01
  0
ARC
  8
0
 62
7
 10
-4.39000031E+02
 20
7.29999962E+01
 40
3.50000024E+00
 50
2.70000018E+02
 51
0.00000000E+00
  0
CIRCLE
  8
0
 62
7
 10
-4.42999969E+02
 20
7.69999809E+01
 40
2.40000010E+00
  0
ARC
  8
0
 62
7
 10
-4.34340790E+02
 20
1.03500000E+02
 40
6.84084654E+00
 50
3.33989137E+02
 51
2.60107913E+01
  0
ARC
  8
0
 62
7
 10
-4.34340851E+02
 20
9.74999962E+01
 40
6.84088755E+00
 50
3.33989277E+02
 51
2.60106513E+01
  0
ARC
  8
0
 62
7
 10
-4.98659149E+02
 20
1.03500000E+02
 40
6.84084654E+00
 50
1.53989169E+02
 51
2.06010827E+02
  0
ARC
  8
0
 62
7
 10
-4.98659149E+02
 20
9.74999962E+01
 40
6.84088755E+00
 50
1.53989320E+02
 51
2.06010690E+02
  0
CIRCLE
  8
0
 62
7
 10
-4.66500031E+02
 20
1.00500000E+02
 40
7.00000000E+00
  0
CIRCLE
  8
0
 62
4
 10
-4.66500031E+02
 20
1.00500000E+02
 40
1.10000000E+01
  0
LINE
  8
0
 62
4
 10
-4.66500031E+02
 20
1.13201706E+02
 11
-4.77500031E+02
 21
1.06850853E+02
  0
LINE
  8
0
 62
4
 10
-4.77500031E+02
 20
1.06850853E+02
 11
-4.77500031E+02
 21
9.41491470E+01
  0
LINE
  8
0
 62
4
 10
-4.77500031E+02
 20
9.41491470E+01
 11
-4.66500031E+02
 21
8.77982941E+01
  0
LINE
  8
0
 62
4
 10
-4.66500031E+02
 20
8.77982941E+01
 11
-4.55500031E+02
 21
9.41491470E+01
  0
LINE
  8
0
 62
4
 10
-4.55500031E+02
 20
9.41491470E+01
 11
-4.55500031E+02
 21
1.06850853E+02
  0
LINE
  8
0
 62
4
 10
-4.55500031E+02
 20
1.06850853E+02
 11
-4.66500031E+02
 21
1.13201706E+02
  0
CIRCLE
  8
0
 62
2
 10
-4.66500031E+02
 20
1.00500000E+02
 40
6.17999268E+00
  0
LINE
  8
0
 62
4
 10
-4.80444317E+02
 20
1.37217938E+02
 11
-4.87337972E+02
 21
1.36002401E+02
  0
LINE
  8
0
 62
4
 10
-4.87337972E+02
 20
1.36002401E+02
 11
-4.88976712E+02
 21
1.31500000E+02
  0
LINE
  8
0
 62
4
 10
-4.80444317E+02
 20
1.37217938E+02
 11
-4.79436091E+02
 21
1.31500000E+02
  0
LINE
  8
0
 62
4
 10
-4.70300798E+02
 20
1.39006514E+02
 11
-4.76008849E+02
 21
1.38000031E+02
  0
LINE
  8
0
 62
4
 10
-4.70179244E+02
 20
1.38317149E+02
 11
-4.69194436E+02
 21
1.38490797E+02
  0
LINE
  8
0
 62
4
 10
-4.69124977E+02
 20
1.38096874E+02
 11
-4.68012144E+02
 21
1.38293096E+02
  0
LINE
  8
0
 62
4
 10
-4.62820756E+02
 20
1.38317149E+02
 11
-4.63805564E+02
 21
1.38490797E+02
  0
LINE
  8
0
 62
4
 10
-4.52555683E+02
 20
1.37217938E+02
 11
-4.45662028E+02
 21
1.36002401E+02
  0
LINE
  8
0
 62
4
 10
-4.45662028E+02
 20
1.36002401E+02
 11
-4.44023288E+02
 21
1.31500000E+02
  0
LINE
  8
0
 62
4
 10
-4.52555683E+02
 20
1.37217938E+02
 11
-4.53563909E+02
 21
1.31500000E+02
  0
LINE
  8
0
 62
4
 10
-4.62699202E+02
 20
1.39006514E+02
 11
-4.56991151E+02
 21
1.38000031E+02
  0
LINE
  8
0
 62
4
 10
-4.63875023E+02
 20
1.38096874E+02
 11
-4.64987856E+02
 21
1.38293096E+02
  0
LINE
  8
0
 62
4
 10
-4.76008849E+02
 20
1.38000031E+02
 11
-4.80444317E+02
 21
1.37217938E+02
  0
LINE
  8
0
 62
4
 10
-4.70123327E+02
 20
1.38000031E+02
 11
-4.70300798E+02
 21
1.39006514E+02
  0
LINE
  8
0
 62
4
 10
-4.69107901E+02
 20
1.38000031E+02
 11
-4.69194436E+02
 21
1.38490797E+02
  0
ARC
  8
0
 62
4
 10
-4.67837706E+02
 20
1.37308428E+02
 40
1.00000000E+00
 50
4.37570934E+01
 51
9.99999999E+01
  0
ARC
  8
0
 62
4
 10
-4.65162294E+02
 20
1.37308428E+02
 40
1.00000000E+00
 50
7.99999999E+01
 51
1.36242906E+02
  0
LINE
  8
0
 62
4
 10
-4.63892099E+02
 20
1.38000031E+02
 11
-4.63805564E+02
 21
1.38490797E+02
  0
LINE
  8
0
 62
4
 10
-4.62876673E+02
 20
1.38000031E+02
 11
-4.62699202E+02
 21
1.39006514E+02
  0
LINE
  8
0
 62
4
 10
-4.56991151E+02
 20
1.38000031E+02
 11
-4.52555683E+02
 21
1.37217938E+02
  0
LINE
  8
0
  6
CENTER
 62
2
 10
2.24527651E+02
 20
1.00500000E+02
 11
2.83203766E+02
 21
1.00500000E+02
  0
LINE
  8
0
  6
CENTER
 62
2
 10
2.41381378E+02
 20
1.19000076E+02
 11
2.26859713E+02
 21
1.19000076E+02
  0
LINE
  8
0
  6
CENTER
 62
2
 10
2.41381378E+02
 20
8.20000114E+01
 11
2.26859713E+02
 21
8.20000114E+01
  0
LINE
  8
0
 62
7
 10
2.71499969E+02
 20
8.97878380E+01
 11
2.71499969E+02
 21
9.17499657E+01
  0
LINE
  8
0
 62
7
 10
2.71499969E+02
 20
1.11212158E+02
 11
2.71499969E+02
 21
1.09250031E+02
  0
LINE
  8
0
 62
7
 10
2.64211700E+02
 20
1.18500092E+02
 11
2.62250031E+02
 21
1.18500092E+02
  0
LINE
  8
0
 62
7
 10
2.35499910E+02
 20
1.11211304E+02
 11
2.35499910E+02
 21
1.09250031E+02
  0
LINE
  8
0
 62
7
 10
2.35500032E+02
 20
8.97873955E+01
 11
2.35500032E+02
 21
9.17499657E+01
  0
LINE
  8
0
 62
7
 10
2.42788055E+02
 20
8.24999199E+01
 11
2.44749969E+02
 21
8.24999199E+01
  0
LINE
  8
0
 62
7
 10
2.64213165E+02
 20
8.25000114E+01
 11
2.62250031E+02
 21
8.25000114E+01
  0
LINE
  8
0
 62
7
 10
2.33499971E+02
 20
7.59999809E+01
 11
2.33499971E+02
 21
7.54999809E+01
  0
LINE
  8
0
 62
7
 10
2.73499969E+02
 20
7.60000114E+01
 11
2.73499969E+02
 21
7.54999809E+01
  0
LINE
  8
0
 62
7
 10
2.33499971E+02
 20
1.25500031E+02
 11
2.33499971E+02
 21
1.24999969E+02
  0
LINE
  8
0
 62
7
 10
2.73499969E+02
 20
1.25500031E+02
 11
2.73499969E+02
 21
1.25000031E+02
  0
LINE
  8
0
  6
CENTER
 62
2
 10
2.35000032E+02
 20
7.36119423E+01
 11
2.35000032E+02
 21
8.95763359E+01
  0
LINE
  8
0
 62
7
 10
2.72000094E+02
 20
7.85359136E+01
 11
2.69000096E+02
 21
8.02679636E+01
  0
LINE
  8
0
  6
CENTER
 62
2
 10
2.53499969E+02
 20
1.41702284E+02
 11
2.53499969E+02
 21
7.11987419E+01
  0
LINE
  8
0
 62
7
 10
2.48499969E+02
 20
7.84999657E+01
 11
2.58500031E+02
 21
7.84999657E+01
  0
LINE
  8
0
 62
7
 10
2.72000089E+02
 20
8.54641149E+01
 11
2.69000091E+02
 21
8.37320649E+01
  0
LINE
  8
0
 62
7
 10
2.75000089E+02
 20
8.02679626E+01
 11
2.72000091E+02
 21
7.85359126E+01
  0
LINE
  8
0
 62
7
 10
2.75000092E+02
 20
8.37320595E+01
 11
2.75000092E+02
 21
8.02679634E+01
  0
LINE
  8
0
 62
7
 10
2.71999967E+02
 20
1.22464175E+02
 11
2.74999969E+02
 21
1.20732123E+02
  0
LINE
  8
0
 62
7
 10
2.39770173E+02
 20
8.81842555E+01
 11
2.40855606E+02
 21
8.92696885E+01
  0
LINE
  8
0
 62
7
 10
2.32499971E+02
 20
9.94999847E+01
 11
2.36618013E+02
 21
9.94999847E+01
  0
LINE
  8
0
 62
7
 10
2.41184322E+02
 20
8.67699771E+01
 11
2.42269798E+02
 21
8.78554533E+01
  0
LINE
  8
0
 62
7
 10
2.52500031E+02
 20
7.95000267E+01
 11
2.52500031E+02
 21
8.36180687E+01
  0
LINE
  8
0
 62
7
 10
2.31499971E+02
 20
7.54999809E+01
 11
2.75500031E+02
 21
7.54999809E+01
  0
LINE
  8
0
 62
7
 10
2.65815819E+02
 20
8.67702353E+01
 11
2.64730354E+02
 21
8.78557009E+01
  0
LINE
  8
0
 62
7
 10
2.54500031E+02
 20
7.95000267E+01
 11
2.54500031E+02
 21
8.36180687E+01
  0
LINE
  8
0
 62
7
 10
2.67230033E+02
 20
8.81844055E+01
 11
2.66144557E+02
 21
8.92698819E+01
  0
LINE
  8
0
 62
7
 10
2.74499969E+02
 20
9.95000153E+01
 11
2.70381927E+02
 21
9.95000153E+01
  0
LINE
  8
0
 62
7
 10
2.75499969E+02
 20
1.05500031E+02
 11
2.75499969E+02
 21
9.54999657E+01
  0
LINE
  8
0
 62
7
 10
2.48499969E+02
 20
1.22500031E+02
 11
2.58500031E+02
 21
1.22500031E+02
  0
LINE
  8
0
 62
7
 10
2.65815737E+02
 20
1.14229945E+02
 11
2.64730261E+02
 21
1.13144469E+02
  0
LINE
  8
0
 62
7
 10
2.67229908E+02
 20
1.12815688E+02
 11
2.66144431E+02
 21
1.11730212E+02
  0
LINE
  8
0
 62
7
 10
2.74499969E+02
 20
1.01500015E+02
 11
2.70381927E+02
 21
1.01500015E+02
  0
LINE
  8
0
 62
7
 10
2.54499969E+02
 20
1.21500000E+02
 11
2.54499969E+02
 21
1.17381958E+02
  0
LINE
  8
0
 62
7
 10
2.31500032E+02
 20
7.59999809E+01
 11
2.75500031E+02
 21
7.60000114E+01
  0
LINE
  8
0
  6
CENTER
 62
2
 10
2.80444672E+02
 20
8.20000114E+01
 11
2.65632599E+02
 21
8.20000114E+01
  0
LINE
  8
0
  6
CENTER
 62
2
 10
2.72000092E+02
 20
7.33769951E+01
 11
2.72000092E+02
 21
9.00194969E+01
  0
LINE
  8
0
 62
7
 10
2.35000035E+02
 20
7.85359133E+01
 11
2.32000033E+02
 21
8.02679652E+01
  0
LINE
  8
0
  6
CENTER
 62
2
 10
2.34999910E+02
 20
1.27506653E+02
 11
2.34999910E+02
 21
1.12585510E+02
  0
LINE
  8
0
  6
CENTER
 62
2
 10
2.57500031E+02
 20
1.27252396E+02
 11
2.57500031E+02
 21
1.16071793E+02
  0
LINE
  8
0
 62
7
 10
2.77999969E+02
 20
1.22500031E+02
 11
2.77999969E+02
 21
7.85000114E+01
  0
LINE
  8
0
 62
7
 10
2.78500031E+02
 20
1.22500031E+02
 11
2.78500031E+02
 21
7.84999809E+01
  0
LINE
  8
0
 62
7
 10
2.31499971E+02
 20
1.25500031E+02
 11
2.75500031E+02
 21
1.25500031E+02
  0
LINE
  8
0
  6
CENTER
 62
2
 10
2.71999969E+02
 20
1.27402649E+02
 11
2.71999969E+02
 21
1.11115662E+02
  0
LINE
  8
0
  6
CENTER
 62
2
 10
2.80589874E+02
 20
1.19000076E+02
 11
2.65923004E+02
 21
1.19000076E+02
  0
LINE
  8
0
 62
7
 10
2.32000032E+02
 20
8.37320595E+01
 11
2.32000032E+02
 21
8.02679634E+01
  0
LINE
  8
0
 62
7
 10
2.28499971E+02
 20
1.22500031E+02
 11
2.28499971E+02
 21
7.84999809E+01
  0
LINE
  8
0
 62
7
 10
2.31499971E+02
 20
1.24999969E+02
 11
2.75499969E+02
 21
1.25000031E+02
  0
LINE
  8
0
 62
7
 10
2.28999971E+02
 20
1.22499969E+02
 11
2.28999971E+02
 21
7.84999809E+01
  0
LINE
  8
0
 62
7
 10
2.32499971E+02
 20
1.01500000E+02
 11
2.36618013E+02
 21
1.01500000E+02
  0
LINE
  8
0
 62
7
 10
2.39770165E+02
 20
1.12815803E+02
 11
2.40855641E+02
 21
1.11730326E+02
  0
LINE
  8
0
 62
7
 10
2.52499969E+02
 20
1.21500000E+02
 11
2.52499969E+02
 21
1.17381943E+02
  0
LINE
  8
0
 62
7
 10
2.41184324E+02
 20
1.14229984E+02
 11
2.42269790E+02
 21
1.13144518E+02
  0
LINE
  8
0
 62
7
 10
2.31499971E+02
 20
1.05500031E+02
 11
2.31499971E+02
 21
9.54999657E+01
  0
LINE
  8
0
 62
7
 10
2.35000029E+02
 20
8.54641149E+01
 11
2.32000029E+02
 21
8.37320640E+01
  0
LINE
  8
0
 62
7
 10
2.69000092E+02
 20
8.37320595E+01
 11
2.69000092E+02
 21
8.02679634E+01
  0
LINE
  8
0
 62
7
 10
2.72000096E+02
 20
8.54641159E+01
 11
2.75000094E+02
 21
8.37320659E+01
  0
LINE
  8
0
 62
7
 10
2.37999905E+02
 20
1.17268025E+02
 11
2.34999907E+02
 21
1.15535975E+02
  0
LINE
  8
0
 62
7
 10
2.37999908E+02
 20
1.20732132E+02
 11
2.37999908E+02
 21
1.17268021E+02
  0
LINE
  8
0
 62
7
 10
2.42886932E+02
 20
1.18529190E+02
 11
2.44917023E+02
 21
1.18529190E+02
  0
LINE
  8
0
 62
7
 10
2.34999905E+02
 20
1.22464177E+02
 11
2.31999907E+02
 21
1.20732128E+02
  0
LINE
  8
0
 62
7
 10
2.34999911E+02
 20
1.15535973E+02
 11
2.31999909E+02
 21
1.17268025E+02
  0
LINE
  8
0
 62
7
 10
2.31999910E+02
 20
1.20732132E+02
 11
2.31999910E+02
 21
1.17268021E+02
  0
LINE
  8
0
 62
7
 10
2.71999965E+02
 20
1.22464177E+02
 11
2.68999963E+02
 21
1.20732125E+02
  0
LINE
  8
0
 62
7
 10
2.74999969E+02
 20
1.20732132E+02
 11
2.74999969E+02
 21
1.17268021E+02
  0
LINE
  8
0
 62
7
 10
2.74999965E+02
 20
1.17268025E+02
 11
2.71999963E+02
 21
1.15535973E+02
  0
LINE
  8
0
 62
7
 10
2.71999969E+02
 20
1.15535970E+02
 11
2.68999967E+02
 21
1.17268022E+02
  0
LINE
  8
0
 62
7
 10
2.68999970E+02
 20
1.20732132E+02
 11
2.68999970E+02
 21
1.17268021E+02
  0
LINE
  8
0
 62
7
 10
2.34999909E+02
 20
1.22464178E+02
 11
2.37999911E+02
 21
1.20732126E+02
  0
LINE
  8
0
 62
7
 10
2.38000029E+02
 20
8.02679626E+01
 11
2.35000029E+02
 21
7.85359117E+01
  0
LINE
  8
0
 62
7
 10
2.38000031E+02
 20
8.37320595E+01
 11
2.38000031E+02
 21
8.02679634E+01
  0
LINE
  8
0
 62
7
 10
2.35000033E+02
 20
8.54641175E+01
 11
2.38000035E+02
 21
8.37320656E+01
  0
LINE
  8
0
 62
7
 10
2.10199923E+02
 20
9.65000267E+01
 11
2.10199923E+02
 21
1.04500000E+02
  0
LINE
  8
0
 62
7
 10
2.10199967E+02
 20
9.64998579E+01
 11
2.09499981E+02
 21
9.71998435E+01
  0
LINE
  8
0
 62
7
 10
2.09499948E+02
 20
1.03800064E+02
 11
2.10199966E+02
 21
1.04500082E+02
  0
LINE
  8
0
 62
7
 10
2.20999971E+02
 20
9.44999962E+01
 11
2.14499987E+02
 21
9.44999962E+01
  0
LINE
  8
0
 62
7
 10
2.20999971E+02
 20
1.00500000E+02
 11
2.15192781E+02
 21
1.00500000E+02
  0
LINE
  8
0
 62
7
 10
2.20999971E+02
 20
1.06500000E+02
 11
2.14499987E+02
 21
1.06500000E+02
  0
LINE
  8
0
 62
7
 10
2.22499971E+02
 20
1.28000031E+02
 11
2.22499971E+02
 21
7.30000114E+01
  0
LINE
  8
0
 62
7
 10
2.25999971E+02
 20
1.31500000E+02
 11
2.31023288E+02
 21
1.31500000E+02
  0
LINE
  8
0
 62
7
 10
2.84500000E+02
 20
1.08499969E+02
 11
2.86000000E+02
 21
1.08499969E+02
  0
LINE
  8
0
 62
7
 10
2.97499969E+02
 20
9.72000389E+01
 11
2.97499969E+02
 21
1.03799988E+02
  0
LINE
  8
0
 62
7
 10
2.92500031E+02
 20
9.64999962E+01
 11
2.96800049E+02
 21
9.64999962E+01
  0
LINE
  8
0
 62
7
 10
2.84500000E+02
 20
9.24999962E+01
 11
2.86000000E+02
 21
9.24999962E+01
  0
LINE
  8
0
 62
7
 10
2.96800018E+02
 20
9.65000267E+01
 11
2.96800018E+02
 21
1.04500000E+02
  0
LINE
  8
0
 62
7
 10
2.96799920E+02
 20
9.65000580E+01
 11
2.97499981E+02
 21
9.72001193E+01
  0
LINE
  8
0
 62
7
 10
2.25999971E+02
 20
6.94999962E+01
 11
2.81000000E+02
 21
6.94999962E+01
  0
LINE
  8
0
 62
7
 10
2.85999939E+02
 20
9.25000267E+01
 11
2.85999939E+02
 21
1.08500000E+02
  0
LINE
  8
0
 62
7
 10
2.92500031E+02
 20
1.04499969E+02
 11
2.96800049E+02
 21
1.04499969E+02
  0
LINE
  8
0
 62
2
 10
2.92500031E+02
 20
9.71999779E+01
 11
2.97500031E+02
 21
9.71999779E+01
  0
LINE
  8
0
 62
2
 10
2.92500031E+02
 20
1.03799957E+02
 11
2.97500031E+02
 21
1.03799957E+02
  0
LINE
  8
0
 62
7
 10
2.97499959E+02
 20
1.03799876E+02
 11
2.96799952E+02
 21
1.04499883E+02
  0
LINE
  8
0
 62
7
 10
2.86000092E+02
 20
1.06500000E+02
 11
2.92500031E+02
 21
1.06500000E+02
  0
LINE
  8
0
 62
7
 10
2.86000000E+02
 20
1.00500000E+02
 11
2.91807129E+02
 21
1.00500000E+02
  0
LINE
  8
0
 62
7
 10
2.86000092E+02
 20
9.44999962E+01
 11
2.92500031E+02
 21
9.44999962E+01
  0
LINE
  8
0
 62
7
 10
2.20999910E+02
 20
9.25000267E+01
 11
2.20999910E+02
 21
1.08500000E+02
  0
LINE
  8
0
 62
7
 10
2.92499969E+02
 20
9.44999962E+01
 11
2.92499969E+02
 21
1.06500000E+02
  0
LINE
  8
0
 62
7
 10
2.22500017E+02
 20
1.08499969E+02
 11
2.20999971E+02
 21
1.08499969E+02
  0
LINE
  8
0
 62
7
 10
2.22500017E+02
 20
9.24999962E+01
 11
2.20999971E+02
 21
9.24999962E+01
  0
LINE
  8
0
 62
7
 10
2.84499908E+02
 20
1.28000031E+02
 11
2.84499908E+02
 21
7.30000114E+01
  0
LINE
  8
0
 62
7
 10
2.09499971E+02
 20
9.72000389E+01
 11
2.09499971E+02
 21
1.03799988E+02
  0
LINE
  8
0
 62
7
 10
2.14499971E+02
 20
9.44999962E+01
 11
2.14499971E+02
 21
1.06500000E+02
  0
LINE
  8
0
 62
7
 10
2.14499987E+02
 20
9.64999962E+01
 11
2.10200060E+02
 21
9.64999962E+01
  0
LINE
  8
0
 62
2
 10
2.14499987E+02
 20
9.71999779E+01
 11
2.09499987E+02
 21
9.71999779E+01
  0
LINE
  8
0
 62
7
 10
2.14499987E+02
 20
1.04499969E+02
 11
2.10200060E+02
 21
1.04499969E+02
  0
LINE
  8
0
 62
2
 10
2.14499987E+02
 20
1.03799957E+02
 11
2.09499987E+02
 21
1.03799957E+02
  0
LINE
  8
0
 62
7
 10
2.52884573E+02
 20
1.38000031E+02
 11
2.54115427E+02
 21
1.38000031E+02
  0
LINE
  8
0
 62
7
 10
2.53164553E+02
 20
1.37500031E+02
 11
2.53835447E+02
 21
1.37500031E+02
  0
CIRCLE
  8
0
 62
2
 10
2.71999969E+02
 20
1.19000076E+02
 40
3.00000000E+00
  0
CIRCLE
  8
0
 62
7
 10
2.71999969E+02
 20
1.19000076E+02
 40
2.40000010E+00
  0
ARC
  8
0
 62
7
 10
2.31499971E+02
 20
1.22499969E+02
 40
2.50000000E+00
 50
9.00000162E+01
 51
1.80000005E+02
  0
CIRCLE
  8
0
 62
7
 10
2.34999910E+02
 20
1.19000000E+02
 40
5.00000000E+00
  0
CIRCLE
  8
0
 62
7
 10
2.34999910E+02
 20
1.19000000E+02
 40
4.50000000E+00
  0
ARC
  8
0
 62
7
 10
2.41891388E+02
 20
1.14936981E+02
 40
1.00000000E+00
 50
1.49477556E+02
 51
2.24999381E+02
  0
ARC
  8
0
 62
7
 10
2.32499971E+02
 20
1.02500000E+02
 40
1.00000000E+00
 50
1.79999991E+02
 51
2.70000028E+02
  0
ARC
  8
0
 62
7
 10
2.36618013E+02
 20
1.02500000E+02
 40
1.00000000E+00
 50
2.70000038E+02
 51
3.53243910E+02
  0
ARC
  8
0
 62
7
 10
2.39062958E+02
 20
1.12108566E+02
 40
1.00000000E+00
 50
4.50006569E+01
 51
1.20522253E+02
  0
ARC
  8
0
 62
7
 10
2.51499969E+02
 20
1.21500000E+02
 40
1.00000000E+00
 50
3.59721781E-05
 51
9.00000162E+01
  0
ARC
  8
0
 62
7
 10
2.51499969E+02
 20
1.17381943E+02
 40
1.00000000E+00
 50
2.76756256E+02
 51
3.59721781E-05
  0
ARC
  8
0
 62
7
 10
2.40148407E+02
 20
1.11023087E+02
 40
1.00000000E+00
 50
3.21756388E+02
 51
4.50000423E+01
  0
ARC
  8
0
 62
7
 10
2.42976837E+02
 20
1.13851517E+02
 40
1.00000000E+00
 50
2.25000614E+02
 51
3.08244204E+02
  0
ARC
  8
0
 62
7
 10
2.31499971E+02
 20
1.22500031E+02
 40
3.00000000E+00
 50
9.00000162E+01
 51
1.80000005E+02
  0
ARC
  8
0
 62
7
 10
2.32499971E+02
 20
1.05500031E+02
 40
1.00000000E+00
 50
9.00000162E+01
 51
1.80000005E+02
  0
ARC
  8
0
 62
7
 10
2.32499971E+02
 20
1.09500031E+02
 40
3.00000000E+00
 50
2.70000052E+02
 51
2.02641660E+00
  0
ARC
  8
0
 62
7
 10
2.36497469E+02
 20
1.11141464E+02
 40
1.00000000E+00
 50
1.00789092E+02
 51
1.82026126E+02
  0
ARC
  8
0
 62
7
 10
2.34999971E+02
 20
1.19000061E+02
 40
7.00000000E+00
 50
2.80788643E+02
 51
3.49211298E+02
  0
ARC
  8
0
 62
7
 10
2.42858551E+02
 20
1.17502563E+02
 40
1.00000000E+00
 50
8.79748173E+01
 51
1.69211544E+02
  0
ARC
  8
0
 62
7
 10
2.44499969E+02
 20
1.21500061E+02
 40
3.00000000E+00
 50
2.67974191E+02
 51
3.59999431E+02
  0
ARC
  8
0
 62
7
 10
2.48499969E+02
 20
1.21500031E+02
 40
1.00000000E+00
 50
9.00000162E+01
 51
1.80000005E+02
  0
ARC
  8
0
 62
7
 10
2.75500031E+02
 20
7.85000114E+01
 40
2.50000000E+00
 50
2.70000052E+02
 51
3.59721781E-05
  0
ARC
  8
0
 62
7
 10
2.75499969E+02
 20
1.22500031E+02
 40
2.50000000E+00
 50
3.59721781E-05
 51
9.00000162E+01
  0
ARC
  8
0
 62
7
 10
2.75500031E+02
 20
1.22500031E+02
 40
3.00000000E+00
 50
3.59721781E-05
 51
9.00000162E+01
  0
ARC
  8
0
 62
7
 10
2.75500031E+02
 20
7.84999809E+01
 40
3.00000000E+00
 50
2.70000052E+02
 51
3.59721781E-05
  0
CIRCLE
  8
0
 62
7
 10
2.71999969E+02
 20
1.19000061E+02
 40
4.50000000E+00
  0
CIRCLE
  8
0
 62
7
 10
2.71999969E+02
 20
1.19000061E+02
 40
5.00000000E+00
  0
CIRCLE
  8
0
 62
7
 10
2.72000031E+02
 20
8.19999962E+01
 40
4.50000000E+00
  0
CIRCLE
  8
0
 62
7
 10
2.72000031E+02
 20
8.19999962E+01
 40
5.00000000E+00
  0
ARC
  8
0
 62
7
 10
2.74499969E+02
 20
1.02500000E+02
 40
1.00000000E+00
 50
2.70000052E+02
 51
3.59721781E-05
  0
ARC
  8
0
 62
7
 10
2.55499969E+02
 20
1.21500000E+02
 40
1.00000000E+00
 50
9.00000025E+01
 51
1.80000046E+02
  0
ARC
  8
0
 62
7
 10
2.65108551E+02
 20
1.14937042E+02
 40
1.00000000E+00
 50
3.15000662E+02
 51
3.05222541E+01
  0
ARC
  8
0
 62
7
 10
2.71999969E+02
 20
1.19000061E+02
 40
7.00000000E+00
 50
1.90788716E+02
 51
2.59211379E+02
  0
ARC
  8
0
 62
7
 10
2.67936981E+02
 20
1.12108612E+02
 40
1.00000000E+00
 50
5.94775673E+01
 51
1.34999386E+02
  0
ARC
  8
0
 62
7
 10
2.55499969E+02
 20
1.17381958E+02
 40
1.00000000E+00
 50
1.80000036E+02
 51
2.63243916E+02
  0
ARC
  8
0
 62
7
 10
2.64023102E+02
 20
1.13851593E+02
 40
1.00000000E+00
 50
2.31756382E+02
 51
3.15000026E+02
  0
ARC
  8
0
 62
7
 10
2.66851532E+02
 20
1.11023163E+02
 40
1.00000000E+00
 50
1.35000629E+02
 51
2.18244215E+02
  0
ARC
  8
0
 62
7
 10
2.70381927E+02
 20
1.02500000E+02
 40
1.00000000E+00
 50
1.86756227E+02
 51
2.70000038E+02
  0
ARC
  8
0
 62
7
 10
2.65108612E+02
 20
8.60630150E+01
 40
1.00000000E+00
 50
3.29477575E+02
 51
4.49993865E+01
  0
ARC
  8
0
 62
7
 10
2.74499969E+02
 20
9.84999962E+01
 40
1.00000000E+00
 50
8.65142224E-06
 51
9.00000437E+01
  0
ARC
  8
0
 62
7
 10
2.70381927E+02
 20
9.84999962E+01
 40
1.00000000E+00
 50
9.00000437E+01
 51
1.73243923E+02
  0
ARC
  8
0
 62
7
 10
2.67937042E+02
 20
8.88914146E+01
 40
1.00000000E+00
 50
2.25000642E+02
 51
3.00522242E+02
  0
ARC
  8
0
 62
7
 10
2.55499969E+02
 20
7.94999962E+01
 40
1.00000000E+00
 50
1.80000022E+02
 51
2.70000011E+02
  0
ARC
  8
0
 62
7
 10
2.55499969E+02
 20
8.36180382E+01
 40
1.00000000E+00
 50
9.67562412E+01
 51
1.80000032E+02
  0
ARC
  8
0
 62
7
 10
2.66851593E+02
 20
8.99768944E+01
 40
1.00000000E+00
 50
1.41756382E+02
 51
2.25000037E+02
  0
ARC
  8
0
 62
7
 10
2.64023163E+02
 20
8.71484642E+01
 40
1.00000000E+00
 50
4.50006297E+01
 51
1.28244219E+02
  0
ARC
  8
0
 62
7
 10
2.74499969E+02
 20
1.09500031E+02
 40
3.00000000E+00
 50
1.79999991E+02
 51
2.69999974E+02
  0
ARC
  8
0
 62
7
 10
2.62500031E+02
 20
1.21500061E+02
 40
3.00000000E+00
 50
1.80000582E+02
 51
2.72025825E+02
  0
ARC
  8
0
 62
7
 10
2.74499969E+02
 20
1.05500031E+02
 40
1.00000000E+00
 50
3.59721781E-05
 51
9.00000162E+01
  0
ARC
  8
0
 62
7
 10
2.70502472E+02
 20
1.11141464E+02
 40
1.00000000E+00
 50
3.57973915E+02
 51
7.92109402E+01
  0
ARC
  8
0
 62
7
 10
2.58500031E+02
 20
1.21500031E+02
 40
1.00000000E+00
 50
3.59721781E-05
 51
9.00000162E+01
  0
ARC
  8
0
 62
7
 10
2.64141388E+02
 20
1.17502563E+02
 40
1.00000000E+00
 50
1.07884972E+01
 51
9.20252152E+01
  0
ARC
  8
0
 62
7
 10
2.70502472E+02
 20
8.98585320E+01
 40
1.00000000E+00
 50
2.80789074E+02
 51
2.02610241E+00
  0
ARC
  8
0
 62
7
 10
2.71999969E+02
 20
8.19999352E+01
 40
7.00000000E+00
 50
1.00788621E+02
 51
1.69211284E+02
  0
ARC
  8
0
 62
7
 10
2.64141388E+02
 20
8.34974327E+01
 40
1.00000000E+00
 50
2.67974785E+02
 51
3.49211503E+02
  0
ARC
  8
0
 62
7
 10
2.62500031E+02
 20
7.94999352E+01
 40
3.00000000E+00
 50
8.79741750E+01
 51
1.79999418E+02
  0
ARC
  8
0
 62
7
 10
2.58500031E+02
 20
7.94999657E+01
 40
1.00000000E+00
 50
2.69999984E+02
 51
3.59999964E+02
  0
ARC
  8
0
 62
7
 10
2.31500032E+02
 20
7.84999809E+01
 40
2.50000000E+00
 50
1.79999991E+02
 51
2.70000028E+02
  0
ARC
  8
0
 62
7
 10
2.31499971E+02
 20
7.84999809E+01
 40
3.00000000E+00
 50
1.79999991E+02
 51
2.70000028E+02
  0
CIRCLE
  8
0
 62
7
 10
2.34999971E+02
 20
8.19999352E+01
 40
4.50000000E+00
  0
CIRCLE
  8
0
 62
7
 10
2.34999971E+02
 20
8.19999352E+01
 40
5.00000000E+00
  0
ARC
  8
0
 62
7
 10
2.39063019E+02
 20
8.88913841E+01
 40
1.00000000E+00
 50
2.39477556E+02
 51
3.14999370E+02
  0
ARC
  8
0
 62
7
 10
2.51499969E+02
 20
7.94999962E+01
 40
1.00000000E+00
 50
2.69999998E+02
 51
4.96325564E-05
  0
ARC
  8
0
 62
7
 10
2.51499969E+02
 20
8.36180382E+01
 40
1.00000000E+00
 50
4.96325564E-05
 51
8.32439208E+01
  0
ARC
  8
0
 62
7
 10
2.41891388E+02
 20
8.60629539E+01
 40
1.00000000E+00
 50
1.35000656E+02
 51
2.10522249E+02
  0
ARC
  8
0
 62
7
 10
2.32499971E+02
 20
9.84999962E+01
 40
1.00000000E+00
 50
9.00000300E+01
 51
1.80000019E+02
  0
ARC
  8
0
 62
7
 10
2.36618013E+02
 20
9.84999962E+01
 40
1.00000000E+00
 50
6.75624040E+00
 51
9.00000300E+01
  0
ARC
  8
0
 62
7
 10
2.42976898E+02
 20
8.71484032E+01
 40
1.00000000E+00
 50
5.17563834E+01
 51
1.35000041E+02
  0
ARC
  8
0
 62
7
 10
2.40148468E+02
 20
8.99768333E+01
 40
1.00000000E+00
 50
3.15000634E+02
 51
3.82442202E+01
  0
ARC
  8
0
 62
7
 10
2.48499969E+02
 20
7.94999657E+01
 40
1.00000000E+00
 50
1.79999991E+02
 51
2.69999974E+02
  0
ARC
  8
0
 62
7
 10
2.44499969E+02
 20
7.94999352E+01
 40
3.00000000E+00
 50
5.68726953E-04
 51
9.20258094E+01
  0
ARC
  8
0
 62
7
 10
2.42858551E+02
 20
8.34974327E+01
 40
1.00000000E+00
 50
1.90788456E+02
 51
2.72025183E+02
  0
ARC
  8
0
 62
7
 10
2.34999971E+02
 20
8.19999352E+01
 40
7.00000000E+00
 50
1.07887021E+01
 51
7.92113567E+01
  0
ARC
  8
0
 62
7
 10
2.36497469E+02
 20
8.98585320E+01
 40
1.00000000E+00
 50
1.77973884E+02
 51
2.59210897E+02
  0
ARC
  8
0
 62
7
 10
2.32499971E+02
 20
9.14999657E+01
 40
3.00000000E+00
 50
3.57973601E+02
 51
8.99999618E+01
  0
ARC
  8
0
 62
7
 10
2.32499971E+02
 20
9.54999657E+01
 40
1.00000000E+00
 50
1.79999991E+02
 51
2.69999974E+02
  0
CIRCLE
  8
0
 62
7
 10
2.53499969E+02
 20
1.00500000E+02
 40
1.60000000E+01
  0
ARC
  8
0
 62
7
 10
2.74499969E+02
 20
9.14999657E+01
 40
3.00000000E+00
 50
9.00000162E+01
 51
1.82026372E+02
  0
ARC
  8
0
 62
7
 10
2.74499969E+02
 20
9.54999657E+01
 40
1.00000000E+00
 50
2.69999984E+02
 51
1.86693353E-05
  0
CIRCLE
  8
0
 62
2
 10
2.72000092E+02
 20
8.20000114E+01
 40
3.00000000E+00
  0
CIRCLE
  8
0
 62
7
 10
2.72000092E+02
 20
8.20000114E+01
 40
2.40000010E+00
  0
CIRCLE
  8
0
 62
2
 10
2.35000032E+02
 20
8.20000114E+01
 40
3.00000000E+00
  0
CIRCLE
  8
0
 62
7
 10
2.35000032E+02
 20
8.20000114E+01
 40
2.40000010E+00
  0
CIRCLE
  8
0
 62
2
 10
2.34999910E+02
 20
1.19000076E+02
 40
3.00000000E+00
  0
CIRCLE
  8
0
 62
7
 10
2.34999910E+02
 20
1.19000076E+02
 40
2.40000010E+00
  0
ARC
  8
0
 62
7
 10
2.21340792E+02
 20
1.03499969E+02
 40
6.84084654E+00
 50
1.53989169E+02
 51
2.06010827E+02
  0
ARC
  8
0
 62
7
 10
2.25999910E+02
 20
1.28000000E+02
 40
3.50000024E+00
 50
8.99999818E+01
 51
1.79999964E+02
  0
ARC
  8
0
 62
7
 10
2.21340792E+02
 20
9.74999962E+01
 40
6.84088755E+00
 50
1.53989320E+02
 51
2.06010690E+02
  0
ARC
  8
0
 62
7
 10
2.25999910E+02
 20
7.29999962E+01
 40
3.50000024E+00
 50
1.79999964E+02
 51
2.69999946E+02
  0
ARC
  8
0
 62
7
 10
2.81000000E+02
 20
1.28000000E+02
 40
3.50000024E+00
 50
0.00000000E+00
 51
8.99999818E+01
  0
ARC
  8
0
 62
7
 10
2.85659149E+02
 20
1.03499969E+02
 40
6.84084654E+00
 50
3.33989137E+02
 51
2.60107947E+01
  0
ARC
  8
0
 62
7
 10
2.85659058E+02
 20
9.74999962E+01
 40
6.84088755E+00
 50
3.33989274E+02
 51
2.60106444E+01
  0
ARC
  8
0
 62
7
 10
2.81000000E+02
 20
7.29999962E+01
 40
3.50000024E+00
 50
2.69999963E+02
 51
0.00000000E+00
  0
LINE
  8
0
 62
6
 10
2.24986837E+02
 20
1.12817385E+02
 11
2.28024598E+02
 21
1.13353024E+02
  0
LINE
  8
0
 62
6
 10
2.24465892E+02
 20
1.15771808E+02
 11
2.27503654E+02
 21
1.16307448E+02
  0
LINE
  8
0
 62
4
 10
2.25073661E+02
 20
1.12324981E+02
 11
2.24379068E+02
 21
1.16264212E+02
  0
LINE
  8
0
 62
4
 10
2.25073661E+02
 20
1.12324981E+02
 11
2.28111422E+02
 21
1.12860620E+02
  0
LINE
  8
0
 62
4
 10
2.24379068E+02
 20
1.16264212E+02
 11
2.27416830E+02
 21
1.16799852E+02
  0
LINE
  8
0
 62
4
 10
2.26847686E+02
 20
1.20027626E+02
 11
2.28458719E+02
 21
1.10891005E+02
  0
LINE
  8
0
 62
4
 10
2.39555683E+02
 20
1.37217938E+02
 11
2.32662028E+02
 21
1.36002401E+02
  0
LINE
  8
0
 62
4
 10
2.32662028E+02
 20
1.36002401E+02
 11
2.26847686E+02
 21
1.20027626E+02
  0
ARC
  8
0
 62
4
 10
2.29935930E+02
 20
1.11151477E+02
 40
1.50000000E+00
 50
1.90000000E+02
 51
1.96794373E+02
  0
LINE
  8
0
 62
4
 10
2.41031692E+02
 20
1.28847072E+02
 11
2.40539288E+02
 21
1.28760248E+02
  0
LINE
  8
0
 62
4
 10
2.40133708E+02
 20
1.28181020E+02
 11
2.40606439E+02
 21
1.25500031E+02
  0
ARC
  8
0
 62
4
 10
2.40626112E+02
 20
1.28267844E+02
 40
5.00000000E-01
 50
9.99999999E+01
 51
1.90000000E+02
  0
LINE
  8
0
  6
CENTER
 62
6
 10
2.33841087E+02
 20
1.15901768E+02
 11
2.26375082E+02
 21
1.14585310E+02
  0
LINE
  8
0
  6
CENTER
 62
6
 10
2.39406429E+02
 20
1.29068207E+02
 11
2.52256934E+02
 21
1.31334098E+02
  0
LINE
  8
0
  6
CENTER
 62
6
 10
2.29564793E+02
 20
1.30886855E+02
 11
2.51649166E+02
 21
1.34780925E+02
  0
LINE
  8
0
 62
4
 10
2.48324737E+02
 20
1.27797551E+02
 11
2.48649201E+02
 21
1.28260934E+02
  0
LINE
  8
0
 62
4
 10
2.48649201E+02
 20
1.28260934E+02
 11
2.51505143E+02
 21
1.28764513E+02
  0
LINE
  8
0
 62
4
 10
2.47832333E+02
 20
1.27710727E+02
 11
2.48222139E+02
 21
1.25500031E+02
  0
LINE
  8
0
 62
4
 10
2.47832333E+02
 20
1.27710727E+02
 11
2.48324737E+02
 21
1.27797551E+02
  0
LINE
  8
0
 62
4
 10
2.39555683E+02
 20
1.37217938E+02
 11
2.41031692E+02
 21
1.28847072E+02
  0
LINE
  8
0
 62
4
 10
2.49699202E+02
 20
1.39006514E+02
 11
2.39555683E+02
 21
1.37217938E+02
  0
LINE
  8
0
 62
4
 10
2.40637769E+02
 20
1.28777613E+02
 11
2.41215695E+02
 21
1.25500031E+02
  0
LINE
  8
0
 62
4
 10
2.51083220E+02
 20
1.27298983E+02
 11
2.51400424E+02
 21
1.25500031E+02
  0
LINE
  8
0
 62
4
 10
2.49100483E+02
 20
1.25500031E+02
 11
2.48852631E+02
 21
1.26905669E+02
  0
LINE
  8
0
 62
4
 10
2.51788929E+02
 20
1.28306839E+02
 11
2.51083220E+02
 21
1.27298983E+02
  0
LINE
  8
0
 62
4
 10
2.47849698E+02
 20
1.27612246E+02
 11
2.48852631E+02
 21
1.26905669E+02
  0
LINE
  8
0
 62
4
 10
2.48852631E+02
 20
1.26905669E+02
 11
2.51083220E+02
 21
1.27298983E+02
  0
LINE
  8
0
 62
4
 10
2.47849698E+02
 20
1.27612246E+02
 11
2.51788929E+02
 21
1.28306839E+02
  0
LINE
  8
0
 62
4
 10
2.51788929E+02
 20
1.28306839E+02
 11
2.52283845E+02
 21
1.25500031E+02
  0
LINE
  8
0
  6
CENTER
 62
6
 10
2.49645665E+02
 20
1.28944351E+02
 11
2.50687554E+02
 21
1.23035504E+02
  0
LINE
  8
0
  6
CENTER
 62
6
 10
2.47212187E+02
 20
1.25468983E+02
 11
2.53121033E+02
 21
1.26510872E+02
  0
LINE
  8
0
 62
4
 10
2.49820756E+02
 20
1.38317149E+02
 11
2.50805564E+02
 21
1.38490797E+02
  0
ARC
  8
0
 62
4
 10
2.52995806E+02
 20
1.32581350E+02
 40
1.00000000E+00
 50
3.28723662E+02
 51
3.57172490E+02
  0
ARC
  8
0
 62
4
 10
2.52162294E+02
 20
1.37308428E+02
 40
1.00000000E+00
 50
2.28275100E+01
 51
9.99999999E+01
  0
ARC
  8
0
 62
4
 10
2.42198966E+02
 20
1.33114600E+02
 40
1.18100000E+01
 50
3.57172490E+02
 51
2.28275100E+01
  0
LINE
  8
0
 62
4
 10
2.50875023E+02
 20
1.38096874E+02
 11
2.51987856E+02
 21
1.38293096E+02
  0
LINE
  8
0
 62
4
 10
2.51352556E+02
 20
1.35388652E+02
 11
2.50805564E+02
 21
1.38490797E+02
  0
LINE
  8
0
 62
4
 10
2.52183255E+02
 20
1.27107086E+02
 11
2.50741975E+02
 21
1.35280991E+02
  0
LINE
  8
0
 62
4
 10
2.50393795E+02
 20
1.35067283E+02
 11
2.50768022E+02
 21
1.35133269E+02
  0
LINE
  8
0
 62
4
 10
2.51979942E+02
 20
1.27223551E+02
 11
2.52157207E+02
 21
1.27254807E+02
  0
LINE
  8
0
 62
4
 10
2.50741975E+02
 20
1.35280991E+02
 11
2.52475236E+02
 21
1.35586611E+02
  0
LINE
  8
0
 62
4
 10
2.52183255E+02
 20
1.27107086E+02
 11
2.53916516E+02
 21
1.27412707E+02
  0
ARC
  8
0
 62
4
 10
2.42302819E+02
 20
1.29586777E+02
 40
1.18100000E+01
 50
9.99999999E+00
 51
3.05326991E+01
  0
ARC
  8
0
 62
4
 10
2.42305506E+02
 20
1.29571535E+02
 40
1.18100000E+01
 50
3.49467301E+02
 51
9.99999999E+00
  0
LINE
  8
0
 62
4
 10
2.51591968E+02
 20
1.28272110E+02
 11
2.49699202E+02
 21
1.39006514E+02
  0
LINE
  8
0
 62
4
 10
2.55217019E+02
 20
1.27188821E+02
 11
2.57300798E+02
 21
1.39006514E+02
  0
LINE
  8
0
 62
4
 10
2.55217019E+02
 20
1.27188821E+02
 11
2.54842793E+02
 21
1.27254807E+02
  0
LINE
  8
0
 62
4
 10
2.54816745E+02
 20
1.27107086E+02
 11
2.55485291E+02
 21
1.30898596E+02
  0
LINE
  8
0
 62
4
 10
2.54874710E+02
 20
1.31006258E+02
 11
2.56194436E+02
 21
1.38490797E+02
  0
LINE
  8
0
 62
4
 10
2.57179244E+02
 20
1.38317149E+02
 11
2.56194436E+02
 21
1.38490797E+02
  0
LINE
  8
0
 62
4
 10
2.55859518E+02
 20
1.30832610E+02
 11
2.54874710E+02
 21
1.31006258E+02
  0
ARC
  8
0
 62
4
 10
2.56703154E+02
 20
1.25251321E+02
 40
5.00000000E-01
 50
2.98293252E+01
 51
1.50170675E+02
  0
CIRCLE
  8
0
 62
4
 10
2.56963626E+02
 20
1.26728533E+02
 40
5.00000000E-01
  0
CIRCLE
  8
0
 62
4
 10
2.56963626E+02
 20
1.26728533E+02
 40
3.00000000E-01
  0
ARC
  8
0
 62
4
 10
2.56703154E+02
 20
1.25251321E+02
 40
3.00000000E-01
 50
5.59992305E+01
 51
1.24000769E+02
  0
ARC
  8
0
 62
4
 10
2.56833390E+02
 20
1.25989927E+02
 40
1.50000000E+00
 50
3.40937591E+02
 51
1.99062409E+02
  0
LINE
  8
0
 62
4
 10
2.80152314E+02
 20
1.20027626E+02
 11
2.78541281E+02
 21
1.10891005E+02
  0
LINE
  8
0
 62
4
 10
2.67444317E+02
 20
1.37217938E+02
 11
2.74337972E+02
 21
1.36002401E+02
  0
LINE
  8
0
 62
4
 10
2.74337972E+02
 20
1.36002401E+02
 11
2.80152314E+02
 21
1.20027626E+02
  0
ARC
  8
0
 62
4
 10
2.77064070E+02
 20
1.11151477E+02
 40
1.50000000E+00
 50
3.43189498E+02
 51
3.50000000E+02
  0
LINE
  8
0
 62
4
 10
2.65968308E+02
 20
1.28847072E+02
 11
2.66460712E+02
 21
1.28760248E+02
  0
LINE
  8
0
 62
4
 10
2.66866292E+02
 20
1.28181020E+02
 11
2.66393561E+02
 21
1.25500031E+02
  0
ARC
  8
0
 62
4
 10
2.66373888E+02
 20
1.28267844E+02
 40
5.00000000E-01
 50
3.50000000E+02
 51
7.99999999E+01
  0
LINE
  8
0
  6
CENTER
 62
6
 10
2.73567979E+02
 20
1.15829639E+02
 11
2.81033983E+02
 21
1.14513181E+02
  0
LINE
  8
0
  6
CENTER
 62
6
 10
2.67593571E+02
 20
1.29068207E+02
 11
2.54743066E+02
 21
1.31334098E+02
  0
LINE
  8
0
  6
CENTER
 62
6
 10
2.77435207E+02
 20
1.30886855E+02
 11
2.55350834E+02
 21
1.34780925E+02
  0
LINE
  8
0
 62
4
 10
2.58675263E+02
 20
1.27797551E+02
 11
2.58350799E+02
 21
1.28260934E+02
  0
LINE
  8
0
 62
4
 10
2.58350799E+02
 20
1.28260934E+02
 11
2.55494857E+02
 21
1.28764513E+02
  0
LINE
  8
0
 62
4
 10
2.59167667E+02
 20
1.27710727E+02
 11
2.58777861E+02
 21
1.25500031E+02
  0
LINE
  8
0
 62
4
 10
2.59167667E+02
 20
1.27710727E+02
 11
2.58675263E+02
 21
1.27797551E+02
  0
LINE
  8
0
 62
4
 10
2.67444317E+02
 20
1.37217938E+02
 11
2.65968308E+02
 21
1.28847072E+02
  0
LINE
  8
0
 62
4
 10
2.57300798E+02
 20
1.39006514E+02
 11
2.67444317E+02
 21
1.37217938E+02
  0
LINE
  8
0
 62
4
 10
2.66362231E+02
 20
1.28777613E+02
 11
2.65784305E+02
 21
1.25500031E+02
  0
LINE
  8
0
 62
4
 10
2.59150302E+02
 20
1.27612246E+02
 11
2.55211071E+02
 21
1.28306839E+02
  0
LINE
  8
0
 62
4
 10
2.55211071E+02
 20
1.28306839E+02
 11
2.54716155E+02
 21
1.25500031E+02
  0
LINE
  8
0
  6
CENTER
 62
6
 10
2.57354335E+02
 20
1.28944351E+02
 11
2.56312446E+02
 21
1.23035504E+02
  0
LINE
  8
0
  6
CENTER
 62
6
 10
2.59787813E+02
 20
1.25468983E+02
 11
2.53878967E+02
 21
1.26510872E+02
  0
LINE
  8
0
 62
4
 10
2.82620932E+02
 20
1.16264212E+02
 11
2.79583170E+02
 21
1.16799852E+02
  0
LINE
  8
0
 62
4
 10
2.81926339E+02
 20
1.12324981E+02
 11
2.78888578E+02
 21
1.12860620E+02
  0
LINE
  8
0
 62
6
 10
2.82534108E+02
 20
1.15771808E+02
 11
2.79496346E+02
 21
1.16307448E+02
  0
LINE
  8
0
 62
6
 10
2.82013163E+02
 20
1.12817385E+02
 11
2.78975402E+02
 21
1.13353024E+02
  0
LINE
  8
0
 62
4
 10
2.81926339E+02
 20
1.12324981E+02
 11
2.82620932E+02
 21
1.16264212E+02
  0
ARC
  8
0
 62
4
 10
2.54837706E+02
 20
1.37308428E+02
 40
1.00000000E+00
 50
7.99999999E+01
 51
1.57172490E+02
  0
LINE
  8
0
 62
4
 10
2.56124977E+02
 20
1.38096874E+02
 11
2.55012144E+02
 21
1.38293096E+02
  0
ARC
  8
0
  6
DASHED
 62
4
 10
2.64801034E+02
 20
1.33114600E+02
 40
1.18100000E+01
 50
1.63117791E+02
 51
1.82827510E+02
  0
LINE
  8
0
 62
4
 10
2.54944169E+02
 20
1.31400181E+02
 11
2.53944068E+02
 21
1.31576526E+02
  0
ARC
  8
0
  6
DASHED
 62
4
 10
2.54004194E+02
 20
1.32581350E+02
 40
1.00000000E+00
 50
1.82827510E+02
 51
2.60000000E+02
  0
ARC
  8
0
  6
DASHED
 62
4
 10
2.64694494E+02
 20
1.29571535E+02
 40
1.18100000E+01
 50
1.70000000E+02
 51
1.90532699E+02
  0
ARC
  8
0
  6
DASHED
 62
4
 10
2.64697181E+02
 20
1.29586777E+02
 40
1.18100000E+01
 50
1.67900933E+02
 51
1.70000000E+02
  0
LINE
  8
0
 62
4
 10
2.54816745E+02
 20
1.27107086E+02
 11
2.53500000E+02
 21
1.27339264E+02
  0
ARC
  8
0
 62
4
 10
2.64801034E+02
 20
1.33114600E+02
 40
1.18100000E+01
 50
1.57172490E+02
 51
1.63117791E+02
  0
LINE
  8
0
  6
DASHED
 62
4
 10
2.53944068E+02
 20
1.31576526E+02
 11
2.53831336E+02
 21
1.31596403E+02
  0
LINE
  8
0
  6
DASHED
 62
4
 10
2.53500000E+02
 20
1.27339264E+02
 11
2.53083484E+02
 21
1.27412707E+02
  0
LINE
  8
0
 62
7
 10
2.75976712E+02
 20
1.31500000E+02
 11
2.81000000E+02
 21
1.31500000E+02
  0
LINE
  8
0
  6
PHANTOM
 10
5.50000000E+00
 20
3.11114332E+02
 11
5.50000000E+00
 21
1.89596102E+02
  0
LINE
  8
0
  6
CENTER
 62
2
 10
-6.25000000E+01
 20
2.54484131E+02
 11
-6.25000000E+01
 21
2.74644165E+02
  0
LINE
  8
0
  6
CENTER
 62
2
 10
-7.26166992E+01
 20
2.64499939E+02
 11
-5.25515594E+01
 21
2.64499939E+02
  0
LINE
  8
0
  6
CENTER
 62
2
 10
-5.49999847E+01
 20
2.44580292E+02
 11
-5.49999847E+01
 21
2.56104919E+02
  0
LINE
  8
0
 62
7
 10
-3.01000000E+02
 20
2.45500000E+02
 11
-2.96491028E+02
 21
2.45500000E+02
  0
LINE
  8
0
 62
7
 10
-2.87999969E+02
 20
2.44500031E+02
 11
-2.86499969E+02
 21
2.44500031E+02
  0
LINE
  8
0
 62
7
 10
-2.96258750E+02
 20
2.45241637E+02
 11
-2.88499167E+02
 21
2.44970666E+02
  0
LINE
  8
0
 62
7
 10
-3.01499908E+02
 20
2.46000000E+02
 11
-3.01499908E+02
 21
2.75000000E+02
  0
LINE
  8
0
 62
7
 10
-3.01000000E+02
 20
2.75500061E+02
 11
-2.96491028E+02
 21
2.75500061E+02
  0
LINE
  8
0
 62
7
 10
-2.87999969E+02
 20
2.76500031E+02
 11
-2.86499969E+02
 21
2.76500031E+02
  0
LINE
  8
0
 62
7
 10
-4.94999542E+01
 20
2.35500000E+02
 11
-4.94999542E+01
 21
2.85500000E+02
  0
LINE
  8
0
 62
7
 10
-8.04999390E+01
 20
2.36532471E+02
 11
-8.04999390E+01
 21
2.84467529E+02
  0
LINE
  8
0
 62
7
 10
-2.96258697E+02
 20
2.75758551E+02
 11
-2.88499114E+02
 21
2.76029520E+02
  0
LINE
  8
0
 62
7
 10
-2.96499908E+02
 20
2.75500031E+02
 11
-2.96499908E+02
 21
2.45499969E+02
  0
LINE
  8
0
 62
7
 10
-2.88499908E+02
 20
2.76000000E+02
 11
-2.88499908E+02
 21
2.44970581E+02
  0
LINE
  8
0
 62
7
 10
-4.95000154E+01
 20
2.85500062E+02
 11
-8.00087505E+01
 21
2.84967534E+02
  0
LINE
  8
0
 62
7
 10
-4.94999459E+01
 20
2.35500124E+02
 11
-8.00086963E+01
 21
2.36032660E+02
  0
LINE
  8
0
  6
CENTER
 62
2
 10
-6.06965942E+01
 20
2.50500000E+02
 11
-4.90811005E+01
 21
2.50500000E+02
  0
LINE
  8
0
 62
7
 10
-7.34999390E+01
 20
2.80500000E+02
 11
-4.94999542E+01
 21
2.80500000E+02
  0
LINE
  8
0
 62
7
 10
-7.34999390E+01
 20
2.40500000E+02
 11
-4.94999542E+01
 21
2.40500000E+02
  0
LINE
  8
0
 62
7
 10
-7.54999390E+01
 20
2.78500000E+02
 11
-7.54999390E+01
 21
2.42500000E+02
  0
LINE
  8
0
  6
CENTER
 62
2
 10
-8.27269592E+01
 20
2.42000000E+02
 11
8.96034698E+01
 21
2.42000000E+02
  0
LINE
  8
0
 62
7
 10
-3.14499969E+02
 20
2.54199966E+02
 11
-3.11499908E+02
 21
2.54199966E+02
  0
LINE
  8
0
 62
7
 10
-4.94999542E+01
 20
2.44649994E+02
 11
1.99999542E+01
 21
2.44649994E+02
  0
LINE
  8
0
 62
7
 10
-4.94999542E+01
 20
2.39350006E+02
 11
1.99999542E+01
 21
2.39350006E+02
  0
LINE
  8
0
 62
7
 10
-4.94999542E+01
 20
2.38500015E+02
 11
1.99999542E+01
 21
2.38500015E+02
  0
LINE
  8
0
  6
CENTER
 62
2
 10
-8.27269592E+01
 20
2.79000000E+02
 11
8.96034698E+01
 21
2.79000000E+02
  0
LINE
  8
0
 62
7
 10
-4.94999542E+01
 20
2.76350006E+02
 11
-2.39999542E+01
 21
2.76350006E+02
  0
LINE
  8
0
 62
7
 10
-4.94999542E+01
 20
2.81649994E+02
 11
-2.39999542E+01
 21
2.81649994E+02
  0
LINE
  8
0
 62
7
 10
-5.35566135E+01
 20
2.50500089E+02
 11
-5.42782861E+01
 21
2.51750079E+02
  0
LINE
  8
0
 62
7
 10
-5.42782898E+01
 20
2.51750061E+02
 11
-5.57216797E+01
 21
2.51750061E+02
  0
LINE
  8
0
 62
7
 10
-4.94999542E+01
 20
2.82499969E+02
 11
-2.39999542E+01
 21
2.82499969E+02
  0
LINE
  8
0
  6
CENTER
 62
2
 10
6.95000000E+01
 20
2.54484131E+02
 11
6.95000000E+01
 21
2.74644165E+02
  0
LINE
  8
0
  6
CENTER
 62
2
 10
7.96167145E+01
 20
2.64499939E+02
 11
5.95515594E+01
 21
2.64499939E+02
  0
LINE
  8
0
  6
CENTER
 62
2
 10
6.19999847E+01
 20
2.44580292E+02
 11
6.19999847E+01
 21
2.56104919E+02
  0
LINE
  8
0
 62
7
 10
8.90000000E+01
 20
2.44500031E+02
 11
8.75000000E+01
 21
2.44500031E+02
  0
LINE
  8
0
 62
7
 10
8.90000000E+01
 20
2.76500031E+02
 11
8.75000000E+01
 21
2.76500031E+02
  0
LINE
  8
0
 62
7
 10
5.64999542E+01
 20
2.35500000E+02
 11
5.64999542E+01
 21
2.85500000E+02
  0
LINE
  8
0
 62
7
 10
8.74999542E+01
 20
2.36532471E+02
 11
8.74999542E+01
 21
2.84467529E+02
  0
LINE
  8
0
 62
7
 10
8.94999542E+01
 20
2.76000000E+02
 11
8.94999542E+01
 21
2.44970581E+02
  0
LINE
  8
0
 62
7
 10
5.65000241E+01
 20
2.85500081E+02
 11
8.70087287E+01
 21
2.84967554E+02
  0
LINE
  8
0
 62
7
 10
5.64999348E+01
 20
2.35500115E+02
 11
8.70087004E+01
 21
2.36032652E+02
  0
LINE
  8
0
  6
CENTER
 62
2
 10
6.76965942E+01
 20
2.50500000E+02
 11
5.60811005E+01
 21
2.50500000E+02
  0
LINE
  8
0
 62
7
 10
8.04999542E+01
 20
2.80500000E+02
 11
5.64999542E+01
 21
2.80500000E+02
  0
LINE
  8
0
 62
7
 10
8.04999542E+01
 20
2.40500000E+02
 11
5.64999542E+01
 21
2.40500000E+02
  0
LINE
  8
0
 62
7
 10
8.24999542E+01
 20
2.78500000E+02
 11
8.24999542E+01
 21
2.42500000E+02
  0
LINE
  8
0
 62
7
 10
6.34433529E+01
 20
2.50500084E+02
 11
6.27216803E+01
 21
2.51750074E+02
  0
LINE
  8
0
 62
7
 10
6.27216797E+01
 20
2.51750061E+02
 11
6.12783051E+01
 21
2.51750061E+02
  0
LINE
  8
0
 62
7
 10
-3.03500000E+02
 20
2.68499969E+02
 11
-3.01499908E+02
 21
2.68499969E+02
  0
LINE
  8
0
 62
7
 10
-3.03499908E+02
 20
2.52499985E+02
 11
-3.01499939E+02
 21
2.52499985E+02
  0
LINE
  8
0
 62
7
 10
-3.11499908E+02
 20
2.67500000E+02
 11
-3.11499908E+02
 21
2.53499969E+02
  0
LINE
  8
0
 62
7
 10
-3.35499969E+02
 20
2.54999969E+02
 11
-3.35499969E+02
 21
2.66000000E+02
  0
LINE
  8
0
 62
7
 10
-3.33999908E+02
 20
2.67500000E+02
 11
-3.28999969E+02
 21
2.67500000E+02
  0
LINE
  8
0
 62
7
 10
-3.14499969E+02
 20
2.53499969E+02
 11
-3.14499969E+02
 21
2.67500000E+02
  0
LINE
  8
0
 62
7
 10
-3.35499972E+02
 20
2.66000012E+02
 11
-3.33999945E+02
 21
2.67500009E+02
  0
LINE
  8
0
 62
2
 10
-3.34699982E+02
 20
2.66799988E+02
 11
-3.28999969E+02
 21
2.66799988E+02
  0
LINE
  8
0
 62
7
 10
-3.11499908E+02
 20
2.67500000E+02
 11
-3.04499969E+02
 21
2.67500000E+02
  0
LINE
  8
0
 62
7
 10
-3.33999969E+02
 20
2.53499969E+02
 11
-3.28999969E+02
 21
2.53499969E+02
  0
LINE
  8
0
 62
2
 10
-3.34699982E+02
 20
2.54199966E+02
 11
-3.28999969E+02
 21
2.54199966E+02
  0
LINE
  8
0
 62
7
 10
-3.11499908E+02
 20
2.53499969E+02
 11
-3.04499878E+02
 21
2.53499969E+02
  0
LINE
  8
0
 62
7
 10
-3.04499926E+02
 20
2.53499997E+02
 11
-3.03499903E+02
 21
2.52499974E+02
  0
LINE
  8
0
 62
7
 10
-3.04499971E+02
 20
2.67500033E+02
 11
-3.03500023E+02
 21
2.68499980E+02
  0
LINE
  8
0
 62
7
 10
-3.08499939E+02
 20
2.67500000E+02
 11
-3.08499939E+02
 21
2.53499969E+02
  0
LINE
  8
0
 62
7
 10
-5.64432841E+01
 20
2.50500014E+02
 11
-5.57215961E+01
 21
2.51750030E+02
  0
LINE
  8
0
 62
7
 10
-5.57216382E+01
 20
2.49250022E+02
 11
-5.64433413E+01
 21
2.50500064E+02
  0
LINE
  8
0
 62
7
 10
-5.42782898E+01
 20
2.49250031E+02
 11
-5.57216797E+01
 21
2.49250031E+02
  0
LINE
  8
0
 62
7
 10
-5.35564957E+01
 20
2.50499972E+02
 11
-5.42781836E+01
 21
2.49249956E+02
  0
LINE
  8
0
 62
7
 10
-3.14499969E+02
 20
2.66799988E+02
 11
-3.11499908E+02
 21
2.66799988E+02
  0
LINE
  8
0
 62
7
 10
6.05566752E+01
 20
2.50500014E+02
 11
6.12783631E+01
 21
2.51750031E+02
  0
LINE
  8
0
 62
7
 10
6.12783282E+01
 20
2.49250017E+02
 11
6.05566251E+01
 21
2.50500059E+02
  0
LINE
  8
0
 62
7
 10
6.27216797E+01
 20
2.49250031E+02
 11
6.12783051E+01
 21
2.49250031E+02
  0
LINE
  8
0
 62
7
 10
6.34434768E+01
 20
2.50499965E+02
 11
6.27217889E+01
 21
2.49249949E+02
  0
LINE
  8
0
 62
7
 10
-3.33999969E+02
 20
2.53499969E+02
 11
-3.33999969E+02
 21
2.67500000E+02
  0
LINE
  8
0
 62
7
 10
-3.35499982E+02
 20
2.54999988E+02
 11
-3.33999969E+02
 21
2.53499976E+02
  0
LINE
  8
0
  6
CENTER
 62
2
 10
-7.35515442E+01
 20
2.37000031E+02
 11
-2.90672394E+02
 21
2.37000031E+02
  0
LINE
  8
0
 62
7
 10
-1.33499939E+02
 20
2.39650024E+02
 11
-2.59499969E+02
 21
2.39650024E+02
  0
LINE
  8
0
 62
7
 10
-1.33499939E+02
 20
2.34350037E+02
 11
-2.59499969E+02
 21
2.34350037E+02
  0
LINE
  8
0
  6
CENTER
 62
2
 10
-3.43084320E+02
 20
2.60500000E+02
 11
9.71902161E+01
 21
2.60500000E+02
  0
LINE
  8
0
  6
CENTER
 62
2
 10
-1.96500000E+02
 20
2.44129669E+02
 11
-1.96500000E+02
 21
2.77115967E+02
  0
LINE
  8
0
 62
7
 10
-2.86499908E+02
 20
2.91500031E+02
 11
-2.59499969E+02
 21
2.91500031E+02
  0
LINE
  8
0
 62
7
 10
-8.04999390E+01
 20
2.29500031E+02
 11
-8.04999390E+01
 21
2.91500031E+02
  0
LINE
  8
0
 62
7
 10
-1.33500000E+02
 20
2.91500031E+02
 11
-8.04999695E+01
 21
2.91500031E+02
  0
LINE
  8
0
 62
7
 10
-1.53499939E+02
 20
2.28000000E+02
 11
-1.37499939E+02
 21
2.28000000E+02
  0
LINE
  8
0
 62
7
 10
-1.37499939E+02
 20
2.33000000E+02
 11
-1.37499939E+02
 21
2.28000000E+02
  0
LINE
  8
0
 62
7
 10
-1.53499939E+02
 20
2.33000000E+02
 11
-1.53499939E+02
 21
2.28000000E+02
  0
LINE
  8
0
 62
7
 10
-1.48799957E+02
 20
2.16500031E+02
 11
-1.42199951E+02
 21
2.16500031E+02
  0
LINE
  8
0
 62
7
 10
-1.51249939E+02
 20
2.21500031E+02
 11
-1.39749939E+02
 21
2.21500031E+02
  0
LINE
  8
0
 62
7
 10
-1.38549927E+02
 20
2.28000000E+02
 11
-1.38549927E+02
 21
2.22192841E+02
  0
LINE
  8
0
 62
7
 10
-1.52449921E+02
 20
2.28000000E+02
 11
-1.52449921E+02
 21
2.22192841E+02
  0
LINE
  8
0
 62
7
 10
-1.39749929E+02
 20
2.21499868E+02
 11
-1.38549920E+02
 21
2.22192693E+02
  0
LINE
  8
0
 62
7
 10
-1.52449961E+02
 20
2.22192810E+02
 11
-1.51249978E+02
 21
2.21500000E+02
  0
LINE
  8
0
 62
7
 10
-1.48974945E+02
 20
2.28000000E+02
 11
-1.48974945E+02
 21
2.22192841E+02
  0
LINE
  8
0
 62
7
 10
-1.42024963E+02
 20
2.28000000E+02
 11
-1.42024963E+02
 21
2.22192841E+02
  0
LINE
  8
0
 62
7
 10
-1.49499939E+02
 20
2.21500031E+02
 11
-1.49499939E+02
 21
2.17200012E+02
  0
LINE
  8
0
 62
7
 10
-1.41499939E+02
 20
2.21500031E+02
 11
-1.41499939E+02
 21
2.17200012E+02
  0
LINE
  8
0
 62
2
 10
-1.48799957E+02
 20
2.21500031E+02
 11
-1.48799957E+02
 21
2.16500031E+02
  0
LINE
  8
0
 62
2
 10
-1.42199921E+02
 20
2.21500031E+02
 11
-1.42199921E+02
 21
2.16500031E+02
  0
LINE
  8
0
 62
7
 10
-1.49499939E+02
 20
2.17200012E+02
 11
-1.41499939E+02
 21
2.17200012E+02
  0
LINE
  8
0
 62
7
 10
-1.49499849E+02
 20
2.17200095E+02
 11
-1.48799863E+02
 21
2.16500109E+02
  0
LINE
  8
0
 62
7
 10
-1.42199724E+02
 20
2.16499780E+02
 11
-1.41499727E+02
 21
2.17199777E+02
  0
LINE
  8
0
 62
7
 10
-1.53499939E+02
 20
2.93000031E+02
 11
-1.37499939E+02
 21
2.93000031E+02
  0
LINE
  8
0
 62
7
 10
-1.37499939E+02
 20
2.88000031E+02
 11
-1.37499939E+02
 21
2.93000031E+02
  0
LINE
  8
0
 62
7
 10
-1.53499939E+02
 20
2.88000031E+02
 11
-1.53499939E+02
 21
2.93000031E+02
  0
LINE
  8
0
 62
7
 10
-1.48799957E+02
 20
3.04500031E+02
 11
-1.42199951E+02
 21
3.04500031E+02
  0
LINE
  8
0
 62
7
 10
-1.51249939E+02
 20
2.99500031E+02
 11
-1.39749939E+02
 21
2.99500031E+02
  0
LINE
  8
0
 62
7
 10
-1.38549927E+02
 20
2.93000031E+02
 11
-1.38549927E+02
 21
2.98807220E+02
  0
LINE
  8
0
 62
7
 10
-1.52449921E+02
 20
2.93000031E+02
 11
-1.52449921E+02
 21
2.98807220E+02
  0
LINE
  8
0
 62
7
 10
-1.39749953E+02
 20
2.99500046E+02
 11
-1.38549918E+02
 21
2.98807206E+02
  0
LINE
  8
0
 62
7
 10
-1.52449760E+02
 20
2.98806799E+02
 11
-1.51249738E+02
 21
2.99499632E+02
  0
LINE
  8
0
  6
CENTER
 62
2
 10
-7.35515442E+01
 20
2.84000031E+02
 11
-2.90672394E+02
 21
2.84000031E+02
  0
LINE
  8
0
 62
7
 10
-1.33499939E+02
 20
2.81350006E+02
 11
-2.59499969E+02
 21
2.81350006E+02
  0
LINE
  8
0
 62
7
 10
-1.42024963E+02
 20
2.93000031E+02
 11
-1.42024963E+02
 21
2.98807220E+02
  0
LINE
  8
0
 62
7
 10
-1.49499939E+02
 20
2.99500031E+02
 11
-1.49499939E+02
 21
3.03800018E+02
  0
LINE
  8
0
 62
7
 10
-1.41499939E+02
 20
2.99500031E+02
 11
-1.41499939E+02
 21
3.03800018E+02
  0
LINE
  8
0
 62
2
 10
-1.48799957E+02
 20
2.99500031E+02
 11
-1.48799957E+02
 21
3.04500000E+02
  0
LINE
  8
0
 62
2
 10
-1.42199921E+02
 20
2.99500031E+02
 11
-1.42199921E+02
 21
3.04500000E+02
  0
LINE
  8
0
 62
7
 10
-1.49499939E+02
 20
3.03800018E+02
 11
-1.41499939E+02
 21
3.03800018E+02
  0
LINE
  8
0
 62
7
 10
-1.49499749E+02
 20
3.03799799E+02
 11
-1.48799737E+02
 21
3.04499812E+02
  0
LINE
  8
0
 62
7
 10
-1.42199788E+02
 20
3.04500068E+02
 11
-1.41499760E+02
 21
3.03800039E+02
  0
LINE
  8
0
 62
7
 10
-1.48974945E+02
 20
2.93000031E+02
 11
-1.48974945E+02
 21
2.98807220E+02
  0
LINE
  8
0
 62
7
 10
-1.33499939E+02
 20
2.91500031E+02
 11
-1.33499939E+02
 21
2.29500031E+02
  0
LINE
  8
0
  6
CENTER
 62
2
 10
-2.80559845E+02
 20
2.70500000E+02
 11
-2.62215057E+02
 21
2.70500000E+02
  0
LINE
  8
0
  6
CENTER
 62
2
 10
-2.71500031E+02
 20
2.79778992E+02
 11
-2.71500031E+02
 21
2.61213196E+02
  0
LINE
  8
0
 62
7
 10
-2.59499969E+02
 20
2.33000000E+02
 11
-1.33499969E+02
 21
2.33000000E+02
  0
LINE
  8
0
 62
7
 10
-1.33500000E+02
 20
2.29500031E+02
 11
-8.04999695E+01
 21
2.29500031E+02
  0
LINE
  8
0
 62
7
 10
-2.86499908E+02
 20
2.29500031E+02
 11
-2.59499969E+02
 21
2.29500031E+02
  0
LINE
  8
0
 62
7
 10
-2.86499908E+02
 20
2.91500000E+02
 11
-2.86499908E+02
 21
2.29500031E+02
  0
LINE
  8
0
 62
7
 10
-2.59499969E+02
 20
2.91500000E+02
 11
-2.59499969E+02
 21
2.29500031E+02
  0
LINE
  8
0
  6
CENTER
 62
2
 10
-1.45499939E+02
 20
2.41533905E+02
 11
-1.45499939E+02
 21
2.14412354E+02
  0
LINE
  8
0
 62
7
 10
-1.33499939E+02
 20
2.86649994E+02
 11
-2.59499969E+02
 21
2.86649994E+02
  0
LINE
  8
0
 62
7
 10
-2.59499969E+02
 20
2.88000031E+02
 11
-1.33499969E+02
 21
2.88000031E+02
  0
LINE
  8
0
 62
7
 10
-2.68499938E+02
 20
2.72232257E+02
 11
-2.71499898E+02
 21
2.73964275E+02
  0
LINE
  8
0
 62
7
 10
-2.71500545E+02
 20
2.73965067E+02
 11
-2.74500558E+02
 21
2.72233019E+02
  0
LINE
  8
0
 62
7
 10
-2.74499969E+02
 20
2.68767944E+02
 11
-2.74499969E+02
 21
2.72232056E+02
  0
LINE
  8
0
 62
7
 10
-2.71500075E+02
 20
2.67036202E+02
 11
-2.74500035E+02
 21
2.68768219E+02
  0
LINE
  8
0
 62
7
 10
-2.68500453E+02
 20
2.68768968E+02
 11
-2.71500440E+02
 21
2.67036935E+02
  0
LINE
  8
0
 62
7
 10
-2.68499969E+02
 20
2.72232056E+02
 11
-2.68499969E+02
 21
2.68767944E+02
  0
LINE
  8
0
  6
CENTER
 62
2
 10
-1.45499939E+02
 20
2.79466125E+02
 11
-1.45499939E+02
 21
3.06587677E+02
  0
LINE
  8
0
  6
CENTER
 62
2
 10
-2.47499969E+02
 20
2.41533905E+02
 11
-2.47499969E+02
 21
2.14667999E+02
  0
LINE
  8
0
 62
7
 10
-2.55499969E+02
 20
2.28000000E+02
 11
-2.39499969E+02
 21
2.28000000E+02
  0
LINE
  8
0
 62
7
 10
-2.39499969E+02
 20
2.33000000E+02
 11
-2.39499969E+02
 21
2.28000000E+02
  0
LINE
  8
0
 62
7
 10
-2.55499969E+02
 20
2.33000000E+02
 11
-2.55499969E+02
 21
2.28000000E+02
  0
LINE
  8
0
 62
7
 10
-2.50799957E+02
 20
2.16500031E+02
 11
-2.44199982E+02
 21
2.16500031E+02
  0
LINE
  8
0
 62
7
 10
-2.53249969E+02
 20
2.21500031E+02
 11
-2.41749969E+02
 21
2.21500031E+02
  0
LINE
  8
0
 62
7
 10
-2.40549957E+02
 20
2.28000000E+02
 11
-2.40549957E+02
 21
2.22192841E+02
  0
LINE
  8
0
 62
7
 10
-2.54449921E+02
 20
2.28000000E+02
 11
-2.54449921E+02
 21
2.22192841E+02
  0
LINE
  8
0
 62
7
 10
-2.41749852E+02
 20
2.21499699E+02
 11
-2.40549844E+02
 21
2.22192525E+02
  0
LINE
  8
0
 62
7
 10
-2.54450075E+02
 20
2.22192862E+02
 11
-2.53249987E+02
 21
2.21499991E+02
  0
LINE
  8
0
 62
7
 10
-2.50974945E+02
 20
2.28000000E+02
 11
-2.50974945E+02
 21
2.22192841E+02
  0
LINE
  8
0
 62
7
 10
-2.44024933E+02
 20
2.28000000E+02
 11
-2.44024933E+02
 21
2.22192841E+02
  0
LINE
  8
0
 62
7
 10
-2.51499908E+02
 20
2.21500031E+02
 11
-2.51499908E+02
 21
2.17200012E+02
  0
LINE
  8
0
 62
7
 10
-2.43499908E+02
 20
2.21500031E+02
 11
-2.43499908E+02
 21
2.17200012E+02
  0
LINE
  8
0
 62
2
 10
-2.50799957E+02
 20
2.21500031E+02
 11
-2.50799957E+02
 21
2.16500031E+02
  0
LINE
  8
0
 62
2
 10
-2.44199982E+02
 20
2.21500031E+02
 11
-2.44199982E+02
 21
2.16500031E+02
  0
LINE
  8
0
 62
7
 10
-2.51499969E+02
 20
2.17200012E+02
 11
-2.43499969E+02
 21
2.17200012E+02
  0
LINE
  8
0
 62
7
 10
-2.51499871E+02
 20
2.17200052E+02
 11
-2.50799928E+02
 21
2.16500109E+02
  0
LINE
  8
0
 62
7
 10
-2.44199762E+02
 20
2.16499807E+02
 11
-2.43499765E+02
 21
2.17199804E+02
  0
LINE
  8
0
  6
CENTER
 62
2
 10
-2.47499969E+02
 20
2.79466125E+02
 11
-2.47499969E+02
 21
3.06587677E+02
  0
LINE
  8
0
 62
7
 10
-2.55499969E+02
 20
2.93000031E+02
 11
-2.39499969E+02
 21
2.93000031E+02
  0
LINE
  8
0
 62
7
 10
-2.39499969E+02
 20
2.88000031E+02
 11
-2.39499969E+02
 21
2.93000031E+02
  0
LINE
  8
0
 62
7
 10
-2.55499969E+02
 20
2.88000031E+02
 11
-2.55499969E+02
 21
2.93000031E+02
  0
LINE
  8
0
 62
7
 10
-2.50799957E+02
 20
3.04500031E+02
 11
-2.44199982E+02
 21
3.04500031E+02
  0
LINE
  8
0
 62
7
 10
-2.53249969E+02
 20
2.99500031E+02
 11
-2.41749969E+02
 21
2.99500031E+02
  0
LINE
  8
0
 62
7
 10
-2.40549957E+02
 20
2.93000031E+02
 11
-2.40549957E+02
 21
2.98807220E+02
  0
LINE
  8
0
 62
7
 10
-2.54449921E+02
 20
2.93000031E+02
 11
-2.54449921E+02
 21
2.98807220E+02
  0
LINE
  8
0
 62
7
 10
-2.41749869E+02
 20
2.99500015E+02
 11
-2.40549834E+02
 21
2.98807174E+02
  0
LINE
  8
0
 62
7
 10
-2.54449775E+02
 20
2.98806789E+02
 11
-2.53249766E+02
 21
2.99499615E+02
  0
LINE
  8
0
 62
7
 10
-2.50974945E+02
 20
2.93000031E+02
 11
-2.50974945E+02
 21
2.98807220E+02
  0
LINE
  8
0
 62
7
 10
-2.44024933E+02
 20
2.93000031E+02
 11
-2.44024933E+02
 21
2.98807220E+02
  0
LINE
  8
0
 62
7
 10
-2.51499908E+02
 20
2.99500031E+02
 11
-2.51499908E+02
 21
3.03800018E+02
  0
LINE
  8
0
 62
7
 10
-2.43499908E+02
 20
2.99500031E+02
 11
-2.43499908E+02
 21
3.03800018E+02
  0
LINE
  8
0
 62
2
 10
-2.50799957E+02
 20
2.99500031E+02
 11
-2.50799957E+02
 21
3.04500000E+02
  0
LINE
  8
0
 62
2
 10
-2.44199982E+02
 20
2.99500031E+02
 11
-2.44199982E+02
 21
3.04500000E+02
  0
LINE
  8
0
 62
7
 10
-2.51499969E+02
 20
3.03800018E+02
 11
-2.43499969E+02
 21
3.03800018E+02
  0
LINE
  8
0
 62
7
 10
-2.51499758E+02
 20
3.03799812E+02
 11
-2.50799745E+02
 21
3.04499825E+02
  0
LINE
  8
0
 62
7
 10
-2.44199756E+02
 20
3.04500035E+02
 11
-2.43499728E+02
 21
3.03800007E+02
  0
LINE
  8
0
 62
7
 10
-1.25500274E+02
 20
2.72232584E+02
 11
-1.22500314E+02
 21
2.73964601E+02
  0
LINE
  8
0
 62
7
 10
-1.22499674E+02
 20
2.73964818E+02
 11
-1.19499661E+02
 21
2.72232770E+02
  0
LINE
  8
0
 62
7
 10
-1.19500031E+02
 20
2.68767944E+02
 11
-1.19500031E+02
 21
2.72232056E+02
  0
LINE
  8
0
 62
7
 10
-1.22500239E+02
 20
2.67036522E+02
 11
-1.19500292E+02
 21
2.68768532E+02
  0
LINE
  8
0
 62
7
 10
-1.25499751E+02
 20
2.68768745E+02
 11
-1.22499738E+02
 21
2.67036697E+02
  0
LINE
  8
0
 62
7
 10
-1.25500031E+02
 20
2.72232056E+02
 11
-1.25500031E+02
 21
2.68767944E+02
  0
LINE
  8
0
  6
CENTER
 62
2
 10
-1.13440186E+02
 20
2.70500000E+02
 11
-1.31784973E+02
 21
2.70500000E+02
  0
LINE
  8
0
  6
CENTER
 62
2
 10
-1.22500031E+02
 20
2.79778992E+02
 11
-1.22500031E+02
 21
2.61213196E+02
  0
CIRCLE
  8
0
 62
7
 10
-5.49999847E+01
 20
2.50500000E+02
 40
4.00000000E+00
  0
ARC
  8
0
 62
7
 10
-3.01000000E+02
 20
2.46000000E+02
 40
5.00000000E-01
 50
1.80000008E+02
 51
2.69999998E+02
  0
ARC
  8
0
 62
7
 10
-2.87999969E+02
 20
2.45000000E+02
 40
5.00000000E-01
 50
1.80000008E+02
 51
2.69999998E+02
  0
ARC
  8
0
 62
7
 10
-2.96249969E+02
 20
2.45491394E+02
 40
2.50000000E-01
 50
1.80000008E+02
 51
2.67999216E+02
  0
ARC
  8
0
 62
7
 10
-3.01000000E+02
 20
2.75000000E+02
 40
5.00000000E-01
 50
9.00000231E+01
 51
1.80000005E+02
  0
ARC
  8
0
 62
7
 10
-2.87999969E+02
 20
2.76000000E+02
 40
5.00000000E-01
 50
9.00000231E+01
 51
1.80000005E+02
  0
ARC
  8
0
 62
7
 10
-2.96249969E+02
 20
2.75508606E+02
 40
2.50000000E-01
 50
9.20007768E+01
 51
1.79999991E+02
  0
ARC
  8
0
 62
7
 10
-8.00000000E+01
 20
2.84467529E+02
 40
5.00000000E-01
 50
9.10002155E+01
 51
1.80000005E+02
  0
ARC
  8
0
 62
7
 10
-8.00000000E+01
 20
2.36532471E+02
 40
5.00000000E-01
 50
1.80000008E+02
 51
2.68999785E+02
  0
CIRCLE
  8
0
 62
7
 10
-6.25000000E+01
 20
2.64499939E+02
 40
7.00000000E+00
  0
ARC
  8
0
 62
7
 10
-7.34999390E+01
 20
2.78500000E+02
 40
2.00000000E+00
 50
8.99999818E+01
 51
1.79999964E+02
  0
ARC
  8
0
 62
7
 10
-7.34999390E+01
 20
2.42500000E+02
 40
2.00000000E+00
 50
1.79999977E+02
 51
2.70000028E+02
  0
CIRCLE
  8
0
 62
7
 10
-6.25000000E+01
 20
2.64499939E+02
 40
5.65999985E+00
  0
CIRCLE
  8
0
 62
2
 10
-6.25000000E+01
 20
2.64499939E+02
 40
6.57849979E+00
  0
CIRCLE
  8
0
 62
7
 10
6.19999847E+01
 20
2.50500000E+02
 40
4.00000000E+00
  0
ARC
  8
0
 62
7
 10
8.90000000E+01
 20
2.45000000E+02
 40
5.00000000E-01
 50
2.70000018E+02
 51
1.36603783E-05
  0
ARC
  8
0
 62
7
 10
8.90000000E+01
 20
2.76000000E+02
 40
5.00000000E-01
 50
0.00000000E+00
 51
8.99999818E+01
  0
ARC
  8
0
 62
7
 10
8.70000000E+01
 20
2.84467529E+02
 40
5.00000000E-01
 50
0.00000000E+00
 51
8.89997895E+01
  0
ARC
  8
0
 62
7
 10
8.70000000E+01
 20
2.36532471E+02
 40
5.00000000E-01
 50
2.71000231E+02
 51
1.36603783E-05
  0
CIRCLE
  8
0
 62
7
 10
6.95000000E+01
 20
2.64499939E+02
 40
7.00000000E+00
  0
ARC
  8
0
 62
7
 10
8.04999542E+01
 20
2.78500000E+02
 40
2.00000000E+00
 50
5.46415133E-05
 51
9.00000369E+01
  0
ARC
  8
0
 62
7
 10
8.04999542E+01
 20
2.42500000E+02
 40
2.00000000E+00
 50
2.70000018E+02
 51
5.46415133E-05
  0
CIRCLE
  8
0
 62
7
 10
6.95000000E+01
 20
2.64499939E+02
 40
5.65999985E+00
  0
CIRCLE
  8
0
 62
2
 10
6.95000000E+01
 20
2.64499939E+02
 40
6.57849979E+00
  0
CIRCLE
  8
0
 62
7
 10
-5.49999847E+01
 20
2.50500000E+02
 40
2.09999990E+00
  0
CIRCLE
  8
0
 62
7
 10
6.19999847E+01
 20
2.50500000E+02
 40
2.09999990E+00
  0
ARC
  8
0
 62
7
 10
-1.45499939E+02
 20
2.90438904E+02
 40
9.06113529E+00
 50
6.74489921E+01
 51
1.12550903E+02
  0
ARC
  8
0
 62
7
 10
-1.50712433E+02
 20
2.24025116E+02
 40
2.52511263E+00
 50
2.53478125E+02
 51
3.13479008E+02
  0
ARC
  8
0
 62
7
 10
-1.40287445E+02
 20
2.24025116E+02
 40
2.52511263E+00
 50
2.26520987E+02
 51
2.86521856E+02
  0
ARC
  8
0
 62
7
 10
-1.45499939E+02
 20
2.30561157E+02
 40
9.06113529E+00
 50
2.47449035E+02
 51
2.92550946E+02
  0
ARC
  8
0
 62
7
 10
-1.40287445E+02
 20
2.96974915E+02
 40
2.52511263E+00
 50
7.34780821E+01
 51
1.33478944E+02
  0
ARC
  8
0
 62
7
 10
-8.00000000E+01
 20
2.84467560E+02
 40
5.00000000E-01
 50
9.10002155E+01
 51
1.80000005E+02
  0
ARC
  8
0
 62
7
 10
-8.00000000E+01
 20
2.36532501E+02
 40
5.00000000E-01
 50
1.80000008E+02
 51
2.68999785E+02
  0
CIRCLE
  8
0
 62
7
 10
-1.96500000E+02
 20
2.60500000E+02
 40
6.99999952E+00
  0
CIRCLE
  8
0
 62
7
 10
-1.96500000E+02
 20
2.60500000E+02
 40
5.65999985E+00
  0
ARC
  8
0
 62
7
 10
-1.50712433E+02
 20
2.96974915E+02
 40
2.52511263E+00
 50
4.65209375E+01
 51
1.06521820E+02
  0
CIRCLE
  8
0
 62
2
 10
-1.96500000E+02
 20
2.60500000E+02
 40
6.57849932E+00
  0
CIRCLE
  8
0
 62
7
 10
-2.71500031E+02
 20
2.70500000E+02
 40
6.57849932E+00
  0
CIRCLE
  8
0
 62
7
 10
-2.71500031E+02
 20
2.70500000E+02
 40
5.72249985E+00
  0
ARC
  8
0
 62
7
 10
-2.52712433E+02
 20
2.96974915E+02
 40
2.52511263E+00
 50
4.65209375E+01
 51
1.06521820E+02
  0
ARC
  8
0
 62
7
 10
-2.42287445E+02
 20
2.96974915E+02
 40
2.52511263E+00
 50
7.34780821E+01
 51
1.33478944E+02
  0
ARC
  8
0
 62
7
 10
-2.52712433E+02
 20
2.24025116E+02
 40
2.52511263E+00
 50
2.53478125E+02
 51
3.13479008E+02
  0
ARC
  8
0
 62
7
 10
-2.42287445E+02
 20
2.24025116E+02
 40
2.52511263E+00
 50
2.26520987E+02
 51
2.86521856E+02
  0
ARC
  8
0
 62
7
 10
-2.47499969E+02
 20
2.30561157E+02
 40
9.06113529E+00
 50
2.47449035E+02
 51
2.92550946E+02
  0
ARC
  8
0
 62
7
 10
-2.47499969E+02
 20
2.90438904E+02
 40
9.06113529E+00
 50
6.74489921E+01
 51
1.12550903E+02
  0
CIRCLE
  8
0
 62
7
 10
-1.96500000E+02
 20
2.60500000E+02
 40
1.00000000E+01
  0
CIRCLE
  8
0
 62
2
 10
-1.96500000E+02
 20
2.60500000E+02
 40
1.19999990E+01
  0
CIRCLE
  8
0
 62
7
 10
-1.22500031E+02
 20
2.70500000E+02
 40
6.57849932E+00
  0
CIRCLE
  8
0
 62
7
 10
-1.22500031E+02
 20
2.70500000E+02
 40
5.72249985E+00
  0
INSERT
  8
0
  2
PP1
  6
BYBLOCK
 62
0
 10
0.00000000E+00
 20
0.00000000E+00
 41
1.00000000E+00
 42
1.00000000E+00
 50
0.00000000E+00
  0
INSERT
  8
0
  2
PP2
  6
BYBLOCK
 62
0
 10
0.00000000E+00
 20
0.00000000E+00
 41
1.00000000E+00
 42
1.00000000E+00
 50
0.00000000E+00
  0
LINE
  8
0
 62
4
 10
-3.20999969E+02
 20
2.49500000E+02
 11
-3.20999969E+02
 21
2.71500000E+02
  0
LINE
  8
0
 62
4
 10
-3.28999969E+02
 20
2.49500000E+02
 11
-3.28999969E+02
 21
2.71500000E+02
  0
LINE
  8
0
 62
4
 10
-3.28017489E+02
 20
2.60500000E+02
 11
-3.21982450E+02
 21
2.60500000E+02
  0
LINE
  8
0
 62
4
 10
-3.28999969E+02
 20
2.71500000E+02
 11
-3.20999969E+02
 21
2.71500000E+02
  0
LINE
  8
0
 62
4
 10
-3.28999969E+02
 20
2.49500000E+02
 11
-3.20999969E+02
 21
2.49500000E+02
  0
ARC
  8
0
 62
4
 10
-3.36885919E+02
 20
2.55000000E+02
 40
1.58859499E+01
 50
3.39743842E+02
 51
2.02561578E+01
  0
ARC
  8
0
 62
4
 10
-3.36885919E+02
 20
2.66000000E+02
 40
1.58859499E+01
 50
3.39743842E+02
 51
2.02561578E+01
  0
ARC
  8
0
 62
4
 10
-3.13114022E+02
 20
2.66000000E+02
 40
1.58859474E+01
 50
1.59743839E+02
 51
2.00256161E+02
  0
ARC
  8
0
 62
4
 10
-3.13114022E+02
 20
2.55000000E+02
 40
1.58859473E+01
 50
1.59743839E+02
 51
2.00256161E+02
  0
LINE
  8
0
 62
7
 10
-3.20999969E+02
 20
2.67500000E+02
 11
-3.14499969E+02
 21
2.67500000E+02
  0
LINE
  8
0
 62
2
 10
-3.20999969E+02
 20
2.66799988E+02
 11
-3.14499969E+02
 21
2.66799988E+02
  0
LINE
  8
0
 62
7
 10
-3.20999969E+02
 20
2.53499969E+02
 11
-3.14499969E+02
 21
2.53499969E+02
  0
LINE
  8
0
 62
2
 10
-3.20999969E+02
 20
2.54199966E+02
 11
-3.14499969E+02
 21
2.54199966E+02
  0
LINE
  8
0
 62
6
 10
1.17320051E+01
 20
2.60166641E+02
 11
8.26790344E+00
 21
2.54166641E+02
  0
LINE
  8
0
 62
4
 10
1.99999542E+01
 20
2.58666640E+02
 11
1.08659796E+01
 21
2.58666640E+02
  0
LINE
  8
0
  6
CENTER
 62
6
 10
5.49999542E+01
 20
2.57166640E+02
 11
7.99995422E+00
 21
2.57166640E+02
  0
LINE
  8
0
 62
4
 10
1.99999542E+01
 20
2.55666640E+02
 11
9.13392882E+00
 21
2.55666640E+02
  0
LINE
  8
0
 62
6
 10
-7.32005056E-01
 20
2.60833359E+02
 11
2.73209656E+00
 21
2.66833359E+02
  0
LINE
  8
0
 62
4
 10
-8.99995422E+00
 20
2.62333360E+02
 11
1.34020384E-01
 21
2.62333360E+02
  0
LINE
  8
0
  6
CENTER
 62
6
 10
-4.39999542E+01
 20
2.63833360E+02
 11
3.00004578E+00
 21
2.63833360E+02
  0
LINE
  8
0
 62
4
 10
-8.99995422E+00
 20
2.65333360E+02
 11
1.86607118E+00
 21
2.65333360E+02
  0
LINE
  8
0
 62
6
 10
2.49999542E+01
 20
2.31496680E+02
 11
2.49999542E+01
 21
2.33847716E+02
  0
LINE
  8
0
 62
6
 10
2.19999542E+01
 20
2.31496680E+02
 11
2.19999542E+01
 21
2.33847716E+02
  0
LINE
  8
0
 62
4
 10
2.54999542E+01
 20
2.31726395E+02
 11
2.54999542E+01
 21
2.33847716E+02
  0
LINE
  8
0
 62
4
 10
2.14999542E+01
 20
2.31726395E+02
 11
2.14999542E+01
 21
2.33847716E+02
  0
LINE
  8
0
 62
4
 10
3.49999542E+01
 20
2.33847716E+02
 11
3.49999542E+01
 21
2.46555713E+02
  0
LINE
  8
0
 62
4
 10
1.99999542E+01
 20
2.33847716E+02
 11
1.99999542E+01
 21
2.59477604E+02
  0
LINE
  8
0
 62
4
 10
4.99999542E+01
 20
2.46555713E+02
 11
4.99999542E+01
 21
2.58505174E+02
  0
LINE
  8
0
  6
CENTER
 62
6
 10
2.34999542E+01
 20
2.28384421E+02
 11
2.34999542E+01
 21
2.38650000E+02
  0
LINE
  8
0
  6
CENTER
 62
6
 10
3.14999542E+01
 20
2.28384421E+02
 11
3.14999542E+01
 21
2.38650000E+02
  0
LINE
  8
0
  6
CENTER
 62
6
 10
3.49999542E+01
 20
2.55588418E+02
 11
3.49999542E+01
 21
2.60588418E+02
  0
LINE
  8
0
 62
4
 10
3.49999542E+01
 20
2.33847716E+02
 11
1.99999542E+01
 21
2.33847716E+02
  0
LINE
  8
0
 62
4
 10
3.49999542E+01
 20
2.39662059E+02
 11
1.99999542E+01
 21
2.39662059E+02
  0
LINE
  8
0
 62
4
 10
4.99999542E+01
 20
2.46555713E+02
 11
1.99999542E+01
 21
2.46555713E+02
  0
LINE
  8
0
 62
4
 10
4.99999542E+01
 20
2.56699233E+02
 11
1.99999542E+01
 21
2.56699233E+02
  0
LINE
  8
0
 62
4
 10
2.40999542E+01
 20
2.59477604E+02
 11
1.99999542E+01
 21
2.59477604E+02
  0
LINE
  8
0
 62
4
 10
2.40999542E+01
 20
2.59303956E+02
 11
1.99999542E+01
 21
2.59303956E+02
  0
LINE
  8
0
 62
4
 10
4.99999542E+01
 20
2.58505174E+02
 11
3.91499542E+01
 21
2.58505174E+02
  0
POLYLINE
  8
0
 62
4
 66
1
  0
VERTEX
  8
0
 62
4
 10
2.14999542E+01
 20
2.31726395E+02
  0
VERTEX
  8
0
 62
4
 10
2.15080056E+01
 20
2.31695264E+02
  0
VERTEX
  8
0
 62
4
 10
2.15320950E+01
 20
2.31664383E+02
  0
VERTEX
  8
0
 62
4
 10
2.15720285E+01
 20
2.31634001E+02
  0
VERTEX
  8
0
 62
4
 10
2.16274845E+01
 20
2.31604364E+02
  0
VERTEX
  8
0
 62
4
 10
2.16980165E+01
 20
2.31575709E+02
  0
VERTEX
  8
0
 62
4
 10
2.17830566E+01
 20
2.31548267E+02
  0
VERTEX
  8
0
 62
4
 10
2.18819202E+01
 20
2.31522259E+02
  0
VERTEX
  8
0
 62
4
 10
2.19938113E+01
 20
2.31497895E+02
  0
VERTEX
  8
0
 62
4
 10
2.21178289E+01
 20
2.31475371E+02
  0
VERTEX
  8
0
 62
4
 10
2.22529746E+01
 20
2.31454868E+02
  0
VERTEX
  8
0
 62
4
 10
2.23981602E+01
 20
2.31436551E+02
  0
VERTEX
  8
0
 62
4
 10
2.25522169E+01
 20
2.31420567E+02
  0
VERTEX
  8
0
 62
4
 10
2.27139041E+01
 20
2.31407046E+02
  0
VERTEX
  8
0
 62
4
 10
2.28819202E+01
 20
2.31396097E+02
  0
VERTEX
  8
0
 62
4
 10
2.30549123E+01
 20
2.31387806E+02
  0
VERTEX
  8
0
 62
4
 10
2.32314877E+01
 20
2.31382242E+02
  0
VERTEX
  8
0
 62
4
 10
2.34102245E+01
 20
2.31379448E+02
  0
VERTEX
  8
0
 62
4
 10
2.35896838E+01
 20
2.31379448E+02
  0
VERTEX
  8
0
 62
4
 10
2.37684207E+01
 20
2.31382242E+02
  0
VERTEX
  8
0
 62
4
 10
2.39449961E+01
 20
2.31387806E+02
  0
VERTEX
  8
0
 62
4
 10
2.41179882E+01
 20
2.31396097E+02
  0
VERTEX
  8
0
 62
4
 10
2.42860043E+01
 20
2.31407046E+02
  0
VERTEX
  8
0
 62
4
 10
2.44476915E+01
 20
2.31420567E+02
  0
VERTEX
  8
0
 62
4
 10
2.46017482E+01
 20
2.31436551E+02
  0
VERTEX
  8
0
 62
4
 10
2.47469338E+01
 20
2.31454868E+02
  0
VERTEX
  8
0
 62
4
 10
2.48820795E+01
 20
2.31475371E+02
  0
VERTEX
  8
0
 62
4
 10
2.50060971E+01
 20
2.31497895E+02
  0
VERTEX
  8
0
 62
4
 10
2.51179882E+01
 20
2.31522259E+02
  0
VERTEX
  8
0
 62
4
 10
2.52168518E+01
 20
2.31548267E+02
  0
VERTEX
  8
0
 62
4
 10
2.53018919E+01
 20
2.31575709E+02
  0
VERTEX
  8
0
 62
4
 10
2.53724239E+01
 20
2.31604364E+02
  0
VERTEX
  8
0
 62
4
 10
2.54278799E+01
 20
2.31634001E+02
  0
VERTEX
  8
0
 62
4
 10
2.54678134E+01
 20
2.31664383E+02
  0
VERTEX
  8
0
 62
4
 10
2.54919028E+01
 20
2.31695264E+02
  0
VERTEX
  8
0
 62
4
 10
2.54999542E+01
 20
2.31726395E+02
  0
SEQEND
  8
0
  0
LINE
  8
0
 62
6
 10
3.29999542E+01
 20
2.31496680E+02
 11
3.29999542E+01
 21
2.33847716E+02
  0
LINE
  8
0
 62
6
 10
2.99999542E+01
 20
2.31496680E+02
 11
2.99999542E+01
 21
2.33847716E+02
  0
LINE
  8
0
 62
4
 10
3.34999542E+01
 20
2.31726395E+02
 11
3.34999542E+01
 21
2.33847716E+02
  0
LINE
  8
0
 62
4
 10
2.94999542E+01
 20
2.31726395E+02
 11
2.94999542E+01
 21
2.33847716E+02
  0
POLYLINE
  8
0
 62
4
 66
1
  0
VERTEX
  8
0
 62
4
 10
2.94999542E+01
 20
2.31726395E+02
  0
VERTEX
  8
0
 62
4
 10
2.95080056E+01
 20
2.31695264E+02
  0
VERTEX
  8
0
 62
4
 10
2.95320950E+01
 20
2.31664383E+02
  0
VERTEX
  8
0
 62
4
 10
2.95720285E+01
 20
2.31634001E+02
  0
VERTEX
  8
0
 62
4
 10
2.96274845E+01
 20
2.31604364E+02
  0
VERTEX
  8
0
 62
4
 10
2.96980165E+01
 20
2.31575709E+02
  0
VERTEX
  8
0
 62
4
 10
2.97830566E+01
 20
2.31548267E+02
  0
VERTEX
  8
0
 62
4
 10
2.98819202E+01
 20
2.31522259E+02
  0
VERTEX
  8
0
 62
4
 10
2.99938113E+01
 20
2.31497895E+02
  0
VERTEX
  8
0
 62
4
 10
3.01178289E+01
 20
2.31475371E+02
  0
VERTEX
  8
0
 62
4
 10
3.02529746E+01
 20
2.31454868E+02
  0
VERTEX
  8
0
 62
4
 10
3.03981602E+01
 20
2.31436551E+02
  0
VERTEX
  8
0
 62
4
 10
3.05522169E+01
 20
2.31420567E+02
  0
VERTEX
  8
0
 62
4
 10
3.07139041E+01
 20
2.31407046E+02
  0
VERTEX
  8
0
 62
4
 10
3.08819202E+01
 20
2.31396097E+02
  0
VERTEX
  8
0
 62
4
 10
3.10549123E+01
 20
2.31387806E+02
  0
VERTEX
  8
0
 62
4
 10
3.12314877E+01
 20
2.31382242E+02
  0
VERTEX
  8
0
 62
4
 10
3.14102245E+01
 20
2.31379448E+02
  0
VERTEX
  8
0
 62
4
 10
3.15896838E+01
 20
2.31379448E+02
  0
VERTEX
  8
0
 62
4
 10
3.17684207E+01
 20
2.31382242E+02
  0
VERTEX
  8
0
 62
4
 10
3.19449961E+01
 20
2.31387806E+02
  0
VERTEX
  8
0
 62
4
 10
3.21179882E+01
 20
2.31396097E+02
  0
VERTEX
  8
0
 62
4
 10
3.22860043E+01
 20
2.31407046E+02
  0
VERTEX
  8
0
 62
4
 10
3.24476915E+01
 20
2.31420567E+02
  0
VERTEX
  8
0
 62
4
 10
3.26017482E+01
 20
2.31436551E+02
  0
VERTEX
  8
0
 62
4
 10
3.27469338E+01
 20
2.31454868E+02
  0
VERTEX
  8
0
 62
4
 10
3.28820795E+01
 20
2.31475371E+02
  0
VERTEX
  8
0
 62
4
 10
3.30060971E+01
 20
2.31497895E+02
  0
VERTEX
  8
0
 62
4
 10
3.31179882E+01
 20
2.31522259E+02
  0
VERTEX
  8
0
 62
4
 10
3.32168518E+01
 20
2.31548267E+02
  0
VERTEX
  8
0
 62
4
 10
3.33018919E+01
 20
2.31575709E+02
  0
VERTEX
  8
0
 62
4
 10
3.33724239E+01
 20
2.31604364E+02
  0
VERTEX
  8
0
 62
4
 10
3.34278799E+01
 20
2.31634001E+02
  0
VERTEX
  8
0
 62
4
 10
3.34678134E+01
 20
2.31664383E+02
  0
VERTEX
  8
0
 62
4
 10
3.34919028E+01
 20
2.31695264E+02
  0
VERTEX
  8
0
 62
4
 10
3.34999542E+01
 20
2.31726395E+02
  0
SEQEND
  8
0
  0
LINE
  8
0
 62
4
 10
4.99999542E+01
 20
2.54849729E+02
 11
5.14999542E+01
 21
2.55852661E+02
  0
LINE
  8
0
 62
4
 10
5.14999542E+01
 20
2.55852661E+02
 11
5.14999542E+01
 21
2.58476564E+02
  0
LINE
  8
0
 62
4
 10
5.14999542E+01
 20
2.58083251E+02
 11
4.99999542E+01
 21
2.58788960E+02
  0
LINE
  8
0
 62
4
 10
5.14999542E+01
 20
2.58476564E+02
 11
4.99999542E+01
 21
2.59483552E+02
  0
LINE
  8
0
 62
4
 10
4.99999542E+01
 20
2.59483552E+02
 11
3.91499542E+01
 21
2.59483552E+02
  0
LINE
  8
0
 62
4
 10
4.99999542E+01
 20
2.58788960E+02
 11
3.91499542E+01
 21
2.58788960E+02
  0
LINE
  8
0
 62
4
 10
4.99999542E+01
 20
2.58505174E+02
 11
4.99999542E+01
 21
2.59477604E+02
  0
POLYLINE
  8
0
 62
4
 66
1
  0
VERTEX
  8
0
 62
4
 10
3.12999542E+01
 20
2.58136274E+02
  0
VERTEX
  8
0
 62
4
 10
3.14817692E+01
 20
2.58080427E+02
  0
VERTEX
  8
0
 62
4
 10
3.16914664E+01
 20
2.58027608E+02
  0
VERTEX
  8
0
 62
4
 10
3.19273841E+01
 20
2.57978238E+02
  0
VERTEX
  8
0
 62
4
 10
3.21876524E+01
 20
2.57932706E+02
  0
VERTEX
  8
0
 62
4
 10
3.24702087E+01
 20
2.57891375E+02
  0
VERTEX
  8
0
 62
4
 10
3.27728138E+01
 20
2.57854570E+02
  0
VERTEX
  8
0
 62
4
 10
3.30930693E+01
 20
2.57822585E+02
  0
VERTEX
  8
0
 62
4
 10
3.34284373E+01
 20
2.57795672E+02
  0
VERTEX
  8
0
 62
4
 10
3.37762598E+01
 20
2.57774046E+02
  0
VERTEX
  8
0
 62
4
 10
3.41337804E+01
 20
2.57757876E+02
  0
VERTEX
  8
0
 62
4
 10
3.44981655E+01
 20
2.57747292E+02
  0
VERTEX
  8
0
 62
4
 10
3.48665274E+01
 20
2.57742378E+02
  0
VERTEX
  8
0
 62
4
 10
3.52359467E+01
 20
2.57743171E+02
  0
VERTEX
  8
0
 62
4
 10
3.56034958E+01
 20
2.57749667E+02
  0
VERTEX
  8
0
 62
4
 10
3.59662616E+01
 20
2.57761813E+02
  0
VERTEX
  8
0
 62
4
 10
3.63213693E+01
 20
2.57779513E+02
  0
VERTEX
  8
0
 62
4
 10
3.66660046E+01
 20
2.57802627E+02
  0
VERTEX
  8
0
 62
4
 10
3.69974360E+01
 20
2.57830972E+02
  0
VERTEX
  8
0
 62
4
 10
3.73130371E+01
 20
2.57864323E+02
  0
VERTEX
  8
0
 62
4
 10
3.76103065E+01
 20
2.57902416E+02
  0
VERTEX
  8
0
 62
4
 10
3.78868885E+01
 20
2.57944949E+02
  0
VERTEX
  8
0
 62
4
 10
3.81405909E+01
 20
2.57991584E+02
  0
VERTEX
  8
0
 62
4
 10
3.83694032E+01
 20
2.58041953E+02
  0
VERTEX
  8
0
 62
4
 10
3.85715120E+01
 20
2.58095656E+02
  0
VERTEX
  8
0
 62
4
 10
3.87453155E+01
 20
2.58152268E+02
  0
VERTEX
  8
0
 62
4
 10
3.88894363E+01
 20
2.58211339E+02
  0
VERTEX
  8
0
 62
4
 10
3.90027323E+01
 20
2.58272402E+02
  0
VERTEX
  8
0
 62
4
 10
3.90843055E+01
 20
2.58334972E+02
  0
VERTEX
  8
0
 62
4
 10
3.91335094E+01
 20
2.58398555E+02
  0
VERTEX
  8
0
 62
4
 10
3.91499542E+01
 20
2.58462645E+02
  0
SEQEND
  8
0
  0
ARC
  8
0
 62
4
 10
3.49922159E+01
 20
2.49305539E+02
 40
1.18100000E+01
 50
8.99624577E+01
 51
1.09675998E+02
  0
ARC
  8
0
 62
4
 10
3.50076925E+01
 20
2.49305539E+02
 40
1.18100000E+01
 50
7.03240015E+01
 51
9.00375421E+01
  0
LINE
  8
0
 62
4
 10
3.91499542E+01
 20
2.60190570E+02
 11
3.91499542E+01
 21
2.58462645E+02
  0
LINE
  8
0
 62
4
 10
3.08499542E+01
 20
2.60190570E+02
 11
3.08499542E+01
 21
2.60051461E+02
  0
LINE
  8
0
 62
4
 10
3.89999542E+01
 20
2.58088418E+02
 11
3.89999542E+01
 21
2.58270648E+02
  0
POLYLINE
  8
0
 62
4
 66
1
  0
VERTEX
  8
0
 62
4
 10
3.12999542E+01
 20
2.57824496E+02
  0
VERTEX
  8
0
 62
4
 10
3.14492622E+01
 20
2.57768576E+02
  0
VERTEX
  8
0
 62
4
 10
3.16265309E+01
 20
2.57715175E+02
  0
VERTEX
  8
0
 62
4
 10
3.18303643E+01
 20
2.57664713E+02
  0
VERTEX
  8
0
 62
4
 10
3.20591574E+01
 20
2.57617588E+02
  0
VERTEX
  8
0
 62
4
 10
3.23111084E+01
 20
2.57574170E+02
  0
VERTEX
  8
0
 62
4
 10
3.25842334E+01
 20
2.57534802E+02
  0
VERTEX
  8
0
 62
4
 10
3.28763815E+01
 20
2.57499793E+02
  0
VERTEX
  8
0
 62
4
 10
3.31852521E+01
 20
2.57469420E+02
  0
VERTEX
  8
0
 62
4
 10
3.35084130E+01
 20
2.57443921E+02
  0
VERTEX
  8
0
 62
4
 10
3.38433194E+01
 20
2.57423497E+02
  0
VERTEX
  8
0
 62
4
 10
3.41873340E+01
 20
2.57408310E+02
  0
VERTEX
  8
0
 62
4
 10
3.45377477E+01
 20
2.57398478E+02
  0
VERTEX
  8
0
 62
4
 10
3.48918011E+01
 20
2.57394079E+02
  0
VERTEX
  8
0
 62
4
 10
3.52467063E+01
 20
2.57395148E+02
  0
VERTEX
  8
0
 62
4
 10
3.55996683E+01
 20
2.57401676E+02
  0
VERTEX
  8
0
 62
4
 10
3.59479078E+01
 20
2.57413612E+02
  0
VERTEX
  8
0
 62
4
 10
3.62886823E+01
 20
2.57430863E+02
  0
VERTEX
  8
0
 62
4
 10
3.66193086E+01
 20
2.57453291E+02
  0
VERTEX
  8
0
 62
4
 10
3.69371828E+01
 20
2.57480720E+02
  0
VERTEX
  8
0
 62
4
 10
3.72398019E+01
 20
2.57512935E+02
  0
VERTEX
  8
0
 62
4
 10
3.75247828E+01
 20
2.57549682E+02
  0
VERTEX
  8
0
 62
4
 10
3.77898814E+01
 20
2.57590671E+02
  0
VERTEX
  8
0
 62
4
 10
3.80330101E+01
 20
2.57635580E+02
  0
VERTEX
  8
0
 62
4
 10
3.82522544E+01
 20
2.57684055E+02
  0
VERTEX
  8
0
 62
4
 10
3.84458876E+01
 20
2.57735714E+02
  0
VERTEX
  8
0
 62
4
 10
3.86123851E+01
 20
2.57790150E+02
  0
VERTEX
  8
0
 62
4
 10
3.87504358E+01
 20
2.57846935E+02
  0
VERTEX
  8
0
 62
4
 10
3.88589524E+01
 20
2.57905622E+02
  0
VERTEX
  8
0
 62
4
 10
3.89370805E+01
 20
2.57965749E+02
  0
VERTEX
  8
0
 62
4
 10
3.89842048E+01
 20
2.58026841E+02
  0
VERTEX
  8
0
 62
4
 10
3.89999542E+01
 20
2.58088418E+02
  0
SEQEND
  8
0
  0
ARC
  8
0
 62
4
 10
3.71185598E+01
 20
2.48604329E+02
 40
1.25124521E+01
 50
9.49416351E+01
 51
1.08095416E+02
  0
ARC
  8
0
 62
4
 10
3.28813484E+01
 20
2.48604327E+02
 40
1.25124547E+01
 50
7.19045858E+01
 51
8.50583647E+01
  0
POLYLINE
  8
0
 62
4
 66
1
  0
VERTEX
  8
0
 62
4
 10
3.08499542E+01
 20
2.60195907E+02
  0
VERTEX
  8
0
 62
4
 10
3.08666609E+01
 20
2.60131309E+02
  0
VERTEX
  8
0
 62
4
 10
3.09166464E+01
 20
2.60067232E+02
  0
VERTEX
  8
0
 62
4
 10
3.09995083E+01
 20
2.60004190E+02
  0
VERTEX
  8
0
 62
4
 10
3.11145795E+01
 20
2.59942692E+02
  0
VERTEX
  8
0
 62
4
 10
3.12609334E+01
 20
2.59883233E+02
  0
VERTEX
  8
0
 62
4
 10
3.14373917E+01
 20
2.59826291E+02
  0
VERTEX
  8
0
 62
4
 10
3.16425337E+01
 20
2.59772325E+02
  0
VERTEX
  8
0
 62
4
 10
3.18747076E+01
 20
2.59721770E+02
  0
VERTEX
  8
0
 62
4
 10
3.21320442E+01
 20
2.59675032E+02
  0
VERTEX
  8
0
 62
4
 10
3.24124715E+01
 20
2.59632488E+02
  0
VERTEX
  8
0
 62
4
 10
3.27137317E+01
 20
2.59594480E+02
  0
VERTEX
  8
0
 62
4
 10
3.30333992E+01
 20
2.59561315E+02
  0
VERTEX
  8
0
 62
4
 10
3.33689003E+01
 20
2.59533259E+02
  0
VERTEX
  8
0
 62
4
 10
3.37175337E+01
 20
2.59510538E+02
  0
VERTEX
  8
0
 62
4
 10
3.40764923E+01
 20
2.59493335E+02
  0
VERTEX
  8
0
 62
4
 10
3.44428861E+01
 20
2.59481789E+02
  0
VERTEX
  8
0
 62
4
 10
3.48137651E+01
 20
2.59475993E+02
  0
VERTEX
  8
0
 62
4
 10
3.51861432E+01
 20
2.59475993E+02
  0
VERTEX
  8
0
 62
4
 10
3.55570222E+01
 20
2.59481789E+02
  0
VERTEX
  8
0
 62
4
 10
3.59234161E+01
 20
2.59493335E+02
  0
VERTEX
  8
0
 62
4
 10
3.62823747E+01
 20
2.59510538E+02
  0
VERTEX
  8
0
 62
4
 10
3.66310081E+01
 20
2.59533259E+02
  0
VERTEX
  8
0
 62
4
 10
3.69665091E+01
 20
2.59561315E+02
  0
VERTEX
  8
0
 62
4
 10
3.72861767E+01
 20
2.59594480E+02
  0
VERTEX
  8
0
 62
4
 10
3.75874369E+01
 20
2.59632488E+02
  0
VERTEX
  8
0
 62
4
 10
3.78678642E+01
 20
2.59675032E+02
  0
VERTEX
  8
0
 62
4
 10
3.81252008E+01
 20
2.59721770E+02
  0
VERTEX
  8
0
 62
4
 10
3.83573747E+01
 20
2.59772325E+02
  0
VERTEX
  8
0
 62
4
 10
3.85625167E+01
 20
2.59826291E+02
  0
VERTEX
  8
0
 62
4
 10
3.87389750E+01
 20
2.59883233E+02
  0
VERTEX
  8
0
 62
4
 10
3.88853289E+01
 20
2.59942692E+02
  0
VERTEX
  8
0
 62
4
 10
3.90004001E+01
 20
2.60004190E+02
  0
VERTEX
  8
0
 62
4
 10
3.90832620E+01
 20
2.60067232E+02
  0
VERTEX
  8
0
 62
4
 10
3.91332475E+01
 20
2.60131309E+02
  0
VERTEX
  8
0
 62
4
 10
3.91499542E+01
 20
2.60195907E+02
  0
SEQEND
  8
0
  0
ARC
  8
0
 62
4
 10
3.88999542E+01
 20
2.60190570E+02
 40
2.50000000E-01
 50
0.00000000E+00
 51
7.03240015E+01
  0
ARC
  8
0
 62
4
 10
3.10999542E+01
 20
2.60190570E+02
 40
2.50000000E-01
 50
1.09675998E+02
 51
1.80000000E+02
  0
LINE
  8
0
 62
4
 10
3.12999542E+01
 20
2.58465457E+02
 11
3.12999542E+01
 21
2.57480650E+02
  0
LINE
  8
0
 62
4
 10
2.36999542E+01
 20
2.58465457E+02
 11
2.36999542E+01
 21
2.57480650E+02
  0
POLYLINE
  8
0
 62
4
 66
1
  0
VERTEX
  8
0
 62
4
 10
2.36999542E+01
 20
2.57480650E+02
  0
VERTEX
  8
0
 62
4
 10
2.37152519E+01
 20
2.57421500E+02
  0
VERTEX
  8
0
 62
4
 10
2.37610218E+01
 20
2.57362827E+02
  0
VERTEX
  8
0
 62
4
 10
2.38368953E+01
 20
2.57305102E+02
  0
VERTEX
  8
0
 62
4
 10
2.39422617E+01
 20
2.57248791E+02
  0
VERTEX
  8
0
 62
4
 10
2.40762725E+01
 20
2.57194346E+02
  0
VERTEX
  8
0
 62
4
 10
2.42378488E+01
 20
2.57142207E+02
  0
VERTEX
  8
0
 62
4
 10
2.44256896E+01
 20
2.57092792E+02
  0
VERTEX
  8
0
 62
4
 10
2.46382826E+01
 20
2.57046501E+02
  0
VERTEX
  8
0
 62
4
 10
2.48739161E+01
 20
2.57003704E+02
  0
VERTEX
  8
0
 62
4
 10
2.51306929E+01
 20
2.56964748E+02
  0
VERTEX
  8
0
 62
4
 10
2.54065457E+01
 20
2.56929946E+02
  0
VERTEX
  8
0
 62
4
 10
2.56992533E+01
 20
2.56899578E+02
  0
VERTEX
  8
0
 62
4
 10
2.60064591E+01
 20
2.56873888E+02
  0
VERTEX
  8
0
 62
4
 10
2.63256896E+01
 20
2.56853083E+02
  0
VERTEX
  8
0
 62
4
 10
2.66543746E+01
 20
2.56837331E+02
  0
VERTEX
  8
0
 62
4
 10
2.69898678E+01
 20
2.56826759E+02
  0
VERTEX
  8
0
 62
4
 10
2.73294678E+01
 20
2.56821451E+02
  0
VERTEX
  8
0
 62
4
 10
2.76704405E+01
 20
2.56821451E+02
  0
VERTEX
  8
0
 62
4
 10
2.80100406E+01
 20
2.56826759E+02
  0
VERTEX
  8
0
 62
4
 10
2.83455337E+01
 20
2.56837331E+02
  0
VERTEX
  8
0
 62
4
 10
2.86742188E+01
 20
2.56853083E+02
  0
VERTEX
  8
0
 62
4
 10
2.89934493E+01
 20
2.56873888E+02
  0
VERTEX
  8
0
 62
4
 10
2.93006551E+01
 20
2.56899578E+02
  0
VERTEX
  8
0
 62
4
 10
2.95933627E+01
 20
2.56929946E+02
  0
VERTEX
  8
0
 62
4
 10
2.98692154E+01
 20
2.56964748E+02
  0
VERTEX
  8
0
 62
4
 10
3.01259922E+01
 20
2.57003704E+02
  0
VERTEX
  8
0
 62
4
 10
3.03616258E+01
 20
2.57046501E+02
  0
VERTEX
  8
0
 62
4
 10
3.05742188E+01
 20
2.57092792E+02
  0
VERTEX
  8
0
 62
4
 10
3.07620596E+01
 20
2.57142207E+02
  0
VERTEX
  8
0
 62
4
 10
3.09236359E+01
 20
2.57194346E+02
  0
VERTEX
  8
0
 62
4
 10
3.10576467E+01
 20
2.57248791E+02
  0
VERTEX
  8
0
 62
4
 10
3.11630131E+01
 20
2.57305102E+02
  0
VERTEX
  8
0
 62
4
 10
3.12388866E+01
 20
2.57362827E+02
  0
VERTEX
  8
0
 62
4
 10
3.12846565E+01
 20
2.57421500E+02
  0
VERTEX
  8
0
 62
4
 10
3.12999542E+01
 20
2.57480650E+02
  0
SEQEND
  8
0
  0
POLYLINE
  8
0
 62
4
 66
1
  0
VERTEX
  8
0
 62
4
 10
2.40999542E+01
 20
2.58760148E+02
  0
VERTEX
  8
0
 62
4
 10
2.39633725E+01
 20
2.58706859E+02
  0
VERTEX
  8
0
 62
4
 10
2.38544247E+01
 20
2.58651683E+02
  0
VERTEX
  8
0
 62
4
 10
2.37739619E+01
 20
2.58595053E+02
  0
VERTEX
  8
0
 62
4
 10
2.37226129E+01
 20
2.58537410E+02
  0
VERTEX
  8
0
 62
4
 10
2.37007789E+01
 20
2.58479204E+02
  0
VERTEX
  8
0
 62
4
 10
2.37086306E+01
 20
2.58420891E+02
  0
VERTEX
  8
0
 62
4
 10
2.37461066E+01
 20
2.58362927E+02
  0
VERTEX
  8
0
 62
4
 10
2.38129140E+01
 20
2.58305764E+02
  0
VERTEX
  8
0
 62
4
 10
2.39085308E+01
 20
2.58249848E+02
  0
VERTEX
  8
0
 62
4
 10
2.40322100E+01
 20
2.58195617E+02
  0
VERTEX
  8
0
 62
4
 10
2.41829851E+01
 20
2.58143495E+02
  0
VERTEX
  8
0
 62
4
 10
2.43596780E+01
 20
2.58093888E+02
  0
VERTEX
  8
0
 62
4
 10
2.45609080E+01
 20
2.58047184E+02
  0
VERTEX
  8
0
 62
4
 10
2.47851030E+01
 20
2.58003749E+02
  0
VERTEX
  8
0
 62
4
 10
2.50305109E+01
 20
2.57963922E+02
  0
VERTEX
  8
0
 62
4
 10
2.52952144E+01
 20
2.57928013E+02
  0
VERTEX
  8
0
 62
4
 10
2.55771450E+01
 20
2.57896304E+02
  0
VERTEX
  8
0
 62
4
 10
2.58740999E+01
 20
2.57869042E+02
  0
VERTEX
  8
0
 62
4
 10
2.61837588E+01
 20
2.57846440E+02
  0
VERTEX
  8
0
 62
4
 10
2.65037020E+01
 20
2.57828675E+02
  0
VERTEX
  8
0
 62
4
 10
2.68314296E+01
 20
2.57815886E+02
  0
VERTEX
  8
0
 62
4
 10
2.71643809E+01
 20
2.57808172E+02
  0
VERTEX
  8
0
 62
4
 10
2.74999542E+01
 20
2.57805594E+02
  0
VERTEX
  8
0
 62
4
 10
2.78355276E+01
 20
2.57808172E+02
  0
VERTEX
  8
0
 62
4
 10
2.81684788E+01
 20
2.57815886E+02
  0
VERTEX
  8
0
 62
4
 10
2.84962065E+01
 20
2.57828675E+02
  0
VERTEX
  8
0
 62
4
 10
2.88161497E+01
 20
2.57846440E+02
  0
VERTEX
  8
0
 62
4
 10
2.91258085E+01
 20
2.57869042E+02
  0
VERTEX
  8
0
 62
4
 10
2.94227634E+01
 20
2.57896304E+02
  0
VERTEX
  8
0
 62
4
 10
2.97046941E+01
 20
2.57928013E+02
  0
VERTEX
  8
0
 62
4
 10
2.99693975E+01
 20
2.57963922E+02
  0
VERTEX
  8
0
 62
4
 10
3.02148055E+01
 20
2.58003749E+02
  0
VERTEX
  8
0
 62
4
 10
3.04390004E+01
 20
2.58047184E+02
  0
VERTEX
  8
0
 62
4
 10
3.06402305E+01
 20
2.58093888E+02
  0
VERTEX
  8
0
 62
4
 10
3.08169234E+01
 20
2.58143495E+02
  0
VERTEX
  8
0
 62
4
 10
3.09676984E+01
 20
2.58195617E+02
  0
VERTEX
  8
0
 62
4
 10
3.10913776E+01
 20
2.58249848E+02
  0
VERTEX
  8
0
 62
4
 10
3.11869944E+01
 20
2.58305764E+02
  0
VERTEX
  8
0
 62
4
 10
3.12538018E+01
 20
2.58362927E+02
  0
VERTEX
  8
0
 62
4
 10
3.12912778E+01
 20
2.58420891E+02
  0
VERTEX
  8
0
 62
4
 10
3.12991294E+01
 20
2.58479204E+02
  0
VERTEX
  8
0
 62
4
 10
3.12772955E+01
 20
2.58537410E+02
  0
VERTEX
  8
0
 62
4
 10
3.12259465E+01
 20
2.58595053E+02
  0
VERTEX
  8
0
 62
4
 10
3.11454837E+01
 20
2.58651683E+02
  0
VERTEX
  8
0
 62
4
 10
3.10365359E+01
 20
2.58706859E+02
  0
VERTEX
  8
0
 62
4
 10
3.08999542E+01
 20
2.58760148E+02
  0
SEQEND
  8
0
  0
LINE
  8
0
 62
4
 10
3.08999542E+01
 20
2.59739210E+02
 11
3.08999542E+01
 21
2.58465457E+02
  0
LINE
  8
0
 62
4
 10
2.40999542E+01
 20
2.59739210E+02
 11
2.40999542E+01
 21
2.58465457E+02
  0
POLYLINE
  8
0
 62
4
 66
1
  0
VERTEX
  8
0
 62
4
 10
2.40999542E+01
 20
2.58465457E+02
  0
VERTEX
  8
0
 62
4
 10
2.41136416E+01
 20
2.58412534E+02
  0
VERTEX
  8
0
 62
4
 10
2.41545936E+01
 20
2.58360036E+02
  0
VERTEX
  8
0
 62
4
 10
2.42224805E+01
 20
2.58308388E+02
  0
VERTEX
  8
0
 62
4
 10
2.43167556E+01
 20
2.58258004E+02
  0
VERTEX
  8
0
 62
4
 10
2.44366600E+01
 20
2.58209290E+02
  0
VERTEX
  8
0
 62
4
 10
2.45812283E+01
 20
2.58162639E+02
  0
VERTEX
  8
0
 62
4
 10
2.47492964E+01
 20
2.58118426E+02
  0
VERTEX
  8
0
 62
4
 10
2.49395112E+01
 20
2.58077007E+02
  0
VERTEX
  8
0
 62
4
 10
2.51503412E+01
 20
2.58038716E+02
  0
VERTEX
  8
0
 62
4
 10
2.53800889E+01
 20
2.58003861E+02
  0
VERTEX
  8
0
 62
4
 10
2.56269044E+01
 20
2.57972722E+02
  0
VERTEX
  8
0
 62
4
 10
2.58888007E+01
 20
2.57945550E+02
  0
VERTEX
  8
0
 62
4
 10
2.61636691E+01
 20
2.57922564E+02
  0
VERTEX
  8
0
 62
4
 10
2.64492964E+01
 20
2.57903950E+02
  0
VERTEX
  8
0
 62
4
 10
2.67433830E+01
 20
2.57889856E+02
  0
VERTEX
  8
0
 62
4
 10
2.70435611E+01
 20
2.57880396E+02
  0
VERTEX
  8
0
 62
4
 10
2.73474138E+01
 20
2.57875648E+02
  0
VERTEX
  8
0
 62
4
 10
2.76524946E+01
 20
2.57875648E+02
  0
VERTEX
  8
0
 62
4
 10
2.79563473E+01
 20
2.57880396E+02
  0
VERTEX
  8
0
 62
4
 10
2.82565254E+01
 20
2.57889856E+02
  0
VERTEX
  8
0
 62
4
 10
2.85506120E+01
 20
2.57903950E+02
  0
VERTEX
  8
0
 62
4
 10
2.88362393E+01
 20
2.57922564E+02
  0
VERTEX
  8
0
 62
4
 10
2.91111076E+01
 20
2.57945550E+02
  0
VERTEX
  8
0
 62
4
 10
2.93730039E+01
 20
2.57972722E+02
  0
VERTEX
  8
0
 62
4
 10
2.96198195E+01
 20
2.58003861E+02
  0
VERTEX
  8
0
 62
4
 10
2.98495672E+01
 20
2.58038716E+02
  0
VERTEX
  8
0
 62
4
 10
3.00603972E+01
 20
2.58077007E+02
  0
VERTEX
  8
0
 62
4
 10
3.02506120E+01
 20
2.58118426E+02
  0
VERTEX
  8
0
 62
4
 10
3.04186801E+01
 20
2.58162639E+02
  0
VERTEX
  8
0
 62
4
 10
3.05632483E+01
 20
2.58209290E+02
  0
VERTEX
  8
0
 62
4
 10
3.06831528E+01
 20
2.58258004E+02
  0
VERTEX
  8
0
 62
4
 10
3.07774279E+01
 20
2.58308388E+02
  0
VERTEX
  8
0
 62
4
 10
3.08453148E+01
 20
2.58360036E+02
  0
VERTEX
  8
0
 62
4
 10
3.08862668E+01
 20
2.58412534E+02
  0
VERTEX
  8
0
 62
4
 10
3.08999542E+01
 20
2.58465457E+02
  0
SEQEND
  8
0
  0
ARC
  8
0
 62
4
 10
2.74999542E+01
 20
2.49198997E+02
 40
1.18100000E+01
 50
7.71724899E+01
 51
1.02827510E+02
  0
ARC
  8
0
 62
4
 10
2.50999539E+01
 20
2.59739210E+02
 40
1.00000000E+00
 50
1.02827510E+02
 51
1.80000000E+02
  0
ARC
  8
0
 62
4
 10
2.98999545E+01
 20
2.59739210E+02
 40
1.00000000E+00
 50
3.60000000E+02
 51
7.71724899E+01
  0
ARC
  8
0
 62
4
 10
2.96217078E+01
 20
2.48479853E+02
 40
1.25306621E+01
 50
9.49686598E+01
 51
1.08083352E+02
  0
ARC
  8
0
 62
4
 10
2.53782006E+01
 20
2.48479853E+02
 40
1.25306626E+01
 50
7.19166483E+01
 51
8.50313400E+01
  0
LINE
  8
0
  6
CENTER
 62
6
 10
3.74999542E+01
 20
2.58088418E+02
 11
3.24999542E+01
 21
2.58088418E+02
  0
LINE
  8
0
  6
CENTER
 62
6
 10
2.74999542E+01
 20
2.54980650E+02
 11
2.74999542E+01
 21
2.59980650E+02
  0
LINE
  8
0
  6
CENTER
 62
6
 10
2.99999542E+01
 20
2.57480650E+02
 11
2.49999542E+01
 21
2.57480650E+02
  0
LINE
  8
0
  6
CENTER
 62
6
 10
4.24999542E+01
 20
2.54980650E+02
 11
4.24999542E+01
 21
2.59980650E+02
  0
LINE
  8
0
  6
CENTER
 62
6
 10
4.49999542E+01
 20
2.57480650E+02
 11
3.99999542E+01
 21
2.57480650E+02
  0
LINE
  8
0
 62
4
 10
2.37068436E+01
 20
2.58505174E+02
 11
1.99999542E+01
 21
2.58505174E+02
  0
LINE
  8
0
 62
6
 10
-1.39999542E+01
 20
2.89503320E+02
 11
-1.39999542E+01
 21
2.87152284E+02
  0
LINE
  8
0
 62
6
 10
-1.09999542E+01
 20
2.89503320E+02
 11
-1.09999542E+01
 21
2.87152284E+02
  0
LINE
  8
0
 62
4
 10
-1.44999542E+01
 20
2.89273605E+02
 11
-1.44999542E+01
 21
2.87152284E+02
  0
LINE
  8
0
 62
4
 10
-1.04999542E+01
 20
2.89273605E+02
 11
-1.04999542E+01
 21
2.87152284E+02
  0
LINE
  8
0
 62
4
 10
-2.39999542E+01
 20
2.87152284E+02
 11
-2.39999542E+01
 21
2.74444287E+02
  0
LINE
  8
0
 62
4
 10
-8.99995422E+00
 20
2.87152284E+02
 11
-8.99995422E+00
 21
2.61522396E+02
  0
LINE
  8
0
 62
4
 10
-3.89999542E+01
 20
2.74444287E+02
 11
-3.89999542E+01
 21
2.62494826E+02
  0
LINE
  8
0
  6
CENTER
 62
6
 10
-1.24999542E+01
 20
2.92615579E+02
 11
-1.24999542E+01
 21
2.82350000E+02
  0
LINE
  8
0
  6
CENTER
 62
6
 10
-2.04999542E+01
 20
2.92615579E+02
 11
-2.04999542E+01
 21
2.82350000E+02
  0
LINE
  8
0
  6
CENTER
 62
6
 10
-2.39999542E+01
 20
2.65411582E+02
 11
-2.39999542E+01
 21
2.60411582E+02
  0
LINE
  8
0
 62
4
 10
-2.39999542E+01
 20
2.87152284E+02
 11
-8.99995423E+00
 21
2.87152284E+02
  0
LINE
  8
0
 62
4
 10
-2.39999542E+01
 20
2.81337941E+02
 11
-8.99995423E+00
 21
2.81337941E+02
  0
LINE
  8
0
 62
4
 10
-3.89999542E+01
 20
2.74444287E+02
 11
-8.99995423E+00
 21
2.74444287E+02
  0
LINE
  8
0
 62
4
 10
-3.89999542E+01
 20
2.64300767E+02
 11
-8.99995423E+00
 21
2.64300767E+02
  0
LINE
  8
0
 62
4
 10
-1.30999542E+01
 20
2.61522396E+02
 11
-8.99995422E+00
 21
2.61522396E+02
  0
LINE
  8
0
 62
4
 10
-1.30999542E+01
 20
2.61696044E+02
 11
-8.99995422E+00
 21
2.61696044E+02
  0
LINE
  8
0
 62
4
 10
-3.89999542E+01
 20
2.62494826E+02
 11
-2.81499542E+01
 21
2.62494826E+02
  0
POLYLINE
  8
0
 62
4
 66
1
  0
VERTEX
  8
0
 62
4
 10
-1.04999542E+01
 20
2.89273605E+02
  0
VERTEX
  8
0
 62
4
 10
-1.05080056E+01
 20
2.89304736E+02
  0
VERTEX
  8
0
 62
4
 10
-1.05320950E+01
 20
2.89335617E+02
  0
VERTEX
  8
0
 62
4
 10
-1.05720285E+01
 20
2.89365999E+02
  0
VERTEX
  8
0
 62
4
 10
-1.06274845E+01
 20
2.89395636E+02
  0
VERTEX
  8
0
 62
4
 10
-1.06980165E+01
 20
2.89424291E+02
  0
VERTEX
  8
0
 62
4
 10
-1.07830566E+01
 20
2.89451733E+02
  0
VERTEX
  8
0
 62
4
 10
-1.08819202E+01
 20
2.89477741E+02
  0
VERTEX
  8
0
 62
4
 10
-1.09938113E+01
 20
2.89502105E+02
  0
VERTEX
  8
0
 62
4
 10
-1.11178289E+01
 20
2.89524629E+02
  0
VERTEX
  8
0
 62
4
 10
-1.12529746E+01
 20
2.89545132E+02
  0
VERTEX
  8
0
 62
4
 10
-1.13981602E+01
 20
2.89563449E+02
  0
VERTEX
  8
0
 62
4
 10
-1.15522169E+01
 20
2.89579433E+02
  0
VERTEX
  8
0
 62
4
 10
-1.17139041E+01
 20
2.89592954E+02
  0
VERTEX
  8
0
 62
4
 10
-1.18819202E+01
 20
2.89603903E+02
  0
VERTEX
  8
0
 62
4
 10
-1.20549123E+01
 20
2.89612194E+02
  0
VERTEX
  8
0
 62
4
 10
-1.22314877E+01
 20
2.89617758E+02
  0
VERTEX
  8
0
 62
4
 10
-1.24102245E+01
 20
2.89620552E+02
  0
VERTEX
  8
0
 62
4
 10
-1.25896838E+01
 20
2.89620552E+02
  0
VERTEX
  8
0
 62
4
 10
-1.27684207E+01
 20
2.89617758E+02
  0
VERTEX
  8
0
 62
4
 10
-1.29449961E+01
 20
2.89612194E+02
  0
VERTEX
  8
0
 62
4
 10
-1.31179882E+01
 20
2.89603903E+02
  0
VERTEX
  8
0
 62
4
 10
-1.32860043E+01
 20
2.89592954E+02
  0
VERTEX
  8
0
 62
4
 10
-1.34476915E+01
 20
2.89579433E+02
  0
VERTEX
  8
0
 62
4
 10
-1.36017482E+01
 20
2.89563449E+02
  0
VERTEX
  8
0
 62
4
 10
-1.37469338E+01
 20
2.89545132E+02
  0
VERTEX
  8
0
 62
4
 10
-1.38820795E+01
 20
2.89524629E+02
  0
VERTEX
  8
0
 62
4
 10
-1.40060971E+01
 20
2.89502105E+02
  0
VERTEX
  8
0
 62
4
 10
-1.41179882E+01
 20
2.89477741E+02
  0
VERTEX
  8
0
 62
4
 10
-1.42168518E+01
 20
2.89451733E+02
  0
VERTEX
  8
0
 62
4
 10
-1.43018919E+01
 20
2.89424291E+02
  0
VERTEX
  8
0
 62
4
 10
-1.43724239E+01
 20
2.89395636E+02
  0
VERTEX
  8
0
 62
4
 10
-1.44278799E+01
 20
2.89365999E+02
  0
VERTEX
  8
0
 62
4
 10
-1.44678134E+01
 20
2.89335617E+02
  0
VERTEX
  8
0
 62
4
 10
-1.44919028E+01
 20
2.89304736E+02
  0
VERTEX
  8
0
 62
4
 10
-1.44999542E+01
 20
2.89273605E+02
  0
SEQEND
  8
0
  0
LINE
  8
0
 62
6
 10
-2.19999542E+01
 20
2.89503320E+02
 11
-2.19999542E+01
 21
2.87152284E+02
  0
LINE
  8
0
 62
6
 10
-1.89999542E+01
 20
2.89503320E+02
 11
-1.89999542E+01
 21
2.87152284E+02
  0
LINE
  8
0
 62
4
 10
-2.24999542E+01
 20
2.89273605E+02
 11
-2.24999542E+01
 21
2.87152284E+02
  0
LINE
  8
0
 62
4
 10
-1.84999542E+01
 20
2.89273605E+02
 11
-1.84999542E+01
 21
2.87152284E+02
  0
POLYLINE
  8
0
 62
4
 66
1
  0
VERTEX
  8
0
 62
4
 10
-1.84999542E+01
 20
2.89273605E+02
  0
VERTEX
  8
0
 62
4
 10
-1.85080056E+01
 20
2.89304736E+02
  0
VERTEX
  8
0
 62
4
 10
-1.85320950E+01
 20
2.89335617E+02
  0
VERTEX
  8
0
 62
4
 10
-1.85720285E+01
 20
2.89365999E+02
  0
VERTEX
  8
0
 62
4
 10
-1.86274845E+01
 20
2.89395636E+02
  0
VERTEX
  8
0
 62
4
 10
-1.86980165E+01
 20
2.89424291E+02
  0
VERTEX
  8
0
 62
4
 10
-1.87830566E+01
 20
2.89451733E+02
  0
VERTEX
  8
0
 62
4
 10
-1.88819202E+01
 20
2.89477741E+02
  0
VERTEX
  8
0
 62
4
 10
-1.89938113E+01
 20
2.89502105E+02
  0
VERTEX
  8
0
 62
4
 10
-1.91178289E+01
 20
2.89524629E+02
  0
VERTEX
  8
0
 62
4
 10
-1.92529746E+01
 20
2.89545132E+02
  0
VERTEX
  8
0
 62
4
 10
-1.93981602E+01
 20
2.89563449E+02
  0
VERTEX
  8
0
 62
4
 10
-1.95522169E+01
 20
2.89579433E+02
  0
VERTEX
  8
0
 62
4
 10
-1.97139041E+01
 20
2.89592954E+02
  0
VERTEX
  8
0
 62
4
 10
-1.98819202E+01
 20
2.89603903E+02
  0
VERTEX
  8
0
 62
4
 10
-2.00549123E+01
 20
2.89612194E+02
  0
VERTEX
  8
0
 62
4
 10
-2.02314877E+01
 20
2.89617758E+02
  0
VERTEX
  8
0
 62
4
 10
-2.04102245E+01
 20
2.89620552E+02
  0
VERTEX
  8
0
 62
4
 10
-2.05896838E+01
 20
2.89620552E+02
  0
VERTEX
  8
0
 62
4
 10
-2.07684207E+01
 20
2.89617758E+02
  0
VERTEX
  8
0
 62
4
 10
-2.09449961E+01
 20
2.89612194E+02
  0
VERTEX
  8
0
 62
4
 10
-2.11179882E+01
 20
2.89603903E+02
  0
VERTEX
  8
0
 62
4
 10
-2.12860043E+01
 20
2.89592954E+02
  0
VERTEX
  8
0
 62
4
 10
-2.14476915E+01
 20
2.89579433E+02
  0
VERTEX
  8
0
 62
4
 10
-2.16017482E+01
 20
2.89563449E+02
  0
VERTEX
  8
0
 62
4
 10
-2.17469338E+01
 20
2.89545132E+02
  0
VERTEX
  8
0
 62
4
 10
-2.18820795E+01
 20
2.89524629E+02
  0
VERTEX
  8
0
 62
4
 10
-2.20060971E+01
 20
2.89502105E+02
  0
VERTEX
  8
0
 62
4
 10
-2.21179882E+01
 20
2.89477741E+02
  0
VERTEX
  8
0
 62
4
 10
-2.22168518E+01
 20
2.89451733E+02
  0
VERTEX
  8
0
 62
4
 10
-2.23018919E+01
 20
2.89424291E+02
  0
VERTEX
  8
0
 62
4
 10
-2.23724239E+01
 20
2.89395636E+02
  0
VERTEX
  8
0
 62
4
 10
-2.24278799E+01
 20
2.89365999E+02
  0
VERTEX
  8
0
 62
4
 10
-2.24678134E+01
 20
2.89335617E+02
  0
VERTEX
  8
0
 62
4
 10
-2.24919028E+01
 20
2.89304736E+02
  0
VERTEX
  8
0
 62
4
 10
-2.24999542E+01
 20
2.89273605E+02
  0
SEQEND
  8
0
  0
LINE
  8
0
 62
4
 10
-3.89999542E+01
 20
2.66150271E+02
 11
-4.04999542E+01
 21
2.65147339E+02
  0
LINE
  8
0
 62
4
 10
-4.04999542E+01
 20
2.65147339E+02
 11
-4.04999542E+01
 21
2.62523436E+02
  0
LINE
  8
0
 62
4
 10
-4.04999542E+01
 20
2.62916749E+02
 11
-3.89999542E+01
 21
2.62211040E+02
  0
LINE
  8
0
 62
4
 10
-4.04999542E+01
 20
2.62523436E+02
 11
-3.89999542E+01
 21
2.61516448E+02
  0
LINE
  8
0
 62
4
 10
-3.89999542E+01
 20
2.61516448E+02
 11
-2.81499542E+01
 21
2.61516448E+02
  0
LINE
  8
0
 62
4
 10
-3.89999542E+01
 20
2.62211040E+02
 11
-2.81499542E+01
 21
2.62211040E+02
  0
LINE
  8
0
 62
4
 10
-3.89999542E+01
 20
2.62494826E+02
 11
-3.89999542E+01
 21
2.61522396E+02
  0
POLYLINE
  8
0
 62
4
 66
1
  0
VERTEX
  8
0
 62
4
 10
-2.02999542E+01
 20
2.62863726E+02
  0
VERTEX
  8
0
 62
4
 10
-2.04817692E+01
 20
2.62919573E+02
  0
VERTEX
  8
0
 62
4
 10
-2.06914664E+01
 20
2.62972392E+02
  0
VERTEX
  8
0
 62
4
 10
-2.09273841E+01
 20
2.63021762E+02
  0
VERTEX
  8
0
 62
4
 10
-2.11876524E+01
 20
2.63067294E+02
  0
VERTEX
  8
0
 62
4
 10
-2.14702087E+01
 20
2.63108625E+02
  0
VERTEX
  8
0
 62
4
 10
-2.17728138E+01
 20
2.63145430E+02
  0
VERTEX
  8
0
 62
4
 10
-2.20930693E+01
 20
2.63177415E+02
  0
VERTEX
  8
0
 62
4
 10
-2.24284373E+01
 20
2.63204328E+02
  0
VERTEX
  8
0
 62
4
 10
-2.27762598E+01
 20
2.63225954E+02
  0
VERTEX
  8
0
 62
4
 10
-2.31337804E+01
 20
2.63242124E+02
  0
VERTEX
  8
0
 62
4
 10
-2.34981655E+01
 20
2.63252708E+02
  0
VERTEX
  8
0
 62
4
 10
-2.38665274E+01
 20
2.63257622E+02
  0
VERTEX
  8
0
 62
4
 10
-2.42359467E+01
 20
2.63256829E+02
  0
VERTEX
  8
0
 62
4
 10
-2.46034958E+01
 20
2.63250333E+02
  0
VERTEX
  8
0
 62
4
 10
-2.49662616E+01
 20
2.63238187E+02
  0
VERTEX
  8
0
 62
4
 10
-2.53213693E+01
 20
2.63220487E+02
  0
VERTEX
  8
0
 62
4
 10
-2.56660046E+01
 20
2.63197373E+02
  0
VERTEX
  8
0
 62
4
 10
-2.59974360E+01
 20
2.63169028E+02
  0
VERTEX
  8
0
 62
4
 10
-2.63130371E+01
 20
2.63135677E+02
  0
VERTEX
  8
0
 62
4
 10
-2.66103065E+01
 20
2.63097584E+02
  0
VERTEX
  8
0
 62
4
 10
-2.68868885E+01
 20
2.63055051E+02
  0
VERTEX
  8
0
 62
4
 10
-2.71405909E+01
 20
2.63008416E+02
  0
VERTEX
  8
0
 62
4
 10
-2.73694032E+01
 20
2.62958047E+02
  0
VERTEX
  8
0
 62
4
 10
-2.75715120E+01
 20
2.62904344E+02
  0
VERTEX
  8
0
 62
4
 10
-2.77453155E+01
 20
2.62847732E+02
  0
VERTEX
  8
0
 62
4
 10
-2.78894363E+01
 20
2.62788661E+02
  0
VERTEX
  8
0
 62
4
 10
-2.80027323E+01
 20
2.62727598E+02
  0
VERTEX
  8
0
 62
4
 10
-2.80843055E+01
 20
2.62665028E+02
  0
VERTEX
  8
0
 62
4
 10
-2.81335094E+01
 20
2.62601445E+02
  0
VERTEX
  8
0
 62
4
 10
-2.81499542E+01
 20
2.62537355E+02
  0
SEQEND
  8
0
  0
ARC
  8
0
 62
4
 10
-2.39922159E+01
 20
2.71694461E+02
 40
1.18100000E+01
 50
2.69962458E+02
 51
2.89675999E+02
  0
ARC
  8
0
 62
4
 10
-2.40076925E+01
 20
2.71694461E+02
 40
1.18100000E+01
 50
2.50324001E+02
 51
2.70037542E+02
  0
LINE
  8
0
 62
4
 10
-2.81499542E+01
 20
2.60809430E+02
 11
-2.81499542E+01
 21
2.62537355E+02
  0
LINE
  8
0
 62
4
 10
-1.98499542E+01
 20
2.60809430E+02
 11
-1.98499542E+01
 21
2.60948539E+02
  0
LINE
  8
0
 62
4
 10
-2.79999542E+01
 20
2.62911582E+02
 11
-2.79999542E+01
 21
2.62729352E+02
  0
POLYLINE
  8
0
 62
4
 66
1
  0
VERTEX
  8
0
 62
4
 10
-2.02999542E+01
 20
2.63175504E+02
  0
VERTEX
  8
0
 62
4
 10
-2.04492622E+01
 20
2.63231424E+02
  0
VERTEX
  8
0
 62
4
 10
-2.06265309E+01
 20
2.63284825E+02
  0
VERTEX
  8
0
 62
4
 10
-2.08303643E+01
 20
2.63335287E+02
  0
VERTEX
  8
0
 62
4
 10
-2.10591574E+01
 20
2.63382412E+02
  0
VERTEX
  8
0
 62
4
 10
-2.13111084E+01
 20
2.63425830E+02
  0
VERTEX
  8
0
 62
4
 10
-2.15842334E+01
 20
2.63465198E+02
  0
VERTEX
  8
0
 62
4
 10
-2.18763815E+01
 20
2.63500207E+02
  0
VERTEX
  8
0
 62
4
 10
-2.21852521E+01
 20
2.63530580E+02
  0
VERTEX
  8
0
 62
4
 10
-2.25084130E+01
 20
2.63556079E+02
  0
VERTEX
  8
0
 62
4
 10
-2.28433194E+01
 20
2.63576503E+02
  0
VERTEX
  8
0
 62
4
 10
-2.31873340E+01
 20
2.63591690E+02
  0
VERTEX
  8
0
 62
4
 10
-2.35377477E+01
 20
2.63601522E+02
  0
VERTEX
  8
0
 62
4
 10
-2.38918011E+01
 20
2.63605921E+02
  0
VERTEX
  8
0
 62
4
 10
-2.42467063E+01
 20
2.63604852E+02
  0
VERTEX
  8
0
 62
4
 10
-2.45996683E+01
 20
2.63598324E+02
  0
VERTEX
  8
0
 62
4
 10
-2.49479078E+01
 20
2.63586388E+02
  0
VERTEX
  8
0
 62
4
 10
-2.52886823E+01
 20
2.63569137E+02
  0
VERTEX
  8
0
 62
4
 10
-2.56193085E+01
 20
2.63546709E+02
  0
VERTEX
  8
0
 62
4
 10
-2.59371828E+01
 20
2.63519280E+02
  0
VERTEX
  8
0
 62
4
 10
-2.62398019E+01
 20
2.63487065E+02
  0
VERTEX
  8
0
 62
4
 10
-2.65247828E+01
 20
2.63450318E+02
  0
VERTEX
  8
0
 62
4
 10
-2.67898814E+01
 20
2.63409329E+02
  0
VERTEX
  8
0
 62
4
 10
-2.70330101E+01
 20
2.63364420E+02
  0
VERTEX
  8
0
 62
4
 10
-2.72522544E+01
 20
2.63315945E+02
  0
VERTEX
  8
0
 62
4
 10
-2.74458876E+01
 20
2.63264286E+02
  0
VERTEX
  8
0
 62
4
 10
-2.76123851E+01
 20
2.63209850E+02
  0
VERTEX
  8
0
 62
4
 10
-2.77504358E+01
 20
2.63153065E+02
  0
VERTEX
  8
0
 62
4
 10
-2.78589524E+01
 20
2.63094378E+02
  0
VERTEX
  8
0
 62
4
 10
-2.79370804E+01
 20
2.63034252E+02
  0
VERTEX
  8
0
 62
4
 10
-2.79842048E+01
 20
2.62973159E+02
  0
VERTEX
  8
0
 62
4
 10
-2.79999542E+01
 20
2.62911582E+02
  0
SEQEND
  8
0
  0
ARC
  8
0
 62
4
 10
-2.61185598E+01
 20
2.72395671E+02
 40
1.25124521E+01
 50
2.74941635E+02
 51
2.88095416E+02
  0
ARC
  8
0
 62
4
 10
-2.18813484E+01
 20
2.72395673E+02
 40
1.25124547E+01
 50
2.51904586E+02
 51
2.65058365E+02
  0
POLYLINE
  8
0
 62
4
 66
1
  0
VERTEX
  8
0
 62
4
 10
-1.98499542E+01
 20
2.60804093E+02
  0
VERTEX
  8
0
 62
4
 10
-1.98666609E+01
 20
2.60868691E+02
  0
VERTEX
  8
0
 62
4
 10
-1.99166464E+01
 20
2.60932768E+02
  0
VERTEX
  8
0
 62
4
 10
-1.99995083E+01
 20
2.60995810E+02
  0
VERTEX
  8
0
 62
4
 10
-2.01145795E+01
 20
2.61057308E+02
  0
VERTEX
  8
0
 62
4
 10
-2.02609334E+01
 20
2.61116767E+02
  0
VERTEX
  8
0
 62
4
 10
-2.04373917E+01
 20
2.61173709E+02
  0
VERTEX
  8
0
 62
4
 10
-2.06425337E+01
 20
2.61227675E+02
  0
VERTEX
  8
0
 62
4
 10
-2.08747076E+01
 20
2.61278230E+02
  0
VERTEX
  8
0
 62
4
 10
-2.11320442E+01
 20
2.61324968E+02
  0
VERTEX
  8
0
 62
4
 10
-2.14124715E+01
 20
2.61367512E+02
  0
VERTEX
  8
0
 62
4
 10
-2.17137317E+01
 20
2.61405520E+02
  0
VERTEX
  8
0
 62
4
 10
-2.20333992E+01
 20
2.61438685E+02
  0
VERTEX
  8
0
 62
4
 10
-2.23689003E+01
 20
2.61466741E+02
  0
VERTEX
  8
0
 62
4
 10
-2.27175336E+01
 20
2.61489462E+02
  0
VERTEX
  8
0
 62
4
 10
-2.30764923E+01
 20
2.61506665E+02
  0
VERTEX
  8
0
 62
4
 10
-2.34428861E+01
 20
2.61518211E+02
  0
VERTEX
  8
0
 62
4
 10
-2.38137651E+01
 20
2.61524007E+02
  0
VERTEX
  8
0
 62
4
 10
-2.41861432E+01
 20
2.61524007E+02
  0
VERTEX
  8
0
 62
4
 10
-2.45570222E+01
 20
2.61518211E+02
  0
VERTEX
  8
0
 62
4
 10
-2.49234161E+01
 20
2.61506665E+02
  0
VERTEX
  8
0
 62
4
 10
-2.52823747E+01
 20
2.61489462E+02
  0
VERTEX
  8
0
 62
4
 10
-2.56310081E+01
 20
2.61466741E+02
  0
VERTEX
  8
0
 62
4
 10
-2.59665091E+01
 20
2.61438685E+02
  0
VERTEX
  8
0
 62
4
 10
-2.62861767E+01
 20
2.61405520E+02
  0
VERTEX
  8
0
 62
4
 10
-2.65874369E+01
 20
2.61367512E+02
  0
VERTEX
  8
0
 62
4
 10
-2.68678642E+01
 20
2.61324968E+02
  0
VERTEX
  8
0
 62
4
 10
-2.71252008E+01
 20
2.61278230E+02
  0
VERTEX
  8
0
 62
4
 10
-2.73573747E+01
 20
2.61227675E+02
  0
VERTEX
  8
0
 62
4
 10
-2.75625167E+01
 20
2.61173709E+02
  0
VERTEX
  8
0
 62
4
 10
-2.77389750E+01
 20
2.61116767E+02
  0
VERTEX
  8
0
 62
4
 10
-2.78853289E+01
 20
2.61057308E+02
  0
VERTEX
  8
0
 62
4
 10
-2.80004001E+01
 20
2.60995810E+02
  0
VERTEX
  8
0
 62
4
 10
-2.80832620E+01
 20
2.60932768E+02
  0
VERTEX
  8
0
 62
4
 10
-2.81332475E+01
 20
2.60868691E+02
  0
VERTEX
  8
0
 62
4
 10
-2.81499542E+01
 20
2.60804093E+02
  0
SEQEND
  8
0
  0
ARC
  8
0
 62
4
 10
-2.78999542E+01
 20
2.60809430E+02
 40
2.50000000E-01
 50
1.80000000E+02
 51
2.50324001E+02
  0
ARC
  8
0
 62
4
 10
-2.00999542E+01
 20
2.60809430E+02
 40
2.50000000E-01
 50
2.89675999E+02
 51
0.00000000E+00
  0
LINE
  8
0
 62
4
 10
-2.02999542E+01
 20
2.62534543E+02
 11
-2.02999542E+01
 21
2.63519350E+02
  0
LINE
  8
0
 62
4
 10
-1.26999542E+01
 20
2.62534543E+02
 11
-1.26999542E+01
 21
2.63519350E+02
  0
POLYLINE
  8
0
 62
4
 66
1
  0
VERTEX
  8
0
 62
4
 10
-1.26999542E+01
 20
2.63519350E+02
  0
VERTEX
  8
0
 62
4
 10
-1.27152519E+01
 20
2.63578500E+02
  0
VERTEX
  8
0
 62
4
 10
-1.27610218E+01
 20
2.63637173E+02
  0
VERTEX
  8
0
 62
4
 10
-1.28368953E+01
 20
2.63694898E+02
  0
VERTEX
  8
0
 62
4
 10
-1.29422617E+01
 20
2.63751209E+02
  0
VERTEX
  8
0
 62
4
 10
-1.30762725E+01
 20
2.63805654E+02
  0
VERTEX
  8
0
 62
4
 10
-1.32378488E+01
 20
2.63857793E+02
  0
VERTEX
  8
0
 62
4
 10
-1.34256896E+01
 20
2.63907208E+02
  0
VERTEX
  8
0
 62
4
 10
-1.36382826E+01
 20
2.63953499E+02
  0
VERTEX
  8
0
 62
4
 10
-1.38739161E+01
 20
2.63996296E+02
  0
VERTEX
  8
0
 62
4
 10
-1.41306929E+01
 20
2.64035252E+02
  0
VERTEX
  8
0
 62
4
 10
-1.44065457E+01
 20
2.64070054E+02
  0
VERTEX
  8
0
 62
4
 10
-1.46992533E+01
 20
2.64100422E+02
  0
VERTEX
  8
0
 62
4
 10
-1.50064591E+01
 20
2.64126112E+02
  0
VERTEX
  8
0
 62
4
 10
-1.53256896E+01
 20
2.64146917E+02
  0
VERTEX
  8
0
 62
4
 10
-1.56543746E+01
 20
2.64162669E+02
  0
VERTEX
  8
0
 62
4
 10
-1.59898678E+01
 20
2.64173241E+02
  0
VERTEX
  8
0
 62
4
 10
-1.63294678E+01
 20
2.64178549E+02
  0
VERTEX
  8
0
 62
4
 10
-1.66704405E+01
 20
2.64178549E+02
  0
VERTEX
  8
0
 62
4
 10
-1.70100406E+01
 20
2.64173241E+02
  0
VERTEX
  8
0
 62
4
 10
-1.73455337E+01
 20
2.64162669E+02
  0
VERTEX
  8
0
 62
4
 10
-1.76742188E+01
 20
2.64146917E+02
  0
VERTEX
  8
0
 62
4
 10
-1.79934493E+01
 20
2.64126112E+02
  0
VERTEX
  8
0
 62
4
 10
-1.83006551E+01
 20
2.64100422E+02
  0
VERTEX
  8
0
 62
4
 10
-1.85933627E+01
 20
2.64070054E+02
  0
VERTEX
  8
0
 62
4
 10
-1.88692154E+01
 20
2.64035252E+02
  0
VERTEX
  8
0
 62
4
 10
-1.91259922E+01
 20
2.63996296E+02
  0
VERTEX
  8
0
 62
4
 10
-1.93616258E+01
 20
2.63953499E+02
  0
VERTEX
  8
0
 62
4
 10
-1.95742188E+01
 20
2.63907208E+02
  0
VERTEX
  8
0
 62
4
 10
-1.97620596E+01
 20
2.63857793E+02
  0
VERTEX
  8
0
 62
4
 10
-1.99236359E+01
 20
2.63805654E+02
  0
VERTEX
  8
0
 62
4
 10
-2.00576467E+01
 20
2.63751209E+02
  0
VERTEX
  8
0
 62
4
 10
-2.01630131E+01
 20
2.63694898E+02
  0
VERTEX
  8
0
 62
4
 10
-2.02388866E+01
 20
2.63637173E+02
  0
VERTEX
  8
0
 62
4
 10
-2.02846565E+01
 20
2.63578500E+02
  0
VERTEX
  8
0
 62
4
 10
-2.02999542E+01
 20
2.63519350E+02
  0
SEQEND
  8
0
  0
POLYLINE
  8
0
 62
4
 66
1
  0
VERTEX
  8
0
 62
4
 10
-1.30999542E+01
 20
2.62239852E+02
  0
VERTEX
  8
0
 62
4
 10
-1.29633725E+01
 20
2.62293141E+02
  0
VERTEX
  8
0
 62
4
 10
-1.28544247E+01
 20
2.62348317E+02
  0
VERTEX
  8
0
 62
4
 10
-1.27739619E+01
 20
2.62404947E+02
  0
VERTEX
  8
0
 62
4
 10
-1.27226129E+01
 20
2.62462590E+02
  0
VERTEX
  8
0
 62
4
 10
-1.27007789E+01
 20
2.62520796E+02
  0
VERTEX
  8
0
 62
4
 10
-1.27086306E+01
 20
2.62579109E+02
  0
VERTEX
  8
0
 62
4
 10
-1.27461066E+01
 20
2.62637073E+02
  0
VERTEX
  8
0
 62
4
 10
-1.28129140E+01
 20
2.62694236E+02
  0
VERTEX
  8
0
 62
4
 10
-1.29085308E+01
 20
2.62750152E+02
  0
VERTEX
  8
0
 62
4
 10
-1.30322100E+01
 20
2.62804383E+02
  0
VERTEX
  8
0
 62
4
 10
-1.31829851E+01
 20
2.62856505E+02
  0
VERTEX
  8
0
 62
4
 10
-1.33596780E+01
 20
2.62906112E+02
  0
VERTEX
  8
0
 62
4
 10
-1.35609080E+01
 20
2.62952816E+02
  0
VERTEX
  8
0
 62
4
 10
-1.37851030E+01
 20
2.62996251E+02
  0
VERTEX
  8
0
 62
4
 10
-1.40305109E+01
 20
2.63036078E+02
  0
VERTEX
  8
0
 62
4
 10
-1.42952144E+01
 20
2.63071987E+02
  0
VERTEX
  8
0
 62
4
 10
-1.45771450E+01
 20
2.63103696E+02
  0
VERTEX
  8
0
 62
4
 10
-1.48740999E+01
 20
2.63130958E+02
  0
VERTEX
  8
0
 62
4
 10
-1.51837588E+01
 20
2.63153560E+02
  0
VERTEX
  8
0
 62
4
 10
-1.55037020E+01
 20
2.63171325E+02
  0
VERTEX
  8
0
 62
4
 10
-1.58314296E+01
 20
2.63184114E+02
  0
VERTEX
  8
0
 62
4
 10
-1.61643809E+01
 20
2.63191828E+02
  0
VERTEX
  8
0
 62
4
 10
-1.64999542E+01
 20
2.63194406E+02
  0
VERTEX
  8
0
 62
4
 10
-1.68355276E+01
 20
2.63191828E+02
  0
VERTEX
  8
0
 62
4
 10
-1.71684788E+01
 20
2.63184114E+02
  0
VERTEX
  8
0
 62
4
 10
-1.74962065E+01
 20
2.63171325E+02
  0
VERTEX
  8
0
 62
4
 10
-1.78161497E+01
 20
2.63153560E+02
  0
VERTEX
  8
0
 62
4
 10
-1.81258085E+01
 20
2.63130958E+02
  0
VERTEX
  8
0
 62
4
 10
-1.84227634E+01
 20
2.63103696E+02
  0
VERTEX
  8
0
 62
4
 10
-1.87046941E+01
 20
2.63071987E+02
  0
VERTEX
  8
0
 62
4
 10
-1.89693975E+01
 20
2.63036078E+02
  0
VERTEX
  8
0
 62
4
 10
-1.92148055E+01
 20
2.62996251E+02
  0
VERTEX
  8
0
 62
4
 10
-1.94390004E+01
 20
2.62952816E+02
  0
VERTEX
  8
0
 62
4
 10
-1.96402305E+01
 20
2.62906112E+02
  0
VERTEX
  8
0
 62
4
 10
-1.98169234E+01
 20
2.62856505E+02
  0
VERTEX
  8
0
 62
4
 10
-1.99676984E+01
 20
2.62804383E+02
  0
VERTEX
  8
0
 62
4
 10
-2.00913776E+01
 20
2.62750152E+02
  0
VERTEX
  8
0
 62
4
 10
-2.01869944E+01
 20
2.62694237E+02
  0
VERTEX
  8
0
 62
4
 10
-2.02538018E+01
 20
2.62637073E+02
  0
VERTEX
  8
0
 62
4
 10
-2.02912778E+01
 20
2.62579109E+02
  0
VERTEX
  8
0
 62
4
 10
-2.02991295E+01
 20
2.62520796E+02
  0
VERTEX
  8
0
 62
4
 10
-2.02772955E+01
 20
2.62462590E+02
  0
VERTEX
  8
0
 62
4
 10
-2.02259465E+01
 20
2.62404947E+02
  0
VERTEX
  8
0
 62
4
 10
-2.01454837E+01
 20
2.62348317E+02
  0
VERTEX
  8
0
 62
4
 10
-2.00365359E+01
 20
2.62293141E+02
  0
VERTEX
  8
0
 62
4
 10
-1.98999542E+01
 20
2.62239852E+02
  0
SEQEND
  8
0
  0
LINE
  8
0
 62
4
 10
-1.98999542E+01
 20
2.61260790E+02
 11
-1.98999542E+01
 21
2.62534543E+02
  0
LINE
  8
0
 62
4
 10
-1.30999542E+01
 20
2.61260790E+02
 11
-1.30999542E+01
 21
2.62534543E+02
  0
POLYLINE
  8
0
 62
4
 66
1
  0
VERTEX
  8
0
 62
4
 10
-1.30999542E+01
 20
2.62534543E+02
  0
VERTEX
  8
0
 62
4
 10
-1.31136416E+01
 20
2.62587466E+02
  0
VERTEX
  8
0
 62
4
 10
-1.31545936E+01
 20
2.62639964E+02
  0
VERTEX
  8
0
 62
4
 10
-1.32224805E+01
 20
2.62691612E+02
  0
VERTEX
  8
0
 62
4
 10
-1.33167556E+01
 20
2.62741996E+02
  0
VERTEX
  8
0
 62
4
 10
-1.34366600E+01
 20
2.62790710E+02
  0
VERTEX
  8
0
 62
4
 10
-1.35812283E+01
 20
2.62837361E+02
  0
VERTEX
  8
0
 62
4
 10
-1.37492964E+01
 20
2.62881574E+02
  0
VERTEX
  8
0
 62
4
 10
-1.39395112E+01
 20
2.62922993E+02
  0
VERTEX
  8
0
 62
4
 10
-1.41503412E+01
 20
2.62961284E+02
  0
VERTEX
  8
0
 62
4
 10
-1.43800889E+01
 20
2.62996139E+02
  0
VERTEX
  8
0
 62
4
 10
-1.46269044E+01
 20
2.63027278E+02
  0
VERTEX
  8
0
 62
4
 10
-1.48888007E+01
 20
2.63054450E+02
  0
VERTEX
  8
0
 62
4
 10
-1.51636691E+01
 20
2.63077436E+02
  0
VERTEX
  8
0
 62
4
 10
-1.54492964E+01
 20
2.63096050E+02
  0
VERTEX
  8
0
 62
4
 10
-1.57433830E+01
 20
2.63110144E+02
  0
VERTEX
  8
0
 62
4
 10
-1.60435611E+01
 20
2.63119604E+02
  0
VERTEX
  8
0
 62
4
 10
-1.63474138E+01
 20
2.63124352E+02
  0
VERTEX
  8
0
 62
4
 10
-1.66524946E+01
 20
2.63124352E+02
  0
VERTEX
  8
0
 62
4
 10
-1.69563473E+01
 20
2.63119604E+02
  0
VERTEX
  8
0
 62
4
 10
-1.72565254E+01
 20
2.63110144E+02
  0
VERTEX
  8
0
 62
4
 10
-1.75506120E+01
 20
2.63096050E+02
  0
VERTEX
  8
0
 62
4
 10
-1.78362393E+01
 20
2.63077436E+02
  0
VERTEX
  8
0
 62
4
 10
-1.81111076E+01
 20
2.63054450E+02
  0
VERTEX
  8
0
 62
4
 10
-1.83730039E+01
 20
2.63027278E+02
  0
VERTEX
  8
0
 62
4
 10
-1.86198195E+01
 20
2.62996139E+02
  0
VERTEX
  8
0
 62
4
 10
-1.88495672E+01
 20
2.62961284E+02
  0
VERTEX
  8
0
 62
4
 10
-1.90603972E+01
 20
2.62922993E+02
  0
VERTEX
  8
0
 62
4
 10
-1.92506120E+01
 20
2.62881574E+02
  0
VERTEX
  8
0
 62
4
 10
-1.94186801E+01
 20
2.62837361E+02
  0
VERTEX
  8
0
 62
4
 10
-1.95632483E+01
 20
2.62790710E+02
  0
VERTEX
  8
0
 62
4
 10
-1.96831528E+01
 20
2.62741996E+02
  0
VERTEX
  8
0
 62
4
 10
-1.97774279E+01
 20
2.62691612E+02
  0
VERTEX
  8
0
 62
4
 10
-1.98453148E+01
 20
2.62639964E+02
  0
VERTEX
  8
0
 62
4
 10
-1.98862668E+01
 20
2.62587466E+02
  0
VERTEX
  8
0
 62
4
 10
-1.98999542E+01
 20
2.62534543E+02
  0
SEQEND
  8
0
  0
ARC
  8
0
 62
4
 10
-1.64999542E+01
 20
2.71801003E+02
 40
1.18100000E+01
 50
2.57172490E+02
 51
2.82827510E+02
  0
ARC
  8
0
 62
4
 10
-1.40999539E+01
 20
2.61260790E+02
 40
1.00000000E+00
 50
2.82827510E+02
 51
5.08888749E-14
  0
ARC
  8
0
 62
4
 10
-1.88999545E+01
 20
2.61260790E+02
 40
1.00000000E+00
 50
1.80000000E+02
 51
2.57172490E+02
  0
ARC
  8
0
 62
4
 10
-1.86217078E+01
 20
2.72520147E+02
 40
1.25306621E+01
 50
2.74968660E+02
 51
2.88083352E+02
  0
ARC
  8
0
 62
4
 10
-1.43782006E+01
 20
2.72520147E+02
 40
1.25306626E+01
 50
2.51916648E+02
 51
2.65031340E+02
  0
LINE
  8
0
  6
CENTER
 62
6
 10
-2.64999542E+01
 20
2.62911582E+02
 11
-2.14999542E+01
 21
2.62911582E+02
  0
LINE
  8
0
  6
CENTER
 62
6
 10
-1.64999542E+01
 20
2.66019350E+02
 11
-1.64999542E+01
 21
2.61019350E+02
  0
LINE
  8
0
  6
CENTER
 62
6
 10
-1.89999542E+01
 20
2.63519350E+02
 11
-1.39999542E+01
 21
2.63519350E+02
  0
LINE
  8
0
  6
CENTER
 62
6
 10
-3.14999542E+01
 20
2.66019350E+02
 11
-3.14999542E+01
 21
2.61019350E+02
  0
LINE
  8
0
  6
CENTER
 62
6
 10
-3.39999542E+01
 20
2.63519350E+02
 11
-2.89999542E+01
 21
2.63519350E+02
  0
LINE
  8
0
 62
4
 10
-1.27068436E+01
 20
2.62494826E+02
 11
-8.99995422E+00
 21
2.62494826E+02
  0
LINE
  8
0
 62
7
 10
-8.99995422E+00
 20
2.81649994E+02
 11
5.64999542E+01
 21
2.81649994E+02
  0
LINE
  8
0
 62
7
 10
-8.99995422E+00
 20
2.82499969E+02
 11
5.64999542E+01
 21
2.82499969E+02
  0
LINE
  8
0
 62
7
 10
-8.99995422E+00
 20
2.76350006E+02
 11
5.64999542E+01
 21
2.76350006E+02
  0
LINE
  8
0
 62
7
 10
3.49999542E+01
 20
2.44649994E+02
 11
5.64999542E+01
 21
2.44649994E+02
  0
LINE
  8
0
 62
7
 10
3.49999542E+01
 20
2.39350006E+02
 11
5.64999542E+01
 21
2.39350006E+02
  0
LINE
  8
0
 62
7
 10
3.49999542E+01
 20
2.38500015E+02
 11
5.64999542E+01
 21
2.38500015E+02
  0
LINE
  8
0
 62
6
 10
-3.57149897E+01
 20
-2.82319579E+02
 11
-3.22851200E+01
 21
-2.78889704E+02
  0
LINE
  8
0
 62
6
 10
-3.22851176E+01
 20
-2.82319576E+02
 11
-3.57149922E+01
 21
-2.78889706E+02
  0
POLYLINE
  8
0
 62
4
 66
1
  0
VERTEX
  8
0
 62
4
 10
-3.80000546E+01
 20
-2.80963785E+02
  0
VERTEX
  8
0
 62
4
 10
-3.79848388E+01
 20
-2.81304790E+02
  0
VERTEX
  8
0
 62
4
 10
-3.79392964E+01
 20
-2.81643200E+02
  0
VERTEX
  8
0
 62
4
 10
-3.78637739E+01
 20
-2.81976440E+02
  0
VERTEX
  8
0
 62
4
 10
-3.77588462E+01
 20
-2.82301973E+02
  0
VERTEX
  8
0
 62
4
 10
-3.76253119E+01
 20
-2.82617323E+02
  0
VERTEX
  8
0
 62
4
 10
-3.74641872E+01
 20
-2.82920088E+02
  0
VERTEX
  8
0
 62
4
 10
-3.72766983E+01
 20
-2.83207966E+02
  0
VERTEX
  8
0
 62
4
 10
-3.70642721E+01
 20
-2.83478764E+02
  0
VERTEX
  8
0
 62
4
 10
-3.68285255E+01
 20
-2.83730422E+02
  0
VERTEX
  8
0
 62
4
 10
-3.65712524E+01
 20
-2.83961025E+02
  0
VERTEX
  8
0
 62
4
 10
-3.62944110E+01
 20
-2.84168818E+02
  0
VERTEX
  8
0
 62
4
 10
-3.60001082E+01
 20
-2.84352219E+02
  0
VERTEX
  8
0
 62
4
 10
-3.56905837E+01
 20
-2.84509832E+02
  0
VERTEX
  8
0
 62
4
 10
-3.53681933E+01
 20
-2.84640459E+02
  0
VERTEX
  8
0
 62
4
 10
-3.50353905E+01
 20
-2.84743104E+02
  0
VERTEX
  8
0
 62
4
 10
-3.46947082E+01
 20
-2.84816986E+02
  0
VERTEX
  8
0
 62
4
 10
-3.43487392E+01
 20
-2.84861544E+02
  0
VERTEX
  8
0
 62
4
 10
-3.40001165E+01
 20
-2.84876438E+02
  0
VERTEX
  8
0
 62
4
 10
-3.36514933E+01
 20
-2.84861555E+02
  0
VERTEX
  8
0
 62
4
 10
-3.33055228E+01
 20
-2.84817008E+02
  0
VERTEX
  8
0
 62
4
 10
-3.29648382E+01
 20
-2.84743136E+02
  0
VERTEX
  8
0
 62
4
 10
-3.26320322E+01
 20
-2.84640502E+02
  0
VERTEX
  8
0
 62
4
 10
-3.23096376E+01
 20
-2.84509886E+02
  0
VERTEX
  8
0
 62
4
 10
-3.20001082E+01
 20
-2.84352282E+02
  0
VERTEX
  8
0
 62
4
 10
-3.17057995E+01
 20
-2.84168891E+02
  0
VERTEX
  8
0
 62
4
 10
-3.14289516E+01
 20
-2.83961107E+02
  0
VERTEX
  8
0
 62
4
 10
-3.11716712E+01
 20
-2.83730512E+02
  0
VERTEX
  8
0
 62
4
 10
-3.09359166E+01
 20
-2.83478861E+02
  0
VERTEX
  8
0
 62
4
 10
-3.07234819E+01
 20
-2.83208069E+02
  0
VERTEX
  8
0
 62
4
 10
-3.05359839E+01
 20
-2.82920198E+02
  0
VERTEX
  8
0
 62
4
 10
-3.03748496E+01
 20
-2.82617437E+02
  0
VERTEX
  8
0
 62
4
 10
-3.02413053E+01
 20
-2.82302092E+02
  0
VERTEX
  8
0
 62
4
 10
-3.01363673E+01
 20
-2.81976562E+02
  0
VERTEX
  8
0
 62
4
 10
-3.00608343E+01
 20
-2.81643324E+02
  0
VERTEX
  8
0
 62
4
 10
-3.00152812E+01
 20
-2.81304916E+02
  0
VERTEX
  8
0
 62
4
 10
-3.00000546E+01
 20
-2.80963911E+02
  0
VERTEX
  8
0
 62
4
 10
-3.00152704E+01
 20
-2.80622906E+02
  0
VERTEX
  8
0
 62
4
 10
-3.00608128E+01
 20
-2.80284496E+02
  0
VERTEX
  8
0
 62
4
 10
-3.01363353E+01
 20
-2.79951256E+02
  0
VERTEX
  8
0
 62
4
 10
-3.02412630E+01
 20
-2.79625723E+02
  0
VERTEX
  8
0
 62
4
 10
-3.03747973E+01
 20
-2.79310373E+02
  0
VERTEX
  8
0
 62
4
 10
-3.05359221E+01
 20
-2.79007608E+02
  0
VERTEX
  8
0
 62
4
 10
-3.07234109E+01
 20
-2.78719730E+02
  0
VERTEX
  8
0
 62
4
 10
-3.09358371E+01
 20
-2.78448932E+02
  0
VERTEX
  8
0
 62
4
 10
-3.11715837E+01
 20
-2.78197274E+02
  0
VERTEX
  8
0
 62
4
 10
-3.14288568E+01
 20
-2.77966671E+02
  0
VERTEX
  8
0
 62
4
 10
-3.17056982E+01
 20
-2.77758878E+02
  0
VERTEX
  8
0
 62
4
 10
-3.20000010E+01
 20
-2.77575477E+02
  0
VERTEX
  8
0
 62
4
 10
-3.23095255E+01
 20
-2.77417864E+02
  0
VERTEX
  8
0
 62
4
 10
-3.26319159E+01
 20
-2.77287237E+02
  0
VERTEX
  8
0
 62
4
 10
-3.29647187E+01
 20
-2.77184592E+02
  0
VERTEX
  8
0
 62
4
 10
-3.33054010E+01
 20
-2.77110710E+02
  0
VERTEX
  8
0
 62
4
 10
-3.36513700E+01
 20
-2.77066152E+02
  0
VERTEX
  8
0
 62
4
 10
-3.39999927E+01
 20
-2.77051258E+02
  0
VERTEX
  8
0
 62
4
 10
-3.43486159E+01
 20
-2.77066141E+02
  0
VERTEX
  8
0
 62
4
 10
-3.46945864E+01
 20
-2.77110688E+02
  0
VERTEX
  8
0
 62
4
 10
-3.50352710E+01
 20
-2.77184560E+02
  0
VERTEX
  8
0
 62
4
 10
-3.53680770E+01
 20
-2.77287194E+02
  0
VERTEX
  8
0
 62
4
 10
-3.56904716E+01
 20
-2.77417810E+02
  0
VERTEX
  8
0
 62
4
 10
-3.60000010E+01
 20
-2.77575414E+02
  0
VERTEX
  8
0
 62
4
 10
-3.62943097E+01
 20
-2.77758805E+02
  0
VERTEX
  8
0
 62
4
 10
-3.65711576E+01
 20
-2.77966589E+02
  0
VERTEX
  8
0
 62
4
 10
-3.68284380E+01
 20
-2.78197184E+02
  0
VERTEX
  8
0
 62
4
 10
-3.70641926E+01
 20
-2.78448835E+02
  0
VERTEX
  8
0
 62
4
 10
-3.72766273E+01
 20
-2.78719627E+02
  0
VERTEX
  8
0
 62
4
 10
-3.74641253E+01
 20
-2.79007498E+02
  0
VERTEX
  8
0
 62
4
 10
-3.76252596E+01
 20
-2.79310259E+02
  0
VERTEX
  8
0
 62
4
 10
-3.77588039E+01
 20
-2.79625604E+02
  0
VERTEX
  8
0
 62
4
 10
-3.78637419E+01
 20
-2.79951134E+02
  0
VERTEX
  8
0
 62
4
 10
-3.79392749E+01
 20
-2.80284372E+02
  0
VERTEX
  8
0
 62
4
 10
-3.79848280E+01
 20
-2.80622780E+02
  0
VERTEX
  8
0
 62
4
 10
-3.80000546E+01
 20
-2.80963785E+02
  0
SEQEND
  8
0
  0
POLYLINE
  8
0
 62
4
 66
1
  0
VERTEX
  8
0
 62
4
 10
-3.73990274E+01
 20
-2.80686931E+02
  0
VERTEX
  8
0
 62
4
 10
-3.73930835E+01
 20
-2.80998416E+02
  0
VERTEX
  8
0
 62
4
 10
-3.73605026E+01
 20
-2.81308134E+02
  0
VERTEX
  8
0
 62
4
 10
-3.73015403E+01
 20
-2.81613653E+02
  0
VERTEX
  8
0
 62
4
 10
-3.72166595E+01
 20
-2.81912576E+02
  0
VERTEX
  8
0
 62
4
 10
-3.71065267E+01
 20
-2.82202556E+02
  0
VERTEX
  8
0
 62
4
 10
-3.69720063E+01
 20
-2.82481316E+02
  0
VERTEX
  8
0
 62
4
 10
-3.68141546E+01
 20
-2.82746667E+02
  0
VERTEX
  8
0
 62
4
 10
-3.66342106E+01
 20
-2.82996527E+02
  0
VERTEX
  8
0
 62
4
 10
-3.64335870E+01
 20
-2.83228934E+02
  0
VERTEX
  8
0
 62
4
 10
-3.62138589E+01
 20
-2.83442064E+02
  0
VERTEX
  8
0
 62
4
 10
-3.59767513E+01
 20
-2.83634242E+02
  0
VERTEX
  8
0
 62
4
 10
-3.57241254E+01
 20
-2.83803962E+02
  0
VERTEX
  8
0
 62
4
 10
-3.54579647E+01
 20
-2.83949889E+02
  0
VERTEX
  8
0
 62
4
 10
-3.51803587E+01
 20
-2.84070879E+02
  0
VERTEX
  8
0
 62
4
 10
-3.48934866E+01
 20
-2.84165982E+02
  0
VERTEX
  8
0
 62
4
 10
-3.45996005E+01
 20
-2.84234451E+02
  0
VERTEX
  8
0
 62
4
 10
-3.43010077E+01
 20
-2.84275748E+02
  0
VERTEX
  8
0
 62
4
 10
-3.40000523E+01
 20
-2.84289550E+02
  0
VERTEX
  8
0
 62
4
 10
-3.36990969E+01
 20
-2.84275748E+02
  0
VERTEX
  8
0
 62
4
 10
-3.34005041E+01
 20
-2.84234451E+02
  0
VERTEX
  8
0
 62
4
 10
-3.31066182E+01
 20
-2.84165982E+02
  0
VERTEX
  8
0
 62
4
 10
-3.28197462E+01
 20
-2.84070879E+02
  0
VERTEX
  8
0
 62
4
 10
-3.25421403E+01
 20
-2.83949889E+02
  0
VERTEX
  8
0
 62
4
 10
-3.22759798E+01
 20
-2.83803962E+02
  0
VERTEX
  8
0
 62
4
 10
-3.20233542E+01
 20
-2.83634242E+02
  0
VERTEX
  8
0
 62
4
 10
-3.17862469E+01
 20
-2.83442064E+02
  0
VERTEX
  8
0
 62
4
 10
-3.15665191E+01
 20
-2.83228934E+02
  0
VERTEX
  8
0
 62
4
 10
-3.13658959E+01
 20
-2.82996527E+02
  0
VERTEX
  8
0
 62
4
 10
-3.11859522E+01
 20
-2.82746667E+02
  0
VERTEX
  8
0
 62
4
 10
-3.10281008E+01
 20
-2.82481316E+02
  0
VERTEX
  8
0
 62
4
 10
-3.08935809E+01
 20
-2.82202556E+02
  0
VERTEX
  8
0
 62
4
 10
-3.07834484E+01
 20
-2.81912576E+02
  0
VERTEX
  8
0
 62
4
 10
-3.06985681E+01
 20
-2.81613653E+02
  0
VERTEX
  8
0
 62
4
 10
-3.06396062E+01
 20
-2.81308134E+02
  0
VERTEX
  8
0
 62
4
 10
-3.06070257E+01
 20
-2.80998416E+02
  0
VERTEX
  8
0
 62
4
 10
-3.06010823E+01
 20
-2.80686931E+02
  0
SEQEND
  8
0
  0
POLYLINE
  8
0
 62
4
 66
1
  0
VERTEX
  8
0
 62
4
 10
-3.74000549E+01
 20
-2.80604564E+02
  0
VERTEX
  8
0
 62
4
 10
-3.73871235E+01
 20
-2.80896315E+02
  0
VERTEX
  8
0
 62
4
 10
-3.73484144E+01
 20
-2.81185845E+02
  0
VERTEX
  8
0
 62
4
 10
-3.72842223E+01
 20
-2.81470952E+02
  0
VERTEX
  8
0
 62
4
 10
-3.71950357E+01
 20
-2.81749466E+02
  0
VERTEX
  8
0
 62
4
 10
-3.70815333E+01
 20
-2.82019268E+02
  0
VERTEX
  8
0
 62
4
 10
-3.69445791E+01
 20
-2.82278303E+02
  0
VERTEX
  8
0
 62
4
 10
-3.67852152E+01
 20
-2.82524600E+02
  0
VERTEX
  8
0
 62
4
 10
-3.66046546E+01
 20
-2.82756286E+02
  0
VERTEX
  8
0
 62
4
 10
-3.64042714E+01
 20
-2.82971596E+02
  0
VERTEX
  8
0
 62
4
 10
-3.61855907E+01
 20
-2.83168892E+02
  0
VERTEX
  8
0
 62
4
 10
-3.59502767E+01
 20
-2.83346673E+02
  0
VERTEX
  8
0
 62
4
 10
-3.57001203E+01
 20
-2.83503585E+02
  0
VERTEX
  8
0
 62
4
 10
-3.54370255E+01
 20
-2.83638434E+02
  0
VERTEX
  8
0
 62
4
 10
-3.51629944E+01
 20
-2.83750195E+02
  0
VERTEX
  8
0
 62
4
 10
-3.48801126E+01
 20
-2.83838015E+02
  0
VERTEX
  8
0
 62
4
 10
-3.45905331E+01
 20
-2.83901228E+02
  0
VERTEX
  8
0
 62
4
 10
-3.42964597E+01
 20
-2.83939352E+02
  0
VERTEX
  8
0
 62
4
 10
-3.40001305E+01
 20
-2.83952097E+02
  0
VERTEX
  8
0
 62
4
 10
-3.37038006E+01
 20
-2.83939366E+02
  0
VERTEX
  8
0
 62
4
 10
-3.34097255E+01
 20
-2.83901255E+02
  0
VERTEX
  8
0
 62
4
 10
-3.31201431E+01
 20
-2.83838055E+02
  0
VERTEX
  8
0
 62
4
 10
-3.28372574E+01
 20
-2.83750247E+02
  0
VERTEX
  8
0
 62
4
 10
-3.25632213E+01
 20
-2.83638499E+02
  0
VERTEX
  8
0
 62
4
 10
-3.23001203E+01
 20
-2.83503661E+02
  0
VERTEX
  8
0
 62
4
 10
-3.20499569E+01
 20
-2.83346761E+02
  0
VERTEX
  8
0
 62
4
 10
-3.18146349E+01
 20
-2.83168990E+02
  0
VERTEX
  8
0
 62
4
 10
-3.15959453E+01
 20
-2.82971704E+02
  0
VERTEX
  8
0
 62
4
 10
-3.13955524E+01
 20
-2.82756403E+02
  0
VERTEX
  8
0
 62
4
 10
-3.12149813E+01
 20
-2.82524726E+02
  0
VERTEX
  8
0
 62
4
 10
-3.10556063E+01
 20
-2.82278436E+02
  0
VERTEX
  8
0
 62
4
 10
-3.09186404E+01
 20
-2.82019407E+02
  0
VERTEX
  8
0
 62
4
 10
-3.08051258E+01
 20
-2.81749611E+02
  0
VERTEX
  8
0
 62
4
 10
-3.07159266E+01
 20
-2.81471101E+02
  0
VERTEX
  8
0
 62
4
 10
-3.06517217E+01
 20
-2.81185996E+02
  0
VERTEX
  8
0
 62
4
 10
-3.06129995E+01
 20
-2.80896467E+02
  0
VERTEX
  8
0
 62
4
 10
-3.06000549E+01
 20
-2.80604718E+02
  0
VERTEX
  8
0
 62
4
 10
-3.06129863E+01
 20
-2.80312967E+02
  0
VERTEX
  8
0
 62
4
 10
-3.06516954E+01
 20
-2.80023437E+02
  0
VERTEX
  8
0
 62
4
 10
-3.07158875E+01
 20
-2.79738330E+02
  0
VERTEX
  8
0
 62
4
 10
-3.08050741E+01
 20
-2.79459816E+02
  0
VERTEX
  8
0
 62
4
 10
-3.09185765E+01
 20
-2.79190014E+02
  0
VERTEX
  8
0
 62
4
 10
-3.10555307E+01
 20
-2.78930979E+02
  0
VERTEX
  8
0
 62
4
 10
-3.12148946E+01
 20
-2.78684682E+02
  0
VERTEX
  8
0
 62
4
 10
-3.13954552E+01
 20
-2.78452996E+02
  0
VERTEX
  8
0
 62
4
 10
-3.15958384E+01
 20
-2.78237686E+02
  0
VERTEX
  8
0
 62
4
 10
-3.18145191E+01
 20
-2.78040390E+02
  0
VERTEX
  8
0
 62
4
 10
-3.20498331E+01
 20
-2.77862609E+02
  0
VERTEX
  8
0
 62
4
 10
-3.22999895E+01
 20
-2.77705697E+02
  0
VERTEX
  8
0
 62
4
 10
-3.25630843E+01
 20
-2.77570848E+02
  0
VERTEX
  8
0
 62
4
 10
-3.28371154E+01
 20
-2.77459087E+02
  0
VERTEX
  8
0
 62
4
 10
-3.31199972E+01
 20
-2.77371267E+02
  0
VERTEX
  8
0
 62
4
 10
-3.34095767E+01
 20
-2.77308054E+02
  0
VERTEX
  8
0
 62
4
 10
-3.37036501E+01
 20
-2.77269930E+02
  0
VERTEX
  8
0
 62
4
 10
-3.39999793E+01
 20
-2.77257185E+02
  0
VERTEX
  8
0
 62
4
 10
-3.42963092E+01
 20
-2.77269916E+02
  0
VERTEX
  8
0
 62
4
 10
-3.45903843E+01
 20
-2.77308027E+02
  0
VERTEX
  8
0
 62
4
 10
-3.48799667E+01
 20
-2.77371227E+02
  0
VERTEX
  8
0
 62
4
 10
-3.51628524E+01
 20
-2.77459035E+02
  0
VERTEX
  8
0
 62
4
 10
-3.54368885E+01
 20
-2.77570783E+02
  0
VERTEX
  8
0
 62
4
 10
-3.56999895E+01
 20
-2.77705621E+02
  0
VERTEX
  8
0
 62
4
 10
-3.59501529E+01
 20
-2.77862521E+02
  0
VERTEX
  8
0
 62
4
 10
-3.61854749E+01
 20
-2.78040292E+02
  0
VERTEX
  8
0
 62
4
 10
-3.64041645E+01
 20
-2.78237578E+02
  0
VERTEX
  8
0
 62
4
 10
-3.66045574E+01
 20
-2.78452879E+02
  0
VERTEX
  8
0
 62
4
 10
-3.67851285E+01
 20
-2.78684556E+02
  0
VERTEX
  8
0
 62
4
 10
-3.69445035E+01
 20
-2.78930846E+02
  0
VERTEX
  8
0
 62
4
 10
-3.70814694E+01
 20
-2.79189875E+02
  0
VERTEX
  8
0
 62
4
 10
-3.71949840E+01
 20
-2.79459671E+02
  0
VERTEX
  8
0
 62
4
 10
-3.72841832E+01
 20
-2.79738181E+02
  0
VERTEX
  8
0
 62
4
 10
-3.73483881E+01
 20
-2.80023286E+02
  0
VERTEX
  8
0
 62
4
 10
-3.73871103E+01
 20
-2.80312815E+02
  0
VERTEX
  8
0
 62
4
 10
-3.74000549E+01
 20
-2.80604564E+02
  0
SEQEND
  8
0
  0
LINE
  8
0
 62
4
 10
-4.30000418E+01
 20
-2.96682647E+02
 11
-9.62476364E+00
 21
-2.96682623E+02
  0
LINE
  8
0
 62
4
 10
-4.30000418E+01
 20
-2.95747044E+02
 11
-9.62476364E+00
 21
-2.95747020E+02
  0
LINE
  8
0
 62
4
 10
-4.30000418E+01
 20
-2.93875839E+02
 11
-9.62476364E+00
 21
-2.93875815E+02
  0
LINE
  8
0
 62
4
 10
-4.30000418E+01
 20
-2.92940236E+02
 11
-9.62476364E+00
 21
-2.92940213E+02
  0
LINE
  8
0
 62
4
 10
-9.62476364E+00
 20
-2.92940236E+02
 11
-7.00004931E+00
 21
-2.88403883E+02
  0
LINE
  8
0
 62
4
 10
-4.30000418E+01
 20
-2.92940236E+02
 11
-4.60000493E+01
 21
-2.88403911E+02
  0
LINE
  8
0
 62
4
 10
-9.62476364E+00
 20
-2.97500015E+02
 11
-9.62476364E+00
 21
-2.92940236E+02
  0
LINE
  8
0
 62
4
 10
-4.30000418E+01
 20
-2.97500015E+02
 11
-4.30000418E+01
 21
-2.92940236E+02
  0
LINE
  8
0
  6
CENTER
 62
6
 10
-3.40000505E+01
 20
-2.86743510E+02
 11
-3.40000596E+01
 21
-2.73943510E+02
  0
LINE
  8
0
  6
CENTER
 62
6
 10
-4.04000551E+01
 20
-2.80339807E+02
 11
-2.76000551E+01
 21
-2.80339798E+02
  0
LINE
  8
0
 62
4
 10
-4.15000761E+01
 20
-2.46301019E+02
 11
-2.65000761E+01
 21
-2.46301008E+02
  0
LINE
  8
0
 62
4
 10
-4.35000583E+01
 20
-2.70338899E+02
 11
-2.45000583E+01
 21
-2.70338886E+02
  0
LINE
  8
0
 62
4
 10
-4.60000584E+01
 20
-2.75696673E+02
 11
-4.60000493E+01
 21
-2.88403911E+02
  0
LINE
  8
0
 62
4
 10
-4.35000583E+01
 20
-2.70338886E+02
 11
-4.35000555E+01
 21
-2.74200370E+02
  0
LINE
  8
0
 62
4
 10
-2.65000761E+01
 20
-2.46301019E+02
 11
-2.65000590E+01
 21
-2.70338887E+02
  0
LINE
  8
0
 62
4
 10
-4.15000761E+01
 20
-2.46301019E+02
 11
-4.15000590E+01
 21
-2.70338898E+02
  0
LINE
  8
0
 62
4
 10
-2.45000583E+01
 20
-2.70338886E+02
 11
-2.45000555E+01
 21
-2.74200370E+02
  0
LINE
  8
0
 62
4
 10
-4.15000594E+01
 20
-2.69776562E+02
 11
-2.65000594E+01
 21
-2.69776551E+02
  0
LINE
  8
0
 62
4
 10
-7.00005838E+00
 20
-2.75696645E+02
 11
-7.00004931E+00
 21
-2.88403886E+02
  0
LINE
  8
0
 62
4
 10
-4.60000493E+01
 20
-2.88403911E+02
 11
-7.00004931E+00
 21
-2.88403883E+02
  0
LINE
  8
0
 62
4
 10
-4.60000504E+01
 20
-2.86936690E+02
 11
-7.00005036E+00
 21
-2.86936662E+02
  0
LINE
  8
0
 62
4
 10
-4.45000554E+01
 20
-2.74196672E+02
 11
-8.50005542E+00
 21
-2.74196646E+02
  0
LINE
  8
0
 62
4
 10
-6.10000772E+01
 20
-2.46396843E+02
 11
-5.60000772E+01
 21
-2.46396840E+02
  0
LINE
  8
0
 62
4
 10
-6.10000766E+01
 20
-2.48713471E+02
 11
-5.60000766E+01
 21
-2.48713467E+02
  0
LINE
  8
0
 62
4
 10
-6.10000692E+01
 20
-2.56059359E+02
 11
-5.60000692E+01
 21
-2.56059356E+02
  0
LINE
  8
0
 62
4
 10
-6.10000667E+01
 20
-2.61078843E+02
 11
-5.60000667E+01
 21
-2.61078839E+02
  0
LINE
  8
0
 62
4
 10
-5.05000608E+01
 20
-2.60731786E+02
 11
-4.20000608E+01
 21
-2.60731780E+02
  0
LINE
  8
0
 62
4
 10
-4.15000708E+01
 20
-2.46731780E+02
 11
-5.05000708E+01
 21
-2.46731786E+02
  0
LINE
  8
0
 62
4
 10
-5.10000705E+01
 20
-2.47231786E+02
 11
-5.10000612E+01
 21
-2.60231786E+02
  0
LINE
  8
0
 62
4
 10
-6.10000772E+01
 20
-2.46396843E+02
 11
-6.10000667E+01
 21
-2.61078843E+02
  0
LINE
  8
0
 62
4
 10
-5.60000772E+01
 20
-2.46396840E+02
 11
-5.60000667E+01
 21
-2.61078839E+02
  0
LINE
  8
0
 62
4
 10
-5.60000703E+01
 20
-2.47478075E+02
 11
-5.10000703E+01
 21
-2.47478072E+02
  0
LINE
  8
0
 62
4
 10
-5.60000614E+01
 20
-2.59978075E+02
 11
-5.10000614E+01
 21
-2.59978072E+02
  0
LINE
  8
0
 62
4
 10
-5.45000703E+01
 20
-2.47478074E+02
 11
-5.45000614E+01
 21
-2.59978074E+02
  0
LINE
  8
0
 62
4
 10
-5.45000699E+01
 20
-2.47978074E+02
 11
-5.10000699E+01
 21
-2.47978072E+02
  0
LINE
  8
0
 62
4
 10
-5.45000617E+01
 20
-2.59478074E+02
 11
-5.10000617E+01
 21
-2.59478072E+02
  0
ARC
  8
0
 62
4
 10
-5.05005625E+01
 20
-2.47231294E+02
 40
4.99508251E-01
 50
8.99436074E+01
 51
1.80056475E+02
  0
ARC
  8
0
 62
4
 10
-4.19995532E+01
 20
-2.61231273E+02
 40
4.99492993E-01
 50
3.59941854E+02
 51
9.00582282E+01
  0
ARC
  8
0
 62
4
 10
-8.49954692E+00
 20
-2.75696138E+02
 40
1.49949266E+00
 50
3.59980652E+02
 51
9.00194298E+01
  0
ARC
  8
0
 62
4
 10
-5.04995534E+01
 20
-2.60231278E+02
 40
5.00508007E-01
 50
1.80058166E+02
 51
2.69941916E+02
  0
ARC
  8
0
 62
4
 10
-4.45005465E+01
 20
-2.75696179E+02
 40
1.49950792E+00
 50
8.99812358E+01
 51
1.80018846E+02
  0
ARC
  8
0
 62
4
 10
-4.74957956E+02
 20
-2.53728072E+02
 40
7.00000000E+00
 50
1.10107658E+02
 51
1.33018360E+02
  0
LINE
  8
0
 62
4
 10
-4.88139280E+02
 20
-2.83111710E+02
 11
-4.81290797E+02
 21
-2.81656020E+02
  0
LINE
  8
0
 62
4
 10
-4.88139280E+02
 20
-2.83111710E+02
 11
-4.89888632E+02
 21
-2.88500000E+02
  0
LINE
  8
0
 62
4
 10
-4.83542307E+02
 20
-2.49419694E+02
 11
-4.78759165E+02
 21
-2.48403006E+02
  0
LINE
  8
0
 62
4
 10
-4.68870093E+02
 20
-2.46301019E+02
 11
-4.63672300E+02
 21
-2.70754709E+02
  0
LINE
  8
0
 62
4
 10
-4.83542307E+02
 20
-2.49419694E+02
 11
-4.78344514E+02
 21
-2.73873385E+02
  0
LINE
  8
0
 62
4
 10
-4.80300809E+02
 20
-2.74289208E+02
 11
-4.61716005E+02
 21
-2.70338886E+02
  0
LINE
  8
0
 62
4
 10
-4.78552426E+02
 20
-2.72895237E+02
 11
-4.63880212E+02
 21
-2.69776562E+02
  0
LINE
  8
0
 62
4
 10
-4.61716005E+02
 20
-2.70338886E+02
 11
-4.60884358E+02
 21
-2.74251476E+02
  0
LINE
  8
0
 62
4
 10
-4.80300809E+02
 20
-2.74289208E+02
 11
-4.79469163E+02
 21
-2.78201798E+02
  0
LINE
  8
0
 62
4
 10
-4.79469163E+02
 20
-2.78201798E+02
 11
-4.60884358E+02
 21
-2.74251476E+02
  0
LINE
  8
0
 62
4
 10
-4.55772377E+02
 20
-2.88500000E+02
 11
-4.55320314E+02
 21
-2.88403911E+02
  0
LINE
  8
0
 62
4
 10
-4.57919210E+02
 20
-2.76177066E+02
 11
-4.56595546E+02
 21
-2.82404414E+02
  0
LINE
  8
0
 62
4
 10
-4.81394752E+02
 20
-2.81166947E+02
 11
-4.79836064E+02
 21
-2.88500000E+02
  0
LINE
  8
0
 62
4
 10
-4.55320314E+02
 20
-2.88403911E+02
 11
-4.55364856E+02
 21
-2.88500000E+02
  0
LINE
  8
0
 62
4
 10
-4.56500031E+02
 20
-2.87121157E+02
 11
-4.55632181E+02
 21
-2.86936690E+02
  0
LINE
  8
0
 62
4
 10
-4.73397313E+02
 20
-2.61075131E+02
 11
-4.67819022E+02
 21
-2.56055651E+02
  0
LINE
  8
0
 62
4
 10
-4.82096358E+02
 20
-2.51412615E+02
 11
-4.76518067E+02
 21
-2.46393135E+02
  0
LINE
  8
0
 62
4
 10
-4.82096358E+02
 20
-2.51412615E+02
 11
-4.80534941E+02
 21
-2.58758503E+02
  0
LINE
  8
0
 62
4
 10
-4.69380439E+02
 20
-2.48709763E+02
 11
-4.67819022E+02
 21
-2.56055651E+02
  0
LINE
  8
0
 62
4
 10
-4.80534941E+02
 20
-2.58758503E+02
 11
-4.73397313E+02
 21
-2.61075131E+02
  0
LINE
  8
0
 62
4
 10
-4.76518067E+02
 20
-2.46393135E+02
 11
-4.69380439E+02
 21
-2.48709763E+02
  0
LINE
  8
0
 62
4
 10
-4.73663016E+02
 20
-2.47319786E+02
 11
-4.68870093E+02
 21
-2.46301019E+02
  0
LINE
  8
0
 62
4
 10
-4.57711298E+02
 20
-2.77155214E+02
 11
-4.57222225E+02
 21
-2.77051258E+02
  0
LINE
  8
0
 62
4
 10
-4.56048005E+02
 20
-2.84980394E+02
 11
-4.55558931E+02
 21
-2.84876438E+02
  0
LINE
  8
0
 62
4
 10
-4.57097478E+02
 20
-2.77638146E+02
 11
-4.55405282E+02
 21
-2.77278459E+02
  0
LINE
  8
0
 62
4
 10
-4.53991483E+02
 20
-2.83929863E+02
 11
-4.55683678E+02
 21
-2.84289550E+02
  0
LINE
  8
0
  6
CENTER
 62
6
 10
-4.61265146E+02
 20
-2.81999969E+02
 11
-4.50521692E+02
 21
-2.79716378E+02
  0
LINE
  8
0
 62
4
 10
-4.57222225E+02
 20
-2.77051258E+02
 11
-4.55558931E+02
 21
-2.84876438E+02
  0
ARC
  8
0
 62
4
 10
-4.65008823E+02
 20
-2.82773916E+02
 40
1.18077645E+01
 50
3.59024145E+02
 51
2.47266957E+01
  0
ARC
  8
0
 62
4
 10
-4.78949362E+02
 20
-2.80647181E+02
 40
2.50001831E+00
 50
1.02000420E+02
 51
1.91999580E+02
  0
ARC
  8
0
 62
4
 10
-4.60363821E+02
 20
-2.76695677E+02
 40
2.49901570E+00
 50
1.19774281E+01
 51
1.02022572E+02
  0
CIRCLE
  8
0
 62
4
 10
-4.74957956E+02
 20
-2.53728072E+02
 40
3.75000000E+00
  0
ARC
  8
0
 62
4
 10
-4.54201024E+02
 20
-2.82953616E+02
 40
9.98481423E-01
 50
2.82114125E+02
 51
3.58771982E+02
  0
ARC
  8
0
 62
4
 10
-4.55200514E+02
 20
-2.78253298E+02
 40
9.96112687E-01
 50
2.45301420E+01
 51
1.01862685E+02
  0
ARC
  8
0
 62
4
 10
-4.74957956E+02
 20
-2.53728072E+02
 40
7.00000000E+00
 50
7.09816396E+01
 51
9.39142840E+01
  0
LINE
  8
0
 62
4
 10
-4.56500031E+02
 20
-2.82853781E+02
 11
-4.55320314E+02
 21
-2.88403911E+02
  0
LINE
  8
0
 62
4
 10
1.04313230E+02
 20
-2.74595647E+02
 11
1.10455997E+02
 21
-2.75901332E+02
  0
LINE
  8
0
  6
CENTER
 62
6
 10
1.07735414E+02
 20
-2.73598103E+02
 11
1.06866913E+02
 21
-2.77684077E+02
  0
LINE
  8
0
 62
4
 10
1.03753185E+02
 20
-2.75498946E+02
 11
1.04313230E+02
 21
-2.74595647E+02
  0
LINE
  8
0
 62
4
 10
1.10455997E+02
 20
-2.75901332E+02
 11
1.10600218E+02
 21
-2.76954328E+02
  0
ARC
  8
0
 62
4
 10
9.22004553E+01
 20
-2.78253298E+02
 40
9.96112687E-01
 50
7.81373153E+01
 51
1.55469858E+02
  0
ARC
  8
0
 62
4
 10
9.12009645E+01
 20
-2.82953616E+02
 40
9.98481423E-01
 50
1.81228019E+02
 51
2.57885875E+02
  0
ARC
  8
0
 62
4
 10
1.01225434E+02
 20
-3.04225151E+02
 40
1.06241099E+01
 50
6.62608748E+01
 51
1.03059860E+02
  0
ARC
  8
0
 62
4
 10
9.73637617E+01
 20
-2.76695677E+02
 40
2.49901570E+00
 50
7.79774280E+01
 51
1.68022572E+02
  0
ARC
  8
0
 62
4
 10
1.15949303E+02
 20
-2.80647181E+02
 40
2.50001831E+00
 50
3.48000420E+02
 51
7.79995802E+01
  0
ARC
  8
0
 62
4
 10
1.02008764E+02
 20
-2.82773916E+02
 40
1.18077645E+01
 50
1.55273304E+02
 51
1.80975855E+02
  0
ARC
  8
0
 62
4
 10
1.16908605E+02
 20
-2.90563305E+02
 40
5.00000533E-01
 50
3.48000061E+02
 51
7.79999389E+01
  0
LINE
  8
0
 62
4
 10
9.42221655E+01
 20
-2.77051258E+02
 11
9.25588719E+01
 21
-2.84876438E+02
  0
LINE
  8
0
  6
CENTER
 62
6
 10
1.24622772E+02
 20
-2.87602468E+02
 11
8.75216331E+01
 21
-2.79716378E+02
  0
LINE
  8
0
 62
4
 10
9.09914236E+01
 20
-2.83929863E+02
 11
9.26836189E+01
 21
-2.84289550E+02
  0
LINE
  8
0
 62
4
 10
9.40974184E+01
 20
-2.77638146E+02
 11
9.24052231E+01
 21
-2.77278459E+02
  0
LINE
  8
0
 62
4
 10
9.30479457E+01
 20
-2.84980394E+02
 11
9.25588719E+01
 21
-2.84876438E+02
  0
LINE
  8
0
 62
4
 10
9.47112393E+01
 20
-2.77155214E+02
 11
9.42221655E+01
 21
-2.77051258E+02
  0
LINE
  8
0
 62
4
 10
1.13518008E+02
 20
-2.46393135E+02
 11
1.12435770E+02
 21
-2.46744393E+02
  0
LINE
  8
0
 62
4
 10
1.14363848E+02
 20
-2.47154243E+02
 11
1.13518008E+02
 21
-2.46393135E+02
  0
LINE
  8
0
 62
4
 10
1.03557113E+02
 20
-2.83635995E+02
 11
1.03037333E+02
 21
-2.86081364E+02
  0
LINE
  8
0
 62
4
 10
1.07469703E+02
 20
-2.84467641E+02
 11
1.06949924E+02
 21
-2.86913010E+02
  0
LINE
  8
0
 62
4
 10
1.06949924E+02
 20
-2.86913010E+02
 11
1.03037333E+02
 21
-2.86081364E+02
  0
LINE
  8
0
 62
4
 10
1.07469703E+02
 20
-2.84467641E+02
 11
1.03557113E+02
 21
-2.83635995E+02
  0
LINE
  8
0
 62
4
 10
1.16107665E+02
 20
-2.91926570E+02
 11
9.26321224E+01
 21
-2.86936690E+02
  0
LINE
  8
0
 62
4
 10
9.88247151E+01
 20
-2.93875839E+02
 11
9.44230509E+01
 21
-2.92940236E+02
  0
LINE
  8
0
 62
4
 10
9.23202548E+01
 20
-2.88403911E+02
 11
9.44230509E+01
 21
-2.92940236E+02
  0
LINE
  8
0
 62
4
 10
1.15795797E+02
 20
-2.93393792E+02
 11
1.14529106E+02
 21
-2.94499969E+02
  0
LINE
  8
0
 62
4
 10
1.18394693E+02
 20
-2.81166947E+02
 11
1.15795797E+02
 21
-2.93393792E+02
  0
LINE
  8
0
 62
4
 10
9.49191510E+01
 20
-2.76177066E+02
 11
9.23202548E+01
 21
-2.88403911E+02
  0
LINE
  8
0
 62
4
 10
1.15795797E+02
 20
-2.93393792E+02
 11
9.23202548E+01
 21
-2.88403911E+02
  0
LINE
  8
0
 62
4
 10
1.16469104E+02
 20
-2.78201798E+02
 11
9.78842992E+01
 21
-2.74251476E+02
  0
LINE
  8
0
 62
4
 10
1.17300750E+02
 20
-2.74289208E+02
 11
1.16469104E+02
 21
-2.78201798E+02
  0
LINE
  8
0
 62
4
 10
9.87159459E+01
 20
-2.70338886E+02
 11
9.78842992E+01
 21
-2.74251476E+02
  0
LINE
  8
0
 62
4
 10
1.15552367E+02
 20
-2.72895237E+02
 11
1.00880153E+02
 21
-2.69776562E+02
  0
LINE
  8
0
 62
4
 10
1.17300750E+02
 20
-2.74289208E+02
 11
9.87159459E+01
 21
-2.70338886E+02
  0
LINE
  8
0
 62
4
 10
1.20542247E+02
 20
-2.49419694E+02
 11
1.15344455E+02
 21
-2.73873385E+02
  0
LINE
  8
0
 62
4
 10
1.05870033E+02
 20
-2.46301019E+02
 11
1.00672241E+02
 21
-2.70754709E+02
  0
LINE
  8
0
 62
4
 10
1.05870033E+02
 20
-2.46301019E+02
 11
1.20542247E+02
 21
-2.49419694E+02
  0
LINE
  8
0
 62
6
 10
1.31708168E+02
 20
-3.03411061E+02
 11
1.29597957E+02
 21
-3.02962522E+02
  0
LINE
  8
0
 62
4
 10
1.30002329E+02
 20
-3.06626666E+02
 11
1.31034534E+02
 21
-3.06580259E+02
  0
LINE
  8
0
 62
4
 10
1.30831897E+02
 20
-3.02723857E+02
 11
1.31755988E+02
 21
-3.03186087E+02
  0
LINE
  8
0
 62
4
 10
1.31755988E+02
 20
-3.03186087E+02
 11
1.31034534E+02
 21
-3.06580259E+02
  0
LINE
  8
0
 62
4
 10
1.30002329E+02
 20
-3.06626666E+02
 11
1.28870266E+02
 21
-3.06386038E+02
  0
LINE
  8
0
 62
4
 10
1.30831897E+02
 20
-3.02723857E+02
 11
1.29699833E+02
 21
-3.02483229E+02
  0
LINE
  8
0
 62
6
 10
1.31084433E+02
 20
-3.06345504E+02
 11
1.28974222E+02
 21
-3.05896964E+02
  0
LINE
  8
0
  6
CENTER
 62
6
 10
1.32602010E+02
 20
-3.05134564E+02
 11
1.28500031E+02
 21
-3.04262661E+02
  0
LINE
  8
0
 62
4
 10
1.25139221E+02
 20
-2.83111710E+02
 11
1.30383742E+02
 21
-2.99265690E+02
  0
LINE
  8
0
 62
4
 10
1.30383742E+02
 20
-2.99265690E+02
 11
1.28454442E+02
 21
-3.08342333E+02
  0
LINE
  8
0
 62
4
 10
1.17397680E+02
 20
-2.90667260E+02
 11
1.16583012E+02
 21
-2.94499969E+02
  0
LINE
  8
0
 62
4
 10
1.17012562E+02
 20
-2.90074231E+02
 11
1.16523488E+02
 21
-2.89970275E+02
  0
LINE
  8
0
 62
4
 10
1.25139221E+02
 20
-2.83111710E+02
 11
1.18290738E+02
 21
-2.81656020E+02
  0
ARC
  8
0
 62
4
 10
1.11958843E+02
 20
-2.53728127E+02
 40
7.00000000E+00
 50
4.69793705E+01
 51
1.09020630E+02
  0
ARC
  8
0
 62
4
 10
-8.49950998E+00
 20
-1.46061539E+02
 40
1.49950029E+00
 50
2.69980903E+02
 51
1.90971113E-02
  0
ARC
  8
0
 62
4
 10
-4.45005134E+01
 20
-1.46061543E+02
 40
1.49949647E+00
 50
1.79980757E+02
 51
2.70019243E+02
  0
LINE
  8
0
 62
4
 10
-4.35000098E+01
 20
-1.45115670E+02
 11
-2.45000098E+01
 21
-1.45115670E+02
  0
POLYLINE
  8
0
 62
4
 66
1
  0
VERTEX
  8
0
 62
4
 10
-1.48600098E+01
 20
-1.35615356E+02
  0
VERTEX
  8
0
 62
4
 10
-1.48719584E+01
 20
-1.35347667E+02
  0
VERTEX
  8
0
 62
4
 10
-1.49077135E+01
 20
-1.35082016E+02
  0
VERTEX
  8
0
 62
4
 10
-1.49670027E+01
 20
-1.34820423E+02
  0
VERTEX
  8
0
 62
4
 10
-1.50493750E+01
 20
-1.34564881E+02
  0
VERTEX
  8
0
 62
4
 10
-1.51542033E+01
 20
-1.34317333E+02
  0
VERTEX
  8
0
 62
4
 10
-1.52806900E+01
 20
-1.34079664E+02
  0
VERTEX
  8
0
 62
4
 10
-1.54278724E+01
 20
-1.33853683E+02
  0
VERTEX
  8
0
 62
4
 10
-1.55946302E+01
 20
-1.33641109E+02
  0
VERTEX
  8
0
 62
4
 10
-1.57796945E+01
 20
-1.33443560E+02
  0
VERTEX
  8
0
 62
4
 10
-1.59816567E+01
 20
-1.33262540E+02
  0
VERTEX
  8
0
 62
4
 10
-1.61989798E+01
 20
-1.33099426E+02
  0
VERTEX
  8
0
 62
4
 10
-1.64300098E+01
 20
-1.32955460E+02
  0
VERTEX
  8
0
 62
4
 10
-1.66729885E+01
 20
-1.32831737E+02
  0
VERTEX
  8
0
 62
4
 10
-1.69260666E+01
 20
-1.32729200E+02
  0
VERTEX
  8
0
 62
4
 10
-1.71873180E+01
 20
-1.32648627E+02
  0
VERTEX
  8
0
 62
4
 10
-1.74547545E+01
 20
-1.32590634E+02
  0
VERTEX
  8
0
 62
4
 10
-1.77263408E+01
 20
-1.32555660E+02
  0
VERTEX
  8
0
 62
4
 10
-1.80000098E+01
 20
-1.32543973E+02
  0
VERTEX
  8
0
 62
4
 10
-1.82736788E+01
 20
-1.32555660E+02
  0
VERTEX
  8
0
 62
4
 10
-1.85452651E+01
 20
-1.32590634E+02
  0
VERTEX
  8
0
 62
4
 10
-1.88127016E+01
 20
-1.32648627E+02
  0
VERTEX
  8
0
 62
4
 10
-1.90739531E+01
 20
-1.32729200E+02
  0
VERTEX
  8
0
 62
4
 10
-1.93270311E+01
 20
-1.32831737E+02
  0
VERTEX
  8
0
 62
4
 10
-1.95700098E+01
 20
-1.32955460E+02
  0
VERTEX
  8
0
 62
4
 10
-1.98010398E+01
 20
-1.33099426E+02
  0
VERTEX
  8
0
 62
4
 10
-2.00183629E+01
 20
-1.33262540E+02
  0
VERTEX
  8
0
 62
4
 10
-2.02203251E+01
 20
-1.33443560E+02
  0
VERTEX
  8
0
 62
4
 10
-2.04053894E+01
 20
-1.33641109E+02
  0
VERTEX
  8
0
 62
4
 10
-2.05721472E+01
 20
-1.33853683E+02
  0
VERTEX
  8
0
 62
4
 10
-2.07193296E+01
 20
-1.34079664E+02
  0
VERTEX
  8
0
 62
4
 10
-2.08458163E+01
 20
-1.34317333E+02
  0
VERTEX
  8
0
 62
4
 10
-2.09506446E+01
 20
-1.34564881E+02
  0
VERTEX
  8
0
 62
4
 10
-2.10330169E+01
 20
-1.34820423E+02
  0
VERTEX
  8
0
 62
4
 10
-2.10923061E+01
 20
-1.35082016E+02
  0
VERTEX
  8
0
 62
4
 10
-2.11280612E+01
 20
-1.35347667E+02
  0
VERTEX
  8
0
 62
4
 10
-2.11400098E+01
 20
-1.35615356E+02
  0
VERTEX
  8
0
 62
4
 10
-2.11280612E+01
 20
-1.35883045E+02
  0
VERTEX
  8
0
 62
4
 10
-2.10923061E+01
 20
-1.36148696E+02
  0
VERTEX
  8
0
 62
4
 10
-2.10330169E+01
 20
-1.36410289E+02
  0
VERTEX
  8
0
 62
4
 10
-2.09506446E+01
 20
-1.36665831E+02
  0
VERTEX
  8
0
 62
4
 10
-2.08458162E+01
 20
-1.36913379E+02
  0
VERTEX
  8
0
 62
4
 10
-2.07193296E+01
 20
-1.37151048E+02
  0
VERTEX
  8
0
 62
4
 10
-2.05721472E+01
 20
-1.37377029E+02
  0
VERTEX
  8
0
 62
4
 10
-2.04053893E+01
 20
-1.37589603E+02
  0
VERTEX
  8
0
 62
4
 10
-2.02203251E+01
 20
-1.37787152E+02
  0
VERTEX
  8
0
 62
4
 10
-2.00183629E+01
 20
-1.37968172E+02
  0
VERTEX
  8
0
 62
4
 10
-1.98010398E+01
 20
-1.38131286E+02
  0
VERTEX
  8
0
 62
4
 10
-1.95700098E+01
 20
-1.38275252E+02
  0
VERTEX
  8
0
 62
4
 10
-1.93270311E+01
 20
-1.38398975E+02
  0
VERTEX
  8
0
 62
4
 10
-1.90739530E+01
 20
-1.38501512E+02
  0
VERTEX
  8
0
 62
4
 10
-1.88127016E+01
 20
-1.38582085E+02
  0
VERTEX
  8
0
 62
4
 10
-1.85452651E+01
 20
-1.38640078E+02
  0
VERTEX
  8
0
 62
4
 10
-1.82736788E+01
 20
-1.38675052E+02
  0
VERTEX
  8
0
 62
4
 10
-1.80000098E+01
 20
-1.38686739E+02
  0
VERTEX
  8
0
 62
4
 10
-1.77263408E+01
 20
-1.38675052E+02
  0
VERTEX
  8
0
 62
4
 10
-1.74547545E+01
 20
-1.38640078E+02
  0
VERTEX
  8
0
 62
4
 10
-1.71873180E+01
 20
-1.38582085E+02
  0
VERTEX
  8
0
 62
4
 10
-1.69260665E+01
 20
-1.38501512E+02
  0
VERTEX
  8
0
 62
4
 10
-1.66729885E+01
 20
-1.38398975E+02
  0
VERTEX
  8
0
 62
4
 10
-1.64300098E+01
 20
-1.38275252E+02
  0
VERTEX
  8
0
 62
4
 10
-1.61989798E+01
 20
-1.38131286E+02
  0
VERTEX
  8
0
 62
4
 10
-1.59816567E+01
 20
-1.37968172E+02
  0
VERTEX
  8
0
 62
4
 10
-1.57796945E+01
 20
-1.37787152E+02
  0
VERTEX
  8
0
 62
4
 10
-1.55946302E+01
 20
-1.37589603E+02
  0
VERTEX
  8
0
 62
4
 10
-1.54278724E+01
 20
-1.37377029E+02
  0
VERTEX
  8
0
 62
4
 10
-1.52806900E+01
 20
-1.37151048E+02
  0
VERTEX
  8
0
 62
4
 10
-1.51542033E+01
 20
-1.36913379E+02
  0
VERTEX
  8
0
 62
4
 10
-1.50493750E+01
 20
-1.36665831E+02
  0
VERTEX
  8
0
 62
4
 10
-1.49670027E+01
 20
-1.36410289E+02
  0
VERTEX
  8
0
 62
4
 10
-1.49077135E+01
 20
-1.36148696E+02
  0
VERTEX
  8
0
 62
4
 10
-1.48719584E+01
 20
-1.35883045E+02
  0
VERTEX
  8
0
 62
4
 10
-1.48600098E+01
 20
-1.35615356E+02
  0
SEQEND
  8
0
  0
POLYLINE
  8
0
 62
4
 66
1
  0
VERTEX
  8
0
 62
4
 10
-1.45000098E+01
 20
-1.35823268E+02
  0
VERTEX
  8
0
 62
4
 10
-1.45133284E+01
 20
-1.35524889E+02
  0
VERTEX
  8
0
 62
4
 10
-1.45531827E+01
 20
-1.35228781E+02
  0
VERTEX
  8
0
 62
4
 10
-1.46192694E+01
 20
-1.34937197E+02
  0
VERTEX
  8
0
 62
4
 10
-1.47110856E+01
 20
-1.34652356E+02
  0
VERTEX
  8
0
 62
4
 10
-1.48279325E+01
 20
-1.34376427E+02
  0
VERTEX
  8
0
 62
4
 10
-1.49689209E+01
 20
-1.34111510E+02
  0
VERTEX
  8
0
 62
4
 10
-1.51329776E+01
 20
-1.33859620E+02
  0
VERTEX
  8
0
 62
4
 10
-1.53188542E+01
 20
-1.33622674E+02
  0
VERTEX
  8
0
 62
4
 10
-1.55251361E+01
 20
-1.33402476E+02
  0
VERTEX
  8
0
 62
4
 10
-1.57502532E+01
 20
-1.33200702E+02
  0
VERTEX
  8
0
 62
4
 10
-1.59924923E+01
 20
-1.33018887E+02
  0
VERTEX
  8
0
 62
4
 10
-1.62500098E+01
 20
-1.32858416E+02
  0
VERTEX
  8
0
 62
4
 10
-1.65208459E+01
 20
-1.32720508E+02
  0
VERTEX
  8
0
 62
4
 10
-1.68029393E+01
 20
-1.32606215E+02
  0
VERTEX
  8
0
 62
4
 10
-1.70941431E+01
 20
-1.32516405E+02
  0
VERTEX
  8
0
 62
4
 10
-1.73922412E+01
 20
-1.32451762E+02
  0
VERTEX
  8
0
 62
4
 10
-1.76949647E+01
 20
-1.32412779E+02
  0
VERTEX
  8
0
 62
4
 10
-1.80000098E+01
 20
-1.32399751E+02
  0
VERTEX
  8
0
 62
4
 10
-1.83050549E+01
 20
-1.32412779E+02
  0
VERTEX
  8
0
 62
4
 10
-1.86077784E+01
 20
-1.32451762E+02
  0
VERTEX
  8
0
 62
4
 10
-1.89058765E+01
 20
-1.32516405E+02
  0
VERTEX
  8
0
 62
4
 10
-1.91970803E+01
 20
-1.32606215E+02
  0
VERTEX
  8
0
 62
4
 10
-1.94791737E+01
 20
-1.32720508E+02
  0
VERTEX
  8
0
 62
4
 10
-1.97500098E+01
 20
-1.32858416E+02
  0
VERTEX
  8
0
 62
4
 10
-2.00075273E+01
 20
-1.33018887E+02
  0
VERTEX
  8
0
 62
4
 10
-2.02497664E+01
 20
-1.33200702E+02
  0
VERTEX
  8
0
 62
4
 10
-2.04748835E+01
 20
-1.33402476E+02
  0
VERTEX
  8
0
 62
4
 10
-2.06811654E+01
 20
-1.33622674E+02
  0
VERTEX
  8
0
 62
4
 10
-2.08670420E+01
 20
-1.33859620E+02
  0
VERTEX
  8
0
 62
4
 10
-2.10310987E+01
 20
-1.34111510E+02
  0
VERTEX
  8
0
 62
4
 10
-2.11720871E+01
 20
-1.34376427E+02
  0
VERTEX
  8
0
 62
4
 10
-2.12889340E+01
 20
-1.34652356E+02
  0
VERTEX
  8
0
 62
4
 10
-2.13807502E+01
 20
-1.34937197E+02
  0
VERTEX
  8
0
 62
4
 10
-2.14468369E+01
 20
-1.35228781E+02
  0
VERTEX
  8
0
 62
4
 10
-2.14866912E+01
 20
-1.35524889E+02
  0
VERTEX
  8
0
 62
4
 10
-2.15000098E+01
 20
-1.35823268E+02
  0
VERTEX
  8
0
 62
4
 10
-2.14866912E+01
 20
-1.36121647E+02
  0
VERTEX
  8
0
 62
4
 10
-2.14468369E+01
 20
-1.36417755E+02
  0
VERTEX
  8
0
 62
4
 10
-2.13807502E+01
 20
-1.36709339E+02
  0
VERTEX
  8
0
 62
4
 10
-2.12889340E+01
 20
-1.36994180E+02
  0
VERTEX
  8
0
 62
4
 10
-2.11720871E+01
 20
-1.37270109E+02
  0
VERTEX
  8
0
 62
4
 10
-2.10310987E+01
 20
-1.37535026E+02
  0
VERTEX
  8
0
 62
4
 10
-2.08670420E+01
 20
-1.37786916E+02
  0
VERTEX
  8
0
 62
4
 10
-2.06811653E+01
 20
-1.38023862E+02
  0
VERTEX
  8
0
 62
4
 10
-2.04748835E+01
 20
-1.38244060E+02
  0
VERTEX
  8
0
 62
4
 10
-2.02497664E+01
 20
-1.38445834E+02
  0
VERTEX
  8
0
 62
4
 10
-2.00075273E+01
 20
-1.38627649E+02
  0
VERTEX
  8
0
 62
4
 10
-1.97500098E+01
 20
-1.38788120E+02
  0
VERTEX
  8
0
 62
4
 10
-1.94791737E+01
 20
-1.38926028E+02
  0
VERTEX
  8
0
 62
4
 10
-1.91970803E+01
 20
-1.39040321E+02
  0
VERTEX
  8
0
 62
4
 10
-1.89058765E+01
 20
-1.39130131E+02
  0
VERTEX
  8
0
 62
4
 10
-1.86077784E+01
 20
-1.39194774E+02
  0
VERTEX
  8
0
 62
4
 10
-1.83050549E+01
 20
-1.39233757E+02
  0
VERTEX
  8
0
 62
4
 10
-1.80000098E+01
 20
-1.39246785E+02
  0
VERTEX
  8
0
 62
4
 10
-1.76949647E+01
 20
-1.39233757E+02
  0
VERTEX
  8
0
 62
4
 10
-1.73922412E+01
 20
-1.39194774E+02
  0
VERTEX
  8
0
 62
4
 10
-1.70941431E+01
 20
-1.39130131E+02
  0
VERTEX
  8
0
 62
4
 10
-1.68029393E+01
 20
-1.39040321E+02
  0
VERTEX
  8
0
 62
4
 10
-1.65208459E+01
 20
-1.38926028E+02
  0
VERTEX
  8
0
 62
4
 10
-1.62500098E+01
 20
-1.38788120E+02
  0
VERTEX
  8
0
 62
4
 10
-1.59924923E+01
 20
-1.38627649E+02
  0
VERTEX
  8
0
 62
4
 10
-1.57502532E+01
 20
-1.38445834E+02
  0
VERTEX
  8
0
 62
4
 10
-1.55251361E+01
 20
-1.38244060E+02
  0
VERTEX
  8
0
 62
4
 10
-1.53188542E+01
 20
-1.38023862E+02
  0
VERTEX
  8
0
 62
4
 10
-1.51329776E+01
 20
-1.37786916E+02
  0
VERTEX
  8
0
 62
4
 10
-1.49689209E+01
 20
-1.37535026E+02
  0
VERTEX
  8
0
 62
4
 10
-1.48279325E+01
 20
-1.37270109E+02
  0
VERTEX
  8
0
 62
4
 10
-1.47110856E+01
 20
-1.36994180E+02
  0
VERTEX
  8
0
 62
4
 10
-1.46192694E+01
 20
-1.36709339E+02
  0
VERTEX
  8
0
 62
4
 10
-1.45531827E+01
 20
-1.36417755E+02
  0
VERTEX
  8
0
 62
4
 10
-1.45133284E+01
 20
-1.36121647E+02
  0
VERTEX
  8
0
 62
4
 10
-1.45000098E+01
 20
-1.35823268E+02
  0
SEQEND
  8
0
  0
ARC
  8
0
 62
4
 10
-2.97644148E+01
 20
-1.41128770E+02
 40
1.21769740E+01
 50
2.40462101E+02
 51
2.53021762E+02
  0
ARC
  8
0
 62
4
 10
-3.82356048E+01
 20
-1.41128770E+02
 40
1.21769740E+01
 50
2.86978238E+02
 51
2.99537899E+02
  0
POLYLINE
  8
0
 62
4
 66
1
  0
VERTEX
  8
0
 62
4
 10
-3.06000098E+01
 20
-1.51696002E+02
  0
VERTEX
  8
0
 62
4
 10
-3.06129478E+01
 20
-1.51600021E+02
  0
VERTEX
  8
0
 62
4
 10
-3.06516634E+01
 20
-1.51504771E+02
  0
VERTEX
  8
0
 62
4
 10
-3.07158620E+01
 20
-1.51410976E+02
  0
VERTEX
  8
0
 62
4
 10
-3.08050549E+01
 20
-1.51319350E+02
  0
VERTEX
  8
0
 62
4
 10
-3.09185633E+01
 20
-1.51230591E+02
  0
VERTEX
  8
0
 62
4
 10
-3.10555234E+01
 20
-1.51145374E+02
  0
VERTEX
  8
0
 62
4
 10
-3.12148928E+01
 20
-1.51064348E+02
  0
VERTEX
  8
0
 62
4
 10
-3.13954587E+01
 20
-1.50988129E+02
  0
VERTEX
  8
0
 62
4
 10
-3.15958467E+01
 20
-1.50917297E+02
  0
VERTEX
  8
0
 62
4
 10
-3.18145319E+01
 20
-1.50852391E+02
  0
VERTEX
  8
0
 62
4
 10
-3.20498499E+01
 20
-1.50793906E+02
  0
VERTEX
  8
0
 62
4
 10
-3.23000098E+01
 20
-1.50742287E+02
  0
VERTEX
  8
0
 62
4
 10
-3.25631077E+01
 20
-1.50697926E+02
  0
VERTEX
  8
0
 62
4
 10
-3.28371413E+01
 20
-1.50661160E+02
  0
VERTEX
  8
0
 62
4
 10
-3.31200250E+01
 20
-1.50632271E+02
  0
VERTEX
  8
0
 62
4
 10
-3.34096060E+01
 20
-1.50611477E+02
  0
VERTEX
  8
0
 62
4
 10
-3.37036803E+01
 20
-1.50598937E+02
  0
VERTEX
  8
0
 62
4
 10
-3.40000098E+01
 20
-1.50594747E+02
  0
VERTEX
  8
0
 62
4
 10
-3.42963393E+01
 20
-1.50598937E+02
  0
VERTEX
  8
0
 62
4
 10
-3.45904136E+01
 20
-1.50611477E+02
  0
VERTEX
  8
0
 62
4
 10
-3.48799946E+01
 20
-1.50632271E+02
  0
VERTEX
  8
0
 62
4
 10
-3.51628783E+01
 20
-1.50661160E+02
  0
VERTEX
  8
0
 62
4
 10
-3.54369119E+01
 20
-1.50697926E+02
  0
VERTEX
  8
0
 62
4
 10
-3.57000098E+01
 20
-1.50742287E+02
  0
VERTEX
  8
0
 62
4
 10
-3.59501697E+01
 20
-1.50793906E+02
  0
VERTEX
  8
0
 62
4
 10
-3.61854877E+01
 20
-1.50852391E+02
  0
VERTEX
  8
0
 62
4
 10
-3.64041729E+01
 20
-1.50917297E+02
  0
VERTEX
  8
0
 62
4
 10
-3.66045609E+01
 20
-1.50988129E+02
  0
VERTEX
  8
0
 62
4
 10
-3.67851268E+01
 20
-1.51064348E+02
  0
VERTEX
  8
0
 62
4
 10
-3.69444962E+01
 20
-1.51145374E+02
  0
VERTEX
  8
0
 62
4
 10
-3.70814563E+01
 20
-1.51230591E+02
  0
VERTEX
  8
0
 62
4
 10
-3.71949647E+01
 20
-1.51319350E+02
  0
VERTEX
  8
0
 62
4
 10
-3.72841576E+01
 20
-1.51410976E+02
  0
VERTEX
  8
0
 62
4
 10
-3.73483562E+01
 20
-1.51504771E+02
  0
VERTEX
  8
0
 62
4
 10
-3.73870718E+01
 20
-1.51600021E+02
  0
VERTEX
  8
0
 62
4
 10
-3.74000098E+01
 20
-1.51696002E+02
  0
VERTEX
  8
0
 62
4
 10
-3.73870718E+01
 20
-1.51791983E+02
  0
VERTEX
  8
0
 62
4
 10
-3.73483562E+01
 20
-1.51887233E+02
  0
VERTEX
  8
0
 62
4
 10
-3.72841576E+01
 20
-1.51981028E+02
  0
VERTEX
  8
0
 62
4
 10
-3.71949647E+01
 20
-1.52072654E+02
  0
VERTEX
  8
0
 62
4
 10
-3.70814563E+01
 20
-1.52161413E+02
  0
VERTEX
  8
0
 62
4
 10
-3.69444962E+01
 20
-1.52246630E+02
  0
VERTEX
  8
0
 62
4
 10
-3.67851267E+01
 20
-1.52327656E+02
  0
VERTEX
  8
0
 62
4
 10
-3.66045609E+01
 20
-1.52403875E+02
  0
VERTEX
  8
0
 62
4
 10
-3.64041729E+01
 20
-1.52474707E+02
  0
VERTEX
  8
0
 62
4
 10
-3.61854877E+01
 20
-1.52539613E+02
  0
VERTEX
  8
0
 62
4
 10
-3.59501697E+01
 20
-1.52598098E+02
  0
VERTEX
  8
0
 62
4
 10
-3.57000098E+01
 20
-1.52649717E+02
  0
VERTEX
  8
0
 62
4
 10
-3.54369119E+01
 20
-1.52694078E+02
  0
VERTEX
  8
0
 62
4
 10
-3.51628783E+01
 20
-1.52730844E+02
  0
VERTEX
  8
0
 62
4
 10
-3.48799945E+01
 20
-1.52759733E+02
  0
VERTEX
  8
0
 62
4
 10
-3.45904136E+01
 20
-1.52780527E+02
  0
VERTEX
  8
0
 62
4
 10
-3.42963393E+01
 20
-1.52793067E+02
  0
VERTEX
  8
0
 62
4
 10
-3.40000098E+01
 20
-1.52797257E+02
  0
VERTEX
  8
0
 62
4
 10
-3.37036803E+01
 20
-1.52793067E+02
  0
VERTEX
  8
0
 62
4
 10
-3.34096060E+01
 20
-1.52780527E+02
  0
VERTEX
  8
0
 62
4
 10
-3.31200250E+01
 20
-1.52759733E+02
  0
VERTEX
  8
0
 62
4
 10
-3.28371413E+01
 20
-1.52730844E+02
  0
VERTEX
  8
0
 62
4
 10
-3.25631077E+01
 20
-1.52694078E+02
  0
VERTEX
  8
0
 62
4
 10
-3.23000098E+01
 20
-1.52649717E+02
  0
VERTEX
  8
0
 62
4
 10
-3.20498499E+01
 20
-1.52598098E+02
  0
VERTEX
  8
0
 62
4
 10
-3.18145319E+01
 20
-1.52539613E+02
  0
VERTEX
  8
0
 62
4
 10
-3.15958467E+01
 20
-1.52474707E+02
  0
VERTEX
  8
0
 62
4
 10
-3.13954587E+01
 20
-1.52403875E+02
  0
VERTEX
  8
0
 62
4
 10
-3.12148928E+01
 20
-1.52327656E+02
  0
VERTEX
  8
0
 62
4
 10
-3.10555234E+01
 20
-1.52246630E+02
  0
VERTEX
  8
0
 62
4
 10
-3.09185633E+01
 20
-1.52161413E+02
  0
VERTEX
  8
0
 62
4
 10
-3.08050549E+01
 20
-1.52072654E+02
  0
VERTEX
  8
0
 62
4
 10
-3.07158620E+01
 20
-1.51981028E+02
  0
VERTEX
  8
0
 62
4
 10
-3.06516634E+01
 20
-1.51887233E+02
  0
VERTEX
  8
0
 62
4
 10
-3.06129478E+01
 20
-1.51791983E+02
  0
VERTEX
  8
0
 62
4
 10
-3.06000098E+01
 20
-1.51696002E+02
  0
SEQEND
  8
0
  0
POLYLINE
  8
0
 62
4
 66
1
  0
VERTEX
  8
0
 62
4
 10
-3.00000098E+01
 20
-1.49120377E+02
  0
VERTEX
  8
0
 62
4
 10
-3.00161126E+01
 20
-1.49045829E+02
  0
VERTEX
  8
0
 62
4
 10
-3.00642914E+01
 20
-1.48971881E+02
  0
VERTEX
  8
0
 62
4
 10
-3.01441584E+01
 20
-1.48899128E+02
  0
VERTEX
  8
0
 62
4
 10
-3.02550703E+01
 20
-1.48828157E+02
  0
VERTEX
  8
0
 62
4
 10
-3.03961343E+01
 20
-1.48759539E+02
  0
VERTEX
  8
0
 62
4
 10
-3.05662146E+01
 20
-1.48693826E+02
  0
VERTEX
  8
0
 62
4
 10
-3.07639418E+01
 20
-1.48631547E+02
  0
VERTEX
  8
0
 62
4
 10
-3.09877239E+01
 20
-1.48573204E+02
  0
VERTEX
  8
0
 62
4
 10
-3.12357592E+01
 20
-1.48519267E+02
  0
VERTEX
  8
0
 62
4
 10
-3.15060506E+01
 20
-1.48470169E+02
  0
VERTEX
  8
0
 62
4
 10
-3.17964219E+01
 20
-1.48426307E+02
  0
VERTEX
  8
0
 62
4
 10
-3.21045351E+01
 20
-1.48388033E+02
  0
VERTEX
  8
0
 62
4
 10
-3.24279097E+01
 20
-1.48355655E+02
  0
VERTEX
  8
0
 62
4
 10
-3.27639418E+01
 20
-1.48329434E+02
  0
VERTEX
  8
0
 62
4
 10
-3.31099261E+01
 20
-1.48309581E+02
  0
VERTEX
  8
0
 62
4
 10
-3.34630767E+01
 20
-1.48296257E+02
  0
VERTEX
  8
0
 62
4
 10
-3.38205505E+01
 20
-1.48289568E+02
  0
VERTEX
  8
0
 62
4
 10
-3.41794691E+01
 20
-1.48289568E+02
  0
VERTEX
  8
0
 62
4
 10
-3.45369429E+01
 20
-1.48296257E+02
  0
VERTEX
  8
0
 62
4
 10
-3.48900935E+01
 20
-1.48309581E+02
  0
VERTEX
  8
0
 62
4
 10
-3.52360778E+01
 20
-1.48329434E+02
  0
VERTEX
  8
0
 62
4
 10
-3.55721099E+01
 20
-1.48355655E+02
  0
VERTEX
  8
0
 62
4
 10
-3.58954844E+01
 20
-1.48388033E+02
  0
VERTEX
  8
0
 62
4
 10
-3.62035977E+01
 20
-1.48426307E+02
  0
VERTEX
  8
0
 62
4
 10
-3.64939690E+01
 20
-1.48470169E+02
  0
VERTEX
  8
0
 62
4
 10
-3.67642604E+01
 20
-1.48519267E+02
  0
VERTEX
  8
0
 62
4
 10
-3.70122957E+01
 20
-1.48573204E+02
  0
VERTEX
  8
0
 62
4
 10
-3.72360778E+01
 20
-1.48631547E+02
  0
VERTEX
  8
0
 62
4
 10
-3.74338050E+01
 20
-1.48693826E+02
  0
VERTEX
  8
0
 62
4
 10
-3.76038853E+01
 20
-1.48759539E+02
  0
VERTEX
  8
0
 62
4
 10
-3.77449493E+01
 20
-1.48828157E+02
  0
VERTEX
  8
0
 62
4
 10
-3.78558612E+01
 20
-1.48899128E+02
  0
VERTEX
  8
0
 62
4
 10
-3.79357282E+01
 20
-1.48971881E+02
  0
VERTEX
  8
0
 62
4
 10
-3.79839070E+01
 20
-1.49045829E+02
  0
VERTEX
  8
0
 62
4
 10
-3.80000098E+01
 20
-1.49120377E+02
  0
SEQEND
  8
0
  0
LINE
  8
0
 62
4
 10
-3.06000098E+01
 20
-1.50679715E+02
 11
-8.50000977E+00
 21
-1.50679715E+02
  0
ARC
  8
0
 62
4
 10
-4.45005134E+01
 20
-1.49180218E+02
 40
1.49949647E+00
 50
1.79980757E+02
 51
2.70019243E+02
  0
ARC
  8
0
 62
4
 10
-8.49950998E+00
 20
-1.49180214E+02
 40
1.49950029E+00
 50
2.69980903E+02
 51
1.90971113E-02
  0
LINE
  8
0
 62
4
 10
-4.45000098E+01
 20
-1.50679715E+02
 11
-3.74000098E+01
 21
-1.50679715E+02
  0
POLYLINE
  8
0
 62
4
 66
1
  0
VERTEX
  8
0
 62
4
 10
-3.06000098E+01
 20
-1.49609443E+02
  0
VERTEX
  8
0
 62
4
 10
-3.06137007E+01
 20
-1.49546077E+02
  0
VERTEX
  8
0
 62
4
 10
-3.06546561E+01
 20
-1.49483221E+02
  0
VERTEX
  8
0
 62
4
 10
-3.07225460E+01
 20
-1.49421382E+02
  0
VERTEX
  8
0
 62
4
 10
-3.08168239E+01
 20
-1.49361057E+02
  0
VERTEX
  8
0
 62
4
 10
-3.09367308E+01
 20
-1.49302732E+02
  0
VERTEX
  8
0
 62
4
 10
-3.10813012E+01
 20
-1.49246877E+02
  0
VERTEX
  8
0
 62
4
 10
-3.12493712E+01
 20
-1.49193940E+02
  0
VERTEX
  8
0
 62
4
 10
-3.14395875E+01
 20
-1.49144349E+02
  0
VERTEX
  8
0
 62
4
 10
-3.16504187E+01
 20
-1.49098503E+02
  0
VERTEX
  8
0
 62
4
 10
-3.18801672E+01
 20
-1.49056771E+02
  0
VERTEX
  8
0
 62
4
 10
-3.21269834E+01
 20
-1.49019488E+02
  0
VERTEX
  8
0
 62
4
 10
-3.23888799E+01
 20
-1.48986956E+02
  0
VERTEX
  8
0
 62
4
 10
-3.26637482E+01
 20
-1.48959435E+02
  0
VERTEX
  8
0
 62
4
 10
-3.29493753E+01
 20
-1.48937148E+02
  0
VERTEX
  8
0
 62
4
 10
-3.32434613E+01
 20
-1.48920274E+02
  0
VERTEX
  8
0
 62
4
 10
-3.35436386E+01
 20
-1.48908948E+02
  0
VERTEX
  8
0
 62
4
 10
-3.38474903E+01
 20
-1.48903263E+02
  0
VERTEX
  8
0
 62
4
 10
-3.41525700E+01
 20
-1.48903263E+02
  0
VERTEX
  8
0
 62
4
 10
-3.44564214E+01
 20
-1.48908949E+02
  0
VERTEX
  8
0
 62
4
 10
-3.47565980E+01
 20
-1.48920276E+02
  0
VERTEX
  8
0
 62
4
 10
-3.50506831E+01
 20
-1.48937150E+02
  0
VERTEX
  8
0
 62
4
 10
-3.53363088E+01
 20
-1.48959438E+02
  0
VERTEX
  8
0
 62
4
 10
-3.56111756E+01
 20
-1.48986960E+02
  0
VERTEX
  8
0
 62
4
 10
-3.58730702E+01
 20
-1.49019493E+02
  0
VERTEX
  8
0
 62
4
 10
-3.61198842E+01
 20
-1.49056776E+02
  0
VERTEX
  8
0
 62
4
 10
-3.63496304E+01
 20
-1.49098509E+02
  0
VERTEX
  8
0
 62
4
 10
-3.65604589E+01
 20
-1.49144356E+02
  0
VERTEX
  8
0
 62
4
 10
-3.67506724E+01
 20
-1.49193947E+02
  0
VERTEX
  8
0
 62
4
 10
-3.69187393E+01
 20
-1.49246884E+02
  0
VERTEX
  8
0
 62
4
 10
-3.70633065E+01
 20
-1.49302740E+02
  0
VERTEX
  8
0
 62
4
 10
-3.71832100E+01
 20
-1.49361065E+02
  0
VERTEX
  8
0
 62
4
 10
-3.72774845E+01
 20
-1.49421390E+02
  0
VERTEX
  8
0
 62
4
 10
-3.73453708E+01
 20
-1.49483230E+02
  0
VERTEX
  8
0
 62
4
 10
-3.73863225E+01
 20
-1.49546085E+02
  0
VERTEX
  8
0
 62
4
 10
-3.74000098E+01
 20
-1.49609451E+02
  0
SEQEND
  8
0
  0
POLYLINE
  8
0
 62
4
 66
1
  0
VERTEX
  8
0
 62
4
 10
-3.06000098E+01
 20
-1.50047548E+02
  0
VERTEX
  8
0
 62
4
 10
-3.04269578E+01
 20
-1.49983305E+02
  0
VERTEX
  8
0
 62
4
 10
-3.02819148E+01
 20
-1.49916131E+02
  0
VERTEX
  8
0
 62
4
 10
-3.01660180E+01
 20
-1.49846553E+02
  0
VERTEX
  8
0
 62
4
 10
-3.00801757E+01
 20
-1.49775116E+02
  0
VERTEX
  8
0
 62
4
 10
-3.00250609E+01
 20
-1.49702381E+02
  0
VERTEX
  8
0
 62
4
 10
-3.00011057E+01
 20
-1.49628917E+02
  0
VERTEX
  8
0
 62
4
 10
-3.00084979E+01
 20
-1.49555301E+02
  0
VERTEX
  8
0
 62
4
 10
-3.00471794E+01
 20
-1.49482109E+02
  0
VERTEX
  8
0
 62
4
 10
-3.01168471E+01
 20
-1.49409916E+02
  0
VERTEX
  8
0
 62
4
 10
-3.02169548E+01
 20
-1.49339286E+02
  0
VERTEX
  8
0
 62
4
 10
-3.03467179E+01
 20
-1.49270775E+02
  0
VERTEX
  8
0
 62
4
 10
-3.05051190E+01
 20
-1.49204918E+02
  0
VERTEX
  8
0
 62
4
 10
-3.06909165E+01
 20
-1.49142232E+02
  0
VERTEX
  8
0
 62
4
 10
-3.09026540E+01
 20
-1.49083209E+02
  0
VERTEX
  8
0
 62
4
 10
-3.11386716E+01
 20
-1.49028311E+02
  0
VERTEX
  8
0
 62
4
 10
-3.13971191E+01
 20
-1.48977969E+02
  0
VERTEX
  8
0
 62
4
 10
-3.16759707E+01
 20
-1.48932577E+02
  0
VERTEX
  8
0
 62
4
 10
-3.19730403E+01
 20
-1.48892490E+02
  0
VERTEX
  8
0
 62
4
 10
-3.22859994E+01
 20
-1.48858024E+02
  0
VERTEX
  8
0
 62
4
 10
-3.26123945E+01
 20
-1.48829449E+02
  0
VERTEX
  8
0
 62
4
 10
-3.29496672E+01
 20
-1.48806988E+02
  0
VERTEX
  8
0
 62
4
 10
-3.32951734E+01
 20
-1.48790817E+02
  0
VERTEX
  8
0
 62
4
 10
-3.36462049E+01
 20
-1.48781064E+02
  0
VERTEX
  8
0
 62
4
 10
-3.40000098E+01
 20
-1.48777804E+02
  0
VERTEX
  8
0
 62
4
 10
-3.43538147E+01
 20
-1.48781064E+02
  0
VERTEX
  8
0
 62
4
 10
-3.47048462E+01
 20
-1.48790817E+02
  0
VERTEX
  8
0
 62
4
 10
-3.50503524E+01
 20
-1.48806988E+02
  0
VERTEX
  8
0
 62
4
 10
-3.53876250E+01
 20
-1.48829449E+02
  0
VERTEX
  8
0
 62
4
 10
-3.57140202E+01
 20
-1.48858024E+02
  0
VERTEX
  8
0
 62
4
 10
-3.60269792E+01
 20
-1.48892490E+02
  0
VERTEX
  8
0
 62
4
 10
-3.63240489E+01
 20
-1.48932577E+02
  0
VERTEX
  8
0
 62
4
 10
-3.66029005E+01
 20
-1.48977969E+02
  0
VERTEX
  8
0
 62
4
 10
-3.68613480E+01
 20
-1.49028311E+02
  0
VERTEX
  8
0
 62
4
 10
-3.70973656E+01
 20
-1.49083209E+02
  0
VERTEX
  8
0
 62
4
 10
-3.73091030E+01
 20
-1.49142232E+02
  0
VERTEX
  8
0
 62
4
 10
-3.74949006E+01
 20
-1.49204918E+02
  0
VERTEX
  8
0
 62
4
 10
-3.76533017E+01
 20
-1.49270775E+02
  0
VERTEX
  8
0
 62
4
 10
-3.77830648E+01
 20
-1.49339286E+02
  0
VERTEX
  8
0
 62
4
 10
-3.78831725E+01
 20
-1.49409916E+02
  0
VERTEX
  8
0
 62
4
 10
-3.79528402E+01
 20
-1.49482109E+02
  0
VERTEX
  8
0
 62
4
 10
-3.79915217E+01
 20
-1.49555301E+02
  0
VERTEX
  8
0
 62
4
 10
-3.79989139E+01
 20
-1.49628917E+02
  0
VERTEX
  8
0
 62
4
 10
-3.79749587E+01
 20
-1.49702381E+02
  0
VERTEX
  8
0
 62
4
 10
-3.79198439E+01
 20
-1.49775116E+02
  0
VERTEX
  8
0
 62
4
 10
-3.78340016E+01
 20
-1.49846553E+02
  0
VERTEX
  8
0
 62
4
 10
-3.77181048E+01
 20
-1.49916131E+02
  0
VERTEX
  8
0
 62
4
 10
-3.75730618E+01
 20
-1.49983305E+02
  0
VERTEX
  8
0
 62
4
 10
-3.74000098E+01
 20
-1.50047548E+02
  0
SEQEND
  8
0
  0
LINE
  8
0
  6
CENTER
 62
6
 10
-3.90490947E+01
 20
-1.29793829E+02
 11
-2.89509249E+01
 21
-1.29793829E+02
  0
LINE
  8
0
  6
CENTER
 62
6
 10
-1.80000098E+01
 20
-1.30666008E+02
 11
-1.80000098E+01
 21
-1.40564705E+02
  0
POLYLINE
  8
0
 62
4
 66
1
  0
VERTEX
  8
0
 62
4
 10
-3.10000098E+01
 20
-1.29793829E+02
  0
VERTEX
  8
0
 62
4
 10
-3.10114257E+01
 20
-1.29538075E+02
  0
VERTEX
  8
0
 62
4
 10
-3.10455865E+01
 20
-1.29284268E+02
  0
VERTEX
  8
0
 62
4
 10
-3.11022323E+01
 20
-1.29034339E+02
  0
VERTEX
  8
0
 62
4
 10
-3.11809319E+01
 20
-1.28790190E+02
  0
VERTEX
  8
0
 62
4
 10
-3.12810864E+01
 20
-1.28553680E+02
  0
VERTEX
  8
0
 62
4
 10
-3.14019336E+01
 20
-1.28326608E+02
  0
VERTEX
  8
0
 62
4
 10
-3.15425537E+01
 20
-1.28110702E+02
  0
VERTEX
  8
0
 62
4
 10
-3.17018765E+01
 20
-1.27907606E+02
  0
VERTEX
  8
0
 62
4
 10
-3.18786895E+01
 20
-1.27718865E+02
  0
VERTEX
  8
0
 62
4
 10
-3.20716470E+01
 20
-1.27545915E+02
  0
VERTEX
  8
0
 62
4
 10
-3.22792805E+01
 20
-1.27390074E+02
  0
VERTEX
  8
0
 62
4
 10
-3.25000098E+01
 20
-1.27252527E+02
  0
VERTEX
  8
0
 62
4
 10
-3.27321550E+01
 20
-1.27134321E+02
  0
VERTEX
  8
0
 62
4
 10
-3.29739494E+01
 20
-1.27036355E+02
  0
VERTEX
  8
0
 62
4
 10
-3.32235527E+01
 20
-1.26959375E+02
  0
VERTEX
  8
0
 62
4
 10
-3.34790653E+01
 20
-1.26903967E+02
  0
VERTEX
  8
0
 62
4
 10
-3.37385426E+01
 20
-1.26870553E+02
  0
VERTEX
  8
0
 62
4
 10
-3.40000098E+01
 20
-1.26859386E+02
  0
VERTEX
  8
0
 62
4
 10
-3.42614770E+01
 20
-1.26870553E+02
  0
VERTEX
  8
0
 62
4
 10
-3.45209543E+01
 20
-1.26903967E+02
  0
VERTEX
  8
0
 62
4
 10
-3.47764669E+01
 20
-1.26959375E+02
  0
VERTEX
  8
0
 62
4
 10
-3.50260702E+01
 20
-1.27036355E+02
  0
VERTEX
  8
0
 62
4
 10
-3.52678646E+01
 20
-1.27134321E+02
  0
VERTEX
  8
0
 62
4
 10
-3.55000098E+01
 20
-1.27252527E+02
  0
VERTEX
  8
0
 62
4
 10
-3.57207391E+01
 20
-1.27390074E+02
  0
VERTEX
  8
0
 62
4
 10
-3.59283726E+01
 20
-1.27545915E+02
  0
VERTEX
  8
0
 62
4
 10
-3.61213301E+01
 20
-1.27718865E+02
  0
VERTEX
  8
0
 62
4
 10
-3.62981431E+01
 20
-1.27907606E+02
  0
VERTEX
  8
0
 62
4
 10
-3.64574659E+01
 20
-1.28110702E+02
  0
VERTEX
  8
0
 62
4
 10
-3.65980860E+01
 20
-1.28326608E+02
  0
VERTEX
  8
0
 62
4
 10
-3.67189332E+01
 20
-1.28553680E+02
  0
VERTEX
  8
0
 62
4
 10
-3.68190877E+01
 20
-1.28790190E+02
  0
VERTEX
  8
0
 62
4
 10
-3.68977873E+01
 20
-1.29034339E+02
  0
VERTEX
  8
0
 62
4
 10
-3.69544331E+01
 20
-1.29284268E+02
  0
VERTEX
  8
0
 62
4
 10
-3.69885939E+01
 20
-1.29538075E+02
  0
VERTEX
  8
0
 62
4
 10
-3.70000098E+01
 20
-1.29793829E+02
  0
VERTEX
  8
0
 62
4
 10
-3.69885939E+01
 20
-1.30049583E+02
  0
VERTEX
  8
0
 62
4
 10
-3.69544331E+01
 20
-1.30303390E+02
  0
VERTEX
  8
0
 62
4
 10
-3.68977873E+01
 20
-1.30553319E+02
  0
VERTEX
  8
0
 62
4
 10
-3.68190877E+01
 20
-1.30797468E+02
  0
VERTEX
  8
0
 62
4
 10
-3.67189332E+01
 20
-1.31033978E+02
  0
VERTEX
  8
0
 62
4
 10
-3.65980860E+01
 20
-1.31261050E+02
  0
VERTEX
  8
0
 62
4
 10
-3.64574659E+01
 20
-1.31476956E+02
  0
VERTEX
  8
0
 62
4
 10
-3.62981431E+01
 20
-1.31680052E+02
  0
VERTEX
  8
0
 62
4
 10
-3.61213301E+01
 20
-1.31868793E+02
  0
VERTEX
  8
0
 62
4
 10
-3.59283726E+01
 20
-1.32041743E+02
  0
VERTEX
  8
0
 62
4
 10
-3.57207391E+01
 20
-1.32197584E+02
  0
VERTEX
  8
0
 62
4
 10
-3.55000098E+01
 20
-1.32335131E+02
  0
VERTEX
  8
0
 62
4
 10
-3.52678646E+01
 20
-1.32453337E+02
  0
VERTEX
  8
0
 62
4
 10
-3.50260702E+01
 20
-1.32551303E+02
  0
VERTEX
  8
0
 62
4
 10
-3.47764669E+01
 20
-1.32628283E+02
  0
VERTEX
  8
0
 62
4
 10
-3.45209543E+01
 20
-1.32683691E+02
  0
VERTEX
  8
0
 62
4
 10
-3.42614770E+01
 20
-1.32717105E+02
  0
VERTEX
  8
0
 62
4
 10
-3.40000098E+01
 20
-1.32728272E+02
  0
VERTEX
  8
0
 62
4
 10
-3.37385426E+01
 20
-1.32717105E+02
  0
VERTEX
  8
0
 62
4
 10
-3.34790653E+01
 20
-1.32683691E+02
  0
VERTEX
  8
0
 62
4
 10
-3.32235527E+01
 20
-1.32628283E+02
  0
VERTEX
  8
0
 62
4
 10
-3.29739494E+01
 20
-1.32551303E+02
  0
VERTEX
  8
0
 62
4
 10
-3.27321550E+01
 20
-1.32453337E+02
  0
VERTEX
  8
0
 62
4
 10
-3.25000098E+01
 20
-1.32335131E+02
  0
VERTEX
  8
0
 62
4
 10
-3.22792805E+01
 20
-1.32197584E+02
  0
VERTEX
  8
0
 62
4
 10
-3.20716470E+01
 20
-1.32041743E+02
  0
VERTEX
  8
0
 62
4
 10
-3.18786895E+01
 20
-1.31868793E+02
  0
VERTEX
  8
0
 62
4
 10
-3.17018765E+01
 20
-1.31680052E+02
  0
VERTEX
  8
0
 62
4
 10
-3.15425537E+01
 20
-1.31476956E+02
  0
VERTEX
  8
0
 62
4
 10
-3.14019336E+01
 20
-1.31261050E+02
  0
VERTEX
  8
0
 62
4
 10
-3.12810864E+01
 20
-1.31033978E+02
  0
VERTEX
  8
0
 62
4
 10
-3.11809319E+01
 20
-1.30797468E+02
  0
VERTEX
  8
0
 62
4
 10
-3.11022323E+01
 20
-1.30553319E+02
  0
VERTEX
  8
0
 62
4
 10
-3.10455865E+01
 20
-1.30303390E+02
  0
VERTEX
  8
0
 62
4
 10
-3.10114257E+01
 20
-1.30049583E+02
  0
VERTEX
  8
0
 62
4
 10
-3.10000098E+01
 20
-1.29793829E+02
  0
SEQEND
  8
0
  0
LINE
  8
0
  6
CENTER
 62
6
 10
-2.29493584E+01
 20
-1.35615356E+02
 11
-1.30506612E+01
 21
-1.35615356E+02
  0
LINE
  8
0
 62
4
 10
-4.15000098E+01
 20
-1.42327728E+02
 11
-2.65000098E+01
 21
-1.42327728E+02
  0
LINE
  8
0
 62
4
 10
-6.10000098E+01
 20
-1.38181007E+02
 11
-5.60000098E+01
 21
-1.38181007E+02
  0
LINE
  8
0
 62
4
 10
-5.10000098E+01
 20
-1.24542072E+02
 11
-5.10000098E+01
 21
-1.37542072E+02
  0
ARC
  8
0
 62
4
 10
-5.04995096E+01
 20
-1.24542573E+02
 40
5.00500378E-01
 50
9.00572530E+01
 51
1.79942747E+02
  0
LINE
  8
0
 62
4
 10
-4.15000098E+01
 20
-1.24042072E+02
 11
-5.05000098E+01
 21
-1.24042072E+02
  0
LINE
  8
0
 62
4
 10
-6.10000098E+01
 20
-1.36619590E+02
 11
-5.60000098E+01
 21
-1.36619590E+02
  0
LINE
  8
0
 62
4
 10
-6.10000098E+01
 20
-1.29481962E+02
 11
-5.60000098E+01
 21
-1.29481962E+02
  0
LINE
  8
0
 62
4
 10
-2.65000098E+01
 20
-1.24550649E+02
 11
-8.50000977E+00
 21
-1.24550649E+02
  0
LINE
  8
0
  6
CENTER
 62
6
 10
-3.00000098E+01
 20
-1.09983982E+02
 11
-3.00000098E+01
 21
-1.20483982E+02
  0
LINE
  8
0
 62
4
 10
-2.80000098E+01
 20
-1.12243982E+02
 11
-2.80000098E+01
 21
-1.12616227E+02
  0
LINE
  8
0
 62
4
 10
-3.20000098E+01
 20
-1.12243982E+02
 11
-3.20000098E+01
 21
-1.12616227E+02
  0
LINE
  8
0
 62
4
 10
-2.82700098E+01
 20
-1.11243982E+02
 11
-3.17400098E+01
 21
-1.11243982E+02
  0
LINE
  8
0
 62
4
 10
-2.80000098E+01
 20
-1.12243982E+02
 11
-2.82700098E+01
 21
-1.11243982E+02
  0
LINE
  8
0
 62
4
 10
-3.20000098E+01
 20
-1.12243982E+02
 11
-3.17400098E+01
 21
-1.11243982E+02
  0
LINE
  8
0
 62
6
 10
-2.85000098E+01
 20
-1.11243982E+02
 11
-2.85000098E+01
 21
-1.12616227E+02
  0
LINE
  8
0
 62
6
 10
-3.15000098E+01
 20
-1.11243982E+02
 11
-3.15000098E+01
 21
-1.12616227E+02
  0
LINE
  8
0
 62
4
 10
-2.75000098E+01
 20
-1.17860749E+02
 11
-4.05000098E+01
 21
-1.17860749E+02
  0
LINE
  8
0
 62
4
 10
-2.65000098E+01
 20
-1.12616227E+02
 11
-4.15000098E+01
 21
-1.12616227E+02
  0
LINE
  8
0
  6
CENTER
 62
6
 10
-3.80000098E+01
 20
-1.09983982E+02
 11
-3.80000098E+01
 21
-1.20483982E+02
  0
LINE
  8
0
 62
6
 10
-3.95000098E+01
 20
-1.11243982E+02
 11
-3.95000098E+01
 21
-1.12616227E+02
  0
LINE
  8
0
 62
4
 10
-3.60000098E+01
 20
-1.12243982E+02
 11
-3.60000098E+01
 21
-1.12616227E+02
  0
LINE
  8
0
 62
4
 10
-4.00000098E+01
 20
-1.12243982E+02
 11
-4.00000098E+01
 21
-1.12616227E+02
  0
LINE
  8
0
 62
4
 10
-3.62700098E+01
 20
-1.11243982E+02
 11
-3.97400098E+01
 21
-1.11243982E+02
  0
LINE
  8
0
 62
4
 10
-3.60000098E+01
 20
-1.12243982E+02
 11
-3.62700098E+01
 21
-1.11243982E+02
  0
LINE
  8
0
 62
4
 10
-4.00000098E+01
 20
-1.12243982E+02
 11
-3.97400098E+01
 21
-1.11243982E+02
  0
LINE
  8
0
 62
6
 10
-3.65000098E+01
 20
-1.11243982E+02
 11
-3.65000098E+01
 21
-1.12616227E+02
  0
LINE
  8
0
 62
4
 10
-3.00000098E+01
 20
-1.49120377E+02
 11
-3.00000098E+01
 21
-1.49609451E+02
  0
LINE
  8
0
 62
4
 10
-3.80000098E+01
 20
-1.49609451E+02
 11
-3.80000098E+01
 21
-1.49120377E+02
  0
LINE
  8
0
 62
4
 10
-3.06000098E+01
 20
-1.49609451E+02
 11
-3.06000098E+01
 21
-1.51533408E+02
  0
LINE
  8
0
 62
4
 10
-3.74000098E+01
 20
-1.51533408E+02
 11
-3.74000098E+01
 21
-1.49609451E+02
  0
LINE
  8
0
  6
CENTER
 62
6
 10
-3.40000098E+01
 20
-1.05416521E+02
 11
-3.40000098E+01
 21
-1.59134040E+02
  0
LINE
  8
0
 62
4
 10
-5.05000098E+01
 20
-1.38042072E+02
 11
-4.15000098E+01
 21
-1.38042072E+02
  0
LINE
  8
0
 62
4
 10
-6.10000098E+01
 20
-1.23903671E+02
 11
-6.10000098E+01
 21
-1.38181007E+02
  0
LINE
  8
0
 62
4
 10
-5.60000098E+01
 20
-1.23903671E+02
 11
-5.60000098E+01
 21
-1.38181007E+02
  0
LINE
  8
0
 62
4
 10
-5.60000098E+01
 20
-1.24792072E+02
 11
-5.10000098E+01
 21
-1.24792072E+02
  0
LINE
  8
0
 62
4
 10
-5.60000098E+01
 20
-1.37292072E+02
 11
-5.10000098E+01
 21
-1.37292072E+02
  0
LINE
  8
0
 62
4
 10
-5.45000098E+01
 20
-1.24792072E+02
 11
-5.45000098E+01
 21
-1.37292072E+02
  0
LINE
  8
0
 62
4
 10
-5.45000098E+01
 20
-1.25292072E+02
 11
-5.10000098E+01
 21
-1.25292072E+02
  0
LINE
  8
0
 62
4
 10
-5.45000098E+01
 20
-1.36792072E+02
 11
-5.10000098E+01
 21
-1.36792072E+02
  0
LINE
  8
0
 62
4
 10
-2.65000098E+01
 20
-1.42327728E+02
 11
-2.65000098E+01
 21
-1.12616227E+02
  0
LINE
  8
0
 62
4
 10
-4.15000098E+01
 20
-1.22457722E+02
 11
-2.65000098E+01
 21
-1.22457722E+02
  0
LINE
  8
0
 62
4
 10
-4.15000098E+01
 20
-1.37129936E+02
 11
-2.65000098E+01
 21
-1.37129936E+02
  0
LINE
  8
0
 62
4
 10
-6.10000098E+01
 20
-1.23903671E+02
 11
-5.60000098E+01
 21
-1.23903671E+02
  0
LINE
  8
0
 62
4
 10
-7.00000977E+00
 20
-1.26051152E+02
 11
-7.00000977E+00
 21
-1.49179715E+02
  0
LINE
  8
0
 62
4
 10
-2.45000098E+01
 20
-1.25699219E+02
 11
-2.45000098E+01
 21
-1.45115670E+02
  0
LINE
  8
0
 62
4
 10
-4.60000098E+01
 20
-1.49179715E+02
 11
-4.60000098E+01
 21
-1.38042072E+02
  0
LINE
  8
0
 62
4
 10
-4.35000098E+01
 20
-1.38042072E+02
 11
-4.35000098E+01
 21
-1.45115670E+02
  0
LINE
  8
0
 62
4
 10
-4.15000098E+01
 20
-1.12616227E+02
 11
-4.15000098E+01
 21
-1.42327728E+02
  0
LINE
  8
0
 62
4
 10
-4.35000098E+01
 20
-1.44284024E+02
 11
-2.45000098E+01
 21
-1.44284024E+02
  0
LINE
  8
0
 62
4
 10
-4.45000098E+01
 20
-1.47561039E+02
 11
-8.50000977E+00
 21
-1.47561039E+02
  0
LINE
  8
0
 62
4
 10
-2.45000098E+01
 20
-1.25699219E+02
 11
-2.65000098E+01
 21
-1.25699219E+02
  0
ARC
  8
0
 62
4
 10
-8.50051355E+00
 20
-1.26051152E+02
 40
1.50050386E+00
 50
1.92364101E-02
 51
8.99807637E+01
  0
ARC
  8
0
 62
4
 10
-5.05005094E+01
 20
-1.37542572E+02
 40
4.99500622E-01
 50
1.79942690E+02
 51
2.70057311E+02
  0
LINE
  8
0
 62
4
 10
2.25140046E+02
 20
-2.75248490E+02
 11
2.25500046E+02
 21
-2.76226637E+02
  0
LINE
  8
0
 62
4
 10
2.18860046E+02
 20
-2.75248490E+02
 11
2.18500046E+02
 21
-2.76226637E+02
  0
POLYLINE
  8
0
 62
4
 66
1
  0
VERTEX
  8
0
 62
4
 10
2.18540795E+02
 20
-2.76115919E+02
  0
VERTEX
  8
0
 62
4
 10
2.18507146E+02
 20
-2.76180309E+02
  0
VERTEX
  8
0
 62
4
 10
2.18501169E+02
 20
-2.76245067E+02
  0
VERTEX
  8
0
 62
4
 10
2.18522910E+02
 20
-2.76309678E+02
  0
VERTEX
  8
0
 62
4
 10
2.18572198E+02
 20
-2.76373632E+02
  0
VERTEX
  8
0
 62
4
 10
2.18648642E+02
 20
-2.76436421E+02
  0
VERTEX
  8
0
 62
4
 10
2.18751636E+02
 20
-2.76497548E+02
  0
VERTEX
  8
0
 62
4
 10
2.18880365E+02
 20
-2.76556529E+02
  0
VERTEX
  8
0
 62
4
 10
2.19033809E+02
 20
-2.76612896E+02
  0
VERTEX
  8
0
 62
4
 10
2.19210752E+02
 20
-2.76666204E+02
  0
VERTEX
  8
0
 62
4
 10
2.19409792E+02
 20
-2.76716029E+02
  0
VERTEX
  8
0
 62
4
 10
2.19629352E+02
 20
-2.76761977E+02
  0
VERTEX
  8
0
 62
4
 10
2.19867694E+02
 20
-2.76803684E+02
  0
VERTEX
  8
0
 62
4
 10
2.20122928E+02
 20
-2.76840819E+02
  0
VERTEX
  8
0
 62
4
 10
2.20393034E+02
 20
-2.76873089E+02
  0
VERTEX
  8
0
 62
4
 10
2.20675870E+02
 20
-2.76900237E+02
  0
VERTEX
  8
0
 62
4
 10
2.20969197E+02
 20
-2.76922050E+02
  0
VERTEX
  8
0
 62
4
 10
2.21270691E+02
 20
-2.76938352E+02
  0
VERTEX
  8
0
 62
4
 10
2.21577962E+02
 20
-2.76949017E+02
  0
VERTEX
  8
0
 62
4
 10
2.21888578E+02
 20
-2.76953959E+02
  0
VERTEX
  8
0
 62
4
 10
2.22200076E+02
 20
-2.76953139E+02
  0
VERTEX
  8
0
 62
4
 10
2.22509990E+02
 20
-2.76946563E+02
  0
VERTEX
  8
0
 62
4
 10
2.22815864E+02
 20
-2.76934284E+02
  0
VERTEX
  8
0
 62
4
 10
2.23115275E+02
 20
-2.76916398E+02
  0
VERTEX
  8
0
 62
4
 10
2.23405850E+02
 20
-2.76893049E+02
  0
VERTEX
  8
0
 62
4
 10
2.23685289E+02
 20
-2.76864420E+02
  0
VERTEX
  8
0
 62
4
 10
2.23951377E+02
 20
-2.76830738E+02
  0
VERTEX
  8
0
 62
4
 10
2.24202006E+02
 20
-2.76792270E+02
  0
VERTEX
  8
0
 62
4
 10
2.24435191E+02
 20
-2.76749322E+02
  0
VERTEX
  8
0
 62
4
 10
2.24649084E+02
 20
-2.76702232E+02
  0
VERTEX
  8
0
 62
4
 10
2.24841991E+02
 20
-2.76651375E+02
  0
VERTEX
  8
0
 62
4
 10
2.25012383E+02
 20
-2.76597153E+02
  0
VERTEX
  8
0
 62
4
 10
2.25158911E+02
 20
-2.76539996E+02
  0
VERTEX
  8
0
 62
4
 10
2.25280414E+02
 20
-2.76480356E+02
  0
VERTEX
  8
0
 62
4
 10
2.25375930E+02
 20
-2.76418706E+02
  0
VERTEX
  8
0
 62
4
 10
2.25444700E+02
 20
-2.76355535E+02
  0
VERTEX
  8
0
 62
4
 10
2.25486182E+02
 20
-2.76291342E+02
  0
VERTEX
  8
0
 62
4
 10
2.25500046E+02
 20
-2.76226637E+02
  0
SEQEND
  8
0
  0
POLYLINE
  8
0
 62
4
 66
1
  0
VERTEX
  8
0
 62
4
 10
2.25140046E+02
 20
-2.75248490E+02
  0
VERTEX
  8
0
 62
4
 10
2.25128097E+02
 20
-2.75191591E+02
  0
VERTEX
  8
0
 62
4
 10
2.25092342E+02
 20
-2.75135125E+02
  0
VERTEX
  8
0
 62
4
 10
2.25033053E+02
 20
-2.75079522E+02
  0
VERTEX
  8
0
 62
4
 10
2.24950681E+02
 20
-2.75025205E+02
  0
VERTEX
  8
0
 62
4
 10
2.24845852E+02
 20
-2.74972587E+02
  0
VERTEX
  8
0
 62
4
 10
2.24719366E+02
 20
-2.74922069E+02
  0
VERTEX
  8
0
 62
4
 10
2.24572183E+02
 20
-2.74874035E+02
  0
VERTEX
  8
0
 62
4
 10
2.24405426E+02
 20
-2.74828851E+02
  0
VERTEX
  8
0
 62
4
 10
2.24220361E+02
 20
-2.74786860E+02
  0
VERTEX
  8
0
 62
4
 10
2.24018399E+02
 20
-2.74748383E+02
  0
VERTEX
  8
0
 62
4
 10
2.23801076E+02
 20
-2.74713713E+02
  0
VERTEX
  8
0
 62
4
 10
2.23570046E+02
 20
-2.74683112E+02
  0
VERTEX
  8
0
 62
4
 10
2.23327067E+02
 20
-2.74656814E+02
  0
VERTEX
  8
0
 62
4
 10
2.23073989E+02
 20
-2.74635019E+02
  0
VERTEX
  8
0
 62
4
 10
2.22812738E+02
 20
-2.74617892E+02
  0
VERTEX
  8
0
 62
4
 10
2.22545301E+02
 20
-2.74605565E+02
  0
VERTEX
  8
0
 62
4
 10
2.22273715E+02
 20
-2.74598132E+02
  0
VERTEX
  8
0
 62
4
 10
2.22000046E+02
 20
-2.74595647E+02
  0
VERTEX
  8
0
 62
4
 10
2.21726377E+02
 20
-2.74598132E+02
  0
VERTEX
  8
0
 62
4
 10
2.21454791E+02
 20
-2.74605565E+02
  0
VERTEX
  8
0
 62
4
 10
2.21187354E+02
 20
-2.74617892E+02
  0
VERTEX
  8
0
 62
4
 10
2.20926103E+02
 20
-2.74635019E+02
  0
VERTEX
  8
0
 62
4
 10
2.20673025E+02
 20
-2.74656814E+02
  0
VERTEX
  8
0
 62
4
 10
2.20430046E+02
 20
-2.74683112E+02
  0
VERTEX
  8
0
 62
4
 10
2.20199016E+02
 20
-2.74713713E+02
  0
VERTEX
  8
0
 62
4
 10
2.19981693E+02
 20
-2.74748383E+02
  0
VERTEX
  8
0
 62
4
 10
2.19779731E+02
 20
-2.74786860E+02
  0
VERTEX
  8
0
 62
4
 10
2.19594666E+02
 20
-2.74828851E+02
  0
VERTEX
  8
0
 62
4
 10
2.19427909E+02
 20
-2.74874035E+02
  0
VERTEX
  8
0
 62
4
 10
2.19280726E+02
 20
-2.74922069E+02
  0
VERTEX
  8
0
 62
4
 10
2.19154240E+02
 20
-2.74972587E+02
  0
VERTEX
  8
0
 62
4
 10
2.19049411E+02
 20
-2.75025205E+02
  0
VERTEX
  8
0
 62
4
 10
2.18967039E+02
 20
-2.75079522E+02
  0
VERTEX
  8
0
 62
4
 10
2.18907750E+02
 20
-2.75135125E+02
  0
VERTEX
  8
0
 62
4
 10
2.18871995E+02
 20
-2.75191591E+02
  0
VERTEX
  8
0
 62
4
 10
2.18860046E+02
 20
-2.75248490E+02
  0
VERTEX
  8
0
 62
4
 10
2.18871995E+02
 20
-2.75305389E+02
  0
VERTEX
  8
0
 62
4
 10
2.18907750E+02
 20
-2.75361855E+02
  0
VERTEX
  8
0
 62
4
 10
2.18967039E+02
 20
-2.75417458E+02
  0
VERTEX
  8
0
 62
4
 10
2.19049411E+02
 20
-2.75471775E+02
  0
VERTEX
  8
0
 62
4
 10
2.19154240E+02
 20
-2.75524393E+02
  0
VERTEX
  8
0
 62
4
 10
2.19280726E+02
 20
-2.75574911E+02
  0
VERTEX
  8
0
 62
4
 10
2.19427909E+02
 20
-2.75622945E+02
  0
VERTEX
  8
0
 62
4
 10
2.19594666E+02
 20
-2.75668129E+02
  0
VERTEX
  8
0
 62
4
 10
2.19779731E+02
 20
-2.75710120E+02
  0
VERTEX
  8
0
 62
4
 10
2.19981693E+02
 20
-2.75748597E+02
  0
VERTEX
  8
0
 62
4
 10
2.20199016E+02
 20
-2.75783267E+02
  0
VERTEX
  8
0
 62
4
 10
2.20430046E+02
 20
-2.75813868E+02
  0
VERTEX
  8
0
 62
4
 10
2.20673025E+02
 20
-2.75840166E+02
  0
VERTEX
  8
0
 62
4
 10
2.20926103E+02
 20
-2.75861961E+02
  0
VERTEX
  8
0
 62
4
 10
2.21187354E+02
 20
-2.75879088E+02
  0
VERTEX
  8
0
 62
4
 10
2.21454791E+02
 20
-2.75891415E+02
  0
VERTEX
  8
0
 62
4
 10
2.21726377E+02
 20
-2.75898848E+02
  0
VERTEX
  8
0
 62
4
 10
2.22000046E+02
 20
-2.75901333E+02
  0
VERTEX
  8
0
 62
4
 10
2.22273715E+02
 20
-2.75898848E+02
  0
VERTEX
  8
0
 62
4
 10
2.22545301E+02
 20
-2.75891415E+02
  0
VERTEX
  8
0
 62
4
 10
2.22812738E+02
 20
-2.75879088E+02
  0
VERTEX
  8
0
 62
4
 10
2.23073989E+02
 20
-2.75861961E+02
  0
VERTEX
  8
0
 62
4
 10
2.23327067E+02
 20
-2.75840166E+02
  0
VERTEX
  8
0
 62
4
 10
2.23570046E+02
 20
-2.75813868E+02
  0
VERTEX
  8
0
 62
4
 10
2.23801076E+02
 20
-2.75783267E+02
  0
VERTEX
  8
0
 62
4
 10
2.24018399E+02
 20
-2.75748597E+02
  0
VERTEX
  8
0
 62
4
 10
2.24220361E+02
 20
-2.75710120E+02
  0
VERTEX
  8
0
 62
4
 10
2.24405426E+02
 20
-2.75668129E+02
  0
VERTEX
  8
0
 62
4
 10
2.24572183E+02
 20
-2.75622945E+02
  0
VERTEX
  8
0
 62
4
 10
2.24719366E+02
 20
-2.75574911E+02
  0
VERTEX
  8
0
 62
4
 10
2.24845852E+02
 20
-2.75524393E+02
  0
VERTEX
  8
0
 62
4
 10
2.24950681E+02
 20
-2.75471775E+02
  0
VERTEX
  8
0
 62
4
 10
2.25033053E+02
 20
-2.75417458E+02
  0
VERTEX
  8
0
 62
4
 10
2.25092342E+02
 20
-2.75361855E+02
  0
VERTEX
  8
0
 62
4
 10
2.25128097E+02
 20
-2.75305389E+02
  0
VERTEX
  8
0
 62
4
 10
2.25140046E+02
 20
-2.75248490E+02
  0
SEQEND
  8
0
  0
LINE
  8
0
  6
CENTER
 62
6
 10
2.22000046E+02
 20
-2.73165524E+02
 11
2.22000046E+02
 21
-2.75248490E+02
  0
LINE
  8
0
 62
4
 10
2.30500046E+02
 20
-2.74196662E+02
 11
2.12500046E+02
 21
-2.74196662E+02
  0
ARC
  8
0
 62
4
 10
2.48500546E+02
 20
-2.79701298E+02
 40
1.49950029E+00
 50
3.59980903E+02
 51
9.00190969E+01
  0
LINE
  8
0
 62
4
 10
2.48500046E+02
 20
-2.78201798E+02
 11
2.12500046E+02
 21
-2.78201798E+02
  0
ARC
  8
0
 62
4
 10
2.12499546E+02
 20
-2.79701298E+02
 40
1.49950029E+00
 50
8.99809029E+01
 51
1.80019097E+02
  0
LINE
  8
0
 62
4
 10
2.47000046E+02
 20
-2.96682647E+02
 11
2.50000046E+02
 21
-2.93393792E+02
  0
LINE
  8
0
 62
4
 10
2.14000046E+02
 20
-2.96682647E+02
 11
2.11000046E+02
 21
-2.93393792E+02
  0
LINE
  8
0
 62
4
 10
2.30500046E+02
 20
-2.96682647E+02
 11
2.14000046E+02
 21
-2.96682647E+02
  0
LINE
  8
0
 62
4
 10
2.47000046E+02
 20
-2.96682647E+02
 11
2.45500046E+02
 21
-2.96682647E+02
  0
POLYLINE
  8
0
 62
6
 66
1
  0
VERTEX
  8
0
 62
6
 10
2.43500046E+02
 20
-3.04878282E+02
  0
VERTEX
  8
0
 62
6
 10
2.43494338E+02
 20
-3.04750405E+02
  0
VERTEX
  8
0
 62
6
 10
2.43477258E+02
 20
-3.04623502E+02
  0
VERTEX
  8
0
 62
6
 10
2.43448935E+02
 20
-3.04498537E+02
  0
VERTEX
  8
0
 62
6
 10
2.43409585E+02
 20
-3.04376463E+02
  0
VERTEX
  8
0
 62
6
 10
2.43359508E+02
 20
-3.04258207E+02
  0
VERTEX
  8
0
 62
6
 10
2.43299084E+02
 20
-3.04144671E+02
  0
VERTEX
  8
0
 62
6
 10
2.43228774E+02
 20
-3.04036718E+02
  0
VERTEX
  8
0
 62
6
 10
2.43149113E+02
 20
-3.03935170E+02
  0
VERTEX
  8
0
 62
6
 10
2.43060706E+02
 20
-3.03840800E+02
  0
VERTEX
  8
0
 62
6
 10
2.42964227E+02
 20
-3.03754325E+02
  0
VERTEX
  8
0
 62
6
 10
2.42860411E+02
 20
-3.03676405E+02
  0
VERTEX
  8
0
 62
6
 10
2.42750046E+02
 20
-3.03607631E+02
  0
VERTEX
  8
0
 62
6
 10
2.42633973E+02
 20
-3.03548528E+02
  0
VERTEX
  8
0
 62
6
 10
2.42513076E+02
 20
-3.03499545E+02
  0
VERTEX
  8
0
 62
6
 10
2.42388275E+02
 20
-3.03461055E+02
  0
VERTEX
  8
0
 62
6
 10
2.42260518E+02
 20
-3.03433351E+02
  0
VERTEX
  8
0
 62
6
 10
2.42130780E+02
 20
-3.03416644E+02
  0
VERTEX
  8
0
 62
6
 10
2.42000046E+02
 20
-3.03411061E+02
  0
VERTEX
  8
0
 62
6
 10
2.41869312E+02
 20
-3.03416644E+02
  0
VERTEX
  8
0
 62
6
 10
2.41739574E+02
 20
-3.03433351E+02
  0
VERTEX
  8
0
 62
6
 10
2.41611817E+02
 20
-3.03461055E+02
  0
VERTEX
  8
0
 62
6
 10
2.41487016E+02
 20
-3.03499545E+02
  0
VERTEX
  8
0
 62
6
 10
2.41366119E+02
 20
-3.03548528E+02
  0
VERTEX
  8
0
 62
6
 10
2.41250046E+02
 20
-3.03607631E+02
  0
VERTEX
  8
0
 62
6
 10
2.41139681E+02
 20
-3.03676405E+02
  0
VERTEX
  8
0
 62
6
 10
2.41035865E+02
 20
-3.03754325E+02
  0
VERTEX
  8
0
 62
6
 10
2.40939386E+02
 20
-3.03840800E+02
  0
VERTEX
  8
0
 62
6
 10
2.40850979E+02
 20
-3.03935170E+02
  0
VERTEX
  8
0
 62
6
 10
2.40771318E+02
 20
-3.04036718E+02
  0
VERTEX
  8
0
 62
6
 10
2.40701008E+02
 20
-3.04144671E+02
  0
VERTEX
  8
0
 62
6
 10
2.40640584E+02
 20
-3.04258207E+02
  0
VERTEX
  8
0
 62
6
 10
2.40590507E+02
 20
-3.04376463E+02
  0
VERTEX
  8
0
 62
6
 10
2.40551157E+02
 20
-3.04498537E+02
  0
VERTEX
  8
0
 62
6
 10
2.40522834E+02
 20
-3.04623502E+02
  0
VERTEX
  8
0
 62
6
 10
2.40505754E+02
 20
-3.04750405E+02
  0
VERTEX
  8
0
 62
6
 10
2.40500046E+02
 20
-3.04878282E+02
  0
VERTEX
  8
0
 62
6
 10
2.40505754E+02
 20
-3.05006159E+02
  0
VERTEX
  8
0
 62
6
 10
2.40522834E+02
 20
-3.05133062E+02
  0
VERTEX
  8
0
 62
6
 10
2.40551157E+02
 20
-3.05258027E+02
  0
VERTEX
  8
0
 62
6
 10
2.40590507E+02
 20
-3.05380101E+02
  0
VERTEX
  8
0
 62
6
 10
2.40640584E+02
 20
-3.05498357E+02
  0
VERTEX
  8
0
 62
6
 10
2.40701008E+02
 20
-3.05611893E+02
  0
VERTEX
  8
0
 62
6
 10
2.40771318E+02
 20
-3.05719846E+02
  0
VERTEX
  8
0
 62
6
 10
2.40850979E+02
 20
-3.05821394E+02
  0
VERTEX
  8
0
 62
6
 10
2.40939386E+02
 20
-3.05915764E+02
  0
VERTEX
  8
0
 62
6
 10
2.41035865E+02
 20
-3.06002239E+02
  0
VERTEX
  8
0
 62
6
 10
2.41139681E+02
 20
-3.06080159E+02
  0
VERTEX
  8
0
 62
6
 10
2.41250046E+02
 20
-3.06148933E+02
  0
VERTEX
  8
0
 62
6
 10
2.41366119E+02
 20
-3.06208036E+02
  0
VERTEX
  8
0
 62
6
 10
2.41487016E+02
 20
-3.06257019E+02
  0
VERTEX
  8
0
 62
6
 10
2.41611817E+02
 20
-3.06295509E+02
  0
VERTEX
  8
0
 62
6
 10
2.41739574E+02
 20
-3.06323213E+02
  0
VERTEX
  8
0
 62
6
 10
2.41869312E+02
 20
-3.06339920E+02
  0
VERTEX
  8
0
 62
6
 10
2.42000046E+02
 20
-3.06345503E+02
  0
VERTEX
  8
0
 62
6
 10
2.42130780E+02
 20
-3.06339920E+02
  0
VERTEX
  8
0
 62
6
 10
2.42260518E+02
 20
-3.06323213E+02
  0
VERTEX
  8
0
 62
6
 10
2.42388275E+02
 20
-3.06295509E+02
  0
VERTEX
  8
0
 62
6
 10
2.42513076E+02
 20
-3.06257019E+02
  0
VERTEX
  8
0
 62
6
 10
2.42633973E+02
 20
-3.06208036E+02
  0
VERTEX
  8
0
 62
6
 10
2.42750046E+02
 20
-3.06148933E+02
  0
VERTEX
  8
0
 62
6
 10
2.42860411E+02
 20
-3.06080159E+02
  0
VERTEX
  8
0
 62
6
 10
2.42964227E+02
 20
-3.06002239E+02
  0
VERTEX
  8
0
 62
6
 10
2.43060706E+02
 20
-3.05915764E+02
  0
VERTEX
  8
0
 62
6
 10
2.43149113E+02
 20
-3.05821394E+02
  0
VERTEX
  8
0
 62
6
 10
2.43228774E+02
 20
-3.05719846E+02
  0
VERTEX
  8
0
 62
6
 10
2.43299084E+02
 20
-3.05611893E+02
  0
VERTEX
  8
0
 62
6
 10
2.43359508E+02
 20
-3.05498357E+02
  0
VERTEX
  8
0
 62
6
 10
2.43409585E+02
 20
-3.05380101E+02
  0
VERTEX
  8
0
 62
6
 10
2.43448935E+02
 20
-3.05258027E+02
  0
VERTEX
  8
0
 62
6
 10
2.43477258E+02
 20
-3.05133062E+02
  0
VERTEX
  8
0
 62
6
 10
2.43494338E+02
 20
-3.05006159E+02
  0
VERTEX
  8
0
 62
6
 10
2.43500046E+02
 20
-3.04878282E+02
  0
SEQEND
  8
0
  0
POLYLINE
  8
0
 62
4
 66
1
  0
VERTEX
  8
0
 62
4
 10
2.43735046E+02
 20
-3.04883173E+02
  0
VERTEX
  8
0
 62
4
 10
2.43728444E+02
 20
-3.04735262E+02
  0
VERTEX
  8
0
 62
4
 10
2.43708687E+02
 20
-3.04588477E+02
  0
VERTEX
  8
0
 62
4
 10
2.43675927E+02
 20
-3.04443935E+02
  0
VERTEX
  8
0
 62
4
 10
2.43630413E+02
 20
-3.04302735E+02
  0
VERTEX
  8
0
 62
4
 10
2.43572490E+02
 20
-3.04165953E+02
  0
VERTEX
  8
0
 62
4
 10
2.43502600E+02
 20
-3.04034630E+02
  0
VERTEX
  8
0
 62
4
 10
2.43421275E+02
 20
-3.03909764E+02
  0
VERTEX
  8
0
 62
4
 10
2.43329133E+02
 20
-3.03792307E+02
  0
VERTEX
  8
0
 62
4
 10
2.43226876E+02
 20
-3.03683152E+02
  0
VERTEX
  8
0
 62
4
 10
2.43115283E+02
 20
-3.03583130E+02
  0
VERTEX
  8
0
 62
4
 10
2.42995201E+02
 20
-3.03493001E+02
  0
VERTEX
  8
0
 62
4
 10
2.42867546E+02
 20
-3.03413453E+02
  0
VERTEX
  8
0
 62
4
 10
2.42733289E+02
 20
-3.03345091E+02
  0
VERTEX
  8
0
 62
4
 10
2.42593451E+02
 20
-3.03288434E+02
  0
VERTEX
  8
0
 62
4
 10
2.42449097E+02
 20
-3.03243914E+02
  0
VERTEX
  8
0
 62
4
 10
2.42301326E+02
 20
-3.03211869E+02
  0
VERTEX
  8
0
 62
4
 10
2.42151261E+02
 20
-3.03192545E+02
  0
VERTEX
  8
0
 62
4
 10
2.42000046E+02
 20
-3.03186087E+02
  0
VERTEX
  8
0
 62
4
 10
2.41848831E+02
 20
-3.03192545E+02
  0
VERTEX
  8
0
 62
4
 10
2.41698766E+02
 20
-3.03211869E+02
  0
VERTEX
  8
0
 62
4
 10
2.41550995E+02
 20
-3.03243914E+02
  0
VERTEX
  8
0
 62
4
 10
2.41406641E+02
 20
-3.03288434E+02
  0
VERTEX
  8
0
 62
4
 10
2.41266803E+02
 20
-3.03345091E+02
  0
VERTEX
  8
0
 62
4
 10
2.41132546E+02
 20
-3.03413453E+02
  0
VERTEX
  8
0
 62
4
 10
2.41004891E+02
 20
-3.03493001E+02
  0
VERTEX
  8
0
 62
4
 10
2.40884809E+02
 20
-3.03583130E+02
  0
VERTEX
  8
0
 62
4
 10
2.40773216E+02
 20
-3.03683152E+02
  0
VERTEX
  8
0
 62
4
 10
2.40670959E+02
 20
-3.03792307E+02
  0
VERTEX
  8
0
 62
4
 10
2.40578817E+02
 20
-3.03909764E+02
  0
VERTEX
  8
0
 62
4
 10
2.40497492E+02
 20
-3.04034630E+02
  0
VERTEX
  8
0
 62
4
 10
2.40427602E+02
 20
-3.04165953E+02
  0
VERTEX
  8
0
 62
4
 10
2.40369679E+02
 20
-3.04302735E+02
  0
VERTEX
  8
0
 62
4
 10
2.40324165E+02
 20
-3.04443935E+02
  0
VERTEX
  8
0
 62
4
 10
2.40291405E+02
 20
-3.04588477E+02
  0
VERTEX
  8
0
 62
4
 10
2.40271648E+02
 20
-3.04735262E+02
  0
VERTEX
  8
0
 62
4
 10
2.40265046E+02
 20
-3.04883173E+02
  0
VERTEX
  8
0
 62
4
 10
2.40271648E+02
 20
-3.05031084E+02
  0
VERTEX
  8
0
 62
4
 10
2.40291405E+02
 20
-3.05177869E+02
  0
VERTEX
  8
0
 62
4
 10
2.40324165E+02
 20
-3.05322411E+02
  0
VERTEX
  8
0
 62
4
 10
2.40369679E+02
 20
-3.05463611E+02
  0
VERTEX
  8
0
 62
4
 10
2.40427602E+02
 20
-3.05600393E+02
  0
VERTEX
  8
0
 62
4
 10
2.40497492E+02
 20
-3.05731716E+02
  0
VERTEX
  8
0
 62
4
 10
2.40578817E+02
 20
-3.05856582E+02
  0
VERTEX
  8
0
 62
4
 10
2.40670959E+02
 20
-3.05974039E+02
  0
VERTEX
  8
0
 62
4
 10
2.40773216E+02
 20
-3.06083194E+02
  0
VERTEX
  8
0
 62
4
 10
2.40884809E+02
 20
-3.06183216E+02
  0
VERTEX
  8
0
 62
4
 10
2.41004891E+02
 20
-3.06273345E+02
  0
VERTEX
  8
0
 62
4
 10
2.41132546E+02
 20
-3.06352893E+02
  0
VERTEX
  8
0
 62
4
 10
2.41266803E+02
 20
-3.06421255E+02
  0
VERTEX
  8
0
 62
4
 10
2.41406641E+02
 20
-3.06477912E+02
  0
VERTEX
  8
0
 62
4
 10
2.41550995E+02
 20
-3.06522432E+02
  0
VERTEX
  8
0
 62
4
 10
2.41698766E+02
 20
-3.06554477E+02
  0
VERTEX
  8
0
 62
4
 10
2.41848831E+02
 20
-3.06573801E+02
  0
VERTEX
  8
0
 62
4
 10
2.42000046E+02
 20
-3.06580259E+02
  0
VERTEX
  8
0
 62
4
 10
2.42151261E+02
 20
-3.06573801E+02
  0
VERTEX
  8
0
 62
4
 10
2.42301326E+02
 20
-3.06554477E+02
  0
VERTEX
  8
0
 62
4
 10
2.42449097E+02
 20
-3.06522432E+02
  0
VERTEX
  8
0
 62
4
 10
2.42593451E+02
 20
-3.06477912E+02
  0
VERTEX
  8
0
 62
4
 10
2.42733289E+02
 20
-3.06421255E+02
  0
VERTEX
  8
0
 62
4
 10
2.42867546E+02
 20
-3.06352893E+02
  0
VERTEX
  8
0
 62
4
 10
2.42995201E+02
 20
-3.06273345E+02
  0
VERTEX
  8
0
 62
4
 10
2.43115283E+02
 20
-3.06183216E+02
  0
VERTEX
  8
0
 62
4
 10
2.43226876E+02
 20
-3.06083194E+02
  0
VERTEX
  8
0
 62
4
 10
2.43329133E+02
 20
-3.05974039E+02
  0
VERTEX
  8
0
 62
4
 10
2.43421275E+02
 20
-3.05856582E+02
  0
VERTEX
  8
0
 62
4
 10
2.43502600E+02
 20
-3.05731716E+02
  0
VERTEX
  8
0
 62
4
 10
2.43572490E+02
 20
-3.05600393E+02
  0
VERTEX
  8
0
 62
4
 10
2.43630413E+02
 20
-3.05463611E+02
  0
VERTEX
  8
0
 62
4
 10
2.43675927E+02
 20
-3.05322411E+02
  0
VERTEX
  8
0
 62
4
 10
2.43708687E+02
 20
-3.05177869E+02
  0
VERTEX
  8
0
 62
4
 10
2.43728444E+02
 20
-3.05031084E+02
  0
VERTEX
  8
0
 62
4
 10
2.43735046E+02
 20
-3.04883173E+02
  0
SEQEND
  8
0
  0
POLYLINE
  8
0
 62
4
 66
1
  0
VERTEX
  8
0
 62
4
 10
2.42000046E+02
 20
-3.06626665E+02
  0
VERTEX
  8
0
 62
4
 10
2.42174357E+02
 20
-3.06618782E+02
  0
VERTEX
  8
0
 62
4
 10
2.42347342E+02
 20
-3.06595191E+02
  0
VERTEX
  8
0
 62
4
 10
2.42517684E+02
 20
-3.06556073E+02
  0
VERTEX
  8
0
 62
4
 10
2.42684086E+02
 20
-3.06501725E+02
  0
VERTEX
  8
0
 62
4
 10
2.42845283E+02
 20
-3.06432561E+02
  0
VERTEX
  8
0
 62
4
 10
2.43000046E+02
 20
-3.06349108E+02
  0
VERTEX
  8
0
 62
4
 10
2.43147199E+02
 20
-3.06251999E+02
  0
VERTEX
  8
0
 62
4
 10
2.43285621E+02
 20
-3.06141975E+02
  0
VERTEX
  8
0
 62
4
 10
2.43414260E+02
 20
-3.06019873E+02
  0
VERTEX
  8
0
 62
4
 10
2.43532135E+02
 20
-3.05886622E+02
  0
VERTEX
  8
0
 62
4
 10
2.43638350E+02
 20
-3.05743236E+02
  0
VERTEX
  8
0
 62
4
 10
2.43732097E+02
 20
-3.05590806E+02
  0
VERTEX
  8
0
 62
4
 10
2.43812662E+02
 20
-3.05430493E+02
  0
VERTEX
  8
0
 62
4
 10
2.43879431E+02
 20
-3.05263516E+02
  0
VERTEX
  8
0
 62
4
 10
2.43931898E+02
 20
-3.05091147E+02
  0
VERTEX
  8
0
 62
4
 10
2.43969662E+02
 20
-3.04914697E+02
  0
VERTEX
  8
0
 62
4
 10
2.43992435E+02
 20
-3.04735509E+02
  0
VERTEX
  8
0
 62
4
 10
2.44000046E+02
 20
-3.04554947E+02
  0
VERTEX
  8
0
 62
4
 10
2.43992435E+02
 20
-3.04374385E+02
  0
VERTEX
  8
0
 62
4
 10
2.43969662E+02
 20
-3.04195197E+02
  0
VERTEX
  8
0
 62
4
 10
2.43931898E+02
 20
-3.04018747E+02
  0
VERTEX
  8
0
 62
4
 10
2.43879431E+02
 20
-3.03846378E+02
  0
VERTEX
  8
0
 62
4
 10
2.43812662E+02
 20
-3.03679401E+02
  0
VERTEX
  8
0
 62
4
 10
2.43732097E+02
 20
-3.03519088E+02
  0
VERTEX
  8
0
 62
4
 10
2.43638350E+02
 20
-3.03366658E+02
  0
VERTEX
  8
0
 62
4
 10
2.43532135E+02
 20
-3.03223272E+02
  0
VERTEX
  8
0
 62
4
 10
2.43414260E+02
 20
-3.03090021E+02
  0
VERTEX
  8
0
 62
4
 10
2.43285621E+02
 20
-3.02967919E+02
  0
VERTEX
  8
0
 62
4
 10
2.43147199E+02
 20
-3.02857895E+02
  0
VERTEX
  8
0
 62
4
 10
2.43000046E+02
 20
-3.02760786E+02
  0
VERTEX
  8
0
 62
4
 10
2.42845283E+02
 20
-3.02677333E+02
  0
VERTEX
  8
0
 62
4
 10
2.42684086E+02
 20
-3.02608169E+02
  0
VERTEX
  8
0
 62
4
 10
2.42517684E+02
 20
-3.02553821E+02
  0
VERTEX
  8
0
 62
4
 10
2.42347342E+02
 20
-3.02514703E+02
  0
VERTEX
  8
0
 62
4
 10
2.42174357E+02
 20
-3.02491112E+02
  0
VERTEX
  8
0
 62
4
 10
2.42000046E+02
 20
-3.02483229E+02
  0
VERTEX
  8
0
 62
4
 10
2.41825735E+02
 20
-3.02491112E+02
  0
VERTEX
  8
0
 62
4
 10
2.41652750E+02
 20
-3.02514703E+02
  0
VERTEX
  8
0
 62
4
 10
2.41482408E+02
 20
-3.02553821E+02
  0
VERTEX
  8
0
 62
4
 10
2.41316006E+02
 20
-3.02608169E+02
  0
VERTEX
  8
0
 62
4
 10
2.41154809E+02
 20
-3.02677333E+02
  0
VERTEX
  8
0
 62
4
 10
2.41000046E+02
 20
-3.02760786E+02
  0
VERTEX
  8
0
 62
4
 10
2.40852893E+02
 20
-3.02857895E+02
  0
VERTEX
  8
0
 62
4
 10
2.40714471E+02
 20
-3.02967919E+02
  0
VERTEX
  8
0
 62
4
 10
2.40585832E+02
 20
-3.03090021E+02
  0
VERTEX
  8
0
 62
4
 10
2.40467957E+02
 20
-3.03223272E+02
  0
VERTEX
  8
0
 62
4
 10
2.40361742E+02
 20
-3.03366658E+02
  0
VERTEX
  8
0
 62
4
 10
2.40267995E+02
 20
-3.03519088E+02
  0
VERTEX
  8
0
 62
4
 10
2.40187430E+02
 20
-3.03679401E+02
  0
VERTEX
  8
0
 62
4
 10
2.40120661E+02
 20
-3.03846378E+02
  0
VERTEX
  8
0
 62
4
 10
2.40068194E+02
 20
-3.04018747E+02
  0
VERTEX
  8
0
 62
4
 10
2.40030430E+02
 20
-3.04195197E+02
  0
VERTEX
  8
0
 62
4
 10
2.40007657E+02
 20
-3.04374385E+02
  0
VERTEX
  8
0
 62
4
 10
2.40000046E+02
 20
-3.04554947E+02
  0
VERTEX
  8
0
 62
4
 10
2.40007657E+02
 20
-3.04735509E+02
  0
VERTEX
  8
0
 62
4
 10
2.40030430E+02
 20
-3.04914697E+02
  0
VERTEX
  8
0
 62
4
 10
2.40068194E+02
 20
-3.05091147E+02
  0
VERTEX
  8
0
 62
4
 10
2.40120661E+02
 20
-3.05263516E+02
  0
VERTEX
  8
0
 62
4
 10
2.40187430E+02
 20
-3.05430493E+02
  0
VERTEX
  8
0
 62
4
 10
2.40267995E+02
 20
-3.05590806E+02
  0
VERTEX
  8
0
 62
4
 10
2.40361742E+02
 20
-3.05743236E+02
  0
VERTEX
  8
0
 62
4
 10
2.40467957E+02
 20
-3.05886622E+02
  0
VERTEX
  8
0
 62
4
 10
2.40585832E+02
 20
-3.06019873E+02
  0
VERTEX
  8
0
 62
4
 10
2.40714471E+02
 20
-3.06141975E+02
  0
VERTEX
  8
0
 62
4
 10
2.40852893E+02
 20
-3.06251999E+02
  0
VERTEX
  8
0
 62
4
 10
2.41000046E+02
 20
-3.06349108E+02
  0
VERTEX
  8
0
 62
4
 10
2.41154809E+02
 20
-3.06432561E+02
  0
VERTEX
  8
0
 62
4
 10
2.41316006E+02
 20
-3.06501725E+02
  0
VERTEX
  8
0
 62
4
 10
2.41482408E+02
 20
-3.06556073E+02
  0
VERTEX
  8
0
 62
4
 10
2.41652750E+02
 20
-3.06595191E+02
  0
VERTEX
  8
0
 62
4
 10
2.41825735E+02
 20
-3.06618782E+02
  0
VERTEX
  8
0
 62
4
 10
2.42000046E+02
 20
-3.06626665E+02
  0
SEQEND
  8
0
  0
LINE
  8
0
  6
CENTER
 62
6
 10
2.42000046E+02
 20
-3.01956014E+02
 11
2.42000046E+02
 21
-3.07800550E+02
  0
LINE
  8
0
  6
CENTER
 62
6
 10
2.31077778E+02
 20
-3.04878282E+02
 11
2.44922314E+02
 21
-3.04878282E+02
  0
POLYLINE
  8
0
 62
6
 66
1
  0
VERTEX
  8
0
 62
6
 10
2.35500046E+02
 20
-3.04878282E+02
  0
VERTEX
  8
0
 62
6
 10
2.35494338E+02
 20
-3.04750405E+02
  0
VERTEX
  8
0
 62
6
 10
2.35477258E+02
 20
-3.04623502E+02
  0
VERTEX
  8
0
 62
6
 10
2.35448935E+02
 20
-3.04498537E+02
  0
VERTEX
  8
0
 62
6
 10
2.35409585E+02
 20
-3.04376463E+02
  0
VERTEX
  8
0
 62
6
 10
2.35359508E+02
 20
-3.04258207E+02
  0
VERTEX
  8
0
 62
6
 10
2.35299084E+02
 20
-3.04144671E+02
  0
VERTEX
  8
0
 62
6
 10
2.35228774E+02
 20
-3.04036718E+02
  0
VERTEX
  8
0
 62
6
 10
2.35149113E+02
 20
-3.03935170E+02
  0
VERTEX
  8
0
 62
6
 10
2.35060706E+02
 20
-3.03840800E+02
  0
VERTEX
  8
0
 62
6
 10
2.34964227E+02
 20
-3.03754325E+02
  0
VERTEX
  8
0
 62
6
 10
2.34860411E+02
 20
-3.03676405E+02
  0
VERTEX
  8
0
 62
6
 10
2.34750046E+02
 20
-3.03607631E+02
  0
VERTEX
  8
0
 62
6
 10
2.34633973E+02
 20
-3.03548528E+02
  0
VERTEX
  8
0
 62
6
 10
2.34513076E+02
 20
-3.03499545E+02
  0
VERTEX
  8
0
 62
6
 10
2.34388275E+02
 20
-3.03461055E+02
  0
VERTEX
  8
0
 62
6
 10
2.34260518E+02
 20
-3.03433351E+02
  0
VERTEX
  8
0
 62
6
 10
2.34130780E+02
 20
-3.03416644E+02
  0
VERTEX
  8
0
 62
6
 10
2.34000046E+02
 20
-3.03411061E+02
  0
VERTEX
  8
0
 62
6
 10
2.33869312E+02
 20
-3.03416644E+02
  0
VERTEX
  8
0
 62
6
 10
2.33739574E+02
 20
-3.03433351E+02
  0
VERTEX
  8
0
 62
6
 10
2.33611817E+02
 20
-3.03461055E+02
  0
VERTEX
  8
0
 62
6
 10
2.33487016E+02
 20
-3.03499545E+02
  0
VERTEX
  8
0
 62
6
 10
2.33366119E+02
 20
-3.03548528E+02
  0
VERTEX
  8
0
 62
6
 10
2.33250046E+02
 20
-3.03607631E+02
  0
VERTEX
  8
0
 62
6
 10
2.33139681E+02
 20
-3.03676405E+02
  0
VERTEX
  8
0
 62
6
 10
2.33035865E+02
 20
-3.03754325E+02
  0
VERTEX
  8
0
 62
6
 10
2.32939386E+02
 20
-3.03840800E+02
  0
VERTEX
  8
0
 62
6
 10
2.32850979E+02
 20
-3.03935170E+02
  0
VERTEX
  8
0
 62
6
 10
2.32771318E+02
 20
-3.04036718E+02
  0
VERTEX
  8
0
 62
6
 10
2.32701008E+02
 20
-3.04144671E+02
  0
VERTEX
  8
0
 62
6
 10
2.32640584E+02
 20
-3.04258207E+02
  0
VERTEX
  8
0
 62
6
 10
2.32590507E+02
 20
-3.04376463E+02
  0
VERTEX
  8
0
 62
6
 10
2.32551157E+02
 20
-3.04498537E+02
  0
VERTEX
  8
0
 62
6
 10
2.32522834E+02
 20
-3.04623502E+02
  0
VERTEX
  8
0
 62
6
 10
2.32505754E+02
 20
-3.04750405E+02
  0
VERTEX
  8
0
 62
6
 10
2.32500046E+02
 20
-3.04878282E+02
  0
VERTEX
  8
0
 62
6
 10
2.32505754E+02
 20
-3.05006159E+02
  0
VERTEX
  8
0
 62
6
 10
2.32522834E+02
 20
-3.05133062E+02
  0
VERTEX
  8
0
 62
6
 10
2.32551157E+02
 20
-3.05258027E+02
  0
VERTEX
  8
0
 62
6
 10
2.32590507E+02
 20
-3.05380101E+02
  0
VERTEX
  8
0
 62
6
 10
2.32640584E+02
 20
-3.05498357E+02
  0
VERTEX
  8
0
 62
6
 10
2.32701008E+02
 20
-3.05611893E+02
  0
VERTEX
  8
0
 62
6
 10
2.32771318E+02
 20
-3.05719846E+02
  0
VERTEX
  8
0
 62
6
 10
2.32850979E+02
 20
-3.05821394E+02
  0
VERTEX
  8
0
 62
6
 10
2.32939386E+02
 20
-3.05915764E+02
  0
VERTEX
  8
0
 62
6
 10
2.33035865E+02
 20
-3.06002239E+02
  0
VERTEX
  8
0
 62
6
 10
2.33139681E+02
 20
-3.06080159E+02
  0
VERTEX
  8
0
 62
6
 10
2.33250046E+02
 20
-3.06148933E+02
  0
VERTEX
  8
0
 62
6
 10
2.33366119E+02
 20
-3.06208036E+02
  0
VERTEX
  8
0
 62
6
 10
2.33487016E+02
 20
-3.06257019E+02
  0
VERTEX
  8
0
 62
6
 10
2.33611817E+02
 20
-3.06295509E+02
  0
VERTEX
  8
0
 62
6
 10
2.33739574E+02
 20
-3.06323213E+02
  0
VERTEX
  8
0
 62
6
 10
2.33869312E+02
 20
-3.06339920E+02
  0
VERTEX
  8
0
 62
6
 10
2.34000046E+02
 20
-3.06345503E+02
  0
VERTEX
  8
0
 62
6
 10
2.34130780E+02
 20
-3.06339920E+02
  0
VERTEX
  8
0
 62
6
 10
2.34260518E+02
 20
-3.06323213E+02
  0
VERTEX
  8
0
 62
6
 10
2.34388275E+02
 20
-3.06295509E+02
  0
VERTEX
  8
0
 62
6
 10
2.34513076E+02
 20
-3.06257019E+02
  0
VERTEX
  8
0
 62
6
 10
2.34633973E+02
 20
-3.06208036E+02
  0
VERTEX
  8
0
 62
6
 10
2.34750046E+02
 20
-3.06148933E+02
  0
VERTEX
  8
0
 62
6
 10
2.34860411E+02
 20
-3.06080159E+02
  0
VERTEX
  8
0
 62
6
 10
2.34964227E+02
 20
-3.06002239E+02
  0
VERTEX
  8
0
 62
6
 10
2.35060706E+02
 20
-3.05915764E+02
  0
VERTEX
  8
0
 62
6
 10
2.35149113E+02
 20
-3.05821394E+02
  0
VERTEX
  8
0
 62
6
 10
2.35228774E+02
 20
-3.05719846E+02
  0
VERTEX
  8
0
 62
6
 10
2.35299084E+02
 20
-3.05611893E+02
  0
VERTEX
  8
0
 62
6
 10
2.35359508E+02
 20
-3.05498357E+02
  0
VERTEX
  8
0
 62
6
 10
2.35409585E+02
 20
-3.05380101E+02
  0
VERTEX
  8
0
 62
6
 10
2.35448935E+02
 20
-3.05258027E+02
  0
VERTEX
  8
0
 62
6
 10
2.35477258E+02
 20
-3.05133062E+02
  0
VERTEX
  8
0
 62
6
 10
2.35494338E+02
 20
-3.05006159E+02
  0
VERTEX
  8
0
 62
6
 10
2.35500046E+02
 20
-3.04878282E+02
  0
SEQEND
  8
0
  0
POLYLINE
  8
0
 62
4
 66
1
  0
VERTEX
  8
0
 62
4
 10
2.35735046E+02
 20
-3.04883173E+02
  0
VERTEX
  8
0
 62
4
 10
2.35728444E+02
 20
-3.04735262E+02
  0
VERTEX
  8
0
 62
4
 10
2.35708687E+02
 20
-3.04588477E+02
  0
VERTEX
  8
0
 62
4
 10
2.35675927E+02
 20
-3.04443935E+02
  0
VERTEX
  8
0
 62
4
 10
2.35630413E+02
 20
-3.04302735E+02
  0
VERTEX
  8
0
 62
4
 10
2.35572490E+02
 20
-3.04165953E+02
  0
VERTEX
  8
0
 62
4
 10
2.35502600E+02
 20
-3.04034630E+02
  0
VERTEX
  8
0
 62
4
 10
2.35421275E+02
 20
-3.03909764E+02
  0
VERTEX
  8
0
 62
4
 10
2.35329133E+02
 20
-3.03792307E+02
  0
VERTEX
  8
0
 62
4
 10
2.35226876E+02
 20
-3.03683152E+02
  0
VERTEX
  8
0
 62
4
 10
2.35115283E+02
 20
-3.03583130E+02
  0
VERTEX
  8
0
 62
4
 10
2.34995201E+02
 20
-3.03493001E+02
  0
VERTEX
  8
0
 62
4
 10
2.34867546E+02
 20
-3.03413453E+02
  0
VERTEX
  8
0
 62
4
 10
2.34733289E+02
 20
-3.03345091E+02
  0
VERTEX
  8
0
 62
4
 10
2.34593451E+02
 20
-3.03288434E+02
  0
VERTEX
  8
0
 62
4
 10
2.34449097E+02
 20
-3.03243914E+02
  0
VERTEX
  8
0
 62
4
 10
2.34301326E+02
 20
-3.03211869E+02
  0
VERTEX
  8
0
 62
4
 10
2.34151261E+02
 20
-3.03192545E+02
  0
VERTEX
  8
0
 62
4
 10
2.34000046E+02
 20
-3.03186087E+02
  0
VERTEX
  8
0
 62
4
 10
2.33848831E+02
 20
-3.03192545E+02
  0
VERTEX
  8
0
 62
4
 10
2.33698766E+02
 20
-3.03211869E+02
  0
VERTEX
  8
0
 62
4
 10
2.33550995E+02
 20
-3.03243914E+02
  0
VERTEX
  8
0
 62
4
 10
2.33406641E+02
 20
-3.03288434E+02
  0
VERTEX
  8
0
 62
4
 10
2.33266803E+02
 20
-3.03345091E+02
  0
VERTEX
  8
0
 62
4
 10
2.33132546E+02
 20
-3.03413453E+02
  0
VERTEX
  8
0
 62
4
 10
2.33004891E+02
 20
-3.03493001E+02
  0
VERTEX
  8
0
 62
4
 10
2.32884809E+02
 20
-3.03583130E+02
  0
VERTEX
  8
0
 62
4
 10
2.32773216E+02
 20
-3.03683152E+02
  0
VERTEX
  8
0
 62
4
 10
2.32670959E+02
 20
-3.03792307E+02
  0
VERTEX
  8
0
 62
4
 10
2.32578817E+02
 20
-3.03909764E+02
  0
VERTEX
  8
0
 62
4
 10
2.32497492E+02
 20
-3.04034630E+02
  0
VERTEX
  8
0
 62
4
 10
2.32427602E+02
 20
-3.04165953E+02
  0
VERTEX
  8
0
 62
4
 10
2.32369679E+02
 20
-3.04302735E+02
  0
VERTEX
  8
0
 62
4
 10
2.32324165E+02
 20
-3.04443935E+02
  0
VERTEX
  8
0
 62
4
 10
2.32291405E+02
 20
-3.04588477E+02
  0
VERTEX
  8
0
 62
4
 10
2.32271648E+02
 20
-3.04735262E+02
  0
VERTEX
  8
0
 62
4
 10
2.32265046E+02
 20
-3.04883173E+02
  0
VERTEX
  8
0
 62
4
 10
2.32271648E+02
 20
-3.05031084E+02
  0
VERTEX
  8
0
 62
4
 10
2.32291405E+02
 20
-3.05177869E+02
  0
VERTEX
  8
0
 62
4
 10
2.32324165E+02
 20
-3.05322411E+02
  0
VERTEX
  8
0
 62
4
 10
2.32369679E+02
 20
-3.05463611E+02
  0
VERTEX
  8
0
 62
4
 10
2.32427602E+02
 20
-3.05600393E+02
  0
VERTEX
  8
0
 62
4
 10
2.32497492E+02
 20
-3.05731716E+02
  0
VERTEX
  8
0
 62
4
 10
2.32578817E+02
 20
-3.05856582E+02
  0
VERTEX
  8
0
 62
4
 10
2.32670959E+02
 20
-3.05974039E+02
  0
VERTEX
  8
0
 62
4
 10
2.32773216E+02
 20
-3.06083194E+02
  0
VERTEX
  8
0
 62
4
 10
2.32884809E+02
 20
-3.06183216E+02
  0
VERTEX
  8
0
 62
4
 10
2.33004891E+02
 20
-3.06273345E+02
  0
VERTEX
  8
0
 62
4
 10
2.33132546E+02
 20
-3.06352893E+02
  0
VERTEX
  8
0
 62
4
 10
2.33266803E+02
 20
-3.06421255E+02
  0
VERTEX
  8
0
 62
4
 10
2.33406641E+02
 20
-3.06477912E+02
  0
VERTEX
  8
0
 62
4
 10
2.33550995E+02
 20
-3.06522432E+02
  0
VERTEX
  8
0
 62
4
 10
2.33698766E+02
 20
-3.06554477E+02
  0
VERTEX
  8
0
 62
4
 10
2.33848831E+02
 20
-3.06573801E+02
  0
VERTEX
  8
0
 62
4
 10
2.34000046E+02
 20
-3.06580259E+02
  0
VERTEX
  8
0
 62
4
 10
2.34151261E+02
 20
-3.06573801E+02
  0
VERTEX
  8
0
 62
4
 10
2.34301326E+02
 20
-3.06554477E+02
  0
VERTEX
  8
0
 62
4
 10
2.34449097E+02
 20
-3.06522432E+02
  0
VERTEX
  8
0
 62
4
 10
2.34593451E+02
 20
-3.06477912E+02
  0
VERTEX
  8
0
 62
4
 10
2.34733289E+02
 20
-3.06421255E+02
  0
VERTEX
  8
0
 62
4
 10
2.34867546E+02
 20
-3.06352893E+02
  0
VERTEX
  8
0
 62
4
 10
2.34995201E+02
 20
-3.06273345E+02
  0
VERTEX
  8
0
 62
4
 10
2.35115283E+02
 20
-3.06183216E+02
  0
VERTEX
  8
0
 62
4
 10
2.35226876E+02
 20
-3.06083194E+02
  0
VERTEX
  8
0
 62
4
 10
2.35329133E+02
 20
-3.05974039E+02
  0
VERTEX
  8
0
 62
4
 10
2.35421275E+02
 20
-3.05856582E+02
  0
VERTEX
  8
0
 62
4
 10
2.35502600E+02
 20
-3.05731716E+02
  0
VERTEX
  8
0
 62
4
 10
2.35572490E+02
 20
-3.05600393E+02
  0
VERTEX
  8
0
 62
4
 10
2.35630413E+02
 20
-3.05463611E+02
  0
VERTEX
  8
0
 62
4
 10
2.35675927E+02
 20
-3.05322411E+02
  0
VERTEX
  8
0
 62
4
 10
2.35708687E+02
 20
-3.05177869E+02
  0
VERTEX
  8
0
 62
4
 10
2.35728444E+02
 20
-3.05031084E+02
  0
VERTEX
  8
0
 62
4
 10
2.35735046E+02
 20
-3.04883173E+02
  0
SEQEND
  8
0
  0
POLYLINE
  8
0
 62
4
 66
1
  0
VERTEX
  8
0
 62
4
 10
2.34000046E+02
 20
-3.06626665E+02
  0
VERTEX
  8
0
 62
4
 10
2.34174357E+02
 20
-3.06618782E+02
  0
VERTEX
  8
0
 62
4
 10
2.34347342E+02
 20
-3.06595191E+02
  0
VERTEX
  8
0
 62
4
 10
2.34517684E+02
 20
-3.06556073E+02
  0
VERTEX
  8
0
 62
4
 10
2.34684086E+02
 20
-3.06501725E+02
  0
VERTEX
  8
0
 62
4
 10
2.34845283E+02
 20
-3.06432561E+02
  0
VERTEX
  8
0
 62
4
 10
2.35000046E+02
 20
-3.06349108E+02
  0
VERTEX
  8
0
 62
4
 10
2.35147199E+02
 20
-3.06251999E+02
  0
VERTEX
  8
0
 62
4
 10
2.35285621E+02
 20
-3.06141975E+02
  0
VERTEX
  8
0
 62
4
 10
2.35414260E+02
 20
-3.06019873E+02
  0
VERTEX
  8
0
 62
4
 10
2.35532135E+02
 20
-3.05886622E+02
  0
VERTEX
  8
0
 62
4
 10
2.35638350E+02
 20
-3.05743236E+02
  0
VERTEX
  8
0
 62
4
 10
2.35732097E+02
 20
-3.05590806E+02
  0
VERTEX
  8
0
 62
4
 10
2.35812662E+02
 20
-3.05430493E+02
  0
VERTEX
  8
0
 62
4
 10
2.35879431E+02
 20
-3.05263516E+02
  0
VERTEX
  8
0
 62
4
 10
2.35931898E+02
 20
-3.05091147E+02
  0
VERTEX
  8
0
 62
4
 10
2.35969662E+02
 20
-3.04914697E+02
  0
VERTEX
  8
0
 62
4
 10
2.35992435E+02
 20
-3.04735509E+02
  0
VERTEX
  8
0
 62
4
 10
2.36000046E+02
 20
-3.04554947E+02
  0
VERTEX
  8
0
 62
4
 10
2.35992435E+02
 20
-3.04374385E+02
  0
VERTEX
  8
0
 62
4
 10
2.35969662E+02
 20
-3.04195197E+02
  0
VERTEX
  8
0
 62
4
 10
2.35931898E+02
 20
-3.04018747E+02
  0
VERTEX
  8
0
 62
4
 10
2.35879431E+02
 20
-3.03846378E+02
  0
VERTEX
  8
0
 62
4
 10
2.35812662E+02
 20
-3.03679401E+02
  0
VERTEX
  8
0
 62
4
 10
2.35732097E+02
 20
-3.03519088E+02
  0
VERTEX
  8
0
 62
4
 10
2.35638350E+02
 20
-3.03366658E+02
  0
VERTEX
  8
0
 62
4
 10
2.35532135E+02
 20
-3.03223272E+02
  0
VERTEX
  8
0
 62
4
 10
2.35414260E+02
 20
-3.03090021E+02
  0
VERTEX
  8
0
 62
4
 10
2.35285621E+02
 20
-3.02967919E+02
  0
VERTEX
  8
0
 62
4
 10
2.35147199E+02
 20
-3.02857895E+02
  0
VERTEX
  8
0
 62
4
 10
2.35000046E+02
 20
-3.02760786E+02
  0
VERTEX
  8
0
 62
4
 10
2.34845283E+02
 20
-3.02677333E+02
  0
VERTEX
  8
0
 62
4
 10
2.34684086E+02
 20
-3.02608169E+02
  0
VERTEX
  8
0
 62
4
 10
2.34517684E+02
 20
-3.02553821E+02
  0
VERTEX
  8
0
 62
4
 10
2.34347342E+02
 20
-3.02514703E+02
  0
VERTEX
  8
0
 62
4
 10
2.34174357E+02
 20
-3.02491112E+02
  0
VERTEX
  8
0
 62
4
 10
2.34000046E+02
 20
-3.02483229E+02
  0
VERTEX
  8
0
 62
4
 10
2.33825735E+02
 20
-3.02491112E+02
  0
VERTEX
  8
0
 62
4
 10
2.33652750E+02
 20
-3.02514703E+02
  0
VERTEX
  8
0
 62
4
 10
2.33482408E+02
 20
-3.02553821E+02
  0
VERTEX
  8
0
 62
4
 10
2.33316006E+02
 20
-3.02608169E+02
  0
VERTEX
  8
0
 62
4
 10
2.33154809E+02
 20
-3.02677333E+02
  0
VERTEX
  8
0
 62
4
 10
2.33000046E+02
 20
-3.02760786E+02
  0
VERTEX
  8
0
 62
4
 10
2.32852893E+02
 20
-3.02857895E+02
  0
VERTEX
  8
0
 62
4
 10
2.32714471E+02
 20
-3.02967919E+02
  0
VERTEX
  8
0
 62
4
 10
2.32585832E+02
 20
-3.03090021E+02
  0
VERTEX
  8
0
 62
4
 10
2.32467957E+02
 20
-3.03223272E+02
  0
VERTEX
  8
0
 62
4
 10
2.32361742E+02
 20
-3.03366658E+02
  0
VERTEX
  8
0
 62
4
 10
2.32267995E+02
 20
-3.03519088E+02
  0
VERTEX
  8
0
 62
4
 10
2.32187430E+02
 20
-3.03679401E+02
  0
VERTEX
  8
0
 62
4
 10
2.32120661E+02
 20
-3.03846378E+02
  0
VERTEX
  8
0
 62
4
 10
2.32068194E+02
 20
-3.04018747E+02
  0
VERTEX
  8
0
 62
4
 10
2.32030430E+02
 20
-3.04195197E+02
  0
VERTEX
  8
0
 62
4
 10
2.32007657E+02
 20
-3.04374385E+02
  0
VERTEX
  8
0
 62
4
 10
2.32000046E+02
 20
-3.04554947E+02
  0
VERTEX
  8
0
 62
4
 10
2.32007657E+02
 20
-3.04735509E+02
  0
VERTEX
  8
0
 62
4
 10
2.32030430E+02
 20
-3.04914697E+02
  0
VERTEX
  8
0
 62
4
 10
2.32068194E+02
 20
-3.05091147E+02
  0
VERTEX
  8
0
 62
4
 10
2.32120661E+02
 20
-3.05263516E+02
  0
VERTEX
  8
0
 62
4
 10
2.32187430E+02
 20
-3.05430493E+02
  0
VERTEX
  8
0
 62
4
 10
2.32267995E+02
 20
-3.05590806E+02
  0
VERTEX
  8
0
 62
4
 10
2.32361742E+02
 20
-3.05743236E+02
  0
VERTEX
  8
0
 62
4
 10
2.32467957E+02
 20
-3.05886622E+02
  0
VERTEX
  8
0
 62
4
 10
2.32585832E+02
 20
-3.06019873E+02
  0
VERTEX
  8
0
 62
4
 10
2.32714471E+02
 20
-3.06141975E+02
  0
VERTEX
  8
0
 62
4
 10
2.32852893E+02
 20
-3.06251999E+02
  0
VERTEX
  8
0
 62
4
 10
2.33000046E+02
 20
-3.06349108E+02
  0
VERTEX
  8
0
 62
4
 10
2.33154809E+02
 20
-3.06432561E+02
  0
VERTEX
  8
0
 62
4
 10
2.33316006E+02
 20
-3.06501725E+02
  0
VERTEX
  8
0
 62
4
 10
2.33482408E+02
 20
-3.06556073E+02
  0
VERTEX
  8
0
 62
4
 10
2.33652750E+02
 20
-3.06595191E+02
  0
VERTEX
  8
0
 62
4
 10
2.33825735E+02
 20
-3.06618782E+02
  0
VERTEX
  8
0
 62
4
 10
2.34000046E+02
 20
-3.06626665E+02
  0
SEQEND
  8
0
  0
LINE
  8
0
 62
4
 10
2.47000046E+02
 20
-2.98350006E+02
 11
2.47000046E+02
 21
-2.96682647E+02
  0
LINE
  8
0
 62
4
 10
2.14000046E+02
 20
-2.98350006E+02
 11
2.14000046E+02
 21
-2.96682647E+02
  0
LINE
  8
0
 62
4
 10
2.65000046E+02
 20
-2.46393135E+02
 11
2.60000046E+02
 21
-2.46393135E+02
  0
LINE
  8
0
 62
4
 10
2.45500046E+02
 20
-2.49419694E+02
 11
2.30500046E+02
 21
-2.49419694E+02
  0
LINE
  8
0
 62
4
 10
2.30500046E+02
 20
-2.83111710E+02
 11
2.45500046E+02
 21
-2.83111710E+02
  0
LINE
  8
0
 62
4
 10
2.30500046E+02
 20
-3.09532166E+02
 11
2.45500046E+02
 21
-3.09532166E+02
  0
LINE
  8
0
 62
4
 10
2.45500046E+02
 20
-2.83111710E+02
 11
2.45500046E+02
 21
-3.09532166E+02
  0
LINE
  8
0
 62
4
 10
2.30500046E+02
 20
-2.83111710E+02
 11
2.30500046E+02
 21
-3.09532166E+02
  0
LINE
  8
0
  6
CENTER
 62
6
 10
2.34000046E+02
 20
-3.01956014E+02
 11
2.34000046E+02
 21
-3.07800550E+02
  0
LINE
  8
0
 62
4
 10
2.58500046E+02
 20
-2.47978127E+02
 11
2.55000046E+02
 21
-2.47978127E+02
  0
LINE
  8
0
 62
4
 10
2.48500046E+02
 20
-2.74196662E+02
 11
2.45500046E+02
 21
-2.74196662E+02
  0
LINE
  8
0
 62
4
 10
2.65000046E+02
 20
-2.51412615E+02
 11
2.60000046E+02
 21
-2.51412615E+02
  0
LINE
  8
0
 62
4
 10
2.65000046E+02
 20
-2.51416323E+02
 11
2.60000046E+02
 21
-2.51416323E+02
  0
LINE
  8
0
 62
4
 10
2.65000046E+02
 20
-2.58758503E+02
 11
2.60000046E+02
 21
-2.58758503E+02
  0
LINE
  8
0
 62
4
 10
2.45500046E+02
 20
-2.46728127E+02
 11
2.54500046E+02
 21
-2.46728127E+02
  0
LINE
  8
0
 62
4
 10
2.55000046E+02
 20
-2.47228127E+02
 11
2.55000046E+02
 21
-2.60228127E+02
  0
LINE
  8
0
 62
4
 10
2.65000046E+02
 20
-2.46393135E+02
 11
2.65000046E+02
 21
-2.61075131E+02
  0
LINE
  8
0
 62
4
 10
2.60000046E+02
 20
-2.46393135E+02
 11
2.60000046E+02
 21
-2.61075131E+02
  0
LINE
  8
0
 62
4
 10
2.60000046E+02
 20
-2.47478127E+02
 11
2.55000046E+02
 21
-2.47478127E+02
  0
LINE
  8
0
 62
4
 10
2.60000046E+02
 20
-2.59978127E+02
 11
2.55000046E+02
 21
-2.59978127E+02
  0
LINE
  8
0
 62
4
 10
2.58500046E+02
 20
-2.47478127E+02
 11
2.58500046E+02
 21
-2.59978127E+02
  0
LINE
  8
0
 62
4
 10
2.58500046E+02
 20
-2.59478127E+02
 11
2.55000046E+02
 21
-2.59478127E+02
  0
LINE
  8
0
 62
4
 10
2.54500046E+02
 20
-2.60728127E+02
 11
2.46000046E+02
 21
-2.60728127E+02
  0
LINE
  8
0
 62
4
 10
2.65000046E+02
 20
-2.61075131E+02
 11
2.60000046E+02
 21
-2.61075131E+02
  0
LINE
  8
0
 62
4
 10
2.30500046E+02
 20
-2.93393792E+02
 11
2.11000046E+02
 21
-2.93393792E+02
  0
LINE
  8
0
 62
4
 10
2.30500046E+02
 20
-2.91926570E+02
 11
2.11000046E+02
 21
-2.91926570E+02
  0
LINE
  8
0
 62
4
 10
2.45500046E+02
 20
-2.46301019E+02
 11
2.30500046E+02
 21
-2.46301019E+02
  0
LINE
  8
0
 62
4
 10
2.47500046E+02
 20
-2.74289208E+02
 11
2.28500046E+02
 21
-2.74289208E+02
  0
LINE
  8
0
 62
4
 10
2.50000046E+02
 20
-2.75696662E+02
 11
2.50000046E+02
 21
-2.93393792E+02
  0
LINE
  8
0
 62
4
 10
2.50000046E+02
 20
-2.93393792E+02
 11
2.45500046E+02
 21
-2.93393792E+02
  0
LINE
  8
0
 62
4
 10
2.50000046E+02
 20
-2.91926570E+02
 11
2.45500046E+02
 21
-2.91926570E+02
  0
LINE
  8
0
 62
4
 10
2.47500046E+02
 20
-2.74289208E+02
 11
2.47500046E+02
 21
-2.78201798E+02
  0
LINE
  8
0
 62
4
 10
2.30500046E+02
 20
-2.46301019E+02
 11
2.30500046E+02
 21
-2.74289208E+02
  0
LINE
  8
0
 62
4
 10
2.45500046E+02
 20
-2.46301019E+02
 11
2.45500046E+02
 21
-2.74289208E+02
  0
LINE
  8
0
 62
4
 10
2.28500046E+02
 20
-2.74289208E+02
 11
2.28500046E+02
 21
-2.78201798E+02
  0
LINE
  8
0
 62
4
 10
2.45500046E+02
 20
-2.72895237E+02
 11
2.30500046E+02
 21
-2.72895237E+02
  0
LINE
  8
0
 62
4
 10
2.11000046E+02
 20
-2.75696662E+02
 11
2.11000046E+02
 21
-2.93393792E+02
  0
ARC
  8
0
 62
4
 10
2.54500545E+02
 20
-2.47227627E+02
 40
4.99500622E-01
 50
3.59942689E+02
 51
9.00573103E+01
  0
ARC
  8
0
 62
4
 10
2.45999546E+02
 20
-2.61227627E+02
 40
4.99500622E-01
 50
8.99426895E+01
 51
1.80057310E+02
  0
ARC
  8
0
 62
4
 10
2.12499546E+02
 20
-2.75696162E+02
 40
1.49950029E+00
 50
8.99809029E+01
 51
1.80019097E+02
  0
ARC
  8
0
 62
4
 10
2.54499546E+02
 20
-2.60227626E+02
 40
5.00500378E-01
 50
2.70057253E+02
 51
3.59942747E+02
  0
ARC
  8
0
 62
4
 10
2.48500546E+02
 20
-2.75696162E+02
 40
1.49950029E+00
 50
3.59980903E+02
 51
9.00190969E+01
  0
LINE
  8
0
 62
4
 10
2.31500046E+02
 20
-2.99265690E+02
 11
2.44500046E+02
 21
-2.99265690E+02
  0
LINE
  8
0
  6
CENTER
 62
2
 10
-4.47999971E+02
 20
-2.92493347E+02
 11
-4.47999971E+02
 21
-3.07414490E+02
  0
LINE
  8
0
  6
CENTER
 62
2
 10
-4.54381439E+02
 20
-3.00999924E+02
 11
-4.39859774E+02
 21
-3.00999924E+02
  0
LINE
  8
0
  6
CENTER
 62
2
 10
-4.85000090E+02
 20
-2.92493347E+02
 11
-4.85000090E+02
 21
-3.07414490E+02
  0
LINE
  8
0
  6
CENTER
 62
2
 10
-4.78618622E+02
 20
-3.00999924E+02
 11
-4.93140287E+02
 21
-3.00999924E+02
  0
LINE
  8
0
 62
7
 10
-2.81479187E+02
 20
-1.48442033E+00
 11
2.94520813E+02
 21
-1.48442033E+00
  0
LINE
  8
0
 62
7
 10
-2.81479187E+02
 20
-3.14844203E+01
 11
2.94520813E+02
 21
-3.14844203E+01
  0
LINE
  8
0
 62
7
 10
-2.81479187E+02
 20
-3.14844203E+01
 11
-2.81479187E+02
 21
-1.48442033E+00
  0
TEXT
  8
0
 62
7
 10
-2.71193874E+02
 20
-1.34844203E+01
 40
9.00000000E+00
  1
STROKE
 41
1.00000000E+00
  7
MONOTXT
  0
TEXT
  8
0
 62
7
 10
-2.75693874E+02
 20
-2.84844203E+01
 40
9.00000000E+00
  1
STRETCH
 41
1.00000000E+00
  7
MONOTXT
  0
LINE
  8
0
 62
7
 10
-2.81479187E+02
 20
-1.64844203E+01
 11
2.94520813E+02
 21
-1.64844203E+01
  0
LINE
  8
0
 62
7
 10
-2.09479187E+02
 20
-3.14844203E+01
 11
-2.09479187E+02
 21
-1.48442033E+00
  0
LINE
  8
0
 62
7
 10
-1.73479187E+02
 20
-3.14844203E+01
 11
-1.73479187E+02
 21
-1.48442033E+00
  0
LINE
  8
0
 62
7
 10
-1.37479187E+02
 20
-3.14844203E+01
 11
-1.37479187E+02
 21
-1.48442033E+00
  0
LINE
  8
0
 62
7
 10
-1.01479187E+02
 20
-3.14844203E+01
 11
-1.01479187E+02
 21
-1.48442033E+00
  0
LINE
  8
0
 62
7
 10
-6.54791865E+01
 20
-3.14844203E+01
 11
-6.54791865E+01
 21
-1.48442033E+00
  0
LINE
  8
0
 62
7
 10
-2.94791865E+01
 20
-3.14844203E+01
 11
-2.94791865E+01
 21
-1.48442033E+00
  0
LINE
  8
0
 62
7
 10
6.52081346E+00
 20
-3.14844203E+01
 11
6.52081346E+00
 21
-1.48442033E+00
  0
LINE
  8
0
 62
7
 10
4.25208135E+01
 20
-3.14844203E+01
 11
4.25208135E+01
 21
-1.48442033E+00
  0
LINE
  8
0
 62
7
 10
7.85208135E+01
 20
-3.14844203E+01
 11
7.85208135E+01
 21
-1.48442033E+00
  0
LINE
  8
0
 62
7
 10
1.14520813E+02
 20
-3.14844203E+01
 11
1.14520813E+02
 21
-1.48442033E+00
  0
LINE
  8
0
 62
7
 10
1.50520813E+02
 20
-3.14844203E+01
 11
1.50520813E+02
 21
-1.48442033E+00
  0
LINE
  8
0
 62
7
 10
1.86520813E+02
 20
-3.14844203E+01
 11
1.86520813E+02
 21
-1.48442033E+00
  0
LINE
  8
0
 62
7
 10
2.22520813E+02
 20
-3.14844203E+01
 11
2.22520813E+02
 21
-1.48442033E+00
  0
LINE
  8
0
 62
7
 10
2.58520813E+02
 20
-3.14844203E+01
 11
2.58520813E+02
 21
-1.48442033E+00
  0
LINE
  8
0
 62
7
 10
2.94520813E+02
 20
-3.14844203E+01
 11
2.94520813E+02
 21
-1.48442033E+00
  0
TEXT
  8
0
 62
7
 10
-1.99494812E+02
 20
-1.34844203E+01
 40
9.00000000E+00
  1
50
 41
1.00000000E+00
  7
MONOTXT
  0
TEXT
  8
0
 62
7
 10
-1.63494812E+02
 20
-1.34844203E+01
 40
9.00000000E+00
  1
75
 41
1.00000000E+00
  7
MONOTXT
  0
TEXT
  8
0
 62
7
 10
-1.31994812E+02
 20
-1.34844203E+01
 40
9.00000000E+00
  1
100
 41
1.00000000E+00
  7
MONOTXT
  0
TEXT
  8
0
 62
7
 10
-9.59948115E+01
 20
-1.34844203E+01
 40
9.00000000E+00
  1
150
 41
1.00000000E+00
  7
MONOTXT
  0
TEXT
  8
0
 62
7
 10
-5.99948115E+01
 20
-1.34844203E+01
 40
9.00000000E+00
  1
200
 41
1.00000000E+00
  7
MONOTXT
  0
TEXT
  8
0
 62
7
 10
-2.39948115E+01
 20
-1.34844203E+01
 40
9.00000000E+00
  1
250
 41
1.00000000E+00
  7
MONOTXT
  0
TEXT
  8
0
 62
7
 10
1.20051885E+01
 20
-1.34844203E+01
 40
9.00000000E+00
  1
300
 41
1.00000000E+00
  7
MONOTXT
  0
TEXT
  8
0
 62
7
 10
4.80051885E+01
 20
-1.34844203E+01
 40
9.00000000E+00
  1
350
 41
1.00000000E+00
  7
MONOTXT
  0
TEXT
  8
0
 62
7
 10
8.40051885E+01
 20
-1.34844203E+01
 40
9.00000000E+00
  1
400
 41
1.00000000E+00
  7
MONOTXT
  0
TEXT
  8
0
 62
7
 10
1.20005188E+02
 20
-1.34844203E+01
 40
9.00000000E+00
  1
450
 41
1.00000000E+00
  7
MONOTXT
  0
TEXT
  8
0
 62
7
 10
1.56005188E+02
 20
-1.34844203E+01
 40
9.00000000E+00
  1
500
 41
1.00000000E+00
  7
MONOTXT
  0
TEXT
  8
0
 62
7
 10
1.92005188E+02
 20
-1.34844203E+01
 40
9.00000000E+00
  1
600
 41
1.00000000E+00
  7
MONOTXT
  0
TEXT
  8
0
 62
7
 10
2.28005188E+02
 20
-1.34844203E+01
 40
9.00000000E+00
  1
700
 41
1.00000000E+00
  7
MONOTXT
  0
TEXT
  8
0
 62
7
 10
2.64005188E+02
 20
-1.34844203E+01
 40
9.00000000E+00
  1
800
 41
1.00000000E+00
  7
MONOTXT
  0
TEXT
  8
0
 62
7
 10
-2.03994812E+02
 20
-2.84844203E+01
 40
9.00000000E+00
  1
-25
 41
1.00000000E+00
  7
MONOTXT
  0
TEXT
  8
0
 62
7
 10
-1.58994812E+02
 20
-2.84844203E+01
 40
9.00000000E+00
  1
0
 41
1.00000000E+00
  7
MONOTXT
  0
TEXT
  8
0
 62
7
 10
-1.27494812E+02
 20
-2.84844203E+01
 40
9.00000000E+00
  1
25
 41
1.00000000E+00
  7
MONOTXT
  0
TEXT
  8
0
 62
7
 10
-9.14948115E+01
 20
-2.84844203E+01
 40
9.00000000E+00
  1
75
 41
1.00000000E+00
  7
MONOTXT
  0
TEXT
  8
0
 62
7
 10
-5.99948115E+01
 20
-2.84844203E+01
 40
9.00000000E+00
  1
125
 41
1.00000000E+00
  7
MONOTXT
  0
TEXT
  8
0
 62
7
 10
-2.39948115E+01
 20
-2.84844203E+01
 40
9.00000000E+00
  1
175
 41
1.00000000E+00
  7
MONOTXT
  0
TEXT
  8
0
 62
7
 10
1.20051885E+01
 20
-2.84844203E+01
 40
9.00000000E+00
  1
225
 41
1.00000000E+00
  7
MONOTXT
  0
TEXT
  8
0
 62
7
 10
4.80051885E+01
 20
-2.84844203E+01
 40
9.00000000E+00
  1
275
 41
1.00000000E+00
  7
MONOTXT
  0
TEXT
  8
0
 62
7
 10
8.40051885E+01
 20
-2.84844203E+01
 40
9.00000000E+00
  1
325
 41
1.00000000E+00
  7
MONOTXT
  0
TEXT
  8
0
 62
7
 10
1.20005188E+02
 20
-2.84844203E+01
 40
9.00000000E+00
  1
375
 41
1.00000000E+00
  7
MONOTXT
  0
TEXT
  8
0
 62
7
 10
1.56005188E+02
 20
-2.84844203E+01
 40
9.00000000E+00
  1
425
 41
1.00000000E+00
  7
MONOTXT
  0
TEXT
  8
0
 62
7
 10
1.92005188E+02
 20
-2.84844203E+01
 40
9.00000000E+00
  1
525
 41
1.00000000E+00
  7
MONOTXT
  0
TEXT
  8
0
 62
7
 10
2.28005188E+02
 20
-2.84844203E+01
 40
9.00000000E+00
  1
625
 41
1.00000000E+00
  7
MONOTXT
  0
TEXT
  8
0
 62
7
 10
2.64005188E+02
 20
-2.84844203E+01
 40
9.00000000E+00
  1
725
 41
1.00000000E+00
  7
MONOTXT
  0
TEXT
  8
0
 62
7
 10
-4.64948115E+01
 20
4.01557967E+00
 40
9.00000000E+00
  1
STRETCH LIST
 41
1.05263158E+00
  7
MONOTXT
  0
TEXT
  8
0
 62
7
 10
2.57505188E+02
 20
4.01557967E+00
 40
9.00000000E+00
  1
(mm)
 41
1.00000000E+00
  7
MONOTXT
  0
LINE
  8
0
 62
7
 10
1.26888573E+02
 20
-2.88500000E+02
 11
1.31000000E+02
 21
-2.88500000E+02
  0
LINE
  8
0
 62
7
 10
1.18954638E+01
 20
-3.03649994E+02
 11
-4.95000458E+01
 21
-3.03649994E+02
  0
LINE
  8
0
 62
7
 10
1.49554132E+01
 20
-2.98350006E+02
 11
-4.95000153E+01
 21
-2.98350006E+02
  0
LINE
  8
0
 62
7
 10
1.54461556E+01
 20
-2.97500015E+02
 11
-4.95000458E+01
 21
-2.97500015E+02
  0
LINE
  8
0
 62
7
 10
-2.65000098E+01
 20
-1.23649994E+02
 11
1.18954638E+01
 21
-1.23649994E+02
  0
LINE
  8
0
 62
7
 10
-2.65000098E+01
 20
-1.17500031E+02
 11
1.54461468E+01
 21
-1.17500031E+02
  0
LINE
  8
0
 62
7
 10
-2.65000098E+01
 20
-1.18350006E+02
 11
1.49554132E+01
 21
-1.18350006E+02
  0
ARC
  8
0
 62
2
 10
-4.66500031E+02
 20
-3.19500000E+02
 40
6.17999268E+00
 50
0.00000000E+00
 51
1.80000000E+02
  0
LINE
  8
0
 62
2
 10
-3.21000031E+02
 20
-1.45800034E+02
 11
-3.14500031E+02
 21
-1.45800034E+02
  0
LINE
  8
0
 62
7
 10
-3.21000031E+02
 20
-1.46500031E+02
 11
-3.14500031E+02
 21
-1.46500031E+02
  0
LINE
  8
0
 62
2
 10
-3.21000031E+02
 20
-1.33200012E+02
 11
-3.14500031E+02
 21
-1.33200012E+02
  0
LINE
  8
0
 62
7
 10
-3.21000031E+02
 20
-1.32500000E+02
 11
-3.14500031E+02
 21
-1.32500000E+02
  0
LINE
  8
0
 62
2
 10
-3.20999969E+02
 20
-3.13320007E+02
 11
-3.14500031E+02
 21
-3.13320007E+02
  0
LINE
  8
0
 62
7
 10
-3.20999969E+02
 20
-3.12500015E+02
 11
-3.14500031E+02
 21
-3.12500015E+02
  0
LINE
  8
0
 62
4
 10
-4.55500031E+02
 20
-3.13149147E+02
 11
-4.66500031E+02
 21
-3.06798294E+02
  0
LINE
  8
0
 62
4
 10
-4.55500031E+02
 20
-3.19500000E+02
 11
-4.55500031E+02
 21
-3.13149147E+02
  0
LINE
  8
0
 62
4
 10
-4.77500031E+02
 20
-3.13149147E+02
 11
-4.77500031E+02
 21
-3.19500000E+02
  0
LINE
  8
0
 62
4
 10
-4.66500031E+02
 20
-3.06798294E+02
 11
-4.77500031E+02
 21
-3.13149147E+02
  0
ARC
  8
0
 62
4
 10
-4.66500031E+02
 20
-3.19500000E+02
 40
1.10000000E+01
 50
0.00000000E+00
 51
1.80000000E+02
  0
ARC
  8
0
 62
7
 10
-4.66500031E+02
 20
-3.19500000E+02
 40
7.00000000E+00
 50
0.00000000E+00
 51
1.80000000E+02
  0
ARC
  8
0
 62
4
 10
-3.42017489E+02
 20
-3.19500000E+02
 40
2.10175199E+01
 50
1.22042820E-07
 51
1.75879537E+01
  0
ARC
  8
0
 62
4
 10
-3.26622780E+02
 20
-3.09973721E+02
 40
5.62281003E+00
 50
3.25615753E+02
 51
3.43842476E+01
  0
ARC
  8
0
 62
4
 10
-3.07982450E+02
 20
-3.19500000E+02
 40
2.10175199E+01
 50
1.62412046E+02
 51
1.80000000E+02
  0
ARC
  8
0
 62
4
 10
-3.23377159E+02
 20
-3.09973721E+02
 40
5.62281003E+00
 50
1.45615752E+02
 51
2.14384247E+02
  0
LINE
  8
0
 62
4
 10
-3.20999969E+02
 20
-3.08500000E+02
 11
-3.21982450E+02
 21
-3.06798294E+02
  0
LINE
  8
0
 62
4
 10
-3.28999970E+02
 20
-3.08500000E+02
 11
-3.28017489E+02
 21
-3.06798294E+02
  0
LINE
  8
0
 62
4
 10
-3.20999969E+02
 20
-3.19500000E+02
 11
-3.20999969E+02
 21
-3.08500000E+02
  0
LINE
  8
0
 62
4
 10
-3.28999969E+02
 20
-3.19500000E+02
 11
-3.28999969E+02
 21
-3.08500000E+02
  0
LINE
  8
0
 62
4
 10
-3.28017489E+02
 20
-3.13149147E+02
 11
-3.21982450E+02
 21
-3.13149147E+02
  0
LINE
  8
0
 62
4
 10
-3.28017489E+02
 20
-3.06798294E+02
 11
-3.21982450E+02
 21
-3.06798294E+02
  0
ARC
  8
0
 62
4
 10
-3.13114083E+02
 20
-1.45000000E+02
 40
1.58859473E+01
 50
1.59743839E+02
 51
2.00256161E+02
  0
ARC
  8
0
 62
4
 10
-3.13114083E+02
 20
-1.34000000E+02
 40
1.58859474E+01
 50
1.59743839E+02
 51
2.00256161E+02
  0
ARC
  8
0
 62
4
 10
-3.36885980E+02
 20
-1.34000000E+02
 40
1.58859499E+01
 50
3.39743842E+02
 51
2.02561578E+01
  0
ARC
  8
0
 62
4
 10
-3.36885980E+02
 20
-1.45000000E+02
 40
1.58859499E+01
 50
3.39743842E+02
 51
2.02561578E+01
  0
LINE
  8
0
 62
4
 10
-3.29000031E+02
 20
-1.50500000E+02
 11
-3.21000031E+02
 21
-1.50500000E+02
  0
LINE
  8
0
 62
4
 10
-3.29000031E+02
 20
-1.28500000E+02
 11
-3.21000031E+02
 21
-1.28500000E+02
  0
LINE
  8
0
 62
4
 10
-3.28017550E+02
 20
-1.39500000E+02
 11
-3.21982511E+02
 21
-1.39500000E+02
  0
LINE
  8
0
 62
4
 10
-3.29000031E+02
 20
-1.50500000E+02
 11
-3.29000031E+02
 21
-1.28500000E+02
  0
LINE
  8
0
 62
4
 10
-3.21000031E+02
 20
-1.50500000E+02
 11
-3.21000031E+02
 21
-1.28500000E+02
  0
INSERT
  8
0
  2
PP3
  6
BYBLOCK
 62
0
 10
0.00000000E+00
 20
0.00000000E+00
 41
1.00000000E+00
 42
1.00000000E+00
 50
0.00000000E+00
  0
INSERT
  8
0
  2
PP4
  6
BYBLOCK
 62
0
 10
0.00000000E+00
 20
0.00000000E+00
 41
1.00000000E+00
 42
1.00000000E+00
 50
0.00000000E+00
  0
CIRCLE
  8
0
 62
7
 10
-1.22500092E+02
 20
-1.29500000E+02
 40
5.72249985E+00
  0
CIRCLE
  8
0
 62
7
 10
-1.22500092E+02
 20
-1.29500000E+02
 40
6.57849932E+00
  0
CIRCLE
  8
0
 62
2
 10
-1.96500061E+02
 20
-1.39500000E+02
 40
1.19999990E+01
  0
CIRCLE
  8
0
 62
7
 10
-1.96500061E+02
 20
-1.39500000E+02
 40
1.00000000E+01
  0
ARC
  8
0
 62
7
 10
-2.47500031E+02
 20
-1.09561096E+02
 40
9.06113529E+00
 50
6.74489921E+01
 51
1.12550903E+02
  0
ARC
  8
0
 62
7
 10
-2.47500031E+02
 20
-1.69438843E+02
 40
9.06113529E+00
 50
2.47449035E+02
 51
2.92550946E+02
  0
ARC
  8
0
 62
7
 10
-2.42287506E+02
 20
-1.75974884E+02
 40
2.52511263E+00
 50
2.26520987E+02
 51
2.86521856E+02
  0
ARC
  8
0
 62
7
 10
-2.52712494E+02
 20
-1.75974884E+02
 40
2.52511263E+00
 50
2.53478125E+02
 51
3.13479008E+02
  0
ARC
  8
0
 62
7
 10
-2.42287506E+02
 20
-1.03025085E+02
 40
2.52511263E+00
 50
7.34780821E+01
 51
1.33478944E+02
  0
ARC
  8
0
 62
7
 10
-2.52712494E+02
 20
-1.03025085E+02
 40
2.52511263E+00
 50
4.65209375E+01
 51
1.06521820E+02
  0
ARC
  8
0
 62
7
 10
-1.45499939E+02
 20
-3.19500000E+02
 40
8.00000000E+00
 50
0.00000000E+00
 51
1.80000000E+02
  0
ARC
  8
0
 62
7
 10
-1.45499939E+02
 20
-3.19500000E+02
 40
3.29999995E+00
 50
0.00000000E+00
 51
1.80000000E+02
  0
ARC
  8
0
 62
7
 10
-1.45499939E+02
 20
-3.19500000E+02
 40
4.00000000E+00
 50
0.00000000E+00
 51
1.80000000E+02
  0
CIRCLE
  8
0
 62
7
 10
-2.71500092E+02
 20
-1.29500000E+02
 40
5.72249985E+00
  0
CIRCLE
  8
0
 62
7
 10
-2.71500092E+02
 20
-1.29500000E+02
 40
6.57849932E+00
  0
ARC
  8
0
 62
7
 10
-2.47500031E+02
 20
-3.19500000E+02
 40
3.29999995E+00
 50
0.00000000E+00
 51
1.80000000E+02
  0
ARC
  8
0
 62
7
 10
-2.47500031E+02
 20
-3.19500000E+02
 40
8.00000000E+00
 50
0.00000000E+00
 51
1.80000000E+02
  0
ARC
  8
0
 62
7
 10
-2.47500031E+02
 20
-3.19500000E+02
 40
4.00000000E+00
 50
0.00000000E+00
 51
1.80000000E+02
  0
ARC
  8
0
 62
2
 10
-1.96500000E+02
 20
-2.67256287E+02
 40
2.75000153E+01
 50
2.88402494E+02
 51
2.95872064E+02
  0
ARC
  8
0
 62
7
 10
-4.98659149E+02
 20
-3.16500000E+02
 40
6.84084654E+00
 50
1.53989169E+02
 51
2.06010827E+02
  0
ARC
  8
0
 62
7
 10
-4.34340790E+02
 20
-3.16500000E+02
 40
6.84084654E+00
 50
3.33989137E+02
 51
2.60107913E+01
  0
ARC
  8
0
 62
7
 10
-4.39000031E+02
 20
-2.92000000E+02
 40
3.50000024E+00
 50
0.00000000E+00
 51
8.99999818E+01
  0
ARC
  8
0
 62
2
 10
-1.96500000E+02
 20
-2.67256287E+02
 40
2.48450584E+01
 50
2.46265773E+02
 51
2.93734160E+02
  0
CIRCLE
  8
0
 62
7
 10
-4.90000092E+02
 20
-2.96000000E+02
 40
2.40000010E+00
  0
CIRCLE
  8
0
 62
7
 10
-4.90000092E+02
 20
-2.96000000E+02
 40
4.74999952E+00
  0
CIRCLE
  8
0
 62
7
 10
-4.90000092E+02
 20
-2.96000000E+02
 40
4.50000000E+00
  0
CIRCLE
  8
0
 62
2
 10
-4.90000092E+02
 20
-2.96000000E+02
 40
3.00000000E+00
  0
CIRCLE
  8
0
 62
2
 10
-1.96500061E+02
 20
-1.39500000E+02
 40
6.57849932E+00
  0
CIRCLE
  8
0
 62
7
 10
-4.42999969E+02
 20
-2.96000000E+02
 40
2.40000010E+00
  0
CIRCLE
  8
0
 62
7
 10
-4.42999969E+02
 20
-2.96000000E+02
 40
4.74999952E+00
  0
CIRCLE
  8
0
 62
7
 10
-4.42999969E+02
 20
-2.96000000E+02
 40
4.50000000E+00
  0
CIRCLE
  8
0
 62
2
 10
-4.42999969E+02
 20
-2.96000000E+02
 40
3.00000000E+00
  0
ARC
  8
0
 62
7
 10
-1.50712494E+02
 20
-1.03025085E+02
 40
2.52511263E+00
 50
4.65209375E+01
 51
1.06521820E+02
  0
CIRCLE
  8
0
 62
7
 10
-1.96500061E+02
 20
-1.39500000E+02
 40
5.65999985E+00
  0
CIRCLE
  8
0
 62
7
 10
-1.96500061E+02
 20
-1.39500000E+02
 40
6.99999952E+00
  0
ARC
  8
0
 62
7
 10
-8.00000610E+01
 20
-1.63467499E+02
 40
5.00000000E-01
 50
1.80000008E+02
 51
2.68999785E+02
  0
ARC
  8
0
 62
7
 10
-8.00000610E+01
 20
-1.15532440E+02
 40
5.00000000E-01
 50
9.10002155E+01
 51
1.80000005E+02
  0
ARC
  8
0
 62
7
 10
-1.40287506E+02
 20
-1.03025085E+02
 40
2.52511263E+00
 50
7.34780821E+01
 51
1.33478944E+02
  0
ARC
  8
0
 62
7
 10
-1.45500000E+02
 20
-1.69438843E+02
 40
9.06113529E+00
 50
2.47449035E+02
 51
2.92550946E+02
  0
ARC
  8
0
 62
7
 10
-1.40287506E+02
 20
-1.75974884E+02
 40
2.52511263E+00
 50
2.26520987E+02
 51
2.86521856E+02
  0
ARC
  8
0
 62
7
 10
-1.50712494E+02
 20
-1.75974884E+02
 40
2.52511263E+00
 50
2.53478125E+02
 51
3.13479008E+02
  0
ARC
  8
0
 62
7
 10
-1.45500000E+02
 20
-1.09561096E+02
 40
9.06113529E+00
 50
6.74489921E+01
 51
1.12550903E+02
  0
ARC
  8
0
 62
7
 10
-4.94000031E+02
 20
-2.92000000E+02
 40
3.50000024E+00
 50
8.99999818E+01
 51
1.79999964E+02
  0
ARC
  8
0
 62
2
 10
-1.96500000E+02
 20
-2.67256287E+02
 40
2.75000153E+01
 50
2.44127917E+02
 51
2.51597487E+02
  0
ARC
  8
0
 62
7
 10
1.35659149E+02
 20
-3.16500031E+02
 40
6.84084654E+00
 50
3.33989137E+02
 51
2.60107947E+01
  0
ARC
  8
0
 62
7
 10
1.31000000E+02
 20
-2.92000000E+02
 40
3.50000024E+00
 50
0.00000000E+00
 51
8.99999818E+01
  0
ARC
  8
0
 62
7
 10
7.59999104E+01
 20
-2.92000000E+02
 40
3.50000024E+00
 50
8.99999818E+01
 51
1.79999964E+02
  0
ARC
  8
0
 62
7
 10
7.13407917E+01
 20
-3.16500031E+02
 40
6.84084654E+00
 50
1.53989169E+02
 51
2.06010827E+02
  0
CIRCLE
  8
0
 62
7
 10
8.49999104E+01
 20
-3.00999924E+02
 40
2.40000010E+00
  0
CIRCLE
  8
0
 62
2
 10
8.49999104E+01
 20
-3.00999924E+02
 40
3.00000000E+00
  0
ARC
  8
0
 62
7
 10
1.03499969E+02
 20
-3.19500000E+02
 40
1.60000000E+01
 50
0.00000000E+00
 51
1.80000000E+02
  0
ARC
  8
0
 62
7
 10
1.14141388E+02
 20
-3.02497437E+02
 40
1.00000000E+00
 50
1.07884972E+01
 51
9.20252152E+01
  0
ARC
  8
0
 62
7
 10
1.08500031E+02
 20
-2.98499969E+02
 40
1.00000000E+00
 50
3.59721781E-05
 51
9.00000162E+01
  0
ARC
  8
0
 62
7
 10
1.20502472E+02
 20
-3.08858536E+02
 40
1.00000000E+00
 50
3.57973915E+02
 51
7.92109402E+01
  0
ARC
  8
0
 62
7
 10
1.24499969E+02
 20
-3.14499969E+02
 40
1.00000000E+00
 50
3.59721781E-05
 51
9.00000162E+01
  0
ARC
  8
0
 62
7
 10
1.12500031E+02
 20
-2.98499939E+02
 40
3.00000000E+00
 50
1.80000582E+02
 51
2.72025825E+02
  0
ARC
  8
0
 62
7
 10
1.24499969E+02
 20
-3.10499969E+02
 40
3.00000000E+00
 50
1.79999991E+02
 51
2.69999974E+02
  0
ARC
  8
0
 62
7
 10
1.20381927E+02
 20
-3.17500000E+02
 40
1.00000000E+00
 50
1.86756227E+02
 51
2.70000038E+02
  0
ARC
  8
0
 62
7
 10
1.16851532E+02
 20
-3.08976837E+02
 40
1.00000000E+00
 50
1.35000629E+02
 51
2.18244215E+02
  0
ARC
  8
0
 62
7
 10
1.14023102E+02
 20
-3.06148407E+02
 40
1.00000000E+00
 50
2.31756382E+02
 51
3.15000026E+02
  0
ARC
  8
0
 62
7
 10
1.05499969E+02
 20
-3.02618042E+02
 40
1.00000000E+00
 50
1.80000036E+02
 51
2.63243916E+02
  0
ARC
  8
0
 62
7
 10
1.17936981E+02
 20
-3.07891388E+02
 40
1.00000000E+00
 50
5.94775673E+01
 51
1.34999386E+02
  0
ARC
  8
0
 62
7
 10
1.21999969E+02
 20
-3.00999939E+02
 40
7.00000000E+00
 50
1.90788716E+02
 51
2.59211379E+02
  0
ARC
  8
0
 62
7
 10
1.15108551E+02
 20
-3.05062958E+02
 40
1.00000000E+00
 50
3.15000662E+02
 51
3.05222541E+01
  0
ARC
  8
0
 62
7
 10
1.05499969E+02
 20
-2.98500000E+02
 40
1.00000000E+00
 50
9.00000025E+01
 51
1.80000046E+02
  0
ARC
  8
0
 62
7
 10
1.24499969E+02
 20
-3.17500000E+02
 40
1.00000000E+00
 50
2.70000052E+02
 51
3.59721781E-05
  0
CIRCLE
  8
0
 62
7
 10
1.21999969E+02
 20
-3.00999939E+02
 40
5.00000000E+00
  0
CIRCLE
  8
0
 62
7
 10
1.21999969E+02
 20
-3.00999939E+02
 40
4.50000000E+00
  0
ARC
  8
0
 62
7
 10
1.25500031E+02
 20
-2.97499969E+02
 40
3.00000000E+00
 50
3.59721781E-05
 51
9.00000162E+01
  0
ARC
  8
0
 62
7
 10
1.25499969E+02
 20
-2.97499969E+02
 40
2.50000000E+00
 50
3.59721781E-05
 51
9.00000162E+01
  0
ARC
  8
0
 62
7
 10
9.84999695E+01
 20
-2.98499969E+02
 40
1.00000000E+00
 50
9.00000162E+01
 51
1.80000005E+02
  0
ARC
  8
0
 62
7
 10
9.44999695E+01
 20
-2.98499939E+02
 40
3.00000000E+00
 50
2.67974191E+02
 51
3.59999431E+02
  0
ARC
  8
0
 62
7
 10
9.28585510E+01
 20
-3.02497437E+02
 40
1.00000000E+00
 50
8.79748173E+01
 51
1.69211544E+02
  0
ARC
  8
0
 62
7
 10
8.49999714E+01
 20
-3.00999939E+02
 40
7.00000000E+00
 50
2.80788643E+02
 51
3.49211298E+02
  0
ARC
  8
0
 62
7
 10
8.64974689E+01
 20
-3.08858536E+02
 40
1.00000000E+00
 50
1.00789092E+02
 51
1.82026126E+02
  0
ARC
  8
0
 62
7
 10
8.24999714E+01
 20
-3.10499969E+02
 40
3.00000000E+00
 50
2.70000052E+02
 51
2.02641660E+00
  0
ARC
  8
0
 62
7
 10
8.24999714E+01
 20
-3.14499969E+02
 40
1.00000000E+00
 50
9.00000162E+01
 51
1.80000005E+02
  0
ARC
  8
0
 62
7
 10
8.14999714E+01
 20
-2.97499969E+02
 40
3.00000000E+00
 50
9.00000162E+01
 51
1.80000005E+02
  0
ARC
  8
0
 62
7
 10
9.29768372E+01
 20
-3.06148483E+02
 40
1.00000000E+00
 50
2.25000614E+02
 51
3.08244204E+02
  0
ARC
  8
0
 62
7
 10
9.01484070E+01
 20
-3.08976913E+02
 40
1.00000000E+00
 50
3.21756388E+02
 51
4.50000423E+01
  0
ARC
  8
0
 62
7
 10
1.01499969E+02
 20
-3.02618057E+02
 40
1.00000000E+00
 50
2.76756256E+02
 51
3.59721781E-05
  0
ARC
  8
0
 62
7
 10
1.01499969E+02
 20
-2.98500000E+02
 40
1.00000000E+00
 50
3.59721781E-05
 51
9.00000162E+01
  0
ARC
  8
0
 62
7
 10
8.90629578E+01
 20
-3.07891434E+02
 40
1.00000000E+00
 50
4.50006569E+01
 51
1.20522253E+02
  0
ARC
  8
0
 62
7
 10
8.66180134E+01
 20
-3.17500000E+02
 40
1.00000000E+00
 50
2.70000038E+02
 51
3.53243910E+02
  0
ARC
  8
0
 62
7
 10
8.24999714E+01
 20
-3.17500000E+02
 40
1.00000000E+00
 50
1.79999991E+02
 51
2.70000028E+02
  0
ARC
  8
0
 62
7
 10
9.18913879E+01
 20
-3.05063019E+02
 40
1.00000000E+00
 50
1.49477556E+02
 51
2.24999381E+02
  0
CIRCLE
  8
0
 62
7
 10
8.49999104E+01
 20
-3.01000000E+02
 40
4.50000000E+00
  0
CIRCLE
  8
0
 62
7
 10
8.49999104E+01
 20
-3.01000000E+02
 40
5.00000000E+00
  0
ARC
  8
0
 62
7
 10
8.14999714E+01
 20
-2.97500031E+02
 40
2.50000000E+00
 50
9.00000162E+01
 51
1.80000005E+02
  0
ARC
  8
0
 62
7
 10
-3.11500031E+02
 20
-3.19500000E+02
 40
8.00000000E+00
 50
0.00000000E+00
 51
2.89550399E+01
  0
ARC
  8
0
 62
7
 10
-2.88000031E+02
 20
-3.04000000E+02
 40
5.00000000E-01
 50
8.99999818E+01
 51
1.79999964E+02
  0
CIRCLE
  8
0
 62
7
 10
-5.50000458E+01
 20
-1.49500000E+02
 40
2.09999990E+00
  0
ARC
  8
0
 62
7
 10
-3.01000061E+02
 20
-3.05000000E+02
 40
5.00000000E-01
 50
8.99999818E+01
 51
1.79999964E+02
  0
ARC
  8
0
 62
2
 10
-6.25000610E+01
 20
-1.35500061E+02
 40
6.57849979E+00
 50
7.68192768E+01
 51
3.35950142E+02
  0
ARC
  8
0
 62
7
 10
-4.66134308E+02
 20
-3.19500000E+02
 40
1.50000000E+01
 50
0.00000000E+00
 51
1.80000000E+02
  0
ARC
  8
0
 62
7
 10
-4.66134308E+02
 20
-3.19500000E+02
 40
1.55000010E+01
 50
0.00000000E+00
 51
1.80000000E+02
  0
ARC
  8
0
 62
7
 10
-4.66134308E+02
 20
-3.19500000E+02
 40
1.60000000E+01
 50
0.00000000E+00
 51
1.80000000E+02
  0
ARC
  8
0
 62
7
 10
-6.25000610E+01
 20
-1.35500061E+02
 40
5.65999985E+00
 50
7.46314587E+01
 51
3.31727516E+02
  0
ARC
  8
0
 62
7
 10
-7.35000000E+01
 20
-1.57500000E+02
 40
2.00000000E+00
 50
1.79999977E+02
 51
2.70000028E+02
  0
ARC
  8
0
 62
7
 10
-7.35000000E+01
 20
-1.21500000E+02
 40
2.00000000E+00
 50
8.99999818E+01
 51
1.79999964E+02
  0
ARC
  8
0
 62
7
 10
-6.25000610E+01
 20
-1.35500061E+02
 40
7.00000000E+00
 50
7.76259453E+01
 51
3.37480849E+02
  0
ARC
  8
0
 62
7
 10
-8.00000610E+01
 20
-1.63467529E+02
 40
5.00000000E-01
 50
1.80000008E+02
 51
2.68999785E+02
  0
ARC
  8
0
 62
7
 10
-8.00000610E+01
 20
-1.15532471E+02
 40
5.00000000E-01
 50
9.10002155E+01
 51
1.80000005E+02
  0
ARC
  8
0
 62
7
 10
-2.96250031E+02
 20
-1.24491394E+02
 40
2.50000000E-01
 50
9.20007768E+01
 51
1.79999991E+02
  0
ARC
  8
0
 62
7
 10
-2.88000031E+02
 20
-1.24000000E+02
 40
5.00000000E-01
 50
9.00000231E+01
 51
1.80000005E+02
  0
ARC
  8
0
 62
7
 10
-3.01000061E+02
 20
-1.25000000E+02
 40
5.00000000E-01
 50
9.00000231E+01
 51
1.80000005E+02
  0
ARC
  8
0
 62
7
 10
-2.96250031E+02
 20
-1.54508606E+02
 40
2.50000000E-01
 50
1.80000008E+02
 51
2.67999216E+02
  0
ARC
  8
0
 62
7
 10
-2.88000031E+02
 20
-1.55000000E+02
 40
5.00000000E-01
 50
1.80000008E+02
 51
2.69999998E+02
  0
ARC
  8
0
 62
7
 10
-3.01000061E+02
 20
-1.54000000E+02
 40
5.00000000E-01
 50
1.80000008E+02
 51
2.69999998E+02
  0
CIRCLE
  8
0
 62
7
 10
-5.50000458E+01
 20
-1.49500000E+02
 40
4.00000000E+00
  0
ARC
  8
0
 62
7
 10
-2.96250031E+02
 20
-3.04491394E+02
 40
2.50000000E-01
 50
9.20007356E+01
 51
1.79999964E+02
  0
CIRCLE
  8
0
 62
7
 10
1.21999969E+02
 20
-3.00999924E+02
 40
2.40000010E+00
  0
CIRCLE
  8
0
 62
2
 10
1.21999969E+02
 20
-3.00999924E+02
 40
3.00000000E+00
  0
LINE
  8
0
 62
7
 10
-4.76500031E+02
 20
-2.82499969E+02
 11
-4.56500031E+02
 21
-2.82499969E+02
  0
LINE
  8
0
 62
7
 10
-4.76000092E+02
 20
-2.81999969E+02
 11
-4.57000031E+02
 21
-2.81999969E+02
  0
LINE
  8
0
 62
7
 10
-4.76500031E+02
 20
-2.88500000E+02
 11
-4.76500031E+02
 21
-2.82499939E+02
  0
LINE
  8
0
 62
7
 10
-4.75999853E+02
 20
-2.82000123E+02
 11
-4.76499856E+02
 21
-2.82500100E+02
  0
LINE
  8
0
 62
7
 10
-4.56500031E+02
 20
-2.88500000E+02
 11
-4.56500031E+02
 21
-2.82499969E+02
  0
LINE
  8
0
 62
7
 10
-2.06500000E+02
 20
-2.90000000E+02
 11
-2.06500000E+02
 21
-2.82499939E+02
  0
LINE
  8
0
 62
7
 10
-1.86500000E+02
 20
-2.89999939E+02
 11
-1.86500000E+02
 21
-2.82499969E+02
  0
LINE
  8
0
 62
7
 10
-2.06000000E+02
 20
-2.81999969E+02
 11
-1.87000031E+02
 21
-2.81999969E+02
  0
LINE
  8
0
 62
7
 10
-2.05999895E+02
 20
-2.82000059E+02
 11
-2.06499908E+02
 21
-2.82500047E+02
  0
LINE
  8
0
 62
7
 10
-1.87000008E+02
 20
-2.81999919E+02
 11
-1.86499975E+02
 21
-2.82499952E+02
  0
LINE
  8
0
  6
CENTER
 62
2
 10
-1.96500000E+02
 20
-2.96009399E+02
 11
-1.96500000E+02
 21
-2.80451202E+02
  0
LINE
  8
0
  6
CENTER
 62
2
 10
-1.22500092E+02
 20
-1.20221008E+02
 11
-1.22500092E+02
 21
-1.38786804E+02
  0
LINE
  8
0
  6
CENTER
 62
2
 10
-1.13440247E+02
 20
-1.29500000E+02
 11
-1.31785034E+02
 21
-1.29500000E+02
  0
LINE
  8
0
 62
7
 10
-1.25500092E+02
 20
-1.27767944E+02
 11
-1.25500092E+02
 21
-1.31232056E+02
  0
LINE
  8
0
 62
7
 10
-1.25499812E+02
 20
-1.31231255E+02
 11
-1.22499799E+02
 21
-1.32963303E+02
  0
LINE
  8
0
 62
7
 10
-1.22500300E+02
 20
-1.32963478E+02
 11
-1.19500353E+02
 21
-1.31231468E+02
  0
LINE
  8
0
 62
7
 10
-1.19500092E+02
 20
-1.31232056E+02
 11
-1.19500092E+02
 21
-1.27767944E+02
  0
LINE
  8
0
 62
7
 10
-1.22499735E+02
 20
-1.26035182E+02
 11
-1.19499722E+02
 21
-1.27767230E+02
  0
LINE
  8
0
 62
7
 10
-1.25500335E+02
 20
-1.27767416E+02
 11
-1.22500375E+02
 21
-1.26035399E+02
  0
LINE
  8
0
 62
7
 10
-1.86499985E+02
 20
-2.89999938E+02
 11
-1.84499983E+02
 21
-2.91999941E+02
  0
LINE
  8
0
 62
7
 10
-2.06499963E+02
 20
-2.90000068E+02
 11
-2.08499944E+02
 21
-2.92000048E+02
  0
LINE
  8
0
 62
7
 10
-1.84500000E+02
 20
-2.91999969E+02
 11
-1.33500000E+02
 21
-2.91999969E+02
  0
LINE
  8
0
 62
7
 10
-2.44199817E+02
 20
-9.54999645E+01
 11
-2.43499789E+02
 21
-9.61999933E+01
  0
LINE
  8
0
 62
7
 10
-2.51499819E+02
 20
-9.62001875E+01
 11
-2.50799806E+02
 21
-9.55001749E+01
  0
LINE
  8
0
 62
7
 10
-2.51500031E+02
 20
-9.61999817E+01
 11
-2.43500031E+02
 21
-9.61999817E+01
  0
LINE
  8
0
 62
2
 10
-2.44200043E+02
 20
-1.00499969E+02
 11
-2.44200043E+02
 21
-9.55000000E+01
  0
LINE
  8
0
 62
2
 10
-2.50800018E+02
 20
-1.00499969E+02
 11
-2.50800018E+02
 21
-9.55000000E+01
  0
LINE
  8
0
 62
7
 10
-2.43499969E+02
 20
-1.00499969E+02
 11
-2.43499969E+02
 21
-9.61999817E+01
  0
LINE
  8
0
 62
7
 10
-2.51499969E+02
 20
-1.00499969E+02
 11
-2.51499969E+02
 21
-9.61999817E+01
  0
LINE
  8
0
 62
7
 10
-2.44024994E+02
 20
-1.06999969E+02
 11
-2.44024994E+02
 21
-1.01192780E+02
  0
LINE
  8
0
 62
7
 10
-2.50975006E+02
 20
-1.06999969E+02
 11
-2.50975006E+02
 21
-1.01192780E+02
  0
LINE
  8
0
 62
7
 10
-2.54449836E+02
 20
-1.01193211E+02
 11
-2.53249827E+02
 21
-1.00500385E+02
  0
LINE
  8
0
 62
7
 10
-2.41749930E+02
 20
-1.00499985E+02
 11
-2.40549895E+02
 21
-1.01192826E+02
  0
LINE
  8
0
 62
7
 10
-2.54449982E+02
 20
-1.06999969E+02
 11
-2.54449982E+02
 21
-1.01192780E+02
  0
LINE
  8
0
 62
7
 10
-2.40550018E+02
 20
-1.06999969E+02
 11
-2.40550018E+02
 21
-1.01192780E+02
  0
LINE
  8
0
 62
7
 10
-2.53250031E+02
 20
-1.00499969E+02
 11
-2.41750031E+02
 21
-1.00499969E+02
  0
LINE
  8
0
 62
7
 10
-2.50800018E+02
 20
-9.54999695E+01
 11
-2.44200043E+02
 21
-9.54999695E+01
  0
LINE
  8
0
 62
7
 10
-2.55500031E+02
 20
-1.11999969E+02
 11
-2.55500031E+02
 21
-1.06999969E+02
  0
LINE
  8
0
 62
7
 10
-2.39500031E+02
 20
-1.11999969E+02
 11
-2.39500031E+02
 21
-1.06999969E+02
  0
LINE
  8
0
 62
7
 10
-2.55500031E+02
 20
-1.06999969E+02
 11
-2.39500031E+02
 21
-1.06999969E+02
  0
LINE
  8
0
  6
CENTER
 62
2
 10
-2.47500031E+02
 20
-1.20533875E+02
 11
-2.47500031E+02
 21
-9.34123230E+01
  0
LINE
  8
0
 62
7
 10
-2.44199823E+02
 20
-1.83500193E+02
 11
-2.43499826E+02
 21
-1.82800196E+02
  0
LINE
  8
0
 62
7
 10
-2.51499932E+02
 20
-1.82799948E+02
 11
-2.50799990E+02
 21
-1.83499891E+02
  0
LINE
  8
0
 62
7
 10
-2.51500031E+02
 20
-1.82799988E+02
 11
-2.43500031E+02
 21
-1.82799988E+02
  0
LINE
  8
0
 62
2
 10
-2.44200043E+02
 20
-1.78499969E+02
 11
-2.44200043E+02
 21
-1.83499969E+02
  0
LINE
  8
0
 62
2
 10
-2.50800018E+02
 20
-1.78499969E+02
 11
-2.50800018E+02
 21
-1.83499969E+02
  0
LINE
  8
0
 62
7
 10
-2.43499969E+02
 20
-1.78499969E+02
 11
-2.43499969E+02
 21
-1.82799988E+02
  0
LINE
  8
0
 62
7
 10
-2.51499969E+02
 20
-1.78499969E+02
 11
-2.51499969E+02
 21
-1.82799988E+02
  0
LINE
  8
0
 62
7
 10
-2.44024994E+02
 20
-1.72000000E+02
 11
-2.44024994E+02
 21
-1.77807159E+02
  0
LINE
  8
0
 62
7
 10
-2.50975006E+02
 20
-1.72000000E+02
 11
-2.50975006E+02
 21
-1.77807159E+02
  0
LINE
  8
0
 62
7
 10
-2.54450136E+02
 20
-1.77807138E+02
 11
-2.53250048E+02
 21
-1.78500009E+02
  0
LINE
  8
0
 62
7
 10
-2.41749913E+02
 20
-1.78500301E+02
 11
-2.40549905E+02
 21
-1.77807475E+02
  0
LINE
  8
0
 62
7
 10
-2.54449982E+02
 20
-1.72000000E+02
 11
-2.54449982E+02
 21
-1.77807159E+02
  0
LINE
  8
0
 62
7
 10
-2.40550018E+02
 20
-1.72000000E+02
 11
-2.40550018E+02
 21
-1.77807159E+02
  0
LINE
  8
0
 62
7
 10
-2.53250031E+02
 20
-1.78499969E+02
 11
-2.41750031E+02
 21
-1.78499969E+02
  0
LINE
  8
0
 62
7
 10
-2.50800018E+02
 20
-1.83499969E+02
 11
-2.44200043E+02
 21
-1.83499969E+02
  0
LINE
  8
0
 62
7
 10
-2.55500031E+02
 20
-1.67000000E+02
 11
-2.55500031E+02
 21
-1.72000000E+02
  0
LINE
  8
0
 62
7
 10
-2.39500031E+02
 20
-1.67000000E+02
 11
-2.39500031E+02
 21
-1.72000000E+02
  0
LINE
  8
0
 62
7
 10
-2.55500031E+02
 20
-1.72000000E+02
 11
-2.39500031E+02
 21
-1.72000000E+02
  0
LINE
  8
0
  6
CENTER
 62
2
 10
-2.47500031E+02
 20
-1.58466095E+02
 11
-2.47500031E+02
 21
-1.85332001E+02
  0
LINE
  8
0
  6
CENTER
 62
2
 10
-1.45499939E+02
 20
-3.07972443E+02
 11
-1.45499939E+02
 21
-3.19500000E+02
  0
LINE
  8
0
 62
7
 10
-1.47499969E+02
 20
-3.18345154E+02
 11
-1.47499969E+02
 21
-3.19500000E+02
  0
LINE
  8
0
 62
7
 10
-1.43499939E+02
 20
-3.19500000E+02
 11
-1.43499939E+02
 21
-3.18345337E+02
  0
LINE
  8
0
 62
7
 10
-4.56999977E+02
 20
-2.81999984E+02
 11
-4.56499944E+02
 21
-2.82500017E+02
  0
LINE
  8
0
 62
7
 10
-4.22499902E+02
 20
-3.16199924E+02
 11
-4.23199887E+02
 21
-3.15499938E+02
  0
LINE
  8
0
  6
CENTER
 62
2
 10
-1.45500000E+02
 20
-1.20533875E+02
 11
-1.45500000E+02
 21
-9.34123230E+01
  0
LINE
  8
0
 62
7
 10
-4.99000031E+02
 20
-3.19500000E+02
 11
-4.99000031E+02
 21
-3.11500000E+02
  0
LINE
  8
0
 62
7
 10
-4.23200043E+02
 20
-3.19500000E+02
 11
-4.23200043E+02
 21
-3.15500031E+02
  0
LINE
  8
0
 62
2
 10
-4.27500031E+02
 20
-3.16200043E+02
 11
-4.22500092E+02
 21
-3.16200043E+02
  0
LINE
  8
0
 62
7
 10
-4.27500031E+02
 20
-3.15500031E+02
 11
-4.23200104E+02
 21
-3.15500031E+02
  0
LINE
  8
0
 62
7
 10
-2.68500031E+02
 20
-1.27767944E+02
 11
-2.68500031E+02
 21
-1.31232056E+02
  0
LINE
  8
0
 62
7
 10
-2.68500514E+02
 20
-1.31231032E+02
 11
-2.71500501E+02
 21
-1.32963065E+02
  0
LINE
  8
0
 62
7
 10
-2.71500136E+02
 20
-1.32963798E+02
 11
-2.74500096E+02
 21
-1.31231781E+02
  0
LINE
  8
0
 62
7
 10
-2.74500031E+02
 20
-1.31232056E+02
 11
-2.74500031E+02
 21
-1.27767944E+02
  0
LINE
  8
0
 62
7
 10
-2.71500606E+02
 20
-1.26034933E+02
 11
-2.74500619E+02
 21
-1.27766981E+02
  0
LINE
  8
0
 62
7
 10
-2.68499999E+02
 20
-1.27767743E+02
 11
-2.71499959E+02
 21
-1.26035725E+02
  0
LINE
  8
0
 62
7
 10
-5.09800018E+02
 20
-3.19500000E+02
 11
-5.09800018E+02
 21
-3.15500031E+02
  0
LINE
  8
0
 62
7
 10
-2.59500031E+02
 20
-1.11999969E+02
 11
-1.33500031E+02
 21
-1.11999969E+02
  0
LINE
  8
0
 62
7
 10
-1.33500000E+02
 20
-1.13350006E+02
 11
-2.59500031E+02
 21
-1.13350006E+02
  0
LINE
  8
0
  6
CENTER
 62
2
 10
-2.47500031E+02
 20
-3.07972443E+02
 11
-2.47500031E+02
 21
-3.19500000E+02
  0
LINE
  8
0
 62
7
 10
-1.33500000E+02
 20
-2.88500000E+02
 11
-1.33500000E+02
 21
-3.19500000E+02
  0
LINE
  8
0
 62
7
 10
-2.86500031E+02
 20
-2.88500000E+02
 11
-2.86500031E+02
 21
-3.19500000E+02
  0
LINE
  8
0
 62
7
 10
-5.10499952E+02
 20
-3.16200132E+02
 11
-5.09799923E+02
 21
-3.15500103E+02
  0
LINE
  8
0
 62
7
 10
-2.45500031E+02
 20
-3.18345154E+02
 11
-2.45500031E+02
 21
-3.19500000E+02
  0
LINE
  8
0
 62
7
 10
-2.49500031E+02
 20
-3.19500000E+02
 11
-2.49500031E+02
 21
-3.18345337E+02
  0
LINE
  8
0
 62
7
 10
-4.22499969E+02
 20
-3.19500000E+02
 11
-4.22499969E+02
 21
-3.16200012E+02
  0
LINE
  8
0
  6
CENTER
 62
2
 10
-1.45500000E+02
 20
-1.58466095E+02
 11
-1.45500000E+02
 21
-1.85587646E+02
  0
LINE
  8
0
 62
7
 10
-2.06500031E+02
 20
-2.82500000E+02
 11
-1.86500000E+02
 21
-2.82500000E+02
  0
LINE
  8
0
  6
CENTER
 62
2
 10
-2.90672394E+02
 20
-2.96000000E+02
 11
-7.35515442E+01
 21
-2.96000000E+02
  0
LINE
  8
0
 62
2
 10
6.44999866E+01
 20
-3.16200043E+02
 11
5.94999866E+01
 21
-3.16200043E+02
  0
LINE
  8
0
 62
7
 10
-2.59500031E+02
 20
-2.98649994E+02
 11
-1.33500000E+02
 21
-2.98649994E+02
  0
LINE
  8
0
 62
7
 10
-2.59500031E+02
 20
-1.08500000E+02
 11
-2.59500031E+02
 21
-1.70499969E+02
  0
LINE
  8
0
 62
7
 10
6.44999866E+01
 20
-3.15500031E+02
 11
6.02000599E+01
 21
-3.15500031E+02
  0
LINE
  8
0
 62
7
 10
6.44999714E+01
 20
-3.19500000E+02
 11
6.44999714E+01
 21
-3.13500000E+02
  0
LINE
  8
0
 62
7
 10
5.94999714E+01
 20
-3.19500000E+02
 11
5.94999714E+01
 21
-3.16200012E+02
  0
LINE
  8
0
 62
7
 10
-1.42035929E+02
 20
-3.13499915E+02
 11
-1.38571837E+02
 21
-3.19499908E+02
  0
LINE
  8
0
 62
7
 10
-1.48964081E+02
 20
-3.13500000E+02
 11
-1.42035858E+02
 21
-3.13500000E+02
  0
LINE
  8
0
 62
7
 10
-1.48964117E+02
 20
-3.13500023E+02
 11
-1.52428221E+02
 21
-3.19500036E+02
  0
LINE
  8
0
 62
7
 10
-1.45499966E+02
 20
-3.17190637E+02
 11
-1.43499979E+02
 21
-3.18345331E+02
  0
LINE
  8
0
 62
7
 10
-1.47499926E+02
 20
-3.18345265E+02
 11
-1.45499938E+02
 21
-3.17190571E+02
  0
LINE
  8
0
 62
7
 10
-2.44036180E+02
 20
-3.13500100E+02
 11
-2.40572072E+02
 21
-3.19500119E+02
  0
LINE
  8
0
 62
7
 10
-2.45499994E+02
 20
-3.18345210E+02
 11
-2.47499928E+02
 21
-3.17190547E+02
  0
LINE
  8
0
 62
7
 10
-2.86499969E+02
 20
-1.08500000E+02
 11
-2.86499969E+02
 21
-1.70499969E+02
  0
LINE
  8
0
 62
7
 10
-2.86499969E+02
 20
-1.70499969E+02
 11
-2.59500031E+02
 21
-1.70499969E+02
  0
LINE
  8
0
 62
7
 10
-1.33500061E+02
 20
-1.70499969E+02
 11
-8.05000305E+01
 21
-1.70499969E+02
  0
LINE
  8
0
 62
7
 10
-2.59500031E+02
 20
-1.67000000E+02
 11
-1.33500031E+02
 21
-1.67000000E+02
  0
LINE
  8
0
  6
CENTER
 62
2
 10
-2.71500092E+02
 20
-1.20221008E+02
 11
-2.71500092E+02
 21
-1.38786804E+02
  0
LINE
  8
0
  6
CENTER
 62
2
 10
-2.80559906E+02
 20
-1.29500000E+02
 11
-2.62215118E+02
 21
-1.29500000E+02
  0
LINE
  8
0
 62
7
 10
-5.05500092E+02
 20
-3.15500031E+02
 11
-5.09800018E+02
 21
-3.15500031E+02
  0
LINE
  8
0
 62
2
 10
-5.05500092E+02
 20
-3.16200043E+02
 11
-5.10499969E+02
 21
-3.16200043E+02
  0
LINE
  8
0
 62
7
 10
1.34499908E+02
 20
-2.91999969E+02
 11
1.34499908E+02
 21
-3.19500000E+02
  0
LINE
  8
0
 62
7
 10
-2.44035919E+02
 20
-3.13500000E+02
 11
-2.50964142E+02
 21
-3.13500000E+02
  0
LINE
  8
0
 62
7
 10
-2.50964338E+02
 20
-3.13499786E+02
 11
-2.54428430E+02
 21
-3.19499779E+02
  0
LINE
  8
0
 62
7
 10
-1.33500000E+02
 20
-1.08499969E+02
 11
-1.33500000E+02
 21
-1.70499969E+02
  0
LINE
  8
0
 62
7
 10
7.25000172E+01
 20
-3.11500031E+02
 11
7.09999714E+01
 21
-3.11500031E+02
  0
LINE
  8
0
 62
7
 10
1.42499969E+02
 20
-3.19500000E+02
 11
1.42499969E+02
 21
-3.13500000E+02
  0
LINE
  8
0
 62
7
 10
7.09999104E+01
 20
-3.19500000E+02
 11
7.09999104E+01
 21
-3.11500000E+02
  0
LINE
  8
0
 62
7
 10
1.36000000E+02
 20
-3.19500000E+02
 11
1.41807129E+02
 21
-3.19500000E+02
  0
LINE
  8
0
 62
7
 10
1.36000092E+02
 20
-3.13500000E+02
 11
1.42500031E+02
 21
-3.13500000E+02
  0
LINE
  8
0
 62
7
 10
1.47499959E+02
 20
-3.16200124E+02
 11
1.46799952E+02
 21
-3.15500117E+02
  0
LINE
  8
0
 62
2
 10
1.42500031E+02
 20
-3.16200043E+02
 11
1.47500031E+02
 21
-3.16200043E+02
  0
LINE
  8
0
 62
7
 10
1.42500031E+02
 20
-3.15500031E+02
 11
1.46800049E+02
 21
-3.15500031E+02
  0
LINE
  8
0
 62
7
 10
-5.05500092E+02
 20
-3.19500000E+02
 11
-5.05500092E+02
 21
-3.13500000E+02
  0
LINE
  8
0
 62
7
 10
-4.35500031E+02
 20
-3.11500031E+02
 11
-4.33999969E+02
 21
-3.11500031E+02
  0
LINE
  8
0
 62
7
 10
-4.27499969E+02
 20
-3.19500000E+02
 11
-4.27499969E+02
 21
-3.13500000E+02
  0
LINE
  8
0
 62
7
 10
-4.33999969E+02
 20
-3.19500000E+02
 11
-4.33999969E+02
 21
-3.11500000E+02
  0
LINE
  8
0
 62
7
 10
-4.34000031E+02
 20
-3.19500000E+02
 11
-4.28192841E+02
 21
-3.19500000E+02
  0
LINE
  8
0
 62
7
 10
-4.99000031E+02
 20
-3.13500000E+02
 11
-5.05500092E+02
 21
-3.13500000E+02
  0
LINE
  8
0
 62
7
 10
-5.10499969E+02
 20
-3.19500000E+02
 11
-5.10499969E+02
 21
-3.16200012E+02
  0
LINE
  8
0
 62
7
 10
-4.97500092E+02
 20
-3.11500031E+02
 11
-4.99000031E+02
 21
-3.11500031E+02
  0
LINE
  8
0
 62
7
 10
-4.99000031E+02
 20
-3.19500000E+02
 11
-5.04807220E+02
 21
-3.19500000E+02
  0
LINE
  8
0
 62
7
 10
1.35999939E+02
 20
-3.19500000E+02
 11
1.35999939E+02
 21
-3.11500000E+02
  0
LINE
  8
0
 62
7
 10
-2.59500031E+02
 20
-2.91999969E+02
 11
-2.08500000E+02
 21
-2.91999969E+02
  0
LINE
  8
0
  6
CENTER
 62
2
 10
-4.53385956E+02
 20
-2.96000000E+02
 11
-4.33159882E+02
 21
-2.96000000E+02
  0
LINE
  8
0
 62
7
 10
-4.35500031E+02
 20
-2.92000000E+02
 11
-4.35500031E+02
 21
-3.19500000E+02
  0
LINE
  8
0
 62
7
 10
-4.87000031E+02
 20
-2.94267975E+02
 11
-4.87000031E+02
 21
-2.97732056E+02
  0
LINE
  8
0
 62
7
 10
-4.87000400E+02
 20
-2.97731267E+02
 11
-4.90000413E+02
 21
-2.99463315E+02
  0
LINE
  8
0
 62
7
 10
-4.90000249E+02
 20
-2.99464218E+02
 11
-4.93000156E+02
 21
-2.97732231E+02
  0
LINE
  8
0
 62
7
 10
-4.93000031E+02
 20
-2.97732056E+02
 11
-4.93000031E+02
 21
-2.94267975E+02
  0
LINE
  8
0
 62
7
 10
-4.90000439E+02
 20
-2.92535137E+02
 11
-4.93000452E+02
 21
-2.94267185E+02
  0
LINE
  8
0
 62
7
 10
-4.33999969E+02
 20
-3.13500000E+02
 11
-4.27500031E+02
 21
-3.13500000E+02
  0
LINE
  8
0
 62
7
 10
-1.33500000E+02
 20
-2.88500031E+02
 11
-8.05000000E+01
 21
-2.88500031E+02
  0
LINE
  8
0
 62
7
 10
-4.87000119E+02
 20
-2.94268052E+02
 11
-4.90000132E+02
 21
-2.92536005E+02
  0
LINE
  8
0
 62
7
 10
1.46800018E+02
 20
-3.19500000E+02
 11
1.46800018E+02
 21
-3.15500000E+02
  0
LINE
  8
0
 62
7
 10
-8.05000305E+01
 20
-2.88500000E+02
 11
-8.05000305E+01
 21
-3.19500000E+02
  0
LINE
  8
0
 62
7
 10
-1.48975006E+02
 20
-1.06999969E+02
 11
-1.48975006E+02
 21
-1.01192780E+02
  0
LINE
  8
0
 62
7
 10
-2.86500031E+02
 20
-2.88500031E+02
 11
-2.59500031E+02
 21
-2.88500031E+02
  0
LINE
  8
0
 62
7
 10
-1.42199849E+02
 20
-9.54999322E+01
 11
-1.41499821E+02
 21
-9.61999610E+01
  0
LINE
  8
0
 62
7
 10
-1.49499810E+02
 20
-9.62002010E+01
 11
-1.48799798E+02
 21
-9.55001884E+01
  0
LINE
  8
0
 62
7
 10
-1.49500000E+02
 20
-9.61999817E+01
 11
-1.41500000E+02
 21
-9.61999817E+01
  0
LINE
  8
0
 62
2
 10
-1.42199982E+02
 20
-1.00499969E+02
 11
-1.42199982E+02
 21
-9.55000000E+01
  0
LINE
  8
0
 62
2
 10
-1.48800018E+02
 20
-1.00499969E+02
 11
-1.48800018E+02
 21
-9.55000000E+01
  0
LINE
  8
0
 62
7
 10
-1.41500000E+02
 20
-1.00499969E+02
 11
-1.41500000E+02
 21
-9.61999817E+01
  0
LINE
  8
0
 62
7
 10
-1.49500000E+02
 20
-1.00499969E+02
 11
-1.49500000E+02
 21
-9.61999817E+01
  0
LINE
  8
0
 62
7
 10
-1.42025024E+02
 20
-1.06999969E+02
 11
-1.42025024E+02
 21
-1.01192780E+02
  0
LINE
  8
0
 62
7
 10
-1.33500000E+02
 20
-1.18649994E+02
 11
-2.59500031E+02
 21
-1.18649994E+02
  0
LINE
  8
0
  6
CENTER
 62
2
 10
-7.35516052E+01
 20
-1.15999969E+02
 11
-2.90672455E+02
 21
-1.15999969E+02
  0
LINE
  8
0
 62
7
 10
1.47499969E+02
 20
-3.19500000E+02
 11
1.47499969E+02
 21
-3.16200012E+02
  0
LINE
  8
0
  6
CENTER
 62
2
 10
-4.90000092E+02
 20
-2.86298706E+02
 11
-4.90000092E+02
 21
-3.05617188E+02
  0
LINE
  8
0
  6
CENTER
 62
2
 10
-4.79614044E+02
 20
-2.96000000E+02
 11
-4.99840179E+02
 21
-2.96000000E+02
  0
LINE
  8
0
 62
7
 10
-2.59499969E+02
 20
-2.88500000E+02
 11
-2.59499969E+02
 21
-3.19500000E+02
  0
LINE
  8
0
  6
CENTER
 62
2
 10
-4.19842560E+02
 20
-3.19500000E+02
 11
-5.13476349E+02
 21
-3.19500000E+02
  0
LINE
  8
0
 62
7
 10
-1.52449821E+02
 20
-1.01193201E+02
 11
-1.51249799E+02
 21
-1.00500368E+02
  0
LINE
  8
0
 62
7
 10
-1.39750014E+02
 20
-1.00499954E+02
 11
-1.38549979E+02
 21
-1.01192794E+02
  0
LINE
  8
0
 62
7
 10
-1.52449982E+02
 20
-1.06999969E+02
 11
-1.52449982E+02
 21
-1.01192780E+02
  0
LINE
  8
0
 62
7
 10
-1.38549988E+02
 20
-1.06999969E+02
 11
-1.38549988E+02
 21
-1.01192780E+02
  0
LINE
  8
0
 62
7
 10
-1.51250000E+02
 20
-1.00499969E+02
 11
-1.39750000E+02
 21
-1.00499969E+02
  0
LINE
  8
0
 62
7
 10
-1.48800018E+02
 20
-9.54999695E+01
 11
-1.42200012E+02
 21
-9.54999695E+01
  0
LINE
  8
0
 62
7
 10
-1.53500000E+02
 20
-1.11999969E+02
 11
-1.53500000E+02
 21
-1.06999969E+02
  0
LINE
  8
0
  6
CENTER
 62
2
 10
-4.66500031E+02
 20
-2.79068695E+02
 11
-4.66500031E+02
 21
-3.19500000E+02
  0
LINE
  8
0
 62
7
 10
-4.46000092E+02
 20
-2.94267975E+02
 11
-4.46000092E+02
 21
-2.97732056E+02
  0
LINE
  8
0
 62
7
 10
-4.46000178E+02
 20
-2.97732008E+02
 11
-4.43000165E+02
 21
-2.99464055E+02
  0
LINE
  8
0
 62
7
 10
-4.43000371E+02
 20
-2.99463343E+02
 11
-4.40000385E+02
 21
-2.97731310E+02
  0
LINE
  8
0
 62
7
 10
1.34500000E+02
 20
-3.11500031E+02
 11
1.36000000E+02
 21
-3.11500031E+02
  0
LINE
  8
0
 62
7
 10
-1.37500000E+02
 20
-1.11999969E+02
 11
-1.37500000E+02
 21
-1.06999969E+02
  0
LINE
  8
0
 62
7
 10
-4.39999969E+02
 20
-2.97732056E+02
 11
-4.39999969E+02
 21
-2.94267975E+02
  0
LINE
  8
0
 62
7
 10
-1.53500000E+02
 20
-1.06999969E+02
 11
-1.37500000E+02
 21
-1.06999969E+02
  0
LINE
  8
0
 62
7
 10
-4.43000230E+02
 20
-2.92535913E+02
 11
-4.40000111E+02
 21
-2.94268022E+02
  0
LINE
  8
0
 62
7
 10
-1.42199785E+02
 20
-1.83500220E+02
 11
-1.41499788E+02
 21
-1.82800223E+02
  0
LINE
  8
0
 62
7
 10
-1.49499910E+02
 20
-1.82799905E+02
 11
-1.48799924E+02
 21
-1.83499891E+02
  0
LINE
  8
0
 62
7
 10
-1.49500000E+02
 20
-1.82799988E+02
 11
-1.41500000E+02
 21
-1.82799988E+02
  0
LINE
  8
0
 62
2
 10
-1.42199982E+02
 20
-1.78499969E+02
 11
-1.42199982E+02
 21
-1.83499969E+02
  0
LINE
  8
0
 62
2
 10
-1.48800018E+02
 20
-1.78499969E+02
 11
-1.48800018E+02
 21
-1.83499969E+02
  0
LINE
  8
0
 62
7
 10
-1.41500000E+02
 20
-1.78499969E+02
 11
-1.41500000E+02
 21
-1.82799988E+02
  0
LINE
  8
0
 62
7
 10
-4.46000459E+02
 20
-2.94267312E+02
 11
-4.43000394E+02
 21
-2.92535234E+02
  0
LINE
  8
0
 62
7
 10
-1.49500000E+02
 20
-1.78499969E+02
 11
-1.49500000E+02
 21
-1.82799988E+02
  0
LINE
  8
0
 62
7
 10
-1.42025024E+02
 20
-1.72000000E+02
 11
-1.42025024E+02
 21
-1.77807159E+02
  0
LINE
  8
0
 62
7
 10
-1.48975006E+02
 20
-1.72000000E+02
 11
-1.48975006E+02
 21
-1.77807159E+02
  0
LINE
  8
0
 62
7
 10
-1.52450022E+02
 20
-1.77807190E+02
 11
-1.51250039E+02
 21
-1.78500000E+02
  0
LINE
  8
0
 62
7
 10
-1.39749990E+02
 20
-1.78500132E+02
 11
-1.38549981E+02
 21
-1.77807307E+02
  0
LINE
  8
0
 62
7
 10
-1.52449982E+02
 20
-1.72000000E+02
 11
-1.52449982E+02
 21
-1.77807159E+02
  0
LINE
  8
0
 62
7
 10
-1.38549988E+02
 20
-1.72000000E+02
 11
-1.38549988E+02
 21
-1.77807159E+02
  0
LINE
  8
0
 62
7
 10
-1.51250000E+02
 20
-1.78499969E+02
 11
-1.39750000E+02
 21
-1.78499969E+02
  0
LINE
  8
0
 62
7
 10
-1.48800018E+02
 20
-1.83499969E+02
 11
-1.42200012E+02
 21
-1.83499969E+02
  0
LINE
  8
0
 62
7
 10
-1.53500000E+02
 20
-1.67000000E+02
 11
-1.53500000E+02
 21
-1.72000000E+02
  0
LINE
  8
0
 62
7
 10
-1.37500000E+02
 20
-1.67000000E+02
 11
-1.37500000E+02
 21
-1.72000000E+02
  0
LINE
  8
0
 62
7
 10
-1.53500000E+02
 20
-1.72000000E+02
 11
-1.37500000E+02
 21
-1.72000000E+02
  0
LINE
  8
0
 62
7
 10
-4.97500092E+02
 20
-2.92000000E+02
 11
-4.97500092E+02
 21
-3.19500000E+02
  0
LINE
  8
0
 62
7
 10
-4.39000031E+02
 20
-2.88500000E+02
 11
-4.94000031E+02
 21
-2.88500000E+02
  0
LINE
  8
0
  6
CENTER
 62
2
 10
-4.42999969E+02
 20
-2.86298706E+02
 11
-4.42999969E+02
 21
-3.05617188E+02
  0
LINE
  8
0
  6
CENTER
 62
2
 10
-3.39010223E+02
 20
-3.19500000E+02
 11
2.74445854E+00
 21
-3.19500000E+02
  0
LINE
  8
0
 62
7
 10
-1.33500061E+02
 20
-1.08499969E+02
 11
-8.05000305E+01
 21
-1.08499969E+02
  0
LINE
  8
0
 62
7
 10
-8.05000000E+01
 20
-1.70499969E+02
 11
-8.05000000E+01
 21
-1.08499969E+02
  0
LINE
  8
0
 62
7
 10
-2.86499969E+02
 20
-1.08499969E+02
 11
-2.59500031E+02
 21
-1.08499969E+02
  0
LINE
  8
0
  6
CENTER
 62
2
 10
-1.96500061E+02
 20
-1.55870331E+02
 11
-1.96500061E+02
 21
-1.22884033E+02
  0
LINE
  8
0
  6
CENTER
 62
2
 10
-3.43084381E+02
 20
-1.39500000E+02
 11
-4.60000098E+01
 21
-1.39500000E+02
  0
LINE
  8
0
 62
7
 10
7.59999714E+01
 20
-2.88500000E+02
 11
9.22998305E+01
 21
-2.88500000E+02
  0
LINE
  8
0
 62
7
 10
7.24999714E+01
 20
-2.91999969E+02
 11
7.24999714E+01
 21
-3.19500000E+02
  0
LINE
  8
0
 62
7
 10
7.09999714E+01
 20
-3.13500000E+02
 11
6.44999866E+01
 21
-3.13500000E+02
  0
LINE
  8
0
 62
7
 10
7.09999714E+01
 20
-3.19500000E+02
 11
6.51927814E+01
 21
-3.19500000E+02
  0
LINE
  8
0
 62
7
 10
5.94999481E+01
 20
-3.16199936E+02
 11
6.01999660E+01
 21
-3.15499918E+02
  0
LINE
  8
0
 62
7
 10
6.01999226E+01
 20
-3.19500000E+02
 11
6.01999226E+01
 21
-3.15500000E+02
  0
LINE
  8
0
 62
7
 10
-2.59500031E+02
 20
-2.93350006E+02
 11
-1.33500000E+02
 21
-2.93350006E+02
  0
LINE
  8
0
 62
7
 10
-2.47499862E+02
 20
-3.17190727E+02
 11
-2.49499850E+02
 21
-3.18345421E+02
  0
LINE
  8
0
 62
7
 10
-1.33500000E+02
 20
-1.65649963E+02
 11
-2.59500031E+02
 21
-1.65649963E+02
  0
LINE
  8
0
 62
7
 10
-1.33500000E+02
 20
-1.60349976E+02
 11
-2.59500031E+02
 21
-1.60349976E+02
  0
LINE
  8
0
  6
CENTER
 62
2
 10
-7.35516052E+01
 20
-1.62999969E+02
 11
-2.90672455E+02
 21
-1.62999969E+02
  0
LINE
  8
0
 62
7
 10
8.49999095E+01
 20
-2.97535822E+02
 11
8.79999112E+01
 21
-2.99267874E+02
  0
LINE
  8
0
 62
7
 10
1.18999970E+02
 20
-2.99267868E+02
 11
1.18999970E+02
 21
-3.02731979E+02
  0
LINE
  8
0
 62
7
 10
1.21999969E+02
 20
-3.04464030E+02
 11
1.18999967E+02
 21
-3.02731978E+02
  0
LINE
  8
0
 62
7
 10
1.24999965E+02
 20
-3.02731975E+02
 11
1.21999963E+02
 21
-3.04464027E+02
  0
LINE
  8
0
 62
7
 10
1.24999969E+02
 20
-2.99267868E+02
 11
1.24999969E+02
 21
-3.02731979E+02
  0
LINE
  8
0
 62
7
 10
1.21999965E+02
 20
-2.97535823E+02
 11
1.18999963E+02
 21
-2.99267875E+02
  0
LINE
  8
0
 62
7
 10
8.19999104E+01
 20
-2.99267868E+02
 11
8.19999104E+01
 21
-3.02731979E+02
  0
LINE
  8
0
 62
7
 10
8.49999112E+01
 20
-3.04464027E+02
 11
8.19999095E+01
 21
-3.02731975E+02
  0
LINE
  8
0
 62
7
 10
8.49999052E+01
 20
-2.97535823E+02
 11
8.19999068E+01
 21
-2.99267872E+02
  0
LINE
  8
0
 62
7
 10
9.28869324E+01
 20
-3.01470810E+02
 11
9.49170227E+01
 21
-3.01470810E+02
  0
LINE
  8
0
 62
7
 10
8.79999084E+01
 20
-2.99267868E+02
 11
8.79999084E+01
 21
-3.02731979E+02
  0
LINE
  8
0
 62
7
 10
8.79999052E+01
 20
-3.02731975E+02
 11
8.49999068E+01
 21
-3.04464025E+02
  0
LINE
  8
0
 62
7
 10
8.14999714E+01
 20
-3.14499969E+02
 11
8.14999714E+01
 21
-3.19500000E+02
  0
LINE
  8
0
 62
7
 10
9.11843244E+01
 20
-3.05770016E+02
 11
9.22697899E+01
 21
-3.06855482E+02
  0
LINE
  8
0
 62
7
 10
1.02499969E+02
 20
-2.98500000E+02
 11
1.02499969E+02
 21
-3.02618057E+02
  0
LINE
  8
0
 62
7
 10
8.97701648E+01
 20
-3.07184197E+02
 11
9.08556411E+01
 21
-3.08269674E+02
  0
LINE
  8
0
 62
7
 10
8.24999714E+01
 20
-3.18500000E+02
 11
8.66180134E+01
 21
-3.18500000E+02
  0
LINE
  8
0
 62
7
 10
7.89999714E+01
 20
-2.97500031E+02
 11
7.89999714E+01
 21
-3.19500000E+02
  0
LINE
  8
0
 62
7
 10
8.14999714E+01
 20
-2.95000031E+02
 11
1.25499969E+02
 21
-2.94999969E+02
  0
LINE
  8
0
 62
7
 10
7.84999714E+01
 20
-2.97499969E+02
 11
7.84999714E+01
 21
-3.19500000E+02
  0
LINE
  8
0
  6
CENTER
 62
2
 10
1.30589874E+02
 20
-3.00999924E+02
 11
1.15923004E+02
 21
-3.00999924E+02
  0
LINE
  8
0
  6
CENTER
 62
2
 10
1.21999969E+02
 20
-2.92597351E+02
 11
1.21999969E+02
 21
-3.08884338E+02
  0
LINE
  8
0
 62
7
 10
8.14999714E+01
 20
-2.94499969E+02
 11
1.25500031E+02
 21
-2.94499969E+02
  0
LINE
  8
0
 62
7
 10
1.28500031E+02
 20
-2.97499969E+02
 11
1.28500031E+02
 21
-3.19500000E+02
  0
LINE
  8
0
 62
7
 10
1.27999969E+02
 20
-2.97499969E+02
 11
1.27999969E+02
 21
-3.19500000E+02
  0
LINE
  8
0
  6
CENTER
 62
2
 10
1.07500031E+02
 20
-2.92747604E+02
 11
1.07500031E+02
 21
-3.03928207E+02
  0
LINE
  8
0
  6
CENTER
 62
2
 10
8.49999104E+01
 20
-2.92493347E+02
 11
8.49999104E+01
 21
-3.07414490E+02
  0
LINE
  8
0
 62
7
 10
-3.08500035E+02
 20
-3.11499974E+02
 11
-3.11500040E+02
 21
-3.12500006E+02
  0
LINE
  8
0
 62
7
 10
-3.11500037E+02
 20
-3.19500001E+02
 11
-3.08500034E+02
 21
-3.15627011E+02
  0
LINE
  8
0
 62
7
 10
-3.35500043E+02
 20
-1.45000012E+02
 11
-3.34000030E+02
 21
-1.46500024E+02
  0
LINE
  8
0
 62
7
 10
-3.34000031E+02
 20
-1.46500031E+02
 11
-3.34000031E+02
 21
-1.32500000E+02
  0
LINE
  8
0
 62
7
 10
1.04499969E+02
 20
-2.98500000E+02
 11
1.04499969E+02
 21
-3.02618042E+02
  0
LINE
  8
0
 62
7
 10
1.24499969E+02
 20
-3.18499985E+02
 11
1.20381927E+02
 21
-3.18499985E+02
  0
LINE
  8
0
 62
7
 10
1.17229908E+02
 20
-3.07184312E+02
 11
1.16144431E+02
 21
-3.08269788E+02
  0
LINE
  8
0
 62
7
 10
1.15815737E+02
 20
-3.05770055E+02
 11
1.14730261E+02
 21
-3.06855531E+02
  0
LINE
  8
0
 62
7
 10
9.84999695E+01
 20
-2.97499969E+02
 11
1.08500031E+02
 21
-2.97499969E+02
  0
LINE
  8
0
 62
7
 10
1.25499969E+02
 20
-3.14499969E+02
 11
1.25499969E+02
 21
-3.19500000E+02
  0
LINE
  8
0
  6
CENTER
 62
2
 10
-6.25000305E+01
 20
-2.92747635E+02
 11
-6.25000305E+01
 21
-3.03928238E+02
  0
LINE
  8
0
 62
7
 10
-3.35499902E+02
 20
-3.14000110E+02
 11
-3.33999955E+02
 21
-3.12500117E+02
  0
LINE
  8
0
 62
7
 10
-3.14500031E+02
 20
-3.12500015E+02
 11
-3.14500031E+02
 21
-3.19500000E+02
  0
LINE
  8
0
 62
7
 10
-3.34000031E+02
 20
-3.12500015E+02
 11
-3.34000031E+02
 21
-3.19500000E+02
  0
LINE
  8
0
 62
2
 10
-3.34819977E+02
 20
-3.13320007E+02
 11
-3.28999969E+02
 21
-3.13320007E+02
  0
LINE
  8
0
 62
7
 10
-3.34000031E+02
 20
-3.12500015E+02
 11
-3.28999969E+02
 21
-3.12500015E+02
  0
LINE
  8
0
 62
7
 10
-3.35500031E+02
 20
-3.19500000E+02
 11
-3.35500031E+02
 21
-3.14000015E+02
  0
LINE
  8
0
 62
7
 10
-3.14500031E+02
 20
-1.33200012E+02
 11
-3.11499969E+02
 21
-1.33200012E+02
  0
LINE
  8
0
 62
7
 10
-5.35565567E+01
 20
-1.49500028E+02
 11
-5.42782447E+01
 21
-1.50750044E+02
  0
LINE
  8
0
 62
7
 10
-5.42783508E+01
 20
-1.50749969E+02
 11
-5.57217407E+01
 21
-1.50749969E+02
  0
LINE
  8
0
 62
7
 10
-5.57216992E+01
 20
-1.50749978E+02
 11
-5.64434024E+01
 21
-1.49499936E+02
  0
LINE
  8
0
 62
7
 10
-5.64433451E+01
 20
-1.49499986E+02
 11
-5.57216572E+01
 21
-1.48249970E+02
  0
LINE
  8
0
 62
7
 10
-3.11500031E+02
 20
-3.19500000E+02
 11
-3.11500031E+02
 21
-3.12500015E+02
  0
LINE
  8
0
 62
7
 10
-3.08500031E+02
 20
-3.15627014E+02
 11
-3.08500031E+02
 21
-3.11500031E+02
  0
LINE
  8
0
 62
7
 10
-3.04500031E+02
 20
-3.19500000E+02
 11
-3.04500031E+02
 21
-3.15627014E+02
  0
LINE
  8
0
 62
7
 10
-3.08500000E+02
 20
-1.32500000E+02
 11
-3.08500000E+02
 21
-1.46500031E+02
  0
LINE
  8
0
 62
7
 10
-3.04500032E+02
 20
-1.32499967E+02
 11
-3.03500084E+02
 21
-1.31500020E+02
  0
LINE
  8
0
 62
7
 10
-3.04499987E+02
 20
-1.46500003E+02
 11
-3.03499964E+02
 21
-1.47500026E+02
  0
LINE
  8
0
 62
7
 10
-2.96258760E+02
 20
-3.04241523E+02
 11
-2.88499177E+02
 21
-3.03970553E+02
  0
LINE
  8
0
 62
7
 10
-3.11499969E+02
 20
-1.46500031E+02
 11
-3.04499939E+02
 21
-1.46500031E+02
  0
LINE
  8
0
 62
2
 10
-3.34700043E+02
 20
-1.45800034E+02
 11
-3.29000031E+02
 21
-1.45800034E+02
  0
LINE
  8
0
 62
7
 10
-3.34000031E+02
 20
-1.46500031E+02
 11
-3.29000031E+02
 21
-1.46500031E+02
  0
LINE
  8
0
 62
7
 10
-3.11499969E+02
 20
-1.32500000E+02
 11
-3.04500031E+02
 21
-1.32500000E+02
  0
LINE
  8
0
 62
2
 10
-3.34700043E+02
 20
-1.33200012E+02
 11
-3.29000031E+02
 21
-1.33200012E+02
  0
LINE
  8
0
 62
7
 10
-3.35500033E+02
 20
-1.33999988E+02
 11
-3.34000006E+02
 21
-1.32499991E+02
  0
LINE
  8
0
 62
7
 10
-3.14500031E+02
 20
-1.46500031E+02
 11
-3.14500031E+02
 21
-1.32500000E+02
  0
LINE
  8
0
 62
7
 10
-3.33999969E+02
 20
-1.32500000E+02
 11
-3.29000031E+02
 21
-1.32500000E+02
  0
LINE
  8
0
 62
7
 10
-3.35500031E+02
 20
-1.45000031E+02
 11
-3.35500031E+02
 21
-1.34000000E+02
  0
LINE
  8
0
 62
7
 10
-3.11499969E+02
 20
-1.32500000E+02
 11
-3.11499969E+02
 21
-1.46500031E+02
  0
LINE
  8
0
 62
7
 10
-3.03499969E+02
 20
-1.47500015E+02
 11
-3.01500000E+02
 21
-1.47500015E+02
  0
LINE
  8
0
 62
7
 10
-3.03500061E+02
 20
-1.31500031E+02
 11
-3.01499969E+02
 21
-1.31500031E+02
  0
LINE
  8
0
 62
2
 10
-3.09884649E+02
 20
-3.17414541E+02
 11
-3.08000028E+02
 21
-3.19500000E+02
  0
LINE
  8
0
 62
2
 10
-3.08000012E+02
 20
-3.19500000E+02
 11
-3.04500012E+02
 21
-3.15627014E+02
  0
LINE
  8
0
 62
7
 10
-3.08500031E+02
 20
-3.11499985E+02
 11
-3.01500061E+02
 21
-3.11499985E+02
  0
LINE
  8
0
 62
7
 10
-3.08500031E+02
 20
-3.15627014E+02
 11
-3.04500031E+02
 21
-3.15627014E+02
  0
LINE
  8
0
 62
7
 10
-8.05000305E+01
 20
-2.95285568E+02
 11
-8.05000305E+01
 21
-3.19500000E+02
  0
LINE
  8
0
 62
7
 10
-4.95000458E+01
 20
-2.94500000E+02
 11
-4.95000458E+01
 21
-3.19500000E+02
  0
LINE
  8
0
 62
7
 10
-4.95000153E+01
 20
-1.17500031E+02
 11
-4.15000098E+01
 21
-1.17500031E+02
  0
LINE
  8
0
 62
7
 10
-5.42783508E+01
 20
-1.48249939E+02
 11
-5.57217407E+01
 21
-1.48249939E+02
  0
LINE
  8
0
 62
7
 10
-5.35566745E+01
 20
-1.49499911E+02
 11
-5.42783472E+01
 21
-1.48249921E+02
  0
LINE
  8
0
 62
7
 10
-4.95000153E+01
 20
-1.18350006E+02
 11
-4.15000098E+01
 21
-1.18350006E+02
  0
LINE
  8
0
 62
7
 10
-4.95000153E+01
 20
-1.23649994E+02
 11
-4.15000098E+01
 21
-1.23649994E+02
  0
LINE
  8
0
  6
CENTER
 62
2
 10
-8.27270203E+01
 20
-1.21000000E+02
 11
-4.15000098E+01
 21
-1.21000000E+02
  0
LINE
  8
0
 62
7
 10
-4.95000153E+01
 20
-1.61499985E+02
 11
-9.95723858E+00
 21
-1.61499985E+02
  0
LINE
  8
0
 62
7
 10
-4.95000153E+01
 20
-1.60649994E+02
 11
-9.46649614E+00
 21
-1.60649994E+02
  0
LINE
  8
0
 62
7
 10
-2.96500031E+02
 20
-3.19500000E+02
 11
-2.96500031E+02
 21
-3.04491394E+02
  0
LINE
  8
0
 62
7
 10
-2.88500031E+02
 20
-3.04000000E+02
 11
-2.88500031E+02
 21
-3.19500000E+02
  0
LINE
  8
0
 62
7
 10
-4.95000153E+01
 20
-1.55350006E+02
 11
-6.40654676E+00
 21
-1.55350006E+02
  0
LINE
  8
0
 62
7
 10
-3.14500031E+02
 20
-1.45800034E+02
 11
-3.11499969E+02
 21
-1.45800034E+02
  0
LINE
  8
0
  6
CENTER
 62
2
 10
-8.27270203E+01
 20
-1.58000000E+02
 11
-7.93652145E+00
 21
-1.58000000E+02
  0
LINE
  8
0
 62
7
 10
-3.01500031E+02
 20
-3.19500000E+02
 11
-3.01500031E+02
 21
-3.05000000E+02
  0
LINE
  8
0
 62
7
 10
-7.55000000E+01
 20
-1.21500000E+02
 11
-7.55000000E+01
 21
-1.57500000E+02
  0
LINE
  8
0
 62
7
 10
-7.35000000E+01
 20
-1.59500000E+02
 11
-4.95000153E+01
 21
-1.59500000E+02
  0
LINE
  8
0
 62
7
 10
-7.35000000E+01
 20
-1.19500000E+02
 11
-4.95000153E+01
 21
-1.19500000E+02
  0
LINE
  8
0
  6
CENTER
 62
2
 10
-6.06966553E+01
 20
-1.49500000E+02
 11
-4.90811615E+01
 21
-1.49500000E+02
  0
LINE
  8
0
 62
7
 10
-4.95000070E+01
 20
-1.64499876E+02
 11
-8.00087573E+01
 21
-1.63967340E+02
  0
LINE
  8
0
 62
7
 10
-4.95000764E+01
 20
-1.14499938E+02
 11
-8.00088115E+01
 21
-1.15032466E+02
  0
LINE
  8
0
 62
7
 10
-2.88499969E+02
 20
-1.24000000E+02
 11
-2.88499969E+02
 21
-1.55029419E+02
  0
LINE
  8
0
 62
7
 10
-2.96499969E+02
 20
-1.24499969E+02
 11
-2.96499969E+02
 21
-1.54500031E+02
  0
LINE
  8
0
 62
7
 10
-2.96258758E+02
 20
-1.24241449E+02
 11
-2.88499175E+02
 21
-1.23970480E+02
  0
LINE
  8
0
 62
7
 10
-8.05000000E+01
 20
-1.63467529E+02
 11
-8.05000000E+01
 21
-1.15532471E+02
  0
LINE
  8
0
 62
7
 10
-4.95000153E+01
 20
-1.64500000E+02
 11
-4.95000153E+01
 21
-1.38042072E+02
  0
LINE
  8
0
 62
7
 10
-2.88000031E+02
 20
-1.23499969E+02
 11
-2.86500031E+02
 21
-1.23499969E+02
  0
LINE
  8
0
 62
7
 10
-3.01000061E+02
 20
-1.24499939E+02
 11
-2.96491089E+02
 21
-1.24499939E+02
  0
LINE
  8
0
 62
7
 10
-3.01499969E+02
 20
-1.54000000E+02
 11
-3.01499969E+02
 21
-1.25000000E+02
  0
LINE
  8
0
 62
7
 10
-2.96258811E+02
 20
-1.54758363E+02
 11
-2.88499228E+02
 21
-1.55029334E+02
  0
LINE
  8
0
 62
7
 10
-2.88000031E+02
 20
-1.55499969E+02
 11
-2.86500031E+02
 21
-1.55499969E+02
  0
LINE
  8
0
 62
7
 10
-3.01000061E+02
 20
-1.54500000E+02
 11
-2.96491089E+02
 21
-1.54500000E+02
  0
LINE
  8
0
  6
CENTER
 62
2
 10
-5.50000458E+01
 20
-1.55419708E+02
 11
-5.50000458E+01
 21
-1.43895081E+02
  0
LINE
  8
0
  6
CENTER
 62
2
 10
-7.26167603E+01
 20
-1.35500061E+02
 11
-5.25516205E+01
 21
-1.35500061E+02
  0
LINE
  8
0
  6
CENTER
 62
2
 10
-6.25000610E+01
 20
-1.45515869E+02
 11
-6.25000610E+01
 21
-1.25355835E+02
  0
LINE
  8
0
 62
7
 10
-2.88000031E+02
 20
-3.03500000E+02
 11
-2.86500031E+02
 21
-3.03500000E+02
  0
LINE
  8
0
 62
7
 10
-7.55000305E+01
 20
-2.95154602E+02
 11
-7.55000305E+01
 21
-2.94500000E+02
  0
LINE
  8
0
 62
7
 10
-8.05000924E+01
 20
-2.95285579E+02
 11
-4.95000834E+01
 21
-2.94473815E+02
  0
LINE
  8
0
 62
7
 10
-7.55000305E+01
 20
-2.94500000E+02
 11
-4.95000458E+01
 21
-2.94500000E+02
  0
LINE
  8
0
 62
7
 10
-3.14500031E+02
 20
-3.13320007E+02
 11
-3.11500031E+02
 21
-3.13320007E+02
  0
LINE
  8
0
 62
7
 10
-3.01000061E+02
 20
-3.04499969E+02
 11
-2.96491089E+02
 21
-3.04499969E+02
  0
LINE
  8
0
  6
CENTER
 62
2
 10
1.34254385E+01
 20
-3.01000000E+02
 11
-8.26034546E+01
 21
-3.01000000E+02
  0
LINE
  8
0
 62
7
 10
1.21999967E+02
 20
-2.97535825E+02
 11
1.24999969E+02
 21
-2.99267877E+02
  0
LINE
  8
0
  6
CENTER
 62
2
 10
1.03499969E+02
 20
-2.78297716E+02
 11
1.03499969E+02
 21
-3.19500000E+02
  0
LINE
  8
0
 62
7
 10
1.23499969E+02
 20
-2.94499969E+02
 11
1.23499969E+02
 21
-2.94999969E+02
  0
LINE
  8
0
 62
7
 10
8.34999714E+01
 20
-2.94499969E+02
 11
8.34999714E+01
 21
-2.95000031E+02
  0
LINE
  8
0
 62
7
 10
8.54999104E+01
 20
-3.08788696E+02
 11
8.54999104E+01
 21
-3.10749969E+02
  0
LINE
  8
0
 62
7
 10
1.14211700E+02
 20
-3.01499908E+02
 11
1.12250031E+02
 21
-3.01499908E+02
  0
LINE
  8
0
 62
7
 10
1.21499969E+02
 20
-3.08787842E+02
 11
1.21499969E+02
 21
-3.10749969E+02
  0
LINE
  8
0
  6
CENTER
 62
2
 10
9.13813782E+01
 20
-3.00999924E+02
 11
7.68597126E+01
 21
-3.00999924E+02
  0
LINE
  8
0
  6
CENTER
 62
2
 10
5.66735169E+01
 20
-3.19500000E+02
 11
1.49904613E+02
 21
-3.19500000E+02
  0
LINE
  8
0
 62
2
 10
-1.30912378E+01
 20
-1.66928231E+02
 11
1.68422258E+01
 21
-1.15081951E+02
  0
LINE
  8
0
 62
7
 10
-4.95000153E+01
 20
-1.24042072E+02
 11
-4.95000153E+01
 21
-1.14500000E+02
  0
LINE
  8
0
  6
CENTER
 62
2
 10
-7.00000977E+00
 20
-1.39500000E+02
 11
2.74445853E+00
 21
-1.39500000E+02
  0
LINE
  8
0
  6
CENTER
 62
2
 10
-2.65000098E+01
 20
-1.21000000E+02
 11
1.34254385E+01
 21
-1.21000000E+02
  0
LINE
  8
0
 62
2
 10
-4.18362809E-01
 20
-3.24978167E+02
 11
1.68422258E+01
 21
-2.95081951E+02
  0
LINE
  8
0
  6
CENTER
 62
2
 10
5.43010223E+02
 20
-3.19500000E+02
 11
1.75852147E+02
 21
-3.19500000E+02
  0
LINE
  8
0
 62
7
 10
2.84500092E+02
 20
-2.95285579E+02
 11
2.53500083E+02
 21
-2.94473815E+02
  0
LINE
  8
0
 62
7
 10
2.79500031E+02
 20
-2.94500000E+02
 11
2.53500046E+02
 21
-2.94500000E+02
  0
LINE
  8
0
  6
CENTER
 62
2
 10
1.86533127E+02
 20
-3.01000000E+02
 11
2.30500046E+02
 21
-3.01000000E+02
  0
LINE
  8
0
 62
7
 10
5.05000061E+02
 20
-3.04499969E+02
 11
5.00491089E+02
 21
-3.04499969E+02
  0
LINE
  8
0
 62
7
 10
5.18500031E+02
 20
-3.13320007E+02
 11
5.15500031E+02
 21
-3.13320007E+02
  0
LINE
  8
0
 62
7
 10
2.79500031E+02
 20
-2.95154602E+02
 11
2.79500031E+02
 21
-2.94500000E+02
  0
LINE
  8
0
 62
7
 10
4.92000031E+02
 20
-3.03500000E+02
 11
4.90500031E+02
 21
-3.03500000E+02
  0
LINE
  8
0
 62
7
 10
5.05500031E+02
 20
-3.19500000E+02
 11
5.05500031E+02
 21
-3.05000000E+02
  0
LINE
  8
0
 62
7
 10
4.92500031E+02
 20
-3.04000000E+02
 11
4.92500031E+02
 21
-3.19500000E+02
  0
LINE
  8
0
 62
7
 10
5.00500031E+02
 20
-3.19500000E+02
 11
5.00500031E+02
 21
-3.04491394E+02
  0
LINE
  8
0
 62
7
 10
2.84500031E+02
 20
-2.95285568E+02
 11
2.84500031E+02
 21
-3.19500000E+02
  0
LINE
  8
0
 62
7
 10
5.12500031E+02
 20
-3.15627014E+02
 11
5.08500031E+02
 21
-3.15627014E+02
  0
LINE
  8
0
 62
7
 10
5.12500031E+02
 20
-3.11499985E+02
 11
5.05500061E+02
 21
-3.11499985E+02
  0
LINE
  8
0
 62
2
 10
5.12000012E+02
 20
-3.19500000E+02
 11
5.08500012E+02
 21
-3.15627014E+02
  0
LINE
  8
0
 62
2
 10
5.13884649E+02
 20
-3.17414541E+02
 11
5.12000028E+02
 21
-3.19500000E+02
  0
LINE
  8
0
 62
7
 10
5.00258760E+02
 20
-3.04241523E+02
 11
4.92499177E+02
 21
-3.03970553E+02
  0
LINE
  8
0
 62
7
 10
5.08500031E+02
 20
-3.19500000E+02
 11
5.08500031E+02
 21
-3.15627014E+02
  0
LINE
  8
0
 62
7
 10
5.12500031E+02
 20
-3.15627014E+02
 11
5.12500031E+02
 21
-3.11500031E+02
  0
LINE
  8
0
 62
7
 10
5.15500031E+02
 20
-3.19500000E+02
 11
5.15500031E+02
 21
-3.12500015E+02
  0
LINE
  8
0
 62
7
 10
5.39500031E+02
 20
-3.19500000E+02
 11
5.39500031E+02
 21
-3.14000015E+02
  0
LINE
  8
0
 62
7
 10
5.38000031E+02
 20
-3.12500015E+02
 11
5.32999969E+02
 21
-3.12500015E+02
  0
LINE
  8
0
 62
2
 10
5.38819977E+02
 20
-3.13320007E+02
 11
5.32999969E+02
 21
-3.13320007E+02
  0
LINE
  8
0
 62
7
 10
5.38000031E+02
 20
-3.12500015E+02
 11
5.38000031E+02
 21
-3.19500000E+02
  0
LINE
  8
0
 62
7
 10
5.18500031E+02
 20
-3.12500015E+02
 11
5.18500031E+02
 21
-3.19500000E+02
  0
LINE
  8
0
 62
7
 10
5.39499902E+02
 20
-3.14000110E+02
 11
5.37999955E+02
 21
-3.12500117E+02
  0
LINE
  8
0
 62
7
 10
5.15500037E+02
 20
-3.19500001E+02
 11
5.12500034E+02
 21
-3.15627011E+02
  0
LINE
  8
0
 62
7
 10
5.12500035E+02
 20
-3.11499974E+02
 11
5.15500040E+02
 21
-3.12500006E+02
  0
LINE
  8
0
 62
7
 10
4.51499862E+02
 20
-3.17190727E+02
 11
4.53499850E+02
 21
-3.18345421E+02
  0
LINE
  8
0
 62
7
 10
4.63500031E+02
 20
-2.93350006E+02
 11
3.37500000E+02
 21
-2.93350006E+02
  0
LINE
  8
0
 62
7
 10
4.63499969E+02
 20
-2.88500000E+02
 11
4.63499969E+02
 21
-3.19500000E+02
  0
LINE
  8
0
 62
7
 10
4.90500031E+02
 20
-2.88500031E+02
 11
4.63500031E+02
 21
-2.88500031E+02
  0
LINE
  8
0
 62
7
 10
2.84500031E+02
 20
-2.88500000E+02
 11
2.84500031E+02
 21
-3.19500000E+02
  0
LINE
  8
0
 62
7
 10
3.37500000E+02
 20
-2.88500031E+02
 11
2.84500000E+02
 21
-2.88500031E+02
  0
LINE
  8
0
 62
7
 10
4.63500031E+02
 20
-2.91999969E+02
 11
4.12500000E+02
 21
-2.91999969E+02
  0
LINE
  8
0
 62
7
 10
4.54964338E+02
 20
-3.13499786E+02
 11
4.58428430E+02
 21
-3.19499779E+02
  0
LINE
  8
0
 62
7
 10
4.48035919E+02
 20
-3.13500000E+02
 11
4.54964142E+02
 21
-3.13500000E+02
  0
LINE
  8
0
 62
7
 10
4.49499994E+02
 20
-3.18345210E+02
 11
4.51499928E+02
 21
-3.17190547E+02
  0
LINE
  8
0
 62
7
 10
4.48036180E+02
 20
-3.13500100E+02
 11
4.44572072E+02
 21
-3.19500119E+02
  0
LINE
  8
0
 62
7
 10
3.51499926E+02
 20
-3.18345265E+02
 11
3.49499938E+02
 21
-3.17190571E+02
  0
LINE
  8
0
 62
7
 10
3.49499966E+02
 20
-3.17190637E+02
 11
3.47499979E+02
 21
-3.18345331E+02
  0
LINE
  8
0
 62
7
 10
3.52964117E+02
 20
-3.13500023E+02
 11
3.56428221E+02
 21
-3.19500036E+02
  0
LINE
  8
0
 62
7
 10
3.52964081E+02
 20
-3.13500000E+02
 11
3.46035858E+02
 21
-3.13500000E+02
  0
LINE
  8
0
 62
7
 10
3.46035929E+02
 20
-3.13499915E+02
 11
3.42571837E+02
 21
-3.19499908E+02
  0
LINE
  8
0
 62
7
 10
4.63500031E+02
 20
-2.98649994E+02
 11
3.37500000E+02
 21
-2.98649994E+02
  0
LINE
  8
0
  6
CENTER
 62
2
 10
4.94672394E+02
 20
-2.96000000E+02
 11
2.77551544E+02
 21
-2.96000000E+02
  0
LINE
  8
0
 62
7
 10
4.10500031E+02
 20
-2.82500000E+02
 11
3.90500000E+02
 21
-2.82500000E+02
  0
LINE
  8
0
 62
7
 10
4.53500031E+02
 20
-3.19500000E+02
 11
4.53500031E+02
 21
-3.18345337E+02
  0
LINE
  8
0
 62
7
 10
4.49500031E+02
 20
-3.18345154E+02
 11
4.49500031E+02
 21
-3.19500000E+02
  0
LINE
  8
0
 62
7
 10
4.90500031E+02
 20
-2.88500000E+02
 11
4.90500031E+02
 21
-3.19500000E+02
  0
LINE
  8
0
 62
7
 10
3.37500000E+02
 20
-2.88500000E+02
 11
3.37500000E+02
 21
-3.19500000E+02
  0
LINE
  8
0
  6
CENTER
 62
2
 10
4.51500031E+02
 20
-3.07972443E+02
 11
4.51500031E+02
 21
-3.19500000E+02
  0
LINE
  8
0
 62
7
 10
3.47499939E+02
 20
-3.19500000E+02
 11
3.47499939E+02
 21
-3.18345337E+02
  0
LINE
  8
0
 62
7
 10
3.51499969E+02
 20
-3.18345154E+02
 11
3.51499969E+02
 21
-3.19500000E+02
  0
LINE
  8
0
  6
CENTER
 62
2
 10
3.49499939E+02
 20
-3.07972443E+02
 11
3.49499939E+02
 21
-3.19500000E+02
  0
LINE
  8
0
 62
7
 10
3.88500000E+02
 20
-2.91999969E+02
 11
3.37500000E+02
 21
-2.91999969E+02
  0
LINE
  8
0
 62
7
 10
4.10499963E+02
 20
-2.90000068E+02
 11
4.12499944E+02
 21
-2.92000048E+02
  0
LINE
  8
0
 62
7
 10
3.90499985E+02
 20
-2.89999938E+02
 11
3.88499983E+02
 21
-2.91999941E+02
  0
LINE
  8
0
  6
CENTER
 62
2
 10
4.00500000E+02
 20
-2.96009399E+02
 11
4.00500000E+02
 21
-2.80451202E+02
  0
LINE
  8
0
 62
7
 10
3.91000008E+02
 20
-2.81999919E+02
 11
3.90499975E+02
 21
-2.82499952E+02
  0
LINE
  8
0
 62
7
 10
4.09999895E+02
 20
-2.82000059E+02
 11
4.10499908E+02
 21
-2.82500047E+02
  0
LINE
  8
0
 62
7
 10
4.10000000E+02
 20
-2.81999969E+02
 11
3.91000031E+02
 21
-2.81999969E+02
  0
LINE
  8
0
 62
7
 10
3.90500000E+02
 20
-2.89999939E+02
 11
3.90500000E+02
 21
-2.82499969E+02
  0
LINE
  8
0
 62
7
 10
4.10500000E+02
 20
-2.90000000E+02
 11
4.10500000E+02
 21
-2.82499939E+02
  0
ARC
  8
0
 62
7
 10
5.00250031E+02
 20
-3.04491394E+02
 40
2.50000000E-01
 50
3.59721787E-05
 51
8.79992642E+01
  0
ARC
  8
0
 62
7
 10
5.05000061E+02
 20
-3.05000000E+02
 40
5.00000000E-01
 50
3.59721787E-05
 51
9.00000179E+01
  0
ARC
  8
0
 62
7
 10
4.92000031E+02
 20
-3.04000000E+02
 40
5.00000000E-01
 50
3.59721787E-05
 51
9.00000179E+01
  0
ARC
  8
0
 62
7
 10
5.15500031E+02
 20
-3.19500000E+02
 40
8.00000000E+00
 50
1.51044960E+02
 51
1.80000000E+02
  0
ARC
  8
0
 62
2
 10
4.00500000E+02
 20
-2.67256287E+02
 40
2.75000153E+01
 50
2.88402513E+02
 51
2.95872083E+02
  0
ARC
  8
0
 62
2
 10
4.00500000E+02
 20
-2.67256287E+02
 40
2.48450584E+01
 50
2.46265840E+02
 51
2.93734227E+02
  0
ARC
  8
0
 62
2
 10
4.00500000E+02
 20
-2.67256287E+02
 40
2.75000153E+01
 50
2.44127936E+02
 51
2.51597506E+02
  0
ARC
  8
0
 62
7
 10
4.51500031E+02
 20
-3.19500000E+02
 40
4.00000000E+00
 50
0.00000000E+00
 51
1.80000000E+02
  0
ARC
  8
0
 62
7
 10
4.51500031E+02
 20
-3.19500000E+02
 40
8.00000000E+00
 50
0.00000000E+00
 51
1.80000000E+02
  0
ARC
  8
0
 62
7
 10
4.51500031E+02
 20
-3.19500000E+02
 40
3.29999995E+00
 50
0.00000000E+00
 51
1.80000000E+02
  0
ARC
  8
0
 62
7
 10
3.49499939E+02
 20
-3.19500000E+02
 40
4.00000000E+00
 50
0.00000000E+00
 51
1.80000000E+02
  0
ARC
  8
0
 62
7
 10
3.49499939E+02
 20
-3.19500000E+02
 40
3.29999995E+00
 50
0.00000000E+00
 51
1.80000000E+02
  0
ARC
  8
0
 62
7
 10
3.49499939E+02
 20
-3.19500000E+02
 40
8.00000000E+00
 50
0.00000000E+00
 51
1.80000000E+02
  0
LINE
  8
0
 62
4
 10
5.32017489E+02
 20
-3.06798294E+02
 11
5.25982450E+02
 21
-3.06798294E+02
  0
LINE
  8
0
 62
4
 10
5.32017489E+02
 20
-3.13149147E+02
 11
5.25982450E+02
 21
-3.13149147E+02
  0
LINE
  8
0
 62
4
 10
5.32999969E+02
 20
-3.19500000E+02
 11
5.32999969E+02
 21
-3.08500000E+02
  0
LINE
  8
0
 62
4
 10
5.24999969E+02
 20
-3.19500000E+02
 11
5.24999969E+02
 21
-3.08500000E+02
  0
LINE
  8
0
 62
4
 10
5.32999970E+02
 20
-3.08500000E+02
 11
5.32017489E+02
 21
-3.06798294E+02
  0
LINE
  8
0
 62
4
 10
5.24999969E+02
 20
-3.08500000E+02
 11
5.25982450E+02
 21
-3.06798294E+02
  0
ARC
  8
0
 62
4
 10
5.27377159E+02
 20
-3.09973721E+02
 40
5.62281003E+00
 50
3.25615753E+02
 51
3.43842476E+01
  0
ARC
  8
0
 62
4
 10
5.11982450E+02
 20
-3.19500000E+02
 40
2.10175199E+01
 50
1.22042794E-07
 51
1.75879537E+01
  0
ARC
  8
0
 62
4
 10
5.30622780E+02
 20
-3.09973721E+02
 40
5.62281003E+00
 50
1.45615752E+02
 51
2.14384247E+02
  0
ARC
  8
0
 62
4
 10
5.46017489E+02
 20
-3.19500000E+02
 40
2.10175199E+01
 50
1.62412046E+02
 51
1.80000000E+02
  0
LINE
  8
0
 62
7
 10
5.24999969E+02
 20
-3.12500015E+02
 11
5.18500031E+02
 21
-3.12500015E+02
  0
LINE
  8
0
 62
2
 10
5.24999969E+02
 20
-3.13320007E+02
 11
5.18500031E+02
 21
-3.13320007E+02
  0
LINE
  8
0
 62
7
 10
1.85003152E+02
 20
-3.03649994E+02
 11
2.30500046E+02
 21
-3.03649994E+02
  0
LINE
  8
0
 62
7
 10
1.88063102E+02
 20
-2.98350006E+02
 11
2.30500046E+02
 21
-2.98350006E+02
  0
LINE
  8
0
 62
7
 10
1.88553844E+02
 20
-2.97500015E+02
 11
2.14000046E+02
 21
-2.97500015E+02
  0
LINE
  8
0
 62
7
 10
2.53500046E+02
 20
-2.94500000E+02
 11
2.53500046E+02
 21
-3.19500000E+02
  0
LINE
  8
0
  6
CENTER
 62
2
 10
2.66500031E+02
 20
-2.92747635E+02
 11
2.66500031E+02
 21
-3.03928238E+02
  0
LINE
  8
0
 62
2
 10
1.74019973E+02
 20
-3.22673419E+02
 11
1.93431358E+02
 21
-2.89051913E+02
  0
LINE
  8
0
 62
7
 10
2.47000046E+02
 20
-2.97500015E+02
 11
2.53500046E+02
 21
-2.97500015E+02
  0
LINE
  8
0
  6
CENTER
 62
2
 10
2.45500046E+02
 20
-3.01000000E+02
 11
2.86603455E+02
 21
-3.01000000E+02
  0
LINE
  8
0
 62
7
 10
2.45500046E+02
 20
-3.03649994E+02
 11
2.53500046E+02
 21
-3.03649994E+02
  0
LINE
  8
0
 62
7
 10
2.45500046E+02
 20
-2.98350006E+02
 11
2.53500015E+02
 21
-2.98350006E+02
  0
TEXT
  8
0
 10
-4.72146873E+01
 20
3.16614332E+02
 40
9.00000000E+00
  1
STRETCH LINE
 41
1.05263158E+00
  7
MONOTXT
  0
LINE
  8
0
 62
7
 10
5.74500000E+02
 20
4.00500000E+02
 11
5.74500000E+02
 21
-4.00500000E+02
  0
LINE
  8
0
 62
7
 10
-5.64500000E+02
 20
4.00500000E+02
 11
5.74500000E+02
 21
4.00500000E+02
  0
LINE
  8
0
 62
7
 10
-5.64500000E+02
 20
-4.00500000E+02
 11
5.74500000E+02
 21
-4.00500000E+02
  0
LINE
  8
0
 62
7
 10
-5.64500000E+02
 20
4.00500000E+02
 11
-5.64500000E+02
 21
-4.00500000E+02
  0
LINE
  8
0
 62
7
 10
-5.64500000E+02
 20
3.70500000E+02
 11
-3.34500000E+02
 21
3.70500000E+02
  0
LINE
  8
0
 62
7
 10
3.44500000E+02
 20
3.70500000E+02
 11
5.74500000E+02
 21
3.70500000E+02
  0
LINE
  8
0
 62
7
 10
3.44500000E+02
 20
-3.70500000E+02
 11
5.74500000E+02
 21
-3.70500000E+02
  0
LINE
  8
0
 62
7
 10
3.44500000E+02
 20
-3.70500000E+02
 11
3.44500000E+02
 21
-4.00500000E+02
  0
LINE
  8
0
 62
7
 10
3.44500000E+02
 20
4.00500000E+02
 11
3.44500000E+02
 21
3.70500000E+02
  0
LINE
  8
0
 62
7
 10
-3.34500000E+02
 20
4.00500000E+02
 11
-3.34500000E+02
 21
3.70500000E+02
  0
TEXT
  8
0
 62
7
 10
-5.37179687E+02
 20
3.34250000E+02
 40
1.25000000E+01
  1
MODEL:DDARR40*75
 41
1.00000015E+00
  7
MONOTXT
  0
TEXT
  8
0
 62
7
 10
4.11285149E+02
 20
3.79250000E+02
 40
1.25000000E+01
  1
Ver. 1.0
 41
1.08108125E+00
  7
MONOTXT
  0
TEXT
  8
0
 62
7
 10
3.50070624E+02
 20
-3.94500000E+02
 40
1.80000000E+01
  1
KOGANEI CORP.
 41
1.04838710E+00
  7
MONOTXT
  0
TEXT
  8
0
 62
7
 10
-5.53964859E+02
 20
3.79250000E+02
 40
1.25000000E+01
  1
NEW DYNA CYLINDER
 41
1.07594953E+00
  7
MONOTXT
  0
ENDSEC
  0
EOF
