  0
SECTION
  2
HEADER
  9
$ACADVER
  1
AC1003
  9
$EXTMIN
 10
-5.64500000E+02
 20
-4.00500000E+02
  9
$EXTMAX
 10
5.96088411E+02
 20
4.00500000E+02
  9
$LIMMIN
 10
-5.64501000E+02
 20
-4.00501000E+02
  9
$LIMMAX
 10
5.96089411E+02
 20
4.00501000E+02
  9
$SNAPUNIT
 10
1
 20
1
  9
$SNAPBASE
 10
0
 20
0
  9
$GRIDMODE
 70
0
  9
$GRIDUNIT
 10
0
 20
0
  9
$LTSCALE
 40
1.93431402E+01
  9
$TEXTSIZE
 40
3.2
  9
$DIMTAD
 70
0
  9
$LUNITS
 70
2
  9
$LUPREC
 70
4
  9
$FILLETRAD
 40
0
  9
$AUNITS
 70
0
  9
$AUPREC
 70
0
  0
ENDSEC
  0
SECTION
  2
TABLES
  0
TABLE
  2
LTYPE
 70
2
  0
LTYPE
  2
CONTINUOUS
 70
64
  3
Solid-Line
 72
65
 73
0
 40
0
  0
LTYPE
  2
DASHED
 70
64
  3
DASHED
 72
65
 73
2
 40
.75
 49
.5
 49
-.25
  0
LTYPE
  2
HIDDEN
 70
64
  3
HIDDEN
 72
65
 73
2
 40
.375
 49
.25
 49
-.125
  0
LTYPE
  2
CENTER
 70
64
  3
CENTER
 72
65
 73
4
 40
2
 49
1.25
 49
-.25
 49
.25
 49
-.25
  0
LTYPE
  2
PHANTOM
 70
64
  3
PHANTOM
 72
65
 73
6
 40
2.5
 49
1.25
 49
-.25
 49
.25
 49
-.25
 49
.25
 49
-.25
  0
ENDTAB
  0
TABLE
  2
LAYER
 70
1
  0
LAYER
  2
1
 70
0
 62
7
  6
CONTINUOUS
 0
ENDTAB
  0
TABLE
  2
STYLE
 70
2
  0
STYLE
  2
MONOTXT
 70
0
 40
0
 41
1
 50
0
 71
0
 42
.2
  3
monotxt
  0
STYLE
  2
BIGFONT
 70
0
 40
0
 41
1
 50
0
 71
0
 42
.2
  3
txt
  4
bigfont
  0
ENDTAB
  0
ENDSEC
  0
SECTION
  2
BLOCKS
  0
BLOCK
  8
0
  2
PP1
 70
10
 10
0.0
 20
0.0
  0
LINE
  8
0
  6
DASHED
 62
7
 10
-2.87169848E+02
 20
2.59000000E+02
 11
-2.83830154E+02
 21
2.59000000E+02
  0
LINE
  8
0
  6
DASHED
 62
7
 10
-2.88500015E+02
 20
2.61000000E+02
 11
-2.82500015E+02
 21
2.61000000E+02
  0
LINE
  8
0
  6
DASHED
 62
7
 10
-2.88500015E+02
 20
2.63000000E+02
 11
-2.82500015E+02
 21
2.63000000E+02
  0
LINE
  8
0
  6
DASHED
 62
7
 10
-2.88500015E+02
 20
2.60000000E+02
 11
-2.82500015E+02
 21
2.60000000E+02
  0
LINE
  8
0
  6
DASHED
 62
7
 10
-2.88500015E+02
 20
2.62000000E+02
 11
-2.82500015E+02
 21
2.62000000E+02
  0
LINE
  8
0
  6
DASHED
 62
7
 10
-2.87169900E+02
 20
2.64000000E+02
 11
-2.83830130E+02
 21
2.64000000E+02
  0
LINE
  8
0
  6
DASHED
 62
7
 10
-2.83303400E+02
 20
2.59304117E+02
 11
-2.82500015E+02
 21
2.60695620E+02
  0
LINE
  8
0
  6
DASHED
 62
7
 10
-2.86133750E+02
 20
2.58401807E+02
 11
-2.83133757E+02
 21
2.63597948E+02
  0
LINE
  8
0
  6
DASHED
 62
7
 10
-2.87865800E+02
 20
2.59401809E+02
 11
-2.84865807E+02
 21
2.64597950E+02
  0
LINE
  8
0
  6
DASHED
 62
7
 10
-2.88500015E+02
 20
2.62303316E+02
 11
-2.87695702E+02
 21
2.63696428E+02
  0
LINE
  8
0
  6
DASHED
 62
7
 10
-2.85035438E+02
 20
2.58304139E+02
 11
-2.82500015E+02
 21
2.62695620E+02
  0
LINE
  8
0
  6
DASHED
 62
7
 10
-2.86999775E+02
 20
2.58901808E+02
 11
-2.83999782E+02
 21
2.64097949E+02
  0
LINE
  8
0
  6
DASHED
 62
7
 10
-2.88500015E+02
 20
2.60303316E+02
 11
-2.85963648E+02
 21
2.64696432E+02
  0
LINE
  8
0
  6
DASHED
 62
7
 10
-2.82700745E+02
 20
2.59652054E+02
 11
-2.85700751E+02
 21
2.64848216E+02
  0
LINE
  8
0
  6
DASHED
 62
7
 10
-2.84432803E+02
 20
2.58652066E+02
 11
-2.87432800E+02
 21
2.63848214E+02
  0
LINE
  8
0
  6
DASHED
 62
7
 10
-2.86829701E+02
 20
2.58803616E+02
 11
-2.88500015E+02
 21
2.61696684E+02
  0
LINE
  8
0
  6
DASHED
 62
7
 10
-2.82500015E+02
 20
2.61304380E+02
 11
-2.84169434E+02
 21
2.64195898E+02
  0
LINE
  8
0
  6
DASHED
 62
7
 10
-2.83566774E+02
 20
2.59152060E+02
 11
-2.86566776E+02
 21
2.64348215E+02
  0
LINE
  8
0
  6
DASHED
 62
7
 10
-2.85298831E+02
 20
2.58152071E+02
 11
-2.88298825E+02
 21
2.63348213E+02
  0
ENDBLK
  8
0
  0
BLOCK
  8
0
  2
PP2
 70
10
 10
0.0
 20
0.0
  0
LINE
  8
0
  6
DASHED
 62
7
 10
-1.25169789E+02
 20
2.59000000E+02
 11
-1.21830061E+02
 21
2.59000000E+02
  0
LINE
  8
0
  6
DASHED
 62
7
 10
-1.26499954E+02
 20
2.61000000E+02
 11
-1.20499904E+02
 21
2.61000000E+02
  0
LINE
  8
0
  6
DASHED
 62
7
 10
-1.26499954E+02
 20
2.63000000E+02
 11
-1.20499922E+02
 21
2.63000000E+02
  0
LINE
  8
0
  6
DASHED
 62
7
 10
-1.26499954E+02
 20
2.60000000E+02
 11
-1.20499895E+02
 21
2.60000000E+02
  0
LINE
  8
0
  6
DASHED
 62
7
 10
-1.26499954E+02
 20
2.62000000E+02
 11
-1.20499913E+02
 21
2.62000000E+02
  0
LINE
  8
0
  6
DASHED
 62
7
 10
-1.25169826E+02
 20
2.64000000E+02
 11
-1.21830039E+02
 21
2.64000000E+02
  0
LINE
  8
0
  6
DASHED
 62
7
 10
-1.21816330E+02
 20
2.59007928E+02
 11
-1.20499907E+02
 21
2.61288039E+02
  0
LINE
  8
0
  6
DASHED
 62
7
 10
-1.24390171E+02
 20
2.58549903E+02
 11
-1.21390177E+02
 21
2.63746045E+02
  0
LINE
  8
0
  6
DASHED
 62
7
 10
-1.26122237E+02
 20
2.59549877E+02
 11
-1.23122227E+02
 21
2.64746047E+02
  0
LINE
  8
0
  6
DASHED
 62
7
 10
-1.26499954E+02
 20
2.62895652E+02
 11
-1.26208621E+02
 21
2.63400256E+02
  0
LINE
  8
0
  6
DASHED
 62
7
 10
-1.23524138E+02
 20
2.58049917E+02
 11
-1.20524153E+02
 21
2.63246044E+02
  0
LINE
  8
0
  6
DASHED
 62
7
 10
-1.25256204E+02
 20
2.59049890E+02
 11
-1.22256202E+02
 21
2.64246046E+02
  0
LINE
  8
0
  6
DASHED
 62
7
 10
-1.26499954E+02
 20
2.60895652E+02
 11
-1.24476577E+02
 21
2.64400245E+02
  0
LINE
  8
0
  6
DASHED
 62
7
 10
-1.20499919E+02
 20
2.62711982E+02
 11
-1.20950314E+02
 21
2.63492090E+02
  0
LINE
  8
0
  6
DASHED
 62
7
 10
-1.20957171E+02
 20
2.59503965E+02
 11
-1.23957172E+02
 21
2.64700121E+02
  0
LINE
  8
0
  6
DASHED
 62
7
 10
-1.22689220E+02
 20
2.58503963E+02
 11
-1.25689226E+02
 21
2.63700126E+02
  0
LINE
  8
0
  6
DASHED
 62
7
 10
-1.25342615E+02
 20
2.59099778E+02
 11
-1.26499954E+02
 21
2.61104348E+02
  0
LINE
  8
0
  6
DASHED
 62
7
 10
-1.20499902E+02
 20
2.60711952E+02
 11
-1.22682368E+02
 21
2.64492094E+02
  0
LINE
  8
0
  6
DASHED
 62
7
 10
-1.21823195E+02
 20
2.59003964E+02
 11
-1.24823199E+02
 21
2.64200123E+02
  0
LINE
  8
0
  6
DASHED
 62
7
 10
-1.23610595E+02
 20
2.58099831E+02
 11
-1.26499954E+02
 21
2.63104348E+02
  0
ENDBLK
  8
0
  0
BLOCK
  8
0
  2
PP3
 70
10
 10
0.0
 20
0.0
  0
LINE
  8
0
  6
DASHED
 62
7
 10
-1.25169789E+02
 20
-1.31000000E+02
 11
-1.21830061E+02
 21
-1.31000000E+02
  0
LINE
  8
0
  6
DASHED
 62
7
 10
-1.26499954E+02
 20
-1.29000000E+02
 11
-1.20499904E+02
 21
-1.29000000E+02
  0
LINE
  8
0
  6
DASHED
 62
7
 10
-1.26499954E+02
 20
-1.27000000E+02
 11
-1.20499922E+02
 21
-1.27000000E+02
  0
LINE
  8
0
  6
DASHED
 62
7
 10
-1.26499954E+02
 20
-1.30000000E+02
 11
-1.20499895E+02
 21
-1.30000000E+02
  0
LINE
  8
0
  6
DASHED
 62
7
 10
-1.26499954E+02
 20
-1.28000000E+02
 11
-1.20499913E+02
 21
-1.28000000E+02
  0
LINE
  8
0
  6
DASHED
 62
7
 10
-1.25169826E+02
 20
-1.26000000E+02
 11
-1.21830039E+02
 21
-1.26000000E+02
  0
LINE
  8
0
  6
DASHED
 62
7
 10
-1.23524138E+02
 20
-1.31950083E+02
 11
-1.20524153E+02
 21
-1.26753956E+02
  0
LINE
  8
0
  6
DASHED
 62
7
 10
-1.25256204E+02
 20
-1.30950110E+02
 11
-1.22256202E+02
 21
-1.25753954E+02
  0
LINE
  8
0
  6
DASHED
 62
7
 10
-1.26499954E+02
 20
-1.29104348E+02
 11
-1.24476577E+02
 21
-1.25599755E+02
  0
LINE
  8
0
  6
DASHED
 62
7
 10
-1.21816330E+02
 20
-1.30992072E+02
 11
-1.20499907E+02
 21
-1.28711961E+02
  0
LINE
  8
0
  6
DASHED
 62
7
 10
-1.24390171E+02
 20
-1.31450097E+02
 11
-1.21390177E+02
 21
-1.26253955E+02
  0
LINE
  8
0
  6
DASHED
 62
7
 10
-1.26122237E+02
 20
-1.30450123E+02
 11
-1.23122227E+02
 21
-1.25253953E+02
  0
LINE
  8
0
  6
DASHED
 62
7
 10
-1.26499954E+02
 20
-1.27104348E+02
 11
-1.26208621E+02
 21
-1.26599744E+02
  0
LINE
  8
0
  6
DASHED
 62
7
 10
-1.20499902E+02
 20
-1.29288048E+02
 11
-1.22682368E+02
 21
-1.25507906E+02
  0
LINE
  8
0
  6
DASHED
 62
7
 10
-1.21823195E+02
 20
-1.30996036E+02
 11
-1.24823199E+02
 21
-1.25799877E+02
  0
LINE
  8
0
  6
DASHED
 62
7
 10
-1.23610595E+02
 20
-1.31900169E+02
 11
-1.26499954E+02
 21
-1.26895652E+02
  0
LINE
  8
0
  6
DASHED
 62
7
 10
-1.20499919E+02
 20
-1.27288018E+02
 11
-1.20950314E+02
 21
-1.26507910E+02
  0
LINE
  8
0
  6
DASHED
 62
7
 10
-1.20957171E+02
 20
-1.30496035E+02
 11
-1.23957172E+02
 21
-1.25299879E+02
  0
LINE
  8
0
  6
DASHED
 62
7
 10
-1.22689220E+02
 20
-1.31496037E+02
 11
-1.25689226E+02
 21
-1.26299874E+02
  0
LINE
  8
0
  6
DASHED
 62
7
 10
-1.25342615E+02
 20
-1.30900222E+02
 11
-1.26499954E+02
 21
-1.28895652E+02
  0
ENDBLK
  8
0
  0
BLOCK
  8
0
  2
PP4
 70
10
 10
0.0
 20
0.0
  0
LINE
  8
0
  6
DASHED
 62
7
 10
-2.87169848E+02
 20
-1.31000000E+02
 11
-2.83830154E+02
 21
-1.31000000E+02
  0
LINE
  8
0
  6
DASHED
 62
7
 10
-2.88500015E+02
 20
-1.29000000E+02
 11
-2.82500015E+02
 21
-1.29000000E+02
  0
LINE
  8
0
  6
DASHED
 62
7
 10
-2.88500015E+02
 20
-1.27000000E+02
 11
-2.82500015E+02
 21
-1.27000000E+02
  0
LINE
  8
0
  6
DASHED
 62
7
 10
-2.88500015E+02
 20
-1.30000000E+02
 11
-2.82500015E+02
 21
-1.30000000E+02
  0
LINE
  8
0
  6
DASHED
 62
7
 10
-2.88500015E+02
 20
-1.28000000E+02
 11
-2.82500015E+02
 21
-1.28000000E+02
  0
LINE
  8
0
  6
DASHED
 62
7
 10
-2.87169900E+02
 20
-1.26000000E+02
 11
-2.83830130E+02
 21
-1.26000000E+02
  0
LINE
  8
0
  6
DASHED
 62
7
 10
-2.85035438E+02
 20
-1.31695861E+02
 11
-2.82500015E+02
 21
-1.27304380E+02
  0
LINE
  8
0
  6
DASHED
 62
7
 10
-2.86999775E+02
 20
-1.31098192E+02
 11
-2.83999782E+02
 21
-1.25902051E+02
  0
LINE
  8
0
  6
DASHED
 62
7
 10
-2.88500015E+02
 20
-1.29696684E+02
 11
-2.85963648E+02
 21
-1.25303568E+02
  0
LINE
  8
0
  6
DASHED
 62
7
 10
-2.83303400E+02
 20
-1.30695883E+02
 11
-2.82500015E+02
 21
-1.29304380E+02
  0
LINE
  8
0
  6
DASHED
 62
7
 10
-2.86133750E+02
 20
-1.31598193E+02
 11
-2.83133757E+02
 21
-1.26402052E+02
  0
LINE
  8
0
  6
DASHED
 62
7
 10
-2.87865800E+02
 20
-1.30598191E+02
 11
-2.84865807E+02
 21
-1.25402050E+02
  0
LINE
  8
0
  6
DASHED
 62
7
 10
-2.88500015E+02
 20
-1.27696684E+02
 11
-2.87695702E+02
 21
-1.26303572E+02
  0
LINE
  8
0
  6
DASHED
 62
7
 10
-2.82500015E+02
 20
-1.28695620E+02
 11
-2.84169434E+02
 21
-1.25804102E+02
  0
LINE
  8
0
  6
DASHED
 62
7
 10
-2.83566774E+02
 20
-1.30847940E+02
 11
-2.86566776E+02
 21
-1.25651785E+02
  0
LINE
  8
0
  6
DASHED
 62
7
 10
-2.85298831E+02
 20
-1.31847929E+02
 11
-2.88298825E+02
 21
-1.26651787E+02
  0
LINE
  8
0
  6
DASHED
 62
7
 10
-2.82700745E+02
 20
-1.30347946E+02
 11
-2.85700751E+02
 21
-1.25151784E+02
  0
LINE
  8
0
  6
DASHED
 62
7
 10
-2.84432803E+02
 20
-1.31347934E+02
 11
-2.87432800E+02
 21
-1.26151786E+02
  0
LINE
  8
0
  6
DASHED
 62
7
 10
-2.86829701E+02
 20
-1.31196384E+02
 11
-2.88500015E+02
 21
-1.28303316E+02
  0
ENDBLK
  8
0
  0
ENDSEC
  0
SECTION
  2
ENTITIES
  0
LINE
  8
0
  6
PHANTOM
 10
5.50000000E+00
 20
1.76565442E+02
 11
5.50000000E+00
 21
2.93151313E+01
  0
LINE
  8
0
 62
7
 10
5.65000000E+01
 20
7.96500092E+01
 11
-4.95000000E+01
 21
7.96500092E+01
  0
LINE
  8
0
 62
7
 10
8.90000076E+01
 20
1.19500000E+02
 11
8.75000076E+01
 21
1.19500000E+02
  0
LINE
  8
0
 62
7
 10
-7.55000000E+01
 20
1.30845398E+02
 11
-7.55000000E+01
 21
1.31500000E+02
  0
LINE
  8
0
 62
7
 10
-7.55000000E+01
 20
1.31500000E+02
 11
-4.95000000E+01
 21
1.31500000E+02
  0
LINE
  8
0
 62
7
 10
-8.05000265E+01
 20
1.30714507E+02
 11
-4.94999869E+01
 21
1.31526271E+02
  0
LINE
  8
0
 62
7
 10
5.65000000E+01
 20
1.27499969E+02
 11
5.00000000E+01
 21
1.27499969E+02
  0
LINE
  8
0
 62
7
 10
-3.17500015E+02
 20
1.16999969E+02
 11
-3.17500015E+02
 21
8.40000305E+01
  0
LINE
  8
0
 62
7
 10
-3.04000015E+02
 20
8.15000000E+01
 11
-3.02500015E+02
 21
8.15000000E+01
  0
LINE
  8
0
 62
7
 10
-3.17000015E+02
 20
8.35000000E+01
 11
-3.12491470E+02
 21
8.35000000E+01
  0
LINE
  8
0
 62
7
 10
-3.12500015E+02
 20
8.35000000E+01
 11
-3.12500015E+02
 21
8.34914551E+01
  0
LINE
  8
0
 62
7
 10
-3.12258760E+02
 20
8.32415248E+01
 11
-3.04500062E+02
 21
8.29705851E+01
  0
LINE
  8
0
 62
7
 10
-3.04500015E+02
 20
1.19000000E+02
 11
-3.04500015E+02
 21
8.20000000E+01
  0
LINE
  8
0
 62
7
 10
5.65000000E+01
 20
7.35000153E+01
 11
-4.95000000E+01
 21
7.35000153E+01
  0
LINE
  8
0
 62
7
 10
-4.95000000E+01
 20
1.31500000E+02
 11
-4.95000000E+01
 21
6.94737396E+01
  0
LINE
  8
0
 62
7
 10
-7.55000000E+01
 20
6.95000000E+01
 11
-4.95000000E+01
 21
6.95000000E+01
  0
LINE
  8
0
 62
7
 10
-8.05000210E+01
 20
7.02855088E+01
 11
-4.94999967E+01
 21
6.94737446E+01
  0
LINE
  8
0
 62
7
 10
-7.55000000E+01
 20
7.01546021E+01
 11
-7.55000000E+01
 21
6.95000000E+01
  0
LINE
  8
0
 62
7
 10
-3.12500015E+02
 20
1.17500000E+02
 11
-3.12500015E+02
 21
8.35000000E+01
  0
LINE
  8
0
 62
7
 10
8.90000076E+01
 20
8.15000000E+01
 11
8.75000076E+01
 21
8.15000000E+01
  0
LINE
  8
0
 62
7
 10
8.95000076E+01
 20
1.19000000E+02
 11
8.95000076E+01
 21
8.20000000E+01
  0
LINE
  8
0
 62
7
 10
8.75000076E+01
 20
1.30714508E+02
 11
8.75000076E+01
 21
7.02855835E+01
  0
LINE
  8
0
 62
7
 10
5.65000000E+01
 20
1.31500000E+02
 11
5.65000000E+01
 21
6.94737396E+01
  0
LINE
  8
0
 62
7
 10
8.25000076E+01
 20
6.95000000E+01
 11
5.65000000E+01
 21
6.95000000E+01
  0
LINE
  8
0
 62
7
 10
8.75000248E+01
 20
7.02854999E+01
 11
5.65000301E+01
 21
6.94737365E+01
  0
LINE
  8
0
 62
7
 10
8.25000076E+01
 20
7.01546021E+01
 11
8.25000076E+01
 21
6.95000000E+01
  0
LINE
  8
0
 62
7
 10
5.65000000E+01
 20
7.43500214E+01
 11
-4.95000000E+01
 21
7.43500214E+01
  0
LINE
  8
0
 62
7
 10
-3.24500107E+02
 20
1.10499985E+02
 11
-3.17500076E+02
 21
1.10499985E+02
  0
LINE
  8
0
 62
7
 10
5.65000000E+01
 20
1.21349991E+02
 11
3.50000000E+01
 21
1.21349991E+02
  0
LINE
  8
0
  6
CENTER
 62
2
 10
8.97269974E+01
 20
1.23999985E+02
 11
-8.26034393E+01
 21
1.23999985E+02
  0
LINE
  8
0
 62
7
 10
5.65000000E+01
 20
1.26649979E+02
 11
5.00000000E+01
 21
1.26649979E+02
  0
LINE
  8
0
 62
7
 10
-3.04000015E+02
 20
1.19500000E+02
 11
-3.02500015E+02
 21
1.19500000E+02
  0
LINE
  8
0
 62
7
 10
-3.17000015E+02
 20
1.17500000E+02
 11
-3.12491470E+02
 21
1.17500000E+02
  0
LINE
  8
0
 62
7
 10
-3.12500015E+02
 20
1.17500000E+02
 11
-3.12500015E+02
 21
1.17508545E+02
  0
LINE
  8
0
 62
7
 10
-3.12258748E+02
 20
1.17758495E+02
 11
-3.04500050E+02
 21
1.18029434E+02
  0
LINE
  8
0
 62
7
 10
8.25000076E+01
 20
1.31500000E+02
 11
5.65000000E+01
 21
1.31500000E+02
  0
LINE
  8
0
 62
7
 10
8.75000265E+01
 20
1.30714516E+02
 11
5.65000261E+01
 21
1.31526279E+02
  0
LINE
  8
0
 62
7
 10
8.25000076E+01
 20
1.30845398E+02
 11
8.25000076E+01
 21
1.31500000E+02
  0
LINE
  8
0
 62
2
 10
-3.26533698E+02
 20
9.66865251E+01
 11
-3.20500014E+02
 21
1.05767846E+02
  0
LINE
  8
0
 62
7
 10
-3.27499985E+02
 20
1.09500000E+02
 11
-3.27499985E+02
 21
9.15000000E+01
  0
LINE
  8
0
 62
7
 10
-3.24500107E+02
 20
1.05767853E+02
 11
-3.20500046E+02
 21
1.05767853E+02
  0
LINE
  8
0
 62
2
 10
-3.26533662E+02
 20
1.04313482E+02
 11
-3.20500012E+02
 21
9.52322111E+01
  0
LINE
  8
0
 62
7
 10
-3.20500046E+02
 20
9.52321930E+01
 11
-3.20500046E+02
 21
1.00500000E+02
  0
LINE
  8
0
 62
7
 10
-3.24500107E+02
 20
9.52321930E+01
 11
-3.20500046E+02
 21
9.52321930E+01
  0
LINE
  8
0
 62
7
 10
-3.24500015E+02
 20
9.05000153E+01
 11
-3.24500015E+02
 21
9.52321930E+01
  0
LINE
  8
0
  6
CENTER
 62
2
 10
8.97269974E+01
 20
7.70000153E+01
 11
-8.26034393E+01
 21
7.70000153E+01
  0
LINE
  8
0
 62
7
 10
-3.30499985E+02
 20
9.15000000E+01
 11
-3.30499985E+02
 21
1.09500000E+02
  0
LINE
  8
0
 62
7
 10
-3.59499985E+02
 20
9.30000305E+01
 11
-3.59499985E+02
 21
1.07999847E+02
  0
LINE
  8
0
 62
7
 10
-3.57999985E+02
 20
9.15000000E+01
 11
-3.57999985E+02
 21
1.09500000E+02
  0
LINE
  8
0
 62
7
 10
-3.24500107E+02
 20
9.05000153E+01
 11
-3.17500076E+02
 21
9.05000153E+01
  0
LINE
  8
0
 62
7
 10
-3.24500015E+02
 20
1.10500031E+02
 11
-3.24500015E+02
 21
1.05767853E+02
  0
LINE
  8
0
 62
7
 10
-3.20500046E+02
 20
1.05767853E+02
 11
-3.20500046E+02
 21
1.00500000E+02
  0
LINE
  8
0
  6
CENTER
 62
2
 10
6.94999237E+01
 20
1.33685059E+02
 11
6.94999237E+01
 21
1.21799789E+02
  0
LINE
  8
0
 62
7
 10
-3.57999924E+02
 20
1.09500000E+02
 11
-3.50499985E+02
 21
1.09500000E+02
  0
LINE
  8
0
 62
2
 10
-3.58819931E+02
 20
1.08679993E+02
 11
-3.50499985E+02
 21
1.08679993E+02
  0
LINE
  8
0
 62
7
 10
-3.59499935E+02
 20
1.07999855E+02
 11
-3.57999878E+02
 21
1.09499866E+02
  0
LINE
  8
0
 62
7
 10
-3.30499985E+02
 20
1.08679993E+02
 11
-3.27499985E+02
 21
1.08679993E+02
  0
LINE
  8
0
 62
7
 10
-3.30499985E+02
 20
9.23199921E+01
 11
-3.27499985E+02
 21
9.23199921E+01
  0
LINE
  8
0
 62
7
 10
-3.57999924E+02
 20
9.15000000E+01
 11
-3.50499985E+02
 21
9.15000000E+01
  0
LINE
  8
0
 62
2
 10
-3.58819931E+02
 20
9.23199921E+01
 11
-3.50499985E+02
 21
9.23199921E+01
  0
LINE
  8
0
 62
7
 10
-3.59500017E+02
 20
9.30000831E+01
 11
-3.57999981E+02
 21
9.15000936E+01
  0
LINE
  8
0
  6
CENTER
 62
2
 10
-6.25001678E+01
 20
1.33685059E+02
 11
-6.25001678E+01
 21
1.21799789E+02
  0
LINE
  8
0
 62
7
 10
-3.27500012E+02
 20
1.09500000E+02
 11
-3.24500024E+02
 21
1.10499986E+02
  0
LINE
  8
0
 62
7
 10
-3.27499984E+02
 20
1.03622436E+02
 11
-3.24499980E+02
 21
1.05767851E+02
  0
LINE
  8
0
 62
7
 10
-3.27500002E+02
 20
9.73775643E+01
 11
-3.24500025E+02
 21
9.52322149E+01
  0
LINE
  8
0
 62
7
 10
-3.27500013E+02
 20
9.15000213E+01
 11
-3.24500027E+02
 21
9.05000286E+01
  0
LINE
  8
0
  6
CENTER
 62
2
 10
-3.62256119E+02
 20
1.00500000E+02
 11
9.93382311E+01
 21
1.00500000E+02
  0
LINE
  8
0
 62
7
 10
-2.55036172E+02
 20
9.45002024E+01
 11
-2.51572076E+02
 21
1.00500202E+02
  0
LINE
  8
0
 62
7
 10
-2.61964296E+02
 20
9.44999371E+01
 11
-2.65428396E+02
 21
1.00499943E+02
  0
LINE
  8
0
 62
7
 10
-2.55035904E+02
 20
9.45000000E+01
 11
-2.61964127E+02
 21
9.45000000E+01
  0
LINE
  8
0
 62
7
 10
-2.60500015E+02
 20
9.93453217E+01
 11
-2.60500015E+02
 21
1.01654541E+02
  0
LINE
  8
0
 62
7
 10
-2.58499962E+02
 20
9.81906996E+01
 11
-2.60499950E+02
 21
9.93453936E+01
  0
LINE
  8
0
 62
7
 10
-2.56499855E+02
 20
9.93450448E+01
 11
-2.58499843E+02
 21
9.81903508E+01
  0
LINE
  8
0
 62
7
 10
-2.56500015E+02
 20
1.01655029E+02
 11
-2.56500015E+02
 21
9.93453217E+01
  0
LINE
  8
0
  6
CENTER
 62
2
 10
-2.58500015E+02
 20
1.11172882E+02
 11
-2.58500015E+02
 21
8.87922211E+01
  0
LINE
  8
0
  6
CENTER
 62
2
 10
-2.04499954E+02
 20
1.32552277E+02
 11
-2.04499954E+02
 21
1.47305481E+02
  0
LINE
  8
0
 62
7
 10
-2.55036152E+02
 20
1.06499864E+02
 11
-2.51572036E+02
 21
1.00499832E+02
  0
LINE
  8
0
 62
7
 10
-1.52499901E+02
 20
1.01654850E+02
 11
-1.50499906E+02
 21
1.02809548E+02
  0
LINE
  8
0
 62
7
 10
-1.50499936E+02
 20
1.02809339E+02
 11
-1.48499949E+02
 21
1.01654645E+02
  0
LINE
  8
0
 62
7
 10
-1.53963973E+02
 20
1.06499928E+02
 11
-1.57428074E+02
 21
1.00499920E+02
  0
LINE
  8
0
 62
7
 10
-1.53964096E+02
 20
1.06500031E+02
 11
-1.47035843E+02
 21
1.06500031E+02
  0
LINE
  8
0
 62
7
 10
-1.47035782E+02
 20
1.06499990E+02
 11
-1.43571689E+02
 21
1.00499997E+02
  0
LINE
  8
0
 62
7
 10
-2.72500015E+02
 20
1.24899963E+02
 11
-1.36499985E+02
 21
1.24899963E+02
  0
LINE
  8
0
  6
CENTER
 62
2
 10
-3.07724197E+02
 20
1.28500000E+02
 11
-7.70927887E+01
 21
1.28500000E+02
  0
LINE
  8
0
 62
7
 10
-2.56499881E+02
 20
1.01654939E+02
 11
-2.58499816E+02
 21
1.02809603E+02
  0
LINE
  8
0
 62
7
 10
-2.72500015E+02
 20
1.32099976E+02
 11
-1.36499985E+02
 21
1.32099976E+02
  0
LINE
  8
0
 62
7
 10
-2.55035904E+02
 20
1.06500031E+02
 11
-2.61964127E+02
 21
1.06500031E+02
  0
LINE
  8
0
 62
7
 10
-2.61964365E+02
 20
1.06500109E+02
 11
-2.65428451E+02
 21
1.00500126E+02
  0
LINE
  8
0
 62
7
 10
-3.02500015E+02
 20
1.38000031E+02
 11
-3.02500015E+02
 21
6.30000000E+01
  0
LINE
  8
0
 62
7
 10
-3.02500015E+02
 20
6.30000000E+01
 11
-2.72500015E+02
 21
6.30000000E+01
  0
LINE
  8
0
 62
7
 10
-3.02500015E+02
 20
1.38000031E+02
 11
-2.72500015E+02
 21
1.38000031E+02
  0
LINE
  8
0
 62
7
 10
-2.72500015E+02
 20
1.38000031E+02
 11
-2.72500015E+02
 21
6.30000000E+01
  0
LINE
  8
0
 62
7
 10
-2.72500015E+02
 20
6.65000305E+01
 11
-1.36499985E+02
 21
6.65000305E+01
  0
LINE
  8
0
 62
7
 10
-2.72500015E+02
 20
6.89000549E+01
 11
-1.36499985E+02
 21
6.89000549E+01
  0
LINE
  8
0
  6
CENTER
 62
2
 10
-3.07724197E+02
 20
7.25000153E+01
 11
-7.70927887E+01
 21
7.25000153E+01
  0
LINE
  8
0
 62
7
 10
-2.72500015E+02
 20
7.61000671E+01
 11
-1.36499985E+02
 21
7.61000671E+01
  0
LINE
  8
0
 62
7
 10
-2.72500015E+02
 20
1.34500000E+02
 11
-2.16499893E+02
 21
1.34500000E+02
  0
LINE
  8
0
 62
7
 10
-1.36499985E+02
 20
1.38000031E+02
 11
-8.04999847E+01
 21
1.38000031E+02
  0
LINE
  8
0
 62
7
 10
-1.36499954E+02
 20
1.38000031E+02
 11
-1.36499954E+02
 21
6.30000000E+01
  0
LINE
  8
0
 62
7
 10
-1.36499985E+02
 20
6.30000000E+01
 11
-8.04999847E+01
 21
6.30000000E+01
  0
LINE
  8
0
 62
7
 10
-2.58499932E+02
 20
1.02809278E+02
 11
-2.60499867E+02
 21
1.01654615E+02
  0
LINE
  8
0
 62
7
 10
-1.92499954E+02
 20
1.34500000E+02
 11
-1.36499985E+02
 21
1.34500000E+02
  0
LINE
  8
0
 62
7
 10
-2.14499914E+02
 20
1.36499942E+02
 11
-2.16499917E+02
 21
1.34499940E+02
  0
LINE
  8
0
 62
7
 10
-1.94499936E+02
 20
1.36499986E+02
 11
-1.92499934E+02
 21
1.34499983E+02
  0
LINE
  8
0
 62
7
 10
-1.95499932E+02
 20
1.44499978E+02
 11
-1.94499953E+02
 21
1.43499998E+02
  0
LINE
  8
0
 62
7
 10
-1.94499954E+02
 20
1.43500000E+02
 11
-1.94499954E+02
 21
1.36500000E+02
  0
LINE
  8
0
 62
7
 10
-2.14499877E+02
 20
1.43499923E+02
 11
-2.13499865E+02
 21
1.44499935E+02
  0
LINE
  8
0
 62
7
 10
-2.13499954E+02
 20
1.44500000E+02
 11
-1.95499985E+02
 21
1.44500000E+02
  0
LINE
  8
0
 62
7
 10
-2.14499954E+02
 20
1.43500000E+02
 11
-2.14499954E+02
 21
1.36499939E+02
  0
LINE
  8
0
 62
7
 10
-1.52499954E+02
 20
1.01654846E+02
 11
-1.52499954E+02
 21
9.93453217E+01
  0
LINE
  8
0
 62
7
 10
-1.52499971E+02
 20
9.93451190E+01
 11
-1.50499983E+02
 21
9.81904250E+01
  0
LINE
  8
0
 62
7
 10
-1.47035747E+02
 20
9.45000197E+01
 11
-1.43571651E+02
 21
1.00500019E+02
  0
LINE
  8
0
 62
7
 10
-1.53963925E+02
 20
9.45001516E+01
 11
-1.57428017E+02
 21
1.00500144E+02
  0
LINE
  8
0
  6
CENTER
 62
2
 10
-1.50499954E+02
 20
1.11635498E+02
 11
-1.50499954E+02
 21
8.87922211E+01
  0
LINE
  8
0
 62
7
 10
-1.48499954E+02
 20
9.93453217E+01
 11
-1.48499954E+02
 21
1.01654663E+02
  0
LINE
  8
0
 62
7
 10
-1.50499905E+02
 20
9.81906050E+01
 11
-1.48499937E+02
 21
9.93452875E+01
  0
LINE
  8
0
 62
7
 10
-1.53964096E+02
 20
9.45000000E+01
 11
-1.47035843E+02
 21
9.45000000E+01
  0
LINE
  8
0
 62
7
 10
-8.04999847E+01
 20
1.38000000E+02
 11
-8.04999847E+01
 21
6.30000000E+01
  0
LINE
  8
0
 62
7
 10
-2.14499954E+02
 20
1.43500000E+02
 11
-1.94499954E+02
 21
1.43500000E+02
  0
ARC
  8
0
 62
7
 10
-3.17000015E+02
 20
8.40000305E+01
 40
5.00000000E-01
 50
1.79999977E+02
 51
2.69999974E+02
  0
ARC
  8
0
 62
7
 10
-3.12250015E+02
 20
8.34914551E+01
 40
2.50000000E-01
 50
1.79999977E+02
 51
2.68001132E+02
  0
ARC
  8
0
 62
7
 10
-3.04000015E+02
 20
8.20000000E+01
 40
5.00000000E-01
 50
1.79999977E+02
 51
2.69999974E+02
  0
ARC
  8
0
 62
7
 10
8.90000076E+01
 20
8.20000000E+01
 40
5.00000000E-01
 50
2.70000073E+02
 51
5.46415133E-05
  0
ARC
  8
0
 62
7
 10
8.90000076E+01
 20
1.19000000E+02
 40
5.00000000E-01
 50
5.46415133E-05
 51
9.00000369E+01
  0
ARC
  8
0
 62
7
 10
-3.12250015E+02
 20
1.17508545E+02
 40
2.50000000E-01
 50
9.19988230E+01
 51
1.79999977E+02
  0
ARC
  8
0
 62
7
 10
-3.04000015E+02
 20
1.19000000E+02
 40
5.00000000E-01
 50
8.99999818E+01
 51
1.79999964E+02
  0
ARC
  8
0
 62
7
 10
-3.28999985E+02
 20
1.00500000E+02
 40
9.99998474E+00
 50
0.00000000E+00
 51
3.17883527E+01
  0
ARC
  8
0
 62
7
 10
-3.28999985E+02
 20
1.00500000E+02
 40
9.99998474E+00
 50
3.28211647E+02
 51
0.00000000E+00
  0
ARC
  8
0
 62
7
 10
-3.17000015E+02
 20
1.16999969E+02
 40
5.00000000E-01
 50
8.99999818E+01
 51
1.79999964E+02
  0
CIRCLE
  8
0
 62
7
 10
-2.58500015E+02
 20
1.00500000E+02
 40
4.00000000E+00
  0
CIRCLE
  8
0
 62
7
 10
-2.58500015E+02
 20
1.00500000E+02
 40
8.00000000E+00
  0
CIRCLE
  8
0
 62
7
 10
-2.58500015E+02
 20
1.00500000E+02
 40
3.29999995E+00
  0
CIRCLE
  8
0
 62
7
 10
-1.50499954E+02
 20
1.00500000E+02
 40
4.00000000E+00
  0
CIRCLE
  8
0
 62
7
 10
-1.50499954E+02
 20
1.00500000E+02
 40
8.00000000E+00
  0
CIRCLE
  8
0
 62
7
 10
-1.50499954E+02
 20
1.00500000E+02
 40
3.29999995E+00
  0
ARC
  8
0
 62
2
 10
-2.04499924E+02
 20
1.66311829E+02
 40
3.14443855E+01
 50
2.51456587E+02
 51
2.88543381E+02
  0
ARC
  8
0
 62
2
 10
-2.04499924E+02
 20
1.66311829E+02
 40
3.39998779E+01
 50
2.49332644E+02
 51
2.90667351E+02
  0
LINE
  8
0
 62
4
 10
-3.39499985E+02
 20
8.70000000E+01
 11
-3.39499985E+02
 21
1.14000000E+02
  0
LINE
  8
0
 62
4
 10
-3.50499985E+02
 20
8.70000000E+01
 11
-3.50499985E+02
 21
1.14000000E+02
  0
ARC
  8
0
 62
4
 10
-3.24705757E+02
 20
1.00500000E+02
 40
2.57942282E+01
 50
1.62412046E+02
 51
1.97587954E+02
  0
ARC
  8
0
 62
4
 10
-3.65294213E+02
 20
1.00500000E+02
 40
2.57942282E+01
 50
3.42412046E+02
 51
1.75879541E+01
  0
ARC
  8
0
 62
4
 10
-3.46400706E+02
 20
1.12191343E+02
 40
6.90072132E+00
 50
3.25615752E+02
 51
3.43842480E+01
  0
ARC
  8
0
 62
4
 10
-3.43599263E+02
 20
1.12191343E+02
 40
6.90072132E+00
 50
1.45615752E+02
 51
2.14384248E+02
  0
LINE
  8
0
 62
4
 10
-3.40705756E+02
 20
1.16088457E+02
 11
-3.39499985E+02
 21
1.14000000E+02
  0
LINE
  8
0
 62
4
 10
-3.49294213E+02
 20
1.16088457E+02
 11
-3.50499985E+02
 21
1.14000000E+02
  0
LINE
  8
0
 62
4
 10
-3.49294213E+02
 20
1.08294229E+02
 11
-3.40705756E+02
 21
1.08294229E+02
  0
LINE
  8
0
 62
4
 10
-3.49294213E+02
 20
1.16088457E+02
 11
-3.40705756E+02
 21
1.16088457E+02
  0
ARC
  8
0
 62
4
 10
-3.46400706E+02
 20
8.88086570E+01
 40
6.90072132E+00
 50
3.25615752E+02
 51
3.43842480E+01
  0
ARC
  8
0
 62
4
 10
-3.43599263E+02
 20
8.88086570E+01
 40
6.90072132E+00
 50
1.45615752E+02
 51
2.14384248E+02
  0
LINE
  8
0
 62
4
 10
-3.50499985E+02
 20
8.70000000E+01
 11
-3.49294213E+02
 21
8.49115427E+01
  0
LINE
  8
0
 62
4
 10
-3.39499985E+02
 20
8.70000000E+01
 11
-3.40705756E+02
 21
8.49115427E+01
  0
LINE
  8
0
 62
4
 10
-3.49294213E+02
 20
9.27057714E+01
 11
-3.40705756E+02
 21
9.27057714E+01
  0
LINE
  8
0
 62
4
 10
-3.49294213E+02
 20
8.49115427E+01
 11
-3.40705756E+02
 21
8.49115427E+01
  0
LINE
  8
0
 62
7
 10
-3.39499985E+02
 20
1.09500000E+02
 11
-3.30499985E+02
 21
1.09500000E+02
  0
LINE
  8
0
 62
2
 10
-3.39499985E+02
 20
1.08679993E+02
 11
-3.30499985E+02
 21
1.08679993E+02
  0
LINE
  8
0
 62
7
 10
-3.39499985E+02
 20
9.15000000E+01
 11
-3.30499985E+02
 21
9.15000000E+01
  0
LINE
  8
0
 62
2
 10
-3.39499985E+02
 20
9.23199921E+01
 11
-3.30499985E+02
 21
9.23199921E+01
  0
LINE
  8
0
 62
4
 10
-9.00000000E+00
 20
1.32489836E+02
 11
-9.00000000E+00
 21
1.44006422E+02
  0
LINE
  8
0
 62
6
 10
-7.32050832E-01
 20
1.27989836E+02
 11
2.73205078E+00
 21
1.33989836E+02
  0
LINE
  8
0
 62
6
 10
1.17321119E+01
 20
1.33989836E+02
 11
8.26801025E+00
 21
1.27989836E+02
  0
LINE
  8
0
 62
4
 10
2.00000610E+01
 20
1.32489836E+02
 11
1.08660864E+01
 21
1.32489836E+02
  0
LINE
  8
0
  6
CENTER
 62
6
 10
5.50000610E+01
 20
1.30989836E+02
 11
8.00006104E+00
 21
1.30989836E+02
  0
LINE
  8
0
 62
4
 10
2.00000610E+01
 20
1.29489836E+02
 11
9.13403563E+00
 21
1.29489836E+02
  0
LINE
  8
0
 62
4
 10
-1.55000000E+01
 20
1.29489836E+02
 11
1.33974608E-01
 21
1.29489836E+02
  0
LINE
  8
0
  6
CENTER
 62
6
 10
-4.40000000E+01
 20
1.30989836E+02
 11
3.00000000E+00
 21
1.30989836E+02
  0
LINE
  8
0
 62
4
 10
-1.55000000E+01
 20
1.32489836E+02
 11
1.86602540E+00
 21
1.32489836E+02
  0
LINE
  8
0
 62
4
 10
-9.00000000E+00
 20
1.27499969E+02
 11
-9.00000000E+00
 21
1.29489836E+02
  0
LINE
  8
0
 62
4
 10
-3.90000000E+01
 20
1.44006422E+02
 11
-3.90000000E+01
 21
1.33306748E+02
  0
LINE
  8
0
 62
4
 10
-1.55000000E+01
 20
1.33306748E+02
 11
-1.55000000E+01
 21
1.29234306E+02
  0
LINE
  8
0
  6
CENTER
 62
6
 10
2.60000000E+01
 20
1.19830144E+02
 11
2.10000000E+01
 21
1.19830144E+02
  0
LINE
  8
0
  6
CENTER
 62
6
 10
2.35000000E+01
 20
1.22330144E+02
 11
2.35000000E+01
 21
1.17330144E+02
  0
LINE
  8
0
  6
CENTER
 62
6
 10
3.15000000E+01
 20
1.22330144E+02
 11
3.15000000E+01
 21
1.17330144E+02
  0
LINE
  8
0
  6
CENTER
 62
6
 10
3.40000000E+01
 20
1.19830144E+02
 11
2.90000000E+01
 21
1.19830144E+02
  0
LINE
  8
0
 62
4
 10
3.50000000E+01
 20
1.42217846E+02
 11
3.50000000E+01
 21
1.14651386E+02
  0
LINE
  8
0
 62
4
 10
2.00000000E+01
 20
1.44006422E+02
 11
2.00000000E+01
 21
1.14651386E+02
  0
LINE
  8
0
 62
4
 10
5.00000000E+01
 20
1.44006422E+02
 11
5.00000000E+01
 21
1.26391463E+02
  0
LINE
  8
0
  6
CENTER
 62
6
 10
4.25000000E+01
 20
1.41360808E+02
 11
4.25000000E+01
 21
1.34211614E+02
  0
LINE
  8
0
  6
CENTER
 62
6
 10
4.60745969E+01
 20
1.37786211E+02
 11
3.89254031E+01
 21
1.37786211E+02
  0
LINE
  8
0
 62
4
 10
2.00000000E+01
 20
1.44006422E+02
 11
5.00000000E+01
 21
1.44006422E+02
  0
LINE
  8
0
 62
4
 10
2.00000000E+01
 20
1.42217846E+02
 11
5.00000000E+01
 21
1.42217846E+02
  0
LINE
  8
0
 62
4
 10
2.00000000E+01
 20
1.41002309E+02
 11
3.50000000E+01
 21
1.41002309E+02
  0
LINE
  8
0
 62
4
 10
2.11615640E+01
 20
1.25027534E+02
 11
3.37407473E+01
 21
1.25027534E+02
  0
LINE
  8
0
 62
4
 10
2.00000000E+01
 20
1.14651386E+02
 11
3.50000000E+01
 21
1.14651386E+02
  0
LINE
  8
0
 62
4
 10
3.50000000E+01
 20
1.26391463E+02
 11
5.00000000E+01
 21
1.26391463E+02
  0
LINE
  8
0
 62
4
 10
3.50000000E+01
 20
1.33846980E+02
 11
5.00000000E+01
 21
1.33846980E+02
  0
LINE
  8
0
 62
4
 10
3.50000000E+01
 20
1.33777521E+02
 11
5.00000000E+01
 21
1.33777521E+02
  0
POLYLINE
  8
0
 62
4
 66
1
  0
VERTEX
  8
0
 62
4
 10
4.02500000E+01
 20
1.37786211E+02
  0
VERTEX
  8
0
 62
4
 10
4.02585619E+01
 20
1.37593090E+02
  0
VERTEX
  8
0
 62
4
 10
4.02841826E+01
 20
1.37401438E+02
  0
VERTEX
  8
0
 62
4
 10
4.03266669E+01
 20
1.37212715E+02
  0
VERTEX
  8
0
 62
4
 10
4.03856916E+01
 20
1.37028357E+02
  0
VERTEX
  8
0
 62
4
 10
4.04608075E+01
 20
1.36849766E+02
  0
VERTEX
  8
0
 62
4
 10
4.05514428E+01
 20
1.36678302E+02
  0
VERTEX
  8
0
 62
4
 10
4.06569079E+01
 20
1.36515270E+02
  0
VERTEX
  8
0
 62
4
 10
4.07764000E+01
 20
1.36361911E+02
  0
VERTEX
  8
0
 62
4
 10
4.09090097E+01
 20
1.36219391E+02
  0
VERTEX
  8
0
 62
4
 10
4.10537279E+01
 20
1.36088796E+02
  0
VERTEX
  8
0
 62
4
 10
4.12094530E+01
 20
1.35971120E+02
  0
VERTEX
  8
0
 62
4
 10
4.13750000E+01
 20
1.35867257E+02
  0
VERTEX
  8
0
 62
4
 10
4.15491089E+01
 20
1.35777998E+02
  0
VERTEX
  8
0
 62
4
 10
4.17304547E+01
 20
1.35704024E+02
  0
VERTEX
  8
0
 62
4
 10
4.19176571E+01
 20
1.35645896E+02
  0
VERTEX
  8
0
 62
4
 10
4.21092916E+01
 20
1.35604057E+02
  0
VERTEX
  8
0
 62
4
 10
4.23038996E+01
 20
1.35578825E+02
  0
VERTEX
  8
0
 62
4
 10
4.25000000E+01
 20
1.35570394E+02
  0
VERTEX
  8
0
 62
4
 10
4.26961004E+01
 20
1.35578825E+02
  0
VERTEX
  8
0
 62
4
 10
4.28907084E+01
 20
1.35604057E+02
  0
VERTEX
  8
0
 62
4
 10
4.30823428E+01
 20
1.35645896E+02
  0
VERTEX
  8
0
 62
4
 10
4.32695453E+01
 20
1.35704024E+02
  0
VERTEX
  8
0
 62
4
 10
4.34508911E+01
 20
1.35777998E+02
  0
VERTEX
  8
0
 62
4
 10
4.36250000E+01
 20
1.35867257E+02
  0
VERTEX
  8
0
 62
4
 10
4.37905470E+01
 20
1.35971120E+02
  0
VERTEX
  8
0
 62
4
 10
4.39462721E+01
 20
1.36088796E+02
  0
VERTEX
  8
0
 62
4
 10
4.40909903E+01
 20
1.36219391E+02
  0
VERTEX
  8
0
 62
4
 10
4.42236000E+01
 20
1.36361911E+02
  0
VERTEX
  8
0
 62
4
 10
4.43430921E+01
 20
1.36515270E+02
  0
VERTEX
  8
0
 62
4
 10
4.44485572E+01
 20
1.36678302E+02
  0
VERTEX
  8
0
 62
4
 10
4.45391925E+01
 20
1.36849766E+02
  0
VERTEX
  8
0
 62
4
 10
4.46143084E+01
 20
1.37028357E+02
  0
VERTEX
  8
0
 62
4
 10
4.46733331E+01
 20
1.37212715E+02
  0
VERTEX
  8
0
 62
4
 10
4.47158174E+01
 20
1.37401438E+02
  0
VERTEX
  8
0
 62
4
 10
4.47414381E+01
 20
1.37593090E+02
  0
VERTEX
  8
0
 62
4
 10
4.47500000E+01
 20
1.37786211E+02
  0
VERTEX
  8
0
 62
4
 10
4.47414381E+01
 20
1.37979332E+02
  0
VERTEX
  8
0
 62
4
 10
4.47158174E+01
 20
1.38170984E+02
  0
VERTEX
  8
0
 62
4
 10
4.46733331E+01
 20
1.38359707E+02
  0
VERTEX
  8
0
 62
4
 10
4.46143084E+01
 20
1.38544065E+02
  0
VERTEX
  8
0
 62
4
 10
4.45391925E+01
 20
1.38722656E+02
  0
VERTEX
  8
0
 62
4
 10
4.44485572E+01
 20
1.38894120E+02
  0
VERTEX
  8
0
 62
4
 10
4.43430921E+01
 20
1.39057152E+02
  0
VERTEX
  8
0
 62
4
 10
4.42236000E+01
 20
1.39210511E+02
  0
VERTEX
  8
0
 62
4
 10
4.40909903E+01
 20
1.39353031E+02
  0
VERTEX
  8
0
 62
4
 10
4.39462721E+01
 20
1.39483626E+02
  0
VERTEX
  8
0
 62
4
 10
4.37905470E+01
 20
1.39601302E+02
  0
VERTEX
  8
0
 62
4
 10
4.36250000E+01
 20
1.39705165E+02
  0
VERTEX
  8
0
 62
4
 10
4.34508911E+01
 20
1.39794424E+02
  0
VERTEX
  8
0
 62
4
 10
4.32695453E+01
 20
1.39868398E+02
  0
VERTEX
  8
0
 62
4
 10
4.30823429E+01
 20
1.39926526E+02
  0
VERTEX
  8
0
 62
4
 10
4.28907084E+01
 20
1.39968365E+02
  0
VERTEX
  8
0
 62
4
 10
4.26961004E+01
 20
1.39993597E+02
  0
VERTEX
  8
0
 62
4
 10
4.25000000E+01
 20
1.40002028E+02
  0
VERTEX
  8
0
 62
4
 10
4.23038996E+01
 20
1.39993597E+02
  0
VERTEX
  8
0
 62
4
 10
4.21092916E+01
 20
1.39968365E+02
  0
VERTEX
  8
0
 62
4
 10
4.19176572E+01
 20
1.39926526E+02
  0
VERTEX
  8
0
 62
4
 10
4.17304547E+01
 20
1.39868398E+02
  0
VERTEX
  8
0
 62
4
 10
4.15491089E+01
 20
1.39794424E+02
  0
VERTEX
  8
0
 62
4
 10
4.13750000E+01
 20
1.39705165E+02
  0
VERTEX
  8
0
 62
4
 10
4.12094530E+01
 20
1.39601302E+02
  0
VERTEX
  8
0
 62
4
 10
4.10537279E+01
 20
1.39483626E+02
  0
VERTEX
  8
0
 62
4
 10
4.09090097E+01
 20
1.39353031E+02
  0
VERTEX
  8
0
 62
4
 10
4.07764000E+01
 20
1.39210511E+02
  0
VERTEX
  8
0
 62
4
 10
4.06569079E+01
 20
1.39057152E+02
  0
VERTEX
  8
0
 62
4
 10
4.05514428E+01
 20
1.38894120E+02
  0
VERTEX
  8
0
 62
4
 10
4.04608075E+01
 20
1.38722656E+02
  0
VERTEX
  8
0
 62
4
 10
4.03856916E+01
 20
1.38544065E+02
  0
VERTEX
  8
0
 62
4
 10
4.03266669E+01
 20
1.38359707E+02
  0
VERTEX
  8
0
 62
4
 10
4.02841826E+01
 20
1.38170984E+02
  0
VERTEX
  8
0
 62
4
 10
4.02585619E+01
 20
1.37979332E+02
  0
VERTEX
  8
0
 62
4
 10
4.02500000E+01
 20
1.37786211E+02
  0
SEQEND
  8
0
  0
POLYLINE
  8
0
 62
4
 66
1
  0
VERTEX
  8
0
 62
4
 10
3.35000000E+01
 20
1.19830144E+02
  0
VERTEX
  8
0
 62
4
 10
3.34919486E+01
 20
1.20006699E+02
  0
VERTEX
  8
0
 62
4
 10
3.34678592E+01
 20
1.20181832E+02
  0
VERTEX
  8
0
 62
4
 10
3.34279257E+01
 20
1.20354134E+02
  0
VERTEX
  8
0
 62
4
 10
3.33724697E+01
 20
1.20522217E+02
  0
VERTEX
  8
0
 62
4
 10
3.33019377E+01
 20
1.20684728E+02
  0
VERTEX
  8
0
 62
4
 10
3.32168976E+01
 20
1.20840358E+02
  0
VERTEX
  8
0
 62
4
 10
3.31180340E+01
 20
1.20987855E+02
  0
VERTEX
  8
0
 62
4
 10
3.30061429E+01
 20
1.21126030E+02
  0
VERTEX
  8
0
 62
4
 10
3.28821253E+01
 20
1.21253772E+02
  0
VERTEX
  8
0
 62
4
 10
3.27469796E+01
 20
1.21370051E+02
  0
VERTEX
  8
0
 62
4
 10
3.26017940E+01
 20
1.21473932E+02
  0
VERTEX
  8
0
 62
4
 10
3.24477373E+01
 20
1.21564579E+02
  0
VERTEX
  8
0
 62
4
 10
3.22860501E+01
 20
1.21641260E+02
  0
VERTEX
  8
0
 62
4
 10
3.21180340E+01
 20
1.21703360E+02
  0
VERTEX
  8
0
 62
4
 10
3.19450419E+01
 20
1.21750377E+02
  0
VERTEX
  8
0
 62
4
 10
3.17684665E+01
 20
1.21781934E+02
  0
VERTEX
  8
0
 62
4
 10
3.15897297E+01
 20
1.21797776E+02
  0
VERTEX
  8
0
 62
4
 10
3.14102704E+01
 20
1.21797776E+02
  0
VERTEX
  8
0
 62
4
 10
3.12315335E+01
 20
1.21781934E+02
  0
VERTEX
  8
0
 62
4
 10
3.10549581E+01
 20
1.21750377E+02
  0
VERTEX
  8
0
 62
4
 10
3.08819660E+01
 20
1.21703360E+02
  0
VERTEX
  8
0
 62
4
 10
3.07139500E+01
 20
1.21641260E+02
  0
VERTEX
  8
0
 62
4
 10
3.05522627E+01
 20
1.21564579E+02
  0
VERTEX
  8
0
 62
4
 10
3.03982061E+01
 20
1.21473932E+02
  0
VERTEX
  8
0
 62
4
 10
3.02530204E+01
 20
1.21370051E+02
  0
VERTEX
  8
0
 62
4
 10
3.01178747E+01
 20
1.21253772E+02
  0
VERTEX
  8
0
 62
4
 10
2.99938571E+01
 20
1.21126030E+02
  0
VERTEX
  8
0
 62
4
 10
2.98819660E+01
 20
1.20987855E+02
  0
VERTEX
  8
0
 62
4
 10
2.97831024E+01
 20
1.20840358E+02
  0
VERTEX
  8
0
 62
4
 10
2.96980623E+01
 20
1.20684728E+02
  0
VERTEX
  8
0
 62
4
 10
2.96275303E+01
 20
1.20522217E+02
  0
VERTEX
  8
0
 62
4
 10
2.95720743E+01
 20
1.20354134E+02
  0
VERTEX
  8
0
 62
4
 10
2.95321408E+01
 20
1.20181832E+02
  0
VERTEX
  8
0
 62
4
 10
2.95080514E+01
 20
1.20006699E+02
  0
VERTEX
  8
0
 62
4
 10
2.95000000E+01
 20
1.19830144E+02
  0
SEQEND
  8
0
  0
POLYLINE
  8
0
 62
4
 66
1
  0
VERTEX
  8
0
 62
4
 10
2.95000000E+01
 20
1.19294505E+02
  0
VERTEX
  8
0
 62
4
 10
2.95076106E+01
 20
1.19122842E+02
  0
VERTEX
  8
0
 62
4
 10
2.95303845E+01
 20
1.18952485E+02
  0
VERTEX
  8
0
 62
4
 10
2.95681483E+01
 20
1.18784731E+02
  0
VERTEX
  8
0
 62
4
 10
2.96206148E+01
 20
1.18620857E+02
  0
VERTEX
  8
0
 62
4
 10
2.96873844E+01
 20
1.18462110E+02
  0
VERTEX
  8
0
 62
4
 10
2.97679492E+01
 20
1.18309697E+02
  0
VERTEX
  8
0
 62
4
 10
2.98616959E+01
 20
1.18164780E+02
  0
VERTEX
  8
0
 62
4
 10
2.99679111E+01
 20
1.18028461E+02
  0
VERTEX
  8
0
 62
4
 10
3.00857864E+01
 20
1.17901777E+02
  0
VERTEX
  8
0
 62
4
 10
3.02144248E+01
 20
1.17785692E+02
  0
VERTEX
  8
0
 62
4
 10
3.03528471E+01
 20
1.17681090E+02
  0
VERTEX
  8
0
 62
4
 10
3.05000000E+01
 20
1.17588768E+02
  0
VERTEX
  8
0
 62
4
 10
3.06547635E+01
 20
1.17509427E+02
  0
VERTEX
  8
0
 62
4
 10
3.08159597E+01
 20
1.17443672E+02
  0
VERTEX
  8
0
 62
4
 10
3.09823619E+01
 20
1.17392003E+02
  0
VERTEX
  8
0
 62
4
 10
3.11527036E+01
 20
1.17354812E+02
  0
VERTEX
  8
0
 62
4
 10
3.13256885E+01
 20
1.17332384E+02
  0
VERTEX
  8
0
 62
4
 10
3.15000000E+01
 20
1.17324889E+02
  0
VERTEX
  8
0
 62
4
 10
3.16743115E+01
 20
1.17332384E+02
  0
VERTEX
  8
0
 62
4
 10
3.18472963E+01
 20
1.17354812E+02
  0
VERTEX
  8
0
 62
4
 10
3.20176381E+01
 20
1.17392003E+02
  0
VERTEX
  8
0
 62
4
 10
3.21840403E+01
 20
1.17443672E+02
  0
VERTEX
  8
0
 62
4
 10
3.23452365E+01
 20
1.17509427E+02
  0
VERTEX
  8
0
 62
4
 10
3.25000000E+01
 20
1.17588768E+02
  0
VERTEX
  8
0
 62
4
 10
3.26471529E+01
 20
1.17681090E+02
  0
VERTEX
  8
0
 62
4
 10
3.27855752E+01
 20
1.17785692E+02
  0
VERTEX
  8
0
 62
4
 10
3.29142136E+01
 20
1.17901777E+02
  0
VERTEX
  8
0
 62
4
 10
3.30320889E+01
 20
1.18028461E+02
  0
VERTEX
  8
0
 62
4
 10
3.31383041E+01
 20
1.18164780E+02
  0
VERTEX
  8
0
 62
4
 10
3.32320508E+01
 20
1.18309697E+02
  0
VERTEX
  8
0
 62
4
 10
3.33126156E+01
 20
1.18462110E+02
  0
VERTEX
  8
0
 62
4
 10
3.33793852E+01
 20
1.18620857E+02
  0
VERTEX
  8
0
 62
4
 10
3.34318517E+01
 20
1.18784731E+02
  0
VERTEX
  8
0
 62
4
 10
3.34696155E+01
 20
1.18952485E+02
  0
VERTEX
  8
0
 62
4
 10
3.34923894E+01
 20
1.19122842E+02
  0
VERTEX
  8
0
 62
4
 10
3.35000000E+01
 20
1.19294505E+02
  0
VERTEX
  8
0
 62
4
 10
3.34923894E+01
 20
1.19466168E+02
  0
VERTEX
  8
0
 62
4
 10
3.34696155E+01
 20
1.19636525E+02
  0
VERTEX
  8
0
 62
4
 10
3.34318517E+01
 20
1.19804279E+02
  0
VERTEX
  8
0
 62
4
 10
3.33793852E+01
 20
1.19968153E+02
  0
VERTEX
  8
0
 62
4
 10
3.33126156E+01
 20
1.20126900E+02
  0
VERTEX
  8
0
 62
4
 10
3.32320508E+01
 20
1.20279313E+02
  0
VERTEX
  8
0
 62
4
 10
3.31383041E+01
 20
1.20424230E+02
  0
VERTEX
  8
0
 62
4
 10
3.30320889E+01
 20
1.20560549E+02
  0
VERTEX
  8
0
 62
4
 10
3.29142136E+01
 20
1.20687233E+02
  0
VERTEX
  8
0
 62
4
 10
3.27855752E+01
 20
1.20803318E+02
  0
VERTEX
  8
0
 62
4
 10
3.26471529E+01
 20
1.20907920E+02
  0
VERTEX
  8
0
 62
4
 10
3.25000000E+01
 20
1.21000242E+02
  0
VERTEX
  8
0
 62
4
 10
3.23452365E+01
 20
1.21079583E+02
  0
VERTEX
  8
0
 62
4
 10
3.21840403E+01
 20
1.21145338E+02
  0
VERTEX
  8
0
 62
4
 10
3.20176381E+01
 20
1.21197007E+02
  0
VERTEX
  8
0
 62
4
 10
3.18472964E+01
 20
1.21234198E+02
  0
VERTEX
  8
0
 62
4
 10
3.16743115E+01
 20
1.21256626E+02
  0
VERTEX
  8
0
 62
4
 10
3.15000000E+01
 20
1.21264121E+02
  0
VERTEX
  8
0
 62
4
 10
3.13256885E+01
 20
1.21256626E+02
  0
VERTEX
  8
0
 62
4
 10
3.11527036E+01
 20
1.21234198E+02
  0
VERTEX
  8
0
 62
4
 10
3.09823619E+01
 20
1.21197007E+02
  0
VERTEX
  8
0
 62
4
 10
3.08159597E+01
 20
1.21145338E+02
  0
VERTEX
  8
0
 62
4
 10
3.06547635E+01
 20
1.21079583E+02
  0
VERTEX
  8
0
 62
4
 10
3.05000000E+01
 20
1.21000242E+02
  0
VERTEX
  8
0
 62
4
 10
3.03528471E+01
 20
1.20907920E+02
  0
VERTEX
  8
0
 62
4
 10
3.02144248E+01
 20
1.20803318E+02
  0
VERTEX
  8
0
 62
4
 10
3.00857864E+01
 20
1.20687233E+02
  0
VERTEX
  8
0
 62
4
 10
2.99679111E+01
 20
1.20560549E+02
  0
VERTEX
  8
0
 62
4
 10
2.98616959E+01
 20
1.20424230E+02
  0
VERTEX
  8
0
 62
4
 10
2.97679492E+01
 20
1.20279313E+02
  0
VERTEX
  8
0
 62
4
 10
2.96873844E+01
 20
1.20126900E+02
  0
VERTEX
  8
0
 62
4
 10
2.96206148E+01
 20
1.19968153E+02
  0
VERTEX
  8
0
 62
4
 10
2.95681483E+01
 20
1.19804279E+02
  0
VERTEX
  8
0
 62
4
 10
2.95303845E+01
 20
1.19636525E+02
  0
VERTEX
  8
0
 62
4
 10
2.95076106E+01
 20
1.19466168E+02
  0
VERTEX
  8
0
 62
4
 10
2.95000000E+01
 20
1.19294505E+02
  0
SEQEND
  8
0
  0
LINE
  8
0
 62
4
 10
2.95000000E+01
 20
1.19294505E+02
 11
2.95000000E+01
 21
1.19830144E+02
  0
LINE
  8
0
 62
4
 10
3.35000000E+01
 20
1.19294505E+02
 11
3.35000000E+01
 21
1.19830144E+02
  0
POLYLINE
  8
0
 62
6
 66
1
  0
VERTEX
  8
0
 62
6
 10
3.30000000E+01
 20
1.19294505E+02
  0
VERTEX
  8
0
 62
6
 10
3.29942920E+01
 20
1.19423252E+02
  0
VERTEX
  8
0
 62
6
 10
3.29772116E+01
 20
1.19551020E+02
  0
VERTEX
  8
0
 62
6
 10
3.29488887E+01
 20
1.19676836E+02
  0
VERTEX
  8
0
 62
6
 10
3.29095389E+01
 20
1.19799741E+02
  0
VERTEX
  8
0
 62
6
 10
3.28594617E+01
 20
1.19918802E+02
  0
VERTEX
  8
0
 62
6
 10
3.27990381E+01
 20
1.20033111E+02
  0
VERTEX
  8
0
 62
6
 10
3.27287281E+01
 20
1.20141799E+02
  0
VERTEX
  8
0
 62
6
 10
3.26490667E+01
 20
1.20244038E+02
  0
VERTEX
  8
0
 62
6
 10
3.25606602E+01
 20
1.20339051E+02
  0
VERTEX
  8
0
 62
6
 10
3.24641814E+01
 20
1.20426115E+02
  0
VERTEX
  8
0
 62
6
 10
3.23603647E+01
 20
1.20504566E+02
  0
VERTEX
  8
0
 62
6
 10
3.22500000E+01
 20
1.20573808E+02
  0
VERTEX
  8
0
 62
6
 10
3.21339274E+01
 20
1.20633313E+02
  0
VERTEX
  8
0
 62
6
 10
3.20130302E+01
 20
1.20682630E+02
  0
VERTEX
  8
0
 62
6
 10
3.18882286E+01
 20
1.20721382E+02
  0
VERTEX
  8
0
 62
6
 10
3.17604723E+01
 20
1.20749274E+02
  0
VERTEX
  8
0
 62
6
 10
3.16307336E+01
 20
1.20766095E+02
  0
VERTEX
  8
0
 62
6
 10
3.15000000E+01
 20
1.20771717E+02
  0
VERTEX
  8
0
 62
6
 10
3.13692664E+01
 20
1.20766095E+02
  0
VERTEX
  8
0
 62
6
 10
3.12395277E+01
 20
1.20749274E+02
  0
VERTEX
  8
0
 62
6
 10
3.11117714E+01
 20
1.20721382E+02
  0
VERTEX
  8
0
 62
6
 10
3.09869698E+01
 20
1.20682630E+02
  0
VERTEX
  8
0
 62
6
 10
3.08660726E+01
 20
1.20633313E+02
  0
VERTEX
  8
0
 62
6
 10
3.07500000E+01
 20
1.20573808E+02
  0
VERTEX
  8
0
 62
6
 10
3.06396353E+01
 20
1.20504566E+02
  0
VERTEX
  8
0
 62
6
 10
3.05358186E+01
 20
1.20426115E+02
  0
VERTEX
  8
0
 62
6
 10
3.04393398E+01
 20
1.20339051E+02
  0
VERTEX
  8
0
 62
6
 10
3.03509333E+01
 20
1.20244038E+02
  0
VERTEX
  8
0
 62
6
 10
3.02712719E+01
 20
1.20141799E+02
  0
VERTEX
  8
0
 62
6
 10
3.02009619E+01
 20
1.20033111E+02
  0
VERTEX
  8
0
 62
6
 10
3.01405383E+01
 20
1.19918802E+02
  0
VERTEX
  8
0
 62
6
 10
3.00904611E+01
 20
1.19799741E+02
  0
VERTEX
  8
0
 62
6
 10
3.00511113E+01
 20
1.19676836E+02
  0
VERTEX
  8
0
 62
6
 10
3.00227884E+01
 20
1.19551020E+02
  0
VERTEX
  8
0
 62
6
 10
3.00057080E+01
 20
1.19423252E+02
  0
VERTEX
  8
0
 62
6
 10
3.00000000E+01
 20
1.19294505E+02
  0
VERTEX
  8
0
 62
6
 10
3.00057080E+01
 20
1.19165758E+02
  0
VERTEX
  8
0
 62
6
 10
3.00227884E+01
 20
1.19037990E+02
  0
VERTEX
  8
0
 62
6
 10
3.00511113E+01
 20
1.18912174E+02
  0
VERTEX
  8
0
 62
6
 10
3.00904611E+01
 20
1.18789269E+02
  0
VERTEX
  8
0
 62
6
 10
3.01405383E+01
 20
1.18670208E+02
  0
VERTEX
  8
0
 62
6
 10
3.02009619E+01
 20
1.18555899E+02
  0
VERTEX
  8
0
 62
6
 10
3.02712719E+01
 20
1.18447211E+02
  0
VERTEX
  8
0
 62
6
 10
3.03509333E+01
 20
1.18344972E+02
  0
VERTEX
  8
0
 62
6
 10
3.04393398E+01
 20
1.18249959E+02
  0
VERTEX
  8
0
 62
6
 10
3.05358186E+01
 20
1.18162895E+02
  0
VERTEX
  8
0
 62
6
 10
3.06396353E+01
 20
1.18084444E+02
  0
VERTEX
  8
0
 62
6
 10
3.07500000E+01
 20
1.18015202E+02
  0
VERTEX
  8
0
 62
6
 10
3.08660726E+01
 20
1.17955697E+02
  0
VERTEX
  8
0
 62
6
 10
3.09869698E+01
 20
1.17906380E+02
  0
VERTEX
  8
0
 62
6
 10
3.11117714E+01
 20
1.17867628E+02
  0
VERTEX
  8
0
 62
6
 10
3.12395277E+01
 20
1.17839736E+02
  0
VERTEX
  8
0
 62
6
 10
3.13692664E+01
 20
1.17822915E+02
  0
VERTEX
  8
0
 62
6
 10
3.15000000E+01
 20
1.17817293E+02
  0
VERTEX
  8
0
 62
6
 10
3.16307336E+01
 20
1.17822915E+02
  0
VERTEX
  8
0
 62
6
 10
3.17604723E+01
 20
1.17839736E+02
  0
VERTEX
  8
0
 62
6
 10
3.18882286E+01
 20
1.17867628E+02
  0
VERTEX
  8
0
 62
6
 10
3.20130302E+01
 20
1.17906380E+02
  0
VERTEX
  8
0
 62
6
 10
3.21339274E+01
 20
1.17955697E+02
  0
VERTEX
  8
0
 62
6
 10
3.22500000E+01
 20
1.18015202E+02
  0
VERTEX
  8
0
 62
6
 10
3.23603647E+01
 20
1.18084444E+02
  0
VERTEX
  8
0
 62
6
 10
3.24641814E+01
 20
1.18162895E+02
  0
VERTEX
  8
0
 62
6
 10
3.25606602E+01
 20
1.18249959E+02
  0
VERTEX
  8
0
 62
6
 10
3.26490667E+01
 20
1.18344972E+02
  0
VERTEX
  8
0
 62
6
 10
3.27287281E+01
 20
1.18447211E+02
  0
VERTEX
  8
0
 62
6
 10
3.27990381E+01
 20
1.18555899E+02
  0
VERTEX
  8
0
 62
6
 10
3.28594617E+01
 20
1.18670208E+02
  0
VERTEX
  8
0
 62
6
 10
3.29095389E+01
 20
1.18789269E+02
  0
VERTEX
  8
0
 62
6
 10
3.29488887E+01
 20
1.18912175E+02
  0
VERTEX
  8
0
 62
6
 10
3.29772116E+01
 20
1.19037990E+02
  0
VERTEX
  8
0
 62
6
 10
3.29942920E+01
 20
1.19165758E+02
  0
VERTEX
  8
0
 62
6
 10
3.30000000E+01
 20
1.19294505E+02
  0
SEQEND
  8
0
  0
LINE
  8
0
 62
4
 10
3.05000000E+01
 20
1.19865694E+02
 11
3.05000000E+01
 21
1.18723317E+02
  0
LINE
  8
0
 62
4
 10
3.25000000E+01
 20
1.19865694E+02
 11
3.25000000E+01
 21
1.18723317E+02
  0
LINE
  8
0
 62
4
 10
3.15000000E+01
 20
1.20427034E+02
 11
3.05000000E+01
 21
1.19865694E+02
  0
LINE
  8
0
 62
4
 10
3.15000000E+01
 20
1.20427034E+02
 11
3.25000000E+01
 21
1.19865694E+02
  0
LINE
  8
0
 62
4
 10
3.25000000E+01
 20
1.18723317E+02
 11
3.15000000E+01
 21
1.18152128E+02
  0
LINE
  8
0
 62
4
 10
3.05000000E+01
 20
1.18723317E+02
 11
3.15000000E+01
 21
1.18152128E+02
  0
LINE
  8
0
 62
4
 10
2.25000000E+01
 20
1.18723317E+02
 11
2.35000000E+01
 21
1.18152128E+02
  0
LINE
  8
0
 62
4
 10
2.45000000E+01
 20
1.18723317E+02
 11
2.35000000E+01
 21
1.18152128E+02
  0
LINE
  8
0
 62
4
 10
2.35000000E+01
 20
1.20427034E+02
 11
2.45000000E+01
 21
1.19865694E+02
  0
LINE
  8
0
 62
4
 10
2.35000000E+01
 20
1.20427034E+02
 11
2.25000000E+01
 21
1.19865694E+02
  0
LINE
  8
0
 62
4
 10
2.45000000E+01
 20
1.19865694E+02
 11
2.45000000E+01
 21
1.18723317E+02
  0
LINE
  8
0
 62
4
 10
2.25000000E+01
 20
1.19865694E+02
 11
2.25000000E+01
 21
1.18723317E+02
  0
POLYLINE
  8
0
 62
6
 66
1
  0
VERTEX
  8
0
 62
6
 10
2.50000000E+01
 20
1.19294505E+02
  0
VERTEX
  8
0
 62
6
 10
2.49942920E+01
 20
1.19423252E+02
  0
VERTEX
  8
0
 62
6
 10
2.49772116E+01
 20
1.19551020E+02
  0
VERTEX
  8
0
 62
6
 10
2.49488887E+01
 20
1.19676836E+02
  0
VERTEX
  8
0
 62
6
 10
2.49095389E+01
 20
1.19799741E+02
  0
VERTEX
  8
0
 62
6
 10
2.48594617E+01
 20
1.19918802E+02
  0
VERTEX
  8
0
 62
6
 10
2.47990381E+01
 20
1.20033111E+02
  0
VERTEX
  8
0
 62
6
 10
2.47287281E+01
 20
1.20141799E+02
  0
VERTEX
  8
0
 62
6
 10
2.46490667E+01
 20
1.20244038E+02
  0
VERTEX
  8
0
 62
6
 10
2.45606602E+01
 20
1.20339051E+02
  0
VERTEX
  8
0
 62
6
 10
2.44641814E+01
 20
1.20426115E+02
  0
VERTEX
  8
0
 62
6
 10
2.43603647E+01
 20
1.20504566E+02
  0
VERTEX
  8
0
 62
6
 10
2.42500000E+01
 20
1.20573808E+02
  0
VERTEX
  8
0
 62
6
 10
2.41339274E+01
 20
1.20633313E+02
  0
VERTEX
  8
0
 62
6
 10
2.40130302E+01
 20
1.20682630E+02
  0
VERTEX
  8
0
 62
6
 10
2.38882286E+01
 20
1.20721382E+02
  0
VERTEX
  8
0
 62
6
 10
2.37604723E+01
 20
1.20749274E+02
  0
VERTEX
  8
0
 62
6
 10
2.36307336E+01
 20
1.20766095E+02
  0
VERTEX
  8
0
 62
6
 10
2.35000000E+01
 20
1.20771717E+02
  0
VERTEX
  8
0
 62
6
 10
2.33692664E+01
 20
1.20766095E+02
  0
VERTEX
  8
0
 62
6
 10
2.32395277E+01
 20
1.20749274E+02
  0
VERTEX
  8
0
 62
6
 10
2.31117714E+01
 20
1.20721382E+02
  0
VERTEX
  8
0
 62
6
 10
2.29869698E+01
 20
1.20682630E+02
  0
VERTEX
  8
0
 62
6
 10
2.28660726E+01
 20
1.20633313E+02
  0
VERTEX
  8
0
 62
6
 10
2.27500000E+01
 20
1.20573808E+02
  0
VERTEX
  8
0
 62
6
 10
2.26396353E+01
 20
1.20504566E+02
  0
VERTEX
  8
0
 62
6
 10
2.25358186E+01
 20
1.20426115E+02
  0
VERTEX
  8
0
 62
6
 10
2.24393398E+01
 20
1.20339051E+02
  0
VERTEX
  8
0
 62
6
 10
2.23509333E+01
 20
1.20244038E+02
  0
VERTEX
  8
0
 62
6
 10
2.22712719E+01
 20
1.20141799E+02
  0
VERTEX
  8
0
 62
6
 10
2.22009619E+01
 20
1.20033111E+02
  0
VERTEX
  8
0
 62
6
 10
2.21405383E+01
 20
1.19918802E+02
  0
VERTEX
  8
0
 62
6
 10
2.20904611E+01
 20
1.19799741E+02
  0
VERTEX
  8
0
 62
6
 10
2.20511113E+01
 20
1.19676836E+02
  0
VERTEX
  8
0
 62
6
 10
2.20227884E+01
 20
1.19551020E+02
  0
VERTEX
  8
0
 62
6
 10
2.20057080E+01
 20
1.19423252E+02
  0
VERTEX
  8
0
 62
6
 10
2.20000000E+01
 20
1.19294505E+02
  0
VERTEX
  8
0
 62
6
 10
2.20057080E+01
 20
1.19165758E+02
  0
VERTEX
  8
0
 62
6
 10
2.20227884E+01
 20
1.19037990E+02
  0
VERTEX
  8
0
 62
6
 10
2.20511113E+01
 20
1.18912174E+02
  0
VERTEX
  8
0
 62
6
 10
2.20904611E+01
 20
1.18789269E+02
  0
VERTEX
  8
0
 62
6
 10
2.21405383E+01
 20
1.18670208E+02
  0
VERTEX
  8
0
 62
6
 10
2.22009619E+01
 20
1.18555899E+02
  0
VERTEX
  8
0
 62
6
 10
2.22712719E+01
 20
1.18447211E+02
  0
VERTEX
  8
0
 62
6
 10
2.23509333E+01
 20
1.18344972E+02
  0
VERTEX
  8
0
 62
6
 10
2.24393398E+01
 20
1.18249959E+02
  0
VERTEX
  8
0
 62
6
 10
2.25358186E+01
 20
1.18162895E+02
  0
VERTEX
  8
0
 62
6
 10
2.26396353E+01
 20
1.18084444E+02
  0
VERTEX
  8
0
 62
6
 10
2.27500000E+01
 20
1.18015202E+02
  0
VERTEX
  8
0
 62
6
 10
2.28660726E+01
 20
1.17955697E+02
  0
VERTEX
  8
0
 62
6
 10
2.29869698E+01
 20
1.17906380E+02
  0
VERTEX
  8
0
 62
6
 10
2.31117714E+01
 20
1.17867628E+02
  0
VERTEX
  8
0
 62
6
 10
2.32395277E+01
 20
1.17839736E+02
  0
VERTEX
  8
0
 62
6
 10
2.33692664E+01
 20
1.17822915E+02
  0
VERTEX
  8
0
 62
6
 10
2.35000000E+01
 20
1.17817293E+02
  0
VERTEX
  8
0
 62
6
 10
2.36307336E+01
 20
1.17822915E+02
  0
VERTEX
  8
0
 62
6
 10
2.37604723E+01
 20
1.17839736E+02
  0
VERTEX
  8
0
 62
6
 10
2.38882286E+01
 20
1.17867628E+02
  0
VERTEX
  8
0
 62
6
 10
2.40130302E+01
 20
1.17906380E+02
  0
VERTEX
  8
0
 62
6
 10
2.41339274E+01
 20
1.17955697E+02
  0
VERTEX
  8
0
 62
6
 10
2.42500000E+01
 20
1.18015202E+02
  0
VERTEX
  8
0
 62
6
 10
2.43603647E+01
 20
1.18084444E+02
  0
VERTEX
  8
0
 62
6
 10
2.44641814E+01
 20
1.18162895E+02
  0
VERTEX
  8
0
 62
6
 10
2.45606602E+01
 20
1.18249959E+02
  0
VERTEX
  8
0
 62
6
 10
2.46490667E+01
 20
1.18344972E+02
  0
VERTEX
  8
0
 62
6
 10
2.47287281E+01
 20
1.18447211E+02
  0
VERTEX
  8
0
 62
6
 10
2.47990381E+01
 20
1.18555899E+02
  0
VERTEX
  8
0
 62
6
 10
2.48594617E+01
 20
1.18670208E+02
  0
VERTEX
  8
0
 62
6
 10
2.49095389E+01
 20
1.18789269E+02
  0
VERTEX
  8
0
 62
6
 10
2.49488887E+01
 20
1.18912175E+02
  0
VERTEX
  8
0
 62
6
 10
2.49772116E+01
 20
1.19037990E+02
  0
VERTEX
  8
0
 62
6
 10
2.49942920E+01
 20
1.19165758E+02
  0
VERTEX
  8
0
 62
6
 10
2.50000000E+01
 20
1.19294505E+02
  0
SEQEND
  8
0
  0
LINE
  8
0
 62
4
 10
2.55000000E+01
 20
1.19294505E+02
 11
2.55000000E+01
 21
1.19830144E+02
  0
LINE
  8
0
 62
4
 10
2.15000000E+01
 20
1.19294505E+02
 11
2.15000000E+01
 21
1.19830144E+02
  0
POLYLINE
  8
0
 62
4
 66
1
  0
VERTEX
  8
0
 62
4
 10
2.15000000E+01
 20
1.19294505E+02
  0
VERTEX
  8
0
 62
4
 10
2.15076106E+01
 20
1.19122842E+02
  0
VERTEX
  8
0
 62
4
 10
2.15303845E+01
 20
1.18952485E+02
  0
VERTEX
  8
0
 62
4
 10
2.15681483E+01
 20
1.18784731E+02
  0
VERTEX
  8
0
 62
4
 10
2.16206148E+01
 20
1.18620857E+02
  0
VERTEX
  8
0
 62
4
 10
2.16873844E+01
 20
1.18462110E+02
  0
VERTEX
  8
0
 62
4
 10
2.17679492E+01
 20
1.18309697E+02
  0
VERTEX
  8
0
 62
4
 10
2.18616959E+01
 20
1.18164780E+02
  0
VERTEX
  8
0
 62
4
 10
2.19679111E+01
 20
1.18028461E+02
  0
VERTEX
  8
0
 62
4
 10
2.20857864E+01
 20
1.17901777E+02
  0
VERTEX
  8
0
 62
4
 10
2.22144248E+01
 20
1.17785692E+02
  0
VERTEX
  8
0
 62
4
 10
2.23528471E+01
 20
1.17681090E+02
  0
VERTEX
  8
0
 62
4
 10
2.25000000E+01
 20
1.17588768E+02
  0
VERTEX
  8
0
 62
4
 10
2.26547635E+01
 20
1.17509427E+02
  0
VERTEX
  8
0
 62
4
 10
2.28159597E+01
 20
1.17443672E+02
  0
VERTEX
  8
0
 62
4
 10
2.29823619E+01
 20
1.17392003E+02
  0
VERTEX
  8
0
 62
4
 10
2.31527036E+01
 20
1.17354812E+02
  0
VERTEX
  8
0
 62
4
 10
2.33256885E+01
 20
1.17332384E+02
  0
VERTEX
  8
0
 62
4
 10
2.35000000E+01
 20
1.17324889E+02
  0
VERTEX
  8
0
 62
4
 10
2.36743115E+01
 20
1.17332384E+02
  0
VERTEX
  8
0
 62
4
 10
2.38472963E+01
 20
1.17354812E+02
  0
VERTEX
  8
0
 62
4
 10
2.40176381E+01
 20
1.17392003E+02
  0
VERTEX
  8
0
 62
4
 10
2.41840403E+01
 20
1.17443672E+02
  0
VERTEX
  8
0
 62
4
 10
2.43452365E+01
 20
1.17509427E+02
  0
VERTEX
  8
0
 62
4
 10
2.45000000E+01
 20
1.17588768E+02
  0
VERTEX
  8
0
 62
4
 10
2.46471529E+01
 20
1.17681090E+02
  0
VERTEX
  8
0
 62
4
 10
2.47855752E+01
 20
1.17785692E+02
  0
VERTEX
  8
0
 62
4
 10
2.49142136E+01
 20
1.17901777E+02
  0
VERTEX
  8
0
 62
4
 10
2.50320889E+01
 20
1.18028461E+02
  0
VERTEX
  8
0
 62
4
 10
2.51383041E+01
 20
1.18164780E+02
  0
VERTEX
  8
0
 62
4
 10
2.52320508E+01
 20
1.18309697E+02
  0
VERTEX
  8
0
 62
4
 10
2.53126156E+01
 20
1.18462110E+02
  0
VERTEX
  8
0
 62
4
 10
2.53793852E+01
 20
1.18620857E+02
  0
VERTEX
  8
0
 62
4
 10
2.54318517E+01
 20
1.18784731E+02
  0
VERTEX
  8
0
 62
4
 10
2.54696155E+01
 20
1.18952485E+02
  0
VERTEX
  8
0
 62
4
 10
2.54923894E+01
 20
1.19122842E+02
  0
VERTEX
  8
0
 62
4
 10
2.55000000E+01
 20
1.19294505E+02
  0
VERTEX
  8
0
 62
4
 10
2.54923894E+01
 20
1.19466168E+02
  0
VERTEX
  8
0
 62
4
 10
2.54696155E+01
 20
1.19636525E+02
  0
VERTEX
  8
0
 62
4
 10
2.54318517E+01
 20
1.19804279E+02
  0
VERTEX
  8
0
 62
4
 10
2.53793852E+01
 20
1.19968153E+02
  0
VERTEX
  8
0
 62
4
 10
2.53126156E+01
 20
1.20126900E+02
  0
VERTEX
  8
0
 62
4
 10
2.52320508E+01
 20
1.20279313E+02
  0
VERTEX
  8
0
 62
4
 10
2.51383041E+01
 20
1.20424230E+02
  0
VERTEX
  8
0
 62
4
 10
2.50320889E+01
 20
1.20560549E+02
  0
VERTEX
  8
0
 62
4
 10
2.49142136E+01
 20
1.20687233E+02
  0
VERTEX
  8
0
 62
4
 10
2.47855752E+01
 20
1.20803318E+02
  0
VERTEX
  8
0
 62
4
 10
2.46471529E+01
 20
1.20907920E+02
  0
VERTEX
  8
0
 62
4
 10
2.45000000E+01
 20
1.21000242E+02
  0
VERTEX
  8
0
 62
4
 10
2.43452365E+01
 20
1.21079583E+02
  0
VERTEX
  8
0
 62
4
 10
2.41840403E+01
 20
1.21145338E+02
  0
VERTEX
  8
0
 62
4
 10
2.40176381E+01
 20
1.21197007E+02
  0
VERTEX
  8
0
 62
4
 10
2.38472964E+01
 20
1.21234198E+02
  0
VERTEX
  8
0
 62
4
 10
2.36743115E+01
 20
1.21256626E+02
  0
VERTEX
  8
0
 62
4
 10
2.35000000E+01
 20
1.21264121E+02
  0
VERTEX
  8
0
 62
4
 10
2.33256885E+01
 20
1.21256626E+02
  0
VERTEX
  8
0
 62
4
 10
2.31527036E+01
 20
1.21234198E+02
  0
VERTEX
  8
0
 62
4
 10
2.29823619E+01
 20
1.21197007E+02
  0
VERTEX
  8
0
 62
4
 10
2.28159597E+01
 20
1.21145338E+02
  0
VERTEX
  8
0
 62
4
 10
2.26547635E+01
 20
1.21079583E+02
  0
VERTEX
  8
0
 62
4
 10
2.25000000E+01
 20
1.21000242E+02
  0
VERTEX
  8
0
 62
4
 10
2.23528471E+01
 20
1.20907920E+02
  0
VERTEX
  8
0
 62
4
 10
2.22144248E+01
 20
1.20803318E+02
  0
VERTEX
  8
0
 62
4
 10
2.20857864E+01
 20
1.20687233E+02
  0
VERTEX
  8
0
 62
4
 10
2.19679111E+01
 20
1.20560549E+02
  0
VERTEX
  8
0
 62
4
 10
2.18616959E+01
 20
1.20424230E+02
  0
VERTEX
  8
0
 62
4
 10
2.17679492E+01
 20
1.20279313E+02
  0
VERTEX
  8
0
 62
4
 10
2.16873844E+01
 20
1.20126900E+02
  0
VERTEX
  8
0
 62
4
 10
2.16206148E+01
 20
1.19968153E+02
  0
VERTEX
  8
0
 62
4
 10
2.15681483E+01
 20
1.19804279E+02
  0
VERTEX
  8
0
 62
4
 10
2.15303845E+01
 20
1.19636525E+02
  0
VERTEX
  8
0
 62
4
 10
2.15076106E+01
 20
1.19466168E+02
  0
VERTEX
  8
0
 62
4
 10
2.15000000E+01
 20
1.19294505E+02
  0
SEQEND
  8
0
  0
POLYLINE
  8
0
 62
4
 66
1
  0
VERTEX
  8
0
 62
4
 10
2.55000000E+01
 20
1.19830144E+02
  0
VERTEX
  8
0
 62
4
 10
2.54919486E+01
 20
1.20006699E+02
  0
VERTEX
  8
0
 62
4
 10
2.54678592E+01
 20
1.20181832E+02
  0
VERTEX
  8
0
 62
4
 10
2.54279257E+01
 20
1.20354134E+02
  0
VERTEX
  8
0
 62
4
 10
2.53724697E+01
 20
1.20522217E+02
  0
VERTEX
  8
0
 62
4
 10
2.53019377E+01
 20
1.20684728E+02
  0
VERTEX
  8
0
 62
4
 10
2.52168976E+01
 20
1.20840358E+02
  0
VERTEX
  8
0
 62
4
 10
2.51180340E+01
 20
1.20987855E+02
  0
VERTEX
  8
0
 62
4
 10
2.50061429E+01
 20
1.21126030E+02
  0
VERTEX
  8
0
 62
4
 10
2.48821253E+01
 20
1.21253772E+02
  0
VERTEX
  8
0
 62
4
 10
2.47469796E+01
 20
1.21370051E+02
  0
VERTEX
  8
0
 62
4
 10
2.46017940E+01
 20
1.21473932E+02
  0
VERTEX
  8
0
 62
4
 10
2.44477373E+01
 20
1.21564579E+02
  0
VERTEX
  8
0
 62
4
 10
2.42860501E+01
 20
1.21641260E+02
  0
VERTEX
  8
0
 62
4
 10
2.41180340E+01
 20
1.21703360E+02
  0
VERTEX
  8
0
 62
4
 10
2.39450419E+01
 20
1.21750377E+02
  0
VERTEX
  8
0
 62
4
 10
2.37684665E+01
 20
1.21781934E+02
  0
VERTEX
  8
0
 62
4
 10
2.35897297E+01
 20
1.21797776E+02
  0
VERTEX
  8
0
 62
4
 10
2.34102704E+01
 20
1.21797776E+02
  0
VERTEX
  8
0
 62
4
 10
2.32315335E+01
 20
1.21781934E+02
  0
VERTEX
  8
0
 62
4
 10
2.30549581E+01
 20
1.21750377E+02
  0
VERTEX
  8
0
 62
4
 10
2.28819660E+01
 20
1.21703360E+02
  0
VERTEX
  8
0
 62
4
 10
2.27139500E+01
 20
1.21641260E+02
  0
VERTEX
  8
0
 62
4
 10
2.25522627E+01
 20
1.21564579E+02
  0
VERTEX
  8
0
 62
4
 10
2.23982061E+01
 20
1.21473932E+02
  0
VERTEX
  8
0
 62
4
 10
2.22530204E+01
 20
1.21370051E+02
  0
VERTEX
  8
0
 62
4
 10
2.21178747E+01
 20
1.21253772E+02
  0
VERTEX
  8
0
 62
4
 10
2.19938571E+01
 20
1.21126030E+02
  0
VERTEX
  8
0
 62
4
 10
2.18819660E+01
 20
1.20987855E+02
  0
VERTEX
  8
0
 62
4
 10
2.17831024E+01
 20
1.20840358E+02
  0
VERTEX
  8
0
 62
4
 10
2.16980623E+01
 20
1.20684728E+02
  0
VERTEX
  8
0
 62
4
 10
2.16275303E+01
 20
1.20522217E+02
  0
VERTEX
  8
0
 62
4
 10
2.15720743E+01
 20
1.20354134E+02
  0
VERTEX
  8
0
 62
4
 10
2.15321408E+01
 20
1.20181832E+02
  0
VERTEX
  8
0
 62
4
 10
2.15080514E+01
 20
1.20006699E+02
  0
VERTEX
  8
0
 62
4
 10
2.15000000E+01
 20
1.19830144E+02
  0
SEQEND
  8
0
  0
LINE
  8
0
 62
4
 10
-3.90000000E+01
 20
1.44006422E+02
 11
-9.00000001E+00
 21
1.44006422E+02
  0
LINE
  8
0
 62
4
 10
-3.90000000E+01
 20
1.28249498E+02
 11
-9.00000000E+00
 21
1.28249498E+02
  0
LINE
  8
0
 62
4
 10
-3.90000000E+01
 20
1.29234306E+02
 11
-9.00000000E+00
 21
1.29234306E+02
  0
LINE
  8
0
 62
4
 10
-3.90000000E+01
 20
1.33306748E+02
 11
-4.05000000E+01
 21
1.32298891E+02
  0
LINE
  8
0
 62
4
 10
-4.05000000E+01
 20
1.32298891E+02
 11
-4.05000000E+01
 21
1.29674988E+02
  0
LINE
  8
0
 62
4
 10
-4.05000000E+01
 20
1.30068301E+02
 11
-3.90000000E+01
 21
1.29367517E+02
  0
LINE
  8
0
 62
4
 10
-4.05000000E+01
 20
1.29674988E+02
 11
-3.90000000E+01
 21
1.28672924E+02
  0
LINE
  8
0
 62
4
 10
-3.90000000E+01
 20
1.33306748E+02
 11
-2.69372448E+01
 21
1.33306748E+02
  0
LINE
  8
0
 62
4
 10
-3.90000000E+01
 20
1.29367517E+02
 11
-1.55000000E+01
 21
1.29367517E+02
  0
LINE
  8
0
 62
4
 10
-3.90000000E+01
 20
1.33764422E+02
 11
-2.73371230E+01
 21
1.33764422E+02
  0
LINE
  8
0
 62
4
 10
-3.90000000E+01
 20
1.33306748E+02
 11
-3.90000000E+01
 21
1.29234306E+02
  0
LINE
  8
0
 62
4
 10
-3.90000000E+01
 20
1.29234306E+02
 11
-3.90000000E+01
 21
1.27499969E+02
  0
ARC
  8
0
 62
4
 10
-1.47681469E+02
 20
6.93703504E+00
 40
1.86971513E+02
 50
4.46782203E+01
 51
4.61988768E+01
  0
ARC
  8
0
 62
4
 10
1.14681469E+02
 20
6.93703504E+00
 40
1.86971513E+02
 50
1.33801123E+02
 51
1.35321779E+02
  0
LINE
  8
0
 62
4
 10
-1.31000000E+01
 20
1.39748436E+02
 11
-1.31000000E+01
 21
1.39944798E+02
  0
POLYLINE
  8
0
 62
4
 66
1
  0
VERTEX
  8
0
 62
4
 10
-1.99000000E+01
 20
1.39944798E+02
  0
VERTEX
  8
0
 62
4
 10
-1.98870620E+01
 20
1.39652970E+02
  0
VERTEX
  8
0
 62
4
 10
-1.98483464E+01
 20
1.39363364E+02
  0
VERTEX
  8
0
 62
4
 10
-1.97841478E+01
 20
1.39078182E+02
  0
VERTEX
  8
0
 62
4
 10
-1.96949549E+01
 20
1.38799596E+02
  0
VERTEX
  8
0
 62
4
 10
-1.95814465E+01
 20
1.38529726E+02
  0
VERTEX
  8
0
 62
4
 10
-1.94444864E+01
 20
1.38270625E+02
  0
VERTEX
  8
0
 62
4
 10
-1.92851170E+01
 20
1.38024265E+02
  0
VERTEX
  8
0
 62
4
 10
-1.91045511E+01
 20
1.37792522E+02
  0
VERTEX
  8
0
 62
4
 10
-1.89041631E+01
 20
1.37577159E+02
  0
VERTEX
  8
0
 62
4
 10
-1.86854779E+01
 20
1.37379816E+02
  0
VERTEX
  8
0
 62
4
 10
-1.84501599E+01
 20
1.37201993E+02
  0
VERTEX
  8
0
 62
4
 10
-1.82000000E+01
 20
1.37045045E+02
  0
VERTEX
  8
0
 62
4
 10
-1.79369021E+01
 20
1.36910165E+02
  0
VERTEX
  8
0
 62
4
 10
-1.76628685E+01
 20
1.36798381E+02
  0
VERTEX
  8
0
 62
4
 10
-1.73799848E+01
 20
1.36710543E+02
  0
VERTEX
  8
0
 62
4
 10
-1.70904038E+01
 20
1.36647320E+02
  0
VERTEX
  8
0
 62
4
 10
-1.67963295E+01
 20
1.36609193E+02
  0
VERTEX
  8
0
 62
4
 10
-1.65000000E+01
 20
1.36596451E+02
  0
VERTEX
  8
0
 62
4
 10
-1.62036705E+01
 20
1.36609193E+02
  0
VERTEX
  8
0
 62
4
 10
-1.59095962E+01
 20
1.36647320E+02
  0
VERTEX
  8
0
 62
4
 10
-1.56200152E+01
 20
1.36710543E+02
  0
VERTEX
  8
0
 62
4
 10
-1.53371315E+01
 20
1.36798381E+02
  0
VERTEX
  8
0
 62
4
 10
-1.50630979E+01
 20
1.36910165E+02
  0
VERTEX
  8
0
 62
4
 10
-1.48000000E+01
 20
1.37045045E+02
  0
VERTEX
  8
0
 62
4
 10
-1.45498401E+01
 20
1.37201993E+02
  0
VERTEX
  8
0
 62
4
 10
-1.43145221E+01
 20
1.37379816E+02
  0
VERTEX
  8
0
 62
4
 10
-1.40958369E+01
 20
1.37577159E+02
  0
VERTEX
  8
0
 62
4
 10
-1.38954489E+01
 20
1.37792522E+02
  0
VERTEX
  8
0
 62
4
 10
-1.37148830E+01
 20
1.38024265E+02
  0
VERTEX
  8
0
 62
4
 10
-1.35555136E+01
 20
1.38270625E+02
  0
VERTEX
  8
0
 62
4
 10
-1.34185535E+01
 20
1.38529726E+02
  0
VERTEX
  8
0
 62
4
 10
-1.33050451E+01
 20
1.38799596E+02
  0
VERTEX
  8
0
 62
4
 10
-1.32158522E+01
 20
1.39078182E+02
  0
VERTEX
  8
0
 62
4
 10
-1.31516536E+01
 20
1.39363364E+02
  0
VERTEX
  8
0
 62
4
 10
-1.31129380E+01
 20
1.39652970E+02
  0
VERTEX
  8
0
 62
4
 10
-1.31000000E+01
 20
1.39944798E+02
  0
VERTEX
  8
0
 62
4
 10
-1.31129380E+01
 20
1.40236626E+02
  0
VERTEX
  8
0
 62
4
 10
-1.31516536E+01
 20
1.40526232E+02
  0
VERTEX
  8
0
 62
4
 10
-1.32158522E+01
 20
1.40811414E+02
  0
VERTEX
  8
0
 62
4
 10
-1.33050451E+01
 20
1.41090000E+02
  0
VERTEX
  8
0
 62
4
 10
-1.34185535E+01
 20
1.41359870E+02
  0
VERTEX
  8
0
 62
4
 10
-1.35555136E+01
 20
1.41618971E+02
  0
VERTEX
  8
0
 62
4
 10
-1.37148830E+01
 20
1.41865331E+02
  0
VERTEX
  8
0
 62
4
 10
-1.38954489E+01
 20
1.42097074E+02
  0
VERTEX
  8
0
 62
4
 10
-1.40958369E+01
 20
1.42312437E+02
  0
VERTEX
  8
0
 62
4
 10
-1.43145221E+01
 20
1.42509780E+02
  0
VERTEX
  8
0
 62
4
 10
-1.45498401E+01
 20
1.42687603E+02
  0
VERTEX
  8
0
 62
4
 10
-1.48000000E+01
 20
1.42844551E+02
  0
VERTEX
  8
0
 62
4
 10
-1.50630979E+01
 20
1.42979431E+02
  0
VERTEX
  8
0
 62
4
 10
-1.53371315E+01
 20
1.43091215E+02
  0
VERTEX
  8
0
 62
4
 10
-1.56200152E+01
 20
1.43179053E+02
  0
VERTEX
  8
0
 62
4
 10
-1.59095962E+01
 20
1.43242276E+02
  0
VERTEX
  8
0
 62
4
 10
-1.62036705E+01
 20
1.43280403E+02
  0
VERTEX
  8
0
 62
4
 10
-1.65000000E+01
 20
1.43293145E+02
  0
VERTEX
  8
0
 62
4
 10
-1.67963295E+01
 20
1.43280403E+02
  0
VERTEX
  8
0
 62
4
 10
-1.70904038E+01
 20
1.43242276E+02
  0
VERTEX
  8
0
 62
4
 10
-1.73799848E+01
 20
1.43179053E+02
  0
VERTEX
  8
0
 62
4
 10
-1.76628685E+01
 20
1.43091215E+02
  0
VERTEX
  8
0
 62
4
 10
-1.79369021E+01
 20
1.42979431E+02
  0
VERTEX
  8
0
 62
4
 10
-1.82000000E+01
 20
1.42844551E+02
  0
VERTEX
  8
0
 62
4
 10
-1.84501599E+01
 20
1.42687603E+02
  0
VERTEX
  8
0
 62
4
 10
-1.86854779E+01
 20
1.42509780E+02
  0
VERTEX
  8
0
 62
4
 10
-1.89041631E+01
 20
1.42312437E+02
  0
VERTEX
  8
0
 62
4
 10
-1.91045511E+01
 20
1.42097074E+02
  0
VERTEX
  8
0
 62
4
 10
-1.92851170E+01
 20
1.41865331E+02
  0
VERTEX
  8
0
 62
4
 10
-1.94444864E+01
 20
1.41618971E+02
  0
VERTEX
  8
0
 62
4
 10
-1.95814465E+01
 20
1.41359870E+02
  0
VERTEX
  8
0
 62
4
 10
-1.96949549E+01
 20
1.41090000E+02
  0
VERTEX
  8
0
 62
4
 10
-1.97841478E+01
 20
1.40811414E+02
  0
VERTEX
  8
0
 62
4
 10
-1.98483464E+01
 20
1.40526232E+02
  0
VERTEX
  8
0
 62
4
 10
-1.98870620E+01
 20
1.40236626E+02
  0
VERTEX
  8
0
 62
4
 10
-1.99000000E+01
 20
1.39944798E+02
  0
SEQEND
  8
0
  0
POLYLINE
  8
0
 62
4
 66
1
  0
VERTEX
  8
0
 62
4
 10
-1.99000000E+01
 20
1.39748436E+02
  0
VERTEX
  8
0
 62
4
 10
-1.98863126E+01
 20
1.39448293E+02
  0
VERTEX
  8
0
 62
4
 10
-1.98453606E+01
 20
1.39150566E+02
  0
VERTEX
  8
0
 62
4
 10
-1.97774738E+01
 20
1.38857653E+02
  0
VERTEX
  8
0
 62
4
 10
-1.96831986E+01
 20
1.38571911E+02
  0
VERTEX
  8
0
 62
4
 10
-1.95632942E+01
 20
1.38295643E+02
  0
VERTEX
  8
0
 62
4
 10
-1.94187259E+01
 20
1.38031072E+02
  0
VERTEX
  8
0
 62
4
 10
-1.92506578E+01
 20
1.37780327E+02
  0
VERTEX
  8
0
 62
4
 10
-1.90604430E+01
 20
1.37545429E+02
  0
VERTEX
  8
0
 62
4
 10
-1.88496130E+01
 20
1.37328268E+02
  0
VERTEX
  8
0
 62
4
 10
-1.86198654E+01
 20
1.37130593E+02
  0
VERTEX
  8
0
 62
4
 10
-1.83730498E+01
 20
1.36953996E+02
  0
VERTEX
  8
0
 62
4
 10
-1.81111535E+01
 20
1.36799897E+02
  0
VERTEX
  8
0
 62
4
 10
-1.78362851E+01
 20
1.36669539E+02
  0
VERTEX
  8
0
 62
4
 10
-1.75506578E+01
 20
1.36563969E+02
  0
VERTEX
  8
0
 62
4
 10
-1.72565712E+01
 20
1.36484040E+02
  0
VERTEX
  8
0
 62
4
 10
-1.69563931E+01
 20
1.36430393E+02
  0
VERTEX
  8
0
 62
4
 10
-1.66525404E+01
 20
1.36403461E+02
  0
VERTEX
  8
0
 62
4
 10
-1.63474596E+01
 20
1.36403461E+02
  0
VERTEX
  8
0
 62
4
 10
-1.60436069E+01
 20
1.36430393E+02
  0
VERTEX
  8
0
 62
4
 10
-1.57434288E+01
 20
1.36484040E+02
  0
VERTEX
  8
0
 62
4
 10
-1.54493422E+01
 20
1.36563969E+02
  0
VERTEX
  8
0
 62
4
 10
-1.51637149E+01
 20
1.36669539E+02
  0
VERTEX
  8
0
 62
4
 10
-1.48888466E+01
 20
1.36799897E+02
  0
VERTEX
  8
0
 62
4
 10
-1.46269503E+01
 20
1.36953996E+02
  0
VERTEX
  8
0
 62
4
 10
-1.43801347E+01
 20
1.37130593E+02
  0
VERTEX
  8
0
 62
4
 10
-1.41503870E+01
 20
1.37328268E+02
  0
VERTEX
  8
0
 62
4
 10
-1.39395570E+01
 20
1.37545429E+02
  0
VERTEX
  8
0
 62
4
 10
-1.37493422E+01
 20
1.37780327E+02
  0
VERTEX
  8
0
 62
4
 10
-1.35812741E+01
 20
1.38031072E+02
  0
VERTEX
  8
0
 62
4
 10
-1.34367058E+01
 20
1.38295643E+02
  0
VERTEX
  8
0
 62
4
 10
-1.33168014E+01
 20
1.38571911E+02
  0
VERTEX
  8
0
 62
4
 10
-1.32225263E+01
 20
1.38857652E+02
  0
VERTEX
  8
0
 62
4
 10
-1.31546394E+01
 20
1.39150566E+02
  0
VERTEX
  8
0
 62
4
 10
-1.31136874E+01
 20
1.39448293E+02
  0
VERTEX
  8
0
 62
4
 10
-1.31000000E+01
 20
1.39748436E+02
  0
SEQEND
  8
0
  0
LINE
  8
0
 62
4
 10
-1.99000000E+01
 20
1.39748436E+02
 11
-1.99000000E+01
 21
1.39944798E+02
  0
LINE
  8
0
 62
4
 10
-1.27000000E+01
 20
1.39574788E+02
 11
-1.27000000E+01
 21
1.39748436E+02
  0
POLYLINE
  8
0
 62
4
 66
1
  0
VERTEX
  8
0
 62
4
 10
-2.03000000E+01
 20
1.39748436E+02
  0
VERTEX
  8
0
 62
4
 10
-2.02855399E+01
 20
1.39422276E+02
  0
VERTEX
  8
0
 62
4
 10
-2.02422695E+01
 20
1.39098598E+02
  0
VERTEX
  8
0
 62
4
 10
-2.01705182E+01
 20
1.38779865E+02
  0
VERTEX
  8
0
 62
4
 10
-2.00708320E+01
 20
1.38468504E+02
  0
VERTEX
  8
0
 62
4
 10
-1.99439696E+01
 20
1.38166885E+02
  0
VERTEX
  8
0
 62
4
 10
-1.97908966E+01
 20
1.37877301E+02
  0
VERTEX
  8
0
 62
4
 10
-1.96127778E+01
 20
1.37601958E+02
  0
VERTEX
  8
0
 62
4
 10
-1.94109689E+01
 20
1.37342952E+02
  0
VERTEX
  8
0
 62
4
 10
-1.91870058E+01
 20
1.37102252E+02
  0
VERTEX
  8
0
 62
4
 10
-1.89425929E+01
 20
1.36881691E+02
  0
VERTEX
  8
0
 62
4
 10
-1.86795905E+01
 20
1.36682948E+02
  0
VERTEX
  8
0
 62
4
 10
-1.84000000E+01
 20
1.36507536E+02
  0
VERTEX
  8
0
 62
4
 10
-1.81059494E+01
 20
1.36356788E+02
  0
VERTEX
  8
0
 62
4
 10
-1.77996766E+01
 20
1.36231853E+02
  0
VERTEX
  8
0
 62
4
 10
-1.74835124E+01
 20
1.36133681E+02
  0
VERTEX
  8
0
 62
4
 10
-1.71598631E+01
 20
1.36063020E+02
  0
VERTEX
  8
0
 62
4
 10
-1.68311918E+01
 20
1.36020407E+02
  0
VERTEX
  8
0
 62
4
 10
-1.65000000E+01
 20
1.36006167E+02
  0
VERTEX
  8
0
 62
4
 10
-1.61688082E+01
 20
1.36020407E+02
  0
VERTEX
  8
0
 62
4
 10
-1.58401369E+01
 20
1.36063020E+02
  0
VERTEX
  8
0
 62
4
 10
-1.55164876E+01
 20
1.36133681E+02
  0
VERTEX
  8
0
 62
4
 10
-1.52003235E+01
 20
1.36231853E+02
  0
VERTEX
  8
0
 62
4
 10
-1.48940506E+01
 20
1.36356788E+02
  0
VERTEX
  8
0
 62
4
 10
-1.46000000E+01
 20
1.36507536E+02
  0
VERTEX
  8
0
 62
4
 10
-1.43204095E+01
 20
1.36682948E+02
  0
VERTEX
  8
0
 62
4
 10
-1.40574071E+01
 20
1.36881691E+02
  0
VERTEX
  8
0
 62
4
 10
-1.38129942E+01
 20
1.37102252E+02
  0
VERTEX
  8
0
 62
4
 10
-1.35890311E+01
 20
1.37342952E+02
  0
VERTEX
  8
0
 62
4
 10
-1.33872222E+01
 20
1.37601958E+02
  0
VERTEX
  8
0
 62
4
 10
-1.32091034E+01
 20
1.37877301E+02
  0
VERTEX
  8
0
 62
4
 10
-1.30560304E+01
 20
1.38166885E+02
  0
VERTEX
  8
0
 62
4
 10
-1.29291680E+01
 20
1.38468504E+02
  0
VERTEX
  8
0
 62
4
 10
-1.28294818E+01
 20
1.38779865E+02
  0
VERTEX
  8
0
 62
4
 10
-1.27577305E+01
 20
1.39098598E+02
  0
VERTEX
  8
0
 62
4
 10
-1.27144601E+01
 20
1.39422276E+02
  0
VERTEX
  8
0
 62
4
 10
-1.27000000E+01
 20
1.39748436E+02
  0
VERTEX
  8
0
 62
4
 10
-1.27144601E+01
 20
1.40074596E+02
  0
VERTEX
  8
0
 62
4
 10
-1.27577305E+01
 20
1.40398274E+02
  0
VERTEX
  8
0
 62
4
 10
-1.28294818E+01
 20
1.40717007E+02
  0
VERTEX
  8
0
 62
4
 10
-1.29291680E+01
 20
1.41028368E+02
  0
VERTEX
  8
0
 62
4
 10
-1.30560304E+01
 20
1.41329987E+02
  0
VERTEX
  8
0
 62
4
 10
-1.32091034E+01
 20
1.41619571E+02
  0
VERTEX
  8
0
 62
4
 10
-1.33872222E+01
 20
1.41894914E+02
  0
VERTEX
  8
0
 62
4
 10
-1.35890311E+01
 20
1.42153920E+02
  0
VERTEX
  8
0
 62
4
 10
-1.38129942E+01
 20
1.42394620E+02
  0
VERTEX
  8
0
 62
4
 10
-1.40574071E+01
 20
1.42615181E+02
  0
VERTEX
  8
0
 62
4
 10
-1.43204095E+01
 20
1.42813924E+02
  0
VERTEX
  8
0
 62
4
 10
-1.46000000E+01
 20
1.42989336E+02
  0
VERTEX
  8
0
 62
4
 10
-1.48940506E+01
 20
1.43140084E+02
  0
VERTEX
  8
0
 62
4
 10
-1.52003234E+01
 20
1.43265019E+02
  0
VERTEX
  8
0
 62
4
 10
-1.55164876E+01
 20
1.43363191E+02
  0
VERTEX
  8
0
 62
4
 10
-1.58401369E+01
 20
1.43433852E+02
  0
VERTEX
  8
0
 62
4
 10
-1.61688082E+01
 20
1.43476465E+02
  0
VERTEX
  8
0
 62
4
 10
-1.65000000E+01
 20
1.43490705E+02
  0
VERTEX
  8
0
 62
4
 10
-1.68311918E+01
 20
1.43476465E+02
  0
VERTEX
  8
0
 62
4
 10
-1.71598631E+01
 20
1.43433852E+02
  0
VERTEX
  8
0
 62
4
 10
-1.74835124E+01
 20
1.43363191E+02
  0
VERTEX
  8
0
 62
4
 10
-1.77996766E+01
 20
1.43265019E+02
  0
VERTEX
  8
0
 62
4
 10
-1.81059494E+01
 20
1.43140084E+02
  0
VERTEX
  8
0
 62
4
 10
-1.84000000E+01
 20
1.42989336E+02
  0
VERTEX
  8
0
 62
4
 10
-1.86795905E+01
 20
1.42813924E+02
  0
VERTEX
  8
0
 62
4
 10
-1.89425929E+01
 20
1.42615181E+02
  0
VERTEX
  8
0
 62
4
 10
-1.91870058E+01
 20
1.42394620E+02
  0
VERTEX
  8
0
 62
4
 10
-1.94109689E+01
 20
1.42153920E+02
  0
VERTEX
  8
0
 62
4
 10
-1.96127778E+01
 20
1.41894914E+02
  0
VERTEX
  8
0
 62
4
 10
-1.97908966E+01
 20
1.41619571E+02
  0
VERTEX
  8
0
 62
4
 10
-1.99439696E+01
 20
1.41329987E+02
  0
VERTEX
  8
0
 62
4
 10
-2.00708320E+01
 20
1.41028368E+02
  0
VERTEX
  8
0
 62
4
 10
-2.01705182E+01
 20
1.40717007E+02
  0
VERTEX
  8
0
 62
4
 10
-2.02422695E+01
 20
1.40398274E+02
  0
VERTEX
  8
0
 62
4
 10
-2.02855399E+01
 20
1.40074596E+02
  0
VERTEX
  8
0
 62
4
 10
-2.03000000E+01
 20
1.39748436E+02
  0
SEQEND
  8
0
  0
POLYLINE
  8
0
 62
4
 66
1
  0
VERTEX
  8
0
 62
4
 10
-2.03000000E+01
 20
1.39574788E+02
  0
VERTEX
  8
0
 62
4
 10
-2.02847023E+01
 20
1.39239334E+02
  0
VERTEX
  8
0
 62
4
 10
-2.02389325E+01
 20
1.38906580E+02
  0
VERTEX
  8
0
 62
4
 10
-2.01630589E+01
 20
1.38579206E+02
  0
VERTEX
  8
0
 62
4
 10
-2.00576925E+01
 20
1.38259849E+02
  0
VERTEX
  8
0
 62
4
 10
-1.99236817E+01
 20
1.37951078E+02
  0
VERTEX
  8
0
 62
4
 10
-1.97621054E+01
 20
1.37655381E+02
  0
VERTEX
  8
0
 62
4
 10
-1.95742646E+01
 20
1.37375137E+02
  0
VERTEX
  8
0
 62
4
 10
-1.93616716E+01
 20
1.37112604E+02
  0
VERTEX
  8
0
 62
4
 10
-1.91260381E+01
 20
1.36869895E+02
  0
VERTEX
  8
0
 62
4
 10
-1.88692613E+01
 20
1.36648964E+02
  0
VERTEX
  8
0
 62
4
 10
-1.85934086E+01
 20
1.36451590E+02
  0
VERTEX
  8
0
 62
4
 10
-1.83007009E+01
 20
1.36279362E+02
  0
VERTEX
  8
0
 62
4
 10
-1.79934951E+01
 20
1.36133667E+02
  0
VERTEX
  8
0
 62
4
 10
-1.76742646E+01
 20
1.36015678E+02
  0
VERTEX
  8
0
 62
4
 10
-1.73455796E+01
 20
1.35926345E+02
  0
VERTEX
  8
0
 62
4
 10
-1.70100864E+01
 20
1.35866387E+02
  0
VERTEX
  8
0
 62
4
 10
-1.66704864E+01
 20
1.35836287E+02
  0
VERTEX
  8
0
 62
4
 10
-1.63295137E+01
 20
1.35836287E+02
  0
VERTEX
  8
0
 62
4
 10
-1.59899136E+01
 20
1.35866387E+02
  0
VERTEX
  8
0
 62
4
 10
-1.56544205E+01
 20
1.35926345E+02
  0
VERTEX
  8
0
 62
4
 10
-1.53257354E+01
 20
1.36015678E+02
  0
VERTEX
  8
0
 62
4
 10
-1.50065049E+01
 20
1.36133667E+02
  0
VERTEX
  8
0
 62
4
 10
-1.46992991E+01
 20
1.36279362E+02
  0
VERTEX
  8
0
 62
4
 10
-1.44065915E+01
 20
1.36451590E+02
  0
VERTEX
  8
0
 62
4
 10
-1.41307388E+01
 20
1.36648964E+02
  0
VERTEX
  8
0
 62
4
 10
-1.38739619E+01
 20
1.36869895E+02
  0
VERTEX
  8
0
 62
4
 10
-1.36383284E+01
 20
1.37112604E+02
  0
VERTEX
  8
0
 62
4
 10
-1.34257354E+01
 20
1.37375137E+02
  0
VERTEX
  8
0
 62
4
 10
-1.32378946E+01
 20
1.37655381E+02
  0
VERTEX
  8
0
 62
4
 10
-1.30763183E+01
 20
1.37951078E+02
  0
VERTEX
  8
0
 62
4
 10
-1.29423075E+01
 20
1.38259849E+02
  0
VERTEX
  8
0
 62
4
 10
-1.28369411E+01
 20
1.38579206E+02
  0
VERTEX
  8
0
 62
4
 10
-1.27610675E+01
 20
1.38906580E+02
  0
VERTEX
  8
0
 62
4
 10
-1.27152977E+01
 20
1.39239334E+02
  0
VERTEX
  8
0
 62
4
 10
-1.27000000E+01
 20
1.39574788E+02
  0
SEQEND
  8
0
  0
LINE
  8
0
 62
4
 10
-2.03000000E+01
 20
1.39574788E+02
 11
-2.03000000E+01
 21
1.39748436E+02
  0
ARC
  8
0
 62
4
 10
-1.56372535E+02
 20
2.20036763E+00
 40
1.88657692E+02
 50
4.46816411E+01
 51
4.61887918E+01
  0
ARC
  8
0
 62
4
 10
1.08372823E+02
 20
2.20007461E+00
 40
1.88658103E+02
 50
1.33811210E+02
 51
1.35318357E+02
  0
LINE
  8
0
 62
4
 10
-1.98500000E+01
 20
1.36193947E+02
 11
-1.98500000E+01
 21
1.36499568E+02
  0
LINE
  8
0
 62
4
 10
-2.81500000E+01
 20
1.36193947E+02
 11
-2.81500000E+01
 21
1.36499568E+02
  0
POLYLINE
  8
0
 62
4
 66
1
  0
VERTEX
  8
0
 62
4
 10
-1.98500000E+01
 20
1.36499568E+02
  0
VERTEX
  8
0
 62
4
 10
-1.98657920E+01
 20
1.36855769E+02
  0
VERTEX
  8
0
 62
4
 10
-1.99130478E+01
 20
1.37209260E+02
  0
VERTEX
  8
0
 62
4
 10
-1.99914078E+01
 20
1.37557349E+02
  0
VERTEX
  8
0
 62
4
 10
-2.01002756E+01
 20
1.37897388E+02
  0
VERTEX
  8
0
 62
4
 10
-2.02388227E+01
 20
1.38226789E+02
  0
VERTEX
  8
0
 62
4
 10
-2.04059946E+01
 20
1.38543044E+02
  0
VERTEX
  8
0
 62
4
 10
-2.06005190E+01
 20
1.38843747E+02
  0
VERTEX
  8
0
 62
4
 10
-2.08209156E+01
 20
1.39126610E+02
  0
VERTEX
  8
0
 62
4
 10
-2.10655069E+01
 20
1.39389480E+02
  0
VERTEX
  8
0
 62
4
 10
-2.13324314E+01
 20
1.39630355E+02
  0
VERTEX
  8
0
 62
4
 10
-2.16196578E+01
 20
1.39847403E+02
  0
VERTEX
  8
0
 62
4
 10
-2.19250000E+01
 20
1.40038972E+02
  0
VERTEX
  8
0
 62
4
 10
-2.22461342E+01
 20
1.40203605E+02
  0
VERTEX
  8
0
 62
4
 10
-2.25806164E+01
 20
1.40340047E+02
  0
VERTEX
  8
0
 62
4
 10
-2.29259010E+01
 20
1.40447261E+02
  0
VERTEX
  8
0
 62
4
 10
-2.32793601E+01
 20
1.40524430E+02
  0
VERTEX
  8
0
 62
4
 10
-2.36383037E+01
 20
1.40570968E+02
  0
VERTEX
  8
0
 62
4
 10
-2.40000000E+01
 20
1.40586520E+02
  0
VERTEX
  8
0
 62
4
 10
-2.43616963E+01
 20
1.40570968E+02
  0
VERTEX
  8
0
 62
4
 10
-2.47206399E+01
 20
1.40524430E+02
  0
VERTEX
  8
0
 62
4
 10
-2.50740990E+01
 20
1.40447261E+02
  0
VERTEX
  8
0
 62
4
 10
-2.54193836E+01
 20
1.40340047E+02
  0
VERTEX
  8
0
 62
4
 10
-2.57538658E+01
 20
1.40203605E+02
  0
VERTEX
  8
0
 62
4
 10
-2.60750000E+01
 20
1.40038972E+02
  0
VERTEX
  8
0
 62
4
 10
-2.63803422E+01
 20
1.39847403E+02
  0
VERTEX
  8
0
 62
4
 10
-2.66675686E+01
 20
1.39630355E+02
  0
VERTEX
  8
0
 62
4
 10
-2.69344931E+01
 20
1.39389480E+02
  0
VERTEX
  8
0
 62
4
 10
-2.71790844E+01
 20
1.39126610E+02
  0
VERTEX
  8
0
 62
4
 10
-2.73994810E+01
 20
1.38843747E+02
  0
VERTEX
  8
0
 62
4
 10
-2.75940054E+01
 20
1.38543044E+02
  0
VERTEX
  8
0
 62
4
 10
-2.77611773E+01
 20
1.38226789E+02
  0
VERTEX
  8
0
 62
4
 10
-2.78997244E+01
 20
1.37897388E+02
  0
VERTEX
  8
0
 62
4
 10
-2.80085922E+01
 20
1.37557349E+02
  0
VERTEX
  8
0
 62
4
 10
-2.80869522E+01
 20
1.37209260E+02
  0
VERTEX
  8
0
 62
4
 10
-2.81342080E+01
 20
1.36855769E+02
  0
VERTEX
  8
0
 62
4
 10
-2.81500000E+01
 20
1.36499568E+02
  0
VERTEX
  8
0
 62
4
 10
-2.81342080E+01
 20
1.36143367E+02
  0
VERTEX
  8
0
 62
4
 10
-2.80869522E+01
 20
1.35789876E+02
  0
VERTEX
  8
0
 62
4
 10
-2.80085922E+01
 20
1.35441787E+02
  0
VERTEX
  8
0
 62
4
 10
-2.78997244E+01
 20
1.35101748E+02
  0
VERTEX
  8
0
 62
4
 10
-2.77611773E+01
 20
1.34772347E+02
  0
VERTEX
  8
0
 62
4
 10
-2.75940054E+01
 20
1.34456092E+02
  0
VERTEX
  8
0
 62
4
 10
-2.73994810E+01
 20
1.34155389E+02
  0
VERTEX
  8
0
 62
4
 10
-2.71790844E+01
 20
1.33872526E+02
  0
VERTEX
  8
0
 62
4
 10
-2.69344931E+01
 20
1.33609656E+02
  0
VERTEX
  8
0
 62
4
 10
-2.66675686E+01
 20
1.33368781E+02
  0
VERTEX
  8
0
 62
4
 10
-2.63803422E+01
 20
1.33151733E+02
  0
VERTEX
  8
0
 62
4
 10
-2.60750000E+01
 20
1.32960164E+02
  0
VERTEX
  8
0
 62
4
 10
-2.57538658E+01
 20
1.32795531E+02
  0
VERTEX
  8
0
 62
4
 10
-2.54193836E+01
 20
1.32659089E+02
  0
VERTEX
  8
0
 62
4
 10
-2.50740990E+01
 20
1.32551875E+02
  0
VERTEX
  8
0
 62
4
 10
-2.47206399E+01
 20
1.32474706E+02
  0
VERTEX
  8
0
 62
4
 10
-2.43616963E+01
 20
1.32428168E+02
  0
VERTEX
  8
0
 62
4
 10
-2.40000000E+01
 20
1.32412616E+02
  0
VERTEX
  8
0
 62
4
 10
-2.36383037E+01
 20
1.32428168E+02
  0
VERTEX
  8
0
 62
4
 10
-2.32793601E+01
 20
1.32474706E+02
  0
VERTEX
  8
0
 62
4
 10
-2.29259010E+01
 20
1.32551875E+02
  0
VERTEX
  8
0
 62
4
 10
-2.25806164E+01
 20
1.32659089E+02
  0
VERTEX
  8
0
 62
4
 10
-2.22461342E+01
 20
1.32795531E+02
  0
VERTEX
  8
0
 62
4
 10
-2.19250000E+01
 20
1.32960164E+02
  0
VERTEX
  8
0
 62
4
 10
-2.16196578E+01
 20
1.33151733E+02
  0
VERTEX
  8
0
 62
4
 10
-2.13324314E+01
 20
1.33368781E+02
  0
VERTEX
  8
0
 62
4
 10
-2.10655069E+01
 20
1.33609656E+02
  0
VERTEX
  8
0
 62
4
 10
-2.08209156E+01
 20
1.33872526E+02
  0
VERTEX
  8
0
 62
4
 10
-2.06005190E+01
 20
1.34155389E+02
  0
VERTEX
  8
0
 62
4
 10
-2.04059946E+01
 20
1.34456092E+02
  0
VERTEX
  8
0
 62
4
 10
-2.02388227E+01
 20
1.34772347E+02
  0
VERTEX
  8
0
 62
4
 10
-2.01002756E+01
 20
1.35101748E+02
  0
VERTEX
  8
0
 62
4
 10
-1.99914078E+01
 20
1.35441787E+02
  0
VERTEX
  8
0
 62
4
 10
-1.99130478E+01
 20
1.35789876E+02
  0
VERTEX
  8
0
 62
4
 10
-1.98657920E+01
 20
1.36143367E+02
  0
VERTEX
  8
0
 62
4
 10
-1.98500000E+01
 20
1.36499568E+02
  0
SEQEND
  8
0
  0
POLYLINE
  8
0
 62
4
 66
1
  0
VERTEX
  8
0
 62
4
 10
-2.81500000E+01
 20
1.36193947E+02
  0
VERTEX
  8
0
 62
4
 10
-2.81332933E+01
 20
1.35827595E+02
  0
VERTEX
  8
0
 62
4
 10
-2.80833078E+01
 20
1.35464194E+02
  0
VERTEX
  8
0
 62
4
 10
-2.80004459E+01
 20
1.35106667E+02
  0
VERTEX
  8
0
 62
4
 10
-2.78853747E+01
 20
1.34757895E+02
  0
VERTEX
  8
0
 62
4
 10
-2.77390208E+01
 20
1.34420685E+02
  0
VERTEX
  8
0
 62
4
 10
-2.75625625E+01
 20
1.34097752E+02
  0
VERTEX
  8
0
 62
4
 10
-2.73574205E+01
 20
1.33791697E+02
  0
VERTEX
  8
0
 62
4
 10
-2.71252466E+01
 20
1.33504983E+02
  0
VERTEX
  8
0
 62
4
 10
-2.68679100E+01
 20
1.33239919E+02
  0
VERTEX
  8
0
 62
4
 10
-2.65874827E+01
 20
1.32998639E+02
  0
VERTEX
  8
0
 62
4
 10
-2.62862225E+01
 20
1.32783086E+02
  0
VERTEX
  8
0
 62
4
 10
-2.59665550E+01
 20
1.32594995E+02
  0
VERTEX
  8
0
 62
4
 10
-2.56310539E+01
 20
1.32435881E+02
  0
VERTEX
  8
0
 62
4
 10
-2.52824205E+01
 20
1.32307025E+02
  0
VERTEX
  8
0
 62
4
 10
-2.49234619E+01
 20
1.32209463E+02
  0
VERTEX
  8
0
 62
4
 10
-2.45570681E+01
 20
1.32143983E+02
  0
VERTEX
  8
0
 62
4
 10
-2.41861891E+01
 20
1.32111110E+02
  0
VERTEX
  8
0
 62
4
 10
-2.38138110E+01
 20
1.32111110E+02
  0
VERTEX
  8
0
 62
4
 10
-2.34429320E+01
 20
1.32143983E+02
  0
VERTEX
  8
0
 62
4
 10
-2.30765381E+01
 20
1.32209463E+02
  0
VERTEX
  8
0
 62
4
 10
-2.27175795E+01
 20
1.32307024E+02
  0
VERTEX
  8
0
 62
4
 10
-2.23689461E+01
 20
1.32435881E+02
  0
VERTEX
  8
0
 62
4
 10
-2.20334451E+01
 20
1.32594995E+02
  0
VERTEX
  8
0
 62
4
 10
-2.17137775E+01
 20
1.32783086E+02
  0
VERTEX
  8
0
 62
4
 10
-2.14125173E+01
 20
1.32998639E+02
  0
VERTEX
  8
0
 62
4
 10
-2.11320900E+01
 20
1.33239919E+02
  0
VERTEX
  8
0
 62
4
 10
-2.08747534E+01
 20
1.33504983E+02
  0
VERTEX
  8
0
 62
4
 10
-2.06425795E+01
 20
1.33791697E+02
  0
VERTEX
  8
0
 62
4
 10
-2.04374375E+01
 20
1.34097752E+02
  0
VERTEX
  8
0
 62
4
 10
-2.02609792E+01
 20
1.34420685E+02
  0
VERTEX
  8
0
 62
4
 10
-2.01146253E+01
 20
1.34757895E+02
  0
VERTEX
  8
0
 62
4
 10
-1.99995541E+01
 20
1.35106667E+02
  0
VERTEX
  8
0
 62
4
 10
-1.99166922E+01
 20
1.35464193E+02
  0
VERTEX
  8
0
 62
4
 10
-1.98667067E+01
 20
1.35827595E+02
  0
VERTEX
  8
0
 62
4
 10
-1.98500000E+01
 20
1.36193947E+02
  0
SEQEND
  8
0
  0
LINE
  8
0
  6
CENTER
 62
6
 10
-3.15000000E+01
 20
1.42074788E+02
 11
-3.15000000E+01
 21
1.37074788E+02
  0
LINE
  8
0
  6
CENTER
 62
6
 10
-2.90000000E+01
 20
1.39574788E+02
 11
-3.40000000E+01
 21
1.39574788E+02
  0
LINE
  8
0
  6
CENTER
 62
6
 10
-2.40000000E+01
 20
1.38627960E+02
 11
-2.40000000E+01
 21
1.33627960E+02
  0
LINE
  8
0
  6
CENTER
 62
6
 10
-2.15000000E+01
 20
1.36127960E+02
 11
-2.65000000E+01
 21
1.36127960E+02
  0
LINE
  8
0
  6
CENTER
 62
6
 10
-1.65000000E+01
 20
1.42074788E+02
 11
-1.65000000E+01
 21
1.37074788E+02
  0
LINE
  8
0
  6
CENTER
 62
6
 10
-1.40000000E+01
 20
1.39574788E+02
 11
-1.90000000E+01
 21
1.39574788E+02
  0
LINE
  8
0
 62
4
 10
-2.06628770E+01
 20
1.33764422E+02
 11
-9.00000000E+00
 21
1.33764422E+02
  0
LINE
  8
0
 62
4
 10
-2.10627552E+01
 20
1.33306748E+02
 11
-1.55000000E+01
 21
1.33306748E+02
  0
LINE
  8
0
 62
4
 10
5.00000000E+01
 20
1.33306748E+02
 11
5.15000000E+01
 21
1.32298891E+02
  0
LINE
  8
0
 62
4
 10
5.15000000E+01
 20
1.30068301E+02
 11
5.00000000E+01
 21
1.29367517E+02
  0
LINE
  8
0
 62
4
 10
5.15000000E+01
 20
1.29674988E+02
 11
5.00000000E+01
 21
1.28672924E+02
  0
LINE
  8
0
 62
4
 10
5.15000000E+01
 20
1.32298891E+02
 11
5.15000000E+01
 21
1.29674988E+02
  0
LINE
  8
0
 62
7
 10
2.00000000E+01
 20
1.27499969E+02
 11
-4.95000000E+01
 21
1.27499969E+02
  0
LINE
  8
0
 62
7
 10
2.00000000E+01
 20
1.26649979E+02
 11
-4.95000000E+01
 21
1.26649979E+02
  0
LINE
  8
0
 62
7
 10
2.00000000E+01
 20
1.21349991E+02
 11
-4.95000000E+01
 21
1.21349991E+02
  0
LINE
  8
0
  6
CENTER
 62
2
 10
-4.44000015E+02
 20
1.33553680E+02
 11
-4.44000015E+02
 21
1.16115631E+02
  0
LINE
  8
0
  6
CENTER
 62
2
 10
-4.53387100E+02
 20
1.23999969E+02
 11
-4.34267410E+02
 21
1.23999969E+02
  0
LINE
  8
0
  6
CENTER
 62
2
 10
-4.43999954E+02
 20
6.74090271E+01
 11
-4.43999954E+02
 21
8.62955780E+01
  0
LINE
  8
0
  6
CENTER
 62
2
 10
-4.53037308E+02
 20
7.69999542E+01
 11
-4.34267410E+02
 21
7.69999542E+01
  0
LINE
  8
0
  6
CENTER
 62
2
 10
-5.01186356E+02
 20
7.69999542E+01
 11
-4.81483719E+02
 21
7.69999542E+01
  0
LINE
  8
0
  6
CENTER
 62
2
 10
-4.90999954E+02
 20
6.73389282E+01
 11
-4.90999954E+02
 21
8.61959839E+01
  0
LINE
  8
0
  6
CENTER
 62
2
 10
-5.00953140E+02
 20
1.23999969E+02
 11
-4.81250565E+02
 21
1.23999969E+02
  0
LINE
  8
0
  6
CENTER
 62
2
 10
-4.91000015E+02
 20
1.33978241E+02
 11
-4.91000015E+02
 21
1.14275620E+02
  0
CIRCLE
  8
0
 62
7
 10
-4.39499985E+02
 20
7.24999390E+01
 40
3.29999995E+00
  0
CIRCLE
  8
0
 62
7
 10
-4.95500076E+02
 20
7.24999695E+01
 40
3.29999995E+00
  0
CIRCLE
  8
0
 62
7
 10
-4.95500046E+02
 20
1.28500061E+02
 40
3.29999995E+00
  0
CIRCLE
  8
0
 62
7
 10
-4.39499954E+02
 20
1.28500031E+02
 40
3.29999995E+00
  0
LINE
  8
0
  6
CENTER
 62
2
 10
-4.67500015E+02
 20
1.47279694E+02
 11
-4.67500015E+02
 21
5.90114441E+01
  0
LINE
  8
0
 62
7
 10
-4.28499954E+02
 20
1.06500000E+02
 11
-4.21999893E+02
 21
1.06500000E+02
  0
LINE
  8
0
 62
7
 10
-5.06500015E+02
 20
1.00500000E+02
 11
-5.12307205E+02
 21
1.00500000E+02
  0
LINE
  8
0
 62
7
 10
-5.05000015E+02
 20
1.08500000E+02
 11
-5.06500015E+02
 21
1.08500000E+02
  0
LINE
  8
0
  6
CENTER
 62
2
 10
-5.18369522E+02
 20
1.00500000E+02
 11
-4.16100540E+02
 21
1.00500000E+02
  0
LINE
  8
0
 62
7
 10
-5.05000015E+02
 20
9.25000153E+01
 11
-5.06500015E+02
 21
9.25000153E+01
  0
LINE
  8
0
 62
7
 10
-5.06500015E+02
 20
1.06500000E+02
 11
-5.12999954E+02
 21
1.06500000E+02
  0
LINE
  8
0
 62
7
 10
-4.28499954E+02
 20
1.00500000E+02
 11
-4.22692764E+02
 21
1.00500000E+02
  0
LINE
  8
0
 62
7
 10
-4.30000015E+02
 20
9.25000153E+01
 11
-4.28499954E+02
 21
9.25000153E+01
  0
LINE
  8
0
 62
7
 10
-4.28499893E+02
 20
9.25000153E+01
 11
-4.28499893E+02
 21
1.08500000E+02
  0
LINE
  8
0
 62
7
 10
-4.21999893E+02
 20
9.45000153E+01
 11
-4.21999893E+02
 21
1.06500000E+02
  0
LINE
  8
0
 62
7
 10
-4.30000015E+02
 20
1.08500000E+02
 11
-4.28499954E+02
 21
1.08500000E+02
  0
LINE
  8
0
 62
7
 10
-5.12999954E+02
 20
9.45000153E+01
 11
-5.12999954E+02
 21
1.06500000E+02
  0
LINE
  8
0
 62
7
 10
-5.16000015E+02
 20
9.72000275E+01
 11
-5.16000015E+02
 21
1.03799988E+02
  0
LINE
  8
0
 62
7
 10
-4.18999893E+02
 20
9.72000275E+01
 11
-4.18999893E+02
 21
1.03799988E+02
  0
LINE
  8
0
 62
7
 10
-5.06500015E+02
 20
9.45000000E+01
 11
-5.12999954E+02
 21
9.45000000E+01
  0
LINE
  8
0
 62
2
 10
-5.12999954E+02
 20
9.71999817E+01
 11
-5.15999954E+02
 21
9.71999817E+01
  0
LINE
  8
0
 62
7
 10
-5.12999954E+02
 20
1.04500000E+02
 11
-5.15300003E+02
 21
1.04500000E+02
  0
LINE
  8
0
 62
7
 10
-5.12999954E+02
 20
9.64999847E+01
 11
-5.15300003E+02
 21
9.64999847E+01
  0
LINE
  8
0
 62
7
 10
-4.21999893E+02
 20
9.64999847E+01
 11
-4.19700027E+02
 21
9.64999847E+01
  0
LINE
  8
0
 62
7
 10
-4.21999893E+02
 20
1.04500000E+02
 11
-4.19700027E+02
 21
1.04500000E+02
  0
LINE
  8
0
 62
2
 10
-4.21999893E+02
 20
9.71999817E+01
 11
-4.19000015E+02
 21
9.71999817E+01
  0
LINE
  8
0
 62
2
 10
-4.21999893E+02
 20
1.03799988E+02
 11
-4.19000015E+02
 21
1.03799988E+02
  0
LINE
  8
0
 62
7
 10
-4.19699966E+02
 20
9.65000305E+01
 11
-4.19699966E+02
 21
1.04500000E+02
  0
LINE
  8
0
 62
7
 10
-5.06499893E+02
 20
9.25000153E+01
 11
-5.06499893E+02
 21
1.08500000E+02
  0
LINE
  8
0
 62
7
 10
-4.19699708E+02
 20
9.64997770E+01
 11
-4.18999722E+02
 21
9.71997625E+01
  0
LINE
  8
0
 62
7
 10
-4.18999786E+02
 20
1.03799994E+02
 11
-4.19699815E+02
 21
1.04500023E+02
  0
LINE
  8
0
 62
7
 10
-5.15299942E+02
 20
9.65000305E+01
 11
-5.15299942E+02
 21
1.04500000E+02
  0
LINE
  8
0
 62
2
 10
-5.12999954E+02
 20
1.03799988E+02
 11
-5.15999954E+02
 21
1.03799988E+02
  0
LINE
  8
0
 62
7
 10
-5.15299912E+02
 20
9.64999609E+01
 11
-5.15999940E+02
 21
9.71999896E+01
  0
LINE
  8
0
 62
7
 10
-5.15999833E+02
 20
1.03799789E+02
 11
-5.15299848E+02
 21
1.04499775E+02
  0
LINE
  8
0
 62
7
 10
-4.28499954E+02
 20
9.45000000E+01
 11
-4.21999893E+02
 21
9.45000000E+01
  0
LINE
  8
0
 62
7
 10
-5.01000015E+02
 20
1.38000031E+02
 11
-4.34000015E+02
 21
1.38000031E+02
  0
LINE
  8
0
 62
7
 10
-4.30000015E+02
 20
1.34000031E+02
 11
-4.30000015E+02
 21
6.70000305E+01
  0
LINE
  8
0
 62
7
 10
-5.01000015E+02
 20
6.30000153E+01
 11
-4.34000015E+02
 21
6.30000153E+01
  0
LINE
  8
0
 62
7
 10
-5.05000015E+02
 20
1.34000031E+02
 11
-5.05000015E+02
 21
6.70000305E+01
  0
LINE
  8
0
  6
CENTER
 62
2
 10
-4.26177750E+02
 20
7.25000153E+01
 11
-4.52652420E+02
 21
7.25000153E+01
  0
LINE
  8
0
  6
CENTER
 62
2
 10
-4.39499954E+02
 20
8.54861145E+01
 11
-4.39499954E+02
 21
5.95444946E+01
  0
LINE
  8
0
 62
7
 10
-4.35500030E+02
 20
7.48094602E+01
 11
-4.39500064E+02
 21
7.71188694E+01
  0
LINE
  8
0
 62
7
 10
-4.39499964E+02
 20
7.71186775E+01
 11
-4.43499945E+02
 21
7.48092989E+01
  0
LINE
  8
0
 62
7
 10
-4.43500015E+02
 20
7.01905975E+01
 11
-4.43500015E+02
 21
7.48094025E+01
  0
LINE
  8
0
 62
7
 10
-4.39499947E+02
 20
6.78812444E+01
 11
-4.43499981E+02
 21
7.01906536E+01
  0
LINE
  8
0
 62
7
 10
-4.35499952E+02
 20
7.01904811E+01
 11
-4.39499986E+02
 21
6.78810719E+01
  0
LINE
  8
0
 62
7
 10
-4.35499954E+02
 20
7.48094025E+01
 11
-4.35499954E+02
 21
7.01905975E+01
  0
LINE
  8
0
  6
CENTER
 62
2
 10
-5.08822159E+02
 20
7.25000153E+01
 11
-4.82347488E+02
 21
7.25000153E+01
  0
LINE
  8
0
  6
CENTER
 62
2
 10
-4.95499954E+02
 20
8.54861145E+01
 11
-4.95499954E+02
 21
5.95444946E+01
  0
LINE
  8
0
 62
7
 10
-4.99499979E+02
 20
7.48093277E+01
 11
-4.95499892E+02
 21
7.71187674E+01
  0
LINE
  8
0
 62
7
 10
-4.95499961E+02
 20
7.71188323E+01
 11
-4.91499928E+02
 21
7.48094231E+01
  0
LINE
  8
0
 62
7
 10
-4.91499893E+02
 20
7.01905975E+01
 11
-4.91499893E+02
 21
7.48094025E+01
  0
LINE
  8
0
 62
7
 10
-4.95499941E+02
 20
6.78811466E+01
 11
-4.91499960E+02
 21
7.01905252E+01
  0
LINE
  8
0
 62
7
 10
-4.99500000E+02
 20
7.01906511E+01
 11
-4.95499966E+02
 21
6.78812419E+01
  0
LINE
  8
0
 62
7
 10
-4.99499954E+02
 20
7.48094025E+01
 11
-4.99499954E+02
 21
7.01905975E+01
  0
LINE
  8
0
  6
CENTER
 62
2
 10
-4.26177750E+02
 20
1.28500031E+02
 11
-4.52652420E+02
 21
1.28500031E+02
  0
LINE
  8
0
  6
CENTER
 62
2
 10
-4.39499954E+02
 20
1.15513916E+02
 11
-4.39499954E+02
 21
1.41455536E+02
  0
LINE
  8
0
 62
7
 10
-4.35499954E+02
 20
1.26190568E+02
 11
-4.39500014E+02
 21
1.23881143E+02
  0
LINE
  8
0
 62
7
 10
-4.39499867E+02
 20
1.23881224E+02
 11
-4.43499900E+02
 21
1.26190633E+02
  0
LINE
  8
0
 62
7
 10
-4.43500015E+02
 20
1.30809418E+02
 11
-4.43500015E+02
 21
1.26190613E+02
  0
LINE
  8
0
 62
7
 10
-4.39499909E+02
 20
1.33118727E+02
 11
-4.43499916E+02
 21
1.30809333E+02
  0
LINE
  8
0
 62
7
 10
-4.35500002E+02
 20
1.30809470E+02
 11
-4.39500036E+02
 21
1.33118879E+02
  0
LINE
  8
0
 62
7
 10
-4.35499954E+02
 20
1.26190613E+02
 11
-4.35499954E+02
 21
1.30809418E+02
  0
LINE
  8
0
  6
CENTER
 62
2
 10
-5.08822159E+02
 20
1.28500031E+02
 11
-4.82347488E+02
 21
1.28500031E+02
  0
LINE
  8
0
  6
CENTER
 62
2
 10
-4.95499954E+02
 20
1.15513916E+02
 11
-4.95499954E+02
 21
1.41455536E+02
  0
LINE
  8
0
 62
7
 10
-4.99499953E+02
 20
1.26190571E+02
 11
-4.95499920E+02
 21
1.23881162E+02
  0
LINE
  8
0
 62
7
 10
-4.95499912E+02
 20
1.23881180E+02
 11
-4.91499878E+02
 21
1.26190590E+02
  0
LINE
  8
0
 62
7
 10
-4.91499893E+02
 20
1.30809418E+02
 11
-4.91499893E+02
 21
1.26190613E+02
  0
LINE
  8
0
 62
7
 10
-4.95500013E+02
 20
1.33118827E+02
 11
-4.91500032E+02
 21
1.30809448E+02
  0
LINE
  8
0
 62
7
 10
-4.99499897E+02
 20
1.30809392E+02
 11
-4.95499863E+02
 21
1.33118801E+02
  0
LINE
  8
0
 62
7
 10
-4.99499954E+02
 20
1.26190613E+02
 11
-4.99499954E+02
 21
1.30809418E+02
  0
LINE
  8
0
 62
7
 10
-4.77499858E+02
 20
1.43499863E+02
 11
-4.76499835E+02
 21
1.44499886E+02
  0
LINE
  8
0
 62
7
 10
-4.58499989E+02
 20
1.44500102E+02
 11
-4.57500009E+02
 21
1.43500122E+02
  0
LINE
  8
0
 62
7
 10
-4.76499954E+02
 20
1.44500000E+02
 11
-4.58499954E+02
 21
1.44500000E+02
  0
LINE
  8
0
 62
7
 10
-4.77500015E+02
 20
1.43500000E+02
 11
-4.77500015E+02
 21
1.38000031E+02
  0
LINE
  8
0
 62
7
 10
-4.57500015E+02
 20
1.43500000E+02
 11
-4.57500015E+02
 21
1.38000031E+02
  0
LINE
  8
0
 62
7
 10
-4.77499771E+02
 20
1.43500000E+02
 11
-4.57499893E+02
 21
1.43500000E+02
  0
CIRCLE
  8
0
 62
7
 10
-4.67500015E+02
 20
9.97831116E+01
 40
1.75294495E+01
  0
CIRCLE
  8
0
 62
7
 10
-4.67500015E+02
 20
9.97831116E+01
 40
1.90000000E+01
  0
CIRCLE
  8
0
 62
7
 10
-4.67500015E+02
 20
9.97831116E+01
 40
1.70000000E+01
  0
ARC
  8
0
 62
7
 10
-4.28840775E+02
 20
1.03500000E+02
 40
6.84084654E+00
 50
3.33989137E+02
 51
2.60107913E+01
  0
ARC
  8
0
 62
7
 10
-4.28840836E+02
 20
9.75000153E+01
 40
6.84088755E+00
 50
3.33989277E+02
 51
2.60106513E+01
  0
ARC
  8
0
 62
7
 10
-5.06159073E+02
 20
1.03500000E+02
 40
6.84084654E+00
 50
1.53989169E+02
 51
2.06010827E+02
  0
ARC
  8
0
 62
7
 10
-5.06159073E+02
 20
9.75000153E+01
 40
6.84088755E+00
 50
1.53989320E+02
 51
2.06010690E+02
  0
ARC
  8
0
 62
7
 10
-5.01000015E+02
 20
1.34000031E+02
 40
4.00000000E+00
 50
8.99999818E+01
 51
1.79999964E+02
  0
ARC
  8
0
 62
7
 10
-5.01000015E+02
 20
6.70000305E+01
 40
4.00000000E+00
 50
1.79999977E+02
 51
2.70000028E+02
  0
ARC
  8
0
 62
7
 10
-4.33999954E+02
 20
6.70000305E+01
 40
4.00000000E+00
 50
2.70000018E+02
 51
0.00000000E+00
  0
ARC
  8
0
 62
7
 10
-4.33999954E+02
 20
1.34000031E+02
 40
4.00000000E+00
 50
0.00000000E+00
 51
8.99999818E+01
  0
CIRCLE
  8
0
 62
7
 10
-4.39499954E+02
 20
7.25000153E+01
 40
6.00000000E+00
  0
CIRCLE
  8
0
 62
7
 10
-4.39499954E+02
 20
7.25000153E+01
 40
6.25000000E+00
  0
CIRCLE
  8
0
 62
2
 10
-4.39499954E+02
 20
7.25000153E+01
 40
4.00000000E+00
  0
CIRCLE
  8
0
 62
7
 10
-4.95499954E+02
 20
7.25000153E+01
 40
6.00000000E+00
  0
CIRCLE
  8
0
 62
7
 10
-4.95499954E+02
 20
7.25000153E+01
 40
6.25000000E+00
  0
CIRCLE
  8
0
 62
2
 10
-4.95499954E+02
 20
7.25000153E+01
 40
4.00000000E+00
  0
CIRCLE
  8
0
 62
7
 10
-4.39499954E+02
 20
1.28500031E+02
 40
6.00000000E+00
  0
CIRCLE
  8
0
 62
7
 10
-4.39499954E+02
 20
1.28500031E+02
 40
6.25000000E+00
  0
CIRCLE
  8
0
 62
2
 10
-4.39499954E+02
 20
1.28500031E+02
 40
4.00000000E+00
  0
CIRCLE
  8
0
 62
7
 10
-4.95499954E+02
 20
1.28500031E+02
 40
6.00000000E+00
  0
CIRCLE
  8
0
 62
7
 10
-4.95499954E+02
 20
1.28500031E+02
 40
6.25000000E+00
  0
CIRCLE
  8
0
 62
2
 10
-4.95499954E+02
 20
1.28500031E+02
 40
4.00000000E+00
  0
LINE
  8
0
 62
4
 10
-4.54000015E+02
 20
1.08294229E+02
 11
-4.67500015E+02
 21
1.16088457E+02
  0
LINE
  8
0
 62
4
 10
-4.54000015E+02
 20
9.27057714E+01
 11
-4.54000015E+02
 21
1.08294229E+02
  0
LINE
  8
0
 62
4
 10
-4.67500015E+02
 20
8.49115427E+01
 11
-4.54000015E+02
 21
9.27057714E+01
  0
LINE
  8
0
 62
4
 10
-4.81000015E+02
 20
9.27057714E+01
 11
-4.67500015E+02
 21
8.49115427E+01
  0
LINE
  8
0
 62
4
 10
-4.81000015E+02
 20
1.08294229E+02
 11
-4.81000015E+02
 21
9.27057714E+01
  0
LINE
  8
0
 62
4
 10
-4.67500015E+02
 20
1.16088457E+02
 11
-4.81000015E+02
 21
1.08294229E+02
  0
CIRCLE
  8
0
 62
4
 10
-4.67500015E+02
 20
1.00500000E+02
 40
1.35000000E+01
  0
CIRCLE
  8
0
 62
7
 10
-4.67500015E+02
 20
1.00500000E+02
 40
9.00000000E+00
  0
CIRCLE
  8
0
 62
2
 10
-4.67500015E+02
 20
1.00500000E+02
 40
8.17999268E+00
  0
LINE
  8
0
 62
4
 10
-4.86444302E+02
 20
1.42217831E+02
 11
-4.93337956E+02
 21
1.41002294E+02
  0
LINE
  8
0
 62
4
 10
-4.93337956E+02
 20
1.41002294E+02
 11
-4.94430691E+02
 21
1.38000031E+02
  0
LINE
  8
0
 62
4
 10
-4.86444302E+02
 20
1.42217831E+02
 11
-4.85700590E+02
 21
1.38000031E+02
  0
LINE
  8
0
 62
4
 10
-4.77141567E+02
 20
1.43858154E+02
 11
-4.86444302E+02
 21
1.42217831E+02
  0
LINE
  8
0
 62
4
 10
-4.57857951E+02
 20
1.43858064E+02
 11
-4.48555728E+02
 21
1.42217831E+02
  0
LINE
  8
0
 62
4
 10
-4.48555728E+02
 20
1.42217831E+02
 11
-4.49299440E+02
 21
1.38000031E+02
  0
LINE
  8
0
 62
4
 10
-4.41662074E+02
 20
1.41002294E+02
 11
-4.40569340E+02
 21
1.38000031E+02
  0
LINE
  8
0
 62
4
 10
-4.48555728E+02
 20
1.42217831E+02
 11
-4.41662074E+02
 21
1.41002294E+02
  0
CIRCLE
  8
0
 62
7
 10
2.61000046E+02
 20
7.69999542E+01
 40
2.45850000E+00
  0
CIRCLE
  8
0
 62
7
 10
2.14000046E+02
 20
7.69999542E+01
 40
2.45850000E+00
  0
CIRCLE
  8
0
 62
7
 10
2.60999985E+02
 20
1.23999969E+02
 40
2.45850000E+00
  0
CIRCLE
  8
0
 62
7
 10
2.13999985E+02
 20
1.23999969E+02
 40
2.45850000E+00
  0
LINE
  8
0
 62
7
 10
2.38500046E+02
 20
7.35000305E+01
 11
2.38500046E+02
 21
8.06002502E+01
  0
LINE
  8
0
  6
CENTER
 62
2
 10
2.03813644E+02
 20
7.69999542E+01
 11
2.23516281E+02
 21
7.69999542E+01
  0
LINE
  8
0
  6
CENTER
 62
2
 10
2.37499985E+02
 20
1.50116058E+02
 11
2.37499985E+02
 21
6.71731262E+01
  0
LINE
  8
0
 62
7
 10
2.09999985E+02
 20
6.95000153E+01
 11
2.64999985E+02
 21
6.95000153E+01
  0
LINE
  8
0
 62
7
 10
2.10000046E+02
 20
7.00000153E+01
 11
2.64999985E+02
 21
7.00000458E+01
  0
LINE
  8
0
 62
7
 10
2.07000046E+02
 20
7.30000305E+01
 11
2.07000046E+02
 21
1.27999969E+02
  0
LINE
  8
0
 62
7
 10
2.10500046E+02
 20
9.95000000E+01
 11
2.17600266E+02
 21
9.95000000E+01
  0
LINE
  8
0
 62
7
 10
2.24135887E+02
 20
8.57216588E+01
 11
2.20184350E+02
 21
8.17701207E+01
  0
LINE
  8
0
 62
7
 10
2.22721674E+02
 20
8.71359153E+01
 11
2.18770158E+02
 21
8.31843988E+01
  0
LINE
  8
0
 62
7
 10
2.36500046E+02
 20
7.35000305E+01
 11
2.36500046E+02
 21
8.06002502E+01
  0
LINE
  8
0
  6
CENTER
 62
2
 10
2.60999985E+02
 20
1.33553680E+02
 11
2.60999985E+02
 21
1.16115631E+02
  0
LINE
  8
0
 62
7
 10
2.68499985E+02
 20
7.30000000E+01
 11
2.68499985E+02
 21
1.27999969E+02
  0
LINE
  8
0
 62
7
 10
2.10000046E+02
 20
1.31500000E+02
 11
2.64999985E+02
 21
1.31500000E+02
  0
LINE
  8
0
 62
7
 10
2.67999985E+02
 20
7.30000305E+01
 11
2.67999985E+02
 21
1.27999969E+02
  0
LINE
  8
0
 62
7
 10
2.65499985E+02
 20
8.99686432E+01
 11
2.65499985E+02
 21
1.11031357E+02
  0
LINE
  8
0
 62
7
 10
2.26968613E+02
 20
1.28499985E+02
 11
2.48031357E+02
 21
1.28499985E+02
  0
LINE
  8
0
 62
7
 10
2.64499985E+02
 20
9.95000305E+01
 11
2.57399765E+02
 21
9.95000305E+01
  0
LINE
  8
0
 62
7
 10
2.64499985E+02
 20
1.01500031E+02
 11
2.57399765E+02
 21
1.01500031E+02
  0
LINE
  8
0
 62
7
 10
2.52278425E+02
 20
1.13864048E+02
 11
2.56229963E+02
 21
1.17815585E+02
  0
LINE
  8
0
 62
7
 10
2.50864212E+02
 20
1.15278261E+02
 11
2.54815793E+02
 21
1.19229842E+02
  0
LINE
  8
0
 62
7
 10
2.24136012E+02
 20
1.15278519E+02
 11
2.20184495E+02
 21
1.19230035E+02
  0
LINE
  8
0
 62
7
 10
2.22721777E+02
 20
1.13864284E+02
 11
2.18770260E+02
 21
1.17815800E+02
  0
LINE
  8
0
 62
7
 10
2.10500046E+02
 20
1.01499985E+02
 11
2.17600266E+02
 21
1.01499985E+02
  0
LINE
  8
0
  6
CENTER
 62
2
 10
2.04046860E+02
 20
1.23999969E+02
 11
2.23749435E+02
 21
1.23999969E+02
  0
LINE
  8
0
  6
CENTER
 62
2
 10
2.61000046E+02
 20
6.74090271E+01
 11
2.61000046E+02
 21
8.62955780E+01
  0
LINE
  8
0
  6
CENTER
 62
2
 10
2.13999985E+02
 20
1.33978241E+02
 11
2.13999985E+02
 21
1.14275620E+02
  0
LINE
  8
0
 62
7
 10
2.38499985E+02
 20
1.27499969E+02
 11
2.38499985E+02
 21
1.20399719E+02
  0
LINE
  8
0
 62
7
 10
2.50864223E+02
 20
8.57217793E+01
 11
2.54815782E+02
 21
8.17702203E+01
  0
LINE
  8
0
 62
7
 10
2.52278447E+02
 20
8.71359821E+01
 11
2.56230006E+02
 21
8.31844232E+01
  0
LINE
  8
0
 62
7
 10
2.36499985E+02
 20
1.27499969E+02
 11
2.36499985E+02
 21
1.20399719E+02
  0
LINE
  8
0
 62
7
 10
2.10000046E+02
 20
1.30999969E+02
 11
2.64999985E+02
 21
1.31000000E+02
  0
LINE
  8
0
 62
7
 10
2.60999993E+02
 20
1.27464071E+02
 11
2.63999989E+02
 21
1.25732023E+02
  0
LINE
  8
0
 62
7
 10
2.63999985E+02
 20
1.25732025E+02
 11
2.63999985E+02
 21
1.22267914E+02
  0
LINE
  8
0
 62
7
 10
2.09500046E+02
 20
8.99686432E+01
 11
2.09500046E+02
 21
1.11031357E+02
  0
LINE
  8
0
 62
7
 10
2.26968613E+02
 20
7.25000153E+01
 11
2.48031357E+02
 21
7.25000153E+01
  0
LINE
  8
0
 62
7
 10
2.15499985E+02
 20
1.31500000E+02
 11
2.15499985E+02
 21
1.30999969E+02
  0
LINE
  8
0
 62
7
 10
2.59499985E+02
 20
1.31500000E+02
 11
2.59499985E+02
 21
1.31000000E+02
  0
LINE
  8
0
 62
7
 10
2.59499985E+02
 20
7.00000458E+01
 11
2.59499985E+02
 21
6.95000153E+01
  0
LINE
  8
0
 62
7
 10
2.15499985E+02
 20
7.00000153E+01
 11
2.15499985E+02
 21
6.95000153E+01
  0
LINE
  8
0
  6
CENTER
 62
2
 10
2.14000046E+02
 20
6.73389282E+01
 11
2.14000046E+02
 21
8.61959839E+01
  0
LINE
  8
0
 62
7
 10
2.06500046E+02
 20
7.30000305E+01
 11
2.06500046E+02
 21
1.28000000E+02
  0
LINE
  8
0
 62
7
 10
2.61999985E+02
 20
1.16248596E+02
 11
2.61999985E+02
 21
1.14999985E+02
  0
LINE
  8
0
 62
7
 10
2.53248398E+02
 20
1.25000046E+02
 11
2.51999985E+02
 21
1.25000046E+02
  0
LINE
  8
0
 62
7
 10
2.21751266E+02
 20
1.24999969E+02
 11
2.22999985E+02
 21
1.24999969E+02
  0
LINE
  8
0
 62
7
 10
2.12999985E+02
 20
1.16248352E+02
 11
2.12999985E+02
 21
1.14999985E+02
  0
LINE
  8
0
 62
7
 10
2.62000046E+02
 20
8.47517700E+01
 11
2.62000046E+02
 21
8.60000153E+01
  0
LINE
  8
0
 62
7
 10
2.53248764E+02
 20
7.60000458E+01
 11
2.51999985E+02
 21
7.60000458E+01
  0
LINE
  8
0
 62
7
 10
2.21751572E+02
 20
7.59999542E+01
 11
2.22999985E+02
 21
7.59999542E+01
  0
LINE
  8
0
 62
7
 10
2.13000046E+02
 20
8.47512817E+01
 11
2.13000046E+02
 21
8.60000153E+01
  0
LINE
  8
0
  6
CENTER
 62
2
 10
2.02852097E+02
 20
1.00500000E+02
 11
2.72015060E+02
 21
1.00500000E+02
  0
LINE
  8
0
  6
CENTER
 62
2
 10
2.51612900E+02
 20
1.23999969E+02
 11
2.70732590E+02
 21
1.23999969E+02
  0
LINE
  8
0
  6
CENTER
 62
2
 10
2.51962692E+02
 20
7.69999542E+01
 11
2.70732590E+02
 21
7.69999542E+01
  0
LINE
  8
0
 62
7
 10
2.10999985E+02
 20
1.25732025E+02
 11
2.10999985E+02
 21
1.22267914E+02
  0
LINE
  8
0
 62
7
 10
2.16999988E+02
 20
1.22267911E+02
 11
2.13999993E+02
 21
1.20535863E+02
  0
LINE
  8
0
 62
7
 10
2.13999988E+02
 20
1.20535871E+02
 11
2.10999986E+02
 21
1.22267923E+02
  0
LINE
  8
0
 62
7
 10
2.13999988E+02
 20
1.27464064E+02
 11
2.10999993E+02
 21
1.25732016E+02
  0
LINE
  8
0
 62
7
 10
2.16999985E+02
 20
1.25732025E+02
 11
2.16999985E+02
 21
1.22267914E+02
  0
LINE
  8
0
 62
7
 10
2.13999986E+02
 20
1.27464076E+02
 11
2.16999988E+02
 21
1.25732024E+02
  0
LINE
  8
0
 62
7
 10
2.61000043E+02
 20
8.04640514E+01
 11
2.64000045E+02
 21
7.87319995E+01
  0
LINE
  8
0
 62
7
 10
2.63999981E+02
 20
1.22267908E+02
 11
2.60999985E+02
 21
1.20535860E+02
  0
LINE
  8
0
 62
7
 10
2.60999989E+02
 20
1.20535870E+02
 11
2.57999993E+02
 21
1.22267918E+02
  0
LINE
  8
0
 62
7
 10
2.57999985E+02
 20
1.25732025E+02
 11
2.57999985E+02
 21
1.22267914E+02
  0
LINE
  8
0
 62
7
 10
2.60999981E+02
 20
1.27464060E+02
 11
2.57999985E+02
 21
1.25732012E+02
  0
LINE
  8
0
 62
7
 10
2.64000046E+02
 20
7.87319946E+01
 11
2.64000046E+02
 21
7.52678986E+01
  0
LINE
  8
0
 62
7
 10
2.61000045E+02
 20
7.35358472E+01
 11
2.58000043E+02
 21
7.52678990E+01
  0
LINE
  8
0
 62
7
 10
2.64000039E+02
 20
7.52678991E+01
 11
2.61000044E+02
 21
7.35358511E+01
  0
LINE
  8
0
 62
7
 10
2.17000046E+02
 20
7.87319946E+01
 11
2.17000046E+02
 21
7.52678986E+01
  0
LINE
  8
0
 62
7
 10
2.14000044E+02
 20
8.04640516E+01
 11
2.17000046E+02
 21
7.87319997E+01
  0
LINE
  8
0
 62
7
 10
2.58000046E+02
 20
7.87319946E+01
 11
2.58000046E+02
 21
7.52678986E+01
  0
LINE
  8
0
 62
7
 10
2.17000047E+02
 20
7.52679021E+01
 11
2.14000045E+02
 21
7.35358503E+01
  0
LINE
  8
0
 62
7
 10
2.61000039E+02
 20
8.04640517E+01
 11
2.58000044E+02
 21
7.87320036E+01
  0
LINE
  8
0
 62
7
 10
2.14000047E+02
 20
8.04640544E+01
 11
2.11000045E+02
 21
7.87320026E+01
  0
LINE
  8
0
 62
7
 10
2.11000046E+02
 20
7.87319946E+01
 11
2.11000046E+02
 21
7.52678986E+01
  0
LINE
  8
0
 62
7
 10
2.14000046E+02
 20
7.35358474E+01
 11
2.11000044E+02
 21
7.52678992E+01
  0
LINE
  8
0
  6
CENTER
 62
2
 10
2.44500107E+02
 20
1.33685059E+02
 11
2.44500107E+02
 21
1.21799789E+02
  0
LINE
  8
0
 62
7
 10
2.28433640E+02
 20
1.44499969E+02
 11
2.46433640E+02
 21
1.44499969E+02
  0
LINE
  8
0
 62
7
 10
2.27777857E+02
 20
1.43843947E+02
 11
2.28433758E+02
 21
1.44499847E+02
  0
LINE
  8
0
 62
7
 10
2.46433583E+02
 20
1.44500084E+02
 11
2.47061379E+02
 21
1.43872288E+02
  0
LINE
  8
0
 62
7
 10
2.76433487E+02
 20
9.25000000E+01
 11
2.76433487E+02
 21
1.08500000E+02
  0
LINE
  8
0
 62
7
 10
2.74933548E+02
 20
1.08500000E+02
 11
2.76433548E+02
 21
1.08500000E+02
  0
LINE
  8
0
 62
7
 10
2.74933548E+02
 20
9.25000000E+01
 11
2.76433548E+02
 21
9.25000000E+01
  0
LINE
  8
0
 62
7
 10
2.76433548E+02
 20
1.06500000E+02
 11
2.82933548E+02
 21
1.06500000E+02
  0
LINE
  8
0
 62
7
 10
2.76433548E+02
 20
1.00500000E+02
 11
2.82240738E+02
 21
1.00500000E+02
  0
LINE
  8
0
 62
7
 10
2.76433548E+02
 20
9.44999847E+01
 11
2.82933548E+02
 21
9.44999847E+01
  0
LINE
  8
0
 62
7
 10
2.82933548E+02
 20
9.45000000E+01
 11
2.82933548E+02
 21
1.06500000E+02
  0
LINE
  8
0
 62
7
 10
2.85933578E+02
 20
9.72000122E+01
 11
2.85933578E+02
 21
1.03799988E+02
  0
LINE
  8
0
 62
7
 10
2.82933548E+02
 20
9.64999695E+01
 11
2.85233536E+02
 21
9.64999695E+01
  0
LINE
  8
0
 62
7
 10
2.82933548E+02
 20
1.04499969E+02
 11
2.85233536E+02
 21
1.04499969E+02
  0
LINE
  8
0
 62
2
 10
2.82933548E+02
 20
9.71999664E+01
 11
2.85933517E+02
 21
9.71999664E+01
  0
LINE
  8
0
 62
2
 10
2.82933548E+02
 20
1.03799988E+02
 11
2.85933517E+02
 21
1.03799988E+02
  0
LINE
  8
0
 62
7
 10
2.85233536E+02
 20
9.65000153E+01
 11
2.85233536E+02
 21
1.04499969E+02
  0
LINE
  8
0
 62
7
 10
2.85233453E+02
 20
9.64998803E+01
 11
2.85933503E+02
 21
9.71999306E+01
  0
LINE
  8
0
 62
7
 10
2.85933471E+02
 20
1.03799957E+02
 11
2.85233486E+02
 21
1.04499943E+02
  0
LINE
  8
0
 62
7
 10
2.74933548E+02
 20
1.34000000E+02
 11
2.74933548E+02
 21
6.70000000E+01
  0
LINE
  8
0
 62
7
 10
1.98433487E+02
 20
9.25000000E+01
 11
1.98433487E+02
 21
1.08500000E+02
  0
LINE
  8
0
 62
7
 10
1.99933548E+02
 20
1.08500000E+02
 11
1.98433517E+02
 21
1.08500000E+02
  0
LINE
  8
0
 62
7
 10
1.99933548E+02
 20
9.25000000E+01
 11
1.98433517E+02
 21
9.25000000E+01
  0
LINE
  8
0
 62
7
 10
1.88933517E+02
 20
9.72000122E+01
 11
1.88933517E+02
 21
1.03799988E+02
  0
LINE
  8
0
 62
7
 10
1.91933487E+02
 20
9.45000000E+01
 11
1.91933487E+02
 21
1.06500000E+02
  0
LINE
  8
0
 62
7
 10
1.91933487E+02
 20
9.64999695E+01
 11
1.89633560E+02
 21
9.64999695E+01
  0
LINE
  8
0
 62
7
 10
1.91933487E+02
 20
1.04499969E+02
 11
1.89633560E+02
 21
1.04499969E+02
  0
LINE
  8
0
 62
2
 10
1.91933487E+02
 20
9.71999664E+01
 11
1.88933548E+02
 21
9.71999664E+01
  0
LINE
  8
0
 62
2
 10
1.91933487E+02
 20
1.03799988E+02
 11
1.88933548E+02
 21
1.03799988E+02
  0
LINE
  8
0
 62
7
 10
1.89633530E+02
 20
9.65000153E+01
 11
1.89633530E+02
 21
1.04499969E+02
  0
LINE
  8
0
 62
7
 10
1.89633339E+02
 20
9.64998858E+01
 11
1.88933332E+02
 21
9.71998930E+01
  0
LINE
  8
0
 62
7
 10
1.88933385E+02
 20
1.03799941E+02
 11
1.89633403E+02
 21
1.04499959E+02
  0
LINE
  8
0
 62
7
 10
1.98433517E+02
 20
9.44999847E+01
 11
1.91933487E+02
 21
9.44999847E+01
  0
LINE
  8
0
 62
7
 10
1.98433517E+02
 20
1.00500000E+02
 11
1.92626328E+02
 21
1.00500000E+02
  0
LINE
  8
0
 62
7
 10
1.98433517E+02
 20
1.06500000E+02
 11
1.91933487E+02
 21
1.06500000E+02
  0
LINE
  8
0
 62
7
 10
1.99933578E+02
 20
1.34000000E+02
 11
1.99933578E+02
 21
6.70000000E+01
  0
LINE
  8
0
 62
7
 10
2.70933517E+02
 20
6.30000000E+01
 11
2.03933548E+02
 21
6.30000000E+01
  0
LINE
  8
0
 62
7
 10
2.70933517E+02
 20
1.38000000E+02
 11
2.64430672E+02
 21
1.38000000E+02
  0
LINE
  8
0
 62
7
 10
2.28788516E+02
 20
1.43499969E+02
 11
2.46211453E+02
 21
1.43499969E+02
  0
ARC
  8
0
 62
7
 10
2.52985458E+02
 20
8.78429565E+01
 40
1.00000000E+00
 50
1.40739039E+02
 51
2.25000037E+02
  0
ARC
  8
0
 62
7
 10
2.50157028E+02
 20
8.50145264E+01
 40
1.00000000E+00
 50
4.50000149E+01
 51
1.29261016E+02
  0
ARC
  8
0
 62
7
 10
2.22014511E+02
 20
1.13157043E+02
 40
1.00000000E+00
 50
3.20739045E+02
 51
4.50000423E+01
  0
ARC
  8
0
 62
7
 10
2.24842941E+02
 20
1.15985474E+02
 40
1.00000000E+00
 50
2.25000000E+02
 51
3.09261001E+02
  0
ARC
  8
0
 62
7
 10
2.17600266E+02
 20
1.02499985E+02
 40
1.00000000E+00
 50
2.70000038E+02
 51
3.54260543E+02
  0
ARC
  8
0
 62
7
 10
2.10500046E+02
 20
1.02500000E+02
 40
1.00000000E+00
 50
1.79999991E+02
 51
2.70000028E+02
  0
ARC
  8
0
 62
7
 10
2.10000046E+02
 20
1.27999969E+02
 40
3.00000000E+00
 50
9.00000162E+01
 51
1.80000005E+02
  0
ARC
  8
0
 62
7
 10
2.35499985E+02
 20
1.27499969E+02
 40
1.00000000E+00
 50
3.59721781E-05
 51
9.00000162E+01
  0
ARC
  8
0
 62
7
 10
2.35499985E+02
 20
1.20399719E+02
 40
1.00000000E+00
 50
2.75739515E+02
 51
3.59721781E-05
  0
CIRCLE
  8
0
 62
7
 10
2.13999985E+02
 20
1.23999969E+02
 40
5.00000000E+00
  0
ARC
  8
0
 62
7
 10
2.18062973E+02
 20
1.17108551E+02
 40
1.00000000E+00
 50
4.50006569E+01
 51
1.20522253E+02
  0
ARC
  8
0
 62
7
 10
2.20891403E+02
 20
1.19936951E+02
 40
1.00000000E+00
 50
1.49477556E+02
 51
2.24999381E+02
  0
ARC
  8
0
 62
7
 10
2.64999985E+02
 20
7.30000305E+01
 40
3.00000000E+00
 50
2.70000011E+02
 51
3.59999964E+02
  0
ARC
  8
0
 62
7
 10
2.39499985E+02
 20
7.35000305E+01
 40
1.00000000E+00
 50
1.80000022E+02
 51
2.70000011E+02
  0
ARC
  8
0
 62
7
 10
2.39499985E+02
 20
8.06002808E+01
 40
1.00000000E+00
 50
9.57394995E+01
 51
1.80000032E+02
  0
CIRCLE
  8
0
 62
7
 10
2.61000046E+02
 20
7.70000305E+01
 40
5.00000000E+00
  0
ARC
  8
0
 62
7
 10
2.56936996E+02
 20
8.38914490E+01
 40
1.00000000E+00
 50
2.25000642E+02
 51
3.00522242E+02
  0
ARC
  8
0
 62
7
 10
2.54108566E+02
 20
8.10630493E+01
 40
1.00000000E+00
 50
3.29477575E+02
 51
4.49993865E+01
  0
ARC
  8
0
 62
7
 10
2.10000046E+02
 20
1.28000000E+02
 40
3.50000000E+00
 50
9.00000162E+01
 51
1.80000005E+02
  0
CIRCLE
  8
0
 62
7
 10
2.13999985E+02
 20
1.23999969E+02
 40
4.50000000E+00
  0
ARC
  8
0
 62
7
 10
2.64999985E+02
 20
7.30000000E+01
 40
3.50000000E+00
 50
2.70000011E+02
 51
3.59999964E+02
  0
CIRCLE
  8
0
 62
7
 10
2.61000046E+02
 20
7.70000305E+01
 40
4.50000000E+00
  0
ARC
  8
0
 62
7
 10
2.10500046E+02
 20
1.11031357E+02
 40
1.00000000E+00
 50
9.71808057E+01
 51
1.80000005E+02
  0
ARC
  8
0
 62
7
 10
2.10000046E+02
 20
1.14999985E+02
 40
3.00000000E+00
 50
2.77180780E+02
 51
1.86693353E-05
  0
ARC
  8
0
 62
7
 10
2.13968674E+02
 20
1.16000076E+02
 40
1.00000000E+00
 50
8.97744765E+01
 51
1.72821039E+02
  0
ARC
  8
0
 62
7
 10
2.14000046E+02
 20
1.24000015E+02
 40
7.00000000E+00
 50
2.69775448E+02
 51
2.24721868E-01
  0
ARC
  8
0
 62
7
 10
2.21999985E+02
 20
1.24031387E+02
 40
1.00000000E+00
 50
9.71808057E+01
 51
1.80224691E+02
  0
ARC
  8
0
 62
7
 10
2.22999985E+02
 20
1.28000015E+02
 40
3.00000000E+00
 50
2.69999984E+02
 51
3.52818976E+02
  0
ARC
  8
0
 62
7
 10
2.26968613E+02
 20
1.27499985E+02
 40
1.00000000E+00
 50
9.00000162E+01
 51
1.72818444E+02
  0
ARC
  8
0
 62
7
 10
2.64499985E+02
 20
8.99686432E+01
 40
1.00000000E+00
 50
2.77180773E+02
 51
3.59999964E+02
  0
ARC
  8
0
 62
7
 10
2.64999985E+02
 20
8.60000153E+01
 40
3.00000000E+00
 50
9.71807582E+01
 51
1.80000005E+02
  0
ARC
  8
0
 62
7
 10
2.61031357E+02
 20
8.49999237E+01
 40
1.00000000E+00
 50
2.69774444E+02
 51
3.52820998E+02
  0
ARC
  8
0
 62
7
 10
2.60999985E+02
 20
7.69999847E+01
 40
7.00000000E+00
 50
8.97754191E+01
 51
1.80224691E+02
  0
ARC
  8
0
 62
7
 10
2.53000046E+02
 20
7.69686127E+01
 40
1.00000000E+00
 50
2.77180794E+02
 51
2.24667227E-01
  0
ARC
  8
0
 62
7
 10
2.51999985E+02
 20
7.29999847E+01
 40
3.00000000E+00
 50
9.00000162E+01
 51
1.72818963E+02
  0
ARC
  8
0
 62
7
 10
2.48031357E+02
 20
7.35000153E+01
 40
1.00000000E+00
 50
2.69999984E+02
 51
3.52818403E+02
  0
ARC
  8
0
 62
7
 10
2.52985458E+02
 20
1.13157028E+02
 40
1.00000000E+00
 50
1.35000014E+02
 51
2.19261011E+02
  0
ARC
  8
0
 62
7
 10
2.50157028E+02
 20
1.15985458E+02
 40
1.00000000E+00
 50
2.30739011E+02
 51
3.15000026E+02
  0
ARC
  8
0
 62
7
 10
2.57399765E+02
 20
1.02500000E+02
 40
1.00000000E+00
 50
1.85739485E+02
 51
2.70000038E+02
  0
ARC
  8
0
 62
7
 10
2.57399765E+02
 20
9.85000000E+01
 40
1.00000000E+00
 50
9.00000437E+01
 51
1.74260556E+02
  0
CIRCLE
  8
0
 62
7
 10
2.60999985E+02
 20
1.24000015E+02
 40
5.00000000E+00
  0
ARC
  8
0
 62
7
 10
2.54108566E+02
 20
1.19936996E+02
 40
1.00000000E+00
 50
3.15000662E+02
 51
3.05222541E+01
  0
ARC
  8
0
 62
7
 10
2.39499985E+02
 20
1.27499969E+02
 40
1.00000000E+00
 50
9.00000025E+01
 51
1.80000046E+02
  0
ARC
  8
0
 62
7
 10
2.39499985E+02
 20
1.20399719E+02
 40
1.00000000E+00
 50
1.80000036E+02
 51
2.64260384E+02
  0
ARC
  8
0
 62
7
 10
2.64499985E+02
 20
1.02500000E+02
 40
1.00000000E+00
 50
2.70000052E+02
 51
3.59721781E-05
  0
ARC
  8
0
 62
7
 10
2.60999985E+02
 20
1.24000015E+02
 40
7.00000000E+00
 50
1.79775319E+02
 51
2.70224577E+02
  0
ARC
  8
0
 62
7
 10
2.56936935E+02
 20
1.17108566E+02
 40
1.00000000E+00
 50
5.94775673E+01
 51
1.34999386E+02
  0
ARC
  8
0
 62
7
 10
2.64999985E+02
 20
1.27999954E+02
 40
3.00000000E+00
 50
2.23117997E-05
 51
8.99999750E+01
  0
ARC
  8
0
 62
7
 10
2.64499985E+02
 20
9.85000000E+01
 40
1.00000000E+00
 50
8.65142224E-06
 51
9.00000437E+01
  0
ARC
  8
0
 62
7
 10
2.64999985E+02
 20
1.27999954E+02
 40
3.50000000E+00
 50
2.23117997E-05
 51
8.99999750E+01
  0
CIRCLE
  8
0
 62
7
 10
2.60999985E+02
 20
1.24000015E+02
 40
4.50000000E+00
  0
ARC
  8
0
 62
7
 10
2.64999985E+02
 20
1.14999985E+02
 40
3.00000000E+00
 50
1.79999991E+02
 51
2.62819259E+02
  0
ARC
  8
0
 62
7
 10
2.51999985E+02
 20
1.28000015E+02
 40
3.00000000E+00
 50
1.87181037E+02
 51
2.69999984E+02
  0
ARC
  8
0
 62
7
 10
2.48031357E+02
 20
1.27499985E+02
 40
1.00000000E+00
 50
7.18159727E+00
 51
9.00000162E+01
  0
ARC
  8
0
 62
7
 10
2.53000046E+02
 20
1.24031387E+02
 40
1.00000000E+00
 50
3.59775350E+02
 51
8.28192267E+01
  0
ARC
  8
0
 62
7
 10
2.61031357E+02
 20
1.16000076E+02
 40
1.00000000E+00
 50
7.17900183E+00
 51
9.02255559E+01
  0
ARC
  8
0
 62
7
 10
2.64499985E+02
 20
1.11031357E+02
 40
1.00000000E+00
 50
3.59721781E-05
 51
8.28192267E+01
  0
ARC
  8
0
 62
7
 10
2.35499985E+02
 20
8.06002502E+01
 40
1.00000000E+00
 50
4.96325564E-05
 51
8.42605536E+01
  0
ARC
  8
0
 62
7
 10
2.24842941E+02
 20
8.50145416E+01
 40
1.00000000E+00
 50
5.07390404E+01
 51
1.35000041E+02
  0
ARC
  8
0
 62
7
 10
2.22014511E+02
 20
8.78429718E+01
 40
1.00000000E+00
 50
3.15000019E+02
 51
3.92610168E+01
  0
ARC
  8
0
 62
7
 10
2.17600266E+02
 20
9.85000000E+01
 40
1.00000000E+00
 50
5.73949849E+00
 51
9.00000300E+01
  0
ARC
  8
0
 62
7
 10
2.35499985E+02
 20
7.35000305E+01
 40
1.00000000E+00
 50
2.69999998E+02
 51
4.96325564E-05
  0
ARC
  8
0
 62
7
 10
2.10000046E+02
 20
7.30000305E+01
 40
3.00000000E+00
 50
1.80000008E+02
 51
2.69999984E+02
  0
ARC
  8
0
 62
7
 10
2.10500046E+02
 20
9.85000000E+01
 40
1.00000000E+00
 50
9.00000300E+01
 51
1.80000019E+02
  0
CIRCLE
  8
0
 62
7
 10
2.14000046E+02
 20
7.69999695E+01
 40
5.00000000E+00
  0
ARC
  8
0
 62
7
 10
2.20891464E+02
 20
8.10629883E+01
 40
1.00000000E+00
 50
1.35000656E+02
 51
2.10522249E+02
  0
ARC
  8
0
 62
7
 10
2.18063034E+02
 20
8.38914185E+01
 40
1.00000000E+00
 50
2.39477556E+02
 51
3.14999370E+02
  0
ARC
  8
0
 62
7
 10
2.09999985E+02
 20
7.30000305E+01
 40
3.50000000E+00
 50
1.80000008E+02
 51
2.69999984E+02
  0
CIRCLE
  8
0
 62
7
 10
2.14000046E+02
 20
7.69999695E+01
 40
4.50000000E+00
  0
ARC
  8
0
 62
7
 10
2.26968613E+02
 20
7.35000153E+01
 40
1.00000000E+00
 50
1.87181557E+02
 51
2.69999984E+02
  0
ARC
  8
0
 62
7
 10
2.22999985E+02
 20
7.29999847E+01
 40
3.00000000E+00
 50
7.18102357E+00
 51
9.00000162E+01
  0
ARC
  8
0
 62
7
 10
2.21999985E+02
 20
7.69686127E+01
 40
1.00000000E+00
 50
1.79775319E+02
 51
2.62819204E+02
  0
ARC
  8
0
 62
7
 10
2.14000046E+02
 20
7.69999847E+01
 40
7.00000000E+00
 50
3.59775295E+02
 51
9.02245653E+01
  0
ARC
  8
0
 62
7
 10
2.13968674E+02
 20
8.49999237E+01
 40
1.00000000E+00
 50
1.87178961E+02
 51
2.70225524E+02
  0
ARC
  8
0
 62
7
 10
2.10000046E+02
 20
8.60000153E+01
 40
3.00000000E+00
 50
3.59721781E-05
 51
8.28192198E+01
  0
ARC
  8
0
 62
7
 10
2.10500046E+02
 20
8.99686432E+01
 40
1.00000000E+00
 50
1.79999991E+02
 51
2.62819204E+02
  0
CIRCLE
  8
0
 62
7
 10
2.37499985E+02
 20
1.00500000E+02
 40
1.90000000E+01
  0
CIRCLE
  8
0
 62
2
 10
2.60999985E+02
 20
1.23999969E+02
 40
3.00000000E+00
  0
CIRCLE
  8
0
 62
2
 10
2.61000046E+02
 20
7.69999542E+01
 40
3.00000000E+00
  0
CIRCLE
  8
0
 62
2
 10
2.14000046E+02
 20
7.69999542E+01
 40
3.00000000E+00
  0
CIRCLE
  8
0
 62
2
 10
2.13999985E+02
 20
1.23999969E+02
 40
3.00000000E+00
  0
ARC
  8
0
 62
7
 10
2.03933548E+02
 20
1.34000000E+02
 40
4.00000000E+00
 50
8.99999818E+01
 51
1.79999964E+02
  0
ARC
  8
0
 62
7
 10
2.76092667E+02
 20
9.75000000E+01
 40
6.84088755E+00
 50
3.33989274E+02
 51
2.60106444E+01
  0
ARC
  8
0
 62
7
 10
2.76092667E+02
 20
1.03500000E+02
 40
6.84084654E+00
 50
3.33989137E+02
 51
2.60107947E+01
  0
ARC
  8
0
 62
7
 10
1.98774399E+02
 20
9.75000000E+01
 40
6.84088755E+00
 50
1.53989320E+02
 51
2.06010690E+02
  0
ARC
  8
0
 62
7
 10
1.98774368E+02
 20
1.03500000E+02
 40
6.84084654E+00
 50
1.53989169E+02
 51
2.06010827E+02
  0
ARC
  8
0
 62
7
 10
2.03933548E+02
 20
6.69999847E+01
 40
4.00000000E+00
 50
1.79999964E+02
 51
2.69999946E+02
  0
ARC
  8
0
 62
7
 10
2.70933517E+02
 20
6.69999847E+01
 40
4.00000000E+00
 50
2.69999963E+02
 51
0.00000000E+00
  0
ARC
  8
0
 62
7
 10
2.70933517E+02
 20
1.34000000E+02
 40
4.00000000E+00
 50
0.00000000E+00
 51
8.99999818E+01
  0
LINE
  8
0
 62
6
 10
2.03986852E+02
 20
1.17817278E+02
 11
2.06499985E+02
 21
1.18260411E+02
  0
LINE
  8
0
 62
6
 10
2.03465907E+02
 20
1.20771701E+02
 11
2.06503669E+02
 21
1.21307341E+02
  0
LINE
  8
0
 62
4
 10
2.04073676E+02
 20
1.17324874E+02
 11
2.03379083E+02
 21
1.21264105E+02
  0
LINE
  8
0
 62
4
 10
2.04073676E+02
 20
1.17324874E+02
 11
2.06499985E+02
 21
1.17752698E+02
  0
LINE
  8
0
 62
4
 10
2.03379083E+02
 20
1.21264105E+02
 11
2.06416845E+02
 21
1.21799745E+02
  0
LINE
  8
0
 62
4
 10
2.05847701E+02
 20
1.25027519E+02
 11
2.06499985E+02
 21
1.21328235E+02
  0
LINE
  8
0
 62
4
 10
2.18555698E+02
 20
1.42217831E+02
 11
2.11662044E+02
 21
1.41002294E+02
  0
LINE
  8
0
 62
4
 10
2.11662044E+02
 20
1.41002294E+02
 11
2.07966380E+02
 21
1.30848542E+02
  0
LINE
  8
0
 62
4
 10
2.20031707E+02
 20
1.33846965E+02
 11
2.19539303E+02
 21
1.33760141E+02
  0
LINE
  8
0
 62
4
 10
2.19133724E+02
 20
1.33180913E+02
 11
2.19430114E+02
 21
1.31500000E+02
  0
ARC
  8
0
 62
4
 10
2.19626128E+02
 20
1.33267737E+02
 40
5.00000000E-01
 50
9.99999999E+01
 51
1.90000000E+02
  0
LINE
  8
0
  6
CENTER
 62
6
 10
2.18406444E+02
 20
1.34068101E+02
 11
2.31256950E+02
 21
1.36333991E+02
  0
LINE
  8
0
  6
CENTER
 62
6
 10
2.08564808E+02
 20
1.35886748E+02
 11
2.30649181E+02
 21
1.39780819E+02
  0
LINE
  8
0
 62
4
 10
2.27324752E+02
 20
1.32797445E+02
 11
2.27649216E+02
 21
1.33260827E+02
  0
LINE
  8
0
 62
4
 10
2.27649216E+02
 20
1.33260827E+02
 11
2.30505159E+02
 21
1.33764407E+02
  0
LINE
  8
0
 62
4
 10
2.26832349E+02
 20
1.32710620E+02
 11
2.27045814E+02
 21
1.31500000E+02
  0
LINE
  8
0
 62
4
 10
2.26832349E+02
 20
1.32710620E+02
 11
2.27324752E+02
 21
1.32797445E+02
  0
LINE
  8
0
 62
4
 10
2.18555698E+02
 20
1.42217831E+02
 11
2.20031707E+02
 21
1.33846965E+02
  0
LINE
  8
0
 62
4
 10
2.28699218E+02
 20
1.44006407E+02
 11
2.18555698E+02
 21
1.42217831E+02
  0
LINE
  8
0
 62
4
 10
2.19637784E+02
 20
1.33777506E+02
 11
2.20039370E+02
 21
1.31500000E+02
  0
LINE
  8
0
 62
4
 10
2.30083236E+02
 20
1.32298876E+02
 11
2.30224099E+02
 21
1.31500000E+02
  0
LINE
  8
0
 62
4
 10
2.30788944E+02
 20
1.33306732E+02
 11
2.30083236E+02
 21
1.32298876E+02
  0
LINE
  8
0
 62
4
 10
2.26849713E+02
 20
1.32612140E+02
 11
2.27852646E+02
 21
1.31905563E+02
  0
LINE
  8
0
 62
4
 10
2.27852646E+02
 20
1.31905563E+02
 11
2.30083236E+02
 21
1.32298876E+02
  0
LINE
  8
0
 62
4
 10
2.26849713E+02
 20
1.32612140E+02
 11
2.30788944E+02
 21
1.33306732E+02
  0
LINE
  8
0
 62
4
 10
2.30788944E+02
 20
1.33306732E+02
 11
2.31107520E+02
 21
1.31500000E+02
  0
LINE
  8
0
  6
CENTER
 62
6
 10
2.28645681E+02
 20
1.33944244E+02
 11
2.29076667E+02
 21
1.31500000E+02
  0
LINE
  8
0
  6
CENTER
 62
6
 10
2.26212202E+02
 20
1.30468876E+02
 11
2.32121048E+02
 21
1.31510765E+02
  0
LINE
  8
0
 62
4
 10
2.28820771E+02
 20
1.43317042E+02
 11
2.29805579E+02
 21
1.43490690E+02
  0
ARC
  8
0
 62
4
 10
2.31995821E+02
 20
1.37581243E+02
 40
1.00000000E+00
 50
3.28723662E+02
 51
3.57172490E+02
  0
ARC
  8
0
 62
4
 10
2.31162309E+02
 20
1.42308321E+02
 40
1.00000000E+00
 50
2.28275100E+01
 51
9.99999999E+01
  0
ARC
  8
0
 62
4
 10
2.21198981E+02
 20
1.38114493E+02
 40
1.18100000E+01
 50
3.57172490E+02
 51
2.28275100E+01
  0
LINE
  8
0
 62
4
 10
2.29875038E+02
 20
1.43096767E+02
 11
2.30987871E+02
 21
1.43292989E+02
  0
LINE
  8
0
 62
4
 10
2.30352571E+02
 20
1.40388546E+02
 11
2.29805579E+02
 21
1.43490690E+02
  0
LINE
  8
0
 62
4
 10
2.31183270E+02
 20
1.32106979E+02
 11
2.29741990E+02
 21
1.40280884E+02
  0
LINE
  8
0
 62
4
 10
2.29393810E+02
 20
1.40067176E+02
 11
2.29768037E+02
 21
1.40133163E+02
  0
LINE
  8
0
 62
4
 10
2.30979957E+02
 20
1.32223444E+02
 11
2.31157223E+02
 21
1.32254701E+02
  0
LINE
  8
0
 62
4
 10
2.29741990E+02
 20
1.40280884E+02
 11
2.31475252E+02
 21
1.40586504E+02
  0
LINE
  8
0
 62
4
 10
2.31183270E+02
 20
1.32106979E+02
 11
2.32916532E+02
 21
1.32412600E+02
  0
ARC
  8
0
 62
4
 10
2.21302834E+02
 20
1.34586670E+02
 40
1.18100000E+01
 50
9.99999999E+00
 51
3.05326991E+01
  0
ARC
  8
0
 62
4
 10
2.21305521E+02
 20
1.34571429E+02
 40
1.18100000E+01
 50
3.49467301E+02
 51
9.99999999E+00
  0
LINE
  8
0
 62
4
 10
2.30591983E+02
 20
1.33272003E+02
 11
2.28699218E+02
 21
1.44006407E+02
  0
LINE
  8
0
 62
4
 10
2.70926294E+02
 20
1.17324874E+02
 11
2.71620886E+02
 21
1.21264105E+02
  0
LINE
  8
0
 62
6
 10
2.71013118E+02
 20
1.17817278E+02
 11
2.68499924E+02
 21
1.18260422E+02
  0
LINE
  8
0
 62
6
 10
2.71534062E+02
 20
1.20771701E+02
 11
2.68496301E+02
 21
1.21307341E+02
  0
LINE
  8
0
 62
4
 10
2.70926294E+02
 20
1.17324874E+02
 11
2.68499924E+02
 21
1.17752709E+02
  0
LINE
  8
0
 62
4
 10
2.71620886E+02
 20
1.21264105E+02
 11
2.68583125E+02
 21
1.21799745E+02
  0
LINE
  8
0
  6
CENTER
 62
6
 10
2.48787768E+02
 20
1.30468876E+02
 11
2.42939973E+02
 21
1.31500000E+02
  0
LINE
  8
0
  6
CENTER
 62
6
 10
2.46354289E+02
 20
1.33944244E+02
 11
2.45923303E+02
 21
1.31500000E+02
  0
LINE
  8
0
 62
4
 10
2.44211025E+02
 20
1.33306732E+02
 11
2.43892449E+02
 21
1.31500000E+02
  0
LINE
  8
0
 62
4
 10
2.48150256E+02
 20
1.32612140E+02
 11
2.44211025E+02
 21
1.33306732E+02
  0
LINE
  8
0
 62
4
 10
2.55362185E+02
 20
1.33777506E+02
 11
2.54960600E+02
 21
1.31500000E+02
  0
LINE
  8
0
 62
4
 10
2.46300752E+02
 20
1.44006407E+02
 11
2.56444272E+02
 21
1.42217831E+02
  0
LINE
  8
0
 62
4
 10
2.56444272E+02
 20
1.42217831E+02
 11
2.54968262E+02
 21
1.33846965E+02
  0
LINE
  8
0
 62
4
 10
2.48167621E+02
 20
1.32710620E+02
 11
2.47675217E+02
 21
1.32797445E+02
  0
LINE
  8
0
 62
4
 10
2.48167621E+02
 20
1.32710620E+02
 11
2.47954156E+02
 21
1.31500000E+02
  0
LINE
  8
0
 62
4
 10
2.47350753E+02
 20
1.33260827E+02
 11
2.44494811E+02
 21
1.33764407E+02
  0
LINE
  8
0
 62
4
 10
2.47675217E+02
 20
1.32797445E+02
 11
2.47350753E+02
 21
1.33260827E+02
  0
LINE
  8
0
  6
CENTER
 62
6
 10
2.66435161E+02
 20
1.35886748E+02
 11
2.44350789E+02
 21
1.39780819E+02
  0
LINE
  8
0
  6
CENTER
 62
6
 10
2.56593525E+02
 20
1.34068101E+02
 11
2.43743020E+02
 21
1.36333991E+02
  0
LINE
  8
0
  6
CENTER
 62
6
 10
2.62567933E+02
 20
1.20829532E+02
 11
2.70033937E+02
 21
1.19513074E+02
  0
ARC
  8
0
 62
4
 10
2.55373842E+02
 20
1.33267737E+02
 40
5.00000000E-01
 50
3.50000000E+02
 51
7.99999999E+01
  0
LINE
  8
0
 62
4
 10
2.55866246E+02
 20
1.33180913E+02
 11
2.55569856E+02
 21
1.31500000E+02
  0
LINE
  8
0
 62
4
 10
2.54968262E+02
 20
1.33846965E+02
 11
2.55460666E+02
 21
1.33760141E+02
  0
LINE
  8
0
 62
4
 10
2.63337926E+02
 20
1.41002294E+02
 11
2.67033588E+02
 21
1.30848545E+02
  0
LINE
  8
0
 62
4
 10
2.56444272E+02
 20
1.42217831E+02
 11
2.63337926E+02
 21
1.41002294E+02
  0
LINE
  8
0
 62
4
 10
2.69152268E+02
 20
1.25027519E+02
 11
2.68499924E+02
 21
1.21327889E+02
  0
ARC
  8
0
 62
4
 10
2.45833344E+02
 20
1.30989821E+02
 40
1.50000000E+00
 50
1.98841649E+01
 51
1.60115835E+02
  0
ARC
  8
0
 62
4
 10
2.45963580E+02
 20
1.31728426E+02
 40
3.00000000E-01
 50
3.10410364E+02
 51
2.29589636E+02
  0
ARC
  8
0
 62
4
 10
2.45963580E+02
 20
1.31728426E+02
 40
5.00000000E-01
 50
3.32815800E+02
 51
2.07184200E+02
  0
LINE
  8
0
 62
4
 10
2.44859472E+02
 20
1.35832503E+02
 11
2.43874664E+02
 21
1.36006151E+02
  0
LINE
  8
0
 62
4
 10
2.46179198E+02
 20
1.43317042E+02
 11
2.45194390E+02
 21
1.43490690E+02
  0
ARC
  8
0
 62
4
 10
2.43004149E+02
 20
1.37581243E+02
 40
1.00000000E+00
 50
1.82827510E+02
 51
2.60000000E+02
  0
ARC
  8
0
 62
4
 10
2.43837660E+02
 20
1.42308321E+02
 40
1.00000000E+00
 50
7.99999999E+01
 51
1.57172490E+02
  0
ARC
  8
0
 62
4
 10
2.53800988E+02
 20
1.38114493E+02
 40
1.18100000E+01
 50
1.57172490E+02
 51
1.82827510E+02
  0
LINE
  8
0
 62
4
 10
2.43944123E+02
 20
1.36400074E+02
 11
2.42831291E+02
 21
1.36596297E+02
  0
LINE
  8
0
 62
4
 10
2.45124931E+02
 20
1.43096767E+02
 11
2.44012098E+02
 21
1.43292989E+02
  0
LINE
  8
0
 62
4
 10
2.43874664E+02
 20
1.36006151E+02
 11
2.45194390E+02
 21
1.43490690E+02
  0
LINE
  8
0
 62
4
 10
2.43816700E+02
 20
1.32106979E+02
 11
2.44485245E+02
 21
1.35898489E+02
  0
LINE
  8
0
 62
4
 10
2.44216974E+02
 20
1.32188714E+02
 11
2.43842747E+02
 21
1.32254701E+02
  0
LINE
  8
0
 62
4
 10
2.43816699E+02
 20
1.32106979E+02
 11
2.42083438E+02
 21
1.32412600E+02
  0
ARC
  8
0
 62
4
 10
2.53697136E+02
 20
1.34586670E+02
 40
1.18100000E+01
 50
1.67900933E+02
 51
1.70000000E+02
  0
ARC
  8
0
 62
4
 10
2.53694448E+02
 20
1.34571429E+02
 40
1.18100000E+01
 50
1.70000000E+02
 51
1.90532699E+02
  0
LINE
  8
0
 62
4
 10
2.44216974E+02
 20
1.32188714E+02
 11
2.46300752E+02
 21
1.44006407E+02
  0
LINE
  8
0
 62
4
 10
2.06499985E+02
 20
1.26819654E+02
 11
2.05847701E+02
 21
1.25027519E+02
  0
LINE
  8
0
 62
4
 10
2.68499924E+02
 20
1.26819821E+02
 11
2.69152268E+02
 21
1.25027519E+02
  0
LINE
  8
0
  6
CENTER
 62
6
 10
2.42939973E+02
 20
1.31500000E+02
 11
2.42878921E+02
 21
1.31510765E+02
  0
LINE
  8
0
  6
CENTER
 62
6
 10
2.45923303E+02
 20
1.31500000E+02
 11
2.45312400E+02
 21
1.28035397E+02
  0
LINE
  8
0
 62
4
 10
2.27924158E+02
 20
1.31500000E+02
 11
2.27852646E+02
 21
1.31905563E+02
  0
LINE
  8
0
  6
CENTER
 62
6
 10
2.29076667E+02
 20
1.31500000E+02
 11
2.29687570E+02
 21
1.28035397E+02
  0
LINE
  8
0
  6
CENTER
 62
6
 10
2.04966032E+02
 20
1.19513074E+02
 11
2.12432036E+02
 21
1.20829532E+02
  0
LINE
  8
0
 62
7
 10
2.10569298E+02
 20
1.38000000E+02
 11
2.03933548E+02
 21
1.38000000E+02
  0
LINE
  8
0
 62
7
 10
2.41991543E+02
 20
1.38000000E+02
 11
2.33008426E+02
 21
1.38000000E+02
  0
LINE
  8
0
  6
PHANTOM
 10
5.50000000E+00
 20
3.16114332E+02
 11
5.50000000E+00
 21
1.76565442E+02
  0
LINE
  8
0
 62
7
 10
-3.17500015E+02
 20
2.66999969E+02
 11
-3.17500015E+02
 21
2.34000031E+02
  0
LINE
  8
0
 62
7
 10
-3.17000015E+02
 20
2.67500000E+02
 11
-3.12491470E+02
 21
2.67500000E+02
  0
LINE
  8
0
 62
7
 10
-3.12500015E+02
 20
2.67500000E+02
 11
-3.12500015E+02
 21
2.67508545E+02
  0
LINE
  8
0
 62
7
 10
-3.17000015E+02
 20
2.33500000E+02
 11
-3.12491470E+02
 21
2.33500000E+02
  0
LINE
  8
0
 62
7
 10
-3.04000015E+02
 20
2.69500000E+02
 11
-3.02500015E+02
 21
2.69500000E+02
  0
LINE
  8
0
 62
7
 10
-3.12500015E+02
 20
2.33500000E+02
 11
-3.12500015E+02
 21
2.33491455E+02
  0
LINE
  8
0
 62
7
 10
-3.12258763E+02
 20
2.33241584E+02
 11
-3.04500065E+02
 21
2.32970645E+02
  0
LINE
  8
0
 62
7
 10
-3.04500015E+02
 20
2.69000000E+02
 11
-3.04500015E+02
 21
2.32000031E+02
  0
LINE
  8
0
 62
7
 10
-3.04000015E+02
 20
2.31500000E+02
 11
-3.02500015E+02
 21
2.31500000E+02
  0
LINE
  8
0
 62
7
 10
-3.12258746E+02
 20
2.67758577E+02
 11
-3.04500047E+02
 21
2.68029517E+02
  0
LINE
  8
0
 62
7
 10
-3.12500015E+02
 20
2.67500031E+02
 11
-3.12500015E+02
 21
2.33500031E+02
  0
LINE
  8
0
  6
CENTER
 62
2
 10
-5.65000153E+01
 20
2.31028839E+02
 11
-5.65000153E+01
 21
2.47617828E+02
  0
LINE
  8
0
  6
CENTER
 62
2
 10
-6.53452759E+01
 20
2.38499969E+02
 11
-4.78707581E+01
 21
2.38499969E+02
  0
LINE
  8
0
 62
7
 10
-8.05000120E+01
 20
2.80714592E+02
 11
-4.94999648E+01
 21
2.81526357E+02
  0
LINE
  8
0
 62
7
 10
-7.55000000E+01
 20
2.30499969E+02
 11
-7.55000000E+01
 21
2.70499969E+02
  0
LINE
  8
0
  6
CENTER
 62
2
 10
-6.25000458E+01
 20
2.46257874E+02
 11
-6.25000458E+01
 21
2.69844269E+02
  0
LINE
  8
0
  6
CENTER
 62
2
 10
-7.19101715E+01
 20
2.57499908E+02
 11
-5.25515442E+01
 21
2.57499908E+02
  0
LINE
  8
0
 62
7
 10
-4.95000000E+01
 20
2.81526276E+02
 11
-4.95000000E+01
 21
2.19500000E+02
  0
LINE
  8
0
 62
7
 10
-8.05000063E+01
 20
2.20285540E+02
 11
-4.94999973E+01
 21
2.19473776E+02
  0
LINE
  8
0
 62
7
 10
-7.35000000E+01
 20
2.72499969E+02
 11
-4.95000000E+01
 21
2.72499969E+02
  0
LINE
  8
0
 62
7
 10
-7.35000000E+01
 20
2.28499969E+02
 11
-4.95000000E+01
 21
2.28499969E+02
  0
LINE
  8
0
 62
7
 10
-6.93083954E+01
 20
2.60499908E+02
 11
-5.56916962E+01
 21
2.60499908E+02
  0
LINE
  8
0
 62
7
 10
5.65000000E+01
 20
2.77499969E+02
 11
-9.00000000E+00
 21
2.77499969E+02
  0
LINE
  8
0
  6
CENTER
 62
2
 10
8.97269974E+01
 20
2.73999969E+02
 11
-8.26034393E+01
 21
2.73999969E+02
  0
LINE
  8
0
 62
7
 10
5.65000000E+01
 20
2.71350006E+02
 11
-9.00000000E+00
 21
2.71350006E+02
  0
LINE
  8
0
 62
7
 10
5.65000000E+01
 20
2.76649994E+02
 11
-9.00000000E+00
 21
2.76649994E+02
  0
LINE
  8
0
 62
7
 10
8.94999924E+01
 20
2.31999939E+02
 11
8.94999924E+01
 21
2.68999908E+02
  0
LINE
  8
0
 62
7
 10
8.90000076E+01
 20
2.31499939E+02
 11
8.75000076E+01
 21
2.31499939E+02
  0
LINE
  8
0
 62
7
 10
8.90000076E+01
 20
2.69499939E+02
 11
8.75000076E+01
 21
2.69499939E+02
  0
LINE
  8
0
 62
7
 10
8.75000076E+01
 20
2.20285446E+02
 11
8.75000076E+01
 21
2.80714386E+02
  0
LINE
  8
0
  6
CENTER
 62
2
 10
6.35000153E+01
 20
2.31028839E+02
 11
6.35000153E+01
 21
2.47617828E+02
  0
LINE
  8
0
 62
7
 10
8.75000111E+01
 20
2.20285424E+02
 11
5.64999801E+01
 21
2.19473660E+02
  0
LINE
  8
0
 62
7
 10
8.25000076E+01
 20
2.70499969E+02
 11
8.25000076E+01
 21
2.30499969E+02
  0
LINE
  8
0
  6
CENTER
 62
2
 10
7.23452759E+01
 20
2.38499969E+02
 11
5.48707581E+01
 21
2.38499969E+02
  0
LINE
  8
0
  6
CENTER
 62
2
 10
6.95000458E+01
 20
2.46257874E+02
 11
6.95000458E+01
 21
2.69844269E+02
  0
LINE
  8
0
 62
7
 10
5.65000000E+01
 20
2.19473679E+02
 11
5.65000000E+01
 21
2.81499969E+02
  0
LINE
  8
0
 62
7
 10
8.75000096E+01
 20
2.80714433E+02
 11
5.64999996E+01
 21
2.81526197E+02
  0
LINE
  8
0
 62
7
 10
8.05000076E+01
 20
2.28499969E+02
 11
5.65000000E+01
 21
2.28499969E+02
  0
LINE
  8
0
 62
7
 10
8.05000076E+01
 20
2.72499969E+02
 11
5.65000000E+01
 21
2.72499969E+02
  0
LINE
  8
0
  6
CENTER
 62
2
 10
7.89101791E+01
 20
2.57499908E+02
 11
5.95515442E+01
 21
2.57499908E+02
  0
LINE
  8
0
 62
7
 10
-5.47679451E+01
 20
2.38499926E+02
 11
-5.56339690E+01
 21
2.36999919E+02
  0
LINE
  8
0
 62
7
 10
-5.56339874E+01
 20
2.36999939E+02
 11
-5.73659821E+01
 21
2.36999939E+02
  0
LINE
  8
0
 62
7
 10
-5.73659606E+01
 20
2.36999896E+02
 11
-5.82319998E+01
 21
2.38499929E+02
  0
LINE
  8
0
 62
7
 10
-5.82319657E+01
 20
2.38499935E+02
 11
-5.73659571E+01
 21
2.39999915E+02
  0
LINE
  8
0
 62
7
 10
-5.56339874E+01
 20
2.39999969E+02
 11
-5.73659821E+01
 21
2.39999969E+02
  0
LINE
  8
0
 62
7
 10
-5.47679263E+01
 20
2.38499969E+02
 11
-5.56339502E+01
 21
2.39999975E+02
  0
LINE
  8
0
  6
CENTER
 62
2
 10
8.97269974E+01
 20
2.27000015E+02
 11
-8.26034393E+01
 21
2.27000015E+02
  0
LINE
  8
0
 62
7
 10
5.65000000E+01
 20
2.29649994E+02
 11
3.50000000E+01
 21
2.29649994E+02
  0
LINE
  8
0
 62
7
 10
5.65000000E+01
 20
2.24350021E+02
 11
3.50000000E+01
 21
2.24350021E+02
  0
LINE
  8
0
 62
7
 10
-3.24500015E+02
 20
2.59000000E+02
 11
-3.24500015E+02
 21
2.42000000E+02
  0
LINE
  8
0
 62
7
 10
-3.19000046E+02
 20
2.40500031E+02
 11
-3.17500076E+02
 21
2.40500031E+02
  0
LINE
  8
0
 62
7
 10
-3.18999985E+02
 20
2.60500031E+02
 11
-3.17500015E+02
 21
2.60500031E+02
  0
LINE
  8
0
 62
7
 10
5.65000000E+01
 20
2.23500031E+02
 11
3.50000000E+01
 21
2.23500031E+02
  0
LINE
  8
0
 62
7
 10
-3.30499985E+02
 20
2.41500000E+02
 11
-3.30499985E+02
 21
2.59500000E+02
  0
LINE
  8
0
 62
7
 10
-3.59499985E+02
 20
2.43000031E+02
 11
-3.59499985E+02
 21
2.57999847E+02
  0
LINE
  8
0
 62
7
 10
-3.57999985E+02
 20
2.41500000E+02
 11
-3.57999985E+02
 21
2.59500000E+02
  0
LINE
  8
0
 62
7
 10
-3.57999924E+02
 20
2.59500000E+02
 11
-3.50499985E+02
 21
2.59500000E+02
  0
LINE
  8
0
 62
2
 10
-3.58819931E+02
 20
2.58679993E+02
 11
-3.50499985E+02
 21
2.58679993E+02
  0
LINE
  8
0
 62
7
 10
-3.59499958E+02
 20
2.57999854E+02
 11
-3.57999901E+02
 21
2.59499865E+02
  0
LINE
  8
0
 62
7
 10
-3.57999924E+02
 20
2.41500000E+02
 11
-3.50499985E+02
 21
2.41500000E+02
  0
LINE
  8
0
 62
2
 10
-3.58819931E+02
 20
2.42320007E+02
 11
-3.50499985E+02
 21
2.42320007E+02
  0
LINE
  8
0
 62
7
 10
-3.59500004E+02
 20
2.43000060E+02
 11
-3.57999969E+02
 21
2.41500071E+02
  0
LINE
  8
0
 62
7
 10
-3.30499985E+02
 20
2.42320007E+02
 11
-3.27499985E+02
 21
2.42320007E+02
  0
LINE
  8
0
 62
7
 10
-3.27499985E+02
 20
2.50499969E+02
 11
-3.27499985E+02
 21
2.59000000E+02
  0
LINE
  8
0
 62
7
 10
-3.27499985E+02
 20
2.50499969E+02
 11
-3.27499985E+02
 21
2.42000000E+02
  0
LINE
  8
0
 62
7
 10
7.63083954E+01
 20
2.60499908E+02
 11
6.26916962E+01
 21
2.60499908E+02
  0
LINE
  8
0
 62
7
 10
6.17679316E+01
 20
2.38499942E+02
 11
6.26339631E+01
 21
2.39999962E+02
  0
LINE
  8
0
 62
7
 10
6.26339874E+01
 20
2.39999969E+02
 11
6.43659821E+01
 21
2.39999969E+02
  0
LINE
  8
0
 62
7
 10
6.52319522E+01
 20
2.38499933E+02
 11
6.43659436E+01
 21
2.39999913E+02
  0
LINE
  8
0
 62
7
 10
6.43659756E+01
 20
2.36999917E+02
 11
6.52320148E+01
 21
2.38499950E+02
  0
LINE
  8
0
 62
7
 10
6.26339874E+01
 20
2.36999939E+02
 11
6.43659821E+01
 21
2.36999939E+02
  0
LINE
  8
0
 62
7
 10
6.17679448E+01
 20
2.38499932E+02
 11
6.26339763E+01
 21
2.36999912E+02
  0
LINE
  8
0
 62
7
 10
-3.27499985E+02
 20
2.42000000E+02
 11
-3.20500046E+02
 21
2.42000000E+02
  0
LINE
  8
0
 62
7
 10
-3.27499985E+02
 20
2.59000000E+02
 11
-3.20500046E+02
 21
2.59000000E+02
  0
LINE
  8
0
 62
7
 10
-3.20500060E+02
 20
2.42000019E+02
 11
-3.19000091E+02
 21
2.40500050E+02
  0
LINE
  8
0
 62
7
 10
-3.20500101E+02
 20
2.59000070E+02
 11
-3.19000067E+02
 21
2.60500104E+02
  0
LINE
  8
0
 62
7
 10
-3.30499985E+02
 20
2.58679993E+02
 11
-3.27499985E+02
 21
2.58679993E+02
  0
LINE
  8
0
 62
7
 10
-1.53974991E+02
 20
2.89499939E+02
 11
-1.53974991E+02
 21
2.95307129E+02
  0
LINE
  8
0
 62
7
 10
-2.66499893E+02
 20
2.11499969E+02
 11
-2.50499893E+02
 21
2.11499969E+02
  0
LINE
  8
0
 62
7
 10
-2.50499893E+02
 20
2.16499969E+02
 11
-2.50499893E+02
 21
2.11499969E+02
  0
LINE
  8
0
 62
7
 10
-2.66499893E+02
 20
2.16499969E+02
 11
-2.66499893E+02
 21
2.11499969E+02
  0
LINE
  8
0
 62
7
 10
-2.61799942E+02
 20
2.01999969E+02
 11
-2.55199966E+02
 21
2.01999969E+02
  0
LINE
  8
0
 62
7
 10
-2.64249893E+02
 20
2.04999969E+02
 11
-2.52749893E+02
 21
2.04999969E+02
  0
LINE
  8
0
 62
7
 10
-2.51549942E+02
 20
2.11499969E+02
 11
-2.51549942E+02
 21
2.05692780E+02
  0
LINE
  8
0
 62
7
 10
-2.65449905E+02
 20
2.11499969E+02
 11
-2.65449905E+02
 21
2.05692780E+02
  0
LINE
  8
0
 62
7
 10
-2.52749726E+02
 20
2.04999724E+02
 11
-2.51549744E+02
 21
2.05692534E+02
  0
LINE
  8
0
 62
7
 10
-2.65449921E+02
 20
2.05692760E+02
 11
-2.64249939E+02
 21
2.04999950E+02
  0
LINE
  8
0
 62
7
 10
-2.61974869E+02
 20
2.11499969E+02
 11
-2.61974869E+02
 21
2.05692780E+02
  0
LINE
  8
0
 62
7
 10
-2.55024918E+02
 20
2.11499969E+02
 11
-2.55024918E+02
 21
2.05692780E+02
  0
LINE
  8
0
 62
7
 10
-2.62499893E+02
 20
2.04999969E+02
 11
-2.62499893E+02
 21
2.02699982E+02
  0
LINE
  8
0
 62
7
 10
-2.54499893E+02
 20
2.04999969E+02
 11
-2.54499893E+02
 21
2.02699982E+02
  0
LINE
  8
0
 62
2
 10
-2.61799942E+02
 20
2.04999969E+02
 11
-2.61799942E+02
 21
2.01999969E+02
  0
LINE
  8
0
 62
2
 10
-2.55199905E+02
 20
2.04999969E+02
 11
-2.55199905E+02
 21
2.01999969E+02
  0
LINE
  8
0
 62
7
 10
-2.62499893E+02
 20
2.02699982E+02
 11
-2.54499893E+02
 21
2.02699982E+02
  0
LINE
  8
0
 62
7
 10
-2.62499965E+02
 20
2.02700058E+02
 11
-2.61799937E+02
 21
2.02000030E+02
  0
LINE
  8
0
 62
7
 10
-2.55199667E+02
 20
2.01999744E+02
 11
-2.54499666E+02
 21
2.02699746E+02
  0
LINE
  8
0
 62
7
 10
-2.66499893E+02
 20
2.89499969E+02
 11
-2.50499893E+02
 21
2.89499969E+02
  0
LINE
  8
0
 62
7
 10
-2.50499893E+02
 20
2.84499939E+02
 11
-2.50499893E+02
 21
2.89499939E+02
  0
LINE
  8
0
 62
7
 10
-2.66499893E+02
 20
2.84499939E+02
 11
-2.66499893E+02
 21
2.89499939E+02
  0
LINE
  8
0
 62
7
 10
-2.61799942E+02
 20
2.98999969E+02
 11
-2.55199966E+02
 21
2.98999969E+02
  0
LINE
  8
0
 62
7
 10
-2.64249893E+02
 20
2.95999969E+02
 11
-2.52749893E+02
 21
2.95999969E+02
  0
LINE
  8
0
 62
7
 10
-2.51549942E+02
 20
2.89499939E+02
 11
-2.51549942E+02
 21
2.95307129E+02
  0
LINE
  8
0
 62
7
 10
-2.65449905E+02
 20
2.89499939E+02
 11
-2.65449905E+02
 21
2.95307129E+02
  0
LINE
  8
0
 62
7
 10
-2.52749848E+02
 20
2.95999866E+02
 11
-2.51549813E+02
 21
2.95307025E+02
  0
LINE
  8
0
 62
7
 10
-2.65449680E+02
 20
2.95306762E+02
 11
-2.64249671E+02
 21
2.95999587E+02
  0
LINE
  8
0
 62
7
 10
-2.55024918E+02
 20
2.89499939E+02
 11
-2.55024918E+02
 21
2.95307129E+02
  0
LINE
  8
0
 62
7
 10
-2.62499893E+02
 20
2.95999939E+02
 11
-2.62499893E+02
 21
2.98299957E+02
  0
LINE
  8
0
 62
7
 10
-2.54499893E+02
 20
2.95999939E+02
 11
-2.54499893E+02
 21
2.98299957E+02
  0
LINE
  8
0
 62
2
 10
-2.61799942E+02
 20
2.95999939E+02
 11
-2.61799942E+02
 21
2.98999939E+02
  0
LINE
  8
0
 62
2
 10
-2.55199905E+02
 20
2.95999939E+02
 11
-2.55199905E+02
 21
2.98999939E+02
  0
LINE
  8
0
 62
7
 10
-2.62499893E+02
 20
2.98299957E+02
 11
-2.54499893E+02
 21
2.98299957E+02
  0
LINE
  8
0
 62
7
 10
-2.62499717E+02
 20
2.98299727E+02
 11
-2.61799704E+02
 21
2.98999739E+02
  0
LINE
  8
0
 62
7
 10
-2.55199899E+02
 20
2.99000025E+02
 11
-2.54499870E+02
 21
2.98299997E+02
  0
LINE
  8
0
 62
7
 10
-2.61974869E+02
 20
2.89499939E+02
 11
-2.61974869E+02
 21
2.95307129E+02
  0
LINE
  8
0
 62
7
 10
-1.36499985E+02
 20
2.88000000E+02
 11
-8.04999847E+01
 21
2.88000000E+02
  0
LINE
  8
0
  6
CENTER
 62
2
 10
-2.94559891E+02
 20
2.61500031E+02
 11
-2.76215103E+02
 21
2.61500031E+02
  0
LINE
  8
0
  6
CENTER
 62
2
 10
-2.85500015E+02
 20
2.70778961E+02
 11
-2.85500015E+02
 21
2.52213165E+02
  0
LINE
  8
0
  6
CENTER
 62
2
 10
-2.58499893E+02
 20
2.20751129E+02
 11
-2.58499893E+02
 21
1.99912292E+02
  0
LINE
  8
0
 62
7
 10
-2.82499846E+02
 20
2.63232273E+02
 11
-2.85499859E+02
 21
2.64964321E+02
  0
LINE
  8
0
 62
7
 10
-2.85500653E+02
 20
2.64965048E+02
 11
-2.88500640E+02
 21
2.63233015E+02
  0
LINE
  8
0
 62
7
 10
-2.88500015E+02
 20
2.59767944E+02
 11
-2.88500015E+02
 21
2.63232056E+02
  0
LINE
  8
0
 62
7
 10
-2.85499919E+02
 20
2.58036084E+02
 11
-2.88499932E+02
 21
2.59768131E+02
  0
LINE
  8
0
 62
7
 10
-2.82500626E+02
 20
2.59769122E+02
 11
-2.85500639E+02
 21
2.58037074E+02
  0
LINE
  8
0
 62
7
 10
-2.82500015E+02
 20
2.63232056E+02
 11
-2.82500015E+02
 21
2.59767944E+02
  0
LINE
  8
0
  6
CENTER
 62
2
 10
-2.58499893E+02
 20
2.80031677E+02
 11
-2.58499893E+02
 21
3.00587616E+02
  0
LINE
  8
0
  6
CENTER
 62
2
 10
-3.65400284E+02
 20
2.50500000E+02
 11
1.02787466E+02
 21
2.50500000E+02
  0
LINE
  8
0
 62
7
 10
-3.02500015E+02
 20
2.88000000E+02
 11
-2.72500015E+02
 21
2.88000000E+02
  0
LINE
  8
0
 62
7
 10
-8.04999847E+01
 20
2.88000000E+02
 11
-8.04999847E+01
 21
2.13000000E+02
  0
LINE
  8
0
  6
CENTER
 62
2
 10
-2.04499954E+02
 20
2.34517212E+02
 11
-2.04499954E+02
 21
2.65428131E+02
  0
LINE
  8
0
  6
CENTER
 62
2
 10
-3.07107559E+02
 20
2.22499969E+02
 11
-7.70927887E+01
 21
2.22499969E+02
  0
LINE
  8
0
 62
7
 10
-2.72500015E+02
 20
2.26100037E+02
 11
-1.36499985E+02
 21
2.26100037E+02
  0
LINE
  8
0
 62
7
 10
-2.72500015E+02
 20
2.18900024E+02
 11
-1.36499985E+02
 21
2.18900024E+02
  0
LINE
  8
0
 62
7
 10
-2.72500015E+02
 20
2.84499969E+02
 11
-1.36499985E+02
 21
2.84499969E+02
  0
LINE
  8
0
 62
7
 10
-3.02500015E+02
 20
2.88000000E+02
 11
-3.02500015E+02
 21
2.13000000E+02
  0
LINE
  8
0
 62
7
 10
-3.02500015E+02
 20
2.12999969E+02
 11
-2.72500015E+02
 21
2.12999969E+02
  0
LINE
  8
0
 62
7
 10
-2.72500015E+02
 20
2.16500000E+02
 11
-1.36499985E+02
 21
2.16500000E+02
  0
LINE
  8
0
 62
7
 10
-1.36499954E+02
 20
2.88000000E+02
 11
-1.36499954E+02
 21
2.13000000E+02
  0
LINE
  8
0
 62
7
 10
-1.36499985E+02
 20
2.12999969E+02
 11
-8.04999847E+01
 21
2.12999969E+02
  0
LINE
  8
0
 62
7
 10
-2.72500015E+02
 20
2.88000000E+02
 11
-2.72500015E+02
 21
2.13000000E+02
  0
LINE
  8
0
  6
CENTER
 62
2
 10
-3.07724197E+02
 20
2.78500000E+02
 11
-7.70927887E+01
 21
2.78500000E+02
  0
LINE
  8
0
 62
7
 10
-2.72500015E+02
 20
2.74899994E+02
 11
-1.36499985E+02
 21
2.74899994E+02
  0
LINE
  8
0
 62
7
 10
-2.72500015E+02
 20
2.82100006E+02
 11
-1.36499985E+02
 21
2.82100006E+02
  0
LINE
  8
0
 62
7
 10
-1.43550178E+02
 20
2.95306847E+02
 11
-1.44750213E+02
 21
2.95999687E+02
  0
LINE
  8
0
 62
7
 10
-1.56250050E+02
 20
2.95999793E+02
 11
-1.57450045E+02
 21
2.95306975E+02
  0
LINE
  8
0
 62
7
 10
-1.43550034E+02
 20
2.89499939E+02
 11
-1.43550034E+02
 21
2.95307129E+02
  0
LINE
  8
0
 62
7
 10
-1.44750015E+02
 20
2.95999969E+02
 11
-1.56250046E+02
 21
2.95999969E+02
  0
LINE
  8
0
 62
7
 10
-1.57450027E+02
 20
2.89499939E+02
 11
-1.57450027E+02
 21
2.95307129E+02
  0
LINE
  8
0
 62
7
 10
-1.47025009E+02
 20
2.89499939E+02
 11
-1.47025009E+02
 21
2.95307129E+02
  0
LINE
  8
0
 62
7
 10
-1.42500046E+02
 20
2.89499969E+02
 11
-1.58500015E+02
 21
2.89499969E+02
  0
LINE
  8
0
 62
7
 10
-1.58500015E+02
 20
2.84499939E+02
 11
-1.58500015E+02
 21
2.89499939E+02
  0
LINE
  8
0
 62
7
 10
-1.42500015E+02
 20
2.84499939E+02
 11
-1.42500015E+02
 21
2.89499939E+02
  0
LINE
  8
0
 62
7
 10
-1.47200027E+02
 20
2.98999969E+02
 11
-1.53800034E+02
 21
2.98999969E+02
  0
LINE
  8
0
  6
CENTER
 62
2
 10
-1.50500015E+02
 20
2.80031677E+02
 11
-1.50500015E+02
 21
3.00587616E+02
  0
LINE
  8
0
 62
7
 10
-1.46500015E+02
 20
2.95999939E+02
 11
-1.46500015E+02
 21
2.98299957E+02
  0
LINE
  8
0
 62
7
 10
-1.54500015E+02
 20
2.95999939E+02
 11
-1.54500015E+02
 21
2.98299957E+02
  0
LINE
  8
0
 62
2
 10
-1.47199997E+02
 20
2.95999939E+02
 11
-1.47199997E+02
 21
2.98999939E+02
  0
LINE
  8
0
 62
2
 10
-1.53800034E+02
 20
2.95999939E+02
 11
-1.53800034E+02
 21
2.98999939E+02
  0
LINE
  8
0
 62
7
 10
-1.46500046E+02
 20
2.98299957E+02
 11
-1.54500015E+02
 21
2.98299957E+02
  0
LINE
  8
0
 62
7
 10
-1.46500112E+02
 20
2.98299813E+02
 11
-1.47200098E+02
 21
2.98999798E+02
  0
LINE
  8
0
 62
7
 10
-1.53799865E+02
 20
2.98999895E+02
 11
-1.54499862E+02
 21
2.98299899E+02
  0
LINE
  8
0
 62
7
 10
-1.26500213E+02
 20
2.63232558E+02
 11
-1.23500214E+02
 21
2.64964598E+02
  0
LINE
  8
0
 62
7
 10
-1.23499510E+02
 20
2.64964929E+02
 11
-1.20499497E+02
 21
2.63232881E+02
  0
LINE
  8
0
 62
7
 10
-1.20499924E+02
 20
2.59767944E+02
 11
-1.20499924E+02
 21
2.63232056E+02
  0
LINE
  8
0
 62
7
 10
-1.23500214E+02
 20
2.58036405E+02
 11
-1.20500254E+02
 21
2.59768422E+02
  0
LINE
  8
0
 62
7
 10
-1.26499413E+02
 20
2.59768914E+02
 11
-1.23499400E+02
 21
2.58036866E+02
  0
LINE
  8
0
 62
7
 10
-1.26499954E+02
 20
2.63232056E+02
 11
-1.26499954E+02
 21
2.59767944E+02
  0
LINE
  8
0
  6
CENTER
 62
2
 10
-1.14440048E+02
 20
2.61500031E+02
 11
-1.32784897E+02
 21
2.61500031E+02
  0
LINE
  8
0
  6
CENTER
 62
2
 10
-1.23499924E+02
 20
2.70778961E+02
 11
-1.23499924E+02
 21
2.52213165E+02
  0
LINE
  8
0
  6
CENTER
 62
2
 10
-1.50500015E+02
 20
2.20751129E+02
 11
-1.50500015E+02
 21
1.99912292E+02
  0
LINE
  8
0
 62
7
 10
-1.42500046E+02
 20
2.11499969E+02
 11
-1.58500015E+02
 21
2.11499969E+02
  0
LINE
  8
0
 62
7
 10
-1.58500015E+02
 20
2.16499969E+02
 11
-1.58500015E+02
 21
2.11499969E+02
  0
LINE
  8
0
 62
7
 10
-1.42500015E+02
 20
2.16499969E+02
 11
-1.42500015E+02
 21
2.11499969E+02
  0
LINE
  8
0
 62
7
 10
-1.47200027E+02
 20
2.01999969E+02
 11
-1.53800034E+02
 21
2.01999969E+02
  0
LINE
  8
0
 62
7
 10
-1.44750015E+02
 20
2.04999969E+02
 11
-1.56250046E+02
 21
2.04999969E+02
  0
LINE
  8
0
 62
7
 10
-1.57450027E+02
 20
2.11499969E+02
 11
-1.57450027E+02
 21
2.05692780E+02
  0
LINE
  8
0
 62
7
 10
-1.43550034E+02
 20
2.11499969E+02
 11
-1.43550034E+02
 21
2.05692780E+02
  0
LINE
  8
0
 62
7
 10
-1.56250150E+02
 20
2.04999793E+02
 11
-1.57450132E+02
 21
2.05692603E+02
  0
LINE
  8
0
 62
7
 10
-1.43549950E+02
 20
2.05692699E+02
 11
-1.44749906E+02
 21
2.04999904E+02
  0
LINE
  8
0
 62
7
 10
-1.47025009E+02
 20
2.11499969E+02
 11
-1.47025009E+02
 21
2.05692780E+02
  0
LINE
  8
0
 62
7
 10
-1.53974991E+02
 20
2.11499969E+02
 11
-1.53974991E+02
 21
2.05692780E+02
  0
LINE
  8
0
 62
7
 10
-1.46500015E+02
 20
2.04999969E+02
 11
-1.46500015E+02
 21
2.02699982E+02
  0
LINE
  8
0
 62
7
 10
-1.54500015E+02
 20
2.04999969E+02
 11
-1.54500015E+02
 21
2.02699982E+02
  0
LINE
  8
0
 62
2
 10
-1.47199997E+02
 20
2.04999969E+02
 11
-1.47199997E+02
 21
2.01999969E+02
  0
LINE
  8
0
 62
2
 10
-1.53800034E+02
 20
2.04999969E+02
 11
-1.53800034E+02
 21
2.01999969E+02
  0
LINE
  8
0
 62
7
 10
-1.46500046E+02
 20
2.02699982E+02
 11
-1.54500015E+02
 21
2.02699982E+02
  0
LINE
  8
0
 62
7
 10
-1.46499815E+02
 20
2.02699914E+02
 11
-1.47199787E+02
 21
2.01999941E+02
  0
LINE
  8
0
 62
7
 10
-1.53800150E+02
 20
2.01999874E+02
 11
-1.54500136E+02
 21
2.02699860E+02
  0
ARC
  8
0
 62
7
 10
-3.17000015E+02
 20
2.66999969E+02
 40
5.00000000E-01
 50
8.99999818E+01
 51
1.79999964E+02
  0
ARC
  8
0
 62
7
 10
-3.12250015E+02
 20
2.67508545E+02
 40
2.50000000E-01
 50
9.19988093E+01
 51
1.79999964E+02
  0
ARC
  8
0
 62
7
 10
-3.04000015E+02
 20
2.69000000E+02
 40
5.00000000E-01
 50
8.99999818E+01
 51
1.79999964E+02
  0
ARC
  8
0
 62
7
 10
-3.04000015E+02
 20
2.32000000E+02
 40
5.00000000E-01
 50
1.79999977E+02
 51
2.69999974E+02
  0
ARC
  8
0
 62
7
 10
-3.12250015E+02
 20
2.33491455E+02
 40
2.50000000E-01
 50
1.79999977E+02
 51
2.68001132E+02
  0
ARC
  8
0
 62
7
 10
-3.17000015E+02
 20
2.34000031E+02
 40
5.00000000E-01
 50
1.79999977E+02
 51
2.69999974E+02
  0
ARC
  8
0
 62
7
 10
-7.35000000E+01
 20
2.70499969E+02
 40
2.00000000E+00
 50
8.99999818E+01
 51
1.79999964E+02
  0
ARC
  8
0
 62
7
 10
-7.35000000E+01
 20
2.30499969E+02
 40
2.00000000E+00
 50
1.79999977E+02
 51
2.70000028E+02
  0
CIRCLE
  8
0
 62
7
 10
-5.65000153E+01
 20
2.38499969E+02
 40
2.59999990E+00
  0
CIRCLE
  8
0
 62
2
 10
6.95000458E+01
 20
2.57499908E+02
 40
8.32999992E+00
  0
ARC
  8
0
 62
7
 10
8.90000076E+01
 20
2.31999939E+02
 40
5.00000000E-01
 50
2.70000073E+02
 51
5.46415133E-05
  0
ARC
  8
0
 62
7
 10
8.90000076E+01
 20
2.68999939E+02
 40
5.00000000E-01
 50
5.46415133E-05
 51
9.00000369E+01
  0
ARC
  8
0
 62
7
 10
8.05000076E+01
 20
2.30499969E+02
 40
2.00000000E+00
 50
2.70000073E+02
 51
5.46415133E-05
  0
ARC
  8
0
 62
7
 10
8.05000076E+01
 20
2.70499969E+02
 40
2.00000000E+00
 50
5.46415133E-05
 51
9.00000913E+01
  0
CIRCLE
  8
0
 62
7
 10
-5.65000153E+01
 20
2.38499969E+02
 40
5.00000000E+00
  0
CIRCLE
  8
0
 62
7
 10
6.35000153E+01
 20
2.38499969E+02
 40
2.59999990E+00
  0
CIRCLE
  8
0
 62
7
 10
6.35000153E+01
 20
2.38499969E+02
 40
5.00000000E+00
  0
CIRCLE
  8
0
 62
7
 10
6.95000458E+01
 20
2.57499908E+02
 40
8.71000004E+00
  0
CIRCLE
  8
0
 62
7
 10
6.95000458E+01
 20
2.57499908E+02
 40
7.44000006E+00
  0
CIRCLE
  8
0
 62
7
 10
-6.25000458E+01
 20
2.57499908E+02
 40
8.71000004E+00
  0
CIRCLE
  8
0
 62
7
 10
-6.25000458E+01
 20
2.57499908E+02
 40
7.44000006E+00
  0
CIRCLE
  8
0
 62
2
 10
-6.25000458E+01
 20
2.57499908E+02
 40
8.32999992E+00
  0
ARC
  8
0
 62
7
 10
-2.58499893E+02
 20
2.86938812E+02
 40
9.06113529E+00
 50
6.74489921E+01
 51
1.12550903E+02
  0
ARC
  8
0
 62
7
 10
-2.63712418E+02
 20
2.07525116E+02
 40
2.52511263E+00
 50
2.53478125E+02
 51
3.13479008E+02
  0
ARC
  8
0
 62
7
 10
-2.53287430E+02
 20
2.07525116E+02
 40
2.52511263E+00
 50
2.26520987E+02
 51
2.86521856E+02
  0
ARC
  8
0
 62
7
 10
-2.58499893E+02
 20
2.14061096E+02
 40
9.06113529E+00
 50
2.47449035E+02
 51
2.92550946E+02
  0
ARC
  8
0
 62
7
 10
-2.53287430E+02
 20
2.93474823E+02
 40
2.52511263E+00
 50
7.34780821E+01
 51
1.33478944E+02
  0
ARC
  8
0
 62
7
 10
-2.63712418E+02
 20
2.93474823E+02
 40
2.52511263E+00
 50
4.65209375E+01
 51
1.06521820E+02
  0
CIRCLE
  8
0
 62
7
 10
-2.85500015E+02
 20
2.61500031E+02
 40
6.57849932E+00
  0
CIRCLE
  8
0
 62
7
 10
-2.85500015E+02
 20
2.61500031E+02
 40
5.72249985E+00
  0
CIRCLE
  8
0
 62
7
 10
-2.04499954E+02
 20
2.50500000E+02
 40
5.69999981E+00
  0
CIRCLE
  8
0
 62
7
 10
-2.04499954E+02
 20
2.50500000E+02
 40
6.99999952E+00
  0
CIRCLE
  8
0
 62
2
 10
-2.04499954E+02
 20
2.50500000E+02
 40
6.57849932E+00
  0
CIRCLE
  8
0
 62
7
 10
-2.04499954E+02
 20
2.50500000E+02
 40
1.00000000E+01
  0
ARC
  8
0
 62
7
 10
-1.50500015E+02
 20
2.86938812E+02
 40
9.06113529E+00
 50
6.74491016E+01
 51
1.12551013E+02
  0
ARC
  8
0
 62
7
 10
-1.55712509E+02
 20
2.93474823E+02
 40
2.52511263E+00
 50
4.65210741E+01
 51
1.06521937E+02
  0
ARC
  8
0
 62
7
 10
-1.45287521E+02
 20
2.93474823E+02
 40
2.52511263E+00
 50
7.34781915E+01
 51
1.33479081E+02
  0
CIRCLE
  8
0
 62
7
 10
-1.23499924E+02
 20
2.61500031E+02
 40
6.57849932E+00
  0
CIRCLE
  8
0
 62
7
 10
-1.23499924E+02
 20
2.61500031E+02
 40
5.72249985E+00
  0
ARC
  8
0
 62
7
 10
-1.55712509E+02
 20
2.07525116E+02
 40
2.52511263E+00
 50
2.53478180E+02
 51
3.13479049E+02
  0
ARC
  8
0
 62
7
 10
-1.50500015E+02
 20
2.14061096E+02
 40
9.06113529E+00
 50
2.47449090E+02
 51
2.92551001E+02
  0
ARC
  8
0
 62
7
 10
-1.45287521E+02
 20
2.07525116E+02
 40
2.52511263E+00
 50
2.26521028E+02
 51
2.86521911E+02
  0
CIRCLE
  8
0
 62
2
 10
-2.04499954E+02
 20
2.50500000E+02
 40
1.19999990E+01
  0
INSERT
  8
0
  2
PP1
  6
BYBLOCK
 62
0
 10
0.00000000E+00
 20
0.00000000E+00
 41
1.00000000E+00
 42
1.00000000E+00
 50
0.00000000E+00
  0
INSERT
  8
0
  2
PP2
  6
BYBLOCK
 62
0
 10
0.00000000E+00
 20
0.00000000E+00
 41
1.00000000E+00
 42
1.00000000E+00
 50
0.00000000E+00
  0
ARC
  8
0
 62
4
 10
-3.58996378E+02
 20
2.43750000E+02
 40
1.94963929E+01
 50
3.39743842E+02
 51
2.02561580E+01
  0
ARC
  8
0
 62
4
 10
-3.58996378E+02
 20
2.57250000E+02
 40
1.94963929E+01
 50
3.39743842E+02
 51
2.02561580E+01
  0
ARC
  8
0
 62
4
 10
-3.31003592E+02
 20
2.57250000E+02
 40
1.94963929E+01
 50
1.59743842E+02
 51
2.00256158E+02
  0
ARC
  8
0
 62
4
 10
-3.31003592E+02
 20
2.43750000E+02
 40
1.94963929E+01
 50
1.59743842E+02
 51
2.00256158E+02
  0
LINE
  8
0
 62
4
 10
-3.40705756E+02
 20
2.50500000E+02
 11
-3.49294213E+02
 21
2.50500000E+02
  0
LINE
  8
0
 62
4
 10
-3.39499985E+02
 20
2.37000000E+02
 11
-3.50499985E+02
 21
2.37000000E+02
  0
LINE
  8
0
 62
4
 10
-3.39499985E+02
 20
2.64000000E+02
 11
-3.50499985E+02
 21
2.64000000E+02
  0
LINE
  8
0
 62
4
 10
-3.50499985E+02
 20
2.64000000E+02
 11
-3.50499985E+02
 21
2.37000000E+02
  0
LINE
  8
0
 62
4
 10
-3.39499985E+02
 20
2.64000000E+02
 11
-3.39499985E+02
 21
2.37000000E+02
  0
LINE
  8
0
 62
7
 10
-3.39499985E+02
 20
2.59500000E+02
 11
-3.30499985E+02
 21
2.59500000E+02
  0
LINE
  8
0
 62
2
 10
-3.39499985E+02
 20
2.58679993E+02
 11
-3.30499985E+02
 21
2.58679993E+02
  0
LINE
  8
0
 62
7
 10
-3.39499985E+02
 20
2.41500000E+02
 11
-3.30499985E+02
 21
2.41500000E+02
  0
LINE
  8
0
 62
2
 10
-3.39499985E+02
 20
2.42320007E+02
 11
-3.30499985E+02
 21
2.42320007E+02
  0
LINE
  8
0
 62
4
 10
-3.90000000E+01
 20
2.57211010E+02
 11
-2.81500000E+01
 21
2.57211010E+02
  0
LINE
  8
0
 62
4
 10
-3.90000000E+01
 20
2.56516417E+02
 11
-2.81500000E+01
 21
2.56516417E+02
  0
LINE
  8
0
 62
4
 10
-3.90000000E+01
 20
2.57494796E+02
 11
-2.81500000E+01
 21
2.57494796E+02
  0
LINE
  8
0
 62
4
 10
-3.90000000E+01
 20
2.59300737E+02
 11
-9.00000001E+00
 21
2.59300737E+02
  0
LINE
  8
0
 62
4
 10
-3.90000000E+01
 20
2.69444256E+02
 11
-9.00000001E+00
 21
2.69444256E+02
  0
LINE
  8
0
  6
CENTER
 62
6
 10
-4.40000000E+01
 20
2.58833329E+02
 11
3.00000000E+00
 21
2.58833329E+02
  0
LINE
  8
0
 62
6
 10
1.17320508E+01
 20
2.45166641E+02
 11
8.26794922E+00
 21
2.39166641E+02
  0
LINE
  8
0
 62
4
 10
2.00000000E+01
 20
2.43666640E+02
 11
1.08660254E+01
 21
2.43666640E+02
  0
LINE
  8
0
  6
CENTER
 62
6
 10
5.50000000E+01
 20
2.42166640E+02
 11
8.00000000E+00
 21
2.42166640E+02
  0
LINE
  8
0
 62
4
 10
2.00000000E+01
 20
2.40666640E+02
 11
9.13397460E+00
 21
2.40666640E+02
  0
LINE
  8
0
 62
6
 10
-7.32050832E-01
 20
2.55833329E+02
 11
2.73205078E+00
 21
2.61833329E+02
  0
LINE
  8
0
 62
4
 10
-9.00000000E+00
 20
2.57333329E+02
 11
1.33974608E-01
 21
2.57333329E+02
  0
LINE
  8
0
 62
4
 10
-9.00000000E+00
 20
2.60333329E+02
 11
1.86602540E+00
 21
2.60333329E+02
  0
LINE
  8
0
 62
6
 10
2.50000000E+01
 20
2.16496680E+02
 11
2.50000000E+01
 21
2.18847716E+02
  0
LINE
  8
0
 62
6
 10
2.20000000E+01
 20
2.16496680E+02
 11
2.20000000E+01
 21
2.18847716E+02
  0
LINE
  8
0
 62
4
 10
2.55000000E+01
 20
2.16726395E+02
 11
2.55000000E+01
 21
2.18847716E+02
  0
LINE
  8
0
 62
4
 10
2.15000000E+01
 20
2.16726395E+02
 11
2.15000000E+01
 21
2.18847716E+02
  0
LINE
  8
0
 62
4
 10
3.50000000E+01
 20
2.18847716E+02
 11
3.50000000E+01
 21
2.31555713E+02
  0
LINE
  8
0
 62
4
 10
2.00000000E+01
 20
2.18847716E+02
 11
2.00000000E+01
 21
2.44477604E+02
  0
LINE
  8
0
 62
4
 10
5.00000000E+01
 20
2.31555713E+02
 11
5.00000000E+01
 21
2.43505174E+02
  0
LINE
  8
0
  6
CENTER
 62
6
 10
2.35000000E+01
 20
2.13384421E+02
 11
2.35000000E+01
 21
2.23650000E+02
  0
LINE
  8
0
  6
CENTER
 62
6
 10
3.15000000E+01
 20
2.13384421E+02
 11
3.15000000E+01
 21
2.23650000E+02
  0
LINE
  8
0
  6
CENTER
 62
6
 10
3.50000000E+01
 20
2.40588418E+02
 11
3.50000000E+01
 21
2.45588418E+02
  0
LINE
  8
0
 62
4
 10
3.50000000E+01
 20
2.18847716E+02
 11
2.00000000E+01
 21
2.18847716E+02
  0
LINE
  8
0
 62
4
 10
3.50000000E+01
 20
2.24662059E+02
 11
2.00000000E+01
 21
2.24662059E+02
  0
LINE
  8
0
 62
4
 10
5.00000000E+01
 20
2.31555713E+02
 11
2.00000000E+01
 21
2.31555713E+02
  0
LINE
  8
0
 62
4
 10
5.00000000E+01
 20
2.41699233E+02
 11
2.00000000E+01
 21
2.41699233E+02
  0
LINE
  8
0
 62
4
 10
2.41000000E+01
 20
2.44477604E+02
 11
2.00000000E+01
 21
2.44477604E+02
  0
LINE
  8
0
 62
4
 10
2.41000000E+01
 20
2.44303956E+02
 11
2.00000000E+01
 21
2.44303956E+02
  0
LINE
  8
0
 62
4
 10
5.00000000E+01
 20
2.43505174E+02
 11
3.91500000E+01
 21
2.43505174E+02
  0
POLYLINE
  8
0
 62
4
 66
1
  0
VERTEX
  8
0
 62
4
 10
2.15000000E+01
 20
2.16726395E+02
  0
VERTEX
  8
0
 62
4
 10
2.15080514E+01
 20
2.16695264E+02
  0
VERTEX
  8
0
 62
4
 10
2.15321408E+01
 20
2.16664383E+02
  0
VERTEX
  8
0
 62
4
 10
2.15720743E+01
 20
2.16634001E+02
  0
VERTEX
  8
0
 62
4
 10
2.16275303E+01
 20
2.16604364E+02
  0
VERTEX
  8
0
 62
4
 10
2.16980623E+01
 20
2.16575709E+02
  0
VERTEX
  8
0
 62
4
 10
2.17831024E+01
 20
2.16548267E+02
  0
VERTEX
  8
0
 62
4
 10
2.18819660E+01
 20
2.16522259E+02
  0
VERTEX
  8
0
 62
4
 10
2.19938571E+01
 20
2.16497895E+02
  0
VERTEX
  8
0
 62
4
 10
2.21178747E+01
 20
2.16475371E+02
  0
VERTEX
  8
0
 62
4
 10
2.22530204E+01
 20
2.16454868E+02
  0
VERTEX
  8
0
 62
4
 10
2.23982060E+01
 20
2.16436551E+02
  0
VERTEX
  8
0
 62
4
 10
2.25522627E+01
 20
2.16420567E+02
  0
VERTEX
  8
0
 62
4
 10
2.27139499E+01
 20
2.16407046E+02
  0
VERTEX
  8
0
 62
4
 10
2.28819660E+01
 20
2.16396097E+02
  0
VERTEX
  8
0
 62
4
 10
2.30549581E+01
 20
2.16387806E+02
  0
VERTEX
  8
0
 62
4
 10
2.32315335E+01
 20
2.16382242E+02
  0
VERTEX
  8
0
 62
4
 10
2.34102703E+01
 20
2.16379448E+02
  0
VERTEX
  8
0
 62
4
 10
2.35897296E+01
 20
2.16379448E+02
  0
VERTEX
  8
0
 62
4
 10
2.37684665E+01
 20
2.16382242E+02
  0
VERTEX
  8
0
 62
4
 10
2.39450419E+01
 20
2.16387806E+02
  0
VERTEX
  8
0
 62
4
 10
2.41180340E+01
 20
2.16396097E+02
  0
VERTEX
  8
0
 62
4
 10
2.42860501E+01
 20
2.16407046E+02
  0
VERTEX
  8
0
 62
4
 10
2.44477373E+01
 20
2.16420567E+02
  0
VERTEX
  8
0
 62
4
 10
2.46017940E+01
 20
2.16436551E+02
  0
VERTEX
  8
0
 62
4
 10
2.47469796E+01
 20
2.16454868E+02
  0
VERTEX
  8
0
 62
4
 10
2.48821253E+01
 20
2.16475371E+02
  0
VERTEX
  8
0
 62
4
 10
2.50061429E+01
 20
2.16497895E+02
  0
VERTEX
  8
0
 62
4
 10
2.51180340E+01
 20
2.16522259E+02
  0
VERTEX
  8
0
 62
4
 10
2.52168976E+01
 20
2.16548267E+02
  0
VERTEX
  8
0
 62
4
 10
2.53019377E+01
 20
2.16575709E+02
  0
VERTEX
  8
0
 62
4
 10
2.53724697E+01
 20
2.16604364E+02
  0
VERTEX
  8
0
 62
4
 10
2.54279257E+01
 20
2.16634001E+02
  0
VERTEX
  8
0
 62
4
 10
2.54678592E+01
 20
2.16664383E+02
  0
VERTEX
  8
0
 62
4
 10
2.54919486E+01
 20
2.16695264E+02
  0
VERTEX
  8
0
 62
4
 10
2.55000000E+01
 20
2.16726395E+02
  0
SEQEND
  8
0
  0
LINE
  8
0
 62
6
 10
3.30000000E+01
 20
2.16496680E+02
 11
3.30000000E+01
 21
2.18847716E+02
  0
LINE
  8
0
 62
6
 10
3.00000000E+01
 20
2.16496680E+02
 11
3.00000000E+01
 21
2.18847716E+02
  0
LINE
  8
0
 62
4
 10
3.35000000E+01
 20
2.16726395E+02
 11
3.35000000E+01
 21
2.18847716E+02
  0
LINE
  8
0
 62
4
 10
2.95000000E+01
 20
2.16726395E+02
 11
2.95000000E+01
 21
2.18847716E+02
  0
POLYLINE
  8
0
 62
4
 66
1
  0
VERTEX
  8
0
 62
4
 10
2.95000000E+01
 20
2.16726395E+02
  0
VERTEX
  8
0
 62
4
 10
2.95080514E+01
 20
2.16695264E+02
  0
VERTEX
  8
0
 62
4
 10
2.95321408E+01
 20
2.16664383E+02
  0
VERTEX
  8
0
 62
4
 10
2.95720743E+01
 20
2.16634001E+02
  0
VERTEX
  8
0
 62
4
 10
2.96275303E+01
 20
2.16604364E+02
  0
VERTEX
  8
0
 62
4
 10
2.96980623E+01
 20
2.16575709E+02
  0
VERTEX
  8
0
 62
4
 10
2.97831024E+01
 20
2.16548267E+02
  0
VERTEX
  8
0
 62
4
 10
2.98819660E+01
 20
2.16522259E+02
  0
VERTEX
  8
0
 62
4
 10
2.99938571E+01
 20
2.16497895E+02
  0
VERTEX
  8
0
 62
4
 10
3.01178747E+01
 20
2.16475371E+02
  0
VERTEX
  8
0
 62
4
 10
3.02530204E+01
 20
2.16454868E+02
  0
VERTEX
  8
0
 62
4
 10
3.03982060E+01
 20
2.16436551E+02
  0
VERTEX
  8
0
 62
4
 10
3.05522627E+01
 20
2.16420567E+02
  0
VERTEX
  8
0
 62
4
 10
3.07139499E+01
 20
2.16407046E+02
  0
VERTEX
  8
0
 62
4
 10
3.08819660E+01
 20
2.16396097E+02
  0
VERTEX
  8
0
 62
4
 10
3.10549581E+01
 20
2.16387806E+02
  0
VERTEX
  8
0
 62
4
 10
3.12315335E+01
 20
2.16382242E+02
  0
VERTEX
  8
0
 62
4
 10
3.14102703E+01
 20
2.16379448E+02
  0
VERTEX
  8
0
 62
4
 10
3.15897296E+01
 20
2.16379448E+02
  0
VERTEX
  8
0
 62
4
 10
3.17684665E+01
 20
2.16382242E+02
  0
VERTEX
  8
0
 62
4
 10
3.19450419E+01
 20
2.16387806E+02
  0
VERTEX
  8
0
 62
4
 10
3.21180340E+01
 20
2.16396097E+02
  0
VERTEX
  8
0
 62
4
 10
3.22860501E+01
 20
2.16407046E+02
  0
VERTEX
  8
0
 62
4
 10
3.24477373E+01
 20
2.16420567E+02
  0
VERTEX
  8
0
 62
4
 10
3.26017940E+01
 20
2.16436551E+02
  0
VERTEX
  8
0
 62
4
 10
3.27469796E+01
 20
2.16454868E+02
  0
VERTEX
  8
0
 62
4
 10
3.28821253E+01
 20
2.16475371E+02
  0
VERTEX
  8
0
 62
4
 10
3.30061429E+01
 20
2.16497895E+02
  0
VERTEX
  8
0
 62
4
 10
3.31180340E+01
 20
2.16522259E+02
  0
VERTEX
  8
0
 62
4
 10
3.32168976E+01
 20
2.16548267E+02
  0
VERTEX
  8
0
 62
4
 10
3.33019377E+01
 20
2.16575709E+02
  0
VERTEX
  8
0
 62
4
 10
3.33724697E+01
 20
2.16604364E+02
  0
VERTEX
  8
0
 62
4
 10
3.34279257E+01
 20
2.16634001E+02
  0
VERTEX
  8
0
 62
4
 10
3.34678592E+01
 20
2.16664383E+02
  0
VERTEX
  8
0
 62
4
 10
3.34919486E+01
 20
2.16695264E+02
  0
VERTEX
  8
0
 62
4
 10
3.35000000E+01
 20
2.16726395E+02
  0
SEQEND
  8
0
  0
LINE
  8
0
 62
4
 10
5.00000000E+01
 20
2.39849729E+02
 11
5.15000000E+01
 21
2.40852661E+02
  0
LINE
  8
0
 62
4
 10
5.15000000E+01
 20
2.40852661E+02
 11
5.15000000E+01
 21
2.43476564E+02
  0
LINE
  8
0
 62
4
 10
5.15000000E+01
 20
2.43083251E+02
 11
5.00000000E+01
 21
2.43788960E+02
  0
LINE
  8
0
 62
4
 10
5.15000000E+01
 20
2.43476564E+02
 11
5.00000000E+01
 21
2.44483552E+02
  0
LINE
  8
0
 62
4
 10
5.00000000E+01
 20
2.44483552E+02
 11
3.91500000E+01
 21
2.44483552E+02
  0
LINE
  8
0
 62
4
 10
5.00000000E+01
 20
2.43788960E+02
 11
3.91500000E+01
 21
2.43788960E+02
  0
LINE
  8
0
 62
4
 10
5.00000000E+01
 20
2.43505174E+02
 11
5.00000000E+01
 21
2.44477604E+02
  0
POLYLINE
  8
0
 62
4
 66
1
  0
VERTEX
  8
0
 62
4
 10
3.13000000E+01
 20
2.43136274E+02
  0
VERTEX
  8
0
 62
4
 10
3.14818150E+01
 20
2.43080427E+02
  0
VERTEX
  8
0
 62
4
 10
3.16915122E+01
 20
2.43027608E+02
  0
VERTEX
  8
0
 62
4
 10
3.19274299E+01
 20
2.42978238E+02
  0
VERTEX
  8
0
 62
4
 10
3.21876982E+01
 20
2.42932706E+02
  0
VERTEX
  8
0
 62
4
 10
3.24702545E+01
 20
2.42891375E+02
  0
VERTEX
  8
0
 62
4
 10
3.27728596E+01
 20
2.42854570E+02
  0
VERTEX
  8
0
 62
4
 10
3.30931151E+01
 20
2.42822585E+02
  0
VERTEX
  8
0
 62
4
 10
3.34284831E+01
 20
2.42795672E+02
  0
VERTEX
  8
0
 62
4
 10
3.37763056E+01
 20
2.42774046E+02
  0
VERTEX
  8
0
 62
4
 10
3.41338262E+01
 20
2.42757876E+02
  0
VERTEX
  8
0
 62
4
 10
3.44982113E+01
 20
2.42747292E+02
  0
VERTEX
  8
0
 62
4
 10
3.48665732E+01
 20
2.42742378E+02
  0
VERTEX
  8
0
 62
4
 10
3.52359925E+01
 20
2.42743171E+02
  0
VERTEX
  8
0
 62
4
 10
3.56035416E+01
 20
2.42749667E+02
  0
VERTEX
  8
0
 62
4
 10
3.59663074E+01
 20
2.42761813E+02
  0
VERTEX
  8
0
 62
4
 10
3.63214151E+01
 20
2.42779513E+02
  0
VERTEX
  8
0
 62
4
 10
3.66660504E+01
 20
2.42802627E+02
  0
VERTEX
  8
0
 62
4
 10
3.69974818E+01
 20
2.42830972E+02
  0
VERTEX
  8
0
 62
4
 10
3.73130829E+01
 20
2.42864323E+02
  0
VERTEX
  8
0
 62
4
 10
3.76103523E+01
 20
2.42902416E+02
  0
VERTEX
  8
0
 62
4
 10
3.78869343E+01
 20
2.42944949E+02
  0
VERTEX
  8
0
 62
4
 10
3.81406367E+01
 20
2.42991584E+02
  0
VERTEX
  8
0
 62
4
 10
3.83694490E+01
 20
2.43041953E+02
  0
VERTEX
  8
0
 62
4
 10
3.85715578E+01
 20
2.43095656E+02
  0
VERTEX
  8
0
 62
4
 10
3.87453613E+01
 20
2.43152268E+02
  0
VERTEX
  8
0
 62
4
 10
3.88894821E+01
 20
2.43211339E+02
  0
VERTEX
  8
0
 62
4
 10
3.90027781E+01
 20
2.43272402E+02
  0
VERTEX
  8
0
 62
4
 10
3.90843513E+01
 20
2.43334972E+02
  0
VERTEX
  8
0
 62
4
 10
3.91335552E+01
 20
2.43398555E+02
  0
VERTEX
  8
0
 62
4
 10
3.91500000E+01
 20
2.43462645E+02
  0
SEQEND
  8
0
  0
ARC
  8
0
 62
4
 10
3.49922617E+01
 20
2.34305539E+02
 40
1.18100000E+01
 50
8.99624577E+01
 51
1.09675998E+02
  0
ARC
  8
0
 62
4
 10
3.50077383E+01
 20
2.34305539E+02
 40
1.18100000E+01
 50
7.03240015E+01
 51
9.00375421E+01
  0
LINE
  8
0
 62
4
 10
3.91500000E+01
 20
2.45190570E+02
 11
3.91500000E+01
 21
2.43462645E+02
  0
LINE
  8
0
 62
4
 10
3.08500000E+01
 20
2.45190570E+02
 11
3.08500000E+01
 21
2.45051461E+02
  0
LINE
  8
0
 62
4
 10
3.90000000E+01
 20
2.43088418E+02
 11
3.90000000E+01
 21
2.43270648E+02
  0
POLYLINE
  8
0
 62
4
 66
1
  0
VERTEX
  8
0
 62
4
 10
3.13000000E+01
 20
2.42824496E+02
  0
VERTEX
  8
0
 62
4
 10
3.14493080E+01
 20
2.42768576E+02
  0
VERTEX
  8
0
 62
4
 10
3.16265767E+01
 20
2.42715175E+02
  0
VERTEX
  8
0
 62
4
 10
3.18304101E+01
 20
2.42664713E+02
  0
VERTEX
  8
0
 62
4
 10
3.20592032E+01
 20
2.42617588E+02
  0
VERTEX
  8
0
 62
4
 10
3.23111542E+01
 20
2.42574170E+02
  0
VERTEX
  8
0
 62
4
 10
3.25842792E+01
 20
2.42534802E+02
  0
VERTEX
  8
0
 62
4
 10
3.28764273E+01
 20
2.42499793E+02
  0
VERTEX
  8
0
 62
4
 10
3.31852979E+01
 20
2.42469420E+02
  0
VERTEX
  8
0
 62
4
 10
3.35084588E+01
 20
2.42443921E+02
  0
VERTEX
  8
0
 62
4
 10
3.38433652E+01
 20
2.42423497E+02
  0
VERTEX
  8
0
 62
4
 10
3.41873798E+01
 20
2.42408310E+02
  0
VERTEX
  8
0
 62
4
 10
3.45377935E+01
 20
2.42398478E+02
  0
VERTEX
  8
0
 62
4
 10
3.48918469E+01
 20
2.42394079E+02
  0
VERTEX
  8
0
 62
4
 10
3.52467521E+01
 20
2.42395148E+02
  0
VERTEX
  8
0
 62
4
 10
3.55997141E+01
 20
2.42401676E+02
  0
VERTEX
  8
0
 62
4
 10
3.59479536E+01
 20
2.42413612E+02
  0
VERTEX
  8
0
 62
4
 10
3.62887281E+01
 20
2.42430863E+02
  0
VERTEX
  8
0
 62
4
 10
3.66193544E+01
 20
2.42453291E+02
  0
VERTEX
  8
0
 62
4
 10
3.69372286E+01
 20
2.42480720E+02
  0
VERTEX
  8
0
 62
4
 10
3.72398477E+01
 20
2.42512935E+02
  0
VERTEX
  8
0
 62
4
 10
3.75248286E+01
 20
2.42549682E+02
  0
VERTEX
  8
0
 62
4
 10
3.77899272E+01
 20
2.42590671E+02
  0
VERTEX
  8
0
 62
4
 10
3.80330559E+01
 20
2.42635580E+02
  0
VERTEX
  8
0
 62
4
 10
3.82523002E+01
 20
2.42684055E+02
  0
VERTEX
  8
0
 62
4
 10
3.84459334E+01
 20
2.42735714E+02
  0
VERTEX
  8
0
 62
4
 10
3.86124309E+01
 20
2.42790150E+02
  0
VERTEX
  8
0
 62
4
 10
3.87504816E+01
 20
2.42846935E+02
  0
VERTEX
  8
0
 62
4
 10
3.88589982E+01
 20
2.42905622E+02
  0
VERTEX
  8
0
 62
4
 10
3.89371263E+01
 20
2.42965749E+02
  0
VERTEX
  8
0
 62
4
 10
3.89842506E+01
 20
2.43026841E+02
  0
VERTEX
  8
0
 62
4
 10
3.90000000E+01
 20
2.43088418E+02
  0
SEQEND
  8
0
  0
ARC
  8
0
 62
4
 10
3.71186056E+01
 20
2.33604329E+02
 40
1.25124521E+01
 50
9.49416351E+01
 51
1.08095416E+02
  0
ARC
  8
0
 62
4
 10
3.28813942E+01
 20
2.33604327E+02
 40
1.25124547E+01
 50
7.19045858E+01
 51
8.50583647E+01
  0
POLYLINE
  8
0
 62
4
 66
1
  0
VERTEX
  8
0
 62
4
 10
3.08500000E+01
 20
2.45195907E+02
  0
VERTEX
  8
0
 62
4
 10
3.08667067E+01
 20
2.45131309E+02
  0
VERTEX
  8
0
 62
4
 10
3.09166922E+01
 20
2.45067232E+02
  0
VERTEX
  8
0
 62
4
 10
3.09995541E+01
 20
2.45004190E+02
  0
VERTEX
  8
0
 62
4
 10
3.11146253E+01
 20
2.44942692E+02
  0
VERTEX
  8
0
 62
4
 10
3.12609792E+01
 20
2.44883233E+02
  0
VERTEX
  8
0
 62
4
 10
3.14374375E+01
 20
2.44826291E+02
  0
VERTEX
  8
0
 62
4
 10
3.16425795E+01
 20
2.44772325E+02
  0
VERTEX
  8
0
 62
4
 10
3.18747534E+01
 20
2.44721770E+02
  0
VERTEX
  8
0
 62
4
 10
3.21320900E+01
 20
2.44675032E+02
  0
VERTEX
  8
0
 62
4
 10
3.24125173E+01
 20
2.44632488E+02
  0
VERTEX
  8
0
 62
4
 10
3.27137775E+01
 20
2.44594480E+02
  0
VERTEX
  8
0
 62
4
 10
3.30334450E+01
 20
2.44561315E+02
  0
VERTEX
  8
0
 62
4
 10
3.33689461E+01
 20
2.44533259E+02
  0
VERTEX
  8
0
 62
4
 10
3.37175795E+01
 20
2.44510538E+02
  0
VERTEX
  8
0
 62
4
 10
3.40765381E+01
 20
2.44493335E+02
  0
VERTEX
  8
0
 62
4
 10
3.44429319E+01
 20
2.44481789E+02
  0
VERTEX
  8
0
 62
4
 10
3.48138109E+01
 20
2.44475993E+02
  0
VERTEX
  8
0
 62
4
 10
3.51861890E+01
 20
2.44475993E+02
  0
VERTEX
  8
0
 62
4
 10
3.55570680E+01
 20
2.44481789E+02
  0
VERTEX
  8
0
 62
4
 10
3.59234619E+01
 20
2.44493335E+02
  0
VERTEX
  8
0
 62
4
 10
3.62824205E+01
 20
2.44510538E+02
  0
VERTEX
  8
0
 62
4
 10
3.66310539E+01
 20
2.44533259E+02
  0
VERTEX
  8
0
 62
4
 10
3.69665549E+01
 20
2.44561315E+02
  0
VERTEX
  8
0
 62
4
 10
3.72862225E+01
 20
2.44594480E+02
  0
VERTEX
  8
0
 62
4
 10
3.75874827E+01
 20
2.44632488E+02
  0
VERTEX
  8
0
 62
4
 10
3.78679100E+01
 20
2.44675032E+02
  0
VERTEX
  8
0
 62
4
 10
3.81252466E+01
 20
2.44721770E+02
  0
VERTEX
  8
0
 62
4
 10
3.83574205E+01
 20
2.44772325E+02
  0
VERTEX
  8
0
 62
4
 10
3.85625625E+01
 20
2.44826291E+02
  0
VERTEX
  8
0
 62
4
 10
3.87390208E+01
 20
2.44883233E+02
  0
VERTEX
  8
0
 62
4
 10
3.88853747E+01
 20
2.44942692E+02
  0
VERTEX
  8
0
 62
4
 10
3.90004459E+01
 20
2.45004190E+02
  0
VERTEX
  8
0
 62
4
 10
3.90833078E+01
 20
2.45067232E+02
  0
VERTEX
  8
0
 62
4
 10
3.91332933E+01
 20
2.45131309E+02
  0
VERTEX
  8
0
 62
4
 10
3.91500000E+01
 20
2.45195907E+02
  0
SEQEND
  8
0
  0
ARC
  8
0
 62
4
 10
3.89000000E+01
 20
2.45190570E+02
 40
2.50000000E-01
 50
0.00000000E+00
 51
7.03240015E+01
  0
ARC
  8
0
 62
4
 10
3.11000000E+01
 20
2.45190570E+02
 40
2.50000000E-01
 50
1.09675998E+02
 51
1.80000000E+02
  0
LINE
  8
0
 62
4
 10
3.13000000E+01
 20
2.43465457E+02
 11
3.13000000E+01
 21
2.42480650E+02
  0
LINE
  8
0
 62
4
 10
2.37000000E+01
 20
2.43465457E+02
 11
2.37000000E+01
 21
2.42480650E+02
  0
POLYLINE
  8
0
 62
4
 66
1
  0
VERTEX
  8
0
 62
4
 10
2.37000000E+01
 20
2.42480650E+02
  0
VERTEX
  8
0
 62
4
 10
2.37152977E+01
 20
2.42421500E+02
  0
VERTEX
  8
0
 62
4
 10
2.37610676E+01
 20
2.42362827E+02
  0
VERTEX
  8
0
 62
4
 10
2.38369411E+01
 20
2.42305102E+02
  0
VERTEX
  8
0
 62
4
 10
2.39423075E+01
 20
2.42248791E+02
  0
VERTEX
  8
0
 62
4
 10
2.40763183E+01
 20
2.42194346E+02
  0
VERTEX
  8
0
 62
4
 10
2.42378946E+01
 20
2.42142207E+02
  0
VERTEX
  8
0
 62
4
 10
2.44257354E+01
 20
2.42092792E+02
  0
VERTEX
  8
0
 62
4
 10
2.46383284E+01
 20
2.42046501E+02
  0
VERTEX
  8
0
 62
4
 10
2.48739619E+01
 20
2.42003704E+02
  0
VERTEX
  8
0
 62
4
 10
2.51307387E+01
 20
2.41964748E+02
  0
VERTEX
  8
0
 62
4
 10
2.54065915E+01
 20
2.41929946E+02
  0
VERTEX
  8
0
 62
4
 10
2.56992991E+01
 20
2.41899578E+02
  0
VERTEX
  8
0
 62
4
 10
2.60065049E+01
 20
2.41873888E+02
  0
VERTEX
  8
0
 62
4
 10
2.63257354E+01
 20
2.41853083E+02
  0
VERTEX
  8
0
 62
4
 10
2.66544204E+01
 20
2.41837331E+02
  0
VERTEX
  8
0
 62
4
 10
2.69899136E+01
 20
2.41826759E+02
  0
VERTEX
  8
0
 62
4
 10
2.73295136E+01
 20
2.41821451E+02
  0
VERTEX
  8
0
 62
4
 10
2.76704863E+01
 20
2.41821451E+02
  0
VERTEX
  8
0
 62
4
 10
2.80100864E+01
 20
2.41826759E+02
  0
VERTEX
  8
0
 62
4
 10
2.83455795E+01
 20
2.41837331E+02
  0
VERTEX
  8
0
 62
4
 10
2.86742646E+01
 20
2.41853083E+02
  0
VERTEX
  8
0
 62
4
 10
2.89934951E+01
 20
2.41873888E+02
  0
VERTEX
  8
0
 62
4
 10
2.93007009E+01
 20
2.41899578E+02
  0
VERTEX
  8
0
 62
4
 10
2.95934085E+01
 20
2.41929946E+02
  0
VERTEX
  8
0
 62
4
 10
2.98692612E+01
 20
2.41964748E+02
  0
VERTEX
  8
0
 62
4
 10
3.01260380E+01
 20
2.42003704E+02
  0
VERTEX
  8
0
 62
4
 10
3.03616716E+01
 20
2.42046501E+02
  0
VERTEX
  8
0
 62
4
 10
3.05742646E+01
 20
2.42092792E+02
  0
VERTEX
  8
0
 62
4
 10
3.07621054E+01
 20
2.42142207E+02
  0
VERTEX
  8
0
 62
4
 10
3.09236817E+01
 20
2.42194346E+02
  0
VERTEX
  8
0
 62
4
 10
3.10576925E+01
 20
2.42248791E+02
  0
VERTEX
  8
0
 62
4
 10
3.11630589E+01
 20
2.42305102E+02
  0
VERTEX
  8
0
 62
4
 10
3.12389324E+01
 20
2.42362827E+02
  0
VERTEX
  8
0
 62
4
 10
3.12847023E+01
 20
2.42421500E+02
  0
VERTEX
  8
0
 62
4
 10
3.13000000E+01
 20
2.42480650E+02
  0
SEQEND
  8
0
  0
POLYLINE
  8
0
 62
4
 66
1
  0
VERTEX
  8
0
 62
4
 10
2.41000000E+01
 20
2.43760148E+02
  0
VERTEX
  8
0
 62
4
 10
2.39634183E+01
 20
2.43706859E+02
  0
VERTEX
  8
0
 62
4
 10
2.38544705E+01
 20
2.43651683E+02
  0
VERTEX
  8
0
 62
4
 10
2.37740077E+01
 20
2.43595053E+02
  0
VERTEX
  8
0
 62
4
 10
2.37226587E+01
 20
2.43537410E+02
  0
VERTEX
  8
0
 62
4
 10
2.37008247E+01
 20
2.43479204E+02
  0
VERTEX
  8
0
 62
4
 10
2.37086764E+01
 20
2.43420891E+02
  0
VERTEX
  8
0
 62
4
 10
2.37461524E+01
 20
2.43362927E+02
  0
VERTEX
  8
0
 62
4
 10
2.38129598E+01
 20
2.43305764E+02
  0
VERTEX
  8
0
 62
4
 10
2.39085766E+01
 20
2.43249848E+02
  0
VERTEX
  8
0
 62
4
 10
2.40322558E+01
 20
2.43195617E+02
  0
VERTEX
  8
0
 62
4
 10
2.41830309E+01
 20
2.43143495E+02
  0
VERTEX
  8
0
 62
4
 10
2.43597238E+01
 20
2.43093888E+02
  0
VERTEX
  8
0
 62
4
 10
2.45609538E+01
 20
2.43047184E+02
  0
VERTEX
  8
0
 62
4
 10
2.47851488E+01
 20
2.43003749E+02
  0
VERTEX
  8
0
 62
4
 10
2.50305567E+01
 20
2.42963922E+02
  0
VERTEX
  8
0
 62
4
 10
2.52952602E+01
 20
2.42928013E+02
  0
VERTEX
  8
0
 62
4
 10
2.55771908E+01
 20
2.42896304E+02
  0
VERTEX
  8
0
 62
4
 10
2.58741457E+01
 20
2.42869042E+02
  0
VERTEX
  8
0
 62
4
 10
2.61838046E+01
 20
2.42846440E+02
  0
VERTEX
  8
0
 62
4
 10
2.65037478E+01
 20
2.42828675E+02
  0
VERTEX
  8
0
 62
4
 10
2.68314754E+01
 20
2.42815886E+02
  0
VERTEX
  8
0
 62
4
 10
2.71644267E+01
 20
2.42808172E+02
  0
VERTEX
  8
0
 62
4
 10
2.75000000E+01
 20
2.42805594E+02
  0
VERTEX
  8
0
 62
4
 10
2.78355734E+01
 20
2.42808172E+02
  0
VERTEX
  8
0
 62
4
 10
2.81685246E+01
 20
2.42815886E+02
  0
VERTEX
  8
0
 62
4
 10
2.84962523E+01
 20
2.42828675E+02
  0
VERTEX
  8
0
 62
4
 10
2.88161955E+01
 20
2.42846440E+02
  0
VERTEX
  8
0
 62
4
 10
2.91258543E+01
 20
2.42869042E+02
  0
VERTEX
  8
0
 62
4
 10
2.94228092E+01
 20
2.42896304E+02
  0
VERTEX
  8
0
 62
4
 10
2.97047399E+01
 20
2.42928013E+02
  0
VERTEX
  8
0
 62
4
 10
2.99694433E+01
 20
2.42963922E+02
  0
VERTEX
  8
0
 62
4
 10
3.02148513E+01
 20
2.43003749E+02
  0
VERTEX
  8
0
 62
4
 10
3.04390462E+01
 20
2.43047184E+02
  0
VERTEX
  8
0
 62
4
 10
3.06402763E+01
 20
2.43093888E+02
  0
VERTEX
  8
0
 62
4
 10
3.08169692E+01
 20
2.43143495E+02
  0
VERTEX
  8
0
 62
4
 10
3.09677442E+01
 20
2.43195617E+02
  0
VERTEX
  8
0
 62
4
 10
3.10914234E+01
 20
2.43249848E+02
  0
VERTEX
  8
0
 62
4
 10
3.11870402E+01
 20
2.43305764E+02
  0
VERTEX
  8
0
 62
4
 10
3.12538476E+01
 20
2.43362927E+02
  0
VERTEX
  8
0
 62
4
 10
3.12913236E+01
 20
2.43420891E+02
  0
VERTEX
  8
0
 62
4
 10
3.12991752E+01
 20
2.43479204E+02
  0
VERTEX
  8
0
 62
4
 10
3.12773413E+01
 20
2.43537410E+02
  0
VERTEX
  8
0
 62
4
 10
3.12259923E+01
 20
2.43595053E+02
  0
VERTEX
  8
0
 62
4
 10
3.11455295E+01
 20
2.43651683E+02
  0
VERTEX
  8
0
 62
4
 10
3.10365817E+01
 20
2.43706859E+02
  0
VERTEX
  8
0
 62
4
 10
3.09000000E+01
 20
2.43760148E+02
  0
SEQEND
  8
0
  0
LINE
  8
0
 62
4
 10
3.09000000E+01
 20
2.44739210E+02
 11
3.09000000E+01
 21
2.43465457E+02
  0
LINE
  8
0
 62
4
 10
2.41000000E+01
 20
2.44739210E+02
 11
2.41000000E+01
 21
2.43465457E+02
  0
POLYLINE
  8
0
 62
4
 66
1
  0
VERTEX
  8
0
 62
4
 10
2.41000000E+01
 20
2.43465457E+02
  0
VERTEX
  8
0
 62
4
 10
2.41136874E+01
 20
2.43412534E+02
  0
VERTEX
  8
0
 62
4
 10
2.41546394E+01
 20
2.43360036E+02
  0
VERTEX
  8
0
 62
4
 10
2.42225263E+01
 20
2.43308388E+02
  0
VERTEX
  8
0
 62
4
 10
2.43168014E+01
 20
2.43258004E+02
  0
VERTEX
  8
0
 62
4
 10
2.44367058E+01
 20
2.43209290E+02
  0
VERTEX
  8
0
 62
4
 10
2.45812741E+01
 20
2.43162639E+02
  0
VERTEX
  8
0
 62
4
 10
2.47493422E+01
 20
2.43118426E+02
  0
VERTEX
  8
0
 62
4
 10
2.49395570E+01
 20
2.43077007E+02
  0
VERTEX
  8
0
 62
4
 10
2.51503870E+01
 20
2.43038716E+02
  0
VERTEX
  8
0
 62
4
 10
2.53801347E+01
 20
2.43003861E+02
  0
VERTEX
  8
0
 62
4
 10
2.56269502E+01
 20
2.42972722E+02
  0
VERTEX
  8
0
 62
4
 10
2.58888465E+01
 20
2.42945550E+02
  0
VERTEX
  8
0
 62
4
 10
2.61637149E+01
 20
2.42922564E+02
  0
VERTEX
  8
0
 62
4
 10
2.64493422E+01
 20
2.42903950E+02
  0
VERTEX
  8
0
 62
4
 10
2.67434288E+01
 20
2.42889856E+02
  0
VERTEX
  8
0
 62
4
 10
2.70436069E+01
 20
2.42880396E+02
  0
VERTEX
  8
0
 62
4
 10
2.73474596E+01
 20
2.42875648E+02
  0
VERTEX
  8
0
 62
4
 10
2.76525404E+01
 20
2.42875648E+02
  0
VERTEX
  8
0
 62
4
 10
2.79563931E+01
 20
2.42880396E+02
  0
VERTEX
  8
0
 62
4
 10
2.82565712E+01
 20
2.42889856E+02
  0
VERTEX
  8
0
 62
4
 10
2.85506578E+01
 20
2.42903950E+02
  0
VERTEX
  8
0
 62
4
 10
2.88362851E+01
 20
2.42922564E+02
  0
VERTEX
  8
0
 62
4
 10
2.91111534E+01
 20
2.42945550E+02
  0
VERTEX
  8
0
 62
4
 10
2.93730497E+01
 20
2.42972722E+02
  0
VERTEX
  8
0
 62
4
 10
2.96198653E+01
 20
2.43003861E+02
  0
VERTEX
  8
0
 62
4
 10
2.98496130E+01
 20
2.43038716E+02
  0
VERTEX
  8
0
 62
4
 10
3.00604430E+01
 20
2.43077007E+02
  0
VERTEX
  8
0
 62
4
 10
3.02506578E+01
 20
2.43118426E+02
  0
VERTEX
  8
0
 62
4
 10
3.04187259E+01
 20
2.43162639E+02
  0
VERTEX
  8
0
 62
4
 10
3.05632941E+01
 20
2.43209290E+02
  0
VERTEX
  8
0
 62
4
 10
3.06831986E+01
 20
2.43258004E+02
  0
VERTEX
  8
0
 62
4
 10
3.07774737E+01
 20
2.43308388E+02
  0
VERTEX
  8
0
 62
4
 10
3.08453606E+01
 20
2.43360036E+02
  0
VERTEX
  8
0
 62
4
 10
3.08863126E+01
 20
2.43412534E+02
  0
VERTEX
  8
0
 62
4
 10
3.09000000E+01
 20
2.43465457E+02
  0
SEQEND
  8
0
  0
ARC
  8
0
 62
4
 10
2.75000000E+01
 20
2.34198997E+02
 40
1.18100000E+01
 50
7.71724899E+01
 51
1.02827510E+02
  0
ARC
  8
0
 62
4
 10
2.50999997E+01
 20
2.44739210E+02
 40
1.00000000E+00
 50
1.02827510E+02
 51
1.80000000E+02
  0
ARC
  8
0
 62
4
 10
2.99000003E+01
 20
2.44739210E+02
 40
1.00000000E+00
 50
3.60000000E+02
 51
7.71724899E+01
  0
ARC
  8
0
 62
4
 10
2.96217535E+01
 20
2.33479853E+02
 40
1.25306621E+01
 50
9.49686598E+01
 51
1.08083352E+02
  0
ARC
  8
0
 62
4
 10
2.53782464E+01
 20
2.33479853E+02
 40
1.25306626E+01
 50
7.19166483E+01
 51
8.50313400E+01
  0
LINE
  8
0
  6
CENTER
 62
6
 10
3.75000000E+01
 20
2.43088418E+02
 11
3.25000000E+01
 21
2.43088418E+02
  0
LINE
  8
0
  6
CENTER
 62
6
 10
2.75000000E+01
 20
2.39980650E+02
 11
2.75000000E+01
 21
2.44980650E+02
  0
LINE
  8
0
  6
CENTER
 62
6
 10
3.00000000E+01
 20
2.42480650E+02
 11
2.50000000E+01
 21
2.42480650E+02
  0
LINE
  8
0
  6
CENTER
 62
6
 10
4.25000000E+01
 20
2.39980650E+02
 11
4.25000000E+01
 21
2.44980650E+02
  0
LINE
  8
0
  6
CENTER
 62
6
 10
4.50000000E+01
 20
2.42480650E+02
 11
4.00000000E+01
 21
2.42480650E+02
  0
LINE
  8
0
 62
4
 10
2.37068894E+01
 20
2.43505174E+02
 11
2.00000000E+01
 21
2.43505174E+02
  0
LINE
  8
0
 62
6
 10
-1.40000000E+01
 20
2.84503290E+02
 11
-1.40000000E+01
 21
2.82152253E+02
  0
LINE
  8
0
 62
6
 10
-1.10000000E+01
 20
2.84503290E+02
 11
-1.10000000E+01
 21
2.82152253E+02
  0
LINE
  8
0
 62
4
 10
-1.45000000E+01
 20
2.84273575E+02
 11
-1.45000000E+01
 21
2.82152253E+02
  0
LINE
  8
0
 62
4
 10
-1.05000000E+01
 20
2.84273575E+02
 11
-1.05000000E+01
 21
2.82152253E+02
  0
LINE
  8
0
 62
4
 10
-2.40000000E+01
 20
2.82152253E+02
 11
-2.40000000E+01
 21
2.69444256E+02
  0
LINE
  8
0
 62
4
 10
-9.00000000E+00
 20
2.82152253E+02
 11
-9.00000000E+00
 21
2.56522366E+02
  0
LINE
  8
0
  6
CENTER
 62
6
 10
-1.25000000E+01
 20
2.87615548E+02
 11
-1.25000000E+01
 21
2.77349969E+02
  0
LINE
  8
0
  6
CENTER
 62
6
 10
-2.05000000E+01
 20
2.87615548E+02
 11
-2.05000000E+01
 21
2.77349969E+02
  0
LINE
  8
0
  6
CENTER
 62
6
 10
-2.40000000E+01
 20
2.60411551E+02
 11
-2.40000000E+01
 21
2.55411551E+02
  0
LINE
  8
0
 62
4
 10
-2.40000000E+01
 20
2.82152253E+02
 11
-9.00000001E+00
 21
2.82152253E+02
  0
LINE
  8
0
 62
4
 10
-2.40000000E+01
 20
2.76337911E+02
 11
-9.00000001E+00
 21
2.76337911E+02
  0
LINE
  8
0
 62
4
 10
-1.31000000E+01
 20
2.56522366E+02
 11
-9.00000000E+00
 21
2.56522366E+02
  0
LINE
  8
0
 62
4
 10
-1.31000000E+01
 20
2.56696014E+02
 11
-9.00000000E+00
 21
2.56696014E+02
  0
POLYLINE
  8
0
 62
4
 66
1
  0
VERTEX
  8
0
 62
4
 10
-1.05000000E+01
 20
2.84273575E+02
  0
VERTEX
  8
0
 62
4
 10
-1.05080514E+01
 20
2.84304706E+02
  0
VERTEX
  8
0
 62
4
 10
-1.05321408E+01
 20
2.84335587E+02
  0
VERTEX
  8
0
 62
4
 10
-1.05720743E+01
 20
2.84365969E+02
  0
VERTEX
  8
0
 62
4
 10
-1.06275303E+01
 20
2.84395606E+02
  0
VERTEX
  8
0
 62
4
 10
-1.06980623E+01
 20
2.84424261E+02
  0
VERTEX
  8
0
 62
4
 10
-1.07831024E+01
 20
2.84451703E+02
  0
VERTEX
  8
0
 62
4
 10
-1.08819660E+01
 20
2.84477711E+02
  0
VERTEX
  8
0
 62
4
 10
-1.09938571E+01
 20
2.84502075E+02
  0
VERTEX
  8
0
 62
4
 10
-1.11178747E+01
 20
2.84524599E+02
  0
VERTEX
  8
0
 62
4
 10
-1.12530204E+01
 20
2.84545102E+02
  0
VERTEX
  8
0
 62
4
 10
-1.13982060E+01
 20
2.84563419E+02
  0
VERTEX
  8
0
 62
4
 10
-1.15522627E+01
 20
2.84579403E+02
  0
VERTEX
  8
0
 62
4
 10
-1.17139499E+01
 20
2.84592924E+02
  0
VERTEX
  8
0
 62
4
 10
-1.18819660E+01
 20
2.84603873E+02
  0
VERTEX
  8
0
 62
4
 10
-1.20549581E+01
 20
2.84612164E+02
  0
VERTEX
  8
0
 62
4
 10
-1.22315335E+01
 20
2.84617728E+02
  0
VERTEX
  8
0
 62
4
 10
-1.24102703E+01
 20
2.84620522E+02
  0
VERTEX
  8
0
 62
4
 10
-1.25897296E+01
 20
2.84620522E+02
  0
VERTEX
  8
0
 62
4
 10
-1.27684665E+01
 20
2.84617728E+02
  0
VERTEX
  8
0
 62
4
 10
-1.29450419E+01
 20
2.84612164E+02
  0
VERTEX
  8
0
 62
4
 10
-1.31180340E+01
 20
2.84603873E+02
  0
VERTEX
  8
0
 62
4
 10
-1.32860501E+01
 20
2.84592924E+02
  0
VERTEX
  8
0
 62
4
 10
-1.34477373E+01
 20
2.84579403E+02
  0
VERTEX
  8
0
 62
4
 10
-1.36017940E+01
 20
2.84563419E+02
  0
VERTEX
  8
0
 62
4
 10
-1.37469796E+01
 20
2.84545102E+02
  0
VERTEX
  8
0
 62
4
 10
-1.38821253E+01
 20
2.84524599E+02
  0
VERTEX
  8
0
 62
4
 10
-1.40061429E+01
 20
2.84502075E+02
  0
VERTEX
  8
0
 62
4
 10
-1.41180340E+01
 20
2.84477711E+02
  0
VERTEX
  8
0
 62
4
 10
-1.42168976E+01
 20
2.84451703E+02
  0
VERTEX
  8
0
 62
4
 10
-1.43019377E+01
 20
2.84424261E+02
  0
VERTEX
  8
0
 62
4
 10
-1.43724697E+01
 20
2.84395606E+02
  0
VERTEX
  8
0
 62
4
 10
-1.44279257E+01
 20
2.84365969E+02
  0
VERTEX
  8
0
 62
4
 10
-1.44678592E+01
 20
2.84335587E+02
  0
VERTEX
  8
0
 62
4
 10
-1.44919486E+01
 20
2.84304706E+02
  0
VERTEX
  8
0
 62
4
 10
-1.45000000E+01
 20
2.84273575E+02
  0
SEQEND
  8
0
  0
LINE
  8
0
 62
6
 10
-2.20000000E+01
 20
2.84503290E+02
 11
-2.20000000E+01
 21
2.82152253E+02
  0
LINE
  8
0
 62
6
 10
-1.90000000E+01
 20
2.84503290E+02
 11
-1.90000000E+01
 21
2.82152253E+02
  0
LINE
  8
0
 62
4
 10
-2.25000000E+01
 20
2.84273575E+02
 11
-2.25000000E+01
 21
2.82152253E+02
  0
LINE
  8
0
 62
4
 10
-1.85000000E+01
 20
2.84273575E+02
 11
-1.85000000E+01
 21
2.82152253E+02
  0
POLYLINE
  8
0
 62
4
 66
1
  0
VERTEX
  8
0
 62
4
 10
-1.85000000E+01
 20
2.84273575E+02
  0
VERTEX
  8
0
 62
4
 10
-1.85080514E+01
 20
2.84304706E+02
  0
VERTEX
  8
0
 62
4
 10
-1.85321408E+01
 20
2.84335587E+02
  0
VERTEX
  8
0
 62
4
 10
-1.85720743E+01
 20
2.84365969E+02
  0
VERTEX
  8
0
 62
4
 10
-1.86275303E+01
 20
2.84395606E+02
  0
VERTEX
  8
0
 62
4
 10
-1.86980623E+01
 20
2.84424261E+02
  0
VERTEX
  8
0
 62
4
 10
-1.87831024E+01
 20
2.84451703E+02
  0
VERTEX
  8
0
 62
4
 10
-1.88819660E+01
 20
2.84477711E+02
  0
VERTEX
  8
0
 62
4
 10
-1.89938571E+01
 20
2.84502075E+02
  0
VERTEX
  8
0
 62
4
 10
-1.91178747E+01
 20
2.84524599E+02
  0
VERTEX
  8
0
 62
4
 10
-1.92530204E+01
 20
2.84545102E+02
  0
VERTEX
  8
0
 62
4
 10
-1.93982060E+01
 20
2.84563419E+02
  0
VERTEX
  8
0
 62
4
 10
-1.95522627E+01
 20
2.84579403E+02
  0
VERTEX
  8
0
 62
4
 10
-1.97139499E+01
 20
2.84592924E+02
  0
VERTEX
  8
0
 62
4
 10
-1.98819660E+01
 20
2.84603873E+02
  0
VERTEX
  8
0
 62
4
 10
-2.00549581E+01
 20
2.84612164E+02
  0
VERTEX
  8
0
 62
4
 10
-2.02315335E+01
 20
2.84617728E+02
  0
VERTEX
  8
0
 62
4
 10
-2.04102703E+01
 20
2.84620522E+02
  0
VERTEX
  8
0
 62
4
 10
-2.05897296E+01
 20
2.84620522E+02
  0
VERTEX
  8
0
 62
4
 10
-2.07684665E+01
 20
2.84617728E+02
  0
VERTEX
  8
0
 62
4
 10
-2.09450419E+01
 20
2.84612164E+02
  0
VERTEX
  8
0
 62
4
 10
-2.11180340E+01
 20
2.84603873E+02
  0
VERTEX
  8
0
 62
4
 10
-2.12860501E+01
 20
2.84592924E+02
  0
VERTEX
  8
0
 62
4
 10
-2.14477373E+01
 20
2.84579403E+02
  0
VERTEX
  8
0
 62
4
 10
-2.16017940E+01
 20
2.84563419E+02
  0
VERTEX
  8
0
 62
4
 10
-2.17469796E+01
 20
2.84545102E+02
  0
VERTEX
  8
0
 62
4
 10
-2.18821253E+01
 20
2.84524599E+02
  0
VERTEX
  8
0
 62
4
 10
-2.20061429E+01
 20
2.84502075E+02
  0
VERTEX
  8
0
 62
4
 10
-2.21180340E+01
 20
2.84477711E+02
  0
VERTEX
  8
0
 62
4
 10
-2.22168976E+01
 20
2.84451703E+02
  0
VERTEX
  8
0
 62
4
 10
-2.23019377E+01
 20
2.84424261E+02
  0
VERTEX
  8
0
 62
4
 10
-2.23724697E+01
 20
2.84395606E+02
  0
VERTEX
  8
0
 62
4
 10
-2.24279257E+01
 20
2.84365969E+02
  0
VERTEX
  8
0
 62
4
 10
-2.24678592E+01
 20
2.84335587E+02
  0
VERTEX
  8
0
 62
4
 10
-2.24919486E+01
 20
2.84304706E+02
  0
VERTEX
  8
0
 62
4
 10
-2.25000000E+01
 20
2.84273575E+02
  0
SEQEND
  8
0
  0
POLYLINE
  8
0
 62
4
 66
1
  0
VERTEX
  8
0
 62
4
 10
-2.03000000E+01
 20
2.57863695E+02
  0
VERTEX
  8
0
 62
4
 10
-2.04818150E+01
 20
2.57919542E+02
  0
VERTEX
  8
0
 62
4
 10
-2.06915122E+01
 20
2.57972361E+02
  0
VERTEX
  8
0
 62
4
 10
-2.09274299E+01
 20
2.58021731E+02
  0
VERTEX
  8
0
 62
4
 10
-2.11876982E+01
 20
2.58067263E+02
  0
VERTEX
  8
0
 62
4
 10
-2.14702545E+01
 20
2.58108594E+02
  0
VERTEX
  8
0
 62
4
 10
-2.17728596E+01
 20
2.58145399E+02
  0
VERTEX
  8
0
 62
4
 10
-2.20931151E+01
 20
2.58177384E+02
  0
VERTEX
  8
0
 62
4
 10
-2.24284831E+01
 20
2.58204297E+02
  0
VERTEX
  8
0
 62
4
 10
-2.27763056E+01
 20
2.58225923E+02
  0
VERTEX
  8
0
 62
4
 10
-2.31338262E+01
 20
2.58242093E+02
  0
VERTEX
  8
0
 62
4
 10
-2.34982113E+01
 20
2.58252677E+02
  0
VERTEX
  8
0
 62
4
 10
-2.38665732E+01
 20
2.58257591E+02
  0
VERTEX
  8
0
 62
4
 10
-2.42359925E+01
 20
2.58256798E+02
  0
VERTEX
  8
0
 62
4
 10
-2.46035416E+01
 20
2.58250302E+02
  0
VERTEX
  8
0
 62
4
 10
-2.49663074E+01
 20
2.58238156E+02
  0
VERTEX
  8
0
 62
4
 10
-2.53214151E+01
 20
2.58220456E+02
  0
VERTEX
  8
0
 62
4
 10
-2.56660504E+01
 20
2.58197342E+02
  0
VERTEX
  8
0
 62
4
 10
-2.59974818E+01
 20
2.58168997E+02
  0
VERTEX
  8
0
 62
4
 10
-2.63130829E+01
 20
2.58135646E+02
  0
VERTEX
  8
0
 62
4
 10
-2.66103523E+01
 20
2.58097553E+02
  0
VERTEX
  8
0
 62
4
 10
-2.68869343E+01
 20
2.58055020E+02
  0
VERTEX
  8
0
 62
4
 10
-2.71406367E+01
 20
2.58008385E+02
  0
VERTEX
  8
0
 62
4
 10
-2.73694490E+01
 20
2.57958016E+02
  0
VERTEX
  8
0
 62
4
 10
-2.75715578E+01
 20
2.57904313E+02
  0
VERTEX
  8
0
 62
4
 10
-2.77453613E+01
 20
2.57847701E+02
  0
VERTEX
  8
0
 62
4
 10
-2.78894821E+01
 20
2.57788630E+02
  0
VERTEX
  8
0
 62
4
 10
-2.80027781E+01
 20
2.57727567E+02
  0
VERTEX
  8
0
 62
4
 10
-2.80843513E+01
 20
2.57664997E+02
  0
VERTEX
  8
0
 62
4
 10
-2.81335552E+01
 20
2.57601414E+02
  0
VERTEX
  8
0
 62
4
 10
-2.81500000E+01
 20
2.57537324E+02
  0
SEQEND
  8
0
  0
ARC
  8
0
 62
4
 10
-2.39922617E+01
 20
2.66694430E+02
 40
1.18100000E+01
 50
2.69962458E+02
 51
2.89675999E+02
  0
ARC
  8
0
 62
4
 10
-2.40077383E+01
 20
2.66694430E+02
 40
1.18100000E+01
 50
2.50324001E+02
 51
2.70037542E+02
  0
LINE
  8
0
 62
4
 10
-2.81500000E+01
 20
2.55809399E+02
 11
-2.81500000E+01
 21
2.57537324E+02
  0
LINE
  8
0
 62
4
 10
-1.98500000E+01
 20
2.55809399E+02
 11
-1.98500000E+01
 21
2.55948509E+02
  0
LINE
  8
0
 62
4
 10
-2.80000000E+01
 20
2.57911551E+02
 11
-2.80000000E+01
 21
2.57729321E+02
  0
POLYLINE
  8
0
 62
4
 66
1
  0
VERTEX
  8
0
 62
4
 10
-2.03000000E+01
 20
2.58175473E+02
  0
VERTEX
  8
0
 62
4
 10
-2.04493080E+01
 20
2.58231393E+02
  0
VERTEX
  8
0
 62
4
 10
-2.06265767E+01
 20
2.58284794E+02
  0
VERTEX
  8
0
 62
4
 10
-2.08304101E+01
 20
2.58335256E+02
  0
VERTEX
  8
0
 62
4
 10
-2.10592032E+01
 20
2.58382381E+02
  0
VERTEX
  8
0
 62
4
 10
-2.13111542E+01
 20
2.58425799E+02
  0
VERTEX
  8
0
 62
4
 10
-2.15842792E+01
 20
2.58465167E+02
  0
VERTEX
  8
0
 62
4
 10
-2.18764273E+01
 20
2.58500176E+02
  0
VERTEX
  8
0
 62
4
 10
-2.21852979E+01
 20
2.58530549E+02
  0
VERTEX
  8
0
 62
4
 10
-2.25084588E+01
 20
2.58556048E+02
  0
VERTEX
  8
0
 62
4
 10
-2.28433652E+01
 20
2.58576472E+02
  0
VERTEX
  8
0
 62
4
 10
-2.31873798E+01
 20
2.58591659E+02
  0
VERTEX
  8
0
 62
4
 10
-2.35377935E+01
 20
2.58601491E+02
  0
VERTEX
  8
0
 62
4
 10
-2.38918469E+01
 20
2.58605890E+02
  0
VERTEX
  8
0
 62
4
 10
-2.42467521E+01
 20
2.58604821E+02
  0
VERTEX
  8
0
 62
4
 10
-2.45997141E+01
 20
2.58598293E+02
  0
VERTEX
  8
0
 62
4
 10
-2.49479536E+01
 20
2.58586357E+02
  0
VERTEX
  8
0
 62
4
 10
-2.52887281E+01
 20
2.58569106E+02
  0
VERTEX
  8
0
 62
4
 10
-2.56193543E+01
 20
2.58546678E+02
  0
VERTEX
  8
0
 62
4
 10
-2.59372286E+01
 20
2.58519249E+02
  0
VERTEX
  8
0
 62
4
 10
-2.62398477E+01
 20
2.58487034E+02
  0
VERTEX
  8
0
 62
4
 10
-2.65248286E+01
 20
2.58450287E+02
  0
VERTEX
  8
0
 62
4
 10
-2.67899272E+01
 20
2.58409298E+02
  0
VERTEX
  8
0
 62
4
 10
-2.70330559E+01
 20
2.58364389E+02
  0
VERTEX
  8
0
 62
4
 10
-2.72523002E+01
 20
2.58315914E+02
  0
VERTEX
  8
0
 62
4
 10
-2.74459334E+01
 20
2.58264255E+02
  0
VERTEX
  8
0
 62
4
 10
-2.76124309E+01
 20
2.58209819E+02
  0
VERTEX
  8
0
 62
4
 10
-2.77504816E+01
 20
2.58153034E+02
  0
VERTEX
  8
0
 62
4
 10
-2.78589982E+01
 20
2.58094347E+02
  0
VERTEX
  8
0
 62
4
 10
-2.79371262E+01
 20
2.58034221E+02
  0
VERTEX
  8
0
 62
4
 10
-2.79842506E+01
 20
2.57973128E+02
  0
VERTEX
  8
0
 62
4
 10
-2.80000000E+01
 20
2.57911551E+02
  0
SEQEND
  8
0
  0
ARC
  8
0
 62
4
 10
-2.61186056E+01
 20
2.67395640E+02
 40
1.25124521E+01
 50
2.74941635E+02
 51
2.88095416E+02
  0
ARC
  8
0
 62
4
 10
-2.18813942E+01
 20
2.67395643E+02
 40
1.25124547E+01
 50
2.51904586E+02
 51
2.65058365E+02
  0
POLYLINE
  8
0
 62
4
 66
1
  0
VERTEX
  8
0
 62
4
 10
-1.98500000E+01
 20
2.55804063E+02
  0
VERTEX
  8
0
 62
4
 10
-1.98667067E+01
 20
2.55868661E+02
  0
VERTEX
  8
0
 62
4
 10
-1.99166922E+01
 20
2.55932738E+02
  0
VERTEX
  8
0
 62
4
 10
-1.99995541E+01
 20
2.55995780E+02
  0
VERTEX
  8
0
 62
4
 10
-2.01146253E+01
 20
2.56057278E+02
  0
VERTEX
  8
0
 62
4
 10
-2.02609792E+01
 20
2.56116737E+02
  0
VERTEX
  8
0
 62
4
 10
-2.04374375E+01
 20
2.56173679E+02
  0
VERTEX
  8
0
 62
4
 10
-2.06425795E+01
 20
2.56227645E+02
  0
VERTEX
  8
0
 62
4
 10
-2.08747534E+01
 20
2.56278200E+02
  0
VERTEX
  8
0
 62
4
 10
-2.11320900E+01
 20
2.56324938E+02
  0
VERTEX
  8
0
 62
4
 10
-2.14125173E+01
 20
2.56367482E+02
  0
VERTEX
  8
0
 62
4
 10
-2.17137775E+01
 20
2.56405490E+02
  0
VERTEX
  8
0
 62
4
 10
-2.20334450E+01
 20
2.56438655E+02
  0
VERTEX
  8
0
 62
4
 10
-2.23689461E+01
 20
2.56466711E+02
  0
VERTEX
  8
0
 62
4
 10
-2.27175794E+01
 20
2.56489432E+02
  0
VERTEX
  8
0
 62
4
 10
-2.30765381E+01
 20
2.56506635E+02
  0
VERTEX
  8
0
 62
4
 10
-2.34429319E+01
 20
2.56518181E+02
  0
VERTEX
  8
0
 62
4
 10
-2.38138109E+01
 20
2.56523977E+02
  0
VERTEX
  8
0
 62
4
 10
-2.41861890E+01
 20
2.56523977E+02
  0
VERTEX
  8
0
 62
4
 10
-2.45570680E+01
 20
2.56518181E+02
  0
VERTEX
  8
0
 62
4
 10
-2.49234619E+01
 20
2.56506635E+02
  0
VERTEX
  8
0
 62
4
 10
-2.52824205E+01
 20
2.56489432E+02
  0
VERTEX
  8
0
 62
4
 10
-2.56310539E+01
 20
2.56466711E+02
  0
VERTEX
  8
0
 62
4
 10
-2.59665549E+01
 20
2.56438655E+02
  0
VERTEX
  8
0
 62
4
 10
-2.62862225E+01
 20
2.56405490E+02
  0
VERTEX
  8
0
 62
4
 10
-2.65874827E+01
 20
2.56367482E+02
  0
VERTEX
  8
0
 62
4
 10
-2.68679100E+01
 20
2.56324938E+02
  0
VERTEX
  8
0
 62
4
 10
-2.71252466E+01
 20
2.56278200E+02
  0
VERTEX
  8
0
 62
4
 10
-2.73574205E+01
 20
2.56227645E+02
  0
VERTEX
  8
0
 62
4
 10
-2.75625625E+01
 20
2.56173679E+02
  0
VERTEX
  8
0
 62
4
 10
-2.77390208E+01
 20
2.56116737E+02
  0
VERTEX
  8
0
 62
4
 10
-2.78853747E+01
 20
2.56057278E+02
  0
VERTEX
  8
0
 62
4
 10
-2.80004459E+01
 20
2.55995780E+02
  0
VERTEX
  8
0
 62
4
 10
-2.80833078E+01
 20
2.55932738E+02
  0
VERTEX
  8
0
 62
4
 10
-2.81332933E+01
 20
2.55868661E+02
  0
VERTEX
  8
0
 62
4
 10
-2.81500000E+01
 20
2.55804063E+02
  0
SEQEND
  8
0
  0
ARC
  8
0
 62
4
 10
-2.79000000E+01
 20
2.55809399E+02
 40
2.50000000E-01
 50
1.80000000E+02
 51
2.50324001E+02
  0
ARC
  8
0
 62
4
 10
-2.01000000E+01
 20
2.55809399E+02
 40
2.50000000E-01
 50
2.89675999E+02
 51
0.00000000E+00
  0
LINE
  8
0
 62
4
 10
-2.03000000E+01
 20
2.57534512E+02
 11
-2.03000000E+01
 21
2.58519320E+02
  0
LINE
  8
0
 62
4
 10
-1.27000000E+01
 20
2.57534512E+02
 11
-1.27000000E+01
 21
2.58519320E+02
  0
POLYLINE
  8
0
 62
4
 66
1
  0
VERTEX
  8
0
 62
4
 10
-1.27000000E+01
 20
2.58519320E+02
  0
VERTEX
  8
0
 62
4
 10
-1.27152977E+01
 20
2.58578470E+02
  0
VERTEX
  8
0
 62
4
 10
-1.27610676E+01
 20
2.58637143E+02
  0
VERTEX
  8
0
 62
4
 10
-1.28369411E+01
 20
2.58694868E+02
  0
VERTEX
  8
0
 62
4
 10
-1.29423075E+01
 20
2.58751179E+02
  0
VERTEX
  8
0
 62
4
 10
-1.30763183E+01
 20
2.58805624E+02
  0
VERTEX
  8
0
 62
4
 10
-1.32378946E+01
 20
2.58857763E+02
  0
VERTEX
  8
0
 62
4
 10
-1.34257354E+01
 20
2.58907178E+02
  0
VERTEX
  8
0
 62
4
 10
-1.36383284E+01
 20
2.58953469E+02
  0
VERTEX
  8
0
 62
4
 10
-1.38739619E+01
 20
2.58996266E+02
  0
VERTEX
  8
0
 62
4
 10
-1.41307387E+01
 20
2.59035222E+02
  0
VERTEX
  8
0
 62
4
 10
-1.44065915E+01
 20
2.59070024E+02
  0
VERTEX
  8
0
 62
4
 10
-1.46992991E+01
 20
2.59100392E+02
  0
VERTEX
  8
0
 62
4
 10
-1.50065049E+01
 20
2.59126082E+02
  0
VERTEX
  8
0
 62
4
 10
-1.53257354E+01
 20
2.59146887E+02
  0
VERTEX
  8
0
 62
4
 10
-1.56544204E+01
 20
2.59162639E+02
  0
VERTEX
  8
0
 62
4
 10
-1.59899136E+01
 20
2.59173211E+02
  0
VERTEX
  8
0
 62
4
 10
-1.63295136E+01
 20
2.59178519E+02
  0
VERTEX
  8
0
 62
4
 10
-1.66704863E+01
 20
2.59178519E+02
  0
VERTEX
  8
0
 62
4
 10
-1.70100864E+01
 20
2.59173211E+02
  0
VERTEX
  8
0
 62
4
 10
-1.73455795E+01
 20
2.59162639E+02
  0
VERTEX
  8
0
 62
4
 10
-1.76742646E+01
 20
2.59146887E+02
  0
VERTEX
  8
0
 62
4
 10
-1.79934951E+01
 20
2.59126082E+02
  0
VERTEX
  8
0
 62
4
 10
-1.83007009E+01
 20
2.59100392E+02
  0
VERTEX
  8
0
 62
4
 10
-1.85934085E+01
 20
2.59070024E+02
  0
VERTEX
  8
0
 62
4
 10
-1.88692612E+01
 20
2.59035222E+02
  0
VERTEX
  8
0
 62
4
 10
-1.91260380E+01
 20
2.58996266E+02
  0
VERTEX
  8
0
 62
4
 10
-1.93616716E+01
 20
2.58953469E+02
  0
VERTEX
  8
0
 62
4
 10
-1.95742646E+01
 20
2.58907178E+02
  0
VERTEX
  8
0
 62
4
 10
-1.97621054E+01
 20
2.58857763E+02
  0
VERTEX
  8
0
 62
4
 10
-1.99236817E+01
 20
2.58805624E+02
  0
VERTEX
  8
0
 62
4
 10
-2.00576925E+01
 20
2.58751179E+02
  0
VERTEX
  8
0
 62
4
 10
-2.01630589E+01
 20
2.58694868E+02
  0
VERTEX
  8
0
 62
4
 10
-2.02389324E+01
 20
2.58637143E+02
  0
VERTEX
  8
0
 62
4
 10
-2.02847023E+01
 20
2.58578470E+02
  0
VERTEX
  8
0
 62
4
 10
-2.03000000E+01
 20
2.58519320E+02
  0
SEQEND
  8
0
  0
POLYLINE
  8
0
 62
4
 66
1
  0
VERTEX
  8
0
 62
4
 10
-1.31000000E+01
 20
2.57239821E+02
  0
VERTEX
  8
0
 62
4
 10
-1.29634183E+01
 20
2.57293110E+02
  0
VERTEX
  8
0
 62
4
 10
-1.28544705E+01
 20
2.57348286E+02
  0
VERTEX
  8
0
 62
4
 10
-1.27740077E+01
 20
2.57404916E+02
  0
VERTEX
  8
0
 62
4
 10
-1.27226587E+01
 20
2.57462559E+02
  0
VERTEX
  8
0
 62
4
 10
-1.27008247E+01
 20
2.57520765E+02
  0
VERTEX
  8
0
 62
4
 10
-1.27086764E+01
 20
2.57579078E+02
  0
VERTEX
  8
0
 62
4
 10
-1.27461524E+01
 20
2.57637042E+02
  0
VERTEX
  8
0
 62
4
 10
-1.28129598E+01
 20
2.57694205E+02
  0
VERTEX
  8
0
 62
4
 10
-1.29085766E+01
 20
2.57750121E+02
  0
VERTEX
  8
0
 62
4
 10
-1.30322558E+01
 20
2.57804352E+02
  0
VERTEX
  8
0
 62
4
 10
-1.31830309E+01
 20
2.57856474E+02
  0
VERTEX
  8
0
 62
4
 10
-1.33597238E+01
 20
2.57906081E+02
  0
VERTEX
  8
0
 62
4
 10
-1.35609538E+01
 20
2.57952785E+02
  0
VERTEX
  8
0
 62
4
 10
-1.37851488E+01
 20
2.57996220E+02
  0
VERTEX
  8
0
 62
4
 10
-1.40305567E+01
 20
2.58036047E+02
  0
VERTEX
  8
0
 62
4
 10
-1.42952602E+01
 20
2.58071956E+02
  0
VERTEX
  8
0
 62
4
 10
-1.45771908E+01
 20
2.58103665E+02
  0
VERTEX
  8
0
 62
4
 10
-1.48741457E+01
 20
2.58130927E+02
  0
VERTEX
  8
0
 62
4
 10
-1.51838046E+01
 20
2.58153529E+02
  0
VERTEX
  8
0
 62
4
 10
-1.55037478E+01
 20
2.58171294E+02
  0
VERTEX
  8
0
 62
4
 10
-1.58314754E+01
 20
2.58184083E+02
  0
VERTEX
  8
0
 62
4
 10
-1.61644267E+01
 20
2.58191797E+02
  0
VERTEX
  8
0
 62
4
 10
-1.65000000E+01
 20
2.58194375E+02
  0
VERTEX
  8
0
 62
4
 10
-1.68355734E+01
 20
2.58191797E+02
  0
VERTEX
  8
0
 62
4
 10
-1.71685246E+01
 20
2.58184083E+02
  0
VERTEX
  8
0
 62
4
 10
-1.74962523E+01
 20
2.58171294E+02
  0
VERTEX
  8
0
 62
4
 10
-1.78161955E+01
 20
2.58153529E+02
  0
VERTEX
  8
0
 62
4
 10
-1.81258543E+01
 20
2.58130927E+02
  0
VERTEX
  8
0
 62
4
 10
-1.84228092E+01
 20
2.58103665E+02
  0
VERTEX
  8
0
 62
4
 10
-1.87047399E+01
 20
2.58071956E+02
  0
VERTEX
  8
0
 62
4
 10
-1.89694433E+01
 20
2.58036047E+02
  0
VERTEX
  8
0
 62
4
 10
-1.92148513E+01
 20
2.57996220E+02
  0
VERTEX
  8
0
 62
4
 10
-1.94390462E+01
 20
2.57952785E+02
  0
VERTEX
  8
0
 62
4
 10
-1.96402763E+01
 20
2.57906081E+02
  0
VERTEX
  8
0
 62
4
 10
-1.98169692E+01
 20
2.57856474E+02
  0
VERTEX
  8
0
 62
4
 10
-1.99677442E+01
 20
2.57804352E+02
  0
VERTEX
  8
0
 62
4
 10
-2.00914234E+01
 20
2.57750121E+02
  0
VERTEX
  8
0
 62
4
 10
-2.01870402E+01
 20
2.57694206E+02
  0
VERTEX
  8
0
 62
4
 10
-2.02538476E+01
 20
2.57637042E+02
  0
VERTEX
  8
0
 62
4
 10
-2.02913236E+01
 20
2.57579078E+02
  0
VERTEX
  8
0
 62
4
 10
-2.02991753E+01
 20
2.57520765E+02
  0
VERTEX
  8
0
 62
4
 10
-2.02773413E+01
 20
2.57462559E+02
  0
VERTEX
  8
0
 62
4
 10
-2.02259923E+01
 20
2.57404916E+02
  0
VERTEX
  8
0
 62
4
 10
-2.01455295E+01
 20
2.57348286E+02
  0
VERTEX
  8
0
 62
4
 10
-2.00365817E+01
 20
2.57293110E+02
  0
VERTEX
  8
0
 62
4
 10
-1.99000000E+01
 20
2.57239821E+02
  0
SEQEND
  8
0
  0
LINE
  8
0
 62
4
 10
-1.99000000E+01
 20
2.56260760E+02
 11
-1.99000000E+01
 21
2.57534512E+02
  0
LINE
  8
0
 62
4
 10
-1.31000000E+01
 20
2.56260760E+02
 11
-1.31000000E+01
 21
2.57534512E+02
  0
POLYLINE
  8
0
 62
4
 66
1
  0
VERTEX
  8
0
 62
4
 10
-1.31000000E+01
 20
2.57534512E+02
  0
VERTEX
  8
0
 62
4
 10
-1.31136874E+01
 20
2.57587435E+02
  0
VERTEX
  8
0
 62
4
 10
-1.31546394E+01
 20
2.57639933E+02
  0
VERTEX
  8
0
 62
4
 10
-1.32225263E+01
 20
2.57691581E+02
  0
VERTEX
  8
0
 62
4
 10
-1.33168014E+01
 20
2.57741965E+02
  0
VERTEX
  8
0
 62
4
 10
-1.34367058E+01
 20
2.57790679E+02
  0
VERTEX
  8
0
 62
4
 10
-1.35812741E+01
 20
2.57837330E+02
  0
VERTEX
  8
0
 62
4
 10
-1.37493422E+01
 20
2.57881543E+02
  0
VERTEX
  8
0
 62
4
 10
-1.39395570E+01
 20
2.57922962E+02
  0
VERTEX
  8
0
 62
4
 10
-1.41503870E+01
 20
2.57961253E+02
  0
VERTEX
  8
0
 62
4
 10
-1.43801347E+01
 20
2.57996108E+02
  0
VERTEX
  8
0
 62
4
 10
-1.46269502E+01
 20
2.58027247E+02
  0
VERTEX
  8
0
 62
4
 10
-1.48888465E+01
 20
2.58054419E+02
  0
VERTEX
  8
0
 62
4
 10
-1.51637149E+01
 20
2.58077405E+02
  0
VERTEX
  8
0
 62
4
 10
-1.54493422E+01
 20
2.58096019E+02
  0
VERTEX
  8
0
 62
4
 10
-1.57434288E+01
 20
2.58110113E+02
  0
VERTEX
  8
0
 62
4
 10
-1.60436069E+01
 20
2.58119573E+02
  0
VERTEX
  8
0
 62
4
 10
-1.63474596E+01
 20
2.58124321E+02
  0
VERTEX
  8
0
 62
4
 10
-1.66525404E+01
 20
2.58124321E+02
  0
VERTEX
  8
0
 62
4
 10
-1.69563931E+01
 20
2.58119573E+02
  0
VERTEX
  8
0
 62
4
 10
-1.72565712E+01
 20
2.58110113E+02
  0
VERTEX
  8
0
 62
4
 10
-1.75506578E+01
 20
2.58096019E+02
  0
VERTEX
  8
0
 62
4
 10
-1.78362851E+01
 20
2.58077405E+02
  0
VERTEX
  8
0
 62
4
 10
-1.81111534E+01
 20
2.58054419E+02
  0
VERTEX
  8
0
 62
4
 10
-1.83730497E+01
 20
2.58027247E+02
  0
VERTEX
  8
0
 62
4
 10
-1.86198653E+01
 20
2.57996108E+02
  0
VERTEX
  8
0
 62
4
 10
-1.88496130E+01
 20
2.57961253E+02
  0
VERTEX
  8
0
 62
4
 10
-1.90604430E+01
 20
2.57922962E+02
  0
VERTEX
  8
0
 62
4
 10
-1.92506578E+01
 20
2.57881543E+02
  0
VERTEX
  8
0
 62
4
 10
-1.94187259E+01
 20
2.57837330E+02
  0
VERTEX
  8
0
 62
4
 10
-1.95632941E+01
 20
2.57790679E+02
  0
VERTEX
  8
0
 62
4
 10
-1.96831986E+01
 20
2.57741965E+02
  0
VERTEX
  8
0
 62
4
 10
-1.97774737E+01
 20
2.57691581E+02
  0
VERTEX
  8
0
 62
4
 10
-1.98453606E+01
 20
2.57639933E+02
  0
VERTEX
  8
0
 62
4
 10
-1.98863126E+01
 20
2.57587435E+02
  0
VERTEX
  8
0
 62
4
 10
-1.99000000E+01
 20
2.57534512E+02
  0
SEQEND
  8
0
  0
ARC
  8
0
 62
4
 10
-1.65000000E+01
 20
2.66800973E+02
 40
1.18100000E+01
 50
2.57172490E+02
 51
2.82827510E+02
  0
ARC
  8
0
 62
4
 10
-1.40999997E+01
 20
2.56260760E+02
 40
1.00000000E+00
 50
2.82827510E+02
 51
5.08888749E-14
  0
ARC
  8
0
 62
4
 10
-1.89000003E+01
 20
2.56260760E+02
 40
1.00000000E+00
 50
1.80000000E+02
 51
2.57172490E+02
  0
ARC
  8
0
 62
4
 10
-1.86217535E+01
 20
2.67520116E+02
 40
1.25306621E+01
 50
2.74968660E+02
 51
2.88083352E+02
  0
ARC
  8
0
 62
4
 10
-1.43782464E+01
 20
2.67520117E+02
 40
1.25306626E+01
 50
2.51916648E+02
 51
2.65031340E+02
  0
LINE
  8
0
  6
CENTER
 62
6
 10
-2.65000000E+01
 20
2.57911551E+02
 11
-2.15000000E+01
 21
2.57911551E+02
  0
LINE
  8
0
  6
CENTER
 62
6
 10
-1.65000000E+01
 20
2.61019320E+02
 11
-1.65000000E+01
 21
2.56019320E+02
  0
LINE
  8
0
  6
CENTER
 62
6
 10
-1.90000000E+01
 20
2.58519320E+02
 11
-1.40000000E+01
 21
2.58519320E+02
  0
LINE
  8
0
  6
CENTER
 62
6
 10
-3.15000000E+01
 20
2.61019320E+02
 11
-3.15000000E+01
 21
2.56019320E+02
  0
LINE
  8
0
  6
CENTER
 62
6
 10
-3.40000000E+01
 20
2.58519320E+02
 11
-2.90000000E+01
 21
2.58519320E+02
  0
LINE
  8
0
 62
4
 10
-1.27068894E+01
 20
2.57494796E+02
 11
-9.00000000E+00
 21
2.57494796E+02
  0
LINE
  8
0
 62
4
 10
-3.90000000E+01
 20
2.69444256E+02
 11
-3.90000000E+01
 21
2.57494796E+02
  0
LINE
  8
0
 62
4
 10
-3.90000000E+01
 20
2.61150241E+02
 11
-4.05000000E+01
 21
2.60147308E+02
  0
LINE
  8
0
 62
4
 10
-4.05000000E+01
 20
2.60147308E+02
 11
-4.05000000E+01
 21
2.57523406E+02
  0
LINE
  8
0
 62
4
 10
-4.05000000E+01
 20
2.57916719E+02
 11
-3.90000000E+01
 21
2.57211010E+02
  0
LINE
  8
0
 62
4
 10
-4.05000000E+01
 20
2.57523406E+02
 11
-3.90000000E+01
 21
2.56516417E+02
  0
LINE
  8
0
 62
4
 10
-3.90000000E+01
 20
2.57494796E+02
 11
-3.90000000E+01
 21
2.56522366E+02
  0
LINE
  8
0
 62
7
 10
-2.40000000E+01
 20
2.77499969E+02
 11
-4.95000000E+01
 21
2.77499969E+02
  0
LINE
  8
0
 62
7
 10
-2.40000000E+01
 20
2.76649994E+02
 11
-4.95000000E+01
 21
2.76649994E+02
  0
LINE
  8
0
 62
7
 10
-2.40000000E+01
 20
2.71350006E+02
 11
-4.95000000E+01
 21
2.71350006E+02
  0
LINE
  8
0
 62
7
 10
2.00000000E+01
 20
2.29649994E+02
 11
-4.95000000E+01
 21
2.29649994E+02
  0
LINE
  8
0
 62
7
 10
2.00000000E+01
 20
2.24350021E+02
 11
-4.95000000E+01
 21
2.24350021E+02
  0
LINE
  8
0
 62
7
 10
2.00000000E+01
 20
2.23500031E+02
 11
-4.95000000E+01
 21
2.23500031E+02
  0
POLYLINE
  8
0
 62
4
 66
1
  0
VERTEX
  8
0
 62
4
 10
-3.73965855E+01
 20
-2.76824409E+02
  0
VERTEX
  8
0
 62
4
 10
-3.73969441E+01
 20
-2.77116739E+02
  0
VERTEX
  8
0
 62
4
 10
-3.73714103E+01
 20
-2.77407986E+02
  0
VERTEX
  8
0
 62
4
 10
-3.73201786E+01
 20
-2.77695929E+02
  0
VERTEX
  8
0
 62
4
 10
-3.72436396E+01
 20
-2.77978374E+02
  0
VERTEX
  8
0
 62
4
 10
-3.71423766E+01
 20
-2.78253169E+02
  0
VERTEX
  8
0
 62
4
 10
-3.70171616E+01
 20
-2.78518217E+02
  0
VERTEX
  8
0
 62
4
 10
-3.68689488E+01
 20
-2.78771500E+02
  0
VERTEX
  8
0
 62
4
 10
-3.66988681E+01
 20
-2.79011087E+02
  0
VERTEX
  8
0
 62
4
 10
-3.65082159E+01
 20
-2.79235151E+02
  0
VERTEX
  8
0
 62
4
 10
-3.62984454E+01
 20
-2.79441984E+02
  0
VERTEX
  8
0
 62
4
 10
-3.60711555E+01
 20
-2.79630011E+02
  0
VERTEX
  8
0
 62
4
 10
-3.58280786E+01
 20
-2.79797797E+02
  0
VERTEX
  8
0
 62
4
 10
-3.55710676E+01
 20
-2.79944064E+02
  0
VERTEX
  8
0
 62
4
 10
-3.53020816E+01
 20
-2.80067697E+02
  0
VERTEX
  8
0
 62
4
 10
-3.50231707E+01
 20
-2.80167754E+02
  0
VERTEX
  8
0
 62
4
 10
-3.47364610E+01
 20
-2.80243471E+02
  0
VERTEX
  8
0
 62
4
 10
-3.44441379E+01
 20
-2.80294273E+02
  0
VERTEX
  8
0
 62
4
 10
-3.41484294E+01
 20
-2.80319771E+02
  0
VERTEX
  8
0
 62
4
 10
-3.38515896E+01
 20
-2.80319771E+02
  0
VERTEX
  8
0
 62
4
 10
-3.35558811E+01
 20
-2.80294273E+02
  0
VERTEX
  8
0
 62
4
 10
-3.32635579E+01
 20
-2.80243472E+02
  0
VERTEX
  8
0
 62
4
 10
-3.29768481E+01
 20
-2.80167754E+02
  0
VERTEX
  8
0
 62
4
 10
-3.26979372E+01
 20
-2.80067698E+02
  0
VERTEX
  8
0
 62
4
 10
-3.24289511E+01
 20
-2.79944065E+02
  0
VERTEX
  8
0
 62
4
 10
-3.21719400E+01
 20
-2.79797798E+02
  0
VERTEX
  8
0
 62
4
 10
-3.19288630E+01
 20
-2.79630012E+02
  0
VERTEX
  8
0
 62
4
 10
-3.17015730E+01
 20
-2.79441986E+02
  0
VERTEX
  8
0
 62
4
 10
-3.14918023E+01
 20
-2.79235153E+02
  0
VERTEX
  8
0
 62
4
 10
-3.13011499E+01
 20
-2.79011089E+02
  0
VERTEX
  8
0
 62
4
 10
-3.11310691E+01
 20
-2.78771502E+02
  0
VERTEX
  8
0
 62
4
 10
-3.09828561E+01
 20
-2.78518219E+02
  0
VERTEX
  8
0
 62
4
 10
-3.08576409E+01
 20
-2.78253171E+02
  0
VERTEX
  8
0
 62
4
 10
-3.07563777E+01
 20
-2.77978376E+02
  0
VERTEX
  8
0
 62
4
 10
-3.06798385E+01
 20
-2.77695931E+02
  0
VERTEX
  8
0
 62
4
 10
-3.06286066E+01
 20
-2.77407988E+02
  0
VERTEX
  8
0
 62
4
 10
-3.06030726E+01
 20
-2.77116741E+02
  0
VERTEX
  8
0
 62
4
 10
-3.06034310E+01
 20
-2.76824412E+02
  0
SEQEND
  8
0
  0
POLYLINE
  8
0
 62
4
 66
1
  0
VERTEX
  8
0
 62
4
 10
-3.80000081E+01
 20
-2.76974524E+02
  0
VERTEX
  8
0
 62
4
 10
-3.79847948E+01
 20
-2.77317851E+02
  0
VERTEX
  8
0
 62
4
 10
-3.79392548E+01
 20
-2.77658566E+02
  0
VERTEX
  8
0
 62
4
 10
-3.78637348E+01
 20
-2.77994075E+02
  0
VERTEX
  8
0
 62
4
 10
-3.77588095E+01
 20
-2.78321826E+02
  0
VERTEX
  8
0
 62
4
 10
-3.76252775E+01
 20
-2.78639324E+02
  0
VERTEX
  8
0
 62
4
 10
-3.74641550E+01
 20
-2.78944152E+02
  0
VERTEX
  8
0
 62
4
 10
-3.72766682E+01
 20
-2.79233991E+02
  0
VERTEX
  8
0
 62
4
 10
-3.70642440E+01
 20
-2.79506634E+02
  0
VERTEX
  8
0
 62
4
 10
-3.68284992E+01
 20
-2.79760008E+02
  0
VERTEX
  8
0
 62
4
 10
-3.65712279E+01
 20
-2.79992183E+02
  0
VERTEX
  8
0
 62
4
 10
-3.62943880E+01
 20
-2.80201392E+02
  0
VERTEX
  8
0
 62
4
 10
-3.60000865E+01
 20
-2.80386044E+02
  0
VERTEX
  8
0
 62
4
 10
-3.56905632E+01
 20
-2.80544733E+02
  0
VERTEX
  8
0
 62
4
 10
-3.53681737E+01
 20
-2.80676251E+02
  0
VERTEX
  8
0
 62
4
 10
-3.50353717E+01
 20
-2.80779597E+02
  0
VERTEX
  8
0
 62
4
 10
-3.46946899E+01
 20
-2.80853985E+02
  0
VERTEX
  8
0
 62
4
 10
-3.43487212E+01
 20
-2.80898849E+02
  0
VERTEX
  8
0
 62
4
 10
-3.40000986E+01
 20
-2.80913847E+02
  0
VERTEX
  8
0
 62
4
 10
-3.36514753E+01
 20
-2.80898865E+02
  0
VERTEX
  8
0
 62
4
 10
-3.33055045E+01
 20
-2.80854017E+02
  0
VERTEX
  8
0
 62
4
 10
-3.29648193E+01
 20
-2.80779645E+02
  0
VERTEX
  8
0
 62
4
 10
-3.26320126E+01
 20
-2.80676314E+02
  0
VERTEX
  8
0
 62
4
 10
-3.23096171E+01
 20
-2.80544811E+02
  0
VERTEX
  8
0
 62
4
 10
-3.20000865E+01
 20
-2.80386136E+02
  0
VERTEX
  8
0
 62
4
 10
-3.17057765E+01
 20
-2.80201498E+02
  0
VERTEX
  8
0
 62
4
 10
-3.14289270E+01
 20
-2.79992301E+02
  0
VERTEX
  8
0
 62
4
 10
-3.11716450E+01
 20
-2.79760138E+02
  0
VERTEX
  8
0
 62
4
 10
-3.09358885E+01
 20
-2.79506775E+02
  0
VERTEX
  8
0
 62
4
 10
-3.07234518E+01
 20
-2.79234141E+02
  0
VERTEX
  8
0
 62
4
 10
-3.05359517E+01
 20
-2.78944311E+02
  0
VERTEX
  8
0
 62
4
 10
-3.03748152E+01
 20
-2.78639490E+02
  0
VERTEX
  8
0
 62
4
 10
-3.02412686E+01
 20
-2.78321999E+02
  0
VERTEX
  8
0
 62
4
 10
-3.01363282E+01
 20
-2.77994253E+02
  0
VERTEX
  8
0
 62
4
 10
-3.00607928E+01
 20
-2.77658747E+02
  0
VERTEX
  8
0
 62
4
 10
-3.00152372E+01
 20
-2.77318034E+02
  0
VERTEX
  8
0
 62
4
 10
-3.00000081E+01
 20
-2.76974708E+02
  0
VERTEX
  8
0
 62
4
 10
-3.00152214E+01
 20
-2.76631381E+02
  0
VERTEX
  8
0
 62
4
 10
-3.00607614E+01
 20
-2.76290666E+02
  0
VERTEX
  8
0
 62
4
 10
-3.01362814E+01
 20
-2.75955157E+02
  0
VERTEX
  8
0
 62
4
 10
-3.02412067E+01
 20
-2.75627406E+02
  0
VERTEX
  8
0
 62
4
 10
-3.03747387E+01
 20
-2.75309908E+02
  0
VERTEX
  8
0
 62
4
 10
-3.05358612E+01
 20
-2.75005080E+02
  0
VERTEX
  8
0
 62
4
 10
-3.07233480E+01
 20
-2.74715241E+02
  0
VERTEX
  8
0
 62
4
 10
-3.09357722E+01
 20
-2.74442598E+02
  0
VERTEX
  8
0
 62
4
 10
-3.11715170E+01
 20
-2.74189224E+02
  0
VERTEX
  8
0
 62
4
 10
-3.14287883E+01
 20
-2.73957049E+02
  0
VERTEX
  8
0
 62
4
 10
-3.17056282E+01
 20
-2.73747840E+02
  0
VERTEX
  8
0
 62
4
 10
-3.19999297E+01
 20
-2.73563188E+02
  0
VERTEX
  8
0
 62
4
 10
-3.23094530E+01
 20
-2.73404499E+02
  0
VERTEX
  8
0
 62
4
 10
-3.26318425E+01
 20
-2.73272981E+02
  0
VERTEX
  8
0
 62
4
 10
-3.29646445E+01
 20
-2.73169635E+02
  0
VERTEX
  8
0
 62
4
 10
-3.33053263E+01
 20
-2.73095247E+02
  0
VERTEX
  8
0
 62
4
 10
-3.36512950E+01
 20
-2.73050383E+02
  0
VERTEX
  8
0
 62
4
 10
-3.39999176E+01
 20
-2.73035385E+02
  0
VERTEX
  8
0
 62
4
 10
-3.43485409E+01
 20
-2.73050367E+02
  0
VERTEX
  8
0
 62
4
 10
-3.46945117E+01
 20
-2.73095215E+02
  0
VERTEX
  8
0
 62
4
 10
-3.50351969E+01
 20
-2.73169587E+02
  0
VERTEX
  8
0
 62
4
 10
-3.53680036E+01
 20
-2.73272918E+02
  0
VERTEX
  8
0
 62
4
 10
-3.56903991E+01
 20
-2.73404421E+02
  0
VERTEX
  8
0
 62
4
 10
-3.59999297E+01
 20
-2.73563096E+02
  0
VERTEX
  8
0
 62
4
 10
-3.62942397E+01
 20
-2.73747734E+02
  0
VERTEX
  8
0
 62
4
 10
-3.65710892E+01
 20
-2.73956931E+02
  0
VERTEX
  8
0
 62
4
 10
-3.68283712E+01
 20
-2.74189094E+02
  0
VERTEX
  8
0
 62
4
 10
-3.70641277E+01
 20
-2.74442457E+02
  0
VERTEX
  8
0
 62
4
 10
-3.72765644E+01
 20
-2.74715091E+02
  0
VERTEX
  8
0
 62
4
 10
-3.74640645E+01
 20
-2.75004921E+02
  0
VERTEX
  8
0
 62
4
 10
-3.76252010E+01
 20
-2.75309742E+02
  0
VERTEX
  8
0
 62
4
 10
-3.77587476E+01
 20
-2.75627233E+02
  0
VERTEX
  8
0
 62
4
 10
-3.78636880E+01
 20
-2.75954979E+02
  0
VERTEX
  8
0
 62
4
 10
-3.79392234E+01
 20
-2.76290485E+02
  0
VERTEX
  8
0
 62
4
 10
-3.79847790E+01
 20
-2.76631198E+02
  0
VERTEX
  8
0
 62
4
 10
-3.80000081E+01
 20
-2.76974524E+02
  0
SEQEND
  8
0
  0
POLYLINE
  8
0
 62
4
 66
1
  0
VERTEX
  8
0
 62
4
 10
-3.74000083E+01
 20
-2.76674126E+02
  0
VERTEX
  8
0
 62
4
 10
-3.73870770E+01
 20
-2.76965954E+02
  0
VERTEX
  8
0
 62
4
 10
-3.73483680E+01
 20
-2.77255561E+02
  0
VERTEX
  8
0
 62
4
 10
-3.72841760E+01
 20
-2.77540744E+02
  0
VERTEX
  8
0
 62
4
 10
-3.71949895E+01
 20
-2.77819333E+02
  0
VERTEX
  8
0
 62
4
 10
-3.70814873E+01
 20
-2.78089206E+02
  0
VERTEX
  8
0
 62
4
 10
-3.69445331E+01
 20
-2.78348310E+02
  0
VERTEX
  8
0
 62
4
 10
-3.67851694E+01
 20
-2.78594673E+02
  0
VERTEX
  8
0
 62
4
 10
-3.66046089E+01
 20
-2.78826420E+02
  0
VERTEX
  8
0
 62
4
 10
-3.64042257E+01
 20
-2.79041787E+02
  0
VERTEX
  8
0
 62
4
 10
-3.61855451E+01
 20
-2.79239136E+02
  0
VERTEX
  8
0
 62
4
 10
-3.59502312E+01
 20
-2.79416964E+02
  0
VERTEX
  8
0
 62
4
 10
-3.57000749E+01
 20
-2.79573918E+02
  0
VERTEX
  8
0
 62
4
 10
-3.54369801E+01
 20
-2.79708803E+02
  0
VERTEX
  8
0
 62
4
 10
-3.51629491E+01
 20
-2.79820594E+02
  0
VERTEX
  8
0
 62
4
 10
-3.48800674E+01
 20
-2.79908438E+02
  0
VERTEX
  8
0
 62
4
 10
-3.45904879E+01
 20
-2.79971668E+02
  0
VERTEX
  8
0
 62
4
 10
-3.42964145E+01
 20
-2.80009802E+02
  0
VERTEX
  8
0
 62
4
 10
-3.40000852E+01
 20
-2.80022550E+02
  0
VERTEX
  8
0
 62
4
 10
-3.37037554E+01
 20
-2.80009816E+02
  0
VERTEX
  8
0
 62
4
 10
-3.34096802E+01
 20
-2.79971695E+02
  0
VERTEX
  8
0
 62
4
 10
-3.31200978E+01
 20
-2.79908478E+02
  0
VERTEX
  8
0
 62
4
 10
-3.28372121E+01
 20
-2.79820647E+02
  0
VERTEX
  8
0
 62
4
 10
-3.25631759E+01
 20
-2.79708869E+02
  0
VERTEX
  8
0
 62
4
 10
-3.23000749E+01
 20
-2.79573996E+02
  0
VERTEX
  8
0
 62
4
 10
-3.20499114E+01
 20
-2.79417054E+02
  0
VERTEX
  8
0
 62
4
 10
-3.18145894E+01
 20
-2.79239236E+02
  0
VERTEX
  8
0
 62
4
 10
-3.15958996E+01
 20
-2.79041898E+02
  0
VERTEX
  8
0
 62
4
 10
-3.13955066E+01
 20
-2.78826539E+02
  0
VERTEX
  8
0
 62
4
 10
-3.12149355E+01
 20
-2.78594801E+02
  0
VERTEX
  8
0
 62
4
 10
-3.10555604E+01
 20
-2.78348445E+02
  0
VERTEX
  8
0
 62
4
 10
-3.09185943E+01
 20
-2.78089347E+02
  0
VERTEX
  8
0
 62
4
 10
-3.08050797E+01
 20
-2.77819479E+02
  0
VERTEX
  8
0
 62
4
 10
-3.07158804E+01
 20
-2.77540895E+02
  0
VERTEX
  8
0
 62
4
 10
-3.06516753E+01
 20
-2.77255715E+02
  0
VERTEX
  8
0
 62
4
 10
-3.06129530E+01
 20
-2.76966109E+02
  0
VERTEX
  8
0
 62
4
 10
-3.06000083E+01
 20
-2.76674282E+02
  0
VERTEX
  8
0
 62
4
 10
-3.06129396E+01
 20
-2.76382454E+02
  0
VERTEX
  8
0
 62
4
 10
-3.06516486E+01
 20
-2.76092847E+02
  0
VERTEX
  8
0
 62
4
 10
-3.07158406E+01
 20
-2.75807664E+02
  0
VERTEX
  8
0
 62
4
 10
-3.08050271E+01
 20
-2.75529075E+02
  0
VERTEX
  8
0
 62
4
 10
-3.09185293E+01
 20
-2.75259202E+02
  0
VERTEX
  8
0
 62
4
 10
-3.10554835E+01
 20
-2.75000098E+02
  0
VERTEX
  8
0
 62
4
 10
-3.12148472E+01
 20
-2.74753735E+02
  0
VERTEX
  8
0
 62
4
 10
-3.13954078E+01
 20
-2.74521988E+02
  0
VERTEX
  8
0
 62
4
 10
-3.15957909E+01
 20
-2.74306621E+02
  0
VERTEX
  8
0
 62
4
 10
-3.18144715E+01
 20
-2.74109272E+02
  0
VERTEX
  8
0
 62
4
 10
-3.20497854E+01
 20
-2.73931444E+02
  0
VERTEX
  8
0
 62
4
 10
-3.22999417E+01
 20
-2.73774490E+02
  0
VERTEX
  8
0
 62
4
 10
-3.25630365E+01
 20
-2.73639605E+02
  0
VERTEX
  8
0
 62
4
 10
-3.28370675E+01
 20
-2.73527814E+02
  0
VERTEX
  8
0
 62
4
 10
-3.31199493E+01
 20
-2.73439970E+02
  0
VERTEX
  8
0
 62
4
 10
-3.34095287E+01
 20
-2.73376740E+02
  0
VERTEX
  8
0
 62
4
 10
-3.37036022E+01
 20
-2.73338606E+02
  0
VERTEX
  8
0
 62
4
 10
-3.39999314E+01
 20
-2.73325858E+02
  0
VERTEX
  8
0
 62
4
 10
-3.42962612E+01
 20
-2.73338592E+02
  0
VERTEX
  8
0
 62
4
 10
-3.45903364E+01
 20
-2.73376713E+02
  0
VERTEX
  8
0
 62
4
 10
-3.48799188E+01
 20
-2.73439930E+02
  0
VERTEX
  8
0
 62
4
 10
-3.51628045E+01
 20
-2.73527761E+02
  0
VERTEX
  8
0
 62
4
 10
-3.54368407E+01
 20
-2.73639539E+02
  0
VERTEX
  8
0
 62
4
 10
-3.56999417E+01
 20
-2.73774412E+02
  0
VERTEX
  8
0
 62
4
 10
-3.59501052E+01
 20
-2.73931354E+02
  0
VERTEX
  8
0
 62
4
 10
-3.61854273E+01
 20
-2.74109172E+02
  0
VERTEX
  8
0
 62
4
 10
-3.64041170E+01
 20
-2.74306510E+02
  0
VERTEX
  8
0
 62
4
 10
-3.66045100E+01
 20
-2.74521869E+02
  0
VERTEX
  8
0
 62
4
 10
-3.67850811E+01
 20
-2.74753607E+02
  0
VERTEX
  8
0
 62
4
 10
-3.69444562E+01
 20
-2.74999963E+02
  0
VERTEX
  8
0
 62
4
 10
-3.70814223E+01
 20
-2.75259061E+02
  0
VERTEX
  8
0
 62
4
 10
-3.71949369E+01
 20
-2.75528929E+02
  0
VERTEX
  8
0
 62
4
 10
-3.72841362E+01
 20
-2.75807513E+02
  0
VERTEX
  8
0
 62
4
 10
-3.73483413E+01
 20
-2.76092693E+02
  0
VERTEX
  8
0
 62
4
 10
-3.73870636E+01
 20
-2.76382299E+02
  0
VERTEX
  8
0
 62
4
 10
-3.74000083E+01
 20
-2.76674126E+02
  0
SEQEND
  8
0
  0
LINE
  8
0
 62
4
 10
-4.29999951E+01
 20
-2.89689090E+02
 11
-9.99999515E+00
 21
-2.89689067E+02
  0
LINE
  8
0
 62
4
 10
-6.99999937E+00
 20
-2.84447470E+02
 11
-9.99999515E+00
 21
-2.88907650E+02
  0
LINE
  8
0
 62
4
 10
-4.29999952E+01
 20
-2.88907674E+02
 11
-4.59999994E+01
 21
-2.84447498E+02
  0
LINE
  8
0
 62
4
 10
-9.99999515E+00
 20
-2.92500031E+02
 11
-9.99999515E+00
 21
-2.88907650E+02
  0
LINE
  8
0
 62
4
 10
-4.29999951E+01
 20
-2.92500031E+02
 11
-4.29999951E+01
 21
-2.88907674E+02
  0
LINE
  8
0
 62
4
 10
-4.29999951E+01
 20
-2.88907674E+02
 11
-9.99999515E+00
 21
-2.88907650E+02
  0
LINE
  8
0
 62
4
 10
-4.15000332E+01
 20
-2.41897384E+02
 11
-2.65000332E+01
 21
-2.41897374E+02
  0
LINE
  8
0
  6
CENTER
 62
6
 10
-3.40000039E+01
 20
-2.82853412E+02
 11
-3.40000131E+01
 21
-2.70053412E+02
  0
LINE
  8
0
  6
CENTER
 62
6
 10
-4.04000085E+01
 20
-2.76453416E+02
 11
-2.76000085E+01
 21
-2.76453407E+02
  0
LINE
  8
0
 62
4
 10
-4.35000158E+01
 20
-2.66170271E+02
 11
-2.45000158E+01
 21
-2.66170258E+02
  0
LINE
  8
0
 62
4
 10
-4.60000086E+01
 20
-2.71571382E+02
 11
-4.59999994E+01
 21
-2.84447498E+02
  0
LINE
  8
0
 62
4
 10
-4.35000158E+01
 20
-2.66170271E+02
 11
-4.35000131E+01
 21
-2.70071365E+02
  0
LINE
  8
0
 62
4
 10
-2.65000332E+01
 20
-2.41897374E+02
 11
-2.65000158E+01
 21
-2.66170271E+02
  0
LINE
  8
0
 62
4
 10
-4.15000332E+01
 20
-2.41897374E+02
 11
-4.15000158E+01
 21
-2.66170270E+02
  0
LINE
  8
0
 62
4
 10
-2.45000158E+01
 20
-2.66170271E+02
 11
-2.45000131E+01
 21
-2.70071367E+02
  0
LINE
  8
0
 62
4
 10
-4.15000163E+01
 20
-2.65532760E+02
 11
-2.65000163E+01
 21
-2.65532749E+02
  0
LINE
  8
0
 62
4
 10
-7.00000857E+00
 20
-2.71571354E+02
 11
-6.99999937E+00
 21
-2.84447470E+02
  0
LINE
  8
0
 62
4
 10
-4.59999994E+01
 20
-2.84447498E+02
 11
-6.99999937E+00
 21
-2.84447470E+02
  0
LINE
  8
0
 62
4
 10
-4.60000004E+01
 20
-2.82970286E+02
 11
-7.00000043E+00
 21
-2.82970259E+02
  0
LINE
  8
0
 62
4
 10
-4.45000096E+01
 20
-2.70071381E+02
 11
-8.50000964E+00
 21
-2.70071355E+02
  0
LINE
  8
0
 62
4
 10
-6.10000333E+01
 20
-2.41722523E+02
 11
-5.60000333E+01
 21
-2.41722520E+02
  0
LINE
  8
0
 62
4
 10
-6.10000315E+01
 20
-2.44286839E+02
 11
-5.60000315E+01
 21
-2.44286836E+02
  0
LINE
  8
0
 62
4
 10
-6.10000262E+01
 20
-2.51682746E+02
 11
-5.60000262E+01
 21
-2.51682742E+02
  0
LINE
  8
0
 62
4
 10
-6.10000227E+01
 20
-2.56504488E+02
 11
-5.60000227E+01
 21
-2.56504484E+02
  0
LINE
  8
0
 62
4
 10
-5.05000230E+01
 20
-2.56107443E+02
 11
-4.20000230E+01
 21
-2.56107437E+02
  0
LINE
  8
0
 62
4
 10
-4.15000330E+01
 20
-2.42107438E+02
 11
-5.05000330E+01
 21
-2.42107445E+02
  0
LINE
  8
0
 62
4
 10
-5.10000327E+01
 20
-2.42607445E+02
 11
-5.10000234E+01
 21
-2.55606936E+02
  0
LINE
  8
0
 62
4
 10
-6.10000333E+01
 20
-2.41722523E+02
 11
-6.10000227E+01
 21
-2.56504488E+02
  0
LINE
  8
0
 62
4
 10
-5.60000333E+01
 20
-2.41722520E+02
 11
-5.60000227E+01
 21
-2.56504488E+02
  0
LINE
  8
0
 62
4
 10
-5.60000325E+01
 20
-2.42857442E+02
 11
-5.10000325E+01
 21
-2.42857438E+02
  0
LINE
  8
0
 62
4
 10
-5.60000236E+01
 20
-2.55357442E+02
 11
-5.10000236E+01
 21
-2.55357438E+02
  0
LINE
  8
0
 62
4
 10
-5.45000325E+01
 20
-2.42857441E+02
 11
-5.45000236E+01
 21
-2.55357441E+02
  0
LINE
  8
0
 62
4
 10
-5.45000321E+01
 20
-2.43357441E+02
 11
-5.10000321E+01
 21
-2.43357438E+02
  0
LINE
  8
0
 62
4
 10
-5.45000239E+01
 20
-2.54857441E+02
 11
-5.10000239E+01
 21
-2.54857438E+02
  0
ARC
  8
0
 62
4
 10
-5.05005247E+01
 20
-2.42606953E+02
 40
4.99508251E-01
 50
8.99436074E+01
 51
1.80056475E+02
  0
ARC
  8
0
 62
4
 10
-4.19995154E+01
 20
-2.56606930E+02
 40
4.99492993E-01
 50
3.59941854E+02
 51
9.00582282E+01
  0
ARC
  8
0
 62
4
 10
-8.49950115E+00
 20
-2.71570848E+02
 40
1.49949266E+00
 50
3.59980652E+02
 51
9.00194298E+01
  0
ARC
  8
0
 62
4
 10
-5.04995156E+01
 20
-2.55606935E+02
 40
5.00508007E-01
 50
1.80058166E+02
 51
2.69941916E+02
  0
ARC
  8
0
 62
4
 10
-4.45005007E+01
 20
-2.71570889E+02
 40
1.49950792E+00
 50
8.99812358E+01
 51
1.80018846E+02
  0
LINE
  8
0
 62
6
 10
-3.57149432E+01
 20
-2.78389142E+02
 11
-3.22850735E+01
 21
-2.74959267E+02
  0
LINE
  8
0
 62
6
 10
-3.22850710E+01
 20
-2.78389139E+02
 11
-3.57149456E+01
 21
-2.74959270E+02
  0
LINE
  8
0
 62
4
 10
-4.93579471E+02
 20
-2.78013156E+02
 11
-4.86684357E+02
 21
-2.76797361E+02
  0
LINE
  8
0
 62
4
 10
-4.93579471E+02
 20
-2.78013156E+02
 11
-4.95029484E+02
 21
-2.81999969E+02
  0
LINE
  8
0
 62
4
 10
-4.87809463E+02
 20
-2.44502096E+02
 11
-4.82993754E+02
 21
-2.43652957E+02
  0
LINE
  8
0
 62
4
 10
-4.73037347E+02
 20
-2.41897374E+02
 11
-4.68696143E+02
 21
-2.66517568E+02
  0
LINE
  8
0
 62
4
 10
-4.87809463E+02
 20
-2.44502096E+02
 11
-4.83468259E+02
 21
-2.69122290E+02
  0
LINE
  8
0
 62
4
 10
-4.85437874E+02
 20
-2.69469587E+02
 11
-4.66726527E+02
 21
-2.66170271E+02
  0
LINE
  8
0
 62
4
 10
-4.83641907E+02
 20
-2.68137482E+02
 11
-4.68869791E+02
 21
-2.65532760E+02
  0
LINE
  8
0
 62
4
 10
-4.66726527E+02
 20
-2.66170271E+02
 11
-4.66031934E+02
 21
-2.70109502E+02
  0
LINE
  8
0
 62
4
 10
-4.85437874E+02
 20
-2.69469587E+02
 11
-4.84743282E+02
 21
-2.73408818E+02
  0
LINE
  8
0
 62
4
 10
-4.84743282E+02
 20
-2.73408818E+02
 11
-4.66031934E+02
 21
-2.70109502E+02
  0
LINE
  8
0
 62
4
 10
-4.63135795E+02
 20
-2.72137401E+02
 11
-4.62542878E+02
 21
-2.75500000E+02
  0
LINE
  8
0
 62
4
 10
-4.86771181E+02
 20
-2.76304957E+02
 11
-4.85766996E+02
 21
-2.81999969E+02
  0
LINE
  8
0
 62
4
 10
-4.78077418E+02
 20
-2.56504488E+02
 11
-4.72327349E+02
 21
-2.51682746E+02
  0
LINE
  8
0
 62
4
 10
-4.86433947E+02
 20
-2.46544266E+02
 11
-4.80683878E+02
 21
-2.41722523E+02
  0
LINE
  8
0
 62
4
 10
-4.86433947E+02
 20
-2.46544266E+02
 11
-4.85129849E+02
 21
-2.53940172E+02
  0
LINE
  8
0
 62
4
 10
-4.73631446E+02
 20
-2.44286839E+02
 11
-4.72327349E+02
 21
-2.51682746E+02
  0
LINE
  8
0
 62
4
 10
-4.85129849E+02
 20
-2.53940172E+02
 11
-4.78077418E+02
 21
-2.56504488E+02
  0
LINE
  8
0
 62
4
 10
-4.80683878E+02
 20
-2.41722523E+02
 11
-4.73631446E+02
 21
-2.44286839E+02
  0
LINE
  8
0
 62
4
 10
-4.77862905E+02
 20
-2.42748250E+02
 11
-4.73037347E+02
 21
-2.41897374E+02
  0
LINE
  8
0
 62
4
 10
-4.62962146E+02
 20
-2.73122209E+02
 11
-4.62469743E+02
 21
-2.73035385E+02
  0
LINE
  8
0
 62
4
 10
-4.62365554E+02
 20
-2.73626269E+02
 11
-4.60661836E+02
 21
-2.73325858E+02
  0
LINE
  8
0
 62
4
 10
-4.62469743E+02
 20
-2.73035385E+02
 11
-4.62035164E+02
 21
-2.75500000E+02
  0
ARC
  8
0
 62
4
 10
-4.70451316E+02
 20
-2.78482809E+02
 40
1.18077645E+01
 50
1.46322590E+01
 51
2.27266957E+01
  0
ARC
  8
0
 62
4
 10
-4.84309140E+02
 20
-2.75870852E+02
 40
2.50001831E+00
 50
1.00000420E+02
 51
1.89999580E+02
  0
ARC
  8
0
 62
4
 10
-4.65597015E+02
 20
-2.72570381E+02
 40
2.49901570E+00
 50
9.97742809E+00
 51
1.00022572E+02
  0
CIRCLE
  8
0
 62
4
 10
-4.79380703E+02
 20
-2.49107438E+02
 40
3.75000000E+00
  0
ARC
  8
0
 62
4
 10
-4.60491215E+02
 20
-2.74307249E+02
 40
9.96112687E-01
 50
2.25301420E+01
 51
9.98626848E+01
  0
ARC
  8
0
 62
4
 10
-4.79380703E+02
 20
-2.49107438E+02
 40
7.00000000E+00
 50
6.89816399E+01
 51
9.19142837E+01
  0
ARC
  8
0
 62
4
 10
-4.79380703E+02
 20
-2.49107438E+02
 40
7.00000000E+00
 50
1.08107658E+02
 51
1.31018360E+02
  0
LINE
  8
0
 62
4
 10
9.24025235E+01
 20
-2.70229097E+02
 11
9.85871162E+01
 21
-2.71319607E+02
  0
LINE
  8
0
 62
4
 10
9.85871162E+01
 20
-2.71319607E+02
 11
9.87679988E+01
 21
-2.72366929E+02
  0
LINE
  8
0
 62
4
 10
9.18743446E+01
 20
-2.71151391E+02
 11
9.24025235E+01
 21
-2.70229097E+02
  0
LINE
  8
0
  6
CENTER
 62
6
 10
9.58832203E+01
 20
-2.68571624E+02
 11
9.50624359E+01
 21
-2.73226523E+02
  0
LINE
  8
0
 62
4
 10
1.18485863E+02
 20
-2.91685954E+02
 11
1.19318127E+02
 21
-2.93974264E+02
  0
ARC
  8
0
 62
4
 10
8.04247779E+01
 20
-2.74307249E+02
 40
9.96112687E-01
 50
8.01373150E+01
 51
1.57469858E+02
  0
ARC
  8
0
 62
4
 10
7.95899346E+01
 20
-2.79039586E+02
 40
9.98481423E-01
 50
1.83228018E+02
 51
2.59885875E+02
  0
ARC
  8
0
 62
4
 10
8.55305787E+01
 20
-2.72570381E+02
 40
2.49901570E+00
 50
7.99774282E+01
 51
1.70022572E+02
  0
ARC
  8
0
 62
4
 10
1.04242703E+02
 20
-2.75870852E+02
 40
2.50001831E+00
 50
3.50000420E+02
 51
7.99995805E+01
  0
ARC
  8
0
 62
4
 10
9.03848792E+01
 20
-2.78482809E+02
 40
1.18077645E+01
 50
1.57273305E+02
 51
1.82975855E+02
  0
ARC
  8
0
 62
4
 10
1.05547490E+02
 20
-2.85747456E+02
 40
5.00000533E-01
 50
3.50000061E+02
 51
7.99999392E+01
  0
LINE
  8
0
 62
4
 10
8.24033058E+01
 20
-2.73035385E+02
 11
8.10141204E+01
 21
-2.80913847E+02
  0
LINE
  8
0
  6
CENTER
 62
6
 10
1.13153625E+02
 20
-2.82519202E+02
 11
7.57998666E+01
 21
-2.75932727E+02
  0
LINE
  8
0
 62
4
 10
7.94145919E+01
 20
-2.80022551E+02
 11
8.11183093E+01
 21
-2.80322962E+02
  0
LINE
  8
0
 62
4
 10
8.22991169E+01
 20
-2.73626269E+02
 11
8.05953995E+01
 21
-2.73325858E+02
  0
LINE
  8
0
 62
4
 10
8.15065243E+01
 20
-2.81000671E+02
 11
8.10141204E+01
 21
-2.80913847E+02
  0
LINE
  8
0
 62
4
 10
8.28957097E+01
 20
-2.73122209E+02
 11
8.24033058E+01
 21
-2.73035385E+02
  0
LINE
  8
0
 62
4
 10
1.00617441E+02
 20
-2.41722523E+02
 11
9.95481205E+01
 21
-2.42111336E+02
  0
LINE
  8
0
 62
4
 10
1.01489328E+02
 20
-2.42453648E+02
 11
1.00617441E+02
 21
-2.41722523E+02
  0
LINE
  8
0
 62
4
 10
9.19623704E+01
 20
-2.79290326E+02
 11
9.15282500E+01
 21
-2.81752345E+02
  0
LINE
  8
0
 62
4
 10
9.59016014E+01
 20
-2.79984918E+02
 11
9.54674810E+01
 21
-2.82446938E+02
  0
LINE
  8
0
 62
4
 10
9.54674810E+01
 20
-2.82446938E+02
 11
9.15282500E+01
 21
-2.81752345E+02
  0
LINE
  8
0
 62
4
 10
9.59016014E+01
 20
-2.79984918E+02
 11
9.19623704E+01
 21
-2.79290326E+02
  0
LINE
  8
0
 62
4
 10
1.04794614E+02
 20
-2.87137843E+02
 11
8.11592279E+01
 21
-2.82970286E+02
  0
LINE
  8
0
 62
4
 10
8.08987557E+01
 20
-2.84447498E+02
 11
8.29520308E+01
 21
-2.88500000E+02
  0
LINE
  8
0
 62
4
 10
1.06704744E+02
 20
-2.76304957E+02
 11
1.04554429E+02
 21
-2.88500000E+02
  0
LINE
  8
0
 62
4
 10
8.30693579E+01
 20
-2.72137401E+02
 11
8.08987557E+01
 21
-2.84447498E+02
  0
LINE
  8
0
 62
4
 10
1.03881636E+02
 20
-2.88500000E+02
 11
8.08987557E+01
 21
-2.84447498E+02
  0
LINE
  8
0
 62
4
 10
1.04676845E+02
 20
-2.73408818E+02
 11
8.59654977E+01
 21
-2.70109502E+02
  0
LINE
  8
0
 62
4
 10
1.05371438E+02
 20
-2.69469587E+02
 11
1.04676845E+02
 21
-2.73408818E+02
  0
LINE
  8
0
 62
4
 10
8.66600904E+01
 20
-2.66170271E+02
 11
8.59654977E+01
 21
-2.70109502E+02
  0
LINE
  8
0
 62
4
 10
1.03575470E+02
 20
-2.68137482E+02
 11
8.88033541E+01
 21
-2.65532760E+02
  0
LINE
  8
0
 62
4
 10
1.05371438E+02
 20
-2.69469587E+02
 11
8.66600904E+01
 21
-2.66170271E+02
  0
LINE
  8
0
 62
4
 10
1.07743027E+02
 20
-2.44502096E+02
 11
1.03401822E+02
 21
-2.69122290E+02
  0
LINE
  8
0
 62
4
 10
9.29709104E+01
 20
-2.41897374E+02
 11
8.86297059E+01
 21
-2.66517568E+02
  0
LINE
  8
0
 62
4
 10
9.29709104E+01
 20
-2.41897374E+02
 11
1.07743027E+02
 21
-2.44502096E+02
  0
LINE
  8
0
 62
6
 10
1.20786417E+02
 20
-2.98070888E+02
 11
1.18661837E+02
 21
-2.97696267E+02
  0
LINE
  8
0
 62
4
 10
1.19193840E+02
 20
-3.01344067E+02
 11
1.20223796E+02
 21
-3.01261665E+02
  0
LINE
  8
0
 62
4
 10
1.19886696E+02
 20
-2.97414684E+02
 11
1.20826356E+02
 21
-2.97844382E+02
  0
LINE
  8
0
 62
4
 10
1.20826356E+02
 20
-2.97844382E+02
 11
1.20223796E+02
 21
-3.01261665E+02
  0
LINE
  8
0
 62
4
 10
1.19193840E+02
 20
-3.01344067E+02
 11
1.18499985E+02
 21
-3.01221721E+02
  0
LINE
  8
0
 62
4
 10
1.19886696E+02
 20
-2.97414684E+02
 11
1.18746925E+02
 21
-2.97213711E+02
  0
LINE
  8
0
 62
6
 10
1.20265472E+02
 20
-3.01025311E+02
 11
1.18499985E+02
 21
-3.00714008E+02
  0
LINE
  8
0
  6
CENTER
 62
6
 10
1.21739863E+02
 20
-2.99762146E+02
 11
1.18499985E+02
 21
-2.99190868E+02
  0
LINE
  8
0
 62
4
 10
1.13513034E+02
 20
-2.78013156E+02
 11
1.17873163E+02
 21
-2.90001334E+02
  0
LINE
  8
0
 62
4
 10
1.19318127E+02
 20
-2.93974264E+02
 11
1.18499985E+02
 21
-2.98614177E+02
  0
LINE
  8
0
 62
4
 10
1.06039894E+02
 20
-2.85834279E+02
 11
1.05569856E+02
 21
-2.88500000E+02
  0
LINE
  8
0
 62
4
 10
1.05634314E+02
 20
-2.85255051E+02
 11
1.05141910E+02
 21
-2.85168227E+02
  0
LINE
  8
0
 62
4
 10
1.13513034E+02
 20
-2.78013156E+02
 11
1.06617920E+02
 21
-2.76797361E+02
  0
ARC
  8
0
 62
4
 10
9.93152130E+01
 20
-2.49107460E+02
 40
7.00000000E+00
 50
4.89793705E+01
 51
1.11020629E+02
  0
ARC
  8
0
 62
4
 10
-8.49949472E+00
 20
-1.41997021E+02
 40
1.49950029E+00
 50
2.69980903E+02
 51
1.90971113E-02
  0
ARC
  8
0
 62
4
 10
-4.45004981E+01
 20
-1.41997025E+02
 40
1.49949647E+00
 50
1.79980757E+02
 51
2.70019243E+02
  0
LINE
  8
0
 62
4
 10
-4.14999945E+01
 20
-1.38370294E+02
 11
-2.64999945E+01
 21
-1.38370294E+02
  0
LINE
  8
0
 62
4
 10
-4.34999945E+01
 20
-1.41034502E+02
 11
-2.44999945E+01
 21
-1.41034502E+02
  0
POLYLINE
  8
0
 62
4
 66
1
  0
VERTEX
  8
0
 62
4
 10
-1.44999945E+01
 20
-1.31678828E+02
  0
VERTEX
  8
0
 62
4
 10
-1.45133131E+01
 20
-1.31378417E+02
  0
VERTEX
  8
0
 62
4
 10
-1.45531674E+01
 20
-1.31080293E+02
  0
VERTEX
  8
0
 62
4
 10
-1.46192541E+01
 20
-1.30786723E+02
  0
VERTEX
  8
0
 62
4
 10
-1.47110703E+01
 20
-1.30499944E+02
  0
VERTEX
  8
0
 62
4
 10
-1.48279172E+01
 20
-1.30222136E+02
  0
VERTEX
  8
0
 62
4
 10
-1.49689056E+01
 20
-1.29955414E+02
  0
VERTEX
  8
0
 62
4
 10
-1.51329623E+01
 20
-1.29701809E+02
  0
VERTEX
  8
0
 62
4
 10
-1.53188389E+01
 20
-1.29463250E+02
  0
VERTEX
  8
0
 62
4
 10
-1.55251208E+01
 20
-1.29241553E+02
  0
VERTEX
  8
0
 62
4
 10
-1.57502379E+01
 20
-1.29038405E+02
  0
VERTEX
  8
0
 62
4
 10
-1.59924770E+01
 20
-1.28855353E+02
  0
VERTEX
  8
0
 62
4
 10
-1.62499945E+01
 20
-1.28693788E+02
  0
VERTEX
  8
0
 62
4
 10
-1.65208306E+01
 20
-1.28554942E+02
  0
VERTEX
  8
0
 62
4
 10
-1.68029240E+01
 20
-1.28439870E+02
  0
VERTEX
  8
0
 62
4
 10
-1.70941278E+01
 20
-1.28349449E+02
  0
VERTEX
  8
0
 62
4
 10
-1.73922259E+01
 20
-1.28284366E+02
  0
VERTEX
  8
0
 62
4
 10
-1.76949494E+01
 20
-1.28245117E+02
  0
VERTEX
  8
0
 62
4
 10
-1.79999945E+01
 20
-1.28232001E+02
  0
VERTEX
  8
0
 62
4
 10
-1.83050396E+01
 20
-1.28245117E+02
  0
VERTEX
  8
0
 62
4
 10
-1.86077631E+01
 20
-1.28284366E+02
  0
VERTEX
  8
0
 62
4
 10
-1.89058612E+01
 20
-1.28349449E+02
  0
VERTEX
  8
0
 62
4
 10
-1.91970650E+01
 20
-1.28439870E+02
  0
VERTEX
  8
0
 62
4
 10
-1.94791584E+01
 20
-1.28554942E+02
  0
VERTEX
  8
0
 62
4
 10
-1.97499945E+01
 20
-1.28693788E+02
  0
VERTEX
  8
0
 62
4
 10
-2.00075120E+01
 20
-1.28855353E+02
  0
VERTEX
  8
0
 62
4
 10
-2.02497511E+01
 20
-1.29038405E+02
  0
VERTEX
  8
0
 62
4
 10
-2.04748682E+01
 20
-1.29241553E+02
  0
VERTEX
  8
0
 62
4
 10
-2.06811501E+01
 20
-1.29463250E+02
  0
VERTEX
  8
0
 62
4
 10
-2.08670267E+01
 20
-1.29701809E+02
  0
VERTEX
  8
0
 62
4
 10
-2.10310834E+01
 20
-1.29955414E+02
  0
VERTEX
  8
0
 62
4
 10
-2.11720718E+01
 20
-1.30222136E+02
  0
VERTEX
  8
0
 62
4
 10
-2.12889187E+01
 20
-1.30499944E+02
  0
VERTEX
  8
0
 62
4
 10
-2.13807349E+01
 20
-1.30786723E+02
  0
VERTEX
  8
0
 62
4
 10
-2.14468216E+01
 20
-1.31080293E+02
  0
VERTEX
  8
0
 62
4
 10
-2.14866759E+01
 20
-1.31378417E+02
  0
VERTEX
  8
0
 62
4
 10
-2.14999945E+01
 20
-1.31678828E+02
  0
VERTEX
  8
0
 62
4
 10
-2.14866759E+01
 20
-1.31979239E+02
  0
VERTEX
  8
0
 62
4
 10
-2.14468216E+01
 20
-1.32277363E+02
  0
VERTEX
  8
0
 62
4
 10
-2.13807349E+01
 20
-1.32570933E+02
  0
VERTEX
  8
0
 62
4
 10
-2.12889187E+01
 20
-1.32857712E+02
  0
VERTEX
  8
0
 62
4
 10
-2.11720718E+01
 20
-1.33135520E+02
  0
VERTEX
  8
0
 62
4
 10
-2.10310834E+01
 20
-1.33402242E+02
  0
VERTEX
  8
0
 62
4
 10
-2.08670267E+01
 20
-1.33655847E+02
  0
VERTEX
  8
0
 62
4
 10
-2.06811500E+01
 20
-1.33894406E+02
  0
VERTEX
  8
0
 62
4
 10
-2.04748682E+01
 20
-1.34116103E+02
  0
VERTEX
  8
0
 62
4
 10
-2.02497511E+01
 20
-1.34319251E+02
  0
VERTEX
  8
0
 62
4
 10
-2.00075120E+01
 20
-1.34502304E+02
  0
VERTEX
  8
0
 62
4
 10
-1.97499945E+01
 20
-1.34663868E+02
  0
VERTEX
  8
0
 62
4
 10
-1.94791584E+01
 20
-1.34802714E+02
  0
VERTEX
  8
0
 62
4
 10
-1.91970650E+01
 20
-1.34917786E+02
  0
VERTEX
  8
0
 62
4
 10
-1.89058612E+01
 20
-1.35008207E+02
  0
VERTEX
  8
0
 62
4
 10
-1.86077631E+01
 20
-1.35073290E+02
  0
VERTEX
  8
0
 62
4
 10
-1.83050396E+01
 20
-1.35112539E+02
  0
VERTEX
  8
0
 62
4
 10
-1.79999945E+01
 20
-1.35125655E+02
  0
VERTEX
  8
0
 62
4
 10
-1.76949494E+01
 20
-1.35112539E+02
  0
VERTEX
  8
0
 62
4
 10
-1.73922259E+01
 20
-1.35073290E+02
  0
VERTEX
  8
0
 62
4
 10
-1.70941278E+01
 20
-1.35008207E+02
  0
VERTEX
  8
0
 62
4
 10
-1.68029240E+01
 20
-1.34917786E+02
  0
VERTEX
  8
0
 62
4
 10
-1.65208306E+01
 20
-1.34802714E+02
  0
VERTEX
  8
0
 62
4
 10
-1.62499945E+01
 20
-1.34663868E+02
  0
VERTEX
  8
0
 62
4
 10
-1.59924770E+01
 20
-1.34502303E+02
  0
VERTEX
  8
0
 62
4
 10
-1.57502379E+01
 20
-1.34319251E+02
  0
VERTEX
  8
0
 62
4
 10
-1.55251208E+01
 20
-1.34116103E+02
  0
VERTEX
  8
0
 62
4
 10
-1.53188389E+01
 20
-1.33894406E+02
  0
VERTEX
  8
0
 62
4
 10
-1.51329623E+01
 20
-1.33655847E+02
  0
VERTEX
  8
0
 62
4
 10
-1.49689056E+01
 20
-1.33402242E+02
  0
VERTEX
  8
0
 62
4
 10
-1.48279172E+01
 20
-1.33135520E+02
  0
VERTEX
  8
0
 62
4
 10
-1.47110703E+01
 20
-1.32857712E+02
  0
VERTEX
  8
0
 62
4
 10
-1.46192541E+01
 20
-1.32570933E+02
  0
VERTEX
  8
0
 62
4
 10
-1.45531674E+01
 20
-1.32277363E+02
  0
VERTEX
  8
0
 62
4
 10
-1.45133131E+01
 20
-1.31979239E+02
  0
VERTEX
  8
0
 62
4
 10
-1.44999945E+01
 20
-1.31678828E+02
  0
SEQEND
  8
0
  0
POLYLINE
  8
0
 62
4
 66
1
  0
VERTEX
  8
0
 62
4
 10
-1.48599945E+01
 20
-1.31505180E+02
  0
VERTEX
  8
0
 62
4
 10
-1.48719431E+01
 20
-1.31235669E+02
  0
VERTEX
  8
0
 62
4
 10
-1.49076982E+01
 20
-1.30968208E+02
  0
VERTEX
  8
0
 62
4
 10
-1.49669874E+01
 20
-1.30704835E+02
  0
VERTEX
  8
0
 62
4
 10
-1.50493597E+01
 20
-1.30447552E+02
  0
VERTEX
  8
0
 62
4
 10
-1.51541880E+01
 20
-1.30198319E+02
  0
VERTEX
  8
0
 62
4
 10
-1.52806747E+01
 20
-1.29959032E+02
  0
VERTEX
  8
0
 62
4
 10
-1.54278571E+01
 20
-1.29731512E+02
  0
VERTEX
  8
0
 62
4
 10
-1.55946149E+01
 20
-1.29517490E+02
  0
VERTEX
  8
0
 62
4
 10
-1.57796792E+01
 20
-1.29318596E+02
  0
VERTEX
  8
0
 62
4
 10
-1.59816414E+01
 20
-1.29136344E+02
  0
VERTEX
  8
0
 62
4
 10
-1.61989645E+01
 20
-1.28972119E+02
  0
VERTEX
  8
0
 62
4
 10
-1.64299945E+01
 20
-1.28827173E+02
  0
VERTEX
  8
0
 62
4
 10
-1.66729732E+01
 20
-1.28702608E+02
  0
VERTEX
  8
0
 62
4
 10
-1.69260513E+01
 20
-1.28599372E+02
  0
VERTEX
  8
0
 62
4
 10
-1.71873027E+01
 20
-1.28518251E+02
  0
VERTEX
  8
0
 62
4
 10
-1.74547392E+01
 20
-1.28459863E+02
  0
VERTEX
  8
0
 62
4
 10
-1.77263255E+01
 20
-1.28424651E+02
  0
VERTEX
  8
0
 62
4
 10
-1.79999945E+01
 20
-1.28412884E+02
  0
VERTEX
  8
0
 62
4
 10
-1.82736635E+01
 20
-1.28424651E+02
  0
VERTEX
  8
0
 62
4
 10
-1.85452498E+01
 20
-1.28459863E+02
  0
VERTEX
  8
0
 62
4
 10
-1.88126863E+01
 20
-1.28518251E+02
  0
VERTEX
  8
0
 62
4
 10
-1.90739378E+01
 20
-1.28599372E+02
  0
VERTEX
  8
0
 62
4
 10
-1.93270158E+01
 20
-1.28702608E+02
  0
VERTEX
  8
0
 62
4
 10
-1.95699945E+01
 20
-1.28827173E+02
  0
VERTEX
  8
0
 62
4
 10
-1.98010245E+01
 20
-1.28972119E+02
  0
VERTEX
  8
0
 62
4
 10
-2.00183476E+01
 20
-1.29136344E+02
  0
VERTEX
  8
0
 62
4
 10
-2.02203098E+01
 20
-1.29318596E+02
  0
VERTEX
  8
0
 62
4
 10
-2.04053741E+01
 20
-1.29517490E+02
  0
VERTEX
  8
0
 62
4
 10
-2.05721319E+01
 20
-1.29731512E+02
  0
VERTEX
  8
0
 62
4
 10
-2.07193143E+01
 20
-1.29959032E+02
  0
VERTEX
  8
0
 62
4
 10
-2.08458010E+01
 20
-1.30198319E+02
  0
VERTEX
  8
0
 62
4
 10
-2.09506293E+01
 20
-1.30447552E+02
  0
VERTEX
  8
0
 62
4
 10
-2.10330016E+01
 20
-1.30704835E+02
  0
VERTEX
  8
0
 62
4
 10
-2.10922908E+01
 20
-1.30968208E+02
  0
VERTEX
  8
0
 62
4
 10
-2.11280459E+01
 20
-1.31235669E+02
  0
VERTEX
  8
0
 62
4
 10
-2.11399945E+01
 20
-1.31505180E+02
  0
VERTEX
  8
0
 62
4
 10
-2.11280459E+01
 20
-1.31774691E+02
  0
VERTEX
  8
0
 62
4
 10
-2.10922908E+01
 20
-1.32042152E+02
  0
VERTEX
  8
0
 62
4
 10
-2.10330016E+01
 20
-1.32305525E+02
  0
VERTEX
  8
0
 62
4
 10
-2.09506293E+01
 20
-1.32562808E+02
  0
VERTEX
  8
0
 62
4
 10
-2.08458009E+01
 20
-1.32812041E+02
  0
VERTEX
  8
0
 62
4
 10
-2.07193143E+01
 20
-1.33051328E+02
  0
VERTEX
  8
0
 62
4
 10
-2.05721319E+01
 20
-1.33278848E+02
  0
VERTEX
  8
0
 62
4
 10
-2.04053740E+01
 20
-1.33492870E+02
  0
VERTEX
  8
0
 62
4
 10
-2.02203098E+01
 20
-1.33691764E+02
  0
VERTEX
  8
0
 62
4
 10
-2.00183476E+01
 20
-1.33874016E+02
  0
VERTEX
  8
0
 62
4
 10
-1.98010245E+01
 20
-1.34038241E+02
  0
VERTEX
  8
0
 62
4
 10
-1.95699945E+01
 20
-1.34183187E+02
  0
VERTEX
  8
0
 62
4
 10
-1.93270158E+01
 20
-1.34307752E+02
  0
VERTEX
  8
0
 62
4
 10
-1.90739377E+01
 20
-1.34410988E+02
  0
VERTEX
  8
0
 62
4
 10
-1.88126863E+01
 20
-1.34492109E+02
  0
VERTEX
  8
0
 62
4
 10
-1.85452498E+01
 20
-1.34550497E+02
  0
VERTEX
  8
0
 62
4
 10
-1.82736635E+01
 20
-1.34585709E+02
  0
VERTEX
  8
0
 62
4
 10
-1.79999945E+01
 20
-1.34597476E+02
  0
VERTEX
  8
0
 62
4
 10
-1.77263255E+01
 20
-1.34585709E+02
  0
VERTEX
  8
0
 62
4
 10
-1.74547392E+01
 20
-1.34550497E+02
  0
VERTEX
  8
0
 62
4
 10
-1.71873027E+01
 20
-1.34492109E+02
  0
VERTEX
  8
0
 62
4
 10
-1.69260512E+01
 20
-1.34410988E+02
  0
VERTEX
  8
0
 62
4
 10
-1.66729732E+01
 20
-1.34307752E+02
  0
VERTEX
  8
0
 62
4
 10
-1.64299945E+01
 20
-1.34183187E+02
  0
VERTEX
  8
0
 62
4
 10
-1.61989645E+01
 20
-1.34038241E+02
  0
VERTEX
  8
0
 62
4
 10
-1.59816414E+01
 20
-1.33874016E+02
  0
VERTEX
  8
0
 62
4
 10
-1.57796792E+01
 20
-1.33691764E+02
  0
VERTEX
  8
0
 62
4
 10
-1.55946149E+01
 20
-1.33492870E+02
  0
VERTEX
  8
0
 62
4
 10
-1.54278571E+01
 20
-1.33278848E+02
  0
VERTEX
  8
0
 62
4
 10
-1.52806747E+01
 20
-1.33051328E+02
  0
VERTEX
  8
0
 62
4
 10
-1.51541880E+01
 20
-1.32812041E+02
  0
VERTEX
  8
0
 62
4
 10
-1.50493597E+01
 20
-1.32562808E+02
  0
VERTEX
  8
0
 62
4
 10
-1.49669874E+01
 20
-1.32305525E+02
  0
VERTEX
  8
0
 62
4
 10
-1.49076982E+01
 20
-1.32042152E+02
  0
VERTEX
  8
0
 62
4
 10
-1.48719431E+01
 20
-1.31774691E+02
  0
VERTEX
  8
0
 62
4
 10
-1.48599945E+01
 20
-1.31505180E+02
  0
SEQEND
  8
0
  0
ARC
  8
0
 62
4
 10
-2.97643995E+01
 20
-1.36830596E+02
 40
1.21769740E+01
 50
2.40462101E+02
 51
2.52020214E+02
  0
ARC
  8
0
 62
4
 10
-3.82355895E+01
 20
-1.36830596E+02
 40
1.21769740E+01
 50
2.87979786E+02
 51
2.99537899E+02
  0
POLYLINE
  8
0
 62
4
 66
1
  0
VERTEX
  8
0
 62
4
 10
-3.05999945E+01
 20
-1.47413743E+02
  0
VERTEX
  8
0
 62
4
 10
-3.06129325E+01
 20
-1.47325790E+02
  0
VERTEX
  8
0
 62
4
 10
-3.06516481E+01
 20
-1.47238507E+02
  0
VERTEX
  8
0
 62
4
 10
-3.07158467E+01
 20
-1.47152558E+02
  0
VERTEX
  8
0
 62
4
 10
-3.08050396E+01
 20
-1.47068596E+02
  0
VERTEX
  8
0
 62
4
 10
-3.09185480E+01
 20
-1.46987261E+02
  0
VERTEX
  8
0
 62
4
 10
-3.10555081E+01
 20
-1.46909172E+02
  0
VERTEX
  8
0
 62
4
 10
-3.12148775E+01
 20
-1.46834923E+02
  0
VERTEX
  8
0
 62
4
 10
-3.13954434E+01
 20
-1.46765079E+02
  0
VERTEX
  8
0
 62
4
 10
-3.15958314E+01
 20
-1.46700172E+02
  0
VERTEX
  8
0
 62
4
 10
-3.18145166E+01
 20
-1.46640695E+02
  0
VERTEX
  8
0
 62
4
 10
-3.20498346E+01
 20
-1.46587102E+02
  0
VERTEX
  8
0
 62
4
 10
-3.22999945E+01
 20
-1.46539800E+02
  0
VERTEX
  8
0
 62
4
 10
-3.25630924E+01
 20
-1.46499149E+02
  0
VERTEX
  8
0
 62
4
 10
-3.28371260E+01
 20
-1.46465459E+02
  0
VERTEX
  8
0
 62
4
 10
-3.31200097E+01
 20
-1.46438986E+02
  0
VERTEX
  8
0
 62
4
 10
-3.34095907E+01
 20
-1.46419932E+02
  0
VERTEX
  8
0
 62
4
 10
-3.37036650E+01
 20
-1.46408441E+02
  0
VERTEX
  8
0
 62
4
 10
-3.39999945E+01
 20
-1.46404601E+02
  0
VERTEX
  8
0
 62
4
 10
-3.42963240E+01
 20
-1.46408441E+02
  0
VERTEX
  8
0
 62
4
 10
-3.45903983E+01
 20
-1.46419932E+02
  0
VERTEX
  8
0
 62
4
 10
-3.48799793E+01
 20
-1.46438986E+02
  0
VERTEX
  8
0
 62
4
 10
-3.51628630E+01
 20
-1.46465459E+02
  0
VERTEX
  8
0
 62
4
 10
-3.54368966E+01
 20
-1.46499149E+02
  0
VERTEX
  8
0
 62
4
 10
-3.56999945E+01
 20
-1.46539800E+02
  0
VERTEX
  8
0
 62
4
 10
-3.59501544E+01
 20
-1.46587102E+02
  0
VERTEX
  8
0
 62
4
 10
-3.61854724E+01
 20
-1.46640695E+02
  0
VERTEX
  8
0
 62
4
 10
-3.64041576E+01
 20
-1.46700172E+02
  0
VERTEX
  8
0
 62
4
 10
-3.66045456E+01
 20
-1.46765079E+02
  0
VERTEX
  8
0
 62
4
 10
-3.67851115E+01
 20
-1.46834923E+02
  0
VERTEX
  8
0
 62
4
 10
-3.69444809E+01
 20
-1.46909172E+02
  0
VERTEX
  8
0
 62
4
 10
-3.70814410E+01
 20
-1.46987261E+02
  0
VERTEX
  8
0
 62
4
 10
-3.71949494E+01
 20
-1.47068596E+02
  0
VERTEX
  8
0
 62
4
 10
-3.72841423E+01
 20
-1.47152558E+02
  0
VERTEX
  8
0
 62
4
 10
-3.73483409E+01
 20
-1.47238507E+02
  0
VERTEX
  8
0
 62
4
 10
-3.73870565E+01
 20
-1.47325790E+02
  0
VERTEX
  8
0
 62
4
 10
-3.73999945E+01
 20
-1.47413743E+02
  0
VERTEX
  8
0
 62
4
 10
-3.73870565E+01
 20
-1.47501696E+02
  0
VERTEX
  8
0
 62
4
 10
-3.73483409E+01
 20
-1.47588979E+02
  0
VERTEX
  8
0
 62
4
 10
-3.72841423E+01
 20
-1.47674928E+02
  0
VERTEX
  8
0
 62
4
 10
-3.71949494E+01
 20
-1.47758890E+02
  0
VERTEX
  8
0
 62
4
 10
-3.70814410E+01
 20
-1.47840225E+02
  0
VERTEX
  8
0
 62
4
 10
-3.69444809E+01
 20
-1.47918314E+02
  0
VERTEX
  8
0
 62
4
 10
-3.67851114E+01
 20
-1.47992563E+02
  0
VERTEX
  8
0
 62
4
 10
-3.66045456E+01
 20
-1.48062407E+02
  0
VERTEX
  8
0
 62
4
 10
-3.64041576E+01
 20
-1.48127314E+02
  0
VERTEX
  8
0
 62
4
 10
-3.61854724E+01
 20
-1.48186791E+02
  0
VERTEX
  8
0
 62
4
 10
-3.59501544E+01
 20
-1.48240384E+02
  0
VERTEX
  8
0
 62
4
 10
-3.56999945E+01
 20
-1.48287686E+02
  0
VERTEX
  8
0
 62
4
 10
-3.54368966E+01
 20
-1.48328337E+02
  0
VERTEX
  8
0
 62
4
 10
-3.51628630E+01
 20
-1.48362027E+02
  0
VERTEX
  8
0
 62
4
 10
-3.48799792E+01
 20
-1.48388500E+02
  0
VERTEX
  8
0
 62
4
 10
-3.45903983E+01
 20
-1.48407554E+02
  0
VERTEX
  8
0
 62
4
 10
-3.42963240E+01
 20
-1.48419045E+02
  0
VERTEX
  8
0
 62
4
 10
-3.39999945E+01
 20
-1.48422885E+02
  0
VERTEX
  8
0
 62
4
 10
-3.37036650E+01
 20
-1.48419045E+02
  0
VERTEX
  8
0
 62
4
 10
-3.34095907E+01
 20
-1.48407554E+02
  0
VERTEX
  8
0
 62
4
 10
-3.31200097E+01
 20
-1.48388500E+02
  0
VERTEX
  8
0
 62
4
 10
-3.28371260E+01
 20
-1.48362027E+02
  0
VERTEX
  8
0
 62
4
 10
-3.25630924E+01
 20
-1.48328337E+02
  0
VERTEX
  8
0
 62
4
 10
-3.22999945E+01
 20
-1.48287686E+02
  0
VERTEX
  8
0
 62
4
 10
-3.20498346E+01
 20
-1.48240384E+02
  0
VERTEX
  8
0
 62
4
 10
-3.18145166E+01
 20
-1.48186791E+02
  0
VERTEX
  8
0
 62
4
 10
-3.15958314E+01
 20
-1.48127314E+02
  0
VERTEX
  8
0
 62
4
 10
-3.13954434E+01
 20
-1.48062407E+02
  0
VERTEX
  8
0
 62
4
 10
-3.12148775E+01
 20
-1.47992563E+02
  0
VERTEX
  8
0
 62
4
 10
-3.10555081E+01
 20
-1.47918314E+02
  0
VERTEX
  8
0
 62
4
 10
-3.09185480E+01
 20
-1.47840225E+02
  0
VERTEX
  8
0
 62
4
 10
-3.08050396E+01
 20
-1.47758890E+02
  0
VERTEX
  8
0
 62
4
 10
-3.07158467E+01
 20
-1.47674928E+02
  0
VERTEX
  8
0
 62
4
 10
-3.06516481E+01
 20
-1.47588979E+02
  0
VERTEX
  8
0
 62
4
 10
-3.06129325E+01
 20
-1.47501696E+02
  0
VERTEX
  8
0
 62
4
 10
-3.05999945E+01
 20
-1.47413743E+02
  0
SEQEND
  8
0
  0
ARC
  8
0
 62
4
 10
-4.44994946E+01
 20
-1.21757778E+02
 40
1.50050004E+00
 50
9.00190906E+01
 51
1.34401209E+02
  0
ARC
  8
0
 62
4
 10
-5.04994944E+01
 20
-1.21186234E+02
 40
5.00500378E-01
 50
9.00572530E+01
 51
1.79942747E+02
  0
ARC
  8
0
 62
4
 10
-5.05004941E+01
 20
-1.34186234E+02
 40
4.99500622E-01
 50
1.79942690E+02
 51
2.70057311E+02
  0
ARC
  8
0
 62
4
 10
-8.50049829E+00
 20
-1.21757782E+02
 40
1.50050386E+00
 50
1.92364101E-02
 51
8.99807637E+01
  0
LINE
  8
0
 62
4
 10
-2.44999945E+01
 20
-1.21628562E+02
 11
-2.64999945E+01
 21
-1.21628562E+02
  0
LINE
  8
0
 62
4
 10
-4.44999945E+01
 20
-1.43496522E+02
 11
-8.49999451E+00
 21
-1.43496522E+02
  0
LINE
  8
0
 62
4
 10
-4.44999945E+01
 20
-1.20257278E+02
 11
-4.14999945E+01
 21
-1.20257278E+02
  0
LINE
  8
0
 62
4
 10
-4.34999945E+01
 20
-1.40339910E+02
 11
-2.44999945E+01
 21
-1.40339910E+02
  0
LINE
  8
0
 62
4
 10
-4.34999945E+01
 20
-1.34670086E+02
 11
-4.34999945E+01
 21
-1.41034502E+02
  0
LINE
  8
0
 62
4
 10
-4.59999945E+01
 20
-1.34670086E+02
 11
-4.59999945E+01
 21
-1.44601244E+02
  0
LINE
  8
0
 62
4
 10
-2.44999945E+01
 20
-1.21628562E+02
 11
-2.44999945E+01
 21
-1.41034502E+02
  0
LINE
  8
0
 62
4
 10
-6.99999451E+00
 20
-1.21757278E+02
 11
-6.99999451E+00
 21
-1.44601744E+02
  0
LINE
  8
0
 62
4
 10
-6.09999945E+01
 20
-1.20632490E+02
 11
-5.59999945E+01
 21
-1.20632490E+02
  0
LINE
  8
0
 62
4
 10
-4.14999945E+01
 20
-1.34029090E+02
 11
-2.64999945E+01
 21
-1.34029090E+02
  0
LINE
  8
0
 62
4
 10
-4.14999945E+01
 20
-1.19256973E+02
 11
-2.64999945E+01
 21
-1.19256973E+02
  0
LINE
  8
0
 62
4
 10
-2.64999945E+01
 20
-1.07681873E+02
 11
-2.64999945E+01
 21
-1.38370294E+02
  0
LINE
  8
0
 62
4
 10
-5.44999945E+01
 20
-1.33435734E+02
 11
-5.09999945E+01
 21
-1.33435734E+02
  0
LINE
  8
0
 62
4
 10
-5.44999945E+01
 20
-1.21935734E+02
 11
-5.09999945E+01
 21
-1.21935734E+02
  0
LINE
  8
0
 62
4
 10
-5.44999945E+01
 20
-1.21435734E+02
 11
-5.44999945E+01
 21
-1.33935734E+02
  0
LINE
  8
0
 62
4
 10
-5.59999945E+01
 20
-1.33935734E+02
 11
-5.09999945E+01
 21
-1.33935734E+02
  0
LINE
  8
0
 62
4
 10
-5.59999945E+01
 20
-1.21435734E+02
 11
-5.09999945E+01
 21
-1.21435734E+02
  0
LINE
  8
0
 62
4
 10
-5.59999945E+01
 20
-1.20632490E+02
 11
-5.59999945E+01
 21
-1.34739088E+02
  0
LINE
  8
0
 62
4
 10
-6.09999945E+01
 20
-1.20632490E+02
 11
-6.09999945E+01
 21
-1.34739088E+02
  0
LINE
  8
0
 62
4
 10
-5.09999945E+01
 20
-1.21170086E+02
 11
-5.09999945E+01
 21
-1.34170086E+02
  0
LINE
  8
0
 62
4
 10
-4.14999945E+01
 20
-1.20685734E+02
 11
-5.04999945E+01
 21
-1.20685734E+02
  0
LINE
  8
0
 62
4
 10
-5.04999945E+01
 20
-1.34685734E+02
 11
-4.14999945E+01
 21
-1.34685734E+02
  0
LINE
  8
0
  6
CENTER
 62
6
 10
-3.39999945E+01
 20
-1.06032215E+02
 11
-3.39999945E+01
 21
-1.49607031E+02
  0
LINE
  8
0
 62
4
 10
-3.73999945E+01
 20
-1.47413743E+02
 11
-3.73999945E+01
 21
-1.45291287E+02
  0
LINE
  8
0
 62
4
 10
-3.05999945E+01
 20
-1.45291287E+02
 11
-3.05999945E+01
 21
-1.47413743E+02
  0
LINE
  8
0
 62
4
 10
-3.79999945E+01
 20
-1.44798883E+02
 11
-3.79999945E+01
 21
-1.45291287E+02
  0
LINE
  8
0
 62
4
 10
-2.99999945E+01
 20
-1.45291287E+02
 11
-2.99999945E+01
 21
-1.44798883E+02
  0
LINE
  8
0
 62
6
 10
-3.64999945E+01
 20
-1.06173644E+02
 11
-3.64999945E+01
 21
-1.07681873E+02
  0
LINE
  8
0
 62
4
 10
-3.99999945E+01
 20
-1.07173644E+02
 11
-3.97399945E+01
 21
-1.06173644E+02
  0
LINE
  8
0
 62
4
 10
-3.59999945E+01
 20
-1.07173644E+02
 11
-3.62699945E+01
 21
-1.06173644E+02
  0
LINE
  8
0
 62
4
 10
-3.62699945E+01
 20
-1.06173644E+02
 11
-3.97399945E+01
 21
-1.06173644E+02
  0
LINE
  8
0
 62
4
 10
-3.99999945E+01
 20
-1.07173644E+02
 11
-3.99999945E+01
 21
-1.07681873E+02
  0
LINE
  8
0
 62
4
 10
-3.59999945E+01
 20
-1.07173644E+02
 11
-3.59999945E+01
 21
-1.07681873E+02
  0
LINE
  8
0
 62
6
 10
-3.94999945E+01
 20
-1.06173644E+02
 11
-3.94999945E+01
 21
-1.07681873E+02
  0
LINE
  8
0
  6
CENTER
 62
6
 10
-3.79999945E+01
 20
-1.04913644E+02
 11
-3.79999945E+01
 21
-1.15413644E+02
  0
LINE
  8
0
 62
4
 10
-2.64999945E+01
 20
-1.07681873E+02
 11
-4.14999945E+01
 21
-1.07681873E+02
  0
LINE
  8
0
 62
4
 10
-2.74999945E+01
 20
-1.13486966E+02
 11
-4.04999945E+01
 21
-1.13486966E+02
  0
LINE
  8
0
 62
4
 10
-4.14999945E+01
 20
-1.07681873E+02
 11
-4.14999945E+01
 21
-1.38370294E+02
  0
LINE
  8
0
 62
6
 10
-3.14999945E+01
 20
-1.06173644E+02
 11
-3.14999945E+01
 21
-1.07681873E+02
  0
LINE
  8
0
 62
6
 10
-2.84999945E+01
 20
-1.06173644E+02
 11
-2.84999945E+01
 21
-1.07681873E+02
  0
LINE
  8
0
 62
4
 10
-3.19999945E+01
 20
-1.07173644E+02
 11
-3.17399945E+01
 21
-1.06173644E+02
  0
LINE
  8
0
 62
4
 10
-2.79999945E+01
 20
-1.07173644E+02
 11
-2.82699945E+01
 21
-1.06173644E+02
  0
LINE
  8
0
 62
4
 10
-2.82699945E+01
 20
-1.06173644E+02
 11
-3.17399945E+01
 21
-1.06173644E+02
  0
LINE
  8
0
 62
4
 10
-3.19999945E+01
 20
-1.07173644E+02
 11
-3.19999945E+01
 21
-1.07681873E+02
  0
LINE
  8
0
 62
4
 10
-2.79999945E+01
 20
-1.07173644E+02
 11
-2.79999945E+01
 21
-1.07681873E+02
  0
LINE
  8
0
  6
CENTER
 62
6
 10
-2.99999945E+01
 20
-1.04913644E+02
 11
-2.99999945E+01
 21
-1.15413644E+02
  0
LINE
  8
0
 62
4
 10
-6.09999945E+01
 20
-1.26382559E+02
 11
-5.59999945E+01
 21
-1.26382559E+02
  0
LINE
  8
0
 62
4
 10
-6.09999945E+01
 20
-1.34739088E+02
 11
-5.59999945E+01
 21
-1.34739088E+02
  0
LINE
  8
0
 62
4
 10
-2.64999945E+01
 20
-1.20257278E+02
 11
-8.49999451E+00
 21
-1.20257278E+02
  0
ARC
  8
0
 62
4
 10
-8.49949472E+00
 20
-1.44601744E+02
 40
1.49950029E+00
 50
2.69980903E+02
 51
1.90971113E-02
  0
LINE
  8
0
 62
4
 10
-4.44999945E+01
 20
-1.46101244E+02
 11
-3.73999945E+01
 21
-1.46101244E+02
  0
ARC
  8
0
 62
4
 10
-4.45004981E+01
 20
-1.44601748E+02
 40
1.49949647E+00
 50
1.79980757E+02
 51
2.70019243E+02
  0
LINE
  8
0
 62
4
 10
-6.09999945E+01
 20
-1.33434990E+02
 11
-5.59999945E+01
 21
-1.33434990E+02
  0
POLYLINE
  8
0
 62
4
 66
1
  0
VERTEX
  8
0
 62
4
 10
-3.09999945E+01
 20
-1.26643031E+02
  0
VERTEX
  8
0
 62
4
 10
-3.10114104E+01
 20
-1.26385536E+02
  0
VERTEX
  8
0
 62
4
 10
-3.10455712E+01
 20
-1.26130001E+02
  0
VERTEX
  8
0
 62
4
 10
-3.11022170E+01
 20
-1.25878370E+02
  0
VERTEX
  8
0
 62
4
 10
-3.11809166E+01
 20
-1.25632559E+02
  0
VERTEX
  8
0
 62
4
 10
-3.12810711E+01
 20
-1.25394438E+02
  0
VERTEX
  8
0
 62
4
 10
-3.14019183E+01
 20
-1.25165819E+02
  0
VERTEX
  8
0
 62
4
 10
-3.15425384E+01
 20
-1.24948443E+02
  0
VERTEX
  8
0
 62
4
 10
-3.17018612E+01
 20
-1.24743964E+02
  0
VERTEX
  8
0
 62
4
 10
-3.18786742E+01
 20
-1.24553938E+02
  0
VERTEX
  8
0
 62
4
 10
-3.20716317E+01
 20
-1.24379811E+02
  0
VERTEX
  8
0
 62
4
 10
-3.22792652E+01
 20
-1.24222909E+02
  0
VERTEX
  8
0
 62
4
 10
-3.24999945E+01
 20
-1.24084425E+02
  0
VERTEX
  8
0
 62
4
 10
-3.27321397E+01
 20
-1.23965414E+02
  0
VERTEX
  8
0
 62
4
 10
-3.29739341E+01
 20
-1.23866781E+02
  0
VERTEX
  8
0
 62
4
 10
-3.32235374E+01
 20
-1.23789277E+02
  0
VERTEX
  8
0
 62
4
 10
-3.34790500E+01
 20
-1.23733492E+02
  0
VERTEX
  8
0
 62
4
 10
-3.37385273E+01
 20
-1.23699850E+02
  0
VERTEX
  8
0
 62
4
 10
-3.39999945E+01
 20
-1.23688608E+02
  0
VERTEX
  8
0
 62
4
 10
-3.42614617E+01
 20
-1.23699850E+02
  0
VERTEX
  8
0
 62
4
 10
-3.45209390E+01
 20
-1.23733492E+02
  0
VERTEX
  8
0
 62
4
 10
-3.47764516E+01
 20
-1.23789277E+02
  0
VERTEX
  8
0
 62
4
 10
-3.50260549E+01
 20
-1.23866781E+02
  0
VERTEX
  8
0
 62
4
 10
-3.52678493E+01
 20
-1.23965414E+02
  0
VERTEX
  8
0
 62
4
 10
-3.54999945E+01
 20
-1.24084425E+02
  0
VERTEX
  8
0
 62
4
 10
-3.57207238E+01
 20
-1.24222909E+02
  0
VERTEX
  8
0
 62
4
 10
-3.59283573E+01
 20
-1.24379811E+02
  0
VERTEX
  8
0
 62
4
 10
-3.61213148E+01
 20
-1.24553938E+02
  0
VERTEX
  8
0
 62
4
 10
-3.62981278E+01
 20
-1.24743964E+02
  0
VERTEX
  8
0
 62
4
 10
-3.64574506E+01
 20
-1.24948443E+02
  0
VERTEX
  8
0
 62
4
 10
-3.65980707E+01
 20
-1.25165819E+02
  0
VERTEX
  8
0
 62
4
 10
-3.67189179E+01
 20
-1.25394438E+02
  0
VERTEX
  8
0
 62
4
 10
-3.68190724E+01
 20
-1.25632559E+02
  0
VERTEX
  8
0
 62
4
 10
-3.68977720E+01
 20
-1.25878370E+02
  0
VERTEX
  8
0
 62
4
 10
-3.69544178E+01
 20
-1.26130001E+02
  0
VERTEX
  8
0
 62
4
 10
-3.69885786E+01
 20
-1.26385536E+02
  0
VERTEX
  8
0
 62
4
 10
-3.69999945E+01
 20
-1.26643031E+02
  0
VERTEX
  8
0
 62
4
 10
-3.69885786E+01
 20
-1.26900526E+02
  0
VERTEX
  8
0
 62
4
 10
-3.69544178E+01
 20
-1.27156061E+02
  0
VERTEX
  8
0
 62
4
 10
-3.68977720E+01
 20
-1.27407692E+02
  0
VERTEX
  8
0
 62
4
 10
-3.68190724E+01
 20
-1.27653503E+02
  0
VERTEX
  8
0
 62
4
 10
-3.67189179E+01
 20
-1.27891624E+02
  0
VERTEX
  8
0
 62
4
 10
-3.65980707E+01
 20
-1.28120243E+02
  0
VERTEX
  8
0
 62
4
 10
-3.64574506E+01
 20
-1.28337619E+02
  0
VERTEX
  8
0
 62
4
 10
-3.62981278E+01
 20
-1.28542098E+02
  0
VERTEX
  8
0
 62
4
 10
-3.61213148E+01
 20
-1.28732124E+02
  0
VERTEX
  8
0
 62
4
 10
-3.59283573E+01
 20
-1.28906251E+02
  0
VERTEX
  8
0
 62
4
 10
-3.57207238E+01
 20
-1.29063153E+02
  0
VERTEX
  8
0
 62
4
 10
-3.54999945E+01
 20
-1.29201637E+02
  0
VERTEX
  8
0
 62
4
 10
-3.52678493E+01
 20
-1.29320648E+02
  0
VERTEX
  8
0
 62
4
 10
-3.50260549E+01
 20
-1.29419281E+02
  0
VERTEX
  8
0
 62
4
 10
-3.47764516E+01
 20
-1.29496785E+02
  0
VERTEX
  8
0
 62
4
 10
-3.45209390E+01
 20
-1.29552570E+02
  0
VERTEX
  8
0
 62
4
 10
-3.42614617E+01
 20
-1.29586212E+02
  0
VERTEX
  8
0
 62
4
 10
-3.39999945E+01
 20
-1.29597454E+02
  0
VERTEX
  8
0
 62
4
 10
-3.37385273E+01
 20
-1.29586212E+02
  0
VERTEX
  8
0
 62
4
 10
-3.34790500E+01
 20
-1.29552570E+02
  0
VERTEX
  8
0
 62
4
 10
-3.32235374E+01
 20
-1.29496785E+02
  0
VERTEX
  8
0
 62
4
 10
-3.29739341E+01
 20
-1.29419281E+02
  0
VERTEX
  8
0
 62
4
 10
-3.27321397E+01
 20
-1.29320648E+02
  0
VERTEX
  8
0
 62
4
 10
-3.24999945E+01
 20
-1.29201637E+02
  0
VERTEX
  8
0
 62
4
 10
-3.22792652E+01
 20
-1.29063153E+02
  0
VERTEX
  8
0
 62
4
 10
-3.20716317E+01
 20
-1.28906251E+02
  0
VERTEX
  8
0
 62
4
 10
-3.18786742E+01
 20
-1.28732124E+02
  0
VERTEX
  8
0
 62
4
 10
-3.17018612E+01
 20
-1.28542098E+02
  0
VERTEX
  8
0
 62
4
 10
-3.15425384E+01
 20
-1.28337619E+02
  0
VERTEX
  8
0
 62
4
 10
-3.14019183E+01
 20
-1.28120243E+02
  0
VERTEX
  8
0
 62
4
 10
-3.12810711E+01
 20
-1.27891624E+02
  0
VERTEX
  8
0
 62
4
 10
-3.11809166E+01
 20
-1.27653503E+02
  0
VERTEX
  8
0
 62
4
 10
-3.11022170E+01
 20
-1.27407692E+02
  0
VERTEX
  8
0
 62
4
 10
-3.10455712E+01
 20
-1.27156061E+02
  0
VERTEX
  8
0
 62
4
 10
-3.10114104E+01
 20
-1.26900526E+02
  0
VERTEX
  8
0
 62
4
 10
-3.09999945E+01
 20
-1.26643031E+02
  0
SEQEND
  8
0
  0
LINE
  8
0
  6
CENTER
 62
6
 10
-3.94865603E+01
 20
-1.26643031E+02
 11
-2.85134286E+01
 21
-1.26643031E+02
  0
LINE
  8
0
  6
CENTER
 62
6
 10
-1.79999945E+01
 20
-1.25983128E+02
 11
-1.79999945E+01
 21
-1.37027232E+02
  0
LINE
  8
0
  6
CENTER
 62
6
 10
-2.35220464E+01
 20
-1.31505180E+02
 11
-1.24779427E+01
 21
-1.31505180E+02
  0
POLYLINE
  8
0
 62
4
 66
1
  0
VERTEX
  8
0
 62
4
 10
-2.99999945E+01
 20
-1.44798883E+02
  0
VERTEX
  8
0
 62
4
 10
-3.00160973E+01
 20
-1.44736620E+02
  0
VERTEX
  8
0
 62
4
 10
-3.00642761E+01
 20
-1.44674859E+02
  0
VERTEX
  8
0
 62
4
 10
-3.01441431E+01
 20
-1.44614096E+02
  0
VERTEX
  8
0
 62
4
 10
-3.02550550E+01
 20
-1.44554821E+02
  0
VERTEX
  8
0
 62
4
 10
-3.03961190E+01
 20
-1.44497511E+02
  0
VERTEX
  8
0
 62
4
 10
-3.05661993E+01
 20
-1.44442627E+02
  0
VERTEX
  8
0
 62
4
 10
-3.07639265E+01
 20
-1.44390612E+02
  0
VERTEX
  8
0
 62
4
 10
-3.09877086E+01
 20
-1.44341884E+02
  0
VERTEX
  8
0
 62
4
 10
-3.12357439E+01
 20
-1.44296835E+02
  0
VERTEX
  8
0
 62
4
 10
-3.15060353E+01
 20
-1.44255829E+02
  0
VERTEX
  8
0
 62
4
 10
-3.17964066E+01
 20
-1.44219195E+02
  0
VERTEX
  8
0
 62
4
 10
-3.21045198E+01
 20
-1.44187228E+02
  0
VERTEX
  8
0
 62
4
 10
-3.24278944E+01
 20
-1.44160186E+02
  0
VERTEX
  8
0
 62
4
 10
-3.27639265E+01
 20
-1.44138286E+02
  0
VERTEX
  8
0
 62
4
 10
-3.31099108E+01
 20
-1.44121705E+02
  0
VERTEX
  8
0
 62
4
 10
-3.34630614E+01
 20
-1.44110577E+02
  0
VERTEX
  8
0
 62
4
 10
-3.38205352E+01
 20
-1.44104990E+02
  0
VERTEX
  8
0
 62
4
 10
-3.41794538E+01
 20
-1.44104990E+02
  0
VERTEX
  8
0
 62
4
 10
-3.45369276E+01
 20
-1.44110577E+02
  0
VERTEX
  8
0
 62
4
 10
-3.48900782E+01
 20
-1.44121705E+02
  0
VERTEX
  8
0
 62
4
 10
-3.52360625E+01
 20
-1.44138286E+02
  0
VERTEX
  8
0
 62
4
 10
-3.55720946E+01
 20
-1.44160186E+02
  0
VERTEX
  8
0
 62
4
 10
-3.58954691E+01
 20
-1.44187228E+02
  0
VERTEX
  8
0
 62
4
 10
-3.62035824E+01
 20
-1.44219195E+02
  0
VERTEX
  8
0
 62
4
 10
-3.64939537E+01
 20
-1.44255829E+02
  0
VERTEX
  8
0
 62
4
 10
-3.67642451E+01
 20
-1.44296835E+02
  0
VERTEX
  8
0
 62
4
 10
-3.70122804E+01
 20
-1.44341884E+02
  0
VERTEX
  8
0
 62
4
 10
-3.72360625E+01
 20
-1.44390612E+02
  0
VERTEX
  8
0
 62
4
 10
-3.74337897E+01
 20
-1.44442627E+02
  0
VERTEX
  8
0
 62
4
 10
-3.76038700E+01
 20
-1.44497511E+02
  0
VERTEX
  8
0
 62
4
 10
-3.77449340E+01
 20
-1.44554821E+02
  0
VERTEX
  8
0
 62
4
 10
-3.78558459E+01
 20
-1.44614096E+02
  0
VERTEX
  8
0
 62
4
 10
-3.79357129E+01
 20
-1.44674859E+02
  0
VERTEX
  8
0
 62
4
 10
-3.79838917E+01
 20
-1.44736620E+02
  0
VERTEX
  8
0
 62
4
 10
-3.79999945E+01
 20
-1.44798883E+02
  0
SEQEND
  8
0
  0
POLYLINE
  8
0
 62
4
 66
1
  0
VERTEX
  8
0
 62
4
 10
-3.05999945E+01
 20
-1.45657186E+02
  0
VERTEX
  8
0
 62
4
 10
-3.04269425E+01
 20
-1.45603530E+02
  0
VERTEX
  8
0
 62
4
 10
-3.02818995E+01
 20
-1.45547427E+02
  0
VERTEX
  8
0
 62
4
 10
-3.01660027E+01
 20
-1.45489315E+02
  0
VERTEX
  8
0
 62
4
 10
-3.00801604E+01
 20
-1.45429651E+02
  0
VERTEX
  8
0
 62
4
 10
-3.00250456E+01
 20
-1.45368902E+02
  0
VERTEX
  8
0
 62
4
 10
-3.00010904E+01
 20
-1.45307545E+02
  0
VERTEX
  8
0
 62
4
 10
-3.00084826E+01
 20
-1.45246061E+02
  0
VERTEX
  8
0
 62
4
 10
-3.00471641E+01
 20
-1.45184931E+02
  0
VERTEX
  8
0
 62
4
 10
-3.01168318E+01
 20
-1.45124635E+02
  0
VERTEX
  8
0
 62
4
 10
-3.02169395E+01
 20
-1.45065645E+02
  0
VERTEX
  8
0
 62
4
 10
-3.03467026E+01
 20
-1.45008424E+02
  0
VERTEX
  8
0
 62
4
 10
-3.05051037E+01
 20
-1.44953420E+02
  0
VERTEX
  8
0
 62
4
 10
-3.06909012E+01
 20
-1.44901065E+02
  0
VERTEX
  8
0
 62
4
 10
-3.09026387E+01
 20
-1.44851769E+02
  0
VERTEX
  8
0
 62
4
 10
-3.11386563E+01
 20
-1.44805918E+02
  0
VERTEX
  8
0
 62
4
 10
-3.13971038E+01
 20
-1.44763872E+02
  0
VERTEX
  8
0
 62
4
 10
-3.16759554E+01
 20
-1.44725960E+02
  0
VERTEX
  8
0
 62
4
 10
-3.19730250E+01
 20
-1.44692480E+02
  0
VERTEX
  8
0
 62
4
 10
-3.22859841E+01
 20
-1.44663694E+02
  0
VERTEX
  8
0
 62
4
 10
-3.26123792E+01
 20
-1.44639828E+02
  0
VERTEX
  8
0
 62
4
 10
-3.29496519E+01
 20
-1.44621068E+02
  0
VERTEX
  8
0
 62
4
 10
-3.32951581E+01
 20
-1.44607563E+02
  0
VERTEX
  8
0
 62
4
 10
-3.36461896E+01
 20
-1.44599417E+02
  0
VERTEX
  8
0
 62
4
 10
-3.39999945E+01
 20
-1.44596694E+02
  0
VERTEX
  8
0
 62
4
 10
-3.43537994E+01
 20
-1.44599417E+02
  0
VERTEX
  8
0
 62
4
 10
-3.47048309E+01
 20
-1.44607563E+02
  0
VERTEX
  8
0
 62
4
 10
-3.50503371E+01
 20
-1.44621068E+02
  0
VERTEX
  8
0
 62
4
 10
-3.53876097E+01
 20
-1.44639828E+02
  0
VERTEX
  8
0
 62
4
 10
-3.57140049E+01
 20
-1.44663694E+02
  0
VERTEX
  8
0
 62
4
 10
-3.60269639E+01
 20
-1.44692480E+02
  0
VERTEX
  8
0
 62
4
 10
-3.63240336E+01
 20
-1.44725960E+02
  0
VERTEX
  8
0
 62
4
 10
-3.66028852E+01
 20
-1.44763872E+02
  0
VERTEX
  8
0
 62
4
 10
-3.68613327E+01
 20
-1.44805918E+02
  0
VERTEX
  8
0
 62
4
 10
-3.70973503E+01
 20
-1.44851769E+02
  0
VERTEX
  8
0
 62
4
 10
-3.73090877E+01
 20
-1.44901065E+02
  0
VERTEX
  8
0
 62
4
 10
-3.74948853E+01
 20
-1.44953420E+02
  0
VERTEX
  8
0
 62
4
 10
-3.76532864E+01
 20
-1.45008424E+02
  0
VERTEX
  8
0
 62
4
 10
-3.77830495E+01
 20
-1.45065645E+02
  0
VERTEX
  8
0
 62
4
 10
-3.78831572E+01
 20
-1.45124635E+02
  0
VERTEX
  8
0
 62
4
 10
-3.79528249E+01
 20
-1.45184931E+02
  0
VERTEX
  8
0
 62
4
 10
-3.79915064E+01
 20
-1.45246061E+02
  0
VERTEX
  8
0
 62
4
 10
-3.79988986E+01
 20
-1.45307545E+02
  0
VERTEX
  8
0
 62
4
 10
-3.79749434E+01
 20
-1.45368902E+02
  0
VERTEX
  8
0
 62
4
 10
-3.79198286E+01
 20
-1.45429651E+02
  0
VERTEX
  8
0
 62
4
 10
-3.78339863E+01
 20
-1.45489315E+02
  0
VERTEX
  8
0
 62
4
 10
-3.77180895E+01
 20
-1.45547427E+02
  0
VERTEX
  8
0
 62
4
 10
-3.75730465E+01
 20
-1.45603530E+02
  0
VERTEX
  8
0
 62
4
 10
-3.73999945E+01
 20
-1.45657186E+02
  0
SEQEND
  8
0
  0
POLYLINE
  8
0
 62
4
 66
1
  0
VERTEX
  8
0
 62
4
 10
-3.05999945E+01
 20
-1.45291287E+02
  0
VERTEX
  8
0
 62
4
 10
-3.06136819E+01
 20
-1.45238364E+02
  0
VERTEX
  8
0
 62
4
 10
-3.06546339E+01
 20
-1.45185866E+02
  0
VERTEX
  8
0
 62
4
 10
-3.07225208E+01
 20
-1.45134218E+02
  0
VERTEX
  8
0
 62
4
 10
-3.08167959E+01
 20
-1.45083834E+02
  0
VERTEX
  8
0
 62
4
 10
-3.09367003E+01
 20
-1.45035120E+02
  0
VERTEX
  8
0
 62
4
 10
-3.10812686E+01
 20
-1.44988469E+02
  0
VERTEX
  8
0
 62
4
 10
-3.12493367E+01
 20
-1.44944256E+02
  0
VERTEX
  8
0
 62
4
 10
-3.14395515E+01
 20
-1.44902837E+02
  0
VERTEX
  8
0
 62
4
 10
-3.16503815E+01
 20
-1.44864546E+02
  0
VERTEX
  8
0
 62
4
 10
-3.18801292E+01
 20
-1.44829691E+02
  0
VERTEX
  8
0
 62
4
 10
-3.21269448E+01
 20
-1.44798552E+02
  0
VERTEX
  8
0
 62
4
 10
-3.23888410E+01
 20
-1.44771380E+02
  0
VERTEX
  8
0
 62
4
 10
-3.26637094E+01
 20
-1.44748394E+02
  0
VERTEX
  8
0
 62
4
 10
-3.29493367E+01
 20
-1.44729780E+02
  0
VERTEX
  8
0
 62
4
 10
-3.32434233E+01
 20
-1.44715686E+02
  0
VERTEX
  8
0
 62
4
 10
-3.35436014E+01
 20
-1.44706226E+02
  0
VERTEX
  8
0
 62
4
 10
-3.38474541E+01
 20
-1.44701478E+02
  0
VERTEX
  8
0
 62
4
 10
-3.41525349E+01
 20
-1.44701478E+02
  0
VERTEX
  8
0
 62
4
 10
-3.44563876E+01
 20
-1.44706226E+02
  0
VERTEX
  8
0
 62
4
 10
-3.47565657E+01
 20
-1.44715686E+02
  0
VERTEX
  8
0
 62
4
 10
-3.50506523E+01
 20
-1.44729780E+02
  0
VERTEX
  8
0
 62
4
 10
-3.53362796E+01
 20
-1.44748394E+02
  0
VERTEX
  8
0
 62
4
 10
-3.56111479E+01
 20
-1.44771380E+02
  0
VERTEX
  8
0
 62
4
 10
-3.58730442E+01
 20
-1.44798552E+02
  0
VERTEX
  8
0
 62
4
 10
-3.61198598E+01
 20
-1.44829691E+02
  0
VERTEX
  8
0
 62
4
 10
-3.63496075E+01
 20
-1.44864546E+02
  0
VERTEX
  8
0
 62
4
 10
-3.65604375E+01
 20
-1.44902837E+02
  0
VERTEX
  8
0
 62
4
 10
-3.67506523E+01
 20
-1.44944256E+02
  0
VERTEX
  8
0
 62
4
 10
-3.69187204E+01
 20
-1.44988469E+02
  0
VERTEX
  8
0
 62
4
 10
-3.70632886E+01
 20
-1.45035120E+02
  0
VERTEX
  8
0
 62
4
 10
-3.71831931E+01
 20
-1.45083834E+02
  0
VERTEX
  8
0
 62
4
 10
-3.72774682E+01
 20
-1.45134218E+02
  0
VERTEX
  8
0
 62
4
 10
-3.73453551E+01
 20
-1.45185866E+02
  0
VERTEX
  8
0
 62
4
 10
-3.73863071E+01
 20
-1.45238364E+02
  0
VERTEX
  8
0
 62
4
 10
-3.73999945E+01
 20
-1.45291287E+02
  0
SEQEND
  8
0
  0
LINE
  8
0
 62
4
 10
-3.05999945E+01
 20
-1.46101244E+02
 11
-8.49999451E+00
 21
-1.46101244E+02
  0
LINE
  8
0
 62
4
 10
2.31499969E+02
 20
-2.41897374E+02
 11
2.31499969E+02
 21
-2.69469587E+02
  0
LINE
  8
0
 62
4
 10
2.46499969E+02
 20
-2.41897374E+02
 11
2.46499969E+02
 21
-2.69469587E+02
  0
ARC
  8
0
 62
4
 10
2.55499469E+02
 20
-2.55606960E+02
 40
5.00500378E-01
 50
2.70057253E+02
 51
3.59942747E+02
  0
ARC
  8
0
 62
4
 10
2.46999470E+02
 20
-2.56606961E+02
 40
4.99500622E-01
 50
8.99426895E+01
 51
1.80057310E+02
  0
ARC
  8
0
 62
4
 10
2.55500469E+02
 20
-2.42606961E+02
 40
4.99500622E-01
 50
3.59942689E+02
 51
9.00573103E+01
  0
LINE
  8
0
 62
4
 10
2.46499969E+02
 20
-2.44502096E+02
 11
2.31499969E+02
 21
-2.44502096E+02
  0
LINE
  8
0
 62
4
 10
2.65999969E+02
 20
-2.56504488E+02
 11
2.60999969E+02
 21
-2.56504488E+02
  0
LINE
  8
0
 62
4
 10
2.55499969E+02
 20
-2.56107460E+02
 11
2.46999969E+02
 21
-2.56107460E+02
  0
LINE
  8
0
 62
4
 10
2.59499969E+02
 20
-2.54857460E+02
 11
2.55999969E+02
 21
-2.54857460E+02
  0
LINE
  8
0
 62
4
 10
2.59499969E+02
 20
-2.42857460E+02
 11
2.59499969E+02
 21
-2.55357460E+02
  0
LINE
  8
0
 62
4
 10
2.60999969E+02
 20
-2.55357460E+02
 11
2.55999969E+02
 21
-2.55357460E+02
  0
LINE
  8
0
 62
4
 10
2.60999969E+02
 20
-2.42857460E+02
 11
2.55999969E+02
 21
-2.42857460E+02
  0
LINE
  8
0
 62
4
 10
2.60999969E+02
 20
-2.41722523E+02
 11
2.60999969E+02
 21
-2.56504488E+02
  0
LINE
  8
0
 62
4
 10
2.65999969E+02
 20
-2.41722523E+02
 11
2.65999969E+02
 21
-2.56504488E+02
  0
LINE
  8
0
 62
4
 10
2.55999969E+02
 20
-2.42610602E+02
 11
2.55999969E+02
 21
-2.55610602E+02
  0
LINE
  8
0
 62
4
 10
2.46499969E+02
 20
-2.42107460E+02
 11
2.55499969E+02
 21
-2.42107460E+02
  0
LINE
  8
0
 62
4
 10
2.65999969E+02
 20
-2.53940172E+02
 11
2.60999969E+02
 21
-2.53940172E+02
  0
LINE
  8
0
 62
4
 10
2.65999969E+02
 20
-2.46544266E+02
 11
2.60999969E+02
 21
-2.46544266E+02
  0
LINE
  8
0
 62
4
 10
2.59499969E+02
 20
-2.43357460E+02
 11
2.55999969E+02
 21
-2.43357460E+02
  0
LINE
  8
0
 62
4
 10
2.46499969E+02
 20
-2.41897374E+02
 11
2.31499969E+02
 21
-2.41897374E+02
  0
LINE
  8
0
 62
4
 10
2.46499969E+02
 20
-2.68137482E+02
 11
2.31499969E+02
 21
-2.68137482E+02
  0
LINE
  8
0
 62
4
 10
2.65999969E+02
 20
-2.41722523E+02
 11
2.60999969E+02
 21
-2.41722523E+02
  0
LINE
  8
0
 62
4
 10
2.46499969E+02
 20
-2.78013156E+02
 11
2.46499969E+02
 21
-3.04353690E+02
  0
LINE
  8
0
 62
4
 10
2.31499969E+02
 20
-2.78013156E+02
 11
2.31499969E+02
 21
-3.04353690E+02
  0
LINE
  8
0
 62
4
 10
2.50999969E+02
 20
-2.71571365E+02
 11
2.50999969E+02
 21
-2.88615054E+02
  0
LINE
  8
0
 62
4
 10
2.11999969E+02
 20
-2.71571365E+02
 11
2.11999969E+02
 21
-2.88615054E+02
  0
ARC
  8
0
 62
4
 10
2.49500469E+02
 20
-2.74908318E+02
 40
1.49950029E+00
 50
3.59980903E+02
 51
9.00190969E+01
  0
ARC
  8
0
 62
4
 10
2.13499470E+02
 20
-2.74908318E+02
 40
1.49950029E+00
 50
8.99809029E+01
 51
1.80019097E+02
  0
LINE
  8
0
 62
4
 10
2.29499969E+02
 20
-2.69469587E+02
 11
2.29499969E+02
 21
-2.73408818E+02
  0
LINE
  8
0
 62
4
 10
2.48499969E+02
 20
-2.69469587E+02
 11
2.48499969E+02
 21
-2.73408818E+02
  0
LINE
  8
0
 62
4
 10
2.48499969E+02
 20
-2.69469587E+02
 11
2.29499969E+02
 21
-2.69469587E+02
  0
LINE
  8
0
 62
4
 10
2.49499969E+02
 20
-2.73408818E+02
 11
2.13499969E+02
 21
-2.73408818E+02
  0
LINE
  8
0
 62
4
 10
2.31499969E+02
 20
-2.78013156E+02
 11
2.46499969E+02
 21
-2.78013156E+02
  0
ARC
  8
0
 62
4
 10
2.13499470E+02
 20
-2.71570866E+02
 40
1.49950029E+00
 50
8.99809029E+01
 51
1.80019097E+02
  0
LINE
  8
0
 62
4
 10
2.49499969E+02
 20
-2.70071365E+02
 11
2.48499969E+02
 21
-2.70071365E+02
  0
ARC
  8
0
 62
4
 10
2.49500469E+02
 20
-2.71570866E+02
 40
1.49950029E+00
 50
3.59980903E+02
 51
9.00190969E+01
  0
LINE
  8
0
 62
4
 10
2.29499969E+02
 20
-2.70071365E+02
 11
2.13499969E+02
 21
-2.70071365E+02
  0
LINE
  8
0
 62
4
 10
2.13499969E+02
 20
-2.72856337E+02
 11
2.13499969E+02
 21
-2.70752239E+02
  0
LINE
  8
0
 62
4
 10
2.49499969E+02
 20
-2.72856337E+02
 11
2.49499969E+02
 21
-2.70752239E+02
  0
LINE
  8
0
  6
CENTER
 62
6
 10
2.22999969E+02
 20
-2.68620221E+02
 11
2.22999969E+02
 21
-2.70774352E+02
  0
POLYLINE
  8
0
 62
4
 66
1
  0
VERTEX
  8
0
 62
4
 10
2.26139969E+02
 20
-2.70774352E+02
  0
VERTEX
  8
0
 62
4
 10
2.26128020E+02
 20
-2.70726830E+02
  0
VERTEX
  8
0
 62
4
 10
2.26092265E+02
 20
-2.70679669E+02
  0
VERTEX
  8
0
 62
4
 10
2.26032976E+02
 20
-2.70633230E+02
  0
VERTEX
  8
0
 62
4
 10
2.25950604E+02
 20
-2.70587864E+02
  0
VERTEX
  8
0
 62
4
 10
2.25845775E+02
 20
-2.70543917E+02
  0
VERTEX
  8
0
 62
4
 10
2.25719289E+02
 20
-2.70501724E+02
  0
VERTEX
  8
0
 62
4
 10
2.25572106E+02
 20
-2.70461606E+02
  0
VERTEX
  8
0
 62
4
 10
2.25405349E+02
 20
-2.70423869E+02
  0
VERTEX
  8
0
 62
4
 10
2.25220284E+02
 20
-2.70388798E+02
  0
VERTEX
  8
0
 62
4
 10
2.25018322E+02
 20
-2.70356662E+02
  0
VERTEX
  8
0
 62
4
 10
2.24800999E+02
 20
-2.70327705E+02
  0
VERTEX
  8
0
 62
4
 10
2.24569969E+02
 20
-2.70302147E+02
  0
VERTEX
  8
0
 62
4
 10
2.24326990E+02
 20
-2.70280183E+02
  0
VERTEX
  8
0
 62
4
 10
2.24073912E+02
 20
-2.70261980E+02
  0
VERTEX
  8
0
 62
4
 10
2.23812661E+02
 20
-2.70247676E+02
  0
VERTEX
  8
0
 62
4
 10
2.23545224E+02
 20
-2.70237380E+02
  0
VERTEX
  8
0
 62
4
 10
2.23273638E+02
 20
-2.70231172E+02
  0
VERTEX
  8
0
 62
4
 10
2.22999969E+02
 20
-2.70229097E+02
  0
VERTEX
  8
0
 62
4
 10
2.22726300E+02
 20
-2.70231172E+02
  0
VERTEX
  8
0
 62
4
 10
2.22454714E+02
 20
-2.70237380E+02
  0
VERTEX
  8
0
 62
4
 10
2.22187277E+02
 20
-2.70247676E+02
  0
VERTEX
  8
0
 62
4
 10
2.21926026E+02
 20
-2.70261980E+02
  0
VERTEX
  8
0
 62
4
 10
2.21672948E+02
 20
-2.70280183E+02
  0
VERTEX
  8
0
 62
4
 10
2.21429969E+02
 20
-2.70302147E+02
  0
VERTEX
  8
0
 62
4
 10
2.21198939E+02
 20
-2.70327705E+02
  0
VERTEX
  8
0
 62
4
 10
2.20981616E+02
 20
-2.70356662E+02
  0
VERTEX
  8
0
 62
4
 10
2.20779654E+02
 20
-2.70388798E+02
  0
VERTEX
  8
0
 62
4
 10
2.20594589E+02
 20
-2.70423869E+02
  0
VERTEX
  8
0
 62
4
 10
2.20427832E+02
 20
-2.70461606E+02
  0
VERTEX
  8
0
 62
4
 10
2.20280649E+02
 20
-2.70501724E+02
  0
VERTEX
  8
0
 62
4
 10
2.20154163E+02
 20
-2.70543917E+02
  0
VERTEX
  8
0
 62
4
 10
2.20049334E+02
 20
-2.70587864E+02
  0
VERTEX
  8
0
 62
4
 10
2.19966962E+02
 20
-2.70633230E+02
  0
VERTEX
  8
0
 62
4
 10
2.19907673E+02
 20
-2.70679669E+02
  0
VERTEX
  8
0
 62
4
 10
2.19871918E+02
 20
-2.70726830E+02
  0
VERTEX
  8
0
 62
4
 10
2.19859969E+02
 20
-2.70774352E+02
  0
VERTEX
  8
0
 62
4
 10
2.19871918E+02
 20
-2.70821874E+02
  0
VERTEX
  8
0
 62
4
 10
2.19907673E+02
 20
-2.70869035E+02
  0
VERTEX
  8
0
 62
4
 10
2.19966962E+02
 20
-2.70915474E+02
  0
VERTEX
  8
0
 62
4
 10
2.20049334E+02
 20
-2.70960840E+02
  0
VERTEX
  8
0
 62
4
 10
2.20154163E+02
 20
-2.71004787E+02
  0
VERTEX
  8
0
 62
4
 10
2.20280649E+02
 20
-2.71046980E+02
  0
VERTEX
  8
0
 62
4
 10
2.20427832E+02
 20
-2.71087098E+02
  0
VERTEX
  8
0
 62
4
 10
2.20594589E+02
 20
-2.71124835E+02
  0
VERTEX
  8
0
 62
4
 10
2.20779654E+02
 20
-2.71159906E+02
  0
VERTEX
  8
0
 62
4
 10
2.20981616E+02
 20
-2.71192042E+02
  0
VERTEX
  8
0
 62
4
 10
2.21198939E+02
 20
-2.71220999E+02
  0
VERTEX
  8
0
 62
4
 10
2.21429969E+02
 20
-2.71246557E+02
  0
VERTEX
  8
0
 62
4
 10
2.21672948E+02
 20
-2.71268521E+02
  0
VERTEX
  8
0
 62
4
 10
2.21926026E+02
 20
-2.71286724E+02
  0
VERTEX
  8
0
 62
4
 10
2.22187277E+02
 20
-2.71301028E+02
  0
VERTEX
  8
0
 62
4
 10
2.22454714E+02
 20
-2.71311324E+02
  0
VERTEX
  8
0
 62
4
 10
2.22726300E+02
 20
-2.71317532E+02
  0
VERTEX
  8
0
 62
4
 10
2.22999969E+02
 20
-2.71319607E+02
  0
VERTEX
  8
0
 62
4
 10
2.23273638E+02
 20
-2.71317532E+02
  0
VERTEX
  8
0
 62
4
 10
2.23545224E+02
 20
-2.71311324E+02
  0
VERTEX
  8
0
 62
4
 10
2.23812661E+02
 20
-2.71301028E+02
  0
VERTEX
  8
0
 62
4
 10
2.24073912E+02
 20
-2.71286724E+02
  0
VERTEX
  8
0
 62
4
 10
2.24326990E+02
 20
-2.71268521E+02
  0
VERTEX
  8
0
 62
4
 10
2.24569969E+02
 20
-2.71246557E+02
  0
VERTEX
  8
0
 62
4
 10
2.24800999E+02
 20
-2.71220999E+02
  0
VERTEX
  8
0
 62
4
 10
2.25018322E+02
 20
-2.71192042E+02
  0
VERTEX
  8
0
 62
4
 10
2.25220284E+02
 20
-2.71159906E+02
  0
VERTEX
  8
0
 62
4
 10
2.25405349E+02
 20
-2.71124835E+02
  0
VERTEX
  8
0
 62
4
 10
2.25572106E+02
 20
-2.71087098E+02
  0
VERTEX
  8
0
 62
4
 10
2.25719289E+02
 20
-2.71046980E+02
  0
VERTEX
  8
0
 62
4
 10
2.25845775E+02
 20
-2.71004787E+02
  0
VERTEX
  8
0
 62
4
 10
2.25950604E+02
 20
-2.70960840E+02
  0
VERTEX
  8
0
 62
4
 10
2.26032976E+02
 20
-2.70915474E+02
  0
VERTEX
  8
0
 62
4
 10
2.26092265E+02
 20
-2.70869035E+02
  0
VERTEX
  8
0
 62
4
 10
2.26128020E+02
 20
-2.70821874E+02
  0
VERTEX
  8
0
 62
4
 10
2.26139969E+02
 20
-2.70774352E+02
  0
SEQEND
  8
0
  0
POLYLINE
  8
0
 62
4
 66
1
  0
VERTEX
  8
0
 62
4
 10
2.19507288E+02
 20
-2.71719877E+02
  0
VERTEX
  8
0
 62
4
 10
2.19500954E+02
 20
-2.71773577E+02
  0
VERTEX
  8
0
 62
4
 10
2.19521948E+02
 20
-2.71827165E+02
  0
VERTEX
  8
0
 62
4
 10
2.19570106E+02
 20
-2.71880222E+02
  0
VERTEX
  8
0
 62
4
 10
2.19645053E+02
 20
-2.71932333E+02
  0
VERTEX
  8
0
 62
4
 10
2.19746201E+02
 20
-2.71983092E+02
  0
VERTEX
  8
0
 62
4
 10
2.19872763E+02
 20
-2.72032102E+02
  0
VERTEX
  8
0
 62
4
 10
2.20023748E+02
 20
-2.72078980E+02
  0
VERTEX
  8
0
 62
4
 10
2.20197979E+02
 20
-2.72123360E+02
  0
VERTEX
  8
0
 62
4
 10
2.20394093E+02
 20
-2.72164896E+02
  0
VERTEX
  8
0
 62
4
 10
2.20610560E+02
 20
-2.72203262E+02
  0
VERTEX
  8
0
 62
4
 10
2.20845689E+02
 20
-2.72238161E+02
  0
VERTEX
  8
0
 62
4
 10
2.21097643E+02
 20
-2.72269318E+02
  0
VERTEX
  8
0
 62
4
 10
2.21364455E+02
 20
-2.72296491E+02
  0
VERTEX
  8
0
 62
4
 10
2.21644040E+02
 20
-2.72319467E+02
  0
VERTEX
  8
0
 62
4
 10
2.21934215E+02
 20
-2.72338067E+02
  0
VERTEX
  8
0
 62
4
 10
2.22232715E+02
 20
-2.72352146E+02
  0
VERTEX
  8
0
 62
4
 10
2.22537206E+02
 20
-2.72361593E+02
  0
VERTEX
  8
0
 62
4
 10
2.22845312E+02
 20
-2.72366335E+02
  0
VERTEX
  8
0
 62
4
 10
2.23154626E+02
 20
-2.72366335E+02
  0
VERTEX
  8
0
 62
4
 10
2.23462732E+02
 20
-2.72361593E+02
  0
VERTEX
  8
0
 62
4
 10
2.23767223E+02
 20
-2.72352146E+02
  0
VERTEX
  8
0
 62
4
 10
2.24065723E+02
 20
-2.72338067E+02
  0
VERTEX
  8
0
 62
4
 10
2.24355898E+02
 20
-2.72319467E+02
  0
VERTEX
  8
0
 62
4
 10
2.24635483E+02
 20
-2.72296491E+02
  0
VERTEX
  8
0
 62
4
 10
2.24902295E+02
 20
-2.72269318E+02
  0
VERTEX
  8
0
 62
4
 10
2.25154249E+02
 20
-2.72238161E+02
  0
VERTEX
  8
0
 62
4
 10
2.25389378E+02
 20
-2.72203262E+02
  0
VERTEX
  8
0
 62
4
 10
2.25605845E+02
 20
-2.72164896E+02
  0
VERTEX
  8
0
 62
4
 10
2.25801959E+02
 20
-2.72123360E+02
  0
VERTEX
  8
0
 62
4
 10
2.25976190E+02
 20
-2.72078980E+02
  0
VERTEX
  8
0
 62
4
 10
2.26127175E+02
 20
-2.72032102E+02
  0
VERTEX
  8
0
 62
4
 10
2.26253737E+02
 20
-2.71983092E+02
  0
VERTEX
  8
0
 62
4
 10
2.26354885E+02
 20
-2.71932333E+02
  0
VERTEX
  8
0
 62
4
 10
2.26429832E+02
 20
-2.71880222E+02
  0
VERTEX
  8
0
 62
4
 10
2.26477990E+02
 20
-2.71827165E+02
  0
VERTEX
  8
0
 62
4
 10
2.26498984E+02
 20
-2.71773577E+02
  0
VERTEX
  8
0
 62
4
 10
2.26492650E+02
 20
-2.71719877E+02
  0
SEQEND
  8
0
  0
LINE
  8
0
 62
4
 10
2.19859969E+02
 20
-2.70774352E+02
 11
2.19507288E+02
 21
-2.71719877E+02
  0
LINE
  8
0
 62
4
 10
2.26139969E+02
 20
-2.70774352E+02
 11
2.26492651E+02
 21
-2.71719877E+02
  0
LINE
  8
0
 62
4
 10
2.14999969E+02
 20
-2.92036505E+02
 11
2.11999969E+02
 21
-2.88618218E+02
  0
LINE
  8
0
 62
4
 10
2.50999969E+02
 20
-2.88615054E+02
 11
2.46499969E+02
 21
-2.88615054E+02
  0
LINE
  8
0
 62
4
 10
2.50999969E+02
 20
-2.87137843E+02
 11
2.46499969E+02
 21
-2.87137843E+02
  0
LINE
  8
0
 62
4
 10
2.31499969E+02
 20
-2.87137843E+02
 11
2.11999969E+02
 21
-2.87137843E+02
  0
LINE
  8
0
 62
4
 10
2.31499969E+02
 20
-2.88615054E+02
 11
2.11999969E+02
 21
-2.88615054E+02
  0
POLYLINE
  8
0
 62
4
 66
1
  0
VERTEX
  8
0
 62
4
 10
2.44999969E+02
 20
-2.99178403E+02
  0
VERTEX
  8
0
 62
4
 10
2.44992109E+02
 20
-2.99004387E+02
  0
VERTEX
  8
0
 62
4
 10
2.44968589E+02
 20
-2.98831739E+02
  0
VERTEX
  8
0
 62
4
 10
2.44929596E+02
 20
-2.98661816E+02
  0
VERTEX
  8
0
 62
4
 10
2.44875435E+02
 20
-2.98495953E+02
  0
VERTEX
  8
0
 62
4
 10
2.44806532E+02
 20
-2.98335455E+02
  0
VERTEX
  8
0
 62
4
 10
2.44723429E+02
 20
-2.98181583E+02
  0
VERTEX
  8
0
 62
4
 10
2.44626779E+02
 20
-2.98035546E+02
  0
VERTEX
  8
0
 62
4
 10
2.44517341E+02
 20
-2.97898492E+02
  0
VERTEX
  8
0
 62
4
 10
2.44395977E+02
 20
-2.97771499E+02
  0
VERTEX
  8
0
 62
4
 10
2.44263639E+02
 20
-2.97655565E+02
  0
VERTEX
  8
0
 62
4
 10
2.44121368E+02
 20
-2.97551601E+02
  0
VERTEX
  8
0
 62
4
 10
2.43970283E+02
 20
-2.97460424E+02
  0
VERTEX
  8
0
 62
4
 10
2.43811571E+02
 20
-2.97382751E+02
  0
VERTEX
  8
0
 62
4
 10
2.43646479E+02
 20
-2.97319192E+02
  0
VERTEX
  8
0
 62
4
 10
2.43476305E+02
 20
-2.97270248E+02
  0
VERTEX
  8
0
 62
4
 10
2.43302387E+02
 20
-2.97236302E+02
  0
VERTEX
  8
0
 62
4
 10
2.43126092E+02
 20
-2.97217622E+02
  0
VERTEX
  8
0
 62
4
 10
2.42948806E+02
 20
-2.97214354E+02
  0
VERTEX
  8
0
 62
4
 10
2.42771922E+02
 20
-2.97226525E+02
  0
VERTEX
  8
0
 62
4
 10
2.42596830E+02
 20
-2.97254038E+02
  0
VERTEX
  8
0
 62
4
 10
2.42424908E+02
 20
-2.97296678E+02
  0
VERTEX
  8
0
 62
4
 10
2.42257505E+02
 20
-2.97354108E+02
  0
VERTEX
  8
0
 62
4
 10
2.42095939E+02
 20
-2.97425878E+02
  0
VERTEX
  8
0
 62
4
 10
2.41941478E+02
 20
-2.97511424E+02
  0
VERTEX
  8
0
 62
4
 10
2.41795338E+02
 20
-2.97610072E+02
  0
VERTEX
  8
0
 62
4
 10
2.41658666E+02
 20
-2.97721049E+02
  0
VERTEX
  8
0
 62
4
 10
2.41532538E+02
 20
-2.97843480E+02
  0
VERTEX
  8
0
 62
4
 10
2.41417944E+02
 20
-2.97976405E+02
  0
VERTEX
  8
0
 62
4
 10
2.41315785E+02
 20
-2.98118778E+02
  0
VERTEX
  8
0
 62
4
 10
2.41226865E+02
 20
-2.98269480E+02
  0
VERTEX
  8
0
 62
4
 10
2.41151882E+02
 20
-2.98427326E+02
  0
VERTEX
  8
0
 62
4
 10
2.41091426E+02
 20
-2.98591076E+02
  0
VERTEX
  8
0
 62
4
 10
2.41045971E+02
 20
-2.98759443E+02
  0
VERTEX
  8
0
 62
4
 10
2.41015876E+02
 20
-2.98931102E+02
  0
VERTEX
  8
0
 62
4
 10
2.41001377E+02
 20
-2.99104706E+02
  0
VERTEX
  8
0
 62
4
 10
2.41002587E+02
 20
-2.99278889E+02
  0
SEQEND
  8
0
  0
POLYLINE
  8
0
 62
4
 66
1
  0
VERTEX
  8
0
 62
4
 10
2.44734969E+02
 20
-2.99553023E+02
  0
VERTEX
  8
0
 62
4
 10
2.44728367E+02
 20
-2.99404105E+02
  0
VERTEX
  8
0
 62
4
 10
2.44708610E+02
 20
-2.99256321E+02
  0
VERTEX
  8
0
 62
4
 10
2.44675850E+02
 20
-2.99110794E+02
  0
VERTEX
  8
0
 62
4
 10
2.44630336E+02
 20
-2.98968633E+02
  0
VERTEX
  8
0
 62
4
 10
2.44572413E+02
 20
-2.98830920E+02
  0
VERTEX
  8
0
 62
4
 10
2.44502523E+02
 20
-2.98698702E+02
  0
VERTEX
  8
0
 62
4
 10
2.44421198E+02
 20
-2.98572987E+02
  0
VERTEX
  8
0
 62
4
 10
2.44329056E+02
 20
-2.98454729E+02
  0
VERTEX
  8
0
 62
4
 10
2.44226799E+02
 20
-2.98344831E+02
  0
VERTEX
  8
0
 62
4
 10
2.44115206E+02
 20
-2.98244128E+02
  0
VERTEX
  8
0
 62
4
 10
2.43995124E+02
 20
-2.98153386E+02
  0
VERTEX
  8
0
 62
4
 10
2.43867469E+02
 20
-2.98073296E+02
  0
VERTEX
  8
0
 62
4
 10
2.43733212E+02
 20
-2.98004468E+02
  0
VERTEX
  8
0
 62
4
 10
2.43593374E+02
 20
-2.97947425E+02
  0
VERTEX
  8
0
 62
4
 10
2.43449020E+02
 20
-2.97902602E+02
  0
VERTEX
  8
0
 62
4
 10
2.43301249E+02
 20
-2.97870340E+02
  0
VERTEX
  8
0
 62
4
 10
2.43151184E+02
 20
-2.97850883E+02
  0
VERTEX
  8
0
 62
4
 10
2.42999969E+02
 20
-2.97844382E+02
  0
VERTEX
  8
0
 62
4
 10
2.42848754E+02
 20
-2.97850883E+02
  0
VERTEX
  8
0
 62
4
 10
2.42698689E+02
 20
-2.97870340E+02
  0
VERTEX
  8
0
 62
4
 10
2.42550918E+02
 20
-2.97902602E+02
  0
VERTEX
  8
0
 62
4
 10
2.42406564E+02
 20
-2.97947425E+02
  0
VERTEX
  8
0
 62
4
 10
2.42266726E+02
 20
-2.98004468E+02
  0
VERTEX
  8
0
 62
4
 10
2.42132469E+02
 20
-2.98073296E+02
  0
VERTEX
  8
0
 62
4
 10
2.42004814E+02
 20
-2.98153386E+02
  0
VERTEX
  8
0
 62
4
 10
2.41884732E+02
 20
-2.98244128E+02
  0
VERTEX
  8
0
 62
4
 10
2.41773139E+02
 20
-2.98344831E+02
  0
VERTEX
  8
0
 62
4
 10
2.41670882E+02
 20
-2.98454729E+02
  0
VERTEX
  8
0
 62
4
 10
2.41578740E+02
 20
-2.98572987E+02
  0
VERTEX
  8
0
 62
4
 10
2.41497415E+02
 20
-2.98698702E+02
  0
VERTEX
  8
0
 62
4
 10
2.41427525E+02
 20
-2.98830920E+02
  0
VERTEX
  8
0
 62
4
 10
2.41369602E+02
 20
-2.98968633E+02
  0
VERTEX
  8
0
 62
4
 10
2.41324088E+02
 20
-2.99110794E+02
  0
VERTEX
  8
0
 62
4
 10
2.41291328E+02
 20
-2.99256321E+02
  0
VERTEX
  8
0
 62
4
 10
2.41271571E+02
 20
-2.99404105E+02
  0
VERTEX
  8
0
 62
4
 10
2.41264969E+02
 20
-2.99553023E+02
  0
VERTEX
  8
0
 62
4
 10
2.41271571E+02
 20
-2.99701941E+02
  0
VERTEX
  8
0
 62
4
 10
2.41291328E+02
 20
-2.99849725E+02
  0
VERTEX
  8
0
 62
4
 10
2.41324088E+02
 20
-2.99995252E+02
  0
VERTEX
  8
0
 62
4
 10
2.41369602E+02
 20
-3.00137413E+02
  0
VERTEX
  8
0
 62
4
 10
2.41427525E+02
 20
-3.00275126E+02
  0
VERTEX
  8
0
 62
4
 10
2.41497415E+02
 20
-3.00407344E+02
  0
VERTEX
  8
0
 62
4
 10
2.41578740E+02
 20
-3.00533059E+02
  0
VERTEX
  8
0
 62
4
 10
2.41670882E+02
 20
-3.00651317E+02
  0
VERTEX
  8
0
 62
4
 10
2.41773139E+02
 20
-3.00761215E+02
  0
VERTEX
  8
0
 62
4
 10
2.41884732E+02
 20
-3.00861918E+02
  0
VERTEX
  8
0
 62
4
 10
2.42004814E+02
 20
-3.00952660E+02
  0
VERTEX
  8
0
 62
4
 10
2.42132469E+02
 20
-3.01032750E+02
  0
VERTEX
  8
0
 62
4
 10
2.42266726E+02
 20
-3.01101578E+02
  0
VERTEX
  8
0
 62
4
 10
2.42406564E+02
 20
-3.01158621E+02
  0
VERTEX
  8
0
 62
4
 10
2.42550918E+02
 20
-3.01203444E+02
  0
VERTEX
  8
0
 62
4
 10
2.42698689E+02
 20
-3.01235706E+02
  0
VERTEX
  8
0
 62
4
 10
2.42848754E+02
 20
-3.01255163E+02
  0
VERTEX
  8
0
 62
4
 10
2.42999969E+02
 20
-3.01261664E+02
  0
VERTEX
  8
0
 62
4
 10
2.43151184E+02
 20
-3.01255163E+02
  0
VERTEX
  8
0
 62
4
 10
2.43301249E+02
 20
-3.01235706E+02
  0
VERTEX
  8
0
 62
4
 10
2.43449020E+02
 20
-3.01203444E+02
  0
VERTEX
  8
0
 62
4
 10
2.43593374E+02
 20
-3.01158621E+02
  0
VERTEX
  8
0
 62
4
 10
2.43733212E+02
 20
-3.01101578E+02
  0
VERTEX
  8
0
 62
4
 10
2.43867469E+02
 20
-3.01032750E+02
  0
VERTEX
  8
0
 62
4
 10
2.43995124E+02
 20
-3.00952660E+02
  0
VERTEX
  8
0
 62
4
 10
2.44115206E+02
 20
-3.00861918E+02
  0
VERTEX
  8
0
 62
4
 10
2.44226799E+02
 20
-3.00761215E+02
  0
VERTEX
  8
0
 62
4
 10
2.44329056E+02
 20
-3.00651317E+02
  0
VERTEX
  8
0
 62
4
 10
2.44421198E+02
 20
-3.00533059E+02
  0
VERTEX
  8
0
 62
4
 10
2.44502523E+02
 20
-3.00407344E+02
  0
VERTEX
  8
0
 62
4
 10
2.44572413E+02
 20
-3.00275126E+02
  0
VERTEX
  8
0
 62
4
 10
2.44630336E+02
 20
-3.00137413E+02
  0
VERTEX
  8
0
 62
4
 10
2.44675850E+02
 20
-2.99995252E+02
  0
VERTEX
  8
0
 62
4
 10
2.44708610E+02
 20
-2.99849725E+02
  0
VERTEX
  8
0
 62
4
 10
2.44728367E+02
 20
-2.99701941E+02
  0
VERTEX
  8
0
 62
4
 10
2.44734969E+02
 20
-2.99553023E+02
  0
SEQEND
  8
0
  0
POLYLINE
  8
0
 62
4
 66
1
  0
VERTEX
  8
0
 62
4
 10
2.44999969E+02
 20
-2.99379375E+02
  0
VERTEX
  8
0
 62
4
 10
2.44992358E+02
 20
-2.99208141E+02
  0
VERTEX
  8
0
 62
4
 10
2.44969585E+02
 20
-2.99038210E+02
  0
VERTEX
  8
0
 62
4
 10
2.44931821E+02
 20
-2.98870875E+02
  0
VERTEX
  8
0
 62
4
 10
2.44879354E+02
 20
-2.98707411E+02
  0
VERTEX
  8
0
 62
4
 10
2.44812585E+02
 20
-2.98549061E+02
  0
VERTEX
  8
0
 62
4
 10
2.44732020E+02
 20
-2.98397029E+02
  0
VERTEX
  8
0
 62
4
 10
2.44638273E+02
 20
-2.98252474E+02
  0
VERTEX
  8
0
 62
4
 10
2.44532058E+02
 20
-2.98116496E+02
  0
VERTEX
  8
0
 62
4
 10
2.44414183E+02
 20
-2.97990128E+02
  0
VERTEX
  8
0
 62
4
 10
2.44285544E+02
 20
-2.97874334E+02
  0
VERTEX
  8
0
 62
4
 10
2.44147122E+02
 20
-2.97769994E+02
  0
VERTEX
  8
0
 62
4
 10
2.43999969E+02
 20
-2.97677902E+02
  0
VERTEX
  8
0
 62
4
 10
2.43845206E+02
 20
-2.97598760E+02
  0
VERTEX
  8
0
 62
4
 10
2.43684009E+02
 20
-2.97533169E+02
  0
VERTEX
  8
0
 62
4
 10
2.43517607E+02
 20
-2.97481629E+02
  0
VERTEX
  8
0
 62
4
 10
2.43347265E+02
 20
-2.97444532E+02
  0
VERTEX
  8
0
 62
4
 10
2.43174280E+02
 20
-2.97422160E+02
  0
VERTEX
  8
0
 62
4
 10
2.42999969E+02
 20
-2.97414684E+02
  0
VERTEX
  8
0
 62
4
 10
2.42825658E+02
 20
-2.97422160E+02
  0
VERTEX
  8
0
 62
4
 10
2.42652673E+02
 20
-2.97444532E+02
  0
VERTEX
  8
0
 62
4
 10
2.42482331E+02
 20
-2.97481629E+02
  0
VERTEX
  8
0
 62
4
 10
2.42315929E+02
 20
-2.97533169E+02
  0
VERTEX
  8
0
 62
4
 10
2.42154732E+02
 20
-2.97598760E+02
  0
VERTEX
  8
0
 62
4
 10
2.41999969E+02
 20
-2.97677902E+02
  0
VERTEX
  8
0
 62
4
 10
2.41852816E+02
 20
-2.97769994E+02
  0
VERTEX
  8
0
 62
4
 10
2.41714394E+02
 20
-2.97874334E+02
  0
VERTEX
  8
0
 62
4
 10
2.41585755E+02
 20
-2.97990128E+02
  0
VERTEX
  8
0
 62
4
 10
2.41467880E+02
 20
-2.98116496E+02
  0
VERTEX
  8
0
 62
4
 10
2.41361665E+02
 20
-2.98252474E+02
  0
VERTEX
  8
0
 62
4
 10
2.41267918E+02
 20
-2.98397029E+02
  0
VERTEX
  8
0
 62
4
 10
2.41187353E+02
 20
-2.98549061E+02
  0
VERTEX
  8
0
 62
4
 10
2.41120584E+02
 20
-2.98707411E+02
  0
VERTEX
  8
0
 62
4
 10
2.41068117E+02
 20
-2.98870875E+02
  0
VERTEX
  8
0
 62
4
 10
2.41030353E+02
 20
-2.99038210E+02
  0
VERTEX
  8
0
 62
4
 10
2.41007580E+02
 20
-2.99208141E+02
  0
VERTEX
  8
0
 62
4
 10
2.40999969E+02
 20
-2.99379375E+02
  0
VERTEX
  8
0
 62
4
 10
2.41007580E+02
 20
-2.99550609E+02
  0
VERTEX
  8
0
 62
4
 10
2.41030353E+02
 20
-2.99720540E+02
  0
VERTEX
  8
0
 62
4
 10
2.41068117E+02
 20
-2.99887875E+02
  0
VERTEX
  8
0
 62
4
 10
2.41120584E+02
 20
-3.00051339E+02
  0
VERTEX
  8
0
 62
4
 10
2.41187353E+02
 20
-3.00209689E+02
  0
VERTEX
  8
0
 62
4
 10
2.41267918E+02
 20
-3.00361721E+02
  0
VERTEX
  8
0
 62
4
 10
2.41361665E+02
 20
-3.00506276E+02
  0
VERTEX
  8
0
 62
4
 10
2.41467880E+02
 20
-3.00642254E+02
  0
VERTEX
  8
0
 62
4
 10
2.41585755E+02
 20
-3.00768622E+02
  0
VERTEX
  8
0
 62
4
 10
2.41714394E+02
 20
-3.00884416E+02
  0
VERTEX
  8
0
 62
4
 10
2.41852816E+02
 20
-3.00988756E+02
  0
VERTEX
  8
0
 62
4
 10
2.41999969E+02
 20
-3.01080848E+02
  0
VERTEX
  8
0
 62
4
 10
2.42154732E+02
 20
-3.01159990E+02
  0
VERTEX
  8
0
 62
4
 10
2.42315929E+02
 20
-3.01225581E+02
  0
VERTEX
  8
0
 62
4
 10
2.42482331E+02
 20
-3.01277121E+02
  0
VERTEX
  8
0
 62
4
 10
2.42652673E+02
 20
-3.01314218E+02
  0
VERTEX
  8
0
 62
4
 10
2.42825658E+02
 20
-3.01336590E+02
  0
VERTEX
  8
0
 62
4
 10
2.42999969E+02
 20
-3.01344066E+02
  0
VERTEX
  8
0
 62
4
 10
2.43174280E+02
 20
-3.01336590E+02
  0
VERTEX
  8
0
 62
4
 10
2.43347265E+02
 20
-3.01314218E+02
  0
VERTEX
  8
0
 62
4
 10
2.43517607E+02
 20
-3.01277121E+02
  0
VERTEX
  8
0
 62
4
 10
2.43684009E+02
 20
-3.01225581E+02
  0
VERTEX
  8
0
 62
4
 10
2.43845206E+02
 20
-3.01159990E+02
  0
VERTEX
  8
0
 62
4
 10
2.43999969E+02
 20
-3.01080848E+02
  0
VERTEX
  8
0
 62
4
 10
2.44147122E+02
 20
-3.00988756E+02
  0
VERTEX
  8
0
 62
4
 10
2.44285544E+02
 20
-3.00884416E+02
  0
VERTEX
  8
0
 62
4
 10
2.44414183E+02
 20
-3.00768622E+02
  0
VERTEX
  8
0
 62
4
 10
2.44532058E+02
 20
-3.00642254E+02
  0
VERTEX
  8
0
 62
4
 10
2.44638273E+02
 20
-3.00506276E+02
  0
VERTEX
  8
0
 62
4
 10
2.44732020E+02
 20
-3.00361721E+02
  0
VERTEX
  8
0
 62
4
 10
2.44812585E+02
 20
-3.00209689E+02
  0
VERTEX
  8
0
 62
4
 10
2.44879354E+02
 20
-3.00051339E+02
  0
VERTEX
  8
0
 62
4
 10
2.44931821E+02
 20
-2.99887875E+02
  0
VERTEX
  8
0
 62
4
 10
2.44969585E+02
 20
-2.99720540E+02
  0
VERTEX
  8
0
 62
4
 10
2.44992358E+02
 20
-2.99550609E+02
  0
VERTEX
  8
0
 62
4
 10
2.44999969E+02
 20
-2.99379375E+02
  0
SEQEND
  8
0
  0
POLYLINE
  8
0
 62
6
 66
1
  0
VERTEX
  8
0
 62
6
 10
2.44499969E+02
 20
-2.99548099E+02
  0
VERTEX
  8
0
 62
6
 10
2.44494261E+02
 20
-2.99419352E+02
  0
VERTEX
  8
0
 62
6
 10
2.44477181E+02
 20
-2.99291584E+02
  0
VERTEX
  8
0
 62
6
 10
2.44448858E+02
 20
-2.99165768E+02
  0
VERTEX
  8
0
 62
6
 10
2.44409508E+02
 20
-2.99042863E+02
  0
VERTEX
  8
0
 62
6
 10
2.44359431E+02
 20
-2.98923802E+02
  0
VERTEX
  8
0
 62
6
 10
2.44299007E+02
 20
-2.98809493E+02
  0
VERTEX
  8
0
 62
6
 10
2.44228697E+02
 20
-2.98700805E+02
  0
VERTEX
  8
0
 62
6
 10
2.44149036E+02
 20
-2.98598566E+02
  0
VERTEX
  8
0
 62
6
 10
2.44060629E+02
 20
-2.98503553E+02
  0
VERTEX
  8
0
 62
6
 10
2.43964150E+02
 20
-2.98416489E+02
  0
VERTEX
  8
0
 62
6
 10
2.43860334E+02
 20
-2.98338038E+02
  0
VERTEX
  8
0
 62
6
 10
2.43749969E+02
 20
-2.98268796E+02
  0
VERTEX
  8
0
 62
6
 10
2.43633896E+02
 20
-2.98209291E+02
  0
VERTEX
  8
0
 62
6
 10
2.43512999E+02
 20
-2.98159974E+02
  0
VERTEX
  8
0
 62
6
 10
2.43388198E+02
 20
-2.98121222E+02
  0
VERTEX
  8
0
 62
6
 10
2.43260441E+02
 20
-2.98093330E+02
  0
VERTEX
  8
0
 62
6
 10
2.43130703E+02
 20
-2.98076509E+02
  0
VERTEX
  8
0
 62
6
 10
2.42999969E+02
 20
-2.98070887E+02
  0
VERTEX
  8
0
 62
6
 10
2.42869235E+02
 20
-2.98076509E+02
  0
VERTEX
  8
0
 62
6
 10
2.42739497E+02
 20
-2.98093330E+02
  0
VERTEX
  8
0
 62
6
 10
2.42611740E+02
 20
-2.98121222E+02
  0
VERTEX
  8
0
 62
6
 10
2.42486939E+02
 20
-2.98159974E+02
  0
VERTEX
  8
0
 62
6
 10
2.42366042E+02
 20
-2.98209291E+02
  0
VERTEX
  8
0
 62
6
 10
2.42249969E+02
 20
-2.98268796E+02
  0
VERTEX
  8
0
 62
6
 10
2.42139604E+02
 20
-2.98338038E+02
  0
VERTEX
  8
0
 62
6
 10
2.42035788E+02
 20
-2.98416489E+02
  0
VERTEX
  8
0
 62
6
 10
2.41939309E+02
 20
-2.98503553E+02
  0
VERTEX
  8
0
 62
6
 10
2.41850902E+02
 20
-2.98598566E+02
  0
VERTEX
  8
0
 62
6
 10
2.41771241E+02
 20
-2.98700805E+02
  0
VERTEX
  8
0
 62
6
 10
2.41700931E+02
 20
-2.98809493E+02
  0
VERTEX
  8
0
 62
6
 10
2.41640507E+02
 20
-2.98923802E+02
  0
VERTEX
  8
0
 62
6
 10
2.41590430E+02
 20
-2.99042863E+02
  0
VERTEX
  8
0
 62
6
 10
2.41551080E+02
 20
-2.99165768E+02
  0
VERTEX
  8
0
 62
6
 10
2.41522757E+02
 20
-2.99291584E+02
  0
VERTEX
  8
0
 62
6
 10
2.41505677E+02
 20
-2.99419352E+02
  0
VERTEX
  8
0
 62
6
 10
2.41499969E+02
 20
-2.99548099E+02
  0
VERTEX
  8
0
 62
6
 10
2.41505677E+02
 20
-2.99676846E+02
  0
VERTEX
  8
0
 62
6
 10
2.41522757E+02
 20
-2.99804614E+02
  0
VERTEX
  8
0
 62
6
 10
2.41551080E+02
 20
-2.99930430E+02
  0
VERTEX
  8
0
 62
6
 10
2.41590430E+02
 20
-3.00053335E+02
  0
VERTEX
  8
0
 62
6
 10
2.41640507E+02
 20
-3.00172396E+02
  0
VERTEX
  8
0
 62
6
 10
2.41700931E+02
 20
-3.00286705E+02
  0
VERTEX
  8
0
 62
6
 10
2.41771241E+02
 20
-3.00395393E+02
  0
VERTEX
  8
0
 62
6
 10
2.41850902E+02
 20
-3.00497632E+02
  0
VERTEX
  8
0
 62
6
 10
2.41939309E+02
 20
-3.00592645E+02
  0
VERTEX
  8
0
 62
6
 10
2.42035788E+02
 20
-3.00679709E+02
  0
VERTEX
  8
0
 62
6
 10
2.42139604E+02
 20
-3.00758160E+02
  0
VERTEX
  8
0
 62
6
 10
2.42249969E+02
 20
-3.00827402E+02
  0
VERTEX
  8
0
 62
6
 10
2.42366042E+02
 20
-3.00886907E+02
  0
VERTEX
  8
0
 62
6
 10
2.42486939E+02
 20
-3.00936224E+02
  0
VERTEX
  8
0
 62
6
 10
2.42611740E+02
 20
-3.00974976E+02
  0
VERTEX
  8
0
 62
6
 10
2.42739497E+02
 20
-3.01002868E+02
  0
VERTEX
  8
0
 62
6
 10
2.42869235E+02
 20
-3.01019689E+02
  0
VERTEX
  8
0
 62
6
 10
2.42999969E+02
 20
-3.01025311E+02
  0
VERTEX
  8
0
 62
6
 10
2.43130703E+02
 20
-3.01019689E+02
  0
VERTEX
  8
0
 62
6
 10
2.43260441E+02
 20
-3.01002868E+02
  0
VERTEX
  8
0
 62
6
 10
2.43388198E+02
 20
-3.00974976E+02
  0
VERTEX
  8
0
 62
6
 10
2.43512999E+02
 20
-3.00936224E+02
  0
VERTEX
  8
0
 62
6
 10
2.43633896E+02
 20
-3.00886907E+02
  0
VERTEX
  8
0
 62
6
 10
2.43749969E+02
 20
-3.00827402E+02
  0
VERTEX
  8
0
 62
6
 10
2.43860334E+02
 20
-3.00758160E+02
  0
VERTEX
  8
0
 62
6
 10
2.43964150E+02
 20
-3.00679709E+02
  0
VERTEX
  8
0
 62
6
 10
2.44060629E+02
 20
-3.00592645E+02
  0
VERTEX
  8
0
 62
6
 10
2.44149036E+02
 20
-3.00497632E+02
  0
VERTEX
  8
0
 62
6
 10
2.44228697E+02
 20
-3.00395393E+02
  0
VERTEX
  8
0
 62
6
 10
2.44299007E+02
 20
-3.00286705E+02
  0
VERTEX
  8
0
 62
6
 10
2.44359431E+02
 20
-3.00172396E+02
  0
VERTEX
  8
0
 62
6
 10
2.44409508E+02
 20
-3.00053335E+02
  0
VERTEX
  8
0
 62
6
 10
2.44448858E+02
 20
-2.99930429E+02
  0
VERTEX
  8
0
 62
6
 10
2.44477181E+02
 20
-2.99804614E+02
  0
VERTEX
  8
0
 62
6
 10
2.44494261E+02
 20
-2.99676846E+02
  0
VERTEX
  8
0
 62
6
 10
2.44499969E+02
 20
-2.99548099E+02
  0
SEQEND
  8
0
  0
LINE
  8
0
 62
4
 10
2.45525582E+02
 20
-2.93977428E+02
 11
2.32717091E+02
 21
-2.93977428E+02
  0
LINE
  8
0
 62
4
 10
2.31499969E+02
 20
-3.04353690E+02
 11
2.46499969E+02
 21
-3.04353690E+02
  0
LINE
  8
0
  6
CENTER
 62
6
 10
2.29999969E+02
 20
-2.99548099E+02
 11
2.47999969E+02
 21
-2.99548099E+02
  0
LINE
  8
0
  6
CENTER
 62
6
 10
2.34999969E+02
 20
-2.94554777E+02
 11
2.34999969E+02
 21
-3.04544777E+02
  0
POLYLINE
  8
0
 62
6
 66
1
  0
VERTEX
  8
0
 62
6
 10
2.36499969E+02
 20
-2.99548099E+02
  0
VERTEX
  8
0
 62
6
 10
2.36494261E+02
 20
-2.99419352E+02
  0
VERTEX
  8
0
 62
6
 10
2.36477181E+02
 20
-2.99291584E+02
  0
VERTEX
  8
0
 62
6
 10
2.36448858E+02
 20
-2.99165768E+02
  0
VERTEX
  8
0
 62
6
 10
2.36409508E+02
 20
-2.99042863E+02
  0
VERTEX
  8
0
 62
6
 10
2.36359431E+02
 20
-2.98923802E+02
  0
VERTEX
  8
0
 62
6
 10
2.36299007E+02
 20
-2.98809493E+02
  0
VERTEX
  8
0
 62
6
 10
2.36228697E+02
 20
-2.98700805E+02
  0
VERTEX
  8
0
 62
6
 10
2.36149036E+02
 20
-2.98598566E+02
  0
VERTEX
  8
0
 62
6
 10
2.36060629E+02
 20
-2.98503553E+02
  0
VERTEX
  8
0
 62
6
 10
2.35964150E+02
 20
-2.98416489E+02
  0
VERTEX
  8
0
 62
6
 10
2.35860334E+02
 20
-2.98338038E+02
  0
VERTEX
  8
0
 62
6
 10
2.35749969E+02
 20
-2.98268796E+02
  0
VERTEX
  8
0
 62
6
 10
2.35633896E+02
 20
-2.98209291E+02
  0
VERTEX
  8
0
 62
6
 10
2.35512999E+02
 20
-2.98159974E+02
  0
VERTEX
  8
0
 62
6
 10
2.35388198E+02
 20
-2.98121222E+02
  0
VERTEX
  8
0
 62
6
 10
2.35260441E+02
 20
-2.98093330E+02
  0
VERTEX
  8
0
 62
6
 10
2.35130703E+02
 20
-2.98076509E+02
  0
VERTEX
  8
0
 62
6
 10
2.34999969E+02
 20
-2.98070887E+02
  0
VERTEX
  8
0
 62
6
 10
2.34869235E+02
 20
-2.98076509E+02
  0
VERTEX
  8
0
 62
6
 10
2.34739497E+02
 20
-2.98093330E+02
  0
VERTEX
  8
0
 62
6
 10
2.34611740E+02
 20
-2.98121222E+02
  0
VERTEX
  8
0
 62
6
 10
2.34486939E+02
 20
-2.98159974E+02
  0
VERTEX
  8
0
 62
6
 10
2.34366042E+02
 20
-2.98209291E+02
  0
VERTEX
  8
0
 62
6
 10
2.34249969E+02
 20
-2.98268796E+02
  0
VERTEX
  8
0
 62
6
 10
2.34139604E+02
 20
-2.98338038E+02
  0
VERTEX
  8
0
 62
6
 10
2.34035788E+02
 20
-2.98416489E+02
  0
VERTEX
  8
0
 62
6
 10
2.33939309E+02
 20
-2.98503553E+02
  0
VERTEX
  8
0
 62
6
 10
2.33850902E+02
 20
-2.98598566E+02
  0
VERTEX
  8
0
 62
6
 10
2.33771241E+02
 20
-2.98700805E+02
  0
VERTEX
  8
0
 62
6
 10
2.33700931E+02
 20
-2.98809493E+02
  0
VERTEX
  8
0
 62
6
 10
2.33640507E+02
 20
-2.98923802E+02
  0
VERTEX
  8
0
 62
6
 10
2.33590430E+02
 20
-2.99042863E+02
  0
VERTEX
  8
0
 62
6
 10
2.33551080E+02
 20
-2.99165768E+02
  0
VERTEX
  8
0
 62
6
 10
2.33522757E+02
 20
-2.99291584E+02
  0
VERTEX
  8
0
 62
6
 10
2.33505677E+02
 20
-2.99419352E+02
  0
VERTEX
  8
0
 62
6
 10
2.33499969E+02
 20
-2.99548099E+02
  0
VERTEX
  8
0
 62
6
 10
2.33505677E+02
 20
-2.99676846E+02
  0
VERTEX
  8
0
 62
6
 10
2.33522757E+02
 20
-2.99804614E+02
  0
VERTEX
  8
0
 62
6
 10
2.33551080E+02
 20
-2.99930430E+02
  0
VERTEX
  8
0
 62
6
 10
2.33590430E+02
 20
-3.00053335E+02
  0
VERTEX
  8
0
 62
6
 10
2.33640507E+02
 20
-3.00172396E+02
  0
VERTEX
  8
0
 62
6
 10
2.33700931E+02
 20
-3.00286705E+02
  0
VERTEX
  8
0
 62
6
 10
2.33771241E+02
 20
-3.00395393E+02
  0
VERTEX
  8
0
 62
6
 10
2.33850902E+02
 20
-3.00497632E+02
  0
VERTEX
  8
0
 62
6
 10
2.33939309E+02
 20
-3.00592645E+02
  0
VERTEX
  8
0
 62
6
 10
2.34035788E+02
 20
-3.00679709E+02
  0
VERTEX
  8
0
 62
6
 10
2.34139604E+02
 20
-3.00758160E+02
  0
VERTEX
  8
0
 62
6
 10
2.34249969E+02
 20
-3.00827402E+02
  0
VERTEX
  8
0
 62
6
 10
2.34366042E+02
 20
-3.00886907E+02
  0
VERTEX
  8
0
 62
6
 10
2.34486939E+02
 20
-3.00936224E+02
  0
VERTEX
  8
0
 62
6
 10
2.34611740E+02
 20
-3.00974976E+02
  0
VERTEX
  8
0
 62
6
 10
2.34739497E+02
 20
-3.01002868E+02
  0
VERTEX
  8
0
 62
6
 10
2.34869235E+02
 20
-3.01019689E+02
  0
VERTEX
  8
0
 62
6
 10
2.34999969E+02
 20
-3.01025311E+02
  0
VERTEX
  8
0
 62
6
 10
2.35130703E+02
 20
-3.01019689E+02
  0
VERTEX
  8
0
 62
6
 10
2.35260441E+02
 20
-3.01002868E+02
  0
VERTEX
  8
0
 62
6
 10
2.35388198E+02
 20
-3.00974976E+02
  0
VERTEX
  8
0
 62
6
 10
2.35512999E+02
 20
-3.00936224E+02
  0
VERTEX
  8
0
 62
6
 10
2.35633896E+02
 20
-3.00886907E+02
  0
VERTEX
  8
0
 62
6
 10
2.35749969E+02
 20
-3.00827402E+02
  0
VERTEX
  8
0
 62
6
 10
2.35860334E+02
 20
-3.00758160E+02
  0
VERTEX
  8
0
 62
6
 10
2.35964150E+02
 20
-3.00679709E+02
  0
VERTEX
  8
0
 62
6
 10
2.36060629E+02
 20
-3.00592645E+02
  0
VERTEX
  8
0
 62
6
 10
2.36149036E+02
 20
-3.00497632E+02
  0
VERTEX
  8
0
 62
6
 10
2.36228697E+02
 20
-3.00395393E+02
  0
VERTEX
  8
0
 62
6
 10
2.36299007E+02
 20
-3.00286705E+02
  0
VERTEX
  8
0
 62
6
 10
2.36359431E+02
 20
-3.00172396E+02
  0
VERTEX
  8
0
 62
6
 10
2.36409508E+02
 20
-3.00053335E+02
  0
VERTEX
  8
0
 62
6
 10
2.36448858E+02
 20
-2.99930429E+02
  0
VERTEX
  8
0
 62
6
 10
2.36477181E+02
 20
-2.99804614E+02
  0
VERTEX
  8
0
 62
6
 10
2.36494261E+02
 20
-2.99676846E+02
  0
VERTEX
  8
0
 62
6
 10
2.36499969E+02
 20
-2.99548099E+02
  0
SEQEND
  8
0
  0
POLYLINE
  8
0
 62
4
 66
1
  0
VERTEX
  8
0
 62
4
 10
2.36999969E+02
 20
-2.99379375E+02
  0
VERTEX
  8
0
 62
4
 10
2.36992358E+02
 20
-2.99208141E+02
  0
VERTEX
  8
0
 62
4
 10
2.36969585E+02
 20
-2.99038210E+02
  0
VERTEX
  8
0
 62
4
 10
2.36931821E+02
 20
-2.98870875E+02
  0
VERTEX
  8
0
 62
4
 10
2.36879354E+02
 20
-2.98707411E+02
  0
VERTEX
  8
0
 62
4
 10
2.36812585E+02
 20
-2.98549061E+02
  0
VERTEX
  8
0
 62
4
 10
2.36732020E+02
 20
-2.98397029E+02
  0
VERTEX
  8
0
 62
4
 10
2.36638273E+02
 20
-2.98252474E+02
  0
VERTEX
  8
0
 62
4
 10
2.36532058E+02
 20
-2.98116496E+02
  0
VERTEX
  8
0
 62
4
 10
2.36414183E+02
 20
-2.97990128E+02
  0
VERTEX
  8
0
 62
4
 10
2.36285544E+02
 20
-2.97874334E+02
  0
VERTEX
  8
0
 62
4
 10
2.36147122E+02
 20
-2.97769994E+02
  0
VERTEX
  8
0
 62
4
 10
2.35999969E+02
 20
-2.97677902E+02
  0
VERTEX
  8
0
 62
4
 10
2.35845206E+02
 20
-2.97598760E+02
  0
VERTEX
  8
0
 62
4
 10
2.35684009E+02
 20
-2.97533169E+02
  0
VERTEX
  8
0
 62
4
 10
2.35517607E+02
 20
-2.97481629E+02
  0
VERTEX
  8
0
 62
4
 10
2.35347265E+02
 20
-2.97444532E+02
  0
VERTEX
  8
0
 62
4
 10
2.35174280E+02
 20
-2.97422160E+02
  0
VERTEX
  8
0
 62
4
 10
2.34999969E+02
 20
-2.97414684E+02
  0
VERTEX
  8
0
 62
4
 10
2.34825658E+02
 20
-2.97422160E+02
  0
VERTEX
  8
0
 62
4
 10
2.34652673E+02
 20
-2.97444532E+02
  0
VERTEX
  8
0
 62
4
 10
2.34482331E+02
 20
-2.97481629E+02
  0
VERTEX
  8
0
 62
4
 10
2.34315929E+02
 20
-2.97533169E+02
  0
VERTEX
  8
0
 62
4
 10
2.34154732E+02
 20
-2.97598760E+02
  0
VERTEX
  8
0
 62
4
 10
2.33999969E+02
 20
-2.97677902E+02
  0
VERTEX
  8
0
 62
4
 10
2.33852816E+02
 20
-2.97769994E+02
  0
VERTEX
  8
0
 62
4
 10
2.33714394E+02
 20
-2.97874334E+02
  0
VERTEX
  8
0
 62
4
 10
2.33585755E+02
 20
-2.97990128E+02
  0
VERTEX
  8
0
 62
4
 10
2.33467880E+02
 20
-2.98116496E+02
  0
VERTEX
  8
0
 62
4
 10
2.33361665E+02
 20
-2.98252474E+02
  0
VERTEX
  8
0
 62
4
 10
2.33267918E+02
 20
-2.98397029E+02
  0
VERTEX
  8
0
 62
4
 10
2.33187353E+02
 20
-2.98549061E+02
  0
VERTEX
  8
0
 62
4
 10
2.33120584E+02
 20
-2.98707411E+02
  0
VERTEX
  8
0
 62
4
 10
2.33068117E+02
 20
-2.98870875E+02
  0
VERTEX
  8
0
 62
4
 10
2.33030353E+02
 20
-2.99038210E+02
  0
VERTEX
  8
0
 62
4
 10
2.33007580E+02
 20
-2.99208141E+02
  0
VERTEX
  8
0
 62
4
 10
2.32999969E+02
 20
-2.99379375E+02
  0
VERTEX
  8
0
 62
4
 10
2.33007580E+02
 20
-2.99550609E+02
  0
VERTEX
  8
0
 62
4
 10
2.33030353E+02
 20
-2.99720540E+02
  0
VERTEX
  8
0
 62
4
 10
2.33068117E+02
 20
-2.99887875E+02
  0
VERTEX
  8
0
 62
4
 10
2.33120584E+02
 20
-3.00051339E+02
  0
VERTEX
  8
0
 62
4
 10
2.33187353E+02
 20
-3.00209689E+02
  0
VERTEX
  8
0
 62
4
 10
2.33267918E+02
 20
-3.00361721E+02
  0
VERTEX
  8
0
 62
4
 10
2.33361665E+02
 20
-3.00506276E+02
  0
VERTEX
  8
0
 62
4
 10
2.33467880E+02
 20
-3.00642254E+02
  0
VERTEX
  8
0
 62
4
 10
2.33585755E+02
 20
-3.00768622E+02
  0
VERTEX
  8
0
 62
4
 10
2.33714394E+02
 20
-3.00884416E+02
  0
VERTEX
  8
0
 62
4
 10
2.33852816E+02
 20
-3.00988756E+02
  0
VERTEX
  8
0
 62
4
 10
2.33999969E+02
 20
-3.01080848E+02
  0
VERTEX
  8
0
 62
4
 10
2.34154732E+02
 20
-3.01159990E+02
  0
VERTEX
  8
0
 62
4
 10
2.34315929E+02
 20
-3.01225581E+02
  0
VERTEX
  8
0
 62
4
 10
2.34482331E+02
 20
-3.01277121E+02
  0
VERTEX
  8
0
 62
4
 10
2.34652673E+02
 20
-3.01314218E+02
  0
VERTEX
  8
0
 62
4
 10
2.34825658E+02
 20
-3.01336590E+02
  0
VERTEX
  8
0
 62
4
 10
2.34999969E+02
 20
-3.01344066E+02
  0
VERTEX
  8
0
 62
4
 10
2.35174280E+02
 20
-3.01336590E+02
  0
VERTEX
  8
0
 62
4
 10
2.35347265E+02
 20
-3.01314218E+02
  0
VERTEX
  8
0
 62
4
 10
2.35517607E+02
 20
-3.01277121E+02
  0
VERTEX
  8
0
 62
4
 10
2.35684009E+02
 20
-3.01225581E+02
  0
VERTEX
  8
0
 62
4
 10
2.35845206E+02
 20
-3.01159990E+02
  0
VERTEX
  8
0
 62
4
 10
2.35999969E+02
 20
-3.01080848E+02
  0
VERTEX
  8
0
 62
4
 10
2.36147122E+02
 20
-3.00988756E+02
  0
VERTEX
  8
0
 62
4
 10
2.36285544E+02
 20
-3.00884416E+02
  0
VERTEX
  8
0
 62
4
 10
2.36414183E+02
 20
-3.00768622E+02
  0
VERTEX
  8
0
 62
4
 10
2.36532058E+02
 20
-3.00642254E+02
  0
VERTEX
  8
0
 62
4
 10
2.36638273E+02
 20
-3.00506276E+02
  0
VERTEX
  8
0
 62
4
 10
2.36732020E+02
 20
-3.00361721E+02
  0
VERTEX
  8
0
 62
4
 10
2.36812585E+02
 20
-3.00209689E+02
  0
VERTEX
  8
0
 62
4
 10
2.36879354E+02
 20
-3.00051339E+02
  0
VERTEX
  8
0
 62
4
 10
2.36931821E+02
 20
-2.99887875E+02
  0
VERTEX
  8
0
 62
4
 10
2.36969585E+02
 20
-2.99720540E+02
  0
VERTEX
  8
0
 62
4
 10
2.36992358E+02
 20
-2.99550609E+02
  0
VERTEX
  8
0
 62
4
 10
2.36999969E+02
 20
-2.99379375E+02
  0
SEQEND
  8
0
  0
POLYLINE
  8
0
 62
4
 66
1
  0
VERTEX
  8
0
 62
4
 10
2.36734969E+02
 20
-2.99553023E+02
  0
VERTEX
  8
0
 62
4
 10
2.36728367E+02
 20
-2.99404105E+02
  0
VERTEX
  8
0
 62
4
 10
2.36708610E+02
 20
-2.99256321E+02
  0
VERTEX
  8
0
 62
4
 10
2.36675850E+02
 20
-2.99110794E+02
  0
VERTEX
  8
0
 62
4
 10
2.36630336E+02
 20
-2.98968633E+02
  0
VERTEX
  8
0
 62
4
 10
2.36572413E+02
 20
-2.98830920E+02
  0
VERTEX
  8
0
 62
4
 10
2.36502523E+02
 20
-2.98698702E+02
  0
VERTEX
  8
0
 62
4
 10
2.36421198E+02
 20
-2.98572987E+02
  0
VERTEX
  8
0
 62
4
 10
2.36329056E+02
 20
-2.98454729E+02
  0
VERTEX
  8
0
 62
4
 10
2.36226799E+02
 20
-2.98344831E+02
  0
VERTEX
  8
0
 62
4
 10
2.36115206E+02
 20
-2.98244128E+02
  0
VERTEX
  8
0
 62
4
 10
2.35995124E+02
 20
-2.98153386E+02
  0
VERTEX
  8
0
 62
4
 10
2.35867469E+02
 20
-2.98073296E+02
  0
VERTEX
  8
0
 62
4
 10
2.35733212E+02
 20
-2.98004468E+02
  0
VERTEX
  8
0
 62
4
 10
2.35593374E+02
 20
-2.97947425E+02
  0
VERTEX
  8
0
 62
4
 10
2.35449020E+02
 20
-2.97902602E+02
  0
VERTEX
  8
0
 62
4
 10
2.35301249E+02
 20
-2.97870340E+02
  0
VERTEX
  8
0
 62
4
 10
2.35151184E+02
 20
-2.97850883E+02
  0
VERTEX
  8
0
 62
4
 10
2.34999969E+02
 20
-2.97844382E+02
  0
VERTEX
  8
0
 62
4
 10
2.34848754E+02
 20
-2.97850883E+02
  0
VERTEX
  8
0
 62
4
 10
2.34698689E+02
 20
-2.97870340E+02
  0
VERTEX
  8
0
 62
4
 10
2.34550918E+02
 20
-2.97902602E+02
  0
VERTEX
  8
0
 62
4
 10
2.34406564E+02
 20
-2.97947425E+02
  0
VERTEX
  8
0
 62
4
 10
2.34266726E+02
 20
-2.98004468E+02
  0
VERTEX
  8
0
 62
4
 10
2.34132469E+02
 20
-2.98073296E+02
  0
VERTEX
  8
0
 62
4
 10
2.34004814E+02
 20
-2.98153386E+02
  0
VERTEX
  8
0
 62
4
 10
2.33884732E+02
 20
-2.98244128E+02
  0
VERTEX
  8
0
 62
4
 10
2.33773139E+02
 20
-2.98344831E+02
  0
VERTEX
  8
0
 62
4
 10
2.33670882E+02
 20
-2.98454729E+02
  0
VERTEX
  8
0
 62
4
 10
2.33578740E+02
 20
-2.98572987E+02
  0
VERTEX
  8
0
 62
4
 10
2.33497415E+02
 20
-2.98698702E+02
  0
VERTEX
  8
0
 62
4
 10
2.33427525E+02
 20
-2.98830920E+02
  0
VERTEX
  8
0
 62
4
 10
2.33369602E+02
 20
-2.98968633E+02
  0
VERTEX
  8
0
 62
4
 10
2.33324088E+02
 20
-2.99110794E+02
  0
VERTEX
  8
0
 62
4
 10
2.33291328E+02
 20
-2.99256321E+02
  0
VERTEX
  8
0
 62
4
 10
2.33271571E+02
 20
-2.99404105E+02
  0
VERTEX
  8
0
 62
4
 10
2.33264969E+02
 20
-2.99553023E+02
  0
VERTEX
  8
0
 62
4
 10
2.33271571E+02
 20
-2.99701941E+02
  0
VERTEX
  8
0
 62
4
 10
2.33291328E+02
 20
-2.99849725E+02
  0
VERTEX
  8
0
 62
4
 10
2.33324088E+02
 20
-2.99995252E+02
  0
VERTEX
  8
0
 62
4
 10
2.33369602E+02
 20
-3.00137413E+02
  0
VERTEX
  8
0
 62
4
 10
2.33427525E+02
 20
-3.00275126E+02
  0
VERTEX
  8
0
 62
4
 10
2.33497415E+02
 20
-3.00407344E+02
  0
VERTEX
  8
0
 62
4
 10
2.33578740E+02
 20
-3.00533059E+02
  0
VERTEX
  8
0
 62
4
 10
2.33670882E+02
 20
-3.00651317E+02
  0
VERTEX
  8
0
 62
4
 10
2.33773139E+02
 20
-3.00761215E+02
  0
VERTEX
  8
0
 62
4
 10
2.33884732E+02
 20
-3.00861918E+02
  0
VERTEX
  8
0
 62
4
 10
2.34004814E+02
 20
-3.00952660E+02
  0
VERTEX
  8
0
 62
4
 10
2.34132469E+02
 20
-3.01032750E+02
  0
VERTEX
  8
0
 62
4
 10
2.34266726E+02
 20
-3.01101578E+02
  0
VERTEX
  8
0
 62
4
 10
2.34406564E+02
 20
-3.01158621E+02
  0
VERTEX
  8
0
 62
4
 10
2.34550918E+02
 20
-3.01203444E+02
  0
VERTEX
  8
0
 62
4
 10
2.34698689E+02
 20
-3.01235706E+02
  0
VERTEX
  8
0
 62
4
 10
2.34848754E+02
 20
-3.01255163E+02
  0
VERTEX
  8
0
 62
4
 10
2.34999969E+02
 20
-3.01261664E+02
  0
VERTEX
  8
0
 62
4
 10
2.35151184E+02
 20
-3.01255163E+02
  0
VERTEX
  8
0
 62
4
 10
2.35301249E+02
 20
-3.01235706E+02
  0
VERTEX
  8
0
 62
4
 10
2.35449020E+02
 20
-3.01203444E+02
  0
VERTEX
  8
0
 62
4
 10
2.35593374E+02
 20
-3.01158621E+02
  0
VERTEX
  8
0
 62
4
 10
2.35733212E+02
 20
-3.01101578E+02
  0
VERTEX
  8
0
 62
4
 10
2.35867469E+02
 20
-3.01032750E+02
  0
VERTEX
  8
0
 62
4
 10
2.35995124E+02
 20
-3.00952660E+02
  0
VERTEX
  8
0
 62
4
 10
2.36115206E+02
 20
-3.00861918E+02
  0
VERTEX
  8
0
 62
4
 10
2.36226799E+02
 20
-3.00761215E+02
  0
VERTEX
  8
0
 62
4
 10
2.36329056E+02
 20
-3.00651317E+02
  0
VERTEX
  8
0
 62
4
 10
2.36421198E+02
 20
-3.00533059E+02
  0
VERTEX
  8
0
 62
4
 10
2.36502523E+02
 20
-3.00407344E+02
  0
VERTEX
  8
0
 62
4
 10
2.36572413E+02
 20
-3.00275126E+02
  0
VERTEX
  8
0
 62
4
 10
2.36630336E+02
 20
-3.00137413E+02
  0
VERTEX
  8
0
 62
4
 10
2.36675850E+02
 20
-2.99995252E+02
  0
VERTEX
  8
0
 62
4
 10
2.36708610E+02
 20
-2.99849725E+02
  0
VERTEX
  8
0
 62
4
 10
2.36728367E+02
 20
-2.99701941E+02
  0
VERTEX
  8
0
 62
4
 10
2.36734969E+02
 20
-2.99553023E+02
  0
SEQEND
  8
0
  0
POLYLINE
  8
0
 62
4
 66
1
  0
VERTEX
  8
0
 62
4
 10
2.36999969E+02
 20
-2.99178403E+02
  0
VERTEX
  8
0
 62
4
 10
2.36992109E+02
 20
-2.99004387E+02
  0
VERTEX
  8
0
 62
4
 10
2.36968589E+02
 20
-2.98831739E+02
  0
VERTEX
  8
0
 62
4
 10
2.36929596E+02
 20
-2.98661816E+02
  0
VERTEX
  8
0
 62
4
 10
2.36875435E+02
 20
-2.98495953E+02
  0
VERTEX
  8
0
 62
4
 10
2.36806532E+02
 20
-2.98335455E+02
  0
VERTEX
  8
0
 62
4
 10
2.36723429E+02
 20
-2.98181583E+02
  0
VERTEX
  8
0
 62
4
 10
2.36626779E+02
 20
-2.98035546E+02
  0
VERTEX
  8
0
 62
4
 10
2.36517341E+02
 20
-2.97898492E+02
  0
VERTEX
  8
0
 62
4
 10
2.36395977E+02
 20
-2.97771499E+02
  0
VERTEX
  8
0
 62
4
 10
2.36263639E+02
 20
-2.97655565E+02
  0
VERTEX
  8
0
 62
4
 10
2.36121368E+02
 20
-2.97551601E+02
  0
VERTEX
  8
0
 62
4
 10
2.35970283E+02
 20
-2.97460424E+02
  0
VERTEX
  8
0
 62
4
 10
2.35811571E+02
 20
-2.97382751E+02
  0
VERTEX
  8
0
 62
4
 10
2.35646479E+02
 20
-2.97319192E+02
  0
VERTEX
  8
0
 62
4
 10
2.35476305E+02
 20
-2.97270248E+02
  0
VERTEX
  8
0
 62
4
 10
2.35302387E+02
 20
-2.97236302E+02
  0
VERTEX
  8
0
 62
4
 10
2.35126092E+02
 20
-2.97217622E+02
  0
VERTEX
  8
0
 62
4
 10
2.34948806E+02
 20
-2.97214354E+02
  0
VERTEX
  8
0
 62
4
 10
2.34771922E+02
 20
-2.97226525E+02
  0
VERTEX
  8
0
 62
4
 10
2.34596830E+02
 20
-2.97254038E+02
  0
VERTEX
  8
0
 62
4
 10
2.34424908E+02
 20
-2.97296678E+02
  0
VERTEX
  8
0
 62
4
 10
2.34257505E+02
 20
-2.97354108E+02
  0
VERTEX
  8
0
 62
4
 10
2.34095939E+02
 20
-2.97425878E+02
  0
VERTEX
  8
0
 62
4
 10
2.33941478E+02
 20
-2.97511424E+02
  0
VERTEX
  8
0
 62
4
 10
2.33795338E+02
 20
-2.97610072E+02
  0
VERTEX
  8
0
 62
4
 10
2.33658666E+02
 20
-2.97721049E+02
  0
VERTEX
  8
0
 62
4
 10
2.33532538E+02
 20
-2.97843480E+02
  0
VERTEX
  8
0
 62
4
 10
2.33417944E+02
 20
-2.97976405E+02
  0
VERTEX
  8
0
 62
4
 10
2.33315785E+02
 20
-2.98118778E+02
  0
VERTEX
  8
0
 62
4
 10
2.33226865E+02
 20
-2.98269480E+02
  0
VERTEX
  8
0
 62
4
 10
2.33151882E+02
 20
-2.98427326E+02
  0
VERTEX
  8
0
 62
4
 10
2.33091426E+02
 20
-2.98591076E+02
  0
VERTEX
  8
0
 62
4
 10
2.33045971E+02
 20
-2.98759443E+02
  0
VERTEX
  8
0
 62
4
 10
2.33015876E+02
 20
-2.98931102E+02
  0
VERTEX
  8
0
 62
4
 10
2.33001377E+02
 20
-2.99104706E+02
  0
VERTEX
  8
0
 62
4
 10
2.33002587E+02
 20
-2.99278889E+02
  0
SEQEND
  8
0
  0
LINE
  8
0
  6
CENTER
 62
6
 10
2.42999969E+02
 20
-2.94554777E+02
 11
2.42999969E+02
 21
-3.04544777E+02
  0
LINE
  8
0
 62
4
 10
2.47999969E+02
 20
-2.92033341E+02
 11
2.46499969E+02
 21
-2.92033341E+02
  0
LINE
  8
0
 62
4
 10
2.47999969E+02
 20
-2.92033341E+02
 11
2.47999969E+02
 21
-2.93350021E+02
  0
LINE
  8
0
 62
4
 10
2.47999969E+02
 20
-2.92036505E+02
 11
2.50999969E+02
 21
-2.88618218E+02
  0
LINE
  8
0
 62
4
 10
2.31499969E+02
 20
-2.92033341E+02
 11
2.14999969E+02
 21
-2.92033341E+02
  0
LINE
  8
0
 62
4
 10
2.14999969E+02
 20
-2.92033341E+02
 11
2.14999969E+02
 21
-2.93350021E+02
  0
LINE
  8
0
  6
CENTER
 62
2
 10
-4.34046890E+02
 20
-2.96000031E+02
 11
-4.53749466E+02
 21
-2.96000031E+02
  0
LINE
  8
0
  6
CENTER
 62
2
 10
-4.44000015E+02
 20
-2.86021759E+02
 11
-4.44000015E+02
 21
-3.05724380E+02
  0
CIRCLE
  8
0
 62
7
 10
-4.95500046E+02
 20
-2.91499939E+02
 40
3.29999995E+00
  0
CIRCLE
  8
0
 62
7
 10
-4.39499954E+02
 20
-2.91499969E+02
 40
3.29999995E+00
  0
CIRCLE
  8
0
 62
7
 10
1.10999985E+02
 20
-2.96000031E+02
 40
2.45850000E+00
  0
CIRCLE
  8
0
 62
7
 10
6.39999847E+01
 20
-2.96000031E+02
 40
2.45850000E+00
  0
LINE
  8
0
  6
CENTER
 62
2
 10
-5.00953140E+02
 20
-2.96000031E+02
 11
-4.81250565E+02
 21
-2.96000031E+02
  0
LINE
  8
0
  6
CENTER
 62
2
 10
-4.91000015E+02
 20
-2.86021759E+02
 11
-4.91000015E+02
 21
-3.05724380E+02
  0
LINE
  8
0
 62
7
 10
-3.95254918E+02
 20
1.72502927E+00
 11
3.96745082E+02
 21
1.72502927E+00
  0
LINE
  8
0
 62
7
 10
-3.95254918E+02
 20
-2.82749707E+01
 11
3.96745082E+02
 21
-2.82749707E+01
  0
LINE
  8
0
 62
7
 10
-3.95254918E+02
 20
-2.82749707E+01
 11
-3.95254918E+02
 21
1.72502927E+00
  0
TEXT
  8
0
 62
7
 10
-3.84969605E+02
 20
-1.02749707E+01
 40
9.00000000E+00
  1
STROKE
 41
1.00000000E+00
  7
MONOTXT
  0
TEXT
  8
0
 62
7
 10
-3.89469605E+02
 20
-2.52749707E+01
 40
9.00000000E+00
  1
STRETCH
 41
1.00000000E+00
  7
MONOTXT
  0
LINE
  8
0
 62
7
 10
-3.95254918E+02
 20
-1.32749707E+01
 11
3.96745082E+02
 21
-1.32749707E+01
  0
LINE
  8
0
 62
7
 10
-3.23254918E+02
 20
-2.82749707E+01
 11
-3.23254918E+02
 21
1.72502927E+00
  0
LINE
  8
0
 62
7
 10
-2.78254918E+02
 20
-2.82749707E+01
 11
-2.78254918E+02
 21
1.72502927E+00
  0
LINE
  8
0
 62
7
 10
-2.33254918E+02
 20
-2.82749707E+01
 11
-2.33254918E+02
 21
1.72502927E+00
  0
LINE
  8
0
 62
7
 10
-1.88254918E+02
 20
-2.82749707E+01
 11
-1.88254918E+02
 21
1.72502927E+00
  0
LINE
  8
0
 62
7
 10
-1.43254918E+02
 20
-2.82749707E+01
 11
-1.43254918E+02
 21
1.72502927E+00
  0
LINE
  8
0
 62
7
 10
-9.82549180E+01
 20
-2.82749707E+01
 11
-9.82549180E+01
 21
1.72502927E+00
  0
LINE
  8
0
 62
7
 10
-5.32549180E+01
 20
-2.82749707E+01
 11
-5.32549180E+01
 21
1.72502927E+00
  0
LINE
  8
0
 62
7
 10
-8.25491801E+00
 20
-2.82749707E+01
 11
-8.25491801E+00
 21
1.72502927E+00
  0
LINE
  8
0
 62
7
 10
3.67450820E+01
 20
-2.82749707E+01
 11
3.67450820E+01
 21
1.72502927E+00
  0
LINE
  8
0
 62
7
 10
8.17450820E+01
 20
-2.82749707E+01
 11
8.17450820E+01
 21
1.72502927E+00
  0
LINE
  8
0
 62
7
 10
1.26745082E+02
 20
-2.82749707E+01
 11
1.26745082E+02
 21
1.72502927E+00
  0
LINE
  8
0
 62
7
 10
1.71745082E+02
 20
-2.82749707E+01
 11
1.71745082E+02
 21
1.72502927E+00
  0
LINE
  8
0
 62
7
 10
2.16745082E+02
 20
-2.82749707E+01
 11
2.16745082E+02
 21
1.72502927E+00
  0
LINE
  8
0
 62
7
 10
2.61745082E+02
 20
-2.82749707E+01
 11
2.61745082E+02
 21
1.72502927E+00
  0
LINE
  8
0
 62
7
 10
3.06745082E+02
 20
-2.82749707E+01
 11
3.06745082E+02
 21
1.72502927E+00
  0
LINE
  8
0
 62
7
 10
3.51745082E+02
 20
-2.82749707E+01
 11
3.51745082E+02
 21
1.72502927E+00
  0
LINE
  8
0
 62
7
 10
3.96745082E+02
 20
-2.82749707E+01
 11
3.96745082E+02
 21
1.72502927E+00
  0
TEXT
  8
0
 62
7
 10
-3.08770543E+02
 20
-1.02749707E+01
 40
9.00000000E+00
  1
50
 41
1.00000000E+00
  7
MONOTXT
  0
TEXT
  8
0
 62
7
 10
-2.63770543E+02
 20
-1.02749707E+01
 40
9.00000000E+00
  1
75
 41
1.00000000E+00
  7
MONOTXT
  0
TEXT
  8
0
 62
7
 10
-2.23270543E+02
 20
-1.02749707E+01
 40
9.00000000E+00
  1
100
 41
1.00000000E+00
  7
MONOTXT
  0
TEXT
  8
0
 62
7
 10
-1.78270543E+02
 20
-1.02749707E+01
 40
9.00000000E+00
  1
150
 41
1.00000000E+00
  7
MONOTXT
  0
TEXT
  8
0
 62
7
 10
-1.33270543E+02
 20
-1.02749707E+01
 40
9.00000000E+00
  1
200
 41
1.00000000E+00
  7
MONOTXT
  0
TEXT
  8
0
 62
7
 10
-8.82705430E+01
 20
-1.02749707E+01
 40
9.00000000E+00
  1
250
 41
1.00000000E+00
  7
MONOTXT
  0
TEXT
  8
0
 62
7
 10
-4.32705430E+01
 20
-1.02749707E+01
 40
9.00000000E+00
  1
300
 41
1.00000000E+00
  7
MONOTXT
  0
TEXT
  8
0
 62
7
 10
1.72945699E+00
 20
-1.02749707E+01
 40
9.00000000E+00
  1
350
 41
1.00000000E+00
  7
MONOTXT
  0
TEXT
  8
0
 62
7
 10
4.67294570E+01
 20
-1.02749707E+01
 40
9.00000000E+00
  1
400
 41
1.00000000E+00
  7
MONOTXT
  0
TEXT
  8
0
 62
7
 10
9.17294570E+01
 20
-1.02749707E+01
 40
9.00000000E+00
  1
450
 41
1.00000000E+00
  7
MONOTXT
  0
TEXT
  8
0
 62
7
 10
1.36729457E+02
 20
-1.02749707E+01
 40
9.00000000E+00
  1
500
 41
1.00000000E+00
  7
MONOTXT
  0
TEXT
  8
0
 62
7
 10
1.81729457E+02
 20
-1.02749707E+01
 40
9.00000000E+00
  1
600
 41
1.00000000E+00
  7
MONOTXT
  0
TEXT
  8
0
 62
7
 10
2.26729457E+02
 20
-1.02749707E+01
 40
9.00000000E+00
  1
700
 41
1.00000000E+00
  7
MONOTXT
  0
TEXT
  8
0
 62
7
 10
2.71729457E+02
 20
-1.02749707E+01
 40
9.00000000E+00
  1
800
 41
1.00000000E+00
  7
MONOTXT
  0
TEXT
  8
0
 62
7
 10
3.16729457E+02
 20
-1.02749707E+01
 40
9.00000000E+00
  1
900
 41
1.00000000E+00
  7
MONOTXT
  0
TEXT
  8
0
 62
7
 10
3.57229457E+02
 20
-1.02749707E+01
 40
9.00000000E+00
  1
1000
 41
1.00000000E+00
  7
MONOTXT
  0
TEXT
  8
0
 62
7
 10
-3.13270543E+02
 20
-2.52749707E+01
 40
9.00000000E+00
  1
-25
 41
1.00000000E+00
  7
MONOTXT
  0
TEXT
  8
0
 62
7
 10
-2.59270543E+02
 20
-2.52749707E+01
 40
9.00000000E+00
  1
0
 41
1.00000000E+00
  7
MONOTXT
  0
TEXT
  8
0
 62
7
 10
-2.18770543E+02
 20
-2.52749707E+01
 40
9.00000000E+00
  1
25
 41
1.00000000E+00
  7
MONOTXT
  0
TEXT
  8
0
 62
7
 10
-1.73770543E+02
 20
-2.52749707E+01
 40
9.00000000E+00
  1
75
 41
1.00000000E+00
  7
MONOTXT
  0
TEXT
  8
0
 62
7
 10
-1.33270543E+02
 20
-2.52749707E+01
 40
9.00000000E+00
  1
125
 41
1.00000000E+00
  7
MONOTXT
  0
TEXT
  8
0
 62
7
 10
-8.82705430E+01
 20
-2.52749707E+01
 40
9.00000000E+00
  1
175
 41
1.00000000E+00
  7
MONOTXT
  0
TEXT
  8
0
 62
7
 10
-4.32705430E+01
 20
-2.52749707E+01
 40
9.00000000E+00
  1
225
 41
1.00000000E+00
  7
MONOTXT
  0
TEXT
  8
0
 62
7
 10
1.72945699E+00
 20
-2.52749707E+01
 40
9.00000000E+00
  1
275
 41
1.00000000E+00
  7
MONOTXT
  0
TEXT
  8
0
 62
7
 10
4.67294570E+01
 20
-2.52749707E+01
 40
9.00000000E+00
  1
325
 41
1.00000000E+00
  7
MONOTXT
  0
TEXT
  8
0
 62
7
 10
9.17294570E+01
 20
-2.52749707E+01
 40
9.00000000E+00
  1
375
 41
1.00000000E+00
  7
MONOTXT
  0
TEXT
  8
0
 62
7
 10
1.36729457E+02
 20
-2.52749707E+01
 40
9.00000000E+00
  1
425
 41
1.00000000E+00
  7
MONOTXT
  0
TEXT
  8
0
 62
7
 10
1.81729457E+02
 20
-2.52749707E+01
 40
9.00000000E+00
  1
525
 41
1.00000000E+00
  7
MONOTXT
  0
TEXT
  8
0
 62
7
 10
2.26729457E+02
 20
-2.52749707E+01
 40
9.00000000E+00
  1
625
 41
1.00000000E+00
  7
MONOTXT
  0
TEXT
  8
0
 62
7
 10
2.71729457E+02
 20
-2.52749707E+01
 40
9.00000000E+00
  1
725
 41
1.00000000E+00
  7
MONOTXT
  0
TEXT
  8
0
 62
7
 10
3.16729457E+02
 20
-2.52749707E+01
 40
9.00000000E+00
  1
825
 41
1.00000000E+00
  7
MONOTXT
  0
TEXT
  8
0
 62
7
 10
3.61729457E+02
 20
-2.52749707E+01
 40
9.00000000E+00
  1
925
 41
1.00000000E+00
  7
MONOTXT
  0
TEXT
  8
0
 62
7
 10
3.53729457E+02
 20
7.22502930E+00
 40
9.00000000E+00
  1
(mm)
 41
1.00000000E+00
  7
MONOTXT
  0
TEXT
  8
0
 62
7
 10
-5.22705430E+01
 20
7.22502930E+00
 40
9.00000000E+00
  1
STRETCH LIST
 41
1.05263158E+00
  7
MONOTXT
  0
LINE
  8
0
 62
7
 10
8.13303156E+01
 20
-2.82000000E+02
 11
5.39335480E+01
 21
-2.82000000E+02
  0
LINE
  8
0
 62
7
 10
1.23577930E+01
 20
-2.98650009E+02
 11
-4.95000000E+01
 21
-2.98650009E+02
  0
LINE
  8
0
 62
7
 10
1.54177424E+01
 20
-2.93350021E+02
 11
-4.95000000E+01
 21
-2.93350021E+02
  0
LINE
  8
0
 62
7
 10
1.59084848E+01
 20
-2.92500031E+02
 11
-4.95000000E+01
 21
-2.92500031E+02
  0
LINE
  8
0
 62
7
 10
-1.52683945E+01
 20
-1.66499969E+02
 11
-4.95000000E+01
 21
-1.66499969E+02
  0
LINE
  8
0
 62
7
 10
-1.47776520E+01
 20
-1.65649979E+02
 11
-4.95000000E+01
 21
-1.65649979E+02
  0
LINE
  8
0
 62
7
 10
-1.17177115E+01
 20
-1.60350006E+02
 11
-4.95000000E+01
 21
-1.60350006E+02
  0
LINE
  8
0
 62
7
 10
-4.14999945E+01
 20
-1.18649994E+02
 11
-4.95000000E+01
 21
-1.18649994E+02
  0
LINE
  8
0
 62
7
 10
-4.14999945E+01
 20
-1.13350006E+02
 11
-4.95000000E+01
 21
-1.13350006E+02
  0
LINE
  8
0
 62
7
 10
-4.14999945E+01
 20
-1.12500031E+02
 11
-4.95000000E+01
 21
-1.12500031E+02
  0
ARC
  8
0
 62
2
 10
-4.67500015E+02
 20
-3.19500000E+02
 40
8.17999268E+00
 50
0.00000000E+00
 51
1.80000000E+02
  0
LINE
  8
0
 62
2
 10
-3.39499985E+02
 20
-3.11320007E+02
 11
-3.30499985E+02
 21
-3.11320007E+02
  0
LINE
  8
0
 62
7
 10
-3.39499985E+02
 20
-3.10500000E+02
 11
-3.30499985E+02
 21
-3.10500000E+02
  0
LINE
  8
0
 62
2
 10
-3.39499985E+02
 20
-1.47679993E+02
 11
-3.30499985E+02
 21
-1.47679993E+02
  0
LINE
  8
0
 62
7
 10
-3.39499985E+02
 20
-1.48500000E+02
 11
-3.30499985E+02
 21
-1.48500000E+02
  0
LINE
  8
0
 62
2
 10
-3.39499985E+02
 20
-1.31320007E+02
 11
-3.30499985E+02
 21
-1.31320007E+02
  0
LINE
  8
0
 62
7
 10
-3.39499985E+02
 20
-1.30500000E+02
 11
-3.30499985E+02
 21
-1.30500000E+02
  0
ARC
  8
0
 62
7
 10
-4.67500015E+02
 20
-3.19500000E+02
 40
9.00000000E+00
 50
0.00000000E+00
 51
1.80000000E+02
  0
ARC
  8
0
 62
4
 10
-4.67500015E+02
 20
-3.19500000E+02
 40
1.35000000E+01
 50
0.00000000E+00
 51
1.80000000E+02
  0
LINE
  8
0
 62
4
 10
-4.67500015E+02
 20
-3.03911543E+02
 11
-4.81000015E+02
 21
-3.11705771E+02
  0
LINE
  8
0
 62
4
 10
-4.81000015E+02
 20
-3.11705771E+02
 11
-4.81000015E+02
 21
-3.19500000E+02
  0
LINE
  8
0
 62
4
 10
-4.54000015E+02
 20
-3.19500000E+02
 11
-4.54000015E+02
 21
-3.11705771E+02
  0
LINE
  8
0
 62
4
 10
-4.54000015E+02
 20
-3.11705771E+02
 11
-4.67500015E+02
 21
-3.03911543E+02
  0
LINE
  8
0
 62
4
 10
-3.49294213E+02
 20
-3.03911543E+02
 11
-3.40705756E+02
 21
-3.03911543E+02
  0
LINE
  8
0
 62
4
 10
-3.49294213E+02
 20
-3.11705771E+02
 11
-3.40705756E+02
 21
-3.11705771E+02
  0
LINE
  8
0
 62
4
 10
-3.49294213E+02
 20
-3.03911543E+02
 11
-3.50499985E+02
 21
-3.06000000E+02
  0
LINE
  8
0
 62
4
 10
-3.40705756E+02
 20
-3.03911543E+02
 11
-3.39499985E+02
 21
-3.06000000E+02
  0
ARC
  8
0
 62
4
 10
-3.43599263E+02
 20
-3.07808657E+02
 40
6.90072132E+00
 50
1.45615752E+02
 51
2.14384248E+02
  0
ARC
  8
0
 62
4
 10
-3.46400706E+02
 20
-3.07808657E+02
 40
6.90072132E+00
 50
3.25615752E+02
 51
3.43842480E+01
  0
ARC
  8
0
 62
4
 10
-3.65294213E+02
 20
-3.19500000E+02
 40
2.57942282E+01
 50
2.54444375E-13
 51
1.75879541E+01
  0
ARC
  8
0
 62
4
 10
-3.24705757E+02
 20
-3.19500000E+02
 40
2.57942282E+01
 50
1.62412046E+02
 51
1.80000000E+02
  0
LINE
  8
0
 62
4
 10
-3.50499985E+02
 20
-3.19500000E+02
 11
-3.50499985E+02
 21
-3.06000000E+02
  0
LINE
  8
0
 62
4
 10
-3.39499985E+02
 20
-3.19500000E+02
 11
-3.39499985E+02
 21
-3.06000000E+02
  0
LINE
  8
0
 62
4
 10
-3.39499985E+02
 20
-1.26000000E+02
 11
-3.39499985E+02
 21
-1.53000000E+02
  0
LINE
  8
0
 62
4
 10
-3.50499985E+02
 20
-1.26000000E+02
 11
-3.50499985E+02
 21
-1.53000000E+02
  0
LINE
  8
0
 62
4
 10
-3.39499985E+02
 20
-1.26000000E+02
 11
-3.50499985E+02
 21
-1.26000000E+02
  0
LINE
  8
0
 62
4
 10
-3.39499985E+02
 20
-1.53000000E+02
 11
-3.50499985E+02
 21
-1.53000000E+02
  0
LINE
  8
0
 62
4
 10
-3.40705756E+02
 20
-1.39500000E+02
 11
-3.49294213E+02
 21
-1.39500000E+02
  0
ARC
  8
0
 62
4
 10
-3.31003592E+02
 20
-1.46250000E+02
 40
1.94963929E+01
 50
1.59743842E+02
 51
2.00256158E+02
  0
ARC
  8
0
 62
4
 10
-3.31003592E+02
 20
-1.32750000E+02
 40
1.94963929E+01
 50
1.59743842E+02
 51
2.00256158E+02
  0
ARC
  8
0
 62
4
 10
-3.58996378E+02
 20
-1.32750000E+02
 40
1.94963929E+01
 50
3.39743842E+02
 51
2.02561580E+01
  0
ARC
  8
0
 62
4
 10
-3.58996378E+02
 20
-1.46250000E+02
 40
1.94963929E+01
 50
3.39743842E+02
 51
2.02561580E+01
  0
INSERT
  8
0
  2
PP3
  6
BYBLOCK
 62
0
 10
0.00000000E+00
 20
0.00000000E+00
 41
1.00000000E+00
 42
1.00000000E+00
 50
0.00000000E+00
  0
INSERT
  8
0
  2
PP4
  6
BYBLOCK
 62
0
 10
0.00000000E+00
 20
0.00000000E+00
 41
1.00000000E+00
 42
1.00000000E+00
 50
0.00000000E+00
  0
ARC
  8
0
 62
7
 10
1.20933517E+02
 20
-2.86000000E+02
 40
4.00000000E+00
 50
0.00000000E+00
 51
8.99999818E+01
  0
ARC
  8
0
 62
7
 10
4.87743683E+01
 20
-3.16500000E+02
 40
6.84084654E+00
 50
1.53989169E+02
 51
2.06010827E+02
  0
ARC
  8
0
 62
7
 10
1.26092667E+02
 20
-3.16500000E+02
 40
6.84084654E+00
 50
3.33989137E+02
 51
2.60107947E+01
  0
ARC
  8
0
 62
7
 10
5.39335480E+01
 20
-2.86000000E+02
 40
4.00000000E+00
 50
8.99999818E+01
 51
1.79999964E+02
  0
ARC
  8
0
 62
2
 10
-2.04499924E+02
 20
-2.53688171E+02
 40
3.39998779E+01
 50
2.49332644E+02
 51
2.90667351E+02
  0
ARC
  8
0
 62
2
 10
-2.04499924E+02
 20
-2.53688171E+02
 40
3.14443855E+01
 50
2.51456587E+02
 51
2.88543381E+02
  0
ARC
  8
0
 62
7
 10
-1.50499954E+02
 20
-3.19500000E+02
 40
3.29999995E+00
 50
0.00000000E+00
 51
1.80000000E+02
  0
ARC
  8
0
 62
7
 10
-1.50499954E+02
 20
-3.19500000E+02
 40
8.00000000E+00
 50
0.00000000E+00
 51
1.80000000E+02
  0
ARC
  8
0
 62
7
 10
-1.50499954E+02
 20
-3.19500000E+02
 40
4.00000000E+00
 50
0.00000000E+00
 51
1.80000000E+02
  0
CIRCLE
  8
0
 62
2
 10
-2.04499954E+02
 20
-1.39500000E+02
 40
1.19999990E+01
  0
ARC
  8
0
 62
7
 10
-1.45287521E+02
 20
-1.82474884E+02
 40
2.52511263E+00
 50
2.26521028E+02
 51
2.86521911E+02
  0
ARC
  8
0
 62
7
 10
-1.50500015E+02
 20
-1.75938904E+02
 40
9.06113529E+00
 50
2.47449090E+02
 51
2.92551001E+02
  0
ARC
  8
0
 62
7
 10
-1.55712509E+02
 20
-1.82474884E+02
 40
2.52511263E+00
 50
2.53478180E+02
 51
3.13479049E+02
  0
CIRCLE
  8
0
 62
7
 10
-1.23499924E+02
 20
-1.28499969E+02
 40
5.72249985E+00
  0
CIRCLE
  8
0
 62
7
 10
-1.23499924E+02
 20
-1.28499969E+02
 40
6.57849932E+00
  0
ARC
  8
0
 62
7
 10
-1.45287521E+02
 20
-9.65251770E+01
 40
2.52511263E+00
 50
7.34781915E+01
 51
1.33479081E+02
  0
ARC
  8
0
 62
7
 10
-1.55712509E+02
 20
-9.65251770E+01
 40
2.52511263E+00
 50
4.65210741E+01
 51
1.06521937E+02
  0
ARC
  8
0
 62
7
 10
-1.50500015E+02
 20
-1.03061188E+02
 40
9.06113529E+00
 50
6.74491016E+01
 51
1.12551013E+02
  0
CIRCLE
  8
0
 62
7
 10
-2.04499954E+02
 20
-1.39500000E+02
 40
1.00000000E+01
  0
CIRCLE
  8
0
 62
2
 10
-4.95499954E+02
 20
-2.91499969E+02
 40
4.00000000E+00
  0
CIRCLE
  8
0
 62
7
 10
-4.95499954E+02
 20
-2.91499969E+02
 40
6.25000000E+00
  0
CIRCLE
  8
0
 62
7
 10
-4.95499954E+02
 20
-2.91499969E+02
 40
6.00000000E+00
  0
CIRCLE
  8
0
 62
2
 10
-4.39499954E+02
 20
-2.91499969E+02
 40
4.00000000E+00
  0
CIRCLE
  8
0
 62
7
 10
-4.39499954E+02
 20
-2.91499969E+02
 40
6.25000000E+00
  0
CIRCLE
  8
0
 62
7
 10
-4.39499954E+02
 20
-2.91499969E+02
 40
6.00000000E+00
  0
ARC
  8
0
 62
7
 10
-4.33999954E+02
 20
-2.85999969E+02
 40
4.00000000E+00
 50
0.00000000E+00
 51
8.99999818E+01
  0
ARC
  8
0
 62
7
 10
-5.01000015E+02
 20
-2.85999969E+02
 40
4.00000000E+00
 50
8.99999818E+01
 51
1.79999964E+02
  0
CIRCLE
  8
0
 62
2
 10
-2.04499954E+02
 20
-1.39500000E+02
 40
6.57849932E+00
  0
CIRCLE
  8
0
 62
7
 10
-2.04499954E+02
 20
-1.39500000E+02
 40
6.99999952E+00
  0
CIRCLE
  8
0
 62
7
 10
-2.04499954E+02
 20
-1.39500000E+02
 40
5.69999981E+00
  0
CIRCLE
  8
0
 62
7
 10
-2.85500015E+02
 20
-1.28499969E+02
 40
5.72249985E+00
  0
CIRCLE
  8
0
 62
7
 10
-2.85500015E+02
 20
-1.28499969E+02
 40
6.57849932E+00
  0
ARC
  8
0
 62
7
 10
-2.58500015E+02
 20
-3.19500000E+02
 40
3.29999995E+00
 50
0.00000000E+00
 51
1.80000000E+02
  0
ARC
  8
0
 62
7
 10
-2.58500015E+02
 20
-3.19500000E+02
 40
8.00000000E+00
 50
0.00000000E+00
 51
1.80000000E+02
  0
ARC
  8
0
 62
7
 10
-2.58500015E+02
 20
-3.19500000E+02
 40
4.00000000E+00
 50
0.00000000E+00
 51
1.80000000E+02
  0
ARC
  8
0
 62
7
 10
-5.06159073E+02
 20
-3.16500000E+02
 40
6.84084654E+00
 50
1.53989169E+02
 51
2.06010827E+02
  0
ARC
  8
0
 62
7
 10
-4.28840775E+02
 20
-3.16500000E+02
 40
6.84084654E+00
 50
3.33989137E+02
 51
2.60107913E+01
  0
ARC
  8
0
 62
7
 10
-2.63712418E+02
 20
-9.65251770E+01
 40
2.52511263E+00
 50
4.65209375E+01
 51
1.06521820E+02
  0
ARC
  8
0
 62
7
 10
-2.53287430E+02
 20
-9.65251770E+01
 40
2.52511263E+00
 50
7.34780821E+01
 51
1.33478944E+02
  0
ARC
  8
0
 62
7
 10
-2.58499893E+02
 20
-1.75938904E+02
 40
9.06113529E+00
 50
2.47449035E+02
 51
2.92550946E+02
  0
ARC
  8
0
 62
7
 10
-2.53287430E+02
 20
-1.82474884E+02
 40
2.52511263E+00
 50
2.26520987E+02
 51
2.86521856E+02
  0
ARC
  8
0
 62
7
 10
-2.63712418E+02
 20
-1.82474884E+02
 40
2.52511263E+00
 50
2.53478125E+02
 51
3.13479008E+02
  0
ARC
  8
0
 62
7
 10
-2.58499893E+02
 20
-1.03061188E+02
 40
9.06113529E+00
 50
6.74489921E+01
 51
1.12550903E+02
  0
CIRCLE
  8
0
 62
2
 10
6.39999847E+01
 20
-2.96000031E+02
 40
3.00000000E+00
  0
CIRCLE
  8
0
 62
2
 10
1.10999985E+02
 20
-2.96000031E+02
 40
3.00000000E+00
  0
ARC
  8
0
 62
7
 10
8.74999847E+01
 20
-3.19500000E+02
 40
1.90000000E+01
 50
0.00000000E+00
 51
1.80000000E+02
  0
ARC
  8
0
 62
7
 10
1.14499985E+02
 20
-3.08968643E+02
 40
1.00000000E+00
 50
3.59721781E-05
 51
8.28192267E+01
  0
ARC
  8
0
 62
7
 10
1.11031357E+02
 20
-3.03999924E+02
 40
1.00000000E+00
 50
7.17900183E+00
 51
9.02255559E+01
  0
ARC
  8
0
 62
7
 10
1.03000046E+02
 20
-2.95968613E+02
 40
1.00000000E+00
 50
3.59775350E+02
 51
8.28192267E+01
  0
ARC
  8
0
 62
7
 10
9.80313568E+01
 20
-2.92500015E+02
 40
1.00000000E+00
 50
7.18159727E+00
 51
9.00000162E+01
  0
ARC
  8
0
 62
7
 10
1.01999985E+02
 20
-2.91999985E+02
 40
3.00000000E+00
 50
1.87181037E+02
 51
2.69999984E+02
  0
ARC
  8
0
 62
7
 10
1.14999985E+02
 20
-3.05000015E+02
 40
3.00000000E+00
 50
1.79999991E+02
 51
2.62819259E+02
  0
CIRCLE
  8
0
 62
7
 10
1.10999985E+02
 20
-2.95999985E+02
 40
4.50000000E+00
  0
ARC
  8
0
 62
7
 10
1.14999985E+02
 20
-2.92000046E+02
 40
3.50000000E+00
 50
2.23117997E-05
 51
8.99999750E+01
  0
ARC
  8
0
 62
7
 10
1.14999985E+02
 20
-2.92000046E+02
 40
3.00000000E+00
 50
2.23117997E-05
 51
8.99999750E+01
  0
ARC
  8
0
 62
7
 10
1.06936935E+02
 20
-3.02891434E+02
 40
1.00000000E+00
 50
5.94775673E+01
 51
1.34999386E+02
  0
ARC
  8
0
 62
7
 10
1.10999985E+02
 20
-2.95999985E+02
 40
7.00000000E+00
 50
1.79775319E+02
 51
2.70224577E+02
  0
ARC
  8
0
 62
7
 10
1.14499985E+02
 20
-3.17500000E+02
 40
1.00000000E+00
 50
2.70000052E+02
 51
3.59721781E-05
  0
ARC
  8
0
 62
7
 10
8.94999847E+01
 20
-2.99600281E+02
 40
1.00000000E+00
 50
1.80000036E+02
 51
2.64260384E+02
  0
ARC
  8
0
 62
7
 10
8.94999847E+01
 20
-2.92500031E+02
 40
1.00000000E+00
 50
9.00000025E+01
 51
1.80000046E+02
  0
ARC
  8
0
 62
7
 10
1.04108566E+02
 20
-3.00063004E+02
 40
1.00000000E+00
 50
3.15000662E+02
 51
3.05222541E+01
  0
CIRCLE
  8
0
 62
7
 10
1.10999985E+02
 20
-2.95999985E+02
 40
5.00000000E+00
  0
ARC
  8
0
 62
7
 10
1.07399765E+02
 20
-3.17500000E+02
 40
1.00000000E+00
 50
1.85739485E+02
 51
2.70000038E+02
  0
ARC
  8
0
 62
7
 10
1.00157028E+02
 20
-3.04014542E+02
 40
1.00000000E+00
 50
2.30739011E+02
 51
3.15000026E+02
  0
ARC
  8
0
 62
7
 10
1.02985458E+02
 20
-3.06842972E+02
 40
1.00000000E+00
 50
1.35000014E+02
 51
2.19261011E+02
  0
ARC
  8
0
 62
7
 10
7.69686127E+01
 20
-2.92500015E+02
 40
1.00000000E+00
 50
9.00000162E+01
 51
1.72818444E+02
  0
ARC
  8
0
 62
7
 10
7.29999847E+01
 20
-2.91999985E+02
 40
3.00000000E+00
 50
2.69999984E+02
 51
3.52818976E+02
  0
ARC
  8
0
 62
7
 10
7.19999847E+01
 20
-2.95968613E+02
 40
1.00000000E+00
 50
9.71808057E+01
 51
1.80224691E+02
  0
ARC
  8
0
 62
7
 10
6.40000458E+01
 20
-2.95999985E+02
 40
7.00000000E+00
 50
2.69775448E+02
 51
2.24721868E-01
  0
ARC
  8
0
 62
7
 10
6.39686737E+01
 20
-3.03999924E+02
 40
1.00000000E+00
 50
8.97744765E+01
 51
1.72821039E+02
  0
ARC
  8
0
 62
7
 10
6.00000458E+01
 20
-3.05000015E+02
 40
3.00000000E+00
 50
2.77180780E+02
 51
1.86693353E-05
  0
ARC
  8
0
 62
7
 10
6.05000458E+01
 20
-3.08968643E+02
 40
1.00000000E+00
 50
9.71808057E+01
 51
1.80000005E+02
  0
CIRCLE
  8
0
 62
7
 10
6.39999847E+01
 20
-2.96000031E+02
 40
4.50000000E+00
  0
ARC
  8
0
 62
7
 10
6.00000458E+01
 20
-2.92000000E+02
 40
3.50000000E+00
 50
9.00000162E+01
 51
1.80000005E+02
  0
ARC
  8
0
 62
7
 10
7.08914032E+01
 20
-3.00063049E+02
 40
1.00000000E+00
 50
1.49477556E+02
 51
2.24999381E+02
  0
ARC
  8
0
 62
7
 10
6.80629730E+01
 20
-3.02891449E+02
 40
1.00000000E+00
 50
4.50006569E+01
 51
1.20522253E+02
  0
CIRCLE
  8
0
 62
7
 10
6.39999847E+01
 20
-2.96000031E+02
 40
5.00000000E+00
  0
ARC
  8
0
 62
7
 10
8.54999847E+01
 20
-2.99600281E+02
 40
1.00000000E+00
 50
2.75739515E+02
 51
3.59721781E-05
  0
ARC
  8
0
 62
7
 10
8.54999847E+01
 20
-2.92500031E+02
 40
1.00000000E+00
 50
3.59721781E-05
 51
9.00000162E+01
  0
ARC
  8
0
 62
7
 10
6.00000458E+01
 20
-2.92000031E+02
 40
3.00000000E+00
 50
9.00000162E+01
 51
1.80000005E+02
  0
ARC
  8
0
 62
7
 10
6.05000458E+01
 20
-3.17500000E+02
 40
1.00000000E+00
 50
1.79999991E+02
 51
2.70000028E+02
  0
ARC
  8
0
 62
7
 10
6.76002655E+01
 20
-3.17500015E+02
 40
1.00000000E+00
 50
2.70000038E+02
 51
3.54260543E+02
  0
ARC
  8
0
 62
7
 10
7.48429413E+01
 20
-3.04014526E+02
 40
1.00000000E+00
 50
2.25000000E+02
 51
3.09261001E+02
  0
ARC
  8
0
 62
7
 10
7.20145111E+01
 20
-3.06842957E+02
 40
1.00000000E+00
 50
3.20739045E+02
 51
4.50000423E+01
  0
ARC
  8
0
 62
2
 10
-6.25000458E+01
 20
-1.32500092E+02
 40
8.32999992E+00
 50
7.96256860E+01
 51
3.50075748E+02
  0
ARC
  8
0
 62
7
 10
-6.25000458E+01
 20
-1.32500092E+02
 40
7.44000006E+00
 50
7.83683038E+01
 51
3.48874264E+02
  0
ARC
  8
0
 62
7
 10
-6.25000458E+01
 20
-1.32500092E+02
 40
8.71000004E+00
 50
8.00829797E+01
 51
3.50512819E+02
  0
ARC
  8
0
 62
7
 10
-3.17000015E+02
 20
-3.03000031E+02
 40
5.00000000E-01
 50
8.99999818E+01
 51
1.79999964E+02
  0
ARC
  8
0
 62
7
 10
-3.28999985E+02
 20
-3.19500000E+02
 40
9.99998474E+00
 50
0.00000000E+00
 51
3.17883527E+01
  0
ARC
  8
0
 62
7
 10
-3.04000015E+02
 20
-3.01000000E+02
 40
5.00000000E-01
 50
8.99999818E+01
 51
1.79999964E+02
  0
ARC
  8
0
 62
7
 10
-3.12250015E+02
 20
-3.02491455E+02
 40
2.50000000E-01
 50
9.19988230E+01
 51
1.79999977E+02
  0
CIRCLE
  8
0
 62
7
 10
-5.65000153E+01
 20
-1.51500031E+02
 40
5.00000000E+00
  0
CIRCLE
  8
0
 62
7
 10
-5.65000153E+01
 20
-1.51500031E+02
 40
2.59999990E+00
  0
ARC
  8
0
 62
7
 10
-4.67500015E+02
 20
-3.20216888E+02
 40
1.70000000E+01
 50
0.00000000E+00
 51
1.77583126E+02
  0
ARC
  8
0
 62
7
 10
-4.67500015E+02
 20
-3.20216888E+02
 40
1.90000000E+01
 50
0.00000000E+00
 51
1.77837662E+02
  0
ARC
  8
0
 62
7
 10
-4.67500015E+02
 20
-3.20216888E+02
 40
1.75294495E+01
 50
0.00000000E+00
 51
1.77656165E+02
  0
ARC
  8
0
 62
7
 10
-7.35000000E+01
 20
-1.59500031E+02
 40
2.00000000E+00
 50
1.79999977E+02
 51
2.70000028E+02
  0
ARC
  8
0
 62
7
 10
-7.35000000E+01
 20
-1.19500031E+02
 40
2.00000000E+00
 50
8.99999818E+01
 51
1.79999964E+02
  0
ARC
  8
0
 62
7
 10
-3.17000015E+02
 20
-1.55999969E+02
 40
5.00000000E-01
 50
1.79999977E+02
 51
2.69999974E+02
  0
ARC
  8
0
 62
7
 10
-3.12250015E+02
 20
-1.56508545E+02
 40
2.50000000E-01
 50
1.79999977E+02
 51
2.68001132E+02
  0
ARC
  8
0
 62
7
 10
-3.04000015E+02
 20
-1.58000000E+02
 40
5.00000000E-01
 50
1.79999977E+02
 51
2.69999974E+02
  0
ARC
  8
0
 62
7
 10
-3.04000015E+02
 20
-1.21000000E+02
 40
5.00000000E-01
 50
8.99999818E+01
 51
1.79999964E+02
  0
ARC
  8
0
 62
7
 10
-3.12250015E+02
 20
-1.22491455E+02
 40
2.50000000E-01
 50
9.19988093E+01
 51
1.79999964E+02
  0
ARC
  8
0
 62
7
 10
-3.17000015E+02
 20
-1.23000031E+02
 40
5.00000000E-01
 50
8.99999818E+01
 51
1.79999964E+02
  0
LINE
  8
0
 62
7
 10
7.74338804E+01
 20
-2.76500031E+02
 11
7.87447807E+01
 21
-2.76500031E+02
  0
LINE
  8
0
 62
7
 10
-2.14499954E+02
 20
-2.76500000E+02
 11
-1.94499954E+02
 21
-2.76500000E+02
  0
LINE
  8
0
 62
7
 10
-4.77499771E+02
 20
-2.76500000E+02
 11
-4.57499893E+02
 21
-2.76500000E+02
  0
LINE
  8
0
 62
7
 10
-4.57500015E+02
 20
-2.76500000E+02
 11
-4.57500015E+02
 21
-2.81999969E+02
  0
LINE
  8
0
 62
7
 10
-4.77500015E+02
 20
-2.76500000E+02
 11
-4.77500015E+02
 21
-2.81999969E+02
  0
LINE
  8
0
 62
7
 10
-4.76499954E+02
 20
-2.75500000E+02
 11
-4.58499954E+02
 21
-2.75500000E+02
  0
LINE
  8
0
 62
7
 10
-4.58499989E+02
 20
-2.75499898E+02
 11
-4.57500009E+02
 21
-2.76499878E+02
  0
LINE
  8
0
 62
7
 10
-4.77499858E+02
 20
-2.76500137E+02
 11
-4.76499835E+02
 21
-2.75500114E+02
  0
LINE
  8
0
 62
7
 10
1.20933517E+02
 20
-2.82000000E+02
 11
1.14963059E+02
 21
-2.82000000E+02
  0
LINE
  8
0
 62
7
 10
4.99335785E+01
 20
-2.86000000E+02
 11
4.99335785E+01
 21
-3.19500000E+02
  0
LINE
  8
0
 62
7
 10
4.84335175E+01
 20
-3.13500000E+02
 11
4.19334869E+01
 21
-3.13500000E+02
  0
LINE
  8
0
 62
7
 10
4.84335175E+01
 20
-3.19500000E+02
 11
4.26263275E+01
 21
-3.19500000E+02
  0
LINE
  8
0
 62
7
 10
3.89333852E+01
 20
-3.16200059E+02
 11
3.96334032E+01
 21
-3.15500041E+02
  0
LINE
  8
0
 62
7
 10
3.96335297E+01
 20
-3.19500000E+02
 11
3.96335297E+01
 21
-3.15500031E+02
  0
LINE
  8
0
 62
2
 10
4.19334869E+01
 20
-3.16200012E+02
 11
3.89335480E+01
 21
-3.16200012E+02
  0
LINE
  8
0
 62
7
 10
4.19334869E+01
 20
-3.15500031E+02
 11
3.96335602E+01
 21
-3.15500031E+02
  0
LINE
  8
0
 62
7
 10
4.19334869E+01
 20
-3.19500000E+02
 11
4.19334869E+01
 21
-3.13500000E+02
  0
LINE
  8
0
 62
7
 10
3.89335175E+01
 20
-3.19500000E+02
 11
3.89335175E+01
 21
-3.16200012E+02
  0
LINE
  8
0
 62
7
 10
4.99335480E+01
 20
-3.11500000E+02
 11
4.84335175E+01
 21
-3.11500000E+02
  0
LINE
  8
0
 62
7
 10
4.84334869E+01
 20
-3.19500000E+02
 11
4.84334869E+01
 21
-3.11500000E+02
  0
LINE
  8
0
 62
7
 10
1.24933548E+02
 20
-2.86000000E+02
 11
1.24933548E+02
 21
-3.19500000E+02
  0
LINE
  8
0
 62
7
 10
1.35933471E+02
 20
-3.16200043E+02
 11
1.35233486E+02
 21
-3.15500057E+02
  0
LINE
  8
0
 62
7
 10
1.35233536E+02
 20
-3.19500000E+02
 11
1.35233536E+02
 21
-3.15500031E+02
  0
LINE
  8
0
 62
2
 10
1.32933548E+02
 20
-3.16200012E+02
 11
1.35933517E+02
 21
-3.16200012E+02
  0
LINE
  8
0
 62
7
 10
1.32933548E+02
 20
-3.15500031E+02
 11
1.35233536E+02
 21
-3.15500031E+02
  0
LINE
  8
0
 62
7
 10
1.35933578E+02
 20
-3.19500000E+02
 11
1.35933578E+02
 21
-3.16200012E+02
  0
LINE
  8
0
 62
7
 10
1.32933548E+02
 20
-3.19500000E+02
 11
1.32933548E+02
 21
-3.13500000E+02
  0
LINE
  8
0
 62
7
 10
1.26433548E+02
 20
-3.19500000E+02
 11
1.32240738E+02
 21
-3.19500000E+02
  0
LINE
  8
0
 62
7
 10
1.26433548E+02
 20
-3.13500000E+02
 11
1.32933548E+02
 21
-3.13500000E+02
  0
LINE
  8
0
 62
7
 10
1.24933548E+02
 20
-3.11500000E+02
 11
1.26433548E+02
 21
-3.11500000E+02
  0
LINE
  8
0
 62
7
 10
1.26433487E+02
 20
-3.19500000E+02
 11
1.26433487E+02
 21
-3.11500000E+02
  0
LINE
  8
0
 62
7
 10
-8.04999847E+01
 20
-2.82000000E+02
 11
-8.04999847E+01
 21
-3.19500000E+02
  0
LINE
  8
0
 62
7
 10
-1.48499954E+02
 20
-3.19500000E+02
 11
-1.48499954E+02
 21
-3.18345337E+02
  0
LINE
  8
0
  6
CENTER
 62
2
 10
-1.50499954E+02
 20
-3.08364502E+02
 11
-1.50499954E+02
 21
-3.19500000E+02
  0
LINE
  8
0
 62
7
 10
-1.52499954E+02
 20
-3.18345154E+02
 11
-1.52499954E+02
 21
-3.19500000E+02
  0
LINE
  8
0
 62
7
 10
-2.14499954E+02
 20
-2.76500000E+02
 11
-2.14499954E+02
 21
-2.83500061E+02
  0
LINE
  8
0
 62
7
 10
-2.13499954E+02
 20
-2.75500000E+02
 11
-1.95499985E+02
 21
-2.75500000E+02
  0
LINE
  8
0
 62
7
 10
-2.14499877E+02
 20
-2.76500077E+02
 11
-2.13499865E+02
 21
-2.75500065E+02
  0
LINE
  8
0
 62
7
 10
-1.94499954E+02
 20
-2.76500000E+02
 11
-1.94499954E+02
 21
-2.83500000E+02
  0
LINE
  8
0
 62
7
 10
-1.95499932E+02
 20
-2.75500022E+02
 11
-1.94499953E+02
 21
-2.76500002E+02
  0
LINE
  8
0
 62
7
 10
-1.53800150E+02
 20
-1.88000126E+02
 11
-1.54500136E+02
 21
-1.87300140E+02
  0
LINE
  8
0
 62
7
 10
-1.46499815E+02
 20
-1.87300086E+02
 11
-1.47199787E+02
 21
-1.88000059E+02
  0
LINE
  8
0
 62
7
 10
-1.46500046E+02
 20
-1.87300018E+02
 11
-1.54500015E+02
 21
-1.87300018E+02
  0
LINE
  8
0
 62
2
 10
-1.53800034E+02
 20
-1.85000031E+02
 11
-1.53800034E+02
 21
-1.88000031E+02
  0
LINE
  8
0
 62
2
 10
-1.47199997E+02
 20
-1.85000031E+02
 11
-1.47199997E+02
 21
-1.88000031E+02
  0
LINE
  8
0
 62
7
 10
-1.54500015E+02
 20
-1.85000031E+02
 11
-1.54500015E+02
 21
-1.87300018E+02
  0
LINE
  8
0
 62
7
 10
-1.46500015E+02
 20
-1.85000031E+02
 11
-1.46500015E+02
 21
-1.87300018E+02
  0
LINE
  8
0
 62
7
 10
-1.53974991E+02
 20
-1.78500031E+02
 11
-1.53974991E+02
 21
-1.84307220E+02
  0
LINE
  8
0
 62
7
 10
-1.47025009E+02
 20
-1.78500031E+02
 11
-1.47025009E+02
 21
-1.84307220E+02
  0
LINE
  8
0
 62
7
 10
-1.43549950E+02
 20
-1.84307301E+02
 11
-1.44749906E+02
 21
-1.85000096E+02
  0
LINE
  8
0
 62
7
 10
-1.56250150E+02
 20
-1.85000207E+02
 11
-1.57450132E+02
 21
-1.84307397E+02
  0
LINE
  8
0
 62
7
 10
-1.43550034E+02
 20
-1.78500031E+02
 11
-1.43550034E+02
 21
-1.84307220E+02
  0
LINE
  8
0
 62
7
 10
-1.57450027E+02
 20
-1.78500031E+02
 11
-1.57450027E+02
 21
-1.84307220E+02
  0
LINE
  8
0
 62
7
 10
-1.44750015E+02
 20
-1.85000031E+02
 11
-1.56250046E+02
 21
-1.85000031E+02
  0
LINE
  8
0
 62
7
 10
-1.47200027E+02
 20
-1.88000031E+02
 11
-1.53800034E+02
 21
-1.88000031E+02
  0
LINE
  8
0
 62
7
 10
-1.42500015E+02
 20
-1.73500031E+02
 11
-1.42500015E+02
 21
-1.78500031E+02
  0
LINE
  8
0
 62
7
 10
-1.58500015E+02
 20
-1.73500031E+02
 11
-1.58500015E+02
 21
-1.78500031E+02
  0
LINE
  8
0
 62
7
 10
-1.42500046E+02
 20
-1.78500031E+02
 11
-1.58500015E+02
 21
-1.78500031E+02
  0
LINE
  8
0
  6
CENTER
 62
2
 10
-1.50500015E+02
 20
-1.69248871E+02
 11
-1.50500015E+02
 21
-1.90087708E+02
  0
LINE
  8
0
  6
CENTER
 62
2
 10
-1.23499924E+02
 20
-1.19221039E+02
 11
-1.23499924E+02
 21
-1.37786835E+02
  0
LINE
  8
0
  6
CENTER
 62
2
 10
-1.14440048E+02
 20
-1.28499969E+02
 11
-1.32784897E+02
 21
-1.28499969E+02
  0
LINE
  8
0
 62
7
 10
-1.26499954E+02
 20
-1.26767944E+02
 11
-1.26499954E+02
 21
-1.30232056E+02
  0
LINE
  8
0
 62
7
 10
-1.26499413E+02
 20
-1.30231086E+02
 11
-1.23499400E+02
 21
-1.31963134E+02
  0
LINE
  8
0
 62
7
 10
-1.23500214E+02
 20
-1.31963595E+02
 11
-1.20500254E+02
 21
-1.30231578E+02
  0
LINE
  8
0
 62
7
 10
-1.20499924E+02
 20
-1.30232056E+02
 11
-1.20499924E+02
 21
-1.26767944E+02
  0
LINE
  8
0
 62
7
 10
-1.23499510E+02
 20
-1.25035071E+02
 11
-1.20499497E+02
 21
-1.26767119E+02
  0
LINE
  8
0
 62
7
 10
-1.26500213E+02
 20
-1.26767442E+02
 11
-1.23500214E+02
 21
-1.25035402E+02
  0
LINE
  8
0
 62
7
 10
-1.53799865E+02
 20
-9.10001047E+01
 11
-1.54499862E+02
 21
-9.17001011E+01
  0
LINE
  8
0
 62
7
 10
-1.46500112E+02
 20
-9.17001874E+01
 11
-1.47200098E+02
 21
-9.10002018E+01
  0
LINE
  8
0
 62
7
 10
-1.46500046E+02
 20
-9.17000427E+01
 11
-1.54500015E+02
 21
-9.17000427E+01
  0
LINE
  8
0
 62
2
 10
-1.53800034E+02
 20
-9.40000610E+01
 11
-1.53800034E+02
 21
-9.10000610E+01
  0
LINE
  8
0
 62
2
 10
-1.47199997E+02
 20
-9.40000610E+01
 11
-1.47199997E+02
 21
-9.10000610E+01
  0
LINE
  8
0
 62
7
 10
-1.54500015E+02
 20
-9.40000610E+01
 11
-1.54500015E+02
 21
-9.17000427E+01
  0
LINE
  8
0
 62
7
 10
-1.46500015E+02
 20
-9.40000610E+01
 11
-1.46500015E+02
 21
-9.17000427E+01
  0
LINE
  8
0
 62
7
 10
-1.94499936E+02
 20
-2.83500014E+02
 11
-1.92499934E+02
 21
-2.85500017E+02
  0
LINE
  8
0
 62
7
 10
-2.14499914E+02
 20
-2.83500058E+02
 11
-2.16499917E+02
 21
-2.85500060E+02
  0
LINE
  8
0
 62
7
 10
-1.92499954E+02
 20
-2.85500000E+02
 11
-1.36499985E+02
 21
-2.85500000E+02
  0
LINE
  8
0
 62
7
 10
7.74338804E+01
 20
-2.76500031E+02
 11
7.84337579E+01
 21
-2.75500153E+02
  0
LINE
  8
0
 62
7
 10
7.84336395E+01
 20
-2.75500031E+02
 11
7.89600668E+01
 21
-2.75500031E+02
  0
LINE
  8
0
 62
7
 10
-2.58499932E+02
 20
-3.17190722E+02
 11
-2.60499867E+02
 21
-3.18345385E+02
  0
LINE
  8
0
  6
CENTER
 62
2
 10
-1.50500015E+02
 20
-1.09968323E+02
 11
-1.50500015E+02
 21
-8.94123840E+01
  0
LINE
  8
0
 62
7
 10
-1.47200027E+02
 20
-9.10000305E+01
 11
-1.53800034E+02
 21
-9.10000305E+01
  0
LINE
  8
0
 62
7
 10
-1.42500015E+02
 20
-1.05500061E+02
 11
-1.42500015E+02
 21
-1.00500061E+02
  0
LINE
  8
0
 62
7
 10
-1.58500015E+02
 20
-1.05500061E+02
 11
-1.58500015E+02
 21
-1.00500061E+02
  0
LINE
  8
0
 62
7
 10
-1.42500046E+02
 20
-1.00500031E+02
 11
-1.58500015E+02
 21
-1.00500031E+02
  0
LINE
  8
0
 62
7
 10
-1.47025009E+02
 20
-1.00500061E+02
 11
-1.47025009E+02
 21
-9.46928711E+01
  0
LINE
  8
0
 62
7
 10
-1.57450027E+02
 20
-1.00500061E+02
 11
-1.57450027E+02
 21
-9.46928711E+01
  0
LINE
  8
0
 62
7
 10
-1.44750015E+02
 20
-9.40000305E+01
 11
-1.56250046E+02
 21
-9.40000305E+01
  0
LINE
  8
0
 62
7
 10
-1.43550034E+02
 20
-1.00500061E+02
 11
-1.43550034E+02
 21
-9.46928711E+01
  0
LINE
  8
0
 62
7
 10
-1.56250050E+02
 20
-9.40002069E+01
 11
-1.57450045E+02
 21
-9.46930246E+01
  0
LINE
  8
0
 62
7
 10
-1.43550178E+02
 20
-9.46931534E+01
 11
-1.44750213E+02
 21
-9.40003128E+01
  0
LINE
  8
0
 62
7
 10
-4.99499954E+02
 20
-2.93809387E+02
 11
-4.99499954E+02
 21
-2.89190582E+02
  0
LINE
  8
0
 62
7
 10
-4.99499897E+02
 20
-2.89190608E+02
 11
-4.95499863E+02
 21
-2.86881199E+02
  0
LINE
  8
0
 62
7
 10
-4.95500013E+02
 20
-2.86881173E+02
 11
-4.91500032E+02
 21
-2.89190552E+02
  0
LINE
  8
0
 62
7
 10
-4.91499893E+02
 20
-2.89190582E+02
 11
-4.91499893E+02
 21
-2.93809387E+02
  0
LINE
  8
0
 62
7
 10
-4.95499912E+02
 20
-2.96118820E+02
 11
-4.91499878E+02
 21
-2.93809410E+02
  0
LINE
  8
0
 62
7
 10
-4.99499953E+02
 20
-2.93809429E+02
 11
-4.95499920E+02
 21
-2.96118838E+02
  0
LINE
  8
0
  6
CENTER
 62
2
 10
-4.95499954E+02
 20
-3.04486084E+02
 11
-4.95499954E+02
 21
-2.78544464E+02
  0
LINE
  8
0
  6
CENTER
 62
2
 10
-5.08822159E+02
 20
-2.91499969E+02
 11
-4.82347488E+02
 21
-2.91499969E+02
  0
LINE
  8
0
 62
7
 10
-4.35499954E+02
 20
-2.93809387E+02
 11
-4.35499954E+02
 21
-2.89190582E+02
  0
LINE
  8
0
 62
7
 10
-4.35500002E+02
 20
-2.89190530E+02
 11
-4.39500036E+02
 21
-2.86881121E+02
  0
LINE
  8
0
 62
7
 10
-4.39499909E+02
 20
-2.86881273E+02
 11
-4.43499916E+02
 21
-2.89190667E+02
  0
LINE
  8
0
 62
7
 10
-4.43500015E+02
 20
-2.89190582E+02
 11
-4.43500015E+02
 21
-2.93809387E+02
  0
LINE
  8
0
 62
7
 10
-4.39499867E+02
 20
-2.96118776E+02
 11
-4.43499900E+02
 21
-2.93809367E+02
  0
LINE
  8
0
 62
7
 10
-4.35499954E+02
 20
-2.93809432E+02
 11
-4.39500014E+02
 21
-2.96118857E+02
  0
LINE
  8
0
  6
CENTER
 62
2
 10
-4.39499954E+02
 20
-3.04486084E+02
 11
-4.39499954E+02
 21
-2.78544464E+02
  0
LINE
  8
0
  6
CENTER
 62
2
 10
-4.26177750E+02
 20
-2.91499969E+02
 11
-4.52652420E+02
 21
-2.91499969E+02
  0
LINE
  8
0
 62
7
 10
-5.05000015E+02
 20
-2.85999969E+02
 11
-5.05000015E+02
 21
-3.19500000E+02
  0
LINE
  8
0
 62
7
 10
-4.30000015E+02
 20
-2.85999969E+02
 11
-4.30000015E+02
 21
-3.19500000E+02
  0
LINE
  8
0
 62
7
 10
-5.01000015E+02
 20
-2.81999969E+02
 11
-4.34000015E+02
 21
-2.81999969E+02
  0
LINE
  8
0
 62
7
 10
-2.72500015E+02
 20
-1.07899994E+02
 11
-1.36499985E+02
 21
-1.07899994E+02
  0
LINE
  8
0
 62
7
 10
-2.72500015E+02
 20
-1.15100006E+02
 11
-1.36499985E+02
 21
-1.15100006E+02
  0
LINE
  8
0
  6
CENTER
 62
2
 10
-3.07724197E+02
 20
-1.11500000E+02
 11
-7.70927887E+01
 21
-1.11500000E+02
  0
LINE
  8
0
 62
7
 10
-1.36499954E+02
 20
-2.81999969E+02
 11
-1.36499954E+02
 21
-3.19500000E+02
  0
LINE
  8
0
 62
7
 10
-1.36499985E+02
 20
-2.81999969E+02
 11
-8.04999847E+01
 21
-2.81999969E+02
  0
LINE
  8
0
 62
7
 10
-2.72500015E+02
 20
-2.85500000E+02
 11
-2.16499893E+02
 21
-2.85500000E+02
  0
LINE
  8
0
 62
7
 10
-2.72500015E+02
 20
-2.81999969E+02
 11
-2.72500015E+02
 21
-3.19500000E+02
  0
LINE
  8
0
 62
7
 10
-3.02500015E+02
 20
-2.81999969E+02
 11
-2.72500015E+02
 21
-2.81999969E+02
  0
LINE
  8
0
 62
7
 10
-3.02500015E+02
 20
-2.81999969E+02
 11
-3.02500015E+02
 21
-3.19500000E+02
  0
LINE
  8
0
 62
7
 10
-2.72500015E+02
 20
-1.02000000E+02
 11
-2.72500015E+02
 21
-1.77000000E+02
  0
LINE
  8
0
 62
7
 10
-1.36499985E+02
 20
-1.77000031E+02
 11
-8.04999847E+01
 21
-1.77000031E+02
  0
LINE
  8
0
 62
7
 10
-1.36499954E+02
 20
-1.02000000E+02
 11
-1.36499954E+02
 21
-1.77000000E+02
  0
LINE
  8
0
 62
7
 10
-2.72500015E+02
 20
-1.73500000E+02
 11
-1.36499985E+02
 21
-1.73500000E+02
  0
LINE
  8
0
 62
7
 10
-3.02500015E+02
 20
-1.77000031E+02
 11
-2.72500015E+02
 21
-1.77000031E+02
  0
LINE
  8
0
 62
7
 10
-3.02500015E+02
 20
-1.02000000E+02
 11
-3.02500015E+02
 21
-1.77000000E+02
  0
LINE
  8
0
 62
7
 10
-2.72500015E+02
 20
-1.05500031E+02
 11
-1.36499985E+02
 21
-1.05500031E+02
  0
LINE
  8
0
 62
7
 10
-2.72500015E+02
 20
-1.71099976E+02
 11
-1.36499985E+02
 21
-1.71099976E+02
  0
LINE
  8
0
 62
7
 10
-2.72500015E+02
 20
-1.63899963E+02
 11
-1.36499985E+02
 21
-1.63899963E+02
  0
LINE
  8
0
  6
CENTER
 62
2
 10
-3.07107559E+02
 20
-1.67500031E+02
 11
-7.70927887E+01
 21
-1.67500031E+02
  0
LINE
  8
0
 62
7
 10
-2.61964365E+02
 20
-3.13499891E+02
 11
-2.65428451E+02
 21
-3.19499874E+02
  0
LINE
  8
0
 62
7
 10
-2.55035904E+02
 20
-3.13499969E+02
 11
-2.61964127E+02
 21
-3.13499969E+02
  0
LINE
  8
0
 62
7
 10
-2.72500015E+02
 20
-2.87900024E+02
 11
-1.36499985E+02
 21
-2.87900024E+02
  0
LINE
  8
0
 62
7
 10
-2.56499881E+02
 20
-3.18345061E+02
 11
-2.58499816E+02
 21
-3.17190397E+02
  0
LINE
  8
0
  6
CENTER
 62
2
 10
-3.07724197E+02
 20
-2.91500000E+02
 11
-7.70927887E+01
 21
-2.91500000E+02
  0
LINE
  8
0
 62
7
 10
-2.72500015E+02
 20
-2.95100037E+02
 11
-1.36499985E+02
 21
-2.95100037E+02
  0
LINE
  8
0
 62
7
 10
-1.47035782E+02
 20
-3.13500010E+02
 11
-1.43571689E+02
 21
-3.19500003E+02
  0
LINE
  8
0
 62
7
 10
-1.53964096E+02
 20
-3.13499969E+02
 11
-1.47035843E+02
 21
-3.13499969E+02
  0
LINE
  8
0
 62
7
 10
-1.53963973E+02
 20
-3.13500072E+02
 11
-1.57428074E+02
 21
-3.19500080E+02
  0
LINE
  8
0
 62
7
 10
-1.50499936E+02
 20
-3.17190661E+02
 11
-1.48499949E+02
 21
-3.18345355E+02
  0
LINE
  8
0
 62
7
 10
-1.52499901E+02
 20
-3.18345150E+02
 11
-1.50499906E+02
 21
-3.17190452E+02
  0
LINE
  8
0
 62
7
 10
-2.55036152E+02
 20
-3.13500136E+02
 11
-2.51572036E+02
 21
-3.19500168E+02
  0
LINE
  8
0
  6
CENTER
 62
2
 10
-2.04499954E+02
 20
-2.87447723E+02
 11
-2.04499954E+02
 21
-2.72694519E+02
  0
LINE
  8
0
  6
CENTER
 62
2
 10
-2.04499954E+02
 20
-1.55482788E+02
 11
-2.04499954E+02
 21
-1.24571869E+02
  0
LINE
  8
0
 62
7
 10
-8.04999847E+01
 20
-1.02000000E+02
 11
-8.04999847E+01
 21
-1.77000000E+02
  0
LINE
  8
0
 62
7
 10
-3.02500015E+02
 20
-1.02000000E+02
 11
-2.72500015E+02
 21
-1.02000000E+02
  0
LINE
  8
0
  6
CENTER
 62
2
 10
-3.65400284E+02
 20
-1.39500000E+02
 11
-4.59999945E+01
 21
-1.39500000E+02
  0
LINE
  8
0
 62
7
 10
-5.15999833E+02
 20
-3.16200211E+02
 11
-5.15299848E+02
 21
-3.15500225E+02
  0
LINE
  8
0
 62
2
 10
-5.12999954E+02
 20
-3.16200012E+02
 11
-5.15999954E+02
 21
-3.16200012E+02
  0
LINE
  8
0
 62
7
 10
-5.15299942E+02
 20
-3.19500000E+02
 11
-5.15299942E+02
 21
-3.15500000E+02
  0
LINE
  8
0
 62
7
 10
-4.18999786E+02
 20
-3.16200006E+02
 11
-4.19699815E+02
 21
-3.15499977E+02
  0
LINE
  8
0
  6
CENTER
 62
2
 10
-2.58499893E+02
 20
-1.09968323E+02
 11
-2.58499893E+02
 21
-8.94123840E+01
  0
LINE
  8
0
 62
7
 10
-5.06499893E+02
 20
-3.19500000E+02
 11
-5.06499893E+02
 21
-3.11500000E+02
  0
LINE
  8
0
 62
7
 10
-4.19699966E+02
 20
-3.19500000E+02
 11
-4.19699966E+02
 21
-3.15500000E+02
  0
LINE
  8
0
 62
2
 10
-4.21999893E+02
 20
-3.16200012E+02
 11
-4.19000015E+02
 21
-3.16200012E+02
  0
LINE
  8
0
 62
7
 10
-4.21999893E+02
 20
-3.15500000E+02
 11
-4.19700027E+02
 21
-3.15500000E+02
  0
LINE
  8
0
 62
7
 10
-2.82500015E+02
 20
-1.26767944E+02
 11
-2.82500015E+02
 21
-1.30232056E+02
  0
LINE
  8
0
 62
7
 10
-2.82500626E+02
 20
-1.30230878E+02
 11
-2.85500639E+02
 21
-1.31962926E+02
  0
LINE
  8
0
 62
7
 10
-2.85499919E+02
 20
-1.31963916E+02
 11
-2.88499932E+02
 21
-1.30231869E+02
  0
LINE
  8
0
 62
7
 10
-2.88500015E+02
 20
-1.30232056E+02
 11
-2.88500015E+02
 21
-1.26767944E+02
  0
LINE
  8
0
 62
7
 10
-2.85500653E+02
 20
-1.25034952E+02
 11
-2.88500640E+02
 21
-1.26766985E+02
  0
LINE
  8
0
 62
7
 10
-2.82499846E+02
 20
-1.26767727E+02
 11
-2.85499859E+02
 21
-1.25035679E+02
  0
LINE
  8
0
 62
7
 10
-5.12999954E+02
 20
-3.15500000E+02
 11
-5.15300003E+02
 21
-3.15500000E+02
  0
LINE
  8
0
  6
CENTER
 62
2
 10
-2.58500015E+02
 20
-3.08827118E+02
 11
-2.58500015E+02
 21
-3.19500000E+02
  0
LINE
  8
0
 62
7
 10
-2.56500015E+02
 20
-3.18344971E+02
 11
-2.56500015E+02
 21
-3.19500000E+02
  0
LINE
  8
0
 62
7
 10
-2.60500015E+02
 20
-3.19500000E+02
 11
-2.60500015E+02
 21
-3.18345459E+02
  0
LINE
  8
0
 62
7
 10
-4.18999893E+02
 20
-3.19500000E+02
 11
-4.18999893E+02
 21
-3.16200012E+02
  0
LINE
  8
0
  6
CENTER
 62
2
 10
-2.58499893E+02
 20
-1.69248871E+02
 11
-2.58499893E+02
 21
-1.90087708E+02
  0
LINE
  8
0
  6
CENTER
 62
2
 10
-2.85500015E+02
 20
-1.19221039E+02
 11
-2.85500015E+02
 21
-1.37786835E+02
  0
LINE
  8
0
  6
CENTER
 62
2
 10
-2.94559891E+02
 20
-1.28499969E+02
 11
-2.76215103E+02
 21
-1.28499969E+02
  0
LINE
  8
0
 62
7
 10
-1.36499985E+02
 20
-1.02000000E+02
 11
-8.04999847E+01
 21
-1.02000000E+02
  0
LINE
  8
0
 62
7
 10
-5.16000015E+02
 20
-3.19500000E+02
 11
-5.16000015E+02
 21
-3.16200012E+02
  0
LINE
  8
0
 62
7
 10
-5.12999954E+02
 20
-3.19500000E+02
 11
-5.12999954E+02
 21
-3.13500000E+02
  0
LINE
  8
0
 62
7
 10
-4.30000015E+02
 20
-3.11500000E+02
 11
-4.28499954E+02
 21
-3.11500000E+02
  0
LINE
  8
0
 62
7
 10
-4.21999893E+02
 20
-3.19500000E+02
 11
-4.21999893E+02
 21
-3.13500000E+02
  0
LINE
  8
0
 62
7
 10
-4.28499893E+02
 20
-3.19500000E+02
 11
-4.28499893E+02
 21
-3.11500000E+02
  0
LINE
  8
0
 62
7
 10
-4.28499954E+02
 20
-3.19500000E+02
 11
-4.22692764E+02
 21
-3.19500000E+02
  0
LINE
  8
0
 62
7
 10
-5.06500015E+02
 20
-3.13500000E+02
 11
-5.12999954E+02
 21
-3.13500000E+02
  0
LINE
  8
0
  6
CENTER
 62
2
 10
-5.18369522E+02
 20
-3.19500000E+02
 11
-4.16100540E+02
 21
-3.19500000E+02
  0
LINE
  8
0
 62
7
 10
-5.05000015E+02
 20
-3.11500000E+02
 11
-5.06500015E+02
 21
-3.11500000E+02
  0
LINE
  8
0
 62
7
 10
-5.06500015E+02
 20
-3.19500000E+02
 11
-5.12307205E+02
 21
-3.19500000E+02
  0
LINE
  8
0
 62
7
 10
-4.28499954E+02
 20
-3.13500000E+02
 11
-4.21999893E+02
 21
-3.13500000E+02
  0
LINE
  8
0
 62
7
 10
-2.61974869E+02
 20
-1.00500061E+02
 11
-2.61974869E+02
 21
-9.46928711E+01
  0
LINE
  8
0
 62
7
 10
-2.55199899E+02
 20
-9.09999746E+01
 11
-2.54499870E+02
 21
-9.17000033E+01
  0
LINE
  8
0
 62
7
 10
-2.62499717E+02
 20
-9.17002732E+01
 11
-2.61799704E+02
 21
-9.10002606E+01
  0
LINE
  8
0
 62
7
 10
-2.62499893E+02
 20
-9.17000427E+01
 11
-2.54499893E+02
 21
-9.17000427E+01
  0
LINE
  8
0
 62
2
 10
-2.55199905E+02
 20
-9.40000610E+01
 11
-2.55199905E+02
 21
-9.10000610E+01
  0
LINE
  8
0
 62
2
 10
-2.61799942E+02
 20
-9.40000610E+01
 11
-2.61799942E+02
 21
-9.10000610E+01
  0
LINE
  8
0
 62
7
 10
-2.54499893E+02
 20
-9.40000610E+01
 11
-2.54499893E+02
 21
-9.17000427E+01
  0
LINE
  8
0
 62
7
 10
-2.62499893E+02
 20
-9.40000610E+01
 11
-2.62499893E+02
 21
-9.17000427E+01
  0
LINE
  8
0
 62
7
 10
-2.55024918E+02
 20
-1.00500061E+02
 11
-2.55024918E+02
 21
-9.46928711E+01
  0
LINE
  8
0
 62
7
 10
-2.65449680E+02
 20
-9.46932382E+01
 11
-2.64249671E+02
 21
-9.40004128E+01
  0
LINE
  8
0
 62
7
 10
-2.52749848E+02
 20
-9.40001342E+01
 11
-2.51549813E+02
 21
-9.46929748E+01
  0
LINE
  8
0
 62
7
 10
-2.65449905E+02
 20
-1.00500061E+02
 11
-2.65449905E+02
 21
-9.46928711E+01
  0
LINE
  8
0
 62
7
 10
-2.51549942E+02
 20
-1.00500061E+02
 11
-2.51549942E+02
 21
-9.46928711E+01
  0
LINE
  8
0
 62
7
 10
-2.64249893E+02
 20
-9.40000305E+01
 11
-2.52749893E+02
 21
-9.40000305E+01
  0
LINE
  8
0
 62
7
 10
-2.61799942E+02
 20
-9.10000305E+01
 11
-2.55199966E+02
 21
-9.10000305E+01
  0
LINE
  8
0
 62
7
 10
-2.66499893E+02
 20
-1.05500061E+02
 11
-2.66499893E+02
 21
-1.00500061E+02
  0
LINE
  8
0
  6
CENTER
 62
2
 10
-4.67500015E+02
 20
-2.72720306E+02
 11
-4.67500015E+02
 21
-3.19500000E+02
  0
LINE
  8
0
 62
7
 10
-2.50499893E+02
 20
-1.05500061E+02
 11
-2.50499893E+02
 21
-1.00500061E+02
  0
LINE
  8
0
 62
7
 10
-2.66499893E+02
 20
-1.00500031E+02
 11
-2.50499893E+02
 21
-1.00500031E+02
  0
LINE
  8
0
 62
7
 10
-2.55199667E+02
 20
-1.88000256E+02
 11
-2.54499666E+02
 21
-1.87300254E+02
  0
LINE
  8
0
 62
7
 10
-2.62499965E+02
 20
-1.87299942E+02
 11
-2.61799937E+02
 21
-1.87999970E+02
  0
LINE
  8
0
 62
7
 10
-2.62499893E+02
 20
-1.87300018E+02
 11
-2.54499893E+02
 21
-1.87300018E+02
  0
LINE
  8
0
 62
2
 10
-2.55199905E+02
 20
-1.85000031E+02
 11
-2.55199905E+02
 21
-1.88000031E+02
  0
LINE
  8
0
 62
2
 10
-2.61799942E+02
 20
-1.85000031E+02
 11
-2.61799942E+02
 21
-1.88000031E+02
  0
LINE
  8
0
 62
7
 10
-2.54499893E+02
 20
-1.85000031E+02
 11
-2.54499893E+02
 21
-1.87300018E+02
  0
LINE
  8
0
 62
7
 10
-2.62499893E+02
 20
-1.85000031E+02
 11
-2.62499893E+02
 21
-1.87300018E+02
  0
LINE
  8
0
 62
7
 10
-2.55024918E+02
 20
-1.78500031E+02
 11
-2.55024918E+02
 21
-1.84307220E+02
  0
LINE
  8
0
 62
7
 10
-2.61974869E+02
 20
-1.78500031E+02
 11
-2.61974869E+02
 21
-1.84307220E+02
  0
LINE
  8
0
 62
7
 10
-2.65449921E+02
 20
-1.84307240E+02
 11
-2.64249939E+02
 21
-1.85000050E+02
  0
LINE
  8
0
 62
7
 10
-2.52749726E+02
 20
-1.85000276E+02
 11
-2.51549744E+02
 21
-1.84307466E+02
  0
LINE
  8
0
 62
7
 10
-2.65449905E+02
 20
-1.78500031E+02
 11
-2.65449905E+02
 21
-1.84307220E+02
  0
LINE
  8
0
 62
7
 10
-2.51549942E+02
 20
-1.78500031E+02
 11
-2.51549942E+02
 21
-1.84307220E+02
  0
LINE
  8
0
 62
7
 10
-2.64249893E+02
 20
-1.85000031E+02
 11
-2.52749893E+02
 21
-1.85000031E+02
  0
LINE
  8
0
 62
7
 10
-2.61799942E+02
 20
-1.88000031E+02
 11
-2.55199966E+02
 21
-1.88000031E+02
  0
LINE
  8
0
 62
7
 10
-2.66499893E+02
 20
-1.73500031E+02
 11
-2.66499893E+02
 21
-1.78500031E+02
  0
LINE
  8
0
 62
7
 10
-2.50499893E+02
 20
-1.73500031E+02
 11
-2.50499893E+02
 21
-1.78500031E+02
  0
LINE
  8
0
 62
7
 10
-2.66499893E+02
 20
-1.78500031E+02
 11
-2.50499893E+02
 21
-1.78500031E+02
  0
LINE
  8
0
  6
CENTER
 62
2
 10
-3.62256119E+02
 20
-3.19500000E+02
 11
3.20045147E-01
 21
-3.19500000E+02
  0
LINE
  8
0
 62
7
 10
-1.53974991E+02
 20
-1.00500061E+02
 11
-1.53974991E+02
 21
-9.46928711E+01
  0
LINE
  8
0
  6
CENTER
 62
2
 10
9.45001068E+01
 20
-2.86314941E+02
 11
9.45001068E+01
 21
-2.98200211E+02
  0
LINE
  8
0
 62
7
 10
1.10999981E+02
 20
-2.92535940E+02
 11
1.07999985E+02
 21
-2.94267988E+02
  0
LINE
  8
0
 62
7
 10
1.07999985E+02
 20
-2.94267975E+02
 11
1.07999985E+02
 21
-2.97732086E+02
  0
LINE
  8
0
 62
7
 10
1.10999989E+02
 20
-2.99464130E+02
 11
1.07999993E+02
 21
-2.97732082E+02
  0
LINE
  8
0
 62
7
 10
1.13999981E+02
 20
-2.97732092E+02
 11
1.10999985E+02
 21
-2.99464140E+02
  0
LINE
  8
0
 62
7
 10
6.39999861E+01
 20
-2.92535924E+02
 11
6.69999879E+01
 21
-2.94267976E+02
  0
LINE
  8
0
 62
7
 10
6.69999847E+01
 20
-2.94267975E+02
 11
6.69999847E+01
 21
-2.97732086E+02
  0
LINE
  8
0
 62
7
 10
6.39999881E+01
 20
-2.92535936E+02
 11
6.09999930E+01
 21
-2.94267984E+02
  0
LINE
  8
0
 62
7
 10
6.39999879E+01
 20
-2.99464129E+02
 11
6.09999861E+01
 21
-2.97732077E+02
  0
LINE
  8
0
 62
7
 10
6.69999881E+01
 20
-2.97732089E+02
 11
6.39999930E+01
 21
-2.99464137E+02
  0
LINE
  8
0
 62
7
 10
6.09999847E+01
 20
-2.94267975E+02
 11
6.09999847E+01
 21
-2.97732086E+02
  0
LINE
  8
0
  6
CENTER
 62
2
 10
1.01612900E+02
 20
-2.96000031E+02
 11
1.20732590E+02
 21
-2.96000031E+02
  0
LINE
  8
0
  6
CENTER
 62
2
 10
3.69855463E+01
 20
-3.19500000E+02
 11
1.40350680E+02
 21
-3.19500000E+02
  0
LINE
  8
0
 62
7
 10
6.29999847E+01
 20
-3.03751648E+02
 11
6.29999847E+01
 21
-3.05000015E+02
  0
LINE
  8
0
 62
7
 10
7.17512665E+01
 20
-2.95000031E+02
 11
7.29999847E+01
 21
-2.95000031E+02
  0
LINE
  8
0
 62
7
 10
1.03248398E+02
 20
-2.94999954E+02
 11
1.01999985E+02
 21
-2.94999954E+02
  0
LINE
  8
0
 62
7
 10
1.11999985E+02
 20
-3.03751404E+02
 11
1.11999985E+02
 21
-3.05000015E+02
  0
LINE
  8
0
 62
7
 10
5.65000458E+01
 20
-3.19500000E+02
 11
5.65000458E+01
 21
-2.92000000E+02
  0
LINE
  8
0
 62
7
 10
1.09499985E+02
 20
-2.88500000E+02
 11
1.09499985E+02
 21
-2.89000000E+02
  0
LINE
  8
0
 62
7
 10
6.54999847E+01
 20
-2.88500000E+02
 11
6.54999847E+01
 21
-2.89000031E+02
  0
LINE
  8
0
 62
7
 10
5.95000458E+01
 20
-3.19500000E+02
 11
5.95000458E+01
 21
-3.08968643E+02
  0
LINE
  8
0
 62
7
 10
1.13999985E+02
 20
-2.94267975E+02
 11
1.13999985E+02
 21
-2.97732086E+02
  0
LINE
  8
0
 62
7
 10
-3.27499984E+02
 20
-3.16377564E+02
 11
-3.24499980E+02
 21
-3.14232149E+02
  0
LINE
  8
0
 62
7
 10
1.10999993E+02
 20
-2.92535929E+02
 11
1.13999989E+02
 21
-2.94267977E+02
  0
LINE
  8
0
 62
7
 10
-3.27500012E+02
 20
-3.10500000E+02
 11
-3.24500024E+02
 21
-3.09500014E+02
  0
LINE
  8
0
 62
7
 10
6.00000458E+01
 20
-2.89000031E+02
 11
1.14999985E+02
 21
-2.89000000E+02
  0
LINE
  8
0
 62
7
 10
8.64999847E+01
 20
-2.92500031E+02
 11
8.64999847E+01
 21
-2.99600281E+02
  0
LINE
  8
0
  6
CENTER
 62
2
 10
-6.25001678E+01
 20
-2.86314941E+02
 11
-6.25001678E+01
 21
-2.98200211E+02
  0
LINE
  8
0
 62
7
 10
-3.30499985E+02
 20
-3.11320007E+02
 11
-3.27499985E+02
 21
-3.11320007E+02
  0
LINE
  8
0
 62
7
 10
-3.59499935E+02
 20
-3.12000145E+02
 11
-3.57999878E+02
 21
-3.10500134E+02
  0
LINE
  8
0
 62
2
 10
-3.58819931E+02
 20
-3.11320007E+02
 11
-3.50499985E+02
 21
-3.11320007E+02
  0
LINE
  8
0
 62
7
 10
-3.57999924E+02
 20
-3.10500000E+02
 11
-3.50499985E+02
 21
-3.10500000E+02
  0
LINE
  8
0
 62
7
 10
-3.30499985E+02
 20
-1.31320007E+02
 11
-3.27499985E+02
 21
-1.31320007E+02
  0
LINE
  8
0
 62
7
 10
-3.20500101E+02
 20
-1.30999930E+02
 11
-3.19000067E+02
 21
-1.29499896E+02
  0
LINE
  8
0
 62
7
 10
-3.20500060E+02
 20
-1.47999981E+02
 11
-3.19000091E+02
 21
-1.49499950E+02
  0
LINE
  8
0
 62
7
 10
-3.27499985E+02
 20
-1.31000000E+02
 11
-3.20500046E+02
 21
-1.31000000E+02
  0
LINE
  8
0
 62
7
 10
-3.27499985E+02
 20
-1.48000000E+02
 11
-3.20500046E+02
 21
-1.48000000E+02
  0
LINE
  8
0
 62
7
 10
-3.20500046E+02
 20
-3.14232147E+02
 11
-3.20500046E+02
 21
-3.19500000E+02
  0
LINE
  8
0
 62
7
 10
-3.24500015E+02
 20
-3.09499969E+02
 11
-3.24500015E+02
 21
-3.14232147E+02
  0
LINE
  8
0
 62
7
 10
-3.57999985E+02
 20
-3.19500000E+02
 11
-3.57999985E+02
 21
-3.10500000E+02
  0
LINE
  8
0
 62
7
 10
-3.59499985E+02
 20
-3.19500000E+02
 11
-3.59499985E+02
 21
-3.12000153E+02
  0
LINE
  8
0
 62
7
 10
-3.30499985E+02
 20
-3.19500000E+02
 11
-3.30499985E+02
 21
-3.10500000E+02
  0
LINE
  8
0
 62
7
 10
-3.27499985E+02
 20
-1.39500031E+02
 11
-3.27499985E+02
 21
-1.48000000E+02
  0
LINE
  8
0
 62
7
 10
-3.27499985E+02
 20
-1.39500031E+02
 11
-3.27499985E+02
 21
-1.31000000E+02
  0
LINE
  8
0
 62
7
 10
-3.30499985E+02
 20
-1.47679993E+02
 11
-3.27499985E+02
 21
-1.47679993E+02
  0
LINE
  8
0
 62
7
 10
-3.59500004E+02
 20
-1.46999940E+02
 11
-3.57999969E+02
 21
-1.48499929E+02
  0
LINE
  8
0
 62
2
 10
-3.58819931E+02
 20
-1.47679993E+02
 11
-3.50499985E+02
 21
-1.47679993E+02
  0
LINE
  8
0
 62
7
 10
-3.57999924E+02
 20
-1.48500000E+02
 11
-3.50499985E+02
 21
-1.48500000E+02
  0
LINE
  8
0
 62
7
 10
-3.59499958E+02
 20
-1.32000146E+02
 11
-3.57999901E+02
 21
-1.30500135E+02
  0
LINE
  8
0
 62
2
 10
-3.58819931E+02
 20
-1.31320007E+02
 11
-3.50499985E+02
 21
-1.31320007E+02
  0
LINE
  8
0
 62
7
 10
-3.57999924E+02
 20
-1.30500000E+02
 11
-3.50499985E+02
 21
-1.30500000E+02
  0
LINE
  8
0
 62
7
 10
-3.57999985E+02
 20
-1.48500000E+02
 11
-3.57999985E+02
 21
-1.30500000E+02
  0
LINE
  8
0
 62
7
 10
-3.59499985E+02
 20
-1.46999969E+02
 11
-3.59499985E+02
 21
-1.32000153E+02
  0
LINE
  8
0
 62
7
 10
-3.30499985E+02
 20
-1.48500000E+02
 11
-3.30499985E+02
 21
-1.30500000E+02
  0
LINE
  8
0
 62
7
 10
-3.18999985E+02
 20
-1.29499969E+02
 11
-3.17500015E+02
 21
-1.29499969E+02
  0
LINE
  8
0
 62
7
 10
-3.19000046E+02
 20
-1.49499969E+02
 11
-3.17500076E+02
 21
-1.49499969E+02
  0
LINE
  8
0
 62
2
 10
-3.26533662E+02
 20
-3.15686518E+02
 11
-3.23999962E+02
 21
-3.19500000E+02
  0
LINE
  8
0
 62
7
 10
-3.24500015E+02
 20
-1.31000000E+02
 11
-3.24500015E+02
 21
-1.48000000E+02
  0
LINE
  8
0
 62
7
 10
-3.24500107E+02
 20
-3.14232147E+02
 11
-3.20500046E+02
 21
-3.14232147E+02
  0
LINE
  8
0
 62
7
 10
-3.27499985E+02
 20
-3.10500000E+02
 11
-3.27499985E+02
 21
-3.19500000E+02
  0
LINE
  8
0
 62
2
 10
-3.24000002E+02
 20
-3.19500000E+02
 11
-3.20500014E+02
 21
-3.14232154E+02
  0
LINE
  8
0
 62
7
 10
-3.12258748E+02
 20
-3.02241505E+02
 11
-3.04500050E+02
 21
-3.01970566E+02
  0
LINE
  8
0
 62
7
 10
-3.12500015E+02
 20
-3.02500000E+02
 11
-3.12500015E+02
 21
-3.02491455E+02
  0
LINE
  8
0
 62
7
 10
-3.17000015E+02
 20
-3.02500000E+02
 11
-3.12491470E+02
 21
-3.02500000E+02
  0
LINE
  8
0
 62
7
 10
-3.04000015E+02
 20
-3.00500000E+02
 11
-3.02500015E+02
 21
-3.00500000E+02
  0
LINE
  8
0
  6
CENTER
 62
2
 10
1.38877677E+01
 20
-2.96000015E+02
 11
-8.26034393E+01
 21
-2.96000015E+02
  0
LINE
  8
0
  6
CENTER
 62
2
 10
-1.32476773E+01
 20
-1.62999985E+02
 11
-8.26034393E+01
 21
-1.62999985E+02
  0
LINE
  8
0
 62
7
 10
-3.24500107E+02
 20
-3.09500015E+02
 11
-3.17500076E+02
 21
-3.09500015E+02
  0
LINE
  8
0
 62
7
 10
-5.47679263E+01
 20
-1.51500031E+02
 11
-5.56339502E+01
 21
-1.50000025E+02
  0
LINE
  8
0
 62
7
 10
-5.56339874E+01
 20
-1.50000031E+02
 11
-5.73659821E+01
 21
-1.50000031E+02
  0
LINE
  8
0
 62
7
 10
-5.82319657E+01
 20
-1.51500065E+02
 11
-5.73659571E+01
 21
-1.50000085E+02
  0
LINE
  8
0
 62
7
 10
-5.73659606E+01
 20
-1.53000104E+02
 11
-5.82319998E+01
 21
-1.51500071E+02
  0
LINE
  8
0
 62
7
 10
-5.56339874E+01
 20
-1.53000061E+02
 11
-5.73659821E+01
 21
-1.53000061E+02
  0
LINE
  8
0
 62
7
 10
-5.47679451E+01
 20
-1.51500074E+02
 11
-5.56339690E+01
 21
-1.53000081E+02
  0
LINE
  8
0
 62
7
 10
1.54177512E+01
 20
-1.13350006E+02
 11
-2.64999945E+01
 21
-1.13350006E+02
  0
LINE
  8
0
 62
7
 10
1.23578018E+01
 20
-1.18649994E+02
 11
-2.64999945E+01
 21
-1.18649994E+02
  0
LINE
  8
0
  6
CENTER
 62
2
 10
1.38877589E+01
 20
-1.16000031E+02
 11
-2.64999945E+01
 21
-1.16000031E+02
  0
LINE
  8
0
 62
7
 10
1.59084848E+01
 20
-1.12500031E+02
 11
-2.64999945E+01
 21
-1.12500031E+02
  0
LINE
  8
0
 62
7
 10
-3.12500015E+02
 20
-3.02500000E+02
 11
-3.12500015E+02
 21
-3.19500000E+02
  0
LINE
  8
0
 62
7
 10
-6.93083954E+01
 20
-1.29500092E+02
 11
-6.09999945E+01
 21
-1.29500092E+02
  0
LINE
  8
0
 62
7
 10
-4.95000000E+01
 20
-2.88500000E+02
 11
-4.95000000E+01
 21
-3.19500000E+02
  0
LINE
  8
0
 62
7
 10
-3.04500015E+02
 20
-3.01000000E+02
 11
-3.04500015E+02
 21
-3.19500000E+02
  0
LINE
  8
0
 62
7
 10
-3.17500015E+02
 20
-3.03000031E+02
 11
-3.17500015E+02
 21
-3.19500000E+02
  0
LINE
  8
0
 62
7
 10
-7.35000000E+01
 20
-1.61500031E+02
 11
-4.95000000E+01
 21
-1.61500031E+02
  0
LINE
  8
0
 62
7
 10
-7.35000000E+01
 20
-1.17500031E+02
 11
-4.95000000E+01
 21
-1.17500031E+02
  0
LINE
  8
0
 62
7
 10
-8.05000063E+01
 20
-1.69714460E+02
 11
-4.94999973E+01
 21
-1.70526224E+02
  0
LINE
  8
0
 62
7
 10
-4.95000000E+01
 20
-1.08473724E+02
 11
-4.95000000E+01
 21
-1.20685734E+02
  0
LINE
  8
0
  6
CENTER
 62
2
 10
-7.19101715E+01
 20
-1.32500092E+02
 11
-5.25515442E+01
 21
-1.32500092E+02
  0
LINE
  8
0
  6
CENTER
 62
2
 10
-6.25000458E+01
 20
-1.43742126E+02
 11
-6.25000458E+01
 21
-1.20155731E+02
  0
LINE
  8
0
 62
7
 10
-7.55000000E+01
 20
-1.59500031E+02
 11
-7.55000000E+01
 21
-1.19500031E+02
  0
LINE
  8
0
 62
7
 10
-8.05000120E+01
 20
-1.09285408E+02
 11
-4.94999648E+01
 21
-1.08473643E+02
  0
LINE
  8
0
  6
CENTER
 62
2
 10
-6.53452759E+01
 20
-1.51500031E+02
 11
-4.78707581E+01
 21
-1.51500031E+02
  0
LINE
  8
0
  6
CENTER
 62
2
 10
-5.65000153E+01
 20
-1.58971161E+02
 11
-5.65000153E+01
 21
-1.42382172E+02
  0
LINE
  8
0
 62
7
 10
-8.05000265E+01
 20
-2.89285493E+02
 11
-4.94999869E+01
 21
-2.88473729E+02
  0
LINE
  8
0
 62
7
 10
-7.55000000E+01
 20
-2.88500000E+02
 11
-4.95000000E+01
 21
-2.88500000E+02
  0
LINE
  8
0
 62
7
 10
-7.55000000E+01
 20
-2.89154602E+02
 11
-7.55000000E+01
 21
-2.88500000E+02
  0
LINE
  8
0
 62
7
 10
-3.12500015E+02
 20
-1.22499969E+02
 11
-3.12500015E+02
 21
-1.56499969E+02
  0
LINE
  8
0
 62
7
 10
-3.12258746E+02
 20
-1.22241423E+02
 11
-3.04500047E+02
 21
-1.21970483E+02
  0
LINE
  8
0
 62
7
 10
-3.04000015E+02
 20
-1.58500000E+02
 11
-3.02500015E+02
 21
-1.58500000E+02
  0
LINE
  8
0
 62
7
 10
-3.04500015E+02
 20
-1.21000000E+02
 11
-3.04500015E+02
 21
-1.57999969E+02
  0
LINE
  8
0
 62
7
 10
-3.12258763E+02
 20
-1.56758416E+02
 11
-3.04500065E+02
 21
-1.57029355E+02
  0
LINE
  8
0
 62
7
 10
-3.12500015E+02
 20
-1.56500000E+02
 11
-3.12500015E+02
 21
-1.56508545E+02
  0
LINE
  8
0
 62
7
 10
-3.04000015E+02
 20
-1.20500000E+02
 11
-3.02500015E+02
 21
-1.20500000E+02
  0
LINE
  8
0
 62
7
 10
-3.17000015E+02
 20
-1.56500000E+02
 11
-3.12491470E+02
 21
-1.56500000E+02
  0
LINE
  8
0
 62
7
 10
-3.12500015E+02
 20
-1.22500000E+02
 11
-3.12500015E+02
 21
-1.22491455E+02
  0
LINE
  8
0
 62
7
 10
-3.17000015E+02
 20
-1.22500000E+02
 11
-3.12491470E+02
 21
-1.22500000E+02
  0
LINE
  8
0
 62
7
 10
-3.17500015E+02
 20
-1.23000031E+02
 11
-3.17500015E+02
 21
-1.55999969E+02
  0
LINE
  8
0
 62
7
 10
8.84999847E+01
 20
-2.92500031E+02
 11
8.84999847E+01
 21
-2.99600281E+02
  0
LINE
  8
0
  6
CENTER
 62
2
 10
6.39999847E+01
 20
-2.86021759E+02
 11
6.39999847E+01
 21
-3.05724380E+02
  0
LINE
  8
0
  6
CENTER
 62
2
 10
5.40468597E+01
 20
-2.96000031E+02
 11
7.37494354E+01
 21
-2.96000031E+02
  0
LINE
  8
0
 62
7
 10
6.05000458E+01
 20
-3.18500015E+02
 11
6.76002655E+01
 21
-3.18500015E+02
  0
LINE
  8
0
 62
7
 10
7.27217771E+01
 20
-3.06135716E+02
 11
6.87702597E+01
 21
-3.02184200E+02
  0
LINE
  8
0
 62
7
 10
7.41360120E+01
 20
-3.04721481E+02
 11
7.01844945E+01
 21
-3.00769965E+02
  0
LINE
  8
0
 62
7
 10
1.00864212E+02
 20
-3.04721739E+02
 11
1.04815793E+02
 21
-3.00770158E+02
  0
LINE
  8
0
 62
7
 10
1.02278425E+02
 20
-3.06135952E+02
 11
1.06229963E+02
 21
-3.02184415E+02
  0
LINE
  8
0
 62
7
 10
1.14499985E+02
 20
-3.18499969E+02
 11
1.07399765E+02
 21
-3.18499969E+02
  0
LINE
  8
0
 62
7
 10
7.69686127E+01
 20
-2.91500015E+02
 11
9.80313568E+01
 21
-2.91500015E+02
  0
LINE
  8
0
 62
7
 10
1.15499985E+02
 20
-3.19500000E+02
 11
1.15499985E+02
 21
-3.08968643E+02
  0
LINE
  8
0
 62
7
 10
1.17999985E+02
 20
-3.19500000E+02
 11
1.17999985E+02
 21
-2.92000031E+02
  0
LINE
  8
0
 62
7
 10
6.00000458E+01
 20
-2.88500000E+02
 11
1.14999985E+02
 21
-2.88500000E+02
  0
LINE
  8
0
 62
7
 10
1.18499985E+02
 20
-3.19500000E+02
 11
1.18499985E+02
 21
-2.92000031E+02
  0
LINE
  8
0
  6
CENTER
 62
2
 10
1.10999985E+02
 20
-2.86446320E+02
 11
1.10999985E+02
 21
-3.03884369E+02
  0
LINE
  8
0
 62
7
 10
5.70000458E+01
 20
-3.19500000E+02
 11
5.70000458E+01
 21
-2.92000031E+02
  0
LINE
  8
0
  6
CENTER
 62
2
 10
8.74999847E+01
 20
-2.69883942E+02
 11
8.74999847E+01
 21
-3.19500000E+02
  0
LINE
  8
0
 62
7
 10
7.74338804E+01
 20
-2.82000000E+02
 11
7.74338804E+01
 21
-2.76500031E+02
  0
LINE
  8
0
  6
CENTER
 62
2
 10
-4.14999945E+01
 20
-1.16000031E+02
 11
-8.26034393E+01
 21
-1.16000031E+02
  0
LINE
  8
0
 62
2
 10
-1.88182862E+01
 20
-1.72648562E+02
 11
1.81900065E+01
 21
-1.08548319E+02
  0
LINE
  8
0
 62
7
 10
-4.95000000E+01
 20
-1.34685734E+02
 11
-4.95000000E+01
 21
-1.70500000E+02
  0
LINE
  8
0
  6
CENTER
 62
2
 10
-6.99999451E+00
 20
-1.39500000E+02
 11
3.20045166E-01
 21
-1.39500000E+02
  0
LINE
  8
0
 62
2
 10
-2.80560532E+00
 20
-3.24913785E+02
 11
1.81900065E+01
 21
-2.88548319E+02
  0
LINE
  8
0
 62
7
 10
1.85540793E+02
 20
-2.98650009E+02
 11
2.31499969E+02
 21
-2.98650009E+02
  0
LINE
  8
0
 62
7
 10
1.88600742E+02
 20
-2.93350021E+02
 11
2.31499969E+02
 21
-2.93350021E+02
  0
LINE
  8
0
 62
7
 10
1.89091485E+02
 20
-2.92500031E+02
 11
2.14999969E+02
 21
-2.92500031E+02
  0
LINE
  8
0
  6
CENTER
 62
2
 10
5.67256088E+02
 20
-3.19500000E+02
 11
1.73503045E+02
 21
-3.19500000E+02
  0
LINE
  8
0
  6
CENTER
 62
2
 10
1.87070768E+02
 20
-2.96000015E+02
 11
2.31499969E+02
 21
-2.96000015E+02
  0
LINE
  8
0
 62
7
 10
2.80499969E+02
 20
-2.89154602E+02
 11
2.80499969E+02
 21
-2.88500000E+02
  0
LINE
  8
0
 62
7
 10
2.80499969E+02
 20
-2.88500000E+02
 11
2.54499969E+02
 21
-2.88500000E+02
  0
LINE
  8
0
 62
7
 10
2.85499996E+02
 20
-2.89285493E+02
 11
2.54499956E+02
 21
-2.88473729E+02
  0
LINE
  8
0
 62
7
 10
5.22499985E+02
 20
-3.03000031E+02
 11
5.22499985E+02
 21
-3.19500000E+02
  0
LINE
  8
0
 62
7
 10
5.09499985E+02
 20
-3.01000000E+02
 11
5.09499985E+02
 21
-3.19500000E+02
  0
LINE
  8
0
 62
7
 10
2.54499969E+02
 20
-2.88500000E+02
 11
2.54499969E+02
 21
-3.19500000E+02
  0
LINE
  8
0
 62
7
 10
5.17499985E+02
 20
-3.02500000E+02
 11
5.17499985E+02
 21
-3.19500000E+02
  0
LINE
  8
0
 62
7
 10
5.29500076E+02
 20
-3.09500015E+02
 11
5.22500046E+02
 21
-3.09500015E+02
  0
LINE
  8
0
 62
7
 10
5.08999985E+02
 20
-3.00500000E+02
 11
5.07499985E+02
 21
-3.00500000E+02
  0
LINE
  8
0
 62
7
 10
5.21999985E+02
 20
-3.02500000E+02
 11
5.17491440E+02
 21
-3.02500000E+02
  0
LINE
  8
0
 62
7
 10
5.17499985E+02
 20
-3.02500000E+02
 11
5.17499985E+02
 21
-3.02491455E+02
  0
LINE
  8
0
 62
7
 10
5.17258718E+02
 20
-3.02241505E+02
 11
5.09500019E+02
 21
-3.01970566E+02
  0
LINE
  8
0
 62
2
 10
5.28999972E+02
 20
-3.19500000E+02
 11
5.25499984E+02
 21
-3.14232154E+02
  0
LINE
  8
0
 62
7
 10
5.32499954E+02
 20
-3.10500000E+02
 11
5.32499954E+02
 21
-3.19500000E+02
  0
LINE
  8
0
 62
7
 10
5.29500076E+02
 20
-3.14232147E+02
 11
5.25500015E+02
 21
-3.14232147E+02
  0
LINE
  8
0
 62
2
 10
5.31533631E+02
 20
-3.15686518E+02
 11
5.28999932E+02
 21
-3.19500000E+02
  0
LINE
  8
0
 62
7
 10
5.35499954E+02
 20
-3.19500000E+02
 11
5.35499954E+02
 21
-3.10500000E+02
  0
LINE
  8
0
 62
7
 10
5.64499954E+02
 20
-3.19500000E+02
 11
5.64499954E+02
 21
-3.12000153E+02
  0
LINE
  8
0
 62
7
 10
5.62999954E+02
 20
-3.19500000E+02
 11
5.62999954E+02
 21
-3.10500000E+02
  0
LINE
  8
0
 62
7
 10
5.29499985E+02
 20
-3.09499969E+02
 11
5.29499985E+02
 21
-3.14232147E+02
  0
LINE
  8
0
 62
7
 10
5.25500015E+02
 20
-3.14232147E+02
 11
5.25500015E+02
 21
-3.19500000E+02
  0
LINE
  8
0
 62
7
 10
5.62999893E+02
 20
-3.10500000E+02
 11
5.55499954E+02
 21
-3.10500000E+02
  0
LINE
  8
0
 62
2
 10
5.63819901E+02
 20
-3.11320007E+02
 11
5.55499954E+02
 21
-3.11320007E+02
  0
LINE
  8
0
 62
7
 10
5.64499904E+02
 20
-3.12000145E+02
 11
5.62999847E+02
 21
-3.10500134E+02
  0
LINE
  8
0
 62
7
 10
5.35499954E+02
 20
-3.11320007E+02
 11
5.32499954E+02
 21
-3.11320007E+02
  0
LINE
  8
0
  6
CENTER
 62
2
 10
2.67500137E+02
 20
-2.86314941E+02
 11
2.67500137E+02
 21
-2.98200211E+02
  0
LINE
  8
0
 62
7
 10
5.32499981E+02
 20
-3.10500000E+02
 11
5.29499993E+02
 21
-3.09500014E+02
  0
LINE
  8
0
 62
7
 10
5.32499954E+02
 20
-3.16377564E+02
 11
5.29499949E+02
 21
-3.14232149E+02
  0
LINE
  8
0
 62
7
 10
4.65499985E+02
 20
-3.19500000E+02
 11
4.65499985E+02
 21
-3.18345459E+02
  0
LINE
  8
0
 62
7
 10
4.61499985E+02
 20
-3.18344971E+02
 11
4.61499985E+02
 21
-3.19500000E+02
  0
LINE
  8
0
  6
CENTER
 62
2
 10
4.63499985E+02
 20
-3.08827118E+02
 11
4.63499985E+02
 21
-3.19500000E+02
  0
LINE
  8
0
  6
CENTER
 62
2
 10
4.09499924E+02
 20
-2.87447723E+02
 11
4.09499924E+02
 21
-2.72694519E+02
  0
LINE
  8
0
 62
7
 10
4.60036121E+02
 20
-3.13500136E+02
 11
4.56572006E+02
 21
-3.19500168E+02
  0
LINE
  8
0
 62
7
 10
3.57499870E+02
 20
-3.18345150E+02
 11
3.55499876E+02
 21
-3.17190452E+02
  0
LINE
  8
0
 62
7
 10
3.55499906E+02
 20
-3.17190661E+02
 11
3.53499918E+02
 21
-3.18345355E+02
  0
LINE
  8
0
 62
7
 10
3.58963943E+02
 20
-3.13500072E+02
 11
3.62428044E+02
 21
-3.19500080E+02
  0
LINE
  8
0
 62
7
 10
3.58964066E+02
 20
-3.13499969E+02
 11
3.52035812E+02
 21
-3.13499969E+02
  0
LINE
  8
0
 62
7
 10
3.52035751E+02
 20
-3.13500010E+02
 11
3.48571659E+02
 21
-3.19500003E+02
  0
LINE
  8
0
 62
7
 10
4.77499985E+02
 20
-2.95100037E+02
 11
3.41499954E+02
 21
-2.95100037E+02
  0
LINE
  8
0
  6
CENTER
 62
2
 10
5.12724167E+02
 20
-2.91500000E+02
 11
2.82092758E+02
 21
-2.91500000E+02
  0
LINE
  8
0
 62
7
 10
4.61499851E+02
 20
-3.18345061E+02
 11
4.63499785E+02
 21
-3.17190397E+02
  0
LINE
  8
0
 62
7
 10
4.77499985E+02
 20
-2.87900024E+02
 11
3.41499954E+02
 21
-2.87900024E+02
  0
LINE
  8
0
 62
7
 10
4.60035873E+02
 20
-3.13499969E+02
 11
4.66964096E+02
 21
-3.13499969E+02
  0
LINE
  8
0
 62
7
 10
4.66964334E+02
 20
-3.13499891E+02
 11
4.70428421E+02
 21
-3.19499874E+02
  0
LINE
  8
0
 62
7
 10
5.07499985E+02
 20
-2.81999969E+02
 11
5.07499985E+02
 21
-3.19500000E+02
  0
LINE
  8
0
 62
7
 10
5.07499985E+02
 20
-2.81999969E+02
 11
4.77499985E+02
 21
-2.81999969E+02
  0
LINE
  8
0
 62
7
 10
4.77499985E+02
 20
-2.81999969E+02
 11
4.77499985E+02
 21
-3.19500000E+02
  0
LINE
  8
0
 62
7
 10
4.77499985E+02
 20
-2.85500000E+02
 11
4.21499863E+02
 21
-2.85500000E+02
  0
LINE
  8
0
 62
7
 10
3.41499954E+02
 20
-2.81999969E+02
 11
2.85499954E+02
 21
-2.81999969E+02
  0
LINE
  8
0
 62
7
 10
3.41499924E+02
 20
-2.81999969E+02
 11
3.41499924E+02
 21
-3.19500000E+02
  0
LINE
  8
0
 62
7
 10
4.63499902E+02
 20
-3.17190722E+02
 11
4.65499837E+02
 21
-3.18345385E+02
  0
LINE
  8
0
 62
7
 10
3.97499924E+02
 20
-2.85500000E+02
 11
3.41499954E+02
 21
-2.85500000E+02
  0
LINE
  8
0
 62
7
 10
4.19499884E+02
 20
-2.83500058E+02
 11
4.21499886E+02
 21
-2.85500060E+02
  0
LINE
  8
0
 62
7
 10
3.99499906E+02
 20
-2.83500014E+02
 11
3.97499904E+02
 21
-2.85500017E+02
  0
LINE
  8
0
 62
7
 10
4.00499902E+02
 20
-2.75500022E+02
 11
3.99499922E+02
 21
-2.76500002E+02
  0
LINE
  8
0
 62
7
 10
3.99499924E+02
 20
-2.76500000E+02
 11
3.99499924E+02
 21
-2.83500000E+02
  0
LINE
  8
0
 62
7
 10
4.19499846E+02
 20
-2.76500077E+02
 11
4.18499834E+02
 21
-2.75500065E+02
  0
LINE
  8
0
 62
7
 10
4.18499924E+02
 20
-2.75500000E+02
 11
4.00499954E+02
 21
-2.75500000E+02
  0
LINE
  8
0
 62
7
 10
4.19499924E+02
 20
-2.76500000E+02
 11
4.19499924E+02
 21
-2.83500061E+02
  0
LINE
  8
0
 62
7
 10
3.57499924E+02
 20
-3.18345154E+02
 11
3.57499924E+02
 21
-3.19500000E+02
  0
LINE
  8
0
  6
CENTER
 62
2
 10
3.55499924E+02
 20
-3.08364502E+02
 11
3.55499924E+02
 21
-3.19500000E+02
  0
LINE
  8
0
 62
7
 10
3.53499924E+02
 20
-3.19500000E+02
 11
3.53499924E+02
 21
-3.18345337E+02
  0
LINE
  8
0
 62
7
 10
2.85499954E+02
 20
-2.82000000E+02
 11
2.85499954E+02
 21
-3.19500000E+02
  0
LINE
  8
0
 62
7
 10
4.19499924E+02
 20
-2.76500000E+02
 11
3.99499924E+02
 21
-2.76500000E+02
  0
ARC
  8
0
 62
7
 10
5.17249985E+02
 20
-3.02491455E+02
 40
2.50000000E-01
 50
2.23118003E-05
 51
8.80011768E+01
  0
ARC
  8
0
 62
7
 10
5.08999985E+02
 20
-3.01000000E+02
 40
5.00000000E-01
 50
3.59721787E-05
 51
9.00000179E+01
  0
ARC
  8
0
 62
7
 10
5.33999954E+02
 20
-3.19500000E+02
 40
9.99998474E+00
 50
1.48211648E+02
 51
1.80000000E+02
  0
ARC
  8
0
 62
7
 10
5.21999985E+02
 20
-3.03000031E+02
 40
5.00000000E-01
 50
3.59721787E-05
 51
9.00000179E+01
  0
ARC
  8
0
 62
7
 10
4.63499985E+02
 20
-3.19500000E+02
 40
4.00000000E+00
 50
0.00000000E+00
 51
1.80000000E+02
  0
ARC
  8
0
 62
7
 10
4.63499985E+02
 20
-3.19500000E+02
 40
8.00000000E+00
 50
0.00000000E+00
 51
1.80000000E+02
  0
ARC
  8
0
 62
7
 10
4.63499985E+02
 20
-3.19500000E+02
 40
3.29999995E+00
 50
0.00000000E+00
 51
1.80000000E+02
  0
ARC
  8
0
 62
7
 10
3.55499924E+02
 20
-3.19500000E+02
 40
4.00000000E+00
 50
0.00000000E+00
 51
1.80000000E+02
  0
ARC
  8
0
 62
7
 10
3.55499924E+02
 20
-3.19500000E+02
 40
8.00000000E+00
 50
0.00000000E+00
 51
1.80000000E+02
  0
ARC
  8
0
 62
7
 10
3.55499924E+02
 20
-3.19500000E+02
 40
3.29999995E+00
 50
0.00000000E+00
 51
1.80000000E+02
  0
ARC
  8
0
 62
2
 10
4.09499893E+02
 20
-2.53688171E+02
 40
3.14443855E+01
 50
2.51456620E+02
 51
2.88543413E+02
  0
ARC
  8
0
 62
2
 10
4.09499893E+02
 20
-2.53688171E+02
 40
3.39998779E+01
 50
2.49332649E+02
 51
2.90667356E+02
  0
LINE
  8
0
 62
4
 10
5.44499954E+02
 20
-3.19500000E+02
 11
5.44499954E+02
 21
-3.06000000E+02
  0
LINE
  8
0
 62
4
 10
5.55499954E+02
 20
-3.19500000E+02
 11
5.55499954E+02
 21
-3.06000000E+02
  0
ARC
  8
0
 62
4
 10
5.29705726E+02
 20
-3.19500000E+02
 40
2.57942282E+01
 50
2.54444375E-13
 51
1.75879541E+01
  0
ARC
  8
0
 62
4
 10
5.70294182E+02
 20
-3.19500000E+02
 40
2.57942282E+01
 50
1.62412046E+02
 51
1.80000000E+02
  0
ARC
  8
0
 62
4
 10
5.51400676E+02
 20
-3.07808657E+02
 40
6.90072132E+00
 50
1.45615752E+02
 51
2.14384248E+02
  0
ARC
  8
0
 62
4
 10
5.48599233E+02
 20
-3.07808657E+02
 40
6.90072132E+00
 50
3.25615752E+02
 51
3.43842480E+01
  0
LINE
  8
0
 62
4
 10
5.45705726E+02
 20
-3.03911543E+02
 11
5.44499954E+02
 21
-3.06000000E+02
  0
LINE
  8
0
 62
4
 10
5.54294183E+02
 20
-3.03911543E+02
 11
5.55499954E+02
 21
-3.06000000E+02
  0
LINE
  8
0
 62
4
 10
5.54294183E+02
 20
-3.11705771E+02
 11
5.45705726E+02
 21
-3.11705771E+02
  0
LINE
  8
0
 62
4
 10
5.54294183E+02
 20
-3.03911543E+02
 11
5.45705726E+02
 21
-3.03911543E+02
  0
LINE
  8
0
 62
7
 10
5.44499954E+02
 20
-3.10500000E+02
 11
5.35499954E+02
 21
-3.10500000E+02
  0
LINE
  8
0
 62
2
 10
5.44499954E+02
 20
-3.11320007E+02
 11
5.35499954E+02
 21
-3.11320007E+02
  0
LINE
  8
0
 62
2
 10
1.68587900E+02
 20
-3.28013280E+02
 11
1.94950249E+02
 21
-2.82352354E+02
  0
LINE
  8
0
 62
7
 10
2.47999969E+02
 20
-2.92500031E+02
 11
2.54499969E+02
 21
-2.92500031E+02
  0
LINE
  8
0
 62
7
 10
2.46499969E+02
 20
-2.98650009E+02
 11
2.54499969E+02
 21
-2.98650009E+02
  0
LINE
  8
0
 62
7
 10
2.46499969E+02
 20
-2.93350021E+02
 11
2.54499969E+02
 21
-2.93350021E+02
  0
LINE
  8
0
  6
CENTER
 62
2
 10
2.46499969E+02
 20
-2.96000015E+02
 11
2.87603409E+02
 21
-2.96000015E+02
  0
TEXT
  8
0
 10
-4.72146873E+01
 20
3.21614332E+02
 40
9.00000000E+00
  1
STRETCH LINE
 41
1.05263158E+00
  7
MONOTXT
  0
LINE
  8
0
 62
7
 10
5.74500000E+02
 20
4.00500000E+02
 11
5.74500000E+02
 21
-4.00500000E+02
  0
LINE
  8
0
 62
7
 10
-5.64500000E+02
 20
4.00500000E+02
 11
5.74500000E+02
 21
4.00500000E+02
  0
LINE
  8
0
 62
7
 10
-5.64500000E+02
 20
-4.00500000E+02
 11
5.74500000E+02
 21
-4.00500000E+02
  0
LINE
  8
0
 62
7
 10
-5.64500000E+02
 20
4.00500000E+02
 11
-5.64500000E+02
 21
-4.00500000E+02
  0
LINE
  8
0
 62
7
 10
-5.64500000E+02
 20
3.70500000E+02
 11
-3.34500000E+02
 21
3.70500000E+02
  0
LINE
  8
0
 62
7
 10
3.44500000E+02
 20
3.70500000E+02
 11
5.74500000E+02
 21
3.70500000E+02
  0
LINE
  8
0
 62
7
 10
3.44500000E+02
 20
-3.70500000E+02
 11
5.74500000E+02
 21
-3.70500000E+02
  0
LINE
  8
0
 62
7
 10
3.44500000E+02
 20
-3.70500000E+02
 11
3.44500000E+02
 21
-4.00500000E+02
  0
LINE
  8
0
 62
7
 10
3.44500000E+02
 20
4.00500000E+02
 11
3.44500000E+02
 21
3.70500000E+02
  0
LINE
  8
0
 62
7
 10
-3.34500000E+02
 20
4.00500000E+02
 11
-3.34500000E+02
 21
3.70500000E+02
  0
TEXT
  8
0
 62
7
 10
-5.37179687E+02
 20
3.34250000E+02
 40
1.25000000E+01
  1
MODEL:DDARR50*75
 41
1.00000015E+00
  7
MONOTXT
  0
TEXT
  8
0
 62
7
 10
4.11285149E+02
 20
3.79250000E+02
 40
1.25000000E+01
  1
Ver. 1.0
 41
1.08108125E+00
  7
MONOTXT
  0
TEXT
  8
0
 62
7
 10
3.50070624E+02
 20
-3.94500000E+02
 40
1.80000000E+01
  1
KOGANEI CORP.
 41
1.04838710E+00
  7
MONOTXT
  0
TEXT
  8
0
 62
7
 10
-5.53964859E+02
 20
3.79250000E+02
 40
1.25000000E+01
  1
NEW DYNA CYLINDER
 41
1.07594953E+00
  7
MONOTXT
  0
ENDSEC
  0
EOF
