  0
SECTION
  2
HEADER
  9
$ACADVER
  1
AC1003
  9
$EXTMIN
 10
-5.64500000E+02
 20
-4.00500000E+02
  9
$EXTMAX
 10
5.95588464E+02
 20
4.00500000E+02
  9
$LIMMIN
 10
-5.64501000E+02
 20
-4.00501000E+02
  9
$LIMMAX
 10
5.95589464E+02
 20
4.00501000E+02
  9
$SNAPUNIT
 10
1
 20
1
  9
$SNAPBASE
 10
0
 20
0
  9
$GRIDMODE
 70
0
  9
$GRIDUNIT
 10
0
 20
0
  9
$LTSCALE
 40
1.93348077E+01
  9
$TEXTSIZE
 40
3.2
  9
$DIMTAD
 70
0
  9
$LUNITS
 70
2
  9
$LUPREC
 70
4
  9
$FILLETRAD
 40
0
  9
$AUNITS
 70
0
  9
$AUPREC
 70
0
  0
ENDSEC
  0
SECTION
  2
TABLES
  0
TABLE
  2
LTYPE
 70
2
  0
LTYPE
  2
CONTINUOUS
 70
64
  3
Solid-Line
 72
65
 73
0
 40
0
  0
LTYPE
  2
DASHED
 70
64
  3
DASHED
 72
65
 73
2
 40
.75
 49
.5
 49
-.25
  0
LTYPE
  2
HIDDEN
 70
64
  3
HIDDEN
 72
65
 73
2
 40
.375
 49
.25
 49
-.125
  0
LTYPE
  2
CENTER
 70
64
  3
CENTER
 72
65
 73
4
 40
2
 49
1.25
 49
-.25
 49
.25
 49
-.25
  0
LTYPE
  2
PHANTOM
 70
64
  3
PHANTOM
 72
65
 73
6
 40
2.5
 49
1.25
 49
-.25
 49
.25
 49
-.25
 49
.25
 49
-.25
  0
ENDTAB
  0
TABLE
  2
LAYER
 70
1
  0
LAYER
  2
1
 70
0
 62
7
  6
CONTINUOUS
 0
ENDTAB
  0
TABLE
  2
STYLE
 70
2
  0
STYLE
  2
MONOTXT
 70
0
 40
0
 41
1
 50
0
 71
0
 42
.2
  3
monotxt
  0
STYLE
  2
BIGFONT
 70
0
 40
0
 41
1
 50
0
 71
0
 42
.2
  3
txt
  4
bigfont
  0
ENDTAB
  0
ENDSEC
  0
SECTION
  2
BLOCKS
  0
BLOCK
  8
0
  2
PP1
 70
10
 10
0.0
 20
0.0
  0
LINE
  8
0
  6
DASHED
 62
7
 10
-3.08669818E+02
 20
2.93000000E+02
 11
-3.05330137E+02
 21
2.93000000E+02
  0
LINE
  8
0
  6
DASHED
 62
7
 10
-3.09999990E+02
 20
2.95000000E+02
 11
-3.03999962E+02
 21
2.95000000E+02
  0
LINE
  8
0
  6
DASHED
 62
7
 10
-3.09999937E+02
 20
2.97000000E+02
 11
-3.03999962E+02
 21
2.97000000E+02
  0
LINE
  8
0
  6
DASHED
 62
7
 10
-3.10000017E+02
 20
2.94000000E+02
 11
-3.03999962E+02
 21
2.94000000E+02
  0
LINE
  8
0
  6
DASHED
 62
7
 10
-3.09999964E+02
 20
2.96000000E+02
 11
-3.03999962E+02
 21
2.96000000E+02
  0
LINE
  8
0
  6
DASHED
 62
7
 10
-3.08669820E+02
 20
2.98000000E+02
 11
-3.05330114E+02
 21
2.98000000E+02
  0
LINE
  8
0
  6
DASHED
 62
7
 10
-3.05462367E+02
 20
2.92923660E+02
 11
-3.03999962E+02
 21
2.95456621E+02
  0
LINE
  8
0
  6
DASHED
 62
7
 10
-3.07963220E+02
 20
2.92592056E+02
 11
-3.04963233E+02
 21
2.97788186E+02
  0
LINE
  8
0
  6
DASHED
 62
7
 10
-3.09695282E+02
 20
2.93592037E+02
 11
-3.06695294E+02
 21
2.98788168E+02
  0
LINE
  8
0
  6
DASHED
 62
7
 10
-3.09999936E+02
 20
2.97064361E+02
 11
-3.09854710E+02
 21
2.97315900E+02
  0
LINE
  8
0
  6
DASHED
 62
7
 10
-3.07097189E+02
 20
2.92092065E+02
 11
-3.04097202E+02
 21
2.97288196E+02
  0
LINE
  8
0
  6
DASHED
 62
7
 10
-3.08829251E+02
 20
2.93092046E+02
 11
-3.05829264E+02
 21
2.98288177E+02
  0
LINE
  8
0
  6
DASHED
 62
7
 10
-3.09999989E+02
 20
2.95064269E+02
 11
-3.08122654E+02
 21
2.98315908E+02
  0
LINE
  8
0
  6
DASHED
 62
7
 10
-3.03999962E+02
 20
2.96543379E+02
 11
-3.04596366E+02
 21
2.97576381E+02
  0
LINE
  8
0
  6
DASHED
 62
7
 10
-3.04530220E+02
 20
2.93461813E+02
 11
-3.07530214E+02
 21
2.98657956E+02
  0
LINE
  8
0
  6
DASHED
 62
7
 10
-3.06262289E+02
 20
2.92461845E+02
 11
-3.09262262E+02
 21
2.97657951E+02
  0
LINE
  8
0
  6
DASHED
 62
7
 10
-3.08988678E+02
 20
2.93184089E+02
 11
-3.09999992E+02
 21
2.94935737E+02
  0
LINE
  8
0
  6
DASHED
 62
7
 10
-3.03999962E+02
 20
2.94543379E+02
 11
-3.06328395E+02
 21
2.98576343E+02
  0
LINE
  8
0
  6
DASHED
 62
7
 10
-3.05396254E+02
 20
2.92961829E+02
 11
-3.08396238E+02
 21
2.98157953E+02
  0
LINE
  8
0
  6
DASHED
 62
7
 10
-3.07256649E+02
 20
2.92184127E+02
 11
-3.09999939E+02
 21
2.96935645E+02
  0
ENDBLK
  8
0
  0
BLOCK
  8
0
  2
PP2
 70
10
 10
0.0
 20
0.0
  0
LINE
  8
0
  6
DASHED
 62
7
 10
-1.56669802E+02
 20
2.93000000E+02
 11
-1.53330146E+02
 21
2.93000000E+02
  0
LINE
  8
0
  6
DASHED
 62
7
 10
-1.57999966E+02
 20
2.95000000E+02
 11
-1.51999962E+02
 21
2.95000000E+02
  0
LINE
  8
0
  6
DASHED
 62
7
 10
-1.57999949E+02
 20
2.97000000E+02
 11
-1.51999962E+02
 21
2.97000000E+02
  0
LINE
  8
0
  6
DASHED
 62
7
 10
-1.57999975E+02
 20
2.94000000E+02
 11
-1.51999962E+02
 21
2.94000000E+02
  0
LINE
  8
0
  6
DASHED
 62
7
 10
-1.57999957E+02
 20
2.96000000E+02
 11
-1.51999962E+02
 21
2.96000000E+02
  0
LINE
  8
0
  6
DASHED
 62
7
 10
-1.56669808E+02
 20
2.98000000E+02
 11
-1.53330093E+02
 21
2.98000000E+02
  0
LINE
  8
0
  6
DASHED
 62
7
 10
-1.52831661E+02
 20
2.93287798E+02
 11
-1.51999962E+02
 21
2.94728343E+02
  0
LINE
  8
0
  6
DASHED
 62
7
 10
-1.55647856E+02
 20
2.92410005E+02
 11
-1.52647875E+02
 21
2.97606125E+02
  0
LINE
  8
0
  6
DASHED
 62
7
 10
-1.57379926E+02
 20
2.93409973E+02
 11
-1.54379930E+02
 21
2.98606118E+02
  0
LINE
  8
0
  6
DASHED
 62
7
 10
-1.57999954E+02
 20
2.96336051E+02
 11
-1.57224002E+02
 21
2.97680041E+02
  0
LINE
  8
0
  6
DASHED
 62
7
 10
-1.54563704E+02
 20
2.92287812E+02
 11
-1.51999962E+02
 21
2.96728343E+02
  0
LINE
  8
0
  6
DASHED
 62
7
 10
-1.56513891E+02
 20
2.92909989E+02
 11
-1.53513903E+02
 21
2.98106121E+02
  0
LINE
  8
0
  6
DASHED
 62
7
 10
-1.57999972E+02
 20
2.94336021E+02
 11
-1.55491964E+02
 21
2.98680019E+02
  0
LINE
  8
0
  6
DASHED
 62
7
 10
-1.52214874E+02
 20
2.93643896E+02
 11
-1.55214851E+02
 21
2.98840008E+02
  0
LINE
  8
0
  6
DASHED
 62
7
 10
-1.53946929E+02
 20
2.92643904E+02
 11
-1.56946908E+02
 21
2.97840019E+02
  0
LINE
  8
0
  6
DASHED
 62
7
 10
-1.56357990E+02
 20
2.92819983E+02
 11
-1.57999960E+02
 21
2.95663959E+02
  0
LINE
  8
0
  6
DASHED
 62
7
 10
-1.51999962E+02
 20
2.95271657E+02
 11
-1.53697709E+02
 21
2.98212241E+02
  0
LINE
  8
0
  6
DASHED
 62
7
 10
-1.53080902E+02
 20
2.93143900E+02
 11
-1.56080879E+02
 21
2.98340013E+02
  0
LINE
  8
0
  6
DASHED
 62
7
 10
-1.54812957E+02
 20
2.92143907E+02
 11
-1.57812937E+02
 21
2.97340024E+02
  0
ENDBLK
  8
0
  0
BLOCK
  8
0
  2
PP3
 70
10
 10
0.0
 20
0.0
  0
LINE
  8
0
  6
DASHED
 62
7
 10
-1.56669802E+02
 20
-1.27000000E+02
 11
-1.53330146E+02
 21
-1.27000000E+02
  0
LINE
  8
0
  6
DASHED
 62
7
 10
-1.57999966E+02
 20
-1.25000000E+02
 11
-1.51999962E+02
 21
-1.25000000E+02
  0
LINE
  8
0
  6
DASHED
 62
7
 10
-1.57999949E+02
 20
-1.23000000E+02
 11
-1.51999962E+02
 21
-1.23000000E+02
  0
LINE
  8
0
  6
DASHED
 62
7
 10
-1.57999975E+02
 20
-1.26000000E+02
 11
-1.51999962E+02
 21
-1.26000000E+02
  0
LINE
  8
0
  6
DASHED
 62
7
 10
-1.57999957E+02
 20
-1.24000000E+02
 11
-1.51999962E+02
 21
-1.24000000E+02
  0
LINE
  8
0
  6
DASHED
 62
7
 10
-1.56669808E+02
 20
-1.22000000E+02
 11
-1.53330093E+02
 21
-1.22000000E+02
  0
LINE
  8
0
  6
DASHED
 62
7
 10
-1.52831661E+02
 20
-1.26712202E+02
 11
-1.51999962E+02
 21
-1.25271657E+02
  0
LINE
  8
0
  6
DASHED
 62
7
 10
-1.55647856E+02
 20
-1.27589995E+02
 11
-1.52647875E+02
 21
-1.22393875E+02
  0
LINE
  8
0
  6
DASHED
 62
7
 10
-1.57379926E+02
 20
-1.26590027E+02
 11
-1.54379930E+02
 21
-1.21393882E+02
  0
LINE
  8
0
  6
DASHED
 62
7
 10
-1.57999954E+02
 20
-1.23663949E+02
 11
-1.57224002E+02
 21
-1.22319959E+02
  0
LINE
  8
0
  6
DASHED
 62
7
 10
-1.54563704E+02
 20
-1.27712188E+02
 11
-1.51999962E+02
 21
-1.23271657E+02
  0
LINE
  8
0
  6
DASHED
 62
7
 10
-1.56513891E+02
 20
-1.27090011E+02
 11
-1.53513903E+02
 21
-1.21893879E+02
  0
LINE
  8
0
  6
DASHED
 62
7
 10
-1.57999972E+02
 20
-1.25663979E+02
 11
-1.55491964E+02
 21
-1.21319981E+02
  0
LINE
  8
0
  6
DASHED
 62
7
 10
-1.52214874E+02
 20
-1.26356104E+02
 11
-1.55214851E+02
 21
-1.21159992E+02
  0
LINE
  8
0
  6
DASHED
 62
7
 10
-1.53946929E+02
 20
-1.27356096E+02
 11
-1.56946908E+02
 21
-1.22159981E+02
  0
LINE
  8
0
  6
DASHED
 62
7
 10
-1.56357990E+02
 20
-1.27180017E+02
 11
-1.57999960E+02
 21
-1.24336041E+02
  0
LINE
  8
0
  6
DASHED
 62
7
 10
-1.51999962E+02
 20
-1.24728343E+02
 11
-1.53697709E+02
 21
-1.21787759E+02
  0
LINE
  8
0
  6
DASHED
 62
7
 10
-1.53080902E+02
 20
-1.26856100E+02
 11
-1.56080879E+02
 21
-1.21659987E+02
  0
LINE
  8
0
  6
DASHED
 62
7
 10
-1.54812957E+02
 20
-1.27856093E+02
 11
-1.57812937E+02
 21
-1.22659976E+02
  0
ENDBLK
  8
0
  0
BLOCK
  8
0
  2
PP4
 70
10
 10
0.0
 20
0.0
  0
LINE
  8
0
  6
DASHED
 62
7
 10
-3.08669818E+02
 20
-1.27000000E+02
 11
-3.05330137E+02
 21
-1.27000000E+02
  0
LINE
  8
0
  6
DASHED
 62
7
 10
-3.09999990E+02
 20
-1.25000000E+02
 11
-3.03999962E+02
 21
-1.25000000E+02
  0
LINE
  8
0
  6
DASHED
 62
7
 10
-3.09999937E+02
 20
-1.23000000E+02
 11
-3.03999962E+02
 21
-1.23000000E+02
  0
LINE
  8
0
  6
DASHED
 62
7
 10
-3.10000017E+02
 20
-1.26000000E+02
 11
-3.03999962E+02
 21
-1.26000000E+02
  0
LINE
  8
0
  6
DASHED
 62
7
 10
-3.09999964E+02
 20
-1.24000000E+02
 11
-3.03999962E+02
 21
-1.24000000E+02
  0
LINE
  8
0
  6
DASHED
 62
7
 10
-3.08669820E+02
 20
-1.22000000E+02
 11
-3.05330114E+02
 21
-1.22000000E+02
  0
LINE
  8
0
  6
DASHED
 62
7
 10
-3.05462367E+02
 20
-1.27076340E+02
 11
-3.03999962E+02
 21
-1.24543379E+02
  0
LINE
  8
0
  6
DASHED
 62
7
 10
-3.07963220E+02
 20
-1.27407944E+02
 11
-3.04963233E+02
 21
-1.22211814E+02
  0
LINE
  8
0
  6
DASHED
 62
7
 10
-3.09695282E+02
 20
-1.26407963E+02
 11
-3.06695294E+02
 21
-1.21211832E+02
  0
LINE
  8
0
  6
DASHED
 62
7
 10
-3.09999936E+02
 20
-1.22935639E+02
 11
-3.09854710E+02
 21
-1.22684100E+02
  0
LINE
  8
0
  6
DASHED
 62
7
 10
-3.07097189E+02
 20
-1.27907935E+02
 11
-3.04097202E+02
 21
-1.22711804E+02
  0
LINE
  8
0
  6
DASHED
 62
7
 10
-3.08829251E+02
 20
-1.26907954E+02
 11
-3.05829264E+02
 21
-1.21711823E+02
  0
LINE
  8
0
  6
DASHED
 62
7
 10
-3.09999989E+02
 20
-1.24935731E+02
 11
-3.08122654E+02
 21
-1.21684092E+02
  0
LINE
  8
0
  6
DASHED
 62
7
 10
-3.03999962E+02
 20
-1.23456621E+02
 11
-3.04596366E+02
 21
-1.22423619E+02
  0
LINE
  8
0
  6
DASHED
 62
7
 10
-3.04530220E+02
 20
-1.26538187E+02
 11
-3.07530214E+02
 21
-1.21342044E+02
  0
LINE
  8
0
  6
DASHED
 62
7
 10
-3.06262289E+02
 20
-1.27538155E+02
 11
-3.09262262E+02
 21
-1.22342049E+02
  0
LINE
  8
0
  6
DASHED
 62
7
 10
-3.08988678E+02
 20
-1.26815911E+02
 11
-3.09999992E+02
 21
-1.25064263E+02
  0
LINE
  8
0
  6
DASHED
 62
7
 10
-3.03999962E+02
 20
-1.25456621E+02
 11
-3.06328395E+02
 21
-1.21423657E+02
  0
LINE
  8
0
  6
DASHED
 62
7
 10
-3.05396254E+02
 20
-1.27038171E+02
 11
-3.08396238E+02
 21
-1.21842047E+02
  0
LINE
  8
0
  6
DASHED
 62
7
 10
-3.07256649E+02
 20
-1.27815873E+02
 11
-3.09999939E+02
 21
-1.23064355E+02
  0
ENDBLK
  8
0
  0
ENDSEC
  0
SECTION
  2
ENTITIES
  0
LINE
  8
0
  6
CENTER
 62
2
 10
-4.01103081E+02
 20
1.00500000E+02
 11
1.22068054E+02
 21
1.00500000E+02
  0
LINE
  8
0
  6
PHANTOM
 10
-1.95000000E+01
 20
1.93505299E+02
 11
-1.95000000E+01
 21
2.93151313E+01
  0
LINE
  8
0
 62
7
 10
-2.75536157E+02
 20
9.45002317E+01
 11
-2.72072061E+02
 21
1.00500231E+02
  0
LINE
  8
0
 62
7
 10
-2.82464291E+02
 20
9.44999052E+01
 11
-2.85928399E+02
 21
1.00499924E+02
  0
LINE
  8
0
 62
7
 10
-2.75535820E+02
 20
9.45000153E+01
 11
-2.82464043E+02
 21
9.45000153E+01
  0
LINE
  8
0
 62
7
 10
-2.80999962E+02
 20
9.93452911E+01
 11
-2.80999962E+02
 21
1.01654594E+02
  0
LINE
  8
0
 62
7
 10
-2.78999990E+02
 20
9.81906443E+01
 11
-2.80999925E+02
 21
9.93453078E+01
  0
LINE
  8
0
 62
7
 10
-2.76999739E+02
 20
9.93450281E+01
 11
-2.78999753E+02
 21
9.81903188E+01
  0
LINE
  8
0
 62
7
 10
-2.76999962E+02
 20
1.01654976E+02
 11
-2.76999962E+02
 21
9.93452911E+01
  0
LINE
  8
0
  6
CENTER
 62
2
 10
-2.78999962E+02
 20
1.12371231E+02
 11
-2.78999962E+02
 21
8.87921982E+01
  0
LINE
  8
0
 62
7
 10
-3.28999962E+02
 20
1.47500000E+02
 11
-3.28999962E+02
 21
5.34999924E+01
  0
LINE
  8
0
 62
7
 10
-2.78999886E+02
 20
1.02809291E+02
 11
-2.80999834E+02
 21
1.01654620E+02
  0
LINE
  8
0
 62
7
 10
-2.76999805E+02
 20
1.01654881E+02
 11
-2.78999820E+02
 21
1.02809591E+02
  0
LINE
  8
0
 62
7
 10
-2.82464318E+02
 20
1.06500071E+02
 11
-2.85928423E+02
 21
1.00500055E+02
  0
LINE
  8
0
 62
7
 10
-2.75535820E+02
 20
1.06499985E+02
 11
-2.82464043E+02
 21
1.06499985E+02
  0
LINE
  8
0
 62
7
 10
-2.75536082E+02
 20
1.06499782E+02
 11
-2.72072004E+02
 21
1.00499815E+02
  0
LINE
  8
0
 62
7
 10
-1.84999976E+02
 20
1.01654861E+02
 11
-1.82999962E+02
 21
1.02809570E+02
  0
LINE
  8
0
 62
7
 10
-1.82999915E+02
 20
1.02809370E+02
 11
-1.80999940E+02
 21
1.01654684E+02
  0
LINE
  8
0
 62
7
 10
-1.86463965E+02
 20
1.06499845E+02
 11
-1.89928069E+02
 21
1.00499833E+02
  0
LINE
  8
0
 62
7
 10
-1.86464058E+02
 20
1.06499985E+02
 11
-1.79535851E+02
 21
1.06499985E+02
  0
LINE
  8
0
 62
7
 10
-1.79535775E+02
 20
1.06499966E+02
 11
-1.76071691E+02
 21
1.00499987E+02
  0
LINE
  8
0
 62
7
 10
-2.93999962E+02
 20
1.30999954E+02
 11
-1.67999977E+02
 21
1.30999954E+02
  0
LINE
  8
0
  6
CENTER
 62
2
 10
-3.33378471E+02
 20
1.35500000E+02
 11
-1.02066872E+02
 21
1.35500000E+02
  0
LINE
  8
0
 62
7
 10
-2.93999962E+02
 20
1.39999969E+02
 11
-1.67999977E+02
 21
1.39999969E+02
  0
LINE
  8
0
 62
7
 10
-2.93999962E+02
 20
1.43999985E+02
 11
-2.42999809E+02
 21
1.43999985E+02
  0
LINE
  8
0
 62
7
 10
-1.67999931E+02
 20
1.47500000E+02
 11
-1.06999962E+02
 21
1.47500000E+02
  0
LINE
  8
0
 62
7
 10
-3.28999870E+02
 20
1.47500000E+02
 11
-2.93999931E+02
 21
1.47500000E+02
  0
LINE
  8
0
 62
7
 10
-2.93999962E+02
 20
1.47500000E+02
 11
-2.93999962E+02
 21
5.34999924E+01
  0
LINE
  8
0
 62
7
 10
-3.28999962E+02
 20
5.34999924E+01
 11
-2.93999962E+02
 21
5.34999924E+01
  0
LINE
  8
0
 62
7
 10
-1.67999977E+02
 20
5.34999924E+01
 11
-1.06999962E+02
 21
5.34999924E+01
  0
LINE
  8
0
 62
7
 10
-1.67999977E+02
 20
1.47500000E+02
 11
-1.67999977E+02
 21
5.34999924E+01
  0
LINE
  8
0
 62
7
 10
-2.93999962E+02
 20
5.69999771E+01
 11
-1.67999977E+02
 21
5.69999771E+01
  0
LINE
  8
0
 62
7
 10
-2.93999962E+02
 20
6.99999924E+01
 11
-1.67999977E+02
 21
6.99999924E+01
  0
LINE
  8
0
  6
CENTER
 62
2
 10
-3.33378471E+02
 20
6.54999619E+01
 11
-1.02066872E+02
 21
6.54999619E+01
  0
LINE
  8
0
 62
7
 10
-2.93999962E+02
 20
6.09999924E+01
 11
-1.67999977E+02
 21
6.09999924E+01
  0
LINE
  8
0
  6
CENTER
 62
2
 10
-2.30999962E+02
 20
1.56255569E+02
 11
-2.30999962E+02
 21
1.38635864E+02
  0
LINE
  8
0
 62
7
 10
-1.79535815E+02
 20
9.45000475E+01
 11
-1.76071719E+02
 21
1.00500047E+02
  0
LINE
  8
0
 62
7
 10
-1.86464058E+02
 20
9.45000153E+01
 11
-1.79535851E+02
 21
9.45000153E+01
  0
LINE
  8
0
 62
7
 10
-1.80999962E+02
 20
9.93452911E+01
 11
-1.80999962E+02
 21
1.01654709E+02
  0
LINE
  8
0
 62
7
 10
-1.82999880E+02
 20
9.81905329E+01
 11
-1.80999918E+02
 21
9.93452116E+01
  0
LINE
  8
0
 62
7
 10
-1.85000013E+02
 20
9.93450385E+01
 11
-1.82999999E+02
 21
9.81903292E+01
  0
LINE
  8
0
 62
7
 10
-1.84999977E+02
 20
1.01654938E+02
 11
-1.84999977E+02
 21
9.93452911E+01
  0
LINE
  8
0
  6
CENTER
 62
2
 10
-1.82999931E+02
 20
1.12502716E+02
 11
-1.82999931E+02
 21
8.87921982E+01
  0
LINE
  8
0
 62
7
 10
-1.86463945E+02
 20
9.45001128E+01
 11
-1.89928030E+02
 21
1.00500092E+02
  0
LINE
  8
0
 62
7
 10
-2.18999962E+02
 20
1.43999985E+02
 11
-1.67999977E+02
 21
1.43999985E+02
  0
LINE
  8
0
 62
7
 10
-2.42999855E+02
 20
1.43999930E+02
 11
-2.40999858E+02
 21
1.45999926E+02
  0
LINE
  8
0
 62
7
 10
-2.21000020E+02
 20
1.46000045E+02
 11
-2.19000018E+02
 21
1.44000043E+02
  0
LINE
  8
0
 62
7
 10
-2.21999946E+02
 20
1.53999935E+02
 11
-2.20999966E+02
 21
1.52999955E+02
  0
LINE
  8
0
 62
7
 10
-2.40999831E+02
 20
1.52999896E+02
 11
-2.39999825E+02
 21
1.53999902E+02
  0
LINE
  8
0
 62
7
 10
-2.20999962E+02
 20
1.52999954E+02
 11
-2.20999962E+02
 21
1.45999985E+02
  0
LINE
  8
0
 62
7
 10
-2.40999962E+02
 20
1.52999954E+02
 11
-2.40999962E+02
 21
1.45999954E+02
  0
LINE
  8
0
 62
7
 10
-2.39999931E+02
 20
1.53999985E+02
 11
-2.21999962E+02
 21
1.53999985E+02
  0
LINE
  8
0
 62
7
 10
-1.06999992E+02
 20
1.47500000E+02
 11
-1.06999992E+02
 21
5.34999924E+01
  0
LINE
  8
0
 62
7
 10
-2.40999962E+02
 20
1.53000000E+02
 11
-2.20999962E+02
 21
1.53000000E+02
  0
LINE
  8
0
 62
7
 10
-3.62999901E+02
 20
9.15000153E+01
 11
-3.62999901E+02
 21
1.09500015E+02
  0
LINE
  8
0
 62
7
 10
-3.57000053E+02
 20
1.10499985E+02
 11
-3.44999992E+02
 21
1.10499985E+02
  0
LINE
  8
0
 62
7
 10
-3.91999931E+02
 20
9.30000381E+01
 11
-3.91999931E+02
 21
1.07999847E+02
  0
LINE
  8
0
 62
7
 10
-3.90499901E+02
 20
9.15000153E+01
 11
-3.90499901E+02
 21
1.09500015E+02
  0
LINE
  8
0
 62
7
 10
-3.90499870E+02
 20
1.09500000E+02
 11
-3.82999931E+02
 21
1.09500000E+02
  0
LINE
  8
0
 62
2
 10
-3.91319878E+02
 20
1.08679993E+02
 11
-3.82999931E+02
 21
1.08679993E+02
  0
LINE
  8
0
 62
7
 10
-3.91999829E+02
 20
1.07999809E+02
 11
-3.90499783E+02
 21
1.09499809E+02
  0
LINE
  8
0
 62
7
 10
-3.90499870E+02
 20
9.15000076E+01
 11
-3.82999931E+02
 21
9.15000076E+01
  0
LINE
  8
0
 62
2
 10
-3.91319878E+02
 20
9.23199997E+01
 11
-3.82999931E+02
 21
9.23199997E+01
  0
LINE
  8
0
 62
7
 10
-3.91999934E+02
 20
9.30001308E+01
 11
-3.90499877E+02
 21
9.15001197E+01
  0
LINE
  8
0
 62
7
 10
-3.59999931E+02
 20
1.09500000E+02
 11
-3.59999931E+02
 21
9.15000076E+01
  0
LINE
  8
0
 62
7
 10
-3.57000053E+02
 20
1.05767853E+02
 11
-3.52999992E+02
 21
1.05767853E+02
  0
LINE
  8
0
 62
7
 10
-3.52999992E+02
 20
9.52322006E+01
 11
-3.52999992E+02
 21
1.00500008E+02
  0
LINE
  8
0
 62
7
 10
-3.57000053E+02
 20
9.52321930E+01
 11
-3.52999992E+02
 21
9.52321930E+01
  0
LINE
  8
0
 62
7
 10
-3.56999931E+02
 20
9.05000305E+01
 11
-3.56999931E+02
 21
9.52322006E+01
  0
LINE
  8
0
 62
7
 10
-3.59999901E+02
 20
1.09499985E+02
 11
-3.56999912E+02
 21
1.10499969E+02
  0
LINE
  8
0
 62
2
 10
-3.59033539E+02
 20
1.04313421E+02
 11
-3.52999940E+02
 21
9.52322265E+01
  0
LINE
  8
0
 62
2
 10
-3.59033542E+02
 20
9.66863979E+01
 11
-3.52999799E+02
 21
1.05767808E+02
  0
LINE
  8
0
 62
7
 10
-3.57000053E+02
 20
9.05000229E+01
 11
-3.44999992E+02
 21
9.05000229E+01
  0
LINE
  8
0
 62
7
 10
-3.56999931E+02
 20
1.10500046E+02
 11
-3.56999931E+02
 21
1.05767868E+02
  0
LINE
  8
0
 62
7
 10
-3.52999992E+02
 20
1.05767868E+02
 11
-3.52999992E+02
 21
1.00500008E+02
  0
LINE
  8
0
  6
CENTER
 62
2
 10
4.60000458E+01
 20
1.40185059E+02
 11
4.60000458E+01
 21
1.28299774E+02
  0
LINE
  8
0
 62
7
 10
-3.62999901E+02
 20
1.08679993E+02
 11
-3.59999931E+02
 21
1.08679993E+02
  0
LINE
  8
0
 62
7
 10
-3.62999901E+02
 20
9.23199997E+01
 11
-3.59999931E+02
 21
9.23199997E+01
  0
LINE
  8
0
  6
CENTER
 62
2
 10
-8.90000687E+01
 20
1.40185059E+02
 11
-8.90000687E+01
 21
1.28299774E+02
  0
LINE
  8
0
 62
7
 10
-3.44999962E+02
 20
8.40000305E+01
 11
-3.44999962E+02
 21
1.16999985E+02
  0
LINE
  8
0
 62
7
 10
-3.30499962E+02
 20
8.15000076E+01
 11
-3.28999962E+02
 21
8.15000076E+01
  0
LINE
  8
0
 62
7
 10
-3.44499962E+02
 20
8.35000000E+01
 11
-3.39991417E+02
 21
8.35000000E+01
  0
LINE
  8
0
 62
7
 10
-3.39999962E+02
 20
8.35000000E+01
 11
-3.39999962E+02
 21
8.34914551E+01
  0
LINE
  8
0
 62
7
 10
-3.39758643E+02
 20
8.32415263E+01
 11
-3.30999944E+02
 21
8.29705865E+01
  0
LINE
  8
0
 62
7
 10
6.39999801E+01
 20
1.36950073E+02
 11
6.39999801E+01
 21
6.40499268E+01
  0
LINE
  8
0
 62
7
 10
3.19999771E+01
 20
1.38000000E+02
 11
3.19999771E+01
 21
6.30000000E+01
  0
LINE
  8
0
  6
CENTER
 62
2
 10
6.82292206E+01
 20
7.24999924E+01
 11
-1.10248100E+02
 21
7.24999924E+01
  0
LINE
  8
0
 62
7
 10
3.19999771E+01
 20
7.61000366E+01
 11
-7.50000076E+01
 21
7.61000366E+01
  0
LINE
  8
0
 62
7
 10
6.35087219E+01
 20
6.35500415E+01
 11
3.20000159E+01
 21
6.30000550E+01
  0
LINE
  8
0
 62
7
 10
-3.30999962E+02
 20
1.19000000E+02
 11
-3.30999962E+02
 21
8.20000000E+01
  0
LINE
  8
0
 62
7
 10
5.99999838E+01
 20
6.30000000E+01
 11
3.19999771E+01
 21
6.30000000E+01
  0
LINE
  8
0
 62
7
 10
5.99999838E+01
 20
6.34887695E+01
 11
5.99999838E+01
 21
6.30000000E+01
  0
LINE
  8
0
 62
7
 10
-3.39999962E+02
 20
8.35000000E+01
 11
-3.39999962E+02
 21
1.17500015E+02
  0
LINE
  8
0
 62
7
 10
3.19999771E+01
 20
6.89000244E+01
 11
-7.50000076E+01
 21
6.89000244E+01
  0
LINE
  8
0
 62
7
 10
3.19999771E+01
 20
6.65000229E+01
 11
-7.50000076E+01
 21
6.65000229E+01
  0
LINE
  8
0
 62
7
 10
6.54999916E+01
 20
8.15000076E+01
 11
6.39999915E+01
 21
8.15000076E+01
  0
LINE
  8
0
 62
7
 10
-7.50000076E+01
 20
1.38000000E+02
 11
-7.50000076E+01
 21
6.30000000E+01
  0
LINE
  8
0
 62
7
 10
-1.06508710E+02
 20
6.35500472E+01
 11
-7.50000283E+01
 21
6.30000611E+01
  0
LINE
  8
0
 62
7
 10
6.59999877E+01
 20
1.19000000E+02
 11
6.59999877E+01
 21
8.20000000E+01
  0
LINE
  8
0
 62
7
 10
-1.03000008E+02
 20
6.30000000E+01
 11
-7.50000076E+01
 21
6.30000000E+01
  0
LINE
  8
0
 62
7
 10
-1.03000008E+02
 20
6.34887695E+01
 11
-1.03000008E+02
 21
6.30000000E+01
  0
LINE
  8
0
 62
7
 10
3.19999771E+01
 20
1.32099976E+02
 11
2.49999771E+01
 21
1.32099976E+02
  0
LINE
  8
0
 62
7
 10
5.99999838E+01
 20
1.38000000E+02
 11
3.19999771E+01
 21
1.38000000E+02
  0
LINE
  8
0
 62
7
 10
5.99999838E+01
 20
1.37511215E+02
 11
5.99999838E+01
 21
1.38000000E+02
  0
LINE
  8
0
 62
7
 10
6.54999916E+01
 20
1.19500000E+02
 11
6.39999915E+01
 21
1.19500000E+02
  0
LINE
  8
0
 62
7
 10
-1.06508735E+02
 20
1.37449950E+02
 11
-7.50000373E+01
 21
1.37999936E+02
  0
LINE
  8
0
 62
7
 10
-1.03000008E+02
 20
1.38000000E+02
 11
-7.50000076E+01
 21
1.38000000E+02
  0
LINE
  8
0
 62
7
 10
3.19999771E+01
 20
1.34499969E+02
 11
2.59193843E+01
 21
1.34499969E+02
  0
LINE
  8
0
 62
7
 10
-3.30499962E+02
 20
1.19500000E+02
 11
-3.28999962E+02
 21
1.19500000E+02
  0
LINE
  8
0
 62
7
 10
-3.44499962E+02
 20
1.17500015E+02
 11
-3.39991417E+02
 21
1.17500015E+02
  0
LINE
  8
0
 62
7
 10
-3.39999962E+02
 20
1.17500015E+02
 11
-3.39999962E+02
 21
1.17508560E+02
  0
LINE
  8
0
 62
7
 10
-3.39758627E+02
 20
1.17758482E+02
 11
-3.30999928E+02
 21
1.18029421E+02
  0
LINE
  8
0
 62
7
 10
-1.03000008E+02
 20
1.37511215E+02
 11
-1.03000008E+02
 21
1.38000000E+02
  0
LINE
  8
0
 62
7
 10
6.35087307E+01
 20
1.37449987E+02
 11
3.20000330E+01
 21
1.37999973E+02
  0
LINE
  8
0
 62
7
 10
3.19999771E+01
 20
1.24899963E+02
 11
9.99997711E+00
 21
1.24899963E+02
  0
LINE
  8
0
  6
CENTER
 62
2
 10
6.82292206E+01
 20
1.28500015E+02
 11
-1.10248100E+02
 21
1.28500015E+02
  0
LINE
  8
0
 62
7
 10
-3.59999926E+02
 20
1.03622430E+02
 11
-3.56999938E+02
 21
1.05767527E+02
  0
LINE
  8
0
 62
7
 10
-3.59999920E+02
 20
9.73775618E+01
 11
-3.56999932E+02
 21
9.52319128E+01
  0
LINE
  8
0
 62
7
 10
-3.59999954E+02
 20
9.15000157E+01
 11
-3.56999962E+02
 21
9.05000408E+01
  0
CIRCLE
  8
0
 62
7
 10
-2.78999962E+02
 20
1.00500000E+02
 40
4.00000000E+00
  0
CIRCLE
  8
0
 62
7
 10
-2.78999962E+02
 20
1.00500000E+02
 40
8.00000000E+00
  0
CIRCLE
  8
0
 62
7
 10
-2.78999962E+02
 20
1.00500000E+02
 40
3.30000043E+00
  0
CIRCLE
  8
0
 62
7
 10
-1.82999931E+02
 20
1.00500000E+02
 40
4.00000000E+00
  0
CIRCLE
  8
0
 62
7
 10
-1.82999931E+02
 20
1.00500000E+02
 40
3.30000043E+00
  0
CIRCLE
  8
0
 62
7
 10
-1.82999931E+02
 20
1.00500000E+02
 40
8.00000000E+00
  0
ARC
  8
0
 62
2
 10
-2.31000114E+02
 20
1.85811890E+02
 40
4.34998131E+01
 50
2.53986865E+02
 51
2.86013643E+02
  0
ARC
  8
0
 62
2
 10
-2.31000114E+02
 20
1.85811890E+02
 40
4.10486031E+01
 50
2.55900397E+02
 51
2.84100151E+02
  0
ARC
  8
0
 62
7
 10
-3.61499931E+02
 20
1.00500000E+02
 40
9.99998474E+00
 50
3.28211647E+02
 51
0.00000000E+00
  0
ARC
  8
0
 62
7
 10
-3.61499931E+02
 20
1.00500000E+02
 40
9.99998474E+00
 50
0.00000000E+00
 51
3.17883527E+01
  0
ARC
  8
0
 62
7
 10
-3.30499962E+02
 20
8.20000000E+01
 40
5.00000000E-01
 50
1.79999977E+02
 51
2.69999974E+02
  0
ARC
  8
0
 62
7
 10
6.34999878E+01
 20
6.40499268E+01
 40
5.00000000E-01
 50
2.71000258E+02
 51
3.59999993E+02
  0
ARC
  8
0
 62
7
 10
-3.39749962E+02
 20
8.34914551E+01
 40
2.50000000E-01
 50
1.79999977E+02
 51
2.68001132E+02
  0
ARC
  8
0
 62
7
 10
-3.44499962E+02
 20
8.40000305E+01
 40
5.00000000E-01
 50
1.79999977E+02
 51
2.69999974E+02
  0
ARC
  8
0
 62
7
 10
6.54999954E+01
 20
1.19000000E+02
 40
5.00000000E-01
 50
5.46415133E-05
 51
9.00000369E+01
  0
ARC
  8
0
 62
7
 10
6.54999954E+01
 20
8.20000000E+01
 40
5.00000000E-01
 50
2.70000073E+02
 51
5.46415133E-05
  0
ARC
  8
0
 62
7
 10
-1.06500008E+02
 20
6.40499268E+01
 40
5.00000000E-01
 50
1.79999909E+02
 51
2.68999651E+02
  0
ARC
  8
0
 62
7
 10
-3.44499962E+02
 20
1.16999985E+02
 40
5.00000000E-01
 50
8.99999818E+01
 51
1.79999964E+02
  0
ARC
  8
0
 62
7
 10
-3.39749962E+02
 20
1.17508560E+02
 40
2.50000000E-01
 50
9.19988230E+01
 51
1.79999977E+02
  0
ARC
  8
0
 62
7
 10
-1.06500008E+02
 20
1.36950073E+02
 40
5.00000000E-01
 50
9.10002768E+01
 51
1.80000019E+02
  0
ARC
  8
0
 62
7
 10
-3.30499962E+02
 20
1.19000000E+02
 40
5.00000000E-01
 50
8.99999818E+01
 51
1.79999964E+02
  0
ARC
  8
0
 62
7
 10
6.34999878E+01
 20
1.36950073E+02
 40
5.00000000E-01
 50
3.59999952E+02
 51
8.89996869E+01
  0
LINE
  8
0
 62
4
 10
-3.71999931E+02
 20
8.70000000E+01
 11
-3.71999931E+02
 21
1.14000000E+02
  0
LINE
  8
0
 62
4
 10
-3.82999931E+02
 20
8.70000000E+01
 11
-3.82999931E+02
 21
1.14000000E+02
  0
ARC
  8
0
 62
4
 10
-3.57205703E+02
 20
1.00500000E+02
 40
2.57942282E+01
 50
1.62412046E+02
 51
1.97587954E+02
  0
ARC
  8
0
 62
4
 10
-3.97794160E+02
 20
1.00500000E+02
 40
2.57942282E+01
 50
3.42412046E+02
 51
1.75879541E+01
  0
ARC
  8
0
 62
4
 10
-3.78900653E+02
 20
1.12191343E+02
 40
6.90072132E+00
 50
3.25615752E+02
 51
3.43842480E+01
  0
ARC
  8
0
 62
4
 10
-3.76099210E+02
 20
1.12191343E+02
 40
6.90072132E+00
 50
1.45615752E+02
 51
2.14384248E+02
  0
LINE
  8
0
 62
4
 10
-3.73205703E+02
 20
1.16088457E+02
 11
-3.71999931E+02
 21
1.14000000E+02
  0
LINE
  8
0
 62
4
 10
-3.81794160E+02
 20
1.16088457E+02
 11
-3.82999931E+02
 21
1.14000000E+02
  0
LINE
  8
0
 62
4
 10
-3.81794160E+02
 20
1.08294229E+02
 11
-3.73205703E+02
 21
1.08294229E+02
  0
LINE
  8
0
 62
4
 10
-3.81794160E+02
 20
1.16088457E+02
 11
-3.73205703E+02
 21
1.16088457E+02
  0
ARC
  8
0
 62
4
 10
-3.78900653E+02
 20
8.88086570E+01
 40
6.90072132E+00
 50
3.25615752E+02
 51
3.43842480E+01
  0
ARC
  8
0
 62
4
 10
-3.76099210E+02
 20
8.88086570E+01
 40
6.90072132E+00
 50
1.45615752E+02
 51
2.14384248E+02
  0
LINE
  8
0
 62
4
 10
-3.82999931E+02
 20
8.70000000E+01
 11
-3.81794160E+02
 21
8.49115427E+01
  0
LINE
  8
0
 62
4
 10
-3.71999931E+02
 20
8.70000000E+01
 11
-3.73205703E+02
 21
8.49115427E+01
  0
LINE
  8
0
 62
4
 10
-3.81794160E+02
 20
9.27057714E+01
 11
-3.73205703E+02
 21
9.27057714E+01
  0
LINE
  8
0
 62
4
 10
-3.81794160E+02
 20
8.49115427E+01
 11
-3.73205703E+02
 21
8.49115427E+01
  0
LINE
  8
0
 62
7
 10
-3.71999931E+02
 20
1.09500000E+02
 11
-3.62999901E+02
 21
1.09500000E+02
  0
LINE
  8
0
 62
2
 10
-3.71999931E+02
 20
1.08679993E+02
 11
-3.62999901E+02
 21
1.08679993E+02
  0
LINE
  8
0
 62
7
 10
-3.71999931E+02
 20
9.15000076E+01
 11
-3.62999901E+02
 21
9.15000076E+01
  0
LINE
  8
0
 62
2
 10
-3.71999931E+02
 20
9.23199997E+01
 11
-3.62999901E+02
 21
9.23199997E+01
  0
LINE
  8
0
 62
4
 10
-3.40000076E+01
 20
1.37852058E+02
 11
-3.40000076E+01
 21
1.49176918E+02
  0
LINE
  8
0
 62
6
 10
-1.32679110E+01
 20
1.39352059E+02
 11
-1.67320126E+01
 21
1.33352059E+02
  0
LINE
  8
0
 62
6
 10
-2.57320737E+01
 20
1.33352058E+02
 11
-2.22679721E+01
 21
1.39352058E+02
  0
LINE
  8
0
 62
4
 10
-4.99996185E+00
 20
1.37852058E+02
 11
-1.41339365E+01
 21
1.37852058E+02
  0
LINE
  8
0
  6
CENTER
 62
6
 10
3.00000381E+01
 20
1.36352058E+02
 11
-1.69999619E+01
 21
1.36352058E+02
  0
LINE
  8
0
 62
4
 10
-4.99996185E+00
 20
1.34852058E+02
 11
-1.58659873E+01
 21
1.34852058E+02
  0
LINE
  8
0
 62
4
 10
-3.40000076E+01
 20
1.34852058E+02
 11
-2.48660483E+01
 21
1.34852058E+02
  0
LINE
  8
0
  6
CENTER
 62
6
 10
-6.90000229E+01
 20
1.36352058E+02
 11
-2.20000229E+01
 21
1.36352058E+02
  0
LINE
  8
0
 62
4
 10
-4.05000229E+01
 20
1.37852058E+02
 11
-2.31339975E+01
 21
1.37852058E+02
  0
LINE
  8
0
 62
4
 10
-3.40000076E+01
 20
1.34499969E+02
 11
-3.40000076E+01
 21
1.34911070E+02
  0
LINE
  8
0
 62
4
 10
-4.05000076E+01
 20
1.38872205E+02
 11
-4.05000076E+01
 21
1.34911070E+02
  0
LINE
  8
0
 62
4
 10
-6.40000076E+01
 20
1.49176918E+02
 11
-6.40000076E+01
 21
1.38872205E+02
  0
LINE
  8
0
  6
CENTER
 62
6
 10
-4.43500076E+01
 20
1.41568466E+02
 11
-5.36500076E+01
 21
1.41568466E+02
  0
LINE
  8
0
  6
CENTER
 62
6
 10
-4.90000076E+01
 20
1.46218466E+02
 11
-4.90000076E+01
 21
1.36918466E+02
  0
LINE
  8
0
 62
4
 10
2.49999771E+01
 20
1.49176918E+02
 11
2.49999771E+01
 21
1.30653532E+02
  0
LINE
  8
0
  6
CENTER
 62
6
 10
-5.00002289E+00
 20
1.22516172E+02
 11
1.99997711E+00
 21
1.22516172E+02
  0
LINE
  8
0
  6
CENTER
 62
6
 10
2.99997711E+00
 20
1.22516172E+02
 11
9.99997711E+00
 21
1.22516172E+02
  0
LINE
  8
0
  6
CENTER
 62
6
 10
6.49997711E+00
 20
1.19016172E+02
 11
6.49997711E+00
 21
1.26016172E+02
  0
LINE
  8
0
  6
CENTER
 62
6
 10
-1.50002289E+00
 20
1.19016172E+02
 11
-1.50002289E+00
 21
1.26016172E+02
  0
LINE
  8
0
 62
4
 10
-5.00002289E+00
 20
1.17675471E+02
 11
-5.00002289E+00
 21
1.49176918E+02
  0
LINE
  8
0
 62
4
 10
9.99997711E+00
 20
1.45994043E+02
 11
9.99997711E+00
 21
1.17675471E+02
  0
LINE
  8
0
  6
CENTER
 62
6
 10
2.10745740E+01
 20
1.41714289E+02
 11
1.39253802E+01
 21
1.41714289E+02
  0
LINE
  8
0
  6
CENTER
 62
6
 10
1.74999771E+01
 20
1.45288886E+02
 11
1.74999771E+01
 21
1.38139692E+02
  0
LINE
  8
0
 62
4
 10
-6.40000076E+01
 20
1.49176918E+02
 11
-3.40000076E+01
 21
1.49176918E+02
  0
LINE
  8
0
 62
4
 10
-5.00002289E+00
 20
1.49176918E+02
 11
2.49999771E+01
 21
1.49176918E+02
  0
LINE
  8
0
 62
4
 10
-5.00002289E+00
 20
1.17675471E+02
 11
9.99997711E+00
 21
1.17675471E+02
  0
LINE
  8
0
 62
4
 10
-5.00002290E+00
 20
1.45994043E+02
 11
2.49999771E+01
 21
1.45994043E+02
  0
LINE
  8
0
 62
4
 10
-5.00002290E+00
 20
1.44603467E+02
 11
9.99997711E+00
 21
1.44603467E+02
  0
LINE
  8
0
 62
4
 10
-4.00002290E+00
 20
1.28222511E+02
 11
8.99997710E+00
 21
1.28222511E+02
  0
LINE
  8
0
 62
4
 10
9.99997711E+00
 20
1.37910063E+02
 11
2.49999771E+01
 21
1.37910063E+02
  0
LINE
  8
0
 62
4
 10
9.99997711E+00
 20
1.37786456E+02
 11
2.49999771E+01
 21
1.37786456E+02
  0
LINE
  8
0
 62
4
 10
9.99997710E+00
 20
1.30653532E+02
 11
2.49999771E+01
 21
1.30653532E+02
  0
POLYLINE
  8
0
 62
4
 66
1
  0
VERTEX
  8
0
 62
4
 10
1.52499771E+01
 20
1.41714289E+02
  0
VERTEX
  8
0
 62
4
 10
1.52585390E+01
 20
1.41527786E+02
  0
VERTEX
  8
0
 62
4
 10
1.52841597E+01
 20
1.41342703E+02
  0
VERTEX
  8
0
 62
4
 10
1.53266440E+01
 20
1.41160448E+02
  0
VERTEX
  8
0
 62
4
 10
1.53856687E+01
 20
1.40982408E+02
  0
VERTEX
  8
0
 62
4
 10
1.54607846E+01
 20
1.40809938E+02
  0
VERTEX
  8
0
 62
4
 10
1.55514199E+01
 20
1.40644350E+02
  0
VERTEX
  8
0
 62
4
 10
1.56568850E+01
 20
1.40486906E+02
  0
VERTEX
  8
0
 62
4
 10
1.57763771E+01
 20
1.40338802E+02
  0
VERTEX
  8
0
 62
4
 10
1.59089868E+01
 20
1.40201167E+02
  0
VERTEX
  8
0
 62
4
 10
1.60537050E+01
 20
1.40075048E+02
  0
VERTEX
  8
0
 62
4
 10
1.62094301E+01
 20
1.39961404E+02
  0
VERTEX
  8
0
 62
4
 10
1.63749771E+01
 20
1.39861101E+02
  0
VERTEX
  8
0
 62
4
 10
1.65490860E+01
 20
1.39774902E+02
  0
VERTEX
  8
0
 62
4
 10
1.67304318E+01
 20
1.39703462E+02
  0
VERTEX
  8
0
 62
4
 10
1.69176342E+01
 20
1.39647326E+02
  0
VERTEX
  8
0
 62
4
 10
1.71092687E+01
 20
1.39606921E+02
  0
VERTEX
  8
0
 62
4
 10
1.73038767E+01
 20
1.39582555E+02
  0
VERTEX
  8
0
 62
4
 10
1.74999771E+01
 20
1.39574412E+02
  0
VERTEX
  8
0
 62
4
 10
1.76960775E+01
 20
1.39582555E+02
  0
VERTEX
  8
0
 62
4
 10
1.78906855E+01
 20
1.39606921E+02
  0
VERTEX
  8
0
 62
4
 10
1.80823199E+01
 20
1.39647326E+02
  0
VERTEX
  8
0
 62
4
 10
1.82695224E+01
 20
1.39703462E+02
  0
VERTEX
  8
0
 62
4
 10
1.84508682E+01
 20
1.39774902E+02
  0
VERTEX
  8
0
 62
4
 10
1.86249771E+01
 20
1.39861101E+02
  0
VERTEX
  8
0
 62
4
 10
1.87905241E+01
 20
1.39961404E+02
  0
VERTEX
  8
0
 62
4
 10
1.89462492E+01
 20
1.40075048E+02
  0
VERTEX
  8
0
 62
4
 10
1.90909674E+01
 20
1.40201167E+02
  0
VERTEX
  8
0
 62
4
 10
1.92235771E+01
 20
1.40338802E+02
  0
VERTEX
  8
0
 62
4
 10
1.93430692E+01
 20
1.40486906E+02
  0
VERTEX
  8
0
 62
4
 10
1.94485343E+01
 20
1.40644350E+02
  0
VERTEX
  8
0
 62
4
 10
1.95391696E+01
 20
1.40809938E+02
  0
VERTEX
  8
0
 62
4
 10
1.96142855E+01
 20
1.40982408E+02
  0
VERTEX
  8
0
 62
4
 10
1.96733102E+01
 20
1.41160448E+02
  0
VERTEX
  8
0
 62
4
 10
1.97157945E+01
 20
1.41342703E+02
  0
VERTEX
  8
0
 62
4
 10
1.97414152E+01
 20
1.41527786E+02
  0
VERTEX
  8
0
 62
4
 10
1.97499771E+01
 20
1.41714289E+02
  0
VERTEX
  8
0
 62
4
 10
1.97414152E+01
 20
1.41900792E+02
  0
VERTEX
  8
0
 62
4
 10
1.97157945E+01
 20
1.42085875E+02
  0
VERTEX
  8
0
 62
4
 10
1.96733102E+01
 20
1.42268130E+02
  0
VERTEX
  8
0
 62
4
 10
1.96142855E+01
 20
1.42446170E+02
  0
VERTEX
  8
0
 62
4
 10
1.95391696E+01
 20
1.42618640E+02
  0
VERTEX
  8
0
 62
4
 10
1.94485343E+01
 20
1.42784228E+02
  0
VERTEX
  8
0
 62
4
 10
1.93430692E+01
 20
1.42941672E+02
  0
VERTEX
  8
0
 62
4
 10
1.92235771E+01
 20
1.43089776E+02
  0
VERTEX
  8
0
 62
4
 10
1.90909674E+01
 20
1.43227411E+02
  0
VERTEX
  8
0
 62
4
 10
1.89462492E+01
 20
1.43353530E+02
  0
VERTEX
  8
0
 62
4
 10
1.87905241E+01
 20
1.43467174E+02
  0
VERTEX
  8
0
 62
4
 10
1.86249771E+01
 20
1.43567477E+02
  0
VERTEX
  8
0
 62
4
 10
1.84508682E+01
 20
1.43653676E+02
  0
VERTEX
  8
0
 62
4
 10
1.82695224E+01
 20
1.43725116E+02
  0
VERTEX
  8
0
 62
4
 10
1.80823200E+01
 20
1.43781252E+02
  0
VERTEX
  8
0
 62
4
 10
1.78906855E+01
 20
1.43821657E+02
  0
VERTEX
  8
0
 62
4
 10
1.76960775E+01
 20
1.43846023E+02
  0
VERTEX
  8
0
 62
4
 10
1.74999771E+01
 20
1.43854166E+02
  0
VERTEX
  8
0
 62
4
 10
1.73038767E+01
 20
1.43846023E+02
  0
VERTEX
  8
0
 62
4
 10
1.71092687E+01
 20
1.43821657E+02
  0
VERTEX
  8
0
 62
4
 10
1.69176343E+01
 20
1.43781252E+02
  0
VERTEX
  8
0
 62
4
 10
1.67304318E+01
 20
1.43725116E+02
  0
VERTEX
  8
0
 62
4
 10
1.65490860E+01
 20
1.43653676E+02
  0
VERTEX
  8
0
 62
4
 10
1.63749771E+01
 20
1.43567477E+02
  0
VERTEX
  8
0
 62
4
 10
1.62094301E+01
 20
1.43467174E+02
  0
VERTEX
  8
0
 62
4
 10
1.60537050E+01
 20
1.43353530E+02
  0
VERTEX
  8
0
 62
4
 10
1.59089868E+01
 20
1.43227411E+02
  0
VERTEX
  8
0
 62
4
 10
1.57763771E+01
 20
1.43089776E+02
  0
VERTEX
  8
0
 62
4
 10
1.56568850E+01
 20
1.42941672E+02
  0
VERTEX
  8
0
 62
4
 10
1.55514199E+01
 20
1.42784228E+02
  0
VERTEX
  8
0
 62
4
 10
1.54607846E+01
 20
1.42618640E+02
  0
VERTEX
  8
0
 62
4
 10
1.53856687E+01
 20
1.42446170E+02
  0
VERTEX
  8
0
 62
4
 10
1.53266440E+01
 20
1.42268130E+02
  0
VERTEX
  8
0
 62
4
 10
1.52841597E+01
 20
1.42085875E+02
  0
VERTEX
  8
0
 62
4
 10
1.52585390E+01
 20
1.41900792E+02
  0
VERTEX
  8
0
 62
4
 10
1.52499771E+01
 20
1.41714289E+02
  0
SEQEND
  8
0
  0
POLYLINE
  8
0
 62
4
 66
1
  0
VERTEX
  8
0
 62
4
 10
8.49997711E+00
 20
1.22516172E+02
  0
VERTEX
  8
0
 62
4
 10
8.49192570E+00
 20
1.22686676E+02
  0
VERTEX
  8
0
 62
4
 10
8.46783629E+00
 20
1.22855807E+02
  0
VERTEX
  8
0
 62
4
 10
8.42790283E+00
 20
1.23022204E+02
  0
VERTEX
  8
0
 62
4
 10
8.37244685E+00
 20
1.23184527E+02
  0
VERTEX
  8
0
 62
4
 10
8.30191485E+00
 20
1.23341468E+02
  0
VERTEX
  8
0
 62
4
 10
8.21687470E+00
 20
1.23491764E+02
  0
VERTEX
  8
0
 62
4
 10
8.11801110E+00
 20
1.23634206E+02
  0
VERTEX
  8
0
 62
4
 10
8.00612004E+00
 20
1.23767646E+02
  0
VERTEX
  8
0
 62
4
 10
7.88210241E+00
 20
1.23891010E+02
  0
VERTEX
  8
0
 62
4
 10
7.74695672E+00
 20
1.24003304E+02
  0
VERTEX
  8
0
 62
4
 10
7.60177107E+00
 20
1.24103625E+02
  0
VERTEX
  8
0
 62
4
 10
7.44771444E+00
 20
1.24191164E+02
  0
VERTEX
  8
0
 62
4
 10
7.28602718E+00
 20
1.24265218E+02
  0
VERTEX
  8
0
 62
4
 10
7.11801110E+00
 20
1.24325189E+02
  0
VERTEX
  8
0
 62
4
 10
6.94501898E+00
 20
1.24370595E+02
  0
VERTEX
  8
0
 62
4
 10
6.76844364E+00
 20
1.24401070E+02
  0
VERTEX
  8
0
 62
4
 10
6.58970677E+00
 20
1.24416370E+02
  0
VERTEX
  8
0
 62
4
 10
6.41024745E+00
 20
1.24416370E+02
  0
VERTEX
  8
0
 62
4
 10
6.23151058E+00
 20
1.24401070E+02
  0
VERTEX
  8
0
 62
4
 10
6.05493525E+00
 20
1.24370595E+02
  0
VERTEX
  8
0
 62
4
 10
5.88194313E+00
 20
1.24325189E+02
  0
VERTEX
  8
0
 62
4
 10
5.71392705E+00
 20
1.24265218E+02
  0
VERTEX
  8
0
 62
4
 10
5.55223979E+00
 20
1.24191164E+02
  0
VERTEX
  8
0
 62
4
 10
5.39818315E+00
 20
1.24103625E+02
  0
VERTEX
  8
0
 62
4
 10
5.25299751E+00
 20
1.24003304E+02
  0
VERTEX
  8
0
 62
4
 10
5.11785182E+00
 20
1.23891010E+02
  0
VERTEX
  8
0
 62
4
 10
4.99383418E+00
 20
1.23767646E+02
  0
VERTEX
  8
0
 62
4
 10
4.88194312E+00
 20
1.23634206E+02
  0
VERTEX
  8
0
 62
4
 10
4.78307953E+00
 20
1.23491764E+02
  0
VERTEX
  8
0
 62
4
 10
4.69803938E+00
 20
1.23341468E+02
  0
VERTEX
  8
0
 62
4
 10
4.62750737E+00
 20
1.23184527E+02
  0
VERTEX
  8
0
 62
4
 10
4.57205139E+00
 20
1.23022204E+02
  0
VERTEX
  8
0
 62
4
 10
4.53211793E+00
 20
1.22855807E+02
  0
VERTEX
  8
0
 62
4
 10
4.50802852E+00
 20
1.22686676E+02
  0
VERTEX
  8
0
 62
4
 10
4.49997711E+00
 20
1.22516172E+02
  0
SEQEND
  8
0
  0
POLYLINE
  8
0
 62
4
 66
1
  0
VERTEX
  8
0
 62
4
 10
8.49997711E+00
 20
1.21640831E+02
  0
VERTEX
  8
0
 62
4
 10
8.49236651E+00
 20
1.21806611E+02
  0
VERTEX
  8
0
 62
4
 10
8.46959262E+00
 20
1.21971129E+02
  0
VERTEX
  8
0
 62
4
 10
8.43182876E+00
 20
1.22133134E+02
  0
VERTEX
  8
0
 62
4
 10
8.37936235E+00
 20
1.22291392E+02
  0
VERTEX
  8
0
 62
4
 10
8.31259268E+00
 20
1.22444699E+02
  0
VERTEX
  8
0
 62
4
 10
8.23202792E+00
 20
1.22591888E+02
  0
VERTEX
  8
0
 62
4
 10
8.13828120E+00
 20
1.22731838E+02
  0
VERTEX
  8
0
 62
4
 10
8.03206600E+00
 20
1.22863486E+02
  0
VERTEX
  8
0
 62
4
 10
7.91419067E+00
 20
1.22985828E+02
  0
VERTEX
  8
0
 62
4
 10
7.78555233E+00
 20
1.23097934E+02
  0
VERTEX
  8
0
 62
4
 10
7.64712998E+00
 20
1.23198951E+02
  0
VERTEX
  8
0
 62
4
 10
7.49997711E+00
 20
1.23288109E+02
  0
VERTEX
  8
0
 62
4
 10
7.34521363E+00
 20
1.23364731E+02
  0
VERTEX
  8
0
 62
4
 10
7.18401740E+00
 20
1.23428233E+02
  0
VERTEX
  8
0
 62
4
 10
7.01761520E+00
 20
1.23478131E+02
  0
VERTEX
  8
0
 62
4
 10
6.84727346E+00
 20
1.23514047E+02
  0
VERTEX
  8
0
 62
4
 10
6.67428859E+00
 20
1.23535706E+02
  0
VERTEX
  8
0
 62
4
 10
6.49997711E+00
 20
1.23542944E+02
  0
VERTEX
  8
0
 62
4
 10
6.32566562E+00
 20
1.23535706E+02
  0
VERTEX
  8
0
 62
4
 10
6.15268075E+00
 20
1.23514047E+02
  0
VERTEX
  8
0
 62
4
 10
5.98233902E+00
 20
1.23478131E+02
  0
VERTEX
  8
0
 62
4
 10
5.81593682E+00
 20
1.23428233E+02
  0
VERTEX
  8
0
 62
4
 10
5.65474058E+00
 20
1.23364731E+02
  0
VERTEX
  8
0
 62
4
 10
5.49997711E+00
 20
1.23288109E+02
  0
VERTEX
  8
0
 62
4
 10
5.35282424E+00
 20
1.23198951E+02
  0
VERTEX
  8
0
 62
4
 10
5.21440189E+00
 20
1.23097934E+02
  0
VERTEX
  8
0
 62
4
 10
5.08576355E+00
 20
1.22985828E+02
  0
VERTEX
  8
0
 62
4
 10
4.96788822E+00
 20
1.22863486E+02
  0
VERTEX
  8
0
 62
4
 10
4.86167302E+00
 20
1.22731838E+02
  0
VERTEX
  8
0
 62
4
 10
4.76792630E+00
 20
1.22591888E+02
  0
VERTEX
  8
0
 62
4
 10
4.68736153E+00
 20
1.22444699E+02
  0
VERTEX
  8
0
 62
4
 10
4.62059187E+00
 20
1.22291392E+02
  0
VERTEX
  8
0
 62
4
 10
4.56812546E+00
 20
1.22133134E+02
  0
VERTEX
  8
0
 62
4
 10
4.53036160E+00
 20
1.21971129E+02
  0
VERTEX
  8
0
 62
4
 10
4.50758771E+00
 20
1.21806611E+02
  0
VERTEX
  8
0
 62
4
 10
4.49997711E+00
 20
1.21640831E+02
  0
VERTEX
  8
0
 62
4
 10
4.50758771E+00
 20
1.21475051E+02
  0
VERTEX
  8
0
 62
4
 10
4.53036160E+00
 20
1.21310533E+02
  0
VERTEX
  8
0
 62
4
 10
4.56812546E+00
 20
1.21148528E+02
  0
VERTEX
  8
0
 62
4
 10
4.62059187E+00
 20
1.20990270E+02
  0
VERTEX
  8
0
 62
4
 10
4.68736154E+00
 20
1.20836963E+02
  0
VERTEX
  8
0
 62
4
 10
4.76792630E+00
 20
1.20689774E+02
  0
VERTEX
  8
0
 62
4
 10
4.86167302E+00
 20
1.20549824E+02
  0
VERTEX
  8
0
 62
4
 10
4.96788823E+00
 20
1.20418176E+02
  0
VERTEX
  8
0
 62
4
 10
5.08576355E+00
 20
1.20295834E+02
  0
VERTEX
  8
0
 62
4
 10
5.21440189E+00
 20
1.20183728E+02
  0
VERTEX
  8
0
 62
4
 10
5.35282424E+00
 20
1.20082711E+02
  0
VERTEX
  8
0
 62
4
 10
5.49997711E+00
 20
1.19993553E+02
  0
VERTEX
  8
0
 62
4
 10
5.65474059E+00
 20
1.19916931E+02
  0
VERTEX
  8
0
 62
4
 10
5.81593683E+00
 20
1.19853429E+02
  0
VERTEX
  8
0
 62
4
 10
5.98233902E+00
 20
1.19803531E+02
  0
VERTEX
  8
0
 62
4
 10
6.15268076E+00
 20
1.19767615E+02
  0
VERTEX
  8
0
 62
4
 10
6.32566563E+00
 20
1.19745956E+02
  0
VERTEX
  8
0
 62
4
 10
6.49997711E+00
 20
1.19738718E+02
  0
VERTEX
  8
0
 62
4
 10
6.67428860E+00
 20
1.19745956E+02
  0
VERTEX
  8
0
 62
4
 10
6.84727347E+00
 20
1.19767615E+02
  0
VERTEX
  8
0
 62
4
 10
7.01761520E+00
 20
1.19803531E+02
  0
VERTEX
  8
0
 62
4
 10
7.18401740E+00
 20
1.19853429E+02
  0
VERTEX
  8
0
 62
4
 10
7.34521364E+00
 20
1.19916931E+02
  0
VERTEX
  8
0
 62
4
 10
7.49997711E+00
 20
1.19993553E+02
  0
VERTEX
  8
0
 62
4
 10
7.64712999E+00
 20
1.20082711E+02
  0
VERTEX
  8
0
 62
4
 10
7.78555233E+00
 20
1.20183728E+02
  0
VERTEX
  8
0
 62
4
 10
7.91419068E+00
 20
1.20295834E+02
  0
VERTEX
  8
0
 62
4
 10
8.03206600E+00
 20
1.20418176E+02
  0
VERTEX
  8
0
 62
4
 10
8.13828120E+00
 20
1.20549824E+02
  0
VERTEX
  8
0
 62
4
 10
8.23202792E+00
 20
1.20689774E+02
  0
VERTEX
  8
0
 62
4
 10
8.31259269E+00
 20
1.20836963E+02
  0
VERTEX
  8
0
 62
4
 10
8.37936235E+00
 20
1.20990270E+02
  0
VERTEX
  8
0
 62
4
 10
8.43182876E+00
 20
1.21148528E+02
  0
VERTEX
  8
0
 62
4
 10
8.46959262E+00
 20
1.21310533E+02
  0
VERTEX
  8
0
 62
4
 10
8.49236651E+00
 20
1.21475051E+02
  0
VERTEX
  8
0
 62
4
 10
8.49997711E+00
 20
1.21640831E+02
  0
SEQEND
  8
0
  0
LINE
  8
0
 62
4
 10
4.49997711E+00
 20
1.21640831E+02
 11
4.49997711E+00
 21
1.22516172E+02
  0
LINE
  8
0
 62
4
 10
8.49997711E+00
 20
1.21640831E+02
 11
8.49997711E+00
 21
1.22516172E+02
  0
POLYLINE
  8
0
 62
6
 66
1
  0
VERTEX
  8
0
 62
6
 10
4.99997711E+00
 20
1.21640831E+02
  0
VERTEX
  8
0
 62
6
 10
5.00568506E+00
 20
1.21516496E+02
  0
VERTEX
  8
0
 62
6
 10
5.02276548E+00
 20
1.21393107E+02
  0
VERTEX
  8
0
 62
6
 10
5.05108837E+00
 20
1.21271604E+02
  0
VERTEX
  8
0
 62
6
 10
5.09043818E+00
 20
1.21152910E+02
  0
VERTEX
  8
0
 62
6
 10
5.14051543E+00
 20
1.21037930E+02
  0
VERTEX
  8
0
 62
6
 10
5.20093900E+00
 20
1.20927539E+02
  0
VERTEX
  8
0
 62
6
 10
5.27124904E+00
 20
1.20822576E+02
  0
VERTEX
  8
0
 62
6
 10
5.35091044E+00
 20
1.20723840E+02
  0
VERTEX
  8
0
 62
6
 10
5.43931693E+00
 20
1.20632083E+02
  0
VERTEX
  8
0
 62
6
 10
5.53579569E+00
 20
1.20548004E+02
  0
VERTEX
  8
0
 62
6
 10
5.63961245E+00
 20
1.20472241E+02
  0
VERTEX
  8
0
 62
6
 10
5.74997711E+00
 20
1.20405372E+02
  0
VERTEX
  8
0
 62
6
 10
5.86604971E+00
 20
1.20347906E+02
  0
VERTEX
  8
0
 62
6
 10
5.98694689E+00
 20
1.20300280E+02
  0
VERTEX
  8
0
 62
6
 10
6.11174854E+00
 20
1.20262856E+02
  0
VERTEX
  8
0
 62
6
 10
6.23950484E+00
 20
1.20235919E+02
  0
VERTEX
  8
0
 62
6
 10
6.36924349E+00
 20
1.20219675E+02
  0
VERTEX
  8
0
 62
6
 10
6.49997711E+00
 20
1.20214246E+02
  0
VERTEX
  8
0
 62
6
 10
6.63071072E+00
 20
1.20219675E+02
  0
VERTEX
  8
0
 62
6
 10
6.76044937E+00
 20
1.20235919E+02
  0
VERTEX
  8
0
 62
6
 10
6.88820567E+00
 20
1.20262856E+02
  0
VERTEX
  8
0
 62
6
 10
7.01300732E+00
 20
1.20300280E+02
  0
VERTEX
  8
0
 62
6
 10
7.13390450E+00
 20
1.20347906E+02
  0
VERTEX
  8
0
 62
6
 10
7.24997711E+00
 20
1.20405372E+02
  0
VERTEX
  8
0
 62
6
 10
7.36034176E+00
 20
1.20472241E+02
  0
VERTEX
  8
0
 62
6
 10
7.46415852E+00
 20
1.20548004E+02
  0
VERTEX
  8
0
 62
6
 10
7.56063728E+00
 20
1.20632083E+02
  0
VERTEX
  8
0
 62
6
 10
7.64904377E+00
 20
1.20723840E+02
  0
VERTEX
  8
0
 62
6
 10
7.72870517E+00
 20
1.20822576E+02
  0
VERTEX
  8
0
 62
6
 10
7.79901521E+00
 20
1.20927539E+02
  0
VERTEX
  8
0
 62
6
 10
7.85943879E+00
 20
1.21037930E+02
  0
VERTEX
  8
0
 62
6
 10
7.90951604E+00
 20
1.21152910E+02
  0
VERTEX
  8
0
 62
6
 10
7.94886585E+00
 20
1.21271604E+02
  0
VERTEX
  8
0
 62
6
 10
7.97718874E+00
 20
1.21393107E+02
  0
VERTEX
  8
0
 62
6
 10
7.99426916E+00
 20
1.21516496E+02
  0
VERTEX
  8
0
 62
6
 10
7.99997711E+00
 20
1.21640831E+02
  0
VERTEX
  8
0
 62
6
 10
7.99426916E+00
 20
1.21765166E+02
  0
VERTEX
  8
0
 62
6
 10
7.97718874E+00
 20
1.21888555E+02
  0
VERTEX
  8
0
 62
6
 10
7.94886585E+00
 20
1.22010058E+02
  0
VERTEX
  8
0
 62
6
 10
7.90951604E+00
 20
1.22128752E+02
  0
VERTEX
  8
0
 62
6
 10
7.85943879E+00
 20
1.22243732E+02
  0
VERTEX
  8
0
 62
6
 10
7.79901522E+00
 20
1.22354123E+02
  0
VERTEX
  8
0
 62
6
 10
7.72870518E+00
 20
1.22459086E+02
  0
VERTEX
  8
0
 62
6
 10
7.64904378E+00
 20
1.22557822E+02
  0
VERTEX
  8
0
 62
6
 10
7.56063728E+00
 20
1.22649579E+02
  0
VERTEX
  8
0
 62
6
 10
7.46415853E+00
 20
1.22733658E+02
  0
VERTEX
  8
0
 62
6
 10
7.36034177E+00
 20
1.22809421E+02
  0
VERTEX
  8
0
 62
6
 10
7.24997711E+00
 20
1.22876290E+02
  0
VERTEX
  8
0
 62
6
 10
7.13390450E+00
 20
1.22933756E+02
  0
VERTEX
  8
0
 62
6
 10
7.01300733E+00
 20
1.22981382E+02
  0
VERTEX
  8
0
 62
6
 10
6.88820568E+00
 20
1.23018806E+02
  0
VERTEX
  8
0
 62
6
 10
6.76044938E+00
 20
1.23045743E+02
  0
VERTEX
  8
0
 62
6
 10
6.63071073E+00
 20
1.23061987E+02
  0
VERTEX
  8
0
 62
6
 10
6.49997711E+00
 20
1.23067416E+02
  0
VERTEX
  8
0
 62
6
 10
6.36924350E+00
 20
1.23061987E+02
  0
VERTEX
  8
0
 62
6
 10
6.23950485E+00
 20
1.23045743E+02
  0
VERTEX
  8
0
 62
6
 10
6.11174854E+00
 20
1.23018806E+02
  0
VERTEX
  8
0
 62
6
 10
5.98694690E+00
 20
1.22981382E+02
  0
VERTEX
  8
0
 62
6
 10
5.86604972E+00
 20
1.22933756E+02
  0
VERTEX
  8
0
 62
6
 10
5.74997711E+00
 20
1.22876290E+02
  0
VERTEX
  8
0
 62
6
 10
5.63961246E+00
 20
1.22809421E+02
  0
VERTEX
  8
0
 62
6
 10
5.53579570E+00
 20
1.22733658E+02
  0
VERTEX
  8
0
 62
6
 10
5.43931694E+00
 20
1.22649579E+02
  0
VERTEX
  8
0
 62
6
 10
5.35091045E+00
 20
1.22557822E+02
  0
VERTEX
  8
0
 62
6
 10
5.27124904E+00
 20
1.22459086E+02
  0
VERTEX
  8
0
 62
6
 10
5.20093900E+00
 20
1.22354123E+02
  0
VERTEX
  8
0
 62
6
 10
5.14051543E+00
 20
1.22243732E+02
  0
VERTEX
  8
0
 62
6
 10
5.09043818E+00
 20
1.22128752E+02
  0
VERTEX
  8
0
 62
6
 10
5.05108837E+00
 20
1.22010058E+02
  0
VERTEX
  8
0
 62
6
 10
5.02276548E+00
 20
1.21888555E+02
  0
VERTEX
  8
0
 62
6
 10
5.00568506E+00
 20
1.21765166E+02
  0
VERTEX
  8
0
 62
6
 10
4.99997711E+00
 20
1.21640831E+02
  0
SEQEND
  8
0
  0
LINE
  8
0
 62
4
 10
5.49997711E+00
 20
1.21089219E+02
 11
5.49997711E+00
 21
1.22192444E+02
  0
LINE
  8
0
 62
4
 10
7.49997711E+00
 20
1.21089219E+02
 11
7.49997711E+00
 21
1.22192444E+02
  0
LINE
  8
0
 62
4
 10
6.49997711E+00
 20
1.22734546E+02
 11
5.49997711E+00
 21
1.22192444E+02
  0
LINE
  8
0
 62
4
 10
6.49997711E+00
 20
1.22734546E+02
 11
7.49997711E+00
 21
1.22192444E+02
  0
LINE
  8
0
 62
4
 10
7.49997711E+00
 20
1.21089219E+02
 11
6.49997711E+00
 21
1.20537606E+02
  0
LINE
  8
0
 62
4
 10
6.49997711E+00
 20
1.20537606E+02
 11
5.49997711E+00
 21
1.21089219E+02
  0
LINE
  8
0
 62
4
 10
-1.50002289E+00
 20
1.20537606E+02
 11
-2.50002289E+00
 21
1.21089219E+02
  0
LINE
  8
0
 62
4
 10
-5.00022888E-01
 20
1.21089219E+02
 11
-1.50002289E+00
 21
1.20537606E+02
  0
LINE
  8
0
 62
4
 10
-1.50002289E+00
 20
1.22734546E+02
 11
-5.00022888E-01
 21
1.22192444E+02
  0
LINE
  8
0
 62
4
 10
-1.50002289E+00
 20
1.22734546E+02
 11
-2.50002289E+00
 21
1.22192444E+02
  0
LINE
  8
0
 62
4
 10
-5.00022888E-01
 20
1.21089219E+02
 11
-5.00022888E-01
 21
1.22192444E+02
  0
LINE
  8
0
 62
4
 10
-2.50002289E+00
 20
1.21089219E+02
 11
-2.50002289E+00
 21
1.22192444E+02
  0
POLYLINE
  8
0
 62
6
 66
1
  0
VERTEX
  8
0
 62
6
 10
-3.00002289E+00
 20
1.21640831E+02
  0
VERTEX
  8
0
 62
6
 10
-2.99431494E+00
 20
1.21516496E+02
  0
VERTEX
  8
0
 62
6
 10
-2.97723452E+00
 20
1.21393107E+02
  0
VERTEX
  8
0
 62
6
 10
-2.94891163E+00
 20
1.21271604E+02
  0
VERTEX
  8
0
 62
6
 10
-2.90956182E+00
 20
1.21152910E+02
  0
VERTEX
  8
0
 62
6
 10
-2.85948457E+00
 20
1.21037930E+02
  0
VERTEX
  8
0
 62
6
 10
-2.79906100E+00
 20
1.20927539E+02
  0
VERTEX
  8
0
 62
6
 10
-2.72875096E+00
 20
1.20822576E+02
  0
VERTEX
  8
0
 62
6
 10
-2.64908956E+00
 20
1.20723840E+02
  0
VERTEX
  8
0
 62
6
 10
-2.56068307E+00
 20
1.20632083E+02
  0
VERTEX
  8
0
 62
6
 10
-2.46420431E+00
 20
1.20548004E+02
  0
VERTEX
  8
0
 62
6
 10
-2.36038755E+00
 20
1.20472241E+02
  0
VERTEX
  8
0
 62
6
 10
-2.25002289E+00
 20
1.20405372E+02
  0
VERTEX
  8
0
 62
6
 10
-2.13395029E+00
 20
1.20347906E+02
  0
VERTEX
  8
0
 62
6
 10
-2.01305311E+00
 20
1.20300280E+02
  0
VERTEX
  8
0
 62
6
 10
-1.88825146E+00
 20
1.20262856E+02
  0
VERTEX
  8
0
 62
6
 10
-1.76049516E+00
 20
1.20235919E+02
  0
VERTEX
  8
0
 62
6
 10
-1.63075651E+00
 20
1.20219675E+02
  0
VERTEX
  8
0
 62
6
 10
-1.50002289E+00
 20
1.20214246E+02
  0
VERTEX
  8
0
 62
6
 10
-1.36928928E+00
 20
1.20219675E+02
  0
VERTEX
  8
0
 62
6
 10
-1.23955063E+00
 20
1.20235919E+02
  0
VERTEX
  8
0
 62
6
 10
-1.11179433E+00
 20
1.20262856E+02
  0
VERTEX
  8
0
 62
6
 10
-9.86992679E-01
 20
1.20300280E+02
  0
VERTEX
  8
0
 62
6
 10
-8.66095501E-01
 20
1.20347906E+02
  0
VERTEX
  8
0
 62
6
 10
-7.50022893E-01
 20
1.20405372E+02
  0
VERTEX
  8
0
 62
6
 10
-6.39658238E-01
 20
1.20472241E+02
  0
VERTEX
  8
0
 62
6
 10
-5.35841478E-01
 20
1.20548004E+02
  0
VERTEX
  8
0
 62
6
 10
-4.39362721E-01
 20
1.20632083E+02
  0
VERTEX
  8
0
 62
6
 10
-3.50956228E-01
 20
1.20723840E+02
  0
VERTEX
  8
0
 62
6
 10
-2.71294826E-01
 20
1.20822576E+02
  0
VERTEX
  8
0
 62
6
 10
-2.00984786E-01
 20
1.20927539E+02
  0
VERTEX
  8
0
 62
6
 10
-1.40561211E-01
 20
1.21037930E+02
  0
VERTEX
  8
0
 62
6
 10
-9.04839599E-02
 20
1.21152910E+02
  0
VERTEX
  8
0
 62
6
 10
-5.11341514E-02
 20
1.21271604E+02
  0
VERTEX
  8
0
 62
6
 10
-2.28112610E-02
 20
1.21393107E+02
  0
VERTEX
  8
0
 62
6
 10
-5.73084313E-03
 20
1.21516496E+02
  0
VERTEX
  8
0
 62
6
 10
-2.28900000E-05
 20
1.21640831E+02
  0
VERTEX
  8
0
 62
6
 10
-5.73084261E-03
 20
1.21765166E+02
  0
VERTEX
  8
0
 62
6
 10
-2.28112600E-02
 20
1.21888555E+02
  0
VERTEX
  8
0
 62
6
 10
-5.11341498E-02
 20
1.22010058E+02
  0
VERTEX
  8
0
 62
6
 10
-9.04839579E-02
 20
1.22128752E+02
  0
VERTEX
  8
0
 62
6
 10
-1.40561208E-01
 20
1.22243732E+02
  0
VERTEX
  8
0
 62
6
 10
-2.00984783E-01
 20
1.22354123E+02
  0
VERTEX
  8
0
 62
6
 10
-2.71294822E-01
 20
1.22459086E+02
  0
VERTEX
  8
0
 62
6
 10
-3.50956224E-01
 20
1.22557822E+02
  0
VERTEX
  8
0
 62
6
 10
-4.39362716E-01
 20
1.22649579E+02
  0
VERTEX
  8
0
 62
6
 10
-5.35841474E-01
 20
1.22733658E+02
  0
VERTEX
  8
0
 62
6
 10
-6.39658234E-01
 20
1.22809421E+02
  0
VERTEX
  8
0
 62
6
 10
-7.50022888E-01
 20
1.22876290E+02
  0
VERTEX
  8
0
 62
6
 10
-8.66095495E-01
 20
1.22933756E+02
  0
VERTEX
  8
0
 62
6
 10
-9.86992673E-01
 20
1.22981382E+02
  0
VERTEX
  8
0
 62
6
 10
-1.11179432E+00
 20
1.23018806E+02
  0
VERTEX
  8
0
 62
6
 10
-1.23955062E+00
 20
1.23045743E+02
  0
VERTEX
  8
0
 62
6
 10
-1.36928927E+00
 20
1.23061987E+02
  0
VERTEX
  8
0
 62
6
 10
-1.50002289E+00
 20
1.23067416E+02
  0
VERTEX
  8
0
 62
6
 10
-1.63075650E+00
 20
1.23061987E+02
  0
VERTEX
  8
0
 62
6
 10
-1.76049515E+00
 20
1.23045743E+02
  0
VERTEX
  8
0
 62
6
 10
-1.88825146E+00
 20
1.23018806E+02
  0
VERTEX
  8
0
 62
6
 10
-2.01305310E+00
 20
1.22981382E+02
  0
VERTEX
  8
0
 62
6
 10
-2.13395028E+00
 20
1.22933756E+02
  0
VERTEX
  8
0
 62
6
 10
-2.25002289E+00
 20
1.22876290E+02
  0
VERTEX
  8
0
 62
6
 10
-2.36038754E+00
 20
1.22809421E+02
  0
VERTEX
  8
0
 62
6
 10
-2.46420430E+00
 20
1.22733658E+02
  0
VERTEX
  8
0
 62
6
 10
-2.56068306E+00
 20
1.22649579E+02
  0
VERTEX
  8
0
 62
6
 10
-2.64908955E+00
 20
1.22557822E+02
  0
VERTEX
  8
0
 62
6
 10
-2.72875096E+00
 20
1.22459086E+02
  0
VERTEX
  8
0
 62
6
 10
-2.79906100E+00
 20
1.22354123E+02
  0
VERTEX
  8
0
 62
6
 10
-2.85948457E+00
 20
1.22243732E+02
  0
VERTEX
  8
0
 62
6
 10
-2.90956182E+00
 20
1.22128752E+02
  0
VERTEX
  8
0
 62
6
 10
-2.94891163E+00
 20
1.22010058E+02
  0
VERTEX
  8
0
 62
6
 10
-2.97723452E+00
 20
1.21888555E+02
  0
VERTEX
  8
0
 62
6
 10
-2.99431494E+00
 20
1.21765166E+02
  0
VERTEX
  8
0
 62
6
 10
-3.00002289E+00
 20
1.21640831E+02
  0
SEQEND
  8
0
  0
LINE
  8
0
 62
4
 10
4.99977112E-01
 20
1.21640831E+02
 11
4.99977112E-01
 21
1.22516172E+02
  0
LINE
  8
0
 62
4
 10
-3.50002289E+00
 20
1.21640831E+02
 11
-3.50002289E+00
 21
1.22516172E+02
  0
POLYLINE
  8
0
 62
4
 66
1
  0
VERTEX
  8
0
 62
4
 10
4.99977110E-01
 20
1.21640831E+02
  0
VERTEX
  8
0
 62
4
 10
4.92366506E-01
 20
1.21806611E+02
  0
VERTEX
  8
0
 62
4
 10
4.69592616E-01
 20
1.21971129E+02
  0
VERTEX
  8
0
 62
4
 10
4.31828763E-01
 20
1.22133134E+02
  0
VERTEX
  8
0
 62
4
 10
3.79362351E-01
 20
1.22291392E+02
  0
VERTEX
  8
0
 62
4
 10
3.12592684E-01
 20
1.22444699E+02
  0
VERTEX
  8
0
 62
4
 10
2.32027917E-01
 20
1.22591888E+02
  0
VERTEX
  8
0
 62
4
 10
1.38281198E-01
 20
1.22731838E+02
  0
VERTEX
  8
0
 62
4
 10
3.20659958E-02
 20
1.22863486E+02
  0
VERTEX
  8
0
 62
4
 10
-8.58093281E-02
 20
1.22985828E+02
  0
VERTEX
  8
0
 62
4
 10
-2.14447671E-01
 20
1.23097934E+02
  0
VERTEX
  8
0
 62
4
 10
-3.52870018E-01
 20
1.23198951E+02
  0
VERTEX
  8
0
 62
4
 10
-5.00022891E-01
 20
1.23288109E+02
  0
VERTEX
  8
0
 62
4
 10
-6.54786367E-01
 20
1.23364731E+02
  0
VERTEX
  8
0
 62
4
 10
-8.15982604E-01
 20
1.23428233E+02
  0
VERTEX
  8
0
 62
4
 10
-9.82384801E-01
 20
1.23478131E+02
  0
VERTEX
  8
0
 62
4
 10
-1.15272654E+00
 20
1.23514047E+02
  0
VERTEX
  8
0
 62
4
 10
-1.32571141E+00
 20
1.23535706E+02
  0
VERTEX
  8
0
 62
4
 10
-1.50002289E+00
 20
1.23542944E+02
  0
VERTEX
  8
0
 62
4
 10
-1.67433438E+00
 20
1.23535706E+02
  0
VERTEX
  8
0
 62
4
 10
-1.84731925E+00
 20
1.23514047E+02
  0
VERTEX
  8
0
 62
4
 10
-2.01766098E+00
 20
1.23478131E+02
  0
VERTEX
  8
0
 62
4
 10
-2.18406318E+00
 20
1.23428233E+02
  0
VERTEX
  8
0
 62
4
 10
-2.34525942E+00
 20
1.23364731E+02
  0
VERTEX
  8
0
 62
4
 10
-2.50002289E+00
 20
1.23288109E+02
  0
VERTEX
  8
0
 62
4
 10
-2.64717576E+00
 20
1.23198951E+02
  0
VERTEX
  8
0
 62
4
 10
-2.78559811E+00
 20
1.23097934E+02
  0
VERTEX
  8
0
 62
4
 10
-2.91423645E+00
 20
1.22985828E+02
  0
VERTEX
  8
0
 62
4
 10
-3.03211178E+00
 20
1.22863486E+02
  0
VERTEX
  8
0
 62
4
 10
-3.13832698E+00
 20
1.22731838E+02
  0
VERTEX
  8
0
 62
4
 10
-3.23207370E+00
 20
1.22591888E+02
  0
VERTEX
  8
0
 62
4
 10
-3.31263847E+00
 20
1.22444699E+02
  0
VERTEX
  8
0
 62
4
 10
-3.37940813E+00
 20
1.22291392E+02
  0
VERTEX
  8
0
 62
4
 10
-3.43187454E+00
 20
1.22133134E+02
  0
VERTEX
  8
0
 62
4
 10
-3.46963840E+00
 20
1.21971129E+02
  0
VERTEX
  8
0
 62
4
 10
-3.49241229E+00
 20
1.21806611E+02
  0
VERTEX
  8
0
 62
4
 10
-3.50002289E+00
 20
1.21640831E+02
  0
VERTEX
  8
0
 62
4
 10
-3.49241229E+00
 20
1.21475051E+02
  0
VERTEX
  8
0
 62
4
 10
-3.46963840E+00
 20
1.21310533E+02
  0
VERTEX
  8
0
 62
4
 10
-3.43187454E+00
 20
1.21148528E+02
  0
VERTEX
  8
0
 62
4
 10
-3.37940813E+00
 20
1.20990270E+02
  0
VERTEX
  8
0
 62
4
 10
-3.31263846E+00
 20
1.20836963E+02
  0
VERTEX
  8
0
 62
4
 10
-3.23207370E+00
 20
1.20689774E+02
  0
VERTEX
  8
0
 62
4
 10
-3.13832698E+00
 20
1.20549824E+02
  0
VERTEX
  8
0
 62
4
 10
-3.03211177E+00
 20
1.20418176E+02
  0
VERTEX
  8
0
 62
4
 10
-2.91423645E+00
 20
1.20295834E+02
  0
VERTEX
  8
0
 62
4
 10
-2.78559811E+00
 20
1.20183728E+02
  0
VERTEX
  8
0
 62
4
 10
-2.64717576E+00
 20
1.20082711E+02
  0
VERTEX
  8
0
 62
4
 10
-2.50002289E+00
 20
1.19993553E+02
  0
VERTEX
  8
0
 62
4
 10
-2.34525941E+00
 20
1.19916931E+02
  0
VERTEX
  8
0
 62
4
 10
-2.18406317E+00
 20
1.19853429E+02
  0
VERTEX
  8
0
 62
4
 10
-2.01766098E+00
 20
1.19803531E+02
  0
VERTEX
  8
0
 62
4
 10
-1.84731924E+00
 20
1.19767615E+02
  0
VERTEX
  8
0
 62
4
 10
-1.67433437E+00
 20
1.19745956E+02
  0
VERTEX
  8
0
 62
4
 10
-1.50002289E+00
 20
1.19738718E+02
  0
VERTEX
  8
0
 62
4
 10
-1.32571140E+00
 20
1.19745956E+02
  0
VERTEX
  8
0
 62
4
 10
-1.15272653E+00
 20
1.19767615E+02
  0
VERTEX
  8
0
 62
4
 10
-9.82384795E-01
 20
1.19803531E+02
  0
VERTEX
  8
0
 62
4
 10
-8.15982599E-01
 20
1.19853429E+02
  0
VERTEX
  8
0
 62
4
 10
-6.54786362E-01
 20
1.19916931E+02
  0
VERTEX
  8
0
 62
4
 10
-5.00022886E-01
 20
1.19993553E+02
  0
VERTEX
  8
0
 62
4
 10
-3.52870013E-01
 20
1.20082711E+02
  0
VERTEX
  8
0
 62
4
 10
-2.14447667E-01
 20
1.20183728E+02
  0
VERTEX
  8
0
 62
4
 10
-8.58093241E-02
 20
1.20295834E+02
  0
VERTEX
  8
0
 62
4
 10
3.20659995E-02
 20
1.20418176E+02
  0
VERTEX
  8
0
 62
4
 10
1.38281201E-01
 20
1.20549824E+02
  0
VERTEX
  8
0
 62
4
 10
2.32027920E-01
 20
1.20689774E+02
  0
VERTEX
  8
0
 62
4
 10
3.12592686E-01
 20
1.20836963E+02
  0
VERTEX
  8
0
 62
4
 10
3.79362353E-01
 20
1.20990270E+02
  0
VERTEX
  8
0
 62
4
 10
4.31828764E-01
 20
1.21148528E+02
  0
VERTEX
  8
0
 62
4
 10
4.69592617E-01
 20
1.21310533E+02
  0
VERTEX
  8
0
 62
4
 10
4.92366507E-01
 20
1.21475051E+02
  0
VERTEX
  8
0
 62
4
 10
4.99977110E-01
 20
1.21640831E+02
  0
SEQEND
  8
0
  0
POLYLINE
  8
0
 62
4
 66
1
  0
VERTEX
  8
0
 62
4
 10
4.99977110E-01
 20
1.22516172E+02
  0
VERTEX
  8
0
 62
4
 10
4.91925698E-01
 20
1.22686676E+02
  0
VERTEX
  8
0
 62
4
 10
4.67836287E-01
 20
1.22855807E+02
  0
VERTEX
  8
0
 62
4
 10
4.27902832E-01
 20
1.23022204E+02
  0
VERTEX
  8
0
 62
4
 10
3.72446852E-01
 20
1.23184527E+02
  0
VERTEX
  8
0
 62
4
 10
3.01914846E-01
 20
1.23341468E+02
  0
VERTEX
  8
0
 62
4
 10
2.16874698E-01
 20
1.23491764E+02
  0
VERTEX
  8
0
 62
4
 10
1.18011100E-01
 20
1.23634206E+02
  0
VERTEX
  8
0
 62
4
 10
6.12004309E-03
 20
1.23767646E+02
  0
VERTEX
  8
0
 62
4
 10
-1.17897591E-01
 20
1.23891010E+02
  0
VERTEX
  8
0
 62
4
 10
-2.53043285E-01
 20
1.24003304E+02
  0
VERTEX
  8
0
 62
4
 10
-3.98228925E-01
 20
1.24103625E+02
  0
VERTEX
  8
0
 62
4
 10
-5.52285563E-01
 20
1.24191164E+02
  0
VERTEX
  8
0
 62
4
 10
-7.13972824E-01
 20
1.24265218E+02
  0
VERTEX
  8
0
 62
4
 10
-8.81988899E-01
 20
1.24325189E+02
  0
VERTEX
  8
0
 62
4
 10
-1.05498102E+00
 20
1.24370595E+02
  0
VERTEX
  8
0
 62
4
 10
-1.23155636E+00
 20
1.24401070E+02
  0
VERTEX
  8
0
 62
4
 10
-1.41029323E+00
 20
1.24416370E+02
  0
VERTEX
  8
0
 62
4
 10
-1.58975255E+00
 20
1.24416370E+02
  0
VERTEX
  8
0
 62
4
 10
-1.76848942E+00
 20
1.24401070E+02
  0
VERTEX
  8
0
 62
4
 10
-1.94506475E+00
 20
1.24370595E+02
  0
VERTEX
  8
0
 62
4
 10
-2.11805687E+00
 20
1.24325189E+02
  0
VERTEX
  8
0
 62
4
 10
-2.28607295E+00
 20
1.24265218E+02
  0
VERTEX
  8
0
 62
4
 10
-2.44776021E+00
 20
1.24191164E+02
  0
VERTEX
  8
0
 62
4
 10
-2.60181685E+00
 20
1.24103625E+02
  0
VERTEX
  8
0
 62
4
 10
-2.74700249E+00
 20
1.24003304E+02
  0
VERTEX
  8
0
 62
4
 10
-2.88214818E+00
 20
1.23891010E+02
  0
VERTEX
  8
0
 62
4
 10
-3.00616582E+00
 20
1.23767646E+02
  0
VERTEX
  8
0
 62
4
 10
-3.11805688E+00
 20
1.23634206E+02
  0
VERTEX
  8
0
 62
4
 10
-3.21692047E+00
 20
1.23491764E+02
  0
VERTEX
  8
0
 62
4
 10
-3.30196062E+00
 20
1.23341468E+02
  0
VERTEX
  8
0
 62
4
 10
-3.37249263E+00
 20
1.23184527E+02
  0
VERTEX
  8
0
 62
4
 10
-3.42794861E+00
 20
1.23022204E+02
  0
VERTEX
  8
0
 62
4
 10
-3.46788207E+00
 20
1.22855807E+02
  0
VERTEX
  8
0
 62
4
 10
-3.49197148E+00
 20
1.22686676E+02
  0
VERTEX
  8
0
 62
4
 10
-3.50002289E+00
 20
1.22516172E+02
  0
SEQEND
  8
0
  0
LINE
  8
0
  6
CENTER
 62
6
 10
-3.67000077E+01
 20
1.44897164E+02
 11
-4.63000077E+01
 21
1.44897164E+02
  0
LINE
  8
0
  6
CENTER
 62
6
 10
-4.15000076E+01
 20
1.49697164E+02
 11
-4.15000076E+01
 21
1.40097164E+02
  0
LINE
  8
0
  6
CENTER
 62
6
 10
-5.29254107E+01
 20
1.44897164E+02
 11
-6.00746045E+01
 21
1.44897164E+02
  0
LINE
  8
0
  6
CENTER
 62
6
 10
-5.65000076E+01
 20
1.48471761E+02
 11
-5.65000076E+01
 21
1.41322567E+02
  0
LINE
  8
0
 62
4
 10
-6.40000076E+01
 20
1.38872205E+02
 11
-6.55000076E+01
 21
1.37775942E+02
  0
LINE
  8
0
 62
4
 10
-6.55000076E+01
 20
1.37775942E+02
 11
-6.55000076E+01
 21
1.34921875E+02
  0
LINE
  8
0
 62
4
 10
-6.55000076E+01
 20
1.35621799E+02
 11
-6.40000076E+01
 21
1.35067979E+02
  0
LINE
  8
0
 62
4
 10
-6.55000076E+01
 20
1.34921875E+02
 11
-6.49193843E+01
 21
1.34499969E+02
  0
LINE
  8
0
 62
4
 10
-6.40000076E+01
 20
1.35067979E+02
 11
-4.05000076E+01
 21
1.35067979E+02
  0
LINE
  8
0
 62
4
 10
-6.40000076E+01
 20
1.38872205E+02
 11
-5.19103106E+01
 21
1.38872205E+02
  0
LINE
  8
0
 62
4
 10
-6.40000076E+01
 20
1.39285930E+02
 11
-5.22946399E+01
 21
1.39285930E+02
  0
LINE
  8
0
 62
4
 10
-6.40000076E+01
 20
1.34911070E+02
 11
-3.40000076E+01
 21
1.34911070E+02
  0
LINE
  8
0
 62
4
 10
-6.40000076E+01
 20
1.38872205E+02
 11
-6.40000076E+01
 21
1.34911070E+02
  0
LINE
  8
0
 62
4
 10
-6.40000076E+01
 20
1.34911070E+02
 11
-6.40000076E+01
 21
1.34499969E+02
  0
POLYLINE
  8
0
 62
4
 66
1
  0
VERTEX
  8
0
 62
4
 10
-5.31500076E+01
 20
1.42229762E+02
  0
VERTEX
  8
0
 62
4
 10
-5.31342156E+01
 20
1.41885768E+02
  0
VERTEX
  8
0
 62
4
 10
-5.30869598E+01
 20
1.41544393E+02
  0
VERTEX
  8
0
 62
4
 10
-5.30085998E+01
 20
1.41208233E+02
  0
VERTEX
  8
0
 62
4
 10
-5.28997320E+01
 20
1.40879848E+02
  0
VERTEX
  8
0
 62
4
 10
-5.27611849E+01
 20
1.40561737E+02
  0
VERTEX
  8
0
 62
4
 10
-5.25940130E+01
 20
1.40256320E+02
  0
VERTEX
  8
0
 62
4
 10
-5.23994886E+01
 20
1.39965922E+02
  0
VERTEX
  8
0
 62
4
 10
-5.21790920E+01
 20
1.39692754E+02
  0
VERTEX
  8
0
 62
4
 10
-5.19345008E+01
 20
1.39438893E+02
  0
VERTEX
  8
0
 62
4
 10
-5.16675762E+01
 20
1.39206273E+02
  0
VERTEX
  8
0
 62
4
 10
-5.13803498E+01
 20
1.38996663E+02
  0
VERTEX
  8
0
 62
4
 10
-5.10750076E+01
 20
1.38811660E+02
  0
VERTEX
  8
0
 62
4
 10
-5.07538734E+01
 20
1.38652670E+02
  0
VERTEX
  8
0
 62
4
 10
-5.04193912E+01
 20
1.38520904E+02
  0
VERTEX
  8
0
 62
4
 10
-5.00741066E+01
 20
1.38417364E+02
  0
VERTEX
  8
0
 62
4
 10
-4.97206475E+01
 20
1.38342840E+02
  0
VERTEX
  8
0
 62
4
 10
-4.93617039E+01
 20
1.38297897E+02
  0
VERTEX
  8
0
 62
4
 10
-4.90000076E+01
 20
1.38282877E+02
  0
VERTEX
  8
0
 62
4
 10
-4.86383113E+01
 20
1.38297897E+02
  0
VERTEX
  8
0
 62
4
 10
-4.82793677E+01
 20
1.38342840E+02
  0
VERTEX
  8
0
 62
4
 10
-4.79259086E+01
 20
1.38417364E+02
  0
VERTEX
  8
0
 62
4
 10
-4.75806240E+01
 20
1.38520904E+02
  0
VERTEX
  8
0
 62
4
 10
-4.72461418E+01
 20
1.38652670E+02
  0
VERTEX
  8
0
 62
4
 10
-4.69250076E+01
 20
1.38811660E+02
  0
VERTEX
  8
0
 62
4
 10
-4.66196654E+01
 20
1.38996663E+02
  0
VERTEX
  8
0
 62
4
 10
-4.63324390E+01
 20
1.39206273E+02
  0
VERTEX
  8
0
 62
4
 10
-4.60655145E+01
 20
1.39438893E+02
  0
VERTEX
  8
0
 62
4
 10
-4.58209232E+01
 20
1.39692754E+02
  0
VERTEX
  8
0
 62
4
 10
-4.56005266E+01
 20
1.39965922E+02
  0
VERTEX
  8
0
 62
4
 10
-4.54060022E+01
 20
1.40256320E+02
  0
VERTEX
  8
0
 62
4
 10
-4.52388303E+01
 20
1.40561737E+02
  0
VERTEX
  8
0
 62
4
 10
-4.51002832E+01
 20
1.40879848E+02
  0
VERTEX
  8
0
 62
4
 10
-4.49914154E+01
 20
1.41208233E+02
  0
VERTEX
  8
0
 62
4
 10
-4.49130554E+01
 20
1.41544393E+02
  0
VERTEX
  8
0
 62
4
 10
-4.48657996E+01
 20
1.41885768E+02
  0
VERTEX
  8
0
 62
4
 10
-4.48500076E+01
 20
1.42229762E+02
  0
VERTEX
  8
0
 62
4
 10
-4.48657996E+01
 20
1.42573756E+02
  0
VERTEX
  8
0
 62
4
 10
-4.49130554E+01
 20
1.42915131E+02
  0
VERTEX
  8
0
 62
4
 10
-4.49914154E+01
 20
1.43251291E+02
  0
VERTEX
  8
0
 62
4
 10
-4.51002832E+01
 20
1.43579676E+02
  0
VERTEX
  8
0
 62
4
 10
-4.52388303E+01
 20
1.43897787E+02
  0
VERTEX
  8
0
 62
4
 10
-4.54060022E+01
 20
1.44203204E+02
  0
VERTEX
  8
0
 62
4
 10
-4.56005266E+01
 20
1.44493602E+02
  0
VERTEX
  8
0
 62
4
 10
-4.58209232E+01
 20
1.44766770E+02
  0
VERTEX
  8
0
 62
4
 10
-4.60655145E+01
 20
1.45020631E+02
  0
VERTEX
  8
0
 62
4
 10
-4.63324390E+01
 20
1.45253251E+02
  0
VERTEX
  8
0
 62
4
 10
-4.66196654E+01
 20
1.45462861E+02
  0
VERTEX
  8
0
 62
4
 10
-4.69250076E+01
 20
1.45647864E+02
  0
VERTEX
  8
0
 62
4
 10
-4.72461418E+01
 20
1.45806854E+02
  0
VERTEX
  8
0
 62
4
 10
-4.75806240E+01
 20
1.45938620E+02
  0
VERTEX
  8
0
 62
4
 10
-4.79259086E+01
 20
1.46042160E+02
  0
VERTEX
  8
0
 62
4
 10
-4.82793677E+01
 20
1.46116684E+02
  0
VERTEX
  8
0
 62
4
 10
-4.86383113E+01
 20
1.46161627E+02
  0
VERTEX
  8
0
 62
4
 10
-4.90000076E+01
 20
1.46176647E+02
  0
VERTEX
  8
0
 62
4
 10
-4.93617039E+01
 20
1.46161627E+02
  0
VERTEX
  8
0
 62
4
 10
-4.97206475E+01
 20
1.46116684E+02
  0
VERTEX
  8
0
 62
4
 10
-5.00741066E+01
 20
1.46042160E+02
  0
VERTEX
  8
0
 62
4
 10
-5.04193912E+01
 20
1.45938620E+02
  0
VERTEX
  8
0
 62
4
 10
-5.07538734E+01
 20
1.45806854E+02
  0
VERTEX
  8
0
 62
4
 10
-5.10750076E+01
 20
1.45647864E+02
  0
VERTEX
  8
0
 62
4
 10
-5.13803498E+01
 20
1.45462861E+02
  0
VERTEX
  8
0
 62
4
 10
-5.16675762E+01
 20
1.45253251E+02
  0
VERTEX
  8
0
 62
4
 10
-5.19345007E+01
 20
1.45020631E+02
  0
VERTEX
  8
0
 62
4
 10
-5.21790920E+01
 20
1.44766770E+02
  0
VERTEX
  8
0
 62
4
 10
-5.23994886E+01
 20
1.44493602E+02
  0
VERTEX
  8
0
 62
4
 10
-5.25940130E+01
 20
1.44203204E+02
  0
VERTEX
  8
0
 62
4
 10
-5.27611849E+01
 20
1.43897787E+02
  0
VERTEX
  8
0
 62
4
 10
-5.28997320E+01
 20
1.43579676E+02
  0
VERTEX
  8
0
 62
4
 10
-5.30085998E+01
 20
1.43251291E+02
  0
VERTEX
  8
0
 62
4
 10
-5.30869598E+01
 20
1.42915131E+02
  0
VERTEX
  8
0
 62
4
 10
-5.31342156E+01
 20
1.42573756E+02
  0
VERTEX
  8
0
 62
4
 10
-5.31500076E+01
 20
1.42229762E+02
  0
SEQEND
  8
0
  0
ARC
  8
0
 62
4
 10
2.29293589E+01
 20
6.67969992E+01
 40
1.04392782E+02
 50
1.32228766E+02
 51
1.34907157E+02
  0
ARC
  8
0
 62
4
 10
-1.20929150E+02
 20
6.67972345E+01
 40
1.04392457E+02
 50
4.50928385E+01
 51
4.77712376E+01
  0
POLYLINE
  8
0
 62
4
 66
1
  0
VERTEX
  8
0
 62
4
 10
-5.31500076E+01
 20
1.41685892E+02
  0
VERTEX
  8
0
 62
4
 10
-5.31333009E+01
 20
1.41332096E+02
  0
VERTEX
  8
0
 62
4
 10
-5.30833154E+01
 20
1.40981149E+02
  0
VERTEX
  8
0
 62
4
 10
-5.30004535E+01
 20
1.40635875E+02
  0
VERTEX
  8
0
 62
4
 10
-5.28853823E+01
 20
1.40299056E+02
  0
VERTEX
  8
0
 62
4
 10
-5.27390284E+01
 20
1.39973403E+02
  0
VERTEX
  8
0
 62
4
 10
-5.25625701E+01
 20
1.39661538E+02
  0
VERTEX
  8
0
 62
4
 10
-5.23574281E+01
 20
1.39365971E+02
  0
VERTEX
  8
0
 62
4
 10
-5.21252542E+01
 20
1.39089084E+02
  0
VERTEX
  8
0
 62
4
 10
-5.18679176E+01
 20
1.38833104E+02
  0
VERTEX
  8
0
 62
4
 10
-5.15874903E+01
 20
1.38600093E+02
  0
VERTEX
  8
0
 62
4
 10
-5.12862301E+01
 20
1.38391928E+02
  0
VERTEX
  8
0
 62
4
 10
-5.09665626E+01
 20
1.38210283E+02
  0
VERTEX
  8
0
 62
4
 10
-5.06310615E+01
 20
1.38056622E+02
  0
VERTEX
  8
0
 62
4
 10
-5.02824281E+01
 20
1.37932182E+02
  0
VERTEX
  8
0
 62
4
 10
-4.99234695E+01
 20
1.37837964E+02
  0
VERTEX
  8
0
 62
4
 10
-4.95570757E+01
 20
1.37774728E+02
  0
VERTEX
  8
0
 62
4
 10
-4.91861967E+01
 20
1.37742982E+02
  0
VERTEX
  8
0
 62
4
 10
-4.88138186E+01
 20
1.37742982E+02
  0
VERTEX
  8
0
 62
4
 10
-4.84429396E+01
 20
1.37774728E+02
  0
VERTEX
  8
0
 62
4
 10
-4.80765457E+01
 20
1.37837964E+02
  0
VERTEX
  8
0
 62
4
 10
-4.77175871E+01
 20
1.37932182E+02
  0
VERTEX
  8
0
 62
4
 10
-4.73689537E+01
 20
1.38056622E+02
  0
VERTEX
  8
0
 62
4
 10
-4.70334527E+01
 20
1.38210283E+02
  0
VERTEX
  8
0
 62
4
 10
-4.67137851E+01
 20
1.38391928E+02
  0
VERTEX
  8
0
 62
4
 10
-4.64125249E+01
 20
1.38600093E+02
  0
VERTEX
  8
0
 62
4
 10
-4.61320976E+01
 20
1.38833104E+02
  0
VERTEX
  8
0
 62
4
 10
-4.58747610E+01
 20
1.39089084E+02
  0
VERTEX
  8
0
 62
4
 10
-4.56425871E+01
 20
1.39365971E+02
  0
VERTEX
  8
0
 62
4
 10
-4.54374451E+01
 20
1.39661538E+02
  0
VERTEX
  8
0
 62
4
 10
-4.52609868E+01
 20
1.39973403E+02
  0
VERTEX
  8
0
 62
4
 10
-4.51146329E+01
 20
1.40299056E+02
  0
VERTEX
  8
0
 62
4
 10
-4.49995617E+01
 20
1.40635875E+02
  0
VERTEX
  8
0
 62
4
 10
-4.49166998E+01
 20
1.40981149E+02
  0
VERTEX
  8
0
 62
4
 10
-4.48667143E+01
 20
1.41332096E+02
  0
VERTEX
  8
0
 62
4
 10
-4.48500076E+01
 20
1.41685892E+02
  0
SEQEND
  8
0
  0
LINE
  8
0
 62
4
 10
-5.31500076E+01
 20
1.41685892E+02
 11
-5.31500076E+01
 21
1.42229762E+02
  0
LINE
  8
0
 62
4
 10
-4.48500076E+01
 20
1.41685892E+02
 11
-4.48500076E+01
 21
1.42229762E+02
  0
POLYLINE
  8
0
 62
4
 66
1
  0
VERTEX
  8
0
 62
4
 10
-4.53000076E+01
 20
1.44897164E+02
  0
VERTEX
  8
0
 62
4
 10
-4.52847099E+01
 20
1.44573206E+02
  0
VERTEX
  8
0
 62
4
 10
-4.52389401E+01
 20
1.44251857E+02
  0
VERTEX
  8
0
 62
4
 10
-4.51630665E+01
 20
1.43935703E+02
  0
VERTEX
  8
0
 62
4
 10
-4.50577001E+01
 20
1.43627290E+02
  0
VERTEX
  8
0
 62
4
 10
-4.49236893E+01
 20
1.43329102E+02
  0
VERTEX
  8
0
 62
4
 10
-4.47621130E+01
 20
1.43043538E+02
  0
VERTEX
  8
0
 62
4
 10
-4.45742722E+01
 20
1.42772899E+02
  0
VERTEX
  8
0
 62
4
 10
-4.43616792E+01
 20
1.42519364E+02
  0
VERTEX
  8
0
 62
4
 10
-4.41260457E+01
 20
1.42284973E+02
  0
VERTEX
  8
0
 62
4
 10
-4.38692689E+01
 20
1.42071613E+02
  0
VERTEX
  8
0
 62
4
 10
-4.35934162E+01
 20
1.41881004E+02
  0
VERTEX
  8
0
 62
4
 10
-4.33007085E+01
 20
1.41714679E+02
  0
VERTEX
  8
0
 62
4
 10
-4.29935027E+01
 20
1.41573977E+02
  0
VERTEX
  8
0
 62
4
 10
-4.26742722E+01
 20
1.41460032E+02
  0
VERTEX
  8
0
 62
4
 10
-4.23455872E+01
 20
1.41373760E+02
  0
VERTEX
  8
0
 62
4
 10
-4.20100940E+01
 20
1.41315857E+02
  0
VERTEX
  8
0
 62
4
 10
-4.16704940E+01
 20
1.41286788E+02
  0
VERTEX
  8
0
 62
4
 10
-4.13295213E+01
 20
1.41286788E+02
  0
VERTEX
  8
0
 62
4
 10
-4.09899212E+01
 20
1.41315857E+02
  0
VERTEX
  8
0
 62
4
 10
-4.06544281E+01
 20
1.41373760E+02
  0
VERTEX
  8
0
 62
4
 10
-4.03257430E+01
 20
1.41460032E+02
  0
VERTEX
  8
0
 62
4
 10
-4.00065125E+01
 20
1.41573977E+02
  0
VERTEX
  8
0
 62
4
 10
-3.96993067E+01
 20
1.41714679E+02
  0
VERTEX
  8
0
 62
4
 10
-3.94065991E+01
 20
1.41881004E+02
  0
VERTEX
  8
0
 62
4
 10
-3.91307464E+01
 20
1.42071613E+02
  0
VERTEX
  8
0
 62
4
 10
-3.88739695E+01
 20
1.42284973E+02
  0
VERTEX
  8
0
 62
4
 10
-3.86383360E+01
 20
1.42519364E+02
  0
VERTEX
  8
0
 62
4
 10
-3.84257430E+01
 20
1.42772899E+02
  0
VERTEX
  8
0
 62
4
 10
-3.82379022E+01
 20
1.43043538E+02
  0
VERTEX
  8
0
 62
4
 10
-3.80763259E+01
 20
1.43329102E+02
  0
VERTEX
  8
0
 62
4
 10
-3.79423151E+01
 20
1.43627290E+02
  0
VERTEX
  8
0
 62
4
 10
-3.78369487E+01
 20
1.43935703E+02
  0
VERTEX
  8
0
 62
4
 10
-3.77610751E+01
 20
1.44251857E+02
  0
VERTEX
  8
0
 62
4
 10
-3.77153053E+01
 20
1.44573206E+02
  0
VERTEX
  8
0
 62
4
 10
-3.77000076E+01
 20
1.44897164E+02
  0
SEQEND
  8
0
  0
POLYLINE
  8
0
 62
4
 66
1
  0
VERTEX
  8
0
 62
4
 10
-4.53000076E+01
 20
1.45206181E+02
  0
VERTEX
  8
0
 62
4
 10
-4.52855475E+01
 20
1.44891199E+02
  0
VERTEX
  8
0
 62
4
 10
-4.52422771E+01
 20
1.44578614E+02
  0
VERTEX
  8
0
 62
4
 10
-4.51705258E+01
 20
1.44270805E+02
  0
VERTEX
  8
0
 62
4
 10
-4.50708396E+01
 20
1.43970115E+02
  0
VERTEX
  8
0
 62
4
 10
-4.49439772E+01
 20
1.43678832E+02
  0
VERTEX
  8
0
 62
4
 10
-4.47909042E+01
 20
1.43399174E+02
  0
VERTEX
  8
0
 62
4
 10
-4.46127854E+01
 20
1.43133267E+02
  0
VERTEX
  8
0
 62
4
 10
-4.44109765E+01
 20
1.42883137E+02
  0
VERTEX
  8
0
 62
4
 10
-4.41870134E+01
 20
1.42650687E+02
  0
VERTEX
  8
0
 62
4
 10
-4.39426005E+01
 20
1.42437685E+02
  0
VERTEX
  8
0
 62
4
 10
-4.36795981E+01
 20
1.42245753E+02
  0
VERTEX
  8
0
 62
4
 10
-4.34000076E+01
 20
1.42076352E+02
  0
VERTEX
  8
0
 62
4
 10
-4.31059570E+01
 20
1.41930771E+02
  0
VERTEX
  8
0
 62
4
 10
-4.27996842E+01
 20
1.41810118E+02
  0
VERTEX
  8
0
 62
4
 10
-4.24835200E+01
 20
1.41715311E+02
  0
VERTEX
  8
0
 62
4
 10
-4.21598707E+01
 20
1.41647071E+02
  0
VERTEX
  8
0
 62
4
 10
-4.18311994E+01
 20
1.41605919E+02
  0
VERTEX
  8
0
 62
4
 10
-4.15000076E+01
 20
1.41592166E+02
  0
VERTEX
  8
0
 62
4
 10
-4.11688158E+01
 20
1.41605919E+02
  0
VERTEX
  8
0
 62
4
 10
-4.08401445E+01
 20
1.41647071E+02
  0
VERTEX
  8
0
 62
4
 10
-4.05164952E+01
 20
1.41715311E+02
  0
VERTEX
  8
0
 62
4
 10
-4.02003311E+01
 20
1.41810118E+02
  0
VERTEX
  8
0
 62
4
 10
-3.98940582E+01
 20
1.41930771E+02
  0
VERTEX
  8
0
 62
4
 10
-3.96000076E+01
 20
1.42076352E+02
  0
VERTEX
  8
0
 62
4
 10
-3.93204171E+01
 20
1.42245753E+02
  0
VERTEX
  8
0
 62
4
 10
-3.90574147E+01
 20
1.42437685E+02
  0
VERTEX
  8
0
 62
4
 10
-3.88130018E+01
 20
1.42650687E+02
  0
VERTEX
  8
0
 62
4
 10
-3.85890387E+01
 20
1.42883137E+02
  0
VERTEX
  8
0
 62
4
 10
-3.83872298E+01
 20
1.43133267E+02
  0
VERTEX
  8
0
 62
4
 10
-3.82091110E+01
 20
1.43399174E+02
  0
VERTEX
  8
0
 62
4
 10
-3.80560380E+01
 20
1.43678832E+02
  0
VERTEX
  8
0
 62
4
 10
-3.79291756E+01
 20
1.43970115E+02
  0
VERTEX
  8
0
 62
4
 10
-3.78294894E+01
 20
1.44270805E+02
  0
VERTEX
  8
0
 62
4
 10
-3.77577381E+01
 20
1.44578614E+02
  0
VERTEX
  8
0
 62
4
 10
-3.77144677E+01
 20
1.44891199E+02
  0
VERTEX
  8
0
 62
4
 10
-3.77000076E+01
 20
1.45206181E+02
  0
VERTEX
  8
0
 62
4
 10
-3.77144677E+01
 20
1.45521163E+02
  0
VERTEX
  8
0
 62
4
 10
-3.77577381E+01
 20
1.45833748E+02
  0
VERTEX
  8
0
 62
4
 10
-3.78294894E+01
 20
1.46141557E+02
  0
VERTEX
  8
0
 62
4
 10
-3.79291756E+01
 20
1.46442247E+02
  0
VERTEX
  8
0
 62
4
 10
-3.80560380E+01
 20
1.46733530E+02
  0
VERTEX
  8
0
 62
4
 10
-3.82091110E+01
 20
1.47013188E+02
  0
VERTEX
  8
0
 62
4
 10
-3.83872298E+01
 20
1.47279095E+02
  0
VERTEX
  8
0
 62
4
 10
-3.85890387E+01
 20
1.47529225E+02
  0
VERTEX
  8
0
 62
4
 10
-3.88130018E+01
 20
1.47761675E+02
  0
VERTEX
  8
0
 62
4
 10
-3.90574147E+01
 20
1.47974677E+02
  0
VERTEX
  8
0
 62
4
 10
-3.93204171E+01
 20
1.48166609E+02
  0
VERTEX
  8
0
 62
4
 10
-3.96000076E+01
 20
1.48336010E+02
  0
VERTEX
  8
0
 62
4
 10
-3.98940582E+01
 20
1.48481591E+02
  0
VERTEX
  8
0
 62
4
 10
-4.02003310E+01
 20
1.48602244E+02
  0
VERTEX
  8
0
 62
4
 10
-4.05164952E+01
 20
1.48697051E+02
  0
VERTEX
  8
0
 62
4
 10
-4.08401445E+01
 20
1.48765291E+02
  0
VERTEX
  8
0
 62
4
 10
-4.11688158E+01
 20
1.48806443E+02
  0
VERTEX
  8
0
 62
4
 10
-4.15000076E+01
 20
1.48820196E+02
  0
VERTEX
  8
0
 62
4
 10
-4.18311994E+01
 20
1.48806443E+02
  0
VERTEX
  8
0
 62
4
 10
-4.21598707E+01
 20
1.48765291E+02
  0
VERTEX
  8
0
 62
4
 10
-4.24835200E+01
 20
1.48697051E+02
  0
VERTEX
  8
0
 62
4
 10
-4.27996842E+01
 20
1.48602244E+02
  0
VERTEX
  8
0
 62
4
 10
-4.31059570E+01
 20
1.48481591E+02
  0
VERTEX
  8
0
 62
4
 10
-4.34000076E+01
 20
1.48336010E+02
  0
VERTEX
  8
0
 62
4
 10
-4.36795981E+01
 20
1.48166609E+02
  0
VERTEX
  8
0
 62
4
 10
-4.39426005E+01
 20
1.47974677E+02
  0
VERTEX
  8
0
 62
4
 10
-4.41870134E+01
 20
1.47761675E+02
  0
VERTEX
  8
0
 62
4
 10
-4.44109765E+01
 20
1.47529225E+02
  0
VERTEX
  8
0
 62
4
 10
-4.46127854E+01
 20
1.47279095E+02
  0
VERTEX
  8
0
 62
4
 10
-4.47909042E+01
 20
1.47013188E+02
  0
VERTEX
  8
0
 62
4
 10
-4.49439772E+01
 20
1.46733530E+02
  0
VERTEX
  8
0
 62
4
 10
-4.50708396E+01
 20
1.46442247E+02
  0
VERTEX
  8
0
 62
4
 10
-4.51705258E+01
 20
1.46141557E+02
  0
VERTEX
  8
0
 62
4
 10
-4.52422771E+01
 20
1.45833748E+02
  0
VERTEX
  8
0
 62
4
 10
-4.52855475E+01
 20
1.45521163E+02
  0
VERTEX
  8
0
 62
4
 10
-4.53000076E+01
 20
1.45206181E+02
  0
SEQEND
  8
0
  0
LINE
  8
0
 62
4
 10
-4.53000077E+01
 20
1.44897164E+02
 11
-4.53000077E+01
 21
1.45206181E+02
  0
LINE
  8
0
 62
4
 10
-3.77000077E+01
 20
1.44897164E+02
 11
-3.77000077E+01
 21
1.45206181E+02
  0
POLYLINE
  8
0
 62
4
 66
1
  0
VERTEX
  8
0
 62
4
 10
-4.49000076E+01
 20
1.45206181E+02
  0
VERTEX
  8
0
 62
4
 10
-4.48863202E+01
 20
1.44916324E+02
  0
VERTEX
  8
0
 62
4
 10
-4.48453682E+01
 20
1.44628801E+02
  0
VERTEX
  8
0
 62
4
 10
-4.47774814E+01
 20
1.44345926E+02
  0
VERTEX
  8
0
 62
4
 10
-4.46832062E+01
 20
1.44069978E+02
  0
VERTEX
  8
0
 62
4
 10
-4.45633018E+01
 20
1.43803178E+02
  0
VERTEX
  8
0
 62
4
 10
-4.44187335E+01
 20
1.43547674E+02
  0
VERTEX
  8
0
 62
4
 10
-4.42506654E+01
 20
1.43305523E+02
  0
VERTEX
  8
0
 62
4
 10
-4.40604506E+01
 20
1.43078676E+02
  0
VERTEX
  8
0
 62
4
 10
-4.38496206E+01
 20
1.42868957E+02
  0
VERTEX
  8
0
 62
4
 10
-4.36198730E+01
 20
1.42678057E+02
  0
VERTEX
  8
0
 62
4
 10
-4.33730574E+01
 20
1.42507511E+02
  0
VERTEX
  8
0
 62
4
 10
-4.31111611E+01
 20
1.42358694E+02
  0
VERTEX
  8
0
 62
4
 10
-4.28362927E+01
 20
1.42232803E+02
  0
VERTEX
  8
0
 62
4
 10
-4.25506654E+01
 20
1.42130852E+02
  0
VERTEX
  8
0
 62
4
 10
-4.22565788E+01
 20
1.42053662E+02
  0
VERTEX
  8
0
 62
4
 10
-4.19564007E+01
 20
1.42001854E+02
  0
VERTEX
  8
0
 62
4
 10
-4.16525480E+01
 20
1.41975845E+02
  0
VERTEX
  8
0
 62
4
 10
-4.13474672E+01
 20
1.41975845E+02
  0
VERTEX
  8
0
 62
4
 10
-4.10436145E+01
 20
1.42001854E+02
  0
VERTEX
  8
0
 62
4
 10
-4.07434364E+01
 20
1.42053662E+02
  0
VERTEX
  8
0
 62
4
 10
-4.04493498E+01
 20
1.42130852E+02
  0
VERTEX
  8
0
 62
4
 10
-4.01637225E+01
 20
1.42232803E+02
  0
VERTEX
  8
0
 62
4
 10
-3.98888542E+01
 20
1.42358694E+02
  0
VERTEX
  8
0
 62
4
 10
-3.96269579E+01
 20
1.42507511E+02
  0
VERTEX
  8
0
 62
4
 10
-3.93801423E+01
 20
1.42678057E+02
  0
VERTEX
  8
0
 62
4
 10
-3.91503946E+01
 20
1.42868957E+02
  0
VERTEX
  8
0
 62
4
 10
-3.89395646E+01
 20
1.43078675E+02
  0
VERTEX
  8
0
 62
4
 10
-3.87493498E+01
 20
1.43305523E+02
  0
VERTEX
  8
0
 62
4
 10
-3.85812817E+01
 20
1.43547674E+02
  0
VERTEX
  8
0
 62
4
 10
-3.84367134E+01
 20
1.43803178E+02
  0
VERTEX
  8
0
 62
4
 10
-3.83168090E+01
 20
1.44069978E+02
  0
VERTEX
  8
0
 62
4
 10
-3.82225339E+01
 20
1.44345926E+02
  0
VERTEX
  8
0
 62
4
 10
-3.81546470E+01
 20
1.44628801E+02
  0
VERTEX
  8
0
 62
4
 10
-3.81136950E+01
 20
1.44916324E+02
  0
VERTEX
  8
0
 62
4
 10
-3.81000076E+01
 20
1.45206181E+02
  0
SEQEND
  8
0
  0
LINE
  8
0
 62
4
 10
-3.81000076E+01
 20
1.45604562E+02
 11
-3.81000076E+01
 21
1.45206181E+02
  0
LINE
  8
0
 62
4
 10
-4.49000076E+01
 20
1.45206181E+02
 11
-4.49000076E+01
 21
1.45604562E+02
  0
POLYLINE
  8
0
 62
4
 66
1
  0
VERTEX
  8
0
 62
4
 10
-4.49000076E+01
 20
1.45604562E+02
  0
VERTEX
  8
0
 62
4
 10
-4.48870696E+01
 20
1.45322736E+02
  0
VERTEX
  8
0
 62
4
 10
-4.48483540E+01
 20
1.45043055E+02
  0
VERTEX
  8
0
 62
4
 10
-4.47841554E+01
 20
1.44767647E+02
  0
VERTEX
  8
0
 62
4
 10
-4.46949625E+01
 20
1.44498608E+02
  0
VERTEX
  8
0
 62
4
 10
-4.45814541E+01
 20
1.44237987E+02
  0
VERTEX
  8
0
 62
4
 10
-4.44444940E+01
 20
1.43987766E+02
  0
VERTEX
  8
0
 62
4
 10
-4.42851246E+01
 20
1.43749850E+02
  0
VERTEX
  8
0
 62
4
 10
-4.41045587E+01
 20
1.43526049E+02
  0
VERTEX
  8
0
 62
4
 10
-4.39041707E+01
 20
1.43318067E+02
  0
VERTEX
  8
0
 62
4
 10
-4.36854855E+01
 20
1.43127487E+02
  0
VERTEX
  8
0
 62
4
 10
-4.34501675E+01
 20
1.42955758E+02
  0
VERTEX
  8
0
 62
4
 10
-4.32000076E+01
 20
1.42804189E+02
  0
VERTEX
  8
0
 62
4
 10
-4.29369097E+01
 20
1.42673932E+02
  0
VERTEX
  8
0
 62
4
 10
-4.26628761E+01
 20
1.42565979E+02
  0
VERTEX
  8
0
 62
4
 10
-4.23799924E+01
 20
1.42481152E+02
  0
VERTEX
  8
0
 62
4
 10
-4.20904114E+01
 20
1.42420095E+02
  0
VERTEX
  8
0
 62
4
 10
-4.17963371E+01
 20
1.42383275E+02
  0
VERTEX
  8
0
 62
4
 10
-4.15000076E+01
 20
1.42370970E+02
  0
VERTEX
  8
0
 62
4
 10
-4.12036781E+01
 20
1.42383275E+02
  0
VERTEX
  8
0
 62
4
 10
-4.09096038E+01
 20
1.42420095E+02
  0
VERTEX
  8
0
 62
4
 10
-4.06200228E+01
 20
1.42481152E+02
  0
VERTEX
  8
0
 62
4
 10
-4.03371391E+01
 20
1.42565979E+02
  0
VERTEX
  8
0
 62
4
 10
-4.00631055E+01
 20
1.42673932E+02
  0
VERTEX
  8
0
 62
4
 10
-3.98000076E+01
 20
1.42804189E+02
  0
VERTEX
  8
0
 62
4
 10
-3.95498477E+01
 20
1.42955758E+02
  0
VERTEX
  8
0
 62
4
 10
-3.93145297E+01
 20
1.43127487E+02
  0
VERTEX
  8
0
 62
4
 10
-3.90958445E+01
 20
1.43318067E+02
  0
VERTEX
  8
0
 62
4
 10
-3.88954565E+01
 20
1.43526049E+02
  0
VERTEX
  8
0
 62
4
 10
-3.87148906E+01
 20
1.43749850E+02
  0
VERTEX
  8
0
 62
4
 10
-3.85555212E+01
 20
1.43987766E+02
  0
VERTEX
  8
0
 62
4
 10
-3.84185611E+01
 20
1.44237987E+02
  0
VERTEX
  8
0
 62
4
 10
-3.83050527E+01
 20
1.44498608E+02
  0
VERTEX
  8
0
 62
4
 10
-3.82158598E+01
 20
1.44767647E+02
  0
VERTEX
  8
0
 62
4
 10
-3.81516612E+01
 20
1.45043055E+02
  0
VERTEX
  8
0
 62
4
 10
-3.81129456E+01
 20
1.45322736E+02
  0
VERTEX
  8
0
 62
4
 10
-3.81000076E+01
 20
1.45604562E+02
  0
VERTEX
  8
0
 62
4
 10
-3.81129456E+01
 20
1.45886388E+02
  0
VERTEX
  8
0
 62
4
 10
-3.81516612E+01
 20
1.46166069E+02
  0
VERTEX
  8
0
 62
4
 10
-3.82158598E+01
 20
1.46441477E+02
  0
VERTEX
  8
0
 62
4
 10
-3.83050527E+01
 20
1.46710516E+02
  0
VERTEX
  8
0
 62
4
 10
-3.84185611E+01
 20
1.46971137E+02
  0
VERTEX
  8
0
 62
4
 10
-3.85555212E+01
 20
1.47221358E+02
  0
VERTEX
  8
0
 62
4
 10
-3.87148906E+01
 20
1.47459274E+02
  0
VERTEX
  8
0
 62
4
 10
-3.88954565E+01
 20
1.47683075E+02
  0
VERTEX
  8
0
 62
4
 10
-3.90958445E+01
 20
1.47891057E+02
  0
VERTEX
  8
0
 62
4
 10
-3.93145297E+01
 20
1.48081637E+02
  0
VERTEX
  8
0
 62
4
 10
-3.95498477E+01
 20
1.48253366E+02
  0
VERTEX
  8
0
 62
4
 10
-3.98000076E+01
 20
1.48404935E+02
  0
VERTEX
  8
0
 62
4
 10
-4.00631055E+01
 20
1.48535192E+02
  0
VERTEX
  8
0
 62
4
 10
-4.03371391E+01
 20
1.48643145E+02
  0
VERTEX
  8
0
 62
4
 10
-4.06200228E+01
 20
1.48727972E+02
  0
VERTEX
  8
0
 62
4
 10
-4.09096038E+01
 20
1.48789029E+02
  0
VERTEX
  8
0
 62
4
 10
-4.12036781E+01
 20
1.48825849E+02
  0
VERTEX
  8
0
 62
4
 10
-4.15000076E+01
 20
1.48838154E+02
  0
VERTEX
  8
0
 62
4
 10
-4.17963371E+01
 20
1.48825849E+02
  0
VERTEX
  8
0
 62
4
 10
-4.20904114E+01
 20
1.48789029E+02
  0
VERTEX
  8
0
 62
4
 10
-4.23799924E+01
 20
1.48727972E+02
  0
VERTEX
  8
0
 62
4
 10
-4.26628761E+01
 20
1.48643145E+02
  0
VERTEX
  8
0
 62
4
 10
-4.29369097E+01
 20
1.48535192E+02
  0
VERTEX
  8
0
 62
4
 10
-4.32000076E+01
 20
1.48404935E+02
  0
VERTEX
  8
0
 62
4
 10
-4.34501675E+01
 20
1.48253366E+02
  0
VERTEX
  8
0
 62
4
 10
-4.36854855E+01
 20
1.48081637E+02
  0
VERTEX
  8
0
 62
4
 10
-4.39041707E+01
 20
1.47891057E+02
  0
VERTEX
  8
0
 62
4
 10
-4.41045587E+01
 20
1.47683075E+02
  0
VERTEX
  8
0
 62
4
 10
-4.42851246E+01
 20
1.47459274E+02
  0
VERTEX
  8
0
 62
4
 10
-4.44444940E+01
 20
1.47221358E+02
  0
VERTEX
  8
0
 62
4
 10
-4.45814541E+01
 20
1.46971137E+02
  0
VERTEX
  8
0
 62
4
 10
-4.46949625E+01
 20
1.46710516E+02
  0
VERTEX
  8
0
 62
4
 10
-4.47841554E+01
 20
1.46441477E+02
  0
VERTEX
  8
0
 62
4
 10
-4.48483540E+01
 20
1.46166069E+02
  0
VERTEX
  8
0
 62
4
 10
-4.48870696E+01
 20
1.45886388E+02
  0
VERTEX
  8
0
 62
4
 10
-4.49000076E+01
 20
1.45604562E+02
  0
SEQEND
  8
0
  0
ARC
  8
0
 62
4
 10
2.73145117E+01
 20
7.35510205E+01
 40
9.98837386E+01
 50
1.32163454E+02
 51
1.34962547E+02
  0
ARC
  8
0
 62
4
 10
-1.10314527E+02
 20
7.35510205E+01
 40
9.98837386E+01
 50
4.50374523E+01
 51
4.78365464E+01
  0
LINE
  8
0
 62
4
 10
-4.57053754E+01
 20
1.39285930E+02
 11
-3.40000076E+01
 21
1.39285930E+02
  0
LINE
  8
0
 62
4
 10
-4.60897047E+01
 20
1.38872205E+02
 11
-4.05000076E+01
 21
1.38872205E+02
  0
LINE
  8
0
 62
4
 10
2.65000076E+01
 20
1.37775942E+02
 11
2.65000076E+01
 21
1.34921875E+02
  0
LINE
  8
0
 62
4
 10
2.50000076E+01
 20
1.38872205E+02
 11
2.65000076E+01
 21
1.37775942E+02
  0
LINE
  8
0
 62
4
 10
2.49999771E+01
 20
1.37636138E+02
 11
2.65000076E+01
 21
1.37076018E+02
  0
LINE
  8
0
 62
4
 10
2.65000076E+01
 20
1.34921875E+02
 11
2.49999771E+01
 21
1.33831889E+02
  0
LINE
  8
0
 62
7
 10
-5.00002289E+00
 20
1.34499969E+02
 11
-7.50000076E+01
 21
1.34499969E+02
  0
LINE
  8
0
 62
7
 10
-5.00002289E+00
 20
1.32099976E+02
 11
-7.50000076E+01
 21
1.32099976E+02
  0
LINE
  8
0
 62
7
 10
-5.00002289E+00
 20
1.24899963E+02
 11
-7.50000076E+01
 21
1.24899963E+02
  0
LINE
  8
0
  6
CENTER
 62
2
 10
-4.50999825E+02
 20
6.10016174E+01
 11
-4.50999825E+02
 21
8.35345917E+01
  0
LINE
  8
0
  6
CENTER
 62
2
 10
-4.61233284E+02
 20
7.24999695E+01
 11
-4.38954872E+02
 21
7.24999695E+01
  0
LINE
  8
0
  6
CENTER
 62
2
 10
-5.19029678E+02
 20
7.24999695E+01
 11
-4.96496727E+02
 21
7.24999695E+01
  0
LINE
  8
0
  6
CENTER
 62
2
 10
-5.06999962E+02
 20
8.25604782E+01
 11
-5.06999962E+02
 21
6.10041046E+01
  0
LINE
  8
0
  6
CENTER
 62
2
 10
-5.07000038E+02
 20
1.40185287E+02
 11
-5.07000038E+02
 21
1.17270401E+02
  0
LINE
  8
0
  6
CENTER
 62
2
 10
-4.96369423E+02
 20
1.28500061E+02
 11
-5.18902382E+02
 21
1.28500061E+02
  0
LINE
  8
0
  6
CENTER
 62
2
 10
-4.50999901E+02
 20
1.17270401E+02
 11
-4.50999901E+02
 21
1.40057983E+02
  0
LINE
  8
0
  6
CENTER
 62
2
 10
-4.38954872E+02
 20
1.28500061E+02
 11
-4.61105949E+02
 21
1.28500061E+02
  0
LINE
  8
0
  6
CENTER
 62
2
 10
-4.78999962E+02
 20
1.58577728E+02
 11
-4.78999962E+02
 21
5.03929443E+01
  0
LINE
  8
0
 62
7
 10
-4.30499962E+02
 20
1.06499985E+02
 11
-4.24000023E+02
 21
1.06499985E+02
  0
LINE
  8
0
 62
7
 10
-5.27499840E+02
 20
1.00500000E+02
 11
-5.33307030E+02
 21
1.00500000E+02
  0
LINE
  8
0
 62
7
 10
-5.25999901E+02
 20
1.08499954E+02
 11
-5.27499840E+02
 21
1.08499954E+02
  0
LINE
  8
0
  6
CENTER
 62
2
 10
-5.38957298E+02
 20
1.00500000E+02
 11
-4.18613731E+02
 21
1.00500000E+02
  0
LINE
  8
0
 62
7
 10
-5.25999901E+02
 20
9.24999695E+01
 11
-5.27499840E+02
 21
9.24999695E+01
  0
LINE
  8
0
 62
7
 10
-5.27499840E+02
 20
1.06499985E+02
 11
-5.33999840E+02
 21
1.06499985E+02
  0
LINE
  8
0
 62
7
 10
-4.30499962E+02
 20
1.00500000E+02
 11
-4.24692772E+02
 21
1.00500000E+02
  0
LINE
  8
0
 62
7
 10
-4.31999901E+02
 20
9.24999695E+01
 11
-4.30499962E+02
 21
9.24999695E+01
  0
LINE
  8
0
 62
7
 10
-4.30499870E+02
 20
9.25000076E+01
 11
-4.30499870E+02
 21
1.08499992E+02
  0
LINE
  8
0
 62
7
 10
-4.23999931E+02
 20
9.44999771E+01
 11
-4.23999931E+02
 21
1.06499985E+02
  0
LINE
  8
0
 62
7
 10
-4.31999901E+02
 20
1.08499954E+02
 11
-4.30499962E+02
 21
1.08499954E+02
  0
LINE
  8
0
 62
7
 10
-5.33999840E+02
 20
9.44999771E+01
 11
-5.33999840E+02
 21
1.06499985E+02
  0
LINE
  8
0
 62
7
 10
-5.35999962E+02
 20
9.72000198E+01
 11
-5.35999962E+02
 21
1.03799980E+02
  0
LINE
  8
0
 62
7
 10
-4.21999901E+02
 20
9.72000198E+01
 11
-4.21999901E+02
 21
1.03799980E+02
  0
LINE
  8
0
 62
7
 10
-5.27499840E+02
 20
9.45000153E+01
 11
-5.33999840E+02
 21
9.45000153E+01
  0
LINE
  8
0
 62
2
 10
-5.33999840E+02
 20
9.71999817E+01
 11
-5.35999901E+02
 21
9.71999817E+01
  0
LINE
  8
0
 62
7
 10
-5.33999840E+02
 20
1.04499939E+02
 11
-5.35299889E+02
 21
1.04499939E+02
  0
LINE
  8
0
 62
7
 10
-5.33999840E+02
 20
9.64999847E+01
 11
-5.35299889E+02
 21
9.64999847E+01
  0
LINE
  8
0
 62
7
 10
-4.23999870E+02
 20
9.64999847E+01
 11
-4.22700035E+02
 21
9.64999847E+01
  0
LINE
  8
0
 62
7
 10
-4.23999870E+02
 20
1.04499939E+02
 11
-4.22700035E+02
 21
1.04499939E+02
  0
LINE
  8
0
 62
2
 10
-4.23999870E+02
 20
9.71999817E+01
 11
-4.21999962E+02
 21
9.71999817E+01
  0
LINE
  8
0
 62
2
 10
-4.23999870E+02
 20
1.03799942E+02
 11
-4.21999962E+02
 21
1.03799942E+02
  0
LINE
  8
0
 62
7
 10
-4.22699974E+02
 20
9.65000229E+01
 11
-4.22699974E+02
 21
1.04499977E+02
  0
LINE
  8
0
 62
7
 10
-5.27499779E+02
 20
9.25000076E+01
 11
-5.27499779E+02
 21
1.08499992E+02
  0
LINE
  8
0
 62
7
 10
-4.22699560E+02
 20
9.64997159E+01
 11
-4.21999574E+02
 21
9.71997015E+01
  0
LINE
  8
0
 62
7
 10
-4.21999833E+02
 20
1.03799954E+02
 11
-4.22699861E+02
 21
1.04499983E+02
  0
LINE
  8
0
 62
7
 10
-5.35299889E+02
 20
9.65000229E+01
 11
-5.35299889E+02
 21
1.04499977E+02
  0
LINE
  8
0
 62
2
 10
-5.33999840E+02
 20
1.03799942E+02
 11
-5.35999901E+02
 21
1.03799942E+02
  0
LINE
  8
0
 62
7
 10
-5.35299901E+02
 20
9.65000977E+01
 11
-5.35999930E+02
 21
9.72001265E+01
  0
LINE
  8
0
 62
7
 10
-5.35999586E+02
 20
1.03799689E+02
 11
-5.35299578E+02
 21
1.04499696E+02
  0
LINE
  8
0
 62
7
 10
-4.30499962E+02
 20
9.45000153E+01
 11
-4.24000023E+02
 21
9.45000153E+01
  0
LINE
  8
0
 62
7
 10
-5.21999901E+02
 20
1.47500000E+02
 11
-4.35999840E+02
 21
1.47500000E+02
  0
LINE
  8
0
 62
7
 10
-4.31999901E+02
 20
1.43499985E+02
 11
-4.31999901E+02
 21
5.74999924E+01
  0
LINE
  8
0
 62
7
 10
-5.21999901E+02
 20
5.34999924E+01
 11
-4.35999840E+02
 21
5.34999924E+01
  0
LINE
  8
0
 62
7
 10
-5.25999901E+02
 20
1.43499985E+02
 11
-5.25999901E+02
 21
5.74999924E+01
  0
LINE
  8
0
  6
CENTER
 62
2
 10
-4.57483971E+02
 20
6.54999619E+01
 11
-4.28947380E+02
 21
6.54999619E+01
  0
LINE
  8
0
  6
CENTER
 62
2
 10
-4.43999962E+02
 20
7.95776291E+01
 11
-4.43999962E+02
 21
5.03929443E+01
  0
LINE
  8
0
 62
7
 10
-4.38999864E+02
 20
6.83867468E+01
 11
-4.43999839E+02
 21
7.12734726E+01
  0
LINE
  8
0
 62
7
 10
-4.43999840E+02
 20
7.12733917E+01
 11
-4.48999815E+02
 21
6.83866660E+01
  0
LINE
  8
0
 62
7
 10
-4.48999962E+02
 20
6.26132507E+01
 11
-4.48999962E+02
 21
6.83867340E+01
  0
LINE
  8
0
 62
7
 10
-4.43999778E+02
 20
5.97264256E+01
 11
-4.48999832E+02
 21
6.26131971E+01
  0
LINE
  8
0
 62
7
 10
-4.38999874E+02
 20
6.26132240E+01
 11
-4.43999927E+02
 21
5.97264525E+01
  0
LINE
  8
0
 62
7
 10
-4.38999931E+02
 20
6.83867340E+01
 11
-4.38999931E+02
 21
6.26132507E+01
  0
LINE
  8
0
  6
CENTER
 62
2
 10
-5.00515831E+02
 20
6.54999619E+01
 11
-5.29052330E+02
 21
6.54999619E+01
  0
LINE
  8
0
  6
CENTER
 62
2
 10
-5.13999840E+02
 20
7.95776291E+01
 11
-5.13999840E+02
 21
5.03929443E+01
  0
LINE
  8
0
 62
7
 10
-5.18999908E+02
 20
6.83867269E+01
 11
-5.13999934E+02
 21
7.12734526E+01
  0
LINE
  8
0
 62
7
 10
-5.13999924E+02
 20
7.12735479E+01
 11
-5.08999817E+02
 21
6.83867458E+01
  0
LINE
  8
0
 62
7
 10
-5.08999840E+02
 20
6.26132507E+01
 11
-5.08999840E+02
 21
6.83867340E+01
  0
LINE
  8
0
 62
7
 10
-5.13999794E+02
 20
5.97263630E+01
 11
-5.08999793E+02
 21
6.26131040E+01
  0
LINE
  8
0
 62
7
 10
-5.18999918E+02
 20
6.26132724E+01
 11
-5.13999916E+02
 21
5.97265314E+01
  0
LINE
  8
0
 62
7
 10
-5.18999840E+02
 20
6.83867340E+01
 11
-5.18999840E+02
 21
6.26132507E+01
  0
LINE
  8
0
  6
CENTER
 62
2
 10
-4.57483971E+02
 20
1.35499954E+02
 11
-4.28947380E+02
 21
1.35499954E+02
  0
LINE
  8
0
  6
CENTER
 62
2
 10
-4.43999962E+02
 20
1.21422363E+02
 11
-4.43999962E+02
 21
1.50606995E+02
  0
LINE
  8
0
 62
7
 10
-4.38999824E+02
 20
1.32613276E+02
 11
-4.43999878E+02
 21
1.29726505E+02
  0
LINE
  8
0
 62
7
 10
-4.43999907E+02
 20
1.29726524E+02
 11
-4.48999961E+02
 21
1.32613295E+02
  0
LINE
  8
0
 62
7
 10
-4.48999962E+02
 20
1.38386734E+02
 11
-4.48999962E+02
 21
1.32613220E+02
  0
LINE
  8
0
 62
7
 10
-4.43999885E+02
 20
1.41273425E+02
 11
-4.48999859E+02
 21
1.38386699E+02
  0
LINE
  8
0
 62
7
 10
-4.38999857E+02
 20
1.38386775E+02
 11
-4.43999911E+02
 21
1.41273547E+02
  0
LINE
  8
0
 62
7
 10
-4.38999931E+02
 20
1.32613220E+02
 11
-4.38999931E+02
 21
1.38386734E+02
  0
LINE
  8
0
  6
CENTER
 62
2
 10
-5.00515831E+02
 20
1.35499954E+02
 11
-5.29052330E+02
 21
1.35499954E+02
  0
LINE
  8
0
  6
CENTER
 62
2
 10
-5.13999840E+02
 20
1.21422363E+02
 11
-5.13999840E+02
 21
1.50606995E+02
  0
LINE
  8
0
 62
7
 10
-5.18999941E+02
 20
1.32613309E+02
 11
-5.13999940E+02
 21
1.29726568E+02
  0
LINE
  8
0
 62
7
 10
-5.13999862E+02
 20
1.29726559E+02
 11
-5.08999887E+02
 21
1.32613284E+02
  0
LINE
  8
0
 62
7
 10
-5.08999840E+02
 20
1.38386734E+02
 11
-5.08999840E+02
 21
1.32613220E+02
  0
LINE
  8
0
 62
7
 10
-5.13999970E+02
 20
1.41273545E+02
 11
-5.08999917E+02
 21
1.38386774E+02
  0
LINE
  8
0
 62
7
 10
-5.18999878E+02
 20
1.38386874E+02
 11
-5.13999851E+02
 21
1.41273630E+02
  0
LINE
  8
0
 62
7
 10
-5.18999840E+02
 20
1.32613220E+02
 11
-5.18999840E+02
 21
1.38386734E+02
  0
LINE
  8
0
 62
7
 10
-4.69999807E+02
 20
1.54000134E+02
 11
-4.68999828E+02
 21
1.53000155E+02
  0
LINE
  8
0
 62
7
 10
-4.88999763E+02
 20
1.52999853E+02
 11
-4.87999740E+02
 21
1.53999875E+02
  0
LINE
  8
0
 62
7
 10
-4.87999901E+02
 20
1.53999985E+02
 11
-4.69999901E+02
 21
1.53999985E+02
  0
LINE
  8
0
 62
7
 10
-4.88999962E+02
 20
1.52999954E+02
 11
-4.88999962E+02
 21
1.47500000E+02
  0
LINE
  8
0
 62
7
 10
-4.68999962E+02
 20
1.52999954E+02
 11
-4.68999962E+02
 21
1.47500000E+02
  0
LINE
  8
0
 62
7
 10
-4.88999962E+02
 20
1.53000000E+02
 11
-4.68999962E+02
 21
1.53000000E+02
  0
ARC
  8
0
 62
7
 10
-4.30840752E+02
 20
1.03499954E+02
 40
6.84084702E+00
 50
3.33989137E+02
 51
2.60107913E+01
  0
ARC
  8
0
 62
7
 10
-4.30840752E+02
 20
9.74999695E+01
 40
6.84088802E+00
 50
3.33989277E+02
 51
2.60106513E+01
  0
ARC
  8
0
 62
7
 10
-5.27159019E+02
 20
1.03499954E+02
 40
6.84084702E+00
 50
1.53989169E+02
 51
2.06010827E+02
  0
ARC
  8
0
 62
7
 10
-5.27159019E+02
 20
9.74999695E+01
 40
6.84088802E+00
 50
1.53989320E+02
 51
2.06010690E+02
  0
ARC
  8
0
 62
7
 10
-5.21999901E+02
 20
1.43499985E+02
 40
4.00000000E+00
 50
8.99999818E+01
 51
1.79999964E+02
  0
ARC
  8
0
 62
7
 10
-5.21999901E+02
 20
5.74999695E+01
 40
4.00000000E+00
 50
1.79999977E+02
 51
2.70000028E+02
  0
ARC
  8
0
 62
7
 10
-4.35999901E+02
 20
5.74999695E+01
 40
4.00000000E+00
 50
2.70000018E+02
 51
0.00000000E+00
  0
ARC
  8
0
 62
7
 10
-4.35999901E+02
 20
1.43499985E+02
 40
4.00000000E+00
 50
0.00000000E+00
 51
8.99999818E+01
  0
CIRCLE
  8
0
 62
7
 10
-4.43999962E+02
 20
6.54999619E+01
 40
8.00002670E+00
  0
CIRCLE
  8
0
 62
7
 10
-4.43999962E+02
 20
6.54999619E+01
 40
8.25002575E+00
  0
CIRCLE
  8
0
 62
2
 10
-4.43999962E+02
 20
6.54999619E+01
 40
5.00000000E+00
  0
CIRCLE
  8
0
 62
7
 10
-4.43999962E+02
 20
6.54999619E+01
 40
4.18000031E+00
  0
CIRCLE
  8
0
 62
7
 10
-5.13999840E+02
 20
6.54999619E+01
 40
8.00002670E+00
  0
CIRCLE
  8
0
 62
7
 10
-5.13999840E+02
 20
6.54999619E+01
 40
8.25002575E+00
  0
CIRCLE
  8
0
 62
2
 10
-5.13999840E+02
 20
6.54999619E+01
 40
5.00000000E+00
  0
CIRCLE
  8
0
 62
7
 10
-5.13999840E+02
 20
6.54999619E+01
 40
4.18000031E+00
  0
CIRCLE
  8
0
 62
7
 10
-5.13999840E+02
 20
1.35499954E+02
 40
4.18000031E+00
  0
CIRCLE
  8
0
 62
7
 10
-4.43999962E+02
 20
1.35499954E+02
 40
8.00002670E+00
  0
CIRCLE
  8
0
 62
7
 10
-4.43999962E+02
 20
1.35499954E+02
 40
8.25002575E+00
  0
CIRCLE
  8
0
 62
2
 10
-4.43999962E+02
 20
1.35499954E+02
 40
5.00000000E+00
  0
CIRCLE
  8
0
 62
7
 10
-4.43999962E+02
 20
1.35499954E+02
 40
4.18000031E+00
  0
CIRCLE
  8
0
 62
7
 10
-5.13999840E+02
 20
1.35499954E+02
 40
8.00002670E+00
  0
CIRCLE
  8
0
 62
7
 10
-5.13999840E+02
 20
1.35499954E+02
 40
8.25002575E+00
  0
CIRCLE
  8
0
 62
2
 10
-5.13999840E+02
 20
1.35499954E+02
 40
5.00000000E+00
  0
CIRCLE
  8
0
 62
7
 10
-4.78999962E+02
 20
1.00500000E+02
 40
8.99999237E+00
  0
CIRCLE
  8
0
 62
2
 10
-4.78999962E+02
 20
1.00500000E+02
 40
8.18000031E+00
  0
CIRCLE
  8
0
 62
7
 10
-4.78999962E+02
 20
1.00500000E+02
 40
1.75294495E+01
  0
CIRCLE
  8
0
 62
7
 10
-4.78999962E+02
 20
1.00500000E+02
 40
1.90000000E+01
  0
CIRCLE
  8
0
 62
7
 10
-4.78999962E+02
 20
1.00500000E+02
 40
1.70000000E+01
  0
LINE
  8
0
 62
4
 10
-4.65499962E+02
 20
1.08294229E+02
 11
-4.78999962E+02
 21
1.16088457E+02
  0
LINE
  8
0
 62
4
 10
-4.65499962E+02
 20
9.27057714E+01
 11
-4.65499962E+02
 21
1.08294229E+02
  0
LINE
  8
0
 62
4
 10
-4.78999962E+02
 20
8.49115427E+01
 11
-4.65499962E+02
 21
9.27057714E+01
  0
LINE
  8
0
 62
4
 10
-4.92499962E+02
 20
9.27057714E+01
 11
-4.78999962E+02
 21
8.49115427E+01
  0
LINE
  8
0
 62
4
 10
-4.92499962E+02
 20
1.08294229E+02
 11
-4.92499962E+02
 21
9.27057714E+01
  0
LINE
  8
0
 62
4
 10
-4.78999962E+02
 20
1.16088457E+02
 11
-4.92499962E+02
 21
1.08294229E+02
  0
CIRCLE
  8
0
 62
4
 10
-4.78999962E+02
 20
1.00500000E+02
 40
1.35000000E+01
  0
LINE
  8
0
 62
4
 10
-4.93845750E+02
 20
1.49176964E+02
 11
-4.99006914E+02
 21
1.47500000E+02
  0
LINE
  8
0
 62
4
 10
-4.93629438E+02
 20
1.48511224E+02
 11
-4.92678382E+02
 21
1.48820241E+02
  0
ARC
  8
0
 62
4
 10
-4.91170301E+02
 20
1.47838200E+02
 40
1.00000000E+00
 50
3.08275100E+01
 51
1.08000000E+02
  0
LINE
  8
0
 62
4
 10
-4.92554775E+02
 20
1.48439819E+02
 11
-4.91480081E+02
 21
1.48789008E+02
  0
LINE
  8
0
 62
4
 10
-4.64154204E+02
 20
1.49176964E+02
 11
-4.58993040E+02
 21
1.47500000E+02
  0
LINE
  8
0
 62
4
 10
-4.64370516E+02
 20
1.48511224E+02
 11
-4.65321572E+02
 21
1.48820241E+02
  0
ARC
  8
0
 62
4
 10
-4.66829653E+02
 20
1.47838200E+02
 40
1.00000000E+00
 50
7.19999999E+01
 51
1.49172490E+02
  0
LINE
  8
0
 62
4
 10
-4.65445179E+02
 20
1.48439819E+02
 11
-4.66519873E+02
 21
1.48789008E+02
  0
LINE
  8
0
 62
4
 10
-4.65750545E+02
 20
1.47500000E+02
 11
-4.65321572E+02
 21
1.48820241E+02
  0
ARC
  8
0
 62
4
 10
-4.57546955E+02
 20
1.42298559E+02
 40
1.18100000E+01
 50
1.49172490E+02
 51
1.53868880E+02
  0
LINE
  8
0
 62
4
 10
-4.64699082E+02
 20
1.47500000E+02
 11
-4.64154204E+02
 21
1.49176964E+02
  0
ARC
  8
0
 62
4
 10
-5.00452999E+02
 20
1.42298559E+02
 40
1.18100000E+01
 50
2.61311204E+01
 51
3.08275100E+01
  0
LINE
  8
0
 62
4
 10
-4.92249410E+02
 20
1.47500000E+02
 11
-4.92678382E+02
 21
1.48820241E+02
  0
LINE
  8
0
 62
4
 10
-4.93300872E+02
 20
1.47500000E+02
 11
-4.93845750E+02
 21
1.49176964E+02
  0
LINE
  8
0
 62
7
 10
2.21000038E+02
 20
1.52999954E+02
 11
2.21000038E+02
 21
1.47500000E+02
  0
LINE
  8
0
 62
7
 10
2.01000038E+02
 20
1.52999954E+02
 11
2.01000038E+02
 21
1.47500000E+02
  0
LINE
  8
0
 62
7
 10
2.02000099E+02
 20
1.53999985E+02
 11
2.20000053E+02
 21
1.53999985E+02
  0
LINE
  8
0
 62
7
 10
2.01000207E+02
 20
1.52999796E+02
 11
2.02000240E+02
 21
1.53999830E+02
  0
LINE
  8
0
 62
7
 10
2.20000113E+02
 20
1.54000127E+02
 11
2.21000093E+02
 21
1.53000147E+02
  0
LINE
  8
0
 62
7
 10
2.54000038E+02
 20
1.47500000E+02
 11
2.31006960E+02
 21
1.47500000E+02
  0
LINE
  8
0
 62
7
 10
2.59499901E+02
 20
9.25000076E+01
 11
2.59499901E+02
 21
1.08499992E+02
  0
LINE
  8
0
 62
7
 10
2.58000038E+02
 20
1.08499954E+02
 11
2.59499977E+02
 21
1.08499954E+02
  0
LINE
  8
0
 62
7
 10
2.58000038E+02
 20
9.25000076E+01
 11
2.59499977E+02
 21
9.25000076E+01
  0
LINE
  8
0
 62
7
 10
2.59499977E+02
 20
1.06499985E+02
 11
2.66000038E+02
 21
1.06499985E+02
  0
LINE
  8
0
 62
7
 10
2.59499977E+02
 20
1.00500000E+02
 11
2.65307167E+02
 21
1.00500000E+02
  0
LINE
  8
0
 62
7
 10
2.59499977E+02
 20
9.45000153E+01
 11
2.66000038E+02
 21
9.45000153E+01
  0
LINE
  8
0
 62
7
 10
2.66000038E+02
 20
9.45000153E+01
 11
2.66000038E+02
 21
1.06499985E+02
  0
LINE
  8
0
 62
7
 10
2.68000114E+02
 20
9.72000198E+01
 11
2.68000114E+02
 21
1.03799980E+02
  0
LINE
  8
0
 62
7
 10
2.66000038E+02
 20
9.64999847E+01
 11
2.67300087E+02
 21
9.64999847E+01
  0
LINE
  8
0
 62
7
 10
2.66000038E+02
 20
1.04499977E+02
 11
2.67300087E+02
 21
1.04499977E+02
  0
LINE
  8
0
 62
2
 10
2.66000038E+02
 20
9.71999435E+01
 11
2.68000038E+02
 21
9.71999435E+01
  0
LINE
  8
0
 62
2
 10
2.66000038E+02
 20
1.03799980E+02
 11
2.68000038E+02
 21
1.03799980E+02
  0
LINE
  8
0
 62
7
 10
2.67300087E+02
 20
9.65000229E+01
 11
2.67300087E+02
 21
1.04500015E+02
  0
LINE
  8
0
 62
7
 10
2.67299938E+02
 20
9.64999628E+01
 11
2.67999999E+02
 21
9.72000239E+01
  0
LINE
  8
0
 62
7
 10
2.67999864E+02
 20
1.03799700E+02
 11
2.67299809E+02
 21
1.04499755E+02
  0
LINE
  8
0
 62
7
 10
2.58000038E+02
 20
1.43499985E+02
 11
2.58000038E+02
 21
5.75000076E+01
  0
LINE
  8
0
 62
7
 10
1.62499916E+02
 20
9.25000076E+01
 11
1.62499916E+02
 21
1.08499992E+02
  0
LINE
  8
0
 62
7
 10
1.63999969E+02
 20
1.08499954E+02
 11
1.62500031E+02
 21
1.08499954E+02
  0
LINE
  8
0
 62
7
 10
1.63999969E+02
 20
9.25000076E+01
 11
1.62500031E+02
 21
9.25000076E+01
  0
LINE
  8
0
 62
7
 10
1.54000046E+02
 20
9.72000198E+01
 11
1.54000046E+02
 21
1.03799980E+02
  0
LINE
  8
0
 62
7
 10
1.55999977E+02
 20
9.45000153E+01
 11
1.55999977E+02
 21
1.06499985E+02
  0
LINE
  8
0
 62
7
 10
1.55999977E+02
 20
9.64999847E+01
 11
1.54700119E+02
 21
9.64999847E+01
  0
LINE
  8
0
 62
7
 10
1.55999977E+02
 20
1.04499977E+02
 11
1.54700119E+02
 21
1.04499977E+02
  0
LINE
  8
0
 62
2
 10
1.55999977E+02
 20
9.71999435E+01
 11
1.54000099E+02
 21
9.71999435E+01
  0
LINE
  8
0
 62
2
 10
1.55999977E+02
 20
1.03799980E+02
 11
1.54000099E+02
 21
1.03799980E+02
  0
LINE
  8
0
 62
7
 10
1.54699982E+02
 20
9.65000229E+01
 11
1.54699982E+02
 21
1.04500015E+02
  0
LINE
  8
0
 62
7
 10
1.54699753E+02
 20
9.64996827E+01
 11
1.53999778E+02
 21
9.71996574E+01
  0
LINE
  8
0
 62
7
 10
1.53999988E+02
 20
1.03800024E+02
 11
1.54700017E+02
 21
1.04500053E+02
  0
LINE
  8
0
 62
7
 10
1.62500031E+02
 20
9.45000153E+01
 11
1.56000031E+02
 21
9.45000153E+01
  0
LINE
  8
0
 62
7
 10
1.62500031E+02
 20
1.00500000E+02
 11
1.56692841E+02
 21
1.00500000E+02
  0
LINE
  8
0
 62
7
 10
1.62500031E+02
 20
1.06499985E+02
 11
1.56000031E+02
 21
1.06499985E+02
  0
LINE
  8
0
 62
7
 10
1.63999969E+02
 20
1.43499985E+02
 11
1.63999969E+02
 21
5.75000076E+01
  0
LINE
  8
0
 62
7
 10
2.54000038E+02
 20
5.34999924E+01
 11
1.67999985E+02
 21
5.34999924E+01
  0
LINE
  8
0
  6
CENTER
 62
2
 10
2.11000038E+02
 20
1.58625412E+02
 11
2.11000038E+02
 21
4.79008789E+01
  0
LINE
  8
0
  6
CENTER
 62
2
 10
2.70957314E+02
 20
1.00500000E+02
 11
1.50613815E+02
 21
1.00500000E+02
  0
LINE
  8
0
 62
7
 10
2.01000038E+02
 20
1.53000000E+02
 11
2.21000038E+02
 21
1.53000000E+02
  0
LINE
  8
0
 62
7
 10
2.44500099E+02
 20
9.94999695E+01
 11
2.30899818E+02
 21
9.94999695E+01
  0
LINE
  8
0
 62
7
 10
2.25778580E+02
 20
8.71360701E+01
 11
2.33140415E+02
 21
7.97742364E+01
  0
LINE
  8
0
  6
CENTER
 62
2
 10
2.39000099E+02
 20
1.17270401E+02
 11
2.39000099E+02
 21
1.40057983E+02
  0
LINE
  8
0
  6
CENTER
 62
2
 10
2.39000175E+02
 20
6.10016174E+01
 11
2.39000175E+02
 21
8.35345917E+01
  0
LINE
  8
0
 62
7
 10
1.77500053E+02
 20
6.30000000E+01
 11
2.44500023E+02
 21
6.30000000E+01
  0
LINE
  8
0
 62
7
 10
2.48500099E+02
 20
1.34000001E+02
 11
2.48500099E+02
 21
6.69999670E+01
  0
LINE
  8
0
 62
7
 10
1.77500053E+02
 20
1.38000031E+02
 11
2.44500099E+02
 21
1.38000031E+02
  0
LINE
  8
0
 62
7
 10
2.12000099E+02
 20
6.69999695E+01
 11
2.12000099E+02
 21
8.06002502E+01
  0
LINE
  8
0
 62
7
 10
2.44500023E+02
 20
1.01499969E+02
 11
2.30899818E+02
 21
1.01499969E+02
  0
LINE
  8
0
 62
7
 10
2.45500114E+02
 20
8.74998779E+01
 11
2.45500114E+02
 21
1.13500076E+02
  0
LINE
  8
0
 62
7
 10
1.97999962E+02
 20
6.59999924E+01
 11
2.24000145E+02
 21
6.59999924E+01
  0
LINE
  8
0
 62
7
 10
2.10000053E+02
 20
1.34000015E+02
 11
2.10000053E+02
 21
1.20399750E+02
  0
LINE
  8
0
 62
7
 10
2.25778491E+02
 20
1.13863963E+02
 11
2.33140338E+02
 21
1.21225810E+02
  0
LINE
  8
0
 62
7
 10
2.24364348E+02
 20
8.57218106E+01
 11
2.31726196E+02
 21
7.83599634E+01
  0
LINE
  8
0
 62
7
 10
2.12000053E+02
 20
1.34000000E+02
 11
2.12000053E+02
 21
1.20399750E+02
  0
LINE
  8
0
 62
7
 10
1.97999931E+02
 20
1.35000031E+02
 11
2.24000099E+02
 21
1.35000031E+02
  0
LINE
  8
0
 62
7
 10
2.48000099E+02
 20
1.34000001E+02
 11
2.48000099E+02
 21
6.69999673E+01
  0
LINE
  8
0
 62
7
 10
2.24364280E+02
 20
1.15278109E+02
 11
2.31726128E+02
 21
1.22639956E+02
  0
LINE
  8
0
 62
7
 10
1.87000038E+02
 20
7.48093719E+01
 11
1.87000038E+02
 21
7.01905670E+01
  0
LINE
  8
0
 62
7
 10
1.83000040E+02
 20
7.71187706E+01
 11
1.87000036E+02
 21
7.48093720E+01
  0
LINE
  8
0
 62
7
 10
2.43000095E+02
 20
1.26190669E+02
 11
2.39000093E+02
 21
1.23881266E+02
  0
LINE
  8
0
 62
7
 10
2.39000102E+02
 20
1.23881269E+02
 11
2.35000106E+02
 21
1.26190668E+02
  0
LINE
  8
0
 62
7
 10
1.83000036E+02
 20
6.78811689E+01
 11
1.79000040E+02
 21
7.01905675E+01
  0
LINE
  8
0
 62
7
 10
1.83000035E+02
 20
7.71187669E+01
 11
1.79000033E+02
 21
7.48093644E+01
  0
LINE
  8
0
 62
7
 10
2.39000106E+02
 20
1.33118871E+02
 11
2.43000102E+02
 21
1.30809472E+02
  0
LINE
  8
0
 62
7
 10
2.43000099E+02
 20
1.30809464E+02
 11
2.43000099E+02
 21
1.26190674E+02
  0
LINE
  8
0
 62
7
 10
2.35000175E+02
 20
7.48093719E+01
 11
2.35000175E+02
 21
7.01905670E+01
  0
LINE
  8
0
 62
7
 10
2.39000182E+02
 20
7.71187759E+01
 11
2.43000178E+02
 21
7.48093772E+01
  0
LINE
  8
0
 62
7
 10
2.43000175E+02
 20
7.48093719E+01
 11
2.43000175E+02
 21
7.01905670E+01
  0
LINE
  8
0
 62
7
 10
2.43000171E+02
 20
7.01905692E+01
 11
2.39000169E+02
 21
6.78811668E+01
  0
LINE
  8
0
 62
7
 10
2.39000178E+02
 20
6.78811741E+01
 11
2.35000182E+02
 21
7.01905728E+01
  0
LINE
  8
0
 62
7
 10
2.39000171E+02
 20
7.71187715E+01
 11
2.35000169E+02
 21
7.48093691E+01
  0
LINE
  8
0
 62
7
 10
1.79000038E+02
 20
7.48093719E+01
 11
1.79000038E+02
 21
7.01905670E+01
  0
LINE
  8
0
  6
DASHED
 62
7
 10
2.04000145E+02
 20
1.37500137E+02
 11
1.94000069E+02
 21
1.37500137E+02
  0
LINE
  8
0
 62
7
 10
1.87000035E+02
 20
7.01905638E+01
 11
1.83000033E+02
 21
6.78811613E+01
  0
LINE
  8
0
 62
7
 10
1.97636120E+02
 20
1.15278618E+02
 11
1.90274298E+02
 21
1.22640437E+02
  0
LINE
  8
0
 62
7
 10
1.96221907E+02
 20
1.13864404E+02
 11
1.88860057E+02
 21
1.21226250E+02
  0
LINE
  8
0
 62
7
 10
1.77500053E+02
 20
1.37500031E+02
 11
2.44500099E+02
 21
1.37500031E+02
  0
LINE
  8
0
 62
7
 10
1.76500023E+02
 20
8.74998779E+01
 11
1.76500023E+02
 21
1.13500076E+02
  0
LINE
  8
0
 62
7
 10
1.77500053E+02
 20
1.01499985E+02
 11
1.91100319E+02
 21
1.01499985E+02
  0
LINE
  8
0
 62
7
 10
1.73500038E+02
 20
6.70000000E+01
 11
1.73500038E+02
 21
1.34000015E+02
  0
LINE
  8
0
  6
CENTER
 62
2
 10
1.82999962E+02
 20
1.40185287E+02
 11
1.82999962E+02
 21
1.17270401E+02
  0
LINE
  8
0
 62
7
 10
1.74000023E+02
 20
6.70000000E+01
 11
1.74000023E+02
 21
1.34000015E+02
  0
LINE
  8
0
  6
CENTER
 62
2
 10
2.19000023E+02
 20
1.40185287E+02
 11
2.19000023E+02
 21
1.28300018E+02
  0
LINE
  8
0
  6
CENTER
 62
2
 10
2.51045128E+02
 20
1.28500061E+02
 11
2.28894051E+02
 21
1.28500061E+02
  0
LINE
  8
0
 62
7
 10
2.10000084E+02
 20
6.70000000E+01
 11
2.10000084E+02
 21
8.06002502E+01
  0
LINE
  8
0
 62
7
 10
1.96221740E+02
 20
8.71357716E+01
 11
1.88859915E+02
 21
7.97739447E+01
  0
LINE
  8
0
 62
7
 10
1.97636040E+02
 20
8.57215798E+01
 11
1.90274193E+02
 21
7.83597313E+01
  0
LINE
  8
0
 62
7
 10
1.77500053E+02
 20
6.35000000E+01
 11
2.44500023E+02
 21
6.35000000E+01
  0
LINE
  8
0
 62
7
 10
1.77500053E+02
 20
9.95000000E+01
 11
1.91100319E+02
 21
9.95000000E+01
  0
LINE
  8
0
  6
CENTER
 62
2
 10
1.70970322E+02
 20
7.24999695E+01
 11
1.93503273E+02
 21
7.24999695E+01
  0
LINE
  8
0
 62
7
 10
2.36000038E+02
 20
1.38000031E+02
 11
2.36000038E+02
 21
1.37500031E+02
  0
LINE
  8
0
 62
7
 10
1.86000038E+02
 20
1.38000031E+02
 11
1.86000038E+02
 21
1.37500031E+02
  0
LINE
  8
0
 62
7
 10
2.36000038E+02
 20
6.35000000E+01
 11
2.36000038E+02
 21
6.30000000E+01
  0
LINE
  8
0
 62
7
 10
1.86000038E+02
 20
6.35000000E+01
 11
1.86000038E+02
 21
6.30000000E+01
  0
LINE
  8
0
 62
7
 10
2.28500114E+02
 20
1.30500214E+02
 11
2.29763649E+02
 21
1.30500214E+02
  0
LINE
  8
0
 62
7
 10
2.41000298E+02
 20
1.18000061E+02
 11
2.41000298E+02
 21
1.19263657E+02
  0
LINE
  8
0
 62
7
 10
1.93499916E+02
 20
1.30500244E+02
 11
1.92236488E+02
 21
1.30500244E+02
  0
LINE
  8
0
 62
7
 10
1.80999840E+02
 20
1.18000061E+02
 11
1.80999840E+02
 21
1.19263794E+02
  0
LINE
  8
0
 62
7
 10
1.93499962E+02
 20
7.04998093E+01
 11
1.92236229E+02
 21
7.04998093E+01
  0
LINE
  8
0
 62
7
 10
1.80999840E+02
 20
8.29998779E+01
 11
1.80999840E+02
 21
8.17363129E+01
  0
LINE
  8
0
 62
7
 10
2.41000298E+02
 20
8.29998779E+01
 11
2.41000298E+02
 21
8.17364655E+01
  0
LINE
  8
0
 62
7
 10
2.28500145E+02
 20
7.04997940E+01
 11
2.29763695E+02
 21
7.04997940E+01
  0
LINE
  8
0
  6
CENTER
 62
2
 10
2.28766716E+02
 20
7.24999695E+01
 11
2.51045128E+02
 21
7.24999695E+01
  0
LINE
  8
0
  6
CENTER
 62
2
 10
1.93630577E+02
 20
1.28500061E+02
 11
1.71097618E+02
 21
1.28500061E+02
  0
LINE
  8
0
  6
CENTER
 62
2
 10
1.83000038E+02
 20
8.25604782E+01
 11
1.83000038E+02
 21
6.10041046E+01
  0
LINE
  8
0
 62
7
 10
2.39000096E+02
 20
1.33118870E+02
 11
2.35000094E+02
 21
1.30809468E+02
  0
LINE
  8
0
 62
7
 10
2.35000099E+02
 20
1.30809464E+02
 11
2.35000099E+02
 21
1.26190674E+02
  0
LINE
  8
0
 62
7
 10
1.82999962E+02
 20
1.33118862E+02
 11
1.78999959E+02
 21
1.30809460E+02
  0
LINE
  8
0
 62
7
 10
1.78999962E+02
 20
1.30809464E+02
 11
1.78999962E+02
 21
1.26190674E+02
  0
LINE
  8
0
 62
7
 10
1.82999963E+02
 20
1.23881262E+02
 11
1.78999961E+02
 21
1.26190664E+02
  0
LINE
  8
0
 62
7
 10
1.86999958E+02
 20
1.26190666E+02
 11
1.82999956E+02
 21
1.23881263E+02
  0
LINE
  8
0
 62
7
 10
1.86999962E+02
 20
1.30809464E+02
 11
1.86999962E+02
 21
1.26190674E+02
  0
LINE
  8
0
 62
7
 10
1.82999968E+02
 20
1.33118881E+02
 11
1.86999971E+02
 21
1.30809478E+02
  0
ARC
  8
0
 62
7
 10
1.67999985E+02
 20
1.43499985E+02
 40
4.00000000E+00
 50
9.00000369E+01
 51
1.80000019E+02
  0
ARC
  8
0
 62
7
 10
2.54000023E+02
 20
1.43499985E+02
 40
4.00000000E+00
 50
5.46415133E-05
 51
9.00000369E+01
  0
ARC
  8
0
 62
7
 10
2.54000023E+02
 20
5.75000076E+01
 40
4.00000000E+00
 50
2.70000018E+02
 51
5.46415133E-05
  0
ARC
  8
0
 62
7
 10
2.59159096E+02
 20
9.75000076E+01
 40
6.84088802E+00
 50
3.33989328E+02
 51
2.60106991E+01
  0
ARC
  8
0
 62
7
 10
2.59159096E+02
 20
1.03499992E+02
 40
6.84084702E+00
 50
3.33989192E+02
 51
2.60108493E+01
  0
ARC
  8
0
 62
7
 10
1.62840851E+02
 20
9.75000076E+01
 40
6.84088802E+00
 50
1.53989374E+02
 51
2.06010745E+02
  0
ARC
  8
0
 62
7
 10
1.62840851E+02
 20
1.03499992E+02
 40
6.84084702E+00
 50
1.53989224E+02
 51
2.06010882E+02
  0
ARC
  8
0
 62
7
 10
1.67999985E+02
 20
5.75000076E+01
 40
4.00000000E+00
 50
1.80000036E+02
 51
2.70000018E+02
  0
CIRCLE
  8
0
 62
7
 10
2.39000099E+02
 20
1.28500061E+02
 40
6.50000048E+00
  0
ARC
  8
0
 62
7
 10
2.33847328E+02
 20
1.20518860E+02
 40
1.00000000E+00
 50
5.71538311E+01
 51
1.35000014E+02
  0
ARC
  8
0
 62
7
 10
2.31018913E+02
 20
1.23347290E+02
 40
1.00000000E+00
 50
3.15000047E+02
 51
3.28467588E+01
  0
CIRCLE
  8
0
 62
7
 10
2.39000099E+02
 20
7.24999695E+01
 40
6.50000048E+00
  0
ARC
  8
0
 62
7
 10
2.26485527E+02
 20
1.13157028E+02
 40
1.00000000E+00
 50
1.35000014E+02
 51
2.19261011E+02
  0
ARC
  8
0
 62
7
 10
2.23657082E+02
 20
1.15985458E+02
 40
1.00000000E+00
 50
2.30739011E+02
 51
3.15000026E+02
  0
ARC
  8
0
 62
7
 10
2.13000038E+02
 20
1.20399750E+02
 40
1.00000000E+00
 50
1.80000036E+02
 51
2.64260549E+02
  0
ARC
  8
0
 62
7
 10
2.30899818E+02
 20
9.85000000E+01
 40
1.00000000E+00
 50
8.99999618E+01
 51
1.74260515E+02
  0
ARC
  8
0
 62
7
 10
2.44500099E+02
 20
9.85000000E+01
 40
1.00000000E+00
 50
3.59999981E+02
 51
8.99999618E+01
  0
ARC
  8
0
 62
7
 10
1.82999962E+02
 20
1.28500031E+02
 40
8.50000000E+00
 50
2.63823540E+02
 51
6.17668522E+00
  0
ARC
  8
0
 62
7
 10
2.26485527E+02
 20
8.78429565E+01
 40
1.00000000E+00
 50
1.40739039E+02
 51
2.25000037E+02
  0
ARC
  8
0
 62
7
 10
2.23657082E+02
 20
8.50145264E+01
 40
1.00000000E+00
 50
4.50000149E+01
 51
1.29261016E+02
  0
ARC
  8
0
 62
7
 10
2.31018913E+02
 20
7.76526947E+01
 40
1.00000000E+00
 50
3.27153835E+02
 51
4.50000149E+01
  0
ARC
  8
0
 62
7
 10
2.33847328E+02
 20
8.04811172E+01
 40
1.00000000E+00
 50
2.25000027E+02
 51
3.02846743E+02
  0
ARC
  8
0
 62
7
 10
2.44500099E+02
 20
1.34000000E+02
 40
3.50000000E+00
 50
2.23117997E-05
 51
8.99999750E+01
  0
ARC
  8
0
 62
7
 10
2.13000038E+02
 20
1.34000000E+02
 40
1.00000000E+00
 50
9.00000025E+01
 51
1.80000046E+02
  0
ARC
  8
0
 62
7
 10
2.09000023E+02
 20
1.20399750E+02
 40
1.00000000E+00
 50
2.75739515E+02
 51
3.59721781E-05
  0
ARC
  8
0
 62
7
 10
2.09000023E+02
 20
1.34000015E+02
 40
1.00000000E+00
 50
3.59721781E-05
 51
9.00000162E+01
  0
ARC
  8
0
 62
7
 10
2.44500053E+02
 20
6.69999695E+01
 40
3.50000000E+00
 50
2.70000011E+02
 51
3.59999964E+02
  0
ARC
  8
0
 62
7
 10
2.44500053E+02
 20
1.02500000E+02
 40
1.00000000E+00
 50
2.69999956E+02
 51
3.59999992E+02
  0
ARC
  8
0
 62
7
 10
2.30899818E+02
 20
1.02500000E+02
 40
1.00000000E+00
 50
1.85739444E+02
 51
2.69999956E+02
  0
ARC
  8
0
 62
7
 10
2.13000038E+02
 20
8.06002502E+01
 40
1.00000000E+00
 50
9.57394995E+01
 51
1.80000032E+02
  0
ARC
  8
0
 62
7
 10
2.13000038E+02
 20
6.69999695E+01
 40
1.00000000E+00
 50
1.80000022E+02
 51
2.70000011E+02
  0
ARC
  8
0
 62
7
 10
2.44500099E+02
 20
1.34000000E+02
 40
4.00000000E+00
 50
2.23117997E-05
 51
8.99999750E+01
  0
ARC
  8
0
 62
7
 10
2.44500053E+02
 20
6.69999695E+01
 40
4.00000000E+00
 50
2.70000011E+02
 51
3.59999964E+02
  0
CIRCLE
  8
0
 62
7
 10
2.39000099E+02
 20
7.24999695E+01
 40
6.00000000E+00
  0
CIRCLE
  8
0
 62
2
 10
1.82999962E+02
 20
1.28500061E+02
 40
4.00000000E+00
  0
CIRCLE
  8
0
 62
7
 10
2.39000099E+02
 20
1.28500061E+02
 40
6.00000000E+00
  0
CIRCLE
  8
0
 62
7
 10
1.82999962E+02
 20
1.28500031E+02
 40
6.50000048E+00
  0
ARC
  8
0
 62
7
 10
1.95514580E+02
 20
1.13157059E+02
 40
1.00000000E+00
 50
3.20739045E+02
 51
4.50000423E+01
  0
ARC
  8
0
 62
7
 10
1.98342979E+02
 20
1.15985474E+02
 40
1.00000000E+00
 50
2.25000000E+02
 51
3.09261001E+02
  0
ARC
  8
0
 62
7
 10
1.90981194E+02
 20
1.23347305E+02
 40
1.00000000E+00
 50
1.47153844E+02
 51
2.25000010E+02
  0
ARC
  8
0
 62
7
 10
1.88152748E+02
 20
1.20518890E+02
 40
1.00000000E+00
 50
4.50000423E+01
 51
1.22846758E+02
  0
ARC
  8
0
 62
7
 10
1.77500053E+02
 20
1.34000015E+02
 40
3.50000000E+00
 50
9.00000162E+01
 51
1.80000005E+02
  0
ARC
  8
0
 62
7
 10
1.77500053E+02
 20
1.02499992E+02
 40
1.00000000E+00
 50
1.79999991E+02
 51
2.70000028E+02
  0
ARC
  8
0
 62
7
 10
1.91100319E+02
 20
1.02499992E+02
 40
1.00000000E+00
 50
2.70000038E+02
 51
3.54260543E+02
  0
ARC
  8
0
 62
7
 10
1.77500053E+02
 20
1.34000015E+02
 40
4.00000000E+00
 50
9.00000162E+01
 51
1.80000005E+02
  0
CIRCLE
  8
0
 62
7
 10
1.82999962E+02
 20
1.28500031E+02
 40
6.00000000E+00
  0
ARC
  8
0
 62
7
 10
1.93499916E+02
 20
1.34000153E+02
 40
3.50000000E+00
 50
2.69999984E+02
 51
3.59998489E+02
  0
ARC
  8
0
 62
7
 10
1.97999931E+02
 20
1.34000015E+02
 40
1.00000000E+00
 50
9.00000437E+01
 51
1.79998229E+02
  0
ARC
  8
0
 62
7
 10
1.92444847E+02
 20
1.29522171E+02
 40
1.00000000E+00
 50
9.56743599E+01
 51
1.86177214E+02
  0
ARC
  8
0
 62
7
 10
1.77499901E+02
 20
1.18000061E+02
 40
3.50000000E+00
 50
2.70000995E+02
 51
1.86693353E-05
  0
ARC
  8
0
 62
7
 10
1.81977898E+02
 20
1.19055191E+02
 40
1.00000000E+00
 50
8.38236945E+01
 51
1.74325484E+02
  0
ARC
  8
0
 62
7
 10
1.77500053E+02
 20
1.13500076E+02
 40
1.00000000E+00
 50
9.00017511E+01
 51
1.80000019E+02
  0
ARC
  8
0
 62
7
 10
2.44500099E+02
 20
8.74998779E+01
 40
1.00000000E+00
 50
2.70001766E+02
 51
3.59999964E+02
  0
ARC
  8
0
 62
7
 10
2.44500206E+02
 20
8.29998703E+01
 40
3.50000000E+00
 50
9.00014985E+01
 51
1.80000005E+02
  0
ARC
  8
0
 62
7
 10
2.40022255E+02
 20
8.19448013E+01
 40
1.00000000E+00
 50
2.63822781E+02
 51
3.54325620E+02
  0
ARC
  8
0
 62
7
 10
2.39000099E+02
 20
7.24999313E+01
 40
8.50000000E+00
 50
8.38233261E+01
 51
1.86176449E+02
  0
ARC
  8
0
 62
7
 10
2.29555214E+02
 20
1.29522171E+02
 40
1.00000000E+00
 50
3.53823687E+02
 51
8.43254881E+01
  0
ARC
  8
0
 62
7
 10
2.28500114E+02
 20
1.34000122E+02
 40
3.50000000E+00
 50
1.80001006E+02
 51
2.69999984E+02
  0
ARC
  8
0
 62
7
 10
2.24000099E+02
 20
1.34000015E+02
 40
1.00000000E+00
 50
1.72985911E-03
 51
9.00000162E+01
  0
ARC
  8
0
 62
7
 10
2.24000175E+02
 20
6.69999695E+01
 40
1.00000000E+00
 50
2.70000038E+02
 51
3.59998215E+02
  0
ARC
  8
0
 62
7
 10
2.28500145E+02
 20
6.69998474E+01
 40
3.50000000E+00
 50
9.00000162E+01
 51
1.79998502E+02
  0
ARC
  8
0
 62
7
 10
2.29555290E+02
 20
7.14778137E+01
 40
1.00000000E+00
 50
2.75674382E+02
 51
6.17723160E+00
  0
ARC
  8
0
 62
7
 10
2.39000099E+02
 20
1.28500031E+02
 40
8.50000000E+00
 50
1.73823329E+02
 51
2.76176459E+02
  0
ARC
  8
0
 62
7
 10
2.40022255E+02
 20
1.19055191E+02
 40
1.00000000E+00
 50
5.67452970E+00
 51
9.61763105E+01
  0
ARC
  8
0
 62
7
 10
2.44500175E+02
 20
1.18000061E+02
 40
3.50000000E+00
 50
1.79999991E+02
 51
2.69998990E+02
  0
ARC
  8
0
 62
7
 10
2.44500099E+02
 20
1.13500076E+02
 40
1.00000000E+00
 50
3.59999995E+02
 51
8.99982676E+01
  0
ARC
  8
0
 62
7
 10
1.93499992E+02
 20
6.69998856E+01
 40
3.50000000E+00
 50
1.00585906E-03
 51
9.00000162E+01
  0
ARC
  8
0
 62
7
 10
1.97999962E+02
 20
6.69999695E+01
 40
1.00000000E+00
 50
1.80001743E+02
 51
2.69999984E+02
  0
ARC
  8
0
 62
7
 10
2.09000023E+02
 20
6.70000000E+01
 40
1.00000000E+00
 50
2.69999998E+02
 51
4.96325564E-05
  0
ARC
  8
0
 62
7
 10
2.09000023E+02
 20
8.06002502E+01
 40
1.00000000E+00
 50
4.96325564E-05
 51
8.42605536E+01
  0
CIRCLE
  8
0
 62
7
 10
2.11000038E+02
 20
1.00500000E+02
 40
1.90000000E+01
  0
CIRCLE
  8
0
 62
7
 10
1.83000038E+02
 20
7.24999313E+01
 40
6.50000048E+00
  0
ARC
  8
0
 62
7
 10
1.98342979E+02
 20
8.50145416E+01
 40
1.00000000E+00
 50
5.07390404E+01
 51
1.35000041E+02
  0
ARC
  8
0
 62
7
 10
1.95514580E+02
 20
8.78429718E+01
 40
1.00000000E+00
 50
3.15000019E+02
 51
3.92610168E+01
  0
ARC
  8
0
 62
7
 10
1.88152748E+02
 20
8.04811401E+01
 40
1.00000000E+00
 50
2.37153816E+02
 51
3.14999999E+02
  0
ARC
  8
0
 62
7
 10
1.90981194E+02
 20
7.76527100E+01
 40
1.00000000E+00
 50
1.35000041E+02
 51
2.12846753E+02
  0
ARC
  8
0
 62
7
 10
1.77500053E+02
 20
6.70000000E+01
 40
3.50000000E+00
 50
1.80000008E+02
 51
2.69999984E+02
  0
ARC
  8
0
 62
7
 10
1.91100319E+02
 20
9.85000000E+01
 40
1.00000000E+00
 50
5.73949849E+00
 51
9.00000300E+01
  0
ARC
  8
0
 62
7
 10
1.77500053E+02
 20
9.85000000E+01
 40
1.00000000E+00
 50
9.00000300E+01
 51
1.80000019E+02
  0
ARC
  8
0
 62
7
 10
1.77500053E+02
 20
6.70000000E+01
 40
4.00000000E+00
 50
1.80000008E+02
 51
2.69999984E+02
  0
CIRCLE
  8
0
 62
7
 10
1.83000038E+02
 20
7.24999313E+01
 40
6.00000000E+00
  0
CIRCLE
  8
0
 62
2
 10
2.39000099E+02
 20
1.28500061E+02
 40
4.00000000E+00
  0
ARC
  8
0
 62
7
 10
1.77500053E+02
 20
8.74998779E+01
 40
1.00000000E+00
 50
1.80000036E+02
 51
2.69998222E+02
  0
ARC
  8
0
 62
7
 10
1.77499901E+02
 20
8.29998703E+01
 40
3.50000000E+00
 50
3.59721781E-05
 51
8.99985065E+01
  0
ARC
  8
0
 62
7
 10
1.81977898E+02
 20
8.19448013E+01
 40
1.00000000E+00
 50
1.85674352E+02
 51
2.76177207E+02
  0
ARC
  8
0
 62
7
 10
1.83000038E+02
 20
7.24999313E+01
 40
8.50000000E+00
 50
3.53823551E+02
 51
9.61766794E+01
  0
ARC
  8
0
 62
7
 10
1.92444847E+02
 20
7.14778137E+01
 40
1.00000000E+00
 50
1.73823697E+02
 51
2.64325479E+02
  0
CIRCLE
  8
0
 62
2
 10
2.39000175E+02
 20
7.24999695E+01
 40
4.00000000E+00
  0
CIRCLE
  8
0
 62
7
 10
2.39000175E+02
 20
7.24999695E+01
 40
3.32000017E+00
  0
CIRCLE
  8
0
 62
7
 10
2.39000099E+02
 20
1.28500061E+02
 40
3.32000017E+00
  0
CIRCLE
  8
0
 62
7
 10
1.82999962E+02
 20
1.28500061E+02
 40
3.32000017E+00
  0
CIRCLE
  8
0
 62
7
 10
1.83000038E+02
 20
7.24999695E+01
 40
3.32000017E+00
  0
CIRCLE
  8
0
 62
2
 10
1.83000038E+02
 20
7.24999695E+01
 40
4.00000000E+00
  0
LINE
  8
0
 62
4
 10
1.72274147E+02
 20
1.23542990E+02
 11
1.73499947E+02
 21
1.23941277E+02
  0
LINE
  8
0
 62
4
 10
1.73499947E+02
 20
1.19770366E+02
 11
1.72274147E+02
 21
1.23542990E+02
  0
LINE
  8
0
 62
6
 10
1.72428655E+02
 20
1.23067462E+02
 11
1.73499947E+02
 21
1.23415546E+02
  0
LINE
  8
0
 62
6
 10
1.73355706E+02
 20
1.20214292E+02
 11
1.73499947E+02
 21
1.20261159E+02
  0
LINE
  8
0
  6
CENTER
 62
6
 10
1.95575498E+02
 20
1.35425053E+02
 11
2.01281837E+02
 21
1.37279155E+02
  0
LINE
  8
0
  6
CENTER
 62
6
 10
1.97501616E+02
 20
1.39205274E+02
 11
1.99355718E+02
 21
1.33498935E+02
  0
LINE
  8
0
 62
4
 10
1.99712746E+02
 20
1.38872251E+02
 11
1.99996148E+02
 21
1.38000031E+02
  0
LINE
  8
0
 62
4
 10
1.97028327E+02
 20
1.38000031E+02
 11
1.99712746E+02
 21
1.38872251E+02
  0
LINE
  8
0
 62
4
 10
1.99712746E+02
 20
1.38872251E+02
 11
1.99268328E+02
 21
1.38000031E+02
  0
LINE
  8
0
 62
4
 10
1.96154250E+02
 20
1.49176964E+02
 11
1.86358368E+02
 21
1.45994089E+02
  0
LINE
  8
0
 62
4
 10
1.96609962E+02
 20
1.38389827E+02
 11
1.99368026E+02
 21
1.39285976E+02
  0
LINE
  8
0
 62
4
 10
1.96411351E+02
 20
1.38000031E+02
 11
1.96609962E+02
 21
1.38389827E+02
  0
LINE
  8
0
  6
CENTER
 62
6
 10
1.77345825E+02
 20
1.38334156E+02
 11
2.02740881E+02
 21
1.46585510E+02
  0
LINE
  8
0
  6
CENTER
 62
6
 10
1.87344790E+02
 20
1.37902899E+02
 11
2.03822440E+02
 21
1.43256812E+02
  0
LINE
  8
0
 62
4
 10
1.82078613E+02
 20
1.44603512E+02
 11
1.86358368E+02
 21
1.45994089E+02
  0
LINE
  8
0
 62
4
 10
1.88955795E+02
 20
1.38000031E+02
 11
1.86358368E+02
 21
1.45994089E+02
  0
LINE
  8
0
 62
4
 10
1.78713971E+02
 20
1.38000031E+02
 11
1.82078613E+02
 21
1.44603512E+02
  0
LINE
  8
0
 62
4
 10
1.96370562E+02
 20
1.48511224E+02
 11
1.97321618E+02
 21
1.48820241E+02
  0
ARC
  8
0
 62
4
 10
2.00312981E+02
 20
1.43273128E+02
 40
1.00000000E+00
 50
3.36723662E+02
 51
5.17248996E+00
  0
ARC
  8
0
 62
4
 10
1.98829699E+02
 20
1.47838200E+02
 40
1.00000000E+00
 50
3.08275100E+01
 51
1.08000000E+02
  0
ARC
  8
0
 62
4
 10
1.89547001E+02
 20
1.42298559E+02
 40
1.18100000E+01
 50
5.17248996E+00
 51
3.08275100E+01
  0
LINE
  8
0
 62
4
 10
1.97445225E+02
 20
1.48439819E+02
 11
1.98519919E+02
 21
1.48789008E+02
  0
LINE
  8
0
 62
4
 10
1.98295022E+02
 20
1.45824413E+02
 11
1.97321618E+02
 21
1.48820241E+02
  0
LINE
  8
0
 62
4
 10
2.00185411E+02
 20
1.38000031E+02
 11
1.97705367E+02
 21
1.45632823E+02
  0
LINE
  8
0
 62
4
 10
1.97390318E+02
 20
1.45372738E+02
 11
1.97751719E+02
 21
1.45490164E+02
  0
LINE
  8
0
 62
4
 10
1.97705367E+02
 20
1.45632823E+02
 11
1.99379226E+02
 21
1.46176693E+02
  0
LINE
  8
0
 62
4
 10
2.01073412E+02
 20
1.38000031E+02
 11
2.01944067E+02
 21
1.38282924E+02
  0
ARC
  8
0
 62
4
 10
1.90140821E+02
 20
1.38819521E+02
 40
1.18100000E+01
 50
1.80000000E+01
 51
3.85326990E+01
  0
ARC
  8
0
 62
4
 10
1.90145603E+02
 20
1.38804802E+02
 40
1.18100000E+01
 50
3.57467301E+02
 51
1.80000000E+01
  0
LINE
  8
0
 62
4
 10
1.99785855E+02
 20
1.38000031E+02
 11
1.96154250E+02
 21
1.49176964E+02
  0
LINE
  8
0
 62
4
 10
2.48500038E+02
 20
1.19770178E+02
 11
2.49725899E+02
 21
1.23542990E+02
  0
LINE
  8
0
 62
4
 10
2.49725899E+02
 20
1.23542990E+02
 11
2.48500038E+02
 21
1.23941297E+02
  0
LINE
  8
0
 62
6
 10
2.49571391E+02
 20
1.23067462E+02
 11
2.48500038E+02
 21
1.23415566E+02
  0
LINE
  8
0
 62
6
 10
2.48644340E+02
 20
1.20214292E+02
 11
2.48500038E+02
 21
1.20261179E+02
  0
LINE
  8
0
  6
CENTER
 62
6
 10
2.34655256E+02
 20
1.37902899E+02
 11
2.18536224E+02
 21
1.43140290E+02
  0
LINE
  8
0
  6
CENTER
 62
6
 10
2.44654221E+02
 20
1.38334156E+02
 11
2.19617783E+02
 21
1.46468988E+02
  0
LINE
  8
0
 62
4
 10
2.25588694E+02
 20
1.38000031E+02
 11
2.25390083E+02
 21
1.38389827E+02
  0
LINE
  8
0
 62
4
 10
2.25390083E+02
 20
1.38389827E+02
 11
2.22632019E+02
 21
1.39285976E+02
  0
LINE
  8
0
 62
4
 10
2.25845796E+02
 20
1.49176964E+02
 11
2.35641678E+02
 21
1.45994089E+02
  0
LINE
  8
0
 62
4
 10
2.24971719E+02
 20
1.38000031E+02
 11
2.22287300E+02
 21
1.38872251E+02
  0
LINE
  8
0
 62
4
 10
2.22287300E+02
 20
1.38872251E+02
 11
2.22003898E+02
 21
1.38000031E+02
  0
LINE
  8
0
  6
CENTER
 62
6
 10
2.24498430E+02
 20
1.39205274E+02
 11
2.22644328E+02
 21
1.33498935E+02
  0
LINE
  8
0
  6
CENTER
 62
6
 10
2.26424548E+02
 20
1.35425053E+02
 11
2.20718209E+02
 21
1.37279155E+02
  0
LINE
  8
0
 62
4
 10
2.43286075E+02
 20
1.38000031E+02
 11
2.39921433E+02
 21
1.44603512E+02
  0
LINE
  8
0
 62
4
 10
2.39921433E+02
 20
1.44603512E+02
 11
2.35641678E+02
 21
1.45994089E+02
  0
LINE
  8
0
 62
4
 10
2.35641678E+02
 20
1.45994089E+02
 11
2.33044251E+02
 21
1.38000031E+02
  0
LINE
  8
0
 62
4
 10
2.23280955E+02
 20
1.41283195E+02
 11
2.22329899E+02
 21
1.41592212E+02
  0
LINE
  8
0
 62
4
 10
2.25629484E+02
 20
1.48511224E+02
 11
2.24678428E+02
 21
1.48820241E+02
  0
ARC
  8
0
 62
4
 10
2.21687065E+02
 20
1.43273128E+02
 40
1.00000000E+00
 50
1.74827510E+02
 51
2.52000000E+02
  0
ARC
  8
0
 62
4
 10
2.23170347E+02
 20
1.47838200E+02
 40
1.00000000E+00
 50
7.19999999E+01
 51
1.49172490E+02
  0
LINE
  8
0
 62
4
 10
2.22453505E+02
 20
1.41972634E+02
 11
2.21378812E+02
 21
1.42321824E+02
  0
LINE
  8
0
 62
4
 10
2.24554821E+02
 20
1.48439819E+02
 11
2.23480127E+02
 21
1.48789008E+02
  0
LINE
  8
0
 62
4
 10
2.22329899E+02
 20
1.41592212E+02
 11
2.24678428E+02
 21
1.48820241E+02
  0
ARC
  8
0
 62
4
 10
2.32453045E+02
 20
1.42298559E+02
 40
1.18100000E+01
 50
1.49172490E+02
 51
1.74827510E+02
  0
LINE
  8
0
 62
4
 10
2.21814635E+02
 20
1.38000031E+02
 11
2.22919554E+02
 21
1.41400621E+02
  0
LINE
  8
0
 62
4
 10
2.20926634E+02
 20
1.38000031E+02
 11
2.20055979E+02
 21
1.38282924E+02
  0
ARC
  8
0
 62
4
 10
2.31859225E+02
 20
1.38819521E+02
 40
1.18100000E+01
 50
1.59900933E+02
 51
1.62000000E+02
  0
ARC
  8
0
 62
4
 10
2.31854442E+02
 20
1.38804802E+02
 40
1.18100000E+01
 50
1.62000000E+02
 51
1.82532699E+02
  0
LINE
  8
0
 62
4
 10
2.22214190E+02
 20
1.38000031E+02
 11
2.25845796E+02
 21
1.49176964E+02
  0
LINE
  8
0
 62
7
 10
1.90993086E+02
 20
1.47500000E+02
 11
1.67999985E+02
 21
1.47500000E+02
  0
LINE
  8
0
 62
7
 10
2.21850163E+02
 20
1.47500000E+02
 11
2.00149883E+02
 21
1.47500000E+02
  0
LINE
  8
0
  6
PHANTOM
 10
-1.95000000E+01
 20
3.46114332E+02
 11
-1.95000000E+01
 21
1.93505299E+02
  0
LINE
  8
0
 62
7
 10
-1.86474968E+02
 20
3.28999939E+02
 11
-1.86474968E+02
 21
3.34807129E+02
  0
LINE
  8
0
 62
7
 10
-1.79524971E+02
 20
3.28999939E+02
 11
-1.79524971E+02
 21
3.34807129E+02
  0
LINE
  8
0
 62
7
 10
-1.76050011E+02
 20
3.28999939E+02
 11
-1.76050011E+02
 21
3.34807129E+02
  0
LINE
  8
0
 62
7
 10
-1.89950005E+02
 20
3.28999939E+02
 11
-1.89950005E+02
 21
3.34807129E+02
  0
LINE
  8
0
  6
CENTER
 62
2
 10
-1.83000008E+02
 20
3.22111389E+02
 11
-1.83000008E+02
 21
3.39087616E+02
  0
LINE
  8
0
  6
CENTER
 62
2
 10
-4.02336388E+02
 20
2.80500000E+02
 11
1.20758144E+02
 21
2.80500000E+02
  0
LINE
  8
0
 62
7
 10
-2.75524925E+02
 20
3.28999939E+02
 11
-2.75524925E+02
 21
3.34807129E+02
  0
LINE
  8
0
 62
7
 10
-2.82474907E+02
 20
3.28999939E+02
 11
-2.82474907E+02
 21
3.34807129E+02
  0
LINE
  8
0
 62
7
 10
-2.85949883E+02
 20
3.28999939E+02
 11
-2.85949883E+02
 21
3.34807129E+02
  0
LINE
  8
0
 62
7
 10
-2.72049889E+02
 20
3.28999939E+02
 11
-2.72049889E+02
 21
3.34807129E+02
  0
LINE
  8
0
  6
CENTER
 62
2
 10
-2.78999870E+02
 20
3.22111389E+02
 11
-2.78999870E+02
 21
3.39087616E+02
  0
LINE
  8
0
  6
CENTER
 62
2
 10
-2.78999870E+02
 20
2.38978271E+02
 11
-2.78999870E+02
 21
2.20412338E+02
  0
LINE
  8
0
 62
7
 10
-3.03999761E+02
 20
2.97232344E+02
 11
-3.06999721E+02
 21
2.98964361E+02
  0
LINE
  8
0
 62
7
 10
-3.07000844E+02
 20
2.98965599E+02
 11
-3.10000857E+02
 21
2.97233551E+02
  0
LINE
  8
0
 62
7
 10
-3.09999931E+02
 20
2.93767944E+02
 11
-3.09999931E+02
 21
2.97232056E+02
  0
LINE
  8
0
 62
7
 10
-3.07000061E+02
 20
2.92036250E+02
 11
-3.10000100E+02
 21
2.93768313E+02
  0
LINE
  8
0
 62
7
 10
-3.04000781E+02
 20
2.93769306E+02
 11
-3.07000807E+02
 21
2.92037251E+02
  0
LINE
  8
0
 62
7
 10
-3.03999962E+02
 20
2.97232056E+02
 11
-3.03999962E+02
 21
2.93767944E+02
  0
LINE
  8
0
  6
CENTER
 62
2
 10
-3.16059807E+02
 20
2.95500000E+02
 11
-2.97715019E+02
 21
2.95500000E+02
  0
LINE
  8
0
  6
CENTER
 62
2
 10
-3.06999992E+02
 20
3.04778992E+02
 11
-3.06999992E+02
 21
2.86213196E+02
  0
LINE
  8
0
 62
7
 10
-2.86999870E+02
 20
2.31999969E+02
 11
-2.70999901E+02
 21
2.31999969E+02
  0
LINE
  8
0
 62
7
 10
-2.70999931E+02
 20
2.36999969E+02
 11
-2.70999931E+02
 21
2.31999969E+02
  0
LINE
  8
0
 62
7
 10
-2.86999901E+02
 20
2.36999969E+02
 11
-2.86999901E+02
 21
2.31999969E+02
  0
LINE
  8
0
 62
7
 10
-2.82299889E+02
 20
2.23499985E+02
 11
-2.75699913E+02
 21
2.23499985E+02
  0
LINE
  8
0
 62
7
 10
-2.84749901E+02
 20
2.25500000E+02
 11
-2.73249870E+02
 21
2.25500000E+02
  0
LINE
  8
0
 62
7
 10
-2.72049889E+02
 20
2.31999969E+02
 11
-2.72049889E+02
 21
2.26192825E+02
  0
LINE
  8
0
 62
7
 10
-2.85949883E+02
 20
2.31999969E+02
 11
-2.85949883E+02
 21
2.26192825E+02
  0
LINE
  8
0
 62
7
 10
-2.73249741E+02
 20
2.25499616E+02
 11
-2.72049732E+02
 21
2.26192441E+02
  0
LINE
  8
0
 62
7
 10
-2.85949997E+02
 20
2.26192762E+02
 11
-2.84749988E+02
 21
2.25499936E+02
  0
LINE
  8
0
 62
7
 10
-2.82474907E+02
 20
2.31999969E+02
 11
-2.82474907E+02
 21
2.26192825E+02
  0
LINE
  8
0
 62
7
 10
-2.75524925E+02
 20
2.31999969E+02
 11
-2.75524925E+02
 21
2.26192825E+02
  0
LINE
  8
0
 62
7
 10
-2.82999931E+02
 20
2.25500000E+02
 11
-2.82999931E+02
 21
2.24200027E+02
  0
LINE
  8
0
 62
7
 10
-2.74999901E+02
 20
2.25500000E+02
 11
-2.74999901E+02
 21
2.24200027E+02
  0
LINE
  8
0
 62
2
 10
-2.82299889E+02
 20
2.25500000E+02
 11
-2.82299889E+02
 21
2.23499985E+02
  0
LINE
  8
0
 62
2
 10
-2.75699913E+02
 20
2.25500000E+02
 11
-2.75699913E+02
 21
2.23499985E+02
  0
LINE
  8
0
 62
7
 10
-2.82999901E+02
 20
2.24199982E+02
 11
-2.74999870E+02
 21
2.24199982E+02
  0
LINE
  8
0
 62
7
 10
-2.82999922E+02
 20
2.24200132E+02
 11
-2.82299893E+02
 21
2.23500103E+02
  0
LINE
  8
0
 62
7
 10
-2.75699807E+02
 20
2.23499892E+02
 11
-2.74999805E+02
 21
2.24199894E+02
  0
LINE
  8
0
 62
7
 10
-2.86999870E+02
 20
3.28999939E+02
 11
-2.70999901E+02
 21
3.28999939E+02
  0
LINE
  8
0
 62
7
 10
-2.70999931E+02
 20
3.23999939E+02
 11
-2.70999931E+02
 21
3.28999939E+02
  0
LINE
  8
0
 62
7
 10
-2.86999901E+02
 20
3.23999939E+02
 11
-2.86999901E+02
 21
3.28999939E+02
  0
LINE
  8
0
 62
7
 10
-3.28999962E+02
 20
3.27500000E+02
 11
-3.28999962E+02
 21
2.33500000E+02
  0
LINE
  8
0
 62
7
 10
-3.28999870E+02
 20
3.27499969E+02
 11
-2.93999931E+02
 21
3.27499969E+02
  0
LINE
  8
0
 62
7
 10
-1.67999931E+02
 20
3.27499969E+02
 11
-1.06999962E+02
 21
3.27499969E+02
  0
LINE
  8
0
 62
7
 10
-2.93999962E+02
 20
3.23999969E+02
 11
-1.67999977E+02
 21
3.23999969E+02
  0
LINE
  8
0
 62
7
 10
-3.28999962E+02
 20
2.33500000E+02
 11
-2.93999962E+02
 21
2.33500000E+02
  0
LINE
  8
0
 62
7
 10
-2.93999962E+02
 20
3.27500000E+02
 11
-2.93999962E+02
 21
2.33500000E+02
  0
LINE
  8
0
 62
7
 10
-1.67999977E+02
 20
3.27500000E+02
 11
-1.67999977E+02
 21
2.33500000E+02
  0
LINE
  8
0
 62
7
 10
-1.67999977E+02
 20
2.33500000E+02
 11
-1.06999962E+02
 21
2.33500000E+02
  0
LINE
  8
0
 62
7
 10
-2.93999962E+02
 20
2.36999969E+02
 11
-1.67999977E+02
 21
2.36999969E+02
  0
LINE
  8
0
 62
7
 10
-1.06999992E+02
 20
2.33500000E+02
 11
-1.06999992E+02
 21
3.27500000E+02
  0
LINE
  8
0
  6
CENTER
 62
2
 10
-3.35291161E+02
 20
2.45500000E+02
 11
-1.02066872E+02
 21
2.45500000E+02
  0
LINE
  8
0
 62
7
 10
-2.93999962E+02
 20
2.50000000E+02
 11
-1.67999977E+02
 21
2.50000000E+02
  0
LINE
  8
0
 62
7
 10
-2.93999962E+02
 20
2.41000000E+02
 11
-1.67999977E+02
 21
2.41000000E+02
  0
LINE
  8
0
  6
CENTER
 62
2
 10
-3.34674553E+02
 20
3.15500000E+02
 11
-1.02066872E+02
 21
3.15500000E+02
  0
LINE
  8
0
 62
7
 10
-2.93999962E+02
 20
3.11000031E+02
 11
-1.67999977E+02
 21
3.11000031E+02
  0
LINE
  8
0
 62
7
 10
-2.93999962E+02
 20
3.20000000E+02
 11
-1.67999977E+02
 21
3.20000000E+02
  0
LINE
  8
0
  6
CENTER
 62
2
 10
-2.30999962E+02
 20
2.96960754E+02
 11
-2.30999962E+02
 21
2.63378906E+02
  0
LINE
  8
0
  6
CENTER
 62
2
 10
-1.83000008E+02
 20
2.38978271E+02
 11
-1.83000008E+02
 21
2.20412338E+02
  0
LINE
  8
0
 62
7
 10
-1.75000023E+02
 20
2.31999969E+02
 11
-1.91000008E+02
 21
2.31999969E+02
  0
LINE
  8
0
 62
7
 10
-1.90999962E+02
 20
2.36999969E+02
 11
-1.90999962E+02
 21
2.31999969E+02
  0
LINE
  8
0
 62
7
 10
-1.74999977E+02
 20
2.36999969E+02
 11
-1.74999977E+02
 21
2.31999969E+02
  0
LINE
  8
0
 62
7
 10
-1.79699989E+02
 20
2.23499985E+02
 11
-1.86299995E+02
 21
2.23499985E+02
  0
LINE
  8
0
 62
7
 10
-1.77250008E+02
 20
2.25500000E+02
 11
-1.88750023E+02
 21
2.25500000E+02
  0
LINE
  8
0
 62
7
 10
-1.89950005E+02
 20
2.31999969E+02
 11
-1.89950005E+02
 21
2.26192825E+02
  0
LINE
  8
0
 62
7
 10
-1.76050011E+02
 20
2.31999969E+02
 11
-1.76050011E+02
 21
2.26192825E+02
  0
LINE
  8
0
 62
7
 10
-1.88750076E+02
 20
2.25499686E+02
 11
-1.89950084E+02
 21
2.26192511E+02
  0
LINE
  8
0
 62
7
 10
-1.76049834E+02
 20
2.26192701E+02
 11
-1.77249843E+02
 21
2.25499876E+02
  0
LINE
  8
0
 62
7
 10
-1.79524971E+02
 20
2.31999969E+02
 11
-1.79524971E+02
 21
2.26192825E+02
  0
LINE
  8
0
 62
7
 10
-1.86474968E+02
 20
2.31999969E+02
 11
-1.86474968E+02
 21
2.26192825E+02
  0
LINE
  8
0
 62
7
 10
-1.78999992E+02
 20
2.25500000E+02
 11
-1.78999992E+02
 21
2.24200027E+02
  0
LINE
  8
0
 62
7
 10
-1.87000023E+02
 20
2.25500000E+02
 11
-1.87000023E+02
 21
2.24200027E+02
  0
LINE
  8
0
 62
2
 10
-1.79699989E+02
 20
2.25500000E+02
 11
-1.79699989E+02
 21
2.23499985E+02
  0
LINE
  8
0
 62
2
 10
-1.86300026E+02
 20
2.25500000E+02
 11
-1.86300026E+02
 21
2.23499985E+02
  0
LINE
  8
0
 62
7
 10
-1.78999992E+02
 20
2.24199982E+02
 11
-1.87000023E+02
 21
2.24199982E+02
  0
LINE
  8
0
 62
7
 10
-1.78999951E+02
 20
2.24199991E+02
 11
-1.79699937E+02
 21
2.23500006E+02
  0
LINE
  8
0
 62
7
 10
-1.86300102E+02
 20
2.23499834E+02
 11
-1.87000131E+02
 21
2.24199863E+02
  0
LINE
  8
0
 62
7
 10
-1.58000209E+02
 20
2.97232754E+02
 11
-1.55000265E+02
 21
2.98964762E+02
  0
LINE
  8
0
 62
7
 10
-1.54999286E+02
 20
2.98965325E+02
 11
-1.51999326E+02
 21
2.97233308E+02
  0
LINE
  8
0
 62
7
 10
-1.51999962E+02
 20
2.93767944E+02
 11
-1.51999962E+02
 21
2.97232056E+02
  0
LINE
  8
0
 62
7
 10
-1.55000049E+02
 20
2.92036447E+02
 11
-1.52000056E+02
 21
2.93768483E+02
  0
LINE
  8
0
 62
7
 10
-1.57999287E+02
 20
2.93769138E+02
 11
-1.54999248E+02
 21
2.92037075E+02
  0
LINE
  8
0
 62
7
 10
-1.57999977E+02
 20
2.97232056E+02
 11
-1.57999977E+02
 21
2.93767944E+02
  0
LINE
  8
0
  6
CENTER
 62
2
 10
-1.45940086E+02
 20
2.95500000E+02
 11
-1.64284874E+02
 21
2.95500000E+02
  0
LINE
  8
0
  6
CENTER
 62
2
 10
-1.54999947E+02
 20
3.04778992E+02
 11
-1.54999947E+02
 21
2.86213196E+02
  0
LINE
  8
0
 62
7
 10
-1.75000023E+02
 20
3.28999939E+02
 11
-1.91000008E+02
 21
3.28999939E+02
  0
LINE
  8
0
 62
7
 10
-1.90999962E+02
 20
3.23999939E+02
 11
-1.90999962E+02
 21
3.28999939E+02
  0
LINE
  8
0
 62
7
 10
-1.74999977E+02
 20
3.23999939E+02
 11
-1.74999977E+02
 21
3.28999939E+02
  0
LINE
  8
0
 62
7
 10
-3.56999931E+02
 20
2.89000000E+02
 11
-3.56999931E+02
 21
2.72000000E+02
  0
LINE
  8
0
 62
7
 10
-3.46499962E+02
 20
2.70500031E+02
 11
-3.44999992E+02
 21
2.70500031E+02
  0
LINE
  8
0
 62
7
 10
-3.46499931E+02
 20
2.90500031E+02
 11
-3.44999962E+02
 21
2.90500031E+02
  0
LINE
  8
0
 62
7
 10
-3.62999901E+02
 20
2.71500000E+02
 11
-3.62999901E+02
 21
2.89500000E+02
  0
LINE
  8
0
 62
7
 10
-3.91999931E+02
 20
2.73000031E+02
 11
-3.91999931E+02
 21
2.87999847E+02
  0
LINE
  8
0
 62
7
 10
-3.90499901E+02
 20
2.71500000E+02
 11
-3.90499901E+02
 21
2.89500000E+02
  0
LINE
  8
0
 62
7
 10
-3.90499870E+02
 20
2.89500000E+02
 11
-3.82999931E+02
 21
2.89500000E+02
  0
LINE
  8
0
 62
2
 10
-3.91319878E+02
 20
2.88679993E+02
 11
-3.82999931E+02
 21
2.88679993E+02
  0
LINE
  8
0
 62
7
 10
-3.91999794E+02
 20
2.87999843E+02
 11
-3.90499759E+02
 21
2.89499833E+02
  0
LINE
  8
0
 62
7
 10
-3.90499870E+02
 20
2.71500031E+02
 11
-3.82999931E+02
 21
2.71500031E+02
  0
LINE
  8
0
 62
2
 10
-3.91319878E+02
 20
2.72320038E+02
 11
-3.82999931E+02
 21
2.72320038E+02
  0
LINE
  8
0
 62
7
 10
-3.91999964E+02
 20
2.73000127E+02
 11
-3.90499950E+02
 21
2.71500159E+02
  0
LINE
  8
0
 62
7
 10
-3.62999901E+02
 20
2.72320038E+02
 11
-3.59999931E+02
 21
2.72320038E+02
  0
LINE
  8
0
 62
7
 10
-3.62999901E+02
 20
2.88679993E+02
 11
-3.59999931E+02
 21
2.88679993E+02
  0
LINE
  8
0
 62
7
 10
-3.59999931E+02
 20
2.72000000E+02
 11
-3.59999931E+02
 21
2.89000000E+02
  0
LINE
  8
0
 62
7
 10
-3.59999931E+02
 20
2.72000000E+02
 11
-3.47999992E+02
 21
2.72000000E+02
  0
LINE
  8
0
 62
7
 10
-3.59999931E+02
 20
2.89000031E+02
 11
-3.47999992E+02
 21
2.89000031E+02
  0
LINE
  8
0
 62
7
 10
-3.48000062E+02
 20
2.72000096E+02
 11
-3.46500092E+02
 21
2.70500127E+02
  0
LINE
  8
0
 62
7
 10
-3.48000122E+02
 20
2.89000170E+02
 11
-3.46500099E+02
 21
2.90500193E+02
  0
LINE
  8
0
  6
CENTER
 62
2
 10
-9.93648605E+01
 20
2.88500000E+02
 11
-7.77606888E+01
 21
2.88500000E+02
  0
LINE
  8
0
  6
CENTER
 62
2
 10
-8.90000687E+01
 20
2.78499969E+02
 11
-8.90000687E+01
 21
2.99046265E+02
  0
LINE
  8
0
 62
7
 10
-8.11340256E+01
 20
2.70000000E+02
 11
-8.28660965E+01
 21
2.70000000E+02
  0
LINE
  8
0
 62
7
 10
-8.02679642E+01
 20
2.68499908E+02
 11
-8.11339882E+01
 21
2.69999915E+02
  0
LINE
  8
0
 62
7
 10
-3.30499962E+02
 20
2.61499969E+02
 11
-3.28999962E+02
 21
2.61499969E+02
  0
LINE
  8
0
 62
7
 10
-3.44499962E+02
 20
2.63500000E+02
 11
-3.39991417E+02
 21
2.63500000E+02
  0
LINE
  8
0
 62
7
 10
-3.39999962E+02
 20
2.63499969E+02
 11
-3.39999962E+02
 21
2.63491425E+02
  0
LINE
  8
0
 62
7
 10
-3.39758738E+02
 20
2.63241515E+02
 11
-3.31000039E+02
 21
2.62970576E+02
  0
LINE
  8
0
 62
7
 10
-1.06508758E+02
 20
2.43550074E+02
 11
-7.50000536E+01
 21
2.43000087E+02
  0
LINE
  8
0
 62
7
 10
-3.44999962E+02
 20
2.64000000E+02
 11
-3.44999962E+02
 21
2.96999969E+02
  0
LINE
  8
0
 62
7
 10
-3.30499962E+02
 20
2.99500000E+02
 11
-3.28999962E+02
 21
2.99500000E+02
  0
LINE
  8
0
 62
7
 10
-3.44499962E+02
 20
2.97499969E+02
 11
-3.39991417E+02
 21
2.97499969E+02
  0
LINE
  8
0
 62
7
 10
-3.39999962E+02
 20
2.97500000E+02
 11
-3.39999962E+02
 21
2.97508545E+02
  0
LINE
  8
0
 62
7
 10
-3.39758690E+02
 20
2.97758626E+02
 11
-3.31000022E+02
 21
2.98029564E+02
  0
LINE
  8
0
 62
7
 10
-7.49999924E+01
 20
2.43000031E+02
 11
-7.49999924E+01
 21
3.18000000E+02
  0
LINE
  8
0
 62
7
 10
-1.06508733E+02
 20
3.17450006E+02
 11
-7.50000126E+01
 21
3.17999993E+02
  0
LINE
  8
0
 62
7
 10
-3.30999962E+02
 20
2.61999969E+02
 11
-3.30999962E+02
 21
2.99000000E+02
  0
LINE
  8
0
 62
7
 10
-3.39999962E+02
 20
2.97500000E+02
 11
-3.39999962E+02
 21
2.63499969E+02
  0
LINE
  8
0
 62
7
 10
-1.00999992E+02
 20
3.05500000E+02
 11
-7.49999924E+01
 21
3.05500000E+02
  0
LINE
  8
0
 62
7
 10
-1.00999992E+02
 20
2.55499969E+02
 11
-7.49999924E+01
 21
2.55499969E+02
  0
LINE
  8
0
 62
7
 10
-1.03000008E+02
 20
3.03500000E+02
 11
-1.03000008E+02
 21
2.57500000E+02
  0
LINE
  8
0
 62
7
 10
-8.37319296E+01
 20
2.68499851E+02
 11
-8.28659057E+01
 21
2.69999858E+02
  0
LINE
  8
0
  6
CENTER
 62
2
 10
5.63648520E+01
 20
2.88500000E+02
 11
3.47606735E+01
 21
2.88500000E+02
  0
LINE
  8
0
  6
CENTER
 62
2
 10
4.60000458E+01
 20
2.78499969E+02
 11
4.60000458E+01
 21
2.99046265E+02
  0
LINE
  8
0
 62
7
 10
6.54999916E+01
 20
2.99499969E+02
 11
6.39999915E+01
 21
2.99499969E+02
  0
LINE
  8
0
 62
7
 10
6.35087350E+01
 20
3.17449982E+02
 11
3.20000454E+01
 21
3.17999968E+02
  0
LINE
  8
0
 62
7
 10
6.54999916E+01
 20
2.61499969E+02
 11
6.39999915E+01
 21
2.61499969E+02
  0
LINE
  8
0
 62
7
 10
6.39999801E+01
 20
3.16950073E+02
 11
6.39999801E+01
 21
2.44049896E+02
  0
LINE
  8
0
 62
7
 10
3.19999924E+01
 20
3.17999939E+02
 11
3.19999924E+01
 21
2.42999969E+02
  0
LINE
  8
0
 62
7
 10
6.35087297E+01
 20
2.43550006E+02
 11
3.20000136E+01
 21
2.43000020E+02
  0
LINE
  8
0
 62
7
 10
6.59999877E+01
 20
2.98999969E+02
 11
6.59999877E+01
 21
2.61999969E+02
  0
LINE
  8
0
 62
7
 10
5.79999838E+01
 20
2.55499969E+02
 11
3.19999924E+01
 21
2.55499969E+02
  0
LINE
  8
0
 62
7
 10
5.79999838E+01
 20
3.05500000E+02
 11
3.19999924E+01
 21
3.05500000E+02
  0
LINE
  8
0
 62
7
 10
5.99999838E+01
 20
2.57500000E+02
 11
5.99999838E+01
 21
3.03500000E+02
  0
LINE
  8
0
  6
CENTER
 62
2
 10
6.82292397E+01
 20
3.08500031E+02
 11
-1.10248085E+02
 21
3.08500031E+02
  0
LINE
  8
0
 62
7
 10
3.19999924E+01
 20
3.04899994E+02
 11
-3.39999924E+01
 21
3.04899994E+02
  0
LINE
  8
0
 62
7
 10
3.19999924E+01
 20
3.12100006E+02
 11
-3.39999924E+01
 21
3.12100006E+02
  0
LINE
  8
0
 62
7
 10
3.19999924E+01
 20
3.14499969E+02
 11
-3.39999924E+01
 21
3.14499969E+02
  0
LINE
  8
0
  6
CENTER
 62
2
 10
6.82292397E+01
 20
2.52499969E+02
 11
-1.10248085E+02
 21
2.52499969E+02
  0
LINE
  8
0
 62
7
 10
3.19999924E+01
 20
2.56100006E+02
 11
2.49999924E+01
 21
2.56100006E+02
  0
LINE
  8
0
 62
7
 10
3.19999924E+01
 20
2.48899994E+02
 11
9.99999237E+00
 21
2.48899994E+02
  0
LINE
  8
0
 62
7
 10
3.19999924E+01
 20
2.46500031E+02
 11
9.99999237E+00
 21
2.46500031E+02
  0
LINE
  8
0
  6
CENTER
 62
2
 10
3.90000229E+01
 20
2.74911133E+02
 11
3.90000229E+01
 21
2.61434387E+02
  0
LINE
  8
0
  6
CENTER
 62
2
 10
3.23342972E+01
 20
2.68500000E+02
 11
4.51630478E+01
 21
2.68500000E+02
  0
LINE
  8
0
 62
7
 10
4.07320790E+01
 20
2.68499895E+02
 11
3.98660551E+01
 21
2.69999901E+02
  0
LINE
  8
0
 62
7
 10
3.98660355E+01
 20
2.70000000E+02
 11
3.81339722E+01
 21
2.70000000E+02
  0
LINE
  8
0
 62
7
 10
3.72681345E+01
 20
2.68499870E+02
 11
3.81341431E+01
 21
2.69999850E+02
  0
LINE
  8
0
 62
7
 10
3.81340365E+01
 20
2.66999958E+02
 11
3.72679821E+01
 21
2.68500018E+02
  0
LINE
  8
0
 62
7
 10
3.98660355E+01
 20
2.66999969E+02
 11
3.81339722E+01
 21
2.66999969E+02
  0
LINE
  8
0
 62
7
 10
4.07321572E+01
 20
2.68499895E+02
 11
3.98661256E+01
 21
2.66999876E+02
  0
LINE
  8
0
 62
7
 10
-8.28659849E+01
 20
2.66999949E+02
 11
-8.37320240E+01
 21
2.68499982E+02
  0
LINE
  8
0
 62
7
 10
-8.11340256E+01
 20
2.66999969E+02
 11
-8.28660965E+01
 21
2.66999969E+02
  0
LINE
  8
0
 62
7
 10
-8.02679390E+01
 20
2.68499912E+02
 11
-8.11339781E+01
 21
2.66999879E+02
  0
LINE
  8
0
  6
CENTER
 62
2
 10
-8.86657639E+01
 20
2.68500000E+02
 11
-7.58370132E+01
 21
2.68500000E+02
  0
LINE
  8
0
  6
CENTER
 62
2
 10
-8.20000381E+01
 20
2.74911133E+02
 11
-8.20000381E+01
 21
2.61434387E+02
  0
CIRCLE
  8
0
 62
7
 10
-3.06999992E+02
 20
2.95500000E+02
 40
6.57850027E+00
  0
CIRCLE
  8
0
 62
7
 10
-3.06999992E+02
 20
2.95500000E+02
 40
5.72249985E+00
  0
ARC
  8
0
 62
7
 10
-2.84212395E+02
 20
2.28025131E+02
 40
2.52511263E+00
 50
2.53478125E+02
 51
3.13479008E+02
  0
ARC
  8
0
 62
7
 10
-2.73787437E+02
 20
2.28025131E+02
 40
2.52511263E+00
 50
2.26520987E+02
 51
2.86521856E+02
  0
ARC
  8
0
 62
7
 10
-2.78999870E+02
 20
2.34561127E+02
 40
9.06113529E+00
 50
2.47449035E+02
 51
2.92550946E+02
  0
ARC
  8
0
 62
7
 10
-1.77787529E+02
 20
2.28025131E+02
 40
2.52511263E+00
 50
2.26520973E+02
 51
2.86521856E+02
  0
ARC
  8
0
 62
7
 10
-1.88212486E+02
 20
2.28025131E+02
 40
2.52511263E+00
 50
2.53478118E+02
 51
3.13478987E+02
  0
ARC
  8
0
 62
7
 10
-1.83000008E+02
 20
2.34561127E+02
 40
9.06113529E+00
 50
2.47449028E+02
 51
2.92550939E+02
  0
CIRCLE
  8
0
 62
2
 10
-2.30999962E+02
 20
2.80500000E+02
 40
6.57850027E+00
  0
CIRCLE
  8
0
 62
7
 10
-2.30999962E+02
 20
2.80500000E+02
 40
5.72249985E+00
  0
CIRCLE
  8
0
 62
7
 10
-1.54999947E+02
 20
2.95500000E+02
 40
6.57850027E+00
  0
CIRCLE
  8
0
 62
7
 10
-1.54999947E+02
 20
2.95500000E+02
 40
5.72249985E+00
  0
CIRCLE
  8
0
 62
7
 10
-2.30999962E+02
 20
2.80500000E+02
 40
9.99999905E+00
  0
CIRCLE
  8
0
 62
2
 10
-2.30999962E+02
 20
2.80500000E+02
 40
1.19999990E+01
  0
ARC
  8
0
 62
7
 10
-3.44499962E+02
 20
2.64000031E+02
 40
5.00000000E-01
 50
1.79999977E+02
 51
2.69999974E+02
  0
ARC
  8
0
 62
7
 10
-3.39749962E+02
 20
2.63491455E+02
 40
2.50000000E-01
 50
1.79999977E+02
 51
2.68001132E+02
  0
ARC
  8
0
 62
7
 10
-1.06500008E+02
 20
2.44049927E+02
 40
5.00000000E-01
 50
1.79999977E+02
 51
2.68999706E+02
  0
ARC
  8
0
 62
7
 10
-3.30499962E+02
 20
2.61999969E+02
 40
5.00000000E-01
 50
1.79999977E+02
 51
2.69999974E+02
  0
ARC
  8
0
 62
7
 10
-3.44499962E+02
 20
2.96999939E+02
 40
5.00000000E-01
 50
8.99999818E+01
 51
1.79999964E+02
  0
ARC
  8
0
 62
7
 10
-3.39749962E+02
 20
2.97508514E+02
 40
2.50000000E-01
 50
9.19988230E+01
 51
1.79999977E+02
  0
ARC
  8
0
 62
7
 10
-1.06500008E+02
 20
3.16950073E+02
 40
5.00000000E-01
 50
9.10002223E+01
 51
1.79999964E+02
  0
ARC
  8
0
 62
7
 10
-3.30499962E+02
 20
2.98999969E+02
 40
5.00000000E-01
 50
8.99999818E+01
 51
1.79999964E+02
  0
CIRCLE
  8
0
 62
7
 10
-8.90000687E+01
 20
2.88500000E+02
 40
8.71000004E+00
  0
CIRCLE
  8
0
 62
7
 10
-8.90000687E+01
 20
2.88500000E+02
 40
7.44000006E+00
  0
ARC
  8
0
 62
7
 10
-1.00999992E+02
 20
3.03500000E+02
 40
2.00000000E+00
 50
8.99999818E+01
 51
1.79999964E+02
  0
ARC
  8
0
 62
7
 10
-1.00999992E+02
 20
2.57499969E+02
 40
2.00000000E+00
 50
1.79999977E+02
 51
2.70000028E+02
  0
CIRCLE
  8
0
 62
2
 10
-8.90000687E+01
 20
2.88500000E+02
 40
8.32999992E+00
  0
ARC
  8
0
 62
7
 10
6.34999878E+01
 20
3.16950073E+02
 40
5.00000000E-01
 50
5.46415133E-05
 51
8.89997964E+01
  0
ARC
  8
0
 62
7
 10
6.54999954E+01
 20
2.98999969E+02
 40
5.00000000E-01
 50
5.46415133E-05
 51
9.00000369E+01
  0
ARC
  8
0
 62
7
 10
6.34999878E+01
 20
2.44049866E+02
 40
5.00000000E-01
 50
2.71000313E+02
 51
5.46415133E-05
  0
ARC
  8
0
 62
7
 10
6.54999954E+01
 20
2.61999969E+02
 40
5.00000000E-01
 50
2.70000073E+02
 51
5.46415133E-05
  0
CIRCLE
  8
0
 62
7
 10
4.60000458E+01
 20
2.88500000E+02
 40
8.71000004E+00
  0
CIRCLE
  8
0
 62
7
 10
4.60000458E+01
 20
2.88500000E+02
 40
7.44000006E+00
  0
ARC
  8
0
 62
7
 10
5.79999990E+01
 20
2.57499969E+02
 40
2.00000000E+00
 50
2.70000073E+02
 51
5.46415133E-05
  0
ARC
  8
0
 62
7
 10
5.79999990E+01
 20
3.03500000E+02
 40
2.00000000E+00
 50
5.46415133E-05
 51
9.00000913E+01
  0
CIRCLE
  8
0
 62
2
 10
4.60000458E+01
 20
2.88500000E+02
 40
8.32999992E+00
  0
CIRCLE
  8
0
 62
7
 10
-8.20000381E+01
 20
2.68500000E+02
 40
2.59999990E+00
  0
CIRCLE
  8
0
 62
7
 10
3.90000229E+01
 20
2.68500000E+02
 40
2.59999990E+00
  0
CIRCLE
  8
0
 62
7
 10
3.90000229E+01
 20
2.68500000E+02
 40
5.00000000E+00
  0
CIRCLE
  8
0
 62
7
 10
-8.20000381E+01
 20
2.68500000E+02
 40
5.00000000E+00
  0
INSERT
  8
0
  2
PP1
  6
BYBLOCK
 62
0
 10
0.00000000E+00
 20
0.00000000E+00
 41
1.00000000E+00
 42
1.00000000E+00
 50
0.00000000E+00
  0
INSERT
  8
0
  2
PP2
  6
BYBLOCK
 62
0
 10
0.00000000E+00
 20
0.00000000E+00
 41
1.00000000E+00
 42
1.00000000E+00
 50
0.00000000E+00
  0
ARC
  8
0
 62
4
 10
-3.91496324E+02
 20
2.73750000E+02
 40
1.94963929E+01
 50
3.39743842E+02
 51
2.02561580E+01
  0
ARC
  8
0
 62
4
 10
-3.91496324E+02
 20
2.87250000E+02
 40
1.94963929E+01
 50
3.39743842E+02
 51
2.02561580E+01
  0
ARC
  8
0
 62
4
 10
-3.63503538E+02
 20
2.87250000E+02
 40
1.94963929E+01
 50
1.59743842E+02
 51
2.00256158E+02
  0
ARC
  8
0
 62
4
 10
-3.63503538E+02
 20
2.73750000E+02
 40
1.94963929E+01
 50
1.59743842E+02
 51
2.00256158E+02
  0
LINE
  8
0
 62
4
 10
-3.73205703E+02
 20
2.80500000E+02
 11
-3.81794160E+02
 21
2.80500000E+02
  0
LINE
  8
0
 62
4
 10
-3.71999931E+02
 20
2.67000000E+02
 11
-3.82999931E+02
 21
2.67000000E+02
  0
LINE
  8
0
 62
4
 10
-3.71999931E+02
 20
2.94000000E+02
 11
-3.82999931E+02
 21
2.94000000E+02
  0
LINE
  8
0
 62
4
 10
-3.82999931E+02
 20
2.94000000E+02
 11
-3.82999931E+02
 21
2.67000000E+02
  0
LINE
  8
0
 62
4
 10
-3.71999931E+02
 20
2.94000000E+02
 11
-3.71999931E+02
 21
2.67000000E+02
  0
LINE
  8
0
 62
7
 10
-3.71999931E+02
 20
2.89500000E+02
 11
-3.62999901E+02
 21
2.89500000E+02
  0
LINE
  8
0
 62
2
 10
-3.71999931E+02
 20
2.88679993E+02
 11
-3.62999901E+02
 21
2.88679993E+02
  0
LINE
  8
0
 62
7
 10
-3.71999931E+02
 20
2.71500031E+02
 11
-3.62999901E+02
 21
2.71500031E+02
  0
LINE
  8
0
 62
2
 10
-3.71999931E+02
 20
2.72320038E+02
 11
-3.62999901E+02
 21
2.72320038E+02
  0
LINE
  8
0
 62
6
 10
-1.32679568E+01
 20
2.70928690E+02
 11
-1.67320584E+01
 21
2.64928690E+02
  0
LINE
  8
0
 62
4
 10
-5.00000763E+00
 20
2.69428690E+02
 11
-1.41339822E+01
 21
2.69428690E+02
  0
LINE
  8
0
  6
CENTER
 62
6
 10
2.99999924E+01
 20
2.67928690E+02
 11
-1.70000076E+01
 21
2.67928690E+02
  0
LINE
  8
0
 62
4
 10
-5.00000763E+00
 20
2.66428690E+02
 11
-1.58660330E+01
 21
2.66428690E+02
  0
LINE
  8
0
 62
6
 10
-2.57320432E+01
 20
2.90071310E+02
 11
-2.22679416E+01
 21
2.96071310E+02
  0
LINE
  8
0
 62
4
 10
-3.39999924E+01
 20
2.91571310E+02
 11
-2.48660178E+01
 21
2.91571310E+02
  0
LINE
  8
0
  6
CENTER
 62
6
 10
-6.89999924E+01
 20
2.93071310E+02
 11
-2.19999924E+01
 21
2.93071310E+02
  0
LINE
  8
0
 62
4
 10
-3.39999924E+01
 20
2.94571310E+02
 11
-2.31339670E+01
 21
2.94571310E+02
  0
LINE
  8
0
 62
4
 10
4.49999234E+00
 20
2.42392203E+02
 11
4.49999234E+00
 21
2.43232122E+02
  0
LINE
  8
0
 62
4
 10
8.49999234E+00
 20
2.42392203E+02
 11
8.49999234E+00
 21
2.43232122E+02
  0
LINE
  8
0
 62
6
 10
4.99999234E+00
 20
2.41983412E+02
 11
4.99999234E+00
 21
2.43232122E+02
  0
LINE
  8
0
 62
6
 10
7.99999234E+00
 20
2.41983412E+02
 11
7.99999234E+00
 21
2.43232122E+02
  0
LINE
  8
0
  6
CENTER
 62
6
 10
1.74999924E+01
 20
2.64544849E+02
 11
1.74999924E+01
 21
2.69544849E+02
  0
LINE
  8
0
  6
CENTER
 62
6
 10
6.49999234E+00
 20
2.37834391E+02
 11
6.49999234E+00
 21
2.48099969E+02
  0
LINE
  8
0
  6
CENTER
 62
6
 10
-1.50000766E+00
 20
2.37834391E+02
 11
-1.50000766E+00
 21
2.48099969E+02
  0
LINE
  8
0
 62
4
 10
2.49999924E+01
 20
2.55858390E+02
 11
2.49999924E+01
 21
2.68868049E+02
  0
LINE
  8
0
 62
4
 10
-5.00000763E+00
 20
2.43232122E+02
 11
-5.00000763E+00
 21
2.70598544E+02
  0
LINE
  8
0
 62
4
 10
9.99999237E+00
 20
2.43232122E+02
 11
9.99999237E+00
 21
2.55858390E+02
  0
LINE
  8
0
 62
4
 10
2.64999924E+01
 20
2.66500052E+02
 11
2.64999924E+01
 21
2.69354118E+02
  0
LINE
  8
0
 62
4
 10
9.99999237E+00
 20
2.43232122E+02
 11
-5.00000763E+00
 21
2.43232122E+02
  0
LINE
  8
0
 62
4
 10
9.99999237E+00
 20
2.51578636E+02
 11
-5.00000763E+00
 21
2.51578636E+02
  0
LINE
  8
0
 62
4
 10
2.49999924E+01
 20
2.55858390E+02
 11
-5.00000763E+00
 21
2.55858390E+02
  0
LINE
  8
0
 62
4
 10
2.49999924E+01
 20
2.65654273E+02
 11
-5.00000763E+00
 21
2.65654273E+02
  0
LINE
  8
0
 62
4
 10
2.49999924E+01
 20
2.70598544E+02
 11
1.39017600E+01
 21
2.70598544E+02
  0
POLYLINE
  8
0
 62
4
 66
1
  0
VERTEX
  8
0
 62
4
 10
4.49999234E+00
 20
2.42392203E+02
  0
VERTEX
  8
0
 62
4
 10
4.50804375E+00
 20
2.42336803E+02
  0
VERTEX
  8
0
 62
4
 10
4.53213316E+00
 20
2.42281849E+02
  0
VERTEX
  8
0
 62
4
 10
4.57206662E+00
 20
2.42227783E+02
  0
VERTEX
  8
0
 62
4
 10
4.62752260E+00
 20
2.42175041E+02
  0
VERTEX
  8
0
 62
4
 10
4.69805460E+00
 20
2.42124048E+02
  0
VERTEX
  8
0
 62
4
 10
4.78309475E+00
 20
2.42075214E+02
  0
VERTEX
  8
0
 62
4
 10
4.88195835E+00
 20
2.42028932E+02
  0
VERTEX
  8
0
 62
4
 10
4.99384940E+00
 20
2.41985575E+02
  0
VERTEX
  8
0
 62
4
 10
5.11786704E+00
 20
2.41945491E+02
  0
VERTEX
  8
0
 62
4
 10
5.25301273E+00
 20
2.41909005E+02
  0
VERTEX
  8
0
 62
4
 10
5.39819837E+00
 20
2.41876408E+02
  0
VERTEX
  8
0
 62
4
 10
5.55225501E+00
 20
2.41847965E+02
  0
VERTEX
  8
0
 62
4
 10
5.71394227E+00
 20
2.41823904E+02
  0
VERTEX
  8
0
 62
4
 10
5.88195834E+00
 20
2.41804418E+02
  0
VERTEX
  8
0
 62
4
 10
6.05495046E+00
 20
2.41789664E+02
  0
VERTEX
  8
0
 62
4
 10
6.23152580E+00
 20
2.41779762E+02
  0
VERTEX
  8
0
 62
4
 10
6.41026267E+00
 20
2.41774791E+02
  0
VERTEX
  8
0
 62
4
 10
6.58972199E+00
 20
2.41774791E+02
  0
VERTEX
  8
0
 62
4
 10
6.76845886E+00
 20
2.41779762E+02
  0
VERTEX
  8
0
 62
4
 10
6.94503420E+00
 20
2.41789664E+02
  0
VERTEX
  8
0
 62
4
 10
7.11802632E+00
 20
2.41804418E+02
  0
VERTEX
  8
0
 62
4
 10
7.28604239E+00
 20
2.41823904E+02
  0
VERTEX
  8
0
 62
4
 10
7.44772965E+00
 20
2.41847965E+02
  0
VERTEX
  8
0
 62
4
 10
7.60178629E+00
 20
2.41876408E+02
  0
VERTEX
  8
0
 62
4
 10
7.74697193E+00
 20
2.41909005E+02
  0
VERTEX
  8
0
 62
4
 10
7.88211763E+00
 20
2.41945491E+02
  0
VERTEX
  8
0
 62
4
 10
8.00613526E+00
 20
2.41985575E+02
  0
VERTEX
  8
0
 62
4
 10
8.11802632E+00
 20
2.42028932E+02
  0
VERTEX
  8
0
 62
4
 10
8.21688992E+00
 20
2.42075214E+02
  0
VERTEX
  8
0
 62
4
 10
8.30193007E+00
 20
2.42124048E+02
  0
VERTEX
  8
0
 62
4
 10
8.37246208E+00
 20
2.42175041E+02
  0
VERTEX
  8
0
 62
4
 10
8.42791806E+00
 20
2.42227783E+02
  0
VERTEX
  8
0
 62
4
 10
8.46785151E+00
 20
2.42281849E+02
  0
VERTEX
  8
0
 62
4
 10
8.49194093E+00
 20
2.42336803E+02
  0
VERTEX
  8
0
 62
4
 10
8.49999234E+00
 20
2.42392203E+02
  0
SEQEND
  8
0
  0
LINE
  8
0
 62
4
 10
-3.50000766E+00
 20
2.42392203E+02
 11
-3.50000766E+00
 21
2.43232122E+02
  0
LINE
  8
0
 62
6
 10
-3.00000766E+00
 20
2.41983412E+02
 11
-3.00000766E+00
 21
2.43232122E+02
  0
POLYLINE
  8
0
 62
4
 66
1
  0
VERTEX
  8
0
 62
4
 10
-3.50000766E+00
 20
2.42392203E+02
  0
VERTEX
  8
0
 62
4
 10
-3.49195625E+00
 20
2.42336803E+02
  0
VERTEX
  8
0
 62
4
 10
-3.46786684E+00
 20
2.42281849E+02
  0
VERTEX
  8
0
 62
4
 10
-3.42793338E+00
 20
2.42227783E+02
  0
VERTEX
  8
0
 62
4
 10
-3.37247740E+00
 20
2.42175041E+02
  0
VERTEX
  8
0
 62
4
 10
-3.30194540E+00
 20
2.42124048E+02
  0
VERTEX
  8
0
 62
4
 10
-3.21690525E+00
 20
2.42075214E+02
  0
VERTEX
  8
0
 62
4
 10
-3.11804165E+00
 20
2.42028932E+02
  0
VERTEX
  8
0
 62
4
 10
-3.00615060E+00
 20
2.41985575E+02
  0
VERTEX
  8
0
 62
4
 10
-2.88213296E+00
 20
2.41945491E+02
  0
VERTEX
  8
0
 62
4
 10
-2.74698727E+00
 20
2.41909005E+02
  0
VERTEX
  8
0
 62
4
 10
-2.60180163E+00
 20
2.41876408E+02
  0
VERTEX
  8
0
 62
4
 10
-2.44774499E+00
 20
2.41847965E+02
  0
VERTEX
  8
0
 62
4
 10
-2.28605773E+00
 20
2.41823904E+02
  0
VERTEX
  8
0
 62
4
 10
-2.11804166E+00
 20
2.41804418E+02
  0
VERTEX
  8
0
 62
4
 10
-1.94504954E+00
 20
2.41789664E+02
  0
VERTEX
  8
0
 62
4
 10
-1.76847420E+00
 20
2.41779762E+02
  0
VERTEX
  8
0
 62
4
 10
-1.58973733E+00
 20
2.41774791E+02
  0
VERTEX
  8
0
 62
4
 10
-1.41027801E+00
 20
2.41774791E+02
  0
VERTEX
  8
0
 62
4
 10
-1.23154114E+00
 20
2.41779762E+02
  0
VERTEX
  8
0
 62
4
 10
-1.05496580E+00
 20
2.41789664E+02
  0
VERTEX
  8
0
 62
4
 10
-8.81973682E-01
 20
2.41804418E+02
  0
VERTEX
  8
0
 62
4
 10
-7.13957607E-01
 20
2.41823904E+02
  0
VERTEX
  8
0
 62
4
 10
-5.52270346E-01
 20
2.41847965E+02
  0
VERTEX
  8
0
 62
4
 10
-3.98213707E-01
 20
2.41876408E+02
  0
VERTEX
  8
0
 62
4
 10
-2.53028066E-01
 20
2.41909005E+02
  0
VERTEX
  8
0
 62
4
 10
-1.17882371E-01
 20
2.41945491E+02
  0
VERTEX
  8
0
 62
4
 10
6.13526364E-03
 20
2.41985575E+02
  0
VERTEX
  8
0
 62
4
 10
1.18026321E-01
 20
2.42028932E+02
  0
VERTEX
  8
0
 62
4
 10
2.16889920E-01
 20
2.42075214E+02
  0
VERTEX
  8
0
 62
4
 10
3.01930070E-01
 20
2.42124048E+02
  0
VERTEX
  8
0
 62
4
 10
3.72462077E-01
 20
2.42175041E+02
  0
VERTEX
  8
0
 62
4
 10
4.27918058E-01
 20
2.42227783E+02
  0
VERTEX
  8
0
 62
4
 10
4.67851515E-01
 20
2.42281849E+02
  0
VERTEX
  8
0
 62
4
 10
4.91940927E-01
 20
2.42336803E+02
  0
VERTEX
  8
0
 62
4
 10
4.99992340E-01
 20
2.42392203E+02
  0
SEQEND
  8
0
  0
LINE
  8
0
 62
4
 10
4.99992341E-01
 20
2.42392203E+02
 11
4.99992341E-01
 21
2.43232122E+02
  0
LINE
  8
0
 62
6
 10
-7.65877661E-06
 20
2.41983412E+02
 11
-7.65877661E-06
 21
2.43232122E+02
  0
LINE
  8
0
 62
4
 10
2.49999924E+01
 20
2.65408543E+02
 11
2.64999924E+01
 21
2.66500052E+02
  0
LINE
  8
0
 62
4
 10
2.64999924E+01
 20
2.68654195E+02
 11
2.49999924E+01
 21
2.69212769E+02
  0
LINE
  8
0
 62
4
 10
2.49999924E+01
 20
2.70448837E+02
 11
2.64999924E+01
 21
2.69354118E+02
  0
LINE
  8
0
 62
4
 10
2.49999924E+01
 20
2.68868049E+02
 11
1.41499924E+01
 21
2.68868049E+02
  0
LINE
  8
0
 62
4
 10
-5.65605732E-01
 20
2.70289527E+02
 11
-5.00000762E+00
 21
2.70289527E+02
  0
LINE
  8
0
 62
4
 10
2.49999924E+01
 20
2.69212769E+02
 11
1.41499924E+01
 21
2.69212769E+02
  0
LINE
  8
0
 62
4
 10
2.49999924E+01
 20
2.70448837E+02
 11
1.40446076E+01
 21
2.70448837E+02
  0
LINE
  8
0
 62
4
 10
2.49999924E+01
 20
2.68868049E+02
 11
2.49999924E+01
 21
2.70448837E+02
  0
LINE
  8
0
 62
4
 10
2.49999924E+01
 20
2.70448837E+02
 11
2.49999924E+01
 21
2.70598544E+02
  0
ARC
  8
0
 62
4
 10
4.89999269E+00
 20
2.69543217E+02
 40
1.00000000E+00
 50
3.60000000E+02
 51
7.71724899E+01
  0
ARC
  8
0
 62
4
 10
9.99920487E-02
 20
2.69543217E+02
 40
1.00000000E+00
 50
1.02827510E+02
 51
1.80000000E+02
  0
ARC
  8
0
 62
4
 10
2.49999237E+00
 20
2.59003003E+02
 40
1.18100000E+01
 50
7.71724899E+01
 51
1.02827510E+02
  0
LINE
  8
0
 62
4
 10
1.41499924E+01
 20
2.70161669E+02
 11
1.41499924E+01
 21
2.68487810E+02
  0
LINE
  8
0
 62
4
 10
5.84999239E+00
 20
2.70161669E+02
 11
5.84999239E+00
 21
2.69855468E+02
  0
POLYLINE
  8
0
 62
4
 66
1
  0
VERTEX
  8
0
 62
4
 10
6.29999238E+00
 20
2.67907014E+02
  0
VERTEX
  8
0
 62
4
 10
6.48180736E+00
 20
2.67807630E+02
  0
VERTEX
  8
0
 62
4
 10
6.69150461E+00
 20
2.67713637E+02
  0
VERTEX
  8
0
 62
4
 10
6.92742225E+00
 20
2.67625779E+02
  0
VERTEX
  8
0
 62
4
 10
7.18769057E+00
 20
2.67544753E+02
  0
VERTEX
  8
0
 62
4
 10
7.47024691E+00
 20
2.67471201E+02
  0
VERTEX
  8
0
 62
4
 10
7.77285196E+00
 20
2.67405706E+02
  0
VERTEX
  8
0
 62
4
 10
8.09310751E+00
 20
2.67348786E+02
  0
VERTEX
  8
0
 62
4
 10
8.42847548E+00
 20
2.67300894E+02
  0
VERTEX
  8
0
 62
4
 10
8.77629801E+00
 20
2.67262408E+02
  0
VERTEX
  8
0
 62
4
 10
9.13381855E+00
 20
2.67233633E+02
  0
VERTEX
  8
0
 62
4
 10
9.49820367E+00
 20
2.67214798E+02
  0
VERTEX
  8
0
 62
4
 10
9.86656557E+00
 20
2.67206052E+02
  0
VERTEX
  8
0
 62
4
 10
1.02359849E+01
 20
2.67207465E+02
  0
VERTEX
  8
0
 62
4
 10
1.06035339E+01
 20
2.67219024E+02
  0
VERTEX
  8
0
 62
4
 10
1.09662998E+01
 20
2.67240638E+02
  0
VERTEX
  8
0
 62
4
 10
1.13214075E+01
 20
2.67272137E+02
  0
VERTEX
  8
0
 62
4
 10
1.16660427E+01
 20
2.67313270E+02
  0
VERTEX
  8
0
 62
4
 10
1.19974742E+01
 20
2.67363711E+02
  0
VERTEX
  8
0
 62
4
 10
1.23130753E+01
 20
2.67423062E+02
  0
VERTEX
  8
0
 62
4
 10
1.26103447E+01
 20
2.67490850E+02
  0
VERTEX
  8
0
 62
4
 10
1.28869266E+01
 20
2.67566540E+02
  0
VERTEX
  8
0
 62
4
 10
1.31406291E+01
 20
2.67649531E+02
  0
VERTEX
  8
0
 62
4
 10
1.33694414E+01
 20
2.67739165E+02
  0
VERTEX
  8
0
 62
4
 10
1.35715501E+01
 20
2.67834732E+02
  0
VERTEX
  8
0
 62
4
 10
1.37453537E+01
 20
2.67935476E+02
  0
VERTEX
  8
0
 62
4
 10
1.38894745E+01
 20
2.68040596E+02
  0
VERTEX
  8
0
 62
4
 10
1.40027705E+01
 20
2.68149261E+02
  0
VERTEX
  8
0
 62
4
 10
1.40843437E+01
 20
2.68260609E+02
  0
VERTEX
  8
0
 62
4
 10
1.41335476E+01
 20
2.68373758E+02
  0
VERTEX
  8
0
 62
4
 10
1.41499924E+01
 20
2.68487810E+02
  0
SEQEND
  8
0
  0
POLYLINE
  8
0
 62
4
 66
1
  0
VERTEX
  8
0
 62
4
 10
1.41499924E+01
 20
2.70161669E+02
  0
VERTEX
  8
0
 62
4
 10
1.41342004E+01
 20
2.70273439E+02
  0
VERTEX
  8
0
 62
4
 10
1.40869446E+01
 20
2.70384359E+02
  0
VERTEX
  8
0
 62
4
 10
1.40085846E+01
 20
2.70493584E+02
  0
VERTEX
  8
0
 62
4
 10
1.38997168E+01
 20
2.70600283E+02
  0
VERTEX
  8
0
 62
4
 10
1.37611697E+01
 20
2.70703643E+02
  0
VERTEX
  8
0
 62
4
 10
1.35939978E+01
 20
2.70802879E+02
  0
VERTEX
  8
0
 62
4
 10
1.33994734E+01
 20
2.70897235E+02
  0
VERTEX
  8
0
 62
4
 10
1.31790768E+01
 20
2.70985993E+02
  0
VERTEX
  8
0
 62
4
 10
1.29344855E+01
 20
2.71068477E+02
  0
VERTEX
  8
0
 62
4
 10
1.26675610E+01
 20
2.71144060E+02
  0
VERTEX
  8
0
 62
4
 10
1.23803346E+01
 20
2.71212166E+02
  0
VERTEX
  8
0
 62
4
 10
1.20749924E+01
 20
2.71272278E+02
  0
VERTEX
  8
0
 62
4
 10
1.17538582E+01
 20
2.71323937E+02
  0
VERTEX
  8
0
 62
4
 10
1.14193760E+01
 20
2.71366750E+02
  0
VERTEX
  8
0
 62
4
 10
1.10740914E+01
 20
2.71400392E+02
  0
VERTEX
  8
0
 62
4
 10
1.07206323E+01
 20
2.71424607E+02
  0
VERTEX
  8
0
 62
4
 10
1.03616887E+01
 20
2.71439210E+02
  0
VERTEX
  8
0
 62
4
 10
9.99999237E+00
 20
2.71444090E+02
  0
VERTEX
  8
0
 62
4
 10
9.63829603E+00
 20
2.71439210E+02
  0
VERTEX
  8
0
 62
4
 10
9.27935243E+00
 20
2.71424607E+02
  0
VERTEX
  8
0
 62
4
 10
8.92589333E+00
 20
2.71400392E+02
  0
VERTEX
  8
0
 62
4
 10
8.58060877E+00
 20
2.71366750E+02
  0
VERTEX
  8
0
 62
4
 10
8.24612658E+00
 20
2.71323937E+02
  0
VERTEX
  8
0
 62
4
 10
7.92499236E+00
 20
2.71272278E+02
  0
VERTEX
  8
0
 62
4
 10
7.61965015E+00
 20
2.71212166E+02
  0
VERTEX
  8
0
 62
4
 10
7.33242378E+00
 20
2.71144060E+02
  0
VERTEX
  8
0
 62
4
 10
7.06549922E+00
 20
2.71068477E+02
  0
VERTEX
  8
0
 62
4
 10
6.82090792E+00
 20
2.70985993E+02
  0
VERTEX
  8
0
 62
4
 10
6.60051138E+00
 20
2.70897235E+02
  0
VERTEX
  8
0
 62
4
 10
6.40598693E+00
 20
2.70802879E+02
  0
VERTEX
  8
0
 62
4
 10
6.23881504E+00
 20
2.70703643E+02
  0
VERTEX
  8
0
 62
4
 10
6.10026798E+00
 20
2.70600283E+02
  0
VERTEX
  8
0
 62
4
 10
5.99140018E+00
 20
2.70493584E+02
  0
VERTEX
  8
0
 62
4
 10
5.91304018E+00
 20
2.70384359E+02
  0
VERTEX
  8
0
 62
4
 10
5.86578436E+00
 20
2.70273439E+02
  0
VERTEX
  8
0
 62
4
 10
5.84999236E+00
 20
2.70161669E+02
  0
VERTEX
  8
0
 62
4
 10
5.86578436E+00
 20
2.70049899E+02
  0
VERTEX
  8
0
 62
4
 10
5.91304019E+00
 20
2.69938979E+02
  0
VERTEX
  8
0
 62
4
 10
5.99140018E+00
 20
2.69829754E+02
  0
VERTEX
  8
0
 62
4
 10
6.10026799E+00
 20
2.69723055E+02
  0
VERTEX
  8
0
 62
4
 10
6.23881505E+00
 20
2.69619695E+02
  0
VERTEX
  8
0
 62
4
 10
6.40598694E+00
 20
2.69520459E+02
  0
VERTEX
  8
0
 62
4
 10
6.60051138E+00
 20
2.69426103E+02
  0
VERTEX
  8
0
 62
4
 10
6.82090793E+00
 20
2.69337345E+02
  0
VERTEX
  8
0
 62
4
 10
7.06549923E+00
 20
2.69254861E+02
  0
VERTEX
  8
0
 62
4
 10
7.33242379E+00
 20
2.69179278E+02
  0
VERTEX
  8
0
 62
4
 10
7.61965016E+00
 20
2.69111172E+02
  0
VERTEX
  8
0
 62
4
 10
7.92499237E+00
 20
2.69051060E+02
  0
VERTEX
  8
0
 62
4
 10
8.24612659E+00
 20
2.68999401E+02
  0
VERTEX
  8
0
 62
4
 10
8.58060878E+00
 20
2.68956588E+02
  0
VERTEX
  8
0
 62
4
 10
8.92589334E+00
 20
2.68922946E+02
  0
VERTEX
  8
0
 62
4
 10
9.27935244E+00
 20
2.68898731E+02
  0
VERTEX
  8
0
 62
4
 10
9.63829605E+00
 20
2.68884128E+02
  0
VERTEX
  8
0
 62
4
 10
9.99999238E+00
 20
2.68879249E+02
  0
VERTEX
  8
0
 62
4
 10
1.03616887E+01
 20
2.68884128E+02
  0
VERTEX
  8
0
 62
4
 10
1.07206323E+01
 20
2.68898731E+02
  0
VERTEX
  8
0
 62
4
 10
1.10740914E+01
 20
2.68922946E+02
  0
VERTEX
  8
0
 62
4
 10
1.14193760E+01
 20
2.68956588E+02
  0
VERTEX
  8
0
 62
4
 10
1.17538582E+01
 20
2.68999401E+02
  0
VERTEX
  8
0
 62
4
 10
1.20749924E+01
 20
2.69051060E+02
  0
VERTEX
  8
0
 62
4
 10
1.23803346E+01
 20
2.69111172E+02
  0
VERTEX
  8
0
 62
4
 10
1.26675610E+01
 20
2.69179278E+02
  0
VERTEX
  8
0
 62
4
 10
1.29344855E+01
 20
2.69254861E+02
  0
VERTEX
  8
0
 62
4
 10
1.31790768E+01
 20
2.69337345E+02
  0
VERTEX
  8
0
 62
4
 10
1.33994734E+01
 20
2.69426103E+02
  0
VERTEX
  8
0
 62
4
 10
1.35939978E+01
 20
2.69520459E+02
  0
VERTEX
  8
0
 62
4
 10
1.37611697E+01
 20
2.69619695E+02
  0
VERTEX
  8
0
 62
4
 10
1.38997168E+01
 20
2.69723055E+02
  0
VERTEX
  8
0
 62
4
 10
1.40085846E+01
 20
2.69829754E+02
  0
VERTEX
  8
0
 62
4
 10
1.40869446E+01
 20
2.69938979E+02
  0
VERTEX
  8
0
 62
4
 10
1.41342004E+01
 20
2.70049899E+02
  0
VERTEX
  8
0
 62
4
 10
1.41499924E+01
 20
2.70161669E+02
  0
SEQEND
  8
0
  0
LINE
  8
0
 62
4
 10
1.39999924E+01
 20
2.68146140E+02
 11
1.39999924E+01
 21
2.68126408E+02
  0
POLYLINE
  8
0
 62
4
 66
1
  0
VERTEX
  8
0
 62
4
 10
6.29999238E+00
 20
2.67656743E+02
  0
VERTEX
  8
0
 62
4
 10
6.44930035E+00
 20
2.67557230E+02
  0
VERTEX
  8
0
 62
4
 10
6.62656903E+00
 20
2.67462200E+02
  0
VERTEX
  8
0
 62
4
 10
6.83040248E+00
 20
2.67372400E+02
  0
VERTEX
  8
0
 62
4
 10
7.05919557E+00
 20
2.67288538E+02
  0
VERTEX
  8
0
 62
4
 10
7.31114662E+00
 20
2.67211274E+02
  0
VERTEX
  8
0
 62
4
 10
7.58427158E+00
 20
2.67141216E+02
  0
VERTEX
  8
0
 62
4
 10
7.87641967E+00
 20
2.67078916E+02
  0
VERTEX
  8
0
 62
4
 10
8.18529030E+00
 20
2.67024865E+02
  0
VERTEX
  8
0
 62
4
 10
8.50845121E+00
 20
2.66979488E+02
  0
VERTEX
  8
0
 62
4
 10
8.84335758E+00
 20
2.66943143E+02
  0
VERTEX
  8
0
 62
4
 10
9.18737214E+00
 20
2.66916116E+02
  0
VERTEX
  8
0
 62
4
 10
9.53778585E+00
 20
2.66898620E+02
  0
VERTEX
  8
0
 62
4
 10
9.89183931E+00
 20
2.66890792E+02
  0
VERTEX
  8
0
 62
4
 10
1.02467445E+01
 20
2.66892694E+02
  0
VERTEX
  8
0
 62
4
 10
1.05997065E+01
 20
2.66904311E+02
  0
VERTEX
  8
0
 62
4
 10
1.09479459E+01
 20
2.66925553E+02
  0
VERTEX
  8
0
 62
4
 10
1.12887205E+01
 20
2.66956250E+02
  0
VERTEX
  8
0
 62
4
 10
1.16193467E+01
 20
2.66996162E+02
  0
VERTEX
  8
0
 62
4
 10
1.19372210E+01
 20
2.67044975E+02
  0
VERTEX
  8
0
 62
4
 10
1.22398401E+01
 20
2.67102303E+02
  0
VERTEX
  8
0
 62
4
 10
1.25248210E+01
 20
2.67167696E+02
  0
VERTEX
  8
0
 62
4
 10
1.27899196E+01
 20
2.67240639E+02
  0
VERTEX
  8
0
 62
4
 10
1.30330483E+01
 20
2.67320556E+02
  0
VERTEX
  8
0
 62
4
 10
1.32522925E+01
 20
2.67406820E+02
  0
VERTEX
  8
0
 62
4
 10
1.34459258E+01
 20
2.67498750E+02
  0
VERTEX
  8
0
 62
4
 10
1.36124233E+01
 20
2.67595623E+02
  0
VERTEX
  8
0
 62
4
 10
1.37504739E+01
 20
2.67696676E+02
  0
VERTEX
  8
0
 62
4
 10
1.38589905E+01
 20
2.67801112E+02
  0
VERTEX
  8
0
 62
4
 10
1.39371186E+01
 20
2.67908111E+02
  0
VERTEX
  8
0
 62
4
 10
1.39842429E+01
 20
2.68016828E+02
  0
VERTEX
  8
0
 62
4
 10
1.39999924E+01
 20
2.68126408E+02
  0
SEQEND
  8
0
  0
ARC
  8
0
 62
4
 10
1.41876144E+01
 20
2.57173172E+02
 40
1.43299558E+01
 50
9.97219440E+01
 51
1.14556488E+02
  0
ARC
  8
0
 62
4
 10
5.81236885E+00
 20
2.57173167E+02
 40
1.43299613E+01
 50
6.54435144E+01
 51
8.02780535E+01
  0
LINE
  8
0
 62
4
 10
6.29999237E+00
 20
2.67995906E+02
 11
6.29999237E+00
 21
2.67044849E+02
  0
POLYLINE
  8
0
 62
4
 66
1
  0
VERTEX
  8
0
 62
4
 10
-1.30000763E+00
 20
2.67044849E+02
  0
VERTEX
  8
0
 62
4
 10
-1.28470995E+00
 20
2.66939589E+02
  0
VERTEX
  8
0
 62
4
 10
-1.23894007E+00
 20
2.66835176E+02
  0
VERTEX
  8
0
 62
4
 10
-1.16306650E+00
 20
2.66732451E+02
  0
VERTEX
  8
0
 62
4
 10
-1.05770014E+00
 20
2.66632242E+02
  0
VERTEX
  8
0
 62
4
 10
-9.23689335E-01
 20
2.66535355E+02
  0
VERTEX
  8
0
 62
4
 10
-7.62113054E-01
 20
2.66442570E+02
  0
VERTEX
  8
0
 62
4
 10
-5.74272218E-01
 20
2.66354634E+02
  0
VERTEX
  8
0
 62
4
 10
-3.61679212E-01
 20
2.66272255E+02
  0
VERTEX
  8
0
 62
4
 10
-1.26045709E-01
 20
2.66196097E+02
  0
VERTEX
  8
0
 62
4
 10
1.30731109E-01
 20
2.66126772E+02
  0
VERTEX
  8
0
 62
4
 10
4.06583826E-01
 20
2.66064839E+02
  0
VERTEX
  8
0
 62
4
 10
6.99291436E-01
 20
2.66010797E+02
  0
VERTEX
  8
0
 62
4
 10
1.00649723E+00
 20
2.65965080E+02
  0
VERTEX
  8
0
 62
4
 10
1.32572777E+00
 20
2.65928057E+02
  0
VERTEX
  8
0
 62
4
 10
1.65441280E+00
 20
2.65900026E+02
  0
VERTEX
  8
0
 62
4
 10
1.98990594E+00
 20
2.65881212E+02
  0
VERTEX
  8
0
 62
4
 10
2.32950599E+00
 20
2.65871767E+02
  0
VERTEX
  8
0
 62
4
 10
2.67047870E+00
 20
2.65871767E+02
  0
VERTEX
  8
0
 62
4
 10
3.01007876E+00
 20
2.65881212E+02
  0
VERTEX
  8
0
 62
4
 10
3.34557190E+00
 20
2.65900026E+02
  0
VERTEX
  8
0
 62
4
 10
3.67425693E+00
 20
2.65928057E+02
  0
VERTEX
  8
0
 62
4
 10
3.99348747E+00
 20
2.65965080E+02
  0
VERTEX
  8
0
 62
4
 10
4.30069327E+00
 20
2.66010797E+02
  0
VERTEX
  8
0
 62
4
 10
4.59340088E+00
 20
2.66064839E+02
  0
VERTEX
  8
0
 62
4
 10
4.86925360E+00
 20
2.66126772E+02
  0
VERTEX
  8
0
 62
4
 10
5.12603042E+00
 20
2.66196097E+02
  0
VERTEX
  8
0
 62
4
 10
5.36166392E+00
 20
2.66272255E+02
  0
VERTEX
  8
0
 62
4
 10
5.57425693E+00
 20
2.66354634E+02
  0
VERTEX
  8
0
 62
4
 10
5.76209777E+00
 20
2.66442570E+02
  0
VERTEX
  8
0
 62
4
 10
5.92367406E+00
 20
2.66535355E+02
  0
VERTEX
  8
0
 62
4
 10
6.05768487E+00
 20
2.66632242E+02
  0
VERTEX
  8
0
 62
4
 10
6.16305123E+00
 20
2.66732451E+02
  0
VERTEX
  8
0
 62
4
 10
6.23892480E+00
 20
2.66835176E+02
  0
VERTEX
  8
0
 62
4
 10
6.28469468E+00
 20
2.66939589E+02
  0
VERTEX
  8
0
 62
4
 10
6.29999237E+00
 20
2.67044849E+02
  0
SEQEND
  8
0
  0
POLYLINE
  8
0
 62
4
 66
1
  0
VERTEX
  8
0
 62
4
 10
-9.00007637E-01
 20
2.68520325E+02
  0
VERTEX
  8
0
 62
4
 10
-1.03658930E+00
 20
2.68425494E+02
  0
VERTEX
  8
0
 62
4
 10
-1.14553717E+00
 20
2.68327306E+02
  0
VERTEX
  8
0
 62
4
 10
-1.22599995E+00
 20
2.68226529E+02
  0
VERTEX
  8
0
 62
4
 10
-1.27734893E+00
 20
2.68123950E+02
  0
VERTEX
  8
0
 62
4
 10
-1.29918288E+00
 20
2.68020370E+02
  0
VERTEX
  8
0
 62
4
 10
-1.29133121E+00
 20
2.67916599E+02
  0
VERTEX
  8
0
 62
4
 10
-1.25385526E+00
 20
2.67813448E+02
  0
VERTEX
  8
0
 62
4
 10
-1.18704785E+00
 20
2.67711722E+02
  0
VERTEX
  8
0
 62
4
 10
-1.09143101E+00
 20
2.67612217E+02
  0
VERTEX
  8
0
 62
4
 10
-9.67751854E-01
 20
2.67515710E+02
  0
VERTEX
  8
0
 62
4
 10
-8.16976771E-01
 20
2.67422955E+02
  0
VERTEX
  8
0
 62
4
 10
-6.40283874E-01
 20
2.67334677E+02
  0
VERTEX
  8
0
 62
4
 10
-4.39053791E-01
 20
2.67251566E+02
  0
VERTEX
  8
0
 62
4
 10
-2.14858873E-01
 20
2.67174270E+02
  0
VERTEX
  8
0
 62
4
 10
3.05490876E-02
 20
2.67103395E+02
  0
VERTEX
  8
0
 62
4
 10
2.95252545E-01
 20
2.67039494E+02
  0
VERTEX
  8
0
 62
4
 10
5.77183186E-01
 20
2.66983065E+02
  0
VERTEX
  8
0
 62
4
 10
8.74138088E-01
 20
2.66934551E+02
  0
VERTEX
  8
0
 62
4
 10
1.18379693E+00
 20
2.66894330E+02
  0
VERTEX
  8
0
 62
4
 10
1.50374014E+00
 20
2.66862716E+02
  0
VERTEX
  8
0
 62
4
 10
1.83146776E+00
 20
2.66839956E+02
  0
VERTEX
  8
0
 62
4
 10
2.16441904E+00
 20
2.66826229E+02
  0
VERTEX
  8
0
 62
4
 10
2.49999239E+00
 20
2.66821641E+02
  0
VERTEX
  8
0
 62
4
 10
2.83556574E+00
 20
2.66826229E+02
  0
VERTEX
  8
0
 62
4
 10
3.16851701E+00
 20
2.66839956E+02
  0
VERTEX
  8
0
 62
4
 10
3.49624464E+00
 20
2.66862716E+02
  0
VERTEX
  8
0
 62
4
 10
3.81618784E+00
 20
2.66894330E+02
  0
VERTEX
  8
0
 62
4
 10
4.12584668E+00
 20
2.66934551E+02
  0
VERTEX
  8
0
 62
4
 10
4.42280158E+00
 20
2.66983065E+02
  0
VERTEX
  8
0
 62
4
 10
4.70473222E+00
 20
2.67039494E+02
  0
VERTEX
  8
0
 62
4
 10
4.96943568E+00
 20
2.67103395E+02
  0
VERTEX
  8
0
 62
4
 10
5.21484364E+00
 20
2.67174270E+02
  0
VERTEX
  8
0
 62
4
 10
5.43903855E+00
 20
2.67251566E+02
  0
VERTEX
  8
0
 62
4
 10
5.64026863E+00
 20
2.67334677E+02
  0
VERTEX
  8
0
 62
4
 10
5.81696153E+00
 20
2.67422955E+02
  0
VERTEX
  8
0
 62
4
 10
5.96773661E+00
 20
2.67515710E+02
  0
VERTEX
  8
0
 62
4
 10
6.09141576E+00
 20
2.67612217E+02
  0
VERTEX
  8
0
 62
4
 10
6.18703260E+00
 20
2.67711722E+02
  0
VERTEX
  8
0
 62
4
 10
6.25384000E+00
 20
2.67813448E+02
  0
VERTEX
  8
0
 62
4
 10
6.29131595E+00
 20
2.67916599E+02
  0
VERTEX
  8
0
 62
4
 10
6.29916762E+00
 20
2.68020370E+02
  0
VERTEX
  8
0
 62
4
 10
6.27733366E+00
 20
2.68123950E+02
  0
VERTEX
  8
0
 62
4
 10
6.22598468E+00
 20
2.68226529E+02
  0
VERTEX
  8
0
 62
4
 10
6.14552190E+00
 20
2.68327306E+02
  0
VERTEX
  8
0
 62
4
 10
6.03657403E+00
 20
2.68425494E+02
  0
VERTEX
  8
0
 62
4
 10
5.89999236E+00
 20
2.68520325E+02
  0
SEQEND
  8
0
  0
LINE
  8
0
 62
4
 10
-1.30000763E+00
 20
2.67995906E+02
 11
-1.30000763E+00
 21
2.67044849E+02
  0
LINE
  8
0
 62
4
 10
5.89999237E+00
 20
2.69543217E+02
 11
5.89999237E+00
 21
2.67995906E+02
  0
POLYLINE
  8
0
 62
4
 66
1
  0
VERTEX
  8
0
 62
4
 10
-9.00007630E-01
 20
2.67995906E+02
  0
VERTEX
  8
0
 62
4
 10
-8.86320231E-01
 20
2.67901726E+02
  0
VERTEX
  8
0
 62
4
 10
-8.45368234E-01
 20
2.67808304E+02
  0
VERTEX
  8
0
 62
4
 10
-7.77481360E-01
 20
2.67716392E+02
  0
VERTEX
  8
0
 62
4
 10
-6.83206195E-01
 20
2.67626731E+02
  0
VERTEX
  8
0
 62
4
 10
-5.63301787E-01
 20
2.67540043E+02
  0
VERTEX
  8
0
 62
4
 10
-4.18733536E-01
 20
2.67457024E+02
  0
VERTEX
  8
0
 62
4
 10
-2.50665419E-01
 20
2.67378345E+02
  0
VERTEX
  8
0
 62
4
 10
-6.04506243E-02
 20
2.67304638E+02
  0
VERTEX
  8
0
 62
4
 10
1.50379352E-01
 20
2.67236496E+02
  0
VERTEX
  8
0
 62
4
 10
3.80127031E-01
 20
2.67174469E+02
  0
VERTEX
  8
0
 62
4
 10
6.26942620E-01
 20
2.67119055E+02
  0
VERTEX
  8
0
 62
4
 10
8.88838903E-01
 20
2.67070701E+02
  0
VERTEX
  8
0
 62
4
 10
1.16370725E+00
 20
2.67029797E+02
  0
VERTEX
  8
0
 62
4
 10
1.44933457E+00
 20
2.66996671E+02
  0
VERTEX
  8
0
 62
4
 10
1.74342118E+00
 20
2.66971590E+02
  0
VERTEX
  8
0
 62
4
 10
2.04359925E+00
 20
2.66954757E+02
  0
VERTEX
  8
0
 62
4
 10
2.34745193E+00
 20
2.66946306E+02
  0
VERTEX
  8
0
 62
4
 10
2.65253277E+00
 20
2.66946306E+02
  0
VERTEX
  8
0
 62
4
 10
2.95638546E+00
 20
2.66954757E+02
  0
VERTEX
  8
0
 62
4
 10
3.25656353E+00
 20
2.66971590E+02
  0
VERTEX
  8
0
 62
4
 10
3.55065013E+00
 20
2.66996671E+02
  0
VERTEX
  8
0
 62
4
 10
3.83627746E+00
 20
2.67029797E+02
  0
VERTEX
  8
0
 62
4
 10
4.11114580E+00
 20
2.67070701E+02
  0
VERTEX
  8
0
 62
4
 10
4.37304209E+00
 20
2.67119055E+02
  0
VERTEX
  8
0
 62
4
 10
4.61985768E+00
 20
2.67174469E+02
  0
VERTEX
  8
0
 62
4
 10
4.84960536E+00
 20
2.67236496E+02
  0
VERTEX
  8
0
 62
4
 10
5.06043534E+00
 20
2.67304638E+02
  0
VERTEX
  8
0
 62
4
 10
5.25065014E+00
 20
2.67378345E+02
  0
VERTEX
  8
0
 62
4
 10
5.41871826E+00
 20
2.67457024E+02
  0
VERTEX
  8
0
 62
4
 10
5.56328651E+00
 20
2.67540043E+02
  0
VERTEX
  8
0
 62
4
 10
5.68319092E+00
 20
2.67626731E+02
  0
VERTEX
  8
0
 62
4
 10
5.77746609E+00
 20
2.67716392E+02
  0
VERTEX
  8
0
 62
4
 10
5.84535297E+00
 20
2.67808304E+02
  0
VERTEX
  8
0
 62
4
 10
5.88630497E+00
 20
2.67901726E+02
  0
VERTEX
  8
0
 62
4
 10
5.89999237E+00
 20
2.67995906E+02
  0
SEQEND
  8
0
  0
LINE
  8
0
 62
4
 10
-9.00007629E-01
 20
2.69543217E+02
 11
-9.00007629E-01
 21
2.67995906E+02
  0
POLYLINE
  8
0
 62
4
 66
1
  0
VERTEX
  8
0
 62
4
 10
-9.00007630E-01
 20
2.69543211E+02
  0
VERTEX
  8
0
 62
4
 10
-8.86318402E-01
 20
2.69449030E+02
  0
VERTEX
  8
0
 62
4
 10
-8.45364591E-01
 20
2.69355609E+02
  0
VERTEX
  8
0
 62
4
 10
-7.77475933E-01
 20
2.69263697E+02
  0
VERTEX
  8
0
 62
4
 10
-6.83199027E-01
 20
2.69174036E+02
  0
VERTEX
  8
0
 62
4
 10
-5.63292936E-01
 20
2.69087348E+02
  0
VERTEX
  8
0
 62
4
 10
-4.18723072E-01
 20
2.69004330E+02
  0
VERTEX
  8
0
 62
4
 10
-2.50653429E-01
 20
2.68925651E+02
  0
VERTEX
  8
0
 62
4
 10
-6.04372023E-02
 20
2.68851944E+02
  0
VERTEX
  8
0
 62
4
 10
1.50394097E-01
 20
2.68783803E+02
  0
VERTEX
  8
0
 62
4
 10
3.80142981E-01
 20
2.68721776E+02
  0
VERTEX
  8
0
 62
4
 10
6.26959645E-01
 20
2.68666363E+02
  0
VERTEX
  8
0
 62
4
 10
8.88856867E-01
 20
2.68618009E+02
  0
VERTEX
  8
0
 62
4
 10
1.16372601E+00
 20
2.68577106E+02
  0
VERTEX
  8
0
 62
4
 10
1.44935397E+00
 20
2.68543980E+02
  0
VERTEX
  8
0
 62
4
 10
1.74344107E+00
 20
2.68518900E+02
  0
VERTEX
  8
0
 62
4
 10
2.04361946E+00
 20
2.68502067E+02
  0
VERTEX
  8
0
 62
4
 10
2.34747231E+00
 20
2.68493617E+02
  0
VERTEX
  8
0
 62
4
 10
2.65255315E+00
 20
2.68493617E+02
  0
VERTEX
  8
0
 62
4
 10
2.95640567E+00
 20
2.68502069E+02
  0
VERTEX
  8
0
 62
4
 10
3.25658342E+00
 20
2.68518903E+02
  0
VERTEX
  8
0
 62
4
 10
3.55066953E+00
 20
2.68543984E+02
  0
VERTEX
  8
0
 62
4
 10
3.83629622E+00
 20
2.68577110E+02
  0
VERTEX
  8
0
 62
4
 10
4.11116377E+00
 20
2.68618015E+02
  0
VERTEX
  8
0
 62
4
 10
4.37305912E+00
 20
2.68666370E+02
  0
VERTEX
  8
0
 62
4
 10
4.61987363E+00
 20
2.68721784E+02
  0
VERTEX
  8
0
 62
4
 10
4.84962011E+00
 20
2.68783811E+02
  0
VERTEX
  8
0
 62
4
 10
5.06044876E+00
 20
2.68851953E+02
  0
VERTEX
  8
0
 62
4
 10
5.25066213E+00
 20
2.68925661E+02
  0
VERTEX
  8
0
 62
4
 10
5.41872872E+00
 20
2.69004341E+02
  0
VERTEX
  8
0
 62
4
 10
5.56329536E+00
 20
2.69087359E+02
  0
VERTEX
  8
0
 62
4
 10
5.68319809E+00
 20
2.69174048E+02
  0
VERTEX
  8
0
 62
4
 10
5.77747152E+00
 20
2.69263709E+02
  0
VERTEX
  8
0
 62
4
 10
5.84535661E+00
 20
2.69355621E+02
  0
VERTEX
  8
0
 62
4
 10
5.88630680E+00
 20
2.69449043E+02
  0
VERTEX
  8
0
 62
4
 10
5.89999237E+00
 20
2.69543223E+02
  0
SEQEND
  8
0
  0
ARC
  8
0
 62
4
 10
6.66049226E+00
 20
2.56688800E+02
 40
1.42127873E+01
 50
9.99307184E+01
 51
1.14652136E+02
  0
ARC
  8
0
 62
4
 10
-1.66050779E+00
 20
2.56688799E+02
 40
1.42127883E+01
 50
6.53478648E+01
 51
8.00692808E+01
  0
LINE
  8
0
  6
CENTER
 62
6
 10
1.99999924E+01
 20
2.67044849E+02
 11
1.49999924E+01
 21
2.67044849E+02
  0
LINE
  8
0
  6
CENTER
 62
6
 10
9.99999237E+00
 20
2.65626408E+02
 11
9.99999237E+00
 21
2.70626408E+02
  0
LINE
  8
0
  6
CENTER
 62
6
 10
1.24999924E+01
 20
2.68126408E+02
 11
7.49999237E+00
 21
2.68126408E+02
  0
LINE
  8
0
  6
CENTER
 62
6
 10
2.49999237E+00
 20
2.64544849E+02
 11
2.49999237E+00
 21
2.69544849E+02
  0
LINE
  8
0
  6
CENTER
 62
6
 10
4.99999237E+00
 20
2.67044849E+02
 11
-7.62939453E-06
 21
2.67044849E+02
  0
LINE
  8
0
 62
4
 10
6.09822479E+00
 20
2.70598544E+02
 11
4.74042265E+00
 21
2.70598544E+02
  0
LINE
  8
0
 62
4
 10
5.95537710E+00
 20
2.70448837E+02
 11
5.32408224E+00
 21
2.70448837E+02
  0
LINE
  8
0
 62
4
 10
-9.00007629E-01
 20
2.68868049E+02
 11
-5.00000762E+00
 21
2.68868049E+02
  0
LINE
  8
0
 62
4
 10
2.59562093E-01
 20
2.70598544E+02
 11
-5.00000763E+00
 21
2.70598544E+02
  0
LINE
  8
0
 62
4
 10
-4.34999923E+01
 20
3.18607797E+02
 11
-4.34999923E+01
 21
3.17767878E+02
  0
LINE
  8
0
 62
4
 10
-4.74999923E+01
 20
3.18607797E+02
 11
-4.74999923E+01
 21
3.17767878E+02
  0
LINE
  8
0
 62
6
 10
-4.39999923E+01
 20
3.19016588E+02
 11
-4.39999923E+01
 21
3.17767878E+02
  0
LINE
  8
0
 62
6
 10
-4.69999923E+01
 20
3.19016588E+02
 11
-4.69999923E+01
 21
3.17767878E+02
  0
LINE
  8
0
  6
CENTER
 62
6
 10
-5.64999924E+01
 20
2.96455151E+02
 11
-5.64999924E+01
 21
2.91455151E+02
  0
LINE
  8
0
  6
CENTER
 62
6
 10
-4.54999923E+01
 20
3.23165609E+02
 11
-4.54999923E+01
 21
3.12900031E+02
  0
LINE
  8
0
  6
CENTER
 62
6
 10
-3.74999923E+01
 20
3.23165609E+02
 11
-3.74999923E+01
 21
3.12900031E+02
  0
LINE
  8
0
 62
4
 10
-6.39999924E+01
 20
3.05141610E+02
 11
-6.39999924E+01
 21
2.92131951E+02
  0
LINE
  8
0
 62
4
 10
-3.39999924E+01
 20
3.17767878E+02
 11
-3.39999924E+01
 21
2.90401456E+02
  0
LINE
  8
0
 62
4
 10
-4.89999924E+01
 20
3.17767878E+02
 11
-4.89999924E+01
 21
3.05141610E+02
  0
LINE
  8
0
 62
4
 10
-6.54999924E+01
 20
2.94499948E+02
 11
-6.54999924E+01
 21
2.91645882E+02
  0
LINE
  8
0
 62
4
 10
-4.89999924E+01
 20
3.17767878E+02
 11
-3.39999924E+01
 21
3.17767878E+02
  0
LINE
  8
0
 62
4
 10
-4.89999924E+01
 20
3.09421364E+02
 11
-3.39999924E+01
 21
3.09421364E+02
  0
LINE
  8
0
 62
4
 10
-6.39999924E+01
 20
3.05141610E+02
 11
-3.39999924E+01
 21
3.05141610E+02
  0
LINE
  8
0
 62
4
 10
-6.39999924E+01
 20
2.95345727E+02
 11
-3.39999924E+01
 21
2.95345727E+02
  0
LINE
  8
0
 62
4
 10
-6.39999924E+01
 20
2.90401456E+02
 11
-5.29017600E+01
 21
2.90401456E+02
  0
POLYLINE
  8
0
 62
4
 66
1
  0
VERTEX
  8
0
 62
4
 10
-4.34999923E+01
 20
3.18607797E+02
  0
VERTEX
  8
0
 62
4
 10
-4.35080437E+01
 20
3.18663197E+02
  0
VERTEX
  8
0
 62
4
 10
-4.35321331E+01
 20
3.18718151E+02
  0
VERTEX
  8
0
 62
4
 10
-4.35720666E+01
 20
3.18772217E+02
  0
VERTEX
  8
0
 62
4
 10
-4.36275226E+01
 20
3.18824959E+02
  0
VERTEX
  8
0
 62
4
 10
-4.36980546E+01
 20
3.18875952E+02
  0
VERTEX
  8
0
 62
4
 10
-4.37830947E+01
 20
3.18924786E+02
  0
VERTEX
  8
0
 62
4
 10
-4.38819583E+01
 20
3.18971068E+02
  0
VERTEX
  8
0
 62
4
 10
-4.39938494E+01
 20
3.19014425E+02
  0
VERTEX
  8
0
 62
4
 10
-4.41178670E+01
 20
3.19054509E+02
  0
VERTEX
  8
0
 62
4
 10
-4.42530127E+01
 20
3.19090995E+02
  0
VERTEX
  8
0
 62
4
 10
-4.43981983E+01
 20
3.19123592E+02
  0
VERTEX
  8
0
 62
4
 10
-4.45522550E+01
 20
3.19152035E+02
  0
VERTEX
  8
0
 62
4
 10
-4.47139422E+01
 20
3.19176096E+02
  0
VERTEX
  8
0
 62
4
 10
-4.48819583E+01
 20
3.19195582E+02
  0
VERTEX
  8
0
 62
4
 10
-4.50549504E+01
 20
3.19210336E+02
  0
VERTEX
  8
0
 62
4
 10
-4.52315258E+01
 20
3.19220238E+02
  0
VERTEX
  8
0
 62
4
 10
-4.54102626E+01
 20
3.19225209E+02
  0
VERTEX
  8
0
 62
4
 10
-4.55897219E+01
 20
3.19225209E+02
  0
VERTEX
  8
0
 62
4
 10
-4.57684588E+01
 20
3.19220238E+02
  0
VERTEX
  8
0
 62
4
 10
-4.59450342E+01
 20
3.19210336E+02
  0
VERTEX
  8
0
 62
4
 10
-4.61180263E+01
 20
3.19195582E+02
  0
VERTEX
  8
0
 62
4
 10
-4.62860424E+01
 20
3.19176096E+02
  0
VERTEX
  8
0
 62
4
 10
-4.64477296E+01
 20
3.19152035E+02
  0
VERTEX
  8
0
 62
4
 10
-4.66017863E+01
 20
3.19123592E+02
  0
VERTEX
  8
0
 62
4
 10
-4.67469719E+01
 20
3.19090995E+02
  0
VERTEX
  8
0
 62
4
 10
-4.68821176E+01
 20
3.19054509E+02
  0
VERTEX
  8
0
 62
4
 10
-4.70061352E+01
 20
3.19014426E+02
  0
VERTEX
  8
0
 62
4
 10
-4.71180263E+01
 20
3.18971068E+02
  0
VERTEX
  8
0
 62
4
 10
-4.72168899E+01
 20
3.18924786E+02
  0
VERTEX
  8
0
 62
4
 10
-4.73019300E+01
 20
3.18875952E+02
  0
VERTEX
  8
0
 62
4
 10
-4.73724620E+01
 20
3.18824959E+02
  0
VERTEX
  8
0
 62
4
 10
-4.74279180E+01
 20
3.18772217E+02
  0
VERTEX
  8
0
 62
4
 10
-4.74678515E+01
 20
3.18718151E+02
  0
VERTEX
  8
0
 62
4
 10
-4.74919409E+01
 20
3.18663197E+02
  0
VERTEX
  8
0
 62
4
 10
-4.74999923E+01
 20
3.18607797E+02
  0
SEQEND
  8
0
  0
LINE
  8
0
 62
4
 10
-3.54999923E+01
 20
3.18607797E+02
 11
-3.54999923E+01
 21
3.17767878E+02
  0
LINE
  8
0
 62
6
 10
-3.59999923E+01
 20
3.19016588E+02
 11
-3.59999923E+01
 21
3.17767878E+02
  0
POLYLINE
  8
0
 62
4
 66
1
  0
VERTEX
  8
0
 62
4
 10
-3.54999923E+01
 20
3.18607797E+02
  0
VERTEX
  8
0
 62
4
 10
-3.55080437E+01
 20
3.18663197E+02
  0
VERTEX
  8
0
 62
4
 10
-3.55321331E+01
 20
3.18718151E+02
  0
VERTEX
  8
0
 62
4
 10
-3.55720666E+01
 20
3.18772217E+02
  0
VERTEX
  8
0
 62
4
 10
-3.56275226E+01
 20
3.18824959E+02
  0
VERTEX
  8
0
 62
4
 10
-3.56980546E+01
 20
3.18875952E+02
  0
VERTEX
  8
0
 62
4
 10
-3.57830947E+01
 20
3.18924786E+02
  0
VERTEX
  8
0
 62
4
 10
-3.58819583E+01
 20
3.18971068E+02
  0
VERTEX
  8
0
 62
4
 10
-3.59938494E+01
 20
3.19014425E+02
  0
VERTEX
  8
0
 62
4
 10
-3.61178670E+01
 20
3.19054509E+02
  0
VERTEX
  8
0
 62
4
 10
-3.62530127E+01
 20
3.19090995E+02
  0
VERTEX
  8
0
 62
4
 10
-3.63981983E+01
 20
3.19123592E+02
  0
VERTEX
  8
0
 62
4
 10
-3.65522550E+01
 20
3.19152035E+02
  0
VERTEX
  8
0
 62
4
 10
-3.67139422E+01
 20
3.19176096E+02
  0
VERTEX
  8
0
 62
4
 10
-3.68819583E+01
 20
3.19195582E+02
  0
VERTEX
  8
0
 62
4
 10
-3.70549504E+01
 20
3.19210336E+02
  0
VERTEX
  8
0
 62
4
 10
-3.72315258E+01
 20
3.19220238E+02
  0
VERTEX
  8
0
 62
4
 10
-3.74102626E+01
 20
3.19225209E+02
  0
VERTEX
  8
0
 62
4
 10
-3.75897219E+01
 20
3.19225209E+02
  0
VERTEX
  8
0
 62
4
 10
-3.77684588E+01
 20
3.19220238E+02
  0
VERTEX
  8
0
 62
4
 10
-3.79450342E+01
 20
3.19210336E+02
  0
VERTEX
  8
0
 62
4
 10
-3.81180263E+01
 20
3.19195582E+02
  0
VERTEX
  8
0
 62
4
 10
-3.82860424E+01
 20
3.19176096E+02
  0
VERTEX
  8
0
 62
4
 10
-3.84477296E+01
 20
3.19152035E+02
  0
VERTEX
  8
0
 62
4
 10
-3.86017863E+01
 20
3.19123592E+02
  0
VERTEX
  8
0
 62
4
 10
-3.87469719E+01
 20
3.19090995E+02
  0
VERTEX
  8
0
 62
4
 10
-3.88821176E+01
 20
3.19054509E+02
  0
VERTEX
  8
0
 62
4
 10
-3.90061352E+01
 20
3.19014426E+02
  0
VERTEX
  8
0
 62
4
 10
-3.91180263E+01
 20
3.18971068E+02
  0
VERTEX
  8
0
 62
4
 10
-3.92168899E+01
 20
3.18924786E+02
  0
VERTEX
  8
0
 62
4
 10
-3.93019300E+01
 20
3.18875952E+02
  0
VERTEX
  8
0
 62
4
 10
-3.93724620E+01
 20
3.18824959E+02
  0
VERTEX
  8
0
 62
4
 10
-3.94279180E+01
 20
3.18772217E+02
  0
VERTEX
  8
0
 62
4
 10
-3.94678515E+01
 20
3.18718151E+02
  0
VERTEX
  8
0
 62
4
 10
-3.94919409E+01
 20
3.18663197E+02
  0
VERTEX
  8
0
 62
4
 10
-3.94999923E+01
 20
3.18607797E+02
  0
SEQEND
  8
0
  0
LINE
  8
0
 62
4
 10
-3.94999923E+01
 20
3.18607797E+02
 11
-3.94999923E+01
 21
3.17767878E+02
  0
LINE
  8
0
 62
6
 10
-3.89999923E+01
 20
3.19016588E+02
 11
-3.89999923E+01
 21
3.17767878E+02
  0
LINE
  8
0
 62
4
 10
-6.39999924E+01
 20
2.95591457E+02
 11
-6.54999924E+01
 21
2.94499948E+02
  0
LINE
  8
0
 62
4
 10
-6.54999924E+01
 20
2.92345805E+02
 11
-6.39999924E+01
 21
2.91787231E+02
  0
LINE
  8
0
 62
4
 10
-6.39999924E+01
 20
2.90551163E+02
 11
-6.54999924E+01
 21
2.91645882E+02
  0
LINE
  8
0
 62
4
 10
-6.39999924E+01
 20
2.92131951E+02
 11
-5.31499924E+01
 21
2.92131951E+02
  0
LINE
  8
0
 62
4
 10
-3.84343943E+01
 20
2.90710473E+02
 11
-3.39999924E+01
 21
2.90710473E+02
  0
LINE
  8
0
 62
4
 10
-6.39999924E+01
 20
2.91787231E+02
 11
-5.31499924E+01
 21
2.91787231E+02
  0
LINE
  8
0
 62
4
 10
-6.39999924E+01
 20
2.90551163E+02
 11
-5.30446076E+01
 21
2.90551163E+02
  0
LINE
  8
0
 62
4
 10
-6.39999924E+01
 20
2.92131951E+02
 11
-6.39999924E+01
 21
2.90551163E+02
  0
LINE
  8
0
 62
4
 10
-6.39999924E+01
 20
2.90551163E+02
 11
-6.39999924E+01
 21
2.90401456E+02
  0
ARC
  8
0
 62
4
 10
-4.38999927E+01
 20
2.91456783E+02
 40
1.00000000E+00
 50
1.80000000E+02
 51
2.57172490E+02
  0
ARC
  8
0
 62
4
 10
-3.90999920E+01
 20
2.91456783E+02
 40
1.00000000E+00
 50
2.82827510E+02
 51
0.00000000E+00
  0
ARC
  8
0
 62
4
 10
-4.14999924E+01
 20
3.01996997E+02
 40
1.18100000E+01
 50
2.57172490E+02
 51
2.82827510E+02
  0
LINE
  8
0
 62
4
 10
-5.31499924E+01
 20
2.90838331E+02
 11
-5.31499924E+01
 21
2.92512190E+02
  0
LINE
  8
0
 62
4
 10
-4.48499924E+01
 20
2.90838331E+02
 11
-4.48499924E+01
 21
2.91144532E+02
  0
POLYLINE
  8
0
 62
4
 66
1
  0
VERTEX
  8
0
 62
4
 10
-4.52999924E+01
 20
2.93092986E+02
  0
VERTEX
  8
0
 62
4
 10
-4.54818074E+01
 20
2.93192370E+02
  0
VERTEX
  8
0
 62
4
 10
-4.56915046E+01
 20
2.93286363E+02
  0
VERTEX
  8
0
 62
4
 10
-4.59274223E+01
 20
2.93374221E+02
  0
VERTEX
  8
0
 62
4
 10
-4.61876906E+01
 20
2.93455247E+02
  0
VERTEX
  8
0
 62
4
 10
-4.64702469E+01
 20
2.93528799E+02
  0
VERTEX
  8
0
 62
4
 10
-4.67728520E+01
 20
2.93594294E+02
  0
VERTEX
  8
0
 62
4
 10
-4.70931075E+01
 20
2.93651214E+02
  0
VERTEX
  8
0
 62
4
 10
-4.74284755E+01
 20
2.93699106E+02
  0
VERTEX
  8
0
 62
4
 10
-4.77762980E+01
 20
2.93737592E+02
  0
VERTEX
  8
0
 62
4
 10
-4.81338186E+01
 20
2.93766367E+02
  0
VERTEX
  8
0
 62
4
 10
-4.84982037E+01
 20
2.93785202E+02
  0
VERTEX
  8
0
 62
4
 10
-4.88665656E+01
 20
2.93793948E+02
  0
VERTEX
  8
0
 62
4
 10
-4.92359849E+01
 20
2.93792535E+02
  0
VERTEX
  8
0
 62
4
 10
-4.96035340E+01
 20
2.93780976E+02
  0
VERTEX
  8
0
 62
4
 10
-4.99662998E+01
 20
2.93759362E+02
  0
VERTEX
  8
0
 62
4
 10
-5.03214075E+01
 20
2.93727863E+02
  0
VERTEX
  8
0
 62
4
 10
-5.06660428E+01
 20
2.93686730E+02
  0
VERTEX
  8
0
 62
4
 10
-5.09974742E+01
 20
2.93636289E+02
  0
VERTEX
  8
0
 62
4
 10
-5.13130753E+01
 20
2.93576938E+02
  0
VERTEX
  8
0
 62
4
 10
-5.16103447E+01
 20
2.93509150E+02
  0
VERTEX
  8
0
 62
4
 10
-5.18869267E+01
 20
2.93433460E+02
  0
VERTEX
  8
0
 62
4
 10
-5.21406291E+01
 20
2.93350470E+02
  0
VERTEX
  8
0
 62
4
 10
-5.23694414E+01
 20
2.93260835E+02
  0
VERTEX
  8
0
 62
4
 10
-5.25715502E+01
 20
2.93165268E+02
  0
VERTEX
  8
0
 62
4
 10
-5.27453537E+01
 20
2.93064524E+02
  0
VERTEX
  8
0
 62
4
 10
-5.28894745E+01
 20
2.92959404E+02
  0
VERTEX
  8
0
 62
4
 10
-5.30027705E+01
 20
2.92850739E+02
  0
VERTEX
  8
0
 62
4
 10
-5.30843437E+01
 20
2.92739391E+02
  0
VERTEX
  8
0
 62
4
 10
-5.31335476E+01
 20
2.92626242E+02
  0
VERTEX
  8
0
 62
4
 10
-5.31499924E+01
 20
2.92512190E+02
  0
SEQEND
  8
0
  0
POLYLINE
  8
0
 62
4
 66
1
  0
VERTEX
  8
0
 62
4
 10
-5.31499924E+01
 20
2.90838331E+02
  0
VERTEX
  8
0
 62
4
 10
-5.31342004E+01
 20
2.90726561E+02
  0
VERTEX
  8
0
 62
4
 10
-5.30869446E+01
 20
2.90615641E+02
  0
VERTEX
  8
0
 62
4
 10
-5.30085846E+01
 20
2.90506416E+02
  0
VERTEX
  8
0
 62
4
 10
-5.28997168E+01
 20
2.90399717E+02
  0
VERTEX
  8
0
 62
4
 10
-5.27611697E+01
 20
2.90296357E+02
  0
VERTEX
  8
0
 62
4
 10
-5.25939978E+01
 20
2.90197121E+02
  0
VERTEX
  8
0
 62
4
 10
-5.23994734E+01
 20
2.90102765E+02
  0
VERTEX
  8
0
 62
4
 10
-5.21790768E+01
 20
2.90014007E+02
  0
VERTEX
  8
0
 62
4
 10
-5.19344856E+01
 20
2.89931523E+02
  0
VERTEX
  8
0
 62
4
 10
-5.16675610E+01
 20
2.89855940E+02
  0
VERTEX
  8
0
 62
4
 10
-5.13803346E+01
 20
2.89787834E+02
  0
VERTEX
  8
0
 62
4
 10
-5.10749924E+01
 20
2.89727722E+02
  0
VERTEX
  8
0
 62
4
 10
-5.07538582E+01
 20
2.89676063E+02
  0
VERTEX
  8
0
 62
4
 10
-5.04193760E+01
 20
2.89633250E+02
  0
VERTEX
  8
0
 62
4
 10
-5.00740914E+01
 20
2.89599608E+02
  0
VERTEX
  8
0
 62
4
 10
-4.97206323E+01
 20
2.89575393E+02
  0
VERTEX
  8
0
 62
4
 10
-4.93616887E+01
 20
2.89560790E+02
  0
VERTEX
  8
0
 62
4
 10
-4.89999924E+01
 20
2.89555910E+02
  0
VERTEX
  8
0
 62
4
 10
-4.86382961E+01
 20
2.89560790E+02
  0
VERTEX
  8
0
 62
4
 10
-4.82793525E+01
 20
2.89575393E+02
  0
VERTEX
  8
0
 62
4
 10
-4.79258934E+01
 20
2.89599608E+02
  0
VERTEX
  8
0
 62
4
 10
-4.75806088E+01
 20
2.89633250E+02
  0
VERTEX
  8
0
 62
4
 10
-4.72461266E+01
 20
2.89676063E+02
  0
VERTEX
  8
0
 62
4
 10
-4.69249924E+01
 20
2.89727722E+02
  0
VERTEX
  8
0
 62
4
 10
-4.66196502E+01
 20
2.89787834E+02
  0
VERTEX
  8
0
 62
4
 10
-4.63324238E+01
 20
2.89855940E+02
  0
VERTEX
  8
0
 62
4
 10
-4.60654993E+01
 20
2.89931523E+02
  0
VERTEX
  8
0
 62
4
 10
-4.58209080E+01
 20
2.90014007E+02
  0
VERTEX
  8
0
 62
4
 10
-4.56005114E+01
 20
2.90102765E+02
  0
VERTEX
  8
0
 62
4
 10
-4.54059870E+01
 20
2.90197121E+02
  0
VERTEX
  8
0
 62
4
 10
-4.52388151E+01
 20
2.90296357E+02
  0
VERTEX
  8
0
 62
4
 10
-4.51002680E+01
 20
2.90399717E+02
  0
VERTEX
  8
0
 62
4
 10
-4.49914002E+01
 20
2.90506416E+02
  0
VERTEX
  8
0
 62
4
 10
-4.49130402E+01
 20
2.90615641E+02
  0
VERTEX
  8
0
 62
4
 10
-4.48657844E+01
 20
2.90726561E+02
  0
VERTEX
  8
0
 62
4
 10
-4.48499924E+01
 20
2.90838331E+02
  0
VERTEX
  8
0
 62
4
 10
-4.48657844E+01
 20
2.90950101E+02
  0
VERTEX
  8
0
 62
4
 10
-4.49130402E+01
 20
2.91061021E+02
  0
VERTEX
  8
0
 62
4
 10
-4.49914002E+01
 20
2.91170246E+02
  0
VERTEX
  8
0
 62
4
 10
-4.51002680E+01
 20
2.91276945E+02
  0
VERTEX
  8
0
 62
4
 10
-4.52388151E+01
 20
2.91380305E+02
  0
VERTEX
  8
0
 62
4
 10
-4.54059870E+01
 20
2.91479541E+02
  0
VERTEX
  8
0
 62
4
 10
-4.56005114E+01
 20
2.91573897E+02
  0
VERTEX
  8
0
 62
4
 10
-4.58209080E+01
 20
2.91662655E+02
  0
VERTEX
  8
0
 62
4
 10
-4.60654993E+01
 20
2.91745139E+02
  0
VERTEX
  8
0
 62
4
 10
-4.63324238E+01
 20
2.91820722E+02
  0
VERTEX
  8
0
 62
4
 10
-4.66196502E+01
 20
2.91888828E+02
  0
VERTEX
  8
0
 62
4
 10
-4.69249924E+01
 20
2.91948940E+02
  0
VERTEX
  8
0
 62
4
 10
-4.72461266E+01
 20
2.92000599E+02
  0
VERTEX
  8
0
 62
4
 10
-4.75806088E+01
 20
2.92043412E+02
  0
VERTEX
  8
0
 62
4
 10
-4.79258934E+01
 20
2.92077054E+02
  0
VERTEX
  8
0
 62
4
 10
-4.82793525E+01
 20
2.92101269E+02
  0
VERTEX
  8
0
 62
4
 10
-4.86382961E+01
 20
2.92115872E+02
  0
VERTEX
  8
0
 62
4
 10
-4.89999924E+01
 20
2.92120751E+02
  0
VERTEX
  8
0
 62
4
 10
-4.93616887E+01
 20
2.92115872E+02
  0
VERTEX
  8
0
 62
4
 10
-4.97206323E+01
 20
2.92101269E+02
  0
VERTEX
  8
0
 62
4
 10
-5.00740914E+01
 20
2.92077054E+02
  0
VERTEX
  8
0
 62
4
 10
-5.04193760E+01
 20
2.92043412E+02
  0
VERTEX
  8
0
 62
4
 10
-5.07538582E+01
 20
2.92000599E+02
  0
VERTEX
  8
0
 62
4
 10
-5.10749924E+01
 20
2.91948940E+02
  0
VERTEX
  8
0
 62
4
 10
-5.13803346E+01
 20
2.91888828E+02
  0
VERTEX
  8
0
 62
4
 10
-5.16675610E+01
 20
2.91820722E+02
  0
VERTEX
  8
0
 62
4
 10
-5.19344856E+01
 20
2.91745139E+02
  0
VERTEX
  8
0
 62
4
 10
-5.21790769E+01
 20
2.91662655E+02
  0
VERTEX
  8
0
 62
4
 10
-5.23994734E+01
 20
2.91573897E+02
  0
VERTEX
  8
0
 62
4
 10
-5.25939978E+01
 20
2.91479541E+02
  0
VERTEX
  8
0
 62
4
 10
-5.27611697E+01
 20
2.91380305E+02
  0
VERTEX
  8
0
 62
4
 10
-5.28997168E+01
 20
2.91276945E+02
  0
VERTEX
  8
0
 62
4
 10
-5.30085846E+01
 20
2.91170246E+02
  0
VERTEX
  8
0
 62
4
 10
-5.30869446E+01
 20
2.91061021E+02
  0
VERTEX
  8
0
 62
4
 10
-5.31342004E+01
 20
2.90950101E+02
  0
VERTEX
  8
0
 62
4
 10
-5.31499924E+01
 20
2.90838331E+02
  0
SEQEND
  8
0
  0
LINE
  8
0
 62
4
 10
-5.29999924E+01
 20
2.92853860E+02
 11
-5.29999924E+01
 21
2.92873592E+02
  0
POLYLINE
  8
0
 62
4
 66
1
  0
VERTEX
  8
0
 62
4
 10
-4.52999924E+01
 20
2.93343257E+02
  0
VERTEX
  8
0
 62
4
 10
-4.54493004E+01
 20
2.93442770E+02
  0
VERTEX
  8
0
 62
4
 10
-4.56265691E+01
 20
2.93537800E+02
  0
VERTEX
  8
0
 62
4
 10
-4.58304025E+01
 20
2.93627600E+02
  0
VERTEX
  8
0
 62
4
 10
-4.60591956E+01
 20
2.93711462E+02
  0
VERTEX
  8
0
 62
4
 10
-4.63111466E+01
 20
2.93788726E+02
  0
VERTEX
  8
0
 62
4
 10
-4.65842716E+01
 20
2.93858784E+02
  0
VERTEX
  8
0
 62
4
 10
-4.68764197E+01
 20
2.93921084E+02
  0
VERTEX
  8
0
 62
4
 10
-4.71852903E+01
 20
2.93975135E+02
  0
VERTEX
  8
0
 62
4
 10
-4.75084512E+01
 20
2.94020512E+02
  0
VERTEX
  8
0
 62
4
 10
-4.78433576E+01
 20
2.94056857E+02
  0
VERTEX
  8
0
 62
4
 10
-4.81873722E+01
 20
2.94083884E+02
  0
VERTEX
  8
0
 62
4
 10
-4.85377859E+01
 20
2.94101380E+02
  0
VERTEX
  8
0
 62
4
 10
-4.88918393E+01
 20
2.94109208E+02
  0
VERTEX
  8
0
 62
4
 10
-4.92467445E+01
 20
2.94107306E+02
  0
VERTEX
  8
0
 62
4
 10
-4.95997065E+01
 20
2.94095689E+02
  0
VERTEX
  8
0
 62
4
 10
-4.99479460E+01
 20
2.94074447E+02
  0
VERTEX
  8
0
 62
4
 10
-5.02887205E+01
 20
2.94043750E+02
  0
VERTEX
  8
0
 62
4
 10
-5.06193467E+01
 20
2.94003838E+02
  0
VERTEX
  8
0
 62
4
 10
-5.09372210E+01
 20
2.93955025E+02
  0
VERTEX
  8
0
 62
4
 10
-5.12398401E+01
 20
2.93897697E+02
  0
VERTEX
  8
0
 62
4
 10
-5.15248210E+01
 20
2.93832304E+02
  0
VERTEX
  8
0
 62
4
 10
-5.17899196E+01
 20
2.93759361E+02
  0
VERTEX
  8
0
 62
4
 10
-5.20330483E+01
 20
2.93679444E+02
  0
VERTEX
  8
0
 62
4
 10
-5.22522926E+01
 20
2.93593180E+02
  0
VERTEX
  8
0
 62
4
 10
-5.24459258E+01
 20
2.93501250E+02
  0
VERTEX
  8
0
 62
4
 10
-5.26124233E+01
 20
2.93404377E+02
  0
VERTEX
  8
0
 62
4
 10
-5.27504739E+01
 20
2.93303324E+02
  0
VERTEX
  8
0
 62
4
 10
-5.28589906E+01
 20
2.93198888E+02
  0
VERTEX
  8
0
 62
4
 10
-5.29371186E+01
 20
2.93091889E+02
  0
VERTEX
  8
0
 62
4
 10
-5.29842430E+01
 20
2.92983172E+02
  0
VERTEX
  8
0
 62
4
 10
-5.29999924E+01
 20
2.92873592E+02
  0
SEQEND
  8
0
  0
ARC
  8
0
 62
4
 10
-5.31876144E+01
 20
3.03826828E+02
 40
1.43299558E+01
 50
2.79721944E+02
 51
2.94556489E+02
  0
ARC
  8
0
 62
4
 10
-4.48123689E+01
 20
3.03826833E+02
 40
1.43299613E+01
 50
2.45443514E+02
 51
2.60278053E+02
  0
LINE
  8
0
 62
4
 10
-4.52999924E+01
 20
2.93004094E+02
 11
-4.52999924E+01
 21
2.93955151E+02
  0
POLYLINE
  8
0
 62
4
 66
1
  0
VERTEX
  8
0
 62
4
 10
-3.76999924E+01
 20
2.93955151E+02
  0
VERTEX
  8
0
 62
4
 10
-3.77152901E+01
 20
2.94060411E+02
  0
VERTEX
  8
0
 62
4
 10
-3.77610600E+01
 20
2.94164824E+02
  0
VERTEX
  8
0
 62
4
 10
-3.78369335E+01
 20
2.94267549E+02
  0
VERTEX
  8
0
 62
4
 10
-3.79422999E+01
 20
2.94367758E+02
  0
VERTEX
  8
0
 62
4
 10
-3.80763107E+01
 20
2.94464645E+02
  0
VERTEX
  8
0
 62
4
 10
-3.82378870E+01
 20
2.94557430E+02
  0
VERTEX
  8
0
 62
4
 10
-3.84257278E+01
 20
2.94645366E+02
  0
VERTEX
  8
0
 62
4
 10
-3.86383208E+01
 20
2.94727745E+02
  0
VERTEX
  8
0
 62
4
 10
-3.88739543E+01
 20
2.94803903E+02
  0
VERTEX
  8
0
 62
4
 10
-3.91307311E+01
 20
2.94873228E+02
  0
VERTEX
  8
0
 62
4
 10
-3.94065839E+01
 20
2.94935161E+02
  0
VERTEX
  8
0
 62
4
 10
-3.96992915E+01
 20
2.94989203E+02
  0
VERTEX
  8
0
 62
4
 10
-4.00064973E+01
 20
2.95034920E+02
  0
VERTEX
  8
0
 62
4
 10
-4.03257278E+01
 20
2.95071943E+02
  0
VERTEX
  8
0
 62
4
 10
-4.06544128E+01
 20
2.95099974E+02
  0
VERTEX
  8
0
 62
4
 10
-4.09899060E+01
 20
2.95118788E+02
  0
VERTEX
  8
0
 62
4
 10
-4.13295060E+01
 20
2.95128233E+02
  0
VERTEX
  8
0
 62
4
 10
-4.16704787E+01
 20
2.95128233E+02
  0
VERTEX
  8
0
 62
4
 10
-4.20100788E+01
 20
2.95118788E+02
  0
VERTEX
  8
0
 62
4
 10
-4.23455719E+01
 20
2.95099974E+02
  0
VERTEX
  8
0
 62
4
 10
-4.26742570E+01
 20
2.95071943E+02
  0
VERTEX
  8
0
 62
4
 10
-4.29934875E+01
 20
2.95034920E+02
  0
VERTEX
  8
0
 62
4
 10
-4.33006933E+01
 20
2.94989203E+02
  0
VERTEX
  8
0
 62
4
 10
-4.35934009E+01
 20
2.94935161E+02
  0
VERTEX
  8
0
 62
4
 10
-4.38692536E+01
 20
2.94873228E+02
  0
VERTEX
  8
0
 62
4
 10
-4.41260304E+01
 20
2.94803903E+02
  0
VERTEX
  8
0
 62
4
 10
-4.43616640E+01
 20
2.94727745E+02
  0
VERTEX
  8
0
 62
4
 10
-4.45742570E+01
 20
2.94645366E+02
  0
VERTEX
  8
0
 62
4
 10
-4.47620978E+01
 20
2.94557430E+02
  0
VERTEX
  8
0
 62
4
 10
-4.49236741E+01
 20
2.94464645E+02
  0
VERTEX
  8
0
 62
4
 10
-4.50576849E+01
 20
2.94367758E+02
  0
VERTEX
  8
0
 62
4
 10
-4.51630513E+01
 20
2.94267549E+02
  0
VERTEX
  8
0
 62
4
 10
-4.52389248E+01
 20
2.94164824E+02
  0
VERTEX
  8
0
 62
4
 10
-4.52846947E+01
 20
2.94060411E+02
  0
VERTEX
  8
0
 62
4
 10
-4.52999924E+01
 20
2.93955151E+02
  0
SEQEND
  8
0
  0
POLYLINE
  8
0
 62
4
 66
1
  0
VERTEX
  8
0
 62
4
 10
-3.80999924E+01
 20
2.92479675E+02
  0
VERTEX
  8
0
 62
4
 10
-3.79634107E+01
 20
2.92574506E+02
  0
VERTEX
  8
0
 62
4
 10
-3.78544629E+01
 20
2.92672694E+02
  0
VERTEX
  8
0
 62
4
 10
-3.77740001E+01
 20
2.92773471E+02
  0
VERTEX
  8
0
 62
4
 10
-3.77226511E+01
 20
2.92876050E+02
  0
VERTEX
  8
0
 62
4
 10
-3.77008171E+01
 20
2.92979630E+02
  0
VERTEX
  8
0
 62
4
 10
-3.77086688E+01
 20
2.93083401E+02
  0
VERTEX
  8
0
 62
4
 10
-3.77461448E+01
 20
2.93186552E+02
  0
VERTEX
  8
0
 62
4
 10
-3.78129522E+01
 20
2.93288278E+02
  0
VERTEX
  8
0
 62
4
 10
-3.79085690E+01
 20
2.93387783E+02
  0
VERTEX
  8
0
 62
4
 10
-3.80322482E+01
 20
2.93484290E+02
  0
VERTEX
  8
0
 62
4
 10
-3.81830233E+01
 20
2.93577045E+02
  0
VERTEX
  8
0
 62
4
 10
-3.83597162E+01
 20
2.93665323E+02
  0
VERTEX
  8
0
 62
4
 10
-3.85609462E+01
 20
2.93748434E+02
  0
VERTEX
  8
0
 62
4
 10
-3.87851412E+01
 20
2.93825730E+02
  0
VERTEX
  8
0
 62
4
 10
-3.90305491E+01
 20
2.93896605E+02
  0
VERTEX
  8
0
 62
4
 10
-3.92952526E+01
 20
2.93960506E+02
  0
VERTEX
  8
0
 62
4
 10
-3.95771832E+01
 20
2.94016935E+02
  0
VERTEX
  8
0
 62
4
 10
-3.98741381E+01
 20
2.94065449E+02
  0
VERTEX
  8
0
 62
4
 10
-4.01837970E+01
 20
2.94105670E+02
  0
VERTEX
  8
0
 62
4
 10
-4.05037402E+01
 20
2.94137284E+02
  0
VERTEX
  8
0
 62
4
 10
-4.08314678E+01
 20
2.94160044E+02
  0
VERTEX
  8
0
 62
4
 10
-4.11644191E+01
 20
2.94173771E+02
  0
VERTEX
  8
0
 62
4
 10
-4.14999924E+01
 20
2.94178359E+02
  0
VERTEX
  8
0
 62
4
 10
-4.18355658E+01
 20
2.94173771E+02
  0
VERTEX
  8
0
 62
4
 10
-4.21685170E+01
 20
2.94160044E+02
  0
VERTEX
  8
0
 62
4
 10
-4.24962447E+01
 20
2.94137284E+02
  0
VERTEX
  8
0
 62
4
 10
-4.28161879E+01
 20
2.94105670E+02
  0
VERTEX
  8
0
 62
4
 10
-4.31258467E+01
 20
2.94065449E+02
  0
VERTEX
  8
0
 62
4
 10
-4.34228016E+01
 20
2.94016935E+02
  0
VERTEX
  8
0
 62
4
 10
-4.37047322E+01
 20
2.93960506E+02
  0
VERTEX
  8
0
 62
4
 10
-4.39694357E+01
 20
2.93896605E+02
  0
VERTEX
  8
0
 62
4
 10
-4.42148437E+01
 20
2.93825730E+02
  0
VERTEX
  8
0
 62
4
 10
-4.44390386E+01
 20
2.93748434E+02
  0
VERTEX
  8
0
 62
4
 10
-4.46402687E+01
 20
2.93665323E+02
  0
VERTEX
  8
0
 62
4
 10
-4.48169616E+01
 20
2.93577045E+02
  0
VERTEX
  8
0
 62
4
 10
-4.49677366E+01
 20
2.93484290E+02
  0
VERTEX
  8
0
 62
4
 10
-4.50914158E+01
 20
2.93387783E+02
  0
VERTEX
  8
0
 62
4
 10
-4.51870326E+01
 20
2.93288278E+02
  0
VERTEX
  8
0
 62
4
 10
-4.52538400E+01
 20
2.93186552E+02
  0
VERTEX
  8
0
 62
4
 10
-4.52913160E+01
 20
2.93083401E+02
  0
VERTEX
  8
0
 62
4
 10
-4.52991677E+01
 20
2.92979630E+02
  0
VERTEX
  8
0
 62
4
 10
-4.52773337E+01
 20
2.92876050E+02
  0
VERTEX
  8
0
 62
4
 10
-4.52259847E+01
 20
2.92773471E+02
  0
VERTEX
  8
0
 62
4
 10
-4.51455219E+01
 20
2.92672694E+02
  0
VERTEX
  8
0
 62
4
 10
-4.50365741E+01
 20
2.92574506E+02
  0
VERTEX
  8
0
 62
4
 10
-4.48999924E+01
 20
2.92479675E+02
  0
SEQEND
  8
0
  0
LINE
  8
0
 62
4
 10
-3.76999924E+01
 20
2.93004094E+02
 11
-3.76999924E+01
 21
2.93955151E+02
  0
LINE
  8
0
 62
4
 10
-4.48999924E+01
 20
2.91456783E+02
 11
-4.48999924E+01
 21
2.93004094E+02
  0
POLYLINE
  8
0
 62
4
 66
1
  0
VERTEX
  8
0
 62
4
 10
-3.80999924E+01
 20
2.93004094E+02
  0
VERTEX
  8
0
 62
4
 10
-3.81136798E+01
 20
2.93098274E+02
  0
VERTEX
  8
0
 62
4
 10
-3.81546318E+01
 20
2.93191696E+02
  0
VERTEX
  8
0
 62
4
 10
-3.82225187E+01
 20
2.93283608E+02
  0
VERTEX
  8
0
 62
4
 10
-3.83167938E+01
 20
2.93373269E+02
  0
VERTEX
  8
0
 62
4
 10
-3.84366982E+01
 20
2.93459957E+02
  0
VERTEX
  8
0
 62
4
 10
-3.85812665E+01
 20
2.93542976E+02
  0
VERTEX
  8
0
 62
4
 10
-3.87493346E+01
 20
2.93621655E+02
  0
VERTEX
  8
0
 62
4
 10
-3.89395494E+01
 20
2.93695362E+02
  0
VERTEX
  8
0
 62
4
 10
-3.91503794E+01
 20
2.93763504E+02
  0
VERTEX
  8
0
 62
4
 10
-3.93801271E+01
 20
2.93825531E+02
  0
VERTEX
  8
0
 62
4
 10
-3.96269426E+01
 20
2.93880945E+02
  0
VERTEX
  8
0
 62
4
 10
-3.98888389E+01
 20
2.93929299E+02
  0
VERTEX
  8
0
 62
4
 10
-4.01637073E+01
 20
2.93970203E+02
  0
VERTEX
  8
0
 62
4
 10
-4.04493346E+01
 20
2.94003329E+02
  0
VERTEX
  8
0
 62
4
 10
-4.07434212E+01
 20
2.94028410E+02
  0
VERTEX
  8
0
 62
4
 10
-4.10435993E+01
 20
2.94045243E+02
  0
VERTEX
  8
0
 62
4
 10
-4.13474520E+01
 20
2.94053694E+02
  0
VERTEX
  8
0
 62
4
 10
-4.16525328E+01
 20
2.94053694E+02
  0
VERTEX
  8
0
 62
4
 10
-4.19563855E+01
 20
2.94045243E+02
  0
VERTEX
  8
0
 62
4
 10
-4.22565636E+01
 20
2.94028410E+02
  0
VERTEX
  8
0
 62
4
 10
-4.25506502E+01
 20
2.94003329E+02
  0
VERTEX
  8
0
 62
4
 10
-4.28362775E+01
 20
2.93970203E+02
  0
VERTEX
  8
0
 62
4
 10
-4.31111458E+01
 20
2.93929299E+02
  0
VERTEX
  8
0
 62
4
 10
-4.33730421E+01
 20
2.93880945E+02
  0
VERTEX
  8
0
 62
4
 10
-4.36198577E+01
 20
2.93825531E+02
  0
VERTEX
  8
0
 62
4
 10
-4.38496054E+01
 20
2.93763504E+02
  0
VERTEX
  8
0
 62
4
 10
-4.40604354E+01
 20
2.93695362E+02
  0
VERTEX
  8
0
 62
4
 10
-4.42506502E+01
 20
2.93621655E+02
  0
VERTEX
  8
0
 62
4
 10
-4.44187183E+01
 20
2.93542976E+02
  0
VERTEX
  8
0
 62
4
 10
-4.45632865E+01
 20
2.93459957E+02
  0
VERTEX
  8
0
 62
4
 10
-4.46831910E+01
 20
2.93373269E+02
  0
VERTEX
  8
0
 62
4
 10
-4.47774661E+01
 20
2.93283608E+02
  0
VERTEX
  8
0
 62
4
 10
-4.48453530E+01
 20
2.93191696E+02
  0
VERTEX
  8
0
 62
4
 10
-4.48863050E+01
 20
2.93098274E+02
  0
VERTEX
  8
0
 62
4
 10
-4.48999924E+01
 20
2.93004094E+02
  0
SEQEND
  8
0
  0
LINE
  8
0
 62
4
 10
-3.80999924E+01
 20
2.91456783E+02
 11
-3.80999924E+01
 21
2.93004094E+02
  0
POLYLINE
  8
0
 62
4
 66
1
  0
VERTEX
  8
0
 62
4
 10
-3.80999924E+01
 20
2.91456789E+02
  0
VERTEX
  8
0
 62
4
 10
-3.81136816E+01
 20
2.91550969E+02
  0
VERTEX
  8
0
 62
4
 10
-3.81546354E+01
 20
2.91644391E+02
  0
VERTEX
  8
0
 62
4
 10
-3.82225241E+01
 20
2.91736303E+02
  0
VERTEX
  8
0
 62
4
 10
-3.83168010E+01
 20
2.91825964E+02
  0
VERTEX
  8
0
 62
4
 10
-3.84367071E+01
 20
2.91912652E+02
  0
VERTEX
  8
0
 62
4
 10
-3.85812770E+01
 20
2.91995670E+02
  0
VERTEX
  8
0
 62
4
 10
-3.87493466E+01
 20
2.92074349E+02
  0
VERTEX
  8
0
 62
4
 10
-3.89395628E+01
 20
2.92148056E+02
  0
VERTEX
  8
0
 62
4
 10
-3.91503941E+01
 20
2.92216197E+02
  0
VERTEX
  8
0
 62
4
 10
-3.93801430E+01
 20
2.92278224E+02
  0
VERTEX
  8
0
 62
4
 10
-3.96269597E+01
 20
2.92333637E+02
  0
VERTEX
  8
0
 62
4
 10
-3.98888569E+01
 20
2.92381991E+02
  0
VERTEX
  8
0
 62
4
 10
-4.01637260E+01
 20
2.92422894E+02
  0
VERTEX
  8
0
 62
4
 10
-4.04493540E+01
 20
2.92456020E+02
  0
VERTEX
  8
0
 62
4
 10
-4.07434411E+01
 20
2.92481100E+02
  0
VERTEX
  8
0
 62
4
 10
-4.10436195E+01
 20
2.92497933E+02
  0
VERTEX
  8
0
 62
4
 10
-4.13474723E+01
 20
2.92506383E+02
  0
VERTEX
  8
0
 62
4
 10
-4.16525532E+01
 20
2.92506383E+02
  0
VERTEX
  8
0
 62
4
 10
-4.19564057E+01
 20
2.92497931E+02
  0
VERTEX
  8
0
 62
4
 10
-4.22565834E+01
 20
2.92481097E+02
  0
VERTEX
  8
0
 62
4
 10
-4.25506696E+01
 20
2.92456016E+02
  0
VERTEX
  8
0
 62
4
 10
-4.28362962E+01
 20
2.92422890E+02
  0
VERTEX
  8
0
 62
4
 10
-4.31111638E+01
 20
2.92381985E+02
  0
VERTEX
  8
0
 62
4
 10
-4.33730591E+01
 20
2.92333630E+02
  0
VERTEX
  8
0
 62
4
 10
-4.36198737E+01
 20
2.92278216E+02
  0
VERTEX
  8
0
 62
4
 10
-4.38496201E+01
 20
2.92216189E+02
  0
VERTEX
  8
0
 62
4
 10
-4.40604488E+01
 20
2.92148047E+02
  0
VERTEX
  8
0
 62
4
 10
-4.42506622E+01
 20
2.92074339E+02
  0
VERTEX
  8
0
 62
4
 10
-4.44187287E+01
 20
2.91995659E+02
  0
VERTEX
  8
0
 62
4
 10
-4.45632954E+01
 20
2.91912641E+02
  0
VERTEX
  8
0
 62
4
 10
-4.46831981E+01
 20
2.91825952E+02
  0
VERTEX
  8
0
 62
4
 10
-4.47774715E+01
 20
2.91736291E+02
  0
VERTEX
  8
0
 62
4
 10
-4.48453566E+01
 20
2.91644379E+02
  0
VERTEX
  8
0
 62
4
 10
-4.48863068E+01
 20
2.91550957E+02
  0
VERTEX
  8
0
 62
4
 10
-4.48999924E+01
 20
2.91456777E+02
  0
SEQEND
  8
0
  0
ARC
  8
0
 62
4
 10
-4.56604923E+01
 20
3.04311200E+02
 40
1.42127873E+01
 50
2.79930719E+02
 51
2.94652135E+02
  0
ARC
  8
0
 62
4
 10
-3.73394922E+01
 20
3.04311201E+02
 40
1.42127883E+01
 50
2.45347865E+02
 51
2.60069281E+02
  0
LINE
  8
0
  6
CENTER
 62
6
 10
-5.89999924E+01
 20
2.93955151E+02
 11
-5.39999924E+01
 21
2.93955151E+02
  0
LINE
  8
0
  6
CENTER
 62
6
 10
-4.89999924E+01
 20
2.95373592E+02
 11
-4.89999924E+01
 21
2.90373592E+02
  0
LINE
  8
0
  6
CENTER
 62
6
 10
-5.14999924E+01
 20
2.92873592E+02
 11
-4.64999924E+01
 21
2.92873592E+02
  0
LINE
  8
0
  6
CENTER
 62
6
 10
-4.14999924E+01
 20
2.96455151E+02
 11
-4.14999924E+01
 21
2.91455151E+02
  0
LINE
  8
0
  6
CENTER
 62
6
 10
-4.39999924E+01
 20
2.93955151E+02
 11
-3.89999924E+01
 21
2.93955151E+02
  0
LINE
  8
0
 62
4
 10
-4.50982248E+01
 20
2.90401456E+02
 11
-4.37404226E+01
 21
2.90401456E+02
  0
LINE
  8
0
 62
4
 10
-4.49553771E+01
 20
2.90551163E+02
 11
-4.43240822E+01
 21
2.90551163E+02
  0
LINE
  8
0
 62
4
 10
-3.80999924E+01
 20
2.92131951E+02
 11
-3.39999924E+01
 21
2.92131951E+02
  0
LINE
  8
0
 62
4
 10
-3.92595621E+01
 20
2.90401456E+02
 11
-3.39999924E+01
 21
2.90401456E+02
  0
LINE
  8
0
 62
7
 10
-4.89999924E+01
 20
3.12100006E+02
 11
-7.49999924E+01
 21
3.12100006E+02
  0
LINE
  8
0
 62
7
 10
-4.89999924E+01
 20
3.14499969E+02
 11
-7.49999924E+01
 21
3.14499969E+02
  0
LINE
  8
0
 62
7
 10
-6.39999924E+01
 20
3.04899994E+02
 11
-7.49999924E+01
 21
3.04899994E+02
  0
LINE
  8
0
 62
7
 10
-5.00000763E+00
 20
2.56100006E+02
 11
-7.49999924E+01
 21
2.56100006E+02
  0
LINE
  8
0
 62
7
 10
-5.00000763E+00
 20
2.48899994E+02
 11
-7.49999924E+01
 21
2.48899994E+02
  0
LINE
  8
0
 62
7
 10
-5.00000763E+00
 20
2.46500031E+02
 11
-7.49999924E+01
 21
2.46500031E+02
  0
LINE
  8
0
 62
7
 10
-2.82299889E+02
 20
3.37499969E+02
 11
-2.75699913E+02
 21
3.37499969E+02
  0
LINE
  8
0
 62
7
 10
-2.84749901E+02
 20
3.35499969E+02
 11
-2.73249870E+02
 21
3.35499969E+02
  0
LINE
  8
0
 62
7
 10
-2.73249881E+02
 20
3.35499759E+02
 11
-2.72049872E+02
 21
3.34806933E+02
  0
LINE
  8
0
 62
7
 10
-2.85949720E+02
 20
3.34806727E+02
 11
-2.84749711E+02
 21
3.35499553E+02
  0
LINE
  8
0
 62
7
 10
-2.82999931E+02
 20
3.35499969E+02
 11
-2.82999931E+02
 21
3.36799927E+02
  0
LINE
  8
0
 62
7
 10
-2.74999901E+02
 20
3.35499969E+02
 11
-2.74999901E+02
 21
3.36799927E+02
  0
LINE
  8
0
 62
2
 10
-2.82299889E+02
 20
3.35499969E+02
 11
-2.82299889E+02
 21
3.37499969E+02
  0
LINE
  8
0
 62
2
 10
-2.75699913E+02
 20
3.35499969E+02
 11
-2.75699913E+02
 21
3.37499969E+02
  0
LINE
  8
0
 62
7
 10
-2.82999901E+02
 20
3.36799957E+02
 11
-2.74999870E+02
 21
3.36799957E+02
  0
LINE
  8
0
 62
7
 10
-2.82999636E+02
 20
3.36799661E+02
 11
-2.82299620E+02
 21
3.37499676E+02
  0
LINE
  8
0
 62
7
 10
-2.75699963E+02
 20
3.37499986E+02
 11
-2.74999935E+02
 21
3.36799958E+02
  0
LINE
  8
0
 62
7
 10
-1.79000111E+02
 20
3.36799809E+02
 11
-1.79700075E+02
 21
3.37499773E+02
  0
LINE
  8
0
 62
7
 10
-1.86299972E+02
 20
3.37499870E+02
 11
-1.86999946E+02
 21
3.36799896E+02
  0
LINE
  8
0
 62
7
 10
-1.79699989E+02
 20
3.37499969E+02
 11
-1.86299995E+02
 21
3.37499969E+02
  0
LINE
  8
0
 62
7
 10
-1.77250008E+02
 20
3.35499969E+02
 11
-1.88750023E+02
 21
3.35499969E+02
  0
LINE
  8
0
 62
7
 10
-1.88750026E+02
 20
3.35499760E+02
 11
-1.89950018E+02
 21
3.34806945E+02
  0
LINE
  8
0
 62
7
 10
-1.76050058E+02
 20
3.34806757E+02
 11
-1.77250066E+02
 21
3.35499583E+02
  0
LINE
  8
0
 62
7
 10
-1.78999992E+02
 20
3.35499969E+02
 11
-1.78999992E+02
 21
3.36799927E+02
  0
LINE
  8
0
 62
7
 10
-1.87000023E+02
 20
3.35499969E+02
 11
-1.87000023E+02
 21
3.36799927E+02
  0
LINE
  8
0
 62
2
 10
-1.79699989E+02
 20
3.35499969E+02
 11
-1.79699989E+02
 21
3.37499969E+02
  0
LINE
  8
0
 62
2
 10
-1.86300026E+02
 20
3.35499969E+02
 11
-1.86300026E+02
 21
3.37499969E+02
  0
LINE
  8
0
 62
7
 10
-1.78999992E+02
 20
3.36799957E+02
 11
-1.87000023E+02
 21
3.36799957E+02
  0
ARC
  8
0
 62
7
 10
-2.78999870E+02
 20
3.26438782E+02
 40
9.06113529E+00
 50
6.74489921E+01
 51
1.12550903E+02
  0
ARC
  8
0
 62
7
 10
-2.73787437E+02
 20
3.32974854E+02
 40
2.52511263E+00
 50
7.34780821E+01
 51
1.33478944E+02
  0
ARC
  8
0
 62
7
 10
-2.84212395E+02
 20
3.32974854E+02
 40
2.52511263E+00
 50
4.65209375E+01
 51
1.06521820E+02
  0
ARC
  8
0
 62
7
 10
-1.83000008E+02
 20
3.26438782E+02
 40
9.06113529E+00
 50
6.74490609E+01
 51
1.12550972E+02
  0
ARC
  8
0
 62
7
 10
-1.77787529E+02
 20
3.32974854E+02
 40
2.52511263E+00
 50
7.34781439E+01
 51
1.33479026E+02
  0
ARC
  8
0
 62
7
 10
-1.88212486E+02
 20
3.32974854E+02
 40
2.52511263E+00
 50
4.65210195E+01
 51
1.06521882E+02
  0
LINE
  8
0
 62
4
 10
-8.60000966E+01
 20
-2.38358818E+02
 11
-8.10000966E+01
 21
-2.38358809E+02
  0
LINE
  8
0
 62
4
 10
-6.80000005E+01
 20
-2.83696990E+02
 11
-3.50000005E+01
 21
-2.83696931E+02
  0
LINE
  8
0
 62
4
 10
-3.50000005E+01
 20
-2.85500031E+02
 11
-3.50000005E+01
 21
-2.82231815E+02
  0
LINE
  8
0
 62
4
 10
-6.80000005E+01
 20
-2.85500031E+02
 11
-6.80000005E+01
 21
-2.82231874E+02
  0
LINE
  8
0
 62
4
 10
-3.20000103E+01
 20
-2.77482480E+02
 11
-3.50000005E+01
 21
-2.82231815E+02
  0
LINE
  8
0
 62
4
 10
-7.10000103E+01
 20
-2.77482550E+02
 11
-6.80000005E+01
 21
-2.82231874E+02
  0
POLYLINE
  8
0
 62
4
 66
1
  0
VERTEX
  8
0
 62
4
 10
-6.30000193E+01
 20
-2.70228316E+02
  0
VERTEX
  8
0
 62
4
 10
-6.29848031E+01
 20
-2.70557946E+02
  0
VERTEX
  8
0
 62
4
 10
-6.29392603E+01
 20
-2.70885068E+02
  0
VERTEX
  8
0
 62
4
 10
-6.28637374E+01
 20
-2.71207191E+02
  0
VERTEX
  8
0
 62
4
 10
-6.27588094E+01
 20
-2.71521866E+02
  0
VERTEX
  8
0
 62
4
 10
-6.26252747E+01
 20
-2.71826696E+02
  0
VERTEX
  8
0
 62
4
 10
-6.24641496E+01
 20
-2.72119362E+02
  0
VERTEX
  8
0
 62
4
 10
-6.22766603E+01
 20
-2.72397636E+02
  0
VERTEX
  8
0
 62
4
 10
-6.20642339E+01
 20
-2.72659401E+02
  0
VERTEX
  8
0
 62
4
 10
-6.18284869E+01
 20
-2.72902665E+02
  0
VERTEX
  8
0
 62
4
 10
-6.15712136E+01
 20
-2.73125575E+02
  0
VERTEX
  8
0
 62
4
 10
-6.12943720E+01
 20
-2.73326436E+02
  0
VERTEX
  8
0
 62
4
 10
-6.10000689E+01
 20
-2.73503719E+02
  0
VERTEX
  8
0
 62
4
 10
-6.06905443E+01
 20
-2.73656075E+02
  0
VERTEX
  8
0
 62
4
 10
-6.03681537E+01
 20
-2.73782344E+02
  0
VERTEX
  8
0
 62
4
 10
-6.00353508E+01
 20
-2.73881565E+02
  0
VERTEX
  8
0
 62
4
 10
-5.96946684E+01
 20
-2.73952983E+02
  0
VERTEX
  8
0
 62
4
 10
-5.93486993E+01
 20
-2.73996054E+02
  0
VERTEX
  8
0
 62
4
 10
-5.90000766E+01
 20
-2.74010451E+02
  0
VERTEX
  8
0
 62
4
 10
-5.86514534E+01
 20
-2.73996065E+02
  0
VERTEX
  8
0
 62
4
 10
-5.83054830E+01
 20
-2.73953004E+02
  0
VERTEX
  8
0
 62
4
 10
-5.79647984E+01
 20
-2.73881596E+02
  0
VERTEX
  8
0
 62
4
 10
-5.76319925E+01
 20
-2.73782385E+02
  0
VERTEX
  8
0
 62
4
 10
-5.73095982E+01
 20
-2.73656126E+02
  0
VERTEX
  8
0
 62
4
 10
-5.70000689E+01
 20
-2.73503780E+02
  0
VERTEX
  8
0
 62
4
 10
-5.67057605E+01
 20
-2.73326506E+02
  0
VERTEX
  8
0
 62
4
 10
-5.64289127E+01
 20
-2.73125653E+02
  0
VERTEX
  8
0
 62
4
 10
-5.61716327E+01
 20
-2.72902750E+02
  0
VERTEX
  8
0
 62
4
 10
-5.59358783E+01
 20
-2.72659494E+02
  0
VERTEX
  8
0
 62
4
 10
-5.57234440E+01
 20
-2.72397735E+02
  0
VERTEX
  8
0
 62
4
 10
-5.55359463E+01
 20
-2.72119467E+02
  0
VERTEX
  8
0
 62
4
 10
-5.53748124E+01
 20
-2.71826806E+02
  0
VERTEX
  8
0
 62
4
 10
-5.52412684E+01
 20
-2.71521980E+02
  0
VERTEX
  8
0
 62
4
 10
-5.51363308E+01
 20
-2.71207308E+02
  0
VERTEX
  8
0
 62
4
 10
-5.50607982E+01
 20
-2.70885187E+02
  0
VERTEX
  8
0
 62
4
 10
-5.50152455E+01
 20
-2.70558067E+02
  0
VERTEX
  8
0
 62
4
 10
-5.50000193E+01
 20
-2.70228438E+02
  0
VERTEX
  8
0
 62
4
 10
-5.50152355E+01
 20
-2.69898808E+02
  0
VERTEX
  8
0
 62
4
 10
-5.50607783E+01
 20
-2.69571686E+02
  0
VERTEX
  8
0
 62
4
 10
-5.51363012E+01
 20
-2.69249563E+02
  0
VERTEX
  8
0
 62
4
 10
-5.52412292E+01
 20
-2.68934888E+02
  0
VERTEX
  8
0
 62
4
 10
-5.53747639E+01
 20
-2.68630058E+02
  0
VERTEX
  8
0
 62
4
 10
-5.55358891E+01
 20
-2.68337392E+02
  0
VERTEX
  8
0
 62
4
 10
-5.57233783E+01
 20
-2.68059118E+02
  0
VERTEX
  8
0
 62
4
 10
-5.59358047E+01
 20
-2.67797353E+02
  0
VERTEX
  8
0
 62
4
 10
-5.61715517E+01
 20
-2.67554089E+02
  0
VERTEX
  8
0
 62
4
 10
-5.64288250E+01
 20
-2.67331179E+02
  0
VERTEX
  8
0
 62
4
 10
-5.67056666E+01
 20
-2.67130318E+02
  0
VERTEX
  8
0
 62
4
 10
-5.69999697E+01
 20
-2.66953035E+02
  0
VERTEX
  8
0
 62
4
 10
-5.73094944E+01
 20
-2.66800679E+02
  0
VERTEX
  8
0
 62
4
 10
-5.76318849E+01
 20
-2.66674410E+02
  0
VERTEX
  8
0
 62
4
 10
-5.79646878E+01
 20
-2.66575189E+02
  0
VERTEX
  8
0
 62
4
 10
-5.83053702E+01
 20
-2.66503771E+02
  0
VERTEX
  8
0
 62
4
 10
-5.86513393E+01
 20
-2.66460700E+02
  0
VERTEX
  8
0
 62
4
 10
-5.89999620E+01
 20
-2.66446303E+02
  0
VERTEX
  8
0
 62
4
 10
-5.93485852E+01
 20
-2.66460689E+02
  0
VERTEX
  8
0
 62
4
 10
-5.96945556E+01
 20
-2.66503750E+02
  0
VERTEX
  8
0
 62
4
 10
-6.00352402E+01
 20
-2.66575158E+02
  0
VERTEX
  8
0
 62
4
 10
-6.03680461E+01
 20
-2.66674369E+02
  0
VERTEX
  8
0
 62
4
 10
-6.06904404E+01
 20
-2.66800628E+02
  0
VERTEX
  8
0
 62
4
 10
-6.09999697E+01
 20
-2.66952974E+02
  0
VERTEX
  8
0
 62
4
 10
-6.12942781E+01
 20
-2.67130248E+02
  0
VERTEX
  8
0
 62
4
 10
-6.15711259E+01
 20
-2.67331101E+02
  0
VERTEX
  8
0
 62
4
 10
-6.18284059E+01
 20
-2.67554004E+02
  0
VERTEX
  8
0
 62
4
 10
-6.20641603E+01
 20
-2.67797260E+02
  0
VERTEX
  8
0
 62
4
 10
-6.22765946E+01
 20
-2.68059019E+02
  0
VERTEX
  8
0
 62
4
 10
-6.24640923E+01
 20
-2.68337287E+02
  0
VERTEX
  8
0
 62
4
 10
-6.26252262E+01
 20
-2.68629948E+02
  0
VERTEX
  8
0
 62
4
 10
-6.27587702E+01
 20
-2.68934774E+02
  0
VERTEX
  8
0
 62
4
 10
-6.28637078E+01
 20
-2.69249446E+02
  0
VERTEX
  8
0
 62
4
 10
-6.29392404E+01
 20
-2.69571567E+02
  0
VERTEX
  8
0
 62
4
 10
-6.29847931E+01
 20
-2.69898687E+02
  0
VERTEX
  8
0
 62
4
 10
-6.30000193E+01
 20
-2.70228316E+02
  0
SEQEND
  8
0
  0
POLYLINE
  8
0
 62
4
 66
1
  0
VERTEX
  8
0
 62
4
 10
-6.24000204E+01
 20
-2.69636748E+02
  0
VERTEX
  8
0
 62
4
 10
-6.23870875E+01
 20
-2.69919403E+02
  0
VERTEX
  8
0
 62
4
 10
-6.23483770E+01
 20
-2.70199907E+02
  0
VERTEX
  8
0
 62
4
 10
-6.22841834E+01
 20
-2.70476126E+02
  0
VERTEX
  8
0
 62
4
 10
-6.21949954E+01
 20
-2.70745957E+02
  0
VERTEX
  8
0
 62
4
 10
-6.20814917E+01
 20
-2.71007346E+02
  0
VERTEX
  8
0
 62
4
 10
-6.19445361E+01
 20
-2.71258305E+02
  0
VERTEX
  8
0
 62
4
 10
-6.17851710E+01
 20
-2.71496924E+02
  0
VERTEX
  8
0
 62
4
 10
-6.16046093E+01
 20
-2.71721386E+02
  0
VERTEX
  8
0
 62
4
 10
-6.14042250E+01
 20
-2.71929983E+02
  0
VERTEX
  8
0
 62
4
 10
-6.11855433E+01
 20
-2.72121127E+02
  0
VERTEX
  8
0
 62
4
 10
-6.09502284E+01
 20
-2.72293365E+02
  0
VERTEX
  8
0
 62
4
 10
-6.07000713E+01
 20
-2.72445384E+02
  0
VERTEX
  8
0
 62
4
 10
-6.04369757E+01
 20
-2.72576028E+02
  0
VERTEX
  8
0
 62
4
 10
-6.01629441E+01
 20
-2.72684304E+02
  0
VERTEX
  8
0
 62
4
 10
-5.98800619E+01
 20
-2.72769386E+02
  0
VERTEX
  8
0
 62
4
 10
-5.95904821E+01
 20
-2.72830627E+02
  0
VERTEX
  8
0
 62
4
 10
-5.92964084E+01
 20
-2.72867561E+02
  0
VERTEX
  8
0
 62
4
 10
-5.90000791E+01
 20
-2.72879907E+02
  0
VERTEX
  8
0
 62
4
 10
-5.87037494E+01
 20
-2.72867572E+02
  0
VERTEX
  8
0
 62
4
 10
-5.84096744E+01
 20
-2.72830648E+02
  0
VERTEX
  8
0
 62
4
 10
-5.81200924E+01
 20
-2.72769417E+02
  0
VERTEX
  8
0
 62
4
 10
-5.78372071E+01
 20
-2.72684346E+02
  0
VERTEX
  8
0
 62
4
 10
-5.75631715E+01
 20
-2.72576080E+02
  0
VERTEX
  8
0
 62
4
 10
-5.73000713E+01
 20
-2.72445446E+02
  0
VERTEX
  8
0
 62
4
 10
-5.70499086E+01
 20
-2.72293435E+02
  0
VERTEX
  8
0
 62
4
 10
-5.68145875E+01
 20
-2.72121206E+02
  0
VERTEX
  8
0
 62
4
 10
-5.65958989E+01
 20
-2.71930070E+02
  0
VERTEX
  8
0
 62
4
 10
-5.63955071E+01
 20
-2.71721480E+02
  0
VERTEX
  8
0
 62
4
 10
-5.62149371E+01
 20
-2.71497025E+02
  0
VERTEX
  8
0
 62
4
 10
-5.60555634E+01
 20
-2.71258412E+02
  0
VERTEX
  8
0
 62
4
 10
-5.59185987E+01
 20
-2.71007458E+02
  0
VERTEX
  8
0
 62
4
 10
-5.58050856E+01
 20
-2.70746073E+02
  0
VERTEX
  8
0
 62
4
 10
-5.57158878E+01
 20
-2.70476245E+02
  0
VERTEX
  8
0
 62
4
 10
-5.56516842E+01
 20
-2.70200029E+02
  0
VERTEX
  8
0
 62
4
 10
-5.56129635E+01
 20
-2.69919526E+02
  0
VERTEX
  8
0
 62
4
 10
-5.56000204E+01
 20
-2.69636872E+02
  0
VERTEX
  8
0
 62
4
 10
-5.56129533E+01
 20
-2.69354217E+02
  0
VERTEX
  8
0
 62
4
 10
-5.56516638E+01
 20
-2.69073713E+02
  0
VERTEX
  8
0
 62
4
 10
-5.57158574E+01
 20
-2.68797494E+02
  0
VERTEX
  8
0
 62
4
 10
-5.58050454E+01
 20
-2.68527663E+02
  0
VERTEX
  8
0
 62
4
 10
-5.59185491E+01
 20
-2.68266274E+02
  0
VERTEX
  8
0
 62
4
 10
-5.60555047E+01
 20
-2.68015315E+02
  0
VERTEX
  8
0
 62
4
 10
-5.62148698E+01
 20
-2.67776696E+02
  0
VERTEX
  8
0
 62
4
 10
-5.63954315E+01
 20
-2.67552234E+02
  0
VERTEX
  8
0
 62
4
 10
-5.65958158E+01
 20
-2.67343637E+02
  0
VERTEX
  8
0
 62
4
 10
-5.68144975E+01
 20
-2.67152493E+02
  0
VERTEX
  8
0
 62
4
 10
-5.70498124E+01
 20
-2.66980255E+02
  0
VERTEX
  8
0
 62
4
 10
-5.72999695E+01
 20
-2.66828236E+02
  0
VERTEX
  8
0
 62
4
 10
-5.75630651E+01
 20
-2.66697592E+02
  0
VERTEX
  8
0
 62
4
 10
-5.78370967E+01
 20
-2.66589316E+02
  0
VERTEX
  8
0
 62
4
 10
-5.81199789E+01
 20
-2.66504234E+02
  0
VERTEX
  8
0
 62
4
 10
-5.84095588E+01
 20
-2.66442993E+02
  0
VERTEX
  8
0
 62
4
 10
-5.87036324E+01
 20
-2.66406059E+02
  0
VERTEX
  8
0
 62
4
 10
-5.89999617E+01
 20
-2.66393713E+02
  0
VERTEX
  8
0
 62
4
 10
-5.92962914E+01
 20
-2.66406048E+02
  0
VERTEX
  8
0
 62
4
 10
-5.95903664E+01
 20
-2.66442972E+02
  0
VERTEX
  8
0
 62
4
 10
-5.98799484E+01
 20
-2.66504203E+02
  0
VERTEX
  8
0
 62
4
 10
-6.01628337E+01
 20
-2.66589274E+02
  0
VERTEX
  8
0
 62
4
 10
-6.04368693E+01
 20
-2.66697540E+02
  0
VERTEX
  8
0
 62
4
 10
-6.06999695E+01
 20
-2.66828174E+02
  0
VERTEX
  8
0
 62
4
 10
-6.09501322E+01
 20
-2.66980185E+02
  0
VERTEX
  8
0
 62
4
 10
-6.11854533E+01
 20
-2.67152414E+02
  0
VERTEX
  8
0
 62
4
 10
-6.14041419E+01
 20
-2.67343550E+02
  0
VERTEX
  8
0
 62
4
 10
-6.16045338E+01
 20
-2.67552140E+02
  0
VERTEX
  8
0
 62
4
 10
-6.17851037E+01
 20
-2.67776595E+02
  0
VERTEX
  8
0
 62
4
 10
-6.19444774E+01
 20
-2.68015208E+02
  0
VERTEX
  8
0
 62
4
 10
-6.20814421E+01
 20
-2.68266162E+02
  0
VERTEX
  8
0
 62
4
 10
-6.21949552E+01
 20
-2.68527547E+02
  0
VERTEX
  8
0
 62
4
 10
-6.22841530E+01
 20
-2.68797375E+02
  0
VERTEX
  8
0
 62
4
 10
-6.23483566E+01
 20
-2.69073591E+02
  0
VERTEX
  8
0
 62
4
 10
-6.23870773E+01
 20
-2.69354094E+02
  0
VERTEX
  8
0
 62
4
 10
-6.24000204E+01
 20
-2.69636748E+02
  0
SEQEND
  8
0
  0
POLYLINE
  8
0
 62
4
 66
1
  0
VERTEX
  8
0
 62
4
 10
-6.24000193E+01
 20
-2.70228326E+02
  0
VERTEX
  8
0
 62
4
 10
-6.23870496E+01
 20
-2.70508899E+02
  0
VERTEX
  8
0
 62
4
 10
-6.23482310E+01
 20
-2.70787331E+02
  0
VERTEX
  8
0
 62
4
 10
-6.22838597E+01
 20
-2.71061498E+02
  0
VERTEX
  8
0
 62
4
 10
-6.21944270E+01
 20
-2.71329306E+02
  0
VERTEX
  8
0
 62
4
 10
-6.20806154E+01
 20
-2.71588713E+02
  0
VERTEX
  8
0
 62
4
 10
-6.19432936E+01
 20
-2.71837737E+02
  0
VERTEX
  8
0
 62
4
 10
-6.17835094E+01
 20
-2.72074480E+02
  0
VERTEX
  8
0
 62
4
 10
-6.16024824E+01
 20
-2.72297133E+02
  0
VERTEX
  8
0
 62
4
 10
-6.14015941E+01
 20
-2.72503999E+02
  0
VERTEX
  8
0
 62
4
 10
-6.11823776E+01
 20
-2.72693497E+02
  0
VERTEX
  8
0
 62
4
 10
-6.09465059E+01
 20
-2.72864182E+02
  0
VERTEX
  8
0
 62
4
 10
-6.06957792E+01
 20
-2.73014752E+02
  0
VERTEX
  8
0
 62
4
 10
-6.04321109E+01
 20
-2.73144056E+02
  0
VERTEX
  8
0
 62
4
 10
-6.01575132E+01
 20
-2.73251109E+02
  0
VERTEX
  8
0
 62
4
 10
-5.98740818E+01
 20
-2.73335093E+02
  0
VERTEX
  8
0
 62
4
 10
-5.95839798E+01
 20
-2.73395368E+02
  0
VERTEX
  8
0
 62
4
 10
-5.92894212E+01
 20
-2.73431473E+02
  0
VERTEX
  8
0
 62
4
 10
-5.89926539E+01
 20
-2.73443133E+02
  0
VERTEX
  8
0
 62
4
 10
-5.86959429E+01
 20
-2.73430258E+02
  0
VERTEX
  8
0
 62
4
 10
-5.84015525E+01
 20
-2.73392948E+02
  0
VERTEX
  8
0
 62
4
 10
-5.81117294E+01
 20
-2.73331486E+02
  0
VERTEX
  8
0
 62
4
 10
-5.78286855E+01
 20
-2.73246343E+02
  0
VERTEX
  8
0
 62
4
 10
-5.75545809E+01
 20
-2.73138167E+02
  0
VERTEX
  8
0
 62
4
 10
-5.72915076E+01
 20
-2.73007784E+02
  0
VERTEX
  8
0
 62
4
 10
-5.70414731E+01
 20
-2.72856190E+02
  0
VERTEX
  8
0
 62
4
 10
-5.68063858E+01
 20
-2.72684541E+02
  0
VERTEX
  8
0
 62
4
 10
-5.65880396E+01
 20
-2.72494147E+02
  0
VERTEX
  8
0
 62
4
 10
-5.63881011E+01
 20
-2.72286461E+02
  0
VERTEX
  8
0
 62
4
 10
-5.62080960E+01
 20
-2.72063069E+02
  0
VERTEX
  8
0
 62
4
 10
-5.60493982E+01
 20
-2.71825674E+02
  0
VERTEX
  8
0
 62
4
 10
-5.59132187E+01
 20
-2.71576090E+02
  0
VERTEX
  8
0
 62
4
 10
-5.58005969E+01
 20
-2.71316220E+02
  0
VERTEX
  8
0
 62
4
 10
-5.57123922E+01
 20
-2.71048048E+02
  0
VERTEX
  8
0
 62
4
 10
-5.56492778E+01
 20
-2.70773621E+02
  0
VERTEX
  8
0
 62
4
 10
-5.56117354E+01
 20
-2.70495032E+02
  0
VERTEX
  8
0
 62
4
 10
-5.56000514E+01
 20
-2.70214408E+02
  0
VERTEX
  8
0
 62
4
 10
-5.56143151E+01
 20
-2.69933891E+02
  0
SEQEND
  8
0
  0
LINE
  8
0
  6
CENTER
 62
6
 10
-5.90000096E+01
 20
-2.75651761E+02
 11
-5.90000326E+01
 21
-2.62851761E+02
  0
LINE
  8
0
  6
CENTER
 62
6
 10
-6.54000211E+01
 20
-2.69251773E+02
 11
-5.26000211E+01
 21
-2.69251750E+02
  0
LINE
  8
0
 62
4
 10
-6.65000984E+01
 20
-2.37344817E+02
 11
-5.15000984E+01
 21
-2.37344790E+02
  0
LINE
  8
0
 62
4
 10
-6.85000571E+01
 20
-2.60331648E+02
 11
-4.95000571E+01
 21
-2.60331614E+02
  0
LINE
  8
0
 62
4
 10
-7.10000319E+01
 20
-2.65476157E+02
 11
-7.10000103E+01
 21
-2.77482550E+02
  0
LINE
  8
0
 62
4
 10
-6.85000571E+01
 20
-2.60331648E+02
 11
-6.85000506E+01
 21
-2.63976132E+02
  0
LINE
  8
0
 62
4
 10
-5.15000984E+01
 20
-2.37344790E+02
 11
-5.15000571E+01
 21
-2.60331618E+02
  0
LINE
  8
0
 62
4
 10
-6.65000984E+01
 20
-2.37344790E+02
 11
-6.65000571E+01
 21
-2.60331645E+02
  0
LINE
  8
0
 62
4
 10
-4.95000571E+01
 20
-2.60331614E+02
 11
-4.95000506E+01
 21
-2.63976118E+02
  0
LINE
  8
0
 62
4
 10
-6.65000576E+01
 20
-2.60037262E+02
 11
-5.15000576E+01
 21
-2.60037235E+02
  0
LINE
  8
0
 62
4
 10
-3.20000319E+01
 20
-2.65476087E+02
 11
-3.20000103E+01
 21
-2.77482480E+02
  0
LINE
  8
0
 62
4
 10
-6.80000005E+01
 20
-2.82231874E+02
 11
-3.50000005E+01
 21
-2.82231815E+02
  0
LINE
  8
0
 62
4
 10
-7.10000103E+01
 20
-2.77482550E+02
 11
-3.20000103E+01
 21
-2.77482480E+02
  0
LINE
  8
0
 62
4
 10
-7.10000129E+01
 20
-2.76064272E+02
 11
-3.20000129E+01
 21
-2.76064202E+02
  0
LINE
  8
0
 62
4
 10
-6.95000346E+01
 20
-2.63976154E+02
 11
-3.35000346E+01
 21
-2.63976089E+02
  0
LINE
  8
0
 62
4
 10
-8.60000940E+01
 20
-2.39797775E+02
 11
-8.10000940E+01
 21
-2.39797766E+02
  0
LINE
  8
0
 62
4
 10
-8.60000813E+01
 20
-2.46889164E+02
 11
-8.10000813E+01
 21
-2.46889155E+02
  0
LINE
  8
0
 62
4
 10
-8.60000711E+01
 20
-2.52560507E+02
 11
-8.10000711E+01
 21
-2.52560498E+02
  0
LINE
  8
0
 62
4
 10
-7.55000633E+01
 20
-2.52453340E+02
 11
-6.70000633E+01
 21
-2.52453325E+02
  0
LINE
  8
0
 62
4
 10
-6.65000964E+01
 20
-2.38453331E+02
 11
-7.55000964E+01
 21
-2.38453347E+02
  0
LINE
  8
0
 62
4
 10
-7.60000955E+01
 20
-2.38953348E+02
 11
-7.60000722E+01
 21
-2.51953348E+02
  0
LINE
  8
0
 62
4
 10
-8.60000966E+01
 20
-2.38358818E+02
 11
-8.60000711E+01
 21
-2.52560507E+02
  0
LINE
  8
0
 62
4
 10
-8.10000966E+01
 20
-2.38358818E+02
 11
-8.10000711E+01
 21
-2.52560507E+02
  0
LINE
  8
0
 62
4
 10
-8.10000950E+01
 20
-2.39203340E+02
 11
-7.60000950E+01
 21
-2.39203331E+02
  0
LINE
  8
0
 62
4
 10
-8.10000726E+01
 20
-2.51703340E+02
 11
-7.60000726E+01
 21
-2.51703331E+02
  0
LINE
  8
0
 62
4
 10
-7.95000950E+01
 20
-2.39203337E+02
 11
-7.95000726E+01
 21
-2.51703337E+02
  0
LINE
  8
0
 62
4
 10
-7.95000941E+01
 20
-2.39703337E+02
 11
-7.60000941E+01
 21
-2.39703331E+02
  0
LINE
  8
0
 62
4
 10
-7.95000735E+01
 20
-2.51203337E+02
 11
-7.60000735E+01
 21
-2.51203331E+02
  0
ARC
  8
0
 62
4
 10
-7.55025704E+01
 20
-2.38950872E+02
 40
4.97531232E-01
 50
8.97150889E+01
 51
1.80285117E+02
  0
ARC
  8
0
 62
4
 10
-6.69975875E+01
 20
-2.52950850E+02
 40
4.97531232E-01
 50
3.59715089E+02
 51
9.02851166E+01
  0
ARC
  8
0
 62
4
 10
-3.34975528E+01
 20
-2.65473610E+02
 40
1.49752302E+00
 50
3.59905254E+02
 51
9.00949513E+01
  0
ARC
  8
0
 62
4
 10
-7.54975769E+01
 20
-2.51950853E+02
 40
5.02493390E-01
 50
1.80283706E+02
 51
2.69716500E+02
  0
ARC
  8
0
 62
4
 10
-6.95025109E+01
 20
-2.65473675E+02
 40
1.49752302E+00
 50
8.99052542E+01
 51
1.80094952E+02
  0
LINE
  8
0
 62
6
 10
-5.72850831E+01
 20
-2.71351745E+02
 11
-6.07149577E+01
 21
-2.67921875E+02
  0
LINE
  8
0
 62
6
 10
-6.07149553E+01
 20
-2.71351747E+02
 11
-5.72850856E+01
 21
-2.67921872E+02
  0
ARC
  8
0
 62
4
 10
-5.01062883E+02
 20
-2.45453331E+02
 40
7.00000000E+00
 50
7.79182752E+01
 51
1.00872928E+02
  0
ARC
  8
0
 62
4
 10
-5.01062883E+02
 20
-2.45453331E+02
 40
7.00000000E+00
 50
1.17236957E+02
 51
1.40081725E+02
  0
ARC
  8
0
 62
4
 10
-4.83778478E+02
 20
-2.66471152E+02
 40
2.49501993E+00
 50
1.88855230E+01
 51
1.09114477E+02
  0
ARC
  8
0
 62
4
 10
-5.01746401E+02
 20
-2.72663294E+02
 40
2.50001642E+00
 50
1.09000376E+02
 51
1.76254945E+02
  0
CIRCLE
  8
0
 62
4
 10
-5.01062883E+02
 20
-2.45453331E+02
 40
3.75000000E+00
  0
LINE
  8
0
 62
4
 10
-5.00551589E+02
 20
-2.38936818E+02
 11
-4.95928003E+02
 21
-2.37344790E+02
  0
LINE
  8
0
 62
4
 10
-5.03511000E+02
 20
-2.38358818E+02
 11
-4.96140993E+02
 21
-2.39797775E+02
  0
LINE
  8
0
 62
4
 10
-5.05990973E+02
 20
-2.51121550E+02
 11
-4.98620966E+02
 21
-2.52560507E+02
  0
LINE
  8
0
 62
4
 10
-4.96140993E+02
 20
-2.39797775E+02
 11
-4.93699232E+02
 21
-2.46889164E+02
  0
LINE
  8
0
 62
4
 10
-5.08432734E+02
 20
-2.44030161E+02
 11
-5.05990973E+02
 21
-2.51121550E+02
  0
LINE
  8
0
 62
4
 10
-5.08432734E+02
 20
-2.44030161E+02
 11
-5.03511000E+02
 21
-2.38358818E+02
  0
LINE
  8
0
 62
4
 10
-4.98620966E+02
 20
-2.52560507E+02
 11
-4.93699232E+02
 21
-2.46889164E+02
  0
LINE
  8
0
 62
4
 10
-4.81417772E+02
 20
-2.65663568E+02
 11
-4.81301924E+02
 21
-2.66000015E+02
  0
LINE
  8
0
 62
4
 10
-5.02560342E+02
 20
-2.70299487E+02
 11
-4.84595489E+02
 21
-2.64113692E+02
  0
LINE
  8
0
 62
4
 10
-5.03862615E+02
 20
-2.66517413E+02
 11
-5.02560342E+02
 21
-2.70299487E+02
  0
LINE
  8
0
 62
4
 10
-4.85897762E+02
 20
-2.60331618E+02
 11
-4.84595489E+02
 21
-2.64113692E+02
  0
LINE
  8
0
 62
4
 10
-5.02297146E+02
 20
-2.64920758E+02
 11
-4.88114367E+02
 21
-2.60037235E+02
  0
LINE
  8
0
 62
4
 10
-5.03862615E+02
 20
-2.66517413E+02
 11
-4.85897762E+02
 21
-2.60331618E+02
  0
LINE
  8
0
 62
4
 10
-5.10110781E+02
 20
-2.42228312E+02
 11
-5.01971577E+02
 21
-2.65866276E+02
  0
LINE
  8
0
 62
4
 10
-4.95928003E+02
 20
-2.37344790E+02
 11
-4.87788799E+02
 21
-2.60982754E+02
  0
LINE
  8
0
 62
4
 10
-5.10110781E+02
 20
-2.42228312E+02
 11
-5.05487195E+02
 21
-2.40636284E+02
  0
LINE
  8
0
 62
4
 10
7.29346240E+01
 20
-2.65238787E+02
 11
7.88724807E+01
 21
-2.67283355E+02
  0
LINE
  8
0
 62
4
 10
7.88724807E+01
 20
-2.67283355E+02
 11
7.88872992E+01
 21
-2.68346078E+02
  0
LINE
  8
0
 62
4
 10
7.22686692E+01
 20
-2.66067101E+02
 11
7.29346240E+01
 21
-2.65238787E+02
  0
LINE
  8
0
  6
CENTER
 62
6
 10
7.66004247E+01
 20
-2.64237207E+02
 11
7.50928876E+01
 21
-2.68615412E+02
  0
ARC
  8
0
 62
4
 10
8.30676722E+01
 20
-2.45454956E+02
 40
7.00000000E+00
 50
3.99182754E+01
 51
1.02081725E+02
  0
LINE
  8
0
 62
4
 10
9.07601922E+01
 20
-2.75607105E+02
 11
8.59475026E+01
 21
-2.73949963E+02
  0
LINE
  8
0
 62
4
 10
9.13276404E+01
 20
-2.76109203E+02
 11
9.41974796E+01
 21
-2.81999969E+02
  0
LINE
  8
0
 62
4
 10
7.79280714E+01
 20
-2.37344790E+02
 11
9.21108500E+01
 21
-2.42228312E+02
  0
LINE
  8
0
 62
4
 10
7.79280714E+01
 20
-2.37344790E+02
 11
6.97888675E+01
 21
-2.60982754E+02
  0
LINE
  8
0
 62
4
 10
9.21108500E+01
 20
-2.42228312E+02
 11
8.39716461E+01
 21
-2.65866276E+02
  0
LINE
  8
0
 62
4
 10
8.58626833E+01
 20
-2.66517413E+02
 11
6.78978303E+01
 21
-2.60331618E+02
  0
LINE
  8
0
 62
4
 10
8.42972143E+01
 20
-2.64920758E+02
 11
7.01144357E+01
 21
-2.60037235E+02
  0
LINE
  8
0
 62
4
 10
6.78978303E+01
 20
-2.60331618E+02
 11
6.65955577E+01
 21
-2.64113692E+02
  0
LINE
  8
0
 62
4
 10
8.58626833E+01
 20
-2.66517413E+02
 11
8.45604107E+01
 21
-2.70299487E+02
  0
LINE
  8
0
 62
4
 10
8.45604107E+01
 20
-2.70299487E+02
 11
6.65955577E+01
 21
-2.64113692E+02
  0
LINE
  8
0
 62
4
 10
7.24677770E+01
 20
-2.81999969E+02
 11
5.93482390E+01
 21
-2.77482550E+02
  0
LINE
  8
0
 62
4
 10
6.34178409E+01
 20
-2.65663568E+02
 11
5.93482390E+01
 21
-2.77482550E+02
  0
LINE
  8
0
 62
4
 10
8.61102867E+01
 20
-2.73477204E+02
 11
8.31756631E+01
 21
-2.81999969E+02
  0
LINE
  8
0
 62
4
 10
5.93482390E+01
 20
-2.77482550E+02
 11
6.08107014E+01
 21
-2.81999969E+02
  0
LINE
  8
0
 62
4
 10
7.70751073E+01
 20
-2.81999969E+02
 11
5.98365912E+01
 21
-2.76064272E+02
  0
LINE
  8
0
 62
4
 10
7.48644761E+01
 20
-2.75421874E+02
 11
7.10824018E+01
 21
-2.74119602E+02
  0
LINE
  8
0
 62
4
 10
7.40505557E+01
 20
-2.77785671E+02
 11
7.02684814E+01
 21
-2.76483398E+02
  0
LINE
  8
0
 62
4
 10
7.48644761E+01
 20
-2.75421874E+02
 11
7.40505557E+01
 21
-2.77785671E+02
  0
LINE
  8
0
 62
4
 10
7.10824018E+01
 20
-2.74119602E+02
 11
7.02684814E+01
 21
-2.76483398E+02
  0
LINE
  8
0
 62
4
 10
8.62653961E+01
 20
-2.39228034E+02
 11
8.55110686E+01
 21
-2.38358818E+02
  0
LINE
  8
0
 62
4
 10
8.55110686E+01
 20
-2.38358818E+02
 11
8.43815077E+01
 21
-2.38579359E+02
  0
LINE
  8
0
 62
4
 10
6.30922727E+01
 20
-2.66609087E+02
 11
6.26195135E+01
 21
-2.66446303E+02
  0
LINE
  8
0
 62
4
 10
6.04877275E+01
 20
-2.74173235E+02
 11
6.00149682E+01
 21
-2.74010451E+02
  0
LINE
  8
0
 62
4
 10
6.24241726E+01
 20
-2.67013614E+02
 11
6.07884254E+01
 21
-2.66450381E+02
  0
LINE
  8
0
 62
4
 10
5.85745620E+01
 20
-2.72879907E+02
 11
6.02103091E+01
 21
-2.73443140E+02
  0
LINE
  8
0
  6
CENTER
 62
6
 10
9.15076490E+01
 20
-2.80623768E+02
 11
5.56441294E+01
 21
-2.68274968E+02
  0
LINE
  8
0
 62
4
 10
6.26195135E+01
 20
-2.66446303E+02
 11
6.00149682E+01
 21
-2.74010451E+02
  0
ARC
  8
0
 62
4
 10
9.04324195E+01
 20
-2.76549240E+02
 40
9.97523260E-01
 50
2.61759467E+01
 51
7.08169962E+01
  0
ARC
  8
0
 62
4
 10
5.88988103E+01
 20
-2.71931064E+02
 40
1.00271607E+00
 50
1.73833000E+02
 51
2.51133148E+02
  0
ARC
  8
0
 62
4
 10
6.04571531E+01
 20
-2.67390322E+02
 40
9.96609194E-01
 50
7.05855253E+01
 51
1.48448327E+02
  0
ARC
  8
0
 62
4
 10
6.96391306E+01
 20
-2.73115214E+02
 40
1.18081149E+01
 50
1.48089798E+02
 51
1.73718975E+02
  0
ARC
  8
0
 62
4
 10
8.37464694E+01
 20
-2.72663294E+02
 40
2.50001642E+00
 50
3.41000376E+02
 51
7.09996236E+01
  0
ARC
  8
0
 62
4
 10
6.57785469E+01
 20
-2.66471152E+02
 40
2.49501993E+00
 50
7.08855231E+01
 51
1.61114477E+02
  0
POLYLINE
  8
0
 62
4
 66
1
  0
VERTEX
  8
0
 62
4
 10
-5.55999860E+01
 20
-1.41157748E+02
  0
VERTEX
  8
0
 62
4
 10
-5.56129240E+01
 20
-1.41031706E+02
  0
VERTEX
  8
0
 62
4
 10
-5.56516396E+01
 20
-1.40906624E+02
  0
VERTEX
  8
0
 62
4
 10
-5.57158382E+01
 20
-1.40783453E+02
  0
VERTEX
  8
0
 62
4
 10
-5.58050311E+01
 20
-1.40663130E+02
  0
VERTEX
  8
0
 62
4
 10
-5.59185395E+01
 20
-1.40546572E+02
  0
VERTEX
  8
0
 62
4
 10
-5.60554996E+01
 20
-1.40434665E+02
  0
VERTEX
  8
0
 62
4
 10
-5.62148690E+01
 20
-1.40328261E+02
  0
VERTEX
  8
0
 62
4
 10
-5.63954349E+01
 20
-1.40228171E+02
  0
VERTEX
  8
0
 62
4
 10
-5.65958229E+01
 20
-1.40135154E+02
  0
VERTEX
  8
0
 62
4
 10
-5.68145081E+01
 20
-1.40049921E+02
  0
VERTEX
  8
0
 62
4
 10
-5.70498261E+01
 20
-1.39973118E+02
  0
VERTEX
  8
0
 62
4
 10
-5.72999860E+01
 20
-1.39905332E+02
  0
VERTEX
  8
0
 62
4
 10
-5.75630839E+01
 20
-1.39847077E+02
  0
VERTEX
  8
0
 62
4
 10
-5.78371175E+01
 20
-1.39798797E+02
  0
VERTEX
  8
0
 62
4
 10
-5.81200012E+01
 20
-1.39760859E+02
  0
VERTEX
  8
0
 62
4
 10
-5.84095822E+01
 20
-1.39733553E+02
  0
VERTEX
  8
0
 62
4
 10
-5.87036565E+01
 20
-1.39717085E+02
  0
VERTEX
  8
0
 62
4
 10
-5.89999860E+01
 20
-1.39711582E+02
  0
VERTEX
  8
0
 62
4
 10
-5.92963155E+01
 20
-1.39717085E+02
  0
VERTEX
  8
0
 62
4
 10
-5.95903898E+01
 20
-1.39733553E+02
  0
VERTEX
  8
0
 62
4
 10
-5.98799708E+01
 20
-1.39760859E+02
  0
VERTEX
  8
0
 62
4
 10
-6.01628545E+01
 20
-1.39798797E+02
  0
VERTEX
  8
0
 62
4
 10
-6.04368881E+01
 20
-1.39847077E+02
  0
VERTEX
  8
0
 62
4
 10
-6.06999860E+01
 20
-1.39905332E+02
  0
VERTEX
  8
0
 62
4
 10
-6.09501459E+01
 20
-1.39973118E+02
  0
VERTEX
  8
0
 62
4
 10
-6.11854639E+01
 20
-1.40049921E+02
  0
VERTEX
  8
0
 62
4
 10
-6.14041491E+01
 20
-1.40135154E+02
  0
VERTEX
  8
0
 62
4
 10
-6.16045371E+01
 20
-1.40228171E+02
  0
VERTEX
  8
0
 62
4
 10
-6.17851030E+01
 20
-1.40328261E+02
  0
VERTEX
  8
0
 62
4
 10
-6.19444724E+01
 20
-1.40434665E+02
  0
VERTEX
  8
0
 62
4
 10
-6.20814325E+01
 20
-1.40546572E+02
  0
VERTEX
  8
0
 62
4
 10
-6.21949409E+01
 20
-1.40663130E+02
  0
VERTEX
  8
0
 62
4
 10
-6.22841338E+01
 20
-1.40783453E+02
  0
VERTEX
  8
0
 62
4
 10
-6.23483324E+01
 20
-1.40906624E+02
  0
VERTEX
  8
0
 62
4
 10
-6.23870480E+01
 20
-1.41031706E+02
  0
VERTEX
  8
0
 62
4
 10
-6.23999860E+01
 20
-1.41157748E+02
  0
VERTEX
  8
0
 62
4
 10
-6.23870480E+01
 20
-1.41283790E+02
  0
VERTEX
  8
0
 62
4
 10
-6.23483324E+01
 20
-1.41408872E+02
  0
VERTEX
  8
0
 62
4
 10
-6.22841338E+01
 20
-1.41532043E+02
  0
VERTEX
  8
0
 62
4
 10
-6.21949409E+01
 20
-1.41652366E+02
  0
VERTEX
  8
0
 62
4
 10
-6.20814325E+01
 20
-1.41768924E+02
  0
VERTEX
  8
0
 62
4
 10
-6.19444724E+01
 20
-1.41880831E+02
  0
VERTEX
  8
0
 62
4
 10
-6.17851029E+01
 20
-1.41987235E+02
  0
VERTEX
  8
0
 62
4
 10
-6.16045371E+01
 20
-1.42087325E+02
  0
VERTEX
  8
0
 62
4
 10
-6.14041491E+01
 20
-1.42180342E+02
  0
VERTEX
  8
0
 62
4
 10
-6.11854639E+01
 20
-1.42265575E+02
  0
VERTEX
  8
0
 62
4
 10
-6.09501459E+01
 20
-1.42342378E+02
  0
VERTEX
  8
0
 62
4
 10
-6.06999860E+01
 20
-1.42410164E+02
  0
VERTEX
  8
0
 62
4
 10
-6.04368881E+01
 20
-1.42468419E+02
  0
VERTEX
  8
0
 62
4
 10
-6.01628545E+01
 20
-1.42516699E+02
  0
VERTEX
  8
0
 62
4
 10
-5.98799707E+01
 20
-1.42554637E+02
  0
VERTEX
  8
0
 62
4
 10
-5.95903898E+01
 20
-1.42581943E+02
  0
VERTEX
  8
0
 62
4
 10
-5.92963155E+01
 20
-1.42598411E+02
  0
VERTEX
  8
0
 62
4
 10
-5.89999860E+01
 20
-1.42603914E+02
  0
VERTEX
  8
0
 62
4
 10
-5.87036565E+01
 20
-1.42598411E+02
  0
VERTEX
  8
0
 62
4
 10
-5.84095822E+01
 20
-1.42581943E+02
  0
VERTEX
  8
0
 62
4
 10
-5.81200012E+01
 20
-1.42554637E+02
  0
VERTEX
  8
0
 62
4
 10
-5.78371175E+01
 20
-1.42516699E+02
  0
VERTEX
  8
0
 62
4
 10
-5.75630839E+01
 20
-1.42468419E+02
  0
VERTEX
  8
0
 62
4
 10
-5.72999860E+01
 20
-1.42410164E+02
  0
VERTEX
  8
0
 62
4
 10
-5.70498261E+01
 20
-1.42342378E+02
  0
VERTEX
  8
0
 62
4
 10
-5.68145081E+01
 20
-1.42265575E+02
  0
VERTEX
  8
0
 62
4
 10
-5.65958229E+01
 20
-1.42180342E+02
  0
VERTEX
  8
0
 62
4
 10
-5.63954349E+01
 20
-1.42087325E+02
  0
VERTEX
  8
0
 62
4
 10
-5.62148690E+01
 20
-1.41987235E+02
  0
VERTEX
  8
0
 62
4
 10
-5.60554996E+01
 20
-1.41880831E+02
  0
VERTEX
  8
0
 62
4
 10
-5.59185395E+01
 20
-1.41768924E+02
  0
VERTEX
  8
0
 62
4
 10
-5.58050311E+01
 20
-1.41652366E+02
  0
VERTEX
  8
0
 62
4
 10
-5.57158382E+01
 20
-1.41532043E+02
  0
VERTEX
  8
0
 62
4
 10
-5.56516396E+01
 20
-1.41408872E+02
  0
VERTEX
  8
0
 62
4
 10
-5.56129240E+01
 20
-1.41283790E+02
  0
VERTEX
  8
0
 62
4
 10
-5.55999860E+01
 20
-1.41157748E+02
  0
SEQEND
  8
0
  0
ARC
  8
0
 62
4
 10
-6.95024841E+01
 20
-1.34770744E+02
 40
1.49750400E+00
 50
1.79904421E+02
 51
2.70095579E+02
  0
ARC
  8
0
 62
4
 10
-3.34974841E+01
 20
-1.34770748E+02
 40
1.49750021E+00
 50
2.69904276E+02
 51
9.57242462E-02
  0
LINE
  8
0
 62
4
 10
-6.84999860E+01
 20
-1.33904450E+02
 11
-4.94999860E+01
 21
-1.33904450E+02
  0
POLYLINE
  8
0
 62
4
 66
1
  0
VERTEX
  8
0
 62
4
 10
-3.98599860E+01
 20
-1.24596480E+02
  0
VERTEX
  8
0
 62
4
 10
-3.98719346E+01
 20
-1.24337721E+02
  0
VERTEX
  8
0
 62
4
 10
-3.99076897E+01
 20
-1.24080931E+02
  0
VERTEX
  8
0
 62
4
 10
-3.99669789E+01
 20
-1.23828065E+02
  0
VERTEX
  8
0
 62
4
 10
-4.00493512E+01
 20
-1.23581047E+02
  0
VERTEX
  8
0
 62
4
 10
-4.01541795E+01
 20
-1.23341757E+02
  0
VERTEX
  8
0
 62
4
 10
-4.02806662E+01
 20
-1.23112016E+02
  0
VERTEX
  8
0
 62
4
 10
-4.04278486E+01
 20
-1.22893573E+02
  0
VERTEX
  8
0
 62
4
 10
-4.05946064E+01
 20
-1.22688090E+02
  0
VERTEX
  8
0
 62
4
 10
-4.07796707E+01
 20
-1.22497131E+02
  0
VERTEX
  8
0
 62
4
 10
-4.09816329E+01
 20
-1.22322149E+02
  0
VERTEX
  8
0
 62
4
 10
-4.11989560E+01
 20
-1.22164476E+02
  0
VERTEX
  8
0
 62
4
 10
-4.14299860E+01
 20
-1.22025313E+02
  0
VERTEX
  8
0
 62
4
 10
-4.16729647E+01
 20
-1.21905717E+02
  0
VERTEX
  8
0
 62
4
 10
-4.19260428E+01
 20
-1.21806600E+02
  0
VERTEX
  8
0
 62
4
 10
-4.21872942E+01
 20
-1.21728715E+02
  0
VERTEX
  8
0
 62
4
 10
-4.24547307E+01
 20
-1.21672656E+02
  0
VERTEX
  8
0
 62
4
 10
-4.27263170E+01
 20
-1.21638849E+02
  0
VERTEX
  8
0
 62
4
 10
-4.29999860E+01
 20
-1.21627552E+02
  0
VERTEX
  8
0
 62
4
 10
-4.32736550E+01
 20
-1.21638849E+02
  0
VERTEX
  8
0
 62
4
 10
-4.35452413E+01
 20
-1.21672656E+02
  0
VERTEX
  8
0
 62
4
 10
-4.38126778E+01
 20
-1.21728715E+02
  0
VERTEX
  8
0
 62
4
 10
-4.40739293E+01
 20
-1.21806600E+02
  0
VERTEX
  8
0
 62
4
 10
-4.43270073E+01
 20
-1.21905717E+02
  0
VERTEX
  8
0
 62
4
 10
-4.45699860E+01
 20
-1.22025313E+02
  0
VERTEX
  8
0
 62
4
 10
-4.48010160E+01
 20
-1.22164476E+02
  0
VERTEX
  8
0
 62
4
 10
-4.50183391E+01
 20
-1.22322149E+02
  0
VERTEX
  8
0
 62
4
 10
-4.52203013E+01
 20
-1.22497131E+02
  0
VERTEX
  8
0
 62
4
 10
-4.54053656E+01
 20
-1.22688090E+02
  0
VERTEX
  8
0
 62
4
 10
-4.55721234E+01
 20
-1.22893573E+02
  0
VERTEX
  8
0
 62
4
 10
-4.57193058E+01
 20
-1.23112016E+02
  0
VERTEX
  8
0
 62
4
 10
-4.58457925E+01
 20
-1.23341757E+02
  0
VERTEX
  8
0
 62
4
 10
-4.59506208E+01
 20
-1.23581047E+02
  0
VERTEX
  8
0
 62
4
 10
-4.60329931E+01
 20
-1.23828065E+02
  0
VERTEX
  8
0
 62
4
 10
-4.60922823E+01
 20
-1.24080931E+02
  0
VERTEX
  8
0
 62
4
 10
-4.61280374E+01
 20
-1.24337721E+02
  0
VERTEX
  8
0
 62
4
 10
-4.61399860E+01
 20
-1.24596480E+02
  0
VERTEX
  8
0
 62
4
 10
-4.61280374E+01
 20
-1.24855239E+02
  0
VERTEX
  8
0
 62
4
 10
-4.60922823E+01
 20
-1.25112029E+02
  0
VERTEX
  8
0
 62
4
 10
-4.60329931E+01
 20
-1.25364895E+02
  0
VERTEX
  8
0
 62
4
 10
-4.59506208E+01
 20
-1.25611913E+02
  0
VERTEX
  8
0
 62
4
 10
-4.58457924E+01
 20
-1.25851203E+02
  0
VERTEX
  8
0
 62
4
 10
-4.57193058E+01
 20
-1.26080944E+02
  0
VERTEX
  8
0
 62
4
 10
-4.55721234E+01
 20
-1.26299387E+02
  0
VERTEX
  8
0
 62
4
 10
-4.54053655E+01
 20
-1.26504870E+02
  0
VERTEX
  8
0
 62
4
 10
-4.52203013E+01
 20
-1.26695829E+02
  0
VERTEX
  8
0
 62
4
 10
-4.50183391E+01
 20
-1.26870811E+02
  0
VERTEX
  8
0
 62
4
 10
-4.48010160E+01
 20
-1.27028484E+02
  0
VERTEX
  8
0
 62
4
 10
-4.45699860E+01
 20
-1.27167647E+02
  0
VERTEX
  8
0
 62
4
 10
-4.43270073E+01
 20
-1.27287243E+02
  0
VERTEX
  8
0
 62
4
 10
-4.40739292E+01
 20
-1.27386360E+02
  0
VERTEX
  8
0
 62
4
 10
-4.38126778E+01
 20
-1.27464245E+02
  0
VERTEX
  8
0
 62
4
 10
-4.35452413E+01
 20
-1.27520304E+02
  0
VERTEX
  8
0
 62
4
 10
-4.32736550E+01
 20
-1.27554111E+02
  0
VERTEX
  8
0
 62
4
 10
-4.29999860E+01
 20
-1.27565408E+02
  0
VERTEX
  8
0
 62
4
 10
-4.27263170E+01
 20
-1.27554111E+02
  0
VERTEX
  8
0
 62
4
 10
-4.24547307E+01
 20
-1.27520304E+02
  0
VERTEX
  8
0
 62
4
 10
-4.21872942E+01
 20
-1.27464245E+02
  0
VERTEX
  8
0
 62
4
 10
-4.19260427E+01
 20
-1.27386360E+02
  0
VERTEX
  8
0
 62
4
 10
-4.16729647E+01
 20
-1.27287243E+02
  0
VERTEX
  8
0
 62
4
 10
-4.14299860E+01
 20
-1.27167647E+02
  0
VERTEX
  8
0
 62
4
 10
-4.11989560E+01
 20
-1.27028484E+02
  0
VERTEX
  8
0
 62
4
 10
-4.09816329E+01
 20
-1.26870811E+02
  0
VERTEX
  8
0
 62
4
 10
-4.07796707E+01
 20
-1.26695829E+02
  0
VERTEX
  8
0
 62
4
 10
-4.05946064E+01
 20
-1.26504870E+02
  0
VERTEX
  8
0
 62
4
 10
-4.04278486E+01
 20
-1.26299387E+02
  0
VERTEX
  8
0
 62
4
 10
-4.02806662E+01
 20
-1.26080944E+02
  0
VERTEX
  8
0
 62
4
 10
-4.01541795E+01
 20
-1.25851203E+02
  0
VERTEX
  8
0
 62
4
 10
-4.00493512E+01
 20
-1.25611913E+02
  0
VERTEX
  8
0
 62
4
 10
-3.99669789E+01
 20
-1.25364895E+02
  0
VERTEX
  8
0
 62
4
 10
-3.99076897E+01
 20
-1.25112029E+02
  0
VERTEX
  8
0
 62
4
 10
-3.98719346E+01
 20
-1.24855239E+02
  0
VERTEX
  8
0
 62
4
 10
-3.98599860E+01
 20
-1.24596480E+02
  0
SEQEND
  8
0
  0
POLYLINE
  8
0
 62
4
 66
1
  0
VERTEX
  8
0
 62
4
 10
-3.94999860E+01
 20
-1.24922048E+02
  0
VERTEX
  8
0
 62
4
 10
-3.95133046E+01
 20
-1.24633622E+02
  0
VERTEX
  8
0
 62
4
 10
-3.95531589E+01
 20
-1.24347391E+02
  0
VERTEX
  8
0
 62
4
 10
-3.96192456E+01
 20
-1.24065534E+02
  0
VERTEX
  8
0
 62
4
 10
-3.97110618E+01
 20
-1.23790196E+02
  0
VERTEX
  8
0
 62
4
 10
-3.98279087E+01
 20
-1.23523471E+02
  0
VERTEX
  8
0
 62
4
 10
-3.99688971E+01
 20
-1.23267390E+02
  0
VERTEX
  8
0
 62
4
 10
-4.01329538E+01
 20
-1.23023903E+02
  0
VERTEX
  8
0
 62
4
 10
-4.03188304E+01
 20
-1.22794861E+02
  0
VERTEX
  8
0
 62
4
 10
-4.05251123E+01
 20
-1.22582009E+02
  0
VERTEX
  8
0
 62
4
 10
-4.07502294E+01
 20
-1.22386966E+02
  0
VERTEX
  8
0
 62
4
 10
-4.09924685E+01
 20
-1.22211216E+02
  0
VERTEX
  8
0
 62
4
 10
-4.12499860E+01
 20
-1.22056097E+02
  0
VERTEX
  8
0
 62
4
 10
-4.15208221E+01
 20
-1.21922790E+02
  0
VERTEX
  8
0
 62
4
 10
-4.18029155E+01
 20
-1.21812309E+02
  0
VERTEX
  8
0
 62
4
 10
-4.20941193E+01
 20
-1.21725495E+02
  0
VERTEX
  8
0
 62
4
 10
-4.23922174E+01
 20
-1.21663009E+02
  0
VERTEX
  8
0
 62
4
 10
-4.26949409E+01
 20
-1.21625326E+02
  0
VERTEX
  8
0
 62
4
 10
-4.29999860E+01
 20
-1.21612733E+02
  0
VERTEX
  8
0
 62
4
 10
-4.33050311E+01
 20
-1.21625326E+02
  0
VERTEX
  8
0
 62
4
 10
-4.36077546E+01
 20
-1.21663009E+02
  0
VERTEX
  8
0
 62
4
 10
-4.39058527E+01
 20
-1.21725495E+02
  0
VERTEX
  8
0
 62
4
 10
-4.41970565E+01
 20
-1.21812309E+02
  0
VERTEX
  8
0
 62
4
 10
-4.44791499E+01
 20
-1.21922790E+02
  0
VERTEX
  8
0
 62
4
 10
-4.47499860E+01
 20
-1.22056097E+02
  0
VERTEX
  8
0
 62
4
 10
-4.50075035E+01
 20
-1.22211216E+02
  0
VERTEX
  8
0
 62
4
 10
-4.52497426E+01
 20
-1.22386966E+02
  0
VERTEX
  8
0
 62
4
 10
-4.54748597E+01
 20
-1.22582009E+02
  0
VERTEX
  8
0
 62
4
 10
-4.56811416E+01
 20
-1.22794861E+02
  0
VERTEX
  8
0
 62
4
 10
-4.58670182E+01
 20
-1.23023903E+02
  0
VERTEX
  8
0
 62
4
 10
-4.60310749E+01
 20
-1.23267390E+02
  0
VERTEX
  8
0
 62
4
 10
-4.61720633E+01
 20
-1.23523471E+02
  0
VERTEX
  8
0
 62
4
 10
-4.62889102E+01
 20
-1.23790196E+02
  0
VERTEX
  8
0
 62
4
 10
-4.63807264E+01
 20
-1.24065534E+02
  0
VERTEX
  8
0
 62
4
 10
-4.64468131E+01
 20
-1.24347391E+02
  0
VERTEX
  8
0
 62
4
 10
-4.64866674E+01
 20
-1.24633622E+02
  0
VERTEX
  8
0
 62
4
 10
-4.64999860E+01
 20
-1.24922048E+02
  0
VERTEX
  8
0
 62
4
 10
-4.64866674E+01
 20
-1.25210474E+02
  0
VERTEX
  8
0
 62
4
 10
-4.64468131E+01
 20
-1.25496705E+02
  0
VERTEX
  8
0
 62
4
 10
-4.63807264E+01
 20
-1.25778562E+02
  0
VERTEX
  8
0
 62
4
 10
-4.62889102E+01
 20
-1.26053900E+02
  0
VERTEX
  8
0
 62
4
 10
-4.61720633E+01
 20
-1.26320625E+02
  0
VERTEX
  8
0
 62
4
 10
-4.60310749E+01
 20
-1.26576706E+02
  0
VERTEX
  8
0
 62
4
 10
-4.58670182E+01
 20
-1.26820193E+02
  0
VERTEX
  8
0
 62
4
 10
-4.56811415E+01
 20
-1.27049235E+02
  0
VERTEX
  8
0
 62
4
 10
-4.54748597E+01
 20
-1.27262087E+02
  0
VERTEX
  8
0
 62
4
 10
-4.52497426E+01
 20
-1.27457130E+02
  0
VERTEX
  8
0
 62
4
 10
-4.50075035E+01
 20
-1.27632880E+02
  0
VERTEX
  8
0
 62
4
 10
-4.47499860E+01
 20
-1.27787999E+02
  0
VERTEX
  8
0
 62
4
 10
-4.44791499E+01
 20
-1.27921306E+02
  0
VERTEX
  8
0
 62
4
 10
-4.41970565E+01
 20
-1.28031787E+02
  0
VERTEX
  8
0
 62
4
 10
-4.39058527E+01
 20
-1.28118601E+02
  0
VERTEX
  8
0
 62
4
 10
-4.36077546E+01
 20
-1.28181087E+02
  0
VERTEX
  8
0
 62
4
 10
-4.33050311E+01
 20
-1.28218770E+02
  0
VERTEX
  8
0
 62
4
 10
-4.29999860E+01
 20
-1.28231363E+02
  0
VERTEX
  8
0
 62
4
 10
-4.26949409E+01
 20
-1.28218770E+02
  0
VERTEX
  8
0
 62
4
 10
-4.23922174E+01
 20
-1.28181087E+02
  0
VERTEX
  8
0
 62
4
 10
-4.20941193E+01
 20
-1.28118601E+02
  0
VERTEX
  8
0
 62
4
 10
-4.18029155E+01
 20
-1.28031787E+02
  0
VERTEX
  8
0
 62
4
 10
-4.15208221E+01
 20
-1.27921306E+02
  0
VERTEX
  8
0
 62
4
 10
-4.12499860E+01
 20
-1.27787999E+02
  0
VERTEX
  8
0
 62
4
 10
-4.09924685E+01
 20
-1.27632880E+02
  0
VERTEX
  8
0
 62
4
 10
-4.07502294E+01
 20
-1.27457130E+02
  0
VERTEX
  8
0
 62
4
 10
-4.05251123E+01
 20
-1.27262087E+02
  0
VERTEX
  8
0
 62
4
 10
-4.03188304E+01
 20
-1.27049235E+02
  0
VERTEX
  8
0
 62
4
 10
-4.01329538E+01
 20
-1.26820193E+02
  0
VERTEX
  8
0
 62
4
 10
-3.99688971E+01
 20
-1.26576705E+02
  0
VERTEX
  8
0
 62
4
 10
-3.98279087E+01
 20
-1.26320625E+02
  0
VERTEX
  8
0
 62
4
 10
-3.97110618E+01
 20
-1.26053900E+02
  0
VERTEX
  8
0
 62
4
 10
-3.96192456E+01
 20
-1.25778562E+02
  0
VERTEX
  8
0
 62
4
 10
-3.95531589E+01
 20
-1.25496705E+02
  0
VERTEX
  8
0
 62
4
 10
-3.95133046E+01
 20
-1.25210474E+02
  0
VERTEX
  8
0
 62
4
 10
-3.94999860E+01
 20
-1.24922048E+02
  0
SEQEND
  8
0
  0
ARC
  8
0
 62
4
 10
-5.47643910E+01
 20
-1.30602479E+02
 40
1.21769740E+01
 50
2.40462101E+02
 51
2.56878396E+02
  0
ARC
  8
0
 62
4
 10
-6.32355810E+01
 20
-1.30602479E+02
 40
1.21769740E+01
 50
2.83121604E+02
 51
2.99537899E+02
  0
LINE
  8
0
 62
4
 10
-6.64999860E+01
 20
-1.30711140E+02
 11
-5.14999860E+01
 21
-1.30711140E+02
  0
LINE
  8
0
  6
CENTER
 62
6
 10
-6.36760838E+01
 20
-1.15480547E+02
 11
-5.43238882E+01
 21
-1.15480547E+02
  0
LINE
  8
0
 62
4
 10
-5.55999860E+01
 20
-1.41151769E+02
 11
-3.34999860E+01
 21
-1.41151769E+02
  0
POLYLINE
  8
0
 62
4
 66
1
  0
VERTEX
  8
0
 62
4
 10
-5.55999860E+01
 20
-1.39182767E+02
  0
VERTEX
  8
0
 62
4
 10
-5.56136734E+01
 20
-1.39083542E+02
  0
VERTEX
  8
0
 62
4
 10
-5.56546254E+01
 20
-1.38985117E+02
  0
VERTEX
  8
0
 62
4
 10
-5.57225123E+01
 20
-1.38888282E+02
  0
VERTEX
  8
0
 62
4
 10
-5.58167874E+01
 20
-1.38793819E+02
  0
VERTEX
  8
0
 62
4
 10
-5.59366918E+01
 20
-1.38702487E+02
  0
VERTEX
  8
0
 62
4
 10
-5.60812601E+01
 20
-1.38615023E+02
  0
VERTEX
  8
0
 62
4
 10
-5.62493282E+01
 20
-1.38532129E+02
  0
VERTEX
  8
0
 62
4
 10
-5.64395430E+01
 20
-1.38454474E+02
  0
VERTEX
  8
0
 62
4
 10
-5.66503730E+01
 20
-1.38382682E+02
  0
VERTEX
  8
0
 62
4
 10
-5.68801207E+01
 20
-1.38317333E+02
  0
VERTEX
  8
0
 62
4
 10
-5.71269363E+01
 20
-1.38258951E+02
  0
VERTEX
  8
0
 62
4
 10
-5.73888325E+01
 20
-1.38208008E+02
  0
VERTEX
  8
0
 62
4
 10
-5.76637009E+01
 20
-1.38164913E+02
  0
VERTEX
  8
0
 62
4
 10
-5.79493282E+01
 20
-1.38130012E+02
  0
VERTEX
  8
0
 62
4
 10
-5.82434148E+01
 20
-1.38103588E+02
  0
VERTEX
  8
0
 62
4
 10
-5.85435929E+01
 20
-1.38085853E+02
  0
VERTEX
  8
0
 62
4
 10
-5.88474456E+01
 20
-1.38076950E+02
  0
VERTEX
  8
0
 62
4
 10
-5.91525264E+01
 20
-1.38076950E+02
  0
VERTEX
  8
0
 62
4
 10
-5.94563791E+01
 20
-1.38085853E+02
  0
VERTEX
  8
0
 62
4
 10
-5.97565572E+01
 20
-1.38103588E+02
  0
VERTEX
  8
0
 62
4
 10
-6.00506438E+01
 20
-1.38130012E+02
  0
VERTEX
  8
0
 62
4
 10
-6.03362711E+01
 20
-1.38164913E+02
  0
VERTEX
  8
0
 62
4
 10
-6.06111394E+01
 20
-1.38208008E+02
  0
VERTEX
  8
0
 62
4
 10
-6.08730357E+01
 20
-1.38258951E+02
  0
VERTEX
  8
0
 62
4
 10
-6.11198513E+01
 20
-1.38317333E+02
  0
VERTEX
  8
0
 62
4
 10
-6.13495990E+01
 20
-1.38382682E+02
  0
VERTEX
  8
0
 62
4
 10
-6.15604290E+01
 20
-1.38454474E+02
  0
VERTEX
  8
0
 62
4
 10
-6.17506438E+01
 20
-1.38532129E+02
  0
VERTEX
  8
0
 62
4
 10
-6.19187119E+01
 20
-1.38615023E+02
  0
VERTEX
  8
0
 62
4
 10
-6.20632801E+01
 20
-1.38702487E+02
  0
VERTEX
  8
0
 62
4
 10
-6.21831846E+01
 20
-1.38793819E+02
  0
VERTEX
  8
0
 62
4
 10
-6.22774597E+01
 20
-1.38888282E+02
  0
VERTEX
  8
0
 62
4
 10
-6.23453466E+01
 20
-1.38985117E+02
  0
VERTEX
  8
0
 62
4
 10
-6.23862986E+01
 20
-1.39083542E+02
  0
VERTEX
  8
0
 62
4
 10
-6.23999860E+01
 20
-1.39182767E+02
  0
SEQEND
  8
0
  0
LINE
  8
0
 62
4
 10
-6.29999860E+01
 20
-1.38710007E+02
 11
-6.29999860E+01
 21
-1.39182767E+02
  0
LINE
  8
0
 62
4
 10
-5.49999860E+01
 20
-1.38710007E+02
 11
-5.49999860E+01
 21
-1.39182767E+02
  0
POLYLINE
  8
0
 62
4
 66
1
  0
VERTEX
  8
0
 62
4
 10
-5.55999860E+01
 20
-1.39868782E+02
  0
VERTEX
  8
0
 62
4
 10
-5.54269340E+01
 20
-1.39768183E+02
  0
VERTEX
  8
0
 62
4
 10
-5.52818910E+01
 20
-1.39662996E+02
  0
VERTEX
  8
0
 62
4
 10
-5.51659942E+01
 20
-1.39554044E+02
  0
VERTEX
  8
0
 62
4
 10
-5.50801519E+01
 20
-1.39442182E+02
  0
VERTEX
  8
0
 62
4
 10
-5.50250371E+01
 20
-1.39328286E+02
  0
VERTEX
  8
0
 62
4
 10
-5.50010819E+01
 20
-1.39213249E+02
  0
VERTEX
  8
0
 62
4
 10
-5.50084741E+01
 20
-1.39097974E+02
  0
VERTEX
  8
0
 62
4
 10
-5.50471556E+01
 20
-1.38983363E+02
  0
VERTEX
  8
0
 62
4
 10
-5.51168233E+01
 20
-1.38870315E+02
  0
VERTEX
  8
0
 62
4
 10
-5.52169310E+01
 20
-1.38759717E+02
  0
VERTEX
  8
0
 62
4
 10
-5.53466941E+01
 20
-1.38652435E+02
  0
VERTEX
  8
0
 62
4
 10
-5.55050952E+01
 20
-1.38549310E+02
  0
VERTEX
  8
0
 62
4
 10
-5.56908927E+01
 20
-1.38451151E+02
  0
VERTEX
  8
0
 62
4
 10
-5.59026302E+01
 20
-1.38358727E+02
  0
VERTEX
  8
0
 62
4
 10
-5.61386478E+01
 20
-1.38272762E+02
  0
VERTEX
  8
0
 62
4
 10
-5.63970953E+01
 20
-1.38193931E+02
  0
VERTEX
  8
0
 62
4
 10
-5.66759469E+01
 20
-1.38122852E+02
  0
VERTEX
  8
0
 62
4
 10
-5.69730165E+01
 20
-1.38060081E+02
  0
VERTEX
  8
0
 62
4
 10
-5.72859756E+01
 20
-1.38006111E+02
  0
VERTEX
  8
0
 62
4
 10
-5.76123707E+01
 20
-1.37961365E+02
  0
VERTEX
  8
0
 62
4
 10
-5.79496434E+01
 20
-1.37926193E+02
  0
VERTEX
  8
0
 62
4
 10
-5.82951496E+01
 20
-1.37900871E+02
  0
VERTEX
  8
0
 62
4
 10
-5.86461811E+01
 20
-1.37885599E+02
  0
VERTEX
  8
0
 62
4
 10
-5.89999860E+01
 20
-1.37880494E+02
  0
VERTEX
  8
0
 62
4
 10
-5.93537909E+01
 20
-1.37885599E+02
  0
VERTEX
  8
0
 62
4
 10
-5.97048224E+01
 20
-1.37900871E+02
  0
VERTEX
  8
0
 62
4
 10
-6.00503286E+01
 20
-1.37926193E+02
  0
VERTEX
  8
0
 62
4
 10
-6.03876012E+01
 20
-1.37961365E+02
  0
VERTEX
  8
0
 62
4
 10
-6.07139964E+01
 20
-1.38006111E+02
  0
VERTEX
  8
0
 62
4
 10
-6.10269554E+01
 20
-1.38060081E+02
  0
VERTEX
  8
0
 62
4
 10
-6.13240251E+01
 20
-1.38122852E+02
  0
VERTEX
  8
0
 62
4
 10
-6.16028767E+01
 20
-1.38193931E+02
  0
VERTEX
  8
0
 62
4
 10
-6.18613242E+01
 20
-1.38272762E+02
  0
VERTEX
  8
0
 62
4
 10
-6.20973418E+01
 20
-1.38358727E+02
  0
VERTEX
  8
0
 62
4
 10
-6.23090792E+01
 20
-1.38451151E+02
  0
VERTEX
  8
0
 62
4
 10
-6.24948768E+01
 20
-1.38549310E+02
  0
VERTEX
  8
0
 62
4
 10
-6.26532779E+01
 20
-1.38652435E+02
  0
VERTEX
  8
0
 62
4
 10
-6.27830410E+01
 20
-1.38759717E+02
  0
VERTEX
  8
0
 62
4
 10
-6.28831487E+01
 20
-1.38870315E+02
  0
VERTEX
  8
0
 62
4
 10
-6.29528164E+01
 20
-1.38983363E+02
  0
VERTEX
  8
0
 62
4
 10
-6.29914979E+01
 20
-1.39097974E+02
  0
VERTEX
  8
0
 62
4
 10
-6.29988901E+01
 20
-1.39213249E+02
  0
VERTEX
  8
0
 62
4
 10
-6.29749349E+01
 20
-1.39328286E+02
  0
VERTEX
  8
0
 62
4
 10
-6.29198201E+01
 20
-1.39442182E+02
  0
VERTEX
  8
0
 62
4
 10
-6.28339778E+01
 20
-1.39554044E+02
  0
VERTEX
  8
0
 62
4
 10
-6.27180810E+01
 20
-1.39662996E+02
  0
VERTEX
  8
0
 62
4
 10
-6.25730380E+01
 20
-1.39768183E+02
  0
VERTEX
  8
0
 62
4
 10
-6.23999860E+01
 20
-1.39868782E+02
  0
SEQEND
  8
0
  0
POLYLINE
  8
0
 62
4
 66
1
  0
VERTEX
  8
0
 62
4
 10
-5.49999860E+01
 20
-1.38710007E+02
  0
VERTEX
  8
0
 62
4
 10
-5.50160888E+01
 20
-1.38593272E+02
  0
VERTEX
  8
0
 62
4
 10
-5.50642676E+01
 20
-1.38477477E+02
  0
VERTEX
  8
0
 62
4
 10
-5.51441346E+01
 20
-1.38363555E+02
  0
VERTEX
  8
0
 62
4
 10
-5.52550465E+01
 20
-1.38252421E+02
  0
VERTEX
  8
0
 62
4
 10
-5.53961105E+01
 20
-1.38144972E+02
  0
VERTEX
  8
0
 62
4
 10
-5.55661908E+01
 20
-1.38042072E+02
  0
VERTEX
  8
0
 62
4
 10
-5.57639180E+01
 20
-1.37944550E+02
  0
VERTEX
  8
0
 62
4
 10
-5.59877001E+01
 20
-1.37853191E+02
  0
VERTEX
  8
0
 62
4
 10
-5.62357354E+01
 20
-1.37768731E+02
  0
VERTEX
  8
0
 62
4
 10
-5.65060268E+01
 20
-1.37691849E+02
  0
VERTEX
  8
0
 62
4
 10
-5.67963981E+01
 20
-1.37623165E+02
  0
VERTEX
  8
0
 62
4
 10
-5.71045113E+01
 20
-1.37563232E+02
  0
VERTEX
  8
0
 62
4
 10
-5.74278859E+01
 20
-1.37512531E+02
  0
VERTEX
  8
0
 62
4
 10
-5.77639180E+01
 20
-1.37471472E+02
  0
VERTEX
  8
0
 62
4
 10
-5.81099023E+01
 20
-1.37440385E+02
  0
VERTEX
  8
0
 62
4
 10
-5.84630529E+01
 20
-1.37419520E+02
  0
VERTEX
  8
0
 62
4
 10
-5.88205267E+01
 20
-1.37409046E+02
  0
VERTEX
  8
0
 62
4
 10
-5.91794453E+01
 20
-1.37409046E+02
  0
VERTEX
  8
0
 62
4
 10
-5.95369191E+01
 20
-1.37419520E+02
  0
VERTEX
  8
0
 62
4
 10
-5.98900697E+01
 20
-1.37440385E+02
  0
VERTEX
  8
0
 62
4
 10
-6.02360540E+01
 20
-1.37471472E+02
  0
VERTEX
  8
0
 62
4
 10
-6.05720861E+01
 20
-1.37512531E+02
  0
VERTEX
  8
0
 62
4
 10
-6.08954606E+01
 20
-1.37563232E+02
  0
VERTEX
  8
0
 62
4
 10
-6.12035739E+01
 20
-1.37623165E+02
  0
VERTEX
  8
0
 62
4
 10
-6.14939452E+01
 20
-1.37691849E+02
  0
VERTEX
  8
0
 62
4
 10
-6.17642366E+01
 20
-1.37768731E+02
  0
VERTEX
  8
0
 62
4
 10
-6.20122719E+01
 20
-1.37853191E+02
  0
VERTEX
  8
0
 62
4
 10
-6.22360540E+01
 20
-1.37944550E+02
  0
VERTEX
  8
0
 62
4
 10
-6.24337812E+01
 20
-1.38042072E+02
  0
VERTEX
  8
0
 62
4
 10
-6.26038615E+01
 20
-1.38144972E+02
  0
VERTEX
  8
0
 62
4
 10
-6.27449255E+01
 20
-1.38252421E+02
  0
VERTEX
  8
0
 62
4
 10
-6.28558374E+01
 20
-1.38363554E+02
  0
VERTEX
  8
0
 62
4
 10
-6.29357044E+01
 20
-1.38477477E+02
  0
VERTEX
  8
0
 62
4
 10
-6.29838832E+01
 20
-1.38593272E+02
  0
VERTEX
  8
0
 62
4
 10
-6.29999860E+01
 20
-1.38710007E+02
  0
SEQEND
  8
0
  0
LINE
  8
0
  6
CENTER
 62
6
 10
-4.29999860E+01
 20
-1.18852229E+02
 11
-4.29999860E+01
 21
-1.30340731E+02
  0
LINE
  8
0
  6
CENTER
 62
6
 10
-4.87442369E+01
 20
-1.24596480E+02
 11
-3.72557350E+01
 21
-1.24596480E+02
  0
LINE
  8
0
 62
4
 10
-7.59999860E+01
 20
-1.10937056E+02
 11
-7.59999860E+01
 21
-1.23937056E+02
  0
ARC
  8
0
 62
4
 10
-7.54974834E+01
 20
-1.10939559E+02
 40
5.02508801E-01
 50
9.02853429E+01
 51
1.79714657E+02
  0
LINE
  8
0
 62
4
 10
-6.64999860E+01
 20
-1.10437056E+02
 11
-7.54999860E+01
 21
-1.10437056E+02
  0
LINE
  8
0
 62
4
 10
-8.59999860E+01
 20
-1.24800707E+02
 11
-8.09999860E+01
 21
-1.24800707E+02
  0
LINE
  8
0
 62
4
 10
-8.59999860E+01
 20
-1.22358946E+02
 11
-8.09999860E+01
 21
-1.22358946E+02
  0
LINE
  8
0
 62
4
 10
-8.59999860E+01
 20
-1.14988939E+02
 11
-8.09999860E+01
 21
-1.14988939E+02
  0
ARC
  8
0
 62
4
 10
-6.95024841E+01
 20
-1.39654267E+02
 40
1.49750400E+00
 50
1.79904421E+02
 51
2.70095579E+02
  0
LINE
  8
0
 62
4
 10
-6.94999860E+01
 20
-1.41151769E+02
 11
-6.23999860E+01
 21
-1.41151769E+02
  0
ARC
  8
0
 62
4
 10
-3.34974841E+01
 20
-1.39654271E+02
 40
1.49750021E+00
 50
2.69904276E+02
 51
9.57242462E-02
  0
POLYLINE
  8
0
 62
4
 66
1
  0
VERTEX
  8
0
 62
4
 10
-5.59999860E+01
 20
-1.15480547E+02
  0
VERTEX
  8
0
 62
4
 10
-5.60114019E+01
 20
-1.15233325E+02
  0
VERTEX
  8
0
 62
4
 10
-5.60455627E+01
 20
-1.14987984E+02
  0
VERTEX
  8
0
 62
4
 10
-5.61022085E+01
 20
-1.14746392E+02
  0
VERTEX
  8
0
 62
4
 10
-5.61809081E+01
 20
-1.14510388E+02
  0
VERTEX
  8
0
 62
4
 10
-5.62810626E+01
 20
-1.14281767E+02
  0
VERTEX
  8
0
 62
4
 10
-5.64019098E+01
 20
-1.14062269E+02
  0
VERTEX
  8
0
 62
4
 10
-5.65425299E+01
 20
-1.13853565E+02
  0
VERTEX
  8
0
 62
4
 10
-5.67018527E+01
 20
-1.13657244E+02
  0
VERTEX
  8
0
 62
4
 10
-5.68786657E+01
 20
-1.13474799E+02
  0
VERTEX
  8
0
 62
4
 10
-5.70716232E+01
 20
-1.13307619E+02
  0
VERTEX
  8
0
 62
4
 10
-5.72792567E+01
 20
-1.13156977E+02
  0
VERTEX
  8
0
 62
4
 10
-5.74999860E+01
 20
-1.13024018E+02
  0
VERTEX
  8
0
 62
4
 10
-5.77321312E+01
 20
-1.12909754E+02
  0
VERTEX
  8
0
 62
4
 10
-5.79739256E+01
 20
-1.12815057E+02
  0
VERTEX
  8
0
 62
4
 10
-5.82235289E+01
 20
-1.12740645E+02
  0
VERTEX
  8
0
 62
4
 10
-5.84790415E+01
 20
-1.12687085E+02
  0
VERTEX
  8
0
 62
4
 10
-5.87385188E+01
 20
-1.12654785E+02
  0
VERTEX
  8
0
 62
4
 10
-5.89999860E+01
 20
-1.12643991E+02
  0
VERTEX
  8
0
 62
4
 10
-5.92614532E+01
 20
-1.12654785E+02
  0
VERTEX
  8
0
 62
4
 10
-5.95209305E+01
 20
-1.12687085E+02
  0
VERTEX
  8
0
 62
4
 10
-5.97764431E+01
 20
-1.12740645E+02
  0
VERTEX
  8
0
 62
4
 10
-6.00260464E+01
 20
-1.12815057E+02
  0
VERTEX
  8
0
 62
4
 10
-6.02678408E+01
 20
-1.12909754E+02
  0
VERTEX
  8
0
 62
4
 10
-6.04999860E+01
 20
-1.13024018E+02
  0
VERTEX
  8
0
 62
4
 10
-6.07207153E+01
 20
-1.13156977E+02
  0
VERTEX
  8
0
 62
4
 10
-6.09283488E+01
 20
-1.13307619E+02
  0
VERTEX
  8
0
 62
4
 10
-6.11213063E+01
 20
-1.13474799E+02
  0
VERTEX
  8
0
 62
4
 10
-6.12981193E+01
 20
-1.13657244E+02
  0
VERTEX
  8
0
 62
4
 10
-6.14574421E+01
 20
-1.13853565E+02
  0
VERTEX
  8
0
 62
4
 10
-6.15980622E+01
 20
-1.14062269E+02
  0
VERTEX
  8
0
 62
4
 10
-6.17189094E+01
 20
-1.14281767E+02
  0
VERTEX
  8
0
 62
4
 10
-6.18190639E+01
 20
-1.14510388E+02
  0
VERTEX
  8
0
 62
4
 10
-6.18977635E+01
 20
-1.14746392E+02
  0
VERTEX
  8
0
 62
4
 10
-6.19544093E+01
 20
-1.14987984E+02
  0
VERTEX
  8
0
 62
4
 10
-6.19885701E+01
 20
-1.15233325E+02
  0
VERTEX
  8
0
 62
4
 10
-6.19999860E+01
 20
-1.15480547E+02
  0
VERTEX
  8
0
 62
4
 10
-6.19885701E+01
 20
-1.15727769E+02
  0
VERTEX
  8
0
 62
4
 10
-6.19544093E+01
 20
-1.15973110E+02
  0
VERTEX
  8
0
 62
4
 10
-6.18977635E+01
 20
-1.16214702E+02
  0
VERTEX
  8
0
 62
4
 10
-6.18190639E+01
 20
-1.16450706E+02
  0
VERTEX
  8
0
 62
4
 10
-6.17189094E+01
 20
-1.16679327E+02
  0
VERTEX
  8
0
 62
4
 10
-6.15980622E+01
 20
-1.16898825E+02
  0
VERTEX
  8
0
 62
4
 10
-6.14574421E+01
 20
-1.17107529E+02
  0
VERTEX
  8
0
 62
4
 10
-6.12981193E+01
 20
-1.17303850E+02
  0
VERTEX
  8
0
 62
4
 10
-6.11213063E+01
 20
-1.17486295E+02
  0
VERTEX
  8
0
 62
4
 10
-6.09283488E+01
 20
-1.17653475E+02
  0
VERTEX
  8
0
 62
4
 10
-6.07207153E+01
 20
-1.17804117E+02
  0
VERTEX
  8
0
 62
4
 10
-6.04999860E+01
 20
-1.17937076E+02
  0
VERTEX
  8
0
 62
4
 10
-6.02678408E+01
 20
-1.18051340E+02
  0
VERTEX
  8
0
 62
4
 10
-6.00260464E+01
 20
-1.18146037E+02
  0
VERTEX
  8
0
 62
4
 10
-5.97764431E+01
 20
-1.18220449E+02
  0
VERTEX
  8
0
 62
4
 10
-5.95209305E+01
 20
-1.18274009E+02
  0
VERTEX
  8
0
 62
4
 10
-5.92614532E+01
 20
-1.18306309E+02
  0
VERTEX
  8
0
 62
4
 10
-5.89999860E+01
 20
-1.18317103E+02
  0
VERTEX
  8
0
 62
4
 10
-5.87385188E+01
 20
-1.18306309E+02
  0
VERTEX
  8
0
 62
4
 10
-5.84790415E+01
 20
-1.18274009E+02
  0
VERTEX
  8
0
 62
4
 10
-5.82235289E+01
 20
-1.18220449E+02
  0
VERTEX
  8
0
 62
4
 10
-5.79739256E+01
 20
-1.18146037E+02
  0
VERTEX
  8
0
 62
4
 10
-5.77321312E+01
 20
-1.18051340E+02
  0
VERTEX
  8
0
 62
4
 10
-5.74999860E+01
 20
-1.17937076E+02
  0
VERTEX
  8
0
 62
4
 10
-5.72792567E+01
 20
-1.17804117E+02
  0
VERTEX
  8
0
 62
4
 10
-5.70716232E+01
 20
-1.17653475E+02
  0
VERTEX
  8
0
 62
4
 10
-5.68786657E+01
 20
-1.17486295E+02
  0
VERTEX
  8
0
 62
4
 10
-5.67018527E+01
 20
-1.17303850E+02
  0
VERTEX
  8
0
 62
4
 10
-5.65425299E+01
 20
-1.17107529E+02
  0
VERTEX
  8
0
 62
4
 10
-5.64019098E+01
 20
-1.16898825E+02
  0
VERTEX
  8
0
 62
4
 10
-5.62810626E+01
 20
-1.16679327E+02
  0
VERTEX
  8
0
 62
4
 10
-5.61809081E+01
 20
-1.16450706E+02
  0
VERTEX
  8
0
 62
4
 10
-5.61022085E+01
 20
-1.16214702E+02
  0
VERTEX
  8
0
 62
4
 10
-5.60455627E+01
 20
-1.15973110E+02
  0
VERTEX
  8
0
 62
4
 10
-5.60114019E+01
 20
-1.15727769E+02
  0
VERTEX
  8
0
 62
4
 10
-5.59999860E+01
 20
-1.15480547E+02
  0
SEQEND
  8
0
  0
LINE
  8
0
 62
4
 10
-5.14999860E+01
 20
-1.14637324E+02
 11
-4.94999860E+01
 21
-1.14637324E+02
  0
LINE
  8
0
 62
4
 10
-6.84999860E+01
 20
-1.32602177E+02
 11
-4.94999860E+01
 21
-1.32602177E+02
  0
LINE
  8
0
 62
4
 10
-6.64999860E+01
 20
-1.08389158E+02
 11
-5.14999860E+01
 21
-1.08389158E+02
  0
ARC
  8
0
 62
4
 10
-7.55024761E+01
 20
-1.23939546E+02
 40
4.97516125E-01
 50
1.79713229E+02
 51
2.70286771E+02
  0
ARC
  8
0
 62
4
 10
-3.35024921E+01
 20
-1.15756028E+02
 40
1.50250815E+00
 50
9.55645858E-02
 51
8.99044354E+01
  0
LINE
  8
0
 62
4
 10
-6.94999860E+01
 20
-1.36268246E+02
 11
-3.34999860E+01
 21
-1.36268246E+02
  0
LINE
  8
0
 62
4
 10
-5.14999860E+01
 20
-1.14253522E+02
 11
-3.34999860E+01
 21
-1.14253522E+02
  0
LINE
  8
0
 62
4
 10
-7.09999860E+01
 20
-1.24437056E+02
 11
-7.09999860E+01
 21
-1.39500000E+02
  0
LINE
  8
0
 62
4
 10
-4.94999860E+01
 20
-1.14637324E+02
 11
-4.94999860E+01
 21
-1.33904450E+02
  0
LINE
  8
0
 62
4
 10
-6.84999860E+01
 20
-1.33904450E+02
 11
-6.84999860E+01
 21
-1.24437056E+02
  0
LINE
  8
0
 62
4
 10
-3.19999860E+01
 20
-1.15753522E+02
 11
-3.19999860E+01
 21
-1.39651769E+02
  0
LINE
  8
0
 62
4
 10
-8.59999860E+01
 20
-1.10067205E+02
 11
-8.09999860E+01
 21
-1.10067205E+02
  0
LINE
  8
0
 62
4
 10
-6.64999860E+01
 20
-1.22571936E+02
 11
-5.14999860E+01
 21
-1.22571936E+02
  0
LINE
  8
0
 62
4
 10
-7.94999860E+01
 20
-1.23187056E+02
 11
-7.59999860E+01
 21
-1.23187056E+02
  0
LINE
  8
0
 62
4
 10
-7.94999860E+01
 20
-1.11687056E+02
 11
-7.59999860E+01
 21
-1.11687056E+02
  0
LINE
  8
0
 62
4
 10
-7.94999860E+01
 20
-1.11187056E+02
 11
-7.94999860E+01
 21
-1.23687056E+02
  0
LINE
  8
0
 62
4
 10
-8.09999860E+01
 20
-1.23687056E+02
 11
-7.59999860E+01
 21
-1.23687056E+02
  0
LINE
  8
0
 62
4
 10
-8.09999860E+01
 20
-1.11187056E+02
 11
-7.59999860E+01
 21
-1.11187056E+02
  0
LINE
  8
0
 62
4
 10
-8.09999860E+01
 20
-1.10067205E+02
 11
-8.09999860E+01
 21
-1.24800707E+02
  0
LINE
  8
0
 62
4
 10
-8.59999860E+01
 20
-1.24800707E+02
 11
-8.59999860E+01
 21
-1.10067205E+02
  0
LINE
  8
0
 62
4
 10
-7.54999860E+01
 20
-1.24437056E+02
 11
-6.64999860E+01
 21
-1.24437056E+02
  0
LINE
  8
0
  6
CENTER
 62
6
 10
-5.89999860E+01
 20
-1.00612871E+02
 11
-5.89999860E+01
 21
-1.50599969E+02
  0
LINE
  8
0
 62
4
 10
-6.23999860E+01
 20
-1.41151769E+02
 11
-6.23999860E+01
 21
-1.39182767E+02
  0
LINE
  8
0
 62
4
 10
-5.55999860E+01
 20
-1.39182767E+02
 11
-5.55999860E+01
 21
-1.41157748E+02
  0
LINE
  8
0
 62
6
 10
-6.14999860E+01
 20
-1.00752376E+02
 11
-6.14999860E+01
 21
-1.01922376E+02
  0
LINE
  8
0
 62
4
 10
-6.49999860E+01
 20
-1.01752376E+02
 11
-6.47399860E+01
 21
-1.00752376E+02
  0
LINE
  8
0
 62
4
 10
-6.09999860E+01
 20
-1.01752376E+02
 11
-6.12699860E+01
 21
-1.00752376E+02
  0
LINE
  8
0
 62
4
 10
-6.12699860E+01
 20
-1.00752376E+02
 11
-6.47399860E+01
 21
-1.00752376E+02
  0
LINE
  8
0
 62
4
 10
-6.49999860E+01
 20
-1.01752376E+02
 11
-6.49999860E+01
 21
-1.01922376E+02
  0
LINE
  8
0
 62
4
 10
-6.09999860E+01
 20
-1.01752376E+02
 11
-6.09999860E+01
 21
-1.01922376E+02
  0
LINE
  8
0
 62
6
 10
-6.44999860E+01
 20
-1.00752376E+02
 11
-6.44999860E+01
 21
-1.01922376E+02
  0
LINE
  8
0
  6
CENTER
 62
6
 10
-6.29999860E+01
 20
-9.89223758E+01
 11
-6.29999860E+01
 21
-1.09422376E+02
  0
LINE
  8
0
 62
4
 10
-5.14999860E+01
 20
-1.01922376E+02
 11
-6.64999860E+01
 21
-1.01922376E+02
  0
LINE
  8
0
 62
4
 10
-5.14999860E+01
 20
-1.01922376E+02
 11
-5.14999860E+01
 21
-1.30711140E+02
  0
LINE
  8
0
 62
4
 10
-6.64999860E+01
 20
-1.01922376E+02
 11
-6.64999860E+01
 21
-1.30711140E+02
  0
LINE
  8
0
 62
6
 10
-5.64999860E+01
 20
-1.00752376E+02
 11
-5.64999860E+01
 21
-1.01922376E+02
  0
LINE
  8
0
 62
6
 10
-5.34999860E+01
 20
-1.00752376E+02
 11
-5.34999860E+01
 21
-1.01922376E+02
  0
LINE
  8
0
 62
4
 10
-5.69999860E+01
 20
-1.01752376E+02
 11
-5.67399860E+01
 21
-1.00752376E+02
  0
LINE
  8
0
 62
4
 10
-5.29999860E+01
 20
-1.01752376E+02
 11
-5.32699860E+01
 21
-1.00752376E+02
  0
LINE
  8
0
 62
4
 10
-5.32699860E+01
 20
-1.00752376E+02
 11
-5.67399860E+01
 21
-1.00752376E+02
  0
LINE
  8
0
 62
4
 10
-5.69999860E+01
 20
-1.01752376E+02
 11
-5.69999860E+01
 21
-1.01922376E+02
  0
LINE
  8
0
 62
4
 10
-5.29999860E+01
 20
-1.01752376E+02
 11
-5.29999860E+01
 21
-1.01922376E+02
  0
LINE
  8
0
  6
CENTER
 62
6
 10
-5.49999860E+01
 20
-9.89223758E+01
 11
-5.49999860E+01
 21
-1.09422376E+02
  0
LINE
  8
0
 62
4
 10
2.11860084E+02
 20
-2.66261071E+02
 11
2.11531488E+02
 21
-2.67054287E+02
  0
LINE
  8
0
 62
4
 10
2.18140084E+02
 20
-2.66261071E+02
 11
2.18500084E+02
 21
-2.67206589E+02
  0
POLYLINE
  8
0
 62
4
 66
1
  0
VERTEX
  8
0
 62
4
 10
2.11531488E+02
 20
-2.67054286E+02
  0
VERTEX
  8
0
 62
4
 10
2.11503711E+02
 20
-2.67154727E+02
  0
VERTEX
  8
0
 62
4
 10
2.11503320E+02
 20
-2.67255574E+02
  0
VERTEX
  8
0
 62
4
 10
2.11530317E+02
 20
-2.67356038E+02
  0
VERTEX
  8
0
 62
4
 10
2.11584492E+02
 20
-2.67455331E+02
  0
VERTEX
  8
0
 62
4
 10
2.11665420E+02
 20
-2.67552675E+02
  0
VERTEX
  8
0
 62
4
 10
2.11772468E+02
 20
-2.67647309E+02
  0
VERTEX
  8
0
 62
4
 10
2.11904796E+02
 20
-2.67738491E+02
  0
VERTEX
  8
0
 62
4
 10
2.12061368E+02
 20
-2.67825507E+02
  0
VERTEX
  8
0
 62
4
 10
2.12240959E+02
 20
-2.67907675E+02
  0
VERTEX
  8
0
 62
4
 10
2.12442160E+02
 20
-2.67984351E+02
  0
VERTEX
  8
0
 62
4
 10
2.12663397E+02
 20
-2.68054936E+02
  0
VERTEX
  8
0
 62
4
 10
2.12902937E+02
 20
-2.68118876E+02
  0
VERTEX
  8
0
 62
4
 10
2.13158902E+02
 20
-2.68175670E+02
  0
VERTEX
  8
0
 62
4
 10
2.13429289E+02
 20
-2.68224874E+02
  0
VERTEX
  8
0
 62
4
 10
2.13711980E+02
 20
-2.68266101E+02
  0
VERTEX
  8
0
 62
4
 10
2.14004760E+02
 20
-2.68299030E+02
  0
VERTEX
  8
0
 62
4
 10
2.14305335E+02
 20
-2.68323403E+02
  0
VERTEX
  8
0
 62
4
 10
2.14611353E+02
 20
-2.68339028E+02
  0
VERTEX
  8
0
 62
4
 10
2.14920415E+02
 20
-2.68345782E+02
  0
VERTEX
  8
0
 62
4
 10
2.15230101E+02
 20
-2.68343614E+02
  0
VERTEX
  8
0
 62
4
 10
2.15537986E+02
 20
-2.68332540E+02
  0
VERTEX
  8
0
 62
4
 10
2.15841657E+02
 20
-2.68312647E+02
  0
VERTEX
  8
0
 62
4
 10
2.16138737E+02
 20
-2.68284090E+02
  0
VERTEX
  8
0
 62
4
 10
2.16426898E+02
 20
-2.68247094E+02
  0
VERTEX
  8
0
 62
4
 10
2.16703883E+02
 20
-2.68201948E+02
  0
VERTEX
  8
0
 62
4
 10
2.16967523E+02
 20
-2.68149005E+02
  0
VERTEX
  8
0
 62
4
 10
2.17215753E+02
 20
-2.68088681E+02
  0
VERTEX
  8
0
 62
4
 10
2.17446628E+02
 20
-2.68021448E+02
  0
VERTEX
  8
0
 62
4
 10
2.17658341E+02
 20
-2.67947832E+02
  0
VERTEX
  8
0
 62
4
 10
2.17849232E+02
 20
-2.67868410E+02
  0
VERTEX
  8
0
 62
4
 10
2.18017806E+02
 20
-2.67783805E+02
  0
VERTEX
  8
0
 62
4
 10
2.18162744E+02
 20
-2.67694678E+02
  0
VERTEX
  8
0
 62
4
 10
2.18282910E+02
 20
-2.67601729E+02
  0
VERTEX
  8
0
 62
4
 10
2.18377363E+02
 20
-2.67505684E+02
  0
VERTEX
  8
0
 62
4
 10
2.18445363E+02
 20
-2.67407297E+02
  0
VERTEX
  8
0
 62
4
 10
2.18486377E+02
 20
-2.67307338E+02
  0
VERTEX
  8
0
 62
4
 10
2.18500084E+02
 20
-2.67206589E+02
  0
SEQEND
  8
0
  0
POLYLINE
  8
0
 62
4
 66
1
  0
VERTEX
  8
0
 62
4
 10
2.18140084E+02
 20
-2.66261071E+02
  0
VERTEX
  8
0
 62
4
 10
2.18128135E+02
 20
-2.66171973E+02
  0
VERTEX
  8
0
 62
4
 10
2.18092380E+02
 20
-2.66083553E+02
  0
VERTEX
  8
0
 62
4
 10
2.18033091E+02
 20
-2.65996484E+02
  0
VERTEX
  8
0
 62
4
 10
2.17950719E+02
 20
-2.65911429E+02
  0
VERTEX
  8
0
 62
4
 10
2.17845890E+02
 20
-2.65829035E+02
  0
VERTEX
  8
0
 62
4
 10
2.17719404E+02
 20
-2.65749929E+02
  0
VERTEX
  8
0
 62
4
 10
2.17572221E+02
 20
-2.65674713E+02
  0
VERTEX
  8
0
 62
4
 10
2.17405464E+02
 20
-2.65603960E+02
  0
VERTEX
  8
0
 62
4
 10
2.17220399E+02
 20
-2.65538207E+02
  0
VERTEX
  8
0
 62
4
 10
2.17018437E+02
 20
-2.65477956E+02
  0
VERTEX
  8
0
 62
4
 10
2.16801114E+02
 20
-2.65423665E+02
  0
VERTEX
  8
0
 62
4
 10
2.16570084E+02
 20
-2.65375747E+02
  0
VERTEX
  8
0
 62
4
 10
2.16327105E+02
 20
-2.65334567E+02
  0
VERTEX
  8
0
 62
4
 10
2.16074027E+02
 20
-2.65300438E+02
  0
VERTEX
  8
0
 62
4
 10
2.15812776E+02
 20
-2.65273620E+02
  0
VERTEX
  8
0
 62
4
 10
2.15545339E+02
 20
-2.65254318E+02
  0
VERTEX
  8
0
 62
4
 10
2.15273753E+02
 20
-2.65242677E+02
  0
VERTEX
  8
0
 62
4
 10
2.15000084E+02
 20
-2.65238787E+02
  0
VERTEX
  8
0
 62
4
 10
2.14726415E+02
 20
-2.65242677E+02
  0
VERTEX
  8
0
 62
4
 10
2.14454829E+02
 20
-2.65254318E+02
  0
VERTEX
  8
0
 62
4
 10
2.14187392E+02
 20
-2.65273620E+02
  0
VERTEX
  8
0
 62
4
 10
2.13926141E+02
 20
-2.65300438E+02
  0
VERTEX
  8
0
 62
4
 10
2.13673063E+02
 20
-2.65334567E+02
  0
VERTEX
  8
0
 62
4
 10
2.13430084E+02
 20
-2.65375747E+02
  0
VERTEX
  8
0
 62
4
 10
2.13199054E+02
 20
-2.65423665E+02
  0
VERTEX
  8
0
 62
4
 10
2.12981731E+02
 20
-2.65477956E+02
  0
VERTEX
  8
0
 62
4
 10
2.12779769E+02
 20
-2.65538207E+02
  0
VERTEX
  8
0
 62
4
 10
2.12594704E+02
 20
-2.65603960E+02
  0
VERTEX
  8
0
 62
4
 10
2.12427947E+02
 20
-2.65674713E+02
  0
VERTEX
  8
0
 62
4
 10
2.12280764E+02
 20
-2.65749929E+02
  0
VERTEX
  8
0
 62
4
 10
2.12154278E+02
 20
-2.65829035E+02
  0
VERTEX
  8
0
 62
4
 10
2.12049449E+02
 20
-2.65911429E+02
  0
VERTEX
  8
0
 62
4
 10
2.11967077E+02
 20
-2.65996484E+02
  0
VERTEX
  8
0
 62
4
 10
2.11907788E+02
 20
-2.66083553E+02
  0
VERTEX
  8
0
 62
4
 10
2.11872033E+02
 20
-2.66171973E+02
  0
VERTEX
  8
0
 62
4
 10
2.11860084E+02
 20
-2.66261071E+02
  0
VERTEX
  8
0
 62
4
 10
2.11872033E+02
 20
-2.66350169E+02
  0
VERTEX
  8
0
 62
4
 10
2.11907788E+02
 20
-2.66438589E+02
  0
VERTEX
  8
0
 62
4
 10
2.11967077E+02
 20
-2.66525658E+02
  0
VERTEX
  8
0
 62
4
 10
2.12049449E+02
 20
-2.66610713E+02
  0
VERTEX
  8
0
 62
4
 10
2.12154278E+02
 20
-2.66693107E+02
  0
VERTEX
  8
0
 62
4
 10
2.12280764E+02
 20
-2.66772213E+02
  0
VERTEX
  8
0
 62
4
 10
2.12427947E+02
 20
-2.66847429E+02
  0
VERTEX
  8
0
 62
4
 10
2.12594704E+02
 20
-2.66918182E+02
  0
VERTEX
  8
0
 62
4
 10
2.12779769E+02
 20
-2.66983935E+02
  0
VERTEX
  8
0
 62
4
 10
2.12981731E+02
 20
-2.67044186E+02
  0
VERTEX
  8
0
 62
4
 10
2.13199054E+02
 20
-2.67098477E+02
  0
VERTEX
  8
0
 62
4
 10
2.13430084E+02
 20
-2.67146395E+02
  0
VERTEX
  8
0
 62
4
 10
2.13673063E+02
 20
-2.67187575E+02
  0
VERTEX
  8
0
 62
4
 10
2.13926141E+02
 20
-2.67221704E+02
  0
VERTEX
  8
0
 62
4
 10
2.14187392E+02
 20
-2.67248522E+02
  0
VERTEX
  8
0
 62
4
 10
2.14454829E+02
 20
-2.67267824E+02
  0
VERTEX
  8
0
 62
4
 10
2.14726415E+02
 20
-2.67279465E+02
  0
VERTEX
  8
0
 62
4
 10
2.15000084E+02
 20
-2.67283355E+02
  0
VERTEX
  8
0
 62
4
 10
2.15273753E+02
 20
-2.67279465E+02
  0
VERTEX
  8
0
 62
4
 10
2.15545339E+02
 20
-2.67267824E+02
  0
VERTEX
  8
0
 62
4
 10
2.15812776E+02
 20
-2.67248522E+02
  0
VERTEX
  8
0
 62
4
 10
2.16074027E+02
 20
-2.67221704E+02
  0
VERTEX
  8
0
 62
4
 10
2.16327105E+02
 20
-2.67187575E+02
  0
VERTEX
  8
0
 62
4
 10
2.16570084E+02
 20
-2.67146395E+02
  0
VERTEX
  8
0
 62
4
 10
2.16801114E+02
 20
-2.67098477E+02
  0
VERTEX
  8
0
 62
4
 10
2.17018437E+02
 20
-2.67044186E+02
  0
VERTEX
  8
0
 62
4
 10
2.17220399E+02
 20
-2.66983935E+02
  0
VERTEX
  8
0
 62
4
 10
2.17405464E+02
 20
-2.66918182E+02
  0
VERTEX
  8
0
 62
4
 10
2.17572221E+02
 20
-2.66847429E+02
  0
VERTEX
  8
0
 62
4
 10
2.17719404E+02
 20
-2.66772213E+02
  0
VERTEX
  8
0
 62
4
 10
2.17845890E+02
 20
-2.66693107E+02
  0
VERTEX
  8
0
 62
4
 10
2.17950719E+02
 20
-2.66610713E+02
  0
VERTEX
  8
0
 62
4
 10
2.18033091E+02
 20
-2.66525658E+02
  0
VERTEX
  8
0
 62
4
 10
2.18092380E+02
 20
-2.66438589E+02
  0
VERTEX
  8
0
 62
4
 10
2.18128135E+02
 20
-2.66350169E+02
  0
VERTEX
  8
0
 62
4
 10
2.18140084E+02
 20
-2.66261071E+02
  0
SEQEND
  8
0
  0
LINE
  8
0
  6
CENTER
 62
6
 10
2.15000084E+02
 20
-2.63601546E+02
 11
2.15000084E+02
 21
-2.66261071E+02
  0
LINE
  8
0
 62
4
 10
2.41500084E+02
 20
-2.68702750E+02
 11
2.41500084E+02
 21
-2.65075965E+02
  0
LINE
  8
0
 62
4
 10
2.23500084E+02
 20
-2.63976132E+02
 11
2.05500084E+02
 21
-2.63976132E+02
  0
LINE
  8
0
 62
4
 10
2.05500084E+02
 20
-2.68702750E+02
 11
2.05500084E+02
 21
-2.65075965E+02
  0
ARC
  8
0
 62
4
 10
2.41502571E+02
 20
-2.65473645E+02
 40
1.49751542E+00
 50
3.59904859E+02
 51
9.00951404E+01
  0
LINE
  8
0
 62
4
 10
2.41500084E+02
 20
-2.63976132E+02
 11
2.38500084E+02
 21
-2.63976132E+02
  0
ARC
  8
0
 62
4
 10
2.05497597E+02
 20
-2.65473645E+02
 40
1.49751542E+00
 50
8.99048594E+01
 51
1.80095141E+02
  0
POLYLINE
  8
0
 62
6
 66
1
  0
VERTEX
  8
0
 62
6
 10
2.36500084E+02
 20
-2.98024577E+02
  0
VERTEX
  8
0
 62
6
 10
2.36494376E+02
 20
-2.97900966E+02
  0
VERTEX
  8
0
 62
6
 10
2.36477296E+02
 20
-2.97778296E+02
  0
VERTEX
  8
0
 62
6
 10
2.36448973E+02
 20
-2.97657500E+02
  0
VERTEX
  8
0
 62
6
 10
2.36409623E+02
 20
-2.97539497E+02
  0
VERTEX
  8
0
 62
6
 10
2.36359546E+02
 20
-2.97425187E+02
  0
VERTEX
  8
0
 62
6
 10
2.36299122E+02
 20
-2.97315438E+02
  0
VERTEX
  8
0
 62
6
 10
2.36228812E+02
 20
-2.97211086E+02
  0
VERTEX
  8
0
 62
6
 10
2.36149151E+02
 20
-2.97112926E+02
  0
VERTEX
  8
0
 62
6
 10
2.36060744E+02
 20
-2.97021703E+02
  0
VERTEX
  8
0
 62
6
 10
2.35964265E+02
 20
-2.96938113E+02
  0
VERTEX
  8
0
 62
6
 10
2.35860449E+02
 20
-2.96862792E+02
  0
VERTEX
  8
0
 62
6
 10
2.35750084E+02
 20
-2.96796312E+02
  0
VERTEX
  8
0
 62
6
 10
2.35634011E+02
 20
-2.96739181E+02
  0
VERTEX
  8
0
 62
6
 10
2.35513114E+02
 20
-2.96691832E+02
  0
VERTEX
  8
0
 62
6
 10
2.35388313E+02
 20
-2.96654626E+02
  0
VERTEX
  8
0
 62
6
 10
2.35260556E+02
 20
-2.96627846E+02
  0
VERTEX
  8
0
 62
6
 10
2.35130818E+02
 20
-2.96611696E+02
  0
VERTEX
  8
0
 62
6
 10
2.35000084E+02
 20
-2.96606299E+02
  0
VERTEX
  8
0
 62
6
 10
2.34869350E+02
 20
-2.96611696E+02
  0
VERTEX
  8
0
 62
6
 10
2.34739612E+02
 20
-2.96627846E+02
  0
VERTEX
  8
0
 62
6
 10
2.34611855E+02
 20
-2.96654626E+02
  0
VERTEX
  8
0
 62
6
 10
2.34487054E+02
 20
-2.96691832E+02
  0
VERTEX
  8
0
 62
6
 10
2.34366157E+02
 20
-2.96739181E+02
  0
VERTEX
  8
0
 62
6
 10
2.34250084E+02
 20
-2.96796312E+02
  0
VERTEX
  8
0
 62
6
 10
2.34139719E+02
 20
-2.96862792E+02
  0
VERTEX
  8
0
 62
6
 10
2.34035903E+02
 20
-2.96938113E+02
  0
VERTEX
  8
0
 62
6
 10
2.33939424E+02
 20
-2.97021703E+02
  0
VERTEX
  8
0
 62
6
 10
2.33851017E+02
 20
-2.97112926E+02
  0
VERTEX
  8
0
 62
6
 10
2.33771356E+02
 20
-2.97211086E+02
  0
VERTEX
  8
0
 62
6
 10
2.33701046E+02
 20
-2.97315438E+02
  0
VERTEX
  8
0
 62
6
 10
2.33640622E+02
 20
-2.97425187E+02
  0
VERTEX
  8
0
 62
6
 10
2.33590545E+02
 20
-2.97539497E+02
  0
VERTEX
  8
0
 62
6
 10
2.33551195E+02
 20
-2.97657500E+02
  0
VERTEX
  8
0
 62
6
 10
2.33522872E+02
 20
-2.97778296E+02
  0
VERTEX
  8
0
 62
6
 10
2.33505792E+02
 20
-2.97900966E+02
  0
VERTEX
  8
0
 62
6
 10
2.33500084E+02
 20
-2.98024577E+02
  0
VERTEX
  8
0
 62
6
 10
2.33505792E+02
 20
-2.98148188E+02
  0
VERTEX
  8
0
 62
6
 10
2.33522872E+02
 20
-2.98270858E+02
  0
VERTEX
  8
0
 62
6
 10
2.33551195E+02
 20
-2.98391654E+02
  0
VERTEX
  8
0
 62
6
 10
2.33590545E+02
 20
-2.98509657E+02
  0
VERTEX
  8
0
 62
6
 10
2.33640622E+02
 20
-2.98623967E+02
  0
VERTEX
  8
0
 62
6
 10
2.33701046E+02
 20
-2.98733716E+02
  0
VERTEX
  8
0
 62
6
 10
2.33771356E+02
 20
-2.98838068E+02
  0
VERTEX
  8
0
 62
6
 10
2.33851017E+02
 20
-2.98936228E+02
  0
VERTEX
  8
0
 62
6
 10
2.33939424E+02
 20
-2.99027451E+02
  0
VERTEX
  8
0
 62
6
 10
2.34035903E+02
 20
-2.99111041E+02
  0
VERTEX
  8
0
 62
6
 10
2.34139719E+02
 20
-2.99186362E+02
  0
VERTEX
  8
0
 62
6
 10
2.34250084E+02
 20
-2.99252842E+02
  0
VERTEX
  8
0
 62
6
 10
2.34366157E+02
 20
-2.99309973E+02
  0
VERTEX
  8
0
 62
6
 10
2.34487054E+02
 20
-2.99357322E+02
  0
VERTEX
  8
0
 62
6
 10
2.34611855E+02
 20
-2.99394528E+02
  0
VERTEX
  8
0
 62
6
 10
2.34739612E+02
 20
-2.99421308E+02
  0
VERTEX
  8
0
 62
6
 10
2.34869350E+02
 20
-2.99437458E+02
  0
VERTEX
  8
0
 62
6
 10
2.35000084E+02
 20
-2.99442855E+02
  0
VERTEX
  8
0
 62
6
 10
2.35130818E+02
 20
-2.99437458E+02
  0
VERTEX
  8
0
 62
6
 10
2.35260556E+02
 20
-2.99421308E+02
  0
VERTEX
  8
0
 62
6
 10
2.35388313E+02
 20
-2.99394528E+02
  0
VERTEX
  8
0
 62
6
 10
2.35513114E+02
 20
-2.99357322E+02
  0
VERTEX
  8
0
 62
6
 10
2.35634011E+02
 20
-2.99309973E+02
  0
VERTEX
  8
0
 62
6
 10
2.35750084E+02
 20
-2.99252842E+02
  0
VERTEX
  8
0
 62
6
 10
2.35860449E+02
 20
-2.99186362E+02
  0
VERTEX
  8
0
 62
6
 10
2.35964265E+02
 20
-2.99111041E+02
  0
VERTEX
  8
0
 62
6
 10
2.36060744E+02
 20
-2.99027451E+02
  0
VERTEX
  8
0
 62
6
 10
2.36149151E+02
 20
-2.98936228E+02
  0
VERTEX
  8
0
 62
6
 10
2.36228812E+02
 20
-2.98838068E+02
  0
VERTEX
  8
0
 62
6
 10
2.36299122E+02
 20
-2.98733716E+02
  0
VERTEX
  8
0
 62
6
 10
2.36359546E+02
 20
-2.98623967E+02
  0
VERTEX
  8
0
 62
6
 10
2.36409623E+02
 20
-2.98509657E+02
  0
VERTEX
  8
0
 62
6
 10
2.36448973E+02
 20
-2.98391654E+02
  0
VERTEX
  8
0
 62
6
 10
2.36477296E+02
 20
-2.98270858E+02
  0
VERTEX
  8
0
 62
6
 10
2.36494376E+02
 20
-2.98148188E+02
  0
VERTEX
  8
0
 62
6
 10
2.36500084E+02
 20
-2.98024577E+02
  0
SEQEND
  8
0
  0
POLYLINE
  8
0
 62
4
 66
1
  0
VERTEX
  8
0
 62
4
 10
2.36735084E+02
 20
-2.98024577E+02
  0
VERTEX
  8
0
 62
4
 10
2.36728482E+02
 20
-2.97882012E+02
  0
VERTEX
  8
0
 62
4
 10
2.36708725E+02
 20
-2.97740532E+02
  0
VERTEX
  8
0
 62
4
 10
2.36675965E+02
 20
-2.97601214E+02
  0
VERTEX
  8
0
 62
4
 10
2.36630451E+02
 20
-2.97465119E+02
  0
VERTEX
  8
0
 62
4
 10
2.36572528E+02
 20
-2.97333280E+02
  0
VERTEX
  8
0
 62
4
 10
2.36502638E+02
 20
-2.97206703E+02
  0
VERTEX
  8
0
 62
4
 10
2.36421313E+02
 20
-2.97086351E+02
  0
VERTEX
  8
0
 62
4
 10
2.36329171E+02
 20
-2.96973139E+02
  0
VERTEX
  8
0
 62
4
 10
2.36226914E+02
 20
-2.96867929E+02
  0
VERTEX
  8
0
 62
4
 10
2.36115321E+02
 20
-2.96771522E+02
  0
VERTEX
  8
0
 62
4
 10
2.35995239E+02
 20
-2.96684651E+02
  0
VERTEX
  8
0
 62
4
 10
2.35867584E+02
 20
-2.96607978E+02
  0
VERTEX
  8
0
 62
4
 10
2.35733327E+02
 20
-2.96542087E+02
  0
VERTEX
  8
0
 62
4
 10
2.35593489E+02
 20
-2.96487477E+02
  0
VERTEX
  8
0
 62
4
 10
2.35449135E+02
 20
-2.96444567E+02
  0
VERTEX
  8
0
 62
4
 10
2.35301364E+02
 20
-2.96413681E+02
  0
VERTEX
  8
0
 62
4
 10
2.35151299E+02
 20
-2.96395054E+02
  0
VERTEX
  8
0
 62
4
 10
2.35000084E+02
 20
-2.96388830E+02
  0
VERTEX
  8
0
 62
4
 10
2.34848869E+02
 20
-2.96395054E+02
  0
VERTEX
  8
0
 62
4
 10
2.34698804E+02
 20
-2.96413681E+02
  0
VERTEX
  8
0
 62
4
 10
2.34551033E+02
 20
-2.96444567E+02
  0
VERTEX
  8
0
 62
4
 10
2.34406679E+02
 20
-2.96487477E+02
  0
VERTEX
  8
0
 62
4
 10
2.34266841E+02
 20
-2.96542087E+02
  0
VERTEX
  8
0
 62
4
 10
2.34132584E+02
 20
-2.96607978E+02
  0
VERTEX
  8
0
 62
4
 10
2.34004929E+02
 20
-2.96684651E+02
  0
VERTEX
  8
0
 62
4
 10
2.33884847E+02
 20
-2.96771522E+02
  0
VERTEX
  8
0
 62
4
 10
2.33773254E+02
 20
-2.96867929E+02
  0
VERTEX
  8
0
 62
4
 10
2.33670997E+02
 20
-2.96973139E+02
  0
VERTEX
  8
0
 62
4
 10
2.33578855E+02
 20
-2.97086351E+02
  0
VERTEX
  8
0
 62
4
 10
2.33497530E+02
 20
-2.97206703E+02
  0
VERTEX
  8
0
 62
4
 10
2.33427640E+02
 20
-2.97333280E+02
  0
VERTEX
  8
0
 62
4
 10
2.33369717E+02
 20
-2.97465119E+02
  0
VERTEX
  8
0
 62
4
 10
2.33324203E+02
 20
-2.97601214E+02
  0
VERTEX
  8
0
 62
4
 10
2.33291443E+02
 20
-2.97740532E+02
  0
VERTEX
  8
0
 62
4
 10
2.33271686E+02
 20
-2.97882012E+02
  0
VERTEX
  8
0
 62
4
 10
2.33265084E+02
 20
-2.98024577E+02
  0
VERTEX
  8
0
 62
4
 10
2.33271686E+02
 20
-2.98167142E+02
  0
VERTEX
  8
0
 62
4
 10
2.33291443E+02
 20
-2.98308622E+02
  0
VERTEX
  8
0
 62
4
 10
2.33324203E+02
 20
-2.98447940E+02
  0
VERTEX
  8
0
 62
4
 10
2.33369717E+02
 20
-2.98584035E+02
  0
VERTEX
  8
0
 62
4
 10
2.33427640E+02
 20
-2.98715874E+02
  0
VERTEX
  8
0
 62
4
 10
2.33497530E+02
 20
-2.98842451E+02
  0
VERTEX
  8
0
 62
4
 10
2.33578855E+02
 20
-2.98962803E+02
  0
VERTEX
  8
0
 62
4
 10
2.33670997E+02
 20
-2.99076015E+02
  0
VERTEX
  8
0
 62
4
 10
2.33773254E+02
 20
-2.99181225E+02
  0
VERTEX
  8
0
 62
4
 10
2.33884847E+02
 20
-2.99277632E+02
  0
VERTEX
  8
0
 62
4
 10
2.34004929E+02
 20
-2.99364503E+02
  0
VERTEX
  8
0
 62
4
 10
2.34132584E+02
 20
-2.99441176E+02
  0
VERTEX
  8
0
 62
4
 10
2.34266841E+02
 20
-2.99507067E+02
  0
VERTEX
  8
0
 62
4
 10
2.34406679E+02
 20
-2.99561677E+02
  0
VERTEX
  8
0
 62
4
 10
2.34551033E+02
 20
-2.99604587E+02
  0
VERTEX
  8
0
 62
4
 10
2.34698804E+02
 20
-2.99635473E+02
  0
VERTEX
  8
0
 62
4
 10
2.34848869E+02
 20
-2.99654100E+02
  0
VERTEX
  8
0
 62
4
 10
2.35000084E+02
 20
-2.99660324E+02
  0
VERTEX
  8
0
 62
4
 10
2.35151299E+02
 20
-2.99654100E+02
  0
VERTEX
  8
0
 62
4
 10
2.35301364E+02
 20
-2.99635473E+02
  0
VERTEX
  8
0
 62
4
 10
2.35449135E+02
 20
-2.99604587E+02
  0
VERTEX
  8
0
 62
4
 10
2.35593489E+02
 20
-2.99561677E+02
  0
VERTEX
  8
0
 62
4
 10
2.35733327E+02
 20
-2.99507067E+02
  0
VERTEX
  8
0
 62
4
 10
2.35867584E+02
 20
-2.99441176E+02
  0
VERTEX
  8
0
 62
4
 10
2.35995239E+02
 20
-2.99364503E+02
  0
VERTEX
  8
0
 62
4
 10
2.36115321E+02
 20
-2.99277632E+02
  0
VERTEX
  8
0
 62
4
 10
2.36226914E+02
 20
-2.99181225E+02
  0
VERTEX
  8
0
 62
4
 10
2.36329171E+02
 20
-2.99076015E+02
  0
VERTEX
  8
0
 62
4
 10
2.36421313E+02
 20
-2.98962803E+02
  0
VERTEX
  8
0
 62
4
 10
2.36502638E+02
 20
-2.98842451E+02
  0
VERTEX
  8
0
 62
4
 10
2.36572528E+02
 20
-2.98715874E+02
  0
VERTEX
  8
0
 62
4
 10
2.36630451E+02
 20
-2.98584035E+02
  0
VERTEX
  8
0
 62
4
 10
2.36675965E+02
 20
-2.98447940E+02
  0
VERTEX
  8
0
 62
4
 10
2.36708725E+02
 20
-2.98308622E+02
  0
VERTEX
  8
0
 62
4
 10
2.36728482E+02
 20
-2.98167142E+02
  0
VERTEX
  8
0
 62
4
 10
2.36735084E+02
 20
-2.98024577E+02
  0
SEQEND
  8
0
  0
POLYLINE
  8
0
 62
4
 66
1
  0
VERTEX
  8
0
 62
4
 10
2.36493161E+02
 20
-2.98857735E+02
  0
VERTEX
  8
0
 62
4
 10
2.36604826E+02
 20
-2.98728167E+02
  0
VERTEX
  8
0
 62
4
 10
2.36703956E+02
 20
-2.98589783E+02
  0
VERTEX
  8
0
 62
4
 10
2.36789774E+02
 20
-2.98443663E+02
  0
VERTEX
  8
0
 62
4
 10
2.36861613E+02
 20
-2.98290949E+02
  0
VERTEX
  8
0
 62
4
 10
2.36918909E+02
 20
-2.98132833E+02
  0
VERTEX
  8
0
 62
4
 10
2.36961215E+02
 20
-2.97970552E+02
  0
VERTEX
  8
0
 62
4
 10
2.36988202E+02
 20
-2.97805373E+02
  0
VERTEX
  8
0
 62
4
 10
2.36999658E+02
 20
-2.97638586E+02
  0
VERTEX
  8
0
 62
4
 10
2.36995493E+02
 20
-2.97471493E+02
  0
VERTEX
  8
0
 62
4
 10
2.36975741E+02
 20
-2.97305402E+02
  0
VERTEX
  8
0
 62
4
 10
2.36940555E+02
 20
-2.97141608E+02
  0
VERTEX
  8
0
 62
4
 10
2.36890210E+02
 20
-2.96981391E+02
  0
VERTEX
  8
0
 62
4
 10
2.36825100E+02
 20
-2.96826003E+02
  0
VERTEX
  8
0
 62
4
 10
2.36745734E+02
 20
-2.96676658E+02
  0
VERTEX
  8
0
 62
4
 10
2.36652730E+02
 20
-2.96534523E+02
  0
VERTEX
  8
0
 62
4
 10
2.36546817E+02
 20
-2.96400707E+02
  0
VERTEX
  8
0
 62
4
 10
2.36428820E+02
 20
-2.96276257E+02
  0
VERTEX
  8
0
 62
4
 10
2.36299663E+02
 20
-2.96162144E+02
  0
VERTEX
  8
0
 62
4
 10
2.36160353E+02
 20
-2.96059259E+02
  0
VERTEX
  8
0
 62
4
 10
2.36011980E+02
 20
-2.95968407E+02
  0
VERTEX
  8
0
 62
4
 10
2.35855701E+02
 20
-2.95890298E+02
  0
VERTEX
  8
0
 62
4
 10
2.35692739E+02
 20
-2.95825540E+02
  0
VERTEX
  8
0
 62
4
 10
2.35524366E+02
 20
-2.95774641E+02
  0
VERTEX
  8
0
 62
4
 10
2.35351897E+02
 20
-2.95737998E+02
  0
VERTEX
  8
0
 62
4
 10
2.35176681E+02
 20
-2.95715897E+02
  0
VERTEX
  8
0
 62
4
 10
2.35000084E+02
 20
-2.95708511E+02
  0
VERTEX
  8
0
 62
4
 10
2.34823487E+02
 20
-2.95715897E+02
  0
VERTEX
  8
0
 62
4
 10
2.34648270E+02
 20
-2.95737998E+02
  0
VERTEX
  8
0
 62
4
 10
2.34475802E+02
 20
-2.95774641E+02
  0
VERTEX
  8
0
 62
4
 10
2.34307429E+02
 20
-2.95825540E+02
  0
VERTEX
  8
0
 62
4
 10
2.34144467E+02
 20
-2.95890298E+02
  0
VERTEX
  8
0
 62
4
 10
2.33988188E+02
 20
-2.95968407E+02
  0
VERTEX
  8
0
 62
4
 10
2.33839815E+02
 20
-2.96059259E+02
  0
VERTEX
  8
0
 62
4
 10
2.33700505E+02
 20
-2.96162144E+02
  0
VERTEX
  8
0
 62
4
 10
2.33571348E+02
 20
-2.96276257E+02
  0
VERTEX
  8
0
 62
4
 10
2.33453351E+02
 20
-2.96400707E+02
  0
VERTEX
  8
0
 62
4
 10
2.33347438E+02
 20
-2.96534523E+02
  0
VERTEX
  8
0
 62
4
 10
2.33254434E+02
 20
-2.96676658E+02
  0
VERTEX
  8
0
 62
4
 10
2.33175068E+02
 20
-2.96826003E+02
  0
VERTEX
  8
0
 62
4
 10
2.33109958E+02
 20
-2.96981391E+02
  0
VERTEX
  8
0
 62
4
 10
2.33059613E+02
 20
-2.97141608E+02
  0
VERTEX
  8
0
 62
4
 10
2.33024427E+02
 20
-2.97305402E+02
  0
VERTEX
  8
0
 62
4
 10
2.33004675E+02
 20
-2.97471493E+02
  0
VERTEX
  8
0
 62
4
 10
2.33000510E+02
 20
-2.97638586E+02
  0
VERTEX
  8
0
 62
4
 10
2.33011966E+02
 20
-2.97805373E+02
  0
VERTEX
  8
0
 62
4
 10
2.33038953E+02
 20
-2.97970552E+02
  0
VERTEX
  8
0
 62
4
 10
2.33081259E+02
 20
-2.98132833E+02
  0
VERTEX
  8
0
 62
4
 10
2.33138555E+02
 20
-2.98290949E+02
  0
VERTEX
  8
0
 62
4
 10
2.33210394E+02
 20
-2.98443663E+02
  0
VERTEX
  8
0
 62
4
 10
2.33296212E+02
 20
-2.98589783E+02
  0
VERTEX
  8
0
 62
4
 10
2.33395342E+02
 20
-2.98728167E+02
  0
VERTEX
  8
0
 62
4
 10
2.33507007E+02
 20
-2.98857735E+02
  0
SEQEND
  8
0
  0
POLYLINE
  8
0
 62
6
 66
1
  0
VERTEX
  8
0
 62
6
 10
2.28500084E+02
 20
-2.98024577E+02
  0
VERTEX
  8
0
 62
6
 10
2.28494376E+02
 20
-2.97900966E+02
  0
VERTEX
  8
0
 62
6
 10
2.28477296E+02
 20
-2.97778296E+02
  0
VERTEX
  8
0
 62
6
 10
2.28448973E+02
 20
-2.97657500E+02
  0
VERTEX
  8
0
 62
6
 10
2.28409623E+02
 20
-2.97539497E+02
  0
VERTEX
  8
0
 62
6
 10
2.28359546E+02
 20
-2.97425187E+02
  0
VERTEX
  8
0
 62
6
 10
2.28299122E+02
 20
-2.97315438E+02
  0
VERTEX
  8
0
 62
6
 10
2.28228812E+02
 20
-2.97211086E+02
  0
VERTEX
  8
0
 62
6
 10
2.28149151E+02
 20
-2.97112926E+02
  0
VERTEX
  8
0
 62
6
 10
2.28060744E+02
 20
-2.97021703E+02
  0
VERTEX
  8
0
 62
6
 10
2.27964265E+02
 20
-2.96938113E+02
  0
VERTEX
  8
0
 62
6
 10
2.27860449E+02
 20
-2.96862792E+02
  0
VERTEX
  8
0
 62
6
 10
2.27750084E+02
 20
-2.96796312E+02
  0
VERTEX
  8
0
 62
6
 10
2.27634011E+02
 20
-2.96739181E+02
  0
VERTEX
  8
0
 62
6
 10
2.27513114E+02
 20
-2.96691832E+02
  0
VERTEX
  8
0
 62
6
 10
2.27388313E+02
 20
-2.96654626E+02
  0
VERTEX
  8
0
 62
6
 10
2.27260556E+02
 20
-2.96627846E+02
  0
VERTEX
  8
0
 62
6
 10
2.27130818E+02
 20
-2.96611696E+02
  0
VERTEX
  8
0
 62
6
 10
2.27000084E+02
 20
-2.96606299E+02
  0
VERTEX
  8
0
 62
6
 10
2.26869350E+02
 20
-2.96611696E+02
  0
VERTEX
  8
0
 62
6
 10
2.26739612E+02
 20
-2.96627846E+02
  0
VERTEX
  8
0
 62
6
 10
2.26611855E+02
 20
-2.96654626E+02
  0
VERTEX
  8
0
 62
6
 10
2.26487054E+02
 20
-2.96691832E+02
  0
VERTEX
  8
0
 62
6
 10
2.26366157E+02
 20
-2.96739181E+02
  0
VERTEX
  8
0
 62
6
 10
2.26250084E+02
 20
-2.96796312E+02
  0
VERTEX
  8
0
 62
6
 10
2.26139719E+02
 20
-2.96862792E+02
  0
VERTEX
  8
0
 62
6
 10
2.26035903E+02
 20
-2.96938113E+02
  0
VERTEX
  8
0
 62
6
 10
2.25939424E+02
 20
-2.97021703E+02
  0
VERTEX
  8
0
 62
6
 10
2.25851017E+02
 20
-2.97112926E+02
  0
VERTEX
  8
0
 62
6
 10
2.25771356E+02
 20
-2.97211086E+02
  0
VERTEX
  8
0
 62
6
 10
2.25701046E+02
 20
-2.97315438E+02
  0
VERTEX
  8
0
 62
6
 10
2.25640622E+02
 20
-2.97425187E+02
  0
VERTEX
  8
0
 62
6
 10
2.25590545E+02
 20
-2.97539497E+02
  0
VERTEX
  8
0
 62
6
 10
2.25551195E+02
 20
-2.97657500E+02
  0
VERTEX
  8
0
 62
6
 10
2.25522872E+02
 20
-2.97778296E+02
  0
VERTEX
  8
0
 62
6
 10
2.25505792E+02
 20
-2.97900966E+02
  0
VERTEX
  8
0
 62
6
 10
2.25500084E+02
 20
-2.98024577E+02
  0
VERTEX
  8
0
 62
6
 10
2.25505792E+02
 20
-2.98148188E+02
  0
VERTEX
  8
0
 62
6
 10
2.25522872E+02
 20
-2.98270858E+02
  0
VERTEX
  8
0
 62
6
 10
2.25551195E+02
 20
-2.98391654E+02
  0
VERTEX
  8
0
 62
6
 10
2.25590545E+02
 20
-2.98509657E+02
  0
VERTEX
  8
0
 62
6
 10
2.25640622E+02
 20
-2.98623967E+02
  0
VERTEX
  8
0
 62
6
 10
2.25701046E+02
 20
-2.98733716E+02
  0
VERTEX
  8
0
 62
6
 10
2.25771356E+02
 20
-2.98838068E+02
  0
VERTEX
  8
0
 62
6
 10
2.25851017E+02
 20
-2.98936228E+02
  0
VERTEX
  8
0
 62
6
 10
2.25939424E+02
 20
-2.99027451E+02
  0
VERTEX
  8
0
 62
6
 10
2.26035903E+02
 20
-2.99111041E+02
  0
VERTEX
  8
0
 62
6
 10
2.26139719E+02
 20
-2.99186362E+02
  0
VERTEX
  8
0
 62
6
 10
2.26250084E+02
 20
-2.99252842E+02
  0
VERTEX
  8
0
 62
6
 10
2.26366157E+02
 20
-2.99309973E+02
  0
VERTEX
  8
0
 62
6
 10
2.26487054E+02
 20
-2.99357322E+02
  0
VERTEX
  8
0
 62
6
 10
2.26611855E+02
 20
-2.99394528E+02
  0
VERTEX
  8
0
 62
6
 10
2.26739612E+02
 20
-2.99421308E+02
  0
VERTEX
  8
0
 62
6
 10
2.26869350E+02
 20
-2.99437458E+02
  0
VERTEX
  8
0
 62
6
 10
2.27000084E+02
 20
-2.99442855E+02
  0
VERTEX
  8
0
 62
6
 10
2.27130818E+02
 20
-2.99437458E+02
  0
VERTEX
  8
0
 62
6
 10
2.27260556E+02
 20
-2.99421308E+02
  0
VERTEX
  8
0
 62
6
 10
2.27388313E+02
 20
-2.99394528E+02
  0
VERTEX
  8
0
 62
6
 10
2.27513114E+02
 20
-2.99357322E+02
  0
VERTEX
  8
0
 62
6
 10
2.27634011E+02
 20
-2.99309973E+02
  0
VERTEX
  8
0
 62
6
 10
2.27750084E+02
 20
-2.99252842E+02
  0
VERTEX
  8
0
 62
6
 10
2.27860449E+02
 20
-2.99186362E+02
  0
VERTEX
  8
0
 62
6
 10
2.27964265E+02
 20
-2.99111041E+02
  0
VERTEX
  8
0
 62
6
 10
2.28060744E+02
 20
-2.99027451E+02
  0
VERTEX
  8
0
 62
6
 10
2.28149151E+02
 20
-2.98936228E+02
  0
VERTEX
  8
0
 62
6
 10
2.28228812E+02
 20
-2.98838068E+02
  0
VERTEX
  8
0
 62
6
 10
2.28299122E+02
 20
-2.98733716E+02
  0
VERTEX
  8
0
 62
6
 10
2.28359546E+02
 20
-2.98623967E+02
  0
VERTEX
  8
0
 62
6
 10
2.28409623E+02
 20
-2.98509657E+02
  0
VERTEX
  8
0
 62
6
 10
2.28448973E+02
 20
-2.98391654E+02
  0
VERTEX
  8
0
 62
6
 10
2.28477296E+02
 20
-2.98270858E+02
  0
VERTEX
  8
0
 62
6
 10
2.28494376E+02
 20
-2.98148188E+02
  0
VERTEX
  8
0
 62
6
 10
2.28500084E+02
 20
-2.98024577E+02
  0
SEQEND
  8
0
  0
POLYLINE
  8
0
 62
4
 66
1
  0
VERTEX
  8
0
 62
4
 10
2.28735084E+02
 20
-2.98024577E+02
  0
VERTEX
  8
0
 62
4
 10
2.28728482E+02
 20
-2.97882012E+02
  0
VERTEX
  8
0
 62
4
 10
2.28708725E+02
 20
-2.97740532E+02
  0
VERTEX
  8
0
 62
4
 10
2.28675965E+02
 20
-2.97601214E+02
  0
VERTEX
  8
0
 62
4
 10
2.28630451E+02
 20
-2.97465119E+02
  0
VERTEX
  8
0
 62
4
 10
2.28572528E+02
 20
-2.97333280E+02
  0
VERTEX
  8
0
 62
4
 10
2.28502638E+02
 20
-2.97206703E+02
  0
VERTEX
  8
0
 62
4
 10
2.28421313E+02
 20
-2.97086351E+02
  0
VERTEX
  8
0
 62
4
 10
2.28329171E+02
 20
-2.96973139E+02
  0
VERTEX
  8
0
 62
4
 10
2.28226914E+02
 20
-2.96867929E+02
  0
VERTEX
  8
0
 62
4
 10
2.28115321E+02
 20
-2.96771522E+02
  0
VERTEX
  8
0
 62
4
 10
2.27995239E+02
 20
-2.96684651E+02
  0
VERTEX
  8
0
 62
4
 10
2.27867584E+02
 20
-2.96607978E+02
  0
VERTEX
  8
0
 62
4
 10
2.27733327E+02
 20
-2.96542087E+02
  0
VERTEX
  8
0
 62
4
 10
2.27593489E+02
 20
-2.96487477E+02
  0
VERTEX
  8
0
 62
4
 10
2.27449135E+02
 20
-2.96444567E+02
  0
VERTEX
  8
0
 62
4
 10
2.27301364E+02
 20
-2.96413681E+02
  0
VERTEX
  8
0
 62
4
 10
2.27151299E+02
 20
-2.96395054E+02
  0
VERTEX
  8
0
 62
4
 10
2.27000084E+02
 20
-2.96388830E+02
  0
VERTEX
  8
0
 62
4
 10
2.26848869E+02
 20
-2.96395054E+02
  0
VERTEX
  8
0
 62
4
 10
2.26698804E+02
 20
-2.96413681E+02
  0
VERTEX
  8
0
 62
4
 10
2.26551033E+02
 20
-2.96444567E+02
  0
VERTEX
  8
0
 62
4
 10
2.26406679E+02
 20
-2.96487477E+02
  0
VERTEX
  8
0
 62
4
 10
2.26266841E+02
 20
-2.96542087E+02
  0
VERTEX
  8
0
 62
4
 10
2.26132584E+02
 20
-2.96607978E+02
  0
VERTEX
  8
0
 62
4
 10
2.26004929E+02
 20
-2.96684651E+02
  0
VERTEX
  8
0
 62
4
 10
2.25884847E+02
 20
-2.96771522E+02
  0
VERTEX
  8
0
 62
4
 10
2.25773254E+02
 20
-2.96867929E+02
  0
VERTEX
  8
0
 62
4
 10
2.25670997E+02
 20
-2.96973139E+02
  0
VERTEX
  8
0
 62
4
 10
2.25578855E+02
 20
-2.97086351E+02
  0
VERTEX
  8
0
 62
4
 10
2.25497530E+02
 20
-2.97206703E+02
  0
VERTEX
  8
0
 62
4
 10
2.25427640E+02
 20
-2.97333280E+02
  0
VERTEX
  8
0
 62
4
 10
2.25369717E+02
 20
-2.97465119E+02
  0
VERTEX
  8
0
 62
4
 10
2.25324203E+02
 20
-2.97601214E+02
  0
VERTEX
  8
0
 62
4
 10
2.25291443E+02
 20
-2.97740532E+02
  0
VERTEX
  8
0
 62
4
 10
2.25271686E+02
 20
-2.97882012E+02
  0
VERTEX
  8
0
 62
4
 10
2.25265084E+02
 20
-2.98024577E+02
  0
VERTEX
  8
0
 62
4
 10
2.25271686E+02
 20
-2.98167142E+02
  0
VERTEX
  8
0
 62
4
 10
2.25291443E+02
 20
-2.98308622E+02
  0
VERTEX
  8
0
 62
4
 10
2.25324203E+02
 20
-2.98447940E+02
  0
VERTEX
  8
0
 62
4
 10
2.25369717E+02
 20
-2.98584035E+02
  0
VERTEX
  8
0
 62
4
 10
2.25427640E+02
 20
-2.98715874E+02
  0
VERTEX
  8
0
 62
4
 10
2.25497530E+02
 20
-2.98842451E+02
  0
VERTEX
  8
0
 62
4
 10
2.25578855E+02
 20
-2.98962803E+02
  0
VERTEX
  8
0
 62
4
 10
2.25670997E+02
 20
-2.99076015E+02
  0
VERTEX
  8
0
 62
4
 10
2.25773254E+02
 20
-2.99181225E+02
  0
VERTEX
  8
0
 62
4
 10
2.25884847E+02
 20
-2.99277632E+02
  0
VERTEX
  8
0
 62
4
 10
2.26004929E+02
 20
-2.99364503E+02
  0
VERTEX
  8
0
 62
4
 10
2.26132584E+02
 20
-2.99441176E+02
  0
VERTEX
  8
0
 62
4
 10
2.26266841E+02
 20
-2.99507067E+02
  0
VERTEX
  8
0
 62
4
 10
2.26406679E+02
 20
-2.99561677E+02
  0
VERTEX
  8
0
 62
4
 10
2.26551033E+02
 20
-2.99604587E+02
  0
VERTEX
  8
0
 62
4
 10
2.26698804E+02
 20
-2.99635473E+02
  0
VERTEX
  8
0
 62
4
 10
2.26848869E+02
 20
-2.99654100E+02
  0
VERTEX
  8
0
 62
4
 10
2.27000084E+02
 20
-2.99660324E+02
  0
VERTEX
  8
0
 62
4
 10
2.27151299E+02
 20
-2.99654100E+02
  0
VERTEX
  8
0
 62
4
 10
2.27301364E+02
 20
-2.99635473E+02
  0
VERTEX
  8
0
 62
4
 10
2.27449135E+02
 20
-2.99604587E+02
  0
VERTEX
  8
0
 62
4
 10
2.27593489E+02
 20
-2.99561677E+02
  0
VERTEX
  8
0
 62
4
 10
2.27733327E+02
 20
-2.99507067E+02
  0
VERTEX
  8
0
 62
4
 10
2.27867584E+02
 20
-2.99441176E+02
  0
VERTEX
  8
0
 62
4
 10
2.27995239E+02
 20
-2.99364503E+02
  0
VERTEX
  8
0
 62
4
 10
2.28115321E+02
 20
-2.99277632E+02
  0
VERTEX
  8
0
 62
4
 10
2.28226914E+02
 20
-2.99181225E+02
  0
VERTEX
  8
0
 62
4
 10
2.28329171E+02
 20
-2.99076015E+02
  0
VERTEX
  8
0
 62
4
 10
2.28421313E+02
 20
-2.98962803E+02
  0
VERTEX
  8
0
 62
4
 10
2.28502638E+02
 20
-2.98842451E+02
  0
VERTEX
  8
0
 62
4
 10
2.28572528E+02
 20
-2.98715874E+02
  0
VERTEX
  8
0
 62
4
 10
2.28630451E+02
 20
-2.98584035E+02
  0
VERTEX
  8
0
 62
4
 10
2.28675965E+02
 20
-2.98447940E+02
  0
VERTEX
  8
0
 62
4
 10
2.28708725E+02
 20
-2.98308622E+02
  0
VERTEX
  8
0
 62
4
 10
2.28728482E+02
 20
-2.98167142E+02
  0
VERTEX
  8
0
 62
4
 10
2.28735084E+02
 20
-2.98024577E+02
  0
SEQEND
  8
0
  0
POLYLINE
  8
0
 62
4
 66
1
  0
VERTEX
  8
0
 62
4
 10
2.28493161E+02
 20
-2.98857735E+02
  0
VERTEX
  8
0
 62
4
 10
2.28604826E+02
 20
-2.98728167E+02
  0
VERTEX
  8
0
 62
4
 10
2.28703956E+02
 20
-2.98589783E+02
  0
VERTEX
  8
0
 62
4
 10
2.28789774E+02
 20
-2.98443663E+02
  0
VERTEX
  8
0
 62
4
 10
2.28861613E+02
 20
-2.98290949E+02
  0
VERTEX
  8
0
 62
4
 10
2.28918909E+02
 20
-2.98132833E+02
  0
VERTEX
  8
0
 62
4
 10
2.28961215E+02
 20
-2.97970552E+02
  0
VERTEX
  8
0
 62
4
 10
2.28988202E+02
 20
-2.97805373E+02
  0
VERTEX
  8
0
 62
4
 10
2.28999658E+02
 20
-2.97638586E+02
  0
VERTEX
  8
0
 62
4
 10
2.28995493E+02
 20
-2.97471493E+02
  0
VERTEX
  8
0
 62
4
 10
2.28975741E+02
 20
-2.97305402E+02
  0
VERTEX
  8
0
 62
4
 10
2.28940555E+02
 20
-2.97141608E+02
  0
VERTEX
  8
0
 62
4
 10
2.28890210E+02
 20
-2.96981391E+02
  0
VERTEX
  8
0
 62
4
 10
2.28825100E+02
 20
-2.96826003E+02
  0
VERTEX
  8
0
 62
4
 10
2.28745734E+02
 20
-2.96676658E+02
  0
VERTEX
  8
0
 62
4
 10
2.28652730E+02
 20
-2.96534523E+02
  0
VERTEX
  8
0
 62
4
 10
2.28546817E+02
 20
-2.96400707E+02
  0
VERTEX
  8
0
 62
4
 10
2.28428820E+02
 20
-2.96276257E+02
  0
VERTEX
  8
0
 62
4
 10
2.28299663E+02
 20
-2.96162144E+02
  0
VERTEX
  8
0
 62
4
 10
2.28160353E+02
 20
-2.96059259E+02
  0
VERTEX
  8
0
 62
4
 10
2.28011980E+02
 20
-2.95968407E+02
  0
VERTEX
  8
0
 62
4
 10
2.27855701E+02
 20
-2.95890298E+02
  0
VERTEX
  8
0
 62
4
 10
2.27692739E+02
 20
-2.95825540E+02
  0
VERTEX
  8
0
 62
4
 10
2.27524366E+02
 20
-2.95774641E+02
  0
VERTEX
  8
0
 62
4
 10
2.27351897E+02
 20
-2.95737998E+02
  0
VERTEX
  8
0
 62
4
 10
2.27176681E+02
 20
-2.95715897E+02
  0
VERTEX
  8
0
 62
4
 10
2.27000084E+02
 20
-2.95708511E+02
  0
VERTEX
  8
0
 62
4
 10
2.26823487E+02
 20
-2.95715897E+02
  0
VERTEX
  8
0
 62
4
 10
2.26648270E+02
 20
-2.95737998E+02
  0
VERTEX
  8
0
 62
4
 10
2.26475802E+02
 20
-2.95774641E+02
  0
VERTEX
  8
0
 62
4
 10
2.26307429E+02
 20
-2.95825540E+02
  0
VERTEX
  8
0
 62
4
 10
2.26144467E+02
 20
-2.95890298E+02
  0
VERTEX
  8
0
 62
4
 10
2.25988188E+02
 20
-2.95968407E+02
  0
VERTEX
  8
0
 62
4
 10
2.25839815E+02
 20
-2.96059259E+02
  0
VERTEX
  8
0
 62
4
 10
2.25700505E+02
 20
-2.96162144E+02
  0
VERTEX
  8
0
 62
4
 10
2.25571348E+02
 20
-2.96276257E+02
  0
VERTEX
  8
0
 62
4
 10
2.25453351E+02
 20
-2.96400707E+02
  0
VERTEX
  8
0
 62
4
 10
2.25347438E+02
 20
-2.96534523E+02
  0
VERTEX
  8
0
 62
4
 10
2.25254434E+02
 20
-2.96676658E+02
  0
VERTEX
  8
0
 62
4
 10
2.25175068E+02
 20
-2.96826003E+02
  0
VERTEX
  8
0
 62
4
 10
2.25109958E+02
 20
-2.96981391E+02
  0
VERTEX
  8
0
 62
4
 10
2.25059613E+02
 20
-2.97141608E+02
  0
VERTEX
  8
0
 62
4
 10
2.25024427E+02
 20
-2.97305402E+02
  0
VERTEX
  8
0
 62
4
 10
2.25004675E+02
 20
-2.97471493E+02
  0
VERTEX
  8
0
 62
4
 10
2.25000510E+02
 20
-2.97638586E+02
  0
VERTEX
  8
0
 62
4
 10
2.25011966E+02
 20
-2.97805373E+02
  0
VERTEX
  8
0
 62
4
 10
2.25038953E+02
 20
-2.97970552E+02
  0
VERTEX
  8
0
 62
4
 10
2.25081259E+02
 20
-2.98132833E+02
  0
VERTEX
  8
0
 62
4
 10
2.25138555E+02
 20
-2.98290949E+02
  0
VERTEX
  8
0
 62
4
 10
2.25210394E+02
 20
-2.98443663E+02
  0
VERTEX
  8
0
 62
4
 10
2.25296212E+02
 20
-2.98589783E+02
  0
VERTEX
  8
0
 62
4
 10
2.25395342E+02
 20
-2.98728167E+02
  0
VERTEX
  8
0
 62
4
 10
2.25507007E+02
 20
-2.98857735E+02
  0
SEQEND
  8
0
  0
LINE
  8
0
 62
4
 10
2.06793987E+02
 20
-2.87900024E+02
 11
2.04000084E+02
 21
-2.85296186E+02
  0
LINE
  8
0
 62
4
 10
2.40206181E+02
 20
-2.87900024E+02
 11
2.43000084E+02
 21
-2.85296186E+02
  0
LINE
  8
0
 62
4
 10
2.38500084E+02
 20
-2.64920758E+02
 11
2.23500084E+02
 21
-2.64920758E+02
  0
LINE
  8
0
 62
4
 10
2.38500084E+02
 20
-2.37344790E+02
 11
2.23500084E+02
 21
-2.37344790E+02
  0
ARC
  8
0
 62
4
 10
2.05497597E+02
 20
-2.71797000E+02
 40
1.49751542E+00
 50
8.99048594E+01
 51
1.80095141E+02
  0
ARC
  8
0
 62
4
 10
2.38997601E+02
 20
-2.52952473E+02
 40
4.97523679E-01
 50
8.97141074E+01
 51
1.80285893E+02
  0
ARC
  8
0
 62
4
 10
2.47502566E+02
 20
-2.38952473E+02
 40
4.97523679E-01
 50
3.59714107E+02
 51
9.02858924E+01
  0
ARC
  8
0
 62
4
 10
2.47497589E+02
 20
-2.51952461E+02
 40
5.02501096E-01
 50
2.70284473E+02
 51
3.59715527E+02
  0
ARC
  8
0
 62
4
 10
2.41502571E+02
 20
-2.71797000E+02
 40
1.49751542E+00
 50
3.59904859E+02
 51
9.00951404E+01
  0
LINE
  8
0
 62
4
 10
2.04000084E+02
 20
-2.65476132E+02
 11
2.04000084E+02
 21
-2.85296186E+02
  0
LINE
  8
0
 62
4
 10
2.21500084E+02
 20
-2.66517413E+02
 11
2.21500084E+02
 21
-2.70517413E+02
  0
LINE
  8
0
 62
4
 10
2.38500084E+02
 20
-2.37344790E+02
 11
2.38500084E+02
 21
-2.66517413E+02
  0
LINE
  8
0
 62
4
 10
2.23500084E+02
 20
-2.37344790E+02
 11
2.23500084E+02
 21
-2.66517413E+02
  0
LINE
  8
0
 62
4
 10
2.40500084E+02
 20
-2.66517413E+02
 11
2.40500084E+02
 21
-2.70517413E+02
  0
LINE
  8
0
 62
4
 10
2.43000084E+02
 20
-2.83877908E+02
 11
2.38500084E+02
 21
-2.83877908E+02
  0
LINE
  8
0
 62
4
 10
2.43000084E+02
 20
-2.85296186E+02
 11
2.38500084E+02
 21
-2.85296186E+02
  0
LINE
  8
0
 62
4
 10
2.43000084E+02
 20
-2.65476132E+02
 11
2.43000084E+02
 21
-2.85296186E+02
  0
LINE
  8
0
 62
4
 10
2.40500084E+02
 20
-2.66517413E+02
 11
2.21500084E+02
 21
-2.66517413E+02
  0
LINE
  8
0
 62
4
 10
2.38500084E+02
 20
-2.42228312E+02
 11
2.23500084E+02
 21
-2.42228312E+02
  0
LINE
  8
0
 62
4
 10
2.23500084E+02
 20
-2.83877908E+02
 11
2.04000084E+02
 21
-2.83877908E+02
  0
LINE
  8
0
 62
4
 10
2.23500084E+02
 20
-2.85296186E+02
 11
2.04000084E+02
 21
-2.85296186E+02
  0
LINE
  8
0
 62
4
 10
2.58000084E+02
 20
-2.52560507E+02
 11
2.53000084E+02
 21
-2.52560507E+02
  0
LINE
  8
0
 62
4
 10
2.47500084E+02
 20
-2.52454956E+02
 11
2.39000084E+02
 21
-2.52454956E+02
  0
LINE
  8
0
 62
4
 10
2.51500084E+02
 20
-2.51204956E+02
 11
2.48000084E+02
 21
-2.51204956E+02
  0
LINE
  8
0
 62
4
 10
2.51500084E+02
 20
-2.39204956E+02
 11
2.51500084E+02
 21
-2.51704956E+02
  0
LINE
  8
0
 62
4
 10
2.53000084E+02
 20
-2.51704956E+02
 11
2.48000084E+02
 21
-2.51704956E+02
  0
LINE
  8
0
 62
4
 10
2.53000084E+02
 20
-2.39204956E+02
 11
2.48000084E+02
 21
-2.39204956E+02
  0
LINE
  8
0
 62
4
 10
2.53000084E+02
 20
-2.38358818E+02
 11
2.53000084E+02
 21
-2.52560507E+02
  0
LINE
  8
0
 62
4
 10
2.58000084E+02
 20
-2.38358818E+02
 11
2.58000084E+02
 21
-2.52560507E+02
  0
LINE
  8
0
 62
4
 10
2.48000084E+02
 20
-2.38954956E+02
 11
2.48000084E+02
 21
-2.51954956E+02
  0
LINE
  8
0
 62
4
 10
2.38500084E+02
 20
-2.38454956E+02
 11
2.47500084E+02
 21
-2.38454956E+02
  0
LINE
  8
0
 62
4
 10
2.58000084E+02
 20
-2.51121550E+02
 11
2.53000084E+02
 21
-2.51121550E+02
  0
LINE
  8
0
 62
4
 10
2.58000084E+02
 20
-2.44030161E+02
 11
2.53000084E+02
 21
-2.44030161E+02
  0
LINE
  8
0
 62
4
 10
2.58000084E+02
 20
-2.38358818E+02
 11
2.53000084E+02
 21
-2.38358818E+02
  0
LINE
  8
0
 62
4
 10
2.41500084E+02
 20
-2.70299487E+02
 11
2.05500084E+02
 21
-2.70299487E+02
  0
LINE
  8
0
 62
4
 10
2.51500084E+02
 20
-2.39704956E+02
 11
2.48000084E+02
 21
-2.39704956E+02
  0
LINE
  8
0
  6
CENTER
 62
6
 10
2.22000084E+02
 20
-2.98024577E+02
 11
2.40000084E+02
 21
-2.98024577E+02
  0
LINE
  8
0
  6
CENTER
 62
6
 10
2.27000084E+02
 20
-2.93034577E+02
 11
2.27000084E+02
 21
-3.03024577E+02
  0
LINE
  8
0
  6
CENTER
 62
6
 10
2.35000084E+02
 20
-2.93034577E+02
 11
2.35000084E+02
 21
-3.03024577E+02
  0
LINE
  8
0
 62
4
 10
2.23500084E+02
 20
-2.76109203E+02
 11
2.23500084E+02
 21
-3.02394634E+02
  0
LINE
  8
0
 62
4
 10
2.38500084E+02
 20
-2.76109203E+02
 11
2.38500084E+02
 21
-3.02394634E+02
  0
LINE
  8
0
 62
4
 10
2.24500084E+02
 20
-2.90990835E+02
 11
2.37500084E+02
 21
-2.90990835E+02
  0
LINE
  8
0
 62
4
 10
2.23500084E+02
 20
-3.02394634E+02
 11
2.38500084E+02
 21
-3.02394634E+02
  0
LINE
  8
0
 62
4
 10
2.23500084E+02
 20
-2.76109203E+02
 11
2.38500084E+02
 21
-2.76109203E+02
  0
LINE
  8
0
  6
CENTER
 62
2
 10
-4.50999886E+02
 20
-2.79814713E+02
 11
-4.50999886E+02
 21
-3.02729599E+02
  0
LINE
  8
0
  6
CENTER
 62
2
 10
-4.61630501E+02
 20
-2.91499939E+02
 11
-4.39097542E+02
 21
-2.91499939E+02
  0
LINE
  8
0
  6
CENTER
 62
2
 10
-4.96369423E+02
 20
-2.91499939E+02
 11
-5.18902382E+02
 21
-2.91499939E+02
  0
LINE
  8
0
  6
CENTER
 62
2
 10
-5.07000038E+02
 20
-2.79814713E+02
 11
-5.07000038E+02
 21
-3.02729599E+02
  0
TEXT
  8
0
 62
7
 10
3.92788965E+02
 20
-3.51373770E+01
 40
9.00000000E+00
  1
925
 41
1.00000000E+00
  7
MONOTXT
  0
TEXT
  8
0
 62
7
 10
3.47788965E+02
 20
-3.51373770E+01
 40
9.00000000E+00
  1
825
 41
1.00000000E+00
  7
MONOTXT
  0
TEXT
  8
0
 62
7
 10
3.02788965E+02
 20
-3.51373770E+01
 40
9.00000000E+00
  1
725
 41
1.00000000E+00
  7
MONOTXT
  0
TEXT
  8
0
 62
7
 10
2.57788965E+02
 20
-3.51373770E+01
 40
9.00000000E+00
  1
625
 41
1.00000000E+00
  7
MONOTXT
  0
TEXT
  8
0
 62
7
 10
2.12788965E+02
 20
-3.51373770E+01
 40
9.00000000E+00
  1
525
 41
1.00000000E+00
  7
MONOTXT
  0
TEXT
  8
0
 62
7
 10
1.67788965E+02
 20
-3.51373770E+01
 40
9.00000000E+00
  1
425
 41
1.00000000E+00
  7
MONOTXT
  0
TEXT
  8
0
 62
7
 10
1.22788965E+02
 20
-3.51373770E+01
 40
9.00000000E+00
  1
375
 41
1.00000000E+00
  7
MONOTXT
  0
TEXT
  8
0
 62
7
 10
7.77889652E+01
 20
-3.51373770E+01
 40
9.00000000E+00
  1
325
 41
1.00000000E+00
  7
MONOTXT
  0
TEXT
  8
0
 62
7
 10
3.27889652E+01
 20
-3.51373770E+01
 40
9.00000000E+00
  1
275
 41
1.00000000E+00
  7
MONOTXT
  0
TEXT
  8
0
 62
7
 10
-1.22110348E+01
 20
-3.51373770E+01
 40
9.00000000E+00
  1
225
 41
1.00000000E+00
  7
MONOTXT
  0
TEXT
  8
0
 62
7
 10
-5.72110348E+01
 20
-3.51373770E+01
 40
9.00000000E+00
  1
175
 41
1.00000000E+00
  7
MONOTXT
  0
TEXT
  8
0
 62
7
 10
-1.02211035E+02
 20
-3.51373770E+01
 40
9.00000000E+00
  1
125
 41
1.00000000E+00
  7
MONOTXT
  0
TEXT
  8
0
 62
7
 10
-1.42711035E+02
 20
-3.51373770E+01
 40
9.00000000E+00
  1
75
 41
1.00000000E+00
  7
MONOTXT
  0
TEXT
  8
0
 62
7
 10
-1.87711035E+02
 20
-3.51373770E+01
 40
9.00000000E+00
  1
25
 41
1.00000000E+00
  7
MONOTXT
  0
TEXT
  8
0
 62
7
 10
-2.28211035E+02
 20
-3.51373770E+01
 40
9.00000000E+00
  1
0
 41
1.00000000E+00
  7
MONOTXT
  0
TEXT
  8
0
 62
7
 10
-2.82211035E+02
 20
-3.51373770E+01
 40
9.00000000E+00
  1
-25
 41
1.00000000E+00
  7
MONOTXT
  0
TEXT
  8
0
 62
7
 10
3.88288965E+02
 20
-2.01373770E+01
 40
9.00000000E+00
  1
1000
 41
1.00000000E+00
  7
MONOTXT
  0
TEXT
  8
0
 62
7
 10
3.47788965E+02
 20
-2.01373770E+01
 40
9.00000000E+00
  1
900
 41
1.00000000E+00
  7
MONOTXT
  0
TEXT
  8
0
 62
7
 10
3.02788965E+02
 20
-2.01373770E+01
 40
9.00000000E+00
  1
800
 41
1.00000000E+00
  7
MONOTXT
  0
TEXT
  8
0
 62
7
 10
2.57788965E+02
 20
-2.01373770E+01
 40
9.00000000E+00
  1
700
 41
1.00000000E+00
  7
MONOTXT
  0
TEXT
  8
0
 62
7
 10
2.12788965E+02
 20
-2.01373770E+01
 40
9.00000000E+00
  1
600
 41
1.00000000E+00
  7
MONOTXT
  0
TEXT
  8
0
 62
7
 10
1.67788965E+02
 20
-2.01373770E+01
 40
9.00000000E+00
  1
500
 41
1.00000000E+00
  7
MONOTXT
  0
TEXT
  8
0
 62
7
 10
1.22788965E+02
 20
-2.01373770E+01
 40
9.00000000E+00
  1
450
 41
1.00000000E+00
  7
MONOTXT
  0
TEXT
  8
0
 62
7
 10
7.77889652E+01
 20
-2.01373770E+01
 40
9.00000000E+00
  1
400
 41
1.00000000E+00
  7
MONOTXT
  0
TEXT
  8
0
 62
7
 10
3.27889652E+01
 20
-2.01373770E+01
 40
9.00000000E+00
  1
350
 41
1.00000000E+00
  7
MONOTXT
  0
TEXT
  8
0
 62
7
 10
-1.22110348E+01
 20
-2.01373770E+01
 40
9.00000000E+00
  1
300
 41
1.00000000E+00
  7
MONOTXT
  0
TEXT
  8
0
 62
7
 10
-5.72110348E+01
 20
-2.01373770E+01
 40
9.00000000E+00
  1
250
 41
1.00000000E+00
  7
MONOTXT
  0
TEXT
  8
0
 62
7
 10
-1.02211035E+02
 20
-2.01373770E+01
 40
9.00000000E+00
  1
200
 41
1.00000000E+00
  7
MONOTXT
  0
TEXT
  8
0
 62
7
 10
-1.47211035E+02
 20
-2.01373770E+01
 40
9.00000000E+00
  1
150
 41
1.00000000E+00
  7
MONOTXT
  0
TEXT
  8
0
 62
7
 10
-1.92211035E+02
 20
-2.01373770E+01
 40
9.00000000E+00
  1
100
 41
1.00000000E+00
  7
MONOTXT
  0
TEXT
  8
0
 62
7
 10
-2.32711035E+02
 20
-2.01373770E+01
 40
9.00000000E+00
  1
75
 41
1.00000000E+00
  7
MONOTXT
  0
TEXT
  8
0
 62
7
 10
-2.77711035E+02
 20
-2.01373770E+01
 40
9.00000000E+00
  1
50
 41
1.00000000E+00
  7
MONOTXT
  0
LINE
  8
0
 62
7
 10
4.27804590E+02
 20
-3.81373770E+01
 11
4.27804590E+02
 21
-8.13737705E+00
  0
LINE
  8
0
 62
7
 10
3.82804590E+02
 20
-3.81373770E+01
 11
3.82804590E+02
 21
-8.13737705E+00
  0
LINE
  8
0
 62
7
 10
3.37804590E+02
 20
-3.81373770E+01
 11
3.37804590E+02
 21
-8.13737705E+00
  0
LINE
  8
0
 62
7
 10
2.92804590E+02
 20
-3.81373770E+01
 11
2.92804590E+02
 21
-8.13737705E+00
  0
LINE
  8
0
 62
7
 10
2.47804590E+02
 20
-3.81373770E+01
 11
2.47804590E+02
 21
-8.13737705E+00
  0
LINE
  8
0
 62
7
 10
2.02804590E+02
 20
-3.81373770E+01
 11
2.02804590E+02
 21
-8.13737705E+00
  0
LINE
  8
0
 62
7
 10
1.57804590E+02
 20
-3.81373770E+01
 11
1.57804590E+02
 21
-8.13737705E+00
  0
LINE
  8
0
 62
7
 10
1.12804590E+02
 20
-3.81373770E+01
 11
1.12804590E+02
 21
-8.13737705E+00
  0
LINE
  8
0
 62
7
 10
6.78045902E+01
 20
-3.81373770E+01
 11
6.78045902E+01
 21
-8.13737705E+00
  0
LINE
  8
0
 62
7
 10
2.28045902E+01
 20
-3.81373770E+01
 11
2.28045902E+01
 21
-8.13737705E+00
  0
LINE
  8
0
 62
7
 10
-2.21954098E+01
 20
-3.81373770E+01
 11
-2.21954098E+01
 21
-8.13737705E+00
  0
LINE
  8
0
 62
7
 10
-6.71954098E+01
 20
-3.81373770E+01
 11
-6.71954098E+01
 21
-8.13737705E+00
  0
LINE
  8
0
 62
7
 10
-1.12195410E+02
 20
-3.81373770E+01
 11
-1.12195410E+02
 21
-8.13737705E+00
  0
LINE
  8
0
 62
7
 10
-1.57195410E+02
 20
-3.81373770E+01
 11
-1.57195410E+02
 21
-8.13737705E+00
  0
LINE
  8
0
 62
7
 10
-2.02195410E+02
 20
-3.81373770E+01
 11
-2.02195410E+02
 21
-8.13737705E+00
  0
LINE
  8
0
 62
7
 10
-2.47195410E+02
 20
-3.81373770E+01
 11
-2.47195410E+02
 21
-8.13737705E+00
  0
LINE
  8
0
 62
7
 10
-2.92195410E+02
 20
-3.81373770E+01
 11
-2.92195410E+02
 21
-8.13737705E+00
  0
LINE
  8
0
 62
7
 10
-3.64195410E+02
 20
-2.31373770E+01
 11
4.27804590E+02
 21
-2.31373770E+01
  0
TEXT
  8
0
 62
7
 10
-3.58410097E+02
 20
-3.51373770E+01
 40
9.00000000E+00
  1
STRETCH
 41
1.00000000E+00
  7
MONOTXT
  0
TEXT
  8
0
 62
7
 10
-3.53910097E+02
 20
-2.01373770E+01
 40
9.00000000E+00
  1
STROKE
 41
1.00000000E+00
  7
MONOTXT
  0
LINE
  8
0
 62
7
 10
-3.64195410E+02
 20
-3.81373770E+01
 11
-3.64195410E+02
 21
-8.13737705E+00
  0
LINE
  8
0
 62
7
 10
-3.64195410E+02
 20
-3.81373770E+01
 11
4.27804590E+02
 21
-3.81373770E+01
  0
LINE
  8
0
 62
7
 10
-3.64195410E+02
 20
-8.13737705E+00
 11
4.27804590E+02
 21
-8.13737705E+00
  0
TEXT
  8
0
 62
7
 10
3.84788965E+02
 20
-2.63737705E+00
 40
9.00000000E+00
  1
(mm)
 41
1.00000000E+00
  7
MONOTXT
  0
TEXT
  8
0
 62
7
 10
-2.12110348E+01
 20
-2.63737705E+00
 40
9.00000000E+00
  1
STRETCH LIST
 41
1.05263158E+00
  7
MONOTXT
  0
LINE
  8
0
 62
7
 10
-1.29168471E+01
 20
-2.95100037E+02
 11
-7.50000076E+01
 21
-2.95100037E+02
  0
LINE
  8
0
 62
7
 10
-8.75991814E+00
 20
-2.87900024E+02
 11
-7.50000076E+01
 21
-2.87900024E+02
  0
LINE
  8
0
 62
7
 10
-7.37428102E+00
 20
-2.85500031E+02
 11
-7.50000076E+01
 21
-2.85500031E+02
  0
LINE
  8
0
 62
7
 10
5.79018969E+01
 20
-2.72500000E+02
 11
1.79999847E+01
 21
-2.72500000E+02
  0
LINE
  8
0
 62
7
 10
-4.66340641E+01
 20
-1.73499969E+02
 11
-7.49999924E+01
 21
-1.73499969E+02
  0
LINE
  8
0
 62
7
 10
-4.52484446E+01
 20
-1.71100006E+02
 11
-7.49999924E+01
 21
-1.71100006E+02
  0
LINE
  8
0
 62
7
 10
-4.10915156E+01
 20
-1.63899994E+02
 11
-7.49999924E+01
 21
-1.63899994E+02
  0
LINE
  8
0
 62
7
 10
-6.64999860E+01
 20
-1.05500031E+02
 11
-7.49999924E+01
 21
-1.05500031E+02
  0
LINE
  8
0
 62
7
 10
-6.64999860E+01
 20
-1.07899994E+02
 11
-7.49999924E+01
 21
-1.07899994E+02
  0
LINE
  8
0
 62
2
 10
-3.71999931E+02
 20
-3.11320007E+02
 11
-3.62999901E+02
 21
-3.11320007E+02
  0
LINE
  8
0
 62
7
 10
-3.71999931E+02
 20
-3.10500000E+02
 11
-3.62999901E+02
 21
-3.10500000E+02
  0
LINE
  8
0
 62
2
 10
-3.71999931E+02
 20
-1.47679962E+02
 11
-3.62999901E+02
 21
-1.47679962E+02
  0
LINE
  8
0
 62
7
 10
-3.71999931E+02
 20
-1.48499969E+02
 11
-3.62999901E+02
 21
-1.48499969E+02
  0
LINE
  8
0
 62
2
 10
-3.71999931E+02
 20
-1.31320007E+02
 11
-3.62999901E+02
 21
-1.31320007E+02
  0
LINE
  8
0
 62
7
 10
-3.71999931E+02
 20
-1.30500000E+02
 11
-3.62999901E+02
 21
-1.30500000E+02
  0
ARC
  8
0
 62
4
 10
-4.78999962E+02
 20
-3.19500000E+02
 40
1.35000000E+01
 50
0.00000000E+00
 51
1.80000000E+02
  0
LINE
  8
0
 62
4
 10
-4.78999962E+02
 20
-3.03911543E+02
 11
-4.92499962E+02
 21
-3.11705771E+02
  0
LINE
  8
0
 62
4
 10
-4.92499962E+02
 20
-3.11705771E+02
 11
-4.92499962E+02
 21
-3.19500000E+02
  0
LINE
  8
0
 62
4
 10
-4.65499962E+02
 20
-3.19500000E+02
 11
-4.65499962E+02
 21
-3.11705771E+02
  0
LINE
  8
0
 62
4
 10
-4.65499962E+02
 20
-3.11705771E+02
 11
-4.78999962E+02
 21
-3.03911543E+02
  0
LINE
  8
0
 62
4
 10
-3.81794160E+02
 20
-3.03911543E+02
 11
-3.73205703E+02
 21
-3.03911543E+02
  0
LINE
  8
0
 62
4
 10
-3.81794160E+02
 20
-3.11705771E+02
 11
-3.73205703E+02
 21
-3.11705771E+02
  0
LINE
  8
0
 62
4
 10
-3.81794160E+02
 20
-3.03911543E+02
 11
-3.82999931E+02
 21
-3.06000000E+02
  0
LINE
  8
0
 62
4
 10
-3.73205703E+02
 20
-3.03911543E+02
 11
-3.71999931E+02
 21
-3.06000000E+02
  0
ARC
  8
0
 62
4
 10
-3.76099210E+02
 20
-3.07808657E+02
 40
6.90072132E+00
 50
1.45615752E+02
 51
2.14384248E+02
  0
ARC
  8
0
 62
4
 10
-3.78900653E+02
 20
-3.07808657E+02
 40
6.90072132E+00
 50
3.25615752E+02
 51
3.43842480E+01
  0
ARC
  8
0
 62
4
 10
-3.97794160E+02
 20
-3.19500000E+02
 40
2.57942282E+01
 50
2.54444375E-13
 51
1.75879541E+01
  0
ARC
  8
0
 62
4
 10
-3.57205703E+02
 20
-3.19500000E+02
 40
2.57942282E+01
 50
1.62412046E+02
 51
1.80000000E+02
  0
LINE
  8
0
 62
4
 10
-3.82999931E+02
 20
-3.19500000E+02
 11
-3.82999931E+02
 21
-3.06000000E+02
  0
LINE
  8
0
 62
4
 10
-3.71999931E+02
 20
-3.19500000E+02
 11
-3.71999931E+02
 21
-3.06000000E+02
  0
LINE
  8
0
 62
4
 10
-3.71999931E+02
 20
-1.26000000E+02
 11
-3.71999931E+02
 21
-1.53000000E+02
  0
LINE
  8
0
 62
4
 10
-3.82999931E+02
 20
-1.26000000E+02
 11
-3.82999931E+02
 21
-1.53000000E+02
  0
LINE
  8
0
 62
4
 10
-3.71999931E+02
 20
-1.26000000E+02
 11
-3.82999931E+02
 21
-1.26000000E+02
  0
LINE
  8
0
 62
4
 10
-3.71999931E+02
 20
-1.53000000E+02
 11
-3.82999931E+02
 21
-1.53000000E+02
  0
LINE
  8
0
 62
4
 10
-3.73205703E+02
 20
-1.39500000E+02
 11
-3.81794160E+02
 21
-1.39500000E+02
  0
ARC
  8
0
 62
4
 10
-3.63503538E+02
 20
-1.46250000E+02
 40
1.94963929E+01
 50
1.59743842E+02
 51
2.00256158E+02
  0
ARC
  8
0
 62
4
 10
-3.63503538E+02
 20
-1.32750000E+02
 40
1.94963929E+01
 50
1.59743842E+02
 51
2.00256158E+02
  0
ARC
  8
0
 62
4
 10
-3.91496324E+02
 20
-1.32750000E+02
 40
1.94963929E+01
 50
3.39743842E+02
 51
2.02561580E+01
  0
ARC
  8
0
 62
4
 10
-3.91496324E+02
 20
-1.46250000E+02
 40
1.94963929E+01
 50
3.39743842E+02
 51
2.02561580E+01
  0
INSERT
  8
0
  2
PP3
  6
BYBLOCK
 62
0
 10
0.00000000E+00
 20
0.00000000E+00
 41
1.00000000E+00
 42
1.00000000E+00
 50
0.00000000E+00
  0
INSERT
  8
0
  2
PP4
  6
BYBLOCK
 62
0
 10
0.00000000E+00
 20
0.00000000E+00
 41
1.00000000E+00
 42
1.00000000E+00
 50
0.00000000E+00
  0
CIRCLE
  8
0
 62
7
 10
3.29999619E+01
 20
-2.91499939E+02
 40
3.32000017E+00
  0
CIRCLE
  8
0
 62
7
 10
8.90000992E+01
 20
-2.91499939E+02
 40
3.32000017E+00
  0
CIRCLE
  8
0
 62
2
 10
8.90000992E+01
 20
-2.91499939E+02
 40
4.00000000E+00
  0
ARC
  8
0
 62
7
 10
6.10000381E+01
 20
-3.19500000E+02
 40
1.90000000E+01
 50
0.00000000E+00
 51
1.80000000E+02
  0
ARC
  8
0
 62
7
 10
9.45000992E+01
 20
-3.06499924E+02
 40
1.00000000E+00
 50
3.59999995E+02
 51
8.99982676E+01
  0
ARC
  8
0
 62
7
 10
9.45001755E+01
 20
-3.01999939E+02
 40
3.50000000E+00
 50
1.79999991E+02
 51
2.69998990E+02
  0
ARC
  8
0
 62
7
 10
9.00222549E+01
 20
-3.00944809E+02
 40
1.00000000E+00
 50
5.67452970E+00
 51
9.61763105E+01
  0
ARC
  8
0
 62
7
 10
8.90000992E+01
 20
-2.91499969E+02
 40
8.50000000E+00
 50
1.73823329E+02
 51
2.76176459E+02
  0
ARC
  8
0
 62
7
 10
7.40000992E+01
 20
-2.85999985E+02
 40
1.00000000E+00
 50
1.72985911E-03
 51
9.00000162E+01
  0
ARC
  8
0
 62
7
 10
7.85001144E+01
 20
-2.85999878E+02
 40
3.50000000E+00
 50
1.80001006E+02
 51
2.69999984E+02
  0
ARC
  8
0
 62
7
 10
7.95552139E+01
 20
-2.90477829E+02
 40
1.00000000E+00
 50
3.53823687E+02
 51
8.43254881E+01
  0
ARC
  8
0
 62
7
 10
2.75000534E+01
 20
-3.06499924E+02
 40
1.00000000E+00
 50
9.00017511E+01
 51
1.80000019E+02
  0
ARC
  8
0
 62
7
 10
3.19778976E+01
 20
-3.00944809E+02
 40
1.00000000E+00
 50
8.38236945E+01
 51
1.74325484E+02
  0
ARC
  8
0
 62
7
 10
2.74999008E+01
 20
-3.01999939E+02
 40
3.50000000E+00
 50
2.70000995E+02
 51
1.86693353E-05
  0
ARC
  8
0
 62
7
 10
4.24448471E+01
 20
-2.90477829E+02
 40
1.00000000E+00
 50
9.56743599E+01
 51
1.86177214E+02
  0
ARC
  8
0
 62
7
 10
4.79999313E+01
 20
-2.85999985E+02
 40
1.00000000E+00
 50
9.00000437E+01
 51
1.79998229E+02
  0
ARC
  8
0
 62
7
 10
4.34999161E+01
 20
-2.85999847E+02
 40
3.50000000E+00
 50
2.69999984E+02
 51
3.59998489E+02
  0
CIRCLE
  8
0
 62
7
 10
3.29999619E+01
 20
-2.91499969E+02
 40
6.00000000E+00
  0
ARC
  8
0
 62
7
 10
2.75000534E+01
 20
-2.85999985E+02
 40
4.00000000E+00
 50
9.00000162E+01
 51
1.80000005E+02
  0
ARC
  8
0
 62
7
 10
4.11003189E+01
 20
-3.17500008E+02
 40
1.00000000E+00
 50
2.70000038E+02
 51
3.54260543E+02
  0
ARC
  8
0
 62
7
 10
2.75000534E+01
 20
-3.17500008E+02
 40
1.00000000E+00
 50
1.79999991E+02
 51
2.70000028E+02
  0
ARC
  8
0
 62
7
 10
2.75000534E+01
 20
-2.85999985E+02
 40
3.50000000E+00
 50
9.00000162E+01
 51
1.80000005E+02
  0
ARC
  8
0
 62
7
 10
3.81527481E+01
 20
-2.99481110E+02
 40
1.00000000E+00
 50
4.50000423E+01
 51
1.22846758E+02
  0
ARC
  8
0
 62
7
 10
4.09811935E+01
 20
-2.96652695E+02
 40
1.00000000E+00
 50
1.47153844E+02
 51
2.25000010E+02
  0
ARC
  8
0
 62
7
 10
4.83429794E+01
 20
-3.04014526E+02
 40
1.00000000E+00
 50
2.25000000E+02
 51
3.09261001E+02
  0
ARC
  8
0
 62
7
 10
4.55145798E+01
 20
-3.06842941E+02
 40
1.00000000E+00
 50
3.20739045E+02
 51
4.50000423E+01
  0
CIRCLE
  8
0
 62
7
 10
3.29999619E+01
 20
-2.91499969E+02
 40
6.50000048E+00
  0
CIRCLE
  8
0
 62
7
 10
8.90000992E+01
 20
-2.91499939E+02
 40
6.00000000E+00
  0
CIRCLE
  8
0
 62
2
 10
3.29999619E+01
 20
-2.91499939E+02
 40
4.00000000E+00
  0
ARC
  8
0
 62
7
 10
9.45000992E+01
 20
-2.86000000E+02
 40
4.00000000E+00
 50
2.23117997E-05
 51
8.99999750E+01
  0
ARC
  8
0
 62
7
 10
8.08998184E+01
 20
-3.17500000E+02
 40
1.00000000E+00
 50
1.85739444E+02
 51
2.69999956E+02
  0
ARC
  8
0
 62
7
 10
9.45000534E+01
 20
-3.17500000E+02
 40
1.00000000E+00
 50
2.69999956E+02
 51
3.59999992E+02
  0
ARC
  8
0
 62
7
 10
5.90000229E+01
 20
-2.85999985E+02
 40
1.00000000E+00
 50
3.59721781E-05
 51
9.00000162E+01
  0
ARC
  8
0
 62
7
 10
5.90000229E+01
 20
-2.99600250E+02
 40
1.00000000E+00
 50
2.75739515E+02
 51
3.59721781E-05
  0
ARC
  8
0
 62
7
 10
6.30000381E+01
 20
-2.86000000E+02
 40
1.00000000E+00
 50
9.00000025E+01
 51
1.80000046E+02
  0
ARC
  8
0
 62
7
 10
9.45000992E+01
 20
-2.86000000E+02
 40
3.50000000E+00
 50
2.23117997E-05
 51
8.99999750E+01
  0
ARC
  8
0
 62
7
 10
3.29999619E+01
 20
-2.91499969E+02
 40
8.50000000E+00
 50
2.63823540E+02
 51
6.17668522E+00
  0
ARC
  8
0
 62
7
 10
6.30000381E+01
 20
-2.99600250E+02
 40
1.00000000E+00
 50
1.80000036E+02
 51
2.64260549E+02
  0
ARC
  8
0
 62
7
 10
7.36570816E+01
 20
-3.04014542E+02
 40
1.00000000E+00
 50
2.30739011E+02
 51
3.15000026E+02
  0
ARC
  8
0
 62
7
 10
7.64855270E+01
 20
-3.06842972E+02
 40
1.00000000E+00
 50
1.35000014E+02
 51
2.19261011E+02
  0
ARC
  8
0
 62
7
 10
8.10189133E+01
 20
-2.96652710E+02
 40
1.00000000E+00
 50
3.15000047E+02
 51
3.28467588E+01
  0
ARC
  8
0
 62
7
 10
8.38473282E+01
 20
-2.99481140E+02
 40
1.00000000E+00
 50
5.71538311E+01
 51
1.35000014E+02
  0
CIRCLE
  8
0
 62
7
 10
8.90000992E+01
 20
-2.91499939E+02
 40
6.50000048E+00
  0
CIRCLE
  8
0
 62
7
 10
-8.20000381E+01
 20
-1.51500000E+02
 40
5.00000000E+00
  0
ARC
  8
0
 62
7
 10
-3.30499962E+02
 20
-3.01000000E+02
 40
5.00000000E-01
 50
8.99999818E+01
 51
1.79999964E+02
  0
ARC
  8
0
 62
7
 10
-1.06500008E+02
 20
-2.83049927E+02
 40
5.00000000E-01
 50
9.10002768E+01
 51
1.80000019E+02
  0
ARC
  8
0
 62
7
 10
-3.39749962E+02
 20
-3.02491440E+02
 40
2.50000000E-01
 50
9.19988230E+01
 51
1.79999977E+02
  0
ARC
  8
0
 62
7
 10
-3.44499962E+02
 20
-3.03000015E+02
 40
5.00000000E-01
 50
8.99999818E+01
 51
1.79999964E+02
  0
CIRCLE
  8
0
 62
7
 10
-8.20000381E+01
 20
-1.51500000E+02
 40
2.59999990E+00
  0
ARC
  8
0
 62
2
 10
-8.90000687E+01
 20
-1.31500000E+02
 40
8.32999992E+00
 50
6.88903471E+01
 51
5.35366168E+01
  0
ARC
  8
0
 62
7
 10
-4.78999962E+02
 20
-3.19500000E+02
 40
1.70000000E+01
 50
0.00000000E+00
 51
1.80000000E+02
  0
ARC
  8
0
 62
7
 10
-4.78999962E+02
 20
-3.19500000E+02
 40
1.90000000E+01
 50
0.00000000E+00
 51
1.80000000E+02
  0
ARC
  8
0
 62
7
 10
-4.78999962E+02
 20
-3.19500000E+02
 40
1.75294495E+01
 50
0.00000000E+00
 51
1.80000000E+02
  0
ARC
  8
0
 62
7
 10
-1.00999992E+02
 20
-1.62500031E+02
 40
2.00000000E+00
 50
1.79999977E+02
 51
2.70000028E+02
  0
ARC
  8
0
 62
7
 10
-1.00999992E+02
 20
-1.16500000E+02
 40
2.00000000E+00
 50
8.99999818E+01
 51
1.79999964E+02
  0
ARC
  8
0
 62
7
 10
-8.90000687E+01
 20
-1.31500000E+02
 40
7.44000006E+00
 50
6.62193095E+01
 51
6.42163030E+01
  0
ARC
  8
0
 62
7
 10
-8.90000687E+01
 20
-1.31500000E+02
 40
8.71000004E+00
 50
6.98523129E+01
 51
5.02775825E+01
  0
ARC
  8
0
 62
7
 10
-3.30499962E+02
 20
-1.21000031E+02
 40
5.00000000E-01
 50
8.99999818E+01
 51
1.79999964E+02
  0
ARC
  8
0
 62
7
 10
-1.06500008E+02
 20
-1.03049927E+02
 40
5.00000000E-01
 50
9.10002223E+01
 51
1.79999964E+02
  0
ARC
  8
0
 62
7
 10
-3.39749962E+02
 20
-1.22491486E+02
 40
2.50000000E-01
 50
9.19988230E+01
 51
1.79999977E+02
  0
ARC
  8
0
 62
7
 10
-3.44499962E+02
 20
-1.23000061E+02
 40
5.00000000E-01
 50
8.99999818E+01
 51
1.79999964E+02
  0
ARC
  8
0
 62
7
 10
-3.30499962E+02
 20
-1.58000031E+02
 40
5.00000000E-01
 50
1.79999977E+02
 51
2.69999974E+02
  0
ARC
  8
0
 62
7
 10
-1.06500008E+02
 20
-1.75950073E+02
 40
5.00000000E-01
 50
1.79999977E+02
 51
2.68999706E+02
  0
ARC
  8
0
 62
7
 10
-3.39749962E+02
 20
-1.56508545E+02
 40
2.50000000E-01
 50
1.79999977E+02
 51
2.68001132E+02
  0
ARC
  8
0
 62
7
 10
-3.44499962E+02
 20
-1.55999969E+02
 40
5.00000000E-01
 50
1.79999977E+02
 51
2.69999974E+02
  0
ARC
  8
0
 62
7
 10
-3.61499931E+02
 20
-3.19500000E+02
 40
9.99998474E+00
 50
0.00000000E+00
 51
3.17883527E+01
  0
ARC
  8
0
 62
2
 10
-4.78999962E+02
 20
-3.19500000E+02
 40
8.18000031E+00
 50
0.00000000E+00
 51
1.80000000E+02
  0
ARC
  8
0
 62
7
 10
-4.78999962E+02
 20
-3.19500000E+02
 40
8.99999237E+00
 50
0.00000000E+00
 51
1.80000000E+02
  0
ARC
  8
0
 62
7
 10
1.28408508E+01
 20
-3.16500008E+02
 40
6.84084702E+00
 50
1.53989224E+02
 51
2.06010882E+02
  0
ARC
  8
0
 62
7
 10
1.09159096E+02
 20
-3.16500008E+02
 40
6.84084702E+00
 50
3.33989192E+02
 51
2.60108493E+01
  0
ARC
  8
0
 62
7
 10
1.04000023E+02
 20
-2.76500015E+02
 40
4.00000000E+00
 50
5.46415133E-05
 51
9.00000369E+01
  0
ARC
  8
0
 62
7
 10
1.79999847E+01
 20
-2.76500015E+02
 40
4.00000000E+00
 50
9.00000369E+01
 51
1.80000019E+02
  0
ARC
  8
0
 62
2
 10
-2.31000114E+02
 20
-2.34188110E+02
 40
4.10486031E+01
 50
2.55900397E+02
 51
2.84100151E+02
  0
ARC
  8
0
 62
2
 10
-2.31000114E+02
 20
-2.34188110E+02
 40
4.34998131E+01
 50
2.53986865E+02
 51
2.86013643E+02
  0
ARC
  8
0
 62
7
 10
-1.82999931E+02
 20
-3.19500000E+02
 40
8.00000000E+00
 50
0.00000000E+00
 51
1.80000000E+02
  0
ARC
  8
0
 62
7
 10
-1.82999931E+02
 20
-3.19500000E+02
 40
3.30000043E+00
 50
0.00000000E+00
 51
1.80000000E+02
  0
ARC
  8
0
 62
7
 10
-1.82999931E+02
 20
-3.19500000E+02
 40
4.00000000E+00
 50
0.00000000E+00
 51
1.80000000E+02
  0
CIRCLE
  8
0
 62
2
 10
-5.13999840E+02
 20
-2.84500046E+02
 40
5.00000000E+00
  0
CIRCLE
  8
0
 62
7
 10
-5.13999840E+02
 20
-2.84500046E+02
 40
8.25002575E+00
  0
CIRCLE
  8
0
 62
7
 10
-5.13999840E+02
 20
-2.84500046E+02
 40
8.00002670E+00
  0
CIRCLE
  8
0
 62
7
 10
-4.43999962E+02
 20
-2.84500046E+02
 40
4.18000031E+00
  0
CIRCLE
  8
0
 62
2
 10
-4.43999962E+02
 20
-2.84500046E+02
 40
5.00000000E+00
  0
CIRCLE
  8
0
 62
7
 10
-4.43999962E+02
 20
-2.84500046E+02
 40
8.25002575E+00
  0
CIRCLE
  8
0
 62
7
 10
-4.43999962E+02
 20
-2.84500046E+02
 40
8.00002670E+00
  0
CIRCLE
  8
0
 62
7
 10
-5.13999840E+02
 20
-2.84500046E+02
 40
4.18000031E+00
  0
ARC
  8
0
 62
7
 10
-4.35999901E+02
 20
-2.76500015E+02
 40
4.00000000E+00
 50
0.00000000E+00
 51
8.99999818E+01
  0
ARC
  8
0
 62
7
 10
-5.21999901E+02
 20
-2.76500015E+02
 40
4.00000000E+00
 50
8.99999818E+01
 51
1.79999964E+02
  0
CIRCLE
  8
0
 62
2
 10
-2.30999962E+02
 20
-1.39500000E+02
 40
1.19999990E+01
  0
CIRCLE
  8
0
 62
7
 10
-2.30999962E+02
 20
-1.39500000E+02
 40
9.99999905E+00
  0
CIRCLE
  8
0
 62
7
 10
-1.54999947E+02
 20
-1.24500000E+02
 40
5.72249985E+00
  0
CIRCLE
  8
0
 62
7
 10
-1.54999947E+02
 20
-1.24500000E+02
 40
6.57850027E+00
  0
CIRCLE
  8
0
 62
7
 10
-2.30999962E+02
 20
-1.39500000E+02
 40
5.72249985E+00
  0
CIRCLE
  8
0
 62
2
 10
-2.30999962E+02
 20
-1.39500000E+02
 40
6.57850027E+00
  0
ARC
  8
0
 62
7
 10
-1.83000008E+02
 20
-1.85438873E+02
 40
9.06113529E+00
 50
2.47449028E+02
 51
2.92550939E+02
  0
ARC
  8
0
 62
7
 10
-1.88212486E+02
 20
-1.91974869E+02
 40
2.52511263E+00
 50
2.53478118E+02
 51
3.13478987E+02
  0
ARC
  8
0
 62
7
 10
-1.77787529E+02
 20
-1.91974869E+02
 40
2.52511263E+00
 50
2.26520973E+02
 51
2.86521856E+02
  0
ARC
  8
0
 62
7
 10
-1.88212486E+02
 20
-8.70251465E+01
 40
2.52511263E+00
 50
4.65210195E+01
 51
1.06521882E+02
  0
ARC
  8
0
 62
7
 10
-1.77787529E+02
 20
-8.70251465E+01
 40
2.52511263E+00
 50
7.34781439E+01
 51
1.33479026E+02
  0
ARC
  8
0
 62
7
 10
-1.83000008E+02
 20
-9.35612183E+01
 40
9.06113529E+00
 50
6.74490609E+01
 51
1.12550972E+02
  0
ARC
  8
0
 62
7
 10
-2.84212395E+02
 20
-8.70251465E+01
 40
2.52511263E+00
 50
4.65209375E+01
 51
1.06521820E+02
  0
ARC
  8
0
 62
7
 10
-2.73787437E+02
 20
-8.70251465E+01
 40
2.52511263E+00
 50
7.34780821E+01
 51
1.33478944E+02
  0
ARC
  8
0
 62
7
 10
-2.78999870E+02
 20
-1.85438873E+02
 40
9.06113529E+00
 50
2.47449035E+02
 51
2.92550946E+02
  0
ARC
  8
0
 62
7
 10
-2.73787437E+02
 20
-1.91974869E+02
 40
2.52511263E+00
 50
2.26520987E+02
 51
2.86521856E+02
  0
ARC
  8
0
 62
7
 10
-2.84212395E+02
 20
-1.91974869E+02
 40
2.52511263E+00
 50
2.53478125E+02
 51
3.13479008E+02
  0
ARC
  8
0
 62
7
 10
-2.78999870E+02
 20
-9.35612183E+01
 40
9.06113529E+00
 50
6.74489921E+01
 51
1.12550903E+02
  0
CIRCLE
  8
0
 62
7
 10
-3.06999992E+02
 20
-1.24500000E+02
 40
5.72249985E+00
  0
CIRCLE
  8
0
 62
7
 10
-3.06999992E+02
 20
-1.24500000E+02
 40
6.57850027E+00
  0
ARC
  8
0
 62
7
 10
-2.78999962E+02
 20
-3.19500000E+02
 40
3.30000043E+00
 50
0.00000000E+00
 51
1.80000000E+02
  0
ARC
  8
0
 62
7
 10
-2.78999962E+02
 20
-3.19500000E+02
 40
8.00000000E+00
 50
0.00000000E+00
 51
1.80000000E+02
  0
ARC
  8
0
 62
7
 10
-2.78999962E+02
 20
-3.19500000E+02
 40
4.00000000E+00
 50
0.00000000E+00
 51
1.80000000E+02
  0
ARC
  8
0
 62
7
 10
-5.27159019E+02
 20
-3.16500046E+02
 40
6.84084702E+00
 50
1.53989169E+02
 51
2.06010827E+02
  0
ARC
  8
0
 62
7
 10
-4.30840752E+02
 20
-3.16500046E+02
 40
6.84084702E+00
 50
3.33989137E+02
 51
2.60107913E+01
  0
LINE
  8
0
 62
7
 10
3.29999683E+01
 20
-2.86881119E+02
 11
3.69999706E+01
 21
-2.89190522E+02
  0
LINE
  8
0
 62
7
 10
3.69999619E+01
 20
-2.89190536E+02
 11
3.69999619E+01
 21
-2.93809326E+02
  0
LINE
  8
0
 62
7
 10
3.69999579E+01
 20
-2.93809334E+02
 11
3.29999555E+01
 21
-2.96118737E+02
  0
LINE
  8
0
 62
7
 10
3.29999630E+01
 20
-2.96118738E+02
 11
2.89999607E+01
 21
-2.93809336E+02
  0
LINE
  8
0
 62
7
 10
2.89999619E+01
 20
-2.89190536E+02
 11
2.89999619E+01
 21
-2.93809326E+02
  0
LINE
  8
0
 62
7
 10
3.29999617E+01
 20
-2.86881138E+02
 11
2.89999594E+01
 21
-2.89190540E+02
  0
LINE
  8
0
 62
7
 10
8.50000992E+01
 20
-2.89190536E+02
 11
8.50000992E+01
 21
-2.93809326E+02
  0
LINE
  8
0
 62
7
 10
8.90000960E+01
 20
-2.86881130E+02
 11
8.50000937E+01
 21
-2.89190532E+02
  0
LINE
  8
0
  6
CENTER
 62
2
 10
4.36305771E+01
 20
-2.91499939E+02
 11
2.10976181E+01
 21
-2.91499939E+02
  0
LINE
  8
0
 62
7
 10
3.09998398E+01
 20
-3.01999939E+02
 11
3.09998398E+01
 21
-3.00736206E+02
  0
LINE
  8
0
 62
7
 10
4.34999161E+01
 20
-2.89499756E+02
 11
4.22364883E+01
 21
-2.89499756E+02
  0
LINE
  8
0
 62
7
 10
9.10002975E+01
 20
-3.01999939E+02
 11
9.10002975E+01
 21
-3.00736343E+02
  0
LINE
  8
0
 62
7
 10
7.85001144E+01
 20
-2.89499786E+02
 11
7.97636490E+01
 21
-2.89499786E+02
  0
LINE
  8
0
 62
7
 10
3.60000381E+01
 20
-2.81999969E+02
 11
3.60000381E+01
 21
-2.82499969E+02
  0
LINE
  8
0
 62
7
 10
8.60000381E+01
 20
-2.81999969E+02
 11
8.60000381E+01
 21
-2.82499969E+02
  0
LINE
  8
0
  6
CENTER
 62
2
 10
1.01045128E+02
 20
-2.91499939E+02
 11
7.88940506E+01
 21
-2.91499939E+02
  0
LINE
  8
0
  6
CENTER
 62
2
 10
6.90000229E+01
 20
-2.79814713E+02
 11
6.90000229E+01
 21
-2.91699982E+02
  0
LINE
  8
0
 62
7
 10
2.40000229E+01
 20
-3.19500000E+02
 11
2.40000229E+01
 21
-2.85999985E+02
  0
LINE
  8
0
  6
CENTER
 62
2
 10
3.29999619E+01
 20
-2.79814713E+02
 11
3.29999619E+01
 21
-3.02729599E+02
  0
LINE
  8
0
 62
7
 10
2.35000381E+01
 20
-3.19500000E+02
 11
2.35000381E+01
 21
-2.85999985E+02
  0
LINE
  8
0
 62
7
 10
2.75000534E+01
 20
-3.18500015E+02
 11
4.11003189E+01
 21
-3.18500015E+02
  0
LINE
  8
0
 62
7
 10
2.65000229E+01
 20
-3.19500000E+02
 11
2.65000229E+01
 21
-3.06499924E+02
  0
LINE
  8
0
 62
7
 10
2.75000534E+01
 20
-2.82499969E+02
 11
9.45000992E+01
 21
-2.82499969E+02
  0
LINE
  8
0
 62
7
 10
4.62219068E+01
 20
-3.06135596E+02
 11
3.88600574E+01
 21
-2.98773750E+02
  0
LINE
  8
0
 62
7
 10
4.76361201E+01
 20
-3.04721382E+02
 11
4.02742977E+01
 21
-2.97359563E+02
  0
LINE
  8
0
 62
7
 10
-3.59999926E+02
 20
-3.16377570E+02
 11
-3.56999938E+02
 21
-3.14232473E+02
  0
LINE
  8
0
  6
DASHED
 62
7
 10
5.40001450E+01
 20
-2.82499863E+02
 11
4.40000687E+01
 21
-2.82499863E+02
  0
LINE
  8
0
 62
7
 10
9.30000992E+01
 20
-2.89190536E+02
 11
9.30000992E+01
 21
-2.93809326E+02
  0
LINE
  8
0
 62
7
 10
8.90001059E+01
 20
-2.86881129E+02
 11
9.30001016E+01
 21
-2.89190528E+02
  0
LINE
  8
0
 62
7
 10
8.90001016E+01
 20
-2.96118731E+02
 11
8.50001059E+01
 21
-2.93809332E+02
  0
LINE
  8
0
 62
7
 10
9.30000950E+01
 20
-2.93809331E+02
 11
8.90000927E+01
 21
-2.96118734E+02
  0
LINE
  8
0
  6
CENTER
 62
2
 10
-8.20000381E+01
 20
-1.45088867E+02
 11
-8.20000381E+01
 21
-1.58565613E+02
  0
LINE
  8
0
  6
CENTER
 62
2
 10
-8.86657639E+01
 20
-1.51500000E+02
 11
-7.58370132E+01
 21
-1.51500000E+02
  0
LINE
  8
0
 62
7
 10
-8.02679390E+01
 20
-1.51500088E+02
 11
-8.11339781E+01
 21
-1.53000121E+02
  0
LINE
  8
0
 62
7
 10
-8.11340256E+01
 20
-1.53000031E+02
 11
-8.28660965E+01
 21
-1.53000031E+02
  0
LINE
  8
0
 62
7
 10
-8.28659849E+01
 20
-1.53000051E+02
 11
-8.37320240E+01
 21
-1.51500018E+02
  0
LINE
  8
0
  6
CENTER
 62
2
 10
-1.08383562E+01
 20
-2.91499985E+02
 11
-1.10248100E+02
 21
-2.91499985E+02
  0
LINE
  8
0
 62
7
 10
-1.03000008E+02
 20
-2.82488785E+02
 11
-1.03000008E+02
 21
-2.82000000E+02
  0
LINE
  8
0
 62
7
 10
-3.39758627E+02
 20
-3.02241518E+02
 11
-3.30999928E+02
 21
-3.01970579E+02
  0
LINE
  8
0
 62
7
 10
-3.39999962E+02
 20
-3.02499985E+02
 11
-3.39999962E+02
 21
-3.02491440E+02
  0
LINE
  8
0
 62
7
 10
-3.44499962E+02
 20
-3.02499985E+02
 11
-3.39991417E+02
 21
-3.02499985E+02
  0
LINE
  8
0
 62
7
 10
-3.30499962E+02
 20
-3.00500000E+02
 11
-3.28999962E+02
 21
-3.00500000E+02
  0
LINE
  8
0
 62
7
 10
-1.03000008E+02
 20
-2.82000000E+02
 11
-7.50000076E+01
 21
-2.82000000E+02
  0
LINE
  8
0
 62
7
 10
-1.06508735E+02
 20
-2.82550050E+02
 11
-7.50000373E+01
 21
-2.82000064E+02
  0
LINE
  8
0
  6
CENTER
 62
2
 10
-4.31699977E+01
 20
-1.67500031E+02
 11
-1.10248085E+02
 21
-1.67500031E+02
  0
LINE
  8
0
 62
7
 10
-7.37428103E+00
 20
-1.05500031E+02
 11
-5.14999860E+01
 21
-1.05500031E+02
  0
LINE
  8
0
 62
7
 10
-8.75990054E+00
 20
-1.07899994E+02
 11
-5.14999860E+01
 21
-1.07899994E+02
  0
LINE
  8
0
 62
7
 10
-1.29168295E+01
 20
-1.15100006E+02
 11
-3.21507649E+01
 21
-1.15100006E+02
  0
LINE
  8
0
  6
CENTER
 62
2
 10
-1.08383474E+01
 20
-1.11499969E+02
 11
-5.14999860E+01
 21
-1.11499969E+02
  0
LINE
  8
0
 62
7
 10
-7.50000076E+01
 20
-2.82000000E+02
 11
-7.50000076E+01
 21
-3.19500000E+02
  0
LINE
  8
0
 62
7
 10
-8.37319296E+01
 20
-1.51500149E+02
 11
-8.28659057E+01
 21
-1.50000142E+02
  0
LINE
  8
0
 62
7
 10
-3.39999962E+02
 20
-3.19500000E+02
 11
-3.39999962E+02
 21
-3.02499985E+02
  0
LINE
  8
0
 62
7
 10
-3.30999962E+02
 20
-3.01000000E+02
 11
-3.30999962E+02
 21
-3.19500000E+02
  0
LINE
  8
0
 62
7
 10
-3.44999962E+02
 20
-3.19500000E+02
 11
-3.44999962E+02
 21
-3.03000015E+02
  0
LINE
  8
0
 62
7
 10
-1.03000008E+02
 20
-1.16500000E+02
 11
-1.03000008E+02
 21
-1.62500000E+02
  0
LINE
  8
0
 62
7
 10
-1.00999992E+02
 20
-1.64500031E+02
 11
-7.49999924E+01
 21
-1.64500031E+02
  0
LINE
  8
0
 62
7
 10
-1.00999992E+02
 20
-1.14500000E+02
 11
-8.59999860E+01
 21
-1.14500000E+02
  0
LINE
  8
0
 62
7
 10
-3.39999962E+02
 20
-1.22500000E+02
 11
-3.39999962E+02
 21
-1.56500031E+02
  0
LINE
  8
0
 62
7
 10
-3.30999962E+02
 20
-1.58000031E+02
 11
-3.30999962E+02
 21
-1.21000000E+02
  0
LINE
  8
0
 62
7
 10
-1.06508733E+02
 20
-1.02549994E+02
 11
-7.50000126E+01
 21
-1.02000007E+02
  0
LINE
  8
0
 62
7
 10
-7.49999924E+01
 20
-1.76999969E+02
 11
-7.49999924E+01
 21
-1.24437056E+02
  0
LINE
  8
0
 62
7
 10
-3.39758690E+02
 20
-1.22241374E+02
 11
-3.31000022E+02
 21
-1.21970436E+02
  0
LINE
  8
0
 62
7
 10
-3.39999962E+02
 20
-1.22500000E+02
 11
-3.39999962E+02
 21
-1.22491455E+02
  0
LINE
  8
0
 62
7
 10
-3.44499962E+02
 20
-1.22500031E+02
 11
-3.39991417E+02
 21
-1.22500031E+02
  0
LINE
  8
0
 62
7
 10
-3.30499962E+02
 20
-1.20500000E+02
 11
-3.28999962E+02
 21
-1.20500000E+02
  0
LINE
  8
0
 62
7
 10
-3.44999962E+02
 20
-1.56000000E+02
 11
-3.44999962E+02
 21
-1.23000031E+02
  0
LINE
  8
0
 62
7
 10
-1.06508758E+02
 20
-1.76449926E+02
 11
-7.50000536E+01
 21
-1.76999913E+02
  0
LINE
  8
0
 62
7
 10
-3.39758738E+02
 20
-1.56758485E+02
 11
-3.31000039E+02
 21
-1.57029424E+02
  0
LINE
  8
0
 62
7
 10
-3.39999962E+02
 20
-1.56500031E+02
 11
-3.39999962E+02
 21
-1.56508575E+02
  0
LINE
  8
0
 62
7
 10
-3.44499962E+02
 20
-1.56500000E+02
 11
-3.39991417E+02
 21
-1.56500000E+02
  0
LINE
  8
0
 62
7
 10
-3.30499962E+02
 20
-1.58500031E+02
 11
-3.28999962E+02
 21
-1.58500031E+02
  0
LINE
  8
0
 62
7
 10
-8.02679642E+01
 20
-1.51500092E+02
 11
-8.11339882E+01
 21
-1.50000085E+02
  0
LINE
  8
0
 62
7
 10
-8.11340256E+01
 20
-1.50000000E+02
 11
-8.28660965E+01
 21
-1.50000000E+02
  0
LINE
  8
0
  6
CENTER
 62
2
 10
-8.90000687E+01
 20
-1.41500031E+02
 11
-8.90000687E+01
 21
-1.20953735E+02
  0
LINE
  8
0
  6
CENTER
 62
2
 10
-9.93648605E+01
 20
-1.31500000E+02
 11
-7.77606888E+01
 21
-1.31500000E+02
  0
LINE
  8
0
  6
CENTER
 62
2
 10
-8.90000687E+01
 20
-2.79814941E+02
 11
-8.90000687E+01
 21
-2.91700226E+02
  0
LINE
  8
0
 62
7
 10
-3.62999901E+02
 20
-3.11320007E+02
 11
-3.59999931E+02
 21
-3.11320007E+02
  0
LINE
  8
0
 62
7
 10
-3.48000122E+02
 20
-1.30999830E+02
 11
-3.46500099E+02
 21
-1.29499807E+02
  0
LINE
  8
0
 62
7
 10
-3.48000062E+02
 20
-1.47999904E+02
 11
-3.46500092E+02
 21
-1.49499873E+02
  0
LINE
  8
0
 62
7
 10
-3.59999931E+02
 20
-1.30999969E+02
 11
-3.47999992E+02
 21
-1.30999969E+02
  0
LINE
  8
0
 62
7
 10
-3.59999931E+02
 20
-1.48000000E+02
 11
-3.47999992E+02
 21
-1.48000000E+02
  0
LINE
  8
0
 62
7
 10
-3.59999931E+02
 20
-1.48000000E+02
 11
-3.59999931E+02
 21
-1.31000000E+02
  0
LINE
  8
0
 62
7
 10
-3.62999901E+02
 20
-1.31320007E+02
 11
-3.59999931E+02
 21
-1.31320007E+02
  0
LINE
  8
0
 62
7
 10
-3.62999901E+02
 20
-1.47679962E+02
 11
-3.59999931E+02
 21
-1.47679962E+02
  0
LINE
  8
0
 62
7
 10
-3.91999964E+02
 20
-1.46999873E+02
 11
-3.90499950E+02
 21
-1.48499841E+02
  0
LINE
  8
0
 62
2
 10
-3.91319878E+02
 20
-1.47679962E+02
 11
-3.82999931E+02
 21
-1.47679962E+02
  0
LINE
  8
0
 62
7
 10
-3.90499870E+02
 20
-1.48499969E+02
 11
-3.82999931E+02
 21
-1.48499969E+02
  0
LINE
  8
0
 62
7
 10
-3.91999794E+02
 20
-1.32000157E+02
 11
-3.90499759E+02
 21
-1.30500167E+02
  0
LINE
  8
0
 62
2
 10
-3.91319878E+02
 20
-1.31320007E+02
 11
-3.82999931E+02
 21
-1.31320007E+02
  0
LINE
  8
0
 62
7
 10
-3.90499870E+02
 20
-1.30500000E+02
 11
-3.82999931E+02
 21
-1.30500000E+02
  0
LINE
  8
0
 62
7
 10
-3.90499901E+02
 20
-1.48500000E+02
 11
-3.90499901E+02
 21
-1.30500000E+02
  0
LINE
  8
0
 62
7
 10
-3.91999931E+02
 20
-1.46999969E+02
 11
-3.91999931E+02
 21
-1.32000153E+02
  0
LINE
  8
0
 62
7
 10
-3.62999901E+02
 20
-1.48500000E+02
 11
-3.62999901E+02
 21
-1.30500000E+02
  0
LINE
  8
0
 62
7
 10
-3.46499931E+02
 20
-1.29499969E+02
 11
-3.44999962E+02
 21
-1.29499969E+02
  0
LINE
  8
0
 62
7
 10
-3.46499962E+02
 20
-1.49499969E+02
 11
-3.44999992E+02
 21
-1.49499969E+02
  0
LINE
  8
0
 62
7
 10
-3.56999931E+02
 20
-1.31000000E+02
 11
-3.56999931E+02
 21
-1.48000000E+02
  0
LINE
  8
0
 62
7
 10
-3.52999992E+02
 20
-3.14232132E+02
 11
-3.52999992E+02
 21
-3.19499992E+02
  0
LINE
  8
0
 62
7
 10
-3.56999931E+02
 20
-3.09499954E+02
 11
-3.56999931E+02
 21
-3.14232132E+02
  0
LINE
  8
0
 62
2
 10
-3.56499762E+02
 20
-3.19500000E+02
 11
-3.52999799E+02
 21
-3.14232192E+02
  0
LINE
  8
0
 62
2
 10
-3.59033539E+02
 20
-3.15686579E+02
 11
-3.56499880E+02
 21
-3.19500000E+02
  0
LINE
  8
0
 62
7
 10
-3.59999901E+02
 20
-3.10500015E+02
 11
-3.56999912E+02
 21
-3.09500031E+02
  0
LINE
  8
0
 62
7
 10
-3.57000053E+02
 20
-3.14232147E+02
 11
-3.52999992E+02
 21
-3.14232147E+02
  0
LINE
  8
0
 62
7
 10
-3.59999931E+02
 20
-3.10500000E+02
 11
-3.59999931E+02
 21
-3.19500000E+02
  0
LINE
  8
0
 62
7
 10
7.43642797E+01
 20
-3.04721891E+02
 11
8.17261275E+01
 21
-2.97360044E+02
  0
LINE
  8
0
 62
7
 10
9.80000992E+01
 20
-2.85999999E+02
 11
9.80000992E+01
 21
-3.19500000E+02
  0
LINE
  8
0
 62
7
 10
4.79999313E+01
 20
-2.84999969E+02
 11
7.40000992E+01
 21
-2.84999969E+02
  0
LINE
  8
0
 62
7
 10
6.20000534E+01
 20
-2.86000000E+02
 11
6.20000534E+01
 21
-2.99600250E+02
  0
LINE
  8
0
 62
7
 10
7.57784905E+01
 20
-3.06136037E+02
 11
8.31403384E+01
 21
-2.98774190E+02
  0
LINE
  8
0
 62
7
 10
6.00000534E+01
 20
-2.85999985E+02
 11
6.00000534E+01
 21
-2.99600250E+02
  0
LINE
  8
0
 62
7
 10
9.55001144E+01
 20
-3.19500000E+02
 11
9.55001144E+01
 21
-3.06499924E+02
  0
LINE
  8
0
 62
7
 10
9.45000229E+01
 20
-3.18500031E+02
 11
8.08998184E+01
 21
-3.18500031E+02
  0
LINE
  8
0
 62
7
 10
2.75000534E+01
 20
-2.81999969E+02
 11
9.45000992E+01
 21
-2.81999969E+02
  0
LINE
  8
0
 62
7
 10
9.85000992E+01
 20
-2.85999999E+02
 11
9.85000992E+01
 21
-3.19500000E+02
  0
LINE
  8
0
 62
7
 10
-3.91999829E+02
 20
-3.12000191E+02
 11
-3.90499783E+02
 21
-3.10500191E+02
  0
LINE
  8
0
 62
2
 10
-3.91319878E+02
 20
-3.11320007E+02
 11
-3.82999931E+02
 21
-3.11320007E+02
  0
LINE
  8
0
 62
7
 10
-3.90499870E+02
 20
-3.10500000E+02
 11
-3.82999931E+02
 21
-3.10500000E+02
  0
LINE
  8
0
 62
7
 10
-3.90499901E+02
 20
-3.19500000E+02
 11
-3.90499901E+02
 21
-3.10499985E+02
  0
LINE
  8
0
 62
7
 10
-3.91999931E+02
 20
-3.19500000E+02
 11
-3.91999931E+02
 21
-3.12000153E+02
  0
LINE
  8
0
 62
7
 10
-3.57000053E+02
 20
-3.09500015E+02
 11
-3.44999992E+02
 21
-3.09500015E+02
  0
LINE
  8
0
 62
7
 10
-3.62999901E+02
 20
-3.19500000E+02
 11
-3.62999901E+02
 21
-3.10499985E+02
  0
LINE
  8
0
  6
CENTER
 62
2
 10
8.90000992E+01
 20
-3.02729599E+02
 11
8.90000992E+01
 21
-2.79942017E+02
  0
LINE
  8
0
 62
7
 10
5.10000381E+01
 20
-2.67000000E+02
 11
5.95378568E+01
 21
-2.67000000E+02
  0
LINE
  8
0
 62
7
 10
-2.40999962E+02
 20
-2.67000000E+02
 11
-2.20999962E+02
 21
-2.67000000E+02
  0
LINE
  8
0
 62
7
 10
-4.88999962E+02
 20
-2.67000000E+02
 11
-4.68999962E+02
 21
-2.67000000E+02
  0
LINE
  8
0
  6
CENTER
 62
2
 10
1.20957314E+02
 20
-3.19500000E+02
 11
6.13815308E-01
 21
-3.19500000E+02
  0
LINE
  8
0
  6
CENTER
 62
2
 10
6.10000381E+01
 20
-2.61374588E+02
 11
6.10000381E+01
 21
-3.19500000E+02
  0
LINE
  8
0
 62
7
 10
1.39999695E+01
 20
-2.76500015E+02
 11
1.39999695E+01
 21
-3.19500000E+02
  0
LINE
  8
0
 62
7
 10
1.25000305E+01
 20
-3.13500015E+02
 11
6.00003052E+00
 21
-3.13500015E+02
  0
LINE
  8
0
 62
7
 10
1.25000305E+01
 20
-3.19500000E+02
 11
6.69284058E+00
 21
-3.19500000E+02
  0
LINE
  8
0
 62
7
 10
3.99998832E+00
 20
-3.16199976E+02
 11
4.70001706E+00
 21
-3.15499947E+02
  0
LINE
  8
0
 62
7
 10
4.69998169E+00
 20
-3.19500000E+02
 11
4.69998169E+00
 21
-3.15499985E+02
  0
LINE
  8
0
 62
2
 10
5.99997711E+00
 20
-3.16200020E+02
 11
4.00009918E+00
 21
-3.16200020E+02
  0
LINE
  8
0
 62
7
 10
5.99997711E+00
 20
-3.15500023E+02
 11
4.70011902E+00
 21
-3.15500023E+02
  0
LINE
  8
0
 62
7
 10
5.99997711E+00
 20
-3.19500000E+02
 11
5.99997711E+00
 21
-3.13500015E+02
  0
LINE
  8
0
 62
7
 10
4.00004578E+00
 20
-3.19500000E+02
 11
4.00004578E+00
 21
-3.16200020E+02
  0
LINE
  8
0
 62
7
 10
1.39999695E+01
 20
-3.11500046E+02
 11
1.25000305E+01
 21
-3.11500046E+02
  0
LINE
  8
0
 62
7
 10
1.24999161E+01
 20
-3.19500000E+02
 11
1.24999161E+01
 21
-3.11500008E+02
  0
LINE
  8
0
 62
7
 10
1.08000038E+02
 20
-2.76500015E+02
 11
1.08000038E+02
 21
-3.19500000E+02
  0
LINE
  8
0
 62
7
 10
1.17999864E+02
 20
-3.16200300E+02
 11
1.17299809E+02
 21
-3.15500245E+02
  0
LINE
  8
0
 62
7
 10
1.17300087E+02
 20
-3.19500000E+02
 11
1.17300087E+02
 21
-3.15499985E+02
  0
LINE
  8
0
 62
2
 10
1.16000038E+02
 20
-3.16200020E+02
 11
1.18000038E+02
 21
-3.16200020E+02
  0
LINE
  8
0
 62
7
 10
1.16000038E+02
 20
-3.15500023E+02
 11
1.17300087E+02
 21
-3.15500023E+02
  0
LINE
  8
0
 62
7
 10
1.18000114E+02
 20
-3.19500000E+02
 11
1.18000114E+02
 21
-3.16200020E+02
  0
LINE
  8
0
 62
7
 10
1.16000038E+02
 20
-3.19500000E+02
 11
1.16000038E+02
 21
-3.13500015E+02
  0
LINE
  8
0
 62
7
 10
1.09499977E+02
 20
-3.19500000E+02
 11
1.15307167E+02
 21
-3.19500000E+02
  0
LINE
  8
0
 62
7
 10
1.09499977E+02
 20
-3.13500015E+02
 11
1.16000038E+02
 21
-3.13500015E+02
  0
LINE
  8
0
 62
7
 10
1.08000038E+02
 20
-3.11500046E+02
 11
1.09499977E+02
 21
-3.11500046E+02
  0
LINE
  8
0
 62
7
 10
1.09499901E+02
 20
-3.19500000E+02
 11
1.09499901E+02
 21
-3.11500008E+02
  0
LINE
  8
0
 62
7
 10
1.04000038E+02
 20
-2.72500000E+02
 11
8.62411472E+01
 21
-2.72500000E+02
  0
LINE
  8
0
 62
7
 10
-1.06999992E+02
 20
-2.72500000E+02
 11
-1.06999992E+02
 21
-3.19500000E+02
  0
LINE
  8
0
 62
7
 10
-4.68999962E+02
 20
-2.67000046E+02
 11
-4.68999962E+02
 21
-2.72500000E+02
  0
LINE
  8
0
 62
7
 10
-4.88999962E+02
 20
-2.67000046E+02
 11
-4.88999962E+02
 21
-2.72500000E+02
  0
LINE
  8
0
 62
7
 10
-4.87999901E+02
 20
-2.66000015E+02
 11
-4.69999901E+02
 21
-2.66000015E+02
  0
LINE
  8
0
 62
7
 10
-4.88999763E+02
 20
-2.67000147E+02
 11
-4.87999740E+02
 21
-2.66000125E+02
  0
LINE
  8
0
 62
7
 10
-4.69999807E+02
 20
-2.65999866E+02
 11
-4.68999828E+02
 21
-2.66999845E+02
  0
LINE
  8
0
 62
7
 10
-2.39999931E+02
 20
-2.66000015E+02
 11
-2.21999962E+02
 21
-2.66000015E+02
  0
LINE
  8
0
 62
7
 10
-2.40999962E+02
 20
-2.67000046E+02
 11
-2.40999962E+02
 21
-2.74000046E+02
  0
LINE
  8
0
 62
7
 10
-2.20999962E+02
 20
-2.67000046E+02
 11
-2.20999962E+02
 21
-2.74000015E+02
  0
LINE
  8
0
 62
7
 10
-2.40999831E+02
 20
-2.67000104E+02
 11
-2.39999825E+02
 21
-2.66000098E+02
  0
LINE
  8
0
 62
7
 10
-2.21999946E+02
 20
-2.66000065E+02
 11
-2.20999966E+02
 21
-2.67000045E+02
  0
LINE
  8
0
 62
7
 10
-2.21000020E+02
 20
-2.73999955E+02
 11
-2.19000018E+02
 21
-2.75999957E+02
  0
LINE
  8
0
 62
7
 10
-2.42999855E+02
 20
-2.76000070E+02
 11
-2.40999858E+02
 21
-2.74000074E+02
  0
LINE
  8
0
 62
7
 10
-2.18999962E+02
 20
-2.76000015E+02
 11
-1.67999977E+02
 21
-2.76000015E+02
  0
LINE
  8
0
 62
7
 10
5.10002066E+01
 20
-2.67000204E+02
 11
5.20002400E+01
 21
-2.66000170E+02
  0
LINE
  8
0
 62
7
 10
5.20000992E+01
 20
-2.66000015E+02
 11
6.33284133E+01
 21
-2.66000015E+02
  0
LINE
  8
0
 62
7
 10
5.10000381E+01
 20
-2.67000046E+02
 11
5.10000381E+01
 21
-2.72500000E+02
  0
LINE
  8
0
  6
CENTER
 62
2
 10
-1.82999931E+02
 20
-3.07497284E+02
 11
-1.82999931E+02
 21
-3.19500000E+02
  0
LINE
  8
0
 62
7
 10
-1.84999977E+02
 20
-3.18345062E+02
 11
-1.84999977E+02
 21
-3.19500000E+02
  0
LINE
  8
0
 62
7
 10
-1.80999962E+02
 20
-3.19500000E+02
 11
-1.80999962E+02
 21
-3.18345291E+02
  0
LINE
  8
0
  6
CENTER
 62
2
 10
-2.30999962E+02
 20
-2.63744431E+02
 11
-2.30999962E+02
 21
-2.81364136E+02
  0
LINE
  8
0
 62
7
 10
-5.18999840E+02
 20
-2.87386780E+02
 11
-5.18999840E+02
 21
-2.81613266E+02
  0
LINE
  8
0
 62
7
 10
-5.18999878E+02
 20
-2.81613126E+02
 11
-5.13999851E+02
 21
-2.78726370E+02
  0
LINE
  8
0
 62
7
 10
-5.13999970E+02
 20
-2.78726455E+02
 11
-5.08999917E+02
 21
-2.81613226E+02
  0
LINE
  8
0
 62
7
 10
-5.08999840E+02
 20
-2.81613266E+02
 11
-5.08999840E+02
 21
-2.87386780E+02
  0
LINE
  8
0
 62
7
 10
-5.13999862E+02
 20
-2.90273441E+02
 11
-5.08999887E+02
 21
-2.87386716E+02
  0
LINE
  8
0
 62
7
 10
-5.18999941E+02
 20
-2.87386691E+02
 11
-5.13999940E+02
 21
-2.90273432E+02
  0
LINE
  8
0
  6
CENTER
 62
2
 10
-5.13999840E+02
 20
-2.98577637E+02
 11
-5.13999840E+02
 21
-2.69393005E+02
  0
LINE
  8
0
  6
CENTER
 62
2
 10
-5.00515831E+02
 20
-2.84500046E+02
 11
-5.29052330E+02
 21
-2.84500046E+02
  0
LINE
  8
0
 62
7
 10
-4.38999931E+02
 20
-2.87386780E+02
 11
-4.38999931E+02
 21
-2.81613266E+02
  0
LINE
  8
0
 62
7
 10
-4.38999857E+02
 20
-2.81613225E+02
 11
-4.43999911E+02
 21
-2.78726453E+02
  0
LINE
  8
0
 62
7
 10
-4.43999885E+02
 20
-2.78726575E+02
 11
-4.48999859E+02
 21
-2.81613301E+02
  0
LINE
  8
0
 62
7
 10
-4.48999962E+02
 20
-2.81613266E+02
 11
-4.48999962E+02
 21
-2.87386780E+02
  0
LINE
  8
0
 62
7
 10
-4.43999907E+02
 20
-2.90273476E+02
 11
-4.48999961E+02
 21
-2.87386705E+02
  0
LINE
  8
0
 62
7
 10
-4.38999824E+02
 20
-2.87386724E+02
 11
-4.43999878E+02
 21
-2.90273495E+02
  0
LINE
  8
0
  6
CENTER
 62
2
 10
-4.43999962E+02
 20
-2.98577637E+02
 11
-4.43999962E+02
 21
-2.69393005E+02
  0
LINE
  8
0
  6
CENTER
 62
2
 10
-4.57483971E+02
 20
-2.84500046E+02
 11
-4.28947380E+02
 21
-2.84500046E+02
  0
LINE
  8
0
 62
7
 10
-5.25999901E+02
 20
-2.76500015E+02
 11
-5.25999901E+02
 21
-3.19500000E+02
  0
LINE
  8
0
 62
7
 10
-4.31999901E+02
 20
-2.76500015E+02
 11
-4.31999901E+02
 21
-3.19500000E+02
  0
LINE
  8
0
 62
7
 10
-5.21999901E+02
 20
-2.72500000E+02
 11
-4.35999840E+02
 21
-2.72500000E+02
  0
LINE
  8
0
 62
7
 10
-1.67999977E+02
 20
-2.72500000E+02
 11
-1.67999977E+02
 21
-3.19500000E+02
  0
LINE
  8
0
 62
7
 10
-2.93999962E+02
 20
-2.72500000E+02
 11
-2.93999962E+02
 21
-3.19500000E+02
  0
LINE
  8
0
 62
7
 10
-3.28999870E+02
 20
-2.72500000E+02
 11
-2.93999931E+02
 21
-2.72500000E+02
  0
LINE
  8
0
 62
7
 10
-1.67999931E+02
 20
-2.72500000E+02
 11
-1.06999962E+02
 21
-2.72500000E+02
  0
LINE
  8
0
 62
7
 10
-2.93999962E+02
 20
-2.76000015E+02
 11
-2.42999809E+02
 21
-2.76000015E+02
  0
LINE
  8
0
 62
7
 10
-2.93999962E+02
 20
-2.80000031E+02
 11
-1.67999977E+02
 21
-2.80000031E+02
  0
LINE
  8
0
  6
CENTER
 62
2
 10
-3.33378471E+02
 20
-2.84500000E+02
 11
-1.02066872E+02
 21
-2.84500000E+02
  0
LINE
  8
0
 62
7
 10
-2.93999962E+02
 20
-2.89000046E+02
 11
-1.67999977E+02
 21
-2.89000046E+02
  0
LINE
  8
0
 62
7
 10
-1.79535775E+02
 20
-3.13500034E+02
 11
-1.76071691E+02
 21
-3.19500013E+02
  0
LINE
  8
0
 62
7
 10
-1.86464058E+02
 20
-3.13500015E+02
 11
-1.79535851E+02
 21
-3.13500015E+02
  0
LINE
  8
0
 62
7
 10
-1.86463965E+02
 20
-3.13500155E+02
 11
-1.89928069E+02
 21
-3.19500167E+02
  0
LINE
  8
0
 62
7
 10
-1.82999915E+02
 20
-3.17190630E+02
 11
-1.80999940E+02
 21
-3.18345316E+02
  0
LINE
  8
0
 62
7
 10
-1.84999976E+02
 20
-3.18345139E+02
 11
-1.82999962E+02
 21
-3.17190430E+02
  0
LINE
  8
0
 62
7
 10
-2.75536082E+02
 20
-3.13500218E+02
 11
-2.72072004E+02
 21
-3.19500185E+02
  0
LINE
  8
0
 62
7
 10
-2.75535820E+02
 20
-3.13500015E+02
 11
-2.82464043E+02
 21
-3.13500015E+02
  0
LINE
  8
0
 62
7
 10
-1.78999992E+02
 20
-8.32000427E+01
 11
-1.87000023E+02
 21
-8.32000427E+01
  0
LINE
  8
0
 62
2
 10
-1.86300026E+02
 20
-8.45000305E+01
 11
-1.86300026E+02
 21
-8.25000305E+01
  0
LINE
  8
0
 62
2
 10
-1.79699989E+02
 20
-8.45000305E+01
 11
-1.79699989E+02
 21
-8.25000305E+01
  0
LINE
  8
0
 62
7
 10
-1.87000023E+02
 20
-8.45000305E+01
 11
-1.87000023E+02
 21
-8.32000732E+01
  0
LINE
  8
0
 62
7
 10
-1.78999992E+02
 20
-8.45000305E+01
 11
-1.78999992E+02
 21
-8.32000732E+01
  0
LINE
  8
0
 62
7
 10
-1.86474968E+02
 20
-9.10000610E+01
 11
-1.86474968E+02
 21
-8.51928711E+01
  0
LINE
  8
0
 62
7
 10
-1.79524971E+02
 20
-9.10000610E+01
 11
-1.79524971E+02
 21
-8.51928711E+01
  0
LINE
  8
0
 62
7
 10
-1.76050058E+02
 20
-8.51932427E+01
 11
-1.77250066E+02
 21
-8.45004174E+01
  0
LINE
  8
0
 62
7
 10
-1.88750026E+02
 20
-8.45002396E+01
 11
-1.89950018E+02
 21
-8.51930554E+01
  0
LINE
  8
0
 62
7
 10
-1.76050011E+02
 20
-9.10000610E+01
 11
-1.76050011E+02
 21
-8.51928711E+01
  0
LINE
  8
0
 62
7
 10
-1.89950005E+02
 20
-9.10000610E+01
 11
-1.89950005E+02
 21
-8.51928711E+01
  0
LINE
  8
0
 62
7
 10
-1.77250008E+02
 20
-8.45000305E+01
 11
-1.88750023E+02
 21
-8.45000305E+01
  0
LINE
  8
0
 62
7
 10
-1.79699989E+02
 20
-8.25000305E+01
 11
-1.86299995E+02
 21
-8.25000305E+01
  0
LINE
  8
0
 62
7
 10
-1.74999977E+02
 20
-9.60000610E+01
 11
-1.74999977E+02
 21
-9.10000610E+01
  0
LINE
  8
0
 62
7
 10
-1.90999962E+02
 20
-9.60000610E+01
 11
-1.90999962E+02
 21
-9.10000610E+01
  0
LINE
  8
0
 62
7
 10
-1.75000023E+02
 20
-9.10000610E+01
 11
-1.91000008E+02
 21
-9.10000610E+01
  0
LINE
  8
0
  6
CENTER
 62
2
 10
-1.83000008E+02
 20
-9.78886108E+01
 11
-1.83000008E+02
 21
-8.09123840E+01
  0
LINE
  8
0
  6
CENTER
 62
2
 10
-1.54999947E+02
 20
-1.15221008E+02
 11
-1.54999947E+02
 21
-1.33786804E+02
  0
LINE
  8
0
  6
CENTER
 62
2
 10
-1.45940086E+02
 20
-1.24500000E+02
 11
-1.64284874E+02
 21
-1.24500000E+02
  0
LINE
  8
0
 62
7
 10
-1.57999977E+02
 20
-1.22767944E+02
 11
-1.57999977E+02
 21
-1.26232056E+02
  0
LINE
  8
0
 62
7
 10
-1.57999287E+02
 20
-1.26230862E+02
 11
-1.54999248E+02
 21
-1.27962925E+02
  0
LINE
  8
0
 62
7
 10
-1.55000049E+02
 20
-1.27963553E+02
 11
-1.52000056E+02
 21
-1.26231517E+02
  0
LINE
  8
0
 62
7
 10
-1.51999962E+02
 20
-1.26232056E+02
 11
-1.51999962E+02
 21
-1.22767944E+02
  0
LINE
  8
0
 62
7
 10
-1.54999286E+02
 20
-1.21034675E+02
 11
-1.51999326E+02
 21
-1.22766692E+02
  0
LINE
  8
0
 62
7
 10
-1.58000209E+02
 20
-1.22767246E+02
 11
-1.55000265E+02
 21
-1.21035238E+02
  0
LINE
  8
0
 62
7
 10
-1.86300102E+02
 20
-1.96500166E+02
 11
-1.87000131E+02
 21
-1.95800137E+02
  0
LINE
  8
0
 62
7
 10
-1.78999951E+02
 20
-1.95800009E+02
 11
-1.79699937E+02
 21
-1.96499994E+02
  0
LINE
  8
0
 62
7
 10
-1.78999992E+02
 20
-1.95800018E+02
 11
-1.87000023E+02
 21
-1.95800018E+02
  0
LINE
  8
0
 62
2
 10
-1.86300026E+02
 20
-1.94500000E+02
 11
-1.86300026E+02
 21
-1.96500015E+02
  0
LINE
  8
0
 62
2
 10
-1.79699989E+02
 20
-1.94500000E+02
 11
-1.79699989E+02
 21
-1.96500015E+02
  0
LINE
  8
0
 62
7
 10
-1.87000023E+02
 20
-1.94500000E+02
 11
-1.87000023E+02
 21
-1.95799973E+02
  0
LINE
  8
0
 62
7
 10
-1.78999992E+02
 20
-1.94500000E+02
 11
-1.78999992E+02
 21
-1.95799973E+02
  0
LINE
  8
0
 62
7
 10
-1.86474968E+02
 20
-1.88000031E+02
 11
-1.86474968E+02
 21
-1.93807175E+02
  0
LINE
  8
0
 62
7
 10
-1.79524971E+02
 20
-1.88000031E+02
 11
-1.79524971E+02
 21
-1.93807175E+02
  0
LINE
  8
0
 62
7
 10
-1.76049834E+02
 20
-1.93807299E+02
 11
-1.77249843E+02
 21
-1.94500124E+02
  0
LINE
  8
0
 62
7
 10
-1.88750076E+02
 20
-1.94500314E+02
 11
-1.89950084E+02
 21
-1.93807489E+02
  0
LINE
  8
0
 62
7
 10
-1.76050011E+02
 20
-1.88000031E+02
 11
-1.76050011E+02
 21
-1.93807175E+02
  0
LINE
  8
0
 62
7
 10
-1.89950005E+02
 20
-1.88000031E+02
 11
-1.89950005E+02
 21
-1.93807175E+02
  0
LINE
  8
0
 62
7
 10
-1.77250008E+02
 20
-1.94500000E+02
 11
-1.88750023E+02
 21
-1.94500000E+02
  0
LINE
  8
0
 62
7
 10
-1.79699989E+02
 20
-1.96500015E+02
 11
-1.86299995E+02
 21
-1.96500015E+02
  0
LINE
  8
0
 62
7
 10
-1.74999977E+02
 20
-1.83000031E+02
 11
-1.74999977E+02
 21
-1.88000031E+02
  0
LINE
  8
0
 62
7
 10
-1.90999962E+02
 20
-1.83000031E+02
 11
-1.90999962E+02
 21
-1.88000031E+02
  0
LINE
  8
0
 62
7
 10
-1.75000023E+02
 20
-1.88000031E+02
 11
-1.91000008E+02
 21
-1.88000031E+02
  0
LINE
  8
0
  6
CENTER
 62
2
 10
-1.83000008E+02
 20
-1.81021729E+02
 11
-1.83000008E+02
 21
-1.99587662E+02
  0
LINE
  8
0
 62
7
 10
-1.86299972E+02
 20
-8.25001296E+01
 11
-1.86999946E+02
 21
-8.32001045E+01
  0
LINE
  8
0
 62
7
 10
-2.82464318E+02
 20
-3.13499929E+02
 11
-2.85928423E+02
 21
-3.19499945E+02
  0
LINE
  8
0
 62
7
 10
-2.76999805E+02
 20
-3.18345119E+02
 11
-2.78999820E+02
 21
-3.17190409E+02
  0
LINE
  8
0
 62
7
 10
-2.78999886E+02
 20
-3.17190709E+02
 11
-2.80999834E+02
 21
-3.18345380E+02
  0
LINE
  8
0
  6
CENTER
 62
2
 10
-2.30999962E+02
 20
-1.23039246E+02
 11
-2.30999962E+02
 21
-1.56621094E+02
  0
LINE
  8
0
 62
7
 10
-1.79000111E+02
 20
-8.32001908E+01
 11
-1.79700075E+02
 21
-8.25002267E+01
  0
LINE
  8
0
 62
7
 10
-2.93999962E+02
 20
-1.00000000E+02
 11
-1.67999977E+02
 21
-1.00000000E+02
  0
LINE
  8
0
 62
7
 10
-2.93999962E+02
 20
-1.08999969E+02
 11
-1.67999977E+02
 21
-1.08999969E+02
  0
LINE
  8
0
  6
CENTER
 62
2
 10
-3.34674553E+02
 20
-1.04500000E+02
 11
-1.02066872E+02
 21
-1.04500000E+02
  0
LINE
  8
0
 62
7
 10
-2.93999962E+02
 20
-1.79000000E+02
 11
-1.67999977E+02
 21
-1.79000000E+02
  0
LINE
  8
0
 62
7
 10
-2.93999962E+02
 20
-1.70000000E+02
 11
-1.67999977E+02
 21
-1.70000000E+02
  0
LINE
  8
0
  6
CENTER
 62
2
 10
-3.35291161E+02
 20
-1.74500000E+02
 11
-1.02066872E+02
 21
-1.74500000E+02
  0
LINE
  8
0
 62
7
 10
-1.06999992E+02
 20
-1.86500000E+02
 11
-1.06999992E+02
 21
-9.25000000E+01
  0
LINE
  8
0
 62
7
 10
-2.93999962E+02
 20
-1.83000031E+02
 11
-1.67999977E+02
 21
-1.83000031E+02
  0
LINE
  8
0
 62
7
 10
-1.67999977E+02
 20
-1.86500000E+02
 11
-1.06999962E+02
 21
-1.86500000E+02
  0
LINE
  8
0
 62
7
 10
-1.67999977E+02
 20
-9.25000000E+01
 11
-1.67999977E+02
 21
-1.86500000E+02
  0
LINE
  8
0
 62
7
 10
-2.93999962E+02
 20
-9.25000000E+01
 11
-2.93999962E+02
 21
-1.86500000E+02
  0
LINE
  8
0
 62
7
 10
-3.28999962E+02
 20
-1.86500000E+02
 11
-2.93999962E+02
 21
-1.86500000E+02
  0
LINE
  8
0
 62
7
 10
-2.93999962E+02
 20
-9.60000305E+01
 11
-1.67999977E+02
 21
-9.60000305E+01
  0
LINE
  8
0
 62
7
 10
-1.67999931E+02
 20
-9.25000305E+01
 11
-1.06999962E+02
 21
-9.25000305E+01
  0
LINE
  8
0
 62
7
 10
-3.28999870E+02
 20
-9.25000305E+01
 11
-2.93999931E+02
 21
-9.25000305E+01
  0
LINE
  8
0
 62
7
 10
-3.28999962E+02
 20
-9.25000000E+01
 11
-3.28999962E+02
 21
-1.86500000E+02
  0
LINE
  8
0
  6
CENTER
 62
2
 10
-4.02336388E+02
 20
-1.39500000E+02
 11
-7.09999860E+01
 21
-1.39500000E+02
  0
LINE
  8
0
 62
7
 10
-2.75699963E+02
 20
-8.25000136E+01
 11
-2.74999935E+02
 21
-8.32000424E+01
  0
LINE
  8
0
 62
7
 10
-2.82999636E+02
 20
-8.32003392E+01
 11
-2.82299620E+02
 21
-8.25003238E+01
  0
LINE
  8
0
 62
7
 10
-2.82999901E+02
 20
-8.32000427E+01
 11
-2.74999870E+02
 21
-8.32000427E+01
  0
LINE
  8
0
 62
2
 10
-2.75699913E+02
 20
-8.45000305E+01
 11
-2.75699913E+02
 21
-8.25000305E+01
  0
LINE
  8
0
 62
2
 10
-2.82299889E+02
 20
-8.45000305E+01
 11
-2.82299889E+02
 21
-8.25000305E+01
  0
LINE
  8
0
 62
7
 10
-2.74999901E+02
 20
-8.45000305E+01
 11
-2.74999901E+02
 21
-8.32000732E+01
  0
LINE
  8
0
 62
7
 10
-2.82999931E+02
 20
-8.45000305E+01
 11
-2.82999931E+02
 21
-8.32000732E+01
  0
LINE
  8
0
 62
7
 10
-2.75524925E+02
 20
-9.10000610E+01
 11
-2.75524925E+02
 21
-8.51928711E+01
  0
LINE
  8
0
 62
7
 10
-2.82474907E+02
 20
-9.10000610E+01
 11
-2.82474907E+02
 21
-8.51928711E+01
  0
LINE
  8
0
 62
7
 10
-2.85949720E+02
 20
-8.51932727E+01
 11
-2.84749711E+02
 21
-8.45004474E+01
  0
LINE
  8
0
 62
7
 10
-2.73249881E+02
 20
-8.45002412E+01
 11
-2.72049872E+02
 21
-8.51930666E+01
  0
LINE
  8
0
 62
7
 10
-2.85949883E+02
 20
-9.10000610E+01
 11
-2.85949883E+02
 21
-8.51928711E+01
  0
LINE
  8
0
 62
7
 10
-2.72049889E+02
 20
-9.10000610E+01
 11
-2.72049889E+02
 21
-8.51928711E+01
  0
LINE
  8
0
 62
7
 10
-2.84749901E+02
 20
-8.45000305E+01
 11
-2.73249870E+02
 21
-8.45000305E+01
  0
LINE
  8
0
 62
7
 10
-2.82299889E+02
 20
-8.25000305E+01
 11
-2.75699913E+02
 21
-8.25000305E+01
  0
LINE
  8
0
 62
7
 10
-2.86999901E+02
 20
-9.60000610E+01
 11
-2.86999901E+02
 21
-9.10000610E+01
  0
LINE
  8
0
 62
7
 10
-2.70999931E+02
 20
-9.60000610E+01
 11
-2.70999931E+02
 21
-9.10000610E+01
  0
LINE
  8
0
 62
7
 10
-2.86999870E+02
 20
-9.10000610E+01
 11
-2.70999901E+02
 21
-9.10000610E+01
  0
LINE
  8
0
 62
7
 10
-2.75699807E+02
 20
-1.96500108E+02
 11
-2.74999805E+02
 21
-1.95800106E+02
  0
LINE
  8
0
 62
7
 10
-2.82999922E+02
 20
-1.95799868E+02
 11
-2.82299893E+02
 21
-1.96499897E+02
  0
LINE
  8
0
 62
7
 10
-2.82999901E+02
 20
-1.95800018E+02
 11
-2.74999870E+02
 21
-1.95800018E+02
  0
LINE
  8
0
 62
2
 10
-2.75699913E+02
 20
-1.94500000E+02
 11
-2.75699913E+02
 21
-1.96500015E+02
  0
LINE
  8
0
 62
2
 10
-2.82299889E+02
 20
-1.94500000E+02
 11
-2.82299889E+02
 21
-1.96500015E+02
  0
LINE
  8
0
 62
7
 10
-2.74999901E+02
 20
-1.94500000E+02
 11
-2.74999901E+02
 21
-1.95799973E+02
  0
LINE
  8
0
 62
7
 10
-2.82999931E+02
 20
-1.94500000E+02
 11
-2.82999931E+02
 21
-1.95799973E+02
  0
LINE
  8
0
 62
7
 10
-2.75524925E+02
 20
-1.88000031E+02
 11
-2.75524925E+02
 21
-1.93807175E+02
  0
LINE
  8
0
 62
7
 10
-2.82474907E+02
 20
-1.88000031E+02
 11
-2.82474907E+02
 21
-1.93807175E+02
  0
LINE
  8
0
 62
7
 10
-2.85949997E+02
 20
-1.93807238E+02
 11
-2.84749988E+02
 21
-1.94500064E+02
  0
LINE
  8
0
 62
7
 10
-2.73249741E+02
 20
-1.94500384E+02
 11
-2.72049732E+02
 21
-1.93807559E+02
  0
LINE
  8
0
 62
7
 10
-2.85949883E+02
 20
-1.88000031E+02
 11
-2.85949883E+02
 21
-1.93807175E+02
  0
LINE
  8
0
 62
7
 10
-2.72049889E+02
 20
-1.88000031E+02
 11
-2.72049889E+02
 21
-1.93807175E+02
  0
LINE
  8
0
 62
7
 10
-2.84749901E+02
 20
-1.94500000E+02
 11
-2.73249870E+02
 21
-1.94500000E+02
  0
LINE
  8
0
 62
7
 10
-2.82299889E+02
 20
-1.96500015E+02
 11
-2.75699913E+02
 21
-1.96500015E+02
  0
LINE
  8
0
 62
7
 10
-2.86999901E+02
 20
-1.83000031E+02
 11
-2.86999901E+02
 21
-1.88000031E+02
  0
LINE
  8
0
 62
7
 10
-2.70999931E+02
 20
-1.83000031E+02
 11
-2.70999931E+02
 21
-1.88000031E+02
  0
LINE
  8
0
 62
7
 10
-2.86999870E+02
 20
-1.88000031E+02
 11
-2.70999901E+02
 21
-1.88000031E+02
  0
LINE
  8
0
  6
CENTER
 62
2
 10
-2.78999870E+02
 20
-9.78886108E+01
 11
-2.78999870E+02
 21
-8.09123840E+01
  0
LINE
  8
0
  6
CENTER
 62
2
 10
-3.06999992E+02
 20
-1.15221008E+02
 11
-3.06999992E+02
 21
-1.33786804E+02
  0
LINE
  8
0
  6
CENTER
 62
2
 10
-3.16059807E+02
 20
-1.24500000E+02
 11
-2.97715019E+02
 21
-1.24500000E+02
  0
LINE
  8
0
 62
7
 10
-3.03999962E+02
 20
-1.22767944E+02
 11
-3.03999962E+02
 21
-1.26232056E+02
  0
LINE
  8
0
 62
7
 10
-3.04000781E+02
 20
-1.26230694E+02
 11
-3.07000807E+02
 21
-1.27962749E+02
  0
LINE
  8
0
 62
7
 10
-3.07000061E+02
 20
-1.27963750E+02
 11
-3.10000100E+02
 21
-1.26231687E+02
  0
LINE
  8
0
 62
7
 10
-3.09999931E+02
 20
-1.26232056E+02
 11
-3.09999931E+02
 21
-1.22767944E+02
  0
LINE
  8
0
 62
7
 10
-3.07000844E+02
 20
-1.21034401E+02
 11
-3.10000857E+02
 21
-1.22766449E+02
  0
LINE
  8
0
 62
7
 10
-3.03999761E+02
 20
-1.22767656E+02
 11
-3.06999721E+02
 21
-1.21035639E+02
  0
LINE
  8
0
 62
7
 10
-3.28999962E+02
 20
-2.72500000E+02
 11
-3.28999962E+02
 21
-3.19500000E+02
  0
LINE
  8
0
  6
CENTER
 62
2
 10
-2.78999870E+02
 20
-1.81021729E+02
 11
-2.78999870E+02
 21
-1.99587662E+02
  0
LINE
  8
0
 62
7
 10
-5.35999586E+02
 20
-3.16200311E+02
 11
-5.35299578E+02
 21
-3.15500304E+02
  0
LINE
  8
0
 62
2
 10
-5.33999840E+02
 20
-3.16200058E+02
 11
-5.35999901E+02
 21
-3.16200058E+02
  0
LINE
  8
0
 62
7
 10
-5.35299889E+02
 20
-3.19500000E+02
 11
-5.35299889E+02
 21
-3.15500023E+02
  0
LINE
  8
0
 62
7
 10
-4.21999833E+02
 20
-3.16200046E+02
 11
-4.22699861E+02
 21
-3.15500017E+02
  0
LINE
  8
0
 62
7
 10
-5.27499779E+02
 20
-3.19500000E+02
 11
-5.27499779E+02
 21
-3.11500008E+02
  0
LINE
  8
0
 62
7
 10
-4.22699974E+02
 20
-3.19500000E+02
 11
-4.22699974E+02
 21
-3.15500023E+02
  0
LINE
  8
0
 62
2
 10
-4.23999870E+02
 20
-3.16200058E+02
 11
-4.21999962E+02
 21
-3.16200058E+02
  0
LINE
  8
0
 62
7
 10
-4.23999870E+02
 20
-3.15500061E+02
 11
-4.22700035E+02
 21
-3.15500061E+02
  0
LINE
  8
0
 62
7
 10
-5.33999840E+02
 20
-3.15500061E+02
 11
-5.35299889E+02
 21
-3.15500061E+02
  0
LINE
  8
0
  6
CENTER
 62
2
 10
-2.78999962E+02
 20
-3.07628769E+02
 11
-2.78999962E+02
 21
-3.19500000E+02
  0
LINE
  8
0
 62
7
 10
-2.76999962E+02
 20
-3.18345024E+02
 11
-2.76999962E+02
 21
-3.19500000E+02
  0
LINE
  8
0
 62
7
 10
-2.80999962E+02
 20
-3.19500000E+02
 11
-2.80999962E+02
 21
-3.18345406E+02
  0
LINE
  8
0
 62
7
 10
-4.21999901E+02
 20
-3.19500000E+02
 11
-4.21999901E+02
 21
-3.16200020E+02
  0
LINE
  8
0
 62
7
 10
-5.35999962E+02
 20
-3.19500000E+02
 11
-5.35999962E+02
 21
-3.16200020E+02
  0
LINE
  8
0
 62
7
 10
-5.33999840E+02
 20
-3.19500000E+02
 11
-5.33999840E+02
 21
-3.13500015E+02
  0
LINE
  8
0
 62
7
 10
-4.31999901E+02
 20
-3.11500046E+02
 11
-4.30499962E+02
 21
-3.11500046E+02
  0
LINE
  8
0
 62
7
 10
-4.23999931E+02
 20
-3.19500000E+02
 11
-4.23999931E+02
 21
-3.13500015E+02
  0
LINE
  8
0
 62
7
 10
-4.30499870E+02
 20
-3.19500000E+02
 11
-4.30499870E+02
 21
-3.11500008E+02
  0
LINE
  8
0
 62
7
 10
-4.30499962E+02
 20
-3.19500000E+02
 11
-4.24692772E+02
 21
-3.19500000E+02
  0
LINE
  8
0
 62
7
 10
-5.27499840E+02
 20
-3.13500015E+02
 11
-5.33999840E+02
 21
-3.13500015E+02
  0
LINE
  8
0
  6
CENTER
 62
2
 10
-5.38957298E+02
 20
-3.19500000E+02
 11
-4.18613731E+02
 21
-3.19500000E+02
  0
LINE
  8
0
 62
7
 10
-5.25999901E+02
 20
-3.11500046E+02
 11
-5.27499840E+02
 21
-3.11500046E+02
  0
LINE
  8
0
 62
7
 10
-5.27499840E+02
 20
-3.19500000E+02
 11
-5.33307030E+02
 21
-3.19500000E+02
  0
LINE
  8
0
 62
7
 10
-4.30499962E+02
 20
-3.13500015E+02
 11
-4.24000023E+02
 21
-3.13500015E+02
  0
LINE
  8
0
  6
CENTER
 62
2
 10
-4.78999962E+02
 20
-2.61422272E+02
 11
-4.78999962E+02
 21
-3.19500000E+02
  0
LINE
  8
0
  6
CENTER
 62
2
 10
-4.01103081E+02
 20
-3.19500000E+02
 11
-2.70041726E+01
 21
-3.19500000E+02
  0
LINE
  8
0
 62
2
 10
-4.97160499E+01
 20
-1.78838126E+02
 11
-5.33348664E+00
 21
-1.01965271E+02
  0
LINE
  8
0
 62
7
 10
-7.49999924E+01
 20
-1.10437056E+02
 11
-7.49999924E+01
 21
-1.02000000E+02
  0
LINE
  8
0
  6
CENTER
 62
2
 10
-8.59999860E+01
 20
-1.11499969E+02
 11
-1.10248085E+02
 21
-1.11499969E+02
  0
LINE
  8
0
  6
CENTER
 62
2
 10
-3.19999860E+01
 20
-1.39500000E+02
 11
-2.70041726E+01
 21
-1.39500000E+02
  0
LINE
  8
0
 62
2
 10
-3.12236284E+01
 20
-3.26808312E+02
 11
-5.33348664E+00
 21
-2.81965271E+02
  0
LINE
  8
0
 62
7
 10
3.40000008E+02
 20
-2.72500000E+02
 11
2.79000038E+02
 21
-2.72500000E+02
  0
LINE
  8
0
  6
CENTER
 62
2
 10
5.05378548E+02
 20
-2.84500000E+02
 11
2.74066948E+02
 21
-2.84500000E+02
  0
LINE
  8
0
  6
CENTER
 62
2
 10
5.73103157E+02
 20
-3.19500000E+02
 11
1.59744466E+02
 21
-3.19500000E+02
  0
LINE
  8
0
 62
7
 10
4.53000038E+02
 20
-3.19500000E+02
 11
4.53000038E+02
 21
-3.18345406E+02
  0
LINE
  8
0
 62
7
 10
4.49000038E+02
 20
-3.18345024E+02
 11
4.49000038E+02
 21
-3.19500000E+02
  0
LINE
  8
0
  6
CENTER
 62
2
 10
4.51000038E+02
 20
-3.07628769E+02
 11
4.51000038E+02
 21
-3.19500000E+02
  0
LINE
  8
0
 62
7
 10
5.01000038E+02
 20
-2.72500000E+02
 11
5.01000038E+02
 21
-3.19500000E+02
  0
LINE
  8
0
 62
7
 10
4.50999962E+02
 20
-3.17190709E+02
 11
4.52999910E+02
 21
-3.18345380E+02
  0
LINE
  8
0
 62
7
 10
4.48999882E+02
 20
-3.18345119E+02
 11
4.50999896E+02
 21
-3.17190409E+02
  0
LINE
  8
0
 62
7
 10
4.54464394E+02
 20
-3.13499929E+02
 11
4.57928500E+02
 21
-3.19499945E+02
  0
LINE
  8
0
 62
7
 10
4.47535896E+02
 20
-3.13500015E+02
 11
4.54464119E+02
 21
-3.13500015E+02
  0
LINE
  8
0
 62
7
 10
4.47536158E+02
 20
-3.13500218E+02
 11
4.44072081E+02
 21
-3.19500185E+02
  0
LINE
  8
0
 62
7
 10
3.57000052E+02
 20
-3.18345139E+02
 11
3.55000038E+02
 21
-3.17190430E+02
  0
LINE
  8
0
 62
7
 10
3.54999991E+02
 20
-3.17190630E+02
 11
3.53000017E+02
 21
-3.18345316E+02
  0
LINE
  8
0
 62
7
 10
3.58464041E+02
 20
-3.13500155E+02
 11
3.61928145E+02
 21
-3.19500167E+02
  0
LINE
  8
0
 62
7
 10
3.58464134E+02
 20
-3.13500015E+02
 11
3.51535927E+02
 21
-3.13500015E+02
  0
LINE
  8
0
 62
7
 10
3.51535852E+02
 20
-3.13500034E+02
 11
3.48071767E+02
 21
-3.19500013E+02
  0
LINE
  8
0
 62
7
 10
4.66000038E+02
 20
-2.89000046E+02
 11
3.40000053E+02
 21
-2.89000046E+02
  0
LINE
  8
0
 62
7
 10
4.66000038E+02
 20
-2.80000031E+02
 11
3.40000053E+02
 21
-2.80000031E+02
  0
LINE
  8
0
 62
7
 10
4.66000038E+02
 20
-2.76000015E+02
 11
4.14999886E+02
 21
-2.76000015E+02
  0
LINE
  8
0
 62
7
 10
5.00999947E+02
 20
-2.72500000E+02
 11
4.66000008E+02
 21
-2.72500000E+02
  0
LINE
  8
0
 62
7
 10
4.66000038E+02
 20
-2.72500000E+02
 11
4.66000038E+02
 21
-3.19500000E+02
  0
LINE
  8
0
 62
7
 10
3.40000053E+02
 20
-2.72500000E+02
 11
3.40000053E+02
 21
-3.19500000E+02
  0
LINE
  8
0
  6
CENTER
 62
2
 10
4.03000038E+02
 20
-2.63744431E+02
 11
4.03000038E+02
 21
-2.81364136E+02
  0
LINE
  8
0
 62
7
 10
3.53000038E+02
 20
-3.19500000E+02
 11
3.53000038E+02
 21
-3.18345291E+02
  0
LINE
  8
0
 62
7
 10
3.57000053E+02
 20
-3.18345062E+02
 11
3.57000053E+02
 21
-3.19500000E+02
  0
LINE
  8
0
  6
CENTER
 62
2
 10
3.55000008E+02
 20
-3.07497284E+02
 11
3.55000008E+02
 21
-3.19500000E+02
  0
LINE
  8
0
 62
7
 10
3.91000038E+02
 20
-2.76000015E+02
 11
3.40000053E+02
 21
-2.76000015E+02
  0
LINE
  8
0
 62
7
 10
4.14999931E+02
 20
-2.76000070E+02
 11
4.12999934E+02
 21
-2.74000074E+02
  0
LINE
  8
0
 62
7
 10
3.93000097E+02
 20
-2.73999955E+02
 11
3.91000094E+02
 21
-2.75999957E+02
  0
LINE
  8
0
 62
7
 10
3.94000022E+02
 20
-2.66000065E+02
 11
3.93000043E+02
 21
-2.67000045E+02
  0
LINE
  8
0
 62
7
 10
4.12999907E+02
 20
-2.67000104E+02
 11
4.11999901E+02
 21
-2.66000098E+02
  0
LINE
  8
0
 62
7
 10
3.93000038E+02
 20
-2.67000046E+02
 11
3.93000038E+02
 21
-2.74000015E+02
  0
LINE
  8
0
 62
7
 10
4.13000038E+02
 20
-2.67000046E+02
 11
4.13000038E+02
 21
-2.74000046E+02
  0
LINE
  8
0
 62
7
 10
4.12000008E+02
 20
-2.66000015E+02
 11
3.94000038E+02
 21
-2.66000015E+02
  0
LINE
  8
0
 62
7
 10
4.13000038E+02
 20
-2.67000000E+02
 11
3.93000038E+02
 21
-2.67000000E+02
  0
LINE
  8
0
 62
7
 10
5.34999977E+02
 20
-3.19500000E+02
 11
5.34999977E+02
 21
-3.10499985E+02
  0
LINE
  8
0
 62
7
 10
5.29000130E+02
 20
-3.09500015E+02
 11
5.17000069E+02
 21
-3.09500015E+02
  0
LINE
  8
0
 62
7
 10
5.64000008E+02
 20
-3.19500000E+02
 11
5.64000008E+02
 21
-3.12000153E+02
  0
LINE
  8
0
 62
7
 10
5.62499977E+02
 20
-3.19500000E+02
 11
5.62499977E+02
 21
-3.10499985E+02
  0
LINE
  8
0
 62
7
 10
5.62499947E+02
 20
-3.10500000E+02
 11
5.55000008E+02
 21
-3.10500000E+02
  0
LINE
  8
0
 62
2
 10
5.63319954E+02
 20
-3.11320007E+02
 11
5.55000008E+02
 21
-3.11320007E+02
  0
LINE
  8
0
 62
7
 10
5.63999905E+02
 20
-3.12000191E+02
 11
5.62499859E+02
 21
-3.10500191E+02
  0
LINE
  8
0
 62
7
 10
5.32000008E+02
 20
-3.10500000E+02
 11
5.32000008E+02
 21
-3.19500000E+02
  0
LINE
  8
0
 62
7
 10
5.29000130E+02
 20
-3.14232147E+02
 11
5.25000069E+02
 21
-3.14232147E+02
  0
LINE
  8
0
 62
7
 10
5.31999978E+02
 20
-3.10500015E+02
 11
5.28999989E+02
 21
-3.09500031E+02
  0
LINE
  8
0
 62
2
 10
5.31033616E+02
 20
-3.15686579E+02
 11
5.28499956E+02
 21
-3.19500000E+02
  0
LINE
  8
0
 62
2
 10
5.28499838E+02
 20
-3.19500000E+02
 11
5.24999875E+02
 21
-3.14232192E+02
  0
LINE
  8
0
 62
7
 10
5.29000008E+02
 20
-3.09499954E+02
 11
5.29000008E+02
 21
-3.14232132E+02
  0
LINE
  8
0
 62
7
 10
5.25000069E+02
 20
-3.14232132E+02
 11
5.25000069E+02
 21
-3.19499992E+02
  0
LINE
  8
0
 62
7
 10
5.34999977E+02
 20
-3.11320007E+02
 11
5.32000008E+02
 21
-3.11320007E+02
  0
LINE
  8
0
 62
7
 10
5.17000038E+02
 20
-3.19500000E+02
 11
5.17000038E+02
 21
-3.03000015E+02
  0
LINE
  8
0
 62
7
 10
5.03000038E+02
 20
-3.01000000E+02
 11
5.03000038E+02
 21
-3.19500000E+02
  0
LINE
  8
0
 62
7
 10
5.12000038E+02
 20
-3.19500000E+02
 11
5.12000038E+02
 21
-3.02499985E+02
  0
LINE
  8
0
 62
7
 10
5.02500038E+02
 20
-3.00500000E+02
 11
5.01000038E+02
 21
-3.00500000E+02
  0
LINE
  8
0
 62
7
 10
5.16500038E+02
 20
-3.02499985E+02
 11
5.11991493E+02
 21
-3.02499985E+02
  0
LINE
  8
0
 62
7
 10
5.12000038E+02
 20
-3.02499985E+02
 11
5.12000038E+02
 21
-3.02491440E+02
  0
LINE
  8
0
 62
7
 10
5.11758703E+02
 20
-3.02241518E+02
 11
5.03000005E+02
 21
-3.01970579E+02
  0
LINE
  8
0
 62
7
 10
5.32000003E+02
 20
-3.16377570E+02
 11
5.29000014E+02
 21
-3.14232473E+02
  0
ARC
  8
0
 62
7
 10
4.51000038E+02
 20
-3.19500000E+02
 40
4.00000000E+00
 50
0.00000000E+00
 51
1.80000000E+02
  0
ARC
  8
0
 62
7
 10
4.51000038E+02
 20
-3.19500000E+02
 40
8.00000000E+00
 50
0.00000000E+00
 51
1.80000000E+02
  0
ARC
  8
0
 62
7
 10
4.51000038E+02
 20
-3.19500000E+02
 40
3.30000043E+00
 50
0.00000000E+00
 51
1.80000000E+02
  0
ARC
  8
0
 62
7
 10
3.55000008E+02
 20
-3.19500000E+02
 40
4.00000000E+00
 50
0.00000000E+00
 51
1.80000000E+02
  0
ARC
  8
0
 62
7
 10
3.55000008E+02
 20
-3.19500000E+02
 40
3.30000043E+00
 50
0.00000000E+00
 51
1.80000000E+02
  0
ARC
  8
0
 62
7
 10
3.55000008E+02
 20
-3.19500000E+02
 40
8.00000000E+00
 50
0.00000000E+00
 51
1.80000000E+02
  0
ARC
  8
0
 62
2
 10
4.03000191E+02
 20
-2.34188110E+02
 40
4.34998131E+01
 50
2.53986358E+02
 51
2.86013135E+02
  0
ARC
  8
0
 62
2
 10
4.03000191E+02
 20
-2.34188110E+02
 40
4.10486031E+01
 50
2.55899849E+02
 51
2.84099603E+02
  0
ARC
  8
0
 62
7
 10
5.33500008E+02
 20
-3.19500000E+02
 40
9.99998474E+00
 50
1.48211648E+02
 51
1.80000000E+02
  0
ARC
  8
0
 62
7
 10
5.16500038E+02
 20
-3.03000015E+02
 40
5.00000000E-01
 50
3.59721787E-05
 51
9.00000179E+01
  0
ARC
  8
0
 62
7
 10
5.11750038E+02
 20
-3.02491440E+02
 40
2.50000000E-01
 50
2.23118003E-05
 51
8.80011768E+01
  0
ARC
  8
0
 62
7
 10
5.02500038E+02
 20
-3.01000000E+02
 40
5.00000000E-01
 50
3.59721787E-05
 51
9.00000179E+01
  0
LINE
  8
0
 62
4
 10
5.44000008E+02
 20
-3.19500000E+02
 11
5.44000008E+02
 21
-3.06000000E+02
  0
LINE
  8
0
 62
4
 10
5.55000008E+02
 20
-3.19500000E+02
 11
5.55000008E+02
 21
-3.06000000E+02
  0
ARC
  8
0
 62
4
 10
5.29205779E+02
 20
-3.19500000E+02
 40
2.57942282E+01
 50
2.54444375E-13
 51
1.75879541E+01
  0
ARC
  8
0
 62
4
 10
5.69794236E+02
 20
-3.19500000E+02
 40
2.57942282E+01
 50
1.62412046E+02
 51
1.80000000E+02
  0
ARC
  8
0
 62
4
 10
5.50900729E+02
 20
-3.07808657E+02
 40
6.90072132E+00
 50
1.45615752E+02
 51
2.14384248E+02
  0
ARC
  8
0
 62
4
 10
5.48099286E+02
 20
-3.07808657E+02
 40
6.90072132E+00
 50
3.25615752E+02
 51
3.43842480E+01
  0
LINE
  8
0
 62
4
 10
5.45205779E+02
 20
-3.03911543E+02
 11
5.44000008E+02
 21
-3.06000000E+02
  0
LINE
  8
0
 62
4
 10
5.53794236E+02
 20
-3.03911543E+02
 11
5.55000008E+02
 21
-3.06000000E+02
  0
LINE
  8
0
 62
4
 10
5.53794236E+02
 20
-3.11705771E+02
 11
5.45205779E+02
 21
-3.11705771E+02
  0
LINE
  8
0
 62
4
 10
5.53794236E+02
 20
-3.03911543E+02
 11
5.45205779E+02
 21
-3.03911543E+02
  0
LINE
  8
0
 62
7
 10
5.44000008E+02
 20
-3.10500000E+02
 11
5.34999977E+02
 21
-3.10500000E+02
  0
LINE
  8
0
 62
2
 10
5.44000008E+02
 20
-3.11320007E+02
 11
5.34999977E+02
 21
-3.11320007E+02
  0
LINE
  8
0
 62
7
 10
1.73831791E+02
 20
-2.95100037E+02
 11
2.23500084E+02
 21
-2.95100037E+02
  0
LINE
  8
0
 62
7
 10
1.77988720E+02
 20
-2.87900024E+02
 11
2.23500084E+02
 21
-2.87900024E+02
  0
LINE
  8
0
 62
7
 10
1.79374357E+02
 20
-2.85500031E+02
 11
2.04218808E+02
 21
-2.85500031E+02
  0
LINE
  8
0
  6
CENTER
 62
2
 10
1.75910282E+02
 20
-2.91499985E+02
 11
2.23500084E+02
 21
-2.91499985E+02
  0
LINE
  8
0
 62
7
 10
2.79000069E+02
 20
-2.72500000E+02
 11
2.79000069E+02
 21
-3.19500000E+02
  0
LINE
  8
0
  6
CENTER
 62
2
 10
2.61000145E+02
 20
-2.79814941E+02
 11
2.61000145E+02
 21
-2.91700226E+02
  0
LINE
  8
0
 62
7
 10
2.47000084E+02
 20
-2.82000000E+02
 11
2.47000084E+02
 21
-3.19500000E+02
  0
LINE
  8
0
 62
7
 10
2.78508811E+02
 20
-2.82550050E+02
 11
2.47000114E+02
 21
-2.82000064E+02
  0
LINE
  8
0
 62
7
 10
2.75000084E+02
 20
-2.82000000E+02
 11
2.47000084E+02
 21
-2.82000000E+02
  0
LINE
  8
0
 62
7
 10
2.75000084E+02
 20
-2.82488785E+02
 11
2.75000084E+02
 21
-2.82000000E+02
  0
ARC
  8
0
 62
7
 10
2.78500084E+02
 20
-2.83049927E+02
 40
5.00000000E-01
 50
3.59999981E+02
 51
8.89997230E+01
  0
LINE
  8
0
 62
2
 10
1.56787626E+02
 20
-3.24621397E+02
 11
1.84110234E+02
 21
-2.77297252E+02
  0
LINE
  8
0
 62
7
 10
2.42781360E+02
 20
-2.85500031E+02
 11
2.47000084E+02
 21
-2.85500031E+02
  0
LINE
  8
0
 62
7
 10
2.38500084E+02
 20
-2.95100037E+02
 11
2.47000084E+02
 21
-2.95100037E+02
  0
LINE
  8
0
 62
7
 10
2.38500084E+02
 20
-2.87900024E+02
 11
2.47000084E+02
 21
-2.87900024E+02
  0
LINE
  8
0
  6
CENTER
 62
2
 10
2.38500084E+02
 20
-2.91499985E+02
 11
2.82248177E+02
 21
-2.91499985E+02
  0
TEXT
  8
0
 10
-7.22146873E+01
 20
3.51614332E+02
 40
9.00000000E+00
  1
STRETCH LINE
 41
1.05263158E+00
  7
MONOTXT
  0
LINE
  8
0
 62
7
 10
5.74500000E+02
 20
4.00500000E+02
 11
5.74500000E+02
 21
-4.00500000E+02
  0
LINE
  8
0
 62
7
 10
-5.64500000E+02
 20
4.00500000E+02
 11
5.74500000E+02
 21
4.00500000E+02
  0
LINE
  8
0
 62
7
 10
-5.64500000E+02
 20
-4.00500000E+02
 11
5.74500000E+02
 21
-4.00500000E+02
  0
LINE
  8
0
 62
7
 10
-5.64500000E+02
 20
4.00500000E+02
 11
-5.64500000E+02
 21
-4.00500000E+02
  0
LINE
  8
0
 62
7
 10
-5.64500000E+02
 20
3.70500000E+02
 11
-3.34500000E+02
 21
3.70500000E+02
  0
LINE
  8
0
 62
7
 10
3.44500000E+02
 20
3.70500000E+02
 11
5.74500000E+02
 21
3.70500000E+02
  0
LINE
  8
0
 62
7
 10
3.44500000E+02
 20
-3.70500000E+02
 11
5.74500000E+02
 21
-3.70500000E+02
  0
LINE
  8
0
 62
7
 10
3.44500000E+02
 20
-3.70500000E+02
 11
3.44500000E+02
 21
-4.00500000E+02
  0
LINE
  8
0
 62
7
 10
3.44500000E+02
 20
4.00500000E+02
 11
3.44500000E+02
 21
3.70500000E+02
  0
LINE
  8
0
 62
7
 10
-3.34500000E+02
 20
4.00500000E+02
 11
-3.34500000E+02
 21
3.70500000E+02
  0
TEXT
  8
0
 62
7
 10
-5.37179687E+02
 20
3.34250000E+02
 40
1.25000000E+01
  1
MODEL:DDARR63*75
 41
1.00000015E+00
  7
MONOTXT
  0
TEXT
  8
0
 62
7
 10
4.11285149E+02
 20
3.79250000E+02
 40
1.25000000E+01
  1
Ver. 1.0
 41
1.08108125E+00
  7
MONOTXT
  0
TEXT
  8
0
 62
7
 10
3.50070624E+02
 20
-3.94500000E+02
 40
1.80000000E+01
  1
KOGANEI CORP.
 41
1.04838710E+00
  7
MONOTXT
  0
TEXT
  8
0
 62
7
 10
-5.53964859E+02
 20
3.79250000E+02
 40
1.25000000E+01
  1
NEW DYNA CYLINDER
 41
1.07594953E+00
  7
MONOTXT
  0
ENDSEC
  0
EOF
