  0
SECTION
  2
HEADER
  9
$ACADVER
  1
AC1003
  9
$EXTMIN
 10
-8.20500000E+02
 20
-5.74500000E+02
  9
$EXTMAX
 10
8.20500000E+02
 20
5.74500000E+02
  9
$LIMMIN
 10
-8.20501000E+02
 20
-5.74501000E+02
  9
$LIMMAX
 10
8.20501000E+02
 20
5.74501000E+02
  9
$SNAPUNIT
 10
1
 20
1
  9
$SNAPBASE
 10
0
 20
0
  9
$GRIDMODE
 70
0
  9
$GRIDUNIT
 10
0
 20
0
  9
$LTSCALE
 40
2.73500000E+01
  9
$TEXTSIZE
 40
3.2
  9
$DIMTAD
 70
0
  9
$LUNITS
 70
2
  9
$LUPREC
 70
4
  9
$FILLETRAD
 40
0
  9
$AUNITS
 70
0
  9
$AUPREC
 70
0
  0
ENDSEC
  0
SECTION
  2
TABLES
  0
TABLE
  2
LTYPE
 70
2
  0
LTYPE
  2
CONTINUOUS
 70
64
  3
Solid-Line
 72
65
 73
0
 40
0
  0
LTYPE
  2
DASHED
 70
64
  3
DASHED
 72
65
 73
2
 40
.75
 49
.5
 49
-.25
  0
LTYPE
  2
HIDDEN
 70
64
  3
HIDDEN
 72
65
 73
2
 40
.375
 49
.25
 49
-.125
  0
LTYPE
  2
CENTER
 70
64
  3
CENTER
 72
65
 73
4
 40
2
 49
1.25
 49
-.25
 49
.25
 49
-.25
  0
LTYPE
  2
PHANTOM
 70
64
  3
PHANTOM
 72
65
 73
6
 40
2.5
 49
1.25
 49
-.25
 49
.25
 49
-.25
 49
.25
 49
-.25
  0
ENDTAB
  0
TABLE
  2
LAYER
 70
1
  0
LAYER
  2
1
 70
0
 62
7
  6
CONTINUOUS
 0
ENDTAB
  0
TABLE
  2
STYLE
 70
2
  0
STYLE
  2
MONOTXT
 70
0
 40
0
 41
1
 50
0
 71
0
 42
.2
  3
monotxt
  0
STYLE
  2
BIGFONT
 70
0
 40
0
 41
1
 50
0
 71
0
 42
.2
  3
txt
  4
bigfont
  0
ENDTAB
  0
ENDSEC
  0
SECTION
  2
BLOCKS
  0
BLOCK
  8
0
  2
PP1
 70
10
 10
0.0
 20
0.0
  0
LINE
  8
0
  6
DASHED
 62
7
 10
-3.68669802E+02
 20
3.19000000E+02
 11
-3.65330180E+02
 21
3.19000000E+02
  0
LINE
  8
0
  6
DASHED
 62
7
 10
-3.70000028E+02
 20
3.21000000E+02
 11
-3.63999989E+02
 21
3.21000000E+02
  0
LINE
  8
0
  6
DASHED
 62
7
 10
-3.69999993E+02
 20
3.23000000E+02
 11
-3.63999989E+02
 21
3.23000000E+02
  0
LINE
  8
0
  6
DASHED
 62
7
 10
-3.70000046E+02
 20
3.20000000E+02
 11
-3.63999989E+02
 21
3.20000000E+02
  0
LINE
  8
0
  6
DASHED
 62
7
 10
-3.70000010E+02
 20
3.22000000E+02
 11
-3.63999989E+02
 21
3.22000000E+02
  0
LINE
  8
0
  6
DASHED
 62
7
 10
-3.68669903E+02
 20
3.24000000E+02
 11
-3.65330074E+02
 21
3.24000000E+02
  0
LINE
  8
0
  6
DASHED
 62
7
 10
-3.67130509E+02
 20
3.18111305E+02
 11
-3.64130516E+02
 21
3.23307445E+02
  0
LINE
  8
0
  6
DASHED
 62
7
 10
-3.68862568E+02
 20
3.19111291E+02
 11
-3.65862573E+02
 21
3.24307434E+02
  0
LINE
  8
0
  6
DASHED
 62
7
 10
-3.70000025E+02
 20
3.21141157E+02
 11
-3.68189260E+02
 21
3.24277496E+02
  0
LINE
  8
0
  6
DASHED
 62
7
 10
-3.65528989E+02
 20
3.18885219E+02
 11
-3.63999989E+02
 21
3.21533526E+02
  0
LINE
  8
0
  6
DASHED
 62
7
 10
-3.67996539E+02
 20
3.18611298E+02
 11
-3.64996545E+02
 21
3.23807440E+02
  0
LINE
  8
0
  6
DASHED
 62
7
 10
-3.69728597E+02
 20
3.19611285E+02
 11
-3.66728602E+02
 21
3.24807429E+02
  0
LINE
  8
0
  6
DASHED
 62
7
 10
-3.69999990E+02
 20
3.23141218E+02
 11
-3.69921298E+02
 21
3.23277518E+02
  0
LINE
  8
0
  6
DASHED
 62
7
 10
-3.63999989E+02
 20
3.20466474E+02
 11
-3.66395061E+02
 21
3.24614861E+02
  0
LINE
  8
0
  6
DASHED
 62
7
 10
-3.65429586E+02
 20
3.18942609E+02
 11
-3.68429579E+02
 21
3.24138749E+02
  0
LINE
  8
0
  6
DASHED
 62
7
 10
-3.67323293E+02
 20
3.18222606E+02
 11
-3.69999995E+02
 21
3.22858790E+02
  0
LINE
  8
0
  6
DASHED
 62
7
 10
-3.63999989E+02
 20
3.22466474E+02
 11
-3.64663023E+02
 21
3.23614884E+02
  0
LINE
  8
0
  6
DASHED
 62
7
 10
-3.64563557E+02
 20
3.19442603E+02
 11
-3.67563550E+02
 21
3.24638744E+02
  0
LINE
  8
0
  6
DASHED
 62
7
 10
-3.66295614E+02
 20
3.18442614E+02
 11
-3.69295607E+02
 21
3.23638755E+02
  0
LINE
  8
0
  6
DASHED
 62
7
 10
-3.69055329E+02
 20
3.19222580E+02
 11
-3.70000030E+02
 21
3.20858851E+02
  0
ENDBLK
  8
0
  0
BLOCK
  8
0
  2
PP2
 70
10
 10
0.0
 20
0.0
  0
LINE
  8
0
  6
DASHED
 62
7
 10
-1.90669814E+02
 20
3.19000000E+02
 11
-1.87330192E+02
 21
3.19000000E+02
  0
LINE
  8
0
  6
DASHED
 62
7
 10
-1.92000019E+02
 20
3.21000000E+02
 11
-1.85999991E+02
 21
3.21000000E+02
  0
LINE
  8
0
  6
DASHED
 62
7
 10
-1.92000019E+02
 20
3.23000000E+02
 11
-1.86000043E+02
 21
3.23000000E+02
  0
LINE
  8
0
  6
DASHED
 62
7
 10
-1.92000019E+02
 20
3.20000000E+02
 11
-1.85999964E+02
 21
3.20000000E+02
  0
LINE
  8
0
  6
DASHED
 62
7
 10
-1.92000019E+02
 20
3.22000000E+02
 11
-1.86000017E+02
 21
3.22000000E+02
  0
LINE
  8
0
  6
DASHED
 62
7
 10
-1.90669920E+02
 20
3.24000000E+02
 11
-1.87330108E+02
 21
3.24000000E+02
  0
LINE
  8
0
  6
DASHED
 62
7
 10
-1.86061114E+02
 20
3.19732697E+02
 11
-1.85999960E+02
 21
3.19838619E+02
  0
LINE
  8
0
  6
DASHED
 62
7
 10
-1.89262598E+02
 20
3.18187564E+02
 11
-1.86262618E+02
 21
3.23383681E+02
  0
LINE
  8
0
  6
DASHED
 62
7
 10
-1.90994660E+02
 20
3.19187545E+02
 11
-1.87994667E+02
 21
3.24383685E+02
  0
LINE
  8
0
  6
DASHED
 62
7
 10
-1.92000019E+02
 20
3.21446212E+02
 11
-1.90453426E+02
 21
3.24124990E+02
  0
LINE
  8
0
  6
DASHED
 62
7
 10
-1.87793158E+02
 20
3.18732708E+02
 11
-1.86000013E+02
 21
3.21838528E+02
  0
LINE
  8
0
  6
DASHED
 62
7
 10
-1.90128629E+02
 20
3.18687554E+02
 11
-1.87128643E+02
 21
3.23883683E+02
  0
LINE
  8
0
  6
DASHED
 62
7
 10
-1.91860691E+02
 20
3.19687536E+02
 11
-1.88860691E+02
 21
3.24883687E+02
  0
LINE
  8
0
  6
DASHED
 62
7
 10
-1.85999968E+02
 20
3.20161396E+02
 11
-1.88659231E+02
 21
3.24767374E+02
  0
LINE
  8
0
  6
DASHED
 62
7
 10
-1.87561677E+02
 20
3.18866353E+02
 11
-1.90561671E+02
 21
3.24062496E+02
  0
LINE
  8
0
  6
DASHED
 62
7
 10
-1.89587464E+02
 20
3.18375120E+02
 11
-1.92000019E+02
 21
3.22553788E+02
  0
LINE
  8
0
  6
DASHED
 62
7
 10
-1.86000021E+02
 20
3.22161487E+02
 11
-1.86927176E+02
 21
3.23767366E+02
  0
LINE
  8
0
  6
DASHED
 62
7
 10
-1.86695650E+02
 20
3.19366351E+02
 11
-1.89695640E+02
 21
3.24562487E+02
  0
LINE
  8
0
  6
DASHED
 62
7
 10
-1.88427704E+02
 20
3.18366356E+02
 11
-1.91427702E+02
 21
3.23562505E+02
  0
LINE
  8
0
  6
DASHED
 62
7
 10
-1.91319493E+02
 20
3.19375083E+02
 11
-1.92000019E+02
 21
3.20553788E+02
  0
ENDBLK
  8
0
  0
BLOCK
  8
0
  2
PP3
 70
10
 10
0.0
 20
0.0
  0
LINE
  8
0
  6
DASHED
 62
7
 10
-1.89575644E+02
 20
-2.29000000E+02
 11
-1.88424221E+02
 21
-2.29000000E+02
  0
LINE
  8
0
  6
DASHED
 62
7
 10
-1.91999958E+02
 20
-2.27000000E+02
 11
-1.85999913E+02
 21
-2.27000000E+02
  0
LINE
  8
0
  6
DASHED
 62
7
 10
-1.91999958E+02
 20
-2.25000000E+02
 11
-1.85999966E+02
 21
-2.25000000E+02
  0
LINE
  8
0
  6
DASHED
 62
7
 10
-1.90031874E+02
 20
-2.23000000E+02
 11
-1.87968012E+02
 21
-2.23000000E+02
  0
LINE
  8
0
  6
DASHED
 62
7
 10
-1.91307738E+02
 20
-2.28000000E+02
 11
-1.86692158E+02
 21
-2.28000000E+02
  0
LINE
  8
0
  6
DASHED
 62
7
 10
-1.91999958E+02
 20
-2.26000000E+02
 11
-1.85999939E+02
 21
-2.26000000E+02
  0
LINE
  8
0
  6
DASHED
 62
7
 10
-1.91763968E+02
 20
-2.24000000E+02
 11
-1.86235971E+02
 21
-2.24000000E+02
  0
LINE
  8
0
  6
DASHED
 62
7
 10
-1.88978194E+02
 20
-2.29319834E+02
 11
-1.85999988E+02
 21
-2.24161429E+02
  0
LINE
  8
0
  6
DASHED
 62
7
 10
-1.90721122E+02
 20
-2.28338674E+02
 11
-1.87721132E+02
 21
-2.23142537E+02
  0
LINE
  8
0
  6
DASHED
 62
7
 10
-1.91999958E+02
 20
-2.26553682E+02
 11
-1.89906422E+02
 21
-2.22927572E+02
  0
LINE
  8
0
  6
DASHED
 62
7
 10
-1.87246150E+02
 20
-2.28319845E+02
 11
-1.85999935E+02
 21
-2.26161338E+02
  0
LINE
  8
0
  6
DASHED
 62
7
 10
-1.89855092E+02
 20
-2.28838665E+02
 11
-1.86855107E+02
 21
-2.23642540E+02
  0
LINE
  8
0
  6
DASHED
 62
7
 10
-1.91587153E+02
 20
-2.27838684E+02
 11
-1.88587156E+02
 21
-2.22642535E+02
  0
LINE
  8
0
  6
DASHED
 62
7
 10
-1.91999958E+02
 20
-2.24553682E+02
 11
-1.91638451E+02
 21
-2.23927535E+02
  0
LINE
  8
0
  6
DASHED
 62
7
 10
-1.86103128E+02
 20
-2.27659926E+02
 11
-1.89103116E+02
 21
-2.22463795E+02
  0
LINE
  8
0
  6
DASHED
 62
7
 10
-1.87835182E+02
 20
-2.28659921E+02
 11
-1.90835178E+02
 21
-2.23463776E+02
  0
LINE
  8
0
  6
DASHED
 62
7
 10
-1.90134529E+02
 20
-2.28677336E+02
 11
-1.91999958E+02
 21
-2.25446318E+02
  0
LINE
  8
0
  6
DASHED
 62
7
 10
-1.85999944E+02
 20
-2.25838648E+02
 11
-1.87474249E+02
 21
-2.23285076E+02
  0
LINE
  8
0
  6
DASHED
 62
7
 10
-1.86969155E+02
 20
-2.28159924E+02
 11
-1.89969147E+02
 21
-2.22963785E+02
  0
LINE
  8
0
  6
DASHED
 62
7
 10
-1.88701209E+02
 20
-2.29159918E+02
 11
-1.91701209E+02
 21
-2.23963767E+02
  0
LINE
  8
0
  6
DASHED
 62
7
 10
-1.91866558E+02
 20
-2.27677373E+02
 11
-1.91999958E+02
 21
-2.27446318E+02
  0
ENDBLK
  8
0
  0
BLOCK
  8
0
  2
PP4
 70
10
 10
0.0
 20
0.0
  0
LINE
  8
0
  6
DASHED
 62
7
 10
-3.67575640E+02
 20
-2.29000000E+02
 11
-3.66424217E+02
 21
-2.29000000E+02
  0
LINE
  8
0
  6
DASHED
 62
7
 10
-3.69999978E+02
 20
-2.27000000E+02
 11
-3.63999928E+02
 21
-2.27000000E+02
  0
LINE
  8
0
  6
DASHED
 62
7
 10
-3.69999943E+02
 20
-2.25000000E+02
 11
-3.63999928E+02
 21
-2.25000000E+02
  0
LINE
  8
0
  6
DASHED
 62
7
 10
-3.68031864E+02
 20
-2.23000000E+02
 11
-3.65967991E+02
 21
-2.23000000E+02
  0
LINE
  8
0
  6
DASHED
 62
7
 10
-3.69307721E+02
 20
-2.28000000E+02
 11
-3.64692140E+02
 21
-2.28000000E+02
  0
LINE
  8
0
  6
DASHED
 62
7
 10
-3.69999960E+02
 20
-2.26000000E+02
 11
-3.63999928E+02
 21
-2.26000000E+02
  0
LINE
  8
0
  6
DASHED
 62
7
 10
-3.69763940E+02
 20
-2.24000000E+02
 11
-3.64235915E+02
 21
-2.24000000E+02
  0
LINE
  8
0
  6
DASHED
 62
7
 10
-3.66714021E+02
 20
-2.29167316E+02
 11
-3.63999928E+02
 21
-2.24466368E+02
  0
LINE
  8
0
  6
DASHED
 62
7
 10
-3.68589031E+02
 20
-2.28414929E+02
 11
-3.65589037E+02
 21
-2.23218786E+02
  0
LINE
  8
0
  6
DASHED
 62
7
 10
-3.69999975E+02
 20
-2.26858756E+02
 11
-3.67642253E+02
 21
-2.22775062E+02
  0
LINE
  8
0
  6
DASHED
 62
7
 10
-3.64981983E+02
 20
-2.28167338E+02
 11
-3.63999928E+02
 21
-2.26466368E+02
  0
LINE
  8
0
  6
DASHED
 62
7
 10
-3.67723002E+02
 20
-2.28914922E+02
 11
-3.64723008E+02
 21
-2.23718781E+02
  0
LINE
  8
0
  6
DASHED
 62
7
 10
-3.69455060E+02
 20
-2.27914935E+02
 11
-3.66455065E+02
 21
-2.22718792E+02
  0
LINE
  8
0
  6
DASHED
 62
7
 10
-3.69999940E+02
 20
-2.24858695E+02
 11
-3.69374291E+02
 21
-2.23775039E+02
  0
LINE
  8
0
  6
DASHED
 62
7
 10
-3.63999928E+02
 20
-2.27533632E+02
 11
-3.66942129E+02
 21
-2.22437590E+02
  0
LINE
  8
0
  6
DASHED
 62
7
 10
-3.65703092E+02
 20
-2.28583664E+02
 11
-3.68703085E+02
 21
-2.23387524E+02
  0
LINE
  8
0
  6
DASHED
 62
7
 10
-3.67870360E+02
 20
-2.28829846E+02
 11
-3.69999945E+02
 21
-2.25141296E+02
  0
LINE
  8
0
  6
DASHED
 62
7
 10
-3.63999928E+02
 20
-2.25533632E+02
 11
-3.65210091E+02
 21
-2.23437568E+02
  0
LINE
  8
0
  6
DASHED
 62
7
 10
-3.64837063E+02
 20
-2.28083670E+02
 11
-3.67837056E+02
 21
-2.22887530E+02
  0
LINE
  8
0
  6
DASHED
 62
7
 10
-3.66569120E+02
 20
-2.29083659E+02
 11
-3.69569114E+02
 21
-2.23887518E+02
  0
LINE
  8
0
  6
DASHED
 62
7
 10
-3.69602395E+02
 20
-2.27829873E+02
 11
-3.69999980E+02
 21
-2.27141235E+02
  0
ENDBLK
  8
0
  0
ENDSEC
  0
SECTION
  2
ENTITIES
  0
LINE
  8
0
  6
CENTER
 62
2
 10
-4.67079212E+02
 20
1.06500000E+02
 11
1.06963711E+02
 21
1.06500000E+02
  0
LINE
  8
0
  6
PHANTOM
 10
-4.05000000E+01
 20
2.08048812E+02
 11
-4.05000000E+01
 21
5.53151313E+01
  0
LINE
  8
0
 62
7
 10
-4.09999989E+02
 20
8.75000000E+01
 11
-4.09999989E+02
 21
1.25500008E+02
  0
LINE
  8
0
 62
7
 10
-4.09499989E+02
 20
8.70000000E+01
 11
-4.04999989E+02
 21
8.70000000E+01
  0
LINE
  8
0
 62
7
 10
-9.89999886E+01
 20
5.94999924E+01
 11
-9.89999886E+01
 21
1.53500008E+02
  0
LINE
  8
0
 62
7
 10
-1.30999989E+02
 20
5.94999924E+01
 11
-9.89999886E+01
 21
5.94999924E+01
  0
LINE
  8
0
 62
7
 10
-1.34508712E+02
 20
6.01198022E+01
 11
-9.89999904E+01
 21
5.94999952E+01
  0
LINE
  8
0
 62
7
 10
-1.30999958E+02
 20
6.00585480E+01
 11
-1.30999958E+02
 21
5.94999924E+01
  0
LINE
  8
0
  6
CENTER
 62
2
 10
2.80000114E+01
 20
1.40800056E+02
 11
2.80000114E+01
 21
1.55952660E+02
  0
LINE
  8
0
 62
7
 10
-3.90499989E+02
 20
8.45000000E+01
 11
-3.88999989E+02
 21
8.45000000E+01
  0
LINE
  8
0
 62
7
 10
-4.04999989E+02
 20
8.59717331E+01
 11
-4.04999989E+02
 21
1.27028267E+02
  0
LINE
  8
0
 62
7
 10
-4.04517525E+02
 20
8.54720974E+01
 11
-3.91000007E+02
 21
8.50000553E+01
  0
LINE
  8
0
  6
CENTER
 62
2
 10
-1.14999958E+02
 20
1.40800056E+02
 11
-1.14999958E+02
 21
1.55952660E+02
  0
LINE
  8
0
 62
7
 10
-3.90999989E+02
 20
1.27999962E+02
 11
-3.90999989E+02
 21
8.50000153E+01
  0
LINE
  8
0
 62
7
 10
4.40000114E+01
 20
5.94999924E+01
 11
1.20000114E+01
 21
5.94999924E+01
  0
LINE
  8
0
 62
7
 10
4.75087454E+01
 20
6.01198363E+01
 11
1.20000242E+01
 21
5.95000293E+01
  0
LINE
  8
0
 62
7
 10
4.40000267E+01
 20
6.00585480E+01
 11
4.40000267E+01
 21
5.94999924E+01
  0
LINE
  8
0
 62
7
 10
4.95000114E+01
 20
8.45000000E+01
 11
4.80000114E+01
 21
8.45000000E+01
  0
LINE
  8
0
 62
7
 10
5.00000267E+01
 20
1.28000008E+02
 11
5.00000267E+01
 21
8.50000153E+01
  0
LINE
  8
0
 62
7
 10
-4.20999989E+02
 20
9.97176895E+01
 11
-4.13999989E+02
 21
9.97176895E+01
  0
LINE
  8
0
 62
7
 10
-4.20999989E+02
 20
9.39999466E+01
 11
-4.09999989E+02
 21
9.39999466E+01
  0
LINE
  8
0
 62
7
 10
-4.20999989E+02
 20
9.97176895E+01
 11
-4.20999989E+02
 21
9.39999619E+01
  0
LINE
  8
0
 62
7
 10
-3.90499989E+02
 20
1.28500008E+02
 11
-3.88999989E+02
 21
1.28500008E+02
  0
LINE
  8
0
 62
7
 10
-4.20999989E+02
 20
1.13282280E+02
 11
-4.20999989E+02
 21
1.19000008E+02
  0
LINE
  8
0
 62
7
 10
-4.20999989E+02
 20
1.13282280E+02
 11
-4.13999989E+02
 21
1.13282280E+02
  0
LINE
  8
0
 62
7
 10
-4.23999989E+02
 20
9.54999695E+01
 11
-4.23999989E+02
 21
1.17500023E+02
  0
LINE
  8
0
 62
7
 10
-4.63999989E+02
 20
1.16000046E+02
 11
-4.63999989E+02
 21
9.69999466E+01
  0
LINE
  8
0
 62
7
 10
-4.26999989E+02
 20
1.17500023E+02
 11
-4.26999989E+02
 21
9.54999847E+01
  0
LINE
  8
0
 62
7
 10
-4.62500050E+02
 20
9.54999695E+01
 11
-4.51999988E+02
 21
9.54999695E+01
  0
LINE
  8
0
 62
7
 10
-4.62499989E+02
 20
1.17500023E+02
 11
-4.62499989E+02
 21
9.54999847E+01
  0
LINE
  8
0
 62
7
 10
-4.64000060E+02
 20
9.70000382E+01
 11
-4.62500048E+02
 21
9.55000258E+01
  0
LINE
  8
0
 62
2
 10
-4.63320057E+02
 20
9.63199844E+01
 11
-4.51999988E+02
 21
9.63199844E+01
  0
LINE
  8
0
 62
7
 10
-4.26999989E+02
 20
9.63199844E+01
 11
-4.23999989E+02
 21
9.63199844E+01
  0
LINE
  8
0
 62
7
 10
1.20000420E+01
 20
6.29999847E+01
 11
-9.89999886E+01
 21
6.29999847E+01
  0
LINE
  8
0
  6
CENTER
 62
2
 10
5.07792015E+01
 20
7.14999847E+01
 11
-1.37524464E+02
 21
7.14999847E+01
  0
LINE
  8
0
 62
7
 10
1.20000420E+01
 20
7.59999847E+01
 11
-9.89999886E+01
 21
7.59999847E+01
  0
LINE
  8
0
 62
7
 10
1.20000420E+01
 20
6.69999847E+01
 11
-9.89999886E+01
 21
6.69999847E+01
  0
LINE
  8
0
 62
7
 10
-1.30999989E+02
 20
1.53500008E+02
 11
-9.89999886E+01
 21
1.53500008E+02
  0
LINE
  8
0
 62
7
 10
-1.34508758E+02
 20
1.52880212E+02
 11
-9.90000062E+01
 21
1.53500020E+02
  0
LINE
  8
0
 62
7
 10
-1.30999958E+02
 20
1.52941460E+02
 11
-1.30999958E+02
 21
1.53500008E+02
  0
LINE
  8
0
 62
7
 10
4.80000267E+01
 20
6.06197205E+01
 11
4.80000267E+01
 21
1.52380287E+02
  0
LINE
  8
0
 62
2
 10
-4.63320057E+02
 20
1.16680016E+02
 11
-4.51999988E+02
 21
1.16680016E+02
  0
LINE
  8
0
 62
7
 10
-4.26999989E+02
 20
1.16680016E+02
 11
-4.23999989E+02
 21
1.16680016E+02
  0
LINE
  8
0
 62
7
 10
-4.09499989E+02
 20
1.25999992E+02
 11
-4.04999989E+02
 21
1.25999992E+02
  0
LINE
  8
0
 62
7
 10
-4.20999989E+02
 20
1.19000053E+02
 11
-4.09999989E+02
 21
1.19000053E+02
  0
LINE
  8
0
 62
7
 10
-4.04517521E+02
 20
1.27527935E+02
 11
-3.91000064E+02
 21
1.27999975E+02
  0
LINE
  8
0
 62
7
 10
4.40000114E+01
 20
1.53500008E+02
 11
1.20000114E+01
 21
1.53500008E+02
  0
LINE
  8
0
 62
7
 10
4.75087158E+01
 20
1.52880195E+02
 11
1.19999793E+01
 21
1.53500002E+02
  0
LINE
  8
0
 62
7
 10
4.40000267E+01
 20
1.52941460E+02
 11
4.40000267E+01
 21
1.53500008E+02
  0
LINE
  8
0
 62
7
 10
4.95000114E+01
 20
1.28500008E+02
 11
4.80000114E+01
 21
1.28500008E+02
  0
LINE
  8
0
 62
7
 10
1.20000420E+01
 20
5.94999924E+01
 11
1.20000420E+01
 21
1.53500008E+02
  0
LINE
  8
0
 62
7
 10
-4.64000060E+02
 20
1.15999994E+02
 11
-4.62500026E+02
 21
1.17500028E+02
  0
LINE
  8
0
 62
7
 10
-4.62500050E+02
 20
1.17500023E+02
 11
-4.51999988E+02
 21
1.17500023E+02
  0
LINE
  8
0
 62
7
 10
1.20000420E+01
 20
1.46000023E+02
 11
4.00001907E+00
 21
1.46000023E+02
  0
LINE
  8
0
 62
7
 10
1.20000420E+01
 20
1.37000008E+02
 11
-1.09999809E+01
 21
1.37000008E+02
  0
LINE
  8
0
  6
CENTER
 62
2
 10
5.07792015E+01
 20
1.41500023E+02
 11
-1.37524464E+02
 21
1.41500023E+02
  0
LINE
  8
0
 62
7
 10
1.20000420E+01
 20
1.50000008E+02
 11
5.50001907E+00
 21
1.50000008E+02
  0
LINE
  8
0
 62
7
 10
-4.13999989E+02
 20
9.97176895E+01
 11
-4.13999989E+02
 21
1.13282280E+02
  0
LINE
  8
0
 62
7
 10
-4.20999972E+02
 20
9.97176907E+01
 11
-4.23999969E+02
 21
1.03000127E+02
  0
LINE
  8
0
 62
7
 10
-4.23999973E+02
 20
1.09999881E+02
 11
-4.20999985E+02
 21
1.13282285E+02
  0
LINE
  8
0
 62
7
 10
-4.23999984E+02
 20
1.17500045E+02
 11
-4.20999972E+02
 21
1.19000074E+02
  0
LINE
  8
0
 62
7
 10
-4.24000001E+02
 20
9.54999874E+01
 11
-4.20999989E+02
 21
9.39999584E+01
  0
LINE
  8
0
 62
2
 10
-4.13999974E+02
 20
1.13282264E+02
 11
-4.22660516E+02
 21
1.01534575E+02
  0
LINE
  8
0
 62
2
 10
-4.13999978E+02
 20
9.97176784E+01
 11
-4.22660538E+02
 21
1.11465391E+02
  0
LINE
  8
0
 62
7
 10
-3.32536335E+02
 20
1.00500310E+02
 11
-3.29072235E+02
 21
1.06500316E+02
  0
LINE
  8
0
 62
7
 10
-3.39464375E+02
 20
1.00499985E+02
 11
-3.42928483E+02
 21
1.06500004E+02
  0
LINE
  8
0
 62
7
 10
-3.32535816E+02
 20
1.00499977E+02
 11
-3.39464100E+02
 21
1.00499977E+02
  0
LINE
  8
0
 62
7
 10
-3.37999989E+02
 20
1.05345291E+02
 11
-3.37999989E+02
 21
1.07654709E+02
  0
LINE
  8
0
 62
7
 10
-3.36000042E+02
 20
1.04190607E+02
 11
-3.37999977E+02
 21
1.05345270E+02
  0
LINE
  8
0
 62
7
 10
-3.33999781E+02
 20
1.05344881E+02
 11
-3.35999795E+02
 21
1.04190172E+02
  0
LINE
  8
0
 62
7
 10
-3.33999989E+02
 20
1.07655205E+02
 11
-3.33999989E+02
 21
1.05345291E+02
  0
LINE
  8
0
  6
CENTER
 62
2
 10
-3.35999989E+02
 20
1.17239250E+02
 11
-3.35999989E+02
 21
9.47921982E+01
  0
LINE
  8
0
 62
7
 10
-3.88999989E+02
 20
5.04999771E+01
 11
-3.53999989E+02
 21
5.04999771E+01
  0
LINE
  8
0
 62
7
 10
-3.53999989E+02
 20
5.29999771E+01
 11
-2.01999989E+02
 21
5.29999771E+01
  0
LINE
  8
0
 62
7
 10
-2.01999989E+02
 20
5.04999771E+01
 11
-1.34999989E+02
 21
5.04999771E+01
  0
LINE
  8
0
 62
7
 10
-3.88999989E+02
 20
1.62499977E+02
 11
-3.53999989E+02
 21
1.62499977E+02
  0
LINE
  8
0
 62
7
 10
-2.01999989E+02
 20
1.62499977E+02
 11
-1.34999989E+02
 21
1.62499977E+02
  0
LINE
  8
0
 62
7
 10
-3.88999989E+02
 20
1.62499977E+02
 11
-3.88999989E+02
 21
5.04999771E+01
  0
LINE
  8
0
 62
7
 10
-3.35999829E+02
 20
1.08809307E+02
 11
-3.37999816E+02
 21
1.07654613E+02
  0
LINE
  8
0
 62
7
 10
-3.33999760E+02
 20
1.07655074E+02
 11
-3.35999695E+02
 21
1.08809737E+02
  0
LINE
  8
0
 62
7
 10
-3.39464469E+02
 20
1.12500073E+02
 11
-3.42928562E+02
 21
1.06500080E+02
  0
LINE
  8
0
 62
7
 10
-3.32535816E+02
 20
1.12500023E+02
 11
-3.39464100E+02
 21
1.12500023E+02
  0
LINE
  8
0
 62
7
 10
-3.32536305E+02
 20
1.12499675E+02
 11
-3.29072212E+02
 21
1.06499683E+02
  0
LINE
  8
0
 62
7
 10
-2.22000038E+02
 20
1.07654971E+02
 11
-2.20000050E+02
 21
1.08809665E+02
  0
LINE
  8
0
 62
7
 10
-2.20000041E+02
 20
1.08809469E+02
 11
-2.18000080E+02
 21
1.07654790E+02
  0
LINE
  8
0
 62
7
 10
-2.23463931E+02
 20
1.12499838E+02
 11
-2.26928031E+02
 21
1.06499832E+02
  0
LINE
  8
0
 62
7
 10
-2.23464130E+02
 20
1.12500023E+02
 11
-2.16535938E+02
 21
1.12500023E+02
  0
LINE
  8
0
 62
7
 10
-2.16535843E+02
 20
1.12500043E+02
 11
-2.13071735E+02
 21
1.06500023E+02
  0
LINE
  8
0
 62
7
 10
-3.53999989E+02
 20
1.43999992E+02
 11
-2.01999989E+02
 21
1.43999992E+02
  0
LINE
  8
0
  6
CENTER
 62
2
 10
-3.96066456E+02
 20
1.48500008E+02
 11
-1.27783985E+02
 21
1.48500008E+02
  0
LINE
  8
0
 62
7
 10
-3.53999989E+02
 20
1.53000008E+02
 11
-2.01999989E+02
 21
1.53000008E+02
  0
LINE
  8
0
 62
7
 10
-3.53999989E+02
 20
1.59999977E+02
 11
-2.93499989E+02
 21
1.59999977E+02
  0
LINE
  8
0
 62
7
 10
-3.53999989E+02
 20
1.62499977E+02
 11
-3.53999989E+02
 21
5.04999771E+01
  0
LINE
  8
0
 62
7
 10
-2.02000019E+02
 20
1.62499977E+02
 11
-2.02000019E+02
 21
5.04999771E+01
  0
LINE
  8
0
 62
7
 10
-3.53999989E+02
 20
6.90000000E+01
 11
-2.01999989E+02
 21
6.90000000E+01
  0
LINE
  8
0
  6
CENTER
 62
2
 10
-3.96066456E+02
 20
6.44999924E+01
 11
-1.27783985E+02
 21
6.44999924E+01
  0
LINE
  8
0
 62
7
 10
-3.53999989E+02
 20
5.99999847E+01
 11
-2.01999989E+02
 21
5.99999847E+01
  0
LINE
  8
0
  6
CENTER
 62
2
 10
-2.77999989E+02
 20
1.56937157E+02
 11
-2.77999989E+02
 21
1.79453453E+02
  0
LINE
  8
0
 62
7
 10
-2.16535858E+02
 20
1.00499970E+02
 11
-2.13071743E+02
 21
1.06500002E+02
  0
LINE
  8
0
 62
7
 10
-2.23464130E+02
 20
1.00499977E+02
 11
-2.16535938E+02
 21
1.00499977E+02
  0
LINE
  8
0
 62
7
 10
-2.18000050E+02
 20
1.05345291E+02
 11
-2.18000050E+02
 21
1.07654785E+02
  0
LINE
  8
0
 62
7
 10
-2.19999971E+02
 20
1.04190450E+02
 11
-2.17999984E+02
 21
1.05345144E+02
  0
LINE
  8
0
 62
7
 10
-2.22000146E+02
 20
1.05344882E+02
 11
-2.20000158E+02
 21
1.04190188E+02
  0
LINE
  8
0
 62
7
 10
-2.22000019E+02
 20
1.07655128E+02
 11
-2.22000019E+02
 21
1.05345291E+02
  0
LINE
  8
0
  6
CENTER
 62
2
 10
-2.20000019E+02
 20
1.17441475E+02
 11
-2.20000019E+02
 21
9.47921982E+01
  0
LINE
  8
0
 62
7
 10
-2.23463833E+02
 20
1.00500152E+02
 11
-2.26927941E+02
 21
1.06500171E+02
  0
LINE
  8
0
 62
7
 10
-2.62499989E+02
 20
1.59999977E+02
 11
-2.01999989E+02
 21
1.59999977E+02
  0
LINE
  8
0
 62
7
 10
-2.90499865E+02
 20
1.73999926E+02
 11
-2.89499886E+02
 21
1.74999905E+02
  0
LINE
  8
0
 62
7
 10
-2.66500002E+02
 20
1.74999959E+02
 11
-2.65500022E+02
 21
1.73999980E+02
  0
LINE
  8
0
 62
7
 10
-2.65499989E+02
 20
1.62999977E+02
 11
-2.65499989E+02
 21
1.73999992E+02
  0
LINE
  8
0
 62
7
 10
-2.90499989E+02
 20
1.62999931E+02
 11
-2.90499989E+02
 21
1.73999992E+02
  0
LINE
  8
0
 62
7
 10
-2.89499989E+02
 20
1.74999977E+02
 11
-2.66499989E+02
 21
1.74999977E+02
  0
LINE
  8
0
 62
7
 10
-2.90500055E+02
 20
1.63000041E+02
 11
-2.93500074E+02
 21
1.60000053E+02
  0
LINE
  8
0
 62
7
 10
-2.65500022E+02
 20
1.62999990E+02
 11
-2.62500041E+02
 21
1.60000008E+02
  0
LINE
  8
0
 62
7
 10
-1.34999989E+02
 20
1.62499977E+02
 11
-1.34999989E+02
 21
5.04999771E+01
  0
LINE
  8
0
 62
7
 10
-2.90499989E+02
 20
1.73999992E+02
 11
-2.65499989E+02
 21
1.73999992E+02
  0
ARC
  8
0
 62
7
 10
-4.09499989E+02
 20
8.75000000E+01
 40
5.00000000E-01
 50
1.79999977E+02
 51
2.69999974E+02
  0
ARC
  8
0
 62
7
 10
-1.34499989E+02
 20
6.06197205E+01
 40
5.00000000E-01
 50
1.79999977E+02
 51
2.68999679E+02
  0
ARC
  8
0
 62
7
 10
-3.90499989E+02
 20
8.49999924E+01
 40
5.00000000E-01
 50
1.79999977E+02
 51
2.69999974E+02
  0
ARC
  8
0
 62
7
 10
-4.04499989E+02
 20
8.59717331E+01
 40
5.00000000E-01
 50
1.79999977E+02
 51
2.67999192E+02
  0
ARC
  8
0
 62
7
 10
4.75000420E+01
 20
6.06197205E+01
 40
5.00000000E-01
 50
2.71000347E+02
 51
5.46415133E-05
  0
ARC
  8
0
 62
7
 10
4.95000267E+01
 20
8.49999924E+01
 40
5.00000000E-01
 50
2.70000073E+02
 51
5.46415133E-05
  0
ARC
  8
0
 62
7
 10
4.95000267E+01
 20
1.28000008E+02
 40
5.00000000E-01
 50
5.46415133E-05
 51
9.00000369E+01
  0
ARC
  8
0
 62
7
 10
-4.04499989E+02
 20
1.27028267E+02
 40
5.00000000E-01
 50
9.20007356E+01
 51
1.79999964E+02
  0
ARC
  8
0
 62
7
 10
-4.09499989E+02
 20
1.25500008E+02
 40
5.00000000E-01
 50
8.99999818E+01
 51
1.79999964E+02
  0
ARC
  8
0
 62
7
 10
-3.90499989E+02
 20
1.28000008E+02
 40
5.00000000E-01
 50
8.99999818E+01
 51
1.79999964E+02
  0
ARC
  8
0
 62
7
 10
-4.24499989E+02
 20
1.06499985E+02
 40
1.25000010E+01
 50
3.27140311E+02
 51
3.28596884E+01
  0
ARC
  8
0
 62
7
 10
-1.34499989E+02
 20
1.52380287E+02
 40
5.00000000E-01
 50
9.10002493E+01
 51
1.79999964E+02
  0
ARC
  8
0
 62
7
 10
4.75000420E+01
 20
1.52380287E+02
 40
5.00000000E-01
 50
3.59999891E+02
 51
8.89995981E+01
  0
CIRCLE
  8
0
 62
7
 10
-3.35999989E+02
 20
1.06500000E+02
 40
4.00000000E+00
  0
CIRCLE
  8
0
 62
7
 10
-3.35999989E+02
 20
1.06500000E+02
 40
8.00000000E+00
  0
CIRCLE
  8
0
 62
7
 10
-3.35999989E+02
 20
1.06500000E+02
 40
3.30000043E+00
  0
ARC
  8
0
 62
2
 10
-2.77999989E+02
 20
2.11205193E+02
 40
4.97995224E+01
 50
2.55462951E+02
 51
2.84537065E+02
  0
ARC
  8
0
 62
2
 10
-2.77999989E+02
 20
2.11205193E+02
 40
5.34997444E+01
 50
2.53158779E+02
 51
2.86841243E+02
  0
CIRCLE
  8
0
 62
7
 10
-2.20000019E+02
 20
1.06500000E+02
 40
4.00000000E+00
  0
CIRCLE
  8
0
 62
7
 10
-2.20000019E+02
 20
1.06500000E+02
 40
3.30000043E+00
  0
CIRCLE
  8
0
 62
7
 10
-2.20000019E+02
 20
1.06500000E+02
 40
8.00000000E+00
  0
ARC
  8
0
 62
4
 10
-4.43437386E+02
 20
1.20220553E+02
 40
8.56342793E+00
 50
1.46410665E+02
 51
2.13589318E+02
  0
ARC
  8
0
 62
4
 10
-4.22945188E+02
 20
1.06482943E+02
 40
2.90548000E+01
 50
1.61955287E+02
 51
1.98044695E+02
  0
ARC
  8
0
 62
4
 10
-4.43437386E+02
 20
9.27453331E+01
 40
8.56342793E+00
 50
1.46410624E+02
 51
2.13589277E+02
  0
ARC
  8
0
 62
4
 10
-4.47562591E+02
 20
1.20220553E+02
 40
8.56342793E+00
 50
3.26410605E+02
 51
3.35892584E+01
  0
ARC
  8
0
 62
4
 10
-4.68054784E+02
 20
1.06482943E+02
 40
2.90548000E+01
 50
3.41955269E+02
 51
1.80446768E+01
  0
ARC
  8
0
 62
4
 10
-4.47562591E+02
 20
9.27453331E+01
 40
8.56342793E+00
 50
3.26410646E+02
 51
3.35892994E+01
  0
LINE
  8
0
 62
4
 10
-4.50570926E+02
 20
1.15482943E+02
 11
-4.40429050E+02
 21
1.15482943E+02
  0
LINE
  8
0
 62
4
 10
-4.50570926E+02
 20
9.74829430E+01
 11
-4.40429050E+02
 21
9.74829430E+01
  0
LINE
  8
0
 62
4
 10
-4.40429069E+02
 20
1.24958119E+02
 11
-4.38999996E+02
 21
1.22482931E+02
  0
LINE
  8
0
 62
4
 10
-4.51999952E+02
 20
9.04829893E+01
 11
-4.50570897E+02
 21
8.80077994E+01
  0
LINE
  8
0
 62
4
 10
-4.40429024E+02
 20
8.80077861E+01
 11
-4.38999977E+02
 21
9.04829145E+01
  0
LINE
  8
0
 62
4
 10
-4.52000005E+02
 20
1.22482946E+02
 11
-4.50570922E+02
 21
1.24958163E+02
  0
LINE
  8
0
 62
4
 10
-4.38999989E+02
 20
1.22482947E+02
 11
-4.38999989E+02
 21
9.04829430E+01
  0
LINE
  8
0
 62
4
 10
-4.51999988E+02
 20
1.22482947E+02
 11
-4.51999988E+02
 21
9.04829430E+01
  0
LINE
  8
0
 62
4
 10
-4.50570926E+02
 20
1.24958167E+02
 11
-4.40429050E+02
 21
1.24958167E+02
  0
LINE
  8
0
 62
4
 10
-4.50570926E+02
 20
8.80077251E+01
 11
-4.40429050E+02
 21
8.80077251E+01
  0
LINE
  8
0
 62
2
 10
-4.38999989E+02
 20
1.16680016E+02
 11
-4.26999989E+02
 21
1.16680016E+02
  0
LINE
  8
0
 62
7
 10
-4.38999989E+02
 20
1.17500023E+02
 11
-4.26999989E+02
 21
1.17500023E+02
  0
LINE
  8
0
 62
7
 10
-4.38999989E+02
 20
9.54999695E+01
 11
-4.26999989E+02
 21
9.54999695E+01
  0
LINE
  8
0
 62
2
 10
-4.38999989E+02
 20
9.63199844E+01
 11
-4.26999989E+02
 21
9.63199844E+01
  0
LINE
  8
0
 62
6
 10
-4.67320089E+01
 20
1.46726436E+02
 11
-4.32679073E+01
 21
1.52726436E+02
  0
LINE
  8
0
 62
6
 10
-3.42678462E+01
 20
1.52726436E+02
 11
-3.77319478E+01
 21
1.46726436E+02
  0
LINE
  8
0
 62
4
 10
-2.59998970E+01
 20
1.51226436E+02
 11
-3.51338716E+01
 21
1.51226436E+02
  0
LINE
  8
0
  6
CENTER
 62
6
 10
9.00010300E+00
 20
1.49726436E+02
 11
-3.79998970E+01
 21
1.49726436E+02
  0
LINE
  8
0
 62
4
 10
-2.59998970E+01
 20
1.48226436E+02
 11
-3.68659224E+01
 21
1.48226436E+02
  0
LINE
  8
0
 62
4
 10
-6.14999580E+01
 20
1.51226436E+02
 11
-4.41339326E+01
 21
1.51226436E+02
  0
LINE
  8
0
 62
4
 10
5.50001907E+00
 20
1.48248904E+02
 11
4.00001907E+00
 21
1.47122855E+02
  0
LINE
  8
0
 62
4
 10
5.50001907E+00
 20
1.49097388E+02
 11
4.00001908E+00
 21
1.48621281E+02
  0
LINE
  8
0
 62
4
 10
5.50001907E+00
 20
1.51197459E+02
 11
5.50001907E+00
 21
1.48248904E+02
  0
LINE
  8
0
 62
4
 10
4.00001908E+00
 20
1.52330017E+02
 11
5.50001907E+00
 21
1.51197459E+02
  0
LINE
  8
0
 62
4
 10
-8.49999580E+01
 20
1.50000008E+02
 11
-8.49999580E+01
 21
1.62361399E+02
  0
LINE
  8
0
 62
4
 10
-5.49999580E+01
 20
1.51226436E+02
 11
-5.49999580E+01
 21
1.62361399E+02
  0
LINE
  8
0
 62
4
 10
-2.59999809E+01
 20
1.30976475E+02
 11
-2.59999809E+01
 21
1.62361399E+02
  0
LINE
  8
0
  6
CENTER
 62
6
 10
7.46159613E-02
 20
1.54330624E+02
 11
-7.07457781E+00
 21
1.54330624E+02
  0
LINE
  8
0
  6
CENTER
 62
6
 10
-3.49998093E+00
 20
1.57905221E+02
 11
-3.49998093E+00
 21
1.50756027E+02
  0
LINE
  8
0
 62
4
 10
4.00001907E+00
 20
1.62361399E+02
 11
4.00001907E+00
 21
1.43518167E+02
  0
LINE
  8
0
 62
4
 10
-1.09999809E+01
 20
1.30976475E+02
 11
-1.09999809E+01
 21
1.62361399E+02
  0
LINE
  8
0
  6
CENTER
 62
6
 10
-2.59999809E+01
 20
1.35159709E+02
 11
-1.89999809E+01
 21
1.35159709E+02
  0
LINE
  8
0
  6
CENTER
 62
6
 10
-2.24999809E+01
 20
1.31659709E+02
 11
-2.24999809E+01
 21
1.38659709E+02
  0
LINE
  8
0
  6
CENTER
 62
6
 10
-1.79999809E+01
 20
1.35159709E+02
 11
-1.09999809E+01
 21
1.35159709E+02
  0
LINE
  8
0
  6
CENTER
 62
6
 10
-1.44999809E+01
 20
1.31659709E+02
 11
-1.44999809E+01
 21
1.38659709E+02
  0
LINE
  8
0
 62
4
 10
-2.59999809E+01
 20
1.62361399E+02
 11
4.00001907E+00
 21
1.62361399E+02
  0
LINE
  8
0
 62
4
 10
-2.59999809E+01
 20
1.30976475E+02
 11
-1.09999809E+01
 21
1.30976475E+02
  0
LINE
  8
0
 62
4
 10
-2.59999809E+01
 20
1.58502951E+02
 11
4.00001907E+00
 21
1.58502951E+02
  0
LINE
  8
0
 62
4
 10
-2.59999809E+01
 20
1.55880705E+02
 11
-1.09999809E+01
 21
1.55880705E+02
  0
LINE
  8
0
 62
4
 10
-2.49999809E+01
 20
1.42049431E+02
 11
-1.19999809E+01
 21
1.42049431E+02
  0
LINE
  8
0
 62
4
 10
-1.09999809E+01
 20
1.43518167E+02
 11
4.00001907E+00
 21
1.43518167E+02
  0
LINE
  8
0
 62
4
 10
-1.09999809E+01
 20
1.50621889E+02
 11
4.00001907E+00
 21
1.50621889E+02
  0
LINE
  8
0
 62
4
 10
-1.09999809E+01
 20
1.50472046E+02
 11
4.00001907E+00
 21
1.50472046E+02
  0
POLYLINE
  8
0
 62
4
 66
1
  0
VERTEX
  8
0
 62
4
 10
-5.74998093E+00
 20
1.54330624E+02
  0
VERTEX
  8
0
 62
4
 10
-5.74141900E+00
 20
1.54148803E+02
  0
VERTEX
  8
0
 62
4
 10
-5.71579838E+00
 20
1.53968365E+02
  0
VERTEX
  8
0
 62
4
 10
-5.67331404E+00
 20
1.53790685E+02
  0
VERTEX
  8
0
 62
4
 10
-5.61428933E+00
 20
1.53617114E+02
  0
VERTEX
  8
0
 62
4
 10
-5.53917345E+00
 20
1.53448973E+02
  0
VERTEX
  8
0
 62
4
 10
-5.44853809E+00
 20
1.53287542E+02
  0
VERTEX
  8
0
 62
4
 10
-5.34307303E+00
 20
1.53134050E+02
  0
VERTEX
  8
0
 62
4
 10
-5.22358093E+00
 20
1.52989664E+02
  0
VERTEX
  8
0
 62
4
 10
-5.09097119E+00
 20
1.52855484E+02
  0
VERTEX
  8
0
 62
4
 10
-4.94625306E+00
 20
1.52732530E+02
  0
VERTEX
  8
0
 62
4
 10
-4.79052792E+00
 20
1.52621739E+02
  0
VERTEX
  8
0
 62
4
 10
-4.62498094E+00
 20
1.52523953E+02
  0
VERTEX
  8
0
 62
4
 10
-4.45087202E+00
 20
1.52439918E+02
  0
VERTEX
  8
0
 62
4
 10
-4.26952626E+00
 20
1.52370271E+02
  0
VERTEX
  8
0
 62
4
 10
-4.08232379E+00
 20
1.52315545E+02
  0
VERTEX
  8
0
 62
4
 10
-3.89068934E+00
 20
1.52276154E+02
  0
VERTEX
  8
0
 62
4
 10
-3.69608136E+00
 20
1.52252399E+02
  0
VERTEX
  8
0
 62
4
 10
-3.49998094E+00
 20
1.52244460E+02
  0
VERTEX
  8
0
 62
4
 10
-3.30388051E+00
 20
1.52252399E+02
  0
VERTEX
  8
0
 62
4
 10
-3.10927254E+00
 20
1.52276154E+02
  0
VERTEX
  8
0
 62
4
 10
-2.91763808E+00
 20
1.52315545E+02
  0
VERTEX
  8
0
 62
4
 10
-2.73043561E+00
 20
1.52370271E+02
  0
VERTEX
  8
0
 62
4
 10
-2.54908985E+00
 20
1.52439918E+02
  0
VERTEX
  8
0
 62
4
 10
-2.37498093E+00
 20
1.52523953E+02
  0
VERTEX
  8
0
 62
4
 10
-2.20943395E+00
 20
1.52621739E+02
  0
VERTEX
  8
0
 62
4
 10
-2.05370881E+00
 20
1.52732530E+02
  0
VERTEX
  8
0
 62
4
 10
-1.90899068E+00
 20
1.52855484E+02
  0
VERTEX
  8
0
 62
4
 10
-1.77638094E+00
 20
1.52989664E+02
  0
VERTEX
  8
0
 62
4
 10
-1.65688883E+00
 20
1.53134050E+02
  0
VERTEX
  8
0
 62
4
 10
-1.55142377E+00
 20
1.53287542E+02
  0
VERTEX
  8
0
 62
4
 10
-1.46078841E+00
 20
1.53448973E+02
  0
VERTEX
  8
0
 62
4
 10
-1.38567253E+00
 20
1.53617114E+02
  0
VERTEX
  8
0
 62
4
 10
-1.32664782E+00
 20
1.53790685E+02
  0
VERTEX
  8
0
 62
4
 10
-1.28416349E+00
 20
1.53968365E+02
  0
VERTEX
  8
0
 62
4
 10
-1.25854286E+00
 20
1.54148803E+02
  0
VERTEX
  8
0
 62
4
 10
-1.24998093E+00
 20
1.54330624E+02
  0
VERTEX
  8
0
 62
4
 10
-1.25854286E+00
 20
1.54512445E+02
  0
VERTEX
  8
0
 62
4
 10
-1.28416349E+00
 20
1.54692883E+02
  0
VERTEX
  8
0
 62
4
 10
-1.32664782E+00
 20
1.54870563E+02
  0
VERTEX
  8
0
 62
4
 10
-1.38567253E+00
 20
1.55044134E+02
  0
VERTEX
  8
0
 62
4
 10
-1.46078841E+00
 20
1.55212275E+02
  0
VERTEX
  8
0
 62
4
 10
-1.55142377E+00
 20
1.55373706E+02
  0
VERTEX
  8
0
 62
4
 10
-1.65688883E+00
 20
1.55527198E+02
  0
VERTEX
  8
0
 62
4
 10
-1.77638093E+00
 20
1.55671584E+02
  0
VERTEX
  8
0
 62
4
 10
-1.90899067E+00
 20
1.55805764E+02
  0
VERTEX
  8
0
 62
4
 10
-2.05370881E+00
 20
1.55928718E+02
  0
VERTEX
  8
0
 62
4
 10
-2.20943395E+00
 20
1.56039509E+02
  0
VERTEX
  8
0
 62
4
 10
-2.37498093E+00
 20
1.56137295E+02
  0
VERTEX
  8
0
 62
4
 10
-2.54908984E+00
 20
1.56221330E+02
  0
VERTEX
  8
0
 62
4
 10
-2.73043560E+00
 20
1.56290977E+02
  0
VERTEX
  8
0
 62
4
 10
-2.91763808E+00
 20
1.56345703E+02
  0
VERTEX
  8
0
 62
4
 10
-3.10927253E+00
 20
1.56385094E+02
  0
VERTEX
  8
0
 62
4
 10
-3.30388051E+00
 20
1.56408849E+02
  0
VERTEX
  8
0
 62
4
 10
-3.49998093E+00
 20
1.56416788E+02
  0
VERTEX
  8
0
 62
4
 10
-3.69608135E+00
 20
1.56408849E+02
  0
VERTEX
  8
0
 62
4
 10
-3.89068933E+00
 20
1.56385094E+02
  0
VERTEX
  8
0
 62
4
 10
-4.08232378E+00
 20
1.56345703E+02
  0
VERTEX
  8
0
 62
4
 10
-4.26952625E+00
 20
1.56290977E+02
  0
VERTEX
  8
0
 62
4
 10
-4.45087202E+00
 20
1.56221330E+02
  0
VERTEX
  8
0
 62
4
 10
-4.62498093E+00
 20
1.56137295E+02
  0
VERTEX
  8
0
 62
4
 10
-4.79052791E+00
 20
1.56039509E+02
  0
VERTEX
  8
0
 62
4
 10
-4.94625305E+00
 20
1.55928718E+02
  0
VERTEX
  8
0
 62
4
 10
-5.09097119E+00
 20
1.55805764E+02
  0
VERTEX
  8
0
 62
4
 10
-5.22358093E+00
 20
1.55671584E+02
  0
VERTEX
  8
0
 62
4
 10
-5.34307303E+00
 20
1.55527198E+02
  0
VERTEX
  8
0
 62
4
 10
-5.44853809E+00
 20
1.55373706E+02
  0
VERTEX
  8
0
 62
4
 10
-5.53917345E+00
 20
1.55212275E+02
  0
VERTEX
  8
0
 62
4
 10
-5.61428933E+00
 20
1.55044134E+02
  0
VERTEX
  8
0
 62
4
 10
-5.67331404E+00
 20
1.54870563E+02
  0
VERTEX
  8
0
 62
4
 10
-5.71579837E+00
 20
1.54692883E+02
  0
VERTEX
  8
0
 62
4
 10
-5.74141900E+00
 20
1.54512445E+02
  0
VERTEX
  8
0
 62
4
 10
-5.74998093E+00
 20
1.54330624E+02
  0
SEQEND
  8
0
  0
POLYLINE
  8
0
 62
4
 66
1
  0
VERTEX
  8
0
 62
4
 10
-1.24999809E+01
 20
1.35159709E+02
  0
VERTEX
  8
0
 62
4
 10
-1.25080323E+01
 20
1.35325933E+02
  0
VERTEX
  8
0
 62
4
 10
-1.25321217E+01
 20
1.35490819E+02
  0
VERTEX
  8
0
 62
4
 10
-1.25720552E+01
 20
1.35653039E+02
  0
VERTEX
  8
0
 62
4
 10
-1.26275112E+01
 20
1.35811287E+02
  0
VERTEX
  8
0
 62
4
 10
-1.26980432E+01
 20
1.35964289E+02
  0
VERTEX
  8
0
 62
4
 10
-1.27830833E+01
 20
1.36110813E+02
  0
VERTEX
  8
0
 62
4
 10
-1.28819469E+01
 20
1.36249679E+02
  0
VERTEX
  8
0
 62
4
 10
-1.29938380E+01
 20
1.36379769E+02
  0
VERTEX
  8
0
 62
4
 10
-1.31178556E+01
 20
1.36500036E+02
  0
VERTEX
  8
0
 62
4
 10
-1.32530013E+01
 20
1.36609512E+02
  0
VERTEX
  8
0
 62
4
 10
-1.33981869E+01
 20
1.36707315E+02
  0
VERTEX
  8
0
 62
4
 10
-1.35522436E+01
 20
1.36792657E+02
  0
VERTEX
  8
0
 62
4
 10
-1.37139308E+01
 20
1.36864852E+02
  0
VERTEX
  8
0
 62
4
 10
-1.38819469E+01
 20
1.36923317E+02
  0
VERTEX
  8
0
 62
4
 10
-1.40549390E+01
 20
1.36967584E+02
  0
VERTEX
  8
0
 62
4
 10
-1.42315144E+01
 20
1.36997294E+02
  0
VERTEX
  8
0
 62
4
 10
-1.44102512E+01
 20
1.37012209E+02
  0
VERTEX
  8
0
 62
4
 10
-1.45897105E+01
 20
1.37012209E+02
  0
VERTEX
  8
0
 62
4
 10
-1.47684474E+01
 20
1.36997294E+02
  0
VERTEX
  8
0
 62
4
 10
-1.49450228E+01
 20
1.36967584E+02
  0
VERTEX
  8
0
 62
4
 10
-1.51180149E+01
 20
1.36923317E+02
  0
VERTEX
  8
0
 62
4
 10
-1.52860309E+01
 20
1.36864852E+02
  0
VERTEX
  8
0
 62
4
 10
-1.54477182E+01
 20
1.36792657E+02
  0
VERTEX
  8
0
 62
4
 10
-1.56017748E+01
 20
1.36707315E+02
  0
VERTEX
  8
0
 62
4
 10
-1.57469605E+01
 20
1.36609512E+02
  0
VERTEX
  8
0
 62
4
 10
-1.58821062E+01
 20
1.36500036E+02
  0
VERTEX
  8
0
 62
4
 10
-1.60061238E+01
 20
1.36379769E+02
  0
VERTEX
  8
0
 62
4
 10
-1.61180149E+01
 20
1.36249679E+02
  0
VERTEX
  8
0
 62
4
 10
-1.62168785E+01
 20
1.36110813E+02
  0
VERTEX
  8
0
 62
4
 10
-1.63019186E+01
 20
1.35964289E+02
  0
VERTEX
  8
0
 62
4
 10
-1.63724506E+01
 20
1.35811287E+02
  0
VERTEX
  8
0
 62
4
 10
-1.64279066E+01
 20
1.35653039E+02
  0
VERTEX
  8
0
 62
4
 10
-1.64678401E+01
 20
1.35490819E+02
  0
VERTEX
  8
0
 62
4
 10
-1.64919295E+01
 20
1.35325933E+02
  0
VERTEX
  8
0
 62
4
 10
-1.64999809E+01
 20
1.35159709E+02
  0
SEQEND
  8
0
  0
LINE
  8
0
 62
4
 10
-1.64999809E+01
 20
1.33682832E+02
 11
-1.64999809E+01
 21
1.35159709E+02
  0
LINE
  8
0
 62
4
 10
-1.24999809E+01
 20
1.33682832E+02
 11
-1.24999809E+01
 21
1.35159709E+02
  0
POLYLINE
  8
0
 62
4
 66
1
  0
VERTEX
  8
0
 62
4
 10
-1.64999809E+01
 20
1.33682832E+02
  0
VERTEX
  8
0
 62
4
 10
-1.64923703E+01
 20
1.33521213E+02
  0
VERTEX
  8
0
 62
4
 10
-1.64695964E+01
 20
1.33360824E+02
  0
VERTEX
  8
0
 62
4
 10
-1.64318326E+01
 20
1.33202886E+02
  0
VERTEX
  8
0
 62
4
 10
-1.63793661E+01
 20
1.33048601E+02
  0
VERTEX
  8
0
 62
4
 10
-1.63125965E+01
 20
1.32899142E+02
  0
VERTEX
  8
0
 62
4
 10
-1.62320317E+01
 20
1.32755648E+02
  0
VERTEX
  8
0
 62
4
 10
-1.61382850E+01
 20
1.32619210E+02
  0
VERTEX
  8
0
 62
4
 10
-1.60320698E+01
 20
1.32490867E+02
  0
VERTEX
  8
0
 62
4
 10
-1.59141945E+01
 20
1.32371596E+02
  0
VERTEX
  8
0
 62
4
 10
-1.57855561E+01
 20
1.32262304E+02
  0
VERTEX
  8
0
 62
4
 10
-1.56471338E+01
 20
1.32163823E+02
  0
VERTEX
  8
0
 62
4
 10
-1.54999809E+01
 20
1.32076902E+02
  0
VERTEX
  8
0
 62
4
 10
-1.53452174E+01
 20
1.32002204E+02
  0
VERTEX
  8
0
 62
4
 10
-1.51840212E+01
 20
1.31940296E+02
  0
VERTEX
  8
0
 62
4
 10
-1.50176190E+01
 20
1.31891650E+02
  0
VERTEX
  8
0
 62
4
 10
-1.48472773E+01
 20
1.31856636E+02
  0
VERTEX
  8
0
 62
4
 10
-1.46742924E+01
 20
1.31835521E+02
  0
VERTEX
  8
0
 62
4
 10
-1.44999809E+01
 20
1.31828464E+02
  0
VERTEX
  8
0
 62
4
 10
-1.43256694E+01
 20
1.31835521E+02
  0
VERTEX
  8
0
 62
4
 10
-1.41526845E+01
 20
1.31856636E+02
  0
VERTEX
  8
0
 62
4
 10
-1.39823428E+01
 20
1.31891650E+02
  0
VERTEX
  8
0
 62
4
 10
-1.38159406E+01
 20
1.31940296E+02
  0
VERTEX
  8
0
 62
4
 10
-1.36547444E+01
 20
1.32002204E+02
  0
VERTEX
  8
0
 62
4
 10
-1.34999809E+01
 20
1.32076902E+02
  0
VERTEX
  8
0
 62
4
 10
-1.33528280E+01
 20
1.32163823E+02
  0
VERTEX
  8
0
 62
4
 10
-1.32144057E+01
 20
1.32262304E+02
  0
VERTEX
  8
0
 62
4
 10
-1.30857673E+01
 20
1.32371596E+02
  0
VERTEX
  8
0
 62
4
 10
-1.29678920E+01
 20
1.32490867E+02
  0
VERTEX
  8
0
 62
4
 10
-1.28616768E+01
 20
1.32619210E+02
  0
VERTEX
  8
0
 62
4
 10
-1.27679301E+01
 20
1.32755648E+02
  0
VERTEX
  8
0
 62
4
 10
-1.26873653E+01
 20
1.32899142E+02
  0
VERTEX
  8
0
 62
4
 10
-1.26205957E+01
 20
1.33048601E+02
  0
VERTEX
  8
0
 62
4
 10
-1.25681292E+01
 20
1.33202886E+02
  0
VERTEX
  8
0
 62
4
 10
-1.25303654E+01
 20
1.33360824E+02
  0
VERTEX
  8
0
 62
4
 10
-1.25075915E+01
 20
1.33521213E+02
  0
VERTEX
  8
0
 62
4
 10
-1.24999809E+01
 20
1.33682832E+02
  0
VERTEX
  8
0
 62
4
 10
-1.25075915E+01
 20
1.33844451E+02
  0
VERTEX
  8
0
 62
4
 10
-1.25303654E+01
 20
1.34004840E+02
  0
VERTEX
  8
0
 62
4
 10
-1.25681292E+01
 20
1.34162778E+02
  0
VERTEX
  8
0
 62
4
 10
-1.26205957E+01
 20
1.34317063E+02
  0
VERTEX
  8
0
 62
4
 10
-1.26873653E+01
 20
1.34466522E+02
  0
VERTEX
  8
0
 62
4
 10
-1.27679301E+01
 20
1.34610016E+02
  0
VERTEX
  8
0
 62
4
 10
-1.28616768E+01
 20
1.34746454E+02
  0
VERTEX
  8
0
 62
4
 10
-1.29678920E+01
 20
1.34874797E+02
  0
VERTEX
  8
0
 62
4
 10
-1.30857673E+01
 20
1.34994068E+02
  0
VERTEX
  8
0
 62
4
 10
-1.32144057E+01
 20
1.35103360E+02
  0
VERTEX
  8
0
 62
4
 10
-1.33528280E+01
 20
1.35201841E+02
  0
VERTEX
  8
0
 62
4
 10
-1.34999809E+01
 20
1.35288762E+02
  0
VERTEX
  8
0
 62
4
 10
-1.36547444E+01
 20
1.35363460E+02
  0
VERTEX
  8
0
 62
4
 10
-1.38159406E+01
 20
1.35425368E+02
  0
VERTEX
  8
0
 62
4
 10
-1.39823428E+01
 20
1.35474014E+02
  0
VERTEX
  8
0
 62
4
 10
-1.41526845E+01
 20
1.35509028E+02
  0
VERTEX
  8
0
 62
4
 10
-1.43256694E+01
 20
1.35530143E+02
  0
VERTEX
  8
0
 62
4
 10
-1.44999809E+01
 20
1.35537200E+02
  0
VERTEX
  8
0
 62
4
 10
-1.46742924E+01
 20
1.35530143E+02
  0
VERTEX
  8
0
 62
4
 10
-1.48472773E+01
 20
1.35509028E+02
  0
VERTEX
  8
0
 62
4
 10
-1.50176190E+01
 20
1.35474014E+02
  0
VERTEX
  8
0
 62
4
 10
-1.51840212E+01
 20
1.35425368E+02
  0
VERTEX
  8
0
 62
4
 10
-1.53452174E+01
 20
1.35363460E+02
  0
VERTEX
  8
0
 62
4
 10
-1.54999809E+01
 20
1.35288762E+02
  0
VERTEX
  8
0
 62
4
 10
-1.56471338E+01
 20
1.35201841E+02
  0
VERTEX
  8
0
 62
4
 10
-1.57855561E+01
 20
1.35103360E+02
  0
VERTEX
  8
0
 62
4
 10
-1.59141945E+01
 20
1.34994068E+02
  0
VERTEX
  8
0
 62
4
 10
-1.60320698E+01
 20
1.34874797E+02
  0
VERTEX
  8
0
 62
4
 10
-1.61382850E+01
 20
1.34746454E+02
  0
VERTEX
  8
0
 62
4
 10
-1.62320317E+01
 20
1.34610016E+02
  0
VERTEX
  8
0
 62
4
 10
-1.63125965E+01
 20
1.34466522E+02
  0
VERTEX
  8
0
 62
4
 10
-1.63793661E+01
 20
1.34317063E+02
  0
VERTEX
  8
0
 62
4
 10
-1.64318326E+01
 20
1.34162778E+02
  0
VERTEX
  8
0
 62
4
 10
-1.64695964E+01
 20
1.34004840E+02
  0
VERTEX
  8
0
 62
4
 10
-1.64923703E+01
 20
1.33844451E+02
  0
VERTEX
  8
0
 62
4
 10
-1.64999809E+01
 20
1.33682832E+02
  0
SEQEND
  8
0
  0
POLYLINE
  8
0
 62
6
 66
1
  0
VERTEX
  8
0
 62
6
 10
-1.59999809E+01
 20
1.33682832E+02
  0
VERTEX
  8
0
 62
6
 10
-1.59942729E+01
 20
1.33561618E+02
  0
VERTEX
  8
0
 62
6
 10
-1.59771925E+01
 20
1.33441326E+02
  0
VERTEX
  8
0
 62
6
 10
-1.59488696E+01
 20
1.33322873E+02
  0
VERTEX
  8
0
 62
6
 10
-1.59095198E+01
 20
1.33207159E+02
  0
VERTEX
  8
0
 62
6
 10
-1.58594426E+01
 20
1.33095065E+02
  0
VERTEX
  8
0
 62
6
 10
-1.57990190E+01
 20
1.32987444E+02
  0
VERTEX
  8
0
 62
6
 10
-1.57287090E+01
 20
1.32885116E+02
  0
VERTEX
  8
0
 62
6
 10
-1.56490476E+01
 20
1.32788859E+02
  0
VERTEX
  8
0
 62
6
 10
-1.55606411E+01
 20
1.32699405E+02
  0
VERTEX
  8
0
 62
6
 10
-1.54641623E+01
 20
1.32617436E+02
  0
VERTEX
  8
0
 62
6
 10
-1.53603456E+01
 20
1.32543575E+02
  0
VERTEX
  8
0
 62
6
 10
-1.52499809E+01
 20
1.32478385E+02
  0
VERTEX
  8
0
 62
6
 10
-1.51339083E+01
 20
1.32422361E+02
  0
VERTEX
  8
0
 62
6
 10
-1.50130111E+01
 20
1.32375930E+02
  0
VERTEX
  8
0
 62
6
 10
-1.48882095E+01
 20
1.32339446E+02
  0
VERTEX
  8
0
 62
6
 10
-1.47604532E+01
 20
1.32313185E+02
  0
VERTEX
  8
0
 62
6
 10
-1.46307145E+01
 20
1.32297349E+02
  0
VERTEX
  8
0
 62
6
 10
-1.44999809E+01
 20
1.32292056E+02
  0
VERTEX
  8
0
 62
6
 10
-1.43692473E+01
 20
1.32297349E+02
  0
VERTEX
  8
0
 62
6
 10
-1.42395086E+01
 20
1.32313185E+02
  0
VERTEX
  8
0
 62
6
 10
-1.41117523E+01
 20
1.32339446E+02
  0
VERTEX
  8
0
 62
6
 10
-1.39869507E+01
 20
1.32375930E+02
  0
VERTEX
  8
0
 62
6
 10
-1.38660535E+01
 20
1.32422361E+02
  0
VERTEX
  8
0
 62
6
 10
-1.37499809E+01
 20
1.32478385E+02
  0
VERTEX
  8
0
 62
6
 10
-1.36396162E+01
 20
1.32543575E+02
  0
VERTEX
  8
0
 62
6
 10
-1.35357995E+01
 20
1.32617436E+02
  0
VERTEX
  8
0
 62
6
 10
-1.34393207E+01
 20
1.32699405E+02
  0
VERTEX
  8
0
 62
6
 10
-1.33509142E+01
 20
1.32788859E+02
  0
VERTEX
  8
0
 62
6
 10
-1.32712528E+01
 20
1.32885116E+02
  0
VERTEX
  8
0
 62
6
 10
-1.32009428E+01
 20
1.32987444E+02
  0
VERTEX
  8
0
 62
6
 10
-1.31405192E+01
 20
1.33095065E+02
  0
VERTEX
  8
0
 62
6
 10
-1.30904420E+01
 20
1.33207159E+02
  0
VERTEX
  8
0
 62
6
 10
-1.30510922E+01
 20
1.33322873E+02
  0
VERTEX
  8
0
 62
6
 10
-1.30227693E+01
 20
1.33441326E+02
  0
VERTEX
  8
0
 62
6
 10
-1.30056889E+01
 20
1.33561618E+02
  0
VERTEX
  8
0
 62
6
 10
-1.29999809E+01
 20
1.33682832E+02
  0
VERTEX
  8
0
 62
6
 10
-1.30056889E+01
 20
1.33804046E+02
  0
VERTEX
  8
0
 62
6
 10
-1.30227693E+01
 20
1.33924338E+02
  0
VERTEX
  8
0
 62
6
 10
-1.30510922E+01
 20
1.34042791E+02
  0
VERTEX
  8
0
 62
6
 10
-1.30904420E+01
 20
1.34158505E+02
  0
VERTEX
  8
0
 62
6
 10
-1.31405192E+01
 20
1.34270599E+02
  0
VERTEX
  8
0
 62
6
 10
-1.32009428E+01
 20
1.34378220E+02
  0
VERTEX
  8
0
 62
6
 10
-1.32712528E+01
 20
1.34480548E+02
  0
VERTEX
  8
0
 62
6
 10
-1.33509142E+01
 20
1.34576805E+02
  0
VERTEX
  8
0
 62
6
 10
-1.34393207E+01
 20
1.34666259E+02
  0
VERTEX
  8
0
 62
6
 10
-1.35357995E+01
 20
1.34748228E+02
  0
VERTEX
  8
0
 62
6
 10
-1.36396162E+01
 20
1.34822089E+02
  0
VERTEX
  8
0
 62
6
 10
-1.37499809E+01
 20
1.34887279E+02
  0
VERTEX
  8
0
 62
6
 10
-1.38660535E+01
 20
1.34943303E+02
  0
VERTEX
  8
0
 62
6
 10
-1.39869507E+01
 20
1.34989734E+02
  0
VERTEX
  8
0
 62
6
 10
-1.41117523E+01
 20
1.35026218E+02
  0
VERTEX
  8
0
 62
6
 10
-1.42395086E+01
 20
1.35052479E+02
  0
VERTEX
  8
0
 62
6
 10
-1.43692473E+01
 20
1.35068315E+02
  0
VERTEX
  8
0
 62
6
 10
-1.44999809E+01
 20
1.35073608E+02
  0
VERTEX
  8
0
 62
6
 10
-1.46307145E+01
 20
1.35068315E+02
  0
VERTEX
  8
0
 62
6
 10
-1.47604532E+01
 20
1.35052479E+02
  0
VERTEX
  8
0
 62
6
 10
-1.48882095E+01
 20
1.35026218E+02
  0
VERTEX
  8
0
 62
6
 10
-1.50130111E+01
 20
1.34989734E+02
  0
VERTEX
  8
0
 62
6
 10
-1.51339083E+01
 20
1.34943303E+02
  0
VERTEX
  8
0
 62
6
 10
-1.52499809E+01
 20
1.34887279E+02
  0
VERTEX
  8
0
 62
6
 10
-1.53603456E+01
 20
1.34822089E+02
  0
VERTEX
  8
0
 62
6
 10
-1.54641623E+01
 20
1.34748228E+02
  0
VERTEX
  8
0
 62
6
 10
-1.55606411E+01
 20
1.34666259E+02
  0
VERTEX
  8
0
 62
6
 10
-1.56490476E+01
 20
1.34576805E+02
  0
VERTEX
  8
0
 62
6
 10
-1.57287090E+01
 20
1.34480548E+02
  0
VERTEX
  8
0
 62
6
 10
-1.57990190E+01
 20
1.34378220E+02
  0
VERTEX
  8
0
 62
6
 10
-1.58594426E+01
 20
1.34270599E+02
  0
VERTEX
  8
0
 62
6
 10
-1.59095198E+01
 20
1.34158505E+02
  0
VERTEX
  8
0
 62
6
 10
-1.59488696E+01
 20
1.34042791E+02
  0
VERTEX
  8
0
 62
6
 10
-1.59771925E+01
 20
1.33924338E+02
  0
VERTEX
  8
0
 62
6
 10
-1.59942729E+01
 20
1.33804046E+02
  0
VERTEX
  8
0
 62
6
 10
-1.59999809E+01
 20
1.33682832E+02
  0
SEQEND
  8
0
  0
LINE
  8
0
 62
4
 10
-1.44999809E+01
 20
1.34749093E+02
 11
-1.54999809E+01
 21
1.34220599E+02
  0
LINE
  8
0
 62
4
 10
-1.54999809E+01
 20
1.34220599E+02
 11
-1.54999809E+01
 21
1.33145065E+02
  0
LINE
  8
0
 62
4
 10
-1.54999809E+01
 20
1.33145065E+02
 11
-1.44999809E+01
 21
1.32607299E+02
  0
LINE
  8
0
 62
4
 10
-1.44999809E+01
 20
1.32607299E+02
 11
-1.34999809E+01
 21
1.33145065E+02
  0
LINE
  8
0
 62
4
 10
-1.34999809E+01
 20
1.33145065E+02
 11
-1.34999809E+01
 21
1.34220599E+02
  0
LINE
  8
0
 62
4
 10
-1.34999809E+01
 20
1.34220599E+02
 11
-1.44999809E+01
 21
1.34749093E+02
  0
LINE
  8
0
 62
4
 10
-2.14999809E+01
 20
1.34220599E+02
 11
-2.24999809E+01
 21
1.34749093E+02
  0
LINE
  8
0
 62
4
 10
-2.14999809E+01
 20
1.33145065E+02
 11
-2.14999809E+01
 21
1.34220599E+02
  0
LINE
  8
0
 62
4
 10
-2.24999809E+01
 20
1.32607299E+02
 11
-2.14999809E+01
 21
1.33145065E+02
  0
LINE
  8
0
 62
4
 10
-2.34999809E+01
 20
1.33145065E+02
 11
-2.24999809E+01
 21
1.32607299E+02
  0
LINE
  8
0
 62
4
 10
-2.34999809E+01
 20
1.34220599E+02
 11
-2.34999809E+01
 21
1.33145065E+02
  0
LINE
  8
0
 62
4
 10
-2.24999809E+01
 20
1.34749093E+02
 11
-2.34999809E+01
 21
1.34220599E+02
  0
POLYLINE
  8
0
 62
6
 66
1
  0
VERTEX
  8
0
 62
6
 10
-2.39999809E+01
 20
1.33682832E+02
  0
VERTEX
  8
0
 62
6
 10
-2.39942729E+01
 20
1.33561618E+02
  0
VERTEX
  8
0
 62
6
 10
-2.39771925E+01
 20
1.33441326E+02
  0
VERTEX
  8
0
 62
6
 10
-2.39488696E+01
 20
1.33322873E+02
  0
VERTEX
  8
0
 62
6
 10
-2.39095198E+01
 20
1.33207159E+02
  0
VERTEX
  8
0
 62
6
 10
-2.38594426E+01
 20
1.33095065E+02
  0
VERTEX
  8
0
 62
6
 10
-2.37990190E+01
 20
1.32987444E+02
  0
VERTEX
  8
0
 62
6
 10
-2.37287090E+01
 20
1.32885116E+02
  0
VERTEX
  8
0
 62
6
 10
-2.36490476E+01
 20
1.32788859E+02
  0
VERTEX
  8
0
 62
6
 10
-2.35606411E+01
 20
1.32699405E+02
  0
VERTEX
  8
0
 62
6
 10
-2.34641623E+01
 20
1.32617436E+02
  0
VERTEX
  8
0
 62
6
 10
-2.33603456E+01
 20
1.32543575E+02
  0
VERTEX
  8
0
 62
6
 10
-2.32499809E+01
 20
1.32478385E+02
  0
VERTEX
  8
0
 62
6
 10
-2.31339083E+01
 20
1.32422361E+02
  0
VERTEX
  8
0
 62
6
 10
-2.30130111E+01
 20
1.32375930E+02
  0
VERTEX
  8
0
 62
6
 10
-2.28882095E+01
 20
1.32339446E+02
  0
VERTEX
  8
0
 62
6
 10
-2.27604532E+01
 20
1.32313185E+02
  0
VERTEX
  8
0
 62
6
 10
-2.26307145E+01
 20
1.32297349E+02
  0
VERTEX
  8
0
 62
6
 10
-2.24999809E+01
 20
1.32292056E+02
  0
VERTEX
  8
0
 62
6
 10
-2.23692473E+01
 20
1.32297349E+02
  0
VERTEX
  8
0
 62
6
 10
-2.22395086E+01
 20
1.32313185E+02
  0
VERTEX
  8
0
 62
6
 10
-2.21117523E+01
 20
1.32339446E+02
  0
VERTEX
  8
0
 62
6
 10
-2.19869507E+01
 20
1.32375930E+02
  0
VERTEX
  8
0
 62
6
 10
-2.18660535E+01
 20
1.32422361E+02
  0
VERTEX
  8
0
 62
6
 10
-2.17499809E+01
 20
1.32478385E+02
  0
VERTEX
  8
0
 62
6
 10
-2.16396162E+01
 20
1.32543575E+02
  0
VERTEX
  8
0
 62
6
 10
-2.15357995E+01
 20
1.32617436E+02
  0
VERTEX
  8
0
 62
6
 10
-2.14393207E+01
 20
1.32699405E+02
  0
VERTEX
  8
0
 62
6
 10
-2.13509142E+01
 20
1.32788859E+02
  0
VERTEX
  8
0
 62
6
 10
-2.12712528E+01
 20
1.32885116E+02
  0
VERTEX
  8
0
 62
6
 10
-2.12009428E+01
 20
1.32987444E+02
  0
VERTEX
  8
0
 62
6
 10
-2.11405192E+01
 20
1.33095065E+02
  0
VERTEX
  8
0
 62
6
 10
-2.10904420E+01
 20
1.33207159E+02
  0
VERTEX
  8
0
 62
6
 10
-2.10510922E+01
 20
1.33322873E+02
  0
VERTEX
  8
0
 62
6
 10
-2.10227693E+01
 20
1.33441326E+02
  0
VERTEX
  8
0
 62
6
 10
-2.10056889E+01
 20
1.33561618E+02
  0
VERTEX
  8
0
 62
6
 10
-2.09999809E+01
 20
1.33682832E+02
  0
VERTEX
  8
0
 62
6
 10
-2.10056889E+01
 20
1.33804046E+02
  0
VERTEX
  8
0
 62
6
 10
-2.10227693E+01
 20
1.33924338E+02
  0
VERTEX
  8
0
 62
6
 10
-2.10510922E+01
 20
1.34042791E+02
  0
VERTEX
  8
0
 62
6
 10
-2.10904420E+01
 20
1.34158505E+02
  0
VERTEX
  8
0
 62
6
 10
-2.11405192E+01
 20
1.34270599E+02
  0
VERTEX
  8
0
 62
6
 10
-2.12009428E+01
 20
1.34378220E+02
  0
VERTEX
  8
0
 62
6
 10
-2.12712528E+01
 20
1.34480548E+02
  0
VERTEX
  8
0
 62
6
 10
-2.13509142E+01
 20
1.34576805E+02
  0
VERTEX
  8
0
 62
6
 10
-2.14393207E+01
 20
1.34666259E+02
  0
VERTEX
  8
0
 62
6
 10
-2.15357995E+01
 20
1.34748228E+02
  0
VERTEX
  8
0
 62
6
 10
-2.16396162E+01
 20
1.34822089E+02
  0
VERTEX
  8
0
 62
6
 10
-2.17499809E+01
 20
1.34887279E+02
  0
VERTEX
  8
0
 62
6
 10
-2.18660535E+01
 20
1.34943303E+02
  0
VERTEX
  8
0
 62
6
 10
-2.19869507E+01
 20
1.34989734E+02
  0
VERTEX
  8
0
 62
6
 10
-2.21117523E+01
 20
1.35026218E+02
  0
VERTEX
  8
0
 62
6
 10
-2.22395086E+01
 20
1.35052479E+02
  0
VERTEX
  8
0
 62
6
 10
-2.23692473E+01
 20
1.35068315E+02
  0
VERTEX
  8
0
 62
6
 10
-2.24999809E+01
 20
1.35073608E+02
  0
VERTEX
  8
0
 62
6
 10
-2.26307145E+01
 20
1.35068315E+02
  0
VERTEX
  8
0
 62
6
 10
-2.27604532E+01
 20
1.35052479E+02
  0
VERTEX
  8
0
 62
6
 10
-2.28882095E+01
 20
1.35026218E+02
  0
VERTEX
  8
0
 62
6
 10
-2.30130111E+01
 20
1.34989734E+02
  0
VERTEX
  8
0
 62
6
 10
-2.31339083E+01
 20
1.34943303E+02
  0
VERTEX
  8
0
 62
6
 10
-2.32499809E+01
 20
1.34887279E+02
  0
VERTEX
  8
0
 62
6
 10
-2.33603456E+01
 20
1.34822089E+02
  0
VERTEX
  8
0
 62
6
 10
-2.34641623E+01
 20
1.34748228E+02
  0
VERTEX
  8
0
 62
6
 10
-2.35606411E+01
 20
1.34666259E+02
  0
VERTEX
  8
0
 62
6
 10
-2.36490476E+01
 20
1.34576805E+02
  0
VERTEX
  8
0
 62
6
 10
-2.37287090E+01
 20
1.34480548E+02
  0
VERTEX
  8
0
 62
6
 10
-2.37990190E+01
 20
1.34378220E+02
  0
VERTEX
  8
0
 62
6
 10
-2.38594426E+01
 20
1.34270599E+02
  0
VERTEX
  8
0
 62
6
 10
-2.39095198E+01
 20
1.34158505E+02
  0
VERTEX
  8
0
 62
6
 10
-2.39488696E+01
 20
1.34042791E+02
  0
VERTEX
  8
0
 62
6
 10
-2.39771925E+01
 20
1.33924338E+02
  0
VERTEX
  8
0
 62
6
 10
-2.39942729E+01
 20
1.33804046E+02
  0
VERTEX
  8
0
 62
6
 10
-2.39999809E+01
 20
1.33682832E+02
  0
SEQEND
  8
0
  0
POLYLINE
  8
0
 62
4
 66
1
  0
VERTEX
  8
0
 62
4
 10
-2.44999809E+01
 20
1.33682832E+02
  0
VERTEX
  8
0
 62
4
 10
-2.44923703E+01
 20
1.33521213E+02
  0
VERTEX
  8
0
 62
4
 10
-2.44695964E+01
 20
1.33360824E+02
  0
VERTEX
  8
0
 62
4
 10
-2.44318326E+01
 20
1.33202886E+02
  0
VERTEX
  8
0
 62
4
 10
-2.43793661E+01
 20
1.33048601E+02
  0
VERTEX
  8
0
 62
4
 10
-2.43125965E+01
 20
1.32899142E+02
  0
VERTEX
  8
0
 62
4
 10
-2.42320317E+01
 20
1.32755648E+02
  0
VERTEX
  8
0
 62
4
 10
-2.41382850E+01
 20
1.32619210E+02
  0
VERTEX
  8
0
 62
4
 10
-2.40320698E+01
 20
1.32490867E+02
  0
VERTEX
  8
0
 62
4
 10
-2.39141945E+01
 20
1.32371596E+02
  0
VERTEX
  8
0
 62
4
 10
-2.37855561E+01
 20
1.32262304E+02
  0
VERTEX
  8
0
 62
4
 10
-2.36471338E+01
 20
1.32163823E+02
  0
VERTEX
  8
0
 62
4
 10
-2.34999809E+01
 20
1.32076902E+02
  0
VERTEX
  8
0
 62
4
 10
-2.33452174E+01
 20
1.32002204E+02
  0
VERTEX
  8
0
 62
4
 10
-2.31840212E+01
 20
1.31940296E+02
  0
VERTEX
  8
0
 62
4
 10
-2.30176190E+01
 20
1.31891650E+02
  0
VERTEX
  8
0
 62
4
 10
-2.28472773E+01
 20
1.31856636E+02
  0
VERTEX
  8
0
 62
4
 10
-2.26742924E+01
 20
1.31835521E+02
  0
VERTEX
  8
0
 62
4
 10
-2.24999809E+01
 20
1.31828464E+02
  0
VERTEX
  8
0
 62
4
 10
-2.23256694E+01
 20
1.31835521E+02
  0
VERTEX
  8
0
 62
4
 10
-2.21526845E+01
 20
1.31856636E+02
  0
VERTEX
  8
0
 62
4
 10
-2.19823428E+01
 20
1.31891650E+02
  0
VERTEX
  8
0
 62
4
 10
-2.18159406E+01
 20
1.31940296E+02
  0
VERTEX
  8
0
 62
4
 10
-2.16547444E+01
 20
1.32002204E+02
  0
VERTEX
  8
0
 62
4
 10
-2.14999809E+01
 20
1.32076902E+02
  0
VERTEX
  8
0
 62
4
 10
-2.13528280E+01
 20
1.32163823E+02
  0
VERTEX
  8
0
 62
4
 10
-2.12144057E+01
 20
1.32262304E+02
  0
VERTEX
  8
0
 62
4
 10
-2.10857673E+01
 20
1.32371596E+02
  0
VERTEX
  8
0
 62
4
 10
-2.09678920E+01
 20
1.32490867E+02
  0
VERTEX
  8
0
 62
4
 10
-2.08616768E+01
 20
1.32619210E+02
  0
VERTEX
  8
0
 62
4
 10
-2.07679301E+01
 20
1.32755648E+02
  0
VERTEX
  8
0
 62
4
 10
-2.06873653E+01
 20
1.32899142E+02
  0
VERTEX
  8
0
 62
4
 10
-2.06205957E+01
 20
1.33048601E+02
  0
VERTEX
  8
0
 62
4
 10
-2.05681292E+01
 20
1.33202886E+02
  0
VERTEX
  8
0
 62
4
 10
-2.05303654E+01
 20
1.33360824E+02
  0
VERTEX
  8
0
 62
4
 10
-2.05075915E+01
 20
1.33521213E+02
  0
VERTEX
  8
0
 62
4
 10
-2.04999809E+01
 20
1.33682832E+02
  0
VERTEX
  8
0
 62
4
 10
-2.05075915E+01
 20
1.33844451E+02
  0
VERTEX
  8
0
 62
4
 10
-2.05303654E+01
 20
1.34004840E+02
  0
VERTEX
  8
0
 62
4
 10
-2.05681292E+01
 20
1.34162778E+02
  0
VERTEX
  8
0
 62
4
 10
-2.06205957E+01
 20
1.34317063E+02
  0
VERTEX
  8
0
 62
4
 10
-2.06873653E+01
 20
1.34466522E+02
  0
VERTEX
  8
0
 62
4
 10
-2.07679301E+01
 20
1.34610016E+02
  0
VERTEX
  8
0
 62
4
 10
-2.08616768E+01
 20
1.34746454E+02
  0
VERTEX
  8
0
 62
4
 10
-2.09678920E+01
 20
1.34874797E+02
  0
VERTEX
  8
0
 62
4
 10
-2.10857673E+01
 20
1.34994068E+02
  0
VERTEX
  8
0
 62
4
 10
-2.12144057E+01
 20
1.35103360E+02
  0
VERTEX
  8
0
 62
4
 10
-2.13528280E+01
 20
1.35201841E+02
  0
VERTEX
  8
0
 62
4
 10
-2.14999809E+01
 20
1.35288762E+02
  0
VERTEX
  8
0
 62
4
 10
-2.16547444E+01
 20
1.35363460E+02
  0
VERTEX
  8
0
 62
4
 10
-2.18159406E+01
 20
1.35425368E+02
  0
VERTEX
  8
0
 62
4
 10
-2.19823428E+01
 20
1.35474014E+02
  0
VERTEX
  8
0
 62
4
 10
-2.21526845E+01
 20
1.35509028E+02
  0
VERTEX
  8
0
 62
4
 10
-2.23256694E+01
 20
1.35530143E+02
  0
VERTEX
  8
0
 62
4
 10
-2.24999809E+01
 20
1.35537200E+02
  0
VERTEX
  8
0
 62
4
 10
-2.26742924E+01
 20
1.35530143E+02
  0
VERTEX
  8
0
 62
4
 10
-2.28472773E+01
 20
1.35509028E+02
  0
VERTEX
  8
0
 62
4
 10
-2.30176190E+01
 20
1.35474014E+02
  0
VERTEX
  8
0
 62
4
 10
-2.31840212E+01
 20
1.35425368E+02
  0
VERTEX
  8
0
 62
4
 10
-2.33452174E+01
 20
1.35363460E+02
  0
VERTEX
  8
0
 62
4
 10
-2.34999809E+01
 20
1.35288762E+02
  0
VERTEX
  8
0
 62
4
 10
-2.36471338E+01
 20
1.35201841E+02
  0
VERTEX
  8
0
 62
4
 10
-2.37855561E+01
 20
1.35103360E+02
  0
VERTEX
  8
0
 62
4
 10
-2.39141945E+01
 20
1.34994068E+02
  0
VERTEX
  8
0
 62
4
 10
-2.40320698E+01
 20
1.34874797E+02
  0
VERTEX
  8
0
 62
4
 10
-2.41382850E+01
 20
1.34746454E+02
  0
VERTEX
  8
0
 62
4
 10
-2.42320317E+01
 20
1.34610016E+02
  0
VERTEX
  8
0
 62
4
 10
-2.43125965E+01
 20
1.34466522E+02
  0
VERTEX
  8
0
 62
4
 10
-2.43793661E+01
 20
1.34317063E+02
  0
VERTEX
  8
0
 62
4
 10
-2.44318326E+01
 20
1.34162778E+02
  0
VERTEX
  8
0
 62
4
 10
-2.44695964E+01
 20
1.34004840E+02
  0
VERTEX
  8
0
 62
4
 10
-2.44923703E+01
 20
1.33844451E+02
  0
VERTEX
  8
0
 62
4
 10
-2.44999809E+01
 20
1.33682832E+02
  0
SEQEND
  8
0
  0
LINE
  8
0
 62
4
 10
-2.04999809E+01
 20
1.33682832E+02
 11
-2.04999809E+01
 21
1.35159709E+02
  0
LINE
  8
0
 62
4
 10
-2.44999809E+01
 20
1.33682832E+02
 11
-2.44999809E+01
 21
1.35159709E+02
  0
POLYLINE
  8
0
 62
4
 66
1
  0
VERTEX
  8
0
 62
4
 10
-2.04999809E+01
 20
1.35159709E+02
  0
VERTEX
  8
0
 62
4
 10
-2.05080323E+01
 20
1.35325933E+02
  0
VERTEX
  8
0
 62
4
 10
-2.05321217E+01
 20
1.35490819E+02
  0
VERTEX
  8
0
 62
4
 10
-2.05720552E+01
 20
1.35653039E+02
  0
VERTEX
  8
0
 62
4
 10
-2.06275112E+01
 20
1.35811287E+02
  0
VERTEX
  8
0
 62
4
 10
-2.06980432E+01
 20
1.35964289E+02
  0
VERTEX
  8
0
 62
4
 10
-2.07830833E+01
 20
1.36110813E+02
  0
VERTEX
  8
0
 62
4
 10
-2.08819469E+01
 20
1.36249679E+02
  0
VERTEX
  8
0
 62
4
 10
-2.09938380E+01
 20
1.36379769E+02
  0
VERTEX
  8
0
 62
4
 10
-2.11178556E+01
 20
1.36500036E+02
  0
VERTEX
  8
0
 62
4
 10
-2.12530013E+01
 20
1.36609512E+02
  0
VERTEX
  8
0
 62
4
 10
-2.13981869E+01
 20
1.36707315E+02
  0
VERTEX
  8
0
 62
4
 10
-2.15522436E+01
 20
1.36792657E+02
  0
VERTEX
  8
0
 62
4
 10
-2.17139308E+01
 20
1.36864852E+02
  0
VERTEX
  8
0
 62
4
 10
-2.18819469E+01
 20
1.36923317E+02
  0
VERTEX
  8
0
 62
4
 10
-2.20549390E+01
 20
1.36967584E+02
  0
VERTEX
  8
0
 62
4
 10
-2.22315144E+01
 20
1.36997294E+02
  0
VERTEX
  8
0
 62
4
 10
-2.24102512E+01
 20
1.37012209E+02
  0
VERTEX
  8
0
 62
4
 10
-2.25897105E+01
 20
1.37012209E+02
  0
VERTEX
  8
0
 62
4
 10
-2.27684474E+01
 20
1.36997294E+02
  0
VERTEX
  8
0
 62
4
 10
-2.29450228E+01
 20
1.36967584E+02
  0
VERTEX
  8
0
 62
4
 10
-2.31180149E+01
 20
1.36923317E+02
  0
VERTEX
  8
0
 62
4
 10
-2.32860309E+01
 20
1.36864852E+02
  0
VERTEX
  8
0
 62
4
 10
-2.34477182E+01
 20
1.36792657E+02
  0
VERTEX
  8
0
 62
4
 10
-2.36017748E+01
 20
1.36707315E+02
  0
VERTEX
  8
0
 62
4
 10
-2.37469605E+01
 20
1.36609512E+02
  0
VERTEX
  8
0
 62
4
 10
-2.38821062E+01
 20
1.36500036E+02
  0
VERTEX
  8
0
 62
4
 10
-2.40061238E+01
 20
1.36379769E+02
  0
VERTEX
  8
0
 62
4
 10
-2.41180149E+01
 20
1.36249679E+02
  0
VERTEX
  8
0
 62
4
 10
-2.42168785E+01
 20
1.36110813E+02
  0
VERTEX
  8
0
 62
4
 10
-2.43019186E+01
 20
1.35964289E+02
  0
VERTEX
  8
0
 62
4
 10
-2.43724506E+01
 20
1.35811287E+02
  0
VERTEX
  8
0
 62
4
 10
-2.44279066E+01
 20
1.35653039E+02
  0
VERTEX
  8
0
 62
4
 10
-2.44678401E+01
 20
1.35490819E+02
  0
VERTEX
  8
0
 62
4
 10
-2.44919295E+01
 20
1.35325933E+02
  0
VERTEX
  8
0
 62
4
 10
-2.44999809E+01
 20
1.35159709E+02
  0
SEQEND
  8
0
  0
LINE
  8
0
 62
4
 10
-8.64999580E+01
 20
1.51197459E+02
 11
-8.64999580E+01
 21
1.50000008E+02
  0
LINE
  8
0
 62
4
 10
-6.14999580E+01
 20
1.52330017E+02
 11
-6.14999580E+01
 21
1.50000008E+02
  0
LINE
  8
0
  6
CENTER
 62
6
 10
-6.53499580E+01
 20
1.54943928E+02
 11
-7.46499580E+01
 21
1.54943928E+02
  0
LINE
  8
0
  6
CENTER
 62
6
 10
-6.99999580E+01
 20
1.59593928E+02
 11
-6.99999580E+01
 21
1.50293928E+02
  0
LINE
  8
0
  6
CENTER
 62
6
 10
-7.39253612E+01
 20
1.58189072E+02
 11
-8.10745549E+01
 21
1.58189072E+02
  0
LINE
  8
0
  6
CENTER
 62
6
 10
-7.74999580E+01
 20
1.61763669E+02
 11
-7.74999580E+01
 21
1.54614475E+02
  0
LINE
  8
0
  6
CENTER
 62
6
 10
-5.76999581E+01
 20
1.58189072E+02
 11
-6.72999581E+01
 21
1.58189072E+02
  0
LINE
  8
0
  6
CENTER
 62
6
 10
-6.24999580E+01
 20
1.62989072E+02
 11
-6.24999580E+01
 21
1.53389072E+02
  0
LINE
  8
0
 62
4
 10
-8.49999580E+01
 20
1.62361399E+02
 11
-5.49999580E+01
 21
1.62361399E+02
  0
LINE
  8
0
 62
4
 10
-8.49999580E+01
 20
1.52718687E+02
 11
-7.32713468E+01
 21
1.52718687E+02
  0
LINE
  8
0
 62
4
 10
-8.49999580E+01
 20
1.52330017E+02
 11
-7.28957149E+01
 21
1.52330017E+02
  0
LINE
  8
0
 62
4
 10
-8.49999580E+01
 20
1.52330017E+02
 11
-8.64999580E+01
 21
1.51197459E+02
  0
LINE
  8
0
 62
4
 10
-7.41499580E+01
 20
1.55086279E+02
 11
-7.41499580E+01
 21
1.55745587E+02
  0
POLYLINE
  8
0
 62
4
 66
1
  0
VERTEX
  8
0
 62
4
 10
-7.41499580E+01
 20
1.55086279E+02
  0
VERTEX
  8
0
 62
4
 10
-7.41332513E+01
 20
1.54741364E+02
  0
VERTEX
  8
0
 62
4
 10
-7.40832658E+01
 20
1.54399225E+02
  0
VERTEX
  8
0
 62
4
 10
-7.40004039E+01
 20
1.54062619E+02
  0
VERTEX
  8
0
 62
4
 10
-7.38853327E+01
 20
1.53734254E+02
  0
VERTEX
  8
0
 62
4
 10
-7.37389788E+01
 20
1.53416776E+02
  0
VERTEX
  8
0
 62
4
 10
-7.35625205E+01
 20
1.53112739E+02
  0
VERTEX
  8
0
 62
4
 10
-7.33573785E+01
 20
1.52824591E+02
  0
VERTEX
  8
0
 62
4
 10
-7.31252046E+01
 20
1.52554654E+02
  0
VERTEX
  8
0
 62
4
 10
-7.28678680E+01
 20
1.52305100E+02
  0
VERTEX
  8
0
 62
4
 10
-7.25874407E+01
 20
1.52077938E+02
  0
VERTEX
  8
0
 62
4
 10
-7.22861805E+01
 20
1.51874997E+02
  0
VERTEX
  8
0
 62
4
 10
-7.19665130E+01
 20
1.51697912E+02
  0
VERTEX
  8
0
 62
4
 10
-7.16310119E+01
 20
1.51548108E+02
  0
VERTEX
  8
0
 62
4
 10
-7.12823785E+01
 20
1.51426791E+02
  0
VERTEX
  8
0
 62
4
 10
-7.09234199E+01
 20
1.51334939E+02
  0
VERTEX
  8
0
 62
4
 10
-7.05570261E+01
 20
1.51273290E+02
  0
VERTEX
  8
0
 62
4
 10
-7.01861471E+01
 20
1.51242340E+02
  0
VERTEX
  8
0
 62
4
 10
-6.98137690E+01
 20
1.51242340E+02
  0
VERTEX
  8
0
 62
4
 10
-6.94428900E+01
 20
1.51273290E+02
  0
VERTEX
  8
0
 62
4
 10
-6.90764961E+01
 20
1.51334939E+02
  0
VERTEX
  8
0
 62
4
 10
-6.87175375E+01
 20
1.51426791E+02
  0
VERTEX
  8
0
 62
4
 10
-6.83689041E+01
 20
1.51548108E+02
  0
VERTEX
  8
0
 62
4
 10
-6.80334031E+01
 20
1.51697912E+02
  0
VERTEX
  8
0
 62
4
 10
-6.77137355E+01
 20
1.51874997E+02
  0
VERTEX
  8
0
 62
4
 10
-6.74124753E+01
 20
1.52077938E+02
  0
VERTEX
  8
0
 62
4
 10
-6.71320480E+01
 20
1.52305100E+02
  0
VERTEX
  8
0
 62
4
 10
-6.68747114E+01
 20
1.52554654E+02
  0
VERTEX
  8
0
 62
4
 10
-6.66425375E+01
 20
1.52824591E+02
  0
VERTEX
  8
0
 62
4
 10
-6.64373955E+01
 20
1.53112738E+02
  0
VERTEX
  8
0
 62
4
 10
-6.62609372E+01
 20
1.53416775E+02
  0
VERTEX
  8
0
 62
4
 10
-6.61145833E+01
 20
1.53734254E+02
  0
VERTEX
  8
0
 62
4
 10
-6.59995121E+01
 20
1.54062619E+02
  0
VERTEX
  8
0
 62
4
 10
-6.59166502E+01
 20
1.54399225E+02
  0
VERTEX
  8
0
 62
4
 10
-6.58666647E+01
 20
1.54741364E+02
  0
VERTEX
  8
0
 62
4
 10
-6.58499580E+01
 20
1.55086279E+02
  0
SEQEND
  8
0
  0
POLYLINE
  8
0
 62
4
 66
1
  0
VERTEX
  8
0
 62
4
 10
-7.41499580E+01
 20
1.55745587E+02
  0
VERTEX
  8
0
 62
4
 10
-7.41341660E+01
 20
1.55410228E+02
  0
VERTEX
  8
0
 62
4
 10
-7.40869102E+01
 20
1.55077421E+02
  0
VERTEX
  8
0
 62
4
 10
-7.40085502E+01
 20
1.54749700E+02
  0
VERTEX
  8
0
 62
4
 10
-7.38996824E+01
 20
1.54429557E+02
  0
VERTEX
  8
0
 62
4
 10
-7.37611353E+01
 20
1.54119431E+02
  0
VERTEX
  8
0
 62
4
 10
-7.35939634E+01
 20
1.53821681E+02
  0
VERTEX
  8
0
 62
4
 10
-7.33994390E+01
 20
1.53538572E+02
  0
VERTEX
  8
0
 62
4
 10
-7.31790424E+01
 20
1.53272260E+02
  0
VERTEX
  8
0
 62
4
 10
-7.29344512E+01
 20
1.53024772E+02
  0
VERTEX
  8
0
 62
4
 10
-7.26675266E+01
 20
1.52797991E+02
  0
VERTEX
  8
0
 62
4
 10
-7.23803002E+01
 20
1.52593643E+02
  0
VERTEX
  8
0
 62
4
 10
-7.20749580E+01
 20
1.52413283E+02
  0
VERTEX
  8
0
 62
4
 10
-7.17538238E+01
 20
1.52258284E+02
  0
VERTEX
  8
0
 62
4
 10
-7.14193416E+01
 20
1.52129826E+02
  0
VERTEX
  8
0
 62
4
 10
-7.10740570E+01
 20
1.52028885E+02
  0
VERTEX
  8
0
 62
4
 10
-7.07205979E+01
 20
1.51956231E+02
  0
VERTEX
  8
0
 62
4
 10
-7.03616543E+01
 20
1.51912416E+02
  0
VERTEX
  8
0
 62
4
 10
-6.99999580E+01
 20
1.51897774E+02
  0
VERTEX
  8
0
 62
4
 10
-6.96382617E+01
 20
1.51912416E+02
  0
VERTEX
  8
0
 62
4
 10
-6.92793181E+01
 20
1.51956231E+02
  0
VERTEX
  8
0
 62
4
 10
-6.89258590E+01
 20
1.52028885E+02
  0
VERTEX
  8
0
 62
4
 10
-6.85805744E+01
 20
1.52129826E+02
  0
VERTEX
  8
0
 62
4
 10
-6.82460922E+01
 20
1.52258284E+02
  0
VERTEX
  8
0
 62
4
 10
-6.79249580E+01
 20
1.52413283E+02
  0
VERTEX
  8
0
 62
4
 10
-6.76196158E+01
 20
1.52593643E+02
  0
VERTEX
  8
0
 62
4
 10
-6.73323894E+01
 20
1.52797991E+02
  0
VERTEX
  8
0
 62
4
 10
-6.70654649E+01
 20
1.53024772E+02
  0
VERTEX
  8
0
 62
4
 10
-6.68208736E+01
 20
1.53272260E+02
  0
VERTEX
  8
0
 62
4
 10
-6.66004770E+01
 20
1.53538572E+02
  0
VERTEX
  8
0
 62
4
 10
-6.64059526E+01
 20
1.53821680E+02
  0
VERTEX
  8
0
 62
4
 10
-6.62387807E+01
 20
1.54119431E+02
  0
VERTEX
  8
0
 62
4
 10
-6.61002336E+01
 20
1.54429557E+02
  0
VERTEX
  8
0
 62
4
 10
-6.59913658E+01
 20
1.54749700E+02
  0
VERTEX
  8
0
 62
4
 10
-6.59130058E+01
 20
1.55077421E+02
  0
VERTEX
  8
0
 62
4
 10
-6.58657500E+01
 20
1.55410228E+02
  0
VERTEX
  8
0
 62
4
 10
-6.58499580E+01
 20
1.55745587E+02
  0
VERTEX
  8
0
 62
4
 10
-6.58657500E+01
 20
1.56080946E+02
  0
VERTEX
  8
0
 62
4
 10
-6.59130058E+01
 20
1.56413753E+02
  0
VERTEX
  8
0
 62
4
 10
-6.59913658E+01
 20
1.56741474E+02
  0
VERTEX
  8
0
 62
4
 10
-6.61002336E+01
 20
1.57061617E+02
  0
VERTEX
  8
0
 62
4
 10
-6.62387807E+01
 20
1.57371743E+02
  0
VERTEX
  8
0
 62
4
 10
-6.64059526E+01
 20
1.57669493E+02
  0
VERTEX
  8
0
 62
4
 10
-6.66004770E+01
 20
1.57952602E+02
  0
VERTEX
  8
0
 62
4
 10
-6.68208736E+01
 20
1.58218914E+02
  0
VERTEX
  8
0
 62
4
 10
-6.70654649E+01
 20
1.58466402E+02
  0
VERTEX
  8
0
 62
4
 10
-6.73323894E+01
 20
1.58693183E+02
  0
VERTEX
  8
0
 62
4
 10
-6.76196158E+01
 20
1.58897531E+02
  0
VERTEX
  8
0
 62
4
 10
-6.79249580E+01
 20
1.59077891E+02
  0
VERTEX
  8
0
 62
4
 10
-6.82460922E+01
 20
1.59232890E+02
  0
VERTEX
  8
0
 62
4
 10
-6.85805744E+01
 20
1.59361348E+02
  0
VERTEX
  8
0
 62
4
 10
-6.89258590E+01
 20
1.59462289E+02
  0
VERTEX
  8
0
 62
4
 10
-6.92793181E+01
 20
1.59534943E+02
  0
VERTEX
  8
0
 62
4
 10
-6.96382617E+01
 20
1.59578758E+02
  0
VERTEX
  8
0
 62
4
 10
-6.99999580E+01
 20
1.59593400E+02
  0
VERTEX
  8
0
 62
4
 10
-7.03616543E+01
 20
1.59578758E+02
  0
VERTEX
  8
0
 62
4
 10
-7.07205979E+01
 20
1.59534943E+02
  0
VERTEX
  8
0
 62
4
 10
-7.10740570E+01
 20
1.59462289E+02
  0
VERTEX
  8
0
 62
4
 10
-7.14193416E+01
 20
1.59361348E+02
  0
VERTEX
  8
0
 62
4
 10
-7.17538238E+01
 20
1.59232890E+02
  0
VERTEX
  8
0
 62
4
 10
-7.20749580E+01
 20
1.59077891E+02
  0
VERTEX
  8
0
 62
4
 10
-7.23803002E+01
 20
1.58897531E+02
  0
VERTEX
  8
0
 62
4
 10
-7.26675266E+01
 20
1.58693183E+02
  0
VERTEX
  8
0
 62
4
 10
-7.29344511E+01
 20
1.58466402E+02
  0
VERTEX
  8
0
 62
4
 10
-7.31790424E+01
 20
1.58218914E+02
  0
VERTEX
  8
0
 62
4
 10
-7.33994390E+01
 20
1.57952602E+02
  0
VERTEX
  8
0
 62
4
 10
-7.35939634E+01
 20
1.57669494E+02
  0
VERTEX
  8
0
 62
4
 10
-7.37611353E+01
 20
1.57371743E+02
  0
VERTEX
  8
0
 62
4
 10
-7.38996824E+01
 20
1.57061617E+02
  0
VERTEX
  8
0
 62
4
 10
-7.40085502E+01
 20
1.56741474E+02
  0
VERTEX
  8
0
 62
4
 10
-7.40869102E+01
 20
1.56413753E+02
  0
VERTEX
  8
0
 62
4
 10
-7.41341660E+01
 20
1.56080946E+02
  0
VERTEX
  8
0
 62
4
 10
-7.41499580E+01
 20
1.55745587E+02
  0
SEQEND
  8
0
  0
LINE
  8
0
 62
4
 10
-6.58499580E+01
 20
1.55086279E+02
 11
-6.58499580E+01
 21
1.55745587E+02
  0
ARC
  8
0
 62
4
 10
-1.54633759E+01
 20
9.71661350E+01
 40
8.02368575E+01
 50
1.31121885E+02
 51
1.34565706E+02
  0
ARC
  8
0
 62
4
 10
-1.24536409E+02
 20
9.71662771E+01
 40
8.02366638E+01
 50
4.54342898E+01
 51
4.88781190E+01
  0
POLYLINE
  8
0
 62
4
 66
1
  0
VERTEX
  8
0
 62
4
 10
-6.62999580E+01
 20
1.58189072E+02
  0
VERTEX
  8
0
 62
4
 10
-6.62846603E+01
 20
1.57873246E+02
  0
VERTEX
  8
0
 62
4
 10
-6.62388905E+01
 20
1.57559963E+02
  0
VERTEX
  8
0
 62
4
 10
-6.61630169E+01
 20
1.57251745E+02
  0
VERTEX
  8
0
 62
4
 10
-6.60576505E+01
 20
1.56951074E+02
  0
VERTEX
  8
0
 62
4
 10
-6.59236397E+01
 20
1.56660370E+02
  0
VERTEX
  8
0
 62
4
 10
-6.57620634E+01
 20
1.56381975E+02
  0
VERTEX
  8
0
 62
4
 10
-6.55742226E+01
 20
1.56118129E+02
  0
VERTEX
  8
0
 62
4
 10
-6.53616296E+01
 20
1.55870957E+02
  0
VERTEX
  8
0
 62
4
 10
-6.51259961E+01
 20
1.55642450E+02
  0
VERTEX
  8
0
 62
4
 10
-6.48692193E+01
 20
1.55434446E+02
  0
VERTEX
  8
0
 62
4
 10
-6.45933666E+01
 20
1.55248621E+02
  0
VERTEX
  8
0
 62
4
 10
-6.43006589E+01
 20
1.55086471E+02
  0
VERTEX
  8
0
 62
4
 10
-6.39934531E+01
 20
1.54949301E+02
  0
VERTEX
  8
0
 62
4
 10
-6.36742226E+01
 20
1.54838216E+02
  0
VERTEX
  8
0
 62
4
 10
-6.33455376E+01
 20
1.54754110E+02
  0
VERTEX
  8
0
 62
4
 10
-6.30100444E+01
 20
1.54697660E+02
  0
VERTEX
  8
0
 62
4
 10
-6.26704444E+01
 20
1.54669321E+02
  0
VERTEX
  8
0
 62
4
 10
-6.23294717E+01
 20
1.54669321E+02
  0
VERTEX
  8
0
 62
4
 10
-6.19898716E+01
 20
1.54697660E+02
  0
VERTEX
  8
0
 62
4
 10
-6.16543785E+01
 20
1.54754110E+02
  0
VERTEX
  8
0
 62
4
 10
-6.13256934E+01
 20
1.54838216E+02
  0
VERTEX
  8
0
 62
4
 10
-6.10064629E+01
 20
1.54949301E+02
  0
VERTEX
  8
0
 62
4
 10
-6.06992571E+01
 20
1.55086471E+02
  0
VERTEX
  8
0
 62
4
 10
-6.04065495E+01
 20
1.55248621E+02
  0
VERTEX
  8
0
 62
4
 10
-6.01306968E+01
 20
1.55434446E+02
  0
VERTEX
  8
0
 62
4
 10
-5.98739199E+01
 20
1.55642450E+02
  0
VERTEX
  8
0
 62
4
 10
-5.96382864E+01
 20
1.55870957E+02
  0
VERTEX
  8
0
 62
4
 10
-5.94256934E+01
 20
1.56118129E+02
  0
VERTEX
  8
0
 62
4
 10
-5.92378526E+01
 20
1.56381975E+02
  0
VERTEX
  8
0
 62
4
 10
-5.90762763E+01
 20
1.56660370E+02
  0
VERTEX
  8
0
 62
4
 10
-5.89422655E+01
 20
1.56951074E+02
  0
VERTEX
  8
0
 62
4
 10
-5.88368991E+01
 20
1.57251745E+02
  0
VERTEX
  8
0
 62
4
 10
-5.87610255E+01
 20
1.57559963E+02
  0
VERTEX
  8
0
 62
4
 10
-5.87152557E+01
 20
1.57873246E+02
  0
VERTEX
  8
0
 62
4
 10
-5.86999580E+01
 20
1.58189072E+02
  0
SEQEND
  8
0
  0
POLYLINE
  8
0
 62
4
 66
1
  0
VERTEX
  8
0
 62
4
 10
-6.48863246E+01
 20
1.61305582E+02
  0
VERTEX
  8
0
 62
4
 10
-6.51368572E+01
 20
1.61100635E+02
  0
VERTEX
  8
0
 62
4
 10
-6.53670056E+01
 20
1.60876076E+02
  0
VERTEX
  8
0
 62
4
 10
-6.55749907E+01
 20
1.60633641E+02
  0
VERTEX
  8
0
 62
4
 10
-6.57592046E+01
 20
1.60375205E+02
  0
VERTEX
  8
0
 62
4
 10
-6.59182234E+01
 20
1.60102766E+02
  0
VERTEX
  8
0
 62
4
 10
-6.60508178E+01
 20
1.59818428E+02
  0
VERTEX
  8
0
 62
4
 10
-6.61559627E+01
 20
1.59524391E+02
  0
VERTEX
  8
0
 62
4
 10
-6.62328454E+01
 20
1.59222927E+02
  0
VERTEX
  8
0
 62
4
 10
-6.62808715E+01
 20
1.58916367E+02
  0
VERTEX
  8
0
 62
4
 10
-6.62996697E+01
 20
1.58607080E+02
  0
VERTEX
  8
0
 62
4
 10
-6.62890948E+01
 20
1.58297458E+02
  0
VERTEX
  8
0
 62
4
 10
-6.62492285E+01
 20
1.57989894E+02
  0
VERTEX
  8
0
 62
4
 10
-6.61803789E+01
 20
1.57686766E+02
  0
VERTEX
  8
0
 62
4
 10
-6.60830784E+01
 20
1.57390416E+02
  0
VERTEX
  8
0
 62
4
 10
-6.59580790E+01
 20
1.57103137E+02
  0
VERTEX
  8
0
 62
4
 10
-6.58063471E+01
 20
1.56827147E+02
  0
VERTEX
  8
0
 62
4
 10
-6.56290556E+01
 20
1.56564582E+02
  0
VERTEX
  8
0
 62
4
 10
-6.54275751E+01
 20
1.56317470E+02
  0
VERTEX
  8
0
 62
4
 10
-6.52034630E+01
 20
1.56087723E+02
  0
VERTEX
  8
0
 62
4
 10
-6.49584518E+01
 20
1.55877115E+02
  0
VERTEX
  8
0
 62
4
 10
-6.46944355E+01
 20
1.55687276E+02
  0
VERTEX
  8
0
 62
4
 10
-6.44134552E+01
 20
1.55519672E+02
  0
VERTEX
  8
0
 62
4
 10
-6.41176828E+01
 20
1.55375600E+02
  0
VERTEX
  8
0
 62
4
 10
-6.38094048E+01
 20
1.55256172E+02
  0
VERTEX
  8
0
 62
4
 10
-6.34910043E+01
 20
1.55162313E+02
  0
VERTEX
  8
0
 62
4
 10
-6.31649427E+01
 20
1.55094748E+02
  0
VERTEX
  8
0
 62
4
 10
-6.28337405E+01
 20
1.55053999E+02
  0
VERTEX
  8
0
 62
4
 10
-6.24999580E+01
 20
1.55040380E+02
  0
VERTEX
  8
0
 62
4
 10
-6.21661755E+01
 20
1.55053999E+02
  0
VERTEX
  8
0
 62
4
 10
-6.18349733E+01
 20
1.55094748E+02
  0
VERTEX
  8
0
 62
4
 10
-6.15089117E+01
 20
1.55162313E+02
  0
VERTEX
  8
0
 62
4
 10
-6.11905112E+01
 20
1.55256172E+02
  0
VERTEX
  8
0
 62
4
 10
-6.08822332E+01
 20
1.55375600E+02
  0
VERTEX
  8
0
 62
4
 10
-6.05864608E+01
 20
1.55519672E+02
  0
VERTEX
  8
0
 62
4
 10
-6.03054805E+01
 20
1.55687276E+02
  0
VERTEX
  8
0
 62
4
 10
-6.00414642E+01
 20
1.55877115E+02
  0
VERTEX
  8
0
 62
4
 10
-5.97964530E+01
 20
1.56087723E+02
  0
VERTEX
  8
0
 62
4
 10
-5.95723409E+01
 20
1.56317470E+02
  0
VERTEX
  8
0
 62
4
 10
-5.93708604E+01
 20
1.56564582E+02
  0
VERTEX
  8
0
 62
4
 10
-5.91935689E+01
 20
1.56827147E+02
  0
VERTEX
  8
0
 62
4
 10
-5.90418370E+01
 20
1.57103137E+02
  0
VERTEX
  8
0
 62
4
 10
-5.89168376E+01
 20
1.57390416E+02
  0
VERTEX
  8
0
 62
4
 10
-5.88195371E+01
 20
1.57686766E+02
  0
VERTEX
  8
0
 62
4
 10
-5.87506875E+01
 20
1.57989894E+02
  0
VERTEX
  8
0
 62
4
 10
-5.87108212E+01
 20
1.58297458E+02
  0
VERTEX
  8
0
 62
4
 10
-5.87002463E+01
 20
1.58607080E+02
  0
VERTEX
  8
0
 62
4
 10
-5.87190445E+01
 20
1.58916367E+02
  0
VERTEX
  8
0
 62
4
 10
-5.87670706E+01
 20
1.59222927E+02
  0
VERTEX
  8
0
 62
4
 10
-5.88439533E+01
 20
1.59524391E+02
  0
VERTEX
  8
0
 62
4
 10
-5.89490982E+01
 20
1.59818428E+02
  0
VERTEX
  8
0
 62
4
 10
-5.90816926E+01
 20
1.60102766E+02
  0
VERTEX
  8
0
 62
4
 10
-5.92407114E+01
 20
1.60375205E+02
  0
VERTEX
  8
0
 62
4
 10
-5.94249253E+01
 20
1.60633641E+02
  0
VERTEX
  8
0
 62
4
 10
-5.96329104E+01
 20
1.60876076E+02
  0
VERTEX
  8
0
 62
4
 10
-5.98630588E+01
 20
1.61100635E+02
  0
VERTEX
  8
0
 62
4
 10
-6.01135914E+01
 20
1.61305582E+02
  0
SEQEND
  8
0
  0
LINE
  8
0
 62
4
 10
-6.62999581E+01
 20
1.58189072E+02
 11
-6.62999581E+01
 21
1.58563679E+02
  0
LINE
  8
0
 62
4
 10
-5.86999581E+01
 20
1.58563679E+02
 11
-5.86999581E+01
 21
1.58189072E+02
  0
LINE
  8
0
 62
4
 10
-6.58999581E+01
 20
1.58563679E+02
 11
-6.58999581E+01
 21
1.59060101E+02
  0
POLYLINE
  8
0
 62
4
 66
1
  0
VERTEX
  8
0
 62
4
 10
-6.58999580E+01
 20
1.58563679E+02
  0
VERTEX
  8
0
 62
4
 10
-6.58862706E+01
 20
1.58281098E+02
  0
VERTEX
  8
0
 62
4
 10
-6.58453186E+01
 20
1.58000792E+02
  0
VERTEX
  8
0
 62
4
 10
-6.57774318E+01
 20
1.57725018E+02
  0
VERTEX
  8
0
 62
4
 10
-6.56831566E+01
 20
1.57455996E+02
  0
VERTEX
  8
0
 62
4
 10
-6.55632522E+01
 20
1.57195893E+02
  0
VERTEX
  8
0
 62
4
 10
-6.54186839E+01
 20
1.56946802E+02
  0
VERTEX
  8
0
 62
4
 10
-6.52506158E+01
 20
1.56710730E+02
  0
VERTEX
  8
0
 62
4
 10
-6.50604010E+01
 20
1.56489576E+02
  0
VERTEX
  8
0
 62
4
 10
-6.48495710E+01
 20
1.56285122E+02
  0
VERTEX
  8
0
 62
4
 10
-6.46198234E+01
 20
1.56099014E+02
  0
VERTEX
  8
0
 62
4
 10
-6.43730078E+01
 20
1.55932749E+02
  0
VERTEX
  8
0
 62
4
 10
-6.41111115E+01
 20
1.55787668E+02
  0
VERTEX
  8
0
 62
4
 10
-6.38362431E+01
 20
1.55664937E+02
  0
VERTEX
  8
0
 62
4
 10
-6.35506158E+01
 20
1.55565545E+02
  0
VERTEX
  8
0
 62
4
 10
-6.32565292E+01
 20
1.55490292E+02
  0
VERTEX
  8
0
 62
4
 10
-6.29563511E+01
 20
1.55439784E+02
  0
VERTEX
  8
0
 62
4
 10
-6.26524984E+01
 20
1.55414428E+02
  0
VERTEX
  8
0
 62
4
 10
-6.23474176E+01
 20
1.55414428E+02
  0
VERTEX
  8
0
 62
4
 10
-6.20435649E+01
 20
1.55439784E+02
  0
VERTEX
  8
0
 62
4
 10
-6.17433868E+01
 20
1.55490292E+02
  0
VERTEX
  8
0
 62
4
 10
-6.14493002E+01
 20
1.55565545E+02
  0
VERTEX
  8
0
 62
4
 10
-6.11636729E+01
 20
1.55664937E+02
  0
VERTEX
  8
0
 62
4
 10
-6.08888046E+01
 20
1.55787668E+02
  0
VERTEX
  8
0
 62
4
 10
-6.06269083E+01
 20
1.55932749E+02
  0
VERTEX
  8
0
 62
4
 10
-6.03800927E+01
 20
1.56099014E+02
  0
VERTEX
  8
0
 62
4
 10
-6.01503450E+01
 20
1.56285122E+02
  0
VERTEX
  8
0
 62
4
 10
-5.99395150E+01
 20
1.56489576E+02
  0
VERTEX
  8
0
 62
4
 10
-5.97493002E+01
 20
1.56710730E+02
  0
VERTEX
  8
0
 62
4
 10
-5.95812321E+01
 20
1.56946802E+02
  0
VERTEX
  8
0
 62
4
 10
-5.94366638E+01
 20
1.57195893E+02
  0
VERTEX
  8
0
 62
4
 10
-5.93167594E+01
 20
1.57455996E+02
  0
VERTEX
  8
0
 62
4
 10
-5.92224843E+01
 20
1.57725018E+02
  0
VERTEX
  8
0
 62
4
 10
-5.91545974E+01
 20
1.58000792E+02
  0
VERTEX
  8
0
 62
4
 10
-5.91136454E+01
 20
1.58281098E+02
  0
VERTEX
  8
0
 62
4
 10
-5.90999580E+01
 20
1.58563679E+02
  0
SEQEND
  8
0
  0
LINE
  8
0
 62
4
 10
-5.90999580E+01
 20
1.58563679E+02
 11
-5.90999580E+01
 21
1.59060101E+02
  0
POLYLINE
  8
0
 62
4
 66
1
  0
VERTEX
  8
0
 62
4
 10
-6.58999580E+01
 20
1.59060101E+02
  0
VERTEX
  8
0
 62
4
 10
-6.58870200E+01
 20
1.58785349E+02
  0
VERTEX
  8
0
 62
4
 10
-6.58483044E+01
 20
1.58512688E+02
  0
VERTEX
  8
0
 62
4
 10
-6.57841058E+01
 20
1.58244193E+02
  0
VERTEX
  8
0
 62
4
 10
-6.56949129E+01
 20
1.57981908E+02
  0
VERTEX
  8
0
 62
4
 10
-6.55814045E+01
 20
1.57727829E+02
  0
VERTEX
  8
0
 62
4
 10
-6.54444444E+01
 20
1.57483888E+02
  0
VERTEX
  8
0
 62
4
 10
-6.52850750E+01
 20
1.57251944E+02
  0
VERTEX
  8
0
 62
4
 10
-6.51045091E+01
 20
1.57033761E+02
  0
VERTEX
  8
0
 62
4
 10
-6.49041211E+01
 20
1.56831000E+02
  0
VERTEX
  8
0
 62
4
 10
-6.46854359E+01
 20
1.56645203E+02
  0
VERTEX
  8
0
 62
4
 10
-6.44501179E+01
 20
1.56477786E+02
  0
VERTEX
  8
0
 62
4
 10
-6.41999580E+01
 20
1.56330021E+02
  0
VERTEX
  8
0
 62
4
 10
-6.39368601E+01
 20
1.56203034E+02
  0
VERTEX
  8
0
 62
4
 10
-6.36628265E+01
 20
1.56097790E+02
  0
VERTEX
  8
0
 62
4
 10
-6.33799428E+01
 20
1.56015092E+02
  0
VERTEX
  8
0
 62
4
 10
-6.30903618E+01
 20
1.55955568E+02
  0
VERTEX
  8
0
 62
4
 10
-6.27962875E+01
 20
1.55919672E+02
  0
VERTEX
  8
0
 62
4
 10
-6.24999580E+01
 20
1.55907676E+02
  0
VERTEX
  8
0
 62
4
 10
-6.22036285E+01
 20
1.55919672E+02
  0
VERTEX
  8
0
 62
4
 10
-6.19095542E+01
 20
1.55955568E+02
  0
VERTEX
  8
0
 62
4
 10
-6.16199732E+01
 20
1.56015092E+02
  0
VERTEX
  8
0
 62
4
 10
-6.13370895E+01
 20
1.56097790E+02
  0
VERTEX
  8
0
 62
4
 10
-6.10630559E+01
 20
1.56203034E+02
  0
VERTEX
  8
0
 62
4
 10
-6.07999580E+01
 20
1.56330021E+02
  0
VERTEX
  8
0
 62
4
 10
-6.05497981E+01
 20
1.56477786E+02
  0
VERTEX
  8
0
 62
4
 10
-6.03144801E+01
 20
1.56645203E+02
  0
VERTEX
  8
0
 62
4
 10
-6.00957949E+01
 20
1.56831000E+02
  0
VERTEX
  8
0
 62
4
 10
-5.98954069E+01
 20
1.57033761E+02
  0
VERTEX
  8
0
 62
4
 10
-5.97148410E+01
 20
1.57251944E+02
  0
VERTEX
  8
0
 62
4
 10
-5.95554716E+01
 20
1.57483888E+02
  0
VERTEX
  8
0
 62
4
 10
-5.94185115E+01
 20
1.57727829E+02
  0
VERTEX
  8
0
 62
4
 10
-5.93050031E+01
 20
1.57981908E+02
  0
VERTEX
  8
0
 62
4
 10
-5.92158102E+01
 20
1.58244193E+02
  0
VERTEX
  8
0
 62
4
 10
-5.91516116E+01
 20
1.58512688E+02
  0
VERTEX
  8
0
 62
4
 10
-5.91128960E+01
 20
1.58785349E+02
  0
VERTEX
  8
0
 62
4
 10
-5.90999580E+01
 20
1.59060101E+02
  0
VERTEX
  8
0
 62
4
 10
-5.91128960E+01
 20
1.59334853E+02
  0
VERTEX
  8
0
 62
4
 10
-5.91516116E+01
 20
1.59607514E+02
  0
VERTEX
  8
0
 62
4
 10
-5.92158102E+01
 20
1.59876009E+02
  0
VERTEX
  8
0
 62
4
 10
-5.93050031E+01
 20
1.60138294E+02
  0
VERTEX
  8
0
 62
4
 10
-5.94185115E+01
 20
1.60392373E+02
  0
VERTEX
  8
0
 62
4
 10
-5.95554716E+01
 20
1.60636314E+02
  0
VERTEX
  8
0
 62
4
 10
-5.97148410E+01
 20
1.60868258E+02
  0
VERTEX
  8
0
 62
4
 10
-5.98954069E+01
 20
1.61086441E+02
  0
VERTEX
  8
0
 62
4
 10
-6.00957949E+01
 20
1.61289202E+02
  0
VERTEX
  8
0
 62
4
 10
-6.03144801E+01
 20
1.61474999E+02
  0
VERTEX
  8
0
 62
4
 10
-6.05497981E+01
 20
1.61642416E+02
  0
VERTEX
  8
0
 62
4
 10
-6.07999580E+01
 20
1.61790181E+02
  0
VERTEX
  8
0
 62
4
 10
-6.10630559E+01
 20
1.61917168E+02
  0
VERTEX
  8
0
 62
4
 10
-6.13370895E+01
 20
1.62022412E+02
  0
VERTEX
  8
0
 62
4
 10
-6.16199732E+01
 20
1.62105110E+02
  0
VERTEX
  8
0
 62
4
 10
-6.19095542E+01
 20
1.62164634E+02
  0
VERTEX
  8
0
 62
4
 10
-6.22036285E+01
 20
1.62200530E+02
  0
VERTEX
  8
0
 62
4
 10
-6.24999580E+01
 20
1.62212526E+02
  0
VERTEX
  8
0
 62
4
 10
-6.27962875E+01
 20
1.62200530E+02
  0
VERTEX
  8
0
 62
4
 10
-6.30903618E+01
 20
1.62164634E+02
  0
VERTEX
  8
0
 62
4
 10
-6.33799428E+01
 20
1.62105110E+02
  0
VERTEX
  8
0
 62
4
 10
-6.36628265E+01
 20
1.62022412E+02
  0
VERTEX
  8
0
 62
4
 10
-6.39368601E+01
 20
1.61917168E+02
  0
VERTEX
  8
0
 62
4
 10
-6.41999580E+01
 20
1.61790181E+02
  0
VERTEX
  8
0
 62
4
 10
-6.44501179E+01
 20
1.61642416E+02
  0
VERTEX
  8
0
 62
4
 10
-6.46854359E+01
 20
1.61474999E+02
  0
VERTEX
  8
0
 62
4
 10
-6.49041211E+01
 20
1.61289202E+02
  0
VERTEX
  8
0
 62
4
 10
-6.51045091E+01
 20
1.61086441E+02
  0
VERTEX
  8
0
 62
4
 10
-6.52850750E+01
 20
1.60868258E+02
  0
VERTEX
  8
0
 62
4
 10
-6.54444444E+01
 20
1.60636314E+02
  0
VERTEX
  8
0
 62
4
 10
-6.55814045E+01
 20
1.60392373E+02
  0
VERTEX
  8
0
 62
4
 10
-6.56949129E+01
 20
1.60138294E+02
  0
VERTEX
  8
0
 62
4
 10
-6.57841058E+01
 20
1.59876009E+02
  0
VERTEX
  8
0
 62
4
 10
-6.58483044E+01
 20
1.59607514E+02
  0
VERTEX
  8
0
 62
4
 10
-6.58870200E+01
 20
1.59334853E+02
  0
VERTEX
  8
0
 62
4
 10
-6.58999580E+01
 20
1.59060101E+02
  0
SEQEND
  8
0
  0
ARC
  8
0
 62
4
 10
-8.46968104E+00
 20
1.01139582E+02
 40
7.95040043E+01
 50
1.31098609E+02
 51
1.34573756E+02
  0
ARC
  8
0
 62
4
 10
-1.16530235E+02
 20
1.01139582E+02
 40
7.95040043E+01
 50
4.54262442E+01
 51
4.89013908E+01
  0
LINE
  8
0
 62
4
 10
-6.67285692E+01
 20
1.52718687E+02
 11
-5.49999580E+01
 21
1.52718687E+02
  0
LINE
  8
0
 62
4
 10
-6.71042012E+01
 20
1.52330017E+02
 11
-6.14999580E+01
 21
1.52330017E+02
  0
LINE
  8
0
 62
7
 10
-3.58419502E+01
 20
1.50000008E+02
 11
-9.89999886E+01
 21
1.50000008E+02
  0
LINE
  8
0
 62
7
 10
-2.59999809E+01
 20
1.46000023E+02
 11
-9.89999886E+01
 21
1.46000023E+02
  0
LINE
  8
0
 62
7
 10
-2.59999809E+01
 20
1.37000008E+02
 11
-9.89999886E+01
 21
1.37000008E+02
  0
LINE
  8
0
  6
CENTER
 62
2
 10
-6.07499973E+02
 20
5.67628784E+01
 11
-6.07499973E+02
 21
8.69070358E+01
  0
LINE
  8
0
  6
CENTER
 62
2
 10
-5.92944500E+02
 20
7.15000153E+01
 11
-6.21365131E+02
 21
7.15000153E+01
  0
LINE
  8
0
  6
CENTER
 62
2
 10
-6.63690876E+02
 20
7.15000153E+01
 11
-6.92487736E+02
 21
7.15000153E+01
  0
LINE
  8
0
  6
CENTER
 62
2
 10
-6.77500004E+02
 20
5.68976593E+01
 11
-6.77500004E+02
 21
8.55789261E+01
  0
LINE
  8
0
  6
CENTER
 62
2
 10
-6.77500004E+02
 20
1.55872688E+02
 11
-6.77500004E+02
 21
1.26135765E+02
  0
LINE
  8
0
  6
CENTER
 62
2
 10
-6.63277882E+02
 20
1.41500008E+02
 11
-6.92487736E+02
 21
1.41500008E+02
  0
LINE
  8
0
  6
CENTER
 62
2
 10
-6.07499973E+02
 20
1.55872688E+02
 11
-6.07499973E+02
 21
1.26135765E+02
  0
LINE
  8
0
  6
CENTER
 62
2
 10
-5.92944500E+02
 20
1.41500008E+02
 11
-6.22190983E+02
 21
1.41500008E+02
  0
LINE
  8
0
  6
CENTER
 62
2
 10
-6.42499989E+02
 20
1.80187477E+02
 11
-6.42499989E+02
 21
4.53658905E+01
  0
LINE
  8
0
 62
7
 10
-5.83999989E+02
 20
1.12499947E+02
 11
-5.77500050E+02
 21
1.12499947E+02
  0
LINE
  8
0
 62
7
 10
-7.00999928E+02
 20
1.06499962E+02
 11
-7.06807117E+02
 21
1.06499962E+02
  0
LINE
  8
0
 62
7
 10
-6.98499928E+02
 20
1.14499954E+02
 11
-7.00999928E+02
 21
1.14499954E+02
  0
LINE
  8
0
  6
CENTER
 62
2
 10
-7.12522999E+02
 20
1.06500000E+02
 11
-5.71648670E+02
 21
1.06500000E+02
  0
LINE
  8
0
 62
7
 10
-6.98499928E+02
 20
9.84999924E+01
 11
-7.00999928E+02
 21
9.84999924E+01
  0
LINE
  8
0
 62
7
 10
-7.00999928E+02
 20
1.12499947E+02
 11
-7.07500050E+02
 21
1.12499947E+02
  0
LINE
  8
0
 62
7
 10
-5.83999989E+02
 20
1.06499962E+02
 11
-5.78192799E+02
 21
1.06499962E+02
  0
LINE
  8
0
 62
7
 10
-5.86499989E+02
 20
9.84999924E+01
 11
-5.83999989E+02
 21
9.84999924E+01
  0
LINE
  8
0
 62
7
 10
-5.83999928E+02
 20
9.85000076E+01
 11
-5.83999928E+02
 21
1.14499992E+02
  0
LINE
  8
0
 62
7
 10
-5.77499866E+02
 20
1.00499977E+02
 11
-5.77499866E+02
 21
1.12499985E+02
  0
LINE
  8
0
 62
7
 10
-5.86499989E+02
 20
1.14499954E+02
 11
-5.83999989E+02
 21
1.14499954E+02
  0
LINE
  8
0
 62
7
 10
-7.07500050E+02
 20
1.00499977E+02
 11
-7.07500050E+02
 21
1.12499985E+02
  0
LINE
  8
0
 62
7
 10
-7.09500111E+02
 20
1.03200020E+02
 11
-7.09500111E+02
 21
1.09799980E+02
  0
LINE
  8
0
 62
7
 10
-5.75499989E+02
 20
1.03200020E+02
 11
-5.75499989E+02
 21
1.09799980E+02
  0
LINE
  8
0
 62
7
 10
-7.00999928E+02
 20
1.00499977E+02
 11
-7.07500050E+02
 21
1.00499977E+02
  0
LINE
  8
0
 62
2
 10
-7.07500050E+02
 20
1.03199944E+02
 11
-7.09499928E+02
 21
1.03199944E+02
  0
LINE
  8
0
 62
7
 10
-7.07500050E+02
 20
1.10499977E+02
 11
-7.08800098E+02
 21
1.10499977E+02
  0
LINE
  8
0
 62
7
 10
-7.07500050E+02
 20
1.02499947E+02
 11
-7.08800098E+02
 21
1.02499947E+02
  0
LINE
  8
0
 62
7
 10
-5.77499866E+02
 20
1.02499947E+02
 11
-5.76200062E+02
 21
1.02499947E+02
  0
LINE
  8
0
 62
7
 10
-5.77499866E+02
 20
1.10499977E+02
 11
-5.76200062E+02
 21
1.10499977E+02
  0
LINE
  8
0
 62
2
 10
-5.77499866E+02
 20
1.03199944E+02
 11
-5.75499989E+02
 21
1.03199944E+02
  0
LINE
  8
0
 62
2
 10
-5.77499866E+02
 20
1.09799980E+02
 11
-5.75499989E+02
 21
1.09799980E+02
  0
LINE
  8
0
 62
7
 10
-5.76200001E+02
 20
1.02500023E+02
 11
-5.76200001E+02
 21
1.10499977E+02
  0
LINE
  8
0
 62
7
 10
-7.00999866E+02
 20
9.85000076E+01
 11
-7.00999866E+02
 21
1.14499992E+02
  0
LINE
  8
0
 62
7
 10
-5.76199541E+02
 20
1.02499387E+02
 11
-5.75499533E+02
 21
1.03199394E+02
  0
LINE
  8
0
 62
7
 10
-5.75499813E+02
 20
1.09800100E+02
 11
-5.76199713E+02
 21
1.10500000E+02
  0
LINE
  8
0
 62
7
 10
-7.08800098E+02
 20
1.02500023E+02
 11
-7.08800098E+02
 21
1.10499977E+02
  0
LINE
  8
0
 62
2
 10
-7.07500050E+02
 20
1.09799980E+02
 11
-7.09499928E+02
 21
1.09799980E+02
  0
LINE
  8
0
 62
7
 10
-7.08799860E+02
 20
1.02500021E+02
 11
-7.09499889E+02
 21
1.03200050E+02
  0
LINE
  8
0
 62
7
 10
-7.09499458E+02
 20
1.09799224E+02
 11
-7.08799429E+02
 21
1.10499253E+02
  0
LINE
  8
0
 62
7
 10
-5.83999989E+02
 20
1.00499977E+02
 11
-5.77500050E+02
 21
1.00499977E+02
  0
LINE
  8
0
 62
7
 10
-6.93499928E+02
 20
5.04999771E+01
 11
-5.91499989E+02
 21
5.04999771E+01
  0
LINE
  8
0
 62
7
 10
-6.98500050E+02
 20
1.57499977E+02
 11
-6.98500050E+02
 21
5.54999771E+01
  0
LINE
  8
0
 62
7
 10
-5.86499989E+02
 20
1.57499977E+02
 11
-5.86499989E+02
 21
5.54999771E+01
  0
LINE
  8
0
 62
7
 10
-6.93499928E+02
 20
1.62499977E+02
 11
-5.91499989E+02
 21
1.62499977E+02
  0
LINE
  8
0
  6
CENTER
 62
2
 10
-6.13984058E+02
 20
6.44999924E+01
 11
-5.85447437E+02
 21
6.44999924E+01
  0
LINE
  8
0
  6
CENTER
 62
2
 10
-6.00499989E+02
 20
7.85776215E+01
 11
-6.00499989E+02
 21
4.93929520E+01
  0
LINE
  8
0
 62
7
 10
-5.95499844E+02
 20
6.73868629E+01
 11
-6.00499792E+02
 21
7.02735734E+01
  0
LINE
  8
0
 62
7
 10
-6.00499801E+02
 20
7.02733117E+01
 11
-6.05499803E+02
 21
6.73865707E+01
  0
LINE
  8
0
 62
7
 10
-6.05499989E+02
 20
6.16132431E+01
 11
-6.05499989E+02
 21
6.73867264E+01
  0
LINE
  8
0
 62
7
 10
-6.00499845E+02
 20
5.87265743E+01
 11
-6.05499846E+02
 21
6.16133153E+01
  0
LINE
  8
0
 62
7
 10
-5.95499862E+02
 20
6.16131288E+01
 11
-6.00499916E+02
 21
5.87263572E+01
  0
LINE
  8
0
 62
7
 10
-5.95499928E+02
 20
6.73867264E+01
 11
-5.95499928E+02
 21
6.16132431E+01
  0
LINE
  8
0
  6
CENTER
 62
2
 10
-6.71015919E+02
 20
6.44999924E+01
 11
-6.99552479E+02
 21
6.44999924E+01
  0
LINE
  8
0
  6
CENTER
 62
2
 10
-6.84499928E+02
 20
7.85776215E+01
 11
-6.84499928E+02
 21
4.93929520E+01
  0
LINE
  8
0
 62
7
 10
-6.89499902E+02
 20
6.73864750E+01
 11
-6.84499796E+02
 21
7.02732771E+01
  0
LINE
  8
0
 62
7
 10
-6.84500014E+02
 20
7.02734577E+01
 11
-6.79500013E+02
 21
6.73867167E+01
  0
LINE
  8
0
 62
7
 10
-6.79499928E+02
 20
6.16132431E+01
 11
-6.79499928E+02
 21
6.73867264E+01
  0
LINE
  8
0
 62
7
 10
-6.84499947E+02
 20
5.87262656E+01
 11
-6.79499893E+02
 21
6.16130372E+01
  0
LINE
  8
0
 62
7
 10
-6.89499947E+02
 20
6.16131649E+01
 11
-6.84499999E+02
 21
5.87264544E+01
  0
LINE
  8
0
 62
7
 10
-6.89500111E+02
 20
6.73867264E+01
 11
-6.89500111E+02
 21
6.16132431E+01
  0
LINE
  8
0
  6
CENTER
 62
2
 10
-6.13984058E+02
 20
1.48500008E+02
 11
-5.85447437E+02
 21
1.48500008E+02
  0
LINE
  8
0
  6
CENTER
 62
2
 10
-6.00499989E+02
 20
1.34422371E+02
 11
-6.00499989E+02
 21
1.63607048E+02
  0
LINE
  8
0
 62
7
 10
-5.95500014E+02
 20
1.45613266E+02
 11
-6.00500068E+02
 21
1.42726495E+02
  0
LINE
  8
0
 62
7
 10
-6.00499867E+02
 20
1.42726531E+02
 11
-6.05499816E+02
 21
1.45613241E+02
  0
LINE
  8
0
 62
7
 10
-6.05499989E+02
 20
1.51386742E+02
 11
-6.05499989E+02
 21
1.45613228E+02
  0
LINE
  8
0
 62
7
 10
-6.00499886E+02
 20
1.54273453E+02
 11
-6.05499887E+02
 21
1.51386712E+02
  0
LINE
  8
0
 62
7
 10
-5.95499882E+02
 20
1.51386793E+02
 11
-6.00499830E+02
 21
1.54273504E+02
  0
LINE
  8
0
 62
7
 10
-5.95499928E+02
 20
1.45613228E+02
 11
-5.95499928E+02
 21
1.51386742E+02
  0
LINE
  8
0
  6
CENTER
 62
2
 10
-6.71015919E+02
 20
1.48500008E+02
 11
-6.99552479E+02
 21
1.48500008E+02
  0
LINE
  8
0
  6
CENTER
 62
2
 10
-6.84499928E+02
 20
1.34422371E+02
 11
-6.84499928E+02
 21
1.63607048E+02
  0
LINE
  8
0
 62
7
 10
-6.89499999E+02
 20
1.45613315E+02
 11
-6.84499945E+02
 21
1.42726543E+02
  0
LINE
  8
0
 62
7
 10
-6.84499903E+02
 20
1.42726306E+02
 11
-6.79499902E+02
 21
1.45613047E+02
  0
LINE
  8
0
 62
7
 10
-6.79499928E+02
 20
1.51386742E+02
 11
-6.79499928E+02
 21
1.45613228E+02
  0
LINE
  8
0
 62
7
 10
-6.84499907E+02
 20
1.54273516E+02
 11
-6.79499959E+02
 21
1.51386805E+02
  0
LINE
  8
0
 62
7
 10
-6.89499949E+02
 20
1.51386673E+02
 11
-6.84499948E+02
 21
1.54273415E+02
  0
LINE
  8
0
 62
7
 10
-6.89500111E+02
 20
1.45613228E+02
 11
-6.89500111E+02
 21
1.51386742E+02
  0
LINE
  8
0
 62
7
 10
-6.29999989E+02
 20
1.62499977E+02
 11
-6.29999989E+02
 21
1.73999992E+02
  0
LINE
  8
0
 62
7
 10
-6.30999958E+02
 20
1.75000143E+02
 11
-6.29999979E+02
 21
1.74000163E+02
  0
LINE
  8
0
 62
7
 10
-6.54999832E+02
 20
1.73999883E+02
 11
-6.53999853E+02
 21
1.74999862E+02
  0
LINE
  8
0
 62
7
 10
-6.53999989E+02
 20
1.74999977E+02
 11
-6.30999928E+02
 21
1.74999977E+02
  0
LINE
  8
0
 62
7
 10
-6.54999989E+02
 20
1.62499977E+02
 11
-6.54999989E+02
 21
1.73999992E+02
  0
LINE
  8
0
 62
7
 10
-6.54999989E+02
 20
1.73999992E+02
 11
-6.29999989E+02
 21
1.73999992E+02
  0
CIRCLE
  8
0
 62
2
 10
-6.42499989E+02
 20
1.06500000E+02
 40
1.01800117E+01
  0
CIRCLE
  8
0
 62
7
 10
-6.42499989E+02
 20
1.06500076E+02
 40
2.20000000E+01
  0
CIRCLE
  8
0
 62
7
 10
-6.42499989E+02
 20
1.06500076E+02
 40
1.95000000E+01
  0
CIRCLE
  8
0
 62
7
 10
-6.42499989E+02
 20
1.06500000E+02
 40
2.10111084E+01
  0
ARC
  8
0
 62
7
 10
-5.84340870E+02
 20
1.09499992E+02
 40
6.84084702E+00
 50
3.33989137E+02
 51
2.60107913E+01
  0
ARC
  8
0
 62
7
 10
-5.84340870E+02
 20
1.03500008E+02
 40
6.84088802E+00
 50
3.33989277E+02
 51
2.60106513E+01
  0
ARC
  8
0
 62
7
 10
-7.00659168E+02
 20
1.09499992E+02
 40
6.84084702E+00
 50
1.53989169E+02
 51
2.06010827E+02
  0
ARC
  8
0
 62
7
 10
-7.00659168E+02
 20
1.03500008E+02
 40
6.84088802E+00
 50
1.53989320E+02
 51
2.06010690E+02
  0
ARC
  8
0
 62
7
 10
-5.91499989E+02
 20
1.57499977E+02
 40
5.00000000E+00
 50
0.00000000E+00
 51
8.99999818E+01
  0
ARC
  8
0
 62
7
 10
-6.93500050E+02
 20
1.57499977E+02
 40
5.00000000E+00
 50
8.99999818E+01
 51
1.79999964E+02
  0
ARC
  8
0
 62
7
 10
-5.91499989E+02
 20
5.54999771E+01
 40
5.00000000E+00
 50
2.70000018E+02
 51
0.00000000E+00
  0
ARC
  8
0
 62
7
 10
-6.93500050E+02
 20
5.54999771E+01
 40
5.00000000E+00
 50
1.79999977E+02
 51
2.70000028E+02
  0
CIRCLE
  8
0
 62
7
 10
-6.00499989E+02
 20
6.44999924E+01
 40
8.00002670E+00
  0
CIRCLE
  8
0
 62
7
 10
-6.00499989E+02
 20
6.44999924E+01
 40
8.25002670E+00
  0
CIRCLE
  8
0
 62
2
 10
-6.00499989E+02
 20
6.44999924E+01
 40
5.00000000E+00
  0
CIRCLE
  8
0
 62
7
 10
-6.00499989E+02
 20
6.44999924E+01
 40
4.18000031E+00
  0
CIRCLE
  8
0
 62
7
 10
-6.84499928E+02
 20
6.44999924E+01
 40
8.00002670E+00
  0
CIRCLE
  8
0
 62
7
 10
-6.84499928E+02
 20
6.44999924E+01
 40
8.25002670E+00
  0
CIRCLE
  8
0
 62
2
 10
-6.84499928E+02
 20
6.44999924E+01
 40
5.00000000E+00
  0
CIRCLE
  8
0
 62
7
 10
-6.84499928E+02
 20
6.44999924E+01
 40
4.18000031E+00
  0
CIRCLE
  8
0
 62
7
 10
-6.84499928E+02
 20
1.48500008E+02
 40
4.18000031E+00
  0
CIRCLE
  8
0
 62
7
 10
-6.00499989E+02
 20
1.48500008E+02
 40
8.00002670E+00
  0
CIRCLE
  8
0
 62
7
 10
-6.00499989E+02
 20
1.48500008E+02
 40
8.25002670E+00
  0
CIRCLE
  8
0
 62
2
 10
-6.00499989E+02
 20
1.48500008E+02
 40
5.00000000E+00
  0
CIRCLE
  8
0
 62
7
 10
-6.00499989E+02
 20
1.48500008E+02
 40
4.18000031E+00
  0
CIRCLE
  8
0
 62
7
 10
-6.84499928E+02
 20
1.48500008E+02
 40
8.00002670E+00
  0
CIRCLE
  8
0
 62
7
 10
-6.84499928E+02
 20
1.48500008E+02
 40
8.25002670E+00
  0
CIRCLE
  8
0
 62
2
 10
-6.84499928E+02
 20
1.48500008E+02
 40
5.00000000E+00
  0
CIRCLE
  8
0
 62
4
 10
-6.42499989E+02
 20
1.06500000E+02
 40
1.60000000E+01
  0
CIRCLE
  8
0
 62
7
 10
-6.42499989E+02
 20
1.06500000E+02
 40
1.10000000E+01
  0
LINE
  8
0
 62
4
 10
-6.26499989E+02
 20
1.15737610E+02
 11
-6.26499989E+02
 21
9.72623901E+01
  0
LINE
  8
0
 62
4
 10
-6.58499989E+02
 20
1.15737610E+02
 11
-6.58499989E+02
 21
9.72623901E+01
  0
LINE
  8
0
 62
4
 10
-6.42499928E+02
 20
1.24975222E+02
 11
-6.26499955E+02
 21
1.15737641E+02
  0
LINE
  8
0
 62
4
 10
-6.58499831E+02
 20
9.72624957E+01
 11
-6.42499803E+02
 21
8.80249178E+01
  0
LINE
  8
0
 62
4
 10
-6.42499868E+02
 20
8.80248469E+01
 11
-6.26499990E+02
 21
9.72623953E+01
  0
LINE
  8
0
 62
4
 10
-6.58500023E+02
 20
1.15737581E+02
 11
-6.42499961E+02
 21
1.24975223E+02
  0
LINE
  8
0
  6
CENTER
 62
2
 10
2.81500088E+02
 20
1.55872688E+02
 11
2.81500088E+02
 21
1.26135765E+02
  0
LINE
  8
0
 62
7
 10
2.81500090E+02
 20
6.57265145E+01
 11
2.76500094E+02
 21
6.86132637E+01
  0
LINE
  8
0
 62
7
 10
2.81500092E+02
 20
7.72735179E+01
 11
2.76500096E+02
 21
7.43867687E+01
  0
LINE
  8
0
 62
7
 10
2.86500084E+02
 20
1.38613244E+02
 11
2.81500088E+02
 21
1.35726494E+02
  0
LINE
  8
0
 62
7
 10
2.06500057E+02
 20
7.43867722E+01
 11
2.06500057E+02
 21
6.86132660E+01
  0
LINE
  8
0
 62
7
 10
2.16500063E+02
 20
6.86132638E+01
 11
2.11500063E+02
 21
6.57265126E+01
  0
LINE
  8
0
 62
7
 10
2.00100094E+02
 20
6.35000000E+01
 11
2.00100094E+02
 21
1.49499977E+02
  0
LINE
  8
0
 62
7
 10
2.88900021E+02
 20
1.05250031E+02
 11
2.69389721E+02
 21
1.05250031E+02
  0
LINE
  8
0
 62
7
 10
2.47750088E+02
 20
6.41000366E+01
 11
2.47750088E+02
 21
8.36102600E+01
  0
LINE
  8
0
 62
7
 10
2.04100033E+02
 20
1.07749977E+02
 11
2.23610332E+02
 21
1.07749977E+02
  0
LINE
  8
0
 62
7
 10
2.61801763E+02
 20
8.94307543E+01
 11
2.71921814E+02
 21
7.93107041E+01
  0
LINE
  8
0
 62
7
 10
2.63569552E+02
 20
9.11986724E+01
 11
2.73689587E+02
 21
8.10786384E+01
  0
LINE
  8
0
 62
7
 10
2.88900021E+02
 20
1.07750000E+02
 11
2.69389767E+02
 21
1.07750000E+02
  0
LINE
  8
0
 62
7
 10
2.47750088E+02
 20
1.48900002E+02
 11
2.47750088E+02
 21
1.29389687E+02
  0
LINE
  8
0
 62
7
 10
2.61801636E+02
 20
1.23569371E+02
 11
2.71921671E+02
 21
1.33689405E+02
  0
LINE
  8
0
 62
7
 10
2.63569510E+02
 20
1.21801561E+02
 11
2.73689578E+02
 21
1.31921627E+02
  0
LINE
  8
0
 62
7
 10
2.93500095E+02
 20
6.35000229E+01
 11
2.93500095E+02
 21
1.49499992E+02
  0
LINE
  8
0
  6
CENTER
 62
2
 10
2.81500088E+02
 20
5.67628784E+01
 11
2.81500088E+02
 21
8.69070358E+01
  0
LINE
  8
0
 62
7
 10
2.89900097E+02
 20
8.84987946E+01
 11
2.89900097E+02
 21
1.24501091E+02
  0
LINE
  8
0
 62
7
 10
2.03500042E+02
 20
6.00999756E+01
 11
2.89500057E+02
 21
6.01000290E+01
  0
LINE
  8
0
 62
7
 10
2.92900105E+02
 20
6.35000229E+01
 11
2.92900105E+02
 21
1.49499992E+02
  0
LINE
  8
0
 62
7
 10
2.03500042E+02
 20
1.52899971E+02
 11
2.89500011E+02
 21
1.52900032E+02
  0
LINE
  8
0
 62
7
 10
2.81500084E+02
 20
1.47273498E+02
 11
2.76500088E+02
 21
1.44386748E+02
  0
LINE
  8
0
 62
7
 10
2.76500088E+02
 20
1.44386757E+02
 11
2.76500088E+02
 21
1.38613258E+02
  0
LINE
  8
0
 62
7
 10
2.06500057E+02
 20
1.44386757E+02
 11
2.06500057E+02
 21
1.38613258E+02
  0
LINE
  8
0
 62
7
 10
2.11500061E+02
 20
1.35726495E+02
 11
2.06500065E+02
 21
1.38613244E+02
  0
LINE
  8
0
 62
7
 10
2.86500088E+02
 20
1.44386757E+02
 11
2.86500088E+02
 21
1.38613258E+02
  0
LINE
  8
0
 62
7
 10
2.76500088E+02
 20
7.43867722E+01
 11
2.76500088E+02
 21
6.86132660E+01
  0
LINE
  8
0
 62
7
 10
2.81500093E+02
 20
1.47273498E+02
 11
2.86500089E+02
 21
1.44386749E+02
  0
LINE
  8
0
 62
7
 10
2.81500090E+02
 20
7.72735110E+01
 11
2.86500087E+02
 21
7.43867617E+01
  0
LINE
  8
0
 62
7
 10
2.11500063E+02
 20
7.72735177E+01
 11
2.06500063E+02
 21
7.43867665E+01
  0
LINE
  8
0
 62
7
 10
2.11500069E+02
 20
6.57265113E+01
 11
2.06500060E+02
 21
6.86132682E+01
  0
LINE
  8
0
 62
7
 10
2.86500092E+02
 20
6.86132640E+01
 11
2.81500096E+02
 21
6.57265149E+01
  0
LINE
  8
0
 62
7
 10
2.86500088E+02
 20
7.43867722E+01
 11
2.86500088E+02
 21
6.86132660E+01
  0
LINE
  8
0
 62
7
 10
2.11500063E+02
 20
1.47273502E+02
 11
2.06500060E+02
 21
1.44386748E+02
  0
LINE
  8
0
 62
7
 10
2.03100094E+02
 20
8.84988861E+01
 11
2.03100094E+02
 21
1.24501183E+02
  0
LINE
  8
0
 62
7
 10
2.28498882E+02
 20
6.30999756E+01
 11
2.64501171E+02
 21
6.30999756E+01
  0
LINE
  8
0
 62
7
 10
1.99500057E+02
 20
6.35000000E+01
 11
1.99500057E+02
 21
1.49499977E+02
  0
LINE
  8
0
  6
CENTER
 62
2
 10
2.96055561E+02
 20
7.15000153E+01
 11
2.67634930E+02
 21
7.15000153E+01
  0
LINE
  8
0
 62
7
 10
2.03500042E+02
 20
5.94999924E+01
 11
2.89500057E+02
 21
5.95000305E+01
  0
LINE
  8
0
 62
7
 10
2.31198477E+02
 20
8.94306167E+01
 11
2.21078444E+02
 21
7.93105807E+01
  0
LINE
  8
0
 62
7
 10
2.29430688E+02
 20
9.11984051E+01
 11
2.19310655E+02
 21
8.10783691E+01
  0
LINE
  8
0
 62
7
 10
2.04100079E+02
 20
1.05249992E+02
 11
2.23610287E+02
 21
1.05249992E+02
  0
LINE
  8
0
 62
7
 10
2.45250057E+02
 20
6.41000061E+01
 11
2.45250057E+02
 21
8.36103134E+01
  0
LINE
  8
0
  6
CENTER
 62
2
 10
2.46500072E+02
 20
1.80091056E+02
 11
2.46500072E+02
 21
5.55240784E+01
  0
LINE
  8
0
  6
CENTER
 62
2
 10
2.11500057E+02
 20
1.55872688E+02
 11
2.11500057E+02
 21
1.26135765E+02
  0
LINE
  8
0
  6
CENTER
 62
2
 10
2.96055561E+02
 20
1.41500008E+02
 11
2.66809078E+02
 21
1.41500008E+02
  0
LINE
  8
0
 62
7
 10
2.29430719E+02
 20
1.21801657E+02
 11
2.19310650E+02
 21
1.31921721E+02
  0
LINE
  8
0
 62
7
 10
2.31198626E+02
 20
1.23569521E+02
 11
2.21078567E+02
 21
1.33689575E+02
  0
LINE
  8
0
 62
7
 10
2.45250057E+02
 20
1.48899956E+02
 11
2.45250057E+02
 21
1.29389732E+02
  0
LINE
  8
0
 62
7
 10
2.28498974E+02
 20
1.49899971E+02
 11
2.64501217E+02
 21
1.49899971E+02
  0
LINE
  8
0
 62
7
 10
2.03500042E+02
 20
1.53499977E+02
 11
2.89500011E+02
 21
1.53500008E+02
  0
LINE
  8
0
 62
7
 10
2.16500072E+02
 20
1.53499977E+02
 11
2.16500072E+02
 21
1.52899971E+02
  0
LINE
  8
0
 62
7
 10
2.76500072E+02
 20
1.53500008E+02
 11
2.76500072E+02
 21
1.52900032E+02
  0
LINE
  8
0
 62
7
 10
2.76500072E+02
 20
6.01000290E+01
 11
2.76500072E+02
 21
5.95000305E+01
  0
LINE
  8
0
 62
7
 10
2.16500072E+02
 20
6.00999756E+01
 11
2.16500072E+02
 21
5.94999924E+01
  0
LINE
  8
0
 62
7
 10
2.85500072E+02
 20
1.29365318E+02
 11
2.85500072E+02
 21
1.28999977E+02
  0
LINE
  8
0
 62
7
 10
2.69365414E+02
 20
1.45500053E+02
 11
2.69000118E+02
 21
1.45500053E+02
  0
LINE
  8
0
 62
7
 10
2.23634686E+02
 20
1.45499962E+02
 11
2.24000072E+02
 21
1.45499962E+02
  0
LINE
  8
0
 62
7
 10
2.07499981E+02
 20
1.29365334E+02
 11
2.07499981E+02
 21
1.29000069E+02
  0
LINE
  8
0
 62
7
 10
2.85500118E+02
 20
8.36346436E+01
 11
2.85500118E+02
 21
8.39999084E+01
  0
LINE
  8
0
 62
7
 10
2.07500072E+02
 20
8.36346664E+01
 11
2.07500072E+02
 21
8.40000000E+01
  0
LINE
  8
0
 62
7
 10
2.23634686E+02
 20
6.74999390E+01
 11
2.23999981E+02
 21
6.74999390E+01
  0
LINE
  8
0
 62
7
 10
2.69365368E+02
 20
6.75000305E+01
 11
2.69000072E+02
 21
6.75000305E+01
  0
LINE
  8
0
  6
CENTER
 62
2
 10
2.25309185E+02
 20
7.15000153E+01
 11
1.96512325E+02
 21
7.15000153E+01
  0
LINE
  8
0
  6
CENTER
 62
2
 10
2.25722179E+02
 20
1.41500008E+02
 11
1.96512325E+02
 21
1.41500008E+02
  0
LINE
  8
0
  6
CENTER
 62
2
 10
2.11500057E+02
 20
5.68976593E+01
 11
2.11500057E+02
 21
8.55789261E+01
  0
LINE
  8
0
  6
CENTER
 62
2
 10
1.94965267E+02
 20
1.06500000E+02
 11
2.96965504E+02
 21
1.06500000E+02
  0
LINE
  8
0
 62
7
 10
2.16500057E+02
 20
7.43867722E+01
 11
2.16500057E+02
 21
6.86132660E+01
  0
LINE
  8
0
 62
7
 10
2.11500060E+02
 20
7.72735229E+01
 11
2.16500070E+02
 21
7.43867660E+01
  0
LINE
  8
0
 62
7
 10
2.81500089E+02
 20
1.35726495E+02
 11
2.76500093E+02
 21
1.38613244E+02
  0
LINE
  8
0
  6
CENTER
 62
2
 10
2.57500134E+02
 20
1.40800041E+02
 11
2.57500134E+02
 21
1.55952629E+02
  0
LINE
  8
0
 62
7
 10
2.16500063E+02
 20
1.38613248E+02
 11
2.11500060E+02
 21
1.35726495E+02
  0
LINE
  8
0
 62
7
 10
2.16500057E+02
 20
1.44386757E+02
 11
2.16500057E+02
 21
1.38613258E+02
  0
LINE
  8
0
 62
7
 10
2.11500065E+02
 20
1.47273498E+02
 11
2.16500061E+02
 21
1.44386749E+02
  0
LINE
  8
0
 62
7
 10
2.59000111E+02
 20
1.62499977E+02
 11
2.59000111E+02
 21
1.73999992E+02
  0
LINE
  8
0
 62
7
 10
2.34000111E+02
 20
1.62499977E+02
 11
2.34000111E+02
 21
1.73999992E+02
  0
LINE
  8
0
 62
7
 10
2.35000095E+02
 20
1.74999977E+02
 11
2.58000126E+02
 21
1.74999977E+02
  0
LINE
  8
0
 62
7
 10
2.34000226E+02
 20
1.73999885E+02
 11
2.35000203E+02
 21
1.74999862E+02
  0
LINE
  8
0
 62
7
 10
2.58000098E+02
 20
1.75000121E+02
 11
2.59000077E+02
 21
1.74000142E+02
  0
LINE
  8
0
 62
7
 10
3.05000017E+02
 20
9.84999695E+01
 11
3.05000017E+02
 21
1.14499992E+02
  0
LINE
  8
0
 62
7
 10
3.02500084E+02
 20
1.14499954E+02
 11
3.05000084E+02
 21
1.14499954E+02
  0
LINE
  8
0
 62
7
 10
3.02500084E+02
 20
9.84999695E+01
 11
3.05000084E+02
 21
9.84999695E+01
  0
LINE
  8
0
 62
7
 10
3.05000084E+02
 20
1.12499947E+02
 11
3.11500147E+02
 21
1.12499947E+02
  0
LINE
  8
0
 62
7
 10
3.05000084E+02
 20
1.06499962E+02
 11
3.10807274E+02
 21
1.06499962E+02
  0
LINE
  8
0
 62
7
 10
3.05000084E+02
 20
1.00499977E+02
 11
3.11500147E+02
 21
1.00499977E+02
  0
LINE
  8
0
 62
7
 10
3.11500223E+02
 20
1.00499977E+02
 11
3.11500223E+02
 21
1.12499985E+02
  0
LINE
  8
0
 62
7
 10
3.13500154E+02
 20
1.03199982E+02
 11
3.13500154E+02
 21
1.09799942E+02
  0
LINE
  8
0
 62
7
 10
3.11500147E+02
 20
1.02499947E+02
 11
3.12800196E+02
 21
1.02499947E+02
  0
LINE
  8
0
 62
7
 10
3.11500147E+02
 20
1.10499939E+02
 11
3.12800196E+02
 21
1.10499939E+02
  0
LINE
  8
0
 62
2
 10
3.11500147E+02
 20
1.03199944E+02
 11
3.13500088E+02
 21
1.03199944E+02
  0
LINE
  8
0
 62
2
 10
3.11500147E+02
 20
1.09799942E+02
 11
3.13500088E+02
 21
1.09799942E+02
  0
LINE
  8
0
 62
7
 10
3.12800272E+02
 20
1.02499985E+02
 11
3.12800272E+02
 21
1.10499939E+02
  0
LINE
  8
0
 62
7
 10
3.12800073E+02
 20
1.02499927E+02
 11
3.13500118E+02
 21
1.03199972E+02
  0
LINE
  8
0
 62
7
 10
3.13499795E+02
 20
1.09799372E+02
 11
3.12799750E+02
 21
1.10499417E+02
  0
LINE
  8
0
 62
7
 10
2.97500084E+02
 20
5.04999771E+01
 11
1.95500088E+02
 21
5.04999771E+01
  0
LINE
  8
0
 62
7
 10
3.02500093E+02
 20
1.57499977E+02
 11
3.02500093E+02
 21
5.54999771E+01
  0
LINE
  8
0
 62
7
 10
1.88000057E+02
 20
9.84999695E+01
 11
1.88000057E+02
 21
1.14499992E+02
  0
LINE
  8
0
 62
7
 10
1.90500088E+02
 20
1.14499954E+02
 11
1.88000149E+02
 21
1.14499954E+02
  0
LINE
  8
0
 62
7
 10
1.90500088E+02
 20
9.84999695E+01
 11
1.88000149E+02
 21
9.84999695E+01
  0
LINE
  8
0
 62
7
 10
1.79500072E+02
 20
1.03199982E+02
 11
1.79500072E+02
 21
1.09799942E+02
  0
LINE
  8
0
 62
7
 10
1.81500042E+02
 20
1.00499977E+02
 11
1.81500042E+02
 21
1.12499985E+02
  0
LINE
  8
0
 62
7
 10
1.81500042E+02
 20
1.02499947E+02
 11
1.80200222E+02
 21
1.02499947E+02
  0
LINE
  8
0
 62
7
 10
1.81500042E+02
 20
1.10499939E+02
 11
1.80200222E+02
 21
1.10499939E+02
  0
LINE
  8
0
 62
2
 10
1.81500042E+02
 20
1.03199944E+02
 11
1.79500149E+02
 21
1.03199944E+02
  0
LINE
  8
0
 62
2
 10
1.81500042E+02
 20
1.09799942E+02
 11
1.79500149E+02
 21
1.09799942E+02
  0
LINE
  8
0
 62
7
 10
1.80200146E+02
 20
1.02499985E+02
 11
1.80200146E+02
 21
1.10499939E+02
  0
LINE
  8
0
 62
7
 10
1.80199636E+02
 20
1.02499418E+02
 11
1.79499693E+02
 21
1.03199360E+02
  0
LINE
  8
0
 62
7
 10
1.79500233E+02
 20
1.09800068E+02
 11
1.80200154E+02
 21
1.10499989E+02
  0
LINE
  8
0
 62
7
 10
1.88000149E+02
 20
1.00499977E+02
 11
1.81500149E+02
 21
1.00499977E+02
  0
LINE
  8
0
 62
7
 10
1.88000149E+02
 20
1.06499962E+02
 11
1.82192898E+02
 21
1.06499962E+02
  0
LINE
  8
0
 62
7
 10
1.88000149E+02
 20
1.12499947E+02
 11
1.81500149E+02
 21
1.12499947E+02
  0
LINE
  8
0
 62
7
 10
1.90500134E+02
 20
1.57499977E+02
 11
1.90500134E+02
 21
5.54999771E+01
  0
LINE
  8
0
 62
7
 10
2.97500084E+02
 20
1.62499977E+02
 11
1.95500088E+02
 21
1.62499977E+02
  0
LINE
  8
0
 62
7
 10
2.34000111E+02
 20
1.73999992E+02
 11
2.59000111E+02
 21
1.73999992E+02
  0
CIRCLE
  8
0
 62
7
 10
2.11500057E+02
 20
7.15000153E+01
 40
4.18000031E+00
  0
CIRCLE
  8
0
 62
2
 10
2.11500057E+02
 20
7.15000153E+01
 40
5.00000000E+00
  0
CIRCLE
  8
0
 62
2
 10
2.81500088E+02
 20
7.15000153E+01
 40
5.00000000E+00
  0
CIRCLE
  8
0
 62
7
 10
2.81500088E+02
 20
7.15000153E+01
 40
4.18000031E+00
  0
CIRCLE
  8
0
 62
7
 10
2.81500088E+02
 20
1.41500008E+02
 40
4.18000031E+00
  0
CIRCLE
  8
0
 62
7
 10
2.11500057E+02
 20
1.41500008E+02
 40
4.18000031E+00
  0
CIRCLE
  8
0
 62
7
 10
2.81500088E+02
 20
1.41499977E+02
 40
8.69999981E+00
  0
CIRCLE
  8
0
 62
7
 10
2.81500088E+02
 20
7.14999924E+01
 40
8.69999981E+00
  0
ARC
  8
0
 62
7
 10
2.71214596E+02
 20
1.34396553E+02
 40
1.00000000E+00
 50
3.15000047E+02
 51
3.46303671E+01
  0
ARC
  8
0
 62
7
 10
2.74396603E+02
 20
1.31214516E+02
 40
1.00000000E+00
 50
5.53696217E+01
 51
1.35000014E+02
  0
ARC
  8
0
 62
7
 10
2.48750072E+02
 20
1.48900002E+02
 40
1.00000000E+00
 50
9.00000025E+01
 51
1.80000046E+02
  0
ARC
  8
0
 62
7
 10
2.81500088E+02
 20
1.41499977E+02
 40
1.15000000E+01
 50
1.66113111E+02
 51
2.83886595E+02
  0
ARC
  8
0
 62
7
 10
2.88900021E+02
 20
1.08750000E+02
 40
1.00000000E+00
 50
2.70000052E+02
 51
3.59721781E-05
  0
ARC
  8
0
 62
7
 10
2.74396603E+02
 20
8.17854767E+01
 40
1.00000000E+00
 50
2.25000027E+02
 51
3.04630351E+02
  0
ARC
  8
0
 62
7
 10
2.71214596E+02
 20
7.86034698E+01
 40
1.00000000E+00
 50
3.25369626E+02
 51
4.50000149E+01
  0
ARC
  8
0
 62
7
 10
2.89500057E+02
 20
1.49499992E+02
 40
3.40000033E+00
 50
2.23117997E-05
 51
8.99999750E+01
  0
ARC
  8
0
 62
7
 10
2.48750072E+02
 20
6.41000366E+01
 40
1.00000000E+00
 50
1.80000022E+02
 51
2.70000011E+02
  0
ARC
  8
0
 62
7
 10
2.88900112E+02
 20
1.04250008E+02
 40
1.00000000E+00
 50
8.65142224E-06
 51
9.00000437E+01
  0
ARC
  8
0
 62
7
 10
2.89500057E+02
 20
6.35000000E+01
 40
3.40000033E+00
 50
2.70000011E+02
 51
3.59999964E+02
  0
ARC
  8
0
 62
7
 10
2.81500088E+02
 20
7.14999924E+01
 40
1.15000000E+01
 50
7.61130875E+01
 51
1.93886340E+02
  0
ARC
  8
0
 62
7
 10
2.89500057E+02
 20
1.49499992E+02
 40
4.00000000E+00
 50
2.23117997E-05
 51
8.99999750E+01
  0
CIRCLE
  8
0
 62
7
 10
2.81500088E+02
 20
1.41499977E+02
 40
8.00000000E+00
  0
CIRCLE
  8
0
 62
2
 10
2.11500057E+02
 20
1.41500008E+02
 40
5.00000000E+00
  0
CIRCLE
  8
0
 62
7
 10
2.81500088E+02
 20
7.14999924E+01
 40
8.00000000E+00
  0
ARC
  8
0
 62
7
 10
2.89500057E+02
 20
6.35000000E+01
 40
4.00000000E+00
 50
2.70000011E+02
 51
3.59999964E+02
  0
ARC
  8
0
 62
7
 10
2.69000118E+02
 20
1.49000008E+02
 40
3.50000024E+00
 50
1.81273033E+02
 51
2.69999984E+02
  0
ARC
  8
0
 62
7
 10
2.89000134E+02
 20
1.28999977E+02
 40
3.50000024E+00
 50
1.79999500E+02
 51
2.68725460E+02
  0
ARC
  8
0
 62
7
 10
2.88900021E+02
 20
1.24501091E+02
 40
1.00000000E+00
 50
3.59721781E-05
 51
8.87252023E+01
  0
ARC
  8
0
 62
7
 10
2.64501217E+02
 20
1.48900032E+02
 40
1.00000000E+00
 50
1.27300564E+00
 51
9.00000162E+01
  0
ARC
  8
0
 62
7
 10
2.89000088E+02
 20
8.39999084E+01
 40
3.50000024E+00
 50
9.12730339E+01
 51
1.80000005E+02
  0
ARC
  8
0
 62
7
 10
2.69000072E+02
 20
6.39999390E+01
 40
3.50000024E+00
 50
9.00000162E+01
 51
1.78725478E+02
  0
ARC
  8
0
 62
7
 10
2.88900112E+02
 20
8.84987946E+01
 40
1.00000000E+00
 50
2.71273049E+02
 51
1.86693353E-05
  0
ARC
  8
0
 62
7
 10
2.64501171E+02
 20
6.41000366E+01
 40
1.00000000E+00
 50
2.69999984E+02
 51
3.58725246E+02
  0
ARC
  8
0
 62
7
 10
2.61094540E+02
 20
1.24276497E+02
 40
1.00000000E+00
 50
2.30614484E+02
 51
3.15000026E+02
  0
ARC
  8
0
 62
7
 10
2.64276546E+02
 20
1.21094475E+02
 40
1.00000000E+00
 50
1.35000014E+02
 51
2.19386168E+02
  0
ARC
  8
0
 62
7
 10
2.48750072E+02
 20
1.29389687E+02
 40
1.00000000E+00
 50
1.80000036E+02
 51
2.64386169E+02
  0
ARC
  8
0
 62
7
 10
2.69389767E+02
 20
1.08750000E+02
 40
1.00000000E+00
 50
1.85613878E+02
 51
2.70000038E+02
  0
ARC
  8
0
 62
7
 10
2.64276546E+02
 20
9.19055328E+01
 40
1.00000000E+00
 50
1.40614511E+02
 51
2.25000037E+02
  0
ARC
  8
0
 62
7
 10
2.61094540E+02
 20
8.87235107E+01
 40
1.00000000E+00
 50
4.50000149E+01
 51
1.29386172E+02
  0
ARC
  8
0
 62
7
 10
2.69389721E+02
 20
1.04250008E+02
 40
1.00000000E+00
 50
9.00000437E+01
 51
1.74386177E+02
  0
ARC
  8
0
 62
7
 10
2.48750072E+02
 20
8.36102600E+01
 40
1.00000000E+00
 50
9.56138854E+01
 51
1.80000032E+02
  0
CIRCLE
  8
0
 62
7
 10
2.11500057E+02
 20
7.14999924E+01
 40
8.69999981E+00
  0
ARC
  8
0
 62
7
 10
2.21785549E+02
 20
7.86034546E+01
 40
1.00000000E+00
 50
1.35000041E+02
 51
2.14630376E+02
  0
ARC
  8
0
 62
7
 10
2.18603542E+02
 20
8.17854767E+01
 40
1.00000000E+00
 50
2.35369606E+02
 51
3.14999999E+02
  0
ARC
  8
0
 62
7
 10
2.04100079E+02
 20
1.04250000E+02
 40
1.00000000E+00
 50
9.00000300E+01
 51
1.80000019E+02
  0
ARC
  8
0
 62
7
 10
2.44250072E+02
 20
6.40999908E+01
 40
1.00000000E+00
 50
2.69999998E+02
 51
4.96325564E-05
  0
ARC
  8
0
 62
7
 10
2.03500042E+02
 20
6.35000000E+01
 40
3.40000033E+00
 50
1.80000008E+02
 51
2.69999984E+02
  0
ARC
  8
0
 62
7
 10
2.11500057E+02
 20
7.14999924E+01
 40
1.15000000E+01
 50
3.46113223E+02
 51
1.03886433E+02
  0
ARC
  8
0
 62
7
 10
2.03500042E+02
 20
6.35000000E+01
 40
4.00000000E+00
 50
1.80000008E+02
 51
2.69999984E+02
  0
CIRCLE
  8
0
 62
7
 10
2.11500057E+02
 20
7.14999924E+01
 40
8.00000000E+00
  0
CIRCLE
  8
0
 62
2
 10
2.81500088E+02
 20
1.41500008E+02
 40
5.00000000E+00
  0
ARC
  8
0
 62
7
 10
2.04000011E+02
 20
8.40000000E+01
 40
3.50000024E+00
 50
3.59721781E-05
 51
8.87254481E+01
  0
ARC
  8
0
 62
7
 10
2.24000027E+02
 20
6.39999924E+01
 40
3.50000024E+00
 50
1.27300564E+00
 51
9.00000162E+01
  0
ARC
  8
0
 62
7
 10
2.04100079E+02
 20
8.84988861E+01
 40
1.00000000E+00
 50
1.79999991E+02
 51
2.68725214E+02
  0
ARC
  8
0
 62
7
 10
2.31905605E+02
 20
8.87235107E+01
 40
1.00000000E+00
 50
5.06145124E+01
 51
1.35000041E+02
  0
ARC
  8
0
 62
7
 10
2.28723598E+02
 20
9.19055176E+01
 40
1.00000000E+00
 50
3.15000019E+02
 51
3.93861731E+01
  0
ARC
  8
0
 62
7
 10
2.44250072E+02
 20
8.36103134E+01
 40
1.00000000E+00
 50
4.96325564E-05
 51
8.43861746E+01
  0
ARC
  8
0
 62
7
 10
2.23610287E+02
 20
1.04250000E+02
 40
1.00000000E+00
 50
5.61389128E+00
 51
9.00000300E+01
  0
ARC
  8
0
 62
7
 10
2.28498928E+02
 20
6.40999680E+01
 40
1.00000000E+00
 50
1.81273033E+02
 51
2.69999984E+02
  0
CIRCLE
  8
0
 62
7
 10
2.11500057E+02
 20
1.41499977E+02
 40
8.69999981E+00
  0
ARC
  8
0
 62
7
 10
2.18603542E+02
 20
1.31214516E+02
 40
1.00000000E+00
 50
4.50000423E+01
 51
1.24630380E+02
  0
ARC
  8
0
 62
7
 10
2.21785549E+02
 20
1.34396523E+02
 40
1.00000000E+00
 50
1.45369621E+02
 51
2.25000010E+02
  0
ARC
  8
0
 62
7
 10
2.44250072E+02
 20
1.48899956E+02
 40
1.00000000E+00
 50
3.59721781E-05
 51
9.00000162E+01
  0
ARC
  8
0
 62
7
 10
2.04100033E+02
 20
1.08749985E+02
 40
1.00000000E+00
 50
1.79999991E+02
 51
2.70000028E+02
  0
ARC
  8
0
 62
7
 10
2.03500042E+02
 20
1.49499977E+02
 40
3.40000033E+00
 50
9.00000162E+01
 51
1.80000005E+02
  0
ARC
  8
0
 62
7
 10
2.11500057E+02
 20
1.41499977E+02
 40
1.15000000E+01
 50
2.56113130E+02
 51
1.38865754E+01
  0
ARC
  8
0
 62
7
 10
2.03500042E+02
 20
1.49499977E+02
 40
4.00000000E+00
 50
9.00000162E+01
 51
1.80000005E+02
  0
CIRCLE
  8
0
 62
7
 10
2.11500057E+02
 20
1.41499977E+02
 40
8.00000000E+00
  0
ARC
  8
0
 62
7
 10
2.04000057E+02
 20
1.29000069E+02
 40
3.50000024E+00
 50
2.71273049E+02
 51
1.86693353E-05
  0
ARC
  8
0
 62
7
 10
2.24000072E+02
 20
1.49000069E+02
 40
3.50000024E+00
 50
2.69999984E+02
 51
3.58725492E+02
  0
ARC
  8
0
 62
7
 10
2.04100033E+02
 20
1.24501183E+02
 40
1.00000000E+00
 50
9.12730270E+01
 51
1.80000005E+02
  0
ARC
  8
0
 62
7
 10
2.28498974E+02
 20
1.48899956E+02
 40
1.00000000E+00
 50
9.00000162E+01
 51
1.78725219E+02
  0
ARC
  8
0
 62
7
 10
2.28723598E+02
 20
1.21094460E+02
 40
1.00000000E+00
 50
3.20614517E+02
 51
4.50000423E+01
  0
ARC
  8
0
 62
7
 10
2.31905605E+02
 20
1.24276497E+02
 40
1.00000000E+00
 50
2.25000000E+02
 51
3.09386157E+02
  0
ARC
  8
0
 62
7
 10
2.23610378E+02
 20
1.08749985E+02
 40
1.00000000E+00
 50
2.70000038E+02
 51
3.54386163E+02
  0
ARC
  8
0
 62
7
 10
2.44250072E+02
 20
1.29389732E+02
 40
1.00000000E+00
 50
2.75613894E+02
 51
3.59721781E-05
  0
CIRCLE
  8
0
 62
7
 10
2.46500072E+02
 20
1.06500076E+02
 40
2.20000000E+01
  0
ARC
  8
0
 62
7
 10
2.08500011E+02
 20
1.29365334E+02
 40
1.00000000E+00
 50
7.61138592E+01
 51
1.80000005E+02
  0
ARC
  8
0
 62
7
 10
2.23634731E+02
 20
1.44499977E+02
 40
1.00000000E+00
 50
9.00000162E+01
 51
1.93885698E+02
  0
ARC
  8
0
 62
7
 10
2.69365414E+02
 20
1.44500069E+02
 40
1.00000000E+00
 50
3.46112226E+02
 51
9.00000162E+01
  0
ARC
  8
0
 62
7
 10
2.84500088E+02
 20
1.29365318E+02
 40
1.00000000E+00
 50
3.59721781E-05
 51
1.03886119E+02
  0
ARC
  8
0
 62
7
 10
2.84500134E+02
 20
8.36346436E+01
 40
1.00000000E+00
 50
2.56113881E+02
 51
1.86693353E-05
  0
ARC
  8
0
 62
7
 10
2.69365368E+02
 20
6.85000305E+01
 40
1.00000000E+00
 50
2.69999998E+02
 51
1.38869442E+01
  0
ARC
  8
0
 62
7
 10
2.23634731E+02
 20
6.84999390E+01
 40
1.00000000E+00
 50
1.66113028E+02
 51
2.69999974E+02
  0
ARC
  8
0
 62
7
 10
2.08500057E+02
 20
8.36346664E+01
 40
1.00000000E+00
 50
1.79999991E+02
 51
2.83885939E+02
  0
ARC
  8
0
 62
7
 10
3.04659250E+02
 20
1.03499969E+02
 40
6.84088802E+00
 50
3.33989274E+02
 51
2.60106444E+01
  0
ARC
  8
0
 62
7
 10
3.04659250E+02
 20
1.09499954E+02
 40
6.84084702E+00
 50
3.33989137E+02
 51
2.60107947E+01
  0
ARC
  8
0
 62
7
 10
1.95500134E+02
 20
5.54999771E+01
 40
5.00000000E+00
 50
1.79999964E+02
 51
2.69999946E+02
  0
ARC
  8
0
 62
7
 10
1.88341015E+02
 20
1.03499969E+02
 40
6.84088802E+00
 50
1.53989320E+02
 51
2.06010690E+02
  0
ARC
  8
0
 62
7
 10
1.88341015E+02
 20
1.09499954E+02
 40
6.84084702E+00
 50
1.53989169E+02
 51
2.06010827E+02
  0
ARC
  8
0
 62
7
 10
2.97500095E+02
 20
1.57499977E+02
 40
5.00000000E+00
 50
0.00000000E+00
 51
8.99999818E+01
  0
ARC
  8
0
 62
7
 10
1.95500134E+02
 20
1.57499977E+02
 40
5.00000000E+00
 50
8.99999818E+01
 51
1.79999964E+02
  0
ARC
  8
0
 62
7
 10
2.97500095E+02
 20
5.54999771E+01
 40
5.00000000E+00
 50
2.69999963E+02
 51
0.00000000E+00
  0
LINE
  8
0
 62
4
 10
1.99500072E+02
 20
1.35316799E+02
 11
1.99411034E+02
 21
1.35537177E+02
  0
LINE
  8
0
 62
4
 10
1.99411034E+02
 20
1.35537177E+02
 11
1.99500072E+02
 21
1.35573151E+02
  0
LINE
  8
0
 62
4
 10
2.24426517E+02
 20
1.62361376E+02
 11
2.14876523E+02
 21
1.58502929E+02
  0
LINE
  8
0
  6
CENTER
 62
6
 10
2.06420265E+02
 20
1.50232972E+02
 11
2.27212418E+02
 21
1.58633547E+02
  0
LINE
  8
0
  6
CENTER
 62
6
 10
2.16424956E+02
 20
1.50500258E+02
 11
2.28523541E+02
 21
1.55388404E+02
  0
LINE
  8
0
 62
4
 10
2.08386236E+02
 20
1.55880682E+02
 11
2.14876523E+02
 21
1.58502929E+02
  0
LINE
  8
0
 62
4
 10
2.16897840E+02
 20
1.53499995E+02
 11
2.14876523E+02
 21
1.58502929E+02
  0
LINE
  8
0
 62
4
 10
2.07120405E+02
 20
1.53499999E+02
 11
2.08386236E+02
 21
1.55880682E+02
  0
LINE
  8
0
 62
4
 10
2.24688742E+02
 20
1.61712348E+02
 11
2.25615926E+02
 21
1.62086954E+02
  0
ARC
  8
0
 62
4
 10
2.28986948E+02
 20
1.56762020E+02
 40
1.00000000E+00
 50
3.40723662E+02
 51
9.17248994E+00
  0
ARC
  8
0
 62
4
 10
2.27188836E+02
 20
1.61212503E+02
 40
1.00000000E+00
 50
3.48275100E+01
 51
1.12000000E+02
  0
ARC
  8
0
 62
4
 10
2.18315177E+02
 20
1.55038828E+02
 40
1.18100000E+01
 50
9.17248994E+00
 51
3.48275100E+01
  0
LINE
  8
0
 62
4
 10
2.25765768E+02
 20
1.61716081E+02
 11
2.26813486E+02
 21
1.62139386E+02
  0
LINE
  8
0
 62
4
 10
2.26795936E+02
 20
1.59166325E+02
 11
2.25615926E+02
 21
1.62086954E+02
  0
LINE
  8
0
 62
4
 10
2.28416592E+02
 20
1.53499991E+02
 11
2.26221082E+02
 21
1.58934069E+02
  0
LINE
  8
0
 62
4
 10
2.25924944E+02
 20
1.58652641E+02
 11
2.26277273E+02
 21
1.58794992E+02
  0
LINE
  8
0
 62
4
 10
2.26221082E+02
 20
1.58934069E+02
 11
2.27852926E+02
 21
1.59593377E+02
  0
ARC
  8
0
 62
4
 10
2.19150236E+02
 20
1.51609688E+02
 40
1.18100000E+01
 50
2.20000000E+01
 51
4.25326990E+01
  0
ARC
  8
0
 62
4
 10
2.19156033E+02
 20
1.51595339E+02
 40
1.18100000E+01
 50
9.28087917E+00
 51
2.20000000E+01
  0
LINE
  8
0
 62
4
 10
2.28006749E+02
 20
1.53499991E+02
 11
2.24426517E+02
 21
1.62361376E+02
  0
LINE
  8
0
 62
4
 10
2.93589141E+02
 20
1.35537177E+02
 11
2.93500103E+02
 21
1.35573151E+02
  0
LINE
  8
0
  6
CENTER
 62
6
 10
2.76575220E+02
 20
1.50500258E+02
 11
2.64476634E+02
 21
1.55388404E+02
  0
LINE
  8
0
  6
CENTER
 62
6
 10
2.86579910E+02
 20
1.50232972E+02
 11
2.65787757E+02
 21
1.58633547E+02
  0
LINE
  8
0
 62
4
 10
2.68573658E+02
 20
1.62361376E+02
 11
2.78123652E+02
 21
1.58502929E+02
  0
LINE
  8
0
 62
4
 10
2.84613939E+02
 20
1.55880682E+02
 11
2.78123652E+02
 21
1.58502929E+02
  0
LINE
  8
0
 62
4
 10
2.76102327E+02
 20
1.53499974E+02
 11
2.78123652E+02
 21
1.58502929E+02
  0
LINE
  8
0
 62
4
 10
2.85879786E+02
 20
1.53499971E+02
 11
2.84613939E+02
 21
1.55880682E+02
  0
LINE
  8
0
 62
4
 10
2.65464424E+02
 20
1.54665750E+02
 11
2.64537240E+02
 21
1.55040357E+02
  0
LINE
  8
0
 62
4
 10
2.68311434E+02
 20
1.61712348E+02
 11
2.67384250E+02
 21
1.62086954E+02
  0
ARC
  8
0
 62
4
 10
2.64013227E+02
 20
1.56762020E+02
 40
1.00000000E+00
 50
1.70827510E+02
 51
2.48000000E+02
  0
ARC
  8
0
 62
4
 10
2.65811339E+02
 20
1.61212503E+02
 40
1.00000000E+00
 50
6.79999999E+01
 51
1.45172490E+02
  0
LINE
  8
0
 62
4
 10
2.64687082E+02
 20
1.55411231E+02
 11
2.63639365E+02
 21
1.55834536E+02
  0
LINE
  8
0
 62
4
 10
2.67234407E+02
 20
1.61716081E+02
 11
2.66186689E+02
 21
1.62139386E+02
  0
LINE
  8
0
 62
4
 10
2.64537240E+02
 20
1.55040357E+02
 11
2.67384250E+02
 21
1.62086954E+02
  0
ARC
  8
0
 62
4
 10
2.74684999E+02
 20
1.55038828E+02
 40
1.18100000E+01
 50
1.45172490E+02
 51
1.70827510E+02
  0
LINE
  8
0
 62
4
 10
2.64583578E+02
 20
1.53499978E+02
 11
2.65112094E+02
 21
1.54808101E+02
  0
ARC
  8
0
 62
4
 10
2.73849940E+02
 20
1.51609688E+02
 40
1.18100000E+01
 50
1.55900933E+02
 51
1.58000000E+02
  0
ARC
  8
0
 62
4
 10
2.73844142E+02
 20
1.51595339E+02
 40
1.18100000E+01
 50
1.58000000E+02
 51
1.70719176E+02
  0
LINE
  8
0
 62
4
 10
2.64993421E+02
 20
1.53499978E+02
 11
2.68573658E+02
 21
1.62361376E+02
  0
LINE
  8
0
 62
4
 10
2.93500103E+02
 20
1.35316799E+02
 11
2.93589141E+02
 21
1.35537177E+02
  0
LINE
  8
0
  6
PHANTOM
 10
-4.05000000E+01
 20
3.72114332E+02
 11
-4.05000000E+01
 21
2.08048812E+02
  0
LINE
  8
0
  6
CENTER
 62
2
 10
-2.20000080E+02
 20
2.54978241E+02
 11
-2.20000080E+02
 21
2.36412323E+02
  0
LINE
  8
0
  6
CENTER
 62
2
 10
-4.68268848E+02
 20
3.06500000E+02
 11
1.07182690E+02
 21
3.06500000E+02
  0
LINE
  8
0
  6
CENTER
 62
2
 10
-3.35999928E+02
 20
2.54978241E+02
 11
-3.35999928E+02
 21
2.36412323E+02
  0
LINE
  8
0
 62
7
 10
-1.34508691E+02
 20
3.52880422E+02
 11
-9.89999701E+01
 21
3.53500229E+02
  0
LINE
  8
0
 62
7
 10
-9.89999886E+01
 20
3.53500000E+02
 11
-9.89999886E+01
 21
2.59500031E+02
  0
LINE
  8
0
 62
7
 10
-1.34508749E+02
 20
2.60119927E+02
 11
-9.90000280E+01
 21
2.59500120E+02
  0
LINE
  8
0
 62
7
 10
-1.30999989E+02
 20
3.34500031E+02
 11
-1.30999989E+02
 21
2.78500000E+02
  0
LINE
  8
0
 62
7
 10
-1.28999989E+02
 20
3.36499969E+02
 11
-9.89999886E+01
 21
3.36499969E+02
  0
LINE
  8
0
 62
7
 10
-1.28999989E+02
 20
2.76499969E+02
 11
-9.89999886E+01
 21
2.76499969E+02
  0
LINE
  8
0
 62
7
 10
-4.09499989E+02
 20
3.25999969E+02
 11
-4.04999989E+02
 21
3.25999969E+02
  0
LINE
  8
0
 62
7
 10
-4.04999989E+02
 20
3.27063232E+02
 11
-4.04999989E+02
 21
2.85971771E+02
  0
LINE
  8
0
 62
7
 10
-4.09999989E+02
 20
3.25500031E+02
 11
-4.09999989E+02
 21
2.87500000E+02
  0
LINE
  8
0
 62
7
 10
-4.09499989E+02
 20
2.86999969E+02
 11
-4.04999989E+02
 21
2.86999969E+02
  0
LINE
  8
0
 62
7
 10
-3.90499989E+02
 20
2.84499939E+02
 11
-3.88999989E+02
 21
2.84499939E+02
  0
LINE
  8
0
 62
7
 10
-4.04517488E+02
 20
2.85472221E+02
 11
-3.91000031E+02
 21
2.85000181E+02
  0
LINE
  8
0
 62
7
 10
-3.90499989E+02
 20
3.28499969E+02
 11
-3.88999989E+02
 21
3.28499969E+02
  0
LINE
  8
0
 62
7
 10
-4.04517498E+02
 20
3.27528099E+02
 11
-3.91000041E+02
 21
3.28000139E+02
  0
LINE
  8
0
 62
7
 10
-3.90999989E+02
 20
2.85000031E+02
 11
-3.90999989E+02
 21
3.28000000E+02
  0
LINE
  8
0
 62
7
 10
-1.04267867E+02
 20
2.90499860E+02
 11
-1.05133907E+02
 21
2.91999892E+02
  0
LINE
  8
0
 62
7
 10
-1.05133961E+02
 20
2.91999939E+02
 11
-1.06866047E+02
 21
2.91999939E+02
  0
LINE
  8
0
 62
7
 10
-1.07731786E+02
 20
2.90499692E+02
 11
-1.06865770E+02
 21
2.91999685E+02
  0
LINE
  8
0
  6
CENTER
 62
2
 10
-1.05999989E+02
 20
2.98047729E+02
 11
-1.05999989E+02
 21
2.83434326E+02
  0
LINE
  8
0
 62
7
 10
4.75086363E+01
 20
2.60119628E+02
 11
1.19998999E+01
 21
2.59499826E+02
  0
LINE
  8
0
 62
7
 10
4.79999962E+01
 20
2.60619690E+02
 11
4.79999962E+01
 21
3.52380249E+02
  0
LINE
  8
0
 62
7
 10
1.20000114E+01
 20
2.59499939E+02
 11
1.20000114E+01
 21
3.53499939E+02
  0
LINE
  8
0
 62
7
 10
4.75087021E+01
 20
3.52880152E+02
 11
1.19999962E+01
 21
3.53499965E+02
  0
LINE
  8
0
  6
CENTER
 62
2
 10
4.18009148E+01
 20
3.17500000E+02
 11
1.37884026E+01
 21
3.17500000E+02
  0
LINE
  8
0
  6
CENTER
 62
2
 10
2.79999809E+01
 20
3.04242950E+02
 11
2.79999809E+01
 21
3.32501221E+02
  0
LINE
  8
0
 62
7
 10
4.39999962E+01
 20
2.78499939E+02
 11
4.39999962E+01
 21
3.34499939E+02
  0
LINE
  8
0
 62
7
 10
4.19999504E+01
 20
2.76499969E+02
 11
1.19999504E+01
 21
2.76499969E+02
  0
LINE
  8
0
 62
7
 10
4.19999504E+01
 20
3.36499969E+02
 11
1.19999504E+01
 21
3.36499969E+02
  0
LINE
  8
0
 62
7
 10
4.94999504E+01
 20
3.28499969E+02
 11
4.79999504E+01
 21
3.28499969E+02
  0
LINE
  8
0
 62
7
 10
4.94999504E+01
 20
2.84499969E+02
 11
4.79999504E+01
 21
2.84499969E+02
  0
LINE
  8
0
 62
7
 10
4.99999962E+01
 20
3.27999939E+02
 11
4.99999962E+01
 21
2.84999939E+02
  0
LINE
  8
0
  6
CENTER
 62
2
 10
-1.14194569E+02
 20
2.90499939E+02
 11
-9.79255562E+01
 21
2.90499939E+02
  0
LINE
  8
0
  6
CENTER
 62
2
 10
-1.01297657E+02
 20
3.17499939E+02
 11
-1.29094929E+02
 21
3.17499939E+02
  0
LINE
  8
0
  6
CENTER
 62
2
 10
-1.14999989E+02
 20
3.03394135E+02
 11
-1.14999989E+02
 21
3.31323242E+02
  0
LINE
  8
0
 62
7
 10
-1.04267750E+02
 20
2.90499832E+02
 11
-1.05133789E+02
 21
2.88999799E+02
  0
LINE
  8
0
 62
7
 10
-1.05133961E+02
 20
2.88999908E+02
 11
-1.06866047E+02
 21
2.88999908E+02
  0
LINE
  8
0
 62
7
 10
-1.06865963E+02
 20
2.88999893E+02
 11
-1.07732032E+02
 21
2.90499979E+02
  0
LINE
  8
0
 62
7
 10
-4.23999989E+02
 20
2.96000000E+02
 11
-4.14000050E+02
 21
2.96000000E+02
  0
LINE
  8
0
 62
7
 10
-4.14000093E+02
 20
2.96000011E+02
 11
-4.12000047E+02
 21
2.93999966E+02
  0
LINE
  8
0
 62
7
 10
-4.14000129E+02
 20
3.17000091E+02
 11
-4.12000181E+02
 21
3.19000040E+02
  0
LINE
  8
0
 62
7
 10
1.20000114E+01
 20
2.62999969E+02
 11
-1.10000114E+01
 21
2.62999969E+02
  0
LINE
  8
0
  6
CENTER
 62
2
 10
5.07791710E+01
 20
2.71499969E+02
 11
-1.37524494E+02
 21
2.71499969E+02
  0
LINE
  8
0
 62
7
 10
1.20000114E+01
 20
2.75999969E+02
 11
3.99998856E+00
 21
2.75999969E+02
  0
LINE
  8
0
 62
7
 10
1.20000114E+01
 20
2.66999969E+02
 11
-1.10000114E+01
 21
2.66999969E+02
  0
LINE
  8
0
  6
CENTER
 62
2
 10
1.89999809E+01
 20
2.98047760E+02
 11
1.89999809E+01
 21
2.83434387E+02
  0
LINE
  8
0
  6
CENTER
 62
2
 10
1.08054008E+01
 20
2.90499969E+02
 11
2.70744133E+01
 21
2.90499969E+02
  0
LINE
  8
0
 62
7
 10
-4.12000172E+02
 20
3.19000000E+02
 11
-4.09999989E+02
 21
3.19000000E+02
  0
LINE
  8
0
 62
7
 10
-4.11999989E+02
 20
2.93999939E+02
 11
-4.10000050E+02
 21
2.93999939E+02
  0
LINE
  8
0
 62
7
 10
-4.20999989E+02
 20
3.17000000E+02
 11
-4.20999989E+02
 21
2.96000000E+02
  0
LINE
  8
0
 62
7
 10
-4.23999989E+02
 20
3.17000000E+02
 11
-4.14000172E+02
 21
3.17000000E+02
  0
LINE
  8
0
 62
7
 10
2.07321095E+01
 20
2.90499833E+02
 11
1.98660856E+01
 21
2.91999839E+02
  0
LINE
  8
0
 62
7
 10
1.98660088E+01
 20
2.91999969E+02
 11
1.81339226E+01
 21
2.91999969E+02
  0
LINE
  8
0
 62
7
 10
1.72681991E+01
 20
2.90499749E+02
 11
1.81342154E+01
 21
2.91999742E+02
  0
LINE
  8
0
 62
7
 10
1.81339617E+01
 20
2.88999941E+02
 11
1.72679073E+01
 21
2.90500001E+02
  0
LINE
  8
0
 62
7
 10
1.98660088E+01
 20
2.88999969E+02
 11
1.81339226E+01
 21
2.88999969E+02
  0
LINE
  8
0
 62
7
 10
2.07322620E+01
 20
2.90499874E+02
 11
1.98662228E+01
 21
2.88999841E+02
  0
LINE
  8
0
 62
7
 10
-4.23999989E+02
 20
2.95999969E+02
 11
-4.23999989E+02
 21
3.17000000E+02
  0
LINE
  8
0
 62
7
 10
-4.64000050E+02
 20
2.97000122E+02
 11
-4.64000050E+02
 21
3.15999939E+02
  0
LINE
  8
0
 62
7
 10
-4.26999989E+02
 20
2.95500000E+02
 11
-4.26999989E+02
 21
3.17500031E+02
  0
LINE
  8
0
 62
7
 10
-4.62500050E+02
 20
3.17500031E+02
 11
-4.51999989E+02
 21
3.17500031E+02
  0
LINE
  8
0
 62
7
 10
-4.62500050E+02
 20
2.95500000E+02
 11
-4.62500050E+02
 21
3.17500031E+02
  0
LINE
  8
0
 62
7
 10
-4.63999974E+02
 20
3.15999874E+02
 11
-4.62499940E+02
 21
3.17499908E+02
  0
LINE
  8
0
 62
2
 10
-4.63320057E+02
 20
3.16680023E+02
 11
-4.51999989E+02
 21
3.16680023E+02
  0
LINE
  8
0
 62
7
 10
-4.26999989E+02
 20
3.16680023E+02
 11
-4.23999989E+02
 21
3.16680023E+02
  0
LINE
  8
0
 62
7
 10
-4.26999989E+02
 20
2.96320007E+02
 11
-4.23999989E+02
 21
2.96320007E+02
  0
LINE
  8
0
 62
7
 10
-4.62500050E+02
 20
2.95500000E+02
 11
-4.51999989E+02
 21
2.95500000E+02
  0
LINE
  8
0
 62
7
 10
-4.63999995E+02
 20
2.97000070E+02
 11
-4.62499983E+02
 21
2.95500058E+02
  0
LINE
  8
0
 62
2
 10
-4.63320057E+02
 20
2.96320007E+02
 11
-4.51999989E+02
 21
2.96320007E+02
  0
LINE
  8
0
 62
7
 10
1.20000114E+01
 20
3.37000000E+02
 11
-5.49999886E+01
 21
3.37000000E+02
  0
LINE
  8
0
  6
CENTER
 62
2
 10
5.07791710E+01
 20
3.41500000E+02
 11
-1.37524494E+02
 21
3.41500000E+02
  0
LINE
  8
0
 62
7
 10
1.20000114E+01
 20
3.46000000E+02
 11
-5.49999886E+01
 21
3.46000000E+02
  0
LINE
  8
0
 62
7
 10
1.20000114E+01
 20
3.50000031E+02
 11
-5.49999886E+01
 21
3.50000031E+02
  0
LINE
  8
0
 62
7
 10
-1.92000019E+02
 20
3.23232056E+02
 11
-1.92000019E+02
 21
3.19767975E+02
  0
LINE
  8
0
 62
7
 10
-3.43999928E+02
 20
2.47999969E+02
 11
-3.27999989E+02
 21
2.47999969E+02
  0
LINE
  8
0
 62
7
 10
-3.27999989E+02
 20
2.52999939E+02
 11
-3.27999989E+02
 21
2.47999969E+02
  0
LINE
  8
0
 62
7
 10
-3.43999928E+02
 20
2.52999939E+02
 11
-3.43999928E+02
 21
2.47999969E+02
  0
LINE
  8
0
 62
7
 10
-3.39299915E+02
 20
2.39499969E+02
 11
-3.32699940E+02
 21
2.39499969E+02
  0
LINE
  8
0
 62
7
 10
-3.41749928E+02
 20
2.41500000E+02
 11
-3.30249928E+02
 21
2.41500000E+02
  0
LINE
  8
0
 62
7
 10
-3.29049915E+02
 20
2.47999969E+02
 11
-3.29049915E+02
 21
2.42192810E+02
  0
LINE
  8
0
 62
7
 10
-3.42949940E+02
 20
2.47999969E+02
 11
-3.42949940E+02
 21
2.42192810E+02
  0
LINE
  8
0
 62
7
 10
-3.30249762E+02
 20
2.41499646E+02
 11
-3.29049753E+02
 21
2.42192471E+02
  0
LINE
  8
0
 62
7
 10
-3.42949968E+02
 20
2.42192694E+02
 11
-3.41749933E+02
 21
2.41499854E+02
  0
LINE
  8
0
 62
7
 10
-3.39474903E+02
 20
2.47999969E+02
 11
-3.39474903E+02
 21
2.42192810E+02
  0
LINE
  8
0
 62
7
 10
-3.32524952E+02
 20
2.47999969E+02
 11
-3.32524952E+02
 21
2.42192810E+02
  0
LINE
  8
0
 62
7
 10
-3.39999989E+02
 20
2.41500000E+02
 11
-3.39999989E+02
 21
2.40199982E+02
  0
LINE
  8
0
 62
7
 10
-3.31999928E+02
 20
2.41500000E+02
 11
-3.31999928E+02
 21
2.40199982E+02
  0
LINE
  8
0
 62
2
 10
-3.39299976E+02
 20
2.41500000E+02
 11
-3.39299976E+02
 21
2.39499969E+02
  0
LINE
  8
0
 62
2
 10
-3.32699940E+02
 20
2.41500000E+02
 11
-3.32699940E+02
 21
2.39499969E+02
  0
LINE
  8
0
 62
7
 10
-3.39999989E+02
 20
2.40199982E+02
 11
-3.31999928E+02
 21
2.40199982E+02
  0
LINE
  8
0
 62
7
 10
-3.40000080E+02
 20
2.40200243E+02
 11
-3.39300094E+02
 21
2.39500257E+02
  0
LINE
  8
0
 62
7
 10
-3.32699528E+02
 20
2.39499577E+02
 11
-3.31999532E+02
 21
2.40199574E+02
  0
LINE
  8
0
 62
7
 10
-3.43999928E+02
 20
3.64999939E+02
 11
-3.27999989E+02
 21
3.64999939E+02
  0
LINE
  8
0
 62
7
 10
-3.27999989E+02
 20
3.59999939E+02
 11
-3.27999989E+02
 21
3.64999939E+02
  0
LINE
  8
0
  6
CENTER
 62
2
 10
-1.79940083E+02
 20
3.21500031E+02
 11
-1.98284901E+02
 21
3.21500031E+02
  0
LINE
  8
0
 62
7
 10
-3.43999928E+02
 20
3.59999939E+02
 11
-3.43999928E+02
 21
3.64999939E+02
  0
LINE
  8
0
 62
7
 10
-3.39299915E+02
 20
3.73499969E+02
 11
-3.32699940E+02
 21
3.73499969E+02
  0
LINE
  8
0
 62
7
 10
-3.41749928E+02
 20
3.71499939E+02
 11
-3.30249928E+02
 21
3.71499939E+02
  0
LINE
  8
0
 62
7
 10
-3.29049915E+02
 20
3.64999939E+02
 11
-3.29049915E+02
 21
3.70807129E+02
  0
LINE
  8
0
 62
7
 10
-3.42949940E+02
 20
3.64999939E+02
 11
-3.42949940E+02
 21
3.70807129E+02
  0
LINE
  8
0
 62
7
 10
-3.30249767E+02
 20
3.71499777E+02
 11
-3.29049732E+02
 21
3.70806937E+02
  0
LINE
  8
0
 62
7
 10
-3.42949591E+02
 20
3.70806512E+02
 11
-3.41749582E+02
 21
3.71499337E+02
  0
LINE
  8
0
 62
7
 10
-3.32524952E+02
 20
3.64999939E+02
 11
-3.32524952E+02
 21
3.70807129E+02
  0
LINE
  8
0
 62
7
 10
-3.39999989E+02
 20
3.71499939E+02
 11
-3.39999989E+02
 21
3.72799927E+02
  0
LINE
  8
0
 62
7
 10
-3.31999928E+02
 20
3.71499939E+02
 11
-3.31999928E+02
 21
3.72799927E+02
  0
LINE
  8
0
 62
2
 10
-3.39299976E+02
 20
3.71499939E+02
 11
-3.39299976E+02
 21
3.73499969E+02
  0
LINE
  8
0
 62
2
 10
-3.32699940E+02
 20
3.71499939E+02
 11
-3.32699940E+02
 21
3.73499969E+02
  0
LINE
  8
0
 62
7
 10
-3.39999989E+02
 20
3.72799927E+02
 11
-3.31999928E+02
 21
3.72799927E+02
  0
LINE
  8
0
 62
7
 10
-3.39999702E+02
 20
3.72799712E+02
 11
-3.39299684E+02
 21
3.73499730E+02
  0
LINE
  8
0
 62
7
 10
-3.32700132E+02
 20
3.73500108E+02
 11
-3.32000147E+02
 21
3.72800122E+02
  0
LINE
  8
0
 62
7
 10
-3.39474903E+02
 20
3.64999939E+02
 11
-3.39474903E+02
 21
3.70807129E+02
  0
LINE
  8
0
 62
7
 10
-3.53999989E+02
 20
2.52999969E+02
 11
-2.02000019E+02
 21
2.52999969E+02
  0
LINE
  8
0
  6
CENTER
 62
2
 10
-3.35999928E+02
 20
3.58111359E+02
 11
-3.35999928E+02
 21
3.75087585E+02
  0
LINE
  8
0
 62
7
 10
-2.01999989E+02
 20
2.50499969E+02
 11
-1.34999989E+02
 21
2.50499969E+02
  0
LINE
  8
0
 62
7
 10
-2.01999989E+02
 20
3.62500000E+02
 11
-1.34999989E+02
 21
3.62500000E+02
  0
LINE
  8
0
 62
7
 10
-2.02000019E+02
 20
3.62499969E+02
 11
-2.02000019E+02
 21
2.50499969E+02
  0
LINE
  8
0
 62
7
 10
-3.53999989E+02
 20
3.62499969E+02
 11
-3.53999989E+02
 21
2.50499969E+02
  0
LINE
  8
0
 62
7
 10
-3.88999989E+02
 20
3.62499969E+02
 11
-3.88999989E+02
 21
2.50499969E+02
  0
LINE
  8
0
 62
7
 10
-3.88999989E+02
 20
2.50499969E+02
 11
-3.53999989E+02
 21
2.50499969E+02
  0
LINE
  8
0
 62
7
 10
-3.88999989E+02
 20
3.62500000E+02
 11
-3.53999989E+02
 21
3.62500000E+02
  0
LINE
  8
0
 62
7
 10
-1.34999989E+02
 20
2.50499969E+02
 11
-1.34999989E+02
 21
3.62499969E+02
  0
LINE
  8
0
  6
CENTER
 62
2
 10
-3.98264759E+02
 20
2.64499969E+02
 11
-1.27783985E+02
 21
2.64499969E+02
  0
LINE
  8
0
 62
7
 10
-3.53999989E+02
 20
2.69000000E+02
 11
-2.01999989E+02
 21
2.69000000E+02
  0
LINE
  8
0
 62
7
 10
-3.53999989E+02
 20
2.59999969E+02
 11
-2.01999989E+02
 21
2.59999969E+02
  0
LINE
  8
0
 62
7
 10
-3.53999989E+02
 20
3.53000031E+02
 11
-2.01999989E+02
 21
3.53000031E+02
  0
LINE
  8
0
 62
7
 10
-3.53999989E+02
 20
3.44000031E+02
 11
-2.01999989E+02
 21
3.44000031E+02
  0
LINE
  8
0
  6
CENTER
 62
2
 10
-3.98264759E+02
 20
3.48500000E+02
 11
-1.27783985E+02
 21
3.48500000E+02
  0
LINE
  8
0
 62
7
 10
-1.86000050E+02
 20
3.19767975E+02
 11
-1.86000050E+02
 21
3.23232056E+02
  0
LINE
  8
0
 62
7
 10
-3.53999989E+02
 20
3.59999939E+02
 11
-2.02000019E+02
 21
3.59999939E+02
  0
LINE
  8
0
 62
7
 10
-1.91999115E+02
 20
3.19769223E+02
 11
-1.88999155E+02
 21
3.18037205E+02
  0
LINE
  8
0
 62
7
 10
-1.89000256E+02
 20
3.18036642E+02
 11
-1.86000322E+02
 21
3.19768644E+02
  0
LINE
  8
0
  6
CENTER
 62
2
 10
-2.77999989E+02
 20
2.85164459E+02
 11
-2.77999989E+02
 21
3.27569946E+02
  0
LINE
  8
0
  6
CENTER
 62
2
 10
-3.66999989E+02
 20
3.30778961E+02
 11
-3.66999989E+02
 21
3.12213196E+02
  0
LINE
  8
0
 62
7
 10
-3.63999736E+02
 20
3.23232412E+02
 11
-3.66999749E+02
 21
3.24964460E+02
  0
LINE
  8
0
 62
7
 10
-3.67000854E+02
 20
3.24965658E+02
 11
-3.70000893E+02
 21
3.23233595E+02
  0
LINE
  8
0
 62
7
 10
-3.69999989E+02
 20
3.19767975E+02
 11
-3.69999989E+02
 21
3.23232056E+02
  0
LINE
  8
0
 62
7
 10
-3.66999897E+02
 20
3.18036316E+02
 11
-3.69999857E+02
 21
3.19768333E+02
  0
LINE
  8
0
 62
7
 10
-3.64000867E+02
 20
3.19769498E+02
 11
-3.67000854E+02
 21
3.18037465E+02
  0
LINE
  8
0
 62
7
 10
-3.63999989E+02
 20
3.23232056E+02
 11
-3.63999989E+02
 21
3.19767975E+02
  0
LINE
  8
0
  6
CENTER
 62
2
 10
-3.76059864E+02
 20
3.21500031E+02
 11
-3.57715137E+02
 21
3.21500031E+02
  0
LINE
  8
0
 62
7
 10
-1.92000488E+02
 20
3.23232801E+02
 11
-1.89000462E+02
 21
3.24964857E+02
  0
LINE
  8
0
 62
7
 10
-1.88999412E+02
 20
3.24965502E+02
 11
-1.85999399E+02
 21
3.23233455E+02
  0
LINE
  8
0
  6
CENTER
 62
2
 10
-1.88999989E+02
 20
3.30778961E+02
 11
-1.88999989E+02
 21
3.12213196E+02
  0
LINE
  8
0
  6
CENTER
 62
2
 10
-2.20000080E+02
 20
3.58111359E+02
 11
-2.20000080E+02
 21
3.75087585E+02
  0
LINE
  8
0
 62
7
 10
-2.12000050E+02
 20
3.64999939E+02
 11
-2.28000019E+02
 21
3.64999939E+02
  0
LINE
  8
0
 62
7
 10
-2.28000050E+02
 20
3.59999939E+02
 11
-2.28000050E+02
 21
3.64999939E+02
  0
LINE
  8
0
 62
7
 10
-2.12000050E+02
 20
3.59999939E+02
 11
-2.12000050E+02
 21
3.64999939E+02
  0
LINE
  8
0
 62
7
 10
-2.16700031E+02
 20
3.73499969E+02
 11
-2.23300037E+02
 21
3.73499969E+02
  0
LINE
  8
0
 62
7
 10
-2.14250050E+02
 20
3.71499939E+02
 11
-2.25750050E+02
 21
3.71499939E+02
  0
LINE
  8
0
 62
7
 10
-2.26950092E+02
 20
3.64999939E+02
 11
-2.26950092E+02
 21
3.70807129E+02
  0
LINE
  8
0
 62
7
 10
-2.13050098E+02
 20
3.64999939E+02
 11
-2.13050098E+02
 21
3.70807129E+02
  0
LINE
  8
0
 62
7
 10
-2.25750152E+02
 20
3.71499574E+02
 11
-2.26950121E+02
 21
3.70806771E+02
  0
LINE
  8
0
 62
7
 10
-2.13050342E+02
 20
3.70806662E+02
 11
-2.14250324E+02
 21
3.71499472E+02
  0
LINE
  8
0
 62
7
 10
-2.16525043E+02
 20
3.64999939E+02
 11
-2.16525043E+02
 21
3.70807129E+02
  0
LINE
  8
0
 62
7
 10
-2.23475086E+02
 20
3.64999939E+02
 11
-2.23475086E+02
 21
3.70807129E+02
  0
LINE
  8
0
 62
7
 10
-2.16000050E+02
 20
3.71499939E+02
 11
-2.16000050E+02
 21
3.72799927E+02
  0
LINE
  8
0
 62
7
 10
-2.24000080E+02
 20
3.71499939E+02
 11
-2.24000080E+02
 21
3.72799927E+02
  0
LINE
  8
0
 62
2
 10
-2.16700031E+02
 20
3.71499939E+02
 11
-2.16700031E+02
 21
3.73499969E+02
  0
LINE
  8
0
 62
2
 10
-2.23300068E+02
 20
3.71499939E+02
 11
-2.23300068E+02
 21
3.73499969E+02
  0
LINE
  8
0
 62
7
 10
-2.16000050E+02
 20
3.72799927E+02
 11
-2.24000080E+02
 21
3.72799927E+02
  0
LINE
  8
0
 62
7
 10
-2.16000277E+02
 20
3.72799782E+02
 11
-2.16700263E+02
 21
3.73499768E+02
  0
LINE
  8
0
 62
7
 10
-2.23299787E+02
 20
3.73499849E+02
 11
-2.23999760E+02
 21
3.72799877E+02
  0
LINE
  8
0
 62
7
 10
-2.12000050E+02
 20
2.47999969E+02
 11
-2.28000019E+02
 21
2.47999969E+02
  0
LINE
  8
0
 62
7
 10
-2.28000050E+02
 20
2.52999939E+02
 11
-2.28000050E+02
 21
2.47999969E+02
  0
LINE
  8
0
 62
7
 10
-2.12000050E+02
 20
2.52999939E+02
 11
-2.12000050E+02
 21
2.47999969E+02
  0
LINE
  8
0
 62
7
 10
-2.16700031E+02
 20
2.39499969E+02
 11
-2.23300037E+02
 21
2.39499969E+02
  0
LINE
  8
0
 62
7
 10
-2.14250050E+02
 20
2.41500000E+02
 11
-2.25750050E+02
 21
2.41500000E+02
  0
LINE
  8
0
 62
7
 10
-2.26950092E+02
 20
2.47999969E+02
 11
-2.26950092E+02
 21
2.42192810E+02
  0
LINE
  8
0
 62
7
 10
-2.13050098E+02
 20
2.47999969E+02
 11
-2.13050098E+02
 21
2.42192810E+02
  0
LINE
  8
0
 62
7
 10
-2.25750125E+02
 20
2.41499692E+02
 11
-2.26950108E+02
 21
2.42192502E+02
  0
LINE
  8
0
 62
7
 10
-2.13049923E+02
 20
2.42192656E+02
 11
-2.14249906E+02
 21
2.41499846E+02
  0
LINE
  8
0
 62
7
 10
-2.16525043E+02
 20
2.47999969E+02
 11
-2.16525043E+02
 21
2.42192810E+02
  0
LINE
  8
0
 62
7
 10
-2.23475086E+02
 20
2.47999969E+02
 11
-2.23475086E+02
 21
2.42192810E+02
  0
LINE
  8
0
 62
7
 10
-2.16000050E+02
 20
2.41500000E+02
 11
-2.16000050E+02
 21
2.40199982E+02
  0
LINE
  8
0
 62
7
 10
-2.24000080E+02
 20
2.41500000E+02
 11
-2.24000080E+02
 21
2.40199982E+02
  0
LINE
  8
0
 62
2
 10
-2.16700031E+02
 20
2.41500000E+02
 11
-2.16700031E+02
 21
2.39499969E+02
  0
LINE
  8
0
 62
2
 10
-2.23300068E+02
 20
2.41500000E+02
 11
-2.23300068E+02
 21
2.39499969E+02
  0
LINE
  8
0
 62
7
 10
-2.16000050E+02
 20
2.40199982E+02
 11
-2.24000080E+02
 21
2.40199982E+02
  0
LINE
  8
0
 62
7
 10
-2.15999840E+02
 20
2.40200092E+02
 11
-2.16699815E+02
 21
2.39500117E+02
  0
LINE
  8
0
 62
7
 10
-2.23300370E+02
 20
2.39499685E+02
 11
-2.24000356E+02
 21
2.40199671E+02
  0
ARC
  8
0
 62
7
 10
-1.34499958E+02
 20
3.52380280E+02
 40
5.00000000E-01
 50
9.10002493E+01
 51
1.79999951E+02
  0
ARC
  8
0
 62
7
 10
-1.34499958E+02
 20
2.60619720E+02
 40
5.00000000E-01
 50
1.79999977E+02
 51
2.68999679E+02
  0
ARC
  8
0
 62
7
 10
-1.28999989E+02
 20
3.34500031E+02
 40
2.00000000E+00
 50
8.99999818E+01
 51
1.79999951E+02
  0
ARC
  8
0
 62
7
 10
-1.28999989E+02
 20
2.78500061E+02
 40
2.00000000E+00
 50
1.79999977E+02
 51
2.70000028E+02
  0
ARC
  8
0
 62
7
 10
-3.90499989E+02
 20
3.28000061E+02
 40
5.00000000E-01
 50
8.99999818E+01
 51
1.79999951E+02
  0
ARC
  8
0
 62
7
 10
-4.09499989E+02
 20
3.25500031E+02
 40
5.00000000E-01
 50
8.99999818E+01
 51
1.79999951E+02
  0
ARC
  8
0
 62
7
 10
-4.09499989E+02
 20
2.87500061E+02
 40
5.00000000E-01
 50
1.79999977E+02
 51
2.69999974E+02
  0
ARC
  8
0
 62
7
 10
-3.90499989E+02
 20
2.85000031E+02
 40
5.00000000E-01
 50
1.79999977E+02
 51
2.69999974E+02
  0
ARC
  8
0
 62
7
 10
-4.04499989E+02
 20
2.85971771E+02
 40
5.00000000E-01
 50
1.79999977E+02
 51
2.67999192E+02
  0
ARC
  8
0
 62
7
 10
-4.04499989E+02
 20
3.27028320E+02
 40
5.00000000E-01
 50
9.20007356E+01
 51
1.79999951E+02
  0
CIRCLE
  8
0
 62
7
 10
2.79999809E+01
 20
3.17500031E+02
 40
9.25000000E+00
  0
CIRCLE
  8
0
 62
2
 10
2.80000114E+01
 20
3.17499969E+02
 40
1.04775009E+01
  0
CIRCLE
  8
0
 62
7
 10
-1.05999989E+02
 20
2.90499939E+02
 40
2.59999990E+00
  0
ARC
  8
0
 62
7
 10
4.74999657E+01
 20
2.60619690E+02
 40
5.00000000E-01
 50
2.71000272E+02
 51
3.59999959E+02
  0
ARC
  8
0
 62
7
 10
4.74999809E+01
 20
3.52380249E+02
 40
5.00000000E-01
 50
3.59999973E+02
 51
8.89996800E+01
  0
ARC
  8
0
 62
7
 10
4.19999809E+01
 20
2.78499939E+02
 40
2.00000000E+00
 50
2.69999991E+02
 51
3.59999945E+02
  0
ARC
  8
0
 62
7
 10
4.19999809E+01
 20
3.34499939E+02
 40
2.00000000E+00
 50
3.59999973E+02
 51
9.00000094E+01
  0
ARC
  8
0
 62
7
 10
4.94999809E+01
 20
2.84999939E+02
 40
5.00000000E-01
 50
2.69999991E+02
 51
3.59999945E+02
  0
ARC
  8
0
 62
7
 10
4.94999809E+01
 20
3.27999939E+02
 40
5.00000000E-01
 50
3.59999973E+02
 51
8.99999549E+01
  0
CIRCLE
  8
0
 62
7
 10
-1.05999989E+02
 20
2.90499939E+02
 40
5.00000000E+00
  0
CIRCLE
  8
0
 62
7
 10
1.89999809E+01
 20
2.90499969E+02
 40
2.59999990E+00
  0
CIRCLE
  8
0
 62
7
 10
1.89999809E+01
 20
2.90499969E+02
 40
5.00000000E+00
  0
CIRCLE
  8
0
 62
7
 10
2.79999809E+01
 20
3.17499969E+02
 40
1.10000000E+01
  0
CIRCLE
  8
0
 62
7
 10
-1.14999958E+02
 20
3.17500031E+02
 40
9.25000000E+00
  0
CIRCLE
  8
0
 62
2
 10
-1.14999989E+02
 20
3.17499969E+02
 40
1.04775009E+01
  0
CIRCLE
  8
0
 62
7
 10
-1.14999958E+02
 20
3.17499969E+02
 40
1.10000000E+01
  0
ARC
  8
0
 62
7
 10
-3.35999928E+02
 20
3.62438812E+02
 40
9.06113625E+00
 50
6.74489921E+01
 51
1.12550903E+02
  0
ARC
  8
0
 62
7
 10
-3.41212452E+02
 20
2.44025085E+02
 40
2.52511263E+00
 50
2.53478125E+02
 51
3.13479008E+02
  0
ARC
  8
0
 62
7
 10
-3.30787464E+02
 20
2.44025085E+02
 40
2.52511263E+00
 50
2.26520987E+02
 51
2.86521856E+02
  0
ARC
  8
0
 62
7
 10
-3.35999928E+02
 20
2.50561127E+02
 40
9.06113625E+00
 50
2.47449035E+02
 51
2.92550946E+02
  0
ARC
  8
0
 62
7
 10
-3.30787464E+02
 20
3.68974854E+02
 40
2.52511263E+00
 50
7.34780821E+01
 51
1.33478944E+02
  0
ARC
  8
0
 62
7
 10
-3.41212452E+02
 20
3.68974854E+02
 40
2.52511263E+00
 50
4.65209375E+01
 51
1.06521820E+02
  0
CIRCLE
  8
0
 62
2
 10
-2.77999989E+02
 20
3.06500031E+02
 40
8.32999992E+00
  0
CIRCLE
  8
0
 62
7
 10
-2.77999989E+02
 20
3.06500031E+02
 40
7.44000006E+00
  0
CIRCLE
  8
0
 62
7
 10
-2.77999989E+02
 20
3.06500031E+02
 40
8.71000004E+00
  0
CIRCLE
  8
0
 62
7
 10
-3.66999989E+02
 20
3.21500031E+02
 40
6.57850027E+00
  0
CIRCLE
  8
0
 62
7
 10
-3.66999989E+02
 20
3.21500031E+02
 40
5.72250080E+00
  0
CIRCLE
  8
0
 62
7
 10
-1.88999989E+02
 20
3.21500031E+02
 40
6.57850027E+00
  0
CIRCLE
  8
0
 62
7
 10
-1.88999989E+02
 20
3.21500031E+02
 40
5.72250080E+00
  0
ARC
  8
0
 62
7
 10
-2.20000080E+02
 20
3.62438812E+02
 40
9.06113625E+00
 50
6.74491016E+01
 51
1.12551013E+02
  0
ARC
  8
0
 62
7
 10
-2.25212574E+02
 20
3.68974854E+02
 40
2.52511263E+00
 50
4.65210741E+01
 51
1.06521937E+02
  0
ARC
  8
0
 62
7
 10
-2.14787586E+02
 20
3.68974854E+02
 40
2.52511263E+00
 50
7.34781915E+01
 51
1.33479081E+02
  0
ARC
  8
0
 62
7
 10
-2.25212574E+02
 20
2.44025085E+02
 40
2.52511263E+00
 50
2.53478180E+02
 51
3.13479049E+02
  0
ARC
  8
0
 62
7
 10
-2.20000080E+02
 20
2.50561127E+02
 40
9.06113625E+00
 50
2.47449090E+02
 51
2.92551001E+02
  0
ARC
  8
0
 62
7
 10
-2.14787586E+02
 20
2.44025085E+02
 40
2.52511263E+00
 50
2.26521028E+02
 51
2.86521911E+02
  0
CIRCLE
  8
0
 62
7
 10
-2.77999989E+02
 20
3.06500000E+02
 40
1.25000000E+01
  0
CIRCLE
  8
0
 62
2
 10
-2.77999989E+02
 20
3.06500000E+02
 40
1.55000010E+01
  0
INSERT
  8
0
  2
PP1
  6
BYBLOCK
 62
0
 10
0.00000000E+00
 20
0.00000000E+00
 41
1.00000000E+00
 42
1.00000000E+00
 50
0.00000000E+00
  0
INSERT
  8
0
  2
PP2
  6
BYBLOCK
 62
0
 10
0.00000000E+00
 20
0.00000000E+00
 41
1.00000000E+00
 42
1.00000000E+00
 50
0.00000000E+00
  0
LINE
  8
0
 62
4
 10
-4.50570923E+02
 20
3.06500000E+02
 11
-4.40429054E+02
 21
3.06500000E+02
  0
ARC
  8
0
 62
4
 10
-4.62106776E+02
 20
2.98500000E+02
 40
2.31067870E+01
 50
3.39743797E+02
 51
2.02562028E+01
  0
ARC
  8
0
 62
4
 10
-4.62106776E+02
 20
3.14500000E+02
 40
2.31067870E+01
 50
3.39743797E+02
 51
2.02562028E+01
  0
ARC
  8
0
 62
4
 10
-4.28893202E+02
 20
2.98500000E+02
 40
2.31067870E+01
 50
1.59743797E+02
 51
2.00256203E+02
  0
ARC
  8
0
 62
4
 10
-4.28893202E+02
 20
3.14500000E+02
 40
2.31067870E+01
 50
1.59743797E+02
 51
2.00256203E+02
  0
LINE
  8
0
 62
4
 10
-4.38999989E+02
 20
3.22500000E+02
 11
-4.38999989E+02
 21
2.90500000E+02
  0
LINE
  8
0
 62
4
 10
-4.51999989E+02
 20
3.22500000E+02
 11
-4.51999989E+02
 21
2.90500000E+02
  0
LINE
  8
0
 62
4
 10
-4.51999989E+02
 20
3.22500000E+02
 11
-4.38999989E+02
 21
3.22500000E+02
  0
LINE
  8
0
 62
4
 10
-4.51999989E+02
 20
2.90500000E+02
 11
-4.38999989E+02
 21
2.90500000E+02
  0
LINE
  8
0
 62
7
 10
-4.38999989E+02
 20
3.17500031E+02
 11
-4.26999989E+02
 21
3.17500031E+02
  0
LINE
  8
0
 62
2
 10
-4.38999989E+02
 20
3.16680023E+02
 11
-4.26999989E+02
 21
3.16680023E+02
  0
LINE
  8
0
 62
7
 10
-4.38999989E+02
 20
2.95500000E+02
 11
-4.26999989E+02
 21
2.95500000E+02
  0
LINE
  8
0
 62
2
 10
-4.38999989E+02
 20
2.96320007E+02
 11
-4.26999989E+02
 21
2.96320007E+02
  0
LINE
  8
0
 62
6
 10
-3.42679606E+01
 20
2.90589924E+02
 11
-3.77320622E+01
 21
2.84589924E+02
  0
LINE
  8
0
 62
4
 10
-2.60000115E+01
 20
2.89089924E+02
 11
-3.51339861E+01
 21
2.89089924E+02
  0
LINE
  8
0
  6
CENTER
 62
6
 10
8.99998855E+00
 20
2.87589924E+02
 11
-3.80000115E+01
 21
2.87589924E+02
  0
LINE
  8
0
 62
4
 10
-2.60000115E+01
 20
2.86089924E+02
 11
-3.68660369E+01
 21
2.86089924E+02
  0
LINE
  8
0
 62
6
 10
-4.67320394E+01
 20
3.22410061E+02
 11
-4.32679378E+01
 21
3.28410061E+02
  0
LINE
  8
0
 62
4
 10
-5.49999885E+01
 20
3.23910061E+02
 11
-4.58660139E+01
 21
3.23910061E+02
  0
LINE
  8
0
  6
CENTER
 62
6
 10
-8.99999885E+01
 20
3.25410061E+02
 11
-4.29999885E+01
 21
3.25410061E+02
  0
LINE
  8
0
 62
4
 10
-5.49999885E+01
 20
3.26910061E+02
 11
-4.41339631E+01
 21
3.26910061E+02
  0
LINE
  8
0
 62
6
 10
-1.30000115E+01
 20
2.59664602E+02
 11
-1.30000115E+01
 21
2.61031930E+02
  0
LINE
  8
0
 62
6
 10
-1.60000115E+01
 20
2.59664602E+02
 11
-1.60000115E+01
 21
2.61031930E+02
  0
LINE
  8
0
 62
4
 10
-1.25000115E+01
 20
2.60160160E+02
 11
-1.25000115E+01
 21
2.61031930E+02
  0
LINE
  8
0
 62
4
 10
-1.65000115E+01
 20
2.60160160E+02
 11
-1.65000115E+01
 21
2.61031930E+02
  0
LINE
  8
0
 62
4
 10
-1.10000114E+01
 20
2.61031930E+02
 11
-1.10000114E+01
 21
2.74876436E+02
  0
LINE
  8
0
 62
4
 10
-2.60000114E+01
 20
2.61031930E+02
 11
-2.60000114E+01
 21
2.90420135E+02
  0
LINE
  8
0
  6
CENTER
 62
6
 10
-2.25000115E+01
 20
2.56234406E+02
 11
-2.25000115E+01
 21
2.66499985E+02
  0
LINE
  8
0
  6
CENTER
 62
6
 10
-1.45000115E+01
 20
2.56234406E+02
 11
-1.45000115E+01
 21
2.66499985E+02
  0
LINE
  8
0
  6
CENTER
 62
6
 10
-3.50001144E+00
 20
2.83612159E+02
 11
-3.50001144E+00
 21
2.88612159E+02
  0
LINE
  8
0
 62
4
 10
-2.10000114E+01
 20
2.90193504E+02
 11
-2.10000114E+01
 21
2.89549596E+02
  0
LINE
  8
0
 62
4
 10
3.99998856E+00
 20
2.74876436E+02
 11
3.99998856E+00
 21
2.88322338E+02
  0
LINE
  8
0
 62
4
 10
-1.95000114E+01
 20
2.90193504E+02
 11
-1.95000114E+01
 21
2.89918659E+02
  0
LINE
  8
0
 62
4
 10
5.49998856E+00
 20
2.86114264E+02
 11
5.49998856E+00
 21
2.89062820E+02
  0
LINE
  8
0
 62
4
 10
-1.10000114E+01
 20
2.61031930E+02
 11
-2.60000114E+01
 21
2.61031930E+02
  0
LINE
  8
0
 62
4
 10
-1.10000114E+01
 20
2.68386149E+02
 11
-2.60000114E+01
 21
2.68386149E+02
  0
LINE
  8
0
 62
4
 10
3.99998856E+00
 20
2.74876436E+02
 11
-2.60000114E+01
 21
2.74876436E+02
  0
LINE
  8
0
 62
4
 10
3.99998856E+00
 20
2.84426429E+02
 11
-2.60000114E+01
 21
2.84426429E+02
  0
LINE
  8
0
 62
4
 10
3.99998856E+00
 20
2.90420135E+02
 11
-7.85126682E+00
 21
2.90420135E+02
  0
POLYLINE
  8
0
 62
4
 66
1
  0
VERTEX
  8
0
 62
4
 10
-1.65000115E+01
 20
2.60160160E+02
  0
VERTEX
  8
0
 62
4
 10
-1.64919601E+01
 20
2.60093001E+02
  0
VERTEX
  8
0
 62
4
 10
-1.64678707E+01
 20
2.60026383E+02
  0
VERTEX
  8
0
 62
4
 10
-1.64279372E+01
 20
2.59960842E+02
  0
VERTEX
  8
0
 62
4
 10
-1.63724812E+01
 20
2.59896905E+02
  0
VERTEX
  8
0
 62
4
 10
-1.63019492E+01
 20
2.59835089E+02
  0
VERTEX
  8
0
 62
4
 10
-1.62169091E+01
 20
2.59775889E+02
  0
VERTEX
  8
0
 62
4
 10
-1.61180455E+01
 20
2.59719784E+02
  0
VERTEX
  8
0
 62
4
 10
-1.60061544E+01
 20
2.59667224E+02
  0
VERTEX
  8
0
 62
4
 10
-1.58821368E+01
 20
2.59618633E+02
  0
VERTEX
  8
0
 62
4
 10
-1.57469911E+01
 20
2.59574402E+02
  0
VERTEX
  8
0
 62
4
 10
-1.56018055E+01
 20
2.59534887E+02
  0
VERTEX
  8
0
 62
4
 10
-1.54477488E+01
 20
2.59500406E+02
  0
VERTEX
  8
0
 62
4
 10
-1.52860616E+01
 20
2.59471238E+02
  0
VERTEX
  8
0
 62
4
 10
-1.51180455E+01
 20
2.59447616E+02
  0
VERTEX
  8
0
 62
4
 10
-1.49450534E+01
 20
2.59429731E+02
  0
VERTEX
  8
0
 62
4
 10
-1.47684780E+01
 20
2.59417727E+02
  0
VERTEX
  8
0
 62
4
 10
-1.45897412E+01
 20
2.59411701E+02
  0
VERTEX
  8
0
 62
4
 10
-1.44102819E+01
 20
2.59411701E+02
  0
VERTEX
  8
0
 62
4
 10
-1.42315450E+01
 20
2.59417727E+02
  0
VERTEX
  8
0
 62
4
 10
-1.40549696E+01
 20
2.59429731E+02
  0
VERTEX
  8
0
 62
4
 10
-1.38819775E+01
 20
2.59447616E+02
  0
VERTEX
  8
0
 62
4
 10
-1.37139614E+01
 20
2.59471238E+02
  0
VERTEX
  8
0
 62
4
 10
-1.35522742E+01
 20
2.59500406E+02
  0
VERTEX
  8
0
 62
4
 10
-1.33982175E+01
 20
2.59534887E+02
  0
VERTEX
  8
0
 62
4
 10
-1.32530319E+01
 20
2.59574402E+02
  0
VERTEX
  8
0
 62
4
 10
-1.31178862E+01
 20
2.59618633E+02
  0
VERTEX
  8
0
 62
4
 10
-1.29938686E+01
 20
2.59667224E+02
  0
VERTEX
  8
0
 62
4
 10
-1.28819775E+01
 20
2.59719784E+02
  0
VERTEX
  8
0
 62
4
 10
-1.27831139E+01
 20
2.59775889E+02
  0
VERTEX
  8
0
 62
4
 10
-1.26980738E+01
 20
2.59835089E+02
  0
VERTEX
  8
0
 62
4
 10
-1.26275418E+01
 20
2.59896905E+02
  0
VERTEX
  8
0
 62
4
 10
-1.25720858E+01
 20
2.59960842E+02
  0
VERTEX
  8
0
 62
4
 10
-1.25321523E+01
 20
2.60026383E+02
  0
VERTEX
  8
0
 62
4
 10
-1.25080629E+01
 20
2.60093001E+02
  0
VERTEX
  8
0
 62
4
 10
-1.25000115E+01
 20
2.60160160E+02
  0
SEQEND
  8
0
  0
LINE
  8
0
 62
6
 10
-2.40000115E+01
 20
2.59664602E+02
 11
-2.40000115E+01
 21
2.61031930E+02
  0
LINE
  8
0
 62
4
 10
-2.45000115E+01
 20
2.60160160E+02
 11
-2.45000115E+01
 21
2.61031930E+02
  0
POLYLINE
  8
0
 62
4
 66
1
  0
VERTEX
  8
0
 62
4
 10
-2.45000115E+01
 20
2.60160160E+02
  0
VERTEX
  8
0
 62
4
 10
-2.44919601E+01
 20
2.60093001E+02
  0
VERTEX
  8
0
 62
4
 10
-2.44678707E+01
 20
2.60026383E+02
  0
VERTEX
  8
0
 62
4
 10
-2.44279372E+01
 20
2.59960842E+02
  0
VERTEX
  8
0
 62
4
 10
-2.43724812E+01
 20
2.59896905E+02
  0
VERTEX
  8
0
 62
4
 10
-2.43019492E+01
 20
2.59835089E+02
  0
VERTEX
  8
0
 62
4
 10
-2.42169091E+01
 20
2.59775889E+02
  0
VERTEX
  8
0
 62
4
 10
-2.41180455E+01
 20
2.59719784E+02
  0
VERTEX
  8
0
 62
4
 10
-2.40061544E+01
 20
2.59667224E+02
  0
VERTEX
  8
0
 62
4
 10
-2.38821368E+01
 20
2.59618633E+02
  0
VERTEX
  8
0
 62
4
 10
-2.37469911E+01
 20
2.59574402E+02
  0
VERTEX
  8
0
 62
4
 10
-2.36018055E+01
 20
2.59534887E+02
  0
VERTEX
  8
0
 62
4
 10
-2.34477488E+01
 20
2.59500406E+02
  0
VERTEX
  8
0
 62
4
 10
-2.32860616E+01
 20
2.59471238E+02
  0
VERTEX
  8
0
 62
4
 10
-2.31180455E+01
 20
2.59447616E+02
  0
VERTEX
  8
0
 62
4
 10
-2.29450534E+01
 20
2.59429731E+02
  0
VERTEX
  8
0
 62
4
 10
-2.27684780E+01
 20
2.59417727E+02
  0
VERTEX
  8
0
 62
4
 10
-2.25897412E+01
 20
2.59411701E+02
  0
VERTEX
  8
0
 62
4
 10
-2.24102819E+01
 20
2.59411701E+02
  0
VERTEX
  8
0
 62
4
 10
-2.22315450E+01
 20
2.59417727E+02
  0
VERTEX
  8
0
 62
4
 10
-2.20549696E+01
 20
2.59429731E+02
  0
VERTEX
  8
0
 62
4
 10
-2.18819775E+01
 20
2.59447616E+02
  0
VERTEX
  8
0
 62
4
 10
-2.17139614E+01
 20
2.59471238E+02
  0
VERTEX
  8
0
 62
4
 10
-2.15522742E+01
 20
2.59500406E+02
  0
VERTEX
  8
0
 62
4
 10
-2.13982175E+01
 20
2.59534887E+02
  0
VERTEX
  8
0
 62
4
 10
-2.12530319E+01
 20
2.59574402E+02
  0
VERTEX
  8
0
 62
4
 10
-2.11178862E+01
 20
2.59618633E+02
  0
VERTEX
  8
0
 62
4
 10
-2.09938686E+01
 20
2.59667224E+02
  0
VERTEX
  8
0
 62
4
 10
-2.08819775E+01
 20
2.59719784E+02
  0
VERTEX
  8
0
 62
4
 10
-2.07831139E+01
 20
2.59775889E+02
  0
VERTEX
  8
0
 62
4
 10
-2.06980738E+01
 20
2.59835089E+02
  0
VERTEX
  8
0
 62
4
 10
-2.06275418E+01
 20
2.59896905E+02
  0
VERTEX
  8
0
 62
4
 10
-2.05720858E+01
 20
2.59960842E+02
  0
VERTEX
  8
0
 62
4
 10
-2.05321523E+01
 20
2.60026383E+02
  0
VERTEX
  8
0
 62
4
 10
-2.05080629E+01
 20
2.60093001E+02
  0
VERTEX
  8
0
 62
4
 10
-2.05000115E+01
 20
2.60160160E+02
  0
SEQEND
  8
0
  0
LINE
  8
0
 62
6
 10
-2.10000115E+01
 20
2.59664602E+02
 11
-2.10000115E+01
 21
2.61031930E+02
  0
LINE
  8
0
 62
4
 10
-2.05000115E+01
 20
2.60160160E+02
 11
-2.05000115E+01
 21
2.61031930E+02
  0
LINE
  8
0
 62
4
 10
-1.51500114E+01
 20
2.88829325E+02
 11
-1.51500114E+01
 21
2.89407456E+02
  0
LINE
  8
0
 62
4
 10
-6.85001144E+00
 20
2.87775612E+02
 11
-6.85001144E+00
 21
2.89407456E+02
  0
POLYLINE
  8
0
 62
4
 66
1
  0
VERTEX
  8
0
 62
4
 10
-1.47010295E+01
 20
2.87072292E+02
  0
VERTEX
  8
0
 62
4
 10
-1.45193491E+01
 20
2.86951753E+02
  0
VERTEX
  8
0
 62
4
 10
-1.43097660E+01
 20
2.86837746E+02
  0
VERTEX
  8
0
 62
4
 10
-1.40739419E+01
 20
2.86731175E+02
  0
VERTEX
  8
0
 62
4
 10
-1.38137464E+01
 20
2.86632884E+02
  0
VERTEX
  8
0
 62
4
 10
-1.35312424E+01
 20
2.86543653E+02
  0
VERTEX
  8
0
 62
4
 10
-1.32286699E+01
 20
2.86464190E+02
  0
VERTEX
  8
0
 62
4
 10
-1.29084277E+01
 20
2.86395125E+02
  0
VERTEX
  8
0
 62
4
 10
-1.25730548E+01
 20
2.86337004E+02
  0
VERTEX
  8
0
 62
4
 10
-1.22252101E+01
 20
2.86290289E+02
  0
VERTEX
  8
0
 62
4
 10
-1.18676516E+01
 20
2.86255351E+02
  0
VERTEX
  8
0
 62
4
 10
-1.15032141E+01
 20
2.86232465E+02
  0
VERTEX
  8
0
 62
4
 10
-1.11347870E+01
 20
2.86221815E+02
  0
VERTEX
  8
0
 62
4
 10
-1.07652914E+01
 20
2.86223483E+02
  0
VERTEX
  8
0
 62
4
 10
-1.03976567E+01
 20
2.86237458E+02
  0
VERTEX
  8
0
 62
4
 10
-1.00347977E+01
 20
2.86263627E+02
  0
VERTEX
  8
0
 62
4
 10
-9.67959132E+00
 20
2.86301784E+02
  0
VERTEX
  8
0
 62
4
 10
-9.33485376E+00
 20
2.86351626E+02
  0
VERTEX
  8
0
 62
4
 10
-9.00331823E+00
 20
2.86412759E+02
  0
VERTEX
  8
0
 62
4
 10
-8.68761328E+00
 20
2.86484696E+02
  0
VERTEX
  8
0
 62
4
 10
-8.39024195E+00
 20
2.86566868E+02
  0
VERTEX
  8
0
 62
4
 10
-8.11356192E+00
 20
2.86658624E+02
  0
VERTEX
  8
0
 62
4
 10
-7.85976682E+00
 20
2.86759236E+02
  0
VERTEX
  8
0
 62
4
 10
-7.63086883E+00
 20
2.86867905E+02
  0
VERTEX
  8
0
 62
4
 10
-7.42868275E+00
 20
2.86983772E+02
  0
VERTEX
  8
0
 62
4
 10
-7.25481159E+00
 20
2.87105917E+02
  0
VERTEX
  8
0
 62
4
 10
-7.11063388E+00
 20
2.87233371E+02
  0
VERTEX
  8
0
 62
4
 10
-6.99729270E+00
 20
2.87365124E+02
  0
VERTEX
  8
0
 62
4
 10
-6.91568669E+00
 20
2.87500132E+02
  0
VERTEX
  8
0
 62
4
 10
-6.86646283E+00
 20
2.87637324E+02
  0
VERTEX
  8
0
 62
4
 10
-6.85001140E+00
 20
2.87775612E+02
  0
SEQEND
  8
0
  0
POLYLINE
  8
0
 62
4
 66
1
  0
VERTEX
  8
0
 62
4
 10
-6.85001140E+00
 20
2.89407456E+02
  0
VERTEX
  8
0
 62
4
 10
-6.86580340E+00
 20
2.89542950E+02
  0
VERTEX
  8
0
 62
4
 10
-6.91305923E+00
 20
2.89677412E+02
  0
VERTEX
  8
0
 62
4
 10
-6.99141922E+00
 20
2.89809821E+02
  0
VERTEX
  8
0
 62
4
 10
-7.10028702E+00
 20
2.89939166E+02
  0
VERTEX
  8
0
 62
4
 10
-7.23883408E+00
 20
2.90064466E+02
  0
VERTEX
  8
0
 62
4
 10
-7.40600597E+00
 20
2.90184765E+02
  0
VERTEX
  8
0
 62
4
 10
-7.60053042E+00
 20
2.90299148E+02
  0
VERTEX
  8
0
 62
4
 10
-7.82092696E+00
 20
2.90406745E+02
  0
VERTEX
  8
0
 62
4
 10
-8.06551826E+00
 20
2.90506736E+02
  0
VERTEX
  8
0
 62
4
 10
-8.33244282E+00
 20
2.90598362E+02
  0
VERTEX
  8
0
 62
4
 10
-8.61966919E+00
 20
2.90680924E+02
  0
VERTEX
  8
0
 62
4
 10
-8.92501140E+00
 20
2.90753794E+02
  0
VERTEX
  8
0
 62
4
 10
-9.24614562E+00
 20
2.90816418E+02
  0
VERTEX
  8
0
 62
4
 10
-9.58062781E+00
 20
2.90868318E+02
  0
VERTEX
  8
0
 62
4
 10
-9.92591237E+00
 20
2.90909101E+02
  0
VERTEX
  8
0
 62
4
 10
-1.02793715E+01
 20
2.90938455E+02
  0
VERTEX
  8
0
 62
4
 10
-1.06383151E+01
 20
2.90956158E+02
  0
VERTEX
  8
0
 62
4
 10
-1.10000114E+01
 20
2.90962073E+02
  0
VERTEX
  8
0
 62
4
 10
-1.13617077E+01
 20
2.90956158E+02
  0
VERTEX
  8
0
 62
4
 10
-1.17206513E+01
 20
2.90938455E+02
  0
VERTEX
  8
0
 62
4
 10
-1.20741104E+01
 20
2.90909101E+02
  0
VERTEX
  8
0
 62
4
 10
-1.24193950E+01
 20
2.90868318E+02
  0
VERTEX
  8
0
 62
4
 10
-1.27538772E+01
 20
2.90816418E+02
  0
VERTEX
  8
0
 62
4
 10
-1.30750114E+01
 20
2.90753794E+02
  0
VERTEX
  8
0
 62
4
 10
-1.33803536E+01
 20
2.90680924E+02
  0
VERTEX
  8
0
 62
4
 10
-1.36675800E+01
 20
2.90598362E+02
  0
VERTEX
  8
0
 62
4
 10
-1.39345045E+01
 20
2.90506736E+02
  0
VERTEX
  8
0
 62
4
 10
-1.41790958E+01
 20
2.90406745E+02
  0
VERTEX
  8
0
 62
4
 10
-1.43994924E+01
 20
2.90299148E+02
  0
VERTEX
  8
0
 62
4
 10
-1.45940168E+01
 20
2.90184765E+02
  0
VERTEX
  8
0
 62
4
 10
-1.47611887E+01
 20
2.90064466E+02
  0
VERTEX
  8
0
 62
4
 10
-1.48997358E+01
 20
2.89939166E+02
  0
VERTEX
  8
0
 62
4
 10
-1.50086036E+01
 20
2.89809821E+02
  0
VERTEX
  8
0
 62
4
 10
-1.50869636E+01
 20
2.89677412E+02
  0
VERTEX
  8
0
 62
4
 10
-1.51342194E+01
 20
2.89542950E+02
  0
VERTEX
  8
0
 62
4
 10
-1.51500114E+01
 20
2.89407456E+02
  0
VERTEX
  8
0
 62
4
 10
-1.51342194E+01
 20
2.89271962E+02
  0
VERTEX
  8
0
 62
4
 10
-1.50869636E+01
 20
2.89137500E+02
  0
VERTEX
  8
0
 62
4
 10
-1.50086036E+01
 20
2.89005091E+02
  0
VERTEX
  8
0
 62
4
 10
-1.48997358E+01
 20
2.88875746E+02
  0
VERTEX
  8
0
 62
4
 10
-1.47611887E+01
 20
2.88750446E+02
  0
VERTEX
  8
0
 62
4
 10
-1.45940168E+01
 20
2.88630147E+02
  0
VERTEX
  8
0
 62
4
 10
-1.43994924E+01
 20
2.88515764E+02
  0
VERTEX
  8
0
 62
4
 10
-1.41790958E+01
 20
2.88408167E+02
  0
VERTEX
  8
0
 62
4
 10
-1.39345045E+01
 20
2.88308176E+02
  0
VERTEX
  8
0
 62
4
 10
-1.36675800E+01
 20
2.88216550E+02
  0
VERTEX
  8
0
 62
4
 10
-1.33803536E+01
 20
2.88133988E+02
  0
VERTEX
  8
0
 62
4
 10
-1.30750114E+01
 20
2.88061118E+02
  0
VERTEX
  8
0
 62
4
 10
-1.27538772E+01
 20
2.87998494E+02
  0
VERTEX
  8
0
 62
4
 10
-1.24193950E+01
 20
2.87946594E+02
  0
VERTEX
  8
0
 62
4
 10
-1.20741104E+01
 20
2.87905811E+02
  0
VERTEX
  8
0
 62
4
 10
-1.17206513E+01
 20
2.87876457E+02
  0
VERTEX
  8
0
 62
4
 10
-1.13617077E+01
 20
2.87858754E+02
  0
VERTEX
  8
0
 62
4
 10
-1.10000114E+01
 20
2.87852839E+02
  0
VERTEX
  8
0
 62
4
 10
-1.06383151E+01
 20
2.87858754E+02
  0
VERTEX
  8
0
 62
4
 10
-1.02793715E+01
 20
2.87876457E+02
  0
VERTEX
  8
0
 62
4
 10
-9.92591235E+00
 20
2.87905811E+02
  0
VERTEX
  8
0
 62
4
 10
-9.58062780E+00
 20
2.87946594E+02
  0
VERTEX
  8
0
 62
4
 10
-9.24614561E+00
 20
2.87998494E+02
  0
VERTEX
  8
0
 62
4
 10
-8.92501139E+00
 20
2.88061118E+02
  0
VERTEX
  8
0
 62
4
 10
-8.61966918E+00
 20
2.88133988E+02
  0
VERTEX
  8
0
 62
4
 10
-8.33244281E+00
 20
2.88216550E+02
  0
VERTEX
  8
0
 62
4
 10
-8.06551825E+00
 20
2.88308176E+02
  0
VERTEX
  8
0
 62
4
 10
-7.82092695E+00
 20
2.88408167E+02
  0
VERTEX
  8
0
 62
4
 10
-7.60053041E+00
 20
2.88515764E+02
  0
VERTEX
  8
0
 62
4
 10
-7.40600597E+00
 20
2.88630147E+02
  0
VERTEX
  8
0
 62
4
 10
-7.23883408E+00
 20
2.88750446E+02
  0
VERTEX
  8
0
 62
4
 10
-7.10028702E+00
 20
2.88875746E+02
  0
VERTEX
  8
0
 62
4
 10
-6.99141922E+00
 20
2.89005091E+02
  0
VERTEX
  8
0
 62
4
 10
-6.91305922E+00
 20
2.89137500E+02
  0
VERTEX
  8
0
 62
4
 10
-6.86580340E+00
 20
2.89271962E+02
  0
VERTEX
  8
0
 62
4
 10
-6.85001140E+00
 20
2.89407456E+02
  0
SEQEND
  8
0
  0
ARC
  8
0
 62
4
 10
-5.38330424E+00
 20
2.74987314E+02
 40
1.61228529E+01
 50
1.03811346E+02
 51
1.17258955E+02
  0
ARC
  8
0
 62
4
 10
-1.66167213E+01
 20
2.74987307E+02
 40
1.61228609E+01
 50
6.27410478E+01
 51
7.61886514E+01
  0
POLYLINE
  8
0
 62
4
 66
1
  0
VERTEX
  8
0
 62
4
 10
-1.47000114E+01
 20
2.86853929E+02
  0
VERTEX
  8
0
 62
4
 10
-1.45533688E+01
 20
2.86735223E+02
  0
VERTEX
  8
0
 62
4
 10
-1.43796501E+01
 20
2.86621760E+02
  0
VERTEX
  8
0
 62
4
 10
-1.41801790E+01
 20
2.86514405E+02
  0
VERTEX
  8
0
 62
4
 10
-1.39564754E+01
 20
2.86413975E+02
  0
VERTEX
  8
0
 62
4
 10
-1.37102438E+01
 20
2.86321235E+02
  0
VERTEX
  8
0
 62
4
 10
-1.34433607E+01
 20
2.86236894E+02
  0
VERTEX
  8
0
 62
4
 10
-1.31578595E+01
 20
2.86161592E+02
  0
VERTEX
  8
0
 62
4
 10
-1.28559158E+01
 20
2.86095904E+02
  0
VERTEX
  8
0
 62
4
 10
-1.25398303E+01
 20
2.86040331E+02
  0
VERTEX
  8
0
 62
4
 10
-1.22120116E+01
 20
2.85995296E+02
  0
VERTEX
  8
0
 62
4
 10
-1.18749576E+01
 20
2.85961142E+02
  0
VERTEX
  8
0
 62
4
 10
-1.15312366E+01
 20
2.85938129E+02
  0
VERTEX
  8
0
 62
4
 10
-1.11834677E+01
 20
2.85926432E+02
  0
VERTEX
  8
0
 62
4
 10
-1.08343009E+01
 20
2.85926142E+02
  0
VERTEX
  8
0
 62
4
 10
-1.04863968E+01
 20
2.85937260E+02
  0
VERTEX
  8
0
 62
4
 10
-1.01424064E+01
 20
2.85959701E+02
  0
VERTEX
  8
0
 62
4
 10
-9.80495088E+00
 20
2.85993294E+02
  0
VERTEX
  8
0
 62
4
 10
-9.47660154E+00
 20
2.86037783E+02
  0
VERTEX
  8
0
 62
4
 10
-9.15986039E+00
 20
2.86092830E+02
  0
VERTEX
  8
0
 62
4
 10
-8.85714097E+00
 20
2.86158015E+02
  0
VERTEX
  8
0
 62
4
 10
-8.57074996E+00
 20
2.86232841E+02
  0
VERTEX
  8
0
 62
4
 10
-8.30286962E+00
 20
2.86316738E+02
  0
VERTEX
  8
0
 62
4
 10
-8.05554117E+00
 20
2.86409067E+02
  0
VERTEX
  8
0
 62
4
 10
-7.83064923E+00
 20
2.86509123E+02
  0
VERTEX
  8
0
 62
4
 10
-7.62990743E+00
 20
2.86616146E+02
  0
VERTEX
  8
0
 62
4
 10
-7.45484542E+00
 20
2.86729319E+02
  0
VERTEX
  8
0
 62
4
 10
-7.30679713E+00
 20
2.86847780E+02
  0
VERTEX
  8
0
 62
4
 10
-7.18689069E+00
 20
2.86970626E+02
  0
VERTEX
  8
0
 62
4
 10
-7.09603975E+00
 20
2.87096921E+02
  0
VERTEX
  8
0
 62
4
 10
-7.03493661E+00
 20
2.87225703E+02
  0
VERTEX
  8
0
 62
4
 10
-7.00404684E+00
 20
2.87355991E+02
  0
SEQEND
  8
0
  0
LINE
  8
0
 62
4
 10
-1.51000114E+01
 20
2.87039343E+02
 11
-1.51000114E+01
 21
2.88517074E+02
  0
POLYLINE
  8
0
 62
4
 66
1
  0
VERTEX
  8
0
 62
4
 10
-2.19000114E+01
 20
2.87039343E+02
  0
VERTEX
  8
0
 62
4
 10
-2.18863240E+01
 20
2.86925173E+02
  0
VERTEX
  8
0
 62
4
 10
-2.18453720E+01
 20
2.86811922E+02
  0
VERTEX
  8
0
 62
4
 10
-2.17774851E+01
 20
2.86700502E+02
  0
VERTEX
  8
0
 62
4
 10
-2.16832100E+01
 20
2.86591810E+02
  0
VERTEX
  8
0
 62
4
 10
-2.15633056E+01
 20
2.86486722E+02
  0
VERTEX
  8
0
 62
4
 10
-2.14187373E+01
 20
2.86386082E+02
  0
VERTEX
  8
0
 62
4
 10
-2.12506692E+01
 20
2.86290703E+02
  0
VERTEX
  8
0
 62
4
 10
-2.10604544E+01
 20
2.86201351E+02
  0
VERTEX
  8
0
 62
4
 10
-2.08496244E+01
 20
2.86118746E+02
  0
VERTEX
  8
0
 62
4
 10
-2.06198767E+01
 20
2.86043554E+02
  0
VERTEX
  8
0
 62
4
 10
-2.03730612E+01
 20
2.85976378E+02
  0
VERTEX
  8
0
 62
4
 10
-2.01111649E+01
 20
2.85917762E+02
  0
VERTEX
  8
0
 62
4
 10
-1.98362965E+01
 20
2.85868175E+02
  0
VERTEX
  8
0
 62
4
 10
-1.95506692E+01
 20
2.85828018E+02
  0
VERTEX
  8
0
 62
4
 10
-1.92565826E+01
 20
2.85797614E+02
  0
VERTEX
  8
0
 62
4
 10
-1.89564045E+01
 20
2.85777208E+02
  0
VERTEX
  8
0
 62
4
 10
-1.86525518E+01
 20
2.85766963E+02
  0
VERTEX
  8
0
 62
4
 10
-1.83474710E+01
 20
2.85766963E+02
  0
VERTEX
  8
0
 62
4
 10
-1.80436183E+01
 20
2.85777208E+02
  0
VERTEX
  8
0
 62
4
 10
-1.77434402E+01
 20
2.85797614E+02
  0
VERTEX
  8
0
 62
4
 10
-1.74493536E+01
 20
2.85828018E+02
  0
VERTEX
  8
0
 62
4
 10
-1.71637263E+01
 20
2.85868175E+02
  0
VERTEX
  8
0
 62
4
 10
-1.68888580E+01
 20
2.85917762E+02
  0
VERTEX
  8
0
 62
4
 10
-1.66269617E+01
 20
2.85976378E+02
  0
VERTEX
  8
0
 62
4
 10
-1.63801461E+01
 20
2.86043554E+02
  0
VERTEX
  8
0
 62
4
 10
-1.61503984E+01
 20
2.86118746E+02
  0
VERTEX
  8
0
 62
4
 10
-1.59395684E+01
 20
2.86201351E+02
  0
VERTEX
  8
0
 62
4
 10
-1.57493536E+01
 20
2.86290703E+02
  0
VERTEX
  8
0
 62
4
 10
-1.55812855E+01
 20
2.86386082E+02
  0
VERTEX
  8
0
 62
4
 10
-1.54367173E+01
 20
2.86486722E+02
  0
VERTEX
  8
0
 62
4
 10
-1.53168128E+01
 20
2.86591810E+02
  0
VERTEX
  8
0
 62
4
 10
-1.52225377E+01
 20
2.86700502E+02
  0
VERTEX
  8
0
 62
4
 10
-1.51546508E+01
 20
2.86811922E+02
  0
VERTEX
  8
0
 62
4
 10
-1.51136988E+01
 20
2.86925173E+02
  0
VERTEX
  8
0
 62
4
 10
-1.51000114E+01
 20
2.87039343E+02
  0
SEQEND
  8
0
  0
POLYLINE
  8
0
 62
4
 66
1
  0
VERTEX
  8
0
 62
4
 10
-2.19000114E+01
 20
2.88087061E+02
  0
VERTEX
  8
0
 62
4
 10
-2.18863240E+01
 20
2.87972891E+02
  0
VERTEX
  8
0
 62
4
 10
-2.18453720E+01
 20
2.87859640E+02
  0
VERTEX
  8
0
 62
4
 10
-2.17774851E+01
 20
2.87748220E+02
  0
VERTEX
  8
0
 62
4
 10
-2.16832100E+01
 20
2.87639528E+02
  0
VERTEX
  8
0
 62
4
 10
-2.15633056E+01
 20
2.87534440E+02
  0
VERTEX
  8
0
 62
4
 10
-2.14187373E+01
 20
2.87433800E+02
  0
VERTEX
  8
0
 62
4
 10
-2.12506692E+01
 20
2.87338421E+02
  0
VERTEX
  8
0
 62
4
 10
-2.10604544E+01
 20
2.87249069E+02
  0
VERTEX
  8
0
 62
4
 10
-2.08496244E+01
 20
2.87166464E+02
  0
VERTEX
  8
0
 62
4
 10
-2.06198767E+01
 20
2.87091272E+02
  0
VERTEX
  8
0
 62
4
 10
-2.03730612E+01
 20
2.87024096E+02
  0
VERTEX
  8
0
 62
4
 10
-2.01111649E+01
 20
2.86965480E+02
  0
VERTEX
  8
0
 62
4
 10
-1.98362965E+01
 20
2.86915893E+02
  0
VERTEX
  8
0
 62
4
 10
-1.95506692E+01
 20
2.86875736E+02
  0
VERTEX
  8
0
 62
4
 10
-1.92565826E+01
 20
2.86845332E+02
  0
VERTEX
  8
0
 62
4
 10
-1.89564045E+01
 20
2.86824926E+02
  0
VERTEX
  8
0
 62
4
 10
-1.86525518E+01
 20
2.86814681E+02
  0
VERTEX
  8
0
 62
4
 10
-1.83474710E+01
 20
2.86814681E+02
  0
VERTEX
  8
0
 62
4
 10
-1.80436183E+01
 20
2.86824926E+02
  0
VERTEX
  8
0
 62
4
 10
-1.77434402E+01
 20
2.86845332E+02
  0
VERTEX
  8
0
 62
4
 10
-1.74493536E+01
 20
2.86875736E+02
  0
VERTEX
  8
0
 62
4
 10
-1.71637263E+01
 20
2.86915893E+02
  0
VERTEX
  8
0
 62
4
 10
-1.68888580E+01
 20
2.86965480E+02
  0
VERTEX
  8
0
 62
4
 10
-1.66269617E+01
 20
2.87024096E+02
  0
VERTEX
  8
0
 62
4
 10
-1.63801461E+01
 20
2.87091272E+02
  0
VERTEX
  8
0
 62
4
 10
-1.61503984E+01
 20
2.87166464E+02
  0
VERTEX
  8
0
 62
4
 10
-1.59395684E+01
 20
2.87249069E+02
  0
VERTEX
  8
0
 62
4
 10
-1.57493536E+01
 20
2.87338421E+02
  0
VERTEX
  8
0
 62
4
 10
-1.55812855E+01
 20
2.87433800E+02
  0
VERTEX
  8
0
 62
4
 10
-1.54367173E+01
 20
2.87534440E+02
  0
VERTEX
  8
0
 62
4
 10
-1.53168128E+01
 20
2.87639528E+02
  0
VERTEX
  8
0
 62
4
 10
-1.52225377E+01
 20
2.87748220E+02
  0
VERTEX
  8
0
 62
4
 10
-1.51546508E+01
 20
2.87859640E+02
  0
VERTEX
  8
0
 62
4
 10
-1.51136988E+01
 20
2.87972891E+02
  0
VERTEX
  8
0
 62
4
 10
-1.51000114E+01
 20
2.88087061E+02
  0
SEQEND
  8
0
  0
LINE
  8
0
 62
4
 10
-2.19000114E+01
 20
2.88517074E+02
 11
-2.19000114E+01
 21
2.87039343E+02
  0
ARC
  8
0
 62
4
 10
-2.09000118E+01
 20
2.88517074E+02
 40
1.00000000E+00
 50
1.02827510E+02
 51
1.80000000E+02
  0
ARC
  8
0
 62
4
 10
-1.61000111E+01
 20
2.88517074E+02
 40
1.00000000E+00
 50
3.60000000E+02
 51
7.71724899E+01
  0
ARC
  8
0
 62
4
 10
-1.31126266E+01
 20
2.74760319E+02
 40
1.54729912E+01
 50
1.03783165E+02
 51
1.17543924E+02
  0
ARC
  8
0
 62
4
 10
-2.38873967E+01
 20
2.74760318E+02
 40
1.54729926E+01
 50
6.24560769E+01
 51
7.62168346E+01
  0
LINE
  8
0
 62
4
 10
-2.23000114E+01
 20
2.86112159E+02
 11
-2.23000114E+01
 21
2.87039343E+02
  0
LINE
  8
0
 62
4
 10
-1.47000114E+01
 20
2.86112159E+02
 11
-1.47000114E+01
 21
2.87039343E+02
  0
POLYLINE
  8
0
 62
4
 66
1
  0
VERTEX
  8
0
 62
4
 10
-2.23000114E+01
 20
2.86112159E+02
  0
VERTEX
  8
0
 62
4
 10
-2.22847137E+01
 20
2.85984557E+02
  0
VERTEX
  8
0
 62
4
 10
-2.22389438E+01
 20
2.85857982E+02
  0
VERTEX
  8
0
 62
4
 10
-2.21630703E+01
 20
2.85733454E+02
  0
VERTEX
  8
0
 62
4
 10
-2.20577039E+01
 20
2.85611975E+02
  0
VERTEX
  8
0
 62
4
 10
-2.19236931E+01
 20
2.85494523E+02
  0
VERTEX
  8
0
 62
4
 10
-2.17621168E+01
 20
2.85382044E+02
  0
VERTEX
  8
0
 62
4
 10
-2.15742760E+01
 20
2.85275444E+02
  0
VERTEX
  8
0
 62
4
 10
-2.13616830E+01
 20
2.85175580E+02
  0
VERTEX
  8
0
 62
4
 10
-2.11260495E+01
 20
2.85083257E+02
  0
VERTEX
  8
0
 62
4
 10
-2.08692727E+01
 20
2.84999218E+02
  0
VERTEX
  8
0
 62
4
 10
-2.05934199E+01
 20
2.84924140E+02
  0
VERTEX
  8
0
 62
4
 10
-2.03007123E+01
 20
2.84858627E+02
  0
VERTEX
  8
0
 62
4
 10
-1.99935065E+01
 20
2.84803207E+02
  0
VERTEX
  8
0
 62
4
 10
-1.96742760E+01
 20
2.84758325E+02
  0
VERTEX
  8
0
 62
4
 10
-1.93455910E+01
 20
2.84724344E+02
  0
VERTEX
  8
0
 62
4
 10
-1.90100978E+01
 20
2.84701537E+02
  0
VERTEX
  8
0
 62
4
 10
-1.86704978E+01
 20
2.84690087E+02
  0
VERTEX
  8
0
 62
4
 10
-1.83295251E+01
 20
2.84690087E+02
  0
VERTEX
  8
0
 62
4
 10
-1.79899250E+01
 20
2.84701537E+02
  0
VERTEX
  8
0
 62
4
 10
-1.76544319E+01
 20
2.84724344E+02
  0
VERTEX
  8
0
 62
4
 10
-1.73257468E+01
 20
2.84758325E+02
  0
VERTEX
  8
0
 62
4
 10
-1.70065163E+01
 20
2.84803207E+02
  0
VERTEX
  8
0
 62
4
 10
-1.66993105E+01
 20
2.84858627E+02
  0
VERTEX
  8
0
 62
4
 10
-1.64066029E+01
 20
2.84924140E+02
  0
VERTEX
  8
0
 62
4
 10
-1.61307502E+01
 20
2.84999218E+02
  0
VERTEX
  8
0
 62
4
 10
-1.58739734E+01
 20
2.85083257E+02
  0
VERTEX
  8
0
 62
4
 10
-1.56383398E+01
 20
2.85175580E+02
  0
VERTEX
  8
0
 62
4
 10
-1.54257468E+01
 20
2.85275444E+02
  0
VERTEX
  8
0
 62
4
 10
-1.52379060E+01
 20
2.85382044E+02
  0
VERTEX
  8
0
 62
4
 10
-1.50763297E+01
 20
2.85494523E+02
  0
VERTEX
  8
0
 62
4
 10
-1.49423189E+01
 20
2.85611975E+02
  0
VERTEX
  8
0
 62
4
 10
-1.48369525E+01
 20
2.85733454E+02
  0
VERTEX
  8
0
 62
4
 10
-1.47610790E+01
 20
2.85857982E+02
  0
VERTEX
  8
0
 62
4
 10
-1.47153091E+01
 20
2.85984557E+02
  0
VERTEX
  8
0
 62
4
 10
-1.47000114E+01
 20
2.86112159E+02
  0
SEQEND
  8
0
  0
POLYLINE
  8
0
 62
4
 66
1
  0
VERTEX
  8
0
 62
4
 10
-2.19000114E+01
 20
2.87675071E+02
  0
VERTEX
  8
0
 62
4
 10
-2.20365931E+01
 20
2.87560112E+02
  0
VERTEX
  8
0
 62
4
 10
-2.21455409E+01
 20
2.87441084E+02
  0
VERTEX
  8
0
 62
4
 10
-2.22260037E+01
 20
2.87318916E+02
  0
VERTEX
  8
0
 62
4
 10
-2.22773527E+01
 20
2.87194564E+02
  0
VERTEX
  8
0
 62
4
 10
-2.22991867E+01
 20
2.87068999E+02
  0
VERTEX
  8
0
 62
4
 10
-2.22913350E+01
 20
2.86943203E+02
  0
VERTEX
  8
0
 62
4
 10
-2.22538590E+01
 20
2.86818158E+02
  0
VERTEX
  8
0
 62
4
 10
-2.21870516E+01
 20
2.86694840E+02
  0
VERTEX
  8
0
 62
4
 10
-2.20914348E+01
 20
2.86574215E+02
  0
VERTEX
  8
0
 62
4
 10
-2.19677556E+01
 20
2.86457224E+02
  0
VERTEX
  8
0
 62
4
 10
-2.18169805E+01
 20
2.86344782E+02
  0
VERTEX
  8
0
 62
4
 10
-2.16402876E+01
 20
2.86237767E+02
  0
VERTEX
  8
0
 62
4
 10
-2.14390576E+01
 20
2.86137015E+02
  0
VERTEX
  8
0
 62
4
 10
-2.12148626E+01
 20
2.86043313E+02
  0
VERTEX
  8
0
 62
4
 10
-2.09694547E+01
 20
2.85957394E+02
  0
VERTEX
  8
0
 62
4
 10
-2.07047512E+01
 20
2.85879930E+02
  0
VERTEX
  8
0
 62
4
 10
-2.04228206E+01
 20
2.85811524E+02
  0
VERTEX
  8
0
 62
4
 10
-2.01258657E+01
 20
2.85752713E+02
  0
VERTEX
  8
0
 62
4
 10
-1.98162068E+01
 20
2.85703954E+02
  0
VERTEX
  8
0
 62
4
 10
-1.94962636E+01
 20
2.85665630E+02
  0
VERTEX
  8
0
 62
4
 10
-1.91685360E+01
 20
2.85638040E+02
  0
VERTEX
  8
0
 62
4
 10
-1.88355847E+01
 20
2.85621399E+02
  0
VERTEX
  8
0
 62
4
 10
-1.85000114E+01
 20
2.85615838E+02
  0
VERTEX
  8
0
 62
4
 10
-1.81644380E+01
 20
2.85621399E+02
  0
VERTEX
  8
0
 62
4
 10
-1.78314868E+01
 20
2.85638040E+02
  0
VERTEX
  8
0
 62
4
 10
-1.75037591E+01
 20
2.85665630E+02
  0
VERTEX
  8
0
 62
4
 10
-1.71838159E+01
 20
2.85703954E+02
  0
VERTEX
  8
0
 62
4
 10
-1.68741571E+01
 20
2.85752713E+02
  0
VERTEX
  8
0
 62
4
 10
-1.65772022E+01
 20
2.85811524E+02
  0
VERTEX
  8
0
 62
4
 10
-1.62952715E+01
 20
2.85879930E+02
  0
VERTEX
  8
0
 62
4
 10
-1.60305681E+01
 20
2.85957394E+02
  0
VERTEX
  8
0
 62
4
 10
-1.57851601E+01
 20
2.86043313E+02
  0
VERTEX
  8
0
 62
4
 10
-1.55609652E+01
 20
2.86137015E+02
  0
VERTEX
  8
0
 62
4
 10
-1.53597351E+01
 20
2.86237767E+02
  0
VERTEX
  8
0
 62
4
 10
-1.51830422E+01
 20
2.86344782E+02
  0
VERTEX
  8
0
 62
4
 10
-1.50322672E+01
 20
2.86457224E+02
  0
VERTEX
  8
0
 62
4
 10
-1.49085880E+01
 20
2.86574215E+02
  0
VERTEX
  8
0
 62
4
 10
-1.48129712E+01
 20
2.86694840E+02
  0
VERTEX
  8
0
 62
4
 10
-1.47461638E+01
 20
2.86818158E+02
  0
VERTEX
  8
0
 62
4
 10
-1.47086878E+01
 20
2.86943203E+02
  0
VERTEX
  8
0
 62
4
 10
-1.47008362E+01
 20
2.87068999E+02
  0
VERTEX
  8
0
 62
4
 10
-1.47226701E+01
 20
2.87194564E+02
  0
VERTEX
  8
0
 62
4
 10
-1.47740191E+01
 20
2.87318916E+02
  0
VERTEX
  8
0
 62
4
 10
-1.48544819E+01
 20
2.87441084E+02
  0
VERTEX
  8
0
 62
4
 10
-1.49634297E+01
 20
2.87560112E+02
  0
VERTEX
  8
0
 62
4
 10
-1.51000114E+01
 20
2.87675071E+02
  0
SEQEND
  8
0
  0
ARC
  8
0
 62
4
 10
-1.85000114E+01
 20
2.82621523E+02
 40
7.36533796E+00
 50
6.78494174E+01
 51
1.12150583E+02
  0
LINE
  8
0
  6
CENTER
 62
6
 10
-1.00001144E+00
 20
2.86112159E+02
 11
-6.00001144E+00
 21
2.86112159E+02
  0
LINE
  8
0
  6
CENTER
 62
6
 10
-1.10000114E+01
 20
2.84923282E+02
 11
-1.10000114E+01
 21
2.89923282E+02
  0
LINE
  8
0
  6
CENTER
 62
6
 10
-8.50001144E+00
 20
2.87423282E+02
 11
-1.35000114E+01
 21
2.87423282E+02
  0
LINE
  8
0
  6
CENTER
 62
6
 10
-1.85000114E+01
 20
2.83612159E+02
 11
-1.85000114E+01
 21
2.88612159E+02
  0
LINE
  8
0
  6
CENTER
 62
6
 10
-1.60000114E+01
 20
2.86112159E+02
 11
-2.10000114E+01
 21
2.86112159E+02
  0
LINE
  8
0
 62
4
 10
-1.41487561E+01
 20
2.90420135E+02
 11
-2.60000114E+01
 21
2.90420135E+02
  0
LINE
  8
0
 62
4
 10
3.99998856E+00
 20
2.84986343E+02
 11
5.49998856E+00
 21
2.86114264E+02
  0
LINE
  8
0
 62
4
 10
5.49998856E+00
 20
2.88214336E+02
 11
3.99998856E+00
 21
2.88695078E+02
  0
LINE
  8
0
 62
4
 10
5.49998856E+00
 20
2.89062820E+02
 11
3.99998856E+00
 21
2.90193504E+02
  0
LINE
  8
0
 62
4
 10
3.99998856E+00
 20
2.88695078E+02
 11
-6.85001144E+00
 21
2.88695078E+02
  0
LINE
  8
0
 62
4
 10
3.99998856E+00
 20
2.90193504E+02
 11
-7.41957783E+00
 21
2.90193504E+02
  0
LINE
  8
0
 62
4
 10
3.99998856E+00
 20
2.88322338E+02
 11
-6.85001144E+00
 21
2.88322338E+02
  0
LINE
  8
0
 62
4
 10
-2.10000114E+01
 20
2.90045528E+02
 11
-2.60000114E+01
 21
2.90045528E+02
  0
LINE
  8
0
 62
4
 10
-2.19000114E+01
 20
2.88322338E+02
 11
-2.60000114E+01
 21
2.88322338E+02
  0
LINE
  8
0
 62
4
 10
-1.45804451E+01
 20
2.90193504E+02
 11
-2.10000114E+01
 21
2.90193504E+02
  0
LINE
  8
0
 62
4
 10
3.99998856E+00
 20
2.90193504E+02
 11
3.99998856E+00
 21
2.90420135E+02
  0
LINE
  8
0
 62
4
 10
3.99998856E+00
 20
2.88322338E+02
 11
3.99998856E+00
 21
2.90193504E+02
  0
LINE
  8
0
 62
6
 10
-6.79999885E+01
 20
3.53335383E+02
 11
-6.79999885E+01
 21
3.51968055E+02
  0
LINE
  8
0
 62
6
 10
-6.49999885E+01
 20
3.53335383E+02
 11
-6.49999885E+01
 21
3.51968055E+02
  0
LINE
  8
0
 62
4
 10
-6.84999885E+01
 20
3.52839825E+02
 11
-6.84999885E+01
 21
3.51968055E+02
  0
LINE
  8
0
 62
4
 10
-6.44999885E+01
 20
3.52839825E+02
 11
-6.44999885E+01
 21
3.51968055E+02
  0
LINE
  8
0
 62
4
 10
-6.99999886E+01
 20
3.51968055E+02
 11
-6.99999886E+01
 21
3.38123549E+02
  0
LINE
  8
0
 62
4
 10
-5.49999886E+01
 20
3.51968055E+02
 11
-5.49999886E+01
 21
3.22579850E+02
  0
LINE
  8
0
  6
CENTER
 62
6
 10
-5.84999885E+01
 20
3.56765579E+02
 11
-5.84999885E+01
 21
3.46500000E+02
  0
LINE
  8
0
  6
CENTER
 62
6
 10
-6.64999885E+01
 20
3.56765579E+02
 11
-6.64999885E+01
 21
3.46500000E+02
  0
LINE
  8
0
  6
CENTER
 62
6
 10
-7.74999886E+01
 20
3.29387826E+02
 11
-7.74999886E+01
 21
3.24387826E+02
  0
LINE
  8
0
 62
4
 10
-5.99999886E+01
 20
3.22806480E+02
 11
-5.99999886E+01
 21
3.23450388E+02
  0
LINE
  8
0
 62
4
 10
-8.49999886E+01
 20
3.38123549E+02
 11
-8.49999886E+01
 21
3.24677647E+02
  0
LINE
  8
0
 62
4
 10
-6.14999886E+01
 20
3.22806480E+02
 11
-6.14999886E+01
 21
3.23081325E+02
  0
LINE
  8
0
 62
4
 10
-8.64999886E+01
 20
3.26885720E+02
 11
-8.64999886E+01
 21
3.23937165E+02
  0
LINE
  8
0
 62
4
 10
-6.99999886E+01
 20
3.51968055E+02
 11
-5.49999886E+01
 21
3.51968055E+02
  0
LINE
  8
0
 62
4
 10
-6.99999886E+01
 20
3.44613836E+02
 11
-5.49999886E+01
 21
3.44613836E+02
  0
LINE
  8
0
 62
4
 10
-8.49999886E+01
 20
3.38123549E+02
 11
-5.49999886E+01
 21
3.38123549E+02
  0
LINE
  8
0
 62
4
 10
-8.49999886E+01
 20
3.28573555E+02
 11
-5.49999886E+01
 21
3.28573555E+02
  0
LINE
  8
0
 62
4
 10
-8.49999886E+01
 20
3.22579850E+02
 11
-7.31487332E+01
 21
3.22579850E+02
  0
POLYLINE
  8
0
 62
4
 66
1
  0
VERTEX
  8
0
 62
4
 10
-6.44999885E+01
 20
3.52839825E+02
  0
VERTEX
  8
0
 62
4
 10
-6.45080399E+01
 20
3.52906984E+02
  0
VERTEX
  8
0
 62
4
 10
-6.45321293E+01
 20
3.52973602E+02
  0
VERTEX
  8
0
 62
4
 10
-6.45720628E+01
 20
3.53039143E+02
  0
VERTEX
  8
0
 62
4
 10
-6.46275188E+01
 20
3.53103080E+02
  0
VERTEX
  8
0
 62
4
 10
-6.46980508E+01
 20
3.53164896E+02
  0
VERTEX
  8
0
 62
4
 10
-6.47830909E+01
 20
3.53224096E+02
  0
VERTEX
  8
0
 62
4
 10
-6.48819545E+01
 20
3.53280201E+02
  0
VERTEX
  8
0
 62
4
 10
-6.49938456E+01
 20
3.53332761E+02
  0
VERTEX
  8
0
 62
4
 10
-6.51178632E+01
 20
3.53381352E+02
  0
VERTEX
  8
0
 62
4
 10
-6.52530089E+01
 20
3.53425583E+02
  0
VERTEX
  8
0
 62
4
 10
-6.53981945E+01
 20
3.53465098E+02
  0
VERTEX
  8
0
 62
4
 10
-6.55522512E+01
 20
3.53499579E+02
  0
VERTEX
  8
0
 62
4
 10
-6.57139384E+01
 20
3.53528747E+02
  0
VERTEX
  8
0
 62
4
 10
-6.58819545E+01
 20
3.53552369E+02
  0
VERTEX
  8
0
 62
4
 10
-6.60549466E+01
 20
3.53570254E+02
  0
VERTEX
  8
0
 62
4
 10
-6.62315220E+01
 20
3.53582258E+02
  0
VERTEX
  8
0
 62
4
 10
-6.64102588E+01
 20
3.53588284E+02
  0
VERTEX
  8
0
 62
4
 10
-6.65897181E+01
 20
3.53588284E+02
  0
VERTEX
  8
0
 62
4
 10
-6.67684550E+01
 20
3.53582258E+02
  0
VERTEX
  8
0
 62
4
 10
-6.69450304E+01
 20
3.53570254E+02
  0
VERTEX
  8
0
 62
4
 10
-6.71180225E+01
 20
3.53552369E+02
  0
VERTEX
  8
0
 62
4
 10
-6.72860386E+01
 20
3.53528747E+02
  0
VERTEX
  8
0
 62
4
 10
-6.74477258E+01
 20
3.53499579E+02
  0
VERTEX
  8
0
 62
4
 10
-6.76017825E+01
 20
3.53465098E+02
  0
VERTEX
  8
0
 62
4
 10
-6.77469681E+01
 20
3.53425583E+02
  0
VERTEX
  8
0
 62
4
 10
-6.78821138E+01
 20
3.53381352E+02
  0
VERTEX
  8
0
 62
4
 10
-6.80061314E+01
 20
3.53332761E+02
  0
VERTEX
  8
0
 62
4
 10
-6.81180225E+01
 20
3.53280201E+02
  0
VERTEX
  8
0
 62
4
 10
-6.82168861E+01
 20
3.53224096E+02
  0
VERTEX
  8
0
 62
4
 10
-6.83019262E+01
 20
3.53164896E+02
  0
VERTEX
  8
0
 62
4
 10
-6.83724582E+01
 20
3.53103080E+02
  0
VERTEX
  8
0
 62
4
 10
-6.84279142E+01
 20
3.53039143E+02
  0
VERTEX
  8
0
 62
4
 10
-6.84678477E+01
 20
3.52973602E+02
  0
VERTEX
  8
0
 62
4
 10
-6.84919371E+01
 20
3.52906984E+02
  0
VERTEX
  8
0
 62
4
 10
-6.84999885E+01
 20
3.52839825E+02
  0
SEQEND
  8
0
  0
LINE
  8
0
 62
6
 10
-5.69999885E+01
 20
3.53335383E+02
 11
-5.69999885E+01
 21
3.51968055E+02
  0
LINE
  8
0
 62
4
 10
-5.64999885E+01
 20
3.52839825E+02
 11
-5.64999885E+01
 21
3.51968055E+02
  0
POLYLINE
  8
0
 62
4
 66
1
  0
VERTEX
  8
0
 62
4
 10
-5.64999885E+01
 20
3.52839825E+02
  0
VERTEX
  8
0
 62
4
 10
-5.65080399E+01
 20
3.52906984E+02
  0
VERTEX
  8
0
 62
4
 10
-5.65321293E+01
 20
3.52973602E+02
  0
VERTEX
  8
0
 62
4
 10
-5.65720628E+01
 20
3.53039143E+02
  0
VERTEX
  8
0
 62
4
 10
-5.66275188E+01
 20
3.53103080E+02
  0
VERTEX
  8
0
 62
4
 10
-5.66980508E+01
 20
3.53164896E+02
  0
VERTEX
  8
0
 62
4
 10
-5.67830909E+01
 20
3.53224096E+02
  0
VERTEX
  8
0
 62
4
 10
-5.68819545E+01
 20
3.53280201E+02
  0
VERTEX
  8
0
 62
4
 10
-5.69938456E+01
 20
3.53332761E+02
  0
VERTEX
  8
0
 62
4
 10
-5.71178632E+01
 20
3.53381352E+02
  0
VERTEX
  8
0
 62
4
 10
-5.72530089E+01
 20
3.53425583E+02
  0
VERTEX
  8
0
 62
4
 10
-5.73981945E+01
 20
3.53465098E+02
  0
VERTEX
  8
0
 62
4
 10
-5.75522512E+01
 20
3.53499579E+02
  0
VERTEX
  8
0
 62
4
 10
-5.77139384E+01
 20
3.53528747E+02
  0
VERTEX
  8
0
 62
4
 10
-5.78819545E+01
 20
3.53552369E+02
  0
VERTEX
  8
0
 62
4
 10
-5.80549466E+01
 20
3.53570254E+02
  0
VERTEX
  8
0
 62
4
 10
-5.82315220E+01
 20
3.53582258E+02
  0
VERTEX
  8
0
 62
4
 10
-5.84102588E+01
 20
3.53588284E+02
  0
VERTEX
  8
0
 62
4
 10
-5.85897181E+01
 20
3.53588284E+02
  0
VERTEX
  8
0
 62
4
 10
-5.87684550E+01
 20
3.53582258E+02
  0
VERTEX
  8
0
 62
4
 10
-5.89450304E+01
 20
3.53570254E+02
  0
VERTEX
  8
0
 62
4
 10
-5.91180225E+01
 20
3.53552369E+02
  0
VERTEX
  8
0
 62
4
 10
-5.92860386E+01
 20
3.53528747E+02
  0
VERTEX
  8
0
 62
4
 10
-5.94477258E+01
 20
3.53499579E+02
  0
VERTEX
  8
0
 62
4
 10
-5.96017825E+01
 20
3.53465098E+02
  0
VERTEX
  8
0
 62
4
 10
-5.97469681E+01
 20
3.53425583E+02
  0
VERTEX
  8
0
 62
4
 10
-5.98821138E+01
 20
3.53381352E+02
  0
VERTEX
  8
0
 62
4
 10
-6.00061314E+01
 20
3.53332761E+02
  0
VERTEX
  8
0
 62
4
 10
-6.01180225E+01
 20
3.53280201E+02
  0
VERTEX
  8
0
 62
4
 10
-6.02168861E+01
 20
3.53224096E+02
  0
VERTEX
  8
0
 62
4
 10
-6.03019262E+01
 20
3.53164896E+02
  0
VERTEX
  8
0
 62
4
 10
-6.03724582E+01
 20
3.53103080E+02
  0
VERTEX
  8
0
 62
4
 10
-6.04279142E+01
 20
3.53039143E+02
  0
VERTEX
  8
0
 62
4
 10
-6.04678477E+01
 20
3.52973602E+02
  0
VERTEX
  8
0
 62
4
 10
-6.04919371E+01
 20
3.52906984E+02
  0
VERTEX
  8
0
 62
4
 10
-6.04999885E+01
 20
3.52839825E+02
  0
SEQEND
  8
0
  0
LINE
  8
0
 62
6
 10
-5.99999885E+01
 20
3.53335383E+02
 11
-5.99999885E+01
 21
3.51968055E+02
  0
LINE
  8
0
 62
4
 10
-6.04999885E+01
 20
3.52839825E+02
 11
-6.04999885E+01
 21
3.51968055E+02
  0
LINE
  8
0
 62
4
 10
-6.58499886E+01
 20
3.24170660E+02
 11
-6.58499886E+01
 21
3.23592529E+02
  0
LINE
  8
0
 62
4
 10
-7.41499886E+01
 20
3.25224373E+02
 11
-7.41499886E+01
 21
3.23592529E+02
  0
POLYLINE
  8
0
 62
4
 66
1
  0
VERTEX
  8
0
 62
4
 10
-6.62989705E+01
 20
3.25927693E+02
  0
VERTEX
  8
0
 62
4
 10
-6.64806509E+01
 20
3.26048232E+02
  0
VERTEX
  8
0
 62
4
 10
-6.66902340E+01
 20
3.26162239E+02
  0
VERTEX
  8
0
 62
4
 10
-6.69260581E+01
 20
3.26268810E+02
  0
VERTEX
  8
0
 62
4
 10
-6.71862536E+01
 20
3.26367101E+02
  0
VERTEX
  8
0
 62
4
 10
-6.74687576E+01
 20
3.26456332E+02
  0
VERTEX
  8
0
 62
4
 10
-6.77713301E+01
 20
3.26535795E+02
  0
VERTEX
  8
0
 62
4
 10
-6.80915723E+01
 20
3.26604860E+02
  0
VERTEX
  8
0
 62
4
 10
-6.84269452E+01
 20
3.26662981E+02
  0
VERTEX
  8
0
 62
4
 10
-6.87747899E+01
 20
3.26709696E+02
  0
VERTEX
  8
0
 62
4
 10
-6.91323484E+01
 20
3.26744634E+02
  0
VERTEX
  8
0
 62
4
 10
-6.94967859E+01
 20
3.26767520E+02
  0
VERTEX
  8
0
 62
4
 10
-6.98652130E+01
 20
3.26778170E+02
  0
VERTEX
  8
0
 62
4
 10
-7.02347086E+01
 20
3.26776502E+02
  0
VERTEX
  8
0
 62
4
 10
-7.06023433E+01
 20
3.26762527E+02
  0
VERTEX
  8
0
 62
4
 10
-7.09652023E+01
 20
3.26736358E+02
  0
VERTEX
  8
0
 62
4
 10
-7.13204087E+01
 20
3.26698201E+02
  0
VERTEX
  8
0
 62
4
 10
-7.16651462E+01
 20
3.26648359E+02
  0
VERTEX
  8
0
 62
4
 10
-7.19966818E+01
 20
3.26587226E+02
  0
VERTEX
  8
0
 62
4
 10
-7.23123867E+01
 20
3.26515289E+02
  0
VERTEX
  8
0
 62
4
 10
-7.26097580E+01
 20
3.26433117E+02
  0
VERTEX
  8
0
 62
4
 10
-7.28864381E+01
 20
3.26341361E+02
  0
VERTEX
  8
0
 62
4
 10
-7.31402332E+01
 20
3.26240749E+02
  0
VERTEX
  8
0
 62
4
 10
-7.33691312E+01
 20
3.26132080E+02
  0
VERTEX
  8
0
 62
4
 10
-7.35713173E+01
 20
3.26016213E+02
  0
VERTEX
  8
0
 62
4
 10
-7.37451884E+01
 20
3.25894068E+02
  0
VERTEX
  8
0
 62
4
 10
-7.38893661E+01
 20
3.25766614E+02
  0
VERTEX
  8
0
 62
4
 10
-7.40027073E+01
 20
3.25634861E+02
  0
VERTEX
  8
0
 62
4
 10
-7.40843133E+01
 20
3.25499853E+02
  0
VERTEX
  8
0
 62
4
 10
-7.41335372E+01
 20
3.25362661E+02
  0
VERTEX
  8
0
 62
4
 10
-7.41499886E+01
 20
3.25224373E+02
  0
SEQEND
  8
0
  0
POLYLINE
  8
0
 62
4
 66
1
  0
VERTEX
  8
0
 62
4
 10
-7.41499886E+01
 20
3.23592529E+02
  0
VERTEX
  8
0
 62
4
 10
-7.41341966E+01
 20
3.23457035E+02
  0
VERTEX
  8
0
 62
4
 10
-7.40869408E+01
 20
3.23322573E+02
  0
VERTEX
  8
0
 62
4
 10
-7.40085808E+01
 20
3.23190164E+02
  0
VERTEX
  8
0
 62
4
 10
-7.38997130E+01
 20
3.23060819E+02
  0
VERTEX
  8
0
 62
4
 10
-7.37611659E+01
 20
3.22935519E+02
  0
VERTEX
  8
0
 62
4
 10
-7.35939940E+01
 20
3.22815220E+02
  0
VERTEX
  8
0
 62
4
 10
-7.33994696E+01
 20
3.22700837E+02
  0
VERTEX
  8
0
 62
4
 10
-7.31790730E+01
 20
3.22593240E+02
  0
VERTEX
  8
0
 62
4
 10
-7.29344817E+01
 20
3.22493249E+02
  0
VERTEX
  8
0
 62
4
 10
-7.26675572E+01
 20
3.22401623E+02
  0
VERTEX
  8
0
 62
4
 10
-7.23803308E+01
 20
3.22319061E+02
  0
VERTEX
  8
0
 62
4
 10
-7.20749886E+01
 20
3.22246191E+02
  0
VERTEX
  8
0
 62
4
 10
-7.17538544E+01
 20
3.22183567E+02
  0
VERTEX
  8
0
 62
4
 10
-7.14193722E+01
 20
3.22131667E+02
  0
VERTEX
  8
0
 62
4
 10
-7.10740876E+01
 20
3.22090884E+02
  0
VERTEX
  8
0
 62
4
 10
-7.07206285E+01
 20
3.22061530E+02
  0
VERTEX
  8
0
 62
4
 10
-7.03616849E+01
 20
3.22043827E+02
  0
VERTEX
  8
0
 62
4
 10
-6.99999886E+01
 20
3.22037912E+02
  0
VERTEX
  8
0
 62
4
 10
-6.96382923E+01
 20
3.22043827E+02
  0
VERTEX
  8
0
 62
4
 10
-6.92793487E+01
 20
3.22061530E+02
  0
VERTEX
  8
0
 62
4
 10
-6.89258896E+01
 20
3.22090884E+02
  0
VERTEX
  8
0
 62
4
 10
-6.85806050E+01
 20
3.22131667E+02
  0
VERTEX
  8
0
 62
4
 10
-6.82461228E+01
 20
3.22183567E+02
  0
VERTEX
  8
0
 62
4
 10
-6.79249886E+01
 20
3.22246191E+02
  0
VERTEX
  8
0
 62
4
 10
-6.76196464E+01
 20
3.22319061E+02
  0
VERTEX
  8
0
 62
4
 10
-6.73324200E+01
 20
3.22401623E+02
  0
VERTEX
  8
0
 62
4
 10
-6.70654955E+01
 20
3.22493249E+02
  0
VERTEX
  8
0
 62
4
 10
-6.68209042E+01
 20
3.22593240E+02
  0
VERTEX
  8
0
 62
4
 10
-6.66005076E+01
 20
3.22700837E+02
  0
VERTEX
  8
0
 62
4
 10
-6.64059832E+01
 20
3.22815220E+02
  0
VERTEX
  8
0
 62
4
 10
-6.62388113E+01
 20
3.22935519E+02
  0
VERTEX
  8
0
 62
4
 10
-6.61002642E+01
 20
3.23060819E+02
  0
VERTEX
  8
0
 62
4
 10
-6.59913964E+01
 20
3.23190164E+02
  0
VERTEX
  8
0
 62
4
 10
-6.59130364E+01
 20
3.23322573E+02
  0
VERTEX
  8
0
 62
4
 10
-6.58657806E+01
 20
3.23457035E+02
  0
VERTEX
  8
0
 62
4
 10
-6.58499886E+01
 20
3.23592529E+02
  0
VERTEX
  8
0
 62
4
 10
-6.58657806E+01
 20
3.23728023E+02
  0
VERTEX
  8
0
 62
4
 10
-6.59130364E+01
 20
3.23862485E+02
  0
VERTEX
  8
0
 62
4
 10
-6.59913964E+01
 20
3.23994894E+02
  0
VERTEX
  8
0
 62
4
 10
-6.61002642E+01
 20
3.24124239E+02
  0
VERTEX
  8
0
 62
4
 10
-6.62388113E+01
 20
3.24249539E+02
  0
VERTEX
  8
0
 62
4
 10
-6.64059832E+01
 20
3.24369838E+02
  0
VERTEX
  8
0
 62
4
 10
-6.66005076E+01
 20
3.24484221E+02
  0
VERTEX
  8
0
 62
4
 10
-6.68209042E+01
 20
3.24591818E+02
  0
VERTEX
  8
0
 62
4
 10
-6.70654955E+01
 20
3.24691809E+02
  0
VERTEX
  8
0
 62
4
 10
-6.73324200E+01
 20
3.24783435E+02
  0
VERTEX
  8
0
 62
4
 10
-6.76196464E+01
 20
3.24865997E+02
  0
VERTEX
  8
0
 62
4
 10
-6.79249886E+01
 20
3.24938867E+02
  0
VERTEX
  8
0
 62
4
 10
-6.82461228E+01
 20
3.25001491E+02
  0
VERTEX
  8
0
 62
4
 10
-6.85806050E+01
 20
3.25053391E+02
  0
VERTEX
  8
0
 62
4
 10
-6.89258896E+01
 20
3.25094174E+02
  0
VERTEX
  8
0
 62
4
 10
-6.92793487E+01
 20
3.25123528E+02
  0
VERTEX
  8
0
 62
4
 10
-6.96382923E+01
 20
3.25141231E+02
  0
VERTEX
  8
0
 62
4
 10
-6.99999886E+01
 20
3.25147146E+02
  0
VERTEX
  8
0
 62
4
 10
-7.03616849E+01
 20
3.25141231E+02
  0
VERTEX
  8
0
 62
4
 10
-7.07206285E+01
 20
3.25123528E+02
  0
VERTEX
  8
0
 62
4
 10
-7.10740876E+01
 20
3.25094174E+02
  0
VERTEX
  8
0
 62
4
 10
-7.14193722E+01
 20
3.25053391E+02
  0
VERTEX
  8
0
 62
4
 10
-7.17538544E+01
 20
3.25001491E+02
  0
VERTEX
  8
0
 62
4
 10
-7.20749886E+01
 20
3.24938867E+02
  0
VERTEX
  8
0
 62
4
 10
-7.23803308E+01
 20
3.24865997E+02
  0
VERTEX
  8
0
 62
4
 10
-7.26675572E+01
 20
3.24783435E+02
  0
VERTEX
  8
0
 62
4
 10
-7.29344817E+01
 20
3.24691809E+02
  0
VERTEX
  8
0
 62
4
 10
-7.31790730E+01
 20
3.24591818E+02
  0
VERTEX
  8
0
 62
4
 10
-7.33994696E+01
 20
3.24484221E+02
  0
VERTEX
  8
0
 62
4
 10
-7.35939940E+01
 20
3.24369838E+02
  0
VERTEX
  8
0
 62
4
 10
-7.37611659E+01
 20
3.24249539E+02
  0
VERTEX
  8
0
 62
4
 10
-7.38997130E+01
 20
3.24124239E+02
  0
VERTEX
  8
0
 62
4
 10
-7.40085808E+01
 20
3.23994894E+02
  0
VERTEX
  8
0
 62
4
 10
-7.40869408E+01
 20
3.23862485E+02
  0
VERTEX
  8
0
 62
4
 10
-7.41341966E+01
 20
3.23728023E+02
  0
VERTEX
  8
0
 62
4
 10
-7.41499886E+01
 20
3.23592529E+02
  0
SEQEND
  8
0
  0
ARC
  8
0
 62
4
 10
-7.56166958E+01
 20
3.38012670E+02
 40
1.61228529E+01
 50
2.83811345E+02
 51
2.97258956E+02
  0
ARC
  8
0
 62
4
 10
-6.43832787E+01
 20
3.38012678E+02
 40
1.61228609E+01
 50
2.42741048E+02
 51
2.56188651E+02
  0
POLYLINE
  8
0
 62
4
 66
1
  0
VERTEX
  8
0
 62
4
 10
-6.62999886E+01
 20
3.26146056E+02
  0
VERTEX
  8
0
 62
4
 10
-6.64466312E+01
 20
3.26264762E+02
  0
VERTEX
  8
0
 62
4
 10
-6.66203499E+01
 20
3.26378225E+02
  0
VERTEX
  8
0
 62
4
 10
-6.68198210E+01
 20
3.26485580E+02
  0
VERTEX
  8
0
 62
4
 10
-6.70435246E+01
 20
3.26586010E+02
  0
VERTEX
  8
0
 62
4
 10
-6.72897562E+01
 20
3.26678750E+02
  0
VERTEX
  8
0
 62
4
 10
-6.75566393E+01
 20
3.26763091E+02
  0
VERTEX
  8
0
 62
4
 10
-6.78421405E+01
 20
3.26838393E+02
  0
VERTEX
  8
0
 62
4
 10
-6.81440842E+01
 20
3.26904081E+02
  0
VERTEX
  8
0
 62
4
 10
-6.84601697E+01
 20
3.26959654E+02
  0
VERTEX
  8
0
 62
4
 10
-6.87879884E+01
 20
3.27004689E+02
  0
VERTEX
  8
0
 62
4
 10
-6.91250424E+01
 20
3.27038843E+02
  0
VERTEX
  8
0
 62
4
 10
-6.94687634E+01
 20
3.27061856E+02
  0
VERTEX
  8
0
 62
4
 10
-6.98165323E+01
 20
3.27073553E+02
  0
VERTEX
  8
0
 62
4
 10
-7.01656991E+01
 20
3.27073843E+02
  0
VERTEX
  8
0
 62
4
 10
-7.05136032E+01
 20
3.27062725E+02
  0
VERTEX
  8
0
 62
4
 10
-7.08575936E+01
 20
3.27040284E+02
  0
VERTEX
  8
0
 62
4
 10
-7.11950491E+01
 20
3.27006691E+02
  0
VERTEX
  8
0
 62
4
 10
-7.15233985E+01
 20
3.26962202E+02
  0
VERTEX
  8
0
 62
4
 10
-7.18401396E+01
 20
3.26907155E+02
  0
VERTEX
  8
0
 62
4
 10
-7.21428590E+01
 20
3.26841970E+02
  0
VERTEX
  8
0
 62
4
 10
-7.24292500E+01
 20
3.26767144E+02
  0
VERTEX
  8
0
 62
4
 10
-7.26971304E+01
 20
3.26683247E+02
  0
VERTEX
  8
0
 62
4
 10
-7.29444588E+01
 20
3.26590918E+02
  0
VERTEX
  8
0
 62
4
 10
-7.31693508E+01
 20
3.26490862E+02
  0
VERTEX
  8
0
 62
4
 10
-7.33700926E+01
 20
3.26383839E+02
  0
VERTEX
  8
0
 62
4
 10
-7.35451546E+01
 20
3.26270666E+02
  0
VERTEX
  8
0
 62
4
 10
-7.36932029E+01
 20
3.26152205E+02
  0
VERTEX
  8
0
 62
4
 10
-7.38131093E+01
 20
3.26029359E+02
  0
VERTEX
  8
0
 62
4
 10
-7.39039602E+01
 20
3.25903064E+02
  0
VERTEX
  8
0
 62
4
 10
-7.39650634E+01
 20
3.25774282E+02
  0
VERTEX
  8
0
 62
4
 10
-7.39959532E+01
 20
3.25643994E+02
  0
SEQEND
  8
0
  0
LINE
  8
0
 62
4
 10
-6.58999886E+01
 20
3.25960642E+02
 11
-6.58999886E+01
 21
3.24482911E+02
  0
POLYLINE
  8
0
 62
4
 66
1
  0
VERTEX
  8
0
 62
4
 10
-5.90999886E+01
 20
3.25960642E+02
  0
VERTEX
  8
0
 62
4
 10
-5.91136760E+01
 20
3.26074812E+02
  0
VERTEX
  8
0
 62
4
 10
-5.91546280E+01
 20
3.26188063E+02
  0
VERTEX
  8
0
 62
4
 10
-5.92225149E+01
 20
3.26299483E+02
  0
VERTEX
  8
0
 62
4
 10
-5.93167900E+01
 20
3.26408175E+02
  0
VERTEX
  8
0
 62
4
 10
-5.94366944E+01
 20
3.26513263E+02
  0
VERTEX
  8
0
 62
4
 10
-5.95812627E+01
 20
3.26613903E+02
  0
VERTEX
  8
0
 62
4
 10
-5.97493308E+01
 20
3.26709282E+02
  0
VERTEX
  8
0
 62
4
 10
-5.99395456E+01
 20
3.26798634E+02
  0
VERTEX
  8
0
 62
4
 10
-6.01503756E+01
 20
3.26881239E+02
  0
VERTEX
  8
0
 62
4
 10
-6.03801233E+01
 20
3.26956431E+02
  0
VERTEX
  8
0
 62
4
 10
-6.06269388E+01
 20
3.27023607E+02
  0
VERTEX
  8
0
 62
4
 10
-6.08888351E+01
 20
3.27082223E+02
  0
VERTEX
  8
0
 62
4
 10
-6.11637035E+01
 20
3.27131810E+02
  0
VERTEX
  8
0
 62
4
 10
-6.14493308E+01
 20
3.27171967E+02
  0
VERTEX
  8
0
 62
4
 10
-6.17434174E+01
 20
3.27202371E+02
  0
VERTEX
  8
0
 62
4
 10
-6.20435955E+01
 20
3.27222777E+02
  0
VERTEX
  8
0
 62
4
 10
-6.23474482E+01
 20
3.27233022E+02
  0
VERTEX
  8
0
 62
4
 10
-6.26525290E+01
 20
3.27233022E+02
  0
VERTEX
  8
0
 62
4
 10
-6.29563817E+01
 20
3.27222777E+02
  0
VERTEX
  8
0
 62
4
 10
-6.32565598E+01
 20
3.27202371E+02
  0
VERTEX
  8
0
 62
4
 10
-6.35506464E+01
 20
3.27171967E+02
  0
VERTEX
  8
0
 62
4
 10
-6.38362737E+01
 20
3.27131810E+02
  0
VERTEX
  8
0
 62
4
 10
-6.41111420E+01
 20
3.27082223E+02
  0
VERTEX
  8
0
 62
4
 10
-6.43730383E+01
 20
3.27023607E+02
  0
VERTEX
  8
0
 62
4
 10
-6.46198539E+01
 20
3.26956431E+02
  0
VERTEX
  8
0
 62
4
 10
-6.48496016E+01
 20
3.26881239E+02
  0
VERTEX
  8
0
 62
4
 10
-6.50604316E+01
 20
3.26798634E+02
  0
VERTEX
  8
0
 62
4
 10
-6.52506464E+01
 20
3.26709282E+02
  0
VERTEX
  8
0
 62
4
 10
-6.54187145E+01
 20
3.26613903E+02
  0
VERTEX
  8
0
 62
4
 10
-6.55632827E+01
 20
3.26513263E+02
  0
VERTEX
  8
0
 62
4
 10
-6.56831872E+01
 20
3.26408175E+02
  0
VERTEX
  8
0
 62
4
 10
-6.57774623E+01
 20
3.26299483E+02
  0
VERTEX
  8
0
 62
4
 10
-6.58453492E+01
 20
3.26188063E+02
  0
VERTEX
  8
0
 62
4
 10
-6.58863012E+01
 20
3.26074812E+02
  0
VERTEX
  8
0
 62
4
 10
-6.58999886E+01
 20
3.25960642E+02
  0
SEQEND
  8
0
  0
POLYLINE
  8
0
 62
4
 66
1
  0
VERTEX
  8
0
 62
4
 10
-5.90999886E+01
 20
3.24912924E+02
  0
VERTEX
  8
0
 62
4
 10
-5.91136760E+01
 20
3.25027094E+02
  0
VERTEX
  8
0
 62
4
 10
-5.91546280E+01
 20
3.25140345E+02
  0
VERTEX
  8
0
 62
4
 10
-5.92225149E+01
 20
3.25251765E+02
  0
VERTEX
  8
0
 62
4
 10
-5.93167900E+01
 20
3.25360457E+02
  0
VERTEX
  8
0
 62
4
 10
-5.94366944E+01
 20
3.25465545E+02
  0
VERTEX
  8
0
 62
4
 10
-5.95812627E+01
 20
3.25566185E+02
  0
VERTEX
  8
0
 62
4
 10
-5.97493308E+01
 20
3.25661564E+02
  0
VERTEX
  8
0
 62
4
 10
-5.99395456E+01
 20
3.25750916E+02
  0
VERTEX
  8
0
 62
4
 10
-6.01503756E+01
 20
3.25833521E+02
  0
VERTEX
  8
0
 62
4
 10
-6.03801233E+01
 20
3.25908713E+02
  0
VERTEX
  8
0
 62
4
 10
-6.06269388E+01
 20
3.25975889E+02
  0
VERTEX
  8
0
 62
4
 10
-6.08888351E+01
 20
3.26034505E+02
  0
VERTEX
  8
0
 62
4
 10
-6.11637035E+01
 20
3.26084092E+02
  0
VERTEX
  8
0
 62
4
 10
-6.14493308E+01
 20
3.26124249E+02
  0
VERTEX
  8
0
 62
4
 10
-6.17434174E+01
 20
3.26154653E+02
  0
VERTEX
  8
0
 62
4
 10
-6.20435955E+01
 20
3.26175059E+02
  0
VERTEX
  8
0
 62
4
 10
-6.23474482E+01
 20
3.26185304E+02
  0
VERTEX
  8
0
 62
4
 10
-6.26525290E+01
 20
3.26185304E+02
  0
VERTEX
  8
0
 62
4
 10
-6.29563817E+01
 20
3.26175059E+02
  0
VERTEX
  8
0
 62
4
 10
-6.32565598E+01
 20
3.26154653E+02
  0
VERTEX
  8
0
 62
4
 10
-6.35506464E+01
 20
3.26124249E+02
  0
VERTEX
  8
0
 62
4
 10
-6.38362737E+01
 20
3.26084092E+02
  0
VERTEX
  8
0
 62
4
 10
-6.41111420E+01
 20
3.26034505E+02
  0
VERTEX
  8
0
 62
4
 10
-6.43730383E+01
 20
3.25975889E+02
  0
VERTEX
  8
0
 62
4
 10
-6.46198539E+01
 20
3.25908713E+02
  0
VERTEX
  8
0
 62
4
 10
-6.48496016E+01
 20
3.25833521E+02
  0
VERTEX
  8
0
 62
4
 10
-6.50604316E+01
 20
3.25750916E+02
  0
VERTEX
  8
0
 62
4
 10
-6.52506464E+01
 20
3.25661564E+02
  0
VERTEX
  8
0
 62
4
 10
-6.54187145E+01
 20
3.25566185E+02
  0
VERTEX
  8
0
 62
4
 10
-6.55632827E+01
 20
3.25465545E+02
  0
VERTEX
  8
0
 62
4
 10
-6.56831872E+01
 20
3.25360457E+02
  0
VERTEX
  8
0
 62
4
 10
-6.57774623E+01
 20
3.25251765E+02
  0
VERTEX
  8
0
 62
4
 10
-6.58453492E+01
 20
3.25140345E+02
  0
VERTEX
  8
0
 62
4
 10
-6.58863012E+01
 20
3.25027094E+02
  0
VERTEX
  8
0
 62
4
 10
-6.58999886E+01
 20
3.24912924E+02
  0
SEQEND
  8
0
  0
LINE
  8
0
 62
4
 10
-5.90999886E+01
 20
3.24482911E+02
 11
-5.90999886E+01
 21
3.25960642E+02
  0
ARC
  8
0
 62
4
 10
-6.00999882E+01
 20
3.24482911E+02
 40
1.00000000E+00
 50
2.82827510E+02
 51
0.00000000E+00
  0
ARC
  8
0
 62
4
 10
-6.48999889E+01
 20
3.24482911E+02
 40
1.00000000E+00
 50
1.80000000E+02
 51
2.57172490E+02
  0
ARC
  8
0
 62
4
 10
-6.78873734E+01
 20
3.38239665E+02
 40
1.54729912E+01
 50
2.83783165E+02
 51
2.97543924E+02
  0
ARC
  8
0
 62
4
 10
-5.71126033E+01
 20
3.38239667E+02
 40
1.54729926E+01
 50
2.42456077E+02
 51
2.56216834E+02
  0
LINE
  8
0
 62
4
 10
-5.86999886E+01
 20
3.26887826E+02
 11
-5.86999886E+01
 21
3.25960642E+02
  0
LINE
  8
0
 62
4
 10
-6.62999886E+01
 20
3.26887826E+02
 11
-6.62999886E+01
 21
3.25960642E+02
  0
POLYLINE
  8
0
 62
4
 66
1
  0
VERTEX
  8
0
 62
4
 10
-5.86999886E+01
 20
3.26887826E+02
  0
VERTEX
  8
0
 62
4
 10
-5.87152863E+01
 20
3.27015428E+02
  0
VERTEX
  8
0
 62
4
 10
-5.87610562E+01
 20
3.27142003E+02
  0
VERTEX
  8
0
 62
4
 10
-5.88369297E+01
 20
3.27266531E+02
  0
VERTEX
  8
0
 62
4
 10
-5.89422961E+01
 20
3.27388010E+02
  0
VERTEX
  8
0
 62
4
 10
-5.90763069E+01
 20
3.27505462E+02
  0
VERTEX
  8
0
 62
4
 10
-5.92378832E+01
 20
3.27617941E+02
  0
VERTEX
  8
0
 62
4
 10
-5.94257240E+01
 20
3.27724541E+02
  0
VERTEX
  8
0
 62
4
 10
-5.96383170E+01
 20
3.27824405E+02
  0
VERTEX
  8
0
 62
4
 10
-5.98739505E+01
 20
3.27916728E+02
  0
VERTEX
  8
0
 62
4
 10
-6.01307273E+01
 20
3.28000767E+02
  0
VERTEX
  8
0
 62
4
 10
-6.04065801E+01
 20
3.28075845E+02
  0
VERTEX
  8
0
 62
4
 10
-6.06992877E+01
 20
3.28141358E+02
  0
VERTEX
  8
0
 62
4
 10
-6.10064935E+01
 20
3.28196778E+02
  0
VERTEX
  8
0
 62
4
 10
-6.13257240E+01
 20
3.28241660E+02
  0
VERTEX
  8
0
 62
4
 10
-6.16544090E+01
 20
3.28275641E+02
  0
VERTEX
  8
0
 62
4
 10
-6.19899022E+01
 20
3.28298448E+02
  0
VERTEX
  8
0
 62
4
 10
-6.23295022E+01
 20
3.28309898E+02
  0
VERTEX
  8
0
 62
4
 10
-6.26704749E+01
 20
3.28309898E+02
  0
VERTEX
  8
0
 62
4
 10
-6.30100750E+01
 20
3.28298448E+02
  0
VERTEX
  8
0
 62
4
 10
-6.33455681E+01
 20
3.28275641E+02
  0
VERTEX
  8
0
 62
4
 10
-6.36742532E+01
 20
3.28241660E+02
  0
VERTEX
  8
0
 62
4
 10
-6.39934837E+01
 20
3.28196778E+02
  0
VERTEX
  8
0
 62
4
 10
-6.43006895E+01
 20
3.28141358E+02
  0
VERTEX
  8
0
 62
4
 10
-6.45933971E+01
 20
3.28075845E+02
  0
VERTEX
  8
0
 62
4
 10
-6.48692498E+01
 20
3.28000767E+02
  0
VERTEX
  8
0
 62
4
 10
-6.51260266E+01
 20
3.27916728E+02
  0
VERTEX
  8
0
 62
4
 10
-6.53616602E+01
 20
3.27824405E+02
  0
VERTEX
  8
0
 62
4
 10
-6.55742532E+01
 20
3.27724541E+02
  0
VERTEX
  8
0
 62
4
 10
-6.57620940E+01
 20
3.27617941E+02
  0
VERTEX
  8
0
 62
4
 10
-6.59236703E+01
 20
3.27505462E+02
  0
VERTEX
  8
0
 62
4
 10
-6.60576811E+01
 20
3.27388010E+02
  0
VERTEX
  8
0
 62
4
 10
-6.61630475E+01
 20
3.27266531E+02
  0
VERTEX
  8
0
 62
4
 10
-6.62389210E+01
 20
3.27142003E+02
  0
VERTEX
  8
0
 62
4
 10
-6.62846909E+01
 20
3.27015428E+02
  0
VERTEX
  8
0
 62
4
 10
-6.62999886E+01
 20
3.26887826E+02
  0
SEQEND
  8
0
  0
POLYLINE
  8
0
 62
4
 66
1
  0
VERTEX
  8
0
 62
4
 10
-5.90999886E+01
 20
3.25324914E+02
  0
VERTEX
  8
0
 62
4
 10
-5.89634069E+01
 20
3.25439873E+02
  0
VERTEX
  8
0
 62
4
 10
-5.88544591E+01
 20
3.25558901E+02
  0
VERTEX
  8
0
 62
4
 10
-5.87739963E+01
 20
3.25681069E+02
  0
VERTEX
  8
0
 62
4
 10
-5.87226473E+01
 20
3.25805421E+02
  0
VERTEX
  8
0
 62
4
 10
-5.87008133E+01
 20
3.25930986E+02
  0
VERTEX
  8
0
 62
4
 10
-5.87086650E+01
 20
3.26056782E+02
  0
VERTEX
  8
0
 62
4
 10
-5.87461410E+01
 20
3.26181827E+02
  0
VERTEX
  8
0
 62
4
 10
-5.88129484E+01
 20
3.26305145E+02
  0
VERTEX
  8
0
 62
4
 10
-5.89085652E+01
 20
3.26425770E+02
  0
VERTEX
  8
0
 62
4
 10
-5.90322444E+01
 20
3.26542761E+02
  0
VERTEX
  8
0
 62
4
 10
-5.91830195E+01
 20
3.26655203E+02
  0
VERTEX
  8
0
 62
4
 10
-5.93597124E+01
 20
3.26762218E+02
  0
VERTEX
  8
0
 62
4
 10
-5.95609424E+01
 20
3.26862970E+02
  0
VERTEX
  8
0
 62
4
 10
-5.97851374E+01
 20
3.26956672E+02
  0
VERTEX
  8
0
 62
4
 10
-6.00305453E+01
 20
3.27042591E+02
  0
VERTEX
  8
0
 62
4
 10
-6.02952488E+01
 20
3.27120055E+02
  0
VERTEX
  8
0
 62
4
 10
-6.05771794E+01
 20
3.27188461E+02
  0
VERTEX
  8
0
 62
4
 10
-6.08741343E+01
 20
3.27247272E+02
  0
VERTEX
  8
0
 62
4
 10
-6.11837932E+01
 20
3.27296031E+02
  0
VERTEX
  8
0
 62
4
 10
-6.15037364E+01
 20
3.27334355E+02
  0
VERTEX
  8
0
 62
4
 10
-6.18314640E+01
 20
3.27361945E+02
  0
VERTEX
  8
0
 62
4
 10
-6.21644153E+01
 20
3.27378586E+02
  0
VERTEX
  8
0
 62
4
 10
-6.24999886E+01
 20
3.27384147E+02
  0
VERTEX
  8
0
 62
4
 10
-6.28355620E+01
 20
3.27378586E+02
  0
VERTEX
  8
0
 62
4
 10
-6.31685132E+01
 20
3.27361945E+02
  0
VERTEX
  8
0
 62
4
 10
-6.34962409E+01
 20
3.27334355E+02
  0
VERTEX
  8
0
 62
4
 10
-6.38161841E+01
 20
3.27296031E+02
  0
VERTEX
  8
0
 62
4
 10
-6.41258429E+01
 20
3.27247272E+02
  0
VERTEX
  8
0
 62
4
 10
-6.44227978E+01
 20
3.27188461E+02
  0
VERTEX
  8
0
 62
4
 10
-6.47047284E+01
 20
3.27120055E+02
  0
VERTEX
  8
0
 62
4
 10
-6.49694319E+01
 20
3.27042591E+02
  0
VERTEX
  8
0
 62
4
 10
-6.52148399E+01
 20
3.26956672E+02
  0
VERTEX
  8
0
 62
4
 10
-6.54390348E+01
 20
3.26862970E+02
  0
VERTEX
  8
0
 62
4
 10
-6.56402649E+01
 20
3.26762218E+02
  0
VERTEX
  8
0
 62
4
 10
-6.58169578E+01
 20
3.26655203E+02
  0
VERTEX
  8
0
 62
4
 10
-6.59677328E+01
 20
3.26542761E+02
  0
VERTEX
  8
0
 62
4
 10
-6.60914120E+01
 20
3.26425770E+02
  0
VERTEX
  8
0
 62
4
 10
-6.61870288E+01
 20
3.26305145E+02
  0
VERTEX
  8
0
 62
4
 10
-6.62538362E+01
 20
3.26181827E+02
  0
VERTEX
  8
0
 62
4
 10
-6.62913122E+01
 20
3.26056782E+02
  0
VERTEX
  8
0
 62
4
 10
-6.62991639E+01
 20
3.25930986E+02
  0
VERTEX
  8
0
 62
4
 10
-6.62773299E+01
 20
3.25805421E+02
  0
VERTEX
  8
0
 62
4
 10
-6.62259809E+01
 20
3.25681069E+02
  0
VERTEX
  8
0
 62
4
 10
-6.61455181E+01
 20
3.25558901E+02
  0
VERTEX
  8
0
 62
4
 10
-6.60365703E+01
 20
3.25439873E+02
  0
VERTEX
  8
0
 62
4
 10
-6.58999886E+01
 20
3.25324914E+02
  0
SEQEND
  8
0
  0
ARC
  8
0
 62
4
 10
-6.24999886E+01
 20
3.30378462E+02
 40
7.36533796E+00
 50
2.47849417E+02
 51
2.92150583E+02
  0
LINE
  8
0
  6
CENTER
 62
6
 10
-7.99999886E+01
 20
3.26887826E+02
 11
-7.49999886E+01
 21
3.26887826E+02
  0
LINE
  8
0
  6
CENTER
 62
6
 10
-6.99999886E+01
 20
3.28076703E+02
 11
-6.99999886E+01
 21
3.23076703E+02
  0
LINE
  8
0
  6
CENTER
 62
6
 10
-7.24999886E+01
 20
3.25576703E+02
 11
-6.74999886E+01
 21
3.25576703E+02
  0
LINE
  8
0
  6
CENTER
 62
6
 10
-6.24999886E+01
 20
3.29387826E+02
 11
-6.24999886E+01
 21
3.24387826E+02
  0
LINE
  8
0
  6
CENTER
 62
6
 10
-6.49999886E+01
 20
3.26887826E+02
 11
-5.99999886E+01
 21
3.26887826E+02
  0
LINE
  8
0
 62
4
 10
-6.68512439E+01
 20
3.22579850E+02
 11
-5.49999886E+01
 21
3.22579850E+02
  0
LINE
  8
0
 62
4
 10
-8.49999886E+01
 20
3.28013642E+02
 11
-8.64999886E+01
 21
3.26885720E+02
  0
LINE
  8
0
 62
4
 10
-8.64999886E+01
 20
3.24785649E+02
 11
-8.49999886E+01
 21
3.24304907E+02
  0
LINE
  8
0
 62
4
 10
-8.64999886E+01
 20
3.23937165E+02
 11
-8.49999886E+01
 21
3.22806480E+02
  0
LINE
  8
0
 62
4
 10
-8.49999886E+01
 20
3.24304907E+02
 11
-7.41499886E+01
 21
3.24304907E+02
  0
LINE
  8
0
 62
4
 10
-8.49999886E+01
 20
3.22806480E+02
 11
-7.35804222E+01
 21
3.22806480E+02
  0
LINE
  8
0
 62
4
 10
-8.49999886E+01
 20
3.24677647E+02
 11
-7.41499886E+01
 21
3.24677647E+02
  0
LINE
  8
0
 62
4
 10
-5.99999886E+01
 20
3.22954456E+02
 11
-5.49999886E+01
 21
3.22954456E+02
  0
LINE
  8
0
 62
4
 10
-5.90999886E+01
 20
3.24677647E+02
 11
-5.49999886E+01
 21
3.24677647E+02
  0
LINE
  8
0
 62
4
 10
-6.64195549E+01
 20
3.22806480E+02
 11
-5.99999886E+01
 21
3.22806480E+02
  0
LINE
  8
0
 62
4
 10
-8.49999886E+01
 20
3.22806480E+02
 11
-8.49999886E+01
 21
3.22579850E+02
  0
LINE
  8
0
 62
4
 10
-8.49999886E+01
 20
3.24677647E+02
 11
-8.49999886E+01
 21
3.22806480E+02
  0
LINE
  8
0
 62
7
 10
-6.99999886E+01
 20
3.46000000E+02
 11
-9.89999886E+01
 21
3.46000000E+02
  0
LINE
  8
0
 62
7
 10
-6.99999886E+01
 20
3.50000031E+02
 11
-9.89999886E+01
 21
3.50000031E+02
  0
LINE
  8
0
 62
7
 10
-8.49999886E+01
 20
3.37000000E+02
 11
-9.89999886E+01
 21
3.37000000E+02
  0
LINE
  8
0
 62
7
 10
-2.60000114E+01
 20
2.75999969E+02
 11
-9.89999886E+01
 21
2.75999969E+02
  0
LINE
  8
0
 62
7
 10
-2.60000114E+01
 20
2.62999969E+02
 11
-9.89999886E+01
 21
2.62999969E+02
  0
LINE
  8
0
 62
7
 10
-2.60000114E+01
 20
2.66999969E+02
 11
-9.89999886E+01
 21
2.66999969E+02
  0
LINE
  8
0
 62
4
 10
-9.69999580E+01
 20
-3.83687183E+02
 11
-9.69999580E+01
 21
-3.96687183E+02
  0
ARC
  8
0
 62
4
 10
-9.64999538E+01
 20
-3.83687188E+02
 40
5.00004272E-01
 50
9.00004895E+01
 51
1.79999510E+02
  0
LINE
  8
0
 62
4
 10
-8.74999580E+01
 20
-3.83187183E+02
 11
-9.64999580E+01
 21
-3.83187183E+02
  0
LINE
  8
0
 62
4
 10
-1.06999958E+02
 20
-3.97100149E+02
 11
-1.01999958E+02
 21
-3.97100149E+02
  0
LINE
  8
0
 62
4
 10
-1.06999958E+02
 20
-3.84195513E+02
 11
-1.01999958E+02
 21
-3.84195513E+02
  0
LINE
  8
0
 62
4
 10
-1.06999958E+02
 20
-3.91108504E+02
 11
-1.01999958E+02
 21
-3.91108504E+02
  0
POLYLINE
  8
0
 62
4
 66
1
  0
VERTEX
  8
0
 62
4
 10
-7.65999580E+01
 20
-4.12703501E+02
  0
VERTEX
  8
0
 62
4
 10
-7.66128960E+01
 20
-4.12423838E+02
  0
VERTEX
  8
0
 62
4
 10
-7.66516116E+01
 20
-4.12146304E+02
  0
VERTEX
  8
0
 62
4
 10
-7.67158102E+01
 20
-4.11873011E+02
  0
VERTEX
  8
0
 62
4
 10
-7.68050031E+01
 20
-4.11606038E+02
  0
VERTEX
  8
0
 62
4
 10
-7.69185115E+01
 20
-4.11347417E+02
  0
VERTEX
  8
0
 62
4
 10
-7.70554716E+01
 20
-4.11099117E+02
  0
VERTEX
  8
0
 62
4
 10
-7.72148410E+01
 20
-4.10863028E+02
  0
VERTEX
  8
0
 62
4
 10
-7.73954069E+01
 20
-4.10640945E+02
  0
VERTEX
  8
0
 62
4
 10
-7.75957949E+01
 20
-4.10434560E+02
  0
VERTEX
  8
0
 62
4
 10
-7.78144801E+01
 20
-4.10245443E+02
  0
VERTEX
  8
0
 62
4
 10
-7.80497981E+01
 20
-4.10075033E+02
  0
VERTEX
  8
0
 62
4
 10
-7.82999580E+01
 20
-4.09924627E+02
  0
VERTEX
  8
0
 62
4
 10
-7.85630559E+01
 20
-4.09795370E+02
  0
VERTEX
  8
0
 62
4
 10
-7.88370895E+01
 20
-4.09688246E+02
  0
VERTEX
  8
0
 62
4
 10
-7.91199732E+01
 20
-4.09604070E+02
  0
VERTEX
  8
0
 62
4
 10
-7.94095542E+01
 20
-4.09543482E+02
  0
VERTEX
  8
0
 62
4
 10
-7.97036285E+01
 20
-4.09506944E+02
  0
VERTEX
  8
0
 62
4
 10
-7.99999580E+01
 20
-4.09494734E+02
  0
VERTEX
  8
0
 62
4
 10
-8.02962875E+01
 20
-4.09506944E+02
  0
VERTEX
  8
0
 62
4
 10
-8.05903618E+01
 20
-4.09543482E+02
  0
VERTEX
  8
0
 62
4
 10
-8.08799428E+01
 20
-4.09604070E+02
  0
VERTEX
  8
0
 62
4
 10
-8.11628265E+01
 20
-4.09688246E+02
  0
VERTEX
  8
0
 62
4
 10
-8.14368601E+01
 20
-4.09795370E+02
  0
VERTEX
  8
0
 62
4
 10
-8.16999580E+01
 20
-4.09924627E+02
  0
VERTEX
  8
0
 62
4
 10
-8.19501179E+01
 20
-4.10075033E+02
  0
VERTEX
  8
0
 62
4
 10
-8.21854359E+01
 20
-4.10245443E+02
  0
VERTEX
  8
0
 62
4
 10
-8.24041211E+01
 20
-4.10434560E+02
  0
VERTEX
  8
0
 62
4
 10
-8.26045091E+01
 20
-4.10640945E+02
  0
VERTEX
  8
0
 62
4
 10
-8.27850750E+01
 20
-4.10863028E+02
  0
VERTEX
  8
0
 62
4
 10
-8.29444444E+01
 20
-4.11099117E+02
  0
VERTEX
  8
0
 62
4
 10
-8.30814045E+01
 20
-4.11347417E+02
  0
VERTEX
  8
0
 62
4
 10
-8.31949129E+01
 20
-4.11606038E+02
  0
VERTEX
  8
0
 62
4
 10
-8.32841058E+01
 20
-4.11873011E+02
  0
VERTEX
  8
0
 62
4
 10
-8.33483044E+01
 20
-4.12146304E+02
  0
VERTEX
  8
0
 62
4
 10
-8.33870200E+01
 20
-4.12423838E+02
  0
VERTEX
  8
0
 62
4
 10
-8.33999580E+01
 20
-4.12703501E+02
  0
VERTEX
  8
0
 62
4
 10
-8.33870200E+01
 20
-4.12983164E+02
  0
VERTEX
  8
0
 62
4
 10
-8.33483044E+01
 20
-4.13260698E+02
  0
VERTEX
  8
0
 62
4
 10
-8.32841058E+01
 20
-4.13533991E+02
  0
VERTEX
  8
0
 62
4
 10
-8.31949129E+01
 20
-4.13800964E+02
  0
VERTEX
  8
0
 62
4
 10
-8.30814045E+01
 20
-4.14059585E+02
  0
VERTEX
  8
0
 62
4
 10
-8.29444444E+01
 20
-4.14307885E+02
  0
VERTEX
  8
0
 62
4
 10
-8.27850749E+01
 20
-4.14543974E+02
  0
VERTEX
  8
0
 62
4
 10
-8.26045091E+01
 20
-4.14766057E+02
  0
VERTEX
  8
0
 62
4
 10
-8.24041211E+01
 20
-4.14972442E+02
  0
VERTEX
  8
0
 62
4
 10
-8.21854359E+01
 20
-4.15161559E+02
  0
VERTEX
  8
0
 62
4
 10
-8.19501179E+01
 20
-4.15331969E+02
  0
VERTEX
  8
0
 62
4
 10
-8.16999580E+01
 20
-4.15482375E+02
  0
VERTEX
  8
0
 62
4
 10
-8.14368601E+01
 20
-4.15611632E+02
  0
VERTEX
  8
0
 62
4
 10
-8.11628265E+01
 20
-4.15718756E+02
  0
VERTEX
  8
0
 62
4
 10
-8.08799427E+01
 20
-4.15802932E+02
  0
VERTEX
  8
0
 62
4
 10
-8.05903618E+01
 20
-4.15863520E+02
  0
VERTEX
  8
0
 62
4
 10
-8.02962875E+01
 20
-4.15900058E+02
  0
VERTEX
  8
0
 62
4
 10
-7.99999580E+01
 20
-4.15912268E+02
  0
VERTEX
  8
0
 62
4
 10
-7.97036285E+01
 20
-4.15900058E+02
  0
VERTEX
  8
0
 62
4
 10
-7.94095542E+01
 20
-4.15863520E+02
  0
VERTEX
  8
0
 62
4
 10
-7.91199732E+01
 20
-4.15802932E+02
  0
VERTEX
  8
0
 62
4
 10
-7.88370895E+01
 20
-4.15718756E+02
  0
VERTEX
  8
0
 62
4
 10
-7.85630559E+01
 20
-4.15611632E+02
  0
VERTEX
  8
0
 62
4
 10
-7.82999580E+01
 20
-4.15482375E+02
  0
VERTEX
  8
0
 62
4
 10
-7.80497981E+01
 20
-4.15331969E+02
  0
VERTEX
  8
0
 62
4
 10
-7.78144801E+01
 20
-4.15161559E+02
  0
VERTEX
  8
0
 62
4
 10
-7.75957949E+01
 20
-4.14972442E+02
  0
VERTEX
  8
0
 62
4
 10
-7.73954069E+01
 20
-4.14766057E+02
  0
VERTEX
  8
0
 62
4
 10
-7.72148410E+01
 20
-4.14543974E+02
  0
VERTEX
  8
0
 62
4
 10
-7.70554716E+01
 20
-4.14307885E+02
  0
VERTEX
  8
0
 62
4
 10
-7.69185115E+01
 20
-4.14059585E+02
  0
VERTEX
  8
0
 62
4
 10
-7.68050031E+01
 20
-4.13800964E+02
  0
VERTEX
  8
0
 62
4
 10
-7.67158102E+01
 20
-4.13533991E+02
  0
VERTEX
  8
0
 62
4
 10
-7.66516116E+01
 20
-4.13260698E+02
  0
VERTEX
  8
0
 62
4
 10
-7.66128960E+01
 20
-4.12983163E+02
  0
VERTEX
  8
0
 62
4
 10
-7.65999580E+01
 20
-4.12703501E+02
  0
SEQEND
  8
0
  0
POLYLINE
  8
0
 62
4
 66
1
  0
VERTEX
  8
0
 62
4
 10
-8.33806280E+01
 20
-4.13045161E+02
  0
VERTEX
  8
0
 62
4
 10
-8.33993828E+01
 20
-4.13320849E+02
  0
VERTEX
  8
0
 62
4
 10
-8.33916568E+01
 20
-4.13596985E+02
  0
VERTEX
  8
0
 62
4
 10
-8.33575102E+01
 20
-4.13871419E+02
  0
VERTEX
  8
0
 62
4
 10
-8.32972090E+01
 20
-4.14142012E+02
  0
VERTEX
  8
0
 62
4
 10
-8.32112229E+01
 20
-4.14406657E+02
  0
VERTEX
  8
0
 62
4
 10
-8.31002218E+01
 20
-4.14663293E+02
  0
VERTEX
  8
0
 62
4
 10
-8.29650703E+01
 20
-4.14909919E+02
  0
VERTEX
  8
0
 62
4
 10
-8.28068212E+01
 20
-4.15144616E+02
  0
VERTEX
  8
0
 62
4
 10
-8.26267073E+01
 20
-4.15365554E+02
  0
VERTEX
  8
0
 62
4
 10
-8.24261315E+01
 20
-4.15571013E+02
  0
VERTEX
  8
0
 62
4
 10
-8.22066564E+01
 20
-4.15759392E+02
  0
VERTEX
  8
0
 62
4
 10
-8.19699916E+01
 20
-4.15929223E+02
  0
VERTEX
  8
0
 62
4
 10
-8.17179807E+01
 20
-4.16079185E+02
  0
VERTEX
  8
0
 62
4
 10
-8.14525867E+01
 20
-4.16208108E+02
  0
VERTEX
  8
0
 62
4
 10
-8.11758771E+01
 20
-4.16314988E+02
  0
VERTEX
  8
0
 62
4
 10
-8.08900074E+01
 20
-4.16398993E+02
  0
VERTEX
  8
0
 62
4
 10
-8.05972043E+01
 20
-4.16459469E+02
  0
VERTEX
  8
0
 62
4
 10
-8.02997488E+01
 20
-4.16495944E+02
  0
VERTEX
  8
0
 62
4
 10
-7.99999580E+01
 20
-4.16508133E+02
  0
VERTEX
  8
0
 62
4
 10
-7.97001672E+01
 20
-4.16495944E+02
  0
VERTEX
  8
0
 62
4
 10
-7.94027117E+01
 20
-4.16459469E+02
  0
VERTEX
  8
0
 62
4
 10
-7.91099087E+01
 20
-4.16398993E+02
  0
VERTEX
  8
0
 62
4
 10
-7.88240389E+01
 20
-4.16314988E+02
  0
VERTEX
  8
0
 62
4
 10
-7.85473293E+01
 20
-4.16208108E+02
  0
VERTEX
  8
0
 62
4
 10
-7.82819353E+01
 20
-4.16079185E+02
  0
VERTEX
  8
0
 62
4
 10
-7.80299244E+01
 20
-4.15929223E+02
  0
VERTEX
  8
0
 62
4
 10
-7.77932596E+01
 20
-4.15759392E+02
  0
VERTEX
  8
0
 62
4
 10
-7.75737845E+01
 20
-4.15571013E+02
  0
VERTEX
  8
0
 62
4
 10
-7.73732087E+01
 20
-4.15365554E+02
  0
VERTEX
  8
0
 62
4
 10
-7.71930948E+01
 20
-4.15144616E+02
  0
VERTEX
  8
0
 62
4
 10
-7.70348457E+01
 20
-4.14909919E+02
  0
VERTEX
  8
0
 62
4
 10
-7.68996942E+01
 20
-4.14663293E+02
  0
VERTEX
  8
0
 62
4
 10
-7.67886931E+01
 20
-4.14406657E+02
  0
VERTEX
  8
0
 62
4
 10
-7.67027070E+01
 20
-4.14142012E+02
  0
VERTEX
  8
0
 62
4
 10
-7.66424058E+01
 20
-4.13871419E+02
  0
VERTEX
  8
0
 62
4
 10
-7.66082592E+01
 20
-4.13596985E+02
  0
VERTEX
  8
0
 62
4
 10
-7.66005332E+01
 20
-4.13320849E+02
  0
VERTEX
  8
0
 62
4
 10
-7.66192880E+01
 20
-4.13045161E+02
  0
SEQEND
  8
0
  0
POLYLINE
  8
0
 62
4
 66
1
  0
VERTEX
  8
0
 62
4
 10
-8.39985501E+01
 20
-4.13476099E+02
  0
VERTEX
  8
0
 62
4
 10
-8.39922210E+01
 20
-4.13802684E+02
  0
VERTEX
  8
0
 62
4
 10
-8.39544739E+01
 20
-4.14127468E+02
  0
VERTEX
  8
0
 62
4
 10
-8.38856059E+01
 20
-4.14447895E+02
  0
VERTEX
  8
0
 62
4
 10
-8.37861590E+01
 20
-4.14761442E+02
  0
VERTEX
  8
0
 62
4
 10
-8.36569157E+01
 20
-4.15065643E+02
  0
VERTEX
  8
0
 62
4
 10
-8.34988933E+01
 20
-4.15358103E+02
  0
VERTEX
  8
0
 62
4
 10
-8.33133352E+01
 20
-4.15636522E+02
  0
VERTEX
  8
0
 62
4
 10
-8.31017018E+01
 20
-4.15898707E+02
  0
VERTEX
  8
0
 62
4
 10
-8.28656586E+01
 20
-4.16142595E+02
  0
VERTEX
  8
0
 62
4
 10
-8.26070631E+01
 20
-4.16366268E+02
  0
VERTEX
  8
0
 62
4
 10
-8.23279504E+01
 20
-4.16567965E+02
  0
VERTEX
  8
0
 62
4
 10
-8.20305171E+01
 20
-4.16746098E+02
  0
VERTEX
  8
0
 62
4
 10
-8.17171039E+01
 20
-4.16899266E+02
  0
VERTEX
  8
0
 62
4
 10
-8.13901773E+01
 20
-4.17026264E+02
  0
VERTEX
  8
0
 62
4
 10
-8.10523100E+01
 20
-4.17126092E+02
  0
VERTEX
  8
0
 62
4
 10
-8.07061610E+01
 20
-4.17197964E+02
  0
VERTEX
  8
0
 62
4
 10
-8.03544544E+01
 20
-4.17241314E+02
  0
VERTEX
  8
0
 62
4
 10
-7.99999580E+01
 20
-4.17255802E+02
  0
VERTEX
  8
0
 62
4
 10
-7.96454616E+01
 20
-4.17241314E+02
  0
VERTEX
  8
0
 62
4
 10
-7.92937550E+01
 20
-4.17197964E+02
  0
VERTEX
  8
0
 62
4
 10
-7.89476060E+01
 20
-4.17126092E+02
  0
VERTEX
  8
0
 62
4
 10
-7.86097387E+01
 20
-4.17026264E+02
  0
VERTEX
  8
0
 62
4
 10
-7.82828121E+01
 20
-4.16899266E+02
  0
VERTEX
  8
0
 62
4
 10
-7.79693989E+01
 20
-4.16746098E+02
  0
VERTEX
  8
0
 62
4
 10
-7.76719656E+01
 20
-4.16567965E+02
  0
VERTEX
  8
0
 62
4
 10
-7.73928529E+01
 20
-4.16366268E+02
  0
VERTEX
  8
0
 62
4
 10
-7.71342574E+01
 20
-4.16142595E+02
  0
VERTEX
  8
0
 62
4
 10
-7.68982142E+01
 20
-4.15898707E+02
  0
VERTEX
  8
0
 62
4
 10
-7.66865808E+01
 20
-4.15636522E+02
  0
VERTEX
  8
0
 62
4
 10
-7.65010227E+01
 20
-4.15358103E+02
  0
VERTEX
  8
0
 62
4
 10
-7.63430003E+01
 20
-4.15065643E+02
  0
VERTEX
  8
0
 62
4
 10
-7.62137570E+01
 20
-4.14761442E+02
  0
VERTEX
  8
0
 62
4
 10
-7.61143101E+01
 20
-4.14447895E+02
  0
VERTEX
  8
0
 62
4
 10
-7.60454421E+01
 20
-4.14127468E+02
  0
VERTEX
  8
0
 62
4
 10
-7.60076950E+01
 20
-4.13802684E+02
  0
VERTEX
  8
0
 62
4
 10
-7.60013659E+01
 20
-4.13476099E+02
  0
SEQEND
  8
0
  0
POLYLINE
  8
0
 62
4
 66
1
  0
VERTEX
  8
0
 62
4
 10
-8.24085519E+01
 20
-4.10438751E+02
  0
VERTEX
  8
0
 62
4
 10
-8.26785877E+01
 20
-4.10643891E+02
  0
VERTEX
  8
0
 62
4
 10
-8.29281012E+01
 20
-4.10869982E+02
  0
VERTEX
  8
0
 62
4
 10
-8.31551807E+01
 20
-4.11115291E+02
  0
VERTEX
  8
0
 62
4
 10
-8.33580864E+01
 20
-4.11377939E+02
  0
VERTEX
  8
0
 62
4
 10
-8.35352638E+01
 20
-4.11655913E+02
  0
VERTEX
  8
0
 62
4
 10
-8.36853554E+01
 20
-4.11947085E+02
  0
VERTEX
  8
0
 62
4
 10
-8.38072113E+01
 20
-4.12249223E+02
  0
VERTEX
  8
0
 62
4
 10
-8.38998979E+01
 20
-4.12560012E+02
  0
VERTEX
  8
0
 62
4
 10
-8.39627051E+01
 20
-4.12877071E+02
  0
VERTEX
  8
0
 62
4
 10
-8.39951517E+01
 20
-4.13197972E+02
  0
VERTEX
  8
0
 62
4
 10
-8.39969891E+01
 20
-4.13520254E+02
  0
VERTEX
  8
0
 62
4
 10
-8.39682031E+01
 20
-4.13841451E+02
  0
VERTEX
  8
0
 62
4
 10
-8.39090145E+01
 20
-4.14159099E+02
  0
VERTEX
  8
0
 62
4
 10
-8.38198765E+01
 20
-4.14470767E+02
  0
VERTEX
  8
0
 62
4
 10
-8.37014723E+01
 20
-4.14774065E+02
  0
VERTEX
  8
0
 62
4
 10
-8.35547088E+01
 20
-4.15066671E+02
  0
VERTEX
  8
0
 62
4
 10
-8.33807106E+01
 20
-4.15346342E+02
  0
VERTEX
  8
0
 62
4
 10
-8.31808107E+01
 20
-4.15610936E+02
  0
VERTEX
  8
0
 62
4
 10
-8.29565407E+01
 20
-4.15858425E+02
  0
VERTEX
  8
0
 62
4
 10
-8.27096188E+01
 20
-4.16086914E+02
  0
VERTEX
  8
0
 62
4
 10
-8.24419369E+01
 20
-4.16294651E+02
  0
VERTEX
  8
0
 62
4
 10
-8.21555457E+01
 20
-4.16480046E+02
  0
VERTEX
  8
0
 62
4
 10
-8.18526394E+01
 20
-4.16641678E+02
  0
VERTEX
  8
0
 62
4
 10
-8.15355388E+01
 20
-4.16778308E+02
  0
VERTEX
  8
0
 62
4
 10
-8.12066733E+01
 20
-4.16888890E+02
  0
VERTEX
  8
0
 62
4
 10
-8.08685626E+01
 20
-4.16972576E+02
  0
VERTEX
  8
0
 62
4
 10
-8.05237971E+01
 20
-4.17028726E+02
  0
VERTEX
  8
0
 62
4
 10
-8.01750181E+01
 20
-4.17056908E+02
  0
VERTEX
  8
0
 62
4
 10
-7.98248979E+01
 20
-4.17056908E+02
  0
VERTEX
  8
0
 62
4
 10
-7.94761190E+01
 20
-4.17028726E+02
  0
VERTEX
  8
0
 62
4
 10
-7.91313534E+01
 20
-4.16972576E+02
  0
VERTEX
  8
0
 62
4
 10
-7.87932427E+01
 20
-4.16888890E+02
  0
VERTEX
  8
0
 62
4
 10
-7.84643772E+01
 20
-4.16778308E+02
  0
VERTEX
  8
0
 62
4
 10
-7.81472766E+01
 20
-4.16641678E+02
  0
VERTEX
  8
0
 62
4
 10
-7.78443704E+01
 20
-4.16480046E+02
  0
VERTEX
  8
0
 62
4
 10
-7.75579792E+01
 20
-4.16294651E+02
  0
VERTEX
  8
0
 62
4
 10
-7.72902972E+01
 20
-4.16086914E+02
  0
VERTEX
  8
0
 62
4
 10
-7.70433753E+01
 20
-4.15858425E+02
  0
VERTEX
  8
0
 62
4
 10
-7.68191053E+01
 20
-4.15610936E+02
  0
VERTEX
  8
0
 62
4
 10
-7.66192054E+01
 20
-4.15346342E+02
  0
VERTEX
  8
0
 62
4
 10
-7.64452072E+01
 20
-4.15066671E+02
  0
VERTEX
  8
0
 62
4
 10
-7.62984437E+01
 20
-4.14774065E+02
  0
VERTEX
  8
0
 62
4
 10
-7.61800395E+01
 20
-4.14470767E+02
  0
VERTEX
  8
0
 62
4
 10
-7.60909015E+01
 20
-4.14159099E+02
  0
VERTEX
  8
0
 62
4
 10
-7.60317129E+01
 20
-4.13841451E+02
  0
VERTEX
  8
0
 62
4
 10
-7.60029269E+01
 20
-4.13520254E+02
  0
VERTEX
  8
0
 62
4
 10
-7.60047643E+01
 20
-4.13197972E+02
  0
VERTEX
  8
0
 62
4
 10
-7.60372109E+01
 20
-4.12877071E+02
  0
VERTEX
  8
0
 62
4
 10
-7.61000181E+01
 20
-4.12560012E+02
  0
VERTEX
  8
0
 62
4
 10
-7.61927047E+01
 20
-4.12249223E+02
  0
VERTEX
  8
0
 62
4
 10
-7.63145606E+01
 20
-4.11947085E+02
  0
VERTEX
  8
0
 62
4
 10
-7.64646522E+01
 20
-4.11655913E+02
  0
VERTEX
  8
0
 62
4
 10
-7.66418296E+01
 20
-4.11377939E+02
  0
VERTEX
  8
0
 62
4
 10
-7.68447353E+01
 20
-4.11115291E+02
  0
VERTEX
  8
0
 62
4
 10
-7.70718148E+01
 20
-4.10869982E+02
  0
VERTEX
  8
0
 62
4
 10
-7.73213283E+01
 20
-4.10643891E+02
  0
VERTEX
  8
0
 62
4
 10
-7.75913641E+01
 20
-4.10438751E+02
  0
SEQEND
  8
0
  0
LINE
  8
0
 62
4
 10
-5.59999580E+01
 20
-4.27368324E+02
 11
-5.59999580E+01
 21
-4.25331782E+02
  0
LINE
  8
0
 62
4
 10
-8.89999580E+01
 20
-4.27368324E+02
 11
-8.89999580E+01
 21
-4.25331782E+02
  0
LINE
  8
0
 62
4
 10
-5.59999580E+01
 20
-4.25331782E+02
 11
-5.29999580E+01
 21
-4.20477569E+02
  0
LINE
  8
0
 62
4
 10
-9.19999580E+01
 20
-4.20477569E+02
 11
-8.89999580E+01
 21
-4.25331782E+02
  0
LINE
  8
0
 62
4
 10
-8.74999580E+01
 20
-4.03825762E+02
 11
-7.24999580E+01
 21
-4.03825762E+02
  0
LINE
  8
0
 62
4
 10
-8.74999580E+01
 20
-3.81733645E+02
 11
-7.24999580E+01
 21
-3.81733645E+02
  0
LINE
  8
0
 62
6
 10
-8.17148929E+01
 20
-4.13925382E+02
 11
-7.82850232E+01
 21
-4.10495507E+02
  0
LINE
  8
0
 62
6
 10
-7.82850207E+01
 20
-4.13925379E+02
 11
-8.17148953E+01
 21
-4.10495510E+02
  0
ARC
  8
0
 62
4
 10
-9.04999552E+01
 20
-4.08948094E+02
 40
1.50000284E+00
 50
9.00001085E+01
 51
1.79999892E+02
  0
ARC
  8
0
 62
4
 10
-9.64999623E+01
 20
-3.96687188E+02
 40
4.99995728E-01
 50
1.79999510E+02
 51
2.70000490E+02
  0
ARC
  8
0
 62
4
 10
-5.44999609E+01
 20
-4.08948094E+02
 40
1.50000284E+00
 50
1.08554370E-04
 51
8.99998913E+01
  0
ARC
  8
0
 62
4
 10
-8.79999623E+01
 20
-3.97687188E+02
 40
5.00004272E-01
 50
4.89585868E-04
 51
8.99995103E+01
  0
LINE
  8
0
 62
4
 10
-1.00499958E+02
 20
-3.95937183E+02
 11
-9.69999580E+01
 21
-3.95937183E+02
  0
LINE
  8
0
 62
4
 10
-1.00499958E+02
 20
-3.84437183E+02
 11
-9.69999580E+01
 21
-3.84437183E+02
  0
LINE
  8
0
 62
4
 10
-1.00499958E+02
 20
-3.83937183E+02
 11
-1.00499958E+02
 21
-3.96437183E+02
  0
LINE
  8
0
 62
4
 10
-1.01999958E+02
 20
-3.96437183E+02
 11
-9.69999580E+01
 21
-3.96437183E+02
  0
LINE
  8
0
 62
4
 10
-1.01999958E+02
 20
-3.83937183E+02
 11
-9.69999580E+01
 21
-3.83937183E+02
  0
LINE
  8
0
 62
4
 10
-1.01999958E+02
 20
-3.83283372E+02
 11
-1.01999958E+02
 21
-3.97100149E+02
  0
LINE
  8
0
 62
4
 10
-1.06999958E+02
 20
-3.83283372E+02
 11
-1.06999958E+02
 21
-3.97100149E+02
  0
LINE
  8
0
 62
4
 10
-9.64999580E+01
 20
-3.97187183E+02
 11
-8.79999580E+01
 21
-3.97187183E+02
  0
LINE
  8
0
 62
4
 10
-1.06999958E+02
 20
-3.83283372E+02
 11
-1.01999958E+02
 21
-3.83283372E+02
  0
LINE
  8
0
 62
4
 10
-9.04999580E+01
 20
-4.07448091E+02
 11
-5.44999580E+01
 21
-4.07448091E+02
  0
LINE
  8
0
 62
4
 10
-9.19999580E+01
 20
-4.19096812E+02
 11
-5.29999580E+01
 21
-4.19096812E+02
  0
LINE
  8
0
 62
4
 10
-9.19999580E+01
 20
-4.20477569E+02
 11
-5.29999580E+01
 21
-4.20477569E+02
  0
LINE
  8
0
 62
4
 10
-8.89999580E+01
 20
-4.25331782E+02
 11
-5.59999580E+01
 21
-4.25331782E+02
  0
LINE
  8
0
 62
4
 10
-5.29999580E+01
 20
-4.08948091E+02
 11
-5.29999580E+01
 21
-4.20477569E+02
  0
LINE
  8
0
 62
4
 10
-7.04999580E+01
 20
-4.03964805E+02
 11
-7.04999580E+01
 21
-4.07448091E+02
  0
LINE
  8
0
 62
4
 10
-8.74999580E+01
 20
-3.81733645E+02
 11
-8.74999580E+01
 21
-4.03964805E+02
  0
LINE
  8
0
 62
4
 10
-7.24999580E+01
 20
-3.81733645E+02
 11
-7.24999580E+01
 21
-4.03964805E+02
  0
LINE
  8
0
 62
4
 10
-8.94999580E+01
 20
-4.03964805E+02
 11
-8.94999580E+01
 21
-4.07448091E+02
  0
LINE
  8
0
 62
4
 10
-9.19999580E+01
 20
-4.08948091E+02
 11
-9.19999580E+01
 21
-4.20477569E+02
  0
LINE
  8
0
 62
4
 10
-8.94999580E+01
 20
-4.03964805E+02
 11
-7.04999580E+01
 21
-4.03964805E+02
  0
LINE
  8
0
  6
CENTER
 62
6
 10
-8.63999580E+01
 20
-4.12210445E+02
 11
-7.35999580E+01
 21
-4.12210445E+02
  0
LINE
  8
0
  6
CENTER
 62
6
 10
-7.99999580E+01
 20
-4.18610445E+02
 11
-7.99999580E+01
 21
-4.05810445E+02
  0
ARC
  8
0
 62
4
 10
-6.73533698E+02
 20
-3.90187183E+02
 40
7.00000000E+00
 50
1.21115777E+02
 51
1.44002341E+02
  0
ARC
  8
0
 62
4
 10
-6.73533698E+02
 20
-3.90187183E+02
 40
7.00000000E+00
 50
8.19976591E+01
 51
1.04884035E+02
  0
ARC
  8
0
 62
4
 10
-6.54825268E+02
 20
-4.09948107E+02
 40
2.50001570E+00
 50
9.40075518E+01
 51
1.12999640E+02
  0
CIRCLE
  8
0
 62
4
 10
-6.73533698E+02
 20
-3.90187183E+02
 40
3.75000000E+00
  0
LINE
  8
0
 62
4
 10
-6.73484773E+02
 20
-3.83648228E+02
 11
-6.68974300E+02
 21
-3.81733645E+02
  0
LINE
  8
0
 62
4
 10
-6.76464183E+02
 20
-3.83283372E+02
 11
-6.69015659E+02
 21
-3.84195513E+02
  0
LINE
  8
0
 62
4
 10
-6.78047832E+02
 20
-3.96188009E+02
 11
-6.70599308E+02
 21
-3.97100149E+02
  0
LINE
  8
0
 62
4
 10
-6.69015659E+02
 20
-3.84195513E+02
 11
-6.66081269E+02
 21
-3.91108504E+02
  0
LINE
  8
0
 62
4
 10
-6.80982222E+02
 20
-3.89275017E+02
 11
-6.78047832E+02
 21
-3.96188009E+02
  0
LINE
  8
0
 62
4
 10
-6.80982222E+02
 20
-3.89275017E+02
 11
-6.76464183E+02
 21
-3.83283372E+02
  0
LINE
  8
0
 62
4
 10
-6.70599308E+02
 20
-3.97100149E+02
 11
-6.66081269E+02
 21
-3.91108504E+02
  0
LINE
  8
0
 62
4
 10
-6.72814947E+02
 20
-4.14868354E+02
 11
-6.55802087E+02
 21
-4.07646824E+02
  0
LINE
  8
0
 62
4
 10
-6.74854604E+02
 20
-4.11388696E+02
 11
-6.73377576E+02
 21
-4.14868354E+02
  0
LINE
  8
0
 62
4
 10
-6.57365012E+02
 20
-4.03964805E+02
 11
-6.55802087E+02
 21
-4.07646824E+02
  0
LINE
  8
0
 62
4
 10
-6.73404325E+02
 20
-4.09686729E+02
 11
-6.59596752E+02
 21
-4.03825762E+02
  0
LINE
  8
0
 62
4
 10
-6.74854604E+02
 20
-4.11388696E+02
 11
-6.57365012E+02
 21
-4.03964805E+02
  0
LINE
  8
0
 62
4
 10
-6.82781872E+02
 20
-3.87594612E+02
 11
-6.73013594E+02
 21
-4.10607234E+02
  0
LINE
  8
0
 62
4
 10
-6.68974300E+02
 20
-3.81733645E+02
 11
-6.59206021E+02
 21
-4.04746267E+02
  0
LINE
  8
0
 62
4
 10
-6.82781872E+02
 20
-3.87594612E+02
 11
-6.78280604E+02
 21
-3.85683937E+02
  0
LINE
  8
0
 62
4
 10
1.36047374E+02
 20
-4.09211369E+02
 11
1.41828145E+02
 21
-4.11665161E+02
  0
LINE
  8
0
 62
4
 10
1.41828145E+02
 20
-4.11665161E+02
 11
1.41768795E+02
 21
-4.12726329E+02
  0
LINE
  8
0
 62
4
 10
1.35325261E+02
 20
-4.09991211E+02
 11
1.36047374E+02
 21
-4.09211369E+02
  0
LINE
  8
0
  6
CENTER
 62
6
 10
1.39788330E+02
 20
-4.08434446E+02
 11
1.37964839E+02
 21
-4.12730322E+02
  0
ARC
  8
0
 62
4
 10
1.47533835E+02
 20
-3.90187180E+02
 40
7.00000000E+00
 50
3.59976591E+01
 51
9.80023407E+01
  0
LINE
  8
0
 62
4
 10
1.54858882E+02
 20
-4.21541822E+02
 11
1.48420893E+02
 21
-4.18809058E+02
  0
LINE
  8
0
 62
4
 10
1.54858882E+02
 20
-4.21541822E+02
 11
1.56044310E+02
 21
-4.23868325E+02
  0
LINE
  8
0
 62
4
 10
1.42974444E+02
 20
-3.81733645E+02
 11
1.56782017E+02
 21
-3.87594612E+02
  0
LINE
  8
0
 62
4
 10
1.42974444E+02
 20
-3.81733645E+02
 11
1.33206166E+02
 21
-4.04746267E+02
  0
LINE
  8
0
 62
4
 10
1.56782017E+02
 20
-3.87594612E+02
 11
1.47013739E+02
 21
-4.10607234E+02
  0
LINE
  8
0
 62
4
 10
1.48854749E+02
 20
-4.11388696E+02
 11
1.31365157E+02
 21
-4.03964805E+02
  0
LINE
  8
0
 62
4
 10
1.47404470E+02
 20
-4.09686729E+02
 11
1.33596897E+02
 21
-4.03825762E+02
  0
LINE
  8
0
 62
4
 10
1.31365157E+02
 20
-4.03964805E+02
 11
1.29802232E+02
 21
-4.07646824E+02
  0
LINE
  8
0
 62
4
 10
1.48854749E+02
 20
-4.11388696E+02
 11
1.47291824E+02
 21
-4.15070715E+02
  0
LINE
  8
0
 62
4
 10
1.47291824E+02
 20
-4.15070715E+02
 11
1.29802232E+02
 21
-4.07646824E+02
  0
LINE
  8
0
 62
4
 10
1.29628146E+02
 20
-4.23868334E+02
 11
1.21640003E+02
 21
-4.20477569E+02
  0
LINE
  8
0
 62
4
 10
1.26524142E+02
 20
-4.08971258E+02
 11
1.21640003E+02
 21
-4.20477569E+02
  0
LINE
  8
0
 62
4
 10
1.48616259E+02
 20
-4.18348805E+02
 11
1.46273360E+02
 21
-4.23868329E+02
  0
LINE
  8
0
 62
4
 10
1.21640003E+02
 20
-4.20477569E+02
 11
1.22477243E+02
 21
-4.23868337E+02
  0
LINE
  8
0
 62
4
 10
1.33467100E+02
 20
-4.23868333E+02
 11
1.22226100E+02
 21
-4.19096812E+02
  0
LINE
  8
0
 62
4
 10
1.37262189E+02
 20
-4.19504271E+02
 11
1.33580169E+02
 21
-4.17941346E+02
  0
LINE
  8
0
 62
4
 10
1.36285361E+02
 20
-4.21805533E+02
 11
1.32603342E+02
 21
-4.20242608E+02
  0
LINE
  8
0
 62
4
 10
1.37262189E+02
 20
-4.19504271E+02
 11
1.36285361E+02
 21
-4.21805533E+02
  0
LINE
  8
0
 62
4
 10
1.33580169E+02
 20
-4.17941346E+02
 11
1.32603342E+02
 21
-4.20242608E+02
  0
LINE
  8
0
 62
4
 10
1.51151228E+02
 20
-3.84194312E+02
 11
1.50464328E+02
 21
-3.83283372E+02
  0
LINE
  8
0
 62
4
 10
1.50464328E+02
 20
-3.83283372E+02
 11
1.49331890E+02
 21
-3.83422049E+02
  0
LINE
  8
0
 62
4
 10
1.26133411E+02
 20
-4.09891763E+02
 11
1.25673159E+02
 21
-4.09696398E+02
  0
LINE
  8
0
 62
4
 10
1.23007562E+02
 20
-4.17255802E+02
 11
1.22547309E+02
 21
-4.17060436E+02
  0
LINE
  8
0
 62
4
 10
1.25438720E+02
 20
-4.10248700E+02
 11
1.23846246E+02
 21
-4.09572736E+02
  0
LINE
  8
0
 62
4
 10
1.21189275E+02
 20
-4.15832169E+02
 11
1.22781748E+02
 21
-4.16508133E+02
  0
LINE
  8
0
  6
CENTER
 62
6
 10
1.48822915E+02
 20
-4.23868328E+02
 11
1.18587205E+02
 21
-4.11034030E+02
  0
LINE
  8
0
 62
4
 10
1.25673159E+02
 20
-4.09696398E+02
 11
1.22547309E+02
 21
-4.17060436E+02
  0
ARC
  8
0
 62
4
 10
1.21581090E+02
 20
-4.14913924E+02
 40
9.98345090E-01
 50
1.70221832E+02
 51
2.46892060E+02
  0
ARC
  8
0
 62
4
 10
1.23459615E+02
 20
-4.10491943E+02
 40
9.97209177E-01
 50
6.71877091E+01
 51
1.44419464E+02
  0
ARC
  8
0
 62
4
 10
1.32211039E+02
 20
-4.16852820E+02
 40
1.18036308E+01
 50
1.44025221E+02
 51
1.69710195E+02
  0
ARC
  8
0
 62
4
 10
1.46314981E+02
 20
-4.17371984E+02
 40
2.50001192E+00
 50
3.37000273E+02
 51
6.69997268E+01
  0
ARC
  8
0
 62
4
 10
1.28825413E+02
 20
-4.09948107E+02
 40
2.50001570E+00
 50
6.70003599E+01
 51
1.56999640E+02
  0
ARC
  8
0
 62
4
 10
-9.04999271E+01
 20
-2.28367449E+02
 40
1.50000046E+00
 50
1.80000018E+02
 51
2.69999983E+02
  0
ARC
  8
0
 62
4
 10
-5.44999242E+01
 20
-2.28367453E+02
 40
1.49999664E+00
 50
2.69999872E+02
 51
1.28225561E-04
  0
LINE
  8
0
 62
4
 10
-8.94999275E+01
 20
-2.27566173E+02
 11
-7.04999275E+01
 21
-2.27566173E+02
  0
POLYLINE
  8
0
 62
4
 66
1
  0
VERTEX
  8
0
 62
4
 10
-6.08599275E+01
 20
-2.18430664E+02
  0
VERTEX
  8
0
 62
4
 10
-6.08718761E+01
 20
-2.18178750E+02
  0
VERTEX
  8
0
 62
4
 10
-6.09076312E+01
 20
-2.17928754E+02
  0
VERTEX
  8
0
 62
4
 10
-6.09669204E+01
 20
-2.17682577E+02
  0
VERTEX
  8
0
 62
4
 10
-6.10492927E+01
 20
-2.17442094E+02
  0
VERTEX
  8
0
 62
4
 10
-6.11541210E+01
 20
-2.17209134E+02
  0
VERTEX
  8
0
 62
4
 10
-6.12806077E+01
 20
-2.16985471E+02
  0
VERTEX
  8
0
 62
4
 10
-6.14277901E+01
 20
-2.16772807E+02
  0
VERTEX
  8
0
 62
4
 10
-6.15945479E+01
 20
-2.16572760E+02
  0
VERTEX
  8
0
 62
4
 10
-6.17796122E+01
 20
-2.16386853E+02
  0
VERTEX
  8
0
 62
4
 10
-6.19815744E+01
 20
-2.16216500E+02
  0
VERTEX
  8
0
 62
4
 10
-6.21988975E+01
 20
-2.16062999E+02
  0
VERTEX
  8
0
 62
4
 10
-6.24299275E+01
 20
-2.15927517E+02
  0
VERTEX
  8
0
 62
4
 10
-6.26729062E+01
 20
-2.15811085E+02
  0
VERTEX
  8
0
 62
4
 10
-6.29259843E+01
 20
-2.15714590E+02
  0
VERTEX
  8
0
 62
4
 10
-6.31872357E+01
 20
-2.15638766E+02
  0
VERTEX
  8
0
 62
4
 10
-6.34546722E+01
 20
-2.15584190E+02
  0
VERTEX
  8
0
 62
4
 10
-6.37262585E+01
 20
-2.15551278E+02
  0
VERTEX
  8
0
 62
4
 10
-6.39999275E+01
 20
-2.15540279E+02
  0
VERTEX
  8
0
 62
4
 10
-6.42735965E+01
 20
-2.15551278E+02
  0
VERTEX
  8
0
 62
4
 10
-6.45451828E+01
 20
-2.15584190E+02
  0
VERTEX
  8
0
 62
4
 10
-6.48126193E+01
 20
-2.15638766E+02
  0
VERTEX
  8
0
 62
4
 10
-6.50738708E+01
 20
-2.15714590E+02
  0
VERTEX
  8
0
 62
4
 10
-6.53269488E+01
 20
-2.15811085E+02
  0
VERTEX
  8
0
 62
4
 10
-6.55699275E+01
 20
-2.15927517E+02
  0
VERTEX
  8
0
 62
4
 10
-6.58009575E+01
 20
-2.16062999E+02
  0
VERTEX
  8
0
 62
4
 10
-6.60182806E+01
 20
-2.16216500E+02
  0
VERTEX
  8
0
 62
4
 10
-6.62202428E+01
 20
-2.16386853E+02
  0
VERTEX
  8
0
 62
4
 10
-6.64053071E+01
 20
-2.16572760E+02
  0
VERTEX
  8
0
 62
4
 10
-6.65720649E+01
 20
-2.16772807E+02
  0
VERTEX
  8
0
 62
4
 10
-6.67192473E+01
 20
-2.16985471E+02
  0
VERTEX
  8
0
 62
4
 10
-6.68457340E+01
 20
-2.17209134E+02
  0
VERTEX
  8
0
 62
4
 10
-6.69505623E+01
 20
-2.17442094E+02
  0
VERTEX
  8
0
 62
4
 10
-6.70329346E+01
 20
-2.17682577E+02
  0
VERTEX
  8
0
 62
4
 10
-6.70922238E+01
 20
-2.17928754E+02
  0
VERTEX
  8
0
 62
4
 10
-6.71279789E+01
 20
-2.18178750E+02
  0
VERTEX
  8
0
 62
4
 10
-6.71399275E+01
 20
-2.18430664E+02
  0
VERTEX
  8
0
 62
4
 10
-6.71279789E+01
 20
-2.18682578E+02
  0
VERTEX
  8
0
 62
4
 10
-6.70922238E+01
 20
-2.18932574E+02
  0
VERTEX
  8
0
 62
4
 10
-6.70329346E+01
 20
-2.19178751E+02
  0
VERTEX
  8
0
 62
4
 10
-6.69505623E+01
 20
-2.19419234E+02
  0
VERTEX
  8
0
 62
4
 10
-6.68457339E+01
 20
-2.19652194E+02
  0
VERTEX
  8
0
 62
4
 10
-6.67192473E+01
 20
-2.19875857E+02
  0
VERTEX
  8
0
 62
4
 10
-6.65720649E+01
 20
-2.20088521E+02
  0
VERTEX
  8
0
 62
4
 10
-6.64053070E+01
 20
-2.20288568E+02
  0
VERTEX
  8
0
 62
4
 10
-6.62202428E+01
 20
-2.20474475E+02
  0
VERTEX
  8
0
 62
4
 10
-6.60182806E+01
 20
-2.20644828E+02
  0
VERTEX
  8
0
 62
4
 10
-6.58009575E+01
 20
-2.20798329E+02
  0
VERTEX
  8
0
 62
4
 10
-6.55699275E+01
 20
-2.20933811E+02
  0
VERTEX
  8
0
 62
4
 10
-6.53269488E+01
 20
-2.21050243E+02
  0
VERTEX
  8
0
 62
4
 10
-6.50738707E+01
 20
-2.21146738E+02
  0
VERTEX
  8
0
 62
4
 10
-6.48126193E+01
 20
-2.21222562E+02
  0
VERTEX
  8
0
 62
4
 10
-6.45451828E+01
 20
-2.21277138E+02
  0
VERTEX
  8
0
 62
4
 10
-6.42735965E+01
 20
-2.21310050E+02
  0
VERTEX
  8
0
 62
4
 10
-6.39999275E+01
 20
-2.21321049E+02
  0
VERTEX
  8
0
 62
4
 10
-6.37262585E+01
 20
-2.21310050E+02
  0
VERTEX
  8
0
 62
4
 10
-6.34546722E+01
 20
-2.21277138E+02
  0
VERTEX
  8
0
 62
4
 10
-6.31872357E+01
 20
-2.21222562E+02
  0
VERTEX
  8
0
 62
4
 10
-6.29259842E+01
 20
-2.21146738E+02
  0
VERTEX
  8
0
 62
4
 10
-6.26729062E+01
 20
-2.21050243E+02
  0
VERTEX
  8
0
 62
4
 10
-6.24299275E+01
 20
-2.20933811E+02
  0
VERTEX
  8
0
 62
4
 10
-6.21988975E+01
 20
-2.20798329E+02
  0
VERTEX
  8
0
 62
4
 10
-6.19815744E+01
 20
-2.20644828E+02
  0
VERTEX
  8
0
 62
4
 10
-6.17796122E+01
 20
-2.20474475E+02
  0
VERTEX
  8
0
 62
4
 10
-6.15945479E+01
 20
-2.20288568E+02
  0
VERTEX
  8
0
 62
4
 10
-6.14277901E+01
 20
-2.20088521E+02
  0
VERTEX
  8
0
 62
4
 10
-6.12806077E+01
 20
-2.19875857E+02
  0
VERTEX
  8
0
 62
4
 10
-6.11541210E+01
 20
-2.19652194E+02
  0
VERTEX
  8
0
 62
4
 10
-6.10492927E+01
 20
-2.19419234E+02
  0
VERTEX
  8
0
 62
4
 10
-6.09669204E+01
 20
-2.19178751E+02
  0
VERTEX
  8
0
 62
4
 10
-6.09076312E+01
 20
-2.18932574E+02
  0
VERTEX
  8
0
 62
4
 10
-6.08718761E+01
 20
-2.18682578E+02
  0
VERTEX
  8
0
 62
4
 10
-6.08599275E+01
 20
-2.18430664E+02
  0
SEQEND
  8
0
  0
POLYLINE
  8
0
 62
4
 66
1
  0
VERTEX
  8
0
 62
4
 10
-6.57553484E+01
 20
-2.16034150E+02
  0
VERTEX
  8
0
 62
4
 10
-6.60166315E+01
 20
-2.16188219E+02
  0
VERTEX
  8
0
 62
4
 10
-6.62620636E+01
 20
-2.16362985E+02
  0
VERTEX
  8
0
 62
4
 10
-6.64897157E+01
 20
-2.16557074E+02
  0
VERTEX
  8
0
 62
4
 10
-6.66977984E+01
 20
-2.16768960E+02
  0
VERTEX
  8
0
 62
4
 10
-6.68846762E+01
 20
-2.16996977E+02
  0
VERTEX
  8
0
 62
4
 10
-6.70488803E+01
 20
-2.17239335E+02
  0
VERTEX
  8
0
 62
4
 10
-6.71891200E+01
 20
-2.17494127E+02
  0
VERTEX
  8
0
 62
4
 10
-6.73042932E+01
 20
-2.17759351E+02
  0
VERTEX
  8
0
 62
4
 10
-6.73934945E+01
 20
-2.18032923E+02
  0
VERTEX
  8
0
 62
4
 10
-6.74560228E+01
 20
-2.18312692E+02
  0
VERTEX
  8
0
 62
4
 10
-6.74913867E+01
 20
-2.18596459E+02
  0
VERTEX
  8
0
 62
4
 10
-6.74993083E+01
 20
-2.18881995E+02
  0
VERTEX
  8
0
 62
4
 10
-6.74797252E+01
 20
-2.19167054E+02
  0
VERTEX
  8
0
 62
4
 10
-6.74327914E+01
 20
-2.19449396E+02
  0
VERTEX
  8
0
 62
4
 10
-6.73588758E+01
 20
-2.19726802E+02
  0
VERTEX
  8
0
 62
4
 10
-6.72585593E+01
 20
-2.19997092E+02
  0
VERTEX
  8
0
 62
4
 10
-6.71326305E+01
 20
-2.20258141E+02
  0
VERTEX
  8
0
 62
4
 10
-6.69820790E+01
 20
-2.20507898E+02
  0
VERTEX
  8
0
 62
4
 10
-6.68080883E+01
 20
-2.20744398E+02
  0
VERTEX
  8
0
 62
4
 10
-6.66120258E+01
 20
-2.20965785E+02
  0
VERTEX
  8
0
 62
4
 10
-6.63954326E+01
 20
-2.21170316E+02
  0
VERTEX
  8
0
 62
4
 10
-6.61600111E+01
 20
-2.21356386E+02
  0
VERTEX
  8
0
 62
4
 10
-6.59076116E+01
 20
-2.21522530E+02
  0
VERTEX
  8
0
 62
4
 10
-6.56402180E+01
 20
-2.21667445E+02
  0
VERTEX
  8
0
 62
4
 10
-6.53599319E+01
 20
-2.21789989E+02
  0
VERTEX
  8
0
 62
4
 10
-6.50689564E+01
 20
-2.21889201E+02
  0
VERTEX
  8
0
 62
4
 10
-6.47695785E+01
 20
-2.21964301E+02
  0
VERTEX
  8
0
 62
4
 10
-6.44641512E+01
 20
-2.22014697E+02
  0
VERTEX
  8
0
 62
4
 10
-6.41550752E+01
 20
-2.22039995E+02
  0
VERTEX
  8
0
 62
4
 10
-6.38447798E+01
 20
-2.22039995E+02
  0
VERTEX
  8
0
 62
4
 10
-6.35357038E+01
 20
-2.22014697E+02
  0
VERTEX
  8
0
 62
4
 10
-6.32302765E+01
 20
-2.21964301E+02
  0
VERTEX
  8
0
 62
4
 10
-6.29308986E+01
 20
-2.21889201E+02
  0
VERTEX
  8
0
 62
4
 10
-6.26399231E+01
 20
-2.21789989E+02
  0
VERTEX
  8
0
 62
4
 10
-6.23596370E+01
 20
-2.21667445E+02
  0
VERTEX
  8
0
 62
4
 10
-6.20922434E+01
 20
-2.21522530E+02
  0
VERTEX
  8
0
 62
4
 10
-6.18398439E+01
 20
-2.21356386E+02
  0
VERTEX
  8
0
 62
4
 10
-6.16044224E+01
 20
-2.21170316E+02
  0
VERTEX
  8
0
 62
4
 10
-6.13878292E+01
 20
-2.20965785E+02
  0
VERTEX
  8
0
 62
4
 10
-6.11917667E+01
 20
-2.20744398E+02
  0
VERTEX
  8
0
 62
4
 10
-6.10177760E+01
 20
-2.20507898E+02
  0
VERTEX
  8
0
 62
4
 10
-6.08672245E+01
 20
-2.20258141E+02
  0
VERTEX
  8
0
 62
4
 10
-6.07412957E+01
 20
-2.19997092E+02
  0
VERTEX
  8
0
 62
4
 10
-6.06409792E+01
 20
-2.19726802E+02
  0
VERTEX
  8
0
 62
4
 10
-6.05670636E+01
 20
-2.19449396E+02
  0
VERTEX
  8
0
 62
4
 10
-6.05201298E+01
 20
-2.19167054E+02
  0
VERTEX
  8
0
 62
4
 10
-6.05005467E+01
 20
-2.18881995E+02
  0
VERTEX
  8
0
 62
4
 10
-6.05084683E+01
 20
-2.18596459E+02
  0
VERTEX
  8
0
 62
4
 10
-6.05438322E+01
 20
-2.18312692E+02
  0
VERTEX
  8
0
 62
4
 10
-6.06063605E+01
 20
-2.18032923E+02
  0
VERTEX
  8
0
 62
4
 10
-6.06955618E+01
 20
-2.17759351E+02
  0
VERTEX
  8
0
 62
4
 10
-6.08107350E+01
 20
-2.17494127E+02
  0
VERTEX
  8
0
 62
4
 10
-6.09509747E+01
 20
-2.17239335E+02
  0
VERTEX
  8
0
 62
4
 10
-6.11151788E+01
 20
-2.16996977E+02
  0
VERTEX
  8
0
 62
4
 10
-6.13020566E+01
 20
-2.16768960E+02
  0
VERTEX
  8
0
 62
4
 10
-6.15101393E+01
 20
-2.16557074E+02
  0
VERTEX
  8
0
 62
4
 10
-6.17377914E+01
 20
-2.16362985E+02
  0
VERTEX
  8
0
 62
4
 10
-6.19832235E+01
 20
-2.16188219E+02
  0
VERTEX
  8
0
 62
4
 10
-6.22445066E+01
 20
-2.16034150E+02
  0
SEQEND
  8
0
  0
POLYLINE
  8
0
 62
4
 66
1
  0
VERTEX
  8
0
 62
4
 10
-7.65999275E+01
 20
-2.35153924E+02
  0
VERTEX
  8
0
 62
4
 10
-7.66128655E+01
 20
-2.35011708E+02
  0
VERTEX
  8
0
 62
4
 10
-7.66515811E+01
 20
-2.34870573E+02
  0
VERTEX
  8
0
 62
4
 10
-7.67157797E+01
 20
-2.34731596E+02
  0
VERTEX
  8
0
 62
4
 10
-7.68049726E+01
 20
-2.34595832E+02
  0
VERTEX
  8
0
 62
4
 10
-7.69184810E+01
 20
-2.34464316E+02
  0
VERTEX
  8
0
 62
4
 10
-7.70554411E+01
 20
-2.34338049E+02
  0
VERTEX
  8
0
 62
4
 10
-7.72148105E+01
 20
-2.34217990E+02
  0
VERTEX
  8
0
 62
4
 10
-7.73953764E+01
 20
-2.34105055E+02
  0
VERTEX
  8
0
 62
4
 10
-7.75957644E+01
 20
-2.34000102E+02
  0
VERTEX
  8
0
 62
4
 10
-7.78144496E+01
 20
-2.33903930E+02
  0
VERTEX
  8
0
 62
4
 10
-7.80497676E+01
 20
-2.33817272E+02
  0
VERTEX
  8
0
 62
4
 10
-7.82999275E+01
 20
-2.33740786E+02
  0
VERTEX
  8
0
 62
4
 10
-7.85630254E+01
 20
-2.33675056E+02
  0
VERTEX
  8
0
 62
4
 10
-7.88370590E+01
 20
-2.33620580E+02
  0
VERTEX
  8
0
 62
4
 10
-7.91199427E+01
 20
-2.33577774E+02
  0
VERTEX
  8
0
 62
4
 10
-7.94095237E+01
 20
-2.33546963E+02
  0
VERTEX
  8
0
 62
4
 10
-7.97035980E+01
 20
-2.33528382E+02
  0
VERTEX
  8
0
 62
4
 10
-7.99999275E+01
 20
-2.33522173E+02
  0
VERTEX
  8
0
 62
4
 10
-8.02962570E+01
 20
-2.33528382E+02
  0
VERTEX
  8
0
 62
4
 10
-8.05903313E+01
 20
-2.33546963E+02
  0
VERTEX
  8
0
 62
4
 10
-8.08799123E+01
 20
-2.33577774E+02
  0
VERTEX
  8
0
 62
4
 10
-8.11627960E+01
 20
-2.33620580E+02
  0
VERTEX
  8
0
 62
4
 10
-8.14368296E+01
 20
-2.33675056E+02
  0
VERTEX
  8
0
 62
4
 10
-8.16999275E+01
 20
-2.33740786E+02
  0
VERTEX
  8
0
 62
4
 10
-8.19500874E+01
 20
-2.33817272E+02
  0
VERTEX
  8
0
 62
4
 10
-8.21854054E+01
 20
-2.33903930E+02
  0
VERTEX
  8
0
 62
4
 10
-8.24040906E+01
 20
-2.34000102E+02
  0
VERTEX
  8
0
 62
4
 10
-8.26044786E+01
 20
-2.34105055E+02
  0
VERTEX
  8
0
 62
4
 10
-8.27850445E+01
 20
-2.34217990E+02
  0
VERTEX
  8
0
 62
4
 10
-8.29444139E+01
 20
-2.34338049E+02
  0
VERTEX
  8
0
 62
4
 10
-8.30813740E+01
 20
-2.34464316E+02
  0
VERTEX
  8
0
 62
4
 10
-8.31948824E+01
 20
-2.34595832E+02
  0
VERTEX
  8
0
 62
4
 10
-8.32840753E+01
 20
-2.34731596E+02
  0
VERTEX
  8
0
 62
4
 10
-8.33482739E+01
 20
-2.34870573E+02
  0
VERTEX
  8
0
 62
4
 10
-8.33869895E+01
 20
-2.35011708E+02
  0
VERTEX
  8
0
 62
4
 10
-8.33999275E+01
 20
-2.35153924E+02
  0
VERTEX
  8
0
 62
4
 10
-8.33869895E+01
 20
-2.35296140E+02
  0
VERTEX
  8
0
 62
4
 10
-8.33482739E+01
 20
-2.35437275E+02
  0
VERTEX
  8
0
 62
4
 10
-8.32840753E+01
 20
-2.35576252E+02
  0
VERTEX
  8
0
 62
4
 10
-8.31948824E+01
 20
-2.35712016E+02
  0
VERTEX
  8
0
 62
4
 10
-8.30813740E+01
 20
-2.35843532E+02
  0
VERTEX
  8
0
 62
4
 10
-8.29444139E+01
 20
-2.35969799E+02
  0
VERTEX
  8
0
 62
4
 10
-8.27850444E+01
 20
-2.36089858E+02
  0
VERTEX
  8
0
 62
4
 10
-8.26044786E+01
 20
-2.36202793E+02
  0
VERTEX
  8
0
 62
4
 10
-8.24040906E+01
 20
-2.36307746E+02
  0
VERTEX
  8
0
 62
4
 10
-8.21854054E+01
 20
-2.36403918E+02
  0
VERTEX
  8
0
 62
4
 10
-8.19500874E+01
 20
-2.36490576E+02
  0
VERTEX
  8
0
 62
4
 10
-8.16999275E+01
 20
-2.36567062E+02
  0
VERTEX
  8
0
 62
4
 10
-8.14368296E+01
 20
-2.36632792E+02
  0
VERTEX
  8
0
 62
4
 10
-8.11627960E+01
 20
-2.36687268E+02
  0
VERTEX
  8
0
 62
4
 10
-8.08799122E+01
 20
-2.36730074E+02
  0
VERTEX
  8
0
 62
4
 10
-8.05903313E+01
 20
-2.36760885E+02
  0
VERTEX
  8
0
 62
4
 10
-8.02962570E+01
 20
-2.36779466E+02
  0
VERTEX
  8
0
 62
4
 10
-7.99999275E+01
 20
-2.36785675E+02
  0
VERTEX
  8
0
 62
4
 10
-7.97035980E+01
 20
-2.36779466E+02
  0
VERTEX
  8
0
 62
4
 10
-7.94095237E+01
 20
-2.36760885E+02
  0
VERTEX
  8
0
 62
4
 10
-7.91199427E+01
 20
-2.36730074E+02
  0
VERTEX
  8
0
 62
4
 10
-7.88370590E+01
 20
-2.36687268E+02
  0
VERTEX
  8
0
 62
4
 10
-7.85630254E+01
 20
-2.36632792E+02
  0
VERTEX
  8
0
 62
4
 10
-7.82999275E+01
 20
-2.36567062E+02
  0
VERTEX
  8
0
 62
4
 10
-7.80497676E+01
 20
-2.36490576E+02
  0
VERTEX
  8
0
 62
4
 10
-7.78144496E+01
 20
-2.36403918E+02
  0
VERTEX
  8
0
 62
4
 10
-7.75957644E+01
 20
-2.36307746E+02
  0
VERTEX
  8
0
 62
4
 10
-7.73953764E+01
 20
-2.36202793E+02
  0
VERTEX
  8
0
 62
4
 10
-7.72148105E+01
 20
-2.36089858E+02
  0
VERTEX
  8
0
 62
4
 10
-7.70554411E+01
 20
-2.35969799E+02
  0
VERTEX
  8
0
 62
4
 10
-7.69184810E+01
 20
-2.35843532E+02
  0
VERTEX
  8
0
 62
4
 10
-7.68049726E+01
 20
-2.35712016E+02
  0
VERTEX
  8
0
 62
4
 10
-7.67157797E+01
 20
-2.35576252E+02
  0
VERTEX
  8
0
 62
4
 10
-7.66515811E+01
 20
-2.35437275E+02
  0
VERTEX
  8
0
 62
4
 10
-7.66128655E+01
 20
-2.35296140E+02
  0
VERTEX
  8
0
 62
4
 10
-7.65999275E+01
 20
-2.35153924E+02
  0
SEQEND
  8
0
  0
LINE
  8
0
  6
CENTER
 62
6
 10
-7.01663218E+01
 20
-2.18430664E+02
 11
-5.78335333E+01
 21
-2.18430664E+02
  0
LINE
  8
0
  6
CENTER
 62
6
 10
-6.39999275E+01
 20
-2.12264270E+02
 11
-6.39999275E+01
 21
-2.24597058E+02
  0
LINE
  8
0
 62
4
 10
-7.68176187E+01
 20
-2.35728416E+02
 11
-5.44999242E+01
 21
-2.35728416E+02
  0
LINE
  8
0
 62
4
 10
-9.04999271E+01
 20
-2.35728416E+02
 11
-8.31822363E+01
 21
-2.35728416E+02
  0
ARC
  8
0
 62
4
 10
-7.57643325E+01
 20
-2.24593170E+02
 40
1.21769740E+01
 50
2.40462101E+02
 51
2.58262147E+02
  0
ARC
  8
0
 62
4
 10
-8.42355225E+01
 20
-2.24593170E+02
 40
1.21769740E+01
 50
2.81737853E+02
 51
2.99537899E+02
  0
POLYLINE
  8
0
 62
4
 66
1
  0
VERTEX
  8
0
 62
4
 10
-7.65999275E+01
 20
-2.33258185E+02
  0
VERTEX
  8
0
 62
4
 10
-7.66136149E+01
 20
-2.33139100E+02
  0
VERTEX
  8
0
 62
4
 10
-7.66545669E+01
 20
-2.33020975E+02
  0
VERTEX
  8
0
 62
4
 10
-7.67224538E+01
 20
-2.32904759E+02
  0
VERTEX
  8
0
 62
4
 10
-7.68167289E+01
 20
-2.32791389E+02
  0
VERTEX
  8
0
 62
4
 10
-7.69366333E+01
 20
-2.32681777E+02
  0
VERTEX
  8
0
 62
4
 10
-7.70812016E+01
 20
-2.32576806E+02
  0
VERTEX
  8
0
 62
4
 10
-7.72492697E+01
 20
-2.32477321E+02
  0
VERTEX
  8
0
 62
4
 10
-7.74394845E+01
 20
-2.32384123E+02
  0
VERTEX
  8
0
 62
4
 10
-7.76503145E+01
 20
-2.32297962E+02
  0
VERTEX
  8
0
 62
4
 10
-7.78800622E+01
 20
-2.32219533E+02
  0
VERTEX
  8
0
 62
4
 10
-7.81268778E+01
 20
-2.32149466E+02
  0
VERTEX
  8
0
 62
4
 10
-7.83887740E+01
 20
-2.32088326E+02
  0
VERTEX
  8
0
 62
4
 10
-7.86636424E+01
 20
-2.32036605E+02
  0
VERTEX
  8
0
 62
4
 10
-7.89492697E+01
 20
-2.31994720E+02
  0
VERTEX
  8
0
 62
4
 10
-7.92433563E+01
 20
-2.31963007E+02
  0
VERTEX
  8
0
 62
4
 10
-7.95435344E+01
 20
-2.31941722E+02
  0
VERTEX
  8
0
 62
4
 10
-7.98473871E+01
 20
-2.31931037E+02
  0
VERTEX
  8
0
 62
4
 10
-8.01524679E+01
 20
-2.31931037E+02
  0
VERTEX
  8
0
 62
4
 10
-8.04563206E+01
 20
-2.31941722E+02
  0
VERTEX
  8
0
 62
4
 10
-8.07564987E+01
 20
-2.31963007E+02
  0
VERTEX
  8
0
 62
4
 10
-8.10505853E+01
 20
-2.31994720E+02
  0
VERTEX
  8
0
 62
4
 10
-8.13362126E+01
 20
-2.32036605E+02
  0
VERTEX
  8
0
 62
4
 10
-8.16110809E+01
 20
-2.32088326E+02
  0
VERTEX
  8
0
 62
4
 10
-8.18729772E+01
 20
-2.32149466E+02
  0
VERTEX
  8
0
 62
4
 10
-8.21197928E+01
 20
-2.32219533E+02
  0
VERTEX
  8
0
 62
4
 10
-8.23495405E+01
 20
-2.32297962E+02
  0
VERTEX
  8
0
 62
4
 10
-8.25603705E+01
 20
-2.32384123E+02
  0
VERTEX
  8
0
 62
4
 10
-8.27505853E+01
 20
-2.32477321E+02
  0
VERTEX
  8
0
 62
4
 10
-8.29186534E+01
 20
-2.32576806E+02
  0
VERTEX
  8
0
 62
4
 10
-8.30632216E+01
 20
-2.32681777E+02
  0
VERTEX
  8
0
 62
4
 10
-8.31831261E+01
 20
-2.32791389E+02
  0
VERTEX
  8
0
 62
4
 10
-8.32774012E+01
 20
-2.32904759E+02
  0
VERTEX
  8
0
 62
4
 10
-8.33452881E+01
 20
-2.33020975E+02
  0
VERTEX
  8
0
 62
4
 10
-8.33862401E+01
 20
-2.33139100E+02
  0
VERTEX
  8
0
 62
4
 10
-8.33999275E+01
 20
-2.33258185E+02
  0
SEQEND
  8
0
  0
LINE
  8
0
 62
4
 10
-8.39999275E+01
 20
-2.32797933E+02
 11
-8.39999275E+01
 21
-2.33258185E+02
  0
LINE
  8
0
 62
4
 10
-7.59999275E+01
 20
-2.32797933E+02
 11
-7.59999275E+01
 21
-2.33258185E+02
  0
POLYLINE
  8
0
 62
4
 66
1
  0
VERTEX
  8
0
 62
4
 10
-7.65999275E+01
 20
-2.34081507E+02
  0
VERTEX
  8
0
 62
4
 10
-7.64268755E+01
 20
-2.33960773E+02
  0
VERTEX
  8
0
 62
4
 10
-7.62818325E+01
 20
-2.33834533E+02
  0
VERTEX
  8
0
 62
4
 10
-7.61659357E+01
 20
-2.33703774E+02
  0
VERTEX
  8
0
 62
4
 10
-7.60800934E+01
 20
-2.33569522E+02
  0
VERTEX
  8
0
 62
4
 10
-7.60249786E+01
 20
-2.33432830E+02
  0
VERTEX
  8
0
 62
4
 10
-7.60010234E+01
 20
-2.33294768E+02
  0
VERTEX
  8
0
 62
4
 10
-7.60084156E+01
 20
-2.33156420E+02
  0
VERTEX
  8
0
 62
4
 10
-7.60470971E+01
 20
-2.33018870E+02
  0
VERTEX
  8
0
 62
4
 10
-7.61167648E+01
 20
-2.32883196E+02
  0
VERTEX
  8
0
 62
4
 10
-7.62168725E+01
 20
-2.32750461E+02
  0
VERTEX
  8
0
 62
4
 10
-7.63466356E+01
 20
-2.32621706E+02
  0
VERTEX
  8
0
 62
4
 10
-7.65050367E+01
 20
-2.32497940E+02
  0
VERTEX
  8
0
 62
4
 10
-7.66908342E+01
 20
-2.32380135E+02
  0
VERTEX
  8
0
 62
4
 10
-7.69025717E+01
 20
-2.32269212E+02
  0
VERTEX
  8
0
 62
4
 10
-7.71385893E+01
 20
-2.32166041E+02
  0
VERTEX
  8
0
 62
4
 10
-7.73970368E+01
 20
-2.32071432E+02
  0
VERTEX
  8
0
 62
4
 10
-7.76758884E+01
 20
-2.31986126E+02
  0
VERTEX
  8
0
 62
4
 10
-7.79729580E+01
 20
-2.31910792E+02
  0
VERTEX
  8
0
 62
4
 10
-7.82859171E+01
 20
-2.31846019E+02
  0
VERTEX
  8
0
 62
4
 10
-7.86123122E+01
 20
-2.31792317E+02
  0
VERTEX
  8
0
 62
4
 10
-7.89495849E+01
 20
-2.31750106E+02
  0
VERTEX
  8
0
 62
4
 10
-7.92950911E+01
 20
-2.31719716E+02
  0
VERTEX
  8
0
 62
4
 10
-7.96461226E+01
 20
-2.31701386E+02
  0
VERTEX
  8
0
 62
4
 10
-7.99999275E+01
 20
-2.31695260E+02
  0
VERTEX
  8
0
 62
4
 10
-8.03537324E+01
 20
-2.31701386E+02
  0
VERTEX
  8
0
 62
4
 10
-8.07047639E+01
 20
-2.31719716E+02
  0
VERTEX
  8
0
 62
4
 10
-8.10502701E+01
 20
-2.31750106E+02
  0
VERTEX
  8
0
 62
4
 10
-8.13875427E+01
 20
-2.31792317E+02
  0
VERTEX
  8
0
 62
4
 10
-8.17139379E+01
 20
-2.31846019E+02
  0
VERTEX
  8
0
 62
4
 10
-8.20268969E+01
 20
-2.31910792E+02
  0
VERTEX
  8
0
 62
4
 10
-8.23239666E+01
 20
-2.31986126E+02
  0
VERTEX
  8
0
 62
4
 10
-8.26028182E+01
 20
-2.32071432E+02
  0
VERTEX
  8
0
 62
4
 10
-8.28612657E+01
 20
-2.32166041E+02
  0
VERTEX
  8
0
 62
4
 10
-8.30972833E+01
 20
-2.32269212E+02
  0
VERTEX
  8
0
 62
4
 10
-8.33090207E+01
 20
-2.32380135E+02
  0
VERTEX
  8
0
 62
4
 10
-8.34948183E+01
 20
-2.32497940E+02
  0
VERTEX
  8
0
 62
4
 10
-8.36532194E+01
 20
-2.32621706E+02
  0
VERTEX
  8
0
 62
4
 10
-8.37829825E+01
 20
-2.32750461E+02
  0
VERTEX
  8
0
 62
4
 10
-8.38830902E+01
 20
-2.32883196E+02
  0
VERTEX
  8
0
 62
4
 10
-8.39527579E+01
 20
-2.33018870E+02
  0
VERTEX
  8
0
 62
4
 10
-8.39914394E+01
 20
-2.33156420E+02
  0
VERTEX
  8
0
 62
4
 10
-8.39988316E+01
 20
-2.33294768E+02
  0
VERTEX
  8
0
 62
4
 10
-8.39748764E+01
 20
-2.33432830E+02
  0
VERTEX
  8
0
 62
4
 10
-8.39197616E+01
 20
-2.33569522E+02
  0
VERTEX
  8
0
 62
4
 10
-8.38339193E+01
 20
-2.33703774E+02
  0
VERTEX
  8
0
 62
4
 10
-8.37180225E+01
 20
-2.33834533E+02
  0
VERTEX
  8
0
 62
4
 10
-8.35729795E+01
 20
-2.33960773E+02
  0
VERTEX
  8
0
 62
4
 10
-8.33999275E+01
 20
-2.34081507E+02
  0
SEQEND
  8
0
  0
POLYLINE
  8
0
 62
4
 66
1
  0
VERTEX
  8
0
 62
4
 10
-7.59999275E+01
 20
-2.32797933E+02
  0
VERTEX
  8
0
 62
4
 10
-7.60160303E+01
 20
-2.32657834E+02
  0
VERTEX
  8
0
 62
4
 10
-7.60642091E+01
 20
-2.32518862E+02
  0
VERTEX
  8
0
 62
4
 10
-7.61440761E+01
 20
-2.32382137E+02
  0
VERTEX
  8
0
 62
4
 10
-7.62549880E+01
 20
-2.32248761E+02
  0
VERTEX
  8
0
 62
4
 10
-7.63960520E+01
 20
-2.32119805E+02
  0
VERTEX
  8
0
 62
4
 10
-7.65661323E+01
 20
-2.31996310E+02
  0
VERTEX
  8
0
 62
4
 10
-7.67638595E+01
 20
-2.31879269E+02
  0
VERTEX
  8
0
 62
4
 10
-7.69876416E+01
 20
-2.31769624E+02
  0
VERTEX
  8
0
 62
4
 10
-7.72356769E+01
 20
-2.31668259E+02
  0
VERTEX
  8
0
 62
4
 10
-7.75059683E+01
 20
-2.31575989E+02
  0
VERTEX
  8
0
 62
4
 10
-7.77963396E+01
 20
-2.31493558E+02
  0
VERTEX
  8
0
 62
4
 10
-7.81044528E+01
 20
-2.31421629E+02
  0
VERTEX
  8
0
 62
4
 10
-7.84278274E+01
 20
-2.31360781E+02
  0
VERTEX
  8
0
 62
4
 10
-7.87638595E+01
 20
-2.31311503E+02
  0
VERTEX
  8
0
 62
4
 10
-7.91098438E+01
 20
-2.31274194E+02
  0
VERTEX
  8
0
 62
4
 10
-7.94629944E+01
 20
-2.31249153E+02
  0
VERTEX
  8
0
 62
4
 10
-7.98204682E+01
 20
-2.31236582E+02
  0
VERTEX
  8
0
 62
4
 10
-8.01793868E+01
 20
-2.31236582E+02
  0
VERTEX
  8
0
 62
4
 10
-8.05368606E+01
 20
-2.31249153E+02
  0
VERTEX
  8
0
 62
4
 10
-8.08900112E+01
 20
-2.31274194E+02
  0
VERTEX
  8
0
 62
4
 10
-8.12359955E+01
 20
-2.31311503E+02
  0
VERTEX
  8
0
 62
4
 10
-8.15720276E+01
 20
-2.31360781E+02
  0
VERTEX
  8
0
 62
4
 10
-8.18954021E+01
 20
-2.31421629E+02
  0
VERTEX
  8
0
 62
4
 10
-8.22035154E+01
 20
-2.31493558E+02
  0
VERTEX
  8
0
 62
4
 10
-8.24938867E+01
 20
-2.31575989E+02
  0
VERTEX
  8
0
 62
4
 10
-8.27641781E+01
 20
-2.31668259E+02
  0
VERTEX
  8
0
 62
4
 10
-8.30122134E+01
 20
-2.31769624E+02
  0
VERTEX
  8
0
 62
4
 10
-8.32359955E+01
 20
-2.31879269E+02
  0
VERTEX
  8
0
 62
4
 10
-8.34337227E+01
 20
-2.31996310E+02
  0
VERTEX
  8
0
 62
4
 10
-8.36038030E+01
 20
-2.32119805E+02
  0
VERTEX
  8
0
 62
4
 10
-8.37448670E+01
 20
-2.32248761E+02
  0
VERTEX
  8
0
 62
4
 10
-8.38557789E+01
 20
-2.32382137E+02
  0
VERTEX
  8
0
 62
4
 10
-8.39356459E+01
 20
-2.32518862E+02
  0
VERTEX
  8
0
 62
4
 10
-8.39838247E+01
 20
-2.32657834E+02
  0
VERTEX
  8
0
 62
4
 10
-8.39999275E+01
 20
-2.32797933E+02
  0
SEQEND
  8
0
  0
POLYLINE
  8
0
 62
4
 66
1
  0
VERTEX
  8
0
 62
4
 10
-7.69999275E+01
 20
-2.07490188E+02
  0
VERTEX
  8
0
 62
4
 10
-7.70113434E+01
 20
-2.07249506E+02
  0
VERTEX
  8
0
 62
4
 10
-7.70455042E+01
 20
-2.07010656E+02
  0
VERTEX
  8
0
 62
4
 10
-7.71021500E+01
 20
-2.06775455E+02
  0
VERTEX
  8
0
 62
4
 10
-7.71808496E+01
 20
-2.06545694E+02
  0
VERTEX
  8
0
 62
4
 10
-7.72810041E+01
 20
-2.06323122E+02
  0
VERTEX
  8
0
 62
4
 10
-7.74018513E+01
 20
-2.06109431E+02
  0
VERTEX
  8
0
 62
4
 10
-7.75424714E+01
 20
-2.05906248E+02
  0
VERTEX
  8
0
 62
4
 10
-7.77017942E+01
 20
-2.05715121E+02
  0
VERTEX
  8
0
 62
4
 10
-7.78786072E+01
 20
-2.05537502E+02
  0
VERTEX
  8
0
 62
4
 10
-7.80715647E+01
 20
-2.05374745E+02
  0
VERTEX
  8
0
 62
4
 10
-7.82791982E+01
 20
-2.05228088E+02
  0
VERTEX
  8
0
 62
4
 10
-7.84999275E+01
 20
-2.05098646E+02
  0
VERTEX
  8
0
 62
4
 10
-7.87320727E+01
 20
-2.04987406E+02
  0
VERTEX
  8
0
 62
4
 10
-7.89738671E+01
 20
-2.04895213E+02
  0
VERTEX
  8
0
 62
4
 10
-7.92234704E+01
 20
-2.04822770E+02
  0
VERTEX
  8
0
 62
4
 10
-7.94789830E+01
 20
-2.04770627E+02
  0
VERTEX
  8
0
 62
4
 10
-7.97384603E+01
 20
-2.04739182E+02
  0
VERTEX
  8
0
 62
4
 10
-7.99999275E+01
 20
-2.04728673E+02
  0
VERTEX
  8
0
 62
4
 10
-8.02613947E+01
 20
-2.04739182E+02
  0
VERTEX
  8
0
 62
4
 10
-8.05208720E+01
 20
-2.04770627E+02
  0
VERTEX
  8
0
 62
4
 10
-8.07763846E+01
 20
-2.04822770E+02
  0
VERTEX
  8
0
 62
4
 10
-8.10259879E+01
 20
-2.04895213E+02
  0
VERTEX
  8
0
 62
4
 10
-8.12677823E+01
 20
-2.04987406E+02
  0
VERTEX
  8
0
 62
4
 10
-8.14999275E+01
 20
-2.05098646E+02
  0
VERTEX
  8
0
 62
4
 10
-8.17206568E+01
 20
-2.05228088E+02
  0
VERTEX
  8
0
 62
4
 10
-8.19282903E+01
 20
-2.05374745E+02
  0
VERTEX
  8
0
 62
4
 10
-8.21212478E+01
 20
-2.05537502E+02
  0
VERTEX
  8
0
 62
4
 10
-8.22980608E+01
 20
-2.05715121E+02
  0
VERTEX
  8
0
 62
4
 10
-8.24573836E+01
 20
-2.05906248E+02
  0
VERTEX
  8
0
 62
4
 10
-8.25980037E+01
 20
-2.06109431E+02
  0
VERTEX
  8
0
 62
4
 10
-8.27188509E+01
 20
-2.06323122E+02
  0
VERTEX
  8
0
 62
4
 10
-8.28190054E+01
 20
-2.06545694E+02
  0
VERTEX
  8
0
 62
4
 10
-8.28977050E+01
 20
-2.06775455E+02
  0
VERTEX
  8
0
 62
4
 10
-8.29543508E+01
 20
-2.07010656E+02
  0
VERTEX
  8
0
 62
4
 10
-8.29885116E+01
 20
-2.07249506E+02
  0
VERTEX
  8
0
 62
4
 10
-8.29999275E+01
 20
-2.07490188E+02
  0
VERTEX
  8
0
 62
4
 10
-8.29885116E+01
 20
-2.07730870E+02
  0
VERTEX
  8
0
 62
4
 10
-8.29543508E+01
 20
-2.07969720E+02
  0
VERTEX
  8
0
 62
4
 10
-8.28977050E+01
 20
-2.08204921E+02
  0
VERTEX
  8
0
 62
4
 10
-8.28190054E+01
 20
-2.08434682E+02
  0
VERTEX
  8
0
 62
4
 10
-8.27188509E+01
 20
-2.08657254E+02
  0
VERTEX
  8
0
 62
4
 10
-8.25980037E+01
 20
-2.08870945E+02
  0
VERTEX
  8
0
 62
4
 10
-8.24573836E+01
 20
-2.09074128E+02
  0
VERTEX
  8
0
 62
4
 10
-8.22980608E+01
 20
-2.09265255E+02
  0
VERTEX
  8
0
 62
4
 10
-8.21212478E+01
 20
-2.09442874E+02
  0
VERTEX
  8
0
 62
4
 10
-8.19282903E+01
 20
-2.09605631E+02
  0
VERTEX
  8
0
 62
4
 10
-8.17206568E+01
 20
-2.09752288E+02
  0
VERTEX
  8
0
 62
4
 10
-8.14999275E+01
 20
-2.09881730E+02
  0
VERTEX
  8
0
 62
4
 10
-8.12677823E+01
 20
-2.09992970E+02
  0
VERTEX
  8
0
 62
4
 10
-8.10259879E+01
 20
-2.10085163E+02
  0
VERTEX
  8
0
 62
4
 10
-8.07763846E+01
 20
-2.10157606E+02
  0
VERTEX
  8
0
 62
4
 10
-8.05208720E+01
 20
-2.10209749E+02
  0
VERTEX
  8
0
 62
4
 10
-8.02613947E+01
 20
-2.10241194E+02
  0
VERTEX
  8
0
 62
4
 10
-7.99999275E+01
 20
-2.10251703E+02
  0
VERTEX
  8
0
 62
4
 10
-7.97384603E+01
 20
-2.10241194E+02
  0
VERTEX
  8
0
 62
4
 10
-7.94789830E+01
 20
-2.10209749E+02
  0
VERTEX
  8
0
 62
4
 10
-7.92234704E+01
 20
-2.10157606E+02
  0
VERTEX
  8
0
 62
4
 10
-7.89738671E+01
 20
-2.10085163E+02
  0
VERTEX
  8
0
 62
4
 10
-7.87320727E+01
 20
-2.09992970E+02
  0
VERTEX
  8
0
 62
4
 10
-7.84999275E+01
 20
-2.09881730E+02
  0
VERTEX
  8
0
 62
4
 10
-7.82791982E+01
 20
-2.09752288E+02
  0
VERTEX
  8
0
 62
4
 10
-7.80715647E+01
 20
-2.09605631E+02
  0
VERTEX
  8
0
 62
4
 10
-7.78786072E+01
 20
-2.09442874E+02
  0
VERTEX
  8
0
 62
4
 10
-7.77017942E+01
 20
-2.09265255E+02
  0
VERTEX
  8
0
 62
4
 10
-7.75424714E+01
 20
-2.09074128E+02
  0
VERTEX
  8
0
 62
4
 10
-7.74018513E+01
 20
-2.08870945E+02
  0
VERTEX
  8
0
 62
4
 10
-7.72810041E+01
 20
-2.08657254E+02
  0
VERTEX
  8
0
 62
4
 10
-7.71808496E+01
 20
-2.08434682E+02
  0
VERTEX
  8
0
 62
4
 10
-7.71021500E+01
 20
-2.08204921E+02
  0
VERTEX
  8
0
 62
4
 10
-7.70455042E+01
 20
-2.07969720E+02
  0
VERTEX
  8
0
 62
4
 10
-7.70113434E+01
 20
-2.07730870E+02
  0
VERTEX
  8
0
 62
4
 10
-7.69999275E+01
 20
-2.07490188E+02
  0
SEQEND
  8
0
  0
LINE
  8
0
  6
CENTER
 62
6
 10
-8.44684064E+01
 20
-2.07490188E+02
 11
-7.55314486E+01
 21
-2.07490188E+02
  0
LINE
  8
0
 62
4
 10
-9.69999275E+01
 20
-2.03334577E+02
 11
-9.69999275E+01
 21
-2.16334577E+02
  0
ARC
  8
0
 62
4
 10
-9.64999280E+01
 20
-2.03334576E+02
 40
4.99999542E-01
 50
8.99999475E+01
 51
1.80000053E+02
  0
LINE
  8
0
 62
4
 10
-8.74999275E+01
 20
-2.02834577E+02
 11
-9.64999275E+01
 21
-2.02834577E+02
  0
LINE
  8
0
 62
4
 10
-1.06999928E+02
 20
-2.17287006E+02
 11
-1.01999928E+02
 21
-2.17287006E+02
  0
LINE
  8
0
 62
4
 10
-1.06999928E+02
 20
-2.14352615E+02
 11
-1.01999928E+02
 21
-2.14352615E+02
  0
LINE
  8
0
 62
4
 10
-1.06999928E+02
 20
-2.06904092E+02
 11
-1.01999928E+02
 21
-2.06904092E+02
  0
ARC
  8
0
 62
4
 10
-9.04999271E+01
 20
-2.34228416E+02
 40
1.50000046E+00
 50
1.80000018E+02
 51
2.69999983E+02
  0
ARC
  8
0
 62
4
 10
-5.44999242E+01
 20
-2.34228420E+02
 40
1.49999664E+00
 50
2.69999872E+02
 51
1.28225561E-04
  0
LINE
  8
0
 62
4
 10
-7.04999275E+01
 20
-2.08553427E+02
 11
-5.44999275E+01
 21
-2.08553427E+02
  0
LINE
  8
0
 62
4
 10
-7.24999275E+01
 20
-2.08513670E+02
 11
-7.04999275E+01
 21
-2.08513670E+02
  0
LINE
  8
0
 62
4
 10
-7.04999275E+01
 20
-2.08513670E+02
 11
-7.04999275E+01
 21
-2.27566173E+02
  0
LINE
  8
0
 62
4
 10
-8.74999275E+01
 20
-2.24162253E+02
 11
-7.24999275E+01
 21
-2.24162253E+02
  0
LINE
  8
0
 62
4
 10
-8.74999275E+01
 20
-2.14393975E+02
 11
-7.24999275E+01
 21
-2.14393975E+02
  0
ARC
  8
0
 62
4
 10
-9.64999232E+01
 20
-2.16334572E+02
 40
5.00004272E-01
 50
1.80000490E+02
 51
2.69999511E+02
  0
ARC
  8
0
 62
4
 10
-5.44999309E+01
 20
-2.10053430E+02
 40
1.50000336E+00
 50
1.28225275E-04
 51
8.99998718E+01
  0
LINE
  8
0
 62
4
 10
-9.04999275E+01
 20
-2.29867449E+02
 11
-5.44999275E+01
 21
-2.29867449E+02
  0
LINE
  8
0
 62
4
 10
-8.94999275E+01
 20
-2.26003263E+02
 11
-7.04999275E+01
 21
-2.26003263E+02
  0
LINE
  8
0
 62
4
 10
-9.19999275E+01
 20
-2.16834577E+02
 11
-9.19999275E+01
 21
-2.34228416E+02
  0
LINE
  8
0
 62
4
 10
-8.94999275E+01
 20
-2.16834577E+02
 11
-8.94999275E+01
 21
-2.27566173E+02
  0
LINE
  8
0
 62
4
 10
-5.29999275E+01
 20
-2.10053427E+02
 11
-5.29999275E+01
 21
-2.34228416E+02
  0
LINE
  8
0
 62
4
 10
-1.06999928E+02
 20
-2.02386052E+02
 11
-1.01999928E+02
 21
-2.02386052E+02
  0
LINE
  8
0
 62
4
 10
-8.74999275E+01
 20
-2.00586402E+02
 11
-7.24999275E+01
 21
-2.00586402E+02
  0
LINE
  8
0
 62
4
 10
-1.00499928E+02
 20
-2.15584577E+02
 11
-9.69999275E+01
 21
-2.15584577E+02
  0
LINE
  8
0
 62
4
 10
-1.00499928E+02
 20
-2.04084577E+02
 11
-9.69999275E+01
 21
-2.04084577E+02
  0
LINE
  8
0
 62
4
 10
-1.00499928E+02
 20
-2.03584577E+02
 11
-1.00499928E+02
 21
-2.16084577E+02
  0
LINE
  8
0
 62
4
 10
-1.01999928E+02
 20
-2.16084577E+02
 11
-9.69999275E+01
 21
-2.16084577E+02
  0
LINE
  8
0
 62
4
 10
-1.01999928E+02
 20
-2.03584577E+02
 11
-9.69999275E+01
 21
-2.03584577E+02
  0
LINE
  8
0
 62
4
 10
-1.01999928E+02
 20
-2.17287006E+02
 11
-1.01999928E+02
 21
-2.02386052E+02
  0
LINE
  8
0
 62
4
 10
-1.06999928E+02
 20
-2.02386052E+02
 11
-1.06999928E+02
 21
-2.17287006E+02
  0
LINE
  8
0
 62
4
 10
-9.64999275E+01
 20
-2.16834577E+02
 11
-8.74999275E+01
 21
-2.16834577E+02
  0
LINE
  8
0
  6
CENTER
 62
6
 10
-7.99999275E+01
 20
-1.93473498E+02
 11
-7.99999275E+01
 21
-2.45868331E+02
  0
LINE
  8
0
 62
4
 10
-8.33999275E+01
 20
-2.35153924E+02
 11
-8.33999275E+01
 21
-2.33258185E+02
  0
LINE
  8
0
 62
4
 10
-7.65999275E+01
 20
-2.33258185E+02
 11
-7.65999275E+01
 21
-2.35153924E+02
  0
LINE
  8
0
  6
CENTER
 62
6
 10
-8.39999275E+01
 20
-1.91714216E+02
 11
-8.39999275E+01
 21
-2.02214216E+02
  0
LINE
  8
0
 62
4
 10
-7.24999275E+01
 20
-1.95394216E+02
 11
-8.74999275E+01
 21
-1.95394216E+02
  0
LINE
  8
0
 62
4
 10
-7.24999275E+01
 20
-1.95394216E+02
 11
-7.24999275E+01
 21
-2.24162253E+02
  0
LINE
  8
0
 62
4
 10
-8.74999275E+01
 20
-1.95394216E+02
 11
-8.74999275E+01
 21
-2.24162253E+02
  0
LINE
  8
0
  6
CENTER
 62
6
 10
-7.59999275E+01
 20
-1.91714216E+02
 11
-7.59999275E+01
 21
-2.02214216E+02
  0
LINE
  8
0
 62
4
 10
3.60140103E+02
 20
-4.10438265E+02
 11
3.60447403E+02
 21
-4.11122346E+02
  0
LINE
  8
0
 62
4
 10
3.53860103E+02
 20
-4.10438265E+02
 11
3.53552803E+02
 21
-4.11122346E+02
  0
POLYLINE
  8
0
 62
4
 66
1
  0
VERTEX
  8
0
 62
4
 10
3.53552803E+02
 20
-4.11122347E+02
  0
VERTEX
  8
0
 62
4
 10
3.53512529E+02
 20
-4.11243637E+02
  0
VERTEX
  8
0
 62
4
 10
3.53500150E+02
 20
-4.11365848E+02
  0
VERTEX
  8
0
 62
4
 10
3.53515765E+02
 20
-4.11488002E+02
  0
VERTEX
  8
0
 62
4
 10
3.53559250E+02
 20
-4.11609123E+02
  0
VERTEX
  8
0
 62
4
 10
3.53630257E+02
 20
-4.11728241E+02
  0
VERTEX
  8
0
 62
4
 10
3.53728217E+02
 20
-4.11844404E+02
  0
VERTEX
  8
0
 62
4
 10
3.53852347E+02
 20
-4.11956682E+02
  0
VERTEX
  8
0
 62
4
 10
3.54001655E+02
 20
-4.12064179E+02
  0
VERTEX
  8
0
 62
4
 10
3.54174945E+02
 20
-4.12166033E+02
  0
VERTEX
  8
0
 62
4
 10
3.54370833E+02
 20
-4.12261430E+02
  0
VERTEX
  8
0
 62
4
 10
3.54587751E+02
 20
-4.12349607E+02
  0
VERTEX
  8
0
 62
4
 10
3.54823963E+02
 20
-4.12429859E+02
  0
VERTEX
  8
0
 62
4
 10
3.55077582E+02
 20
-4.12501544E+02
  0
VERTEX
  8
0
 62
4
 10
3.55346578E+02
 20
-4.12564089E+02
  0
VERTEX
  8
0
 62
4
 10
3.55628800E+02
 20
-4.12616993E+02
  0
VERTEX
  8
0
 62
4
 10
3.55921990E+02
 20
-4.12659833E+02
  0
VERTEX
  8
0
 62
4
 10
3.56223803E+02
 20
-4.12692266E+02
  0
VERTEX
  8
0
 62
4
 10
3.56531825E+02
 20
-4.12714034E+02
  0
VERTEX
  8
0
 62
4
 10
3.56843593E+02
 20
-4.12724961E+02
  0
VERTEX
  8
0
 62
4
 10
3.57156613E+02
 20
-4.12724961E+02
  0
VERTEX
  8
0
 62
4
 10
3.57468381E+02
 20
-4.12714034E+02
  0
VERTEX
  8
0
 62
4
 10
3.57776403E+02
 20
-4.12692266E+02
  0
VERTEX
  8
0
 62
4
 10
3.58078216E+02
 20
-4.12659833E+02
  0
VERTEX
  8
0
 62
4
 10
3.58371406E+02
 20
-4.12616993E+02
  0
VERTEX
  8
0
 62
4
 10
3.58653628E+02
 20
-4.12564089E+02
  0
VERTEX
  8
0
 62
4
 10
3.58922624E+02
 20
-4.12501544E+02
  0
VERTEX
  8
0
 62
4
 10
3.59176242E+02
 20
-4.12429859E+02
  0
VERTEX
  8
0
 62
4
 10
3.59412455E+02
 20
-4.12349607E+02
  0
VERTEX
  8
0
 62
4
 10
3.59629373E+02
 20
-4.12261430E+02
  0
VERTEX
  8
0
 62
4
 10
3.59825261E+02
 20
-4.12166033E+02
  0
VERTEX
  8
0
 62
4
 10
3.59998551E+02
 20
-4.12064179E+02
  0
VERTEX
  8
0
 62
4
 10
3.60147859E+02
 20
-4.11956682E+02
  0
VERTEX
  8
0
 62
4
 10
3.60271989E+02
 20
-4.11844404E+02
  0
VERTEX
  8
0
 62
4
 10
3.60369949E+02
 20
-4.11728241E+02
  0
VERTEX
  8
0
 62
4
 10
3.60440956E+02
 20
-4.11609123E+02
  0
VERTEX
  8
0
 62
4
 10
3.60484441E+02
 20
-4.11488002E+02
  0
VERTEX
  8
0
 62
4
 10
3.60500056E+02
 20
-4.11365848E+02
  0
VERTEX
  8
0
 62
4
 10
3.60487677E+02
 20
-4.11243637E+02
  0
VERTEX
  8
0
 62
4
 10
3.60447403E+02
 20
-4.11122347E+02
  0
SEQEND
  8
0
  0
POLYLINE
  8
0
 62
4
 66
1
  0
VERTEX
  8
0
 62
4
 10
3.60140103E+02
 20
-4.10438265E+02
  0
VERTEX
  8
0
 62
4
 10
3.60128154E+02
 20
-4.10331334E+02
  0
VERTEX
  8
0
 62
4
 10
3.60092399E+02
 20
-4.10225217E+02
  0
VERTEX
  8
0
 62
4
 10
3.60033110E+02
 20
-4.10120721E+02
  0
VERTEX
  8
0
 62
4
 10
3.59950738E+02
 20
-4.10018642E+02
  0
VERTEX
  8
0
 62
4
 10
3.59845909E+02
 20
-4.09919756E+02
  0
VERTEX
  8
0
 62
4
 10
3.59719423E+02
 20
-4.09824817E+02
  0
VERTEX
  8
0
 62
4
 10
3.59572240E+02
 20
-4.09734547E+02
  0
VERTEX
  8
0
 62
4
 10
3.59405483E+02
 20
-4.09649632E+02
  0
VERTEX
  8
0
 62
4
 10
3.59220418E+02
 20
-4.09570719E+02
  0
VERTEX
  8
0
 62
4
 10
3.59018456E+02
 20
-4.09498408E+02
  0
VERTEX
  8
0
 62
4
 10
3.58801133E+02
 20
-4.09433251E+02
  0
VERTEX
  8
0
 62
4
 10
3.58570103E+02
 20
-4.09375742E+02
  0
VERTEX
  8
0
 62
4
 10
3.58327124E+02
 20
-4.09326320E+02
  0
VERTEX
  8
0
 62
4
 10
3.58074046E+02
 20
-4.09285360E+02
  0
VERTEX
  8
0
 62
4
 10
3.57812795E+02
 20
-4.09253175E+02
  0
VERTEX
  8
0
 62
4
 10
3.57545358E+02
 20
-4.09230009E+02
  0
VERTEX
  8
0
 62
4
 10
3.57273772E+02
 20
-4.09216038E+02
  0
VERTEX
  8
0
 62
4
 10
3.57000103E+02
 20
-4.09211369E+02
  0
VERTEX
  8
0
 62
4
 10
3.56726434E+02
 20
-4.09216038E+02
  0
VERTEX
  8
0
 62
4
 10
3.56454848E+02
 20
-4.09230009E+02
  0
VERTEX
  8
0
 62
4
 10
3.56187411E+02
 20
-4.09253175E+02
  0
VERTEX
  8
0
 62
4
 10
3.55926160E+02
 20
-4.09285360E+02
  0
VERTEX
  8
0
 62
4
 10
3.55673082E+02
 20
-4.09326320E+02
  0
VERTEX
  8
0
 62
4
 10
3.55430103E+02
 20
-4.09375742E+02
  0
VERTEX
  8
0
 62
4
 10
3.55199073E+02
 20
-4.09433251E+02
  0
VERTEX
  8
0
 62
4
 10
3.54981750E+02
 20
-4.09498408E+02
  0
VERTEX
  8
0
 62
4
 10
3.54779788E+02
 20
-4.09570719E+02
  0
VERTEX
  8
0
 62
4
 10
3.54594723E+02
 20
-4.09649632E+02
  0
VERTEX
  8
0
 62
4
 10
3.54427966E+02
 20
-4.09734547E+02
  0
VERTEX
  8
0
 62
4
 10
3.54280783E+02
 20
-4.09824817E+02
  0
VERTEX
  8
0
 62
4
 10
3.54154297E+02
 20
-4.09919756E+02
  0
VERTEX
  8
0
 62
4
 10
3.54049468E+02
 20
-4.10018642E+02
  0
VERTEX
  8
0
 62
4
 10
3.53967096E+02
 20
-4.10120721E+02
  0
VERTEX
  8
0
 62
4
 10
3.53907807E+02
 20
-4.10225217E+02
  0
VERTEX
  8
0
 62
4
 10
3.53872052E+02
 20
-4.10331334E+02
  0
VERTEX
  8
0
 62
4
 10
3.53860103E+02
 20
-4.10438265E+02
  0
VERTEX
  8
0
 62
4
 10
3.53872052E+02
 20
-4.10545196E+02
  0
VERTEX
  8
0
 62
4
 10
3.53907807E+02
 20
-4.10651313E+02
  0
VERTEX
  8
0
 62
4
 10
3.53967096E+02
 20
-4.10755809E+02
  0
VERTEX
  8
0
 62
4
 10
3.54049468E+02
 20
-4.10857888E+02
  0
VERTEX
  8
0
 62
4
 10
3.54154297E+02
 20
-4.10956774E+02
  0
VERTEX
  8
0
 62
4
 10
3.54280783E+02
 20
-4.11051713E+02
  0
VERTEX
  8
0
 62
4
 10
3.54427966E+02
 20
-4.11141983E+02
  0
VERTEX
  8
0
 62
4
 10
3.54594723E+02
 20
-4.11226898E+02
  0
VERTEX
  8
0
 62
4
 10
3.54779788E+02
 20
-4.11305811E+02
  0
VERTEX
  8
0
 62
4
 10
3.54981750E+02
 20
-4.11378122E+02
  0
VERTEX
  8
0
 62
4
 10
3.55199073E+02
 20
-4.11443279E+02
  0
VERTEX
  8
0
 62
4
 10
3.55430103E+02
 20
-4.11500788E+02
  0
VERTEX
  8
0
 62
4
 10
3.55673082E+02
 20
-4.11550210E+02
  0
VERTEX
  8
0
 62
4
 10
3.55926160E+02
 20
-4.11591170E+02
  0
VERTEX
  8
0
 62
4
 10
3.56187411E+02
 20
-4.11623355E+02
  0
VERTEX
  8
0
 62
4
 10
3.56454848E+02
 20
-4.11646521E+02
  0
VERTEX
  8
0
 62
4
 10
3.56726434E+02
 20
-4.11660492E+02
  0
VERTEX
  8
0
 62
4
 10
3.57000103E+02
 20
-4.11665161E+02
  0
VERTEX
  8
0
 62
4
 10
3.57273772E+02
 20
-4.11660492E+02
  0
VERTEX
  8
0
 62
4
 10
3.57545358E+02
 20
-4.11646521E+02
  0
VERTEX
  8
0
 62
4
 10
3.57812795E+02
 20
-4.11623355E+02
  0
VERTEX
  8
0
 62
4
 10
3.58074046E+02
 20
-4.11591170E+02
  0
VERTEX
  8
0
 62
4
 10
3.58327124E+02
 20
-4.11550210E+02
  0
VERTEX
  8
0
 62
4
 10
3.58570103E+02
 20
-4.11500788E+02
  0
VERTEX
  8
0
 62
4
 10
3.58801133E+02
 20
-4.11443279E+02
  0
VERTEX
  8
0
 62
4
 10
3.59018456E+02
 20
-4.11378122E+02
  0
VERTEX
  8
0
 62
4
 10
3.59220418E+02
 20
-4.11305811E+02
  0
VERTEX
  8
0
 62
4
 10
3.59405483E+02
 20
-4.11226898E+02
  0
VERTEX
  8
0
 62
4
 10
3.59572240E+02
 20
-4.11141983E+02
  0
VERTEX
  8
0
 62
4
 10
3.59719423E+02
 20
-4.11051713E+02
  0
VERTEX
  8
0
 62
4
 10
3.59845909E+02
 20
-4.10956774E+02
  0
VERTEX
  8
0
 62
4
 10
3.59950738E+02
 20
-4.10857888E+02
  0
VERTEX
  8
0
 62
4
 10
3.60033110E+02
 20
-4.10755809E+02
  0
VERTEX
  8
0
 62
4
 10
3.60092399E+02
 20
-4.10651313E+02
  0
VERTEX
  8
0
 62
4
 10
3.60128154E+02
 20
-4.10545196E+02
  0
VERTEX
  8
0
 62
4
 10
3.60140103E+02
 20
-4.10438265E+02
  0
SEQEND
  8
0
  0
LINE
  8
0
  6
CENTER
 62
6
 10
3.57000103E+02
 20
-4.06605068E+02
 11
3.57000103E+02
 21
-4.10438265E+02
  0
LINE
  8
0
 62
4
 10
4.00000103E+02
 20
-3.97100149E+02
 11
3.95000103E+02
 21
-3.97100149E+02
  0
LINE
  8
0
 62
4
 10
4.00000103E+02
 20
-3.96188009E+02
 11
3.95000103E+02
 21
-3.96188009E+02
  0
LINE
  8
0
 62
4
 10
4.00000103E+02
 20
-3.89275017E+02
 11
3.95000103E+02
 21
-3.89275017E+02
  0
LINE
  8
0
 62
4
 10
3.83500103E+02
 20
-4.13790640E+02
 11
3.83500103E+02
 21
-4.08750186E+02
  0
LINE
  8
0
 62
4
 10
3.47500112E+02
 20
-4.13790640E+02
 11
3.47500112E+02
 21
-4.08750186E+02
  0
POLYLINE
  8
0
 62
4
 66
1
  0
VERTEX
  8
0
 62
4
 10
3.78735103E+02
 20
-4.43103845E+02
  0
VERTEX
  8
0
 62
4
 10
3.78728501E+02
 20
-4.42964651E+02
  0
VERTEX
  8
0
 62
4
 10
3.78708744E+02
 20
-4.42826516E+02
  0
VERTEX
  8
0
 62
4
 10
3.78675984E+02
 20
-4.42690491E+02
  0
VERTEX
  8
0
 62
4
 10
3.78630470E+02
 20
-4.42557613E+02
  0
VERTEX
  8
0
 62
4
 10
3.78572547E+02
 20
-4.42428892E+02
  0
VERTEX
  8
0
 62
4
 10
3.78502657E+02
 20
-4.42305307E+02
  0
VERTEX
  8
0
 62
4
 10
3.78421332E+02
 20
-4.42187800E+02
  0
VERTEX
  8
0
 62
4
 10
3.78329190E+02
 20
-4.42077264E+02
  0
VERTEX
  8
0
 62
4
 10
3.78226933E+02
 20
-4.41974542E+02
  0
VERTEX
  8
0
 62
4
 10
3.78115340E+02
 20
-4.41880414E+02
  0
VERTEX
  8
0
 62
4
 10
3.77995258E+02
 20
-4.41795597E+02
  0
VERTEX
  8
0
 62
4
 10
3.77867603E+02
 20
-4.41720737E+02
  0
VERTEX
  8
0
 62
4
 10
3.77733346E+02
 20
-4.41656403E+02
  0
VERTEX
  8
0
 62
4
 10
3.77593508E+02
 20
-4.41603085E+02
  0
VERTEX
  8
0
 62
4
 10
3.77449154E+02
 20
-4.41561188E+02
  0
VERTEX
  8
0
 62
4
 10
3.77301383E+02
 20
-4.41531032E+02
  0
VERTEX
  8
0
 62
4
 10
3.77151318E+02
 20
-4.41512846E+02
  0
VERTEX
  8
0
 62
4
 10
3.77000103E+02
 20
-4.41506769E+02
  0
VERTEX
  8
0
 62
4
 10
3.76848888E+02
 20
-4.41512846E+02
  0
VERTEX
  8
0
 62
4
 10
3.76698823E+02
 20
-4.41531032E+02
  0
VERTEX
  8
0
 62
4
 10
3.76551052E+02
 20
-4.41561188E+02
  0
VERTEX
  8
0
 62
4
 10
3.76406698E+02
 20
-4.41603085E+02
  0
VERTEX
  8
0
 62
4
 10
3.76266860E+02
 20
-4.41656403E+02
  0
VERTEX
  8
0
 62
4
 10
3.76132603E+02
 20
-4.41720737E+02
  0
VERTEX
  8
0
 62
4
 10
3.76004948E+02
 20
-4.41795597E+02
  0
VERTEX
  8
0
 62
4
 10
3.75884866E+02
 20
-4.41880414E+02
  0
VERTEX
  8
0
 62
4
 10
3.75773273E+02
 20
-4.41974542E+02
  0
VERTEX
  8
0
 62
4
 10
3.75671016E+02
 20
-4.42077264E+02
  0
VERTEX
  8
0
 62
4
 10
3.75578874E+02
 20
-4.42187800E+02
  0
VERTEX
  8
0
 62
4
 10
3.75497549E+02
 20
-4.42305307E+02
  0
VERTEX
  8
0
 62
4
 10
3.75427659E+02
 20
-4.42428892E+02
  0
VERTEX
  8
0
 62
4
 10
3.75369736E+02
 20
-4.42557613E+02
  0
VERTEX
  8
0
 62
4
 10
3.75324222E+02
 20
-4.42690491E+02
  0
VERTEX
  8
0
 62
4
 10
3.75291462E+02
 20
-4.42826516E+02
  0
VERTEX
  8
0
 62
4
 10
3.75271705E+02
 20
-4.42964651E+02
  0
VERTEX
  8
0
 62
4
 10
3.75265103E+02
 20
-4.43103845E+02
  0
VERTEX
  8
0
 62
4
 10
3.75271705E+02
 20
-4.43243039E+02
  0
VERTEX
  8
0
 62
4
 10
3.75291462E+02
 20
-4.43381174E+02
  0
VERTEX
  8
0
 62
4
 10
3.75324222E+02
 20
-4.43517199E+02
  0
VERTEX
  8
0
 62
4
 10
3.75369736E+02
 20
-4.43650077E+02
  0
VERTEX
  8
0
 62
4
 10
3.75427659E+02
 20
-4.43778798E+02
  0
VERTEX
  8
0
 62
4
 10
3.75497549E+02
 20
-4.43902383E+02
  0
VERTEX
  8
0
 62
4
 10
3.75578874E+02
 20
-4.44019890E+02
  0
VERTEX
  8
0
 62
4
 10
3.75671016E+02
 20
-4.44130426E+02
  0
VERTEX
  8
0
 62
4
 10
3.75773273E+02
 20
-4.44233148E+02
  0
VERTEX
  8
0
 62
4
 10
3.75884866E+02
 20
-4.44327276E+02
  0
VERTEX
  8
0
 62
4
 10
3.76004948E+02
 20
-4.44412093E+02
  0
VERTEX
  8
0
 62
4
 10
3.76132603E+02
 20
-4.44486953E+02
  0
VERTEX
  8
0
 62
4
 10
3.76266860E+02
 20
-4.44551287E+02
  0
VERTEX
  8
0
 62
4
 10
3.76406698E+02
 20
-4.44604605E+02
  0
VERTEX
  8
0
 62
4
 10
3.76551052E+02
 20
-4.44646502E+02
  0
VERTEX
  8
0
 62
4
 10
3.76698823E+02
 20
-4.44676658E+02
  0
VERTEX
  8
0
 62
4
 10
3.76848888E+02
 20
-4.44694844E+02
  0
VERTEX
  8
0
 62
4
 10
3.77000103E+02
 20
-4.44700921E+02
  0
VERTEX
  8
0
 62
4
 10
3.77151318E+02
 20
-4.44694844E+02
  0
VERTEX
  8
0
 62
4
 10
3.77301383E+02
 20
-4.44676658E+02
  0
VERTEX
  8
0
 62
4
 10
3.77449154E+02
 20
-4.44646502E+02
  0
VERTEX
  8
0
 62
4
 10
3.77593508E+02
 20
-4.44604605E+02
  0
VERTEX
  8
0
 62
4
 10
3.77733346E+02
 20
-4.44551287E+02
  0
VERTEX
  8
0
 62
4
 10
3.77867603E+02
 20
-4.44486953E+02
  0
VERTEX
  8
0
 62
4
 10
3.77995258E+02
 20
-4.44412093E+02
  0
VERTEX
  8
0
 62
4
 10
3.78115340E+02
 20
-4.44327276E+02
  0
VERTEX
  8
0
 62
4
 10
3.78226933E+02
 20
-4.44233148E+02
  0
VERTEX
  8
0
 62
4
 10
3.78329190E+02
 20
-4.44130426E+02
  0
VERTEX
  8
0
 62
4
 10
3.78421332E+02
 20
-4.44019890E+02
  0
VERTEX
  8
0
 62
4
 10
3.78502657E+02
 20
-4.43902383E+02
  0
VERTEX
  8
0
 62
4
 10
3.78572547E+02
 20
-4.43778798E+02
  0
VERTEX
  8
0
 62
4
 10
3.78630470E+02
 20
-4.43650077E+02
  0
VERTEX
  8
0
 62
4
 10
3.78675984E+02
 20
-4.43517199E+02
  0
VERTEX
  8
0
 62
4
 10
3.78708744E+02
 20
-4.43381174E+02
  0
VERTEX
  8
0
 62
4
 10
3.78728501E+02
 20
-4.43243039E+02
  0
VERTEX
  8
0
 62
4
 10
3.78735103E+02
 20
-4.43103845E+02
  0
SEQEND
  8
0
  0
POLYLINE
  8
0
 62
6
 66
1
  0
VERTEX
  8
0
 62
6
 10
3.78500103E+02
 20
-4.43108447E+02
  0
VERTEX
  8
0
 62
6
 10
3.78494395E+02
 20
-4.42988106E+02
  0
VERTEX
  8
0
 62
6
 10
3.78477315E+02
 20
-4.42868681E+02
  0
VERTEX
  8
0
 62
6
 10
3.78448992E+02
 20
-4.42751081E+02
  0
VERTEX
  8
0
 62
6
 10
3.78409642E+02
 20
-4.42636200E+02
  0
VERTEX
  8
0
 62
6
 10
3.78359565E+02
 20
-4.42524914E+02
  0
VERTEX
  8
0
 62
6
 10
3.78299141E+02
 20
-4.42418068E+02
  0
VERTEX
  8
0
 62
6
 10
3.78228831E+02
 20
-4.42316477E+02
  0
VERTEX
  8
0
 62
6
 10
3.78149170E+02
 20
-4.42220913E+02
  0
VERTEX
  8
0
 62
6
 10
3.78060763E+02
 20
-4.42132104E+02
  0
VERTEX
  8
0
 62
6
 10
3.77964284E+02
 20
-4.42050726E+02
  0
VERTEX
  8
0
 62
6
 10
3.77860468E+02
 20
-4.41977397E+02
  0
VERTEX
  8
0
 62
6
 10
3.77750103E+02
 20
-4.41912676E+02
  0
VERTEX
  8
0
 62
6
 10
3.77634030E+02
 20
-4.41857056E+02
  0
VERTEX
  8
0
 62
6
 10
3.77513133E+02
 20
-4.41810960E+02
  0
VERTEX
  8
0
 62
6
 10
3.77388332E+02
 20
-4.41774738E+02
  0
VERTEX
  8
0
 62
6
 10
3.77260575E+02
 20
-4.41748667E+02
  0
VERTEX
  8
0
 62
6
 10
3.77130837E+02
 20
-4.41732944E+02
  0
VERTEX
  8
0
 62
6
 10
3.77000103E+02
 20
-4.41727690E+02
  0
VERTEX
  8
0
 62
6
 10
3.76869369E+02
 20
-4.41732944E+02
  0
VERTEX
  8
0
 62
6
 10
3.76739631E+02
 20
-4.41748667E+02
  0
VERTEX
  8
0
 62
6
 10
3.76611874E+02
 20
-4.41774738E+02
  0
VERTEX
  8
0
 62
6
 10
3.76487073E+02
 20
-4.41810960E+02
  0
VERTEX
  8
0
 62
6
 10
3.76366176E+02
 20
-4.41857056E+02
  0
VERTEX
  8
0
 62
6
 10
3.76250103E+02
 20
-4.41912676E+02
  0
VERTEX
  8
0
 62
6
 10
3.76139738E+02
 20
-4.41977397E+02
  0
VERTEX
  8
0
 62
6
 10
3.76035922E+02
 20
-4.42050726E+02
  0
VERTEX
  8
0
 62
6
 10
3.75939443E+02
 20
-4.42132104E+02
  0
VERTEX
  8
0
 62
6
 10
3.75851036E+02
 20
-4.42220913E+02
  0
VERTEX
  8
0
 62
6
 10
3.75771375E+02
 20
-4.42316477E+02
  0
VERTEX
  8
0
 62
6
 10
3.75701065E+02
 20
-4.42418068E+02
  0
VERTEX
  8
0
 62
6
 10
3.75640641E+02
 20
-4.42524914E+02
  0
VERTEX
  8
0
 62
6
 10
3.75590564E+02
 20
-4.42636200E+02
  0
VERTEX
  8
0
 62
6
 10
3.75551214E+02
 20
-4.42751081E+02
  0
VERTEX
  8
0
 62
6
 10
3.75522891E+02
 20
-4.42868681E+02
  0
VERTEX
  8
0
 62
6
 10
3.75505811E+02
 20
-4.42988106E+02
  0
VERTEX
  8
0
 62
6
 10
3.75500103E+02
 20
-4.43108447E+02
  0
VERTEX
  8
0
 62
6
 10
3.75505811E+02
 20
-4.43228788E+02
  0
VERTEX
  8
0
 62
6
 10
3.75522891E+02
 20
-4.43348213E+02
  0
VERTEX
  8
0
 62
6
 10
3.75551214E+02
 20
-4.43465813E+02
  0
VERTEX
  8
0
 62
6
 10
3.75590564E+02
 20
-4.43580694E+02
  0
VERTEX
  8
0
 62
6
 10
3.75640641E+02
 20
-4.43691980E+02
  0
VERTEX
  8
0
 62
6
 10
3.75701065E+02
 20
-4.43798826E+02
  0
VERTEX
  8
0
 62
6
 10
3.75771375E+02
 20
-4.43900417E+02
  0
VERTEX
  8
0
 62
6
 10
3.75851036E+02
 20
-4.43995981E+02
  0
VERTEX
  8
0
 62
6
 10
3.75939443E+02
 20
-4.44084790E+02
  0
VERTEX
  8
0
 62
6
 10
3.76035922E+02
 20
-4.44166168E+02
  0
VERTEX
  8
0
 62
6
 10
3.76139738E+02
 20
-4.44239497E+02
  0
VERTEX
  8
0
 62
6
 10
3.76250103E+02
 20
-4.44304218E+02
  0
VERTEX
  8
0
 62
6
 10
3.76366176E+02
 20
-4.44359838E+02
  0
VERTEX
  8
0
 62
6
 10
3.76487073E+02
 20
-4.44405934E+02
  0
VERTEX
  8
0
 62
6
 10
3.76611874E+02
 20
-4.44442156E+02
  0
VERTEX
  8
0
 62
6
 10
3.76739631E+02
 20
-4.44468227E+02
  0
VERTEX
  8
0
 62
6
 10
3.76869369E+02
 20
-4.44483950E+02
  0
VERTEX
  8
0
 62
6
 10
3.77000103E+02
 20
-4.44489204E+02
  0
VERTEX
  8
0
 62
6
 10
3.77130837E+02
 20
-4.44483950E+02
  0
VERTEX
  8
0
 62
6
 10
3.77260575E+02
 20
-4.44468227E+02
  0
VERTEX
  8
0
 62
6
 10
3.77388332E+02
 20
-4.44442156E+02
  0
VERTEX
  8
0
 62
6
 10
3.77513133E+02
 20
-4.44405934E+02
  0
VERTEX
  8
0
 62
6
 10
3.77634030E+02
 20
-4.44359838E+02
  0
VERTEX
  8
0
 62
6
 10
3.77750103E+02
 20
-4.44304218E+02
  0
VERTEX
  8
0
 62
6
 10
3.77860468E+02
 20
-4.44239497E+02
  0
VERTEX
  8
0
 62
6
 10
3.77964284E+02
 20
-4.44166168E+02
  0
VERTEX
  8
0
 62
6
 10
3.78060763E+02
 20
-4.44084790E+02
  0
VERTEX
  8
0
 62
6
 10
3.78149170E+02
 20
-4.43995981E+02
  0
VERTEX
  8
0
 62
6
 10
3.78228831E+02
 20
-4.43900417E+02
  0
VERTEX
  8
0
 62
6
 10
3.78299141E+02
 20
-4.43798826E+02
  0
VERTEX
  8
0
 62
6
 10
3.78359565E+02
 20
-4.43691980E+02
  0
VERTEX
  8
0
 62
6
 10
3.78409642E+02
 20
-4.43580694E+02
  0
VERTEX
  8
0
 62
6
 10
3.78448992E+02
 20
-4.43465813E+02
  0
VERTEX
  8
0
 62
6
 10
3.78477315E+02
 20
-4.43348213E+02
  0
VERTEX
  8
0
 62
6
 10
3.78494395E+02
 20
-4.43228788E+02
  0
VERTEX
  8
0
 62
6
 10
3.78500103E+02
 20
-4.43108447E+02
  0
SEQEND
  8
0
  0
POLYLINE
  8
0
 62
4
 66
1
  0
VERTEX
  8
0
 62
4
 10
3.78725335E+02
 20
-4.43273076E+02
  0
VERTEX
  8
0
 62
4
 10
3.78807189E+02
 20
-4.43130651E+02
  0
VERTEX
  8
0
 62
4
 10
3.78875201E+02
 20
-4.42982184E+02
  0
VERTEX
  8
0
 62
4
 10
3.78928850E+02
 20
-4.42828812E+02
  0
VERTEX
  8
0
 62
4
 10
3.78967725E+02
 20
-4.42671709E+02
  0
VERTEX
  8
0
 62
4
 10
3.78991528E+02
 20
-4.42512079E+02
  0
VERTEX
  8
0
 62
4
 10
3.79000077E+02
 20
-4.42351144E+02
  0
VERTEX
  8
0
 62
4
 10
3.78993306E+02
 20
-4.42190138E+02
  0
VERTEX
  8
0
 62
4
 10
3.78971268E+02
 20
-4.42030293E+02
  0
VERTEX
  8
0
 62
4
 10
3.78934130E+02
 20
-4.41872834E+02
  0
VERTEX
  8
0
 62
4
 10
3.78882179E+02
 20
-4.41718968E+02
  0
VERTEX
  8
0
 62
4
 10
3.78815810E+02
 20
-4.41569872E+02
  0
VERTEX
  8
0
 62
4
 10
3.78735533E+02
 20
-4.41426689E+02
  0
VERTEX
  8
0
 62
4
 10
3.78641963E+02
 20
-4.41290515E+02
  0
VERTEX
  8
0
 62
4
 10
3.78535817E+02
 20
-4.41162394E+02
  0
VERTEX
  8
0
 62
4
 10
3.78417907E+02
 20
-4.41043307E+02
  0
VERTEX
  8
0
 62
4
 10
3.78289137E+02
 20
-4.40934166E+02
  0
VERTEX
  8
0
 62
4
 10
3.78150493E+02
 20
-4.40835808E+02
  0
VERTEX
  8
0
 62
4
 10
3.78003037E+02
 20
-4.40748985E+02
  0
VERTEX
  8
0
 62
4
 10
3.77847899E+02
 20
-4.40674363E+02
  0
VERTEX
  8
0
 62
4
 10
3.77686266E+02
 20
-4.40612513E+02
  0
VERTEX
  8
0
 62
4
 10
3.77519378E+02
 20
-4.40563910E+02
  0
VERTEX
  8
0
 62
4
 10
3.77348512E+02
 20
-4.40528924E+02
  0
VERTEX
  8
0
 62
4
 10
3.77174977E+02
 20
-4.40507825E+02
  0
VERTEX
  8
0
 62
4
 10
3.77000103E+02
 20
-4.40500774E+02
  0
VERTEX
  8
0
 62
4
 10
3.76825229E+02
 20
-4.40507825E+02
  0
VERTEX
  8
0
 62
4
 10
3.76651694E+02
 20
-4.40528924E+02
  0
VERTEX
  8
0
 62
4
 10
3.76480828E+02
 20
-4.40563910E+02
  0
VERTEX
  8
0
 62
4
 10
3.76313940E+02
 20
-4.40612513E+02
  0
VERTEX
  8
0
 62
4
 10
3.76152307E+02
 20
-4.40674363E+02
  0
VERTEX
  8
0
 62
4
 10
3.75997169E+02
 20
-4.40748985E+02
  0
VERTEX
  8
0
 62
4
 10
3.75849713E+02
 20
-4.40835808E+02
  0
VERTEX
  8
0
 62
4
 10
3.75711069E+02
 20
-4.40934166E+02
  0
VERTEX
  8
0
 62
4
 10
3.75582299E+02
 20
-4.41043307E+02
  0
VERTEX
  8
0
 62
4
 10
3.75464389E+02
 20
-4.41162394E+02
  0
VERTEX
  8
0
 62
4
 10
3.75358243E+02
 20
-4.41290515E+02
  0
VERTEX
  8
0
 62
4
 10
3.75264673E+02
 20
-4.41426689E+02
  0
VERTEX
  8
0
 62
4
 10
3.75184396E+02
 20
-4.41569872E+02
  0
VERTEX
  8
0
 62
4
 10
3.75118027E+02
 20
-4.41718968E+02
  0
VERTEX
  8
0
 62
4
 10
3.75066076E+02
 20
-4.41872834E+02
  0
VERTEX
  8
0
 62
4
 10
3.75028938E+02
 20
-4.42030293E+02
  0
VERTEX
  8
0
 62
4
 10
3.75006900E+02
 20
-4.42190138E+02
  0
VERTEX
  8
0
 62
4
 10
3.75000129E+02
 20
-4.42351144E+02
  0
VERTEX
  8
0
 62
4
 10
3.75008678E+02
 20
-4.42512079E+02
  0
VERTEX
  8
0
 62
4
 10
3.75032481E+02
 20
-4.42671709E+02
  0
VERTEX
  8
0
 62
4
 10
3.75071356E+02
 20
-4.42828812E+02
  0
VERTEX
  8
0
 62
4
 10
3.75125005E+02
 20
-4.42982184E+02
  0
VERTEX
  8
0
 62
4
 10
3.75193017E+02
 20
-4.43130651E+02
  0
VERTEX
  8
0
 62
4
 10
3.75274871E+02
 20
-4.43273076E+02
  0
SEQEND
  8
0
  0
POLYLINE
  8
0
 62
4
 66
1
  0
VERTEX
  8
0
 62
4
 10
3.70735103E+02
 20
-4.43103845E+02
  0
VERTEX
  8
0
 62
4
 10
3.70728501E+02
 20
-4.42964651E+02
  0
VERTEX
  8
0
 62
4
 10
3.70708744E+02
 20
-4.42826516E+02
  0
VERTEX
  8
0
 62
4
 10
3.70675984E+02
 20
-4.42690491E+02
  0
VERTEX
  8
0
 62
4
 10
3.70630470E+02
 20
-4.42557613E+02
  0
VERTEX
  8
0
 62
4
 10
3.70572547E+02
 20
-4.42428892E+02
  0
VERTEX
  8
0
 62
4
 10
3.70502657E+02
 20
-4.42305307E+02
  0
VERTEX
  8
0
 62
4
 10
3.70421332E+02
 20
-4.42187800E+02
  0
VERTEX
  8
0
 62
4
 10
3.70329190E+02
 20
-4.42077264E+02
  0
VERTEX
  8
0
 62
4
 10
3.70226933E+02
 20
-4.41974542E+02
  0
VERTEX
  8
0
 62
4
 10
3.70115340E+02
 20
-4.41880414E+02
  0
VERTEX
  8
0
 62
4
 10
3.69995258E+02
 20
-4.41795597E+02
  0
VERTEX
  8
0
 62
4
 10
3.69867603E+02
 20
-4.41720737E+02
  0
VERTEX
  8
0
 62
4
 10
3.69733346E+02
 20
-4.41656403E+02
  0
VERTEX
  8
0
 62
4
 10
3.69593508E+02
 20
-4.41603085E+02
  0
VERTEX
  8
0
 62
4
 10
3.69449154E+02
 20
-4.41561188E+02
  0
VERTEX
  8
0
 62
4
 10
3.69301383E+02
 20
-4.41531032E+02
  0
VERTEX
  8
0
 62
4
 10
3.69151318E+02
 20
-4.41512846E+02
  0
VERTEX
  8
0
 62
4
 10
3.69000103E+02
 20
-4.41506769E+02
  0
VERTEX
  8
0
 62
4
 10
3.68848888E+02
 20
-4.41512846E+02
  0
VERTEX
  8
0
 62
4
 10
3.68698823E+02
 20
-4.41531032E+02
  0
VERTEX
  8
0
 62
4
 10
3.68551052E+02
 20
-4.41561188E+02
  0
VERTEX
  8
0
 62
4
 10
3.68406698E+02
 20
-4.41603085E+02
  0
VERTEX
  8
0
 62
4
 10
3.68266860E+02
 20
-4.41656403E+02
  0
VERTEX
  8
0
 62
4
 10
3.68132603E+02
 20
-4.41720737E+02
  0
VERTEX
  8
0
 62
4
 10
3.68004948E+02
 20
-4.41795597E+02
  0
VERTEX
  8
0
 62
4
 10
3.67884866E+02
 20
-4.41880414E+02
  0
VERTEX
  8
0
 62
4
 10
3.67773273E+02
 20
-4.41974542E+02
  0
VERTEX
  8
0
 62
4
 10
3.67671016E+02
 20
-4.42077264E+02
  0
VERTEX
  8
0
 62
4
 10
3.67578874E+02
 20
-4.42187800E+02
  0
VERTEX
  8
0
 62
4
 10
3.67497549E+02
 20
-4.42305307E+02
  0
VERTEX
  8
0
 62
4
 10
3.67427659E+02
 20
-4.42428892E+02
  0
VERTEX
  8
0
 62
4
 10
3.67369736E+02
 20
-4.42557613E+02
  0
VERTEX
  8
0
 62
4
 10
3.67324222E+02
 20
-4.42690491E+02
  0
VERTEX
  8
0
 62
4
 10
3.67291462E+02
 20
-4.42826516E+02
  0
VERTEX
  8
0
 62
4
 10
3.67271705E+02
 20
-4.42964651E+02
  0
VERTEX
  8
0
 62
4
 10
3.67265103E+02
 20
-4.43103845E+02
  0
VERTEX
  8
0
 62
4
 10
3.67271705E+02
 20
-4.43243039E+02
  0
VERTEX
  8
0
 62
4
 10
3.67291462E+02
 20
-4.43381174E+02
  0
VERTEX
  8
0
 62
4
 10
3.67324222E+02
 20
-4.43517199E+02
  0
VERTEX
  8
0
 62
4
 10
3.67369736E+02
 20
-4.43650077E+02
  0
VERTEX
  8
0
 62
4
 10
3.67427659E+02
 20
-4.43778798E+02
  0
VERTEX
  8
0
 62
4
 10
3.67497549E+02
 20
-4.43902383E+02
  0
VERTEX
  8
0
 62
4
 10
3.67578874E+02
 20
-4.44019890E+02
  0
VERTEX
  8
0
 62
4
 10
3.67671016E+02
 20
-4.44130426E+02
  0
VERTEX
  8
0
 62
4
 10
3.67773273E+02
 20
-4.44233148E+02
  0
VERTEX
  8
0
 62
4
 10
3.67884866E+02
 20
-4.44327276E+02
  0
VERTEX
  8
0
 62
4
 10
3.68004948E+02
 20
-4.44412093E+02
  0
VERTEX
  8
0
 62
4
 10
3.68132603E+02
 20
-4.44486953E+02
  0
VERTEX
  8
0
 62
4
 10
3.68266860E+02
 20
-4.44551287E+02
  0
VERTEX
  8
0
 62
4
 10
3.68406698E+02
 20
-4.44604605E+02
  0
VERTEX
  8
0
 62
4
 10
3.68551052E+02
 20
-4.44646502E+02
  0
VERTEX
  8
0
 62
4
 10
3.68698823E+02
 20
-4.44676658E+02
  0
VERTEX
  8
0
 62
4
 10
3.68848888E+02
 20
-4.44694844E+02
  0
VERTEX
  8
0
 62
4
 10
3.69000103E+02
 20
-4.44700921E+02
  0
VERTEX
  8
0
 62
4
 10
3.69151318E+02
 20
-4.44694844E+02
  0
VERTEX
  8
0
 62
4
 10
3.69301383E+02
 20
-4.44676658E+02
  0
VERTEX
  8
0
 62
4
 10
3.69449154E+02
 20
-4.44646502E+02
  0
VERTEX
  8
0
 62
4
 10
3.69593508E+02
 20
-4.44604605E+02
  0
VERTEX
  8
0
 62
4
 10
3.69733346E+02
 20
-4.44551287E+02
  0
VERTEX
  8
0
 62
4
 10
3.69867603E+02
 20
-4.44486953E+02
  0
VERTEX
  8
0
 62
4
 10
3.69995258E+02
 20
-4.44412093E+02
  0
VERTEX
  8
0
 62
4
 10
3.70115340E+02
 20
-4.44327276E+02
  0
VERTEX
  8
0
 62
4
 10
3.70226933E+02
 20
-4.44233148E+02
  0
VERTEX
  8
0
 62
4
 10
3.70329190E+02
 20
-4.44130426E+02
  0
VERTEX
  8
0
 62
4
 10
3.70421332E+02
 20
-4.44019890E+02
  0
VERTEX
  8
0
 62
4
 10
3.70502657E+02
 20
-4.43902383E+02
  0
VERTEX
  8
0
 62
4
 10
3.70572547E+02
 20
-4.43778798E+02
  0
VERTEX
  8
0
 62
4
 10
3.70630470E+02
 20
-4.43650077E+02
  0
VERTEX
  8
0
 62
4
 10
3.70675984E+02
 20
-4.43517199E+02
  0
VERTEX
  8
0
 62
4
 10
3.70708744E+02
 20
-4.43381174E+02
  0
VERTEX
  8
0
 62
4
 10
3.70728501E+02
 20
-4.43243039E+02
  0
VERTEX
  8
0
 62
4
 10
3.70735103E+02
 20
-4.43103845E+02
  0
SEQEND
  8
0
  0
POLYLINE
  8
0
 62
6
 66
1
  0
VERTEX
  8
0
 62
6
 10
3.70500103E+02
 20
-4.43108447E+02
  0
VERTEX
  8
0
 62
6
 10
3.70494395E+02
 20
-4.42988106E+02
  0
VERTEX
  8
0
 62
6
 10
3.70477315E+02
 20
-4.42868681E+02
  0
VERTEX
  8
0
 62
6
 10
3.70448992E+02
 20
-4.42751081E+02
  0
VERTEX
  8
0
 62
6
 10
3.70409642E+02
 20
-4.42636200E+02
  0
VERTEX
  8
0
 62
6
 10
3.70359565E+02
 20
-4.42524914E+02
  0
VERTEX
  8
0
 62
6
 10
3.70299141E+02
 20
-4.42418068E+02
  0
VERTEX
  8
0
 62
6
 10
3.70228831E+02
 20
-4.42316477E+02
  0
VERTEX
  8
0
 62
6
 10
3.70149170E+02
 20
-4.42220913E+02
  0
VERTEX
  8
0
 62
6
 10
3.70060763E+02
 20
-4.42132104E+02
  0
VERTEX
  8
0
 62
6
 10
3.69964284E+02
 20
-4.42050726E+02
  0
VERTEX
  8
0
 62
6
 10
3.69860468E+02
 20
-4.41977397E+02
  0
VERTEX
  8
0
 62
6
 10
3.69750103E+02
 20
-4.41912676E+02
  0
VERTEX
  8
0
 62
6
 10
3.69634030E+02
 20
-4.41857056E+02
  0
VERTEX
  8
0
 62
6
 10
3.69513133E+02
 20
-4.41810960E+02
  0
VERTEX
  8
0
 62
6
 10
3.69388332E+02
 20
-4.41774738E+02
  0
VERTEX
  8
0
 62
6
 10
3.69260575E+02
 20
-4.41748667E+02
  0
VERTEX
  8
0
 62
6
 10
3.69130837E+02
 20
-4.41732944E+02
  0
VERTEX
  8
0
 62
6
 10
3.69000103E+02
 20
-4.41727690E+02
  0
VERTEX
  8
0
 62
6
 10
3.68869369E+02
 20
-4.41732944E+02
  0
VERTEX
  8
0
 62
6
 10
3.68739631E+02
 20
-4.41748667E+02
  0
VERTEX
  8
0
 62
6
 10
3.68611874E+02
 20
-4.41774738E+02
  0
VERTEX
  8
0
 62
6
 10
3.68487073E+02
 20
-4.41810960E+02
  0
VERTEX
  8
0
 62
6
 10
3.68366176E+02
 20
-4.41857056E+02
  0
VERTEX
  8
0
 62
6
 10
3.68250103E+02
 20
-4.41912676E+02
  0
VERTEX
  8
0
 62
6
 10
3.68139738E+02
 20
-4.41977397E+02
  0
VERTEX
  8
0
 62
6
 10
3.68035922E+02
 20
-4.42050726E+02
  0
VERTEX
  8
0
 62
6
 10
3.67939443E+02
 20
-4.42132104E+02
  0
VERTEX
  8
0
 62
6
 10
3.67851036E+02
 20
-4.42220913E+02
  0
VERTEX
  8
0
 62
6
 10
3.67771375E+02
 20
-4.42316477E+02
  0
VERTEX
  8
0
 62
6
 10
3.67701065E+02
 20
-4.42418068E+02
  0
VERTEX
  8
0
 62
6
 10
3.67640641E+02
 20
-4.42524914E+02
  0
VERTEX
  8
0
 62
6
 10
3.67590564E+02
 20
-4.42636200E+02
  0
VERTEX
  8
0
 62
6
 10
3.67551214E+02
 20
-4.42751081E+02
  0
VERTEX
  8
0
 62
6
 10
3.67522891E+02
 20
-4.42868681E+02
  0
VERTEX
  8
0
 62
6
 10
3.67505811E+02
 20
-4.42988106E+02
  0
VERTEX
  8
0
 62
6
 10
3.67500103E+02
 20
-4.43108447E+02
  0
VERTEX
  8
0
 62
6
 10
3.67505811E+02
 20
-4.43228788E+02
  0
VERTEX
  8
0
 62
6
 10
3.67522891E+02
 20
-4.43348213E+02
  0
VERTEX
  8
0
 62
6
 10
3.67551214E+02
 20
-4.43465813E+02
  0
VERTEX
  8
0
 62
6
 10
3.67590564E+02
 20
-4.43580694E+02
  0
VERTEX
  8
0
 62
6
 10
3.67640641E+02
 20
-4.43691980E+02
  0
VERTEX
  8
0
 62
6
 10
3.67701065E+02
 20
-4.43798826E+02
  0
VERTEX
  8
0
 62
6
 10
3.67771375E+02
 20
-4.43900417E+02
  0
VERTEX
  8
0
 62
6
 10
3.67851036E+02
 20
-4.43995981E+02
  0
VERTEX
  8
0
 62
6
 10
3.67939443E+02
 20
-4.44084790E+02
  0
VERTEX
  8
0
 62
6
 10
3.68035922E+02
 20
-4.44166168E+02
  0
VERTEX
  8
0
 62
6
 10
3.68139738E+02
 20
-4.44239497E+02
  0
VERTEX
  8
0
 62
6
 10
3.68250103E+02
 20
-4.44304218E+02
  0
VERTEX
  8
0
 62
6
 10
3.68366176E+02
 20
-4.44359838E+02
  0
VERTEX
  8
0
 62
6
 10
3.68487073E+02
 20
-4.44405934E+02
  0
VERTEX
  8
0
 62
6
 10
3.68611874E+02
 20
-4.44442156E+02
  0
VERTEX
  8
0
 62
6
 10
3.68739631E+02
 20
-4.44468227E+02
  0
VERTEX
  8
0
 62
6
 10
3.68869369E+02
 20
-4.44483950E+02
  0
VERTEX
  8
0
 62
6
 10
3.69000103E+02
 20
-4.44489204E+02
  0
VERTEX
  8
0
 62
6
 10
3.69130837E+02
 20
-4.44483950E+02
  0
VERTEX
  8
0
 62
6
 10
3.69260575E+02
 20
-4.44468227E+02
  0
VERTEX
  8
0
 62
6
 10
3.69388332E+02
 20
-4.44442156E+02
  0
VERTEX
  8
0
 62
6
 10
3.69513133E+02
 20
-4.44405934E+02
  0
VERTEX
  8
0
 62
6
 10
3.69634030E+02
 20
-4.44359838E+02
  0
VERTEX
  8
0
 62
6
 10
3.69750103E+02
 20
-4.44304218E+02
  0
VERTEX
  8
0
 62
6
 10
3.69860468E+02
 20
-4.44239497E+02
  0
VERTEX
  8
0
 62
6
 10
3.69964284E+02
 20
-4.44166168E+02
  0
VERTEX
  8
0
 62
6
 10
3.70060763E+02
 20
-4.44084790E+02
  0
VERTEX
  8
0
 62
6
 10
3.70149170E+02
 20
-4.43995981E+02
  0
VERTEX
  8
0
 62
6
 10
3.70228831E+02
 20
-4.43900417E+02
  0
VERTEX
  8
0
 62
6
 10
3.70299141E+02
 20
-4.43798826E+02
  0
VERTEX
  8
0
 62
6
 10
3.70359565E+02
 20
-4.43691980E+02
  0
VERTEX
  8
0
 62
6
 10
3.70409642E+02
 20
-4.43580694E+02
  0
VERTEX
  8
0
 62
6
 10
3.70448992E+02
 20
-4.43465813E+02
  0
VERTEX
  8
0
 62
6
 10
3.70477315E+02
 20
-4.43348213E+02
  0
VERTEX
  8
0
 62
6
 10
3.70494395E+02
 20
-4.43228788E+02
  0
VERTEX
  8
0
 62
6
 10
3.70500103E+02
 20
-4.43108447E+02
  0
SEQEND
  8
0
  0
POLYLINE
  8
0
 62
4
 66
1
  0
VERTEX
  8
0
 62
4
 10
3.70725335E+02
 20
-4.43273076E+02
  0
VERTEX
  8
0
 62
4
 10
3.70807189E+02
 20
-4.43130651E+02
  0
VERTEX
  8
0
 62
4
 10
3.70875201E+02
 20
-4.42982184E+02
  0
VERTEX
  8
0
 62
4
 10
3.70928850E+02
 20
-4.42828812E+02
  0
VERTEX
  8
0
 62
4
 10
3.70967725E+02
 20
-4.42671709E+02
  0
VERTEX
  8
0
 62
4
 10
3.70991528E+02
 20
-4.42512079E+02
  0
VERTEX
  8
0
 62
4
 10
3.71000077E+02
 20
-4.42351144E+02
  0
VERTEX
  8
0
 62
4
 10
3.70993306E+02
 20
-4.42190138E+02
  0
VERTEX
  8
0
 62
4
 10
3.70971268E+02
 20
-4.42030293E+02
  0
VERTEX
  8
0
 62
4
 10
3.70934130E+02
 20
-4.41872834E+02
  0
VERTEX
  8
0
 62
4
 10
3.70882179E+02
 20
-4.41718968E+02
  0
VERTEX
  8
0
 62
4
 10
3.70815810E+02
 20
-4.41569872E+02
  0
VERTEX
  8
0
 62
4
 10
3.70735533E+02
 20
-4.41426689E+02
  0
VERTEX
  8
0
 62
4
 10
3.70641963E+02
 20
-4.41290515E+02
  0
VERTEX
  8
0
 62
4
 10
3.70535817E+02
 20
-4.41162394E+02
  0
VERTEX
  8
0
 62
4
 10
3.70417907E+02
 20
-4.41043307E+02
  0
VERTEX
  8
0
 62
4
 10
3.70289137E+02
 20
-4.40934166E+02
  0
VERTEX
  8
0
 62
4
 10
3.70150493E+02
 20
-4.40835808E+02
  0
VERTEX
  8
0
 62
4
 10
3.70003037E+02
 20
-4.40748985E+02
  0
VERTEX
  8
0
 62
4
 10
3.69847899E+02
 20
-4.40674363E+02
  0
VERTEX
  8
0
 62
4
 10
3.69686266E+02
 20
-4.40612513E+02
  0
VERTEX
  8
0
 62
4
 10
3.69519378E+02
 20
-4.40563910E+02
  0
VERTEX
  8
0
 62
4
 10
3.69348512E+02
 20
-4.40528924E+02
  0
VERTEX
  8
0
 62
4
 10
3.69174977E+02
 20
-4.40507825E+02
  0
VERTEX
  8
0
 62
4
 10
3.69000103E+02
 20
-4.40500774E+02
  0
VERTEX
  8
0
 62
4
 10
3.68825229E+02
 20
-4.40507825E+02
  0
VERTEX
  8
0
 62
4
 10
3.68651694E+02
 20
-4.40528924E+02
  0
VERTEX
  8
0
 62
4
 10
3.68480828E+02
 20
-4.40563910E+02
  0
VERTEX
  8
0
 62
4
 10
3.68313940E+02
 20
-4.40612513E+02
  0
VERTEX
  8
0
 62
4
 10
3.68152307E+02
 20
-4.40674363E+02
  0
VERTEX
  8
0
 62
4
 10
3.67997169E+02
 20
-4.40748985E+02
  0
VERTEX
  8
0
 62
4
 10
3.67849713E+02
 20
-4.40835808E+02
  0
VERTEX
  8
0
 62
4
 10
3.67711069E+02
 20
-4.40934166E+02
  0
VERTEX
  8
0
 62
4
 10
3.67582299E+02
 20
-4.41043307E+02
  0
VERTEX
  8
0
 62
4
 10
3.67464389E+02
 20
-4.41162394E+02
  0
VERTEX
  8
0
 62
4
 10
3.67358243E+02
 20
-4.41290515E+02
  0
VERTEX
  8
0
 62
4
 10
3.67264673E+02
 20
-4.41426689E+02
  0
VERTEX
  8
0
 62
4
 10
3.67184396E+02
 20
-4.41569872E+02
  0
VERTEX
  8
0
 62
4
 10
3.67118027E+02
 20
-4.41718968E+02
  0
VERTEX
  8
0
 62
4
 10
3.67066076E+02
 20
-4.41872834E+02
  0
VERTEX
  8
0
 62
4
 10
3.67028938E+02
 20
-4.42030293E+02
  0
VERTEX
  8
0
 62
4
 10
3.67006900E+02
 20
-4.42190138E+02
  0
VERTEX
  8
0
 62
4
 10
3.67000129E+02
 20
-4.42351144E+02
  0
VERTEX
  8
0
 62
4
 10
3.67008678E+02
 20
-4.42512079E+02
  0
VERTEX
  8
0
 62
4
 10
3.67032481E+02
 20
-4.42671709E+02
  0
VERTEX
  8
0
 62
4
 10
3.67071356E+02
 20
-4.42828812E+02
  0
VERTEX
  8
0
 62
4
 10
3.67125005E+02
 20
-4.42982184E+02
  0
VERTEX
  8
0
 62
4
 10
3.67193017E+02
 20
-4.43130651E+02
  0
VERTEX
  8
0
 62
4
 10
3.67274871E+02
 20
-4.43273076E+02
  0
SEQEND
  8
0
  0
LINE
  8
0
 62
4
 10
3.65500103E+02
 20
-4.18809058E+02
 11
3.80500103E+02
 21
-4.18809058E+02
  0
LINE
  8
0
 62
4
 10
3.83191381E+02
 20
-4.31368309E+02
 11
3.85000103E+02
 21
-4.29855116E+02
  0
LINE
  8
0
 62
4
 10
3.46000103E+02
 20
-4.29855116E+02
 11
3.47808825E+02
 21
-4.31368309E+02
  0
LINE
  8
0
 62
4
 10
3.85000103E+02
 20
-4.28474359E+02
 11
3.80500103E+02
 21
-4.28474359E+02
  0
LINE
  8
0
 62
4
 10
3.65500103E+02
 20
-4.28474359E+02
 11
3.46000103E+02
 21
-4.28474359E+02
  0
LINE
  8
0
 62
4
 10
3.65500103E+02
 20
-4.07448091E+02
 11
3.47500103E+02
 21
-4.07448091E+02
  0
ARC
  8
0
 62
4
 10
3.47500112E+02
 20
-4.08948100E+02
 40
1.50000856E+00
 50
9.00003273E+01
 51
1.79999673E+02
  0
LINE
  8
0
 62
4
 10
3.83500103E+02
 20
-4.07448091E+02
 11
3.80500103E+02
 21
-4.07448091E+02
  0
ARC
  8
0
 62
4
 10
3.83500094E+02
 20
-4.08948100E+02
 40
1.50000856E+00
 50
3.27119593E-04
 51
8.99996730E+01
  0
LINE
  8
0
 62
4
 10
3.80500103E+02
 20
-3.81733645E+02
 11
3.65500103E+02
 21
-3.81733645E+02
  0
ARC
  8
0
 62
4
 10
3.47500112E+02
 20
-4.16371980E+02
 40
1.50000856E+00
 50
9.00003273E+01
 51
1.79999673E+02
  0
ARC
  8
0
 62
4
 10
3.81000117E+02
 20
-3.97687194E+02
 40
5.00013809E-01
 50
9.00015821E+01
 51
1.79998418E+02
  0
ARC
  8
0
 62
4
 10
3.89500091E+02
 20
-3.83687192E+02
 40
5.00011902E-01
 50
1.36383594E-03
 51
8.99986360E+01
  0
ARC
  8
0
 62
4
 10
3.89500115E+02
 20
-3.96687192E+02
 40
4.99988098E-01
 50
2.69998636E+02
 51
1.36386840E-03
  0
ARC
  8
0
 62
4
 10
3.83500094E+02
 20
-4.16371980E+02
 40
1.50000856E+00
 50
3.27119593E-04
 51
8.99996730E+01
  0
LINE
  8
0
 62
4
 10
3.46000103E+02
 20
-4.08948091E+02
 11
3.46000103E+02
 21
-4.29871972E+02
  0
LINE
  8
0
 62
4
 10
3.80500103E+02
 20
-4.09686729E+02
 11
3.65500103E+02
 21
-4.09686729E+02
  0
LINE
  8
0
 62
4
 10
3.63500103E+02
 20
-4.11388696E+02
 11
3.63500103E+02
 21
-4.14871972E+02
  0
LINE
  8
0
 62
4
 10
3.80500103E+02
 20
-3.81733645E+02
 11
3.80500103E+02
 21
-4.11388696E+02
  0
LINE
  8
0
 62
4
 10
3.65500103E+02
 20
-3.81733645E+02
 11
3.65500103E+02
 21
-4.11388696E+02
  0
LINE
  8
0
 62
4
 10
3.82500103E+02
 20
-4.11388696E+02
 11
3.82500103E+02
 21
-4.14871972E+02
  0
LINE
  8
0
 62
4
 10
3.85000103E+02
 20
-4.29855116E+02
 11
3.80500103E+02
 21
-4.29855116E+02
  0
LINE
  8
0
 62
4
 10
3.85000103E+02
 20
-4.08948091E+02
 11
3.85000103E+02
 21
-4.29871972E+02
  0
LINE
  8
0
 62
4
 10
3.82500103E+02
 20
-4.11388696E+02
 11
3.63500103E+02
 21
-4.11388696E+02
  0
LINE
  8
0
 62
4
 10
3.80500103E+02
 20
-3.87594612E+02
 11
3.65500103E+02
 21
-3.87594612E+02
  0
LINE
  8
0
 62
4
 10
3.65500103E+02
 20
-4.29855116E+02
 11
3.46000103E+02
 21
-4.29855116E+02
  0
LINE
  8
0
 62
4
 10
3.89500103E+02
 20
-3.97187180E+02
 11
3.81000103E+02
 21
-3.97187180E+02
  0
LINE
  8
0
 62
4
 10
3.93500103E+02
 20
-3.95937180E+02
 11
3.90000103E+02
 21
-3.95937180E+02
  0
LINE
  8
0
 62
4
 10
3.93500103E+02
 20
-3.83937180E+02
 11
3.93500103E+02
 21
-3.96437180E+02
  0
LINE
  8
0
 62
4
 10
3.95000103E+02
 20
-3.96437180E+02
 11
3.90000103E+02
 21
-3.96437180E+02
  0
LINE
  8
0
 62
4
 10
3.95000103E+02
 20
-3.83937180E+02
 11
3.90000103E+02
 21
-3.83937180E+02
  0
LINE
  8
0
 62
4
 10
3.95000103E+02
 20
-3.83283372E+02
 11
3.95000103E+02
 21
-3.97100149E+02
  0
LINE
  8
0
 62
4
 10
4.00000103E+02
 20
-3.83283372E+02
 11
4.00000103E+02
 21
-3.97100149E+02
  0
LINE
  8
0
 62
4
 10
3.90000103E+02
 20
-3.83687180E+02
 11
3.90000103E+02
 21
-3.96687180E+02
  0
LINE
  8
0
 62
4
 10
3.80500103E+02
 20
-3.83187180E+02
 11
3.89500103E+02
 21
-3.83187180E+02
  0
LINE
  8
0
 62
4
 10
4.00000103E+02
 20
-3.83283372E+02
 11
3.95000103E+02
 21
-3.83283372E+02
  0
LINE
  8
0
 62
4
 10
3.83500103E+02
 20
-4.14871972E+02
 11
3.47500103E+02
 21
-4.14871972E+02
  0
LINE
  8
0
 62
4
 10
3.93500103E+02
 20
-3.84437180E+02
 11
3.90000103E+02
 21
-3.84437180E+02
  0
LINE
  8
0
  6
CENTER
 62
6
 10
3.64000103E+02
 20
-4.43108447E+02
 11
3.82000103E+02
 21
-4.43108447E+02
  0
LINE
  8
0
  6
CENTER
 62
6
 10
3.69000103E+02
 20
-4.38108447E+02
 11
3.69000103E+02
 21
-4.48108447E+02
  0
LINE
  8
0
  6
CENTER
 62
6
 10
3.77000103E+02
 20
-4.38108447E+02
 11
3.77000103E+02
 21
-4.48108447E+02
  0
LINE
  8
0
 62
4
 10
3.65500103E+02
 20
-4.18809058E+02
 11
3.65500103E+02
 21
-4.46477454E+02
  0
LINE
  8
0
 62
4
 10
3.80500103E+02
 20
-4.18809058E+02
 11
3.80500103E+02
 21
-4.46477454E+02
  0
LINE
  8
0
 62
4
 10
3.66500103E+02
 20
-4.35506249E+02
 11
3.79500103E+02
 21
-4.35506249E+02
  0
LINE
  8
0
 62
4
 10
3.65500103E+02
 20
-4.46477454E+02
 11
3.80500103E+02
 21
-4.46477454E+02
  0
LINE
  8
0
 62
4
 10
3.65500103E+02
 20
-4.21541822E+02
 11
3.80500103E+02
 21
-4.21541822E+02
  0
LINE
  8
0
  6
CENTER
 62
2
 10
-5.92944561E+02
 20
-4.35868324E+02
 11
-6.22191044E+02
 21
-4.35868324E+02
  0
LINE
  8
0
  6
CENTER
 62
2
 10
-6.07500034E+02
 20
-4.50423797E+02
 11
-6.07500034E+02
 21
-4.21312851E+02
  0
LINE
  8
0
 62
7
 10
-5.42870702E+02
 20
-3.18794702E+01
 11
5.57129298E+02
 21
-3.18794702E+01
  0
LINE
  8
0
 62
7
 10
-5.42870702E+02
 20
-5.18794702E+01
 11
5.57129298E+02
 21
-5.18794702E+01
  0
LINE
  8
0
 62
7
 10
-5.42870702E+02
 20
-7.18794702E+01
 11
5.57129298E+02
 21
-7.18794702E+01
  0
LINE
  8
0
 62
7
 10
-5.42870702E+02
 20
-7.18794702E+01
 11
-5.42870702E+02
 21
-3.18794702E+01
  0
LINE
  8
0
 62
7
 10
-4.42870702E+02
 20
-7.18794702E+01
 11
-4.42870702E+02
 21
-3.18794702E+01
  0
TEXT
  8
0
 62
7
 10
-5.29003515E+02
 20
-4.81294702E+01
 40
1.25000000E+01
  1
STROKE
 41
1.00000000E+00
  7
MONOTXT
  0
TEXT
  8
0
 62
7
 10
-5.35253515E+02
 20
-6.81294702E+01
 40
1.25000000E+01
  1
STRETCH
 41
1.00000000E+00
  7
MONOTXT
  0
LINE
  8
0
 62
7
 10
-3.80370702E+02
 20
-7.18794702E+01
 11
-3.80370702E+02
 21
-3.18794702E+01
  0
LINE
  8
0
 62
7
 10
-3.17870702E+02
 20
-7.18794702E+01
 11
-3.17870702E+02
 21
-3.18794702E+01
  0
LINE
  8
0
 62
7
 10
-2.55370702E+02
 20
-7.18794702E+01
 11
-2.55370702E+02
 21
-3.18794702E+01
  0
LINE
  8
0
 62
7
 10
-1.92870702E+02
 20
-7.18794702E+01
 11
-1.92870702E+02
 21
-3.18794702E+01
  0
LINE
  8
0
 62
7
 10
-1.30370702E+02
 20
-7.18794702E+01
 11
-1.30370702E+02
 21
-3.18794702E+01
  0
LINE
  8
0
 62
7
 10
-6.78707017E+01
 20
-7.18794702E+01
 11
-6.78707017E+01
 21
-3.18794702E+01
  0
LINE
  8
0
 62
7
 10
-5.37070174E+00
 20
-7.18794702E+01
 11
-5.37070174E+00
 21
-3.18794702E+01
  0
LINE
  8
0
 62
7
 10
5.71292983E+01
 20
-7.18794702E+01
 11
5.71292983E+01
 21
-3.18794702E+01
  0
LINE
  8
0
 62
7
 10
1.19629298E+02
 20
-7.18794702E+01
 11
1.19629298E+02
 21
-3.18794702E+01
  0
LINE
  8
0
 62
7
 10
1.82129298E+02
 20
-7.18794702E+01
 11
1.82129298E+02
 21
-3.18794702E+01
  0
LINE
  8
0
 62
7
 10
2.44629298E+02
 20
-7.18794702E+01
 11
2.44629298E+02
 21
-3.18794702E+01
  0
LINE
  8
0
 62
7
 10
3.07129298E+02
 20
-7.18794702E+01
 11
3.07129298E+02
 21
-3.18794702E+01
  0
LINE
  8
0
 62
7
 10
3.69629298E+02
 20
-7.18794702E+01
 11
3.69629298E+02
 21
-3.18794702E+01
  0
LINE
  8
0
 62
7
 10
4.32129298E+02
 20
-7.18794702E+01
 11
4.32129298E+02
 21
-3.18794702E+01
  0
LINE
  8
0
 62
7
 10
4.94629298E+02
 20
-7.18794702E+01
 11
4.94629298E+02
 21
-3.18794702E+01
  0
LINE
  8
0
 62
7
 10
5.57129298E+02
 20
-7.18794702E+01
 11
5.57129298E+02
 21
-3.18794702E+01
  0
TEXT
  8
0
 62
7
 10
-4.22753514E+02
 20
-4.81294702E+01
 40
1.25000000E+01
  1
50
 41
1.00000000E+00
  7
MONOTXT
  0
TEXT
  8
0
 62
7
 10
-3.60253514E+02
 20
-4.81294702E+01
 40
1.25000000E+01
  1
75
 41
1.00000000E+00
  7
MONOTXT
  0
TEXT
  8
0
 62
7
 10
-3.04003514E+02
 20
-4.81294702E+01
 40
1.25000000E+01
  1
100
 41
1.00000000E+00
  7
MONOTXT
  0
TEXT
  8
0
 62
7
 10
-2.41503514E+02
 20
-4.81294702E+01
 40
1.25000000E+01
  1
150
 41
1.00000000E+00
  7
MONOTXT
  0
TEXT
  8
0
 62
7
 10
-1.79003514E+02
 20
-4.81294702E+01
 40
1.25000000E+01
  1
200
 41
1.00000000E+00
  7
MONOTXT
  0
TEXT
  8
0
 62
7
 10
-1.16503514E+02
 20
-4.81294702E+01
 40
1.25000000E+01
  1
250
 41
1.00000000E+00
  7
MONOTXT
  0
TEXT
  8
0
 62
7
 10
-5.40035142E+01
 20
-4.81294702E+01
 40
1.25000000E+01
  1
300
 41
1.00000000E+00
  7
MONOTXT
  0
TEXT
  8
0
 62
7
 10
8.49648576E+00
 20
-4.81294702E+01
 40
1.25000000E+01
  1
350
 41
1.00000000E+00
  7
MONOTXT
  0
TEXT
  8
0
 62
7
 10
7.09964858E+01
 20
-4.81294702E+01
 40
1.25000000E+01
  1
400
 41
1.00000000E+00
  7
MONOTXT
  0
TEXT
  8
0
 62
7
 10
1.33496486E+02
 20
-4.81294702E+01
 40
1.25000000E+01
  1
450
 41
1.00000000E+00
  7
MONOTXT
  0
TEXT
  8
0
 62
7
 10
1.95996486E+02
 20
-4.81294702E+01
 40
1.25000000E+01
  1
500
 41
1.00000000E+00
  7
MONOTXT
  0
TEXT
  8
0
 62
7
 10
2.58496486E+02
 20
-4.81294702E+01
 40
1.25000000E+01
  1
600
 41
1.00000000E+00
  7
MONOTXT
  0
TEXT
  8
0
 62
7
 10
3.20996486E+02
 20
-4.81294702E+01
 40
1.25000000E+01
  1
700
 41
1.00000000E+00
  7
MONOTXT
  0
TEXT
  8
0
 62
7
 10
3.83496486E+02
 20
-4.81294702E+01
 40
1.25000000E+01
  1
800
 41
1.00000000E+00
  7
MONOTXT
  0
TEXT
  8
0
 62
7
 10
4.45996486E+02
 20
-4.81294702E+01
 40
1.25000000E+01
  1
900
 41
1.00000000E+00
  7
MONOTXT
  0
TEXT
  8
0
 62
7
 10
5.02246486E+02
 20
-4.81294702E+01
 40
1.25000000E+01
  1
1000
 41
1.00000000E+00
  7
MONOTXT
  0
TEXT
  8
0
 62
7
 10
-4.29003514E+02
 20
-6.81294702E+01
 40
1.25000000E+01
  1
-25
 41
1.00000000E+00
  7
MONOTXT
  0
TEXT
  8
0
 62
7
 10
-3.54003514E+02
 20
-6.81294702E+01
 40
1.25000000E+01
  1
0
 41
1.00000000E+00
  7
MONOTXT
  0
TEXT
  8
0
 62
7
 10
-2.97753514E+02
 20
-6.81294702E+01
 40
1.25000000E+01
  1
25
 41
1.00000000E+00
  7
MONOTXT
  0
TEXT
  8
0
 62
7
 10
-2.35253514E+02
 20
-6.81294702E+01
 40
1.25000000E+01
  1
75
 41
1.00000000E+00
  7
MONOTXT
  0
TEXT
  8
0
 62
7
 10
-1.79003514E+02
 20
-6.81294702E+01
 40
1.25000000E+01
  1
125
 41
1.00000000E+00
  7
MONOTXT
  0
TEXT
  8
0
 62
7
 10
-1.16503514E+02
 20
-6.81294702E+01
 40
1.25000000E+01
  1
175
 41
1.00000000E+00
  7
MONOTXT
  0
TEXT
  8
0
 62
7
 10
-5.40035142E+01
 20
-6.81294702E+01
 40
1.25000000E+01
  1
225
 41
1.00000000E+00
  7
MONOTXT
  0
TEXT
  8
0
 62
7
 10
8.49648576E+00
 20
-6.81294702E+01
 40
1.25000000E+01
  1
275
 41
1.00000000E+00
  7
MONOTXT
  0
TEXT
  8
0
 62
7
 10
7.09964858E+01
 20
-6.81294702E+01
 40
1.25000000E+01
  1
325
 41
1.00000000E+00
  7
MONOTXT
  0
TEXT
  8
0
 62
7
 10
1.33496486E+02
 20
-6.81294702E+01
 40
1.25000000E+01
  1
375
 41
1.00000000E+00
  7
MONOTXT
  0
TEXT
  8
0
 62
7
 10
1.95996486E+02
 20
-6.81294702E+01
 40
1.25000000E+01
  1
425
 41
1.00000000E+00
  7
MONOTXT
  0
TEXT
  8
0
 62
7
 10
2.58496486E+02
 20
-6.81294702E+01
 40
1.25000000E+01
  1
525
 41
1.00000000E+00
  7
MONOTXT
  0
TEXT
  8
0
 62
7
 10
3.20996486E+02
 20
-6.81294702E+01
 40
1.25000000E+01
  1
625
 41
1.00000000E+00
  7
MONOTXT
  0
TEXT
  8
0
 62
7
 10
3.83496486E+02
 20
-6.81294702E+01
 40
1.25000000E+01
  1
725
 41
1.00000000E+00
  7
MONOTXT
  0
TEXT
  8
0
 62
7
 10
4.45996486E+02
 20
-6.81294702E+01
 40
1.25000000E+01
  1
825
 41
1.00000000E+00
  7
MONOTXT
  0
TEXT
  8
0
 62
7
 10
5.08496486E+02
 20
-6.81294702E+01
 40
1.25000000E+01
  1
925
 41
1.00000000E+00
  7
MONOTXT
  0
TEXT
  8
0
 62
7
 10
-6.65035143E+01
 20
-2.31294702E+01
 40
1.25000000E+01
  1
STRETCH LIST
 41
1.05263158E+00
  7
MONOTXT
  0
TEXT
  8
0
 62
7
 10
5.03496486E+02
 20
-2.31294702E+01
 40
1.25000000E+01
  1
(mm)
 41
1.00000000E+00
  7
MONOTXT
  0
LINE
  8
0
 62
7
 10
-3.12506393E+01
 20
-4.40368324E+02
 11
-9.89999886E+01
 21
-4.40368324E+02
  0
LINE
  8
0
 62
7
 10
-2.59999809E+01
 20
-4.31368309E+02
 11
-9.89999886E+01
 21
-4.31368309E+02
  0
LINE
  8
0
 62
7
 10
-2.37450858E+01
 20
-4.27368324E+02
 11
-9.89999886E+01
 21
-4.27368324E+02
  0
LINE
  8
0
 62
7
 10
-7.16651191E+01
 20
-2.80368362E+02
 11
-9.89999275E+01
 21
-2.80368362E+02
  0
LINE
  8
0
 62
7
 10
-7.39745202E+01
 20
-2.84368362E+02
 11
-9.89999275E+01
 21
-2.84368362E+02
  0
LINE
  8
0
 62
7
 10
-6.64689667E+01
 20
-2.71368362E+02
 11
-9.89999275E+01
 21
-2.71368362E+02
  0
LINE
  8
0
 62
7
 10
-8.74999275E+01
 20
-1.97368301E+02
 11
-9.89999275E+01
 21
-1.97368301E+02
  0
LINE
  8
0
 62
7
 10
-8.74999275E+01
 20
-2.01368331E+02
 11
-9.89999275E+01
 21
-2.01368331E+02
  0
LINE
  8
0
 62
2
 10
-4.38999928E+02
 20
-2.51048324E+02
 11
-4.26999928E+02
 21
-2.51048324E+02
  0
LINE
  8
0
 62
7
 10
-4.38999928E+02
 20
-2.51868331E+02
 11
-4.26999928E+02
 21
-2.51868331E+02
  0
LINE
  8
0
 62
2
 10
-4.38999928E+02
 20
-2.30688308E+02
 11
-4.26999928E+02
 21
-2.30688308E+02
  0
LINE
  8
0
 62
7
 10
-4.38999928E+02
 20
-2.29868301E+02
 11
-4.26999928E+02
 21
-2.29868301E+02
  0
LINE
  8
0
 62
7
 10
-4.38999989E+02
 20
-4.59868309E+02
 11
-4.26999989E+02
 21
-4.59868309E+02
  0
LINE
  8
0
 62
2
 10
-4.38999989E+02
 20
-4.60688316E+02
 11
-4.26999989E+02
 21
-4.60688316E+02
  0
LINE
  8
0
 62
4
 10
-6.58500023E+02
 20
-4.61630750E+02
 11
-6.42499961E+02
 21
-4.52393109E+02
  0
LINE
  8
0
 62
4
 10
-6.42499928E+02
 20
-4.52393109E+02
 11
-6.26499955E+02
 21
-4.61630691E+02
  0
LINE
  8
0
 62
4
 10
-6.58499989E+02
 20
-4.61630722E+02
 11
-6.58499989E+02
 21
-4.70868331E+02
  0
LINE
  8
0
 62
4
 10
-6.26499989E+02
 20
-4.61630722E+02
 11
-6.26499989E+02
 21
-4.70868331E+02
  0
ARC
  8
0
 62
7
 10
-6.42499989E+02
 20
-4.70868331E+02
 40
1.10000000E+01
 50
0.00000000E+00
 51
1.80000000E+02
  0
ARC
  8
0
 62
4
 10
-6.42499989E+02
 20
-4.70868331E+02
 40
1.60000000E+01
 50
0.00000000E+00
 51
1.80000000E+02
  0
LINE
  8
0
 62
4
 10
-4.50570926E+02
 20
-4.52410165E+02
 11
-4.40429050E+02
 21
-4.52410165E+02
  0
LINE
  8
0
 62
4
 10
-4.51999988E+02
 20
-4.54885385E+02
 11
-4.51999988E+02
 21
-4.70868331E+02
  0
LINE
  8
0
 62
4
 10
-4.38999989E+02
 20
-4.54885385E+02
 11
-4.38999989E+02
 21
-4.70868331E+02
  0
LINE
  8
0
 62
4
 10
-4.52000005E+02
 20
-4.54885385E+02
 11
-4.50570922E+02
 21
-4.52410168E+02
  0
LINE
  8
0
 62
4
 10
-4.40429069E+02
 20
-4.52410212E+02
 11
-4.38999996E+02
 21
-4.54885400E+02
  0
LINE
  8
0
 62
4
 10
-4.50570926E+02
 20
-4.61885389E+02
 11
-4.40429050E+02
 21
-4.61885389E+02
  0
ARC
  8
0
 62
4
 10
-4.68054784E+02
 20
-4.70885389E+02
 40
2.90548000E+01
 50
3.36363131E-02
 51
1.80446768E+01
  0
ARC
  8
0
 62
4
 10
-4.47562591E+02
 20
-4.57147779E+02
 40
8.56342793E+00
 50
3.26410605E+02
 51
3.35892584E+01
  0
ARC
  8
0
 62
4
 10
-4.22945188E+02
 20
-4.70885389E+02
 40
2.90548000E+01
 50
1.61955287E+02
 51
1.79966364E+02
  0
ARC
  8
0
 62
4
 10
-4.43437386E+02
 20
-4.57147779E+02
 40
8.56342793E+00
 50
1.46410665E+02
 51
2.13589318E+02
  0
LINE
  8
0
 62
4
 10
-4.51999928E+02
 20
-2.56868331E+02
 11
-4.38999928E+02
 21
-2.56868331E+02
  0
LINE
  8
0
 62
4
 10
-4.51999928E+02
 20
-2.24868331E+02
 11
-4.38999928E+02
 21
-2.24868331E+02
  0
LINE
  8
0
 62
4
 10
-4.51999928E+02
 20
-2.24868331E+02
 11
-4.51999928E+02
 21
-2.56868331E+02
  0
LINE
  8
0
 62
4
 10
-4.38999928E+02
 20
-2.24868331E+02
 11
-4.38999928E+02
 21
-2.56868331E+02
  0
ARC
  8
0
 62
4
 10
-4.28893140E+02
 20
-2.32868331E+02
 40
2.31067870E+01
 50
1.59743797E+02
 51
2.00256203E+02
  0
ARC
  8
0
 62
4
 10
-4.28893140E+02
 20
-2.48868331E+02
 40
2.31067870E+01
 50
1.59743797E+02
 51
2.00256203E+02
  0
ARC
  8
0
 62
4
 10
-4.62106715E+02
 20
-2.32868331E+02
 40
2.31067870E+01
 50
3.39743797E+02
 51
2.02562028E+01
  0
ARC
  8
0
 62
4
 10
-4.62106715E+02
 20
-2.48868331E+02
 40
2.31067870E+01
 50
3.39743797E+02
 51
2.02562028E+01
  0
LINE
  8
0
 62
4
 10
-4.50570862E+02
 20
-2.40868331E+02
 11
-4.40428993E+02
 21
-2.40868331E+02
  0
INSERT
  8
0
  2
PP3
  6
BYBLOCK
 62
0
 10
0.00000000E+00
 20
0.00000000E+00
 41
1.00000000E+00
 42
1.00000000E+00
 50
0.00000000E+00
  0
INSERT
  8
0
  2
PP4
  6
BYBLOCK
 62
0
 10
0.00000000E+00
 20
0.00000000E+00
 41
1.00000000E+00
 42
1.00000000E+00
 50
0.00000000E+00
  0
ARC
  8
0
 62
7
 10
6.55001335E+01
 20
-4.19868354E+02
 40
5.00000000E+00
 50
8.99999818E+01
 51
1.79999964E+02
  0
ARC
  8
0
 62
7
 10
1.67500095E+02
 20
-4.19868354E+02
 40
5.00000000E+00
 50
0.00000000E+00
 51
8.99999818E+01
  0
ARC
  8
0
 62
7
 10
5.83410149E+01
 20
-4.67868377E+02
 40
6.84084702E+00
 50
1.53989169E+02
 51
2.06010827E+02
  0
ARC
  8
0
 62
7
 10
1.74659250E+02
 20
-4.67868377E+02
 40
6.84084702E+00
 50
3.33989137E+02
 51
2.60107947E+01
  0
CIRCLE
  8
0
 62
2
 10
-2.77999928E+02
 20
-2.40868331E+02
 40
1.55000010E+01
  0
CIRCLE
  8
0
 62
7
 10
-2.77999928E+02
 20
-2.40868331E+02
 40
1.25000000E+01
  0
ARC
  8
0
 62
7
 10
-2.14787525E+02
 20
-3.03343246E+02
 40
2.52511263E+00
 50
2.26521028E+02
 51
2.86521911E+02
  0
ARC
  8
0
 62
7
 10
-2.20000019E+02
 20
-2.96807205E+02
 40
9.06113625E+00
 50
2.47449090E+02
 51
2.92551001E+02
  0
ARC
  8
0
 62
7
 10
-2.25212513E+02
 20
-3.03343246E+02
 40
2.52511263E+00
 50
2.53478180E+02
 51
3.13479049E+02
  0
ARC
  8
0
 62
7
 10
-2.14787525E+02
 20
-1.78393478E+02
 40
2.52511263E+00
 50
7.34781915E+01
 51
1.33479081E+02
  0
ARC
  8
0
 62
7
 10
-2.25212513E+02
 20
-1.78393478E+02
 40
2.52511263E+00
 50
4.65210741E+01
 51
1.06521937E+02
  0
ARC
  8
0
 62
7
 10
-2.20000019E+02
 20
-1.84929519E+02
 40
9.06113625E+00
 50
6.74491016E+01
 51
1.12551013E+02
  0
CIRCLE
  8
0
 62
7
 10
-1.88999928E+02
 20
-2.25868301E+02
 40
5.72250080E+00
  0
ARC
  8
0
 62
7
 10
-2.20000019E+02
 20
-4.70868331E+02
 40
8.00000000E+00
 50
0.00000000E+00
 51
1.80000000E+02
  0
ARC
  8
0
 62
7
 10
-2.20000019E+02
 20
-4.70868331E+02
 40
3.30000043E+00
 50
0.00000000E+00
 51
1.80000000E+02
  0
ARC
  8
0
 62
7
 10
-2.20000019E+02
 20
-4.70868331E+02
 40
4.00000000E+00
 50
0.00000000E+00
 51
1.80000000E+02
  0
CIRCLE
  8
0
 62
7
 10
-1.88999928E+02
 20
-2.25868301E+02
 40
6.57850027E+00
  0
CIRCLE
  8
0
 62
7
 10
-3.66999928E+02
 20
-2.25868301E+02
 40
5.72250080E+00
  0
CIRCLE
  8
0
 62
7
 10
-3.66999928E+02
 20
-2.25868301E+02
 40
6.57850027E+00
  0
CIRCLE
  8
0
 62
7
 10
-2.77999928E+02
 20
-2.40868301E+02
 40
8.71000004E+00
  0
CIRCLE
  8
0
 62
7
 10
-2.77999928E+02
 20
-2.40868301E+02
 40
7.44000006E+00
  0
CIRCLE
  8
0
 62
2
 10
-2.77999928E+02
 20
-2.40868301E+02
 40
8.32999992E+00
  0
CIRCLE
  8
0
 62
2
 10
-6.84499928E+02
 20
-4.28868324E+02
 40
5.00000000E+00
  0
CIRCLE
  8
0
 62
7
 10
-6.84499928E+02
 20
-4.28868324E+02
 40
8.25002670E+00
  0
CIRCLE
  8
0
 62
7
 10
-6.84499928E+02
 20
-4.28868324E+02
 40
8.00002670E+00
  0
CIRCLE
  8
0
 62
7
 10
-6.00499989E+02
 20
-4.28868324E+02
 40
4.18000031E+00
  0
CIRCLE
  8
0
 62
2
 10
-6.00499989E+02
 20
-4.28868324E+02
 40
5.00000000E+00
  0
CIRCLE
  8
0
 62
7
 10
-6.00499989E+02
 20
-4.28868324E+02
 40
8.25002670E+00
  0
CIRCLE
  8
0
 62
7
 10
-6.00499989E+02
 20
-4.28868324E+02
 40
8.00002670E+00
  0
CIRCLE
  8
0
 62
7
 10
-6.84499928E+02
 20
-4.28868324E+02
 40
4.18000031E+00
  0
ARC
  8
0
 62
7
 10
-6.93500050E+02
 20
-4.19868354E+02
 40
5.00000000E+00
 50
8.99999818E+01
 51
1.79999964E+02
  0
ARC
  8
0
 62
7
 10
-5.91499989E+02
 20
-4.19868354E+02
 40
5.00000000E+00
 50
0.00000000E+00
 51
8.99999818E+01
  0
ARC
  8
0
 62
2
 10
-2.77999989E+02
 20
-3.66163139E+02
 40
5.34997444E+01
 50
2.53158779E+02
 51
2.86841243E+02
  0
ARC
  8
0
 62
2
 10
-2.77999989E+02
 20
-3.66163139E+02
 40
4.97995224E+01
 50
2.55462951E+02
 51
2.84537065E+02
  0
ARC
  8
0
 62
7
 10
-3.35999989E+02
 20
-4.70868331E+02
 40
3.30000043E+00
 50
0.00000000E+00
 51
1.80000000E+02
  0
ARC
  8
0
 62
7
 10
-3.35999989E+02
 20
-4.70868331E+02
 40
8.00000000E+00
 50
0.00000000E+00
 51
1.80000000E+02
  0
ARC
  8
0
 62
7
 10
-3.35999989E+02
 20
-4.70868331E+02
 40
4.00000000E+00
 50
0.00000000E+00
 51
1.80000000E+02
  0
ARC
  8
0
 62
7
 10
-7.00659168E+02
 20
-4.67868339E+02
 40
6.84084702E+00
 50
1.53989169E+02
 51
2.06010827E+02
  0
ARC
  8
0
 62
7
 10
-5.84340870E+02
 20
-4.67868339E+02
 40
6.84084702E+00
 50
3.33989137E+02
 51
2.60107913E+01
  0
ARC
  8
0
 62
7
 10
-3.41212391E+02
 20
-1.78393478E+02
 40
2.52511263E+00
 50
4.65209375E+01
 51
1.06521820E+02
  0
ARC
  8
0
 62
7
 10
-3.30787403E+02
 20
-1.78393478E+02
 40
2.52511263E+00
 50
7.34780821E+01
 51
1.33478944E+02
  0
ARC
  8
0
 62
7
 10
-3.35999866E+02
 20
-2.96807205E+02
 40
9.06113625E+00
 50
2.47449035E+02
 51
2.92550946E+02
  0
ARC
  8
0
 62
7
 10
-3.30787403E+02
 20
-3.03343246E+02
 40
2.52511263E+00
 50
2.26520987E+02
 51
2.86521856E+02
  0
ARC
  8
0
 62
7
 10
-3.41212391E+02
 20
-3.03343246E+02
 40
2.52511263E+00
 50
2.53478125E+02
 51
3.13479008E+02
  0
ARC
  8
0
 62
7
 10
-3.35999866E+02
 20
-1.84929519E+02
 40
9.06113625E+00
 50
6.74489921E+01
 51
1.12550903E+02
  0
ARC
  8
0
 62
7
 10
1.54500088E+02
 20
-4.48003013E+02
 40
1.00000000E+00
 50
3.59721781E-05
 51
1.03886119E+02
  0
ARC
  8
0
 62
7
 10
1.39365414E+02
 20
-4.32868263E+02
 40
1.00000000E+00
 50
3.46112226E+02
 51
9.00000162E+01
  0
ARC
  8
0
 62
7
 10
9.36347313E+01
 20
-4.32868354E+02
 40
1.00000000E+00
 50
9.00000162E+01
 51
1.93885698E+02
  0
ARC
  8
0
 62
7
 10
7.85000114E+01
 20
-4.48002998E+02
 40
1.00000000E+00
 50
7.61138592E+01
 51
1.80000005E+02
  0
ARC
  8
0
 62
7
 10
1.16500072E+02
 20
-4.70868255E+02
 40
2.20000000E+01
 50
0.00000000E+00
 51
1.80000199E+02
  0
ARC
  8
0
 62
7
 10
1.14250072E+02
 20
-4.47978599E+02
 40
1.00000000E+00
 50
2.75613894E+02
 51
3.59721781E-05
  0
ARC
  8
0
 62
7
 10
9.36103783E+01
 20
-4.68618347E+02
 40
1.00000000E+00
 50
2.70000038E+02
 51
3.54386163E+02
  0
ARC
  8
0
 62
7
 10
1.01905605E+02
 20
-4.53091835E+02
 40
1.00000000E+00
 50
2.25000000E+02
 51
3.09386157E+02
  0
ARC
  8
0
 62
7
 10
9.87235985E+01
 20
-4.56273872E+02
 40
1.00000000E+00
 50
3.20614517E+02
 51
4.50000423E+01
  0
ARC
  8
0
 62
7
 10
9.84989738E+01
 20
-4.28468376E+02
 40
1.00000000E+00
 50
9.00000162E+01
 51
1.78725219E+02
  0
ARC
  8
0
 62
7
 10
7.41000328E+01
 20
-4.52867149E+02
 40
1.00000000E+00
 50
9.12730270E+01
 51
1.80000005E+02
  0
ARC
  8
0
 62
7
 10
9.40000725E+01
 20
-4.28368263E+02
 40
3.50000024E+00
 50
2.69999984E+02
 51
3.58725492E+02
  0
ARC
  8
0
 62
7
 10
7.40000572E+01
 20
-4.48368263E+02
 40
3.50000024E+00
 50
2.71273049E+02
 51
1.86693353E-05
  0
CIRCLE
  8
0
 62
7
 10
8.15000572E+01
 20
-4.35868354E+02
 40
8.00000000E+00
  0
ARC
  8
0
 62
7
 10
7.35000420E+01
 20
-4.27868354E+02
 40
4.00000000E+00
 50
9.00000162E+01
 51
1.80000005E+02
  0
ARC
  8
0
 62
7
 10
8.15000572E+01
 20
-4.35868354E+02
 40
1.15000000E+01
 50
2.56113130E+02
 51
1.38865754E+01
  0
ARC
  8
0
 62
7
 10
7.35000420E+01
 20
-4.27868354E+02
 40
3.40000033E+00
 50
9.00000162E+01
 51
1.80000005E+02
  0
ARC
  8
0
 62
7
 10
7.41000328E+01
 20
-4.68618347E+02
 40
1.00000000E+00
 50
1.79999991E+02
 51
2.70000028E+02
  0
ARC
  8
0
 62
7
 10
1.14250072E+02
 20
-4.28468376E+02
 40
1.00000000E+00
 50
3.59721781E-05
 51
9.00000162E+01
  0
ARC
  8
0
 62
7
 10
9.17855492E+01
 20
-4.42971809E+02
 40
1.00000000E+00
 50
1.45369621E+02
 51
2.25000010E+02
  0
ARC
  8
0
 62
7
 10
8.86035423E+01
 20
-4.46153816E+02
 40
1.00000000E+00
 50
4.50000423E+01
 51
1.24630380E+02
  0
CIRCLE
  8
0
 62
7
 10
8.15000572E+01
 20
-4.35868354E+02
 40
8.69999981E+00
  0
CIRCLE
  8
0
 62
2
 10
1.51500088E+02
 20
-4.35868324E+02
 40
5.00000000E+00
  0
ARC
  8
0
 62
7
 10
1.39389767E+02
 20
-4.68618331E+02
 40
1.00000000E+00
 50
1.85613878E+02
 51
2.70000038E+02
  0
ARC
  8
0
 62
7
 10
1.18750072E+02
 20
-4.47978645E+02
 40
1.00000000E+00
 50
1.80000036E+02
 51
2.64386169E+02
  0
ARC
  8
0
 62
7
 10
1.34276546E+02
 20
-4.56273857E+02
 40
1.00000000E+00
 50
1.35000014E+02
 51
2.19386168E+02
  0
ARC
  8
0
 62
7
 10
1.31094540E+02
 20
-4.53091835E+02
 40
1.00000000E+00
 50
2.30614484E+02
 51
3.15000026E+02
  0
ARC
  8
0
 62
7
 10
1.34501217E+02
 20
-4.28468299E+02
 40
1.00000000E+00
 50
1.27300564E+00
 51
9.00000162E+01
  0
ARC
  8
0
 62
7
 10
1.58900021E+02
 20
-4.52867240E+02
 40
1.00000000E+00
 50
3.59721781E-05
 51
8.87252023E+01
  0
ARC
  8
0
 62
7
 10
1.59000134E+02
 20
-4.48368354E+02
 40
3.50000024E+00
 50
1.79999500E+02
 51
2.68725460E+02
  0
ARC
  8
0
 62
7
 10
1.39000118E+02
 20
-4.28368324E+02
 40
3.50000024E+00
 50
1.81273033E+02
 51
2.69999984E+02
  0
CIRCLE
  8
0
 62
2
 10
8.15000572E+01
 20
-4.35868324E+02
 40
5.00000000E+00
  0
CIRCLE
  8
0
 62
7
 10
1.51500088E+02
 20
-4.35868354E+02
 40
8.00000000E+00
  0
ARC
  8
0
 62
7
 10
1.59500057E+02
 20
-4.27868339E+02
 40
4.00000000E+00
 50
2.23117997E-05
 51
8.99999750E+01
  0
ARC
  8
0
 62
7
 10
1.59500057E+02
 20
-4.27868339E+02
 40
3.40000033E+00
 50
2.23117997E-05
 51
8.99999750E+01
  0
ARC
  8
0
 62
7
 10
1.58900021E+02
 20
-4.68618331E+02
 40
1.00000000E+00
 50
2.70000052E+02
 51
3.59721781E-05
  0
ARC
  8
0
 62
7
 10
1.51500088E+02
 20
-4.35868354E+02
 40
1.15000000E+01
 50
1.66113111E+02
 51
2.83886595E+02
  0
ARC
  8
0
 62
7
 10
1.18750072E+02
 20
-4.28468330E+02
 40
1.00000000E+00
 50
9.00000025E+01
 51
1.80000046E+02
  0
ARC
  8
0
 62
7
 10
1.44396603E+02
 20
-4.46153816E+02
 40
1.00000000E+00
 50
5.53696217E+01
 51
1.35000014E+02
  0
ARC
  8
0
 62
7
 10
1.41214596E+02
 20
-4.42971778E+02
 40
1.00000000E+00
 50
3.15000047E+02
 51
3.46303671E+01
  0
CIRCLE
  8
0
 62
7
 10
1.51500088E+02
 20
-4.35868354E+02
 40
8.69999981E+00
  0
CIRCLE
  8
0
 62
7
 10
8.15000572E+01
 20
-4.35868324E+02
 40
4.18000031E+00
  0
CIRCLE
  8
0
 62
7
 10
1.51500088E+02
 20
-4.35868324E+02
 40
4.18000031E+00
  0
CIRCLE
  8
0
 62
7
 10
-1.14999897E+02
 20
-2.29868362E+02
 40
1.10000000E+01
  0
CIRCLE
  8
0
 62
2
 10
-1.14999928E+02
 20
-2.29868362E+02
 40
1.04775009E+01
  0
CIRCLE
  8
0
 62
7
 10
-1.14999897E+02
 20
-2.29868301E+02
 40
9.25000000E+00
  0
ARC
  8
0
 62
7
 10
-1.34499989E+02
 20
-4.24988044E+02
 40
5.00000000E-01
 50
9.10002493E+01
 51
1.79999964E+02
  0
ARC
  8
0
 62
7
 10
-4.24499989E+02
 20
-4.70868347E+02
 40
1.25000010E+01
 50
6.99411317E-05
 51
3.28596884E+01
  0
ARC
  8
0
 62
7
 10
-3.90499989E+02
 20
-4.49368324E+02
 40
5.00000000E-01
 50
8.99999818E+01
 51
1.79999964E+02
  0
ARC
  8
0
 62
7
 10
-4.09499989E+02
 20
-4.51868324E+02
 40
5.00000000E-01
 50
8.99999818E+01
 51
1.79999964E+02
  0
ARC
  8
0
 62
7
 10
-4.04499989E+02
 20
-4.50340065E+02
 40
5.00000000E-01
 50
9.20007356E+01
 51
1.79999964E+02
  0
CIRCLE
  8
0
 62
7
 10
-1.05999928E+02
 20
-2.56868393E+02
 40
5.00000000E+00
  0
CIRCLE
  8
0
 62
7
 10
-1.05999928E+02
 20
-2.56868393E+02
 40
2.59999990E+00
  0
ARC
  8
0
 62
7
 10
-6.42499989E+02
 20
-4.70868331E+02
 40
2.10111084E+01
 50
0.00000000E+00
 51
1.80000000E+02
  0
ARC
  8
0
 62
7
 10
-6.42499989E+02
 20
-4.70868255E+02
 40
1.95000000E+01
 50
0.00000000E+00
 51
1.80000224E+02
  0
ARC
  8
0
 62
7
 10
-6.42499989E+02
 20
-4.70868255E+02
 40
2.20000000E+01
 50
0.00000000E+00
 51
1.80000199E+02
  0
ARC
  8
0
 62
7
 10
-4.04499928E+02
 20
-2.20340011E+02
 40
5.00000000E-01
 50
9.20007356E+01
 51
1.79999951E+02
  0
ARC
  8
0
 62
7
 10
-4.04499928E+02
 20
-2.61396560E+02
 40
5.00000000E-01
 50
1.79999977E+02
 51
2.67999192E+02
  0
ARC
  8
0
 62
7
 10
-3.90499928E+02
 20
-2.62368301E+02
 40
5.00000000E-01
 50
1.79999977E+02
 51
2.69999974E+02
  0
ARC
  8
0
 62
7
 10
-4.09499928E+02
 20
-2.59868270E+02
 40
5.00000000E-01
 50
1.79999977E+02
 51
2.69999974E+02
  0
ARC
  8
0
 62
7
 10
-4.09499928E+02
 20
-2.21868301E+02
 40
5.00000000E-01
 50
8.99999818E+01
 51
1.79999951E+02
  0
ARC
  8
0
 62
7
 10
-3.90499928E+02
 20
-2.19368270E+02
 40
5.00000000E-01
 50
8.99999818E+01
 51
1.79999951E+02
  0
ARC
  8
0
 62
7
 10
-1.28999928E+02
 20
-2.68868270E+02
 40
2.00000000E+00
 50
1.79999977E+02
 51
2.70000028E+02
  0
ARC
  8
0
 62
7
 10
-1.28999928E+02
 20
-2.12868301E+02
 40
2.00000000E+00
 50
8.99999818E+01
 51
1.79999951E+02
  0
ARC
  8
0
 62
7
 10
-1.34499897E+02
 20
-2.86748611E+02
 40
5.00000000E-01
 50
1.79999977E+02
 51
2.68999679E+02
  0
ARC
  8
0
 62
7
 10
-1.34499897E+02
 20
-1.94988052E+02
 40
5.00000000E-01
 50
9.10002493E+01
 51
1.79999951E+02
  0
ARC
  8
0
 62
2
 10
-6.42499989E+02
 20
-4.70868331E+02
 40
1.01800117E+01
 50
0.00000000E+00
 51
1.80000000E+02
  0
LINE
  8
0
 62
7
 10
1.04000111E+02
 20
-4.03368339E+02
 11
1.29000111E+02
 21
-4.03368339E+02
  0
LINE
  8
0
 62
7
 10
-2.90499989E+02
 20
-4.03368339E+02
 11
-2.65499989E+02
 21
-4.03368339E+02
  0
LINE
  8
0
 62
7
 10
-6.54999989E+02
 20
-4.03368339E+02
 11
-6.29999989E+02
 21
-4.03368339E+02
  0
LINE
  8
0
 62
7
 10
1.67500084E+02
 20
-4.14868354E+02
 11
1.47377721E+02
 21
-4.14868354E+02
  0
LINE
  8
0
 62
7
 10
6.05001335E+01
 20
-4.19868354E+02
 11
6.05001335E+01
 21
-4.70868331E+02
  0
LINE
  8
0
 62
7
 10
5.80001488E+01
 20
-4.64868385E+02
 11
5.15001488E+01
 21
-4.64868385E+02
  0
LINE
  8
0
 62
7
 10
5.80001488E+01
 20
-4.70868370E+02
 11
5.21928978E+01
 21
-4.70868370E+02
  0
LINE
  8
0
 62
7
 10
4.95002335E+01
 20
-4.67568264E+02
 11
5.02001543E+01
 21
-4.66868343E+02
  0
LINE
  8
0
 62
7
 10
5.02001457E+01
 20
-4.70868331E+02
 11
5.02001457E+01
 21
-4.66868393E+02
  0
LINE
  8
0
 62
2
 10
5.15000420E+01
 20
-4.67568389E+02
 11
4.95001488E+01
 21
-4.67568389E+02
  0
LINE
  8
0
 62
7
 10
5.15000420E+01
 20
-4.66868393E+02
 11
5.02002220E+01
 21
-4.66868393E+02
  0
LINE
  8
0
 62
7
 10
5.15000420E+01
 20
-4.70868331E+02
 11
5.15000420E+01
 21
-4.64868347E+02
  0
LINE
  8
0
 62
7
 10
4.95000725E+01
 20
-4.70868331E+02
 11
4.95000725E+01
 21
-4.67568389E+02
  0
LINE
  8
0
 62
7
 10
6.05000877E+01
 20
-4.62868377E+02
 11
5.80001488E+01
 21
-4.62868377E+02
  0
LINE
  8
0
 62
7
 10
5.80000572E+01
 20
-4.70868331E+02
 11
5.80000572E+01
 21
-4.62868339E+02
  0
LINE
  8
0
 62
7
 10
1.72500093E+02
 20
-4.19868354E+02
 11
1.72500093E+02
 21
-4.70868331E+02
  0
LINE
  8
0
 62
7
 10
1.83499795E+02
 20
-4.67568959E+02
 11
1.82799750E+02
 21
-4.66868914E+02
  0
LINE
  8
0
 62
7
 10
1.82800272E+02
 20
-4.70868331E+02
 11
1.82800272E+02
 21
-4.66868393E+02
  0
LINE
  8
0
 62
2
 10
1.81500147E+02
 20
-4.67568389E+02
 11
1.83500088E+02
 21
-4.67568389E+02
  0
LINE
  8
0
 62
7
 10
1.81500147E+02
 20
-4.66868393E+02
 11
1.82800196E+02
 21
-4.66868393E+02
  0
LINE
  8
0
 62
7
 10
1.83500154E+02
 20
-4.70868331E+02
 11
1.83500154E+02
 21
-4.67568389E+02
  0
LINE
  8
0
 62
7
 10
1.81500223E+02
 20
-4.70868331E+02
 11
1.81500223E+02
 21
-4.64868347E+02
  0
LINE
  8
0
 62
7
 10
1.75000084E+02
 20
-4.70868370E+02
 11
1.80807274E+02
 21
-4.70868370E+02
  0
LINE
  8
0
 62
7
 10
1.75000084E+02
 20
-4.64868385E+02
 11
1.81500147E+02
 21
-4.64868385E+02
  0
LINE
  8
0
 62
7
 10
1.72500084E+02
 20
-4.62868377E+02
 11
1.75000084E+02
 21
-4.62868377E+02
  0
LINE
  8
0
 62
7
 10
1.75000017E+02
 20
-4.70868331E+02
 11
1.75000017E+02
 21
-4.62868339E+02
  0
LINE
  8
0
 62
7
 10
-1.34999989E+02
 20
-4.14868354E+02
 11
-1.34999989E+02
 21
-4.70868331E+02
  0
LINE
  8
0
 62
7
 10
-6.54999989E+02
 20
-4.14868354E+02
 11
-6.54999989E+02
 21
-4.03368339E+02
  0
LINE
  8
0
 62
7
 10
-6.53999989E+02
 20
-4.02368354E+02
 11
-6.30999928E+02
 21
-4.02368354E+02
  0
LINE
  8
0
 62
7
 10
-6.54999832E+02
 20
-4.03368449E+02
 11
-6.53999853E+02
 21
-4.02368469E+02
  0
LINE
  8
0
 62
7
 10
-6.30999958E+02
 20
-4.02368189E+02
 11
-6.29999979E+02
 21
-4.03368168E+02
  0
LINE
  8
0
 62
7
 10
-2.65500022E+02
 20
-4.14368342E+02
 11
-2.62500041E+02
 21
-4.17368324E+02
  0
LINE
  8
0
 62
7
 10
-2.90500055E+02
 20
-4.14368291E+02
 11
-2.93500074E+02
 21
-4.17368279E+02
  0
LINE
  8
0
 62
7
 10
-2.89499989E+02
 20
-4.02368354E+02
 11
-2.66499989E+02
 21
-4.02368354E+02
  0
LINE
  8
0
 62
7
 10
-2.90499989E+02
 20
-4.14368400E+02
 11
-2.90499989E+02
 21
-4.03368339E+02
  0
LINE
  8
0
 62
7
 10
-2.65499989E+02
 20
-4.14368354E+02
 11
-2.65499989E+02
 21
-4.03368339E+02
  0
LINE
  8
0
 62
7
 10
-2.66500002E+02
 20
-4.02368372E+02
 11
-2.65500022E+02
 21
-4.03368352E+02
  0
LINE
  8
0
 62
7
 10
-2.90499865E+02
 20
-4.03368406E+02
 11
-2.89499886E+02
 21
-4.02368426E+02
  0
LINE
  8
0
 62
7
 10
1.28000098E+02
 20
-4.02368210E+02
 11
1.29000077E+02
 21
-4.03368190E+02
  0
LINE
  8
0
 62
7
 10
1.04000226E+02
 20
-4.03368446E+02
 11
1.05000203E+02
 21
-4.02368469E+02
  0
LINE
  8
0
 62
7
 10
-2.62499989E+02
 20
-4.17368354E+02
 11
-2.01999989E+02
 21
-4.17368354E+02
  0
LINE
  8
0
 62
7
 10
1.05000095E+02
 20
-4.02368354E+02
 11
1.28000126E+02
 21
-4.02368354E+02
  0
LINE
  8
0
 62
7
 10
1.04000111E+02
 20
-4.14868354E+02
 11
1.04000111E+02
 21
-4.03368339E+02
  0
LINE
  8
0
 62
7
 10
1.29000111E+02
 20
-4.07454202E+02
 11
1.29000111E+02
 21
-4.03368339E+02
  0
LINE
  8
0
 62
7
 10
-2.23300309E+02
 20
-3.07868646E+02
 11
-2.24000295E+02
 21
-3.07168661E+02
  0
LINE
  8
0
 62
7
 10
-2.15999779E+02
 20
-3.07168240E+02
 11
-2.16699754E+02
 21
-3.07868215E+02
  0
LINE
  8
0
 62
7
 10
-2.15999989E+02
 20
-3.07168350E+02
 11
-2.24000019E+02
 21
-3.07168350E+02
  0
LINE
  8
0
 62
2
 10
-2.23300007E+02
 20
-3.05868331E+02
 11
-2.23300007E+02
 21
-3.07868362E+02
  0
LINE
  8
0
 62
2
 10
-2.16699970E+02
 20
-3.05868331E+02
 11
-2.16699970E+02
 21
-3.07868362E+02
  0
LINE
  8
0
 62
7
 10
-2.24000019E+02
 20
-3.05868331E+02
 11
-2.24000019E+02
 21
-3.07168350E+02
  0
LINE
  8
0
 62
7
 10
-2.15999989E+02
 20
-3.05868331E+02
 11
-2.15999989E+02
 21
-3.07168350E+02
  0
LINE
  8
0
 62
7
 10
-2.23475025E+02
 20
-2.99368362E+02
 11
-2.23475025E+02
 21
-3.05175521E+02
  0
LINE
  8
0
 62
7
 10
-2.16524982E+02
 20
-2.99368362E+02
 11
-2.16524982E+02
 21
-3.05175521E+02
  0
LINE
  8
0
 62
7
 10
-2.13049862E+02
 20
-3.05175675E+02
 11
-2.14249844E+02
 21
-3.05868485E+02
  0
LINE
  8
0
 62
7
 10
-2.25750064E+02
 20
-3.05868640E+02
 11
-2.26950047E+02
 21
-3.05175830E+02
  0
LINE
  8
0
 62
7
 10
-2.13050037E+02
 20
-2.99368362E+02
 11
-2.13050037E+02
 21
-3.05175521E+02
  0
LINE
  8
0
 62
7
 10
-2.26950031E+02
 20
-2.99368362E+02
 11
-2.26950031E+02
 21
-3.05175521E+02
  0
LINE
  8
0
 62
7
 10
-2.14249989E+02
 20
-3.05868331E+02
 11
-2.25749989E+02
 21
-3.05868331E+02
  0
LINE
  8
0
 62
7
 10
-2.16699970E+02
 20
-3.07868362E+02
 11
-2.23299976E+02
 21
-3.07868362E+02
  0
LINE
  8
0
 62
7
 10
-2.11999989E+02
 20
-2.94368393E+02
 11
-2.11999989E+02
 21
-2.99368362E+02
  0
LINE
  8
0
 62
7
 10
-2.27999989E+02
 20
-2.94368393E+02
 11
-2.27999989E+02
 21
-2.99368362E+02
  0
LINE
  8
0
 62
7
 10
-2.11999989E+02
 20
-2.99368362E+02
 11
-2.27999958E+02
 21
-2.99368362E+02
  0
LINE
  8
0
  6
CENTER
 62
2
 10
-2.20000019E+02
 20
-2.92390091E+02
 11
-2.20000019E+02
 21
-3.10956008E+02
  0
LINE
  8
0
 62
7
 10
-2.23299726E+02
 20
-1.73868482E+02
 11
-2.23999699E+02
 21
-1.74568455E+02
  0
LINE
  8
0
 62
7
 10
-2.16000216E+02
 20
-1.74568549E+02
 11
-2.16700202E+02
 21
-1.73868563E+02
  0
LINE
  8
0
 62
7
 10
-2.15999989E+02
 20
-1.74568405E+02
 11
-2.24000019E+02
 21
-1.74568405E+02
  0
LINE
  8
0
 62
2
 10
-2.23300007E+02
 20
-1.75868393E+02
 11
-2.23300007E+02
 21
-1.73868362E+02
  0
LINE
  8
0
 62
2
 10
-2.16699970E+02
 20
-1.75868393E+02
 11
-2.16699970E+02
 21
-1.73868362E+02
  0
LINE
  8
0
 62
7
 10
-2.24000019E+02
 20
-1.75868393E+02
 11
-2.24000019E+02
 21
-1.74568405E+02
  0
LINE
  8
0
 62
7
 10
-2.15999989E+02
 20
-1.75868393E+02
 11
-2.15999989E+02
 21
-1.74568405E+02
  0
LINE
  8
0
 62
7
 10
-2.23475025E+02
 20
-1.82368393E+02
 11
-2.23475025E+02
 21
-1.76561203E+02
  0
LINE
  8
0
 62
7
 10
-2.16524982E+02
 20
-1.82368393E+02
 11
-2.16524982E+02
 21
-1.76561203E+02
  0
LINE
  8
0
 62
7
 10
-2.13050281E+02
 20
-1.76561670E+02
 11
-2.14250263E+02
 21
-1.75868860E+02
  0
LINE
  8
0
 62
7
 10
-2.25750091E+02
 20
-1.75868758E+02
 11
-2.26950060E+02
 21
-1.76561560E+02
  0
LINE
  8
0
 62
7
 10
-2.13050037E+02
 20
-1.82368393E+02
 11
-2.13050037E+02
 21
-1.76561203E+02
  0
LINE
  8
0
 62
7
 10
-2.26950031E+02
 20
-1.82368393E+02
 11
-2.26950031E+02
 21
-1.76561203E+02
  0
LINE
  8
0
 62
7
 10
-2.14249989E+02
 20
-1.75868393E+02
 11
-2.25749989E+02
 21
-1.75868393E+02
  0
LINE
  8
0
 62
7
 10
-2.16699970E+02
 20
-1.73868362E+02
 11
-2.23299976E+02
 21
-1.73868362E+02
  0
LINE
  8
0
 62
7
 10
-2.11999989E+02
 20
-1.87368393E+02
 11
-2.11999989E+02
 21
-1.82368393E+02
  0
LINE
  8
0
 62
7
 10
-2.27999989E+02
 20
-1.87368393E+02
 11
-2.27999989E+02
 21
-1.82368393E+02
  0
LINE
  8
0
 62
7
 10
-2.11999989E+02
 20
-1.82368393E+02
 11
-2.27999958E+02
 21
-1.82368393E+02
  0
LINE
  8
0
  6
CENTER
 62
2
 10
-2.20000019E+02
 20
-1.89256973E+02
 11
-2.20000019E+02
 21
-1.72280746E+02
  0
LINE
  8
0
  6
CENTER
 62
2
 10
-2.20000019E+02
 20
-4.59926857E+02
 11
-2.20000019E+02
 21
-4.70868331E+02
  0
LINE
  8
0
 62
7
 10
-2.22000019E+02
 20
-4.69713203E+02
 11
-2.22000019E+02
 21
-4.70868331E+02
  0
LINE
  8
0
 62
7
 10
-2.18000050E+02
 20
-4.70868331E+02
 11
-2.18000050E+02
 21
-4.69713546E+02
  0
LINE
  8
0
  6
CENTER
 62
2
 10
-1.88999928E+02
 20
-2.16589370E+02
 11
-1.88999928E+02
 21
-2.35155136E+02
  0
LINE
  8
0
  6
CENTER
 62
2
 10
-2.77999989E+02
 20
-4.20431175E+02
 11
-2.77999989E+02
 21
-3.97914878E+02
  0
LINE
  8
0
 62
7
 10
-1.88999351E+02
 20
-2.22402829E+02
 11
-1.85999338E+02
 21
-2.24134877E+02
  0
LINE
  8
0
 62
7
 10
-1.92000427E+02
 20
-2.24135530E+02
 11
-1.89000401E+02
 21
-2.22403475E+02
  0
LINE
  8
0
  6
CENTER
 62
2
 10
-3.76059803E+02
 20
-2.25868301E+02
 11
-3.57715076E+02
 21
-2.25868301E+02
  0
LINE
  8
0
 62
7
 10
-3.63999928E+02
 20
-2.24136276E+02
 11
-3.63999928E+02
 21
-2.27600357E+02
  0
LINE
  8
0
 62
7
 10
-3.64000806E+02
 20
-2.27598834E+02
 11
-3.67000793E+02
 21
-2.29330867E+02
  0
LINE
  8
0
 62
7
 10
-3.66999836E+02
 20
-2.29332015E+02
 11
-3.69999796E+02
 21
-2.27599998E+02
  0
LINE
  8
0
 62
7
 10
-3.69999928E+02
 20
-2.27600357E+02
 11
-3.69999928E+02
 21
-2.24136276E+02
  0
LINE
  8
0
 62
7
 10
-3.67000793E+02
 20
-2.22402674E+02
 11
-3.70000832E+02
 21
-2.24134737E+02
  0
LINE
  8
0
 62
7
 10
-3.63999675E+02
 20
-2.24135919E+02
 11
-3.66999688E+02
 21
-2.22403871E+02
  0
LINE
  8
0
  6
CENTER
 62
2
 10
-3.66999928E+02
 20
-2.16589370E+02
 11
-3.66999928E+02
 21
-2.35155136E+02
  0
LINE
  8
0
  6
CENTER
 62
2
 10
-2.77999928E+02
 20
-2.62203872E+02
 11
-2.77999928E+02
 21
-2.19798385E+02
  0
LINE
  8
0
 62
7
 10
-6.29999989E+02
 20
-4.14868354E+02
 11
-6.29999989E+02
 21
-4.03368339E+02
  0
LINE
  8
0
 62
7
 10
-1.89000194E+02
 20
-2.29331689E+02
 11
-1.86000261E+02
 21
-2.27599687E+02
  0
LINE
  8
0
  6
CENTER
 62
2
 10
-4.68268787E+02
 20
-2.40868331E+02
 11
-4.88597659E+01
 21
-2.40868331E+02
  0
LINE
  8
0
 62
7
 10
-1.91999054E+02
 20
-2.27599109E+02
 11
-1.88999094E+02
 21
-2.29331126E+02
  0
LINE
  8
0
 62
7
 10
-3.53999928E+02
 20
-1.87368393E+02
 11
-2.01999958E+02
 21
-1.87368393E+02
  0
LINE
  8
0
 62
7
 10
-1.85999989E+02
 20
-2.27600357E+02
 11
-1.85999989E+02
 21
-2.24136276E+02
  0
LINE
  8
0
 62
7
 10
-6.89500111E+02
 20
-4.31755104E+02
 11
-6.89500111E+02
 21
-4.25981590E+02
  0
LINE
  8
0
 62
7
 10
-6.89499949E+02
 20
-4.25981658E+02
 11
-6.84499948E+02
 21
-4.23094917E+02
  0
LINE
  8
0
 62
7
 10
-6.84499907E+02
 20
-4.23094816E+02
 11
-6.79499959E+02
 21
-4.25981526E+02
  0
LINE
  8
0
 62
7
 10
-6.79499928E+02
 20
-4.25981590E+02
 11
-6.79499928E+02
 21
-4.31755104E+02
  0
LINE
  8
0
 62
7
 10
-6.84499903E+02
 20
-4.34642026E+02
 11
-6.79499902E+02
 21
-4.31755285E+02
  0
LINE
  8
0
 62
7
 10
-6.89499999E+02
 20
-4.31755017E+02
 11
-6.84499945E+02
 21
-4.34641788E+02
  0
LINE
  8
0
  6
CENTER
 62
2
 10
-6.84499928E+02
 20
-4.42945961E+02
 11
-6.84499928E+02
 21
-4.13761283E+02
  0
LINE
  8
0
  6
CENTER
 62
2
 10
-6.71015919E+02
 20
-4.28868324E+02
 11
-6.99552479E+02
 21
-4.28868324E+02
  0
LINE
  8
0
 62
7
 10
-5.95499928E+02
 20
-4.31755104E+02
 11
-5.95499928E+02
 21
-4.25981590E+02
  0
LINE
  8
0
 62
7
 10
-5.95499882E+02
 20
-4.25981538E+02
 11
-6.00499830E+02
 21
-4.23094828E+02
  0
LINE
  8
0
 62
7
 10
-6.00499886E+02
 20
-4.23094878E+02
 11
-6.05499887E+02
 21
-4.25981619E+02
  0
LINE
  8
0
 62
7
 10
-6.05499989E+02
 20
-4.25981590E+02
 11
-6.05499989E+02
 21
-4.31755104E+02
  0
LINE
  8
0
 62
7
 10
-6.00499867E+02
 20
-4.34641801E+02
 11
-6.05499816E+02
 21
-4.31755090E+02
  0
LINE
  8
0
 62
7
 10
-5.95500014E+02
 20
-4.31755065E+02
 11
-6.00500068E+02
 21
-4.34641837E+02
  0
LINE
  8
0
  6
CENTER
 62
2
 10
-6.00499989E+02
 20
-4.42945961E+02
 11
-6.00499989E+02
 21
-4.13761283E+02
  0
LINE
  8
0
  6
CENTER
 62
2
 10
-6.13984058E+02
 20
-4.28868324E+02
 11
-5.85447437E+02
 21
-4.28868324E+02
  0
LINE
  8
0
 62
7
 10
-6.93499928E+02
 20
-4.14868354E+02
 11
-5.91499989E+02
 21
-4.14868354E+02
  0
LINE
  8
0
 62
7
 10
-5.86499989E+02
 20
-4.19868354E+02
 11
-5.86499989E+02
 21
-4.70868331E+02
  0
LINE
  8
0
 62
7
 10
-6.98500050E+02
 20
-4.19868354E+02
 11
-6.98500050E+02
 21
-4.70868331E+02
  0
LINE
  8
0
  6
CENTER
 62
2
 10
-3.98264698E+02
 20
-1.98868331E+02
 11
-1.27783924E+02
 21
-1.98868331E+02
  0
LINE
  8
0
 62
7
 10
-3.53999928E+02
 20
-2.03368301E+02
 11
-2.01999928E+02
 21
-2.03368301E+02
  0
LINE
  8
0
 62
7
 10
-3.53999928E+02
 20
-1.94368301E+02
 11
-2.01999928E+02
 21
-1.94368301E+02
  0
LINE
  8
0
 62
7
 10
-2.02000019E+02
 20
-4.14868354E+02
 11
-2.02000019E+02
 21
-4.70868331E+02
  0
LINE
  8
0
 62
7
 10
-3.53999989E+02
 20
-4.14868354E+02
 11
-3.53999989E+02
 21
-4.70868331E+02
  0
LINE
  8
0
 62
7
 10
-3.53999989E+02
 20
-4.17368354E+02
 11
-2.93499989E+02
 21
-4.17368354E+02
  0
LINE
  8
0
 62
7
 10
-3.53999928E+02
 20
-2.87368362E+02
 11
-2.01999928E+02
 21
-2.87368362E+02
  0
LINE
  8
0
 62
7
 10
-3.53999928E+02
 20
-2.78368331E+02
 11
-2.01999928E+02
 21
-2.78368331E+02
  0
LINE
  8
0
  6
CENTER
 62
2
 10
-3.98264698E+02
 20
-2.82868362E+02
 11
-1.27783924E+02
 21
-2.82868362E+02
  0
LINE
  8
0
 62
7
 10
-3.53999989E+02
 20
-4.24368324E+02
 11
-2.01999989E+02
 21
-4.24368324E+02
  0
LINE
  8
0
  6
CENTER
 62
2
 10
-3.96066456E+02
 20
-4.28868324E+02
 11
-1.27783985E+02
 21
-4.28868324E+02
  0
LINE
  8
0
 62
7
 10
-3.53999989E+02
 20
-4.33368339E+02
 11
-2.01999989E+02
 21
-4.33368339E+02
  0
LINE
  8
0
 62
7
 10
-2.16535843E+02
 20
-4.64868289E+02
 11
-2.13071735E+02
 21
-4.70868308E+02
  0
LINE
  8
0
 62
7
 10
-2.23464130E+02
 20
-4.64868309E+02
 11
-2.16535938E+02
 21
-4.64868309E+02
  0
LINE
  8
0
 62
7
 10
-2.23463931E+02
 20
-4.64868493E+02
 11
-2.26928031E+02
 21
-4.70868499E+02
  0
LINE
  8
0
 62
7
 10
-2.20000041E+02
 20
-4.68558863E+02
 11
-2.18000080E+02
 21
-4.69713541E+02
  0
LINE
  8
0
 62
7
 10
-2.22000038E+02
 20
-4.69713361E+02
 11
-2.20000050E+02
 21
-4.68558667E+02
  0
LINE
  8
0
 62
7
 10
-3.32536305E+02
 20
-4.64868656E+02
 11
-3.29072212E+02
 21
-4.70868649E+02
  0
LINE
  8
0
 62
7
 10
-3.32535816E+02
 20
-4.64868309E+02
 11
-3.39464100E+02
 21
-4.64868309E+02
  0
LINE
  8
0
 62
7
 10
-3.39464469E+02
 20
-4.64868258E+02
 11
-3.42928562E+02
 21
-4.70868251E+02
  0
LINE
  8
0
 62
7
 10
-3.33999760E+02
 20
-4.69713258E+02
 11
-3.35999695E+02
 21
-4.68558594E+02
  0
LINE
  8
0
 62
7
 10
-3.35999829E+02
 20
-4.68559024E+02
 11
-3.37999816E+02
 21
-4.69713718E+02
  0
LINE
  8
0
 62
7
 10
-1.34999928E+02
 20
-2.96868362E+02
 11
-1.34999928E+02
 21
-1.84868362E+02
  0
LINE
  8
0
 62
7
 10
-3.88999928E+02
 20
-1.84868331E+02
 11
-3.53999928E+02
 21
-1.84868331E+02
  0
LINE
  8
0
 62
7
 10
-3.88999989E+02
 20
-4.14868354E+02
 11
-3.88999989E+02
 21
-4.70868331E+02
  0
LINE
  8
0
 62
7
 10
-3.88999928E+02
 20
-2.96868362E+02
 11
-3.53999928E+02
 21
-2.96868362E+02
  0
LINE
  8
0
 62
7
 10
-3.88999928E+02
 20
-1.84868362E+02
 11
-3.88999928E+02
 21
-2.96868362E+02
  0
LINE
  8
0
 62
7
 10
-2.01999989E+02
 20
-4.14868354E+02
 11
-1.34999989E+02
 21
-4.14868354E+02
  0
LINE
  8
0
 62
7
 10
-3.88999989E+02
 20
-4.14868354E+02
 11
-3.53999989E+02
 21
-4.14868354E+02
  0
LINE
  8
0
 62
7
 10
-3.53999928E+02
 20
-1.84868362E+02
 11
-3.53999928E+02
 21
-2.96868362E+02
  0
LINE
  8
0
 62
7
 10
-2.01999958E+02
 20
-1.84868362E+02
 11
-2.01999958E+02
 21
-2.96868362E+02
  0
LINE
  8
0
 62
7
 10
-2.01999928E+02
 20
-1.84868331E+02
 11
-1.34999928E+02
 21
-1.84868331E+02
  0
LINE
  8
0
 62
7
 10
-2.01999928E+02
 20
-2.96868362E+02
 11
-1.34999928E+02
 21
-2.96868362E+02
  0
LINE
  8
0
 62
7
 10
-7.09499458E+02
 20
-4.67569108E+02
 11
-7.08799429E+02
 21
-4.66869079E+02
  0
LINE
  8
0
 62
2
 10
-7.07500050E+02
 20
-4.67568351E+02
 11
-7.09499928E+02
 21
-4.67568351E+02
  0
LINE
  8
0
 62
7
 10
-7.08800098E+02
 20
-4.70868331E+02
 11
-7.08800098E+02
 21
-4.66868354E+02
  0
LINE
  8
0
 62
7
 10
-5.75499813E+02
 20
-4.67568231E+02
 11
-5.76199713E+02
 21
-4.66868332E+02
  0
LINE
  8
0
  6
CENTER
 62
2
 10
-3.35999866E+02
 20
-1.89256973E+02
 11
-3.35999866E+02
 21
-1.72280746E+02
  0
LINE
  8
0
 62
7
 10
-7.00999866E+02
 20
-4.70868331E+02
 11
-7.00999866E+02
 21
-4.62868339E+02
  0
LINE
  8
0
 62
7
 10
-5.76200001E+02
 20
-4.70868331E+02
 11
-5.76200001E+02
 21
-4.66868354E+02
  0
LINE
  8
0
 62
2
 10
-5.77499866E+02
 20
-4.67568351E+02
 11
-5.75499989E+02
 21
-4.67568351E+02
  0
LINE
  8
0
 62
7
 10
-5.77499866E+02
 20
-4.66868354E+02
 11
-5.76200062E+02
 21
-4.66868354E+02
  0
LINE
  8
0
 62
7
 10
-3.53999928E+02
 20
-2.94368362E+02
 11
-2.01999958E+02
 21
-2.94368362E+02
  0
LINE
  8
0
 62
7
 10
-7.07500050E+02
 20
-4.66868354E+02
 11
-7.08800098E+02
 21
-4.66868354E+02
  0
LINE
  8
0
  6
CENTER
 62
2
 10
-3.35999989E+02
 20
-4.60129081E+02
 11
-3.35999989E+02
 21
-4.70868331E+02
  0
LINE
  8
0
 62
7
 10
-3.33999989E+02
 20
-4.69713127E+02
 11
-3.33999989E+02
 21
-4.70868331E+02
  0
LINE
  8
0
 62
7
 10
-3.37999989E+02
 20
-4.70868331E+02
 11
-3.37999989E+02
 21
-4.69713623E+02
  0
LINE
  8
0
 62
7
 10
-5.75499989E+02
 20
-4.70868331E+02
 11
-5.75499989E+02
 21
-4.67568351E+02
  0
LINE
  8
0
  6
CENTER
 62
2
 10
-3.35999866E+02
 20
-2.92390091E+02
 11
-3.35999866E+02
 21
-3.10956008E+02
  0
LINE
  8
0
 62
7
 10
-7.09500111E+02
 20
-4.70868331E+02
 11
-7.09500111E+02
 21
-4.67568351E+02
  0
LINE
  8
0
 62
7
 10
-7.07500050E+02
 20
-4.70868331E+02
 11
-7.07500050E+02
 21
-4.64868347E+02
  0
LINE
  8
0
 62
7
 10
-5.86499989E+02
 20
-4.62868377E+02
 11
-5.83999989E+02
 21
-4.62868377E+02
  0
LINE
  8
0
 62
7
 10
-5.77499866E+02
 20
-4.70868331E+02
 11
-5.77499866E+02
 21
-4.64868347E+02
  0
LINE
  8
0
 62
7
 10
-5.83999928E+02
 20
-4.70868331E+02
 11
-5.83999928E+02
 21
-4.62868339E+02
  0
LINE
  8
0
 62
7
 10
-5.83999989E+02
 20
-4.70868370E+02
 11
-5.78192799E+02
 21
-4.70868370E+02
  0
LINE
  8
0
 62
7
 10
-7.00999928E+02
 20
-4.64868385E+02
 11
-7.07500050E+02
 21
-4.64868385E+02
  0
LINE
  8
0
  6
CENTER
 62
2
 10
-7.12522999E+02
 20
-4.70868331E+02
 11
-5.71648670E+02
 21
-4.70868331E+02
  0
LINE
  8
0
 62
7
 10
-6.98499928E+02
 20
-4.62868377E+02
 11
-7.00999928E+02
 21
-4.62868377E+02
  0
LINE
  8
0
 62
7
 10
-7.00999928E+02
 20
-4.70868370E+02
 11
-7.06807117E+02
 21
-4.70868370E+02
  0
LINE
  8
0
 62
7
 10
-5.83999989E+02
 20
-4.64868385E+02
 11
-5.77500050E+02
 21
-4.64868385E+02
  0
LINE
  8
0
 62
7
 10
-3.39474842E+02
 20
-1.82368393E+02
 11
-3.39474842E+02
 21
-1.76561203E+02
  0
LINE
  8
0
 62
7
 10
-3.32700071E+02
 20
-1.73868224E+02
 11
-3.32000086E+02
 21
-1.74568209E+02
  0
LINE
  8
0
 62
7
 10
-3.39999641E+02
 20
-1.74568619E+02
 11
-3.39299623E+02
 21
-1.73868601E+02
  0
LINE
  8
0
 62
7
 10
-3.39999928E+02
 20
-1.74568405E+02
 11
-3.31999866E+02
 21
-1.74568405E+02
  0
LINE
  8
0
 62
2
 10
-3.32699879E+02
 20
-1.75868393E+02
 11
-3.32699879E+02
 21
-1.73868362E+02
  0
LINE
  8
0
 62
2
 10
-3.39299915E+02
 20
-1.75868393E+02
 11
-3.39299915E+02
 21
-1.73868362E+02
  0
LINE
  8
0
 62
7
 10
-3.31999866E+02
 20
-1.75868393E+02
 11
-3.31999866E+02
 21
-1.74568405E+02
  0
LINE
  8
0
 62
7
 10
-3.39999928E+02
 20
-1.75868393E+02
 11
-3.39999928E+02
 21
-1.74568405E+02
  0
LINE
  8
0
 62
7
 10
-3.32524891E+02
 20
-1.82368393E+02
 11
-3.32524891E+02
 21
-1.76561203E+02
  0
LINE
  8
0
 62
7
 10
-3.42949530E+02
 20
-1.76561820E+02
 11
-3.41749521E+02
 21
-1.75868994E+02
  0
LINE
  8
0
 62
7
 10
-3.30249706E+02
 20
-1.75868554E+02
 11
-3.29049671E+02
 21
-1.76561395E+02
  0
LINE
  8
0
 62
7
 10
-3.42949879E+02
 20
-1.82368393E+02
 11
-3.42949879E+02
 21
-1.76561203E+02
  0
LINE
  8
0
 62
7
 10
-3.29049854E+02
 20
-1.82368393E+02
 11
-3.29049854E+02
 21
-1.76561203E+02
  0
LINE
  8
0
 62
7
 10
-3.41749866E+02
 20
-1.75868393E+02
 11
-3.30249866E+02
 21
-1.75868393E+02
  0
LINE
  8
0
 62
7
 10
-3.39299854E+02
 20
-1.73868362E+02
 11
-3.32699879E+02
 21
-1.73868362E+02
  0
LINE
  8
0
 62
7
 10
-3.43999866E+02
 20
-1.87368393E+02
 11
-3.43999866E+02
 21
-1.82368393E+02
  0
LINE
  8
0
  6
CENTER
 62
2
 10
-6.42499989E+02
 20
-3.97180854E+02
 11
-6.42499989E+02
 21
-4.70868331E+02
  0
LINE
  8
0
  6
CENTER
 62
2
 10
-1.79940022E+02
 20
-2.25868301E+02
 11
-1.98284840E+02
 21
-2.25868301E+02
  0
LINE
  8
0
 62
7
 10
-3.27999928E+02
 20
-1.87368393E+02
 11
-3.27999928E+02
 21
-1.82368393E+02
  0
LINE
  8
0
 62
7
 10
-3.43999866E+02
 20
-1.82368393E+02
 11
-3.27999928E+02
 21
-1.82368393E+02
  0
LINE
  8
0
 62
7
 10
-3.32699467E+02
 20
-3.07868754E+02
 11
-3.31999471E+02
 21
-3.07168758E+02
  0
LINE
  8
0
 62
7
 10
-3.40000019E+02
 20
-3.07168089E+02
 11
-3.39300033E+02
 21
-3.07868074E+02
  0
LINE
  8
0
 62
7
 10
-3.39999928E+02
 20
-3.07168350E+02
 11
-3.31999866E+02
 21
-3.07168350E+02
  0
LINE
  8
0
 62
2
 10
-3.32699879E+02
 20
-3.05868331E+02
 11
-3.32699879E+02
 21
-3.07868362E+02
  0
LINE
  8
0
 62
2
 10
-3.39299915E+02
 20
-3.05868331E+02
 11
-3.39299915E+02
 21
-3.07868362E+02
  0
LINE
  8
0
 62
7
 10
-3.31999866E+02
 20
-3.05868331E+02
 11
-3.31999866E+02
 21
-3.07168350E+02
  0
LINE
  8
0
 62
7
 10
-3.39999928E+02
 20
-3.05868331E+02
 11
-3.39999928E+02
 21
-3.07168350E+02
  0
LINE
  8
0
 62
7
 10
-3.32524891E+02
 20
-2.99368362E+02
 11
-3.32524891E+02
 21
-3.05175521E+02
  0
LINE
  8
0
 62
7
 10
-3.39474842E+02
 20
-2.99368362E+02
 11
-3.39474842E+02
 21
-3.05175521E+02
  0
LINE
  8
0
 62
7
 10
-3.42949907E+02
 20
-3.05175637E+02
 11
-3.41749872E+02
 21
-3.05868478E+02
  0
LINE
  8
0
 62
7
 10
-3.30249701E+02
 20
-3.05868686E+02
 11
-3.29049692E+02
 21
-3.05175861E+02
  0
LINE
  8
0
 62
7
 10
-3.42949879E+02
 20
-2.99368362E+02
 11
-3.42949879E+02
 21
-3.05175521E+02
  0
LINE
  8
0
 62
7
 10
-3.29049854E+02
 20
-2.99368362E+02
 11
-3.29049854E+02
 21
-3.05175521E+02
  0
LINE
  8
0
 62
7
 10
-3.41749866E+02
 20
-3.05868331E+02
 11
-3.30249866E+02
 21
-3.05868331E+02
  0
LINE
  8
0
 62
7
 10
-3.39299854E+02
 20
-3.07868362E+02
 11
-3.32699879E+02
 21
-3.07868362E+02
  0
LINE
  8
0
 62
7
 10
-3.43999866E+02
 20
-2.94368393E+02
 11
-3.43999866E+02
 21
-2.99368362E+02
  0
LINE
  8
0
 62
7
 10
-3.27999928E+02
 20
-2.94368393E+02
 11
-3.27999928E+02
 21
-2.99368362E+02
  0
LINE
  8
0
 62
7
 10
-3.43999866E+02
 20
-2.99368362E+02
 11
-3.27999928E+02
 21
-2.99368362E+02
  0
LINE
  8
0
 62
7
 10
-1.91999958E+02
 20
-2.24136276E+02
 11
-1.91999958E+02
 21
-2.27600357E+02
  0
LINE
  8
0
  6
CENTER
 62
2
 10
-4.67079212E+02
 20
-4.70868331E+02
 11
-4.88598269E+01
 21
-4.70868331E+02
  0
LINE
  8
0
 62
7
 10
8.15000645E+01
 20
-4.30094833E+02
 11
8.65000608E+01
 21
-4.32981583E+02
  0
LINE
  8
0
 62
7
 10
8.65000572E+01
 20
-4.32981575E+02
 11
8.65000572E+01
 21
-4.38755073E+02
  0
LINE
  8
0
 62
7
 10
8.65000625E+01
 20
-4.38755084E+02
 11
8.15000596E+01
 21
-4.41641837E+02
  0
LINE
  8
0
  6
CENTER
 62
2
 10
1.27500134E+02
 20
-4.36568290E+02
 11
1.27500134E+02
 21
-4.21415702E+02
  0
LINE
  8
0
 62
7
 10
1.51500089E+02
 20
-4.41641836E+02
 11
1.46500093E+02
 21
-4.38755087E+02
  0
LINE
  8
0
  6
CENTER
 62
2
 10
4.52584589E+01
 20
-4.70868331E+02
 11
1.86544292E+02
 21
-4.70868331E+02
  0
LINE
  8
0
  6
CENTER
 62
2
 10
9.57221794E+01
 20
-4.35868324E+02
 11
6.65123253E+01
 21
-4.35868324E+02
  0
LINE
  8
0
 62
7
 10
7.74999809E+01
 20
-4.48002998E+02
 11
7.74999809E+01
 21
-4.48368263E+02
  0
LINE
  8
0
 62
7
 10
9.36346855E+01
 20
-4.31868370E+02
 11
9.40000725E+01
 21
-4.31868370E+02
  0
LINE
  8
0
 62
7
 10
1.39365414E+02
 20
-4.31868278E+02
 11
1.39000118E+02
 21
-4.31868278E+02
  0
LINE
  8
0
 62
7
 10
1.55500072E+02
 20
-4.48003013E+02
 11
1.55500072E+02
 21
-4.48368354E+02
  0
LINE
  8
0
 62
7
 10
1.46500072E+02
 20
-4.23868324E+02
 11
1.46500072E+02
 21
-4.24468299E+02
  0
LINE
  8
0
 62
7
 10
8.65000725E+01
 20
-4.23868354E+02
 11
8.65000725E+01
 21
-4.24468360E+02
  0
LINE
  8
0
 62
7
 10
7.35000420E+01
 20
-4.23868354E+02
 11
1.59500011E+02
 21
-4.23868324E+02
  0
LINE
  8
0
 62
7
 10
9.84989738E+01
 20
-4.27468360E+02
 11
1.34501217E+02
 21
-4.27468360E+02
  0
LINE
  8
0
 62
7
 10
1.15250057E+02
 20
-4.28468376E+02
 11
1.15250057E+02
 21
-4.47978599E+02
  0
LINE
  8
0
 62
7
 10
1.01198626E+02
 20
-4.53798810E+02
 11
9.10785674E+01
 21
-4.43678756E+02
  0
LINE
  8
0
 62
7
 10
9.94307187E+01
 20
-4.55566675E+02
 11
8.93106497E+01
 21
-4.45446610E+02
  0
LINE
  8
0
  6
CENTER
 62
2
 10
1.66055561E+02
 20
-4.35868324E+02
 11
1.36809078E+02
 21
-4.35868324E+02
  0
LINE
  8
0
  6
CENTER
 62
2
 10
8.15000572E+01
 20
-4.21495643E+02
 11
8.15000572E+01
 21
-4.51232566E+02
  0
LINE
  8
0
  6
CENTER
 62
2
 10
1.16500072E+02
 20
-3.97277276E+02
 11
1.16500072E+02
 21
-4.70868331E+02
  0
LINE
  8
0
 62
7
 10
6.95000572E+01
 20
-4.70868331E+02
 11
6.95000572E+01
 21
-4.27868354E+02
  0
LINE
  8
0
 62
7
 10
7.31000938E+01
 20
-4.70868331E+02
 11
7.31000938E+01
 21
-4.52867149E+02
  0
LINE
  8
0
 62
7
 10
8.15000625E+01
 20
-4.30094830E+02
 11
7.65000596E+01
 21
-4.32981583E+02
  0
LINE
  8
0
 62
2
 10
-4.18999989E+02
 20
-4.70868331E+02
 11
-4.22660538E+02
 21
-4.65902940E+02
  0
LINE
  8
0
 62
2
 10
-4.13999974E+02
 20
-4.64086068E+02
 11
-4.18999943E+02
 21
-4.70868331E+02
  0
LINE
  8
0
 62
7
 10
-4.23999984E+02
 20
-4.59868286E+02
 11
-4.20999972E+02
 21
-4.58368257E+02
  0
LINE
  8
0
 62
7
 10
-4.23999973E+02
 20
-4.67368450E+02
 11
-4.20999985E+02
 21
-4.64086047E+02
  0
LINE
  8
0
 62
7
 10
-4.13999989E+02
 20
-4.70868331E+02
 11
-4.13999989E+02
 21
-4.64086052E+02
  0
LINE
  8
0
  6
CENTER
 62
2
 10
-2.86525542E+01
 20
-4.35868309E+02
 11
-1.37524464E+02
 21
-4.35868309E+02
  0
LINE
  8
0
 62
7
 10
-4.62500050E+02
 20
-4.59868309E+02
 11
-4.51999988E+02
 21
-4.59868309E+02
  0
LINE
  8
0
 62
7
 10
-4.64000060E+02
 20
-4.61368338E+02
 11
-4.62500026E+02
 21
-4.59868304E+02
  0
LINE
  8
0
 62
7
 10
-4.04517521E+02
 20
-4.49840397E+02
 11
-3.91000064E+02
 21
-4.49368357E+02
  0
LINE
  8
0
 62
7
 10
-4.20999989E+02
 20
-4.58368278E+02
 11
-4.09999989E+02
 21
-4.58368278E+02
  0
LINE
  8
0
 62
7
 10
-4.09499989E+02
 20
-4.51368339E+02
 11
-4.04999989E+02
 21
-4.51368339E+02
  0
LINE
  8
0
 62
7
 10
-2.37450116E+01
 20
-1.97368301E+02
 11
-7.24999275E+01
 21
-1.97368301E+02
  0
LINE
  8
0
 62
7
 10
-2.60544303E+01
 20
-2.01368331E+02
 11
-7.24999275E+01
 21
-2.01368331E+02
  0
LINE
  8
0
  6
CENTER
 62
2
 10
-2.86525065E+01
 20
-2.05868331E+02
 11
-7.24999275E+01
 21
-2.05868331E+02
  0
LINE
  8
0
 62
7
 10
-3.12505827E+01
 20
-2.10368331E+02
 11
-5.29999275E+01
 21
-2.10368331E+02
  0
LINE
  8
0
 62
7
 10
-4.26999989E+02
 20
-4.60688316E+02
 11
-4.23999989E+02
 21
-4.60688316E+02
  0
LINE
  8
0
 62
2
 10
-4.63319996E+02
 20
-2.51048324E+02
 11
-4.51999928E+02
 21
-2.51048324E+02
  0
LINE
  8
0
 62
7
 10
-4.63999934E+02
 20
-2.50368262E+02
 11
-4.62499922E+02
 21
-2.51868274E+02
  0
LINE
  8
0
 62
7
 10
-4.62499989E+02
 20
-2.51868331E+02
 11
-4.51999928E+02
 21
-2.51868331E+02
  0
LINE
  8
0
 62
7
 10
-4.26999928E+02
 20
-2.51048324E+02
 11
-4.23999928E+02
 21
-2.51048324E+02
  0
LINE
  8
0
 62
7
 10
-4.26999928E+02
 20
-2.30688308E+02
 11
-4.23999928E+02
 21
-2.30688308E+02
  0
LINE
  8
0
 62
2
 10
-4.63320057E+02
 20
-4.60688316E+02
 11
-4.51999988E+02
 21
-4.60688316E+02
  0
LINE
  8
0
 62
2
 10
-4.63319996E+02
 20
-2.30688308E+02
 11
-4.51999928E+02
 21
-2.30688308E+02
  0
LINE
  8
0
 62
7
 10
-4.63999913E+02
 20
-2.31368457E+02
 11
-4.62499879E+02
 21
-2.29868423E+02
  0
LINE
  8
0
 62
7
 10
-4.62499989E+02
 20
-2.51868331E+02
 11
-4.62499989E+02
 21
-2.29868301E+02
  0
LINE
  8
0
 62
7
 10
-4.62499989E+02
 20
-2.29868301E+02
 11
-4.51999928E+02
 21
-2.29868301E+02
  0
LINE
  8
0
 62
7
 10
-4.26999928E+02
 20
-2.51868331E+02
 11
-4.26999928E+02
 21
-2.29868301E+02
  0
LINE
  8
0
 62
7
 10
-4.63999989E+02
 20
-2.50368209E+02
 11
-4.63999989E+02
 21
-2.31368393E+02
  0
LINE
  8
0
 62
7
 10
-4.23999928E+02
 20
-2.51368362E+02
 11
-4.23999928E+02
 21
-2.30368331E+02
  0
LINE
  8
0
 62
7
 10
-1.30999958E+02
 20
-4.24426872E+02
 11
-1.30999958E+02
 21
-4.23868324E+02
  0
LINE
  8
0
 62
7
 10
-1.34508758E+02
 20
-4.24488119E+02
 11
-9.90000062E+01
 21
-4.23868312E+02
  0
LINE
  8
0
 62
7
 10
-1.30999989E+02
 20
-4.23868324E+02
 11
-9.89999886E+01
 21
-4.23868324E+02
  0
LINE
  8
0
 62
7
 10
-4.62499989E+02
 20
-4.59868309E+02
 11
-4.62499989E+02
 21
-4.70868331E+02
  0
LINE
  8
0
 62
7
 10
-4.26999989E+02
 20
-4.59868309E+02
 11
-4.26999989E+02
 21
-4.70868331E+02
  0
LINE
  8
0
 62
7
 10
-4.63999989E+02
 20
-4.61368286E+02
 11
-4.63999989E+02
 21
-4.70868331E+02
  0
LINE
  8
0
 62
7
 10
-4.23999989E+02
 20
-4.70868331E+02
 11
-4.23999989E+02
 21
-4.59868309E+02
  0
LINE
  8
0
 62
7
 10
-4.20999989E+02
 20
-4.64086052E+02
 11
-4.13999989E+02
 21
-4.64086052E+02
  0
LINE
  8
0
 62
7
 10
-4.23999928E+02
 20
-2.30368331E+02
 11
-4.14000111E+02
 21
-2.30368331E+02
  0
LINE
  8
0
 62
7
 10
-4.20999928E+02
 20
-2.30368331E+02
 11
-4.20999928E+02
 21
-2.51368331E+02
  0
LINE
  8
0
 62
7
 10
-4.20999989E+02
 20
-4.64086052E+02
 11
-4.20999989E+02
 21
-4.58368324E+02
  0
LINE
  8
0
 62
7
 10
-4.11999928E+02
 20
-2.53368393E+02
 11
-4.09999989E+02
 21
-2.53368393E+02
  0
LINE
  8
0
 62
7
 10
-4.12000111E+02
 20
-2.28368331E+02
 11
-4.09999928E+02
 21
-2.28368331E+02
  0
LINE
  8
0
 62
7
 10
-3.90499989E+02
 20
-4.48868324E+02
 11
-3.88999989E+02
 21
-4.48868324E+02
  0
LINE
  8
0
  6
CENTER
 62
2
 10
-6.90670429E+01
 20
-2.75868362E+02
 11
-1.37524433E+02
 21
-2.75868362E+02
  0
LINE
  8
0
 62
7
 10
-4.14000068E+02
 20
-2.30368240E+02
 11
-4.12000120E+02
 21
-2.28368292E+02
  0
LINE
  8
0
 62
7
 10
-4.14000032E+02
 20
-2.51368321E+02
 11
-4.11999986E+02
 21
-2.53368366E+02
  0
LINE
  8
0
 62
7
 10
-4.23999928E+02
 20
-2.51368331E+02
 11
-4.13999989E+02
 21
-2.51368331E+02
  0
LINE
  8
0
 62
7
 10
-1.06865902E+02
 20
-2.58368439E+02
 11
-1.07731971E+02
 21
-2.56868353E+02
  0
LINE
  8
0
 62
7
 10
-1.05133900E+02
 20
-2.58368423E+02
 11
-1.06865986E+02
 21
-2.58368423E+02
  0
LINE
  8
0
 62
7
 10
-1.04267689E+02
 20
-2.56868500E+02
 11
-1.05133728E+02
 21
-2.58368532E+02
  0
LINE
  8
0
  6
CENTER
 62
2
 10
-1.14999928E+02
 20
-2.43974197E+02
 11
-1.14999928E+02
 21
-2.16045089E+02
  0
LINE
  8
0
  6
CENTER
 62
2
 10
-1.01297596E+02
 20
-2.29868393E+02
 11
-1.29094868E+02
 21
-2.29868393E+02
  0
LINE
  8
0
  6
CENTER
 62
2
 10
-1.14194508E+02
 20
-2.56868393E+02
 11
-9.79254951E+01
 21
-2.56868393E+02
  0
LINE
  8
0
  6
CENTER
 62
2
 10
-1.05999928E+02
 20
-2.49320602E+02
 11
-1.05999928E+02
 21
-2.63934005E+02
  0
LINE
  8
0
 62
7
 10
-1.07731725E+02
 20
-2.56868640E+02
 11
-1.06865709E+02
 21
-2.55368647E+02
  0
LINE
  8
0
 62
7
 10
-1.05133900E+02
 20
-2.55368393E+02
 11
-1.06865986E+02
 21
-2.55368393E+02
  0
LINE
  8
0
 62
7
 10
-1.04267806E+02
 20
-2.56868472E+02
 11
-1.05133846E+02
 21
-2.55368439E+02
  0
LINE
  8
0
 62
7
 10
-3.90999989E+02
 20
-4.49368370E+02
 11
-3.90999989E+02
 21
-4.70868331E+02
  0
LINE
  8
0
  6
CENTER
 62
2
 10
-1.14999958E+02
 20
-4.36568275E+02
 11
-1.14999958E+02
 21
-4.21415672E+02
  0
LINE
  8
0
 62
7
 10
-3.90999928E+02
 20
-2.62368301E+02
 11
-3.90999928E+02
 21
-2.19368331E+02
  0
LINE
  8
0
 62
7
 10
-4.04517437E+02
 20
-2.19840233E+02
 11
-3.90999980E+02
 21
-2.19368193E+02
  0
LINE
  8
0
 62
7
 10
-3.90499928E+02
 20
-2.18868362E+02
 11
-3.88999928E+02
 21
-2.18868362E+02
  0
LINE
  8
0
 62
7
 10
-4.04517427E+02
 20
-2.61896110E+02
 11
-3.90999970E+02
 21
-2.62368150E+02
  0
LINE
  8
0
 62
7
 10
-3.90499928E+02
 20
-2.62868393E+02
 11
-3.88999928E+02
 21
-2.62868393E+02
  0
LINE
  8
0
 62
7
 10
-4.09499928E+02
 20
-2.60368362E+02
 11
-4.04999928E+02
 21
-2.60368362E+02
  0
LINE
  8
0
 62
7
 10
-4.09999928E+02
 20
-2.21868301E+02
 11
-4.09999928E+02
 21
-2.59868331E+02
  0
LINE
  8
0
 62
7
 10
-4.04999928E+02
 20
-2.20305099E+02
 11
-4.04999928E+02
 21
-2.61396560E+02
  0
LINE
  8
0
 62
7
 10
-4.09499928E+02
 20
-2.21368362E+02
 11
-4.04999928E+02
 21
-2.21368362E+02
  0
LINE
  8
0
 62
7
 10
-4.04999989E+02
 20
-4.70868331E+02
 11
-4.04999989E+02
 21
-4.50340065E+02
  0
LINE
  8
0
 62
7
 10
-1.28999928E+02
 20
-2.70868362E+02
 11
-9.89999275E+01
 21
-2.70868362E+02
  0
LINE
  8
0
 62
7
 10
-1.28999928E+02
 20
-2.10868362E+02
 11
-1.06999928E+02
 21
-2.10868362E+02
  0
LINE
  8
0
 62
7
 10
-1.30999928E+02
 20
-2.12868301E+02
 11
-1.30999928E+02
 21
-2.68868331E+02
  0
LINE
  8
0
 62
7
 10
-1.34508688E+02
 20
-2.87248404E+02
 11
-9.89999670E+01
 21
-2.87868211E+02
  0
LINE
  8
0
 62
7
 10
-9.89999275E+01
 20
-1.93868331E+02
 11
-9.89999275E+01
 21
-2.03584577E+02
  0
LINE
  8
0
 62
7
 10
-1.34508630E+02
 20
-1.94487910E+02
 11
-9.89999090E+01
 21
-1.93868103E+02
  0
LINE
  8
0
 62
7
 10
-9.89999886E+01
 20
-4.70868331E+02
 11
-9.89999886E+01
 21
-4.23868324E+02
  0
LINE
  8
0
 62
7
 10
-4.09999989E+02
 20
-4.70868331E+02
 11
-4.09999989E+02
 21
-4.51868324E+02
  0
LINE
  8
0
 62
7
 10
1.51500093E+02
 20
-4.30094833E+02
 11
1.56500089E+02
 21
-4.32981583E+02
  0
LINE
  8
0
 62
7
 10
1.56500088E+02
 20
-4.32981575E+02
 11
1.56500088E+02
 21
-4.38755073E+02
  0
LINE
  8
0
 62
7
 10
8.15000608E+01
 20
-4.41641837E+02
 11
7.65000645E+01
 21
-4.38755087E+02
  0
LINE
  8
0
 62
7
 10
7.65000572E+01
 20
-4.32981575E+02
 11
7.65000572E+01
 21
-4.38755073E+02
  0
LINE
  8
0
 62
7
 10
1.46500088E+02
 20
-4.32981575E+02
 11
1.46500088E+02
 21
-4.38755073E+02
  0
LINE
  8
0
 62
7
 10
1.51500084E+02
 20
-4.30094834E+02
 11
1.46500088E+02
 21
-4.32981583E+02
  0
LINE
  8
0
 62
7
 10
7.35000420E+01
 20
-4.24468360E+02
 11
1.59500011E+02
 21
-4.24468299E+02
  0
LINE
  8
0
 62
7
 10
1.62900105E+02
 20
-4.70868331E+02
 11
1.62900105E+02
 21
-4.27868339E+02
  0
LINE
  8
0
 62
7
 10
1.59900097E+02
 20
-4.70868331E+02
 11
1.59900097E+02
 21
-4.52867240E+02
  0
LINE
  8
0
 62
7
 10
1.63500095E+02
 20
-4.70868331E+02
 11
1.63500095E+02
 21
-4.27868339E+02
  0
LINE
  8
0
 62
7
 10
1.33569510E+02
 20
-4.55566771E+02
 11
1.43689578E+02
 21
-4.45446704E+02
  0
LINE
  8
0
 62
7
 10
1.31801636E+02
 20
-4.53798960E+02
 11
1.41921671E+02
 21
-4.43678926E+02
  0
LINE
  8
0
 62
7
 10
1.17750088E+02
 20
-4.28468330E+02
 11
1.17750088E+02
 21
-4.47978645E+02
  0
LINE
  8
0
 62
7
 10
1.58900021E+02
 20
-4.69618331E+02
 11
1.39389767E+02
 21
-4.69618331E+02
  0
LINE
  8
0
 62
7
 10
7.41000328E+01
 20
-4.69618354E+02
 11
9.36103325E+01
 21
-4.69618354E+02
  0
LINE
  8
0
 62
7
 10
7.01000938E+01
 20
-4.70868331E+02
 11
7.01000938E+01
 21
-4.27868354E+02
  0
LINE
  8
0
 62
7
 10
1.56500084E+02
 20
-4.38755088E+02
 11
1.51500088E+02
 21
-4.41641837E+02
  0
LINE
  8
0
  6
CENTER
 62
2
 10
1.51500088E+02
 20
-4.50423797E+02
 11
1.51500088E+02
 21
-4.21312851E+02
  0
LINE
  8
0
  6
CENTER
 62
2
 10
-6.92055416E+02
 20
-4.35868324E+02
 11
-6.62808933E+02
 21
-4.35868324E+02
  0
LINE
  8
0
  6
CENTER
 62
2
 10
-6.77499943E+02
 20
-4.50423797E+02
 11
-6.77499943E+02
 21
-4.21312851E+02
  0
LINE
  8
0
 62
2
 10
-7.82637490E+01
 20
-2.91797524E+02
 11
-1.87187862E+01
 21
-1.88662623E+02
  0
LINE
  8
0
 62
7
 10
-9.89999275E+01
 20
-2.16084577E+02
 11
-9.89999275E+01
 21
-2.87868301E+02
  0
LINE
  8
0
  6
CENTER
 62
2
 10
-1.06999928E+02
 20
-2.05868331E+02
 11
-1.37524433E+02
 21
-2.05868331E+02
  0
LINE
  8
0
 62
2
 10
-5.50227114E+01
 20
-4.81542761E+02
 11
-1.87188472E+01
 21
-4.18662623E+02
  0
LINE
  8
0
 62
7
 10
3.09239677E+02
 20
-4.40368324E+02
 11
3.65500103E+02
 21
-4.40368324E+02
  0
LINE
  8
0
 62
7
 10
3.14435839E+02
 20
-4.31368309E+02
 11
3.65500103E+02
 21
-4.31368309E+02
  0
LINE
  8
0
 62
7
 10
3.16745231E+02
 20
-4.27368324E+02
 11
3.46000103E+02
 21
-4.27368324E+02
  0
LINE
  8
0
 62
7
 10
5.83500134E+02
 20
-4.14368400E+02
 11
5.83500134E+02
 21
-4.03368339E+02
  0
LINE
  8
0
 62
7
 10
5.58500134E+02
 20
-4.14368354E+02
 11
5.58500134E+02
 21
-4.03368339E+02
  0
LINE
  8
0
  6
CENTER
 62
2
 10
5.71000134E+02
 20
-4.20431175E+02
 11
5.71000134E+02
 21
-3.97914878E+02
  0
LINE
  8
0
  6
CENTER
 62
2
 10
7.60079357E+02
 20
-4.70868331E+02
 11
2.91630490E+02
 21
-4.70868331E+02
  0
LINE
  8
0
  6
CENTER
 62
2
 10
3.11837762E+02
 20
-4.35868309E+02
 11
3.65500103E+02
 21
-4.35868309E+02
  0
LINE
  8
0
 62
7
 10
7.03000134E+02
 20
-4.70868331E+02
 11
7.03000134E+02
 21
-4.51868324E+02
  0
LINE
  8
0
 62
7
 10
3.92000134E+02
 20
-4.70868331E+02
 11
3.92000134E+02
 21
-4.23868324E+02
  0
LINE
  8
0
 62
7
 10
6.98000134E+02
 20
-4.70868331E+02
 11
6.98000134E+02
 21
-4.50340065E+02
  0
LINE
  8
0
  6
CENTER
 62
2
 10
4.08000103E+02
 20
-4.36568275E+02
 11
4.08000103E+02
 21
-4.21415672E+02
  0
LINE
  8
0
 62
7
 10
6.84000134E+02
 20
-4.49368370E+02
 11
6.84000134E+02
 21
-4.70868331E+02
  0
LINE
  8
0
 62
7
 10
6.83500134E+02
 20
-4.48868324E+02
 11
6.82000134E+02
 21
-4.48868324E+02
  0
LINE
  8
0
 62
7
 10
7.14000134E+02
 20
-4.64086052E+02
 11
7.14000134E+02
 21
-4.58368324E+02
  0
LINE
  8
0
 62
7
 10
7.14000134E+02
 20
-4.64086052E+02
 11
7.07000134E+02
 21
-4.64086052E+02
  0
LINE
  8
0
 62
7
 10
7.17000134E+02
 20
-4.70868331E+02
 11
7.17000134E+02
 21
-4.59868309E+02
  0
LINE
  8
0
 62
7
 10
7.57000134E+02
 20
-4.61368286E+02
 11
7.57000134E+02
 21
-4.70868331E+02
  0
LINE
  8
0
 62
7
 10
7.20000134E+02
 20
-4.59868309E+02
 11
7.20000134E+02
 21
-4.70868331E+02
  0
LINE
  8
0
 62
7
 10
7.55500134E+02
 20
-4.59868309E+02
 11
7.55500134E+02
 21
-4.70868331E+02
  0
LINE
  8
0
 62
7
 10
4.24000134E+02
 20
-4.23868324E+02
 11
3.92000134E+02
 21
-4.23868324E+02
  0
LINE
  8
0
 62
7
 10
4.27508903E+02
 20
-4.24488119E+02
 11
3.92000151E+02
 21
-4.23868312E+02
  0
LINE
  8
0
 62
7
 10
4.24000103E+02
 20
-4.24426872E+02
 11
4.24000103E+02
 21
-4.23868324E+02
  0
LINE
  8
0
 62
2
 10
7.56320202E+02
 20
-4.60688316E+02
 11
7.45000133E+02
 21
-4.60688316E+02
  0
LINE
  8
0
 62
7
 10
7.20000134E+02
 20
-4.60688316E+02
 11
7.17000134E+02
 21
-4.60688316E+02
  0
LINE
  8
0
 62
7
 10
7.02500134E+02
 20
-4.51368339E+02
 11
6.98000134E+02
 21
-4.51368339E+02
  0
LINE
  8
0
 62
7
 10
7.14000134E+02
 20
-4.58368278E+02
 11
7.03000134E+02
 21
-4.58368278E+02
  0
LINE
  8
0
 62
7
 10
6.97517666E+02
 20
-4.49840397E+02
 11
6.84000209E+02
 21
-4.49368357E+02
  0
LINE
  8
0
 62
7
 10
7.57000205E+02
 20
-4.61368338E+02
 11
7.55500171E+02
 21
-4.59868304E+02
  0
LINE
  8
0
 62
7
 10
7.55500195E+02
 20
-4.59868309E+02
 11
7.45000133E+02
 21
-4.59868309E+02
  0
LINE
  8
0
 62
7
 10
7.07000134E+02
 20
-4.70868331E+02
 11
7.07000134E+02
 21
-4.64086052E+02
  0
LINE
  8
0
 62
7
 10
7.17000118E+02
 20
-4.67368450E+02
 11
7.14000130E+02
 21
-4.64086047E+02
  0
LINE
  8
0
 62
7
 10
7.17000129E+02
 20
-4.59868286E+02
 11
7.14000117E+02
 21
-4.58368257E+02
  0
LINE
  8
0
 62
2
 10
7.07000119E+02
 20
-4.64086068E+02
 11
7.12000088E+02
 21
-4.70868331E+02
  0
LINE
  8
0
 62
2
 10
7.12000134E+02
 20
-4.70868331E+02
 11
7.15660683E+02
 21
-4.65902940E+02
  0
LINE
  8
0
 62
7
 10
6.31000134E+02
 20
-4.70868331E+02
 11
6.31000134E+02
 21
-4.69713623E+02
  0
LINE
  8
0
 62
7
 10
6.27000134E+02
 20
-4.69713127E+02
 11
6.27000134E+02
 21
-4.70868331E+02
  0
LINE
  8
0
  6
CENTER
 62
2
 10
6.29000134E+02
 20
-4.60129081E+02
 11
6.29000134E+02
 21
-4.70868331E+02
  0
LINE
  8
0
 62
7
 10
6.82000134E+02
 20
-4.14868354E+02
 11
6.47000134E+02
 21
-4.14868354E+02
  0
LINE
  8
0
 62
7
 10
4.95000134E+02
 20
-4.14868354E+02
 11
4.28000134E+02
 21
-4.14868354E+02
  0
LINE
  8
0
 62
7
 10
6.82000134E+02
 20
-4.14868354E+02
 11
6.82000134E+02
 21
-4.70868331E+02
  0
LINE
  8
0
 62
7
 10
6.28999974E+02
 20
-4.68559024E+02
 11
6.30999961E+02
 21
-4.69713718E+02
  0
LINE
  8
0
 62
7
 10
6.26999905E+02
 20
-4.69713258E+02
 11
6.28999840E+02
 21
-4.68558594E+02
  0
LINE
  8
0
 62
7
 10
6.32464614E+02
 20
-4.64868258E+02
 11
6.35928706E+02
 21
-4.70868251E+02
  0
LINE
  8
0
 62
7
 10
6.25535961E+02
 20
-4.64868309E+02
 11
6.32464245E+02
 21
-4.64868309E+02
  0
LINE
  8
0
 62
7
 10
6.25536450E+02
 20
-4.64868656E+02
 11
6.22072357E+02
 21
-4.70868649E+02
  0
LINE
  8
0
 62
7
 10
5.15000183E+02
 20
-4.69713361E+02
 11
5.13000195E+02
 21
-4.68558667E+02
  0
LINE
  8
0
 62
7
 10
5.13000186E+02
 20
-4.68558863E+02
 11
5.11000225E+02
 21
-4.69713541E+02
  0
LINE
  8
0
 62
7
 10
5.16464076E+02
 20
-4.64868493E+02
 11
5.19928176E+02
 21
-4.70868499E+02
  0
LINE
  8
0
 62
7
 10
5.16464275E+02
 20
-4.64868309E+02
 11
5.09536083E+02
 21
-4.64868309E+02
  0
LINE
  8
0
 62
7
 10
5.09535988E+02
 20
-4.64868289E+02
 11
5.06071880E+02
 21
-4.70868308E+02
  0
LINE
  8
0
 62
7
 10
6.47000134E+02
 20
-4.33368339E+02
 11
4.95000134E+02
 21
-4.33368339E+02
  0
LINE
  8
0
  6
CENTER
 62
2
 10
6.89066601E+02
 20
-4.28868324E+02
 11
4.20784130E+02
 21
-4.28868324E+02
  0
LINE
  8
0
 62
7
 10
6.47000134E+02
 20
-4.24368324E+02
 11
4.95000134E+02
 21
-4.24368324E+02
  0
LINE
  8
0
 62
7
 10
6.47000134E+02
 20
-4.17368354E+02
 11
5.86500134E+02
 21
-4.17368354E+02
  0
LINE
  8
0
 62
7
 10
6.47000134E+02
 20
-4.14868354E+02
 11
6.47000134E+02
 21
-4.70868331E+02
  0
LINE
  8
0
 62
7
 10
4.95000164E+02
 20
-4.14868354E+02
 11
4.95000164E+02
 21
-4.70868331E+02
  0
LINE
  8
0
 62
7
 10
5.11000195E+02
 20
-4.70868331E+02
 11
5.11000195E+02
 21
-4.69713546E+02
  0
LINE
  8
0
 62
7
 10
5.15000164E+02
 20
-4.69713203E+02
 11
5.15000164E+02
 21
-4.70868331E+02
  0
LINE
  8
0
  6
CENTER
 62
2
 10
5.13000164E+02
 20
-4.59926857E+02
 11
5.13000164E+02
 21
-4.70868331E+02
  0
LINE
  8
0
 62
7
 10
5.55500134E+02
 20
-4.17368354E+02
 11
4.95000134E+02
 21
-4.17368354E+02
  0
LINE
  8
0
 62
7
 10
5.83500200E+02
 20
-4.14368291E+02
 11
5.86500219E+02
 21
-4.17368279E+02
  0
LINE
  8
0
 62
7
 10
5.58500167E+02
 20
-4.14368342E+02
 11
5.55500185E+02
 21
-4.17368324E+02
  0
LINE
  8
0
 62
7
 10
4.28000134E+02
 20
-4.14868354E+02
 11
4.28000134E+02
 21
-4.70868331E+02
  0
ARC
  8
0
 62
7
 10
6.97500134E+02
 20
-4.50340065E+02
 40
5.00000000E-01
 50
3.59721787E-05
 51
8.79992642E+01
  0
ARC
  8
0
 62
7
 10
7.02500134E+02
 20
-4.51868324E+02
 40
5.00000000E-01
 50
3.59721787E-05
 51
9.00000179E+01
  0
ARC
  8
0
 62
7
 10
6.83500134E+02
 20
-4.49368324E+02
 40
5.00000000E-01
 50
3.59721787E-05
 51
9.00000179E+01
  0
ARC
  8
0
 62
7
 10
7.17500134E+02
 20
-4.70868347E+02
 40
1.25000010E+01
 50
1.47140312E+02
 51
1.79999930E+02
  0
ARC
  8
0
 62
7
 10
4.27500134E+02
 20
-4.24988044E+02
 40
5.00000000E-01
 50
3.59721787E-05
 51
8.89997505E+01
  0
ARC
  8
0
 62
7
 10
6.29000134E+02
 20
-4.70868331E+02
 40
4.00000000E+00
 50
0.00000000E+00
 51
1.80000000E+02
  0
ARC
  8
0
 62
7
 10
6.29000134E+02
 20
-4.70868331E+02
 40
8.00000000E+00
 50
0.00000000E+00
 51
1.80000000E+02
  0
ARC
  8
0
 62
7
 10
6.29000134E+02
 20
-4.70868331E+02
 40
3.30000043E+00
 50
0.00000000E+00
 51
1.80000000E+02
  0
ARC
  8
0
 62
2
 10
5.71000134E+02
 20
-3.66163139E+02
 40
4.97995224E+01
 50
2.55462935E+02
 51
2.84537049E+02
  0
ARC
  8
0
 62
2
 10
5.71000134E+02
 20
-3.66163139E+02
 40
5.34997444E+01
 50
2.53158757E+02
 51
2.86841221E+02
  0
ARC
  8
0
 62
7
 10
5.13000164E+02
 20
-4.70868331E+02
 40
4.00000000E+00
 50
0.00000000E+00
 51
1.80000000E+02
  0
ARC
  8
0
 62
7
 10
5.13000164E+02
 20
-4.70868331E+02
 40
3.30000043E+00
 50
0.00000000E+00
 51
1.80000000E+02
  0
ARC
  8
0
 62
7
 10
5.13000164E+02
 20
-4.70868331E+02
 40
8.00000000E+00
 50
0.00000000E+00
 51
1.80000000E+02
  0
ARC
  8
0
 62
4
 10
7.36437531E+02
 20
-4.57147779E+02
 40
8.56342793E+00
 50
3.26410682E+02
 51
3.35893354E+01
  0
ARC
  8
0
 62
4
 10
7.15945333E+02
 20
-4.70885389E+02
 40
2.90548000E+01
 50
3.36363131E-02
 51
1.80447127E+01
  0
ARC
  8
0
 62
4
 10
7.40562736E+02
 20
-4.57147779E+02
 40
8.56342793E+00
 50
1.46410742E+02
 51
2.13589395E+02
  0
ARC
  8
0
 62
4
 10
7.61054929E+02
 20
-4.70885389E+02
 40
2.90548000E+01
 50
1.61955323E+02
 51
1.79966364E+02
  0
LINE
  8
0
 62
4
 10
7.43571071E+02
 20
-4.61885389E+02
 11
7.33429195E+02
 21
-4.61885389E+02
  0
LINE
  8
0
 62
4
 10
7.33429214E+02
 20
-4.52410212E+02
 11
7.32000141E+02
 21
-4.54885400E+02
  0
LINE
  8
0
 62
4
 10
7.45000150E+02
 20
-4.54885385E+02
 11
7.43571067E+02
 21
-4.52410168E+02
  0
LINE
  8
0
 62
4
 10
7.32000134E+02
 20
-4.54885385E+02
 11
7.32000134E+02
 21
-4.70868331E+02
  0
LINE
  8
0
 62
4
 10
7.45000133E+02
 20
-4.54885385E+02
 11
7.45000133E+02
 21
-4.70868331E+02
  0
LINE
  8
0
 62
4
 10
7.43571071E+02
 20
-4.52410165E+02
 11
7.33429195E+02
 21
-4.52410165E+02
  0
LINE
  8
0
 62
2
 10
7.32000134E+02
 20
-4.60688316E+02
 11
7.20000134E+02
 21
-4.60688316E+02
  0
LINE
  8
0
 62
7
 10
7.32000134E+02
 20
-4.59868309E+02
 11
7.20000134E+02
 21
-4.59868309E+02
  0
LINE
  8
0
 62
7
 10
5.83500010E+02
 20
-4.03368406E+02
 11
5.82500031E+02
 21
-4.02368426E+02
  0
LINE
  8
0
 62
7
 10
5.59500147E+02
 20
-4.02368372E+02
 11
5.58500167E+02
 21
-4.03368352E+02
  0
LINE
  8
0
 62
7
 10
5.82500134E+02
 20
-4.02368354E+02
 11
5.59500134E+02
 21
-4.02368354E+02
  0
LINE
  8
0
 62
7
 10
5.83500134E+02
 20
-4.03368339E+02
 11
5.58500134E+02
 21
-4.03368339E+02
  0
LINE
  8
0
 62
2
 10
2.87816281E+02
 20
-4.77474735E+02
 11
3.24034225E+02
 21
-4.14743416E+02
  0
LINE
  8
0
 62
7
 10
3.85000103E+02
 20
-4.27368324E+02
 11
3.92000134E+02
 21
-4.27368324E+02
  0
LINE
  8
0
 62
7
 10
3.80500103E+02
 20
-4.31368309E+02
 11
3.92000134E+02
 21
-4.31368309E+02
  0
LINE
  8
0
 62
7
 10
3.80500103E+02
 20
-4.40368324E+02
 11
3.92000134E+02
 21
-4.40368324E+02
  0
LINE
  8
0
  6
CENTER
 62
2
 10
3.80500103E+02
 20
-4.35868309E+02
 11
4.30524609E+02
 21
-4.35868309E+02
  0
LINE
  8
0
 62
7
 10
1.20583785E+02
 20
-4.14868354E+02
 11
6.55000877E+01
 21
-4.14868354E+02
  0
TEXT
  8
0
 10
-1.14132812E+02
 20
3.90864332E+02
 40
1.25000000E+01
  1
STRETCH LINE
 41
1.05263158E+00
  7
MONOTXT
  0
LINE
  8
0
 62
7
 10
-8.20500000E+02
 20
-5.74500000E+02
 11
8.20500000E+02
 21
-5.74500000E+02
  0
LINE
  8
0
 62
7
 10
-8.20500000E+02
 20
5.74500000E+02
 11
-8.20500000E+02
 21
-5.74500000E+02
  0
LINE
  8
0
 62
7
 10
8.20500000E+02
 20
5.74500000E+02
 11
8.20500000E+02
 21
-5.74500000E+02
  0
LINE
  8
0
 62
7
 10
-8.20500000E+02
 20
5.74500000E+02
 11
8.20500000E+02
 21
5.74500000E+02
  0
LINE
  8
0
 62
7
 10
-8.20500000E+02
 20
5.24500000E+02
 11
-4.70500000E+02
 21
5.24500000E+02
  0
LINE
  8
0
 62
7
 10
4.70500000E+02
 20
-5.24500000E+02
 11
8.20500000E+02
 21
-5.24500000E+02
  0
LINE
  8
0
 62
7
 10
4.70500000E+02
 20
5.74500000E+02
 11
4.70500000E+02
 21
5.24500000E+02
  0
LINE
  8
0
 62
7
 10
-4.70500000E+02
 20
5.74500000E+02
 11
-4.70500000E+02
 21
5.24500000E+02
  0
LINE
  8
0
 62
7
 10
4.70500000E+02
 20
-5.24500000E+02
 11
4.70500000E+02
 21
-5.74500000E+02
  0
LINE
  8
0
 62
7
 10
4.70500000E+02
 20
5.24500000E+02
 11
8.20500000E+02
 21
5.24500000E+02
  0
TEXT
  8
0
 62
7
 10
-7.84358752E+02
 20
4.75500000E+02
 40
1.80000000E+01
  1
MODEL:DDARR80*75
 41
1.00000000E+00
  7
MONOTXT
  0
TEXT
  8
0
 62
7
 10
4.86570312E+02
 20
-5.62000000E+02
 40
2.50000000E+01
  1
KOGANEI CORP.
 41
1.04838710E+00
  7
MONOTXT
  0
TEXT
  8
0
 62
7
 10
5.76070624E+02
 20
5.40500000E+02
 40
1.80000000E+01
  1
Ver. 1.0
 41
1.08108108E+00
  7
MONOTXT
  0
TEXT
  8
0
 62
7
 10
-7.95929376E+02
 20
5.40500000E+02
 40
1.80000000E+01
  1
NEW DYNA CYLINDER
 41
1.07594937E+00
  7
MONOTXT
  0
ENDSEC
  0
EOF
