  0
SECTION
  2
HEADER
  9
$ACADVER
  1
AC1009
  9
$DWGCODEPAGE
  3
dos932
  9
$INSBASE
 10
0.0
 20
0.0
 30
0.0
  9
$EXTMIN
 10
-138.3999939
 20
-94.80000305
 30
0.0
  9
$EXTMAX
 10
138.3500061
 20
94.5
 30
0.0
  9
$LIMMIN
 10
-148.5
 20
-105.0
  9
$LIMMAX
 10
148.5
 20
105.0
  9
$ORTHOMODE
 70
       0
  9
$REGENMODE
 70
       1
  9
$FILLMODE
 70
       1
  9
$QTEXTMODE
 70
       0
  9
$MIRRTEXT
 70
       1
  9
$DRAGMODE
 70
       2
  9
$LTSCALE
 40
1.0
  9
$OSMODE
 70
       0
  9
$ATTMODE
 70
       1
  9
$TEXTSIZE
 40
3.20000005
  9
$TRACEWID
 40
0.05
  9
$TEXTSTYLE
  7
MX_NOTE_STANDARD
  9
$CLAYER
  8
0
  9
$CELTYPE
  6
CONTINUOUS
  9
$CECOLOR
 62
     256
  9
$DIMSCALE
 40
1.0
  9
$DIMASZ
 40
2.5
  9
$DIMEXO
 40
1.5
  9
$DIMDLI
 40
3.75
  9
$DIMRND
 40
0.0
  9
$DIMDLE
 40
0.0
  9
$DIMEXE
 40
1.5
  9
$DIMTP
 40
0.0
  9
$DIMTM
 40
0.0
  9
$DIMTXT
 40
3.20000005
  9
$DIMCEN
 40
2.5
  9
$DIMTSZ
 40
0.0
  9
$DIMTOL
 70
       0
  9
$DIMLIM
 70
       0
  9
$DIMTIH
 70
       0
  9
$DIMTOH
 70
       0
  9
$DIMSE1
 70
       0
  9
$DIMSE2
 70
       0
  9
$DIMTAD
 70
       1
  9
$DIMZIN
 70
       8
  9
$DIMBLK
  1

  9
$DIMASO
 70
       1
  9
$DIMSHO
 70
       1
  9
$DIMPOST
  1

  9
$DIMAPOST
  1

  9
$DIMALT
 70
       0
  9
$DIMALTD
 70
       4
  9
$DIMALTF
 40
0.03937008
  9
$DIMLFAC
 40
1.0
  9
$DIMTOFL
 70
       1
  9
$DIMTVP
 40
0.0
  9
$DIMTIX
 70
       0
  9
$DIMSOXD
 70
       0
  9
$DIMSAH
 70
       1
  9
$DIMBLK1
  1
_OPEN30
  9
$DIMBLK2
  1
_OPEN30
  9
$DIMSTYLE
  2
MXDIMSTYLE
  9
$DIMCLRD
 70
       0
  9
$DIMCLRE
 70
       0
  9
$DIMCLRT
 70
       0
  9
$DIMTFAC
 40
1.0
  9
$DIMGAP
 40
1.0
  9
$LUNITS
 70
       2
  9
$LUPREC
 70
       4
  9
$AXISMODE
 70
       0
  9
$AXISUNIT
 10
0.0
 20
0.0
  9
$SKETCHINC
 40
0.1
  9
$FILLETRAD
 40
0.0
  9
$AUNITS
 70
       0
  9
$AUPREC
 70
       0
  9
$MENU
  1
acad
  9
$ELEVATION
 40
0.0
  9
$PELEVATION
 40
0.0
  9
$THICKNESS
 40
0.0
  9
$LIMCHECK
 70
       0
  9
$BLIPMODE
 70
       1
  9
$CHAMFERA
 40
0.0
  9
$CHAMFERB
 40
0.0
  9
$SKPOLY
 70
       0
  9
$TDCREATE
 40
2454022.380648148
  9
$TDUPDATE
 40
2454022.380648148
  9
$TDINDWG
 40
0.0000000000
  9
$TDUSRTIMER
 40
0.0000000000
  9
$USRTIMER
 70
       1
  9
$ANGBASE
 50
0.0
  9
$ANGDIR
 70
       0
  9
$PDMODE
 70
       0
  9
$PDSIZE
 40
0.0
  9
$PLINEWID
 40
0.0
  9
$COORDS
 70
       1
  9
$SPLFRAME
 70
       0
  9
$SPLINETYPE
 70
       6
  9
$SPLINESEGS
 70
       8
  9
$ATTDIA
 70
       0
  9
$ATTREQ
 70
       1
  9
$HANDLING
 70
       1
  9
$HANDSEED
  5
163
  9
$SURFTAB1
 70
       6
  9
$SURFTAB2
 70
       6
  9
$SURFTYPE
 70
       6
  9
$SURFU
 70
       6
  9
$SURFV
 70
       6
  9
$UCSNAME
  2

  9
$UCSORG
 10
0.0
 20
0.0
 30
0.0
  9
$UCSXDIR
 10
1.0
 20
0.0
 30
0.0
  9
$UCSYDIR
 10
0.0
 20
1.0
 30
0.0
  9
$PUCSNAME
  2

  9
$PUCSORG
 10
0.0
 20
0.0
 30
0.0
  9
$PUCSXDIR
 10
1.0
 20
0.0
 30
0.0
  9
$PUCSYDIR
 10
0.0
 20
1.0
 30
0.0
  9
$USERI1
 70
       0
  9
$USERI2
 70
       0
  9
$USERI3
 70
       0
  9
$USERI4
 70
       0
  9
$USERI5
 70
       0
  9
$USERR1
 40
0.0
  9
$USERR2
 40
0.0
  9
$USERR3
 40
0.0
  9
$USERR4
 40
0.0
  9
$USERR5
 40
0.0
  9
$WORLDVIEW
 70
       1
  9
$SHADEDGE
 70
       3
  9
$SHADEDIF
 70
      70
  9
$TILEMODE
 70
       1
  9
$MAXACTVP
 70
      16
  9
$PINSBASE
 10
0.0
 20
0.0
 30
0.0
  9
$PLIMCHECK
 70
       0
  9
$PEXTMIN
 10
1.00000000E+20
 20
1.00000000E+20
 30
1.00000000E+20
  9
$PEXTMAX
 10
-1.00000000E+20
 20
-1.00000000E+20
 30
-1.00000000E+20
  9
$PLIMMIN
 10
0.0
 20
0.0
  9
$PLIMMAX
 10
12.0
 20
9.0
  9
$UNITMODE
 70
       0
  9
$VISRETAIN
 70
       0
  9
$PLINEGEN
 70
       1
  9
$PSLTSCALE
 70
       0
  9
$TREEDEPTH
 70
    3020
  0
ENDSEC
  0
SECTION
  2
TABLES
  0
TABLE
  2
VPORT
 70
       1
  0
VPORT
  2
*ACTIVE
 70
       0
 10
0.0
 20
0.0
 11
1.0
 21
1.0
 12
0.0
 22
0.0
 13
0.0
 23
0.0
 14
1.0
 24
1.0
 15
0.0
 25
0.0
 16
0.0
 26
0.0
 36
1.0
 17
0.0
 27
0.0
 37
0.0
 40
212.1
 41
1.73205081
 42
50.0
 43
0.0
 44
0.0
 50
0.0
 51
0.0
 71
       0
 72
     100
 73
       1
 74
       1
 75
       0
 76
       0
 77
       0
 78
       0
  0
ENDTAB
  0
TABLE
  2
LTYPE
 70
       1
  0
LTYPE
  2
CONTINUOUS
 70
      64
  3
Solid line
 72
      65
 73
       0
 40
0.0
  0
ENDTAB
  0
TABLE
  2
LAYER
 70
       2
  0
LAYER
  2
0
 70
       0
 62
       7
  6
CONTINUOUS
  0
LAYER
  2
DEFPOINTS
 70
       0
 62
       7
  6
CONTINUOUS
  0
ENDTAB
  0
TABLE
  2
STYLE
 70
       1
  0
STYLE
  2
MX_NOTE_STANDARD
 70
       0
 40
0.0
 41
1.0
 50
0.0
 71
       0
 42
3.20000005
  3
txt.shx
  4
extfont.shx
  0
ENDTAB
  0
TABLE
  2
VIEW
 70
       0
  0
ENDTAB
  0
TABLE
  2
UCS
 70
       0
  0
ENDTAB
  0
TABLE
  2
APPID
 70
       1
  0
APPID
  2
ACAD
 70
       0
  0
ENDTAB
  0
TABLE
  2
DIMSTYLE
 70
       1
  0
DIMSTYLE
  2
MXDIMSTYLE
 70
       0
  3

  4

  5

  6
_OPEN30
  7
_OPEN30
 40
1.0
 41
2.5
 42
1.5
 43
3.75
 44
1.5
 45
0.0
 46
0.0
 47
0.0
 48
0.0
 71
       0
 72
       0
 73
       0
 74
       0
 75
       0
 76
       0
 77
       1
 78
       8
140
3.20000005
141
2.5
142
0.0
143
0.03937008
144
1.0
145
0.0
146
1.0
147
1.0
170
       0
171
       4
172
       1
173
       1
174
       0
175
       0
176
       0
177
       0
178
       0
  0
ENDTAB
  0
ENDSEC
  0
SECTION
  2
BLOCKS
  0
BLOCK
  8
0
  6
BYBLOCK
 62
       0
  5
1F
  2
_OPEN30
 70
       2
 10
0.0
 20
0.0
 30
0.0
  3
_OPEN30
  0
LINE
  8
0
  6
BYBLOCK
 62
       0
  5
20
 10
-1.0
 20
0.267949
 30
0.0
 11
0.0
 21
0.0
 31
0.0
  0
LINE
  8
0
  6
BYBLOCK
 62
       0
  5
21
 10
0.0
 20
0.0
 30
0.0
 11
-1.0
 21
-0.267949
 31
0.0
  0
LINE
  8
0
  6
BYBLOCK
 62
       0
  5
22
 10
0.0
 20
0.0
 30
0.0
 11
-1.0
 21
0.0
 31
0.0
  0
ENDBLK
  8
0
  6
BYBLOCK
 62
       0
  5
23
  0
ENDSEC
  0
SECTION
  2
ENTITIES
  0
LINE
  8
0
  6
CONTINUOUS
 62
       2
  5
24
 10
-42.94562908
 20
-48.74082397
 30
0.0
 11
-42.94562908
 21
30.56802921
 31
0.0
  0
LINE
  8
0
  6
CONTINUOUS
 62
       2
  5
25
 10
-82.94562908
 20
-48.74082397
 30
0.0
 11
-82.94562908
 21
30.56802921
 31
0.0
  0
ARC
  8
0
  6
CONTINUOUS
 62
       7
  5
26
 10
65.05316357
 20
-1.74079937
 30
0.0
 40
27.00120735
 50
182.33476201
 51
177.66523799
  0
LINE
  8
0
  6
CONTINUOUS
 62
       7
  5
27
 10
25.95437092
 20
-26.74082397
 30
0.0
 11
38.59437092
 21
-26.74082397
 31
0.0
  0
LINE
  8
0
  6
CONTINUOUS
 62
       7
  5
28
 10
92.05437092
 20
-51.74082397
 30
0.0
 11
99.05437092
 21
-51.74082397
 31
0.0
  0
LINE
  8
0
  6
CONTINUOUS
 62
       7
  5
29
 10
99.05437092
 20
-51.74082397
 30
0.0
 11
100.05437092
 21
-50.74082397
 31
0.0
  0
LINE
  8
0
  6
CONTINUOUS
 62
       7
  5
2A
 10
25.05437092
 20
21.25917603
 30
0.0
 11
25.05437092
 21
-0.64082397
 31
0.0
  0
LINE
  8
0
  6
CONTINUOUS
 62
       7
  5
2B
 10
92.05437092
 20
48.25917603
 30
0.0
 11
99.05437092
 21
48.25917603
 31
0.0
  0
LINE
  8
0
  6
CONTINUOUS
 62
       2
  5
2C
 10
85.87437092
 20
38.25917603
 30
0.0
 11
105.31437092
 21
38.25917603
 31
0.0
  0
LINE
  8
0
  6
CONTINUOUS
 62
       2
  5
2D
 10
86.86437092
 20
-41.74082397
 30
0.0
 11
103.46437092
 21
-41.74082397
 31
0.0
  0
LINE
  8
0
  6
CONTINUOUS
 62
       7
  5
2E
 10
25.05437092
 20
-0.64082397
 30
0.0
 11
38.07437092
 21
-0.64082397
 31
0.0
  0
LINE
  8
0
  6
CONTINUOUS
 62
       2
  5
2F
 10
20.98437092
 20
-1.74082397
 30
0.0
 11
104.18437092
 21
-1.74082397
 31
0.0
  0
LINE
  8
0
  6
CONTINUOUS
 62
       7
  5
30
 10
25.05437092
 20
-2.84082397
 30
0.0
 11
38.07437092
 21
-2.84082397
 31
0.0
  0
LINE
  8
0
  6
CONTINUOUS
 62
       7
  5
31
 10
90.05437092
 20
46.25917603
 30
0.0
 11
90.05437092
 21
29.23917603
 31
0.0
  0
LINE
  8
0
  6
CONTINUOUS
 62
       7
  5
32
 10
90.05437092
 20
-32.72082397
 30
0.0
 11
90.05437092
 21
-49.74082397
 31
0.0
  0
LINE
  8
0
  6
CONTINUOUS
 62
       7
  5
33
 10
100.05437092
 20
47.25917603
 30
0.0
 11
99.05437092
 21
48.25917603
 31
0.0
  0
LINE
  8
0
  6
CONTINUOUS
 62
       7
  5
34
 10
25.05437092
 20
-2.84082397
 30
0.0
 11
25.05437092
 21
-24.74082397
 31
0.0
  0
ARC
  8
0
  6
CONTINUOUS
 62
       7
  5
35
 10
65.04797877
 20
-1.74116016
 30
0.0
 40
34.99581024
 50
54.61209418
 51
131.40101122
  0
ARC
  8
0
  6
CONTINUOUS
 62
       7
  5
36
 10
27.05437092
 20
21.25917603
 30
0.0
 40
2.0
 50
90.0
 51
180.0
  0
ARC
  8
0
  6
CONTINUOUS
 62
       7
  5
37
 10
27.05437092
 20
-24.74082397
 30
0.0
 40
2.0
 50
180.0
 51
270.0
  0
ARC
  8
0
  6
CONTINUOUS
 62
       7
  5
38
 10
92.05437092
 20
46.25917603
 30
0.0
 40
2.0
 50
90.0
 51
180.0
  0
ARC
  8
0
  6
CONTINUOUS
 62
       7
  5
39
 10
38.5971395
 20
28.25928484
 30
0.0
 40
5.00010958
 50
269.96827515
 51
311.4091608
  0
ARC
  8
0
  6
CONTINUOUS
 62
       7
  5
3A
 10
87.05028532
 20
29.24093756
 30
0.0
 40
3.00408612
 50
234.70045956
 51
359.96640309
  0
ARC
  8
0
  6
CONTINUOUS
 62
       7
  5
3B
 10
65.04797877
 20
-1.74048778
 30
0.0
 40
34.99581024
 50
228.59898878
 51
305.38790582
  0
ARC
  8
0
  6
CONTINUOUS
 62
       7
  5
3C
 10
38.5971395
 20
-31.74093278
 30
0.0
 40
5.00010958
 50
48.5908392
 51
90.03172485
  0
ARC
  8
0
  6
CONTINUOUS
 62
       7
  5
3D
 10
87.05029155
 20
-32.72257345
 30
0.0
 40
3.00407988
 50
0.03336723
 51
125.29977012
  0
ARC
  8
0
  6
CONTINUOUS
 62
       7
  5
3E
 10
65.05437092
 20
-1.74082397
 30
0.0
 40
28.00161424
 50
182.25135516
 51
177.74864484
  0
LINE
  8
0
  6
CONTINUOUS
 62
       2
  5
3F
 10
32.05437092
 20
31.75917603
 30
0.0
 11
32.05437092
 21
-38.24082397
 31
0.0
  0
LINE
  8
0
  6
CONTINUOUS
 62
       7
  5
40
 10
25.95437092
 20
23.25917603
 30
0.0
 11
38.59437092
 21
23.25917603
 31
0.0
  0
LINE
  8
0
  6
CONTINUOUS
 62
       7
  5
41
 10
25.95437092
 20
24.75917603
 30
0.0
 11
38.15437092
 21
24.75917603
 31
0.0
  0
LINE
  8
0
  6
CONTINUOUS
 62
       7
  5
42
 10
25.95437092
 20
24.75917603
 30
0.0
 11
25.95437092
 21
23.25917603
 31
0.0
  0
LINE
  8
0
  6
CONTINUOUS
 62
       7
  5
43
 10
38.15437092
 20
24.75917603
 30
0.0
 11
38.15437092
 21
23.25917603
 31
0.0
  0
LINE
  8
0
  6
CONTINUOUS
 62
       7
  5
44
 10
36.28086792
 20
28.75917603
 30
0.0
 11
32.05437092
 21
28.75917603
 31
0.0
  0
LINE
  8
0
  6
CONTINUOUS
 62
       7
  5
45
 10
37.0543706
 20
28.31259404
 30
0.0
 11
37.0543706
 21
24.75917605
 31
0.0
  0
LINE
  8
0
  6
CONTINUOUS
 62
       7
  5
46
 10
36.28086792
 20
28.75917603
 30
0.0
 11
37.0543706
 21
28.31259405
 31
0.0
  0
LINE
  8
0
  6
CONTINUOUS
 62
       7
  5
47
 10
34.35437092
 20
-35.24082397
 30
0.0
 11
34.85437092
 21
-34.74082397
 31
0.0
  0
LINE
  8
0
  6
CONTINUOUS
 62
       7
  5
48
 10
34.35437092
 20
-35.24082397
 30
0.0
 11
29.75437092
 21
-35.24082397
 31
0.0
  0
LINE
  8
0
  6
CONTINUOUS
 62
       7
  5
49
 10
25.95437092
 20
-26.74082397
 30
0.0
 11
25.95437092
 21
-28.24082397
 31
0.0
  0
LINE
  8
0
  6
CONTINUOUS
 62
       7
  5
4A
 10
38.15437092
 20
-26.74082397
 30
0.0
 11
38.15437092
 21
-28.24082397
 31
0.0
  0
LINE
  8
0
  6
CONTINUOUS
 62
       7
  5
4B
 10
25.95437092
 20
-29.74082397
 30
0.0
 11
38.15437092
 21
-29.74082397
 31
0.0
  0
LINE
  8
0
  6
CONTINUOUS
 62
       7
  5
4C
 10
25.95437092
 20
-28.24082397
 30
0.0
 11
38.15437092
 21
-28.24082397
 31
0.0
  0
LINE
  8
0
  6
CONTINUOUS
 62
       7
  5
4D
 10
25.95437092
 20
-28.24082397
 30
0.0
 11
25.95437092
 21
-29.74082397
 31
0.0
  0
LINE
  8
0
  6
CONTINUOUS
 62
       7
  5
4E
 10
38.15437092
 20
-28.24082397
 30
0.0
 11
38.15437092
 21
-29.74082397
 31
0.0
  0
LINE
  8
0
  6
CONTINUOUS
 62
       7
  5
4F
 10
37.05437364
 20
-34.29424197
 30
0.0
 11
37.05437364
 21
-30.18740597
 31
0.0
  0
LINE
  8
0
  6
CONTINUOUS
 62
       7
  5
50
 10
37.05437364
 20
-30.18740597
 30
0.0
 11
36.28087092
 21
-29.74082397
 31
0.0
  0
LINE
  8
0
  6
CONTINUOUS
 62
       7
  5
51
 10
36.28087092
 20
-34.74082397
 30
0.0
 11
37.05437364
 21
-34.29424197
 31
0.0
  0
LINE
  8
0
  6
CONTINUOUS
 62
       7
  5
52
 10
35.05437092
 20
-0.64082397
 30
0.0
 11
35.05437092
 21
-2.84082397
 31
0.0
  0
LINE
  8
0
  6
CONTINUOUS
 62
       2
  5
53
 10
34.51287092
 20
-0.64082397
 30
0.0
 11
34.51287092
 21
-2.84082397
 31
0.0
  0
LINE
  8
0
  6
CONTINUOUS
 62
       7
  5
54
 10
29.05437092
 20
-0.64082397
 30
0.0
 11
29.05437092
 21
-2.84082397
 31
0.0
  0
LINE
  8
0
  6
CONTINUOUS
 62
       2
  5
55
 10
29.59587092
 20
-0.64082397
 30
0.0
 11
29.59587092
 21
-2.84082397
 31
0.0
  0
LINE
  8
0
  6
CONTINUOUS
 62
       2
  5
56
 10
34.51287092
 20
-34.74082397
 30
0.0
 11
34.51287092
 21
-35.08232397
 31
0.0
  0
LINE
  8
0
  6
CONTINUOUS
 62
       2
  5
57
 10
29.59587092
 20
-34.74082397
 30
0.0
 11
29.59587092
 21
-35.08232397
 31
0.0
  0
LINE
  8
0
  6
CONTINUOUS
 62
       2
  5
58
 10
65.05316357
 20
-41.73629763
 30
0.0
 11
65.05316357
 21
38.25464969
 31
0.0
  0
LINE
  8
0
  6
CONTINUOUS
 62
       7
  5
59
 10
32.05437092
 20
28.31259403
 30
0.0
 11
32.05437092
 21
24.75917603
 31
0.0
  0
LINE
  8
0
  6
CONTINUOUS
 62
       7
  5
5A
 10
29.25437092
 20
-34.74082397
 30
0.0
 11
29.75437092
 21
-35.24082397
 31
0.0
  0
ARC
  8
0
  6
CONTINUOUS
 62
       7
  5
5B
 10
34.55437228
 20
-36.96171759
 30
0.0
 40
7.22089362
 50
69.74385206
 51
110.25614794
  0
ARC
  8
0
  6
CONTINUOUS
 62
       7
  5
5C
 10
34.5541674
 20
-27.51878338
 30
0.0
 40
7.22204059
 50
249.74894259
 51
290.25452243
  0
LINE
  8
0
  6
CONTINUOUS
 62
       7
  5
5D
 10
32.05437092
 20
-34.74082397
 30
0.0
 11
36.28087092
 21
-34.74082397
 31
0.0
  0
LINE
  8
0
  6
CONTINUOUS
 62
       7
  5
5E
 10
27.05436821
 20
-34.29424197
 30
0.0
 11
27.05436821
 21
-30.18740597
 31
0.0
  0
LINE
  8
0
  6
CONTINUOUS
 62
       7
  5
5F
 10
27.05436821
 20
-30.18740597
 30
0.0
 11
27.82787092
 21
-29.74082397
 31
0.0
  0
ARC
  8
0
  6
CONTINUOUS
 62
       7
  5
60
 10
29.55436956
 20
-36.96171759
 30
0.0
 40
7.22089362
 50
69.74385206
 51
110.25614794
  0
LINE
  8
0
  6
CONTINUOUS
 62
       7
  5
61
 10
27.82787092
 20
-34.74082397
 30
0.0
 11
27.05436821
 21
-34.29424197
 31
0.0
  0
ARC
  8
0
  6
CONTINUOUS
 62
       7
  5
62
 10
29.55457444
 20
-27.51878338
 30
0.0
 40
7.22204059
 50
249.74547757
 51
290.25105741
  0
LINE
  8
0
  6
CONTINUOUS
 62
       7
  5
63
 10
32.05437092
 20
-34.74082397
 30
0.0
 11
27.82787092
 21
-34.74082397
 31
0.0
  0
ARC
  8
0
  6
CONTINUOUS
 62
       7
  5
64
 10
34.55437076
 20
21.53829055
 30
0.0
 40
7.22088548
 50
69.74384109
 51
110.25615891
  0
LINE
  8
0
  6
CONTINUOUS
 62
       7
  5
65
 10
27.82787392
 20
28.75917603
 30
0.0
 11
27.05437124
 21
28.31259405
 31
0.0
  0
ARC
  8
0
  6
CONTINUOUS
 62
       7
  5
66
 10
29.55437108
 20
21.53829055
 30
0.0
 40
7.22088548
 50
69.74384109
 51
110.25615891
  0
LINE
  8
0
  6
CONTINUOUS
 62
       7
  5
67
 10
27.82787392
 20
28.75917603
 30
0.0
 11
32.05437092
 21
28.75917603
 31
0.0
  0
LINE
  8
0
  6
CONTINUOUS
 62
       7
  5
68
 10
27.05437124
 20
28.31259404
 30
0.0
 11
27.05437124
 21
24.75917605
 31
0.0
  0
ARC
  8
0
  6
CONTINUOUS
 62
       7
  5
69
 10
92.05437092
 20
-49.74082397
 30
0.0
 40
2.0
 50
180.0
 51
270.0
  0
LINE
  8
0
  6
CONTINUOUS
 62
       7
  5
6A
 10
99.05437092
 20
48.25917603
 30
0.0
 11
99.05437092
 21
-51.74082397
 31
0.0
  0
LINE
  8
0
  6
CONTINUOUS
 62
       7
  5
6B
 10
100.05437092
 20
47.25917603
 30
0.0
 11
100.05437092
 21
-50.74082397
 31
0.0
  0
LINE
  8
0
  6
CONTINUOUS
 62
       2
  5
6C
 10
-34.94562908
 20
-11.74082397
 30
0.0
 11
-34.94562908
 21
-19.74082397
 31
0.0
  0
LINE
  8
0
  6
CONTINUOUS
 62
       2
  5
6D
 10
-30.94562908
 20
-15.74082397
 30
0.0
 11
-38.94562908
 21
-15.74082397
 31
0.0
  0
CIRCLE
  8
0
  6
CONTINUOUS
 62
       2
  5
6E
 10
-34.94562908
 20
-15.74082397
 30
0.0
 40
3.0
  0
CIRCLE
  8
0
  6
CONTINUOUS
 62
       7
  5
6F
 10
-34.94562908
 20
-15.74082397
 30
0.0
 40
2.5
  0
LINE
  8
0
  6
CONTINUOUS
 62
       2
  5
70
 10
-58.94562908
 20
-15.74082397
 30
0.0
 11
-66.94562908
 21
-15.74082397
 31
0.0
  0
CIRCLE
  8
0
  6
CONTINUOUS
 62
       2
  5
71
 10
-62.94562908
 20
-15.74082397
 30
0.0
 40
3.0
  0
CIRCLE
  8
0
  6
CONTINUOUS
 62
       7
  5
72
 10
-62.94562908
 20
-15.74082397
 30
0.0
 40
2.5
  0
LINE
  8
0
  6
CONTINUOUS
 62
       2
  5
73
 10
-90.94562908
 20
-11.74082397
 30
0.0
 11
-90.94562908
 21
-19.74082397
 31
0.0
  0
LINE
  8
0
  6
CONTINUOUS
 62
       2
  5
74
 10
-86.94562908
 20
-15.74082397
 30
0.0
 11
-94.94562908
 21
-15.74082397
 31
0.0
  0
CIRCLE
  8
0
  6
CONTINUOUS
 62
       2
  5
75
 10
-90.94562908
 20
-15.74082397
 30
0.0
 40
3.0
  0
CIRCLE
  8
0
  6
CONTINUOUS
 62
       7
  5
76
 10
-90.94562908
 20
-15.74082397
 30
0.0
 40
2.5
  0
LINE
  8
0
  6
CONTINUOUS
 62
       2
  5
77
 10
-89.94562908
 20
-41.74082397
 30
0.0
 11
-75.94562908
 21
-41.74082397
 31
0.0
  0
CIRCLE
  8
0
  6
CONTINUOUS
 62
       7
  5
78
 10
-82.94562908
 20
-41.74082397
 30
0.0
 40
5.0
  0
LINE
  8
0
  6
CONTINUOUS
 62
       2
  5
79
 10
-82.94562908
 20
45.25917603
 30
0.0
 11
-82.94562908
 21
31.25917603
 31
0.0
  0
LINE
  8
0
  6
CONTINUOUS
 62
       2
  5
7A
 10
-89.94562908
 20
38.25917603
 30
0.0
 11
-75.94562908
 21
38.25917603
 31
0.0
  0
CIRCLE
  8
0
  6
CONTINUOUS
 62
       7
  5
7B
 10
-82.94562908
 20
38.25917603
 30
0.0
 40
5.0
  0
LINE
  8
0
  6
CONTINUOUS
 62
       2
  5
7C
 10
-35.94562908
 20
-41.74082397
 30
0.0
 11
-49.94562908
 21
-41.74082397
 31
0.0
  0
CIRCLE
  8
0
  6
CONTINUOUS
 62
       7
  5
7D
 10
-42.94562908
 20
-41.74082397
 30
0.0
 40
5.0
  0
LINE
  8
0
  6
CONTINUOUS
 62
       2
  5
7E
 10
-42.94562908
 20
45.25917603
 30
0.0
 11
-42.94562908
 21
31.25917603
 31
0.0
  0
LINE
  8
0
  6
CONTINUOUS
 62
       2
  5
7F
 10
-35.94562908
 20
38.25917603
 30
0.0
 11
-49.94562908
 21
38.25917603
 31
0.0
  0
CIRCLE
  8
0
  6
CONTINUOUS
 62
       7
  5
80
 10
-42.94562908
 20
38.25917603
 30
0.0
 40
5.0
  0
LINE
  8
0
  6
CONTINUOUS
 62
       2
  5
81
 10
-103.17562908
 20
-1.74082397
 30
0.0
 11
-22.17562908
 21
-1.74082397
 31
0.0
  0
LINE
  8
0
  6
CONTINUOUS
 62
       7
  5
82
 10
-27.94562908
 20
38.25917603
 30
0.0
 11
-27.94562908
 21
-41.74082397
 31
0.0
  0
LINE
  8
0
  6
CONTINUOUS
 62
       7
  5
83
 10
-97.94562908
 20
38.25917603
 30
0.0
 11
-97.94562908
 21
-41.74082397
 31
0.0
  0
LINE
  8
0
  6
CONTINUOUS
 62
       7
  5
84
 10
-94.94562908
 20
-26.74082397
 30
0.0
 11
-30.94562908
 21
-26.74082397
 31
0.0
  0
LINE
  8
0
  6
CONTINUOUS
 62
       7
  5
85
 10
-94.94562908
 20
23.25917603
 30
0.0
 11
-30.94562908
 21
23.25917603
 31
0.0
  0
LINE
  8
0
  6
CONTINUOUS
 62
       7
  5
86
 10
-87.94562908
 20
-51.74082397
 30
0.0
 11
-37.94562908
 21
-51.74082397
 31
0.0
  0
LINE
  8
0
  6
CONTINUOUS
 62
       7
  5
87
 10
-87.94562908
 20
48.25917603
 30
0.0
 11
-37.94562908
 21
48.25917603
 31
0.0
  0
LINE
  8
0
  6
CONTINUOUS
 62
       7
  5
88
 10
-97.94562908
 20
-0.64082397
 30
0.0
 11
-27.94562908
 21
-0.64082397
 31
0.0
  0
LINE
  8
0
  6
CONTINUOUS
 62
       7
  5
89
 10
-97.94562908
 20
-2.84082397
 30
0.0
 11
-27.94562908
 21
-2.84082397
 31
0.0
  0
LINE
  8
0
  6
CONTINUOUS
 62
       7
  5
8A
 10
-94.94562908
 20
33.25917603
 30
0.0
 11
-91.60562908
 21
33.25917603
 31
0.0
  0
LINE
  8
0
  6
CONTINUOUS
 62
       7
  5
8B
 10
-94.94562908
 20
-36.74082397
 30
0.0
 11
-91.60562908
 21
-36.74082397
 31
0.0
  0
LINE
  8
0
  6
CONTINUOUS
 62
       7
  5
8C
 10
-74.28562908
 20
-36.74082397
 30
0.0
 11
-51.60562908
 21
-36.74082397
 31
0.0
  0
LINE
  8
0
  6
CONTINUOUS
 62
       7
  5
8D
 10
-34.28562908
 20
-36.74082397
 30
0.0
 11
-30.94562908
 21
-36.74082397
 31
0.0
  0
LINE
  8
0
  6
CONTINUOUS
 62
       7
  5
8E
 10
-34.28562908
 20
33.25917603
 30
0.0
 11
-30.94562908
 21
33.25917603
 31
0.0
  0
LINE
  8
0
  6
CONTINUOUS
 62
       7
  5
8F
 10
-74.28562908
 20
33.25917603
 30
0.0
 11
-51.60562908
 21
33.25917603
 31
0.0
  0
ARC
  8
0
  6
CONTINUOUS
 62
       7
  5
90
 10
-37.94562908
 20
38.25917603
 30
0.0
 40
10.0
 50
0.0
 51
90.0
  0
ARC
  8
0
  6
CONTINUOUS
 62
       7
  5
91
 10
-87.94562908
 20
38.25917603
 30
0.0
 40
10.0
 50
90.0
 51
180.0
  0
ARC
  8
0
  6
CONTINUOUS
 62
       7
  5
92
 10
-87.94562908
 20
-41.74082397
 30
0.0
 40
10.0
 50
180.0
 51
270.0
  0
ARC
  8
0
  6
CONTINUOUS
 62
       7
  5
93
 10
-37.94562908
 20
-41.74082397
 30
0.0
 40
10.0
 50
270.0
 51
0.0
  0
ARC
  8
0
  6
CONTINUOUS
 62
       7
  5
94
 10
-30.94562908
 20
20.25917603
 30
0.0
 40
3.0
 50
0.0
 51
90.0
  0
ARC
  8
0
  6
CONTINUOUS
 62
       7
  5
95
 10
-94.94562908
 20
20.25917603
 30
0.0
 40
3.0
 50
90.0
 51
180.0
  0
ARC
  8
0
  6
CONTINUOUS
 62
       7
  5
96
 10
-94.94562908
 20
-23.74082397
 30
0.0
 40
3.0
 50
180.0
 51
270.0
  0
ARC
  8
0
  6
CONTINUOUS
 62
       7
  5
97
 10
-30.94562908
 20
-23.74082397
 30
0.0
 40
3.0
 50
270.0
 51
0.0
  0
ARC
  8
0
  6
CONTINUOUS
 62
       7
  5
98
 10
-82.94562908
 20
38.25917603
 30
0.0
 40
9.99978
 50
210.00072778
 51
251.80896319
  0
ARC
  8
0
  6
CONTINUOUS
 62
       7
  5
99
 10
-42.94562908
 20
38.25917603
 30
0.0
 40
9.99978
 50
210.00072778
 51
251.80896319
  0
ARC
  8
0
  6
CONTINUOUS
 62
       7
  5
9A
 10
-42.94562908
 20
-41.74082397
 30
0.0
 40
9.99978
 50
30.00072778
 51
54.73471879
  0
ARC
  8
0
  6
CONTINUOUS
 62
       7
  5
9B
 10
-82.94562908
 20
-41.74082397
 30
0.0
 40
9.99978
 50
30.00072778
 51
54.73471879
  0
ARC
  8
0
  6
CONTINUOUS
 62
       7
  5
9C
 10
-30.94562908
 20
-33.74082397
 30
0.0
 40
3.0
 50
270.0
 51
0.0
  0
ARC
  8
0
  6
CONTINUOUS
 62
       7
  5
9D
 10
-94.94562908
 20
-33.74082397
 30
0.0
 40
3.0
 50
180.0
 51
270.0
  0
ARC
  8
0
  6
CONTINUOUS
 62
       7
  5
9E
 10
-94.94562908
 20
30.25917603
 30
0.0
 40
3.0
 50
90.0
 51
180.0
  0
ARC
  8
0
  6
CONTINUOUS
 62
       7
  5
9F
 10
-30.94562908
 20
30.25917603
 30
0.0
 40
3.0
 50
0.0
 51
90.0
  0
LINE
  8
0
  6
CONTINUOUS
 62
       7
  5
A0
 10
-49.04562908
 20
24.75917603
 30
0.0
 11
-36.84562908
 21
24.75917603
 31
0.0
  0
LINE
  8
0
  6
CONTINUOUS
 62
       7
  5
A1
 10
-49.04562908
 20
24.75917603
 30
0.0
 11
-49.04562908
 21
23.25917603
 31
0.0
  0
LINE
  8
0
  6
CONTINUOUS
 62
       7
  5
A2
 10
-36.84562908
 20
24.75917603
 30
0.0
 11
-36.84562908
 21
23.25917603
 31
0.0
  0
LINE
  8
0
  6
CONTINUOUS
 62
       7
  5
A3
 10
-42.94562908
 20
24.75917603
 30
0.0
 11
-42.94562908
 21
23.25917603
 31
0.0
  0
LINE
  8
0
  6
CONTINUOUS
 62
       7
  5
A4
 10
-37.94562908
 20
28.75917603
 30
0.0
 11
-47.94562908
 21
28.75917603
 31
0.0
  0
LINE
  8
0
  6
CONTINUOUS
 62
       7
  5
A5
 10
-37.1721264
 20
28.31259404
 30
0.0
 11
-37.1721264
 21
24.75917605
 31
0.0
  0
LINE
  8
0
  6
CONTINUOUS
 62
       7
  5
A6
 10
-48.71913179
 20
28.31259404
 30
0.0
 11
-48.71913179
 21
24.75917605
 31
0.0
  0
LINE
  8
0
  6
CONTINUOUS
 62
       7
  5
A7
 10
-37.94562908
 20
28.75917603
 30
0.0
 11
-37.1721264
 21
28.31259405
 31
0.0
  0
LINE
  8
0
  6
CONTINUOUS
 62
       7
  5
A8
 10
-40.05887771
 20
28.31259405
 30
0.0
 11
-40.05887771
 21
24.75917603
 31
0.0
  0
LINE
  8
0
  6
CONTINUOUS
 62
       7
  5
A9
 10
-45.8323804
 20
28.31259405
 30
0.0
 11
-45.8323804
 21
24.75917603
 31
0.0
  0
POLYLINE
  8
0
  6
CONTINUOUS
 62
       7
  5
AA
 66
       1
 10
0.0
 20
0.0
 30
0.0
  0
VERTEX
  8
0
  6
CONTINUOUS
 62
       7
  5
126
 10
-37.1721264
 20
28.31259405
 30
0.0
  0
VERTEX
  8
0
  6
CONTINUOUS
 62
       7
  5
127
 10
-37.86407991
 20
28.6352641
 30
0.0
  0
VERTEX
  8
0
  6
CONTINUOUS
 62
       7
  5
128
 10
-38.61550204
 20
28.75917603
 30
0.0
  0
VERTEX
  8
0
  6
CONTINUOUS
 62
       7
  5
129
 10
-39.36692419
 20
28.6352641
 30
0.0
  0
VERTEX
  8
0
  6
CONTINUOUS
 62
       7
  5
12A
 10
-40.05887771
 20
28.31259405
 30
0.0
  0
SEQEND
  8
0
  6
CONTINUOUS
 62
       7
  5
12B
  0
POLYLINE
  8
0
  6
CONTINUOUS
 62
       7
  5
AB
 66
       1
 10
0.0
 20
0.0
 30
0.0
  0
VERTEX
  8
0
  6
CONTINUOUS
 62
       7
  5
12C
 10
-40.05887771
 20
28.31259405
 30
0.0
  0
VERTEX
  8
0
  6
CONTINUOUS
 62
       7
  5
12D
 10
-41.00331738
 20
28.55628661
 30
0.0
  0
VERTEX
  8
0
  6
CONTINUOUS
 62
       7
  5
12E
 10
-41.96913
 20
28.70735154
 30
0.0
  0
VERTEX
  8
0
  6
CONTINUOUS
 62
       7
  5
12F
 10
-42.94562908
 20
28.75917603
 30
0.0
  0
VERTEX
  8
0
  6
CONTINUOUS
 62
       7
  5
130
 10
-43.92212814
 20
28.70735154
 30
0.0
  0
VERTEX
  8
0
  6
CONTINUOUS
 62
       7
  5
131
 10
-44.88794074
 20
28.55628661
 30
0.0
  0
VERTEX
  8
0
  6
CONTINUOUS
 62
       7
  5
132
 10
-45.8323804
 20
28.31259405
 30
0.0
  0
SEQEND
  8
0
  6
CONTINUOUS
 62
       7
  5
133
  0
POLYLINE
  8
0
  6
CONTINUOUS
 62
       7
  5
AC
 66
       1
 10
0.0
 20
0.0
 30
0.0
  0
VERTEX
  8
0
  6
CONTINUOUS
 62
       7
  5
134
 10
-45.8323804
 20
28.31259405
 30
0.0
  0
VERTEX
  8
0
  6
CONTINUOUS
 62
       7
  5
135
 10
-46.52433394
 20
28.6352641
 30
0.0
  0
VERTEX
  8
0
  6
CONTINUOUS
 62
       7
  5
136
 10
-47.27575611
 20
28.75917603
 30
0.0
  0
VERTEX
  8
0
  6
CONTINUOUS
 62
       7
  5
137
 10
-48.02717826
 20
28.63526409
 30
0.0
  0
VERTEX
  8
0
  6
CONTINUOUS
 62
       7
  5
138
 10
-48.71913179
 20
28.31259404
 30
0.0
  0
SEQEND
  8
0
  6
CONTINUOUS
 62
       7
  5
139
  0
LINE
  8
0
  6
CONTINUOUS
 62
       7
  5
AD
 10
-47.94562908
 20
28.75917603
 30
0.0
 11
-48.71913176
 21
28.31259405
 31
0.0
  0
LINE
  8
0
  6
CONTINUOUS
 62
       7
  5
AE
 10
-40.64562908
 20
-35.24082397
 30
0.0
 11
-45.24562908
 21
-35.24082397
 31
0.0
  0
LINE
  8
0
  6
CONTINUOUS
 62
       7
  5
AF
 10
-40.64562908
 20
-35.24082397
 30
0.0
 11
-40.14562908
 21
-34.74082397
 31
0.0
  0
ARC
  8
0
  6
CONTINUOUS
 62
       7
  5
B0
 10
-42.94562908
 20
38.25917603
 30
0.0
 40
9.99978
 50
288.19103681
 51
329.99927222
  0
LINE
  8
0
  6
CONTINUOUS
 62
       2
  5
B1
 10
-40.48712908
 20
-0.64082397
 30
0.0
 11
-40.48712908
 21
-2.84082397
 31
0.0
  0
LINE
  8
0
  6
CONTINUOUS
 62
       2
  5
B2
 10
-45.40412908
 20
-0.64082397
 30
0.0
 11
-45.40412908
 21
-2.84082397
 31
0.0
  0
LINE
  8
0
  6
CONTINUOUS
 62
       7
  5
B3
 10
-45.94562908
 20
-0.64082397
 30
0.0
 11
-45.94562908
 21
-2.84082397
 31
0.0
  0
LINE
  8
0
  6
CONTINUOUS
 62
       7
  5
B4
 10
-45.94562908
 20
-30.04082397
 30
0.0
 11
-45.94562908
 21
-34.74082397
 31
0.0
  0
LINE
  8
0
  6
CONTINUOUS
 62
       7
  5
B5
 10
-39.94562908
 20
-30.04082397
 30
0.0
 11
-39.94562908
 21
-34.74082397
 31
0.0
  0
LINE
  8
0
  6
CONTINUOUS
 62
       7
  5
B6
 10
-37.94562908
 20
-34.74082397
 30
0.0
 11
-37.17212636
 21
-34.29424197
 31
0.0
  0
ARC
  8
0
  6
CONTINUOUS
 62
       7
  5
B7
 10
-42.94562908
 20
-25.18740621
 30
0.0
 40
9.55341776
 50
252.41204566
 51
287.58795434
  0
ARC
  8
0
  6
CONTINUOUS
 62
       7
  5
B8
 10
-38.61550208
 20
-32.18260397
 30
0.0
 40
2.55798459
 50
235.64607911
 51
295.59254238
  0
ARC
  8
0
  6
CONTINUOUS
 62
       7
  5
B9
 10
-47.27575608
 20
-32.18500128
 30
0.0
 40
2.55582269
 50
244.38424266
 51
304.38424782
  0
LINE
  8
0
  6
CONTINUOUS
 62
       7
  5
BA
 10
-48.71913179
 20
-34.29424197
 30
0.0
 11
-47.94562908
 21
-34.74082397
 31
0.0
  0
LINE
  8
0
  6
CONTINUOUS
 62
       7
  5
BB
 10
-49.04562908
 20
-26.74082397
 30
0.0
 11
-49.04562908
 21
-28.24082397
 31
0.0
  0
LINE
  8
0
  6
CONTINUOUS
 62
       7
  5
BC
 10
-36.84562908
 20
-26.74082397
 30
0.0
 11
-36.84562908
 21
-28.24082397
 31
0.0
  0
LINE
  8
0
  6
CONTINUOUS
 62
       7
  5
BD
 10
-49.04562908
 20
-29.74082397
 30
0.0
 11
-36.84562908
 21
-29.74082397
 31
0.0
  0
LINE
  8
0
  6
CONTINUOUS
 62
       7
  5
BE
 10
-49.04562908
 20
-28.24082397
 30
0.0
 11
-36.84562908
 21
-28.24082397
 31
0.0
  0
LINE
  8
0
  6
CONTINUOUS
 62
       7
  5
BF
 10
-49.04562908
 20
-28.24082397
 30
0.0
 11
-49.04562908
 21
-29.74082397
 31
0.0
  0
LINE
  8
0
  6
CONTINUOUS
 62
       7
  5
C0
 10
-36.84562908
 20
-28.24082397
 30
0.0
 11
-36.84562908
 21
-29.74082397
 31
0.0
  0
LINE
  8
0
  6
CONTINUOUS
 62
       7
  5
C1
 10
-37.17212636
 20
-34.29424197
 30
0.0
 11
-37.17212636
 21
-30.18740597
 31
0.0
  0
LINE
  8
0
  6
CONTINUOUS
 62
       7
  5
C2
 10
-47.94562908
 20
-29.74082397
 30
0.0
 11
-48.71913179
 21
-30.18740597
 31
0.0
  0
LINE
  8
0
  6
CONTINUOUS
 62
       7
  5
C3
 10
-48.71913179
 20
-30.18740597
 30
0.0
 11
-48.71913179
 21
-34.29424197
 31
0.0
  0
ARC
  8
0
  6
CONTINUOUS
 62
       7
  5
C4
 10
-47.27575608
 20
-32.29664666
 30
0.0
 40
2.55582269
 50
55.61575218
 51
115.61575734
  0
ARC
  8
0
  6
CONTINUOUS
 62
       7
  5
C5
 10
-38.61550208
 20
-32.29904397
 30
0.0
 40
2.55798459
 50
64.40745762
 51
124.35392089
  0
ARC
  8
0
  6
CONTINUOUS
 62
       7
  5
C6
 10
-42.94562908
 20
-39.29424173
 30
0.0
 40
9.55341776
 50
72.41204566
 51
107.58795434
  0
LINE
  8
0
  6
CONTINUOUS
 62
       7
  5
C7
 10
-37.17212636
 20
-30.18740597
 30
0.0
 11
-37.94562908
 21
-29.74082397
 31
0.0
  0
ARC
  8
0
  6
CONTINUOUS
 62
       7
  5
C8
 10
-46.24562908
 20
-30.04082397
 30
0.0
 40
0.3
 50
0.0
 51
90.0
  0
ARC
  8
0
  6
CONTINUOUS
 62
       7
  5
C9
 10
-39.64562908
 20
-30.04082397
 30
0.0
 40
0.3
 50
90.0
 51
180.0
  0
LINE
  8
0
  6
CONTINUOUS
 62
       7
  5
CA
 10
-47.94562908
 20
-34.74082397
 30
0.0
 11
-37.94562908
 21
-34.74082397
 31
0.0
  0
LINE
  8
0
  6
CONTINUOUS
 62
       7
  5
CB
 10
-40.14562908
 20
-34.74082397
 30
0.0
 11
-39.94562908
 21
-34.54082397
 31
0.0
  0
LINE
  8
0
  6
CONTINUOUS
 62
       2
  5
CC
 10
-40.48712908
 20
-34.74082397
 30
0.0
 11
-40.48712908
 21
-35.08232397
 31
0.0
  0
LINE
  8
0
  6
CONTINUOUS
 62
       2
  5
CD
 10
-45.40412908
 20
-34.74082397
 30
0.0
 11
-45.40412908
 21
-35.08232397
 31
0.0
  0
LINE
  8
0
  6
CONTINUOUS
 62
       7
  5
CE
 10
-45.74562908
 20
-34.74082397
 30
0.0
 11
-45.24562908
 21
-35.24082397
 31
0.0
  0
ARC
  8
0
  6
CONTINUOUS
 62
       7
  5
CF
 10
-42.94562908
 20
-41.74082397
 30
0.0
 40
9.99978
 50
125.26528121
 51
149.99927222
  0
LINE
  8
0
  6
CONTINUOUS
 62
       7
  5
D0
 10
-39.94562908
 20
-0.64082397
 30
0.0
 11
-39.94562908
 21
-2.84082397
 31
0.0
  0
ARC
  8
0
  6
CONTINUOUS
 62
       7
  5
D1
 10
-82.94562908
 20
38.25917603
 30
0.0
 40
9.99978
 50
288.19103681
 51
329.99927222
  0
LINE
  8
0
  6
CONTINUOUS
 62
       7
  5
D2
 10
-76.84562908
 20
24.75917603
 30
0.0
 11
-76.84562908
 21
23.25917603
 31
0.0
  0
LINE
  8
0
  6
CONTINUOUS
 62
       7
  5
D3
 10
-89.04562908
 20
24.75917603
 30
0.0
 11
-89.04562908
 21
23.25917603
 31
0.0
  0
LINE
  8
0
  6
CONTINUOUS
 62
       7
  5
D4
 10
-82.94562908
 20
24.75917603
 30
0.0
 11
-82.94562908
 21
23.25917603
 31
0.0
  0
LINE
  8
0
  6
CONTINUOUS
 62
       7
  5
D5
 10
-77.94562908
 20
28.75917603
 30
0.0
 11
-77.1721264
 21
28.31259405
 31
0.0
  0
POLYLINE
  8
0
  6
CONTINUOUS
 62
       7
  5
D6
 66
       1
 10
0.0
 20
0.0
 30
0.0
  0
VERTEX
  8
0
  6
CONTINUOUS
 62
       7
  5
13A
 10
-80.05887775
 20
28.31259405
 30
0.0
  0
VERTEX
  8
0
  6
CONTINUOUS
 62
       7
  5
13B
 10
-79.36692422
 20
28.6352641
 30
0.0
  0
VERTEX
  8
0
  6
CONTINUOUS
 62
       7
  5
13C
 10
-78.61550205
 20
28.75917603
 30
0.0
  0
VERTEX
  8
0
  6
CONTINUOUS
 62
       7
  5
13D
 10
-77.86407989
 20
28.63526409
 30
0.0
  0
VERTEX
  8
0
  6
CONTINUOUS
 62
       7
  5
13E
 10
-77.17212637
 20
28.31259404
 30
0.0
  0
SEQEND
  8
0
  6
CONTINUOUS
 62
       7
  5
13F
  0
POLYLINE
  8
0
  6
CONTINUOUS
 62
       7
  5
D7
 66
       1
 10
0.0
 20
0.0
 30
0.0
  0
VERTEX
  8
0
  6
CONTINUOUS
 62
       7
  5
140
 10
-85.83238044
 20
28.31259405
 30
0.0
  0
VERTEX
  8
0
  6
CONTINUOUS
 62
       7
  5
141
 10
-84.88794077
 20
28.55628661
 30
0.0
  0
VERTEX
  8
0
  6
CONTINUOUS
 62
       7
  5
142
 10
-83.92212816
 20
28.70735154
 30
0.0
  0
VERTEX
  8
0
  6
CONTINUOUS
 62
       7
  5
143
 10
-82.94562908
 20
28.75917603
 30
0.0
  0
VERTEX
  8
0
  6
CONTINUOUS
 62
       7
  5
144
 10
-81.96913001
 20
28.70735154
 30
0.0
  0
VERTEX
  8
0
  6
CONTINUOUS
 62
       7
  5
145
 10
-81.00331741
 20
28.55628661
 30
0.0
  0
VERTEX
  8
0
  6
CONTINUOUS
 62
       7
  5
146
 10
-80.05887775
 20
28.31259405
 30
0.0
  0
SEQEND
  8
0
  6
CONTINUOUS
 62
       7
  5
147
  0
POLYLINE
  8
0
  6
CONTINUOUS
 62
       7
  5
D8
 66
       1
 10
0.0
 20
0.0
 30
0.0
  0
VERTEX
  8
0
  6
CONTINUOUS
 62
       7
  5
148
 10
-88.71913176
 20
28.31259405
 30
0.0
  0
VERTEX
  8
0
  6
CONTINUOUS
 62
       7
  5
149
 10
-88.02717825
 20
28.6352641
 30
0.0
  0
VERTEX
  8
0
  6
CONTINUOUS
 62
       7
  5
14A
 10
-87.27575611
 20
28.75917603
 30
0.0
  0
VERTEX
  8
0
  6
CONTINUOUS
 62
       7
  5
14B
 10
-86.52433396
 20
28.6352641
 30
0.0
  0
VERTEX
  8
0
  6
CONTINUOUS
 62
       7
  5
14C
 10
-85.83238044
 20
28.31259405
 30
0.0
  0
SEQEND
  8
0
  6
CONTINUOUS
 62
       7
  5
14D
  0
LINE
  8
0
  6
CONTINUOUS
 62
       7
  5
D9
 10
-80.05887775
 20
28.31259405
 30
0.0
 11
-80.05887775
 21
24.75917603
 31
0.0
  0
LINE
  8
0
  6
CONTINUOUS
 62
       7
  5
DA
 10
-85.83238044
 20
28.31259405
 30
0.0
 11
-85.83238044
 21
24.75917603
 31
0.0
  0
LINE
  8
0
  6
CONTINUOUS
 62
       7
  5
DB
 10
-87.94562908
 20
28.75917603
 30
0.0
 11
-88.71913176
 21
28.31259405
 31
0.0
  0
LINE
  8
0
  6
CONTINUOUS
 62
       7
  5
DC
 10
-77.17212637
 20
28.31259404
 30
0.0
 11
-77.17212637
 21
24.75917605
 31
0.0
  0
LINE
  8
0
  6
CONTINUOUS
 62
       7
  5
DD
 10
-88.71913176
 20
28.31259404
 30
0.0
 11
-88.71913176
 21
24.75917605
 31
0.0
  0
LINE
  8
0
  6
CONTINUOUS
 62
       7
  5
DE
 10
-87.94562908
 20
28.75917603
 30
0.0
 11
-77.94562908
 21
28.75917603
 31
0.0
  0
LINE
  8
0
  6
CONTINUOUS
 62
       7
  5
DF
 10
-76.84562908
 20
24.75917603
 30
0.0
 11
-89.04562908
 21
24.75917603
 31
0.0
  0
LINE
  8
0
  6
CONTINUOUS
 62
       2
  5
E0
 10
-80.48712908
 20
-0.64082397
 30
0.0
 11
-80.48712908
 21
-2.84082397
 31
0.0
  0
LINE
  8
0
  6
CONTINUOUS
 62
       7
  5
E1
 10
-79.94562908
 20
-0.64082397
 30
0.0
 11
-79.94562908
 21
-2.84082397
 31
0.0
  0
LINE
  8
0
  6
CONTINUOUS
 62
       2
  5
E2
 10
-85.40412908
 20
-0.64082397
 30
0.0
 11
-85.40412908
 21
-2.84082397
 31
0.0
  0
LINE
  8
0
  6
CONTINUOUS
 62
       7
  5
E3
 10
-85.94562908
 20
-0.64082397
 30
0.0
 11
-85.94562908
 21
-2.84082397
 31
0.0
  0
LINE
  8
0
  6
CONTINUOUS
 62
       7
  5
E4
 10
-79.94562908
 20
-30.04082397
 30
0.0
 11
-79.94562908
 21
-34.74082397
 31
0.0
  0
LINE
  8
0
  6
CONTINUOUS
 62
       7
  5
E5
 10
-76.84562908
 20
-26.74082397
 30
0.0
 11
-76.84562908
 21
-28.24082397
 31
0.0
  0
LINE
  8
0
  6
CONTINUOUS
 62
       7
  5
E6
 10
-76.84562908
 20
-29.74082397
 30
0.0
 11
-89.04562908
 21
-29.74082397
 31
0.0
  0
LINE
  8
0
  6
CONTINUOUS
 62
       7
  5
E7
 10
-76.84562908
 20
-28.24082397
 30
0.0
 11
-89.04562908
 21
-28.24082397
 31
0.0
  0
LINE
  8
0
  6
CONTINUOUS
 62
       7
  5
E8
 10
-77.17212636
 20
-30.18740597
 30
0.0
 11
-77.17212636
 21
-34.29424197
 31
0.0
  0
ARC
  8
0
  6
CONTINUOUS
 62
       7
  5
E9
 10
-82.94562908
 20
-39.29424173
 30
0.0
 40
9.55341776
 50
72.41204566
 51
107.58795434
  0
ARC
  8
0
  6
CONTINUOUS
 62
       7
  5
EA
 10
-79.64562908
 20
-30.04082397
 30
0.0
 40
0.3
 50
90.0
 51
180.0
  0
ARC
  8
0
  6
CONTINUOUS
 62
       7
  5
EB
 10
-78.61550208
 20
-32.29664666
 30
0.0
 40
2.55582269
 50
64.38424266
 51
124.38424782
  0
LINE
  8
0
  6
CONTINUOUS
 62
       7
  5
EC
 10
-77.94562908
 20
-29.74082397
 30
0.0
 11
-77.17212636
 21
-30.18740597
 31
0.0
  0
LINE
  8
0
  6
CONTINUOUS
 62
       7
  5
ED
 10
-76.84562908
 20
-28.24082397
 30
0.0
 11
-76.84562908
 21
-29.74082397
 31
0.0
  0
LINE
  8
0
  6
CONTINUOUS
 62
       7
  5
EE
 10
-85.94562908
 20
-30.04082397
 30
0.0
 11
-85.94562908
 21
-34.74082397
 31
0.0
  0
LINE
  8
0
  6
CONTINUOUS
 62
       7
  5
EF
 10
-89.04562908
 20
-26.74082397
 30
0.0
 11
-89.04562908
 21
-28.24082397
 31
0.0
  0
LINE
  8
0
  6
CONTINUOUS
 62
       7
  5
F0
 10
-88.71913179
 20
-34.29424197
 30
0.0
 11
-88.71913179
 21
-30.18740597
 31
0.0
  0
ARC
  8
0
  6
CONTINUOUS
 62
       7
  5
F1
 10
-86.24562908
 20
-30.04082397
 30
0.0
 40
0.3
 50
0.0
 51
90.0
  0
LINE
  8
0
  6
CONTINUOUS
 62
       7
  5
F2
 10
-88.71913179
 20
-30.18740597
 30
0.0
 11
-87.94562908
 21
-29.74082397
 31
0.0
  0
ARC
  8
0
  6
CONTINUOUS
 62
       7
  5
F3
 10
-87.27575608
 20
-32.29904397
 30
0.0
 40
2.55798459
 50
55.64607911
 51
115.59254238
  0
LINE
  8
0
  6
CONTINUOUS
 62
       7
  5
F4
 10
-89.04562908
 20
-28.24082397
 30
0.0
 11
-89.04562908
 21
-29.74082397
 31
0.0
  0
LINE
  8
0
  6
CONTINUOUS
 62
       7
  5
F5
 10
-85.24562908
 20
-35.24082397
 30
0.0
 11
-80.64562908
 21
-35.24082397
 31
0.0
  0
ARC
  8
0
  6
CONTINUOUS
 62
       7
  5
F6
 10
-82.94562908
 20
-25.18740621
 30
0.0
 40
9.55341776
 50
252.41204566
 51
287.58795434
  0
ARC
  8
0
  6
CONTINUOUS
 62
       7
  5
F7
 10
-78.61550208
 20
-32.18500128
 30
0.0
 40
2.55582269
 50
235.61575218
 51
295.61575734
  0
LINE
  8
0
  6
CONTINUOUS
 62
       7
  5
F8
 10
-77.17212636
 20
-34.29424197
 30
0.0
 11
-77.94562908
 21
-34.74082397
 31
0.0
  0
LINE
  8
0
  6
CONTINUOUS
 62
       7
  5
F9
 10
-77.94562908
 20
-34.74082397
 30
0.0
 11
-87.94562908
 21
-34.74082397
 31
0.0
  0
LINE
  8
0
  6
CONTINUOUS
 62
       7
  5
FA
 10
-80.14562908
 20
-34.74082397
 30
0.0
 11
-80.64562908
 21
-35.24082397
 31
0.0
  0
LINE
  8
0
  6
CONTINUOUS
 62
       2
  5
FB
 10
-80.48712908
 20
-34.74082397
 30
0.0
 11
-80.48712908
 21
-35.08232397
 31
0.0
  0
LINE
  8
0
  6
CONTINUOUS
 62
       2
  5
FC
 10
-85.40412908
 20
-34.74082397
 30
0.0
 11
-85.40412908
 21
-35.08232397
 31
0.0
  0
LINE
  8
0
  6
CONTINUOUS
 62
       7
  5
FD
 10
-85.74562908
 20
-34.74082397
 30
0.0
 11
-85.94562908
 21
-34.54082397
 31
0.0
  0
ARC
  8
0
  6
CONTINUOUS
 62
       7
  5
FE
 10
-87.27575608
 20
-32.18260397
 30
0.0
 40
2.55798459
 50
244.40745762
 51
304.35392089
  0
LINE
  8
0
  6
CONTINUOUS
 62
       7
  5
FF
 10
-87.94562908
 20
-34.74082397
 30
0.0
 11
-88.71913179
 21
-34.29424197
 31
0.0
  0
LINE
  8
0
  6
CONTINUOUS
 62
       7
  5
100
 10
-85.24562908
 20
-35.24082397
 30
0.0
 11
-85.74562908
 21
-34.74082397
 31
0.0
  0
ARC
  8
0
  6
CONTINUOUS
 62
       7
  5
101
 10
-82.94562908
 20
-41.74082397
 30
0.0
 40
9.99978
 50
125.26528121
 51
149.99927222
  0
LINE
  8
0
  6
CONTINUOUS
 62
       7
  5
102
 10
-68.71913179
 20
32.21259404
 30
0.0
 11
-68.71913179
 21
28.65917605
 31
0.0
  0
LINE
  8
0
  6
CONTINUOUS
 62
       7
  5
103
 10
-67.94562908
 20
32.65917603
 30
0.0
 11
-68.71913176
 21
32.21259405
 31
0.0
  0
LINE
  8
0
  6
CONTINUOUS
 62
       7
  5
104
 10
-59.94562908
 20
28.35917603
 30
0.0
 11
-59.94562908
 21
23.25917603
 31
0.0
  0
LINE
  8
0
  6
CONTINUOUS
 62
       7
  5
105
 10
-65.94562908
 20
28.35917603
 30
0.0
 11
-65.94562908
 21
23.25917603
 31
0.0
  0
LINE
  8
0
  6
CONTINUOUS
 62
       7
  5
106
 10
-60.64562908
 20
-1.34082397
 30
0.0
 11
-65.24562908
 21
-1.34082397
 31
0.0
  0
LINE
  8
0
  6
CONTINUOUS
 62
       7
  5
107
 10
-57.1721264
 20
32.21259404
 30
0.0
 11
-57.1721264
 21
28.65917605
 31
0.0
  0
LINE
  8
0
  6
CONTINUOUS
 62
       7
  5
108
 10
-57.94562908
 20
32.65917603
 30
0.0
 11
-57.1721264
 21
32.21259405
 31
0.0
  0
LINE
  8
0
  6
CONTINUOUS
 62
       7
  5
109
 10
-60.05887771
 20
32.21259405
 30
0.0
 11
-60.05887771
 21
28.65917603
 31
0.0
  0
LINE
  8
0
  6
CONTINUOUS
 62
       7
  5
10A
 10
-65.8323804
 20
32.21259405
 30
0.0
 11
-65.8323804
 21
28.65917603
 31
0.0
  0
POLYLINE
  8
0
  6
CONTINUOUS
 62
       7
  5
10B
 66
       1
 10
0.0
 20
0.0
 30
0.0
  0
VERTEX
  8
0
  6
CONTINUOUS
 62
       7
  5
14E
 10
-57.1721264
 20
32.21259405
 30
0.0
  0
VERTEX
  8
0
  6
CONTINUOUS
 62
       7
  5
14F
 10
-57.86407991
 20
32.5352641
 30
0.0
  0
VERTEX
  8
0
  6
CONTINUOUS
 62
       7
  5
150
 10
-58.61550204
 20
32.65917603
 30
0.0
  0
VERTEX
  8
0
  6
CONTINUOUS
 62
       7
  5
151
 10
-59.36692419
 20
32.5352641
 30
0.0
  0
VERTEX
  8
0
  6
CONTINUOUS
 62
       7
  5
152
 10
-60.05887771
 20
32.21259405
 30
0.0
  0
SEQEND
  8
0
  6
CONTINUOUS
 62
       7
  5
153
  0
POLYLINE
  8
0
  6
CONTINUOUS
 62
       7
  5
10C
 66
       1
 10
0.0
 20
0.0
 30
0.0
  0
VERTEX
  8
0
  6
CONTINUOUS
 62
       7
  5
154
 10
-60.05887771
 20
32.21259405
 30
0.0
  0
VERTEX
  8
0
  6
CONTINUOUS
 62
       7
  5
155
 10
-61.00331738
 20
32.45628661
 30
0.0
  0
VERTEX
  8
0
  6
CONTINUOUS
 62
       7
  5
156
 10
-61.96913
 20
32.60735154
 30
0.0
  0
VERTEX
  8
0
  6
CONTINUOUS
 62
       7
  5
157
 10
-62.94562908
 20
32.65917603
 30
0.0
  0
VERTEX
  8
0
  6
CONTINUOUS
 62
       7
  5
158
 10
-63.92212814
 20
32.60735154
 30
0.0
  0
VERTEX
  8
0
  6
CONTINUOUS
 62
       7
  5
159
 10
-64.88794074
 20
32.45628661
 30
0.0
  0
VERTEX
  8
0
  6
CONTINUOUS
 62
       7
  5
15A
 10
-65.8323804
 20
32.21259405
 30
0.0
  0
SEQEND
  8
0
  6
CONTINUOUS
 62
       7
  5
15B
  0
LINE
  8
0
  6
CONTINUOUS
 62
       2
  5
10D
 10
-60.48712908
 20
27.15917603
 30
0.0
 11
-60.48712908
 21
23.25917603
 31
0.0
  0
LINE
  8
0
  6
CONTINUOUS
 62
       2
  5
10E
 10
-65.40412908
 20
27.15917603
 30
0.0
 11
-65.40412908
 21
23.25917603
 31
0.0
  0
LINE
  8
0
  6
CONTINUOUS
 62
       7
  5
10F
 10
-60.64562908
 20
-1.34082397
 30
0.0
 11
-59.94562908
 21
-0.64082397
 31
0.0
  0
LINE
  8
0
  6
CONTINUOUS
 62
       7
  5
110
 10
-65.94562908
 20
-0.64082397
 30
0.0
 11
-65.24562908
 21
-1.34082397
 31
0.0
  0
ARC
  8
0
  6
CONTINUOUS
 62
       7
  5
111
 10
-66.24562908
 20
28.35917603
 30
0.0
 40
0.3
 50
0.0
 51
90.0
  0
LINE
  8
0
  6
CONTINUOUS
 62
       7
  5
112
 10
-59.94562908
 20
27.15917603
 30
0.0
 11
-65.94562908
 21
27.15917603
 31
0.0
  0
ARC
  8
0
  6
CONTINUOUS
 62
       7
  5
113
 10
-59.64562908
 20
28.35917603
 30
0.0
 40
0.3
 50
90.0
 51
180.0
  0
LINE
  8
0
  6
CONTINUOUS
 62
       2
  5
114
 10
-60.48712908
 20
27.15917603
 30
0.0
 11
-59.94562908
 21
28.09708154
 31
0.0
  0
LINE
  8
0
  6
CONTINUOUS
 62
       2
  5
115
 10
-65.40412908
 20
27.15917603
 30
0.0
 11
-65.94562908
 21
28.09708154
 31
0.0
  0
POLYLINE
  8
0
  6
CONTINUOUS
 62
       7
  5
116
 66
       1
 10
0.0
 20
0.0
 30
0.0
  0
VERTEX
  8
0
  6
CONTINUOUS
 62
       7
  5
15C
 10
-65.8323804
 20
32.21259405
 30
0.0
  0
VERTEX
  8
0
  6
CONTINUOUS
 62
       7
  5
15D
 10
-66.52433394
 20
32.5352641
 30
0.0
  0
VERTEX
  8
0
  6
CONTINUOUS
 62
       7
  5
15E
 10
-67.27575611
 20
32.65917603
 30
0.0
  0
VERTEX
  8
0
  6
CONTINUOUS
 62
       7
  5
15F
 10
-68.02717826
 20
32.53526409
 30
0.0
  0
VERTEX
  8
0
  6
CONTINUOUS
 62
       7
  5
160
 10
-68.71913179
 20
32.21259404
 30
0.0
  0
SEQEND
  8
0
  6
CONTINUOUS
 62
       7
  5
161
  0
LINE
  8
0
  6
CONTINUOUS
 62
       7
  5
117
 10
-57.1721264
 20
28.65917603
 30
0.0
 11
-68.71913179
 21
28.65917603
 31
0.0
  0
LINE
  8
0
  6
CONTINUOUS
 62
       7
  5
118
 10
-57.94562908
 20
32.65917603
 30
0.0
 11
-67.94562908
 21
32.65917603
 31
0.0
  0
LINE
  8
0
  6
CONTINUOUS
 62
       2
  5
119
 10
-65.40412908
 20
-0.64082397
 30
0.0
 11
-65.40412908
 21
-1.18232397
 31
0.0
  0
LINE
  8
0
  6
CONTINUOUS
 62
       2
  5
11A
 10
-60.48712908
 20
-0.64082397
 30
0.0
 11
-60.48712908
 21
-1.18232397
 31
0.0
  0
LINE
  8
0
  6
CONTINUOUS
 62
       7
  5
11B
 10
-42.3048044
 20
-29.74082397
 30
0.0
 11
-44.09243479
 21
-28.24082397
 31
0.0
  0
LINE
  8
0
  6
CONTINUOUS
 62
       7
  5
11C
 10
-41.79882337
 20
-29.74082397
 30
0.0
 11
-43.58645375
 21
-28.24082397
 31
0.0
  0
LINE
  8
0
  6
CONTINUOUS
 62
       7
  5
11D
 10
-82.30479005
 20
-29.74082397
 30
0.0
 11
-84.09242044
 21
-28.24082397
 31
0.0
  0
LINE
  8
0
  6
CONTINUOUS
 62
       7
  5
11E
 10
-81.79880902
 20
-29.74082397
 30
0.0
 11
-83.58643941
 21
-28.24082397
 31
0.0
  0
LINE
  8
0
  6
CONTINUOUS
 62
       2
  5
11F
 10
-62.94562908
 20
-56.74082397
 30
0.0
 11
-62.94562908
 21
53.25917603
 31
0.0
  0
LINE
  8
0
  6
CONTINUOUS
 62
       7
  5
120
 10
-138.3999939
 20
94.5
 30
0.0
 11
138.3500061
 21
94.5
 31
0.0
  0
LINE
  8
0
  6
CONTINUOUS
 62
       7
  5
121
 10
138.3500061
 20
94.5
 30
0.0
 11
138.3500061
 21
-94.80000305
 31
0.0
  0
LINE
  8
0
  6
CONTINUOUS
 62
       7
  5
122
 10
-138.3999939
 20
-94.80000305
 30
0.0
 11
138.3500061
 21
-94.80000305
 31
0.0
  0
LINE
  8
0
  6
CONTINUOUS
 62
       7
  5
123
 10
-138.3999939
 20
94.5
 30
0.0
 11
-138.3999939
 21
-94.80000305
 31
0.0
  0
TEXT
  8
0
  6
CONTINUOUS
 62
       7
  5
124
 10
-129.39999391
 20
82.89999998
 30
0.0
 40
3.20000005
  1
MODEL:DH1
 41
1.125
  7
MX_NOTE_STANDARD
 11
-129.39999391
 21
84.5
 31
0.0
 73
       2
  0
ENDSEC
  0
EOF
