  0
SECTION
  2
HEADER
  9
$ACADVER
  1
AC1012
  9
$DWGCODEPAGE
  3
dos932
  9
$INSBASE
 10
0.0
 20
0.0
 30
0.0
  9
$EXTMIN
 10
-399.52490234375
 20
-276.5
 30
0.0
  9
$EXTMAX
 10
405.77491474151611
 20
277.00000047683716
 30
0.0
  9
$LIMMIN
 10
-399.52490234375
 20
-276.5
  9
$LIMMAX
 10
405.77491474151611
 20
277.00000047683716
  9
$ORTHOMODE
 70
               0
  9
$REGENMODE
 70
               1
  9
$FILLMODE
 70
               1
  9
$QTEXTMODE
 70
               0
  9
$MIRRTEXT
 70
               1
  9
$DRAGMODE
 70
               2
  9
$LTSCALE
 40
1.0
  9
$OSMODE
 70
               0
  9
$ATTMODE
 70
               1
  9
$TEXTSIZE
 40
3.2000000476837158
  9
$TRACEWID
 40
0.05
  9
$TEXTSTYLE
  7
MX_NOTE_STANDARD
  9
$CLAYER
  8
0
  9
$CELTYPE
  6
CONTINUOUS
  9
$CECOLOR
 62
             256
  9
$CELTSCALE
 40
1.0
  9
$DELOBJ
 70
               1
  9
$DISPSILH
 70
               0
  9
$DIMSCALE
 40
1.0
  9
$DIMASZ
 40
2.5
  9
$DIMEXO
 40
1.5
  9
$DIMDLI
 40
3.75
  9
$DIMRND
 40
0.0
  9
$DIMDLE
 40
0.0
  9
$DIMEXE
 40
1.5
  9
$DIMTP
 40
0.0
  9
$DIMTM
 40
0.0
  9
$DIMTXT
 40
3.2000000476837158
  9
$DIMCEN
 40
2.5
  9
$DIMTSZ
 40
0.0
  9
$DIMTOL
 70
               0
  9
$DIMLIM
 70
               0
  9
$DIMTIH
 70
               0
  9
$DIMTOH
 70
               0
  9
$DIMSE1
 70
               0
  9
$DIMSE2
 70
               0
  9
$DIMTAD
 70
               1
  9
$DIMZIN
 70
               8
  9
$DIMBLK
  1

  9
$DIMASO
 70
               1
  9
$DIMSHO
 70
               1
  9
$DIMPOST
  1

  9
$DIMAPOST
  1

  9
$DIMALT
 70
               0
  9
$DIMALTD
 70
               4
  9
$DIMALTF
 40
0.03937007874016
  9
$DIMLFAC
 40
1.0
  9
$DIMTOFL
 70
               1
  9
$DIMTVP
 40
0.0
  9
$DIMTIX
 70
               0
  9
$DIMSOXD
 70
               0
  9
$DIMSAH
 70
               0
  9
$DIMBLK1
  1

  9
$DIMBLK2
  1

  9
$DIMSTYLE
  2
MXDIMSTYLE
  9
$DIMCLRD
 70
               0
  9
$DIMCLRE
 70
               0
  9
$DIMCLRT
 70
               0
  9
$DIMTFAC
 40
1.0
  9
$DIMGAP
 40
1.0
  9
$DIMJUST
 70
               0
  9
$DIMSD1
 70
               0
  9
$DIMSD2
 70
               0
  9
$DIMTOLJ
 70
               1
  9
$DIMTZIN
 70
               0
  9
$DIMALTZ
 70
               0
  9
$DIMALTTZ
 70
               0
  9
$DIMFIT
 70
               3
  9
$DIMUPT
 70
               1
  9
$DIMUNIT
 70
               2
  9
$DIMDEC
 70
               4
  9
$DIMTDEC
 70
               4
  9
$DIMALTU
 70
               2
  9
$DIMALTTD
 70
               4
  9
$DIMTXSTY
  7
MX_NOTE_STANDARD
  9
$DIMAUNIT
 70
               0
  9
$LUNITS
 70
               2
  9
$LUPREC
 70
               4
  9
$SKETCHINC
 40
0.1
  9
$FILLETRAD
 40
0.0
  9
$AUNITS
 70
               0
  9
$AUPREC
 70
               0
  9
$MENU
  1
acad
  9
$ELEVATION
 40
0.0
  9
$PELEVATION
 40
0.0
  9
$THICKNESS
 40
0.0
  9
$LIMCHECK
 70
               0
  9
$BLIPMODE
 70
               1
  9
$CHAMFERA
 40
0.0
  9
$CHAMFERB
 40
0.0
  9
$CHAMFERC
 40
0.0
  9
$CHAMFERD
 40
0.0
  9
$SKPOLY
 70
               0
  9
$TDCREATE
 40
2453668.382372685
  9
$TDUPDATE
 40
2453668.382372685
  9
$TDINDWG
 40
0.0000000000
  9
$TDUSRTIMER
 40
0.0000000000
  9
$USRTIMER
 70
               1
  9
$ANGBASE
 50
0.0
  9
$ANGDIR
 70
               0
  9
$PDMODE
 70
               0
  9
$PDSIZE
 40
0.0
  9
$PLINEWID
 40
0.0
  9
$COORDS
 70
               1
  9
$SPLFRAME
 70
               0
  9
$SPLINETYPE
 70
               6
  9
$SPLINESEGS
 70
               8
  9
$ATTDIA
 70
               0
  9
$ATTREQ
 70
               1
  9
$HANDLING
 70
               1
  9
$HANDSEED
  5
1B5
  9
$SURFTAB1
 70
               6
  9
$SURFTAB2
 70
               6
  9
$SURFTYPE
 70
               6
  9
$SURFU
 70
               6
  9
$SURFV
 70
               6
  9
$UCSNAME
  2

  9
$UCSORG
 10
0.0
 20
0.0
 30
0.0
  9
$UCSXDIR
 10
1.0
 20
0.0
 30
0.0
  9
$UCSYDIR
 10
0.0
 20
1.0
 30
0.0
  9
$PUCSNAME
  2

  9
$PUCSORG
 10
0.0
 20
0.0
 30
0.0
  9
$PUCSXDIR
 10
1.0
 20
0.0
 30
0.0
  9
$PUCSYDIR
 10
0.0
 20
1.0
 30
0.0
  9
$USERI1
 70
               0
  9
$USERI2
 70
               0
  9
$USERI3
 70
               0
  9
$USERI4
 70
               0
  9
$USERI5
 70
               0
  9
$USERR1
 40
0.0
  9
$USERR2
 40
0.0
  9
$USERR3
 40
0.0
  9
$USERR4
 40
0.0
  9
$USERR5
 40
0.0
  9
$WORLDVIEW
 70
               1
  9
$SHADEDGE
 70
               3
  9
$SHADEDIF
 70
              70
  9
$TILEMODE
 70
               1
  9
$MAXACTVP
 70
              16
  9
$PINSBASE
 10
0.0
 20
0.0
 30
0.0
  9
$PLIMCHECK
 70
               0
  9
$PEXTMIN
 10
1.0000000000000000E+20
 20
1.0000000000000000E+20
 30
1.0000000000000000E+20
  9
$PEXTMAX
 10
-1.0000000000000000E+20
 20
-1.0000000000000000E+20
 30
-1.0000000000000000E+20
  9
$PLIMMIN
 10
0.0
 20
0.0
  9
$PLIMMAX
 10
12.0
 20
9.0
  9
$UNITMODE
 70
               0
  9
$VISRETAIN
 70
               0
  9
$PLINEGEN
 70
               1
  9
$PSLTSCALE
 70
               0
  9
$TREEDEPTH
 70
            3020
  9
$PICKSTYLE
 70
               1
  9
$CMLSTYLE
  2
Standard
  9
$CMLJUST
 70
               0
  9
$CMLSCALE
 40
1.0
  9
$SAVEIMAGES
 70
               0
  0
ENDSEC
  0
SECTION
  2
CLASSES
  0
CLASS
  1
LWPOLYLINE
  2
AcDbPolyline
  3
"AutoCAD"
 90
        0
280
               0
281
               1
  0
CLASS
  1
IMAGE
  2
AcDbRasterImage
  3
ISM
 90
      127
280
               0
281
               1
  0
CLASS
  1
OLE2FRAME
  2
AcDbOle2Frame
  3
""
 90
        0
280
               0
281
               1
  0
CLASS
  1
HATCH
  2
AcDbHatch
  3
"ACAD_SEDONA"
 90
        0
280
               0
281
               1
  0
CLASS
  1
DICTIONARYVAR
  2
AcDbDictionaryVar
  3
"AutoCAD"
 90
        0
280
               0
281
               0
  0
CLASS
  1
RASTERVARIABLES
  2
AcDbRasterVariables
  3
ISM
 90
        0
280
               0
281
               0
  0
CLASS
  1
IMAGEDEF
  2
AcDbRasterImageDef
  3
ISM
 90
        0
280
               0
281
               0
  0
CLASS
  1
IMAGEDEF_REACTOR
  2
AcDbRasterImageDefReactor
  3
ISM
 90
        1
280
               0
281
               0
  0
CLASS
  1
IDBUFFER
  2
AcDbIdBuffer
  3
"Acad"
 90
        0
280
               0
281
               0
  0
CLASS
  1
SPATIAL_FILTER
  2
AcDbSpatialFilter
  3
"Acad"
 90
        0
280
               0
281
               0
  0
CLASS
  1
XRECORD
  2
AcDbXrecord
  3
"<Built In>"
 90
        0
280
               0
281
               0
  0
CLASS
  1
SORTENTSTABLE
  2
AcDbSortentsTable
  3
"AutoCAD"
 90
        0
280
               0
281
               0
  0
CLASS
  1
LAYER_INDEX
  2
AcDbLayerIndex
  3
"Acad"
 90
        0
280
               0
281
               0
  0
CLASS
  1
SPATIAL_INDEX
  2
AcDbSpatialIndex
  3
"Acad"
 90
        0
280
               0
281
               0
  0
CLASS
  1
OBJECT_PTR
  2
CAseDLPNTableRecord
  3
"ASE-LPNTableRecord"
 90
        1
280
               0
281
               0
  0
CLASS
  1
LAYOUT
  2
AcDbLayout
  3
"AutoCAD 2000"
 90
        1
280
               0
281
               0
  0
CLASS
  1
PLOTSETTINGS
  2
AcDbPlotSettings
  3
"AutoCAD 2000"
 90
        1
280
               0
281
               0
  0
CLASS
  1
ACDBDICTIONARYWDFLT
  2
AcDbDictionaryWithDefault
  3
"AutoCAD 2000"
 90
        1
280
               0
281
               0
  0
CLASS
  1
ACDBPLACEHOLDER
  2
AcDbPlaceHolder
  3
"AutoCAD 2000"
 90
        1
280
               0
281
               0
  0
ENDSEC
  0
SECTION
  2
TABLES
  0
TABLE
  2
VPORT
  5
7
100
AcDbSymbolTable
 70
               1
  0
VPORT
  5
15
100
AcDbSymbolTableRecord
100
AcDbViewportTableRecord
  2
*ACTIVE
 70
               0
 10
0.0
 20
0.0
 11
1.0
 21
1.0
 12
3.1250061988830566
 22
0.2500002384185791
 13
0.0
 23
0.0
 14
1.0
 24
1.0
 15
0.0
 25
0.0
 16
0.0
 26
0.0
 36
1.0
 17
0.0
 27
0.0
 37
0.0
 40
559.03500048160549
 41
1.7320508075688772
 42
50.0
 43
0.0
 44
0.0
 50
0.0
 51
0.0
 71
               0
 72
             100
 73
               1
 74
               1
 75
               0
 76
               0
 77
               0
 78
               0
  0
ENDTAB
  0
TABLE
  2
LTYPE
  5
4
100
AcDbSymbolTable
 70
               3
  0
LTYPE
  5
11
100
AcDbSymbolTableRecord
100
AcDbLinetypeTableRecord
  2
BYBLOCK
 70
              64
  3

 72
              65
 73
               0
 40
0.0
  0
LTYPE
  5
12
100
AcDbSymbolTableRecord
100
AcDbLinetypeTableRecord
  2
BYLAYER
 70
              64
  3

 72
              65
 73
               0
 40
0.0
  0
LTYPE
  5
13
100
AcDbSymbolTableRecord
100
AcDbLinetypeTableRecord
  2
CONTINUOUS
 70
              64
  3
Solid line
 72
              65
 73
               0
 40
0.0
  0
ENDTAB
  0
TABLE
  2
LAYER
  5
2
100
AcDbSymbolTable
 70
               2
  0
LAYER
  5
14
100
AcDbSymbolTableRecord
100
AcDbLayerTableRecord
  2
0
 70
               0
 62
               7
  6
CONTINUOUS
  0
LAYER
  5
1D
100
AcDbSymbolTableRecord
100
AcDbLayerTableRecord
  2
DEFPOINTS
 70
               0
 62
               7
  6
CONTINUOUS
  0
ENDTAB
  0
TABLE
  2
STYLE
  5
3
100
AcDbSymbolTable
 70
               1
  0
STYLE
  5
17
100
AcDbSymbolTableRecord
100
AcDbTextStyleTableRecord
  2
MX_NOTE_STANDARD
 70
               0
 40
0.0
 41
1.0
 50
0.0
 71
               0
 42
3.2000000476837158
  3
txt.shx
  4
extfont.shx
  0
ENDTAB
  0
TABLE
  2
VIEW
  5
5
100
AcDbSymbolTable
 70
               0
  0
ENDTAB
  0
TABLE
  2
UCS
  5
6
100
AcDbSymbolTable
 70
               0
  0
ENDTAB
  0
TABLE
  2
APPID
  5
8
100
AcDbSymbolTable
 70
               1
  0
APPID
  5
16
100
AcDbSymbolTableRecord
100
AcDbRegAppTableRecord
  2
ACAD
 70
               0
  0
ENDTAB
  0
TABLE
  2
DIMSTYLE
  5
9
100
AcDbSymbolTable
 70
               1
  0
DIMSTYLE
105
18
100
AcDbSymbolTableRecord
100
AcDbDimStyleTableRecord
  2
MXDIMSTYLE
 70
               0
  3

  4

  5

  6

  7

 40
1.0
 41
2.5
 42
1.5
 43
3.75
 44
1.5
 45
0.0
 46
0.0
 47
0.0
 48
0.0
 71
               0
 72
               0
 73
               0
 74
               0
 75
               0
 76
               0
 77
               1
 78
               8
140
3.2000000476837158
141
2.5
142
0.0
143
0.03937007874016
144
1.0
145
0.0
146
1.0
147
1.0
170
               0
171
               4
172
               1
173
               0
174
               0
175
               0
176
               0
177
               0
178
               0
270
               2
271
               4
272
               4
273
               2
274
               4
275
               0
280
               0
281
               0
282
               0
283
               1
284
               0
285
               0
286
               0
287
               3
288
               1
340
17
  0
ENDTAB
  0
TABLE
  2
BLOCK_RECORD
  5
1
100
AcDbSymbolTable
 70
               4
  0
BLOCK_RECORD
  5
A
100
AcDbSymbolTableRecord
100
AcDbBlockTableRecord
  2
*MODEL_SPACE
  0
BLOCK_RECORD
  5
B
100
AcDbSymbolTableRecord
100
AcDbBlockTableRecord
  2
*PAPER_SPACE
  0
BLOCK_RECORD
  5
1E
100
AcDbSymbolTableRecord
100
AcDbBlockTableRecord
  2
DPP-AY-1
  0
BLOCK_RECORD
  5
1F
100
AcDbSymbolTableRecord
100
AcDbBlockTableRecord
  2
DPP-AY-2
  0
BLOCK_RECORD
  5
20
100
AcDbSymbolTableRecord
100
AcDbBlockTableRecord
  2
DPP-AY-3
  0
BLOCK_RECORD
  5
21
100
AcDbSymbolTableRecord
100
AcDbBlockTableRecord
  2
DPP-AY-4
  0
ENDTAB
  0
ENDSEC
  0
SECTION
  2
BLOCKS
  0
BLOCK
  5
D
100
AcDbEntity
  8
0
100
AcDbBlockBegin
  2
*MODEL_SPACE
 70
               0
 10
0.0
 20
0.0
 30
0.0
  3
*MODEL_SPACE
  1

  0
ENDBLK
  5
E
100
AcDbEntity
  8
0
100
AcDbBlockEnd
  0
BLOCK
  5
F
100
AcDbEntity
 67
               1
  8
0
100
AcDbBlockBegin
  2
*PAPER_SPACE
 70
               0
 10
0.0
 20
0.0
 30
0.0
  3
*PAPER_SPACE
  1

  0
ENDBLK
  5
10
100
AcDbEntity
 67
               1
  8
0
100
AcDbBlockEnd
  0
BLOCK
  5
22
100
AcDbEntity
  8
0
100
AcDbBlockBegin
  2
DPP-AY-1
 70
               0
 10
0.0
 20
0.0
 30
0.0
  3
DPP-AY-1
  1

  0
LINE
  5
23
100
AcDbEntity
  8
0
  6
CONTINUOUS
 62
               7
100
AcDbLine
 10
15.0
 20
185.10000000000002
 30
0.0
 11
25.0
 21
185.10000000000002
 31
0.0
  0
LINE
  5
24
100
AcDbEntity
  8
0
  6
CONTINUOUS
 62
               7
100
AcDbLine
 10
25.0
 20
185.10000000000002
 30
0.0
 11
25.0
 21
142.30000000000001
 31
0.0
  0
LINE
  5
25
100
AcDbEntity
  8
0
  6
CONTINUOUS
 62
               7
100
AcDbLine
 10
25.0
 20
142.30000000000001
 30
0.0
 11
15.0
 21
142.30000000000001
 31
0.0
  0
LINE
  5
26
100
AcDbEntity
  8
0
  6
CONTINUOUS
 62
               7
100
AcDbLine
 10
15.0
 20
193.75
 30
0.0
 11
-282.0
 21
193.75
 31
0.0
  0
LINE
  5
27
100
AcDbEntity
  8
0
  6
CONTINUOUS
 62
               7
100
AcDbLine
 10
-282.0
 20
193.75
 30
0.0
 11
-282.0
 21
-16.25
 31
0.0
  0
LINE
  5
28
100
AcDbEntity
  8
0
  6
CONTINUOUS
 62
               7
100
AcDbLine
 10
-282.0
 20
-16.25
 30
0.0
 11
15.0
 21
-16.25
 31
0.0
  0
LINE
  5
29
100
AcDbEntity
  8
0
  6
CONTINUOUS
 62
               7
100
AcDbLine
 10
-283.70000000000005
 20
6.0
 30
0.0
 11
-282.0
 21
6.0
 31
0.0
  0
ARC
  5
2A
100
AcDbEntity
  8
0
  6
CONTINUOUS
 62
               7
100
AcDbCircle
 10
-283.70000000000005
 20
5.6999999999999886
 30
0.0
 40
0.3
100
AcDbArc
 50
90.0
 51
180.0
  0
LINE
  5
2B
100
AcDbEntity
  8
0
  6
CONTINUOUS
 62
               7
100
AcDbLine
 10
-283.70000000000005
 20
-8.0
 30
0.0
 11
-282.0
 21
-8.0
 31
0.0
  0
LINE
  5
2C
100
AcDbEntity
  8
0
  6
CONTINUOUS
 62
               7
100
AcDbLine
 10
-284.0
 20
5.6999999999999886
 30
0.0
 11
-284.0
 21
-7.7000000000000455
 31
0.0
  0
ARC
  5
2D
100
AcDbEntity
  8
0
  6
CONTINUOUS
 62
               7
100
AcDbCircle
 10
-283.70000000000005
 20
-7.7000000000000455
 30
0.0
 40
0.3
100
AcDbArc
 50
180.0
 51
270.0
  0
LINE
  5
2E
100
AcDbEntity
  8
0
  6
CONTINUOUS
 62
               7
100
AcDbLine
 10
-285.68304200000011
 20
3.0414519999999925
 30
0.0
 11
-284.0
 21
3.0414519999999925
 31
0.0
  0
LINE
  5
2F
100
AcDbEntity
  8
0
  6
CONTINUOUS
 62
               7
100
AcDbLine
 10
-286.0
 20
-6.458500000000015
 30
0.0
 11
-286.25490000000002
 21
-6.458500000000015
 31
0.0
  0
LINE
  5
30
100
AcDbEntity
  8
0
  6
CONTINUOUS
 62
               7
100
AcDbLine
 10
-286.0
 20
4.4584999999999582
 30
0.0
 11
-286.25490000000002
 21
4.4584999999999582
 31
0.0
  0
LINE
  5
31
100
AcDbEntity
  8
0
  6
CONTINUOUS
 62
               7
100
AcDbLine
 10
-285.68304200000011
 20
7.082903999999985
 30
0.0
 11
-282.316959
 21
7.082903999999985
 31
0.0
  0
LINE
  5
32
100
AcDbEntity
  8
0
  6
CONTINUOUS
 62
               7
100
AcDbLine
 10
-285.68304200000011
 20
-9.0828999999999951
 30
0.0
 11
-286.0
 21
-7.8999999999999773
 31
0.0
  0
LINE
  5
33
100
AcDbEntity
  8
0
  6
CONTINUOUS
 62
               7
100
AcDbLine
 10
-285.68304200000011
 20
7.082903999999985
 30
0.0
 11
-286.0
 21
5.8999999999999773
 31
0.0
  0
LINE
  5
34
100
AcDbEntity
  8
0
  6
CONTINUOUS
 62
               7
100
AcDbLine
 10
-285.68304200000011
 20
-9.0828999999999951
 30
0.0
 11
-282.316959
 21
-9.0828999999999951
 31
0.0
  0
LINE
  5
35
100
AcDbEntity
  8
0
  6
CONTINUOUS
 62
               7
100
AcDbLine
 10
-286.0
 20
5.8999999999999773
 30
0.0
 11
-286.0
 21
-7.8999999999999773
 31
0.0
  0
LINE
  5
36
100
AcDbEntity
  8
0
  6
CONTINUOUS
 62
               7
100
AcDbLine
 10
-286.28867600000001
 20
-6.3999999999999773
 30
0.0
 11
-286.28867600000001
 21
4.3999999999999773
 31
0.0
  0
LINE
  5
37
100
AcDbEntity
  8
0
  6
CONTINUOUS
 62
               7
100
AcDbLine
 10
-290.28867600000001
 20
-5.9339700000000448
 30
0.0
 11
-290.28867600000001
 21
3.9339739999999779
 31
0.0
  0
LINE
  5
38
100
AcDbEntity
  8
0
  6
CONTINUOUS
 62
               7
100
AcDbLine
 10
-292.6886750000001
 20
4.8999999999999773
 30
0.0
 11
-291.6886750000001
 21
4.8999999999999773
 31
0.0
  0
LINE
  5
39
100
AcDbEntity
  8
0
  6
CONTINUOUS
 62
               7
100
AcDbLine
 10
-292.6886750000001
 20
-6.8999999999999773
 30
0.0
 11
-291.6886750000001
 21
-6.8999999999999773
 31
0.0
  0
LINE
  5
3A
100
AcDbEntity
  8
0
  6
CONTINUOUS
 62
               7
100
AcDbLine
 10
-291.6886750000001
 20
-6.8999999999999773
 30
0.0
 11
-291.6886750000001
 21
4.8999999999999773
 31
0.0
  0
LINE
  5
3B
100
AcDbEntity
  8
0
  6
CONTINUOUS
 62
               7
100
AcDbLine
 10
-291.6886750000001
 20
-4.5
 30
0.0
 11
-290.78867600000001
 21
-4.5
 31
0.0
  0
LINE
  5
3C
100
AcDbEntity
  8
0
  6
CONTINUOUS
 62
               7
100
AcDbLine
 10
-291.6886750000001
 20
2.5
 30
0.0
 11
-290.78867600000001
 21
2.5
 31
0.0
  0
LINE
  5
3D
100
AcDbEntity
  8
0
  6
CONTINUOUS
 62
               7
100
AcDbLine
 10
-290.28867500000001
 20
-5.9339700000000448
 30
0.0
 11
-290.78867500000001
 21
-5.8000000000000114
 31
0.0
  0
LINE
  5
3E
100
AcDbEntity
  8
0
  6
CONTINUOUS
 62
               7
100
AcDbLine
 10
-290.28867500000001
 20
3.9339749999999754
 30
0.0
 11
-290.01961500000004
 21
4.3999999999999773
 31
0.0
  0
LINE
  5
3F
100
AcDbEntity
  8
0
  6
CONTINUOUS
 62
               7
100
AcDbLine
 10
-290.78867600000001
 20
3.7999999999999545
 30
0.0
 11
-290.78867600000001
 21
-5.8000000000000114
 31
0.0
  0
LINE
  5
40
100
AcDbEntity
  8
0
  6
CONTINUOUS
 62
               7
100
AcDbLine
 10
-290.28867500000001
 20
3.9339739999999779
 30
0.0
 11
-290.78867500000001
 21
3.7999999999999545
 31
0.0
  0
LINE
  5
41
100
AcDbEntity
  8
0
  6
CONTINUOUS
 62
               7
100
AcDbLine
 10
-290.28867500000001
 20
-5.9339700000000448
 30
0.0
 11
-290.25055500000008
 21
-6.0
 31
0.0
  0
LINE
  5
42
100
AcDbEntity
  8
0
  6
CONTINUOUS
 62
               7
100
AcDbLine
 10
-286.0
 20
4.8999999999999773
 30
0.0
 11
-286.28867500000001
 21
4.3999999999999773
 31
0.0
  0
LINE
  5
43
100
AcDbEntity
  8
0
  6
CONTINUOUS
 62
               7
100
AcDbLine
 10
-290.28867500000001
 20
-5.9339700000000448
 30
0.0
 11
-290.01961500000004
 21
-6.3999999999999773
 31
0.0
  0
LINE
  5
44
100
AcDbEntity
  8
0
  6
CONTINUOUS
 62
               7
100
AcDbLine
 10
-286.28867500000001
 20
4.3999999999999773
 30
0.0
 11
-290.01961500000004
 21
4.3999999999999773
 31
0.0
  0
LINE
  5
45
100
AcDbEntity
  8
0
  6
CONTINUOUS
 62
               7
100
AcDbLine
 10
-286.0
 20
-6.8999999999999773
 30
0.0
 11
-286.28867500000001
 21
-6.3999999999999773
 31
0.0
  0
LINE
  5
46
100
AcDbEntity
  8
0
  6
CONTINUOUS
 62
               7
100
AcDbLine
 10
-286.28867500000001
 20
-6.3999999999999773
 30
0.0
 11
-290.01961500000004
 21
-6.3999999999999773
 31
0.0
  0
LINE
  5
47
100
AcDbEntity
  8
0
  6
CONTINUOUS
 62
               7
100
AcDbLine
 10
-290.01961500000004
 20
4.3999999999999773
 30
0.0
 11
-290.01961600000004
 21
-6.3999999999999773
 31
0.0
  0
ARC
  5
48
100
AcDbEntity
  8
0
  6
CONTINUOUS
 62
               7
100
AcDbCircle
 10
-292.6886750000001
 20
4.6999999999999886
 30
0.0
 40
0.2
100
AcDbArc
 50
90.000004000000004
 51
180.0
  0
ARC
  5
49
100
AcDbEntity
  8
0
  6
CONTINUOUS
 62
               7
100
AcDbCircle
 10
-292.6886750000001
 20
-6.7000000000000455
 30
0.0
 40
0.2
100
AcDbArc
 50
180.0
 51
270.0
  0
ARC
  5
4A
100
AcDbEntity
  8
0
  6
CONTINUOUS
 62
               7
100
AcDbCircle
 10
-278.48403700000006
 20
-7.1158350000000041
 30
0.0
 40
7.4919120000000001
100
AcDbArc
 50
163.92572799999999
 51
174.36670899999999
  0
ARC
  5
4B
100
AcDbEntity
  8
0
  6
CONTINUOUS
 62
               7
100
AcDbCircle
 10
-279.00639100000012
 20
-7.0621810000000096
 30
0.0
 40
6.9668140000000003
100
AcDbArc
 50
174.384141
 51
185.619891
  0
ARC
  5
4C
100
AcDbEntity
  8
0
  6
CONTINUOUS
 62
               7
100
AcDbCircle
 10
-278.48381300000005
 20
-7.0084650000000011
 30
0.0
 40
7.4921420000000003
100
AcDbArc
 50
185.63734700000001
 51
196.07416799999999
  0
ARC
  5
4D
100
AcDbEntity
  8
0
  6
CONTINUOUS
 62
               7
100
AcDbCircle
 10
-257.37633800000003
 20
-1.0266860000000406
 30
0.0
 40
28.597539000000001
100
AcDbArc
 50
171.82165599999999
 51
177.236682
  0
ARC
  5
4E
100
AcDbEntity
  8
0
  6
CONTINUOUS
 62
               7
100
AcDbCircle
 10
-257.90565000000004
 20
-0.9999900000000253
 30
0.0
 40
28.067554999999999
100
AcDbArc
 50
177.23902200000001
 51
182.76038399999996
  0
ARC
  5
4F
100
AcDbEntity
  8
0
  6
CONTINUOUS
 62
               7
100
AcDbCircle
 10
-257.37628500000005
 20
-0.9733160000000112
 30
0.0
 40
28.597591000000001
100
AcDbArc
 50
182.762687
 51
188.17832100000001
  0
ARC
  5
50
100
AcDbEntity
  8
0
  6
CONTINUOUS
 62
               7
100
AcDbCircle
 10
-278.48403100000007
 20
5.0085189999999784
 30
0.0
 40
7.4919180000000001
100
AcDbArc
 50
163.925736
 51
174.36671699999999
  0
ARC
  5
51
100
AcDbEntity
  8
0
  6
CONTINUOUS
 62
               7
100
AcDbCircle
 10
-279.00639300000012
 20
5.0621719999999755
 30
0.0
 40
6.966812
100
AcDbArc
 50
174.38414
 51
185.61989299999999
  0
ARC
  5
52
100
AcDbEntity
  8
0
  6
CONTINUOUS
 62
               7
100
AcDbCircle
 10
-278.48380600000007
 20
5.115887999999984
 30
0.0
 40
7.4921480000000003
100
AcDbArc
 50
185.63733999999999
 51
196.07416000000001
  0
LINE
  5
53
100
AcDbEntity
  8
0
  6
CONTINUOUS
 62
               7
100
AcDbLine
 10
-292.88867500000003
 20
-6.7002830000000131
 30
0.0
 11
-292.88867500000003
 21
4.6999999999999886
 31
0.0
  0
LINE
  5
54
100
AcDbEntity
  8
0
  6
CONTINUOUS
 62
               7
100
AcDbLine
 10
-285.68304200000011
 20
-5.0414499999999975
 30
0.0
 11
-284.0
 21
-5.0414499999999975
 31
0.0
  0
ARC
  5
55
100
AcDbEntity
  8
0
  6
CONTINUOUS
 62
               7
100
AcDbCircle
 10
-289.51619800000003
 20
5.0084679999999935
 30
0.0
 40
7.4921509999999998
100
AcDbArc
 50
7.6049920000000011
 51
16.074152999999999
  0
LINE
  5
56
100
AcDbEntity
  8
0
  6
CONTINUOUS
 62
               7
100
AcDbLine
 10
-282.02679499999999
 20
6.0
 30
0.0
 11
-282.31695800000011
 21
7.082903999999985
 31
0.0
  0
ARC
  5
57
100
AcDbEntity
  8
0
  6
CONTINUOUS
 62
               7
100
AcDbCircle
 10
-289.51596500000005
 20
-7.0085149999999885
 30
0.0
 40
7.4919130000000003
100
AcDbArc
 50
343.92572799999999
 51
352.395128
  0
LINE
  5
58
100
AcDbEntity
  8
0
  6
CONTINUOUS
 62
               7
100
AcDbLine
 10
-282.02679499999999
 20
-8.0
 30
0.0
 11
-282.31695800000011
 21
-9.0828999999999951
 31
0.0
  0
LINE
  5
59
100
AcDbEntity
  8
0
  6
CONTINUOUS
 62
               7
100
AcDbLine
 10
-277.95000000000005
 20
194.25
 30
0.0
 11
-277.95000000000005
 21
193.75
 31
0.0
  0
LINE
  5
5A
100
AcDbEntity
  8
0
  6
CONTINUOUS
 62
               7
100
AcDbLine
 10
-271.05000000000007
 20
194.25
 30
0.0
 11
-271.05000000000007
 21
193.75
 31
0.0
  0
LINE
  5
5B
100
AcDbEntity
  8
0
  6
CONTINUOUS
 62
               7
100
AcDbLine
 10
-274.90000000000009
 20
195.48960199999999
 30
0.0
 11
-274.10000000000002
 21
195.48960199999999
 31
0.0
  0
LINE
  5
5C
100
AcDbEntity
  8
0
  6
CONTINUOUS
 62
               7
100
AcDbLine
 10
-274.10000000000002
 20
195.48960199999999
 30
0.0
 11
-274.10000000000002
 21
195.63381500000003
 31
0.0
  0
LINE
  5
5D
100
AcDbEntity
  8
0
  6
CONTINUOUS
 62
               7
100
AcDbLine
 10
-274.90000000000009
 20
195.63381500000003
 30
0.0
 11
-274.90000000000009
 21
195.48960199999999
 31
0.0
  0
ARC
  5
5E
100
AcDbEntity
  8
0
  6
CONTINUOUS
 62
               7
100
AcDbCircle
 10
-274.5
 20
190.69910700000003
 30
0.0
 40
4.9508929999999998
100
AcDbArc
 50
45.825657
 51
85.365821999999994
  0
ARC
  5
5F
100
AcDbEntity
  8
0
  6
CONTINUOUS
 62
               7
100
AcDbCircle
 10
-274.5
 20
190.69910700000003
 30
0.0
 40
4.9508929999999998
100
AcDbArc
 50
94.619094000000004
 51
134.17434299999999
  0
LINE
  5
60
100
AcDbEntity
  8
0
  6
CONTINUOUS
 62
               7
100
AcDbLine
 10
-277.95000000000005
 20
194.25
 30
0.0
 11
-271.05000000000007
 21
194.25
 31
0.0
  0
LINE
  5
61
100
AcDbEntity
  8
0
  6
CONTINUOUS
 62
               7
100
AcDbLine
 10
-267.45000000000005
 20
194.25
 30
0.0
 11
-267.45000000000005
 21
193.75
 31
0.0
  0
LINE
  5
62
100
AcDbEntity
  8
0
  6
CONTINUOUS
 62
               7
100
AcDbLine
 10
-260.55000000000007
 20
194.25
 30
0.0
 11
-260.55000000000007
 21
193.75
 31
0.0
  0
LINE
  5
63
100
AcDbEntity
  8
0
  6
CONTINUOUS
 62
               7
100
AcDbLine
 10
-264.40000000000009
 20
195.48960199999999
 30
0.0
 11
-263.60000000000002
 21
195.48960199999999
 31
0.0
  0
LINE
  5
64
100
AcDbEntity
  8
0
  6
CONTINUOUS
 62
               7
100
AcDbLine
 10
-263.60000000000002
 20
195.48960199999999
 30
0.0
 11
-263.60000000000002
 21
195.63381500000003
 31
0.0
  0
LINE
  5
65
100
AcDbEntity
  8
0
  6
CONTINUOUS
 62
               7
100
AcDbLine
 10
-264.40000000000009
 20
195.63381500000003
 30
0.0
 11
-264.40000000000009
 21
195.48960199999999
 31
0.0
  0
ARC
  5
66
100
AcDbEntity
  8
0
  6
CONTINUOUS
 62
               7
100
AcDbCircle
 10
-264.0
 20
190.69910700000003
 30
0.0
 40
4.9508929999999998
100
AcDbArc
 50
45.825657
 51
85.365821999999994
  0
ARC
  5
67
100
AcDbEntity
  8
0
  6
CONTINUOUS
 62
               7
100
AcDbCircle
 10
-264.0
 20
190.69910700000003
 30
0.0
 40
4.9508929999999998
100
AcDbArc
 50
94.619094000000004
 51
134.17434299999999
  0
LINE
  5
68
100
AcDbEntity
  8
0
  6
CONTINUOUS
 62
               7
100
AcDbLine
 10
-267.45000000000005
 20
194.25
 30
0.0
 11
-260.55000000000007
 21
194.25
 31
0.0
  0
LINE
  5
69
100
AcDbEntity
  8
0
  6
CONTINUOUS
 62
               7
100
AcDbLine
 10
-6.4500000000000455
 20
194.25
 30
0.0
 11
-6.4500000000000455
 21
193.75
 31
0.0
  0
LINE
  5
6A
100
AcDbEntity
  8
0
  6
CONTINUOUS
 62
               7
100
AcDbLine
 10
0.4499999999998181
 20
194.25
 30
0.0
 11
0.4499999999998181
 21
193.75
 31
0.0
  0
LINE
  5
6B
100
AcDbEntity
  8
0
  6
CONTINUOUS
 62
               7
100
AcDbLine
 10
-3.4000000000000909
 20
195.48960199999999
 30
0.0
 11
-2.5999999999999091
 21
195.48960199999999
 31
0.0
  0
LINE
  5
6C
100
AcDbEntity
  8
0
  6
CONTINUOUS
 62
               7
100
AcDbLine
 10
-2.5999999999999091
 20
195.48960199999999
 30
0.0
 11
-2.5999999999999091
 21
195.63381500000003
 31
0.0
  0
LINE
  5
6D
100
AcDbEntity
  8
0
  6
CONTINUOUS
 62
               7
100
AcDbLine
 10
-3.4000000000000909
 20
195.63381500000003
 30
0.0
 11
-3.4000000000000909
 21
195.48960199999999
 31
0.0
  0
ARC
  5
6E
100
AcDbEntity
  8
0
  6
CONTINUOUS
 62
               7
100
AcDbCircle
 10
-3.0
 20
190.69910700000003
 30
0.0
 40
4.9508929999999998
100
AcDbArc
 50
45.825657
 51
85.365821999999994
  0
ARC
  5
6F
100
AcDbEntity
  8
0
  6
CONTINUOUS
 62
               7
100
AcDbCircle
 10
-3.0
 20
190.69910700000003
 30
0.0
 40
4.9508929999999998
100
AcDbArc
 50
94.619094000000004
 51
134.17434299999999
  0
LINE
  5
70
100
AcDbEntity
  8
0
  6
CONTINUOUS
 62
               7
100
AcDbLine
 10
-6.4500000000000455
 20
194.25
 30
0.0
 11
0.4499999999998181
 21
194.25
 31
0.0
  0
LINE
  5
71
100
AcDbEntity
  8
0
  6
CONTINUOUS
 62
               7
100
AcDbLine
 10
4.0499999999999545
 20
194.25
 30
0.0
 11
4.0499999999999545
 21
193.75
 31
0.0
  0
LINE
  5
72
100
AcDbEntity
  8
0
  6
CONTINUOUS
 62
               7
100
AcDbLine
 10
10.949999999999818
 20
194.25
 30
0.0
 11
10.949999999999818
 21
193.75
 31
0.0
  0
LINE
  5
73
100
AcDbEntity
  8
0
  6
CONTINUOUS
 62
               7
100
AcDbLine
 10
7.0999999999999091
 20
195.48960199999999
 30
0.0
 11
7.9000000000000909
 21
195.48960199999999
 31
0.0
  0
LINE
  5
74
100
AcDbEntity
  8
0
  6
CONTINUOUS
 62
               7
100
AcDbLine
 10
7.9000000000000909
 20
195.48960199999999
 30
0.0
 11
7.9000000000000909
 21
195.63381500000003
 31
0.0
  0
LINE
  5
75
100
AcDbEntity
  8
0
  6
CONTINUOUS
 62
               7
100
AcDbLine
 10
7.0999999999999091
 20
195.63381500000003
 30
0.0
 11
7.0999999999999091
 21
195.48960199999999
 31
0.0
  0
ARC
  5
76
100
AcDbEntity
  8
0
  6
CONTINUOUS
 62
               7
100
AcDbCircle
 10
7.5
 20
190.69910700000003
 30
0.0
 40
4.9508929999999998
100
AcDbArc
 50
45.825657
 51
85.365821999999994
  0
ARC
  5
77
100
AcDbEntity
  8
0
  6
CONTINUOUS
 62
               7
100
AcDbCircle
 10
7.5
 20
190.69910700000003
 30
0.0
 40
4.9508929999999998
100
AcDbArc
 50
94.619094000000004
 51
134.17434299999999
  0
LINE
  5
78
100
AcDbEntity
  8
0
  6
CONTINUOUS
 62
               7
100
AcDbLine
 10
4.0499999999999545
 20
194.25
 30
0.0
 11
10.949999999999818
 21
194.25
 31
0.0
  0
LINE
  5
79
100
AcDbEntity
  8
0
  6
CONTINUOUS
 62
               7
100
AcDbLine
 10
-271.05000000000007
 20
-16.75
 30
0.0
 11
-271.05000000000007
 21
-16.25
 31
0.0
  0
LINE
  5
7A
100
AcDbEntity
  8
0
  6
CONTINUOUS
 62
               7
100
AcDbLine
 10
-277.95000000000005
 20
-16.75
 30
0.0
 11
-277.95000000000005
 21
-16.25
 31
0.0
  0
LINE
  5
7B
100
AcDbEntity
  8
0
  6
CONTINUOUS
 62
               7
100
AcDbLine
 10
-274.10000000000002
 20
-17.989601999999991
 30
0.0
 11
-274.90000000000009
 21
-17.989601999999991
 31
0.0
  0
LINE
  5
7C
100
AcDbEntity
  8
0
  6
CONTINUOUS
 62
               7
100
AcDbLine
 10
-274.90000000000009
 20
-17.989601999999991
 30
0.0
 11
-274.90000000000009
 21
-18.133815000000027
 31
0.0
  0
LINE
  5
7D
100
AcDbEntity
  8
0
  6
CONTINUOUS
 62
               7
100
AcDbLine
 10
-274.10000000000002
 20
-18.133815000000027
 30
0.0
 11
-274.10000000000002
 21
-17.989601999999991
 31
0.0
  0
ARC
  5
7E
100
AcDbEntity
  8
0
  6
CONTINUOUS
 62
               7
100
AcDbCircle
 10
-274.5
 20
-13.199107000000026
 30
0.0
 40
4.9508929999999998
100
AcDbArc
 50
225.82565700000001
 51
265.36582199999998
  0
ARC
  5
7F
100
AcDbEntity
  8
0
  6
CONTINUOUS
 62
               7
100
AcDbCircle
 10
-274.5
 20
-13.199107000000026
 30
0.0
 40
4.9508929999999998
100
AcDbArc
 50
274.61909400000002
 51
314.17434300000002
  0
LINE
  5
80
100
AcDbEntity
  8
0
  6
CONTINUOUS
 62
               7
100
AcDbLine
 10
-271.05000000000007
 20
-16.75
 30
0.0
 11
-277.95000000000005
 21
-16.75
 31
0.0
  0
LINE
  5
81
100
AcDbEntity
  8
0
  6
CONTINUOUS
 62
               7
100
AcDbLine
 10
-260.55000000000007
 20
-16.75
 30
0.0
 11
-260.55000000000007
 21
-16.25
 31
0.0
  0
LINE
  5
82
100
AcDbEntity
  8
0
  6
CONTINUOUS
 62
               7
100
AcDbLine
 10
-267.45000000000005
 20
-16.75
 30
0.0
 11
-267.45000000000005
 21
-16.25
 31
0.0
  0
LINE
  5
83
100
AcDbEntity
  8
0
  6
CONTINUOUS
 62
               7
100
AcDbLine
 10
-263.60000000000002
 20
-17.989601999999991
 30
0.0
 11
-264.40000000000009
 21
-17.989601999999991
 31
0.0
  0
LINE
  5
84
100
AcDbEntity
  8
0
  6
CONTINUOUS
 62
               7
100
AcDbLine
 10
-264.40000000000009
 20
-17.989601999999991
 30
0.0
 11
-264.40000000000009
 21
-18.133815000000027
 31
0.0
  0
LINE
  5
85
100
AcDbEntity
  8
0
  6
CONTINUOUS
 62
               7
100
AcDbLine
 10
-263.60000000000002
 20
-18.133815000000027
 30
0.0
 11
-263.60000000000002
 21
-17.989601999999991
 31
0.0
  0
ARC
  5
86
100
AcDbEntity
  8
0
  6
CONTINUOUS
 62
               7
100
AcDbCircle
 10
-264.0
 20
-13.199107000000026
 30
0.0
 40
4.9508929999999998
100
AcDbArc
 50
225.82565700000001
 51
265.36582199999998
  0
ARC
  5
87
100
AcDbEntity
  8
0
  6
CONTINUOUS
 62
               7
100
AcDbCircle
 10
-264.0
 20
-13.199107000000026
 30
0.0
 40
4.9508929999999998
100
AcDbArc
 50
274.61909400000002
 51
314.17434300000002
  0
LINE
  5
88
100
AcDbEntity
  8
0
  6
CONTINUOUS
 62
               7
100
AcDbLine
 10
-260.55000000000007
 20
-16.75
 30
0.0
 11
-267.45000000000005
 21
-16.75
 31
0.0
  0
LINE
  5
89
100
AcDbEntity
  8
0
  6
CONTINUOUS
 62
               7
100
AcDbLine
 10
0.4499999999998181
 20
-16.75
 30
0.0
 11
0.4499999999998181
 21
-16.25
 31
0.0
  0
LINE
  5
8A
100
AcDbEntity
  8
0
  6
CONTINUOUS
 62
               7
100
AcDbLine
 10
-6.4500000000000455
 20
-16.75
 30
0.0
 11
-6.4500000000000455
 21
-16.25
 31
0.0
  0
LINE
  5
8B
100
AcDbEntity
  8
0
  6
CONTINUOUS
 62
               7
100
AcDbLine
 10
-2.5999999999999091
 20
-17.989601999999991
 30
0.0
 11
-3.4000000000000909
 21
-17.989601999999991
 31
0.0
  0
LINE
  5
8C
100
AcDbEntity
  8
0
  6
CONTINUOUS
 62
               7
100
AcDbLine
 10
-3.4000000000000909
 20
-17.989601999999991
 30
0.0
 11
-3.4000000000000909
 21
-18.133815000000027
 31
0.0
  0
LINE
  5
8D
100
AcDbEntity
  8
0
  6
CONTINUOUS
 62
               7
100
AcDbLine
 10
-2.5999999999999091
 20
-18.133815000000027
 30
0.0
 11
-2.5999999999999091
 21
-17.989601999999991
 31
0.0
  0
ARC
  5
8E
100
AcDbEntity
  8
0
  6
CONTINUOUS
 62
               7
100
AcDbCircle
 10
-3.0
 20
-13.199107000000026
 30
0.0
 40
4.9508929999999998
100
AcDbArc
 50
225.82565700000001
 51
265.36582199999998
  0
ARC
  5
8F
100
AcDbEntity
  8
0
  6
CONTINUOUS
 62
               7
100
AcDbCircle
 10
-3.0
 20
-13.199107000000026
 30
0.0
 40
4.9508929999999998
100
AcDbArc
 50
274.61909400000002
 51
314.17434300000002
  0
LINE
  5
90
100
AcDbEntity
  8
0
  6
CONTINUOUS
 62
               7
100
AcDbLine
 10
0.4499999999998181
 20
-16.75
 30
0.0
 11
-6.4500000000000455
 21
-16.75
 31
0.0
  0
LINE
  5
91
100
AcDbEntity
  8
0
  6
CONTINUOUS
 62
               7
100
AcDbLine
 10
10.949999999999818
 20
-16.75
 30
0.0
 11
10.949999999999818
 21
-16.25
 31
0.0
  0
LINE
  5
92
100
AcDbEntity
  8
0
  6
CONTINUOUS
 62
               7
100
AcDbLine
 10
4.0499999999999545
 20
-16.75
 30
0.0
 11
4.0499999999999545
 21
-16.25
 31
0.0
  0
LINE
  5
93
100
AcDbEntity
  8
0
  6
CONTINUOUS
 62
               7
100
AcDbLine
 10
7.9000000000000909
 20
-17.989601999999991
 30
0.0
 11
7.0999999999999091
 21
-17.989601999999991
 31
0.0
  0
LINE
  5
94
100
AcDbEntity
  8
0
  6
CONTINUOUS
 62
               7
100
AcDbLine
 10
7.0999999999999091
 20
-17.989601999999991
 30
0.0
 11
7.0999999999999091
 21
-18.133815000000027
 31
0.0
  0
LINE
  5
95
100
AcDbEntity
  8
0
  6
CONTINUOUS
 62
               7
100
AcDbLine
 10
7.9000000000000909
 20
-18.133815000000027
 30
0.0
 11
7.9000000000000909
 21
-17.989601999999991
 31
0.0
  0
ARC
  5
96
100
AcDbEntity
  8
0
  6
CONTINUOUS
 62
               7
100
AcDbCircle
 10
7.5
 20
-13.199107000000026
 30
0.0
 40
4.9508929999999998
100
AcDbArc
 50
225.82565700000001
 51
265.36582199999998
  0
ARC
  5
97
100
AcDbEntity
  8
0
  6
CONTINUOUS
 62
               7
100
AcDbCircle
 10
7.5
 20
-13.199107000000026
 30
0.0
 40
4.9508929999999998
100
AcDbArc
 50
274.61909400000002
 51
314.17434300000002
  0
LINE
  5
98
100
AcDbEntity
  8
0
  6
CONTINUOUS
 62
               7
100
AcDbLine
 10
10.949999999999818
 20
-16.75
 30
0.0
 11
4.0499999999999545
 21
-16.75
 31
0.0
  0
LINE
  5
99
100
AcDbEntity
  8
0
  6
CONTINUOUS
 62
               2
100
AcDbLine
 10
-294.88867500000003
 20
-1.0
 30
0.0
 11
-280.0
 21
-1.0
 31
0.0
  0
LINE
  5
9A
100
AcDbEntity
  8
0
  6
CONTINUOUS
 62
               7
100
AcDbLine
 10
15.0
 20
-16.25
 30
0.0
 11
15.0
 21
193.75
 31
0.0
  0
ENDBLK
  5
9B
100
AcDbEntity
  8
0
100
AcDbBlockEnd
  0
BLOCK
  5
9C
100
AcDbEntity
  8
0
100
AcDbBlockBegin
  2
DPP-AY-2
 70
               0
 10
0.0
 20
0.0
 30
0.0
  3
DPP-AY-2
  1

  0
CIRCLE
  5
9D
100
AcDbEntity
  8
0
  6
CONTINUOUS
 62
               7
100
AcDbCircle
 10
19.0
 20
-1.0
 30
0.0
 40
5.2999999999999998
  0
CIRCLE
  5
9E
100
AcDbEntity
  8
0
  6
CONTINUOUS
 62
               7
100
AcDbCircle
 10
19.0
 20
-1.0
 30
0.0
 40
3.0
  0
CIRCLE
  5
9F
100
AcDbEntity
  8
0
  6
CONTINUOUS
 62
               7
100
AcDbCircle
 10
40.599999999999966
 20
92.500000000000057
 30
0.0
 40
1.2
  0
CIRCLE
  5
A0
100
AcDbEntity
  8
0
  6
CONTINUOUS
 62
               7
100
AcDbCircle
 10
70.599999999999966
 20
92.500000000000057
 30
0.0
 40
1.2
  0
CIRCLE
  5
A1
100
AcDbEntity
  8
0
  6
CONTINUOUS
 62
               7
100
AcDbCircle
 10
40.599999999999966
 20
122.50000000000006
 30
0.0
 40
1.2
  0
CIRCLE
  5
A2
100
AcDbEntity
  8
0
  6
CONTINUOUS
 62
               2
100
AcDbCircle
 10
70.599999999999966
 20
92.500000000000057
 30
0.0
 40
1.6000000000000001
  0
CIRCLE
  5
A3
100
AcDbEntity
  8
0
  6
CONTINUOUS
 62
               2
100
AcDbCircle
 10
40.599999999999966
 20
92.500000000000057
 30
0.0
 40
1.6000000000000001
  0
CIRCLE
  5
A4
100
AcDbEntity
  8
0
  6
CONTINUOUS
 62
               2
100
AcDbCircle
 10
40.599999999999966
 20
122.50000000000006
 30
0.0
 40
1.6000000000000001
  0
LINE
  5
A5
100
AcDbEntity
  8
0
  6
CONTINUOUS
 62
               2
100
AcDbLine
 10
67.999999999999972
 20
92.500000000000057
 30
0.0
 11
73.19999999999996
 21
92.500000000000057
 31
0.0
  0
LINE
  5
A6
100
AcDbEntity
  8
0
  6
CONTINUOUS
 62
               2
100
AcDbLine
 10
70.599999999999966
 20
95.100000000000051
 30
0.0
 11
70.599999999999966
 21
89.900000000000063
 31
0.0
  0
LINE
  5
A7
100
AcDbEntity
  8
0
  6
CONTINUOUS
 62
               7
100
AcDbLine
 10
88.800000000000068
 20
192.5
 30
0.0
 11
5.0
 21
192.5
 31
0.0
  0
LINE
  5
A8
100
AcDbEntity
  8
0
  6
CONTINUOUS
 62
               7
100
AcDbLine
 10
5.0
 20
-15.0
 30
0.0
 11
88.800000000000068
 21
-15.0
 31
0.0
  0
LINE
  5
A9
100
AcDbEntity
  8
0
  6
CONTINUOUS
 62
               7
100
AcDbLine
 10
88.800000000000068
 20
-15.0
 30
0.0
 11
88.800000000000068
 21
192.5
 31
0.0
  0
LINE
  5
AA
100
AcDbEntity
  8
0
  6
CONTINUOUS
 62
               2
100
AcDbLine
 10
76.800000000000068
 20
8.1000000000000227
 30
0.0
 11
76.800000000000068
 21
-10.100000000000023
 31
0.0
  0
LINE
  5
AB
100
AcDbEntity
  8
0
  6
CONTINUOUS
 62
               2
100
AcDbLine
 10
67.700000000000045
 20
-1.0
 30
0.0
 11
85.900000000000091
 21
-1.0
 31
0.0
  0
LINE
  5
AC
100
AcDbEntity
  8
0
  6
CONTINUOUS
 62
               2
100
AcDbLine
 10
9.0000029999999924
 20
-1.0
 30
0.0
 11
28.999997000000008
 21
-1.0
 31
0.0
  0
LINE
  5
AD
100
AcDbEntity
  8
0
  6
CONTINUOUS
 62
               2
100
AcDbLine
 10
19.0
 20
10.0
 30
0.0
 11
19.0
 21
-12.082899999999995
 31
0.0
  0
LINE
  5
AE
100
AcDbEntity
  8
0
  6
CONTINUOUS
 62
               7
100
AcDbLine
 10
1.5
 20
171.0
 30
0.0
 11
5.0
 21
171.0
 31
0.0
  0
ARC
  5
AF
100
AcDbEntity
  8
0
  6
CONTINUOUS
 62
               7
100
AcDbCircle
 10
1.5
 20
172.5
 30
0.0
 40
1.5
100
AcDbArc
 50
180.0
 51
270.0
  0
LINE
  5
B0
100
AcDbEntity
  8
0
  6
CONTINUOUS
 62
               7
100
AcDbLine
 10
5.0
 20
184.0
 30
0.0
 11
1.5
 21
184.0
 31
0.0
  0
LINE
  5
B1
100
AcDbEntity
  8
0
  6
CONTINUOUS
 62
               7
100
AcDbLine
 10
0.0
 20
182.5
 30
0.0
 11
0.0
 21
172.5
 31
0.0
  0
ARC
  5
B2
100
AcDbEntity
  8
0
  6
CONTINUOUS
 62
               7
100
AcDbCircle
 10
1.5
 20
182.5
 30
0.0
 40
1.5
100
AcDbArc
 50
90.0
 51
180.0
  0
LINE
  5
B3
100
AcDbEntity
  8
0
  6
CONTINUOUS
 62
               7
100
AcDbLine
 10
5.0
 20
-6.5
 30
0.0
 11
1.5
 21
-6.5
 31
0.0
  0
ARC
  5
B4
100
AcDbEntity
  8
0
  6
CONTINUOUS
 62
               7
100
AcDbCircle
 10
1.5
 20
-5.0
 30
0.0
 40
1.5
100
AcDbArc
 50
180.0
 51
270.0
  0
LINE
  5
B5
100
AcDbEntity
  8
0
  6
CONTINUOUS
 62
               7
100
AcDbLine
 10
1.5
 20
6.5
 30
0.0
 11
5.0
 21
6.5
 31
0.0
  0
LINE
  5
B6
100
AcDbEntity
  8
0
  6
CONTINUOUS
 62
               7
100
AcDbLine
 10
0.0
 20
-5.0
 30
0.0
 11
0.0
 21
5.0
 31
0.0
  0
ARC
  5
B7
100
AcDbEntity
  8
0
  6
CONTINUOUS
 62
               7
100
AcDbCircle
 10
1.5
 20
5.0
 30
0.0
 40
1.5
100
AcDbArc
 50
90.0
 51
180.0
  0
LINE
  5
B8
100
AcDbEntity
  8
0
  6
CONTINUOUS
 62
               7
100
AcDbLine
 10
5.0
 20
193.75
 30
0.0
 11
5.0
 21
-16.25
 31
0.0
  0
LINE
  5
B9
100
AcDbEntity
  8
0
  6
CONTINUOUS
 62
               7
100
AcDbLine
 10
90.0
 20
-16.25
 30
0.0
 11
90.0
 21
193.75
 31
0.0
  0
LINE
  5
BA
100
AcDbEntity
  8
0
  6
CONTINUOUS
 62
               7
100
AcDbLine
 10
5.0
 20
-16.25
 30
0.0
 11
90.0
 21
-16.25
 31
0.0
  0
LINE
  5
BB
100
AcDbEntity
  8
0
  6
CONTINUOUS
 62
               7
100
AcDbLine
 10
90.0
 20
193.75
 30
0.0
 11
5.0
 21
193.75
 31
0.0
  0
LINE
  5
BC
100
AcDbEntity
  8
0
  6
CONTINUOUS
 62
               7
100
AcDbLine
 10
12.000002999999992
 20
3.0414499999999975
 30
0.0
 11
12.000002999999992
 21
-5.0414499999999975
 31
0.0
  0
LINE
  5
BD
100
AcDbEntity
  8
0
  6
CONTINUOUS
 62
               7
100
AcDbLine
 10
12.000002999999992
 20
-5.0414499999999975
 30
0.0
 11
19.0
 21
-9.0828999999999951
 31
0.0
  0
LINE
  5
BE
100
AcDbEntity
  8
0
  6
CONTINUOUS
 62
               7
100
AcDbLine
 10
19.0
 20
-9.0828999999999951
 30
0.0
 11
25.999997000000008
 21
-5.0414499999999975
 31
0.0
  0
LINE
  5
BF
100
AcDbEntity
  8
0
  6
CONTINUOUS
 62
               7
100
AcDbLine
 10
25.999997000000008
 20
-5.0414499999999975
 30
0.0
 11
25.999997000000008
 21
3.0414499999999975
 31
0.0
  0
LINE
  5
C0
100
AcDbEntity
  8
0
  6
CONTINUOUS
 62
               7
100
AcDbLine
 10
25.999997000000008
 20
3.0414499999999975
 30
0.0
 11
19.0
 21
7.082903999999985
 31
0.0
  0
LINE
  5
C1
100
AcDbEntity
  8
0
  6
CONTINUOUS
 62
               7
100
AcDbLine
 10
19.000006999999982
 20
7.0828999999999951
 30
0.0
 11
12.000002999999992
 21
3.0414499999999975
 31
0.0
  0
CIRCLE
  5
C2
100
AcDbEntity
  8
0
  6
CONTINUOUS
 62
               7
100
AcDbCircle
 10
76.800000000000068
 20
-1.0
 30
0.0
 40
7.0
  0
CIRCLE
  5
C3
100
AcDbEntity
  8
0
  6
CONTINUOUS
 62
               7
100
AcDbCircle
 10
76.800000000000068
 20
1.0
 30
0.0
 40
3.0
  0
CIRCLE
  5
C4
100
AcDbEntity
  8
0
  6
CONTINUOUS
 62
               7
100
AcDbCircle
 10
76.800000000000068
 20
1.0
 30
0.0
 40
0.6
  0
LINE
  5
C5
100
AcDbEntity
  8
0
  6
CONTINUOUS
 62
               7
100
AcDbLine
 10
9.0500000000000682
 20
194.25
 30
0.0
 11
9.0500000000000682
 21
193.75
 31
0.0
  0
LINE
  5
C6
100
AcDbEntity
  8
0
  6
CONTINUOUS
 62
               7
100
AcDbLine
 10
15.950000000000045
 20
194.25
 30
0.0
 11
15.950000000000045
 21
193.75
 31
0.0
  0
LINE
  5
C7
100
AcDbEntity
  8
0
  6
CONTINUOUS
 62
               7
100
AcDbLine
 10
12.100000000000023
 20
195.48960199999999
 30
0.0
 11
12.899999999999977
 21
195.48960199999999
 31
0.0
  0
LINE
  5
C8
100
AcDbEntity
  8
0
  6
CONTINUOUS
 62
               7
100
AcDbLine
 10
12.899999999999977
 20
195.48960199999999
 30
0.0
 11
12.899999999999977
 21
195.63381500000003
 31
0.0
  0
LINE
  5
C9
100
AcDbEntity
  8
0
  6
CONTINUOUS
 62
               7
100
AcDbLine
 10
12.100000000000023
 20
195.63381500000003
 30
0.0
 11
12.100000000000023
 21
195.48960199999999
 31
0.0
  0
ARC
  5
CA
100
AcDbEntity
  8
0
  6
CONTINUOUS
 62
               7
100
AcDbCircle
 10
12.5
 20
190.69910700000003
 30
0.0
 40
4.9508929999999998
100
AcDbArc
 50
45.825657
 51
85.365821999999994
  0
ARC
  5
CB
100
AcDbEntity
  8
0
  6
CONTINUOUS
 62
               7
100
AcDbCircle
 10
12.5
 20
190.69910700000003
 30
0.0
 40
4.9508929999999998
100
AcDbArc
 50
94.619094000000004
 51
134.17434299999999
  0
LINE
  5
CC
100
AcDbEntity
  8
0
  6
CONTINUOUS
 62
               7
100
AcDbLine
 10
9.0500000000000682
 20
194.25
 30
0.0
 11
15.950000000000045
 21
194.25
 31
0.0
  0
LINE
  5
CD
100
AcDbEntity
  8
0
  6
CONTINUOUS
 62
               7
100
AcDbLine
 10
77.850000000000023
 20
194.25
 30
0.0
 11
77.850000000000023
 21
193.75
 31
0.0
  0
LINE
  5
CE
100
AcDbEntity
  8
0
  6
CONTINUOUS
 62
               7
100
AcDbLine
 10
84.75
 20
194.25
 30
0.0
 11
84.75
 21
193.75
 31
0.0
  0
LINE
  5
CF
100
AcDbEntity
  8
0
  6
CONTINUOUS
 62
               7
100
AcDbLine
 10
80.899999999999977
 20
195.48960199999999
 30
0.0
 11
81.700000000000045
 21
195.48960199999999
 31
0.0
  0
LINE
  5
D0
100
AcDbEntity
  8
0
  6
CONTINUOUS
 62
               7
100
AcDbLine
 10
81.700000000000045
 20
195.48960199999999
 30
0.0
 11
81.700000000000045
 21
195.63381500000003
 31
0.0
  0
LINE
  5
D1
100
AcDbEntity
  8
0
  6
CONTINUOUS
 62
               7
100
AcDbLine
 10
80.899999999999977
 20
195.63381500000003
 30
0.0
 11
80.899999999999977
 21
195.48960199999999
 31
0.0
  0
ARC
  5
D2
100
AcDbEntity
  8
0
  6
CONTINUOUS
 62
               7
100
AcDbCircle
 10
81.300000000000068
 20
190.69910700000003
 30
0.0
 40
4.9508929999999998
100
AcDbArc
 50
45.825657
 51
85.365821999999994
  0
ARC
  5
D3
100
AcDbEntity
  8
0
  6
CONTINUOUS
 62
               7
100
AcDbCircle
 10
81.300000000000068
 20
190.69910700000003
 30
0.0
 40
4.9508929999999998
100
AcDbArc
 50
94.619094000000004
 51
134.17434299999999
  0
LINE
  5
D4
100
AcDbEntity
  8
0
  6
CONTINUOUS
 62
               7
100
AcDbLine
 10
77.850000000000023
 20
194.25
 30
0.0
 11
84.75
 21
194.25
 31
0.0
  0
LINE
  5
D5
100
AcDbEntity
  8
0
  6
CONTINUOUS
 62
               7
100
AcDbLine
 10
15.950000000000045
 20
-16.75
 30
0.0
 11
15.950000000000045
 21
-16.25
 31
0.0
  0
LINE
  5
D6
100
AcDbEntity
  8
0
  6
CONTINUOUS
 62
               7
100
AcDbLine
 10
9.0500000000000682
 20
-16.75
 30
0.0
 11
9.0500000000000682
 21
-16.25
 31
0.0
  0
LINE
  5
D7
100
AcDbEntity
  8
0
  6
CONTINUOUS
 62
               7
100
AcDbLine
 10
12.899999999999977
 20
-17.989601999999991
 30
0.0
 11
12.100000000000023
 21
-17.989601999999991
 31
0.0
  0
LINE
  5
D8
100
AcDbEntity
  8
0
  6
CONTINUOUS
 62
               7
100
AcDbLine
 10
12.100000000000023
 20
-17.989601999999991
 30
0.0
 11
12.100000000000023
 21
-18.133815000000027
 31
0.0
  0
LINE
  5
D9
100
AcDbEntity
  8
0
  6
CONTINUOUS
 62
               7
100
AcDbLine
 10
12.899999999999977
 20
-18.133815000000027
 30
0.0
 11
12.899999999999977
 21
-17.989601999999991
 31
0.0
  0
ARC
  5
DA
100
AcDbEntity
  8
0
  6
CONTINUOUS
 62
               7
100
AcDbCircle
 10
12.5
 20
-13.199107000000026
 30
0.0
 40
4.9508929999999998
100
AcDbArc
 50
225.82565700000006
 51
265.36582200000004
  0
ARC
  5
DB
100
AcDbEntity
  8
0
  6
CONTINUOUS
 62
               7
100
AcDbCircle
 10
12.5
 20
-13.199107000000026
 30
0.0
 40
4.9508929999999998
100
AcDbArc
 50
274.61909400000002
 51
314.17434300000002
  0
LINE
  5
DC
100
AcDbEntity
  8
0
  6
CONTINUOUS
 62
               7
100
AcDbLine
 10
15.950000000000045
 20
-16.75
 30
0.0
 11
9.0500000000000682
 21
-16.75
 31
0.0
  0
LINE
  5
DD
100
AcDbEntity
  8
0
  6
CONTINUOUS
 62
               7
100
AcDbLine
 10
84.75
 20
-16.75
 30
0.0
 11
84.75
 21
-16.25
 31
0.0
  0
LINE
  5
DE
100
AcDbEntity
  8
0
  6
CONTINUOUS
 62
               7
100
AcDbLine
 10
77.850000000000023
 20
-16.75
 30
0.0
 11
77.850000000000023
 21
-16.25
 31
0.0
  0
LINE
  5
DF
100
AcDbEntity
  8
0
  6
CONTINUOUS
 62
               7
100
AcDbLine
 10
81.700000000000045
 20
-17.989601999999991
 30
0.0
 11
80.899999999999977
 21
-17.989601999999991
 31
0.0
  0
LINE
  5
E0
100
AcDbEntity
  8
0
  6
CONTINUOUS
 62
               7
100
AcDbLine
 10
80.899999999999977
 20
-17.989601999999991
 30
0.0
 11
80.899999999999977
 21
-18.133815000000027
 31
0.0
  0
LINE
  5
E1
100
AcDbEntity
  8
0
  6
CONTINUOUS
 62
               7
100
AcDbLine
 10
81.700000000000045
 20
-18.133815000000027
 30
0.0
 11
81.700000000000045
 21
-17.989601999999991
 31
0.0
  0
ARC
  5
E2
100
AcDbEntity
  8
0
  6
CONTINUOUS
 62
               7
100
AcDbCircle
 10
81.300000000000068
 20
-13.199107000000026
 30
0.0
 40
4.9508929999999998
100
AcDbArc
 50
225.82565700000006
 51
265.36582200000004
  0
ARC
  5
E3
100
AcDbEntity
  8
0
  6
CONTINUOUS
 62
               7
100
AcDbCircle
 10
81.300000000000068
 20
-13.199107000000026
 30
0.0
 40
4.9508929999999998
100
AcDbArc
 50
274.61909400000002
 51
314.17434300000002
  0
LINE
  5
E4
100
AcDbEntity
  8
0
  6
CONTINUOUS
 62
               7
100
AcDbLine
 10
84.75
 20
-16.75
 30
0.0
 11
77.850000000000023
 21
-16.75
 31
0.0
  0
LINE
  5
E5
100
AcDbEntity
  8
0
  6
CONTINUOUS
 62
               2
100
AcDbLine
 10
-3.0
 20
177.5
 30
0.0
 11
8.0
 21
177.5
 31
0.0
  0
LINE
  5
E6
100
AcDbEntity
  8
0
  6
CONTINUOUS
 62
               2
100
AcDbLine
 10
-3.0
 20
0.0
 30
0.0
 11
8.0
 21
0.0
 31
0.0
  0
LINE
  5
E7
100
AcDbEntity
  8
0
  6
CONTINUOUS
 62
               2
100
AcDbLine
 10
38.0
 20
122.50000000000006
 30
0.0
 11
43.199999999999932
 21
122.50000000000006
 31
0.0
  0
LINE
  5
E8
100
AcDbEntity
  8
0
  6
CONTINUOUS
 62
               2
100
AcDbLine
 10
40.599999999999966
 20
125.10000000000005
 30
0.0
 11
40.599999999999966
 21
119.90000000000006
 31
0.0
  0
LINE
  5
E9
100
AcDbEntity
  8
0
  6
CONTINUOUS
 62
               2
100
AcDbLine
 10
38.0
 20
92.500000000000057
 30
0.0
 11
43.199999999999932
 21
92.500000000000057
 31
0.0
  0
LINE
  5
EA
100
AcDbEntity
  8
0
  6
CONTINUOUS
 62
               2
100
AcDbLine
 10
40.599999999999966
 20
95.100000000000051
 30
0.0
 11
40.599999999999966
 21
89.900000000000063
 31
0.0
  0
ENDBLK
  5
EB
100
AcDbEntity
  8
0
100
AcDbBlockEnd
  0
BLOCK
  5
EC
100
AcDbEntity
  8
0
100
AcDbBlockBegin
  2
DPP-AY-3
 70
               0
 10
0.0
 20
0.0
 30
0.0
  3
DPP-AY-3
  1

  0
LINE
  5
ED
100
AcDbEntity
  8
0
  6
CONTINUOUS
 62
               7
100
AcDbLine
 10
-24.299999999999955
 20
169.55000000000001
 30
0.0
 11
-24.299999999999955
 21
167.55000000000001
 31
0.0
  0
LINE
  5
EE
100
AcDbEntity
  8
0
  6
CONTINUOUS
 62
               7
100
AcDbLine
 10
-17.700000000000045
 20
169.55000000000001
 30
0.0
 11
-17.700000000000045
 21
167.55000000000001
 31
0.0
  0
LINE
  5
EF
100
AcDbEntity
  8
0
  6
CONTINUOUS
 62
               7
100
AcDbLine
 10
-24.299999999999955
 20
167.55000000000001
 30
0.0
 11
-17.700000000000045
 21
167.55000000000001
 31
0.0
  0
LINE
  5
F0
100
AcDbEntity
  8
0
  6
CONTINUOUS
 62
               7
100
AcDbLine
 10
-24.299999999999955
 20
169.55000000000001
 30
0.0
 11
-17.700000000000045
 21
169.55000000000001
 31
0.0
  0
LINE
  5
F1
100
AcDbEntity
  8
0
  6
CONTINUOUS
 62
               2
100
AcDbLine
 10
-27.450000000000045
 20
154.09999999999997
 30
0.0
 11
-27.450000000000045
 21
173.30000000000001
 31
0.0
  0
LINE
  5
F2
100
AcDbEntity
  8
0
  6
CONTINUOUS
 62
               2
100
AcDbLine
 10
-14.549999999999955
 20
173.30000000000001
 30
0.0
 11
-14.549999999999955
 21
154.09999999999997
 31
0.0
  0
LINE
  5
F3
100
AcDbEntity
  8
0
  6
CONTINUOUS
 62
               2
100
AcDbLine
 10
-27.450000000000045
 20
173.30000000000001
 30
0.0
 11
-14.549999999999955
 21
173.30000000000001
 31
0.0
  0
LINE
  5
F4
100
AcDbEntity
  8
0
  6
CONTINUOUS
 62
               2
100
AcDbLine
 10
-14.549999999999955
 20
154.09999999999997
 30
0.0
 11
-27.450000000000045
 21
154.09999999999997
 31
0.0
  0
LINE
  5
F5
100
AcDbEntity
  8
0
  6
CONTINUOUS
 62
               7
100
AcDbLine
 10
-26.299999999999955
 20
171.55000000000001
 30
0.0
 11
-15.700000000000045
 21
171.55000000000001
 31
0.0
  0
LINE
  5
F6
100
AcDbEntity
  8
0
  6
CONTINUOUS
 62
               7
100
AcDbLine
 10
-15.700000000000045
 20
171.55000000000001
 30
0.0
 11
-15.700000000000045
 21
155.84999999999997
 31
0.0
  0
LINE
  5
F7
100
AcDbEntity
  8
0
  6
CONTINUOUS
 62
               7
100
AcDbLine
 10
-15.700000000000045
 20
155.84999999999997
 30
0.0
 11
-26.299999999999955
 21
155.84999999999997
 31
0.0
  0
LINE
  5
F8
100
AcDbEntity
  8
0
  6
CONTINUOUS
 62
               7
100
AcDbLine
 10
-26.299999999999955
 20
171.55000000000001
 30
0.0
 11
-26.299999999999955
 21
155.84999999999997
 31
0.0
  0
ARC
  5
F9
100
AcDbEntity
  8
0
  6
CONTINUOUS
 62
               7
100
AcDbCircle
 10
-27.549999999999955
 20
173.25
 30
0.0
 40
1.0
100
AcDbArc
 50
90.0
 51
180.0
  0
LINE
  5
FA
100
AcDbEntity
  8
0
  6
CONTINUOUS
 62
               7
100
AcDbLine
 10
-27.549999999999955
 20
174.25
 30
0.0
 11
-14.450000000000045
 21
174.25
 31
0.0
  0
ARC
  5
FB
100
AcDbEntity
  8
0
  6
CONTINUOUS
 62
               7
100
AcDbCircle
 10
-14.450000000000045
 20
173.25
 30
0.0
 40
1.0
100
AcDbArc
 50
0.0
 51
90.0
  0
LINE
  5
FC
100
AcDbEntity
  8
0
  6
CONTINUOUS
 62
               7
100
AcDbLine
 10
-13.450000000000045
 20
173.25
 30
0.0
 11
-13.450000000000045
 21
154.14999999999998
 31
0.0
  0
ARC
  5
FD
100
AcDbEntity
  8
0
  6
CONTINUOUS
 62
               7
100
AcDbCircle
 10
-14.450000000000045
 20
154.14999999999998
 30
0.0
 40
1.0
100
AcDbArc
 50
270.0
 51
0.0
  0
LINE
  5
FE
100
AcDbEntity
  8
0
  6
CONTINUOUS
 62
               7
100
AcDbLine
 10
-14.450000000000045
 20
153.14999999999998
 30
0.0
 11
-27.549999999999955
 21
153.14999999999998
 31
0.0
  0
LINE
  5
FF
100
AcDbEntity
  8
0
  6
CONTINUOUS
 62
               7
100
AcDbLine
 10
-28.549999999999955
 20
154.14999999999998
 30
0.0
 11
-28.549999999999955
 21
173.25
 31
0.0
  0
ARC
  5
100
100
AcDbEntity
  8
0
  6
CONTINUOUS
 62
               7
100
AcDbCircle
 10
-27.549999999999955
 20
154.14999999999998
 30
0.0
 40
1.0
100
AcDbArc
 50
180.0
 51
270.0
  0
ARC
  5
101
100
AcDbEntity
  8
0
  6
CONTINUOUS
 62
               7
100
AcDbCircle
 10
-16.0
 20
-4.0
 30
0.0
 40
1.0
100
AcDbArc
 50
270.0
 51
0.0
  0
ARC
  5
102
100
AcDbEntity
  8
0
  6
CONTINUOUS
 62
               7
100
AcDbCircle
 10
-16.0
 20
16.0
 30
0.0
 40
1.0
100
AcDbArc
 50
0.0
 51
90.0
  0
ARC
  5
103
100
AcDbEntity
  8
0
  6
CONTINUOUS
 62
               7
100
AcDbCircle
 10
-26.0
 20
16.0
 30
0.0
 40
1.0
100
AcDbArc
 50
90.0
 51
180.0
  0
ARC
  5
104
100
AcDbEntity
  8
0
  6
CONTINUOUS
 62
               7
100
AcDbCircle
 10
-26.0
 20
-4.0
 30
0.0
 40
1.0
100
AcDbArc
 50
180.0
 51
270.0
  0
LINE
  5
105
100
AcDbEntity
  8
0
  6
CONTINUOUS
 62
               7
100
AcDbLine
 10
-27.0
 20
-4.0
 30
0.0
 11
-27.0
 21
16.0
 31
0.0
  0
LINE
  5
106
100
AcDbEntity
  8
0
  6
CONTINUOUS
 62
               7
100
AcDbLine
 10
-23.5
 20
-5.0
 30
0.0
 11
-23.5
 21
17.0
 31
0.0
  0
LINE
  5
107
100
AcDbEntity
  8
0
  6
CONTINUOUS
 62
               7
100
AcDbLine
 10
-26.0
 20
17.0
 30
0.0
 11
-16.0
 21
17.0
 31
0.0
  0
LINE
  5
108
100
AcDbEntity
  8
0
  6
CONTINUOUS
 62
               7
100
AcDbLine
 10
-26.0
 20
-5.0
 30
0.0
 11
-16.0
 21
-5.0
 31
0.0
  0
LINE
  5
109
100
AcDbEntity
  8
0
  6
CONTINUOUS
 62
               7
100
AcDbLine
 10
-15.0
 20
-4.0
 30
0.0
 11
-15.0
 21
16.0
 31
0.0
  0
LINE
  5
10A
100
AcDbEntity
  8
0
  6
CONTINUOUS
 62
               7
100
AcDbLine
 10
-5.0
 20
192.5
 30
0.0
 11
-88.799999999999955
 21
192.5
 31
0.0
  0
LINE
  5
10B
100
AcDbEntity
  8
0
  6
CONTINUOUS
 62
               7
100
AcDbLine
 10
-88.799999999999955
 20
192.5
 30
0.0
 11
-88.799999999999955
 21
-15.0
 31
0.0
  0
LINE
  5
10C
100
AcDbEntity
  8
0
  6
CONTINUOUS
 62
               7
100
AcDbLine
 10
-88.799999999999955
 20
-15.0
 30
0.0
 11
-5.0
 21
-15.0
 31
0.0
  0
LINE
  5
10D
100
AcDbEntity
  8
0
  6
CONTINUOUS
 62
               2
100
AcDbLine
 10
3.0
 20
177.5
 30
0.0
 11
-8.0
 21
177.5
 31
0.0
  0
LINE
  5
10E
100
AcDbEntity
  8
0
  6
CONTINUOUS
 62
               2
100
AcDbLine
 10
3.0
 20
0.0
 30
0.0
 11
-8.0
 21
0.0
 31
0.0
  0
LINE
  5
10F
100
AcDbEntity
  8
0
  6
CONTINUOUS
 62
               7
100
AcDbLine
 10
-83.200000000000045
 20
142.30000000000001
 30
0.0
 11
-83.200000000000045
 21
185.10000000000002
 31
0.0
  0
LINE
  5
110
100
AcDbEntity
  8
0
  6
CONTINUOUS
 62
               7
100
AcDbLine
 10
-40.399999999999864
 20
142.30000000000001
 30
0.0
 11
-83.200000000000045
 21
142.30000000000001
 31
0.0
  0
LINE
  5
111
100
AcDbEntity
  8
0
  6
CONTINUOUS
 62
               7
100
AcDbLine
 10
-40.399999999999864
 20
185.10000000000002
 30
0.0
 11
-40.399999999999864
 21
142.30000000000001
 31
0.0
  0
LINE
  5
112
100
AcDbEntity
  8
0
  6
CONTINUOUS
 62
               7
100
AcDbLine
 10
-83.200000000000045
 20
185.10000000000002
 30
0.0
 11
-40.399999999999864
 21
185.10000000000002
 31
0.0
  0
LINE
  5
113
100
AcDbEntity
  8
0
  6
CONTINUOUS
 62
               7
100
AcDbLine
 10
-47.299999999999955
 20
178.19999999999999
 30
0.0
 11
-76.299999999999955
 21
178.19999999999999
 31
0.0
  0
LINE
  5
114
100
AcDbEntity
  8
0
  6
CONTINUOUS
 62
               7
100
AcDbLine
 10
-76.299999999999955
 20
178.19999999999999
 30
0.0
 11
-76.299999999999955
 21
149.19999999999999
 31
0.0
  0
LINE
  5
115
100
AcDbEntity
  8
0
  6
CONTINUOUS
 62
               7
100
AcDbLine
 10
-76.299999999999955
 20
149.19999999999999
 30
0.0
 11
-47.299999999999955
 21
149.19999999999999
 31
0.0
  0
LINE
  5
116
100
AcDbEntity
  8
0
  6
CONTINUOUS
 62
               7
100
AcDbLine
 10
-47.299999999999955
 20
149.19999999999999
 30
0.0
 11
-47.299999999999955
 21
178.19999999999999
 31
0.0
  0
LINE
  5
117
100
AcDbEntity
  8
0
  6
CONTINUOUS
 62
               7
100
AcDbLine
 10
-1.5
 20
6.5
 30
0.0
 11
-5.0
 21
6.5
 31
0.0
  0
ARC
  5
118
100
AcDbEntity
  8
0
  6
CONTINUOUS
 62
               7
100
AcDbCircle
 10
-1.5
 20
5.0
 30
0.0
 40
1.5
100
AcDbArc
 50
0.0
 51
90.0
  0
LINE
  5
119
100
AcDbEntity
  8
0
  6
CONTINUOUS
 62
               7
100
AcDbLine
 10
-5.0
 20
-6.5
 30
0.0
 11
-1.5
 21
-6.5
 31
0.0
  0
LINE
  5
11A
100
AcDbEntity
  8
0
  6
CONTINUOUS
 62
               7
100
AcDbLine
 10
0.0
 20
-5.0
 30
0.0
 11
0.0
 21
5.0
 31
0.0
  0
ARC
  5
11B
100
AcDbEntity
  8
0
  6
CONTINUOUS
 62
               7
100
AcDbCircle
 10
-1.5
 20
-5.0
 30
0.0
 40
1.5
100
AcDbArc
 50
270.0
 51
0.0
  0
LINE
  5
11C
100
AcDbEntity
  8
0
  6
CONTINUOUS
 62
               7
100
AcDbLine
 10
-5.0
 20
184.0
 30
0.0
 11
-1.5
 21
184.0
 31
0.0
  0
ARC
  5
11D
100
AcDbEntity
  8
0
  6
CONTINUOUS
 62
               7
100
AcDbCircle
 10
-1.5
 20
182.5
 30
0.0
 40
1.5
100
AcDbArc
 50
0.0
 51
90.0
  0
LINE
  5
11E
100
AcDbEntity
  8
0
  6
CONTINUOUS
 62
               7
100
AcDbLine
 10
-1.5
 20
171.0
 30
0.0
 11
-5.0
 21
171.0
 31
0.0
  0
LINE
  5
11F
100
AcDbEntity
  8
0
  6
CONTINUOUS
 62
               7
100
AcDbLine
 10
0.0
 20
182.5
 30
0.0
 11
0.0
 21
172.5
 31
0.0
  0
ARC
  5
120
100
AcDbEntity
  8
0
  6
CONTINUOUS
 62
               7
100
AcDbCircle
 10
-1.5
 20
172.5
 30
0.0
 40
1.5
100
AcDbArc
 50
270.0
 51
0.0
  0
LINE
  5
121
100
AcDbEntity
  8
0
  6
CONTINUOUS
 62
               7
100
AcDbLine
 10
-90.0
 20
-16.25
 30
0.0
 11
-5.0
 21
-16.25
 31
0.0
  0
LINE
  5
122
100
AcDbEntity
  8
0
  6
CONTINUOUS
 62
               7
100
AcDbLine
 10
-90.0
 20
-16.25
 30
0.0
 11
-90.0
 21
193.75
 31
0.0
  0
LINE
  5
123
100
AcDbEntity
  8
0
  6
CONTINUOUS
 62
               7
100
AcDbLine
 10
-90.0
 20
193.75
 30
0.0
 11
-5.0
 21
193.75
 31
0.0
  0
LINE
  5
124
100
AcDbEntity
  8
0
  6
CONTINUOUS
 62
               7
100
AcDbLine
 10
-5.0
 20
-16.25
 30
0.0
 11
-5.0
 21
193.75
 31
0.0
  0
LINE
  5
125
100
AcDbEntity
  8
0
  6
CONTINUOUS
 62
               7
100
AcDbLine
 10
-84.75
 20
194.25
 30
0.0
 11
-84.75
 21
193.75
 31
0.0
  0
LINE
  5
126
100
AcDbEntity
  8
0
  6
CONTINUOUS
 62
               7
100
AcDbLine
 10
-77.850000000000136
 20
194.25
 30
0.0
 11
-77.850000000000136
 21
193.75
 31
0.0
  0
LINE
  5
127
100
AcDbEntity
  8
0
  6
CONTINUOUS
 62
               7
100
AcDbLine
 10
-81.700000000000045
 20
195.48960199999999
 30
0.0
 11
-80.899999999999864
 21
195.48960199999999
 31
0.0
  0
LINE
  5
128
100
AcDbEntity
  8
0
  6
CONTINUOUS
 62
               7
100
AcDbLine
 10
-80.899999999999864
 20
195.48960199999999
 30
0.0
 11
-80.899999999999864
 21
195.63381500000003
 31
0.0
  0
LINE
  5
129
100
AcDbEntity
  8
0
  6
CONTINUOUS
 62
               7
100
AcDbLine
 10
-81.700000000000045
 20
195.63381500000003
 30
0.0
 11
-81.700000000000045
 21
195.48960199999999
 31
0.0
  0
ARC
  5
12A
100
AcDbEntity
  8
0
  6
CONTINUOUS
 62
               7
100
AcDbCircle
 10
-81.299999999999955
 20
190.69910700000003
 30
0.0
 40
4.9508929999999998
100
AcDbArc
 50
45.825657
 51
85.365821999999994
  0
ARC
  5
12B
100
AcDbEntity
  8
0
  6
CONTINUOUS
 62
               7
100
AcDbCircle
 10
-81.299999999999955
 20
190.69910700000003
 30
0.0
 40
4.9508929999999998
100
AcDbArc
 50
94.619094000000004
 51
134.17434299999999
  0
LINE
  5
12C
100
AcDbEntity
  8
0
  6
CONTINUOUS
 62
               7
100
AcDbLine
 10
-84.75
 20
194.25
 30
0.0
 11
-77.850000000000136
 21
194.25
 31
0.0
  0
LINE
  5
12D
100
AcDbEntity
  8
0
  6
CONTINUOUS
 62
               7
100
AcDbLine
 10
-15.950000000000045
 20
194.25
 30
0.0
 11
-15.950000000000045
 21
193.75
 31
0.0
  0
LINE
  5
12E
100
AcDbEntity
  8
0
  6
CONTINUOUS
 62
               7
100
AcDbLine
 10
-9.0499999999999545
 20
194.25
 30
0.0
 11
-9.0499999999999545
 21
193.75
 31
0.0
  0
LINE
  5
12F
100
AcDbEntity
  8
0
  6
CONTINUOUS
 62
               7
100
AcDbLine
 10
-12.899999999999864
 20
195.48960199999999
 30
0.0
 11
-12.100000000000136
 21
195.48960199999999
 31
0.0
  0
LINE
  5
130
100
AcDbEntity
  8
0
  6
CONTINUOUS
 62
               7
100
AcDbLine
 10
-12.100000000000136
 20
195.48960199999999
 30
0.0
 11
-12.100000000000136
 21
195.63381500000003
 31
0.0
  0
LINE
  5
131
100
AcDbEntity
  8
0
  6
CONTINUOUS
 62
               7
100
AcDbLine
 10
-12.899999999999864
 20
195.63381500000003
 30
0.0
 11
-12.899999999999864
 21
195.48960199999999
 31
0.0
  0
ARC
  5
132
100
AcDbEntity
  8
0
  6
CONTINUOUS
 62
               7
100
AcDbCircle
 10
-12.5
 20
190.69910700000003
 30
0.0
 40
4.9508929999999998
100
AcDbArc
 50
45.825657
 51
85.365821999999994
  0
ARC
  5
133
100
AcDbEntity
  8
0
  6
CONTINUOUS
 62
               7
100
AcDbCircle
 10
-12.5
 20
190.69910700000003
 30
0.0
 40
4.9508929999999998
100
AcDbArc
 50
94.619094000000004
 51
134.17434299999999
  0
LINE
  5
134
100
AcDbEntity
  8
0
  6
CONTINUOUS
 62
               7
100
AcDbLine
 10
-15.950000000000045
 20
194.25
 30
0.0
 11
-9.0499999999999545
 21
194.25
 31
0.0
  0
LINE
  5
135
100
AcDbEntity
  8
0
  6
CONTINUOUS
 62
               7
100
AcDbLine
 10
-77.850000000000136
 20
-16.75
 30
0.0
 11
-77.850000000000136
 21
-16.25
 31
0.0
  0
LINE
  5
136
100
AcDbEntity
  8
0
  6
CONTINUOUS
 62
               7
100
AcDbLine
 10
-84.75
 20
-16.75
 30
0.0
 11
-84.75
 21
-16.25
 31
0.0
  0
LINE
  5
137
100
AcDbEntity
  8
0
  6
CONTINUOUS
 62
               7
100
AcDbLine
 10
-80.899999999999864
 20
-17.989601999999991
 30
0.0
 11
-81.700000000000045
 21
-17.989601999999991
 31
0.0
  0
LINE
  5
138
100
AcDbEntity
  8
0
  6
CONTINUOUS
 62
               7
100
AcDbLine
 10
-81.700000000000045
 20
-17.989601999999991
 30
0.0
 11
-81.700000000000045
 21
-18.133815000000027
 31
0.0
  0
LINE
  5
139
100
AcDbEntity
  8
0
  6
CONTINUOUS
 62
               7
100
AcDbLine
 10
-80.899999999999864
 20
-18.133815000000027
 30
0.0
 11
-80.899999999999864
 21
-17.989601999999991
 31
0.0
  0
ARC
  5
13A
100
AcDbEntity
  8
0
  6
CONTINUOUS
 62
               7
100
AcDbCircle
 10
-81.299999999999955
 20
-13.199107000000026
 30
0.0
 40
4.9508929999999998
100
AcDbArc
 50
225.82565699999995
 51
265.36582199999992
  0
ARC
  5
13B
100
AcDbEntity
  8
0
  6
CONTINUOUS
 62
               7
100
AcDbCircle
 10
-81.299999999999955
 20
-13.199107000000026
 30
0.0
 40
4.9508929999999998
100
AcDbArc
 50
274.61909399999996
 51
314.17434299999996
  0
LINE
  5
13C
100
AcDbEntity
  8
0
  6
CONTINUOUS
 62
               7
100
AcDbLine
 10
-77.850000000000136
 20
-16.75
 30
0.0
 11
-84.75
 21
-16.75
 31
0.0
  0
LINE
  5
13D
100
AcDbEntity
  8
0
  6
CONTINUOUS
 62
               7
100
AcDbLine
 10
-9.0499999999999545
 20
-16.75
 30
0.0
 11
-9.0499999999999545
 21
-16.25
 31
0.0
  0
LINE
  5
13E
100
AcDbEntity
  8
0
  6
CONTINUOUS
 62
               7
100
AcDbLine
 10
-15.950000000000045
 20
-16.75
 30
0.0
 11
-15.950000000000045
 21
-16.25
 31
0.0
  0
LINE
  5
13F
100
AcDbEntity
  8
0
  6
CONTINUOUS
 62
               7
100
AcDbLine
 10
-12.100000000000136
 20
-17.989601999999991
 30
0.0
 11
-12.899999999999864
 21
-17.989601999999991
 31
0.0
  0
LINE
  5
140
100
AcDbEntity
  8
0
  6
CONTINUOUS
 62
               7
100
AcDbLine
 10
-12.899999999999864
 20
-17.989601999999991
 30
0.0
 11
-12.899999999999864
 21
-18.133815000000027
 31
0.0
  0
LINE
  5
141
100
AcDbEntity
  8
0
  6
CONTINUOUS
 62
               7
100
AcDbLine
 10
-12.100000000000136
 20
-18.133815000000027
 30
0.0
 11
-12.100000000000136
 21
-17.989601999999991
 31
0.0
  0
ARC
  5
142
100
AcDbEntity
  8
0
  6
CONTINUOUS
 62
               7
100
AcDbCircle
 10
-12.5
 20
-13.199107000000026
 30
0.0
 40
4.9508929999999998
100
AcDbArc
 50
225.82565699999995
 51
265.36582199999992
  0
ARC
  5
143
100
AcDbEntity
  8
0
  6
CONTINUOUS
 62
               7
100
AcDbCircle
 10
-12.5
 20
-13.199107000000026
 30
0.0
 40
4.9508929999999998
100
AcDbArc
 50
274.61909399999996
 51
314.17434299999996
  0
LINE
  5
144
100
AcDbEntity
  8
0
  6
CONTINUOUS
 62
               7
100
AcDbLine
 10
-9.0499999999999545
 20
-16.75
 30
0.0
 11
-15.950000000000045
 21
-16.75
 31
0.0
  0
ENDBLK
  5
145
100
AcDbEntity
  8
0
100
AcDbBlockEnd
  0
BLOCK
  5
146
100
AcDbEntity
  8
0
100
AcDbBlockBegin
  2
DPP-AY-4
 70
               0
 10
0.0
 20
0.0
 30
0.0
  3
DPP-AY-4
  1

  0
LINE
  5
147
100
AcDbEntity
  8
0
  6
CONTINUOUS
 62
               7
100
AcDbLine
 10
15.0
 20
13.450000000000045
 30
0.0
 11
17.0
 21
13.450000000000045
 31
0.0
  0
LINE
  5
148
100
AcDbEntity
  8
0
  6
CONTINUOUS
 62
               7
100
AcDbLine
 10
17.0
 20
13.450000000000045
 30
0.0
 11
17.0
 21
28.550000000000182
 31
0.0
  0
LINE
  5
149
100
AcDbEntity
  8
0
  6
CONTINUOUS
 62
               7
100
AcDbLine
 10
17.0
 20
28.550000000000182
 30
0.0
 11
15.0
 21
28.550000000000182
 31
0.0
  0
LINE
  5
14A
100
AcDbEntity
  8
0
  6
CONTINUOUS
 62
               7
100
AcDbLine
 10
17.0
 20
26.300000000000182
 30
0.0
 11
20.699999999999818
 21
26.300000000000182
 31
0.0
  0
LINE
  5
14B
100
AcDbEntity
  8
0
  6
CONTINUOUS
 62
               7
100
AcDbLine
 10
20.699999999999818
 20
26.300000000000182
 30
0.0
 11
20.699999999999818
 21
15.700000000000045
 31
0.0
  0
LINE
  5
14C
100
AcDbEntity
  8
0
  6
CONTINUOUS
 62
               7
100
AcDbLine
 10
20.699999999999818
 20
15.700000000000045
 30
0.0
 11
17.0
 21
15.700000000000045
 31
0.0
  0
LINE
  5
14D
100
AcDbEntity
  8
0
  6
CONTINUOUS
 62
               2
100
AcDbLine
 10
-280.0
 20
18.999999999999943
 30
0.0
 11
-294.88867500000003
 21
18.999999999999943
 31
0.0
  0
LINE
  5
14E
100
AcDbEntity
  8
0
  6
CONTINUOUS
 62
               2
100
AcDbLine
 10
-286.0
 20
76.799999999999955
 30
0.0
 11
-280.0
 21
76.799999999999955
 31
0.0
  0
LINE
  5
14F
100
AcDbEntity
  8
0
  6
CONTINUOUS
 62
               2
100
AcDbLine
 10
-267.0
 20
8.0
 30
0.0
 11
-267.0
 21
-3.0
 31
0.0
  0
LINE
  5
150
100
AcDbEntity
  8
0
  6
CONTINUOUS
 62
               2
100
AcDbLine
 10
0.0
 20
-3.0
 30
0.0
 11
0.0
 21
8.0
 31
0.0
  0
CIRCLE
  5
151
100
AcDbEntity
  8
0
  6
CONTINUOUS
 62
               7
100
AcDbCircle
 10
-274.5
 20
81.299999999999955
 30
0.0
 40
3.4500000000000002
  0
CIRCLE
  5
152
100
AcDbEntity
  8
0
  6
CONTINUOUS
 62
               7
100
AcDbCircle
 10
-264.0
 20
12.5
 30
0.0
 40
3.4500000000000002
  0
CIRCLE
  5
153
100
AcDbEntity
  8
0
  6
CONTINUOUS
 62
               7
100
AcDbCircle
 10
-3.0
 20
12.5
 30
0.0
 40
3.4500000000000002
  0
CIRCLE
  5
154
100
AcDbEntity
  8
0
  6
CONTINUOUS
 62
               7
100
AcDbCircle
 10
7.5
 20
81.299999999999955
 30
0.0
 40
3.4500000000000002
  0
LINE
  5
155
100
AcDbEntity
  8
0
  6
CONTINUOUS
 62
               7
100
AcDbLine
 10
-282.0
 20
5.0
 30
0.0
 11
15.0
 21
5.0
 31
0.0
  0
LINE
  5
156
100
AcDbEntity
  8
0
  6
CONTINUOUS
 62
               7
100
AcDbLine
 10
-282.0
 20
90.0
 30
0.0
 11
15.0
 21
90.0
 31
0.0
  0
LINE
  5
157
100
AcDbEntity
  8
0
  6
CONTINUOUS
 62
               7
100
AcDbLine
 10
15.0
 20
5.0
 30
0.0
 11
15.0
 21
90.0
 31
0.0
  0
LINE
  5
158
100
AcDbEntity
  8
0
  6
CONTINUOUS
 62
               7
100
AcDbLine
 10
-282.0
 20
5.0
 30
0.0
 11
-282.0
 21
90.0
 31
0.0
  0
LINE
  5
159
100
AcDbEntity
  8
0
  6
CONTINUOUS
 62
               7
100
AcDbLine
 10
-273.5
 20
1.5
 30
0.0
 11
-273.5
 21
5.0
 31
0.0
  0
ARC
  5
15A
100
AcDbEntity
  8
0
  6
CONTINUOUS
 62
               7
100
AcDbCircle
 10
-272.0
 20
1.5
 30
0.0
 40
1.5
100
AcDbArc
 50
180.0
 51
270.0
  0
LINE
  5
15B
100
AcDbEntity
  8
0
  6
CONTINUOUS
 62
               7
100
AcDbLine
 10
-260.5
 20
5.0
 30
0.0
 11
-260.5
 21
1.5
 31
0.0
  0
LINE
  5
15C
100
AcDbEntity
  8
0
  6
CONTINUOUS
 62
               7
100
AcDbLine
 10
-262.0
 20
0.0
 30
0.0
 11
-272.0
 21
0.0
 31
0.0
  0
ARC
  5
15D
100
AcDbEntity
  8
0
  6
CONTINUOUS
 62
               7
100
AcDbCircle
 10
-262.0
 20
1.5
 30
0.0
 40
1.5
100
AcDbArc
 50
270.0
 51
0.0
  0
LINE
  5
15E
100
AcDbEntity
  8
0
  6
CONTINUOUS
 62
               7
100
AcDbLine
 10
-6.5
 20
1.5
 30
0.0
 11
-6.5
 21
5.0
 31
0.0
  0
ARC
  5
15F
100
AcDbEntity
  8
0
  6
CONTINUOUS
 62
               7
100
AcDbCircle
 10
-5.0
 20
1.5
 30
0.0
 40
1.5
100
AcDbArc
 50
180.0
 51
270.0
  0
LINE
  5
160
100
AcDbEntity
  8
0
  6
CONTINUOUS
 62
               7
100
AcDbLine
 10
6.5
 20
5.0
 30
0.0
 11
6.5
 21
1.5
 31
0.0
  0
LINE
  5
161
100
AcDbEntity
  8
0
  6
CONTINUOUS
 62
               7
100
AcDbLine
 10
5.0
 20
0.0
 30
0.0
 11
-5.0
 21
0.0
 31
0.0
  0
ARC
  5
162
100
AcDbEntity
  8
0
  6
CONTINUOUS
 62
               7
100
AcDbCircle
 10
5.0
 20
1.5
 30
0.0
 40
1.5
100
AcDbArc
 50
270.0
 51
0.0
  0
LINE
  5
163
100
AcDbEntity
  8
0
  6
CONTINUOUS
 62
               7
100
AcDbLine
 10
15.0
 20
40.399999999999977
 30
0.0
 11
25.0
 21
40.399999999999977
 31
0.0
  0
LINE
  5
164
100
AcDbEntity
  8
0
  6
CONTINUOUS
 62
               7
100
AcDbLine
 10
25.0
 20
40.399999999999977
 30
0.0
 11
25.0
 21
83.200000000000045
 31
0.0
  0
LINE
  5
165
100
AcDbEntity
  8
0
  6
CONTINUOUS
 62
               7
100
AcDbLine
 10
25.0
 20
83.200000000000045
 30
0.0
 11
15.0
 21
83.200000000000045
 31
0.0
  0
LINE
  5
166
100
AcDbEntity
  8
0
  6
CONTINUOUS
 62
               7
100
AcDbLine
 10
-283.70000000000005
 20
69.799999999999955
 30
0.0
 11
-282.0
 21
69.799999999999955
 31
0.0
  0
ARC
  5
167
100
AcDbEntity
  8
0
  6
CONTINUOUS
 62
               7
100
AcDbCircle
 10
-283.70000000000005
 20
70.099999999999909
 30
0.0
 40
0.3
100
AcDbArc
 50
180.0
 51
270.0
  0
LINE
  5
168
100
AcDbEntity
  8
0
  6
CONTINUOUS
 62
               7
100
AcDbLine
 10
-283.70000000000005
 20
83.799999999999955
 30
0.0
 11
-282.0
 21
83.799999999999955
 31
0.0
  0
LINE
  5
169
100
AcDbEntity
  8
0
  6
CONTINUOUS
 62
               7
100
AcDbLine
 10
-284.0
 20
70.099999999999909
 30
0.0
 11
-284.0
 21
83.5
 31
0.0
  0
ARC
  5
16A
100
AcDbEntity
  8
0
  6
CONTINUOUS
 62
               7
100
AcDbCircle
 10
-283.70000000000005
 20
83.5
 30
0.0
 40
0.3
100
AcDbArc
 50
90.0
 51
180.0
  0
LINE
  5
16B
100
AcDbEntity
  8
0
  6
CONTINUOUS
 62
               7
100
AcDbLine
 10
-286.0
 20
24.458499999999958
 30
0.0
 11
-286.25490000000002
 21
24.458499999999958
 31
0.0
  0
LINE
  5
16C
100
AcDbEntity
  8
0
  6
CONTINUOUS
 62
               7
100
AcDbLine
 10
-286.0
 20
13.541500000000042
 30
0.0
 11
-286.25490000000002
 21
13.541500000000042
 31
0.0
  0
LINE
  5
16D
100
AcDbEntity
  8
0
  6
CONTINUOUS
 62
               7
100
AcDbLine
 10
-285.68304200000011
 20
10.917096000000015
 30
0.0
 11
-282.316959
 21
10.917096000000015
 31
0.0
  0
LINE
  5
16E
100
AcDbEntity
  8
0
  6
CONTINUOUS
 62
               7
100
AcDbLine
 10
-285.68304200000011
 20
27.082899999999995
 30
0.0
 11
-286.0
 21
25.899999999999977
 31
0.0
  0
LINE
  5
16F
100
AcDbEntity
  8
0
  6
CONTINUOUS
 62
               7
100
AcDbLine
 10
-285.68304200000011
 20
10.917096000000015
 30
0.0
 11
-286.0
 21
12.099999999999909
 31
0.0
  0
LINE
  5
170
100
AcDbEntity
  8
0
  6
CONTINUOUS
 62
               7
100
AcDbLine
 10
-285.68304200000011
 20
27.082899999999995
 30
0.0
 11
-282.316959
 21
27.082899999999995
 31
0.0
  0
LINE
  5
171
100
AcDbEntity
  8
0
  6
CONTINUOUS
 62
               7
100
AcDbLine
 10
-286.0
 20
12.099999999999909
 30
0.0
 11
-286.0
 21
25.899999999999977
 31
0.0
  0
LINE
  5
172
100
AcDbEntity
  8
0
  6
CONTINUOUS
 62
               7
100
AcDbLine
 10
-286.28867600000001
 20
24.399999999999977
 30
0.0
 11
-286.28867600000001
 21
13.599999999999909
 31
0.0
  0
LINE
  5
173
100
AcDbEntity
  8
0
  6
CONTINUOUS
 62
               7
100
AcDbLine
 10
-290.28867600000001
 20
23.933970000000045
 30
0.0
 11
-290.28867600000001
 21
14.066025999999965
 31
0.0
  0
LINE
  5
174
100
AcDbEntity
  8
0
  6
CONTINUOUS
 62
               7
100
AcDbLine
 10
-292.6886750000001
 20
13.099999999999909
 30
0.0
 11
-291.6886750000001
 21
13.099999999999909
 31
0.0
  0
LINE
  5
175
100
AcDbEntity
  8
0
  6
CONTINUOUS
 62
               7
100
AcDbLine
 10
-292.6886750000001
 20
24.899999999999977
 30
0.0
 11
-291.6886750000001
 21
24.899999999999977
 31
0.0
  0
LINE
  5
176
100
AcDbEntity
  8
0
  6
CONTINUOUS
 62
               7
100
AcDbLine
 10
-291.6886750000001
 20
24.899999999999977
 30
0.0
 11
-291.6886750000001
 21
13.099999999999909
 31
0.0
  0
LINE
  5
177
100
AcDbEntity
  8
0
  6
CONTINUOUS
 62
               7
100
AcDbLine
 10
-291.6886750000001
 20
22.5
 30
0.0
 11
-290.78867600000001
 21
22.5
 31
0.0
  0
LINE
  5
178
100
AcDbEntity
  8
0
  6
CONTINUOUS
 62
               7
100
AcDbLine
 10
-291.6886750000001
 20
15.5
 30
0.0
 11
-290.78867600000001
 21
15.5
 31
0.0
  0
LINE
  5
179
100
AcDbEntity
  8
0
  6
CONTINUOUS
 62
               7
100
AcDbLine
 10
-290.28867500000001
 20
23.933970000000045
 30
0.0
 11
-290.78867500000001
 21
23.799999999999955
 31
0.0
  0
LINE
  5
17A
100
AcDbEntity
  8
0
  6
CONTINUOUS
 62
               7
100
AcDbLine
 10
-290.28867500000001
 20
14.066024999999968
 30
0.0
 11
-290.01961500000004
 21
13.599999999999909
 31
0.0
  0
LINE
  5
17B
100
AcDbEntity
  8
0
  6
CONTINUOUS
 62
               7
100
AcDbLine
 10
-290.78867600000001
 20
14.200000000000045
 30
0.0
 11
-290.78867600000001
 21
23.799999999999955
 31
0.0
  0
LINE
  5
17C
100
AcDbEntity
  8
0
  6
CONTINUOUS
 62
               7
100
AcDbLine
 10
-290.28867500000001
 20
14.066025999999965
 30
0.0
 11
-290.78867500000001
 21
14.200000000000045
 31
0.0
  0
LINE
  5
17D
100
AcDbEntity
  8
0
  6
CONTINUOUS
 62
               7
100
AcDbLine
 10
-290.28867500000001
 20
23.933970000000045
 30
0.0
 11
-290.25055500000008
 21
24.0
 31
0.0
  0
LINE
  5
17E
100
AcDbEntity
  8
0
  6
CONTINUOUS
 62
               7
100
AcDbLine
 10
-286.0
 20
13.099999999999909
 30
0.0
 11
-286.28867500000001
 21
13.599999999999909
 31
0.0
  0
LINE
  5
17F
100
AcDbEntity
  8
0
  6
CONTINUOUS
 62
               7
100
AcDbLine
 10
-290.28867500000001
 20
23.933970000000045
 30
0.0
 11
-290.01961500000004
 21
24.399999999999977
 31
0.0
  0
LINE
  5
180
100
AcDbEntity
  8
0
  6
CONTINUOUS
 62
               7
100
AcDbLine
 10
-286.28867500000001
 20
13.599999999999909
 30
0.0
 11
-290.01961500000004
 21
13.599999999999909
 31
0.0
  0
LINE
  5
181
100
AcDbEntity
  8
0
  6
CONTINUOUS
 62
               7
100
AcDbLine
 10
-286.0
 20
24.899999999999977
 30
0.0
 11
-286.28867500000001
 21
24.399999999999977
 31
0.0
  0
LINE
  5
182
100
AcDbEntity
  8
0
  6
CONTINUOUS
 62
               7
100
AcDbLine
 10
-286.28867500000001
 20
24.399999999999977
 30
0.0
 11
-290.01961500000004
 21
24.399999999999977
 31
0.0
  0
LINE
  5
183
100
AcDbEntity
  8
0
  6
CONTINUOUS
 62
               7
100
AcDbLine
 10
-290.01961500000004
 20
13.599999999999909
 30
0.0
 11
-290.01961600000004
 21
24.399999999999977
 31
0.0
  0
ARC
  5
184
100
AcDbEntity
  8
0
  6
CONTINUOUS
 62
               7
100
AcDbCircle
 10
-292.6886750000001
 20
13.299999999999955
 30
0.0
 40
0.2
100
AcDbArc
 50
180.0
 51
269.99999600000001
  0
ARC
  5
185
100
AcDbEntity
  8
0
  6
CONTINUOUS
 62
               7
100
AcDbCircle
 10
-292.6886750000001
 20
24.700000000000045
 30
0.0
 40
0.2
100
AcDbArc
 50
90.0
 51
180.0
  0
ARC
  5
186
100
AcDbEntity
  8
0
  6
CONTINUOUS
 62
               7
100
AcDbCircle
 10
-278.48403700000006
 20
25.115835000000061
 30
0.0
 40
7.4919120000000001
100
AcDbArc
 50
185.63329100000001
 51
196.07427200000001
  0
ARC
  5
187
100
AcDbEntity
  8
0
  6
CONTINUOUS
 62
               7
100
AcDbCircle
 10
-279.00639100000012
 20
25.06218100000001
 30
0.0
 40
6.9668140000000003
100
AcDbArc
 50
174.380109
 51
185.615859
  0
ARC
  5
188
100
AcDbEntity
  8
0
  6
CONTINUOUS
 62
               7
100
AcDbCircle
 10
-278.48381300000005
 20
25.008465000000001
 30
0.0
 40
7.4921420000000003
100
AcDbArc
 50
163.92583200000001
 51
174.36265299999999
  0
ARC
  5
189
100
AcDbEntity
  8
0
  6
CONTINUOUS
 62
               7
100
AcDbCircle
 10
-257.37633800000003
 20
19.026685999999927
 30
0.0
 40
28.597539000000001
100
AcDbArc
 50
182.763318
 51
188.17834400000001
  0
ARC
  5
18A
100
AcDbEntity
  8
0
  6
CONTINUOUS
 62
               7
100
AcDbCircle
 10
-257.90565000000004
 20
18.999990000000025
 30
0.0
 40
28.067554999999999
100
AcDbArc
 50
177.23961600000004
 51
182.76097799999997
  0
ARC
  5
18B
100
AcDbEntity
  8
0
  6
CONTINUOUS
 62
               7
100
AcDbCircle
 10
-257.37628500000005
 20
18.973316000000068
 30
0.0
 40
28.597591000000001
100
AcDbArc
 50
171.82167899999999
 51
177.237313
  0
ARC
  5
18C
100
AcDbEntity
  8
0
  6
CONTINUOUS
 62
               7
100
AcDbCircle
 10
-278.48403100000007
 20
12.991481000000022
 30
0.0
 40
7.4919180000000001
100
AcDbArc
 50
185.63328300000001
 51
196.074264
  0
ARC
  5
18D
100
AcDbEntity
  8
0
  6
CONTINUOUS
 62
               7
100
AcDbCircle
 10
-279.00639300000012
 20
12.937827999999968
 30
0.0
 40
6.966812
100
AcDbArc
 50
174.38010700000001
 51
185.61586
  0
ARC
  5
18E
100
AcDbEntity
  8
0
  6
CONTINUOUS
 62
               7
100
AcDbCircle
 10
-278.48380600000007
 20
12.884111999999959
 30
0.0
 40
7.4921480000000003
100
AcDbArc
 50
163.92583999999999
 51
174.36266000000001
  0
LINE
  5
18F
100
AcDbEntity
  8
0
  6
CONTINUOUS
 62
               7
100
AcDbLine
 10
-292.88867500000003
 20
24.700283000000013
 30
0.0
 11
-292.88867500000003
 21
13.299999999999955
 31
0.0
  0
ARC
  5
190
100
AcDbEntity
  8
0
  6
CONTINUOUS
 62
               7
100
AcDbCircle
 10
-289.51619800000003
 20
12.991532000000007
 30
0.0
 40
7.4921509999999998
100
AcDbArc
 50
343.92584699999998
 51
352.39500799999996
  0
LINE
  5
191
100
AcDbEntity
  8
0
  6
CONTINUOUS
 62
               7
100
AcDbLine
 10
-282.02679499999999
 20
12.0
 30
0.0
 11
-282.31695800000011
 21
10.917096000000015
 31
0.0
  0
ARC
  5
192
100
AcDbEntity
  8
0
  6
CONTINUOUS
 62
               7
100
AcDbCircle
 10
-289.51596500000005
 20
25.008514999999989
 30
0.0
 40
7.4919130000000003
100
AcDbArc
 50
7.6048720000000127
 51
16.074272000000015
  0
LINE
  5
193
100
AcDbEntity
  8
0
  6
CONTINUOUS
 62
               7
100
AcDbLine
 10
-282.02679499999999
 20
26.0
 30
0.0
 11
-282.31695800000011
 21
27.082899999999995
 31
0.0
  0
LINE
  5
194
100
AcDbEntity
  8
0
  6
CONTINUOUS
 62
               7
100
AcDbLine
 10
-285.68304200000011
 20
23.041449999999941
 30
0.0
 11
-282.0
 21
23.041449999999941
 31
0.0
  0
LINE
  5
195
100
AcDbEntity
  8
0
  6
CONTINUOUS
 62
               7
100
AcDbLine
 10
-285.68304200000011
 20
14.958548000000064
 30
0.0
 11
-282.0
 21
14.958548000000064
 31
0.0
  0
LINE
  5
196
100
AcDbEntity
  8
0
  6
CONTINUOUS
 62
               7
100
AcDbLine
 10
-275.38388347648322
 20
82.183883476483146
 30
0.0
 11
-273.61611652351684
 21
80.416116523516791
 31
0.0
  0
LINE
  5
197
100
AcDbEntity
  8
0
  6
CONTINUOUS
 62
               7
100
AcDbLine
 10
-273.61611652351684
 20
82.183883476483231
 30
0.0
 11
-275.38388347648322
 21
80.416116523516877
 31
0.0
  0
LINE
  5
198
100
AcDbEntity
  8
0
  6
CONTINUOUS
 62
               7
100
AcDbLine
 10
-263.11611652351684
 20
13.383883476483277
 30
0.0
 11
-264.88388347648322
 21
11.616116523516922
 31
0.0
  0
LINE
  5
199
100
AcDbEntity
  8
0
  6
CONTINUOUS
 62
               7
100
AcDbLine
 10
-264.88388347648322
 20
13.383883476483192
 30
0.0
 11
-263.11611652351684
 21
11.616116523516837
 31
0.0
  0
LINE
  5
19A
100
AcDbEntity
  8
0
  6
CONTINUOUS
 62
               7
100
AcDbLine
 10
-2.1161165235168369
 20
13.383883476483277
 30
0.0
 11
-3.88388347648322
 21
11.616116523516922
 31
0.0
  0
LINE
  5
19B
100
AcDbEntity
  8
0
  6
CONTINUOUS
 62
               7
100
AcDbLine
 10
-3.88388347648322
 20
13.383883476483192
 30
0.0
 11
-2.1161165235168369
 21
11.616116523516837
 31
0.0
  0
LINE
  5
19C
100
AcDbEntity
  8
0
  6
CONTINUOUS
 62
               7
100
AcDbLine
 10
8.3838834764831631
 20
82.183883476483231
 30
0.0
 11
6.61611652351678
 21
80.416116523516877
 31
0.0
  0
LINE
  5
19D
100
AcDbEntity
  8
0
  6
CONTINUOUS
 62
               7
100
AcDbLine
 10
6.61611652351678
 20
82.183883476483146
 30
0.0
 11
8.3838834764831631
 21
80.416116523516791
 31
0.0
  0
ENDBLK
  5
19E
100
AcDbEntity
  8
0
100
AcDbBlockEnd
  0
ENDSEC
  0
SECTION
  2
ENTITIES
  0
INSERT
  5
19F
100
AcDbEntity
  8
0
  6
ByBlock
100
AcDbBlockReference
  2
DPP-AY-4
 10
185.0
 20
-194.99999999999997
 30
0.0
  0
INSERT
  5
1A0
100
AcDbEntity
  8
0
  6
ByBlock
100
AcDbBlockReference
  2
DPP-AY-3
 10
350.0
 20
-48.0
 30
0.0
  0
INSERT
  5
1A1
100
AcDbEntity
  8
0
  6
ByBlock
100
AcDbBlockReference
  2
DPP-AY-2
 10
-305.0
 20
-48.0
 30
0.0
  0
INSERT
  5
1A2
100
AcDbEntity
  8
0
  6
ByBlock
100
AcDbBlockReference
  2
DPP-AY-1
 10
185.0
 20
-48.0
 30
0.0
  0
MTEXT
  5
1A3
100
AcDbEntity
  8
0
  6
CONTINUOUS
 62
               7
100
AcDbMText
 10
-393.47086989485825
 20
270.25
 30
0.0
 40
9.0
 41
0.0
 71
               4
 72
               1
  1
\W1.036;\A1;DESKTOP TYPE COMPRESSOR
  0
MTEXT
  5
1A4
100
AcDbEntity
  8
0
  6
CONTINUOUS
 62
               7
100
AcDbMText
 10
-328.52490329742432
 20
216.5
 30
0.0
 40
9.0
 41
0.0
 71
               4
 72
               1
  1
\A1;DPP-AYAD
  0
LINE
  5
1A5
100
AcDbEntity
  8
0
  6
CONTINUOUS
 62
               7
100
AcDbLine
 10
239.52490234375
 20
-251.5
 30
0.0
 11
239.52490234375
 21
-276.5
 31
0.0
  0
LINE
  5
1A6
100
AcDbEntity
  8
0
  6
CONTINUOUS
 62
               7
100
AcDbLine
 10
239.52490234375
 20
-251.5
 30
0.0
 11
399.52490234375
 21
-251.5
 31
0.0
  0
LINE
  5
1A7
100
AcDbEntity
  8
0
  6
CONTINUOUS
 62
               7
100
AcDbLine
 10
239.52490234375
 20
251.5
 30
0.0
 11
239.52490234375
 21
276.5
 31
0.0
  0
LINE
  5
1A8
100
AcDbEntity
  8
0
  6
CONTINUOUS
 62
               7
100
AcDbLine
 10
239.52490234375
 20
251.5
 30
0.0
 11
399.52490234375
 21
251.5
 31
0.0
  0
LINE
  5
1A9
100
AcDbEntity
  8
0
  6
CONTINUOUS
 62
               7
100
AcDbLine
 10
-183.52490234375
 20
251.5
 30
0.0
 11
-183.52490234375
 21
276.5
 31
0.0
  0
LINE
  5
1AA
100
AcDbEntity
  8
0
  6
CONTINUOUS
 62
               7
100
AcDbLine
 10
-183.52490234375
 20
251.5
 30
0.0
 11
-399.52490234375
 21
251.5
 31
0.0
  0
MTEXT
  5
1AB
100
AcDbEntity
  8
0
  6
CONTINUOUS
 62
               7
100
AcDbMText
 10
245.60966041118564
 20
-264.0
 30
0.0
 40
12.5
 41
0.0
 71
               4
 72
               1
  1
\W1.121;\A1;KOGANEI CORP.
  0
MTEXT
  5
1AC
100
AcDbEntity
  8
0
  6
CONTINUOUS
 62
               7
100
AcDbMText
 10
285.49210822679424
 20
264.0
 30
0.0
 40
9.0
 41
0.0
 71
               4
 72
               1
  1
\W1.311;\A1;Ver. 1.0
  0
MTEXT
  5
1AD
100
AcDbEntity
  8
0
  6
CONTINUOUS
 62
               7
100
AcDbMText
 10
-382.44990296481177
 20
231.5
 30
0.0
 40
9.0
 41
0.0
 71
               4
 72
               1
  1
\W1.050;\A1;MODEL:DPP-AYD4
  0
MTEXT
  5
1AE
100
AcDbEntity
  8
0
  6
CONTINUOUS
 62
               7
100
AcDbMText
 10
-317.0249080657959
 20
257.75
 30
0.0
 40
9.0
 41
0.0
 71
               4
 72
               1
  1
\A1;DPP-AY
  0
LINE
  5
1AF
100
AcDbEntity
  8
0
  6
CONTINUOUS
 62
               7
100
AcDbLine
 10
-399.52490234375
 20
-276.5
 30
0.0
 11
399.52490234375
 21
-276.5
 31
0.0
  0
LINE
  5
1B0
100
AcDbEntity
  8
0
  6
CONTINUOUS
 62
               7
100
AcDbLine
 10
-399.52490234375
 20
276.5
 30
0.0
 11
399.52490234375
 21
276.5
 31
0.0
  0
LINE
  5
1B1
100
AcDbEntity
  8
0
  6
CONTINUOUS
 62
               7
100
AcDbLine
 10
-399.52490234375
 20
276.5
 30
0.0
 11
-399.52490234375
 21
-276.5
 31
0.0
  0
LINE
  5
1B2
100
AcDbEntity
  8
0
  6
CONTINUOUS
 62
               7
100
AcDbLine
 10
399.52490234375
 20
276.5
 30
0.0
 11
399.52490234375
 21
-276.5
 31
0.0
  0
ENDSEC
  0
SECTION
  2
OBJECTS
  0
DICTIONARY
  5
19
100
AcDbDictionary
  3
ACAD_GROUP
350
1A
  3
ACAD_MLINESTYLE
350
1B
  0
DICTIONARY
  5
1A
102
{ACAD_REACTORS
330
19
102
}
100
AcDbDictionary
  0
DICTIONARY
  5
1B
102
{ACAD_REACTORS
330
19
102
}
100
AcDbDictionary
  3
STANDARD
350
1C
  0
MLINESTYLE
  5
1C
102
{ACAD_REACTORS
330
1B
102
}
100
AcDbMlineStyle
  2
Standard
 70
               0
  3

 62
               0
 51
90.0
 52
90.0
 71
               2
 49
0.5
 62
             256
  6
ByLayer
 49
-0.5
 62
             256
  6
ByLayer
  0
ENDSEC
  0
EOF
