  0
SECTION
  2
HEADER
  9
$ACADVER
  1
AC1012
  9
$DWGCODEPAGE
  3
dos932
  9
$INSBASE
 10
0.0
 20
0.0
 30
0.0
  9
$EXTMIN
 10
-194.25
 20
-133.5
 30
0.0
  9
$EXTMAX
 10
196.25000429153442
 20
132.60000610351562
 30
0.0
  9
$LIMMIN
 10
-210.0
 20
-148.5
  9
$LIMMAX
 10
210.0
 20
148.5
  9
$ORTHOMODE
 70
               0
  9
$REGENMODE
 70
               1
  9
$FILLMODE
 70
               1
  9
$QTEXTMODE
 70
               0
  9
$MIRRTEXT
 70
               1
  9
$DRAGMODE
 70
               2
  9
$LTSCALE
 40
1.0
  9
$OSMODE
 70
               0
  9
$ATTMODE
 70
               1
  9
$TEXTSIZE
 40
3.2000000476837158
  9
$TRACEWID
 40
0.05
  9
$TEXTSTYLE
  7
MX_NOTE_STANDARD
  9
$CLAYER
  8
0
  9
$CELTYPE
  6
CONTINUOUS
  9
$CECOLOR
 62
             256
  9
$CELTSCALE
 40
1.0
  9
$DELOBJ
 70
               1
  9
$DISPSILH
 70
               0
  9
$DIMSCALE
 40
1.0
  9
$DIMASZ
 40
2.5
  9
$DIMEXO
 40
1.5
  9
$DIMDLI
 40
3.75
  9
$DIMRND
 40
0.0
  9
$DIMDLE
 40
0.0
  9
$DIMEXE
 40
1.5
  9
$DIMTP
 40
0.0
  9
$DIMTM
 40
0.0
  9
$DIMTXT
 40
3.2000000476837158
  9
$DIMCEN
 40
2.5
  9
$DIMTSZ
 40
0.0
  9
$DIMTOL
 70
               0
  9
$DIMLIM
 70
               0
  9
$DIMTIH
 70
               0
  9
$DIMTOH
 70
               0
  9
$DIMSE1
 70
               0
  9
$DIMSE2
 70
               0
  9
$DIMTAD
 70
               1
  9
$DIMZIN
 70
               8
  9
$DIMBLK
  1

  9
$DIMASO
 70
               1
  9
$DIMSHO
 70
               1
  9
$DIMPOST
  1

  9
$DIMAPOST
  1

  9
$DIMALT
 70
               0
  9
$DIMALTD
 70
               4
  9
$DIMALTF
 40
0.03937007874016
  9
$DIMLFAC
 40
1.0
  9
$DIMTOFL
 70
               1
  9
$DIMTVP
 40
0.0
  9
$DIMTIX
 70
               0
  9
$DIMSOXD
 70
               0
  9
$DIMSAH
 70
               1
  9
$DIMBLK1
  1
_OPEN30
  9
$DIMBLK2
  1
_OPEN30
  9
$DIMSTYLE
  2
MXDIMSTYLE
  9
$DIMCLRD
 70
               0
  9
$DIMCLRE
 70
               0
  9
$DIMCLRT
 70
               0
  9
$DIMTFAC
 40
1.0
  9
$DIMGAP
 40
1.0
  9
$DIMJUST
 70
               0
  9
$DIMSD1
 70
               0
  9
$DIMSD2
 70
               0
  9
$DIMTOLJ
 70
               0
  9
$DIMTZIN
 70
               0
  9
$DIMALTZ
 70
               0
  9
$DIMALTTZ
 70
               0
  9
$DIMFIT
 70
               3
  9
$DIMUPT
 70
               1
  9
$DIMUNIT
 70
               2
  9
$DIMDEC
 70
               2
  9
$DIMTDEC
 70
               2
  9
$DIMALTU
 70
               2
  9
$DIMALTTD
 70
               4
  9
$DIMTXSTY
  7
MX_NOTE_STANDARD
  9
$DIMAUNIT
 70
               0
  9
$LUNITS
 70
               2
  9
$LUPREC
 70
               4
  9
$SKETCHINC
 40
0.1
  9
$FILLETRAD
 40
0.0
  9
$AUNITS
 70
               0
  9
$AUPREC
 70
               0
  9
$MENU
  1
acad
  9
$ELEVATION
 40
0.0
  9
$PELEVATION
 40
0.0
  9
$THICKNESS
 40
0.0
  9
$LIMCHECK
 70
               0
  9
$BLIPMODE
 70
               1
  9
$CHAMFERA
 40
0.0
  9
$CHAMFERB
 40
0.0
  9
$CHAMFERC
 40
0.0
  9
$CHAMFERD
 40
0.0
  9
$SKPOLY
 70
               0
  9
$TDCREATE
 40
2453916.737175926
  9
$TDUPDATE
 40
2453916.737175926
  9
$TDINDWG
 40
0.0000000000
  9
$TDUSRTIMER
 40
0.0000000000
  9
$USRTIMER
 70
               1
  9
$ANGBASE
 50
0.0
  9
$ANGDIR
 70
               0
  9
$PDMODE
 70
               0
  9
$PDSIZE
 40
0.0
  9
$PLINEWID
 40
0.0
  9
$COORDS
 70
               1
  9
$SPLFRAME
 70
               0
  9
$SPLINETYPE
 70
               6
  9
$SPLINESEGS
 70
               8
  9
$ATTDIA
 70
               0
  9
$ATTREQ
 70
               1
  9
$HANDLING
 70
               1
  9
$HANDSEED
  5
17F
  9
$SURFTAB1
 70
               6
  9
$SURFTAB2
 70
               6
  9
$SURFTYPE
 70
               6
  9
$SURFU
 70
               6
  9
$SURFV
 70
               6
  9
$UCSNAME
  2

  9
$UCSORG
 10
0.0
 20
0.0
 30
0.0
  9
$UCSXDIR
 10
1.0
 20
0.0
 30
0.0
  9
$UCSYDIR
 10
0.0
 20
1.0
 30
0.0
  9
$PUCSNAME
  2

  9
$PUCSORG
 10
0.0
 20
0.0
 30
0.0
  9
$PUCSXDIR
 10
1.0
 20
0.0
 30
0.0
  9
$PUCSYDIR
 10
0.0
 20
1.0
 30
0.0
  9
$USERI1
 70
               0
  9
$USERI2
 70
               0
  9
$USERI3
 70
               0
  9
$USERI4
 70
               0
  9
$USERI5
 70
               0
  9
$USERR1
 40
0.0
  9
$USERR2
 40
0.0
  9
$USERR3
 40
0.0
  9
$USERR4
 40
0.0
  9
$USERR5
 40
0.0
  9
$WORLDVIEW
 70
               1
  9
$SHADEDGE
 70
               3
  9
$SHADEDIF
 70
              70
  9
$TILEMODE
 70
               1
  9
$MAXACTVP
 70
              16
  9
$PINSBASE
 10
0.0
 20
0.0
 30
0.0
  9
$PLIMCHECK
 70
               0
  9
$PEXTMIN
 10
1.0000000000000000E+20
 20
1.0000000000000000E+20
 30
1.0000000000000000E+20
  9
$PEXTMAX
 10
-1.0000000000000000E+20
 20
-1.0000000000000000E+20
 30
-1.0000000000000000E+20
  9
$PLIMMIN
 10
0.0
 20
0.0
  9
$PLIMMAX
 10
12.0
 20
9.0
  9
$UNITMODE
 70
               0
  9
$VISRETAIN
 70
               0
  9
$PLINEGEN
 70
               1
  9
$PSLTSCALE
 70
               0
  9
$TREEDEPTH
 70
            3020
  9
$PICKSTYLE
 70
               1
  9
$CMLSTYLE
  2
Standard
  9
$CMLJUST
 70
               0
  9
$CMLSCALE
 40
1.0
  9
$SAVEIMAGES
 70
               0
  0
ENDSEC
  0
SECTION
  2
CLASSES
  0
CLASS
  1
LWPOLYLINE
  2
AcDbPolyline
  3
"AutoCAD"
 90
    32768
280
               0
281
               1
  0
CLASS
  1
IMAGE
  2
AcDbRasterImage
  3
ISM
 90
    32895
280
               0
281
               1
  0
CLASS
  1
OLE2FRAME
  2
AcDbOle2Frame
  3
""
 90
    32768
280
               0
281
               1
  0
CLASS
  1
HATCH
  2
AcDbHatch
  3
"ACAD_SEDONA"
 90
    32768
280
               0
281
               1
  0
CLASS
  1
DICTIONARYVAR
  2
AcDbDictionaryVar
  3
"AutoCAD"
 90
    32768
280
               0
281
               0
  0
CLASS
  1
RASTERVARIABLES
  2
AcDbRasterVariables
  3
ISM
 90
    32768
280
               0
281
               0
  0
CLASS
  1
IMAGEDEF
  2
AcDbRasterImageDef
  3
ISM
 90
    32768
280
               0
281
               0
  0
CLASS
  1
IMAGEDEF_REACTOR
  2
AcDbRasterImageDefReactor
  3
ISM
 90
    32769
280
               0
281
               0
  0
CLASS
  1
IDBUFFER
  2
AcDbIdBuffer
  3
"Acad"
 90
    32768
280
               0
281
               0
  0
CLASS
  1
SPATIAL_FILTER
  2
AcDbSpatialFilter
  3
"Acad"
 90
    32768
280
               0
281
               0
  0
CLASS
  1
XRECORD
  2
AcDbXrecord
  3
"<Built In>"
 90
    32768
280
               0
281
               0
  0
CLASS
  1
SORTENTSTABLE
  2
AcDbSortentsTable
  3
"AutoCAD"
 90
    32768
280
               0
281
               0
  0
CLASS
  1
LAYER_INDEX
  2
AcDbLayerIndex
  3
"Acad"
 90
    32768
280
               0
281
               0
  0
CLASS
  1
SPATIAL_INDEX
  2
AcDbSpatialIndex
  3
"Acad"
 90
    32768
280
               0
281
               0
  0
CLASS
  1
OBJECT_PTR
  2
CAseDLPNTableRecord
  3
"ASE-LPNTableRecord"
 90
    32769
280
               0
281
               0
  0
CLASS
  1
LAYOUT
  2
AcDbLayout
  3
"AutoCAD 2000"
 90
    32768
280
               0
281
               0
  0
CLASS
  1
PLOTSETTINGS
  2
AcDbPlotSettings
  3
"AutoCAD 2000"
 90
    32768
280
               0
281
               0
  0
CLASS
  1
ACDBDICTIONARYWDFLT
  2
AcDbDictionaryWithDefault
  3
"AutoCAD 2000"
 90
    32768
280
               0
281
               0
  0
CLASS
  1
ACDBPLACEHOLDER
  2
AcDbPlaceHolder
  3
"AutoCAD 2000"
 90
    32768
280
               0
281
               0
  0
ENDSEC
  0
SECTION
  2
TABLES
  0
TABLE
  2
VPORT
  5
7
100
AcDbSymbolTable
 70
               1
  0
VPORT
  5
15
100
AcDbSymbolTableRecord
100
AcDbViewportTableRecord
  2
*ACTIVE
 70
               0
 10
0.0
 20
0.0
 11
1.0
 21
1.0
 12
0.0
 22
0.0
 13
0.0
 23
0.0
 14
1.0
 24
1.0
 15
0.0
 25
0.0
 16
0.0
 26
0.0
 36
1.0
 17
0.0
 27
0.0
 37
0.0
 40
299.97000000000003
 41
1.7320508075688772
 42
50.0
 43
0.0
 44
0.0
 50
0.0
 51
0.0
 71
               0
 72
             100
 73
               1
 74
               1
 75
               0
 76
               0
 77
               0
 78
               0
  0
ENDTAB
  0
TABLE
  2
LTYPE
  5
4
100
AcDbSymbolTable
 70
               4
  0
LTYPE
  5
11
100
AcDbSymbolTableRecord
100
AcDbLinetypeTableRecord
  2
BYBLOCK
 70
              64
  3

 72
              65
 73
               0
 40
0.0
  0
LTYPE
  5
12
100
AcDbSymbolTableRecord
100
AcDbLinetypeTableRecord
  2
BYLAYER
 70
              64
  3

 72
              65
 73
               0
 40
0.0
  0
LTYPE
  5
13
100
AcDbSymbolTableRecord
100
AcDbLinetypeTableRecord
  2
CONTINUOUS
 70
              64
  3
Solid line
 72
              65
 73
               0
 40
0.0
  0
LTYPE
  5
110
100
AcDbSymbolTableRecord
100
AcDbLinetypeTableRecord
  2
DASHED
 70
              64
  3
Dashed __ __ __ __ __ __ __ __ __ __ __ __ __ _
 72
              65
 73
               2
 40
19.049999999999997
 49
12.699999999999999
 74
               0
 49
-6.3499999999999996
 74
               0
  0
ENDTAB
  0
TABLE
  2
LAYER
  5
2
100
AcDbSymbolTable
 70
               2
  0
LAYER
  5
14
100
AcDbSymbolTableRecord
100
AcDbLayerTableRecord
  2
0
 70
               0
 62
               7
  6
CONTINUOUS
  0
LAYER
  5
1D
100
AcDbSymbolTableRecord
100
AcDbLayerTableRecord
  2
DEFPOINTS
 70
               0
 62
               7
  6
CONTINUOUS
  0
ENDTAB
  0
TABLE
  2
STYLE
  5
3
100
AcDbSymbolTable
 70
               1
  0
STYLE
  5
17
100
AcDbSymbolTableRecord
100
AcDbTextStyleTableRecord
  2
MX_NOTE_STANDARD
 70
               0
 40
0.0
 41
1.0
 50
0.0
 71
               0
 42
3.2000000476837158
  3
txt.shx
  4
extfont.shx
  0
ENDTAB
  0
TABLE
  2
VIEW
  5
5
100
AcDbSymbolTable
 70
               0
  0
ENDTAB
  0
TABLE
  2
UCS
  5
6
100
AcDbSymbolTable
 70
               0
  0
ENDTAB
  0
TABLE
  2
APPID
  5
8
100
AcDbSymbolTable
 70
               1
  0
APPID
  5
16
100
AcDbSymbolTableRecord
100
AcDbRegAppTableRecord
  2
ACAD
 70
               0
  0
ENDTAB
  0
TABLE
  2
DIMSTYLE
  5
9
100
AcDbSymbolTable
 70
               1
  0
DIMSTYLE
105
18
100
AcDbSymbolTableRecord
100
AcDbDimStyleTableRecord
  2
MXDIMSTYLE
 70
               0
  3

  4

  5

  6
_OPEN30
  7
_OPEN30
 40
1.0
 41
2.5
 42
1.5
 43
3.75
 44
1.5
 45
0.0
 46
0.0
 47
0.0
 48
0.0
 71
               0
 72
               0
 73
               0
 74
               0
 75
               0
 76
               0
 77
               1
 78
               8
140
3.2000000476837158
141
2.5
142
0.0
143
0.03937007874016
144
1.0
145
0.0
146
1.0
147
1.0
170
               0
171
               4
172
               1
173
               1
174
               0
175
               0
176
               0
177
               0
178
               0
270
               2
271
               2
272
               2
273
               2
274
               4
275
               0
280
               0
281
               0
282
               0
283
               0
284
               0
285
               0
286
               0
287
               3
288
               1
340
17
  0
ENDTAB
  0
TABLE
  2
BLOCK_RECORD
  5
1
100
AcDbSymbolTable
 70
               4
  0
BLOCK_RECORD
  5
A
100
AcDbSymbolTableRecord
100
AcDbBlockTableRecord
  2
*MODEL_SPACE
  0
BLOCK_RECORD
  5
B
100
AcDbSymbolTableRecord
100
AcDbBlockTableRecord
  2
*PAPER_SPACE
  0
BLOCK_RECORD
  5
1E
100
AcDbSymbolTableRecord
100
AcDbBlockTableRecord
  2
DTRBP-TB-1
  0
BLOCK_RECORD
  5
1F
100
AcDbSymbolTableRecord
100
AcDbBlockTableRecord
  2
DTRBP-TB-2
  0
BLOCK_RECORD
  5
20
100
AcDbSymbolTableRecord
100
AcDbBlockTableRecord
  2
DTRBP-TB-3
  0
BLOCK_RECORD
  5
21
100
AcDbSymbolTableRecord
100
AcDbBlockTableRecord
  2
_OPEN30
  0
ENDTAB
  0
ENDSEC
  0
SECTION
  2
BLOCKS
  0
BLOCK
  5
D
100
AcDbEntity
  8
0
100
AcDbBlockBegin
  2
*MODEL_SPACE
 70
               0
 10
0.0
 20
0.0
 30
0.0
  3
*MODEL_SPACE
  1

  0
ENDBLK
  5
E
100
AcDbEntity
  8
0
100
AcDbBlockEnd
  0
BLOCK
  5
F
100
AcDbEntity
 67
               1
  8
0
100
AcDbBlockBegin
  2
*PAPER_SPACE
 70
               0
 10
0.0
 20
0.0
 30
0.0
  3
*PAPER_SPACE
  1

  0
ENDBLK
  5
10
100
AcDbEntity
 67
               1
  8
0
100
AcDbBlockEnd
  0
BLOCK
  5
27
100
AcDbEntity
  8
0
100
AcDbBlockBegin
  2
DTRBP-TB-1
 70
               0
 10
0.0
 20
0.0
 30
0.0
  3
DTRBP-TB-1
  1

  0
LINE
  5
28
100
AcDbEntity
  8
0
  6
CONTINUOUS
 62
               2
100
AcDbLine
 10
-46.100493078078728
 20
55.659974092157427
 30
0.0
 11
-37.002287491728396
 21
52.996085069126906
 31
0.0
  0
LINE
  5
29
100
AcDbEntity
  8
0
  6
CONTINUOUS
 62
               2
100
AcDbLine
 10
-46.100493078078728
 20
56.659974092157427
 30
0.0
 11
-37.002287491728396
 21
53.996085069126906
 31
0.0
  0
LINE
  5
2A
100
AcDbEntity
  8
0
  6
CONTINUOUS
 62
               7
100
AcDbLine
 10
-47.249994168675642
 20
47.846354572785856
 30
0.0
 11
-35.749994168675642
 21
47.846354572785856
 31
0.0
  0
SPLINE
  5
2B
100
AcDbEntity
  8
0
  6
CONTINUOUS
 62
               7
100
AcDbSpline
210
0.0
220
0.0
230
1.0
 70
               0
 71
               3
 72
               0
 73
               0
 74
              10
 44
0.000001
 12
0.0000000000000001
 22
1.0
 32
0.0
 13
1.0
 23
0.0
 33
0.0
 11
-49.749994168675642
 21
45.346354572785856
 31
0.0
 11
-49.712013551206155
 21
45.780475016953176
 31
0.0
 11
-49.599225720640419
 21
46.201404931100058
 31
0.0
 11
-49.415057678136719
 21
46.596354572785856
 31
0.0
 11
-49.165105276473099
 21
46.953323597002225
 31
0.0
 11
-48.856963192891982
 21
47.261465680583314
 31
0.0
 11
-48.499994168675642
 21
47.511418082246962
 31
0.0
 11
-48.105044526989815
 21
47.695586124750662
 31
0.0
 11
-47.684114612842961
 21
47.80837395531637
 31
0.0
 11
-47.249994168675642
 21
47.846354572785856
 31
0.0
  0
SPLINE
  5
2C
100
AcDbEntity
  8
0
  6
CONTINUOUS
 62
               7
100
AcDbSpline
210
0.0
220
0.0
230
1.0
 70
               0
 71
               3
 72
               0
 73
               0
 74
              10
 44
0.000001
 12
1.0
 22
0.0
 32
0.0
 13
0.0000000000000001
 23
-1.0
 33
0.0
 11
-35.749994168675642
 21
47.846354572785856
 31
0.0
 11
-35.315873724508322
 21
47.80837395531637
 31
0.0
 11
-34.894943810361468
 21
47.695586124750662
 31
0.0
 11
-34.499994168675642
 21
47.511418082246962
 31
0.0
 11
-34.143025144459301
 21
47.261465680583314
 31
0.0
 11
-33.834883060878184
 21
46.953323597002225
 31
0.0
 11
-33.584930659214564
 21
46.596354572785856
 31
0.0
 11
-33.400762616710864
 21
46.201404931100058
 31
0.0
 11
-33.287974786145128
 21
45.780475016953176
 31
0.0
 11
-33.249994168675642
 21
45.346354572785856
 31
0.0
  0
LINE
  5
2D
100
AcDbEntity
  8
0
  6
CONTINUOUS
 62
               2
100
AcDbLine
 10
-41.499994168675642
 20
60.547944096786949
 30
0.0
 11
-41.499994168675642
 21
112.54983787677176
 31
0.0
  0
LINE
  5
2E
100
AcDbEntity
  8
0
  6
CONTINUOUS
 62
               7
100
AcDbLine
 10
-39.499994168675642
 20
47.846354572785856
 30
0.0
 11
-39.499994168675642
 21
53.727395582647503
 31
0.0
  0
LINE
  5
2F
100
AcDbEntity
  8
0
  6
CONTINUOUS
 62
               7
100
AcDbLine
 10
-43.499994168675642
 20
47.846354572785856
 30
0.0
 11
-43.499994168675642
 21
54.898566753818685
 31
0.0
  0
LINE
  5
30
100
AcDbEntity
  8
0
  6
CONTINUOUS
 62
               7
100
AcDbLine
 10
-33.232008731306536
 20
75.151620845107914
 30
0.0
 11
-49.767979606044747
 21
75.151620845107914
 31
0.0
  0
LINE
  5
31
100
AcDbEntity
  8
0
  6
CONTINUOUS
 62
               7
100
AcDbLine
 10
-33.232008731306536
 20
65.442091684775676
 30
0.0
 11
-49.767979606044747
 21
65.442091684775676
 31
0.0
  0
LINE
  5
32
100
AcDbEntity
  8
0
  6
CONTINUOUS
 62
               7
100
AcDbLine
 10
-49.767979606044747
 20
75.151620845107914
 30
0.0
 11
-49.767979606044747
 21
65.442091684775676
 31
0.0
  0
LINE
  5
33
100
AcDbEntity
  8
0
  6
CONTINUOUS
 62
               7
100
AcDbLine
 10
-33.232008731306536
 20
75.151620845107914
 30
0.0
 11
-33.232008731306536
 21
65.442091684775676
 31
0.0
  0
CIRCLE
  5
34
100
AcDbEntity
  8
0
  6
CONTINUOUS
 62
               7
100
AcDbCircle
 10
-47.561268433241963
 20
79.312847628107463
 30
0.0
 40
2.5
  0
LINE
  5
35
100
AcDbEntity
  8
0
  6
CONTINUOUS
 62
               7
100
AcDbLine
 10
-47.261268433241966
 20
80.160988403333363
 30
0.0
 11
-47.86126843324196
 21
80.160988403333363
 31
0.0
  0
LINE
  5
36
100
AcDbEntity
  8
0
  6
CONTINUOUS
 62
               7
100
AcDbLine
 10
-47.261268433241966
 20
78.40041006879413
 30
0.0
 11
-47.86126843324196
 21
78.40041006879413
 31
0.0
  0
LINE
  5
37
100
AcDbEntity
  8
0
  6
CONTINUOUS
 62
               7
100
AcDbLine
 10
-47.86126843324196
 20
79.012847628107465
 30
0.0
 11
-47.86126843324196
 21
78.40041006879413
 31
0.0
  0
LINE
  5
38
100
AcDbEntity
  8
0
  6
CONTINUOUS
 62
               7
100
AcDbLine
 10
-47.261268433241966
 20
79.012847628107465
 30
0.0
 11
-47.261268433241966
 21
78.40041006879413
 31
0.0
  0
LINE
  5
39
100
AcDbEntity
  8
0
  6
CONTINUOUS
 62
               7
100
AcDbLine
 10
-47.86126843324196
 20
79.61284762810746
 30
0.0
 11
-49.030962278911872
 21
79.61284762810746
 31
0.0
  0
LINE
  5
3A
100
AcDbEntity
  8
0
  6
CONTINUOUS
 62
               7
100
AcDbLine
 10
-47.86126843324196
 20
79.012847628107465
 30
0.0
 11
-49.030962278911872
 21
79.012847628107465
 31
0.0
  0
LINE
  5
3B
100
AcDbEntity
  8
0
  6
CONTINUOUS
 62
               7
100
AcDbLine
 10
-47.86126843324196
 20
80.160988403333363
 30
0.0
 11
-47.86126843324196
 21
79.61284762810746
 31
0.0
  0
LINE
  5
3C
100
AcDbEntity
  8
0
  6
CONTINUOUS
 62
               7
100
AcDbLine
 10
-47.261268433241966
 20
80.160988403333363
 30
0.0
 11
-47.261268433241966
 21
79.61284762810746
 31
0.0
  0
LINE
  5
3D
100
AcDbEntity
  8
0
  6
CONTINUOUS
 62
               7
100
AcDbLine
 10
-46.091574587572055
 20
79.61284762810746
 30
0.0
 11
-47.261268433241966
 21
79.61284762810746
 31
0.0
  0
LINE
  5
3E
100
AcDbEntity
  8
0
  6
CONTINUOUS
 62
               7
100
AcDbLine
 10
-46.091574587572055
 20
79.012847628107465
 30
0.0
 11
-47.261268433241966
 21
79.012847628107465
 31
0.0
  0
CIRCLE
  5
3F
100
AcDbEntity
  8
0
  6
CONTINUOUS
 62
               7
100
AcDbCircle
 10
-47.561268433241963
 20
79.312847628107463
 30
0.0
 40
1.5
  0
ARC
  5
40
100
AcDbEntity
  8
0
  6
CONTINUOUS
 62
               7
100
AcDbCircle
 10
-51.099994168675636
 20
65.949837876771767
 30
0.0
 40
1.5
100
AcDbArc
 50
180.0
 51
270.0
  0
ARC
  5
41
100
AcDbEntity
  8
0
  6
CONTINUOUS
 62
               7
100
AcDbCircle
 10
-31.899994168675647
 20
65.949837876771767
 30
0.0
 40
1.5
100
AcDbArc
 50
270.0
 51
0.0
  0
ARC
  5
42
100
AcDbEntity
  8
0
  6
CONTINUOUS
 62
               7
100
AcDbCircle
 10
-56.599994168675636
 20
84.449837876771767
 30
0.0
 40
1.0
100
AcDbArc
 50
180.0
 51
270.0
  0
ARC
  5
43
100
AcDbEntity
  8
0
  6
CONTINUOUS
 62
               7
100
AcDbCircle
 10
-26.399994168675647
 20
84.449837876771767
 30
0.0
 40
1.0
100
AcDbArc
 50
270.0
 51
0.0
  0
LINE
  5
44
100
AcDbEntity
  8
0
  6
CONTINUOUS
 62
               7
100
AcDbLine
 10
-51.099994168675636
 20
74.449837876771767
 30
0.0
 11
-52.599994168675636
 21
71.449837876771767
 31
0.0
  0
LINE
  5
45
100
AcDbEntity
  8
0
  6
CONTINUOUS
 62
               7
100
AcDbLine
 10
-30.399994168675647
 20
71.449837876771767
 30
0.0
 11
-31.899994168675647
 21
74.449837876771767
 31
0.0
  0
LINE
  5
46
100
AcDbEntity
  8
0
  6
CONTINUOUS
 62
               7
100
AcDbLine
 10
-52.599994168675636
 20
65.949837876771767
 30
0.0
 11
-52.599994168675636
 21
71.449837876771767
 31
0.0
  0
LINE
  5
47
100
AcDbEntity
  8
0
  6
CONTINUOUS
 62
               7
100
AcDbLine
 10
-30.399994168675647
 20
65.949837876771767
 30
0.0
 11
-30.399994168675647
 21
71.449837876771767
 31
0.0
  0
LINE
  5
48
100
AcDbEntity
  8
0
  6
CONTINUOUS
 62
               7
100
AcDbLine
 10
-51.099994168675636
 20
83.449837876771767
 30
0.0
 11
-51.099994168675636
 21
74.449837876771767
 31
0.0
  0
LINE
  5
49
100
AcDbEntity
  8
0
  6
CONTINUOUS
 62
               7
100
AcDbLine
 10
-31.899994168675647
 20
83.449837876771767
 30
0.0
 11
-31.899994168675647
 21
74.449837876771767
 31
0.0
  0
LINE
  5
4A
100
AcDbEntity
  8
0
  6
CONTINUOUS
 62
               7
100
AcDbLine
 10
-56.599994168675636
 20
83.449837876771767
 30
0.0
 11
-51.099994168675636
 21
83.449837876771767
 31
0.0
  0
LINE
  5
4B
100
AcDbEntity
  8
0
  6
CONTINUOUS
 62
               7
100
AcDbLine
 10
-26.399994168675647
 20
83.449837876771767
 30
0.0
 11
-31.899994168675647
 21
83.449837876771767
 31
0.0
  0
LINE
  5
4C
100
AcDbEntity
  8
0
  6
CONTINUOUS
 62
               7
100
AcDbLine
 10
-25.399994168675647
 20
84.449837876771767
 30
0.0
 11
-25.399994168675647
 21
102.44983787677177
 31
0.0
  0
LINE
  5
4D
100
AcDbEntity
  8
0
  6
CONTINUOUS
 62
               7
100
AcDbLine
 10
-57.599994168675636
 20
84.449837876771767
 30
0.0
 11
-57.599994168675636
 21
102.44983787677177
 31
0.0
  0
LINE
  5
4E
100
AcDbEntity
  8
0
  6
CONTINUOUS
 62
               7
100
AcDbLine
 10
-55.494994168675646
 20
103.44983787677177
 30
0.0
 11
-55.494994168675646
 21
105.94983787677177
 31
0.0
  0
LINE
  5
4F
100
AcDbEntity
  8
0
  6
CONTINUOUS
 62
               7
100
AcDbLine
 10
-52.494994168675646
 20
103.44983787677177
 30
0.0
 11
-52.494994168675646
 21
105.94983787677177
 31
0.0
  0
LINE
  5
50
100
AcDbEntity
  8
0
  6
CONTINUOUS
 62
               7
100
AcDbLine
 10
-27.504994168675637
 20
103.44983787677177
 30
0.0
 11
-27.504994168675637
 21
105.94983787677177
 31
0.0
  0
LINE
  5
51
100
AcDbEntity
  8
0
  6
CONTINUOUS
 62
               7
100
AcDbLine
 10
-30.504994168675637
 20
103.44983787677177
 30
0.0
 11
-30.504994168675637
 21
105.94983787677177
 31
0.0
  0
LINE
  5
52
100
AcDbEntity
  8
0
  6
CONTINUOUS
 62
               7
100
AcDbLine
 10
-51.494994168675646
 20
82.949837876771767
 30
0.0
 11
-56.494994168675632
 21
82.949837876771767
 31
0.0
  0
LINE
  5
53
100
AcDbEntity
  8
0
  6
CONTINUOUS
 62
               7
100
AcDbLine
 10
-51.494994168675646
 20
82.949837876771767
 30
0.0
 11
-51.494994168675646
 21
83.449837876771767
 31
0.0
  0
LINE
  5
54
100
AcDbEntity
  8
0
  6
CONTINUOUS
 62
               7
100
AcDbLine
 10
-56.494994168675632
 20
82.949837876771767
 30
0.0
 11
-56.494994168675632
 21
83.449837876771767
 31
0.0
  0
ARC
  5
55
100
AcDbEntity
  8
0
  6
CONTINUOUS
 62
               7
100
AcDbCircle
 10
-53.994994168675646
 20
82.949837876771767
 30
0.0
 40
2.4005916386238959
100
AcDbArc
 50
277.17897672497202
 51
0.0
  0
LINE
  5
56
100
AcDbEntity
  8
0
  6
CONTINUOUS
 62
               7
100
AcDbLine
 10
-53.694994168675635
 20
80.568065382298172
 30
0.0
 11
-53.694994168675635
 21
81.578324344608916
 31
0.0
  0
LINE
  5
57
100
AcDbEntity
  8
0
  6
CONTINUOUS
 62
               7
100
AcDbLine
 10
-54.294994168675629
 20
80.568065382298172
 30
0.0
 11
-54.294994168675629
 21
81.578324344608916
 31
0.0
  0
LINE
  5
58
100
AcDbEntity
  8
0
  6
CONTINUOUS
 62
               7
100
AcDbLine
 10
-54.294994168675629
 20
81.578324344608916
 30
0.0
 11
-53.694994168675635
 21
81.578324344608916
 31
0.0
  0
ARC
  5
59
100
AcDbEntity
  8
0
  6
CONTINUOUS
 62
               7
100
AcDbCircle
 10
-53.994994168675646
 20
82.949837876771767
 30
0.0
 40
2.4005916386238959
100
AcDbArc
 50
180.00000000000006
 51
262.82102327502804
  0
ARC
  5
5A
100
AcDbEntity
  8
0
  6
CONTINUOUS
 62
               7
100
AcDbCircle
 10
-29.004994168675637
 20
82.949837876771767
 30
0.0
 40
2.4005916386238959
100
AcDbArc
 50
277.17897672497202
 51
0.0
  0
LINE
  5
5B
100
AcDbEntity
  8
0
  6
CONTINUOUS
 62
               7
100
AcDbLine
 10
-28.704994168675654
 20
81.578324344608916
 30
0.0
 11
-29.304994168675648
 21
81.578324344608916
 31
0.0
  0
LINE
  5
5C
100
AcDbEntity
  8
0
  6
CONTINUOUS
 62
               7
100
AcDbLine
 10
-28.704994168675654
 20
80.568065382298172
 30
0.0
 11
-28.704994168675654
 21
81.578324344608916
 31
0.0
  0
LINE
  5
5D
100
AcDbEntity
  8
0
  6
CONTINUOUS
 62
               7
100
AcDbLine
 10
-29.304994168675648
 20
80.568065382298172
 30
0.0
 11
-29.304994168675648
 21
81.578324344608916
 31
0.0
  0
ARC
  5
5E
100
AcDbEntity
  8
0
  6
CONTINUOUS
 62
               7
100
AcDbCircle
 10
-29.004994168675637
 20
82.949837876771767
 30
0.0
 40
2.4005916386238959
100
AcDbArc
 50
180.0
 51
262.82102327502798
  0
LINE
  5
5F
100
AcDbEntity
  8
0
  6
CONTINUOUS
 62
               7
100
AcDbLine
 10
-26.504994168675637
 20
82.949837876771767
 30
0.0
 11
-26.504994168675637
 21
83.449837876771767
 31
0.0
  0
LINE
  5
60
100
AcDbEntity
  8
0
  6
CONTINUOUS
 62
               7
100
AcDbLine
 10
-31.504994168675637
 20
82.949837876771767
 30
0.0
 11
-31.504994168675637
 21
83.449837876771767
 31
0.0
  0
LINE
  5
61
100
AcDbEntity
  8
0
  6
CONTINUOUS
 62
               7
100
AcDbLine
 10
-31.504994168675637
 20
82.949837876771767
 30
0.0
 11
-26.504994168675637
 21
82.949837876771767
 31
0.0
  0
CIRCLE
  5
62
100
AcDbEntity
  8
0
  6
CONTINUOUS
 62
               7
100
AcDbCircle
 10
-35.43871990410932
 20
79.312847628107463
 30
0.0
 40
1.5
  0
LINE
  5
63
100
AcDbEntity
  8
0
  6
CONTINUOUS
 62
               7
100
AcDbLine
 10
-36.908413749779228
 20
79.012847628107465
 30
0.0
 11
-35.738719904109317
 21
79.012847628107465
 31
0.0
  0
LINE
  5
64
100
AcDbEntity
  8
0
  6
CONTINUOUS
 62
               7
100
AcDbLine
 10
-36.908413749779228
 20
79.61284762810746
 30
0.0
 11
-35.738719904109317
 21
79.61284762810746
 31
0.0
  0
LINE
  5
65
100
AcDbEntity
  8
0
  6
CONTINUOUS
 62
               7
100
AcDbLine
 10
-35.738719904109317
 20
80.160988403333363
 30
0.0
 11
-35.738719904109317
 21
79.61284762810746
 31
0.0
  0
LINE
  5
66
100
AcDbEntity
  8
0
  6
CONTINUOUS
 62
               7
100
AcDbLine
 10
-35.138719904109323
 20
80.160988403333363
 30
0.0
 11
-35.138719904109323
 21
79.61284762810746
 31
0.0
  0
LINE
  5
67
100
AcDbEntity
  8
0
  6
CONTINUOUS
 62
               7
100
AcDbLine
 10
-35.138719904109323
 20
79.012847628107465
 30
0.0
 11
-33.969026058439411
 21
79.012847628107465
 31
0.0
  0
LINE
  5
68
100
AcDbEntity
  8
0
  6
CONTINUOUS
 62
               7
100
AcDbLine
 10
-35.138719904109323
 20
79.61284762810746
 30
0.0
 11
-33.969026058439411
 21
79.61284762810746
 31
0.0
  0
LINE
  5
69
100
AcDbEntity
  8
0
  6
CONTINUOUS
 62
               7
100
AcDbLine
 10
-35.738719904109317
 20
79.012847628107465
 30
0.0
 11
-35.738719904109317
 21
78.40041006879413
 31
0.0
  0
LINE
  5
6A
100
AcDbEntity
  8
0
  6
CONTINUOUS
 62
               7
100
AcDbLine
 10
-35.138719904109323
 20
79.012847628107465
 30
0.0
 11
-35.138719904109323
 21
78.40041006879413
 31
0.0
  0
LINE
  5
6B
100
AcDbEntity
  8
0
  6
CONTINUOUS
 62
               7
100
AcDbLine
 10
-35.738719904109317
 20
78.40041006879413
 30
0.0
 11
-35.138719904109323
 21
78.40041006879413
 31
0.0
  0
LINE
  5
6C
100
AcDbEntity
  8
0
  6
CONTINUOUS
 62
               7
100
AcDbLine
 10
-35.738719904109317
 20
80.160988403333363
 30
0.0
 11
-35.138719904109323
 21
80.160988403333363
 31
0.0
  0
CIRCLE
  5
6D
100
AcDbEntity
  8
0
  6
CONTINUOUS
 62
               7
100
AcDbCircle
 10
-35.43871990410932
 20
79.312847628107463
 30
0.0
 40
2.5
  0
LINE
  5
6E
100
AcDbEntity
  8
0
  6
CONTINUOUS
 62
               7
100
AcDbLine
 10
-57.599994168675636
 20
102.44983787677177
 30
0.0
 11
-49.499994168675642
 21
102.44983787677177
 31
0.0
  0
LINE
  5
6F
100
AcDbEntity
  8
0
  6
CONTINUOUS
 62
               7
100
AcDbLine
 10
-51.099994168675636
 20
64.449837876771767
 30
0.0
 11
-31.899994168675647
 21
64.449837876771767
 31
0.0
  0
LINE
  5
70
100
AcDbEntity
  8
0
  6
CONTINUOUS
 62
               7
100
AcDbLine
 10
-49.499994168675642
 20
102.44983787677177
 30
0.0
 11
-49.499994168675642
 21
105.44983787677177
 31
0.0
  0
LINE
  5
71
100
AcDbEntity
  8
0
  6
CONTINUOUS
 62
               7
100
AcDbLine
 10
-33.499994168675642
 20
102.44983787677177
 30
0.0
 11
-33.499994168675642
 21
105.44983787677177
 31
0.0
  0
LINE
  5
72
100
AcDbEntity
  8
0
  6
CONTINUOUS
 62
               7
100
AcDbLine
 10
-48.999994168675642
 20
105.94983787677177
 30
0.0
 11
-33.999994168675642
 21
105.94983787677177
 31
0.0
  0
LINE
  5
73
100
AcDbEntity
  8
0
  6
CONTINUOUS
 62
               7
100
AcDbLine
 10
-33.499994168675642
 20
102.44983787677177
 30
0.0
 11
-25.399994168675647
 21
102.44983787677177
 31
0.0
  0
LINE
  5
74
100
AcDbEntity
  8
0
  6
CONTINUOUS
 62
               7
100
AcDbLine
 10
-33.499994168675642
 20
103.44983787677177
 30
0.0
 11
-25.899994168675647
 21
103.44983787677177
 31
0.0
  0
LINE
  5
75
100
AcDbEntity
  8
0
  6
CONTINUOUS
 62
               7
100
AcDbLine
 10
-33.499994168675642
 20
102.94983787677177
 30
0.0
 11
-25.899994168675647
 21
102.94983787677177
 31
0.0
  0
LINE
  5
76
100
AcDbEntity
  8
0
  6
CONTINUOUS
 62
               7
100
AcDbLine
 10
-57.099994168675636
 20
103.44983787677177
 30
0.0
 11
-49.499994168675642
 21
103.44983787677177
 31
0.0
  0
LINE
  5
77
100
AcDbEntity
  8
0
  6
CONTINUOUS
 62
               7
100
AcDbLine
 10
-57.099994168675636
 20
102.94983787677177
 30
0.0
 11
-49.499994168675642
 21
102.94983787677177
 31
0.0
  0
LINE
  5
78
100
AcDbEntity
  8
0
  6
CONTINUOUS
 62
               7
100
AcDbLine
 10
-30.504994168675637
 20
105.94983787677177
 30
0.0
 11
-27.504994168675637
 21
105.94983787677177
 31
0.0
  0
LINE
  5
79
100
AcDbEntity
  8
0
  6
CONTINUOUS
 62
               7
100
AcDbLine
 10
-52.494994168675646
 20
105.94983787677177
 30
0.0
 11
-55.494994168675646
 21
105.94983787677177
 31
0.0
  0
LINE
  5
7A
100
AcDbEntity
  8
0
  6
CONTINUOUS
 62
               7
100
AcDbLine
 10
-49.149994168675647
 20
105.94983787677177
 30
0.0
 11
-49.149994168675647
 21
109.04983787677176
 31
0.0
  0
LINE
  5
7B
100
AcDbEntity
  8
0
  6
CONTINUOUS
 62
               7
100
AcDbLine
 10
-33.849994168675643
 20
105.94983787677177
 30
0.0
 11
-33.849994168675643
 21
109.04983787677176
 31
0.0
  0
LINE
  5
7C
100
AcDbEntity
  8
0
  6
CONTINUOUS
 62
               7
100
AcDbLine
 10
-48.649994168675647
 20
109.54983787677176
 30
0.0
 11
-34.349994168675636
 21
109.54983787677176
 31
0.0
  0
ARC
  5
7D
100
AcDbEntity
  8
0
  6
CONTINUOUS
 62
               7
100
AcDbCircle
 10
-34.349994168675636
 20
109.04983787677176
 30
0.0
 40
0.5
100
AcDbArc
 50
0.0
 51
90.0
  0
ARC
  5
7E
100
AcDbEntity
  8
0
  6
CONTINUOUS
 62
               7
100
AcDbCircle
 10
-48.649994168675647
 20
109.04983787677176
 30
0.0
 40
0.5
100
AcDbArc
 50
90.0
 51
180.0
  0
ARC
  5
7F
100
AcDbEntity
  8
0
  6
CONTINUOUS
 62
               7
100
AcDbCircle
 10
-48.999994168675642
 20
105.44983787677177
 30
0.0
 40
0.5
100
AcDbArc
 50
90.0
 51
180.0
  0
ARC
  5
80
100
AcDbEntity
  8
0
  6
CONTINUOUS
 62
               7
100
AcDbCircle
 10
-33.999994168675642
 20
105.44983787677177
 30
0.0
 40
0.5
100
AcDbArc
 50
0.0
 51
90.0
  0
LINE
  5
81
100
AcDbEntity
  8
0
  6
CONTINUOUS
 62
               7
100
AcDbLine
 10
-25.899994168675647
 20
102.44983787677177
 30
0.0
 11
-25.899994168675647
 21
103.44983787677177
 31
0.0
  0
LINE
  5
82
100
AcDbEntity
  8
0
  6
CONTINUOUS
 62
               7
100
AcDbLine
 10
-57.099994168675636
 20
102.44983787677177
 30
0.0
 11
-57.099994168675636
 21
103.44983787677177
 31
0.0
  0
LINE
  5
83
100
AcDbEntity
  8
0
  6
CONTINUOUS
 62
               7
100
AcDbLine
 10
-39.499994168675642
 20
54.727395582647503
 30
0.0
 11
-39.499994168675642
 21
64.449837876771767
 31
0.0
  0
LINE
  5
84
100
AcDbEntity
  8
0
  6
CONTINUOUS
 62
               7
100
AcDbLine
 10
-43.499994168675642
 20
55.898566753818685
 30
0.0
 11
-43.499994168675642
 21
64.449837876771767
 31
0.0
  0
LINE
  5
85
100
AcDbEntity
  8
0
  6
CONTINUOUS
 62
               7
100
AcDbLine
 10
-53.999998092651367
 20
-37.000000953674316
 30
0.0
 11
54.0
 21
-37.000000953674316
 31
0.0
  0
LINE
  5
86
100
AcDbEntity
  8
0
  6
CONTINUOUS
 62
               7
100
AcDbLine
 10
57.0
 20
33.999999046325684
 30
0.0
 11
57.0
 21
-34.000000953674316
 31
0.0
  0
LINE
  5
87
100
AcDbEntity
  8
0
  6
CONTINUOUS
 62
               2
100
AcDbLine
 10
-65.41349972287486
 20
0.0
 30
0.0
 11
65.413511385523577
 21
0.0
 31
0.0
  0
LINE
  5
88
100
AcDbEntity
  8
0
  6
CONTINUOUS
 62
               7
100
AcDbLine
 10
60.000005831324358
 20
35.060237019074918
 30
0.0
 11
60.000005831324358
 21
-34.939762980925067
 31
0.0
  0
LINE
  5
89
100
AcDbEntity
  8
0
  6
CONTINUOUS
 62
               7
100
AcDbLine
 10
-54.999994168675642
 20
-39.939762980925067
 30
0.0
 11
57.413511385523577
 21
-39.939762980925067
 31
0.0
  0
LINE
  5
8A
100
AcDbEntity
  8
0
  6
CONTINUOUS
 62
               7
100
AcDbLine
 10
62.413511385523577
 20
35.846354572785856
 30
0.0
 11
62.413511385523577
 21
-35.725880534636005
 31
0.0
  0
LINE
  5
8B
100
AcDbEntity
  8
0
  6
CONTINUOUS
 62
               7
100
AcDbLine
 10
-57.41349972287486
 20
-40.725880534636005
 30
0.0
 11
57.413511385523577
 21
-40.725880534636005
 31
0.0
  0
SPLINE
  5
8C
100
AcDbEntity
  8
0
  6
CONTINUOUS
 62
               7
100
AcDbSpline
210
0.0
220
0.0
230
1.0
 70
               0
 71
               3
 72
               0
 73
               0
 74
              10
 44
0.000001
 12
1.0
 22
0.0
 32
0.0
 13
0.0000000000000001
 23
1.0
 33
0.0
 11
57.413511166966629
 21
-40.725880534636005
 31
0.0
 11
58.281752082536826
 21
-40.649919333432166
 31
0.0
 11
59.123611942414755
 21
-40.424343696705122
 31
0.0
 11
59.913511259339657
 21
-40.056007626410512
 31
0.0
 11
60.627449340942746
 21
-39.556102828278505
 31
0.0
 11
61.243733538680374
 21
-38.93981865747952
 31
0.0
 11
61.743638368019617
 21
-38.225880597727965
 31
0.0
 11
62.111974472841808
 21
-37.435981296903542
 31
0.0
 11
62.337550146367732
 21
-36.594121446885836
 31
0.0
 11
62.413511385523577
 21
-35.725880534636005
 31
0.0
  0
SPLINE
  5
8D
100
AcDbEntity
  8
0
  6
CONTINUOUS
 62
               7
100
AcDbSpline
210
0.0
220
0.0
230
1.0
 70
               0
 71
               3
 72
               0
 73
               0
 74
              10
 44
0.000001
 12
1.0
 22
0.0
 32
0.0
 13
0.0000000000000001
 23
1.0
 33
0.0
 11
55.00000561276741
 21
-39.939762980925067
 31
0.0
 11
55.868246528337608
 21
-39.863801779721229
 31
0.0
 11
56.710106388215536
 21
-39.638226142994185
 31
0.0
 11
57.500005705140438
 21
-39.269890072699575
 31
0.0
 11
58.213943786743528
 21
-38.769985274567567
 31
0.0
 11
58.830227984481155
 21
-38.153701103768583
 31
0.0
 11
59.330132813820398
 21
-37.439763044017027
 31
0.0
 11
59.69846891864259
 21
-36.649863743192604
 31
0.0
 11
59.924044592168514
 21
-35.808003893174899
 31
0.0
 11
60.000005831324358
 21
-34.939762980925067
 31
0.0
  0
MTEXT
  5
8E
100
AcDbEntity
  8
0
  6
CONTINUOUS
 62
               7
100
AcDbMText
 10
-2.9487183265466208
 20
-30.497409853912131
 30
0.0
 40
3.5
 41
0.0
 71
               4
 72
               1
  1
\W1.094;\A1;\LDTRB Teaching Box\l
  0
ARC
  5
8F
100
AcDbEntity
  8
0
  6
CONTINUOUS
 62
               7
100
AcDbCircle
 10
46.552931732471961
 20
-18.308080271340863
 30
0.0
 40
2.0
100
AcDbArc
 50
270.0
 51
0.0
  0
ARC
  5
90
100
AcDbEntity
  8
0
  6
CONTINUOUS
 62
               7
100
AcDbCircle
 10
44.552931732471961
 20
-16.308080271340863
 30
0.0
 40
1.0
100
AcDbArc
 50
270.0
 51
0.0
  0
LINE
  5
91
100
AcDbEntity
  8
0
  6
CONTINUOUS
 62
               7
100
AcDbLine
 10
40.163444503118114
 20
-20.308080271340863
 30
0.0
 11
40.163444503118114
 21
-21.308080271340863
 31
0.0
  0
LINE
  5
92
100
AcDbEntity
  8
0
  6
CONTINUOUS
 62
               7
100
AcDbLine
 10
40.163444503118114
 20
-16.308080271340863
 30
0.0
 11
37.663444503118114
 21
-18.808080271340863
 31
0.0
  0
LINE
  5
93
100
AcDbEntity
  8
0
  6
CONTINUOUS
 62
               7
100
AcDbLine
 10
40.163444503118114
 20
-21.308080271340863
 30
0.0
 11
37.663444503118114
 21
-18.808080271340863
 31
0.0
  0
LINE
  5
94
100
AcDbEntity
  8
0
  6
CONTINUOUS
 62
               7
100
AcDbLine
 10
40.163444503118114
 20
-16.308080271340863
 30
0.0
 11
40.163444503118114
 21
-17.308080271340863
 31
0.0
  0
LINE
  5
95
100
AcDbEntity
  8
0
  6
CONTINUOUS
 62
               7
100
AcDbLine
 10
44.552931732471961
 20
-17.308080271340863
 30
0.0
 11
40.163444503118114
 21
-17.308080271340863
 31
0.0
  0
LINE
  5
96
100
AcDbEntity
  8
0
  6
CONTINUOUS
 62
               7
100
AcDbLine
 10
45.552931732471961
 20
-12.808022920170668
 30
0.0
 11
45.552931732471961
 21
-16.308080271340863
 31
0.0
  0
LINE
  5
97
100
AcDbEntity
  8
0
  6
CONTINUOUS
 62
               7
100
AcDbLine
 10
46.552931732471961
 20
-20.308080271340863
 30
0.0
 11
40.163444503118114
 21
-20.308080271340863
 31
0.0
  0
LINE
  5
98
100
AcDbEntity
  8
0
  6
CONTINUOUS
 62
               7
100
AcDbLine
 10
48.552931732471961
 20
-12.808022920170668
 30
0.0
 11
48.552931732471961
 21
-18.308080271340863
 31
0.0
  0
LINE
  5
99
100
AcDbEntity
  8
0
  6
CONTINUOUS
 62
               7
100
AcDbLine
 10
45.552931732471961
 20
-12.808022920170668
 30
0.0
 11
48.552931732471961
 21
-12.808022920170668
 31
0.0
  0
MTEXT
  5
9A
100
AcDbEntity
  8
0
  6
CONTINUOUS
 62
               7
100
AcDbMText
 10
18.666666666666668
 20
-17.000000953674316
 30
0.0
 40
4.0
 41
0.0
 71
               4
 72
               1
  1
\A1;Esc
  0
MTEXT
  5
9B
100
AcDbEntity
  8
0
  6
CONTINUOUS
 62
               7
100
AcDbMText
 10
36.0357148369052
 20
-5.0
 30
0.0
 40
2.9999997615814209
 41
0.0
 71
               4
 72
               1
  1
\W1.071;\A1;SHIFT
  0
ARC
  5
9C
100
AcDbEntity
  8
0
  6
CONTINUOUS
 62
               7
100
AcDbCircle
 10
54.0
 20
-34.000000953674316
 30
0.0
 40
3.0
100
AcDbArc
 50
269.99999749552182
 51
0.0
  0
ARC
  5
9D
100
AcDbEntity
  8
0
  6
CONTINUOUS
 62
               7
100
AcDbCircle
 10
19.0
 20
-20.000000953674316
 30
0.0
 40
2.0
100
AcDbArc
 50
179.99999499104368
 51
269.99999749552182
  0
ARC
  5
9E
100
AcDbEntity
  8
0
  6
CONTINUOUS
 62
               7
100
AcDbCircle
 10
29.0
 20
-14.000000953674316
 30
0.0
 40
2.0
100
AcDbArc
 50
0.0
 51
90.000002504478161
  0
ARC
  5
9F
100
AcDbEntity
  8
0
  6
CONTINUOUS
 62
               7
100
AcDbCircle
 10
29.0
 20
-20.000000953674316
 30
0.0
 40
2.0
100
AcDbArc
 50
269.99999749552182
 51
0.0
  0
ARC
  5
A0
100
AcDbEntity
  8
0
  6
CONTINUOUS
 62
               7
100
AcDbCircle
 10
19.0
 20
-14.000000953674316
 30
0.0
 40
2.0
100
AcDbArc
 50
90.000002504478161
 51
180.00000500895632
  0
ARC
  5
A1
100
AcDbEntity
  8
0
  6
CONTINUOUS
 62
               7
100
AcDbCircle
 10
48.0
 20
-20.000000953674316
 30
0.0
 40
2.0
100
AcDbArc
 50
269.99999749552182
 51
0.0
  0
ARC
  5
A2
100
AcDbEntity
  8
0
  6
CONTINUOUS
 62
               7
100
AcDbCircle
 10
38.0
 20
-8.0000009536743164
 30
0.0
 40
2.0
100
AcDbArc
 50
179.99999499104368
 51
269.99999749552182
  0
ARC
  5
A3
100
AcDbEntity
  8
0
  6
CONTINUOUS
 62
               7
100
AcDbCircle
 10
48.0
 20
-8.0000009536743164
 30
0.0
 40
2.0
100
AcDbArc
 50
269.99999749552182
 51
0.0
  0
ARC
  5
A4
100
AcDbEntity
  8
0
  6
CONTINUOUS
 62
               7
100
AcDbCircle
 10
38.0
 20
-20.000000953674316
 30
0.0
 40
2.0
100
AcDbArc
 50
179.99999499104368
 51
269.99999749552182
  0
ARC
  5
A5
100
AcDbEntity
  8
0
  6
CONTINUOUS
 62
               7
100
AcDbCircle
 10
48.0
 20
-14.000000953674316
 30
0.0
 40
2.0
100
AcDbArc
 50
0.0
 51
90.000002504478161
  0
ARC
  5
A6
100
AcDbEntity
  8
0
  6
CONTINUOUS
 62
               7
100
AcDbCircle
 10
38.0
 20
-2.0
 30
0.0
 40
2.0
100
AcDbArc
 50
90.000002504478161
 51
180.00000500895632
  0
ARC
  5
A7
100
AcDbEntity
  8
0
  6
CONTINUOUS
 62
               7
100
AcDbCircle
 10
48.0
 20
-2.0
 30
0.0
 40
2.0
100
AcDbArc
 50
0.0
 51
90.000002504478161
  0
ARC
  5
A8
100
AcDbEntity
  8
0
  6
CONTINUOUS
 62
               7
100
AcDbCircle
 10
38.0
 20
-14.000000953674316
 30
0.0
 40
2.0
100
AcDbArc
 50
90.000002504478161
 51
180.00000500895632
  0
LINE
  5
A9
100
AcDbEntity
  8
0
  6
CONTINUOUS
 62
               7
100
AcDbLine
 10
17.0
 20
-14.000000953674316
 30
0.0
 11
17.0
 21
-20.000000953674316
 31
0.0
  0
LINE
  5
AA
100
AcDbEntity
  8
0
  6
CONTINUOUS
 62
               7
100
AcDbLine
 10
31.0
 20
-14.000000953674316
 30
0.0
 11
31.0
 21
-20.000000953674316
 31
0.0
  0
LINE
  5
AB
100
AcDbEntity
  8
0
  6
CONTINUOUS
 62
               7
100
AcDbLine
 10
19.0
 20
-22.000000953674316
 30
0.0
 11
29.0
 21
-22.000000953674316
 31
0.0
  0
LINE
  5
AC
100
AcDbEntity
  8
0
  6
CONTINUOUS
 62
               7
100
AcDbLine
 10
19.0
 20
-12.000000953674316
 30
0.0
 11
29.0
 21
-12.000000953674316
 31
0.0
  0
LINE
  5
AD
100
AcDbEntity
  8
0
  6
CONTINUOUS
 62
               7
100
AcDbLine
 10
36.0
 20
-14.000000953674316
 30
0.0
 11
36.0
 21
-20.000000953674316
 31
0.0
  0
LINE
  5
AE
100
AcDbEntity
  8
0
  6
CONTINUOUS
 62
               7
100
AcDbLine
 10
36.0
 20
-2.0
 30
0.0
 11
36.0
 21
-8.0000009536743164
 31
0.0
  0
LINE
  5
AF
100
AcDbEntity
  8
0
  6
CONTINUOUS
 62
               7
100
AcDbLine
 10
38.0
 20
0.0
 30
0.0
 11
48.0
 21
0.0
 31
0.0
  0
LINE
  5
B0
100
AcDbEntity
  8
0
  6
CONTINUOUS
 62
               7
100
AcDbLine
 10
38.0
 20
-12.000000953674316
 30
0.0
 11
48.0
 21
-12.000000953674316
 31
0.0
  0
LINE
  5
B1
100
AcDbEntity
  8
0
  6
CONTINUOUS
 62
               7
100
AcDbLine
 10
50.0
 20
-14.000000953674316
 30
0.0
 11
50.0
 21
-20.000000953674316
 31
0.0
  0
LINE
  5
B2
100
AcDbEntity
  8
0
  6
CONTINUOUS
 62
               7
100
AcDbLine
 10
50.0
 20
-2.0
 30
0.0
 11
50.0
 21
-8.0000009536743164
 31
0.0
  0
LINE
  5
B3
100
AcDbEntity
  8
0
  6
CONTINUOUS
 62
               7
100
AcDbLine
 10
38.0
 20
-10.000000953674316
 30
0.0
 11
48.0
 21
-10.000000953674316
 31
0.0
  0
LINE
  5
B4
100
AcDbEntity
  8
0
  6
CONTINUOUS
 62
               7
100
AcDbLine
 10
38.0
 20
-22.000000953674316
 30
0.0
 11
48.0
 21
-22.000000953674316
 31
0.0
  0
SPLINE
  5
B5
100
AcDbEntity
  8
0
  6
CONTINUOUS
 62
               7
100
AcDbSpline
210
0.0
220
0.0
230
1.0
 70
               0
 71
               3
 72
               0
 73
               0
 74
              10
 44
0.000001
 12
0.0000000000000001
 22
1.0
 32
0.0
 13
-1.0
 23
0.0000000000000001
 33
0.0
 11
62.413511385523577
 21
35.846354572785856
 31
0.0
 11
62.337550146367732
 21
36.714595485035716
 31
0.0
 11
62.111974472841808
 21
37.556455335053386
 31
0.0
 11
61.743638368019617
 21
38.346354635877844
 31
0.0
 11
61.243733538680374
 21
39.060292695629386
 31
0.0
 11
60.627449340942746
 21
39.676576866428377
 31
0.0
 11
59.913511259339657
 21
40.176481664560356
 31
0.0
 11
59.123611942414755
 21
40.544817734854973
 31
0.0
 11
58.281752082536826
 21
40.770393371582031
 31
0.0
 11
57.413511166966629
 21
40.846354572785856
 31
0.0
  0
SPLINE
  5
B6
100
AcDbEntity
  8
0
  6
CONTINUOUS
 62
               7
100
AcDbSpline
210
0.0
220
0.0
230
1.0
 70
               0
 71
               3
 72
               0
 73
               0
 74
              10
 44
0.000001
 12
-1.0
 22
0.0000000000000001
 32
0.0
 13
0.0000000000000001
 23
-1.0
 33
0.0
 11
-57.413499941431809
 21
40.846354572785856
 31
0.0
 11
-58.281740850361274
 21
40.770393295677991
 31
0.0
 11
-59.123600690518742
 21
40.544817585353201
 31
0.0
 11
-59.913499975242672
 21
40.176481446003436
 31
0.0
 11
-60.627438013142722
 21
39.676576585456985
 31
0.0
 11
-61.243722157003049
 21
39.060292360780693
 31
0.0
 11
-61.743626923927849
 21
38.346354257326084
 31
0.0
 11
-62.111962959694836
 21
37.556454924300681
 31
0.0
 11
-62.337538559623027
 21
36.714595054562551
 31
0.0
 11
-62.413499722874832
 21
35.846354135671959
 31
0.0
  0
SPLINE
  5
B7
100
AcDbEntity
  8
0
  6
CONTINUOUS
 62
               7
100
AcDbSpline
210
0.0
220
0.0
230
1.0
 70
               0
 71
               3
 72
               0
 73
               0
 74
              10
 44
0.000001
 12
0.0000000000000001
 22
-1.0
 32
0.0
 13
1.0
 23
0.0
 33
0.0
 11
-62.413499722874832
 21
-35.725880097522108
 31
0.0
 11
-62.337538559623027
 21
-36.594121016412672
 31
0.0
 11
-62.111962959694836
 21
-37.43598088615083
 31
0.0
 11
-61.743626923927849
 21
-38.225880219176211
 31
0.0
 11
-61.243722157003049
 21
-38.939818322630835
 31
0.0
 11
-60.627438013142722
 21
-39.556102547307098
 31
0.0
 11
-59.913499975242672
 21
-40.056007407853556
 31
0.0
 11
-59.123600690518742
 21
-40.42434354720335
 31
0.0
 11
-58.281740850361274
 21
-40.649919257528133
 31
0.0
 11
-57.413499941431809
 21
-40.725880534636005
 31
0.0
  0
SPLINE
  5
B8
100
AcDbEntity
  8
0
  6
CONTINUOUS
 62
               7
100
AcDbSpline
210
0.0
220
0.0
230
1.0
 70
               0
 71
               3
 72
               0
 73
               0
 74
              10
 44
0.000001
 12
0.0000000000000001
 22
1.0
 32
0.0
 13
-1.0
 23
-0.0000000000000001
 33
0.0
 11
60.000005831324358
 21
35.060237019074918
 31
0.0
 11
59.924044592168514
 21
35.928477931324778
 31
0.0
 11
59.69846891864259
 21
36.770337781342448
 31
0.0
 11
59.330132813820398
 21
37.560237082166907
 31
0.0
 11
58.830227984481155
 21
38.274175141918448
 31
0.0
 11
58.213943786743528
 21
38.890459312717439
 31
0.0
 11
57.500005705140438
 21
39.390364110849418
 31
0.0
 11
56.710106388215536
 21
39.758700181144036
 31
0.0
 11
55.868246528337608
 21
39.984275817871094
 31
0.0
 11
55.00000561276741
 21
40.060237019074918
 31
0.0
  0
SPLINE
  5
B9
100
AcDbEntity
  8
0
  6
CONTINUOUS
 62
               7
100
AcDbSpline
210
0.0
220
0.0
230
1.0
 70
               0
 71
               3
 72
               0
 73
               0
 74
              10
 44
0.000001
 12
0.0000000000000001
 22
-1.0
 32
0.0
 13
1.0
 23
0.0
 33
0.0
 11
-59.999994168675613
 21
-34.93976254381117
 31
0.0
 11
-59.924033005423809
 21
-35.808003462701734
 31
0.0
 11
-59.698457405495617
 21
-36.649863332439892
 31
0.0
 11
-59.33012136972863
 21
-37.439762665465274
 31
0.0
 11
-58.83021660280383
 21
-38.153700768919897
 31
0.0
 11
-58.213932458943503
 21
-38.769984993596161
 31
0.0
 11
-57.499994421043453
 21
-39.269889854142619
 31
0.0
 11
-56.710095136319524
 21
-39.638225993492412
 31
0.0
 11
-55.868235296162055
 21
-39.863801703817195
 31
0.0
 11
-54.99999438723259
 21
-39.939762980925067
 31
0.0
  0
SPLINE
  5
BA
100
AcDbEntity
  8
0
  6
CONTINUOUS
 62
               7
100
AcDbSpline
210
0.0
220
0.0
230
1.0
 70
               0
 71
               3
 72
               0
 73
               0
 74
              10
 44
0.000001
 12
-1.0
 22
0.0000000000000001
 32
0.0
 13
0.0000000000000001
 23
-1.0
 33
0.0
 11
-54.99999438723259
 21
40.060237019074918
 31
0.0
 11
-55.868235296162055
 21
39.984275741967053
 31
0.0
 11
-56.710095136319524
 21
39.758700031642263
 31
0.0
 11
-57.499994421043453
 21
39.390363892292498
 31
0.0
 11
-58.213932458943503
 21
38.890459031746047
 31
0.0
 11
-58.83021660280383
 21
38.274174807069755
 31
0.0
 11
-59.33012136972863
 21
37.560236703615146
 31
0.0
 11
-59.698457405495617
 21
36.770337370589743
 31
0.0
 11
-59.924033005423809
 21
35.928477500851614
 31
0.0
 11
-59.999994168675613
 21
35.060236581961021
 31
0.0
  0
LINE
  5
BB
100
AcDbEntity
  8
0
  6
CONTINUOUS
 62
               7
100
AcDbLine
 10
-57.41349972287486
 20
40.846354572785856
 30
0.0
 11
57.413511385523577
 21
40.846354572785856
 31
0.0
  0
LINE
  5
BC
100
AcDbEntity
  8
0
  6
CONTINUOUS
 62
               7
100
AcDbLine
 10
-62.41349972287486
 20
35.846354572785856
 30
0.0
 11
-62.41349972287486
 21
-35.725880534636005
 31
0.0
  0
LINE
  5
BD
100
AcDbEntity
  8
0
  6
CONTINUOUS
 62
               7
100
AcDbLine
 10
-59.999994168675642
 20
35.060237019074918
 30
0.0
 11
-59.999994168675642
 21
-34.939762980925067
 31
0.0
  0
LINE
  5
BE
100
AcDbEntity
  8
0
  6
CONTINUOUS
 62
               7
100
AcDbLine
 10
-54.999994168675642
 20
40.060237019074918
 30
0.0
 11
55.000005831324358
 21
40.060237019074918
 31
0.0
  0
LINE
  5
BF
100
AcDbEntity
  8
0
  6
CONTINUOUS
 62
               7
100
AcDbLine
 10
-54.387999008182533
 20
25.0629369003791
 30
0.0
 11
-54.387999008182533
 21
21.812937138797679
 31
0.0
  0
LINE
  5
C0
100
AcDbEntity
  8
0
  6
CONTINUOUS
 62
               7
100
AcDbLine
 10
-42.387999008182533
 20
25.0629369003791
 30
0.0
 11
-42.387999008182533
 21
21.812937138797679
 31
0.0
  0
LINE
  5
C1
100
AcDbEntity
  8
0
  6
CONTINUOUS
 62
               7
100
AcDbLine
 10
-54.387999008182533
 20
25.0629369003791
 30
0.0
 11
-42.387999008182533
 21
25.0629369003791
 31
0.0
  0
LINE
  5
C2
100
AcDbEntity
  8
0
  6
CONTINUOUS
 62
               7
100
AcDbLine
 10
-54.387999008182533
 20
21.812937138797679
 30
0.0
 11
-42.387999008182533
 21
21.812937138797679
 31
0.0
  0
MTEXT
  5
C3
100
AcDbEntity
  8
0
  6
CONTINUOUS
 62
               7
100
AcDbMText
 10
-53.075499010510839
 20
23.437937019588389
 30
0.0
 40
2.0
 41
0.0
 71
               4
 72
               1
  1
\W0.937;\A1;POWER
  0
MTEXT
  5
C4
100
AcDbEntity
  8
0
  6
CONTINUOUS
 62
               7
100
AcDbMText
 10
39.666666666666664
 20
22.0
 30
0.0
 40
4.0
 41
0.0
 71
               4
 72
               1
  1
\A1;EMG
  0
LINE
  5
C5
100
AcDbEntity
  8
0
  6
CONTINUOUS
 62
               7
100
AcDbLine
 10
-32.000000289607442
 20
-21.499998756718277
 30
0.0
 11
-32.000000289607442
 21
-14.499998756718277
 31
0.0
  0
LINE
  5
C6
100
AcDbEntity
  8
0
  6
CONTINUOUS
 62
               7
100
AcDbLine
 10
-24.499999335933126
 20
-17.999998756718277
 30
0.0
 11
-32.000000289607442
 21
-14.499998756718277
 31
0.0
  0
LINE
  5
C7
100
AcDbEntity
  8
0
  6
CONTINUOUS
 62
               7
100
AcDbLine
 10
-24.499999335933126
 20
-17.999998756718277
 30
0.0
 11
-32.000000289607442
 21
-21.499998756718277
 31
0.0
  0
LINE
  5
C8
100
AcDbEntity
  8
0
  6
CONTINUOUS
 62
               7
100
AcDbLine
 10
-41.499998092651367
 20
-23.999996559762238
 30
0.0
 11
-34.499998092651424
 21
-23.999996559762238
 31
0.0
  0
LINE
  5
C9
100
AcDbEntity
  8
0
  6
CONTINUOUS
 62
               7
100
AcDbLine
 10
-37.999998092651424
 20
-31.499997513436554
 30
0.0
 11
-34.499998092651424
 21
-23.999996559762238
 31
0.0
  0
LINE
  5
CA
100
AcDbEntity
  8
0
  6
CONTINUOUS
 62
               7
100
AcDbLine
 10
-37.999998092651424
 20
-31.499997513436554
 30
0.0
 11
-41.499998092651367
 21
-23.999996559762238
 31
0.0
  0
LINE
  5
CB
100
AcDbEntity
  8
0
  6
CONTINUOUS
 62
               7
100
AcDbLine
 10
-43.999995895695349
 20
-14.499998756718277
 30
0.0
 11
-43.999995895695349
 21
-21.499998756718277
 31
0.0
  0
LINE
  5
CC
100
AcDbEntity
  8
0
  6
CONTINUOUS
 62
               7
100
AcDbLine
 10
-51.499996849369666
 20
-17.999998756718277
 30
0.0
 11
-43.999995895695349
 21
-21.499998756718277
 31
0.0
  0
LINE
  5
CD
100
AcDbEntity
  8
0
  6
CONTINUOUS
 62
               7
100
AcDbLine
 10
-51.499996849369666
 20
-17.999998756718277
 30
0.0
 11
-43.999995895695349
 21
-14.499998756718277
 31
0.0
  0
LINE
  5
CE
100
AcDbEntity
  8
0
  6
CONTINUOUS
 62
               7
100
AcDbLine
 10
-37.999998092651367
 20
-4.5
 30
0.0
 11
-34.499998092651367
 21
-12.000000953674316
 31
0.0
  0
LINE
  5
CF
100
AcDbEntity
  8
0
  6
CONTINUOUS
 62
               7
100
AcDbLine
 10
-37.999998092651367
 20
-4.5
 30
0.0
 11
-41.499998092651367
 21
-12.000000953674316
 31
0.0
  0
LINE
  5
D0
100
AcDbEntity
  8
0
  6
CONTINUOUS
 62
               7
100
AcDbLine
 10
-34.499998092651367
 20
-12.000000953674316
 30
0.0
 11
-41.499998092651367
 21
-12.000000953674316
 31
0.0
  0
MTEXT
  5
D1
100
AcDbEntity
  8
0
  6
CONTINUOUS
 62
               7
100
AcDbMText
 10
33.666666666666664
 20
32.749999046325684
 30
0.0
 40
4.0
 41
0.0
 71
               4
 72
               1
  1
\A1;DTRBTB
  0
MTEXT
  5
D2
100
AcDbEntity
  8
0
  6
CONTINUOUS
 62
               7
100
AcDbMText
 10
-19.950000003129244
 20
33.749999046325684
 30
0.0
 40
6.0
 41
0.0
 71
               4
 72
               1
  1
\W1.050;\A1;KOGANEI
  0
LINE
  5
D3
100
AcDbEntity
  8
0
  6
CONTINUOUS
 62
               7
100
AcDbLine
 10
-56.999998092651367
 20
1.9999990463256836
 30
0.0
 11
57.0
 21
1.9999990463256836
 31
0.0
  0
LINE
  5
D4
100
AcDbEntity
  8
0
  6
CONTINUOUS
 62
               7
100
AcDbLine
 10
-56.999998092651367
 20
30.499999046325684
 30
0.0
 11
57.0
 21
30.499999046325684
 31
0.0
  0
CIRCLE
  5
D5
100
AcDbEntity
  8
0
  6
CONTINUOUS
 62
               7
100
AcDbCircle
 10
45.0
 20
22.0
 30
0.0
 40
7.5
  0
ARC
  5
D6
100
AcDbEntity
  8
0
  6
CONTINUOUS
 62
               7
100
AcDbCircle
 10
54.0
 20
33.999999046325684
 30
0.0
 40
3.0
100
AcDbArc
 50
0.0
 51
90.000002504478161
  0
ARC
  5
D7
100
AcDbEntity
  8
0
  6
CONTINUOUS
 62
               7
100
AcDbCircle
 10
-53.999998092651367
 20
33.999999046325684
 30
0.0
 40
3.0
100
AcDbArc
 50
90.000002504478161
 51
180.00000500895632
  0
ARC
  5
D8
100
AcDbEntity
  8
0
  6
CONTINUOUS
 62
               7
100
AcDbCircle
 10
-53.999998092651367
 20
-34.000000953674316
 30
0.0
 40
3.0
100
AcDbArc
 50
179.99999499104368
 51
269.99999749552182
  0
ARC
  5
D9
100
AcDbEntity
  8
0
  6
CONTINUOUS
 62
               7
100
AcDbCircle
 10
-40.999998092651367
 20
-31.000000953674316
 30
0.0
 40
1.0
100
AcDbArc
 50
179.99999499104368
 51
269.99999749552182
  0
ARC
  5
DA
100
AcDbEntity
  8
0
  6
CONTINUOUS
 62
               7
100
AcDbCircle
 10
-43.999998092651367
 20
-21.000000953674316
 30
0.0
 40
1.0
100
AcDbArc
 50
269.99999749552182
 51
0.0
  0
ARC
  5
DB
100
AcDbEntity
  8
0
  6
CONTINUOUS
 62
               7
100
AcDbCircle
 10
-34.999998092651367
 20
-24.000000953674316
 30
0.0
 40
1.0
100
AcDbArc
 50
0.0
 51
90.000002504478161
  0
ARC
  5
DC
100
AcDbEntity
  8
0
  6
CONTINUOUS
 62
               7
100
AcDbCircle
 10
-40.999998092651367
 20
-24.000000953674316
 30
0.0
 40
1.0
100
AcDbArc
 50
90.000002504478161
 51
180.00000500895632
  0
ARC
  5
DD
100
AcDbEntity
  8
0
  6
CONTINUOUS
 62
               7
100
AcDbCircle
 10
-34.999998092651367
 20
-31.000000953674316
 30
0.0
 40
1.0
100
AcDbArc
 50
269.99999749552182
 51
0.0
  0
ARC
  5
DE
100
AcDbEntity
  8
0
  6
CONTINUOUS
 62
               7
100
AcDbCircle
 10
-50.999998092651367
 20
-21.000000953674316
 30
0.0
 40
1.0
100
AcDbArc
 50
179.99999499104368
 51
269.99999749552182
  0
ARC
  5
DF
100
AcDbEntity
  8
0
  6
CONTINUOUS
 62
               7
100
AcDbCircle
 10
-50.999998092651367
 20
-15.000000953674316
 30
0.0
 40
1.0
100
AcDbArc
 50
90.000002504478161
 51
180.00000500895632
  0
ARC
  5
E0
100
AcDbEntity
  8
0
  6
CONTINUOUS
 62
               7
100
AcDbCircle
 10
-43.999998092651367
 20
-15.000000953674316
 30
0.0
 40
1.0
100
AcDbArc
 50
0.0
 51
90.000002504478161
  0
ARC
  5
E1
100
AcDbEntity
  8
0
  6
CONTINUOUS
 62
               7
100
AcDbCircle
 10
-40.999998092651367
 20
-12.000000953674316
 30
0.0
 40
1.0
100
AcDbArc
 50
179.99999499104368
 51
269.99999749552182
  0
ARC
  5
E2
100
AcDbEntity
  8
0
  6
CONTINUOUS
 62
               7
100
AcDbCircle
 10
-40.999998092651367
 20
-5.0
 30
0.0
 40
1.0
100
AcDbArc
 50
90.000002504478161
 51
180.00000500895632
  0
ARC
  5
E3
100
AcDbEntity
  8
0
  6
CONTINUOUS
 62
               7
100
AcDbCircle
 10
-34.999998092651367
 20
-5.0
 30
0.0
 40
1.0
100
AcDbArc
 50
0.0
 51
90.000002504478161
  0
ARC
  5
E4
100
AcDbEntity
  8
0
  6
CONTINUOUS
 62
               7
100
AcDbCircle
 10
-34.999998092651367
 20
-12.000000953674316
 30
0.0
 40
1.0
100
AcDbArc
 50
269.99999749552182
 51
0.0
  0
ARC
  5
E5
100
AcDbEntity
  8
0
  6
CONTINUOUS
 62
               7
100
AcDbCircle
 10
-25.0
 20
-21.000000953674316
 30
0.0
 40
1.0
100
AcDbArc
 50
269.99999749552182
 51
0.0
  0
ARC
  5
E6
100
AcDbEntity
  8
0
  6
CONTINUOUS
 62
               7
100
AcDbCircle
 10
-31.999998092651367
 20
-15.000000953674316
 30
0.0
 40
1.0
100
AcDbArc
 50
90.000002504478161
 51
180.00000500895632
  0
ARC
  5
E7
100
AcDbEntity
  8
0
  6
CONTINUOUS
 62
               7
100
AcDbCircle
 10
-25.0
 20
-15.000000953674316
 30
0.0
 40
1.0
100
AcDbArc
 50
0.0
 51
90.000002504478161
  0
ARC
  5
E8
100
AcDbEntity
  8
0
  6
CONTINUOUS
 62
               7
100
AcDbCircle
 10
-31.999998092651367
 20
-21.000000953674316
 30
0.0
 40
1.0
100
AcDbArc
 50
179.99999499104368
 51
269.99999749552182
  0
LINE
  5
E9
100
AcDbEntity
  8
0
  6
CONTINUOUS
 62
               7
100
AcDbLine
 10
-46.499998092651367
 20
28.300000190734863
 30
0.0
 11
-46.499998092651367
 21
26.699999809265137
 31
0.0
  0
LINE
  5
EA
100
AcDbEntity
  8
0
  6
CONTINUOUS
 62
               7
100
AcDbLine
 10
-50.499998092651367
 20
28.300000190734863
 30
0.0
 11
-50.499998092651367
 21
26.699999809265137
 31
0.0
  0
LINE
  5
EB
100
AcDbEntity
  8
0
  6
CONTINUOUS
 62
               7
100
AcDbLine
 10
-50.499998092651367
 20
26.699999809265137
 30
0.0
 11
-46.499998092651367
 21
26.699999809265137
 31
0.0
  0
LINE
  5
EC
100
AcDbEntity
  8
0
  6
CONTINUOUS
 62
               7
100
AcDbLine
 10
-43.999998092651367
 20
-22.000000953674316
 30
0.0
 11
-50.999998092651367
 21
-22.000000953674316
 31
0.0
  0
LINE
  5
ED
100
AcDbEntity
  8
0
  6
CONTINUOUS
 62
               7
100
AcDbLine
 10
-41.999998092651367
 20
-24.000000953674316
 30
0.0
 11
-41.999998092651367
 21
-31.000000953674316
 31
0.0
  0
LINE
  5
EE
100
AcDbEntity
  8
0
  6
CONTINUOUS
 62
               7
100
AcDbLine
 10
-33.999998092651367
 20
-24.000000953674316
 30
0.0
 11
-33.999998092651367
 21
-31.000000953674316
 31
0.0
  0
LINE
  5
EF
100
AcDbEntity
  8
0
  6
CONTINUOUS
 62
               7
100
AcDbLine
 10
-43.999998092651367
 20
-14.000000953674316
 30
0.0
 11
-50.999998092651367
 21
-14.000000953674316
 31
0.0
  0
LINE
  5
F0
100
AcDbEntity
  8
0
  6
CONTINUOUS
 62
               7
100
AcDbLine
 10
-34.999998092651367
 20
-23.000000953674316
 30
0.0
 11
-40.999998092651367
 21
-23.000000953674316
 31
0.0
  0
LINE
  5
F1
100
AcDbEntity
  8
0
  6
CONTINUOUS
 62
               7
100
AcDbLine
 10
-32.999998092651367
 20
-15.000000953674316
 30
0.0
 11
-32.999998092651367
 21
-21.000000953674316
 31
0.0
  0
LINE
  5
F2
100
AcDbEntity
  8
0
  6
CONTINUOUS
 62
               7
100
AcDbLine
 10
-42.999998092651367
 20
-14.750000953674316
 30
0.0
 11
-42.999998092651367
 21
-21.250000953674316
 31
0.0
  0
LINE
  5
F3
100
AcDbEntity
  8
0
  6
CONTINUOUS
 62
               7
100
AcDbLine
 10
-34.999998092651367
 20
-13.000000953674316
 30
0.0
 11
-40.999998092651367
 21
-13.000000953674316
 31
0.0
  0
LINE
  5
F4
100
AcDbEntity
  8
0
  6
CONTINUOUS
 62
               7
100
AcDbLine
 10
-51.999998092651367
 20
-15.000000953674316
 30
0.0
 11
-51.999998092651367
 21
-21.000000953674316
 31
0.0
  0
LINE
  5
F5
100
AcDbEntity
  8
0
  6
CONTINUOUS
 62
               7
100
AcDbLine
 10
-34.999998092651367
 20
-4.0
 30
0.0
 11
-40.999998092651367
 21
-4.0
 31
0.0
  0
LINE
  5
F6
100
AcDbEntity
  8
0
  6
CONTINUOUS
 62
               7
100
AcDbLine
 10
-24.0
 20
-15.000000953674316
 30
0.0
 11
-24.0
 21
-21.000000953674316
 31
0.0
  0
LINE
  5
F7
100
AcDbEntity
  8
0
  6
CONTINUOUS
 62
               7
100
AcDbLine
 10
-34.999998092651367
 20
-32.000000953674316
 30
0.0
 11
-40.999998092651367
 21
-32.000000953674316
 31
0.0
  0
LINE
  5
F8
100
AcDbEntity
  8
0
  6
CONTINUOUS
 62
               7
100
AcDbLine
 10
-41.999998092651367
 20
-5.0
 30
0.0
 11
-41.999998092651367
 21
-12.000000953674316
 31
0.0
  0
LINE
  5
F9
100
AcDbEntity
  8
0
  6
CONTINUOUS
 62
               7
100
AcDbLine
 10
-25.0
 20
-22.000000953674316
 30
0.0
 11
-31.999998092651367
 21
-22.000000953674316
 31
0.0
  0
LINE
  5
FA
100
AcDbEntity
  8
0
  6
CONTINUOUS
 62
               7
100
AcDbLine
 10
-25.0
 20
-14.000000953674316
 30
0.0
 11
-31.999998092651367
 21
-14.000000953674316
 31
0.0
  0
LINE
  5
FB
100
AcDbEntity
  8
0
  6
CONTINUOUS
 62
               7
100
AcDbLine
 10
-33.999998092651367
 20
-5.0
 30
0.0
 11
-33.999998092651367
 21
-12.000000953674316
 31
0.0
  0
LINE
  5
FC
100
AcDbEntity
  8
0
  6
CONTINUOUS
 62
               7
100
AcDbLine
 10
-50.499998092651367
 20
28.300000190734863
 30
0.0
 11
-46.499998092651367
 21
28.300000190734863
 31
0.0
  0
LINE
  5
FD
100
AcDbEntity
  8
0
  6
CONTINUOUS
 62
               7
100
AcDbLine
 10
-53.999998092651367
 20
36.999999046325684
 30
0.0
 11
54.0
 21
36.999999046325684
 31
0.0
  0
LINE
  5
FE
100
AcDbEntity
  8
0
  6
CONTINUOUS
 62
               7
100
AcDbLine
 10
-56.999998092651367
 20
33.999999046325684
 30
0.0
 11
-56.999998092651367
 21
-34.000000953674316
 31
0.0
  0
LINE
  5
FF
100
AcDbEntity
  8
0
  6
CONTINUOUS
 62
               7
100
AcDbLine
 10
-38.299997138977048
 20
26.399998092651373
 30
0.0
 11
30.300002861022946
 21
26.399998092651373
 31
0.0
  0
LINE
  5
100
100
AcDbEntity
  8
0
  6
CONTINUOUS
 62
               7
100
AcDbLine
 10
-38.299997138977048
 20
26.399998092651373
 30
0.0
 11
-38.299997138977048
 21
8.5999980926513686
 31
0.0
  0
LINE
  5
101
100
AcDbEntity
  8
0
  6
CONTINUOUS
 62
               7
100
AcDbLine
 10
30.300002861022946
 20
26.399998092651373
 30
0.0
 11
30.300002861022946
 21
8.5999980926513686
 31
0.0
  0
LINE
  5
102
100
AcDbEntity
  8
0
  6
CONTINUOUS
 62
               7
100
AcDbLine
 10
-38.299997138977048
 20
8.5999980926513686
 30
0.0
 11
30.300002861022946
 21
8.5999980926513686
 31
0.0
  0
LINE
  5
103
100
AcDbEntity
  8
0
  6
CONTINUOUS
 62
               7
100
AcDbLine
 10
-37.499994168675642
 20
40.846354572785856
 30
0.0
 11
-37.499994168675642
 21
47.846354572785856
 31
0.0
  0
LINE
  5
104
100
AcDbEntity
  8
0
  6
CONTINUOUS
 62
               7
100
AcDbLine
 10
-45.499994168675642
 20
40.846354572785856
 30
0.0
 11
-45.499994168675642
 21
47.846354572785856
 31
0.0
  0
LINE
  5
105
100
AcDbEntity
  8
0
  6
CONTINUOUS
 62
               7
100
AcDbLine
 10
-33.249994168675642
 20
45.346354572785856
 30
0.0
 11
-33.249994168675642
 21
40.846354572785856
 31
0.0
  0
LINE
  5
106
100
AcDbEntity
  8
0
  6
CONTINUOUS
 62
               7
100
AcDbLine
 10
-49.749994168675642
 20
45.346354572785856
 30
0.0
 11
-49.749994168675642
 21
40.846354572785856
 31
0.0
  0
LINE
  5
107
100
AcDbEntity
  8
0
  6
CONTINUOUS
 62
               2
100
AcDbLine
 10
0.0
 20
43.846354572785856
 30
0.0
 11
0.0
 21
-43.725880534636005
 31
0.0
  0
ENDBLK
  5
108
100
AcDbEntity
  8
0
100
AcDbBlockEnd
  0
BLOCK
  5
109
100
AcDbEntity
  8
0
100
AcDbBlockBegin
  2
DTRBP-TB-2
 70
               0
 10
0.0
 20
0.0
 30
0.0
  3
DTRBP-TB-2
  1

  0
LINE
  5
10A
100
AcDbEntity
  8
0
  6
CONTINUOUS
 62
               2
100
AcDbLine
 10
33.000006384812906
 20
0.0
 30
0.0
 11
-3.0
 21
0.0
 31
0.0
  0
LINE
  5
10B
100
AcDbEntity
  8
0
  6
CONTINUOUS
 62
               7
100
AcDbLine
 10
15.0
 20
-39.524506480680927
 30
0.0
 11
15.300003051757813
 21
-39.524506480680927
 31
0.0
  0
LINE
  5
10C
100
AcDbEntity
  8
0
  6
CONTINUOUS
 62
               7
100
AcDbLine
 10
15.000003226304955
 20
-40.725878629324299
 30
0.0
 11
1.8953222974585628
 21
-40.039091400535469
 31
0.0
  0
SPLINE
  5
10D
100
AcDbEntity
  8
0
  6
CONTINUOUS
 62
               7
100
AcDbSpline
210
0.0
220
0.0
230
1.0
 70
               0
 71
               3
 72
               0
 73
               0
 74
               9
 44
0.000001
 12
0.9986295338465291
 22
0.0523359735694669
 32
0.0
 13
0.0000000000000001
 23
1.0
 33
0.0
 11
25.26168625266024
 21
-40.172366518755695
 31
0.0
 11
26.199028781780669
 21
-40.033324873454717
 31
0.0
 11
27.09330513158713
 21
-39.719934691408938
 31
0.0
 11
27.912394913224205
 21
-39.243452240899373
 31
0.0
 11
28.626878269732231
 21
-38.620991696528165
 31
0.0
 11
29.211092570933488
 21
-37.874910436679201
 31
0.0
 11
29.644054157209126
 21
-37.032006016928328
 31
0.0
 11
29.910212025210313
 21
-36.122553662306643
 31
0.0
 11
30.000006384812906
 21
-35.179218849523053
 31
0.0
  0
LINE
  5
10E
100
AcDbEntity
  8
0
  6
CONTINUOUS
 62
               7
100
AcDbLine
 10
15.299996666944907
 20
-40.694434385886652
 30
0.0
 11
25.261682599534623
 21
-40.172364545891682
 31
0.0
  0
SPLINE
  5
10F
100
AcDbEntity
  8
0
  6
CONTINUOUS
 62
               7
100
AcDbSpline
210
0.0
220
0.0
230
1.0
 70
               0
 71
               3
 72
               0
 73
               0
 74
               9
 44
0.000001
 12
-0.9986295338465292
 22
0.0523359735694661
 32
0.0
 13
0.0000000000000001
 23
1.0
 33
0.0
 11
1.8953280528610605
 21
-40.023382026340293
 31
0.0
 11
1.5203910412128891
 21
-39.967765368219901
 31
0.0
 11
1.1626805012903105
 21
-39.842409295401588
 31
0.0
 11
0.8350445886354692
 21
-39.651816315197763
 31
0.0
 11
0.5492512460322701
 21
-39.402832097449277
 31
0.0
 11
0.3155655255517615
 21
-39.104399593509697
 31
0.0
 11
0.1423808910415119
 21
-38.767237825609342
 31
0.0
 11
0.0359177438410256
 21
-38.403456883760668
 31
0.0
 11
0.0
 21
-38.026122958647235
 31
0.0
  0
LINE
  5
111
100
AcDbEntity
  8
0
  6
DASHED
 62
               7
100
AcDbLine
 10
15.0
 20
-39.508796603666767
 30
0.0
 11
15.0
 21
-40.710166842924579
 31
0.0
  0
SPLINE
  5
112
100
AcDbEntity
  8
0
  6
CONTINUOUS
 62
               7
100
AcDbSpline
210
0.0
220
0.0
230
1.0
 70
               0
 71
               3
 72
               0
 73
               0
 74
               9
 44
0.000001
 12
0.0000000000000001
 22
1.0
 32
0.0
 13
-0.9986295338465291
 23
0.052335973569467
 33
0.0
 11
30.000006384812906
 21
35.331134238855839
 31
0.0
 11
29.910212025210313
 21
36.274469051639414
 31
0.0
 11
29.644054157209126
 21
37.183921406261106
 31
0.0
 11
29.211092570933488
 21
38.026825826011986
 31
0.0
 11
28.626878269732231
 21
38.772907085860965
 31
0.0
 11
27.912394913224205
 21
39.395367630232158
 31
0.0
 11
27.09330513158713
 21
39.871850080741751
 31
0.0
 11
26.199028781780669
 21
40.185240262787516
 31
0.0
 11
25.26168625266024
 21
40.324281908088494
 31
0.0
  0
LINE
  5
113
100
AcDbEntity
  8
0
  6
CONTINUOUS
 62
               7
100
AcDbLine
 10
15.300008663687152
 20
40.846349365306878
 30
0.0
 11
25.261679358399817
 21
40.324280323895209
 31
0.0
  0
SPLINE
  5
114
100
AcDbEntity
  8
0
  6
CONTINUOUS
 62
               7
100
AcDbSpline
210
0.0
220
0.0
230
1.0
 70
               0
 71
               3
 72
               0
 73
               0
 74
               9
 44
0.000001
 12
0.0000000000000001
 22
1.0
 32
0.0
 13
0.9986295338465292
 23
0.0523359735694661
 33
0.0
 11
0.0
 21
38.178024380219938
 31
0.0
 11
0.0359177438410256
 21
38.555358305333385
 31
0.0
 11
0.1423808910415119
 21
38.919139247182045
 31
0.0
 11
0.3155655255517615
 21
39.256301015082414
 31
0.0
 11
0.5492512460322701
 21
39.554733519021994
 31
0.0
 11
0.8350445886354692
 21
39.803717736770466
 31
0.0
 11
1.1626805012903105
 21
39.994310716974326
 31
0.0
 11
1.5203910412128891
 21
40.119666789792632
 31
0.0
 11
1.8953280528610608
 21
40.175283447912989
 31
0.0
  0
LINE
  5
115
100
AcDbEntity
  8
0
  6
CONTINUOUS
 62
               7
100
AcDbLine
 10
15.0
 20
39.660690395844938
 30
0.0
 11
15.300003051757813
 21
39.660690395844938
 31
0.0
  0
LINE
  5
116
100
AcDbEntity
  8
0
  6
DASHED
 62
               7
100
AcDbLine
 10
15.0
 20
39.660690395844938
 30
0.0
 11
15.0
 21
40.86206063510275
 31
0.0
  0
LINE
  5
117
100
AcDbEntity
  8
0
  6
CONTINUOUS
 62
               7
100
AcDbLine
 10
14.999998814205242
 20
40.862069970023754
 30
0.0
 11
1.8953255042973751
 21
40.175283140526574
 31
0.0
  0
LINE
  5
118
100
AcDbEntity
  8
0
  6
CONTINUOUS
 62
               2
100
AcDbLine
 10
11.999507194112539
 20
55.659974092157427
 30
0.0
 11
21.097712780462871
 21
52.996085069126906
 31
0.0
  0
LINE
  5
119
100
AcDbEntity
  8
0
  6
CONTINUOUS
 62
               2
100
AcDbLine
 10
11.999507194112539
 20
56.659974092157427
 30
0.0
 11
21.097712780462871
 21
53.996085069126906
 31
0.0
  0
LINE
  5
11A
100
AcDbEntity
  8
0
  6
CONTINUOUS
 62
               7
100
AcDbLine
 10
8.350006103515625
 20
45.846354572785856
 30
0.0
 11
8.350006103515625
 21
40.513558618237482
 31
0.0
  0
SPLINE
  5
11B
100
AcDbEntity
  8
0
  6
CONTINUOUS
 62
               7
100
AcDbSpline
210
0.0
220
0.0
230
1.0
 70
               0
 71
               3
 72
               0
 73
               0
 74
              10
 44
0.000001
 12
-1.0
 22
0.0000000000000001
 32
0.0
 13
0.0000000000000001
 23
-1.0
 33
0.0
 11
10.350006016092834
 21
47.846354572785856
 31
0.0
 11
10.002709652521048
 21
47.815970061942721
 31
0.0
 11
9.6659657164580608
 21
47.725739777812805
 31
0.0
 11
9.3500060025684775
 21
47.578405322072911
 31
0.0
 11
9.0644307874084689
 21
47.378443377854296
 31
0.0
 11
8.8179171298643553
 21
47.131929687983813
 31
0.0
 11
8.617955223094441
 21
46.846354446601936
 31
0.0
 11
8.4706208087876291
 21
46.530394713391786
 31
0.0
 11
8.3803905688163525
 21
46.193650765496557
 31
0.0
 11
8.350006103515625
 21
45.846354397940331
 31
0.0
  0
LINE
  5
11C
100
AcDbEntity
  8
0
  6
CONTINUOUS
 62
               7
100
AcDbLine
 10
10.350006103515625
 20
47.846354572785856
 30
0.0
 11
22.850006103515625
 21
47.846354572785856
 31
0.0
  0
SPLINE
  5
11D
100
AcDbEntity
  8
0
  6
CONTINUOUS
 62
               7
100
AcDbSpline
210
0.0
220
0.0
230
1.0
 70
               0
 71
               3
 72
               0
 73
               0
 74
              10
 44
0.000001
 12
0.0000000000000001
 22
1.0
 32
0.0
 13
-1.0
 23
0.0000000000000001
 33
0.0
 11
24.850006103515625
 21
45.846354572785856
 31
0.0
 11
24.819621607853264
 21
46.193650937685788
 31
0.0
 11
24.729391338442923
 21
46.530394877692885
 31
0.0
 11
24.582056896514018
 21
46.846354598022629
 31
0.0
 11
24.382094964778332
 21
47.131929821923279
 31
0.0
 11
24.135581285683315
 21
47.378443490242887
 31
0.0
 11
23.85000605304208
 21
47.578405409495673
 31
0.0
 11
23.53404632627209
 21
47.725739837613503
 31
0.0
 11
23.197302382320913
 21
47.815970092304326
 31
0.0
 11
22.850006016092834
 21
47.846354572785856
 31
0.0
  0
LINE
  5
11E
100
AcDbEntity
  8
0
  6
CONTINUOUS
 62
               7
100
AcDbLine
 10
24.850006103515625
 20
45.846354572785856
 30
0.0
 11
24.850006103515625
 21
40.34585520507116
 31
0.0
  0
LINE
  5
11F
100
AcDbEntity
  8
0
  6
CONTINUOUS
 62
               7
100
AcDbLine
 10
24.100006103515625
 20
105.44983787677177
 30
0.0
 11
24.100006103515625
 21
64.449837876771767
 31
0.0
  0
LINE
  5
120
100
AcDbEntity
  8
0
  6
CONTINUOUS
 62
               7
100
AcDbLine
 10
9.100006103515625
 20
105.44983787677177
 30
0.0
 11
9.100006103515625
 21
64.449837876771767
 31
0.0
  0
LINE
  5
121
100
AcDbEntity
  8
0
  6
CONTINUOUS
 62
               7
100
AcDbLine
 10
18.600006103515625
 20
64.449837876771767
 30
0.0
 11
18.600006103515625
 21
54.727395582647503
 31
0.0
  0
LINE
  5
122
100
AcDbEntity
  8
0
  6
CONTINUOUS
 62
               7
100
AcDbLine
 10
14.600006103515625
 20
64.449837876771767
 30
0.0
 11
14.600006103515625
 21
55.898566753818685
 31
0.0
  0
LINE
  5
123
100
AcDbEntity
  8
0
  6
CONTINUOUS
 62
               7
100
AcDbLine
 10
19.100006103515625
 20
82.949837876771767
 30
0.0
 11
19.100006103515625
 21
83.449837876771767
 31
0.0
  0
LINE
  5
124
100
AcDbEntity
  8
0
  6
CONTINUOUS
 62
               7
100
AcDbLine
 10
14.100006103515625
 20
82.949837876771767
 30
0.0
 11
14.100006103515625
 21
83.449837876771767
 31
0.0
  0
LINE
  5
125
100
AcDbEntity
  8
0
  6
CONTINUOUS
 62
               7
100
AcDbLine
 10
14.100006103515625
 20
82.949837876771767
 30
0.0
 11
19.100006103515625
 21
82.949837876771767
 31
0.0
  0
ARC
  5
126
100
AcDbEntity
  8
0
  6
CONTINUOUS
 62
               7
100
AcDbCircle
 10
16.600006103515625
 20
82.949837876771767
 30
0.0
 40
2.4005916386238959
100
AcDbArc
 50
180.0
 51
262.82102327502798
  0
LINE
  5
127
100
AcDbEntity
  8
0
  6
CONTINUOUS
 62
               7
100
AcDbLine
 10
16.300006103515614
 20
80.568065382298187
 30
0.0
 11
16.300006103515614
 21
81.578324344608916
 31
0.0
  0
LINE
  5
128
100
AcDbEntity
  8
0
  6
CONTINUOUS
 62
               7
100
AcDbLine
 10
16.900006103515636
 20
80.568065382298187
 30
0.0
 11
16.900006103515636
 21
81.578324344608916
 31
0.0
  0
LINE
  5
129
100
AcDbEntity
  8
0
  6
CONTINUOUS
 62
               7
100
AcDbLine
 10
17.130754497330145
 20
81.395207822590521
 30
0.0
 11
17.130754497330145
 21
81.349428692085894
 31
0.0
  0
LINE
  5
12A
100
AcDbEntity
  8
0
  6
CONTINUOUS
 62
               7
100
AcDbLine
 10
16.900006103515636
 20
81.578324344608916
 30
0.0
 11
16.300006103515614
 21
81.578324344608916
 31
0.0
  0
ARC
  5
12B
100
AcDbEntity
  8
0
  6
CONTINUOUS
 62
               7
100
AcDbCircle
 10
16.600006103515625
 20
82.949837876771767
 30
0.0
 40
2.4005916386238959
100
AcDbArc
 50
277.17897672497202
 51
0.0
  0
LINE
  5
12C
100
AcDbEntity
  8
0
  6
CONTINUOUS
 62
               7
100
AcDbLine
 10
13.600006103515625
 20
109.54983787677176
 30
0.0
 11
19.600006103515625
 21
109.54983787677176
 31
0.0
  0
LINE
  5
12D
100
AcDbEntity
  8
0
  6
CONTINUOUS
 62
               7
100
AcDbLine
 10
10.100006103515625
 20
103.44983787677177
 30
0.0
 11
23.100006103515625
 21
103.44983787677177
 31
0.0
  0
LINE
  5
12E
100
AcDbEntity
  8
0
  6
CONTINUOUS
 62
               7
100
AcDbLine
 10
10.100006103515625
 20
102.94983787677177
 30
0.0
 11
23.100006103515625
 21
102.94983787677177
 31
0.0
  0
LINE
  5
12F
100
AcDbEntity
  8
0
  6
CONTINUOUS
 62
               7
100
AcDbLine
 10
9.100006103515625
 20
102.44983787677177
 30
0.0
 11
24.100006103515625
 21
102.44983787677177
 31
0.0
  0
LINE
  5
130
100
AcDbEntity
  8
0
  6
CONTINUOUS
 62
               7
100
AcDbLine
 10
9.100006103515625
 20
83.449837876771767
 30
0.0
 11
24.100006103515625
 21
83.449837876771767
 31
0.0
  0
LINE
  5
131
100
AcDbEntity
  8
0
  6
CONTINUOUS
 62
               7
100
AcDbLine
 10
9.100006103515625
 20
64.449837876771767
 30
0.0
 11
24.100006103515625
 21
64.449837876771767
 31
0.0
  0
LINE
  5
132
100
AcDbEntity
  8
0
  6
CONTINUOUS
 62
               7
100
AcDbLine
 10
9.100006103515625
 20
71.449837876771767
 30
0.0
 11
24.100006103515625
 21
71.449837876771767
 31
0.0
  0
LINE
  5
133
100
AcDbEntity
  8
0
  6
CONTINUOUS
 62
               7
100
AcDbLine
 10
9.100006103515625
 20
74.449837876771767
 30
0.0
 11
24.100006103515625
 21
74.449837876771767
 31
0.0
  0
LINE
  5
134
100
AcDbEntity
  8
0
  6
CONTINUOUS
 62
               7
100
AcDbLine
 10
13.100006103515625
 20
103.44983787677177
 30
0.0
 11
13.100006103515625
 21
109.04983787677176
 31
0.0
  0
LINE
  5
135
100
AcDbEntity
  8
0
  6
CONTINUOUS
 62
               7
100
AcDbLine
 10
20.100006103515625
 20
103.44983787677177
 30
0.0
 11
20.100006103515625
 21
109.04983787677176
 31
0.0
  0
LINE
  5
136
100
AcDbEntity
  8
0
  6
CONTINUOUS
 62
               7
100
AcDbLine
 10
9.600006103515625
 20
105.94983787677177
 30
0.0
 11
10.600006103515625
 21
105.94983787677177
 31
0.0
  0
LINE
  5
137
100
AcDbEntity
  8
0
  6
CONTINUOUS
 62
               7
100
AcDbLine
 10
11.100006103515625
 20
105.44983787677177
 30
0.0
 11
11.100006103515625
 21
103.44983787677177
 31
0.0
  0
LINE
  5
138
100
AcDbEntity
  8
0
  6
CONTINUOUS
 62
               7
100
AcDbLine
 10
22.100006103515625
 20
105.44983787677177
 30
0.0
 11
22.100006103515625
 21
103.44983787677177
 31
0.0
  0
LINE
  5
139
100
AcDbEntity
  8
0
  6
CONTINUOUS
 62
               7
100
AcDbLine
 10
22.600006103515625
 20
105.94983787677177
 30
0.0
 11
23.600006103515625
 21
105.94983787677177
 31
0.0
  0
LINE
  5
13A
100
AcDbEntity
  8
0
  6
CONTINUOUS
 62
               7
100
AcDbLine
 10
10.100006103515625
 20
103.44983787677177
 30
0.0
 11
10.100006103515625
 21
102.44983787677177
 31
0.0
  0
LINE
  5
13B
100
AcDbEntity
  8
0
  6
CONTINUOUS
 62
               7
100
AcDbLine
 10
23.100006103515625
 20
103.44983787677177
 30
0.0
 11
23.100006103515625
 21
102.44983787677177
 31
0.0
  0
LINE
  5
13C
100
AcDbEntity
  8
0
  6
CONTINUOUS
 62
               7
100
AcDbLine
 10
15.100006103515625
 20
105.94983787677177
 30
0.0
 11
18.100006103515625
 21
105.94983787677177
 31
0.0
  0
LINE
  5
13D
100
AcDbEntity
  8
0
  6
CONTINUOUS
 62
               7
100
AcDbLine
 10
15.100006103515625
 20
103.44983787677177
 30
0.0
 11
15.100006103515625
 21
105.94983787677177
 31
0.0
  0
LINE
  5
13E
100
AcDbEntity
  8
0
  6
CONTINUOUS
 62
               7
100
AcDbLine
 10
18.100006103515625
 20
103.44983787677177
 30
0.0
 11
18.100006103515625
 21
105.94983787677177
 31
0.0
  0
LINE
  5
13F
100
AcDbEntity
  8
0
  6
CONTINUOUS
 62
               7
100
AcDbLine
 10
9.100006103515625
 20
78.449837876771767
 30
0.0
 11
24.100006103515625
 21
78.449837876771767
 31
0.0
  0
LINE
  5
140
100
AcDbEntity
  8
0
  6
CONTINUOUS
 62
               7
100
AcDbLine
 10
12.100006103515625
 20
78.449837876771767
 30
0.0
 11
12.100006103515625
 21
83.449837876771767
 31
0.0
  0
LINE
  5
141
100
AcDbEntity
  8
0
  6
CONTINUOUS
 62
               7
100
AcDbLine
 10
21.100006103515625
 20
78.449837876771767
 30
0.0
 11
21.100006103515625
 21
83.449837876771767
 31
0.0
  0
ARC
  5
142
100
AcDbEntity
  8
0
  6
CONTINUOUS
 62
               7
100
AcDbCircle
 10
19.600006103515625
 20
109.04983787677176
 30
0.0
 40
0.5
100
AcDbArc
 50
0.0
 51
90.0
  0
ARC
  5
143
100
AcDbEntity
  8
0
  6
CONTINUOUS
 62
               7
100
AcDbCircle
 10
13.600006103515625
 20
109.04983787677176
 30
0.0
 40
0.5
100
AcDbArc
 50
90.0
 51
180.0
  0
ARC
  5
144
100
AcDbEntity
  8
0
  6
CONTINUOUS
 62
               7
100
AcDbCircle
 10
10.600006103515625
 20
105.44983787677177
 30
0.0
 40
0.5
100
AcDbArc
 50
0.0
 51
90.0
  0
ARC
  5
145
100
AcDbEntity
  8
0
  6
CONTINUOUS
 62
               7
100
AcDbCircle
 10
9.600006103515625
 20
105.44983787677177
 30
0.0
 40
0.5
100
AcDbArc
 50
90.0
 51
180.0
  0
ARC
  5
146
100
AcDbEntity
  8
0
  6
CONTINUOUS
 62
               7
100
AcDbCircle
 10
22.600006103515625
 20
105.44983787677177
 30
0.0
 40
0.5
100
AcDbArc
 50
90.0
 51
180.0
  0
ARC
  5
147
100
AcDbEntity
  8
0
  6
CONTINUOUS
 62
               7
100
AcDbCircle
 10
23.600006103515625
 20
105.44983787677177
 30
0.0
 40
0.5
100
AcDbArc
 50
0.0
 51
90.0
  0
LINE
  5
148
100
AcDbEntity
  8
0
  6
CONTINUOUS
 62
               7
100
AcDbLine
 10
14.600006103515625
 20
54.898566753818685
 30
0.0
 11
14.600006103515625
 21
47.846354572785856
 31
0.0
  0
LINE
  5
149
100
AcDbEntity
  8
0
  6
CONTINUOUS
 62
               7
100
AcDbLine
 10
18.600006103515625
 20
53.727395582647503
 30
0.0
 11
18.600006103515625
 21
47.846354572785856
 31
0.0
  0
LINE
  5
14A
100
AcDbEntity
  8
0
  6
CONTINUOUS
 62
               2
100
AcDbLine
 10
16.600006103515625
 20
51.431484649066817
 30
0.0
 11
16.600006103515625
 21
112.54983787677176
 31
0.0
  0
LINE
  5
14B
100
AcDbEntity
  8
0
  6
CONTINUOUS
 62
               7
100
AcDbLine
 10
15.0
 20
40.846354572785856
 30
0.0
 11
15.0
 21
-40.725880534636005
 31
0.0
  0
LINE
  5
14C
100
AcDbEntity
  8
0
  6
CONTINUOUS
 62
               7
100
AcDbLine
 10
15.300009436570718
 20
40.846349365306878
 30
0.0
 11
15.300009436570718
 21
-40.694434385886652
 31
0.0
  0
LINE
  5
14D
100
AcDbEntity
  8
0
  6
CONTINUOUS
 62
               7
100
AcDbLine
 10
30.000006384812906
 20
35.331134238855839
 30
0.0
 11
30.000006384812906
 21
-35.179218849523053
 31
0.0
  0
LINE
  5
14E
100
AcDbEntity
  8
0
  6
CONTINUOUS
 62
               7
100
AcDbLine
 10
0.0
 20
38.178024380219938
 30
0.0
 11
0.0
 21
-38.041834568164475
 31
0.0
  0
ENDBLK
  5
14F
100
AcDbEntity
  8
0
100
AcDbBlockEnd
  0
BLOCK
  5
150
100
AcDbEntity
  8
0
100
AcDbBlockBegin
  2
DTRBP-TB-3
 70
               0
 10
0.0
 20
0.0
 30
0.0
  3
DTRBP-TB-3
  1

  0
LINE
  5
151
100
AcDbEntity
  8
0
  6
CONTINUOUS
 62
               7
100
AcDbLine
 10
-58.321800207510606
 20
30.0
 30
0.0
 11
58.448671946198544
 21
30.0
 31
0.0
  0
LINE
  5
152
100
AcDbEntity
  8
0
  6
CONTINUOUS
 62
               7
100
AcDbLine
 10
-62.499999890721526
 20
15.000000953674316
 30
0.0
 11
62.500000109278474
 21
15.000000953674316
 31
0.0
  0
LINE
  5
153
100
AcDbEntity
  8
0
  6
CONTINUOUS
 62
               7
100
AcDbLine
 10
-26.26261318723034
 20
10.0
 30
0.0
 11
26.262613405787238
 21
10.0
 31
0.0
  0
LINE
  5
154
100
AcDbEntity
  8
0
  6
CONTINUOUS
 62
               7
100
AcDbLine
 10
-62.496999529613859
 20
14.699996948242188
 30
0.0
 11
62.496999809328386
 21
14.699996948242188
 31
0.0
  0
SPLINE
  5
155
100
AcDbEntity
  8
0
  6
CONTINUOUS
 62
               7
100
AcDbSpline
210
0.0
220
0.0
230
1.0
 70
               0
 71
               3
 72
               0
 73
               0
 74
               5
 44
0.000001
 12
-0.7660444459574584
 22
0.6427876063037702
 32
0.0
 13
-1.0
 23
0.0000000000000001
 33
0.0
 11
29.476551437306089
 21
8.8302222297872959
 31
0.0
 11
28.762613344127249
 21
9.3301270545216113
 31
0.0
 11
27.972714009353457
 21
9.6984631450807939
 31
0.0
 11
27.130854127258448
 21
9.9240387944835646
 31
0.0
 11
26.26261318723029
 21
10.0
 31
0.0
  0
SPLINE
  5
156
100
AcDbEntity
  8
0
  6
CONTINUOUS
 62
               7
100
AcDbSpline
210
0.0
220
0.0
230
1.0
 70
               0
 71
               3
 72
               0
 73
               0
 74
               9
 44
0.000001
 12
1.0
 22
0.0
 32
0.0
 13
0.0199999996335749
 23
0.9997999800033289
 33
0.0
 11
47.499999453607629
 21
0.0000000000000142
 31
0.0
 11
50.3895633690545
 21
0.28095029671573
 31
0.0
 11
53.170884081810087
 21
1.1132770255152025
 31
0.0
 11
55.739773161099734
 21
2.4658011801918462
 31
0.0
 11
57.999999877120146
 21
4.2878571296250385
 31
0.0
 11
59.866896009605611
 21
6.5111905551795957
 31
0.0
 11
61.270527524134664
 21
9.0525152613315356
 31
0.0
 11
62.158314305003998
 21
11.816633081250032
 31
0.0
 11
62.496999809328415
 21
14.700000005496378
 31
0.0
  0
SPLINE
  5
157
100
AcDbEntity
  8
0
  6
CONTINUOUS
 62
               7
100
AcDbSpline
210
0.0
220
0.0
230
1.0
 70
               0
 71
               3
 72
               0
 73
               0
 74
               9
 44
0.000001
 12
-0.1736481726667804
 22
0.9848077538938694
 32
0.0
 13
-1.0
 23
-0.0000000000000001
 33
0.0
 11
60.291415848999804
 21
28.347296345333561
 31
0.0
 11
60.201185582085273
 21
28.684040288570749
 31
0.0
 11
60.05385114166107
 21
29.000000012331995
 31
0.0
 11
59.853889210456686
 21
29.285575239624947
 31
0.0
 11
59.6073755309897
 21
29.532088911071476
 31
0.0
 11
59.32180029719089
 21
29.732050832984513
 31
0.0
 11
59.005840568636046
 21
29.87938526312881
 31
0.0
 11
58.669096622463158
 21
29.969615519087206
 31
0.0
 11
58.321800253789291
 21
30.0
 31
0.0
  0
LINE
  5
158
100
AcDbEntity
  8
0
  6
DASHED
 62
               7
100
AcDbLine
 10
61.299999346339021
 20
15.0
 30
0.0
 11
61.299999346339021
 21
14.699996948242188
 31
0.0
  0
LINE
  5
159
100
AcDbEntity
  8
0
  6
CONTINUOUS
 62
               7
100
AcDbLine
 10
62.500000109278474
 20
15.821792602539062
 30
0.0
 11
62.500000109278474
 21
15.0
 31
0.0
  0
LINE
  5
15A
100
AcDbEntity
  8
0
  6
CONTINUOUS
 62
               7
100
AcDbLine
 10
61.299999237060533
 20
15.000000953674316
 30
0.0
 11
61.299999237060533
 21
14.699996948242188
 31
0.0
  0
LINE
  5
15B
100
AcDbEntity
  8
0
  6
CONTINUOUS
 62
               7
100
AcDbLine
 10
62.499999293829646
 20
15.821795431246187
 30
0.0
 11
60.29141533143563
 21
28.347297142361754
 31
0.0
  0
SPLINE
  5
15C
100
AcDbEntity
  8
0
  6
CONTINUOUS
 62
               7
100
AcDbSpline
210
0.0
220
0.0
230
1.0
 70
               0
 71
               3
 72
               0
 73
               0
 74
               8
 44
0.000001
 12
-1.0
 22
0.0000000000000001
 32
0.0
 13
-0.1736482920190526
 23
-0.9848077328488367
 33
0.0
 11
-58.321800210077882
 21
30.0
 31
0.0
 11
-58.718092449983729
 21
29.960344967422948
 31
0.0
 11
-59.098669711604046
 21
29.842952425258531
 31
0.0
 11
-59.448440197823814
 21
29.652477576557054
 31
0.0
 11
-59.753533754676354
 21
29.396473704349376
 31
0.0
 11
-60.001851892510629
 21
29.08509264609313
 31
0.0
 11
-60.183547551782809
 21
28.730682222403445
 31
0.0
 11
-60.291415588352791
 21
28.347296584038105
 31
0.0
  0
SPLINE
  5
15D
100
AcDbEntity
  8
0
  6
CONTINUOUS
 62
               7
100
AcDbSpline
210
0.0
220
0.0
230
1.0
 70
               0
 71
               3
 72
               0
 73
               0
 74
               5
 44
0.000001
 12
1.0
 22
0.0
 32
0.0
 13
0.7660444459574582
 23
0.6427876063037703
 33
0.0
 11
-41.819851030909334
 21
0.0
 31
0.0
 11
-40.951610090881175
 21
0.0759612055164354
 31
0.0
 11
-40.109750208786167
 21
0.3015368549192061
 31
0.0
 11
-39.319850874012374
 21
0.6698729454783887
 31
0.0
 11
-38.605912780833549
 21
1.1697777702127043
 31
0.0
  0
LINE
  5
15E
100
AcDbEntity
  8
0
  6
CONTINUOUS
 62
               7
100
AcDbLine
 10
-61.299999127782073
 20
15.0
 30
0.0
 11
-61.299999127782073
 21
14.699996948242188
 31
0.0
  0
LINE
  5
15F
100
AcDbEntity
  8
0
  6
CONTINUOUS
 62
               7
100
AcDbLine
 10
-62.499999890721526
 20
15.821792602539062
 30
0.0
 11
-62.499999890721526
 21
15.0
 31
0.0
  0
LINE
  5
160
100
AcDbEntity
  8
0
  6
CONTINUOUS
 62
               7
100
AcDbLine
 10
-29.476548467963351
 20
8.8302173905362906
 30
0.0
 11
-38.60590900584252
 21
1.1697739724168059
 31
0.0
  0
SPLINE
  5
161
100
AcDbEntity
  8
0
  6
CONTINUOUS
 62
               7
100
AcDbSpline
210
0.0
220
0.0
230
1.0
 70
               0
 71
               3
 72
               0
 73
               0
 74
               9
 44
0.000001
 12
0.0199999904437296
 22
-0.9997999801871627
 32
0.0
 13
1.0
 23
0.0
 33
0.0
 11
-62.496999593528997
 21
14.700000143344056
 31
0.0
 11
-62.158314146837355
 21
11.816633359326616
 31
0.0
 11
-61.270527476564681
 21
9.0525156572267349
 31
0.0
 11
-59.866896118108471
 21
6.5111910316556418
 31
0.0
 11
-58.000000176037176
 21
4.2878576368509869
 31
0.0
 11
-55.739773670605771
 21
2.4658016588083029
 31
0.0
 11
-53.170884805675698
 21
1.113277410369804
 31
0.0
 11
-50.389564293341905
 21
0.2809505210727252
 31
0.0
 11
-47.500000546392428
 21
0.0000000000000142
 31
0.0
  0
SPLINE
  5
162
100
AcDbEntity
  8
0
  6
CONTINUOUS
 62
               7
100
AcDbSpline
210
0.0
220
0.0
230
1.0
 70
               0
 71
               3
 72
               0
 73
               0
 74
               4
 44
0.000001
 12
-1.0
 22
0.0000000000000001
 32
0.0
 13
-0.7660444280763042
 23
-0.6427876276136995
 33
0.0
 11
-26.262613405787288
 21
10.0
 31
0.0
 11
-27.41569272067208
 21
9.8652243103024375
 31
0.0
 11
-28.506609223045896
 21
9.4681631339113039
 31
0.0
 11
-29.476551325298839
 21
8.8302221403815224
 31
0.0
  0
SPLINE
  5
163
100
AcDbEntity
  8
0
  6
CONTINUOUS
 62
               7
100
AcDbSpline
210
0.0
220
0.0
230
1.0
 70
               0
 71
               3
 72
               0
 73
               0
 74
               4
 44
0.000001
 12
0.7660444280763047
 22
-0.6427876276136989
 32
0.0
 13
1.0
 23
0.0
 33
0.0
 11
38.605912892840806
 21
1.1697778596184776
 31
0.0
 11
39.575854995093749
 21
0.5318368660886961
 31
0.0
 11
40.666771497467565
 21
0.1347756896975625
 31
0.0
 11
41.819850812352357
 21
0.0
 31
0.0
  0
LINE
  5
164
100
AcDbEntity
  8
0
  6
CONTINUOUS
 62
               7
100
AcDbLine
 10
-41.819850812352414
 20
0.0
 30
0.0
 11
-47.413505444920773
 21
0.0
 31
0.0
  0
LINE
  5
165
100
AcDbEntity
  8
0
  6
CONTINUOUS
 62
               7
100
AcDbLine
 10
29.476548686520278
 20
8.8302173905362906
 30
0.0
 11
38.60590922439944
 21
1.1697739724168059
 31
0.0
  0
LINE
  5
166
100
AcDbEntity
  8
0
  6
CONTINUOUS
 62
               7
100
AcDbLine
 10
41.819851030909305
 20
0.0
 30
0.0
 11
47.500000109278446
 21
0.0
 31
0.0
  0
LINE
  5
167
100
AcDbEntity
  8
0
  6
DASHED
 62
               7
100
AcDbLine
 10
-62.50000381469728
 20
15.821795463562012
 30
0.0
 11
-62.50000381469728
 21
15.000000953674316
 31
0.0
  0
LINE
  5
168
100
AcDbEntity
  8
0
  6
CONTINUOUS
 62
               7
100
AcDbLine
 10
-62.500001284538271
 20
15.821796936677401
 30
0.0
 11
-60.291417487748063
 21
28.34729770860713
 31
0.0
  0
LINE
  5
169
100
AcDbEntity
  8
0
  6
CONTINUOUS
 62
               2
100
AcDbLine
 10
0.0000000000000036
 20
-3.0
 30
0.0
 11
0.0000000000000036
 21
33.0
 31
0.0
  0
ENDBLK
  5
16A
100
AcDbEntity
  8
0
100
AcDbBlockEnd
  0
BLOCK
  5
22
100
AcDbEntity
  8
0
  6
ByBlock
 62
               0
100
AcDbBlockBegin
  2
_OPEN30
 70
               2
 10
0.0
 20
0.0
 30
0.0
  3
_OPEN30
  1

  0
LINE
  5
23
100
AcDbEntity
  8
0
  6
ByBlock
 62
               0
100
AcDbLine
 10
-1.0
 20
0.267949
 30
0.0
 11
0.0
 21
0.0
 31
0.0
  0
LINE
  5
24
100
AcDbEntity
  8
0
  6
ByBlock
 62
               0
100
AcDbLine
 10
0.0
 20
0.0
 30
0.0
 11
-1.0
 21
-0.267949
 31
0.0
  0
LINE
  5
25
100
AcDbEntity
  8
0
  6
ByBlock
 62
               0
100
AcDbLine
 10
0.0
 20
0.0
 30
0.0
 11
-1.0
 21
0.0
 31
0.0
  0
ENDBLK
  5
26
100
AcDbEntity
  8
0
  6
ByBlock
 62
               0
100
AcDbBlockEnd
  0
ENDSEC
  0
SECTION
  2
ENTITIES
  0
INSERT
  5
16B
100
AcDbEntity
  8
0
  6
ByBlock
100
AcDbBlockReference
  2
DTRBP-TB-3
 10
-29.999994277954119
 20
-89.939762980925067
 30
0.0
  0
INSERT
  5
16C
100
AcDbEntity
  8
0
  6
ByBlock
100
AcDbBlockReference
  2
DTRBP-TB-2
 10
91.000005831324358
 20
0.0
 30
0.0
  0
INSERT
  5
16D
100
AcDbEntity
  8
0
  6
ByBlock
100
AcDbBlockReference
  2
DTRBP-TB-1
 10
-30.0
 20
0.0
 30
0.0
  0
MTEXT
  5
16E
100
AcDbEntity
  8
0
  6
CONTINUOUS
 62
             255
100
AcDbMText
 10
-175.72169303294248
 20
128.85000610351562
 30
0.0
 40
4.5
 41
0.0
 71
               4
 72
               1
  1
\W1.038;\A1;CELL MASTER
  0
MTEXT
  5
16F
100
AcDbEntity
  8
0
  6
CONTINUOUS
 62
             255
100
AcDbMText
 10
-168.99999618530273
 20
121.35000610351562
 30
0.0
 40
4.5
 41
0.0
 71
               4
 72
               1
  1
\A1;DTRBP-TB
  0
MTEXT
  5
170
100
AcDbEntity
  8
0
  6
CONTINUOUS
 62
               7
100
AcDbMText
 10
-185.71250000058674
 20
107.60000610351562
 30
0.0
 40
4.5
 41
0.0
 71
               4
 72
               1
  1
\W1.050;\A1;MODEL:DTRBP-TB
  0
LINE
  5
171
100
AcDbEntity
  8
0
  6
CONTINUOUS
 62
               7
100
AcDbLine
 10
-194.25
 20
132.60000610351562
 30
0.0
 11
194.80000305175781
 21
132.60000610351562
 31
0.0
  0
LINE
  5
172
100
AcDbEntity
  8
0
  6
CONTINUOUS
 62
               7
100
AcDbLine
 10
194.80000305175781
 20
132.60000610351562
 30
0.0
 11
194.80000305175781
 21
-133.5
 31
0.0
  0
LINE
  5
173
100
AcDbEntity
  8
0
  6
CONTINUOUS
 62
               7
100
AcDbLine
 10
-194.25
 20
132.60000610351562
 30
0.0
 11
-194.25
 21
-133.5
 31
0.0
  0
LINE
  5
174
100
AcDbEntity
  8
0
  6
CONTINUOUS
 62
               7
100
AcDbLine
 10
-194.25
 20
-133.5
 30
0.0
 11
194.80000305175781
 21
-133.5
 31
0.0
  0
LINE
  5
175
100
AcDbEntity
  8
0
  6
CONTINUOUS
 62
               7
100
AcDbLine
 10
109.80000305175781
 20
-118.5
 30
0.0
 11
109.80000305175781
 21
-133.5
 31
0.0
  0
LINE
  5
176
100
AcDbEntity
  8
0
  6
CONTINUOUS
 62
               7
100
AcDbLine
 10
109.80000305175781
 20
-118.5
 30
0.0
 11
194.80000305175781
 21
-118.5
 31
0.0
  0
LINE
  5
177
100
AcDbEntity
  8
0
  6
CONTINUOUS
 62
               7
100
AcDbLine
 10
109.80000305175781
 20
132.60000610351562
 30
0.0
 11
109.80000305175781
 21
117.60000610351562
 31
0.0
  0
LINE
  5
178
100
AcDbEntity
  8
0
  6
CONTINUOUS
 62
               7
100
AcDbLine
 10
109.80000305175781
 20
117.60000610351562
 30
0.0
 11
194.80000305175781
 21
117.60000610351562
 31
0.0
  0
LINE
  5
179
100
AcDbEntity
  8
0
  6
CONTINUOUS
 62
               7
100
AcDbLine
 10
-194.25
 20
117.60000610351562
 30
0.0
 11
-109.25
 21
117.60000610351562
 31
0.0
  0
LINE
  5
17A
100
AcDbEntity
  8
0
  6
CONTINUOUS
 62
               7
100
AcDbLine
 10
-109.25
 20
132.60000610351562
 30
0.0
 11
-109.25
 21
117.60000610351562
 31
0.0
  0
MTEXT
  5
17B
100
AcDbEntity
  8
0
  6
CONTINUOUS
 62
               7
100
AcDbMText
 10
135.28361320576767
 20
125.10000610351562
 30
0.0
 40
4.5
 41
0.0
 71
               4
 72
               1
  1
\W1.311;\A1;Ver. 1.0
  0
MTEXT
  5
17C
100
AcDbEntity
  8
0
  6
CONTINUOUS
 62
               7
100
AcDbMText
 10
115.5267259825148
 20
-126.0
 30
0.0
 40
6.3000001907348633
 41
0.0
 71
               4
 72
               1
  1
\W1.121;\A1;KOGANEI CORP.
  0
ENDSEC
  0
SECTION
  2
OBJECTS
  0
DICTIONARY
  5
19
100
AcDbDictionary
  3
ACAD_GROUP
350
1A
  3
ACAD_MLINESTYLE
350
1B
  0
DICTIONARY
  5
1A
102
{ACAD_REACTORS
330
19
102
}
100
AcDbDictionary
  0
DICTIONARY
  5
1B
102
{ACAD_REACTORS
330
19
102
}
100
AcDbDictionary
  3
STANDARD
350
1C
  0
MLINESTYLE
  5
1C
102
{ACAD_REACTORS
330
1B
102
}
100
AcDbMlineStyle
  2
Standard
 70
               0
  3

 62
               0
 51
90.0
 52
90.0
 71
               2
 49
0.5
 62
             256
  6
ByLayer
 49
-0.5
 62
             256
  6
ByLayer
  0
ENDSEC
  0
EOF
