  0
SECTION
  2
HEADER
  9
$ACADVER
  1
AC1012
  9
$DWGCODEPAGE
  3
dos932
  9
$INSBASE
 10
0.0
 20
0.0
 30
0.0
  9
$EXTMIN
 10
-138.39999389648437
 20
-94.800003051757812
 30
0.0
  9
$EXTMAX
 10
138.35000610351562
 20
94.5
 30
0.0
  9
$LIMMIN
 10
-138.39999389648437
 20
-94.800003051757812
  9
$LIMMAX
 10
138.35000610351562
 20
94.5
  9
$ORTHOMODE
 70
               0
  9
$REGENMODE
 70
               1
  9
$FILLMODE
 70
               1
  9
$QTEXTMODE
 70
               0
  9
$MIRRTEXT
 70
               1
  9
$DRAGMODE
 70
               2
  9
$LTSCALE
 40
1.0
  9
$OSMODE
 70
               0
  9
$ATTMODE
 70
               1
  9
$TEXTSIZE
 40
3.2000000476837158
  9
$TRACEWID
 40
0.05
  9
$TEXTSTYLE
  7
MX_NOTE_STANDARD
  9
$CLAYER
  8
0
  9
$CELTYPE
  6
CONTINUOUS
  9
$CECOLOR
 62
             256
  9
$CELTSCALE
 40
1.0
  9
$DELOBJ
 70
               1
  9
$DISPSILH
 70
               0
  9
$DIMSCALE
 40
1.0
  9
$DIMASZ
 40
2.5
  9
$DIMEXO
 40
1.5
  9
$DIMDLI
 40
3.75
  9
$DIMRND
 40
0.0
  9
$DIMDLE
 40
0.0
  9
$DIMEXE
 40
1.5
  9
$DIMTP
 40
0.0
  9
$DIMTM
 40
0.0
  9
$DIMTXT
 40
3.2000000476837158
  9
$DIMCEN
 40
2.5
  9
$DIMTSZ
 40
0.0
  9
$DIMTOL
 70
               0
  9
$DIMLIM
 70
               0
  9
$DIMTIH
 70
               0
  9
$DIMTOH
 70
               0
  9
$DIMSE1
 70
               0
  9
$DIMSE2
 70
               0
  9
$DIMTAD
 70
               1
  9
$DIMZIN
 70
               8
  9
$DIMBLK
  1

  9
$DIMASO
 70
               1
  9
$DIMSHO
 70
               1
  9
$DIMPOST
  1

  9
$DIMAPOST
  1

  9
$DIMALT
 70
               0
  9
$DIMALTD
 70
               4
  9
$DIMALTF
 40
0.03937007874016
  9
$DIMLFAC
 40
1.0
  9
$DIMTOFL
 70
               1
  9
$DIMTVP
 40
0.0
  9
$DIMTIX
 70
               0
  9
$DIMSOXD
 70
               0
  9
$DIMSAH
 70
               0
  9
$DIMBLK1
  1

  9
$DIMBLK2
  1

  9
$DIMSTYLE
  2
MXDIMSTYLE
  9
$DIMCLRD
 70
               0
  9
$DIMCLRE
 70
               0
  9
$DIMCLRT
 70
               0
  9
$DIMTFAC
 40
1.0
  9
$DIMGAP
 40
1.0
  9
$DIMJUST
 70
               0
  9
$DIMSD1
 70
               0
  9
$DIMSD2
 70
               0
  9
$DIMTOLJ
 70
               1
  9
$DIMTZIN
 70
               0
  9
$DIMALTZ
 70
               0
  9
$DIMALTTZ
 70
               0
  9
$DIMFIT
 70
               3
  9
$DIMUPT
 70
               1
  9
$DIMUNIT
 70
               2
  9
$DIMDEC
 70
               4
  9
$DIMTDEC
 70
               4
  9
$DIMALTU
 70
               2
  9
$DIMALTTD
 70
               4
  9
$DIMTXSTY
  7
MX_NOTE_STANDARD
  9
$DIMAUNIT
 70
               0
  9
$LUNITS
 70
               2
  9
$LUPREC
 70
               4
  9
$SKETCHINC
 40
0.1
  9
$FILLETRAD
 40
0.0
  9
$AUNITS
 70
               0
  9
$AUPREC
 70
               0
  9
$MENU
  1
acad
  9
$ELEVATION
 40
0.0
  9
$PELEVATION
 40
0.0
  9
$THICKNESS
 40
0.0
  9
$LIMCHECK
 70
               0
  9
$BLIPMODE
 70
               1
  9
$CHAMFERA
 40
0.0
  9
$CHAMFERB
 40
0.0
  9
$CHAMFERC
 40
0.0
  9
$CHAMFERD
 40
0.0
  9
$SKPOLY
 70
               0
  9
$TDCREATE
 40
2453378.356273148
  9
$TDUPDATE
 40
2453378.356273148
  9
$TDINDWG
 40
0.0000000000
  9
$TDUSRTIMER
 40
0.0000000000
  9
$USRTIMER
 70
               1
  9
$ANGBASE
 50
0.0
  9
$ANGDIR
 70
               0
  9
$PDMODE
 70
               0
  9
$PDSIZE
 40
0.0
  9
$PLINEWID
 40
0.0
  9
$COORDS
 70
               1
  9
$SPLFRAME
 70
               0
  9
$SPLINETYPE
 70
               6
  9
$SPLINESEGS
 70
               8
  9
$ATTDIA
 70
               0
  9
$ATTREQ
 70
               1
  9
$HANDLING
 70
               1
  9
$HANDSEED
  5
A2
  9
$SURFTAB1
 70
               6
  9
$SURFTAB2
 70
               6
  9
$SURFTYPE
 70
               6
  9
$SURFU
 70
               6
  9
$SURFV
 70
               6
  9
$UCSNAME
  2

  9
$UCSORG
 10
0.0
 20
0.0
 30
0.0
  9
$UCSXDIR
 10
1.0
 20
0.0
 30
0.0
  9
$UCSYDIR
 10
0.0
 20
1.0
 30
0.0
  9
$PUCSNAME
  2

  9
$PUCSORG
 10
0.0
 20
0.0
 30
0.0
  9
$PUCSXDIR
 10
1.0
 20
0.0
 30
0.0
  9
$PUCSYDIR
 10
0.0
 20
1.0
 30
0.0
  9
$USERI1
 70
               0
  9
$USERI2
 70
               0
  9
$USERI3
 70
               0
  9
$USERI4
 70
               0
  9
$USERI5
 70
               0
  9
$USERR1
 40
0.0
  9
$USERR2
 40
0.0
  9
$USERR3
 40
0.0
  9
$USERR4
 40
0.0
  9
$USERR5
 40
0.0
  9
$WORLDVIEW
 70
               1
  9
$SHADEDGE
 70
               3
  9
$SHADEDIF
 70
              70
  9
$TILEMODE
 70
               1
  9
$MAXACTVP
 70
              16
  9
$PINSBASE
 10
0.0
 20
0.0
 30
0.0
  9
$PLIMCHECK
 70
               0
  9
$PEXTMIN
 10
1.0000000000000000E+20
 20
1.0000000000000000E+20
 30
1.0000000000000000E+20
  9
$PEXTMAX
 10
-1.0000000000000000E+20
 20
-1.0000000000000000E+20
 30
-1.0000000000000000E+20
  9
$PLIMMIN
 10
0.0
 20
0.0
  9
$PLIMMAX
 10
12.0
 20
9.0
  9
$UNITMODE
 70
               0
  9
$VISRETAIN
 70
               0
  9
$PLINEGEN
 70
               1
  9
$PSLTSCALE
 70
               0
  9
$TREEDEPTH
 70
            3020
  9
$PICKSTYLE
 70
               1
  9
$CMLSTYLE
  2
Standard
  9
$CMLJUST
 70
               0
  9
$CMLSCALE
 40
1.0
  9
$SAVEIMAGES
 70
               0
  0
ENDSEC
  0
SECTION
  2
CLASSES
  0
CLASS
  1
LWPOLYLINE
  2
AcDbPolyline
  3
"AutoCAD"
 90
        0
280
               0
281
               1
  0
CLASS
  1
IMAGE
  2
AcDbRasterImage
  3
ISM
 90
      127
280
               0
281
               1
  0
CLASS
  1
OLE2FRAME
  2
AcDbOle2Frame
  3
""
 90
        0
280
               0
281
               1
  0
CLASS
  1
HATCH
  2
AcDbHatch
  3
"ACAD_SEDONA"
 90
        0
280
               0
281
               1
  0
CLASS
  1
DICTIONARYVAR
  2
AcDbDictionaryVar
  3
"AutoCAD"
 90
        0
280
               0
281
               0
  0
CLASS
  1
RASTERVARIABLES
  2
AcDbRasterVariables
  3
ISM
 90
        0
280
               0
281
               0
  0
CLASS
  1
IMAGEDEF
  2
AcDbRasterImageDef
  3
ISM
 90
        0
280
               0
281
               0
  0
CLASS
  1
IMAGEDEF_REACTOR
  2
AcDbRasterImageDefReactor
  3
ISM
 90
        1
280
               0
281
               0
  0
CLASS
  1
IDBUFFER
  2
AcDbIdBuffer
  3
"Acad"
 90
        0
280
               0
281
               0
  0
CLASS
  1
SPATIAL_FILTER
  2
AcDbSpatialFilter
  3
"Acad"
 90
        0
280
               0
281
               0
  0
CLASS
  1
XRECORD
  2
AcDbXrecord
  3
"<Built In>"
 90
        0
280
               0
281
               0
  0
CLASS
  1
SORTENTSTABLE
  2
AcDbSortentsTable
  3
"AutoCAD"
 90
        0
280
               0
281
               0
  0
CLASS
  1
LAYER_INDEX
  2
AcDbLayerIndex
  3
"Acad"
 90
        0
280
               0
281
               0
  0
CLASS
  1
SPATIAL_INDEX
  2
AcDbSpatialIndex
  3
"Acad"
 90
        0
280
               0
281
               0
  0
CLASS
  1
OBJECT_PTR
  2
CAseDLPNTableRecord
  3
"ASE-LPNTableRecord"
 90
        1
280
               0
281
               0
  0
CLASS
  1
LAYOUT
  2
AcDbLayout
  3
"AutoCAD 2000"
 90
        1
280
               0
281
               0
  0
CLASS
  1
PLOTSETTINGS
  2
AcDbPlotSettings
  3
"AutoCAD 2000"
 90
        1
280
               0
281
               0
  0
CLASS
  1
ACDBDICTIONARYWDFLT
  2
AcDbDictionaryWithDefault
  3
"AutoCAD 2000"
 90
        1
280
               0
281
               0
  0
CLASS
  1
ACDBPLACEHOLDER
  2
AcDbPlaceHolder
  3
"AutoCAD 2000"
 90
        1
280
               0
281
               0
  0
ENDSEC
  0
SECTION
  2
TABLES
  0
TABLE
  2
VPORT
  5
7
100
AcDbSymbolTable
 70
               1
  0
VPORT
  5
15
100
AcDbSymbolTableRecord
100
AcDbViewportTableRecord
  2
*ACTIVE
 70
               0
 10
0.0
 20
0.0
 11
1.0
 21
1.0
 12
-0.024993896484375
 22
-0.1500015258789063
 13
0.0
 23
0.0
 14
1.0
 24
1.0
 15
0.0
 25
0.0
 16
0.0
 26
0.0
 36
1.0
 17
0.0
 27
0.0
 37
0.0
 40
191.1930030822754
 41
1.7320508075688772
 42
50.0
 43
0.0
 44
0.0
 50
0.0
 51
0.0
 71
               0
 72
             100
 73
               1
 74
               1
 75
               0
 76
               0
 77
               0
 78
               0
  0
ENDTAB
  0
TABLE
  2
LTYPE
  5
4
100
AcDbSymbolTable
 70
               4
  0
LTYPE
  5
11
100
AcDbSymbolTableRecord
100
AcDbLinetypeTableRecord
  2
BYBLOCK
 70
              64
  3

 72
              65
 73
               0
 40
0.0
  0
LTYPE
  5
12
100
AcDbSymbolTableRecord
100
AcDbLinetypeTableRecord
  2
BYLAYER
 70
              64
  3

 72
              65
 73
               0
 40
0.0
  0
LTYPE
  5
13
100
AcDbSymbolTableRecord
100
AcDbLinetypeTableRecord
  2
CONTINUOUS
 70
              64
  3
Solid line
 72
              65
 73
               0
 40
0.0
  0
LTYPE
  5
23
100
AcDbSymbolTableRecord
100
AcDbLinetypeTableRecord
  2
DASHED
 70
              64
  3
Dashed __ __ __ __ __ __ __ __ __ __ __ __ __ _
 72
              65
 73
               2
 40
4.0
 49
2.0
 74
               0
 49
-2.0
 74
               0
  0
ENDTAB
  0
TABLE
  2
LAYER
  5
2
100
AcDbSymbolTable
 70
               2
  0
LAYER
  5
14
100
AcDbSymbolTableRecord
100
AcDbLayerTableRecord
  2
0
 70
               0
 62
               7
  6
CONTINUOUS
  0
LAYER
  5
1D
100
AcDbSymbolTableRecord
100
AcDbLayerTableRecord
  2
DEFPOINTS
 70
               0
 62
               7
  6
CONTINUOUS
  0
ENDTAB
  0
TABLE
  2
STYLE
  5
3
100
AcDbSymbolTable
 70
               1
  0
STYLE
  5
17
100
AcDbSymbolTableRecord
100
AcDbTextStyleTableRecord
  2
MX_NOTE_STANDARD
 70
               0
 40
0.0
 41
1.0
 50
0.0
 71
               0
 42
3.2000000476837158
  3
txt.shx
  4
extfont.shx
  0
ENDTAB
  0
TABLE
  2
VIEW
  5
5
100
AcDbSymbolTable
 70
               0
  0
ENDTAB
  0
TABLE
  2
UCS
  5
6
100
AcDbSymbolTable
 70
               0
  0
ENDTAB
  0
TABLE
  2
APPID
  5
8
100
AcDbSymbolTable
 70
               1
  0
APPID
  5
16
100
AcDbSymbolTableRecord
100
AcDbRegAppTableRecord
  2
ACAD
 70
               0
  0
ENDTAB
  0
TABLE
  2
DIMSTYLE
  5
9
100
AcDbSymbolTable
 70
               1
  0
DIMSTYLE
105
18
100
AcDbSymbolTableRecord
100
AcDbDimStyleTableRecord
  2
MXDIMSTYLE
 70
               0
  3

  4

  5

  6

  7

 40
1.0
 41
2.5
 42
1.5
 43
3.75
 44
1.5
 45
0.0
 46
0.0
 47
0.0
 48
0.0
 71
               0
 72
               0
 73
               0
 74
               0
 75
               0
 76
               0
 77
               1
 78
               8
140
3.2000000476837158
141
2.5
142
0.0
143
0.03937007874016
144
1.0
145
0.0
146
1.0
147
1.0
170
               0
171
               4
172
               1
173
               0
174
               0
175
               0
176
               0
177
               0
178
               0
270
               2
271
               4
272
               4
273
               2
274
               4
275
               0
280
               0
281
               0
282
               0
283
               1
284
               0
285
               0
286
               0
287
               3
288
               1
340
17
  0
ENDTAB
  0
TABLE
  2
BLOCK_RECORD
  5
1
100
AcDbSymbolTable
 70
               2
  0
BLOCK_RECORD
  5
A
100
AcDbSymbolTableRecord
100
AcDbBlockTableRecord
  2
*MODEL_SPACE
  0
BLOCK_RECORD
  5
B
100
AcDbSymbolTableRecord
100
AcDbBlockTableRecord
  2
*PAPER_SPACE
  0
BLOCK_RECORD
  5
1E
100
AcDbSymbolTableRecord
100
AcDbBlockTableRecord
  2
DTRY-ADN-FT-01-1
  0
BLOCK_RECORD
  5
1F
100
AcDbSymbolTableRecord
100
AcDbBlockTableRecord
  2
DTRY-ADN-FT-01-2
  0
ENDTAB
  0
ENDSEC
  0
SECTION
  2
BLOCKS
  0
BLOCK
  5
D
100
AcDbEntity
  8
0
100
AcDbBlockBegin
  2
*MODEL_SPACE
 70
               0
 10
0.0
 20
0.0
 30
0.0
  3
*MODEL_SPACE
  1

  0
ENDBLK
  5
E
100
AcDbEntity
  8
0
100
AcDbBlockEnd
  0
BLOCK
  5
F
100
AcDbEntity
 67
               1
  8
0
100
AcDbBlockBegin
  2
*PAPER_SPACE
 70
               0
 10
0.0
 20
0.0
 30
0.0
  3
*PAPER_SPACE
  1

  0
ENDBLK
  5
10
100
AcDbEntity
 67
               1
  8
0
100
AcDbBlockEnd
  0
BLOCK
  5
20
100
AcDbEntity
  8
0
100
AcDbBlockBegin
  2
DTRY-ADN-FT-01-1
 70
               0
 10
0.0
 20
0.0
 30
0.0
  3
DTRY-ADN-FT-01-1
  1

  0
LINE
  5
21
100
AcDbEntity
  8
0
  6
CONTINUOUS
 62
               7
100
AcDbLine
 10
58.999999835616279
 20
-3.9943901313610084
 30
0.0
 11
58.999999835616279
 21
4.0056099233249896
 31
0.0
  0
LINE
  5
22
100
AcDbEntity
  8
0
  6
CONTINUOUS
 62
               7
100
AcDbLine
 10
58.999999835616279
 20
4.0056099233249967
 30
0.0
 11
58.845299280502282
 21
4.2735591447415473
 31
0.0
  0
LINE
  5
24
100
AcDbEntity
  8
0
  6
DASHED
 62
               2
100
AcDbLine
 10
58.999999835616279
 20
2.005609922351681
 30
0.0
 11
54.917095998336706
 21
2.005609922351681
 31
0.0
  0
LINE
  5
25
100
AcDbEntity
  8
0
  6
DASHED
 62
               2
100
AcDbLine
 10
58.999999835616279
 20
-1.994390077648319
 30
0.0
 11
54.917095998336706
 21
-1.994390077648319
 31
0.0
  0
LINE
  5
26
100
AcDbEntity
  8
0
  6
CONTINUOUS
 62
               2
100
AcDbLine
 10
60.970275994046069
 20
7.8098160878421581
 30
0.0
 11
47.452994402674278
 21
0.005609922351681
 31
0.0
  0
LINE
  5
27
100
AcDbEntity
  8
0
  6
DASHED
 62
               2
100
AcDbLine
 10
56.845299222310871
 20
7.7376607237126223
 30
0.0
 11
53.073328109566063
 21
5.559912186393916
 31
0.0
  0
LINE
  5
28
100
AcDbEntity
  8
0
  6
DASHED
 62
               2
100
AcDbLine
 10
58.845299222310871
 20
4.2735591111447206
 30
0.0
 11
54.917095998336706
 21
2.005609922351681
 31
0.0
  0
LINE
  5
29
100
AcDbEntity
  8
0
  6
CONTINUOUS
 62
               7
100
AcDbLine
 10
56.690598764261097
 20
8.0056099174286715
 30
0.0
 11
56.104812302430958
 21
8.5913963792588106
 31
0.0
  0
LINE
  5
2A
100
AcDbEntity
  8
0
  6
CONTINUOUS
 62
               2
100
AcDbLine
 10
56.998584330177025
 20
12.313595483344592
 30
0.0
 11
44.690598769184092
 21
0.005609922351681
 31
0.0
  0
LINE
  5
2B
100
AcDbEntity
  8
0
  6
DASHED
 62
               2
100
AcDbLine
 10
53.276385226091236
 20
11.419823395993888
 30
0.0
 11
50.156721634364146
 21
8.3001598042667979
 31
0.0
  0
LINE
  5
2C
100
AcDbEntity
  8
0
  6
DASHED
 62
               2
100
AcDbLine
 10
56.104812302430958
 20
8.5913963792588106
 30
0.0
 11
53.073328115781635
 21
5.5599121926094881
 31
0.0
  0
LINE
  5
2D
100
AcDbEntity
  8
0
  6
CONTINUOUS
 62
               7
100
AcDbLine
 10
52.690598759338087
 20
12.005609922351681
 30
0.0
 11
49.999999835616279
 21
12.005609922351681
 31
0.0
  0
LINE
  5
2E
100
AcDbEntity
  8
0
  6
DASHED
 62
               2
100
AcDbLine
 10
53.276385226091236
 20
-11.408603551290526
 30
0.0
 11
50.156721634364146
 21
-8.2889399595634323
 31
0.0
  0
LINE
  5
2F
100
AcDbEntity
  8
0
  6
DASHED
 62
               2
100
AcDbLine
 10
56.104812302430958
 20
-8.5801765345554486
 30
0.0
 11
53.073328115781635
 21
-5.5486923479061261
 31
0.0
  0
LINE
  5
30
100
AcDbEntity
  8
0
  6
DASHED
 62
               2
100
AcDbLine
 10
56.845299222310871
 20
-7.7264408790092602
 30
0.0
 11
53.073328109566063
 21
-5.5486923416905505
 31
0.0
  0
LINE
  5
31
100
AcDbEntity
  8
0
  6
DASHED
 62
               2
100
AcDbLine
 10
58.845299222310871
 20
-4.2623392664413586
 30
0.0
 11
54.917095998336706
 21
-1.994390077648319
 31
0.0
  0
LINE
  5
32
100
AcDbEntity
  8
0
  6
CONTINUOUS
 62
               2
100
AcDbLine
 10
60.85124776926969
 20
-7.7298752655229919
 30
0.0
 11
47.452994402674278
 21
0.005609922351681
 31
0.0
  0
LINE
  5
33
100
AcDbEntity
  8
0
  6
CONTINUOUS
 62
               2
100
AcDbLine
 10
57.130471859572737
 20
-12.434263168036953
 30
0.0
 11
44.690598769184099
 21
0.005609922351681
 31
0.0
  0
LINE
  5
34
100
AcDbEntity
  8
0
  6
CONTINUOUS
 62
               7
100
AcDbLine
 10
52.690598759338087
 20
-11.994390077648319
 30
0.0
 11
49.999999835616279
 21
-11.994390077648319
 31
0.0
  0
LINE
  5
35
100
AcDbEntity
  8
0
  6
CONTINUOUS
 62
               7
100
AcDbLine
 10
49.502577223687716
 20
13.862016382902709
 30
0.0
 11
36.497422447544864
 21
13.856406460551028
 31
0.0
  0
LINE
  5
36
100
AcDbEntity
  8
0
  6
CONTINUOUS
 62
               7
100
AcDbLine
 10
35.999999835616279
 20
12.0
 30
0.0
 11
36.497422447544864
 21
13.856406460551028
 31
0.0
  0
LINE
  5
37
100
AcDbEntity
  8
0
  6
CONTINUOUS
 62
               7
100
AcDbLine
 10
49.999999835616279
 20
12.005609922351681
 30
0.0
 11
49.502577223687716
 21
13.862016382902709
 31
0.0
  0
LINE
  5
38
100
AcDbEntity
  8
0
  6
CONTINUOUS
 62
               7
100
AcDbLine
 10
35.999999835616279
 20
-12.0
 30
0.0
 11
36.497422447544864
 21
-13.856406460551028
 31
0.0
  0
LINE
  5
39
100
AcDbEntity
  8
0
  6
CONTINUOUS
 62
               7
100
AcDbLine
 10
49.999999835616279
 20
-11.994390077648319
 30
0.0
 11
49.502577223687716
 21
-13.850796538199347
 31
0.0
  0
LINE
  5
3A
100
AcDbEntity
  8
0
  6
CONTINUOUS
 62
               7
100
AcDbLine
 10
49.502577223687716
 20
-13.850796538199347
 30
0.0
 11
36.497422447544864
 21
-13.856406460551028
 31
0.0
  0
LINE
  5
3B
100
AcDbEntity
  8
0
  6
CONTINUOUS
 62
               7
100
AcDbLine
 10
49.999999835616279
 20
-11.994390077648319
 30
0.0
 11
49.999999835616279
 21
12.005609922351681
 31
0.0
  0
LINE
  5
3C
100
AcDbEntity
  8
0
  6
CONTINUOUS
 62
               7
100
AcDbLine
 10
52.690598759338087
 20
-11.994390077648319
 30
0.0
 11
52.690598759338087
 21
12.005609922351681
 31
0.0
  0
LINE
  5
3D
100
AcDbEntity
  8
0
  6
CONTINUOUS
 62
               7
100
AcDbLine
 10
56.69059875953122
 20
8.0056099221585484
 30
0.0
 11
56.69059875953122
 21
-7.9943900774551864
 31
0.0
  0
LINE
  5
3E
100
AcDbEntity
  8
0
  6
CONTINUOUS
 62
               7
100
AcDbLine
 10
49.502577223687716
 20
6.933813152627188
 30
0.0
 11
36.497422447544864
 21
6.928203230275507
 31
0.0
  0
LINE
  5
3F
100
AcDbEntity
  8
0
  6
CONTINUOUS
 62
               7
100
AcDbLine
 10
49.502577223687716
 20
-6.9225933079238331
 30
0.0
 11
36.497422447544864
 21
-6.9282032302755141
 31
0.0
  0
SPLINE
  5
40
100
AcDbEntity
  8
0
  6
CONTINUOUS
 62
               7
100
AcDbSpline
210
0.0
220
0.0
230
1.0
 70
               0
 71
               3
 72
               0
 73
               0
 74
               9
 44
0.000001
 12
0.6017963243298075
 22
-0.7986496002773263
 32
0.0
 13
0.7987639860840284
 23
-0.6016444918181784
 33
0.0
 11
53.276385226091236
 21
11.419823395993888
 31
0.0
 11
53.607055374696017
 21
10.997452405755848
 31
0.0
 11
53.95319807346182
 21
10.587559430265163
 31
0.0
 11
54.314572947849683
 21
10.190651509620709
 31
0.0
 11
54.690598764261097
 21
9.8076493136906535
 31
0.0
 11
55.029186986995619
 21
9.4863746385492647
 31
0.0
 11
55.378129471197852
 21
9.1763571875780876
 31
0.0
 11
55.736771495550997
 21
8.8779983382742333
 31
0.0
 11
56.104812302430958
 21
8.5913963792588106
 31
0.0
  0
SPLINE
  5
41
100
AcDbEntity
  8
0
  6
CONTINUOUS
 62
               7
100
AcDbSpline
210
0.0
220
0.0
230
1.0
 70
               0
 71
               3
 72
               0
 73
               0
 74
               9
 44
0.000001
 12
0.3496317402454344
 22
-0.9368872110414087
 32
0.0
 13
0.6370594308443098
 23
-0.7708146869204842
 33
0.0
 11
56.845299281615056
 21
7.7376607579519145
 31
0.0
 11
57.058304711563309
 21
7.2052690903650092
 31
0.0
 11
57.296142409328667
 21
6.6833403987679958
 31
0.0
 11
57.558633102165686
 21
6.1729137993009049
 31
0.0
 11
57.845299285371112
 21
5.6757590169673549
 31
0.0
 11
58.076314173800604
 21
5.3118138104353561
 31
0.0
 11
58.320365186172211
 21
4.9564700260200389
 31
0.0
 11
58.576798327209872
 21
4.6103419951302058
 31
0.0
 11
58.845299280502282
 21
4.2735591447415473
 31
0.0
  0
LINE
  5
42
100
AcDbEntity
  8
0
  6
CONTINUOUS
 62
               7
100
AcDbLine
 10
56.845299281615056
 20
7.7376607579519145
 30
0.0
 11
56.69059875953122
 21
8.0056099221585484
 31
0.0
  0
LINE
  5
43
100
AcDbEntity
  8
0
  6
CONTINUOUS
 62
               7
100
AcDbLine
 10
53.276385255893558
 20
11.41982342579621
 30
0.0
 11
52.690598759338087
 21
12.005609922351681
 31
0.0
  0
LINE
  5
44
100
AcDbEntity
  8
0
  6
CONTINUOUS
 62
               7
100
AcDbLine
 10
53.276385255893558
 20
-11.408603581092848
 30
0.0
 11
52.690598759338087
 21
-11.994390077648319
 31
0.0
  0
LINE
  5
45
100
AcDbEntity
  8
0
  6
CONTINUOUS
 62
               7
100
AcDbLine
 10
56.845299281615056
 20
-7.726440913248549
 30
0.0
 11
56.69059875953122
 21
-7.9943900774551864
 31
0.0
  0
SPLINE
  5
46
100
AcDbEntity
  8
0
  6
CONTINUOUS
 62
               7
100
AcDbSpline
210
0.0
220
0.0
230
1.0
 70
               0
 71
               3
 72
               0
 73
               0
 74
               9
 44
0.000001
 12
0.3496317402454344
 22
0.9368872110414087
 32
0.0
 13
0.6370594308443098
 23
0.7708146869204842
 33
0.0
 11
56.845299281615056
 21
-7.726440913248549
 31
0.0
 11
57.058304711563309
 21
-7.1940492456616445
 31
0.0
 11
57.296142409328667
 21
-6.672120554064632
 31
0.0
 11
57.558633102165686
 21
-6.161693954597542
 31
0.0
 11
57.845299285371112
 21
-5.6645391722639928
 31
0.0
 11
58.076314173800604
 21
-5.300593965731994
 31
0.0
 11
58.320365186172211
 21
-4.9452501813166769
 31
0.0
 11
58.576798327209872
 21
-4.5991221504268438
 31
0.0
 11
58.845299280502282
 21
-4.2623393000381853
 31
0.0
  0
SPLINE
  5
47
100
AcDbEntity
  8
0
  6
CONTINUOUS
 62
               7
100
AcDbSpline
210
0.0
220
0.0
230
1.0
 70
               0
 71
               3
 72
               0
 73
               0
 74
               9
 44
0.000001
 12
0.6017963243298075
 22
0.7986496002773263
 32
0.0
 13
0.7987639860840284
 23
0.6016444918181784
 33
0.0
 11
53.276385226091236
 21
-11.408603551290526
 31
0.0
 11
53.607055374696017
 21
-10.986232561052486
 31
0.0
 11
53.95319807346182
 21
-10.576339585561801
 31
0.0
 11
54.314572947849683
 21
-10.179431664917347
 31
0.0
 11
54.690598764261097
 21
-9.7964294689872915
 31
0.0
 11
55.029186986995619
 21
-9.4751547938459026
 31
0.0
 11
55.378129471197852
 21
-9.1651373428747256
 31
0.0
 11
55.736771495550997
 21
-8.8667784935708713
 31
0.0
 11
56.104812302430958
 21
-8.5801765345554486
 31
0.0
  0
LINE
  5
48
100
AcDbEntity
  8
0
  6
CONTINUOUS
 62
               7
100
AcDbLine
 10
56.690598764261097
 20
-7.9943900727253094
 30
0.0
 11
56.104812302430958
 21
-8.5801765345554486
 31
0.0
  0
LINE
  5
49
100
AcDbEntity
  8
0
  6
CONTINUOUS
 62
               7
100
AcDbLine
 10
58.999999835616279
 20
-3.9943900786216311
 30
0.0
 11
58.845299280502282
 21
-4.2623393000381853
 31
0.0
  0
LINE
  5
4A
100
AcDbEntity
  8
0
  6
CONTINUOUS
 62
               7
100
AcDbLine
 10
29.999999835616279
 20
14.005609922351681
 30
0.0
 11
29.999999835616279
 21
-13.999996634444528
 31
0.0
  0
LINE
  5
4B
100
AcDbEntity
  8
0
  6
CONTINUOUS
 62
               7
100
AcDbLine
 10
35.999999835616279
 20
14.005609922351681
 30
0.0
 11
35.999999835616279
 21
-13.999996634444528
 31
0.0
  0
SPLINE
  5
4C
100
AcDbEntity
  8
0
  6
CONTINUOUS
 62
               7
100
AcDbSpline
210
0.0
220
0.0
230
1.0
 70
               0
 71
               3
 72
               0
 73
               0
 74
               9
 44
0.000001
 12
0.1421356611115329
 22
-0.9898471871154595
 32
0.0
 13
-0.142135661111533
 23
-0.9898471871154595
 33
0.0
 11
49.502577223687723
 21
6.933814665323446
 31
0.0
 11
49.719166741492643
 21
5.210109717005059
 31
0.0
 11
49.874698473829689
 21
3.4795920685047239
 31
0.0
 11
49.968564620121683
 21
1.7436832327468768
 31
0.0
 11
49.999999835616308
 21
0.0056114350479319
 31
0.0
 11
49.968564620121683
 21
-1.7324603626510122
 31
0.0
 11
49.874698473829689
 21
-3.4683691984088596
 31
0.0
 11
49.719166741492643
 21
-5.1988868469091951
 31
0.0
 11
49.502577223687723
 21
-6.9225917952275813
 31
0.0
  0
SPLINE
  5
4D
100
AcDbEntity
  8
0
  6
CONTINUOUS
 62
               7
100
AcDbSpline
210
0.0
220
0.0
230
1.0
 70
               0
 71
               3
 72
               0
 73
               0
 74
               9
 44
0.000001
 12
0.2760296115454944
 22
-0.9611491317948757
 32
0.0
 13
-0.2760296115454946
 23
-0.9611491317948757
 33
0.0
 11
49.502577223687723
 21
13.86201789559896
 31
0.0
 11
49.716277639678275
 21
13.011880500433676
 31
0.0
 11
49.872038812577891
 21
12.148798210604106
 31
0.0
 11
49.967574022351172
 21
11.275545062144104
 31
0.0
 11
49.999999835616308
 21
10.397916280461196
 31
0.0
 11
49.967574022351172
 21
9.5202874987782895
 31
0.0
 11
49.872038812577891
 21
8.6470343503182896
 31
0.0
 11
49.716277639678275
 21
7.78395206048872
 31
0.0
 11
49.502577223687723
 21
6.9338146653234389
 31
0.0
  0
SPLINE
  5
4E
100
AcDbEntity
  8
0
  6
CONTINUOUS
 62
               7
100
AcDbSpline
210
0.0
220
0.0
230
1.0
 70
               0
 71
               3
 72
               0
 73
               0
 74
               9
 44
0.000001
 12
0.2760296115454951
 22
-0.9611491317948756
 32
0.0
 13
-0.2760296115454952
 23
-0.9611491317948755
 33
0.0
 11
49.502577223687723
 21
-6.9225917952275822
 31
0.0
 11
49.716277639678275
 21
-7.7727291903928624
 31
0.0
 11
49.872038812577891
 21
-8.6358114802224311
 31
0.0
 11
49.967574022351172
 21
-9.509064628682431
 31
0.0
 11
49.999999835616308
 21
-10.386693410365336
 31
0.0
 11
49.967574022351172
 21
-11.264322192048242
 31
0.0
 11
49.872038812577891
 21
-12.137575340508244
 31
0.0
 11
49.716277639678275
 21
-13.000657630337814
 31
0.0
 11
49.502577223687723
 21
-13.850795025503096
 31
0.0
  0
SPLINE
  5
4F
100
AcDbEntity
  8
0
  6
CONTINUOUS
 62
               7
100
AcDbSpline
210
0.0
220
0.0
230
1.0
 70
               0
 71
               3
 72
               0
 73
               0
 74
               9
 44
0.000001
 12
-0.2760296115454943
 22
-0.9611491317948758
 32
0.0
 13
0.2760296115454944
 23
-0.9611491317948757
 33
0.0
 11
36.497422365298718
 21
13.859209739141306
 31
0.0
 11
36.283721949308166
 21
13.009072343976023
 31
0.0
 11
36.12796077640855
 21
12.145990054146452
 31
0.0
 11
36.032425566635268
 21
11.27273690568645
 31
0.0
 11
35.999999753370133
 21
10.395108124003542
 31
0.0
 11
36.032425566635268
 21
9.5174793423206339
 31
0.0
 11
36.12796077640855
 21
8.6442261938606322
 31
0.0
 11
36.283721949308166
 21
7.7811439040310617
 31
0.0
 11
36.497422365298718
 21
6.931006508865778
 31
0.0
  0
SPLINE
  5
50
100
AcDbEntity
  8
0
  6
CONTINUOUS
 62
               7
100
AcDbSpline
210
0.0
220
0.0
230
1.0
 70
               0
 71
               3
 72
               0
 73
               0
 74
               9
 44
0.000001
 12
-0.142135661111533
 22
-0.9898471871154595
 32
0.0
 13
0.1421356611115329
 23
-0.9898471871154595
 33
0.0
 11
36.497422365298718
 21
6.9310065088657922
 31
0.0
 11
36.280832847493798
 21
5.2073015605474051
 31
0.0
 11
36.125301115156752
 21
3.47678391204707
 31
0.0
 11
36.031434968864758
 21
1.7408750762892229
 31
0.0
 11
35.999999753370133
 21
0.0028032785902781
 31
0.0
 11
36.031434968864758
 21
-1.735268519108667
 31
0.0
 11
36.125301115156752
 21
-3.4711773548665152
 31
0.0
 11
36.280832847493798
 21
-5.2016950033668508
 31
0.0
 11
36.497422365298718
 21
-6.9253999516852387
 31
0.0
  0
SPLINE
  5
51
100
AcDbEntity
  8
0
  6
CONTINUOUS
 62
               7
100
AcDbSpline
210
0.0
220
0.0
230
1.0
 70
               0
 71
               3
 72
               0
 73
               0
 74
               9
 44
0.000001
 12
-0.2760296115454952
 22
-0.9611491317948755
 32
0.0
 13
0.2760296115454953
 23
-0.9611491317948755
 33
0.0
 11
36.497422365298718
 21
-6.9253999516852396
 31
0.0
 11
36.283721949308166
 21
-7.7755373468505198
 31
0.0
 11
36.12796077640855
 21
-8.6386196366800885
 31
0.0
 11
36.032425566635268
 21
-9.5118727851400884
 31
0.0
 11
35.999999753370133
 21
-10.389501566822993
 31
0.0
 11
36.032425566635268
 21
-11.2671303485059
 31
0.0
 11
36.12796077640855
 21
-12.140383496965901
 31
0.0
 11
36.283721949308166
 21
-13.003465786795472
 31
0.0
 11
36.497422365298718
 21
-13.853603181960754
 31
0.0
  0
LINE
  5
52
100
AcDbEntity
  8
0
  6
CONTINUOUS
 62
               2
100
AcDbLine
 10
62.0
 20
0.0028066439535763
 30
0.0
 11
-3.9286206749320769
 21
0.0028066439535763
 31
0.0
  0
SPLINE
  5
53
100
AcDbEntity
  8
0
  6
CONTINUOUS
 62
               7
100
AcDbSpline
210
0.0
220
0.0
230
1.0
 70
               0
 71
               3
 72
               0
 73
               0
 74
               9
 44
0.000001
 12
0.2760296115454944
 22
-0.9611491317948757
 32
0.0
 13
-0.2760296115454946
 23
-0.9611491317948757
 33
0.0
 11
29.502577223687695
 21
13.859214617616317
 31
0.0
 11
29.716277639678243
 21
13.009077222451033
 31
0.0
 11
29.872038812577863
 21
12.145994932621463
 31
0.0
 11
29.967574022351144
 21
11.272741784161461
 31
0.0
 11
29.999999835616279
 21
10.395113002478553
 31
0.0
 11
29.967574022351144
 21
9.5174842207956463
 31
0.0
 11
29.872038812577863
 21
8.6442310723356464
 31
0.0
 11
29.716277639678243
 21
7.7811487825060768
 31
0.0
 11
29.502577223687695
 21
6.9310113873407957
 31
0.0
  0
SPLINE
  5
54
100
AcDbEntity
  8
0
  6
CONTINUOUS
 62
               7
100
AcDbSpline
210
0.0
220
0.0
230
1.0
 70
               0
 71
               3
 72
               0
 73
               0
 74
               9
 44
0.000001
 12
0.1421356611115329
 22
-0.9898471871154595
 32
0.0
 13
-0.142135661111533
 23
-0.9898471871154595
 33
0.0
 11
29.502577223687695
 21
6.9310113873408028
 31
0.0
 11
29.719166741492611
 21
5.2073064390224157
 31
0.0
 11
29.874698473829657
 21
3.4767887905220807
 31
0.0
 11
29.968564620121654
 21
1.7408799547642331
 31
0.0
 11
29.999999835616279
 21
0.0028081570652887
 31
0.0
 11
29.968564620121654
 21
-1.7352636406336555
 31
0.0
 11
29.87469847382966
 21
-3.4711724763915028
 31
0.0
 11
29.719166741492614
 21
-5.2016901248918384
 31
0.0
 11
29.502577223687695
 21
-6.9253950732102245
 31
0.0
  0
SPLINE
  5
55
100
AcDbEntity
  8
0
  6
CONTINUOUS
 62
               7
100
AcDbSpline
210
0.0
220
0.0
230
1.0
 70
               0
 71
               3
 72
               0
 73
               0
 74
               9
 44
0.000001
 12
0.2760296115454951
 22
-0.9611491317948756
 32
0.0
 13
-0.2760296115454952
 23
-0.9611491317948755
 33
0.0
 11
29.502577223687695
 21
-6.9253950732102254
 31
0.0
 11
29.716277639678243
 21
-7.7755324683755056
 31
0.0
 11
29.872038812577863
 21
-8.6386147582050743
 31
0.0
 11
29.967574022351144
 21
-9.5118679066650742
 31
0.0
 11
29.999999835616279
 21
-10.389496688347979
 31
0.0
 11
29.967574022351144
 21
-11.267125470030885
 31
0.0
 11
29.872038812577863
 21
-12.140378618490887
 31
0.0
 11
29.716277639678246
 21
-13.003460908320458
 31
0.0
 11
29.502577223687695
 21
-13.85359830348574
 31
0.0
  0
LINE
  5
56
100
AcDbEntity
  8
0
  6
CONTINUOUS
 62
               7
100
AcDbLine
 10
29.999999835616244
 20
-11.997189990267664
 30
0.0
 11
29.502577223687688
 21
-13.853596450818685
 31
0.0
  0
LINE
  5
57
100
AcDbEntity
  8
0
  6
CONTINUOUS
 62
               7
100
AcDbLine
 10
29.999999835616244
 20
12.002810009732336
 30
0.0
 11
29.502577223687688
 21
13.859216470283357
 31
0.0
  0
LINE
  5
58
100
AcDbEntity
  8
0
  6
CONTINUOUS
 62
               7
100
AcDbLine
 10
0.4974226119285561
 20
-13.856406460551021
 30
0.0
 11
29.502577305825255
 21
-13.850789806865109
 31
0.0
  0
LINE
  5
59
100
AcDbEntity
  8
0
  6
CONTINUOUS
 62
               7
100
AcDbLine
 10
29.502577223687695
 20
-6.9253950732102361
 30
0.0
 11
0.4966163846916629
 21
-6.9310117268961484
 31
0.0
  0
LINE
  5
5A
100
AcDbEntity
  8
0
  6
CONTINUOUS
 62
               7
100
AcDbLine
 10
29.502577223687695
 20
6.9310113873408028
 30
0.0
 11
0.4970194123236809
 21
6.9253947336548904
 31
0.0
  0
LINE
  5
5B
100
AcDbEntity
  8
0
  6
CONTINUOUS
 62
               7
100
AcDbLine
 10
0.4974225297909811
 20
13.853599816597445
 30
0.0
 11
29.502577223687688
 21
13.859216470283357
 31
0.0
  0
LINE
  5
5C
100
AcDbEntity
  8
0
  6
CONTINUOUS
 62
               7
100
AcDbLine
 10
0.4974225297909811
 20
-13.859213104504594
 30
0.0
 11
29.502577223687688
 21
-13.853596450818682
 31
0.0
  0
LINE
  5
5D
100
AcDbEntity
  8
0
  6
CONTINUOUS
 62
               7
100
AcDbLine
 10
-0.000000082137575
 20
11.997193356046424
 30
0.0
 11
-0.000000082137575
 21
-12.002806643953576
 31
0.0
  0
LINE
  5
5E
100
AcDbEntity
  8
0
  6
CONTINUOUS
 62
               7
100
AcDbLine
 10
-0.000000082137575
 20
11.997193356046424
 30
0.0
 11
0.4974225297909811
 21
13.853599816597445
 31
0.0
  0
LINE
  5
5F
100
AcDbEntity
  8
0
  6
CONTINUOUS
 62
               7
100
AcDbLine
 10
-0.000000082137575
 20
-12.002806643953576
 30
0.0
 11
0.4974225297909811
 21
-13.859213104504597
 31
0.0
  0
SPLINE
  5
60
100
AcDbEntity
  8
0
  6
CONTINUOUS
 62
               7
100
AcDbSpline
210
0.0
220
0.0
230
1.0
 70
               0
 71
               3
 72
               0
 73
               0
 74
               9
 44
0.000001
 12
-0.2760296115454952
 22
-0.9611491317948755
 32
0.0
 13
0.2760296115454953
 23
-0.9611491317948755
 33
0.0
 11
0.4974226119285845
 21
-6.9282032302755177
 31
0.0
 11
0.2837221959380346
 21
-7.7783406254407979
 31
0.0
 11
0.1279610230384161
 21
-8.6414229152703665
 31
0.0
 11
0.0324258132651339
 21
-9.5146760637303665
 31
0.0
 11
0.0
 21
-10.392304845413271
 31
0.0
 11
0.0324258132651336
 21
-11.269933627096178
 31
0.0
 11
0.1279610230384157
 21
-12.143186775556179
 31
0.0
 11
0.2837221959380344
 21
-13.00626906538575
 31
0.0
 11
0.4974226119285848
 21
-13.856406460551032
 31
0.0
  0
SPLINE
  5
61
100
AcDbEntity
  8
0
  6
CONTINUOUS
 62
               7
100
AcDbSpline
210
0.0
220
0.0
230
1.0
 70
               0
 71
               3
 72
               0
 73
               0
 74
               9
 44
0.000001
 12
-0.142135661111533
 22
-0.9898471871154595
 32
0.0
 13
0.1421356611115329
 23
-0.9898471871154595
 33
0.0
 11
0.4974226119285845
 21
6.9282032302755141
 31
0.0
 11
0.2808330941236661
 21
5.204498281957127
 31
0.0
 11
0.1253013617866207
 21
3.473980633456792
 31
0.0
 11
0.0314352154946248
 21
1.7380717976989444
 31
0.0
 11
0.0
 21
0.0
 31
0.0
 11
0.0314352154946246
 21
-1.738071797698945
 31
0.0
 11
0.1253013617866205
 21
-3.4739806334567933
 31
0.0
 11
0.2808330941236661
 21
-5.2044982819571288
 31
0.0
 11
0.4974226119285847
 21
-6.9282032302755168
 31
0.0
  0
SPLINE
  5
62
100
AcDbEntity
  8
0
  6
CONTINUOUS
 62
               7
100
AcDbSpline
210
0.0
220
0.0
230
1.0
 70
               0
 71
               3
 72
               0
 73
               0
 74
               9
 44
0.000001
 12
-0.2760296115454943
 22
-0.9611491317948758
 32
0.0
 13
0.2760296115454941
 23
-0.9611491317948758
 33
0.0
 11
0.4974226119285845
 21
13.856406460551028
 31
0.0
 11
0.2837221959380346
 21
13.006269065385744
 31
0.0
 11
0.1279610230384158
 21
12.143186775556174
 31
0.0
 11
0.0324258132651337
 21
11.269933627096172
 31
0.0
 11
0.0
 21
10.392304845413264
 31
0.0
 11
0.0324258132651339
 21
9.5146760637303558
 31
0.0
 11
0.1279610230384162
 21
8.6414229152703541
 31
0.0
 11
0.2837221959380347
 21
7.7783406254407836
 31
0.0
 11
0.4974226119285844
 21
6.9282032302754999
 31
0.0
  0
LINE
  5
63
100
AcDbEntity
  8
0
  6
CONTINUOUS
 62
               7
100
AcDbLine
 10
35.41967345503295
 20
16.171417459661207
 30
0.0
 11
30.580326216199609
 21
16.171417459661207
 31
0.0
  0
LINE
  5
64
100
AcDbEntity
  8
0
  6
CONTINUOUS
 62
               7
100
AcDbLine
 10
30.57882394383374
 20
-16.160197614957841
 30
0.0
 11
35.421175727398818
 21
-16.160197614957841
 31
0.0
  0
LINE
  5
65
100
AcDbEntity
  8
0
  6
CONTINUOUS
 62
               7
100
AcDbLine
 10
30.581971483828099
 20
-8.0772938463030854
 30
0.0
 11
35.419673455032957
 21
-8.0772938463030854
 31
0.0
  0
LINE
  5
66
100
AcDbEntity
  8
0
  6
CONTINUOUS
 62
               7
100
AcDbLine
 10
30.580326216199609
 20
8.0885136910064404
 30
0.0
 11
35.419673455032957
 21
8.0885136910064404
 31
0.0
  0
LINE
  5
67
100
AcDbEntity
  8
0
  6
CONTINUOUS
 62
               7
100
AcDbLine
 10
35.999999835616279
 20
14.005609922351681
 30
0.0
 11
35.41967345503295
 21
16.171417459661207
 31
0.0
  0
LINE
  5
68
100
AcDbEntity
  8
0
  6
CONTINUOUS
 62
               7
100
AcDbLine
 10
29.999999835616279
 20
14.005609922351681
 30
0.0
 11
30.580326216199609
 21
16.171417459661207
 31
0.0
  0
ARC
  5
69
100
AcDbEntity
  8
0
  6
CONTINUOUS
 62
               7
100
AcDbCircle
 10
21.63729584775173
 20
12.129965575333813
 30
0.0
 40
14.362703987864547
100
AcDbArc
 50
343.65710669401494
 51
16.342893305984337
  0
ARC
  5
6A
100
AcDbEntity
  8
0
  6
CONTINUOUS
 62
               7
100
AcDbCircle
 10
-20.580326544967647
 20
0.0056099223517094
 30
0.0
 40
56.580326380583934
100
AcDbArc
 50
351.78678929826111
 51
8.2132107017380633
  0
ARC
  5
6B
100
AcDbEntity
  8
0
  6
CONTINUOUS
 62
               7
100
AcDbCircle
 10
21.63729584775173
 20
-12.12435228742666
 30
0.0
 40
14.362703987864547
100
AcDbArc
 50
343.65710669401568
 51
16.342893305984237
  0
LINE
  5
6C
100
AcDbEntity
  8
0
  6
CONTINUOUS
 62
               7
100
AcDbLine
 10
35.999999835616279
 20
-13.999996634444528
 30
0.0
 11
35.41967345503295
 21
-16.165804171754054
 31
0.0
  0
LINE
  5
6D
100
AcDbEntity
  8
0
  6
CONTINUOUS
 62
               7
100
AcDbLine
 10
29.999999835616279
 20
-13.999996634444528
 30
0.0
 11
30.580326216199609
 21
-16.165804171754054
 31
0.0
  0
ARC
  5
6E
100
AcDbEntity
  8
0
  6
CONTINUOUS
 62
               7
100
AcDbCircle
 10
44.362703823480828
 20
12.129965575333813
 30
0.0
 40
14.362703987864547
100
AcDbArc
 50
163.65710669401525
 51
196.34289330598384
  0
ARC
  5
6F
100
AcDbEntity
  8
0
  6
CONTINUOUS
 62
               7
100
AcDbCircle
 10
86.580326216200206
 20
0.0056099223517094
 30
0.0
 40
56.580326380583934
100
AcDbArc
 50
171.78678929826154
 51
188.21321070173769
  0
ARC
  5
70
100
AcDbEntity
  8
0
  6
CONTINUOUS
 62
               7
100
AcDbCircle
 10
44.362703823480828
 20
-12.12435228742666
 30
0.0
 40
14.362703987864547
100
AcDbArc
 50
163.65710669401534
 51
196.34289330598395
  0
ENDBLK
  5
71
100
AcDbEntity
  8
0
100
AcDbBlockEnd
  0
BLOCK
  5
72
100
AcDbEntity
  8
0
100
AcDbBlockBegin
  2
DTRY-ADN-FT-01-2
 70
               0
 10
0.0
 20
0.0
 30
0.0
  3
DTRY-ADN-FT-01-2
  1

  0
LINE
  5
73
100
AcDbEntity
  8
0
  6
CONTINUOUS
 62
               7
100
AcDbLine
 10
-12.0
 20
6.928203230275507
 30
0.0
 11
0.0
 21
13.856406460551028
 31
0.0
  0
LINE
  5
74
100
AcDbEntity
  8
0
  6
CONTINUOUS
 62
               7
100
AcDbLine
 10
-12.0
 20
-6.9282032302755141
 30
0.0
 11
-12.0
 21
6.928203230275507
 31
0.0
  0
LINE
  5
75
100
AcDbEntity
  8
0
  6
CONTINUOUS
 62
               7
100
AcDbLine
 10
0.0
 20
-13.856406460551021
 30
0.0
 11
-12.0
 21
-6.9282032302755141
 31
0.0
  0
LINE
  5
76
100
AcDbEntity
  8
0
  6
CONTINUOUS
 62
               7
100
AcDbLine
 10
12.0
 20
-6.9282032302755105
 30
0.0
 11
0.0
 21
-13.856406460551021
 31
0.0
  0
LINE
  5
77
100
AcDbEntity
  8
0
  6
CONTINUOUS
 62
               7
100
AcDbLine
 10
12.0
 20
6.9282032302755141
 30
0.0
 11
12.0
 21
-6.9282032302755105
 31
0.0
  0
LINE
  5
78
100
AcDbEntity
  8
0
  6
CONTINUOUS
 62
               7
100
AcDbLine
 10
0.0
 20
13.856406460551021
 30
0.0
 11
12.0
 21
6.9282032302755141
 31
0.0
  0
ELLIPSE
  5
79
100
AcDbEntity
  8
0
  6
CONTINUOUS
 62
               7
100
AcDbEllipse
 10
0.0
 20
-6.000000021525679
 30
0.0
 11
-2.0
 21
0.0000000000000002
 31
0.0
210
0.0
220
0.0
230
1.0
 40
0.85
 41
0.0
 42
6.2831853071795862
  0
LINE
  5
7A
100
AcDbEntity
  8
0
  6
CONTINUOUS
 62
               2
100
AcDbLine
 10
2.9150523295047464
 20
-6.000000021525679
 30
0.0
 11
-3.0980126193536819
 21
-6.000000021525679
 31
0.0
  0
LINE
  5
7B
100
AcDbEntity
  8
0
  6
CONTINUOUS
 62
               2
100
AcDbLine
 10
2.7550087752862567
 20
-9.9999999950769904
 30
0.0
 11
-2.9151056936754287
 21
-9.9999999950769904
 31
0.0
  0
ELLIPSE
  5
7C
100
AcDbEntity
  8
0
  6
CONTINUOUS
 62
               7
100
AcDbEllipse
 10
0.0
 20
-9.9999999950769904
 30
0.0
 11
-2.0
 21
0.0000000000000002
 31
0.0
210
0.0
220
0.0
230
1.0
 40
0.7
 41
0.0
 42
6.2831853071795862
  0
CIRCLE
  5
7D
100
AcDbEntity
  8
0
  6
CONTINUOUS
 62
               7
100
AcDbCircle
 10
0.0
 20
0.0
 30
0.0
 40
2.0
  0
ELLIPSE
  5
7E
100
AcDbEntity
  8
0
  6
CONTINUOUS
 62
               7
100
AcDbEllipse
 10
0.0
 20
6.000000021525679
 30
0.0
 11
-2.0
 21
0.0000000000000002
 31
0.0
210
0.0
220
0.0
230
1.0
 40
0.85
 41
0.0
 42
6.2831853071795862
  0
ELLIPSE
  5
7F
100
AcDbEntity
  8
0
  6
CONTINUOUS
 62
               7
100
AcDbEllipse
 10
0.0
 20
9.9999999950769904
 30
0.0
 11
-2.0
 21
0.0000000000000002
 31
0.0
210
0.0
220
0.0
230
1.0
 40
0.7
 41
0.0
 42
6.2831853071795862
  0
LINE
  5
80
100
AcDbEntity
  8
0
  6
CONTINUOUS
 62
               2
100
AcDbLine
 10
2.9150523295047464
 20
6.000000021525679
 30
0.0
 11
-3.0980126193536819
 21
6.000000021525679
 31
0.0
  0
LINE
  5
81
100
AcDbEntity
  8
0
  6
CONTINUOUS
 62
               2
100
AcDbLine
 10
2.7550087752862567
 20
9.9999999950769904
 30
0.0
 11
-2.9151056936754287
 21
9.9999999950769904
 31
0.0
  0
CIRCLE
  5
82
100
AcDbEntity
  8
0
  6
CONTINUOUS
 62
               7
100
AcDbCircle
 10
0.0
 20
0.0
 30
0.0
 40
8.0
  0
CIRCLE
  5
83
100
AcDbEntity
  8
0
  6
CONTINUOUS
 62
               7
100
AcDbCircle
 10
0.0
 20
0.0
 30
0.0
 40
4.0
  0
CIRCLE
  5
84
100
AcDbEntity
  8
0
  6
CONTINUOUS
 62
               7
100
AcDbCircle
 10
0.0
 20
0.0
 30
0.0
 40
12.0
  0
LINE
  5
85
100
AcDbEntity
  8
0
  6
CONTINUOUS
 62
               2
100
AcDbLine
 10
18.206743608473317
 20
0.0
 30
0.0
 11
-18.501096859021203
 21
0.0
 31
0.0
  0
LINE
  5
86
100
AcDbEntity
  8
0
  6
CONTINUOUS
 62
               2
100
AcDbLine
 10
0.0
 20
18.162356756756758
 30
0.0
 11
0.0
 21
-18.940191672753826
 31
0.0
  0
CIRCLE
  5
87
100
AcDbEntity
  8
0
  6
CONTINUOUS
 62
               7
100
AcDbCircle
 10
0.0
 20
0.0
 30
0.0
 40
14.0
  0
LINE
  5
88
100
AcDbEntity
  8
0
  6
CONTINUOUS
 62
               7
100
AcDbLine
 10
14.0
 20
8.0829037686547593
 30
0.0
 11
0.0
 21
16.165807537309526
 31
0.0
  0
LINE
  5
89
100
AcDbEntity
  8
0
  6
CONTINUOUS
 62
               7
100
AcDbLine
 10
0.0
 20
16.165807537309526
 30
0.0
 11
-14.0
 21
8.0829037686547665
 31
0.0
  0
LINE
  5
8A
100
AcDbEntity
  8
0
  6
CONTINUOUS
 62
               7
100
AcDbLine
 10
-14.0
 20
8.0829037686547665
 30
0.0
 11
-14.0
 21
-8.0829037686547629
 31
0.0
  0
LINE
  5
8B
100
AcDbEntity
  8
0
  6
CONTINUOUS
 62
               7
100
AcDbLine
 10
-14.0
 20
-8.0829037686547629
 30
0.0
 11
0.0
 21
-16.165807537309522
 31
0.0
  0
LINE
  5
8C
100
AcDbEntity
  8
0
  6
CONTINUOUS
 62
               7
100
AcDbLine
 10
0.0
 20
-16.165807537309522
 30
0.0
 11
14.0
 21
-8.0829037686547665
 31
0.0
  0
LINE
  5
8D
100
AcDbEntity
  8
0
  6
CONTINUOUS
 62
               7
100
AcDbLine
 10
14.0
 20
-8.0829037686547665
 30
0.0
 11
14.0
 21
8.0829037686547593
 31
0.0
  0
ENDBLK
  5
8E
100
AcDbEntity
  8
0
100
AcDbBlockEnd
  0
ENDSEC
  0
SECTION
  2
ENTITIES
  0
INSERT
  5
8F
100
AcDbEntity
  8
0
  6
ByBlock
100
AcDbBlockReference
  2
DTRY-ADN-FT-01-1
 10
-77.003675593429563
 20
2.8246561810613429
 30
0.0
 50
359.99727442621167
  0
INSERT
  5
90
100
AcDbEntity
  8
0
  6
ByBlock
100
AcDbBlockReference
  2
DTRY-ADN-FT-01-2
 10
51.058810810810797
 20
2.8274594594594475
 30
0.0
  0
MTEXT
  5
91
100
AcDbEntity
  8
0
  6
CONTINUOUS
 62
               7
100
AcDbMText
 10
-129.43362213492546
 20
74.5
 30
0.0
 40
3.1999998092651367
 41
0.0
 71
               4
 72
               1
  1
\W1.062;\A1;MODEL:DTRY-ADN-FT-01
  0
MTEXT
  5
92
100
AcDbEntity
  8
0
  6
CONTINUOUS
 62
               7
100
AcDbMText
 10
-116.51051956841908
 20
89.099999841054284
 30
0.0
 40
3.1999998092651367
 41
0.0
 71
               1
 72
               1
  1
\W1.105;\A1;IONIZER
  0
MTEXT
  5
93
100
AcDbEntity
  8
0
  6
CONTINUOUS
 62
               7
100
AcDbMText
 10
93.749460389051933
 20
89.5
 30
0.0
 40
3.1999998092651367
 41
0.0
 71
               4
 72
               1
  1
\W1.311;\A1;Ver. 1.0
  0
MTEXT
  5
94
100
AcDbEntity
  8
0
  6
CONTINUOUS
 62
               7
100
AcDbMText
 10
77.440523981154129
 20
-89.800003051757812
 30
0.0
 40
4.5
 41
0.0
 71
               4
 72
               1
  1
\W1.121;\A1;KOGANEI CORP.
  0
LINE
  5
95
100
AcDbEntity
  8
0
  6
CONTINUOUS
 62
               7
100
AcDbLine
 10
-73.399993896484375
 20
94.5
 30
0.0
 11
-73.399993896484375
 21
84.5
 31
0.0
  0
LINE
  5
96
100
AcDbEntity
  8
0
  6
CONTINUOUS
 62
               7
100
AcDbLine
 10
73.350006103515625
 20
94.5
 30
0.0
 11
73.350006103515625
 21
84.5
 31
0.0
  0
LINE
  5
97
100
AcDbEntity
  8
0
  6
CONTINUOUS
 62
               7
100
AcDbLine
 10
73.350006103515625
 20
-84.800003051757813
 30
0.0
 11
73.350006103515625
 21
-94.800003051757812
 31
0.0
  0
LINE
  5
98
100
AcDbEntity
  8
0
  6
CONTINUOUS
 62
               7
100
AcDbLine
 10
73.350006103515625
 20
84.5
 30
0.0
 11
138.35000610351562
 21
84.5
 31
0.0
  0
LINE
  5
99
100
AcDbEntity
  8
0
  6
CONTINUOUS
 62
               7
100
AcDbLine
 10
-138.39999389648437
 20
84.5
 30
0.0
 11
-73.399993896484375
 21
84.5
 31
0.0
  0
LINE
  5
9A
100
AcDbEntity
  8
0
  6
CONTINUOUS
 62
               7
100
AcDbLine
 10
73.350006103515625
 20
-84.800003051757813
 30
0.0
 11
138.35000610351562
 21
-84.800003051757813
 31
0.0
  0
LINE
  5
9B
100
AcDbEntity
  8
0
  6
CONTINUOUS
 62
               7
100
AcDbLine
 10
-138.39999389648437
 20
94.5
 30
0.0
 11
-138.39999389648437
 21
-94.800003051757812
 31
0.0
  0
LINE
  5
9C
100
AcDbEntity
  8
0
  6
CONTINUOUS
 62
               7
100
AcDbLine
 10
-138.39999389648437
 20
-94.800003051757812
 30
0.0
 11
138.35000610351562
 21
-94.800003051757812
 31
0.0
  0
LINE
  5
9D
100
AcDbEntity
  8
0
  6
CONTINUOUS
 62
               7
100
AcDbLine
 10
138.35000610351562
 20
94.5
 30
0.0
 11
138.35000610351562
 21
-94.800003051757812
 31
0.0
  0
LINE
  5
9E
100
AcDbEntity
  8
0
  6
CONTINUOUS
 62
               7
100
AcDbLine
 10
-138.39999389648437
 20
94.5
 30
0.0
 11
138.35000610351562
 21
94.5
 31
0.0
  0
MTEXT
  5
9F
100
AcDbEntity
  8
0
  6
CONTINUOUS
 62
               7
100
AcDbMText
 10
-116.56664323806763
 20
91.5
 30
0.0
 40
3.1999998092651367
 41
0.0
 71
               4
 72
               1
  1
\A1;CRECEED
  0
ENDSEC
  0
SECTION
  2
OBJECTS
  0
DICTIONARY
  5
19
100
AcDbDictionary
  3
ACAD_GROUP
350
1A
  3
ACAD_MLINESTYLE
350
1B
  0
DICTIONARY
  5
1A
102
{ACAD_REACTORS
330
19
102
}
100
AcDbDictionary
  0
DICTIONARY
  5
1B
102
{ACAD_REACTORS
330
19
102
}
100
AcDbDictionary
  3
STANDARD
350
1C
  0
MLINESTYLE
  5
1C
102
{ACAD_REACTORS
330
1B
102
}
100
AcDbMlineStyle
  2
Standard
 70
               0
  3

 62
               0
 51
90.0
 52
90.0
 71
               2
 49
0.5
 62
             256
  6
ByLayer
 49
-0.5
 62
             256
  6
ByLayer
  0
ENDSEC
  0
EOF
