  0
SECTION
  2
HEADER
  9
$ACADVER
  1
AC1012
  9
$DWGCODEPAGE
  3
dos932
  9
$INSBASE
 10
0.0
 20
0.0
 30
0.0
  9
$EXTMIN
 10
-138.39999389648437
 20
-94.800003051757812
 30
0.0
  9
$EXTMAX
 10
138.35000610351562
 20
94.5
 30
0.0
  9
$LIMMIN
 10
-138.39999389648437
 20
-94.800003051757812
  9
$LIMMAX
 10
138.35000610351562
 20
94.5
  9
$ORTHOMODE
 70
               0
  9
$REGENMODE
 70
               1
  9
$FILLMODE
 70
               1
  9
$QTEXTMODE
 70
               0
  9
$MIRRTEXT
 70
               1
  9
$DRAGMODE
 70
               2
  9
$LTSCALE
 40
1.0
  9
$OSMODE
 70
               0
  9
$ATTMODE
 70
               1
  9
$TEXTSIZE
 40
3.2000000476837158
  9
$TRACEWID
 40
0.05
  9
$TEXTSTYLE
  7
MX_NOTE_STANDARD
  9
$CLAYER
  8
0
  9
$CELTYPE
  6
CONTINUOUS
  9
$CECOLOR
 62
             256
  9
$CELTSCALE
 40
1.0
  9
$DELOBJ
 70
               1
  9
$DISPSILH
 70
               0
  9
$DIMSCALE
 40
1.0
  9
$DIMASZ
 40
2.5
  9
$DIMEXO
 40
1.5
  9
$DIMDLI
 40
3.75
  9
$DIMRND
 40
0.0
  9
$DIMDLE
 40
0.0
  9
$DIMEXE
 40
1.5
  9
$DIMTP
 40
0.0
  9
$DIMTM
 40
0.0
  9
$DIMTXT
 40
3.2000000476837158
  9
$DIMCEN
 40
2.5
  9
$DIMTSZ
 40
0.0
  9
$DIMTOL
 70
               0
  9
$DIMLIM
 70
               0
  9
$DIMTIH
 70
               0
  9
$DIMTOH
 70
               0
  9
$DIMSE1
 70
               0
  9
$DIMSE2
 70
               0
  9
$DIMTAD
 70
               1
  9
$DIMZIN
 70
               8
  9
$DIMBLK
  1

  9
$DIMASO
 70
               1
  9
$DIMSHO
 70
               1
  9
$DIMPOST
  1

  9
$DIMAPOST
  1

  9
$DIMALT
 70
               0
  9
$DIMALTD
 70
               4
  9
$DIMALTF
 40
0.03937007874016
  9
$DIMLFAC
 40
1.0
  9
$DIMTOFL
 70
               1
  9
$DIMTVP
 40
0.0
  9
$DIMTIX
 70
               0
  9
$DIMSOXD
 70
               0
  9
$DIMSAH
 70
               0
  9
$DIMBLK1
  1

  9
$DIMBLK2
  1

  9
$DIMSTYLE
  2
MXDIMSTYLE
  9
$DIMCLRD
 70
               0
  9
$DIMCLRE
 70
               0
  9
$DIMCLRT
 70
               0
  9
$DIMTFAC
 40
1.0
  9
$DIMGAP
 40
1.0
  9
$DIMJUST
 70
               0
  9
$DIMSD1
 70
               0
  9
$DIMSD2
 70
               0
  9
$DIMTOLJ
 70
               1
  9
$DIMTZIN
 70
               0
  9
$DIMALTZ
 70
               0
  9
$DIMALTTZ
 70
               0
  9
$DIMFIT
 70
               3
  9
$DIMUPT
 70
               1
  9
$DIMUNIT
 70
               2
  9
$DIMDEC
 70
               4
  9
$DIMTDEC
 70
               4
  9
$DIMALTU
 70
               2
  9
$DIMALTTD
 70
               4
  9
$DIMTXSTY
  7
MX_NOTE_STANDARD
  9
$DIMAUNIT
 70
               0
  9
$LUNITS
 70
               2
  9
$LUPREC
 70
               4
  9
$SKETCHINC
 40
0.1
  9
$FILLETRAD
 40
0.0
  9
$AUNITS
 70
               0
  9
$AUPREC
 70
               0
  9
$MENU
  1
acad
  9
$ELEVATION
 40
0.0
  9
$PELEVATION
 40
0.0
  9
$THICKNESS
 40
0.0
  9
$LIMCHECK
 70
               0
  9
$BLIPMODE
 70
               1
  9
$CHAMFERA
 40
0.0
  9
$CHAMFERB
 40
0.0
  9
$CHAMFERC
 40
0.0
  9
$CHAMFERD
 40
0.0
  9
$SKPOLY
 70
               0
  9
$TDCREATE
 40
2453378.356273148
  9
$TDUPDATE
 40
2453378.356273148
  9
$TDINDWG
 40
0.0000000000
  9
$TDUSRTIMER
 40
0.0000000000
  9
$USRTIMER
 70
               1
  9
$ANGBASE
 50
0.0
  9
$ANGDIR
 70
               0
  9
$PDMODE
 70
               0
  9
$PDSIZE
 40
0.0
  9
$PLINEWID
 40
0.0
  9
$COORDS
 70
               1
  9
$SPLFRAME
 70
               0
  9
$SPLINETYPE
 70
               6
  9
$SPLINESEGS
 70
               8
  9
$ATTDIA
 70
               0
  9
$ATTREQ
 70
               1
  9
$HANDLING
 70
               1
  9
$HANDSEED
  5
BC
  9
$SURFTAB1
 70
               6
  9
$SURFTAB2
 70
               6
  9
$SURFTYPE
 70
               6
  9
$SURFU
 70
               6
  9
$SURFV
 70
               6
  9
$UCSNAME
  2

  9
$UCSORG
 10
0.0
 20
0.0
 30
0.0
  9
$UCSXDIR
 10
1.0
 20
0.0
 30
0.0
  9
$UCSYDIR
 10
0.0
 20
1.0
 30
0.0
  9
$PUCSNAME
  2

  9
$PUCSORG
 10
0.0
 20
0.0
 30
0.0
  9
$PUCSXDIR
 10
1.0
 20
0.0
 30
0.0
  9
$PUCSYDIR
 10
0.0
 20
1.0
 30
0.0
  9
$USERI1
 70
               0
  9
$USERI2
 70
               0
  9
$USERI3
 70
               0
  9
$USERI4
 70
               0
  9
$USERI5
 70
               0
  9
$USERR1
 40
0.0
  9
$USERR2
 40
0.0
  9
$USERR3
 40
0.0
  9
$USERR4
 40
0.0
  9
$USERR5
 40
0.0
  9
$WORLDVIEW
 70
               1
  9
$SHADEDGE
 70
               3
  9
$SHADEDIF
 70
              70
  9
$TILEMODE
 70
               1
  9
$MAXACTVP
 70
              16
  9
$PINSBASE
 10
0.0
 20
0.0
 30
0.0
  9
$PLIMCHECK
 70
               0
  9
$PEXTMIN
 10
1.0000000000000000E+20
 20
1.0000000000000000E+20
 30
1.0000000000000000E+20
  9
$PEXTMAX
 10
-1.0000000000000000E+20
 20
-1.0000000000000000E+20
 30
-1.0000000000000000E+20
  9
$PLIMMIN
 10
0.0
 20
0.0
  9
$PLIMMAX
 10
12.0
 20
9.0
  9
$UNITMODE
 70
               0
  9
$VISRETAIN
 70
               0
  9
$PLINEGEN
 70
               1
  9
$PSLTSCALE
 70
               0
  9
$TREEDEPTH
 70
            3020
  9
$PICKSTYLE
 70
               1
  9
$CMLSTYLE
  2
Standard
  9
$CMLJUST
 70
               0
  9
$CMLSCALE
 40
1.0
  9
$SAVEIMAGES
 70
               0
  0
ENDSEC
  0
SECTION
  2
CLASSES
  0
CLASS
  1
LWPOLYLINE
  2
AcDbPolyline
  3
"AutoCAD"
 90
        0
280
               0
281
               1
  0
CLASS
  1
IMAGE
  2
AcDbRasterImage
  3
ISM
 90
      127
280
               0
281
               1
  0
CLASS
  1
OLE2FRAME
  2
AcDbOle2Frame
  3
""
 90
        0
280
               0
281
               1
  0
CLASS
  1
HATCH
  2
AcDbHatch
  3
"ACAD_SEDONA"
 90
        0
280
               0
281
               1
  0
CLASS
  1
DICTIONARYVAR
  2
AcDbDictionaryVar
  3
"AutoCAD"
 90
        0
280
               0
281
               0
  0
CLASS
  1
RASTERVARIABLES
  2
AcDbRasterVariables
  3
ISM
 90
        0
280
               0
281
               0
  0
CLASS
  1
IMAGEDEF
  2
AcDbRasterImageDef
  3
ISM
 90
        0
280
               0
281
               0
  0
CLASS
  1
IMAGEDEF_REACTOR
  2
AcDbRasterImageDefReactor
  3
ISM
 90
        1
280
               0
281
               0
  0
CLASS
  1
IDBUFFER
  2
AcDbIdBuffer
  3
"Acad"
 90
        0
280
               0
281
               0
  0
CLASS
  1
SPATIAL_FILTER
  2
AcDbSpatialFilter
  3
"Acad"
 90
        0
280
               0
281
               0
  0
CLASS
  1
XRECORD
  2
AcDbXrecord
  3
"<Built In>"
 90
        0
280
               0
281
               0
  0
CLASS
  1
SORTENTSTABLE
  2
AcDbSortentsTable
  3
"AutoCAD"
 90
        0
280
               0
281
               0
  0
CLASS
  1
LAYER_INDEX
  2
AcDbLayerIndex
  3
"Acad"
 90
        0
280
               0
281
               0
  0
CLASS
  1
SPATIAL_INDEX
  2
AcDbSpatialIndex
  3
"Acad"
 90
        0
280
               0
281
               0
  0
CLASS
  1
OBJECT_PTR
  2
CAseDLPNTableRecord
  3
"ASE-LPNTableRecord"
 90
        1
280
               0
281
               0
  0
CLASS
  1
LAYOUT
  2
AcDbLayout
  3
"AutoCAD 2000"
 90
        1
280
               0
281
               0
  0
CLASS
  1
PLOTSETTINGS
  2
AcDbPlotSettings
  3
"AutoCAD 2000"
 90
        1
280
               0
281
               0
  0
CLASS
  1
ACDBDICTIONARYWDFLT
  2
AcDbDictionaryWithDefault
  3
"AutoCAD 2000"
 90
        1
280
               0
281
               0
  0
CLASS
  1
ACDBPLACEHOLDER
  2
AcDbPlaceHolder
  3
"AutoCAD 2000"
 90
        1
280
               0
281
               0
  0
ENDSEC
  0
SECTION
  2
TABLES
  0
TABLE
  2
VPORT
  5
7
100
AcDbSymbolTable
 70
               1
  0
VPORT
  5
15
100
AcDbSymbolTableRecord
100
AcDbViewportTableRecord
  2
*ACTIVE
 70
               0
 10
0.0
 20
0.0
 11
1.0
 21
1.0
 12
-0.024993896484375
 22
-0.1500015258789063
 13
0.0
 23
0.0
 14
1.0
 24
1.0
 15
0.0
 25
0.0
 16
0.0
 26
0.0
 36
1.0
 17
0.0
 27
0.0
 37
0.0
 40
191.1930030822754
 41
1.7320508075688772
 42
50.0
 43
0.0
 44
0.0
 50
0.0
 51
0.0
 71
               0
 72
             100
 73
               1
 74
               1
 75
               0
 76
               0
 77
               0
 78
               0
  0
ENDTAB
  0
TABLE
  2
LTYPE
  5
4
100
AcDbSymbolTable
 70
               4
  0
LTYPE
  5
11
100
AcDbSymbolTableRecord
100
AcDbLinetypeTableRecord
  2
BYBLOCK
 70
              64
  3

 72
              65
 73
               0
 40
0.0
  0
LTYPE
  5
12
100
AcDbSymbolTableRecord
100
AcDbLinetypeTableRecord
  2
BYLAYER
 70
              64
  3

 72
              65
 73
               0
 40
0.0
  0
LTYPE
  5
13
100
AcDbSymbolTableRecord
100
AcDbLinetypeTableRecord
  2
CONTINUOUS
 70
              64
  3
Solid line
 72
              65
 73
               0
 40
0.0
  0
LTYPE
  5
2F
100
AcDbSymbolTableRecord
100
AcDbLinetypeTableRecord
  2
DASHED
 70
              64
  3
Dashed __ __ __ __ __ __ __ __ __ __ __ __ __ _
 72
              65
 73
               2
 40
4.0
 49
2.0
 74
               0
 49
-2.0
 74
               0
  0
ENDTAB
  0
TABLE
  2
LAYER
  5
2
100
AcDbSymbolTable
 70
               2
  0
LAYER
  5
14
100
AcDbSymbolTableRecord
100
AcDbLayerTableRecord
  2
0
 70
               0
 62
               7
  6
CONTINUOUS
  0
LAYER
  5
1D
100
AcDbSymbolTableRecord
100
AcDbLayerTableRecord
  2
DEFPOINTS
 70
               0
 62
               7
  6
CONTINUOUS
  0
ENDTAB
  0
TABLE
  2
STYLE
  5
3
100
AcDbSymbolTable
 70
               1
  0
STYLE
  5
17
100
AcDbSymbolTableRecord
100
AcDbTextStyleTableRecord
  2
MX_NOTE_STANDARD
 70
               0
 40
0.0
 41
1.0
 50
0.0
 71
               0
 42
3.2000000476837158
  3
txt.shx
  4
extfont.shx
  0
ENDTAB
  0
TABLE
  2
VIEW
  5
5
100
AcDbSymbolTable
 70
               0
  0
ENDTAB
  0
TABLE
  2
UCS
  5
6
100
AcDbSymbolTable
 70
               0
  0
ENDTAB
  0
TABLE
  2
APPID
  5
8
100
AcDbSymbolTable
 70
               1
  0
APPID
  5
16
100
AcDbSymbolTableRecord
100
AcDbRegAppTableRecord
  2
ACAD
 70
               0
  0
ENDTAB
  0
TABLE
  2
DIMSTYLE
  5
9
100
AcDbSymbolTable
 70
               1
  0
DIMSTYLE
105
18
100
AcDbSymbolTableRecord
100
AcDbDimStyleTableRecord
  2
MXDIMSTYLE
 70
               0
  3

  4

  5

  6

  7

 40
1.0
 41
2.5
 42
1.5
 43
3.75
 44
1.5
 45
0.0
 46
0.0
 47
0.0
 48
0.0
 71
               0
 72
               0
 73
               0
 74
               0
 75
               0
 76
               0
 77
               1
 78
               8
140
3.2000000476837158
141
2.5
142
0.0
143
0.03937007874016
144
1.0
145
0.0
146
1.0
147
1.0
170
               0
171
               4
172
               1
173
               0
174
               0
175
               0
176
               0
177
               0
178
               0
270
               2
271
               4
272
               4
273
               2
274
               4
275
               0
280
               0
281
               0
282
               0
283
               1
284
               0
285
               0
286
               0
287
               3
288
               1
340
17
  0
ENDTAB
  0
TABLE
  2
BLOCK_RECORD
  5
1
100
AcDbSymbolTable
 70
               4
  0
BLOCK_RECORD
  5
A
100
AcDbSymbolTableRecord
100
AcDbBlockTableRecord
  2
*MODEL_SPACE
  0
BLOCK_RECORD
  5
B
100
AcDbSymbolTableRecord
100
AcDbBlockTableRecord
  2
*PAPER_SPACE
  0
BLOCK_RECORD
  5
1E
100
AcDbSymbolTableRecord
100
AcDbBlockTableRecord
  2
DTRY-ADN-SW60-1
  0
BLOCK_RECORD
  5
1F
100
AcDbSymbolTableRecord
100
AcDbBlockTableRecord
  2
DTRY-ADN-SW60-2
  0
BLOCK_RECORD
  5
20
100
AcDbSymbolTableRecord
100
AcDbBlockTableRecord
  2
DTRY-ADN-SW60-3
  0
BLOCK_RECORD
  5
21
100
AcDbSymbolTableRecord
100
AcDbBlockTableRecord
  2
DTRY-ADN-SW60-4
  0
ENDTAB
  0
ENDSEC
  0
SECTION
  2
BLOCKS
  0
BLOCK
  5
D
100
AcDbEntity
  8
0
100
AcDbBlockBegin
  2
*MODEL_SPACE
 70
               0
 10
0.0
 20
0.0
 30
0.0
  3
*MODEL_SPACE
  1

  0
ENDBLK
  5
E
100
AcDbEntity
  8
0
100
AcDbBlockEnd
  0
BLOCK
  5
F
100
AcDbEntity
 67
               1
  8
0
100
AcDbBlockBegin
  2
*PAPER_SPACE
 70
               0
 10
0.0
 20
0.0
 30
0.0
  3
*PAPER_SPACE
  1

  0
ENDBLK
  5
10
100
AcDbEntity
 67
               1
  8
0
100
AcDbBlockEnd
  0
BLOCK
  5
22
100
AcDbEntity
  8
0
100
AcDbBlockBegin
  2
DTRY-ADN-SW60-1
 70
               0
 10
0.0
 20
0.0
 30
0.0
  3
DTRY-ADN-SW60-1
  1

  0
LINE
  5
23
100
AcDbEntity
  8
0
  6
CONTINUOUS
 62
               7
100
AcDbLine
 10
0.0
 20
-11.999999999999993
 30
0.0
 11
0.0
 21
12.0
 31
0.0
  0
LINE
  5
24
100
AcDbEntity
  8
0
  6
CONTINUOUS
 62
               7
100
AcDbLine
 10
29.502577388071437
 20
13.856406460551028
 30
0.0
 11
0.4974226119285845
 21
13.856406460551028
 31
0.0
  0
LINE
  5
25
100
AcDbEntity
  8
0
  6
CONTINUOUS
 62
               7
100
AcDbLine
 10
30.0
 20
12.0
 30
0.0
 11
29.502577388071437
 21
13.856406460551028
 31
0.0
  0
LINE
  5
26
100
AcDbEntity
  8
0
  6
CONTINUOUS
 62
               7
100
AcDbLine
 10
0.0
 20
12.0
 30
0.0
 11
0.4974226119285845
 21
13.856406460551028
 31
0.0
  0
LINE
  5
27
100
AcDbEntity
  8
0
  6
CONTINUOUS
 62
               7
100
AcDbLine
 10
0.0
 20
-11.999999999999993
 30
0.0
 11
0.4974226119285845
 21
-13.856406460551014
 31
0.0
  0
LINE
  5
28
100
AcDbEntity
  8
0
  6
CONTINUOUS
 62
               7
100
AcDbLine
 10
30.0
 20
-11.999999999999993
 30
0.0
 11
29.502577388071437
 21
-13.856406460551014
 31
0.0
  0
LINE
  5
29
100
AcDbEntity
  8
0
  6
CONTINUOUS
 62
               7
100
AcDbLine
 10
29.502577388071437
 20
-13.856406460551014
 30
0.0
 11
0.4974226119285845
 21
-13.856406460551014
 31
0.0
  0
LINE
  5
2A
100
AcDbEntity
  8
0
  6
CONTINUOUS
 62
               7
100
AcDbLine
 10
30.0
 20
-11.999999999999993
 30
0.0
 11
35.381197846482991
 21
-11.999999999999993
 31
0.0
  0
LINE
  5
2B
100
AcDbEntity
  8
0
  6
CONTINUOUS
 62
               7
100
AcDbLine
 10
35.381197846482991
 20
12.0
 30
0.0
 11
30.0
 21
12.0
 31
0.0
  0
LINE
  5
2C
100
AcDbEntity
  8
0
  6
CONTINUOUS
 62
               2
100
AcDbLine
 10
-4.8689507625617523
 20
0.0
 30
0.0
 11
44.880129729729731
 21
0.0
 31
0.0
  0
LINE
  5
2D
100
AcDbEntity
  8
0
  6
CONTINUOUS
 62
               7
100
AcDbLine
 10
40.0
 20
-4.0
 30
0.0
 11
40.0
 21
4.0
 31
0.0
  0
LINE
  5
2E
100
AcDbEntity
  8
0
  6
CONTINUOUS
 62
               7
100
AcDbLine
 10
40.0
 20
4.0
 30
0.0
 11
38.690598923241481
 21
6.2679491924311463
 31
0.0
  0
LINE
  5
30
100
AcDbEntity
  8
0
  6
DASHED
 62
               2
100
AcDbLine
 10
40.0
 20
2.0
 30
0.0
 11
37.790881867499074
 21
2.0
 31
0.0
  0
LINE
  5
31
100
AcDbEntity
  8
0
  6
DASHED
 62
               2
100
AcDbLine
 10
40.0
 20
-2.0
 30
0.0
 11
37.790881867499088
 21
-2.0
 31
0.0
  0
LINE
  5
32
100
AcDbEntity
  8
0
  6
DASHED
 62
               2
100
AcDbLine
 10
36.690598923241495
 20
9.7320508075688821
 30
0.0
 11
34.167734920081372
 21
8.2754745962155596
 31
0.0
  0
LINE
  5
33
100
AcDbEntity
  8
0
  6
DASHED
 62
               2
100
AcDbLine
 10
38.690598923241495
 20
6.2679491924311321
 30
0.0
 11
36.167734920081365
 21
4.8113729810778096
 31
0.0
  0
LINE
  5
34
100
AcDbEntity
  8
0
  6
DASHED
 62
               2
100
AcDbLine
 10
36.690598923241495
 20
-9.7320508075688679
 30
0.0
 11
34.167734920081372
 21
-8.2754745962155525
 31
0.0
  0
LINE
  5
35
100
AcDbEntity
  8
0
  6
DASHED
 62
               2
100
AcDbLine
 10
38.690598923241495
 20
-6.2679491924311179
 30
0.0
 11
36.167734920081365
 21
-4.8113729810777954
 31
0.0
  0
LINE
  5
36
100
AcDbEntity
  8
0
  6
CONTINUOUS
 62
               7
100
AcDbLine
 10
30.0
 20
-11.999999999999993
 30
0.0
 11
30.0
 21
12.0
 31
0.0
  0
LINE
  5
37
100
AcDbEntity
  8
0
  6
CONTINUOUS
 62
               7
100
AcDbLine
 10
0.4974226119285845
 20
6.9282032302754999
 30
0.0
 11
29.502577388071437
 21
6.9282032302754999
 31
0.0
  0
LINE
  5
38
100
AcDbEntity
  8
0
  6
CONTINUOUS
 62
               7
100
AcDbLine
 10
0.4974226119285845
 20
-6.9282032302755141
 30
0.0
 11
29.502577388071437
 21
-6.9282032302755141
 31
0.0
  0
SPLINE
  5
39
100
AcDbEntity
  8
0
  6
CONTINUOUS
 62
               7
100
AcDbSpline
210
0.0
220
0.0
230
1.0
 70
               0
 71
               3
 72
               0
 73
               0
 74
               9
 44
0.000001
 12
0.2760296115454836
 22
-0.9611491317948788
 32
0.0
 13
-0.2760296115454834
 23
-0.9611491317948789
 33
0.0
 11
29.502577388071437
 21
13.856406460551028
 31
0.0
 11
29.716277804061978
 21
13.006269065385744
 31
0.0
 11
29.872038976961591
 21
12.143186775556172
 31
0.0
 11
29.967574186734868
 21
11.269933627096171
 31
0.0
 11
30.0
 21
10.392304845413264
 31
0.0
 11
29.967574186734868
 21
9.5146760637303576
 31
0.0
 11
29.872038976961591
 21
8.6414229152703559
 31
0.0
 11
29.716277804061978
 21
7.7783406254407845
 31
0.0
 11
29.502577388071437
 21
6.9282032302754999
 31
0.0
  0
SPLINE
  5
3A
100
AcDbEntity
  8
0
  6
CONTINUOUS
 62
               7
100
AcDbSpline
210
0.0
220
0.0
230
1.0
 70
               0
 71
               3
 72
               0
 73
               0
 74
               9
 44
0.000001
 12
0.142135661111527
 22
-0.9898471871154604
 32
0.0
 13
-0.1421356611115271
 23
-0.9898471871154604
 33
0.0
 11
29.502577388071437
 21
6.9282032302754999
 31
0.0
 11
29.719166905876346
 21
5.2044982819571164
 31
0.0
 11
29.874698638213385
 21
3.4739806334567835
 31
0.0
 11
29.968564784505375
 21
1.7380717976989402
 31
0.0
 11
30.0
 21
0.0
 31
0.0
 11
29.968564784505375
 21
-1.7380717976989439
 31
0.0
 11
29.874698638213385
 21
-3.4739806334567911
 31
0.0
 11
29.719166905876346
 21
-5.204498281957127
 31
0.0
 11
29.502577388071437
 21
-6.9282032302755141
 31
0.0
  0
SPLINE
  5
3B
100
AcDbEntity
  8
0
  6
CONTINUOUS
 62
               7
100
AcDbSpline
210
0.0
220
0.0
230
1.0
 70
               0
 71
               3
 72
               0
 73
               0
 74
               9
 44
0.000001
 12
0.2760296115454848
 22
-0.9611491317948785
 32
0.0
 13
-0.2760296115454847
 23
-0.9611491317948785
 33
0.0
 11
29.502577388071437
 21
-6.9282032302755141
 31
0.0
 11
29.716277804061978
 21
-7.7783406254407952
 31
0.0
 11
29.872038976961591
 21
-8.641422915270363
 31
0.0
 11
29.967574186734868
 21
-9.5146760637303611
 31
0.0
 11
30.0
 21
-10.392304845413264
 31
0.0
 11
29.967574186734868
 21
-11.269933627096167
 31
0.0
 11
29.872038976961591
 21
-12.143186775556165
 31
0.0
 11
29.716277804061978
 21
-13.006269065385732
 31
0.0
 11
29.502577388071437
 21
-13.856406460551014
 31
0.0
  0
SPLINE
  5
3C
100
AcDbEntity
  8
0
  6
CONTINUOUS
 62
               7
100
AcDbSpline
210
0.0
220
0.0
230
1.0
 70
               0
 71
               3
 72
               0
 73
               0
 74
               9
 44
0.000001
 12
-0.2760296115454907
 22
-0.9611491317948768
 32
0.0
 13
0.2760296115454908
 23
-0.9611491317948768
 33
0.0
 11
0.4974226119285845
 21
13.856406460551028
 31
0.0
 11
0.2837221959380366
 21
13.006269065385744
 31
0.0
 11
0.1279610230384182
 21
12.143186775556174
 31
0.0
 11
0.0324258132651348
 21
11.269933627096172
 31
0.0
 11
0.0
 21
10.392304845413264
 31
0.0
 11
0.0324258132651342
 21
9.5146760637303576
 31
0.0
 11
0.1279610230384173
 21
8.6414229152703559
 31
0.0
 11
0.2837221959380362
 21
7.7783406254407845
 31
0.0
 11
0.4974226119285846
 21
6.9282032302754999
 31
0.0
  0
SPLINE
  5
3D
100
AcDbEntity
  8
0
  6
CONTINUOUS
 62
               7
100
AcDbSpline
210
0.0
220
0.0
230
1.0
 70
               0
 71
               3
 72
               0
 73
               0
 74
               9
 44
0.000001
 12
-0.1421356611115311
 22
-0.9898471871154597
 32
0.0
 13
0.142135661111531
 23
-0.9898471871154598
 33
0.0
 11
0.4974226119285845
 21
6.9282032302754999
 31
0.0
 11
0.2808330941236682
 21
5.2044982819571164
 31
0.0
 11
0.1253013617866224
 21
3.473980633456784
 31
0.0
 11
0.0314352154946255
 21
1.7380717976989399
 31
0.0
 11
0.0
 21
0.0
 31
0.0
 11
0.0314352154946251
 21
-1.7380717976989446
 31
0.0
 11
0.1253013617866219
 21
-3.473980633456792
 31
0.0
 11
0.2808330941236678
 21
-5.204498281957127
 31
0.0
 11
0.4974226119285843
 21
-6.9282032302755141
 31
0.0
  0
SPLINE
  5
3E
100
AcDbEntity
  8
0
  6
CONTINUOUS
 62
               7
100
AcDbSpline
210
0.0
220
0.0
230
1.0
 70
               0
 71
               3
 72
               0
 73
               0
 74
               9
 44
0.000001
 12
-0.276029611545492
 22
-0.9611491317948765
 32
0.0
 13
0.2760296115454919
 23
-0.9611491317948765
 33
0.0
 11
0.4974226119285845
 21
-6.9282032302755141
 31
0.0
 11
0.2837221959380363
 21
-7.7783406254407943
 31
0.0
 11
0.1279610230384174
 21
-8.6414229152703612
 31
0.0
 11
0.0324258132651343
 21
-9.5146760637303593
 31
0.0
 11
0.0
 21
-10.392304845413264
 31
0.0
 11
0.0324258132651344
 21
-11.269933627096169
 31
0.0
 11
0.1279610230384176
 21
-12.143186775556167
 31
0.0
 11
0.2837221959380364
 21
-13.006269065385734
 31
0.0
 11
0.4974226119285846
 21
-13.856406460551014
 31
0.0
  0
LINE
  5
3F
100
AcDbEntity
  8
0
  6
CONTINUOUS
 62
               7
100
AcDbLine
 10
35.381197846482991
 20
12.0
 30
0.0
 11
35.381197846482991
 21
-11.999999999999993
 31
0.0
  0
SPLINE
  5
40
100
AcDbEntity
  8
0
  6
CONTINUOUS
 62
               7
100
AcDbSpline
210
0.0
220
0.0
230
1.0
 70
               0
 71
               3
 72
               0
 73
               0
 74
               9
 44
0.000001
 12
0.3855971185291225
 22
-0.9226672543132968
 32
0.0
 13
0.6064368243468326
 23
-0.7951316734202764
 33
0.0
 11
36.690598923241495
 21
9.7320508075688821
 31
0.0
 11
36.914037088270582
 21
9.2227325416635253
 31
0.0
 11
37.155297700846994
 21
8.7215255730851062
 31
0.0
 11
37.414257267607979
 21
8.228954464210517
 31
0.0
 11
37.690598923241495
 21
7.7459666924148394
 31
0.0
 11
37.924731203860773
 21
7.3658221728755979
 31
0.0
 11
38.169667370502019
 21
6.9925398609273097
 31
0.0
 11
38.425017368841495
 21
6.6265440230999335
 31
0.0
 11
38.690598923241495
 21
6.2679491924311321
 31
0.0
  0
LINE
  5
41
100
AcDbEntity
  8
0
  6
CONTINUOUS
 62
               7
100
AcDbLine
 10
36.690598923241495
 20
9.7320508075688821
 30
0.0
 11
35.381197846482991
 21
12.0
 31
0.0
  0
LINE
  5
42
100
AcDbEntity
  8
0
  6
CONTINUOUS
 62
               7
100
AcDbLine
 10
36.690598923241495
 20
-9.7320508075688679
 30
0.0
 11
35.381197846482991
 21
-11.999999999999993
 31
0.0
  0
SPLINE
  5
43
100
AcDbEntity
  8
0
  6
CONTINUOUS
 62
               7
100
AcDbSpline
210
0.0
220
0.0
230
1.0
 70
               0
 71
               3
 72
               0
 73
               0
 74
               9
 44
0.000001
 12
0.3855971185291223
 22
0.9226672543132969
 32
0.0
 13
0.6064368243468321
 23
0.7951316734202767
 33
0.0
 11
36.690598923241495
 21
-9.7320508075688679
 31
0.0
 11
36.914037088270582
 21
-9.2227325416635111
 31
0.0
 11
37.155297700846994
 21
-8.721525573085092
 31
0.0
 11
37.414257267607979
 21
-8.2289544642105028
 31
0.0
 11
37.690598923241495
 21
-7.7459666924148252
 31
0.0
 11
37.924731203860773
 21
-7.3658221728755837
 31
0.0
 11
38.169667370502019
 21
-6.9925398609272955
 31
0.0
 11
38.425017368841495
 21
-6.6265440230999193
 31
0.0
 11
38.690598923241495
 21
-6.2679491924311179
 31
0.0
  0
LINE
  5
44
100
AcDbEntity
  8
0
  6
CONTINUOUS
 62
               7
100
AcDbLine
 10
40.0
 20
-4.0
 30
0.0
 11
38.690598923241481
 21
-6.2679491924311321
 31
0.0
  0
LINE
  5
45
100
AcDbEntity
  8
0
  6
CONTINUOUS
 62
               2
100
AcDbLine
 10
37.690598923241488
 20
1.377374130248171
 30
0.0
 11
37.690598923241488
 21
6.4147765629122517
 31
0.0
  0
LINE
  5
46
100
AcDbEntity
  8
0
  6
CONTINUOUS
 62
               2
100
AcDbLine
 10
36.281356319130516
 20
5.2204398952554243
 30
0.0
 11
39.102966707756259
 21
2.7768536191234716
 31
0.0
  0
SPLINE
  5
47
100
AcDbEntity
  8
0
  6
CONTINUOUS
 62
               7
100
AcDbSpline
210
0.0
220
0.0
230
1.0
 70
               1
 71
               3
 72
               0
 73
               0
 74
              17
 44
0.000001
 12
0.3121599384794933
 22
0.9500295641760203
 32
0.0
 13
0.312159938479493
 23
0.9500295641760204
 33
0.0
 11
38.690598923241495
 21
3.1339745962155661
 31
0.0
 11
38.80714423187294
 21
3.9306090308984292
 31
0.0
 11
38.614290772354899
 21
4.7527733266372643
 31
0.0
 11
38.231257657057661
 21
5.3342499526252354
 31
0.0
 11
37.690598923241488
 21
5.6050341537763018
 31
0.0
 11
37.402098729784683
 21
5.5505505024546817
 31
0.0
 11
37.130495470284714
 21
5.4009565169967217
 31
0.0
 11
36.876102089844515
 21
5.1568536852615168
 31
0.0
 11
36.690598923241495
 21
4.8660254037844481
 31
0.0
 11
36.502303136578831
 21
4.0279069940238159
 31
0.0
 11
36.703222970366959
 21
3.1086773424837109
 31
0.0
 11
37.114535232378635
 21
2.4309222420170729
 31
0.0
 11
37.690598923241488
 21
2.1409325386385376
 31
0.0
 11
37.994054405768438
 21
2.2351240837554802
 31
0.0
 11
38.271346639451352
 21
2.4390125181615145
 31
0.0
 11
38.526439639176495
 21
2.7637248684573783
 31
0.0
 11
38.690598923241495
 21
3.1339745962155661
 31
0.0
  0
LINE
  5
48
100
AcDbEntity
  8
0
  6
CONTINUOUS
 62
               2
100
AcDbLine
 10
37.690598923241488
 20
-1.3773741302481426
 30
0.0
 11
37.690598923241488
 21
-6.4147765629122375
 31
0.0
  0
LINE
  5
49
100
AcDbEntity
  8
0
  6
CONTINUOUS
 62
               2
100
AcDbLine
 10
36.281356319130516
 20
-5.2204398952554172
 30
0.0
 11
39.102966707756259
 21
-2.7768536191234574
 31
0.0
  0
SPLINE
  5
4A
100
AcDbEntity
  8
0
  6
CONTINUOUS
 62
               7
100
AcDbSpline
210
0.0
220
0.0
230
1.0
 70
               1
 71
               3
 72
               0
 73
               0
 74
              17
 44
0.000001
 12
0.3121599384794935
 22
-0.9500295641760201
 32
0.0
 13
0.3121599384794937
 23
-0.9500295641760201
 33
0.0
 11
38.690598923241495
 21
-3.1339745962155519
 31
0.0
 11
38.80714423187294
 21
-3.930609030898415
 31
0.0
 11
38.614290772354899
 21
-4.7527733266372501
 31
0.0
 11
38.231257657057661
 21
-5.3342499526252212
 31
0.0
 11
37.690598923241488
 21
-5.6050341537762876
 31
0.0
 11
37.402098729784683
 21
-5.5505505024546675
 31
0.0
 11
37.130495470284714
 21
-5.4009565169967075
 31
0.0
 11
36.876102089844515
 21
-5.1568536852615026
 31
0.0
 11
36.690598923241495
 21
-4.8660254037844339
 31
0.0
 11
36.502303136578831
 21
-4.0279069940238017
 31
0.0
 11
36.703222970366959
 21
-3.1086773424836966
 31
0.0
 11
37.114535232378635
 21
-2.4309222420170586
 31
0.0
 11
37.690598923241488
 21
-2.1409325386385234
 31
0.0
 11
37.994054405768438
 21
-2.235124083755466
 31
0.0
 11
38.271346639451352
 21
-2.4390125181615003
 31
0.0
 11
38.526439639176495
 21
-2.7637248684573641
 31
0.0
 11
38.690598923241495
 21
-3.1339745962155519
 31
0.0
  0
LINE
  5
4B
100
AcDbEntity
  8
0
  6
CONTINUOUS
 62
               2
100
AcDbLine
 10
32.884317842850052
 20
-5.2250923244349892
 30
0.0
 11
39.921500701801747
 21
-9.2880117423873685
 31
0.0
  0
LINE
  5
4C
100
AcDbEntity
  8
0
  6
CONTINUOUS
 62
               2
100
AcDbLine
 10
32.884317842850052
 20
5.2250923244349963
 30
0.0
 11
39.921500701801747
 21
9.2880117423873827
 31
0.0
  0
ENDBLK
  5
4D
100
AcDbEntity
  8
0
100
AcDbBlockEnd
  0
BLOCK
  5
4E
100
AcDbEntity
  8
0
100
AcDbBlockBegin
  2
DTRY-ADN-SW60-2
 70
               0
 10
0.0
 20
0.0
 30
0.0
  3
DTRY-ADN-SW60-2
  1

  0
LINE
  5
4F
100
AcDbEntity
  8
0
  6
CONTINUOUS
 62
               2
100
AcDbLine
 10
-16.901708108108103
 20
-0.0000000000000071
 30
0.0
 11
16.901708108108124
 21
-0.0000000000000071
 31
0.0
  0
LINE
  5
50
100
AcDbEntity
  8
0
  6
CONTINUOUS
 62
               2
100
AcDbLine
 10
0.0
 20
16.901708108108117
 30
0.0
 11
0.0
 21
-17.979594594594609
 31
0.0
  0
CIRCLE
  5
51
100
AcDbEntity
  8
0
  6
CONTINUOUS
 62
               7
100
AcDbCircle
 10
0.0
 20
-0.0000000000000071
 30
0.0
 40
2.0
  0
CIRCLE
  5
52
100
AcDbEntity
  8
0
  6
CONTINUOUS
 62
               2
100
AcDbCircle
 10
0.0
 20
-0.0000000000000071
 30
0.0
 40
8.0
  0
CIRCLE
  5
53
100
AcDbEntity
  8
0
  6
CONTINUOUS
 62
               7
100
AcDbCircle
 10
0.0
 20
-0.0000000000000071
 30
0.0
 40
4.0
  0
LINE
  5
54
100
AcDbEntity
  8
0
  6
CONTINUOUS
 62
               7
100
AcDbLine
 10
-12.000000000000028
 20
6.9282032302754928
 30
0.0
 11
0.0
 21
13.856406460551021
 31
0.0
  0
LINE
  5
55
100
AcDbEntity
  8
0
  6
CONTINUOUS
 62
               7
100
AcDbLine
 10
-12.0
 20
-6.9282032302755212
 30
0.0
 11
-12.000000000000014
 21
6.9282032302754928
 31
0.0
  0
LINE
  5
56
100
AcDbEntity
  8
0
  6
CONTINUOUS
 62
               7
100
AcDbLine
 10
0.0
 20
-13.856406460551014
 30
0.0
 11
-12.0
 21
-6.9282032302755212
 31
0.0
  0
LINE
  5
57
100
AcDbEntity
  8
0
  6
CONTINUOUS
 62
               7
100
AcDbLine
 10
12.0
 20
-6.9282032302754999
 30
0.0
 11
0.0
 21
-13.856406460551021
 31
0.0
  0
LINE
  5
58
100
AcDbEntity
  8
0
  6
CONTINUOUS
 62
               7
100
AcDbLine
 10
12.0
 20
6.9282032302755212
 30
0.0
 11
12.0
 21
-6.9282032302754999
 31
0.0
  0
LINE
  5
59
100
AcDbEntity
  8
0
  6
CONTINUOUS
 62
               7
100
AcDbLine
 10
0.0
 20
13.856406460551021
 30
0.0
 11
12.0
 21
6.9282032302755212
 31
0.0
  0
CIRCLE
  5
5A
100
AcDbEntity
  8
0
  6
CONTINUOUS
 62
               7
100
AcDbCircle
 10
0.0
 20
-0.0000000000000071
 30
0.0
 40
12.0
  0
SPLINE
  5
5B
100
AcDbEntity
  8
0
  6
CONTINUOUS
 62
               7
100
AcDbSpline
210
0.0
220
0.0
230
1.0
 70
               1
 71
               3
 72
               0
 73
               0
 74
              17
 44
0.000001
 12
1.0
 22
0.0000000000000001
 32
0.0
 13
1.0
 23
-0.0000000000000001
 33
0.0
 11
0.0
 21
9.732050807568875
 31
0.0
 11
0.7608386277174157
 21
9.5558128115522418
 31
0.0
 11
1.4250224045888853
 21
9.0804292742514328
 31
0.0
 11
1.869995296253576
 21
8.4504002815638035
 31
0.0
 11
2.0
 21
7.7459666924148323
 31
0.0
 11
1.7765384667243735
 21
7.173917096126865
 31
0.0
 11
1.3308649108416368
 21
6.7057204189065782
 31
0.0
 11
0.6963041437935378
 21
6.3760481021264352
 31
0.0
 11
0.0
 21
6.267949192431125
 31
0.0
 11
-0.6963041437935384
 21
6.3760481021264335
 31
0.0
 11
-1.3308649108416382
 21
6.7057204189065747
 31
0.0
 11
-1.7765384667243747
 21
7.1739170961268623
 31
0.0
 11
-2.0
 21
7.7459666924148323
 31
0.0
 11
-1.8699952962535757
 21
8.4504002815638035
 31
0.0
 11
-1.4250224045888857
 21
9.0804292742514328
 31
0.0
 11
-0.7608386277174162
 21
9.5558128115522418
 31
0.0
 11
-0.0000000000000004
 21
9.732050807568875
 31
0.0
  0
SPLINE
  5
5C
100
AcDbEntity
  8
0
  6
CONTINUOUS
 62
               7
100
AcDbSpline
210
0.0
220
0.0
230
1.0
 70
               1
 71
               3
 72
               0
 73
               0
 74
              17
 44
0.000001
 12
1.0
 22
-0.0000000000000001
 32
0.0
 13
1.0
 23
0.0000000000000001
 33
0.0
 11
0.0
 21
-9.732050807568875
 31
0.0
 11
0.7608386277174157
 21
-9.5558128115522418
 31
0.0
 11
1.4250224045888853
 21
-9.0804292742514328
 31
0.0
 11
1.869995296253576
 21
-8.4504002815638035
 31
0.0
 11
2.0
 21
-7.7459666924148323
 31
0.0
 11
1.7765384667243735
 21
-7.173917096126865
 31
0.0
 11
1.3308649108416368
 21
-6.7057204189065782
 31
0.0
 11
0.6963041437935378
 21
-6.3760481021264352
 31
0.0
 11
0.0
 21
-6.267949192431125
 31
0.0
 11
-0.6963041437935384
 21
-6.3760481021264335
 31
0.0
 11
-1.3308649108416382
 21
-6.7057204189065747
 31
0.0
 11
-1.7765384667243747
 21
-7.1739170961268623
 31
0.0
 11
-2.0
 21
-7.7459666924148323
 31
0.0
 11
-1.8699952962535757
 21
-8.4504002815638035
 31
0.0
 11
-1.4250224045888857
 21
-9.0804292742514328
 31
0.0
 11
-0.7608386277174162
 21
-9.5558128115522418
 31
0.0
 11
-0.0000000000000004
 21
-9.732050807568875
 31
0.0
  0
SPLINE
  5
5D
100
AcDbEntity
  8
0
  6
CONTINUOUS
 62
               7
100
AcDbSpline
210
0.0
220
0.0
230
1.0
 70
               1
 71
               3
 72
               0
 73
               0
 74
              17
 44
0.000001
 12
0.5000000000000003
 22
-0.8660254037844385
 32
0.0
 13
0.4999999999999999
 23
-0.8660254037844387
 33
0.0
 11
8.4282032302754999
 21
4.866025403784441
 31
0.0
 11
8.6559959624717457
 21
4.1190008259923525
 31
0.0
 11
8.5763936310640769
 21
3.3061090337897605
 31
0.0
 11
8.2532589641082179
 21
2.6057367092689043
 31
0.0
 11
7.708203932499373
 21
2.1409325386385447
 31
0.0
 11
7.1010636832515468
 21
2.0484311050798722
 31
0.0
 11
6.4727566888699464
 21
2.2002973876591203
 31
0.0
 11
5.8699717040898225
 21
2.5850069737776393
 31
0.0
 11
5.4282032302755141
 21
3.133974596215559
 31
0.0
 11
5.1736675602962814
 21
3.7910411283487919
 31
0.0
 11
5.141891778028306
 21
4.5054230312474575
 31
0.0
 11
5.3245252165271708
 21
5.1254859910469959
 31
0.0
 11
5.708203932499373
 21
5.6050341537762947
 31
0.0
 11
6.3832636678546413
 21
5.8446635722949072
 31
0.0
 11
7.1513712264751899
 21
5.7743202404616802
 31
0.0
 11
7.8951573347543293
 21
5.4368119855598973
 31
0.0
 11
8.4282032302754999
 21
4.8660254037844419
 31
0.0
  0
SPLINE
  5
5E
100
AcDbEntity
  8
0
  6
CONTINUOUS
 62
               7
100
AcDbSpline
210
0.0
220
0.0
230
1.0
 70
               1
 71
               3
 72
               0
 73
               0
 74
              17
 44
0.000001
 12
0.4999999999999999
 22
-0.8660254037844387
 32
0.0
 13
0.4999999999999997
 23
-0.8660254037844388
 33
0.0
 11
-8.4282032302754999
 21
-4.866025403784441
 31
0.0
 11
-7.8951573347543293
 21
-5.4368119855598973
 31
0.0
 11
-7.1513712264751907
 21
-5.7743202404616802
 31
0.0
 11
-6.3832636678546422
 21
-5.8446635722949072
 31
0.0
 11
-5.708203932499373
 21
-5.6050341537762947
 31
0.0
 11
-5.3245252165271699
 21
-5.1254859910469994
 31
0.0
 11
-5.1418917780283024
 21
-4.5054230312474646
 31
0.0
 11
-5.1736675602962734
 21
-3.791041128348803
 31
0.0
 11
-5.4282032302754999
 21
-3.1339745962155732
 31
0.0
 11
-5.8699717040898092
 21
-2.5850069737776487
 31
0.0
 11
-6.4727566888699375
 21
-2.2002973876591252
 31
0.0
 11
-7.1010636832515432
 21
-2.0484311050798736
 31
0.0
 11
-7.708203932499373
 21
-2.1409325386385447
 31
0.0
 11
-8.2532589641082161
 21
-2.6057367092689039
 31
0.0
 11
-8.5763936310640752
 21
-3.3061090337897601
 31
0.0
 11
-8.6559959624717457
 21
-4.1190008259923525
 31
0.0
 11
-8.4282032302754999
 21
-4.8660254037844419
 31
0.0
  0
SPLINE
  5
5F
100
AcDbEntity
  8
0
  6
CONTINUOUS
 62
               7
100
AcDbSpline
210
0.0
220
0.0
230
1.0
 70
               1
 71
               3
 72
               0
 73
               0
 74
              17
 44
0.000001
 12
-0.4999999999999998
 22
-0.8660254037844387
 32
0.0
 13
-0.4999999999999994
 23
-0.8660254037844389
 33
0.0
 11
8.4282032302754999
 21
-4.8660254037844268
 31
0.0
 11
7.8951573347543302
 21
-5.4368119855598858
 31
0.0
 11
7.1513712264751907
 21
-5.7743202404616731
 31
0.0
 11
6.3832636678546422
 21
-5.8446635722949036
 31
0.0
 11
5.708203932499373
 21
-5.6050341537762947
 31
0.0
 11
5.324525216527169
 21
-5.1254859910469968
 31
0.0
 11
5.1418917780283024
 21
-4.5054230312474575
 31
0.0
 11
5.1736675602962725
 21
-3.7910411283487919
 31
0.0
 11
5.4282032302754999
 21
-3.133974596215559
 31
0.0
 11
5.8699717040898092
 21
-2.5850069737776344
 31
0.0
 11
6.4727566888699375
 21
-2.200297387659111
 31
0.0
 11
7.1010636832515432
 21
-2.0484311050798594
 31
0.0
 11
7.708203932499373
 21
-2.1409325386385305
 31
0.0
 11
8.2532589641082161
 21
-2.6057367092688897
 31
0.0
 11
8.5763936310640752
 21
-3.3061090337897454
 31
0.0
 11
8.6559959624717457
 21
-4.1190008259923374
 31
0.0
 11
8.4282032302754999
 21
-4.8660254037844268
 31
0.0
  0
SPLINE
  5
60
100
AcDbEntity
  8
0
  6
CONTINUOUS
 62
               7
100
AcDbSpline
210
0.0
220
0.0
230
1.0
 70
               1
 71
               3
 72
               0
 73
               0
 74
              17
 44
0.000001
 12
-0.5000000000000002
 22
-0.8660254037844385
 32
0.0
 13
-0.4999999999999998
 23
-0.8660254037844387
 33
0.0
 11
-8.4282032302754999
 21
4.866025403784441
 31
0.0
 11
-8.6559959624717457
 21
4.1190008259923498
 31
0.0
 11
-8.5763936310640752
 21
3.306109033789753
 31
0.0
 11
-8.2532589641082179
 21
2.6057367092688919
 31
0.0
 11
-7.708203932499373
 21
2.1409325386385305
 31
0.0
 11
-7.1010636832515477
 21
2.0484311050798611
 31
0.0
 11
-6.4727566888699464
 21
2.2002973876591132
 31
0.0
 11
-5.8699717040898216
 21
2.5850069737776367
 31
0.0
 11
-5.4282032302755141
 21
3.133974596215559
 31
0.0
 11
-5.1736675602962823
 21
3.7910411283487919
 31
0.0
 11
-5.141891778028306
 21
4.5054230312474575
 31
0.0
 11
-5.3245252165271708
 21
5.1254859910469959
 31
0.0
 11
-5.708203932499373
 21
5.6050341537762947
 31
0.0
 11
-6.3832636678546422
 21
5.8446635722949072
 31
0.0
 11
-7.1513712264751907
 21
5.7743202404616802
 31
0.0
 11
-7.8951573347543302
 21
5.4368119855598973
 31
0.0
 11
-8.4282032302754999
 21
4.866025403784441
 31
0.0
  0
LINE
  5
61
100
AcDbEntity
  8
0
  6
CONTINUOUS
 62
               2
100
AcDbLine
 10
-14.637308588971045
 20
8.4508540540540551
 30
0.0
 11
14.637308588971038
 21
-8.4508540540540551
 31
0.0
  0
LINE
  5
62
100
AcDbEntity
  8
0
  6
CONTINUOUS
 62
               2
100
AcDbLine
 10
-14.637308588971045
 20
-8.4508540540540551
 30
0.0
 11
14.637308588971038
 21
8.4508540540540409
 31
0.0
  0
ENDBLK
  5
63
100
AcDbEntity
  8
0
100
AcDbBlockEnd
  0
BLOCK
  5
64
100
AcDbEntity
  8
0
100
AcDbBlockBegin
  2
DTRY-ADN-SW60-3
 70
               0
 10
0.0
 20
0.0
 30
0.0
  3
DTRY-ADN-SW60-3
  1

  0
LINE
  5
65
100
AcDbEntity
  8
0
  6
CONTINUOUS
 62
               7
100
AcDbLine
 10
0.0
 20
-12.0
 30
0.0
 11
0.0
 21
12.0
 31
0.0
  0
LINE
  5
66
100
AcDbEntity
  8
0
  6
CONTINUOUS
 62
               7
100
AcDbLine
 10
29.502577388071437
 20
13.856406460551014
 30
0.0
 11
0.4974226119285845
 21
13.856406460551014
 31
0.0
  0
LINE
  5
67
100
AcDbEntity
  8
0
  6
CONTINUOUS
 62
               7
100
AcDbLine
 10
30.0
 20
12.0
 30
0.0
 11
29.502577388071437
 21
13.856406460551014
 31
0.0
  0
LINE
  5
68
100
AcDbEntity
  8
0
  6
CONTINUOUS
 62
               7
100
AcDbLine
 10
0.0
 20
12.0
 30
0.0
 11
0.4974226119285845
 21
13.856406460551014
 31
0.0
  0
LINE
  5
69
100
AcDbEntity
  8
0
  6
CONTINUOUS
 62
               7
100
AcDbLine
 10
0.0
 20
-12.0
 30
0.0
 11
0.4974226119285845
 21
-13.856406460551021
 31
0.0
  0
LINE
  5
6A
100
AcDbEntity
  8
0
  6
CONTINUOUS
 62
               7
100
AcDbLine
 10
30.0
 20
-12.0
 30
0.0
 11
29.502577388071437
 21
-13.856406460551021
 31
0.0
  0
LINE
  5
6B
100
AcDbEntity
  8
0
  6
CONTINUOUS
 62
               7
100
AcDbLine
 10
29.502577388071437
 20
-13.856406460551021
 30
0.0
 11
0.4974226119285845
 21
-13.856406460551021
 31
0.0
  0
LINE
  5
6C
100
AcDbEntity
  8
0
  6
CONTINUOUS
 62
               7
100
AcDbLine
 10
30.0
 20
-12.0
 30
0.0
 11
32.0
 21
-12.0
 31
0.0
  0
LINE
  5
6D
100
AcDbEntity
  8
0
  6
CONTINUOUS
 62
               7
100
AcDbLine
 10
30.0
 20
12.0
 30
0.0
 11
32.0
 21
12.0
 31
0.0
  0
LINE
  5
6E
100
AcDbEntity
  8
0
  6
CONTINUOUS
 62
               2
100
AcDbLine
 10
-4.8689507625617523
 20
-0.0000000000000071
 30
0.0
 11
42.880129729729731
 21
0.0
 31
0.0
  0
LINE
  5
6F
100
AcDbEntity
  8
0
  6
CONTINUOUS
 62
               7
100
AcDbLine
 10
40.0
 20
4.0
 30
0.0
 11
37.414213562373099
 21
6.5857864376269006
 31
0.0
  0
LINE
  5
70
100
AcDbEntity
  8
0
  6
CONTINUOUS
 62
               2
100
AcDbLine
 10
37.502962162162156
 20
9.5029621621621487
 30
0.0
 11
32.738955819742266
 21
4.7389558197422588
 31
0.0
  0
LINE
  5
71
100
AcDbEntity
  8
0
  6
DASHED
 62
               2
100
AcDbLine
 10
38.0
 20
2.0
 30
0.0
 11
40.0
 21
2.0
 31
0.0
  0
LINE
  5
72
100
AcDbEntity
  8
0
  6
DASHED
 62
               2
100
AcDbLine
 10
38.0
 20
-2.0
 30
0.0
 11
40.0
 21
-2.0
 31
0.0
  0
LINE
  5
73
100
AcDbEntity
  8
0
  6
CONTINUOUS
 62
               7
100
AcDbLine
 10
40.0
 20
4.0
 30
0.0
 11
40.0
 21
-4.0
 31
0.0
  0
LINE
  5
74
100
AcDbEntity
  8
0
  6
DASHED
 62
               2
100
AcDbLine
 10
34.585786437626901
 20
9.4142135623730923
 30
0.0
 11
32.868786437626909
 21
7.6972135623730935
 31
0.0
  0
LINE
  5
75
100
AcDbEntity
  8
0
  6
DASHED
 62
               2
100
AcDbLine
 10
37.414213562373092
 20
6.5857864376269077
 30
0.0
 11
35.697213562373094
 21
4.868786437626909
 31
0.0
  0
LINE
  5
76
100
AcDbEntity
  8
0
  6
CONTINUOUS
 62
               2
100
AcDbLine
 10
37.502962162162156
 20
-9.5029621621621629
 30
0.0
 11
32.738955819742266
 21
-4.738955819742273
 31
0.0
  0
LINE
  5
77
100
AcDbEntity
  8
0
  6
DASHED
 62
               2
100
AcDbLine
 10
34.585786437626901
 20
-9.4142135623730923
 30
0.0
 11
32.868786437626909
 21
-7.6972135623730935
 31
0.0
  0
LINE
  5
78
100
AcDbEntity
  8
0
  6
DASHED
 62
               2
100
AcDbLine
 10
37.414213562373092
 20
-6.5857864376269077
 30
0.0
 11
35.697213562373094
 21
-4.868786437626909
 31
0.0
  0
LINE
  5
79
100
AcDbEntity
  8
0
  6
CONTINUOUS
 62
               7
100
AcDbLine
 10
29.502577388071437
 20
6.9282032302754857
 30
0.0
 11
0.4974226119285561
 21
6.9282032302754857
 31
0.0
  0
LINE
  5
7A
100
AcDbEntity
  8
0
  6
CONTINUOUS
 62
               7
100
AcDbLine
 10
30.0
 20
12.0
 30
0.0
 11
30.0
 21
-12.0
 31
0.0
  0
LINE
  5
7B
100
AcDbEntity
  8
0
  6
CONTINUOUS
 62
               7
100
AcDbLine
 10
29.502577388071437
 20
-6.9282032302755283
 30
0.0
 11
0.4974226119285561
 21
-6.9282032302755283
 31
0.0
  0
SPLINE
  5
7C
100
AcDbEntity
  8
0
  6
CONTINUOUS
 62
               7
100
AcDbSpline
210
0.0
220
0.0
230
1.0
 70
               0
 71
               3
 72
               0
 73
               0
 74
               9
 44
0.000001
 12
0.2760296115454836
 22
-0.9611491317948788
 32
0.0
 13
-0.2760296115454832
 23
-0.9611491317948789
 33
0.0
 11
29.502577388071437
 21
13.856406460551014
 31
0.0
 11
29.716277804061978
 21
13.006269065385734
 31
0.0
 11
29.872038976961591
 21
12.143186775556165
 31
0.0
 11
29.967574186734868
 21
11.269933627096167
 31
0.0
 11
30.0
 21
10.392304845413264
 31
0.0
 11
29.967574186734868
 21
9.514676063730354
 31
0.0
 11
29.872038976961591
 21
8.6414229152703488
 31
0.0
 11
29.716277804061978
 21
7.7783406254407739
 31
0.0
 11
29.502577388071437
 21
6.9282032302754857
 31
0.0
  0
SPLINE
  5
7D
100
AcDbEntity
  8
0
  6
CONTINUOUS
 62
               7
100
AcDbSpline
210
0.0
220
0.0
230
1.0
 70
               0
 71
               3
 72
               0
 73
               0
 74
               9
 44
0.000001
 12
0.1421356611115272
 22
-0.9898471871154603
 32
0.0
 13
-0.1421356611115271
 23
-0.9898471871154604
 33
0.0
 11
29.502577388071437
 21
6.9282032302754857
 31
0.0
 11
29.719166905876346
 21
5.2044982819571057
 31
0.0
 11
29.874698638213385
 21
3.4739806334567769
 31
0.0
 11
29.968564784505375
 21
1.7380717976989362
 31
0.0
 11
30.0
 21
0.0
 31
0.0
 11
29.968564784505375
 21
-1.7380717976989466
 31
0.0
 11
29.874698638213385
 21
-3.4739806334567973
 31
0.0
 11
29.719166905876346
 21
-5.2044982819571359
 31
0.0
 11
29.502577388071437
 21
-6.9282032302755256
 31
0.0
  0
SPLINE
  5
7E
100
AcDbEntity
  8
0
  6
CONTINUOUS
 62
               7
100
AcDbSpline
210
0.0
220
0.0
230
1.0
 70
               0
 71
               3
 72
               0
 73
               0
 74
               9
 44
0.000001
 12
0.2760296115454838
 22
-0.9611491317948788
 32
0.0
 13
-0.2760296115454839
 23
-0.9611491317948788
 33
0.0
 11
29.502577388071437
 21
-6.9282032302754999
 31
0.0
 11
29.716277804061978
 21
-7.7783406254407863
 31
0.0
 11
29.872038976961591
 21
-8.6414229152703594
 31
0.0
 11
29.967574186734868
 21
-9.5146760637303629
 31
0.0
 11
30.0
 21
-10.392304845413271
 31
0.0
 11
29.967574186734868
 21
-11.269933627096174
 31
0.0
 11
29.872038976961591
 21
-12.143186775556172
 31
0.0
 11
29.716277804061978
 21
-13.006269065385739
 31
0.0
 11
29.502577388071437
 21
-13.856406460551021
 31
0.0
  0
SPLINE
  5
7F
100
AcDbEntity
  8
0
  6
CONTINUOUS
 62
               7
100
AcDbSpline
210
0.0
220
0.0
230
1.0
 70
               0
 71
               3
 72
               0
 73
               0
 74
               9
 44
0.000001
 12
-0.2760296115454834
 22
-0.9611491317948789
 32
0.0
 13
0.2760296115454833
 23
-0.9611491317948789
 33
0.0
 11
0.4974226119285561
 21
13.856406460551014
 31
0.0
 11
0.2837221959380168
 21
13.006269065385734
 31
0.0
 11
0.1279610230384075
 21
12.143186775556165
 31
0.0
 11
0.0324258132651318
 21
11.269933627096167
 31
0.0
 11
0.0
 21
10.392304845413264
 31
0.0
 11
0.0324258132651306
 21
9.514676063730354
 31
0.0
 11
0.1279610230384059
 21
8.6414229152703488
 31
0.0
 11
0.2837221959380153
 21
7.7783406254407739
 31
0.0
 11
0.4974226119285559
 21
6.9282032302754848
 31
0.0
  0
SPLINE
  5
80
100
AcDbEntity
  8
0
  6
CONTINUOUS
 62
               7
100
AcDbSpline
210
0.0
220
0.0
230
1.0
 70
               0
 71
               3
 72
               0
 73
               0
 74
               9
 44
0.000001
 12
-0.1421356611115271
 22
-0.9898471871154604
 32
0.0
 13
0.142135661111527
 23
-0.9898471871154604
 33
0.0
 11
0.4974226119285561
 21
6.9282032302754857
 31
0.0
 11
0.2808330941236483
 21
5.2044982819571048
 31
0.0
 11
0.125301361786612
 21
3.4739806334567769
 31
0.0
 11
0.0314352154946225
 21
1.7380717976989364
 31
0.0
 11
0.0
 21
0.0
 31
0.0
 11
0.0314352154946218
 21
-1.7380717976989468
 31
0.0
 11
0.1253013617866112
 21
-3.4739806334567973
 31
0.0
 11
0.2808330941236477
 21
-5.2044982819571359
 31
0.0
 11
0.497422611928556
 21
-6.9282032302755256
 31
0.0
  0
SPLINE
  5
81
100
AcDbEntity
  8
0
  6
CONTINUOUS
 62
               7
100
AcDbSpline
210
0.0
220
0.0
230
1.0
 70
               0
 71
               3
 72
               0
 73
               0
 74
               9
 44
0.000001
 12
-0.2760296115454837
 22
-0.9611491317948788
 32
0.0
 13
0.2760296115454838
 23
-0.9611491317948788
 33
0.0
 11
0.4974226119285561
 21
-6.9282032302754999
 31
0.0
 11
0.2837221959380156
 21
-7.7783406254407863
 31
0.0
 11
0.1279610230384058
 21
-8.6414229152703594
 31
0.0
 11
0.0324258132651305
 21
-9.5146760637303629
 31
0.0
 11
0.0
 21
-10.392304845413271
 31
0.0
 11
0.0324258132651317
 21
-11.269933627096174
 31
0.0
 11
0.1279610230384073
 21
-12.143186775556172
 31
0.0
 11
0.2837221959380165
 21
-13.006269065385739
 31
0.0
 11
0.4974226119285559
 21
-13.856406460551021
 31
0.0
  0
LINE
  5
82
100
AcDbEntity
  8
0
  6
CONTINUOUS
 62
               7
100
AcDbLine
 10
32.0
 20
12.0
 30
0.0
 11
32.0
 21
-12.0
 31
0.0
  0
LINE
  5
83
100
AcDbEntity
  8
0
  6
CONTINUOUS
 62
               2
100
AcDbLine
 10
36.0
 20
6.3778204489368875
 30
0.0
 11
36.0
 21
0.8091853134068998
 31
0.0
  0
LINE
  5
84
100
AcDbEntity
  8
0
  6
CONTINUOUS
 62
               2
100
AcDbLine
 10
38.252393408643115
 20
2.8738032956784352
 30
0.0
 11
34.044980195131572
 21
4.9775099024341927
 31
0.0
  0
SPLINE
  5
85
100
AcDbEntity
  8
0
  6
CONTINUOUS
 62
               7
100
AcDbSpline
210
0.0
220
0.0
230
1.0
 70
               0
 71
               3
 72
               0
 73
               0
 74
               9
 44
0.000001
 12
0.5700188190050581
 22
-0.8216316364284415
 32
0.0
 13
0.8219234367591961
 23
-0.5695979846400018
 33
0.0
 11
34.585786437626901
 21
9.4142135623730923
 31
0.0
 11
34.908401314513796
 21
8.9721624570227725
 31
0.0
 11
35.251979046056491
 21
8.5460191856850756
 31
0.0
 11
35.616146356491647
 21
8.1367384207454201
 31
0.0
 11
36.0
 21
7.7459666924148394
 31
0.0
 11
36.335557657333354
 21
7.4342926889163765
 31
0.0
 11
36.68372883673225
 21
7.1367454676153246
 31
0.0
 11
37.043448096536338
 21
6.8538790824448022
 31
0.0
 11
37.414213562373092
 21
6.5857864376269077
 31
0.0
  0
SPLINE
  5
86
100
AcDbEntity
  8
0
  6
CONTINUOUS
 62
               7
100
AcDbSpline
210
0.0
220
0.0
230
1.0
 70
               1
 71
               3
 72
               0
 73
               0
 74
              17
 44
0.000001
 12
0.3668205582881539
 22
0.9302917166228919
 32
0.0
 13
0.3668205582881539
 23
0.9302917166228919
 33
0.0
 11
34.585786437626901
 21
4.707106781186539
 31
0.0
 11
34.818126424713498
 21
5.0900896299836562
 31
0.0
 11
35.163919393173444
 21
5.3880260811796683
 31
0.0
 11
35.570075314130257
 21
5.5662223714186707
 31
0.0
 11
36.0
 21
5.6050341537762876
 31
0.0
 11
36.648830524686701
 21
5.3365158604844289
 31
0.0
 11
37.14927919825719
 21
4.7813368194739025
 31
0.0
 11
37.437529837958053
 21
4.0483071455425002
 31
0.0
 11
37.414213562373092
 21
3.2928932188134468
 31
0.0
 11
37.208708119205774
 21
2.8355814024987294
 31
0.0
 11
36.864481982967177
 21
2.4574800776638508
 31
0.0
 11
36.450178543302705
 21
2.219290866895077
 31
0.0
 11
36.0
 21
2.1409325386385376
 31
0.0
 11
35.311802803097272
 21
2.4340011097831464
 31
0.0
 11
34.78765839019141
 21
3.0757411795144489
 31
0.0
 11
34.500137717141435
 21
3.8967334532472595
 31
0.0
 11
34.585786437626901
 21
4.7071067811865319
 31
0.0
  0
LINE
  5
87
100
AcDbEntity
  8
0
  6
CONTINUOUS
 62
               2
100
AcDbLine
 10
36.0
 20
-6.3778204489368875
 30
0.0
 11
36.0
 21
-0.809185313406914
 31
0.0
  0
LINE
  5
88
100
AcDbEntity
  8
0
  6
CONTINUOUS
 62
               2
100
AcDbLine
 10
38.252393408643115
 20
-2.8738032956784423
 30
0.0
 11
34.044980195131572
 21
-4.9775099024341998
 31
0.0
  0
SPLINE
  5
89
100
AcDbEntity
  8
0
  6
CONTINUOUS
 62
               7
100
AcDbSpline
210
0.0
220
0.0
230
1.0
 70
               1
 71
               3
 72
               0
 73
               0
 74
              17
 44
0.000001
 12
0.3668205582881539
 22
-0.9302917166228919
 32
0.0
 13
0.3668205582881539
 23
-0.9302917166228919
 33
0.0
 11
34.585786437626901
 21
-4.707106781186539
 31
0.0
 11
34.818126424713498
 21
-5.090089629983658
 31
0.0
 11
35.163919393173444
 21
-5.3880260811796719
 31
0.0
 11
35.570075314130257
 21
-5.5662223714186769
 31
0.0
 11
36.0
 21
-5.6050341537762947
 31
0.0
 11
36.648830524686701
 21
-5.336515860484436
 31
0.0
 11
37.14927919825719
 21
-4.7813368194739096
 31
0.0
 11
37.437529837958053
 21
-4.0483071455425073
 31
0.0
 11
37.414213562373092
 21
-3.2928932188134539
 31
0.0
 11
37.208708119205774
 21
-2.8355814024987351
 31
0.0
 11
36.864481982967177
 21
-2.4574800776638543
 31
0.0
 11
36.450178543302705
 21
-2.2192908668950784
 31
0.0
 11
36.0
 21
-2.1409325386385376
 31
0.0
 11
35.311802803097272
 21
-2.4340011097831473
 31
0.0
 11
34.78765839019141
 21
-3.0757411795144525
 31
0.0
 11
34.500137717141435
 21
-3.8967334532472653
 31
0.0
 11
34.585786437626901
 21
-4.707106781186539
 31
0.0
  0
LINE
  5
8A
100
AcDbEntity
  8
0
  6
CONTINUOUS
 62
               7
100
AcDbLine
 10
34.585786437626894
 20
9.4142135623730994
 30
0.0
 11
31.999999999999993
 21
12.0
 31
0.0
  0
LINE
  5
8B
100
AcDbEntity
  8
0
  6
CONTINUOUS
 62
               7
100
AcDbLine
 10
40.0
 20
-4.0000000000000071
 30
0.0
 11
37.414213562373099
 21
-6.5857864376269077
 31
0.0
  0
SPLINE
  5
8C
100
AcDbEntity
  8
0
  6
CONTINUOUS
 62
               7
100
AcDbSpline
210
0.0
220
0.0
230
1.0
 70
               0
 71
               3
 72
               0
 73
               0
 74
               9
 44
0.000001
 12
0.570018819005058
 22
0.8216316364284416
 32
0.0
 13
0.8219234367591962
 23
0.5695979846400017
 33
0.0
 11
34.585786437626901
 21
-9.4142135623730994
 31
0.0
 11
34.908401314513796
 21
-8.9721624570227796
 31
0.0
 11
35.251979046056491
 21
-8.5460191856850827
 31
0.0
 11
35.616146356491647
 21
-8.1367384207454272
 31
0.0
 11
36.0
 21
-7.7459666924148465
 31
0.0
 11
36.335557657333354
 21
-7.4342926889163836
 31
0.0
 11
36.68372883673225
 21
-7.1367454676153317
 31
0.0
 11
37.043448096536338
 21
-6.8538790824448093
 31
0.0
 11
37.414213562373092
 21
-6.5857864376269148
 31
0.0
  0
LINE
  5
8D
100
AcDbEntity
  8
0
  6
CONTINUOUS
 62
               7
100
AcDbLine
 10
34.585786437626894
 20
-9.4142135623731065
 30
0.0
 11
31.999999999999993
 21
-12.000000000000007
 31
0.0
  0
ENDBLK
  5
8E
100
AcDbEntity
  8
0
100
AcDbBlockEnd
  0
BLOCK
  5
8F
100
AcDbEntity
  8
0
100
AcDbBlockBegin
  2
DTRY-ADN-SW60-4
 70
               0
 10
0.0
 20
0.0
 30
0.0
  3
DTRY-ADN-SW60-4
  1

  0
LINE
  5
90
100
AcDbEntity
  8
0
  6
CONTINUOUS
 62
               2
100
AcDbLine
 10
0.0000000000000071
 20
16.90170810810811
 30
0.0
 11
0.0000000000000071
 21
-18.867809755665192
 31
0.0
  0
LINE
  5
91
100
AcDbEntity
  8
0
  6
CONTINUOUS
 62
               2
100
AcDbLine
 10
-16.901708108108082
 20
0.0
 30
0.0
 11
16.901708108108139
 21
0.0
 31
0.0
  0
CIRCLE
  5
92
100
AcDbEntity
  8
0
  6
CONTINUOUS
 62
               7
100
AcDbCircle
 10
0.0000000000000142
 20
0.0
 30
0.0
 40
2.0
  0
CIRCLE
  5
93
100
AcDbEntity
  8
0
  6
CONTINUOUS
 62
               2
100
AcDbCircle
 10
0.0000000000000142
 20
0.0
 30
0.0
 40
8.0
  0
CIRCLE
  5
94
100
AcDbEntity
  8
0
  6
CONTINUOUS
 62
               7
100
AcDbCircle
 10
0.0000000000000142
 20
0.0
 30
0.0
 40
4.0
  0
LINE
  5
95
100
AcDbEntity
  8
0
  6
CONTINUOUS
 62
               7
100
AcDbLine
 10
-12.000000000000014
 20
6.9282032302754857
 30
0.0
 11
0.0000000000000142
 21
13.856406460551014
 31
0.0
  0
LINE
  5
96
100
AcDbEntity
  8
0
  6
CONTINUOUS
 62
               7
100
AcDbLine
 10
-11.999999999999986
 20
-6.9282032302755283
 30
0.0
 11
-12.0
 21
6.9282032302754999
 31
0.0
  0
LINE
  5
97
100
AcDbEntity
  8
0
  6
CONTINUOUS
 62
               7
100
AcDbLine
 10
0.0000000000000142
 20
-13.856406460551021
 30
0.0
 11
-11.999999999999986
 21
-6.9282032302755212
 31
0.0
  0
LINE
  5
98
100
AcDbEntity
  8
0
  6
CONTINUOUS
 62
               7
100
AcDbLine
 10
12.000000000000014
 20
-6.9282032302754999
 30
0.0
 11
0.0000000000000142
 21
-13.856406460551021
 31
0.0
  0
LINE
  5
99
100
AcDbEntity
  8
0
  6
CONTINUOUS
 62
               7
100
AcDbLine
 10
12.000000000000014
 20
6.9282032302755141
 30
0.0
 11
12.000000000000014
 21
-6.9282032302754999
 31
0.0
  0
LINE
  5
9A
100
AcDbEntity
  8
0
  6
CONTINUOUS
 62
               7
100
AcDbLine
 10
0.0000000000000142
 20
13.856406460551014
 30
0.0
 11
12.000000000000014
 21
6.9282032302755141
 31
0.0
  0
CIRCLE
  5
9B
100
AcDbEntity
  8
0
  6
CONTINUOUS
 62
               7
100
AcDbCircle
 10
0.0000000000000142
 20
0.0
 30
0.0
 40
12.0
  0
SPLINE
  5
9C
100
AcDbEntity
  8
0
  6
CONTINUOUS
 62
               7
100
AcDbSpline
210
0.0
220
0.0
230
1.0
 70
               1
 71
               3
 72
               0
 73
               0
 74
              17
 44
0.000001
 12
0.4999999999999995
 22
0.8660254037844389
 32
0.0
 13
0.4999999999999997
 23
0.8660254037844388
 33
0.0
 11
-8.1529481016670928
 21
4.707106781186539
 31
0.0
 11
-7.658634911379564
 21
5.2823736716431551
 31
0.0
 11
-6.9591764419450595
 21
5.6603335745849783
 31
0.0
 11
-6.2862806107178217
 21
5.7780858993712183
 31
0.0
 11
-5.7082039324993588
 21
5.6050341537762876
 31
0.0
 11
-5.4234515223158448
 21
5.1742730497428235
 31
0.0
 11
-5.3264826469159932
 21
4.6143644678102573
 31
0.0
 11
-5.424488444286113
 21
3.9192550430808684
 31
0.0
 11
-5.703458358883907
 21
3.2928932188134468
 31
0.0
 11
-6.106418653361362
 21
2.7381172737464707
 31
0.0
 11
-6.6593981749019404
 21
2.3056870511411027
 31
0.0
 11
-7.1927776683523899
 21
2.1097102696474996
 31
0.0
 11
-7.7082039324993588
 21
2.1409325386385376
 31
0.0
 11
-8.1471094794630421
 21
2.5550357545135807
 31
0.0
 11
-8.3815808904571032
 21
3.1966568008501319
 31
0.0
 11
-8.4039872476148361
 21
3.9913855557435021
 31
0.0
 11
-8.1529481016670928
 21
4.707106781186539
 31
0.0
  0
SPLINE
  5
9D
100
AcDbEntity
  8
0
  6
CONTINUOUS
 62
               7
100
AcDbSpline
210
0.0
220
0.0
230
1.0
 70
               1
 71
               3
 72
               0
 73
               0
 74
              17
 44
0.000001
 12
-0.5000000000000006
 22
0.8660254037844383
 32
0.0
 13
-0.4999999999999994
 23
0.8660254037844389
 33
0.0
 11
-8.1529481016670928
 21
-4.7071067811865532
 31
0.0
 11
-8.4039872476148378
 21
-3.9913855557435141
 31
0.0
 11
-8.3815808904571032
 21
-3.196656800850139
 31
0.0
 11
-8.1471094794630439
 21
-2.5550357545135829
 31
0.0
 11
-7.7082039324993588
 21
-2.1409325386385376
 31
0.0
 11
-7.1927776683523899
 21
-2.1097102696475027
 31
0.0
 11
-6.6593981749019404
 21
-2.3056870511411098
 31
0.0
 11
-6.106418653361362
 21
-2.7381172737464823
 31
0.0
 11
-5.703458358883907
 21
-3.292893218813461
 31
0.0
 11
-5.4244884442861139
 21
-3.9192550430808826
 31
0.0
 11
-5.3264826469159932
 21
-4.6143644678102715
 31
0.0
 11
-5.4234515223158448
 21
-5.1742730497428377
 31
0.0
 11
-5.7082039324993588
 21
-5.6050341537763018
 31
0.0
 11
-6.2862806107178217
 21
-5.7780858993712325
 31
0.0
 11
-6.9591764419450595
 21
-5.6603335745849925
 31
0.0
 11
-7.658634911379564
 21
-5.2823736716431693
 31
0.0
 11
-8.1529481016670928
 21
-4.7071067811865532
 31
0.0
  0
SPLINE
  5
9E
100
AcDbEntity
  8
0
  6
CONTINUOUS
 62
               7
100
AcDbSpline
210
0.0
220
0.0
230
1.0
 70
               1
 71
               3
 72
               0
 73
               0
 74
              17
 44
0.000001
 12
-1.0
 22
-0.0000000000000006
 32
0.0
 13
-1.0
 23
-0.0000000000000006
 33
0.0
 11
0.0000000000000142
 21
-9.4142135623730923
 31
0.0
 11
-0.7453523362352581
 21
-9.2737592273866714
 31
0.0
 11
-1.4224044485120293
 21
-8.8569903754351245
 31
0.0
 11
-1.8608288687452066
 21
-8.3331216538848132
 31
0.0
 11
-1.9999999999999858
 21
-7.7459666924148394
 31
0.0
 11
-1.7693261460365313
 21
-7.2839833193903374
 31
0.0
 11
-1.3329155279859335
 21
-6.9200515189513743
 31
0.0
 11
-0.6819302090752345
 21
-6.6573723168273542
 31
0.0
 11
0.0000000000000142
 21
-6.5857864376269077
 31
0.0
 11
0.6819302090752629
 21
-6.6573723168273542
 31
0.0
 11
1.3329155279859619
 21
-6.9200515189513743
 31
0.0
 11
1.7693261460365597
 21
-7.2839833193903365
 31
0.0
 11
2.0000000000000142
 21
-7.7459666924148394
 31
0.0
 11
1.8608288687452352
 21
-8.3331216538848132
 31
0.0
 11
1.4224044485120579
 21
-8.8569903754351245
 31
0.0
 11
0.745352336235287
 21
-9.2737592273866714
 31
0.0
 11
0.0000000000000149
 21
-9.4142135623730923
 31
0.0
  0
SPLINE
  5
9F
100
AcDbEntity
  8
0
  6
CONTINUOUS
 62
               7
100
AcDbSpline
210
0.0
220
0.0
230
1.0
 70
               1
 71
               3
 72
               0
 73
               0
 74
              17
 44
0.000001
 12
-0.4999999999999998
 22
-0.8660254037844387
 32
0.0
 13
-0.4999999999999998
 23
-0.8660254037844387
 33
0.0
 11
8.152948101667107
 21
-4.7071067811865532
 31
0.0
 11
7.6586349113795782
 21
-5.2823736716431675
 31
0.0
 11
6.9591764419450737
 21
-5.660333574584989
 31
0.0
 11
6.2862806107178351
 21
-5.7780858993712281
 31
0.0
 11
5.708203932499373
 21
-5.6050341537762947
 31
0.0
 11
5.4234515223158626
 21
-5.1742730497428315
 31
0.0
 11
5.3264826469160145
 21
-4.614364467810268
 31
0.0
 11
5.4244884442861387
 21
-3.9192550430808808
 31
0.0
 11
5.7034583588839354
 21
-3.292893218813461
 31
0.0
 11
6.1064186533613904
 21
-2.7381172737464827
 31
0.0
 11
6.6593981749019688
 21
-2.3056870511411098
 31
0.0
 11
7.1927776683524183
 21
-2.1097102696475023
 31
0.0
 11
7.7082039324993872
 21
-2.1409325386385376
 31
0.0
 11
8.1471094794630687
 21
-2.5550357545135833
 31
0.0
 11
8.3815808904571245
 21
-3.196656800850139
 31
0.0
 11
8.4039872476148538
 21
-3.9913855557435141
 31
0.0
 11
8.152948101667107
 21
-4.7071067811865532
 31
0.0
  0
SPLINE
  5
A0
100
AcDbEntity
  8
0
  6
CONTINUOUS
 62
               7
100
AcDbSpline
210
0.0
220
0.0
230
1.0
 70
               1
 71
               3
 72
               0
 73
               0
 74
              17
 44
0.000001
 12
0.5000000000000001
 22
-0.8660254037844386
 32
0.0
 13
0.5000000000000003
 23
-0.8660254037844385
 33
0.0
 11
8.152948101667107
 21
4.707106781186539
 31
0.0
 11
8.4039872476148503
 21
3.991385555743503
 31
0.0
 11
8.3815808904571174
 21
3.1966568008501324
 31
0.0
 11
8.1471094794630581
 21
2.5550357545135807
 31
0.0
 11
7.708203932499373
 21
2.1409325386385376
 31
0.0
 11
7.1927776683524067
 21
2.1097102696475001
 31
0.0
 11
6.6593981749019617
 21
2.3056870511411027
 31
0.0
 11
6.1064186533613878
 21
2.7381172737464716
 31
0.0
 11
5.7034583588839354
 21
3.2928932188134468
 31
0.0
 11
5.4244884442861387
 21
3.9192550430808684
 31
0.0
 11
5.3264826469160145
 21
4.6143644678102573
 31
0.0
 11
5.4234515223158626
 21
5.1742730497428226
 31
0.0
 11
5.708203932499373
 21
5.6050341537762876
 31
0.0
 11
6.2862806107178351
 21
5.7780858993712192
 31
0.0
 11
6.9591764419450737
 21
5.6603335745849783
 31
0.0
 11
7.6586349113795782
 21
5.2823736716431551
 31
0.0
 11
8.152948101667107
 21
4.707106781186539
 31
0.0
  0
SPLINE
  5
A1
100
AcDbEntity
  8
0
  6
CONTINUOUS
 62
               7
100
AcDbSpline
210
0.0
220
0.0
230
1.0
 70
               1
 71
               3
 72
               0
 73
               0
 74
              17
 44
0.000001
 12
1.0
 22
0.0
 32
0.0
 13
1.0
 23
0.0
 33
0.0
 11
0.0000000000000142
 21
9.4142135623730923
 31
0.0
 11
0.7453523362352865
 21
9.2737592273866714
 31
0.0
 11
1.4224044485120577
 21
8.8569903754351245
 31
0.0
 11
1.8608288687452352
 21
8.3331216538848132
 31
0.0
 11
2.0000000000000142
 21
7.7459666924148394
 31
0.0
 11
1.7693261460365597
 21
7.2839833193903374
 31
0.0
 11
1.3329155279859619
 21
6.9200515189513743
 31
0.0
 11
0.6819302090752633
 21
6.6573723168273542
 31
0.0
 11
0.0000000000000142
 21
6.5857864376269077
 31
0.0
 11
-0.6819302090752347
 21
6.6573723168273542
 31
0.0
 11
-1.3329155279859333
 21
6.9200515189513743
 31
0.0
 11
-1.7693261460365313
 21
7.2839833193903365
 31
0.0
 11
-1.9999999999999858
 21
7.7459666924148394
 31
0.0
 11
-1.8608288687452068
 21
8.3331216538848132
 31
0.0
 11
-1.4224044485120291
 21
8.8569903754351245
 31
0.0
 11
-0.7453523362352573
 21
9.2737592273866714
 31
0.0
 11
0.0000000000000155
 21
9.4142135623730923
 31
0.0
  0
LINE
  5
A2
100
AcDbEntity
  8
0
  6
CONTINUOUS
 62
               2
100
AcDbLine
 10
-14.637308588971038
 20
8.4508540540540551
 30
0.0
 11
14.637308588971052
 21
-8.4508540540540622
 31
0.0
  0
LINE
  5
A3
100
AcDbEntity
  8
0
  6
CONTINUOUS
 62
               2
100
AcDbLine
 10
-14.637308588971038
 20
-8.4508540540540622
 30
0.0
 11
14.637308588971052
 21
8.4508540540540409
 31
0.0
  0
ENDBLK
  5
A4
100
AcDbEntity
  8
0
100
AcDbBlockEnd
  0
ENDSEC
  0
SECTION
  2
ENTITIES
  0
INSERT
  5
A5
100
AcDbEntity
  8
0
  6
ByBlock
100
AcDbBlockReference
  2
DTRY-ADN-SW60-1
 10
-58.257561464051946
 20
38.912457933580555
 30
0.0
  0
INSERT
  5
A6
100
AcDbEntity
  8
0
  6
ByBlock
100
AcDbBlockReference
  2
DTRY-ADN-SW60-2
 10
35.984297995407502
 20
38.912457933580555
 30
0.0
  0
INSERT
  5
A7
100
AcDbEntity
  8
0
  6
ByBlock
100
AcDbBlockReference
  2
DTRY-ADN-SW60-3
 10
-58.257561464051946
 20
-44.757272851294793
 30
0.0
  0
INSERT
  5
A8
100
AcDbEntity
  8
0
  6
ByBlock
100
AcDbBlockReference
  2
DTRY-ADN-SW60-4
 10
35.984297995407495
 20
-44.757272851294786
 30
0.0
  0
MTEXT
  5
A9
100
AcDbEntity
  8
0
  6
CONTINUOUS
 62
               7
100
AcDbMText
 10
-129.4529852851131
 20
74.5
 30
0.0
 40
3.1999998092651367
 41
0.0
 71
               4
 72
               1
  1
\W1.026;\A1;MODEL:DTRY-AND-SW-60
  0
MTEXT
  5
AA
100
AcDbEntity
  8
0
  6
CONTINUOUS
 62
               7
100
AcDbMText
 10
93.749460389051933
 20
89.5
 30
0.0
 40
3.1999998092651367
 41
0.0
 71
               4
 72
               1
  1
\W1.311;\A1;Ver. 1.0
  0
MTEXT
  5
AB
100
AcDbEntity
  8
0
  6
CONTINUOUS
 62
               7
100
AcDbMText
 10
77.440523981154129
 20
-89.800003051757812
 30
0.0
 40
4.5
 41
0.0
 71
               4
 72
               1
  1
\W1.121;\A1;KOGANEI CORP.
  0
LINE
  5
AC
100
AcDbEntity
  8
0
  6
CONTINUOUS
 62
               7
100
AcDbLine
 10
-73.399993896484375
 20
94.5
 30
0.0
 11
-73.399993896484375
 21
84.5
 31
0.0
  0
LINE
  5
AD
100
AcDbEntity
  8
0
  6
CONTINUOUS
 62
               7
100
AcDbLine
 10
73.350006103515625
 20
94.5
 30
0.0
 11
73.350006103515625
 21
84.5
 31
0.0
  0
LINE
  5
AE
100
AcDbEntity
  8
0
  6
CONTINUOUS
 62
               7
100
AcDbLine
 10
73.350006103515625
 20
-84.800003051757813
 30
0.0
 11
73.350006103515625
 21
-94.800003051757812
 31
0.0
  0
LINE
  5
AF
100
AcDbEntity
  8
0
  6
CONTINUOUS
 62
               7
100
AcDbLine
 10
73.350006103515625
 20
84.5
 30
0.0
 11
138.35000610351562
 21
84.5
 31
0.0
  0
LINE
  5
B0
100
AcDbEntity
  8
0
  6
CONTINUOUS
 62
               7
100
AcDbLine
 10
-138.39999389648437
 20
84.5
 30
0.0
 11
-73.399993896484375
 21
84.5
 31
0.0
  0
LINE
  5
B1
100
AcDbEntity
  8
0
  6
CONTINUOUS
 62
               7
100
AcDbLine
 10
73.350006103515625
 20
-84.800003051757813
 30
0.0
 11
138.35000610351562
 21
-84.800003051757813
 31
0.0
  0
LINE
  5
B2
100
AcDbEntity
  8
0
  6
CONTINUOUS
 62
               7
100
AcDbLine
 10
-138.39999389648437
 20
94.5
 30
0.0
 11
-138.39999389648437
 21
-94.800003051757812
 31
0.0
  0
LINE
  5
B3
100
AcDbEntity
  8
0
  6
CONTINUOUS
 62
               7
100
AcDbLine
 10
-138.39999389648437
 20
-94.800003051757812
 30
0.0
 11
138.35000610351562
 21
-94.800003051757812
 31
0.0
  0
LINE
  5
B4
100
AcDbEntity
  8
0
  6
CONTINUOUS
 62
               7
100
AcDbLine
 10
138.35000610351562
 20
94.5
 30
0.0
 11
138.35000610351562
 21
-94.800003051757812
 31
0.0
  0
LINE
  5
B5
100
AcDbEntity
  8
0
  6
CONTINUOUS
 62
               7
100
AcDbLine
 10
-138.39999389648437
 20
94.5
 30
0.0
 11
138.35000610351562
 21
94.5
 31
0.0
  0
LINE
  5
B6
100
AcDbEntity
  8
0
  6
CONTINUOUS
 62
               7
100
AcDbLine
 10
138.35000610351562
 20
-0.1500015258789063
 30
0.0
 11
-138.39999389648437
 21
-0.1500015258789063
 31
0.0
  0
MTEXT
  5
B7
100
AcDbEntity
  8
0
  6
CONTINUOUS
 62
               7
100
AcDbMText
 10
-116.56665992736816
 20
93.099999841054284
 30
0.0
 40
3.1999998092651367
 41
0.0
 71
               1
 72
               1
  1
\A1;CRECEED
  0
MTEXT
  5
B8
100
AcDbEntity
  8
0
  6
CONTINUOUS
 62
               7
100
AcDbMText
 10
-116.51051956841908
 20
89.099999841054284
 30
0.0
 40
3.1999998092651367
 41
0.0
 71
               1
 72
               1
  1
\W1.105;\A1;IONIZER
  0
MTEXT
  5
B9
100
AcDbEntity
  8
0
  6
CONTINUOUS
 62
               7
100
AcDbMText
 10
-129.4529852851131
 20
-10.150001525878906
 30
0.0
 40
3.1999998092651367
 41
0.0
 71
               4
 72
               1
  1
\W1.026;\A1;MODEL:DTRY-AND-SW-90
  0
ENDSEC
  0
SECTION
  2
OBJECTS
  0
DICTIONARY
  5
19
100
AcDbDictionary
  3
ACAD_GROUP
350
1A
  3
ACAD_MLINESTYLE
350
1B
  0
DICTIONARY
  5
1A
102
{ACAD_REACTORS
330
19
102
}
100
AcDbDictionary
  0
DICTIONARY
  5
1B
102
{ACAD_REACTORS
330
19
102
}
100
AcDbDictionary
  3
STANDARD
350
1C
  0
MLINESTYLE
  5
1C
102
{ACAD_REACTORS
330
1B
102
}
100
AcDbMlineStyle
  2
Standard
 70
               0
  3

 62
               0
 51
90.0
 52
90.0
 71
               2
 49
0.5
 62
             256
  6
ByLayer
 49
-0.5
 62
             256
  6
ByLayer
  0
ENDSEC
  0
EOF
