  0
SECTION
  2
HEADER
  9
$ACADVER
  1
AC1012
  9
$DWGCODEPAGE
  3
dos932
  9
$INSBASE
 10
0.0
 20
0.0
 30
0.0
  9
$EXTMIN
 10
-399.52490234375
 20
-276.5
 30
0.0
  9
$EXTMAX
 10
403.0569545343663
 20
276.75
 30
0.0
  9
$LIMMIN
 10
-399.52490234375
 20
-276.5
  9
$LIMMAX
 10
403.0569545343663
 20
276.75
  9
$ORTHOMODE
 70
               0
  9
$REGENMODE
 70
               1
  9
$FILLMODE
 70
               1
  9
$QTEXTMODE
 70
               0
  9
$MIRRTEXT
 70
               1
  9
$DRAGMODE
 70
               2
  9
$LTSCALE
 40
1.0
  9
$OSMODE
 70
               0
  9
$ATTMODE
 70
               1
  9
$TEXTSIZE
 40
3.2000000476837158
  9
$TRACEWID
 40
0.05
  9
$TEXTSTYLE
  7
MX_NOTE_STANDARD
  9
$CLAYER
  8
0
  9
$CELTYPE
  6
CONTINUOUS
  9
$CECOLOR
 62
             256
  9
$CELTSCALE
 40
1.0
  9
$DELOBJ
 70
               1
  9
$DISPSILH
 70
               0
  9
$DIMSCALE
 40
1.0
  9
$DIMASZ
 40
2.5
  9
$DIMEXO
 40
1.5
  9
$DIMDLI
 40
3.75
  9
$DIMRND
 40
0.0
  9
$DIMDLE
 40
0.0
  9
$DIMEXE
 40
1.5
  9
$DIMTP
 40
0.0
  9
$DIMTM
 40
0.0
  9
$DIMTXT
 40
3.2000000476837158
  9
$DIMCEN
 40
2.5
  9
$DIMTSZ
 40
0.0
  9
$DIMTOL
 70
               0
  9
$DIMLIM
 70
               0
  9
$DIMTIH
 70
               0
  9
$DIMTOH
 70
               0
  9
$DIMSE1
 70
               0
  9
$DIMSE2
 70
               0
  9
$DIMTAD
 70
               1
  9
$DIMZIN
 70
               8
  9
$DIMBLK
  1

  9
$DIMASO
 70
               1
  9
$DIMSHO
 70
               1
  9
$DIMPOST
  1

  9
$DIMAPOST
  1

  9
$DIMALT
 70
               0
  9
$DIMALTD
 70
               4
  9
$DIMALTF
 40
0.03937007874016
  9
$DIMLFAC
 40
1.0
  9
$DIMTOFL
 70
               1
  9
$DIMTVP
 40
0.0
  9
$DIMTIX
 70
               0
  9
$DIMSOXD
 70
               0
  9
$DIMSAH
 70
               0
  9
$DIMBLK1
  1

  9
$DIMBLK2
  1

  9
$DIMSTYLE
  2
MXDIMSTYLE
  9
$DIMCLRD
 70
               0
  9
$DIMCLRE
 70
               0
  9
$DIMCLRT
 70
               0
  9
$DIMTFAC
 40
1.0
  9
$DIMGAP
 40
1.0
  9
$DIMJUST
 70
               0
  9
$DIMSD1
 70
               0
  9
$DIMSD2
 70
               0
  9
$DIMTOLJ
 70
               1
  9
$DIMTZIN
 70
               0
  9
$DIMALTZ
 70
               0
  9
$DIMALTTZ
 70
               0
  9
$DIMFIT
 70
               3
  9
$DIMUPT
 70
               1
  9
$DIMUNIT
 70
               2
  9
$DIMDEC
 70
               4
  9
$DIMTDEC
 70
               4
  9
$DIMALTU
 70
               2
  9
$DIMALTTD
 70
               4
  9
$DIMTXSTY
  7
MX_NOTE_STANDARD
  9
$DIMAUNIT
 70
               0
  9
$LUNITS
 70
               2
  9
$LUPREC
 70
               4
  9
$SKETCHINC
 40
0.1
  9
$FILLETRAD
 40
0.0
  9
$AUNITS
 70
               0
  9
$AUPREC
 70
               0
  9
$MENU
  1
acad
  9
$ELEVATION
 40
0.0
  9
$PELEVATION
 40
0.0
  9
$THICKNESS
 40
0.0
  9
$LIMCHECK
 70
               0
  9
$BLIPMODE
 70
               1
  9
$CHAMFERA
 40
0.0
  9
$CHAMFERB
 40
0.0
  9
$CHAMFERC
 40
0.0
  9
$CHAMFERD
 40
0.0
  9
$SKPOLY
 70
               0
  9
$TDCREATE
 40
2453378.356284722
  9
$TDUPDATE
 40
2453378.356284722
  9
$TDINDWG
 40
0.0000000000
  9
$TDUSRTIMER
 40
0.0000000000
  9
$USRTIMER
 70
               1
  9
$ANGBASE
 50
0.0
  9
$ANGDIR
 70
               0
  9
$PDMODE
 70
               0
  9
$PDSIZE
 40
0.0
  9
$PLINEWID
 40
0.0
  9
$COORDS
 70
               1
  9
$SPLFRAME
 70
               0
  9
$SPLINETYPE
 70
               6
  9
$SPLINESEGS
 70
               8
  9
$ATTDIA
 70
               0
  9
$ATTREQ
 70
               1
  9
$HANDLING
 70
               1
  9
$HANDSEED
  5
8C6
  9
$SURFTAB1
 70
               6
  9
$SURFTAB2
 70
               6
  9
$SURFTYPE
 70
               6
  9
$SURFU
 70
               6
  9
$SURFV
 70
               6
  9
$UCSNAME
  2

  9
$UCSORG
 10
0.0
 20
0.0
 30
0.0
  9
$UCSXDIR
 10
1.0
 20
0.0
 30
0.0
  9
$UCSYDIR
 10
0.0
 20
1.0
 30
0.0
  9
$PUCSNAME
  2

  9
$PUCSORG
 10
0.0
 20
0.0
 30
0.0
  9
$PUCSXDIR
 10
1.0
 20
0.0
 30
0.0
  9
$PUCSYDIR
 10
0.0
 20
1.0
 30
0.0
  9
$USERI1
 70
               0
  9
$USERI2
 70
               0
  9
$USERI3
 70
               0
  9
$USERI4
 70
               0
  9
$USERI5
 70
               0
  9
$USERR1
 40
0.0
  9
$USERR2
 40
0.0
  9
$USERR3
 40
0.0
  9
$USERR4
 40
0.0
  9
$USERR5
 40
0.0
  9
$WORLDVIEW
 70
               1
  9
$SHADEDGE
 70
               3
  9
$SHADEDIF
 70
              70
  9
$TILEMODE
 70
               1
  9
$MAXACTVP
 70
              16
  9
$PINSBASE
 10
0.0
 20
0.0
 30
0.0
  9
$PLIMCHECK
 70
               0
  9
$PEXTMIN
 10
1.0000000000000000E+20
 20
1.0000000000000000E+20
 30
1.0000000000000000E+20
  9
$PEXTMAX
 10
-1.0000000000000000E+20
 20
-1.0000000000000000E+20
 30
-1.0000000000000000E+20
  9
$PLIMMIN
 10
0.0
 20
0.0
  9
$PLIMMAX
 10
12.0
 20
9.0
  9
$UNITMODE
 70
               0
  9
$VISRETAIN
 70
               0
  9
$PLINEGEN
 70
               1
  9
$PSLTSCALE
 70
               0
  9
$TREEDEPTH
 70
            3020
  9
$PICKSTYLE
 70
               1
  9
$CMLSTYLE
  2
Standard
  9
$CMLJUST
 70
               0
  9
$CMLSCALE
 40
1.0
  9
$SAVEIMAGES
 70
               0
  0
ENDSEC
  0
SECTION
  2
CLASSES
  0
CLASS
  1
LWPOLYLINE
  2
AcDbPolyline
  3
"AutoCAD"
 90
        0
280
               0
281
               1
  0
CLASS
  1
IMAGE
  2
AcDbRasterImage
  3
ISM
 90
      127
280
               0
281
               1
  0
CLASS
  1
OLE2FRAME
  2
AcDbOle2Frame
  3
""
 90
        0
280
               0
281
               1
  0
CLASS
  1
HATCH
  2
AcDbHatch
  3
"ACAD_SEDONA"
 90
        0
280
               0
281
               1
  0
CLASS
  1
DICTIONARYVAR
  2
AcDbDictionaryVar
  3
"AutoCAD"
 90
        0
280
               0
281
               0
  0
CLASS
  1
RASTERVARIABLES
  2
AcDbRasterVariables
  3
ISM
 90
        0
280
               0
281
               0
  0
CLASS
  1
IMAGEDEF
  2
AcDbRasterImageDef
  3
ISM
 90
        0
280
               0
281
               0
  0
CLASS
  1
IMAGEDEF_REACTOR
  2
AcDbRasterImageDefReactor
  3
ISM
 90
        1
280
               0
281
               0
  0
CLASS
  1
IDBUFFER
  2
AcDbIdBuffer
  3
"Acad"
 90
        0
280
               0
281
               0
  0
CLASS
  1
SPATIAL_FILTER
  2
AcDbSpatialFilter
  3
"Acad"
 90
        0
280
               0
281
               0
  0
CLASS
  1
XRECORD
  2
AcDbXrecord
  3
"<Built In>"
 90
        0
280
               0
281
               0
  0
CLASS
  1
SORTENTSTABLE
  2
AcDbSortentsTable
  3
"AutoCAD"
 90
        0
280
               0
281
               0
  0
CLASS
  1
LAYER_INDEX
  2
AcDbLayerIndex
  3
"Acad"
 90
        0
280
               0
281
               0
  0
CLASS
  1
SPATIAL_INDEX
  2
AcDbSpatialIndex
  3
"Acad"
 90
        0
280
               0
281
               0
  0
CLASS
  1
OBJECT_PTR
  2
CAseDLPNTableRecord
  3
"ASE-LPNTableRecord"
 90
        1
280
               0
281
               0
  0
CLASS
  1
LAYOUT
  2
AcDbLayout
  3
"AutoCAD 2000"
 90
        1
280
               0
281
               0
  0
CLASS
  1
PLOTSETTINGS
  2
AcDbPlotSettings
  3
"AutoCAD 2000"
 90
        1
280
               0
281
               0
  0
CLASS
  1
ACDBDICTIONARYWDFLT
  2
AcDbDictionaryWithDefault
  3
"AutoCAD 2000"
 90
        1
280
               0
281
               0
  0
CLASS
  1
ACDBPLACEHOLDER
  2
AcDbPlaceHolder
  3
"AutoCAD 2000"
 90
        1
280
               0
281
               0
  0
ENDSEC
  0
SECTION
  2
TABLES
  0
TABLE
  2
VPORT
  5
7
100
AcDbSymbolTable
 70
               1
  0
VPORT
  5
15
100
AcDbSymbolTableRecord
100
AcDbViewportTableRecord
  2
*ACTIVE
 70
               0
 10
0.0
 20
0.0
 11
1.0
 21
1.0
 12
1.7660260953081206
 22
0.125
 13
0.0
 23
0.0
 14
1.0
 24
1.0
 15
0.0
 25
0.0
 16
0.0
 26
0.0
 36
1.0
 17
0.0
 27
0.0
 37
0.0
 40
558.78250000000003
 41
1.7320508075688772
 42
50.0
 43
0.0
 44
0.0
 50
0.0
 51
0.0
 71
               0
 72
             100
 73
               1
 74
               1
 75
               0
 76
               0
 77
               0
 78
               0
  0
ENDTAB
  0
TABLE
  2
LTYPE
  5
4
100
AcDbSymbolTable
 70
               6
  0
LTYPE
  5
11
100
AcDbSymbolTableRecord
100
AcDbLinetypeTableRecord
  2
BYBLOCK
 70
              64
  3

 72
              65
 73
               0
 40
0.0
  0
LTYPE
  5
12
100
AcDbSymbolTableRecord
100
AcDbLinetypeTableRecord
  2
BYLAYER
 70
              64
  3

 72
              65
 73
               0
 40
0.0
  0
LTYPE
  5
13
100
AcDbSymbolTableRecord
100
AcDbLinetypeTableRecord
  2
CONTINUOUS
 70
              64
  3
Solid line
 72
              65
 73
               0
 40
0.0
  0
LTYPE
  5
2E
100
AcDbSymbolTableRecord
100
AcDbLinetypeTableRecord
  2
CENTER
 70
              64
  3
Center ____ _ ____ _ ____ _ ____ _ ____ _ ____
 72
              65
 73
               4
 40
26.0
 49
20.0
 74
               0
 49
-2.0
 74
               0
 49
2.0
 74
               0
 49
-2.0
 74
               0
  0
LTYPE
  5
78
100
AcDbSymbolTableRecord
100
AcDbLinetypeTableRecord
  2
DASHED
 70
              64
  3
Dashed __ __ __ __ __ __ __ __ __ __ __ __ __ _
 72
              65
 73
               2
 40
4.0
 49
2.0
 74
               0
 49
-2.0
 74
               0
  0
LTYPE
  5
290
100
AcDbSymbolTableRecord
100
AcDbLinetypeTableRecord
  2
PHANTOM
 70
              64
  3
Phantom ______  __  __  ______  __  __  ______
 72
              65
 73
               6
 40
30.0
 49
20.0
 74
               0
 49
-2.0
 74
               0
 49
2.0
 74
               0
 49
-2.0
 74
               0
 49
2.0
 74
               0
 49
-2.0
 74
               0
  0
ENDTAB
  0
TABLE
  2
LAYER
  5
2
100
AcDbSymbolTable
 70
               2
  0
LAYER
  5
14
100
AcDbSymbolTableRecord
100
AcDbLayerTableRecord
  2
0
 70
               0
 62
               7
  6
CONTINUOUS
  0
LAYER
  5
1D
100
AcDbSymbolTableRecord
100
AcDbLayerTableRecord
  2
DEFPOINTS
 70
               0
 62
               7
  6
CONTINUOUS
  0
ENDTAB
  0
TABLE
  2
STYLE
  5
3
100
AcDbSymbolTable
 70
               1
  0
STYLE
  5
17
100
AcDbSymbolTableRecord
100
AcDbTextStyleTableRecord
  2
MX_NOTE_STANDARD
 70
               0
 40
0.0
 41
1.0
 50
0.0
 71
               0
 42
3.2000000476837158
  3
txt.shx
  4
extfont.shx
  0
ENDTAB
  0
TABLE
  2
VIEW
  5
5
100
AcDbSymbolTable
 70
               0
  0
ENDTAB
  0
TABLE
  2
UCS
  5
6
100
AcDbSymbolTable
 70
               0
  0
ENDTAB
  0
TABLE
  2
APPID
  5
8
100
AcDbSymbolTable
 70
               1
  0
APPID
  5
16
100
AcDbSymbolTableRecord
100
AcDbRegAppTableRecord
  2
ACAD
 70
               0
  0
ENDTAB
  0
TABLE
  2
DIMSTYLE
  5
9
100
AcDbSymbolTable
 70
               1
  0
DIMSTYLE
105
18
100
AcDbSymbolTableRecord
100
AcDbDimStyleTableRecord
  2
MXDIMSTYLE
 70
               0
  3

  4

  5

  6

  7

 40
1.0
 41
2.5
 42
1.5
 43
3.75
 44
1.5
 45
0.0
 46
0.0
 47
0.0
 48
0.0
 71
               0
 72
               0
 73
               0
 74
               0
 75
               0
 76
               0
 77
               1
 78
               8
140
3.2000000476837158
141
2.5
142
0.0
143
0.03937007874016
144
1.0
145
0.0
146
1.0
147
1.0
170
               0
171
               4
172
               1
173
               0
174
               0
175
               0
176
               0
177
               0
178
               0
270
               2
271
               4
272
               4
273
               2
274
               4
275
               0
280
               0
281
               0
282
               0
283
               1
284
               0
285
               0
286
               0
287
               3
288
               1
340
17
  0
ENDTAB
  0
TABLE
  2
BLOCK_RECORD
  5
1
100
AcDbSymbolTable
 70
              15
  0
BLOCK_RECORD
  5
A
100
AcDbSymbolTableRecord
100
AcDbBlockTableRecord
  2
*MODEL_SPACE
  0
BLOCK_RECORD
  5
B
100
AcDbSymbolTableRecord
100
AcDbBlockTableRecord
  2
*PAPER_SPACE
  0
BLOCK_RECORD
  5
1E
100
AcDbSymbolTableRecord
100
AcDbBlockTableRecord
  2
DTRY-ELB-1
  0
BLOCK_RECORD
  5
1F
100
AcDbSymbolTableRecord
100
AcDbBlockTableRecord
  2
DTRY-ELB-2
  0
BLOCK_RECORD
  5
20
100
AcDbSymbolTableRecord
100
AcDbBlockTableRecord
  2
DTRY-ELB-3
  0
BLOCK_RECORD
  5
21
100
AcDbSymbolTableRecord
100
AcDbBlockTableRecord
  2
DTRY-ELB-4
  0
BLOCK_RECORD
  5
22
100
AcDbSymbolTableRecord
100
AcDbBlockTableRecord
  2
DTRY-ELB-5
  0
BLOCK_RECORD
  5
23
100
AcDbSymbolTableRecord
100
AcDbBlockTableRecord
  2
DTRY-ELB-6
  0
BLOCK_RECORD
  5
24
100
AcDbSymbolTableRecord
100
AcDbBlockTableRecord
  2
DTRY-ELB-7
  0
BLOCK_RECORD
  5
25
100
AcDbSymbolTableRecord
100
AcDbBlockTableRecord
  2
DTRY-ELB-8
  0
BLOCK_RECORD
  5
26
100
AcDbSymbolTableRecord
100
AcDbBlockTableRecord
  2
DTRY-ELB-9
  0
BLOCK_RECORD
  5
27
100
AcDbSymbolTableRecord
100
AcDbBlockTableRecord
  2
DTRY-ELB-10
  0
BLOCK_RECORD
  5
28
100
AcDbSymbolTableRecord
100
AcDbBlockTableRecord
  2
DTRY-ELB-11
  0
BLOCK_RECORD
  5
29
100
AcDbSymbolTableRecord
100
AcDbBlockTableRecord
  2
DTRY-ELB-12
  0
BLOCK_RECORD
  5
2A
100
AcDbSymbolTableRecord
100
AcDbBlockTableRecord
  2
DTRY-ELB-13
  0
BLOCK_RECORD
  5
2B
100
AcDbSymbolTableRecord
100
AcDbBlockTableRecord
  2
DTRY-ELB-14
  0
BLOCK_RECORD
  5
2C
100
AcDbSymbolTableRecord
100
AcDbBlockTableRecord
  2
DTRY-ELB-15
  0
ENDTAB
  0
ENDSEC
  0
SECTION
  2
BLOCKS
  0
BLOCK
  5
D
100
AcDbEntity
  8
0
100
AcDbBlockBegin
  2
*MODEL_SPACE
 70
               0
 10
0.0
 20
0.0
 30
0.0
  3
*MODEL_SPACE
  1

  0
ENDBLK
  5
E
100
AcDbEntity
  8
0
100
AcDbBlockEnd
  0
BLOCK
  5
F
100
AcDbEntity
 67
               1
  8
0
100
AcDbBlockBegin
  2
*PAPER_SPACE
 70
               0
 10
0.0
 20
0.0
 30
0.0
  3
*PAPER_SPACE
  1

  0
ENDBLK
  5
10
100
AcDbEntity
 67
               1
  8
0
100
AcDbBlockEnd
  0
BLOCK
  5
2D
100
AcDbEntity
  8
0
100
AcDbBlockBegin
  2
DTRY-ELB-1
 70
               0
 10
0.0
 20
0.0
 30
0.0
  3
DTRY-ELB-1
  1

  0
LINE
  5
2F
100
AcDbEntity
  8
0
  6
CENTER
 62
               2
100
AcDbLine
 10
0.0
 20
-2.2711150475054609
 30
0.0
 11
0.0
 21
3.5198219185365218
 31
0.0
  0
LINE
  5
30
100
AcDbEntity
  8
0
  6
CENTER
 62
               2
100
AcDbLine
 10
80.0
 20
-2.38037800912889
 30
0.0
 11
80.0
 21
3.410558956913107
 31
0.0
  0
LINE
  5
31
100
AcDbEntity
  8
0
  6
CENTER
 62
               2
100
AcDbLine
 10
9.3633764991840849
 20
48.000000000000014
 30
0.0
 11
43.53224951170688
 21
48.000000000000014
 31
0.0
  0
LINE
  5
32
100
AcDbEntity
  8
0
  6
CENTER
 62
               2
100
AcDbLine
 10
34.22999999999999
 20
38.996200000000002
 30
0.0
 11
34.22999999999999
 21
57.173800000000014
 31
0.0
  0
LINE
  5
33
100
AcDbEntity
  8
0
  6
CONTINUOUS
 62
               7
100
AcDbLine
 10
40.429999999999978
 20
46.000000000000014
 30
0.0
 11
74.0
 21
46.000000000000014
 31
0.0
  0
LINE
  5
34
100
AcDbEntity
  8
0
  6
CONTINUOUS
 62
               7
100
AcDbLine
 10
79.0
 20
38.500000000000014
 30
0.0
 11
74.0
 21
38.500000000000014
 31
0.0
  0
LINE
  5
35
100
AcDbEntity
  8
0
  6
CONTINUOUS
 62
               7
100
AcDbLine
 10
82.0
 20
39.000000000000014
 30
0.0
 11
79.0
 21
38.500000000000014
 31
0.0
  0
LINE
  5
36
100
AcDbEntity
  8
0
  6
CONTINUOUS
 62
               7
100
AcDbLine
 10
79.0
 20
39.500000000000014
 30
0.0
 11
82.0
 21
39.000000000000014
 31
0.0
  0
LINE
  5
37
100
AcDbEntity
  8
0
  6
CONTINUOUS
 62
               7
100
AcDbLine
 10
74.0
 20
39.500000000000014
 30
0.0
 11
79.0
 21
39.500000000000014
 31
0.0
  0
LINE
  5
38
100
AcDbEntity
  8
0
  6
CONTINUOUS
 62
               7
100
AcDbLine
 10
14.22999999999999
 20
42.100000000000009
 30
0.0
 11
14.22999999999999
 21
44.000000000000014
 31
0.0
  0
LINE
  5
39
100
AcDbEntity
  8
0
  6
CONTINUOUS
 62
               7
100
AcDbLine
 10
14.22999999999999
 20
52.000000000000014
 30
0.0
 11
14.22999999999999
 21
53.899999999999991
 31
0.0
  0
LINE
  5
3A
100
AcDbEntity
  8
0
  6
CONTINUOUS
 62
               7
100
AcDbLine
 10
15.829999999999984
 20
45.933000000000007
 30
0.0
 11
19.829999999999984
 21
45.933000000000007
 31
0.0
  0
LINE
  5
3B
100
AcDbEntity
  8
0
  6
CONTINUOUS
 62
               7
100
AcDbLine
 10
15.829999999999984
 20
50.066999999999993
 30
0.0
 11
19.829999999999984
 21
50.066999999999993
 31
0.0
  0
LINE
  5
3C
100
AcDbEntity
  8
0
  6
CONTINUOUS
 62
               7
100
AcDbLine
 10
15.829999999999984
 20
50.500000000000014
 30
0.0
 11
19.829999999999984
 21
50.500000000000014
 31
0.0
  0
LINE
  5
3D
100
AcDbEntity
  8
0
  6
CONTINUOUS
 62
               7
100
AcDbLine
 10
15.829999999999984
 20
45.500000000000014
 30
0.0
 11
19.829999999999984
 21
45.500000000000014
 31
0.0
  0
LINE
  5
3E
100
AcDbEntity
  8
0
  6
CONTINUOUS
 62
               7
100
AcDbLine
 10
15.329999999999984
 20
44.000000000000014
 30
0.0
 11
15.329999999999984
 21
52.000000000000014
 31
0.0
  0
LINE
  5
3F
100
AcDbEntity
  8
0
  6
CONTINUOUS
 62
               7
100
AcDbLine
 10
12.329999999999984
 20
44.000000000000014
 30
0.0
 11
12.329999999999984
 21
52.000000000000014
 31
0.0
  0
LINE
  5
40
100
AcDbEntity
  8
0
  6
CONTINUOUS
 62
               7
100
AcDbLine
 10
15.829999999999984
 20
51.500000000000014
 30
0.0
 11
15.330099999999987
 21
52.000000000000014
 31
0.0
  0
LINE
  5
41
100
AcDbEntity
  8
0
  6
CONTINUOUS
 62
               7
100
AcDbLine
 10
15.330099999999987
 20
44.000000000000014
 30
0.0
 11
15.830099999999987
 21
44.500000000000014
 31
0.0
  0
LINE
  5
42
100
AcDbEntity
  8
0
  6
CONTINUOUS
 62
               7
100
AcDbLine
 10
11.829999999999984
 20
44.500000000000014
 30
0.0
 11
12.329999999999984
 21
44.000000000000014
 31
0.0
  0
LINE
  5
43
100
AcDbEntity
  8
0
  6
CONTINUOUS
 62
               7
100
AcDbLine
 10
12.329999999999984
 20
52.000000000000014
 30
0.0
 11
11.829999999999984
 21
51.500000000000014
 31
0.0
  0
LINE
  5
44
100
AcDbEntity
  8
0
  6
CONTINUOUS
 62
               7
100
AcDbLine
 10
12.329999999999984
 20
52.000000000000014
 30
0.0
 11
15.329999999999984
 21
52.000000000000014
 31
0.0
  0
LINE
  5
45
100
AcDbEntity
  8
0
  6
CONTINUOUS
 62
               7
100
AcDbLine
 10
12.329999999999984
 20
44.000000000000014
 30
0.0
 11
15.329999999999984
 21
44.000000000000014
 31
0.0
  0
LINE
  5
46
100
AcDbEntity
  8
0
  6
CONTINUOUS
 62
               7
100
AcDbLine
 10
15.829999999999984
 20
44.500000000000014
 30
0.0
 11
15.829999999999984
 21
51.500000000000014
 31
0.0
  0
LINE
  5
47
100
AcDbEntity
  8
0
  6
CONTINUOUS
 62
               7
100
AcDbLine
 10
11.829999999999984
 20
44.500000000000014
 30
0.0
 11
11.829999999999984
 21
51.500000000000014
 31
0.0
  0
LINE
  5
48
100
AcDbEntity
  8
0
  6
CONTINUOUS
 62
               7
100
AcDbLine
 10
40.429999999999978
 20
42.986000000000004
 30
0.0
 11
41.0
 21
43.003812999999994
 31
0.0
  0
LINE
  5
49
100
AcDbEntity
  8
0
  6
CONTINUOUS
 62
               7
100
AcDbLine
 10
40.429999999999978
 20
52.433000000000007
 30
0.0
 11
41.0
 21
52.415188000000015
 31
0.0
  0
LINE
  5
4A
100
AcDbEntity
  8
0
  6
CONTINUOUS
 62
               7
100
AcDbLine
 10
40.429999999999978
 20
43.566999999999993
 30
0.0
 11
41.0
 21
43.584813000000011
 31
0.0
  0
LINE
  5
4B
100
AcDbEntity
  8
0
  6
CONTINUOUS
 62
               7
100
AcDbLine
 10
40.429999999999978
 20
53.013999999999996
 30
0.0
 11
41.0
 21
52.996188000000004
 31
0.0
  0
ARC
  5
4C
100
AcDbEntity
  8
0
  6
CONTINUOUS
 62
               7
100
AcDbCircle
 10
31.650899999999979
 20
45.500000000000014
 30
0.0
 40
7.2209000000000163
100
AcDbArc
 50
159.74389999999957
 51
200.25609999999941
  0
ARC
  5
4D
100
AcDbEntity
  8
0
  6
CONTINUOUS
 62
               7
100
AcDbCircle
 10
31.650899999999979
 20
50.500000000000014
 30
0.0
 40
7.2209000000000163
100
AcDbArc
 50
159.74389999999957
 51
200.25609999999941
  0
LINE
  5
4E
100
AcDbEntity
  8
0
  6
CONTINUOUS
 62
               7
100
AcDbLine
 10
16.030000000000001
 20
50.500000000000014
 30
0.0
 11
16.030000000000001
 21
53.899999999999991
 31
0.0
  0
LINE
  5
4F
100
AcDbEntity
  8
0
  6
CONTINUOUS
 62
               7
100
AcDbLine
 10
17.22999999999999
 20
50.500000000000014
 30
0.0
 11
17.22999999999999
 21
53.750000000000014
 31
0.0
  0
LINE
  5
50
100
AcDbEntity
  8
0
  6
CONTINUOUS
 62
               7
100
AcDbLine
 10
19.22999999999999
 20
50.500000000000014
 30
0.0
 11
19.22999999999999
 21
54.250000000000014
 31
0.0
  0
LINE
  5
51
100
AcDbEntity
  8
0
  6
CONTINUOUS
 62
               7
100
AcDbLine
 10
21.22999999999999
 20
53.000000000000014
 30
0.0
 11
21.22999999999999
 21
54.250000000000014
 31
0.0
  0
LINE
  5
52
100
AcDbEntity
  8
0
  6
CONTINUOUS
 62
               7
100
AcDbLine
 10
21.22999999999999
 20
41.750000000000014
 30
0.0
 11
21.22999999999999
 21
43.000000000000014
 31
0.0
  0
LINE
  5
53
100
AcDbEntity
  8
0
  6
CONTINUOUS
 62
               7
100
AcDbLine
 10
28.429999999999978
 20
54.250000000000014
 30
0.0
 11
19.22999999999999
 21
54.250000000000014
 31
0.0
  0
LINE
  5
54
100
AcDbEntity
  8
0
  6
CONTINUOUS
 62
               7
100
AcDbLine
 10
28.429999999999978
 20
41.750000000000014
 30
0.0
 11
19.22999999999999
 21
41.750000000000014
 31
0.0
  0
LINE
  5
55
100
AcDbEntity
  8
0
  6
CONTINUOUS
 62
               7
100
AcDbLine
 10
19.22999999999999
 20
41.750000000000014
 30
0.0
 11
19.22999999999999
 21
45.500000000000014
 31
0.0
  0
LINE
  5
56
100
AcDbEntity
  8
0
  6
CONTINUOUS
 62
               7
100
AcDbLine
 10
19.22999999999999
 20
53.750000000000014
 30
0.0
 11
17.22999999999999
 21
53.750000000000014
 31
0.0
  0
LINE
  5
57
100
AcDbEntity
  8
0
  6
CONTINUOUS
 62
               7
100
AcDbLine
 10
17.22999999999999
 20
52.299999999999997
 30
0.0
 11
16.030000000000001
 21
52.299999999999997
 31
0.0
  0
LINE
  5
58
100
AcDbEntity
  8
0
  6
CONTINUOUS
 62
               7
100
AcDbLine
 10
16.030000000000001
 20
53.899999999999991
 30
0.0
 11
14.22999999999999
 21
53.899999999999991
 31
0.0
  0
LINE
  5
59
100
AcDbEntity
  8
0
  6
CONTINUOUS
 62
               7
100
AcDbLine
 10
16.030000000000001
 20
42.100000000000009
 30
0.0
 11
14.22999999999999
 21
42.100000000000009
 31
0.0
  0
LINE
  5
5A
100
AcDbEntity
  8
0
  6
CONTINUOUS
 62
               7
100
AcDbLine
 10
16.030000000000001
 20
42.100000000000009
 30
0.0
 11
16.030000000000001
 21
45.500000000000014
 31
0.0
  0
LINE
  5
5B
100
AcDbEntity
  8
0
  6
CONTINUOUS
 62
               7
100
AcDbLine
 10
17.22999999999999
 20
43.700000000000003
 30
0.0
 11
16.030000000000001
 21
43.700000000000003
 31
0.0
  0
LINE
  5
5C
100
AcDbEntity
  8
0
  6
CONTINUOUS
 62
               7
100
AcDbLine
 10
17.22999999999999
 20
42.250000000000014
 30
0.0
 11
17.22999999999999
 21
45.500000000000014
 31
0.0
  0
LINE
  5
5D
100
AcDbEntity
  8
0
  6
CONTINUOUS
 62
               7
100
AcDbLine
 10
19.22999999999999
 20
42.250000000000014
 30
0.0
 11
17.22999999999999
 21
42.250000000000014
 31
0.0
  0
LINE
  5
5E
100
AcDbEntity
  8
0
  6
CONTINUOUS
 62
               7
100
AcDbLine
 10
24.876599999999996
 20
48.000000000000014
 30
0.0
 11
28.429999999999978
 21
48.000000000000014
 31
0.0
  0
LINE
  5
5F
100
AcDbEntity
  8
0
  6
CONTINUOUS
 62
               7
100
AcDbLine
 10
24.429999999999978
 20
53.000000000000014
 30
0.0
 11
28.429999999999978
 21
53.000000000000014
 31
0.0
  0
LINE
  5
60
100
AcDbEntity
  8
0
  6
CONTINUOUS
 62
               7
100
AcDbLine
 10
24.429999999999978
 20
43.000000000000014
 30
0.0
 11
28.429999999999978
 21
43.000000000000014
 31
0.0
  0
LINE
  5
61
100
AcDbEntity
  8
0
  6
CONTINUOUS
 62
               7
100
AcDbLine
 10
23.329999999999984
 20
44.000000000000014
 30
0.0
 11
24.429999999999978
 21
44.000000000000014
 31
0.0
  0
LINE
  5
62
100
AcDbEntity
  8
0
  6
CONTINUOUS
 62
               7
100
AcDbLine
 10
23.329999999999984
 20
52.000000000000014
 30
0.0
 11
24.429999999999978
 21
52.000000000000014
 31
0.0
  0
LINE
  5
63
100
AcDbEntity
  8
0
  6
CONTINUOUS
 62
               7
100
AcDbLine
 10
22.829999999999984
 20
43.000000000000014
 30
0.0
 11
22.829999999999984
 21
53.000000000000014
 31
0.0
  0
LINE
  5
64
100
AcDbEntity
  8
0
  6
CONTINUOUS
 62
               7
100
AcDbLine
 10
20.329999999999984
 20
43.000000000000014
 30
0.0
 11
20.329999999999984
 21
53.000000000000014
 31
0.0
  0
LINE
  5
65
100
AcDbEntity
  8
0
  6
CONTINUOUS
 62
               7
100
AcDbLine
 10
23.329999999999984
 20
52.500000000000014
 30
0.0
 11
22.829999999999984
 21
53.000000000000014
 31
0.0
  0
LINE
  5
66
100
AcDbEntity
  8
0
  6
CONTINUOUS
 62
               7
100
AcDbLine
 10
22.829999999999984
 20
43.000000000000014
 30
0.0
 11
23.329999999999984
 21
43.500000000000014
 31
0.0
  0
LINE
  5
67
100
AcDbEntity
  8
0
  6
CONTINUOUS
 62
               7
100
AcDbLine
 10
19.829999999999984
 20
43.500000000000014
 30
0.0
 11
20.329999999999984
 21
43.000000000000014
 31
0.0
  0
LINE
  5
68
100
AcDbEntity
  8
0
  6
CONTINUOUS
 62
               7
100
AcDbLine
 10
20.330099999999987
 20
53.000000000000014
 30
0.0
 11
19.830099999999987
 21
52.500000000000014
 31
0.0
  0
LINE
  5
69
100
AcDbEntity
  8
0
  6
CONTINUOUS
 62
               7
100
AcDbLine
 10
20.329999999999984
 20
43.000000000000014
 30
0.0
 11
22.829999999999984
 21
43.000000000000014
 31
0.0
  0
LINE
  5
6A
100
AcDbEntity
  8
0
  6
CONTINUOUS
 62
               7
100
AcDbLine
 10
20.329999999999984
 20
53.000000000000014
 30
0.0
 11
22.829999999999984
 21
53.000000000000014
 31
0.0
  0
LINE
  5
6B
100
AcDbEntity
  8
0
  6
CONTINUOUS
 62
               7
100
AcDbLine
 10
19.829999999999984
 20
43.500000000000014
 30
0.0
 11
19.829999999999984
 21
52.500000000000014
 31
0.0
  0
LINE
  5
6C
100
AcDbEntity
  8
0
  6
CONTINUOUS
 62
               7
100
AcDbLine
 10
23.329999999999984
 20
43.500000000000014
 30
0.0
 11
23.329999999999984
 21
52.500000000000014
 31
0.0
  0
LINE
  5
6D
100
AcDbEntity
  8
0
  6
CONTINUOUS
 62
               7
100
AcDbLine
 10
29.629999999999995
 20
55.200000000000003
 30
0.0
 11
39.22999999999999
 21
55.200000000000003
 31
0.0
  0
LINE
  5
6E
100
AcDbEntity
  8
0
  6
CONTINUOUS
 62
               7
100
AcDbLine
 10
24.429999999999978
 20
43.000000000000014
 30
0.0
 11
24.429999999999978
 21
53.000000000000014
 31
0.0
  0
LINE
  5
6F
100
AcDbEntity
  8
0
  6
CONTINUOUS
 62
               7
100
AcDbLine
 10
39.22999999999999
 20
55.200000000000003
 30
0.0
 11
40.429999999999978
 21
54.507199999999997
 31
0.0
  0
LINE
  5
70
100
AcDbEntity
  8
0
  6
CONTINUOUS
 62
               7
100
AcDbLine
 10
29.630099999999999
 20
40.799999999999997
 30
0.0
 11
28.430099999999982
 21
41.492800000000003
 31
0.0
  0
LINE
  5
71
100
AcDbEntity
  8
0
  6
CONTINUOUS
 62
               7
100
AcDbLine
 10
39.22999999999999
 20
40.799999999999997
 30
0.0
 11
40.430099999999982
 21
41.492800000000003
 31
0.0
  0
LINE
  5
72
100
AcDbEntity
  8
0
  6
CONTINUOUS
 62
               7
100
AcDbLine
 10
29.629999999999995
 20
55.200000000000003
 30
0.0
 11
28.429999999999978
 21
54.507199999999997
 31
0.0
  0
LINE
  5
73
100
AcDbEntity
  8
0
  6
CONTINUOUS
 62
               7
100
AcDbLine
 10
29.629999999999995
 20
40.799999999999997
 30
0.0
 11
29.629999999999995
 21
55.200000000000003
 31
0.0
  0
LINE
  5
74
100
AcDbEntity
  8
0
  6
CONTINUOUS
 62
               7
100
AcDbLine
 10
39.22999999999999
 20
40.799999999999997
 30
0.0
 11
39.22999999999999
 21
55.200000000000003
 31
0.0
  0
LINE
  5
75
100
AcDbEntity
  8
0
  6
CONTINUOUS
 62
               7
100
AcDbLine
 10
28.429999999999978
 20
41.492800000000003
 30
0.0
 11
28.429999999999978
 21
54.507199999999997
 31
0.0
  0
LINE
  5
76
100
AcDbEntity
  8
0
  6
CONTINUOUS
 62
               7
100
AcDbLine
 10
40.429999999999978
 20
41.492800000000003
 30
0.0
 11
40.429999999999978
 21
54.507199999999997
 31
0.0
  0
LINE
  5
77
100
AcDbEntity
  8
0
  6
CONTINUOUS
 62
               7
100
AcDbLine
 10
29.629999999999995
 20
40.799999999999997
 30
0.0
 11
39.22999999999999
 21
40.799999999999997
 31
0.0
  0
LINE
  5
79
100
AcDbEntity
  8
0
  6
DASHED
 62
               7
100
AcDbLine
 10
82.25
 20
0.0
 30
0.0
 11
82.25
 21
1.0
 31
0.0
  0
LINE
  5
7A
100
AcDbEntity
  8
0
  6
DASHED
 62
               7
100
AcDbLine
 10
2.25
 20
0.0
 30
0.0
 11
2.25
 21
1.0
 31
0.0
  0
LINE
  5
7B
100
AcDbEntity
  8
0
  6
DASHED
 62
               7
100
AcDbLine
 10
-2.25
 20
0.0
 30
0.0
 11
-2.25
 21
1.0
 31
0.0
  0
LINE
  5
7C
100
AcDbEntity
  8
0
  6
DASHED
 62
               7
100
AcDbLine
 10
77.75
 20
0.0
 30
0.0
 11
77.75
 21
1.0
 31
0.0
  0
LINE
  5
7D
100
AcDbEntity
  8
0
  6
CONTINUOUS
 62
               7
100
AcDbLine
 10
-6.0
 20
0.0
 30
0.0
 11
86.0
 21
0.0
 31
0.0
  0
LINE
  5
7E
100
AcDbEntity
  8
0
  6
CONTINUOUS
 62
               7
100
AcDbLine
 10
-6.0
 20
1.0
 30
0.0
 11
86.0
 21
1.0
 31
0.0
  0
LINE
  5
7F
100
AcDbEntity
  8
0
  6
CONTINUOUS
 62
               7
100
AcDbLine
 10
-6.0
 20
0.0
 30
0.0
 11
-6.0
 21
1.0
 31
0.0
  0
LINE
  5
80
100
AcDbEntity
  8
0
  6
CONTINUOUS
 62
               7
100
AcDbLine
 10
86.0
 20
0.0
 30
0.0
 11
86.0
 21
1.0
 31
0.0
  0
LINE
  5
81
100
AcDbEntity
  8
0
  6
CONTINUOUS
 62
               7
100
AcDbLine
 10
6.0
 20
1.0
 30
0.0
 11
6.0
 21
39.000000000000014
 31
0.0
  0
LINE
  5
82
100
AcDbEntity
  8
0
  6
CONTINUOUS
 62
               7
100
AcDbLine
 10
6.0
 20
39.000000000000014
 30
0.0
 11
67.0
 21
39.000000000000014
 31
0.0
  0
LINE
  5
83
100
AcDbEntity
  8
0
  6
CONTINUOUS
 62
               7
100
AcDbLine
 10
74.0
 20
23.0
 30
0.0
 11
74.0
 21
1.0
 31
0.0
  0
CIRCLE
  5
84
100
AcDbEntity
  8
0
  6
CONTINUOUS
 62
               7
100
AcDbCircle
 10
56.0
 20
20.0
 30
0.0
 40
2.0
  0
CIRCLE
  5
85
100
AcDbEntity
  8
0
  6
CONTINUOUS
 62
               7
100
AcDbCircle
 10
66.0
 20
20.0
 30
0.0
 40
2.0
  0
LINE
  5
86
100
AcDbEntity
  8
0
  6
CONTINUOUS
 62
               7
100
AcDbLine
 10
72.0
 20
34.0
 30
0.0
 11
72.0
 21
1.0
 31
0.0
  0
LINE
  5
87
100
AcDbEntity
  8
0
  6
CONTINUOUS
 62
               7
100
AcDbLine
 10
74.0
 20
23.0
 30
0.0
 11
72.0
 21
23.0
 31
0.0
  0
ARC
  5
88
100
AcDbEntity
  8
0
  6
CONTINUOUS
 62
               7
100
AcDbCircle
 10
67.0
 20
34.0
 30
0.0
 40
5.0
100
AcDbArc
 50
0.0
 51
89.999999999999815
  0
LINE
  5
89
100
AcDbEntity
  8
0
  6
CONTINUOUS
 62
               7
100
AcDbLine
 10
41.0
 20
54.000000000000014
 30
0.0
 11
74.0
 21
54.000000000000014
 31
0.0
  0
LINE
  5
8A
100
AcDbEntity
  8
0
  6
CONTINUOUS
 62
               7
100
AcDbLine
 10
74.0
 20
23.0
 30
0.0
 11
74.0
 21
54.000000000000014
 31
0.0
  0
LINE
  5
8B
100
AcDbEntity
  8
0
  6
CONTINUOUS
 62
               7
100
AcDbLine
 10
41.0
 20
39.000000000000014
 30
0.0
 11
41.0
 21
54.000000000000014
 31
0.0
  0
LINE
  5
8C
100
AcDbEntity
  8
0
  6
CONTINUOUS
 62
               7
100
AcDbLine
 10
6.0
 20
40.000000000000014
 30
0.0
 11
41.0
 21
40.000000000000014
 31
0.0
  0
LINE
  5
8D
100
AcDbEntity
  8
0
  6
CONTINUOUS
 62
               7
100
AcDbLine
 10
6.0
 20
40.000000000000014
 30
0.0
 11
6.0
 21
39.000000000000014
 31
0.0
  0
LINE
  5
8E
100
AcDbEntity
  8
0
  6
CONTINUOUS
 62
               7
100
AcDbLine
 10
-0.5
 20
22.0
 30
0.0
 11
3.0
 21
22.0
 31
0.0
  0
LINE
  5
8F
100
AcDbEntity
  8
0
  6
CONTINUOUS
 62
               7
100
AcDbLine
 10
-0.5
 20
14.0
 30
0.0
 11
3.0
 21
14.0
 31
0.0
  0
LINE
  5
90
100
AcDbEntity
  8
0
  6
CONTINUOUS
 62
               7
100
AcDbLine
 10
4.0
 20
21.5
 30
0.0
 11
5.0
 21
21.5
 31
0.0
  0
LINE
  5
91
100
AcDbEntity
  8
0
  6
CONTINUOUS
 62
               7
100
AcDbLine
 10
4.0
 20
14.5
 30
0.0
 11
5.0
 21
14.5
 31
0.0
  0
LINE
  5
92
100
AcDbEntity
  8
0
  6
CONTINUOUS
 62
               7
100
AcDbLine
 10
5.0
 20
14.5
 30
0.0
 11
5.0
 21
21.5
 31
0.0
  0
LINE
  5
93
100
AcDbEntity
  8
0
  6
CONTINUOUS
 62
               7
100
AcDbLine
 10
4.0
 20
14.5
 30
0.0
 11
4.0
 21
21.5
 31
0.0
  0
LINE
  5
94
100
AcDbEntity
  8
0
  6
CONTINUOUS
 62
               7
100
AcDbLine
 10
3.0
 20
14.0
 30
0.0
 11
3.0
 21
22.0
 31
0.0
  0
LINE
  5
95
100
AcDbEntity
  8
0
  6
CONTINUOUS
 62
               7
100
AcDbLine
 10
-1.0
 20
14.5
 30
0.0
 11
-1.0
 21
21.5
 31
0.0
  0
LINE
  5
96
100
AcDbEntity
  8
0
  6
CONTINUOUS
 62
               7
100
AcDbLine
 10
3.0
 20
20.554327000000001
 30
0.0
 11
4.0
 21
20.554327000000001
 31
0.0
  0
LINE
  5
97
100
AcDbEntity
  8
0
  6
CONTINUOUS
 62
               7
100
AcDbLine
 10
3.0
 20
15.445674000000011
 30
0.0
 11
4.0
 21
15.445674000000011
 31
0.0
  0
LINE
  5
98
100
AcDbEntity
  8
0
  6
CONTINUOUS
 62
               7
100
AcDbLine
 10
5.0
 20
20.180351000000002
 30
0.0
 11
6.0
 21
20.180351000000002
 31
0.0
  0
LINE
  5
99
100
AcDbEntity
  8
0
  6
CONTINUOUS
 62
               7
100
AcDbLine
 10
5.0
 20
15.81965000000001
 30
0.0
 11
6.0
 21
15.81965000000001
 31
0.0
  0
LINE
  5
9A
100
AcDbEntity
  8
0
  6
CONTINUOUS
 62
               7
100
AcDbLine
 10
-0.5
 20
22.0
 30
0.0
 11
-1.0
 21
21.5
 31
0.0
  0
LINE
  5
9B
100
AcDbEntity
  8
0
  6
CONTINUOUS
 62
               7
100
AcDbLine
 10
-1.0
 20
14.5
 30
0.0
 11
-0.5
 21
14.0
 31
0.0
  0
LINE
  5
9C
100
AcDbEntity
  8
0
  6
CONTINUOUS
 62
               7
100
AcDbLine
 10
-0.5
 20
22.0
 30
0.0
 11
-0.5
 21
14.0
 31
0.0
  0
LINE
  5
9D
100
AcDbEntity
  8
0
  6
CONTINUOUS
 62
               7
100
AcDbLine
 10
21.80726199999998
 20
40.000000000000014
 30
0.0
 11
21.80726199999998
 21
40.688952000000015
 31
0.0
  0
LINE
  5
9E
100
AcDbEntity
  8
0
  6
CONTINUOUS
 62
               7
100
AcDbLine
 10
25.192736999999994
 20
40.000000000000014
 30
0.0
 11
25.192736999999994
 21
40.688952000000015
 31
0.0
  0
ARC
  5
9F
100
AcDbEntity
  8
0
  6
CONTINUOUS
 62
               7
100
AcDbCircle
 10
23.5
 20
38.126973000000007
 30
0.0
 40
3.0706839999999977
100
AcDbArc
 50
56.546668999999852
 51
123.45333099999974
  0
LINE
  5
A0
100
AcDbEntity
  8
0
  6
CENTER
 62
               2
100
AcDbLine
 10
8.3583198120683733
 20
18.0
 30
0.0
 11
-2.7332691221162406
 21
18.0
 31
0.0
  0
LINE
  5
A1
100
AcDbEntity
  8
0
  6
CENTER
 62
               2
100
AcDbLine
 10
72.854679227955501
 20
39.000000000000014
 30
0.0
 11
83.390924161738212
 21
39.000000000000014
 31
0.0
  0
ENDBLK
  5
A2
100
AcDbEntity
  8
0
100
AcDbBlockEnd
  0
BLOCK
  5
A3
100
AcDbEntity
  8
0
100
AcDbBlockBegin
  2
DTRY-ELB-2
 70
               0
 10
0.0
 20
0.0
 30
0.0
  3
DTRY-ELB-2
  1

  0
LINE
  5
A4
100
AcDbEntity
  8
0
  6
CONTINUOUS
 62
               7
100
AcDbLine
 10
1.11327
 20
53.0
 30
0.0
 11
6.8867500000000064
 21
53.0
 31
0.0
  0
LINE
  5
A5
100
AcDbEntity
  8
0
  6
CENTER
 62
               2
100
AcDbLine
 10
36.0
 20
25.077431833429415
 30
0.0
 11
36.0
 21
57.898015520309002
 31
0.0
  0
LINE
  5
A6
100
AcDbEntity
  8
0
  6
CENTER
 62
               2
100
AcDbLine
 10
-10.199999999999989
 20
40.5
 30
0.0
 11
-10.199999999999989
 21
55.5
 31
0.0
  0
LINE
  5
A7
100
AcDbEntity
  8
0
  6
CONTINUOUS
 62
               7
100
AcDbLine
 10
34.75
 20
28.75
 30
0.0
 11
35.75
 21
29.75
 31
0.0
  0
LINE
  5
A8
100
AcDbEntity
  8
0
  6
CONTINUOUS
 62
               7
100
AcDbLine
 10
31.75
 20
29.75
 30
0.0
 11
32.75
 21
28.75
 31
0.0
  0
LINE
  5
A9
100
AcDbEntity
  8
0
  6
CONTINUOUS
 62
               7
100
AcDbLine
 10
40.25
 20
34.25
 30
0.0
 11
39.25
 21
33.25
 31
0.0
  0
LINE
  5
AA
100
AcDbEntity
  8
0
  6
CONTINUOUS
 62
               7
100
AcDbLine
 10
36.25
 20
34.25
 30
0.0
 11
37.25
 21
33.25
 31
0.0
  0
CIRCLE
  5
AB
100
AcDbEntity
  8
0
  6
CONTINUOUS
 62
               7
100
AcDbCircle
 10
36.0
 20
18.0
 30
0.0
 40
4.0
  0
LINE
  5
AC
100
AcDbEntity
  8
0
  6
CONTINUOUS
 62
               7
100
AcDbLine
 10
38.149999999999977
 20
30.850000000000023
 30
0.0
 11
38.350000000000023
 21
30.850000000000023
 31
0.0
  0
LINE
  5
AD
100
AcDbEntity
  8
0
  6
CONTINUOUS
 62
               7
100
AcDbLine
 10
38.149999999999977
 20
30.650000000000006
 30
0.0
 11
38.350000000000023
 21
30.650000000000006
 31
0.0
  0
LINE
  5
AE
100
AcDbEntity
  8
0
  6
CONTINUOUS
 62
               7
100
AcDbLine
 10
38.149999999999977
 20
35.149999999999977
 30
0.0
 11
38.350000000000023
 21
35.149999999999977
 31
0.0
  0
LINE
  5
AF
100
AcDbEntity
  8
0
  6
CONTINUOUS
 62
               7
100
AcDbLine
 10
38.149999999999977
 20
35.350000000000023
 30
0.0
 11
38.350000000000023
 21
35.350000000000023
 31
0.0
  0
LINE
  5
B0
100
AcDbEntity
  8
0
  6
CONTINUOUS
 62
               7
100
AcDbLine
 10
38.149999999999977
 20
30.850000000000023
 30
0.0
 11
38.149999999999977
 21
30.650000000000006
 31
0.0
  0
LINE
  5
B1
100
AcDbEntity
  8
0
  6
CONTINUOUS
 62
               7
100
AcDbLine
 10
38.350000000000023
 20
30.850000000000023
 30
0.0
 11
38.350000000000023
 21
30.650000000000006
 31
0.0
  0
LINE
  5
B2
100
AcDbEntity
  8
0
  6
CONTINUOUS
 62
               7
100
AcDbLine
 10
33.649999999999977
 20
30.850000000000023
 30
0.0
 11
33.649999999999977
 21
30.650000000000006
 31
0.0
  0
LINE
  5
B3
100
AcDbEntity
  8
0
  6
CONTINUOUS
 62
               7
100
AcDbLine
 10
33.850000000000023
 20
30.850000000000023
 30
0.0
 11
33.850000000000023
 21
30.650000000000006
 31
0.0
  0
LINE
  5
B4
100
AcDbEntity
  8
0
  6
CONTINUOUS
 62
               7
100
AcDbLine
 10
33.649999999999977
 20
30.650000000000006
 30
0.0
 11
33.850000000000023
 21
30.650000000000006
 31
0.0
  0
LINE
  5
B5
100
AcDbEntity
  8
0
  6
CONTINUOUS
 62
               7
100
AcDbLine
 10
33.649999999999977
 20
35.149999999999977
 30
0.0
 11
33.850000000000023
 21
35.149999999999977
 31
0.0
  0
LINE
  5
B6
100
AcDbEntity
  8
0
  6
CONTINUOUS
 62
               7
100
AcDbLine
 10
33.649999999999977
 20
30.850000000000023
 30
0.0
 11
33.850000000000023
 21
30.850000000000023
 31
0.0
  0
LINE
  5
B7
100
AcDbEntity
  8
0
  6
CONTINUOUS
 62
               7
100
AcDbLine
 10
33.649999999999977
 20
35.350000000000023
 30
0.0
 11
33.850000000000023
 21
35.350000000000023
 31
0.0
  0
LINE
  5
B8
100
AcDbEntity
  8
0
  6
CONTINUOUS
 62
               7
100
AcDbLine
 10
38.350000000000023
 20
35.350000000000023
 30
0.0
 11
38.350000000000023
 21
35.149999999999977
 31
0.0
  0
LINE
  5
B9
100
AcDbEntity
  8
0
  6
CONTINUOUS
 62
               7
100
AcDbLine
 10
33.850000000000023
 20
35.350000000000023
 30
0.0
 11
33.850000000000023
 21
35.149999999999977
 31
0.0
  0
LINE
  5
BA
100
AcDbEntity
  8
0
  6
CONTINUOUS
 62
               7
100
AcDbLine
 10
38.149999999999977
 20
35.350000000000023
 30
0.0
 11
38.149999999999977
 21
35.149999999999977
 31
0.0
  0
LINE
  5
BB
100
AcDbEntity
  8
0
  6
CONTINUOUS
 62
               7
100
AcDbLine
 10
33.649999999999977
 20
35.350000000000023
 30
0.0
 11
33.649999999999977
 21
35.149999999999977
 31
0.0
  0
LINE
  5
BC
100
AcDbEntity
  8
0
  6
CONTINUOUS
 62
               7
100
AcDbLine
 10
37.5
 20
39.0
 30
0.0
 11
41.5
 21
39.0
 31
0.0
  0
LINE
  5
BD
100
AcDbEntity
  8
0
  6
CONTINUOUS
 62
               7
100
AcDbLine
 10
37.5
 20
37.75
 30
0.0
 11
37.5
 21
39.75
 31
0.0
  0
LINE
  5
BE
100
AcDbEntity
  8
0
  6
CONTINUOUS
 62
               7
100
AcDbLine
 10
34.5
 20
37.75
 30
0.0
 11
34.5
 21
39.75
 31
0.0
  0
LINE
  5
BF
100
AcDbEntity
  8
0
  6
CONTINUOUS
 62
               7
100
AcDbLine
 10
34.5
 20
39.75
 30
0.0
 11
37.5
 21
39.75
 31
0.0
  0
LINE
  5
C0
100
AcDbEntity
  8
0
  6
CONTINUOUS
 62
               7
100
AcDbLine
 10
36.25
 20
37.25
 30
0.0
 11
40.25
 21
37.25
 31
0.0
  0
LINE
  5
C1
100
AcDbEntity
  8
0
  6
CONTINUOUS
 62
               7
100
AcDbLine
 10
31.75
 20
33.25
 30
0.0
 11
31.75
 21
37.25
 31
0.0
  0
LINE
  5
C2
100
AcDbEntity
  8
0
  6
CONTINUOUS
 62
               7
100
AcDbLine
 10
40.25
 20
34.25
 30
0.0
 11
40.25
 21
37.25
 31
0.0
  0
LINE
  5
C3
100
AcDbEntity
  8
0
  6
CONTINUOUS
 62
               7
100
AcDbLine
 10
36.25
 20
28.75
 30
0.0
 11
40.25
 21
28.75
 31
0.0
  0
LINE
  5
C4
100
AcDbEntity
  8
0
  6
CONTINUOUS
 62
               7
100
AcDbLine
 10
32.75
 20
28.75
 30
0.0
 11
34.75
 21
28.75
 31
0.0
  0
LINE
  5
C5
100
AcDbEntity
  8
0
  6
CONTINUOUS
 62
               7
100
AcDbLine
 10
31.25
 20
37.75
 30
0.0
 11
40.75
 21
37.75
 31
0.0
  0
LINE
  5
C6
100
AcDbEntity
  8
0
  6
CONTINUOUS
 62
               7
100
AcDbLine
 10
40.25
 20
28.75
 30
0.0
 11
40.25
 21
32.75
 31
0.0
  0
LINE
  5
C7
100
AcDbEntity
  8
0
  6
CONTINUOUS
 62
               7
100
AcDbLine
 10
31.75
 20
29.75
 30
0.0
 11
31.75
 21
32.75
 31
0.0
  0
LINE
  5
C8
100
AcDbEntity
  8
0
  6
CONTINUOUS
 62
               7
100
AcDbLine
 10
36.25
 20
34.25
 30
0.0
 11
36.25
 21
37.25
 31
0.0
  0
LINE
  5
C9
100
AcDbEntity
  8
0
  6
CONTINUOUS
 62
               7
100
AcDbLine
 10
36.25
 20
32.75
 30
0.0
 11
40.25
 21
32.75
 31
0.0
  0
LINE
  5
CA
100
AcDbEntity
  8
0
  6
CONTINUOUS
 62
               7
100
AcDbLine
 10
37.25
 20
33.25
 30
0.0
 11
39.25
 21
33.25
 31
0.0
  0
LINE
  5
CB
100
AcDbEntity
  8
0
  6
CONTINUOUS
 62
               7
100
AcDbLine
 10
35.75
 20
33.25
 30
0.0
 11
35.75
 21
37.25
 31
0.0
  0
LINE
  5
CC
100
AcDbEntity
  8
0
  6
CONTINUOUS
 62
               7
100
AcDbLine
 10
31.75
 20
32.75
 30
0.0
 11
35.75
 21
32.75
 31
0.0
  0
LINE
  5
CD
100
AcDbEntity
  8
0
  6
CONTINUOUS
 62
               7
100
AcDbLine
 10
31.75
 20
33.25
 30
0.0
 11
35.75
 21
33.25
 31
0.0
  0
LINE
  5
CE
100
AcDbEntity
  8
0
  6
CONTINUOUS
 62
               7
100
AcDbLine
 10
36.25
 20
28.75
 30
0.0
 11
36.25
 21
32.75
 31
0.0
  0
LINE
  5
CF
100
AcDbEntity
  8
0
  6
CONTINUOUS
 62
               7
100
AcDbLine
 10
35.75
 20
29.75
 30
0.0
 11
35.75
 21
32.75
 31
0.0
  0
LINE
  5
D0
100
AcDbEntity
  8
0
  6
CONTINUOUS
 62
               7
100
AcDbLine
 10
31.25
 20
28.25
 30
0.0
 11
40.75
 21
28.25
 31
0.0
  0
LINE
  5
D1
100
AcDbEntity
  8
0
  6
CONTINUOUS
 62
               7
100
AcDbLine
 10
31.75
 20
37.25
 30
0.0
 11
35.75
 21
37.25
 31
0.0
  0
LINE
  5
D2
100
AcDbEntity
  8
0
  6
CONTINUOUS
 62
               7
100
AcDbLine
 10
40.75
 20
28.25
 30
0.0
 11
40.75
 21
37.75
 31
0.0
  0
LINE
  5
D3
100
AcDbEntity
  8
0
  6
CONTINUOUS
 62
               7
100
AcDbLine
 10
31.25
 20
28.25
 30
0.0
 11
31.25
 21
37.75
 31
0.0
  0
LINE
  5
D4
100
AcDbEntity
  8
0
  6
CONTINUOUS
 62
               7
100
AcDbLine
 10
33.5
 20
39.0
 30
0.0
 11
33.5
 21
40.0
 31
0.0
  0
LINE
  5
D5
100
AcDbEntity
  8
0
  6
CONTINUOUS
 62
               7
100
AcDbLine
 10
38.5
 20
39.0
 30
0.0
 11
38.5
 21
40.0
 31
0.0
  0
LINE
  5
D6
100
AcDbEntity
  8
0
  6
CONTINUOUS
 62
               7
100
AcDbLine
 10
30.5
 20
39.0
 30
0.0
 11
34.5
 21
39.0
 31
0.0
  0
LINE
  5
D7
100
AcDbEntity
  8
0
  6
CONTINUOUS
 62
               7
100
AcDbLine
 10
30.5
 20
27.0
 30
0.0
 11
30.5
 21
39.0
 31
0.0
  0
LINE
  5
D8
100
AcDbEntity
  8
0
  6
CONTINUOUS
 62
               7
100
AcDbLine
 10
41.5
 20
27.0
 30
0.0
 11
41.5
 21
39.0
 31
0.0
  0
LINE
  5
D9
100
AcDbEntity
  8
0
  6
CONTINUOUS
 62
               7
100
AcDbLine
 10
50.0
 20
39.0
 30
0.0
 11
50.0
 21
1.0
 31
0.0
  0
LINE
  5
DA
100
AcDbEntity
  8
0
  6
CONTINUOUS
 62
               7
100
AcDbLine
 10
41.5
 20
27.0
 30
0.0
 11
30.5
 21
27.0
 31
0.0
  0
LINE
  5
DB
100
AcDbEntity
  8
0
  6
CONTINUOUS
 62
               7
100
AcDbLine
 10
51.0
 20
39.0
 30
0.0
 11
41.5
 21
39.0
 31
0.0
  0
LINE
  5
DC
100
AcDbEntity
  8
0
  6
CONTINUOUS
 62
               7
100
AcDbLine
 10
51.0
 20
39.0
 30
0.0
 11
51.0
 21
0.0
 31
0.0
  0
LINE
  5
DD
100
AcDbEntity
  8
0
  6
CONTINUOUS
 62
               7
100
AcDbLine
 10
51.691020999999978
 20
18.528311000000002
 30
0.0
 11
50.97408999999999
 21
18.528311000000002
 31
0.0
  0
LINE
  5
DE
100
AcDbEntity
  8
0
  6
CONTINUOUS
 62
               7
100
AcDbLine
 10
51.691020999999978
 20
21.471690000000024
 30
0.0
 11
50.97408999999999
 21
21.471690000000024
 31
0.0
  0
ARC
  5
DF
100
AcDbEntity
  8
0
  6
CONTINUOUS
 62
               7
100
AcDbCircle
 10
51.691020999999978
 20
20.0
 30
0.0
 40
1.4716889999999978
100
AcDbArc
 50
269.99999999999937
 51
89.999999999999801
  0
CIRCLE
  5
E0
100
AcDbEntity
  8
0
  6
CONTINUOUS
 62
               7
100
AcDbCircle
 10
36.0
 20
18.0
 30
0.0
 40
3.5
  0
LINE
  5
E1
100
AcDbEntity
  8
0
  6
CONTINUOUS
 62
               7
100
AcDbLine
 10
38.886750000000006
 20
53.0
 30
0.0
 11
41.773500000000013
 21
48.0
 31
0.0
  0
LINE
  5
E2
100
AcDbEntity
  8
0
  6
CONTINUOUS
 62
               7
100
AcDbLine
 10
30.226479999999981
 20
48.0
 30
0.0
 11
33.113229999999987
 21
43.0
 31
0.0
  0
LINE
  5
E3
100
AcDbEntity
  8
0
  6
CONTINUOUS
 62
               7
100
AcDbLine
 10
38.886750000000006
 20
43.0
 30
0.0
 11
33.113249999999994
 21
43.0
 31
0.0
  0
LINE
  5
E4
100
AcDbEntity
  8
0
  6
CONTINUOUS
 62
               7
100
AcDbLine
 10
38.886759999999981
 20
53.0
 30
0.0
 11
33.113249999999994
 21
53.0
 31
0.0
  0
LINE
  5
E5
100
AcDbEntity
  8
0
  6
CONTINUOUS
 62
               7
100
AcDbLine
 10
41.773509999999987
 20
48.0
 30
0.0
 11
38.886750000000006
 21
43.0
 31
0.0
  0
LINE
  5
E6
100
AcDbEntity
  8
0
  6
CONTINUOUS
 62
               7
100
AcDbLine
 10
33.11327
 20
53.0
 30
0.0
 11
30.226519999999994
 21
48.0
 31
0.0
  0
LINE
  5
E7
100
AcDbEntity
  8
0
  6
CONTINUOUS
 62
               7
100
AcDbLine
 10
29.853659999999991
 20
44.25
 30
0.0
 11
26.800000000000011
 21
44.25
 31
0.0
  0
LINE
  5
E8
100
AcDbEntity
  8
0
  6
CONTINUOUS
 62
               7
100
AcDbLine
 10
29.853659999999991
 20
51.75
 30
0.0
 11
26.800000000000011
 21
51.75
 31
0.0
  0
LINE
  5
E9
100
AcDbEntity
  8
0
  6
CONTINUOUS
 62
               7
100
AcDbLine
 10
28.839169999999967
 20
47.25
 30
0.0
 11
28.004840000000002
 21
47.25
 31
0.0
  0
LINE
  5
EA
100
AcDbEntity
  8
0
  6
CONTINUOUS
 62
               7
100
AcDbLine
 10
28.839169999999967
 20
48.75
 30
0.0
 11
28.004840000000002
 21
48.75
 31
0.0
  0
LINE
  5
EB
100
AcDbEntity
  8
0
  6
CONTINUOUS
 62
               7
100
AcDbLine
 10
15.550000000000011
 20
51.75
 30
0.0
 11
15.550000000000011
 21
44.25
 31
0.0
  0
LINE
  5
EC
100
AcDbEntity
  8
0
  6
CONTINUOUS
 62
               7
100
AcDbLine
 10
15.550000000000011
 20
44.25
 30
0.0
 11
16.800000000000011
 21
44.25
 31
0.0
  0
LINE
  5
ED
100
AcDbEntity
  8
0
  6
CONTINUOUS
 62
               7
100
AcDbLine
 10
15.550000000000011
 20
51.75
 30
0.0
 11
16.800000000000011
 21
51.75
 31
0.0
  0
CIRCLE
  5
EE
100
AcDbEntity
  8
0
  6
CONTINUOUS
 62
               7
100
AcDbCircle
 10
36.0
 20
48.0
 30
0.0
 40
7.2000000000000028
  0
CIRCLE
  5
EF
100
AcDbEntity
  8
0
  6
CONTINUOUS
 62
               7
100
AcDbCircle
 10
36.0
 20
48.0
 30
0.0
 40
5.0
  0
CIRCLE
  5
F0
100
AcDbEntity
  8
0
  6
CONTINUOUS
 62
               7
100
AcDbCircle
 10
36.0
 20
48.0
 30
0.0
 40
4.0
  0
CIRCLE
  5
F1
100
AcDbEntity
  8
0
  6
CONTINUOUS
 62
               7
100
AcDbCircle
 10
21.800000000000011
 20
48.0
 30
0.0
 40
6.25
  0
CIRCLE
  5
F2
100
AcDbEntity
  8
0
  6
CONTINUOUS
 62
               7
100
AcDbCircle
 10
21.800000000000011
 20
48.0
 30
0.0
 40
3.1000000000000014
  0
ARC
  5
F3
100
AcDbEntity
  8
0
  6
CONTINUOUS
 62
               7
100
AcDbCircle
 10
36.0
 20
39.0
 30
0.0
 40
15.000000000000005
100
AcDbArc
 50
109.17478699999974
 51
122.28540499999971
  0
LINE
  5
F4
100
AcDbEntity
  8
0
  6
CONTINUOUS
 62
               7
100
AcDbLine
 10
43.0
 20
54.0
 30
0.0
 11
51.0
 21
46.0
 31
0.0
  0
LINE
  5
F5
100
AcDbEntity
  8
0
  6
CONTINUOUS
 62
               7
100
AcDbLine
 10
43.0
 20
54.0
 30
0.0
 11
39.979949000000033
 21
54.0
 31
0.0
  0
LINE
  5
F6
100
AcDbEntity
  8
0
  6
CONTINUOUS
 62
               7
100
AcDbLine
 10
51.0
 20
39.0
 30
0.0
 11
51.0
 21
46.0
 31
0.0
  0
LINE
  5
F7
100
AcDbEntity
  8
0
  6
CONTINUOUS
 62
               7
100
AcDbLine
 10
-10.0
 20
1.0
 30
0.0
 11
-10.0
 21
39.0
 31
0.0
  0
LINE
  5
F8
100
AcDbEntity
  8
0
  6
CONTINUOUS
 62
               7
100
AcDbLine
 10
-11.0
 20
0.0
 30
0.0
 11
-11.0
 21
39.0
 31
0.0
  0
LINE
  5
F9
100
AcDbEntity
  8
0
  6
CONTINUOUS
 62
               7
100
AcDbLine
 10
6.8867500000000064
 20
53.0
 30
0.0
 11
9.7735000000000127
 21
48.0
 31
0.0
  0
LINE
  5
FA
100
AcDbEntity
  8
0
  6
CONTINUOUS
 62
               7
100
AcDbLine
 10
-1.7735200000000191
 20
48.0
 30
0.0
 11
1.1132299999999873
 21
43.0
 31
0.0
  0
LINE
  5
FB
100
AcDbEntity
  8
0
  6
CONTINUOUS
 62
               7
100
AcDbLine
 10
6.8867500000000064
 20
43.0
 30
0.0
 11
1.1132499999999936
 21
43.0
 31
0.0
  0
LINE
  5
FC
100
AcDbEntity
  8
0
  6
CONTINUOUS
 62
               7
100
AcDbLine
 10
9.7735099999999875
 20
48.0
 30
0.0
 11
6.8867500000000064
 21
43.0
 31
0.0
  0
LINE
  5
FD
100
AcDbEntity
  8
0
  6
CONTINUOUS
 62
               7
100
AcDbLine
 10
1.11327
 20
53.0
 30
0.0
 11
-1.7734800000000064
 21
48.0
 31
0.0
  0
LINE
  5
FE
100
AcDbEntity
  8
0
  6
CONTINUOUS
 62
               7
100
AcDbLine
 10
-2.1463400000000092
 20
44.25
 30
0.0
 11
-5.1999999999999886
 21
44.25
 31
0.0
  0
LINE
  5
FF
100
AcDbEntity
  8
0
  6
CONTINUOUS
 62
               7
100
AcDbLine
 10
-2.1463400000000092
 20
51.75
 30
0.0
 11
-5.1999999999999886
 21
51.75
 31
0.0
  0
LINE
  5
100
100
AcDbEntity
  8
0
  6
CONTINUOUS
 62
               7
100
AcDbLine
 10
-3.1608300000000327
 20
47.25
 30
0.0
 11
-3.9951599999999985
 21
47.25
 31
0.0
  0
LINE
  5
101
100
AcDbEntity
  8
0
  6
CONTINUOUS
 62
               7
100
AcDbLine
 10
-3.1608300000000327
 20
48.75
 30
0.0
 11
-3.9951599999999985
 21
48.75
 31
0.0
  0
LINE
  5
102
100
AcDbEntity
  8
0
  6
CONTINUOUS
 62
               7
100
AcDbLine
 10
-16.449999999999989
 20
51.75
 30
0.0
 11
-16.449999999999989
 21
44.25
 31
0.0
  0
LINE
  5
103
100
AcDbEntity
  8
0
  6
CONTINUOUS
 62
               7
100
AcDbLine
 10
-16.449999999999989
 20
44.25
 30
0.0
 11
-15.199999999999989
 21
44.25
 31
0.0
  0
LINE
  5
104
100
AcDbEntity
  8
0
  6
CONTINUOUS
 62
               7
100
AcDbLine
 10
-16.449999999999989
 20
51.75
 30
0.0
 11
-15.199999999999989
 21
51.75
 31
0.0
  0
CIRCLE
  5
105
100
AcDbEntity
  8
0
  6
CONTINUOUS
 62
               7
100
AcDbCircle
 10
4.0
 20
48.0
 30
0.0
 40
7.2000000000000028
  0
CIRCLE
  5
106
100
AcDbEntity
  8
0
  6
CONTINUOUS
 62
               7
100
AcDbCircle
 10
4.0
 20
48.0
 30
0.0
 40
5.0
  0
CIRCLE
  5
107
100
AcDbEntity
  8
0
  6
CONTINUOUS
 62
               7
100
AcDbCircle
 10
4.0
 20
48.0
 30
0.0
 40
4.0
  0
CIRCLE
  5
108
100
AcDbEntity
  8
0
  6
CONTINUOUS
 62
               7
100
AcDbCircle
 10
-10.199999999999989
 20
48.0
 30
0.0
 40
6.25
  0
CIRCLE
  5
109
100
AcDbEntity
  8
0
  6
CONTINUOUS
 62
               7
100
AcDbCircle
 10
-10.199999999999989
 20
48.0
 30
0.0
 40
3.1000000000000014
  0
ARC
  5
10A
100
AcDbEntity
  8
0
  6
CONTINUOUS
 62
               7
100
AcDbCircle
 10
4.0
 20
39.0
 30
0.0
 40
15.000000000000009
100
AcDbArc
 50
109.17478699999974
 51
122.28540499999971
  0
LINE
  5
10B
100
AcDbEntity
  8
0
  6
CONTINUOUS
 62
               7
100
AcDbLine
 10
-11.0
 20
39.0
 30
0.0
 11
-11.0
 21
41.807799999999986
 31
0.0
  0
LINE
  5
10C
100
AcDbEntity
  8
0
  6
CONTINUOUS
 62
               7
100
AcDbLine
 10
0.0200499999999693
 20
54.0
 30
0.0
 11
-3.0
 21
54.0
 31
0.0
  0
LINE
  5
10D
100
AcDbEntity
  8
0
  6
CONTINUOUS
 62
               7
100
AcDbLine
 10
-3.0
 20
54.0
 30
0.0
 11
-5.2250000000000227
 21
51.774999999999977
 31
0.0
  0
LINE
  5
10E
100
AcDbEntity
  8
0
  6
CONTINUOUS
 62
               7
100
AcDbLine
 10
51.0
 20
1.0
 30
0.0
 11
-11.0
 21
1.0
 31
0.0
  0
LINE
  5
10F
100
AcDbEntity
  8
0
  6
CONTINUOUS
 62
               7
100
AcDbLine
 10
51.0
 20
0.0
 30
0.0
 11
-11.0
 21
0.0
 31
0.0
  0
LINE
  5
110
100
AcDbEntity
  8
0
  6
CONTINUOUS
 62
               7
100
AcDbLine
 10
7.9799490000000333
 20
54.0
 30
0.0
 11
20.050000000000011
 21
54.0
 31
0.0
  0
LINE
  5
111
100
AcDbEntity
  8
0
  6
CONTINUOUS
 62
               7
100
AcDbLine
 10
23.550000000000011
 20
54.0
 30
0.0
 11
32.020049999999969
 21
54.0
 31
0.0
  0
LINE
  5
112
100
AcDbEntity
  8
0
  6
CONTINUOUS
 62
               7
100
AcDbLine
 10
50.966630000000009
 20
40.0
 30
0.0
 11
-11.0
 21
40.0
 31
0.0
  0
LINE
  5
113
100
AcDbEntity
  8
0
  6
CONTINUOUS
 62
               7
100
AcDbLine
 10
30.5
 20
39.0
 30
0.0
 11
-11.0
 21
39.0
 31
0.0
  0
LINE
  5
114
100
AcDbEntity
  8
0
  6
DASHED
 62
               7
100
AcDbLine
 10
-2.25
 20
0.0
 30
0.0
 11
-2.25
 21
1.0
 31
0.0
  0
LINE
  5
115
100
AcDbEntity
  8
0
  6
DASHED
 62
               7
100
AcDbLine
 10
2.25
 20
0.0
 30
0.0
 11
2.25
 21
1.0
 31
0.0
  0
LINE
  5
116
100
AcDbEntity
  8
0
  6
DASHED
 62
               7
100
AcDbLine
 10
37.75
 20
0.0
 30
0.0
 11
37.75
 21
1.0
 31
0.0
  0
LINE
  5
117
100
AcDbEntity
  8
0
  6
DASHED
 62
               7
100
AcDbLine
 10
42.25
 20
0.0
 30
0.0
 11
42.25
 21
1.0
 31
0.0
  0
LINE
  5
118
100
AcDbEntity
  8
0
  6
CENTER
 62
               2
100
AcDbLine
 10
40.0
 20
-2.3846892106943187
 30
0.0
 11
40.0
 21
3.4761293048198922
 31
0.0
  0
LINE
  5
119
100
AcDbEntity
  8
0
  6
CENTER
 62
               2
100
AcDbLine
 10
0.0
 20
-2.0497852955220992
 30
0.0
 11
0.0
 21
3.1412253896476443
 31
0.0
  0
LINE
  5
11A
100
AcDbEntity
  8
0
  6
CENTER
 62
               2
100
AcDbLine
 10
4.0
 20
37.803780609974581
 30
0.0
 11
4.0
 21
57.563111605136783
 31
0.0
  0
LINE
  5
11B
100
AcDbEntity
  8
0
  6
CENTER
 62
               2
100
AcDbLine
 10
44.985400000000027
 20
48.0
 30
0.0
 11
13.518219999999985
 21
48.0
 31
0.0
  0
LINE
  5
11C
100
AcDbEntity
  8
0
  6
CENTER
 62
               2
100
AcDbLine
 10
21.800000000000011
 20
40.5
 30
0.0
 11
21.800000000000011
 21
55.5
 31
0.0
  0
LINE
  5
11D
100
AcDbEntity
  8
0
  6
CENTER
 62
               2
100
AcDbLine
 10
43.339087414249946
 20
33.0
 30
0.0
 11
27.933507316326882
 21
33.0
 31
0.0
  0
LINE
  5
11E
100
AcDbEntity
  8
0
  6
CENTER
 62
               2
100
AcDbLine
 10
41.999471753560954
 20
18.0
 30
0.0
 11
29.775478849774174
 21
18.0
 31
0.0
  0
LINE
  5
11F
100
AcDbEntity
  8
0
  6
CENTER
 62
               2
100
AcDbLine
 10
36.0
 20
11.346371311367534
 30
0.0
 11
36.0
 21
24.240172045498809
 31
0.0
  0
LINE
  5
120
100
AcDbEntity
  8
0
  6
CENTER
 62
               2
100
AcDbLine
 10
12.985400000000027
 20
48.0
 30
0.0
 11
-18.481780000000015
 21
48.0
 31
0.0
  0
ENDBLK
  5
121
100
AcDbEntity
  8
0
100
AcDbBlockEnd
  0
BLOCK
  5
122
100
AcDbEntity
  8
0
100
AcDbBlockBegin
  2
DTRY-ELB-3
 70
               0
 10
0.0
 20
0.0
 30
0.0
  3
DTRY-ELB-3
  1

  0
LINE
  5
123
100
AcDbEntity
  8
0
  6
CENTER
 62
               2
100
AcDbLine
 10
10.586741874149936
 20
39.0
 30
0.0
 11
-50.659497891488286
 21
39.0
 31
0.0
  0
LINE
  5
124
100
AcDbEntity
  8
0
  6
CENTER
 62
               2
100
AcDbLine
 10
-38.629240945544382
 20
48.0
 30
0.0
 11
-33.29685688634703
 21
48.0
 31
0.0
  0
LINE
  5
125
100
AcDbEntity
  8
0
  6
CONTINUOUS
 62
               7
100
AcDbLine
 10
-51.328310999999985
 20
18.528311000000002
 30
0.0
 11
-51.0
 21
18.528311000000002
 31
0.0
  0
LINE
  5
126
100
AcDbEntity
  8
0
  6
CONTINUOUS
 62
               7
100
AcDbLine
 10
-51.328310999999985
 20
21.471688999999998
 30
0.0
 11
-51.0
 21
21.471688999999998
 31
0.0
  0
ARC
  5
127
100
AcDbEntity
  8
0
  6
CONTINUOUS
 62
               7
100
AcDbCircle
 10
-51.328310999999985
 20
20.0
 30
0.0
 40
1.4716889999999978
100
AcDbArc
 50
89.999999999999815
 51
269.99999999999937
  0
CIRCLE
  5
128
100
AcDbEntity
  8
0
  6
CONTINUOUS
 62
               2
100
AcDbCircle
 10
-36.0
 20
39.0
 30
0.0
 40
12.0
  0
CIRCLE
  5
129
100
AcDbEntity
  8
0
  6
CONTINUOUS
 62
               7
100
AcDbCircle
 10
-36.0
 20
39.0
 30
0.0
 40
5.5
  0
CIRCLE
  5
12A
100
AcDbEntity
  8
0
  6
CONTINUOUS
 62
               7
100
AcDbCircle
 10
-36.0
 20
39.0
 30
0.0
 40
4.0
  0
CIRCLE
  5
12B
100
AcDbEntity
  8
0
  6
CONTINUOUS
 62
               7
100
AcDbCircle
 10
-36.0
 20
39.0
 30
0.0
 40
0.5
  0
CIRCLE
  5
12C
100
AcDbEntity
  8
0
  6
CONTINUOUS
 62
               7
100
AcDbCircle
 10
-36.0
 20
48.0
 30
0.0
 40
1.0
  0
LINE
  5
12D
100
AcDbEntity
  8
0
  6
CONTINUOUS
 62
               7
100
AcDbLine
 10
-50.0
 20
23.0
 30
0.0
 11
-50.0
 21
1.0
 31
0.0
  0
LINE
  5
12E
100
AcDbEntity
  8
0
  6
CONTINUOUS
 62
               7
100
AcDbLine
 10
-51.0
 20
0.0
 30
0.0
 11
-51.0
 21
46.0
 31
0.0
  0
LINE
  5
12F
100
AcDbEntity
  8
0
  6
CONTINUOUS
 62
               7
100
AcDbLine
 10
-43.0
 20
54.0
 30
0.0
 11
-51.0
 21
46.0
 31
0.0
  0
LINE
  5
130
100
AcDbEntity
  8
0
  6
CONTINUOUS
 62
               7
100
AcDbLine
 10
16.449999999999989
 20
51.75
 30
0.0
 11
16.449999999999989
 21
44.25
 31
0.0
  0
LINE
  5
131
100
AcDbEntity
  8
0
  6
CONTINUOUS
 62
               7
100
AcDbLine
 10
16.449999999999989
 20
44.25
 30
0.0
 11
15.199999999999989
 21
44.25
 31
0.0
  0
LINE
  5
132
100
AcDbEntity
  8
0
  6
CONTINUOUS
 62
               7
100
AcDbLine
 10
16.449999999999989
 20
51.75
 30
0.0
 11
15.199999999999989
 21
51.75
 31
0.0
  0
LINE
  5
133
100
AcDbEntity
  8
0
  6
CONTINUOUS
 62
               7
100
AcDbLine
 10
10.0
 20
23.0
 30
0.0
 11
10.0
 21
1.0
 31
0.0
  0
LINE
  5
134
100
AcDbEntity
  8
0
  6
CONTINUOUS
 62
               7
100
AcDbLine
 10
11.0
 20
0.0
 30
0.0
 11
11.0
 21
46.0
 31
0.0
  0
LINE
  5
135
100
AcDbEntity
  8
0
  6
CONTINUOUS
 62
               7
100
AcDbLine
 10
3.0
 20
54.0
 30
0.0
 11
11.0
 21
46.0
 31
0.0
  0
ARC
  5
136
100
AcDbEntity
  8
0
  6
CONTINUOUS
 62
               7
100
AcDbCircle
 10
10.199999999999989
 20
48.0
 30
0.0
 40
3.0999999999999939
100
AcDbArc
 50
14.687528999999778
 51
150.88567499999948
  0
LINE
  5
137
100
AcDbEntity
  8
0
  6
CONTINUOUS
 62
               7
100
AcDbLine
 10
8.25
 20
48.75
 30
0.0
 11
14.637060000000019
 21
48.75
 31
0.0
  0
LINE
  5
138
100
AcDbEntity
  8
0
  6
CONTINUOUS
 62
               7
100
AcDbLine
 10
14.637060000000019
 20
47.25
 30
0.0
 11
9.75
 21
47.25
 31
0.0
  0
ARC
  5
139
100
AcDbEntity
  8
0
  6
CONTINUOUS
 62
               7
100
AcDbCircle
 10
10.199999999999989
 20
48.0
 30
0.0
 40
3.1000000000000063
100
AcDbArc
 50
284.95524799999896
 51
345.99919799999901
  0
ARC
  5
13A
100
AcDbEntity
  8
0
  6
CONTINUOUS
 62
               7
100
AcDbCircle
 10
10.199999999999989
 20
48.0
 30
0.0
 40
4.5000000000000018
100
AcDbArc
 50
280.2403479999993
 51
145.86886499999989
  0
ARC
  5
13B
100
AcDbEntity
  8
0
  6
CONTINUOUS
 62
               7
100
AcDbCircle
 10
10.199999999999989
 20
48.0
 30
0.0
 40
6.2500000000000027
100
AcDbArc
 50
277.35403499999961
 51
142.80282999999991
  0
LINE
  5
13C
100
AcDbEntity
  8
0
  6
CONTINUOUS
 62
               7
100
AcDbLine
 10
-43.0
 20
54.0
 30
0.0
 11
3.0
 21
54.0
 31
0.0
  0
LINE
  5
13D
100
AcDbEntity
  8
0
  6
CONTINUOUS
 62
               7
100
AcDbLine
 10
11.0
 20
23.0
 30
0.0
 11
-51.0
 21
23.0
 31
0.0
  0
LINE
  5
13E
100
AcDbEntity
  8
0
  6
CONTINUOUS
 62
               7
100
AcDbLine
 10
11.0
 20
1.0
 30
0.0
 11
-51.0
 21
1.0
 31
0.0
  0
LINE
  5
13F
100
AcDbEntity
  8
0
  6
CONTINUOUS
 62
               7
100
AcDbLine
 10
11.0
 20
0.0
 30
0.0
 11
-51.0
 21
0.0
 31
0.0
  0
LINE
  5
140
100
AcDbEntity
  8
0
  6
DASHED
 62
               7
100
AcDbLine
 10
-42.247000000000014
 20
0.0
 30
0.0
 11
-42.247000000000014
 21
1.0
 31
0.0
  0
LINE
  5
141
100
AcDbEntity
  8
0
  6
DASHED
 62
               7
100
AcDbLine
 10
-37.75
 20
0.0
 30
0.0
 11
-37.75
 21
1.0
 31
0.0
  0
LINE
  5
142
100
AcDbEntity
  8
0
  6
DASHED
 62
               7
100
AcDbLine
 10
-2.2470000000000141
 20
0.0
 30
0.0
 11
-2.2470000000000141
 21
1.0
 31
0.0
  0
LINE
  5
143
100
AcDbEntity
  8
0
  6
DASHED
 62
               7
100
AcDbLine
 10
2.25
 20
0.0
 30
0.0
 11
2.25
 21
1.0
 31
0.0
  0
LINE
  5
144
100
AcDbEntity
  8
0
  6
CONTINUOUS
 62
               7
100
AcDbLine
 10
-3.5
 20
24.033370999999988
 30
0.0
 11
-4.5
 21
24.033370999999988
 31
0.0
  0
CIRCLE
  5
145
100
AcDbEntity
  8
0
  6
CONTINUOUS
 62
               2
100
AcDbCircle
 10
-4.0
 20
39.0
 30
0.0
 40
12.0
  0
CIRCLE
  5
146
100
AcDbEntity
  8
0
  6
CONTINUOUS
 62
               7
100
AcDbCircle
 10
-4.0
 20
39.0
 30
0.0
 40
5.5
  0
CIRCLE
  5
147
100
AcDbEntity
  8
0
  6
CONTINUOUS
 62
               7
100
AcDbCircle
 10
-4.0
 20
39.0
 30
0.0
 40
4.0
  0
CIRCLE
  5
148
100
AcDbEntity
  8
0
  6
CONTINUOUS
 62
               7
100
AcDbCircle
 10
-4.0
 20
39.0
 30
0.0
 40
0.5
  0
CIRCLE
  5
149
100
AcDbEntity
  8
0
  6
CONTINUOUS
 62
               7
100
AcDbCircle
 10
-4.0
 20
48.0
 30
0.0
 40
1.0
  0
CIRCLE
  5
14A
100
AcDbEntity
  8
0
  6
CONTINUOUS
 62
               7
100
AcDbCircle
 10
-36.0
 20
39.0
 30
0.0
 40
11.5
  0
CIRCLE
  5
14B
100
AcDbEntity
  8
0
  6
CONTINUOUS
 62
               7
100
AcDbCircle
 10
-4.0
 20
39.0
 30
0.0
 40
11.5
  0
CIRCLE
  5
14C
100
AcDbEntity
  8
0
  6
CONTINUOUS
 62
               7
100
AcDbCircle
 10
-36.0
 20
39.0
 30
0.0
 40
12.5
  0
CIRCLE
  5
14D
100
AcDbEntity
  8
0
  6
CONTINUOUS
 62
               7
100
AcDbCircle
 10
-4.0
 20
39.0
 30
0.0
 40
12.5
  0
ARC
  5
14E
100
AcDbEntity
  8
0
  6
CONTINUOUS
 62
               7
100
AcDbCircle
 10
-36.0
 20
39.0
 30
0.0
 40
14.0
100
AcDbArc
 50
89.999999999999815
 51
179.99999999999963
  0
ARC
  5
14F
100
AcDbEntity
  8
0
  6
CONTINUOUS
 62
               7
100
AcDbCircle
 10
-4.0
 20
39.0
 30
0.0
 40
14.0
100
AcDbArc
 50
0.0
 51
89.999999999999815
  0
LINE
  5
150
100
AcDbEntity
  8
0
  6
CONTINUOUS
 62
               7
100
AcDbLine
 10
-36.0
 20
53.0
 30
0.0
 11
-4.0
 21
53.0
 31
0.0
  0
LINE
  5
151
100
AcDbEntity
  8
0
  6
CONTINUOUS
 62
               7
100
AcDbLine
 10
-50.0
 20
39.0
 30
0.0
 11
-50.0
 21
25.0
 31
0.0
  0
LINE
  5
152
100
AcDbEntity
  8
0
  6
CONTINUOUS
 62
               7
100
AcDbLine
 10
-50.0
 20
25.0
 30
0.0
 11
10.0
 21
25.0
 31
0.0
  0
LINE
  5
153
100
AcDbEntity
  8
0
  6
CONTINUOUS
 62
               7
100
AcDbLine
 10
10.0
 20
25.0
 30
0.0
 11
10.0
 21
39.0
 31
0.0
  0
LINE
  5
154
100
AcDbEntity
  8
0
  6
CONTINUOUS
 62
               7
100
AcDbLine
 10
-4.5
 20
23.0
 30
0.0
 11
-4.5
 21
25.0
 31
0.0
  0
LINE
  5
155
100
AcDbEntity
  8
0
  6
CONTINUOUS
 62
               7
100
AcDbLine
 10
-3.5
 20
25.0
 30
0.0
 11
-3.5
 21
23.0
 31
0.0
  0
LINE
  5
156
100
AcDbEntity
  8
0
  6
CENTER
 62
               2
100
AcDbLine
 10
-4.0
 20
21.714667111413064
 30
0.0
 11
-4.0
 21
56.603694241590063
 31
0.0
  0
LINE
  5
157
100
AcDbEntity
  8
0
  6
CENTER
 62
               2
100
AcDbLine
 10
0.0
 20
-2.2048842398436364
 30
0.0
 11
0.0
 21
3.5845613101420497
 31
0.0
  0
LINE
  5
158
100
AcDbEntity
  8
0
  6
CENTER
 62
               2
100
AcDbLine
 10
-40.0
 20
-2.5095919003692302
 30
0.0
 11
-40.0
 21
3.7369151404048466
 31
0.0
  0
LINE
  5
159
100
AcDbEntity
  8
0
  6
CENTER
 62
               2
100
AcDbLine
 10
-6.6292409455443817
 20
48.0
 30
0.0
 11
-1.2968568863470296
 21
48.0
 31
0.0
  0
LINE
  5
15A
100
AcDbEntity
  8
0
  6
CENTER
 62
               2
100
AcDbLine
 10
-54.008185000000026
 20
20.0
 30
0.0
 11
-48.453315135544571
 21
20.0
 31
0.0
  0
LINE
  5
15B
100
AcDbEntity
  8
0
  6
CENTER
 62
               2
100
AcDbLine
 10
-36.0
 20
21.562313281150296
 30
0.0
 11
-36.0
 21
56.146632750801729
 31
0.0
  0
ENDBLK
  5
15C
100
AcDbEntity
  8
0
100
AcDbBlockEnd
  0
BLOCK
  5
15D
100
AcDbEntity
  8
0
100
AcDbBlockBegin
  2
DTRY-ELB-4
 70
               0
 10
0.0
 20
0.0
 30
0.0
  3
DTRY-ELB-4
  1

  0
ARC
  5
15E
100
AcDbEntity
  8
0
  6
CONTINUOUS
 62
               7
100
AcDbCircle
 10
0.0
 20
-40.0
 30
0.0
 40
2.249999999999988
100
AcDbArc
 50
116.38779996124292
 51
0.0
  0
LINE
  5
15F
100
AcDbEntity
  8
0
  6
CENTER
 62
               2
100
AcDbLine
 10
-1.5573373897747445
 20
-35.999999500000001
 30
0.0
 11
11.974989355079288
 21
-35.999999500000001
 31
0.0
  0
LINE
  5
160
100
AcDbEntity
  8
0
  6
CENTER
 62
               2
100
AcDbLine
 10
72.067944495547096
 20
-36.0
 30
0.0
 11
83.318108201495761
 21
-36.0
 31
0.0
  0
LINE
  5
161
100
AcDbEntity
  8
0
  6
CENTER
 62
               2
100
AcDbLine
 10
71.93480646369585
 20
-4.0
 30
0.0
 11
83.650953293315524
 21
-4.0
 31
0.0
  0
LINE
  5
162
100
AcDbEntity
  8
0
  6
CONTINUOUS
 62
               7
100
AcDbLine
 10
79.0
 20
-51.0
 30
0.0
 11
74.0
 21
-51.0
 31
0.0
  0
LINE
  5
163
100
AcDbEntity
  8
0
  6
CONTINUOUS
 62
               7
100
AcDbLine
 10
74.0
 20
-51.0
 30
0.0
 11
41.0
 21
-51.0
 31
0.0
  0
ARC
  5
164
100
AcDbEntity
  8
0
  6
CONTINUOUS
 62
               7
100
AcDbCircle
 10
23.5
 20
-48.0
 30
0.0
 40
1.3846479999999894
100
AcDbArc
 50
260.00000299999965
 51
280.00000199999903
  0
LINE
  5
165
100
AcDbEntity
  8
0
  6
CONTINUOUS
 62
               7
100
AcDbLine
 10
23.259557999999998
 20
-48.640442000000007
 30
0.0
 11
23.259557999999998
 21
-49.363611999999989
 31
0.0
  0
LINE
  5
166
100
AcDbEntity
  8
0
  6
CONTINUOUS
 62
               7
100
AcDbLine
 10
23.740440999999976
 20
-49.363611999999989
 30
0.0
 11
23.740440999999976
 21
-48.640442000000007
 31
0.0
  0
ARC
  5
167
100
AcDbEntity
  8
0
  6
CONTINUOUS
 62
               7
100
AcDbCircle
 10
24.140440999999981
 20
-48.640442000000007
 30
0.0
 40
0.4000000000000057
100
AcDbArc
 50
89.999999999999815
 51
179.99999999999963
  0
LINE
  5
168
100
AcDbEntity
  8
0
  6
CONTINUOUS
 62
               7
100
AcDbLine
 10
-0.5
 20
-32.0
 30
0.0
 11
-0.5
 21
-40.0
 31
0.0
  0
LINE
  5
169
100
AcDbEntity
  8
0
  6
CONTINUOUS
 62
               7
100
AcDbLine
 10
-1.0
 20
-39.5
 30
0.0
 11
-0.5
 21
-40.0
 31
0.0
  0
LINE
  5
16A
100
AcDbEntity
  8
0
  6
CONTINUOUS
 62
               7
100
AcDbLine
 10
-0.5
 20
-32.0
 30
0.0
 11
-1.0
 21
-32.5
 31
0.0
  0
LINE
  5
16B
100
AcDbEntity
  8
0
  6
CONTINUOUS
 62
               7
100
AcDbLine
 10
5.0
 20
-38.180350000000004
 30
0.0
 11
6.0
 21
-38.180350000000004
 31
0.0
  0
LINE
  5
16C
100
AcDbEntity
  8
0
  6
CONTINUOUS
 62
               7
100
AcDbLine
 10
5.0
 20
-33.819648999999998
 30
0.0
 11
6.0
 21
-33.819648999999998
 31
0.0
  0
LINE
  5
16D
100
AcDbEntity
  8
0
  6
CONTINUOUS
 62
               7
100
AcDbLine
 10
3.0
 20
-38.554326000000003
 30
0.0
 11
4.0
 21
-38.554326000000003
 31
0.0
  0
LINE
  5
16E
100
AcDbEntity
  8
0
  6
CONTINUOUS
 62
               7
100
AcDbLine
 10
3.0
 20
-33.445672999999999
 30
0.0
 11
4.0
 21
-33.445672999999999
 31
0.0
  0
LINE
  5
16F
100
AcDbEntity
  8
0
  6
CONTINUOUS
 62
               7
100
AcDbLine
 10
-1.0
 20
-39.5
 30
0.0
 11
-1.0
 21
-32.5
 31
0.0
  0
LINE
  5
170
100
AcDbEntity
  8
0
  6
CONTINUOUS
 62
               7
100
AcDbLine
 10
3.0
 20
-40.0
 30
0.0
 11
3.0
 21
-32.0
 31
0.0
  0
LINE
  5
171
100
AcDbEntity
  8
0
  6
CONTINUOUS
 62
               7
100
AcDbLine
 10
4.0
 20
-39.5
 30
0.0
 11
4.0
 21
-32.5
 31
0.0
  0
LINE
  5
172
100
AcDbEntity
  8
0
  6
CONTINUOUS
 62
               7
100
AcDbLine
 10
5.0
 20
-39.5
 30
0.0
 11
5.0
 21
-32.5
 31
0.0
  0
LINE
  5
173
100
AcDbEntity
  8
0
  6
CONTINUOUS
 62
               7
100
AcDbLine
 10
4.0
 20
-39.5
 30
0.0
 11
5.0
 21
-39.5
 31
0.0
  0
LINE
  5
174
100
AcDbEntity
  8
0
  6
CONTINUOUS
 62
               7
100
AcDbLine
 10
4.0
 20
-32.5
 30
0.0
 11
5.0
 21
-32.5
 31
0.0
  0
LINE
  5
175
100
AcDbEntity
  8
0
  6
CONTINUOUS
 62
               7
100
AcDbLine
 10
-0.5
 20
-40.0
 30
0.0
 11
3.0
 21
-40.0
 31
0.0
  0
LINE
  5
176
100
AcDbEntity
  8
0
  6
CONTINUOUS
 62
               7
100
AcDbLine
 10
-0.5
 20
-32.0
 30
0.0
 11
3.0
 21
-32.0
 31
0.0
  0
LINE
  5
177
100
AcDbEntity
  8
0
  6
CONTINUOUS
 62
               7
100
AcDbLine
 10
6.0
 20
-33.5
 30
0.0
 11
11.0
 21
-33.5
 31
0.0
  0
LINE
  5
178
100
AcDbEntity
  8
0
  6
CONTINUOUS
 62
               7
100
AcDbLine
 10
11.0
 20
-33.5
 30
0.0
 11
11.0
 21
-38.5
 31
0.0
  0
LINE
  5
179
100
AcDbEntity
  8
0
  6
CONTINUOUS
 62
               7
100
AcDbLine
 10
11.0
 20
-38.5
 30
0.0
 11
6.0
 21
-38.5
 31
0.0
  0
LINE
  5
17A
100
AcDbEntity
  8
0
  6
CONTINUOUS
 62
               7
100
AcDbLine
 10
6.0
 20
-37.5
 30
0.0
 11
9.1808549999999798
 21
-37.5
 31
0.0
  0
LINE
  5
17B
100
AcDbEntity
  8
0
  6
CONTINUOUS
 62
               7
100
AcDbLine
 10
9.1808549999999798
 20
-37.5
 30
0.0
 11
9.1808549999999798
 21
-34.5
 31
0.0
  0
LINE
  5
17C
100
AcDbEntity
  8
0
  6
CONTINUOUS
 62
               7
100
AcDbLine
 10
9.1808549999999798
 20
-34.5
 30
0.0
 11
6.0
 21
-34.5
 31
0.0
  0
LINE
  5
17D
100
AcDbEntity
  8
0
  6
CONTINUOUS
 62
               7
100
AcDbLine
 10
8.0342349999999954
 20
-34.5
 30
0.0
 11
8.0342349999999954
 21
-37.5
 31
0.0
  0
LINE
  5
17E
100
AcDbEntity
  8
0
  6
CONTINUOUS
 62
               7
100
AcDbLine
 10
6.0
 20
-51.0
 30
0.0
 11
-5.0
 21
-51.0
 31
0.0
  0
ARC
  5
17F
100
AcDbEntity
  8
0
  6
CONTINUOUS
 62
               7
100
AcDbCircle
 10
-5.0
 20
-50.0
 30
0.0
 40
1.0
100
AcDbArc
 50
179.99999999999963
 51
269.99999999999937
  0
LINE
  5
180
100
AcDbEntity
  8
0
  6
CONTINUOUS
 62
               7
100
AcDbLine
 10
85.0
 20
-51.0
 30
0.0
 11
79.0
 21
-51.0
 31
0.0
  0
ARC
  5
181
100
AcDbEntity
  8
0
  6
CONTINUOUS
 62
               7
100
AcDbCircle
 10
85.0
 20
-50.0
 30
0.0
 40
1.0
100
AcDbArc
 50
269.99999999999937
 51
0.0
  0
LINE
  5
182
100
AcDbEntity
  8
0
  6
CONTINUOUS
 62
               7
100
AcDbLine
 10
74.0
 20
-35.5
 30
0.0
 11
79.0
 21
-35.5
 31
0.0
  0
LINE
  5
183
100
AcDbEntity
  8
0
  6
CONTINUOUS
 62
               7
100
AcDbLine
 10
79.0
 20
-35.5
 30
0.0
 11
82.0
 21
-36.0
 31
0.0
  0
LINE
  5
184
100
AcDbEntity
  8
0
  6
CONTINUOUS
 62
               7
100
AcDbLine
 10
82.0
 20
-36.0
 30
0.0
 11
79.0
 21
-36.5
 31
0.0
  0
LINE
  5
185
100
AcDbEntity
  8
0
  6
CONTINUOUS
 62
               7
100
AcDbLine
 10
79.0
 20
-36.5
 30
0.0
 11
74.0
 21
-36.5
 31
0.0
  0
LINE
  5
186
100
AcDbEntity
  8
0
  6
CONTINUOUS
 62
               7
100
AcDbLine
 10
74.0
 20
-43.0
 30
0.0
 11
41.0
 21
-43.0
 31
0.0
  0
LINE
  5
187
100
AcDbEntity
  8
0
  6
CONTINUOUS
 62
               7
100
AcDbLine
 10
79.0
 20
11.0
 30
0.0
 11
74.0
 21
11.0
 31
0.0
  0
LINE
  5
188
100
AcDbEntity
  8
0
  6
CONTINUOUS
 62
               7
100
AcDbLine
 10
-5.0
 20
11.0
 30
0.0
 11
6.0
 21
11.0
 31
0.0
  0
ARC
  5
189
100
AcDbEntity
  8
0
  6
CONTINUOUS
 62
               7
100
AcDbCircle
 10
-5.0
 20
10.0
 30
0.0
 40
1.0
100
AcDbArc
 50
89.999999999999815
 51
179.99999999999963
  0
LINE
  5
18A
100
AcDbEntity
  8
0
  6
CONTINUOUS
 62
               7
100
AcDbLine
 10
79.0
 20
11.0
 30
0.0
 11
85.0
 21
11.0
 31
0.0
  0
ARC
  5
18B
100
AcDbEntity
  8
0
  6
CONTINUOUS
 62
               7
100
AcDbCircle
 10
85.0
 20
10.0
 30
0.0
 40
1.0
100
AcDbArc
 50
0.0
 51
89.999999999999815
  0
LINE
  5
18C
100
AcDbEntity
  8
0
  6
CONTINUOUS
 62
               7
100
AcDbLine
 10
74.0
 20
11.0
 30
0.0
 11
74.0
 21
-51.0
 31
0.0
  0
LINE
  5
18D
100
AcDbEntity
  8
0
  6
CONTINUOUS
 62
               7
100
AcDbLine
 10
6.0
 20
-51.0
 30
0.0
 11
6.0
 21
11.0
 31
0.0
  0
LINE
  5
18E
100
AcDbEntity
  8
0
  6
CONTINUOUS
 62
               7
100
AcDbLine
 10
-6.0
 20
-50.0
 30
0.0
 11
-6.0
 21
10.0
 31
0.0
  0
LINE
  5
18F
100
AcDbEntity
  8
0
  6
CONTINUOUS
 62
               7
100
AcDbLine
 10
86.0
 20
10.0
 30
0.0
 11
86.0
 21
-50.0
 31
0.0
  0
LINE
  5
190
100
AcDbEntity
  8
0
  6
CONTINUOUS
 62
               7
100
AcDbLine
 10
24.431016
 20
-39.0
 30
0.0
 11
24.431016
 21
-49.0
 31
0.0
  0
LINE
  5
191
100
AcDbEntity
  8
0
  6
CONTINUOUS
 62
               7
100
AcDbLine
 10
24.877615999999989
 20
-49.773509999999987
 30
0.0
 11
28.431016
 21
-49.773509999999987
 31
0.0
  0
LINE
  5
192
100
AcDbEntity
  8
0
  6
CONTINUOUS
 62
               7
100
AcDbLine
 10
24.877615999999989
 20
-38.226490000000013
 30
0.0
 11
28.431016
 21
-38.226490000000013
 31
0.0
  0
LINE
  5
193
100
AcDbEntity
  8
0
  6
CONTINUOUS
 62
               7
100
AcDbLine
 10
24.877615999999989
 20
-41.11323999999999
 30
0.0
 11
28.431016
 21
-41.11323999999999
 31
0.0
  0
LINE
  5
194
100
AcDbEntity
  8
0
  6
CONTINUOUS
 62
               7
100
AcDbLine
 10
24.877615999999989
 20
-46.886750000000006
 30
0.0
 11
28.431016
 21
-46.886750000000006
 31
0.0
  0
LINE
  5
195
100
AcDbEntity
  8
0
  6
CONTINUOUS
 62
               7
100
AcDbLine
 10
24.431016
 20
-49.000010000000003
 30
0.0
 11
24.877615999999989
 21
-49.773509999999987
 31
0.0
  0
LINE
  5
196
100
AcDbEntity
  8
0
  6
CONTINUOUS
 62
               7
100
AcDbLine
 10
24.431016
 20
-38.999989999999997
 30
0.0
 11
24.877615999999989
 21
-38.226490000000013
 31
0.0
  0
LINE
  5
197
100
AcDbEntity
  8
0
  6
CONTINUOUS
 62
               7
100
AcDbLine
 10
23.331015999999977
 20
-39.5
 30
0.0
 11
23.331015999999977
 21
-48.5
 31
0.0
  0
LINE
  5
198
100
AcDbEntity
  8
0
  6
CONTINUOUS
 62
               7
100
AcDbLine
 10
19.831015999999977
 20
-39.5
 30
0.0
 11
19.831015999999977
 21
-48.5
 31
0.0
  0
LINE
  5
199
100
AcDbEntity
  8
0
  6
CONTINUOUS
 62
               7
100
AcDbLine
 10
20.331015999999977
 20
-49.0
 30
0.0
 11
22.831015999999977
 21
-49.0
 31
0.0
  0
LINE
  5
19A
100
AcDbEntity
  8
0
  6
CONTINUOUS
 62
               7
100
AcDbLine
 10
20.331015999999977
 20
-39.0
 30
0.0
 11
22.831015999999977
 21
-39.0
 31
0.0
  0
LINE
  5
19B
100
AcDbEntity
  8
0
  6
CONTINUOUS
 62
               7
100
AcDbLine
 10
20.331015999999977
 20
-49.0
 30
0.0
 11
19.831015999999977
 21
-48.5
 31
0.0
  0
LINE
  5
19C
100
AcDbEntity
  8
0
  6
CONTINUOUS
 62
               7
100
AcDbLine
 10
19.831015999999977
 20
-39.5
 30
0.0
 11
20.331015999999977
 21
-39.0
 31
0.0
  0
LINE
  5
19D
100
AcDbEntity
  8
0
  6
CONTINUOUS
 62
               7
100
AcDbLine
 10
22.831015999999977
 20
-39.0
 30
0.0
 11
23.331015999999977
 21
-39.5
 31
0.0
  0
LINE
  5
19E
100
AcDbEntity
  8
0
  6
CONTINUOUS
 62
               7
100
AcDbLine
 10
23.331015999999977
 20
-48.500010000000003
 30
0.0
 11
22.831015999999977
 21
-49.000010000000003
 31
0.0
  0
LINE
  5
19F
100
AcDbEntity
  8
0
  6
CONTINUOUS
 62
               7
100
AcDbLine
 10
20.331015999999977
 20
-39.0
 30
0.0
 11
20.331015999999977
 21
-49.0
 31
0.0
  0
LINE
  5
1A0
100
AcDbEntity
  8
0
  6
CONTINUOUS
 62
               7
100
AcDbLine
 10
22.831015999999977
 20
-39.0
 30
0.0
 11
22.831015999999977
 21
-49.0
 31
0.0
  0
LINE
  5
1A1
100
AcDbEntity
  8
0
  6
CONTINUOUS
 62
               7
100
AcDbLine
 10
23.331015999999977
 20
-48.0
 30
0.0
 11
24.431016
 21
-48.0
 31
0.0
  0
LINE
  5
1A2
100
AcDbEntity
  8
0
  6
CONTINUOUS
 62
               7
100
AcDbLine
 10
23.331015999999977
 20
-40.0
 30
0.0
 11
24.431016
 21
-40.0
 31
0.0
  0
ARC
  5
1A3
100
AcDbEntity
  8
0
  6
CONTINUOUS
 62
               7
100
AcDbCircle
 10
26.484515999999985
 20
-48.330119999999994
 30
0.0
 40
2.159919999999985
100
AcDbArc
 50
138.06769999999977
 51
161.93259999999964
  0
ARC
  5
1A4
100
AcDbEntity
  8
0
  6
CONTINUOUS
 62
               7
100
AcDbCircle
 10
26.484515999999985
 20
-39.669880000000006
 30
0.0
 40
2.1599200000000147
100
AcDbArc
 50
198.06739999999957
 51
221.93232999999958
  0
ARC
  5
1A5
100
AcDbEntity
  8
0
  6
CONTINUOUS
 62
               7
100
AcDbCircle
 10
33.984515999999985
 20
-44.0
 30
0.0
 40
9.553419999999992
100
AcDbArc
 50
162.41199999999952
 51
197.58793999999958
  0
LINE
  5
1A6
100
AcDbEntity
  8
0
  6
CONTINUOUS
 62
               7
100
AcDbLine
 10
40.431016
 20
-49.013990000000007
 30
0.0
 11
41.0
 21
-48.996209999999991
 31
0.0
  0
LINE
  5
1A7
100
AcDbEntity
  8
0
  6
CONTINUOUS
 62
               7
100
AcDbLine
 10
40.431016
 20
-38.98599999999999
 30
0.0
 11
41.0
 21
-39.003781000000004
 31
0.0
  0
LINE
  5
1A8
100
AcDbEntity
  8
0
  6
CONTINUOUS
 62
               7
100
AcDbLine
 10
40.431016
 20
-39.567000000000007
 30
0.0
 11
41.0
 21
-39.584780999999992
 31
0.0
  0
LINE
  5
1A9
100
AcDbEntity
  8
0
  6
CONTINUOUS
 62
               7
100
AcDbLine
 10
40.431016
 20
-48.432999999999993
 30
0.0
 11
41.0
 21
-48.415219000000008
 31
0.0
  0
LINE
  5
1AA
100
AcDbEntity
  8
0
  6
CONTINUOUS
 62
               7
100
AcDbLine
 10
11.831015999999977
 20
-40.5
 30
0.0
 11
11.831015999999977
 21
-47.500010000000003
 31
0.0
  0
LINE
  5
1AB
100
AcDbEntity
  8
0
  6
CONTINUOUS
 62
               7
100
AcDbLine
 10
15.831015999999977
 20
-40.5
 30
0.0
 11
15.831015999999977
 21
-47.5
 31
0.0
  0
LINE
  5
1AC
100
AcDbEntity
  8
0
  6
CONTINUOUS
 62
               7
100
AcDbLine
 10
12.331015999999977
 20
-40.0
 30
0.0
 11
15.331015999999977
 21
-40.0
 31
0.0
  0
LINE
  5
1AD
100
AcDbEntity
  8
0
  6
CONTINUOUS
 62
               7
100
AcDbLine
 10
12.331015999999977
 20
-48.0
 30
0.0
 11
15.331015999999977
 21
-48.0
 31
0.0
  0
LINE
  5
1AE
100
AcDbEntity
  8
0
  6
CONTINUOUS
 62
               7
100
AcDbLine
 10
12.331015999999977
 20
-48.000010000000003
 30
0.0
 11
11.831015999999977
 21
-47.500010000000003
 31
0.0
  0
LINE
  5
1AF
100
AcDbEntity
  8
0
  6
CONTINUOUS
 62
               7
100
AcDbLine
 10
11.831015999999977
 20
-40.500010000000003
 30
0.0
 11
12.331015999999977
 21
-40.000010000000003
 31
0.0
  0
LINE
  5
1B0
100
AcDbEntity
  8
0
  6
CONTINUOUS
 62
               7
100
AcDbLine
 10
15.33111599999998
 20
-40.000010000000003
 30
0.0
 11
15.83111599999998
 21
-40.500010000000003
 31
0.0
  0
LINE
  5
1B1
100
AcDbEntity
  8
0
  6
CONTINUOUS
 62
               7
100
AcDbLine
 10
15.831015999999977
 20
-47.5
 30
0.0
 11
15.331015999999977
 21
-48.0
 31
0.0
  0
LINE
  5
1B2
100
AcDbEntity
  8
0
  6
CONTINUOUS
 62
               7
100
AcDbLine
 10
12.331015999999977
 20
-40.0
 30
0.0
 11
12.331015999999977
 21
-48.0
 31
0.0
  0
LINE
  5
1B3
100
AcDbEntity
  8
0
  6
CONTINUOUS
 62
               7
100
AcDbLine
 10
15.331015999999977
 20
-40.0
 30
0.0
 11
15.331015999999977
 21
-48.0
 31
0.0
  0
LINE
  5
1B4
100
AcDbEntity
  8
0
  6
CONTINUOUS
 62
               7
100
AcDbLine
 10
15.831015999999977
 20
-46.5
 30
0.0
 11
19.831015999999977
 21
-46.5
 31
0.0
  0
LINE
  5
1B5
100
AcDbEntity
  8
0
  6
CONTINUOUS
 62
               7
100
AcDbLine
 10
15.831015999999977
 20
-46.067000000000007
 30
0.0
 11
19.831015999999977
 21
-46.067000000000007
 31
0.0
  0
LINE
  5
1B6
100
AcDbEntity
  8
0
  6
CONTINUOUS
 62
               7
100
AcDbLine
 10
15.831015999999977
 20
-41.932999999999993
 30
0.0
 11
19.831015999999977
 21
-41.932999999999993
 31
0.0
  0
LINE
  5
1B7
100
AcDbEntity
  8
0
  6
CONTINUOUS
 62
               7
100
AcDbLine
 10
15.831015999999977
 20
-41.5
 30
0.0
 11
19.831015999999977
 21
-41.5
 31
0.0
  0
ARC
  5
1B8
100
AcDbEntity
  8
0
  6
CONTINUOUS
 62
               7
100
AcDbCircle
 10
23.5
 20
7.9999990000000025
 30
0.0
 40
1.3846480000000074
100
AcDbArc
 50
79.999998000000176
 51
99.999996999999496
  0
LINE
  5
1B9
100
AcDbEntity
  8
0
  6
CONTINUOUS
 62
               7
100
AcDbLine
 10
23.259557999999998
 20
8.6404420000000073
 30
0.0
 11
23.259557999999998
 21
9.3636109999999917
 31
0.0
  0
LINE
  5
1BA
100
AcDbEntity
  8
0
  6
CONTINUOUS
 62
               7
100
AcDbLine
 10
23.740440999999976
 20
9.3636119999999892
 30
0.0
 11
23.740440999999976
 21
8.6404420000000073
 31
0.0
  0
ARC
  5
1BB
100
AcDbEntity
  8
0
  6
CONTINUOUS
 62
               7
100
AcDbCircle
 10
24.140440999999981
 20
8.6404420000000073
 30
0.0
 40
0.4000000000000057
100
AcDbArc
 50
179.99999999999963
 51
269.99999999999937
  0
LINE
  5
1BC
100
AcDbEntity
  8
0
  6
CONTINUOUS
 62
               7
100
AcDbLine
 10
74.0
 20
3.0
 30
0.0
 11
41.0
 21
3.0
 31
0.0
  0
LINE
  5
1BD
100
AcDbEntity
  8
0
  6
CONTINUOUS
 62
               7
100
AcDbLine
 10
29.631015999999988
 20
-3.1999999999999886
 30
0.0
 11
39.231015999999983
 21
-3.1999999999999886
 31
0.0
  0
LINE
  5
1BE
100
AcDbEntity
  8
0
  6
CONTINUOUS
 62
               7
100
AcDbLine
 10
39.231015999999983
 20
-3.1999999999999886
 30
0.0
 11
39.231015999999983
 21
11.199999999999989
 31
0.0
  0
LINE
  5
1BF
100
AcDbEntity
  8
0
  6
CONTINUOUS
 62
               7
100
AcDbLine
 10
29.631015999999988
 20
-3.1999999999999886
 30
0.0
 11
29.631015999999988
 21
11.199999999999989
 31
0.0
  0
LINE
  5
1C0
100
AcDbEntity
  8
0
  6
CONTINUOUS
 62
               7
100
AcDbLine
 10
29.631015999999988
 20
11.199999999999989
 30
0.0
 11
28.431016
 21
10.507180000000005
 31
0.0
  0
LINE
  5
1C1
100
AcDbEntity
  8
0
  6
CONTINUOUS
 62
               7
100
AcDbLine
 10
39.231015999999983
 20
-3.2000099999999918
 30
0.0
 11
40.431016
 21
-2.5071900000000085
 31
0.0
  0
LINE
  5
1C2
100
AcDbEntity
  8
0
  6
CONTINUOUS
 62
               7
100
AcDbLine
 10
29.631115999999992
 20
-3.1999999999999886
 30
0.0
 11
28.431016
 21
-2.5071800000000053
 31
0.0
  0
LINE
  5
1C3
100
AcDbEntity
  8
0
  6
CONTINUOUS
 62
               7
100
AcDbLine
 10
39.231015999999983
 20
11.199999999999989
 30
0.0
 11
40.431016
 21
10.507180000000005
 31
0.0
  0
LINE
  5
1C4
100
AcDbEntity
  8
0
  6
CONTINUOUS
 62
               7
100
AcDbLine
 10
24.431016
 20
-1.0
 30
0.0
 11
24.431016
 21
9.0
 31
0.0
  0
LINE
  5
1C5
100
AcDbEntity
  8
0
  6
CONTINUOUS
 62
               7
100
AcDbLine
 10
24.877615999999989
 20
9.7735099999999875
 30
0.0
 11
28.431016
 21
9.7735099999999875
 31
0.0
  0
LINE
  5
1C6
100
AcDbEntity
  8
0
  6
CONTINUOUS
 62
               7
100
AcDbLine
 10
24.877615999999989
 20
-1.7735099999999875
 30
0.0
 11
28.431016
 21
-1.7735099999999875
 31
0.0
  0
LINE
  5
1C7
100
AcDbEntity
  8
0
  6
CONTINUOUS
 62
               7
100
AcDbLine
 10
24.877615999999989
 20
1.1132399999999905
 30
0.0
 11
28.431016
 21
1.1132399999999905
 31
0.0
  0
LINE
  5
1C8
100
AcDbEntity
  8
0
  6
CONTINUOUS
 62
               7
100
AcDbLine
 10
24.877615999999989
 20
6.8867500000000064
 30
0.0
 11
28.431016
 21
6.8867500000000064
 31
0.0
  0
LINE
  5
1C9
100
AcDbEntity
  8
0
  6
CONTINUOUS
 62
               7
100
AcDbLine
 10
24.431016
 20
9.0000100000000032
 30
0.0
 11
24.877615999999989
 21
9.7735099999999875
 31
0.0
  0
LINE
  5
1CA
100
AcDbEntity
  8
0
  6
CONTINUOUS
 62
               7
100
AcDbLine
 10
24.431016
 20
-1.0000100000000032
 30
0.0
 11
24.877615999999989
 21
-1.7735099999999875
 31
0.0
  0
LINE
  5
1CB
100
AcDbEntity
  8
0
  6
CONTINUOUS
 62
               7
100
AcDbLine
 10
23.331015999999977
 20
-0.5
 30
0.0
 11
23.331015999999977
 21
8.5
 31
0.0
  0
LINE
  5
1CC
100
AcDbEntity
  8
0
  6
CONTINUOUS
 62
               7
100
AcDbLine
 10
19.831015999999977
 20
-0.5
 30
0.0
 11
19.831015999999977
 21
8.5
 31
0.0
  0
LINE
  5
1CD
100
AcDbEntity
  8
0
  6
CONTINUOUS
 62
               7
100
AcDbLine
 10
20.331015999999977
 20
9.0
 30
0.0
 11
22.831015999999977
 21
9.0
 31
0.0
  0
LINE
  5
1CE
100
AcDbEntity
  8
0
  6
CONTINUOUS
 62
               7
100
AcDbLine
 10
20.331015999999977
 20
-1.0
 30
0.0
 11
22.831015999999977
 21
-1.0
 31
0.0
  0
LINE
  5
1CF
100
AcDbEntity
  8
0
  6
CONTINUOUS
 62
               7
100
AcDbLine
 10
20.331015999999977
 20
9.0
 30
0.0
 11
19.831015999999977
 21
8.5
 31
0.0
  0
LINE
  5
1D0
100
AcDbEntity
  8
0
  6
CONTINUOUS
 62
               7
100
AcDbLine
 10
19.831015999999977
 20
-0.5
 30
0.0
 11
20.331015999999977
 21
-1.0
 31
0.0
  0
LINE
  5
1D1
100
AcDbEntity
  8
0
  6
CONTINUOUS
 62
               7
100
AcDbLine
 10
22.831015999999977
 20
-1.0
 30
0.0
 11
23.331015999999977
 21
-0.5
 31
0.0
  0
LINE
  5
1D2
100
AcDbEntity
  8
0
  6
CONTINUOUS
 62
               7
100
AcDbLine
 10
23.331015999999977
 20
8.5000100000000032
 30
0.0
 11
22.831015999999977
 21
9.0000100000000032
 31
0.0
  0
LINE
  5
1D3
100
AcDbEntity
  8
0
  6
CONTINUOUS
 62
               7
100
AcDbLine
 10
20.331015999999977
 20
-1.0
 30
0.0
 11
20.331015999999977
 21
9.0
 31
0.0
  0
LINE
  5
1D4
100
AcDbEntity
  8
0
  6
CONTINUOUS
 62
               7
100
AcDbLine
 10
22.831015999999977
 20
-1.0
 30
0.0
 11
22.831015999999977
 21
9.0
 31
0.0
  0
LINE
  5
1D5
100
AcDbEntity
  8
0
  6
CONTINUOUS
 62
               7
100
AcDbLine
 10
23.331015999999977
 20
8.0
 30
0.0
 11
24.431016
 21
8.0
 31
0.0
  0
LINE
  5
1D6
100
AcDbEntity
  8
0
  6
CONTINUOUS
 62
               7
100
AcDbLine
 10
23.331015999999977
 20
0.0
 30
0.0
 11
24.431016
 21
0.0
 31
0.0
  0
LINE
  5
1D7
100
AcDbEntity
  8
0
  6
CONTINUOUS
 62
               7
100
AcDbLine
 10
39.231015999999983
 20
11.199999999999989
 30
0.0
 11
37.981015999999983
 21
11.199999999999989
 31
0.0
  0
LINE
  5
1D8
100
AcDbEntity
  8
0
  6
CONTINUOUS
 62
               7
100
AcDbLine
 10
29.631015999999988
 20
11.199999999999989
 30
0.0
 11
30.481015999999983
 21
11.199999999999989
 31
0.0
  0
LINE
  5
1D9
100
AcDbEntity
  8
0
  6
CONTINUOUS
 62
               7
100
AcDbLine
 10
40.431016
 20
-2.5071800000000053
 30
0.0
 11
40.431016
 21
22.950000000000017
 31
0.0
  0
LINE
  5
1DA
100
AcDbEntity
  8
0
  6
CONTINUOUS
 62
               7
100
AcDbLine
 10
28.431016
 20
-2.5071800000000053
 30
0.0
 11
28.431016
 21
11.949999999999989
 31
0.0
  0
LINE
  5
1DB
100
AcDbEntity
  8
0
  6
CONTINUOUS
 62
               7
100
AcDbLine
 10
37.981015999999983
 20
11.199999999999989
 30
0.0
 11
37.981015999999983
 21
24.450000000000017
 31
0.0
  0
LINE
  5
1DC
100
AcDbEntity
  8
0
  6
CONTINUOUS
 62
               7
100
AcDbLine
 10
14.231015999999983
 20
12.300000000000011
 30
0.0
 11
14.231015999999983
 21
24.100010000000026
 31
0.0
  0
LINE
  5
1DD
100
AcDbEntity
  8
0
  6
CONTINUOUS
 62
               7
100
AcDbLine
 10
16.031015999999994
 20
24.100010000000026
 30
0.0
 11
14.231015999999983
 21
24.100010000000026
 31
0.0
  0
LINE
  5
1DE
100
AcDbEntity
  8
0
  6
CONTINUOUS
 62
               7
100
AcDbLine
 10
16.031015999999994
 20
12.300000000000011
 30
0.0
 11
14.231015999999983
 21
12.300000000000011
 31
0.0
  0
LINE
  5
1DF
100
AcDbEntity
  8
0
  6
CONTINUOUS
 62
               7
100
AcDbLine
 10
16.031015999999994
 20
12.300000000000011
 30
0.0
 11
16.031015999999994
 21
24.100010000000026
 31
0.0
  0
LINE
  5
1E0
100
AcDbEntity
  8
0
  6
CONTINUOUS
 62
               7
100
AcDbLine
 10
17.231015999999983
 20
13.900000000000006
 30
0.0
 11
16.031015999999994
 21
13.900000000000006
 31
0.0
  0
LINE
  5
1E1
100
AcDbEntity
  8
0
  6
CONTINUOUS
 62
               7
100
AcDbLine
 10
17.231015999999983
 20
22.500000000000028
 30
0.0
 11
16.031015999999994
 21
22.500000000000028
 31
0.0
  0
LINE
  5
1E2
100
AcDbEntity
  8
0
  6
CONTINUOUS
 62
               7
100
AcDbLine
 10
17.231015999999983
 20
12.449999999999989
 30
0.0
 11
17.231015999999983
 21
23.950000000000017
 31
0.0
  0
LINE
  5
1E3
100
AcDbEntity
  8
0
  6
CONTINUOUS
 62
               7
100
AcDbLine
 10
19.231015999999983
 20
23.950000000000017
 30
0.0
 11
17.231015999999983
 21
23.950000000000017
 31
0.0
  0
LINE
  5
1E4
100
AcDbEntity
  8
0
  6
CONTINUOUS
 62
               7
100
AcDbLine
 10
19.231015999999983
 20
11.949999999999989
 30
0.0
 11
19.231015999999983
 21
24.450000000000017
 31
0.0
  0
LINE
  5
1E5
100
AcDbEntity
  8
0
  6
CONTINUOUS
 62
               7
100
AcDbLine
 10
38.931016
 20
24.450000000000017
 30
0.0
 11
19.231015999999983
 21
24.450000000000017
 31
0.0
  0
LINE
  5
1E6
100
AcDbEntity
  8
0
  6
CONTINUOUS
 62
               7
100
AcDbLine
 10
28.731015999999983
 20
11.949999999999989
 30
0.0
 11
19.231015999999983
 21
11.949999999999989
 31
0.0
  0
LINE
  5
1E7
100
AcDbEntity
  8
0
  6
CONTINUOUS
 62
               7
100
AcDbLine
 10
19.231015999999983
 20
12.449999999999989
 30
0.0
 11
17.231015999999983
 21
12.449999999999989
 31
0.0
  0
LINE
  5
1E8
100
AcDbEntity
  8
0
  6
CONTINUOUS
 62
               7
100
AcDbLine
 10
28.731015999999983
 20
11.949999999999989
 30
0.0
 11
28.731015999999983
 21
24.450009999999992
 31
0.0
  0
LINE
  5
1E9
100
AcDbEntity
  8
0
  6
CONTINUOUS
 62
               7
100
AcDbLine
 10
28.731115999999986
 20
24.450020000000023
 30
0.0
 11
30.481115999999986
 21
22.700020000000023
 31
0.0
  0
LINE
  5
1EA
100
AcDbEntity
  8
0
  6
CONTINUOUS
 62
               7
100
AcDbLine
 10
28.731015999999983
 20
11.949990000000014
 30
0.0
 11
30.481015999999983
 21
13.699980000000011
 31
0.0
  0
LINE
  5
1EB
100
AcDbEntity
  8
0
  6
CONTINUOUS
 62
               7
100
AcDbLine
 10
30.481015999999983
 20
24.450000000000017
 30
0.0
 11
30.481015999999983
 21
22.700000000000017
 31
0.0
  0
LINE
  5
1EC
100
AcDbEntity
  8
0
  6
CONTINUOUS
 62
               7
100
AcDbLine
 10
32.481015999999983
 20
13.699999999999989
 30
0.0
 11
30.481015999999983
 21
13.699999999999989
 31
0.0
  0
LINE
  5
1ED
100
AcDbEntity
  8
0
  6
CONTINUOUS
 62
               7
100
AcDbLine
 10
34.231015999999983
 20
15.449999999999989
 30
0.0
 11
34.231015999999983
 21
20.950000000000017
 31
0.0
  0
LINE
  5
1EE
100
AcDbEntity
  8
0
  6
CONTINUOUS
 62
               7
100
AcDbLine
 10
32.481015999999983
 20
22.700000000000017
 30
0.0
 11
30.481015999999983
 21
22.700000000000017
 31
0.0
  0
LINE
  5
1EF
100
AcDbEntity
  8
0
  6
CONTINUOUS
 62
               7
100
AcDbLine
 10
21.231015999999983
 20
11.949999999999989
 30
0.0
 11
21.231015999999983
 21
24.450000000000017
 31
0.0
  0
LINE
  5
1F0
100
AcDbEntity
  8
0
  6
CONTINUOUS
 62
               7
100
AcDbLine
 10
30.481015999999983
 20
22.700000000000017
 30
0.0
 11
30.481015999999983
 21
13.699999999999989
 31
0.0
  0
LINE
  5
1F1
100
AcDbEntity
  8
0
  6
CONTINUOUS
 62
               7
100
AcDbLine
 10
30.481015999999983
 20
13.699999999999989
 30
0.0
 11
30.481015999999983
 21
11.199999999999989
 31
0.0
  0
ARC
  5
1F2
100
AcDbEntity
  8
0
  6
CONTINUOUS
 62
               7
100
AcDbCircle
 10
26.484515999999985
 20
8.3301199999999938
 30
0.0
 40
2.1599200000000147
100
AcDbArc
 50
198.06739999999957
 51
221.93229999999943
  0
ARC
  5
1F3
100
AcDbEntity
  8
0
  6
CONTINUOUS
 62
               7
100
AcDbCircle
 10
26.484515999999985
 20
-0.3301199999999938
 30
0.0
 40
2.1599199999999859
100
AcDbArc
 50
138.06766999999959
 51
161.93259999999964
  0
ARC
  5
1F4
100
AcDbEntity
  8
0
  6
CONTINUOUS
 62
               7
100
AcDbCircle
 10
33.984515999999985
 20
4.0
 30
0.0
 40
9.5534199999999956
100
AcDbArc
 50
162.41205999999963
 51
197.58799999999951
  0
ARC
  5
1F5
100
AcDbEntity
  8
0
  6
CONTINUOUS
 62
               7
100
AcDbCircle
 10
32.481015999999983
 20
20.950000000000017
 30
0.0
 40
1.75
100
AcDbArc
 50
0.0
 51
89.999999999999815
  0
ARC
  5
1F6
100
AcDbEntity
  8
0
  6
CONTINUOUS
 62
               7
100
AcDbCircle
 10
32.481015999999983
 20
15.449999999999989
 30
0.0
 40
1.75
100
AcDbArc
 50
269.99999999999937
 51
0.0
  0
ARC
  5
1F7
100
AcDbEntity
  8
0
  6
CONTINUOUS
 62
               7
100
AcDbCircle
 10
38.931016
 20
22.950000000000017
 30
0.0
 40
1.5
100
AcDbArc
 50
0.0
 51
89.999999999999815
  0
ARC
  5
1F8
100
AcDbEntity
  8
0
  6
CONTINUOUS
 62
               7
100
AcDbCircle
 10
34.231015999999983
 20
13.715620000000001
 30
0.0
 40
4.5156300000000043
100
AcDbArc
 50
213.85499999999954
 51
326.14499999999924
  0
LINE
  5
1F9
100
AcDbEntity
  8
0
  6
CONTINUOUS
 62
               7
100
AcDbLine
 10
40.431016
 20
9.0139900000000068
 30
0.0
 11
41.0
 21
8.9962099999999907
 31
0.0
  0
LINE
  5
1FA
100
AcDbEntity
  8
0
  6
CONTINUOUS
 62
               7
100
AcDbLine
 10
40.431016
 20
-1.01400000000001
 30
0.0
 11
41.0
 21
-0.9962189999999964
 31
0.0
  0
LINE
  5
1FB
100
AcDbEntity
  8
0
  6
CONTINUOUS
 62
               7
100
AcDbLine
 10
40.431016
 20
-0.4329999999999927
 30
0.0
 11
41.0
 21
-0.4152190000000076
 31
0.0
  0
LINE
  5
1FC
100
AcDbEntity
  8
0
  6
CONTINUOUS
 62
               7
100
AcDbLine
 10
40.431016
 20
8.4329999999999927
 30
0.0
 11
41.0
 21
8.4152190000000076
 31
0.0
  0
LINE
  5
1FD
100
AcDbEntity
  8
0
  6
CONTINUOUS
 62
               7
100
AcDbLine
 10
11.831015999999977
 20
0.5
 30
0.0
 11
11.831015999999977
 21
7.5000100000000032
 31
0.0
  0
LINE
  5
1FE
100
AcDbEntity
  8
0
  6
CONTINUOUS
 62
               7
100
AcDbLine
 10
15.831015999999977
 20
0.5
 30
0.0
 11
15.831015999999977
 21
7.5
 31
0.0
  0
LINE
  5
1FF
100
AcDbEntity
  8
0
  6
CONTINUOUS
 62
               7
100
AcDbLine
 10
12.331015999999977
 20
0.0
 30
0.0
 11
15.331015999999977
 21
0.0
 31
0.0
  0
LINE
  5
200
100
AcDbEntity
  8
0
  6
CONTINUOUS
 62
               7
100
AcDbLine
 10
12.331015999999977
 20
8.0
 30
0.0
 11
15.331015999999977
 21
8.0
 31
0.0
  0
LINE
  5
201
100
AcDbEntity
  8
0
  6
CONTINUOUS
 62
               7
100
AcDbLine
 10
12.331015999999977
 20
8.0000100000000032
 30
0.0
 11
11.831015999999977
 21
7.5000100000000032
 31
0.0
  0
LINE
  5
202
100
AcDbEntity
  8
0
  6
CONTINUOUS
 62
               7
100
AcDbLine
 10
11.831015999999977
 20
0.5000100000000032
 30
0.0
 11
12.331015999999977
 21
0.0000100000000032
 31
0.0
  0
LINE
  5
203
100
AcDbEntity
  8
0
  6
CONTINUOUS
 62
               7
100
AcDbLine
 10
15.33111599999998
 20
0.0000100000000032
 30
0.0
 11
15.83111599999998
 21
0.5000100000000032
 31
0.0
  0
LINE
  5
204
100
AcDbEntity
  8
0
  6
CONTINUOUS
 62
               7
100
AcDbLine
 10
15.831015999999977
 20
7.5
 30
0.0
 11
15.331015999999977
 21
8.0
 31
0.0
  0
LINE
  5
205
100
AcDbEntity
  8
0
  6
CONTINUOUS
 62
               7
100
AcDbLine
 10
12.331015999999977
 20
0.0
 30
0.0
 11
12.331015999999977
 21
8.0
 31
0.0
  0
LINE
  5
206
100
AcDbEntity
  8
0
  6
CONTINUOUS
 62
               7
100
AcDbLine
 10
15.331015999999977
 20
0.0
 30
0.0
 11
15.331015999999977
 21
8.0
 31
0.0
  0
LINE
  5
207
100
AcDbEntity
  8
0
  6
CONTINUOUS
 62
               7
100
AcDbLine
 10
15.831015999999977
 20
6.5
 30
0.0
 11
19.831015999999977
 21
6.5
 31
0.0
  0
LINE
  5
208
100
AcDbEntity
  8
0
  6
CONTINUOUS
 62
               7
100
AcDbLine
 10
15.831015999999977
 20
6.0670000000000073
 30
0.0
 11
19.831015999999977
 21
6.0670000000000073
 31
0.0
  0
LINE
  5
209
100
AcDbEntity
  8
0
  6
CONTINUOUS
 62
               7
100
AcDbLine
 10
15.831015999999977
 20
1.9329999999999927
 30
0.0
 11
19.831015999999977
 21
1.9329999999999927
 31
0.0
  0
LINE
  5
20A
100
AcDbEntity
  8
0
  6
CONTINUOUS
 62
               7
100
AcDbLine
 10
15.831015999999977
 20
1.5
 30
0.0
 11
19.831015999999977
 21
1.5
 31
0.0
  0
LINE
  5
20B
100
AcDbEntity
  8
0
  6
CONTINUOUS
 62
               7
100
AcDbLine
 10
74.0
 20
-4.5
 30
0.0
 11
79.0
 21
-4.5
 31
0.0
  0
LINE
  5
20C
100
AcDbEntity
  8
0
  6
CONTINUOUS
 62
               7
100
AcDbLine
 10
79.0
 20
-4.5
 30
0.0
 11
82.0
 21
-4.0
 31
0.0
  0
LINE
  5
20D
100
AcDbEntity
  8
0
  6
CONTINUOUS
 62
               7
100
AcDbLine
 10
82.0
 20
-4.0
 30
0.0
 11
79.0
 21
-3.5
 31
0.0
  0
LINE
  5
20E
100
AcDbEntity
  8
0
  6
CONTINUOUS
 62
               7
100
AcDbLine
 10
79.0
 20
-3.5
 30
0.0
 11
74.0
 21
-3.5
 31
0.0
  0
LINE
  5
20F
100
AcDbEntity
  8
0
  6
CONTINUOUS
 62
               7
100
AcDbLine
 10
41.0
 20
11.0
 30
0.0
 11
41.0
 21
-51.0
 31
0.0
  0
ARC
  5
210
100
AcDbEntity
  8
0
  6
CONTINUOUS
 62
               7
100
AcDbCircle
 10
23.5
 20
8.0
 30
0.0
 40
2.0000000000000031
100
AcDbArc
 50
51.190748999999997
 51
149.99999999999952
  0
LINE
  5
211
100
AcDbEntity
  8
0
  6
CONTINUOUS
 62
               7
100
AcDbLine
 10
24.140440999999981
 20
8.2404420000000016
 30
0.0
 11
24.431016
 21
8.2404420000000016
 31
0.0
  0
ARC
  5
212
100
AcDbEntity
  8
0
  6
CONTINUOUS
 62
               7
100
AcDbCircle
 10
22.859557999999993
 20
8.6404420000000073
 30
0.0
 40
0.3999999999999933
100
AcDbArc
 50
350.81553099999758
 51
0.0
  0
ARC
  5
213
100
AcDbEntity
  8
0
  6
CONTINUOUS
 62
               7
100
AcDbCircle
 10
23.5
 20
-48.0
 30
0.0
 40
1.9999999999999918
100
AcDbArc
 50
209.99999999999969
 51
308.80925099999922
  0
LINE
  5
214
100
AcDbEntity
  8
0
  6
CONTINUOUS
 62
               7
100
AcDbLine
 10
24.140440999999981
 20
-48.240442000000002
 30
0.0
 11
24.431016
 21
-48.240442000000002
 31
0.0
  0
ARC
  5
215
100
AcDbEntity
  8
0
  6
CONTINUOUS
 62
               7
100
AcDbCircle
 10
22.859557999999993
 20
-48.640442000000007
 30
0.0
 40
0.4000000000000057
100
AcDbArc
 50
0.0
 51
9.184469000001652
  0
LINE
  5
216
100
AcDbEntity
  8
0
  6
CONTINUOUS
 62
               7
100
AcDbLine
 10
6.0
 20
11.0
 30
0.0
 11
28.431016
 21
11.0
 31
0.0
  0
LINE
  5
217
100
AcDbEntity
  8
0
  6
CONTINUOUS
 62
               7
100
AcDbLine
 10
40.431016
 20
11.0
 30
0.0
 11
74.0
 21
11.0
 31
0.0
  0
LINE
  5
218
100
AcDbEntity
  8
0
  6
CONTINUOUS
 62
               7
100
AcDbLine
 10
41.0
 20
-51.0
 30
0.0
 11
40.431016
 21
-51.0
 31
0.0
  0
LINE
  5
219
100
AcDbEntity
  8
0
  6
CONTINUOUS
 62
               7
100
AcDbLine
 10
28.431016
 20
-51.0
 30
0.0
 11
6.0
 21
-51.0
 31
0.0
  0
LINE
  5
21A
100
AcDbEntity
  8
0
  6
CONTINUOUS
 62
               7
100
AcDbLine
 10
29.631015999999988
 20
-51.199991000000011
 30
0.0
 11
39.231015999999983
 21
-51.199991000000011
 31
0.0
  0
LINE
  5
21B
100
AcDbEntity
  8
0
  6
CONTINUOUS
 62
               7
100
AcDbLine
 10
39.231015999999983
 20
-51.199991000000011
 30
0.0
 11
39.231015999999983
 21
-36.799991000000006
 31
0.0
  0
LINE
  5
21C
100
AcDbEntity
  8
0
  6
CONTINUOUS
 62
               7
100
AcDbLine
 10
29.631015999999988
 20
-51.199991000000011
 30
0.0
 11
29.631015999999988
 21
-36.799991000000006
 31
0.0
  0
LINE
  5
21D
100
AcDbEntity
  8
0
  6
CONTINUOUS
 62
               7
100
AcDbLine
 10
29.631015999999988
 20
-36.799991000000006
 30
0.0
 11
28.431016
 21
-37.492810999999989
 31
0.0
  0
LINE
  5
21E
100
AcDbEntity
  8
0
  6
CONTINUOUS
 62
               7
100
AcDbLine
 10
39.231015999999983
 20
-51.200000999999986
 30
0.0
 11
40.431016
 21
-50.507181000000003
 31
0.0
  0
LINE
  5
21F
100
AcDbEntity
  8
0
  6
CONTINUOUS
 62
               7
100
AcDbLine
 10
29.631115999999992
 20
-51.199991000000011
 30
0.0
 11
28.431016
 21
-50.507171
 31
0.0
  0
LINE
  5
220
100
AcDbEntity
  8
0
  6
CONTINUOUS
 62
               7
100
AcDbLine
 10
39.231015999999983
 20
-36.799991000000006
 30
0.0
 11
40.431016
 21
-37.492810999999989
 31
0.0
  0
LINE
  5
221
100
AcDbEntity
  8
0
  6
CONTINUOUS
 62
               7
100
AcDbLine
 10
39.231015999999983
 20
-36.799991000000006
 30
0.0
 11
37.981015999999983
 21
-36.799991000000006
 31
0.0
  0
LINE
  5
222
100
AcDbEntity
  8
0
  6
CONTINUOUS
 62
               7
100
AcDbLine
 10
29.631015999999988
 20
-36.799991000000006
 30
0.0
 11
30.481015999999983
 21
-36.799991000000006
 31
0.0
  0
LINE
  5
223
100
AcDbEntity
  8
0
  6
CONTINUOUS
 62
               7
100
AcDbLine
 10
40.431016
 20
-50.507171
 30
0.0
 11
40.431016
 21
-25.049991000000006
 31
0.0
  0
LINE
  5
224
100
AcDbEntity
  8
0
  6
CONTINUOUS
 62
               7
100
AcDbLine
 10
28.431016
 20
-50.507171
 30
0.0
 11
28.431016
 21
-36.049991000000006
 31
0.0
  0
LINE
  5
225
100
AcDbEntity
  8
0
  6
CONTINUOUS
 62
               7
100
AcDbLine
 10
37.981015999999983
 20
-36.799991000000006
 30
0.0
 11
37.981015999999983
 21
-23.549991000000006
 31
0.0
  0
LINE
  5
226
100
AcDbEntity
  8
0
  6
CONTINUOUS
 62
               7
100
AcDbLine
 10
14.231015999999983
 20
-35.699991000000011
 30
0.0
 11
14.231015999999983
 21
-23.899980999999997
 31
0.0
  0
LINE
  5
227
100
AcDbEntity
  8
0
  6
CONTINUOUS
 62
               7
100
AcDbLine
 10
16.031015999999994
 20
-23.899980999999997
 30
0.0
 11
14.231015999999983
 21
-23.899980999999997
 31
0.0
  0
LINE
  5
228
100
AcDbEntity
  8
0
  6
CONTINUOUS
 62
               7
100
AcDbLine
 10
16.031015999999994
 20
-35.699991000000011
 30
0.0
 11
14.231015999999983
 21
-35.699991000000011
 31
0.0
  0
LINE
  5
229
100
AcDbEntity
  8
0
  6
CONTINUOUS
 62
               7
100
AcDbLine
 10
16.031015999999994
 20
-35.699991000000011
 30
0.0
 11
16.031015999999994
 21
-23.899980999999997
 31
0.0
  0
LINE
  5
22A
100
AcDbEntity
  8
0
  6
CONTINUOUS
 62
               7
100
AcDbLine
 10
17.231015999999983
 20
-34.099990999999989
 30
0.0
 11
16.031015999999994
 21
-34.099990999999989
 31
0.0
  0
LINE
  5
22B
100
AcDbEntity
  8
0
  6
CONTINUOUS
 62
               7
100
AcDbLine
 10
17.231015999999983
 20
-25.499990999999994
 30
0.0
 11
16.031015999999994
 21
-25.499990999999994
 31
0.0
  0
LINE
  5
22C
100
AcDbEntity
  8
0
  6
CONTINUOUS
 62
               7
100
AcDbLine
 10
17.231015999999983
 20
-35.549991000000006
 30
0.0
 11
17.231015999999983
 21
-24.049991000000006
 31
0.0
  0
LINE
  5
22D
100
AcDbEntity
  8
0
  6
CONTINUOUS
 62
               7
100
AcDbLine
 10
19.231015999999983
 20
-24.049991000000006
 30
0.0
 11
17.231015999999983
 21
-24.049991000000006
 31
0.0
  0
LINE
  5
22E
100
AcDbEntity
  8
0
  6
CONTINUOUS
 62
               7
100
AcDbLine
 10
19.231015999999983
 20
-36.049991000000006
 30
0.0
 11
19.231015999999983
 21
-23.549991000000006
 31
0.0
  0
LINE
  5
22F
100
AcDbEntity
  8
0
  6
CONTINUOUS
 62
               7
100
AcDbLine
 10
38.931016
 20
-23.549991000000006
 30
0.0
 11
19.231015999999983
 21
-23.549991000000006
 31
0.0
  0
LINE
  5
230
100
AcDbEntity
  8
0
  6
CONTINUOUS
 62
               7
100
AcDbLine
 10
28.731015999999983
 20
-36.049991000000006
 30
0.0
 11
19.231015999999983
 21
-36.049991000000006
 31
0.0
  0
LINE
  5
231
100
AcDbEntity
  8
0
  6
CONTINUOUS
 62
               7
100
AcDbLine
 10
19.231015999999983
 20
-35.549991000000006
 30
0.0
 11
17.231015999999983
 21
-35.549991000000006
 31
0.0
  0
LINE
  5
232
100
AcDbEntity
  8
0
  6
CONTINUOUS
 62
               7
100
AcDbLine
 10
28.731015999999983
 20
-36.049991000000006
 30
0.0
 11
28.731015999999983
 21
-23.549981000000002
 31
0.0
  0
LINE
  5
233
100
AcDbEntity
  8
0
  6
CONTINUOUS
 62
               7
100
AcDbLine
 10
28.731115999999986
 20
-23.549970999999999
 30
0.0
 11
30.481115999999986
 21
-25.299970999999999
 31
0.0
  0
LINE
  5
234
100
AcDbEntity
  8
0
  6
CONTINUOUS
 62
               7
100
AcDbLine
 10
28.731015999999983
 20
-36.050001000000009
 30
0.0
 11
30.481015999999983
 21
-34.300011000000012
 31
0.0
  0
LINE
  5
235
100
AcDbEntity
  8
0
  6
CONTINUOUS
 62
               7
100
AcDbLine
 10
30.481015999999983
 20
-23.549991000000006
 30
0.0
 11
30.481015999999983
 21
-25.299991000000006
 31
0.0
  0
LINE
  5
236
100
AcDbEntity
  8
0
  6
CONTINUOUS
 62
               7
100
AcDbLine
 10
32.481015999999983
 20
-34.299991000000006
 30
0.0
 11
30.481015999999983
 21
-34.299991000000006
 31
0.0
  0
LINE
  5
237
100
AcDbEntity
  8
0
  6
CONTINUOUS
 62
               7
100
AcDbLine
 10
34.231015999999983
 20
-32.549991000000006
 30
0.0
 11
34.231015999999983
 21
-27.049991000000006
 31
0.0
  0
LINE
  5
238
100
AcDbEntity
  8
0
  6
CONTINUOUS
 62
               7
100
AcDbLine
 10
32.481015999999983
 20
-25.299991000000006
 30
0.0
 11
30.481015999999983
 21
-25.299991000000006
 31
0.0
  0
LINE
  5
239
100
AcDbEntity
  8
0
  6
CONTINUOUS
 62
               7
100
AcDbLine
 10
21.231015999999983
 20
-36.049991000000006
 30
0.0
 11
21.231015999999983
 21
-23.549991000000006
 31
0.0
  0
LINE
  5
23A
100
AcDbEntity
  8
0
  6
CONTINUOUS
 62
               7
100
AcDbLine
 10
30.481015999999983
 20
-25.299991000000006
 30
0.0
 11
30.481015999999983
 21
-34.299991000000006
 31
0.0
  0
LINE
  5
23B
100
AcDbEntity
  8
0
  6
CONTINUOUS
 62
               7
100
AcDbLine
 10
30.481015999999983
 20
-34.299991000000006
 30
0.0
 11
30.481015999999983
 21
-36.799991000000006
 31
0.0
  0
ARC
  5
23C
100
AcDbEntity
  8
0
  6
CONTINUOUS
 62
               7
100
AcDbCircle
 10
32.481015999999983
 20
-27.049991000000006
 30
0.0
 40
1.75
100
AcDbArc
 50
0.0
 51
89.999999999999815
  0
ARC
  5
23D
100
AcDbEntity
  8
0
  6
CONTINUOUS
 62
               7
100
AcDbCircle
 10
32.481015999999983
 20
-32.549991000000006
 30
0.0
 40
1.75
100
AcDbArc
 50
269.99999999999937
 51
0.0
  0
ARC
  5
23E
100
AcDbEntity
  8
0
  6
CONTINUOUS
 62
               7
100
AcDbCircle
 10
38.931016
 20
-25.049991000000006
 30
0.0
 40
1.5
100
AcDbArc
 50
0.0
 51
89.999999999999815
  0
ARC
  5
23F
100
AcDbEntity
  8
0
  6
CONTINUOUS
 62
               7
100
AcDbCircle
 10
34.231015999999983
 20
-34.284370999999993
 30
0.0
 40
4.5156300000000043
100
AcDbArc
 50
213.85499999999954
 51
326.14499999999924
  0
CIRCLE
  5
240
100
AcDbEntity
  8
0
  6
CONTINUOUS
 62
               7
100
AcDbCircle
 10
80.0
 20
0.0
 30
0.0
 40
2.25
  0
CIRCLE
  5
241
100
AcDbEntity
  8
0
  6
CONTINUOUS
 62
               7
100
AcDbCircle
 10
80.0
 20
-40.0
 30
0.0
 40
2.25
  0
CIRCLE
  5
242
100
AcDbEntity
  8
0
  6
CONTINUOUS
 62
               7
100
AcDbCircle
 10
0.0
 20
0.0
 30
0.0
 40
2.25
  0
ARC
  5
243
100
AcDbEntity
  8
0
  6
DASHED
 62
               7
100
AcDbCircle
 10
0.0
 20
-40.0
 30
0.0
 40
2.249999999999988
100
AcDbArc
 50
0.0
 51
116.38779996124292
  0
LINE
  5
244
100
AcDbEntity
  8
0
  6
CENTER
 62
               2
100
AcDbLine
 10
0.0
 20
-43.484970000000004
 30
0.0
 11
0.0
 21
-36.180622
 31
0.0
  0
LINE
  5
245
100
AcDbEntity
  8
0
  6
CENTER
 62
               2
100
AcDbLine
 10
4.3198769999999911
 20
-40.0
 30
0.0
 11
-3.7149060000000134
 21
-40.0
 31
0.0
  0
LINE
  5
246
100
AcDbEntity
  8
0
  6
CENTER
 62
               2
100
AcDbLine
 10
0.0
 20
3.4849700000000041
 30
0.0
 11
0.0
 21
-3.8193780000000004
 31
0.0
  0
LINE
  5
247
100
AcDbEntity
  8
0
  6
CENTER
 62
               2
100
AcDbLine
 10
4.3198769999999911
 20
0.0
 30
0.0
 11
-3.7149060000000134
 21
0.0
 31
0.0
  0
LINE
  5
248
100
AcDbEntity
  8
0
  6
CENTER
 62
               2
100
AcDbLine
 10
80.0
 20
-43.484970000000004
 30
0.0
 11
80.0
 21
-36.180622
 31
0.0
  0
LINE
  5
249
100
AcDbEntity
  8
0
  6
CENTER
 62
               2
100
AcDbLine
 10
75.68012299999998
 20
-40.0
 30
0.0
 11
83.714905999999985
 21
-40.0
 31
0.0
  0
LINE
  5
24A
100
AcDbEntity
  8
0
  6
CENTER
 62
               2
100
AcDbLine
 10
80.0
 20
3.4849700000000041
 30
0.0
 11
80.0
 21
-3.8193780000000004
 31
0.0
  0
LINE
  5
24B
100
AcDbEntity
  8
0
  6
CENTER
 62
               2
100
AcDbLine
 10
75.68012299999998
 20
0.0
 30
0.0
 11
83.714905999999985
 21
0.0
 31
0.0
  0
LINE
  5
24C
100
AcDbEntity
  8
0
  6
CENTER
 62
               2
100
AcDbLine
 10
34.231015999999983
 20
-53.003791000000007
 30
0.0
 11
34.231015999999983
 21
-21.321194396797125
 31
0.0
  0
LINE
  5
24D
100
AcDbEntity
  8
0
  6
CENTER
 62
               2
100
AcDbLine
 10
43.13591599999998
 20
-29.799991000000006
 30
0.0
 11
11.792815999999988
 21
-29.799991000000006
 31
0.0
  0
LINE
  5
24E
100
AcDbEntity
  8
0
  6
CENTER
 62
               2
100
AcDbLine
 10
9.8518967462435114
 20
4.0
 30
0.0
 11
42.93273513666
 21
4.0
 31
0.0
  0
LINE
  5
24F
100
AcDbEntity
  8
0
  6
CENTER
 62
               2
100
AcDbLine
 10
34.231015999999983
 20
-5.0038000000000125
 30
0.0
 11
34.231015999999983
 21
26.443485524059355
 31
0.0
  0
LINE
  5
250
100
AcDbEntity
  8
0
  6
CENTER
 62
               2
100
AcDbLine
 10
43.13591599999998
 20
18.200000000000017
 30
0.0
 11
11.792815999999988
 21
18.200000000000017
 31
0.0
  0
LINE
  5
251
100
AcDbEntity
  8
0
  6
CENTER
 62
               2
100
AcDbLine
 10
10.020676533949711
 20
-44.0
 30
0.0
 11
43.101514924366199
 21
-44.0
 31
0.0
  0
ENDBLK
  5
252
100
AcDbEntity
  8
0
100
AcDbBlockEnd
  0
BLOCK
  5
253
100
AcDbEntity
  8
0
100
AcDbBlockBegin
  2
DTRY-ELB-5
 70
               0
 10
0.0
 20
0.0
 30
0.0
  3
DTRY-ELB-5
  1

  0
LINE
  5
254
100
AcDbEntity
  8
0
  6
CONTINUOUS
 62
               7
100
AcDbLine
 10
-39.5
 20
-20.5
 30
0.0
 11
-39.5
 21
0.5
 31
0.0
  0
LINE
  5
255
100
AcDbEntity
  8
0
  6
CONTINUOUS
 62
               7
100
AcDbLine
 10
-17.5
 20
-20.5
 30
0.0
 11
-17.5
 21
0.5
 31
0.0
  0
LINE
  5
256
100
AcDbEntity
  8
0
  6
CONTINUOUS
 62
               7
100
AcDbLine
 10
-1.5
 20
-14.500000007986344
 30
0.0
 11
-1.5
 21
-5.500000007986344
 31
0.0
  0
LINE
  5
257
100
AcDbEntity
  8
0
  6
CENTER
 62
               2
100
AcDbLine
 10
-41.643378628186269
 20
-10.0
 30
0.0
 11
1.1524271768606695
 21
-10.0
 31
0.0
  0
LINE
  5
258
100
AcDbEntity
  8
0
  6
CONTINUOUS
 62
               7
100
AcDbLine
 10
-39.0
 20
1.0
 30
0.0
 11
-17.5
 21
1.0
 31
0.0
  0
LINE
  5
259
100
AcDbEntity
  8
0
  6
CONTINUOUS
 62
               7
100
AcDbLine
 10
-39.0
 20
-21.0
 30
0.0
 11
-32.0
 21
-21.0
 31
0.0
  0
LINE
  5
25A
100
AcDbEntity
  8
0
  6
CONTINUOUS
 62
               7
100
AcDbLine
 10
-17.5
 20
-5.5
 30
0.0
 11
-15.0
 21
-5.5
 31
0.0
  0
LINE
  5
25B
100
AcDbEntity
  8
0
  6
CONTINUOUS
 62
               7
100
AcDbLine
 10
-17.5
 20
-14.5
 30
0.0
 11
-15.0
 21
-14.5
 31
0.0
  0
LINE
  5
25C
100
AcDbEntity
  8
0
  6
CENTER
 62
               2
100
AcDbLine
 10
-34.5
 20
-15.417882460152619
 30
0.0
 11
-34.5
 21
-4.6178999851037652
 31
0.0
  0
LINE
  5
25D
100
AcDbEntity
  8
0
  6
CONTINUOUS
 62
               7
100
AcDbLine
 10
-36.0
 20
-9.1339743137359619
 30
0.0
 11
-36.0
 21
-10.866025686264038
 31
0.0
  0
LINE
  5
25E
100
AcDbEntity
  8
0
  6
CONTINUOUS
 62
               7
100
AcDbLine
 10
-33.0
 20
-9.1339746117591858
 30
0.0
 11
-33.0
 21
-10.866025388240814
 31
0.0
  0
LINE
  5
25F
100
AcDbEntity
  8
0
  6
CONTINUOUS
 62
               7
100
AcDbLine
 10
-36.000000399862074
 20
-9.1339747389539525
 30
0.0
 11
-34.500000247230219
 21
-8.2679493943467719
 31
0.0
  0
LINE
  5
260
100
AcDbEntity
  8
0
  6
CONTINUOUS
 62
               7
100
AcDbLine
 10
-34.500000642559996
 20
-11.732050018165552
 30
0.0
 11
-33.000000489928141
 21
-10.866024673558371
 31
0.0
  0
LINE
  5
261
100
AcDbEntity
  8
0
  6
CONTINUOUS
 62
               7
100
AcDbLine
 10
-34.500000642559996
 20
-8.2679499818344482
 30
0.0
 11
-33.000000489928141
 21
-9.1339753264416288
 31
0.0
  0
LINE
  5
262
100
AcDbEntity
  8
0
  6
CONTINUOUS
 62
               7
100
AcDbLine
 10
-36.000000399862074
 20
-10.866025261046047
 30
0.0
 11
-34.500000247230219
 21
-11.732050605653228
 31
0.0
  0
CIRCLE
  5
263
100
AcDbEntity
  8
0
  6
CONTINUOUS
 62
               7
100
AcDbCircle
 10
-34.5
 20
-10.0
 30
0.0
 40
3.5
  0
CIRCLE
  5
264
100
AcDbEntity
  8
0
  6
CONTINUOUS
 62
               7
100
AcDbCircle
 10
-34.5
 20
-9.9999998807907104
 30
0.0
 40
2.9803848266601563
  0
LINE
  5
265
100
AcDbEntity
  8
0
  6
CENTER
 62
               2
100
AcDbLine
 10
-25.5
 20
-49.149880392208402
 30
0.0
 11
-25.5
 21
8.9162552684384693
 31
0.0
  0
LINE
  5
266
100
AcDbEntity
  8
0
  6
CONTINUOUS
 62
               7
100
AcDbLine
 10
-33.5
 20
6.0
 30
0.0
 11
-17.5
 21
6.0
 31
0.0
  0
LINE
  5
267
100
AcDbEntity
  8
0
  6
CONTINUOUS
 62
               7
100
AcDbLine
 10
-29.500000014525597
 20
-44.0
 30
0.0
 11
-21.500000030495698
 21
-44.0
 31
0.0
  0
LINE
  5
268
100
AcDbEntity
  8
0
  6
CONTINUOUS
 62
               7
100
AcDbLine
 10
-33.5
 20
1.0
 30
0.0
 11
-33.5
 21
6.0
 31
0.0
  0
LINE
  5
269
100
AcDbEntity
  8
0
  6
CONTINUOUS
 62
               7
100
AcDbLine
 10
-32.0
 20
-39.669873006236905
 30
0.0
 11
-32.0
 21
-21.0
 31
0.0
  0
LINE
  5
26A
100
AcDbEntity
  8
0
  6
CONTINUOUS
 62
               7
100
AcDbLine
 10
-19.0
 20
-39.66987294637125
 30
0.0
 11
-19.0
 21
-21.0
 31
0.0
  0
LINE
  5
26B
100
AcDbEntity
  8
0
  6
CONTINUOUS
 62
               7
100
AcDbLine
 10
-21.500000035106609
 20
-44.000000007986344
 30
0.0
 11
-19.000000035106609
 21
-39.669873007177628
 31
0.0
  0
LINE
  5
26C
100
AcDbEntity
  8
0
  6
CONTINUOUS
 62
               7
100
AcDbLine
 10
-29.499999975501964
 20
-44.000000067590989
 30
0.0
 11
-32.0
 21
-39.669873006236919
 31
0.0
  0
ARC
  5
26D
100
AcDbEntity
  8
0
  6
CONTINUOUS
 62
               7
100
AcDbCircle
 10
-9.0
 20
-10.0
 30
0.0
 40
7.5
100
AcDbArc
 50
183.82255372927392
 51
356.17744627072489
  0
LINE
  5
26E
100
AcDbEntity
  8
0
  6
CONTINUOUS
 62
               7
100
AcDbLine
 10
-3.0
 20
-5.5
 30
0.0
 11
-1.5
 21
-5.5
 31
0.0
  0
LINE
  5
26F
100
AcDbEntity
  8
0
  6
CONTINUOUS
 62
               7
100
AcDbLine
 10
-3.0
 20
-14.5
 30
0.0
 11
-1.5
 21
-14.5
 31
0.0
  0
LINE
  5
270
100
AcDbEntity
  8
0
  6
CONTINUOUS
 62
               7
100
AcDbLine
 10
-16.483314773547875
 20
-9.5
 30
0.0
 11
-1.5166852264521253
 21
-9.5
 31
0.0
  0
LINE
  5
271
100
AcDbEntity
  8
0
  6
CONTINUOUS
 62
               7
100
AcDbLine
 10
-16.483314773547875
 20
-10.5
 30
0.0
 11
-1.5166852264521253
 21
-10.5
 31
0.0
  0
ARC
  5
272
100
AcDbEntity
  8
0
  6
CONTINUOUS
 62
               7
100
AcDbCircle
 10
-9.0
 20
-10.0
 30
0.0
 40
7.5
100
AcDbArc
 50
3.8225537292743201
 51
176.17744627072528
  0
LINE
  5
273
100
AcDbEntity
  8
0
  6
CENTER
 62
               2
100
AcDbLine
 10
-9.0
 20
-18.567986019491471
 30
0.0
 11
-9.0
 21
-1.3527679523222815
 31
0.0
  0
LINE
  5
274
100
AcDbEntity
  8
0
  6
CONTINUOUS
 62
               7
100
AcDbLine
 10
-11.0
 20
-10.5
 30
0.0
 11
-11.0
 21
-9.5
 31
0.0
  0
LINE
  5
275
100
AcDbEntity
  8
0
  6
CONTINUOUS
 62
               7
100
AcDbLine
 10
-7.0
 20
-10.5
 30
0.0
 11
-7.0
 21
-9.5
 31
0.0
  0
LINE
  5
276
100
AcDbEntity
  8
0
  6
CONTINUOUS
 62
               2
100
AcDbLine
 10
-10.5
 20
-10.5
 30
0.0
 11
-10.5
 21
-9.5
 31
0.0
  0
LINE
  5
277
100
AcDbEntity
  8
0
  6
CONTINUOUS
 62
               2
100
AcDbLine
 10
-7.5
 20
-10.5
 30
0.0
 11
-7.5
 21
-9.5
 31
0.0
  0
LINE
  5
278
100
AcDbEntity
  8
0
  6
CONTINUOUS
 62
               7
100
AcDbLine
 10
0.0
 20
-23.0
 30
0.0
 11
0.0
 21
-14.5
 31
0.0
  0
LINE
  5
279
100
AcDbEntity
  8
0
  6
CONTINUOUS
 62
               7
100
AcDbLine
 10
-4.5
 20
3.0
 30
0.0
 11
0.0
 21
3.0
 31
0.0
  0
LINE
  5
27A
100
AcDbEntity
  8
0
  6
CONTINUOUS
 62
               7
100
AcDbLine
 10
-4.5
 20
-23.0
 30
0.0
 11
0.0
 21
-23.0
 31
0.0
  0
LINE
  5
27B
100
AcDbEntity
  8
0
  6
CONTINUOUS
 62
               7
100
AcDbLine
 10
-5.0
 20
-22.5
 30
0.0
 11
-5.0
 21
-16.344288770224765
 31
0.0
  0
LINE
  5
27C
100
AcDbEntity
  8
0
  6
CONTINUOUS
 62
               7
100
AcDbLine
 10
-17.5
 20
-4.0
 30
0.0
 11
-13.5
 21
-4.0
 31
0.0
  0
LINE
  5
27D
100
AcDbEntity
  8
0
  6
CONTINUOUS
 62
               7
100
AcDbLine
 10
-17.5
 20
-16.0
 30
0.0
 11
-13.5
 21
-16.0
 31
0.0
  0
LINE
  5
27E
100
AcDbEntity
  8
0
  6
CONTINUOUS
 62
               7
100
AcDbLine
 10
-5.0
 20
-3.655711229775239
 30
0.0
 11
-5.0
 21
2.5
 31
0.0
  0
LINE
  5
27F
100
AcDbEntity
  8
0
  6
CONTINUOUS
 62
               7
100
AcDbLine
 10
-0.8000000000000114
 20
-14.5
 30
0.0
 11
-0.8000000000000114
 21
-5.5
 31
0.0
  0
LINE
  5
280
100
AcDbEntity
  8
0
  6
CONTINUOUS
 62
               7
100
AcDbLine
 10
-0.8000000000000114
 20
-5.5
 30
0.0
 11
0.0
 21
-5.5
 31
0.0
  0
LINE
  5
281
100
AcDbEntity
  8
0
  6
CONTINUOUS
 62
               7
100
AcDbLine
 10
-0.8000000000000114
 20
-14.5
 30
0.0
 11
0.0
 21
-14.5
 31
0.0
  0
LINE
  5
282
100
AcDbEntity
  8
0
  6
CONTINUOUS
 62
               7
100
AcDbLine
 10
0.0
 20
-5.5
 30
0.0
 11
0.0
 21
3.0
 31
0.0
  0
LINE
  5
283
100
AcDbEntity
  8
0
  6
CONTINUOUS
 62
               7
100
AcDbLine
 10
-32.0
 20
-39.669873006236905
 30
0.0
 11
-19.000000035106609
 21
-39.669873007177628
 31
0.0
  0
ARC
  5
284
100
AcDbEntity
  8
0
  6
CONTINUOUS
 62
               7
100
AcDbCircle
 10
-25.5
 20
9.502272727272711
 30
0.0
 40
10.702272727272714
100
AcDbArc
 50
232.60203439163715
 51
307.39796560836157
  0
ARC
  5
285
100
AcDbEntity
  8
0
  6
CONTINUOUS
 62
               7
100
AcDbCircle
 10
-25.5
 20
-29.502272727272711
 30
0.0
 40
10.702272727272714
100
AcDbArc
 50
52.602034391637595
 51
127.39796560836206
  0
LINE
  5
286
100
AcDbEntity
  8
0
  6
CONTINUOUS
 62
               7
100
AcDbLine
 10
-19.0
 20
-21.0
 30
0.0
 11
-18.0
 21
-21.0
 31
0.0
  0
ARC
  5
287
100
AcDbEntity
  8
0
  6
CONTINUOUS
 62
               7
100
AcDbCircle
 10
-39.0
 20
0.5
 30
0.0
 40
0.5
100
AcDbArc
 50
89.999999999999815
 51
179.99999999999963
  0
ARC
  5
288
100
AcDbEntity
  8
0
  6
CONTINUOUS
 62
               7
100
AcDbCircle
 10
-39.0
 20
-20.5
 30
0.0
 40
0.5
100
AcDbArc
 50
179.99999999999963
 51
269.99999999999937
  0
ARC
  5
289
100
AcDbEntity
  8
0
  6
CONTINUOUS
 62
               7
100
AcDbCircle
 10
-18.0
 20
-20.5
 30
0.0
 40
0.5
100
AcDbArc
 50
270.00000000000023
 51
0.0
  0
ARC
  5
28A
100
AcDbEntity
  8
0
  6
CONTINUOUS
 62
               7
100
AcDbCircle
 10
-18.0
 20
0.5
 30
0.0
 40
0.5
100
AcDbArc
 50
0.0
 51
89.999999999999815
  0
ARC
  5
28B
100
AcDbEntity
  8
0
  6
CONTINUOUS
 62
               7
100
AcDbCircle
 10
-4.5
 20
2.5
 30
0.0
 40
0.5
100
AcDbArc
 50
89.999999999999815
 51
179.99999999999963
  0
ARC
  5
28C
100
AcDbEntity
  8
0
  6
CONTINUOUS
 62
               7
100
AcDbCircle
 10
-4.5
 20
-22.5
 30
0.0
 40
0.5
100
AcDbArc
 50
179.99999999999963
 51
269.99999999999937
  0
LINE
  5
28D
100
AcDbEntity
  8
0
  6
CONTINUOUS
 62
               7
100
AcDbLine
 10
-17.5
 20
6.0
 30
0.0
 11
-17.5
 21
1.0
 31
0.0
  0
LINE
  5
28E
100
AcDbEntity
  8
0
  6
CENTER
 62
               2
100
AcDbLine
 10
-8.4717128584451871
 20
0.0
 30
0.0
 11
5.5296673252457822
 21
0.0
 31
0.0
  0
LINE
  5
28F
100
AcDbEntity
  8
0
  6
CENTER
 62
               2
100
AcDbLine
 10
-8.7721502238812832
 20
-20.0
 30
0.0
 11
6.1490137833740164
 21
-20.0
 31
0.0
  0
LINE
  5
291
100
AcDbEntity
  8
0
  6
PHANTOM
 62
               2
100
AcDbLine
 10
-9.7535207901605645
 20
-49.694863735933723
 30
0.0
 11
-2.8253175737154947
 21
-45.694863743918752
 31
0.0
  0
LINE
  5
292
100
AcDbEntity
  8
0
  6
PHANTOM
 62
               2
100
AcDbLine
 10
-2.8253175646587465
 20
-40.694863698614157
 30
0.0
 11
-12.160254037844368
 21
-24.52627944162883
 31
0.0
  0
LINE
  5
293
100
AcDbEntity
  8
0
  6
PHANTOM
 62
               2
100
AcDbLine
 10
-14.083647783923652
 20
-47.194863750459334
 30
0.0
 11
-2.8253175646587465
 21
-40.694863768827318
 31
0.0
  0
LINE
  5
294
100
AcDbEntity
  8
0
  6
PHANTOM
 62
               2
100
AcDbLine
 10
-2.8253175737154947
 20
-45.694863753140581
 30
0.0
 11
-2.8253175646587465
 21
-40.694863768827318
 31
0.0
  0
LINE
  5
295
100
AcDbEntity
  8
0
  6
PHANTOM
 62
               2
100
AcDbLine
 10
-14.083647783923652
 20
-47.194863750459334
 30
0.0
 11
-19.0
 21
-38.679491924311236
 31
0.0
  0
LINE
  5
296
100
AcDbEntity
  8
0
  6
PHANTOM
 62
               2
100
AcDbLine
 10
-9.7535207225695331
 20
-49.694863774957398
 30
0.0
 11
-14.083647783923652
 21
-47.194863750459348
 31
0.0
  0
LINE
  5
297
100
AcDbEntity
  8
0
  6
CENTER
 62
               2
100
AcDbLine
 10
-5.4218901506937982
 20
-49.197468054060963
 30
0.0
 11
-19.91523454837909
 21
-24.094259185676265
 31
0.0
  0
LINE
  5
298
100
AcDbEntity
  8
0
  6
PHANTOM
 62
               2
100
AcDbLine
 10
-43.753520790160565
 20
-29.194863721408112
 30
0.0
 11
-36.825317573715495
 21
-33.194863713423082
 31
0.0
  0
LINE
  5
299
100
AcDbEntity
  8
0
  6
PHANTOM
 62
               2
100
AcDbLine
 10
-43.753520790160565
 20
-24.194863750459334
 30
0.0
 11
-39.5
 21
-16.827549630850754
 31
0.0
  0
LINE
  5
29A
100
AcDbEntity
  8
0
  6
PHANTOM
 62
               2
100
AcDbLine
 10
-43.753520790160565
 20
-24.194863750459334
 30
0.0
 11
-32.495190571836361
 21
-30.694863733720737
 31
0.0
  0
LINE
  5
29B
100
AcDbEntity
  8
0
  6
PHANTOM
 62
               2
100
AcDbLine
 10
-43.753520790160565
 20
-29.194863799455462
 30
0.0
 11
-43.753520790160565
 21
-24.194863750459355
 31
0.0
  0
LINE
  5
29C
100
AcDbEntity
  8
0
  6
PHANTOM
 62
               2
100
AcDbLine
 10
-32.495190511029989
 20
-30.694863698614157
 30
0.0
 11
-29.080371430783259
 21
-24.780223552971179
 31
0.0
  0
LINE
  5
29D
100
AcDbEntity
  8
0
  6
PHANTOM
 62
               2
100
AcDbLine
 10
-36.825317581701825
 20
-33.194863718034
 30
0.0
 11
-32.495190571836361
 21
-30.694863733720737
 31
0.0
  0
LINE
  5
29E
100
AcDbEntity
  8
0
  6
CENTER
 62
               2
100
AcDbLine
 10
-41.424148477050153
 20
-33.160272554407918
 30
0.0
 11
-14.214577794694264
 21
13.968086319569046
 31
0.0
  0
LINE
  5
29F
100
AcDbEntity
  8
0
  6
PHANTOM
 62
               2
100
AcDbLine
 10
-22.217622392718738
 20
16.106406460551018
 30
0.0
 11
-8.3612159321677382
 21
8.1064064605510175
 31
0.0
  0
LINE
  5
2A0
100
AcDbEntity
  8
0
  6
PHANTOM
 62
               2
100
AcDbLine
 10
-24.717622392718738
 20
11.776279441628823
 30
0.0
 11
-22.217622392718738
 21
16.106406460551018
 31
0.0
  0
LINE
  5
2A1
100
AcDbEntity
  8
0
  6
PHANTOM
 62
               2
100
AcDbLine
 10
-29.48076211353316
 20
14.526279441628823
 30
0.0
 11
-10.861215932167738
 21
3.7762794416288266
 31
0.0
  0
ARC
  5
2A2
100
AcDbEntity
  8
0
  6
PHANTOM
 62
               2
100
AcDbCircle
 10
-13.538282798806904
 20
15.139463613350593
 30
0.0
 40
10.702272727272714
100
AcDbArc
 50
202.60203439163718
 51
277.39796560836157
  0
LINE
  5
2A3
100
AcDbEntity
  8
0
  6
PHANTOM
 62
               2
100
AcDbLine
 10
-37.867513459481302
 20
1.0
 30
0.0
 11
-30.16377481542537
 21
14.343266739736606
 31
0.0
  0
ARC
  5
2A4
100
AcDbEntity
  8
0
  6
PHANTOM
 62
               2
100
AcDbCircle
 10
-29.73076211353316
 20
14.093266739736606
 30
0.0
 40
0.5
100
AcDbArc
 50
59.999999999999858
 51
149.99999999999966
  0
LINE
  5
2A5
100
AcDbEntity
  8
0
  6
PHANTOM
 62
               2
100
AcDbLine
 10
-8.3612159321677382
 20
8.1064064605510175
 30
0.0
 11
-10.861215932167738
 21
3.7762794416288266
 31
0.0
  0
ARC
  5
2A6
100
AcDbEntity
  8
0
  6
PHANTOM
 62
               2
100
AcDbCircle
 10
-11.544228634059948
 20
3.593266739736606
 30
0.0
 40
0.5
100
AcDbArc
 50
330.00000000000006
 51
59.999999999999829
  0
LINE
  5
2A7
100
AcDbEntity
  8
0
  6
PHANTOM
 62
               2
100
AcDbLine
 10
-15.350852961085877
 20
-4.0
 30
0.0
 11
-11.111215932167738
 21
3.343266739736606
 31
0.0
  0
LINE
  5
2A8
100
AcDbEntity
  8
0
  6
PHANTOM
 62
               2
100
AcDbLine
 10
-11.111215932167738
 20
-23.343266739736606
 30
0.0
 11
-14.888139720814422
 21
-16.801442841485013
 31
0.0
  0
ARC
  5
2A9
100
AcDbEntity
  8
0
  6
PHANTOM
 62
               2
100
AcDbCircle
 10
-13.538282798806904
 20
-35.139463613350593
 30
0.0
 40
10.702272727272714
100
AcDbArc
 50
82.602034391637474
 51
120.68597747597278
  0
ARC
  5
2AA
100
AcDbEntity
  8
0
  6
PHANTOM
 62
               2
100
AcDbCircle
 10
-11.544228634059948
 20
-23.593266739736606
 30
0.0
 40
0.5
100
AcDbArc
 50
300.00000000000011
 51
29.999999999999915
  0
LINE
  5
2AB
100
AcDbEntity
  8
0
  6
PHANTOM
 62
               2
100
AcDbLine
 10
-12.160254037844368
 20
-24.52627944162883
 30
0.0
 11
-11.294228634059948
 21
-24.02627944162883
 31
0.0
  0
LINE
  5
2AC
100
AcDbEntity
  8
0
  6
PHANTOM
 62
               2
100
AcDbLine
 10
-7.8000001907348633
 20
2.75
 30
0.0
 11
-5.0
 21
2.75
 31
0.0
  0
LINE
  5
2AD
100
AcDbEntity
  8
0
  6
PHANTOM
 62
               2
100
AcDbLine
 10
-7.799999031749735
 20
2.7500002050277317
 30
0.0
 11
-7.9999993893777628
 21
2.4035895780295959
 31
0.0
  0
LINE
  5
2AE
100
AcDbEntity
  8
0
  6
PHANTOM
 62
               2
100
AcDbLine
 10
-8.0
 20
2.4035892486572266
 30
0.0
 11
-8.0
 21
-2.4035892486572266
 31
0.0
  0
LINE
  5
2AF
100
AcDbEntity
  8
0
  6
PHANTOM
 62
               2
100
AcDbLine
 10
-7.8000001907348633
 20
2.75
 30
0.0
 11
-7.8000001907348633
 21
-2.5966223615322974
 31
0.0
  0
LINE
  5
2B0
100
AcDbEntity
  8
0
  6
PHANTOM
 62
               2
100
AcDbLine
 10
-7.8972776531022646
 20
-2.5815093566378096
 30
0.0
 11
-7.9999997653316086
 21
-2.4035893754789015
 31
0.0
  0
LINE
  5
2B1
100
AcDbEntity
  8
0
  6
PHANTOM
 62
               2
100
AcDbLine
 10
-7.0797135630328398
 20
-2.75
 30
0.0
 11
-5.0
 21
-2.75
 31
0.0
  0
LINE
  5
2B2
100
AcDbEntity
  8
0
  6
PHANTOM
 62
               2
100
AcDbLine
 10
0.0
 20
1.5
 30
0.0
 11
4.4000015258789062
 21
1.5
 31
0.0
  0
LINE
  5
2B3
100
AcDbEntity
  8
0
  6
PHANTOM
 62
               2
100
AcDbLine
 10
0.0
 20
1.2294998168945312
 30
0.0
 11
4.670501708984375
 21
1.2294998168945312
 31
0.0
  0
LINE
  5
2B4
100
AcDbEntity
  8
0
  6
PHANTOM
 62
               2
100
AcDbLine
 10
0.0
 20
-1.5
 30
0.0
 11
4.4000015258789062
 21
-1.5
 31
0.0
  0
LINE
  5
2B5
100
AcDbEntity
  8
0
  6
PHANTOM
 62
               2
100
AcDbLine
 10
0.0
 20
-1.2294998168945312
 30
0.0
 11
4.670501708984375
 21
-1.2294998168945312
 31
0.0
  0
LINE
  5
2B6
100
AcDbEntity
  8
0
  6
PHANTOM
 62
               2
100
AcDbLine
 10
4.3999996185302734
 20
1.5
 30
0.0
 11
4.3999996185302734
 21
-1.5
 31
0.0
  0
LINE
  5
2B7
100
AcDbEntity
  8
0
  6
PHANTOM
 62
               2
100
AcDbLine
 10
5.0
 20
0.8999999761581421
 30
0.0
 11
5.0
 21
-0.8999999761581421
 31
0.0
  0
LINE
  5
2B8
100
AcDbEntity
  8
0
  6
PHANTOM
 62
               2
100
AcDbLine
 10
5.0000004806032621
 20
0.9000028141068128
 30
0.0
 11
4.4000015800993424
 21
1.5000022709483574
 31
0.0
  0
LINE
  5
2B9
100
AcDbEntity
  8
0
  6
PHANTOM
 62
               2
100
AcDbLine
 10
5.0000004806032621
 20
-0.9000028141068128
 30
0.0
 11
4.4000015800993424
 21
-1.5000022709483574
 31
0.0
  0
LINE
  5
2BA
100
AcDbEntity
  8
0
  6
PHANTOM
 62
               2
100
AcDbLine
 10
-5.0
 20
2.75
 30
0.0
 11
-5.0
 21
2.5
 31
0.0
  0
LINE
  5
2BB
100
AcDbEntity
  8
0
  6
PHANTOM
 62
               2
100
AcDbLine
 10
-5.0
 20
-22.75
 30
0.0
 11
-5.0
 21
-22.5
 31
0.0
  0
LINE
  5
2BC
100
AcDbEntity
  8
0
  6
PHANTOM
 62
               2
100
AcDbLine
 10
5.0000004806032621
 20
-19.099997185893187
 30
0.0
 11
4.4000015800993424
 21
-18.499997729051643
 31
0.0
  0
LINE
  5
2BD
100
AcDbEntity
  8
0
  6
PHANTOM
 62
               2
100
AcDbLine
 10
5.0000004806032621
 20
-20.900002814106813
 30
0.0
 11
4.4000015800993424
 21
-21.500002270948357
 31
0.0
  0
LINE
  5
2BE
100
AcDbEntity
  8
0
  6
PHANTOM
 62
               2
100
AcDbLine
 10
5.0
 20
-20.899999976158142
 30
0.0
 11
5.0
 21
-19.100000023841858
 31
0.0
  0
LINE
  5
2BF
100
AcDbEntity
  8
0
  6
PHANTOM
 62
               2
100
AcDbLine
 10
4.3999996185302734
 20
-21.5
 30
0.0
 11
4.3999996185302734
 21
-18.5
 31
0.0
  0
LINE
  5
2C0
100
AcDbEntity
  8
0
  6
PHANTOM
 62
               2
100
AcDbLine
 10
0.0
 20
-18.770500183105469
 30
0.0
 11
4.670501708984375
 21
-18.770500183105469
 31
0.0
  0
LINE
  5
2C1
100
AcDbEntity
  8
0
  6
PHANTOM
 62
               2
100
AcDbLine
 10
0.0
 20
-18.5
 30
0.0
 11
4.4000015258789062
 21
-18.5
 31
0.0
  0
LINE
  5
2C2
100
AcDbEntity
  8
0
  6
PHANTOM
 62
               2
100
AcDbLine
 10
0.0
 20
-21.229499816894531
 30
0.0
 11
4.670501708984375
 21
-21.229499816894531
 31
0.0
  0
LINE
  5
2C3
100
AcDbEntity
  8
0
  6
PHANTOM
 62
               2
100
AcDbLine
 10
0.0
 20
-21.5
 30
0.0
 11
4.4000015258789062
 21
-21.5
 31
0.0
  0
LINE
  5
2C4
100
AcDbEntity
  8
0
  6
PHANTOM
 62
               2
100
AcDbLine
 10
-7.0797135630328398
 20
-17.25
 30
0.0
 11
-5.0
 21
-17.25
 31
0.0
  0
LINE
  5
2C5
100
AcDbEntity
  8
0
  6
PHANTOM
 62
               2
100
AcDbLine
 10
-7.8972776531022646
 20
-17.41849064336219
 30
0.0
 11
-7.9999997653316086
 21
-17.596410624521098
 31
0.0
  0
LINE
  5
2C6
100
AcDbEntity
  8
0
  6
PHANTOM
 62
               2
100
AcDbLine
 10
-7.8000001907348633
 20
-22.75
 30
0.0
 11
-7.8000001907348633
 21
-17.403377638467703
 31
0.0
  0
LINE
  5
2C7
100
AcDbEntity
  8
0
  6
PHANTOM
 62
               2
100
AcDbLine
 10
-8.0
 20
-22.403589248657227
 30
0.0
 11
-8.0
 21
-17.596410751342773
 31
0.0
  0
LINE
  5
2C8
100
AcDbEntity
  8
0
  6
PHANTOM
 62
               2
100
AcDbLine
 10
-7.799999031749735
 20
-22.750000205027732
 30
0.0
 11
-7.9999993893777628
 21
-22.403589578029596
 31
0.0
  0
LINE
  5
2C9
100
AcDbEntity
  8
0
  6
PHANTOM
 62
               2
100
AcDbLine
 10
-7.8000001907348633
 20
-22.75
 30
0.0
 11
-5.0
 21
-22.75
 31
0.0
  0
CIRCLE
  5
2CA
100
AcDbEntity
  8
0
  6
CONTINUOUS
 62
               7
100
AcDbCircle
 10
-25.5
 20
-24.0
 30
0.0
 40
1.5
  0
CIRCLE
  5
2CB
100
AcDbEntity
  8
0
  6
CONTINUOUS
 62
               2
100
AcDbCircle
 10
-25.5
 20
-24.0
 30
0.0
 40
1.25
  0
LINE
  5
2CC
100
AcDbEntity
  8
0
  6
CENTER
 62
               2
100
AcDbLine
 10
-27.640027512448683
 20
-24.0
 30
0.0
 11
-23.259640371143291
 21
-24.0
 31
0.0
  0
LINE
  5
2CD
100
AcDbEntity
  8
0
  6
CONTINUOUS
 62
               7
100
AcDbLine
 10
-26.25
 20
-24.430958234635327
 30
0.0
 11
-26.25
 21
-23.569041765364673
 31
0.0
  0
LINE
  5
2CE
100
AcDbEntity
  8
0
  6
CONTINUOUS
 62
               7
100
AcDbLine
 10
-24.75
 20
-24.430958234635327
 30
0.0
 11
-24.75
 21
-23.569041765364673
 31
0.0
  0
LINE
  5
2CF
100
AcDbEntity
  8
0
  6
CONTINUOUS
 62
               7
100
AcDbLine
 10
-26.25
 20
-23.569041765364673
 30
0.0
 11
-25.5
 21
-23.135000000000005
 31
0.0
  0
LINE
  5
2D0
100
AcDbEntity
  8
0
  6
CONTINUOUS
 62
               7
100
AcDbLine
 10
-25.5
 20
-23.135000000000005
 30
0.0
 11
-24.75
 21
-23.569041765364673
 31
0.0
  0
LINE
  5
2D1
100
AcDbEntity
  8
0
  6
CONTINUOUS
 62
               7
100
AcDbLine
 10
-24.75
 20
-24.430958234635327
 30
0.0
 11
-25.5
 21
-24.864999999999995
 31
0.0
  0
LINE
  5
2D2
100
AcDbEntity
  8
0
  6
CONTINUOUS
 62
               7
100
AcDbLine
 10
-25.5
 20
-24.864999999999995
 30
0.0
 11
-26.25
 21
-24.430958234635327
 31
0.0
  0
ENDBLK
  5
2D3
100
AcDbEntity
  8
0
100
AcDbBlockEnd
  0
BLOCK
  5
2D4
100
AcDbEntity
  8
0
100
AcDbBlockBegin
  2
DTRY-ELB-6
 70
               0
 10
0.0
 20
0.0
 30
0.0
  3
DTRY-ELB-6
  1

  0
LINE
  5
2D5
100
AcDbEntity
  8
0
  6
CONTINUOUS
 62
               7
100
AcDbLine
 10
-4.0000000033174388
 20
3.0
 30
0.0
 11
3.9999999966825612
 21
3.0
 31
0.0
  0
LINE
  5
2D6
100
AcDbEntity
  8
0
  6
CONTINUOUS
 62
               7
100
AcDbLine
 10
-4.0000000033174388
 20
-23.0
 30
0.0
 11
3.9999999966825612
 21
-23.0
 31
0.0
  0
LINE
  5
2D7
100
AcDbEntity
  8
0
  6
CONTINUOUS
 62
               7
100
AcDbLine
 10
-4.0
 20
3.0
 30
0.0
 11
-4.0
 21
-23.0
 31
0.0
  0
LINE
  5
2D8
100
AcDbEntity
  8
0
  6
CONTINUOUS
 62
               7
100
AcDbLine
 10
4.0
 20
3.0
 30
0.0
 11
4.0
 21
-23.0
 31
0.0
  0
LINE
  5
2D9
100
AcDbEntity
  8
0
  6
CENTER
 62
               2
100
AcDbLine
 10
-6.1395991511396062
 20
-10.0
 30
0.0
 11
33.601401996091909
 21
-10.0
 31
0.0
  0
LINE
  5
2DA
100
AcDbEntity
  8
0
  6
CONTINUOUS
 62
               7
100
AcDbLine
 10
-4.0000000033174388
 20
-4.0
 30
0.0
 11
3.9999999966825612
 21
-4.0
 31
0.0
  0
LINE
  5
2DB
100
AcDbEntity
  8
0
  6
CONTINUOUS
 62
               7
100
AcDbLine
 10
-4.0000000033174388
 20
-16.0
 30
0.0
 11
3.9999999966825612
 21
-16.0
 31
0.0
  0
LINE
  5
2DC
100
AcDbEntity
  8
0
  6
CONTINUOUS
 62
               7
100
AcDbLine
 10
-4.0000000033174388
 20
-9.6499999999999986
 30
0.0
 11
3.9999999966825612
 21
-9.6499999999999986
 31
0.0
  0
LINE
  5
2DD
100
AcDbEntity
  8
0
  6
CONTINUOUS
 62
               7
100
AcDbLine
 10
-4.0000000033174388
 20
-10.350000000000001
 30
0.0
 11
3.9999999966825612
 21
-10.350000000000001
 31
0.0
  0
LINE
  5
2DE
100
AcDbEntity
  8
0
  6
CENTER
 62
               2
100
AcDbLine
 10
-2.5282045685037247
 20
0.0
 30
0.0
 11
2.5605787070286681
 21
0.0
 31
0.0
  0
LINE
  5
2DF
100
AcDbEntity
  8
0
  6
CENTER
 62
               2
100
AcDbLine
 10
-2.9385903165305081
 20
-20.0
 30
0.0
 11
3.053041604660848
 21
-20.0
 31
0.0
  0
LINE
  5
2E0
100
AcDbEntity
  8
0
  6
CENTER
 62
               2
100
AcDbLine
 10
0.0
 20
2.4875182853909195
 30
0.0
 11
0.0
 21
-17.250858338968854
 31
0.0
  0
ARC
  5
2E1
100
AcDbEntity
  8
0
  6
CONTINUOUS
 62
               7
100
AcDbCircle
 10
0.0
 20
0.0
 30
0.0
 40
1.6499999999999999
100
AcDbArc
 50
322.69479903421421
 51
217.30520096578445
  0
CIRCLE
  5
2E2
100
AcDbEntity
  8
0
  6
CONTINUOUS
 62
               7
100
AcDbCircle
 10
0.0
 20
-20.0
 30
0.0
 40
1.6499999999999999
  0
LINE
  5
2E3
100
AcDbEntity
  8
0
  6
CENTER
 62
               2
100
AcDbLine
 10
0.0
 20
-17.046843320684992
 30
0.0
 11
0.0
 21
-22.874320942665626
 31
0.0
  0
LINE
  5
2E4
100
AcDbEntity
  8
0
  6
CONTINUOUS
 62
               7
100
AcDbLine
 10
29.0
 20
-3.0
 30
0.0
 11
29.0
 21
-17.0
 31
0.0
  0
LINE
  5
2E5
100
AcDbEntity
  8
0
  6
CONTINUOUS
 62
               7
100
AcDbLine
 10
25.046738469715535
 20
-2.5
 30
0.0
 11
28.5
 21
-2.5
 31
0.0
  0
LINE
  5
2E6
100
AcDbEntity
  8
0
  6
CONTINUOUS
 62
               7
100
AcDbLine
 10
25.046738469715535
 20
-17.5
 30
0.0
 11
28.5
 21
-17.5
 31
0.0
  0
LINE
  5
2E7
100
AcDbEntity
  8
0
  6
CONTINUOUS
 62
               7
100
AcDbLine
 10
4.0
 20
-7.0
 30
0.0
 11
6.4169947557416549
 21
-7.0
 31
0.0
  0
LINE
  5
2E8
100
AcDbEntity
  8
0
  6
CONTINUOUS
 62
               7
100
AcDbLine
 10
4.0
 20
-13.0
 30
0.0
 11
6.4169947557416549
 21
-13.0
 31
0.0
  0
LINE
  5
2E9
100
AcDbEntity
  8
0
  6
CENTER
 62
               2
100
AcDbLine
 10
17.0
 20
9.075634184169715
 30
0.0
 11
17.0
 21
-46.007642631196163
 31
0.0
  0
ARC
  5
2EA
100
AcDbEntity
  8
0
  6
CONTINUOUS
 62
               7
100
AcDbCircle
 10
17.0
 20
-10.0
 30
0.0
 40
11.0
100
AcDbArc
 50
92.605251265057078
 51
267.39474873494208
  0
LINE
  5
2EB
100
AcDbEntity
  8
0
  6
CONTINUOUS
 62
               7
100
AcDbLine
 10
8.9999999966825612
 20
1.0
 30
0.0
 11
24.999999996682561
 21
1.0
 31
0.0
  0
LINE
  5
2EC
100
AcDbEntity
  8
0
  6
CONTINUOUS
 62
               7
100
AcDbLine
 10
8.9999999966825612
 20
6.0
 30
0.0
 11
24.999999996682561
 21
6.0
 31
0.0
  0
LINE
  5
2ED
100
AcDbEntity
  8
0
  6
CONTINUOUS
 62
               7
100
AcDbLine
 10
25.0
 20
6.0
 30
0.0
 11
25.0
 21
1.0
 31
0.0
  0
LINE
  5
2EE
100
AcDbEntity
  8
0
  6
CONTINUOUS
 62
               7
100
AcDbLine
 10
9.0
 20
6.0
 30
0.0
 11
9.0
 21
1.0
 31
0.0
  0
LINE
  5
2EF
100
AcDbEntity
  8
0
  6
CONTINUOUS
 62
               7
100
AcDbLine
 10
23.5
 20
1.0
 30
0.0
 11
23.5
 21
-1.1258803253505789
 31
0.0
  0
LINE
  5
2F0
100
AcDbEntity
  8
0
  6
CONTINUOUS
 62
               7
100
AcDbLine
 10
10.5
 20
1.0
 30
0.0
 11
10.5
 21
-1.1258803253505754
 31
0.0
  0
LINE
  5
2F1
100
AcDbEntity
  8
0
  6
CONTINUOUS
 62
               7
100
AcDbLine
 10
12.999999937077916
 20
-44.0
 30
0.0
 11
20.999999996682561
 21
-44.0
 31
0.0
  0
LINE
  5
2F2
100
AcDbEntity
  8
0
  6
CONTINUOUS
 62
               7
100
AcDbLine
 10
20.999999966880239
 20
-44.000000007986344
 30
0.0
 11
23.499999966880239
 21
-39.669873007177628
 31
0.0
  0
LINE
  5
2F3
100
AcDbEntity
  8
0
  6
CONTINUOUS
 62
               7
100
AcDbLine
 10
12.999999937077916
 20
-43.999999948381699
 30
0.0
 11
10.500000026484884
 21
-39.669873066782273
 31
0.0
  0
LINE
  5
2F4
100
AcDbEntity
  8
0
  6
CONTINUOUS
 62
               7
100
AcDbLine
 10
23.5
 20
-18.874119674649421
 30
0.0
 11
23.5
 21
-39.669872949812522
 31
0.0
  0
LINE
  5
2F5
100
AcDbEntity
  8
0
  6
CONTINUOUS
 62
               7
100
AcDbLine
 10
10.5
 20
-18.874119674649421
 30
0.0
 11
10.5
 21
-39.669873020909101
 31
0.0
  0
LINE
  5
2F6
100
AcDbEntity
  8
0
  6
CONTINUOUS
 62
               7
100
AcDbLine
 10
10.500000026484884
 20
-39.669873066782273
 30
0.0
 11
23.499999966880239
 21
-39.669873007177628
 31
0.0
  0
LINE
  5
2F7
100
AcDbEntity
  8
0
  6
CONTINUOUS
 62
               7
100
AcDbLine
 10
17.5
 20
1.0
 30
0.0
 11
17.5
 21
-20.988630487917959
 31
0.0
  0
LINE
  5
2F8
100
AcDbEntity
  8
0
  6
CONTINUOUS
 62
               7
100
AcDbLine
 10
16.5
 20
1.0
 30
0.0
 11
16.5
 21
-20.988630487917959
 31
0.0
  0
ARC
  5
2F9
100
AcDbEntity
  8
0
  6
CONTINUOUS
 62
               7
100
AcDbCircle
 10
17.0
 20
-10.0
 30
0.0
 40
11.0
100
AcDbArc
 50
272.60525126505667
 51
87.394748734942482
  0
LINE
  5
2FA
100
AcDbEntity
  8
0
  6
CONTINUOUS
 62
               7
100
AcDbLine
 10
16.5
 20
-8.0
 30
0.0
 11
17.5
 21
-8.0
 31
0.0
  0
LINE
  5
2FB
100
AcDbEntity
  8
0
  6
CONTINUOUS
 62
               7
100
AcDbLine
 10
16.5
 20
-12.0
 30
0.0
 11
17.5
 21
-12.0
 31
0.0
  0
LINE
  5
2FC
100
AcDbEntity
  8
0
  6
CONTINUOUS
 62
               2
100
AcDbLine
 10
16.5
 20
-8.5
 30
0.0
 11
17.5
 21
-8.5
 31
0.0
  0
LINE
  5
2FD
100
AcDbEntity
  8
0
  6
CONTINUOUS
 62
               2
100
AcDbLine
 10
16.5
 20
-11.5
 30
0.0
 11
17.5
 21
-11.5
 31
0.0
  0
LINE
  5
2FE
100
AcDbEntity
  8
0
  6
CONTINUOUS
 62
               7
100
AcDbLine
 10
2.75
 20
-1.1999998092651367
 30
0.0
 11
2.75
 21
-4.0
 31
0.0
  0
LINE
  5
2FF
100
AcDbEntity
  8
0
  6
CONTINUOUS
 62
               7
100
AcDbLine
 10
2.7500002050277317
 20
-1.2000009682502366
 30
0.0
 11
2.4035895780295959
 21
-1.0000006106222656
 31
0.0
  0
LINE
  5
300
100
AcDbEntity
  8
0
  6
CONTINUOUS
 62
               7
100
AcDbLine
 10
2.4035892486572266
 20
-1.0
 30
0.0
 11
-2.4035892486572266
 21
-1.0
 31
0.0
  0
LINE
  5
301
100
AcDbEntity
  8
0
  6
CONTINUOUS
 62
               7
100
AcDbLine
 10
2.75
 20
-1.1999998092651367
 30
0.0
 11
-2.75
 21
-1.1999998092651367
 31
0.0
  0
LINE
  5
302
100
AcDbEntity
  8
0
  6
CONTINUOUS
 62
               7
100
AcDbLine
 10
-2.7499996610495714
 20
-1.20000023466838
 30
0.0
 11
-2.4035893754789015
 21
-1.0000002346683914
 31
0.0
  0
LINE
  5
303
100
AcDbEntity
  8
0
  6
CONTINUOUS
 62
               7
100
AcDbLine
 10
-2.75
 20
-1.1999998092651367
 30
0.0
 11
-2.75
 21
-4.0
 31
0.0
  0
LINE
  5
304
100
AcDbEntity
  8
0
  6
CONTINUOUS
 62
               7
100
AcDbLine
 10
1.5
 20
-9.6499999999999986
 30
0.0
 11
1.5
 21
-10.350000000000001
 31
0.0
  0
LINE
  5
305
100
AcDbEntity
  8
0
  6
CONTINUOUS
 62
               2
100
AcDbLine
 10
1.2294998168945312
 20
-9.6499999999999986
 30
0.0
 11
1.2294998168945312
 21
-10.350000000000001
 31
0.0
  0
LINE
  5
306
100
AcDbEntity
  8
0
  6
CONTINUOUS
 62
               7
100
AcDbLine
 10
-1.5
 20
-9.6499999999999986
 30
0.0
 11
-1.5
 21
-10.350000000000001
 31
0.0
  0
LINE
  5
307
100
AcDbEntity
  8
0
  6
CONTINUOUS
 62
               2
100
AcDbLine
 10
-1.2294998168945312
 20
-9.6499999999999986
 30
0.0
 11
-1.2294998168945312
 21
-10.350000000000001
 31
0.0
  0
ARC
  5
308
100
AcDbEntity
  8
0
  6
DASHED
 62
               7
100
AcDbCircle
 10
0.0
 20
0.0
 30
0.0
 40
1.6499999999999999
100
AcDbArc
 50
217.30520096578454
 51
322.69479903421421
  0
ARC
  5
309
100
AcDbEntity
  8
0
  6
CONTINUOUS
 62
               7
100
AcDbCircle
 10
28.5
 20
-3.0
 30
0.0
 40
0.5
100
AcDbArc
 50
0.0
 51
89.999999999999815
  0
ARC
  5
30A
100
AcDbEntity
  8
0
  6
CONTINUOUS
 62
               7
100
AcDbCircle
 10
28.5
 20
-17.0
 30
0.0
 40
0.5
100
AcDbArc
 50
270.00000000000023
 51
0.0
  0
LINE
  5
30B
100
AcDbEntity
  8
0
  6
PHANTOM
 62
               2
100
AcDbLine
 10
3.4641015824620354
 20
-41.44486371902741
 30
0.0
 11
7.7942285923274994
 21
-38.944863734714147
 31
0.0
  0
LINE
  5
30C
100
AcDbEntity
  8
0
  6
PHANTOM
 62
               2
100
AcDbLine
 10
9.7061863035313252
 20
-35.633255903225518
 30
0.0
 11
7.7942286496925988
 21
-38.944863701594386
 31
0.0
  0
LINE
  5
30D
100
AcDbEntity
  8
0
  6
PHANTOM
 62
               2
100
AcDbLine
 10
-3.464101635053396
 20
-32.444863816135602
 30
0.0
 11
7.7942285923274994
 21
-38.944863734714147
 31
0.0
  0
LINE
  5
30E
100
AcDbEntity
  8
0
  6
PHANTOM
 62
               2
100
AcDbLine
 10
1.6076422120832206
 20
-23.66034573695034
 30
0.0
 11
-3.464101635053396
 21
-32.444863763165827
 31
0.0
  0
LINE
  5
30F
100
AcDbEntity
  8
0
  6
PHANTOM
 62
               2
100
AcDbLine
 10
-3.4641016438207259
 20
-37.444863652507109
 30
0.0
 11
-3.464101635053396
 21
-32.444863816135602
 31
0.0
  0
LINE
  5
310
100
AcDbEntity
  8
0
  6
PHANTOM
 62
               2
100
AcDbLine
 10
-3.4641016696298834
 20
-37.444863697209875
 30
0.0
 11
3.4641016122647557
 21
-41.444863727012198
 31
0.0
  0
LINE
  5
311
100
AcDbEntity
  8
0
  6
CENTER
 62
               2
100
AcDbLine
 10
18.533150558687112
 20
-7.3445053367012889
 30
0.0
 11
-1.0038213155980884
 21
-41.183533249007425
 31
0.0
  0
LINE
  5
312
100
AcDbEntity
  8
0
  6
PHANTOM
 62
               2
100
AcDbLine
 10
23.941804297607149
 20
-35.02355773965558
 30
0.0
 11
26.205771385855712
 21
-38.944863763165827
 31
0.0
  0
LINE
  5
313
100
AcDbEntity
  8
0
  6
PHANTOM
 62
               2
100
AcDbLine
 10
26.205771431728863
 20
-38.944863789650718
 30
0.0
 11
37.464101599505113
 21
-32.444863767833908
 31
0.0
  0
LINE
  5
314
100
AcDbEntity
  8
0
  6
PHANTOM
 62
               2
100
AcDbLine
 10
30.535898304560988
 20
-41.4448637154292
 30
0.0
 11
26.205771431728863
 21
-38.944863789650718
 31
0.0
  0
LINE
  5
315
100
AcDbEntity
  8
0
  6
PHANTOM
 62
               2
100
AcDbLine
 10
37.464101590448365
 20
-37.444863752147171
 30
0.0
 11
37.464101599505113
 21
-32.444863767833908
 31
0.0
  0
LINE
  5
316
100
AcDbEntity
  8
0
  6
PHANTOM
 62
               2
100
AcDbLine
 10
29.316615779966014
 20
-18.33300430820573
 30
0.0
 11
37.464101599505113
 21
-32.444863701594386
 31
0.0
  0
LINE
  5
317
100
AcDbEntity
  8
0
  6
PHANTOM
 62
               2
100
AcDbLine
 10
30.535898330370117
 20
-41.444863760131952
 30
0.0
 11
37.464101612264756
 21
-37.444863730329644
 31
0.0
  0
LINE
  5
318
100
AcDbEntity
  8
0
  6
CENTER
 62
               2
100
AcDbLine
 10
15.466849441312888
 20
-7.3445053367012889
 30
0.0
 11
35.003821315598088
 21
-41.183533249007425
 31
0.0
  0
ENDBLK
  5
319
100
AcDbEntity
  8
0
100
AcDbBlockEnd
  0
BLOCK
  5
31A
100
AcDbEntity
  8
0
100
AcDbBlockBegin
  2
DTRY-ELB-7
 70
               0
 10
0.0
 20
0.0
 30
0.0
  3
DTRY-ELB-7
  1

  0
LINE
  5
31B
100
AcDbEntity
  8
0
  6
CONTINUOUS
 62
               7
100
AcDbLine
 10
-4.0
 20
-18.000000027305134
 30
0.0
 11
-4.0
 21
-0.0000000273051342
 31
0.0
  0
LINE
  5
31C
100
AcDbEntity
  8
0
  6
CONTINUOUS
 62
               7
100
AcDbLine
 10
4.0
 20
-18.000000027305134
 30
0.0
 11
4.0
 21
-0.0000000273051342
 31
0.0
  0
LINE
  5
31D
100
AcDbEntity
  8
0
  6
CONTINUOUS
 62
               7
100
AcDbLine
 10
-4.0000000033174388
 20
0.0
 30
0.0
 11
3.9999999966825612
 21
0.0
 31
0.0
  0
LINE
  5
31E
100
AcDbEntity
  8
0
  6
CONTINUOUS
 62
               7
100
AcDbLine
 10
-4.0000000033174388
 20
-18.0
 30
0.0
 11
3.9999999966825612
 21
-18.0
 31
0.0
  0
LINE
  5
31F
100
AcDbEntity
  8
0
  6
CONTINUOUS
 62
               7
100
AcDbLine
 10
-4.0000000033174388
 20
-5.0
 30
0.0
 11
4.0
 21
-5.0
 31
0.0
  0
LINE
  5
320
100
AcDbEntity
  8
0
  6
CENTER
 62
               2
100
AcDbLine
 10
-6.0925436504596746
 20
-9.0
 30
0.0
 11
32.315035531838419
 21
-9.0
 31
0.0
  0
LINE
  5
321
100
AcDbEntity
  8
0
  6
CONTINUOUS
 62
               7
100
AcDbLine
 10
29.0
 20
-16.0
 30
0.0
 11
29.0
 21
-2.0
 31
0.0
  0
LINE
  5
322
100
AcDbEntity
  8
0
  6
CONTINUOUS
 62
               7
100
AcDbLine
 10
10.5
 20
-1.5
 30
0.0
 11
12.5
 21
-1.5
 31
0.0
  0
LINE
  5
323
100
AcDbEntity
  8
0
  6
CONTINUOUS
 62
               7
100
AcDbLine
 10
10.5
 20
-16.5
 30
0.0
 11
12.5
 21
-16.5
 31
0.0
  0
LINE
  5
324
100
AcDbEntity
  8
0
  6
CONTINUOUS
 62
               7
100
AcDbLine
 10
10.0
 20
-16.0
 30
0.0
 11
10.0
 21
-2.0
 31
0.0
  0
LINE
  5
325
100
AcDbEntity
  8
0
  6
CONTINUOUS
 62
               7
100
AcDbLine
 10
4.0
 20
-6.0
 30
0.0
 11
10.0
 21
-6.0
 31
0.0
  0
LINE
  5
326
100
AcDbEntity
  8
0
  6
CONTINUOUS
 62
               7
100
AcDbLine
 10
4.0
 20
-12.0
 30
0.0
 11
10.0
 21
-12.0
 31
0.0
  0
LINE
  5
327
100
AcDbEntity
  8
0
  6
CENTER
 62
               2
100
AcDbLine
 10
17.0
 20
-41.191205979513327
 30
0.0
 11
17.0
 21
0.0446535755281587
 31
0.0
  0
LINE
  5
328
100
AcDbEntity
  8
0
  6
CONTINUOUS
 62
               7
100
AcDbLine
 10
6.5
 20
-39.5
 30
0.0
 11
16.5
 21
-39.5
 31
0.0
  0
LINE
  5
329
100
AcDbEntity
  8
0
  6
CONTINUOUS
 62
               7
100
AcDbLine
 10
6.5
 20
-17.5
 30
0.0
 11
27.5
 21
-17.5
 31
0.0
  0
LINE
  5
32A
100
AcDbEntity
  8
0
  6
CONTINUOUS
 62
               7
100
AcDbLine
 10
6.0
 20
-39.0
 30
0.0
 11
6.0
 21
-18.0
 31
0.0
  0
LINE
  5
32B
100
AcDbEntity
  8
0
  6
CONTINUOUS
 62
               7
100
AcDbLine
 10
28.0
 20
-39.0
 30
0.0
 11
28.0
 21
-18.0
 31
0.0
  0
LINE
  5
32C
100
AcDbEntity
  8
0
  6
CONTINUOUS
 62
               7
100
AcDbLine
 10
12.5
 20
-17.5
 30
0.0
 11
12.5
 21
-16.5
 31
0.0
  0
LINE
  5
32D
100
AcDbEntity
  8
0
  6
CONTINUOUS
 62
               7
100
AcDbLine
 10
21.5
 20
-17.5
 30
0.0
 11
21.5
 21
-16.5
 31
0.0
  0
LINE
  5
32E
100
AcDbEntity
  8
0
  6
CENTER
 62
               2
100
AcDbLine
 10
7.1802248451232344
 20
-25.5
 30
0.0
 11
26.896495886017703
 21
-25.5
 31
0.0
  0
LINE
  5
32F
100
AcDbEntity
  8
0
  6
CONTINUOUS
 62
               7
100
AcDbLine
 10
22.5
 20
-8.1339743137359619
 30
0.0
 11
22.5
 21
-9.8660256862640381
 31
0.0
  0
LINE
  5
330
100
AcDbEntity
  8
0
  6
CONTINUOUS
 62
               7
100
AcDbLine
 10
25.5
 20
-8.1339746117591858
 30
0.0
 11
25.5
 21
-9.8660253882408142
 31
0.0
  0
LINE
  5
331
100
AcDbEntity
  8
0
  6
CONTINUOUS
 62
               7
100
AcDbLine
 10
22.499999600137926
 20
-8.1339747389539525
 30
0.0
 11
23.999999752769781
 21
-7.2679493943467719
 31
0.0
  0
LINE
  5
332
100
AcDbEntity
  8
0
  6
CONTINUOUS
 62
               7
100
AcDbLine
 10
23.999999357440004
 20
-10.732050018165552
 30
0.0
 11
25.499999510071859
 21
-9.8660246735583712
 31
0.0
  0
LINE
  5
333
100
AcDbEntity
  8
0
  6
CONTINUOUS
 62
               7
100
AcDbLine
 10
23.999999357440004
 20
-7.2679499818344482
 30
0.0
 11
25.499999510071859
 21
-8.1339753264416288
 31
0.0
  0
LINE
  5
334
100
AcDbEntity
  8
0
  6
CONTINUOUS
 62
               7
100
AcDbLine
 10
22.499999600137926
 20
-9.8660252610460475
 30
0.0
 11
23.999999752769781
 21
-10.732050605653228
 31
0.0
  0
CIRCLE
  5
335
100
AcDbEntity
  8
0
  6
CONTINUOUS
 62
               7
100
AcDbCircle
 10
24.0
 20
-9.0
 30
0.0
 40
3.5
  0
CIRCLE
  5
336
100
AcDbEntity
  8
0
  6
CONTINUOUS
 62
               7
100
AcDbCircle
 10
24.0
 20
-8.9999998807907104
 30
0.0
 40
2.9803848266601563
  0
CIRCLE
  5
337
100
AcDbEntity
  8
0
  6
CONTINUOUS
 62
               7
100
AcDbCircle
 10
17.0
 20
-25.5
 30
0.0
 40
8.0
  0
CIRCLE
  5
338
100
AcDbEntity
  8
0
  6
CONTINUOUS
 62
               7
100
AcDbCircle
 10
17.0
 20
-25.5
 30
0.0
 40
3.0
  0
LINE
  5
339
100
AcDbEntity
  8
0
  6
CENTER
 62
               2
100
AcDbLine
 10
24.0
 20
-14.62232854025919
 30
0.0
 11
24.0
 21
-3.5619813476862987
 31
0.0
  0
CIRCLE
  5
33A
100
AcDbEntity
  8
0
  6
CONTINUOUS
 62
               7
100
AcDbCircle
 10
24.0
 20
-9.0
 30
0.0
 40
3.7000000000000002
  0
LINE
  5
33B
100
AcDbEntity
  8
0
  6
CONTINUOUS
 62
               7
100
AcDbLine
 10
16.5
 20
-39.5
 30
0.0
 11
16.5
 21
-33.484359711335657
 31
0.0
  0
LINE
  5
33C
100
AcDbEntity
  8
0
  6
CONTINUOUS
 62
               7
100
AcDbLine
 10
17.5
 20
-39.5
 30
0.0
 11
17.5
 21
-33.484359711335657
 31
0.0
  0
LINE
  5
33D
100
AcDbEntity
  8
0
  6
CONTINUOUS
 62
               7
100
AcDbLine
 10
17.5
 20
-39.5
 30
0.0
 11
27.5
 21
-39.5
 31
0.0
  0
ARC
  5
33E
100
AcDbEntity
  8
0
  6
CONTINUOUS
 62
               7
100
AcDbCircle
 10
6.5
 20
-39.0
 30
0.0
 40
0.5
100
AcDbArc
 50
179.99999999999963
 51
269.99999999999937
  0
ARC
  5
33F
100
AcDbEntity
  8
0
  6
CONTINUOUS
 62
               7
100
AcDbCircle
 10
27.5
 20
-39.0
 30
0.0
 40
0.5
100
AcDbArc
 50
269.99999999999937
 51
0.0
  0
ARC
  5
340
100
AcDbEntity
  8
0
  6
CONTINUOUS
 62
               7
100
AcDbCircle
 10
27.5
 20
-18.0
 30
0.0
 40
0.5
100
AcDbArc
 50
0.0
 51
89.999999999999815
  0
ARC
  5
341
100
AcDbEntity
  8
0
  6
CONTINUOUS
 62
               7
100
AcDbCircle
 10
6.5
 20
-18.0
 30
0.0
 40
0.5
100
AcDbArc
 50
89.999999999999815
 51
179.99999999999963
  0
ARC
  5
342
100
AcDbEntity
  8
0
  6
CONTINUOUS
 62
               7
100
AcDbCircle
 10
10.5
 20
-2.0
 30
0.0
 40
0.5
100
AcDbArc
 50
89.999999999999815
 51
179.99999999999963
  0
ARC
  5
343
100
AcDbEntity
  8
0
  6
CONTINUOUS
 62
               7
100
AcDbCircle
 10
10.5
 20
-16.0
 30
0.0
 40
0.5
100
AcDbArc
 50
179.99999999999963
 51
269.99999999999937
  0
ARC
  5
344
100
AcDbEntity
  8
0
  6
CONTINUOUS
 62
               7
100
AcDbCircle
 10
28.5
 20
-16.0
 30
0.0
 40
0.5
100
AcDbArc
 50
269.99999999999937
 51
0.0
  0
ARC
  5
345
100
AcDbEntity
  8
0
  6
CONTINUOUS
 62
               7
100
AcDbCircle
 10
28.5
 20
-2.0
 30
0.0
 40
0.5
100
AcDbArc
 50
0.0
 51
89.999999999999815
  0
LINE
  5
346
100
AcDbEntity
  8
0
  6
CENTER
 62
               2
100
AcDbLine
 10
0.0
 20
-8.430629075194517
 30
0.0
 11
0.0
 21
5.5429657846419218
 31
0.0
  0
LINE
  5
347
100
AcDbEntity
  8
0
  6
CONTINUOUS
 62
               7
100
AcDbLine
 10
-1.2500000033174388
 20
-13.278311967849731
 30
0.0
 11
-1.2500000033174388
 21
-14.721688032150269
 31
0.0
  0
LINE
  5
348
100
AcDbEntity
  8
0
  6
CONTINUOUS
 62
               7
100
AcDbLine
 10
1.2499999966825612
 20
-13.278312087059021
 30
0.0
 11
1.2499999966825612
 21
-14.721687912940979
 31
0.0
  0
LINE
  5
349
100
AcDbEntity
  8
0
  6
CONTINUOUS
 62
               7
100
AcDbLine
 10
-1.2499999235827204
 20
-13.278312044043076
 30
0.0
 11
0.0000000659594548
 21
-12.556624336343276
 31
0.0
  0
LINE
  5
34A
100
AcDbEntity
  8
0
  6
CONTINUOUS
 62
               7
100
AcDbLine
 10
-0.0000005494314337
 20
-15.443374837750497
 30
0.0
 11
1.2499994401107415
 21
-14.721687130050697
 31
0.0
  0
LINE
  5
34B
100
AcDbEntity
  8
0
  6
CONTINUOUS
 62
               7
100
AcDbLine
 10
-0.0000005494314337
 20
-12.556625162249503
 30
0.0
 11
1.2499994401107415
 21
-13.278312869949303
 31
0.0
  0
LINE
  5
34C
100
AcDbEntity
  8
0
  6
CONTINUOUS
 62
               7
100
AcDbLine
 10
-1.2499999235827204
 20
-14.721687955956924
 30
0.0
 11
0.0000000659594548
 21
-15.443375663656724
 31
0.0
  0
CIRCLE
  5
34D
100
AcDbEntity
  8
0
  6
CONTINUOUS
 62
               7
100
AcDbCircle
 10
-0.0000000033174388
 20
-14.0
 30
0.0
 40
2.75
  0
CIRCLE
  5
34E
100
AcDbEntity
  8
0
  6
CONTINUOUS
 62
               7
100
AcDbCircle
 10
-0.0000000033174388
 20
-13.99999988079071
 30
0.0
 40
2.4035892486572266
  0
LINE
  5
34F
100
AcDbEntity
  8
0
  6
CENTER
 62
               2
100
AcDbLine
 10
-3.7695188524662058
 20
-14.0
 30
0.0
 11
3.7872400830682693
 21
-14.0
 31
0.0
  0
LINE
  5
350
100
AcDbEntity
  8
0
  6
CENTER
 62
               2
100
AcDbLine
 10
-0.0000000033174388
 20
-17.673885194045042
 30
0.0
 11
-0.0000000033174388
 21
-9.7736372159862697
 31
0.0
  0
ARC
  5
351
100
AcDbEntity
  8
0
  6
CONTINUOUS
 62
               7
100
AcDbCircle
 10
17.0
 20
5.6384615384615415
 30
0.0
 40
8.438461538461544
100
AcDbArc
 50
237.77316353382088
 51
302.22683646617799
  0
ARC
  5
352
100
AcDbEntity
  8
0
  6
CONTINUOUS
 62
               7
100
AcDbCircle
 10
17.0
 20
-23.638461538461542
 30
0.0
 40
8.438461538461544
100
AcDbArc
 50
57.773163533821254
 51
122.22683646617834
  0
LINE
  5
353
100
AcDbEntity
  8
0
  6
CONTINUOUS
 62
               7
100
AcDbLine
 10
21.5
 20
-1.5
 30
0.0
 11
28.5
 21
-1.5
 31
0.0
  0
LINE
  5
354
100
AcDbEntity
  8
0
  6
CONTINUOUS
 62
               7
100
AcDbLine
 10
12.699999999999989
 20
-1.5
 30
0.0
 11
21.300000000000011
 21
-1.5
 31
0.0
  0
ARC
  5
355
100
AcDbEntity
  8
0
  6
CONTINUOUS
 62
               7
100
AcDbCircle
 10
21.300000000000011
 20
-1.7000000000000028
 30
0.0
 40
0.2
100
AcDbArc
 50
50.579376240798801
 51
89.999999999999815
  0
ARC
  5
356
100
AcDbEntity
  8
0
  6
CONTINUOUS
 62
               7
100
AcDbCircle
 10
12.699999999999989
 20
-1.7000000000000028
 30
0.0
 40
0.2
100
AcDbArc
 50
89.999999999999815
 51
129.4206237592
  0
LINE
  5
357
100
AcDbEntity
  8
0
  6
CONTINUOUS
 62
               7
100
AcDbLine
 10
21.5
 20
-16.5
 30
0.0
 11
28.5
 21
-16.5
 31
0.0
  0
LINE
  5
358
100
AcDbEntity
  8
0
  6
PHANTOM
 62
               2
100
AcDbLine
 10
-2.75
 20
-7.8000001907348633
 30
0.0
 11
-2.75
 21
-5.0
 31
0.0
  0
LINE
  5
359
100
AcDbEntity
  8
0
  6
PHANTOM
 62
               2
100
AcDbLine
 10
-2.7500002050277317
 20
-7.7999990317497634
 30
0.0
 11
-2.4035895780295959
 21
-7.9999993893777344
 31
0.0
  0
LINE
  5
35A
100
AcDbEntity
  8
0
  6
PHANTOM
 62
               2
100
AcDbLine
 10
-2.4035892486572266
 20
-8.0
 30
0.0
 11
2.4035892486572266
 21
-8.0
 31
0.0
  0
LINE
  5
35B
100
AcDbEntity
  8
0
  6
PHANTOM
 62
               2
100
AcDbLine
 10
-2.75
 20
-7.8000001907348633
 30
0.0
 11
2.75
 21
-7.8000001907348633
 31
0.0
  0
LINE
  5
35C
100
AcDbEntity
  8
0
  6
PHANTOM
 62
               2
100
AcDbLine
 10
2.7499996610495714
 20
-7.79999976533162
 30
0.0
 11
2.4035893754789015
 21
-7.9999997653316086
 31
0.0
  0
LINE
  5
35D
100
AcDbEntity
  8
0
  6
PHANTOM
 62
               2
100
AcDbLine
 10
2.75
 20
-7.8000001907348633
 30
0.0
 11
2.75
 21
-5.0
 31
0.0
  0
LINE
  5
35E
100
AcDbEntity
  8
0
  6
PHANTOM
 62
               2
100
AcDbLine
 10
-1.5
 20
0.0
 30
0.0
 11
-1.5
 21
4.3999996185302734
 31
0.0
  0
LINE
  5
35F
100
AcDbEntity
  8
0
  6
PHANTOM
 62
               2
100
AcDbLine
 10
-1.2294998168945312
 20
0.0
 30
0.0
 11
-1.2294998168945312
 21
4.6705037833351213
 31
0.0
  0
LINE
  5
360
100
AcDbEntity
  8
0
  6
PHANTOM
 62
               2
100
AcDbLine
 10
1.5
 20
0.0
 30
0.0
 11
1.5
 21
4.3999996185302734
 31
0.0
  0
LINE
  5
361
100
AcDbEntity
  8
0
  6
PHANTOM
 62
               2
100
AcDbLine
 10
1.2294998168945312
 20
0.0
 30
0.0
 11
1.2294998168945312
 21
4.6705037833351213
 31
0.0
  0
LINE
  5
362
100
AcDbEntity
  8
0
  6
PHANTOM
 62
               2
100
AcDbLine
 10
-1.5
 20
4.3999996185302734
 30
0.0
 11
1.5
 21
4.3999996185302734
 31
0.0
  0
LINE
  5
363
100
AcDbEntity
  8
0
  6
PHANTOM
 62
               2
100
AcDbLine
 10
-0.8999999761581421
 20
5.0
 30
0.0
 11
0.8999999761581421
 21
5.0
 31
0.0
  0
LINE
  5
364
100
AcDbEntity
  8
0
  6
PHANTOM
 62
               2
100
AcDbLine
 10
-0.9000028141068128
 20
5.0000004806032621
 30
0.0
 11
-1.5000022709483574
 21
4.4000015800993424
 31
0.0
  0
LINE
  5
365
100
AcDbEntity
  8
0
  6
PHANTOM
 62
               2
100
AcDbLine
 10
0.9000028141068128
 20
5.0000004806032621
 30
0.0
 11
1.5000022709483574
 21
4.4000015800993424
 31
0.0
  0
ENDBLK
  5
366
100
AcDbEntity
  8
0
100
AcDbBlockEnd
  0
BLOCK
  5
367
100
AcDbEntity
  8
0
100
AcDbBlockBegin
  2
DTRY-ELB-8
 70
               0
 10
0.0
 20
0.0
 30
0.0
  3
DTRY-ELB-8
  1

  0
LINE
  5
368
100
AcDbEntity
  8
0
  6
CENTER
 62
               2
100
AcDbLine
 10
10.0
 20
-2.1308043055780814
 30
0.0
 11
10.0
 21
57.160334560859937
 31
0.0
  0
LINE
  5
369
100
AcDbEntity
  8
0
  6
CENTER
 62
               2
100
AcDbLine
 10
15.804154289323378
 20
18.0
 30
0.0
 11
4.0439283984596841
 21
18.0
 31
0.0
  0
LINE
  5
36A
100
AcDbEntity
  8
0
  6
CENTER
 62
               2
100
AcDbLine
 10
0.0
 20
-2.032802423154223
 30
0.0
 11
0.0
 21
3.749308639853794
 31
0.0
  0
LINE
  5
36B
100
AcDbEntity
  8
0
  6
CENTER
 62
               2
100
AcDbLine
 10
20.0
 20
-1.6407948934587608
 30
0.0
 11
20.0
 21
3.0632954628867282
 31
0.0
  0
LINE
  5
36C
100
AcDbEntity
  8
0
  6
CENTER
 62
               2
100
AcDbLine
 10
17.17618064325751
 20
33.0
 30
0.0
 11
2.3778963972539486
 21
33.0
 31
0.0
  0
LINE
  5
36D
100
AcDbEntity
  8
0
  6
CENTER
 62
               2
100
AcDbLine
 10
-4.1999999999999886
 20
40.500000000000014
 30
0.0
 11
-4.1999999999999886
 21
55.500000000000014
 31
0.0
  0
LINE
  5
36E
100
AcDbEntity
  8
0
  6
CENTER
 62
               2
100
AcDbLine
 10
18.985400000000027
 20
48.000000000000014
 30
0.0
 11
-12.481780000000015
 21
48.000000000000014
 31
0.0
  0
LINE
  5
36F
100
AcDbEntity
  8
0
  6
CONTINUOUS
 62
               7
100
AcDbLine
 10
24.966630000000009
 20
40.000000000000014
 30
0.0
 11
-4.9666290000000117
 21
40.000000000000014
 31
0.0
  0
LINE
  5
370
100
AcDbEntity
  8
0
  6
CONTINUOUS
 62
               7
100
AcDbLine
 10
25.0
 20
39.000000000000014
 30
0.0
 11
25.0
 21
46.000000000000014
 31
0.0
  0
LINE
  5
371
100
AcDbEntity
  8
0
  6
CONTINUOUS
 62
               7
100
AcDbLine
 10
-5.0
 20
39.000000000000014
 30
0.0
 11
-5.0
 21
41.8078
 31
0.0
  0
LINE
  5
372
100
AcDbEntity
  8
0
  6
CONTINUOUS
 62
               7
100
AcDbLine
 10
3.0
 20
54.000000000000014
 30
0.0
 11
0.7749999999999773
 21
51.774999999999991
 31
0.0
  0
LINE
  5
373
100
AcDbEntity
  8
0
  6
CONTINUOUS
 62
               7
100
AcDbLine
 10
6.0200499999999693
 20
54.000000000000014
 30
0.0
 11
3.0
 21
54.000000000000014
 31
0.0
  0
LINE
  5
374
100
AcDbEntity
  8
0
  6
CONTINUOUS
 62
               7
100
AcDbLine
 10
17.0
 20
54.000000000000014
 30
0.0
 11
13.979949000000033
 21
54.000000000000014
 31
0.0
  0
LINE
  5
375
100
AcDbEntity
  8
0
  6
CONTINUOUS
 62
               7
100
AcDbLine
 10
17.0
 20
54.000000000000014
 30
0.0
 11
25.0
 21
46.000000000000014
 31
0.0
  0
ARC
  5
376
100
AcDbEntity
  8
0
  6
CONTINUOUS
 62
               7
100
AcDbCircle
 10
10.0
 20
39.000000000000014
 30
0.0
 40
15.000000000000005
100
AcDbArc
 50
109.17478699999974
 51
122.28540499999971
  0
CIRCLE
  5
377
100
AcDbEntity
  8
0
  6
CONTINUOUS
 62
               7
100
AcDbCircle
 10
-4.1999999999999886
 20
48.000000000000014
 30
0.0
 40
3.1000000000000014
  0
CIRCLE
  5
378
100
AcDbEntity
  8
0
  6
CONTINUOUS
 62
               7
100
AcDbCircle
 10
-4.1999999999999886
 20
48.000000000000014
 30
0.0
 40
6.25
  0
CIRCLE
  5
379
100
AcDbEntity
  8
0
  6
CONTINUOUS
 62
               7
100
AcDbCircle
 10
10.0
 20
48.000000000000014
 30
0.0
 40
4.0
  0
CIRCLE
  5
37A
100
AcDbEntity
  8
0
  6
CONTINUOUS
 62
               7
100
AcDbCircle
 10
10.0
 20
48.000000000000014
 30
0.0
 40
5.0
  0
CIRCLE
  5
37B
100
AcDbEntity
  8
0
  6
CONTINUOUS
 62
               7
100
AcDbCircle
 10
10.0
 20
48.000000000000014
 30
0.0
 40
7.2000000000000028
  0
LINE
  5
37C
100
AcDbEntity
  8
0
  6
CONTINUOUS
 62
               7
100
AcDbLine
 10
-10.449999999999989
 20
51.750000000000014
 30
0.0
 11
-9.1999999999999886
 21
51.750000000000014
 31
0.0
  0
LINE
  5
37D
100
AcDbEntity
  8
0
  6
CONTINUOUS
 62
               7
100
AcDbLine
 10
-10.449999999999989
 20
44.250000000000014
 30
0.0
 11
-9.1999999999999886
 21
44.250000000000014
 31
0.0
  0
LINE
  5
37E
100
AcDbEntity
  8
0
  6
CONTINUOUS
 62
               7
100
AcDbLine
 10
-10.449999999999989
 20
51.750000000000014
 30
0.0
 11
-10.449999999999989
 21
44.250000000000014
 31
0.0
  0
LINE
  5
37F
100
AcDbEntity
  8
0
  6
CONTINUOUS
 62
               7
100
AcDbLine
 10
2.8391699999999673
 20
48.750000000000014
 30
0.0
 11
2.0048400000000015
 21
48.750000000000014
 31
0.0
  0
LINE
  5
380
100
AcDbEntity
  8
0
  6
CONTINUOUS
 62
               7
100
AcDbLine
 10
2.8391699999999673
 20
47.250000000000014
 30
0.0
 11
2.0048400000000015
 21
47.250000000000014
 31
0.0
  0
LINE
  5
381
100
AcDbEntity
  8
0
  6
CONTINUOUS
 62
               7
100
AcDbLine
 10
3.8536599999999908
 20
51.750000000000014
 30
0.0
 11
0.8000000000000114
 21
51.750000000000014
 31
0.0
  0
LINE
  5
382
100
AcDbEntity
  8
0
  6
CONTINUOUS
 62
               7
100
AcDbLine
 10
3.8536599999999908
 20
44.250000000000014
 30
0.0
 11
0.8000000000000114
 21
44.250000000000014
 31
0.0
  0
LINE
  5
383
100
AcDbEntity
  8
0
  6
CONTINUOUS
 62
               7
100
AcDbLine
 10
7.11327
 20
53.000000000000014
 30
0.0
 11
4.2265199999999936
 21
48.000000000000014
 31
0.0
  0
LINE
  5
384
100
AcDbEntity
  8
0
  6
CONTINUOUS
 62
               7
100
AcDbLine
 10
15.773509999999987
 20
48.000000000000014
 30
0.0
 11
12.886750000000006
 21
43.000000000000014
 31
0.0
  0
LINE
  5
385
100
AcDbEntity
  8
0
  6
CONTINUOUS
 62
               7
100
AcDbLine
 10
12.886759999999981
 20
53.000000000000014
 30
0.0
 11
7.1132499999999936
 21
53.000000000000014
 31
0.0
  0
LINE
  5
386
100
AcDbEntity
  8
0
  6
CONTINUOUS
 62
               7
100
AcDbLine
 10
12.886750000000006
 20
43.000000000000014
 30
0.0
 11
7.1132499999999936
 21
43.000000000000014
 31
0.0
  0
LINE
  5
387
100
AcDbEntity
  8
0
  6
CONTINUOUS
 62
               7
100
AcDbLine
 10
4.2264799999999809
 20
48.000000000000014
 30
0.0
 11
7.1132299999999873
 21
43.000000000000014
 31
0.0
  0
LINE
  5
388
100
AcDbEntity
  8
0
  6
CONTINUOUS
 62
               7
100
AcDbLine
 10
12.886750000000006
 20
53.000000000000014
 30
0.0
 11
15.773500000000013
 21
48.000000000000014
 31
0.0
  0
CIRCLE
  5
389
100
AcDbEntity
  8
0
  6
CONTINUOUS
 62
               7
100
AcDbCircle
 10
10.0
 20
18.0
 30
0.0
 40
3.5
  0
ARC
  5
38A
100
AcDbEntity
  8
0
  6
CONTINUOUS
 62
               7
100
AcDbCircle
 10
25.691020999999978
 20
20.0
 30
0.0
 40
1.4716889999999978
100
AcDbArc
 50
269.99999999999937
 51
89.999999999999801
  0
LINE
  5
38B
100
AcDbEntity
  8
0
  6
CONTINUOUS
 62
               7
100
AcDbLine
 10
25.691020999999978
 20
21.471690000000009
 30
0.0
 11
24.97408999999999
 21
21.471690000000009
 31
0.0
  0
LINE
  5
38C
100
AcDbEntity
  8
0
  6
CONTINUOUS
 62
               7
100
AcDbLine
 10
25.691020999999978
 20
18.528311000000002
 30
0.0
 11
24.97408999999999
 21
18.528311000000002
 31
0.0
  0
LINE
  5
38D
100
AcDbEntity
  8
0
  6
CONTINUOUS
 62
               7
100
AcDbLine
 10
-0.4233679999999822
 20
40.000000000000014
 30
0.0
 11
-0.4233679999999822
 21
40.688952000000015
 31
0.0
  0
LINE
  5
38E
100
AcDbEntity
  8
0
  6
CONTINUOUS
 62
               7
100
AcDbLine
 10
-3.8088430000000244
 20
40.000000000000014
 30
0.0
 11
-3.8088430000000244
 21
40.688952000000015
 31
0.0
  0
ARC
  5
38F
100
AcDbEntity
  8
0
  6
CONTINUOUS
 62
               7
100
AcDbCircle
 10
-2.116106000000002
 20
38.126973000000007
 30
0.0
 40
3.0706839999999977
100
AcDbArc
 50
56.546668999999852
 51
123.45333099999974
  0
LINE
  5
390
100
AcDbEntity
  8
0
  6
CONTINUOUS
 62
               7
100
AcDbLine
 10
20.423366999999985
 20
40.000000000000014
 30
0.0
 11
20.423366999999985
 21
40.688952000000015
 31
0.0
  0
LINE
  5
391
100
AcDbEntity
  8
0
  6
CONTINUOUS
 62
               7
100
AcDbLine
 10
23.808842000000027
 20
40.000000000000014
 30
0.0
 11
23.808842000000027
 21
40.688952000000015
 31
0.0
  0
ARC
  5
392
100
AcDbEntity
  8
0
  6
CONTINUOUS
 62
               7
100
AcDbCircle
 10
22.116105000000005
 20
38.126973000000007
 30
0.0
 40
3.0706839999999977
100
AcDbArc
 50
56.546668999999852
 51
123.45333099999974
  0
LINE
  5
393
100
AcDbEntity
  8
0
  6
DASHED
 62
               7
100
AcDbLine
 10
22.25
 20
0.0
 30
0.0
 11
22.25
 21
1.0
 31
0.0
  0
LINE
  5
394
100
AcDbEntity
  8
0
  6
DASHED
 62
               7
100
AcDbLine
 10
2.25
 20
0.0
 30
0.0
 11
2.25
 21
1.0
 31
0.0
  0
LINE
  5
395
100
AcDbEntity
  8
0
  6
DASHED
 62
               7
100
AcDbLine
 10
17.75
 20
0.0
 30
0.0
 11
17.75
 21
1.0
 31
0.0
  0
LINE
  5
396
100
AcDbEntity
  8
0
  6
DASHED
 62
               7
100
AcDbLine
 10
-2.25
 20
0.0
 30
0.0
 11
-2.25
 21
1.0
 31
0.0
  0
LINE
  5
397
100
AcDbEntity
  8
0
  6
CONTINUOUS
 62
               7
100
AcDbLine
 10
25.0
 20
1.0
 30
0.0
 11
-5.0
 21
1.0
 31
0.0
  0
LINE
  5
398
100
AcDbEntity
  8
0
  6
CONTINUOUS
 62
               7
100
AcDbLine
 10
25.0
 20
0.0
 30
0.0
 11
-5.0
 21
0.0
 31
0.0
  0
LINE
  5
399
100
AcDbEntity
  8
0
  6
CONTINUOUS
 62
               7
100
AcDbLine
 10
25.0
 20
39.000000000000014
 30
0.0
 11
25.0
 21
0.0
 31
0.0
  0
LINE
  5
39A
100
AcDbEntity
  8
0
  6
CONTINUOUS
 62
               7
100
AcDbLine
 10
-5.0
 20
0.0
 30
0.0
 11
-5.0
 21
39.000000000000014
 31
0.0
  0
LINE
  5
39B
100
AcDbEntity
  8
0
  6
CONTINUOUS
 62
               7
100
AcDbLine
 10
25.0
 20
39.000000000000014
 30
0.0
 11
15.5
 21
39.000000000000014
 31
0.0
  0
LINE
  5
39C
100
AcDbEntity
  8
0
  6
CONTINUOUS
 62
               7
100
AcDbLine
 10
15.5
 20
27.0
 30
0.0
 11
4.5
 21
27.0
 31
0.0
  0
LINE
  5
39D
100
AcDbEntity
  8
0
  6
CONTINUOUS
 62
               7
100
AcDbLine
 10
-4.0
 20
1.0
 30
0.0
 11
-4.0
 21
39.000000000000014
 31
0.0
  0
LINE
  5
39E
100
AcDbEntity
  8
0
  6
CONTINUOUS
 62
               7
100
AcDbLine
 10
24.0
 20
39.000000000000014
 30
0.0
 11
24.0
 21
1.0
 31
0.0
  0
LINE
  5
39F
100
AcDbEntity
  8
0
  6
CONTINUOUS
 62
               7
100
AcDbLine
 10
15.5
 20
27.0
 30
0.0
 11
15.5
 21
39.000000000000014
 31
0.0
  0
LINE
  5
3A0
100
AcDbEntity
  8
0
  6
CONTINUOUS
 62
               7
100
AcDbLine
 10
4.5
 20
27.0
 30
0.0
 11
4.5
 21
39.000000000000014
 31
0.0
  0
LINE
  5
3A1
100
AcDbEntity
  8
0
  6
CONTINUOUS
 62
               7
100
AcDbLine
 10
4.5
 20
39.000000000000014
 30
0.0
 11
-5.0
 21
39.000000000000014
 31
0.0
  0
LINE
  5
3A2
100
AcDbEntity
  8
0
  6
CONTINUOUS
 62
               7
100
AcDbLine
 10
4.5
 20
39.000000000000014
 30
0.0
 11
8.5
 21
39.000000000000014
 31
0.0
  0
LINE
  5
3A3
100
AcDbEntity
  8
0
  6
CONTINUOUS
 62
               7
100
AcDbLine
 10
12.5
 20
39.000000000000014
 30
0.0
 11
12.5
 21
40.000000000000014
 31
0.0
  0
LINE
  5
3A4
100
AcDbEntity
  8
0
  6
CONTINUOUS
 62
               7
100
AcDbLine
 10
7.5
 20
39.000000000000014
 30
0.0
 11
7.5
 21
40.000000000000014
 31
0.0
  0
LINE
  5
3A5
100
AcDbEntity
  8
0
  6
CONTINUOUS
 62
               7
100
AcDbLine
 10
5.25
 20
28.25
 30
0.0
 11
5.25
 21
37.750000000000014
 31
0.0
  0
LINE
  5
3A6
100
AcDbEntity
  8
0
  6
CONTINUOUS
 62
               7
100
AcDbLine
 10
14.75
 20
28.25
 30
0.0
 11
14.75
 21
37.750000000000014
 31
0.0
  0
LINE
  5
3A7
100
AcDbEntity
  8
0
  6
CONTINUOUS
 62
               7
100
AcDbLine
 10
5.75
 20
37.250000000000014
 30
0.0
 11
9.75
 21
37.250000000000014
 31
0.0
  0
LINE
  5
3A8
100
AcDbEntity
  8
0
  6
CONTINUOUS
 62
               7
100
AcDbLine
 10
5.25
 20
28.25
 30
0.0
 11
14.75
 21
28.25
 31
0.0
  0
LINE
  5
3A9
100
AcDbEntity
  8
0
  6
CONTINUOUS
 62
               7
100
AcDbLine
 10
9.75
 20
29.75
 30
0.0
 11
9.75
 21
32.75
 31
0.0
  0
LINE
  5
3AA
100
AcDbEntity
  8
0
  6
CONTINUOUS
 62
               7
100
AcDbLine
 10
10.25
 20
28.75
 30
0.0
 11
10.25
 21
32.75
 31
0.0
  0
LINE
  5
3AB
100
AcDbEntity
  8
0
  6
CONTINUOUS
 62
               7
100
AcDbLine
 10
5.75
 20
33.25
 30
0.0
 11
9.75
 21
33.25
 31
0.0
  0
LINE
  5
3AC
100
AcDbEntity
  8
0
  6
CONTINUOUS
 62
               7
100
AcDbLine
 10
5.75
 20
32.75
 30
0.0
 11
9.75
 21
32.75
 31
0.0
  0
LINE
  5
3AD
100
AcDbEntity
  8
0
  6
CONTINUOUS
 62
               7
100
AcDbLine
 10
9.75
 20
33.25
 30
0.0
 11
9.75
 21
37.250000000000014
 31
0.0
  0
LINE
  5
3AE
100
AcDbEntity
  8
0
  6
CONTINUOUS
 62
               7
100
AcDbLine
 10
11.25
 20
33.25
 30
0.0
 11
13.25
 21
33.25
 31
0.0
  0
LINE
  5
3AF
100
AcDbEntity
  8
0
  6
CONTINUOUS
 62
               7
100
AcDbLine
 10
10.25
 20
32.75
 30
0.0
 11
14.25
 21
32.75
 31
0.0
  0
LINE
  5
3B0
100
AcDbEntity
  8
0
  6
CONTINUOUS
 62
               7
100
AcDbLine
 10
10.25
 20
34.250000000000014
 30
0.0
 11
10.25
 21
37.250000000000014
 31
0.0
  0
LINE
  5
3B1
100
AcDbEntity
  8
0
  6
CONTINUOUS
 62
               7
100
AcDbLine
 10
5.75
 20
29.75
 30
0.0
 11
5.75
 21
32.75
 31
0.0
  0
LINE
  5
3B2
100
AcDbEntity
  8
0
  6
CONTINUOUS
 62
               7
100
AcDbLine
 10
14.25
 20
28.75
 30
0.0
 11
14.25
 21
32.75
 31
0.0
  0
LINE
  5
3B3
100
AcDbEntity
  8
0
  6
CONTINUOUS
 62
               7
100
AcDbLine
 10
5.25
 20
37.750000000000014
 30
0.0
 11
14.75
 21
37.750000000000014
 31
0.0
  0
LINE
  5
3B4
100
AcDbEntity
  8
0
  6
CONTINUOUS
 62
               7
100
AcDbLine
 10
6.75
 20
28.75
 30
0.0
 11
8.75
 21
28.75
 31
0.0
  0
LINE
  5
3B5
100
AcDbEntity
  8
0
  6
CONTINUOUS
 62
               7
100
AcDbLine
 10
10.25
 20
28.75
 30
0.0
 11
14.25
 21
28.75
 31
0.0
  0
LINE
  5
3B6
100
AcDbEntity
  8
0
  6
CONTINUOUS
 62
               7
100
AcDbLine
 10
14.25
 20
34.250000000000014
 30
0.0
 11
14.25
 21
37.250000000000014
 31
0.0
  0
LINE
  5
3B7
100
AcDbEntity
  8
0
  6
CONTINUOUS
 62
               7
100
AcDbLine
 10
5.75
 20
33.25
 30
0.0
 11
5.75
 21
37.250000000000014
 31
0.0
  0
LINE
  5
3B8
100
AcDbEntity
  8
0
  6
CONTINUOUS
 62
               7
100
AcDbLine
 10
10.25
 20
37.250000000000014
 30
0.0
 11
14.25
 21
37.250000000000014
 31
0.0
  0
LINE
  5
3B9
100
AcDbEntity
  8
0
  6
CONTINUOUS
 62
               7
100
AcDbLine
 10
8.5
 20
39.750000000000014
 30
0.0
 11
11.5
 21
39.750000000000014
 31
0.0
  0
LINE
  5
3BA
100
AcDbEntity
  8
0
  6
CONTINUOUS
 62
               7
100
AcDbLine
 10
8.5
 20
37.750000000000014
 30
0.0
 11
8.5
 21
39.750000000000014
 31
0.0
  0
LINE
  5
3BB
100
AcDbEntity
  8
0
  6
CONTINUOUS
 62
               7
100
AcDbLine
 10
11.5
 20
37.750000000000014
 30
0.0
 11
11.5
 21
39.750000000000014
 31
0.0
  0
LINE
  5
3BC
100
AcDbEntity
  8
0
  6
CONTINUOUS
 62
               7
100
AcDbLine
 10
11.5
 20
39.000000000000014
 30
0.0
 11
15.5
 21
39.000000000000014
 31
0.0
  0
LINE
  5
3BD
100
AcDbEntity
  8
0
  6
CONTINUOUS
 62
               7
100
AcDbLine
 10
7.6499999999999773
 20
35.350000000000009
 30
0.0
 11
7.6499999999999773
 21
35.149999999999991
 31
0.0
  0
LINE
  5
3BE
100
AcDbEntity
  8
0
  6
CONTINUOUS
 62
               7
100
AcDbLine
 10
12.149999999999977
 20
35.350000000000009
 30
0.0
 11
12.149999999999977
 21
35.149999999999991
 31
0.0
  0
LINE
  5
3BF
100
AcDbEntity
  8
0
  6
CONTINUOUS
 62
               7
100
AcDbLine
 10
7.8500000000000227
 20
35.350000000000009
 30
0.0
 11
7.8500000000000227
 21
35.149999999999991
 31
0.0
  0
LINE
  5
3C0
100
AcDbEntity
  8
0
  6
CONTINUOUS
 62
               7
100
AcDbLine
 10
12.350000000000023
 20
35.350000000000009
 30
0.0
 11
12.350000000000023
 21
35.149999999999991
 31
0.0
  0
LINE
  5
3C1
100
AcDbEntity
  8
0
  6
CONTINUOUS
 62
               7
100
AcDbLine
 10
7.6499999999999773
 20
35.350000000000009
 30
0.0
 11
7.8500000000000227
 21
35.350000000000009
 31
0.0
  0
LINE
  5
3C2
100
AcDbEntity
  8
0
  6
CONTINUOUS
 62
               7
100
AcDbLine
 10
7.6499999999999773
 20
30.850000000000009
 30
0.0
 11
7.8500000000000227
 21
30.850000000000009
 31
0.0
  0
LINE
  5
3C3
100
AcDbEntity
  8
0
  6
CONTINUOUS
 62
               7
100
AcDbLine
 10
7.6499999999999773
 20
35.149999999999991
 30
0.0
 11
7.8500000000000227
 21
35.149999999999991
 31
0.0
  0
LINE
  5
3C4
100
AcDbEntity
  8
0
  6
CONTINUOUS
 62
               7
100
AcDbLine
 10
7.6499999999999773
 20
30.650000000000006
 30
0.0
 11
7.8500000000000227
 21
30.650000000000006
 31
0.0
  0
LINE
  5
3C5
100
AcDbEntity
  8
0
  6
CONTINUOUS
 62
               7
100
AcDbLine
 10
7.8500000000000227
 20
30.850000000000009
 30
0.0
 11
7.8500000000000227
 21
30.650000000000006
 31
0.0
  0
LINE
  5
3C6
100
AcDbEntity
  8
0
  6
CONTINUOUS
 62
               7
100
AcDbLine
 10
7.6499999999999773
 20
30.850000000000009
 30
0.0
 11
7.6499999999999773
 21
30.650000000000006
 31
0.0
  0
LINE
  5
3C7
100
AcDbEntity
  8
0
  6
CONTINUOUS
 62
               7
100
AcDbLine
 10
12.350000000000023
 20
30.850000000000009
 30
0.0
 11
12.350000000000023
 21
30.650000000000006
 31
0.0
  0
LINE
  5
3C8
100
AcDbEntity
  8
0
  6
CONTINUOUS
 62
               7
100
AcDbLine
 10
12.149999999999977
 20
30.850000000000009
 30
0.0
 11
12.149999999999977
 21
30.650000000000006
 31
0.0
  0
LINE
  5
3C9
100
AcDbEntity
  8
0
  6
CONTINUOUS
 62
               7
100
AcDbLine
 10
12.149999999999977
 20
35.350000000000009
 30
0.0
 11
12.350000000000023
 21
35.350000000000009
 31
0.0
  0
LINE
  5
3CA
100
AcDbEntity
  8
0
  6
CONTINUOUS
 62
               7
100
AcDbLine
 10
12.149999999999977
 20
35.149999999999991
 30
0.0
 11
12.350000000000023
 21
35.149999999999991
 31
0.0
  0
LINE
  5
3CB
100
AcDbEntity
  8
0
  6
CONTINUOUS
 62
               7
100
AcDbLine
 10
12.149999999999977
 20
30.650000000000006
 30
0.0
 11
12.350000000000023
 21
30.650000000000006
 31
0.0
  0
LINE
  5
3CC
100
AcDbEntity
  8
0
  6
CONTINUOUS
 62
               7
100
AcDbLine
 10
12.149999999999977
 20
30.850000000000009
 30
0.0
 11
12.350000000000023
 21
30.850000000000009
 31
0.0
  0
CIRCLE
  5
3CD
100
AcDbEntity
  8
0
  6
CONTINUOUS
 62
               7
100
AcDbCircle
 10
10.0
 20
18.0
 30
0.0
 40
4.0
  0
LINE
  5
3CE
100
AcDbEntity
  8
0
  6
CONTINUOUS
 62
               7
100
AcDbLine
 10
10.25
 20
34.250000000000014
 30
0.0
 11
11.25
 21
33.25
 31
0.0
  0
LINE
  5
3CF
100
AcDbEntity
  8
0
  6
CONTINUOUS
 62
               7
100
AcDbLine
 10
14.25
 20
34.250000000000014
 30
0.0
 11
13.25
 21
33.25
 31
0.0
  0
LINE
  5
3D0
100
AcDbEntity
  8
0
  6
CONTINUOUS
 62
               7
100
AcDbLine
 10
5.75
 20
29.75
 30
0.0
 11
6.75
 21
28.75
 31
0.0
  0
LINE
  5
3D1
100
AcDbEntity
  8
0
  6
CONTINUOUS
 62
               7
100
AcDbLine
 10
8.75
 20
28.75
 30
0.0
 11
9.75
 21
29.75
 31
0.0
  0
ENDBLK
  5
3D2
100
AcDbEntity
  8
0
100
AcDbBlockEnd
  0
BLOCK
  5
3D3
100
AcDbEntity
  8
0
100
AcDbBlockBegin
  2
DTRY-ELB-9
 70
               0
 10
0.0
 20
0.0
 30
0.0
  3
DTRY-ELB-9
  1

  0
LINE
  5
3D4
100
AcDbEntity
  8
0
  6
CENTER
 62
               2
100
AcDbLine
 10
-10.0
 20
-1.8924025632278045
 30
0.0
 11
-10.0
 21
56.146258344857003
 31
0.0
  0
LINE
  5
3D5
100
AcDbEntity
  8
0
  6
CENTER
 62
               2
100
AcDbLine
 10
-27.112779662360055
 20
39.000000000000014
 30
0.0
 11
7.1016931333644209
 21
39.000000000000014
 31
0.0
  0
LINE
  5
3D6
100
AcDbEntity
  8
0
  6
CENTER
 62
               2
100
AcDbLine
 10
0.0
 20
-1.8924025632278045
 30
0.0
 11
0.0
 21
3.1453112226457307
 31
0.0
  0
LINE
  5
3D7
100
AcDbEntity
  8
0
  6
CENTER
 62
               2
100
AcDbLine
 10
-20.0
 20
-1.7874501926887802
 30
0.0
 11
-20.0
 21
2.8304541110286294
 31
0.0
  0
LINE
  5
3D8
100
AcDbEntity
  8
0
  6
CENTER
 62
               2
100
AcDbLine
 10
-28.008185000000026
 20
20.0
 30
0.0
 11
-22.599827729181669
 21
20.0
 31
0.0
  0
LINE
  5
3D9
100
AcDbEntity
  8
0
  6
CENTER
 62
               2
100
AcDbLine
 10
-12.734304898512647
 20
48.000000000000014
 30
0.0
 11
-7.2143465739533497
 21
48.000000000000014
 31
0.0
  0
ARC
  5
3DA
100
AcDbEntity
  8
0
  6
CONTINUOUS
 62
               7
100
AcDbCircle
 10
4.1999999999999886
 20
48.000000000000014
 30
0.0
 40
6.2500000000000027
100
AcDbArc
 50
277.35403499999961
 51
142.80282999999991
  0
ARC
  5
3DB
100
AcDbEntity
  8
0
  6
CONTINUOUS
 62
               7
100
AcDbCircle
 10
4.1999999999999886
 20
48.000000000000014
 30
0.0
 40
4.5000000000000018
100
AcDbArc
 50
280.2403479999993
 51
145.86886499999989
  0
ARC
  5
3DC
100
AcDbEntity
  8
0
  6
CONTINUOUS
 62
               7
100
AcDbCircle
 10
4.1999999999999886
 20
48.000000000000014
 30
0.0
 40
3.1000000000000063
100
AcDbArc
 50
284.95524799999896
 51
345.99919799999901
  0
LINE
  5
3DD
100
AcDbEntity
  8
0
  6
CONTINUOUS
 62
               7
100
AcDbLine
 10
8.6370600000000195
 20
47.250000000000014
 30
0.0
 11
3.75
 21
47.250000000000014
 31
0.0
  0
LINE
  5
3DE
100
AcDbEntity
  8
0
  6
CONTINUOUS
 62
               7
100
AcDbLine
 10
2.25
 20
48.750000000000014
 30
0.0
 11
8.6370600000000195
 21
48.750000000000014
 31
0.0
  0
ARC
  5
3DF
100
AcDbEntity
  8
0
  6
CONTINUOUS
 62
               7
100
AcDbCircle
 10
4.1999999999999886
 20
48.000000000000014
 30
0.0
 40
3.0999999999999939
100
AcDbArc
 50
14.687528999999778
 51
150.88567499999948
  0
LINE
  5
3E0
100
AcDbEntity
  8
0
  6
CONTINUOUS
 62
               7
100
AcDbLine
 10
-3.0
 20
54.000000000000014
 30
0.0
 11
5.0
 21
46.000000000000014
 31
0.0
  0
LINE
  5
3E1
100
AcDbEntity
  8
0
  6
CONTINUOUS
 62
               7
100
AcDbLine
 10
5.0
 20
0.0
 30
0.0
 11
5.0
 21
46.000000000000014
 31
0.0
  0
LINE
  5
3E2
100
AcDbEntity
  8
0
  6
CONTINUOUS
 62
               7
100
AcDbLine
 10
-17.0
 20
54.000000000000014
 30
0.0
 11
-3.0
 21
54.000000000000014
 31
0.0
  0
LINE
  5
3E3
100
AcDbEntity
  8
0
  6
CONTINUOUS
 62
               7
100
AcDbLine
 10
-17.0
 20
54.000000000000014
 30
0.0
 11
-25.0
 21
46.000000000000014
 31
0.0
  0
LINE
  5
3E4
100
AcDbEntity
  8
0
  6
CONTINUOUS
 62
               7
100
AcDbLine
 10
-25.0
 20
0.0
 30
0.0
 11
-25.0
 21
46.000000000000014
 31
0.0
  0
LINE
  5
3E5
100
AcDbEntity
  8
0
  6
CONTINUOUS
 62
               7
100
AcDbLine
 10
-10.5
 20
24.033371000000002
 30
0.0
 11
-9.5
 21
24.033371000000002
 31
0.0
  0
LINE
  5
3E6
100
AcDbEntity
  8
0
  6
CONTINUOUS
 62
               7
100
AcDbLine
 10
-10.5
 20
23.0
 30
0.0
 11
-10.5
 21
24.033371000000002
 31
0.0
  0
LINE
  5
3E7
100
AcDbEntity
  8
0
  6
CONTINUOUS
 62
               7
100
AcDbLine
 10
-9.5
 20
23.0
 30
0.0
 11
-9.5
 21
24.033371000000002
 31
0.0
  0
LINE
  5
3E8
100
AcDbEntity
  8
0
  6
CONTINUOUS
 62
               7
100
AcDbLine
 10
4.0
 20
23.0
 30
0.0
 11
4.0
 21
1.0
 31
0.0
  0
LINE
  5
3E9
100
AcDbEntity
  8
0
  6
CONTINUOUS
 62
               7
100
AcDbLine
 10
-24.0
 20
23.0
 30
0.0
 11
-24.0
 21
1.0
 31
0.0
  0
CIRCLE
  5
3EA
100
AcDbEntity
  8
0
  6
CONTINUOUS
 62
               7
100
AcDbCircle
 10
-10.0
 20
48.000000000000014
 30
0.0
 40
1.0
  0
CIRCLE
  5
3EB
100
AcDbEntity
  8
0
  6
CONTINUOUS
 62
               7
100
AcDbCircle
 10
-10.0
 20
39.000000000000014
 30
0.0
 40
0.5
  0
CIRCLE
  5
3EC
100
AcDbEntity
  8
0
  6
CONTINUOUS
 62
               7
100
AcDbCircle
 10
-10.0
 20
39.000000000000014
 30
0.0
 40
4.0
  0
CIRCLE
  5
3ED
100
AcDbEntity
  8
0
  6
CONTINUOUS
 62
               7
100
AcDbCircle
 10
-10.0
 20
39.000000000000014
 30
0.0
 40
5.5
  0
CIRCLE
  5
3EE
100
AcDbEntity
  8
0
  6
CONTINUOUS
 62
               7
100
AcDbCircle
 10
-10.0
 20
39.000000000000014
 30
0.0
 40
12.0
  0
LINE
  5
3EF
100
AcDbEntity
  8
0
  6
CONTINUOUS
 62
               7
100
AcDbLine
 10
10.449999999999989
 20
51.750000000000014
 30
0.0
 11
9.1999999999999886
 21
51.750000000000014
 31
0.0
  0
LINE
  5
3F0
100
AcDbEntity
  8
0
  6
CONTINUOUS
 62
               7
100
AcDbLine
 10
10.449999999999989
 20
44.250000000000014
 30
0.0
 11
9.1999999999999886
 21
44.250000000000014
 31
0.0
  0
LINE
  5
3F1
100
AcDbEntity
  8
0
  6
CONTINUOUS
 62
               7
100
AcDbLine
 10
10.449999999999989
 20
51.750000000000014
 30
0.0
 11
10.449999999999989
 21
44.250000000000014
 31
0.0
  0
ARC
  5
3F2
100
AcDbEntity
  8
0
  6
CONTINUOUS
 62
               7
100
AcDbCircle
 10
-25.328310999999985
 20
20.0
 30
0.0
 40
1.4716889999999978
100
AcDbArc
 50
89.999999999999815
 51
269.99999999999937
  0
LINE
  5
3F3
100
AcDbEntity
  8
0
  6
CONTINUOUS
 62
               7
100
AcDbLine
 10
-25.328310999999985
 20
21.471688999999998
 30
0.0
 11
-25.0
 21
21.471688999999998
 31
0.0
  0
LINE
  5
3F4
100
AcDbEntity
  8
0
  6
CONTINUOUS
 62
               7
100
AcDbLine
 10
-25.328310999999985
 20
18.528311000000002
 30
0.0
 11
-25.0
 21
18.528311000000002
 31
0.0
  0
LINE
  5
3F5
100
AcDbEntity
  8
0
  6
DASHED
 62
               7
100
AcDbLine
 10
2.25
 20
0.0
 30
0.0
 11
2.25
 21
1.0
 31
0.0
  0
LINE
  5
3F6
100
AcDbEntity
  8
0
  6
DASHED
 62
               7
100
AcDbLine
 10
-17.75
 20
0.0
 30
0.0
 11
-17.75
 21
1.0
 31
0.0
  0
LINE
  5
3F7
100
AcDbEntity
  8
0
  6
DASHED
 62
               7
100
AcDbLine
 10
-2.2470000000000141
 20
0.0
 30
0.0
 11
-2.2470000000000141
 21
1.0
 31
0.0
  0
LINE
  5
3F8
100
AcDbEntity
  8
0
  6
DASHED
 62
               7
100
AcDbLine
 10
-22.247000000000014
 20
0.0
 30
0.0
 11
-22.247000000000014
 21
1.0
 31
0.0
  0
LINE
  5
3F9
100
AcDbEntity
  8
0
  6
CONTINUOUS
 62
               7
100
AcDbLine
 10
5.0
 20
0.0
 30
0.0
 11
-25.0
 21
0.0
 31
0.0
  0
LINE
  5
3FA
100
AcDbEntity
  8
0
  6
CONTINUOUS
 62
               7
100
AcDbLine
 10
5.0
 20
1.0
 30
0.0
 11
-25.0
 21
1.0
 31
0.0
  0
LINE
  5
3FB
100
AcDbEntity
  8
0
  6
CONTINUOUS
 62
               7
100
AcDbLine
 10
5.0
 20
23.0
 30
0.0
 11
-25.0
 21
23.0
 31
0.0
  0
ENDBLK
  5
3FC
100
AcDbEntity
  8
0
100
AcDbBlockEnd
  0
BLOCK
  5
3FD
100
AcDbEntity
  8
0
100
AcDbBlockBegin
  2
DTRY-ELB-10
 70
               0
 10
0.0
 20
0.0
 30
0.0
  3
DTRY-ELB-10
  1

  0
LINE
  5
3FE
100
AcDbEntity
  8
0
  6
CENTER
 62
               2
100
AcDbLine
 10
75.68012299999998
 20
-20.0
 30
0.0
 11
83.714905999999985
 21
-20.0
 31
0.0
  0
LINE
  5
3FF
100
AcDbEntity
  8
0
  6
CENTER
 62
               2
100
AcDbLine
 10
80.0
 20
-23.484970000000004
 30
0.0
 11
80.0
 21
-16.180622
 31
0.0
  0
LINE
  5
400
100
AcDbEntity
  8
0
  6
CENTER
 62
               2
100
AcDbLine
 10
75.68012299999998
 20
0.0
 30
0.0
 11
83.714905999999985
 21
0.0
 31
0.0
  0
LINE
  5
401
100
AcDbEntity
  8
0
  6
CENTER
 62
               2
100
AcDbLine
 10
80.0
 20
3.4849690000000066
 30
0.0
 11
80.0
 21
-3.8193780000000004
 31
0.0
  0
LINE
  5
402
100
AcDbEntity
  8
0
  6
CENTER
 62
               2
100
AcDbLine
 10
4.3198769999999911
 20
-20.0
 30
0.0
 11
-3.7149060000000134
 21
-20.0
 31
0.0
  0
LINE
  5
403
100
AcDbEntity
  8
0
  6
CENTER
 62
               2
100
AcDbLine
 10
0.0
 20
-23.484970000000004
 30
0.0
 11
0.0
 21
-16.180622
 31
0.0
  0
LINE
  5
404
100
AcDbEntity
  8
0
  6
CENTER
 62
               2
100
AcDbLine
 10
4.3198769999999911
 20
0.0
 30
0.0
 11
-3.7149060000000134
 21
0.0
 31
0.0
  0
LINE
  5
405
100
AcDbEntity
  8
0
  6
CENTER
 62
               2
100
AcDbLine
 10
0.0
 20
3.4849690000000066
 30
0.0
 11
0.0
 21
-3.8193780000000004
 31
0.0
  0
LINE
  5
406
100
AcDbEntity
  8
0
  6
CENTER
 62
               2
100
AcDbLine
 10
43.13591599999998
 20
4.1999999999999886
 30
0.0
 11
11.792815999999988
 21
4.1999999999999886
 31
0.0
  0
LINE
  5
407
100
AcDbEntity
  8
0
  6
CENTER
 62
               2
100
AcDbLine
 10
34.231015999999983
 20
-19.003799999999984
 30
0.0
 11
34.231015999999983
 21
11.988383829909878
 31
0.0
  0
LINE
  5
408
100
AcDbEntity
  8
0
  6
CENTER
 62
               2
100
AcDbLine
 10
-7.8956647150555455
 20
-10.0
 30
0.0
 11
88.007443736386733
 21
-10.0
 31
0.0
  0
LINE
  5
409
100
AcDbEntity
  8
0
  6
CONTINUOUS
 62
               7
100
AcDbLine
 10
74.0
 20
-17.0
 30
0.0
 11
41.0
 21
-17.0
 31
0.0
  0
LINE
  5
40A
100
AcDbEntity
  8
0
  6
CONTINUOUS
 62
               7
100
AcDbLine
 10
41.0
 20
-3.0
 30
0.0
 11
74.0
 21
-3.0
 31
0.0
  0
LINE
  5
40B
100
AcDbEntity
  8
0
  6
CONTINUOUS
 62
               7
100
AcDbLine
 10
79.0
 20
-10.5
 30
0.0
 11
74.0
 21
-10.5
 31
0.0
  0
LINE
  5
40C
100
AcDbEntity
  8
0
  6
CONTINUOUS
 62
               7
100
AcDbLine
 10
82.0
 20
-10.0
 30
0.0
 11
79.0
 21
-10.5
 31
0.0
  0
LINE
  5
40D
100
AcDbEntity
  8
0
  6
CONTINUOUS
 62
               7
100
AcDbLine
 10
79.0
 20
-9.5
 30
0.0
 11
82.0
 21
-10.0
 31
0.0
  0
LINE
  5
40E
100
AcDbEntity
  8
0
  6
CONTINUOUS
 62
               7
100
AcDbLine
 10
74.0
 20
-9.5
 30
0.0
 11
79.0
 21
-9.5
 31
0.0
  0
LINE
  5
40F
100
AcDbEntity
  8
0
  6
CONTINUOUS
 62
               7
100
AcDbLine
 10
86.0
 20
4.0
 30
0.0
 11
86.0
 21
-24.0
 31
0.0
  0
CIRCLE
  5
410
100
AcDbEntity
  8
0
  6
CONTINUOUS
 62
               7
100
AcDbCircle
 10
80.0
 20
-20.0
 30
0.0
 40
2.25
  0
CIRCLE
  5
411
100
AcDbEntity
  8
0
  6
CONTINUOUS
 62
               7
100
AcDbCircle
 10
80.0
 20
0.0
 30
0.0
 40
2.25
  0
LINE
  5
412
100
AcDbEntity
  8
0
  6
CONTINUOUS
 62
               7
100
AcDbLine
 10
15.831015999999977
 20
-12.5
 30
0.0
 11
19.831015999999977
 21
-12.5
 31
0.0
  0
LINE
  5
413
100
AcDbEntity
  8
0
  6
CONTINUOUS
 62
               7
100
AcDbLine
 10
15.831015999999977
 20
-12.067000000000007
 30
0.0
 11
19.831015999999977
 21
-12.067000000000007
 31
0.0
  0
LINE
  5
414
100
AcDbEntity
  8
0
  6
CONTINUOUS
 62
               7
100
AcDbLine
 10
15.831015999999977
 20
-7.9329999999999927
 30
0.0
 11
19.831015999999977
 21
-7.9329999999999927
 31
0.0
  0
LINE
  5
415
100
AcDbEntity
  8
0
  6
CONTINUOUS
 62
               7
100
AcDbLine
 10
15.831015999999977
 20
-7.5
 30
0.0
 11
19.831015999999977
 21
-7.5
 31
0.0
  0
LINE
  5
416
100
AcDbEntity
  8
0
  6
CONTINUOUS
 62
               7
100
AcDbLine
 10
15.331015999999977
 20
-14.0
 30
0.0
 11
15.331015999999977
 21
-6.0
 31
0.0
  0
LINE
  5
417
100
AcDbEntity
  8
0
  6
CONTINUOUS
 62
               7
100
AcDbLine
 10
12.331015999999977
 20
-14.0
 30
0.0
 11
12.331015999999977
 21
-6.0
 31
0.0
  0
LINE
  5
418
100
AcDbEntity
  8
0
  6
CONTINUOUS
 62
               7
100
AcDbLine
 10
15.831015999999977
 20
-6.5
 30
0.0
 11
15.331015999999977
 21
-6.0
 31
0.0
  0
LINE
  5
419
100
AcDbEntity
  8
0
  6
CONTINUOUS
 62
               7
100
AcDbLine
 10
15.33111599999998
 20
-13.999989999999997
 30
0.0
 11
15.83111599999998
 21
-13.499989999999997
 31
0.0
  0
LINE
  5
41A
100
AcDbEntity
  8
0
  6
CONTINUOUS
 62
               7
100
AcDbLine
 10
11.831015999999977
 20
-13.499989999999997
 30
0.0
 11
12.331015999999977
 21
-13.999989999999997
 31
0.0
  0
LINE
  5
41B
100
AcDbEntity
  8
0
  6
CONTINUOUS
 62
               7
100
AcDbLine
 10
12.331015999999977
 20
-5.9999899999999968
 30
0.0
 11
11.831015999999977
 21
-6.4999899999999968
 31
0.0
  0
LINE
  5
41C
100
AcDbEntity
  8
0
  6
CONTINUOUS
 62
               7
100
AcDbLine
 10
12.331015999999977
 20
-6.0
 30
0.0
 11
15.331015999999977
 21
-6.0
 31
0.0
  0
LINE
  5
41D
100
AcDbEntity
  8
0
  6
CONTINUOUS
 62
               7
100
AcDbLine
 10
12.331015999999977
 20
-14.0
 30
0.0
 11
15.331015999999977
 21
-14.0
 31
0.0
  0
LINE
  5
41E
100
AcDbEntity
  8
0
  6
CONTINUOUS
 62
               7
100
AcDbLine
 10
15.831015999999977
 20
-13.5
 30
0.0
 11
15.831015999999977
 21
-6.5
 31
0.0
  0
LINE
  5
41F
100
AcDbEntity
  8
0
  6
CONTINUOUS
 62
               7
100
AcDbLine
 10
11.831015999999977
 20
-13.5
 30
0.0
 11
11.831015999999977
 21
-6.4999899999999968
 31
0.0
  0
LINE
  5
420
100
AcDbEntity
  8
0
  6
CONTINUOUS
 62
               7
100
AcDbLine
 10
40.431016
 20
-5.5670000000000073
 30
0.0
 11
41.0
 21
-5.5847809999999924
 31
0.0
  0
LINE
  5
421
100
AcDbEntity
  8
0
  6
CONTINUOUS
 62
               7
100
AcDbLine
 10
40.431016
 20
-14.432999999999993
 30
0.0
 11
41.0
 21
-14.415220000000005
 31
0.0
  0
LINE
  5
422
100
AcDbEntity
  8
0
  6
CONTINUOUS
 62
               7
100
AcDbLine
 10
40.431016
 20
-15.01400000000001
 30
0.0
 11
41.0
 21
-14.996219999999994
 31
0.0
  0
LINE
  5
423
100
AcDbEntity
  8
0
  6
CONTINUOUS
 62
               7
100
AcDbLine
 10
40.431016
 20
-4.9860099999999932
 30
0.0
 11
41.0
 21
-5.0037900000000093
 31
0.0
  0
LINE
  5
424
100
AcDbEntity
  8
0
  6
CONTINUOUS
 62
               7
100
AcDbLine
 10
40.431016
 20
5.0
 30
0.0
 11
41.0
 21
5.0
 31
0.0
  0
LINE
  5
425
100
AcDbEntity
  8
0
  6
CONTINUOUS
 62
               7
100
AcDbLine
 10
6.0
 20
5.0
 30
0.0
 11
14.231015999999983
 21
5.0
 31
0.0
  0
ARC
  5
426
100
AcDbEntity
  8
0
  6
CONTINUOUS
 62
               7
100
AcDbCircle
 10
34.231015999999983
 20
-0.2843799999999987
 30
0.0
 40
4.5156300000000043
100
AcDbArc
 50
213.85499999999954
 51
326.14499999999924
  0
ARC
  5
427
100
AcDbEntity
  8
0
  6
CONTINUOUS
 62
               7
100
AcDbCircle
 10
38.931016
 20
8.9499999999999886
 30
0.0
 40
1.5
100
AcDbArc
 50
0.0
 51
89.999999999999815
  0
ARC
  5
428
100
AcDbEntity
  8
0
  6
CONTINUOUS
 62
               7
100
AcDbCircle
 10
32.481015999999983
 20
1.4499999999999886
 30
0.0
 40
1.75
100
AcDbArc
 50
269.99999999999937
 51
0.0
  0
ARC
  5
429
100
AcDbEntity
  8
0
  6
CONTINUOUS
 62
               7
100
AcDbCircle
 10
32.481015999999983
 20
6.9499999999999886
 30
0.0
 40
1.75
100
AcDbArc
 50
0.0
 51
89.999999999999815
  0
ARC
  5
42A
100
AcDbEntity
  8
0
  6
CONTINUOUS
 62
               7
100
AcDbCircle
 10
33.984515999999985
 20
-10.0
 30
0.0
 40
9.5534199999999956
100
AcDbArc
 50
162.41205999999963
 51
197.58799999999951
  0
ARC
  5
42B
100
AcDbEntity
  8
0
  6
CONTINUOUS
 62
               7
100
AcDbCircle
 10
26.484515999999985
 20
-14.330119999999994
 30
0.0
 40
2.1599199999999859
100
AcDbArc
 50
138.06766999999959
 51
161.93259999999964
  0
ARC
  5
42C
100
AcDbEntity
  8
0
  6
CONTINUOUS
 62
               7
100
AcDbCircle
 10
26.484515999999985
 20
-5.6698800000000062
 30
0.0
 40
2.1599200000000147
100
AcDbArc
 50
198.06739999999957
 51
221.93229999999943
  0
LINE
  5
42D
100
AcDbEntity
  8
0
  6
CONTINUOUS
 62
               7
100
AcDbLine
 10
30.481015999999983
 20
-0.3000000000000114
 30
0.0
 11
30.481015999999983
 21
-2.8000000000000114
 31
0.0
  0
LINE
  5
42E
100
AcDbEntity
  8
0
  6
CONTINUOUS
 62
               7
100
AcDbLine
 10
30.481015999999983
 20
8.6999999999999886
 30
0.0
 11
30.481015999999983
 21
-0.3000000000000114
 31
0.0
  0
LINE
  5
42F
100
AcDbEntity
  8
0
  6
CONTINUOUS
 62
               7
100
AcDbLine
 10
21.231015999999983
 20
-2.0500000000000114
 30
0.0
 11
21.231015999999983
 21
10.449999999999989
 31
0.0
  0
LINE
  5
430
100
AcDbEntity
  8
0
  6
CONTINUOUS
 62
               7
100
AcDbLine
 10
32.481015999999983
 20
8.6999999999999886
 30
0.0
 11
30.481015999999983
 21
8.6999999999999886
 31
0.0
  0
LINE
  5
431
100
AcDbEntity
  8
0
  6
CONTINUOUS
 62
               7
100
AcDbLine
 10
34.231015999999983
 20
1.4499999999999886
 30
0.0
 11
34.231015999999983
 21
6.9499999999999886
 31
0.0
  0
LINE
  5
432
100
AcDbEntity
  8
0
  6
CONTINUOUS
 62
               7
100
AcDbLine
 10
32.481015999999983
 20
-0.3000000000000114
 30
0.0
 11
30.481015999999983
 21
-0.3000000000000114
 31
0.0
  0
LINE
  5
433
100
AcDbEntity
  8
0
  6
CONTINUOUS
 62
               7
100
AcDbLine
 10
30.481015999999983
 20
10.449999999999989
 30
0.0
 11
30.481015999999983
 21
8.6999999999999886
 31
0.0
  0
LINE
  5
434
100
AcDbEntity
  8
0
  6
CONTINUOUS
 62
               7
100
AcDbLine
 10
28.731015999999983
 20
-2.0500099999999861
 30
0.0
 11
30.481015999999983
 21
-0.3000199999999893
 31
0.0
  0
LINE
  5
435
100
AcDbEntity
  8
0
  6
CONTINUOUS
 62
               7
100
AcDbLine
 10
28.731115999999986
 20
10.450019999999995
 30
0.0
 11
30.481115999999986
 21
8.700019999999995
 31
0.0
  0
LINE
  5
436
100
AcDbEntity
  8
0
  6
CONTINUOUS
 62
               7
100
AcDbLine
 10
28.731015999999983
 20
-2.0500000000000114
 30
0.0
 11
28.731015999999983
 21
10.450009999999992
 31
0.0
  0
LINE
  5
437
100
AcDbEntity
  8
0
  6
CONTINUOUS
 62
               7
100
AcDbLine
 10
19.231015999999983
 20
-1.5500000000000114
 30
0.0
 11
17.231015999999983
 21
-1.5500000000000114
 31
0.0
  0
LINE
  5
438
100
AcDbEntity
  8
0
  6
CONTINUOUS
 62
               7
100
AcDbLine
 10
28.731015999999983
 20
-2.0500000000000114
 30
0.0
 11
19.231015999999983
 21
-2.0500000000000114
 31
0.0
  0
LINE
  5
439
100
AcDbEntity
  8
0
  6
CONTINUOUS
 62
               7
100
AcDbLine
 10
38.931016
 20
10.449999999999989
 30
0.0
 11
19.231015999999983
 21
10.449999999999989
 31
0.0
  0
LINE
  5
43A
100
AcDbEntity
  8
0
  6
CONTINUOUS
 62
               7
100
AcDbLine
 10
19.231015999999983
 20
-2.0500000000000114
 30
0.0
 11
19.231015999999983
 21
10.449999999999989
 31
0.0
  0
LINE
  5
43B
100
AcDbEntity
  8
0
  6
CONTINUOUS
 62
               7
100
AcDbLine
 10
19.231015999999983
 20
9.9499999999999886
 30
0.0
 11
17.231015999999983
 21
9.9499999999999886
 31
0.0
  0
LINE
  5
43C
100
AcDbEntity
  8
0
  6
CONTINUOUS
 62
               7
100
AcDbLine
 10
17.231015999999983
 20
-1.5500000000000114
 30
0.0
 11
17.231015999999983
 21
9.9499999999999886
 31
0.0
  0
LINE
  5
43D
100
AcDbEntity
  8
0
  6
CONTINUOUS
 62
               7
100
AcDbLine
 10
17.231015999999983
 20
8.5
 30
0.0
 11
16.031015999999994
 21
8.5
 31
0.0
  0
LINE
  5
43E
100
AcDbEntity
  8
0
  6
CONTINUOUS
 62
               7
100
AcDbLine
 10
17.231015999999983
 20
-0.0999999999999943
 30
0.0
 11
16.031015999999994
 21
-0.0999999999999943
 31
0.0
  0
LINE
  5
43F
100
AcDbEntity
  8
0
  6
CONTINUOUS
 62
               7
100
AcDbLine
 10
16.031015999999994
 20
-1.6999999999999886
 30
0.0
 11
16.031015999999994
 21
10.100009999999997
 31
0.0
  0
LINE
  5
440
100
AcDbEntity
  8
0
  6
CONTINUOUS
 62
               7
100
AcDbLine
 10
16.031015999999994
 20
-1.6999999999999886
 30
0.0
 11
14.231015999999983
 21
-1.6999999999999886
 31
0.0
  0
LINE
  5
441
100
AcDbEntity
  8
0
  6
CONTINUOUS
 62
               7
100
AcDbLine
 10
16.031015999999994
 20
10.100009999999997
 30
0.0
 11
14.231015999999983
 21
10.100009999999997
 31
0.0
  0
LINE
  5
442
100
AcDbEntity
  8
0
  6
CONTINUOUS
 62
               7
100
AcDbLine
 10
14.231015999999983
 20
-1.6999999999999886
 30
0.0
 11
14.231015999999983
 21
10.100009999999997
 31
0.0
  0
LINE
  5
443
100
AcDbEntity
  8
0
  6
CONTINUOUS
 62
               7
100
AcDbLine
 10
37.981015999999983
 20
-2.8000000000000114
 30
0.0
 11
37.981015999999983
 21
10.449999999999989
 31
0.0
  0
LINE
  5
444
100
AcDbEntity
  8
0
  6
CONTINUOUS
 62
               7
100
AcDbLine
 10
28.431016
 20
-16.507180000000005
 30
0.0
 11
28.431016
 21
-2.0500000000000114
 31
0.0
  0
LINE
  5
445
100
AcDbEntity
  8
0
  6
CONTINUOUS
 62
               7
100
AcDbLine
 10
40.431016
 20
-16.507180000000005
 30
0.0
 11
40.431016
 21
8.9499999999999886
 31
0.0
  0
LINE
  5
446
100
AcDbEntity
  8
0
  6
CONTINUOUS
 62
               7
100
AcDbLine
 10
29.631015999999988
 20
-2.8000000000000114
 30
0.0
 11
30.481015999999983
 21
-2.8000000000000114
 31
0.0
  0
LINE
  5
447
100
AcDbEntity
  8
0
  6
CONTINUOUS
 62
               7
100
AcDbLine
 10
39.231015999999983
 20
-2.8000000000000114
 30
0.0
 11
37.981015999999983
 21
-2.8000000000000114
 31
0.0
  0
LINE
  5
448
100
AcDbEntity
  8
0
  6
CONTINUOUS
 62
               7
100
AcDbLine
 10
23.331015999999977
 20
-14.0
 30
0.0
 11
24.431016
 21
-14.0
 31
0.0
  0
LINE
  5
449
100
AcDbEntity
  8
0
  6
CONTINUOUS
 62
               7
100
AcDbLine
 10
23.331015999999977
 20
-6.0
 30
0.0
 11
24.431016
 21
-6.0
 31
0.0
  0
LINE
  5
44A
100
AcDbEntity
  8
0
  6
CONTINUOUS
 62
               7
100
AcDbLine
 10
22.831015999999977
 20
-15.0
 30
0.0
 11
22.831015999999977
 21
-5.0
 31
0.0
  0
LINE
  5
44B
100
AcDbEntity
  8
0
  6
CONTINUOUS
 62
               7
100
AcDbLine
 10
20.331015999999977
 20
-15.0
 30
0.0
 11
20.331015999999977
 21
-5.0
 31
0.0
  0
LINE
  5
44C
100
AcDbEntity
  8
0
  6
CONTINUOUS
 62
               7
100
AcDbLine
 10
23.331015999999977
 20
-5.4999899999999968
 30
0.0
 11
22.831015999999977
 21
-4.9999899999999968
 31
0.0
  0
LINE
  5
44D
100
AcDbEntity
  8
0
  6
CONTINUOUS
 62
               7
100
AcDbLine
 10
22.831015999999977
 20
-15.0
 30
0.0
 11
23.331015999999977
 21
-14.5
 31
0.0
  0
LINE
  5
44E
100
AcDbEntity
  8
0
  6
CONTINUOUS
 62
               7
100
AcDbLine
 10
19.831015999999977
 20
-14.5
 30
0.0
 11
20.331015999999977
 21
-15.0
 31
0.0
  0
LINE
  5
44F
100
AcDbEntity
  8
0
  6
CONTINUOUS
 62
               7
100
AcDbLine
 10
20.331015999999977
 20
-5.0
 30
0.0
 11
19.831015999999977
 21
-5.5
 31
0.0
  0
LINE
  5
450
100
AcDbEntity
  8
0
  6
CONTINUOUS
 62
               7
100
AcDbLine
 10
20.331015999999977
 20
-15.0
 30
0.0
 11
22.831015999999977
 21
-15.0
 31
0.0
  0
LINE
  5
451
100
AcDbEntity
  8
0
  6
CONTINUOUS
 62
               7
100
AcDbLine
 10
20.331015999999977
 20
-5.0
 30
0.0
 11
22.831015999999977
 21
-5.0
 31
0.0
  0
LINE
  5
452
100
AcDbEntity
  8
0
  6
CONTINUOUS
 62
               7
100
AcDbLine
 10
19.831015999999977
 20
-14.5
 30
0.0
 11
19.831015999999977
 21
-5.5
 31
0.0
  0
LINE
  5
453
100
AcDbEntity
  8
0
  6
CONTINUOUS
 62
               7
100
AcDbLine
 10
23.331015999999977
 20
-14.5
 30
0.0
 11
23.331015999999977
 21
-5.5
 31
0.0
  0
LINE
  5
454
100
AcDbEntity
  8
0
  6
CONTINUOUS
 62
               7
100
AcDbLine
 10
24.431016
 20
-15.000010000000003
 30
0.0
 11
24.877615999999989
 21
-15.773509999999987
 31
0.0
  0
LINE
  5
455
100
AcDbEntity
  8
0
  6
CONTINUOUS
 62
               7
100
AcDbLine
 10
24.431016
 20
-4.9999899999999968
 30
0.0
 11
24.877615999999989
 21
-4.2264899999999841
 31
0.0
  0
LINE
  5
456
100
AcDbEntity
  8
0
  6
CONTINUOUS
 62
               7
100
AcDbLine
 10
24.877615999999989
 20
-7.1132499999999936
 30
0.0
 11
28.431016
 21
-7.1132499999999936
 31
0.0
  0
LINE
  5
457
100
AcDbEntity
  8
0
  6
CONTINUOUS
 62
               7
100
AcDbLine
 10
24.877615999999989
 20
-12.88676000000001
 30
0.0
 11
28.431016
 21
-12.88676000000001
 31
0.0
  0
LINE
  5
458
100
AcDbEntity
  8
0
  6
CONTINUOUS
 62
               7
100
AcDbLine
 10
24.877615999999989
 20
-15.773509999999987
 30
0.0
 11
28.431016
 21
-15.773509999999987
 31
0.0
  0
LINE
  5
459
100
AcDbEntity
  8
0
  6
CONTINUOUS
 62
               7
100
AcDbLine
 10
24.877615999999989
 20
-4.2264899999999841
 30
0.0
 11
28.431016
 21
-4.2264899999999841
 31
0.0
  0
LINE
  5
45A
100
AcDbEntity
  8
0
  6
CONTINUOUS
 62
               7
100
AcDbLine
 10
24.431016
 20
-15.0
 30
0.0
 11
24.431016
 21
-5.0
 31
0.0
  0
LINE
  5
45B
100
AcDbEntity
  8
0
  6
CONTINUOUS
 62
               7
100
AcDbLine
 10
39.231015999999983
 20
-2.8000000000000114
 30
0.0
 11
40.431016
 21
-3.4928199999999947
 31
0.0
  0
LINE
  5
45C
100
AcDbEntity
  8
0
  6
CONTINUOUS
 62
               7
100
AcDbLine
 10
29.631115999999992
 20
-17.199999999999989
 30
0.0
 11
28.431016
 21
-16.507180000000005
 31
0.0
  0
LINE
  5
45D
100
AcDbEntity
  8
0
  6
CONTINUOUS
 62
               7
100
AcDbLine
 10
39.231015999999983
 20
-17.200009999999992
 30
0.0
 11
40.431016
 21
-16.507190000000008
 31
0.0
  0
LINE
  5
45E
100
AcDbEntity
  8
0
  6
CONTINUOUS
 62
               7
100
AcDbLine
 10
29.631015999999988
 20
-2.8000000000000114
 30
0.0
 11
28.431016
 21
-3.4928199999999947
 31
0.0
  0
LINE
  5
45F
100
AcDbEntity
  8
0
  6
CONTINUOUS
 62
               7
100
AcDbLine
 10
29.631015999999988
 20
-17.199999999999989
 30
0.0
 11
29.631015999999988
 21
-2.8000000000000114
 31
0.0
  0
LINE
  5
460
100
AcDbEntity
  8
0
  6
CONTINUOUS
 62
               7
100
AcDbLine
 10
39.231015999999983
 20
-17.199999999999989
 30
0.0
 11
39.231015999999983
 21
-2.8000000000000114
 31
0.0
  0
LINE
  5
461
100
AcDbEntity
  8
0
  6
CONTINUOUS
 62
               7
100
AcDbLine
 10
29.631015999999988
 20
-17.199999999999989
 30
0.0
 11
39.231015999999983
 21
-17.199999999999989
 31
0.0
  0
ARC
  5
462
100
AcDbEntity
  8
0
  6
CONTINUOUS
 62
               7
100
AcDbCircle
 10
85.0
 20
-24.0
 30
0.0
 40
1.0
100
AcDbArc
 50
269.99999999999937
 51
0.0
  0
LINE
  5
463
100
AcDbEntity
  8
0
  6
CONTINUOUS
 62
               7
100
AcDbLine
 10
85.0
 20
-25.0
 30
0.0
 11
79.0
 21
-25.0
 31
0.0
  0
ARC
  5
464
100
AcDbEntity
  8
0
  6
CONTINUOUS
 62
               7
100
AcDbCircle
 10
85.0
 20
4.0
 30
0.0
 40
1.0
100
AcDbArc
 50
0.0
 51
89.999999999999815
  0
LINE
  5
465
100
AcDbEntity
  8
0
  6
CONTINUOUS
 62
               7
100
AcDbLine
 10
79.0
 20
5.0
 30
0.0
 11
85.0
 21
5.0
 31
0.0
  0
ARC
  5
466
100
AcDbEntity
  8
0
  6
CONTINUOUS
 62
               7
100
AcDbCircle
 10
-5.0
 20
4.0
 30
0.0
 40
1.0
100
AcDbArc
 50
89.999999999999815
 51
179.99999999999963
  0
LINE
  5
467
100
AcDbEntity
  8
0
  6
CONTINUOUS
 62
               7
100
AcDbLine
 10
-5.0
 20
5.0
 30
0.0
 11
6.0
 21
5.0
 31
0.0
  0
LINE
  5
468
100
AcDbEntity
  8
0
  6
CONTINUOUS
 62
               7
100
AcDbLine
 10
-6.0
 20
-24.0
 30
0.0
 11
-6.0
 21
4.0
 31
0.0
  0
ARC
  5
469
100
AcDbEntity
  8
0
  6
CONTINUOUS
 62
               7
100
AcDbCircle
 10
-5.0
 20
-24.0
 30
0.0
 40
1.0
100
AcDbArc
 50
179.99999999999963
 51
269.99999999999937
  0
LINE
  5
46A
100
AcDbEntity
  8
0
  6
CONTINUOUS
 62
               7
100
AcDbLine
 10
6.0
 20
-25.0
 30
0.0
 11
-5.0
 21
-25.0
 31
0.0
  0
LINE
  5
46B
100
AcDbEntity
  8
0
  6
CONTINUOUS
 62
               7
100
AcDbLine
 10
8.0342349999999954
 20
-8.5
 30
0.0
 11
8.0342349999999954
 21
-11.5
 31
0.0
  0
LINE
  5
46C
100
AcDbEntity
  8
0
  6
CONTINUOUS
 62
               7
100
AcDbLine
 10
9.1808549999999798
 20
-8.5
 30
0.0
 11
6.0
 21
-8.5
 31
0.0
  0
LINE
  5
46D
100
AcDbEntity
  8
0
  6
CONTINUOUS
 62
               7
100
AcDbLine
 10
9.1808549999999798
 20
-11.5
 30
0.0
 11
9.1808549999999798
 21
-8.5
 31
0.0
  0
LINE
  5
46E
100
AcDbEntity
  8
0
  6
CONTINUOUS
 62
               7
100
AcDbLine
 10
6.0
 20
-11.5
 30
0.0
 11
9.1808549999999798
 21
-11.5
 31
0.0
  0
LINE
  5
46F
100
AcDbEntity
  8
0
  6
CONTINUOUS
 62
               7
100
AcDbLine
 10
11.0
 20
-12.5
 30
0.0
 11
6.0
 21
-12.5
 31
0.0
  0
LINE
  5
470
100
AcDbEntity
  8
0
  6
CONTINUOUS
 62
               7
100
AcDbLine
 10
11.0
 20
-7.5
 30
0.0
 11
11.0
 21
-12.5
 31
0.0
  0
LINE
  5
471
100
AcDbEntity
  8
0
  6
CONTINUOUS
 62
               7
100
AcDbLine
 10
6.0
 20
-7.5
 30
0.0
 11
11.0
 21
-7.5
 31
0.0
  0
LINE
  5
472
100
AcDbEntity
  8
0
  6
CONTINUOUS
 62
               7
100
AcDbLine
 10
-0.5
 20
-6.0
 30
0.0
 11
3.0
 21
-6.0
 31
0.0
  0
LINE
  5
473
100
AcDbEntity
  8
0
  6
CONTINUOUS
 62
               7
100
AcDbLine
 10
-0.5
 20
-14.0
 30
0.0
 11
3.0
 21
-14.0
 31
0.0
  0
LINE
  5
474
100
AcDbEntity
  8
0
  6
CONTINUOUS
 62
               7
100
AcDbLine
 10
4.0
 20
-6.5
 30
0.0
 11
5.0
 21
-6.5
 31
0.0
  0
LINE
  5
475
100
AcDbEntity
  8
0
  6
CONTINUOUS
 62
               7
100
AcDbLine
 10
4.0
 20
-13.5
 30
0.0
 11
5.0
 21
-13.5
 31
0.0
  0
LINE
  5
476
100
AcDbEntity
  8
0
  6
CONTINUOUS
 62
               7
100
AcDbLine
 10
5.0
 20
-13.5
 30
0.0
 11
5.0
 21
-6.5
 31
0.0
  0
LINE
  5
477
100
AcDbEntity
  8
0
  6
CONTINUOUS
 62
               7
100
AcDbLine
 10
4.0
 20
-13.5
 30
0.0
 11
4.0
 21
-6.5
 31
0.0
  0
LINE
  5
478
100
AcDbEntity
  8
0
  6
CONTINUOUS
 62
               7
100
AcDbLine
 10
3.0
 20
-14.0
 30
0.0
 11
3.0
 21
-6.0
 31
0.0
  0
LINE
  5
479
100
AcDbEntity
  8
0
  6
CONTINUOUS
 62
               7
100
AcDbLine
 10
-1.0
 20
-13.5
 30
0.0
 11
-1.0
 21
-6.5
 31
0.0
  0
LINE
  5
47A
100
AcDbEntity
  8
0
  6
CONTINUOUS
 62
               7
100
AcDbLine
 10
3.0
 20
-7.4456729999999993
 30
0.0
 11
4.0
 21
-7.4456729999999993
 31
0.0
  0
LINE
  5
47B
100
AcDbEntity
  8
0
  6
CONTINUOUS
 62
               7
100
AcDbLine
 10
3.0
 20
-12.554326000000003
 30
0.0
 11
4.0
 21
-12.554326000000003
 31
0.0
  0
LINE
  5
47C
100
AcDbEntity
  8
0
  6
CONTINUOUS
 62
               7
100
AcDbLine
 10
5.0
 20
-7.8196489999999983
 30
0.0
 11
6.0
 21
-7.8196489999999983
 31
0.0
  0
LINE
  5
47D
100
AcDbEntity
  8
0
  6
CONTINUOUS
 62
               7
100
AcDbLine
 10
5.0
 20
-12.180350000000004
 30
0.0
 11
6.0
 21
-12.180350000000004
 31
0.0
  0
LINE
  5
47E
100
AcDbEntity
  8
0
  6
CONTINUOUS
 62
               7
100
AcDbLine
 10
-0.5
 20
-6.0
 30
0.0
 11
-1.0
 21
-6.5
 31
0.0
  0
LINE
  5
47F
100
AcDbEntity
  8
0
  6
CONTINUOUS
 62
               7
100
AcDbLine
 10
-1.0
 20
-13.5
 30
0.0
 11
-0.5
 21
-14.0
 31
0.0
  0
LINE
  5
480
100
AcDbEntity
  8
0
  6
CONTINUOUS
 62
               7
100
AcDbLine
 10
-0.5
 20
-6.0
 30
0.0
 11
-0.5
 21
-14.0
 31
0.0
  0
CIRCLE
  5
481
100
AcDbEntity
  8
0
  6
CONTINUOUS
 62
               7
100
AcDbCircle
 10
23.5
 20
-22.0
 30
0.0
 40
2.0
  0
CIRCLE
  5
482
100
AcDbEntity
  8
0
  6
CONTINUOUS
 62
               7
100
AcDbCircle
 10
0.0
 20
-20.0
 30
0.0
 40
2.25
  0
CIRCLE
  5
483
100
AcDbEntity
  8
0
  6
CONTINUOUS
 62
               7
100
AcDbCircle
 10
0.0
 20
0.0
 30
0.0
 40
2.25
  0
LINE
  5
484
100
AcDbEntity
  8
0
  6
CONTINUOUS
 62
               7
100
AcDbLine
 10
6.0
 20
-25.0
 30
0.0
 11
6.0
 21
5.0
 31
0.0
  0
LINE
  5
485
100
AcDbEntity
  8
0
  6
CONTINUOUS
 62
               7
100
AcDbLine
 10
41.0
 20
-25.0
 30
0.0
 11
6.0
 21
-25.0
 31
0.0
  0
LINE
  5
486
100
AcDbEntity
  8
0
  6
CONTINUOUS
 62
               7
100
AcDbLine
 10
74.0
 20
5.0
 30
0.0
 11
74.0
 21
-25.0
 31
0.0
  0
LINE
  5
487
100
AcDbEntity
  8
0
  6
CONTINUOUS
 62
               7
100
AcDbLine
 10
74.0
 20
-25.0
 30
0.0
 11
41.0
 21
-25.0
 31
0.0
  0
LINE
  5
488
100
AcDbEntity
  8
0
  6
CONTINUOUS
 62
               7
100
AcDbLine
 10
41.0
 20
-25.0
 30
0.0
 11
41.0
 21
5.0
 31
0.0
  0
LINE
  5
489
100
AcDbEntity
  8
0
  6
CONTINUOUS
 62
               7
100
AcDbLine
 10
41.0
 20
5.0
 30
0.0
 11
74.0
 21
5.0
 31
0.0
  0
LINE
  5
48A
100
AcDbEntity
  8
0
  6
CONTINUOUS
 62
               7
100
AcDbLine
 10
79.0
 20
5.0
 30
0.0
 11
74.0
 21
5.0
 31
0.0
  0
LINE
  5
48B
100
AcDbEntity
  8
0
  6
CONTINUOUS
 62
               7
100
AcDbLine
 10
79.0
 20
-25.0
 30
0.0
 11
74.0
 21
-25.0
 31
0.0
  0
LINE
  5
48C
100
AcDbEntity
  8
0
  6
CONTINUOUS
 62
               7
100
AcDbLine
 10
22.115352000000001
 20
-22.0
 30
0.0
 11
24.884648000000027
 21
-22.0
 31
0.0
  0
LINE
  5
48D
100
AcDbEntity
  8
0
  6
CONTINUOUS
 62
               7
100
AcDbLine
 10
23.5
 20
-23.384647999999999
 30
0.0
 11
23.5
 21
-20.615352000000001
 31
0.0
  0
ENDBLK
  5
48E
100
AcDbEntity
  8
0
100
AcDbBlockEnd
  0
BLOCK
  5
48F
100
AcDbEntity
  8
0
100
AcDbBlockBegin
  2
DTRY-ELB-11
 70
               0
 10
0.0
 20
0.0
 30
0.0
  3
DTRY-ELB-11
  1

  0
LINE
  5
490
100
AcDbEntity
  8
0
  6
CONTINUOUS
 62
               7
100
AcDbLine
 10
-82.539999999999935
 20
114.26000000000001
 30
0.0
 11
-89.049999999999983
 21
114.26000000000001
 31
0.0
  0
LINE
  5
491
100
AcDbEntity
  8
0
  6
CONTINUOUS
 62
               7
100
AcDbLine
 10
-82.539999999999935
 20
117.15000000000001
 30
0.0
 11
-89.049999999999983
 21
117.15000000000001
 31
0.0
  0
LINE
  5
492
100
AcDbEntity
  8
0
  6
CONTINUOUS
 62
               7
100
AcDbLine
 10
-82.539999999999935
 20
122.91
 30
0.0
 11
-89.049999999999983
 21
122.91
 31
0.0
  0
LINE
  5
493
100
AcDbEntity
  8
0
  6
CONTINUOUS
 62
               7
100
AcDbLine
 10
-82.539999999999935
 20
125.8
 30
0.0
 11
-89.049999999999983
 21
125.8
 31
0.0
  0
LINE
  5
494
100
AcDbEntity
  8
0
  6
CENTER
 62
               2
100
AcDbLine
 10
-93.789075207088018
 20
120.03
 30
0.0
 11
-76.999999999999972
 21
120.03
 31
0.0
  0
LINE
  5
495
100
AcDbEntity
  8
0
  6
CONTINUOUS
 62
               7
100
AcDbLine
 10
96.000000000000028
 20
0.0
 30
0.0
 11
96.000000000000028
 21
134.0
 31
0.0
  0
LINE
  5
496
100
AcDbEntity
  8
0
  6
CONTINUOUS
 62
               7
100
AcDbLine
 10
96.000000000000028
 20
134.0
 30
0.0
 11
8.0000000000000284
 21
134.0
 31
0.0
  0
LINE
  5
497
100
AcDbEntity
  8
0
  6
CONTINUOUS
 62
               7
100
AcDbLine
 10
8.0000000000000284
 20
0.0
 30
0.0
 11
8.0000000000000284
 21
134.0
 31
0.0
  0
LINE
  5
498
100
AcDbEntity
  8
0
  6
CONTINUOUS
 62
               7
100
AcDbLine
 10
97.000000000000014
 20
135.0
 30
0.0
 11
97.0
 21
1.0
 31
0.0
  0
LINE
  5
499
100
AcDbEntity
  8
0
  6
CONTINUOUS
 62
               7
100
AcDbLine
 10
97.000000000000014
 20
135.0
 30
0.0
 11
7.0000000000000284
 21
135.0
 31
0.0
  0
LINE
  5
49A
100
AcDbEntity
  8
0
  6
CONTINUOUS
 62
               7
100
AcDbLine
 10
7.0000000000000284
 20
135.0
 30
0.0
 11
7.0000000000001137
 21
1.0
 31
0.0
  0
LINE
  5
49B
100
AcDbEntity
  8
0
  6
CONTINUOUS
 62
               7
100
AcDbLine
 10
103.0
 20
46.5
 30
0.0
 11
103.0
 21
73.5
 31
0.0
  0
LINE
  5
49C
100
AcDbEntity
  8
0
  6
CONTINUOUS
 62
               7
100
AcDbLine
 10
130.09999999999999
 20
68.719999999999999
 30
0.0
 11
130.09999999999999
 21
51.29000000000002
 31
0.0
  0
LINE
  5
49D
100
AcDbEntity
  8
0
  6
CONTINUOUS
 62
               7
100
AcDbLine
 10
129.11000000000001
 20
69.719999999999999
 30
0.0
 11
128.09999999999999
 21
69.740000000000009
 31
0.0
  0
LINE
  5
49E
100
AcDbEntity
  8
0
  6
CONTINUOUS
 62
               7
100
AcDbLine
 10
129.11000000000001
 20
50.29000000000002
 30
0.0
 11
128.09999999999999
 21
50.269999999999982
 31
0.0
  0
LINE
  5
49F
100
AcDbEntity
  8
0
  6
CONTINUOUS
 62
               7
100
AcDbLine
 10
128.09999999999999
 20
69.740000000000009
 30
0.0
 11
127.53999999999999
 21
70.699999999999989
 31
0.0
  0
LINE
  5
4A0
100
AcDbEntity
  8
0
  6
CONTINUOUS
 62
               7
100
AcDbLine
 10
128.09999999999999
 20
50.269999999999982
 30
0.0
 11
127.53999999999999
 21
49.299999999999997
 31
0.0
  0
LINE
  5
4A1
100
AcDbEntity
  8
0
  6
CONTINUOUS
 62
               7
100
AcDbLine
 10
110.09999999999999
 20
70.5
 30
0.0
 11
110.09999999999999
 21
49.5
 31
0.0
  0
LINE
  5
4A2
100
AcDbEntity
  8
0
  6
CONTINUOUS
 62
               7
100
AcDbLine
 10
106.0
 20
50.0
 30
0.0
 11
106.0
 21
70.0
 31
0.0
  0
LINE
  5
4A3
100
AcDbEntity
  8
0
  6
CONTINUOUS
 62
               7
100
AcDbLine
 10
105.0
 20
49.0
 30
0.0
 11
104.0
 21
49.0
 31
0.0
  0
LINE
  5
4A4
100
AcDbEntity
  8
0
  6
CONTINUOUS
 62
               7
100
AcDbLine
 10
105.0
 20
71.0
 30
0.0
 11
104.0
 21
71.0
 31
0.0
  0
LINE
  5
4A5
100
AcDbEntity
  8
0
  6
CONTINUOUS
 62
               7
100
AcDbLine
 10
106.0
 20
50.0
 30
0.0
 11
105.0
 21
49.0
 31
0.0
  0
LINE
  5
4A6
100
AcDbEntity
  8
0
  6
CONTINUOUS
 62
               7
100
AcDbLine
 10
105.0
 20
71.0
 30
0.0
 11
106.0
 21
70.0
 31
0.0
  0
LINE
  5
4A7
100
AcDbEntity
  8
0
  6
CONTINUOUS
 62
               7
100
AcDbLine
 10
104.0
 20
49.0
 30
0.0
 11
103.0
 21
48.0
 31
0.0
  0
LINE
  5
4A8
100
AcDbEntity
  8
0
  6
CONTINUOUS
 62
               7
100
AcDbLine
 10
104.0
 20
71.0
 30
0.0
 11
103.0
 21
72.0
 31
0.0
  0
LINE
  5
4A9
100
AcDbEntity
  8
0
  6
CONTINUOUS
 62
               7
100
AcDbLine
 10
110.09999999999999
 20
69.0
 30
0.0
 11
106.0
 21
69.0
 31
0.0
  0
LINE
  5
4AA
100
AcDbEntity
  8
0
  6
CONTINUOUS
 62
               7
100
AcDbLine
 10
110.09999999999999
 20
51.5
 30
0.0
 11
106.0
 21
51.5
 31
0.0
  0
LINE
  5
4AB
100
AcDbEntity
  8
0
  6
CONTINUOUS
 62
               7
100
AcDbLine
 10
127.53999999999999
 20
70.699999999999989
 30
0.0
 11
110.59
 21
71.0
 31
0.0
  0
LINE
  5
4AC
100
AcDbEntity
  8
0
  6
CONTINUOUS
 62
               7
100
AcDbLine
 10
127.53999999999999
 20
49.299999999999997
 30
0.0
 11
110.59
 21
49.010000000000005
 31
0.0
  0
LINE
  5
4AD
100
AcDbEntity
  8
0
  6
CONTINUOUS
 62
               7
100
AcDbLine
 10
110.09999999999999
 20
70.5
 30
0.0
 11
110.59
 21
71.0
 31
0.0
  0
LINE
  5
4AE
100
AcDbEntity
  8
0
  6
CONTINUOUS
 62
               7
100
AcDbLine
 10
110.09999999999999
 20
49.5
 30
0.0
 11
110.59
 21
49.010000000000005
 31
0.0
  0
LINE
  5
4AF
100
AcDbEntity
  8
0
  6
CENTER
 62
               2
100
AcDbLine
 10
93.404363704270054
 20
60.0
 30
0.0
 11
132.52000000000001
 21
60.0
 31
0.0
  0
LINE
  5
4B0
100
AcDbEntity
  8
0
  6
CONTINUOUS
 62
               7
100
AcDbLine
 10
105.0
 20
49.0
 30
0.0
 11
105.0
 21
71.0
 31
0.0
  0
LINE
  5
4B1
100
AcDbEntity
  8
0
  6
CONTINUOUS
 62
               7
100
AcDbLine
 10
104.0
 20
49.0
 30
0.0
 11
104.0
 21
71.0
 31
0.0
  0
LINE
  5
4B2
100
AcDbEntity
  8
0
  6
CONTINUOUS
 62
               7
100
AcDbLine
 10
101.5
 20
46.0
 30
0.0
 11
101.5
 21
74.0
 31
0.0
  0
LINE
  5
4B3
100
AcDbEntity
  8
0
  6
CONTINUOUS
 62
               7
100
AcDbLine
 10
127.53999999999999
 20
50.400000000000006
 30
0.0
 11
127.53999999999999
 21
54.639999999999986
 31
0.0
  0
LINE
  5
4B4
100
AcDbEntity
  8
0
  6
CONTINUOUS
 62
               7
100
AcDbLine
 10
112.03
 20
49.420000000000002
 30
0.0
 11
112.03
 21
50.400000000000006
 31
0.0
  0
LINE
  5
4B5
100
AcDbEntity
  8
0
  6
CONTINUOUS
 62
               7
100
AcDbLine
 10
112.03
 20
57.0
 30
0.0
 11
127.53999999999999
 21
57.0
 31
0.0
  0
LINE
  5
4B6
100
AcDbEntity
  8
0
  6
CONTINUOUS
 62
               7
100
AcDbLine
 10
112.03
 20
63.0
 30
0.0
 11
127.53999999999999
 21
63.0
 31
0.0
  0
LINE
  5
4B7
100
AcDbEntity
  8
0
  6
CONTINUOUS
 62
               7
100
AcDbLine
 10
112.59999999999999
 20
63.409999999999997
 30
0.0
 11
128.09999999999999
 21
63.409999999999997
 31
0.0
  0
LINE
  5
4B8
100
AcDbEntity
  8
0
  6
CONTINUOUS
 62
               7
100
AcDbLine
 10
112.59999999999999
 20
56.599999999999994
 30
0.0
 11
128.09999999999999
 21
56.599999999999994
 31
0.0
  0
LINE
  5
4B9
100
AcDbEntity
  8
0
  6
CONTINUOUS
 62
               7
100
AcDbLine
 10
112.59999999999999
 20
55.990000000000009
 30
0.0
 11
128.09999999999999
 21
55.990000000000009
 31
0.0
  0
LINE
  5
4BA
100
AcDbEntity
  8
0
  6
CONTINUOUS
 62
               7
100
AcDbLine
 10
112.03
 20
54.639999999999986
 30
0.0
 11
127.53999999999999
 21
54.639999999999986
 31
0.0
  0
LINE
  5
4BB
100
AcDbEntity
  8
0
  6
CONTINUOUS
 62
               7
100
AcDbLine
 10
112.03
 20
50.400000000000006
 30
0.0
 11
127.53999999999999
 21
50.400000000000006
 31
0.0
  0
LINE
  5
4BC
100
AcDbEntity
  8
0
  6
CONTINUOUS
 62
               7
100
AcDbLine
 10
112.59999999999999
 20
64.019999999999982
 30
0.0
 11
128.09999999999999
 21
64.019999999999982
 31
0.0
  0
LINE
  5
4BD
100
AcDbEntity
  8
0
  6
CONTINUOUS
 62
               7
100
AcDbLine
 10
112.03
 20
65.370000000000005
 30
0.0
 11
127.53999999999999
 21
65.370000000000005
 31
0.0
  0
LINE
  5
4BE
100
AcDbEntity
  8
0
  6
CONTINUOUS
 62
               7
100
AcDbLine
 10
112.03
 20
69.610000000000014
 30
0.0
 11
127.53999999999999
 21
69.610000000000014
 31
0.0
  0
LINE
  5
4BF
100
AcDbEntity
  8
0
  6
CONTINUOUS
 62
               7
100
AcDbLine
 10
128.09999999999999
 20
56.599999999999994
 30
0.0
 11
128.09999999999999
 21
63.409999999999997
 31
0.0
  0
LINE
  5
4C0
100
AcDbEntity
  8
0
  6
CONTINUOUS
 62
               7
100
AcDbLine
 10
128.09999999999999
 20
64.019999999999982
 30
0.0
 11
128.09999999999999
 21
68.829999999999984
 31
0.0
  0
LINE
  5
4C1
100
AcDbEntity
  8
0
  6
CONTINUOUS
 62
               7
100
AcDbLine
 10
128.09999999999999
 20
51.180000000000007
 30
0.0
 11
128.09999999999999
 21
55.990000000000009
 31
0.0
  0
LINE
  5
4C2
100
AcDbEntity
  8
0
  6
CONTINUOUS
 62
               7
100
AcDbLine
 10
127.53999999999999
 20
57.0
 30
0.0
 11
127.53999999999999
 21
63.0
 31
0.0
  0
LINE
  5
4C3
100
AcDbEntity
  8
0
  6
CONTINUOUS
 62
               7
100
AcDbLine
 10
127.53999999999999
 20
65.370000000000005
 30
0.0
 11
127.53999999999999
 21
69.610000000000014
 31
0.0
  0
LINE
  5
4C4
100
AcDbEntity
  8
0
  6
CONTINUOUS
 62
               7
100
AcDbLine
 10
112.03
 20
70.590000000000003
 30
0.0
 11
127.53999999999999
 21
70.590000000000003
 31
0.0
  0
LINE
  5
4C5
100
AcDbEntity
  8
0
  6
CONTINUOUS
 62
               7
100
AcDbLine
 10
112.03
 20
49.420000000000002
 30
0.0
 11
127.53999999999999
 21
49.420000000000002
 31
0.0
  0
LINE
  5
4C6
100
AcDbEntity
  8
0
  6
CONTINUOUS
 62
               7
100
AcDbLine
 10
128.09999999999999
 20
68.829999999999984
 30
0.0
 11
127.53999999999999
 21
69.610000000000014
 31
0.0
  0
LINE
  5
4C7
100
AcDbEntity
  8
0
  6
CONTINUOUS
 62
               7
100
AcDbLine
 10
128.09999999999999
 20
51.180000000000007
 30
0.0
 11
127.53999999999999
 21
50.400000000000006
 31
0.0
  0
LINE
  5
4C8
100
AcDbEntity
  8
0
  6
CONTINUOUS
 62
               7
100
AcDbLine
 10
127.53999999999999
 20
54.639999999999986
 30
0.0
 11
128.09999999999999
 21
55.990000000000009
 31
0.0
  0
LINE
  5
4C9
100
AcDbEntity
  8
0
  6
CONTINUOUS
 62
               7
100
AcDbLine
 10
127.53999999999999
 20
57.0
 30
0.0
 11
128.09999999999999
 21
56.599999999999994
 31
0.0
  0
LINE
  5
4CA
100
AcDbEntity
  8
0
  6
CONTINUOUS
 62
               7
100
AcDbLine
 10
127.53999999999999
 20
63.0
 30
0.0
 11
128.09999999999999
 21
63.409999999999997
 31
0.0
  0
LINE
  5
4CB
100
AcDbEntity
  8
0
  6
CONTINUOUS
 62
               7
100
AcDbLine
 10
127.53999999999999
 20
65.370000000000005
 30
0.0
 11
128.09999999999999
 21
64.019999999999982
 31
0.0
  0
LINE
  5
4CC
100
AcDbEntity
  8
0
  6
CONTINUOUS
 62
               7
100
AcDbLine
 10
112.59999999999999
 20
63.409999999999997
 30
0.0
 11
112.59999999999999
 21
64.019999999999982
 31
0.0
  0
LINE
  5
4CD
100
AcDbEntity
  8
0
  6
CONTINUOUS
 62
               7
100
AcDbLine
 10
112.59999999999999
 20
55.990000000000009
 30
0.0
 11
112.59999999999999
 21
56.599999999999994
 31
0.0
  0
LINE
  5
4CE
100
AcDbEntity
  8
0
  6
CONTINUOUS
 62
               7
100
AcDbLine
 10
112.03
 20
69.610000000000014
 30
0.0
 11
112.03
 21
70.590000000000003
 31
0.0
  0
LINE
  5
4CF
100
AcDbEntity
  8
0
  6
CONTINUOUS
 62
               7
100
AcDbLine
 10
112.03
 20
63.0
 30
0.0
 11
112.03
 21
65.370000000000005
 31
0.0
  0
LINE
  5
4D0
100
AcDbEntity
  8
0
  6
CONTINUOUS
 62
               7
100
AcDbLine
 10
112.03
 20
54.639999999999986
 30
0.0
 11
112.03
 21
57.0
 31
0.0
  0
LINE
  5
4D1
100
AcDbEntity
  8
0
  6
CONTINUOUS
 62
               7
100
AcDbLine
 10
112.59999999999999
 20
63.409999999999997
 30
0.0
 11
112.03
 21
63.0
 31
0.0
  0
LINE
  5
4D2
100
AcDbEntity
  8
0
  6
CONTINUOUS
 62
               7
100
AcDbLine
 10
112.59999999999999
 20
64.019999999999982
 30
0.0
 11
112.03
 21
65.370000000000005
 31
0.0
  0
LINE
  5
4D3
100
AcDbEntity
  8
0
  6
CONTINUOUS
 62
               7
100
AcDbLine
 10
112.59999999999999
 20
56.599999999999994
 30
0.0
 11
112.03
 21
57.0
 31
0.0
  0
LINE
  5
4D4
100
AcDbEntity
  8
0
  6
CONTINUOUS
 62
               7
100
AcDbLine
 10
112.59999999999999
 20
55.990000000000009
 30
0.0
 11
112.03
 21
54.639999999999986
 31
0.0
  0
LINE
  5
4D5
100
AcDbEntity
  8
0
  6
CONTINUOUS
 62
               7
100
AcDbLine
 10
127.91
 20
69.090000000000003
 30
0.0
 11
128.09999999999999
 21
69.090000000000003
 31
0.0
  0
LINE
  5
4D6
100
AcDbEntity
  8
0
  6
CONTINUOUS
 62
               7
100
AcDbLine
 10
127.53999999999999
 20
70.699999999999989
 30
0.0
 11
127.53999999999999
 21
70.590000000000003
 31
0.0
  0
LINE
  5
4D7
100
AcDbEntity
  8
0
  6
CONTINUOUS
 62
               7
100
AcDbLine
 10
128.09999999999999
 20
69.740000000000009
 30
0.0
 11
128.09999999999999
 21
69.090000000000003
 31
0.0
  0
LINE
  5
4D8
100
AcDbEntity
  8
0
  6
CONTINUOUS
 62
               7
100
AcDbLine
 10
127.53999999999999
 20
49.299999999999997
 30
0.0
 11
127.53999999999999
 21
49.420000000000002
 31
0.0
  0
LINE
  5
4D9
100
AcDbEntity
  8
0
  6
CONTINUOUS
 62
               7
100
AcDbLine
 10
128.09999999999999
 20
50.269999999999982
 30
0.0
 11
128.09999999999999
 21
50.920000000000016
 31
0.0
  0
LINE
  5
4DA
100
AcDbEntity
  8
0
  6
CONTINUOUS
 62
               7
100
AcDbLine
 10
127.53999999999999
 20
49.420000000000002
 30
0.0
 11
128.09999999999999
 21
50.920000000000016
 31
0.0
  0
LINE
  5
4DB
100
AcDbEntity
  8
0
  6
CONTINUOUS
 62
               7
100
AcDbLine
 10
128.09999999999999
 20
50.920000000000016
 30
0.0
 11
127.91
 21
50.920000000000016
 31
0.0
  0
LINE
  5
4DC
100
AcDbEntity
  8
0
  6
CONTINUOUS
 62
               7
100
AcDbLine
 10
127.53999999999999
 20
70.590000000000003
 30
0.0
 11
128.09999999999999
 21
69.090000000000003
 31
0.0
  0
LINE
  5
4DD
100
AcDbEntity
  8
0
  6
CONTINUOUS
 62
               7
100
AcDbLine
 10
112.03
 20
70.590000000000003
 30
0.0
 11
112.40000000000001
 21
69.610000000000014
 31
0.0
  0
LINE
  5
4DE
100
AcDbEntity
  8
0
  6
CONTINUOUS
 62
               7
100
AcDbLine
 10
112.03
 20
49.420000000000002
 30
0.0
 11
112.40000000000001
 21
50.400000000000006
 31
0.0
  0
LINE
  5
4DF
100
AcDbEntity
  8
0
  6
CONTINUOUS
 62
               7
100
AcDbLine
 10
110.59999999999999
 20
49.0
 30
0.0
 11
110.59999999999999
 21
71.0
 31
0.0
  0
LINE
  5
4E0
100
AcDbEntity
  8
0
  6
CONTINUOUS
 62
               7
100
AcDbLine
 10
103.0
 20
46.5
 30
0.0
 11
101.5
 21
46.5
 31
0.0
  0
LINE
  5
4E1
100
AcDbEntity
  8
0
  6
CONTINUOUS
 62
               7
100
AcDbLine
 10
103.0
 20
73.5
 30
0.0
 11
101.5
 21
73.5
 31
0.0
  0
LINE
  5
4E2
100
AcDbEntity
  8
0
  6
CONTINUOUS
 62
               7
100
AcDbLine
 10
97.0
 20
68.0
 30
0.0
 11
99.929999999999993
 21
68.0
 31
0.0
  0
LINE
  5
4E3
100
AcDbEntity
  8
0
  6
CONTINUOUS
 62
               7
100
AcDbLine
 10
97.0
 20
76.0
 30
0.0
 11
100.0
 21
76.0
 31
0.0
  0
LINE
  5
4E4
100
AcDbEntity
  8
0
  6
CONTINUOUS
 62
               7
100
AcDbLine
 10
97.0
 20
44.0
 30
0.0
 11
100.0
 21
44.0
 31
0.0
  0
LINE
  5
4E5
100
AcDbEntity
  8
0
  6
CONTINUOUS
 62
               7
100
AcDbLine
 10
101.5
 20
74.0
 30
0.0
 11
100.0
 21
76.0
 31
0.0
  0
LINE
  5
4E6
100
AcDbEntity
  8
0
  6
CONTINUOUS
 62
               7
100
AcDbLine
 10
101.5
 20
46.0
 30
0.0
 11
100.0
 21
44.0
 31
0.0
  0
LINE
  5
4E7
100
AcDbEntity
  8
0
  6
CONTINUOUS
 62
               7
100
AcDbLine
 10
97.0
 20
52.0
 30
0.0
 11
100.0
 21
52.0
 31
0.0
  0
ARC
  5
4E8
100
AcDbEntity
  8
0
  6
CONTINUOUS
 62
               7
100
AcDbCircle
 10
129.09953132797085
 20
68.719586014691117
 30
0.0
 40
1.0004687576809252
100
AcDbArc
 50
0.023708498114815
 51
89.400459368771408
  0
ARC
  5
4E9
100
AcDbEntity
  8
0
  6
CONTINUOUS
 62
               7
100
AcDbCircle
 10
129.10451482611225
 20
51.285480322148885
 30
0.0
 40
0.9954954339012443
100
AcDbArc
 50
270.31570099995162
 51
0.2601311331619551
  0
ARC
  5
4EA
100
AcDbEntity
  8
0
  6
CONTINUOUS
 62
               7
100
AcDbCircle
 10
79.4200057220459
 20
60.0
 30
0.0
 40
22.080221114848996
100
AcDbArc
 50
338.75755061479248
 51
21.242449385206687
  0
ARC
  5
4EB
100
AcDbEntity
  8
0
  6
CONTINUOUS
 62
               7
100
AcDbCircle
 10
95.4200057220459
 20
72.0
 30
0.0
 40
6.080818003039747
100
AcDbArc
 50
318.86722231688231
 51
41.132777683116885
  0
ARC
  5
4EC
100
AcDbEntity
  8
0
  6
CONTINUOUS
 62
               7
100
AcDbCircle
 10
95.419987446914035
 20
48.000246321611755
 30
0.0
 40
6.0806697389518938
100
AcDbArc
 50
327.35346931922078
 51
41.13091626742424
  0
LINE
  5
4ED
100
AcDbEntity
  8
0
  6
CONTINUOUS
 62
               7
100
AcDbLine
 10
8.0000000000000284
 20
5.0
 30
0.0
 11
96.000000000000028
 21
5.0
 31
0.0
  0
LINE
  5
4EE
100
AcDbEntity
  8
0
  6
CONTINUOUS
 62
               7
100
AcDbLine
 10
-3.8999999999999488
 20
69.799999999999997
 30
0.0
 11
-3.8999999999999488
 21
60.200000000000003
 31
0.0
  0
LINE
  5
4EF
100
AcDbEntity
  8
0
  6
CONTINUOUS
 62
               7
100
AcDbLine
 10
-3.8999999999999488
 20
60.200000000000003
 30
0.0
 11
7.0000000000000568
 21
60.200000000000003
 31
0.0
  0
LINE
  5
4F0
100
AcDbEntity
  8
0
  6
CONTINUOUS
 62
               7
100
AcDbLine
 10
-3.8999999999999488
 20
69.799999999999997
 30
0.0
 11
7.0000000000000568
 21
69.799999999999997
 31
0.0
  0
LINE
  5
4F1
100
AcDbEntity
  8
0
  6
CONTINUOUS
 62
               7
100
AcDbLine
 10
-0.4199999999999591
 20
67.5
 30
0.0
 11
-0.4199999999999591
 21
62.5
 31
0.0
  0
LINE
  5
4F2
100
AcDbEntity
  8
0
  6
CONTINUOUS
 62
               7
100
AcDbLine
 10
-0.8999999999999488
 20
69.799999999999997
 30
0.0
 11
-0.8999999999999488
 21
71.200000000000003
 31
0.0
  0
LINE
  5
4F3
100
AcDbEntity
  8
0
  6
CONTINUOUS
 62
               7
100
AcDbLine
 10
-1.8999999999999488
 20
71.200000000000003
 30
0.0
 11
-0.8999999999999488
 21
71.200000000000003
 31
0.0
  0
LINE
  5
4F4
100
AcDbEntity
  8
0
  6
CONTINUOUS
 62
               7
100
AcDbLine
 10
-1.8999999999999488
 20
71.200000000000003
 30
0.0
 11
-3.8999999999999488
 21
69.799999999999997
 31
0.0
  0
ARC
  5
4F5
100
AcDbEntity
  8
0
  6
CONTINUOUS
 62
               7
100
AcDbCircle
 10
56.537445329578688
 20
24.999999620020404
 30
0.0
 40
44.862554670421304
100
AcDbArc
 50
350.37625930821389
 51
9.6237406917853932
  0
LINE
  5
4F6
100
AcDbEntity
  8
0
  6
CONTINUOUS
 62
               7
100
AcDbLine
 10
97.499999999999986
 20
34.499999620020404
 30
0.0
 11
97.499999999999972
 21
15.499999620020404
 31
0.0
  0
LINE
  5
4F7
100
AcDbEntity
  8
0
  6
CONTINUOUS
 62
               7
100
AcDbLine
 10
97.499999999999986
 20
34.499999620020404
 30
0.0
 11
96.999999999999986
 21
34.499999620020404
 31
0.0
  0
LINE
  5
4F8
100
AcDbEntity
  8
0
  6
CONTINUOUS
 62
               7
100
AcDbLine
 10
98.399999999999977
 20
33.499999620020404
 30
0.0
 11
98.399999999999977
 21
16.499999620020404
 31
0.0
  0
LINE
  5
4F9
100
AcDbEntity
  8
0
  6
CONTINUOUS
 62
               7
100
AcDbLine
 10
101.39999999999998
 20
32.499999620020404
 30
0.0
 11
101.39999999999998
 21
17.499999620020404
 31
0.0
  0
LINE
  5
4FA
100
AcDbEntity
  8
0
  6
CONTINUOUS
 62
               7
100
AcDbLine
 10
101.39999999999998
 20
32.499999620020404
 30
0.0
 11
98.399999999999977
 21
32.499999620020404
 31
0.0
  0
LINE
  5
4FB
100
AcDbEntity
  8
0
  6
CONTINUOUS
 62
               7
100
AcDbLine
 10
97.499999999999986
 20
34.499999620020404
 30
0.0
 11
98.399999999999977
 21
33.499999620020404
 31
0.0
  0
LINE
  5
4FC
100
AcDbEntity
  8
0
  6
CONTINUOUS
 62
               7
100
AcDbLine
 10
101.39999999999998
 20
17.499999620020404
 30
0.0
 11
98.399999999999977
 21
17.499999620020404
 31
0.0
  0
LINE
  5
4FD
100
AcDbEntity
  8
0
  6
CONTINUOUS
 62
               7
100
AcDbLine
 10
97.499999999999972
 20
15.499999620020404
 30
0.0
 11
96.999999999999986
 21
15.499999620020404
 31
0.0
  0
LINE
  5
4FE
100
AcDbEntity
  8
0
  6
CONTINUOUS
 62
               7
100
AcDbLine
 10
98.399999999999977
 20
16.499999620020404
 30
0.0
 11
97.499999999999972
 21
15.499999620020404
 31
0.0
  0
LINE
  5
4FF
100
AcDbEntity
  8
0
  6
CENTER
 62
               2
100
AcDbLine
 10
107.5
 20
105.0
 30
0.0
 11
94.180332668771285
 21
105.0
 31
0.0
  0
LINE
  5
500
100
AcDbEntity
  8
0
  6
CONTINUOUS
 62
               7
100
AcDbLine
 10
101.0
 20
127.0
 30
0.0
 11
101.0
 21
83.0
 31
0.0
  0
LINE
  5
501
100
AcDbEntity
  8
0
  6
CONTINUOUS
 62
               7
100
AcDbLine
 10
101.0
 20
127.0
 30
0.0
 11
98.85787242795908
 21
130.70752849007084
 31
0.0
  0
LINE
  5
502
100
AcDbEntity
  8
0
  6
CONTINUOUS
 62
               7
100
AcDbLine
 10
98.400000000000006
 20
127.60991631945662
 30
0.0
 11
98.400000000000006
 21
78.5
 31
0.0
  0
LINE
  5
503
100
AcDbEntity
  8
0
  6
CONTINUOUS
 62
               7
100
AcDbLine
 10
104.5
 20
125.5
 30
0.0
 11
104.5
 21
84.5
 31
0.0
  0
LINE
  5
504
100
AcDbEntity
  8
0
  6
CONTINUOUS
 62
               7
100
AcDbLine
 10
104.0
 20
126.0
 30
0.0
 11
104.0
 21
84.0
 31
0.0
  0
LINE
  5
505
100
AcDbEntity
  8
0
  6
CONTINUOUS
 62
               7
100
AcDbLine
 10
104.0
 20
126.0
 30
0.0
 11
101.0
 21
126.0
 31
0.0
  0
LINE
  5
506
100
AcDbEntity
  8
0
  6
CONTINUOUS
 62
               7
100
AcDbLine
 10
104.0
 20
126.0
 30
0.0
 11
104.5
 21
125.5
 31
0.0
  0
LINE
  5
507
100
AcDbEntity
  8
0
  6
CONTINUOUS
 62
               7
100
AcDbLine
 10
101.5
 20
126.0
 30
0.0
 11
101.5
 21
84.0
 31
0.0
  0
LINE
  5
508
100
AcDbEntity
  8
0
  6
CONTINUOUS
 62
               7
100
AcDbLine
 10
98.400000000000006
 20
78.5
 30
0.0
 11
97.0
 21
78.5
 31
0.0
  0
LINE
  5
509
100
AcDbEntity
  8
0
  6
CONTINUOUS
 62
               7
100
AcDbLine
 10
101.0
 20
83.0
 30
0.0
 11
98.400000000000006
 21
78.5
 31
0.0
  0
LINE
  5
50A
100
AcDbEntity
  8
0
  6
CONTINUOUS
 62
               7
100
AcDbLine
 10
104.0
 20
84.0
 30
0.0
 11
101.0
 21
84.0
 31
0.0
  0
LINE
  5
50B
100
AcDbEntity
  8
0
  6
CONTINUOUS
 62
               7
100
AcDbLine
 10
104.0
 20
84.0
 30
0.0
 11
104.5
 21
84.5
 31
0.0
  0
LINE
  5
50C
100
AcDbEntity
  8
0
  6
CENTER
 62
               2
100
AcDbLine
 10
4.2479217603912502
 20
10.0
 30
0.0
 11
10.500000000000057
 21
10.0
 31
0.0
  0
LINE
  5
50D
100
AcDbEntity
  8
0
  6
CONTINUOUS
 62
               7
100
AcDbLine
 10
6.0000000000000568
 20
6.8500000000000085
 30
0.0
 11
6.0000000000000568
 21
13.150000000000006
 31
0.0
  0
LINE
  5
50E
100
AcDbEntity
  8
0
  6
CONTINUOUS
 62
               7
100
AcDbLine
 10
7.0000000000000568
 20
6.8500000000000085
 30
0.0
 11
6.0000000000000568
 21
6.8500000000000085
 31
0.0
  0
ARC
  5
50F
100
AcDbEntity
  8
0
  6
CONTINUOUS
 62
               7
100
AcDbCircle
 10
11.062500000000057
 20
10.0
 30
0.0
 40
5.9624999999999977
100
AcDbArc
 50
148.10920819815394
 51
211.89079180184524
  0
LINE
  5
510
100
AcDbEntity
  8
0
  6
CONTINUOUS
 62
               7
100
AcDbLine
 10
109.00000000000003
 20
0.0
 30
0.0
 11
109.00000000000003
 21
1.0
 31
0.0
  0
LINE
  5
511
100
AcDbEntity
  8
0
  6
CONTINUOUS
 62
               7
100
AcDbLine
 10
96.000000000000028
 20
0.0
 30
0.0
 11
109.00000000000003
 21
0.0
 31
0.0
  0
LINE
  5
512
100
AcDbEntity
  8
0
  6
CONTINUOUS
 62
               7
100
AcDbLine
 10
97.0
 20
1.0
 30
0.0
 11
109.00000000000003
 21
1.0
 31
0.0
  0
LINE
  5
513
100
AcDbEntity
  8
0
  6
CONTINUOUS
 62
               7
100
AcDbLine
 10
-4.9999999999999716
 20
0.0
 30
0.0
 11
-4.9999999999999716
 21
1.0
 31
0.0
  0
LINE
  5
514
100
AcDbEntity
  8
0
  6
CONTINUOUS
 62
               7
100
AcDbLine
 10
-4.9999999999999716
 20
1.0
 30
0.0
 11
7.0000000000000853
 21
1.0
 31
0.0
  0
LINE
  5
515
100
AcDbEntity
  8
0
  6
CONTINUOUS
 62
               7
100
AcDbLine
 10
-4.9999999999999716
 20
0.0
 30
0.0
 11
8.0000000000000284
 21
0.0
 31
0.0
  0
LINE
  5
516
100
AcDbEntity
  8
0
  6
CONTINUOUS
 62
               7
100
AcDbLine
 10
-2.9999999999999716
 20
128.46000000000026
 30
0.0
 11
-2.9999999999999716
 21
111.60000000000025
 31
0.0
  0
LINE
  5
517
100
AcDbEntity
  8
0
  6
CONTINUOUS
 62
               7
100
AcDbLine
 10
-2.6319402985074873
 20
129.82999999999998
 30
0.0
 11
5.102423972800409
 21
129.82999999999998
 31
0.0
  0
LINE
  5
518
100
AcDbEntity
  8
0
  6
CONTINUOUS
 62
               7
100
AcDbLine
 10
-2.6319402985074021
 20
110.23
 30
0.0
 11
6.5879180544500571
 21
110.23
 31
0.0
  0
LINE
  5
519
100
AcDbEntity
  8
0
  6
CONTINUOUS
 62
               7
100
AcDbLine
 10
-2.6399999999999579
 20
129.80000000000024
 30
0.0
 11
-2.9999999999999716
 21
128.46000000000026
 31
0.0
  0
ARC
  5
51A
100
AcDbEntity
  8
0
  6
CONTINUOUS
 62
               7
100
AcDbCircle
 10
4.725311019272084
 20
126.93851011031165
 30
0.0
 40
7.7516530821145544
100
AcDbArc
 50
184.72485429694797
 51
202.03739124876643
  0
ARC
  5
51B
100
AcDbEntity
  8
0
  6
CONTINUOUS
 62
               7
100
AcDbCircle
 10
14.373666482713105
 20
119.72100502483397
 30
0.0
 40
17.376414041660794
100
AcDbArc
 50
165.64201671153583
 51
178.98108774865764
  0
ARC
  5
51C
100
AcDbEntity
  8
0
  6
CONTINUOUS
 62
               7
100
AcDbCircle
 10
14.373666482713105
 20
120.3389949751665
 30
0.0
 40
17.376414041660794
100
AcDbArc
 50
181.01891225134153
 51
194.35798328846337
  0
ARC
  5
51D
100
AcDbEntity
  8
0
  6
CONTINUOUS
 62
               7
100
AcDbCircle
 10
5.0656195073206902
 20
113.12832134237762
 30
0.0
 40
8.0656486410621699
100
AcDbArc
 50
158.91468785973021
 51
179.84600158795882
  0
LINE
  5
51E
100
AcDbEntity
  8
0
  6
CONTINUOUS
 62
               7
100
AcDbLine
 10
-2.6400000000000148
 20
110.26000000000025
 30
0.0
 11
-2.9999999999999716
 21
111.60000000000025
 31
0.0
  0
LINE
  5
51F
100
AcDbEntity
  8
0
  6
CONTINUOUS
 62
               7
100
AcDbLine
 10
6.4657611917047291
 20
116.03000000000024
 30
0.0
 11
-2.460000000000008
 21
116.03000000000024
 31
0.0
  0
LINE
  5
520
100
AcDbEntity
  8
0
  6
CONTINUOUS
 62
               7
100
AcDbLine
 10
6.4657611917048143
 20
124.03000000000024
 30
0.0
 11
-2.460000000000008
 21
124.03000000000024
 31
0.0
  0
ARC
  5
521
100
AcDbEntity
  8
0
  6
CONTINUOUS
 62
               7
100
AcDbCircle
 10
-0.7366240063621774
 20
126.90848641188329
 30
0.0
 40
7.7562901289684731
100
AcDbArc
 50
338.21551541757316
 51
355.50048236508098
  0
ARC
  5
522
100
AcDbEntity
  8
0
  6
CONTINUOUS
 62
               7
100
AcDbCircle
 10
-8.2416960836856958
 20
120.02999999999979
 30
0.0
 40
15.241696083685721
100
AcDbArc
 50
344.78522717166112
 51
15.214772828338123
  0
ARC
  5
523
100
AcDbEntity
  8
0
  6
CONTINUOUS
 62
               7
100
AcDbCircle
 10
-1.0745535822345857
 20
113.15360526729565
 30
0.0
 40
8.0703155792334584
100
AcDbArc
 50
359.97440414753072
 51
20.880291749961899
  0
LINE
  5
524
100
AcDbEntity
  8
0
  6
CONTINUOUS
 62
               7
100
AcDbLine
 10
6.9957611917049292
 20
111.78999999999979
 30
0.0
 11
6.5957611917048951
 21
110.25999999999979
 31
0.0
  0
LINE
  5
525
100
AcDbEntity
  8
0
  6
CONTINUOUS
 62
               7
100
AcDbLine
 10
-16.999999999999972
 20
130.53
 30
0.0
 11
-16.999999999999972
 21
109.53
 31
0.0
  0
LINE
  5
526
100
AcDbEntity
  8
0
  6
CONTINUOUS
 62
               7
100
AcDbLine
 10
-76.999999999999972
 20
130.53
 30
0.0
 11
-76.999999999999972
 21
109.53
 31
0.0
  0
LINE
  5
527
100
AcDbEntity
  8
0
  6
CONTINUOUS
 62
               7
100
AcDbLine
 10
-76.999999999999972
 20
109.53
 30
0.0
 11
-56.999999999999972
 21
109.53
 31
0.0
  0
LINE
  5
528
100
AcDbEntity
  8
0
  6
CONTINUOUS
 62
               7
100
AcDbLine
 10
-76.999999999999972
 20
130.53
 30
0.0
 11
-56.999999999999972
 21
130.53
 31
0.0
  0
LINE
  5
529
100
AcDbEntity
  8
0
  6
CONTINUOUS
 62
               7
100
AcDbLine
 10
-56.999999999999972
 20
130.53
 30
0.0
 11
-56.999999999999972
 21
109.53
 31
0.0
  0
LINE
  5
52A
100
AcDbEntity
  8
0
  6
CONTINUOUS
 62
               7
100
AcDbLine
 10
-36.999999999999972
 20
130.53
 30
0.0
 11
-36.999999999999972
 21
109.53
 31
0.0
  0
LINE
  5
52B
100
AcDbEntity
  8
0
  6
CONTINUOUS
 62
               7
100
AcDbLine
 10
-56.999999999999972
 20
130.03
 30
0.0
 11
-36.999999999999972
 21
130.03
 31
0.0
  0
LINE
  5
52C
100
AcDbEntity
  8
0
  6
CONTINUOUS
 62
               7
100
AcDbLine
 10
-56.999999999999972
 20
110.03
 30
0.0
 11
-36.999999999999972
 21
110.03
 31
0.0
  0
LINE
  5
52D
100
AcDbEntity
  8
0
  6
CONTINUOUS
 62
               7
100
AcDbLine
 10
-36.999999999999972
 20
130.53
 30
0.0
 11
-16.999999999999972
 21
130.53
 31
0.0
  0
LINE
  5
52E
100
AcDbEntity
  8
0
  6
CONTINUOUS
 62
               7
100
AcDbLine
 10
-36.999999999999972
 20
109.53
 30
0.0
 11
-16.999999999999972
 21
109.53
 31
0.0
  0
LINE
  5
52F
100
AcDbEntity
  8
0
  6
CENTER
 62
               2
100
AcDbLine
 10
-20.999999999999972
 20
130.98015807905819
 30
0.0
 11
-20.999999999999972
 21
108.78811135495602
 31
0.0
  0
LINE
  5
530
100
AcDbEntity
  8
0
  6
CENTER
 62
               2
100
AcDbLine
 10
-72.999999999999972
 20
131.44665755974503
 30
0.0
 11
-72.999999999999972
 21
108.38825465722444
 31
0.0
  0
LINE
  5
531
100
AcDbEntity
  8
0
  6
CONTINUOUS
 62
               7
100
AcDbLine
 10
-18.299999999999983
 20
126.83000000000001
 30
0.0
 11
-18.299999999999983
 21
120.03
 31
0.0
  0
LINE
  5
532
100
AcDbEntity
  8
0
  6
CONTINUOUS
 62
               7
100
AcDbLine
 10
-23.69999999999996
 20
126.83000000000001
 30
0.0
 11
-23.69999999999996
 21
120.03
 31
0.0
  0
ARC
  5
533
100
AcDbEntity
  8
0
  6
CONTINUOUS
 62
               7
100
AcDbCircle
 10
-20.999999999999972
 20
126.83000000000001
 30
0.0
 40
2.6999999999999886
100
AcDbArc
 50
0.0
 51
179.99999999999963
  0
LINE
  5
534
100
AcDbEntity
  8
0
  6
CONTINUOUS
 62
               7
100
AcDbLine
 10
-23.69999999999996
 20
124.53
 30
0.0
 11
-18.299999999999983
 21
124.53
 31
0.0
  0
LINE
  5
535
100
AcDbEntity
  8
0
  6
CONTINUOUS
 62
               7
100
AcDbLine
 10
-75.69999999999996
 20
124.53
 30
0.0
 11
-70.299999999999983
 21
124.53
 31
0.0
  0
LINE
  5
536
100
AcDbEntity
  8
0
  6
CONTINUOUS
 62
               7
100
AcDbLine
 10
-75.69999999999996
 20
126.83000000000001
 30
0.0
 11
-75.69999999999996
 21
120.03
 31
0.0
  0
LINE
  5
537
100
AcDbEntity
  8
0
  6
CONTINUOUS
 62
               7
100
AcDbLine
 10
-70.299999999999983
 20
126.83000000000001
 30
0.0
 11
-70.299999999999983
 21
120.03
 31
0.0
  0
ARC
  5
538
100
AcDbEntity
  8
0
  6
CONTINUOUS
 62
               7
100
AcDbCircle
 10
-72.999999999999972
 20
126.83000000000001
 30
0.0
 40
2.6999999999999886
100
AcDbArc
 50
0.0
 51
179.99999999999963
  0
LINE
  5
539
100
AcDbEntity
  8
0
  6
CONTINUOUS
 62
               7
100
AcDbLine
 10
-31.999999999999972
 20
120.03
 30
0.0
 11
-31.999999999999972
 21
109.53
 31
0.0
  0
LINE
  5
53A
100
AcDbEntity
  8
0
  6
CONTINUOUS
 62
               7
100
AcDbLine
 10
-61.999999999999972
 20
120.03
 30
0.0
 11
-61.999999999999972
 21
109.53
 31
0.0
  0
LINE
  5
53B
100
AcDbEntity
  8
0
  6
CENTER
 62
               2
100
AcDbLine
 10
-16.999999999999972
 20
120.03
 30
0.0
 11
10.971823831838492
 21
120.03
 31
0.0
  0
LINE
  5
53C
100
AcDbEntity
  8
0
  6
CONTINUOUS
 62
               7
100
AcDbLine
 10
-16.999999999999972
 20
120.03
 30
0.0
 11
-76.999999999999972
 21
120.03
 31
0.0
  0
LINE
  5
53D
100
AcDbEntity
  8
0
  6
CONTINUOUS
 62
               7
100
AcDbLine
 10
-82.099999999999994
 20
115.03
 30
0.0
 11
-82.099999999999994
 21
125.03
 31
0.0
  0
LINE
  5
53E
100
AcDbEntity
  8
0
  6
CONTINUOUS
 62
               7
100
AcDbLine
 10
-82.539999999999935
 20
125.8
 30
0.0
 11
-82.099999999999994
 21
125.03
 31
0.0
  0
LINE
  5
53F
100
AcDbEntity
  8
0
  6
CONTINUOUS
 62
               7
100
AcDbLine
 10
-82.539999999999935
 20
114.26000000000001
 30
0.0
 11
-82.099999999999994
 21
115.03
 31
0.0
  0
LINE
  5
540
100
AcDbEntity
  8
0
  6
CONTINUOUS
 62
               7
100
AcDbLine
 10
-76.999999999999972
 20
124.890625
 30
0.0
 11
-82.099999999999994
 21
125.05
 31
0.0
  0
LINE
  5
541
100
AcDbEntity
  8
0
  6
CONTINUOUS
 62
               2
100
AcDbLine
 10
-76.999999999999972
 20
124.310625
 30
0.0
 11
-82.099999999999994
 21
124.47
 31
0.0
  0
LINE
  5
542
100
AcDbEntity
  8
0
  6
CONTINUOUS
 62
               7
100
AcDbLine
 10
-76.999999999999972
 20
115.169375
 30
0.0
 11
-82.099999999999994
 21
115.01000000000001
 31
0.0
  0
LINE
  5
543
100
AcDbEntity
  8
0
  6
CONTINUOUS
 62
               2
100
AcDbLine
 10
-76.999999999999972
 20
115.749375
 30
0.0
 11
-82.099999999999994
 21
115.59
 31
0.0
  0
ARC
  5
544
100
AcDbEntity
  8
0
  6
CONTINUOUS
 62
               7
100
AcDbCircle
 10
-84.661691455835097
 20
124.34074814306187
 30
0.0
 40
2.5617637964679858
100
AcDbArc
 50
326.31699464498433
 51
0.4305863541549168
  0
ARC
  5
545
100
AcDbEntity
  8
0
  6
CONTINUOUS
 62
               7
100
AcDbCircle
 10
-84.661691455835097
 20
115.71925185693813
 30
0.0
 40
2.5617637964679858
100
AcDbArc
 50
359.56941364584429
 51
33.683005355014828
  0
ARC
  5
546
100
AcDbEntity
  8
0
  6
CONTINUOUS
 62
               7
100
AcDbCircle
 10
-91.653420448303194
 20
120.03
 30
0.0
 40
9.5576583046032422
100
AcDbArc
 50
342.46255417011622
 51
17.537445829882977
  0
LINE
  5
547
100
AcDbEntity
  8
0
  6
CONTINUOUS
 62
               7
100
AcDbLine
 10
-16.999999999999972
 20
124.890625
 30
0.0
 11
-11.999999999999972
 21
125.046875
 31
0.0
  0
LINE
  5
548
100
AcDbEntity
  8
0
  6
CONTINUOUS
 62
               2
100
AcDbLine
 10
-16.999999999999972
 20
124.310625
 30
0.0
 11
-11.999999999999972
 21
124.466875
 31
0.0
  0
LINE
  5
549
100
AcDbEntity
  8
0
  6
CONTINUOUS
 62
               2
100
AcDbLine
 10
-16.999999999999972
 20
115.749375
 30
0.0
 11
-11.999999999999972
 21
115.593125
 31
0.0
  0
LINE
  5
54A
100
AcDbEntity
  8
0
  6
CONTINUOUS
 62
               7
100
AcDbLine
 10
-16.999999999999972
 20
115.169375
 30
0.0
 11
-11.999999999999972
 21
115.013125
 31
0.0
  0
LINE
  5
54B
100
AcDbEntity
  8
0
  6
CONTINUOUS
 62
               7
100
AcDbLine
 10
-2.9999999999999716
 20
124.890625
 30
0.0
 11
-7.9999999999999716
 21
125.046875
 31
0.0
  0
LINE
  5
54C
100
AcDbEntity
  8
0
  6
CONTINUOUS
 62
               2
100
AcDbLine
 10
-2.9999999999999716
 20
124.310625
 30
0.0
 11
-7.9999999999999716
 21
124.466875
 31
0.0
  0
LINE
  5
54D
100
AcDbEntity
  8
0
  6
CONTINUOUS
 62
               2
100
AcDbLine
 10
-2.9999999999999716
 20
115.749375
 30
0.0
 11
-7.9999999999999716
 21
115.593125
 31
0.0
  0
LINE
  5
54E
100
AcDbEntity
  8
0
  6
CONTINUOUS
 62
               7
100
AcDbLine
 10
-2.9999999999999716
 20
115.169375
 30
0.0
 11
-7.9999999999999716
 21
115.013125
 31
0.0
  0
LINE
  5
54F
100
AcDbEntity
  8
0
  6
CONTINUOUS
 62
               7
100
AcDbLine
 10
-11.999999999999972
 20
114.03
 30
0.0
 11
-11.999999999999972
 21
126.03
 31
0.0
  0
LINE
  5
550
100
AcDbEntity
  8
0
  6
CONTINUOUS
 62
               7
100
AcDbLine
 10
-7.9999999999999716
 20
114.03
 30
0.0
 11
-7.9999999999999716
 21
126.03
 31
0.0
  0
LINE
  5
551
100
AcDbEntity
  8
0
  6
CONTINUOUS
 62
               7
100
AcDbLine
 10
-11.45999999999998
 20
113.11
 30
0.0
 11
-8.5299999999999727
 21
113.11
 31
0.0
  0
LINE
  5
552
100
AcDbEntity
  8
0
  6
CONTINUOUS
 62
               7
100
AcDbLine
 10
-11.45999999999998
 20
116.57000000000001
 30
0.0
 11
-8.5299999999999727
 21
116.57000000000001
 31
0.0
  0
LINE
  5
553
100
AcDbEntity
  8
0
  6
CONTINUOUS
 62
               7
100
AcDbLine
 10
-11.45999999999998
 20
123.48999999999999
 30
0.0
 11
-8.5299999999999727
 21
123.48999999999999
 31
0.0
  0
LINE
  5
554
100
AcDbEntity
  8
0
  6
CONTINUOUS
 62
               7
100
AcDbLine
 10
-11.45999999999998
 20
126.95
 30
0.0
 11
-8.5299999999999727
 21
126.95
 31
0.0
  0
LINE
  5
555
100
AcDbEntity
  8
0
  6
CONTINUOUS
 62
               7
100
AcDbLine
 10
-11.999999999999972
 20
126.03
 30
0.0
 11
-11.45999999999998
 21
126.95
 31
0.0
  0
LINE
  5
556
100
AcDbEntity
  8
0
  6
CONTINUOUS
 62
               7
100
AcDbLine
 10
-11.999999999999972
 20
114.03
 30
0.0
 11
-11.45999999999998
 21
113.11
 31
0.0
  0
LINE
  5
557
100
AcDbEntity
  8
0
  6
CONTINUOUS
 62
               7
100
AcDbLine
 10
-7.9999999999999716
 20
114.03
 30
0.0
 11
-8.5299999999999727
 21
113.11
 31
0.0
  0
LINE
  5
558
100
AcDbEntity
  8
0
  6
CONTINUOUS
 62
               7
100
AcDbLine
 10
-7.9999999999999716
 20
126.03
 30
0.0
 11
-8.5299999999999727
 21
126.95
 31
0.0
  0
ARC
  5
559
100
AcDbEntity
  8
0
  6
CONTINUOUS
 62
               7
100
AcDbCircle
 10
-11.070578838046288
 20
125.21451259200263
 30
0.0
 40
3.0705837412948673
100
AcDbArc
 50
325.83183827113157
 51
0.1023927411064779
  0
ARC
  5
55A
100
AcDbEntity
  8
0
  6
CONTINUOUS
 62
               7
100
AcDbCircle
 10
-11.070578838046288
 20
114.84548740799737
 30
0.0
 40
3.0705837412948673
100
AcDbArc
 50
359.89760725889272
 51
34.168161728867609
  0
ARC
  5
55B
100
AcDbEntity
  8
0
  6
CONTINUOUS
 62
               7
100
AcDbCircle
 10
-19.464168548589413
 20
120.03
 30
0.0
 40
11.468550119738859
100
AcDbArc
 50
342.44058492647088
 51
17.559415073528246
  0
ARC
  5
55C
100
AcDbEntity
  8
0
  6
CONTINUOUS
 62
               7
100
AcDbCircle
 10
-8.9335483411177847
 20
125.22788086462218
 30
0.0
 40
3.0664617858842513
100
AcDbArc
 50
180.1472513960272
 51
214.5230784706724
  0
ARC
  5
55D
100
AcDbEntity
  8
0
  6
CONTINUOUS
 62
               7
100
AcDbCircle
 10
-0.5358295440618974
 20
120.03
 30
0.0
 40
11.459018289120149
100
AcDbArc
 50
162.4255028907952
 51
197.574497109204
  0
ARC
  5
55E
100
AcDbEntity
  8
0
  6
CONTINUOUS
 62
               7
100
AcDbCircle
 10
-8.9335483411177847
 20
114.83211913537782
 30
0.0
 40
3.0664617858842513
100
AcDbArc
 50
145.4769215293268
 51
179.852748603972
  0
LINE
  5
55F
100
AcDbEntity
  8
0
  6
CENTER
 62
               2
100
AcDbLine
 10
99.752078239608807
 20
130.0
 30
0.0
 11
93.5
 21
130.0
 31
0.0
  0
LINE
  5
560
100
AcDbEntity
  8
0
  6
CONTINUOUS
 62
               7
100
AcDbLine
 10
98.0
 20
133.15000000000001
 30
0.0
 11
97.0
 21
133.15000000000001
 31
0.0
  0
LINE
  5
561
100
AcDbEntity
  8
0
  6
CONTINUOUS
 62
               7
100
AcDbLine
 10
97.0
 20
126.85000000000001
 30
0.0
 11
98.0
 21
126.85000000000001
 31
0.0
  0
ARC
  5
562
100
AcDbEntity
  8
0
  6
CONTINUOUS
 62
               7
100
AcDbCircle
 10
92.9375
 20
130.0
 30
0.0
 40
5.9624999999999977
100
AcDbArc
 50
328.10920819815431
 51
31.890791801845669
  0
LINE
  5
563
100
AcDbEntity
  8
0
  6
CONTINUOUS
 62
               7
100
AcDbLine
 10
98.0
 20
126.85000000000001
 30
0.0
 11
98.0
 21
133.15000000000001
 31
0.0
  0
LINE
  5
564
100
AcDbEntity
  8
0
  6
CENTER
 62
               2
100
AcDbLine
 10
99.752078239608807
 20
10.0
 30
0.0
 11
93.5
 21
10.0
 31
0.0
  0
LINE
  5
565
100
AcDbEntity
  8
0
  6
CONTINUOUS
 62
               7
100
AcDbLine
 10
97.0
 20
6.8500000000000085
 30
0.0
 11
98.0
 21
6.8500000000000085
 31
0.0
  0
LINE
  5
566
100
AcDbEntity
  8
0
  6
CONTINUOUS
 62
               7
100
AcDbLine
 10
98.0
 20
13.150000000000006
 30
0.0
 11
97.0
 21
13.150000000000006
 31
0.0
  0
ARC
  5
567
100
AcDbEntity
  8
0
  6
CONTINUOUS
 62
               7
100
AcDbCircle
 10
92.9375
 20
10.0
 30
0.0
 40
5.9624999999999977
100
AcDbArc
 50
328.10920819815431
 51
31.890791801845669
  0
LINE
  5
568
100
AcDbEntity
  8
0
  6
CONTINUOUS
 62
               7
100
AcDbLine
 10
98.0
 20
6.8500000000000085
 30
0.0
 11
98.0
 21
13.150000000000006
 31
0.0
  0
LINE
  5
569
100
AcDbEntity
  8
0
  6
CONTINUOUS
 62
               7
100
AcDbLine
 10
6.0000000000000568
 20
133.15000000000001
 30
0.0
 11
7.0000000000000568
 21
133.15000000000001
 31
0.0
  0
LINE
  5
56A
100
AcDbEntity
  8
0
  6
CONTINUOUS
 62
               7
100
AcDbLine
 10
6.0000000000000568
 20
126.85000000000001
 30
0.0
 11
6.0000000000000568
 21
133.15000000000001
 31
0.0
  0
ARC
  5
56B
100
AcDbEntity
  8
0
  6
CONTINUOUS
 62
               7
100
AcDbCircle
 10
11.062500000000057
 20
130.0
 30
0.0
 40
5.9624999999999977
100
AcDbArc
 50
148.10920819815394
 51
211.89079180184524
  0
LINE
  5
56C
100
AcDbEntity
  8
0
  6
CONTINUOUS
 62
               7
100
AcDbLine
 10
7.0000000000000568
 20
126.85000000000001
 30
0.0
 11
6.0000000000000568
 21
126.85000000000001
 31
0.0
  0
LINE
  5
56D
100
AcDbEntity
  8
0
  6
CONTINUOUS
 62
               7
100
AcDbLine
 10
4.5800000000000409
 20
47.5
 30
0.0
 11
4.5800000000000409
 21
42.5
 31
0.0
  0
LINE
  5
56E
100
AcDbEntity
  8
0
  6
CONTINUOUS
 62
               7
100
AcDbLine
 10
-3.8999999999999488
 20
50.099999999999994
 30
0.0
 11
7.0000000000000568
 21
50.099999999999994
 31
0.0
  0
LINE
  5
56F
100
AcDbEntity
  8
0
  6
CONTINUOUS
 62
               7
100
AcDbLine
 10
-3.8999999999999488
 20
39.900000000000006
 30
0.0
 11
7.0000000000000568
 21
39.900000000000006
 31
0.0
  0
LINE
  5
570
100
AcDbEntity
  8
0
  6
CONTINUOUS
 62
               7
100
AcDbLine
 10
-3.8999999999999488
 20
50.099999999999994
 30
0.0
 11
-3.8999999999999488
 21
39.900000000000006
 31
0.0
  0
LINE
  5
571
100
AcDbEntity
  8
0
  6
CONTINUOUS
 62
               7
100
AcDbLine
 10
-1.8999999999999488
 20
91.200000000000003
 30
0.0
 11
-3.8999999999999488
 21
89.799999999999997
 31
0.0
  0
LINE
  5
572
100
AcDbEntity
  8
0
  6
CONTINUOUS
 62
               7
100
AcDbLine
 10
-1.8999999999999488
 20
91.200000000000003
 30
0.0
 11
-0.8999999999999488
 21
91.200000000000003
 31
0.0
  0
LINE
  5
573
100
AcDbEntity
  8
0
  6
CONTINUOUS
 62
               7
100
AcDbLine
 10
-0.8999999999999488
 20
89.799999999999997
 30
0.0
 11
-0.8999999999999488
 21
91.200000000000003
 31
0.0
  0
LINE
  5
574
100
AcDbEntity
  8
0
  6
CONTINUOUS
 62
               7
100
AcDbLine
 10
-0.4199999999999591
 20
87.5
 30
0.0
 11
-0.4199999999999591
 21
82.5
 31
0.0
  0
LINE
  5
575
100
AcDbEntity
  8
0
  6
CONTINUOUS
 62
               7
100
AcDbLine
 10
-3.8999999999999488
 20
89.799999999999997
 30
0.0
 11
7.0000000000000568
 21
89.799999999999997
 31
0.0
  0
LINE
  5
576
100
AcDbEntity
  8
0
  6
CONTINUOUS
 62
               7
100
AcDbLine
 10
-3.8999999999999488
 20
80.200000000000003
 30
0.0
 11
7.0000000000000568
 21
80.200000000000003
 31
0.0
  0
LINE
  5
577
100
AcDbEntity
  8
0
  6
CONTINUOUS
 62
               7
100
AcDbLine
 10
-3.8999999999999488
 20
89.799999999999997
 30
0.0
 11
-3.8999999999999488
 21
80.200000000000003
 31
0.0
  0
LINE
  5
578
100
AcDbEntity
  8
0
  6
CONTINUOUS
 62
               7
100
AcDbLine
 10
-0.4200000166892721
 20
87.5
 30
0.0
 11
7.0000000000000284
 21
87.5
 31
0.0
  0
LINE
  5
579
100
AcDbEntity
  8
0
  6
CONTINUOUS
 62
               7
100
AcDbLine
 10
-0.4200000166892721
 20
82.5
 30
0.0
 11
7.0000000000000284
 21
82.5
 31
0.0
  0
LINE
  5
57A
100
AcDbEntity
  8
0
  6
CONTINUOUS
 62
               7
100
AcDbLine
 10
-0.4200000166892721
 20
67.5
 30
0.0
 11
7.0000000000000568
 21
67.5
 31
0.0
  0
LINE
  5
57B
100
AcDbEntity
  8
0
  6
CONTINUOUS
 62
               7
100
AcDbLine
 10
-0.4200000166892721
 20
62.5
 30
0.0
 11
7.0000000000000568
 21
62.5
 31
0.0
  0
LINE
  5
57C
100
AcDbEntity
  8
0
  6
CONTINUOUS
 62
               7
100
AcDbLine
 10
4.5800000000000409
 20
47.5
 30
0.0
 11
7.0000000000000568
 21
47.5
 31
0.0
  0
LINE
  5
57D
100
AcDbEntity
  8
0
  6
CONTINUOUS
 62
               7
100
AcDbLine
 10
4.5800000000000409
 20
42.5
 30
0.0
 11
7.0000000000000568
 21
42.5
 31
0.0
  0
LINE
  5
57E
100
AcDbEntity
  8
0
  6
CONTINUOUS
 62
               7
100
AcDbLine
 10
7.0000000000000568
 20
13.149999999999991
 30
0.0
 11
6.0000000000000568
 21
13.149999999999991
 31
0.0
  0
LINE
  5
57F
100
AcDbEntity
  8
0
  6
CENTER
 62
               2
100
AcDbLine
 10
13.130000000000024
 20
27.0
 30
0.0
 11
-7.8699999999999761
 21
27.0
 31
0.0
  0
LINE
  5
580
100
AcDbEntity
  8
0
  6
CONTINUOUS
 62
               7
100
AcDbLine
 10
-6.6999999999999602
 20
21.099999999999994
 30
0.0
 11
-6.6999999999999602
 21
32.900000000000006
 31
0.0
  0
LINE
  5
581
100
AcDbEntity
  8
0
  6
CONTINUOUS
 62
               7
100
AcDbLine
 10
-5.4999999999999716
 20
21.099999999999994
 30
0.0
 11
-5.4999999999999716
 21
32.900000000000006
 31
0.0
  0
LINE
  5
582
100
AcDbEntity
  8
0
  6
CONTINUOUS
 62
               7
100
AcDbLine
 10
-5.4999999999999716
 20
32.900000000000006
 30
0.0
 11
-6.6999999999999602
 21
32.900000000000006
 31
0.0
  0
LINE
  5
583
100
AcDbEntity
  8
0
  6
CONTINUOUS
 62
               7
100
AcDbLine
 10
-5.4999999999999716
 20
21.099999999999994
 30
0.0
 11
-6.6999999999999602
 21
21.099999999999994
 31
0.0
  0
LINE
  5
584
100
AcDbEntity
  8
0
  6
CONTINUOUS
 62
               7
100
AcDbLine
 10
2.9000000000000341
 20
22.0
 30
0.0
 11
2.9000000000000341
 21
32.0
 31
0.0
  0
LINE
  5
585
100
AcDbEntity
  8
0
  6
CONTINUOUS
 62
               7
100
AcDbLine
 10
-4.4999999999999716
 20
22.0
 30
0.0
 11
-4.4999999999999716
 21
32.0
 31
0.0
  0
LINE
  5
586
100
AcDbEntity
  8
0
  6
CONTINUOUS
 62
               7
100
AcDbLine
 10
2.4600000000000364
 20
32.769999999999996
 30
0.0
 11
-4.0499999999999829
 21
32.769999999999996
 31
0.0
  0
LINE
  5
587
100
AcDbEntity
  8
0
  6
CONTINUOUS
 62
               7
100
AcDbLine
 10
2.4600000000000364
 20
29.879999999999995
 30
0.0
 11
-4.0499999999999829
 21
29.879999999999995
 31
0.0
  0
LINE
  5
588
100
AcDbEntity
  8
0
  6
CONTINUOUS
 62
               7
100
AcDbLine
 10
-4.0499999999999829
 20
32.769999999999996
 30
0.0
 11
-4.4999999999999716
 21
32.0
 31
0.0
  0
LINE
  5
589
100
AcDbEntity
  8
0
  6
CONTINUOUS
 62
               7
100
AcDbLine
 10
2.4600000000000364
 20
24.120000000000005
 30
0.0
 11
-4.0499999999999829
 21
24.120000000000005
 31
0.0
  0
LINE
  5
58A
100
AcDbEntity
  8
0
  6
CONTINUOUS
 62
               7
100
AcDbLine
 10
2.4600000000000364
 20
32.769999999999996
 30
0.0
 11
2.9000000000000341
 21
32.0
 31
0.0
  0
LINE
  5
58B
100
AcDbEntity
  8
0
  6
CONTINUOUS
 62
               7
100
AcDbLine
 10
-4.0499999999999829
 20
21.230000000000004
 30
0.0
 11
-4.4999999999999716
 21
22.0
 31
0.0
  0
LINE
  5
58C
100
AcDbEntity
  8
0
  6
CONTINUOUS
 62
               7
100
AcDbLine
 10
2.4600000000000364
 20
21.230000000000004
 30
0.0
 11
2.9000000000000341
 21
22.0
 31
0.0
  0
LINE
  5
58D
100
AcDbEntity
  8
0
  6
CONTINUOUS
 62
               7
100
AcDbLine
 10
2.4600000000000364
 20
21.230000000000004
 30
0.0
 11
-4.0499999999999829
 21
21.230000000000004
 31
0.0
  0
LINE
  5
58E
100
AcDbEntity
  8
0
  6
CONTINUOUS
 62
               7
100
AcDbLine
 10
-4.4999999999999716
 20
23.5
 30
0.0
 11
-5.4999999999999716
 21
23.5
 31
0.0
  0
LINE
  5
58F
100
AcDbEntity
  8
0
  6
CONTINUOUS
 62
               7
100
AcDbLine
 10
-4.4999999999999716
 20
30.5
 30
0.0
 11
-5.4999999999999716
 21
30.5
 31
0.0
  0
LINE
  5
590
100
AcDbEntity
  8
0
  6
CONTINUOUS
 62
               7
100
AcDbLine
 10
7.0000000000000853
 20
31.891874999999999
 30
0.0
 11
2.9000000000000341
 21
32.019999999999996
 31
0.0
  0
LINE
  5
591
100
AcDbEntity
  8
0
  6
CONTINUOUS
 62
               2
100
AcDbLine
 10
7.0000000000000853
 20
31.311875000000001
 30
0.0
 11
2.9000000000000341
 21
31.439999999999998
 31
0.0
  0
LINE
  5
592
100
AcDbEntity
  8
0
  6
CONTINUOUS
 62
               7
100
AcDbLine
 10
7.0000000000000853
 20
22.108125000000001
 30
0.0
 11
2.9000000000000341
 21
21.980000000000004
 31
0.0
  0
LINE
  5
593
100
AcDbEntity
  8
0
  6
CONTINUOUS
 62
               2
100
AcDbLine
 10
7.0000000000000853
 20
22.688124999999999
 30
0.0
 11
2.9000000000000341
 21
22.560000000000002
 31
0.0
  0
ARC
  5
594
100
AcDbEntity
  8
0
  6
CONTINUOUS
 62
               7
100
AcDbCircle
 10
-1.9423794369227494
 20
31.324272949829151
 30
0.0
 40
2.5576269751039034
100
AcDbArc
 50
179.87170291787697
 51
214.10994366609449
  0
ARC
  5
595
100
AcDbEntity
  8
0
  6
CONTINUOUS
 62
               7
100
AcDbCircle
 10
5.0534219741821573
 20
27.0
 30
0.0
 40
9.5481250326973655
100
AcDbArc
 50
162.44447496813444
 51
197.55552503186487
  0
ARC
  5
596
100
AcDbEntity
  8
0
  6
CONTINUOUS
 62
               7
100
AcDbCircle
 10
0.3383085441649314
 20
31.310748143061872
 30
0.0
 40
2.5617637964679858
100
AcDbArc
 50
326.31699464498433
 51
0.4305863541549168
  0
ARC
  5
597
100
AcDbEntity
  8
0
  6
CONTINUOUS
 62
               7
100
AcDbCircle
 10
-1.9423794369227494
 20
22.675727050170849
 30
0.0
 40
2.5576269751039034
100
AcDbArc
 50
145.89005633390474
 51
180.12829708212229
  0
ARC
  5
598
100
AcDbEntity
  8
0
  6
CONTINUOUS
 62
               7
100
AcDbCircle
 10
0.3383085441649314
 20
22.689251856938128
 30
0.0
 40
2.5617637964679858
100
AcDbArc
 50
359.56941364584429
 51
33.683005355014828
  0
ARC
  5
599
100
AcDbEntity
  8
0
  6
CONTINUOUS
 62
               7
100
AcDbCircle
 10
-6.6534204483031942
 20
27.0
 30
0.0
 40
9.5576583046032422
100
AcDbArc
 50
342.46255417011622
 51
17.537445829882977
  0
LINE
  5
59A
100
AcDbEntity
  8
0
  6
CONTINUOUS
 62
               7
100
AcDbLine
 10
5.1281745354527573
 20
35.700000762939453
 30
0.0
 11
6.2999999443883041
 21
35.700000762939453
 31
0.0
  0
ARC
  5
59B
100
AcDbEntity
  8
0
  6
CONTINUOUS
 62
               7
100
AcDbCircle
 10
8.9000003258580307
 20
38.5
 30
0.0
 40
5.0
100
AcDbArc
 50
163.73979529168761
 51
209.49233837334239
  0
ARC
  5
59C
100
AcDbEntity
  8
0
  6
CONTINUOUS
 62
               7
100
AcDbCircle
 10
5.1281745354527573
 20
36.366666793823242
 30
0.0
 40
0.6666666865348816
100
AcDbArc
 50
209.49235567618641
 51
270.00001798608872
  0
LINE
  5
59D
100
AcDbEntity
  8
0
  6
CENTER
 62
               2
100
AcDbLine
 10
3.053484920086845
 20
38.5
 30
0.0
 11
9.4752195517414464
 21
38.5
 31
0.0
  0
LINE
  5
59E
100
AcDbEntity
  8
0
  6
CONTINUOUS
 62
               7
100
AcDbLine
 10
6.2999999443883041
 20
35.5
 30
0.0
 11
6.9999999443882928
 21
35.5
 31
0.0
  0
LINE
  5
59F
100
AcDbEntity
  8
0
  6
CONTINUOUS
 62
               7
100
AcDbLine
 10
6.2999999443883041
 20
35.5
 30
0.0
 11
6.2999999443883041
 21
39.900000000000006
 31
0.0
  0
LINE
  5
5A0
100
AcDbEntity
  8
0
  6
CONTINUOUS
 62
               7
100
AcDbLine
 10
6.2999998967045201
 20
38.499999970197678
 30
0.0
 11
6.9999999443882359
 21
38.687564417719841
 31
0.0
  0
LINE
  5
5A1
100
AcDbEntity
  8
0
  6
CONTINUOUS
 62
               7
100
AcDbLine
 10
6.2999998967045201
 20
38.312435537576675
 30
0.0
 11
6.9999999443882359
 21
38.499999985098839
 31
0.0
  0
LINE
  5
5A2
100
AcDbEntity
  8
0
  6
CENTER
 62
               2
100
AcDbLine
 10
3.053484920086845
 20
16.0
 30
0.0
 11
9.4752195517414464
 21
16.0
 31
0.0
  0
LINE
  5
5A3
100
AcDbEntity
  8
0
  6
CONTINUOUS
 62
               7
100
AcDbLine
 10
6.2999998967045201
 20
15.812435537576675
 30
0.0
 11
6.9999999443882359
 21
15.999999985098839
 31
0.0
  0
LINE
  5
5A4
100
AcDbEntity
  8
0
  6
CONTINUOUS
 62
               7
100
AcDbLine
 10
6.2999998967045201
 20
15.999999970197678
 30
0.0
 11
6.9999999443882359
 21
16.187564417719841
 31
0.0
  0
LINE
  5
5A5
100
AcDbEntity
  8
0
  6
CONTINUOUS
 62
               7
100
AcDbLine
 10
6.2999999443883041
 20
13.149999999999991
 30
0.0
 11
6.2999999443883041
 21
19.0
 31
0.0
  0
ARC
  5
5A6
100
AcDbEntity
  8
0
  6
CONTINUOUS
 62
               7
100
AcDbCircle
 10
5.1281745354527573
 20
13.866666793823242
 30
0.0
 40
0.6666666865348816
100
AcDbArc
 50
209.49235567618641
 51
270.00001798608872
  0
ARC
  5
5A7
100
AcDbEntity
  8
0
  6
CONTINUOUS
 62
               7
100
AcDbCircle
 10
8.9000003258580307
 20
16.0
 30
0.0
 40
5.0
100
AcDbArc
 50
150.50763148618273
 51
209.49233837334239
  0
LINE
  5
5A8
100
AcDbEntity
  8
0
  6
CONTINUOUS
 62
               7
100
AcDbLine
 10
5.1281745354527573
 20
13.200000762939453
 30
0.0
 11
6.2999999443883041
 21
13.200000762939453
 31
0.0
  0
LINE
  5
5A9
100
AcDbEntity
  8
0
  6
CONTINUOUS
 62
               7
100
AcDbLine
 10
5.1281745354527573
 20
18.799999237060547
 30
0.0
 11
6.2999999443883041
 21
18.799999237060547
 31
0.0
  0
LINE
  5
5AA
100
AcDbEntity
  8
0
  6
CONTINUOUS
 62
               7
100
AcDbLine
 10
6.2999999443883041
 20
19.0
 30
0.0
 11
6.9999999443882928
 21
19.0
 31
0.0
  0
ARC
  5
5AB
100
AcDbEntity
  8
0
  6
CONTINUOUS
 62
               7
100
AcDbCircle
 10
5.1281745354527573
 20
18.133333206176758
 30
0.0
 40
0.6666666865348816
100
AcDbArc
 50
89.999982013910454
 51
150.5076443238128
  0
LINE
  5
5AC
100
AcDbEntity
  8
0
  6
PHANTOM
 62
               2
100
AcDbLine
 10
104.00000000000003
 20
-1.6581681966781616
 30
0.0
 11
104.00000000000003
 21
3.2946468810056047
 31
0.0
  0
LINE
  5
5AD
100
AcDbEntity
  8
0
  6
PHANTOM
 62
               2
100
AcDbLine
 10
0.0
 20
-1.6581681966781616
 30
0.0
 11
0.0
 21
3.2946468810056047
 31
0.0
  0
LINE
  5
5AE
100
AcDbEntity
  8
0
  6
CONTINUOUS
 62
               7
100
AcDbLine
 10
-91.69999999999996
 20
114.13
 30
0.0
 11
-91.69999999999996
 21
125.93000000000001
 31
0.0
  0
LINE
  5
5AF
100
AcDbEntity
  8
0
  6
CONTINUOUS
 62
               7
100
AcDbLine
 10
-90.499999999999972
 20
114.13
 30
0.0
 11
-90.499999999999972
 21
125.93000000000001
 31
0.0
  0
LINE
  5
5B0
100
AcDbEntity
  8
0
  6
CONTINUOUS
 62
               7
100
AcDbLine
 10
-90.499999999999972
 20
125.93000000000001
 30
0.0
 11
-91.69999999999996
 21
125.93000000000001
 31
0.0
  0
LINE
  5
5B1
100
AcDbEntity
  8
0
  6
CONTINUOUS
 62
               7
100
AcDbLine
 10
-90.499999999999972
 20
114.13
 30
0.0
 11
-91.69999999999996
 21
114.13
 31
0.0
  0
LINE
  5
5B2
100
AcDbEntity
  8
0
  6
CONTINUOUS
 62
               7
100
AcDbLine
 10
-89.499999999999972
 20
115.03
 30
0.0
 11
-89.499999999999972
 21
125.03
 31
0.0
  0
LINE
  5
5B3
100
AcDbEntity
  8
0
  6
CONTINUOUS
 62
               7
100
AcDbLine
 10
-89.049999999999983
 20
125.8
 30
0.0
 11
-89.499999999999972
 21
125.03
 31
0.0
  0
LINE
  5
5B4
100
AcDbEntity
  8
0
  6
CONTINUOUS
 62
               7
100
AcDbLine
 10
-89.049999999999983
 20
114.26000000000001
 30
0.0
 11
-89.499999999999972
 21
115.03
 31
0.0
  0
LINE
  5
5B5
100
AcDbEntity
  8
0
  6
CONTINUOUS
 62
               7
100
AcDbLine
 10
-89.499999999999972
 20
116.53
 30
0.0
 11
-90.499999999999972
 21
116.53
 31
0.0
  0
LINE
  5
5B6
100
AcDbEntity
  8
0
  6
CONTINUOUS
 62
               7
100
AcDbLine
 10
-89.499999999999972
 20
123.53
 30
0.0
 11
-90.499999999999972
 21
123.53
 31
0.0
  0
ARC
  5
5B7
100
AcDbEntity
  8
0
  6
CONTINUOUS
 62
               7
100
AcDbCircle
 10
-86.942379436922778
 20
124.35427294982915
 30
0.0
 40
2.5576269751039034
100
AcDbArc
 50
179.87170291787697
 51
214.10994366609449
  0
ARC
  5
5B8
100
AcDbEntity
  8
0
  6
CONTINUOUS
 62
               7
100
AcDbCircle
 10
-79.946578025817843
 20
120.03
 30
0.0
 40
9.5481250326973655
100
AcDbArc
 50
162.44447496813444
 51
197.55552503186487
  0
ARC
  5
5B9
100
AcDbEntity
  8
0
  6
CONTINUOUS
 62
               7
100
AcDbCircle
 10
-86.942379436922778
 20
115.70572705017085
 30
0.0
 40
2.5576269751039034
100
AcDbArc
 50
145.89005633390474
 51
180.12829708212229
  0
ENDBLK
  5
5BA
100
AcDbEntity
  8
0
100
AcDbBlockEnd
  0
BLOCK
  5
5BB
100
AcDbEntity
  8
0
100
AcDbBlockBegin
  2
DTRY-ELB-12
 70
               0
 10
0.0
 20
0.0
 30
0.0
  3
DTRY-ELB-12
  1

  0
LINE
  5
5BC
100
AcDbEntity
  8
0
  6
CONTINUOUS
 62
               7
100
AcDbLine
 10
50.060659781098366
 20
128.93933997303247
 30
0.0
 11
47.93933929502964
 21
131.06066028028727
 31
0.0
  0
LINE
  5
5BD
100
AcDbEntity
  8
0
  6
CONTINUOUS
 62
               7
100
AcDbLine
 10
50.060659859329462
 20
131.06065994873643
 30
0.0
 11
47.939339552074671
 21
128.9393394626677
 31
0.0
  0
LINE
  5
5BE
100
AcDbEntity
  8
0
  6
CENTER
 62
               2
100
AcDbLine
 10
48.999999832361937
 20
125.79466455085435
 30
0.0
 11
48.999999832361937
 21
134.13006961345673
 31
0.0
  0
LINE
  5
5BF
100
AcDbEntity
  8
0
  6
CENTER
 62
               2
100
AcDbLine
 10
53.496332455444303
 20
130.0
 30
0.0
 11
44.768673069775105
 21
130.0
 31
0.0
  0
CIRCLE
  5
5C0
100
AcDbEntity
  8
0
  6
CONTINUOUS
 62
               7
100
AcDbCircle
 10
48.999999411404133
 20
130.0
 30
0.0
 40
2.7999992370605469
  0
LINE
  5
5C1
100
AcDbEntity
  8
0
  6
CONTINUOUS
 62
               7
100
AcDbLine
 10
2.0606597810983658
 20
128.93933997303247
 30
0.0
 11
-0.0606607049703598
 21
131.06066028028727
 31
0.0
  0
LINE
  5
5C2
100
AcDbEntity
  8
0
  6
CONTINUOUS
 62
               7
100
AcDbLine
 10
2.0606598593294621
 20
131.06065994873643
 30
0.0
 11
-0.0606604479253292
 21
128.9393394626677
 31
0.0
  0
LINE
  5
5C3
100
AcDbEntity
  8
0
  6
CENTER
 62
               2
100
AcDbLine
 10
0.9999998323619366
 20
125.79466455085435
 30
0.0
 11
0.9999998323619366
 21
134.13006961345673
 31
0.0
  0
LINE
  5
5C4
100
AcDbEntity
  8
0
  6
CENTER
 62
               2
100
AcDbLine
 10
5.4963324554443034
 20
130.0
 30
0.0
 11
-3.2313269302248955
 21
130.0
 31
0.0
  0
CIRCLE
  5
5C5
100
AcDbEntity
  8
0
  6
CONTINUOUS
 62
               7
100
AcDbCircle
 10
0.9999994114041328
 20
130.0
 30
0.0
 40
2.7999992370605469
  0
LINE
  5
5C6
100
AcDbEntity
  8
0
  6
CONTINUOUS
 62
               7
100
AcDbLine
 10
-5.0
 20
1.0
 30
0.0
 11
55.0
 21
1.0
 31
0.0
  0
LINE
  5
5C7
100
AcDbEntity
  8
0
  6
CONTINUOUS
 62
               7
100
AcDbLine
 10
-5.0
 20
0.0
 30
0.0
 11
55.0
 21
0.0
 31
0.0
  0
LINE
  5
5C8
100
AcDbEntity
  8
0
  6
CONTINUOUS
 62
               7
100
AcDbLine
 10
47.939339630305767
 20
8.9393399730324603
 30
0.0
 11
50.060660116374493
 21
11.060660280287252
 31
0.0
  0
LINE
  5
5C9
100
AcDbEntity
  8
0
  6
CONTINUOUS
 62
               7
100
AcDbLine
 10
47.939339552074671
 20
11.060659948736429
 30
0.0
 11
50.060659859329462
 21
8.9393394626677036
 31
0.0
  0
LINE
  5
5CA
100
AcDbEntity
  8
0
  6
CENTER
 62
               2
100
AcDbLine
 10
48.999999579042196
 20
5.7946645508543497
 30
0.0
 11
48.999999579042196
 21
14.130069613456726
 31
0.0
  0
LINE
  5
5CB
100
AcDbEntity
  8
0
  6
CENTER
 62
               2
100
AcDbLine
 10
44.503666955959829
 20
10.0
 30
0.0
 11
53.231326341629028
 21
10.0
 31
0.0
  0
CIRCLE
  5
5CC
100
AcDbEntity
  8
0
  6
CONTINUOUS
 62
               7
100
AcDbCircle
 10
49.0
 20
10.0
 30
0.0
 40
2.7999992370605469
  0
LINE
  5
5CD
100
AcDbEntity
  8
0
  6
CENTER
 62
               2
100
AcDbLine
 10
1.0000004209578037
 20
5.7946645508543497
 30
0.0
 11
1.0000004209578037
 21
14.130069613456726
 31
0.0
  0
LINE
  5
5CE
100
AcDbEntity
  8
0
  6
CENTER
 62
               2
100
AcDbLine
 10
5.4963330440401705
 20
10.0
 30
0.0
 11
-3.2313263416290283
 21
10.0
 31
0.0
  0
CIRCLE
  5
5CF
100
AcDbEntity
  8
0
  6
CONTINUOUS
 62
               7
100
AcDbCircle
 10
1.0
 20
10.0
 30
0.0
 40
2.7999992370605469
  0
LINE
  5
5D0
100
AcDbEntity
  8
0
  6
CONTINUOUS
 62
               7
100
AcDbLine
 10
2.0606604479253292
 20
11.060659948736429
 30
0.0
 11
-0.0606598593294621
 21
8.9393394626677036
 31
0.0
  0
LINE
  5
5D1
100
AcDbEntity
  8
0
  6
CONTINUOUS
 62
               7
100
AcDbLine
 10
2.0606603696942329
 20
8.9393399730324603
 30
0.0
 11
-0.0606601163744926
 21
11.060660280287252
 31
0.0
  0
LINE
  5
5D2
100
AcDbEntity
  8
0
  6
CONTINUOUS
 62
               7
100
AcDbLine
 10
55.0
 20
135.0
 30
0.0
 11
-5.0
 21
135.0
 31
0.0
  0
LINE
  5
5D3
100
AcDbEntity
  8
0
  6
CONTINUOUS
 62
               7
100
AcDbLine
 10
-5.0
 20
0.0
 30
0.0
 11
-5.0
 21
135.0
 31
0.0
  0
LINE
  5
5D4
100
AcDbEntity
  8
0
  6
CONTINUOUS
 62
               7
100
AcDbLine
 10
55.0
 20
0.0
 30
0.0
 11
55.0
 21
135.0
 31
0.0
  0
LINE
  5
5D5
100
AcDbEntity
  8
0
  6
CENTER
 62
               2
100
AcDbLine
 10
31.107743625954924
 20
45.0
 30
0.0
 11
51.790129027363662
 21
45.0
 31
0.0
  0
LINE
  5
5D6
100
AcDbEntity
  8
0
  6
CONTINUOUS
 62
               7
100
AcDbLine
 10
33.600000000000023
 20
39.900000000000006
 30
0.0
 11
46.399999999999977
 21
39.900000000000006
 31
0.0
  0
LINE
  5
5D7
100
AcDbEntity
  8
0
  6
CONTINUOUS
 62
               7
100
AcDbLine
 10
33.600000000000023
 20
50.100000000000001
 30
0.0
 11
46.399999999999977
 21
50.100000000000001
 31
0.0
  0
LINE
  5
5D8
100
AcDbEntity
  8
0
  6
CONTINUOUS
 62
               7
100
AcDbLine
 10
46.399999999999977
 20
39.900000000000006
 30
0.0
 11
46.399999999999977
 21
50.099999999999994
 31
0.0
  0
LINE
  5
5D9
100
AcDbEntity
  8
0
  6
CONTINUOUS
 62
               7
100
AcDbLine
 10
33.600000000000023
 20
39.900000000000006
 30
0.0
 11
33.600000000000023
 21
50.100000000000001
 31
0.0
  0
LINE
  5
5DA
100
AcDbEntity
  8
0
  6
CONTINUOUS
 62
               7
100
AcDbLine
 10
40.350000603497051
 20
41.349999999999994
 30
0.0
 11
43.850000603497051
 21
41.349999999999994
 31
0.0
  0
LINE
  5
5DB
100
AcDbEntity
  8
0
  6
CONTINUOUS
 62
               7
100
AcDbLine
 10
40.350000603497051
 20
44.849999999999994
 30
0.0
 11
43.850000603497051
 21
44.849999999999994
 31
0.0
  0
LINE
  5
5DC
100
AcDbEntity
  8
0
  6
CONTINUOUS
 62
               7
100
AcDbLine
 10
40.350000603497051
 20
44.849999999999994
 30
0.0
 11
40.350000603497051
 21
41.349999999999994
 31
0.0
  0
LINE
  5
5DD
100
AcDbEntity
  8
0
  6
CONTINUOUS
 62
               7
100
AcDbLine
 10
43.850000603497051
 20
44.849999999999994
 30
0.0
 11
43.850000603497051
 21
41.349999999999994
 31
0.0
  0
LINE
  5
5DE
100
AcDbEntity
  8
0
  6
CONTINUOUS
 62
               7
100
AcDbLine
 10
40.350000603497051
 20
45.550000000000011
 30
0.0
 11
43.850000603497051
 21
45.550000000000011
 31
0.0
  0
LINE
  5
5DF
100
AcDbEntity
  8
0
  6
CONTINUOUS
 62
               7
100
AcDbLine
 10
40.350000603497051
 20
49.050000000000011
 30
0.0
 11
43.850000603497051
 21
49.050000000000011
 31
0.0
  0
LINE
  5
5E0
100
AcDbEntity
  8
0
  6
CONTINUOUS
 62
               7
100
AcDbLine
 10
40.350000603497051
 20
49.050000000000011
 30
0.0
 11
40.350000603497051
 21
45.550000000000011
 31
0.0
  0
LINE
  5
5E1
100
AcDbEntity
  8
0
  6
CONTINUOUS
 62
               7
100
AcDbLine
 10
43.850000603497051
 20
49.050000000000011
 30
0.0
 11
43.850000603497051
 21
45.550000000000011
 31
0.0
  0
LINE
  5
5E2
100
AcDbEntity
  8
0
  6
CONTINUOUS
 62
               7
100
AcDbLine
 10
36.150000603497006
 20
41.349999999999994
 30
0.0
 11
39.650000603497006
 21
41.349999999999994
 31
0.0
  0
LINE
  5
5E3
100
AcDbEntity
  8
0
  6
CONTINUOUS
 62
               7
100
AcDbLine
 10
36.150000603497006
 20
44.849999999999994
 30
0.0
 11
39.650000603497006
 21
44.849999999999994
 31
0.0
  0
LINE
  5
5E4
100
AcDbEntity
  8
0
  6
CONTINUOUS
 62
               7
100
AcDbLine
 10
36.150000603497006
 20
44.849999999999994
 30
0.0
 11
36.150000603497006
 21
41.349999999999994
 31
0.0
  0
LINE
  5
5E5
100
AcDbEntity
  8
0
  6
CONTINUOUS
 62
               7
100
AcDbLine
 10
39.650000603497006
 20
44.849999999999994
 30
0.0
 11
39.650000603497006
 21
41.349999999999994
 31
0.0
  0
LINE
  5
5E6
100
AcDbEntity
  8
0
  6
CONTINUOUS
 62
               7
100
AcDbLine
 10
36.150000603497006
 20
45.550000000000011
 30
0.0
 11
39.650000603497006
 21
45.550000000000011
 31
0.0
  0
LINE
  5
5E7
100
AcDbEntity
  8
0
  6
CONTINUOUS
 62
               7
100
AcDbLine
 10
36.150000603497006
 20
49.050000000000011
 30
0.0
 11
39.650000603497006
 21
49.050000000000011
 31
0.0
  0
LINE
  5
5E8
100
AcDbEntity
  8
0
  6
CONTINUOUS
 62
               7
100
AcDbLine
 10
36.150000603497006
 20
49.050000000000011
 30
0.0
 11
36.150000603497006
 21
45.550000000000011
 31
0.0
  0
LINE
  5
5E9
100
AcDbEntity
  8
0
  6
CONTINUOUS
 62
               7
100
AcDbLine
 10
39.650000603497006
 20
49.050000000000011
 30
0.0
 11
39.650000603497006
 21
45.550000000000011
 31
0.0
  0
LINE
  5
5EA
100
AcDbEntity
  8
0
  6
CONTINUOUS
 62
               7
100
AcDbLine
 10
46.399999999999977
 20
42.5
 30
0.0
 11
44.80000060349704
 21
42.5
 31
0.0
  0
LINE
  5
5EB
100
AcDbEntity
  8
0
  6
CONTINUOUS
 62
               7
100
AcDbLine
 10
46.399999999999977
 20
47.5
 30
0.0
 11
44.80000060349704
 21
47.5
 31
0.0
  0
LINE
  5
5EC
100
AcDbEntity
  8
0
  6
CONTINUOUS
 62
               7
100
AcDbLine
 10
33.600000000000023
 20
42.5
 30
0.0
 11
35.200000603497017
 21
42.5
 31
0.0
  0
LINE
  5
5ED
100
AcDbEntity
  8
0
  6
CONTINUOUS
 62
               7
100
AcDbLine
 10
33.600000000000023
 20
47.5
 30
0.0
 11
35.200000603497017
 21
47.5
 31
0.0
  0
LINE
  5
5EE
100
AcDbEntity
  8
0
  6
CONTINUOUS
 62
               7
100
AcDbLine
 10
35.200000603497017
 20
49.800000000000011
 30
0.0
 11
35.200000603497017
 21
40.199999999999989
 31
0.0
  0
LINE
  5
5EF
100
AcDbEntity
  8
0
  6
CONTINUOUS
 62
               7
100
AcDbLine
 10
44.80000060349704
 20
40.199999999999989
 30
0.0
 11
44.80000060349704
 21
49.800000000000011
 31
0.0
  0
LINE
  5
5F0
100
AcDbEntity
  8
0
  6
CONTINUOUS
 62
               7
100
AcDbLine
 10
35.200000603497017
 20
40.199999999999989
 30
0.0
 11
44.80000060349704
 21
40.199999999999989
 31
0.0
  0
LINE
  5
5F1
100
AcDbEntity
  8
0
  6
CONTINUOUS
 62
               7
100
AcDbLine
 10
35.200000603497017
 20
49.800000000000011
 30
0.0
 11
44.80000060349704
 21
49.800000000000011
 31
0.0
  0
LINE
  5
5F2
100
AcDbEntity
  8
0
  6
CENTER
 62
               2
100
AcDbLine
 10
44.475718675445023
 20
47.300000000000011
 30
0.0
 11
35.586355557607817
 21
47.300000000000011
 31
0.0
  0
LINE
  5
5F3
100
AcDbEntity
  8
0
  6
CENTER
 62
               2
100
AcDbLine
 10
44.367750702353874
 20
43.099999999999994
 30
0.0
 11
35.658334206335212
 21
43.099999999999994
 31
0.0
  0
LINE
  5
5F4
100
AcDbEntity
  8
0
  6
CENTER
 62
               2
100
AcDbLine
 10
42.100000603497051
 20
49.547912457912474
 30
0.0
 11
42.100000603497051
 21
40.928383838383837
 31
0.0
  0
LINE
  5
5F5
100
AcDbEntity
  8
0
  6
CENTER
 62
               2
100
AcDbLine
 10
37.900000603497006
 20
49.547912457912474
 30
0.0
 11
37.900000603497006
 21
40.928383838383837
 31
0.0
  0
LINE
  5
5F6
100
AcDbEntity
  8
0
  6
CONTINUOUS
 62
               7
100
AcDbLine
 10
45.000000603497028
 20
62.199999999999982
 30
0.0
 11
45.000000603497028
 21
61.199999999999982
 31
0.0
  0
LINE
  5
5F7
100
AcDbEntity
  8
0
  6
CONTINUOUS
 62
               7
100
AcDbLine
 10
35.000000603497028
 20
62.199999999999982
 30
0.0
 11
35.000000603497028
 21
61.199999999999982
 31
0.0
  0
LINE
  5
5F8
100
AcDbEntity
  8
0
  6
CONTINUOUS
 62
               7
100
AcDbLine
 10
35.000000603497028
 20
62.199999999999982
 30
0.0
 11
32.500000603497028
 21
62.199999999999982
 31
0.0
  0
LINE
  5
5F9
100
AcDbEntity
  8
0
  6
CONTINUOUS
 62
               7
100
AcDbLine
 10
35.000000603497028
 20
67.800000000000011
 30
0.0
 11
32.500000603497028
 21
67.800000000000011
 31
0.0
  0
LINE
  5
5FA
100
AcDbEntity
  8
0
  6
CONTINUOUS
 62
               7
100
AcDbLine
 10
38.000000603497028
 20
70.0
 30
0.0
 11
37.700000603497017
 21
70.0
 31
0.0
  0
LINE
  5
5FB
100
AcDbEntity
  8
0
  6
CONTINUOUS
 62
               7
100
AcDbLine
 10
38.000000603497028
 20
70.0
 30
0.0
 11
38.000000603497028
 21
71.599999999999994
 31
0.0
  0
LINE
  5
5FC
100
AcDbEntity
  8
0
  6
CONTINUOUS
 62
               7
100
AcDbLine
 10
42.000000603497028
 20
70.0
 30
0.0
 11
42.000000603497028
 21
71.599999999999994
 31
0.0
  0
LINE
  5
5FD
100
AcDbEntity
  8
0
  6
CONTINUOUS
 62
               7
100
AcDbLine
 10
42.000000603497028
 20
71.599999999999994
 30
0.0
 11
38.000000603497028
 21
71.599999999999994
 31
0.0
  0
LINE
  5
5FE
100
AcDbEntity
  8
0
  6
CONTINUOUS
 62
               7
100
AcDbLine
 10
32.500000603497028
 20
67.799999999999983
 30
0.0
 11
32.500000603497028
 21
67.5
 31
0.0
  0
LINE
  5
5FF
100
AcDbEntity
  8
0
  6
CONTINUOUS
 62
               7
100
AcDbLine
 10
47.500000603497028
 20
67.799999999999983
 30
0.0
 11
47.500000603497028
 21
67.5
 31
0.0
  0
LINE
  5
600
100
AcDbEntity
  8
0
  6
CONTINUOUS
 62
               7
100
AcDbLine
 10
35.000000603497028
 20
68.800000000000011
 30
0.0
 11
35.000000603497028
 21
67.800000000000011
 31
0.0
  0
LINE
  5
601
100
AcDbEntity
  8
0
  6
CONTINUOUS
 62
               7
100
AcDbLine
 10
45.000000603497028
 20
68.800000000000011
 30
0.0
 11
45.000000603497028
 21
67.800000000000011
 31
0.0
  0
LINE
  5
602
100
AcDbEntity
  8
0
  6
CONTINUOUS
 62
               7
100
AcDbLine
 10
42.30000060349704
 20
70.0
 30
0.0
 11
42.000000603497028
 21
70.0
 31
0.0
  0
LINE
  5
603
100
AcDbEntity
  8
0
  6
CONTINUOUS
 62
               7
100
AcDbLine
 10
47.500000603497028
 20
67.800000000000011
 30
0.0
 11
45.000000603497028
 21
67.800000000000011
 31
0.0
  0
LINE
  5
604
100
AcDbEntity
  8
0
  6
CONTINUOUS
 62
               7
100
AcDbLine
 10
47.500000603497028
 20
62.199999999999982
 30
0.0
 11
45.000000603497028
 21
62.199999999999982
 31
0.0
  0
LINE
  5
605
100
AcDbEntity
  8
0
  6
CONTINUOUS
 62
               7
100
AcDbLine
 10
40.350000603497051
 20
61.349999999999987
 30
0.0
 11
43.850000603497051
 21
61.349999999999987
 31
0.0
  0
LINE
  5
606
100
AcDbEntity
  8
0
  6
CONTINUOUS
 62
               7
100
AcDbLine
 10
40.350000603497051
 20
64.849999999999994
 30
0.0
 11
43.850000603497051
 21
64.849999999999994
 31
0.0
  0
LINE
  5
607
100
AcDbEntity
  8
0
  6
CONTINUOUS
 62
               7
100
AcDbLine
 10
40.350000603497051
 20
64.849999999999994
 30
0.0
 11
40.350000603497051
 21
61.349999999999987
 31
0.0
  0
LINE
  5
608
100
AcDbEntity
  8
0
  6
CONTINUOUS
 62
               7
100
AcDbLine
 10
43.850000603497051
 20
64.849999999999994
 30
0.0
 11
43.850000603497051
 21
61.349999999999987
 31
0.0
  0
LINE
  5
609
100
AcDbEntity
  8
0
  6
CONTINUOUS
 62
               7
100
AcDbLine
 10
40.350000603497051
 20
65.550000000000011
 30
0.0
 11
43.850000603497051
 21
65.550000000000011
 31
0.0
  0
LINE
  5
60A
100
AcDbEntity
  8
0
  6
CONTINUOUS
 62
               7
100
AcDbLine
 10
40.350000603497051
 20
69.050000000000011
 30
0.0
 11
43.850000603497051
 21
69.050000000000011
 31
0.0
  0
LINE
  5
60B
100
AcDbEntity
  8
0
  6
CONTINUOUS
 62
               7
100
AcDbLine
 10
40.350000603497051
 20
69.050000000000011
 30
0.0
 11
40.350000603497051
 21
65.550000000000011
 31
0.0
  0
LINE
  5
60C
100
AcDbEntity
  8
0
  6
CONTINUOUS
 62
               7
100
AcDbLine
 10
43.850000603497051
 20
69.050000000000011
 30
0.0
 11
43.850000603497051
 21
65.550000000000011
 31
0.0
  0
LINE
  5
60D
100
AcDbEntity
  8
0
  6
CONTINUOUS
 62
               7
100
AcDbLine
 10
36.150000603497006
 20
61.349999999999987
 30
0.0
 11
39.650000603497006
 21
61.349999999999987
 31
0.0
  0
LINE
  5
60E
100
AcDbEntity
  8
0
  6
CONTINUOUS
 62
               7
100
AcDbLine
 10
36.150000603497006
 20
64.849999999999994
 30
0.0
 11
39.650000603497006
 21
64.849999999999994
 31
0.0
  0
LINE
  5
60F
100
AcDbEntity
  8
0
  6
CONTINUOUS
 62
               7
100
AcDbLine
 10
36.150000603497006
 20
64.849999999999994
 30
0.0
 11
36.150000603497006
 21
61.349999999999987
 31
0.0
  0
LINE
  5
610
100
AcDbEntity
  8
0
  6
CONTINUOUS
 62
               7
100
AcDbLine
 10
39.650000603497006
 20
64.849999999999994
 30
0.0
 11
39.650000603497006
 21
61.349999999999987
 31
0.0
  0
LINE
  5
611
100
AcDbEntity
  8
0
  6
CONTINUOUS
 62
               7
100
AcDbLine
 10
36.150000603497006
 20
65.550000000000011
 30
0.0
 11
39.650000603497006
 21
65.550000000000011
 31
0.0
  0
LINE
  5
612
100
AcDbEntity
  8
0
  6
CONTINUOUS
 62
               7
100
AcDbLine
 10
36.150000603497006
 20
69.050000000000011
 30
0.0
 11
39.650000603497006
 21
69.050000000000011
 31
0.0
  0
LINE
  5
613
100
AcDbEntity
  8
0
  6
CONTINUOUS
 62
               7
100
AcDbLine
 10
36.150000603497006
 20
69.050000000000011
 30
0.0
 11
36.150000603497006
 21
65.550000000000011
 31
0.0
  0
LINE
  5
614
100
AcDbEntity
  8
0
  6
CONTINUOUS
 62
               7
100
AcDbLine
 10
39.650000603497006
 20
69.050000000000011
 30
0.0
 11
39.650000603497006
 21
65.550000000000011
 31
0.0
  0
LINE
  5
615
100
AcDbEntity
  8
0
  6
CONTINUOUS
 62
               7
100
AcDbLine
 10
49.730000603497047
 20
62.499999999999993
 30
0.0
 11
44.80000060349704
 21
62.499999999999993
 31
0.0
  0
LINE
  5
616
100
AcDbEntity
  8
0
  6
CONTINUOUS
 62
               7
100
AcDbLine
 10
49.730000603497047
 20
67.5
 30
0.0
 11
44.80000060349704
 21
67.5
 31
0.0
  0
LINE
  5
617
100
AcDbEntity
  8
0
  6
CONTINUOUS
 62
               7
100
AcDbLine
 10
49.730000603497047
 20
62.499999999999993
 30
0.0
 11
49.730000603497047
 21
67.5
 31
0.0
  0
LINE
  5
618
100
AcDbEntity
  8
0
  6
CONTINUOUS
 62
               7
100
AcDbLine
 10
47.120000603497033
 20
62.499999999999993
 30
0.0
 11
47.120000603497033
 21
67.5
 31
0.0
  0
LINE
  5
619
100
AcDbEntity
  8
0
  6
CONTINUOUS
 62
               7
100
AcDbLine
 10
30.260000603497019
 20
62.499999999999993
 30
0.0
 11
35.200000603497017
 21
62.499999999999993
 31
0.0
  0
LINE
  5
61A
100
AcDbEntity
  8
0
  6
CONTINUOUS
 62
               7
100
AcDbLine
 10
30.260000603497019
 20
67.5
 30
0.0
 11
35.200000603497017
 21
67.5
 31
0.0
  0
LINE
  5
61B
100
AcDbEntity
  8
0
  6
CONTINUOUS
 62
               7
100
AcDbLine
 10
30.260000603497019
 20
62.499999999999993
 30
0.0
 11
30.260000603497019
 21
67.5
 31
0.0
  0
LINE
  5
61C
100
AcDbEntity
  8
0
  6
CONTINUOUS
 62
               7
100
AcDbLine
 10
32.870000603497033
 20
62.499999999999993
 30
0.0
 11
32.870000603497033
 21
67.5
 31
0.0
  0
LINE
  5
61D
100
AcDbEntity
  8
0
  6
CONTINUOUS
 62
               7
100
AcDbLine
 10
38.30000060349704
 20
71.199999999999989
 30
0.0
 11
41.700000603497017
 21
71.199999999999989
 31
0.0
  0
LINE
  5
61E
100
AcDbEntity
  8
0
  6
CONTINUOUS
 62
               7
100
AcDbLine
 10
42.30000060349704
 20
70.800000000000011
 30
0.0
 11
46.30000060349704
 21
70.800000000000011
 31
0.0
  0
LINE
  5
61F
100
AcDbEntity
  8
0
  6
CONTINUOUS
 62
               7
100
AcDbLine
 10
42.30000060349704
 20
69.800000000000011
 30
0.0
 11
42.30000060349704
 21
70.800000000000011
 31
0.0
  0
LINE
  5
620
100
AcDbEntity
  8
0
  6
CONTINUOUS
 62
               7
100
AcDbLine
 10
37.700000603497017
 20
69.800000000000011
 30
0.0
 11
37.700000603497017
 21
70.800000000000011
 31
0.0
  0
LINE
  5
621
100
AcDbEntity
  8
0
  6
CONTINUOUS
 62
               7
100
AcDbLine
 10
41.700000603497017
 20
69.800000000000011
 30
0.0
 11
41.700000603497017
 21
71.199999999999989
 31
0.0
  0
LINE
  5
622
100
AcDbEntity
  8
0
  6
CONTINUOUS
 62
               7
100
AcDbLine
 10
38.30000060349704
 20
69.800000000000011
 30
0.0
 11
38.30000060349704
 21
71.199999999999989
 31
0.0
  0
LINE
  5
623
100
AcDbEntity
  8
0
  6
CONTINUOUS
 62
               7
100
AcDbLine
 10
44.80000060349704
 20
68.800000000000011
 30
0.0
 11
46.30000060349704
 21
68.800000000000011
 31
0.0
  0
LINE
  5
624
100
AcDbEntity
  8
0
  6
CONTINUOUS
 62
               7
100
AcDbLine
 10
33.700000603497017
 20
68.800000000000011
 30
0.0
 11
35.200000603497017
 21
68.800000000000011
 31
0.0
  0
LINE
  5
625
100
AcDbEntity
  8
0
  6
CONTINUOUS
 62
               7
100
AcDbLine
 10
46.30000060349704
 20
70.800000000000011
 30
0.0
 11
46.30000060349704
 21
68.800000000000011
 31
0.0
  0
LINE
  5
626
100
AcDbEntity
  8
0
  6
CONTINUOUS
 62
               7
100
AcDbLine
 10
33.700000603497017
 20
68.800000000000011
 30
0.0
 11
33.700000603497017
 21
70.800000000000011
 31
0.0
  0
LINE
  5
627
100
AcDbEntity
  8
0
  6
CONTINUOUS
 62
               7
100
AcDbLine
 10
33.700000603497017
 20
70.800000000000011
 30
0.0
 11
37.700000603497017
 21
70.800000000000011
 31
0.0
  0
LINE
  5
628
100
AcDbEntity
  8
0
  6
CONTINUOUS
 62
               7
100
AcDbLine
 10
44.80000060349704
 20
61.199999999999982
 30
0.0
 11
46.30000060349704
 21
61.199999999999982
 31
0.0
  0
LINE
  5
629
100
AcDbEntity
  8
0
  6
CONTINUOUS
 62
               7
100
AcDbLine
 10
33.700000603497017
 20
61.199999999999982
 30
0.0
 11
35.200000603497017
 21
61.199999999999982
 31
0.0
  0
LINE
  5
62A
100
AcDbEntity
  8
0
  6
CONTINUOUS
 62
               7
100
AcDbLine
 10
46.30000060349704
 20
59.199999999999982
 30
0.0
 11
46.30000060349704
 21
61.199999999999982
 31
0.0
  0
LINE
  5
62B
100
AcDbEntity
  8
0
  6
CONTINUOUS
 62
               7
100
AcDbLine
 10
33.700000603497017
 20
61.199999999999982
 30
0.0
 11
33.700000603497017
 21
59.199999999999982
 31
0.0
  0
LINE
  5
62C
100
AcDbEntity
  8
0
  6
CONTINUOUS
 62
               7
100
AcDbLine
 10
33.700000603497017
 20
59.199999999999982
 30
0.0
 11
46.30000060349704
 21
59.199999999999982
 31
0.0
  0
LINE
  5
62D
100
AcDbEntity
  8
0
  6
CONTINUOUS
 62
               7
100
AcDbLine
 10
35.200000603497017
 20
69.800000000000011
 30
0.0
 11
35.200000603497017
 21
60.199999999999982
 31
0.0
  0
LINE
  5
62E
100
AcDbEntity
  8
0
  6
CONTINUOUS
 62
               7
100
AcDbLine
 10
44.80000060349704
 20
60.199999999999982
 30
0.0
 11
44.80000060349704
 21
69.800000000000011
 31
0.0
  0
LINE
  5
62F
100
AcDbEntity
  8
0
  6
CONTINUOUS
 62
               7
100
AcDbLine
 10
35.200000603497017
 20
60.199999999999982
 30
0.0
 11
44.80000060349704
 21
60.199999999999982
 31
0.0
  0
LINE
  5
630
100
AcDbEntity
  8
0
  6
CONTINUOUS
 62
               7
100
AcDbLine
 10
35.200000603497017
 20
69.800000000000011
 30
0.0
 11
44.80000060349704
 21
69.800000000000011
 31
0.0
  0
LINE
  5
631
100
AcDbEntity
  8
0
  6
CENTER
 62
               2
100
AcDbLine
 10
44.475718675445023
 20
67.300000000000011
 30
0.0
 11
35.586355557607817
 21
67.300000000000011
 31
0.0
  0
LINE
  5
632
100
AcDbEntity
  8
0
  6
CENTER
 62
               2
100
AcDbLine
 10
44.367750702353874
 20
63.099999999999987
 30
0.0
 11
35.658334206335212
 21
63.099999999999987
 31
0.0
  0
LINE
  5
633
100
AcDbEntity
  8
0
  6
CENTER
 62
               2
100
AcDbLine
 10
42.100000603497051
 20
69.547912457912474
 30
0.0
 11
42.100000603497051
 21
60.928383838383844
 31
0.0
  0
LINE
  5
634
100
AcDbEntity
  8
0
  6
CENTER
 62
               2
100
AcDbLine
 10
37.900000603497006
 20
69.547912457912474
 30
0.0
 11
37.900000603497006
 21
60.928383838383844
 31
0.0
  0
LINE
  5
635
100
AcDbEntity
  8
0
  6
CONTINUOUS
 62
               7
100
AcDbLine
 10
47.500000603497028
 20
62.499999999999993
 30
0.0
 11
47.500000603497028
 21
62.199999999999982
 31
0.0
  0
LINE
  5
636
100
AcDbEntity
  8
0
  6
CONTINUOUS
 62
               7
100
AcDbLine
 10
32.500000603497028
 20
62.499999999999993
 30
0.0
 11
32.500000603497028
 21
62.199999999999982
 31
0.0
  0
LINE
  5
637
100
AcDbEntity
  8
0
  6
CENTER
 62
               2
100
AcDbLine
 10
27.511693228835384
 20
65.0
 30
0.0
 11
54.864970500528159
 21
65.0
 31
0.0
  0
LINE
  5
638
100
AcDbEntity
  8
0
  6
CONTINUOUS
 62
               7
100
AcDbLine
 10
42.900000603497006
 20
82.199999999999989
 30
0.0
 11
42.900000603497006
 21
81.199999999999989
 31
0.0
  0
LINE
  5
639
100
AcDbEntity
  8
0
  6
CONTINUOUS
 62
               7
100
AcDbLine
 10
37.100000603496994
 20
82.199999999999989
 30
0.0
 11
37.100000603496994
 21
81.199999999999989
 31
0.0
  0
LINE
  5
63A
100
AcDbEntity
  8
0
  6
CONTINUOUS
 62
               7
100
AcDbLine
 10
37.100000603496994
 20
82.199999999999989
 30
0.0
 11
34.600000603496994
 21
82.199999999999989
 31
0.0
  0
LINE
  5
63B
100
AcDbEntity
  8
0
  6
CONTINUOUS
 62
               7
100
AcDbLine
 10
37.100000603496994
 20
87.800000000000011
 30
0.0
 11
34.600000603496994
 21
87.800000000000011
 31
0.0
  0
LINE
  5
63C
100
AcDbEntity
  8
0
  6
CONTINUOUS
 62
               7
100
AcDbLine
 10
38.000000603497028
 20
90.0
 30
0.0
 11
37.700000603497017
 21
90.0
 31
0.0
  0
LINE
  5
63D
100
AcDbEntity
  8
0
  6
CONTINUOUS
 62
               7
100
AcDbLine
 10
38.000000603497028
 20
90.0
 30
0.0
 11
38.000000603497028
 21
91.599999999999994
 31
0.0
  0
LINE
  5
63E
100
AcDbEntity
  8
0
  6
CONTINUOUS
 62
               7
100
AcDbLine
 10
42.000000603497028
 20
90.0
 30
0.0
 11
42.000000603497028
 21
91.599999999999994
 31
0.0
  0
LINE
  5
63F
100
AcDbEntity
  8
0
  6
CONTINUOUS
 62
               7
100
AcDbLine
 10
42.000000603497028
 20
91.599999999999994
 30
0.0
 11
38.000000603497028
 21
91.599999999999994
 31
0.0
  0
LINE
  5
640
100
AcDbEntity
  8
0
  6
CONTINUOUS
 62
               7
100
AcDbLine
 10
34.600000603496994
 20
87.799999999999983
 30
0.0
 11
34.600000603496994
 21
87.5
 31
0.0
  0
LINE
  5
641
100
AcDbEntity
  8
0
  6
CONTINUOUS
 62
               7
100
AcDbLine
 10
45.400000603497006
 20
87.799999999999983
 30
0.0
 11
45.400000603497006
 21
87.5
 31
0.0
  0
LINE
  5
642
100
AcDbEntity
  8
0
  6
CONTINUOUS
 62
               7
100
AcDbLine
 10
37.100000603496994
 20
88.800000000000011
 30
0.0
 11
37.100000603496994
 21
87.800000000000011
 31
0.0
  0
LINE
  5
643
100
AcDbEntity
  8
0
  6
CONTINUOUS
 62
               7
100
AcDbLine
 10
42.900000603497006
 20
88.800000000000011
 30
0.0
 11
42.900000603497006
 21
87.800000000000011
 31
0.0
  0
LINE
  5
644
100
AcDbEntity
  8
0
  6
CONTINUOUS
 62
               7
100
AcDbLine
 10
42.30000060349704
 20
90.0
 30
0.0
 11
42.000000603497028
 21
90.0
 31
0.0
  0
LINE
  5
645
100
AcDbEntity
  8
0
  6
CONTINUOUS
 62
               7
100
AcDbLine
 10
45.400000603497006
 20
87.800000000000011
 30
0.0
 11
42.900000603497006
 21
87.800000000000011
 31
0.0
  0
LINE
  5
646
100
AcDbEntity
  8
0
  6
CONTINUOUS
 62
               7
100
AcDbLine
 10
45.400000603497006
 20
82.199999999999989
 30
0.0
 11
42.900000603497006
 21
82.199999999999989
 31
0.0
  0
LINE
  5
647
100
AcDbEntity
  8
0
  6
CONTINUOUS
 62
               7
100
AcDbLine
 10
38.250000603497028
 20
81.349999999999994
 30
0.0
 11
41.750000603497028
 21
81.349999999999994
 31
0.0
  0
LINE
  5
648
100
AcDbEntity
  8
0
  6
CONTINUOUS
 62
               7
100
AcDbLine
 10
38.250000603497028
 20
84.849999999999994
 30
0.0
 11
41.750000603497028
 21
84.849999999999994
 31
0.0
  0
LINE
  5
649
100
AcDbEntity
  8
0
  6
CONTINUOUS
 62
               7
100
AcDbLine
 10
38.250000603497028
 20
84.849999999999994
 30
0.0
 11
38.250000603497028
 21
81.349999999999994
 31
0.0
  0
LINE
  5
64A
100
AcDbEntity
  8
0
  6
CONTINUOUS
 62
               7
100
AcDbLine
 10
41.750000603497028
 20
84.849999999999994
 30
0.0
 11
41.750000603497028
 21
81.349999999999994
 31
0.0
  0
LINE
  5
64B
100
AcDbEntity
  8
0
  6
CONTINUOUS
 62
               7
100
AcDbLine
 10
38.250000603497028
 20
85.550000000000011
 30
0.0
 11
41.750000603497028
 21
85.550000000000011
 31
0.0
  0
LINE
  5
64C
100
AcDbEntity
  8
0
  6
CONTINUOUS
 62
               7
100
AcDbLine
 10
38.250000603497028
 20
89.050000000000011
 30
0.0
 11
41.750000603497028
 21
89.050000000000011
 31
0.0
  0
LINE
  5
64D
100
AcDbEntity
  8
0
  6
CONTINUOUS
 62
               7
100
AcDbLine
 10
38.250000603497028
 20
89.050000000000011
 30
0.0
 11
38.250000603497028
 21
85.550000000000011
 31
0.0
  0
LINE
  5
64E
100
AcDbEntity
  8
0
  6
CONTINUOUS
 62
               7
100
AcDbLine
 10
41.750000603497028
 20
89.050000000000011
 30
0.0
 11
41.750000603497028
 21
85.550000000000011
 31
0.0
  0
LINE
  5
64F
100
AcDbEntity
  8
0
  6
CONTINUOUS
 62
               7
100
AcDbLine
 10
47.630000603497024
 20
82.5
 30
0.0
 11
42.700000603497074
 21
82.5
 31
0.0
  0
LINE
  5
650
100
AcDbEntity
  8
0
  6
CONTINUOUS
 62
               7
100
AcDbLine
 10
47.630000603497024
 20
87.5
 30
0.0
 11
42.700000603497074
 21
87.5
 31
0.0
  0
LINE
  5
651
100
AcDbEntity
  8
0
  6
CONTINUOUS
 62
               7
100
AcDbLine
 10
47.630000603497024
 20
82.5
 30
0.0
 11
47.630000603497024
 21
87.5
 31
0.0
  0
LINE
  5
652
100
AcDbEntity
  8
0
  6
CONTINUOUS
 62
               7
100
AcDbLine
 10
45.02000060349701
 20
82.5
 30
0.0
 11
45.02000060349701
 21
87.5
 31
0.0
  0
LINE
  5
653
100
AcDbEntity
  8
0
  6
CONTINUOUS
 62
               7
100
AcDbLine
 10
32.360000603497042
 20
82.5
 30
0.0
 11
37.300000603496983
 21
82.5
 31
0.0
  0
LINE
  5
654
100
AcDbEntity
  8
0
  6
CONTINUOUS
 62
               7
100
AcDbLine
 10
32.360000603497042
 20
87.5
 30
0.0
 11
37.300000603496983
 21
87.5
 31
0.0
  0
LINE
  5
655
100
AcDbEntity
  8
0
  6
CONTINUOUS
 62
               7
100
AcDbLine
 10
32.360000603497042
 20
82.5
 30
0.0
 11
32.360000603497042
 21
87.5
 31
0.0
  0
LINE
  5
656
100
AcDbEntity
  8
0
  6
CONTINUOUS
 62
               7
100
AcDbLine
 10
34.970000603496999
 20
82.5
 30
0.0
 11
34.970000603497056
 21
87.5
 31
0.0
  0
LINE
  5
657
100
AcDbEntity
  8
0
  6
CONTINUOUS
 62
               7
100
AcDbLine
 10
38.30000060349704
 20
91.199999999999989
 30
0.0
 11
41.700000603497017
 21
91.199999999999989
 31
0.0
  0
LINE
  5
658
100
AcDbEntity
  8
0
  6
CONTINUOUS
 62
               7
100
AcDbLine
 10
42.30000060349704
 20
90.800000000000011
 30
0.0
 11
44.200000603497074
 21
90.800000000000011
 31
0.0
  0
LINE
  5
659
100
AcDbEntity
  8
0
  6
CONTINUOUS
 62
               7
100
AcDbLine
 10
42.30000060349704
 20
89.800000000000011
 30
0.0
 11
42.30000060349704
 21
90.800000000000011
 31
0.0
  0
LINE
  5
65A
100
AcDbEntity
  8
0
  6
CONTINUOUS
 62
               7
100
AcDbLine
 10
37.700000603497017
 20
89.800000000000011
 30
0.0
 11
37.700000603497017
 21
90.800000000000011
 31
0.0
  0
LINE
  5
65B
100
AcDbEntity
  8
0
  6
CONTINUOUS
 62
               7
100
AcDbLine
 10
41.700000603497017
 20
89.800000000000011
 30
0.0
 11
41.700000603497017
 21
91.199999999999989
 31
0.0
  0
LINE
  5
65C
100
AcDbEntity
  8
0
  6
CONTINUOUS
 62
               7
100
AcDbLine
 10
38.30000060349704
 20
89.800000000000011
 30
0.0
 11
38.30000060349704
 21
91.199999999999989
 31
0.0
  0
LINE
  5
65D
100
AcDbEntity
  8
0
  6
CONTINUOUS
 62
               7
100
AcDbLine
 10
42.700000603497074
 20
88.800000000000011
 30
0.0
 11
44.200000603497074
 21
88.800000000000011
 31
0.0
  0
LINE
  5
65E
100
AcDbEntity
  8
0
  6
CONTINUOUS
 62
               7
100
AcDbLine
 10
35.800000603496983
 20
88.800000000000011
 30
0.0
 11
37.300000603496983
 21
88.800000000000011
 31
0.0
  0
LINE
  5
65F
100
AcDbEntity
  8
0
  6
CONTINUOUS
 62
               7
100
AcDbLine
 10
44.200000603497074
 20
90.800000000000011
 30
0.0
 11
44.200000603497074
 21
88.800000000000011
 31
0.0
  0
LINE
  5
660
100
AcDbEntity
  8
0
  6
CONTINUOUS
 62
               7
100
AcDbLine
 10
35.800000603496983
 20
88.800000000000011
 30
0.0
 11
35.800000603496983
 21
90.800000000000011
 31
0.0
  0
LINE
  5
661
100
AcDbEntity
  8
0
  6
CONTINUOUS
 62
               7
100
AcDbLine
 10
35.800000603496983
 20
90.800000000000011
 30
0.0
 11
37.700000603497017
 21
90.800000000000011
 31
0.0
  0
LINE
  5
662
100
AcDbEntity
  8
0
  6
CONTINUOUS
 62
               7
100
AcDbLine
 10
42.700000603497074
 20
81.199999999999989
 30
0.0
 11
44.200000603497074
 21
81.199999999999989
 31
0.0
  0
LINE
  5
663
100
AcDbEntity
  8
0
  6
CONTINUOUS
 62
               7
100
AcDbLine
 10
35.800000603496983
 20
81.199999999999989
 30
0.0
 11
37.300000603496983
 21
81.199999999999989
 31
0.0
  0
LINE
  5
664
100
AcDbEntity
  8
0
  6
CONTINUOUS
 62
               7
100
AcDbLine
 10
44.200000603497074
 20
79.199999999999989
 30
0.0
 11
44.200000603497074
 21
81.199999999999989
 31
0.0
  0
LINE
  5
665
100
AcDbEntity
  8
0
  6
CONTINUOUS
 62
               7
100
AcDbLine
 10
35.800000603496983
 20
81.199999999999989
 30
0.0
 11
35.800000603496983
 21
79.199999999999989
 31
0.0
  0
LINE
  5
666
100
AcDbEntity
  8
0
  6
CONTINUOUS
 62
               7
100
AcDbLine
 10
35.800000603496983
 20
79.199999999999989
 30
0.0
 11
44.200000603497074
 21
79.199999999999989
 31
0.0
  0
LINE
  5
667
100
AcDbEntity
  8
0
  6
CONTINUOUS
 62
               7
100
AcDbLine
 10
37.300000603496983
 20
89.800000000000011
 30
0.0
 11
37.300000603496983
 21
80.199999999999989
 31
0.0
  0
LINE
  5
668
100
AcDbEntity
  8
0
  6
CONTINUOUS
 62
               7
100
AcDbLine
 10
42.700000603497074
 20
80.199999999999989
 30
0.0
 11
42.700000603497074
 21
89.800000000000011
 31
0.0
  0
LINE
  5
669
100
AcDbEntity
  8
0
  6
CONTINUOUS
 62
               7
100
AcDbLine
 10
37.300000603496983
 20
80.199999999999989
 30
0.0
 11
42.700000603497074
 21
80.199999999999989
 31
0.0
  0
LINE
  5
66A
100
AcDbEntity
  8
0
  6
CONTINUOUS
 62
               7
100
AcDbLine
 10
37.300000603496983
 20
89.800000000000011
 30
0.0
 11
42.700000603497074
 21
89.800000000000011
 31
0.0
  0
LINE
  5
66B
100
AcDbEntity
  8
0
  6
CENTER
 62
               2
100
AcDbLine
 10
42.304547465642145
 20
87.300000000000011
 30
0.0
 11
37.686355557607783
 21
87.300000000000011
 31
0.0
  0
LINE
  5
66C
100
AcDbEntity
  8
0
  6
CENTER
 62
               2
100
AcDbLine
 10
42.244265875090377
 20
83.099999999999994
 30
0.0
 11
37.758334206335235
 21
83.099999999999994
 31
0.0
  0
LINE
  5
66D
100
AcDbEntity
  8
0
  6
CENTER
 62
               2
100
AcDbLine
 10
40.000000603497028
 20
93.324854349330906
 30
0.0
 11
40.000000603497028
 21
34.402930467353286
 31
0.0
  0
LINE
  5
66E
100
AcDbEntity
  8
0
  6
CONTINUOUS
 62
               7
100
AcDbLine
 10
45.400000603497006
 20
82.5
 30
0.0
 11
45.400000603497006
 21
82.199999999999989
 31
0.0
  0
LINE
  5
66F
100
AcDbEntity
  8
0
  6
CONTINUOUS
 62
               7
100
AcDbLine
 10
34.600000603496994
 20
82.5
 30
0.0
 11
34.600000603496994
 21
82.199999999999989
 31
0.0
  0
LINE
  5
670
100
AcDbEntity
  8
0
  6
CENTER
 62
               2
100
AcDbLine
 10
31.33329798522459
 20
85.0
 30
0.0
 11
52.473427132511347
 21
85.0
 31
0.0
  0
LINE
  5
671
100
AcDbEntity
  8
0
  6
CENTER
 62
               2
100
AcDbLine
 10
12.394740688814181
 20
120.0
 30
0.0
 11
37.163955019267405
 21
120.0
 31
0.0
  0
LINE
  5
672
100
AcDbEntity
  8
0
  6
CONTINUOUS
 62
               7
100
AcDbLine
 10
20.100000000000023
 20
121.0
 30
0.0
 11
20.100000000000023
 21
119.0
 31
0.0
  0
LINE
  5
673
100
AcDbEntity
  8
0
  6
CONTINUOUS
 62
               7
100
AcDbLine
 10
29.899999999999977
 20
121.0
 30
0.0
 11
29.899999999999977
 21
119.0
 31
0.0
  0
LINE
  5
674
100
AcDbEntity
  8
0
  6
CONTINUOUS
 62
               7
100
AcDbLine
 10
20.0
 20
117.12
 30
0.0
 11
20.659999999999968
 21
116.74000000000001
 31
0.0
  0
LINE
  5
675
100
AcDbEntity
  8
0
  6
CONTINUOUS
 62
               7
100
AcDbLine
 10
20.659999999999968
 20
123.25999999999999
 30
0.0
 11
20.0
 21
122.88
 31
0.0
  0
LINE
  5
676
100
AcDbEntity
  8
0
  6
CONTINUOUS
 62
               7
100
AcDbLine
 10
20.0
 20
122.88
 30
0.0
 11
20.0
 21
117.12
 31
0.0
  0
LINE
  5
677
100
AcDbEntity
  8
0
  6
CONTINUOUS
 62
               7
100
AcDbLine
 10
29.340000000000032
 20
123.25999999999999
 30
0.0
 11
30.0
 21
122.88
 31
0.0
  0
LINE
  5
678
100
AcDbEntity
  8
0
  6
CONTINUOUS
 62
               7
100
AcDbLine
 10
30.0
 20
122.88
 30
0.0
 11
30.0
 21
117.12
 31
0.0
  0
LINE
  5
679
100
AcDbEntity
  8
0
  6
CONTINUOUS
 62
               7
100
AcDbLine
 10
30.0
 20
117.12
 30
0.0
 11
29.340000000000032
 21
116.74000000000001
 31
0.0
  0
ARC
  5
67A
100
AcDbEntity
  8
0
  6
CONTINUOUS
 62
               7
100
AcDbCircle
 10
25.0
 20
121.0
 30
0.0
 40
4.9000000000000004
100
AcDbArc
 50
0.0
 51
179.99999999999963
  0
ARC
  5
67B
100
AcDbEntity
  8
0
  6
CONTINUOUS
 62
               7
100
AcDbCircle
 10
25.0
 20
119.0
 30
0.0
 40
4.9000000000000004
100
AcDbArc
 50
179.99999999999963
 51
0.0
  0
CIRCLE
  5
67C
100
AcDbEntity
  8
0
  6
CONTINUOUS
 62
               7
100
AcDbCircle
 10
25.0
 20
120.0
 30
0.0
 40
3.0
  0
LINE
  5
67D
100
AcDbEntity
  8
0
  6
CONTINUOUS
 62
               7
100
AcDbLine
 10
14.5
 20
109.5
 30
0.0
 11
35.5
 21
109.5
 31
0.0
  0
ARC
  5
67E
100
AcDbEntity
  8
0
  6
CONTINUOUS
 62
               7
100
AcDbCircle
 10
25.0
 20
120.0
 30
0.0
 40
10.5
100
AcDbArc
 50
0.0
 51
179.99999999999963
  0
LINE
  5
67F
100
AcDbEntity
  8
0
  6
CONTINUOUS
 62
               7
100
AcDbLine
 10
14.5
 20
109.5
 30
0.0
 11
14.5
 21
124.5
 31
0.0
  0
LINE
  5
680
100
AcDbEntity
  8
0
  6
CONTINUOUS
 62
               7
100
AcDbLine
 10
35.5
 20
109.5
 30
0.0
 11
35.5
 21
124.5
 31
0.0
  0
LINE
  5
681
100
AcDbEntity
  8
0
  6
CONTINUOUS
 62
               7
100
AcDbLine
 10
14.5
 20
124.5
 30
0.0
 11
15.513167019494858
 21
124.5
 31
0.0
  0
LINE
  5
682
100
AcDbEntity
  8
0
  6
CONTINUOUS
 62
               7
100
AcDbLine
 10
34.486832980505142
 20
124.5
 30
0.0
 11
35.5
 21
124.5
 31
0.0
  0
LINE
  5
683
100
AcDbEntity
  8
0
  6
CENTER
 62
               2
100
AcDbLine
 10
0.0
 20
-1.6581682070047208
 30
0.0
 11
0.0
 21
2.906338704052331
 31
0.0
  0
LINE
  5
684
100
AcDbEntity
  8
0
  6
PHANTOM
 62
               2
100
AcDbLine
 10
50.0
 20
-1.6581682070047208
 30
0.0
 11
50.0
 21
3.2946468810056047
 31
0.0
  0
LINE
  5
685
100
AcDbEntity
  8
0
  6
CENTER
 62
               2
100
AcDbLine
 10
15.0
 20
34.379999999999995
 30
0.0
 11
15.0
 21
19.329999999999998
 31
0.0
  0
LINE
  5
686
100
AcDbEntity
  8
0
  6
CENTER
 62
               2
100
AcDbLine
 10
8.7899999999999636
 20
27.0
 30
0.0
 11
21.460000000000036
 21
27.0
 31
0.0
  0
LINE
  5
687
100
AcDbEntity
  8
0
  6
CONTINUOUS
 62
               7
100
AcDbLine
 10
10.100000000000023
 20
28.0
 30
0.0
 11
10.100000000000023
 21
26.0
 31
0.0
  0
LINE
  5
688
100
AcDbEntity
  8
0
  6
CONTINUOUS
 62
               7
100
AcDbLine
 10
19.899999999999977
 20
28.0
 30
0.0
 11
19.899999999999977
 21
26.0
 31
0.0
  0
LINE
  5
689
100
AcDbEntity
  8
0
  6
CONTINUOUS
 62
               7
100
AcDbLine
 10
10.0
 20
24.120000000000005
 30
0.0
 11
10.659999999999968
 21
23.739999999999995
 31
0.0
  0
LINE
  5
68A
100
AcDbEntity
  8
0
  6
CONTINUOUS
 62
               7
100
AcDbLine
 10
10.659999999999968
 20
30.260000000000005
 30
0.0
 11
10.0
 21
29.879999999999995
 31
0.0
  0
LINE
  5
68B
100
AcDbEntity
  8
0
  6
CONTINUOUS
 62
               7
100
AcDbLine
 10
10.0
 20
29.879999999999995
 30
0.0
 11
10.0
 21
24.120000000000005
 31
0.0
  0
LINE
  5
68C
100
AcDbEntity
  8
0
  6
CONTINUOUS
 62
               7
100
AcDbLine
 10
19.340000000000032
 20
30.260000000000005
 30
0.0
 11
20.0
 21
29.879999999999995
 31
0.0
  0
LINE
  5
68D
100
AcDbEntity
  8
0
  6
CONTINUOUS
 62
               7
100
AcDbLine
 10
20.0
 20
29.879999999999995
 30
0.0
 11
20.0
 21
24.120000000000005
 31
0.0
  0
LINE
  5
68E
100
AcDbEntity
  8
0
  6
CONTINUOUS
 62
               7
100
AcDbLine
 10
20.0
 20
24.120000000000005
 30
0.0
 11
19.340000000000032
 21
23.739999999999995
 31
0.0
  0
ARC
  5
68F
100
AcDbEntity
  8
0
  6
CONTINUOUS
 62
               7
100
AcDbCircle
 10
15.0
 20
28.0
 30
0.0
 40
4.9000000000000004
100
AcDbArc
 50
0.0
 51
179.99999999999963
  0
ARC
  5
690
100
AcDbEntity
  8
0
  6
CONTINUOUS
 62
               7
100
AcDbCircle
 10
15.0
 20
26.0
 30
0.0
 40
4.9000000000000004
100
AcDbArc
 50
179.99999999999963
 51
0.0
  0
CIRCLE
  5
691
100
AcDbEntity
  8
0
  6
CONTINUOUS
 62
               7
100
AcDbCircle
 10
15.0
 20
27.0
 30
0.0
 40
3.0
  0
CIRCLE
  5
692
100
AcDbEntity
  8
0
  6
CONTINUOUS
 62
               7
100
AcDbCircle
 10
15.0
 20
27.0
 30
0.0
 40
6.0
  0
LINE
  5
693
100
AcDbEntity
  8
0
  6
CONTINUOUS
 62
               7
100
AcDbLine
 10
20.939339630305767
 20
37.43933997303246
 30
0.0
 11
23.060660116374493
 21
39.560660280287252
 31
0.0
  0
LINE
  5
694
100
AcDbEntity
  8
0
  6
CONTINUOUS
 62
               7
100
AcDbLine
 10
20.939339552074671
 20
39.560659948736443
 30
0.0
 11
23.060659859329462
 21
37.439339462667718
 31
0.0
  0
CIRCLE
  5
695
100
AcDbEntity
  8
0
  6
CONTINUOUS
 62
               7
100
AcDbCircle
 10
22.0
 20
38.5
 30
0.0
 40
2.7999992370605469
  0
LINE
  5
696
100
AcDbEntity
  8
0
  6
CONTINUOUS
 62
               7
100
AcDbLine
 10
6.9393396303057671
 20
14.93933997303246
 30
0.0
 11
9.0606601163744926
 21
17.060660280287252
 31
0.0
  0
LINE
  5
697
100
AcDbEntity
  8
0
  6
CONTINUOUS
 62
               7
100
AcDbLine
 10
6.9393395520746708
 20
17.060659948736443
 30
0.0
 11
9.0606598593294621
 21
14.939339462667718
 31
0.0
  0
CIRCLE
  5
698
100
AcDbEntity
  8
0
  6
CONTINUOUS
 62
               7
100
AcDbCircle
 10
8.0
 20
16.0
 30
0.0
 40
2.7999992370605469
  0
LINE
  5
699
100
AcDbEntity
  8
0
  6
CENTER
 62
               2
100
AcDbLine
 10
17.718836009502411
 20
38.499999832361922
 30
0.0
 11
26.631705800307486
 21
38.499999832361922
 31
0.0
  0
LINE
  5
69A
100
AcDbEntity
  8
0
  6
CENTER
 62
               2
100
AcDbLine
 10
21.999999579042196
 20
33.97655144924218
 30
0.0
 11
21.999999579042196
 21
43.223653852939606
 31
0.0
  0
LINE
  5
69B
100
AcDbEntity
  8
0
  6
CENTER
 62
               2
100
AcDbLine
 10
3.7188360095024109
 20
15.999999832361922
 30
0.0
 11
12.631705800307486
 21
15.999999832361922
 31
0.0
  0
LINE
  5
69C
100
AcDbEntity
  8
0
  6
CENTER
 62
               2
100
AcDbLine
 10
7.9999995790421963
 20
11.47655144924218
 30
0.0
 11
7.9999995790421963
 21
20.723653852939606
 31
0.0
  0
CIRCLE
  5
69D
100
AcDbEntity
  8
0
  6
CONTINUOUS
 62
               7
100
AcDbCircle
 10
21.999999579042196
 20
38.499999832361937
 30
0.0
 40
3.0
  0
CIRCLE
  5
69E
100
AcDbEntity
  8
0
  6
CONTINUOUS
 62
               7
100
AcDbCircle
 10
7.9999995790421963
 20
15.999999832361922
 30
0.0
 40
3.0
  0
LINE
  5
69F
100
AcDbEntity
  8
0
  6
CENTER
 62
               2
100
AcDbLine
 10
25.0
 20
-5.0142094742766261
 30
0.0
 11
25.0
 21
138.50474599504344
 31
0.0
  0
ENDBLK
  5
6A0
100
AcDbEntity
  8
0
100
AcDbBlockEnd
  0
BLOCK
  5
6A1
100
AcDbEntity
  8
0
100
AcDbBlockBegin
  2
DTRY-ELB-13
 70
               0
 10
0.0
 20
0.0
 30
0.0
  3
DTRY-ELB-13
  1

  0
LINE
  5
6A2
100
AcDbEntity
  8
0
  6
CONTINUOUS
 62
               7
100
AcDbLine
 10
-55.0
 20
0.0
 30
0.0
 11
-55.0
 21
135.0
 31
0.0
  0
LINE
  5
6A3
100
AcDbEntity
  8
0
  6
CONTINUOUS
 62
               7
100
AcDbLine
 10
5.0
 20
0.0
 30
0.0
 11
5.0
 21
135.0
 31
0.0
  0
LINE
  5
6A4
100
AcDbEntity
  8
0
  6
CENTER
 62
               2
100
AcDbLine
 10
-25.0
 20
-1.6581682070047208
 30
0.0
 11
-25.0
 21
138.50474599504346
 31
0.0
  0
LINE
  5
6A5
100
AcDbEntity
  8
0
  6
CONTINUOUS
 62
               7
100
AcDbLine
 10
-55.0
 20
135.0
 30
0.0
 11
5.0
 21
135.0
 31
0.0
  0
LINE
  5
6A6
100
AcDbEntity
  8
0
  6
CONTINUOUS
 62
               7
100
AcDbLine
 10
-32.499999810010195
 20
32.499999620020404
 30
0.0
 11
-32.499999810010195
 21
17.499999620020404
 31
0.0
  0
LINE
  5
6A7
100
AcDbEntity
  8
0
  6
CONTINUOUS
 62
               7
100
AcDbLine
 10
-32.499999810010195
 20
32.499999620020404
 30
0.0
 11
-47.499999810010195
 21
32.499999620020404
 31
0.0
  0
LINE
  5
6A8
100
AcDbEntity
  8
0
  6
CONTINUOUS
 62
               7
100
AcDbLine
 10
-32.499999810010195
 20
17.499999620020404
 30
0.0
 11
-47.499999810010195
 21
17.499999620020404
 31
0.0
  0
LINE
  5
6A9
100
AcDbEntity
  8
0
  6
CONTINUOUS
 62
               7
100
AcDbLine
 10
-47.499999810010195
 20
32.499999620020404
 30
0.0
 11
-47.499999810010195
 21
17.499999620020404
 31
0.0
  0
LINE
  5
6AA
100
AcDbEntity
  8
0
  6
CONTINUOUS
 62
               7
100
AcDbLine
 10
-30.499999810010195
 20
34.499999620020404
 30
0.0
 11
-30.499999810010195
 21
15.499999620020404
 31
0.0
  0
LINE
  5
6AB
100
AcDbEntity
  8
0
  6
CONTINUOUS
 62
               7
100
AcDbLine
 10
-49.499999810010195
 20
34.499999620020404
 30
0.0
 11
-49.499999810010195
 21
15.499999620020404
 31
0.0
  0
LINE
  5
6AC
100
AcDbEntity
  8
0
  6
CONTINUOUS
 62
               7
100
AcDbLine
 10
-49.499999810010195
 20
34.499999620020404
 30
0.0
 11
-30.499999810010195
 21
34.499999620020404
 31
0.0
  0
LINE
  5
6AD
100
AcDbEntity
  8
0
  6
CONTINUOUS
 62
               7
100
AcDbLine
 10
-49.499999810010195
 20
15.499999620020404
 30
0.0
 11
-30.499999810010195
 21
15.499999620020404
 31
0.0
  0
LINE
  5
6AE
100
AcDbEntity
  8
0
  6
CONTINUOUS
 62
               7
100
AcDbLine
 10
-31.499999810010195
 20
33.499999620020404
 30
0.0
 11
-31.499999810010195
 21
16.499999620020404
 31
0.0
  0
LINE
  5
6AF
100
AcDbEntity
  8
0
  6
CONTINUOUS
 62
               7
100
AcDbLine
 10
-48.499999810010195
 20
33.499999620020404
 30
0.0
 11
-48.499999810010195
 21
16.499999620020404
 31
0.0
  0
LINE
  5
6B0
100
AcDbEntity
  8
0
  6
CONTINUOUS
 62
               7
100
AcDbLine
 10
-31.499999810010195
 20
33.499999620020404
 30
0.0
 11
-48.499999810010195
 21
33.499999620020404
 31
0.0
  0
LINE
  5
6B1
100
AcDbEntity
  8
0
  6
CONTINUOUS
 62
               7
100
AcDbLine
 10
-31.499999810010195
 20
16.499999620020404
 30
0.0
 11
-48.499999810010195
 21
16.499999620020404
 31
0.0
  0
LINE
  5
6B2
100
AcDbEntity
  8
0
  6
CONTINUOUS
 62
               7
100
AcDbLine
 10
-30.499999810010195
 20
34.499999620020404
 30
0.0
 11
-31.499999810010195
 21
33.499999620020404
 31
0.0
  0
LINE
  5
6B3
100
AcDbEntity
  8
0
  6
CONTINUOUS
 62
               7
100
AcDbLine
 10
-30.499999810010195
 20
15.499999620020404
 30
0.0
 11
-31.499999810010195
 21
16.499999620020404
 31
0.0
  0
LINE
  5
6B4
100
AcDbEntity
  8
0
  6
CONTINUOUS
 62
               7
100
AcDbLine
 10
-48.499999810010195
 20
33.499999620020404
 30
0.0
 11
-49.499999810010195
 21
34.499999620020404
 31
0.0
  0
LINE
  5
6B5
100
AcDbEntity
  8
0
  6
CONTINUOUS
 62
               7
100
AcDbLine
 10
-48.499999810010195
 20
16.499999620020404
 30
0.0
 11
-49.499999810010195
 21
15.499999620020404
 31
0.0
  0
CIRCLE
  5
6B6
100
AcDbEntity
  8
0
  6
CONTINUOUS
 62
               7
100
AcDbCircle
 10
-39.999999810010195
 20
24.999999620020404
 30
0.0
 40
7.5
  0
LINE
  5
6B7
100
AcDbEntity
  8
0
  6
CONTINUOUS
 62
               7
100
AcDbLine
 10
-25.000000000000057
 20
44.411542731880104
 30
0.0
 11
-11.5
 21
52.205771365940052
 31
0.0
  0
LINE
  5
6B8
100
AcDbEntity
  8
0
  6
CONTINUOUS
 62
               7
100
AcDbLine
 10
-25.0
 20
75.58845726811991
 30
0.0
 11
-38.499999999999972
 21
67.794228634059905
 31
0.0
  0
LINE
  5
6B9
100
AcDbEntity
  8
0
  6
CONTINUOUS
 62
               7
100
AcDbLine
 10
-14.001463667891386
 20
60.158094101589583
 30
0.0
 11
-15.345470797287419
 21
60.934057816274219
 31
0.0
  0
LINE
  5
6BA
100
AcDbEntity
  8
0
  6
CONTINUOUS
 62
               7
100
AcDbLine
 10
-15.554040020768895
 20
54.362555002403845
 30
0.0
 11
-17.105950684413415
 21
54.362556986634758
 31
0.0
  0
LINE
  5
6BB
100
AcDbEntity
  8
0
  6
CONTINUOUS
 62
               7
100
AcDbLine
 10
-17.334867718461396
 20
67.889520547748717
 30
0.0
 11
-18.833898127413647
 21
67.487856748608948
 31
0.0
  0
LINE
  5
6BC
100
AcDbEntity
  8
0
  6
CONTINUOUS
 62
               7
100
AcDbLine
 10
-14.334793593417061
 20
62.693369351378422
 30
0.0
 11
-15.432139505571286
 21
61.596025625612128
 31
0.0
  0
LINE
  5
6BD
100
AcDbEntity
  8
0
  6
CONTINUOUS
 62
               7
100
AcDbLine
 10
-25.158570977525784
 20
70.998775757746387
 30
0.0
 11
-25.934526535907025
 21
69.654782040245237
 31
0.0
  0
LINE
  5
6BE
100
AcDbEntity
  8
0
  6
CONTINUOUS
 62
               7
100
AcDbLine
 10
-19.363095197811475
 20
69.445923333829171
 30
0.0
 11
-19.363096861609307
 21
67.894012855186759
 31
0.0
  0
LINE
  5
6BF
100
AcDbEntity
  8
0
  6
CONTINUOUS
 62
               7
100
AcDbLine
 10
-32.889620743844347
 20
67.665172133785703
 30
0.0
 11
-32.487949160145689
 21
66.16611207450245
 31
0.0
  0
LINE
  5
6C0
100
AcDbEntity
  8
0
  6
CONTINUOUS
 62
               7
100
AcDbLine
 10
-27.693502001811112
 20
70.665053575224221
 30
0.0
 11
-26.596136810845422
 21
69.567685911252198
 31
0.0
  0
LINE
  5
6C1
100
AcDbEntity
  8
0
  6
CONTINUOUS
 62
               7
100
AcDbLine
 10
-35.999056968510672
 20
59.840932793474174
 30
0.0
 11
-34.655069765757844
 21
59.064980889576233
 31
0.0
  0
LINE
  5
6C2
100
AcDbEntity
  8
0
  6
CONTINUOUS
 62
               7
100
AcDbLine
 10
-34.445922919269407
 20
65.636644741915717
 30
0.0
 11
-32.893997135586176
 21
65.636642997992482
 31
0.0
  0
LINE
  5
6C3
100
AcDbEntity
  8
0
  6
CONTINUOUS
 62
               7
100
AcDbLine
 10
-32.664975710973408
 20
52.109774000076058
 30
0.0
 11
-31.165944956802548
 21
52.511437571283807
 31
0.0
  0
LINE
  5
6C4
100
AcDbEntity
  8
0
  6
CONTINUOUS
 62
               7
100
AcDbLine
 10
-35.664965483441961
 20
57.306370633037034
 30
0.0
 11
-34.567619272325487
 21
58.403714210982486
 31
0.0
  0
LINE
  5
6C5
100
AcDbEntity
  8
0
  6
CONTINUOUS
 62
               7
100
AcDbLine
 10
-24.840815829426987
 20
49.000821989500821
 30
0.0
 11
-24.06485990436218
 21
50.344815811895863
 31
0.0
  0
LINE
  5
6C6
100
AcDbEntity
  8
0
  6
CONTINUOUS
 62
               7
100
AcDbLine
 10
-30.636804656193078
 20
50.554090078894781
 30
0.0
 11
-30.636802752107968
 21
52.105970178706457
 31
0.0
  0
LINE
  5
6C7
100
AcDbEntity
  8
0
  6
CONTINUOUS
 62
               7
100
AcDbLine
 10
-17.110359216031128
 20
52.334834120168964
 30
0.0
 11
-17.512030571793218
 21
53.833894524677703
 31
0.0
  0
LINE
  5
6C8
100
AcDbEntity
  8
0
  6
CONTINUOUS
 62
               7
100
AcDbLine
 10
-22.306766934433483
 20
49.334634806834458
 30
0.0
 11
-23.404121268102784
 21
50.431991933915697
 31
0.0
  0
LINE
  5
6C9
100
AcDbEntity
  8
0
  6
CONTINUOUS
 62
               7
100
AcDbLine
 10
-22.091675582005848
 20
67.452624577515948
 30
0.0
 11
-32.908324417994152
 21
61.207629460328448
 31
0.0
  0
LINE
  5
6CA
100
AcDbEntity
  8
0
  6
CONTINUOUS
 62
               7
100
AcDbLine
 10
-17.091675582005848
 20
58.792370539671552
 30
0.0
 11
-27.908324417994152
 21
52.547375422484052
 31
0.0
  0
LINE
  5
6CB
100
AcDbEntity
  8
0
  6
CONTINUOUS
 62
               7
100
AcDbLine
 10
-22.595352101088622
 20
67.104070633521715
 30
0.0
 11
-32.354603159366576
 21
61.469564407935778
 31
0.0
  0
LINE
  5
6CC
100
AcDbEntity
  8
0
  6
CONTINUOUS
 62
               7
100
AcDbLine
 10
-17.645339894057315
 20
58.530397992857445
 30
0.0
 11
-27.404590952335411
 21
52.895891767271522
 31
0.0
  0
LINE
  5
6CD
100
AcDbEntity
  8
0
  6
CONTINUOUS
 62
               7
100
AcDbLine
 10
-19.254623381434641
 20
55.179094153508167
 30
0.0
 11
-18.71839464020934
 21
54.729144773854721
 31
0.0
  0
LINE
  5
6CE
100
AcDbEntity
  8
0
  6
CONTINUOUS
 62
               7
100
AcDbLine
 10
-23.697602074854217
 20
52.613925698504616
 30
0.0
 11
-23.576046202608438
 21
51.92454826956407
 31
0.0
  0
CIRCLE
  5
6CF
100
AcDbEntity
  8
0
  6
CONTINUOUS
 62
               7
100
AcDbCircle
 10
-25.0
 20
60.0
 30
0.0
 40
9.6999998092651367
  0
ARC
  5
6D0
100
AcDbEntity
  8
0
  6
CONTINUOUS
 62
               7
100
AcDbCircle
 10
-25.0
 20
60.0
 30
0.0
 40
10.700000762939453
100
AcDbArc
 50
328.20990137153615
 51
1.7901439353110291
  0
CIRCLE
  5
6D1
100
AcDbEntity
  8
0
  6
CONTINUOUS
 62
               7
100
AcDbCircle
 10
-25.0
 20
60.0
 30
0.0
 40
11.0
  0
ARC
  5
6D2
100
AcDbEntity
  8
0
  6
CONTINUOUS
 62
               7
100
AcDbCircle
 10
-25.0
 20
60.0
 30
0.0
 40
10.0
100
AcDbArc
 50
319.31136699630343
 51
325.68890586964113
  0
ARC
  5
6D3
100
AcDbEntity
  8
0
  6
CONTINUOUS
 62
               7
100
AcDbCircle
 10
-25.0
 20
60.0
 30
0.0
 40
10.700000762939453
100
AcDbArc
 50
13.209892378491377
 51
46.790162263022147
  0
ARC
  5
6D4
100
AcDbEntity
  8
0
  6
CONTINUOUS
 62
               7
100
AcDbCircle
 10
-25.0
 20
60.0
 30
0.0
 40
10.700000762939453
100
AcDbArc
 50
58.209883385446602
 51
91.790153269977367
  0
ARC
  5
6D5
100
AcDbEntity
  8
0
  6
CONTINUOUS
 62
               7
100
AcDbCircle
 10
-25.0
 20
60.0
 30
0.0
 40
10.700000762939453
100
AcDbArc
 50
103.20984707164591
 51
136.79011695617669
  0
ARC
  5
6D6
100
AcDbEntity
  8
0
  6
CONTINUOUS
 62
               7
100
AcDbCircle
 10
-25.0
 20
60.0
 30
0.0
 40
10.700000762939453
100
AcDbArc
 50
148.20986539935782
 51
181.79013528388859
  0
ARC
  5
6D7
100
AcDbEntity
  8
0
  6
CONTINUOUS
 62
               7
100
AcDbCircle
 10
-25.0
 20
60.0
 30
0.0
 40
10.700000762939453
100
AcDbArc
 50
193.20982908555638
 51
226.79009897008714
  0
ARC
  5
6D8
100
AcDbEntity
  8
0
  6
CONTINUOUS
 62
               7
100
AcDbCircle
 10
-25.0
 20
60.0
 30
0.0
 40
10.700000762939453
100
AcDbArc
 50
238.20991935762569
 51
271.79018924215643
  0
ARC
  5
6D9
100
AcDbEntity
  8
0
  6
CONTINUOUS
 62
               7
100
AcDbCircle
 10
-25.0
 20
60.0
 30
0.0
 40
10.700000762939453
100
AcDbArc
 50
283.20988304382422
 51
316.79015292835498
  0
ARC
  5
6DA
100
AcDbEntity
  8
0
  6
CONTINUOUS
 62
               7
100
AcDbCircle
 10
-25.0
 20
60.0
 30
0.0
 40
10.0
100
AcDbArc
 50
4.3113511730695331
 51
10.688924197353035
  0
ARC
  5
6DB
100
AcDbEntity
  8
0
  6
CONTINUOUS
 62
               7
100
AcDbCircle
 10
-25.0
 20
60.0
 30
0.0
 40
10.0
100
AcDbArc
 50
49.311349010213931
 51
55.688915204308266
  0
ARC
  5
6DC
100
AcDbEntity
  8
0
  6
CONTINUOUS
 62
               7
100
AcDbCircle
 10
-25.0
 20
60.0
 30
0.0
 40
10.0
100
AcDbArc
 50
94.31131269641304
 51
100.68890621126404
  0
ARC
  5
6DD
100
AcDbEntity
  8
0
  6
CONTINUOUS
 62
               7
100
AcDbCircle
 10
-25.0
 20
60.0
 30
0.0
 40
10.0
100
AcDbArc
 50
139.31133102412514
 51
145.68886989746281
  0
ARC
  5
6DE
100
AcDbEntity
  8
0
  6
CONTINUOUS
 62
               7
100
AcDbCircle
 10
-25.0
 20
60.0
 30
0.0
 40
10.0
100
AcDbArc
 50
184.31129471032369
 51
190.68888822517474
  0
ARC
  5
6DF
100
AcDbEntity
  8
0
  6
CONTINUOUS
 62
               7
100
AcDbCircle
 10
-25.0
 20
60.0
 30
0.0
 40
10.0
100
AcDbArc
 50
229.31133034087964
 51
235.68892385573068
  0
ARC
  5
6E0
100
AcDbEntity
  8
0
  6
CONTINUOUS
 62
               7
100
AcDbCircle
 10
-25.0
 20
60.0
 30
0.0
 40
10.0
100
AcDbArc
 50
274.31134866859156
 51
280.68894218344258
  0
ARC
  5
6E1
100
AcDbEntity
  8
0
  6
CONTINUOUS
 62
               7
100
AcDbCircle
 10
-25.0
 20
60.0
 30
0.0
 40
8.0
100
AcDbArc
 50
171.3177613993449
 51
248.68216665629856
  0
ARC
  5
6E2
100
AcDbEntity
  8
0
  6
CONTINUOUS
 62
               7
100
AcDbCircle
 10
-25.0
 20
60.0
 30
0.0
 40
8.0
100
AcDbArc
 50
351.31783152246868
 51
68.682229949233985
  0
ARC
  5
6E3
100
AcDbEntity
  8
0
  6
CONTINUOUS
 62
               7
100
AcDbCircle
 10
-25.0
 20
60.0
 30
0.0
 40
7.5
100
AcDbArc
 50
348.70013761739921
 51
71.299913609019711
  0
ARC
  5
6E4
100
AcDbEntity
  8
0
  6
CONTINUOUS
 62
               7
100
AcDbCircle
 10
-25.0
 20
60.0
 30
0.0
 40
7.5
100
AcDbArc
 50
168.70010506031588
 51
251.29987763684099
  0
ARC
  5
6E5
100
AcDbEntity
  8
0
  6
CONTINUOUS
 62
               7
100
AcDbCircle
 10
-25.0
 20
60.0
 30
0.0
 40
7.5
100
AcDbArc
 50
280.00002198299842
 51
320.00001398918084
  0
ARC
  5
6E6
100
AcDbEntity
  8
0
  6
CONTINUOUS
 62
               7
100
AcDbCircle
 10
-25.0
 20
60.0
 30
0.0
 40
8.1999998092651367
100
AcDbArc
 50
280.00002198299842
 51
320.00001398918084
  0
CIRCLE
  5
6E7
100
AcDbEntity
  8
0
  6
CONTINUOUS
 62
               7
100
AcDbCircle
 10
-25.0
 20
60.0
 30
0.0
 40
13.5
  0
LINE
  5
6E8
100
AcDbEntity
  8
0
  6
CONTINUOUS
 62
               7
100
AcDbLine
 10
-38.499999999999972
 20
67.794228634059905
 30
0.0
 11
-38.500000000000057
 21
52.205771365940059
 31
0.0
  0
LINE
  5
6E9
100
AcDbEntity
  8
0
  6
CONTINUOUS
 62
               7
100
AcDbLine
 10
-38.500000000000057
 20
52.205771365940059
 30
0.0
 11
-25.000000000000057
 21
44.411542731880104
 31
0.0
  0
LINE
  5
6EA
100
AcDbEntity
  8
0
  6
CONTINUOUS
 62
               7
100
AcDbLine
 10
-11.5
 20
52.205771365940052
 30
0.0
 11
-11.499999999999943
 21
67.79422863405992
 31
0.0
  0
LINE
  5
6EB
100
AcDbEntity
  8
0
  6
CONTINUOUS
 62
               7
100
AcDbLine
 10
-11.499999999999943
 20
67.79422863405992
 30
0.0
 11
-25.0
 21
75.58845726811991
 31
0.0
  0
LINE
  5
6EC
100
AcDbEntity
  8
0
  6
CENTER
 62
               2
100
AcDbLine
 10
-57.779563837054724
 20
105.0
 30
0.0
 11
8.1591414788368297
 21
105.0
 31
0.0
  0
LINE
  5
6ED
100
AcDbEntity
  8
0
  6
CONTINUOUS
 62
               7
100
AcDbLine
 10
-34.360000000000014
 20
95.990000000000009
 30
0.0
 11
-27.210000000000008
 21
103.84999999999999
 31
0.0
  0
LINE
  5
6EE
100
AcDbEntity
  8
0
  6
CONTINUOUS
 62
               7
100
AcDbLine
 10
-34.009999999999991
 20
95.640000000000001
 30
0.0
 11
-26.150000000000006
 21
102.78999999999999
 31
0.0
  0
LINE
  5
6EF
100
AcDbEntity
  8
0
  6
CONTINUOUS
 62
               7
100
AcDbLine
 10
-18.819999999999993
 20
109.41
 30
0.0
 11
-22.680000000000007
 21
105.91
 31
0.0
  0
LINE
  5
6F0
100
AcDbEntity
  8
0
  6
CONTINUOUS
 62
               7
100
AcDbLine
 10
-24.090000000000003
 20
107.31999999999999
 30
0.0
 11
-20.590000000000003
 21
111.18000000000001
 31
0.0
  0
LINE
  5
6F1
100
AcDbEntity
  8
0
  6
CONTINUOUS
 62
               7
100
AcDbLine
 10
-19.349999999999994
 20
110.65000000000001
 30
0.0
 11
-20.590000000000003
 21
111.18000000000001
 31
0.0
  0
LINE
  5
6F2
100
AcDbEntity
  8
0
  6
CONTINUOUS
 62
               7
100
AcDbLine
 10
-19.349999999999994
 20
110.65000000000001
 30
0.0
 11
-18.819999999999993
 21
109.41
 31
0.0
  0
CIRCLE
  5
6F3
100
AcDbEntity
  8
0
  6
CONTINUOUS
 62
               7
100
AcDbCircle
 10
-25.0
 20
105.0
 30
0.0
 40
26.5
  0
CIRCLE
  5
6F4
100
AcDbEntity
  8
0
  6
CONTINUOUS
 62
               7
100
AcDbCircle
 10
-25.0
 20
105.0
 30
0.0
 40
21.0
  0
CIRCLE
  5
6F5
100
AcDbEntity
  8
0
  6
CONTINUOUS
 62
               7
100
AcDbCircle
 10
-25.0
 20
105.0
 30
0.0
 40
21.999984741210937
  0
CIRCLE
  5
6F6
100
AcDbEntity
  8
0
  6
CONTINUOUS
 62
               7
100
AcDbCircle
 10
-25.0
 20
105.0
 30
0.0
 40
20.5
  0
CIRCLE
  5
6F7
100
AcDbEntity
  8
0
  6
CONTINUOUS
 62
               7
100
AcDbCircle
 10
-25.0
 20
105.0
 30
0.0
 40
17.5
  0
ARC
  5
6F8
100
AcDbEntity
  8
0
  6
CONTINUOUS
 62
               7
100
AcDbCircle
 10
-34.192390918731718
 20
95.807609081268282
 30
0.0
 40
0.2477079961555492
100
AcDbArc
 50
132.58161748825717
 51
317.41838251174187
  0
CIRCLE
  5
6F9
100
AcDbEntity
  8
0
  6
CONTINUOUS
 62
               7
100
AcDbCircle
 10
-25.0
 20
105.0
 30
0.0
 40
2.5
  0
LINE
  5
6FA
100
AcDbEntity
  8
0
  6
CENTER
 62
               2
100
AcDbLine
 10
-6.2668697822756201
 20
59.999999999999993
 30
0.0
 11
-44.512540665078149
 21
60.0
 31
0.0
  0
LINE
  5
6FB
100
AcDbEntity
  8
0
  6
CENTER
 62
               2
100
AcDbLine
 10
-52.370294388383627
 20
24.999999620020404
 30
0.0
 11
-28.265571060052793
 21
24.999999620020404
 31
0.0
  0
LINE
  5
6FC
100
AcDbEntity
  8
0
  6
CENTER
 62
               2
100
AcDbLine
 10
-39.999999936670065
 20
13.174344023323584
 30
0.0
 11
-39.999999936670065
 21
36.865072906017303
 31
0.0
  0
LINE
  5
6FD
100
AcDbEntity
  8
0
  6
CENTER
 62
               2
100
AcDbLine
 10
2.3702943883836269
 20
24.999999620020404
 30
0.0
 11
-21.734428939947207
 21
24.999999620020404
 31
0.0
  0
LINE
  5
6FE
100
AcDbEntity
  8
0
  6
CENTER
 62
               2
100
AcDbLine
 10
-10.000000063329935
 20
13.174344023323584
 30
0.0
 11
-10.000000063329935
 21
36.865072906017303
 31
0.0
  0
CIRCLE
  5
6FF
100
AcDbEntity
  8
0
  6
CONTINUOUS
 62
               7
100
AcDbCircle
 10
-10.000000189989805
 20
24.999999620020404
 30
0.0
 40
7.5
  0
LINE
  5
700
100
AcDbEntity
  8
0
  6
CONTINUOUS
 62
               7
100
AcDbLine
 10
-1.5000001899898052
 20
16.499999620020404
 30
0.0
 11
-0.5000001899898052
 21
15.499999620020404
 31
0.0
  0
LINE
  5
701
100
AcDbEntity
  8
0
  6
CONTINUOUS
 62
               7
100
AcDbLine
 10
-1.5000001899898052
 20
33.499999620020404
 30
0.0
 11
-0.5000001899898052
 21
34.499999620020404
 31
0.0
  0
LINE
  5
702
100
AcDbEntity
  8
0
  6
CONTINUOUS
 62
               7
100
AcDbLine
 10
-19.500000189989805
 20
15.499999620020404
 30
0.0
 11
-18.500000189989805
 21
16.499999620020404
 31
0.0
  0
LINE
  5
703
100
AcDbEntity
  8
0
  6
CONTINUOUS
 62
               7
100
AcDbLine
 10
-19.500000189989805
 20
34.499999620020404
 30
0.0
 11
-18.500000189989805
 21
33.499999620020404
 31
0.0
  0
LINE
  5
704
100
AcDbEntity
  8
0
  6
CONTINUOUS
 62
               7
100
AcDbLine
 10
-18.500000189989805
 20
16.499999620020404
 30
0.0
 11
-1.5000001899898052
 21
16.499999620020404
 31
0.0
  0
LINE
  5
705
100
AcDbEntity
  8
0
  6
CONTINUOUS
 62
               7
100
AcDbLine
 10
-18.500000189989805
 20
33.499999620020404
 30
0.0
 11
-1.5000001899898052
 21
33.499999620020404
 31
0.0
  0
LINE
  5
706
100
AcDbEntity
  8
0
  6
CONTINUOUS
 62
               7
100
AcDbLine
 10
-1.5000001899898052
 20
33.499999620020404
 30
0.0
 11
-1.5000001899898052
 21
16.499999620020404
 31
0.0
  0
LINE
  5
707
100
AcDbEntity
  8
0
  6
CONTINUOUS
 62
               7
100
AcDbLine
 10
-18.500000189989805
 20
33.499999620020404
 30
0.0
 11
-18.500000189989805
 21
16.499999620020404
 31
0.0
  0
LINE
  5
708
100
AcDbEntity
  8
0
  6
CONTINUOUS
 62
               7
100
AcDbLine
 10
-0.5000001899898052
 20
15.499999620020404
 30
0.0
 11
-19.500000189989805
 21
15.499999620020404
 31
0.0
  0
LINE
  5
709
100
AcDbEntity
  8
0
  6
CONTINUOUS
 62
               7
100
AcDbLine
 10
-0.5000001899898052
 20
34.499999620020404
 30
0.0
 11
-19.500000189989805
 21
34.499999620020404
 31
0.0
  0
LINE
  5
70A
100
AcDbEntity
  8
0
  6
CONTINUOUS
 62
               7
100
AcDbLine
 10
-0.5000001899898052
 20
34.499999620020404
 30
0.0
 11
-0.5000001899898052
 21
15.499999620020404
 31
0.0
  0
LINE
  5
70B
100
AcDbEntity
  8
0
  6
CONTINUOUS
 62
               7
100
AcDbLine
 10
-19.500000189989805
 20
34.499999620020404
 30
0.0
 11
-19.500000189989805
 21
15.499999620020404
 31
0.0
  0
LINE
  5
70C
100
AcDbEntity
  8
0
  6
CONTINUOUS
 62
               7
100
AcDbLine
 10
-2.5000001899898052
 20
32.499999620020404
 30
0.0
 11
-2.5000001899898052
 21
17.499999620020404
 31
0.0
  0
LINE
  5
70D
100
AcDbEntity
  8
0
  6
CONTINUOUS
 62
               7
100
AcDbLine
 10
-17.500000189989805
 20
17.499999620020404
 30
0.0
 11
-2.5000001899898052
 21
17.499999620020404
 31
0.0
  0
LINE
  5
70E
100
AcDbEntity
  8
0
  6
CONTINUOUS
 62
               7
100
AcDbLine
 10
-17.500000189989805
 20
32.499999620020404
 30
0.0
 11
-2.5000001899898052
 21
32.499999620020404
 31
0.0
  0
LINE
  5
70F
100
AcDbEntity
  8
0
  6
CONTINUOUS
 62
               7
100
AcDbLine
 10
-17.500000189989805
 20
32.499999620020404
 30
0.0
 11
-17.500000189989805
 21
17.499999620020404
 31
0.0
  0
LINE
  5
710
100
AcDbEntity
  8
0
  6
CONTINUOUS
 62
               7
100
AcDbLine
 10
-2.0606603696942045
 20
8.9393399730324603
 30
0.0
 11
0.0606601163745211
 21
11.060660280287252
 31
0.0
  0
LINE
  5
711
100
AcDbEntity
  8
0
  6
CONTINUOUS
 62
               7
100
AcDbLine
 10
-2.0606604479253292
 20
11.060659948736429
 30
0.0
 11
0.0606598593294621
 21
8.9393394626677036
 31
0.0
  0
CIRCLE
  5
712
100
AcDbEntity
  8
0
  6
CONTINUOUS
 62
               7
100
AcDbCircle
 10
-1.0
 20
10.0
 30
0.0
 40
2.7999992370605469
  0
LINE
  5
713
100
AcDbEntity
  8
0
  6
CENTER
 62
               2
100
AcDbLine
 10
-5.4963330440401705
 20
10.0
 30
0.0
 11
3.2313263416290283
 21
10.0
 31
0.0
  0
LINE
  5
714
100
AcDbEntity
  8
0
  6
CENTER
 62
               2
100
AcDbLine
 10
-1.0000004209578037
 20
5.7946645508543497
 30
0.0
 11
-1.0000004209578037
 21
14.130069613456726
 31
0.0
  0
CIRCLE
  5
715
100
AcDbEntity
  8
0
  6
CONTINUOUS
 62
               7
100
AcDbCircle
 10
-49.0
 20
10.0
 30
0.0
 40
2.7999992370605469
  0
LINE
  5
716
100
AcDbEntity
  8
0
  6
CENTER
 62
               2
100
AcDbLine
 10
-44.503666955959829
 20
10.0
 30
0.0
 11
-53.231326341629028
 21
10.0
 31
0.0
  0
LINE
  5
717
100
AcDbEntity
  8
0
  6
CENTER
 62
               2
100
AcDbLine
 10
-48.999999579042196
 20
5.7946645508543497
 30
0.0
 11
-48.999999579042196
 21
14.130069613456726
 31
0.0
  0
LINE
  5
718
100
AcDbEntity
  8
0
  6
CONTINUOUS
 62
               7
100
AcDbLine
 10
-47.939339552074671
 20
11.060659948736429
 30
0.0
 11
-50.060659859329462
 21
8.9393394626677036
 31
0.0
  0
LINE
  5
719
100
AcDbEntity
  8
0
  6
CONTINUOUS
 62
               7
100
AcDbLine
 10
-47.939339630305795
 20
8.9393399730324603
 30
0.0
 11
-50.060660116374521
 21
11.060660280287252
 31
0.0
  0
LINE
  5
71A
100
AcDbEntity
  8
0
  6
CONTINUOUS
 62
               7
100
AcDbLine
 10
5.0
 20
0.0
 30
0.0
 11
-55.0
 21
0.0
 31
0.0
  0
LINE
  5
71B
100
AcDbEntity
  8
0
  6
CONTINUOUS
 62
               7
100
AcDbLine
 10
5.0
 20
1.0
 30
0.0
 11
-55.0
 21
1.0
 31
0.0
  0
CIRCLE
  5
71C
100
AcDbEntity
  8
0
  6
CONTINUOUS
 62
               7
100
AcDbCircle
 10
-0.9999994114041328
 20
130.0
 30
0.0
 40
2.7999992370605469
  0
LINE
  5
71D
100
AcDbEntity
  8
0
  6
CENTER
 62
               2
100
AcDbLine
 10
-5.4963324554443318
 20
130.0
 30
0.0
 11
3.2313269302248955
 21
130.0
 31
0.0
  0
LINE
  5
71E
100
AcDbEntity
  8
0
  6
CENTER
 62
               2
100
AcDbLine
 10
-0.9999998323619366
 20
125.79466455085435
 30
0.0
 11
-0.9999998323619366
 21
134.13006961345673
 31
0.0
  0
LINE
  5
71F
100
AcDbEntity
  8
0
  6
CONTINUOUS
 62
               7
100
AcDbLine
 10
-2.0606598593294905
 20
131.06065994873643
 30
0.0
 11
0.0606604479253008
 21
128.9393394626677
 31
0.0
  0
LINE
  5
720
100
AcDbEntity
  8
0
  6
CONTINUOUS
 62
               7
100
AcDbLine
 10
-2.0606597810983658
 20
128.93933997303247
 30
0.0
 11
0.0606607049703598
 21
131.06066028028727
 31
0.0
  0
CIRCLE
  5
721
100
AcDbEntity
  8
0
  6
CONTINUOUS
 62
               7
100
AcDbCircle
 10
-48.999999411404133
 20
130.0
 30
0.0
 40
2.7999992370605469
  0
LINE
  5
722
100
AcDbEntity
  8
0
  6
CENTER
 62
               2
100
AcDbLine
 10
-53.496332455444332
 20
130.0
 30
0.0
 11
-44.768673069775105
 21
130.0
 31
0.0
  0
LINE
  5
723
100
AcDbEntity
  8
0
  6
CENTER
 62
               2
100
AcDbLine
 10
-48.999999832361937
 20
125.79466455085435
 30
0.0
 11
-48.999999832361937
 21
134.13006961345673
 31
0.0
  0
LINE
  5
724
100
AcDbEntity
  8
0
  6
CONTINUOUS
 62
               7
100
AcDbLine
 10
-50.06065985932949
 20
131.06065994873643
 30
0.0
 11
-47.939339552074699
 21
128.9393394626677
 31
0.0
  0
LINE
  5
725
100
AcDbEntity
  8
0
  6
CONTINUOUS
 62
               7
100
AcDbLine
 10
-50.060659781098366
 20
128.93933997303247
 30
0.0
 11
-47.93933929502964
 21
131.06066028028727
 31
0.0
  0
LINE
  5
726
100
AcDbEntity
  8
0
  6
CENTER
 62
               2
100
AcDbLine
 10
-50.0
 20
-1.6581682070047208
 30
0.0
 11
-50.0
 21
2.7441993854841087
 31
0.0
  0
LINE
  5
727
100
AcDbEntity
  8
0
  6
CENTER
 62
               2
100
AcDbLine
 10
0.0
 20
-1.6581682070047208
 30
0.0
 11
0.0
 21
3.0251031730673361
 31
0.0
  0
ENDBLK
  5
728
100
AcDbEntity
  8
0
100
AcDbBlockEnd
  0
BLOCK
  5
729
100
AcDbEntity
  8
0
100
AcDbBlockBegin
  2
DTRY-ELB-14
 70
               0
 10
0.0
 20
0.0
 30
0.0
  3
DTRY-ELB-14
  1

  0
LINE
  5
72A
100
AcDbEntity
  8
0
  6
CONTINUOUS
 62
               7
100
AcDbLine
 10
-1.0000000000000284
 20
5.0
 30
0.0
 11
105.00000000000003
 21
5.0
 31
0.0
  0
LINE
  5
72B
100
AcDbEntity
  8
0
  6
CONTINUOUS
 62
               7
100
AcDbLine
 10
-1.0000000000000284
 20
-55.0
 30
0.0
 11
105.00000000000001
 21
-55.0
 31
0.0
  0
LINE
  5
72C
100
AcDbEntity
  8
0
  6
CONTINUOUS
 62
               7
100
AcDbLine
 10
97.000000000000028
 20
5.0
 30
0.0
 11
97.000000000000014
 21
-55.0
 31
0.0
  0
LINE
  5
72D
100
AcDbEntity
  8
0
  6
CONTINUOUS
 62
               7
100
AcDbLine
 10
7.0
 20
-55.0
 30
0.0
 11
6.9999999999999716
 21
5.0
 31
0.0
  0
LINE
  5
72E
100
AcDbEntity
  8
0
  6
CONTINUOUS
 62
               7
100
AcDbLine
 10
109.00000000000003
 20
1.0
 30
0.0
 11
109.00000000000003
 21
-16.0
 31
0.0
  0
LINE
  5
72F
100
AcDbEntity
  8
0
  6
CONTINUOUS
 62
               7
100
AcDbLine
 10
-5.0000000000000284
 20
-51.0
 30
0.0
 11
-5.0000000000000284
 21
-29.9231249999998
 31
0.0
  0
ARC
  5
730
100
AcDbEntity
  8
0
  6
CONTINUOUS
 62
               7
100
AcDbCircle
 10
105.00000000000003
 20
1.0
 30
0.0
 40
4.0
100
AcDbArc
 50
0.0
 51
89.999999999999815
  0
ARC
  5
731
100
AcDbEntity
  8
0
  6
CONTINUOUS
 62
               7
100
AcDbCircle
 10
105.00000000000001
 20
-51.0
 30
0.0
 40
4.0
100
AcDbArc
 50
270.00000000000023
 51
0.0
  0
ARC
  5
732
100
AcDbEntity
  8
0
  6
CONTINUOUS
 62
               7
100
AcDbCircle
 10
-1.0000000000000284
 20
-51.0
 30
0.0
 40
4.0
100
AcDbArc
 50
179.99999999999963
 51
269.99999999999937
  0
ARC
  5
733
100
AcDbEntity
  8
0
  6
CONTINUOUS
 62
               7
100
AcDbCircle
 10
-1.0000000000000284
 20
1.0
 30
0.0
 40
4.0
100
AcDbArc
 50
89.999999999999815
 51
179.99999999999963
  0
LINE
  5
734
100
AcDbEntity
  8
0
  6
CENTER
 62
               2
100
AcDbLine
 10
131.32934972776459
 20
-25.0
 30
0.0
 11
94.180332668771285
 21
-25.0
 31
0.0
  0
LINE
  5
735
100
AcDbEntity
  8
0
  6
CONTINUOUS
 62
               7
100
AcDbLine
 10
104.0
 20
-46.0
 30
0.0
 11
104.5
 21
-45.5
 31
0.0
  0
LINE
  5
736
100
AcDbEntity
  8
0
  6
CONTINUOUS
 62
               7
100
AcDbLine
 10
104.0
 20
-46.0
 30
0.0
 11
101.0
 21
-46.0
 31
0.0
  0
LINE
  5
737
100
AcDbEntity
  8
0
  6
CONTINUOUS
 62
               7
100
AcDbLine
 10
101.0
 20
-47.0
 30
0.0
 11
98.400000000000006
 21
-51.5
 31
0.0
  0
LINE
  5
738
100
AcDbEntity
  8
0
  6
CONTINUOUS
 62
               7
100
AcDbLine
 10
98.400000000000006
 20
-51.5
 30
0.0
 11
98.350577336414105
 21
-51.5
 31
0.0
  0
LINE
  5
739
100
AcDbEntity
  8
0
  6
CONTINUOUS
 62
               7
100
AcDbLine
 10
101.5
 20
-4.0
 30
0.0
 11
101.5
 21
-46.0
 31
0.0
  0
LINE
  5
73A
100
AcDbEntity
  8
0
  6
CONTINUOUS
 62
               7
100
AcDbLine
 10
104.0
 20
-4.0
 30
0.0
 11
104.5
 21
-4.5
 31
0.0
  0
LINE
  5
73B
100
AcDbEntity
  8
0
  6
CONTINUOUS
 62
               7
100
AcDbLine
 10
104.0
 20
-4.0
 30
0.0
 11
101.0
 21
-4.0
 31
0.0
  0
LINE
  5
73C
100
AcDbEntity
  8
0
  6
CONTINUOUS
 62
               7
100
AcDbLine
 10
104.0
 20
-4.0
 30
0.0
 11
104.0
 21
-46.0
 31
0.0
  0
LINE
  5
73D
100
AcDbEntity
  8
0
  6
CONTINUOUS
 62
               7
100
AcDbLine
 10
104.5
 20
-4.5
 30
0.0
 11
104.5
 21
-45.5
 31
0.0
  0
LINE
  5
73E
100
AcDbEntity
  8
0
  6
CONTINUOUS
 62
               7
100
AcDbLine
 10
98.400000000000006
 20
-3.3900836805433983
 30
0.0
 11
98.400000000000006
 21
-46.609916319456602
 31
0.0
  0
LINE
  5
73F
100
AcDbEntity
  8
0
  6
CONTINUOUS
 62
               7
100
AcDbLine
 10
101.0
 20
-3.0
 30
0.0
 11
98.400000000000006
 21
1.5
 31
0.0
  0
LINE
  5
740
100
AcDbEntity
  8
0
  6
CONTINUOUS
 62
               7
100
AcDbLine
 10
101.0
 20
-3.0
 30
0.0
 11
101.0
 21
-47.0
 31
0.0
  0
ARC
  5
741
100
AcDbEntity
  8
0
  6
CONTINUOUS
 62
               7
100
AcDbCircle
 10
129.10451482611225
 20
-33.714519677851115
 30
0.0
 40
0.9954954339012443
100
AcDbArc
 50
270.31570099995162
 51
0.2601311331619551
  0
ARC
  5
742
100
AcDbEntity
  8
0
  6
CONTINUOUS
 62
               7
100
AcDbCircle
 10
129.09953132797085
 20
-16.280413985308883
 30
0.0
 40
1.0004687576809252
100
AcDbArc
 50
0.023708498114815
 51
89.400459368771408
  0
LINE
  5
743
100
AcDbEntity
  8
0
  6
CONTINUOUS
 62
               7
100
AcDbLine
 10
110.59999999999999
 20
-36.0
 30
0.0
 11
110.59999999999999
 21
-14.0
 31
0.0
  0
LINE
  5
744
100
AcDbEntity
  8
0
  6
CONTINUOUS
 62
               7
100
AcDbLine
 10
112.03
 20
-35.579999999999998
 30
0.0
 11
112.40000000000001
 21
-34.599999999999994
 31
0.0
  0
LINE
  5
745
100
AcDbEntity
  8
0
  6
CONTINUOUS
 62
               7
100
AcDbLine
 10
112.03
 20
-14.409999999999997
 30
0.0
 11
112.40000000000001
 21
-15.389999999999986
 31
0.0
  0
LINE
  5
746
100
AcDbEntity
  8
0
  6
CONTINUOUS
 62
               7
100
AcDbLine
 10
127.53999999999999
 20
-14.409999999999997
 30
0.0
 11
128.09999999999999
 21
-15.909999999999997
 31
0.0
  0
LINE
  5
747
100
AcDbEntity
  8
0
  6
CONTINUOUS
 62
               7
100
AcDbLine
 10
128.09999999999999
 20
-34.079999999999984
 30
0.0
 11
127.91
 21
-34.079999999999984
 31
0.0
  0
LINE
  5
748
100
AcDbEntity
  8
0
  6
CONTINUOUS
 62
               7
100
AcDbLine
 10
127.53999999999999
 20
-35.579999999999998
 30
0.0
 11
128.09999999999999
 21
-34.079999999999984
 31
0.0
  0
LINE
  5
749
100
AcDbEntity
  8
0
  6
CONTINUOUS
 62
               7
100
AcDbLine
 10
128.09999999999999
 20
-34.730000000000018
 30
0.0
 11
128.09999999999999
 21
-34.079999999999984
 31
0.0
  0
LINE
  5
74A
100
AcDbEntity
  8
0
  6
CONTINUOUS
 62
               7
100
AcDbLine
 10
127.53999999999999
 20
-35.700000000000003
 30
0.0
 11
127.53999999999999
 21
-35.579999999999998
 31
0.0
  0
LINE
  5
74B
100
AcDbEntity
  8
0
  6
CONTINUOUS
 62
               7
100
AcDbLine
 10
128.09999999999999
 20
-15.259999999999991
 30
0.0
 11
128.09999999999999
 21
-15.909999999999997
 31
0.0
  0
LINE
  5
74C
100
AcDbEntity
  8
0
  6
CONTINUOUS
 62
               7
100
AcDbLine
 10
127.53999999999999
 20
-14.300000000000011
 30
0.0
 11
127.53999999999999
 21
-14.409999999999997
 31
0.0
  0
LINE
  5
74D
100
AcDbEntity
  8
0
  6
CONTINUOUS
 62
               7
100
AcDbLine
 10
127.91
 20
-15.909999999999997
 30
0.0
 11
128.09999999999999
 21
-15.909999999999997
 31
0.0
  0
LINE
  5
74E
100
AcDbEntity
  8
0
  6
CONTINUOUS
 62
               7
100
AcDbLine
 10
112.59999999999999
 20
-29.009999999999991
 30
0.0
 11
112.03
 21
-30.360000000000014
 31
0.0
  0
LINE
  5
74F
100
AcDbEntity
  8
0
  6
CONTINUOUS
 62
               7
100
AcDbLine
 10
112.59999999999999
 20
-28.400000000000006
 30
0.0
 11
112.03
 21
-28.0
 31
0.0
  0
LINE
  5
750
100
AcDbEntity
  8
0
  6
CONTINUOUS
 62
               7
100
AcDbLine
 10
112.59999999999999
 20
-20.980000000000018
 30
0.0
 11
112.03
 21
-19.629999999999995
 31
0.0
  0
LINE
  5
751
100
AcDbEntity
  8
0
  6
CONTINUOUS
 62
               7
100
AcDbLine
 10
112.59999999999999
 20
-21.590000000000003
 30
0.0
 11
112.03
 21
-22.0
 31
0.0
  0
LINE
  5
752
100
AcDbEntity
  8
0
  6
CONTINUOUS
 62
               7
100
AcDbLine
 10
112.03
 20
-30.360000000000014
 30
0.0
 11
112.03
 21
-28.0
 31
0.0
  0
LINE
  5
753
100
AcDbEntity
  8
0
  6
CONTINUOUS
 62
               7
100
AcDbLine
 10
112.03
 20
-22.0
 30
0.0
 11
112.03
 21
-19.629999999999995
 31
0.0
  0
LINE
  5
754
100
AcDbEntity
  8
0
  6
CONTINUOUS
 62
               7
100
AcDbLine
 10
112.03
 20
-15.389999999999986
 30
0.0
 11
112.03
 21
-14.409999999999997
 31
0.0
  0
LINE
  5
755
100
AcDbEntity
  8
0
  6
CONTINUOUS
 62
               7
100
AcDbLine
 10
112.59999999999999
 20
-29.009999999999991
 30
0.0
 11
112.59999999999999
 21
-28.400000000000006
 31
0.0
  0
LINE
  5
756
100
AcDbEntity
  8
0
  6
CONTINUOUS
 62
               7
100
AcDbLine
 10
112.59999999999999
 20
-21.590000000000003
 30
0.0
 11
112.59999999999999
 21
-20.980000000000018
 31
0.0
  0
LINE
  5
757
100
AcDbEntity
  8
0
  6
CONTINUOUS
 62
               7
100
AcDbLine
 10
127.53999999999999
 20
-19.629999999999995
 30
0.0
 11
128.09999999999999
 21
-20.980000000000018
 31
0.0
  0
LINE
  5
758
100
AcDbEntity
  8
0
  6
CONTINUOUS
 62
               7
100
AcDbLine
 10
127.53999999999999
 20
-22.0
 30
0.0
 11
128.09999999999999
 21
-21.590000000000003
 31
0.0
  0
LINE
  5
759
100
AcDbEntity
  8
0
  6
CONTINUOUS
 62
               7
100
AcDbLine
 10
127.53999999999999
 20
-28.0
 30
0.0
 11
128.09999999999999
 21
-28.400000000000006
 31
0.0
  0
LINE
  5
75A
100
AcDbEntity
  8
0
  6
CONTINUOUS
 62
               7
100
AcDbLine
 10
127.53999999999999
 20
-30.360000000000014
 30
0.0
 11
128.09999999999999
 21
-29.009999999999991
 31
0.0
  0
LINE
  5
75B
100
AcDbEntity
  8
0
  6
CONTINUOUS
 62
               7
100
AcDbLine
 10
128.09999999999999
 20
-33.819999999999993
 30
0.0
 11
127.53999999999999
 21
-34.599999999999994
 31
0.0
  0
LINE
  5
75C
100
AcDbEntity
  8
0
  6
CONTINUOUS
 62
               7
100
AcDbLine
 10
128.09999999999999
 20
-16.170000000000016
 30
0.0
 11
127.53999999999999
 21
-15.389999999999986
 31
0.0
  0
LINE
  5
75D
100
AcDbEntity
  8
0
  6
CONTINUOUS
 62
               7
100
AcDbLine
 10
112.03
 20
-35.579999999999998
 30
0.0
 11
127.53999999999999
 21
-35.579999999999998
 31
0.0
  0
LINE
  5
75E
100
AcDbEntity
  8
0
  6
CONTINUOUS
 62
               7
100
AcDbLine
 10
112.03
 20
-14.409999999999997
 30
0.0
 11
127.53999999999999
 21
-14.409999999999997
 31
0.0
  0
LINE
  5
75F
100
AcDbEntity
  8
0
  6
CONTINUOUS
 62
               7
100
AcDbLine
 10
127.53999999999999
 20
-19.629999999999995
 30
0.0
 11
127.53999999999999
 21
-15.389999999999986
 31
0.0
  0
LINE
  5
760
100
AcDbEntity
  8
0
  6
CONTINUOUS
 62
               7
100
AcDbLine
 10
127.53999999999999
 20
-28.0
 30
0.0
 11
127.53999999999999
 21
-22.0
 31
0.0
  0
LINE
  5
761
100
AcDbEntity
  8
0
  6
CONTINUOUS
 62
               7
100
AcDbLine
 10
128.09999999999999
 20
-33.819999999999993
 30
0.0
 11
128.09999999999999
 21
-29.009999999999991
 31
0.0
  0
LINE
  5
762
100
AcDbEntity
  8
0
  6
CONTINUOUS
 62
               7
100
AcDbLine
 10
128.09999999999999
 20
-20.980000000000018
 30
0.0
 11
128.09999999999999
 21
-16.170000000000016
 31
0.0
  0
LINE
  5
763
100
AcDbEntity
  8
0
  6
CONTINUOUS
 62
               7
100
AcDbLine
 10
128.09999999999999
 20
-28.400000000000006
 30
0.0
 11
128.09999999999999
 21
-21.590000000000003
 31
0.0
  0
LINE
  5
764
100
AcDbEntity
  8
0
  6
CONTINUOUS
 62
               7
100
AcDbLine
 10
112.03
 20
-15.389999999999986
 30
0.0
 11
127.53999999999999
 21
-15.389999999999986
 31
0.0
  0
LINE
  5
765
100
AcDbEntity
  8
0
  6
CONTINUOUS
 62
               7
100
AcDbLine
 10
112.03
 20
-19.629999999999995
 30
0.0
 11
127.53999999999999
 21
-19.629999999999995
 31
0.0
  0
LINE
  5
766
100
AcDbEntity
  8
0
  6
CONTINUOUS
 62
               7
100
AcDbLine
 10
112.59999999999999
 20
-20.980000000000018
 30
0.0
 11
128.09999999999999
 21
-20.980000000000018
 31
0.0
  0
LINE
  5
767
100
AcDbEntity
  8
0
  6
CONTINUOUS
 62
               7
100
AcDbLine
 10
112.03
 20
-34.599999999999994
 30
0.0
 11
127.53999999999999
 21
-34.599999999999994
 31
0.0
  0
LINE
  5
768
100
AcDbEntity
  8
0
  6
CONTINUOUS
 62
               7
100
AcDbLine
 10
112.03
 20
-30.360000000000014
 30
0.0
 11
127.53999999999999
 21
-30.360000000000014
 31
0.0
  0
LINE
  5
769
100
AcDbEntity
  8
0
  6
CONTINUOUS
 62
               7
100
AcDbLine
 10
112.59999999999999
 20
-29.009999999999991
 30
0.0
 11
128.09999999999999
 21
-29.009999999999991
 31
0.0
  0
LINE
  5
76A
100
AcDbEntity
  8
0
  6
CONTINUOUS
 62
               7
100
AcDbLine
 10
112.59999999999999
 20
-28.400000000000006
 30
0.0
 11
128.09999999999999
 21
-28.400000000000006
 31
0.0
  0
LINE
  5
76B
100
AcDbEntity
  8
0
  6
CONTINUOUS
 62
               7
100
AcDbLine
 10
112.59999999999999
 20
-21.590000000000003
 30
0.0
 11
128.09999999999999
 21
-21.590000000000003
 31
0.0
  0
LINE
  5
76C
100
AcDbEntity
  8
0
  6
CONTINUOUS
 62
               7
100
AcDbLine
 10
112.03
 20
-22.0
 30
0.0
 11
127.53999999999999
 21
-22.0
 31
0.0
  0
LINE
  5
76D
100
AcDbEntity
  8
0
  6
CONTINUOUS
 62
               7
100
AcDbLine
 10
112.03
 20
-28.0
 30
0.0
 11
127.53999999999999
 21
-28.0
 31
0.0
  0
LINE
  5
76E
100
AcDbEntity
  8
0
  6
CONTINUOUS
 62
               7
100
AcDbLine
 10
112.03
 20
-35.579999999999998
 30
0.0
 11
112.03
 21
-34.599999999999994
 31
0.0
  0
LINE
  5
76F
100
AcDbEntity
  8
0
  6
CONTINUOUS
 62
               7
100
AcDbLine
 10
127.53999999999999
 20
-34.599999999999994
 30
0.0
 11
127.53999999999999
 21
-30.360000000000014
 31
0.0
  0
LINE
  5
770
100
AcDbEntity
  8
0
  6
CONTINUOUS
 62
               7
100
AcDbLine
 10
105.0
 20
-36.0
 30
0.0
 11
105.0
 21
-14.0
 31
0.0
  0
LINE
  5
771
100
AcDbEntity
  8
0
  6
CONTINUOUS
 62
               7
100
AcDbLine
 10
110.09999999999999
 20
-35.5
 30
0.0
 11
110.59
 21
-35.989999999999995
 31
0.0
  0
LINE
  5
772
100
AcDbEntity
  8
0
  6
CONTINUOUS
 62
               7
100
AcDbLine
 10
110.09999999999999
 20
-14.5
 30
0.0
 11
110.59
 21
-14.0
 31
0.0
  0
LINE
  5
773
100
AcDbEntity
  8
0
  6
CONTINUOUS
 62
               7
100
AcDbLine
 10
127.53999999999999
 20
-35.700000000000003
 30
0.0
 11
110.59
 21
-35.989999999999995
 31
0.0
  0
LINE
  5
774
100
AcDbEntity
  8
0
  6
CONTINUOUS
 62
               7
100
AcDbLine
 10
127.53999999999999
 20
-14.300000000000011
 30
0.0
 11
110.59
 21
-14.0
 31
0.0
  0
LINE
  5
775
100
AcDbEntity
  8
0
  6
CONTINUOUS
 62
               7
100
AcDbLine
 10
110.09999999999999
 20
-33.5
 30
0.0
 11
106.0
 21
-33.5
 31
0.0
  0
LINE
  5
776
100
AcDbEntity
  8
0
  6
CONTINUOUS
 62
               7
100
AcDbLine
 10
110.09999999999999
 20
-16.0
 30
0.0
 11
106.0
 21
-16.0
 31
0.0
  0
LINE
  5
777
100
AcDbEntity
  8
0
  6
CONTINUOUS
 62
               7
100
AcDbLine
 10
105.0
 20
-14.0
 30
0.0
 11
106.0
 21
-15.0
 31
0.0
  0
LINE
  5
778
100
AcDbEntity
  8
0
  6
CONTINUOUS
 62
               7
100
AcDbLine
 10
106.0
 20
-35.0
 30
0.0
 11
105.0
 21
-36.0
 31
0.0
  0
LINE
  5
779
100
AcDbEntity
  8
0
  6
CONTINUOUS
 62
               7
100
AcDbLine
 10
105.0
 20
-14.0
 30
0.0
 11
104.5
 21
-14.0
 31
0.0
  0
LINE
  5
77A
100
AcDbEntity
  8
0
  6
CONTINUOUS
 62
               7
100
AcDbLine
 10
105.0
 20
-36.0
 30
0.0
 11
104.5
 21
-36.0
 31
0.0
  0
LINE
  5
77B
100
AcDbEntity
  8
0
  6
CONTINUOUS
 62
               7
100
AcDbLine
 10
106.0
 20
-35.0
 30
0.0
 11
106.0
 21
-15.0
 31
0.0
  0
LINE
  5
77C
100
AcDbEntity
  8
0
  6
CONTINUOUS
 62
               7
100
AcDbLine
 10
110.09999999999999
 20
-14.5
 30
0.0
 11
110.09999999999999
 21
-35.5
 31
0.0
  0
LINE
  5
77D
100
AcDbEntity
  8
0
  6
CONTINUOUS
 62
               7
100
AcDbLine
 10
128.09999999999999
 20
-34.730000000000018
 30
0.0
 11
127.53999999999999
 21
-35.700000000000003
 31
0.0
  0
LINE
  5
77E
100
AcDbEntity
  8
0
  6
CONTINUOUS
 62
               7
100
AcDbLine
 10
128.09999999999999
 20
-15.259999999999991
 30
0.0
 11
127.53999999999999
 21
-14.300000000000011
 31
0.0
  0
LINE
  5
77F
100
AcDbEntity
  8
0
  6
CONTINUOUS
 62
               7
100
AcDbLine
 10
129.11000000000001
 20
-34.70999999999998
 30
0.0
 11
128.09999999999999
 21
-34.730000000000018
 31
0.0
  0
LINE
  5
780
100
AcDbEntity
  8
0
  6
CONTINUOUS
 62
               7
100
AcDbLine
 10
129.11000000000001
 20
-15.280000000000001
 30
0.0
 11
128.09999999999999
 21
-15.259999999999991
 31
0.0
  0
LINE
  5
781
100
AcDbEntity
  8
0
  6
CONTINUOUS
 62
               7
100
AcDbLine
 10
130.09999999999999
 20
-16.280000000000001
 30
0.0
 11
130.09999999999999
 21
-33.70999999999998
 31
0.0
  0
LINE
  5
782
100
AcDbEntity
  8
0
  6
CONTINUOUS
 62
               7
100
AcDbLine
 10
109.00000000000001
 20
-33.5
 30
0.0
 11
109.00000000000001
 21
-51.0
 31
0.0
  0
LINE
  5
783
100
AcDbEntity
  8
0
  6
CENTER
 62
               2
100
AcDbLine
 10
99.752078239608807
 20
-1.0
 30
0.0
 11
93.5
 21
-1.0
 31
0.0
  0
LINE
  5
784
100
AcDbEntity
  8
0
  6
CONTINUOUS
 62
               7
100
AcDbLine
 10
98.0
 20
-4.1499999999999773
 30
0.0
 11
98.0
 21
2.1500000000000057
 31
0.0
  0
ARC
  5
785
100
AcDbEntity
  8
0
  6
CONTINUOUS
 62
               7
100
AcDbCircle
 10
92.9375
 20
-1.0
 30
0.0
 40
5.9624999999999977
100
AcDbArc
 50
328.10920819815431
 51
31.890791801845669
  0
LINE
  5
786
100
AcDbEntity
  8
0
  6
CONTINUOUS
 62
               7
100
AcDbLine
 10
97.0
 20
-4.1499999999999773
 30
0.0
 11
98.0
 21
-4.1499999999999773
 31
0.0
  0
LINE
  5
787
100
AcDbEntity
  8
0
  6
CONTINUOUS
 62
               7
100
AcDbLine
 10
98.0
 20
2.1500000000000057
 30
0.0
 11
97.0
 21
2.1500000000000057
 31
0.0
  0
LINE
  5
788
100
AcDbEntity
  8
0
  6
CENTER
 62
               2
100
AcDbLine
 10
99.752078239608807
 20
-49.0
 30
0.0
 11
93.5
 21
-49.0
 31
0.0
  0
LINE
  5
789
100
AcDbEntity
  8
0
  6
CONTINUOUS
 62
               7
100
AcDbLine
 10
98.0
 20
-45.850000000000023
 30
0.0
 11
98.0
 21
-52.150000000000006
 31
0.0
  0
ARC
  5
78A
100
AcDbEntity
  8
0
  6
CONTINUOUS
 62
               7
100
AcDbCircle
 10
92.9375
 20
-49.0
 30
0.0
 40
5.9624999999999977
100
AcDbArc
 50
328.10920819815357
 51
31.890791801845669
  0
LINE
  5
78B
100
AcDbEntity
  8
0
  6
CONTINUOUS
 62
               7
100
AcDbLine
 10
97.0
 20
-45.850000000000023
 30
0.0
 11
98.0
 21
-45.850000000000023
 31
0.0
  0
LINE
  5
78C
100
AcDbEntity
  8
0
  6
CONTINUOUS
 62
               7
100
AcDbLine
 10
98.0
 20
-52.150000000000006
 30
0.0
 11
97.0
 21
-52.150000000000006
 31
0.0
  0
LINE
  5
78D
100
AcDbEntity
  8
0
  6
CONTINUOUS
 62
               7
100
AcDbLine
 10
98.350577354431181
 20
1.5
 30
0.0
 11
98.399999976158171
 21
1.5
 31
0.0
  0
LINE
  5
78E
100
AcDbEntity
  8
0
  6
CENTER
 62
               2
100
AcDbLine
 10
4.2479217603912218
 20
-1.0
 30
0.0
 11
10.500000000000028
 21
-1.0
 31
0.0
  0
LINE
  5
78F
100
AcDbEntity
  8
0
  6
CENTER
 62
               2
100
AcDbLine
 10
4.2479217603912218
 20
-49.0
 30
0.0
 11
10.500000000000028
 21
-49.0
 31
0.0
  0
LINE
  5
790
100
AcDbEntity
  8
0
  6
CONTINUOUS
 62
               7
100
AcDbLine
 10
6.0000000000000284
 20
-52.150000000000006
 30
0.0
 11
7.0000000000000284
 21
-52.150000000000006
 31
0.0
  0
LINE
  5
791
100
AcDbEntity
  8
0
  6
CONTINUOUS
 62
               7
100
AcDbLine
 10
7.0000000000000284
 20
-45.850000000000023
 30
0.0
 11
6.0000000000000284
 21
-45.850000000000023
 31
0.0
  0
ARC
  5
792
100
AcDbEntity
  8
0
  6
CONTINUOUS
 62
               7
100
AcDbCircle
 10
11.062500000000028
 20
-49.0
 30
0.0
 40
5.9624999999999977
100
AcDbArc
 50
148.10920819815394
 51
211.89079180184524
  0
LINE
  5
793
100
AcDbEntity
  8
0
  6
CONTINUOUS
 62
               7
100
AcDbLine
 10
6.0000000000000284
 20
-45.850000000000023
 30
0.0
 11
6.0000000000000284
 21
-52.150000000000006
 31
0.0
  0
LINE
  5
794
100
AcDbEntity
  8
0
  6
CONTINUOUS
 62
               7
100
AcDbLine
 10
6.0000000000000284
 20
2.1500000000000057
 30
0.0
 11
7.0000000000000284
 21
2.1500000000000057
 31
0.0
  0
LINE
  5
795
100
AcDbEntity
  8
0
  6
CONTINUOUS
 62
               7
100
AcDbLine
 10
7.0000000000000284
 20
-4.1499999999999773
 30
0.0
 11
6.0000000000000284
 21
-4.1499999999999773
 31
0.0
  0
ARC
  5
796
100
AcDbEntity
  8
0
  6
CONTINUOUS
 62
               7
100
AcDbCircle
 10
11.062500000000028
 20
-1.0
 30
0.0
 40
5.9624999999999977
100
AcDbArc
 50
148.10920819815394
 51
211.89079180184524
  0
LINE
  5
797
100
AcDbEntity
  8
0
  6
CONTINUOUS
 62
               7
100
AcDbLine
 10
6.0000000000000284
 20
-4.1499999999999773
 30
0.0
 11
6.0000000000000284
 21
2.1500000000000057
 31
0.0
  0
LINE
  5
798
100
AcDbEntity
  8
0
  6
CENTER
 62
               2
100
AcDbLine
 10
-94.286574056022602
 20
-24.999999999999801
 30
0.0
 11
10.971823831838435
 21
-24.999999999999801
 31
0.0
  0
LINE
  5
799
100
AcDbEntity
  8
0
  6
CONTINUOUS
 62
               7
100
AcDbLine
 10
-8.0000000000000284
 20
-30.999999999999801
 30
0.0
 11
-8.0000000000000284
 21
-18.999999999999801
 31
0.0
  0
LINE
  5
79A
100
AcDbEntity
  8
0
  6
CONTINUOUS
 62
               7
100
AcDbLine
 10
-12.000000000000028
 20
-30.999999999999801
 30
0.0
 11
-12.000000000000028
 21
-18.999999999999801
 31
0.0
  0
LINE
  5
79B
100
AcDbEntity
  8
0
  6
CONTINUOUS
 62
               7
100
AcDbLine
 10
-3.0000000000000284
 20
-29.8606249999998
 30
0.0
 11
-8.0000000000000284
 21
-30.0168749999998
 31
0.0
  0
LINE
  5
79C
100
AcDbEntity
  8
0
  6
CONTINUOUS
 62
               2
100
AcDbLine
 10
-3.0000000000000284
 20
-29.280624999999816
 30
0.0
 11
-8.0000000000000284
 21
-29.436874999999816
 31
0.0
  0
LINE
  5
79D
100
AcDbEntity
  8
0
  6
CONTINUOUS
 62
               2
100
AcDbLine
 10
-3.0000000000000284
 20
-20.719374999999786
 30
0.0
 11
-8.0000000000000284
 21
-20.563124999999786
 31
0.0
  0
LINE
  5
79E
100
AcDbEntity
  8
0
  6
CONTINUOUS
 62
               7
100
AcDbLine
 10
-3.0000000000000284
 20
-20.139374999999802
 30
0.0
 11
-8.0000000000000284
 21
-19.983124999999802
 31
0.0
  0
LINE
  5
79F
100
AcDbEntity
  8
0
  6
CONTINUOUS
 62
               7
100
AcDbLine
 10
-17.000000000000028
 20
-29.8606249999998
 30
0.0
 11
-12.000000000000028
 21
-30.0168749999998
 31
0.0
  0
LINE
  5
7A0
100
AcDbEntity
  8
0
  6
CONTINUOUS
 62
               2
100
AcDbLine
 10
-17.000000000000028
 20
-29.280624999999816
 30
0.0
 11
-12.000000000000028
 21
-29.436874999999816
 31
0.0
  0
LINE
  5
7A1
100
AcDbEntity
  8
0
  6
CONTINUOUS
 62
               2
100
AcDbLine
 10
-17.000000000000028
 20
-20.719374999999786
 30
0.0
 11
-12.000000000000028
 21
-20.563124999999786
 31
0.0
  0
LINE
  5
7A2
100
AcDbEntity
  8
0
  6
CONTINUOUS
 62
               7
100
AcDbLine
 10
-17.000000000000028
 20
-20.139374999999802
 30
0.0
 11
-12.000000000000028
 21
-19.983124999999802
 31
0.0
  0
LINE
  5
7A3
100
AcDbEntity
  8
0
  6
CENTER
 62
               2
100
AcDbLine
 10
-73.000000000000028
 20
-13.583342440254768
 30
0.0
 11
-73.000000000000028
 21
-20.862004222647158
 31
0.0
  0
LINE
  5
7A4
100
AcDbEntity
  8
0
  6
CENTER
 62
               2
100
AcDbLine
 10
-21.000000000000028
 20
-14.049841920941617
 30
0.0
 11
-21.000000000000028
 21
-20.784736250471809
 31
0.0
  0
LINE
  5
7A5
100
AcDbEntity
  8
0
  6
CONTINUOUS
 62
               7
100
AcDbLine
 10
-37.000000000000028
 20
-35.499999999999801
 30
0.0
 11
-17.000000000000028
 21
-35.499999999999801
 31
0.0
  0
LINE
  5
7A6
100
AcDbEntity
  8
0
  6
CONTINUOUS
 62
               7
100
AcDbLine
 10
-37.000000000000028
 20
-14.499999999999801
 30
0.0
 11
-17.000000000000028
 21
-14.499999999999801
 31
0.0
  0
LINE
  5
7A7
100
AcDbEntity
  8
0
  6
CONTINUOUS
 62
               7
100
AcDbLine
 10
-57.000000000000028
 20
-34.999999999999801
 30
0.0
 11
-37.000000000000028
 21
-34.999999999999801
 31
0.0
  0
LINE
  5
7A8
100
AcDbEntity
  8
0
  6
CONTINUOUS
 62
               7
100
AcDbLine
 10
-57.000000000000028
 20
-14.999999999999801
 30
0.0
 11
-37.000000000000028
 21
-14.999999999999801
 31
0.0
  0
LINE
  5
7A9
100
AcDbEntity
  8
0
  6
CONTINUOUS
 62
               7
100
AcDbLine
 10
-37.000000000000028
 20
-14.499999999999801
 30
0.0
 11
-37.000000000000028
 21
-35.499999999999801
 31
0.0
  0
LINE
  5
7AA
100
AcDbEntity
  8
0
  6
CONTINUOUS
 62
               7
100
AcDbLine
 10
-57.000000000000028
 20
-14.499999999999801
 30
0.0
 11
-57.000000000000028
 21
-35.499999999999801
 31
0.0
  0
LINE
  5
7AB
100
AcDbEntity
  8
0
  6
CONTINUOUS
 62
               7
100
AcDbLine
 10
-77.000000000000028
 20
-14.499999999999801
 30
0.0
 11
-57.000000000000028
 21
-14.499999999999801
 31
0.0
  0
LINE
  5
7AC
100
AcDbEntity
  8
0
  6
CONTINUOUS
 62
               7
100
AcDbLine
 10
-77.000000000000028
 20
-35.499999999999801
 30
0.0
 11
-57.000000000000028
 21
-35.499999999999801
 31
0.0
  0
LINE
  5
7AD
100
AcDbEntity
  8
0
  6
CONTINUOUS
 62
               7
100
AcDbLine
 10
-77.000000000000028
 20
-14.499999999999801
 30
0.0
 11
-77.000000000000028
 21
-35.499999999999801
 31
0.0
  0
LINE
  5
7AE
100
AcDbEntity
  8
0
  6
CONTINUOUS
 62
               7
100
AcDbLine
 10
-17.000000000000028
 20
-14.499999999999801
 30
0.0
 11
-17.000000000000028
 21
-35.499999999999801
 31
0.0
  0
LINE
  5
7AF
100
AcDbEntity
  8
0
  6
CONTINUOUS
 62
               7
100
AcDbLine
 10
-3.0000000000000284
 20
-16.569999999999538
 30
0.0
 11
-3.0000000000000284
 21
-33.429999999999552
 31
0.0
  0
LINE
  5
7B0
100
AcDbEntity
  8
0
  6
CONTINUOUS
 62
               7
100
AcDbLine
 10
-3.0000000000000284
 20
-16.499999999999801
 30
0.0
 11
6.9999999999999716
 21
-16.499999999999801
 31
0.0
  0
LINE
  5
7B1
100
AcDbEntity
  8
0
  6
CONTINUOUS
 62
               7
100
AcDbLine
 10
-3.0000000000000284
 20
-33.499999999999801
 30
0.0
 11
6.9999999999999716
 21
-33.499999999999801
 31
0.0
  0
ARC
  5
7B2
100
AcDbEntity
  8
0
  6
CONTINUOUS
 62
               7
100
AcDbCircle
 10
6.9999999999999716
 20
-20.784999999999684
 30
0.0
 40
10.0
100
AcDbArc
 50
154.62759601901485
 51
204.929325033156
  0
ARC
  5
7B3
100
AcDbEntity
  8
0
  6
CONTINUOUS
 62
               7
100
AcDbCircle
 10
6.9999999999999716
 20
-29.214999999999918
 30
0.0
 40
10.0
100
AcDbArc
 50
155.07067496684317
 51
205.37240398098433
  0
ARC
  5
7B4
100
AcDbEntity
  8
0
  6
CONTINUOUS
 62
               7
100
AcDbCircle
 10
-3.0000000000000284
 20
-20.784999999999684
 30
0.0
 40
10.0
100
AcDbArc
 50
335.07067496684357
 51
25.37240398098475
  0
ARC
  5
7B5
100
AcDbEntity
  8
0
  6
CONTINUOUS
 62
               7
100
AcDbCircle
 10
-3.0000000000000284
 20
-29.214999999999918
 30
0.0
 40
10.0
100
AcDbArc
 50
334.62759601901445
 51
24.92932503315642
  0
LINE
  5
7B6
100
AcDbEntity
  8
0
  6
CONTINUOUS
 62
               7
100
AcDbLine
 10
-2.0682840162844229
 20
-24.999999999999801
 30
0.0
 11
6.0682840162843661
 21
-24.999999999999801
 31
0.0
  0
LINE
  5
7B7
100
AcDbEntity
  8
0
  6
CONTINUOUS
 62
               7
100
AcDbLine
 10
-5.0000000000000284
 20
-20.076874999999802
 30
0.0
 11
-5.0000000000000284
 21
-15.0
 31
0.0
  0
LINE
  5
7B8
100
AcDbEntity
  8
0
  6
CONTINUOUS
 62
               7
100
AcDbLine
 10
-12.000000000000028
 20
-18.999999999999801
 30
0.0
 11
-8.0000000000000284
 21
-18.999999999999801
 31
0.0
  0
LINE
  5
7B9
100
AcDbEntity
  8
0
  6
CONTINUOUS
 62
               7
100
AcDbLine
 10
-12.000000000000028
 20
-30.999999999999801
 30
0.0
 11
-8.0000000000000284
 21
-30.999999999999801
 31
0.0
  0
ARC
  5
7BA
100
AcDbEntity
  8
0
  6
CONTINUOUS
 62
               7
100
AcDbCircle
 10
-2.0000000000000284
 20
-21.999999999999801
 30
0.0
 40
10.0
100
AcDbArc
 50
162.54239687627754
 51
197.45760312372167
  0
ARC
  5
7BB
100
AcDbEntity
  8
0
  6
CONTINUOUS
 62
               7
100
AcDbCircle
 10
-2.0000000000000284
 20
-27.999999999999801
 30
0.0
 40
10.0
100
AcDbArc
 50
162.54239687627754
 51
197.45760312372167
  0
ARC
  5
7BC
100
AcDbEntity
  8
0
  6
CONTINUOUS
 62
               7
100
AcDbCircle
 10
-18.000000000000028
 20
-21.999999999999801
 30
0.0
 40
10.0
100
AcDbArc
 50
342.54239687627796
 51
17.457603123722045
  0
ARC
  5
7BD
100
AcDbEntity
  8
0
  6
CONTINUOUS
 62
               7
100
AcDbCircle
 10
-18.000000000000028
 20
-27.999999999999801
 30
0.0
 40
10.0
100
AcDbArc
 50
342.54239687627717
 51
17.457603123722045
  0
LINE
  5
7BE
100
AcDbEntity
  8
0
  6
CONTINUOUS
 62
               7
100
AcDbLine
 10
-11.539392014169493
 20
-24.999999999999801
 30
0.0
 11
-8.4606079858305918
 21
-24.999999999999801
 31
0.0
  0
LINE
  5
7BF
100
AcDbEntity
  8
0
  6
CENTER
 62
               2
100
AcDbLine
 10
-77.177237360057319
 20
-16.999999999999801
 30
0.0
 11
-68.76054753381635
 21
-16.999999999999801
 31
0.0
  0
LINE
  5
7C0
100
AcDbEntity
  8
0
  6
CENTER
 62
               2
100
AcDbLine
 10
-77.453194403540635
 20
-32.999999999999801
 30
0.0
 11
-68.898526055558023
 21
-32.999999999999801
 31
0.0
  0
CIRCLE
  5
7C1
100
AcDbEntity
  8
0
  6
CONTINUOUS
 62
               7
100
AcDbCircle
 10
-21.000000000000028
 20
-16.999999999999801
 30
0.0
 40
1.3999999999999999
  0
CIRCLE
  5
7C2
100
AcDbEntity
  8
0
  6
CONTINUOUS
 62
               7
100
AcDbCircle
 10
-21.000000000000028
 20
-32.999999999999801
 30
0.0
 40
1.3999999999999999
  0
CIRCLE
  5
7C3
100
AcDbEntity
  8
0
  6
CONTINUOUS
 62
               7
100
AcDbCircle
 10
-73.000000000000028
 20
-32.999999999999801
 30
0.0
 40
1.3999999999999999
  0
CIRCLE
  5
7C4
100
AcDbEntity
  8
0
  6
CONTINUOUS
 62
               7
100
AcDbCircle
 10
-73.000000000000028
 20
-16.999999999999801
 30
0.0
 40
1.3999999999999999
  0
ARC
  5
7C5
100
AcDbEntity
  8
0
  6
CONTINUOUS
 62
               7
100
AcDbCircle
 10
-21.000000000000028
 20
-16.999999999999801
 30
0.0
 40
2.7000000000000002
100
AcDbArc
 50
179.99999999999963
 51
0.0
  0
ARC
  5
7C6
100
AcDbEntity
  8
0
  6
CONTINUOUS
 62
               7
100
AcDbCircle
 10
-21.000000000000028
 20
-32.999999999999801
 30
0.0
 40
2.7000000000000002
100
AcDbArc
 50
0.0
 51
179.99999999999963
  0
ARC
  5
7C7
100
AcDbEntity
  8
0
  6
CONTINUOUS
 62
               7
100
AcDbCircle
 10
-73.000000000000028
 20
-16.999999999999801
 30
0.0
 40
2.7000000000000002
100
AcDbArc
 50
179.99999999999963
 51
0.0
  0
ARC
  5
7C8
100
AcDbEntity
  8
0
  6
CONTINUOUS
 62
               7
100
AcDbCircle
 10
-73.000000000000028
 20
-32.999999999999801
 30
0.0
 40
2.7000000000000002
100
AcDbArc
 50
0.0
 51
179.99999999999963
  0
LINE
  5
7C9
100
AcDbEntity
  8
0
  6
CONTINUOUS
 62
               7
100
AcDbLine
 10
-23.700000000000045
 20
-35.499999975852234
 30
0.0
 11
-23.700000000000045
 21
-32.999999975852234
 31
0.0
  0
LINE
  5
7CA
100
AcDbEntity
  8
0
  6
CONTINUOUS
 62
               7
100
AcDbLine
 10
-18.30000000000004
 20
-35.499999975852234
 30
0.0
 11
-18.30000000000004
 21
-32.999999975852234
 31
0.0
  0
LINE
  5
7CB
100
AcDbEntity
  8
0
  6
CONTINUOUS
 62
               7
100
AcDbLine
 10
-70.30000000000004
 20
-35.499999975852234
 30
0.0
 11
-70.30000000000004
 21
-32.999999975852234
 31
0.0
  0
LINE
  5
7CC
100
AcDbEntity
  8
0
  6
CONTINUOUS
 62
               7
100
AcDbLine
 10
-75.700000000000017
 20
-35.499999975852234
 30
0.0
 11
-75.700000000000017
 21
-32.999999975852234
 31
0.0
  0
LINE
  5
7CD
100
AcDbEntity
  8
0
  6
CONTINUOUS
 62
               7
100
AcDbLine
 10
-70.30000000000004
 20
-16.999999999999801
 30
0.0
 11
-70.30000000000004
 21
-14.499999999999801
 31
0.0
  0
LINE
  5
7CE
100
AcDbEntity
  8
0
  6
CONTINUOUS
 62
               7
100
AcDbLine
 10
-75.700000000000017
 20
-16.999999999999801
 30
0.0
 11
-75.700000000000017
 21
-14.499999999999801
 31
0.0
  0
LINE
  5
7CF
100
AcDbEntity
  8
0
  6
CONTINUOUS
 62
               7
100
AcDbLine
 10
-23.700000000000045
 20
-16.999999999999801
 30
0.0
 11
-23.700000000000045
 21
-14.499999999999801
 31
0.0
  0
LINE
  5
7D0
100
AcDbEntity
  8
0
  6
CONTINUOUS
 62
               7
100
AcDbLine
 10
-18.30000000000004
 20
-16.999999999999801
 30
0.0
 11
-18.30000000000004
 21
-14.499999999999801
 31
0.0
  0
LINE
  5
7D1
100
AcDbEntity
  8
0
  6
CENTER
 62
               2
100
AcDbLine
 10
-25.57327022867824
 20
-16.999999999999801
 30
0.0
 11
-16.74264483721231
 21
-16.999999999999801
 31
0.0
  0
LINE
  5
7D2
100
AcDbEntity
  8
0
  6
CENTER
 62
               2
100
AcDbLine
 10
-25.711248750419912
 20
-32.999999999999801
 30
0.0
 11
-16.880623358953954
 21
-32.999999999999801
 31
0.0
  0
LINE
  5
7D3
100
AcDbEntity
  8
0
  6
CENTER
 62
               2
100
AcDbLine
 10
-71.870000000000033
 20
-24.999999999999801
 30
0.0
 11
-92.870000000000033
 21
-24.999999999999801
 31
0.0
  0
LINE
  5
7D4
100
AcDbEntity
  8
0
  6
CONTINUOUS
 62
               7
100
AcDbLine
 10
-91.700000000000017
 20
-30.899999999999807
 30
0.0
 11
-91.700000000000017
 21
-19.099999999999795
 31
0.0
  0
LINE
  5
7D5
100
AcDbEntity
  8
0
  6
CONTINUOUS
 62
               7
100
AcDbLine
 10
-90.500000000000028
 20
-30.899999999999807
 30
0.0
 11
-90.500000000000028
 21
-19.099999999999795
 31
0.0
  0
LINE
  5
7D6
100
AcDbEntity
  8
0
  6
CONTINUOUS
 62
               7
100
AcDbLine
 10
-90.500000000000028
 20
-19.099999999999795
 30
0.0
 11
-91.700000000000017
 21
-19.099999999999795
 31
0.0
  0
LINE
  5
7D7
100
AcDbEntity
  8
0
  6
CONTINUOUS
 62
               7
100
AcDbLine
 10
-90.500000000000028
 20
-30.899999999999807
 30
0.0
 11
-91.700000000000017
 21
-30.899999999999807
 31
0.0
  0
LINE
  5
7D8
100
AcDbEntity
  8
0
  6
CONTINUOUS
 62
               7
100
AcDbLine
 10
-82.099999999999994
 20
-29.999999999999801
 30
0.0
 11
-82.099999999999994
 21
-19.999999999999801
 31
0.0
  0
LINE
  5
7D9
100
AcDbEntity
  8
0
  6
CONTINUOUS
 62
               7
100
AcDbLine
 10
-89.500000000000028
 20
-29.999999999999801
 30
0.0
 11
-89.500000000000028
 21
-19.999999999999801
 31
0.0
  0
LINE
  5
7DA
100
AcDbEntity
  8
0
  6
CONTINUOUS
 62
               7
100
AcDbLine
 10
-89.500000000000028
 20
-28.499999999999801
 30
0.0
 11
-90.500000000000028
 21
-28.499999999999801
 31
0.0
  0
LINE
  5
7DB
100
AcDbEntity
  8
0
  6
CONTINUOUS
 62
               7
100
AcDbLine
 10
-89.500000000000028
 20
-21.499999999999801
 30
0.0
 11
-90.500000000000028
 21
-21.499999999999801
 31
0.0
  0
LINE
  5
7DC
100
AcDbEntity
  8
0
  6
CONTINUOUS
 62
               7
100
AcDbLine
 10
-82.099999999999994
 20
-19.999999999999801
 30
0.0
 11
-89.500000000000028
 21
-19.999999999999801
 31
0.0
  0
LINE
  5
7DD
100
AcDbEntity
  8
0
  6
CONTINUOUS
 62
               7
100
AcDbLine
 10
-82.099999999999994
 20
-29.999999999999801
 30
0.0
 11
-89.500000000000028
 21
-29.999999999999801
 31
0.0
  0
LINE
  5
7DE
100
AcDbEntity
  8
0
  6
CONTINUOUS
 62
               7
100
AcDbLine
 10
-82.099999999999994
 20
-24.999999999999801
 30
0.0
 11
-89.05000000000004
 21
-24.999999999999801
 31
0.0
  0
LINE
  5
7DF
100
AcDbEntity
  8
0
  6
CONTINUOUS
 62
               2
100
AcDbLine
 10
-77.000000000000028
 20
-20.719374999999815
 30
0.0
 11
-82.099999999999994
 21
-20.559999999999803
 31
0.0
  0
LINE
  5
7E0
100
AcDbEntity
  8
0
  6
CONTINUOUS
 62
               7
100
AcDbLine
 10
-77.000000000000028
 20
-20.139374999999802
 30
0.0
 11
-82.099999999999994
 21
-19.979999999999791
 31
0.0
  0
LINE
  5
7E1
100
AcDbEntity
  8
0
  6
CONTINUOUS
 62
               7
100
AcDbLine
 10
-77.000000000000028
 20
-29.8606249999998
 30
0.0
 11
-82.099999999999994
 21
-30.019999999999811
 31
0.0
  0
LINE
  5
7E2
100
AcDbEntity
  8
0
  6
CONTINUOUS
 62
               2
100
AcDbLine
 10
-77.000000000000028
 20
-29.280624999999787
 30
0.0
 11
-82.099999999999994
 21
-29.439999999999799
 31
0.0
  0
ARC
  5
7E3
100
AcDbEntity
  8
0
  6
CONTINUOUS
 62
               7
100
AcDbCircle
 10
-82.279109001159696
 20
-22.499999999999801
 30
0.0
 40
7.2176841797197691
100
AcDbArc
 50
159.73446108635918
 51
200.26553891364011
  0
ARC
  5
7E4
100
AcDbEntity
  8
0
  6
CONTINUOUS
 62
               7
100
AcDbCircle
 10
-82.279109001159696
 20
-27.499999999999801
 30
0.0
 40
7.2176841797197691
100
AcDbArc
 50
159.73446108635918
 51
200.26553891364011
  0
ARC
  5
7E5
100
AcDbEntity
  8
0
  6
CONTINUOUS
 62
               7
100
AcDbCircle
 10
-89.320890426635771
 20
-22.499999999999801
 30
0.0
 40
7.2270654471950273
100
AcDbArc
 50
339.76191965811455
 51
20.238080341884647
  0
ARC
  5
7E6
100
AcDbEntity
  8
0
  6
CONTINUOUS
 62
               7
100
AcDbCircle
 10
-89.320890426635771
 20
-27.499999999999801
 30
0.0
 40
7.2270654471950273
100
AcDbArc
 50
339.76191965811455
 51
20.238080341884647
  0
LINE
  5
7E7
100
AcDbEntity
  8
0
  6
CENTER
 62
               2
100
AcDbLine
 10
9.1967800163368736
 20
-10.0
 30
0.0
 11
-15.672306099690587
 21
-10.0
 31
0.0
  0
LINE
  5
7E8
100
AcDbEntity
  8
0
  6
CONTINUOUS
 62
               7
100
AcDbLine
 10
-0.7000000000000739
 20
-4.5
 30
0.0
 11
-0.2000000000000739
 21
-4.0
 31
0.0
  0
LINE
  5
7E9
100
AcDbEntity
  8
0
  6
CONTINUOUS
 62
               7
100
AcDbLine
 10
-0.2000000000000739
 20
-16.0
 30
0.0
 11
-0.7000000000000739
 21
-15.5
 31
0.0
  0
LINE
  5
7EA
100
AcDbEntity
  8
0
  6
CONTINUOUS
 62
               7
100
AcDbLine
 10
-0.2000000000000739
 20
-4.0
 30
0.0
 11
-0.2000000000000739
 21
-16.0
 31
0.0
  0
LINE
  5
7EB
100
AcDbEntity
  8
0
  6
CONTINUOUS
 62
               2
100
AcDbLine
 10
4.5999999999999375
 20
-4.5
 30
0.0
 11
-0.7000000000000739
 21
-4.5
 31
0.0
  0
LINE
  5
7EC
100
AcDbEntity
  8
0
  6
CONTINUOUS
 62
               2
100
AcDbLine
 10
4.5999999999999375
 20
-15.5
 30
0.0
 11
-0.7000000000000739
 21
-15.5
 31
0.0
  0
LINE
  5
7ED
100
AcDbEntity
  8
0
  6
CONTINUOUS
 62
               7
100
AcDbLine
 10
4.5999999999999375
 20
-16.0
 30
0.0
 11
-0.2000000000000739
 21
-16.0
 31
0.0
  0
LINE
  5
7EE
100
AcDbEntity
  8
0
  6
CONTINUOUS
 62
               7
100
AcDbLine
 10
4.5999999999999375
 20
-4.0
 30
0.0
 11
-0.2000000000000739
 21
-4.0
 31
0.0
  0
LINE
  5
7EF
100
AcDbEntity
  8
0
  6
CONTINUOUS
 62
               7
100
AcDbLine
 10
4.5999999999999375
 20
-4.0
 30
0.0
 11
4.5999999999999375
 21
-16.0
 31
0.0
  0
LINE
  5
7F0
100
AcDbEntity
  8
0
  6
CONTINUOUS
 62
               7
100
AcDbLine
 10
6.5999999999999375
 20
-4.1499999999999773
 30
0.0
 11
6.5999999999999375
 21
-16.499999999999801
 31
0.0
  0
LINE
  5
7F1
100
AcDbEntity
  8
0
  6
CONTINUOUS
 62
               7
100
AcDbLine
 10
-0.7000000000000739
 20
-4.5
 30
0.0
 11
-0.7000000000000739
 21
-15.5
 31
0.0
  0
LINE
  5
7F2
100
AcDbEntity
  8
0
  6
CENTER
 62
               2
100
AcDbLine
 10
3.559999999999917
 20
-10.0
 30
0.0
 11
-15.900000000000091
 21
-10.0
 31
0.0
  0
LINE
  5
7F3
100
AcDbEntity
  8
0
  6
CONTINUOUS
 62
               7
100
AcDbLine
 10
-1.5000000000000853
 20
-14.0
 30
0.0
 11
-1.5000000000000853
 21
-6.0
 31
0.0
  0
LINE
  5
7F4
100
AcDbEntity
  8
0
  6
CONTINUOUS
 62
               7
100
AcDbLine
 10
-0.7000000000000739
 20
-14.0
 30
0.0
 11
-2.5000000000000853
 21
-14.0
 31
0.0
  0
LINE
  5
7F5
100
AcDbEntity
  8
0
  6
CONTINUOUS
 62
               7
100
AcDbLine
 10
-0.7000000000000739
 20
-6.0
 30
0.0
 11
-2.5000000000000853
 21
-6.0
 31
0.0
  0
LINE
  5
7F6
100
AcDbEntity
  8
0
  6
CONTINUOUS
 62
               7
100
AcDbLine
 10
-14.500000000000085
 20
-15.900000000000006
 30
0.0
 11
-14.500000000000085
 21
-4.0999999999999943
 31
0.0
  0
LINE
  5
7F7
100
AcDbEntity
  8
0
  6
CONTINUOUS
 62
               7
100
AcDbLine
 10
-13.300000000000097
 20
-15.900000000000006
 30
0.0
 11
-13.300000000000097
 21
-4.0999999999999943
 31
0.0
  0
LINE
  5
7F8
100
AcDbEntity
  8
0
  6
CONTINUOUS
 62
               7
100
AcDbLine
 10
-13.300000000000097
 20
-4.0999999999999943
 30
0.0
 11
-14.500000000000085
 21
-4.0999999999999943
 31
0.0
  0
LINE
  5
7F9
100
AcDbEntity
  8
0
  6
CONTINUOUS
 62
               7
100
AcDbLine
 10
-13.300000000000097
 20
-15.900000000000006
 30
0.0
 11
-14.500000000000085
 21
-15.900000000000006
 31
0.0
  0
LINE
  5
7FA
100
AcDbEntity
  8
0
  6
CONTINUOUS
 62
               7
100
AcDbLine
 10
-3.5000000000000853
 20
-15.0
 30
0.0
 11
-3.5000000000000853
 21
-5.0
 31
0.0
  0
LINE
  5
7FB
100
AcDbEntity
  8
0
  6
CONTINUOUS
 62
               7
100
AcDbLine
 10
-8.0000000000000853
 20
-15.0
 30
0.0
 11
-8.0000000000000853
 21
-5.0
 31
0.0
  0
LINE
  5
7FC
100
AcDbEntity
  8
0
  6
CONTINUOUS
 62
               7
100
AcDbLine
 10
-12.500000000000085
 20
-15.0
 30
0.0
 11
-12.500000000000085
 21
-5.0
 31
0.0
  0
LINE
  5
7FD
100
AcDbEntity
  8
0
  6
CONTINUOUS
 62
               7
100
AcDbLine
 10
-3.5000000000000853
 20
-5.0
 30
0.0
 11
-12.500000000000085
 21
-5.0
 31
0.0
  0
LINE
  5
7FE
100
AcDbEntity
  8
0
  6
CONTINUOUS
 62
               7
100
AcDbLine
 10
-3.5000000000000853
 20
-15.0
 30
0.0
 11
-12.500000000000085
 21
-15.0
 31
0.0
  0
LINE
  5
7FF
100
AcDbEntity
  8
0
  6
CONTINUOUS
 62
               7
100
AcDbLine
 10
-12.500000000000085
 20
-13.5
 30
0.0
 11
-13.300000000000097
 21
-13.5
 31
0.0
  0
LINE
  5
800
100
AcDbEntity
  8
0
  6
CONTINUOUS
 62
               7
100
AcDbLine
 10
-12.500000000000085
 20
-6.5
 30
0.0
 11
-13.300000000000097
 21
-6.5
 31
0.0
  0
LINE
  5
801
100
AcDbEntity
  8
0
  6
CONTINUOUS
 62
               7
100
AcDbLine
 10
-2.5000000000000853
 20
-14.0
 30
0.0
 11
-2.5000000000000853
 21
-6.0
 31
0.0
  0
LINE
  5
802
100
AcDbEntity
  8
0
  6
CONTINUOUS
 62
               7
100
AcDbLine
 10
-2.5000000000000853
 20
-6.0
 30
0.0
 11
-3.5000000000000853
 21
-5.0
 31
0.0
  0
LINE
  5
803
100
AcDbEntity
  8
0
  6
CONTINUOUS
 62
               7
100
AcDbLine
 10
-2.5000000000000853
 20
-14.0
 30
0.0
 11
-3.5000000000000853
 21
-15.0
 31
0.0
  0
LINE
  5
804
100
AcDbEntity
  8
0
  6
CONTINUOUS
 62
               7
100
AcDbLine
 10
-3.940000000000083
 20
-10.0
 30
0.0
 11
-7.5500000000000966
 21
-10.0
 31
0.0
  0
ARC
  5
805
100
AcDbEntity
  8
0
  6
CONTINUOUS
 62
               7
100
AcDbCircle
 10
-0.7791044235230231
 20
-7.5
 30
0.0
 40
7.2176884739891962
100
AcDbArc
 50
159.73447367294543
 51
200.26552632705389
  0
ARC
  5
806
100
AcDbEntity
  8
0
  6
CONTINUOUS
 62
               7
100
AcDbCircle
 10
-0.7791044235230231
 20
-12.5
 30
0.0
 40
7.2176884739891962
100
AcDbArc
 50
159.73447367294543
 51
200.26552632705389
  0
ARC
  5
807
100
AcDbEntity
  8
0
  6
CONTINUOUS
 62
               7
100
AcDbCircle
 10
-10.720897865295484
 20
-7.5
 30
0.0
 40
7.2270724266170081
100
AcDbArc
 50
339.76194005824459
 51
20.238059941754607
  0
ARC
  5
808
100
AcDbEntity
  8
0
  6
CONTINUOUS
 62
               7
100
AcDbCircle
 10
-10.720897865295484
 20
-12.5
 30
0.0
 40
7.2270724266170081
100
AcDbArc
 50
339.76194005824459
 51
20.238059941754607
  0
LINE
  5
809
100
AcDbEntity
  8
0
  6
CONTINUOUS
 62
               7
100
AcDbLine
 10
-5.0000000000000284
 20
-5.0
 30
0.0
 11
-5.0000000000000284
 21
1.0
 31
0.0
  0
LINE
  5
80A
100
AcDbEntity
  8
0
  6
CONTINUOUS
 62
               7
100
AcDbLine
 10
6.5999999999999375
 20
-16.0
 30
0.0
 11
4.5999999999999375
 21
-16.0
 31
0.0
  0
LINE
  5
80B
100
AcDbEntity
  8
0
  6
CONTINUOUS
 62
               7
100
AcDbLine
 10
5.9096943322108757
 20
-4.0
 30
0.0
 11
4.5999999999999375
 21
-4.0
 31
0.0
  0
ARC
  5
80C
100
AcDbEntity
  8
0
  6
CONTINUOUS
 62
               7
100
AcDbCircle
 10
14.599999999999937
 20
-7.0
 30
0.0
 40
10.0
100
AcDbArc
 50
162.54239687627754
 51
197.45760312372167
  0
ARC
  5
80D
100
AcDbEntity
  8
0
  6
CONTINUOUS
 62
               7
100
AcDbCircle
 10
14.599999999999937
 20
-13.0
 30
0.0
 40
10.0
100
AcDbArc
 50
162.54239687627754
 51
197.45760312372167
  0
ARC
  5
80E
100
AcDbEntity
  8
0
  6
CONTINUOUS
 62
               7
100
AcDbCircle
 10
-3.4000000000000625
 20
-7.0
 30
0.0
 40
10.0
100
AcDbArc
 50
342.54239687627796
 51
16.558848586492463
  0
ARC
  5
80F
100
AcDbEntity
  8
0
  6
CONTINUOUS
 62
               7
100
AcDbCircle
 10
-3.4000000000000625
 20
-13.0
 30
0.0
 40
10.0
100
AcDbArc
 50
342.54239687627717
 51
17.457603123722045
  0
LINE
  5
810
100
AcDbEntity
  8
0
  6
CONTINUOUS
 62
               7
100
AcDbLine
 10
5.0606079858305009
 20
-10.0
 30
0.0
 11
6.1393920141694025
 21
-10.0
 31
0.0
  0
LINE
  5
811
100
AcDbEntity
  8
0
  6
CENTER
 62
               2
100
AcDbLine
 10
-21.000000000000028
 20
-29.361481161933114
 30
0.0
 11
-21.000000000000028
 21
-36.241888645043787
 31
0.0
  0
LINE
  5
812
100
AcDbEntity
  8
0
  6
CENTER
 62
               2
100
AcDbLine
 10
-73.000000000000028
 20
-29.284213189757793
 30
0.0
 11
-73.000000000000028
 21
-36.641745342775366
 31
0.0
  0
LINE
  5
813
100
AcDbEntity
  8
0
  6
CENTER
 62
               2
100
AcDbLine
 10
-5.7466560845942922
 20
-39.999999999999801
 30
0.0
 11
8.6559867879715
 21
-39.999999999999801
 31
0.0
  0
LINE
  5
814
100
AcDbEntity
  8
0
  6
CONTINUOUS
 62
               7
100
AcDbLine
 10
-0.4199999999999591
 20
-49.749999999999801
 30
0.0
 11
5.1473578842093559
 21
-49.749999999999801
 31
0.0
  0
LINE
  5
815
100
AcDbEntity
  8
0
  6
CONTINUOUS
 62
               7
100
AcDbLine
 10
-3.8999999999999488
 20
-35.199999999999804
 30
0.0
 11
6.9999999999999716
 21
-35.199999999999804
 31
0.0
  0
LINE
  5
816
100
AcDbEntity
  8
0
  6
CONTINUOUS
 62
               7
100
AcDbLine
 10
-3.8999999999999488
 20
-44.799999999999798
 30
0.0
 11
6.9999999999999716
 21
-44.799999999999798
 31
0.0
  0
LINE
  5
817
100
AcDbEntity
  8
0
  6
CONTINUOUS
 62
               7
100
AcDbLine
 10
-3.8999999999999488
 20
-44.799999987773163
 30
0.0
 11
-3.8999999999999488
 21
-35.200000023535949
 31
0.0
  0
LINE
  5
818
100
AcDbEntity
  8
0
  6
CONTINUOUS
 62
               7
100
AcDbLine
 10
-0.4199999999999591
 20
-49.749999975852234
 30
0.0
 11
-0.4199999999999591
 21
-44.799999999999798
 31
0.0
  0
LINE
  5
819
100
AcDbEntity
  8
0
  6
CONTINUOUS
 62
               7
100
AcDbLine
 10
-0.4199999999999591
 20
-35.199999999999804
 30
0.0
 11
-0.4199999999999591
 21
-33.499999975852234
 31
0.0
  0
CIRCLE
  5
81A
100
AcDbEntity
  8
0
  6
CONTINUOUS
 62
               7
100
AcDbCircle
 10
104.00000000000003
 20
0.0
 30
0.0
 40
2.25
  0
LINE
  5
81B
100
AcDbEntity
  8
0
  6
CENTER
 62
               2
100
AcDbLine
 10
100.00719144188062
 20
0.0
 30
0.0
 11
107.86368846893313
 21
0.0
 31
0.0
  0
LINE
  5
81C
100
AcDbEntity
  8
0
  6
CENTER
 62
               2
100
AcDbLine
 10
104.00000000000003
 20
-3.7982004388566679
 30
0.0
 11
104.00000000000003
 21
3.7561236264989475
 31
0.0
  0
CIRCLE
  5
81D
100
AcDbEntity
  8
0
  6
CONTINUOUS
 62
               7
100
AcDbCircle
 10
104.00000000000003
 20
-50.0
 30
0.0
 40
2.25
  0
LINE
  5
81E
100
AcDbEntity
  8
0
  6
CENTER
 62
               2
100
AcDbLine
 10
100.00719144188062
 20
-50.0
 30
0.0
 11
107.86368846893313
 21
-50.0
 31
0.0
  0
LINE
  5
81F
100
AcDbEntity
  8
0
  6
CENTER
 62
               2
100
AcDbLine
 10
104.00000000000003
 20
-46.201799561143332
 30
0.0
 11
104.00000000000003
 21
-53.756123626498947
 31
0.0
  0
LINE
  5
820
100
AcDbEntity
  8
0
  6
CENTER
 62
               2
100
AcDbLine
 10
3.9928085581194068
 20
0.0
 30
0.0
 11
-3.8636884689331055
 21
0.0
 31
0.0
  0
LINE
  5
821
100
AcDbEntity
  8
0
  6
CENTER
 62
               2
100
AcDbLine
 10
0.0
 20
-3.7982004388566679
 30
0.0
 11
0.0
 21
3.7561236264989475
 31
0.0
  0
CIRCLE
  5
822
100
AcDbEntity
  8
0
  6
CONTINUOUS
 62
               7
100
AcDbCircle
 10
0.0
 20
0.0
 30
0.0
 40
2.25
  0
ARC
  5
823
100
AcDbEntity
  8
0
  6
CONTINUOUS
 62
               7
100
AcDbCircle
 10
0.0
 20
-50.0
 30
0.0
 40
2.25
100
AcDbArc
 50
100.75831822899379
 51
6.3793702084478667
  0
LINE
  5
824
100
AcDbEntity
  8
0
  6
CENTER
 62
               2
100
AcDbLine
 10
3.9928085581194068
 20
-50.0
 30
0.0
 11
-3.8636884689331055
 21
-50.0
 31
0.0
  0
LINE
  5
825
100
AcDbEntity
  8
0
  6
CENTER
 62
               2
100
AcDbLine
 10
0.0
 20
-46.201799561143332
 30
0.0
 11
0.0
 21
-53.756123626498947
 31
0.0
  0
ARC
  5
826
100
AcDbEntity
  8
0
  6
DASHED
 62
               7
100
AcDbCircle
 10
0.0
 20
-50.0
 30
0.0
 40
2.25
100
AcDbArc
 50
6.379370208447904
 51
100.75831822899379
  0
ENDBLK
  5
827
100
AcDbEntity
  8
0
100
AcDbBlockEnd
  0
BLOCK
  5
828
100
AcDbEntity
  8
0
100
AcDbBlockBegin
  2
DTRY-ELB-15
 70
               0
 10
0.0
 20
0.0
 30
0.0
  3
DTRY-ELB-15
  1

  0
LINE
  5
829
100
AcDbEntity
  8
0
  6
CENTER
 62
               2
100
AcDbLine
 10
-2.7314656968196687
 20
18.000000499999999
 30
0.0
 11
8.6245847349086944
 21
18.000000499999999
 31
0.0
  0
LINE
  5
82A
100
AcDbEntity
  8
0
  6
CENTER
 62
               2
100
AcDbLine
 10
72.520613017275736
 20
39.0
 30
0.0
 11
83.353651121514787
 21
39.0
 31
0.0
  0
ARC
  5
82B
100
AcDbEntity
  8
0
  6
CONTINUOUS
 62
               7
100
AcDbCircle
 10
23.5
 20
38.126973000000021
 30
0.0
 40
3.0706839999999977
100
AcDbArc
 50
56.546668999999852
 51
123.45333099999974
  0
LINE
  5
82C
100
AcDbEntity
  8
0
  6
CONTINUOUS
 62
               7
100
AcDbLine
 10
25.192736999999994
 20
40.0
 30
0.0
 11
25.192736999999994
 21
40.688952000000029
 31
0.0
  0
LINE
  5
82D
100
AcDbEntity
  8
0
  6
CONTINUOUS
 62
               7
100
AcDbLine
 10
21.80726199999998
 20
40.0
 30
0.0
 11
21.80726199999998
 21
40.688952000000029
 31
0.0
  0
LINE
  5
82E
100
AcDbEntity
  8
0
  6
CONTINUOUS
 62
               7
100
AcDbLine
 10
-0.5
 20
22.0
 30
0.0
 11
-0.5
 21
14.0
 31
0.0
  0
LINE
  5
82F
100
AcDbEntity
  8
0
  6
CONTINUOUS
 62
               7
100
AcDbLine
 10
-1.0
 20
14.5
 30
0.0
 11
-0.5
 21
14.0
 31
0.0
  0
LINE
  5
830
100
AcDbEntity
  8
0
  6
CONTINUOUS
 62
               7
100
AcDbLine
 10
-0.5
 20
22.0
 30
0.0
 11
-1.0
 21
21.5
 31
0.0
  0
LINE
  5
831
100
AcDbEntity
  8
0
  6
CONTINUOUS
 62
               7
100
AcDbLine
 10
5.0
 20
15.819650000000024
 30
0.0
 11
6.0
 21
15.819650000000024
 31
0.0
  0
LINE
  5
832
100
AcDbEntity
  8
0
  6
CONTINUOUS
 62
               7
100
AcDbLine
 10
5.0
 20
20.180351000000002
 30
0.0
 11
6.0
 21
20.180351000000002
 31
0.0
  0
LINE
  5
833
100
AcDbEntity
  8
0
  6
CONTINUOUS
 62
               7
100
AcDbLine
 10
3.0
 20
15.445673999999997
 30
0.0
 11
4.0
 21
15.445673999999997
 31
0.0
  0
LINE
  5
834
100
AcDbEntity
  8
0
  6
CONTINUOUS
 62
               7
100
AcDbLine
 10
3.0
 20
20.554327000000001
 30
0.0
 11
4.0
 21
20.554327000000001
 31
0.0
  0
LINE
  5
835
100
AcDbEntity
  8
0
  6
CONTINUOUS
 62
               7
100
AcDbLine
 10
-1.0
 20
14.5
 30
0.0
 11
-1.0
 21
21.5
 31
0.0
  0
LINE
  5
836
100
AcDbEntity
  8
0
  6
CONTINUOUS
 62
               7
100
AcDbLine
 10
3.0
 20
14.0
 30
0.0
 11
3.0
 21
22.0
 31
0.0
  0
LINE
  5
837
100
AcDbEntity
  8
0
  6
CONTINUOUS
 62
               7
100
AcDbLine
 10
4.0
 20
14.5
 30
0.0
 11
4.0
 21
21.5
 31
0.0
  0
LINE
  5
838
100
AcDbEntity
  8
0
  6
CONTINUOUS
 62
               7
100
AcDbLine
 10
5.0
 20
14.5
 30
0.0
 11
5.0
 21
21.5
 31
0.0
  0
LINE
  5
839
100
AcDbEntity
  8
0
  6
CONTINUOUS
 62
               7
100
AcDbLine
 10
4.0
 20
14.5
 30
0.0
 11
5.0
 21
14.5
 31
0.0
  0
LINE
  5
83A
100
AcDbEntity
  8
0
  6
CONTINUOUS
 62
               7
100
AcDbLine
 10
4.0
 20
21.5
 30
0.0
 11
5.0
 21
21.5
 31
0.0
  0
LINE
  5
83B
100
AcDbEntity
  8
0
  6
CONTINUOUS
 62
               7
100
AcDbLine
 10
-0.5
 20
14.0
 30
0.0
 11
3.0
 21
14.0
 31
0.0
  0
LINE
  5
83C
100
AcDbEntity
  8
0
  6
CONTINUOUS
 62
               7
100
AcDbLine
 10
-0.5
 20
22.0
 30
0.0
 11
3.0
 21
22.0
 31
0.0
  0
LINE
  5
83D
100
AcDbEntity
  8
0
  6
CONTINUOUS
 62
               7
100
AcDbLine
 10
6.0
 20
40.0
 30
0.0
 11
6.0
 21
39.0
 31
0.0
  0
LINE
  5
83E
100
AcDbEntity
  8
0
  6
CONTINUOUS
 62
               7
100
AcDbLine
 10
6.0
 20
40.0
 30
0.0
 11
41.0
 21
40.0
 31
0.0
  0
LINE
  5
83F
100
AcDbEntity
  8
0
  6
CONTINUOUS
 62
               7
100
AcDbLine
 10
41.0
 20
39.0
 30
0.0
 11
41.0
 21
54.0
 31
0.0
  0
LINE
  5
840
100
AcDbEntity
  8
0
  6
CONTINUOUS
 62
               7
100
AcDbLine
 10
74.0
 20
23.0
 30
0.0
 11
74.0
 21
54.0
 31
0.0
  0
LINE
  5
841
100
AcDbEntity
  8
0
  6
CONTINUOUS
 62
               7
100
AcDbLine
 10
41.0
 20
54.0
 30
0.0
 11
74.0
 21
54.0
 31
0.0
  0
ARC
  5
842
100
AcDbEntity
  8
0
  6
CONTINUOUS
 62
               7
100
AcDbCircle
 10
67.0
 20
34.0
 30
0.0
 40
5.0
100
AcDbArc
 50
0.0
 51
89.999999999999815
  0
LINE
  5
843
100
AcDbEntity
  8
0
  6
CONTINUOUS
 62
               7
100
AcDbLine
 10
74.0
 20
23.0
 30
0.0
 11
72.0
 21
23.0
 31
0.0
  0
LINE
  5
844
100
AcDbEntity
  8
0
  6
CONTINUOUS
 62
               7
100
AcDbLine
 10
72.0
 20
34.0
 30
0.0
 11
72.0
 21
1.0
 31
0.0
  0
CIRCLE
  5
845
100
AcDbEntity
  8
0
  6
CONTINUOUS
 62
               7
100
AcDbCircle
 10
66.0
 20
20.0
 30
0.0
 40
2.0
  0
CIRCLE
  5
846
100
AcDbEntity
  8
0
  6
CONTINUOUS
 62
               7
100
AcDbCircle
 10
56.0
 20
20.0
 30
0.0
 40
2.0
  0
LINE
  5
847
100
AcDbEntity
  8
0
  6
CONTINUOUS
 62
               7
100
AcDbLine
 10
74.0
 20
23.0
 30
0.0
 11
74.0
 21
1.0
 31
0.0
  0
LINE
  5
848
100
AcDbEntity
  8
0
  6
CONTINUOUS
 62
               7
100
AcDbLine
 10
6.0
 20
39.0
 30
0.0
 11
67.0
 21
39.0
 31
0.0
  0
LINE
  5
849
100
AcDbEntity
  8
0
  6
CONTINUOUS
 62
               7
100
AcDbLine
 10
6.0
 20
1.0
 30
0.0
 11
6.0
 21
39.0
 31
0.0
  0
LINE
  5
84A
100
AcDbEntity
  8
0
  6
CONTINUOUS
 62
               7
100
AcDbLine
 10
86.0
 20
0.0
 30
0.0
 11
86.0
 21
1.0
 31
0.0
  0
LINE
  5
84B
100
AcDbEntity
  8
0
  6
CONTINUOUS
 62
               7
100
AcDbLine
 10
-6.0
 20
0.0
 30
0.0
 11
-6.0
 21
1.0
 31
0.0
  0
LINE
  5
84C
100
AcDbEntity
  8
0
  6
CONTINUOUS
 62
               7
100
AcDbLine
 10
-6.0
 20
1.0
 30
0.0
 11
86.0
 21
1.0
 31
0.0
  0
LINE
  5
84D
100
AcDbEntity
  8
0
  6
CONTINUOUS
 62
               7
100
AcDbLine
 10
-6.0
 20
0.0
 30
0.0
 11
86.0
 21
0.0
 31
0.0
  0
LINE
  5
84E
100
AcDbEntity
  8
0
  6
DASHED
 62
               7
100
AcDbLine
 10
77.75
 20
0.0
 30
0.0
 11
77.75
 21
1.0
 31
0.0
  0
LINE
  5
84F
100
AcDbEntity
  8
0
  6
DASHED
 62
               7
100
AcDbLine
 10
-2.25
 20
0.0
 30
0.0
 11
-2.25
 21
1.0
 31
0.0
  0
LINE
  5
850
100
AcDbEntity
  8
0
  6
DASHED
 62
               7
100
AcDbLine
 10
2.25
 20
0.0
 30
0.0
 11
2.25
 21
1.0
 31
0.0
  0
LINE
  5
851
100
AcDbEntity
  8
0
  6
DASHED
 62
               7
100
AcDbLine
 10
82.25
 20
0.0
 30
0.0
 11
82.25
 21
1.0
 31
0.0
  0
LINE
  5
852
100
AcDbEntity
  8
0
  6
CONTINUOUS
 62
               7
100
AcDbLine
 10
29.629999999999995
 20
40.800000000000011
 30
0.0
 11
39.22999999999999
 21
40.800000000000011
 31
0.0
  0
LINE
  5
853
100
AcDbEntity
  8
0
  6
CONTINUOUS
 62
               7
100
AcDbLine
 10
40.429999999999978
 20
41.492799999999988
 30
0.0
 11
40.429999999999978
 21
54.507200000000012
 31
0.0
  0
LINE
  5
854
100
AcDbEntity
  8
0
  6
CONTINUOUS
 62
               7
100
AcDbLine
 10
28.429999999999978
 20
41.492799999999988
 30
0.0
 11
28.429999999999978
 21
54.507200000000012
 31
0.0
  0
LINE
  5
855
100
AcDbEntity
  8
0
  6
CONTINUOUS
 62
               7
100
AcDbLine
 10
39.22999999999999
 20
40.800000000000011
 30
0.0
 11
39.22999999999999
 21
55.199999999999989
 31
0.0
  0
LINE
  5
856
100
AcDbEntity
  8
0
  6
CONTINUOUS
 62
               7
100
AcDbLine
 10
29.629999999999995
 20
40.800000000000011
 30
0.0
 11
29.629999999999995
 21
55.199999999999989
 31
0.0
  0
LINE
  5
857
100
AcDbEntity
  8
0
  6
CONTINUOUS
 62
               7
100
AcDbLine
 10
29.629999999999995
 20
55.199999999999989
 30
0.0
 11
28.429999999999978
 21
54.507200000000012
 31
0.0
  0
LINE
  5
858
100
AcDbEntity
  8
0
  6
CONTINUOUS
 62
               7
100
AcDbLine
 10
39.22999999999999
 20
40.800000000000011
 30
0.0
 11
40.430099999999982
 21
41.492799999999988
 31
0.0
  0
LINE
  5
859
100
AcDbEntity
  8
0
  6
CONTINUOUS
 62
               7
100
AcDbLine
 10
29.630099999999999
 20
40.800000000000011
 30
0.0
 11
28.430099999999982
 21
41.492799999999988
 31
0.0
  0
LINE
  5
85A
100
AcDbEntity
  8
0
  6
CONTINUOUS
 62
               7
100
AcDbLine
 10
39.22999999999999
 20
55.199999999999989
 30
0.0
 11
40.429999999999978
 21
54.507200000000012
 31
0.0
  0
LINE
  5
85B
100
AcDbEntity
  8
0
  6
CONTINUOUS
 62
               7
100
AcDbLine
 10
24.429999999999978
 20
43.0
 30
0.0
 11
24.429999999999978
 21
53.0
 31
0.0
  0
LINE
  5
85C
100
AcDbEntity
  8
0
  6
CONTINUOUS
 62
               7
100
AcDbLine
 10
29.629999999999995
 20
55.199999999999989
 30
0.0
 11
39.22999999999999
 21
55.199999999999989
 31
0.0
  0
LINE
  5
85D
100
AcDbEntity
  8
0
  6
CONTINUOUS
 62
               7
100
AcDbLine
 10
23.329999999999984
 20
43.5
 30
0.0
 11
23.329999999999984
 21
52.5
 31
0.0
  0
LINE
  5
85E
100
AcDbEntity
  8
0
  6
CONTINUOUS
 62
               7
100
AcDbLine
 10
19.829999999999984
 20
43.5
 30
0.0
 11
19.829999999999984
 21
52.5
 31
0.0
  0
LINE
  5
85F
100
AcDbEntity
  8
0
  6
CONTINUOUS
 62
               7
100
AcDbLine
 10
20.329999999999984
 20
53.0
 30
0.0
 11
22.829999999999984
 21
53.0
 31
0.0
  0
LINE
  5
860
100
AcDbEntity
  8
0
  6
CONTINUOUS
 62
               7
100
AcDbLine
 10
20.329999999999984
 20
43.0
 30
0.0
 11
22.829999999999984
 21
43.0
 31
0.0
  0
LINE
  5
861
100
AcDbEntity
  8
0
  6
CONTINUOUS
 62
               7
100
AcDbLine
 10
20.330099999999987
 20
53.0
 30
0.0
 11
19.830099999999987
 21
52.5
 31
0.0
  0
LINE
  5
862
100
AcDbEntity
  8
0
  6
CONTINUOUS
 62
               7
100
AcDbLine
 10
19.829999999999984
 20
43.5
 30
0.0
 11
20.329999999999984
 21
43.0
 31
0.0
  0
LINE
  5
863
100
AcDbEntity
  8
0
  6
CONTINUOUS
 62
               7
100
AcDbLine
 10
22.829999999999984
 20
43.0
 30
0.0
 11
23.329999999999984
 21
43.5
 31
0.0
  0
LINE
  5
864
100
AcDbEntity
  8
0
  6
CONTINUOUS
 62
               7
100
AcDbLine
 10
23.329999999999984
 20
52.5
 30
0.0
 11
22.829999999999984
 21
53.0
 31
0.0
  0
LINE
  5
865
100
AcDbEntity
  8
0
  6
CONTINUOUS
 62
               7
100
AcDbLine
 10
20.329999999999984
 20
43.0
 30
0.0
 11
20.329999999999984
 21
53.0
 31
0.0
  0
LINE
  5
866
100
AcDbEntity
  8
0
  6
CONTINUOUS
 62
               7
100
AcDbLine
 10
22.829999999999984
 20
43.0
 30
0.0
 11
22.829999999999984
 21
53.0
 31
0.0
  0
LINE
  5
867
100
AcDbEntity
  8
0
  6
CONTINUOUS
 62
               7
100
AcDbLine
 10
23.329999999999984
 20
52.0
 30
0.0
 11
24.429999999999978
 21
52.0
 31
0.0
  0
LINE
  5
868
100
AcDbEntity
  8
0
  6
CONTINUOUS
 62
               7
100
AcDbLine
 10
23.329999999999984
 20
44.0
 30
0.0
 11
24.429999999999978
 21
44.0
 31
0.0
  0
LINE
  5
869
100
AcDbEntity
  8
0
  6
CONTINUOUS
 62
               7
100
AcDbLine
 10
24.429999999999978
 20
43.0
 30
0.0
 11
28.429999999999978
 21
43.0
 31
0.0
  0
LINE
  5
86A
100
AcDbEntity
  8
0
  6
CONTINUOUS
 62
               7
100
AcDbLine
 10
24.429999999999978
 20
53.0
 30
0.0
 11
28.429999999999978
 21
53.0
 31
0.0
  0
LINE
  5
86B
100
AcDbEntity
  8
0
  6
CONTINUOUS
 62
               7
100
AcDbLine
 10
24.876599999999996
 20
48.0
 30
0.0
 11
28.429999999999978
 21
48.0
 31
0.0
  0
LINE
  5
86C
100
AcDbEntity
  8
0
  6
CONTINUOUS
 62
               7
100
AcDbLine
 10
19.22999999999999
 20
42.25
 30
0.0
 11
17.22999999999999
 21
42.25
 31
0.0
  0
LINE
  5
86D
100
AcDbEntity
  8
0
  6
CONTINUOUS
 62
               7
100
AcDbLine
 10
17.22999999999999
 20
42.25
 30
0.0
 11
17.22999999999999
 21
45.5
 31
0.0
  0
LINE
  5
86E
100
AcDbEntity
  8
0
  6
CONTINUOUS
 62
               7
100
AcDbLine
 10
17.22999999999999
 20
43.699999999999989
 30
0.0
 11
16.030000000000001
 21
43.699999999999989
 31
0.0
  0
LINE
  5
86F
100
AcDbEntity
  8
0
  6
CONTINUOUS
 62
               7
100
AcDbLine
 10
16.030000000000001
 20
42.100000000000023
 30
0.0
 11
16.030000000000001
 21
45.5
 31
0.0
  0
LINE
  5
870
100
AcDbEntity
  8
0
  6
CONTINUOUS
 62
               7
100
AcDbLine
 10
16.030000000000001
 20
42.100000000000023
 30
0.0
 11
14.22999999999999
 21
42.100000000000023
 31
0.0
  0
LINE
  5
871
100
AcDbEntity
  8
0
  6
CONTINUOUS
 62
               7
100
AcDbLine
 10
16.030000000000001
 20
53.899999999999977
 30
0.0
 11
14.22999999999999
 21
53.899999999999977
 31
0.0
  0
LINE
  5
872
100
AcDbEntity
  8
0
  6
CONTINUOUS
 62
               7
100
AcDbLine
 10
17.22999999999999
 20
52.300000000000011
 30
0.0
 11
16.030000000000001
 21
52.300000000000011
 31
0.0
  0
LINE
  5
873
100
AcDbEntity
  8
0
  6
CONTINUOUS
 62
               7
100
AcDbLine
 10
19.22999999999999
 20
53.75
 30
0.0
 11
17.22999999999999
 21
53.75
 31
0.0
  0
LINE
  5
874
100
AcDbEntity
  8
0
  6
CONTINUOUS
 62
               7
100
AcDbLine
 10
19.22999999999999
 20
41.75
 30
0.0
 11
19.22999999999999
 21
45.5
 31
0.0
  0
LINE
  5
875
100
AcDbEntity
  8
0
  6
CONTINUOUS
 62
               7
100
AcDbLine
 10
28.429999999999978
 20
41.75
 30
0.0
 11
19.22999999999999
 21
41.75
 31
0.0
  0
LINE
  5
876
100
AcDbEntity
  8
0
  6
CONTINUOUS
 62
               7
100
AcDbLine
 10
28.429999999999978
 20
54.25
 30
0.0
 11
19.22999999999999
 21
54.25
 31
0.0
  0
LINE
  5
877
100
AcDbEntity
  8
0
  6
CONTINUOUS
 62
               7
100
AcDbLine
 10
21.22999999999999
 20
41.75
 30
0.0
 11
21.22999999999999
 21
43.0
 31
0.0
  0
LINE
  5
878
100
AcDbEntity
  8
0
  6
CONTINUOUS
 62
               7
100
AcDbLine
 10
21.22999999999999
 20
53.0
 30
0.0
 11
21.22999999999999
 21
54.25
 31
0.0
  0
LINE
  5
879
100
AcDbEntity
  8
0
  6
CONTINUOUS
 62
               7
100
AcDbLine
 10
19.22999999999999
 20
50.5
 30
0.0
 11
19.22999999999999
 21
54.25
 31
0.0
  0
LINE
  5
87A
100
AcDbEntity
  8
0
  6
CONTINUOUS
 62
               7
100
AcDbLine
 10
17.22999999999999
 20
50.5
 30
0.0
 11
17.22999999999999
 21
53.75
 31
0.0
  0
LINE
  5
87B
100
AcDbEntity
  8
0
  6
CONTINUOUS
 62
               7
100
AcDbLine
 10
16.030000000000001
 20
50.5
 30
0.0
 11
16.030000000000001
 21
53.899999999999977
 31
0.0
  0
ARC
  5
87C
100
AcDbEntity
  8
0
  6
CONTINUOUS
 62
               7
100
AcDbCircle
 10
31.650899999999979
 20
50.5
 30
0.0
 40
7.2209000000000163
100
AcDbArc
 50
159.74389999999957
 51
200.25609999999941
  0
ARC
  5
87D
100
AcDbEntity
  8
0
  6
CONTINUOUS
 62
               7
100
AcDbCircle
 10
31.650899999999979
 20
45.5
 30
0.0
 40
7.2209000000000163
100
AcDbArc
 50
159.74389999999957
 51
200.25609999999941
  0
LINE
  5
87E
100
AcDbEntity
  8
0
  6
CONTINUOUS
 62
               7
100
AcDbLine
 10
40.429999999999978
 20
53.01400000000001
 30
0.0
 11
41.0
 21
52.996188000000018
 31
0.0
  0
LINE
  5
87F
100
AcDbEntity
  8
0
  6
CONTINUOUS
 62
               7
100
AcDbLine
 10
40.429999999999978
 20
43.567000000000007
 30
0.0
 11
41.0
 21
43.584812999999997
 31
0.0
  0
LINE
  5
880
100
AcDbEntity
  8
0
  6
CONTINUOUS
 62
               7
100
AcDbLine
 10
40.429999999999978
 20
52.432999999999993
 30
0.0
 11
41.0
 21
52.415188000000001
 31
0.0
  0
LINE
  5
881
100
AcDbEntity
  8
0
  6
CONTINUOUS
 62
               7
100
AcDbLine
 10
40.429999999999978
 20
42.98599999999999
 30
0.0
 11
41.0
 21
43.00381299999998
 31
0.0
  0
LINE
  5
882
100
AcDbEntity
  8
0
  6
CONTINUOUS
 62
               7
100
AcDbLine
 10
11.829999999999984
 20
44.5
 30
0.0
 11
11.829999999999984
 21
51.5
 31
0.0
  0
LINE
  5
883
100
AcDbEntity
  8
0
  6
CONTINUOUS
 62
               7
100
AcDbLine
 10
15.829999999999984
 20
44.5
 30
0.0
 11
15.829999999999984
 21
51.5
 31
0.0
  0
LINE
  5
884
100
AcDbEntity
  8
0
  6
CONTINUOUS
 62
               7
100
AcDbLine
 10
12.329999999999984
 20
44.0
 30
0.0
 11
15.329999999999984
 21
44.0
 31
0.0
  0
LINE
  5
885
100
AcDbEntity
  8
0
  6
CONTINUOUS
 62
               7
100
AcDbLine
 10
12.329999999999984
 20
52.0
 30
0.0
 11
15.329999999999984
 21
52.0
 31
0.0
  0
LINE
  5
886
100
AcDbEntity
  8
0
  6
CONTINUOUS
 62
               7
100
AcDbLine
 10
12.329999999999984
 20
52.0
 30
0.0
 11
11.829999999999984
 21
51.5
 31
0.0
  0
LINE
  5
887
100
AcDbEntity
  8
0
  6
CONTINUOUS
 62
               7
100
AcDbLine
 10
11.829999999999984
 20
44.5
 30
0.0
 11
12.329999999999984
 21
44.0
 31
0.0
  0
LINE
  5
888
100
AcDbEntity
  8
0
  6
CONTINUOUS
 62
               7
100
AcDbLine
 10
15.330099999999987
 20
44.0
 30
0.0
 11
15.830099999999987
 21
44.5
 31
0.0
  0
LINE
  5
889
100
AcDbEntity
  8
0
  6
CONTINUOUS
 62
               7
100
AcDbLine
 10
15.829999999999984
 20
51.5
 30
0.0
 11
15.330099999999987
 21
52.0
 31
0.0
  0
LINE
  5
88A
100
AcDbEntity
  8
0
  6
CONTINUOUS
 62
               7
100
AcDbLine
 10
12.329999999999984
 20
44.0
 30
0.0
 11
12.329999999999984
 21
52.0
 31
0.0
  0
LINE
  5
88B
100
AcDbEntity
  8
0
  6
CONTINUOUS
 62
               7
100
AcDbLine
 10
15.329999999999984
 20
44.0
 30
0.0
 11
15.329999999999984
 21
52.0
 31
0.0
  0
LINE
  5
88C
100
AcDbEntity
  8
0
  6
CONTINUOUS
 62
               7
100
AcDbLine
 10
15.829999999999984
 20
45.5
 30
0.0
 11
19.829999999999984
 21
45.5
 31
0.0
  0
LINE
  5
88D
100
AcDbEntity
  8
0
  6
CONTINUOUS
 62
               7
100
AcDbLine
 10
15.829999999999984
 20
50.5
 30
0.0
 11
19.829999999999984
 21
50.5
 31
0.0
  0
LINE
  5
88E
100
AcDbEntity
  8
0
  6
CONTINUOUS
 62
               7
100
AcDbLine
 10
15.829999999999984
 20
50.067000000000007
 30
0.0
 11
19.829999999999984
 21
50.067000000000007
 31
0.0
  0
LINE
  5
88F
100
AcDbEntity
  8
0
  6
CONTINUOUS
 62
               7
100
AcDbLine
 10
15.829999999999984
 20
45.932999999999993
 30
0.0
 11
19.829999999999984
 21
45.932999999999993
 31
0.0
  0
LINE
  5
890
100
AcDbEntity
  8
0
  6
CONTINUOUS
 62
               7
100
AcDbLine
 10
14.22999999999999
 20
52.0
 30
0.0
 11
14.22999999999999
 21
53.899999999999977
 31
0.0
  0
LINE
  5
891
100
AcDbEntity
  8
0
  6
CONTINUOUS
 62
               7
100
AcDbLine
 10
14.22999999999999
 20
42.100000000000023
 30
0.0
 11
14.22999999999999
 21
44.0
 31
0.0
  0
LINE
  5
892
100
AcDbEntity
  8
0
  6
CONTINUOUS
 62
               7
100
AcDbLine
 10
79.0
 20
39.5
 30
0.0
 11
82.0
 21
39.0
 31
0.0
  0
LINE
  5
893
100
AcDbEntity
  8
0
  6
CONTINUOUS
 62
               7
100
AcDbLine
 10
82.0
 20
39.0
 30
0.0
 11
79.0
 21
38.5
 31
0.0
  0
LINE
  5
894
100
AcDbEntity
  8
0
  6
CONTINUOUS
 62
               7
100
AcDbLine
 10
40.429999999999978
 20
46.0
 30
0.0
 11
74.0
 21
46.0
 31
0.0
  0
LINE
  5
895
100
AcDbEntity
  8
0
  6
CONTINUOUS
 62
               7
100
AcDbLine
 10
74.0
 20
53.0
 30
0.0
 11
74.199999999999989
 21
53.0
 31
0.0
  0
LINE
  5
896
100
AcDbEntity
  8
0
  6
CONTINUOUS
 62
               7
100
AcDbLine
 10
74.199999999999989
 20
53.0
 30
0.0
 11
74.199999999999989
 21
25.0
 31
0.0
  0
LINE
  5
897
100
AcDbEntity
  8
0
  6
CONTINUOUS
 62
               7
100
AcDbLine
 10
74.199999999999989
 20
25.0
 30
0.0
 11
74.0
 21
25.0
 31
0.0
  0
LINE
  5
898
100
AcDbEntity
  8
0
  6
CONTINUOUS
 62
               7
100
AcDbLine
 10
74.199999999999989
 20
39.5
 30
0.0
 11
79.0
 21
39.5
 31
0.0
  0
LINE
  5
899
100
AcDbEntity
  8
0
  6
CONTINUOUS
 62
               7
100
AcDbLine
 10
79.0
 20
38.5
 30
0.0
 11
74.199999999999989
 21
38.5
 31
0.0
  0
LINE
  5
89A
100
AcDbEntity
  8
0
  6
CENTER
 62
               2
100
AcDbLine
 10
34.22999999999999
 20
38.996199999999988
 30
0.0
 11
34.22999999999999
 21
57.173800000000028
 31
0.0
  0
LINE
  5
89B
100
AcDbEntity
  8
0
  6
CENTER
 62
               2
100
AcDbLine
 10
9.5761092257334326
 20
48.0
 30
0.0
 11
43.203756445896943
 21
48.0
 31
0.0
  0
LINE
  5
89C
100
AcDbEntity
  8
0
  6
CENTER
 62
               2
100
AcDbLine
 10
80.0
 20
-2.4327287067231396
 30
0.0
 11
80.0
 21
3.4143642384971145
 31
0.0
  0
LINE
  5
89D
100
AcDbEntity
  8
0
  6
CENTER
 62
               2
100
AcDbLine
 10
0.0
 20
-3.017438001245182
 30
0.0
 11
0.0
 21
3.8041704348451617
 31
0.0
  0
ENDBLK
  5
89E
100
AcDbEntity
  8
0
100
AcDbBlockEnd
  0
ENDSEC
  0
SECTION
  2
ENTITIES
  0
INSERT
  5
89F
100
AcDbEntity
  8
0
  6
ByBlock
100
AcDbBlockReference
  2
DTRY-ELB-1
 10
-233.07243730782062
 20
76.632228749680223
 30
0.0
  0
INSERT
  5
8A0
100
AcDbEntity
  8
0
  6
ByBlock
100
AcDbBlockReference
  2
DTRY-ELB-8
 10
-314.48983408391979
 20
76.632228749680223
 30
0.0
  0
INSERT
  5
8A1
100
AcDbEntity
  8
0
  6
ByBlock
100
AcDbBlockReference
  2
DTRY-ELB-9
 10
-74.393769267292896
 20
76.632228749680223
 30
0.0
  0
INSERT
  5
8A2
100
AcDbEntity
  8
0
  6
ByBlock
100
AcDbBlockReference
  2
DTRY-ELB-10
 10
-233.07243730782062
 20
194.00501823673065
 30
0.0
  0
INSERT
  5
8A3
100
AcDbEntity
  8
0
  6
ByBlock
100
AcDbBlockReference
  2
DTRY-ELB-11
 10
-178.26318109446106
 20
-251.15489013462212
 30
0.0
  0
INSERT
  5
8A4
100
AcDbEntity
  8
0
  6
ByBlock
100
AcDbBlockReference
  2
DTRY-ELB-12
 10
-343.69332281028846
 20
-251.15489013462212
 30
0.0
  0
INSERT
  5
8A5
100
AcDbEntity
  8
0
  6
ByBlock
100
AcDbBlockReference
  2
DTRY-ELB-13
 10
55.87804919316045
 20
-251.15489013462212
 30
0.0
  0
INSERT
  5
8A6
100
AcDbEntity
  8
0
  6
ByBlock
100
AcDbBlockReference
  2
DTRY-ELB-14
 10
-178.26318109446106
 20
-16.287118884302345
 30
0.0
  0
INSERT
  5
8A7
100
AcDbEntity
  8
0
  6
ByBlock
100
AcDbBlockReference
  2
DTRY-ELB-15
 10
157.66074031984499
 20
56.632228749680223
 30
0.0
  0
INSERT
  5
8A8
100
AcDbEntity
  8
0
  6
ByBlock
100
AcDbBlockReference
  2
DTRY-ELB-2
 10
51.243343543745823
 20
56.632228749680223
 30
0.0
  0
INSERT
  5
8A9
100
AcDbEntity
  8
0
  6
ByBlock
100
AcDbBlockReference
  2
DTRY-ELB-3
 10
346.33940836037266
 20
56.632228749680223
 30
0.0
  0
INSERT
  5
8AA
100
AcDbEntity
  8
0
  6
ByBlock
100
AcDbBlockReference
  2
DTRY-ELB-4
 10
157.66074031984499
 20
201.0910465798961
 30
0.0
  0
INSERT
  5
8AB
100
AcDbEntity
  8
0
  6
ByBlock
100
AcDbBlockReference
  2
DTRY-ELB-5
 10
329.31910970906438
 20
-159.93676612552954
 30
0.0
  0
INSERT
  5
8AC
100
AcDbEntity
  8
0
  6
ByBlock
100
AcDbBlockReference
  2
DTRY-ELB-6
 10
198.05932592528063
 20
-159.93676612552954
 30
0.0
  0
INSERT
  5
8AD
100
AcDbEntity
  8
0
  6
ByBlock
100
AcDbBlockReference
  2
DTRY-ELB-7
 10
198.05932592528063
 20
-69.820333693097098
 30
0.0
  0
LINE
  5
8AE
100
AcDbEntity
  8
0
  6
CONTINUOUS
 62
               7
100
AcDbLine
 10
399.52490234375
 20
276.5
 30
0.0
 11
399.52490234375
 21
-276.5
 31
0.0
  0
LINE
  5
8AF
100
AcDbEntity
  8
0
  6
CONTINUOUS
 62
               7
100
AcDbLine
 10
-399.52490234375
 20
276.5
 30
0.0
 11
-399.52490234375
 21
-276.5
 31
0.0
  0
LINE
  5
8B0
100
AcDbEntity
  8
0
  6
CONTINUOUS
 62
               7
100
AcDbLine
 10
-399.52490234375
 20
276.5
 30
0.0
 11
399.52490234375
 21
276.5
 31
0.0
  0
LINE
  5
8B1
100
AcDbEntity
  8
0
  6
CONTINUOUS
 62
               7
100
AcDbLine
 10
-399.52490234375
 20
-276.5
 30
0.0
 11
399.52490234375
 21
-276.5
 31
0.0
  0
MTEXT
  5
8B2
100
AcDbEntity
  8
0
  6
CONTINUOUS
 62
               7
100
AcDbMText
 10
-360.52489296595257
 20
271.5
 30
0.0
 40
6.3000001907348633
 41
0.0
 71
               4
 72
               1
  1
\A1;CRECEED
  0
LINE
  5
8B3
100
AcDbEntity
  8
0
  6
CONTINUOUS
 62
               7
100
AcDbLine
 10
-279.52490234375
 20
276.5
 30
0.0
 11
-279.52490234375
 21
256.5
 31
0.0
  0
LINE
  5
8B4
100
AcDbEntity
  8
0
  6
CONTINUOUS
 62
               7
100
AcDbLine
 10
-399.52490234375
 20
256.5
 30
0.0
 11
-279.52490234375
 21
256.5
 31
0.0
  0
MTEXT
  5
8B5
100
AcDbEntity
  8
0
  6
CONTINUOUS
 62
               7
100
AcDbMText
 10
-386.54231707875607
 20
241.5
 30
0.0
 40
6.3000001907348633
 41
0.0
 71
               4
 72
               1
  1
\W1.079;\A1;MODEL:DTRY-ELB01
  0
LINE
  5
8B6
100
AcDbEntity
  8
0
  6
CONTINUOUS
 62
               7
100
AcDbLine
 10
279.5250244140625
 20
276.5
 30
0.0
 11
279.5250244140625
 21
256.5
 31
0.0
  0
LINE
  5
8B7
100
AcDbEntity
  8
0
  6
CONTINUOUS
 62
               7
100
AcDbLine
 10
279.5250244140625
 20
256.5
 30
0.0
 11
399.52490234375
 21
256.5
 31
0.0
  0
MTEXT
  5
8B8
100
AcDbEntity
  8
0
  6
CONTINUOUS
 62
               7
100
AcDbMText
 10
315.74076503418939
 20
266.5
 30
0.0
 40
6.3000001907348633
 41
0.0
 71
               4
 72
               1
  1
\W1.348;\A1;Ver. 1.1
  0
MTEXT
  5
8B9
100
AcDbEntity
  8
0
  6
CONTINUOUS
 62
               7
100
AcDbMText
 10
287.70604688092931
 20
-266.5
 30
0.0
 40
9.0
 41
0.0
 71
               4
 72
               1
  1
\W1.121;\A1;KOGANEI CORP.
  0
LINE
  5
8BA
100
AcDbEntity
  8
0
  6
CONTINUOUS
 62
               7
100
AcDbLine
 10
279.5250244140625
 20
-256.5
 30
0.0
 11
279.5250244140625
 21
-276.5
 31
0.0
  0
LINE
  5
8BB
100
AcDbEntity
  8
0
  6
CONTINUOUS
 62
               7
100
AcDbLine
 10
279.5250244140625
 20
-256.5
 30
0.0
 11
399.52490234375
 21
-256.5
 31
0.0
  0
LINE
  5
8BC
100
AcDbEntity
  8
0
  6
CONTINUOUS
 62
               7
100
AcDbLine
 10
0.0
 20
0.0
 30
0.0
 11
399.52490234375
 21
0.0
 31
0.0
  0
LINE
  5
8BD
100
AcDbEntity
  8
0
  6
CONTINUOUS
 62
               7
100
AcDbLine
 10
0.0
 20
276.5
 30
0.0
 11
0.0
 21
0.0
 31
0.0
  0
MTEXT
  5
8BE
100
AcDbEntity
  8
0
  6
CONTINUOUS
 62
               7
100
AcDbMText
 10
12.957693302975972
 20
241.5
 30
0.0
 40
6.3000001907348633
 41
0.0
 71
               4
 72
               1
  1
\W1.055;\A1;MODEL:DTRY-ELB02
  0
LINE
  5
8BF
100
AcDbEntity
  8
0
  6
DASHED
 62
               2
100
AcDbLine
 10
-399.52490234375
 20
39.5
 30
0.0
 11
0.0
 21
39.5
 31
0.0
  0
MTEXT
  5
8C0
100
AcDbEntity
  8
0
  6
CONTINUOUS
 62
               7
100
AcDbMText
 10
-386.52944674237068
 20
24.5
 30
0.0
 40
6.3000001907348633
 41
0.0
 71
               4
 72
               1
  1
\W1.091;\A1;MODEL:DTRY-ELC11
  0
MTEXT
  5
8C1
100
AcDbEntity
  8
0
  6
CONTINUOUS
 62
               7
100
AcDbMText
 10
-360.41436696884574
 20
261.5
 30
0.0
 40
6.3000001907348633
 41
0.0
 71
               4
 72
               1
  1
\W1.105;\A1;IONIZER
  0
LINE
  5
8C2
100
AcDbEntity
  8
0
  6
CONTINUOUS
 62
               7
100
AcDbLine
 10
133.17496744791663
 20
-276.5
 30
0.0
 11
133.17496744791663
 21
0.0
 31
0.0
  0
MTEXT
  5
8C3
100
AcDbEntity
  8
0
  6
CONTINUOUS
 62
               7
100
AcDbMText
 10
146.14496846009817
 20
-15.0
 30
0.0
 40
6.3000001907348633
 41
0.0
 71
               4
 72
               1
  1
\W1.067;\A1;MODEL:DTRY-NZR31
  0
ENDSEC
  0
SECTION
  2
OBJECTS
  0
DICTIONARY
  5
19
100
AcDbDictionary
  3
ACAD_GROUP
350
1A
  3
ACAD_MLINESTYLE
350
1B
  0
DICTIONARY
  5
1A
102
{ACAD_REACTORS
330
19
102
}
100
AcDbDictionary
  0
DICTIONARY
  5
1B
102
{ACAD_REACTORS
330
19
102
}
100
AcDbDictionary
  3
STANDARD
350
1C
  0
MLINESTYLE
  5
1C
102
{ACAD_REACTORS
330
1B
102
}
100
AcDbMlineStyle
  2
Standard
 70
               0
  3

 62
               0
 51
90.0
 52
90.0
 71
               2
 49
0.5
 62
             256
  6
ByLayer
 49
-0.5
 62
             256
  6
ByLayer
  0
ENDSEC
  0
EOF
