  0
SECTION
  2
HEADER
  9
$ACADVER
  1
AC1012
  9
$DWGCODEPAGE
  3
dos932
  9
$INSBASE
 10
0.0
 20
0.0
 30
0.0
  9
$EXTMIN
 10
-281.25
 20
-195.0
 30
0.0
  9
$EXTMAX
 10
285.59998798370361
 20
195.5
 30
0.0
  9
$LIMMIN
 10
-281.25
 20
-195.0
  9
$LIMMAX
 10
285.59998798370361
 20
195.5
  9
$ORTHOMODE
 70
               0
  9
$REGENMODE
 70
               1
  9
$FILLMODE
 70
               1
  9
$QTEXTMODE
 70
               0
  9
$MIRRTEXT
 70
               1
  9
$DRAGMODE
 70
               2
  9
$LTSCALE
 40
1.0
  9
$OSMODE
 70
               0
  9
$ATTMODE
 70
               1
  9
$TEXTSIZE
 40
3.2000000476837158
  9
$TRACEWID
 40
0.05
  9
$TEXTSTYLE
  7
MX_NOTE_STANDARD
  9
$CLAYER
  8
0
  9
$CELTYPE
  6
CONTINUOUS
  9
$CECOLOR
 62
             256
  9
$CELTSCALE
 40
1.0
  9
$DELOBJ
 70
               1
  9
$DISPSILH
 70
               0
  9
$DIMSCALE
 40
1.0
  9
$DIMASZ
 40
2.5
  9
$DIMEXO
 40
1.5
  9
$DIMDLI
 40
3.75
  9
$DIMRND
 40
0.0
  9
$DIMDLE
 40
0.0
  9
$DIMEXE
 40
1.5
  9
$DIMTP
 40
0.0
  9
$DIMTM
 40
0.0
  9
$DIMTXT
 40
3.2000000476837158
  9
$DIMCEN
 40
2.5
  9
$DIMTSZ
 40
0.0
  9
$DIMTOL
 70
               0
  9
$DIMLIM
 70
               0
  9
$DIMTIH
 70
               0
  9
$DIMTOH
 70
               0
  9
$DIMSE1
 70
               0
  9
$DIMSE2
 70
               0
  9
$DIMTAD
 70
               1
  9
$DIMZIN
 70
               8
  9
$DIMBLK
  1

  9
$DIMASO
 70
               1
  9
$DIMSHO
 70
               1
  9
$DIMPOST
  1

  9
$DIMAPOST
  1

  9
$DIMALT
 70
               0
  9
$DIMALTD
 70
               4
  9
$DIMALTF
 40
0.03937007874016
  9
$DIMLFAC
 40
1.0
  9
$DIMTOFL
 70
               1
  9
$DIMTVP
 40
0.0
  9
$DIMTIX
 70
               0
  9
$DIMSOXD
 70
               0
  9
$DIMSAH
 70
               0
  9
$DIMBLK1
  1

  9
$DIMBLK2
  1

  9
$DIMSTYLE
  2
MXDIMSTYLE
  9
$DIMCLRD
 70
               0
  9
$DIMCLRE
 70
               0
  9
$DIMCLRT
 70
               0
  9
$DIMTFAC
 40
1.0
  9
$DIMGAP
 40
1.0
  9
$DIMJUST
 70
               0
  9
$DIMSD1
 70
               0
  9
$DIMSD2
 70
               0
  9
$DIMTOLJ
 70
               1
  9
$DIMTZIN
 70
               0
  9
$DIMALTZ
 70
               0
  9
$DIMALTTZ
 70
               0
  9
$DIMFIT
 70
               3
  9
$DIMUPT
 70
               1
  9
$DIMUNIT
 70
               2
  9
$DIMDEC
 70
               4
  9
$DIMTDEC
 70
               4
  9
$DIMALTU
 70
               2
  9
$DIMALTTD
 70
               4
  9
$DIMTXSTY
  7
MX_NOTE_STANDARD
  9
$DIMAUNIT
 70
               0
  9
$LUNITS
 70
               2
  9
$LUPREC
 70
               4
  9
$SKETCHINC
 40
0.1
  9
$FILLETRAD
 40
0.0
  9
$AUNITS
 70
               0
  9
$AUPREC
 70
               0
  9
$MENU
  1
acad
  9
$ELEVATION
 40
0.0
  9
$PELEVATION
 40
0.0
  9
$THICKNESS
 40
0.0
  9
$LIMCHECK
 70
               0
  9
$BLIPMODE
 70
               1
  9
$CHAMFERA
 40
0.0
  9
$CHAMFERB
 40
0.0
  9
$CHAMFERC
 40
0.0
  9
$CHAMFERD
 40
0.0
  9
$SKPOLY
 70
               0
  9
$TDCREATE
 40
2453517.689710648
  9
$TDUPDATE
 40
2453517.689710648
  9
$TDINDWG
 40
0.0000000000
  9
$TDUSRTIMER
 40
0.0000000000
  9
$USRTIMER
 70
               1
  9
$ANGBASE
 50
0.0
  9
$ANGDIR
 70
               0
  9
$PDMODE
 70
               0
  9
$PDSIZE
 40
0.0
  9
$PLINEWID
 40
0.0
  9
$COORDS
 70
               1
  9
$SPLFRAME
 70
               0
  9
$SPLINETYPE
 70
               6
  9
$SPLINESEGS
 70
               8
  9
$ATTDIA
 70
               0
  9
$ATTREQ
 70
               1
  9
$HANDLING
 70
               1
  9
$HANDSEED
  5
461
  9
$SURFTAB1
 70
               6
  9
$SURFTAB2
 70
               6
  9
$SURFTYPE
 70
               6
  9
$SURFU
 70
               6
  9
$SURFV
 70
               6
  9
$UCSNAME
  2

  9
$UCSORG
 10
0.0
 20
0.0
 30
0.0
  9
$UCSXDIR
 10
1.0
 20
0.0
 30
0.0
  9
$UCSYDIR
 10
0.0
 20
1.0
 30
0.0
  9
$PUCSNAME
  2

  9
$PUCSORG
 10
0.0
 20
0.0
 30
0.0
  9
$PUCSXDIR
 10
1.0
 20
0.0
 30
0.0
  9
$PUCSYDIR
 10
0.0
 20
1.0
 30
0.0
  9
$USERI1
 70
               0
  9
$USERI2
 70
               0
  9
$USERI3
 70
               0
  9
$USERI4
 70
               0
  9
$USERI5
 70
               0
  9
$USERR1
 40
0.0
  9
$USERR2
 40
0.0
  9
$USERR3
 40
0.0
  9
$USERR4
 40
0.0
  9
$USERR5
 40
0.0
  9
$WORLDVIEW
 70
               1
  9
$SHADEDGE
 70
               3
  9
$SHADEDIF
 70
              70
  9
$TILEMODE
 70
               1
  9
$MAXACTVP
 70
              16
  9
$PINSBASE
 10
0.0
 20
0.0
 30
0.0
  9
$PLIMCHECK
 70
               0
  9
$PEXTMIN
 10
1.0000000000000000E+20
 20
1.0000000000000000E+20
 30
1.0000000000000000E+20
  9
$PEXTMAX
 10
-1.0000000000000000E+20
 20
-1.0000000000000000E+20
 30
-1.0000000000000000E+20
  9
$PLIMMIN
 10
0.0
 20
0.0
  9
$PLIMMAX
 10
12.0
 20
9.0
  9
$UNITMODE
 70
               0
  9
$VISRETAIN
 70
               0
  9
$PLINEGEN
 70
               1
  9
$PSLTSCALE
 70
               0
  9
$TREEDEPTH
 70
            3020
  9
$PICKSTYLE
 70
               1
  9
$CMLSTYLE
  2
Standard
  9
$CMLJUST
 70
               0
  9
$CMLSCALE
 40
1.0
  9
$SAVEIMAGES
 70
               0
  0
ENDSEC
  0
SECTION
  2
CLASSES
  0
CLASS
  1
LWPOLYLINE
  2
AcDbPolyline
  3
"AutoCAD"
 90
        0
280
               0
281
               1
  0
CLASS
  1
IMAGE
  2
AcDbRasterImage
  3
ISM
 90
      127
280
               0
281
               1
  0
CLASS
  1
OLE2FRAME
  2
AcDbOle2Frame
  3
""
 90
        0
280
               0
281
               1
  0
CLASS
  1
HATCH
  2
AcDbHatch
  3
"ACAD_SEDONA"
 90
        0
280
               0
281
               1
  0
CLASS
  1
DICTIONARYVAR
  2
AcDbDictionaryVar
  3
"AutoCAD"
 90
        0
280
               0
281
               0
  0
CLASS
  1
RASTERVARIABLES
  2
AcDbRasterVariables
  3
ISM
 90
        0
280
               0
281
               0
  0
CLASS
  1
IMAGEDEF
  2
AcDbRasterImageDef
  3
ISM
 90
        0
280
               0
281
               0
  0
CLASS
  1
IMAGEDEF_REACTOR
  2
AcDbRasterImageDefReactor
  3
ISM
 90
        1
280
               0
281
               0
  0
CLASS
  1
IDBUFFER
  2
AcDbIdBuffer
  3
"Acad"
 90
        0
280
               0
281
               0
  0
CLASS
  1
SPATIAL_FILTER
  2
AcDbSpatialFilter
  3
"Acad"
 90
        0
280
               0
281
               0
  0
CLASS
  1
XRECORD
  2
AcDbXrecord
  3
"<Built In>"
 90
        0
280
               0
281
               0
  0
CLASS
  1
SORTENTSTABLE
  2
AcDbSortentsTable
  3
"AutoCAD"
 90
        0
280
               0
281
               0
  0
CLASS
  1
LAYER_INDEX
  2
AcDbLayerIndex
  3
"Acad"
 90
        0
280
               0
281
               0
  0
CLASS
  1
SPATIAL_INDEX
  2
AcDbSpatialIndex
  3
"Acad"
 90
        0
280
               0
281
               0
  0
CLASS
  1
OBJECT_PTR
  2
CAseDLPNTableRecord
  3
"ASE-LPNTableRecord"
 90
        1
280
               0
281
               0
  0
CLASS
  1
LAYOUT
  2
AcDbLayout
  3
"AutoCAD 2000"
 90
        1
280
               0
281
               0
  0
CLASS
  1
PLOTSETTINGS
  2
AcDbPlotSettings
  3
"AutoCAD 2000"
 90
        1
280
               0
281
               0
  0
CLASS
  1
ACDBDICTIONARYWDFLT
  2
AcDbDictionaryWithDefault
  3
"AutoCAD 2000"
 90
        1
280
               0
281
               0
  0
CLASS
  1
ACDBPLACEHOLDER
  2
AcDbPlaceHolder
  3
"AutoCAD 2000"
 90
        1
280
               0
281
               0
  0
ENDSEC
  0
SECTION
  2
TABLES
  0
TABLE
  2
VPORT
  5
7
100
AcDbSymbolTable
 70
               1
  0
VPORT
  5
15
100
AcDbSymbolTableRecord
100
AcDbViewportTableRecord
  2
*ACTIVE
 70
               0
 10
0.0
 20
0.0
 11
1.0
 21
1.0
 12
2.1749939918518066
 22
0.25
 13
0.0
 23
0.0
 14
1.0
 24
1.0
 15
0.0
 25
0.0
 16
0.0
 26
0.0
 36
1.0
 17
0.0
 27
0.0
 37
0.0
 40
394.40500000000003
 41
1.7320508075688772
 42
50.0
 43
0.0
 44
0.0
 50
0.0
 51
0.0
 71
               0
 72
             100
 73
               1
 74
               1
 75
               0
 76
               0
 77
               0
 78
               0
  0
ENDTAB
  0
TABLE
  2
LTYPE
  5
4
100
AcDbSymbolTable
 70
               5
  0
LTYPE
  5
11
100
AcDbSymbolTableRecord
100
AcDbLinetypeTableRecord
  2
BYBLOCK
 70
              64
  3

 72
              65
 73
               0
 40
0.0
  0
LTYPE
  5
12
100
AcDbSymbolTableRecord
100
AcDbLinetypeTableRecord
  2
BYLAYER
 70
              64
  3

 72
              65
 73
               0
 40
0.0
  0
LTYPE
  5
13
100
AcDbSymbolTableRecord
100
AcDbLinetypeTableRecord
  2
CONTINUOUS
 70
              64
  3
Solid line
 72
              65
 73
               0
 40
0.0
  0
LTYPE
  5
161
100
AcDbSymbolTableRecord
100
AcDbLinetypeTableRecord
  2
HIDDEN
 70
              64
  3
Hidden __ __ __ __ __ __ __ __ __ __ __ __ __ __
 72
              65
 73
               2
 40
9.5249999999999986
 49
6.3499999999999996
 74
               0
 49
-3.1749999999999998
 74
               0
  0
LTYPE
  5
16A
100
AcDbSymbolTableRecord
100
AcDbLinetypeTableRecord
  2
PHANTOM
 70
              64
  3
Phantom ______  __  __  ______  __  __  ______
 72
              65
 73
               6
 40
30.0
 49
20.0
 74
               0
 49
-2.0
 74
               0
 49
2.0
 74
               0
 49
-2.0
 74
               0
 49
2.0
 74
               0
 49
-2.0
 74
               0
  0
ENDTAB
  0
TABLE
  2
LAYER
  5
2
100
AcDbSymbolTable
 70
               2
  0
LAYER
  5
14
100
AcDbSymbolTableRecord
100
AcDbLayerTableRecord
  2
0
 70
               0
 62
               7
  6
CONTINUOUS
  0
LAYER
  5
1D
100
AcDbSymbolTableRecord
100
AcDbLayerTableRecord
  2
DEFPOINTS
 70
               0
 62
               7
  6
CONTINUOUS
  0
ENDTAB
  0
TABLE
  2
STYLE
  5
3
100
AcDbSymbolTable
 70
               1
  0
STYLE
  5
17
100
AcDbSymbolTableRecord
100
AcDbTextStyleTableRecord
  2
MX_NOTE_STANDARD
 70
               0
 40
0.0
 41
1.0
 50
0.0
 71
               0
 42
3.2000000476837158
  3
txt.shx
  4
extfont.shx
  0
ENDTAB
  0
TABLE
  2
VIEW
  5
5
100
AcDbSymbolTable
 70
               0
  0
ENDTAB
  0
TABLE
  2
UCS
  5
6
100
AcDbSymbolTable
 70
               0
  0
ENDTAB
  0
TABLE
  2
APPID
  5
8
100
AcDbSymbolTable
 70
               1
  0
APPID
  5
16
100
AcDbSymbolTableRecord
100
AcDbRegAppTableRecord
  2
ACAD
 70
               0
  0
ENDTAB
  0
TABLE
  2
DIMSTYLE
  5
9
100
AcDbSymbolTable
 70
               1
  0
DIMSTYLE
105
18
100
AcDbSymbolTableRecord
100
AcDbDimStyleTableRecord
  2
MXDIMSTYLE
 70
               0
  3

  4

  5

  6

  7

 40
1.0
 41
2.5
 42
1.5
 43
3.75
 44
1.5
 45
0.0
 46
0.0
 47
0.0
 48
0.0
 71
               0
 72
               0
 73
               0
 74
               0
 75
               0
 76
               0
 77
               1
 78
               8
140
3.2000000476837158
141
2.5
142
0.0
143
0.03937007874016
144
1.0
145
0.0
146
1.0
147
1.0
170
               0
171
               4
172
               1
173
               0
174
               0
175
               0
176
               0
177
               0
178
               0
270
               2
271
               4
272
               4
273
               2
274
               4
275
               0
280
               0
281
               0
282
               0
283
               1
284
               0
285
               0
286
               0
287
               3
288
               1
340
17
  0
ENDTAB
  0
TABLE
  2
BLOCK_RECORD
  5
1
100
AcDbSymbolTable
 70
               4
  0
BLOCK_RECORD
  5
A
100
AcDbSymbolTableRecord
100
AcDbBlockTableRecord
  2
*MODEL_SPACE
  0
BLOCK_RECORD
  5
B
100
AcDbSymbolTableRecord
100
AcDbBlockTableRecord
  2
*PAPER_SPACE
  0
BLOCK_RECORD
  5
1E
100
AcDbSymbolTableRecord
100
AcDbBlockTableRecord
  2
DTRY-ELF03-1
  0
BLOCK_RECORD
  5
1F
100
AcDbSymbolTableRecord
100
AcDbBlockTableRecord
  2
DTRY-ELF03-2
  0
BLOCK_RECORD
  5
20
100
AcDbSymbolTableRecord
100
AcDbBlockTableRecord
  2
DTRY-ELF03-3
  0
BLOCK_RECORD
  5
21
100
AcDbSymbolTableRecord
100
AcDbBlockTableRecord
  2
DTRY-ELF03-4
  0
ENDTAB
  0
ENDSEC
  0
SECTION
  2
BLOCKS
  0
BLOCK
  5
D
100
AcDbEntity
  8
0
100
AcDbBlockBegin
  2
*MODEL_SPACE
 70
               0
 10
0.0
 20
0.0
 30
0.0
  3
*MODEL_SPACE
  1

  0
ENDBLK
  5
E
100
AcDbEntity
  8
0
100
AcDbBlockEnd
  0
BLOCK
  5
F
100
AcDbEntity
 67
               1
  8
0
100
AcDbBlockBegin
  2
*PAPER_SPACE
 70
               0
 10
0.0
 20
0.0
 30
0.0
  3
*PAPER_SPACE
  1

  0
ENDBLK
  5
10
100
AcDbEntity
 67
               1
  8
0
100
AcDbBlockEnd
  0
BLOCK
  5
22
100
AcDbEntity
  8
0
100
AcDbBlockBegin
  2
DTRY-ELF03-1
 70
               0
 10
0.0
 20
0.0
 30
0.0
  3
DTRY-ELF03-1
  1

  0
ARC
  5
23
100
AcDbEntity
  8
0
  6
CONTINUOUS
 62
               7
100
AcDbCircle
 10
-38.499995972472675
 20
51.500000000000014
 30
0.0
 40
3.0
100
AcDbArc
 50
180.0
 51
270.0
  0
ARC
  5
24
100
AcDbEntity
  8
0
  6
CONTINUOUS
 62
               7
100
AcDbCircle
 10
-38.499995972472675
 20
128.5
 30
0.0
 40
3.0
100
AcDbArc
 50
90.0
 51
180.0
  0
LINE
  5
25
100
AcDbEntity
  8
0
  6
CONTINUOUS
 62
               7
100
AcDbLine
 10
-41.499995972472448
 20
128.5
 30
0.0
 11
-41.499995972472448
 21
51.500000000000014
 31
0.0
  0
LINE
  5
26
100
AcDbEntity
  8
0
  6
CONTINUOUS
 62
               7
100
AcDbLine
 10
38.499995972472675
 20
48.500000000000242
 30
0.0
 11
-38.499995972472675
 21
48.500000000000242
 31
0.0
  0
LINE
  5
27
100
AcDbEntity
  8
0
  6
CONTINUOUS
 62
               7
100
AcDbLine
 10
38.499995972472675
 20
131.50000000000023
 30
0.0
 11
-38.499995972472675
 21
131.50000000000023
 31
0.0
  0
LINE
  5
28
100
AcDbEntity
  8
0
  6
CONTINUOUS
 62
               7
100
AcDbLine
 10
-42.999999999999716
 20
49.000000000000014
 30
0.0
 11
-43.000000000000171
 21
132.00000000000023
 31
0.0
  0
ARC
  5
29
100
AcDbEntity
  8
0
  6
CONTINUOUS
 62
               7
100
AcDbCircle
 10
-40.000000000000171
 20
132.00000000000023
 30
0.0
 40
3.0
100
AcDbArc
 50
90.0
 51
180.0
  0
ARC
  5
2A
100
AcDbEntity
  8
0
  6
CONTINUOUS
 62
               7
100
AcDbCircle
 10
-39.999999999999886
 20
49.000000000000014
 30
0.0
 40
3.0
100
AcDbArc
 50
180.0
 51
270.0
  0
ARC
  5
2B
100
AcDbEntity
  8
0
  6
CONTINUOUS
 62
               7
100
AcDbCircle
 10
38.499995972472675
 20
51.500000000000014
 30
0.0
 40
3.0
100
AcDbArc
 50
270.0
 51
0.0
  0
LINE
  5
2C
100
AcDbEntity
  8
0
  6
CONTINUOUS
 62
               7
100
AcDbLine
 10
41.499995972472675
 20
128.5
 30
0.0
 11
41.499995972472675
 21
51.500000000000014
 31
0.0
  0
LINE
  5
2D
100
AcDbEntity
  8
0
  6
CONTINUOUS
 62
               7
100
AcDbLine
 10
43.0
 20
132.00000000000023
 30
0.0
 11
43.0
 21
49.000000000000014
 31
0.0
  0
LINE
  5
2E
100
AcDbEntity
  8
0
  6
CONTINUOUS
 62
               7
100
AcDbLine
 10
40.000000000000085
 20
46.000000000000014
 30
0.0
 11
-39.999999999999886
 21
46.000000000000014
 31
0.0
  0
ARC
  5
2F
100
AcDbEntity
  8
0
  6
CONTINUOUS
 62
               7
100
AcDbCircle
 10
40.000000000000085
 20
132.00000000000023
 30
0.0
 40
3.0
100
AcDbArc
 50
0.0
 51
90.0
  0
ARC
  5
30
100
AcDbEntity
  8
0
  6
CONTINUOUS
 62
               7
100
AcDbCircle
 10
40.000000000000085
 20
49.000000000000014
 30
0.0
 40
3.0
100
AcDbArc
 50
270.0
 51
0.0
  0
ARC
  5
31
100
AcDbEntity
  8
0
  6
CONTINUOUS
 62
               7
100
AcDbCircle
 10
38.499995972472675
 20
128.5
 30
0.0
 40
3.0
100
AcDbArc
 50
0.0
 51
90.0
  0
ARC
  5
32
100
AcDbEntity
  8
0
  6
CONTINUOUS
 62
               7
100
AcDbCircle
 10
-37.499999999998863
 20
52.500000000000014
 30
0.0
 40
2.5
100
AcDbArc
 50
180.0
 51
270.0
  0
ARC
  5
33
100
AcDbEntity
  8
0
  6
CONTINUOUS
 62
               7
100
AcDbCircle
 10
-37.499999999998863
 20
127.50000000000024
 30
0.0
 40
2.5
100
AcDbArc
 50
90.0
 51
180.0
  0
ARC
  5
34
100
AcDbEntity
  8
0
  6
CONTINUOUS
 62
               7
100
AcDbCircle
 10
37.500000000000682
 20
52.500000000000014
 30
0.0
 40
2.5
100
AcDbArc
 50
270.0
 51
0.0
  0
ARC
  5
35
100
AcDbEntity
  8
0
  6
CONTINUOUS
 62
               7
100
AcDbCircle
 10
37.500000000000682
 20
127.50000000000001
 30
0.0
 40
2.5
100
AcDbArc
 50
0.0
 51
90.0
  0
LINE
  5
36
100
AcDbEntity
  8
0
  6
CONTINUOUS
 62
               7
100
AcDbLine
 10
-8.9999999999988063
 20
130.00000000000023
 30
0.0
 11
-6.3442887702238124
 21
130.00000000000023
 31
0.0
  0
LINE
  5
37
100
AcDbEntity
  8
0
  6
CONTINUOUS
 62
               7
100
AcDbLine
 10
-27.999999999998806
 20
130.00000000000023
 30
0.0
 11
-9.99999999999892
 21
130.00000000000023
 31
0.0
  0
LINE
  5
38
100
AcDbEntity
  8
0
  6
CONTINUOUS
 62
               7
100
AcDbLine
 10
-39.999999999998863
 20
123.75000000000024
 30
0.0
 11
-39.999999999998863
 21
127.50000000000024
 31
0.0
  0
LINE
  5
39
100
AcDbEntity
  8
0
  6
CONTINUOUS
 62
               7
100
AcDbLine
 10
-39.999999999999091
 20
114.25000000000024
 30
0.0
 11
-39.999999999998863
 21
122.75000000000024
 31
0.0
  0
LINE
  5
3A
100
AcDbEntity
  8
0
  6
CONTINUOUS
 62
               7
100
AcDbLine
 10
-39.999999999999091
 20
104.75000000000024
 30
0.0
 11
-39.999999999999091
 21
113.25000000000024
 31
0.0
  0
LINE
  5
3B
100
AcDbEntity
  8
0
  6
CONTINUOUS
 62
               7
100
AcDbLine
 10
-39.999999999999091
 20
96.344288770224821
 30
0.0
 11
-39.999999999999091
 21
103.75000000000024
 31
0.0
  0
LINE
  5
3C
100
AcDbEntity
  8
0
  6
CONTINUOUS
 62
               7
100
AcDbLine
 10
-39.999999999999091
 20
76.250000000000242
 30
0.0
 11
-39.999999999999091
 21
83.655711229776031
 31
0.0
  0
LINE
  5
3D
100
AcDbEntity
  8
0
  6
CONTINUOUS
 62
               7
100
AcDbLine
 10
-39.999999999999091
 20
66.750000000000242
 30
0.0
 11
-39.999999999999091
 21
75.250000000000242
 31
0.0
  0
LINE
  5
3E
100
AcDbEntity
  8
0
  6
CONTINUOUS
 62
               7
100
AcDbLine
 10
-39.999999999998863
 20
57.250000000000242
 30
0.0
 11
-39.999999999998863
 21
65.750000000000014
 31
0.0
  0
LINE
  5
3F
100
AcDbEntity
  8
0
  6
CONTINUOUS
 62
               7
100
AcDbLine
 10
-27.999999999998806
 20
50.000000000000014
 30
0.0
 11
-9.99999999999892
 21
50.000000000000242
 31
0.0
  0
LINE
  5
40
100
AcDbEntity
  8
0
  6
CONTINUOUS
 62
               7
100
AcDbLine
 10
-8.9999999999991189
 20
50.000000000000242
 30
0.0
 11
-6.3442887702238124
 21
50.000000000000242
 31
0.0
  0
LINE
  5
41
100
AcDbEntity
  8
0
  6
CONTINUOUS
 62
               7
100
AcDbLine
 10
6.3442887702255746
 20
50.000000000000242
 30
0.0
 11
9.00000000000108
 21
50.000000000000242
 31
0.0
  0
ARC
  5
42
100
AcDbEntity
  8
0
  6
CONTINUOUS
 62
               7
100
AcDbCircle
 10
0.00000000000108
 20
90.000000000000242
 30
0.0
 40
40.499999999999993
100
AcDbArc
 50
279.01245149924972
 51
282.83958840690121
  0
LINE
  5
43
100
AcDbEntity
  8
0
  6
CONTINUOUS
 62
               7
100
AcDbLine
 10
10.000000000001194
 20
50.000000000000014
 30
0.0
 11
28.000000000000881
 21
50.000000000000242
 31
0.0
  0
LINE
  5
44
100
AcDbEntity
  8
0
  6
CONTINUOUS
 62
               7
100
AcDbLine
 10
29.000000000000881
 20
50.000000000000242
 30
0.0
 11
37.500000000000682
 21
50.000000000000242
 31
0.0
  0
LINE
  5
45
100
AcDbEntity
  8
0
  6
CONTINUOUS
 62
               7
100
AcDbLine
 10
40.000000000000682
 20
57.250000000000242
 30
0.0
 11
40.000000000000682
 21
65.750000000000242
 31
0.0
  0
LINE
  5
46
100
AcDbEntity
  8
0
  6
CONTINUOUS
 62
               7
100
AcDbLine
 10
40.000000000000682
 20
66.750000000000242
 30
0.0
 11
40.000000000000682
 21
75.250000000000242
 31
0.0
  0
LINE
  5
47
100
AcDbEntity
  8
0
  6
CONTINUOUS
 62
               7
100
AcDbLine
 10
40.000000000000682
 20
76.250000000000242
 30
0.0
 11
40.000000000000682
 21
83.65571122977552
 31
0.0
  0
LINE
  5
48
100
AcDbEntity
  8
0
  6
CONTINUOUS
 62
               7
100
AcDbLine
 10
40.000000000000682
 20
96.344288770224821
 30
0.0
 11
40.000000000000682
 21
103.75000000000024
 31
0.0
  0
LINE
  5
49
100
AcDbEntity
  8
0
  6
CONTINUOUS
 62
               7
100
AcDbLine
 10
40.000000000000682
 20
104.75000000000024
 30
0.0
 11
40.000000000000682
 21
113.25000000000024
 31
0.0
  0
LINE
  5
4A
100
AcDbEntity
  8
0
  6
CONTINUOUS
 62
               7
100
AcDbLine
 10
40.000000000000682
 20
114.25000000000001
 30
0.0
 11
40.000000000000682
 21
122.75000000000024
 31
0.0
  0
LINE
  5
4B
100
AcDbEntity
  8
0
  6
CONTINUOUS
 62
               7
100
AcDbLine
 10
40.000000000000682
 20
123.75000000000024
 30
0.0
 11
40.000000000000682
 21
127.50000000000001
 31
0.0
  0
LINE
  5
4C
100
AcDbEntity
  8
0
  6
CONTINUOUS
 62
               7
100
AcDbLine
 10
29.000000000000881
 20
130.0
 30
0.0
 11
37.500000000000682
 21
130.0
 31
0.0
  0
LINE
  5
4D
100
AcDbEntity
  8
0
  6
CONTINUOUS
 62
               7
100
AcDbLine
 10
10.000000000001194
 20
130.00000000000023
 30
0.0
 11
28.000000000000881
 21
130.0
 31
0.0
  0
LINE
  5
4E
100
AcDbEntity
  8
0
  6
CONTINUOUS
 62
               7
100
AcDbLine
 10
6.3442887702255746
 20
130.00000000000023
 30
0.0
 11
9.00000000000108
 21
130.00000000000023
 31
0.0
  0
ARC
  5
4F
100
AcDbEntity
  8
0
  6
CONTINUOUS
 62
               7
100
AcDbCircle
 10
0.00000000000108
 20
90.000000000000242
 30
0.0
 40
40.499999999999993
100
AcDbArc
 50
99.01245149924975
 51
102.8395884069012
  0
LINE
  5
50
100
AcDbEntity
  8
0
  6
CONTINUOUS
 62
               7
100
AcDbLine
 10
-37.499999999998863
 20
50.000000000000014
 30
0.0
 11
-28.999999999998863
 21
50.000000000000014
 31
0.0
  0
LINE
  5
51
100
AcDbEntity
  8
0
  6
CONTINUOUS
 62
               7
100
AcDbLine
 10
40.000000000000682
 20
52.500000000000014
 30
0.0
 11
40.000000000000682
 21
56.250000000000014
 31
0.0
  0
LINE
  5
52
100
AcDbEntity
  8
0
  6
CONTINUOUS
 62
               7
100
AcDbLine
 10
-39.999999999998863
 20
52.500000000000014
 30
0.0
 11
-39.999999999998863
 21
56.250000000000014
 31
0.0
  0
LINE
  5
53
100
AcDbEntity
  8
0
  6
CONTINUOUS
 62
               7
100
AcDbLine
 10
-37.499999999998863
 20
130.00000000000023
 30
0.0
 11
-28.999999999998863
 21
130.00000000000023
 31
0.0
  0
ARC
  5
54
100
AcDbEntity
  8
0
  6
CONTINUOUS
 62
               7
100
AcDbCircle
 10
0.00000000000108
 20
90.000000000000242
 30
0.0
 40
40.499999999999993
100
AcDbArc
 50
126.03653985000649
 51
133.737704653809
  0
LINE
  5
55
100
AcDbEntity
  8
0
  6
CONTINUOUS
 62
               7
100
AcDbLine
 10
-23.826193569262415
 20
122.75000000000024
 30
0.0
 11
-27.999999999998806
 21
122.75000000000024
 31
0.0
  0
LINE
  5
56
100
AcDbEntity
  8
0
  6
CONTINUOUS
 62
               7
100
AcDbLine
 10
-22.387217334898025
 20
123.75000000000024
 30
0.0
 11
-27.999999999998806
 21
123.75000000000024
 31
0.0
  0
ARC
  5
57
100
AcDbEntity
  8
0
  6
CONTINUOUS
 62
               7
100
AcDbCircle
 10
0.00000000000108
 20
90.000000000000242
 30
0.0
 40
39.0
100
AcDbArc
 50
122.8869467704092
 51
135.88538145178549
  0
ARC
  5
58
100
AcDbEntity
  8
0
  6
CONTINUOUS
 62
               7
100
AcDbCircle
 10
0.00000000000108
 20
90.000000000000242
 30
0.0
 40
40.499999999999993
100
AcDbArc
 50
135.7292660167075
 51
143.21847069247909
  0
ARC
  5
59
100
AcDbEntity
  8
0
  6
CONTINUOUS
 62
               7
100
AcDbCircle
 10
0.00000000000108
 20
90.000000000000242
 30
0.0
 40
39.0
100
AcDbArc
 50
138.038111171645
 51
141.55267568395141
  0
LINE
  5
5A
100
AcDbEntity
  8
0
  6
CONTINUOUS
 62
               7
100
AcDbLine
 10
-27.999999999998806
 20
117.14774392099672
 30
0.0
 11
-27.999999999998806
 21
114.25000000000024
 31
0.0
  0
LINE
  5
5B
100
AcDbEntity
  8
0
  6
CONTINUOUS
 62
               7
100
AcDbLine
 10
-28.999999999998863
 20
118.27100988645434
 30
0.0
 11
-28.999999999998863
 21
122.75000000000024
 31
0.0
  0
LINE
  5
5C
100
AcDbEntity
  8
0
  6
CONTINUOUS
 62
               7
100
AcDbLine
 10
-32.437439787997164
 20
114.25000000000024
 30
0.0
 11
-39.999999999998863
 21
114.25000000000024
 31
0.0
  0
ARC
  5
5D
100
AcDbEntity
  8
0
  6
CONTINUOUS
 62
               7
100
AcDbCircle
 10
0.00000000000108
 20
90.000000000000242
 30
0.0
 40
40.499999999999993
100
AcDbArc
 50
144.96518520572019
 51
158.64179427063749
  0
ARC
  5
5E
100
AcDbEntity
  8
0
  6
CONTINUOUS
 62
               7
100
AcDbCircle
 10
0.00000000000108
 20
90.000000000000242
 30
0.0
 40
39.0
100
AcDbArc
 50
143.40506904442881
 51
157.77745159952659
  0
LINE
  5
5F
100
AcDbEntity
  8
0
  6
CONTINUOUS
 62
               7
100
AcDbLine
 10
-33.161536454150109
 20
113.25000000000024
 30
0.0
 11
-39.999999999998863
 21
113.25000000000024
 31
0.0
  0
LINE
  5
60
100
AcDbEntity
  8
0
  6
CONTINUOUS
 62
               7
100
AcDbLine
 10
-38.094454977068779
 20
103.75000000000024
 30
0.0
 11
-39.999999999998863
 21
103.75000000000024
 31
0.0
  0
LINE
  5
61
100
AcDbEntity
  8
0
  6
CONTINUOUS
 62
               7
100
AcDbLine
 10
-37.718529928934629
 20
104.75000000000024
 30
0.0
 11
-39.999999999998863
 21
104.75000000000024
 31
0.0
  0
ARC
  5
62
100
AcDbEntity
  8
0
  6
CONTINUOUS
 62
               7
100
AcDbCircle
 10
0.00000000000108
 20
90.000000000000242
 30
0.0
 40
40.499999999999993
100
AcDbArc
 50
160.15320968462311
 51
170.9875485007428
  0
ARC
  5
63
100
AcDbEntity
  8
0
  6
CONTINUOUS
 62
               7
100
AcDbCircle
 10
0.00000000000108
 20
90.000000000000242
 30
0.0
 40
39.0
100
AcDbArc
 50
159.3557724881054
 51
172.2636199600407
  0
ARC
  5
64
100
AcDbEntity
  8
0
  6
CONTINUOUS
 62
               7
100
AcDbCircle
 10
0.00000000000108
 20
90.000000000000242
 30
0.0
 40
39.0
100
AcDbArc
 50
173.74380475450221
 51
186.25619524549779
  0
ARC
  5
65
100
AcDbEntity
  8
0
  6
CONTINUOUS
 62
               7
100
AcDbCircle
 10
0.00000000000108
 20
90.000000000000242
 30
0.0
 40
40.499999999999993
100
AcDbArc
 50
189.01245149925711
 51
199.84679031537689
  0
ARC
  5
66
100
AcDbEntity
  8
0
  6
CONTINUOUS
 62
               7
100
AcDbCircle
 10
0.00000000000108
 20
90.000000000000242
 30
0.0
 40
39.0
100
AcDbArc
 50
187.73638003994631
 51
200.6442275118946
  0
LINE
  5
67
100
AcDbEntity
  8
0
  6
CONTINUOUS
 62
               7
100
AcDbLine
 10
-38.094454977068779
 20
76.250000000000242
 30
0.0
 11
-39.999999999998863
 21
76.250000000000014
 31
0.0
  0
LINE
  5
68
100
AcDbEntity
  8
0
  6
CONTINUOUS
 62
               7
100
AcDbLine
 10
-37.718529928934629
 20
75.250000000000242
 30
0.0
 11
-39.999999999998863
 21
75.250000000000242
 31
0.0
  0
ARC
  5
69
100
AcDbEntity
  8
0
  6
CONTINUOUS
 62
               7
100
AcDbCircle
 10
0.00000000000108
 20
90.000000000000242
 30
0.0
 40
40.499999999999993
100
AcDbArc
 50
201.3582057293624
 51
215.03481479427981
  0
ARC
  5
6A
100
AcDbEntity
  8
0
  6
CONTINUOUS
 62
               7
100
AcDbCircle
 10
0.00000000000108
 20
90.000000000000242
 30
0.0
 40
39.0
100
AcDbArc
 50
202.22254840047341
 51
216.59493095556911
  0
LINE
  5
6B
100
AcDbEntity
  8
0
  6
CONTINUOUS
 62
               7
100
AcDbLine
 10
-33.161536454150109
 20
66.750000000000242
 30
0.0
 11
-39.999999999998863
 21
66.750000000000242
 31
0.0
  0
ARC
  5
6C
100
AcDbEntity
  8
0
  6
CONTINUOUS
 62
               7
100
AcDbCircle
 10
0.00000000000108
 20
90.000000000000242
 30
0.0
 40
40.499999999999993
100
AcDbArc
 50
216.7815293075208
 51
224.27073398329253
  0
ARC
  5
6D
100
AcDbEntity
  8
0
  6
CONTINUOUS
 62
               7
100
AcDbCircle
 10
0.00000000000108
 20
90.000000000000242
 30
0.0
 40
39.0
100
AcDbArc
 50
218.44732431604859
 51
221.961888828355
  0
LINE
  5
6E
100
AcDbEntity
  8
0
  6
CONTINUOUS
 62
               7
100
AcDbLine
 10
-32.437439787997164
 20
65.750000000000242
 30
0.0
 11
-39.999999999998863
 21
65.750000000000014
 31
0.0
  0
LINE
  5
6F
100
AcDbEntity
  8
0
  6
CONTINUOUS
 62
               7
100
AcDbLine
 10
-28.999999999998863
 20
63.923190379189819
 30
0.0
 11
-28.999999999998863
 21
65.750000000000242
 31
0.0
  0
ARC
  5
70
100
AcDbEntity
  8
0
  6
CONTINUOUS
 62
               7
100
AcDbCircle
 10
0.00000000000108
 20
90.000000000000242
 30
0.0
 40
39.0
100
AcDbArc
 50
224.11461854821451
 51
237.11305322959092
  0
ARC
  5
71
100
AcDbEntity
  8
0
  6
CONTINUOUS
 62
               7
100
AcDbCircle
 10
0.00000000000108
 20
90.000000000000242
 30
0.0
 40
40.499999999999993
100
AcDbArc
 50
226.26229534619091
 51
233.96346014999344
  0
LINE
  5
72
100
AcDbEntity
  8
0
  6
CONTINUOUS
 62
               7
100
AcDbLine
 10
-27.999999999998806
 20
60.738250223201121
 30
0.0
 11
-27.999999999998806
 21
57.250000000000242
 31
0.0
  0
LINE
  5
73
100
AcDbEntity
  8
0
  6
CONTINUOUS
 62
               7
100
AcDbLine
 10
-21.176342932620798
 20
57.250000000000242
 30
0.0
 11
-9.99999999999892
 21
57.250000000000242
 31
0.0
  0
ARC
  5
74
100
AcDbEntity
  8
0
  6
CONTINUOUS
 62
               7
100
AcDbCircle
 10
0.00000000000108
 20
90.000000000000242
 30
0.0
 40
40.499999999999993
100
AcDbArc
 50
236.44269023807792
 51
255.70505137857731
  0
ARC
  5
75
100
AcDbEntity
  8
0
  6
CONTINUOUS
 62
               7
100
AcDbCircle
 10
0.00000000000108
 20
90.000000000000242
 30
0.0
 40
39.0
100
AcDbArc
 50
239.92665235502261
 51
255.14283445507377
  0
LINE
  5
76
100
AcDbEntity
  8
0
  6
CONTINUOUS
 62
               7
100
AcDbLine
 10
-22.387217334898025
 20
56.250000000000014
 30
0.0
 11
-27.999999999998806
 21
56.250000000000014
 31
0.0
  0
LINE
  5
77
100
AcDbEntity
  8
0
  6
CONTINUOUS
 62
               7
100
AcDbLine
 10
-9.99999999999892
 20
52.303846350058635
 30
0.0
 11
-9.99999999999892
 21
56.250000000000014
 31
0.0
  0
ARC
  5
78
100
AcDbEntity
  8
0
  6
CONTINUOUS
 62
               7
100
AcDbCircle
 10
0.00000000000108
 20
90.000000000000242
 30
0.0
 40
40.499999999999993
100
AcDbArc
 50
257.16041159309879
 51
260.98754850075028
  0
ARC
  5
79
100
AcDbEntity
  8
0
  6
CONTINUOUS
 62
               7
100
AcDbCircle
 10
0.00000000000108
 20
90.000000000000242
 30
0.0
 40
39.0
100
AcDbArc
 50
256.65763620290886
 51
283.34236379709108
  0
LINE
  5
7A
100
AcDbEntity
  8
0
  6
CONTINUOUS
 62
               7
100
AcDbLine
 10
-8.9999999999988063
 20
50.51266025673543
 30
0.0
 11
-8.9999999999991189
 21
50.000000000000014
 31
0.0
  0
LINE
  5
7B
100
AcDbEntity
  8
0
  6
CONTINUOUS
 62
               7
100
AcDbLine
 10
9.00000000000108
 20
52.052668077979419
 30
0.0
 11
9.00000000000108
 21
56.250000000000014
 31
0.0
  0
ARC
  5
7C
100
AcDbEntity
  8
0
  6
CONTINUOUS
 62
               7
100
AcDbCircle
 10
0.00000000000108
 20
90.000000000000242
 30
0.0
 40
39.0
100
AcDbArc
 50
284.8571655449262
 51
300.0733476449775
  0
ARC
  5
7D
100
AcDbEntity
  8
0
  6
CONTINUOUS
 62
               7
100
AcDbCircle
 10
0.00000000000108
 20
90.000000000000242
 30
0.0
 40
40.499999999999993
100
AcDbArc
 50
284.29494862142269
 51
303.55730976192211
  0
LINE
  5
7E
100
AcDbEntity
  8
0
  6
CONTINUOUS
 62
               7
100
AcDbLine
 10
10.000000000001194
 20
50.753981093619231
 30
0.0
 11
10.000000000000881
 21
50.000000000000242
 31
0.0
  0
ARC
  5
7F
100
AcDbEntity
  8
0
  6
CONTINUOUS
 62
               7
100
AcDbCircle
 10
0.00000000000108
 20
90.000000000000242
 30
0.0
 40
39.0
100
AcDbArc
 50
302.88694677040911
 51
315.88538145178552
  0
LINE
  5
80
100
AcDbEntity
  8
0
  6
CONTINUOUS
 62
               7
100
AcDbLine
 10
19.543221331193791
 20
56.250000000000014
 30
0.0
 11
10.000000000001194
 21
56.250000000000014
 31
0.0
  0
ARC
  5
81
100
AcDbEntity
  8
0
  6
CONTINUOUS
 62
               7
100
AcDbCircle
 10
0.00000000000108
 20
90.000000000000242
 30
0.0
 40
40.499999999999993
100
AcDbArc
 50
306.03653985000648
 51
313.73770465380909
  0
LINE
  5
82
100
AcDbEntity
  8
0
  6
CONTINUOUS
 62
               7
100
AcDbLine
 10
23.826193569263978
 20
57.250000000000242
 30
0.0
 11
28.000000000000881
 21
57.250000000000242
 31
0.0
  0
ARC
  5
83
100
AcDbEntity
  8
0
  6
CONTINUOUS
 62
               7
100
AcDbCircle
 10
0.00000000000108
 20
90.000000000000242
 30
0.0
 40
39.0
100
AcDbArc
 50
318.03811117164503
 51
321.55267568395141
  0
ARC
  5
84
100
AcDbEntity
  8
0
  6
CONTINUOUS
 62
               7
100
AcDbCircle
 10
0.00000000000108
 20
90.000000000000242
 30
0.0
 40
40.499999999999993
100
AcDbArc
 50
315.72926601670753
 51
323.21847069247917
  0
LINE
  5
85
100
AcDbEntity
  8
0
  6
CONTINUOUS
 62
               7
100
AcDbLine
 10
28.000000000000881
 20
62.852256079003539
 30
0.0
 11
28.000000000000881
 21
65.750000000000242
 31
0.0
  0
LINE
  5
86
100
AcDbEntity
  8
0
  6
CONTINUOUS
 62
               7
100
AcDbLine
 10
29.000000000000881
 20
61.728990113545834
 30
0.0
 11
29.000000000000881
 21
57.250000000000242
 31
0.0
  0
LINE
  5
87
100
AcDbEntity
  8
0
  6
CONTINUOUS
 62
               7
100
AcDbLine
 10
30.544025602399699
 20
65.750000000000242
 30
0.0
 11
29.000000000000881
 21
65.750000000000242
 31
0.0
  0
ARC
  5
88
100
AcDbEntity
  8
0
  6
CONTINUOUS
 62
               7
100
AcDbCircle
 10
0.00000000000108
 20
90.000000000000242
 30
0.0
 40
40.499999999999993
100
AcDbArc
 50
324.96518520572022
 51
338.6417942706376
  0
ARC
  5
89
100
AcDbEntity
  8
0
  6
CONTINUOUS
 62
               7
100
AcDbCircle
 10
0.00000000000108
 20
90.000000000000242
 30
0.0
 40
39.0
100
AcDbArc
 50
323.40506904442879
 51
337.77745159952661
  0
LINE
  5
8A
100
AcDbEntity
  8
0
  6
CONTINUOUS
 62
               7
100
AcDbLine
 10
31.311938617723087
 20
66.750000000000242
 30
0.0
 11
29.000000000000881
 21
66.750000000000242
 31
0.0
  0
ARC
  5
8B
100
AcDbEntity
  8
0
  6
CONTINUOUS
 62
               7
100
AcDbCircle
 10
0.00000000000108
 20
90.000000000000242
 30
0.0
 40
40.499999999999993
100
AcDbArc
 50
340.15320968462311
 51
350.98754850074278
  0
ARC
  5
8C
100
AcDbEntity
  8
0
  6
CONTINUOUS
 62
               7
100
AcDbCircle
 10
0.00000000000108
 20
90.000000000000242
 30
0.0
 40
39.0
100
AcDbArc
 50
339.3557724881054
 51
352.26361996004078
  0
LINE
  5
8D
100
AcDbEntity
  8
0
  6
CONTINUOUS
 62
               7
100
AcDbLine
 10
36.103150832026586
 20
75.250000000000242
 30
0.0
 11
29.000000000000881
 21
75.250000000000242
 31
0.0
  0
LINE
  5
8E
100
AcDbEntity
  8
0
  6
CONTINUOUS
 62
               7
100
AcDbLine
 10
36.495718927020278
 20
76.250000000000242
 30
0.0
 11
29.000000000000881
 21
76.250000000000242
 31
0.0
  0
LINE
  5
8F
100
AcDbEntity
  8
0
  6
CONTINUOUS
 62
               7
100
AcDbLine
 10
38.645019083965593
 20
84.750000000000242
 30
0.0
 11
29.000000000000881
 21
84.750000000000242
 31
0.0
  0
ARC
  5
90
100
AcDbEntity
  8
0
  6
CONTINUOUS
 62
               7
100
AcDbCircle
 10
0.00000000000108
 20
90.000000000000242
 30
0.0
 40
39.0
100
AcDbArc
 50
353.74380475450221
 51
6.2561952454977643
  0
LINE
  5
91
100
AcDbEntity
  8
0
  6
CONTINUOUS
 62
               7
100
AcDbLine
 10
38.767737875714175
 20
85.750000000000242
 30
0.0
 11
29.000000000000881
 21
85.750000000000242
 31
0.0
  0
ARC
  5
92
100
AcDbEntity
  8
0
  6
CONTINUOUS
 62
               7
100
AcDbCircle
 10
0.00000000000108
 20
90.000000000000242
 30
0.0
 40
39.0
100
AcDbArc
 50
7.736380039946348
 51
20.64422751189456
  0
LINE
  5
93
100
AcDbEntity
  8
0
  6
CONTINUOUS
 62
               7
100
AcDbLine
 10
38.767737875714175
 20
94.250000000000242
 30
0.0
 11
29.000000000000881
 21
94.250000000000242
 31
0.0
  0
ARC
  5
94
100
AcDbEntity
  8
0
  6
CONTINUOUS
 62
               7
100
AcDbCircle
 10
0.00000000000108
 20
90.000000000000242
 30
0.0
 40
40.499999999999993
100
AcDbArc
 50
9.0124514992571392
 51
19.846790315376925
  0
LINE
  5
95
100
AcDbEntity
  8
0
  6
CONTINUOUS
 62
               7
100
AcDbLine
 10
38.645019083965593
 20
95.250000000000242
 30
0.0
 11
29.000000000000881
 21
95.250000000000242
 31
0.0
  0
LINE
  5
96
100
AcDbEntity
  8
0
  6
CONTINUOUS
 62
               7
100
AcDbLine
 10
36.495718927020278
 20
103.75000000000024
 30
0.0
 11
29.000000000000881
 21
103.75000000000024
 31
0.0
  0
ARC
  5
97
100
AcDbEntity
  8
0
  6
CONTINUOUS
 62
               7
100
AcDbCircle
 10
0.00000000000108
 20
90.000000000000242
 30
0.0
 40
39.0
100
AcDbArc
 50
22.2225484004734
 51
36.59493095557113
  0
ARC
  5
98
100
AcDbEntity
  8
0
  6
CONTINUOUS
 62
               7
100
AcDbCircle
 10
0.00000000000108
 20
90.000000000000242
 30
0.0
 40
40.499999999999993
100
AcDbArc
 50
21.358205729362439
 51
35.034814794279811
  0
LINE
  5
99
100
AcDbEntity
  8
0
  6
CONTINUOUS
 62
               7
100
AcDbLine
 10
36.103150832026586
 20
104.75000000000024
 30
0.0
 11
29.000000000000881
 21
104.75000000000024
 31
0.0
  0
LINE
  5
9A
100
AcDbEntity
  8
0
  6
CONTINUOUS
 62
               7
100
AcDbLine
 10
31.311938617723087
 20
113.25000000000024
 30
0.0
 11
29.000000000000881
 21
113.25000000000024
 31
0.0
  0
ARC
  5
9B
100
AcDbEntity
  8
0
  6
CONTINUOUS
 62
               7
100
AcDbCircle
 10
0.00000000000108
 20
90.000000000000242
 30
0.0
 40
39.0
100
AcDbArc
 50
38.447324316048586
 51
41.961888828355001
  0
ARC
  5
9C
100
AcDbEntity
  8
0
  6
CONTINUOUS
 62
               7
100
AcDbCircle
 10
0.00000000000108
 20
90.000000000000242
 30
0.0
 40
40.499999999999993
100
AcDbArc
 50
36.78152930752082
 51
44.270733983292459
  0
LINE
  5
9D
100
AcDbEntity
  8
0
  6
CONTINUOUS
 62
               7
100
AcDbLine
 10
30.544025602399699
 20
114.25000000000024
 30
0.0
 11
29.000000000000881
 21
114.25000000000024
 31
0.0
  0
ARC
  5
9E
100
AcDbEntity
  8
0
  6
CONTINUOUS
 62
               7
100
AcDbCircle
 10
0.00000000000108
 20
90.000000000000242
 30
0.0
 40
39.0
100
AcDbArc
 50
44.114618548214501
 51
57.113053229590747
  0
LINE
  5
9F
100
AcDbEntity
  8
0
  6
CONTINUOUS
 62
               7
100
AcDbLine
 10
29.000000000000881
 20
116.07680962081083
 30
0.0
 11
29.000000000000881
 21
114.25000000000024
 31
0.0
  0
ARC
  5
A0
100
AcDbEntity
  8
0
  6
CONTINUOUS
 62
               7
100
AcDbCircle
 10
0.00000000000108
 20
90.000000000000242
 30
0.0
 40
40.499999999999993
100
AcDbArc
 50
46.262295346190939
 51
53.963460149993452
  0
LINE
  5
A1
100
AcDbEntity
  8
0
  6
CONTINUOUS
 62
               7
100
AcDbLine
 10
28.000000000000881
 20
119.26174977679902
 30
0.0
 11
28.000000000000881
 21
122.75000000000024
 31
0.0
  0
ARC
  5
A2
100
AcDbEntity
  8
0
  6
CONTINUOUS
 62
               7
100
AcDbCircle
 10
0.00000000000108
 20
90.000000000000242
 30
0.0
 40
39.0
100
AcDbArc
 50
59.926652355022561
 51
75.142834455073768
  0
ARC
  5
A3
100
AcDbEntity
  8
0
  6
CONTINUOUS
 62
               7
100
AcDbCircle
 10
0.00000000000108
 20
90.000000000000242
 30
0.0
 40
40.499999999999993
100
AcDbArc
 50
56.442690238077937
 51
75.705051378577323
  0
LINE
  5
A4
100
AcDbEntity
  8
0
  6
CONTINUOUS
 62
               7
100
AcDbLine
 10
21.176342932622674
 20
122.75000000000024
 30
0.0
 11
10.000000000001194
 21
122.75000000000024
 31
0.0
  0
LINE
  5
A5
100
AcDbEntity
  8
0
  6
CONTINUOUS
 62
               7
100
AcDbLine
 10
19.54322133119399
 20
123.75000000000024
 30
0.0
 11
10.000000000001194
 21
123.75000000000024
 31
0.0
  0
ARC
  5
A6
100
AcDbEntity
  8
0
  6
CONTINUOUS
 62
               7
100
AcDbCircle
 10
0.00000000000108
 20
90.000000000000242
 30
0.0
 40
39.0
100
AcDbArc
 50
76.657636202908876
 51
103.3423637970911
  0
LINE
  5
A7
100
AcDbEntity
  8
0
  6
CONTINUOUS
 62
               7
100
AcDbLine
 10
10.000000000001194
 20
127.69615364994162
 30
0.0
 11
10.000000000001194
 21
123.75000000000024
 31
0.0
  0
ARC
  5
A8
100
AcDbEntity
  8
0
  6
CONTINUOUS
 62
               7
100
AcDbCircle
 10
0.00000000000108
 20
90.000000000000242
 30
0.0
 40
40.499999999999993
100
AcDbArc
 50
77.160411593098814
 51
80.987548500750236
  0
LINE
  5
A9
100
AcDbEntity
  8
0
  6
CONTINUOUS
 62
               7
100
AcDbLine
 10
9.00000000000108
 20
129.48733974326439
 30
0.0
 11
9.00000000000108
 21
130.00000000000023
 31
0.0
  0
LINE
  5
AA
100
AcDbEntity
  8
0
  6
CONTINUOUS
 62
               7
100
AcDbLine
 10
-8.9999999999988063
 20
127.94733192202081
 30
0.0
 11
-8.9999999999988063
 21
123.75000000000024
 31
0.0
  0
LINE
  5
AB
100
AcDbEntity
  8
0
  6
CONTINUOUS
 62
               7
100
AcDbLine
 10
-9.99999999999892
 20
129.2460189063807
 30
0.0
 11
-9.99999999999892
 21
130.00000000000023
 31
0.0
  0
LINE
  5
AC
100
AcDbEntity
  8
0
  6
CONTINUOUS
 62
               7
100
AcDbLine
 10
40.000000000000682
 20
56.250000000000014
 30
0.0
 11
29.000000000000881
 21
56.250000000000014
 31
0.0
  0
LINE
  5
AD
100
AcDbEntity
  8
0
  6
CONTINUOUS
 62
               7
100
AcDbLine
 10
40.000000000000682
 20
104.75000000000001
 30
0.0
 11
37.718529928936277
 21
104.75000000000024
 31
0.0
  0
LINE
  5
AE
100
AcDbEntity
  8
0
  6
CONTINUOUS
 62
               7
100
AcDbLine
 10
40.000000000000682
 20
113.25000000000024
 30
0.0
 11
33.161536454152184
 21
113.25000000000024
 31
0.0
  0
LINE
  5
AF
100
AcDbEntity
  8
0
  6
CONTINUOUS
 62
               7
100
AcDbLine
 10
40.000000000000682
 20
122.75000000000024
 30
0.0
 11
29.000000000000881
 21
122.75000000000024
 31
0.0
  0
LINE
  5
B0
100
AcDbEntity
  8
0
  6
CONTINUOUS
 62
               7
100
AcDbLine
 10
40.000000000000682
 20
114.25000000000024
 30
0.0
 11
32.437439787998983
 21
114.25000000000024
 31
0.0
  0
LINE
  5
B1
100
AcDbEntity
  8
0
  6
CONTINUOUS
 62
               7
100
AcDbLine
 10
40.000000000000682
 20
123.75000000000024
 30
0.0
 11
29.000000000000881
 21
123.75000000000024
 31
0.0
  0
LINE
  5
B2
100
AcDbEntity
  8
0
  6
CONTINUOUS
 62
               7
100
AcDbLine
 10
40.000000000000682
 20
103.75000000000024
 30
0.0
 11
38.094454977070882
 21
103.75000000000024
 31
0.0
  0
LINE
  5
B3
100
AcDbEntity
  8
0
  6
CONTINUOUS
 62
               7
100
AcDbLine
 10
40.000000000000682
 20
76.250000000000014
 30
0.0
 11
38.094454977070882
 21
76.250000000000242
 31
0.0
  0
LINE
  5
B4
100
AcDbEntity
  8
0
  6
CONTINUOUS
 62
               7
100
AcDbLine
 10
40.000000000000682
 20
75.250000000000242
 30
0.0
 11
37.718529928936277
 21
75.250000000000242
 31
0.0
  0
LINE
  5
B5
100
AcDbEntity
  8
0
  6
CONTINUOUS
 62
               7
100
AcDbLine
 10
40.000000000000682
 20
66.750000000000242
 30
0.0
 11
33.161536454152184
 21
66.750000000000242
 31
0.0
  0
LINE
  5
B6
100
AcDbEntity
  8
0
  6
CONTINUOUS
 62
               7
100
AcDbLine
 10
40.000000000000682
 20
65.750000000000014
 30
0.0
 11
32.437439787998983
 21
65.750000000000242
 31
0.0
  0
LINE
  5
B7
100
AcDbEntity
  8
0
  6
CONTINUOUS
 62
               7
100
AcDbLine
 10
29.000000000000881
 20
57.250000000000242
 30
0.0
 11
40.000000000000682
 21
57.250000000000242
 31
0.0
  0
LINE
  5
B8
100
AcDbEntity
  8
0
  6
CONTINUOUS
 62
               7
100
AcDbLine
 10
-28.999999999998863
 20
123.75000000000024
 30
0.0
 11
-28.999999999998863
 21
130.00000000000023
 31
0.0
  0
LINE
  5
B9
100
AcDbEntity
  8
0
  6
CONTINUOUS
 62
               7
100
AcDbLine
 10
-27.999999999998806
 20
130.00000000000023
 30
0.0
 11
-27.999999999998806
 21
123.75000000000024
 31
0.0
  0
LINE
  5
BA
100
AcDbEntity
  8
0
  6
CONTINUOUS
 62
               7
100
AcDbLine
 10
-9.99999999999892
 20
123.75000000000024
 30
0.0
 11
-9.99999999999892
 21
127.69615364994162
 31
0.0
  0
LINE
  5
BB
100
AcDbEntity
  8
0
  6
CONTINUOUS
 62
               7
100
AcDbLine
 10
29.000000000000881
 20
130.00000000000023
 30
0.0
 11
29.000000000000881
 21
123.75000000000024
 31
0.0
  0
LINE
  5
BC
100
AcDbEntity
  8
0
  6
CONTINUOUS
 62
               7
100
AcDbLine
 10
28.000000000000881
 20
123.75000000000024
 30
0.0
 11
28.000000000000881
 21
130.00000000000023
 31
0.0
  0
LINE
  5
BD
100
AcDbEntity
  8
0
  6
CONTINUOUS
 62
               7
100
AcDbLine
 10
10.000000000000881
 20
130.00000000000023
 30
0.0
 11
10.000000000001194
 21
129.2460189063807
 31
0.0
  0
LINE
  5
BE
100
AcDbEntity
  8
0
  6
CONTINUOUS
 62
               7
100
AcDbLine
 10
-8.9999999999991189
 20
130.00000000000023
 30
0.0
 11
-8.9999999999988063
 21
129.48733974326439
 31
0.0
  0
LINE
  5
BF
100
AcDbEntity
  8
0
  6
CONTINUOUS
 62
               7
100
AcDbLine
 10
9.00000000000108
 20
123.75000000000024
 30
0.0
 11
9.00000000000108
 21
127.94733192202081
 31
0.0
  0
LINE
  5
C0
100
AcDbEntity
  8
0
  6
CONTINUOUS
 62
               7
100
AcDbLine
 10
-28.999999999998863
 20
56.250000000000014
 30
0.0
 11
-39.999999999998863
 21
56.250000000000014
 31
0.0
  0
LINE
  5
C1
100
AcDbEntity
  8
0
  6
CONTINUOUS
 62
               7
100
AcDbLine
 10
-39.999999999998863
 20
57.250000000000242
 30
0.0
 11
-28.999999999998863
 21
57.250000000000242
 31
0.0
  0
LINE
  5
C2
100
AcDbEntity
  8
0
  6
CONTINUOUS
 62
               7
100
AcDbLine
 10
-28.999999999998863
 20
65.750000000000242
 30
0.0
 11
-30.544025602397767
 21
65.750000000000242
 31
0.0
  0
LINE
  5
C3
100
AcDbEntity
  8
0
  6
CONTINUOUS
 62
               7
100
AcDbLine
 10
-28.999999999998863
 20
66.750000000000242
 30
0.0
 11
-31.311938617721125
 21
66.750000000000242
 31
0.0
  0
LINE
  5
C4
100
AcDbEntity
  8
0
  6
CONTINUOUS
 62
               7
100
AcDbLine
 10
-28.999999999998863
 20
75.250000000000242
 30
0.0
 11
-36.103150832024767
 21
75.250000000000242
 31
0.0
  0
LINE
  5
C5
100
AcDbEntity
  8
0
  6
CONTINUOUS
 62
               7
100
AcDbLine
 10
-28.999999999998863
 20
84.750000000000242
 30
0.0
 11
-38.645019083963916
 21
84.750000000000242
 31
0.0
  0
LINE
  5
C6
100
AcDbEntity
  8
0
  6
CONTINUOUS
 62
               7
100
AcDbLine
 10
-28.999999999998863
 20
76.250000000000242
 30
0.0
 11
-36.495718927018345
 21
76.250000000000242
 31
0.0
  0
LINE
  5
C7
100
AcDbEntity
  8
0
  6
CONTINUOUS
 62
               7
100
AcDbLine
 10
-28.999999999998863
 20
95.250000000000242
 30
0.0
 11
-38.645019083963916
 21
95.250000000000242
 31
0.0
  0
LINE
  5
C8
100
AcDbEntity
  8
0
  6
CONTINUOUS
 62
               7
100
AcDbLine
 10
-28.999999999998863
 20
103.75000000000024
 30
0.0
 11
-36.495718927018345
 21
103.75000000000024
 31
0.0
  0
LINE
  5
C9
100
AcDbEntity
  8
0
  6
CONTINUOUS
 62
               7
100
AcDbLine
 10
-28.999999999998863
 20
94.250000000000242
 30
0.0
 11
-38.767737875712385
 21
94.250000000000242
 31
0.0
  0
LINE
  5
CA
100
AcDbEntity
  8
0
  6
CONTINUOUS
 62
               7
100
AcDbLine
 10
-28.999999999998863
 20
85.750000000000242
 30
0.0
 11
-38.767737875712385
 21
85.750000000000242
 31
0.0
  0
LINE
  5
CB
100
AcDbEntity
  8
0
  6
CONTINUOUS
 62
               7
100
AcDbLine
 10
-28.999999999998863
 20
123.75000000000024
 30
0.0
 11
-39.999999999998863
 21
123.75000000000024
 31
0.0
  0
LINE
  5
CC
100
AcDbEntity
  8
0
  6
CONTINUOUS
 62
               7
100
AcDbLine
 10
-28.999999999998863
 20
114.25000000000024
 30
0.0
 11
-30.544025602397767
 21
114.25000000000024
 31
0.0
  0
LINE
  5
CD
100
AcDbEntity
  8
0
  6
CONTINUOUS
 62
               7
100
AcDbLine
 10
-28.999999999998863
 20
122.75000000000024
 30
0.0
 11
-39.999999999998863
 21
122.75000000000024
 31
0.0
  0
LINE
  5
CE
100
AcDbEntity
  8
0
  6
CONTINUOUS
 62
               7
100
AcDbLine
 10
-28.999999999998863
 20
113.25000000000024
 30
0.0
 11
-31.311938617721125
 21
113.25000000000024
 31
0.0
  0
LINE
  5
CF
100
AcDbEntity
  8
0
  6
CONTINUOUS
 62
               7
100
AcDbLine
 10
-28.999999999998863
 20
104.75000000000024
 30
0.0
 11
-36.103150832024767
 21
104.75000000000024
 31
0.0
  0
LINE
  5
D0
100
AcDbEntity
  8
0
  6
CONTINUOUS
 62
               7
100
AcDbLine
 10
-8.9999999999988063
 20
56.250000000000014
 30
0.0
 11
-8.9999999999988063
 21
52.052668077979419
 31
0.0
  0
LINE
  5
D1
100
AcDbEntity
  8
0
  6
CONTINUOUS
 62
               7
100
AcDbLine
 10
9.00000000000108
 20
50.000000000000242
 30
0.0
 11
9.00000000000108
 21
50.51266025673543
 31
0.0
  0
LINE
  5
D2
100
AcDbEntity
  8
0
  6
CONTINUOUS
 62
               7
100
AcDbLine
 10
28.000000000000881
 20
50.000000000000242
 30
0.0
 11
28.000000000000881
 21
56.250000000000014
 31
0.0
  0
LINE
  5
D3
100
AcDbEntity
  8
0
  6
CONTINUOUS
 62
               7
100
AcDbLine
 10
10.000000000001194
 20
56.250000000000014
 30
0.0
 11
10.000000000001194
 21
52.303846350058635
 31
0.0
  0
LINE
  5
D4
100
AcDbEntity
  8
0
  6
CONTINUOUS
 62
               7
100
AcDbLine
 10
29.000000000000881
 20
56.250000000000014
 30
0.0
 11
29.000000000000881
 21
50.000000000000242
 31
0.0
  0
LINE
  5
D5
100
AcDbEntity
  8
0
  6
CONTINUOUS
 62
               7
100
AcDbLine
 10
-27.999999999998806
 20
56.250000000000014
 30
0.0
 11
-27.999999999998806
 21
50.000000000000014
 31
0.0
  0
LINE
  5
D6
100
AcDbEntity
  8
0
  6
CONTINUOUS
 62
               7
100
AcDbLine
 10
-9.99999999999892
 20
50.000000000000242
 30
0.0
 11
-9.99999999999892
 21
50.753981093619231
 31
0.0
  0
LINE
  5
D7
100
AcDbEntity
  8
0
  6
CONTINUOUS
 62
               7
100
AcDbLine
 10
-28.999999999998863
 20
50.000000000000014
 30
0.0
 11
-28.999999999998863
 21
56.250000000000014
 31
0.0
  0
LINE
  5
D8
100
AcDbEntity
  8
0
  6
CONTINUOUS
 62
               7
100
AcDbLine
 10
9.00000000000108
 20
56.250000000000014
 30
0.0
 11
-8.9999999999988063
 21
56.250000000000014
 31
0.0
  0
LINE
  5
D9
100
AcDbEntity
  8
0
  6
CONTINUOUS
 62
               7
100
AcDbLine
 10
28.000000000000881
 20
56.250000000000014
 30
0.0
 11
22.387217334899788
 21
56.250000000000014
 31
0.0
  0
LINE
  5
DA
100
AcDbEntity
  8
0
  6
CONTINUOUS
 62
               7
100
AcDbLine
 10
-9.99999999999892
 20
56.250000000000014
 30
0.0
 11
-19.543221331192228
 21
56.250000000000014
 31
0.0
  0
LINE
  5
DB
100
AcDbEntity
  8
0
  6
CONTINUOUS
 62
               7
100
AcDbLine
 10
-9.99999999999892
 20
104.75000000000024
 30
0.0
 11
-27.999999999998806
 21
104.75000000000024
 31
0.0
  0
LINE
  5
DC
100
AcDbEntity
  8
0
  6
CONTINUOUS
 62
               7
100
AcDbLine
 10
-9.99999999999892
 20
113.25000000000024
 30
0.0
 11
-27.999999999998806
 21
113.25000000000024
 31
0.0
  0
LINE
  5
DD
100
AcDbEntity
  8
0
  6
CONTINUOUS
 62
               7
100
AcDbLine
 10
-9.99999999999892
 20
104.75000000000024
 30
0.0
 11
-9.99999999999892
 21
113.25000000000024
 31
0.0
  0
LINE
  5
DE
100
AcDbEntity
  8
0
  6
CONTINUOUS
 62
               7
100
AcDbLine
 10
-9.99999999999892
 20
114.25000000000024
 30
0.0
 11
-9.99999999999892
 21
122.75000000000024
 31
0.0
  0
LINE
  5
DF
100
AcDbEntity
  8
0
  6
CONTINUOUS
 62
               7
100
AcDbLine
 10
-9.99999999999892
 20
122.75000000000024
 30
0.0
 11
-21.176342932620798
 21
122.75000000000024
 31
0.0
  0
LINE
  5
E0
100
AcDbEntity
  8
0
  6
CONTINUOUS
 62
               7
100
AcDbLine
 10
-9.99999999999892
 20
114.25000000000024
 30
0.0
 11
-27.999999999998806
 21
114.25000000000024
 31
0.0
  0
LINE
  5
E1
100
AcDbEntity
  8
0
  6
CONTINUOUS
 62
               7
100
AcDbLine
 10
-9.99999999999892
 20
123.75000000000024
 30
0.0
 11
-19.543221331192228
 21
123.75000000000024
 31
0.0
  0
LINE
  5
E2
100
AcDbEntity
  8
0
  6
CONTINUOUS
 62
               7
100
AcDbLine
 10
-9.99999999999892
 20
85.750000000000242
 30
0.0
 11
-27.999999999998806
 21
85.750000000000242
 31
0.0
  0
LINE
  5
E3
100
AcDbEntity
  8
0
  6
CONTINUOUS
 62
               7
100
AcDbLine
 10
-9.99999999999892
 20
94.250000000000242
 30
0.0
 11
-27.999999999998806
 21
94.250000000000242
 31
0.0
  0
LINE
  5
E4
100
AcDbEntity
  8
0
  6
CONTINUOUS
 62
               7
100
AcDbLine
 10
-9.99999999999892
 20
85.750000000000242
 30
0.0
 11
-9.99999999999892
 21
94.250000000000242
 31
0.0
  0
LINE
  5
E5
100
AcDbEntity
  8
0
  6
CONTINUOUS
 62
               7
100
AcDbLine
 10
-9.99999999999892
 20
95.250000000000242
 30
0.0
 11
-9.99999999999892
 21
103.75000000000024
 31
0.0
  0
LINE
  5
E6
100
AcDbEntity
  8
0
  6
CONTINUOUS
 62
               7
100
AcDbLine
 10
-9.99999999999892
 20
103.75000000000024
 30
0.0
 11
-27.999999999998806
 21
103.75000000000024
 31
0.0
  0
LINE
  5
E7
100
AcDbEntity
  8
0
  6
CONTINUOUS
 62
               7
100
AcDbLine
 10
-9.99999999999892
 20
95.250000000000242
 30
0.0
 11
-27.999999999998806
 21
95.250000000000242
 31
0.0
  0
LINE
  5
E8
100
AcDbEntity
  8
0
  6
CONTINUOUS
 62
               7
100
AcDbLine
 10
-9.99999999999892
 20
76.250000000000242
 30
0.0
 11
-27.999999999998806
 21
76.250000000000242
 31
0.0
  0
LINE
  5
E9
100
AcDbEntity
  8
0
  6
CONTINUOUS
 62
               7
100
AcDbLine
 10
-9.99999999999892
 20
84.750000000000242
 30
0.0
 11
-27.999999999998806
 21
84.750000000000242
 31
0.0
  0
LINE
  5
EA
100
AcDbEntity
  8
0
  6
CONTINUOUS
 62
               7
100
AcDbLine
 10
-9.99999999999892
 20
76.250000000000242
 30
0.0
 11
-9.99999999999892
 21
84.750000000000242
 31
0.0
  0
LINE
  5
EB
100
AcDbEntity
  8
0
  6
CONTINUOUS
 62
               7
100
AcDbLine
 10
-9.99999999999892
 20
66.750000000000242
 30
0.0
 11
-9.99999999999892
 21
75.250000000000242
 31
0.0
  0
LINE
  5
EC
100
AcDbEntity
  8
0
  6
CONTINUOUS
 62
               7
100
AcDbLine
 10
-9.99999999999892
 20
75.250000000000242
 30
0.0
 11
-27.999999999998806
 21
75.250000000000242
 31
0.0
  0
LINE
  5
ED
100
AcDbEntity
  8
0
  6
CONTINUOUS
 62
               7
100
AcDbLine
 10
-9.99999999999892
 20
66.750000000000242
 30
0.0
 11
-27.999999999998806
 21
66.750000000000242
 31
0.0
  0
LINE
  5
EE
100
AcDbEntity
  8
0
  6
CONTINUOUS
 62
               7
100
AcDbLine
 10
-9.99999999999892
 20
65.750000000000242
 30
0.0
 11
-27.999999999998806
 21
65.750000000000242
 31
0.0
  0
LINE
  5
EF
100
AcDbEntity
  8
0
  6
CONTINUOUS
 62
               7
100
AcDbLine
 10
-9.99999999999892
 20
57.250000000000242
 30
0.0
 11
-9.99999999999892
 21
65.750000000000242
 31
0.0
  0
LINE
  5
F0
100
AcDbEntity
  8
0
  6
CONTINUOUS
 62
               7
100
AcDbLine
 10
-27.999999999998806
 20
57.250000000000242
 30
0.0
 11
-23.826193569262415
 21
57.250000000000242
 31
0.0
  0
LINE
  5
F1
100
AcDbEntity
  8
0
  6
CONTINUOUS
 62
               7
100
AcDbLine
 10
10.000000000001194
 20
65.750000000000242
 30
0.0
 11
10.000000000001194
 21
57.250000000000242
 31
0.0
  0
LINE
  5
F2
100
AcDbEntity
  8
0
  6
CONTINUOUS
 62
               7
100
AcDbLine
 10
10.000000000001194
 20
57.250000000000242
 30
0.0
 11
21.176342932622674
 21
57.250000000000242
 31
0.0
  0
LINE
  5
F3
100
AcDbEntity
  8
0
  6
CONTINUOUS
 62
               7
100
AcDbLine
 10
28.000000000000881
 20
65.750000000000242
 30
0.0
 11
10.000000000001194
 21
65.750000000000242
 31
0.0
  0
LINE
  5
F4
100
AcDbEntity
  8
0
  6
CONTINUOUS
 62
               7
100
AcDbLine
 10
28.000000000000881
 20
66.750000000000242
 30
0.0
 11
10.000000000001194
 21
66.750000000000242
 31
0.0
  0
LINE
  5
F5
100
AcDbEntity
  8
0
  6
CONTINUOUS
 62
               7
100
AcDbLine
 10
28.000000000000881
 20
75.250000000000242
 30
0.0
 11
10.000000000001194
 21
75.250000000000242
 31
0.0
  0
LINE
  5
F6
100
AcDbEntity
  8
0
  6
CONTINUOUS
 62
               7
100
AcDbLine
 10
10.000000000001194
 20
75.250000000000242
 30
0.0
 11
10.000000000001194
 21
66.750000000000242
 31
0.0
  0
LINE
  5
F7
100
AcDbEntity
  8
0
  6
CONTINUOUS
 62
               7
100
AcDbLine
 10
10.000000000001194
 20
84.750000000000242
 30
0.0
 11
10.000000000001194
 21
76.250000000000242
 31
0.0
  0
LINE
  5
F8
100
AcDbEntity
  8
0
  6
CONTINUOUS
 62
               7
100
AcDbLine
 10
28.000000000000881
 20
84.750000000000242
 30
0.0
 11
10.000000000001194
 21
84.750000000000242
 31
0.0
  0
LINE
  5
F9
100
AcDbEntity
  8
0
  6
CONTINUOUS
 62
               7
100
AcDbLine
 10
28.000000000000881
 20
76.250000000000242
 30
0.0
 11
10.000000000001194
 21
76.250000000000242
 31
0.0
  0
LINE
  5
FA
100
AcDbEntity
  8
0
  6
CONTINUOUS
 62
               7
100
AcDbLine
 10
28.000000000000881
 20
95.250000000000242
 30
0.0
 11
10.000000000001194
 21
95.250000000000242
 31
0.0
  0
LINE
  5
FB
100
AcDbEntity
  8
0
  6
CONTINUOUS
 62
               7
100
AcDbLine
 10
28.000000000000881
 20
103.75000000000024
 30
0.0
 11
10.000000000001194
 21
103.75000000000024
 31
0.0
  0
LINE
  5
FC
100
AcDbEntity
  8
0
  6
CONTINUOUS
 62
               7
100
AcDbLine
 10
10.000000000001194
 20
103.75000000000024
 30
0.0
 11
10.000000000001194
 21
95.250000000000242
 31
0.0
  0
LINE
  5
FD
100
AcDbEntity
  8
0
  6
CONTINUOUS
 62
               7
100
AcDbLine
 10
10.000000000001194
 20
94.250000000000242
 30
0.0
 11
10.000000000001194
 21
85.750000000000242
 31
0.0
  0
LINE
  5
FE
100
AcDbEntity
  8
0
  6
CONTINUOUS
 62
               7
100
AcDbLine
 10
28.000000000000881
 20
94.250000000000242
 30
0.0
 11
10.000000000001194
 21
94.250000000000242
 31
0.0
  0
LINE
  5
FF
100
AcDbEntity
  8
0
  6
CONTINUOUS
 62
               7
100
AcDbLine
 10
28.000000000000881
 20
85.750000000000242
 30
0.0
 11
10.000000000001194
 21
85.750000000000242
 31
0.0
  0
LINE
  5
100
100
AcDbEntity
  8
0
  6
CONTINUOUS
 62
               7
100
AcDbLine
 10
28.000000000000881
 20
123.75000000000024
 30
0.0
 11
22.387217334899788
 21
123.75000000000024
 31
0.0
  0
LINE
  5
101
100
AcDbEntity
  8
0
  6
CONTINUOUS
 62
               7
100
AcDbLine
 10
28.000000000000881
 20
114.25000000000024
 30
0.0
 11
10.000000000001194
 21
114.25000000000024
 31
0.0
  0
LINE
  5
102
100
AcDbEntity
  8
0
  6
CONTINUOUS
 62
               7
100
AcDbLine
 10
28.000000000000881
 20
122.75000000000024
 30
0.0
 11
23.826193569263978
 21
122.75000000000024
 31
0.0
  0
LINE
  5
103
100
AcDbEntity
  8
0
  6
CONTINUOUS
 62
               7
100
AcDbLine
 10
10.000000000001194
 20
122.75000000000024
 30
0.0
 11
10.000000000001194
 21
114.25000000000024
 31
0.0
  0
LINE
  5
104
100
AcDbEntity
  8
0
  6
CONTINUOUS
 62
               7
100
AcDbLine
 10
10.000000000001194
 20
113.25000000000024
 30
0.0
 11
10.000000000001194
 21
104.75000000000024
 31
0.0
  0
LINE
  5
105
100
AcDbEntity
  8
0
  6
CONTINUOUS
 62
               7
100
AcDbLine
 10
28.000000000000881
 20
113.25000000000024
 30
0.0
 11
10.000000000001194
 21
113.25000000000024
 31
0.0
  0
LINE
  5
106
100
AcDbEntity
  8
0
  6
CONTINUOUS
 62
               7
100
AcDbLine
 10
28.000000000000881
 20
104.75000000000024
 30
0.0
 11
10.000000000001194
 21
104.75000000000024
 31
0.0
  0
LINE
  5
107
100
AcDbEntity
  8
0
  6
CONTINUOUS
 62
               7
100
AcDbLine
 10
9.00000000000108
 20
104.75000000000024
 30
0.0
 11
-8.9999999999988063
 21
104.75000000000024
 31
0.0
  0
LINE
  5
108
100
AcDbEntity
  8
0
  6
CONTINUOUS
 62
               7
100
AcDbLine
 10
9.00000000000108
 20
113.25000000000024
 30
0.0
 11
-8.9999999999988063
 21
113.25000000000024
 31
0.0
  0
LINE
  5
109
100
AcDbEntity
  8
0
  6
CONTINUOUS
 62
               7
100
AcDbLine
 10
9.00000000000108
 20
104.75000000000024
 30
0.0
 11
9.00000000000108
 21
113.25000000000024
 31
0.0
  0
LINE
  5
10A
100
AcDbEntity
  8
0
  6
CONTINUOUS
 62
               7
100
AcDbLine
 10
-8.9999999999988063
 20
113.25000000000024
 30
0.0
 11
-8.9999999999988063
 21
104.75000000000024
 31
0.0
  0
LINE
  5
10B
100
AcDbEntity
  8
0
  6
CONTINUOUS
 62
               7
100
AcDbLine
 10
-8.9999999999988063
 20
122.75000000000024
 30
0.0
 11
-8.9999999999988063
 21
114.25000000000024
 31
0.0
  0
LINE
  5
10C
100
AcDbEntity
  8
0
  6
CONTINUOUS
 62
               7
100
AcDbLine
 10
9.00000000000108
 20
114.25000000000024
 30
0.0
 11
9.00000000000108
 21
122.75000000000024
 31
0.0
  0
LINE
  5
10D
100
AcDbEntity
  8
0
  6
CONTINUOUS
 62
               7
100
AcDbLine
 10
9.00000000000108
 20
122.75000000000024
 30
0.0
 11
-8.9999999999988063
 21
122.75000000000024
 31
0.0
  0
LINE
  5
10E
100
AcDbEntity
  8
0
  6
CONTINUOUS
 62
               7
100
AcDbLine
 10
9.00000000000108
 20
114.25000000000024
 30
0.0
 11
-8.9999999999988063
 21
114.25000000000024
 31
0.0
  0
LINE
  5
10F
100
AcDbEntity
  8
0
  6
CONTINUOUS
 62
               7
100
AcDbLine
 10
9.00000000000108
 20
123.75000000000024
 30
0.0
 11
-8.9999999999988063
 21
123.75000000000024
 31
0.0
  0
LINE
  5
110
100
AcDbEntity
  8
0
  6
CONTINUOUS
 62
               7
100
AcDbLine
 10
9.00000000000108
 20
85.750000000000242
 30
0.0
 11
-8.9999999999988063
 21
85.750000000000242
 31
0.0
  0
LINE
  5
111
100
AcDbEntity
  8
0
  6
CONTINUOUS
 62
               7
100
AcDbLine
 10
9.00000000000108
 20
94.250000000000242
 30
0.0
 11
-8.9999999999988063
 21
94.250000000000242
 31
0.0
  0
LINE
  5
112
100
AcDbEntity
  8
0
  6
CONTINUOUS
 62
               7
100
AcDbLine
 10
9.00000000000108
 20
85.750000000000242
 30
0.0
 11
9.00000000000108
 21
94.250000000000242
 31
0.0
  0
LINE
  5
113
100
AcDbEntity
  8
0
  6
CONTINUOUS
 62
               7
100
AcDbLine
 10
-8.9999999999988063
 20
94.250000000000242
 30
0.0
 11
-8.9999999999988063
 21
85.750000000000242
 31
0.0
  0
LINE
  5
114
100
AcDbEntity
  8
0
  6
CONTINUOUS
 62
               7
100
AcDbLine
 10
-8.9999999999988063
 20
103.75000000000024
 30
0.0
 11
-8.9999999999988063
 21
95.250000000000242
 31
0.0
  0
LINE
  5
115
100
AcDbEntity
  8
0
  6
CONTINUOUS
 62
               7
100
AcDbLine
 10
9.00000000000108
 20
95.250000000000242
 30
0.0
 11
9.00000000000108
 21
103.75000000000024
 31
0.0
  0
LINE
  5
116
100
AcDbEntity
  8
0
  6
CONTINUOUS
 62
               7
100
AcDbLine
 10
9.00000000000108
 20
103.75000000000024
 30
0.0
 11
-8.9999999999988063
 21
103.75000000000024
 31
0.0
  0
LINE
  5
117
100
AcDbEntity
  8
0
  6
CONTINUOUS
 62
               7
100
AcDbLine
 10
9.00000000000108
 20
95.250000000000242
 30
0.0
 11
-8.9999999999988063
 21
95.250000000000242
 31
0.0
  0
LINE
  5
118
100
AcDbEntity
  8
0
  6
CONTINUOUS
 62
               7
100
AcDbLine
 10
9.00000000000108
 20
76.250000000000242
 30
0.0
 11
-8.9999999999988063
 21
76.250000000000242
 31
0.0
  0
LINE
  5
119
100
AcDbEntity
  8
0
  6
CONTINUOUS
 62
               7
100
AcDbLine
 10
9.00000000000108
 20
84.750000000000242
 30
0.0
 11
-8.9999999999988063
 21
84.750000000000242
 31
0.0
  0
LINE
  5
11A
100
AcDbEntity
  8
0
  6
CONTINUOUS
 62
               7
100
AcDbLine
 10
9.00000000000108
 20
76.250000000000242
 30
0.0
 11
9.00000000000108
 21
84.750000000000242
 31
0.0
  0
LINE
  5
11B
100
AcDbEntity
  8
0
  6
CONTINUOUS
 62
               7
100
AcDbLine
 10
-8.9999999999988063
 20
84.750000000000242
 30
0.0
 11
-8.9999999999988063
 21
76.250000000000242
 31
0.0
  0
LINE
  5
11C
100
AcDbEntity
  8
0
  6
CONTINUOUS
 62
               7
100
AcDbLine
 10
-8.9999999999988063
 20
75.250000000000242
 30
0.0
 11
-8.9999999999988063
 21
66.750000000000242
 31
0.0
  0
LINE
  5
11D
100
AcDbEntity
  8
0
  6
CONTINUOUS
 62
               7
100
AcDbLine
 10
9.00000000000108
 20
66.750000000000242
 30
0.0
 11
9.00000000000108
 21
75.250000000000242
 31
0.0
  0
LINE
  5
11E
100
AcDbEntity
  8
0
  6
CONTINUOUS
 62
               7
100
AcDbLine
 10
9.00000000000108
 20
75.250000000000242
 30
0.0
 11
-8.9999999999988063
 21
75.250000000000242
 31
0.0
  0
LINE
  5
11F
100
AcDbEntity
  8
0
  6
CONTINUOUS
 62
               7
100
AcDbLine
 10
9.00000000000108
 20
66.750000000000242
 30
0.0
 11
-8.9999999999988063
 21
66.750000000000242
 31
0.0
  0
LINE
  5
120
100
AcDbEntity
  8
0
  6
CONTINUOUS
 62
               7
100
AcDbLine
 10
9.00000000000108
 20
65.750000000000242
 30
0.0
 11
-8.9999999999988063
 21
65.750000000000242
 31
0.0
  0
LINE
  5
121
100
AcDbEntity
  8
0
  6
CONTINUOUS
 62
               7
100
AcDbLine
 10
9.00000000000108
 20
57.250000000000242
 30
0.0
 11
9.00000000000108
 21
65.750000000000242
 31
0.0
  0
LINE
  5
122
100
AcDbEntity
  8
0
  6
CONTINUOUS
 62
               7
100
AcDbLine
 10
-8.9999999999988063
 20
57.250000000000242
 30
0.0
 11
9.00000000000108
 21
57.250000000000242
 31
0.0
  0
LINE
  5
123
100
AcDbEntity
  8
0
  6
CONTINUOUS
 62
               7
100
AcDbLine
 10
-8.9999999999988063
 20
65.750000000000242
 30
0.0
 11
-8.9999999999988063
 21
57.250000000000242
 31
0.0
  0
LINE
  5
124
100
AcDbEntity
  8
0
  6
CONTINUOUS
 62
               7
100
AcDbLine
 10
29.000000000000881
 20
65.750000000000242
 30
0.0
 11
29.000000000000881
 21
63.923190379189819
 31
0.0
  0
LINE
  5
125
100
AcDbEntity
  8
0
  6
CONTINUOUS
 62
               7
100
AcDbLine
 10
28.000000000000881
 20
57.250000000000242
 30
0.0
 11
28.000000000000881
 21
60.738250223201121
 31
0.0
  0
LINE
  5
126
100
AcDbEntity
  8
0
  6
CONTINUOUS
 62
               7
100
AcDbLine
 10
-28.999999999998863
 20
57.250000000000242
 30
0.0
 11
-28.999999999998863
 21
61.728990113545834
 31
0.0
  0
LINE
  5
127
100
AcDbEntity
  8
0
  6
CONTINUOUS
 62
               7
100
AcDbLine
 10
-27.999999999998806
 20
65.750000000000242
 30
0.0
 11
-27.999999999998806
 21
62.852256079003539
 31
0.0
  0
LINE
  5
128
100
AcDbEntity
  8
0
  6
CONTINUOUS
 62
               7
100
AcDbLine
 10
-28.999999999998863
 20
66.750000000000242
 30
0.0
 11
-28.999999999998863
 21
75.250000000000242
 31
0.0
  0
LINE
  5
129
100
AcDbEntity
  8
0
  6
CONTINUOUS
 62
               7
100
AcDbLine
 10
-28.999999999998863
 20
76.250000000000242
 30
0.0
 11
-28.999999999998863
 21
84.750000000000242
 31
0.0
  0
LINE
  5
12A
100
AcDbEntity
  8
0
  6
CONTINUOUS
 62
               7
100
AcDbLine
 10
-28.999999999998863
 20
95.250000000000242
 30
0.0
 11
-28.999999999998863
 21
103.75000000000024
 31
0.0
  0
LINE
  5
12B
100
AcDbEntity
  8
0
  6
CONTINUOUS
 62
               7
100
AcDbLine
 10
-28.999999999998863
 20
85.750000000000242
 30
0.0
 11
-28.999999999998863
 21
94.250000000000242
 31
0.0
  0
LINE
  5
12C
100
AcDbEntity
  8
0
  6
CONTINUOUS
 62
               7
100
AcDbLine
 10
-28.999999999998863
 20
114.25000000000024
 30
0.0
 11
-28.999999999998863
 21
116.07680962081083
 31
0.0
  0
LINE
  5
12D
100
AcDbEntity
  8
0
  6
CONTINUOUS
 62
               7
100
AcDbLine
 10
-28.999999999998863
 20
104.75000000000024
 30
0.0
 11
-28.999999999998863
 21
113.25000000000024
 31
0.0
  0
LINE
  5
12E
100
AcDbEntity
  8
0
  6
CONTINUOUS
 62
               7
100
AcDbLine
 10
-27.999999999998806
 20
113.25000000000024
 30
0.0
 11
-27.999999999998806
 21
104.75000000000024
 31
0.0
  0
LINE
  5
12F
100
AcDbEntity
  8
0
  6
CONTINUOUS
 62
               7
100
AcDbLine
 10
-27.999999999998806
 20
122.75000000000024
 30
0.0
 11
-27.999999999998806
 21
119.26174977679902
 31
0.0
  0
LINE
  5
130
100
AcDbEntity
  8
0
  6
CONTINUOUS
 62
               7
100
AcDbLine
 10
-27.999999999998806
 20
94.250000000000242
 30
0.0
 11
-27.999999999998806
 21
85.750000000000242
 31
0.0
  0
LINE
  5
131
100
AcDbEntity
  8
0
  6
CONTINUOUS
 62
               7
100
AcDbLine
 10
-27.999999999998806
 20
103.75000000000024
 30
0.0
 11
-27.999999999998806
 21
95.250000000000242
 31
0.0
  0
LINE
  5
132
100
AcDbEntity
  8
0
  6
CONTINUOUS
 62
               7
100
AcDbLine
 10
-27.999999999998806
 20
84.750000000000242
 30
0.0
 11
-27.999999999998806
 21
76.250000000000242
 31
0.0
  0
LINE
  5
133
100
AcDbEntity
  8
0
  6
CONTINUOUS
 62
               7
100
AcDbLine
 10
-27.999999999998806
 20
75.250000000000242
 30
0.0
 11
-27.999999999998806
 21
66.750000000000242
 31
0.0
  0
LINE
  5
134
100
AcDbEntity
  8
0
  6
CONTINUOUS
 62
               7
100
AcDbLine
 10
29.000000000000881
 20
113.25000000000024
 30
0.0
 11
29.000000000000881
 21
104.75000000000024
 31
0.0
  0
LINE
  5
135
100
AcDbEntity
  8
0
  6
CONTINUOUS
 62
               7
100
AcDbLine
 10
29.000000000000881
 20
122.75000000000024
 30
0.0
 11
29.000000000000881
 21
118.27100988645434
 31
0.0
  0
LINE
  5
136
100
AcDbEntity
  8
0
  6
CONTINUOUS
 62
               7
100
AcDbLine
 10
29.000000000000881
 20
94.250000000000242
 30
0.0
 11
29.000000000000881
 21
85.750000000000242
 31
0.0
  0
LINE
  5
137
100
AcDbEntity
  8
0
  6
CONTINUOUS
 62
               7
100
AcDbLine
 10
29.000000000000881
 20
103.75000000000024
 30
0.0
 11
29.000000000000881
 21
95.250000000000242
 31
0.0
  0
LINE
  5
138
100
AcDbEntity
  8
0
  6
CONTINUOUS
 62
               7
100
AcDbLine
 10
29.000000000000881
 20
84.750000000000242
 30
0.0
 11
29.000000000000881
 21
76.250000000000242
 31
0.0
  0
LINE
  5
139
100
AcDbEntity
  8
0
  6
CONTINUOUS
 62
               7
100
AcDbLine
 10
29.000000000000881
 20
75.250000000000242
 30
0.0
 11
29.000000000000881
 21
66.750000000000242
 31
0.0
  0
LINE
  5
13A
100
AcDbEntity
  8
0
  6
CONTINUOUS
 62
               7
100
AcDbLine
 10
28.000000000000881
 20
66.750000000000242
 30
0.0
 11
28.000000000000881
 21
75.250000000000242
 31
0.0
  0
LINE
  5
13B
100
AcDbEntity
  8
0
  6
CONTINUOUS
 62
               7
100
AcDbLine
 10
28.000000000000881
 20
76.250000000000242
 30
0.0
 11
28.000000000000881
 21
84.750000000000242
 31
0.0
  0
LINE
  5
13C
100
AcDbEntity
  8
0
  6
CONTINUOUS
 62
               7
100
AcDbLine
 10
28.000000000000881
 20
95.250000000000242
 30
0.0
 11
28.000000000000881
 21
103.75000000000024
 31
0.0
  0
LINE
  5
13D
100
AcDbEntity
  8
0
  6
CONTINUOUS
 62
               7
100
AcDbLine
 10
28.000000000000881
 20
85.750000000000242
 30
0.0
 11
28.000000000000881
 21
94.250000000000242
 31
0.0
  0
LINE
  5
13E
100
AcDbEntity
  8
0
  6
CONTINUOUS
 62
               7
100
AcDbLine
 10
28.000000000000881
 20
114.25000000000024
 30
0.0
 11
28.000000000000881
 21
117.14774392099672
 31
0.0
  0
LINE
  5
13F
100
AcDbEntity
  8
0
  6
CONTINUOUS
 62
               7
100
AcDbLine
 10
28.000000000000881
 20
104.75000000000024
 30
0.0
 11
28.000000000000881
 21
113.25000000000024
 31
0.0
  0
ARC
  5
140
100
AcDbEntity
  8
0
  6
CONTINUOUS
 62
               7
100
AcDbCircle
 10
0.00000000000108
 20
90.000000000000242
 30
0.0
 40
39.0
100
AcDbArc
 50
104.8571655449262
 51
120.0733476449774
  0
ARC
  5
141
100
AcDbEntity
  8
0
  6
CONTINUOUS
 62
               7
100
AcDbCircle
 10
0.00000000000108
 20
90.000000000000242
 30
0.0
 40
40.499999999999993
100
AcDbArc
 50
104.29494862142271
 51
123.557309761922
  0
ARC
  5
142
100
AcDbEntity
  8
0
  6
CONTINUOUS
 62
               7
100
AcDbCircle
 10
-8.7499999999999147
 20
133.75
 30
0.0
 40
1.25
100
AcDbArc
 50
90.0
 51
270.0
  0
ARC
  5
143
100
AcDbEntity
  8
0
  6
CONTINUOUS
 62
               7
100
AcDbCircle
 10
8.7499999999997726
 20
133.75
 30
0.0
 40
1.25
100
AcDbArc
 50
270.0
 51
90.0
  0
LINE
  5
144
100
AcDbEntity
  8
0
  6
CONTINUOUS
 62
               7
100
AcDbLine
 10
-8.7499999999999147
 20
132.5
 30
0.0
 11
8.7499999999997726
 21
132.5
 31
0.0
  0
LINE
  5
145
100
AcDbEntity
  8
0
  6
CONTINUOUS
 62
               7
100
AcDbLine
 10
21.749999999999773
 20
37.750000000000014
 30
0.0
 11
31.249999999999773
 21
37.750000000000014
 31
0.0
  0
LINE
  5
146
100
AcDbEntity
  8
0
  6
CONTINUOUS
 62
               7
100
AcDbLine
 10
31.249999999999773
 20
37.750000000000014
 30
0.0
 11
31.249999999999773
 21
28.250000000000014
 31
0.0
  0
LINE
  5
147
100
AcDbEntity
  8
0
  6
CONTINUOUS
 62
               7
100
AcDbLine
 10
31.249999999999773
 20
28.250000000000014
 30
0.0
 11
21.749999999999773
 21
28.250000000000014
 31
0.0
  0
LINE
  5
148
100
AcDbEntity
  8
0
  6
CONTINUOUS
 62
               7
100
AcDbLine
 10
21.749999999999773
 20
28.250000000000014
 30
0.0
 11
21.749999999999773
 21
37.750000000000014
 31
0.0
  0
CIRCLE
  5
149
100
AcDbEntity
  8
0
  6
CONTINUOUS
 62
               7
100
AcDbCircle
 10
-5.0000000000002274
 20
27.169999999999831
 30
0.0
 40
1.75
  0
CIRCLE
  5
14A
100
AcDbEntity
  8
0
  6
CONTINUOUS
 62
               7
100
AcDbCircle
 10
4.9999999999997726
 20
27.169999999999831
 30
0.0
 40
1.75
  0
LINE
  5
14B
100
AcDbEntity
  8
0
  6
CONTINUOUS
 62
               7
100
AcDbLine
 10
-50.000000000000171
 20
15.000000000000014
 30
0.0
 11
-49.999999999999943
 21
135.0
 31
0.0
  0
LINE
  5
14C
100
AcDbEntity
  8
0
  6
CONTINUOUS
 62
               7
100
AcDbLine
 10
49.999999999999773
 20
15.000000000000014
 30
0.0
 11
-50.000000000000171
 21
15.000000000000014
 31
0.0
  0
LINE
  5
14D
100
AcDbEntity
  8
0
  6
CONTINUOUS
 62
               7
100
AcDbLine
 10
50.0
 20
135.0
 30
0.0
 11
49.999999999999773
 21
15.000000000000014
 31
0.0
  0
LINE
  5
14E
100
AcDbEntity
  8
0
  6
CONTINUOUS
 62
               7
100
AcDbLine
 10
-49.999999999999943
 20
135.0
 30
0.0
 11
50.0
 21
135.0
 31
0.0
  0
LINE
  5
14F
100
AcDbEntity
  8
0
  6
CONTINUOUS
 62
               7
100
AcDbLine
 10
30.94406692620629
 20
37.419999999999831
 30
0.0
 11
30.94406692620629
 21
28.519999999999825
 31
0.0
  0
LINE
  5
150
100
AcDbEntity
  8
0
  6
CONTINUOUS
 62
               7
100
AcDbLine
 10
30.94406692620629
 20
28.519999999999825
 30
0.0
 11
22.044066926206398
 21
28.519999999999825
 31
0.0
  0
LINE
  5
151
100
AcDbEntity
  8
0
  6
CONTINUOUS
 62
               7
100
AcDbLine
 10
22.044066926206398
 20
28.519999999999825
 30
0.0
 11
22.044066926206398
 21
37.419999999999831
 31
0.0
  0
LINE
  5
152
100
AcDbEntity
  8
0
  6
CONTINUOUS
 62
               7
100
AcDbLine
 10
22.044066926206398
 20
37.419999999999831
 30
0.0
 11
30.94406692620629
 21
37.419999999999831
 31
0.0
  0
CIRCLE
  5
153
100
AcDbEntity
  8
0
  6
CONTINUOUS
 62
               7
100
AcDbCircle
 10
4.9999999999997726
 20
27.169999999999831
 30
0.0
 40
1.5
  0
CIRCLE
  5
154
100
AcDbEntity
  8
0
  6
CONTINUOUS
 62
               7
100
AcDbCircle
 10
-5.0000000000002274
 20
27.169999999999831
 30
0.0
 40
1.5
  0
ARC
  5
155
100
AcDbEntity
  8
0
  6
CONTINUOUS
 62
               7
100
AcDbCircle
 10
-22.250000000000227
 20
30.570000000000036
 30
0.0
 40
10.5
100
AcDbArc
 50
0.0
 51
65.917610348444938
  0
ARC
  5
156
100
AcDbEntity
  8
0
  6
CONTINUOUS
 62
               7
100
AcDbCircle
 10
-23.500000000000227
 20
30.570000000000036
 30
0.0
 40
9.25
100
AcDbArc
 50
0.0
 51
59.999999999999972
  0
LINE
  5
157
100
AcDbEntity
  8
0
  6
CONTINUOUS
 62
               7
100
AcDbLine
 10
-14.250000000000227
 20
30.570000000000036
 30
0.0
 11
-11.750000000000227
 21
30.570000000000036
 31
0.0
  0
CIRCLE
  5
158
100
AcDbEntity
  8
0
  6
CONTINUOUS
 62
               7
100
AcDbCircle
 10
-23.500000000000227
 20
30.570000000000036
 30
0.0
 40
6.25
  0
CIRCLE
  5
159
100
AcDbEntity
  8
0
  6
CONTINUOUS
 62
               7
100
AcDbCircle
 10
-23.500000000000227
 20
30.570000000000036
 30
0.0
 40
6.75
  0
CIRCLE
  5
15A
100
AcDbEntity
  8
0
  6
CONTINUOUS
 62
               7
100
AcDbCircle
 10
-23.500000000000227
 20
30.570000000000036
 30
0.0
 40
7.0
  0
LINE
  5
15B
100
AcDbEntity
  8
0
  6
CONTINUOUS
 62
               7
100
AcDbLine
 10
-18.875000000000227
 20
38.580734985005918
 30
0.0
 11
-17.965476326173928
 21
40.156076198759322
 31
0.0
  0
CIRCLE
  5
15C
100
AcDbEntity
  8
0
  6
CONTINUOUS
 62
               7
100
AcDbCircle
 10
-27.570807654440841
 20
27.889350483855637
 30
0.0
 40
0.6409174099044322
  0
LINE
  5
15D
100
AcDbEntity
  8
0
  6
CONTINUOUS
 62
               7
100
AcDbLine
 10
-28.125000000000171
 20
38.580734985005918
 30
0.0
 11
-28.409523673826129
 21
39.073544444028826
 31
0.0
  0
ARC
  5
15E
100
AcDbEntity
  8
0
  6
CONTINUOUS
 62
               7
100
AcDbCircle
 10
-23.500000000000227
 20
30.570000000000036
 30
0.0
 40
9.25
100
AcDbArc
 50
119.99999999999999
 51
180.0
  0
ARC
  5
15F
100
AcDbEntity
  8
0
  6
CONTINUOUS
 62
               7
100
AcDbCircle
 10
-22.250000000000227
 20
30.570000000000036
 30
0.0
 40
10.5
100
AcDbArc
 50
125.91761034844401
 51
180.0
  0
LINE
  5
160
100
AcDbEntity
  8
0
  6
CONTINUOUS
 62
               2
100
AcDbLine
 10
-30.000000000000171
 20
-6.5039620956463722
 30
0.0
 11
-30.000000000000171
 21
8.9039620956464347
 31
0.0
  0
LINE
  5
162
100
AcDbEntity
  8
0
  6
HIDDEN
 62
               7
100
AcDbLine
 10
-27.750000000000171
 20
0.0000000000000142
 30
0.0
 11
-27.750000000000171
 21
1.2000000000000313
 31
0.0
  0
LINE
  5
163
100
AcDbEntity
  8
0
  6
HIDDEN
 62
               7
100
AcDbLine
 10
2.2499999999997726
 20
1.2000000000000313
 30
0.0
 11
2.2499999999997726
 21
0.0000000000000142
 31
0.0
  0
LINE
  5
164
100
AcDbEntity
  8
0
  6
HIDDEN
 62
               7
100
AcDbLine
 10
32.249999999999773
 20
0.0000000000000142
 30
0.0
 11
32.249999999999773
 21
1.2000000000000313
 31
0.0
  0
LINE
  5
165
100
AcDbEntity
  8
0
  6
HIDDEN
 62
               7
100
AcDbLine
 10
-2.2500000000002274
 20
1.2000000000000313
 30
0.0
 11
-2.2500000000002274
 21
0.0000000000000142
 31
0.0
  0
LINE
  5
166
100
AcDbEntity
  8
0
  6
HIDDEN
 62
               7
100
AcDbLine
 10
-32.250000000000171
 20
0.0000000000000142
 30
0.0
 11
-32.250000000000171
 21
1.2000000000000313
 31
0.0
  0
LINE
  5
167
100
AcDbEntity
  8
0
  6
HIDDEN
 62
               7
100
AcDbLine
 10
27.749999999999773
 20
0.0000000000000142
 30
0.0
 11
27.749999999999773
 21
1.2000000000000313
 31
0.0
  0
LINE
  5
168
100
AcDbEntity
  8
0
  6
CONTINUOUS
 62
               2
100
AcDbLine
 10
29.999999999999773
 20
-6.5039620956463722
 30
0.0
 11
29.999999999999773
 21
8.9039620956464347
 31
0.0
  0
LINE
  5
169
100
AcDbEntity
  8
0
  6
CONTINUOUS
 62
               2
100
AcDbLine
 10
68.218403884379086
 20
85.000000000000014
 30
0.0
 11
44.837140088917181
 21
85.000000000000014
 31
0.0
  0
LINE
  5
16B
100
AcDbEntity
  8
0
  6
PHANTOM
 62
               2
100
AcDbLine
 10
52.799999999999898
 20
20.399999999999935
 30
0.0
 11
53.999999999999773
 21
20.399999999999935
 31
0.0
  0
LINE
  5
16C
100
AcDbEntity
  8
0
  6
PHANTOM
 62
               2
100
AcDbLine
 10
-54.000000000000171
 20
20.399999999999935
 30
0.0
 11
-52.800000000000068
 21
20.399999999999935
 31
0.0
  0
LINE
  5
16D
100
AcDbEntity
  8
0
  6
PHANTOM
 62
               2
100
AcDbLine
 10
52.799999999999585
 20
82.400000000000219
 30
0.0
 11
53.999999999999773
 21
82.400000000000219
 31
0.0
  0
LINE
  5
16E
100
AcDbEntity
  8
0
  6
PHANTOM
 62
               2
100
AcDbLine
 10
52.799999999999585
 20
87.600000000000037
 30
0.0
 11
53.999999999999773
 21
87.600000000000037
 31
0.0
  0
LINE
  5
16F
100
AcDbEntity
  8
0
  6
PHANTOM
 62
               2
100
AcDbLine
 10
-54.000000000000171
 20
82.400000000000219
 30
0.0
 11
-52.800000000000068
 21
82.400000000000219
 31
0.0
  0
LINE
  5
170
100
AcDbEntity
  8
0
  6
PHANTOM
 62
               2
100
AcDbLine
 10
-54.000000000000171
 20
87.600000000000037
 30
0.0
 11
-52.800000000000068
 21
87.600000000000037
 31
0.0
  0
LINE
  5
171
100
AcDbEntity
  8
0
  6
PHANTOM
 62
               2
100
AcDbLine
 10
53.999999999999773
 20
95.000000000000014
 30
0.0
 11
52.799999999999585
 21
95.000000000000014
 31
0.0
  0
LINE
  5
172
100
AcDbEntity
  8
0
  6
PHANTOM
 62
               2
100
AcDbLine
 10
-54.000000000000171
 20
95.000000000000014
 30
0.0
 11
-52.800000000000068
 21
95.000000000000014
 31
0.0
  0
LINE
  5
173
100
AcDbEntity
  8
0
  6
PHANTOM
 62
               2
100
AcDbLine
 10
-54.000000000000171
 20
0.0000000000000142
 30
0.0
 11
-54.000000000000171
 21
95.000000000000014
 31
0.0
  0
LINE
  5
174
100
AcDbEntity
  8
0
  6
PHANTOM
 62
               2
100
AcDbLine
 10
-52.800000000000068
 20
1.2000000000000313
 30
0.0
 11
52.799999999999898
 21
1.2000000000000313
 31
0.0
  0
LINE
  5
175
100
AcDbEntity
  8
0
  6
CONTINUOUS
 62
               2
100
AcDbLine
 10
-69.308406993286383
 20
85.000000000000014
 30
0.0
 11
-44.837140088917579
 21
85.000000000000014
 31
0.0
  0
LINE
  5
176
100
AcDbEntity
  8
0
  6
PHANTOM
 62
               2
100
AcDbLine
 10
-54.000000000000171
 20
0.0000000000000142
 30
0.0
 11
53.999999999999773
 21
0.0000000000000142
 31
0.0
  0
LINE
  5
177
100
AcDbEntity
  8
0
  6
PHANTOM
 62
               2
100
AcDbLine
 10
52.799999999999585
 20
95.000000000000242
 30
0.0
 11
52.799999999999912
 21
1.2000000000000313
 31
0.0
  0
LINE
  5
178
100
AcDbEntity
  8
0
  6
PHANTOM
 62
               2
100
AcDbLine
 10
53.999999999999773
 20
0.0000000000000142
 30
0.0
 11
53.999999999999773
 21
95.000000000000014
 31
0.0
  0
LINE
  5
179
100
AcDbEntity
  8
0
  6
PHANTOM
 62
               2
100
AcDbLine
 10
65.199999999999989
 20
92.500000000000014
 30
0.0
 11
65.199999999999989
 21
77.500000000000014
 31
0.0
  0
LINE
  5
17A
100
AcDbEntity
  8
0
  6
PHANTOM
 62
               2
100
AcDbLine
 10
56.499999999999687
 20
77.000000000000014
 30
0.0
 11
64.700000000000188
 21
77.000000000000014
 31
0.0
  0
LINE
  5
17B
100
AcDbEntity
  8
0
  6
PHANTOM
 62
               2
100
AcDbLine
 10
65.499999999999773
 20
78.000000000000014
 30
0.0
 11
65.199999999999989
 21
78.000000000000014
 31
0.0
  0
ARC
  5
17C
100
AcDbEntity
  8
0
  6
PHANTOM
 62
               2
100
AcDbCircle
 10
65.5
 20
78.500000000000014
 30
0.0
 40
0.5
100
AcDbArc
 50
270.0
 51
0.0
  0
ARC
  5
17D
100
AcDbEntity
  8
0
  6
PHANTOM
 62
               2
100
AcDbCircle
 10
64.700000000000188
 20
77.500000000000014
 30
0.0
 40
0.5
100
AcDbArc
 50
270.0
 51
0.0
  0
ARC
  5
17E
100
AcDbEntity
  8
0
  6
PHANTOM
 62
               2
100
AcDbCircle
 10
58.070954845342385
 20
79.000000000000014
 30
0.0
 40
0.4
100
AcDbArc
 50
90.0
 51
270.0
  0
LINE
  5
17F
100
AcDbEntity
  8
0
  6
PHANTOM
 62
               2
100
AcDbLine
 10
65.199999999999989
 20
79.40000000000002
 30
0.0
 11
58.070954845342186
 21
79.40000000000002
 31
0.0
  0
LINE
  5
180
100
AcDbEntity
  8
0
  6
PHANTOM
 62
               2
100
AcDbLine
 10
65.199999999999989
 20
78.600000000000037
 30
0.0
 11
58.070954845342186
 21
78.600000000000037
 31
0.0
  0
ARC
  5
181
100
AcDbEntity
  8
0
  6
PHANTOM
 62
               2
100
AcDbCircle
 10
58.070954845342385
 20
91.000000000000014
 30
0.0
 40
0.4
100
AcDbArc
 50
90.0
 51
270.0
  0
LINE
  5
182
100
AcDbEntity
  8
0
  6
PHANTOM
 62
               2
100
AcDbLine
 10
65.199999999999989
 20
91.400000000000219
 30
0.0
 11
58.070954845342186
 21
91.400000000000219
 31
0.0
  0
LINE
  5
183
100
AcDbEntity
  8
0
  6
PHANTOM
 62
               2
100
AcDbLine
 10
65.199999999999989
 20
90.600000000000037
 30
0.0
 11
58.070954845342186
 21
90.600000000000037
 31
0.0
  0
LINE
  5
184
100
AcDbEntity
  8
0
  6
PHANTOM
 62
               2
100
AcDbLine
 10
65.199999999999989
 20
81.600000000000037
 30
0.0
 11
58.070954845342186
 21
81.600000000000037
 31
0.0
  0
LINE
  5
185
100
AcDbEntity
  8
0
  6
PHANTOM
 62
               2
100
AcDbLine
 10
65.199999999999989
 20
82.400000000000219
 30
0.0
 11
58.070954845342186
 21
82.400000000000219
 31
0.0
  0
ARC
  5
186
100
AcDbEntity
  8
0
  6
PHANTOM
 62
               2
100
AcDbCircle
 10
58.070954845342385
 20
82.000000000000014
 30
0.0
 40
0.4
100
AcDbArc
 50
90.0
 51
270.0
  0
LINE
  5
187
100
AcDbEntity
  8
0
  6
PHANTOM
 62
               2
100
AcDbLine
 10
65.199999999999989
 20
87.600000000000037
 30
0.0
 11
58.070954845342186
 21
87.600000000000037
 31
0.0
  0
LINE
  5
188
100
AcDbEntity
  8
0
  6
PHANTOM
 62
               2
100
AcDbLine
 10
65.199999999999989
 20
88.40000000000002
 30
0.0
 11
58.070954845342186
 21
88.40000000000002
 31
0.0
  0
ARC
  5
189
100
AcDbEntity
  8
0
  6
PHANTOM
 62
               2
100
AcDbCircle
 10
58.070954845342385
 20
88.000000000000014
 30
0.0
 40
0.4
100
AcDbArc
 50
90.0
 51
270.0
  0
ARC
  5
18A
100
AcDbEntity
  8
0
  6
PHANTOM
 62
               2
100
AcDbCircle
 10
58.070954845342385
 20
85.000000000000014
 30
0.0
 40
0.4
100
AcDbArc
 50
90.0
 51
270.0
  0
LINE
  5
18B
100
AcDbEntity
  8
0
  6
PHANTOM
 62
               2
100
AcDbLine
 10
65.199999999999989
 20
85.400000000000219
 30
0.0
 11
58.070954845342186
 21
85.400000000000219
 31
0.0
  0
LINE
  5
18C
100
AcDbEntity
  8
0
  6
PHANTOM
 62
               2
100
AcDbLine
 10
65.199999999999989
 20
84.600000000000122
 30
0.0
 11
58.070954845342186
 21
84.600000000000122
 31
0.0
  0
ARC
  5
18D
100
AcDbEntity
  8
0
  6
PHANTOM
 62
               2
100
AcDbCircle
 10
56.5
 20
92.500000000000014
 30
0.0
 40
0.5
100
AcDbArc
 50
90.0
 51
180.0
  0
ARC
  5
18E
100
AcDbEntity
  8
0
  6
PHANTOM
 62
               2
100
AcDbCircle
 10
56.5
 20
77.500000000000014
 30
0.0
 40
0.5
100
AcDbArc
 50
180.0
 51
270.0
  0
ARC
  5
18F
100
AcDbEntity
  8
0
  6
PHANTOM
 62
               2
100
AcDbCircle
 10
64.700000000000188
 20
92.500000000000014
 30
0.0
 40
0.5
100
AcDbArc
 50
0.0
 51
90.0
  0
ARC
  5
190
100
AcDbEntity
  8
0
  6
PHANTOM
 62
               2
100
AcDbCircle
 10
65.5
 20
91.500000000000014
 30
0.0
 40
0.5
100
AcDbArc
 50
0.0
 51
90.0
  0
LINE
  5
191
100
AcDbEntity
  8
0
  6
PHANTOM
 62
               2
100
AcDbLine
 10
65.499999999999773
 20
92.000000000000014
 30
0.0
 11
65.199999999999989
 21
92.000000000000014
 31
0.0
  0
LINE
  5
192
100
AcDbEntity
  8
0
  6
PHANTOM
 62
               2
100
AcDbLine
 10
56.499999999999687
 20
93.000000000000014
 30
0.0
 11
64.700000000000188
 21
93.000000000000014
 31
0.0
  0
LINE
  5
193
100
AcDbEntity
  8
0
  6
PHANTOM
 62
               2
100
AcDbLine
 10
54.299999999999983
 20
79.500000000000014
 30
0.0
 11
55.999999999999773
 21
79.500000000000014
 31
0.0
  0
LINE
  5
194
100
AcDbEntity
  8
0
  6
PHANTOM
 62
               2
100
AcDbLine
 10
54.299999999999983
 20
90.500000000000014
 30
0.0
 11
55.999999999999773
 21
90.500000000000014
 31
0.0
  0
LINE
  5
195
100
AcDbEntity
  8
0
  6
PHANTOM
 62
               2
100
AcDbLine
 10
53.999999999999773
 20
80.500000000000014
 30
0.0
 11
54.299999999999983
 21
80.500000000000014
 31
0.0
  0
LINE
  5
196
100
AcDbEntity
  8
0
  6
PHANTOM
 62
               2
100
AcDbLine
 10
53.999999999999773
 20
89.500000000000014
 30
0.0
 11
54.299999999999983
 21
89.500000000000014
 31
0.0
  0
LINE
  5
197
100
AcDbEntity
  8
0
  6
PHANTOM
 62
               2
100
AcDbLine
 10
55.999999999999773
 20
92.500000000000014
 30
0.0
 11
55.999999999999773
 21
77.500000000000014
 31
0.0
  0
LINE
  5
198
100
AcDbEntity
  8
0
  6
PHANTOM
 62
               2
100
AcDbLine
 10
54.299999999999983
 20
90.500000000000014
 30
0.0
 11
54.299999999999983
 21
79.500000000000014
 31
0.0
  0
LINE
  5
199
100
AcDbEntity
  8
0
  6
PHANTOM
 62
               2
100
AcDbLine
 10
65.999999999999773
 20
91.500000000000014
 30
0.0
 11
65.999999999999773
 21
78.500000000000014
 31
0.0
  0
LINE
  5
19A
100
AcDbEntity
  8
0
  6
PHANTOM
 62
               2
100
AcDbLine
 10
52.799999999999898
 20
77.500000000000014
 30
0.0
 11
49.999999999999773
 21
77.500000000000014
 31
0.0
  0
LINE
  5
19B
100
AcDbEntity
  8
0
  6
PHANTOM
 62
               2
100
AcDbLine
 10
49.999999999999773
 20
92.500000000000014
 30
0.0
 11
52.799999999999898
 21
92.500000000000014
 31
0.0
  0
LINE
  5
19C
100
AcDbEntity
  8
0
  6
PHANTOM
 62
               2
100
AcDbLine
 10
-65.999999999999886
 20
91.499999999999815
 30
0.0
 11
-65.999999999999886
 21
78.499999999999815
 31
0.0
  0
LINE
  5
19D
100
AcDbEntity
  8
0
  6
PHANTOM
 62
               2
100
AcDbLine
 10
-54.299999999999955
 20
90.500000000000014
 30
0.0
 11
-54.299999999999955
 21
79.500000000000014
 31
0.0
  0
LINE
  5
19E
100
AcDbEntity
  8
0
  6
PHANTOM
 62
               2
100
AcDbLine
 10
-55.999999999999716
 20
92.500000000000014
 30
0.0
 11
-55.999999999999716
 21
77.500000000000014
 31
0.0
  0
LINE
  5
19F
100
AcDbEntity
  8
0
  6
PHANTOM
 62
               2
100
AcDbLine
 10
-53.999999999999716
 20
89.500000000000014
 30
0.0
 11
-54.299999999999955
 21
89.500000000000014
 31
0.0
  0
LINE
  5
1A0
100
AcDbEntity
  8
0
  6
PHANTOM
 62
               2
100
AcDbLine
 10
-54.299999999999955
 20
90.500000000000014
 30
0.0
 11
-55.999999999999716
 21
90.500000000000014
 31
0.0
  0
LINE
  5
1A1
100
AcDbEntity
  8
0
  6
PHANTOM
 62
               2
100
AcDbLine
 10
-56.499999999999716
 20
93.000000000000014
 30
0.0
 11
-64.699999999999989
 21
93.000000000000014
 31
0.0
  0
LINE
  5
1A2
100
AcDbEntity
  8
0
  6
PHANTOM
 62
               2
100
AcDbLine
 10
-65.499999999999716
 20
91.999999999999815
 30
0.0
 11
-65.199999999999989
 21
91.999999999999815
 31
0.0
  0
ARC
  5
1A3
100
AcDbEntity
  8
0
  6
PHANTOM
 62
               2
100
AcDbCircle
 10
-65.499999999999943
 20
91.499999999999815
 30
0.0
 40
0.5
100
AcDbArc
 50
90.0
 51
180.0
  0
ARC
  5
1A4
100
AcDbEntity
  8
0
  6
PHANTOM
 62
               2
100
AcDbCircle
 10
-64.699999999999989
 20
92.500000000000014
 30
0.0
 40
0.5
100
AcDbArc
 50
90.0
 51
180.0
  0
ARC
  5
1A5
100
AcDbEntity
  8
0
  6
PHANTOM
 62
               2
100
AcDbCircle
 10
-56.5
 20
92.500000000000014
 30
0.0
 40
0.5
100
AcDbArc
 50
0.0
 51
90.0
  0
ARC
  5
1A6
100
AcDbEntity
  8
0
  6
PHANTOM
 62
               2
100
AcDbCircle
 10
-58.070954845342328
 20
88.000000000000014
 30
0.0
 40
0.4
100
AcDbArc
 50
270.0
 51
90.0
  0
LINE
  5
1A7
100
AcDbEntity
  8
0
  6
PHANTOM
 62
               2
100
AcDbLine
 10
-65.199999999999989
 20
88.40000000000002
 30
0.0
 11
-58.070954845342101
 21
88.40000000000002
 31
0.0
  0
LINE
  5
1A8
100
AcDbEntity
  8
0
  6
PHANTOM
 62
               2
100
AcDbLine
 10
-65.199999999999989
 20
87.600000000000037
 30
0.0
 11
-58.070954845342101
 21
87.600000000000037
 31
0.0
  0
LINE
  5
1A9
100
AcDbEntity
  8
0
  6
PHANTOM
 62
               2
100
AcDbLine
 10
-65.199999999999989
 20
90.600000000000037
 30
0.0
 11
-58.070954845342101
 21
90.600000000000037
 31
0.0
  0
LINE
  5
1AA
100
AcDbEntity
  8
0
  6
PHANTOM
 62
               2
100
AcDbLine
 10
-65.199999999999989
 20
91.400000000000219
 30
0.0
 11
-58.070954845342101
 21
91.400000000000219
 31
0.0
  0
ARC
  5
1AB
100
AcDbEntity
  8
0
  6
PHANTOM
 62
               2
100
AcDbCircle
 10
-58.070954845342328
 20
91.000000000000014
 30
0.0
 40
0.4
100
AcDbArc
 50
270.0
 51
90.0
  0
LINE
  5
1AC
100
AcDbEntity
  8
0
  6
PHANTOM
 62
               2
100
AcDbLine
 10
-65.199999999999989
 20
92.49999999999973
 30
0.0
 11
-65.199999999999989
 21
77.499999999999815
 31
0.0
  0
LINE
  5
1AD
100
AcDbEntity
  8
0
  6
PHANTOM
 62
               2
100
AcDbLine
 10
-53.999999999999716
 20
80.500000000000014
 30
0.0
 11
-54.299999999999955
 21
80.500000000000014
 31
0.0
  0
LINE
  5
1AE
100
AcDbEntity
  8
0
  6
PHANTOM
 62
               2
100
AcDbLine
 10
-54.299999999999955
 20
79.500000000000014
 30
0.0
 11
-55.999999999999716
 21
79.500000000000014
 31
0.0
  0
ARC
  5
1AF
100
AcDbEntity
  8
0
  6
PHANTOM
 62
               2
100
AcDbCircle
 10
-56.5
 20
77.500000000000014
 30
0.0
 40
0.5
100
AcDbArc
 50
270.0
 51
0.0
  0
LINE
  5
1B0
100
AcDbEntity
  8
0
  6
PHANTOM
 62
               2
100
AcDbLine
 10
-65.199999999999989
 20
84.600000000000122
 30
0.0
 11
-58.070954845342101
 21
84.600000000000122
 31
0.0
  0
ARC
  5
1B1
100
AcDbEntity
  8
0
  6
PHANTOM
 62
               2
100
AcDbCircle
 10
-58.070954845342328
 20
85.000000000000014
 30
0.0
 40
0.4
100
AcDbArc
 50
270.0
 51
90.0
  0
ARC
  5
1B2
100
AcDbEntity
  8
0
  6
PHANTOM
 62
               2
100
AcDbCircle
 10
-58.070954845342328
 20
82.000000000000014
 30
0.0
 40
0.4
100
AcDbArc
 50
270.0
 51
90.0
  0
LINE
  5
1B3
100
AcDbEntity
  8
0
  6
PHANTOM
 62
               2
100
AcDbLine
 10
-65.199999999999989
 20
82.400000000000219
 30
0.0
 11
-58.070954845342101
 21
82.400000000000219
 31
0.0
  0
LINE
  5
1B4
100
AcDbEntity
  8
0
  6
PHANTOM
 62
               2
100
AcDbLine
 10
-65.199999999999989
 20
81.600000000000037
 30
0.0
 11
-58.070954845342101
 21
81.600000000000037
 31
0.0
  0
LINE
  5
1B5
100
AcDbEntity
  8
0
  6
PHANTOM
 62
               2
100
AcDbLine
 10
-65.199999999999989
 20
78.600000000000037
 30
0.0
 11
-58.070954845342101
 21
78.600000000000037
 31
0.0
  0
LINE
  5
1B6
100
AcDbEntity
  8
0
  6
PHANTOM
 62
               2
100
AcDbLine
 10
-65.199999999999989
 20
79.40000000000002
 30
0.0
 11
-58.070954845342101
 21
79.40000000000002
 31
0.0
  0
ARC
  5
1B7
100
AcDbEntity
  8
0
  6
PHANTOM
 62
               2
100
AcDbCircle
 10
-58.070954845342328
 20
79.000000000000014
 30
0.0
 40
0.4
100
AcDbArc
 50
270.0
 51
90.0
  0
ARC
  5
1B8
100
AcDbEntity
  8
0
  6
PHANTOM
 62
               2
100
AcDbCircle
 10
-64.699999999999989
 20
77.499999999999815
 30
0.0
 40
0.5
100
AcDbArc
 50
180.0
 51
270.0
  0
ARC
  5
1B9
100
AcDbEntity
  8
0
  6
PHANTOM
 62
               2
100
AcDbCircle
 10
-65.499999999999943
 20
78.500000000000014
 30
0.0
 40
0.5
100
AcDbArc
 50
180.0
 51
270.0
  0
LINE
  5
1BA
100
AcDbEntity
  8
0
  6
PHANTOM
 62
               2
100
AcDbLine
 10
-65.499999999999716
 20
77.99999999999973
 30
0.0
 11
-65.199999999999989
 21
77.99999999999973
 31
0.0
  0
LINE
  5
1BB
100
AcDbEntity
  8
0
  6
PHANTOM
 62
               2
100
AcDbLine
 10
-56.499999999999716
 20
77.000000000000014
 30
0.0
 11
-64.699999999999989
 21
77.000000000000014
 31
0.0
  0
LINE
  5
1BC
100
AcDbEntity
  8
0
  6
PHANTOM
 62
               2
100
AcDbLine
 10
-65.199999999999989
 20
85.400000000000219
 30
0.0
 11
-58.070954845342101
 21
85.400000000000219
 31
0.0
  0
LINE
  5
1BD
100
AcDbEntity
  8
0
  6
PHANTOM
 62
               2
100
AcDbLine
 10
-52.799999999999955
 20
77.500000000000014
 30
0.0
 11
-49.999999999999716
 21
77.500000000000014
 31
0.0
  0
LINE
  5
1BE
100
AcDbEntity
  8
0
  6
PHANTOM
 62
               2
100
AcDbLine
 10
-49.999999999999716
 20
92.500000000000014
 30
0.0
 11
-52.799999999999955
 21
92.500000000000014
 31
0.0
  0
LINE
  5
1BF
100
AcDbEntity
  8
0
  6
PHANTOM
 62
               2
100
AcDbLine
 10
-52.800000000000068
 20
1.2000000000000313
 30
0.0
 11
-52.800000000000068
 21
95.000000000000014
 31
0.0
  0
LINE
  5
1C0
100
AcDbEntity
  8
0
  6
CONTINUOUS
 62
               2
100
AcDbLine
 10
-46.228986523634944
 20
90.000000000000242
 30
0.0
 11
46.228986523635086
 21
90.000000000000242
 31
0.0
  0
LINE
  5
1C1
100
AcDbEntity
  8
0
  6
CONTINUOUS
 62
               2
100
AcDbLine
 10
8.5872427885558125
 20
129.57915185158083
 30
0.0
 11
9.0000000000011084
 21
129.99190906302624
 31
0.0
  0
LINE
  5
1C2
100
AcDbEntity
  8
0
  6
CONTINUOUS
 62
               2
100
AcDbLine
 10
-8.9999999999990052
 20
129.95242130516436
 30
0.0
 11
-8.9524213051624031
 21
130.00000000000097
 31
0.0
  0
LINE
  5
1C3
100
AcDbEntity
  8
0
  6
CONTINUOUS
 62
               2
100
AcDbLine
 10
-8.1301162155400846
 20
50.000000000000952
 30
0.0
 11
-7.8600707551977678
 21
50.270045460343269
 31
0.0
  0
LINE
  5
1C4
100
AcDbEntity
  8
0
  6
CONTINUOUS
 62
               7
100
AcDbLine
 10
16.992645467966412
 20
89.500000000000469
 30
0.0
 11
24.500000000000028
 21
89.500000000000639
 31
0.0
  0
LINE
  5
1C5
100
AcDbEntity
  8
0
  6
CONTINUOUS
 62
               7
100
AcDbLine
 10
16.992645467966412
 20
90.500000000000469
 30
0.0
 11
24.500000000000014
 21
90.500000000000298
 31
0.0
  0
LINE
  5
1C6
100
AcDbEntity
  8
0
  6
CONTINUOUS
 62
               7
100
AcDbLine
 10
-0.4999999999995168
 20
65.500000000000014
 30
0.0
 11
0.0000000000000284
 21
61.500000000000213
 31
0.0
  0
LINE
  5
1C7
100
AcDbEntity
  8
0
  6
CONTINUOUS
 62
               7
100
AcDbLine
 10
0.0000000000000284
 20
61.500000000000213
 30
0.0
 11
0.5000000000000284
 21
65.500000000000242
 31
0.0
  0
LINE
  5
1C8
100
AcDbEntity
  8
0
  6
CONTINUOUS
 62
               7
100
AcDbLine
 10
16.970562748477647
 20
72.322330470336752
 30
0.0
 11
17.677669529663746
 21
73.029437251523134
 31
0.0
  0
LINE
  5
1C9
100
AcDbEntity
  8
0
  6
CONTINUOUS
 62
               7
100
AcDbLine
 10
20.152543263816654
 20
69.847456736183645
 30
0.0
 11
17.677669529663746
 21
73.029437251523134
 31
0.0
  0
LINE
  5
1CA
100
AcDbEntity
  8
0
  6
CONTINUOUS
 62
               7
100
AcDbLine
 10
16.970562748477647
 20
72.322330470336752
 30
0.0
 11
20.152543263816654
 21
69.847456736183645
 31
0.0
  0
LINE
  5
1CB
100
AcDbEntity
  8
0
  6
CONTINUOUS
 62
               7
100
AcDbLine
 10
11.662061450104801
 20
77.630831768709228
 30
0.0
 11
13.042893218813816
 21
76.250000000000242
 31
0.0
  0
LINE
  5
1CC
100
AcDbEntity
  8
0
  6
CONTINUOUS
 62
               7
100
AcDbLine
 10
12.369168231291354
 20
78.337938549895753
 30
0.0
 11
14.457106781186781
 21
76.250000000000242
 31
0.0
  0
LINE
  5
1CD
100
AcDbEntity
  8
0
  6
CONTINUOUS
 62
               7
100
AcDbLine
 10
-0.4999999999995168
 20
65.500000000000014
 30
0.0
 11
0.5000000000000284
 21
65.500000000000242
 31
0.0
  0
LINE
  5
1CE
100
AcDbEntity
  8
0
  6
CONTINUOUS
 62
               7
100
AcDbLine
 10
-0.4999999999997726
 20
73.00735453203383
 30
0.0
 11
-0.4999999999996305
 21
66.762775993084986
 31
0.0
  0
LINE
  5
1CF
100
AcDbEntity
  8
0
  6
CONTINUOUS
 62
               7
100
AcDbLine
 10
0.5000000000002274
 20
73.007354532033801
 30
0.0
 11
0.5000000000000853
 21
66.762775993084986
 31
0.0
  0
LINE
  5
1D0
100
AcDbEntity
  8
0
  6
CONTINUOUS
 62
               7
100
AcDbLine
 10
-17.677669529663518
 20
73.029437251522594
 30
0.0
 11
-16.970562748477136
 21
72.322330470336524
 31
0.0
  0
LINE
  5
1D1
100
AcDbEntity
  8
0
  6
CONTINUOUS
 62
               7
100
AcDbLine
 10
-20.152543263816597
 20
69.847456736183588
 30
0.0
 11
-16.970562748477136
 21
72.322330470336524
 31
0.0
  0
LINE
  5
1D2
100
AcDbEntity
  8
0
  6
CONTINUOUS
 62
               7
100
AcDbLine
 10
-17.677669529663518
 20
73.029437251522594
 30
0.0
 11
-20.152543263816597
 21
69.847456736183588
 31
0.0
  0
LINE
  5
1D3
100
AcDbEntity
  8
0
  6
CONTINUOUS
 62
               7
100
AcDbLine
 10
-12.369168231291013
 20
78.337938549895441
 30
0.0
 11
-14.457106781186127
 21
76.250000000000242
 31
0.0
  0
LINE
  5
1D4
100
AcDbEntity
  8
0
  6
CONTINUOUS
 62
               7
100
AcDbLine
 10
-11.66206145010446
 20
77.630831768708887
 30
0.0
 11
-13.042893218813191
 21
76.250000000000242
 31
0.0
  0
LINE
  5
1D5
100
AcDbEntity
  8
0
  6
CONTINUOUS
 62
               7
100
AcDbLine
 10
-24.500000000000227
 20
90.499999999999758
 30
0.0
 11
-24.500000000000028
 21
89.500000000000185
 31
0.0
  0
LINE
  5
1D6
100
AcDbEntity
  8
0
  6
CONTINUOUS
 62
               7
100
AcDbLine
 10
-27.999999999998806
 20
89.937500000000014
 30
0.0
 11
-24.500000000000028
 21
89.500000000000185
 31
0.0
  0
LINE
  5
1D7
100
AcDbEntity
  8
0
  6
CONTINUOUS
 62
               7
100
AcDbLine
 10
-24.500000000000227
 20
90.499999999999758
 30
0.0
 11
-27.999999999998806
 21
90.062500000000298
 31
0.0
  0
LINE
  5
1D8
100
AcDbEntity
  8
0
  6
CONTINUOUS
 62
               7
100
AcDbLine
 10
-16.992645467966412
 20
90.500000000000014
 30
0.0
 11
-24.500000000000028
 21
90.499999999999844
 31
0.0
  0
LINE
  5
1D9
100
AcDbEntity
  8
0
  6
CONTINUOUS
 62
               7
100
AcDbLine
 10
-16.992645467966412
 20
89.500000000000014
 30
0.0
 11
-24.500000000000028
 21
89.500000000000185
 31
0.0
  0
LINE
  5
1DA
100
AcDbEntity
  8
0
  6
CONTINUOUS
 62
               7
100
AcDbLine
 10
-16.970562748477647
 20
107.67766952966373
 30
0.0
 11
-17.677669529663746
 21
106.97056274847735
 31
0.0
  0
LINE
  5
1DB
100
AcDbEntity
  8
0
  6
CONTINUOUS
 62
               7
100
AcDbLine
 10
-20.152543263816654
 20
110.15254326381684
 30
0.0
 11
-17.677669529663746
 21
106.97056274847735
 31
0.0
  0
LINE
  5
1DC
100
AcDbEntity
  8
0
  6
CONTINUOUS
 62
               7
100
AcDbLine
 10
-16.970562748477647
 20
107.67766952966373
 30
0.0
 11
-20.152543263816654
 21
110.15254326381684
 31
0.0
  0
LINE
  5
1DD
100
AcDbEntity
  8
0
  6
CONTINUOUS
 62
               7
100
AcDbLine
 10
-11.662061450104801
 20
102.36916823129125
 30
0.0
 11
-13.042893218813845
 21
103.75000000000024
 31
0.0
  0
LINE
  5
1DE
100
AcDbEntity
  8
0
  6
CONTINUOUS
 62
               7
100
AcDbLine
 10
-12.369168231291354
 20
101.6620614501047
 30
0.0
 11
-14.457106781186781
 21
103.75000000000024
 31
0.0
  0
LINE
  5
1DF
100
AcDbEntity
  8
0
  6
CONTINUOUS
 62
               7
100
AcDbLine
 10
0.4999999999995168
 20
114.50000000000047
 30
0.0
 11
-0.5000000000000284
 21
114.50000000000024
 31
0.0
  0
LINE
  5
1E0
100
AcDbEntity
  8
0
  6
CONTINUOUS
 62
               7
100
AcDbLine
 10
-0.0000000000000568
 20
118.50000000000027
 30
0.0
 11
-0.5000000000000284
 21
114.50000000000024
 31
0.0
  0
LINE
  5
1E1
100
AcDbEntity
  8
0
  6
CONTINUOUS
 62
               7
100
AcDbLine
 10
0.4999999999995168
 20
114.50000000000047
 30
0.0
 11
-0.0000000000000568
 21
118.50000000000027
 31
0.0
  0
LINE
  5
1E2
100
AcDbEntity
  8
0
  6
CONTINUOUS
 62
               7
100
AcDbLine
 10
0.4999999999997442
 20
106.99264546796665
 30
0.0
 11
0.4999999999996305
 21
113.25000000000024
 31
0.0
  0
LINE
  5
1E3
100
AcDbEntity
  8
0
  6
CONTINUOUS
 62
               7
100
AcDbLine
 10
-0.5000000000002558
 20
106.99264546796668
 30
0.0
 11
-0.5000000000000853
 21
113.25000000000024
 31
0.0
  0
LINE
  5
1E4
100
AcDbEntity
  8
0
  6
CONTINUOUS
 62
               7
100
AcDbLine
 10
17.677669529663518
 20
106.97056274847789
 30
0.0
 11
16.970562748477136
 21
107.67766952966396
 31
0.0
  0
LINE
  5
1E5
100
AcDbEntity
  8
0
  6
CONTINUOUS
 62
               7
100
AcDbLine
 10
20.152543263816568
 20
110.1525432638169
 30
0.0
 11
16.970562748477136
 21
107.67766952966396
 31
0.0
  0
LINE
  5
1E6
100
AcDbEntity
  8
0
  6
CONTINUOUS
 62
               7
100
AcDbLine
 10
17.677669529663518
 20
106.97056274847789
 30
0.0
 11
20.152543263816568
 21
110.1525432638169
 31
0.0
  0
LINE
  5
1E7
100
AcDbEntity
  8
0
  6
CONTINUOUS
 62
               7
100
AcDbLine
 10
12.369168231291013
 20
101.66206145010504
 30
0.0
 11
14.457106781186127
 21
103.75000000000024
 31
0.0
  0
LINE
  5
1E8
100
AcDbEntity
  8
0
  6
CONTINUOUS
 62
               7
100
AcDbLine
 10
11.66206145010446
 20
102.3691682312916
 30
0.0
 11
13.042893218813191
 21
103.75000000000024
 31
0.0
  0
LINE
  5
1E9
100
AcDbEntity
  8
0
  6
CONTINUOUS
 62
               7
100
AcDbLine
 10
0.0
 20
77.75000000000027
 30
0.0
 11
-0.3617191516830758
 21
77.783852758382082
 31
0.0
  0
LINE
  5
1EA
100
AcDbEntity
  8
0
  6
CONTINUOUS
 62
               7
100
AcDbLine
 10
-2.2730097650902792
 20
77.962727609304594
 30
0.0
 11
-0.3617191516830758
 21
77.783852758382082
 31
0.0
  0
LINE
  5
1EB
100
AcDbEntity
  8
0
  6
CONTINUOUS
 62
               7
100
AcDbLine
 10
-2.0646715337195189
 20
78.9410836218985
 30
0.0
 11
0.0
 21
78.750000000000298
 31
0.0
  0
LINE
  5
1EC
100
AcDbEntity
  8
0
  6
CONTINUOUS
 62
               7
100
AcDbLine
 10
-4.0592053048269463
 20
79.507843296382859
 30
0.0
 11
-2.0646715337195189
 21
78.9410836218985
 31
0.0
  0
LINE
  5
1ED
100
AcDbEntity
  8
0
  6
CONTINUOUS
 62
               7
100
AcDbLine
 10
-3.7715791140573742
 20
80.152613800841507
 30
0.0
 11
-5.8499999999999943
 21
79.867502775722372
 31
0.0
  0
LINE
  5
1EE
100
AcDbEntity
  8
0
  6
CONTINUOUS
 62
               7
100
AcDbLine
 10
-3.7715791140573742
 20
99.847386199158947
 30
0.0
 11
-5.8499999999999943
 21
100.13249722427814
 31
0.0
  0
LINE
  5
1EF
100
AcDbEntity
  8
0
  6
CONTINUOUS
 62
               7
100
AcDbLine
 10
-2.0646715337195474
 20
101.05891637810201
 30
0.0
 11
-4.0592053048269463
 21
100.4921567036176
 31
0.0
  0
LINE
  5
1F0
100
AcDbEntity
  8
0
  6
CONTINUOUS
 62
               7
100
AcDbLine
 10
0.0
 20
101.25000000000021
 30
0.0
 11
-2.0646715337195474
 21
101.05891637810201
 31
0.0
  0
LINE
  5
1F1
100
AcDbEntity
  8
0
  6
CONTINUOUS
 62
               7
100
AcDbLine
 10
-2.2730097650902792
 20
102.03727239069592
 30
0.0
 11
-4.4670755410779748
 21
101.40647781351932
 31
0.0
  0
LINE
  5
1F2
100
AcDbEntity
  8
0
  6
CONTINUOUS
 62
               7
100
AcDbLine
 10
-0.3617191516826495
 20
102.21614724161846
 30
0.0
 11
-2.2730097650902792
 21
102.03727239069592
 31
0.0
  0
LINE
  5
1F3
100
AcDbEntity
  8
0
  6
CONTINUOUS
 62
               7
100
AcDbLine
 10
0.0
 20
102.25000000000024
 30
0.0
 11
-0.3617191516826495
 21
102.21614724161846
 31
0.0
  0
ARC
  5
1F4
100
AcDbEntity
  8
0
  6
CONTINUOUS
 62
               7
100
AcDbCircle
 10
0.0
 20
90.000000000000242
 30
0.0
 40
6.9999999999998863
100
AcDbArc
 50
142.61680158213443
 51
217.3831984178656
  0
ARC
  5
1F5
100
AcDbEntity
  8
0
  6
CONTINUOUS
 62
               7
100
AcDbCircle
 10
0.0
 20
90.000000000000242
 30
0.0
 40
7.4999999999998863
100
AcDbArc
 50
145.48189215893817
 51
214.51810784106183
  0
ARC
  5
1F6
100
AcDbEntity
  8
0
  6
CONTINUOUS
 62
               7
100
AcDbCircle
 10
0.0
 20
90.000000000000242
 30
0.0
 40
17.000000000000021
100
AcDbArc
 50
60.18635321351222
 51
119.81364678648778
  0
ARC
  5
1F7
100
AcDbEntity
  8
0
  6
CONTINUOUS
 62
               7
100
AcDbCircle
 10
0.0
 20
90.000000000000242
 30
0.0
 40
16.000000000000021
100
AcDbArc
 50
67.201751900277756
 51
112.79824809972226
  0
ARC
  5
1F8
100
AcDbEntity
  8
0
  6
CONTINUOUS
 62
               7
100
AcDbCircle
 10
0.0
 20
90.000000000000242
 30
0.0
 40
11.25
100
AcDbArc
 50
90.0
 51
111.150456015128
  0
ARC
  5
1F9
100
AcDbEntity
  8
0
  6
CONTINUOUS
 62
               7
100
AcDbCircle
 10
0.0
 20
90.000000000000298
 30
0.0
 40
12.25
100
AcDbArc
 50
90.0
 51
111.38661251219972
  0
LINE
  5
1FA
100
AcDbEntity
  8
0
  6
CONTINUOUS
 62
               7
100
AcDbLine
 10
-5.8499999999999943
 20
100.13249722427814
 30
0.0
 11
-4.828261624771784
 21
102.21614724161846
 31
0.0
  0
LINE
  5
1FB
100
AcDbEntity
  8
0
  6
CONTINUOUS
 62
               7
100
AcDbLine
 10
-3.7715791140573458
 20
99.847386199158947
 30
0.0
 11
-4.0592053048269463
 21
100.49215670361762
 31
0.0
  0
LINE
  5
1FC
100
AcDbEntity
  8
0
  6
CONTINUOUS
 62
               7
100
AcDbLine
 10
-4.4670755410779748
 20
101.40647781351932
 30
0.0
 11
-4.828261624771784
 21
102.21614724161846
 31
0.0
  0
LINE
  5
1FD
100
AcDbEntity
  8
0
  6
CONTINUOUS
 62
               7
100
AcDbLine
 10
0.0
 20
102.25000000000024
 30
0.0
 11
0.0
 21
101.25000000000021
 31
0.0
  0
LINE
  5
1FE
100
AcDbEntity
  8
0
  6
CONTINUOUS
 62
               7
100
AcDbLine
 10
0.0
 20
77.750000000000242
 30
0.0
 11
0.0
 21
78.750000000000298
 31
0.0
  0
ARC
  5
1FF
100
AcDbEntity
  8
0
  6
CONTINUOUS
 62
               7
100
AcDbCircle
 10
0.0
 20
90.000000000000298
 30
0.0
 40
12.25
100
AcDbArc
 50
248.61338748780014
 51
270.0
  0
ARC
  5
200
100
AcDbEntity
  8
0
  6
CONTINUOUS
 62
               7
100
AcDbCircle
 10
0.0
 20
90.000000000000327
 30
0.0
 40
11.25
100
AcDbArc
 50
248.84954398487204
 51
270.0
  0
LINE
  5
201
100
AcDbEntity
  8
0
  6
CONTINUOUS
 62
               7
100
AcDbLine
 10
-4.4670755410779748
 20
78.593522186481195
 30
0.0
 11
-4.828261624771784
 21
77.783852758382082
 31
0.0
  0
LINE
  5
202
100
AcDbEntity
  8
0
  6
CONTINUOUS
 62
               7
100
AcDbLine
 10
-3.7715791140573458
 20
80.152613800841507
 30
0.0
 11
-4.0592053048269463
 21
79.507843296382859
 31
0.0
  0
LINE
  5
203
100
AcDbEntity
  8
0
  6
CONTINUOUS
 62
               7
100
AcDbLine
 10
-5.8499999999999943
 20
79.867502775722343
 30
0.0
 11
-4.828261624771784
 21
77.783852758382082
 31
0.0
  0
LINE
  5
204
100
AcDbEntity
  8
0
  6
CONTINUOUS
 62
               7
100
AcDbLine
 10
24.500000000000227
 20
89.500000000000725
 30
0.0
 11
28.000000000000881
 21
89.937500000000469
 31
0.0
  0
LINE
  5
205
100
AcDbEntity
  8
0
  6
CONTINUOUS
 62
               7
100
AcDbLine
 10
28.000000000000881
 20
90.062500000000185
 30
0.0
 11
24.500000000000014
 21
90.500000000000298
 31
0.0
  0
LINE
  5
206
100
AcDbEntity
  8
0
  6
CONTINUOUS
 62
               7
100
AcDbLine
 10
24.500000000000227
 20
89.500000000000725
 30
0.0
 11
24.500000000000014
 21
90.500000000000298
 31
0.0
  0
LINE
  5
207
100
AcDbEntity
  8
0
  6
CONTINUOUS
 62
               7
100
AcDbLine
 10
0.4999999999996021
 20
114.25000000000024
 30
0.0
 11
0.4999999999996021
 21
114.50000000000027
 31
0.0
  0
LINE
  5
208
100
AcDbEntity
  8
0
  6
CONTINUOUS
 62
               7
100
AcDbLine
 10
-0.5000000000000568
 20
114.25000000000024
 30
0.0
 11
-0.5000000000000284
 21
114.50000000000024
 31
0.0
  0
LINE
  5
209
100
AcDbEntity
  8
0
  6
CONTINUOUS
 62
               7
100
AcDbLine
 10
14.042893218813248
 20
104.75000000000024
 30
0.0
 11
16.970562748477136
 21
107.67766952966396
 31
0.0
  0
LINE
  5
20A
100
AcDbEntity
  8
0
  6
CONTINUOUS
 62
               7
100
AcDbLine
 10
15.45710678118607
 20
104.75000000000024
 30
0.0
 11
17.677669529663433
 21
106.97056274847769
 31
0.0
  0
ARC
  5
20B
100
AcDbEntity
  8
0
  6
CONTINUOUS
 62
               7
100
AcDbCircle
 10
0.0
 20
90.000000000000242
 30
0.0
 40
16.000000000000021
100
AcDbArc
 50
55.771133672182806
 51
59.24648019189577
  0
ARC
  5
20C
100
AcDbEntity
  8
0
  6
CONTINUOUS
 62
               7
100
AcDbCircle
 10
0.0
 20
90.000000000000242
 30
0.0
 40
16.000000000000021
100
AcDbArc
 50
19.155010073563709
 51
51.317812546505145
  0
ARC
  5
20D
100
AcDbEntity
  8
0
  6
CONTINUOUS
 62
               7
100
AcDbCircle
 10
0.0
 20
90.000000000000242
 30
0.0
 40
17.000000000000021
100
AcDbArc
 50
17.988345214548868
 51
53.98114580735708
  0
ARC
  5
20E
100
AcDbEntity
  8
0
  6
CONTINUOUS
 62
               7
100
AcDbCircle
 10
0.0
 20
90.000000000000242
 30
0.0
 40
17.000000000000021
100
AcDbArc
 50
345.52248781407013
 51
14.477512185929882
  0
ARC
  5
20F
100
AcDbEntity
  8
0
  6
CONTINUOUS
 62
               7
100
AcDbCircle
 10
0.0
 20
90.000000000000242
 30
0.0
 40
16.000000000000021
100
AcDbArc
 50
344.59590630127457
 51
15.404093698725458
  0
ARC
  5
210
100
AcDbEntity
  8
0
  6
CONTINUOUS
 62
               7
100
AcDbCircle
 10
0.0
 20
90.000000000000242
 30
0.0
 40
17.000000000000021
100
AcDbArc
 50
306.01885419264295
 51
342.01165478545113
  0
ARC
  5
211
100
AcDbEntity
  8
0
  6
CONTINUOUS
 62
               7
100
AcDbCircle
 10
0.0
 20
90.000000000000242
 30
0.0
 40
16.000000000000021
100
AcDbArc
 50
308.68218745349486
 51
340.84498992643626
  0
ARC
  5
212
100
AcDbEntity
  8
0
  6
CONTINUOUS
 62
               7
100
AcDbCircle
 10
0.0
 20
90.000000000000242
 30
0.0
 40
16.000000000000021
100
AcDbArc
 50
300.75351980810422
 51
304.22886632781717
  0
LINE
  5
213
100
AcDbEntity
  8
0
  6
CONTINUOUS
 62
               7
100
AcDbLine
 10
14.042893218813873
 20
75.250000000000242
 30
0.0
 11
16.970562748477448
 21
72.322330470336809
 31
0.0
  0
LINE
  5
214
100
AcDbEntity
  8
0
  6
CONTINUOUS
 62
               7
100
AcDbLine
 10
15.457106781186724
 20
75.250000000000242
 30
0.0
 11
17.677669529663746
 21
73.029437251523134
 31
0.0
  0
LINE
  5
215
100
AcDbEntity
  8
0
  6
CONTINUOUS
 62
               7
100
AcDbLine
 10
0.5000000000000568
 20
65.762775993084986
 30
0.0
 11
0.5000000000000284
 21
65.500000000000242
 31
0.0
  0
LINE
  5
216
100
AcDbEntity
  8
0
  6
CONTINUOUS
 62
               7
100
AcDbLine
 10
-0.4999999999996305
 20
65.762775993084986
 30
0.0
 11
-0.4999999999996021
 21
65.500000000000213
 31
0.0
  0
ARC
  5
217
100
AcDbEntity
  8
0
  6
CONTINUOUS
 62
               7
100
AcDbCircle
 10
0.0
 20
90.000000000000242
 30
0.0
 40
17.000000000000021
100
AcDbArc
 50
240.18635321351218
 51
299.81364678648782
  0
ARC
  5
218
100
AcDbEntity
  8
0
  6
CONTINUOUS
 62
               7
100
AcDbCircle
 10
0.0
 20
90.000000000000242
 30
0.0
 40
16.000000000000021
100
AcDbArc
 50
247.20175190027774
 51
292.79824809972223
  0
ARC
  5
219
100
AcDbEntity
  8
0
  6
CONTINUOUS
 62
               7
100
AcDbCircle
 10
0.0
 20
90.000000000000242
 30
0.0
 40
16.000000000000021
100
AcDbArc
 50
235.77113367219269
 51
239.24648019189578
  0
LINE
  5
21A
100
AcDbEntity
  8
0
  6
CONTINUOUS
 62
               7
100
AcDbLine
 10
-14.042893218813248
 20
75.250000000000242
 30
0.0
 11
-16.970562748477136
 21
72.322330470336524
 31
0.0
  0
LINE
  5
21B
100
AcDbEntity
  8
0
  6
CONTINUOUS
 62
               7
100
AcDbLine
 10
-15.45710678118607
 20
75.250000000000242
 30
0.0
 11
-17.677669529663433
 21
73.029437251522793
 31
0.0
  0
ARC
  5
21C
100
AcDbEntity
  8
0
  6
CONTINUOUS
 62
               7
100
AcDbCircle
 10
0.0
 20
90.000000000000242
 30
0.0
 40
17.000000000000021
100
AcDbArc
 50
197.98834521454887
 51
233.96812092753396
  0
ARC
  5
21D
100
AcDbEntity
  8
0
  6
CONTINUOUS
 62
               7
100
AcDbCircle
 10
0.0
 20
90.000000000000242
 30
0.0
 40
16.000000000000021
100
AcDbArc
 50
199.15501007356372
 51
231.31781254651554
  0
ARC
  5
21E
100
AcDbEntity
  8
0
  6
CONTINUOUS
 62
               7
100
AcDbCircle
 10
0.0
 20
90.000000000000242
 30
0.0
 40
17.000000000000021
100
AcDbArc
 50
165.5224878140701
 51
194.4775121859299
  0
ARC
  5
21F
100
AcDbEntity
  8
0
  6
CONTINUOUS
 62
               7
100
AcDbCircle
 10
0.0
 20
90.000000000000242
 30
0.0
 40
16.000000000000021
100
AcDbArc
 50
164.59590630127451
 51
195.40409369872546
  0
ARC
  5
220
100
AcDbEntity
  8
0
  6
CONTINUOUS
 62
               7
100
AcDbCircle
 10
0.0
 20
90.000000000000242
 30
0.0
 40
16.000000000000021
100
AcDbArc
 50
128.68218745348443
 51
160.84498992643628
  0
ARC
  5
221
100
AcDbEntity
  8
0
  6
CONTINUOUS
 62
               7
100
AcDbCircle
 10
0.0
 20
90.000000000000242
 30
0.0
 40
17.000000000000021
100
AcDbArc
 50
126.03187907246601
 51
162.01165478545113
  0
LINE
  5
222
100
AcDbEntity
  8
0
  6
CONTINUOUS
 62
               7
100
AcDbLine
 10
-14.042893218813902
 20
104.75000000000024
 30
0.0
 11
-16.970562748477448
 21
107.67766952966367
 31
0.0
  0
LINE
  5
223
100
AcDbEntity
  8
0
  6
CONTINUOUS
 62
               7
100
AcDbLine
 10
-15.457106781186724
 20
104.75000000000024
 30
0.0
 11
-17.677669529663746
 21
106.97056274847735
 31
0.0
  0
ARC
  5
224
100
AcDbEntity
  8
0
  6
CONTINUOUS
 62
               7
100
AcDbCircle
 10
0.0
 20
90.000000000000242
 30
0.0
 40
16.000000000000021
100
AcDbArc
 50
120.75351980810423
 51
124.22886632780732
  0
ARC
  5
225
100
AcDbEntity
  8
0
  6
CONTINUOUS
 62
               7
100
AcDbCircle
 10
0.0
 20
90.000000000000242
 30
0.0
 40
7.4999999999998863
100
AcDbArc
 50
224.42700400080656
 51
315.57299599919344
  0
ARC
  5
226
100
AcDbEntity
  8
0
  6
CONTINUOUS
 62
               7
100
AcDbCircle
 10
0.0
 20
90.000000000000242
 30
0.0
 40
6.9999999999998863
100
AcDbArc
 50
228.59037789073017
 51
311.40962210926978
  0
ARC
  5
227
100
AcDbEntity
  8
0
  6
CONTINUOUS
 62
               7
100
AcDbCircle
 10
0.0
 20
90.000000000000242
 30
0.0
 40
6.9999999999998863
100
AcDbArc
 50
322.61680158213443
 51
37.383198417865586
  0
ARC
  5
228
100
AcDbEntity
  8
0
  6
CONTINUOUS
 62
               7
100
AcDbCircle
 10
0.0
 20
90.000000000000242
 30
0.0
 40
7.4999999999998863
100
AcDbArc
 50
325.48189215893814
 51
34.51810784106187
  0
ARC
  5
229
100
AcDbEntity
  8
0
  6
CONTINUOUS
 62
               7
100
AcDbCircle
 10
0.0
 20
90.000000000000242
 30
0.0
 40
6.9999999999998863
100
AcDbArc
 50
48.590377890730217
 51
131.40962210926983
  0
ARC
  5
22A
100
AcDbEntity
  8
0
  6
CONTINUOUS
 62
               7
100
AcDbCircle
 10
0.0
 20
90.000000000000242
 30
0.0
 40
7.4999999999998863
100
AcDbArc
 50
44.427004000806555
 51
135.57299599919344
  0
LINE
  5
22B
100
AcDbEntity
  8
0
  6
CONTINUOUS
 62
               2
100
AcDbLine
 10
0.0
 20
148.56701999018173
 30
0.0
 11
0.0
 21
-6.5498192624733775
 31
0.0
  0
ENDBLK
  5
22C
100
AcDbEntity
  8
0
100
AcDbBlockEnd
  0
BLOCK
  5
22D
100
AcDbEntity
  8
0
100
AcDbBlockBegin
  2
DTRY-ELF03-2
 70
               0
 10
0.0
 20
0.0
 30
0.0
  3
DTRY-ELF03-2
  1

  0
LINE
  5
22E
100
AcDbEntity
  8
0
  6
CONTINUOUS
 62
               2
100
AcDbLine
 10
0.0
 20
-6.0
 30
0.0
 11
0.0
 21
6.0
 31
0.0
  0
LINE
  5
22F
100
AcDbEntity
  8
0
  6
CONTINUOUS
 62
               7
100
AcDbLine
 10
-16.604875891004866
 20
125.56695124978212
 30
0.0
 11
-19.395124108994736
 21
128.43304875021786
 31
0.0
  0
LINE
  5
230
100
AcDbEntity
  8
0
  6
CONTINUOUS
 62
               7
100
AcDbLine
 10
-19.414213562372908
 20
125.58578643762691
 30
0.0
 11
-16.585786437626695
 21
128.41421356237308
 31
0.0
  0
LINE
  5
231
100
AcDbEntity
  8
0
  6
CONTINUOUS
 62
               7
100
AcDbLine
 10
20.395124108994935
 20
125.56695124978212
 30
0.0
 11
17.604875891005065
 21
128.43304875021786
 31
0.0
  0
LINE
  5
232
100
AcDbEntity
  8
0
  6
CONTINUOUS
 62
               7
100
AcDbLine
 10
17.585786437626894
 20
125.58578643762691
 30
0.0
 11
20.414213562373106
 21
128.41421356237308
 31
0.0
  0
LINE
  5
233
100
AcDbEntity
  8
0
  6
CONTINUOUS
 62
               7
100
AcDbLine
 10
-27.999999999999517
 20
135.00000000000023
 30
0.0
 11
-27.999999999999801
 21
46.000000000000227
 31
0.0
  0
LINE
  5
234
100
AcDbEntity
  8
0
  6
CONTINUOUS
 62
               7
100
AcDbLine
 10
-27.999999999999801
 20
135.00000000000023
 30
0.0
 11
-24.999999999999801
 21
135.00000000000023
 31
0.0
  0
LINE
  5
235
100
AcDbEntity
  8
0
  6
CONTINUOUS
 62
               7
100
AcDbLine
 10
-27.999999999999801
 20
46.000000000000227
 30
0.0
 11
-24.999999999999801
 21
46.000000000000227
 31
0.0
  0
LINE
  5
236
100
AcDbEntity
  8
0
  6
CONTINUOUS
 62
               7
100
AcDbLine
 10
-27.999999999999517
 20
134.49999999999983
 30
0.0
 11
-34.499999999999517
 21
134.49999999999983
 31
0.0
  0
LINE
  5
237
100
AcDbEntity
  8
0
  6
CONTINUOUS
 62
               7
100
AcDbLine
 10
-34.499999999999517
 20
131.5
 30
0.0
 11
-27.999999999999517
 21
131.5
 31
0.0
  0
LINE
  5
238
100
AcDbEntity
  8
0
  6
CONTINUOUS
 62
               7
100
AcDbLine
 10
-30.0
 20
48.500000000000227
 30
0.0
 11
-27.999999999999801
 21
48.500000000000227
 31
0.0
  0
LINE
  5
239
100
AcDbEntity
  8
0
  6
CONTINUOUS
 62
               7
100
AcDbLine
 10
-29.999999999999517
 20
131.5
 30
0.0
 11
-30.0
 21
48.500000000000227
 31
0.0
  0
ARC
  5
23A
100
AcDbEntity
  8
0
  6
CONTINUOUS
 62
               7
100
AcDbCircle
 10
-34.499999999999517
 20
132.99999999999983
 30
0.0
 40
1.5
100
AcDbArc
 50
90.0
 51
270.0
  0
LINE
  5
23B
100
AcDbEntity
  8
0
  6
CONTINUOUS
 62
               7
100
AcDbLine
 10
-24.999999999999801
 20
135.0
 30
0.0
 11
24.000000000000171
 21
135.0
 31
0.0
  0
LINE
  5
23C
100
AcDbEntity
  8
0
  6
CONTINUOUS
 62
               7
100
AcDbLine
 10
25.000000000000171
 20
134.0
 30
0.0
 11
25.000000000000171
 21
15.0
 31
0.0
  0
LINE
  5
23D
100
AcDbEntity
  8
0
  6
CONTINUOUS
 62
               7
100
AcDbLine
 10
-24.999999999999801
 20
135.0
 30
0.0
 11
-24.999999999999801
 21
15.0
 31
0.0
  0
LINE
  5
23E
100
AcDbEntity
  8
0
  6
CONTINUOUS
 62
               7
100
AcDbLine
 10
24.000000000000171
 20
135.0
 30
0.0
 11
25.000000000000171
 21
134.0
 31
0.0
  0
LINE
  5
23F
100
AcDbEntity
  8
0
  6
PHANTOM
 62
               2
100
AcDbLine
 10
25.0
 20
20.0
 30
0.0
 11
9.7521976173800908
 21
87.212383698992511
 31
0.0
  0
LINE
  5
240
100
AcDbEntity
  8
0
  6
PHANTOM
 62
               2
100
AcDbLine
 10
-25.0
 20
20.0
 30
0.0
 11
-9.7521976173799771
 21
87.212383698992511
 31
0.0
  0
ARC
  5
241
100
AcDbEntity
  8
0
  6
PHANTOM
 62
               2
100
AcDbCircle
 10
0.0000000000001137
 20
85.0
 30
0.0
 40
10.0
100
AcDbArc
 50
12.781778824142281
 51
167.21822117585774
  0
LINE
  5
242
100
AcDbEntity
  8
0
  6
PHANTOM
 62
               2
100
AcDbLine
 10
-25.0
 20
0.0
 30
0.0
 11
-25.0
 21
20.0
 31
0.0
  0
LINE
  5
243
100
AcDbEntity
  8
0
  6
PHANTOM
 62
               2
100
AcDbLine
 10
25.0
 20
0.0
 30
0.0
 11
25.0
 21
20.0
 31
0.0
  0
CIRCLE
  5
244
100
AcDbEntity
  8
0
  6
PHANTOM
 62
               2
100
AcDbCircle
 10
0.0000000000001137
 20
85.0
 30
0.0
 40
7.0000000000000284
  0
CIRCLE
  5
245
100
AcDbEntity
  8
0
  6
PHANTOM
 62
               2
100
AcDbCircle
 10
0.0000000000001137
 20
85.0
 30
0.0
 40
8.0000000000001137
  0
CIRCLE
  5
246
100
AcDbEntity
  8
0
  6
PHANTOM
 62
               2
100
AcDbCircle
 10
0.0000000000001137
 20
85.0
 30
0.0
 40
5.2441283245111663
  0
CIRCLE
  5
247
100
AcDbEntity
  8
0
  6
PHANTOM
 62
               2
100
AcDbCircle
 10
0.0000000000001137
 20
85.0
 30
0.0
 40
4.8308218134466161
  0
CIRCLE
  5
248
100
AcDbEntity
  8
0
  6
PHANTOM
 62
               2
100
AcDbCircle
 10
0.0000000000001137
 20
85.0
 30
0.0
 40
1.8568210704529511
  0
CIRCLE
  5
249
100
AcDbEntity
  8
0
  6
PHANTOM
 62
               2
100
AcDbCircle
 10
0.0000000000001137
 20
85.0
 30
0.0
 40
1.630770845866663
  0
CIRCLE
  5
24A
100
AcDbEntity
  8
0
  6
CONTINUOUS
 62
               7
100
AcDbCircle
 10
19.0
 20
127.0
 30
0.0
 40
3.0
  0
CIRCLE
  5
24B
100
AcDbEntity
  8
0
  6
CONTINUOUS
 62
               7
100
AcDbCircle
 10
-17.999999999999801
 20
127.0
 30
0.0
 40
3.0
  0
LINE
  5
24C
100
AcDbEntity
  8
0
  6
CONTINUOUS
 62
               7
100
AcDbLine
 10
36.300000000000296
 20
29.099999999999909
 30
0.0
 11
36.300000000000296
 21
25.100000000000023
 31
0.0
  0
LINE
  5
24D
100
AcDbEntity
  8
0
  6
CONTINUOUS
 62
               7
100
AcDbLine
 10
35.800000000000296
 20
24.599999999999909
 30
0.0
 11
30.300000000000182
 21
24.599999999999909
 31
0.0
  0
LINE
  5
24E
100
AcDbEntity
  8
0
  6
CONTINUOUS
 62
               7
100
AcDbLine
 10
30.300000000000182
 20
24.599999999999909
 30
0.0
 11
30.300000000000182
 21
29.600000000000023
 31
0.0
  0
LINE
  5
24F
100
AcDbEntity
  8
0
  6
CONTINUOUS
 62
               7
100
AcDbLine
 10
30.300000000000182
 20
29.600000000000023
 30
0.0
 11
35.800000000000296
 21
29.600000000000023
 31
0.0
  0
LINE
  5
250
100
AcDbEntity
  8
0
  6
CONTINUOUS
 62
               7
100
AcDbLine
 10
30.800000000000182
 20
24.599999999999909
 30
0.0
 11
30.800000000000182
 21
29.600000000000023
 31
0.0
  0
LINE
  5
251
100
AcDbEntity
  8
0
  6
CONTINUOUS
 62
               7
100
AcDbLine
 10
35.800000000000296
 20
25.100000000000023
 30
0.0
 11
30.800000000000182
 21
25.100000000000023
 31
0.0
  0
LINE
  5
252
100
AcDbEntity
  8
0
  6
CONTINUOUS
 62
               7
100
AcDbLine
 10
35.800000000000296
 20
25.600000000000023
 30
0.0
 11
30.800000000000182
 21
25.599999999999909
 31
0.0
  0
LINE
  5
253
100
AcDbEntity
  8
0
  6
CONTINUOUS
 62
               7
100
AcDbLine
 10
35.800000000000296
 20
26.599999999999909
 30
0.0
 11
30.800000000000182
 21
26.599999999999909
 31
0.0
  0
LINE
  5
254
100
AcDbEntity
  8
0
  6
CONTINUOUS
 62
               7
100
AcDbLine
 10
35.800000000000296
 20
26.100000000000023
 30
0.0
 11
30.800000000000182
 21
26.100000000000023
 31
0.0
  0
LINE
  5
255
100
AcDbEntity
  8
0
  6
CONTINUOUS
 62
               7
100
AcDbLine
 10
35.800000000000296
 20
28.100000000000023
 30
0.0
 11
30.800000000000182
 21
28.100000000000023
 31
0.0
  0
LINE
  5
256
100
AcDbEntity
  8
0
  6
CONTINUOUS
 62
               7
100
AcDbLine
 10
35.800000000000296
 20
28.600000000000023
 30
0.0
 11
30.800000000000182
 21
28.600000000000023
 31
0.0
  0
LINE
  5
257
100
AcDbEntity
  8
0
  6
CONTINUOUS
 62
               7
100
AcDbLine
 10
35.800000000000296
 20
27.599999999999909
 30
0.0
 11
30.800000000000182
 21
27.599999999999909
 31
0.0
  0
LINE
  5
258
100
AcDbEntity
  8
0
  6
CONTINUOUS
 62
               7
100
AcDbLine
 10
35.800000000000296
 20
27.100000000000023
 30
0.0
 11
30.800000000000182
 21
27.100000000000023
 31
0.0
  0
LINE
  5
259
100
AcDbEntity
  8
0
  6
CONTINUOUS
 62
               7
100
AcDbLine
 10
35.800000000000296
 20
29.099999999999909
 30
0.0
 11
30.800000000000182
 21
29.099999999999909
 31
0.0
  0
LINE
  5
25A
100
AcDbEntity
  8
0
  6
CONTINUOUS
 62
               7
100
AcDbLine
 10
30.300000000000182
 20
29.099999999999909
 30
0.0
 11
28.800000000000182
 21
29.099999999999909
 31
0.0
  0
LINE
  5
25B
100
AcDbEntity
  8
0
  6
CONTINUOUS
 62
               7
100
AcDbLine
 10
30.300000000000182
 20
25.100000000000023
 30
0.0
 11
28.800000000000182
 21
25.100000000000023
 31
0.0
  0
LINE
  5
25C
100
AcDbEntity
  8
0
  6
CONTINUOUS
 62
               7
100
AcDbLine
 10
35.800000000000296
 20
24.599999999999909
 30
0.0
 11
36.300000000000296
 21
25.100000000000023
 31
0.0
  0
LINE
  5
25D
100
AcDbEntity
  8
0
  6
CONTINUOUS
 62
               7
100
AcDbLine
 10
36.300000000000296
 20
29.099999999999909
 30
0.0
 11
35.800000000000296
 21
29.600000000000023
 31
0.0
  0
LINE
  5
25E
100
AcDbEntity
  8
0
  6
CONTINUOUS
 62
               7
100
AcDbLine
 10
35.800000000000296
 20
29.600000000000023
 30
0.0
 11
35.800000000000296
 21
24.599999999999909
 31
0.0
  0
LINE
  5
25F
100
AcDbEntity
  8
0
  6
CONTINUOUS
 62
               7
100
AcDbLine
 10
27.087060689498287
 20
34.496851990109008
 30
0.0
 11
27.087060689498287
 21
34.100000000000023
 31
0.0
  0
LINE
  5
260
100
AcDbEntity
  8
0
  6
CONTINUOUS
 62
               7
100
AcDbLine
 10
27.488365138580207
 20
34.496851990109008
 30
0.0
 11
27.087060689498287
 21
34.496851990109008
 31
0.0
  0
LINE
  5
261
100
AcDbEntity
  8
0
  6
CONTINUOUS
 62
               7
100
AcDbLine
 10
28.800000000000182
 20
34.100000000000023
 30
0.0
 11
27.488365138580207
 21
34.496851990109008
 31
0.0
  0
LINE
  5
262
100
AcDbEntity
  8
0
  6
CONTINUOUS
 62
               7
100
AcDbLine
 10
25.0
 20
34.100000000000023
 30
0.0
 11
28.800000000000182
 21
34.100000000000023
 31
0.0
  0
LINE
  5
263
100
AcDbEntity
  8
0
  6
CONTINUOUS
 62
               7
100
AcDbLine
 10
28.800000000000182
 20
34.100000000000023
 30
0.0
 11
28.800000000000182
 21
24.100000000000023
 31
0.0
  0
LINE
  5
264
100
AcDbEntity
  8
0
  6
CONTINUOUS
 62
               7
100
AcDbLine
 10
28.800000000000182
 20
24.100000000000023
 30
0.0
 11
25.0
 21
24.100000000000023
 31
0.0
  0
LINE
  5
265
100
AcDbEntity
  8
0
  6
CONTINUOUS
 62
               7
100
AcDbLine
 10
-26.5
 20
28.550000000000011
 30
0.0
 11
-26.5
 21
23.600000000000023
 31
0.0
  0
LINE
  5
266
100
AcDbEntity
  8
0
  6
CONTINUOUS
 62
               7
100
AcDbLine
 10
-38.499999999999915
 20
36.850000000000023
 30
0.0
 11
-38.499999999999915
 21
24.350000000000023
 31
0.0
  0
LINE
  5
267
100
AcDbEntity
  8
0
  6
CONTINUOUS
 62
               7
100
AcDbLine
 10
-38.0
 20
37.350000000000023
 30
0.0
 11
-38.0
 21
23.850000000000023
 31
0.0
  0
LINE
  5
268
100
AcDbEntity
  8
0
  6
CONTINUOUS
 62
               7
100
AcDbLine
 10
-26.5
 20
37.600000000000023
 30
0.0
 11
-26.5
 21
37.450000000000017
 31
0.0
  0
LINE
  5
269
100
AcDbEntity
  8
0
  6
CONTINUOUS
 62
               7
100
AcDbLine
 10
-38.499999999999915
 20
36.850000000000023
 30
0.0
 11
-38.0
 21
36.850000000000023
 31
0.0
  0
LINE
  5
26A
100
AcDbEntity
  8
0
  6
CONTINUOUS
 62
               7
100
AcDbLine
 10
-38.499999999999915
 20
24.350000000000023
 30
0.0
 11
-38.0
 21
24.350000000000023
 31
0.0
  0
LINE
  5
26B
100
AcDbEntity
  8
0
  6
CONTINUOUS
 62
               7
100
AcDbLine
 10
-38.0
 20
23.850000000000023
 30
0.0
 11
-26.5
 21
23.600000000000023
 31
0.0
  0
LINE
  5
26C
100
AcDbEntity
  8
0
  6
CONTINUOUS
 62
               7
100
AcDbLine
 10
-26.5
 20
23.600000000000023
 30
0.0
 11
-25.0
 21
23.600000000000023
 31
0.0
  0
LINE
  5
26D
100
AcDbEntity
  8
0
  6
CONTINUOUS
 62
               7
100
AcDbLine
 10
-38.0
 20
37.350000000000023
 30
0.0
 11
-26.5
 21
37.600000000000023
 31
0.0
  0
LINE
  5
26E
100
AcDbEntity
  8
0
  6
CONTINUOUS
 62
               7
100
AcDbLine
 10
-26.5
 20
37.600000000000023
 30
0.0
 11
-25.0
 21
37.600000000000023
 31
0.0
  0
LINE
  5
26F
100
AcDbEntity
  8
0
  6
CONTINUOUS
 62
               7
100
AcDbLine
 10
-38.0
 20
30.600000000000023
 30
0.0
 11
-28.0
 21
30.600000000000023
 31
0.0
  0
LINE
  5
270
100
AcDbEntity
  8
0
  6
CONTINUOUS
 62
               7
100
AcDbLine
 10
-38.0
 20
31.600000000000023
 30
0.0
 11
-28.0
 21
31.600000000000023
 31
0.0
  0
LINE
  5
271
100
AcDbEntity
  8
0
  6
CONTINUOUS
 62
               7
100
AcDbLine
 10
-38.0
 20
33.600000000000023
 30
0.0
 11
-28.0
 21
33.600000000000023
 31
0.0
  0
LINE
  5
272
100
AcDbEntity
  8
0
  6
CONTINUOUS
 62
               7
100
AcDbLine
 10
-38.0
 20
32.600000000000023
 30
0.0
 11
-28.0
 21
32.600000000000023
 31
0.0
  0
LINE
  5
273
100
AcDbEntity
  8
0
  6
CONTINUOUS
 62
               7
100
AcDbLine
 10
-38.0
 20
34.600000000000023
 30
0.0
 11
-28.0
 21
34.600000000000023
 31
0.0
  0
LINE
  5
274
100
AcDbEntity
  8
0
  6
CONTINUOUS
 62
               7
100
AcDbLine
 10
-38.0
 20
35.600000000000023
 30
0.0
 11
-28.0
 21
35.600000000000023
 31
0.0
  0
LINE
  5
275
100
AcDbEntity
  8
0
  6
CONTINUOUS
 62
               7
100
AcDbLine
 10
-38.0
 20
36.600000000000023
 30
0.0
 11
-28.0
 21
36.600000000000023
 31
0.0
  0
LINE
  5
276
100
AcDbEntity
  8
0
  6
CONTINUOUS
 62
               7
100
AcDbLine
 10
-38.0
 20
29.600000000000023
 30
0.0
 11
-28.0
 21
29.600000000000023
 31
0.0
  0
LINE
  5
277
100
AcDbEntity
  8
0
  6
CONTINUOUS
 62
               7
100
AcDbLine
 10
-38.0
 20
28.600000000000023
 30
0.0
 11
-28.0
 21
28.600000000000023
 31
0.0
  0
LINE
  5
278
100
AcDbEntity
  8
0
  6
CONTINUOUS
 62
               7
100
AcDbLine
 10
-38.0
 20
27.600000000000023
 30
0.0
 11
-26.5
 21
27.600000000000023
 31
0.0
  0
LINE
  5
279
100
AcDbEntity
  8
0
  6
CONTINUOUS
 62
               7
100
AcDbLine
 10
-38.0
 20
25.600000000000023
 30
0.0
 11
-26.5
 21
25.600000000000023
 31
0.0
  0
LINE
  5
27A
100
AcDbEntity
  8
0
  6
CONTINUOUS
 62
               7
100
AcDbLine
 10
-38.0
 20
26.600000000000023
 30
0.0
 11
-26.5
 21
26.600000000000023
 31
0.0
  0
LINE
  5
27B
100
AcDbEntity
  8
0
  6
CONTINUOUS
 62
               7
100
AcDbLine
 10
-38.0
 20
24.600000000000023
 30
0.0
 11
-26.5
 21
24.600000000000023
 31
0.0
  0
LINE
  5
27C
100
AcDbEntity
  8
0
  6
CONTINUOUS
 62
               7
100
AcDbLine
 10
-28.0
 20
37.450000000000017
 30
0.0
 11
-25.0
 21
37.450000000000017
 31
0.0
  0
LINE
  5
27D
100
AcDbEntity
  8
0
  6
CONTINUOUS
 62
               7
100
AcDbLine
 10
-25.0
 20
28.550000000000011
 30
0.0
 11
-28.0
 21
28.550000000000011
 31
0.0
  0
LINE
  5
27E
100
AcDbEntity
  8
0
  6
CONTINUOUS
 62
               7
100
AcDbLine
 10
-28.0
 20
28.550000000000011
 30
0.0
 11
-28.0
 21
37.450000000000017
 31
0.0
  0
LINE
  5
27F
100
AcDbEntity
  8
0
  6
CONTINUOUS
 62
               7
100
AcDbLine
 10
32.000000000000171
 20
50.0
 30
0.0
 11
25.000000000000171
 21
50.0
 31
0.0
  0
LINE
  5
280
100
AcDbEntity
  8
0
  6
CONTINUOUS
 62
               7
100
AcDbLine
 10
32.000000000000171
 20
130.0
 30
0.0
 11
25.000000000000171
 21
130.0
 31
0.0
  0
LINE
  5
281
100
AcDbEntity
  8
0
  6
CONTINUOUS
 62
               7
100
AcDbLine
 10
32.000000000000171
 20
130.0
 30
0.0
 11
32.000000000000171
 21
50.0
 31
0.0
  0
LINE
  5
282
100
AcDbEntity
  8
0
  6
PHANTOM
 62
               2
100
AcDbLine
 10
35.000000000000171
 20
131.5
 30
0.0
 11
35.000000000000171
 21
48.5
 31
0.0
  0
LINE
  5
283
100
AcDbEntity
  8
0
  6
PHANTOM
 62
               2
100
AcDbLine
 10
29.000000000000171
 20
131.5
 30
0.0
 11
29.000000000000171
 21
48.5
 31
0.0
  0
LINE
  5
284
100
AcDbEntity
  8
0
  6
PHANTOM
 62
               2
100
AcDbLine
 10
25.000000000000171
 20
131.5
 30
0.0
 11
35.000000000000171
 21
131.5
 31
0.0
  0
LINE
  5
285
100
AcDbEntity
  8
0
  6
PHANTOM
 62
               2
100
AcDbLine
 10
25.000000000000171
 20
48.5
 30
0.0
 11
35.000000000000171
 21
48.5
 31
0.0
  0
LINE
  5
286
100
AcDbEntity
  8
0
  6
CONTINUOUS
 62
               7
100
AcDbLine
 10
-25.0
 20
15.0
 30
0.0
 11
25.0
 21
15.0
 31
0.0
  0
LINE
  5
287
100
AcDbEntity
  8
0
  6
PHANTOM
 62
               2
100
AcDbLine
 10
-25.0
 20
0.0
 30
0.0
 11
25.0
 21
0.0
 31
0.0
  0
LINE
  5
288
100
AcDbEntity
  8
0
  6
CONTINUOUS
 62
               7
100
AcDbLine
 10
35.000000000000171
 20
131.5
 30
0.0
 11
25.000000000000171
 21
131.5
 31
0.0
  0
ENDBLK
  5
289
100
AcDbEntity
  8
0
100
AcDbBlockEnd
  0
BLOCK
  5
28A
100
AcDbEntity
  8
0
100
AcDbBlockBegin
  2
DTRY-ELF03-3
 70
               0
 10
0.0
 20
0.0
 30
0.0
  3
DTRY-ELF03-3
  1

  0
LINE
  5
28B
100
AcDbEntity
  8
0
  6
CONTINUOUS
 62
               7
100
AcDbLine
 10
-43.654875891004622
 20
16.316951249782122
 30
0.0
 11
-46.445124108994492
 21
19.183048750217878
 31
0.0
  0
LINE
  5
28C
100
AcDbEntity
  8
0
  6
CONTINUOUS
 62
               7
100
AcDbLine
 10
-46.464213562372663
 20
16.335786437626908
 30
0.0
 11
-43.63578643762645
 21
19.164213562373092
 31
0.0
  0
LINE
  5
28D
100
AcDbEntity
  8
0
  6
CONTINUOUS
 62
               7
100
AcDbLine
 10
46.345124108994725
 20
16.566951249781226
 30
0.0
 11
43.554875891004855
 21
19.433048750216983
 31
0.0
  0
LINE
  5
28E
100
AcDbEntity
  8
0
  6
CONTINUOUS
 62
               7
100
AcDbLine
 10
43.535786437626683
 20
16.585786437626012
 30
0.0
 11
46.364213562372896
 21
19.414213562372197
 31
0.0
  0
LINE
  5
28F
100
AcDbEntity
  8
0
  6
PHANTOM
 62
               2
100
AcDbLine
 10
-53.999999999999943
 20
25.000000000000014
 30
0.0
 11
-53.999999999999943
 21
-25.0
 31
0.0
  0
LINE
  5
290
100
AcDbEntity
  8
0
  6
PHANTOM
 62
               2
100
AcDbLine
 10
54.0
 20
25.000000000000014
 30
0.0
 11
54.0
 21
-25.0
 31
0.0
  0
LINE
  5
291
100
AcDbEntity
  8
0
  6
CONTINUOUS
 62
               2
100
AcDbLine
 10
0.0
 20
40.875084610180238
 30
0.0
 11
0.0
 21
-40.875084610180068
 31
0.0
  0
LINE
  5
292
100
AcDbEntity
  8
0
  6
CONTINUOUS
 62
               2
100
AcDbLine
 10
-29.999999999999943
 20
6.854722858978235
 30
0.0
 11
-29.999999999999943
 21
-6.8547228589785476
 31
0.0
  0
LINE
  5
293
100
AcDbEntity
  8
0
  6
CONTINUOUS
 62
               2
100
AcDbLine
 10
30.0
 20
6.854722858978235
 30
0.0
 11
30.0
 21
-6.8547228589785476
 31
0.0
  0
LINE
  5
294
100
AcDbEntity
  8
0
  6
PHANTOM
 62
               2
100
AcDbLine
 10
54.0
 20
25.000000000000014
 30
0.0
 11
-53.999999999999943
 21
25.000000000000014
 31
0.0
  0
LINE
  5
295
100
AcDbEntity
  8
0
  6
CONTINUOUS
 62
               7
100
AcDbLine
 10
22.05000000000021
 20
25.000000000000014
 30
0.0
 11
22.05000000000021
 21
27.999999999999673
 31
0.0
  0
LINE
  5
296
100
AcDbEntity
  8
0
  6
CONTINUOUS
 62
               7
100
AcDbLine
 10
30.950000000000017
 20
27.999999999999673
 30
0.0
 11
30.950000000000017
 21
25.000000000000014
 31
0.0
  0
LINE
  5
297
100
AcDbEntity
  8
0
  6
CONTINUOUS
 62
               7
100
AcDbLine
 10
-16.5326086956523
 20
28.000000000000142
 30
0.0
 11
43.000000000000313
 21
28.00000000000172
 31
0.0
  0
LINE
  5
298
100
AcDbEntity
  8
0
  6
CONTINUOUS
 62
               7
100
AcDbLine
 10
-16.576086956521806
 20
30.000000000000128
 30
0.0
 11
41.499995972473215
 21
30.000000000000128
 31
0.0
  0
LINE
  5
299
100
AcDbEntity
  8
0
  6
CONTINUOUS
 62
               7
100
AcDbLine
 10
43.000000000000313
 20
27.999999999999673
 30
0.0
 11
43.000000000000313
 21
25.000000000000014
 31
0.0
  0
LINE
  5
29A
100
AcDbEntity
  8
0
  6
CONTINUOUS
 62
               7
100
AcDbLine
 10
41.499995972473215
 20
30.000000000000128
 30
0.0
 11
41.499995972473215
 21
27.999999999999673
 31
0.0
  0
ARC
  5
29B
100
AcDbEntity
  8
0
  6
CONTINUOUS
 62
               7
100
AcDbCircle
 10
8.75
 20
34.749994330754433
 30
0.0
 40
1.25
100
AcDbArc
 50
0.0
 51
90.0
  0
LINE
  5
29C
100
AcDbEntity
  8
0
  6
CONTINUOUS
 62
               7
100
AcDbLine
 10
10.0
 20
34.749994330754433
 30
0.0
 11
10.0
 21
30.000000000000128
 31
0.0
  0
LINE
  5
29D
100
AcDbEntity
  8
0
  6
CONTINUOUS
 62
               7
100
AcDbLine
 10
8.75
 20
35.999994330754831
 30
0.0
 11
-8.7499999999997726
 21
35.999994330754831
 31
0.0
  0
LINE
  5
29E
100
AcDbEntity
  8
0
  6
CONTINUOUS
 62
               7
100
AcDbLine
 10
-17.25
 20
38.499999999999631
 30
0.0
 11
-29.749999999999943
 21
38.499999999999631
 31
0.0
  0
LINE
  5
29F
100
AcDbEntity
  8
0
  6
CONTINUOUS
 62
               7
100
AcDbLine
 10
-16.75
 20
38.000000000000043
 30
0.0
 11
-30.249999999999943
 21
38.000000000000043
 31
0.0
  0
LINE
  5
2A0
100
AcDbEntity
  8
0
  6
CONTINUOUS
 62
               7
100
AcDbLine
 10
-16.5
 20
26.500000000000028
 30
0.0
 11
-30.499999999999943
 21
26.500000000000028
 31
0.0
  0
LINE
  5
2A1
100
AcDbEntity
  8
0
  6
CONTINUOUS
 62
               7
100
AcDbLine
 10
-17.25
 20
38.499999999999631
 30
0.0
 11
-17.25
 21
38.000000000000043
 31
0.0
  0
LINE
  5
2A2
100
AcDbEntity
  8
0
  6
CONTINUOUS
 62
               7
100
AcDbLine
 10
-29.749999999999943
 20
38.499999999999631
 30
0.0
 11
-29.749999999999943
 21
38.000000000000043
 31
0.0
  0
LINE
  5
2A3
100
AcDbEntity
  8
0
  6
CONTINUOUS
 62
               7
100
AcDbLine
 10
-30.249999999999943
 20
38.000000000000043
 30
0.0
 11
-30.499999999999943
 21
26.500000000000028
 31
0.0
  0
LINE
  5
2A4
100
AcDbEntity
  8
0
  6
CONTINUOUS
 62
               7
100
AcDbLine
 10
-30.499999999999943
 20
26.500000000000028
 30
0.0
 11
-30.499999999999943
 21
25.000000000000014
 31
0.0
  0
LINE
  5
2A5
100
AcDbEntity
  8
0
  6
CONTINUOUS
 62
               7
100
AcDbLine
 10
-16.75
 20
38.000000000000043
 30
0.0
 11
-16.5
 21
26.500000000000028
 31
0.0
  0
LINE
  5
2A6
100
AcDbEntity
  8
0
  6
CONTINUOUS
 62
               7
100
AcDbLine
 10
-16.5
 20
26.500000000000028
 30
0.0
 11
-16.5
 21
25.000000000000014
 31
0.0
  0
LINE
  5
2A7
100
AcDbEntity
  8
0
  6
CONTINUOUS
 62
               7
100
AcDbLine
 10
-23.5
 20
38.000000000000043
 30
0.0
 11
-23.5
 21
26.500000000000028
 31
0.0
  0
LINE
  5
2A8
100
AcDbEntity
  8
0
  6
CONTINUOUS
 62
               7
100
AcDbLine
 10
-22.5
 20
38.000000000000043
 30
0.0
 11
-22.5
 21
26.500000000000028
 31
0.0
  0
LINE
  5
2A9
100
AcDbEntity
  8
0
  6
CONTINUOUS
 62
               7
100
AcDbLine
 10
-20.5
 20
38.000000000000043
 30
0.0
 11
-20.5
 21
26.500000000000028
 31
0.0
  0
LINE
  5
2AA
100
AcDbEntity
  8
0
  6
CONTINUOUS
 62
               7
100
AcDbLine
 10
-21.5
 20
38.000000000000043
 30
0.0
 11
-21.5
 21
26.500000000000028
 31
0.0
  0
LINE
  5
2AB
100
AcDbEntity
  8
0
  6
CONTINUOUS
 62
               7
100
AcDbLine
 10
-19.5
 20
38.000000000000043
 30
0.0
 11
-19.5
 21
26.500000000000028
 31
0.0
  0
LINE
  5
2AC
100
AcDbEntity
  8
0
  6
CONTINUOUS
 62
               7
100
AcDbLine
 10
-18.5
 20
38.000000000000043
 30
0.0
 11
-18.5
 21
26.500000000000028
 31
0.0
  0
LINE
  5
2AD
100
AcDbEntity
  8
0
  6
CONTINUOUS
 62
               7
100
AcDbLine
 10
-17.5
 20
38.000000000000043
 30
0.0
 11
-17.5
 21
26.500000000000028
 31
0.0
  0
LINE
  5
2AE
100
AcDbEntity
  8
0
  6
CONTINUOUS
 62
               7
100
AcDbLine
 10
-24.499999999999943
 20
38.000000000000043
 30
0.0
 11
-24.499999999999943
 21
26.500000000000028
 31
0.0
  0
LINE
  5
2AF
100
AcDbEntity
  8
0
  6
CONTINUOUS
 62
               7
100
AcDbLine
 10
-25.499999999999943
 20
38.000000000000043
 30
0.0
 11
-25.499999999999943
 21
26.500000000000028
 31
0.0
  0
LINE
  5
2B0
100
AcDbEntity
  8
0
  6
CONTINUOUS
 62
               7
100
AcDbLine
 10
-26.499999999999943
 20
38.000000000000043
 30
0.0
 11
-26.499999999999943
 21
26.500000000000028
 31
0.0
  0
LINE
  5
2B1
100
AcDbEntity
  8
0
  6
CONTINUOUS
 62
               7
100
AcDbLine
 10
-28.499999999999943
 20
38.000000000000043
 30
0.0
 11
-28.499999999999943
 21
26.500000000000028
 31
0.0
  0
LINE
  5
2B2
100
AcDbEntity
  8
0
  6
CONTINUOUS
 62
               7
100
AcDbLine
 10
-27.499999999999943
 20
38.000000000000043
 30
0.0
 11
-27.499999999999943
 21
26.500000000000028
 31
0.0
  0
LINE
  5
2B3
100
AcDbEntity
  8
0
  6
CONTINUOUS
 62
               7
100
AcDbLine
 10
-29.499999999999943
 20
38.000000000000043
 30
0.0
 11
-29.499999999999943
 21
26.500000000000028
 31
0.0
  0
ARC
  5
2B4
100
AcDbEntity
  8
0
  6
CONTINUOUS
 62
               7
100
AcDbCircle
 10
-8.7499999999997726
 20
34.749994330754831
 30
0.0
 40
1.25
100
AcDbArc
 50
90.0
 51
180.0
  0
LINE
  5
2B5
100
AcDbEntity
  8
0
  6
CONTINUOUS
 62
               7
100
AcDbLine
 10
-42.999999999999488
 20
27.999999999999673
 30
0.0
 11
-30.467391304347757
 21
27.999999999999673
 31
0.0
  0
LINE
  5
2B6
100
AcDbEntity
  8
0
  6
CONTINUOUS
 62
               7
100
AcDbLine
 10
-41.49999597247222
 20
30.000000000000128
 30
0.0
 11
-30.423913043478251
 21
30.000000000000128
 31
0.0
  0
LINE
  5
2B7
100
AcDbEntity
  8
0
  6
CONTINUOUS
 62
               7
100
AcDbLine
 10
-41.49999597247222
 20
27.999999999999673
 30
0.0
 11
-41.49999597247222
 21
30.000000000000128
 31
0.0
  0
LINE
  5
2B8
100
AcDbEntity
  8
0
  6
CONTINUOUS
 62
               7
100
AcDbLine
 10
-42.999999999999488
 20
25.000000000000014
 30
0.0
 11
-42.999999999999488
 21
27.999999999999673
 31
0.0
  0
LINE
  5
2B9
100
AcDbEntity
  8
0
  6
CONTINUOUS
 62
               7
100
AcDbLine
 10
-9.9999999999997726
 20
34.749994330754831
 30
0.0
 11
-9.9999999999997726
 21
30.000000000000128
 31
0.0
  0
CIRCLE
  5
2BA
100
AcDbEntity
  8
0
  6
PHANTOM
 62
               2
100
AcDbCircle
 10
30.0
 20
0.0
 30
0.0
 40
2.25
  0
CIRCLE
  5
2BB
100
AcDbEntity
  8
0
  6
PHANTOM
 62
               2
100
AcDbCircle
 10
-29.999999999999943
 20
0.0
 30
0.0
 40
2.25
  0
CIRCLE
  5
2BC
100
AcDbEntity
  8
0
  6
PHANTOM
 62
               2
100
AcDbCircle
 10
0.0
 20
0.0
 30
0.0
 40
2.25
  0
LINE
  5
2BD
100
AcDbEntity
  8
0
  6
CONTINUOUS
 62
               2
100
AcDbLine
 10
-71.747637165706863
 20
0.0
 30
0.0
 11
71.747637165707204
 21
0.0
 31
0.0
  0
LINE
  5
2BE
100
AcDbEntity
  8
0
  6
PHANTOM
 62
               2
100
AcDbLine
 10
-53.999999999999943
 20
-25.0
 30
0.0
 11
54.0
 21
-25.0
 31
0.0
  0
LINE
  5
2BF
100
AcDbEntity
  8
0
  6
PHANTOM
 62
               2
100
AcDbLine
 10
54.0
 20
-4.5
 30
0.0
 11
54.30000000000021
 21
-4.5
 31
0.0
  0
LINE
  5
2C0
100
AcDbEntity
  8
0
  6
PHANTOM
 62
               2
100
AcDbLine
 10
54.0
 20
4.5
 30
0.0
 11
54.30000000000021
 21
4.5
 31
0.0
  0
LINE
  5
2C1
100
AcDbEntity
  8
0
  6
PHANTOM
 62
               2
100
AcDbLine
 10
66.0
 20
6.5
 30
0.0
 11
66.0
 21
-6.5
 31
0.0
  0
LINE
  5
2C2
100
AcDbEntity
  8
0
  6
PHANTOM
 62
               2
100
AcDbLine
 10
54.30000000000021
 20
5.5
 30
0.0
 11
54.30000000000021
 21
-5.5
 31
0.0
  0
LINE
  5
2C3
100
AcDbEntity
  8
0
  6
PHANTOM
 62
               2
100
AcDbLine
 10
56.0
 20
7.5
 30
0.0
 11
56.0
 21
-7.5
 31
0.0
  0
LINE
  5
2C4
100
AcDbEntity
  8
0
  6
PHANTOM
 62
               2
100
AcDbLine
 10
54.30000000000021
 20
5.5
 30
0.0
 11
56.0
 21
5.5
 31
0.0
  0
LINE
  5
2C5
100
AcDbEntity
  8
0
  6
PHANTOM
 62
               2
100
AcDbLine
 10
54.30000000000021
 20
-5.5
 30
0.0
 11
56.0
 21
-5.5
 31
0.0
  0
LINE
  5
2C6
100
AcDbEntity
  8
0
  6
PHANTOM
 62
               2
100
AcDbLine
 10
56.499999999999915
 20
8.0
 30
0.0
 11
64.700000000000415
 21
8.0
 31
0.0
  0
LINE
  5
2C7
100
AcDbEntity
  8
0
  6
PHANTOM
 62
               2
100
AcDbLine
 10
65.5
 20
7.0
 30
0.0
 11
65.200000000000216
 21
7.0
 31
0.0
  0
ARC
  5
2C8
100
AcDbEntity
  8
0
  6
PHANTOM
 62
               2
100
AcDbCircle
 10
65.500000000000227
 20
6.5
 30
0.0
 40
0.5
100
AcDbArc
 50
0.0
 51
90.0
  0
ARC
  5
2C9
100
AcDbEntity
  8
0
  6
PHANTOM
 62
               2
100
AcDbCircle
 10
64.700000000000415
 20
7.5
 30
0.0
 40
0.5
100
AcDbArc
 50
0.0
 51
90.0
  0
ARC
  5
2CA
100
AcDbEntity
  8
0
  6
PHANTOM
 62
               2
100
AcDbCircle
 10
56.500000000000227
 20
-7.5
 30
0.0
 40
0.5
100
AcDbArc
 50
180.0
 51
270.0
  0
ARC
  5
2CB
100
AcDbEntity
  8
0
  6
PHANTOM
 62
               2
100
AcDbCircle
 10
56.500000000000227
 20
7.5
 30
0.0
 40
0.5
100
AcDbArc
 50
90.0
 51
180.0
  0
LINE
  5
2CC
100
AcDbEntity
  8
0
  6
PHANTOM
 62
               2
100
AcDbLine
 10
65.200000000000216
 20
-0.399999999999892
 30
0.0
 11
58.070954845342413
 21
-0.399999999999892
 31
0.0
  0
LINE
  5
2CD
100
AcDbEntity
  8
0
  6
PHANTOM
 62
               2
100
AcDbLine
 10
65.200000000000216
 20
0.4000000000002046
 30
0.0
 11
58.070954845342413
 21
0.4000000000002046
 31
0.0
  0
ARC
  5
2CE
100
AcDbEntity
  8
0
  6
PHANTOM
 62
               2
100
AcDbCircle
 10
58.070954845342612
 20
0.0
 30
0.0
 40
0.4
100
AcDbArc
 50
90.0
 51
270.0
  0
ARC
  5
2CF
100
AcDbEntity
  8
0
  6
PHANTOM
 62
               2
100
AcDbCircle
 10
58.070954845342612
 20
3.0
 30
0.0
 40
0.4
100
AcDbArc
 50
90.0
 51
270.0
  0
LINE
  5
2D0
100
AcDbEntity
  8
0
  6
PHANTOM
 62
               2
100
AcDbLine
 10
65.200000000000216
 20
3.4000000000000057
 30
0.0
 11
58.070954845342413
 21
3.4000000000000057
 31
0.0
  0
LINE
  5
2D1
100
AcDbEntity
  8
0
  6
PHANTOM
 62
               2
100
AcDbLine
 10
65.200000000000216
 20
2.6000000000000227
 30
0.0
 11
58.070954845342413
 21
2.6000000000000227
 31
0.0
  0
ARC
  5
2D2
100
AcDbEntity
  8
0
  6
PHANTOM
 62
               2
100
AcDbCircle
 10
58.070954845342612
 20
-3.0
 30
0.0
 40
0.4
100
AcDbArc
 50
90.0
 51
270.0
  0
LINE
  5
2D3
100
AcDbEntity
  8
0
  6
PHANTOM
 62
               2
100
AcDbLine
 10
65.200000000000216
 20
-2.5999999999997954
 30
0.0
 11
58.070954845342413
 21
-2.5999999999997954
 31
0.0
  0
LINE
  5
2D4
100
AcDbEntity
  8
0
  6
PHANTOM
 62
               2
100
AcDbLine
 10
65.200000000000216
 20
-3.3999999999999773
 30
0.0
 11
58.070954845342413
 21
-3.3999999999999773
 31
0.0
  0
LINE
  5
2D5
100
AcDbEntity
  8
0
  6
PHANTOM
 62
               2
100
AcDbLine
 10
65.200000000000216
 20
5.6000000000000227
 30
0.0
 11
58.070954845342413
 21
5.6000000000000227
 31
0.0
  0
LINE
  5
2D6
100
AcDbEntity
  8
0
  6
PHANTOM
 62
               2
100
AcDbLine
 10
65.200000000000216
 20
6.4000000000002046
 30
0.0
 11
58.070954845342413
 21
6.4000000000002046
 31
0.0
  0
ARC
  5
2D7
100
AcDbEntity
  8
0
  6
PHANTOM
 62
               2
100
AcDbCircle
 10
58.070954845342612
 20
6.0
 30
0.0
 40
0.4
100
AcDbArc
 50
90.0
 51
270.0
  0
LINE
  5
2D8
100
AcDbEntity
  8
0
  6
PHANTOM
 62
               2
100
AcDbLine
 10
65.200000000000216
 20
-6.3999999999999773
 30
0.0
 11
58.070954845342413
 21
-6.3999999999999773
 31
0.0
  0
LINE
  5
2D9
100
AcDbEntity
  8
0
  6
PHANTOM
 62
               2
100
AcDbLine
 10
65.200000000000216
 20
-5.5999999999999943
 30
0.0
 11
58.070954845342413
 21
-5.5999999999999943
 31
0.0
  0
ARC
  5
2DA
100
AcDbEntity
  8
0
  6
PHANTOM
 62
               2
100
AcDbCircle
 10
58.070954845342612
 20
-6.0
 30
0.0
 40
0.4
100
AcDbArc
 50
90.0
 51
270.0
  0
ARC
  5
2DB
100
AcDbEntity
  8
0
  6
PHANTOM
 62
               2
100
AcDbCircle
 10
64.700000000000415
 20
-7.5
 30
0.0
 40
0.5
100
AcDbArc
 50
270.0
 51
0.0
  0
ARC
  5
2DC
100
AcDbEntity
  8
0
  6
PHANTOM
 62
               2
100
AcDbCircle
 10
65.500000000000227
 20
-6.5
 30
0.0
 40
0.5
100
AcDbArc
 50
270.0
 51
0.0
  0
LINE
  5
2DD
100
AcDbEntity
  8
0
  6
PHANTOM
 62
               2
100
AcDbLine
 10
65.5
 20
-7.0
 30
0.0
 11
65.200000000000216
 21
-7.0
 31
0.0
  0
LINE
  5
2DE
100
AcDbEntity
  8
0
  6
PHANTOM
 62
               2
100
AcDbLine
 10
56.499999999999915
 20
-8.0
 30
0.0
 11
64.700000000000415
 21
-8.0
 31
0.0
  0
LINE
  5
2DF
100
AcDbEntity
  8
0
  6
PHANTOM
 62
               2
100
AcDbLine
 10
65.200000000000216
 20
7.5
 30
0.0
 11
65.200000000000216
 21
-7.5
 31
0.0
  0
LINE
  5
2E0
100
AcDbEntity
  8
0
  6
PHANTOM
 62
               2
100
AcDbLine
 10
-53.999999999999943
 20
4.5
 30
0.0
 11
-54.300000000000182
 21
4.5
 31
0.0
  0
LINE
  5
2E1
100
AcDbEntity
  8
0
  6
PHANTOM
 62
               2
100
AcDbLine
 10
-53.999999999999943
 20
-4.5
 30
0.0
 11
-54.300000000000182
 21
-4.5
 31
0.0
  0
LINE
  5
2E2
100
AcDbEntity
  8
0
  6
PHANTOM
 62
               2
100
AcDbLine
 10
-65.200000000000216
 20
0.4000000000002046
 30
0.0
 11
-58.070954845342328
 21
0.4000000000002046
 31
0.0
  0
LINE
  5
2E3
100
AcDbEntity
  8
0
  6
PHANTOM
 62
               2
100
AcDbLine
 10
-56.499999999999943
 20
-8.0
 30
0.0
 11
-64.700000000000216
 21
-8.0
 31
0.0
  0
LINE
  5
2E4
100
AcDbEntity
  8
0
  6
PHANTOM
 62
               2
100
AcDbLine
 10
-65.499999999999943
 20
-7.0000000000002842
 30
0.0
 11
-65.200000000000216
 21
-7.0000000000002842
 31
0.0
  0
ARC
  5
2E5
100
AcDbEntity
  8
0
  6
PHANTOM
 62
               2
100
AcDbCircle
 10
-65.500000000000171
 20
-6.5
 30
0.0
 40
0.5
100
AcDbArc
 50
180.0
 51
270.0
  0
ARC
  5
2E6
100
AcDbEntity
  8
0
  6
PHANTOM
 62
               2
100
AcDbCircle
 10
-64.700000000000216
 20
-7.500000000000199
 30
0.0
 40
0.5
100
AcDbArc
 50
180.0
 51
270.0
  0
ARC
  5
2E7
100
AcDbEntity
  8
0
  6
PHANTOM
 62
               2
100
AcDbCircle
 10
-58.070954845342555
 20
-6.0
 30
0.0
 40
0.4
100
AcDbArc
 50
270.0
 51
90.0
  0
LINE
  5
2E8
100
AcDbEntity
  8
0
  6
PHANTOM
 62
               2
100
AcDbLine
 10
-65.200000000000216
 20
-5.5999999999999943
 30
0.0
 11
-58.070954845342328
 21
-5.5999999999999943
 31
0.0
  0
LINE
  5
2E9
100
AcDbEntity
  8
0
  6
PHANTOM
 62
               2
100
AcDbLine
 10
-65.200000000000216
 20
-6.3999999999999773
 30
0.0
 11
-58.070954845342328
 21
-6.3999999999999773
 31
0.0
  0
LINE
  5
2EA
100
AcDbEntity
  8
0
  6
PHANTOM
 62
               2
100
AcDbLine
 10
-65.200000000000216
 20
-3.3999999999999773
 30
0.0
 11
-58.070954845342328
 21
-3.3999999999999773
 31
0.0
  0
LINE
  5
2EB
100
AcDbEntity
  8
0
  6
PHANTOM
 62
               2
100
AcDbLine
 10
-65.200000000000216
 20
-2.5999999999997954
 30
0.0
 11
-58.070954845342328
 21
-2.5999999999997954
 31
0.0
  0
ARC
  5
2EC
100
AcDbEntity
  8
0
  6
PHANTOM
 62
               2
100
AcDbCircle
 10
-58.070954845342555
 20
-3.0
 30
0.0
 40
0.4
100
AcDbArc
 50
270.0
 51
90.0
  0
ARC
  5
2ED
100
AcDbEntity
  8
0
  6
PHANTOM
 62
               2
100
AcDbCircle
 10
-58.070954845342555
 20
0.0
 30
0.0
 40
0.4
100
AcDbArc
 50
270.0
 51
90.0
  0
LINE
  5
2EE
100
AcDbEntity
  8
0
  6
PHANTOM
 62
               2
100
AcDbLine
 10
-65.200000000000216
 20
-0.399999999999892
 30
0.0
 11
-58.070954845342328
 21
-0.399999999999892
 31
0.0
  0
ARC
  5
2EF
100
AcDbEntity
  8
0
  6
PHANTOM
 62
               2
100
AcDbCircle
 10
-56.500000000000227
 20
-7.5
 30
0.0
 40
0.5
100
AcDbArc
 50
270.0
 51
0.0
  0
LINE
  5
2F0
100
AcDbEntity
  8
0
  6
PHANTOM
 62
               2
100
AcDbLine
 10
-54.300000000000182
 20
-5.5
 30
0.0
 11
-55.999999999999943
 21
-5.5
 31
0.0
  0
LINE
  5
2F1
100
AcDbEntity
  8
0
  6
PHANTOM
 62
               2
100
AcDbLine
 10
-65.200000000000216
 20
7.4999999999997158
 30
0.0
 11
-65.200000000000216
 21
-7.500000000000199
 31
0.0
  0
ARC
  5
2F2
100
AcDbEntity
  8
0
  6
PHANTOM
 62
               2
100
AcDbCircle
 10
-58.070954845342555
 20
6.0
 30
0.0
 40
0.4
100
AcDbArc
 50
270.0
 51
90.0
  0
LINE
  5
2F3
100
AcDbEntity
  8
0
  6
PHANTOM
 62
               2
100
AcDbLine
 10
-65.200000000000216
 20
6.4000000000002046
 30
0.0
 11
-58.070954845342328
 21
6.4000000000002046
 31
0.0
  0
LINE
  5
2F4
100
AcDbEntity
  8
0
  6
PHANTOM
 62
               2
100
AcDbLine
 10
-65.200000000000216
 20
5.6000000000000227
 30
0.0
 11
-58.070954845342328
 21
5.6000000000000227
 31
0.0
  0
LINE
  5
2F5
100
AcDbEntity
  8
0
  6
PHANTOM
 62
               2
100
AcDbLine
 10
-65.200000000000216
 20
2.6000000000000227
 30
0.0
 11
-58.070954845342328
 21
2.6000000000000227
 31
0.0
  0
LINE
  5
2F6
100
AcDbEntity
  8
0
  6
PHANTOM
 62
               2
100
AcDbLine
 10
-65.200000000000216
 20
3.4000000000000057
 30
0.0
 11
-58.070954845342328
 21
3.4000000000000057
 31
0.0
  0
ARC
  5
2F7
100
AcDbEntity
  8
0
  6
PHANTOM
 62
               2
100
AcDbCircle
 10
-58.070954845342555
 20
3.0
 30
0.0
 40
0.4
100
AcDbArc
 50
270.0
 51
90.0
  0
ARC
  5
2F8
100
AcDbEntity
  8
0
  6
PHANTOM
 62
               2
100
AcDbCircle
 10
-56.500000000000227
 20
7.5
 30
0.0
 40
0.5
100
AcDbArc
 50
0.0
 51
90.0
  0
ARC
  5
2F9
100
AcDbEntity
  8
0
  6
PHANTOM
 62
               2
100
AcDbCircle
 10
-64.700000000000216
 20
7.5
 30
0.0
 40
0.5
100
AcDbArc
 50
90.0
 51
180.0
  0
ARC
  5
2FA
100
AcDbEntity
  8
0
  6
PHANTOM
 62
               2
100
AcDbCircle
 10
-65.500000000000171
 20
6.499999999999801
 30
0.0
 40
0.5
100
AcDbArc
 50
90.0
 51
180.0
  0
LINE
  5
2FB
100
AcDbEntity
  8
0
  6
PHANTOM
 62
               2
100
AcDbLine
 10
-65.499999999999943
 20
6.999999999999801
 30
0.0
 11
-65.200000000000216
 21
6.999999999999801
 31
0.0
  0
LINE
  5
2FC
100
AcDbEntity
  8
0
  6
PHANTOM
 62
               2
100
AcDbLine
 10
-56.499999999999943
 20
8.0
 30
0.0
 11
-64.700000000000216
 21
8.0
 31
0.0
  0
LINE
  5
2FD
100
AcDbEntity
  8
0
  6
PHANTOM
 62
               2
100
AcDbLine
 10
-54.300000000000182
 20
5.5
 30
0.0
 11
-55.999999999999943
 21
5.5
 31
0.0
  0
LINE
  5
2FE
100
AcDbEntity
  8
0
  6
PHANTOM
 62
               2
100
AcDbLine
 10
-55.999999999999943
 20
7.5
 30
0.0
 11
-55.999999999999943
 21
-7.5
 31
0.0
  0
LINE
  5
2FF
100
AcDbEntity
  8
0
  6
PHANTOM
 62
               2
100
AcDbLine
 10
-54.300000000000182
 20
5.5
 30
0.0
 11
-54.300000000000182
 21
-5.5
 31
0.0
  0
LINE
  5
300
100
AcDbEntity
  8
0
  6
PHANTOM
 62
               2
100
AcDbLine
 10
-66.000000000000114
 20
6.499999999999801
 30
0.0
 11
-66.000000000000114
 21
-6.500000000000199
 31
0.0
  0
LINE
  5
301
100
AcDbEntity
  8
0
  6
CONTINUOUS
 62
               7
100
AcDbLine
 10
40.0
 20
-32.0
 30
0.0
 11
40.0
 21
-25.0
 31
0.0
  0
LINE
  5
302
100
AcDbEntity
  8
0
  6
CONTINUOUS
 62
               7
100
AcDbLine
 10
-40.0
 20
-32.0
 30
0.0
 11
-40.0
 21
-25.0
 31
0.0
  0
LINE
  5
303
100
AcDbEntity
  8
0
  6
CONTINUOUS
 62
               7
100
AcDbLine
 10
-40.0
 20
-32.0
 30
0.0
 11
40.0
 21
-32.0
 31
0.0
  0
LINE
  5
304
100
AcDbEntity
  8
0
  6
PHANTOM
 62
               2
100
AcDbLine
 10
-41.5
 20
-35.0
 30
0.0
 11
41.5
 21
-35.0
 31
0.0
  0
LINE
  5
305
100
AcDbEntity
  8
0
  6
PHANTOM
 62
               2
100
AcDbLine
 10
41.5
 20
-35.0
 30
0.0
 11
41.5
 21
-25.0
 31
0.0
  0
LINE
  5
306
100
AcDbEntity
  8
0
  6
PHANTOM
 62
               2
100
AcDbLine
 10
-41.5
 20
-35.0
 30
0.0
 11
-41.5
 21
-25.0
 31
0.0
  0
LINE
  5
307
100
AcDbEntity
  8
0
  6
PHANTOM
 62
               2
100
AcDbLine
 10
41.5
 20
-29.0
 30
0.0
 11
8.0
 21
-29.0
 31
0.0
  0
LINE
  5
308
100
AcDbEntity
  8
0
  6
PHANTOM
 62
               2
100
AcDbLine
 10
-8.0
 20
-25.0
 30
0.0
 11
-8.0
 21
-29.0
 31
0.0
  0
LINE
  5
309
100
AcDbEntity
  8
0
  6
PHANTOM
 62
               2
100
AcDbLine
 10
8.0
 20
-25.0
 30
0.0
 11
8.0
 21
-29.0
 31
0.0
  0
LINE
  5
30A
100
AcDbEntity
  8
0
  6
PHANTOM
 62
               2
100
AcDbLine
 10
-8.0
 20
-29.0
 30
0.0
 11
-41.5
 21
-29.0
 31
0.0
  0
LINE
  5
30B
100
AcDbEntity
  8
0
  6
CONTINUOUS
 62
               7
100
AcDbLine
 10
49.999999999999844
 20
25.000000000000014
 30
0.0
 11
49.999999999999844
 21
-25.0
 31
0.0
  0
LINE
  5
30C
100
AcDbEntity
  8
0
  6
CONTINUOUS
 62
               7
100
AcDbLine
 10
-50.000000000000085
 20
25.000000000000014
 30
0.0
 11
-50.000000000000085
 21
-25.0
 31
0.0
  0
LINE
  5
30D
100
AcDbEntity
  8
0
  6
CONTINUOUS
 62
               7
100
AcDbLine
 10
49.000000000000171
 20
23.999999999999091
 30
0.0
 11
-48.999999999999829
 21
23.999999999999091
 31
0.0
  0
LINE
  5
30E
100
AcDbEntity
  8
0
  6
CONTINUOUS
 62
               7
100
AcDbLine
 10
49.000000000000171
 20
-25.0
 30
0.0
 11
49.000000000000171
 21
23.999999999999091
 31
0.0
  0
LINE
  5
30F
100
AcDbEntity
  8
0
  6
CONTINUOUS
 62
               7
100
AcDbLine
 10
-49.0
 20
-25.0
 30
0.0
 11
-49.0
 21
23.999999999999091
 31
0.0
  0
CIRCLE
  5
310
100
AcDbEntity
  8
0
  6
CONTINUOUS
 62
               7
100
AcDbCircle
 10
-45.049999999999557
 20
17.75
 30
0.0
 40
3.0
  0
CIRCLE
  5
311
100
AcDbEntity
  8
0
  6
CONTINUOUS
 62
               7
100
AcDbCircle
 10
44.94999999999979
 20
17.999999999999105
 30
0.0
 40
3.0
  0
LINE
  5
312
100
AcDbEntity
  8
0
  6
CONTINUOUS
 62
               2
100
AcDbLine
 10
-22.500000000000114
 20
3.2522015775930413
 30
0.0
 11
-22.500000000000114
 21
-3.2522015775930555
 31
0.0
  0
CIRCLE
  5
313
100
AcDbEntity
  8
0
  6
CONTINUOUS
 62
               7
100
AcDbCircle
 10
-22.500000000000426
 20
-0.0000000000009095
 30
0.0
 40
1.1999999999999991
  0
CIRCLE
  5
314
100
AcDbEntity
  8
0
  6
CONTINUOUS
 62
               2
100
AcDbCircle
 10
-22.500000000000426
 20
-0.0000000000009095
 30
0.0
 40
1.5
  0
CIRCLE
  5
315
100
AcDbEntity
  8
0
  6
CONTINUOUS
 62
               2
100
AcDbCircle
 10
22.499999999999773
 20
-0.0000000000009095
 30
0.0
 40
1.5
  0
CIRCLE
  5
316
100
AcDbEntity
  8
0
  6
CONTINUOUS
 62
               7
100
AcDbCircle
 10
22.499999999999773
 20
-0.0000000000009095
 30
0.0
 40
1.1999999999999991
  0
LINE
  5
317
100
AcDbEntity
  8
0
  6
CONTINUOUS
 62
               2
100
AcDbLine
 10
22.499999999999886
 20
3.2522015775930413
 30
0.0
 11
22.499999999999886
 21
-3.2522015775930555
 31
0.0
  0
LINE
  5
318
100
AcDbEntity
  8
0
  6
CONTINUOUS
 62
               7
100
AcDbLine
 10
49.999999999999844
 20
-25.0
 30
0.0
 11
-50.000000000000085
 21
-25.0
 31
0.0
  0
LINE
  5
319
100
AcDbEntity
  8
0
  6
CONTINUOUS
 62
               7
100
AcDbLine
 10
-50.000000000000085
 20
25.000000000000014
 30
0.0
 11
49.999999999999844
 21
25.000000000000014
 31
0.0
  0
ENDBLK
  5
31A
100
AcDbEntity
  8
0
100
AcDbBlockEnd
  0
BLOCK
  5
31B
100
AcDbEntity
  8
0
100
AcDbBlockBegin
  2
DTRY-ELF03-4
 70
               0
 10
0.0
 20
0.0
 30
0.0
  3
DTRY-ELF03-4
  1

  0
LINE
  5
31C
100
AcDbEntity
  8
0
  6
CONTINUOUS
 62
               7
100
AcDbLine
 10
37.143294379018414
 20
52.856705620981629
 30
0.0
 11
33.607760473085648
 21
56.392239526914366
 31
0.0
  0
LINE
  5
31D
100
AcDbEntity
  8
0
  6
CONTINUOUS
 62
               7
100
AcDbLine
 10
33.607760473085648
 20
52.856705620981629
 30
0.0
 11
37.143294379018414
 21
56.392239526914366
 31
0.0
  0
LINE
  5
31E
100
AcDbEntity
  8
0
  6
CONTINUOUS
 62
               7
100
AcDbLine
 10
-33.607760473085591
 20
52.856705620981629
 30
0.0
 11
-37.143294379018357
 21
56.392239526914366
 31
0.0
  0
LINE
  5
31F
100
AcDbEntity
  8
0
  6
CONTINUOUS
 62
               7
100
AcDbLine
 10
-37.143294379018357
 20
52.856705620981629
 30
0.0
 11
-33.607760473085591
 21
56.392239526914366
 31
0.0
  0
LINE
  5
320
100
AcDbEntity
  8
0
  6
CONTINUOUS
 62
               7
100
AcDbLine
 10
-33.607760473085591
 20
123.60776047308552
 30
0.0
 11
-37.143294379018357
 21
127.14329437901826
 31
0.0
  0
LINE
  5
321
100
AcDbEntity
  8
0
  6
CONTINUOUS
 62
               7
100
AcDbLine
 10
-37.143294379018357
 20
123.60776047308552
 30
0.0
 11
-33.607760473085591
 21
127.14329437901826
 31
0.0
  0
LINE
  5
322
100
AcDbEntity
  8
0
  6
CONTINUOUS
 62
               7
100
AcDbLine
 10
37.143294379018414
 20
123.60776047308552
 30
0.0
 11
33.607760473085648
 21
127.14329437901826
 31
0.0
  0
LINE
  5
323
100
AcDbEntity
  8
0
  6
CONTINUOUS
 62
               7
100
AcDbLine
 10
33.607760473085648
 20
123.60776047308552
 30
0.0
 11
37.143294379018414
 21
127.14329437901826
 31
0.0
  0
CIRCLE
  5
324
100
AcDbEntity
  8
0
  6
CONTINUOUS
 62
               2
100
AcDbCircle
 10
40.000000000000512
 20
43.959358573299625
 30
0.0
 40
1.5
  0
CIRCLE
  5
325
100
AcDbEntity
  8
0
  6
CONTINUOUS
 62
               7
100
AcDbCircle
 10
40.000000000000512
 20
43.959358573299625
 30
0.0
 40
1.1999999999999991
  0
CIRCLE
  5
326
100
AcDbEntity
  8
0
  6
CONTINUOUS
 62
               7
100
AcDbCircle
 10
5.0000000000005116
 20
43.959358573299625
 30
0.0
 40
1.1999999999999991
  0
CIRCLE
  5
327
100
AcDbEntity
  8
0
  6
CONTINUOUS
 62
               2
100
AcDbCircle
 10
5.0000000000005116
 20
43.959358573299625
 30
0.0
 40
1.5
  0
CIRCLE
  5
328
100
AcDbEntity
  8
0
  6
CONTINUOUS
 62
               7
100
AcDbCircle
 10
-4.9999999999994884
 20
43.959358573299625
 30
0.0
 40
1.1999999999999991
  0
CIRCLE
  5
329
100
AcDbEntity
  8
0
  6
CONTINUOUS
 62
               2
100
AcDbCircle
 10
-4.9999999999994884
 20
43.959358573299625
 30
0.0
 40
1.5
  0
CIRCLE
  5
32A
100
AcDbEntity
  8
0
  6
CONTINUOUS
 62
               2
100
AcDbCircle
 10
-39.999999999999488
 20
43.959358573299625
 30
0.0
 40
1.5
  0
CIRCLE
  5
32B
100
AcDbEntity
  8
0
  6
CONTINUOUS
 62
               7
100
AcDbCircle
 10
-39.999999999999488
 20
43.959358573299625
 30
0.0
 40
1.1999999999999991
  0
LINE
  5
32C
100
AcDbEntity
  8
0
  6
CONTINUOUS
 62
               7
100
AcDbLine
 10
49.000000000000171
 20
15.0
 30
0.0
 11
49.000000000000171
 21
135.0
 31
0.0
  0
LINE
  5
32D
100
AcDbEntity
  8
0
  6
CONTINUOUS
 62
               7
100
AcDbLine
 10
-49.999999999999716
 20
15.0
 30
0.0
 11
50.000000000000171
 21
15.0
 31
0.0
  0
LINE
  5
32E
100
AcDbEntity
  8
0
  6
CONTINUOUS
 62
               7
100
AcDbLine
 10
-48.999999999999602
 20
135.0
 30
0.0
 11
-48.999999999999602
 21
15.0
 31
0.0
  0
LINE
  5
32F
100
AcDbEntity
  8
0
  6
CONTINUOUS
 62
               7
100
AcDbLine
 10
50.000000000000171
 20
135.0
 30
0.0
 11
-49.999999999999716
 21
135.0
 31
0.0
  0
LINE
  5
330
100
AcDbEntity
  8
0
  6
CONTINUOUS
 62
               7
100
AcDbLine
 10
-16.749999999999829
 20
23.415908307209605
 30
0.0
 11
-28.249999999999602
 21
23.415908307209605
 31
0.0
  0
LINE
  5
331
100
AcDbEntity
  8
0
  6
CONTINUOUS
 62
               7
100
AcDbLine
 10
-28.249999999999602
 20
33.915908307209605
 30
0.0
 11
-24.999999999999716
 21
33.915908307209605
 31
0.0
  0
LINE
  5
332
100
AcDbEntity
  8
0
  6
CONTINUOUS
 62
               7
100
AcDbLine
 10
-19.999999999999602
 20
39.415908307209605
 30
0.0
 11
-19.999999999999602
 21
33.915908307209605
 31
0.0
  0
LINE
  5
333
100
AcDbEntity
  8
0
  6
CONTINUOUS
 62
               7
100
AcDbLine
 10
-24.999999999999716
 20
39.415908307209605
 30
0.0
 11
-24.999999999999716
 21
33.915908307209605
 31
0.0
  0
LINE
  5
334
100
AcDbEntity
  8
0
  6
CONTINUOUS
 62
               7
100
AcDbLine
 10
-19.999999999999602
 20
39.415908307209605
 30
0.0
 11
-24.999999999999716
 21
39.415908307209605
 31
0.0
  0
LINE
  5
335
100
AcDbEntity
  8
0
  6
CONTINUOUS
 62
               7
100
AcDbLine
 10
-19.999999999999602
 20
33.915908307209605
 30
0.0
 11
-16.749999999999829
 21
33.915908307209605
 31
0.0
  0
LINE
  5
336
100
AcDbEntity
  8
0
  6
CONTINUOUS
 62
               7
100
AcDbLine
 10
3.0000000000001705
 20
25.5
 30
0.0
 11
-2.9999999999998295
 21
25.5
 31
0.0
  0
LINE
  5
337
100
AcDbEntity
  8
0
  6
CONTINUOUS
 62
               7
100
AcDbLine
 10
3.0000000000001705
 20
28.5
 30
0.0
 11
-2.9999999999998295
 21
28.5
 31
0.0
  0
LINE
  5
338
100
AcDbEntity
  8
0
  6
CONTINUOUS
 62
               7
100
AcDbLine
 10
-2.9999999999998295
 20
25.5
 30
0.0
 11
-2.9999999999998295
 21
28.5
 31
0.0
  0
LINE
  5
339
100
AcDbEntity
  8
0
  6
CONTINUOUS
 62
               7
100
AcDbLine
 10
3.0000000000001705
 20
25.5
 30
0.0
 11
3.0000000000001705
 21
28.5
 31
0.0
  0
LINE
  5
33A
100
AcDbEntity
  8
0
  6
CONTINUOUS
 62
               7
100
AcDbLine
 10
-16.749999999999829
 20
33.915908307209605
 30
0.0
 11
-16.749999999999829
 21
23.415908307209605
 31
0.0
  0
LINE
  5
33B
100
AcDbEntity
  8
0
  6
CONTINUOUS
 62
               7
100
AcDbLine
 10
-28.249999999999602
 20
23.415908307209605
 30
0.0
 11
-28.249999999999602
 21
33.915908307209605
 31
0.0
  0
LINE
  5
33C
100
AcDbEntity
  8
0
  6
PHANTOM
 62
               2
100
AcDbLine
 10
-52.799999999999898
 20
1.2000000000001023
 30
0.0
 11
-52.799999999999898
 21
95.0
 31
0.0
  0
LINE
  5
33D
100
AcDbEntity
  8
0
  6
PHANTOM
 62
               2
100
AcDbLine
 10
54.0
 20
0.0
 30
0.0
 11
54.0
 21
95.0
 31
0.0
  0
LINE
  5
33E
100
AcDbEntity
  8
0
  6
PHANTOM
 62
               2
100
AcDbLine
 10
52.800000000000011
 20
95.000000000000227
 30
0.0
 11
52.800000000000011
 21
1.2000000000001023
 31
0.0
  0
LINE
  5
33F
100
AcDbEntity
  8
0
  6
PHANTOM
 62
               2
100
AcDbLine
 10
-54.0
 20
0.0
 30
0.0
 11
54.0
 21
0.0
 31
0.0
  0
LINE
  5
340
100
AcDbEntity
  8
0
  6
PHANTOM
 62
               2
100
AcDbLine
 10
-52.799999999999898
 20
1.2000000000001023
 30
0.0
 11
52.800000000000011
 21
1.2000000000001023
 31
0.0
  0
LINE
  5
341
100
AcDbEntity
  8
0
  6
PHANTOM
 62
               2
100
AcDbLine
 10
-54.0
 20
0.0
 30
0.0
 11
-54.0
 21
95.0
 31
0.0
  0
LINE
  5
342
100
AcDbEntity
  8
0
  6
CONTINUOUS
 62
               2
100
AcDbLine
 10
0.0
 20
144.77342076955199
 30
0.0
 11
0.0
 21
-5.7516010049125743
 31
0.0
  0
LINE
  5
343
100
AcDbEntity
  8
0
  6
CONTINUOUS
 62
               2
100
AcDbLine
 10
30.0
 20
-6.5039620956463029
 30
0.0
 11
30.0
 21
8.9039620956463921
 31
0.0
  0
LINE
  5
344
100
AcDbEntity
  8
0
  6
HIDDEN
 62
               7
100
AcDbLine
 10
27.75
 20
0.0
 30
0.0
 11
27.75
 21
1.2000000000001023
 31
0.0
  0
LINE
  5
345
100
AcDbEntity
  8
0
  6
HIDDEN
 62
               7
100
AcDbLine
 10
-32.25
 20
0.0
 30
0.0
 11
-32.25
 21
1.2000000000001023
 31
0.0
  0
LINE
  5
346
100
AcDbEntity
  8
0
  6
HIDDEN
 62
               7
100
AcDbLine
 10
-2.25
 20
1.2000000000001023
 30
0.0
 11
-2.25
 21
0.0
 31
0.0
  0
LINE
  5
347
100
AcDbEntity
  8
0
  6
HIDDEN
 62
               7
100
AcDbLine
 10
32.25
 20
0.0
 30
0.0
 11
32.25
 21
1.2000000000001023
 31
0.0
  0
LINE
  5
348
100
AcDbEntity
  8
0
  6
HIDDEN
 62
               7
100
AcDbLine
 10
2.25
 20
1.2000000000001023
 30
0.0
 11
2.25
 21
0.0
 31
0.0
  0
LINE
  5
349
100
AcDbEntity
  8
0
  6
HIDDEN
 62
               7
100
AcDbLine
 10
-27.75
 20
0.0
 30
0.0
 11
-27.75
 21
1.2000000000001023
 31
0.0
  0
LINE
  5
34A
100
AcDbEntity
  8
0
  6
CONTINUOUS
 62
               2
100
AcDbLine
 10
-30.0
 20
-6.5039620956463029
 30
0.0
 11
-30.0
 21
8.9039620956463921
 31
0.0
  0
LINE
  5
34B
100
AcDbEntity
  8
0
  6
PHANTOM
 62
               2
100
AcDbLine
 10
50.0
 20
92.5
 30
0.0
 11
52.800000000000011
 21
92.5
 31
0.0
  0
LINE
  5
34C
100
AcDbEntity
  8
0
  6
PHANTOM
 62
               2
100
AcDbLine
 10
52.800000000000011
 20
77.5
 30
0.0
 11
50.0
 21
77.5
 31
0.0
  0
LINE
  5
34D
100
AcDbEntity
  8
0
  6
PHANTOM
 62
               2
100
AcDbLine
 10
66.0
 20
91.5
 30
0.0
 11
66.0
 21
78.5
 31
0.0
  0
LINE
  5
34E
100
AcDbEntity
  8
0
  6
PHANTOM
 62
               2
100
AcDbLine
 10
54.300000000000296
 20
90.5
 30
0.0
 11
54.300000000000296
 21
79.5
 31
0.0
  0
LINE
  5
34F
100
AcDbEntity
  8
0
  6
PHANTOM
 62
               2
100
AcDbLine
 10
55.999999999999886
 20
92.5
 30
0.0
 11
55.999999999999886
 21
77.5
 31
0.0
  0
LINE
  5
350
100
AcDbEntity
  8
0
  6
PHANTOM
 62
               2
100
AcDbLine
 10
54.0
 20
89.5
 30
0.0
 11
54.300000000000296
 21
89.5
 31
0.0
  0
LINE
  5
351
100
AcDbEntity
  8
0
  6
PHANTOM
 62
               2
100
AcDbLine
 10
54.0
 20
80.5
 30
0.0
 11
54.300000000000296
 21
80.5
 31
0.0
  0
LINE
  5
352
100
AcDbEntity
  8
0
  6
PHANTOM
 62
               2
100
AcDbLine
 10
54.300000000000296
 20
90.5
 30
0.0
 11
55.999999999999886
 21
90.5
 31
0.0
  0
LINE
  5
353
100
AcDbEntity
  8
0
  6
PHANTOM
 62
               2
100
AcDbLine
 10
54.300000000000296
 20
79.5
 30
0.0
 11
55.999999999999886
 21
79.5
 31
0.0
  0
LINE
  5
354
100
AcDbEntity
  8
0
  6
PHANTOM
 62
               2
100
AcDbLine
 10
56.499999999999773
 20
93.0
 30
0.0
 11
64.700000000000273
 21
93.0
 31
0.0
  0
LINE
  5
355
100
AcDbEntity
  8
0
  6
PHANTOM
 62
               2
100
AcDbLine
 10
65.499999999999773
 20
92.0
 30
0.0
 11
65.200000000000273
 21
92.0
 31
0.0
  0
ARC
  5
356
100
AcDbEntity
  8
0
  6
PHANTOM
 62
               2
100
AcDbCircle
 10
65.500000000000171
 20
91.5
 30
0.0
 40
0.5
100
AcDbArc
 50
0.0
 51
90.0
  0
ARC
  5
357
100
AcDbEntity
  8
0
  6
PHANTOM
 62
               2
100
AcDbCircle
 10
64.700000000000273
 20
92.5
 30
0.0
 40
0.5
100
AcDbArc
 50
0.0
 51
90.0
  0
ARC
  5
358
100
AcDbEntity
  8
0
  6
PHANTOM
 62
               2
100
AcDbCircle
 10
56.500000000000171
 20
77.5
 30
0.0
 40
0.5
100
AcDbArc
 50
180.0
 51
270.0
  0
ARC
  5
359
100
AcDbEntity
  8
0
  6
PHANTOM
 62
               2
100
AcDbCircle
 10
56.500000000000171
 20
92.5
 30
0.0
 40
0.5
100
AcDbArc
 50
90.0
 51
180.0
  0
LINE
  5
35A
100
AcDbEntity
  8
0
  6
PHANTOM
 62
               2
100
AcDbLine
 10
65.200000000000273
 20
84.600000000000108
 30
0.0
 11
58.070954845342271
 21
84.600000000000108
 31
0.0
  0
LINE
  5
35B
100
AcDbEntity
  8
0
  6
PHANTOM
 62
               2
100
AcDbLine
 10
65.200000000000273
 20
85.400000000000205
 30
0.0
 11
58.070954845342271
 21
85.400000000000205
 31
0.0
  0
ARC
  5
35C
100
AcDbEntity
  8
0
  6
PHANTOM
 62
               2
100
AcDbCircle
 10
58.070954845342612
 20
85.0
 30
0.0
 40
0.4
100
AcDbArc
 50
90.0
 51
270.0
  0
ARC
  5
35D
100
AcDbEntity
  8
0
  6
PHANTOM
 62
               2
100
AcDbCircle
 10
58.070954845342612
 20
88.0
 30
0.0
 40
0.4
100
AcDbArc
 50
90.0
 51
270.0
  0
LINE
  5
35E
100
AcDbEntity
  8
0
  6
PHANTOM
 62
               2
100
AcDbLine
 10
65.200000000000273
 20
88.400000000000006
 30
0.0
 11
58.070954845342271
 21
88.400000000000006
 31
0.0
  0
LINE
  5
35F
100
AcDbEntity
  8
0
  6
PHANTOM
 62
               2
100
AcDbLine
 10
65.200000000000273
 20
87.600000000000023
 30
0.0
 11
58.070954845342271
 21
87.600000000000023
 31
0.0
  0
ARC
  5
360
100
AcDbEntity
  8
0
  6
PHANTOM
 62
               2
100
AcDbCircle
 10
58.070954845342612
 20
82.0
 30
0.0
 40
0.4
100
AcDbArc
 50
90.0
 51
270.0
  0
LINE
  5
361
100
AcDbEntity
  8
0
  6
PHANTOM
 62
               2
100
AcDbLine
 10
65.200000000000273
 20
82.400000000000205
 30
0.0
 11
58.070954845342271
 21
82.400000000000205
 31
0.0
  0
LINE
  5
362
100
AcDbEntity
  8
0
  6
PHANTOM
 62
               2
100
AcDbLine
 10
65.200000000000273
 20
81.600000000000023
 30
0.0
 11
58.070954845342271
 21
81.600000000000023
 31
0.0
  0
LINE
  5
363
100
AcDbEntity
  8
0
  6
PHANTOM
 62
               2
100
AcDbLine
 10
65.200000000000273
 20
90.600000000000023
 30
0.0
 11
58.070954845342271
 21
90.600000000000023
 31
0.0
  0
LINE
  5
364
100
AcDbEntity
  8
0
  6
PHANTOM
 62
               2
100
AcDbLine
 10
65.200000000000273
 20
91.400000000000205
 30
0.0
 11
58.070954845342271
 21
91.400000000000205
 31
0.0
  0
ARC
  5
365
100
AcDbEntity
  8
0
  6
PHANTOM
 62
               2
100
AcDbCircle
 10
58.070954845342612
 20
91.0
 30
0.0
 40
0.4
100
AcDbArc
 50
90.0
 51
270.0
  0
LINE
  5
366
100
AcDbEntity
  8
0
  6
PHANTOM
 62
               2
100
AcDbLine
 10
65.200000000000273
 20
78.600000000000023
 30
0.0
 11
58.070954845342271
 21
78.600000000000023
 31
0.0
  0
LINE
  5
367
100
AcDbEntity
  8
0
  6
PHANTOM
 62
               2
100
AcDbLine
 10
65.200000000000273
 20
79.400000000000006
 30
0.0
 11
58.070954845342271
 21
79.400000000000006
 31
0.0
  0
ARC
  5
368
100
AcDbEntity
  8
0
  6
PHANTOM
 62
               2
100
AcDbCircle
 10
58.070954845342612
 20
79.0
 30
0.0
 40
0.4
100
AcDbArc
 50
90.0
 51
270.0
  0
ARC
  5
369
100
AcDbEntity
  8
0
  6
PHANTOM
 62
               2
100
AcDbCircle
 10
64.700000000000273
 20
77.5
 30
0.0
 40
0.5
100
AcDbArc
 50
270.0
 51
0.0
  0
ARC
  5
36A
100
AcDbEntity
  8
0
  6
PHANTOM
 62
               2
100
AcDbCircle
 10
65.500000000000171
 20
78.5
 30
0.0
 40
0.5
100
AcDbArc
 50
270.0
 51
0.0
  0
LINE
  5
36B
100
AcDbEntity
  8
0
  6
PHANTOM
 62
               2
100
AcDbLine
 10
65.499999999999773
 20
78.0
 30
0.0
 11
65.200000000000273
 21
78.0
 31
0.0
  0
LINE
  5
36C
100
AcDbEntity
  8
0
  6
PHANTOM
 62
               2
100
AcDbLine
 10
56.499999999999773
 20
77.0
 30
0.0
 11
64.700000000000273
 21
77.0
 31
0.0
  0
LINE
  5
36D
100
AcDbEntity
  8
0
  6
PHANTOM
 62
               2
100
AcDbLine
 10
65.200000000000273
 20
92.5
 30
0.0
 11
65.200000000000273
 21
77.5
 31
0.0
  0
LINE
  5
36E
100
AcDbEntity
  8
0
  6
PHANTOM
 62
               2
100
AcDbLine
 10
54.0
 20
95.0
 30
0.0
 11
52.800000000000011
 21
95.0
 31
0.0
  0
LINE
  5
36F
100
AcDbEntity
  8
0
  6
PHANTOM
 62
               2
100
AcDbLine
 10
52.800000000000011
 20
20.39999999999992
 30
0.0
 11
54.0
 21
20.39999999999992
 31
0.0
  0
LINE
  5
370
100
AcDbEntity
  8
0
  6
CONTINUOUS
 62
               2
100
AcDbLine
 10
68.481950796298577
 20
85.0
 30
0.0
 11
44.837140088917408
 21
85.0
 31
0.0
  0
LINE
  5
371
100
AcDbEntity
  8
0
  6
PHANTOM
 62
               2
100
AcDbLine
 10
-49.999999999999488
 20
92.5
 30
0.0
 11
-52.799999999999727
 21
92.5
 31
0.0
  0
LINE
  5
372
100
AcDbEntity
  8
0
  6
PHANTOM
 62
               2
100
AcDbLine
 10
-52.799999999999727
 20
77.5
 30
0.0
 11
-49.999999999999488
 21
77.5
 31
0.0
  0
LINE
  5
373
100
AcDbEntity
  8
0
  6
PHANTOM
 62
               2
100
AcDbLine
 10
-65.199999999999818
 20
85.400000000000205
 30
0.0
 11
-58.07095484534193
 21
85.400000000000205
 31
0.0
  0
LINE
  5
374
100
AcDbEntity
  8
0
  6
PHANTOM
 62
               2
100
AcDbLine
 10
-56.499999999999488
 20
77.0
 30
0.0
 11
-64.699999999999818
 21
77.0
 31
0.0
  0
LINE
  5
375
100
AcDbEntity
  8
0
  6
PHANTOM
 62
               2
100
AcDbLine
 10
-65.499999999999602
 20
78.0
 30
0.0
 11
-65.199999999999818
 21
78.0
 31
0.0
  0
ARC
  5
376
100
AcDbEntity
  8
0
  6
PHANTOM
 62
               2
100
AcDbCircle
 10
-65.499999999999716
 20
78.5
 30
0.0
 40
0.5
100
AcDbArc
 50
180.0
 51
270.0
  0
ARC
  5
377
100
AcDbEntity
  8
0
  6
PHANTOM
 62
               2
100
AcDbCircle
 10
-64.699999999999818
 20
77.5
 30
0.0
 40
0.5
100
AcDbArc
 50
180.0
 51
270.0
  0
ARC
  5
378
100
AcDbEntity
  8
0
  6
PHANTOM
 62
               2
100
AcDbCircle
 10
-58.070954845342101
 20
79.0
 30
0.0
 40
0.4
100
AcDbArc
 50
270.0
 51
90.0
  0
LINE
  5
379
100
AcDbEntity
  8
0
  6
PHANTOM
 62
               2
100
AcDbLine
 10
-65.199999999999818
 20
79.400000000000006
 30
0.0
 11
-58.07095484534193
 21
79.400000000000006
 31
0.0
  0
LINE
  5
37A
100
AcDbEntity
  8
0
  6
PHANTOM
 62
               2
100
AcDbLine
 10
-65.199999999999818
 20
78.600000000000023
 30
0.0
 11
-58.07095484534193
 21
78.600000000000023
 31
0.0
  0
LINE
  5
37B
100
AcDbEntity
  8
0
  6
PHANTOM
 62
               2
100
AcDbLine
 10
-65.199999999999818
 20
81.600000000000023
 30
0.0
 11
-58.07095484534193
 21
81.600000000000023
 31
0.0
  0
LINE
  5
37C
100
AcDbEntity
  8
0
  6
PHANTOM
 62
               2
100
AcDbLine
 10
-65.199999999999818
 20
82.400000000000205
 30
0.0
 11
-58.07095484534193
 21
82.400000000000205
 31
0.0
  0
ARC
  5
37D
100
AcDbEntity
  8
0
  6
PHANTOM
 62
               2
100
AcDbCircle
 10
-58.070954845342101
 20
82.0
 30
0.0
 40
0.4
100
AcDbArc
 50
270.0
 51
90.0
  0
ARC
  5
37E
100
AcDbEntity
  8
0
  6
PHANTOM
 62
               2
100
AcDbCircle
 10
-58.070954845342101
 20
85.0
 30
0.0
 40
0.4
100
AcDbArc
 50
270.0
 51
90.0
  0
LINE
  5
37F
100
AcDbEntity
  8
0
  6
PHANTOM
 62
               2
100
AcDbLine
 10
-65.199999999999818
 20
84.600000000000108
 30
0.0
 11
-58.07095484534193
 21
84.600000000000108
 31
0.0
  0
ARC
  5
380
100
AcDbEntity
  8
0
  6
PHANTOM
 62
               2
100
AcDbCircle
 10
-56.499999999999716
 20
77.5
 30
0.0
 40
0.5
100
AcDbArc
 50
270.0
 51
0.0
  0
LINE
  5
381
100
AcDbEntity
  8
0
  6
PHANTOM
 62
               2
100
AcDbLine
 10
-54.299999999999727
 20
79.5
 30
0.0
 11
-55.999999999999829
 21
79.5
 31
0.0
  0
LINE
  5
382
100
AcDbEntity
  8
0
  6
PHANTOM
 62
               2
100
AcDbLine
 10
-53.999999999999829
 20
80.5
 30
0.0
 11
-54.299999999999727
 21
80.5
 31
0.0
  0
LINE
  5
383
100
AcDbEntity
  8
0
  6
PHANTOM
 62
               2
100
AcDbLine
 10
-65.199999999999818
 20
92.5
 30
0.0
 11
-65.199999999999818
 21
77.5
 31
0.0
  0
ARC
  5
384
100
AcDbEntity
  8
0
  6
PHANTOM
 62
               2
100
AcDbCircle
 10
-58.070954845342101
 20
91.0
 30
0.0
 40
0.4
100
AcDbArc
 50
270.0
 51
90.0
  0
LINE
  5
385
100
AcDbEntity
  8
0
  6
PHANTOM
 62
               2
100
AcDbLine
 10
-65.199999999999818
 20
91.400000000000205
 30
0.0
 11
-58.07095484534193
 21
91.400000000000205
 31
0.0
  0
LINE
  5
386
100
AcDbEntity
  8
0
  6
PHANTOM
 62
               2
100
AcDbLine
 10
-65.199999999999818
 20
90.600000000000023
 30
0.0
 11
-58.07095484534193
 21
90.600000000000023
 31
0.0
  0
LINE
  5
387
100
AcDbEntity
  8
0
  6
PHANTOM
 62
               2
100
AcDbLine
 10
-65.199999999999818
 20
87.600000000000023
 30
0.0
 11
-58.07095484534193
 21
87.600000000000023
 31
0.0
  0
LINE
  5
388
100
AcDbEntity
  8
0
  6
PHANTOM
 62
               2
100
AcDbLine
 10
-65.199999999999818
 20
88.400000000000006
 30
0.0
 11
-58.07095484534193
 21
88.400000000000006
 31
0.0
  0
ARC
  5
389
100
AcDbEntity
  8
0
  6
PHANTOM
 62
               2
100
AcDbCircle
 10
-58.070954845342101
 20
88.0
 30
0.0
 40
0.4
100
AcDbArc
 50
270.0
 51
90.0
  0
ARC
  5
38A
100
AcDbEntity
  8
0
  6
PHANTOM
 62
               2
100
AcDbCircle
 10
-56.499999999999716
 20
92.5
 30
0.0
 40
0.5
100
AcDbArc
 50
0.0
 51
90.0
  0
ARC
  5
38B
100
AcDbEntity
  8
0
  6
PHANTOM
 62
               2
100
AcDbCircle
 10
-64.699999999999818
 20
92.5
 30
0.0
 40
0.5
100
AcDbArc
 50
90.0
 51
180.0
  0
ARC
  5
38C
100
AcDbEntity
  8
0
  6
PHANTOM
 62
               2
100
AcDbCircle
 10
-65.499999999999716
 20
91.5
 30
0.0
 40
0.5
100
AcDbArc
 50
90.0
 51
180.0
  0
LINE
  5
38D
100
AcDbEntity
  8
0
  6
PHANTOM
 62
               2
100
AcDbLine
 10
-65.499999999999602
 20
92.0
 30
0.0
 11
-65.199999999999818
 21
92.0
 31
0.0
  0
LINE
  5
38E
100
AcDbEntity
  8
0
  6
PHANTOM
 62
               2
100
AcDbLine
 10
-56.499999999999488
 20
93.0
 30
0.0
 11
-64.699999999999818
 21
93.0
 31
0.0
  0
LINE
  5
38F
100
AcDbEntity
  8
0
  6
PHANTOM
 62
               2
100
AcDbLine
 10
-54.299999999999727
 20
90.5
 30
0.0
 11
-55.999999999999829
 21
90.5
 31
0.0
  0
LINE
  5
390
100
AcDbEntity
  8
0
  6
PHANTOM
 62
               2
100
AcDbLine
 10
-53.999999999999829
 20
89.5
 30
0.0
 11
-54.299999999999727
 21
89.5
 31
0.0
  0
LINE
  5
391
100
AcDbEntity
  8
0
  6
PHANTOM
 62
               2
100
AcDbLine
 10
-55.999999999999829
 20
92.5
 30
0.0
 11
-55.999999999999829
 21
77.5
 31
0.0
  0
LINE
  5
392
100
AcDbEntity
  8
0
  6
PHANTOM
 62
               2
100
AcDbLine
 10
-54.299999999999727
 20
90.5
 30
0.0
 11
-54.299999999999727
 21
79.5
 31
0.0
  0
LINE
  5
393
100
AcDbEntity
  8
0
  6
PHANTOM
 62
               2
100
AcDbLine
 10
-65.999999999999602
 20
91.5
 30
0.0
 11
-65.999999999999602
 21
78.5
 31
0.0
  0
LINE
  5
394
100
AcDbEntity
  8
0
  6
CONTINUOUS
 62
               2
100
AcDbLine
 10
-69.445519748482411
 20
85.0
 30
0.0
 11
-44.837140088917295
 21
85.0
 31
0.0
  0
LINE
  5
395
100
AcDbEntity
  8
0
  6
PHANTOM
 62
               2
100
AcDbLine
 10
-54.0
 20
95.0
 30
0.0
 11
-52.799999999999898
 21
95.0
 31
0.0
  0
LINE
  5
396
100
AcDbEntity
  8
0
  6
PHANTOM
 62
               2
100
AcDbLine
 10
-54.0
 20
20.39999999999992
 30
0.0
 11
-52.799999999999898
 21
20.39999999999992
 31
0.0
  0
CIRCLE
  5
397
100
AcDbEntity
  8
0
  6
CONTINUOUS
 62
               7
100
AcDbCircle
 10
22.500000000000171
 20
27.100000000000023
 30
0.0
 40
2.0
  0
CIRCLE
  5
398
100
AcDbEntity
  8
0
  6
CONTINUOUS
 62
               7
100
AcDbCircle
 10
22.500000000000171
 20
27.100000000000023
 30
0.0
 40
2.5
  0
POLYLINE
  5
399
100
AcDbEntity
  8
0
  6
CONTINUOUS
 62
               7
100
AcDb2dPolyline
 66
               1
 10
0.0
 20
0.0
 30
0.0
 70
               1
  0
VERTEX
  5
45B
100
AcDbEntity
  8
0
  6
CONTINUOUS
 62
               7
100
AcDbVertex
100
AcDb2dVertex
 10
0.6907609477397045
 20
27.523807901831219
 30
0.0
  0
VERTEX
  5
45C
100
AcDbEntity
  8
0
  6
CONTINUOUS
 62
               7
100
AcDbVertex
100
AcDb2dVertex
 10
2.5937579561215784
 20
27.523807901831219
 30
0.0
  0
VERTEX
  5
45D
100
AcDbEntity
  8
0
  6
CONTINUOUS
 62
               7
100
AcDbVertex
100
AcDb2dVertex
 10
2.5937579561215784
 20
25.686195601276722
 30
0.0
  0
VERTEX
  5
45E
100
AcDbEntity
  8
0
  6
CONTINUOUS
 62
               7
100
AcDbVertex
100
AcDb2dVertex
 10
0.6907609477397045
 20
25.686195601276722
 30
0.0
  0
SEQEND
  5
45F
100
AcDbEntity
  8
0
  6
CONTINUOUS
 62
               7
  0
LINE
  5
39A
100
AcDbEntity
  8
0
  6
CONTINUOUS
 62
               7
100
AcDbLine
 10
-22.249999999999602
 20
24.600000000000108
 30
0.0
 11
-18.499999999999829
 21
24.600000000000108
 31
0.0
  0
LINE
  5
39B
100
AcDbEntity
  8
0
  6
CONTINUOUS
 62
               7
100
AcDbLine
 10
-18.499999999999829
 20
24.600000000000108
 30
0.0
 11
-18.499999999999829
 21
28.350000000000108
 31
0.0
  0
LINE
  5
39C
100
AcDbEntity
  8
0
  6
CONTINUOUS
 62
               7
100
AcDbLine
 10
-27.299999999999727
 20
23.800000000000011
 30
0.0
 11
-17.699999999999591
 21
23.800000000000011
 31
0.0
  0
LINE
  5
39D
100
AcDbEntity
  8
0
  6
CONTINUOUS
 62
               7
100
AcDbLine
 10
-23.999999999999602
 20
34.400000000000205
 30
0.0
 11
-23.999999999999602
 21
33.400000000000205
 31
0.0
  0
LINE
  5
39E
100
AcDbEntity
  8
0
  6
CONTINUOUS
 62
               7
100
AcDbLine
 10
-20.999999999999716
 20
34.400000000000205
 30
0.0
 11
-20.999999999999716
 21
33.400000000000205
 31
0.0
  0
LINE
  5
39F
100
AcDbEntity
  8
0
  6
CONTINUOUS
 62
               7
100
AcDbLine
 10
-23.999999999999602
 20
34.400000000000205
 30
0.0
 11
-20.999999999999716
 21
34.400000000000205
 31
0.0
  0
LINE
  5
3A0
100
AcDbEntity
  8
0
  6
CONTINUOUS
 62
               7
100
AcDbLine
 10
-25.699999999999591
 20
24.600000000000108
 30
0.0
 11
-26.499999999999488
 21
25.400000000000205
 31
0.0
  0
LINE
  5
3A1
100
AcDbEntity
  8
0
  6
CONTINUOUS
 62
               7
100
AcDbLine
 10
-22.749999999999488
 20
25.400000000000205
 30
0.0
 11
-23.5499999999995
 21
24.600000000000108
 31
0.0
  0
LINE
  5
3A2
100
AcDbEntity
  8
0
  6
CONTINUOUS
 62
               7
100
AcDbLine
 10
-21.449999999999477
 20
28.850000000000023
 30
0.0
 11
-22.249999999999488
 21
29.64999999999992
 31
0.0
  0
LINE
  5
3A3
100
AcDbEntity
  8
0
  6
CONTINUOUS
 62
               7
100
AcDbLine
 10
-18.499999999999829
 20
29.64999999999992
 30
0.0
 11
-19.299999999999727
 21
28.850000000000023
 31
0.0
  0
LINE
  5
3A4
100
AcDbEntity
  8
0
  6
CONTINUOUS
 62
               7
100
AcDbLine
 10
-22.749999999999829
 20
28.350000000000108
 30
0.0
 11
-26.499999999999829
 21
28.350000000000108
 31
0.0
  0
LINE
  5
3A5
100
AcDbEntity
  8
0
  6
CONTINUOUS
 62
               7
100
AcDbLine
 10
-26.499999999999829
 20
28.350000000000108
 30
0.0
 11
-26.499999999999488
 21
25.400000000000205
 31
0.0
  0
LINE
  5
3A6
100
AcDbEntity
  8
0
  6
CONTINUOUS
 62
               7
100
AcDbLine
 10
-22.749999999999829
 20
28.350000000000108
 30
0.0
 11
-22.749999999999488
 21
25.400000000000205
 31
0.0
  0
LINE
  5
3A7
100
AcDbEntity
  8
0
  6
CONTINUOUS
 62
               7
100
AcDbLine
 10
-22.749999999999829
 20
28.850000000000023
 30
0.0
 11
-26.499999999999488
 21
28.850000000000108
 31
0.0
  0
LINE
  5
3A8
100
AcDbEntity
  8
0
  6
CONTINUOUS
 62
               7
100
AcDbLine
 10
-22.249999999999602
 20
28.350000000000108
 30
0.0
 11
-22.249999999999602
 21
24.600000000000108
 31
0.0
  0
LINE
  5
3A9
100
AcDbEntity
  8
0
  6
CONTINUOUS
 62
               7
100
AcDbLine
 10
-18.499999999999829
 20
29.64999999999992
 30
0.0
 11
-18.499999999999829
 21
32.600000000000108
 31
0.0
  0
LINE
  5
3AA
100
AcDbEntity
  8
0
  6
CONTINUOUS
 62
               7
100
AcDbLine
 10
-22.749999999999829
 20
32.600000000000108
 30
0.0
 11
-26.499999999999829
 21
32.600000000000108
 31
0.0
  0
LINE
  5
3AB
100
AcDbEntity
  8
0
  6
CONTINUOUS
 62
               7
100
AcDbLine
 10
-18.499999999999829
 20
28.350000000000108
 30
0.0
 11
-22.249999999999602
 21
28.350000000000108
 31
0.0
  0
LINE
  5
3AC
100
AcDbEntity
  8
0
  6
CONTINUOUS
 62
               7
100
AcDbLine
 10
-19.299999999999727
 20
28.850000000000023
 30
0.0
 11
-21.449999999999477
 21
28.850000000000023
 31
0.0
  0
LINE
  5
3AD
100
AcDbEntity
  8
0
  6
CONTINUOUS
 62
               7
100
AcDbLine
 10
-22.249999999999602
 20
32.600000000000108
 30
0.0
 11
-22.249999999999488
 21
29.64999999999992
 31
0.0
  0
LINE
  5
3AE
100
AcDbEntity
  8
0
  6
CONTINUOUS
 62
               7
100
AcDbLine
 10
-22.749999999999829
 20
32.600000000000108
 30
0.0
 11
-22.749999999999829
 21
28.850000000000108
 31
0.0
  0
LINE
  5
3AF
100
AcDbEntity
  8
0
  6
CONTINUOUS
 62
               7
100
AcDbLine
 10
-26.499999999999829
 20
32.600000000000108
 30
0.0
 11
-26.499999999999829
 21
28.850000000000108
 31
0.0
  0
LINE
  5
3B0
100
AcDbEntity
  8
0
  6
CONTINUOUS
 62
               7
100
AcDbLine
 10
-25.699999999999591
 20
24.600000000000108
 30
0.0
 11
-23.5499999999995
 21
24.600000000000108
 31
0.0
  0
LINE
  5
3B1
100
AcDbEntity
  8
0
  6
CONTINUOUS
 62
               7
100
AcDbLine
 10
-18.499999999999829
 20
32.600000000000108
 30
0.0
 11
-22.249999999999602
 21
32.600000000000108
 31
0.0
  0
LINE
  5
3B2
100
AcDbEntity
  8
0
  6
CONTINUOUS
 62
               7
100
AcDbLine
 10
-17.699999999999591
 20
33.400000000000205
 30
0.0
 11
-27.299999999999727
 21
33.400000000000205
 31
0.0
  0
LINE
  5
3B3
100
AcDbEntity
  8
0
  6
CONTINUOUS
 62
               7
100
AcDbLine
 10
-17.699999999999591
 20
23.800000000000011
 30
0.0
 11
-17.699999999999591
 21
33.400000000000205
 31
0.0
  0
LINE
  5
3B4
100
AcDbEntity
  8
0
  6
CONTINUOUS
 62
               7
100
AcDbLine
 10
-27.299999999999727
 20
33.400000000000205
 30
0.0
 11
-27.299999999999727
 21
23.800000000000011
 31
0.0
  0
LINE
  5
3B5
100
AcDbEntity
  8
0
  6
CONTINUOUS
 62
               7
100
AcDbLine
 10
23.500000000000171
 20
19.100000000000023
 30
0.0
 11
21.500000000000171
 21
19.100000000000023
 31
0.0
  0
LINE
  5
3B6
100
AcDbEntity
  8
0
  6
CONTINUOUS
 62
               7
100
AcDbLine
 10
24.250000000000171
 20
20.100000000000023
 30
0.0
 11
20.750000000000171
 21
20.100000000000023
 31
0.0
  0
LINE
  5
3B7
100
AcDbEntity
  8
0
  6
CONTINUOUS
 62
               7
100
AcDbLine
 10
25.000000000000171
 20
21.100000000000023
 30
0.0
 11
20.000000000000171
 21
21.100000000000023
 31
0.0
  0
LINE
  5
3B8
100
AcDbEntity
  8
0
  6
CONTINUOUS
 62
               7
100
AcDbLine
 10
22.500000000000171
 20
23.100000000000023
 30
0.0
 11
22.500000000000171
 21
21.100000000000023
 31
0.0
  0
LINE
  5
3B9
100
AcDbEntity
  8
0
  6
CONTINUOUS
 62
               7
100
AcDbLine
 10
-49.999999999999716
 20
135.0
 30
0.0
 11
-49.999999999999716
 21
15.0
 31
0.0
  0
LINE
  5
3BA
100
AcDbEntity
  8
0
  6
CONTINUOUS
 62
               7
100
AcDbLine
 10
50.000000000000171
 20
15.0
 30
0.0
 11
50.000000000000171
 21
135.0
 31
0.0
  0
LINE
  5
3BB
100
AcDbEntity
  8
0
  6
CONTINUOUS
 62
               2
100
AcDbLine
 10
-46.125
 20
90.0
 30
0.0
 11
46.125000000000171
 21
90.0
 31
0.0
  0
LINE
  5
3BC
100
AcDbEntity
  8
0
  6
CONTINUOUS
 62
               2
100
AcDbLine
 10
-39.999999999999488
 20
47.876586635614302
 30
0.0
 11
-39.999999999999488
 21
40.042130510984606
 31
0.0
  0
LINE
  5
3BD
100
AcDbEntity
  8
0
  6
CONTINUOUS
 62
               2
100
AcDbLine
 10
-4.9999999999994884
 20
47.876586635614302
 30
0.0
 11
-4.9999999999994884
 21
40.042130510984606
 31
0.0
  0
LINE
  5
3BE
100
AcDbEntity
  8
0
  6
CONTINUOUS
 62
               2
100
AcDbLine
 10
40.000000000000512
 20
47.876586635614302
 30
0.0
 11
40.000000000000512
 21
40.042130510984606
 31
0.0
  0
LINE
  5
3BF
100
AcDbEntity
  8
0
  6
CONTINUOUS
 62
               2
100
AcDbLine
 10
5.0000000000005116
 20
47.876586635614302
 30
0.0
 11
5.0000000000005116
 21
40.042130510984606
 31
0.0
  0
LINE
  5
3C0
100
AcDbEntity
  8
0
  6
CONTINUOUS
 62
               2
100
AcDbLine
 10
-45.249999999999829
 20
43.999358573299617
 30
0.0
 11
45.249999999999886
 21
43.999358573299617
 31
0.0
  0
ARC
  5
3C1
100
AcDbEntity
  8
0
  6
CONTINUOUS
 62
               7
100
AcDbCircle
 10
-36.624472573727587
 20
126.62447257372739
 30
0.0
 40
3.3755274261500001
100
AcDbArc
 50
90.0
 51
180.0
  0
ARC
  5
3C2
100
AcDbEntity
  8
0
  6
CONTINUOUS
 62
               7
100
AcDbCircle
 10
-36.624472573727587
 20
53.375527426272498
 30
0.0
 40
3.3755274261500001
100
AcDbArc
 50
180.0
 51
270.0
  0
ARC
  5
3C3
100
AcDbEntity
  8
0
  6
CONTINUOUS
 62
               7
100
AcDbCircle
 10
36.624472573727303
 20
53.375527426272498
 30
0.0
 40
3.3755274261500001
100
AcDbArc
 50
270.0
 51
0.0
  0
ARC
  5
3C4
100
AcDbEntity
  8
0
  6
CONTINUOUS
 62
               7
100
AcDbCircle
 10
36.62447257372753
 20
126.62447257372759
 30
0.0
 40
3.3755274261500001
100
AcDbArc
 50
0.0
 51
90.0
  0
LINE
  5
3C5
100
AcDbEntity
  8
0
  6
CONTINUOUS
 62
               7
100
AcDbLine
 10
39.999999999877502
 20
126.62447257372759
 30
0.0
 11
39.999999999877332
 21
53.375527426272498
 31
0.0
  0
LINE
  5
3C6
100
AcDbEntity
  8
0
  6
CONTINUOUS
 62
               7
100
AcDbLine
 10
-39.999999999877559
 20
126.62447257372739
 30
0.0
 11
-39.999999999877502
 21
53.375527426272498
 31
0.0
  0
LINE
  5
3C7
100
AcDbEntity
  8
0
  6
CONTINUOUS
 62
               7
100
AcDbLine
 10
-36.624472573727587
 20
50.000000000122498
 30
0.0
 11
36.624472573727303
 21
50.000000000122498
 31
0.0
  0
LINE
  5
3C8
100
AcDbEntity
  8
0
  6
CONTINUOUS
 62
               7
100
AcDbLine
 10
-36.624472573727587
 20
129.99999999987739
 30
0.0
 11
36.62447257372753
 21
129.9999999998775
 31
0.0
  0
ARC
  5
3C9
100
AcDbEntity
  8
0
  6
CONTINUOUS
 62
               7
100
AcDbCircle
 10
45.199590751317032
 20
76.060658674793302
 30
0.0
 40
54.008438818400002
100
AcDbArc
 50
117.99154555412589
 51
124.6547912043805
  0
ARC
  5
3CA
100
AcDbEntity
  8
0
  6
CONTINUOUS
 62
               7
100
AcDbCircle
 10
45.199590751317032
 20
76.060658674793302
 30
0.0
 40
52.658227847939997
100
AcDbArc
 50
117.1259058369446
 51
123.8501558789752
  0
ARC
  5
3CB
100
AcDbEntity
  8
0
  6
CONTINUOUS
 62
               7
100
AcDbCircle
 10
0.0
 20
90.0
 30
0.0
 40
40.5063291138
100
AcDbArc
 50
58.333844508883232
 51
72.585892039408506
  0
ARC
  5
3CC
100
AcDbEntity
  8
0
  6
CONTINUOUS
 62
               7
100
AcDbCircle
 10
0.0000000000002274
 20
89.999999999999801
 30
0.0
 40
39.156118143340002
100
AcDbArc
 50
59.537406552411355
 51
80.775913470838447
  0
ARC
  5
3CD
100
AcDbEntity
  8
0
  6
CONTINUOUS
 62
               7
100
AcDbCircle
 10
45.199590751317032
 20
76.060658674793302
 30
0.0
 40
54.008438818400002
100
AcDbArc
 50
126.30491699914511
 51
132.86672511748361
  0
ARC
  5
3CE
100
AcDbEntity
  8
0
  6
CONTINUOUS
 62
               7
100
AcDbCircle
 10
0.0000000000002274
 20
89.999999999999801
 30
0.0
 40
33.755274261499999
100
AcDbArc
 50
64.581368876163339
 51
133.96036396400069
  0
ARC
  5
3CF
100
AcDbEntity
  8
0
  6
CONTINUOUS
 62
               7
100
AcDbCircle
 10
45.199590751317032
 20
76.060658674793302
 30
0.0
 40
52.658227847939997
100
AcDbArc
 50
125.512432185365
 51
132.10702018181311
  0
ARC
  5
3D0
100
AcDbEntity
  8
0
  6
CONTINUOUS
 62
               7
100
AcDbCircle
 10
0.0
 20
90.0
 30
0.0
 40
32.405063291040001
100
AcDbArc
 50
65.919031956060692
 51
135.19844368905439
  0
ARC
  5
3D1
100
AcDbEntity
  8
0
  6
CONTINUOUS
 62
               7
100
AcDbCircle
 10
45.199590751317032
 20
76.060658674793302
 30
0.0
 40
54.008438818400002
100
AcDbArc
 50
134.5023442064016
 51
141.066265993169
  0
ARC
  5
3D2
100
AcDbEntity
  8
0
  6
CONTINUOUS
 62
               7
100
AcDbCircle
 10
0.0000000000002274
 20
89.999999999999801
 30
0.0
 40
27.004219409200001
100
AcDbArc
 50
71.747412534059279
 51
140.51311948351272
  0
ARC
  5
3D3
100
AcDbEntity
  8
0
  6
CONTINUOUS
 62
               7
100
AcDbCircle
 10
45.199590751317032
 20
76.060658674793302
 30
0.0
 40
52.658227847939997
100
AcDbArc
 50
133.74588604751611
 51
140.29178909036389
  0
ARC
  5
3D4
100
AcDbEntity
  8
0
  6
CONTINUOUS
 62
               7
100
AcDbCircle
 10
0.0
 20
90.0
 30
0.0
 40
25.65400843874
100
AcDbArc
 50
73.367491405529123
 51
141.96605082846611
  0
ARC
  5
3D5
100
AcDbEntity
  8
0
  6
CONTINUOUS
 62
               7
100
AcDbCircle
 10
45.199590751317032
 20
76.060658674793302
 30
0.0
 40
54.008438818400002
100
AcDbArc
 50
142.7233071825456
 51
163.72096677291219
  0
ARC
  5
3D6
100
AcDbEntity
  8
0
  6
CONTINUOUS
 62
               7
100
AcDbCircle
 10
0.0000000000002274
 20
89.999999999999801
 30
0.0
 40
20.2531645569
100
AcDbArc
 50
80.943925528266249
 51
148.6128943696956
  0
ARC
  5
3D7
100
AcDbEntity
  8
0
  6
CONTINUOUS
 62
               7
100
AcDbCircle
 10
45.199590751317032
 20
76.060658674793302
 30
0.0
 40
52.658227847939997
100
AcDbArc
 50
141.9329842371082
 51
158.14403503631891
  0
ARC
  5
3D8
100
AcDbEntity
  8
0
  6
CONTINUOUS
 62
               7
100
AcDbCircle
 10
0.0
 20
90.0
 30
0.0
 40
18.902953586439999
100
AcDbArc
 50
83.243297342579112
 51
150.58150496766149
  0
ARC
  5
3D9
100
AcDbEntity
  8
0
  6
CONTINUOUS
 62
               7
100
AcDbCircle
 10
0.7103402807486532
 20
42.705141322203701
 30
0.0
 40
54.008438818400002
100
AcDbArc
 50
70.723307182547586
 51
91.720966772908625
  0
ARC
  5
3DA
100
AcDbEntity
  8
0
  6
CONTINUOUS
 62
               7
100
AcDbCircle
 10
0.0
 20
90.0
 30
0.0
 40
18.902953586439999
100
AcDbArc
 50
11.24329734257941
 51
78.581504967663989
  0
ARC
  5
3DB
100
AcDbEntity
  8
0
  6
CONTINUOUS
 62
               7
100
AcDbCircle
 10
0.7103402807486532
 20
42.705141322203701
 30
0.0
 40
52.658227847939997
100
AcDbArc
 50
69.932984237106183
 51
86.144035036316666
  0
ARC
  5
3DC
100
AcDbEntity
  8
0
  6
CONTINUOUS
 62
               7
100
AcDbCircle
 10
0.0000000000002274
 20
89.999999999999801
 30
0.0
 40
20.2531645569
100
AcDbArc
 50
8.9439255282599781
 51
76.612894369698992
  0
ARC
  5
3DD
100
AcDbEntity
  8
0
  6
CONTINUOUS
 62
               7
100
AcDbCircle
 10
0.7103402807486532
 20
42.705141322203701
 30
0.0
 40
54.008438818400002
100
AcDbArc
 50
62.502344206398547
 51
69.066265993173204
  0
ARC
  5
3DE
100
AcDbEntity
  8
0
  6
CONTINUOUS
 62
               7
100
AcDbCircle
 10
0.0
 20
90.0
 30
0.0
 40
25.65400843874
100
AcDbArc
 50
1.3674914055200671
 51
69.966050828470955
  0
ARC
  5
3DF
100
AcDbEntity
  8
0
  6
CONTINUOUS
 62
               7
100
AcDbCircle
 10
0.7103402807486532
 20
42.705141322203701
 30
0.0
 40
52.658227847939997
100
AcDbArc
 50
61.745886047517239
 51
68.291789090363054
  0
ARC
  5
3E0
100
AcDbEntity
  8
0
  6
CONTINUOUS
 62
               7
100
AcDbCircle
 10
0.0000000000002274
 20
89.999999999999801
 30
0.0
 40
27.004219409200001
100
AcDbArc
 50
359.74741253405858
 51
68.513119483511389
  0
ARC
  5
3E1
100
AcDbEntity
  8
0
  6
CONTINUOUS
 62
               7
100
AcDbCircle
 10
0.7103402807486532
 20
42.705141322203701
 30
0.0
 40
52.658227847939997
100
AcDbArc
 50
53.512432185362982
 51
60.107020181813304
  0
ARC
  5
3E2
100
AcDbEntity
  8
0
  6
CONTINUOUS
 62
               7
100
AcDbCircle
 10
0.0
 20
90.0
 30
0.0
 40
32.405063291040001
100
AcDbArc
 50
353.91903195605749
 51
63.198443689054109
  0
ARC
  5
3E3
100
AcDbEntity
  8
0
  6
CONTINUOUS
 62
               7
100
AcDbCircle
 10
0.7103402807486532
 20
42.705141322203701
 30
0.0
 40
54.008438818400002
100
AcDbArc
 50
54.304916999143479
 51
60.866725117475667
  0
ARC
  5
3E4
100
AcDbEntity
  8
0
  6
CONTINUOUS
 62
               7
100
AcDbCircle
 10
0.0000000000002274
 20
89.999999999999801
 30
0.0
 40
33.755274261499999
100
AcDbArc
 50
352.5813688761595
 51
61.960363963999455
  0
LINE
  5
3E5
100
AcDbEntity
  8
0
  6
CONTINUOUS
 62
               7
100
AcDbLine
 10
38.649789029417548
 20
96.276575183707394
 30
0.0
 11
38.649789029417548
 21
83.723424816292606
 31
0.0
  0
ARC
  5
3E6
100
AcDbEntity
  8
0
  6
CONTINUOUS
 62
               7
100
AcDbCircle
 10
0.0000000000002274
 20
89.999999999999801
 30
0.0
 40
39.156118143340002
100
AcDbArc
 50
347.5374065524091
 51
350.7759134708395
  0
ARC
  5
3E7
100
AcDbEntity
  8
0
  6
CONTINUOUS
 62
               7
100
AcDbCircle
 10
0.0000000000002274
 20
89.999999999999801
 30
0.0
 40
39.156118143340002
100
AcDbArc
 50
9.2240865291604948
 51
57.236514790683657
  0
ARC
  5
3E8
100
AcDbEntity
  8
0
  6
CONTINUOUS
 62
               7
100
AcDbCircle
 10
0.0
 20
90.0
 30
0.0
 40
40.5063291138
100
AcDbArc
 50
17.414107960596159
 51
56.09738898084025
  0
ARC
  5
3E9
100
AcDbEntity
  8
0
  6
CONTINUOUS
 62
               7
100
AcDbCircle
 10
0.0
 20
90.0
 30
0.0
 40
18.902953586439999
100
AcDbArc
 50
299.24329734257839
 51
6.5815049676601909
  0
ARC
  5
3EA
100
AcDbEntity
  8
0
  6
CONTINUOUS
 62
               7
100
AcDbCircle
 10
0.0000000000002274
 20
89.999999999999801
 30
0.0
 40
20.2531645569
100
AcDbArc
 50
296.94392552826048
 51
4.6128943696922171
  0
ARC
  5
3EB
100
AcDbEntity
  8
0
  6
CONTINUOUS
 62
               7
100
AcDbCircle
 10
-44.760576314235891
 20
74.709511169205513
 30
0.0
 40
54.008438818400002
100
AcDbArc
 50
358.7233071825496
 51
19.720966772904148
  0
ARC
  5
3EC
100
AcDbEntity
  8
0
  6
CONTINUOUS
 62
               7
100
AcDbCircle
 10
-44.760576314235891
 20
74.709511169205513
 30
0.0
 40
52.658227847939997
100
AcDbArc
 50
357.93298423711252
 51
14.144035036319325
  0
ARC
  5
3ED
100
AcDbEntity
  8
0
  6
CONTINUOUS
 62
               7
100
AcDbCircle
 10
-44.760576314235891
 20
74.709511169205513
 30
0.0
 40
54.008438818400002
100
AcDbArc
 50
350.50234420639799
 51
357.06626599317173
  0
ARC
  5
3EE
100
AcDbEntity
  8
0
  6
CONTINUOUS
 62
               7
100
AcDbCircle
 10
0.0
 20
90.0
 30
0.0
 40
25.65400843874
100
AcDbArc
 50
289.36749140552689
 51
357.96605082846992
  0
ARC
  5
3EF
100
AcDbEntity
  8
0
  6
CONTINUOUS
 62
               7
100
AcDbCircle
 10
-44.760576314235891
 20
74.709511169205513
 30
0.0
 40
52.658227847939997
100
AcDbArc
 50
349.74588604751852
 51
356.29178909036659
  0
ARC
  5
3F0
100
AcDbEntity
  8
0
  6
CONTINUOUS
 62
               7
100
AcDbCircle
 10
0.0000000000002274
 20
89.999999999999801
 30
0.0
 40
27.004219409200001
100
AcDbArc
 50
287.7474125340583
 51
356.51311948351548
  0
ARC
  5
3F1
100
AcDbEntity
  8
0
  6
CONTINUOUS
 62
               7
100
AcDbCircle
 10
0.0
 20
90.0
 30
0.0
 40
32.405063291040001
100
AcDbArc
 50
281.91903195606369
 51
351.19844368905399
  0
ARC
  5
3F2
100
AcDbEntity
  8
0
  6
CONTINUOUS
 62
               7
100
AcDbCircle
 10
0.0000000000002274
 20
89.999999999999801
 30
0.0
 40
33.755274261499999
100
AcDbArc
 50
280.58136887616757
 51
349.96036396400388
  0
ARC
  5
3F3
100
AcDbEntity
  8
0
  6
CONTINUOUS
 62
               7
100
AcDbCircle
 10
-44.760576314235891
 20
74.709511169205513
 30
0.0
 40
52.658227847939997
100
AcDbArc
 50
341.51243218536098
 51
348.10702018181422
  0
ARC
  5
3F4
100
AcDbEntity
  8
0
  6
CONTINUOUS
 62
               7
100
AcDbCircle
 10
-44.760576314235891
 20
74.709511169205513
 30
0.0
 40
54.008438818400002
100
AcDbArc
 50
342.30491699914143
 51
348.8667251174802
  0
LINE
  5
3F5
100
AcDbEntity
  8
0
  6
CONTINUOUS
 62
               7
100
AcDbLine
 10
12.122561868557227
 20
51.350210970582395
 30
0.0
 11
25.147679324817545
 21
51.350210970582395
 31
0.0
  0
ARC
  5
3F6
100
AcDbEntity
  8
0
  6
CONTINUOUS
 62
               7
100
AcDbCircle
 10
0.0000000000002274
 20
89.999999999999801
 30
0.0
 40
39.156118143340002
100
AcDbArc
 50
279.22408652916158
 51
345.23651479068047
  0
LINE
  5
3F7
100
AcDbEntity
  8
0
  6
CONTINUOUS
 62
               7
100
AcDbLine
 10
-6.2765751837073935
 20
51.350210970582509
 30
0.0
 11
2.4329831437684106
 21
51.350210970582509
 31
0.0
  0
ARC
  5
3F8
100
AcDbEntity
  8
0
  6
CONTINUOUS
 62
               7
100
AcDbCircle
 10
0.0
 20
90.0
 30
0.0
 40
40.5063291138
100
AcDbArc
 50
287.41410796059148
 51
342.5858920394038
  0
ARC
  5
3F9
100
AcDbEntity
  8
0
  6
CONTINUOUS
 62
               7
100
AcDbCircle
 10
0.0
 20
90.0
 30
0.0
 40
18.902953586439999
100
AcDbArc
 50
227.24329734257759
 51
294.58150496766331
  0
ARC
  5
3FA
100
AcDbEntity
  8
0
  6
CONTINUOUS
 62
               7
100
AcDbCircle
 10
-28.373897798980977
 20
127.84481687576459
 30
0.0
 40
52.658227847939997
100
AcDbArc
 50
285.9329842371119
 51
302.14403503631922
  0
ARC
  5
3FB
100
AcDbEntity
  8
0
  6
CONTINUOUS
 62
               7
100
AcDbCircle
 10
-28.373897798980977
 20
127.84481687576459
 30
0.0
 40
54.008438818400002
100
AcDbArc
 50
286.72330718254739
 51
307.7209667729075
  0
ARC
  5
3FC
100
AcDbEntity
  8
0
  6
CONTINUOUS
 62
               7
100
AcDbCircle
 10
0.0000000000002274
 20
89.999999999999801
 30
0.0
 40
20.2531645569
100
AcDbArc
 50
224.9439255282652
 51
292.61289436969838
  0
ARC
  5
3FD
100
AcDbEntity
  8
0
  6
CONTINUOUS
 62
               7
100
AcDbCircle
 10
-28.373897798980977
 20
127.84481687576459
 30
0.0
 40
52.658227847939997
100
AcDbArc
 50
277.74588604751619
 51
284.29178909036409
  0
ARC
  5
3FE
100
AcDbEntity
  8
0
  6
CONTINUOUS
 62
               7
100
AcDbCircle
 10
0.0
 20
90.0
 30
0.0
 40
25.65400843874
100
AcDbArc
 50
217.36749140552959
 51
285.96605082846952
  0
ARC
  5
3FF
100
AcDbEntity
  8
0
  6
CONTINUOUS
 62
               7
100
AcDbCircle
 10
-28.373897798980977
 20
127.84481687576459
 30
0.0
 40
54.008438818400002
100
AcDbArc
 50
278.50234420640248
 51
285.06626599317002
  0
ARC
  5
400
100
AcDbEntity
  8
0
  6
CONTINUOUS
 62
               7
100
AcDbCircle
 10
0.0000000000002274
 20
89.999999999999801
 30
0.0
 40
27.004219409200001
100
AcDbArc
 50
215.74741253405929
 51
284.51311948351309
  0
ARC
  5
401
100
AcDbEntity
  8
0
  6
CONTINUOUS
 62
               7
100
AcDbCircle
 10
-28.373897798980977
 20
127.84481687576459
 30
0.0
 40
54.008438818400002
100
AcDbArc
 50
270.30491699914842
 51
276.8667251174839
  0
ARC
  5
402
100
AcDbEntity
  8
0
  6
CONTINUOUS
 62
               7
100
AcDbCircle
 10
0.0
 20
90.0
 30
0.0
 40
32.405063291040001
100
AcDbArc
 50
209.9190319560652
 51
279.19844368905302
  0
ARC
  5
403
100
AcDbEntity
  8
0
  6
CONTINUOUS
 62
               7
100
AcDbCircle
 10
-28.373897798980977
 20
127.84481687576459
 30
0.0
 40
52.658227847939997
100
AcDbArc
 50
269.51243218536507
 51
276.107020181812
  0
ARC
  5
404
100
AcDbEntity
  8
0
  6
CONTINUOUS
 62
               7
100
AcDbCircle
 10
0.0000000000002274
 20
89.999999999999801
 30
0.0
 40
33.755274261499999
100
AcDbArc
 50
208.5813688761632
 51
277.96036396400149
  0
ARC
  5
405
100
AcDbEntity
  8
0
  6
CONTINUOUS
 62
               7
100
AcDbCircle
 10
0.0000000000002274
 20
89.999999999999801
 30
0.0
 40
39.156118143340002
100
AcDbArc
 50
203.53740655241191
 51
260.77591347083842
  0
ARC
  5
406
100
AcDbEntity
  8
0
  6
CONTINUOUS
 62
               7
100
AcDbCircle
 10
-28.373897798980977
 20
127.84481687576459
 30
0.0
 40
54.008438818400002
100
AcDbArc
 50
261.99154555412639
 51
268.65479120438022
  0
ARC
  5
407
100
AcDbEntity
  8
0
  6
CONTINUOUS
 62
               7
100
AcDbCircle
 10
0.0
 20
90.0
 30
0.0
 40
40.5063291138
100
AcDbArc
 50
202.33384450887939
 51
252.58589203940849
  0
ARC
  5
408
100
AcDbEntity
  8
0
  6
CONTINUOUS
 62
               7
100
AcDbCircle
 10
-28.373897798980977
 20
127.84481687576459
 30
0.0
 40
52.658227847939997
100
AcDbArc
 50
261.12590583694498
 51
267.85015587897738
  0
ARC
  5
409
100
AcDbEntity
  8
0
  6
CONTINUOUS
 62
               7
100
AcDbCircle
 10
0.0000000000002274
 20
89.999999999999801
 30
0.0
 40
39.156118143340002
100
AcDbArc
 50
189.2240865291605
 51
201.2365147906776
  0
LINE
  5
40A
100
AcDbEntity
  8
0
  6
CONTINUOUS
 62
               7
100
AcDbLine
 10
-38.649789029417491
 20
96.276575183704892
 30
0.0
 11
-38.649789029417491
 21
83.723424816294795
 31
0.0
  0
ARC
  5
40B
100
AcDbEntity
  8
0
  6
CONTINUOUS
 62
               7
100
AcDbCircle
 10
27.224543081149704
 20
128.67987195803261
 30
0.0
 40
54.008438818400002
100
AcDbArc
 50
214.72330718254742
 51
235.72096677291083
  0
ARC
  5
40C
100
AcDbEntity
  8
0
  6
CONTINUOUS
 62
               7
100
AcDbCircle
 10
27.224543081149704
 20
128.67987195803261
 30
0.0
 40
52.658227847939997
100
AcDbArc
 50
213.93298423711269
 51
230.14403503631704
  0
ARC
  5
40D
100
AcDbEntity
  8
0
  6
CONTINUOUS
 62
               7
100
AcDbCircle
 10
27.224543081149704
 20
128.67987195803261
 30
0.0
 40
54.008438818400002
100
AcDbArc
 50
206.50234420639711
 51
213.06626599317261
  0
ARC
  5
40E
100
AcDbEntity
  8
0
  6
CONTINUOUS
 62
               7
100
AcDbCircle
 10
27.224543081149704
 20
128.67987195803261
 30
0.0
 40
52.658227847939997
100
AcDbArc
 50
205.74588604752009
 51
212.29178909035829
  0
ARC
  5
40F
100
AcDbEntity
  8
0
  6
CONTINUOUS
 62
               7
100
AcDbCircle
 10
27.224543081149704
 20
128.67987195803261
 30
0.0
 40
54.008438818400002
100
AcDbArc
 50
198.30491699914603
 51
204.86672511747969
  0
ARC
  5
410
100
AcDbEntity
  8
0
  6
CONTINUOUS
 62
               7
100
AcDbCircle
 10
27.224543081149704
 20
128.67987195803261
 30
0.0
 40
52.658227847939997
100
AcDbArc
 50
197.5124321853653
 51
204.10702018181411
  0
ARC
  5
411
100
AcDbEntity
  8
0
  6
CONTINUOUS
 62
               7
100
AcDbCircle
 10
0.0000000000002274
 20
89.999999999999801
 30
0.0
 40
39.156118143340002
100
AcDbArc
 50
131.53740655241171
 51
170.7759134708395
  0
ARC
  5
412
100
AcDbEntity
  8
0
  6
CONTINUOUS
 62
               7
100
AcDbCircle
 10
27.224543081149704
 20
128.67987195803261
 30
0.0
 40
54.008438818400002
100
AcDbArc
 50
189.99154555412619
 51
196.65479120437999
  0
ARC
  5
413
100
AcDbEntity
  8
0
  6
CONTINUOUS
 62
               7
100
AcDbCircle
 10
27.224543081149704
 20
128.67987195803261
 30
0.0
 40
52.658227847939997
100
AcDbArc
 50
189.12590583694512
 51
195.85015587897539
  0
ARC
  5
414
100
AcDbEntity
  8
0
  6
CONTINUOUS
 62
               7
100
AcDbCircle
 10
0.0
 20
90.0
 30
0.0
 40
40.5063291138
100
AcDbArc
 50
130.33384450888281
 51
162.5858920394038
  0
LINE
  5
415
100
AcDbEntity
  8
0
  6
CONTINUOUS
 62
               7
100
AcDbLine
 10
12.122561868557739
 20
128.64978902941741
 30
0.0
 11
25.147679324817545
 21
128.64978902941741
 31
0.0
  0
LINE
  5
416
100
AcDbEntity
  8
0
  6
CONTINUOUS
 62
               7
100
AcDbLine
 10
-6.2765751837053472
 20
128.64978902941749
 30
0.0
 11
6.2765751837059156
 21
128.64978902941741
 31
0.0
  0
ARC
  5
417
100
AcDbEntity
  8
0
  6
CONTINUOUS
 62
               7
100
AcDbCircle
 10
0.0
 20
90.0
 30
0.0
 40
18.902953586439999
100
AcDbArc
 50
155.24329734258291
 51
222.5815049676651
  0
ARC
  5
418
100
AcDbEntity
  8
0
  6
CONTINUOUS
 62
               7
100
AcDbCircle
 10
0.0000000000002274
 20
89.999999999999801
 30
0.0
 40
20.2531645569
100
AcDbArc
 50
152.94392552826471
 51
220.61289436969179
  0
ARC
  5
419
100
AcDbEntity
  8
0
  6
CONTINUOUS
 62
               7
100
AcDbCircle
 10
0.0
 20
90.0
 30
0.0
 40
25.65400843874
100
AcDbArc
 50
145.36749140552061
 51
213.96605082847481
  0
ARC
  5
41A
100
AcDbEntity
  8
0
  6
CONTINUOUS
 62
               7
100
AcDbCircle
 10
0.0000000000002274
 20
89.999999999999801
 30
0.0
 40
27.004219409200001
100
AcDbArc
 50
143.74741253406069
 51
212.5131194835154
  0
ARC
  5
41B
100
AcDbEntity
  8
0
  6
CONTINUOUS
 62
               7
100
AcDbCircle
 10
0.0
 20
90.0
 30
0.0
 40
32.405063291040001
100
AcDbArc
 50
137.91903195606471
 51
207.19844368905231
  0
ARC
  5
41C
100
AcDbEntity
  8
0
  6
CONTINUOUS
 62
               7
100
AcDbCircle
 10
0.0000000000002274
 20
89.999999999999801
 30
0.0
 40
33.755274261499999
100
AcDbArc
 50
136.58136887616331
 51
205.96036396399521
  0
ARC
  5
41D
100
AcDbEntity
  8
0
  6
CONTINUOUS
 62
               7
100
AcDbCircle
 10
0.0000000000002274
 20
89.999999999999801
 30
0.0
 40
39.156118143340002
100
AcDbArc
 50
99.224086529161553
 51
129.23651479068349
  0
ARC
  5
41E
100
AcDbEntity
  8
0
  6
CONTINUOUS
 62
               7
100
AcDbCircle
 10
0.0
 20
90.0
 30
0.0
 40
40.5063291138
100
AcDbArc
 50
107.4141079605907
 51
128.09738898083941
  0
LINE
  5
41F
100
AcDbEntity
  8
0
  6
CONTINUOUS
 62
               7
100
AcDbLine
 10
38.649789029417548
 20
77.877438131442602
 30
0.0
 11
38.649789029417548
 21
64.852320675182398
 31
0.0
  0
LINE
  5
420
100
AcDbEntity
  8
0
  6
CONTINUOUS
 62
               7
100
AcDbLine
 10
3.9349528217277339
 20
51.350210970582509
 30
0.0
 11
6.2765751837073367
 21
51.350210970582509
 31
0.0
  0
LINE
  5
421
100
AcDbEntity
  8
0
  6
CONTINUOUS
 62
               7
100
AcDbLine
 10
-38.649789029417491
 20
74.822957958700101
 30
0.0
 11
-38.649789029417491
 21
64.852320675182511
 31
0.0
  0
LINE
  5
422
100
AcDbEntity
  8
0
  6
CONTINUOUS
 62
               7
100
AcDbLine
 10
-26.758949071508596
 20
127.03851928272641
 30
0.0
 11
-38.649789029417491
 21
115.14767932481749
 31
0.0
  0
LINE
  5
423
100
AcDbEntity
  8
0
  6
CONTINUOUS
 62
               7
100
AcDbLine
 10
27.975263256244205
 20
125.8222050979908
 30
0.0
 11
38.649789029417548
 21
115.1476793248174
 31
0.0
  0
LINE
  5
424
100
AcDbEntity
  8
0
  6
CONTINUOUS
 62
               7
100
AcDbLine
 10
-25.147679324817489
 20
51.350210970582509
 30
0.0
 11
-38.649789029417491
 21
64.852320675182511
 31
0.0
  0
LINE
  5
425
100
AcDbEntity
  8
0
  6
CONTINUOUS
 62
               7
100
AcDbLine
 10
38.649789029417548
 20
64.852320675182398
 30
0.0
 11
25.147679324817545
 21
51.350210970582395
 31
0.0
  0
LINE
  5
426
100
AcDbEntity
  8
0
  6
CONTINUOUS
 62
               7
100
AcDbLine
 10
25.147679324817545
 20
128.64978902941741
 30
0.0
 11
26.916961772940624
 21
126.88050658129418
 31
0.0
  0
LINE
  5
427
100
AcDbEntity
  8
0
  6
CONTINUOUS
 62
               7
100
AcDbLine
 10
-25.147679324817489
 20
128.64978902941749
 30
0.0
 11
-25.432741728316103
 21
128.36472662591879
 31
0.0
  0
ARC
  5
428
100
AcDbEntity
  8
0
  6
CONTINUOUS
 62
               7
100
AcDbCircle
 10
45.199590751317032
 20
76.060658674793302
 30
0.0
 40
54.008438818400002
100
AcDbArc
 50
109.7863831594039
 51
116.30643871782901
  0
LINE
  5
429
100
AcDbEntity
  8
0
  6
CONTINUOUS
 62
               7
100
AcDbLine
 10
-25.147679324817489
 20
51.350210970582509
 30
0.0
 11
-12.122561868557682
 21
51.350210970582509
 31
0.0
  0
LINE
  5
42A
100
AcDbEntity
  8
0
  6
CONTINUOUS
 62
               7
100
AcDbLine
 10
-25.147679324817489
 20
128.64978902941749
 30
0.0
 11
-12.122561868557455
 21
128.64978902941741
 31
0.0
  0
LINE
  5
42B
100
AcDbEntity
  8
0
  6
CONTINUOUS
 62
               7
100
AcDbLine
 10
38.649789029417548
 20
115.1476793248174
 30
0.0
 11
38.649789029417548
 21
102.12256186855751
 31
0.0
  0
LINE
  5
42C
100
AcDbEntity
  8
0
  6
CONTINUOUS
 62
               7
100
AcDbLine
 10
-38.649789029417491
 20
115.14767932481749
 30
0.0
 11
-38.649789029417491
 21
102.1225618685572
 31
0.0
  0
ARC
  5
42D
100
AcDbEntity
  8
0
  6
CONTINUOUS
 62
               7
100
AcDbCircle
 10
0.0
 20
90.0
 30
0.0
 40
6.7510548523000002
100
AcDbArc
 50
227.96020689271839
 51
266.9677732209521
  0
ARC
  5
42E
100
AcDbEntity
  8
0
  6
CONTINUOUS
 62
               7
100
AcDbCircle
 10
0.0
 20
90.0
 30
0.0
 40
6.7510548523000002
100
AcDbArc
 50
299.96020689272541
 51
338.9677732209488
  0
ARC
  5
42F
100
AcDbEntity
  8
0
  6
CONTINUOUS
 62
               7
100
AcDbCircle
 10
0.0
 20
90.0
 30
0.0
 40
6.7510548523000002
100
AcDbArc
 50
11.960206892726511
 51
50.967773220948793
  0
ARC
  5
430
100
AcDbEntity
  8
0
  6
CONTINUOUS
 62
               7
100
AcDbCircle
 10
0.0
 20
90.0
 30
0.0
 40
6.7510548523000002
100
AcDbArc
 50
83.960206892723335
 51
122.96777322095159
  0
ARC
  5
431
100
AcDbEntity
  8
0
  6
CONTINUOUS
 62
               7
100
AcDbCircle
 10
-28.373897798980977
 20
127.84481687576459
 30
0.0
 40
54.008438818400002
100
AcDbArc
 50
259.03177665133461
 51
260.30643871782547
  0
ARC
  5
432
100
AcDbEntity
  8
0
  6
CONTINUOUS
 62
               7
100
AcDbCircle
 10
27.224543081149704
 20
128.67987195803261
 30
0.0
 40
54.008438818400002
100
AcDbArc
 50
181.74152531051001
 51
188.3064387178274
  0
ARC
  5
433
100
AcDbEntity
  8
0
  6
CONTINUOUS
 62
               7
100
AcDbCircle
 10
27.224543081149704
 20
128.67987195803261
 30
0.0
 40
52.658227847939997
100
AcDbArc
 50
180.34290187861271
 51
187.42275243022394
  0
ARC
  5
434
100
AcDbEntity
  8
0
  6
CONTINUOUS
 62
               7
100
AcDbCircle
 10
45.199590751317032
 20
76.060658674793302
 30
0.0
 40
52.658227847939997
100
AcDbArc
 50
109.0926455884605
 51
115.4227524302224
  0
ARC
  5
435
100
AcDbEntity
  8
0
  6
CONTINUOUS
 62
               7
100
AcDbCircle
 10
-44.760576314235891
 20
74.709511169205513
 30
0.0
 40
52.658227847939997
100
AcDbArc
 50
333.66606414883182
 51
339.85015587897431
  0
ARC
  5
436
100
AcDbEntity
  8
0
  6
CONTINUOUS
 62
               7
100
AcDbCircle
 10
-44.760576314235891
 20
74.709511169205513
 30
0.0
 40
54.008438818400002
100
AcDbArc
 50
334.3729133622507
 51
340.65479120438118
  0
ARC
  5
437
100
AcDbEntity
  8
0
  6
CONTINUOUS
 62
               7
100
AcDbCircle
 10
0.7103402807486532
 20
42.705141322203701
 30
0.0
 40
52.658227847939997
100
AcDbArc
 50
45.125905836943353
 51
51.850155878975279
  0
ARC
  5
438
100
AcDbEntity
  8
0
  6
CONTINUOUS
 62
               7
100
AcDbCircle
 10
0.7103402807486532
 20
42.705141322203701
 30
0.0
 40
54.008438818400002
100
AcDbArc
 50
45.991545554128002
 51
52.654791204379627
  0
ARC
  5
439
100
AcDbEntity
  8
0
  6
CONTINUOUS
 62
               7
100
AcDbCircle
 10
0.0
 20
90.0
 30
0.0
 40
6.7510548523000002
100
AcDbArc
 50
155.96020689273209
 51
194.9677732209469
  0
CIRCLE
  5
43A
100
AcDbEntity
  8
0
  6
CONTINUOUS
 62
               7
100
AcDbCircle
 10
35.375527426052031
 20
54.624472573947997
 30
0.0
 40
3.8999999999999999
  0
CIRCLE
  5
43B
100
AcDbEntity
  8
0
  6
CONTINUOUS
 62
               7
100
AcDbCircle
 10
-35.375527426051974
 20
54.624472573947997
 30
0.0
 40
3.8999999999999999
  0
CIRCLE
  5
43C
100
AcDbEntity
  8
0
  6
CONTINUOUS
 62
               7
100
AcDbCircle
 10
-35.375527426051974
 20
125.37552742605189
 30
0.0
 40
3.8999999999999999
  0
CIRCLE
  5
43D
100
AcDbEntity
  8
0
  6
CONTINUOUS
 62
               7
100
AcDbCircle
 10
35.375527426052031
 20
125.37552742605189
 30
0.0
 40
3.8999999999999999
  0
LINE
  5
43E
100
AcDbEntity
  8
0
  6
PHANTOM
 62
               2
100
AcDbLine
 10
-36.5
 20
48.5
 30
0.0
 11
36.5
 21
48.5
 31
0.0
  0
LINE
  5
43F
100
AcDbEntity
  8
0
  6
PHANTOM
 62
               2
100
AcDbLine
 10
36.5
 20
131.5
 30
0.0
 11
-36.5
 21
131.5
 31
0.0
  0
LINE
  5
440
100
AcDbEntity
  8
0
  6
PHANTOM
 62
               2
100
AcDbLine
 10
41.5
 20
126.5
 30
0.0
 11
41.5
 21
53.5
 31
0.0
  0
LINE
  5
441
100
AcDbEntity
  8
0
  6
PHANTOM
 62
               2
100
AcDbLine
 10
-41.5
 20
126.5
 30
0.0
 11
-41.5
 21
53.5
 31
0.0
  0
ARC
  5
442
100
AcDbEntity
  8
0
  6
PHANTOM
 62
               2
100
AcDbCircle
 10
36.5
 20
126.5
 30
0.0
 40
5.0
100
AcDbArc
 50
0.0
 51
90.0
  0
ARC
  5
443
100
AcDbEntity
  8
0
  6
PHANTOM
 62
               2
100
AcDbCircle
 10
-36.5
 20
126.5
 30
0.0
 40
5.0
100
AcDbArc
 50
90.0
 51
180.0
  0
ARC
  5
444
100
AcDbEntity
  8
0
  6
PHANTOM
 62
               2
100
AcDbCircle
 10
-36.5
 20
53.5
 30
0.0
 40
5.0
100
AcDbArc
 50
180.0
 51
270.0
  0
ARC
  5
445
100
AcDbEntity
  8
0
  6
PHANTOM
 62
               2
100
AcDbCircle
 10
36.5
 20
53.5
 30
0.0
 40
5.0
100
AcDbArc
 50
270.0
 51
0.0
  0
ENDBLK
  5
446
100
AcDbEntity
  8
0
100
AcDbBlockEnd
  0
ENDSEC
  0
SECTION
  2
ENTITIES
  0
INSERT
  5
447
100
AcDbEntity
  8
0
  6
ByBlock
100
AcDbBlockReference
  2
DTRY-ELF03-4
 10
177.49271931536984
 20
-14.181814615867991
 30
0.0
  0
INSERT
  5
448
100
AcDbEntity
  8
0
  6
ByBlock
100
AcDbBlockReference
  2
DTRY-ELF03-3
 10
-150.44347095489147
 20
-103.12827080248854
 30
0.0
  0
INSERT
  5
449
100
AcDbEntity
  8
0
  6
ByBlock
100
AcDbBlockReference
  2
DTRY-ELF03-2
 10
11.044759585612184
 20
-14.181814615867991
 30
0.0
  0
INSERT
  5
44A
100
AcDbEntity
  8
0
  6
ByBlock
100
AcDbBlockReference
  2
DTRY-ELF03-1
 10
-150.44347095489147
 20
-14.181814615867992
 30
0.0
 50
360.0
  0
MTEXT
  5
44B
100
AcDbEntity
  8
0
  6
CONTINUOUS
 62
               7
100
AcDbMText
 10
-251.6822043090194
 20
180.5
 30
0.0
 40
6.3000001907348633
 41
0.0
 71
               4
 72
               1
  1
\W1.017;\A1;DTRY-ELF03
  0
MTEXT
  5
44C
100
AcDbEntity
  8
0
  6
CONTINUOUS
 62
               7
100
AcDbMText
 10
-267.36961862439284
 20
190.5
 30
0.0
 40
6.3000001907348633
 41
0.0
 71
               4
 72
               1
  1
\W1.077;\A1;CRECEED IONIZER
  0
LINE
  5
44D
100
AcDbEntity
  8
0
  6
CONTINUOUS
 62
               7
100
AcDbLine
 10
-281.25
 20
175.5
 30
0.0
 11
-161.25
 21
175.5
 31
0.0
  0
LINE
  5
44E
100
AcDbEntity
  8
0
  6
CONTINUOUS
 62
               7
100
AcDbLine
 10
-161.25
 20
195.5
 30
0.0
 11
-161.25
 21
175.5
 31
0.0
  0
LINE
  5
44F
100
AcDbEntity
  8
0
  6
CONTINUOUS
 62
               7
100
AcDbLine
 10
162.0999755859375
 20
-175.0
 30
0.0
 11
162.0999755859375
 21
-195.0
 31
0.0
  0
LINE
  5
450
100
AcDbEntity
  8
0
  6
CONTINUOUS
 62
               7
100
AcDbLine
 10
162.0999755859375
 20
-175.0
 30
0.0
 11
282.099853515625
 21
-175.0
 31
0.0
  0
MTEXT
  5
451
100
AcDbEntity
  8
0
  6
CONTINUOUS
 62
               7
100
AcDbMText
 10
170.2809980228688
 20
-185.0
 30
0.0
 40
9.0
 41
0.0
 71
               4
 72
               1
  1
\W1.121;\A1;KOGANEI CORP.
  0
MTEXT
  5
452
100
AcDbEntity
  8
0
  6
CONTINUOUS
 62
               7
100
AcDbMText
 10
198.2770240315611
 20
185.5
 30
0.0
 40
6.3000001907348633
 41
0.0
 71
               4
 72
               1
  1
\W1.311;\A1;Ver. 1.0
  0
LINE
  5
453
100
AcDbEntity
  8
0
  6
CONTINUOUS
 62
               7
100
AcDbLine
 10
162.0999755859375
 20
175.5
 30
0.0
 11
282.099853515625
 21
175.5
 31
0.0
  0
LINE
  5
454
100
AcDbEntity
  8
0
  6
CONTINUOUS
 62
               7
100
AcDbLine
 10
162.0999755859375
 20
195.5
 30
0.0
 11
162.0999755859375
 21
175.5
 31
0.0
  0
LINE
  5
455
100
AcDbEntity
  8
0
  6
CONTINUOUS
 62
               7
100
AcDbLine
 10
282.099853515625
 20
195.5
 30
0.0
 11
282.099853515625
 21
-195.0
 31
0.0
  0
LINE
  5
456
100
AcDbEntity
  8
0
  6
CONTINUOUS
 62
               7
100
AcDbLine
 10
-281.25
 20
195.5
 30
0.0
 11
282.099853515625
 21
195.5
 31
0.0
  0
LINE
  5
457
100
AcDbEntity
  8
0
  6
CONTINUOUS
 62
               7
100
AcDbLine
 10
-281.25
 20
195.5
 30
0.0
 11
-281.25
 21
-195.0
 31
0.0
  0
LINE
  5
458
100
AcDbEntity
  8
0
  6
CONTINUOUS
 62
               7
100
AcDbLine
 10
-281.25
 20
-195.0
 30
0.0
 11
282.099853515625
 21
-195.0
 31
0.0
  0
MTEXT
  5
459
100
AcDbEntity
  8
0
  6
CONTINUOUS
 62
               7
100
AcDbMText
 10
-268.29230775341381
 20
160.5
 30
0.0
 40
6.3000001907348633
 41
0.0
 71
               4
 72
               1
  1
\W1.055;\A1;MODEL:DTRY-ELF03
  0
ENDSEC
  0
SECTION
  2
OBJECTS
  0
DICTIONARY
  5
19
100
AcDbDictionary
  3
ACAD_GROUP
350
1A
  3
ACAD_MLINESTYLE
350
1B
  0
DICTIONARY
  5
1A
102
{ACAD_REACTORS
330
19
102
}
100
AcDbDictionary
  0
DICTIONARY
  5
1B
102
{ACAD_REACTORS
330
19
102
}
100
AcDbDictionary
  3
STANDARD
350
1C
  0
MLINESTYLE
  5
1C
102
{ACAD_REACTORS
330
1B
102
}
100
AcDbMlineStyle
  2
Standard
 70
               0
  3

 62
               0
 51
90.0
 52
90.0
 71
               2
 49
0.5
 62
             256
  6
ByLayer
 49
-0.5
 62
             256
  6
ByLayer
  0
ENDSEC
  0
EOF
