  0
SECTION
  2
HEADER
  9
$ACADVER
  1
AC1012
  9
$DWGCODEPAGE
  3
dos932
  9
$INSBASE
 10
0.0
 20
0.0
 30
0.0
  9
$EXTMIN
 10
-281.25
 20
-195.0
 30
0.0
  9
$EXTMAX
 10
285.59998798370361
 20
195.5
 30
0.0
  9
$LIMMIN
 10
-281.25
 20
-195.0
  9
$LIMMAX
 10
285.59998798370361
 20
195.5
  9
$ORTHOMODE
 70
               0
  9
$REGENMODE
 70
               1
  9
$FILLMODE
 70
               1
  9
$QTEXTMODE
 70
               0
  9
$MIRRTEXT
 70
               1
  9
$DRAGMODE
 70
               2
  9
$LTSCALE
 40
1.0
  9
$OSMODE
 70
               0
  9
$ATTMODE
 70
               1
  9
$TEXTSIZE
 40
3.2000000476837158
  9
$TRACEWID
 40
0.05
  9
$TEXTSTYLE
  7
MX_NOTE_STANDARD
  9
$CLAYER
  8
0
  9
$CELTYPE
  6
CONTINUOUS
  9
$CECOLOR
 62
             256
  9
$CELTSCALE
 40
1.0
  9
$DELOBJ
 70
               1
  9
$DISPSILH
 70
               0
  9
$DIMSCALE
 40
1.0
  9
$DIMASZ
 40
2.5
  9
$DIMEXO
 40
1.5
  9
$DIMDLI
 40
3.75
  9
$DIMRND
 40
0.0
  9
$DIMDLE
 40
0.0
  9
$DIMEXE
 40
1.5
  9
$DIMTP
 40
0.0
  9
$DIMTM
 40
0.0
  9
$DIMTXT
 40
3.2000000476837158
  9
$DIMCEN
 40
2.5
  9
$DIMTSZ
 40
0.0
  9
$DIMTOL
 70
               0
  9
$DIMLIM
 70
               0
  9
$DIMTIH
 70
               0
  9
$DIMTOH
 70
               0
  9
$DIMSE1
 70
               0
  9
$DIMSE2
 70
               0
  9
$DIMTAD
 70
               1
  9
$DIMZIN
 70
               8
  9
$DIMBLK
  1

  9
$DIMASO
 70
               1
  9
$DIMSHO
 70
               1
  9
$DIMPOST
  1

  9
$DIMAPOST
  1

  9
$DIMALT
 70
               0
  9
$DIMALTD
 70
               4
  9
$DIMALTF
 40
0.03937007874016
  9
$DIMLFAC
 40
1.0
  9
$DIMTOFL
 70
               1
  9
$DIMTVP
 40
0.0
  9
$DIMTIX
 70
               0
  9
$DIMSOXD
 70
               0
  9
$DIMSAH
 70
               0
  9
$DIMBLK1
  1

  9
$DIMBLK2
  1

  9
$DIMSTYLE
  2
MXDIMSTYLE
  9
$DIMCLRD
 70
               0
  9
$DIMCLRE
 70
               0
  9
$DIMCLRT
 70
               0
  9
$DIMTFAC
 40
1.0
  9
$DIMGAP
 40
1.0
  9
$DIMJUST
 70
               0
  9
$DIMSD1
 70
               0
  9
$DIMSD2
 70
               0
  9
$DIMTOLJ
 70
               1
  9
$DIMTZIN
 70
               0
  9
$DIMALTZ
 70
               0
  9
$DIMALTTZ
 70
               0
  9
$DIMFIT
 70
               3
  9
$DIMUPT
 70
               1
  9
$DIMUNIT
 70
               2
  9
$DIMDEC
 70
               4
  9
$DIMTDEC
 70
               4
  9
$DIMALTU
 70
               2
  9
$DIMALTTD
 70
               4
  9
$DIMTXSTY
  7
MX_NOTE_STANDARD
  9
$DIMAUNIT
 70
               0
  9
$LUNITS
 70
               2
  9
$LUPREC
 70
               4
  9
$SKETCHINC
 40
0.1
  9
$FILLETRAD
 40
0.0
  9
$AUNITS
 70
               0
  9
$AUPREC
 70
               0
  9
$MENU
  1
acad
  9
$ELEVATION
 40
0.0
  9
$PELEVATION
 40
0.0
  9
$THICKNESS
 40
0.0
  9
$LIMCHECK
 70
               0
  9
$BLIPMODE
 70
               1
  9
$CHAMFERA
 40
0.0
  9
$CHAMFERB
 40
0.0
  9
$CHAMFERC
 40
0.0
  9
$CHAMFERD
 40
0.0
  9
$SKPOLY
 70
               0
  9
$TDCREATE
 40
2453517.689710648
  9
$TDUPDATE
 40
2453517.689710648
  9
$TDINDWG
 40
0.0000000000
  9
$TDUSRTIMER
 40
0.0000000000
  9
$USRTIMER
 70
               1
  9
$ANGBASE
 50
0.0
  9
$ANGDIR
 70
               0
  9
$PDMODE
 70
               0
  9
$PDSIZE
 40
0.0
  9
$PLINEWID
 40
0.0
  9
$COORDS
 70
               1
  9
$SPLFRAME
 70
               0
  9
$SPLINETYPE
 70
               6
  9
$SPLINESEGS
 70
               8
  9
$ATTDIA
 70
               0
  9
$ATTREQ
 70
               1
  9
$HANDLING
 70
               1
  9
$HANDSEED
  5
540
  9
$SURFTAB1
 70
               6
  9
$SURFTAB2
 70
               6
  9
$SURFTYPE
 70
               6
  9
$SURFU
 70
               6
  9
$SURFV
 70
               6
  9
$UCSNAME
  2

  9
$UCSORG
 10
0.0
 20
0.0
 30
0.0
  9
$UCSXDIR
 10
1.0
 20
0.0
 30
0.0
  9
$UCSYDIR
 10
0.0
 20
1.0
 30
0.0
  9
$PUCSNAME
  2

  9
$PUCSORG
 10
0.0
 20
0.0
 30
0.0
  9
$PUCSXDIR
 10
1.0
 20
0.0
 30
0.0
  9
$PUCSYDIR
 10
0.0
 20
1.0
 30
0.0
  9
$USERI1
 70
               0
  9
$USERI2
 70
               0
  9
$USERI3
 70
               0
  9
$USERI4
 70
               0
  9
$USERI5
 70
               0
  9
$USERR1
 40
0.0
  9
$USERR2
 40
0.0
  9
$USERR3
 40
0.0
  9
$USERR4
 40
0.0
  9
$USERR5
 40
0.0
  9
$WORLDVIEW
 70
               1
  9
$SHADEDGE
 70
               3
  9
$SHADEDIF
 70
              70
  9
$TILEMODE
 70
               1
  9
$MAXACTVP
 70
              16
  9
$PINSBASE
 10
0.0
 20
0.0
 30
0.0
  9
$PLIMCHECK
 70
               0
  9
$PEXTMIN
 10
1.0000000000000000E+20
 20
1.0000000000000000E+20
 30
1.0000000000000000E+20
  9
$PEXTMAX
 10
-1.0000000000000000E+20
 20
-1.0000000000000000E+20
 30
-1.0000000000000000E+20
  9
$PLIMMIN
 10
0.0
 20
0.0
  9
$PLIMMAX
 10
12.0
 20
9.0
  9
$UNITMODE
 70
               0
  9
$VISRETAIN
 70
               0
  9
$PLINEGEN
 70
               1
  9
$PSLTSCALE
 70
               0
  9
$TREEDEPTH
 70
            3020
  9
$PICKSTYLE
 70
               1
  9
$CMLSTYLE
  2
Standard
  9
$CMLJUST
 70
               0
  9
$CMLSCALE
 40
1.0
  9
$SAVEIMAGES
 70
               0
  0
ENDSEC
  0
SECTION
  2
CLASSES
  0
CLASS
  1
LWPOLYLINE
  2
AcDbPolyline
  3
"AutoCAD"
 90
        0
280
               0
281
               1
  0
CLASS
  1
IMAGE
  2
AcDbRasterImage
  3
ISM
 90
      127
280
               0
281
               1
  0
CLASS
  1
OLE2FRAME
  2
AcDbOle2Frame
  3
""
 90
        0
280
               0
281
               1
  0
CLASS
  1
HATCH
  2
AcDbHatch
  3
"ACAD_SEDONA"
 90
        0
280
               0
281
               1
  0
CLASS
  1
DICTIONARYVAR
  2
AcDbDictionaryVar
  3
"AutoCAD"
 90
        0
280
               0
281
               0
  0
CLASS
  1
RASTERVARIABLES
  2
AcDbRasterVariables
  3
ISM
 90
        0
280
               0
281
               0
  0
CLASS
  1
IMAGEDEF
  2
AcDbRasterImageDef
  3
ISM
 90
        0
280
               0
281
               0
  0
CLASS
  1
IMAGEDEF_REACTOR
  2
AcDbRasterImageDefReactor
  3
ISM
 90
        1
280
               0
281
               0
  0
CLASS
  1
IDBUFFER
  2
AcDbIdBuffer
  3
"Acad"
 90
        0
280
               0
281
               0
  0
CLASS
  1
SPATIAL_FILTER
  2
AcDbSpatialFilter
  3
"Acad"
 90
        0
280
               0
281
               0
  0
CLASS
  1
XRECORD
  2
AcDbXrecord
  3
"<Built In>"
 90
        0
280
               0
281
               0
  0
CLASS
  1
SORTENTSTABLE
  2
AcDbSortentsTable
  3
"AutoCAD"
 90
        0
280
               0
281
               0
  0
CLASS
  1
LAYER_INDEX
  2
AcDbLayerIndex
  3
"Acad"
 90
        0
280
               0
281
               0
  0
CLASS
  1
SPATIAL_INDEX
  2
AcDbSpatialIndex
  3
"Acad"
 90
        0
280
               0
281
               0
  0
CLASS
  1
OBJECT_PTR
  2
CAseDLPNTableRecord
  3
"ASE-LPNTableRecord"
 90
        1
280
               0
281
               0
  0
CLASS
  1
LAYOUT
  2
AcDbLayout
  3
"AutoCAD 2000"
 90
        1
280
               0
281
               0
  0
CLASS
  1
PLOTSETTINGS
  2
AcDbPlotSettings
  3
"AutoCAD 2000"
 90
        1
280
               0
281
               0
  0
CLASS
  1
ACDBDICTIONARYWDFLT
  2
AcDbDictionaryWithDefault
  3
"AutoCAD 2000"
 90
        1
280
               0
281
               0
  0
CLASS
  1
ACDBPLACEHOLDER
  2
AcDbPlaceHolder
  3
"AutoCAD 2000"
 90
        1
280
               0
281
               0
  0
ENDSEC
  0
SECTION
  2
TABLES
  0
TABLE
  2
VPORT
  5
7
100
AcDbSymbolTable
 70
               1
  0
VPORT
  5
15
100
AcDbSymbolTableRecord
100
AcDbViewportTableRecord
  2
*ACTIVE
 70
               0
 10
0.0
 20
0.0
 11
1.0
 21
1.0
 12
2.1749939918518066
 22
0.25
 13
0.0
 23
0.0
 14
1.0
 24
1.0
 15
0.0
 25
0.0
 16
0.0
 26
0.0
 36
1.0
 17
0.0
 27
0.0
 37
0.0
 40
394.40500000000003
 41
1.7320508075688772
 42
50.0
 43
0.0
 44
0.0
 50
0.0
 51
0.0
 71
               0
 72
             100
 73
               1
 74
               1
 75
               0
 76
               0
 77
               0
 78
               0
  0
ENDTAB
  0
TABLE
  2
LTYPE
  5
4
100
AcDbSymbolTable
 70
               4
  0
LTYPE
  5
11
100
AcDbSymbolTableRecord
100
AcDbLinetypeTableRecord
  2
BYBLOCK
 70
              64
  3

 72
              65
 73
               0
 40
0.0
  0
LTYPE
  5
12
100
AcDbSymbolTableRecord
100
AcDbLinetypeTableRecord
  2
BYLAYER
 70
              64
  3

 72
              65
 73
               0
 40
0.0
  0
LTYPE
  5
13
100
AcDbSymbolTableRecord
100
AcDbLinetypeTableRecord
  2
CONTINUOUS
 70
              64
  3
Solid line
 72
              65
 73
               0
 40
0.0
  0
LTYPE
  5
28
100
AcDbSymbolTableRecord
100
AcDbLinetypeTableRecord
  2
PHANTOM
 70
              64
  3
Phantom ______  __  __  ______  __  __  ______
 72
              65
 73
               6
 40
30.0
 49
20.0
 74
               0
 49
-2.0
 74
               0
 49
2.0
 74
               0
 49
-2.0
 74
               0
 49
2.0
 74
               0
 49
-2.0
 74
               0
  0
ENDTAB
  0
TABLE
  2
LAYER
  5
2
100
AcDbSymbolTable
 70
               2
  0
LAYER
  5
14
100
AcDbSymbolTableRecord
100
AcDbLayerTableRecord
  2
0
 70
               0
 62
               7
  6
CONTINUOUS
  0
LAYER
  5
1D
100
AcDbSymbolTableRecord
100
AcDbLayerTableRecord
  2
DEFPOINTS
 70
               0
 62
               7
  6
CONTINUOUS
  0
ENDTAB
  0
TABLE
  2
STYLE
  5
3
100
AcDbSymbolTable
 70
               1
  0
STYLE
  5
17
100
AcDbSymbolTableRecord
100
AcDbTextStyleTableRecord
  2
MX_NOTE_STANDARD
 70
               0
 40
0.0
 41
1.0
 50
0.0
 71
               0
 42
3.2000000476837158
  3
txt.shx
  4
extfont.shx
  0
ENDTAB
  0
TABLE
  2
VIEW
  5
5
100
AcDbSymbolTable
 70
               0
  0
ENDTAB
  0
TABLE
  2
UCS
  5
6
100
AcDbSymbolTable
 70
               0
  0
ENDTAB
  0
TABLE
  2
APPID
  5
8
100
AcDbSymbolTable
 70
               1
  0
APPID
  5
16
100
AcDbSymbolTableRecord
100
AcDbRegAppTableRecord
  2
ACAD
 70
               0
  0
ENDTAB
  0
TABLE
  2
DIMSTYLE
  5
9
100
AcDbSymbolTable
 70
               1
  0
DIMSTYLE
105
18
100
AcDbSymbolTableRecord
100
AcDbDimStyleTableRecord
  2
MXDIMSTYLE
 70
               0
  3

  4

  5

  6

  7

 40
1.0
 41
2.5
 42
1.5
 43
3.75
 44
1.5
 45
0.0
 46
0.0
 47
0.0
 48
0.0
 71
               0
 72
               0
 73
               0
 74
               0
 75
               0
 76
               0
 77
               1
 78
               8
140
3.2000000476837158
141
2.5
142
0.0
143
0.03937007874016
144
1.0
145
0.0
146
1.0
147
1.0
170
               0
171
               4
172
               1
173
               0
174
               0
175
               0
176
               0
177
               0
178
               0
270
               2
271
               4
272
               4
273
               2
274
               4
275
               0
280
               0
281
               0
282
               0
283
               1
284
               0
285
               0
286
               0
287
               3
288
               1
340
17
  0
ENDTAB
  0
TABLE
  2
BLOCK_RECORD
  5
1
100
AcDbSymbolTable
 70
               4
  0
BLOCK_RECORD
  5
A
100
AcDbSymbolTableRecord
100
AcDbBlockTableRecord
  2
*MODEL_SPACE
  0
BLOCK_RECORD
  5
B
100
AcDbSymbolTableRecord
100
AcDbBlockTableRecord
  2
*PAPER_SPACE
  0
BLOCK_RECORD
  5
1E
100
AcDbSymbolTableRecord
100
AcDbBlockTableRecord
  2
DTRY-ELF04-1
  0
BLOCK_RECORD
  5
1F
100
AcDbSymbolTableRecord
100
AcDbBlockTableRecord
  2
DTRY-ELF04-2
  0
BLOCK_RECORD
  5
20
100
AcDbSymbolTableRecord
100
AcDbBlockTableRecord
  2
DTRY-ELF04-3
  0
BLOCK_RECORD
  5
21
100
AcDbSymbolTableRecord
100
AcDbBlockTableRecord
  2
DTRY-ELF04-4
  0
ENDTAB
  0
ENDSEC
  0
SECTION
  2
BLOCKS
  0
BLOCK
  5
D
100
AcDbEntity
  8
0
100
AcDbBlockBegin
  2
*MODEL_SPACE
 70
               0
 10
0.0
 20
0.0
 30
0.0
  3
*MODEL_SPACE
  1

  0
ENDBLK
  5
E
100
AcDbEntity
  8
0
100
AcDbBlockEnd
  0
BLOCK
  5
F
100
AcDbEntity
 67
               1
  8
0
100
AcDbBlockBegin
  2
*PAPER_SPACE
 70
               0
 10
0.0
 20
0.0
 30
0.0
  3
*PAPER_SPACE
  1

  0
ENDBLK
  5
10
100
AcDbEntity
 67
               1
  8
0
100
AcDbBlockEnd
  0
BLOCK
  5
22
100
AcDbEntity
  8
0
100
AcDbBlockBegin
  2
DTRY-ELF04-1
 70
               0
 10
0.0
 20
0.0
 30
0.0
  3
DTRY-ELF04-1
  1

  0
LINE
  5
23
100
AcDbEntity
  8
0
  6
CONTINUOUS
 62
               2
100
AcDbLine
 10
59.604981125617115
 20
120.36803862911508
 30
0.0
 11
59.999995972472703
 21
120.76305347597072
 31
0.0
  0
LINE
  5
24
100
AcDbEntity
  8
0
  6
CONTINUOUS
 62
               2
100
AcDbLine
 10
59.196470434397412
 20
97.508887635222507
 30
0.0
 11
59.999995972472817
 21
98.312413173297912
 31
0.0
  0
LINE
  5
25
100
AcDbEntity
  8
0
  6
CONTINUOUS
 62
               2
100
AcDbLine
 10
-59.999995972472789
 20
99.545878862785983
 30
0.0
 11
-59.650244820899786
 21
99.895630014358986
 31
0.0
  0
LINE
  5
26
100
AcDbEntity
  8
0
  6
CONTINUOUS
 62
               2
100
AcDbLine
 10
-59.999995972472504
 20
121.99651916545891
 30
0.0
 11
-59.112116009269585
 21
122.884399128662
 31
0.0
  0
LINE
  5
27
100
AcDbEntity
  8
0
  6
CONTINUOUS
 62
               2
100
AcDbLine
 10
-76.561332909662099
 20
110.50000000000013
 30
0.0
 11
76.561332909662099
 21
110.50000000000013
 31
0.0
  0
LINE
  5
29
100
AcDbEntity
  8
0
  6
PHANTOM
 62
               2
100
AcDbLine
 10
-76.499999999999886
 20
87.000000000000298
 30
0.0
 11
-84.700000000000159
 21
87.000000000000298
 31
0.0
  0
LINE
  5
2A
100
AcDbEntity
  8
0
  6
PHANTOM
 62
               2
100
AcDbLine
 10
-85.499999999999886
 20
88.000000000000298
 30
0.0
 11
-85.200000000000159
 21
88.000000000000298
 31
0.0
  0
ARC
  5
2B
100
AcDbEntity
  8
0
  6
PHANTOM
 62
               2
100
AcDbCircle
 10
-85.500000000000114
 20
88.500000000000412
 30
0.0
 40
0.5
100
AcDbArc
 50
180.0
 51
270.0
  0
ARC
  5
2C
100
AcDbEntity
  8
0
  6
PHANTOM
 62
               2
100
AcDbCircle
 10
-84.700000000000159
 20
87.500000000000298
 30
0.0
 40
0.5
100
AcDbArc
 50
180.0
 51
270.0
  0
LINE
  5
2D
100
AcDbEntity
  8
0
  6
PHANTOM
 62
               2
100
AcDbLine
 10
-85.200000000000159
 20
92.400000000000389
 30
0.0
 11
-78.070954845342271
 21
92.400000000000389
 31
0.0
  0
LINE
  5
2E
100
AcDbEntity
  8
0
  6
PHANTOM
 62
               2
100
AcDbLine
 10
-85.200000000000159
 20
91.600000000000378
 30
0.0
 11
-78.070954845342271
 21
91.600000000000378
 31
0.0
  0
LINE
  5
2F
100
AcDbEntity
  8
0
  6
PHANTOM
 62
               2
100
AcDbLine
 10
-85.200000000000159
 20
88.600000000000378
 30
0.0
 11
-78.070954845342271
 21
88.600000000000378
 31
0.0
  0
LINE
  5
30
100
AcDbEntity
  8
0
  6
PHANTOM
 62
               2
100
AcDbLine
 10
-85.200000000000159
 20
89.400000000000389
 30
0.0
 11
-78.070954845342271
 21
89.400000000000389
 31
0.0
  0
LINE
  5
31
100
AcDbEntity
  8
0
  6
PHANTOM
 62
               2
100
AcDbLine
 10
-85.200000000000159
 20
94.600000000000378
 30
0.0
 11
-78.070954845342271
 21
94.600000000000378
 31
0.0
  0
LINE
  5
32
100
AcDbEntity
  8
0
  6
PHANTOM
 62
               2
100
AcDbLine
 10
-85.200000000000159
 20
95.400000000000389
 30
0.0
 11
-78.070954845342271
 21
95.400000000000389
 31
0.0
  0
LINE
  5
33
100
AcDbEntity
  8
0
  6
PHANTOM
 62
               2
100
AcDbLine
 10
-85.200000000000159
 20
97.600000000000378
 30
0.0
 11
-78.070954845342271
 21
97.600000000000378
 31
0.0
  0
LINE
  5
34
100
AcDbEntity
  8
0
  6
PHANTOM
 62
               2
100
AcDbLine
 10
-76.499999999999886
 20
103.0000000000003
 30
0.0
 11
-84.700000000000159
 21
103.0000000000003
 31
0.0
  0
LINE
  5
35
100
AcDbEntity
  8
0
  6
PHANTOM
 62
               2
100
AcDbLine
 10
-85.499999999999886
 20
102.0000000000003
 30
0.0
 11
-85.200000000000159
 21
102.0000000000003
 31
0.0
  0
ARC
  5
36
100
AcDbEntity
  8
0
  6
PHANTOM
 62
               2
100
AcDbCircle
 10
-85.500000000000114
 20
101.5000000000003
 30
0.0
 40
0.5
100
AcDbArc
 50
90.0
 51
180.0
  0
ARC
  5
37
100
AcDbEntity
  8
0
  6
PHANTOM
 62
               2
100
AcDbCircle
 10
-84.700000000000159
 20
102.50000000000041
 30
0.0
 40
0.5
100
AcDbArc
 50
90.0
 51
180.0
  0
LINE
  5
38
100
AcDbEntity
  8
0
  6
PHANTOM
 62
               2
100
AcDbLine
 10
-85.200000000000159
 20
101.40000000000039
 30
0.0
 11
-78.070954845342271
 21
101.40000000000039
 31
0.0
  0
LINE
  5
39
100
AcDbEntity
  8
0
  6
PHANTOM
 62
               2
100
AcDbLine
 10
-85.999999999999886
 20
101.5000000000003
 30
0.0
 11
-85.999999999999886
 21
88.500000000000298
 31
0.0
  0
LINE
  5
3A
100
AcDbEntity
  8
0
  6
PHANTOM
 62
               2
100
AcDbLine
 10
-85.200000000000159
 20
102.5000000000003
 30
0.0
 11
-85.200000000000159
 21
87.500000000000298
 31
0.0
  0
LINE
  5
3B
100
AcDbEntity
  8
0
  6
PHANTOM
 62
               2
100
AcDbLine
 10
-85.200000000000159
 20
98.400000000000389
 30
0.0
 11
-78.070954845342271
 21
98.400000000000389
 31
0.0
  0
ARC
  5
3C
100
AcDbEntity
  8
0
  6
PHANTOM
 62
               2
100
AcDbCircle
 10
-78.070954845342499
 20
101.00000000000041
 30
0.0
 40
0.4
100
AcDbArc
 50
270.0
 51
90.0
  0
LINE
  5
3D
100
AcDbEntity
  8
0
  6
PHANTOM
 62
               2
100
AcDbLine
 10
-85.200000000000159
 20
100.60000000000038
 30
0.0
 11
-78.070954845342271
 21
100.60000000000038
 31
0.0
  0
ARC
  5
3E
100
AcDbEntity
  8
0
  6
PHANTOM
 62
               2
100
AcDbCircle
 10
-78.070954845342499
 20
98.000000000000412
 30
0.0
 40
0.4
100
AcDbArc
 50
270.0
 51
90.0
  0
LINE
  5
3F
100
AcDbEntity
  8
0
  6
PHANTOM
 62
               2
100
AcDbLine
 10
-74.300000000000068
 20
100.50000000000041
 30
0.0
 11
-75.999999999999886
 21
100.5000000000003
 31
0.0
  0
LINE
  5
40
100
AcDbEntity
  8
0
  6
PHANTOM
 62
               2
100
AcDbLine
 10
-73.999999999999886
 20
99.500000000000412
 30
0.0
 11
-74.300000000000068
 21
99.500000000000412
 31
0.0
  0
LINE
  5
41
100
AcDbEntity
  8
0
  6
PHANTOM
 62
               2
100
AcDbLine
 10
-75.999999999999886
 20
102.5000000000003
 30
0.0
 11
-75.999999999999886
 21
87.500000000000298
 31
0.0
  0
LINE
  5
42
100
AcDbEntity
  8
0
  6
PHANTOM
 62
               2
100
AcDbLine
 10
-74.300000000000068
 20
100.50000000000041
 30
0.0
 11
-74.300000000000068
 21
89.500000000000412
 31
0.0
  0
ARC
  5
43
100
AcDbEntity
  8
0
  6
PHANTOM
 62
               2
100
AcDbCircle
 10
-76.500000000000114
 20
102.50000000000041
 30
0.0
 40
0.5
100
AcDbArc
 50
0.000000000000007
 51
90.0
  0
ARC
  5
44
100
AcDbEntity
  8
0
  6
PHANTOM
 62
               2
100
AcDbCircle
 10
-78.070954845342499
 20
95.000000000000412
 30
0.0
 40
0.4
100
AcDbArc
 50
270.0
 51
90.0
  0
ARC
  5
45
100
AcDbEntity
  8
0
  6
PHANTOM
 62
               2
100
AcDbCircle
 10
-78.070954845342499
 20
89.000000000000412
 30
0.0
 40
0.4
100
AcDbArc
 50
270.0
 51
90.0
  0
ARC
  5
46
100
AcDbEntity
  8
0
  6
PHANTOM
 62
               2
100
AcDbCircle
 10
-78.070954845342499
 20
92.000000000000412
 30
0.0
 40
0.4
100
AcDbArc
 50
270.0
 51
90.0
  0
ARC
  5
47
100
AcDbEntity
  8
0
  6
PHANTOM
 62
               2
100
AcDbCircle
 10
-76.500000000000114
 20
87.500000000000412
 30
0.0
 40
0.5
100
AcDbArc
 50
270.0
 51
0.0
  0
LINE
  5
48
100
AcDbEntity
  8
0
  6
PHANTOM
 62
               2
100
AcDbLine
 10
-74.300000000000068
 20
89.500000000000412
 30
0.0
 11
-75.999999999999886
 21
89.500000000000298
 31
0.0
  0
LINE
  5
49
100
AcDbEntity
  8
0
  6
PHANTOM
 62
               2
100
AcDbLine
 10
-73.999999999999886
 20
90.500000000000412
 30
0.0
 11
-74.300000000000068
 21
90.500000000000412
 31
0.0
  0
LINE
  5
4A
100
AcDbEntity
  8
0
  6
PHANTOM
 62
               2
100
AcDbLine
 10
-69.999999999999886
 20
102.50000000000041
 30
0.0
 11
-72.79999999999967
 21
102.50000000000041
 31
0.0
  0
LINE
  5
4B
100
AcDbEntity
  8
0
  6
PHANTOM
 62
               2
100
AcDbLine
 10
-72.79999999999967
 20
87.500000000000412
 30
0.0
 11
-69.999999999999886
 21
87.500000000000412
 31
0.0
  0
LINE
  5
4C
100
AcDbEntity
  8
0
  6
PHANTOM
 62
               2
100
AcDbLine
 10
85.200000000000102
 20
92.400000000000389
 30
0.0
 11
78.070954845342214
 21
92.400000000000389
 31
0.0
  0
LINE
  5
4D
100
AcDbEntity
  8
0
  6
PHANTOM
 62
               2
100
AcDbLine
 10
85.200000000000102
 20
91.600000000000378
 30
0.0
 11
78.070954845342214
 21
91.600000000000378
 31
0.0
  0
LINE
  5
4E
100
AcDbEntity
  8
0
  6
PHANTOM
 62
               2
100
AcDbLine
 10
85.200000000000102
 20
94.600000000000378
 30
0.0
 11
78.070954845342214
 21
94.600000000000378
 31
0.0
  0
LINE
  5
4F
100
AcDbEntity
  8
0
  6
PHANTOM
 62
               2
100
AcDbLine
 10
85.200000000000102
 20
95.400000000000389
 30
0.0
 11
78.070954845342214
 21
95.400000000000389
 31
0.0
  0
LINE
  5
50
100
AcDbEntity
  8
0
  6
CONTINUOUS
 62
               2
100
AcDbLine
 10
64.588572597823998
 20
95.000000000000412
 30
0.0
 11
89.135477364127212
 21
95.000000000000412
 31
0.0
  0
LINE
  5
51
100
AcDbEntity
  8
0
  6
PHANTOM
 62
               2
100
AcDbLine
 10
85.200000000000102
 20
97.600000000000378
 30
0.0
 11
78.070954845342214
 21
97.600000000000378
 31
0.0
  0
LINE
  5
52
100
AcDbEntity
  8
0
  6
PHANTOM
 62
               2
100
AcDbLine
 10
76.499999999999915
 20
103.0000000000003
 30
0.0
 11
84.700000000000216
 21
103.0000000000003
 31
0.0
  0
LINE
  5
53
100
AcDbEntity
  8
0
  6
PHANTOM
 62
               2
100
AcDbLine
 10
85.499999999999915
 20
102.0000000000003
 30
0.0
 11
85.200000000000102
 21
102.0000000000003
 31
0.0
  0
ARC
  5
54
100
AcDbEntity
  8
0
  6
PHANTOM
 62
               2
100
AcDbCircle
 10
85.500000000000114
 20
101.5000000000003
 30
0.0
 40
0.5
100
AcDbArc
 50
0.0
 51
90.0
  0
ARC
  5
55
100
AcDbEntity
  8
0
  6
PHANTOM
 62
               2
100
AcDbCircle
 10
84.700000000000216
 20
102.50000000000041
 30
0.0
 40
0.5
100
AcDbArc
 50
0.0
 51
90.0
  0
LINE
  5
56
100
AcDbEntity
  8
0
  6
PHANTOM
 62
               2
100
AcDbLine
 10
85.200000000000102
 20
101.40000000000039
 30
0.0
 11
78.070954845342214
 21
101.40000000000039
 31
0.0
  0
LINE
  5
57
100
AcDbEntity
  8
0
  6
PHANTOM
 62
               2
100
AcDbLine
 10
85.999999999999915
 20
101.5000000000003
 30
0.0
 11
85.999999999999915
 21
88.500000000000298
 31
0.0
  0
LINE
  5
58
100
AcDbEntity
  8
0
  6
PHANTOM
 62
               2
100
AcDbLine
 10
85.200000000000102
 20
102.5000000000003
 30
0.0
 11
85.200000000000102
 21
87.500000000000298
 31
0.0
  0
LINE
  5
59
100
AcDbEntity
  8
0
  6
PHANTOM
 62
               2
100
AcDbLine
 10
85.200000000000102
 20
98.400000000000389
 30
0.0
 11
78.070954845342214
 21
98.400000000000389
 31
0.0
  0
ARC
  5
5A
100
AcDbEntity
  8
0
  6
PHANTOM
 62
               2
100
AcDbCircle
 10
78.070954845342499
 20
101.00000000000041
 30
0.0
 40
0.4
100
AcDbArc
 50
90.0
 51
270.0
  0
LINE
  5
5B
100
AcDbEntity
  8
0
  6
PHANTOM
 62
               2
100
AcDbLine
 10
85.200000000000102
 20
100.60000000000038
 30
0.0
 11
78.070954845342214
 21
100.60000000000038
 31
0.0
  0
ARC
  5
5C
100
AcDbEntity
  8
0
  6
PHANTOM
 62
               2
100
AcDbCircle
 10
78.070954845342499
 20
98.000000000000412
 30
0.0
 40
0.4
100
AcDbArc
 50
90.0
 51
270.0
  0
LINE
  5
5D
100
AcDbEntity
  8
0
  6
PHANTOM
 62
               2
100
AcDbLine
 10
74.300000000000097
 20
100.50000000000041
 30
0.0
 11
75.999999999999915
 21
100.5000000000003
 31
0.0
  0
LINE
  5
5E
100
AcDbEntity
  8
0
  6
PHANTOM
 62
               2
100
AcDbLine
 10
73.999999999999915
 20
99.500000000000412
 30
0.0
 11
74.300000000000097
 21
99.500000000000412
 31
0.0
  0
LINE
  5
5F
100
AcDbEntity
  8
0
  6
PHANTOM
 62
               2
100
AcDbLine
 10
75.999999999999915
 20
102.5000000000003
 30
0.0
 11
75.999999999999915
 21
87.500000000000298
 31
0.0
  0
LINE
  5
60
100
AcDbEntity
  8
0
  6
PHANTOM
 62
               2
100
AcDbLine
 10
74.300000000000097
 20
100.50000000000041
 30
0.0
 11
74.300000000000097
 21
89.500000000000412
 31
0.0
  0
ARC
  5
61
100
AcDbEntity
  8
0
  6
PHANTOM
 62
               2
100
AcDbCircle
 10
76.500000000000114
 20
102.50000000000041
 30
0.0
 40
0.5
100
AcDbArc
 50
90.0
 51
180.0
  0
ARC
  5
62
100
AcDbEntity
  8
0
  6
PHANTOM
 62
               2
100
AcDbCircle
 10
78.070954845342499
 20
95.000000000000412
 30
0.0
 40
0.4
100
AcDbArc
 50
90.0
 51
270.0
  0
ARC
  5
63
100
AcDbEntity
  8
0
  6
PHANTOM
 62
               2
100
AcDbCircle
 10
78.070954845342499
 20
89.000000000000412
 30
0.0
 40
0.4
100
AcDbArc
 50
90.0
 51
270.0
  0
LINE
  5
64
100
AcDbEntity
  8
0
  6
PHANTOM
 62
               2
100
AcDbLine
 10
85.200000000000102
 20
89.400000000000389
 30
0.0
 11
78.070954845342214
 21
89.400000000000389
 31
0.0
  0
LINE
  5
65
100
AcDbEntity
  8
0
  6
PHANTOM
 62
               2
100
AcDbLine
 10
85.200000000000102
 20
88.600000000000378
 30
0.0
 11
78.070954845342214
 21
88.600000000000378
 31
0.0
  0
ARC
  5
66
100
AcDbEntity
  8
0
  6
PHANTOM
 62
               2
100
AcDbCircle
 10
78.070954845342499
 20
92.000000000000412
 30
0.0
 40
0.4
100
AcDbArc
 50
90.0
 51
270.0
  0
ARC
  5
67
100
AcDbEntity
  8
0
  6
PHANTOM
 62
               2
100
AcDbCircle
 10
76.500000000000114
 20
87.500000000000412
 30
0.0
 40
0.5
100
AcDbArc
 50
180.0
 51
270.0
  0
ARC
  5
68
100
AcDbEntity
  8
0
  6
PHANTOM
 62
               2
100
AcDbCircle
 10
84.700000000000216
 20
87.500000000000298
 30
0.0
 40
0.5
100
AcDbArc
 50
270.0
 51
0.0
  0
ARC
  5
69
100
AcDbEntity
  8
0
  6
PHANTOM
 62
               2
100
AcDbCircle
 10
85.500000000000114
 20
88.500000000000412
 30
0.0
 40
0.5
100
AcDbArc
 50
270.0
 51
0.0
  0
LINE
  5
6A
100
AcDbEntity
  8
0
  6
PHANTOM
 62
               2
100
AcDbLine
 10
85.499999999999915
 20
88.000000000000298
 30
0.0
 11
85.200000000000102
 21
88.000000000000298
 31
0.0
  0
LINE
  5
6B
100
AcDbEntity
  8
0
  6
PHANTOM
 62
               2
100
AcDbLine
 10
76.499999999999915
 20
87.000000000000298
 30
0.0
 11
84.700000000000216
 21
87.000000000000298
 31
0.0
  0
LINE
  5
6C
100
AcDbEntity
  8
0
  6
PHANTOM
 62
               2
100
AcDbLine
 10
74.300000000000097
 20
89.500000000000412
 30
0.0
 11
75.999999999999915
 21
89.500000000000298
 31
0.0
  0
LINE
  5
6D
100
AcDbEntity
  8
0
  6
PHANTOM
 62
               2
100
AcDbLine
 10
73.999999999999915
 20
90.500000000000412
 30
0.0
 11
74.300000000000097
 21
90.500000000000412
 31
0.0
  0
LINE
  5
6E
100
AcDbEntity
  8
0
  6
PHANTOM
 62
               2
100
AcDbLine
 10
69.999999999999915
 20
102.50000000000041
 30
0.0
 11
72.799999999999613
 21
102.50000000000041
 31
0.0
  0
LINE
  5
6F
100
AcDbEntity
  8
0
  6
PHANTOM
 62
               2
100
AcDbLine
 10
72.799999999999613
 20
87.500000000000412
 30
0.0
 11
69.999999999999915
 21
87.500000000000412
 31
0.0
  0
CIRCLE
  5
70
100
AcDbEntity
  8
0
  6
CONTINUOUS
 62
               7
100
AcDbCircle
 10
-5.0000000000002842
 20
27.170000000000002
 30
0.0
 40
1.5
  0
CIRCLE
  5
71
100
AcDbEntity
  8
0
  6
CONTINUOUS
 62
               7
100
AcDbCircle
 10
4.9999999999997158
 20
27.170000000000002
 30
0.0
 40
1.5
  0
LINE
  5
72
100
AcDbEntity
  8
0
  6
CONTINUOUS
 62
               7
100
AcDbLine
 10
30.944066926206204
 20
28.519999999999996
 30
0.0
 11
22.044066926206312
 21
28.519999999999996
 31
0.0
  0
LINE
  5
73
100
AcDbEntity
  8
0
  6
CONTINUOUS
 62
               7
100
AcDbLine
 10
22.044066926206312
 20
37.420000000000002
 30
0.0
 11
30.944066926206204
 21
37.420000000000002
 31
0.0
  0
LINE
  5
74
100
AcDbEntity
  8
0
  6
CONTINUOUS
 62
               7
100
AcDbLine
 10
22.044066926206312
 20
28.52000000000011
 30
0.0
 11
22.044066926206312
 21
37.420000000000002
 31
0.0
  0
LINE
  5
75
100
AcDbEntity
  8
0
  6
CONTINUOUS
 62
               7
100
AcDbLine
 10
30.944066926206204
 20
37.420000000000002
 30
0.0
 11
30.944066926206204
 21
28.52000000000011
 31
0.0
  0
CIRCLE
  5
76
100
AcDbEntity
  8
0
  6
CONTINUOUS
 62
               7
100
AcDbCircle
 10
-27.570807654440898
 20
27.889350483856006
 30
0.0
 40
0.6409174099044322
  0
CIRCLE
  5
77
100
AcDbEntity
  8
0
  6
CONTINUOUS
 62
               7
100
AcDbCircle
 10
-23.500000000000284
 20
30.570000000000007
 30
0.0
 40
7.0
  0
CIRCLE
  5
78
100
AcDbEntity
  8
0
  6
CONTINUOUS
 62
               7
100
AcDbCircle
 10
-23.500000000000284
 20
30.570000000000007
 30
0.0
 40
6.75
  0
CIRCLE
  5
79
100
AcDbEntity
  8
0
  6
CONTINUOUS
 62
               7
100
AcDbCircle
 10
-23.500000000000284
 20
30.570000000000007
 30
0.0
 40
6.25
  0
LINE
  5
7A
100
AcDbEntity
  8
0
  6
CONTINUOUS
 62
               7
100
AcDbLine
 10
-70.0
 20
175.00000000000011
 30
0.0
 11
70.0
 21
175.00000000000011
 31
0.0
  0
LINE
  5
7B
100
AcDbEntity
  8
0
  6
CONTINUOUS
 62
               7
100
AcDbLine
 10
70.0
 20
175.00000000000011
 30
0.0
 11
69.999999999999801
 21
15.000000000000099
 31
0.0
  0
LINE
  5
7C
100
AcDbEntity
  8
0
  6
CONTINUOUS
 62
               7
100
AcDbLine
 10
69.999999999999801
 20
15.000000000000099
 30
0.0
 11
-70.000000000000114
 21
15.000000000000099
 31
0.0
  0
LINE
  5
7D
100
AcDbEntity
  8
0
  6
CONTINUOUS
 62
               7
100
AcDbLine
 10
-70.000000000000114
 20
15.000000000000099
 30
0.0
 11
-70.0
 21
175.00000000000011
 31
0.0
  0
CIRCLE
  5
7E
100
AcDbEntity
  8
0
  6
CONTINUOUS
 62
               7
100
AcDbCircle
 10
4.9999999999997158
 20
27.170000000000002
 30
0.0
 40
1.75
  0
CIRCLE
  5
7F
100
AcDbEntity
  8
0
  6
CONTINUOUS
 62
               7
100
AcDbCircle
 10
-5.0000000000002842
 20
27.170000000000002
 30
0.0
 40
1.75
  0
LINE
  5
80
100
AcDbEntity
  8
0
  6
CONTINUOUS
 62
               7
100
AcDbLine
 10
21.749999999999716
 20
28.250000000000099
 30
0.0
 11
21.749999999999716
 21
37.750000000000099
 31
0.0
  0
LINE
  5
81
100
AcDbEntity
  8
0
  6
CONTINUOUS
 62
               7
100
AcDbLine
 10
31.249999999999801
 20
28.250000000000099
 30
0.0
 11
21.749999999999716
 21
28.250000000000099
 31
0.0
  0
LINE
  5
82
100
AcDbEntity
  8
0
  6
CONTINUOUS
 62
               7
100
AcDbLine
 10
31.249999999999801
 20
37.750000000000099
 30
0.0
 11
31.249999999999801
 21
28.250000000000099
 31
0.0
  0
LINE
  5
83
100
AcDbEntity
  8
0
  6
CONTINUOUS
 62
               7
100
AcDbLine
 10
21.749999999999716
 20
37.750000000000099
 30
0.0
 11
31.249999999999801
 21
37.750000000000099
 31
0.0
  0
LINE
  5
84
100
AcDbEntity
  8
0
  6
CONTINUOUS
 62
               7
100
AcDbLine
 10
-8.749999999999801
 20
172.50000000000011
 30
0.0
 11
8.7499999999996021
 21
172.50000000000011
 31
0.0
  0
ARC
  5
85
100
AcDbEntity
  8
0
  6
CONTINUOUS
 62
               7
100
AcDbCircle
 10
8.7499999999996021
 20
173.75000000000011
 30
0.0
 40
1.25
100
AcDbArc
 50
270.0
 51
90.0
  0
ARC
  5
86
100
AcDbEntity
  8
0
  6
CONTINUOUS
 62
               7
100
AcDbCircle
 10
-8.749999999999801
 20
173.75000000000011
 30
0.0
 40
1.25
100
AcDbArc
 50
90.0
 51
270.0
  0
ARC
  5
87
100
AcDbEntity
  8
0
  6
CONTINUOUS
 62
               7
100
AcDbCircle
 10
0.0
 20
110.00000000000013
 30
0.0
 40
59.0
100
AcDbArc
 50
166.5232452937218
 51
174.89489453906
  0
LINE
  5
88
100
AcDbEntity
  8
0
  6
CONTINUOUS
 62
               7
100
AcDbLine
 10
-59.99999597247259
 20
123.75000000000013
 30
0.0
 11
-59.999995972472675
 21
117.76211848036782
 31
0.0
  0
ARC
  5
89
100
AcDbEntity
  8
0
  6
CONTINUOUS
 62
               7
100
AcDbCircle
 10
-57.499995972472675
 20
52.500000000000099
 30
0.0
 40
2.5
100
AcDbArc
 50
180.0
 51
270.0
  0
ARC
  5
8A
100
AcDbEntity
  8
0
  6
CONTINUOUS
 62
               7
100
AcDbCircle
 10
57.499995972472902
 20
52.500000000000099
 30
0.0
 40
2.5
100
AcDbArc
 50
270.0
 51
0.0
  0
ARC
  5
8B
100
AcDbEntity
  8
0
  6
CONTINUOUS
 62
               7
100
AcDbCircle
 10
57.499995972472902
 20
167.5
 30
0.0
 40
2.5
100
AcDbArc
 50
0.0
 51
90.0
  0
ARC
  5
8C
100
AcDbEntity
  8
0
  6
CONTINUOUS
 62
               7
100
AcDbCircle
 10
-57.499995972472675
 20
167.50000000000011
 30
0.0
 40
2.5
100
AcDbArc
 50
90.0
 51
180.0
  0
LINE
  5
8D
100
AcDbEntity
  8
0
  6
CONTINUOUS
 62
               7
100
AcDbLine
 10
-59.999995972472675
 20
152.25000000000011
 30
0.0
 11
-59.999995972472675
 21
143.75
 31
0.0
  0
LINE
  5
8E
100
AcDbEntity
  8
0
  6
CONTINUOUS
 62
               7
100
AcDbLine
 10
-59.999995972472675
 20
161.75000000000011
 30
0.0
 11
-59.999995972472675
 21
153.25
 31
0.0
  0
LINE
  5
8F
100
AcDbEntity
  8
0
  6
CONTINUOUS
 62
               7
100
AcDbLine
 10
-7.7620873481296826
 20
170.00000000000011
 30
0.0
 11
-9.0
 21
170.00000000000011
 31
0.0
  0
LINE
  5
90
100
AcDbEntity
  8
0
  6
CONTINUOUS
 62
               7
100
AcDbLine
 10
-42.30469832063568
 20
153.25000000000011
 30
0.0
 11
-47.0
 21
153.25000000000011
 31
0.0
  0
ARC
  5
91
100
AcDbEntity
  8
0
  6
CONTINUOUS
 62
               7
100
AcDbCircle
 10
0.0
 20
110.00000000000013
 30
0.0
 40
60.5
100
AcDbArc
 50
135.70545783061041
 51
140.97392713435229
  0
ARC
  5
92
100
AcDbEntity
  8
0
  6
CONTINUOUS
 62
               7
100
AcDbCircle
 10
0.0
 20
110.00000000000013
 30
0.0
 40
59.0
100
AcDbArc
 50
134.26644004295699
 51
142.8076058207545
  0
LINE
  5
93
100
AcDbEntity
  8
0
  6
CONTINUOUS
 62
               7
100
AcDbLine
 10
-43.303435198607588
 20
152.25000000000011
 30
0.0
 11
-47.0
 21
152.25000000000011
 31
0.0
  0
LINE
  5
94
100
AcDbEntity
  8
0
  6
CONTINUOUS
 62
               7
100
AcDbLine
 10
-48.0
 20
146.82729965664066
 30
0.0
 11
-48.0
 21
152.25000000000011
 31
0.0
  0
ARC
  5
95
100
AcDbEntity
  8
0
  6
CONTINUOUS
 62
               7
100
AcDbCircle
 10
0.0
 20
110.00000000000013
 30
0.0
 40
60.5
100
AcDbArc
 50
142.5033026953333
 51
146.09267347967591
  0
LINE
  5
96
100
AcDbEntity
  8
0
  6
CONTINUOUS
 62
               7
100
AcDbLine
 10
-47.0
 20
145.66510900025406
 30
0.0
 11
-47.0
 21
143.75000000000011
 31
0.0
  0
ARC
  5
97
100
AcDbEntity
  8
0
  6
CONTINUOUS
 62
               7
100
AcDbCircle
 10
0.0
 20
110.00000000000013
 30
0.0
 40
59.0
100
AcDbArc
 50
144.44515898470209
 51
145.1078222066709
  0
LINE
  5
98
100
AcDbEntity
  8
0
  6
CONTINUOUS
 62
               7
100
AcDbLine
 10
-59.999995972472675
 20
142.75000000000011
 30
0.0
 11
-59.999995972472675
 21
134.25
 31
0.0
  0
ARC
  5
99
100
AcDbEntity
  8
0
  6
CONTINUOUS
 62
               7
100
AcDbCircle
 10
0.0
 20
110.00000000000013
 30
0.0
 40
60.5
100
AcDbArc
 50
147.22630006514109
 51
156.3701462034758
  0
ARC
  5
9A
100
AcDbEntity
  8
0
  6
CONTINUOUS
 62
               7
100
AcDbCircle
 10
0.0
 20
110.00000000000013
 30
0.0
 40
59.0
100
AcDbArc
 50
146.2834479431678
 51
155.7312660200987
  0
LINE
  5
9B
100
AcDbEntity
  8
0
  6
CONTINUOUS
 62
               7
100
AcDbLine
 10
-50.21142798208399
 20
143.75000000000011
 30
0.0
 11
-59.999995972472789
 21
143.75
 31
0.0
  0
LINE
  5
9C
100
AcDbEntity
  8
0
  6
CONTINUOUS
 62
               7
100
AcDbLine
 10
-50.86931786450458
 20
142.75000000000011
 30
0.0
 11
-59.999995972472789
 21
142.75000000000011
 31
0.0
  0
LINE
  5
9D
100
AcDbEntity
  8
0
  6
CONTINUOUS
 62
               7
100
AcDbLine
 10
-59.999995972472675
 20
133.25
 30
0.0
 11
-59.999995972472675
 21
124.7499999999999
 31
0.0
  0
LINE
  5
9E
100
AcDbEntity
  8
0
  6
CONTINUOUS
 62
               7
100
AcDbLine
 10
-55.427317272262201
 20
134.25
 30
0.0
 11
-59.999995972472789
 21
134.25
 31
0.0
  0
ARC
  5
9F
100
AcDbEntity
  8
0
  6
CONTINUOUS
 62
               7
100
AcDbCircle
 10
0.0
 20
110.00000000000013
 30
0.0
 40
59.0
100
AcDbArc
 50
156.7921523998404
 51
165.5224878140705
  0
ARC
  5
A0
100
AcDbEntity
  8
0
  6
CONTINUOUS
 62
               7
100
AcDbCircle
 10
0.0
 20
110.00000000000013
 30
0.0
 40
60.5
100
AcDbArc
 50
157.39986358874501
 51
165.88897379648961
  0
LINE
  5
A1
100
AcDbEntity
  8
0
  6
CONTINUOUS
 62
               7
100
AcDbLine
 10
-55.854162781300374
 20
133.25
 30
0.0
 11
-59.999995972472789
 21
133.25
 31
0.0
  0
ARC
  5
A2
100
AcDbEntity
  8
0
  6
CONTINUOUS
 62
               7
100
AcDbCircle
 10
0.0
 20
110.00000000000013
 30
0.0
 40
60.5
100
AcDbArc
 50
166.8634412130543
 51
172.62866325185021
  0
LINE
  5
A3
100
AcDbEntity
  8
0
  6
CONTINUOUS
 62
               7
100
AcDbLine
 10
-58.674419468794099
 20
124.75000000000001
 30
0.0
 11
-59.999995972472789
 21
124.75000000000001
 31
0.0
  0
LINE
  5
A4
100
AcDbEntity
  8
0
  6
CONTINUOUS
 62
               7
100
AcDbLine
 10
-58.916784535478598
 20
123.75000000000001
 30
0.0
 11
-59.999995972472789
 21
123.75000000000001
 31
0.0
  0
ARC
  5
A5
100
AcDbEntity
  8
0
  6
CONTINUOUS
 62
               7
100
AcDbCircle
 10
0.0
 20
110.00000000000013
 30
0.0
 40
59.0
100
AcDbArc
 50
175.86918399263999
 51
184.1308160073599
  0
ARC
  5
A6
100
AcDbEntity
  8
0
  6
CONTINUOUS
 62
               7
100
AcDbCircle
 10
0.0
 20
110.00000000000013
 30
0.0
 40
59.0
100
AcDbArc
 50
185.10510546093991
 51
193.4767547062782
  0
LINE
  5
A7
100
AcDbEntity
  8
0
  6
CONTINUOUS
 62
               7
100
AcDbLine
 10
-59.999995972472675
 20
102.23788151963261
 30
0.0
 11
-59.999995972472789
 21
96.249999999999901
 31
0.0
  0
LINE
  5
A8
100
AcDbEntity
  8
0
  6
CONTINUOUS
 62
               7
100
AcDbLine
 10
-59.99999597247259
 20
85.750000000000014
 30
0.0
 11
-59.999995972472675
 21
77.249999999999901
 31
0.0
  0
LINE
  5
A9
100
AcDbEntity
  8
0
  6
CONTINUOUS
 62
               7
100
AcDbLine
 10
-59.99999597247259
 20
76.250000000000128
 30
0.0
 11
-59.999995972472675
 21
67.750000000000014
 31
0.0
  0
LINE
  5
AA
100
AcDbEntity
  8
0
  6
CONTINUOUS
 62
               7
100
AcDbLine
 10
-59.999995972472675
 20
66.750000000000014
 30
0.0
 11
-59.999995972472789
 21
58.250000000000014
 31
0.0
  0
LINE
  5
AB
100
AcDbEntity
  8
0
  6
CONTINUOUS
 62
               7
100
AcDbLine
 10
-59.999995972472789
 20
57.250000000000014
 30
0.0
 11
-59.999995972472675
 21
52.500000000000099
 31
0.0
  0
LINE
  5
AC
100
AcDbEntity
  8
0
  6
CONTINUOUS
 62
               7
100
AcDbLine
 10
-48.000000000000085
 20
50.000000000000099
 30
0.0
 11
-57.499995972472675
 21
50.000000000000099
 31
0.0
  0
LINE
  5
AD
100
AcDbEntity
  8
0
  6
CONTINUOUS
 62
               7
100
AcDbLine
 10
-29.0
 20
50.000000000000099
 30
0.0
 11
-47.000000000000085
 21
50.000000000000099
 31
0.0
  0
LINE
  5
AE
100
AcDbEntity
  8
0
  6
CONTINUOUS
 62
               7
100
AcDbLine
 10
-59.99999597247259
 20
95.250000000000128
 30
0.0
 11
-59.99999597247259
 21
86.750000000000014
 31
0.0
  0
ARC
  5
AF
100
AcDbEntity
  8
0
  6
CONTINUOUS
 62
               7
100
AcDbCircle
 10
0.0
 20
110.00000000000013
 30
0.0
 40
60.5
100
AcDbArc
 50
194.11102620351031
 51
202.60013641125499
  0
LINE
  5
B0
100
AcDbEntity
  8
0
  6
CONTINUOUS
 62
               7
100
AcDbLine
 10
-58.674419468793985
 20
95.250000000000014
 30
0.0
 11
-59.999995972472789
 21
95.250000000000014
 31
0.0
  0
ARC
  5
B1
100
AcDbEntity
  8
0
  6
CONTINUOUS
 62
               7
100
AcDbCircle
 10
0.0
 20
110.00000000000013
 30
0.0
 40
59.0
100
AcDbArc
 50
194.4775121859295
 51
203.2078476001596
  0
LINE
  5
B2
100
AcDbEntity
  8
0
  6
CONTINUOUS
 62
               7
100
AcDbLine
 10
-58.916784535478484
 20
96.250000000000014
 30
0.0
 11
-59.999995972472789
 21
96.250000000000014
 31
0.0
  0
ARC
  5
B3
100
AcDbEntity
  8
0
  6
CONTINUOUS
 62
               7
100
AcDbCircle
 10
0.0
 20
110.00000000000013
 30
0.0
 40
60.5
100
AcDbArc
 50
203.6298537965242
 51
212.77369993485891
  0
LINE
  5
B4
100
AcDbEntity
  8
0
  6
CONTINUOUS
 62
               7
100
AcDbLine
 10
-55.854162781300374
 20
86.749999999999901
 30
0.0
 11
-59.999995972472789
 21
86.749999999999901
 31
0.0
  0
ARC
  5
B5
100
AcDbEntity
  8
0
  6
CONTINUOUS
 62
               7
100
AcDbCircle
 10
0.0
 20
110.00000000000013
 30
0.0
 40
59.0
100
AcDbArc
 50
204.2687339799013
 51
213.7165520568322
  0
LINE
  5
B6
100
AcDbEntity
  8
0
  6
CONTINUOUS
 62
               7
100
AcDbLine
 10
-55.427317272262087
 20
85.750000000000014
 30
0.0
 11
-59.999995972472789
 21
85.750000000000014
 31
0.0
  0
ARC
  5
B7
100
AcDbEntity
  8
0
  6
CONTINUOUS
 62
               7
100
AcDbCircle
 10
0.0
 20
110.00000000000013
 30
0.0
 40
60.5
100
AcDbArc
 50
213.90732652032401
 51
217.4966973046667
  0
LINE
  5
B8
100
AcDbEntity
  8
0
  6
CONTINUOUS
 62
               7
100
AcDbLine
 10
-50.869317864504495
 20
77.250000000000014
 30
0.0
 11
-59.999995972472789
 21
77.250000000000014
 31
0.0
  0
ARC
  5
B9
100
AcDbEntity
  8
0
  6
CONTINUOUS
 62
               7
100
AcDbCircle
 10
0.0
 20
110.00000000000013
 30
0.0
 40
59.0
100
AcDbArc
 50
214.89217779332913
 51
215.55484101529791
  0
LINE
  5
BA
100
AcDbEntity
  8
0
  6
CONTINUOUS
 62
               7
100
AcDbLine
 10
-50.21142798208399
 20
76.250000000000014
 30
0.0
 11
-59.999995972472789
 21
76.250000000000014
 31
0.0
  0
ARC
  5
BB
100
AcDbEntity
  8
0
  6
CONTINUOUS
 62
               7
100
AcDbCircle
 10
0.0
 20
110.00000000000013
 30
0.0
 40
59.0
100
AcDbArc
 50
217.19239417924291
 51
225.73355995704301
  0
ARC
  5
BC
100
AcDbEntity
  8
0
  6
CONTINUOUS
 62
               7
100
AcDbCircle
 10
0.0
 20
110.00000000000013
 30
0.0
 40
60.5
100
AcDbArc
 50
219.02607286564759
 51
224.29454216938959
  0
LINE
  5
BD
100
AcDbEntity
  8
0
  6
CONTINUOUS
 62
               7
100
AcDbLine
 10
-48.0
 20
75.692566403183221
 30
0.0
 11
-48.0
 21
76.250000000000128
 31
0.0
  0
LINE
  5
BE
100
AcDbEntity
  8
0
  6
CONTINUOUS
 62
               7
100
AcDbLine
 10
-47.0
 20
71.904724702399179
 30
0.0
 11
-47.0
 21
67.750000000000099
 31
0.0
  0
ARC
  5
BF
100
AcDbEntity
  8
0
  6
CONTINUOUS
 62
               7
100
AcDbCircle
 10
0.0
 20
110.00000000000013
 30
0.0
 40
60.5
100
AcDbArc
 50
225.63304054307889
 51
238.80084509733121
  0
LINE
  5
C0
100
AcDbEntity
  8
0
  6
CONTINUOUS
 62
               7
100
AcDbLine
 10
-43.303435198607588
 20
67.750000000000099
 30
0.0
 11
-47.0
 21
67.750000000000099
 31
0.0
  0
ARC
  5
C1
100
AcDbEntity
  8
0
  6
CONTINUOUS
 62
               7
100
AcDbCircle
 10
0.0
 20
110.00000000000013
 30
0.0
 40
59.0
100
AcDbArc
 50
227.1427708527809
 51
240.55910735116862
  0
LINE
  5
C2
100
AcDbEntity
  8
0
  6
CONTINUOUS
 62
               7
100
AcDbLine
 10
-42.30469832063568
 20
66.750000000000014
 30
0.0
 11
-47.0
 21
66.750000000000014
 31
0.0
  0
ARC
  5
C3
100
AcDbEntity
  8
0
  6
CONTINUOUS
 62
               7
100
AcDbCircle
 10
0.0
 20
110.00000000000013
 30
0.0
 40
60.5
100
AcDbArc
 50
240.68028477279012
 51
241.35777029168551
  0
ARC
  5
C4
100
AcDbEntity
  8
0
  6
CONTINUOUS
 62
               7
100
AcDbCircle
 10
0.0
 20
110.00000000000013
 30
0.0
 40
60.5
100
AcDbArc
 50
242.43142450089582
 51
260.48596164393769
  0
ARC
  5
C5
100
AcDbEntity
  8
0
  6
CONTINUOUS
 62
               7
100
AcDbCircle
 10
0.0
 20
110.00000000000013
 30
0.0
 40
59.0
100
AcDbArc
 50
243.38894113779708
 51
260.24174340461849
  0
ARC
  5
C6
100
AcDbEntity
  8
0
  6
CONTINUOUS
 62
               7
100
AcDbCircle
 10
0.0
 20
110.00000000000013
 30
0.0
 40
60.5
100
AcDbArc
 50
261.44490725927488
 51
262.62869298094876
  0
LINE
  5
C7
100
AcDbEntity
  8
0
  6
CONTINUOUS
 62
               7
100
AcDbLine
 10
-10.0
 20
50.000000000000099
 30
0.0
 11
-28.0
 21
50.000000000000099
 31
0.0
  0
LINE
  5
C8
100
AcDbEntity
  8
0
  6
CONTINUOUS
 62
               7
100
AcDbLine
 10
-10.0
 20
51.853632959573488
 30
0.0
 11
-10.0
 21
57.250000000000014
 31
0.0
  0
ARC
  5
C9
100
AcDbEntity
  8
0
  6
CONTINUOUS
 62
               7
100
AcDbCircle
 10
0.0
 20
110.00000000000013
 30
0.0
 40
59.0
100
AcDbArc
 50
261.22571035215202
 51
278.77428964784798
  0
LINE
  5
CA
100
AcDbEntity
  8
0
  6
CONTINUOUS
 62
               7
100
AcDbLine
 10
-9.0
 20
51.69048105154711
 30
0.0
 11
-9.0
 21
57.250000000000099
 31
0.0
  0
LINE
  5
CB
100
AcDbEntity
  8
0
  6
CONTINUOUS
 62
               7
100
AcDbLine
 10
-7.7620873481300805
 20
50.000000000000099
 30
0.0
 11
-9.0
 21
50.000000000000099
 31
0.0
  0
LINE
  5
CC
100
AcDbEntity
  8
0
  6
CONTINUOUS
 62
               7
100
AcDbLine
 10
9.0
 20
50.000000000000099
 30
0.0
 11
7.7620873481300237
 21
50.000000000000099
 31
0.0
  0
LINE
  5
CD
100
AcDbEntity
  8
0
  6
CONTINUOUS
 62
               7
100
AcDbLine
 10
9.0
 20
51.69048105154711
 30
0.0
 11
9.0
 21
57.250000000000099
 31
0.0
  0
ARC
  5
CE
100
AcDbEntity
  8
0
  6
CONTINUOUS
 62
               7
100
AcDbCircle
 10
0.0
 20
110.00000000000013
 30
0.0
 40
59.0
100
AcDbArc
 50
279.75825659538151
 51
296.61105886220292
  0
ARC
  5
CF
100
AcDbEntity
  8
0
  6
CONTINUOUS
 62
               7
100
AcDbCircle
 10
0.0
 20
110.00000000000013
 30
0.0
 40
60.5
100
AcDbArc
 50
279.51403835606231
 51
297.56857549910421
  0
LINE
  5
D0
100
AcDbEntity
  8
0
  6
CONTINUOUS
 62
               7
100
AcDbLine
 10
10.0
 20
51.853632959573488
 30
0.0
 11
10.0
 21
57.250000000000014
 31
0.0
  0
LINE
  5
D1
100
AcDbEntity
  8
0
  6
CONTINUOUS
 62
               7
100
AcDbLine
 10
28.0
 20
50.000000000000099
 30
0.0
 11
10.0
 21
50.000000000000099
 31
0.0
  0
ARC
  5
D2
100
AcDbEntity
  8
0
  6
CONTINUOUS
 62
               7
100
AcDbCircle
 10
0.0
 20
110.00000000000013
 30
0.0
 40
60.5
100
AcDbArc
 50
301.19915490266891
 51
314.36695945692111
  0
ARC
  5
D3
100
AcDbEntity
  8
0
  6
CONTINUOUS
 62
               7
100
AcDbCircle
 10
0.0
 20
110.00000000000013
 30
0.0
 40
60.5
100
AcDbArc
 50
298.6422297083144
 51
299.31971522720983
  0
ARC
  5
D4
100
AcDbEntity
  8
0
  6
CONTINUOUS
 62
               7
100
AcDbCircle
 10
0.0
 20
110.00000000000013
 30
0.0
 40
59.0
100
AcDbArc
 50
299.44089264883132
 51
312.85722914721907
  0
LINE
  5
D5
100
AcDbEntity
  8
0
  6
CONTINUOUS
 62
               7
100
AcDbLine
 10
40.130256665015111
 20
66.750000000000014
 30
0.0
 11
29.0
 21
66.750000000000014
 31
0.0
  0
ARC
  5
D6
100
AcDbEntity
  8
0
  6
CONTINUOUS
 62
               7
100
AcDbCircle
 10
0.0
 20
110.00000000000013
 30
0.0
 40
59.0
100
AcDbArc
 50
314.26644004295702
 51
322.80760582075709
  0
LINE
  5
D7
100
AcDbEntity
  8
0
  6
CONTINUOUS
 62
               7
100
AcDbLine
 10
41.181761739877004
 20
67.750000000000099
 30
0.0
 11
29.0
 21
67.750000000000099
 31
0.0
  0
ARC
  5
D8
100
AcDbEntity
  8
0
  6
CONTINUOUS
 62
               7
100
AcDbCircle
 10
0.0
 20
110.00000000000013
 30
0.0
 40
60.5
100
AcDbArc
 50
315.70545783061038
 51
320.97392713435232
  0
LINE
  5
D9
100
AcDbEntity
  8
0
  6
CONTINUOUS
 62
               7
100
AcDbLine
 10
47.0
 20
50.000000000000099
 30
0.0
 11
29.0
 21
50.000000000000099
 31
0.0
  0
LINE
  5
DA
100
AcDbEntity
  8
0
  6
CONTINUOUS
 62
               7
100
AcDbLine
 10
59.999995972472902
 20
57.250000000000014
 30
0.0
 11
59.999995972472902
 21
52.500000000000099
 31
0.0
  0
LINE
  5
DB
100
AcDbEntity
  8
0
  6
CONTINUOUS
 62
               7
100
AcDbLine
 10
59.999995972473016
 20
66.750000000000014
 30
0.0
 11
59.999995972473016
 21
58.250000000000014
 31
0.0
  0
ARC
  5
DC
100
AcDbEntity
  8
0
  6
CONTINUOUS
 62
               7
100
AcDbCircle
 10
0.0
 20
110.00000000000013
 30
0.0
 40
60.5
100
AcDbArc
 50
322.50330269533339
 51
326.09267347967602
  0
LINE
  5
DD
100
AcDbEntity
  8
0
  6
CONTINUOUS
 62
               7
100
AcDbLine
 10
47.0
 20
74.334890999746122
 30
0.0
 11
47.0
 21
76.250000000000128
 31
0.0
  0
ARC
  5
DE
100
AcDbEntity
  8
0
  6
CONTINUOUS
 62
               7
100
AcDbCircle
 10
0.0
 20
110.00000000000013
 30
0.0
 40
59.0
100
AcDbArc
 50
324.44515898470212
 51
325.10782220667102
  0
LINE
  5
DF
100
AcDbEntity
  8
0
  6
CONTINUOUS
 62
               7
100
AcDbLine
 10
48.0
 20
75.692566403183221
 30
0.0
 11
48.0
 21
76.250000000000128
 31
0.0
  0
LINE
  5
E0
100
AcDbEntity
  8
0
  6
CONTINUOUS
 62
               7
100
AcDbLine
 10
48.393568787598213
 20
76.250000000000128
 30
0.0
 11
48.0
 21
76.250000000000128
 31
0.0
  0
ARC
  5
E1
100
AcDbEntity
  8
0
  6
CONTINUOUS
 62
               7
100
AcDbCircle
 10
0.0
 20
110.00000000000013
 30
0.0
 40
59.0
100
AcDbArc
 50
326.2834479431678
 51
335.7312660200987
  0
ARC
  5
E2
100
AcDbEntity
  8
0
  6
CONTINUOUS
 62
               7
100
AcDbCircle
 10
0.0
 20
110.00000000000013
 30
0.0
 40
60.5
100
AcDbArc
 50
327.22630006514117
 51
336.37014620347583
  0
LINE
  5
E3
100
AcDbEntity
  8
0
  6
CONTINUOUS
 62
               7
100
AcDbLine
 10
49.075834175284314
 20
77.250000000000128
 30
0.0
 11
48.0
 21
77.250000000000014
 31
0.0
  0
LINE
  5
E4
100
AcDbEntity
  8
0
  6
CONTINUOUS
 62
               7
100
AcDbLine
 10
59.999995972472902
 20
76.250000000000014
 30
0.0
 11
59.999995972473016
 21
67.750000000000014
 31
0.0
  0
LINE
  5
E5
100
AcDbEntity
  8
0
  6
CONTINUOUS
 62
               7
100
AcDbLine
 10
59.999995972473016
 20
85.750000000000128
 30
0.0
 11
59.999995972472902
 21
77.250000000000014
 31
0.0
  0
LINE
  5
E6
100
AcDbEntity
  8
0
  6
CONTINUOUS
 62
               7
100
AcDbLine
 10
53.786034432740905
 20
85.750000000000128
 30
0.0
 11
48.0
 21
85.750000000000128
 31
0.0
  0
LINE
  5
E7
100
AcDbEntity
  8
0
  6
CONTINUOUS
 62
               7
100
AcDbLine
 10
54.225801054479518
 20
86.750000000000014
 30
0.0
 11
48.0
 21
86.750000000000014
 31
0.0
  0
ARC
  5
E8
100
AcDbEntity
  8
0
  6
CONTINUOUS
 62
               7
100
AcDbCircle
 10
0.0
 20
110.00000000000013
 30
0.0
 40
59.0
100
AcDbArc
 50
336.7921523998404
 51
345.52248781407047
  0
ARC
  5
E9
100
AcDbEntity
  8
0
  6
CONTINUOUS
 62
               7
100
AcDbCircle
 10
0.0
 20
110.00000000000013
 30
0.0
 40
60.5
100
AcDbArc
 50
337.39986358874501
 51
345.88897379648972
  0
LINE
  5
EA
100
AcDbEntity
  8
0
  6
CONTINUOUS
 62
               7
100
AcDbLine
 10
59.999995972472902
 20
95.250000000000128
 30
0.0
 11
59.999995972473016
 21
86.750000000000014
 31
0.0
  0
ARC
  5
EB
100
AcDbEntity
  8
0
  6
CONTINUOUS
 62
               7
100
AcDbCircle
 10
0.0
 20
110.00000000000013
 30
0.0
 40
60.5
100
AcDbArc
 50
346.86344121305439
 51
352.62866325185018
  0
ARC
  5
EC
100
AcDbEntity
  8
0
  6
CONTINUOUS
 62
               7
100
AcDbCircle
 10
0.0
 20
110.00000000000013
 30
0.0
 40
59.0
100
AcDbArc
 50
346.52324529372191
 51
354.89489453906009
  0
LINE
  5
ED
100
AcDbEntity
  8
0
  6
CONTINUOUS
 62
               7
100
AcDbLine
 10
57.126504356559423
 20
95.250000000000128
 30
0.0
 11
48.0
 21
95.250000000000128
 31
0.0
  0
LINE
  5
EE
100
AcDbEntity
  8
0
  6
CONTINUOUS
 62
               7
100
AcDbLine
 10
57.375408495277696
 20
96.250000000000014
 30
0.0
 11
48.0
 21
96.250000000000014
 31
0.0
  0
ARC
  5
EF
100
AcDbEntity
  8
0
  6
CONTINUOUS
 62
               7
100
AcDbCircle
 10
0.0
 20
110.00000000000013
 30
0.0
 40
59.0
100
AcDbArc
 50
355.86918399263999
 51
4.1308160073599742
  0
LINE
  5
F0
100
AcDbEntity
  8
0
  6
CONTINUOUS
 62
               7
100
AcDbLine
 10
59.999995972472817
 20
102.23788151963358
 30
0.0
 11
59.999995972472902
 21
96.250000000000014
 31
0.0
  0
ARC
  5
F1
100
AcDbEntity
  8
0
  6
CONTINUOUS
 62
               7
100
AcDbCircle
 10
0.0
 20
110.00000000000013
 30
0.0
 40
59.0
100
AcDbArc
 50
5.1051054609399378
 51
13.476754706278181
  0
ARC
  5
F2
100
AcDbEntity
  8
0
  6
CONTINUOUS
 62
               7
100
AcDbCircle
 10
0.0
 20
110.00000000000013
 30
0.0
 40
59.0
100
AcDbArc
 50
14.47751218592945
 51
23.207847600159599
  0
LINE
  5
F3
100
AcDbEntity
  8
0
  6
CONTINUOUS
 62
               7
100
AcDbLine
 10
57.37540849527781
 20
123.75000000000013
 30
0.0
 11
48.0
 21
123.75000000000013
 31
0.0
  0
LINE
  5
F4
100
AcDbEntity
  8
0
  6
CONTINUOUS
 62
               7
100
AcDbLine
 10
57.126504356559423
 20
124.75000000000013
 30
0.0
 11
48.0
 21
124.75000000000013
 31
0.0
  0
ARC
  5
F5
100
AcDbEntity
  8
0
  6
CONTINUOUS
 62
               7
100
AcDbCircle
 10
0.0
 20
110.00000000000013
 30
0.0
 40
60.5
100
AcDbArc
 50
14.111026203510351
 51
22.600136411254979
  0
LINE
  5
F6
100
AcDbEntity
  8
0
  6
CONTINUOUS
 62
               7
100
AcDbLine
 10
59.999995972472817
 20
123.75000000000001
 30
0.0
 11
59.999995972472817
 21
117.76211848036611
 31
0.0
  0
LINE
  5
F7
100
AcDbEntity
  8
0
  6
CONTINUOUS
 62
               7
100
AcDbLine
 10
59.999995972472817
 20
133.25
 30
0.0
 11
59.999995972472817
 21
124.75000000000001
 31
0.0
  0
LINE
  5
F8
100
AcDbEntity
  8
0
  6
CONTINUOUS
 62
               7
100
AcDbLine
 10
59.999995972472817
 20
142.75000000000011
 30
0.0
 11
59.999995972472817
 21
134.25000000000011
 31
0.0
  0
LINE
  5
F9
100
AcDbEntity
  8
0
  6
CONTINUOUS
 62
               7
100
AcDbLine
 10
59.999995972472817
 20
152.25000000000011
 30
0.0
 11
59.999995972472817
 21
143.75
 31
0.0
  0
LINE
  5
FA
100
AcDbEntity
  8
0
  6
CONTINUOUS
 62
               7
100
AcDbLine
 10
59.999995972472817
 20
161.75000000000011
 30
0.0
 11
59.999995972472817
 21
153.25000000000011
 31
0.0
  0
LINE
  5
FB
100
AcDbEntity
  8
0
  6
CONTINUOUS
 62
               7
100
AcDbLine
 10
47.0
 20
170.00000000000011
 30
0.0
 11
29.0
 21
170.00000000000011
 31
0.0
  0
LINE
  5
FC
100
AcDbEntity
  8
0
  6
CONTINUOUS
 62
               7
100
AcDbLine
 10
54.225801054479518
 20
133.25000000000011
 30
0.0
 11
48.0
 21
133.25000000000011
 31
0.0
  0
ARC
  5
FD
100
AcDbEntity
  8
0
  6
CONTINUOUS
 62
               7
100
AcDbCircle
 10
0.0
 20
110.00000000000013
 30
0.0
 40
60.5
100
AcDbArc
 50
23.62985379652417
 51
32.773699934858861
  0
ARC
  5
FE
100
AcDbEntity
  8
0
  6
CONTINUOUS
 62
               7
100
AcDbCircle
 10
0.0
 20
110.00000000000013
 30
0.0
 40
59.0
100
AcDbArc
 50
24.268733979901249
 51
33.716552056832192
  0
LINE
  5
FF
100
AcDbEntity
  8
0
  6
CONTINUOUS
 62
               7
100
AcDbLine
 10
53.786034432740905
 20
134.25000000000011
 30
0.0
 11
48.0
 21
134.25000000000011
 31
0.0
  0
LINE
  5
100
100
AcDbEntity
  8
0
  6
CONTINUOUS
 62
               7
100
AcDbLine
 10
49.075834175284115
 20
142.75000000000011
 30
0.0
 11
48.0
 21
142.75000000000011
 31
0.0
  0
ARC
  5
101
100
AcDbEntity
  8
0
  6
CONTINUOUS
 62
               7
100
AcDbCircle
 10
0.0
 20
110.00000000000013
 30
0.0
 40
60.5
100
AcDbArc
 50
33.907326520324041
 51
37.496697304666633
  0
LINE
  5
102
100
AcDbEntity
  8
0
  6
CONTINUOUS
 62
               7
100
AcDbLine
 10
48.393568787598213
 20
143.75
 30
0.0
 11
48.0
 21
143.75000000000011
 31
0.0
  0
ARC
  5
103
100
AcDbEntity
  8
0
  6
CONTINUOUS
 62
               7
100
AcDbCircle
 10
0.0
 20
110.00000000000013
 30
0.0
 40
59.0
100
AcDbArc
 50
34.892177793329047
 51
35.554841015297839
  0
ARC
  5
104
100
AcDbEntity
  8
0
  6
CONTINUOUS
 62
               7
100
AcDbCircle
 10
0.0
 20
110.00000000000013
 30
0.0
 40
59.0
100
AcDbArc
 50
37.192394179242918
 51
45.73355995704302
  0
LINE
  5
105
100
AcDbEntity
  8
0
  6
CONTINUOUS
 62
               7
100
AcDbLine
 10
48.0
 20
146.82729965664066
 30
0.0
 11
48.0
 21
152.25000000000011
 31
0.0
  0
ARC
  5
106
100
AcDbEntity
  8
0
  6
CONTINUOUS
 62
               7
100
AcDbCircle
 10
0.0
 20
110.00000000000013
 30
0.0
 40
60.5
100
AcDbArc
 50
39.026072865647642
 51
44.29454216938958
  0
LINE
  5
107
100
AcDbEntity
  8
0
  6
CONTINUOUS
 62
               7
100
AcDbLine
 10
47.0
 20
148.09527529760101
 30
0.0
 11
47.0
 21
152.25000000000011
 31
0.0
  0
LINE
  5
108
100
AcDbEntity
  8
0
  6
CONTINUOUS
 62
               7
100
AcDbLine
 10
41.181761739876919
 20
152.25000000000011
 30
0.0
 11
29.0
 21
152.25000000000011
 31
0.0
  0
ARC
  5
109
100
AcDbEntity
  8
0
  6
CONTINUOUS
 62
               7
100
AcDbCircle
 10
0.0
 20
110.00000000000013
 30
0.0
 40
60.5
100
AcDbArc
 50
45.633040543078891
 51
58.800845097331148
  0
ARC
  5
10A
100
AcDbEntity
  8
0
  6
CONTINUOUS
 62
               7
100
AcDbCircle
 10
0.0
 20
110.00000000000013
 30
0.0
 40
59.0
100
AcDbArc
 50
47.142770852780892
 51
60.559107351168663
  0
LINE
  5
10B
100
AcDbEntity
  8
0
  6
CONTINUOUS
 62
               7
100
AcDbLine
 10
40.130256665015111
 20
153.25000000000011
 30
0.0
 11
29.0
 21
153.25000000000011
 31
0.0
  0
ARC
  5
10C
100
AcDbEntity
  8
0
  6
CONTINUOUS
 62
               7
100
AcDbCircle
 10
0.0
 20
110.00000000000013
 30
0.0
 40
60.5
100
AcDbArc
 50
60.680284772790152
 51
61.35777029168554
  0
ARC
  5
10D
100
AcDbEntity
  8
0
  6
CONTINUOUS
 62
               7
100
AcDbCircle
 10
0.0
 20
110.00000000000013
 30
0.0
 40
59.0
100
AcDbArc
 50
63.388941137797111
 51
80.241743404618504
  0
ARC
  5
10E
100
AcDbEntity
  8
0
  6
CONTINUOUS
 62
               7
100
AcDbCircle
 10
0.0
 20
110.00000000000013
 30
0.0
 40
60.5
100
AcDbArc
 50
62.43142450089578
 51
80.485961643937685
  0
LINE
  5
10F
100
AcDbEntity
  8
0
  6
CONTINUOUS
 62
               7
100
AcDbLine
 10
27.999999999999915
 20
170.00000000000011
 30
0.0
 11
10.0
 21
170.00000000000011
 31
0.0
  0
LINE
  5
110
100
AcDbEntity
  8
0
  6
CONTINUOUS
 62
               7
100
AcDbLine
 10
29.0
 20
163.09661006128357
 30
0.0
 11
29.0
 21
170.00000000000011
 31
0.0
  0
LINE
  5
111
100
AcDbEntity
  8
0
  6
CONTINUOUS
 62
               7
100
AcDbLine
 10
-10.0
 20
170.00000000000011
 30
0.0
 11
-28.0
 21
170.00000000000011
 31
0.0
  0
LINE
  5
112
100
AcDbEntity
  8
0
  6
CONTINUOUS
 62
               7
100
AcDbLine
 10
9.0
 20
170.00000000000011
 30
0.0
 11
7.7620873481298247
 21
170.00000000000011
 31
0.0
  0
ARC
  5
113
100
AcDbEntity
  8
0
  6
CONTINUOUS
 62
               7
100
AcDbCircle
 10
0.0
 20
110.00000000000013
 30
0.0
 40
60.5
100
AcDbArc
 50
81.444907259274913
 51
82.628692980948614
  0
LINE
  5
114
100
AcDbEntity
  8
0
  6
CONTINUOUS
 62
               7
100
AcDbLine
 10
10.0
 20
169.66783052868607
 30
0.0
 11
10.0
 21
170.0
 31
0.0
  0
ARC
  5
115
100
AcDbEntity
  8
0
  6
CONTINUOUS
 62
               7
100
AcDbCircle
 10
0.0
 20
110.00000000000013
 30
0.0
 40
59.0
100
AcDbArc
 50
81.225710352151964
 51
98.77428964784805
  0
LINE
  5
116
100
AcDbEntity
  8
0
  6
CONTINUOUS
 62
               7
100
AcDbLine
 10
9.0
 20
169.82683344453397
 30
0.0
 11
9.0
 21
170.0
 31
0.0
  0
LINE
  5
117
100
AcDbEntity
  8
0
  6
CONTINUOUS
 62
               7
100
AcDbLine
 10
-9.000000000000199
 20
169.82683344453386
 30
0.0
 11
-9.0
 21
170.0
 31
0.0
  0
LINE
  5
118
100
AcDbEntity
  8
0
  6
CONTINUOUS
 62
               7
100
AcDbLine
 10
-10.0
 20
169.66783052868607
 30
0.0
 11
-10.0
 21
170.0
 31
0.0
  0
ARC
  5
119
100
AcDbEntity
  8
0
  6
CONTINUOUS
 62
               7
100
AcDbCircle
 10
0.0
 20
110.00000000000013
 30
0.0
 40
59.0
100
AcDbArc
 50
99.758256595381496
 51
116.61105886220288
  0
ARC
  5
11A
100
AcDbEntity
  8
0
  6
CONTINUOUS
 62
               7
100
AcDbCircle
 10
0.0
 20
110.00000000000013
 30
0.0
 40
60.5
100
AcDbArc
 50
99.514038356062301
 51
117.5685754991042
  0
ARC
  5
11B
100
AcDbEntity
  8
0
  6
CONTINUOUS
 62
               7
100
AcDbCircle
 10
0.0
 20
110.00000000000013
 30
0.0
 40
60.5
100
AcDbArc
 50
121.19915490266881
 51
134.36695945692111
  0
ARC
  5
11C
100
AcDbEntity
  8
0
  6
CONTINUOUS
 62
               7
100
AcDbCircle
 10
0.0
 20
110.00000000000013
 30
0.0
 40
60.5
100
AcDbArc
 50
118.6422297083145
 51
119.3197152272098
  0
LINE
  5
11D
100
AcDbEntity
  8
0
  6
CONTINUOUS
 62
               7
100
AcDbLine
 10
-29.0
 20
170.00000000000011
 30
0.0
 11
-47.0
 21
170.00000000000011
 31
0.0
  0
LINE
  5
11E
100
AcDbEntity
  8
0
  6
CONTINUOUS
 62
               7
100
AcDbLine
 10
-48.0
 20
170.00000000000011
 30
0.0
 11
-57.499995972472675
 21
170.00000000000011
 31
0.0
  0
ARC
  5
11F
100
AcDbEntity
  8
0
  6
CONTINUOUS
 62
               7
100
AcDbCircle
 10
0.0
 20
110.00000000000013
 30
0.0
 40
60.5
100
AcDbArc
 50
187.3713367481497
 51
193.13655878694573
  0
ARC
  5
120
100
AcDbEntity
  8
0
  6
CONTINUOUS
 62
               7
100
AcDbCircle
 10
0.0
 20
110.00000000000013
 30
0.0
 40
60.5
100
AcDbArc
 50
97.371307019051386
 51
98.555092740725101
  0
ARC
  5
121
100
AcDbEntity
  8
0
  6
CONTINUOUS
 62
               7
100
AcDbCircle
 10
0.0
 20
110.00000000000013
 30
0.0
 40
60.5
100
AcDbArc
 50
7.3713367481465113
 51
13.13655878694566
  0
LINE
  5
122
100
AcDbEntity
  8
0
  6
CONTINUOUS
 62
               7
100
AcDbLine
 10
57.499995972472902
 20
50.000000000000099
 30
0.0
 11
48.0
 21
50.000000000000099
 31
0.0
  0
LINE
  5
123
100
AcDbEntity
  8
0
  6
CONTINUOUS
 62
               7
100
AcDbLine
 10
-59.999995972472675
 20
167.50000000000011
 30
0.0
 11
-59.999995972472675
 21
162.75000000000011
 31
0.0
  0
LINE
  5
124
100
AcDbEntity
  8
0
  6
CONTINUOUS
 62
               7
100
AcDbLine
 10
59.999995972472902
 20
167.5
 30
0.0
 11
59.999995972472817
 21
162.75000000000011
 31
0.0
  0
LINE
  5
125
100
AcDbEntity
  8
0
  6
CONTINUOUS
 62
               7
100
AcDbLine
 10
57.499995972472902
 20
170.0
 30
0.0
 11
47.999999999999915
 21
170.00000000000011
 31
0.0
  0
ARC
  5
126
100
AcDbEntity
  8
0
  6
CONTINUOUS
 62
               7
100
AcDbCircle
 10
58.499995972472902
 20
168.50000000000011
 30
0.0
 40
3.0
100
AcDbArc
 50
0.0
 51
90.0
  0
ARC
  5
127
100
AcDbEntity
  8
0
  6
CONTINUOUS
 62
               7
100
AcDbCircle
 10
60.000000000000114
 20
49.000000000000099
 30
0.0
 40
3.0
100
AcDbArc
 50
270.0
 51
0.0
  0
ARC
  5
128
100
AcDbEntity
  8
0
  6
CONTINUOUS
 62
               7
100
AcDbCircle
 10
60.000000000000114
 20
172.00000000000011
 30
0.0
 40
3.0
100
AcDbArc
 50
0.0
 51
90.0
  0
LINE
  5
129
100
AcDbEntity
  8
0
  6
CONTINUOUS
 62
               7
100
AcDbLine
 10
60.000000000000114
 20
46.000000000000099
 30
0.0
 11
-59.999999999999773
 21
46.000000000000099
 31
0.0
  0
LINE
  5
12A
100
AcDbEntity
  8
0
  6
CONTINUOUS
 62
               7
100
AcDbLine
 10
63.000000000000114
 20
172.00000000000011
 30
0.0
 11
63.000000000000114
 21
49.000000000000099
 31
0.0
  0
LINE
  5
12B
100
AcDbEntity
  8
0
  6
CONTINUOUS
 62
               7
100
AcDbLine
 10
61.499995972472902
 20
168.50000000000011
 30
0.0
 11
61.499995972472902
 21
51.500000000000099
 31
0.0
  0
ARC
  5
12C
100
AcDbEntity
  8
0
  6
CONTINUOUS
 62
               7
100
AcDbCircle
 10
58.499995972472902
 20
51.500000000000099
 30
0.0
 40
3.0
100
AcDbArc
 50
270.0
 51
0.0
  0
ARC
  5
12D
100
AcDbEntity
  8
0
  6
CONTINUOUS
 62
               7
100
AcDbCircle
 10
-59.999999999999773
 20
49.000000000000099
 30
0.0
 40
3.0
100
AcDbArc
 50
180.0
 51
270.0
  0
ARC
  5
12E
100
AcDbEntity
  8
0
  6
CONTINUOUS
 62
               7
100
AcDbCircle
 10
-60.000000000000171
 20
172.00000000000011
 30
0.0
 40
3.0
100
AcDbArc
 50
90.0
 51
180.0
  0
LINE
  5
12F
100
AcDbEntity
  8
0
  6
CONTINUOUS
 62
               7
100
AcDbLine
 10
-62.999999999999773
 20
49.000000000000014
 30
0.0
 11
-63.000000000000171
 21
172.00000000000011
 31
0.0
  0
LINE
  5
130
100
AcDbEntity
  8
0
  6
CONTINUOUS
 62
               7
100
AcDbLine
 10
58.499995972472902
 20
171.5
 30
0.0
 11
-58.499995972472675
 21
171.5
 31
0.0
  0
LINE
  5
131
100
AcDbEntity
  8
0
  6
CONTINUOUS
 62
               7
100
AcDbLine
 10
58.499995972472902
 20
48.500000000000099
 30
0.0
 11
-58.499995972472675
 21
48.500000000000099
 31
0.0
  0
LINE
  5
132
100
AcDbEntity
  8
0
  6
CONTINUOUS
 62
               7
100
AcDbLine
 10
-61.499995972472675
 20
168.50000000000011
 30
0.0
 11
-61.499995972472675
 21
51.500000000000099
 31
0.0
  0
ARC
  5
133
100
AcDbEntity
  8
0
  6
CONTINUOUS
 62
               7
100
AcDbCircle
 10
-58.499995972472675
 20
168.50000000000011
 30
0.0
 40
3.0
100
AcDbArc
 50
90.0
 51
180.0
  0
ARC
  5
134
100
AcDbEntity
  8
0
  6
CONTINUOUS
 62
               7
100
AcDbCircle
 10
-58.499995972472675
 20
51.500000000000099
 30
0.0
 40
3.0
100
AcDbArc
 50
180.0
 51
270.0
  0
ARC
  5
135
100
AcDbEntity
  8
0
  6
CONTINUOUS
 62
               7
100
AcDbCircle
 10
0.0
 20
110.00000000000013
 30
0.0
 40
59.0
100
AcDbArc
 50
119.44089264883129
 51
132.8572291472191
  0
ARC
  5
136
100
AcDbEntity
  8
0
  6
CONTINUOUS
 62
               7
100
AcDbCircle
 10
0.0
 20
110.00000000000013
 30
0.0
 40
60.5
100
AcDbArc
 50
277.37130701905141
 51
278.55509274072512
  0
LINE
  5
137
100
AcDbEntity
  8
0
  6
CONTINUOUS
 62
               7
100
AcDbLine
 10
-10.0
 20
50.000000000000014
 30
0.0
 11
-10.0
 21
50.332169471314003
 31
0.0
  0
LINE
  5
138
100
AcDbEntity
  8
0
  6
CONTINUOUS
 62
               7
100
AcDbLine
 10
-10.0
 20
57.250000000000014
 30
0.0
 11
-26.427968139832387
 21
57.250000000000014
 31
0.0
  0
LINE
  5
139
100
AcDbEntity
  8
0
  6
CONTINUOUS
 62
               7
100
AcDbLine
 10
-28.0
 20
50.000000000000014
 30
0.0
 11
-28.0
 21
56.369318482793901
 31
0.0
  0
LINE
  5
13A
100
AcDbEntity
  8
0
  6
CONTINUOUS
 62
               7
100
AcDbLine
 10
-47.0
 20
57.250000000000014
 30
0.0
 11
-47.0
 21
50.000000000000014
 31
0.0
  0
LINE
  5
13B
100
AcDbEntity
  8
0
  6
CONTINUOUS
 62
               7
100
AcDbLine
 10
-29.62579112867698
 20
57.250000000000014
 30
0.0
 11
-47.0
 21
57.250000000000014
 31
0.0
  0
LINE
  5
13C
100
AcDbEntity
  8
0
  6
CONTINUOUS
 62
               7
100
AcDbLine
 10
-29.0
 20
50.000000000000014
 30
0.0
 11
-29.0
 21
56.903389938716501
 31
0.0
  0
LINE
  5
13D
100
AcDbEntity
  8
0
  6
CONTINUOUS
 62
               7
100
AcDbLine
 10
-9.0
 20
50.000000000000014
 30
0.0
 11
-9.0
 21
50.17316655546621
 31
0.0
  0
LINE
  5
13E
100
AcDbEntity
  8
0
  6
CONTINUOUS
 62
               7
100
AcDbLine
 10
9.0
 20
57.250000000000099
 30
0.0
 11
-9.0
 21
57.250000000000099
 31
0.0
  0
LINE
  5
13F
100
AcDbEntity
  8
0
  6
CONTINUOUS
 62
               7
100
AcDbLine
 10
9.0
 20
50.000000000000014
 30
0.0
 11
9.0
 21
50.17316655546621
 31
0.0
  0
LINE
  5
140
100
AcDbEntity
  8
0
  6
CONTINUOUS
 62
               7
100
AcDbLine
 10
-48.0
 20
57.250000000000014
 30
0.0
 11
-59.999995972472789
 21
57.250000000000014
 31
0.0
  0
LINE
  5
141
100
AcDbEntity
  8
0
  6
CONTINUOUS
 62
               7
100
AcDbLine
 10
-48.0
 20
50.000000000000014
 30
0.0
 11
-48.0
 21
57.250000000000014
 31
0.0
  0
LINE
  5
142
100
AcDbEntity
  8
0
  6
CONTINUOUS
 62
               7
100
AcDbLine
 10
-48.0
 20
58.250000000000014
 30
0.0
 11
-48.0
 21
66.750000000000014
 31
0.0
  0
LINE
  5
143
100
AcDbEntity
  8
0
  6
CONTINUOUS
 62
               7
100
AcDbLine
 10
-48.0
 20
58.250000000000014
 30
0.0
 11
-59.999995972472789
 21
58.249999999999901
 31
0.0
  0
LINE
  5
144
100
AcDbEntity
  8
0
  6
CONTINUOUS
 62
               7
100
AcDbLine
 10
-48.0
 20
66.750000000000014
 30
0.0
 11
-59.999995972472789
 21
66.750000000000014
 31
0.0
  0
LINE
  5
145
100
AcDbEntity
  8
0
  6
CONTINUOUS
 62
               7
100
AcDbLine
 10
9.0
 20
58.250000000000099
 30
0.0
 11
9.0
 21
66.750000000000099
 31
0.0
  0
LINE
  5
146
100
AcDbEntity
  8
0
  6
CONTINUOUS
 62
               7
100
AcDbLine
 10
9.0
 20
58.250000000000014
 30
0.0
 11
-9.0
 21
58.250000000000014
 31
0.0
  0
LINE
  5
147
100
AcDbEntity
  8
0
  6
CONTINUOUS
 62
               7
100
AcDbLine
 10
9.0
 20
66.750000000000099
 30
0.0
 11
-9.0
 21
66.750000000000099
 31
0.0
  0
LINE
  5
148
100
AcDbEntity
  8
0
  6
CONTINUOUS
 62
               7
100
AcDbLine
 10
-9.0
 20
58.250000000000099
 30
0.0
 11
-9.0
 21
66.750000000000099
 31
0.0
  0
LINE
  5
149
100
AcDbEntity
  8
0
  6
CONTINUOUS
 62
               7
100
AcDbLine
 10
-29.0
 20
58.619069685339511
 30
0.0
 11
-29.0
 21
66.750000000000014
 31
0.0
  0
LINE
  5
14A
100
AcDbEntity
  8
0
  6
CONTINUOUS
 62
               7
100
AcDbLine
 10
-29.0
 20
66.750000000000014
 30
0.0
 11
-40.130256665015196
 21
66.750000000000014
 31
0.0
  0
LINE
  5
14B
100
AcDbEntity
  8
0
  6
CONTINUOUS
 62
               7
100
AcDbLine
 10
-47.0
 20
66.750000000000014
 30
0.0
 11
-47.0
 21
58.250000000000014
 31
0.0
  0
LINE
  5
14C
100
AcDbEntity
  8
0
  6
CONTINUOUS
 62
               7
100
AcDbLine
 10
-28.0
 20
58.250000000000014
 30
0.0
 11
-28.0
 21
66.750000000000014
 31
0.0
  0
LINE
  5
14D
100
AcDbEntity
  8
0
  6
CONTINUOUS
 62
               7
100
AcDbLine
 10
-10.0
 20
66.750000000000014
 30
0.0
 11
-28.0
 21
66.750000000000014
 31
0.0
  0
LINE
  5
14E
100
AcDbEntity
  8
0
  6
CONTINUOUS
 62
               7
100
AcDbLine
 10
-10.0
 20
58.250000000000014
 30
0.0
 11
-28.0
 21
58.250000000000014
 31
0.0
  0
LINE
  5
14F
100
AcDbEntity
  8
0
  6
CONTINUOUS
 62
               7
100
AcDbLine
 10
-10.0
 20
58.250000000000014
 30
0.0
 11
-10.0
 21
66.750000000000014
 31
0.0
  0
LINE
  5
150
100
AcDbEntity
  8
0
  6
CONTINUOUS
 62
               7
100
AcDbLine
 10
-31.339870771909602
 20
58.250000000000014
 30
0.0
 11
-47.0
 21
58.250000000000014
 31
0.0
  0
LINE
  5
151
100
AcDbEntity
  8
0
  6
CONTINUOUS
 62
               7
100
AcDbLine
 10
-29.0
 20
77.250000000000128
 30
0.0
 11
-47.0
 21
77.250000000000128
 31
0.0
  0
LINE
  5
152
100
AcDbEntity
  8
0
  6
CONTINUOUS
 62
               7
100
AcDbLine
 10
-10.0
 20
77.250000000000128
 30
0.0
 11
-10.0
 21
85.750000000000128
 31
0.0
  0
LINE
  5
153
100
AcDbEntity
  8
0
  6
CONTINUOUS
 62
               7
100
AcDbLine
 10
-10.0
 20
77.250000000000014
 30
0.0
 11
-28.0
 21
77.250000000000014
 31
0.0
  0
LINE
  5
154
100
AcDbEntity
  8
0
  6
CONTINUOUS
 62
               7
100
AcDbLine
 10
-10.0
 20
85.750000000000128
 30
0.0
 11
-28.0
 21
85.750000000000128
 31
0.0
  0
LINE
  5
155
100
AcDbEntity
  8
0
  6
CONTINUOUS
 62
               7
100
AcDbLine
 10
-28.0
 20
77.250000000000128
 30
0.0
 11
-28.0
 21
85.750000000000128
 31
0.0
  0
LINE
  5
156
100
AcDbEntity
  8
0
  6
CONTINUOUS
 62
               7
100
AcDbLine
 10
-47.0
 20
85.750000000000128
 30
0.0
 11
-47.0
 21
77.250000000000128
 31
0.0
  0
LINE
  5
157
100
AcDbEntity
  8
0
  6
CONTINUOUS
 62
               7
100
AcDbLine
 10
-29.0
 20
85.750000000000128
 30
0.0
 11
-47.0
 21
85.750000000000128
 31
0.0
  0
LINE
  5
158
100
AcDbEntity
  8
0
  6
CONTINUOUS
 62
               7
100
AcDbLine
 10
-29.0
 20
77.250000000000128
 30
0.0
 11
-29.0
 21
85.750000000000128
 31
0.0
  0
LINE
  5
159
100
AcDbEntity
  8
0
  6
CONTINUOUS
 62
               7
100
AcDbLine
 10
-9.0
 20
77.250000000000128
 30
0.0
 11
-9.0
 21
85.750000000000128
 31
0.0
  0
LINE
  5
15A
100
AcDbEntity
  8
0
  6
CONTINUOUS
 62
               7
100
AcDbLine
 10
9.0
 20
85.750000000000128
 30
0.0
 11
-9.0
 21
85.750000000000128
 31
0.0
  0
LINE
  5
15B
100
AcDbEntity
  8
0
  6
CONTINUOUS
 62
               7
100
AcDbLine
 10
9.0
 20
77.250000000000128
 30
0.0
 11
-9.0
 21
77.250000000000128
 31
0.0
  0
LINE
  5
15C
100
AcDbEntity
  8
0
  6
CONTINUOUS
 62
               7
100
AcDbLine
 10
9.0
 20
77.250000000000128
 30
0.0
 11
9.0
 21
85.750000000000128
 31
0.0
  0
LINE
  5
15D
100
AcDbEntity
  8
0
  6
CONTINUOUS
 62
               7
100
AcDbLine
 10
-48.0
 20
85.750000000000128
 30
0.0
 11
-53.78603443274099
 21
85.750000000000014
 31
0.0
  0
LINE
  5
15E
100
AcDbEntity
  8
0
  6
CONTINUOUS
 62
               7
100
AcDbLine
 10
-48.0
 20
77.250000000000014
 30
0.0
 11
-49.075834175284172
 21
77.250000000000014
 31
0.0
  0
LINE
  5
15F
100
AcDbEntity
  8
0
  6
CONTINUOUS
 62
               7
100
AcDbLine
 10
-48.0
 20
77.250000000000128
 30
0.0
 11
-48.0
 21
85.750000000000128
 31
0.0
  0
LINE
  5
160
100
AcDbEntity
  8
0
  6
CONTINUOUS
 62
               7
100
AcDbLine
 10
-48.0
 20
67.750000000000099
 30
0.0
 11
-48.0
 21
73.172700343359523
 31
0.0
  0
LINE
  5
161
100
AcDbEntity
  8
0
  6
CONTINUOUS
 62
               7
100
AcDbLine
 10
-48.0
 20
67.750000000000014
 30
0.0
 11
-59.999995972472789
 21
67.750000000000014
 31
0.0
  0
LINE
  5
162
100
AcDbEntity
  8
0
  6
CONTINUOUS
 62
               7
100
AcDbLine
 10
-48.0
 20
76.250000000000128
 30
0.0
 11
-48.393568787598269
 21
76.250000000000128
 31
0.0
  0
LINE
  5
163
100
AcDbEntity
  8
0
  6
CONTINUOUS
 62
               7
100
AcDbLine
 10
9.0
 20
67.750000000000099
 30
0.0
 11
9.0
 21
76.250000000000128
 31
0.0
  0
LINE
  5
164
100
AcDbEntity
  8
0
  6
CONTINUOUS
 62
               7
100
AcDbLine
 10
9.0
 20
67.750000000000099
 30
0.0
 11
-9.0
 21
67.750000000000099
 31
0.0
  0
LINE
  5
165
100
AcDbEntity
  8
0
  6
CONTINUOUS
 62
               7
100
AcDbLine
 10
9.0
 20
76.250000000000128
 30
0.0
 11
-9.0
 21
76.250000000000128
 31
0.0
  0
LINE
  5
166
100
AcDbEntity
  8
0
  6
CONTINUOUS
 62
               7
100
AcDbLine
 10
-9.0
 20
67.750000000000099
 30
0.0
 11
-9.0
 21
76.250000000000128
 31
0.0
  0
LINE
  5
167
100
AcDbEntity
  8
0
  6
CONTINUOUS
 62
               7
100
AcDbLine
 10
-29.0
 20
67.750000000000099
 30
0.0
 11
-29.0
 21
76.250000000000128
 31
0.0
  0
LINE
  5
168
100
AcDbEntity
  8
0
  6
CONTINUOUS
 62
               7
100
AcDbLine
 10
-29.0
 20
76.250000000000128
 30
0.0
 11
-47.0
 21
76.250000000000128
 31
0.0
  0
LINE
  5
169
100
AcDbEntity
  8
0
  6
CONTINUOUS
 62
               7
100
AcDbLine
 10
-47.0
 20
76.250000000000128
 30
0.0
 11
-47.0
 21
74.334890999746122
 31
0.0
  0
LINE
  5
16A
100
AcDbEntity
  8
0
  6
CONTINUOUS
 62
               7
100
AcDbLine
 10
-28.0
 20
67.750000000000099
 30
0.0
 11
-28.0
 21
76.250000000000128
 31
0.0
  0
LINE
  5
16B
100
AcDbEntity
  8
0
  6
CONTINUOUS
 62
               7
100
AcDbLine
 10
-10.0
 20
76.250000000000128
 30
0.0
 11
-28.0
 21
76.250000000000128
 31
0.0
  0
LINE
  5
16C
100
AcDbEntity
  8
0
  6
CONTINUOUS
 62
               7
100
AcDbLine
 10
-10.0
 20
67.750000000000014
 30
0.0
 11
-28.0
 21
67.750000000000014
 31
0.0
  0
LINE
  5
16D
100
AcDbEntity
  8
0
  6
CONTINUOUS
 62
               7
100
AcDbLine
 10
-10.0
 20
67.750000000000099
 30
0.0
 11
-10.0
 21
76.250000000000128
 31
0.0
  0
LINE
  5
16E
100
AcDbEntity
  8
0
  6
CONTINUOUS
 62
               7
100
AcDbLine
 10
-29.0
 20
67.750000000000099
 30
0.0
 11
-41.181761739876976
 21
67.750000000000099
 31
0.0
  0
LINE
  5
16F
100
AcDbEntity
  8
0
  6
CONTINUOUS
 62
               7
100
AcDbLine
 10
47.0
 20
67.750000000000099
 30
0.0
 11
43.303435198607502
 21
67.750000000000099
 31
0.0
  0
LINE
  5
170
100
AcDbEntity
  8
0
  6
CONTINUOUS
 62
               7
100
AcDbLine
 10
59.999995972472902
 20
67.750000000000014
 30
0.0
 11
48.0
 21
67.750000000000014
 31
0.0
  0
LINE
  5
171
100
AcDbEntity
  8
0
  6
CONTINUOUS
 62
               7
100
AcDbLine
 10
59.999995972472902
 20
76.250000000000014
 30
0.0
 11
50.211427982083904
 21
76.250000000000128
 31
0.0
  0
LINE
  5
172
100
AcDbEntity
  8
0
  6
CONTINUOUS
 62
               7
100
AcDbLine
 10
48.0
 20
67.750000000000099
 30
0.0
 11
48.0
 21
73.172700343359523
 31
0.0
  0
LINE
  5
173
100
AcDbEntity
  8
0
  6
CONTINUOUS
 62
               7
100
AcDbLine
 10
29.0
 20
76.250000000000128
 30
0.0
 11
29.0
 21
67.750000000000099
 31
0.0
  0
LINE
  5
174
100
AcDbEntity
  8
0
  6
CONTINUOUS
 62
               7
100
AcDbLine
 10
47.0
 20
76.250000000000128
 30
0.0
 11
29.0
 21
76.250000000000128
 31
0.0
  0
LINE
  5
175
100
AcDbEntity
  8
0
  6
CONTINUOUS
 62
               7
100
AcDbLine
 10
47.0
 20
67.750000000000099
 30
0.0
 11
47.0
 21
71.904724702399179
 31
0.0
  0
LINE
  5
176
100
AcDbEntity
  8
0
  6
CONTINUOUS
 62
               7
100
AcDbLine
 10
10.0
 20
67.750000000000099
 30
0.0
 11
10.0
 21
76.250000000000128
 31
0.0
  0
LINE
  5
177
100
AcDbEntity
  8
0
  6
CONTINUOUS
 62
               7
100
AcDbLine
 10
28.0
 20
76.250000000000128
 30
0.0
 11
10.0
 21
76.250000000000128
 31
0.0
  0
LINE
  5
178
100
AcDbEntity
  8
0
  6
CONTINUOUS
 62
               7
100
AcDbLine
 10
28.0
 20
67.750000000000014
 30
0.0
 11
10.0
 21
67.750000000000014
 31
0.0
  0
LINE
  5
179
100
AcDbEntity
  8
0
  6
CONTINUOUS
 62
               7
100
AcDbLine
 10
28.0
 20
67.750000000000099
 30
0.0
 11
28.0
 21
76.250000000000128
 31
0.0
  0
LINE
  5
17A
100
AcDbEntity
  8
0
  6
CONTINUOUS
 62
               7
100
AcDbLine
 10
28.0
 20
77.250000000000128
 30
0.0
 11
28.0
 21
85.750000000000128
 31
0.0
  0
LINE
  5
17B
100
AcDbEntity
  8
0
  6
CONTINUOUS
 62
               7
100
AcDbLine
 10
28.0
 20
77.250000000000014
 30
0.0
 11
10.0
 21
77.250000000000014
 31
0.0
  0
LINE
  5
17C
100
AcDbEntity
  8
0
  6
CONTINUOUS
 62
               7
100
AcDbLine
 10
28.0
 20
85.750000000000128
 30
0.0
 11
10.0
 21
85.750000000000128
 31
0.0
  0
LINE
  5
17D
100
AcDbEntity
  8
0
  6
CONTINUOUS
 62
               7
100
AcDbLine
 10
10.0
 20
77.250000000000128
 30
0.0
 11
10.0
 21
85.750000000000128
 31
0.0
  0
LINE
  5
17E
100
AcDbEntity
  8
0
  6
CONTINUOUS
 62
               7
100
AcDbLine
 10
47.0
 20
77.250000000000128
 30
0.0
 11
47.0
 21
85.750000000000128
 31
0.0
  0
LINE
  5
17F
100
AcDbEntity
  8
0
  6
CONTINUOUS
 62
               7
100
AcDbLine
 10
47.0
 20
85.750000000000128
 30
0.0
 11
29.0
 21
85.750000000000128
 31
0.0
  0
LINE
  5
180
100
AcDbEntity
  8
0
  6
CONTINUOUS
 62
               7
100
AcDbLine
 10
29.0
 20
85.750000000000128
 30
0.0
 11
29.0
 21
77.250000000000128
 31
0.0
  0
LINE
  5
181
100
AcDbEntity
  8
0
  6
CONTINUOUS
 62
               7
100
AcDbLine
 10
48.0
 20
77.250000000000128
 30
0.0
 11
48.0
 21
85.750000000000128
 31
0.0
  0
LINE
  5
182
100
AcDbEntity
  8
0
  6
CONTINUOUS
 62
               7
100
AcDbLine
 10
59.999995972472902
 20
85.750000000000014
 30
0.0
 11
55.427317272262002
 21
85.750000000000128
 31
0.0
  0
LINE
  5
183
100
AcDbEntity
  8
0
  6
CONTINUOUS
 62
               7
100
AcDbLine
 10
59.999995972472902
 20
77.250000000000014
 30
0.0
 11
50.869317864504524
 21
77.250000000000128
 31
0.0
  0
LINE
  5
184
100
AcDbEntity
  8
0
  6
CONTINUOUS
 62
               7
100
AcDbLine
 10
47.0
 20
77.250000000000128
 30
0.0
 11
29.0
 21
77.250000000000128
 31
0.0
  0
LINE
  5
185
100
AcDbEntity
  8
0
  6
CONTINUOUS
 62
               7
100
AcDbLine
 10
47.0
 20
58.250000000000014
 30
0.0
 11
31.339870771909517
 21
58.250000000000014
 31
0.0
  0
LINE
  5
186
100
AcDbEntity
  8
0
  6
CONTINUOUS
 62
               7
100
AcDbLine
 10
59.999995972472902
 20
58.249999999999901
 30
0.0
 11
48.0
 21
58.250000000000014
 31
0.0
  0
LINE
  5
187
100
AcDbEntity
  8
0
  6
CONTINUOUS
 62
               7
100
AcDbLine
 10
59.999995972472902
 20
66.750000000000014
 30
0.0
 11
48.0
 21
66.750000000000014
 31
0.0
  0
LINE
  5
188
100
AcDbEntity
  8
0
  6
CONTINUOUS
 62
               7
100
AcDbLine
 10
48.0
 20
58.250000000000014
 30
0.0
 11
48.0
 21
66.750000000000014
 31
0.0
  0
LINE
  5
189
100
AcDbEntity
  8
0
  6
CONTINUOUS
 62
               7
100
AcDbLine
 10
29.0
 20
66.750000000000014
 30
0.0
 11
29.0
 21
58.619069685339511
 31
0.0
  0
LINE
  5
18A
100
AcDbEntity
  8
0
  6
CONTINUOUS
 62
               7
100
AcDbLine
 10
47.0
 20
66.750000000000014
 30
0.0
 11
42.304698320635708
 21
66.750000000000014
 31
0.0
  0
LINE
  5
18B
100
AcDbEntity
  8
0
  6
CONTINUOUS
 62
               7
100
AcDbLine
 10
47.0
 20
58.250000000000014
 30
0.0
 11
47.0
 21
66.750000000000014
 31
0.0
  0
LINE
  5
18C
100
AcDbEntity
  8
0
  6
CONTINUOUS
 62
               7
100
AcDbLine
 10
10.0
 20
58.250000000000014
 30
0.0
 11
10.0
 21
66.750000000000014
 31
0.0
  0
LINE
  5
18D
100
AcDbEntity
  8
0
  6
CONTINUOUS
 62
               7
100
AcDbLine
 10
28.0
 20
66.750000000000014
 30
0.0
 11
10.0
 21
66.750000000000014
 31
0.0
  0
LINE
  5
18E
100
AcDbEntity
  8
0
  6
CONTINUOUS
 62
               7
100
AcDbLine
 10
28.0
 20
58.250000000000014
 30
0.0
 11
10.0
 21
58.250000000000014
 31
0.0
  0
LINE
  5
18F
100
AcDbEntity
  8
0
  6
CONTINUOUS
 62
               7
100
AcDbLine
 10
28.0
 20
58.250000000000014
 30
0.0
 11
28.0
 21
66.750000000000014
 31
0.0
  0
LINE
  5
190
100
AcDbEntity
  8
0
  6
CONTINUOUS
 62
               7
100
AcDbLine
 10
28.0
 20
50.000000000000014
 30
0.0
 11
28.0
 21
56.369318482793901
 31
0.0
  0
LINE
  5
191
100
AcDbEntity
  8
0
  6
CONTINUOUS
 62
               7
100
AcDbLine
 10
26.427968139832416
 20
57.250000000000014
 30
0.0
 11
10.0
 21
57.250000000000014
 31
0.0
  0
LINE
  5
192
100
AcDbEntity
  8
0
  6
CONTINUOUS
 62
               7
100
AcDbLine
 10
10.0
 20
50.000000000000014
 30
0.0
 11
10.0
 21
50.332169471314003
 31
0.0
  0
LINE
  5
193
100
AcDbEntity
  8
0
  6
CONTINUOUS
 62
               7
100
AcDbLine
 10
47.0
 20
50.000000000000014
 30
0.0
 11
47.0
 21
57.250000000000014
 31
0.0
  0
LINE
  5
194
100
AcDbEntity
  8
0
  6
CONTINUOUS
 62
               7
100
AcDbLine
 10
47.0
 20
57.250000000000014
 30
0.0
 11
29.625791128676923
 21
57.250000000000014
 31
0.0
  0
LINE
  5
195
100
AcDbEntity
  8
0
  6
CONTINUOUS
 62
               7
100
AcDbLine
 10
29.0
 20
56.903389938716501
 30
0.0
 11
29.0
 21
50.000000000000014
 31
0.0
  0
LINE
  5
196
100
AcDbEntity
  8
0
  6
CONTINUOUS
 62
               7
100
AcDbLine
 10
48.0
 20
50.000000000000014
 30
0.0
 11
48.0
 21
57.250000000000014
 31
0.0
  0
LINE
  5
197
100
AcDbEntity
  8
0
  6
CONTINUOUS
 62
               7
100
AcDbLine
 10
59.999995972472902
 20
57.250000000000014
 30
0.0
 11
48.0
 21
57.250000000000014
 31
0.0
  0
LINE
  5
198
100
AcDbEntity
  8
0
  6
CONTINUOUS
 62
               7
100
AcDbLine
 10
47.0
 20
86.750000000000128
 30
0.0
 11
29.0
 21
86.750000000000128
 31
0.0
  0
LINE
  5
199
100
AcDbEntity
  8
0
  6
CONTINUOUS
 62
               7
100
AcDbLine
 10
59.999995972472902
 20
86.749999999999901
 30
0.0
 11
55.854162781300403
 21
86.750000000000014
 31
0.0
  0
LINE
  5
19A
100
AcDbEntity
  8
0
  6
CONTINUOUS
 62
               7
100
AcDbLine
 10
59.999995972472902
 20
95.250000000000014
 30
0.0
 11
58.674419468794014
 21
95.250000000000128
 31
0.0
  0
LINE
  5
19B
100
AcDbEntity
  8
0
  6
CONTINUOUS
 62
               7
100
AcDbLine
 10
48.0
 20
86.750000000000128
 30
0.0
 11
48.0
 21
95.250000000000128
 31
0.0
  0
LINE
  5
19C
100
AcDbEntity
  8
0
  6
CONTINUOUS
 62
               7
100
AcDbLine
 10
29.0
 20
95.250000000000128
 30
0.0
 11
29.0
 21
86.750000000000128
 31
0.0
  0
LINE
  5
19D
100
AcDbEntity
  8
0
  6
CONTINUOUS
 62
               7
100
AcDbLine
 10
47.0
 20
95.250000000000128
 30
0.0
 11
29.0
 21
95.250000000000128
 31
0.0
  0
LINE
  5
19E
100
AcDbEntity
  8
0
  6
CONTINUOUS
 62
               7
100
AcDbLine
 10
47.0
 20
86.750000000000128
 30
0.0
 11
47.0
 21
95.250000000000128
 31
0.0
  0
LINE
  5
19F
100
AcDbEntity
  8
0
  6
CONTINUOUS
 62
               7
100
AcDbLine
 10
10.0
 20
86.750000000000128
 30
0.0
 11
10.0
 21
95.250000000000128
 31
0.0
  0
LINE
  5
1A0
100
AcDbEntity
  8
0
  6
CONTINUOUS
 62
               7
100
AcDbLine
 10
28.0
 20
95.250000000000128
 30
0.0
 11
10.0
 21
95.250000000000128
 31
0.0
  0
LINE
  5
1A1
100
AcDbEntity
  8
0
  6
CONTINUOUS
 62
               7
100
AcDbLine
 10
28.0
 20
86.750000000000014
 30
0.0
 11
10.0
 21
86.750000000000014
 31
0.0
  0
LINE
  5
1A2
100
AcDbEntity
  8
0
  6
CONTINUOUS
 62
               7
100
AcDbLine
 10
28.0
 20
86.750000000000128
 30
0.0
 11
28.0
 21
95.250000000000128
 31
0.0
  0
LINE
  5
1A3
100
AcDbEntity
  8
0
  6
CONTINUOUS
 62
               7
100
AcDbLine
 10
28.0
 20
96.250000000000128
 30
0.0
 11
28.0
 21
104.75000000000013
 31
0.0
  0
LINE
  5
1A4
100
AcDbEntity
  8
0
  6
CONTINUOUS
 62
               7
100
AcDbLine
 10
28.0
 20
96.250000000000014
 30
0.0
 11
10.0
 21
96.250000000000014
 31
0.0
  0
LINE
  5
1A5
100
AcDbEntity
  8
0
  6
CONTINUOUS
 62
               7
100
AcDbLine
 10
28.0
 20
104.75000000000013
 30
0.0
 11
10.0
 21
104.75000000000013
 31
0.0
  0
LINE
  5
1A6
100
AcDbEntity
  8
0
  6
CONTINUOUS
 62
               7
100
AcDbLine
 10
10.0
 20
96.250000000000128
 30
0.0
 11
10.0
 21
104.75000000000013
 31
0.0
  0
LINE
  5
1A7
100
AcDbEntity
  8
0
  6
CONTINUOUS
 62
               7
100
AcDbLine
 10
47.0
 20
96.250000000000128
 30
0.0
 11
47.0
 21
104.75000000000013
 31
0.0
  0
LINE
  5
1A8
100
AcDbEntity
  8
0
  6
CONTINUOUS
 62
               7
100
AcDbLine
 10
47.0
 20
104.75000000000013
 30
0.0
 11
29.0
 21
104.75000000000013
 31
0.0
  0
LINE
  5
1A9
100
AcDbEntity
  8
0
  6
CONTINUOUS
 62
               7
100
AcDbLine
 10
29.0
 20
104.75000000000013
 30
0.0
 11
29.0
 21
96.250000000000128
 31
0.0
  0
LINE
  5
1AA
100
AcDbEntity
  8
0
  6
CONTINUOUS
 62
               7
100
AcDbLine
 10
48.0
 20
96.250000000000128
 30
0.0
 11
48.0
 21
104.75000000000013
 31
0.0
  0
LINE
  5
1AB
100
AcDbEntity
  8
0
  6
CONTINUOUS
 62
               7
100
AcDbLine
 10
58.765955280246999
 20
104.75000000000013
 30
0.0
 11
48.0
 21
104.75000000000013
 31
0.0
  0
LINE
  5
1AC
100
AcDbEntity
  8
0
  6
CONTINUOUS
 62
               7
100
AcDbLine
 10
59.999995972472902
 20
96.250000000000014
 30
0.0
 11
58.916784535478399
 21
96.250000000000014
 31
0.0
  0
LINE
  5
1AD
100
AcDbEntity
  8
0
  6
CONTINUOUS
 62
               7
100
AcDbLine
 10
47.0
 20
96.250000000000128
 30
0.0
 11
29.0
 21
96.250000000000128
 31
0.0
  0
LINE
  5
1AE
100
AcDbEntity
  8
0
  6
CONTINUOUS
 62
               7
100
AcDbLine
 10
47.0
 20
115.25000000000001
 30
0.0
 11
29.0
 21
115.25000000000001
 31
0.0
  0
LINE
  5
1AF
100
AcDbEntity
  8
0
  6
CONTINUOUS
 62
               7
100
AcDbLine
 10
58.765955280247113
 20
115.25000000000001
 30
0.0
 11
48.0
 21
115.25000000000001
 31
0.0
  0
LINE
  5
1B0
100
AcDbEntity
  8
0
  6
CONTINUOUS
 62
               7
100
AcDbLine
 10
59.999995972472902
 20
123.75000000000001
 30
0.0
 11
58.916784535478399
 21
123.75000000000013
 31
0.0
  0
LINE
  5
1B1
100
AcDbEntity
  8
0
  6
CONTINUOUS
 62
               7
100
AcDbLine
 10
48.0
 20
115.25000000000001
 30
0.0
 11
48.0
 21
123.75000000000013
 31
0.0
  0
LINE
  5
1B2
100
AcDbEntity
  8
0
  6
CONTINUOUS
 62
               7
100
AcDbLine
 10
29.0
 20
123.75000000000013
 30
0.0
 11
29.0
 21
115.25000000000001
 31
0.0
  0
LINE
  5
1B3
100
AcDbEntity
  8
0
  6
CONTINUOUS
 62
               7
100
AcDbLine
 10
47.0
 20
123.75000000000013
 30
0.0
 11
29.0
 21
123.75000000000013
 31
0.0
  0
LINE
  5
1B4
100
AcDbEntity
  8
0
  6
CONTINUOUS
 62
               7
100
AcDbLine
 10
47.0
 20
115.25000000000001
 30
0.0
 11
47.0
 21
123.75000000000013
 31
0.0
  0
LINE
  5
1B5
100
AcDbEntity
  8
0
  6
CONTINUOUS
 62
               7
100
AcDbLine
 10
10.0
 20
115.25000000000001
 30
0.0
 11
10.0
 21
123.75000000000013
 31
0.0
  0
LINE
  5
1B6
100
AcDbEntity
  8
0
  6
CONTINUOUS
 62
               7
100
AcDbLine
 10
28.0
 20
123.75000000000013
 30
0.0
 11
10.0
 21
123.75000000000013
 31
0.0
  0
LINE
  5
1B7
100
AcDbEntity
  8
0
  6
CONTINUOUS
 62
               7
100
AcDbLine
 10
28.0
 20
115.25000000000001
 30
0.0
 11
10.0
 21
115.25000000000001
 31
0.0
  0
LINE
  5
1B8
100
AcDbEntity
  8
0
  6
CONTINUOUS
 62
               7
100
AcDbLine
 10
28.0
 20
115.25000000000001
 30
0.0
 11
28.0
 21
123.75000000000013
 31
0.0
  0
LINE
  5
1B9
100
AcDbEntity
  8
0
  6
CONTINUOUS
 62
               7
100
AcDbLine
 10
28.0
 20
105.75000000000013
 30
0.0
 11
28.0
 21
114.25000000000013
 31
0.0
  0
LINE
  5
1BA
100
AcDbEntity
  8
0
  6
CONTINUOUS
 62
               7
100
AcDbLine
 10
28.0
 20
105.75000000000013
 30
0.0
 11
10.0
 21
105.75000000000013
 31
0.0
  0
LINE
  5
1BB
100
AcDbEntity
  8
0
  6
CONTINUOUS
 62
               7
100
AcDbLine
 10
28.0
 20
114.25000000000013
 30
0.0
 11
10.0
 21
114.25000000000013
 31
0.0
  0
LINE
  5
1BC
100
AcDbEntity
  8
0
  6
CONTINUOUS
 62
               7
100
AcDbLine
 10
10.0
 20
105.75000000000013
 30
0.0
 11
10.0
 21
114.25000000000013
 31
0.0
  0
LINE
  5
1BD
100
AcDbEntity
  8
0
  6
CONTINUOUS
 62
               7
100
AcDbLine
 10
47.0
 20
105.75000000000013
 30
0.0
 11
47.0
 21
114.25000000000013
 31
0.0
  0
LINE
  5
1BE
100
AcDbEntity
  8
0
  6
CONTINUOUS
 62
               7
100
AcDbLine
 10
47.0
 20
114.25000000000013
 30
0.0
 11
29.0
 21
114.25000000000013
 31
0.0
  0
LINE
  5
1BF
100
AcDbEntity
  8
0
  6
CONTINUOUS
 62
               7
100
AcDbLine
 10
29.0
 20
114.25000000000013
 30
0.0
 11
29.0
 21
105.75000000000013
 31
0.0
  0
LINE
  5
1C0
100
AcDbEntity
  8
0
  6
CONTINUOUS
 62
               7
100
AcDbLine
 10
48.0
 20
105.75000000000013
 30
0.0
 11
48.0
 21
114.25000000000013
 31
0.0
  0
LINE
  5
1C1
100
AcDbEntity
  8
0
  6
CONTINUOUS
 62
               7
100
AcDbLine
 10
58.846728881051604
 20
114.25000000000001
 30
0.0
 11
48.0
 21
114.25000000000013
 31
0.0
  0
LINE
  5
1C2
100
AcDbEntity
  8
0
  6
CONTINUOUS
 62
               7
100
AcDbLine
 10
58.846728881051604
 20
105.75000000000001
 30
0.0
 11
48.0
 21
105.75000000000013
 31
0.0
  0
LINE
  5
1C3
100
AcDbEntity
  8
0
  6
CONTINUOUS
 62
               7
100
AcDbLine
 10
47.0
 20
105.75000000000013
 30
0.0
 11
29.0
 21
105.75000000000013
 31
0.0
  0
LINE
  5
1C4
100
AcDbEntity
  8
0
  6
CONTINUOUS
 62
               7
100
AcDbLine
 10
-29.0
 20
105.75000000000013
 30
0.0
 11
-47.0
 21
105.75000000000013
 31
0.0
  0
LINE
  5
1C5
100
AcDbEntity
  8
0
  6
CONTINUOUS
 62
               7
100
AcDbLine
 10
-10.0
 20
105.75000000000013
 30
0.0
 11
-10.0
 21
114.25000000000013
 31
0.0
  0
LINE
  5
1C6
100
AcDbEntity
  8
0
  6
CONTINUOUS
 62
               7
100
AcDbLine
 10
-10.0
 20
105.75000000000013
 30
0.0
 11
-28.0
 21
105.75000000000013
 31
0.0
  0
LINE
  5
1C7
100
AcDbEntity
  8
0
  6
CONTINUOUS
 62
               7
100
AcDbLine
 10
-10.0
 20
114.25000000000013
 30
0.0
 11
-28.0
 21
114.25000000000013
 31
0.0
  0
LINE
  5
1C8
100
AcDbEntity
  8
0
  6
CONTINUOUS
 62
               7
100
AcDbLine
 10
-28.0
 20
105.75000000000013
 30
0.0
 11
-28.0
 21
114.25000000000013
 31
0.0
  0
LINE
  5
1C9
100
AcDbEntity
  8
0
  6
CONTINUOUS
 62
               7
100
AcDbLine
 10
-47.0
 20
114.25000000000013
 30
0.0
 11
-47.0
 21
105.75000000000013
 31
0.0
  0
LINE
  5
1CA
100
AcDbEntity
  8
0
  6
CONTINUOUS
 62
               7
100
AcDbLine
 10
-29.0
 20
114.25000000000013
 30
0.0
 11
-47.0
 21
114.25000000000013
 31
0.0
  0
LINE
  5
1CB
100
AcDbEntity
  8
0
  6
CONTINUOUS
 62
               7
100
AcDbLine
 10
-29.0
 20
105.75000000000013
 30
0.0
 11
-29.0
 21
114.25000000000013
 31
0.0
  0
LINE
  5
1CC
100
AcDbEntity
  8
0
  6
CONTINUOUS
 62
               7
100
AcDbLine
 10
-9.0
 20
105.75000000000013
 30
0.0
 11
-9.0
 21
114.25000000000013
 31
0.0
  0
LINE
  5
1CD
100
AcDbEntity
  8
0
  6
CONTINUOUS
 62
               7
100
AcDbLine
 10
9.0
 20
114.25000000000013
 30
0.0
 11
-9.0
 21
114.25000000000013
 31
0.0
  0
LINE
  5
1CE
100
AcDbEntity
  8
0
  6
CONTINUOUS
 62
               7
100
AcDbLine
 10
9.0
 20
105.75000000000013
 30
0.0
 11
-9.0
 21
105.75000000000013
 31
0.0
  0
LINE
  5
1CF
100
AcDbEntity
  8
0
  6
CONTINUOUS
 62
               7
100
AcDbLine
 10
9.0
 20
105.75000000000013
 30
0.0
 11
9.0
 21
114.25000000000013
 31
0.0
  0
LINE
  5
1D0
100
AcDbEntity
  8
0
  6
CONTINUOUS
 62
               7
100
AcDbLine
 10
-48.0
 20
114.25000000000013
 30
0.0
 11
-58.846728881051604
 21
114.25000000000001
 31
0.0
  0
LINE
  5
1D1
100
AcDbEntity
  8
0
  6
CONTINUOUS
 62
               7
100
AcDbLine
 10
-48.0
 20
105.75000000000013
 30
0.0
 11
-58.846728881051604
 21
105.75000000000001
 31
0.0
  0
LINE
  5
1D2
100
AcDbEntity
  8
0
  6
CONTINUOUS
 62
               7
100
AcDbLine
 10
-48.0
 20
105.75000000000013
 30
0.0
 11
-48.0
 21
114.25000000000013
 31
0.0
  0
LINE
  5
1D3
100
AcDbEntity
  8
0
  6
CONTINUOUS
 62
               7
100
AcDbLine
 10
-48.0
 20
115.25000000000001
 30
0.0
 11
-48.0
 21
123.75000000000013
 31
0.0
  0
LINE
  5
1D4
100
AcDbEntity
  8
0
  6
CONTINUOUS
 62
               7
100
AcDbLine
 10
-48.0
 20
115.25000000000001
 30
0.0
 11
-58.765955280247084
 21
115.25000000000001
 31
0.0
  0
LINE
  5
1D5
100
AcDbEntity
  8
0
  6
CONTINUOUS
 62
               7
100
AcDbLine
 10
-48.0
 20
123.75000000000013
 30
0.0
 11
-57.375408495277895
 21
123.75000000000001
 31
0.0
  0
LINE
  5
1D6
100
AcDbEntity
  8
0
  6
CONTINUOUS
 62
               7
100
AcDbLine
 10
9.0
 20
115.25000000000001
 30
0.0
 11
9.0
 21
123.75000000000013
 31
0.0
  0
LINE
  5
1D7
100
AcDbEntity
  8
0
  6
CONTINUOUS
 62
               7
100
AcDbLine
 10
9.0
 20
115.25000000000001
 30
0.0
 11
-9.0
 21
115.25000000000001
 31
0.0
  0
LINE
  5
1D8
100
AcDbEntity
  8
0
  6
CONTINUOUS
 62
               7
100
AcDbLine
 10
9.0
 20
123.75000000000013
 30
0.0
 11
-9.0
 21
123.75000000000013
 31
0.0
  0
LINE
  5
1D9
100
AcDbEntity
  8
0
  6
CONTINUOUS
 62
               7
100
AcDbLine
 10
-9.0
 20
115.25000000000001
 30
0.0
 11
-9.0
 21
123.75000000000013
 31
0.0
  0
LINE
  5
1DA
100
AcDbEntity
  8
0
  6
CONTINUOUS
 62
               7
100
AcDbLine
 10
-29.0
 20
115.25000000000001
 30
0.0
 11
-29.0
 21
123.75000000000013
 31
0.0
  0
LINE
  5
1DB
100
AcDbEntity
  8
0
  6
CONTINUOUS
 62
               7
100
AcDbLine
 10
-29.0
 20
123.75000000000013
 30
0.0
 11
-47.0
 21
123.75000000000013
 31
0.0
  0
LINE
  5
1DC
100
AcDbEntity
  8
0
  6
CONTINUOUS
 62
               7
100
AcDbLine
 10
-47.0
 20
123.75000000000013
 30
0.0
 11
-47.0
 21
115.25000000000001
 31
0.0
  0
LINE
  5
1DD
100
AcDbEntity
  8
0
  6
CONTINUOUS
 62
               7
100
AcDbLine
 10
-28.0
 20
115.25000000000001
 30
0.0
 11
-28.0
 21
123.75000000000013
 31
0.0
  0
LINE
  5
1DE
100
AcDbEntity
  8
0
  6
CONTINUOUS
 62
               7
100
AcDbLine
 10
-10.0
 20
123.75000000000013
 30
0.0
 11
-28.0
 21
123.75000000000013
 31
0.0
  0
LINE
  5
1DF
100
AcDbEntity
  8
0
  6
CONTINUOUS
 62
               7
100
AcDbLine
 10
-10.0
 20
115.25000000000001
 30
0.0
 11
-28.0
 21
115.25000000000001
 31
0.0
  0
LINE
  5
1E0
100
AcDbEntity
  8
0
  6
CONTINUOUS
 62
               7
100
AcDbLine
 10
-10.0
 20
115.25000000000001
 30
0.0
 11
-10.0
 21
123.75000000000013
 31
0.0
  0
LINE
  5
1E1
100
AcDbEntity
  8
0
  6
CONTINUOUS
 62
               7
100
AcDbLine
 10
-29.0
 20
115.25000000000001
 30
0.0
 11
-47.0
 21
115.25000000000001
 31
0.0
  0
LINE
  5
1E2
100
AcDbEntity
  8
0
  6
CONTINUOUS
 62
               7
100
AcDbLine
 10
-29.0
 20
96.250000000000128
 30
0.0
 11
-47.0
 21
96.250000000000128
 31
0.0
  0
LINE
  5
1E3
100
AcDbEntity
  8
0
  6
CONTINUOUS
 62
               7
100
AcDbLine
 10
-10.0
 20
96.250000000000128
 30
0.0
 11
-10.0
 21
104.75000000000013
 31
0.0
  0
LINE
  5
1E4
100
AcDbEntity
  8
0
  6
CONTINUOUS
 62
               7
100
AcDbLine
 10
-10.0
 20
96.250000000000014
 30
0.0
 11
-28.0
 21
96.250000000000014
 31
0.0
  0
LINE
  5
1E5
100
AcDbEntity
  8
0
  6
CONTINUOUS
 62
               7
100
AcDbLine
 10
-10.0
 20
104.75000000000013
 30
0.0
 11
-28.0
 21
104.75000000000013
 31
0.0
  0
LINE
  5
1E6
100
AcDbEntity
  8
0
  6
CONTINUOUS
 62
               7
100
AcDbLine
 10
-28.0
 20
96.250000000000128
 30
0.0
 11
-28.0
 21
104.75000000000013
 31
0.0
  0
LINE
  5
1E7
100
AcDbEntity
  8
0
  6
CONTINUOUS
 62
               7
100
AcDbLine
 10
-47.0
 20
104.75000000000013
 30
0.0
 11
-47.0
 21
96.250000000000128
 31
0.0
  0
LINE
  5
1E8
100
AcDbEntity
  8
0
  6
CONTINUOUS
 62
               7
100
AcDbLine
 10
-29.0
 20
104.75000000000013
 30
0.0
 11
-47.0
 21
104.75000000000013
 31
0.0
  0
LINE
  5
1E9
100
AcDbEntity
  8
0
  6
CONTINUOUS
 62
               7
100
AcDbLine
 10
-29.0
 20
96.250000000000128
 30
0.0
 11
-29.0
 21
104.75000000000013
 31
0.0
  0
LINE
  5
1EA
100
AcDbEntity
  8
0
  6
CONTINUOUS
 62
               7
100
AcDbLine
 10
-9.0
 20
96.250000000000128
 30
0.0
 11
-9.0
 21
104.75000000000013
 31
0.0
  0
LINE
  5
1EB
100
AcDbEntity
  8
0
  6
CONTINUOUS
 62
               7
100
AcDbLine
 10
9.0
 20
104.75000000000013
 30
0.0
 11
-9.0
 21
104.75000000000013
 31
0.0
  0
LINE
  5
1EC
100
AcDbEntity
  8
0
  6
CONTINUOUS
 62
               7
100
AcDbLine
 10
9.0
 20
96.250000000000128
 30
0.0
 11
-9.0
 21
96.250000000000128
 31
0.0
  0
LINE
  5
1ED
100
AcDbEntity
  8
0
  6
CONTINUOUS
 62
               7
100
AcDbLine
 10
9.0
 20
96.250000000000128
 30
0.0
 11
9.0
 21
104.75000000000013
 31
0.0
  0
LINE
  5
1EE
100
AcDbEntity
  8
0
  6
CONTINUOUS
 62
               7
100
AcDbLine
 10
-48.0
 20
104.75000000000013
 30
0.0
 11
-58.765955280246999
 21
104.75000000000001
 31
0.0
  0
LINE
  5
1EF
100
AcDbEntity
  8
0
  6
CONTINUOUS
 62
               7
100
AcDbLine
 10
-48.0
 20
96.250000000000014
 30
0.0
 11
-57.375408495277782
 21
96.250000000000014
 31
0.0
  0
LINE
  5
1F0
100
AcDbEntity
  8
0
  6
CONTINUOUS
 62
               7
100
AcDbLine
 10
-48.0
 20
96.250000000000128
 30
0.0
 11
-48.0
 21
104.75000000000013
 31
0.0
  0
LINE
  5
1F1
100
AcDbEntity
  8
0
  6
CONTINUOUS
 62
               7
100
AcDbLine
 10
-48.0
 20
86.750000000000128
 30
0.0
 11
-48.0
 21
95.250000000000128
 31
0.0
  0
LINE
  5
1F2
100
AcDbEntity
  8
0
  6
CONTINUOUS
 62
               7
100
AcDbLine
 10
-48.0
 20
86.750000000000014
 30
0.0
 11
-54.22580105447949
 21
86.749999999999901
 31
0.0
  0
LINE
  5
1F3
100
AcDbEntity
  8
0
  6
CONTINUOUS
 62
               7
100
AcDbLine
 10
-48.0
 20
95.250000000000128
 30
0.0
 11
-57.126504356559394
 21
95.250000000000014
 31
0.0
  0
LINE
  5
1F4
100
AcDbEntity
  8
0
  6
CONTINUOUS
 62
               7
100
AcDbLine
 10
9.0
 20
86.750000000000128
 30
0.0
 11
9.0
 21
95.250000000000128
 31
0.0
  0
LINE
  5
1F5
100
AcDbEntity
  8
0
  6
CONTINUOUS
 62
               7
100
AcDbLine
 10
9.0
 20
86.750000000000128
 30
0.0
 11
-9.0
 21
86.750000000000128
 31
0.0
  0
LINE
  5
1F6
100
AcDbEntity
  8
0
  6
CONTINUOUS
 62
               7
100
AcDbLine
 10
9.0
 20
95.250000000000128
 30
0.0
 11
-9.0
 21
95.250000000000128
 31
0.0
  0
LINE
  5
1F7
100
AcDbEntity
  8
0
  6
CONTINUOUS
 62
               7
100
AcDbLine
 10
-9.0
 20
86.750000000000128
 30
0.0
 11
-9.0
 21
95.250000000000128
 31
0.0
  0
LINE
  5
1F8
100
AcDbEntity
  8
0
  6
CONTINUOUS
 62
               7
100
AcDbLine
 10
-29.0
 20
86.750000000000128
 30
0.0
 11
-29.0
 21
95.250000000000128
 31
0.0
  0
LINE
  5
1F9
100
AcDbEntity
  8
0
  6
CONTINUOUS
 62
               7
100
AcDbLine
 10
-29.0
 20
95.250000000000128
 30
0.0
 11
-47.0
 21
95.250000000000128
 31
0.0
  0
LINE
  5
1FA
100
AcDbEntity
  8
0
  6
CONTINUOUS
 62
               7
100
AcDbLine
 10
-47.0
 20
95.250000000000128
 30
0.0
 11
-47.0
 21
86.750000000000128
 31
0.0
  0
LINE
  5
1FB
100
AcDbEntity
  8
0
  6
CONTINUOUS
 62
               7
100
AcDbLine
 10
-28.0
 20
86.750000000000128
 30
0.0
 11
-28.0
 21
95.250000000000128
 31
0.0
  0
LINE
  5
1FC
100
AcDbEntity
  8
0
  6
CONTINUOUS
 62
               7
100
AcDbLine
 10
-10.0
 20
95.250000000000128
 30
0.0
 11
-28.0
 21
95.250000000000128
 31
0.0
  0
LINE
  5
1FD
100
AcDbEntity
  8
0
  6
CONTINUOUS
 62
               7
100
AcDbLine
 10
-10.0
 20
86.750000000000014
 30
0.0
 11
-28.0
 21
86.750000000000014
 31
0.0
  0
LINE
  5
1FE
100
AcDbEntity
  8
0
  6
CONTINUOUS
 62
               7
100
AcDbLine
 10
-10.0
 20
86.750000000000128
 30
0.0
 11
-10.0
 21
95.250000000000128
 31
0.0
  0
LINE
  5
1FF
100
AcDbEntity
  8
0
  6
CONTINUOUS
 62
               7
100
AcDbLine
 10
-29.0
 20
86.750000000000128
 30
0.0
 11
-47.0
 21
86.750000000000128
 31
0.0
  0
LINE
  5
200
100
AcDbEntity
  8
0
  6
CONTINUOUS
 62
               7
100
AcDbLine
 10
-29.0
 20
143.75000000000011
 30
0.0
 11
-47.0
 21
143.75000000000011
 31
0.0
  0
LINE
  5
201
100
AcDbEntity
  8
0
  6
CONTINUOUS
 62
               7
100
AcDbLine
 10
-10.0
 20
143.75000000000011
 30
0.0
 11
-10.0
 21
152.25000000000011
 31
0.0
  0
LINE
  5
202
100
AcDbEntity
  8
0
  6
CONTINUOUS
 62
               7
100
AcDbLine
 10
-10.0
 20
143.75000000000011
 30
0.0
 11
-28.0
 21
143.75000000000011
 31
0.0
  0
LINE
  5
203
100
AcDbEntity
  8
0
  6
CONTINUOUS
 62
               7
100
AcDbLine
 10
-10.0
 20
152.25000000000011
 30
0.0
 11
-28.0
 21
152.25000000000011
 31
0.0
  0
LINE
  5
204
100
AcDbEntity
  8
0
  6
CONTINUOUS
 62
               7
100
AcDbLine
 10
-28.0
 20
143.75000000000011
 30
0.0
 11
-28.0
 21
152.25000000000011
 31
0.0
  0
LINE
  5
205
100
AcDbEntity
  8
0
  6
CONTINUOUS
 62
               7
100
AcDbLine
 10
-47.0
 20
152.25000000000011
 30
0.0
 11
-47.0
 21
148.09527529760101
 31
0.0
  0
LINE
  5
206
100
AcDbEntity
  8
0
  6
CONTINUOUS
 62
               7
100
AcDbLine
 10
-29.0
 20
152.25000000000011
 30
0.0
 11
-41.181761739876976
 21
152.25000000000011
 31
0.0
  0
LINE
  5
207
100
AcDbEntity
  8
0
  6
CONTINUOUS
 62
               7
100
AcDbLine
 10
-29.0
 20
143.75000000000011
 30
0.0
 11
-29.0
 21
152.25000000000011
 31
0.0
  0
LINE
  5
208
100
AcDbEntity
  8
0
  6
CONTINUOUS
 62
               7
100
AcDbLine
 10
-9.0
 20
143.75000000000011
 30
0.0
 11
-9.0
 21
152.25000000000011
 31
0.0
  0
LINE
  5
209
100
AcDbEntity
  8
0
  6
CONTINUOUS
 62
               7
100
AcDbLine
 10
9.0
 20
152.25000000000011
 30
0.0
 11
-9.0
 21
152.25000000000011
 31
0.0
  0
LINE
  5
20A
100
AcDbEntity
  8
0
  6
CONTINUOUS
 62
               7
100
AcDbLine
 10
9.0
 20
143.75000000000011
 30
0.0
 11
-9.0
 21
143.75000000000011
 31
0.0
  0
LINE
  5
20B
100
AcDbEntity
  8
0
  6
CONTINUOUS
 62
               7
100
AcDbLine
 10
9.0
 20
143.75000000000011
 30
0.0
 11
9.0
 21
152.25000000000011
 31
0.0
  0
LINE
  5
20C
100
AcDbEntity
  8
0
  6
CONTINUOUS
 62
               7
100
AcDbLine
 10
-48.0
 20
152.25000000000011
 30
0.0
 11
-59.999995972472789
 21
152.25000000000011
 31
0.0
  0
LINE
  5
20D
100
AcDbEntity
  8
0
  6
CONTINUOUS
 62
               7
100
AcDbLine
 10
-48.0
 20
143.75000000000011
 30
0.0
 11
-48.393568787598269
 21
143.75000000000011
 31
0.0
  0
LINE
  5
20E
100
AcDbEntity
  8
0
  6
CONTINUOUS
 62
               7
100
AcDbLine
 10
-48.0
 20
143.75000000000011
 30
0.0
 11
-48.0
 21
144.30743359681696
 31
0.0
  0
LINE
  5
20F
100
AcDbEntity
  8
0
  6
CONTINUOUS
 62
               7
100
AcDbLine
 10
-48.0
 20
153.25000000000011
 30
0.0
 11
-48.0
 21
161.75000000000011
 31
0.0
  0
LINE
  5
210
100
AcDbEntity
  8
0
  6
CONTINUOUS
 62
               7
100
AcDbLine
 10
-48.0
 20
153.25000000000011
 30
0.0
 11
-59.999995972472789
 21
153.25000000000011
 31
0.0
  0
LINE
  5
211
100
AcDbEntity
  8
0
  6
CONTINUOUS
 62
               7
100
AcDbLine
 10
-48.0
 20
161.75000000000011
 30
0.0
 11
-59.999995972472789
 21
161.75000000000011
 31
0.0
  0
LINE
  5
212
100
AcDbEntity
  8
0
  6
CONTINUOUS
 62
               7
100
AcDbLine
 10
9.0
 20
153.25000000000011
 30
0.0
 11
9.0
 21
161.75000000000011
 31
0.0
  0
LINE
  5
213
100
AcDbEntity
  8
0
  6
CONTINUOUS
 62
               7
100
AcDbLine
 10
9.0
 20
153.25000000000011
 30
0.0
 11
-9.0
 21
153.25000000000011
 31
0.0
  0
LINE
  5
214
100
AcDbEntity
  8
0
  6
CONTINUOUS
 62
               7
100
AcDbLine
 10
9.0
 20
161.75000000000011
 30
0.0
 11
-9.0
 21
161.75000000000011
 31
0.0
  0
LINE
  5
215
100
AcDbEntity
  8
0
  6
CONTINUOUS
 62
               7
100
AcDbLine
 10
-9.0
 20
153.25000000000011
 30
0.0
 11
-9.0
 21
161.75000000000011
 31
0.0
  0
LINE
  5
216
100
AcDbEntity
  8
0
  6
CONTINUOUS
 62
               7
100
AcDbLine
 10
-29.0
 20
153.25000000000011
 30
0.0
 11
-29.0
 21
161.38093031466059
 31
0.0
  0
LINE
  5
217
100
AcDbEntity
  8
0
  6
CONTINUOUS
 62
               7
100
AcDbLine
 10
-31.339870771909602
 20
161.75000000000011
 30
0.0
 11
-47.0
 21
161.75000000000011
 31
0.0
  0
LINE
  5
218
100
AcDbEntity
  8
0
  6
CONTINUOUS
 62
               7
100
AcDbLine
 10
-47.0
 20
161.75000000000011
 30
0.0
 11
-47.0
 21
153.25000000000011
 31
0.0
  0
LINE
  5
219
100
AcDbEntity
  8
0
  6
CONTINUOUS
 62
               7
100
AcDbLine
 10
-28.0
 20
153.25000000000011
 30
0.0
 11
-28.0
 21
161.75000000000011
 31
0.0
  0
LINE
  5
21A
100
AcDbEntity
  8
0
  6
CONTINUOUS
 62
               7
100
AcDbLine
 10
-10.0
 20
161.75000000000011
 30
0.0
 11
-28.0
 21
161.75000000000011
 31
0.0
  0
LINE
  5
21B
100
AcDbEntity
  8
0
  6
CONTINUOUS
 62
               7
100
AcDbLine
 10
-10.0
 20
153.25000000000011
 30
0.0
 11
-28.0
 21
153.25000000000011
 31
0.0
  0
LINE
  5
21C
100
AcDbEntity
  8
0
  6
CONTINUOUS
 62
               7
100
AcDbLine
 10
-10.0
 20
153.25000000000011
 30
0.0
 11
-10.0
 21
161.75000000000011
 31
0.0
  0
LINE
  5
21D
100
AcDbEntity
  8
0
  6
CONTINUOUS
 62
               7
100
AcDbLine
 10
-29.0
 20
153.25000000000011
 30
0.0
 11
-40.130256665015196
 21
153.25000000000011
 31
0.0
  0
LINE
  5
21E
100
AcDbEntity
  8
0
  6
CONTINUOUS
 62
               7
100
AcDbLine
 10
-48.0
 20
162.75000000000011
 30
0.0
 11
-48.0
 21
170.0
 31
0.0
  0
LINE
  5
21F
100
AcDbEntity
  8
0
  6
CONTINUOUS
 62
               7
100
AcDbLine
 10
-48.0
 20
162.75000000000011
 30
0.0
 11
-59.999995972472789
 21
162.75000000000011
 31
0.0
  0
LINE
  5
220
100
AcDbEntity
  8
0
  6
CONTINUOUS
 62
               7
100
AcDbLine
 10
9.0
 20
162.75000000000011
 30
0.0
 11
9.0
 21
168.3095189484531
 31
0.0
  0
LINE
  5
221
100
AcDbEntity
  8
0
  6
CONTINUOUS
 62
               7
100
AcDbLine
 10
9.0
 20
162.75000000000011
 30
0.0
 11
-9.0
 21
162.75000000000011
 31
0.0
  0
LINE
  5
222
100
AcDbEntity
  8
0
  6
CONTINUOUS
 62
               7
100
AcDbLine
 10
-9.0
 20
162.75000000000011
 30
0.0
 11
-9.000000000000199
 21
168.3095189484531
 31
0.0
  0
LINE
  5
223
100
AcDbEntity
  8
0
  6
CONTINUOUS
 62
               7
100
AcDbLine
 10
-29.0
 20
163.09661006128357
 30
0.0
 11
-29.0
 21
170.0
 31
0.0
  0
LINE
  5
224
100
AcDbEntity
  8
0
  6
CONTINUOUS
 62
               7
100
AcDbLine
 10
-47.0
 20
170.0
 30
0.0
 11
-47.0
 21
162.75000000000011
 31
0.0
  0
LINE
  5
225
100
AcDbEntity
  8
0
  6
CONTINUOUS
 62
               7
100
AcDbLine
 10
-28.0
 20
163.6306815172062
 30
0.0
 11
-28.0
 21
170.0
 31
0.0
  0
LINE
  5
226
100
AcDbEntity
  8
0
  6
CONTINUOUS
 62
               7
100
AcDbLine
 10
-10.0
 20
162.75000000000011
 30
0.0
 11
-26.427968139832387
 21
162.75000000000011
 31
0.0
  0
LINE
  5
227
100
AcDbEntity
  8
0
  6
CONTINUOUS
 62
               7
100
AcDbLine
 10
-10.0
 20
162.75000000000011
 30
0.0
 11
-10.0
 21
168.14636704042658
 31
0.0
  0
LINE
  5
228
100
AcDbEntity
  8
0
  6
CONTINUOUS
 62
               7
100
AcDbLine
 10
-29.62579112867698
 20
162.75000000000011
 30
0.0
 11
-47.0
 21
162.75000000000011
 31
0.0
  0
LINE
  5
229
100
AcDbEntity
  8
0
  6
CONTINUOUS
 62
               7
100
AcDbLine
 10
47.0
 20
162.75000000000011
 30
0.0
 11
29.625791128676923
 21
162.75000000000011
 31
0.0
  0
LINE
  5
22A
100
AcDbEntity
  8
0
  6
CONTINUOUS
 62
               7
100
AcDbLine
 10
59.999995972472902
 20
162.75000000000011
 30
0.0
 11
48.0
 21
162.75000000000011
 31
0.0
  0
LINE
  5
22B
100
AcDbEntity
  8
0
  6
CONTINUOUS
 62
               7
100
AcDbLine
 10
48.0
 20
162.75000000000011
 30
0.0
 11
48.0
 21
170.0
 31
0.0
  0
LINE
  5
22C
100
AcDbEntity
  8
0
  6
CONTINUOUS
 62
               7
100
AcDbLine
 10
47.0
 20
162.75000000000011
 30
0.0
 11
47.0
 21
170.0
 31
0.0
  0
LINE
  5
22D
100
AcDbEntity
  8
0
  6
CONTINUOUS
 62
               7
100
AcDbLine
 10
10.0
 20
162.75000000000011
 30
0.0
 11
10.0
 21
168.14636704042658
 31
0.0
  0
LINE
  5
22E
100
AcDbEntity
  8
0
  6
CONTINUOUS
 62
               7
100
AcDbLine
 10
26.427968139832416
 20
162.75000000000011
 30
0.0
 11
10.0
 21
162.75000000000011
 31
0.0
  0
LINE
  5
22F
100
AcDbEntity
  8
0
  6
CONTINUOUS
 62
               7
100
AcDbLine
 10
28.0
 20
163.63068151720631
 30
0.0
 11
28.0
 21
170.0
 31
0.0
  0
LINE
  5
230
100
AcDbEntity
  8
0
  6
CONTINUOUS
 62
               7
100
AcDbLine
 10
47.0
 20
153.25000000000011
 30
0.0
 11
42.304698320635708
 21
153.25000000000011
 31
0.0
  0
LINE
  5
231
100
AcDbEntity
  8
0
  6
CONTINUOUS
 62
               7
100
AcDbLine
 10
59.999995972472902
 20
153.25000000000011
 30
0.0
 11
48.0
 21
153.25000000000011
 31
0.0
  0
LINE
  5
232
100
AcDbEntity
  8
0
  6
CONTINUOUS
 62
               7
100
AcDbLine
 10
59.999995972472902
 20
161.75000000000011
 30
0.0
 11
48.0
 21
161.75000000000011
 31
0.0
  0
LINE
  5
233
100
AcDbEntity
  8
0
  6
CONTINUOUS
 62
               7
100
AcDbLine
 10
48.0
 20
153.25000000000011
 30
0.0
 11
48.0
 21
161.75000000000011
 31
0.0
  0
LINE
  5
234
100
AcDbEntity
  8
0
  6
CONTINUOUS
 62
               7
100
AcDbLine
 10
29.0
 20
161.38093031466059
 30
0.0
 11
29.0
 21
153.25000000000011
 31
0.0
  0
LINE
  5
235
100
AcDbEntity
  8
0
  6
CONTINUOUS
 62
               7
100
AcDbLine
 10
47.0
 20
161.75000000000011
 30
0.0
 11
31.339870771909517
 21
161.75000000000011
 31
0.0
  0
LINE
  5
236
100
AcDbEntity
  8
0
  6
CONTINUOUS
 62
               7
100
AcDbLine
 10
47.0
 20
153.25000000000011
 30
0.0
 11
47.0
 21
161.75000000000011
 31
0.0
  0
LINE
  5
237
100
AcDbEntity
  8
0
  6
CONTINUOUS
 62
               7
100
AcDbLine
 10
10.0
 20
153.25000000000011
 30
0.0
 11
10.0
 21
161.75000000000011
 31
0.0
  0
LINE
  5
238
100
AcDbEntity
  8
0
  6
CONTINUOUS
 62
               7
100
AcDbLine
 10
28.0
 20
161.75000000000011
 30
0.0
 11
10.0
 21
161.75000000000011
 31
0.0
  0
LINE
  5
239
100
AcDbEntity
  8
0
  6
CONTINUOUS
 62
               7
100
AcDbLine
 10
28.0
 20
153.25000000000011
 30
0.0
 11
10.0
 21
153.25000000000011
 31
0.0
  0
LINE
  5
23A
100
AcDbEntity
  8
0
  6
CONTINUOUS
 62
               7
100
AcDbLine
 10
28.0
 20
153.25000000000011
 30
0.0
 11
28.0
 21
161.75000000000011
 31
0.0
  0
LINE
  5
23B
100
AcDbEntity
  8
0
  6
CONTINUOUS
 62
               7
100
AcDbLine
 10
28.0
 20
143.75000000000011
 30
0.0
 11
28.0
 21
152.25000000000011
 31
0.0
  0
LINE
  5
23C
100
AcDbEntity
  8
0
  6
CONTINUOUS
 62
               7
100
AcDbLine
 10
28.0
 20
143.75000000000011
 30
0.0
 11
10.0
 21
143.75000000000011
 31
0.0
  0
LINE
  5
23D
100
AcDbEntity
  8
0
  6
CONTINUOUS
 62
               7
100
AcDbLine
 10
28.0
 20
152.25000000000011
 30
0.0
 11
10.0
 21
152.25000000000011
 31
0.0
  0
LINE
  5
23E
100
AcDbEntity
  8
0
  6
CONTINUOUS
 62
               7
100
AcDbLine
 10
10.0
 20
143.75000000000011
 30
0.0
 11
10.0
 21
152.25000000000011
 31
0.0
  0
LINE
  5
23F
100
AcDbEntity
  8
0
  6
CONTINUOUS
 62
               7
100
AcDbLine
 10
47.0
 20
143.75000000000011
 30
0.0
 11
47.0
 21
145.66510900025406
 31
0.0
  0
LINE
  5
240
100
AcDbEntity
  8
0
  6
CONTINUOUS
 62
               7
100
AcDbLine
 10
47.0
 20
152.25000000000011
 30
0.0
 11
43.303435198607502
 21
152.25000000000011
 31
0.0
  0
LINE
  5
241
100
AcDbEntity
  8
0
  6
CONTINUOUS
 62
               7
100
AcDbLine
 10
29.0
 20
152.25000000000011
 30
0.0
 11
29.0
 21
143.75000000000011
 31
0.0
  0
LINE
  5
242
100
AcDbEntity
  8
0
  6
CONTINUOUS
 62
               7
100
AcDbLine
 10
48.0
 20
143.75000000000011
 30
0.0
 11
48.0
 21
144.30743359681696
 31
0.0
  0
LINE
  5
243
100
AcDbEntity
  8
0
  6
CONTINUOUS
 62
               7
100
AcDbLine
 10
59.999995972472902
 20
152.25000000000011
 30
0.0
 11
48.0
 21
152.25000000000011
 31
0.0
  0
LINE
  5
244
100
AcDbEntity
  8
0
  6
CONTINUOUS
 62
               7
100
AcDbLine
 10
59.999995972472902
 20
143.75
 30
0.0
 11
50.211427982083904
 21
143.75
 31
0.0
  0
LINE
  5
245
100
AcDbEntity
  8
0
  6
CONTINUOUS
 62
               7
100
AcDbLine
 10
47.0
 20
143.75000000000011
 30
0.0
 11
29.0
 21
143.75000000000011
 31
0.0
  0
LINE
  5
246
100
AcDbEntity
  8
0
  6
CONTINUOUS
 62
               7
100
AcDbLine
 10
47.0
 20
134.25000000000011
 30
0.0
 11
29.0
 21
134.25000000000011
 31
0.0
  0
LINE
  5
247
100
AcDbEntity
  8
0
  6
CONTINUOUS
 62
               7
100
AcDbLine
 10
59.999995972472902
 20
134.25
 30
0.0
 11
55.427317272262115
 21
134.25000000000011
 31
0.0
  0
LINE
  5
248
100
AcDbEntity
  8
0
  6
CONTINUOUS
 62
               7
100
AcDbLine
 10
59.999995972472902
 20
142.75000000000011
 30
0.0
 11
50.869317864504524
 21
142.75000000000011
 31
0.0
  0
LINE
  5
249
100
AcDbEntity
  8
0
  6
CONTINUOUS
 62
               7
100
AcDbLine
 10
48.0
 20
134.25000000000011
 30
0.0
 11
48.0
 21
142.75000000000011
 31
0.0
  0
LINE
  5
24A
100
AcDbEntity
  8
0
  6
CONTINUOUS
 62
               7
100
AcDbLine
 10
29.0
 20
142.75000000000011
 30
0.0
 11
29.0
 21
134.25000000000011
 31
0.0
  0
LINE
  5
24B
100
AcDbEntity
  8
0
  6
CONTINUOUS
 62
               7
100
AcDbLine
 10
47.0
 20
142.75000000000011
 30
0.0
 11
29.0
 21
142.75000000000011
 31
0.0
  0
LINE
  5
24C
100
AcDbEntity
  8
0
  6
CONTINUOUS
 62
               7
100
AcDbLine
 10
47.0
 20
134.25000000000011
 30
0.0
 11
47.0
 21
142.75000000000011
 31
0.0
  0
LINE
  5
24D
100
AcDbEntity
  8
0
  6
CONTINUOUS
 62
               7
100
AcDbLine
 10
10.0
 20
134.25000000000011
 30
0.0
 11
10.0
 21
142.75000000000011
 31
0.0
  0
LINE
  5
24E
100
AcDbEntity
  8
0
  6
CONTINUOUS
 62
               7
100
AcDbLine
 10
28.0
 20
142.75000000000011
 30
0.0
 11
10.0
 21
142.75000000000011
 31
0.0
  0
LINE
  5
24F
100
AcDbEntity
  8
0
  6
CONTINUOUS
 62
               7
100
AcDbLine
 10
28.0
 20
134.25000000000011
 30
0.0
 11
10.0
 21
134.25000000000011
 31
0.0
  0
LINE
  5
250
100
AcDbEntity
  8
0
  6
CONTINUOUS
 62
               7
100
AcDbLine
 10
28.0
 20
134.25000000000011
 30
0.0
 11
28.0
 21
142.75000000000011
 31
0.0
  0
LINE
  5
251
100
AcDbEntity
  8
0
  6
CONTINUOUS
 62
               7
100
AcDbLine
 10
28.0
 20
124.75000000000013
 30
0.0
 11
28.0
 21
133.25000000000011
 31
0.0
  0
LINE
  5
252
100
AcDbEntity
  8
0
  6
CONTINUOUS
 62
               7
100
AcDbLine
 10
28.0
 20
124.75000000000013
 30
0.0
 11
10.0
 21
124.75000000000013
 31
0.0
  0
LINE
  5
253
100
AcDbEntity
  8
0
  6
CONTINUOUS
 62
               7
100
AcDbLine
 10
28.0
 20
133.25000000000011
 30
0.0
 11
10.0
 21
133.25000000000011
 31
0.0
  0
LINE
  5
254
100
AcDbEntity
  8
0
  6
CONTINUOUS
 62
               7
100
AcDbLine
 10
10.0
 20
124.75000000000013
 30
0.0
 11
10.0
 21
133.25000000000011
 31
0.0
  0
LINE
  5
255
100
AcDbEntity
  8
0
  6
CONTINUOUS
 62
               7
100
AcDbLine
 10
47.0
 20
124.75000000000013
 30
0.0
 11
47.0
 21
133.25000000000011
 31
0.0
  0
LINE
  5
256
100
AcDbEntity
  8
0
  6
CONTINUOUS
 62
               7
100
AcDbLine
 10
47.0
 20
133.25000000000011
 30
0.0
 11
29.0
 21
133.25000000000011
 31
0.0
  0
LINE
  5
257
100
AcDbEntity
  8
0
  6
CONTINUOUS
 62
               7
100
AcDbLine
 10
29.0
 20
133.25000000000011
 30
0.0
 11
29.0
 21
124.75000000000013
 31
0.0
  0
LINE
  5
258
100
AcDbEntity
  8
0
  6
CONTINUOUS
 62
               7
100
AcDbLine
 10
48.0
 20
124.75000000000013
 30
0.0
 11
48.0
 21
133.25000000000011
 31
0.0
  0
LINE
  5
259
100
AcDbEntity
  8
0
  6
CONTINUOUS
 62
               7
100
AcDbLine
 10
59.999995972472902
 20
133.25
 30
0.0
 11
55.854162781300403
 21
133.25000000000011
 31
0.0
  0
LINE
  5
25A
100
AcDbEntity
  8
0
  6
CONTINUOUS
 62
               7
100
AcDbLine
 10
59.999995972472902
 20
124.75000000000001
 30
0.0
 11
58.674419468794014
 21
124.75000000000013
 31
0.0
  0
LINE
  5
25B
100
AcDbEntity
  8
0
  6
CONTINUOUS
 62
               7
100
AcDbLine
 10
47.0
 20
124.75000000000013
 30
0.0
 11
29.0
 21
124.75000000000013
 31
0.0
  0
LINE
  5
25C
100
AcDbEntity
  8
0
  6
CONTINUOUS
 62
               7
100
AcDbLine
 10
-29.0
 20
124.75000000000013
 30
0.0
 11
-47.0
 21
124.75000000000013
 31
0.0
  0
LINE
  5
25D
100
AcDbEntity
  8
0
  6
CONTINUOUS
 62
               7
100
AcDbLine
 10
-10.0
 20
124.75000000000013
 30
0.0
 11
-10.0
 21
133.25000000000011
 31
0.0
  0
LINE
  5
25E
100
AcDbEntity
  8
0
  6
CONTINUOUS
 62
               7
100
AcDbLine
 10
-10.0
 20
124.75000000000013
 30
0.0
 11
-28.0
 21
124.75000000000013
 31
0.0
  0
LINE
  5
25F
100
AcDbEntity
  8
0
  6
CONTINUOUS
 62
               7
100
AcDbLine
 10
-10.0
 20
133.25000000000011
 30
0.0
 11
-28.0
 21
133.25000000000011
 31
0.0
  0
LINE
  5
260
100
AcDbEntity
  8
0
  6
CONTINUOUS
 62
               7
100
AcDbLine
 10
-28.0
 20
124.75000000000013
 30
0.0
 11
-28.0
 21
133.25000000000011
 31
0.0
  0
LINE
  5
261
100
AcDbEntity
  8
0
  6
CONTINUOUS
 62
               7
100
AcDbLine
 10
-47.0
 20
133.25000000000011
 30
0.0
 11
-47.0
 21
124.75000000000013
 31
0.0
  0
LINE
  5
262
100
AcDbEntity
  8
0
  6
CONTINUOUS
 62
               7
100
AcDbLine
 10
-29.0
 20
133.25000000000011
 30
0.0
 11
-47.0
 21
133.25000000000011
 31
0.0
  0
LINE
  5
263
100
AcDbEntity
  8
0
  6
CONTINUOUS
 62
               7
100
AcDbLine
 10
-29.0
 20
124.75000000000013
 30
0.0
 11
-29.0
 21
133.25000000000011
 31
0.0
  0
LINE
  5
264
100
AcDbEntity
  8
0
  6
CONTINUOUS
 62
               7
100
AcDbLine
 10
-9.0
 20
124.75000000000013
 30
0.0
 11
-9.0
 21
133.25000000000011
 31
0.0
  0
LINE
  5
265
100
AcDbEntity
  8
0
  6
CONTINUOUS
 62
               7
100
AcDbLine
 10
9.0
 20
133.25000000000011
 30
0.0
 11
-9.0
 21
133.25000000000011
 31
0.0
  0
LINE
  5
266
100
AcDbEntity
  8
0
  6
CONTINUOUS
 62
               7
100
AcDbLine
 10
9.0
 20
124.75000000000013
 30
0.0
 11
-9.0
 21
124.75000000000013
 31
0.0
  0
LINE
  5
267
100
AcDbEntity
  8
0
  6
CONTINUOUS
 62
               7
100
AcDbLine
 10
9.0
 20
124.75000000000013
 30
0.0
 11
9.0
 21
133.25000000000011
 31
0.0
  0
LINE
  5
268
100
AcDbEntity
  8
0
  6
CONTINUOUS
 62
               7
100
AcDbLine
 10
-48.0
 20
133.25000000000011
 30
0.0
 11
-54.225801054479689
 21
133.25
 31
0.0
  0
LINE
  5
269
100
AcDbEntity
  8
0
  6
CONTINUOUS
 62
               7
100
AcDbLine
 10
-48.0
 20
124.75000000000013
 30
0.0
 11
-57.126504356559394
 21
124.75000000000001
 31
0.0
  0
LINE
  5
26A
100
AcDbEntity
  8
0
  6
CONTINUOUS
 62
               7
100
AcDbLine
 10
-48.0
 20
124.75000000000013
 30
0.0
 11
-48.0
 21
133.25000000000011
 31
0.0
  0
LINE
  5
26B
100
AcDbEntity
  8
0
  6
CONTINUOUS
 62
               7
100
AcDbLine
 10
-48.0
 20
134.25000000000011
 30
0.0
 11
-48.0
 21
142.75000000000011
 31
0.0
  0
LINE
  5
26C
100
AcDbEntity
  8
0
  6
CONTINUOUS
 62
               7
100
AcDbLine
 10
-48.0
 20
134.25000000000011
 30
0.0
 11
-53.78603443274099
 21
134.25
 31
0.0
  0
LINE
  5
26D
100
AcDbEntity
  8
0
  6
CONTINUOUS
 62
               7
100
AcDbLine
 10
-48.0
 20
142.75000000000011
 30
0.0
 11
-49.075834175284285
 21
142.75000000000011
 31
0.0
  0
LINE
  5
26E
100
AcDbEntity
  8
0
  6
CONTINUOUS
 62
               7
100
AcDbLine
 10
9.0
 20
134.25000000000011
 30
0.0
 11
9.0
 21
142.75000000000011
 31
0.0
  0
LINE
  5
26F
100
AcDbEntity
  8
0
  6
CONTINUOUS
 62
               7
100
AcDbLine
 10
9.0
 20
134.25000000000011
 30
0.0
 11
-9.0
 21
134.25000000000011
 31
0.0
  0
LINE
  5
270
100
AcDbEntity
  8
0
  6
CONTINUOUS
 62
               7
100
AcDbLine
 10
9.0
 20
142.75000000000011
 30
0.0
 11
-9.0
 21
142.75000000000011
 31
0.0
  0
LINE
  5
271
100
AcDbEntity
  8
0
  6
CONTINUOUS
 62
               7
100
AcDbLine
 10
-9.0
 20
134.25000000000011
 30
0.0
 11
-9.0
 21
142.75000000000011
 31
0.0
  0
LINE
  5
272
100
AcDbEntity
  8
0
  6
CONTINUOUS
 62
               7
100
AcDbLine
 10
-29.0
 20
134.25000000000011
 30
0.0
 11
-29.0
 21
142.75000000000011
 31
0.0
  0
LINE
  5
273
100
AcDbEntity
  8
0
  6
CONTINUOUS
 62
               7
100
AcDbLine
 10
-29.0
 20
142.75000000000011
 30
0.0
 11
-47.0
 21
142.75000000000011
 31
0.0
  0
LINE
  5
274
100
AcDbEntity
  8
0
  6
CONTINUOUS
 62
               7
100
AcDbLine
 10
-47.0
 20
142.75000000000011
 30
0.0
 11
-47.0
 21
134.25000000000011
 31
0.0
  0
LINE
  5
275
100
AcDbEntity
  8
0
  6
CONTINUOUS
 62
               7
100
AcDbLine
 10
-28.0
 20
134.25000000000011
 30
0.0
 11
-28.0
 21
142.75000000000011
 31
0.0
  0
LINE
  5
276
100
AcDbEntity
  8
0
  6
CONTINUOUS
 62
               7
100
AcDbLine
 10
-10.0
 20
142.75000000000011
 30
0.0
 11
-28.0
 21
142.75000000000011
 31
0.0
  0
LINE
  5
277
100
AcDbEntity
  8
0
  6
CONTINUOUS
 62
               7
100
AcDbLine
 10
-10.0
 20
134.25000000000011
 30
0.0
 11
-28.0
 21
134.25000000000011
 31
0.0
  0
LINE
  5
278
100
AcDbEntity
  8
0
  6
CONTINUOUS
 62
               7
100
AcDbLine
 10
-10.0
 20
134.25000000000011
 30
0.0
 11
-10.0
 21
142.75000000000011
 31
0.0
  0
LINE
  5
279
100
AcDbEntity
  8
0
  6
CONTINUOUS
 62
               7
100
AcDbLine
 10
-29.0
 20
134.25000000000011
 30
0.0
 11
-47.0
 21
134.25000000000011
 31
0.0
  0
LINE
  5
27A
100
AcDbEntity
  8
0
  6
PHANTOM
 62
               2
100
AcDbLine
 10
-27.750000000000284
 20
0.0000000000000142
 30
0.0
 11
-27.750000000000284
 21
1.2000000000000028
 31
0.0
  0
LINE
  5
27B
100
AcDbEntity
  8
0
  6
PHANTOM
 62
               2
100
AcDbLine
 10
2.2499999999997158
 20
1.2000000000000028
 30
0.0
 11
2.2499999999997158
 21
0.0000000000000142
 31
0.0
  0
LINE
  5
27C
100
AcDbEntity
  8
0
  6
PHANTOM
 62
               2
100
AcDbLine
 10
32.249999999999716
 20
0.0000000000000142
 30
0.0
 11
32.249999999999716
 21
1.2000000000000028
 31
0.0
  0
LINE
  5
27D
100
AcDbEntity
  8
0
  6
PHANTOM
 62
               2
100
AcDbLine
 10
-2.2500000000002842
 20
1.2000000000000028
 30
0.0
 11
-2.2500000000002842
 21
0.0000000000000142
 31
0.0
  0
LINE
  5
27E
100
AcDbEntity
  8
0
  6
PHANTOM
 62
               2
100
AcDbLine
 10
-32.250000000000284
 20
0.0000000000000995
 30
0.0
 11
-32.250000000000284
 21
1.2000000000000028
 31
0.0
  0
LINE
  5
27F
100
AcDbEntity
  8
0
  6
PHANTOM
 62
               2
100
AcDbLine
 10
27.749999999999716
 20
0.0000000000000142
 30
0.0
 11
27.749999999999716
 21
1.2000000000000028
 31
0.0
  0
LINE
  5
280
100
AcDbEntity
  8
0
  6
PHANTOM
 62
               2
100
AcDbLine
 10
72.799999999999812
 20
25.000000000000099
 30
0.0
 11
73.999999999999801
 21
25.000000000000014
 31
0.0
  0
LINE
  5
281
100
AcDbEntity
  8
0
  6
PHANTOM
 62
               2
100
AcDbLine
 10
-74.000000000000227
 20
25.000000000000099
 30
0.0
 11
-72.800000000000182
 21
25.000000000000099
 31
0.0
  0
LINE
  5
282
100
AcDbEntity
  8
0
  6
PHANTOM
 62
               2
100
AcDbLine
 10
72.799999999999699
 20
92.400000000000105
 30
0.0
 11
73.999999999999801
 21
92.400000000000105
 31
0.0
  0
LINE
  5
283
100
AcDbEntity
  8
0
  6
PHANTOM
 62
               2
100
AcDbLine
 10
72.799999999999699
 20
97.59999999999998
 30
0.0
 11
73.999999999999801
 21
97.59999999999998
 31
0.0
  0
LINE
  5
284
100
AcDbEntity
  8
0
  6
PHANTOM
 62
               2
100
AcDbLine
 10
-74.000000000000227
 20
92.400000000000105
 30
0.0
 11
-72.800000000000182
 21
92.400000000000105
 31
0.0
  0
LINE
  5
285
100
AcDbEntity
  8
0
  6
PHANTOM
 62
               2
100
AcDbLine
 10
-74.000000000000227
 20
97.59999999999998
 30
0.0
 11
-72.800000000000182
 21
97.59999999999998
 31
0.0
  0
LINE
  5
286
100
AcDbEntity
  8
0
  6
PHANTOM
 62
               2
100
AcDbLine
 10
72.799999999999699
 20
105.00000000000013
 30
0.0
 11
72.799999999999812
 21
1.2000000000000028
 31
0.0
  0
LINE
  5
287
100
AcDbEntity
  8
0
  6
PHANTOM
 62
               2
100
AcDbLine
 10
73.999999999999801
 20
105.00000000000013
 30
0.0
 11
72.799999999999699
 21
105.00000000000013
 31
0.0
  0
LINE
  5
288
100
AcDbEntity
  8
0
  6
PHANTOM
 62
               2
100
AcDbLine
 10
73.999999999999801
 20
0.0000000000000142
 30
0.0
 11
73.999999999999801
 21
105.00000000000013
 31
0.0
  0
LINE
  5
289
100
AcDbEntity
  8
0
  6
PHANTOM
 62
               2
100
AcDbLine
 10
-72.800000000000182
 20
105.00000000000013
 30
0.0
 11
-72.800000000000182
 21
1.2000000000000028
 31
0.0
  0
LINE
  5
28A
100
AcDbEntity
  8
0
  6
PHANTOM
 62
               2
100
AcDbLine
 10
-74.000000000000227
 20
105.00000000000013
 30
0.0
 11
-72.800000000000182
 21
105.00000000000013
 31
0.0
  0
LINE
  5
28B
100
AcDbEntity
  8
0
  6
PHANTOM
 62
               2
100
AcDbLine
 10
-74.000000000000227
 20
0.0000000000000142
 30
0.0
 11
-74.000000000000227
 21
105.00000000000013
 31
0.0
  0
LINE
  5
28C
100
AcDbEntity
  8
0
  6
PHANTOM
 62
               2
100
AcDbLine
 10
-72.800000000000182
 20
1.2000000000000028
 30
0.0
 11
72.799999999999812
 21
1.2000000000000028
 31
0.0
  0
LINE
  5
28D
100
AcDbEntity
  8
0
  6
PHANTOM
 62
               2
100
AcDbLine
 10
-74.000000000000227
 20
0.0000000000000142
 30
0.0
 11
73.999999999999801
 21
0.0000000000000142
 31
0.0
  0
ARC
  5
28E
100
AcDbEntity
  8
0
  6
CONTINUOUS
 62
               7
100
AcDbCircle
 10
-22.250000000000284
 20
30.570000000000007
 30
0.0
 40
10.5
100
AcDbArc
 50
125.91761034844292
 51
180.0
  0
ARC
  5
28F
100
AcDbEntity
  8
0
  6
CONTINUOUS
 62
               7
100
AcDbCircle
 10
-23.500000000000313
 20
30.570000000000064
 30
0.0
 40
9.2499999999999769
100
AcDbArc
 50
120.0000000000001
 51
179.99999999999312
  0
ARC
  5
290
100
AcDbEntity
  8
0
  6
CONTINUOUS
 62
               7
100
AcDbCircle
 10
-23.500000000000284
 20
30.570000000000007
 30
0.0
 40
9.25
100
AcDbArc
 50
0.0
 51
59.999999999999858
  0
ARC
  5
291
100
AcDbEntity
  8
0
  6
CONTINUOUS
 62
               7
100
AcDbCircle
 10
-22.250000000000284
 20
30.570000000000007
 30
0.0
 40
10.5
100
AcDbArc
 50
0.0
 51
65.917610348443162
  0
LINE
  5
292
100
AcDbEntity
  8
0
  6
CONTINUOUS
 62
               7
100
AcDbLine
 10
-18.875000000000341
 20
38.580734985006089
 30
0.0
 11
-17.96547632617407
 21
40.156076198759493
 31
0.0
  0
LINE
  5
293
100
AcDbEntity
  8
0
  6
CONTINUOUS
 62
               7
100
AcDbLine
 10
-14.250000000000313
 20
30.570000000000007
 30
0.0
 11
-11.750000000000313
 21
30.570000000000007
 31
0.0
  0
LINE
  5
294
100
AcDbEntity
  8
0
  6
CONTINUOUS
 62
               7
100
AcDbLine
 10
0.0
 20
99.250000000000242
 30
0.0
 11
0.0
 21
98.250000000000128
 31
0.0
  0
LINE
  5
295
100
AcDbEntity
  8
0
  6
CONTINUOUS
 62
               7
100
AcDbLine
 10
0.0
 20
122.75000000000013
 30
0.0
 11
0.0
 21
121.75000000000013
 31
0.0
  0
LINE
  5
296
100
AcDbEntity
  8
0
  6
CONTINUOUS
 62
               7
100
AcDbLine
 10
-39.499999999999886
 20
110.50000000000013
 30
0.0
 11
-35.500000000000398
 21
111.00000000000024
 31
0.0
  0
LINE
  5
297
100
AcDbEntity
  8
0
  6
CONTINUOUS
 62
               7
100
AcDbLine
 10
-35.500000000000114
 20
110.00000000000013
 30
0.0
 11
-39.499999999999886
 21
110.50000000000013
 31
0.0
  0
LINE
  5
298
100
AcDbEntity
  8
0
  6
CONTINUOUS
 62
               7
100
AcDbLine
 10
-35.500000000000398
 20
111.00000000000024
 30
0.0
 11
-35.500000000000114
 21
110.00000000000013
 31
0.0
  0
LINE
  5
299
100
AcDbEntity
  8
0
  6
CONTINUOUS
 62
               7
100
AcDbLine
 10
-16.992645467966213
 20
109.99999999999996
 30
0.0
 11
-28.0
 21
110.00000000000107
 31
0.0
  0
LINE
  5
29A
100
AcDbEntity
  8
0
  6
CONTINUOUS
 62
               7
100
AcDbLine
 10
-16.992645467966213
 20
110.99999999999973
 30
0.0
 11
-28.0
 21
111.00000000000098
 31
0.0
  0
LINE
  5
29B
100
AcDbEntity
  8
0
  6
CONTINUOUS
 62
               7
100
AcDbLine
 10
-12.369168231291496
 20
98.837938549895526
 30
0.0
 11
-14.957106781187065
 21
96.250000000000014
 31
0.0
  0
LINE
  5
29C
100
AcDbEntity
  8
0
  6
CONTINUOUS
 62
               7
100
AcDbLine
 10
-11.662061450104773
 20
98.130831768708973
 30
0.0
 11
-13.542893218813731
 21
96.250000000000014
 31
0.0
  0
LINE
  5
29D
100
AcDbEntity
  8
0
  6
CONTINUOUS
 62
               7
100
AcDbLine
 10
-25.455844122715973
 20
85.751262658471219
 30
0.0
 11
-27.930717856868796
 21
82.569282143131446
 31
0.0
  0
LINE
  5
29E
100
AcDbEntity
  8
0
  6
CONTINUOUS
 62
               7
100
AcDbLine
 10
-27.930717856868796
 20
82.569282143131446
 30
0.0
 11
-24.748737341529193
 21
85.044155877284723
 31
0.0
  0
LINE
  5
29F
100
AcDbEntity
  8
0
  6
CONTINUOUS
 62
               7
100
AcDbLine
 10
-24.748737341529193
 20
85.044155877284723
 30
0.0
 11
-25.455844122715973
 21
85.751262658471219
 31
0.0
  0
LINE
  5
2A0
100
AcDbEntity
  8
0
  6
CONTINUOUS
 62
               7
100
AcDbLine
 10
-0.4999999999994884
 20
93.50735453203346
 30
0.0
 11
-0.4999999999996874
 21
86.750000000000128
 31
0.0
  0
LINE
  5
2A1
100
AcDbEntity
  8
0
  6
CONTINUOUS
 62
               7
100
AcDbLine
 10
0.0
 20
70.999999999998366
 30
0.0
 11
-0.5000000000005116
 21
74.99999999999865
 31
0.0
  0
LINE
  5
2A2
100
AcDbEntity
  8
0
  6
CONTINUOUS
 62
               7
100
AcDbLine
 10
0.5
 20
93.507354532033744
 30
0.0
 11
0.5000000000006537
 21
86.750000000000128
 31
0.0
  0
LINE
  5
2A3
100
AcDbEntity
  8
0
  6
CONTINUOUS
 62
               7
100
AcDbLine
 10
0.5
 20
74.999999999998366
 30
0.0
 11
0.0
 21
70.999999999998366
 31
0.0
  0
LINE
  5
2A4
100
AcDbEntity
  8
0
  6
CONTINUOUS
 62
               7
100
AcDbLine
 10
-0.5000000000005116
 20
74.99999999999865
 30
0.0
 11
0.5
 21
74.999999999998366
 31
0.0
  0
LINE
  5
2A5
100
AcDbEntity
  8
0
  6
CONTINUOUS
 62
               7
100
AcDbLine
 10
24.748737341529193
 20
85.044155877284325
 30
0.0
 11
25.455844122715519
 21
85.751262658471049
 31
0.0
  0
LINE
  5
2A6
100
AcDbEntity
  8
0
  6
CONTINUOUS
 62
               7
100
AcDbLine
 10
27.930717856868341
 20
82.569282143131218
 30
0.0
 11
24.748737341529193
 21
85.044155877284325
 31
0.0
  0
LINE
  5
2A7
100
AcDbEntity
  8
0
  6
CONTINUOUS
 62
               7
100
AcDbLine
 10
25.455844122715519
 20
85.751262658471049
 30
0.0
 11
27.930717856868341
 21
82.569282143131218
 31
0.0
  0
LINE
  5
2A8
100
AcDbEntity
  8
0
  6
CONTINUOUS
 62
               7
100
AcDbLine
 10
11.662061450104829
 20
98.130831768708973
 30
0.0
 11
13.542893218813759
 21
96.250000000000014
 31
0.0
  0
LINE
  5
2A9
100
AcDbEntity
  8
0
  6
CONTINUOUS
 62
               7
100
AcDbLine
 10
12.369168231291042
 20
98.837938549895867
 30
0.0
 11
14.957106781186411
 21
96.250000000000014
 31
0.0
  0
LINE
  5
2AA
100
AcDbEntity
  8
0
  6
CONTINUOUS
 62
               7
100
AcDbLine
 10
16.992645467966724
 20
110.99999999999973
 30
0.0
 11
28.0
 21
110.99999999999973
 31
0.0
  0
LINE
  5
2AB
100
AcDbEntity
  8
0
  6
CONTINUOUS
 62
               7
100
AcDbLine
 10
39.500000000000114
 20
110.50000000000013
 30
0.0
 11
35.5
 21
110.99999999999973
 31
0.0
  0
LINE
  5
2AC
100
AcDbEntity
  8
0
  6
CONTINUOUS
 62
               7
100
AcDbLine
 10
16.992645467966724
 20
110.00000000000013
 30
0.0
 11
28.0
 21
110.00000000000013
 31
0.0
  0
LINE
  5
2AD
100
AcDbEntity
  8
0
  6
CONTINUOUS
 62
               7
100
AcDbLine
 10
35.5
 20
110.99999999999973
 30
0.0
 11
35.5
 21
110.00000000000013
 31
0.0
  0
LINE
  5
2AE
100
AcDbEntity
  8
0
  6
CONTINUOUS
 62
               7
100
AcDbLine
 10
35.5
 20
110.00000000000013
 30
0.0
 11
39.500000000000114
 21
110.50000000000013
 31
0.0
  0
LINE
  5
2AF
100
AcDbEntity
  8
0
  6
CONTINUOUS
 62
               7
100
AcDbLine
 10
27.930717856868796
 20
138.43071785686863
 30
0.0
 11
24.748737341529022
 21
135.95584412271586
 31
0.0
  0
LINE
  5
2B0
100
AcDbEntity
  8
0
  6
CONTINUOUS
 62
               7
100
AcDbLine
 10
12.369168231291496
 20
122.16206145010473
 30
0.0
 11
13.957106781186866
 21
123.75000000000013
 31
0.0
  0
LINE
  5
2B1
100
AcDbEntity
  8
0
  6
CONTINUOUS
 62
               7
100
AcDbLine
 10
11.662061450104829
 20
122.86916823129094
 30
0.0
 11
12.542893218814328
 21
123.75000000000013
 31
0.0
  0
LINE
  5
2B2
100
AcDbEntity
  8
0
  6
CONTINUOUS
 62
               7
100
AcDbLine
 10
25.455844122715916
 20
135.24873734152965
 30
0.0
 11
27.930717856868796
 21
138.43071785686863
 31
0.0
  0
LINE
  5
2B3
100
AcDbEntity
  8
0
  6
CONTINUOUS
 62
               7
100
AcDbLine
 10
24.748737341529022
 20
135.95584412271586
 30
0.0
 11
25.455844122715916
 21
135.24873734152965
 31
0.0
  0
LINE
  5
2B4
100
AcDbEntity
  8
0
  6
CONTINUOUS
 62
               7
100
AcDbLine
 10
0.0
 20
150.00000000000102
 30
0.0
 11
-0.5000000000002842
 21
146.00000000000085
 31
0.0
  0
LINE
  5
2B5
100
AcDbEntity
  8
0
  6
CONTINUOUS
 62
               7
100
AcDbLine
 10
-0.4999999999994884
 20
127.49264546796645
 30
0.0
 11
-0.4999999999994031
 21
133.25000000000011
 31
0.0
  0
LINE
  5
2B6
100
AcDbEntity
  8
0
  6
CONTINUOUS
 62
               7
100
AcDbLine
 10
-0.5000000000002842
 20
146.00000000000085
 30
0.0
 11
0.5
 21
146.00000000000102
 31
0.0
  0
LINE
  5
2B7
100
AcDbEntity
  8
0
  6
CONTINUOUS
 62
               7
100
AcDbLine
 10
0.5
 20
146.00000000000102
 30
0.0
 11
0.0
 21
150.00000000000102
 31
0.0
  0
LINE
  5
2B8
100
AcDbEntity
  8
0
  6
CONTINUOUS
 62
               7
100
AcDbLine
 10
0.5
 20
127.49264546796617
 30
0.0
 11
0.5
 21
133.25000000000011
 31
0.0
  0
LINE
  5
2B9
100
AcDbEntity
  8
0
  6
CONTINUOUS
 62
               7
100
AcDbLine
 10
-24.748737341528567
 20
135.95584412271523
 30
0.0
 11
-25.455844122715177
 21
135.24873734152885
 31
0.0
  0
LINE
  5
2BA
100
AcDbEntity
  8
0
  6
CONTINUOUS
 62
               7
100
AcDbLine
 10
-27.930717856868114
 20
138.43071785686811
 30
0.0
 11
-24.748737341528567
 21
135.95584412271523
 31
0.0
  0
LINE
  5
2BB
100
AcDbEntity
  8
0
  6
CONTINUOUS
 62
               7
100
AcDbLine
 10
-25.455844122715177
 20
135.24873734152885
 30
0.0
 11
-27.930717856868114
 21
138.43071785686811
 31
0.0
  0
LINE
  5
2BC
100
AcDbEntity
  8
0
  6
CONTINUOUS
 62
               7
100
AcDbLine
 10
-11.662061450104773
 20
122.86916823129094
 30
0.0
 11
-12.542893218813902
 21
123.75000000000013
 31
0.0
  0
LINE
  5
2BD
100
AcDbEntity
  8
0
  6
CONTINUOUS
 62
               7
100
AcDbLine
 10
-12.369168231291496
 20
122.16206145010456
 30
0.0
 11
-13.957106781187264
 21
123.75000000000013
 31
0.0
  0
ARC
  5
2BE
100
AcDbEntity
  8
0
  6
CONTINUOUS
 62
               7
100
AcDbCircle
 10
0.0
 20
110.50000000000013
 30
0.0
 40
12.25
100
AcDbArc
 50
248.61338748780349
 51
270.0
  0
ARC
  5
2BF
100
AcDbEntity
  8
0
  6
CONTINUOUS
 62
               7
100
AcDbCircle
 10
0.0
 20
110.50000000000024
 30
0.0
 40
11.25
100
AcDbArc
 50
248.84954398487102
 51
270.0
  0
LINE
  5
2C0
100
AcDbEntity
  8
0
  6
CONTINUOUS
 62
               7
100
AcDbLine
 10
-4.4670755410779748
 20
99.093522186481167
 30
0.0
 11
-4.8282616247718124
 21
98.283852758382025
 31
0.0
  0
LINE
  5
2C1
100
AcDbEntity
  8
0
  6
CONTINUOUS
 62
               7
100
AcDbLine
 10
-3.7715791140573742
 20
100.65261380084156
 30
0.0
 11
-4.0592053048268895
 21
100.00784329638277
 31
0.0
  0
LINE
  5
2C2
100
AcDbEntity
  8
0
  6
CONTINUOUS
 62
               7
100
AcDbLine
 10
-5.8499999999999659
 20
100.36750277572237
 30
0.0
 11
-4.8282616247718124
 21
98.283852758382025
 31
0.0
  0
LINE
  5
2C3
100
AcDbEntity
  8
0
  6
CONTINUOUS
 62
               7
100
AcDbLine
 10
-5.8499999999999659
 20
120.63249722427817
 30
0.0
 11
-4.8282616247718124
 21
122.71614724161834
 31
0.0
  0
LINE
  5
2C4
100
AcDbEntity
  8
0
  6
CONTINUOUS
 62
               7
100
AcDbLine
 10
-3.7715791140573742
 20
120.34738619915892
 30
0.0
 11
-4.0592053048268895
 21
120.99215670361765
 31
0.0
  0
ARC
  5
2C5
100
AcDbEntity
  8
0
  6
CONTINUOUS
 62
               7
100
AcDbCircle
 10
0.0
 20
110.50000000000013
 30
0.0
 40
11.25
100
AcDbArc
 50
90.0
 51
111.150456015129
  0
ARC
  5
2C6
100
AcDbEntity
  8
0
  6
CONTINUOUS
 62
               7
100
AcDbCircle
 10
0.0
 20
110.50000000000013
 30
0.0
 40
12.25
100
AcDbArc
 50
90.0
 51
111.38661251219639
  0
ARC
  5
2C7
100
AcDbEntity
  8
0
  6
CONTINUOUS
 62
               7
100
AcDbCircle
 10
0.0
 20
110.50000000000013
 30
0.0
 40
16.000000000000028
100
AcDbArc
 50
62.951889453645506
 51
117.04811054635449
  0
ARC
  5
2C8
100
AcDbEntity
  8
0
  6
CONTINUOUS
 62
               7
100
AcDbCircle
 10
0.0
 20
110.50000000000013
 30
0.0
 40
17.000000000000028
100
AcDbArc
 50
58.034281249203083
 51
121.96571875079691
  0
ARC
  5
2C9
100
AcDbEntity
  8
0
  6
CONTINUOUS
 62
               7
100
AcDbCircle
 10
0.0
 20
110.50000000000013
 30
0.0
 40
7.4999999999998863
100
AcDbArc
 50
149.99999999999952
 51
219.29648023918821
  0
ARC
  5
2CA
100
AcDbEntity
  8
0
  6
CONTINUOUS
 62
               7
100
AcDbCircle
 10
0.0
 20
110.50000000000013
 30
0.0
 40
6.9999999999998863
100
AcDbArc
 50
147.60763451415639
 51
222.73211004260304
  0
LINE
  5
2CB
100
AcDbEntity
  8
0
  6
CONTINUOUS
 62
               7
100
AcDbLine
 10
-3.7715791140573742
 20
100.65261380084145
 30
0.0
 11
-5.8499999999999659
 21
100.36750277572237
 31
0.0
  0
LINE
  5
2CC
100
AcDbEntity
  8
0
  6
CONTINUOUS
 62
               7
100
AcDbLine
 10
-3.7715791140573742
 20
120.34738619915892
 30
0.0
 11
-5.8499999999999659
 21
120.63249722427817
 31
0.0
  0
LINE
  5
2CD
100
AcDbEntity
  8
0
  6
CONTINUOUS
 62
               7
100
AcDbLine
 10
-4.7484671992521612
 20
122.53727239069583
 30
0.0
 11
-4.4670755410779748
 21
121.90647781351937
 31
0.0
  0
LINE
  5
2CE
100
AcDbEntity
  8
0
  6
CONTINUOUS
 62
               7
100
AcDbLine
 10
-4.7484671992521612
 20
122.53727239069583
 30
0.0
 11
-4.8282616247718124
 21
122.71614724161834
 31
0.0
  0
LINE
  5
2CF
100
AcDbEntity
  8
0
  6
CONTINUOUS
 62
               7
100
AcDbLine
 10
0.5
 20
143.75000000000011
 30
0.0
 11
0.5
 21
146.00000000000102
 31
0.0
  0
LINE
  5
2D0
100
AcDbEntity
  8
0
  6
CONTINUOUS
 62
               7
100
AcDbLine
 10
-0.4999999999992895
 20
143.75000000000011
 30
0.0
 11
-0.499999999999261
 21
146.00000000000853
 31
0.0
  0
LINE
  5
2D1
100
AcDbEntity
  8
0
  6
CONTINUOUS
 62
               7
100
AcDbLine
 10
-0.4999999999994031
 20
134.25000000000011
 30
0.0
 11
-0.4999999999992895
 21
142.75000000000011
 31
0.0
  0
LINE
  5
2D2
100
AcDbEntity
  8
0
  6
CONTINUOUS
 62
               7
100
AcDbLine
 10
0.5
 20
134.25000000000011
 30
0.0
 11
0.5
 21
142.75000000000011
 31
0.0
  0
LINE
  5
2D3
100
AcDbEntity
  8
0
  6
CONTINUOUS
 62
               7
100
AcDbLine
 10
23.042893218817809
 20
134.25000000000011
 30
0.0
 11
24.748737341531523
 21
135.95584412271324
 31
0.0
  0
LINE
  5
2D4
100
AcDbEntity
  8
0
  6
CONTINUOUS
 62
               7
100
AcDbLine
 10
24.457106781186624
 20
134.25000000000011
 30
0.0
 11
25.455844122715519
 21
135.24873734152902
 31
0.0
  0
LINE
  5
2D5
100
AcDbEntity
  8
0
  6
CONTINUOUS
 62
               7
100
AcDbLine
 10
14.957106781186837
 20
124.75000000000013
 30
0.0
 11
23.457106781186639
 21
133.25000000000011
 31
0.0
  0
LINE
  5
2D6
100
AcDbEntity
  8
0
  6
CONTINUOUS
 62
               7
100
AcDbLine
 10
13.542893218814669
 20
124.75000000000013
 30
0.0
 11
22.042893218817511
 21
133.25000000000011
 31
0.0
  0
ARC
  5
2D7
100
AcDbEntity
  8
0
  6
CONTINUOUS
 62
               7
100
AcDbCircle
 10
0.0
 20
110.50000000000013
 30
0.0
 40
16.000000000000028
100
AcDbArc
 50
17.270004694974006
 51
51.317812546510645
  0
ARC
  5
2D8
100
AcDbEntity
  8
0
  6
CONTINUOUS
 62
               7
100
AcDbCircle
 10
0.0
 20
110.50000000000013
 30
0.0
 40
17.000000000000028
100
AcDbArc
 50
16.225100134697733
 51
50.779937862678921
  0
ARC
  5
2D9
100
AcDbEntity
  8
0
  6
CONTINUOUS
 62
               7
100
AcDbCircle
 10
0.0
 20
110.50000000000013
 30
0.0
 40
17.000000000000028
100
AcDbArc
 50
128.79325135710653
 51
163.77489986530227
  0
ARC
  5
2DA
100
AcDbEntity
  8
0
  6
CONTINUOUS
 62
               7
100
AcDbCircle
 10
0.0
 20
110.50000000000013
 30
0.0
 40
16.000000000000028
100
AcDbArc
 50
128.68218745348932
 51
162.72999530502599
  0
LINE
  5
2DB
100
AcDbEntity
  8
0
  6
CONTINUOUS
 62
               7
100
AcDbLine
 10
-13.542893218813873
 20
124.75000000000013
 30
0.0
 11
-22.042893218813532
 21
133.25000000000011
 31
0.0
  0
LINE
  5
2DC
100
AcDbEntity
  8
0
  6
CONTINUOUS
 62
               7
100
AcDbLine
 10
-14.957106781187377
 20
124.75000000000013
 30
0.0
 11
-23.457106781188401
 21
133.25000000000011
 31
0.0
  0
LINE
  5
2DD
100
AcDbEntity
  8
0
  6
CONTINUOUS
 62
               7
100
AcDbLine
 10
-23.042893218813532
 20
134.25000000000011
 30
0.0
 11
-24.748737341528567
 21
135.95584412271523
 31
0.0
  0
LINE
  5
2DE
100
AcDbEntity
  8
0
  6
CONTINUOUS
 62
               7
100
AcDbLine
 10
-24.457106781188571
 20
134.25000000000011
 30
0.0
 11
-25.455844122716371
 21
135.24873734152783
 31
0.0
  0
ARC
  5
2DF
100
AcDbEntity
  8
0
  6
CONTINUOUS
 62
               7
100
AcDbCircle
 10
0.0
 20
110.50000000000013
 30
0.0
 40
17.000000000000028
100
AcDbArc
 50
167.25641477779956
 51
196.22510013469815
  0
ARC
  5
2E0
100
AcDbEntity
  8
0
  6
CONTINUOUS
 62
               7
100
AcDbCircle
 10
0.0
 20
110.50000000000013
 30
0.0
 40
16.000000000000028
100
AcDbArc
 50
166.44521596282104
 51
197.27000469497443
  0
ARC
  5
2E1
100
AcDbEntity
  8
0
  6
CONTINUOUS
 62
               7
100
AcDbCircle
 10
0.0
 20
110.50000000000013
 30
0.0
 40
6.9999999999998863
100
AcDbArc
 50
42.732110042601761
 51
137.26788995739821
  0
ARC
  5
2E2
100
AcDbEntity
  8
0
  6
CONTINUOUS
 62
               7
100
AcDbCircle
 10
0.0
 20
110.50000000000013
 30
0.0
 40
7.4999999999998863
100
AcDbArc
 50
39.296480239187098
 51
140.7035197608129
  0
ARC
  5
2E3
100
AcDbEntity
  8
0
  6
CONTINUOUS
 62
               7
100
AcDbCircle
 10
0.0
 20
110.50000000000013
 30
0.0
 40
7.4999999999998863
100
AcDbArc
 50
230.05549481018619
 51
309.94450518981381
  0
ARC
  5
2E4
100
AcDbEntity
  8
0
  6
CONTINUOUS
 62
               7
100
AcDbCircle
 10
0.0
 20
110.50000000000013
 30
0.0
 40
6.9999999999998863
100
AcDbArc
 50
235.22805596805276
 51
304.77194403194727
  0
ARC
  5
2E5
100
AcDbEntity
  8
0
  6
CONTINUOUS
 62
               7
100
AcDbCircle
 10
0.0
 20
110.50000000000013
 30
0.0
 40
6.9999999999998863
100
AcDbArc
 50
317.26788995739696
 51
32.392365485843605
  0
ARC
  5
2E6
100
AcDbEntity
  8
0
  6
CONTINUOUS
 62
               7
100
AcDbCircle
 10
0.0
 20
110.50000000000013
 30
0.0
 40
7.4999999999998863
100
AcDbArc
 50
320.70351976081179
 51
30.000000000000476
  0
ARC
  5
2E7
100
AcDbEntity
  8
0
  6
CONTINUOUS
 62
               7
100
AcDbCircle
 10
0.0
 20
110.50000000000013
 30
0.0
 40
16.000000000000028
100
AcDbArc
 50
342.72999530502557
 51
13.554784037178962
  0
ARC
  5
2E8
100
AcDbEntity
  8
0
  6
CONTINUOUS
 62
               7
100
AcDbCircle
 10
0.0
 20
110.50000000000013
 30
0.0
 40
17.000000000000028
100
AcDbArc
 50
343.77489986530185
 51
12.743585222200444
  0
LINE
  5
2E9
100
AcDbEntity
  8
0
  6
CONTINUOUS
 62
               7
100
AcDbLine
 10
29.0
 20
110.99999999999973
 30
0.0
 11
35.5
 21
110.99999999999973
 31
0.0
  0
LINE
  5
2EA
100
AcDbEntity
  8
0
  6
CONTINUOUS
 62
               7
100
AcDbLine
 10
29.0
 20
110.00000000000013
 30
0.0
 11
35.5
 21
110.00000000000013
 31
0.0
  0
LINE
  5
2EB
100
AcDbEntity
  8
0
  6
CONTINUOUS
 62
               7
100
AcDbLine
 10
14.542893218813617
 20
95.250000000000128
 30
0.0
 11
23.042893218813546
 21
86.750000000000014
 31
0.0
  0
LINE
  5
2EC
100
AcDbEntity
  8
0
  6
CONTINUOUS
 62
               7
100
AcDbLine
 10
15.957106781186127
 20
95.250000000000128
 30
0.0
 11
24.457106781184677
 21
86.750000000000014
 31
0.0
  0
ARC
  5
2ED
100
AcDbEntity
  8
0
  6
CONTINUOUS
 62
               7
100
AcDbCircle
 10
0.0
 20
110.50000000000013
 30
0.0
 40
17.000000000000028
100
AcDbArc
 50
306.03187907247047
 51
340.23060492816069
  0
ARC
  5
2EE
100
AcDbEntity
  8
0
  6
CONTINUOUS
 62
               7
100
AcDbCircle
 10
0.0
 20
110.50000000000013
 30
0.0
 40
16.000000000000028
100
AcDbArc
 50
308.68218745348935
 51
338.93818239835076
  0
ARC
  5
2EF
100
AcDbEntity
  8
0
  6
CONTINUOUS
 62
               7
100
AcDbCircle
 10
0.0
 20
110.50000000000013
 30
0.0
 40
16.000000000000028
100
AcDbArc
 50
297.04811054635445
 51
304.22886632781257
  0
ARC
  5
2F0
100
AcDbEntity
  8
0
  6
CONTINUOUS
 62
               7
100
AcDbCircle
 10
0.0
 20
110.50000000000013
 30
0.0
 40
16.000000000000028
100
AcDbArc
 50
252.38756092964931
 51
287.61243907035066
  0
ARC
  5
2F1
100
AcDbEntity
  8
0
  6
CONTINUOUS
 62
               7
100
AcDbCircle
 10
0.0
 20
110.50000000000013
 30
0.0
 40
17.000000000000028
100
AcDbArc
 50
243.774116070547
 51
296.22588392945295
  0
LINE
  5
2F2
100
AcDbEntity
  8
0
  6
CONTINUOUS
 62
               7
100
AcDbLine
 10
-14.542893218813589
 20
95.250000000000128
 30
0.0
 11
-23.042893218813703
 21
86.750000000000014
 31
0.0
  0
LINE
  5
2F3
100
AcDbEntity
  8
0
  6
CONTINUOUS
 62
               7
100
AcDbLine
 10
-15.957106781186923
 20
95.250000000000128
 30
0.0
 11
-24.45710678118715
 21
86.750000000000014
 31
0.0
  0
ARC
  5
2F4
100
AcDbEntity
  8
0
  6
CONTINUOUS
 62
               7
100
AcDbCircle
 10
0.0
 20
110.50000000000013
 30
0.0
 40
17.000000000000028
100
AcDbArc
 50
199.76939507183931
 51
233.9681209275295
  0
ARC
  5
2F5
100
AcDbEntity
  8
0
  6
CONTINUOUS
 62
               7
100
AcDbCircle
 10
0.0
 20
110.50000000000013
 30
0.0
 40
16.000000000000028
100
AcDbArc
 50
201.06181760164927
 51
231.31781254651065
  0
LINE
  5
2F6
100
AcDbEntity
  8
0
  6
CONTINUOUS
 62
               7
100
AcDbLine
 10
-29.0
 20
110.00000000000115
 30
0.0
 11
-35.500000000000114
 21
110.00000000000183
 31
0.0
  0
LINE
  5
2F7
100
AcDbEntity
  8
0
  6
CONTINUOUS
 62
               7
100
AcDbLine
 10
-29.0
 20
111.00000000000109
 30
0.0
 11
-35.500000000000398
 21
111.00000000000183
 31
0.0
  0
LINE
  5
2F8
100
AcDbEntity
  8
0
  6
CONTINUOUS
 62
               7
100
AcDbLine
 10
-24.04289321881356
 20
85.750000000000128
 30
0.0
 11
-24.748737341528567
 21
85.044155877285121
 31
0.0
  0
LINE
  5
2F9
100
AcDbEntity
  8
0
  6
CONTINUOUS
 62
               7
100
AcDbLine
 10
-25.457106781187065
 20
85.750000000000128
 30
0.0
 11
-25.455844122715973
 21
85.751262658471219
 31
0.0
  0
LINE
  5
2FA
100
AcDbEntity
  8
0
  6
CONTINUOUS
 62
               7
100
AcDbLine
 10
-0.4999999999996874
 20
85.750000000000128
 30
0.0
 11
-0.4999999999999432
 21
77.250000000000128
 31
0.0
  0
LINE
  5
2FB
100
AcDbEntity
  8
0
  6
CONTINUOUS
 62
               7
100
AcDbLine
 10
0.5000000000007674
 20
85.750000000000128
 30
0.0
 11
0.5000000000015916
 21
77.250000000000128
 31
0.0
  0
LINE
  5
2FC
100
AcDbEntity
  8
0
  6
CONTINUOUS
 62
               7
100
AcDbLine
 10
-0.4999999999999716
 20
76.250000000000128
 30
0.0
 11
-0.5
 21
74.999999999997058
 31
0.0
  0
LINE
  5
2FD
100
AcDbEntity
  8
0
  6
CONTINUOUS
 62
               7
100
AcDbLine
 10
0.5000000000017053
 20
76.250000000000128
 30
0.0
 11
0.500000000001819
 21
74.999999999998366
 31
0.0
  0
LINE
  5
2FE
100
AcDbEntity
  8
0
  6
CONTINUOUS
 62
               7
100
AcDbLine
 10
24.042893218813418
 20
85.750000000000128
 30
0.0
 11
24.748737341529193
 21
85.044155877284325
 31
0.0
  0
LINE
  5
2FF
100
AcDbEntity
  8
0
  6
CONTINUOUS
 62
               7
100
AcDbLine
 10
25.457106781184393
 20
85.750000000000128
 30
0.0
 11
25.455844122714495
 21
85.751262658470026
 31
0.0
  0
ARC
  5
300
100
AcDbEntity
  8
0
  6
CONTINUOUS
 62
               7
100
AcDbCircle
 10
0.0
 20
110.50000000000013
 30
0.0
 40
16.000000000000028
100
AcDbArc
 50
235.77113367218746
 51
242.95188945364552
  0
LINE
  5
301
100
AcDbEntity
  8
0
  6
CONTINUOUS
 62
               2
100
AcDbLine
 10
26.494066926206258
 20
22.970000000000056
 30
0.0
 11
26.494066926206258
 21
42.970000000000056
 31
0.0
  0
LINE
  5
302
100
AcDbEntity
  8
0
  6
CONTINUOUS
 62
               2
100
AcDbLine
 10
16.494066926206273
 20
32.970000000000056
 30
0.0
 11
36.494066926206258
 21
32.970000000000056
 31
0.0
  0
LINE
  5
303
100
AcDbEntity
  8
0
  6
CONTINUOUS
 62
               2
100
AcDbLine
 10
-23.500000000000227
 20
15.570000000000121
 30
0.0
 11
-23.500000000000227
 21
45.570000000000121
 31
0.0
  0
LINE
  5
304
100
AcDbEntity
  8
0
  6
CONTINUOUS
 62
               2
100
AcDbLine
 10
-38.500000000000227
 20
30.570000000000121
 30
0.0
 11
-8.5000000000002274
 21
30.570000000000121
 31
0.0
  0
LINE
  5
305
100
AcDbEntity
  8
0
  6
CONTINUOUS
 62
               2
100
AcDbLine
 10
-64.588572597824083
 20
95.000000000000412
 30
0.0
 11
-89.135477364127269
 21
95.000000000000412
 31
0.0
  0
LINE
  5
306
100
AcDbEntity
  8
0
  6
CONTINUOUS
 62
               2
100
AcDbLine
 10
-30.000000000000284
 20
7.577483409100612
 30
0.0
 11
-30.000000000000284
 21
-7.577483409100509
 31
0.0
  0
LINE
  5
307
100
AcDbEntity
  8
0
  6
CONTINUOUS
 62
               2
100
AcDbLine
 10
29.999999999999716
 20
7.577483409100612
 30
0.0
 11
29.999999999999716
 21
-7.577483409100509
 31
0.0
  0
LINE
  5
308
100
AcDbEntity
  8
0
  6
CONTINUOUS
 62
               2
100
AcDbLine
 10
0.0
 20
184.66405267496879
 30
0.0
 11
0.0
 21
-12.78445399818979
 31
0.0
  0
ENDBLK
  5
309
100
AcDbEntity
  8
0
100
AcDbBlockEnd
  0
BLOCK
  5
30A
100
AcDbEntity
  8
0
100
AcDbBlockBegin
  2
DTRY-ELF04-2
 70
               0
 10
0.0
 20
0.0
 30
0.0
  3
DTRY-ELF04-2
  1

  0
LINE
  5
30B
100
AcDbEntity
  8
0
  6
CONTINUOUS
 62
               7
100
AcDbLine
 10
-16.571278452111017
 20
165.60044480687714
 30
0.0
 11
-19.428721547889211
 21
168.39955519312309
 31
0.0
  0
LINE
  5
30C
100
AcDbEntity
  8
0
  6
CONTINUOUS
 62
               7
100
AcDbLine
 10
-19.41421356237322
 20
165.58578643762701
 30
0.0
 11
-16.585786437627007
 21
168.41421356237322
 31
0.0
  0
LINE
  5
30D
100
AcDbEntity
  8
0
  6
CONTINUOUS
 62
               7
100
AcDbLine
 10
20.428721547888756
 20
165.60044480687714
 30
0.0
 11
17.571278452110562
 21
168.39955519312309
 31
0.0
  0
LINE
  5
30E
100
AcDbEntity
  8
0
  6
CONTINUOUS
 62
               7
100
AcDbLine
 10
17.585786437626552
 20
165.58578643762701
 30
0.0
 11
20.414213562372765
 21
168.41421356237322
 31
0.0
  0
LINE
  5
30F
100
AcDbEntity
  8
0
  6
CONTINUOUS
 62
               2
100
AcDbLine
 10
-0.0000000000000568
 20
78.478028567226374
 30
0.0
 11
-0.0000000000000568
 21
111.52197143277368
 31
0.0
  0
LINE
  5
310
100
AcDbEntity
  8
0
  6
CONTINUOUS
 62
               2
100
AcDbLine
 10
16.500000000000057
 20
95.000000000000114
 30
0.0
 11
-16.500000000000114
 21
95.000000000000114
 31
0.0
  0
CIRCLE
  5
311
100
AcDbEntity
  8
0
  6
PHANTOM
 62
               2
100
AcDbCircle
 10
-0.0000000000000568
 20
95.000000000000114
 30
0.0
 40
7.0000000000000284
  0
CIRCLE
  5
312
100
AcDbEntity
  8
0
  6
PHANTOM
 62
               2
100
AcDbCircle
 10
-0.0000000000000568
 20
95.000000000000114
 30
0.0
 40
8.0000000000001137
  0
CIRCLE
  5
313
100
AcDbEntity
  8
0
  6
PHANTOM
 62
               2
100
AcDbCircle
 10
-0.0000000000000568
 20
95.000000000000114
 30
0.0
 40
5.2441283245111663
  0
CIRCLE
  5
314
100
AcDbEntity
  8
0
  6
PHANTOM
 62
               2
100
AcDbCircle
 10
-0.0000000000000568
 20
95.000000000000114
 30
0.0
 40
4.8308218134466179
  0
CIRCLE
  5
315
100
AcDbEntity
  8
0
  6
PHANTOM
 62
               2
100
AcDbCircle
 10
-0.0000000000000568
 20
95.000000000000114
 30
0.0
 40
1.8568210704529511
  0
LINE
  5
316
100
AcDbEntity
  8
0
  6
CONTINUOUS
 62
               7
100
AcDbLine
 10
-26.500000000000114
 20
28.520000000000095
 30
0.0
 11
-26.500000000000114
 21
23.570000000000078
 31
0.0
  0
LINE
  5
317
100
AcDbEntity
  8
0
  6
CONTINUOUS
 62
               7
100
AcDbLine
 10
-38.500000000000114
 20
36.819999999999993
 30
0.0
 11
-38.500000000000114
 21
24.319999999999993
 31
0.0
  0
LINE
  5
318
100
AcDbEntity
  8
0
  6
CONTINUOUS
 62
               7
100
AcDbLine
 10
-38.000000000000114
 20
37.320000000000078
 30
0.0
 11
-38.000000000000114
 21
23.820000000000078
 31
0.0
  0
LINE
  5
319
100
AcDbEntity
  8
0
  6
CONTINUOUS
 62
               7
100
AcDbLine
 10
-26.500000000000114
 20
37.570000000000078
 30
0.0
 11
-26.500000000000114
 21
37.420000000000101
 31
0.0
  0
LINE
  5
31A
100
AcDbEntity
  8
0
  6
CONTINUOUS
 62
               7
100
AcDbLine
 10
-38.500000000000114
 20
36.819999999999993
 30
0.0
 11
-38.000000000000114
 21
36.819999999999993
 31
0.0
  0
LINE
  5
31B
100
AcDbEntity
  8
0
  6
CONTINUOUS
 62
               7
100
AcDbLine
 10
-38.500000000000114
 20
24.319999999999993
 30
0.0
 11
-38.000000000000114
 21
24.319999999999993
 31
0.0
  0
LINE
  5
31C
100
AcDbEntity
  8
0
  6
CONTINUOUS
 62
               7
100
AcDbLine
 10
-38.000000000000114
 20
23.820000000000078
 30
0.0
 11
-26.500000000000114
 21
23.570000000000078
 31
0.0
  0
LINE
  5
31D
100
AcDbEntity
  8
0
  6
CONTINUOUS
 62
               7
100
AcDbLine
 10
-26.500000000000114
 20
23.570000000000078
 30
0.0
 11
-25.000000000000114
 21
23.570000000000078
 31
0.0
  0
LINE
  5
31E
100
AcDbEntity
  8
0
  6
CONTINUOUS
 62
               7
100
AcDbLine
 10
-38.000000000000114
 20
37.320000000000078
 30
0.0
 11
-26.500000000000114
 21
37.570000000000078
 31
0.0
  0
LINE
  5
31F
100
AcDbEntity
  8
0
  6
CONTINUOUS
 62
               7
100
AcDbLine
 10
-26.500000000000114
 20
37.570000000000078
 30
0.0
 11
-25.000000000000114
 21
37.570000000000078
 31
0.0
  0
LINE
  5
320
100
AcDbEntity
  8
0
  6
CONTINUOUS
 62
               7
100
AcDbLine
 10
-38.000000000000114
 20
31.570000000000078
 30
0.0
 11
-28.000000000000114
 21
31.570000000000078
 31
0.0
  0
LINE
  5
321
100
AcDbEntity
  8
0
  6
CONTINUOUS
 62
               7
100
AcDbLine
 10
-38.000000000000114
 20
33.570000000000078
 30
0.0
 11
-28.000000000000114
 21
33.570000000000078
 31
0.0
  0
LINE
  5
322
100
AcDbEntity
  8
0
  6
CONTINUOUS
 62
               7
100
AcDbLine
 10
-38.000000000000114
 20
32.570000000000078
 30
0.0
 11
-28.000000000000114
 21
32.570000000000078
 31
0.0
  0
LINE
  5
323
100
AcDbEntity
  8
0
  6
CONTINUOUS
 62
               7
100
AcDbLine
 10
-38.000000000000114
 20
34.570000000000078
 30
0.0
 11
-28.000000000000114
 21
34.570000000000078
 31
0.0
  0
LINE
  5
324
100
AcDbEntity
  8
0
  6
CONTINUOUS
 62
               7
100
AcDbLine
 10
-38.000000000000114
 20
35.570000000000078
 30
0.0
 11
-28.000000000000114
 21
35.570000000000078
 31
0.0
  0
LINE
  5
325
100
AcDbEntity
  8
0
  6
CONTINUOUS
 62
               7
100
AcDbLine
 10
-38.000000000000114
 20
36.570000000000078
 30
0.0
 11
-28.000000000000114
 21
36.570000000000078
 31
0.0
  0
LINE
  5
326
100
AcDbEntity
  8
0
  6
CONTINUOUS
 62
               7
100
AcDbLine
 10
-38.000000000000114
 20
28.569999999999993
 30
0.0
 11
-28.000000000000114
 21
28.569999999999993
 31
0.0
  0
LINE
  5
327
100
AcDbEntity
  8
0
  6
CONTINUOUS
 62
               7
100
AcDbLine
 10
-38.000000000000114
 20
27.570000000000078
 30
0.0
 11
-26.500000000000114
 21
27.570000000000078
 31
0.0
  0
LINE
  5
328
100
AcDbEntity
  8
0
  6
CONTINUOUS
 62
               7
100
AcDbLine
 10
-38.000000000000114
 20
29.570000000000078
 30
0.0
 11
-28.000000000000114
 21
29.570000000000078
 31
0.0
  0
LINE
  5
329
100
AcDbEntity
  8
0
  6
CONTINUOUS
 62
               7
100
AcDbLine
 10
-38.000000000000114
 20
30.569999999999993
 30
0.0
 11
-28.000000000000114
 21
30.569999999999993
 31
0.0
  0
LINE
  5
32A
100
AcDbEntity
  8
0
  6
CONTINUOUS
 62
               7
100
AcDbLine
 10
-38.000000000000114
 20
25.570000000000078
 30
0.0
 11
-26.500000000000114
 21
25.570000000000078
 31
0.0
  0
LINE
  5
32B
100
AcDbEntity
  8
0
  6
CONTINUOUS
 62
               7
100
AcDbLine
 10
-38.000000000000114
 20
26.569999999999993
 30
0.0
 11
-26.500000000000114
 21
26.569999999999993
 31
0.0
  0
LINE
  5
32C
100
AcDbEntity
  8
0
  6
CONTINUOUS
 62
               7
100
AcDbLine
 10
-38.000000000000114
 20
24.569999999999993
 30
0.0
 11
-26.500000000000114
 21
24.569999999999993
 31
0.0
  0
LINE
  5
32D
100
AcDbEntity
  8
0
  6
CONTINUOUS
 62
               7
100
AcDbLine
 10
-28.000000000000114
 20
37.420000000000101
 30
0.0
 11
-25.000000000000114
 21
37.420000000000101
 31
0.0
  0
LINE
  5
32E
100
AcDbEntity
  8
0
  6
CONTINUOUS
 62
               7
100
AcDbLine
 10
-25.000000000000114
 20
28.520000000000095
 30
0.0
 11
-28.000000000000114
 21
28.520000000000095
 31
0.0
  0
LINE
  5
32F
100
AcDbEntity
  8
0
  6
CONTINUOUS
 62
               7
100
AcDbLine
 10
-28.000000000000114
 20
28.519999999999982
 30
0.0
 11
-28.000000000000114
 21
37.420000000000101
 31
0.0
  0
LINE
  5
330
100
AcDbEntity
  8
0
  6
CONTINUOUS
 62
               7
100
AcDbLine
 10
36.299999999999955
 20
29.10000000000008
 30
0.0
 11
36.299999999999955
 21
25.10000000000008
 31
0.0
  0
LINE
  5
331
100
AcDbEntity
  8
0
  6
CONTINUOUS
 62
               7
100
AcDbLine
 10
35.800000000000068
 20
24.599999999999994
 30
0.0
 11
30.300000000000068
 21
24.599999999999994
 31
0.0
  0
LINE
  5
332
100
AcDbEntity
  8
0
  6
CONTINUOUS
 62
               7
100
AcDbLine
 10
30.300000000000068
 20
24.599999999999994
 30
0.0
 11
30.300000000000068
 21
29.599999999999994
 31
0.0
  0
LINE
  5
333
100
AcDbEntity
  8
0
  6
CONTINUOUS
 62
               7
100
AcDbLine
 10
30.300000000000068
 20
29.599999999999994
 30
0.0
 11
35.800000000000068
 21
29.599999999999994
 31
0.0
  0
LINE
  5
334
100
AcDbEntity
  8
0
  6
CONTINUOUS
 62
               7
100
AcDbLine
 10
30.800000000000068
 20
24.599999999999994
 30
0.0
 11
30.800000000000068
 21
29.599999999999994
 31
0.0
  0
LINE
  5
335
100
AcDbEntity
  8
0
  6
CONTINUOUS
 62
               7
100
AcDbLine
 10
35.800000000000068
 20
25.10000000000008
 30
0.0
 11
30.800000000000068
 21
25.10000000000008
 31
0.0
  0
LINE
  5
336
100
AcDbEntity
  8
0
  6
CONTINUOUS
 62
               7
100
AcDbLine
 10
35.800000000000068
 20
25.60000000000008
 30
0.0
 11
30.800000000000068
 21
25.599999999999994
 31
0.0
  0
LINE
  5
337
100
AcDbEntity
  8
0
  6
CONTINUOUS
 62
               7
100
AcDbLine
 10
35.800000000000068
 20
26.599999999999994
 30
0.0
 11
30.800000000000068
 21
26.599999999999994
 31
0.0
  0
LINE
  5
338
100
AcDbEntity
  8
0
  6
CONTINUOUS
 62
               7
100
AcDbLine
 10
35.800000000000068
 20
26.100000000000193
 30
0.0
 11
30.800000000000068
 21
26.099999999999994
 31
0.0
  0
LINE
  5
339
100
AcDbEntity
  8
0
  6
CONTINUOUS
 62
               7
100
AcDbLine
 10
35.800000000000068
 20
28.099999999999994
 30
0.0
 11
30.800000000000068
 21
28.099999999999994
 31
0.0
  0
LINE
  5
33A
100
AcDbEntity
  8
0
  6
CONTINUOUS
 62
               7
100
AcDbLine
 10
35.800000000000068
 20
28.599999999999994
 30
0.0
 11
30.800000000000068
 21
28.599999999999994
 31
0.0
  0
LINE
  5
33B
100
AcDbEntity
  8
0
  6
CONTINUOUS
 62
               7
100
AcDbLine
 10
35.800000000000068
 20
27.599999999999994
 30
0.0
 11
30.800000000000068
 21
27.599999999999994
 31
0.0
  0
LINE
  5
33C
100
AcDbEntity
  8
0
  6
CONTINUOUS
 62
               7
100
AcDbLine
 10
35.800000000000068
 20
27.10000000000008
 30
0.0
 11
30.800000000000068
 21
27.10000000000008
 31
0.0
  0
LINE
  5
33D
100
AcDbEntity
  8
0
  6
CONTINUOUS
 62
               7
100
AcDbLine
 10
35.800000000000068
 20
29.10000000000008
 30
0.0
 11
30.800000000000068
 21
29.10000000000008
 31
0.0
  0
LINE
  5
33E
100
AcDbEntity
  8
0
  6
CONTINUOUS
 62
               7
100
AcDbLine
 10
30.300000000000068
 20
29.10000000000008
 30
0.0
 11
28.800000000000068
 21
29.10000000000008
 31
0.0
  0
LINE
  5
33F
100
AcDbEntity
  8
0
  6
CONTINUOUS
 62
               7
100
AcDbLine
 10
30.300000000000068
 20
25.10000000000008
 30
0.0
 11
28.800000000000068
 21
25.10000000000008
 31
0.0
  0
LINE
  5
340
100
AcDbEntity
  8
0
  6
CONTINUOUS
 62
               7
100
AcDbLine
 10
35.800000000000068
 20
24.599999999999994
 30
0.0
 11
36.299999999999955
 21
25.10000000000008
 31
0.0
  0
LINE
  5
341
100
AcDbEntity
  8
0
  6
CONTINUOUS
 62
               7
100
AcDbLine
 10
36.299999999999955
 20
29.10000000000008
 30
0.0
 11
35.800000000000068
 21
29.599999999999994
 31
0.0
  0
LINE
  5
342
100
AcDbEntity
  8
0
  6
CONTINUOUS
 62
               7
100
AcDbLine
 10
35.800000000000068
 20
29.599999999999994
 30
0.0
 11
35.800000000000068
 21
24.599999999999994
 31
0.0
  0
LINE
  5
343
100
AcDbEntity
  8
0
  6
CONTINUOUS
 62
               7
100
AcDbLine
 10
27.087060689498173
 20
34.496851990109178
 30
0.0
 11
27.087060689498173
 21
34.10000000000008
 31
0.0
  0
LINE
  5
344
100
AcDbEntity
  8
0
  6
CONTINUOUS
 62
               7
100
AcDbLine
 10
27.488365138580264
 20
34.496851990109178
 30
0.0
 11
27.087060689498173
 21
34.496851990109178
 31
0.0
  0
LINE
  5
345
100
AcDbEntity
  8
0
  6
CONTINUOUS
 62
               7
100
AcDbLine
 10
28.800000000000068
 20
34.10000000000008
 30
0.0
 11
27.488365138580264
 21
34.496851990109178
 31
0.0
  0
LINE
  5
346
100
AcDbEntity
  8
0
  6
CONTINUOUS
 62
               7
100
AcDbLine
 10
24.999999999999886
 20
34.099999999999994
 30
0.0
 11
28.800000000000068
 21
34.10000000000008
 31
0.0
  0
LINE
  5
347
100
AcDbEntity
  8
0
  6
CONTINUOUS
 62
               7
100
AcDbLine
 10
28.800000000000068
 20
34.10000000000008
 30
0.0
 11
28.800000000000068
 21
24.100000000000193
 31
0.0
  0
LINE
  5
348
100
AcDbEntity
  8
0
  6
CONTINUOUS
 62
               7
100
AcDbLine
 10
28.800000000000068
 20
24.100000000000193
 30
0.0
 11
24.999999999999886
 21
24.100000000000193
 31
0.0
  0
CIRCLE
  5
349
100
AcDbEntity
  8
0
  6
CONTINUOUS
 62
               7
100
AcDbCircle
 10
-18.000000000000114
 20
167.00000000000011
 30
0.0
 40
3.0
  0
CIRCLE
  5
34A
100
AcDbEntity
  8
0
  6
CONTINUOUS
 62
               7
100
AcDbCircle
 10
18.999999999999659
 20
167.00000000000011
 30
0.0
 40
3.0
  0
LINE
  5
34B
100
AcDbEntity
  8
0
  6
PHANTOM
 62
               2
100
AcDbLine
 10
34.999999999999886
 20
47.750000000000085
 30
0.0
 11
34.999999999999886
 21
172.25000000000011
 31
0.0
  0
LINE
  5
34C
100
AcDbEntity
  8
0
  6
PHANTOM
 62
               2
100
AcDbLine
 10
24.999999999999886
 20
47.750000000000085
 30
0.0
 11
34.999999999999886
 21
47.750000000000085
 31
0.0
  0
LINE
  5
34D
100
AcDbEntity
  8
0
  6
CONTINUOUS
 62
               7
100
AcDbLine
 10
30.999999999999886
 20
50.750000000000085
 30
0.0
 11
24.999999999999886
 21
50.750000000000085
 31
0.0
  0
LINE
  5
34E
100
AcDbEntity
  8
0
  6
PHANTOM
 62
               2
100
AcDbLine
 10
34.999999999999886
 20
172.25000000000011
 30
0.0
 11
24.999999999999886
 21
172.25000000000011
 31
0.0
  0
LINE
  5
34F
100
AcDbEntity
  8
0
  6
CONTINUOUS
 62
               7
100
AcDbLine
 10
30.999999999999886
 20
169.25000000000011
 30
0.0
 11
24.999999999999886
 21
169.25000000000011
 31
0.0
  0
LINE
  5
350
100
AcDbEntity
  8
0
  6
CONTINUOUS
 62
               7
100
AcDbLine
 10
-25.000000000000114
 20
175.00000000000011
 30
0.0
 11
-25.000000000000114
 21
15.000000000000087
 31
0.0
  0
LINE
  5
351
100
AcDbEntity
  8
0
  6
CONTINUOUS
 62
               7
100
AcDbLine
 10
24.999999999999886
 20
174.00000000000011
 30
0.0
 11
24.999999999999886
 21
15.000000000000087
 31
0.0
  0
LINE
  5
352
100
AcDbEntity
  8
0
  6
CONTINUOUS
 62
               7
100
AcDbLine
 10
-25.000000000000114
 20
175.00000000000011
 30
0.0
 11
23.999999999999886
 21
175.00000000000011
 31
0.0
  0
LINE
  5
353
100
AcDbEntity
  8
0
  6
CONTINUOUS
 62
               7
100
AcDbLine
 10
23.999999999999886
 20
175.00000000000011
 30
0.0
 11
24.999999999999886
 21
174.00000000000011
 31
0.0
  0
LINE
  5
354
100
AcDbEntity
  8
0
  6
CONTINUOUS
 62
               7
100
AcDbLine
 10
-29.999999999999716
 20
171.49999999999972
 30
0.0
 11
-28.000000000000057
 21
171.49999999999972
 31
0.0
  0
ARC
  5
355
100
AcDbEntity
  8
0
  6
CONTINUOUS
 62
               7
100
AcDbCircle
 10
-34.730000000000018
 20
173.75000000000011
 30
0.0
 40
1.2747548783981399
100
AcDbArc
 50
78.690067525982343
 51
281.30993247401773
  0
LINE
  5
356
100
AcDbEntity
  8
0
  6
CONTINUOUS
 62
               7
100
AcDbLine
 10
-29.999999999999716
 20
171.49999999999972
 30
0.0
 11
-30.000000000000227
 21
48.500000000000085
 31
0.0
  0
LINE
  5
357
100
AcDbEntity
  8
0
  6
CONTINUOUS
 62
               7
100
AcDbLine
 10
-30.000000000000227
 20
48.500000000000085
 30
0.0
 11
-28.000000000000057
 21
48.500000000000085
 31
0.0
  0
LINE
  5
358
100
AcDbEntity
  8
0
  6
CONTINUOUS
 62
               7
100
AcDbLine
 10
-34.500000000000057
 20
172.50000000000011
 30
0.0
 11
-28.000000000000057
 21
172.50000000000011
 31
0.0
  0
LINE
  5
359
100
AcDbEntity
  8
0
  6
CONTINUOUS
 62
               7
100
AcDbLine
 10
-28.000000000000057
 20
175.00000000000011
 30
0.0
 11
-34.500000000000057
 21
175.00000000000011
 31
0.0
  0
LINE
  5
35A
100
AcDbEntity
  8
0
  6
CONTINUOUS
 62
               7
100
AcDbLine
 10
-28.000000000000057
 20
46.000000000000085
 30
0.0
 11
-25.000000000000057
 21
46.000000000000085
 31
0.0
  0
LINE
  5
35B
100
AcDbEntity
  8
0
  6
CONTINUOUS
 62
               7
100
AcDbLine
 10
-28.000000000000057
 20
175.00000000000011
 30
0.0
 11
-25.000000000000057
 21
175.00000000000011
 31
0.0
  0
LINE
  5
35C
100
AcDbEntity
  8
0
  6
CONTINUOUS
 62
               7
100
AcDbLine
 10
-28.000000000000057
 20
175.00000000000011
 30
0.0
 11
-28.000000000000057
 21
46.000000000000085
 31
0.0
  0
CIRCLE
  5
35D
100
AcDbEntity
  8
0
  6
PHANTOM
 62
               2
100
AcDbCircle
 10
-0.0000000000000568
 20
95.000000000000114
 30
0.0
 40
2.6000000000000001
  0
LINE
  5
35E
100
AcDbEntity
  8
0
  6
PHANTOM
 62
               2
100
AcDbLine
 10
25.000000000000057
 20
20.000000000000085
 30
0.0
 11
9.9961219258032656
 21
95.278471622389816
 31
0.0
  0
LINE
  5
35F
100
AcDbEntity
  8
0
  6
PHANTOM
 62
               2
100
AcDbLine
 10
25.000000000000057
 20
0.0
 30
0.0
 11
25.000000000000057
 21
20.000000000000085
 31
0.0
  0
LINE
  5
360
100
AcDbEntity
  8
0
  6
PHANTOM
 62
               2
100
AcDbLine
 10
-25.000000000000057
 20
20.000000000000085
 30
0.0
 11
-9.9961219258032656
 21
95.278471622389816
 31
0.0
  0
LINE
  5
361
100
AcDbEntity
  8
0
  6
PHANTOM
 62
               2
100
AcDbLine
 10
-25.000000000000057
 20
0.0
 30
0.0
 11
-25.000000000000057
 21
20.000000000000085
 31
0.0
  0
ARC
  5
362
100
AcDbEntity
  8
0
  6
PHANTOM
 62
               2
100
AcDbCircle
 10
-0.0000000000000568
 20
95.000000000000114
 30
0.0
 40
10.0
100
AcDbArc
 50
1.5957311518361199
 51
178.40426884816389
  0
LINE
  5
363
100
AcDbEntity
  8
0
  6
PHANTOM
 62
               2
100
AcDbLine
 10
-25.000000000000057
 20
0.0
 30
0.0
 11
25.000000000000057
 21
0.0
 31
0.0
  0
LINE
  5
364
100
AcDbEntity
  8
0
  6
CONTINUOUS
 62
               7
100
AcDbLine
 10
30.999999999999886
 20
169.25000000000011
 30
0.0
 11
30.999999999999886
 21
50.750000000000085
 31
0.0
  0
LINE
  5
365
100
AcDbEntity
  8
0
  6
CONTINUOUS
 62
               7
100
AcDbLine
 10
-25.000000000000114
 20
15.000000000000087
 30
0.0
 11
25.000000000000057
 21
15.000000000000087
 31
0.0
  0
LINE
  5
366
100
AcDbEntity
  8
0
  6
CONTINUOUS
 62
               2
100
AcDbLine
 10
20.299999999999983
 20
27.069999999999965
 30
0.0
 11
40.299999999999983
 21
27.069999999999965
 31
0.0
  0
LINE
  5
367
100
AcDbEntity
  8
0
  6
CONTINUOUS
 62
               2
100
AcDbLine
 10
-42.500000000000114
 20
30.570000000000078
 30
0.0
 11
-16.108397984976534
 21
30.570000000000078
 31
0.0
  0
LINE
  5
368
100
AcDbEntity
  8
0
  6
PHANTOM
 62
               2
100
AcDbLine
 10
28.999999999999886
 20
172.25000000000011
 30
0.0
 11
28.999999999999886
 21
47.750000000000085
 31
0.0
  0
LINE
  5
369
100
AcDbEntity
  8
0
  6
CONTINUOUS
 62
               2
100
AcDbLine
 10
0.0
 20
7.5774834091005978
 30
0.0
 11
0.0
 21
-7.5774834091005232
 31
0.0
  0
ENDBLK
  5
36A
100
AcDbEntity
  8
0
100
AcDbBlockEnd
  0
BLOCK
  5
36B
100
AcDbEntity
  8
0
100
AcDbBlockBegin
  2
DTRY-ELF04-3
 70
               0
 10
0.0
 20
0.0
 30
0.0
  3
DTRY-ELF04-3
  1

  0
LINE
  5
36C
100
AcDbEntity
  8
0
  6
CONTINUOUS
 62
               2
100
AcDbLine
 10
-64.588572597824339
 20
95.000000000000227
 30
0.0
 11
-89.135477364127553
 21
95.000000000000227
 31
0.0
  0
LINE
  5
36D
100
AcDbEntity
  8
0
  6
CONTINUOUS
 62
               7
100
AcDbLine
 10
54.164620329765114
 20
56.332233047033839
 30
0.0
 11
50.629086423832348
 21
59.867766952966548
 31
0.0
  0
LINE
  5
36E
100
AcDbEntity
  8
0
  6
CONTINUOUS
 62
               7
100
AcDbLine
 10
50.632233047033708
 20
56.332233047033839
 30
0.0
 11
54.167766952966474
 21
59.867766952966548
 31
0.0
  0
LINE
  5
36F
100
AcDbEntity
  8
0
  6
CONTINUOUS
 62
               7
100
AcDbLine
 10
-50.635379670234954
 20
56.332233047033839
 30
0.0
 11
-54.17091357616772
 21
59.867766952966548
 31
0.0
  0
LINE
  5
370
100
AcDbEntity
  8
0
  6
CONTINUOUS
 62
               7
100
AcDbLine
 10
-54.16776695296636
 20
56.332233047033839
 30
0.0
 11
-50.632233047033594
 21
59.867766952966548
 31
0.0
  0
LINE
  5
371
100
AcDbEntity
  8
0
  6
CONTINUOUS
 62
               7
100
AcDbLine
 10
-50.635379670234954
 20
161.13223304703376
 30
0.0
 11
-54.17091357616772
 21
164.66776695296647
 31
0.0
  0
LINE
  5
372
100
AcDbEntity
  8
0
  6
CONTINUOUS
 62
               7
100
AcDbLine
 10
-54.16776695296636
 20
161.13223304703376
 30
0.0
 11
-50.632233047033594
 21
164.66776695296647
 31
0.0
  0
LINE
  5
373
100
AcDbEntity
  8
0
  6
CONTINUOUS
 62
               7
100
AcDbLine
 10
54.164620329765114
 20
161.13223304703376
 30
0.0
 11
50.629086423832348
 21
164.66776695296647
 31
0.0
  0
LINE
  5
374
100
AcDbEntity
  8
0
  6
CONTINUOUS
 62
               7
100
AcDbLine
 10
50.632233047033708
 20
161.13223304703376
 30
0.0
 11
54.167766952966474
 21
164.66776695296647
 31
0.0
  0
LINE
  5
375
100
AcDbEntity
  8
0
  6
CONTINUOUS
 62
               2
100
AcDbLine
 10
-76.561332909662156
 20
110.50000000000023
 30
0.0
 11
76.561332909662156
 21
110.50000000000023
 31
0.0
  0
LINE
  5
376
100
AcDbEntity
  8
0
  6
CONTINUOUS
 62
               7
100
AcDbLine
 10
23.499999999999773
 20
19.000000000000114
 30
0.0
 11
21.499999999999773
 21
19.000000000000114
 31
0.0
  0
LINE
  5
377
100
AcDbEntity
  8
0
  6
CONTINUOUS
 62
               7
100
AcDbLine
 10
24.249999999999773
 20
20.000000000000114
 30
0.0
 11
20.749999999999773
 21
20.000000000000114
 31
0.0
  0
LINE
  5
378
100
AcDbEntity
  8
0
  6
CONTINUOUS
 62
               7
100
AcDbLine
 10
24.999999999999773
 20
21.000000000000114
 30
0.0
 11
19.999999999999659
 21
21.000000000000114
 31
0.0
  0
LINE
  5
379
100
AcDbEntity
  8
0
  6
CONTINUOUS
 62
               7
100
AcDbLine
 10
22.499999999999773
 20
23.000000000000114
 30
0.0
 11
22.499999999999773
 21
21.000000000000114
 31
0.0
  0
ARC
  5
37A
100
AcDbEntity
  8
0
  6
PHANTOM
 62
               2
100
AcDbCircle
 10
-78.070954845342726
 20
101.00000000000023
 30
0.0
 40
0.4
100
AcDbArc
 50
270.0
 51
90.0
  0
LINE
  5
37B
100
AcDbEntity
  8
0
  6
PHANTOM
 62
               2
100
AcDbLine
 10
-85.200000000000443
 20
100.60000000000019
 30
0.0
 11
-78.070954845342555
 21
100.60000000000019
 31
0.0
  0
LINE
  5
37C
100
AcDbEntity
  8
0
  6
PHANTOM
 62
               2
100
AcDbLine
 10
-85.200000000000443
 20
98.400000000000205
 30
0.0
 11
-78.070954845342555
 21
98.400000000000205
 31
0.0
  0
ARC
  5
37D
100
AcDbEntity
  8
0
  6
PHANTOM
 62
               2
100
AcDbCircle
 10
-78.070954845342726
 20
98.000000000000227
 30
0.0
 40
0.4
100
AcDbArc
 50
270.0
 51
90.0
  0
LINE
  5
37E
100
AcDbEntity
  8
0
  6
PHANTOM
 62
               2
100
AcDbLine
 10
-74.300000000000352
 20
100.50000000000023
 30
0.0
 11
-76.000000000000171
 21
100.50000000000011
 31
0.0
  0
LINE
  5
37F
100
AcDbEntity
  8
0
  6
PHANTOM
 62
               2
100
AcDbLine
 10
-74.000000000000171
 20
99.500000000000227
 30
0.0
 11
-74.300000000000352
 21
99.500000000000227
 31
0.0
  0
LINE
  5
380
100
AcDbEntity
  8
0
  6
PHANTOM
 62
               2
100
AcDbLine
 10
-76.000000000000171
 20
102.50000000000011
 30
0.0
 11
-76.000000000000171
 21
87.500000000000114
 31
0.0
  0
LINE
  5
381
100
AcDbEntity
  8
0
  6
PHANTOM
 62
               2
100
AcDbLine
 10
-74.300000000000352
 20
100.50000000000023
 30
0.0
 11
-74.300000000000352
 21
89.500000000000227
 31
0.0
  0
LINE
  5
382
100
AcDbEntity
  8
0
  6
PHANTOM
 62
               2
100
AcDbLine
 10
-85.200000000000443
 20
102.50000000000011
 30
0.0
 11
-85.200000000000443
 21
87.500000000000114
 31
0.0
  0
LINE
  5
383
100
AcDbEntity
  8
0
  6
PHANTOM
 62
               2
100
AcDbLine
 10
-86.000000000000171
 20
101.50000000000011
 30
0.0
 11
-86.000000000000171
 21
88.500000000000114
 31
0.0
  0
LINE
  5
384
100
AcDbEntity
  8
0
  6
PHANTOM
 62
               2
100
AcDbLine
 10
-85.200000000000443
 20
101.4000000000002
 30
0.0
 11
-78.070954845342555
 21
101.4000000000002
 31
0.0
  0
ARC
  5
385
100
AcDbEntity
  8
0
  6
PHANTOM
 62
               2
100
AcDbCircle
 10
-76.500000000000341
 20
102.50000000000023
 30
0.0
 40
0.5
100
AcDbArc
 50
0.000000000000007
 51
90.0
  0
ARC
  5
386
100
AcDbEntity
  8
0
  6
PHANTOM
 62
               2
100
AcDbCircle
 10
-84.700000000000443
 20
102.50000000000023
 30
0.0
 40
0.5
100
AcDbArc
 50
90.0
 51
180.0
  0
ARC
  5
387
100
AcDbEntity
  8
0
  6
PHANTOM
 62
               2
100
AcDbCircle
 10
-85.500000000000341
 20
101.50000000000011
 30
0.0
 40
0.5
100
AcDbArc
 50
90.0
 51
180.0
  0
LINE
  5
388
100
AcDbEntity
  8
0
  6
PHANTOM
 62
               2
100
AcDbLine
 10
-85.500000000000171
 20
102.00000000000011
 30
0.0
 11
-85.200000000000443
 21
102.00000000000011
 31
0.0
  0
LINE
  5
389
100
AcDbEntity
  8
0
  6
PHANTOM
 62
               2
100
AcDbLine
 10
-76.500000000000171
 20
103.00000000000011
 30
0.0
 11
-84.700000000000443
 21
103.00000000000011
 31
0.0
  0
LINE
  5
38A
100
AcDbEntity
  8
0
  6
PHANTOM
 62
               2
100
AcDbLine
 10
-85.200000000000443
 20
97.600000000000193
 30
0.0
 11
-78.070954845342555
 21
97.600000000000193
 31
0.0
  0
ARC
  5
38B
100
AcDbEntity
  8
0
  6
PHANTOM
 62
               2
100
AcDbCircle
 10
-78.070954845342726
 20
95.000000000000227
 30
0.0
 40
0.4
100
AcDbArc
 50
270.0
 51
90.0
  0
LINE
  5
38C
100
AcDbEntity
  8
0
  6
PHANTOM
 62
               2
100
AcDbLine
 10
-85.200000000000443
 20
95.400000000000205
 30
0.0
 11
-78.070954845342555
 21
95.400000000000205
 31
0.0
  0
LINE
  5
38D
100
AcDbEntity
  8
0
  6
PHANTOM
 62
               2
100
AcDbLine
 10
-85.200000000000443
 20
94.600000000000307
 30
0.0
 11
-78.070954845342555
 21
94.600000000000307
 31
0.0
  0
ARC
  5
38E
100
AcDbEntity
  8
0
  6
PHANTOM
 62
               2
100
AcDbCircle
 10
-78.070954845342726
 20
89.000000000000227
 30
0.0
 40
0.4
100
AcDbArc
 50
270.0
 51
90.0
  0
LINE
  5
38F
100
AcDbEntity
  8
0
  6
PHANTOM
 62
               2
100
AcDbLine
 10
-85.200000000000443
 20
89.400000000000205
 30
0.0
 11
-78.070954845342555
 21
89.400000000000205
 31
0.0
  0
LINE
  5
390
100
AcDbEntity
  8
0
  6
PHANTOM
 62
               2
100
AcDbLine
 10
-85.200000000000443
 20
88.600000000000307
 30
0.0
 11
-78.070954845342555
 21
88.600000000000307
 31
0.0
  0
LINE
  5
391
100
AcDbEntity
  8
0
  6
PHANTOM
 62
               2
100
AcDbLine
 10
-85.200000000000443
 20
91.600000000000193
 30
0.0
 11
-78.070954845342555
 21
91.600000000000193
 31
0.0
  0
LINE
  5
392
100
AcDbEntity
  8
0
  6
PHANTOM
 62
               2
100
AcDbLine
 10
-85.200000000000443
 20
92.400000000000205
 30
0.0
 11
-78.070954845342555
 21
92.400000000000205
 31
0.0
  0
ARC
  5
393
100
AcDbEntity
  8
0
  6
PHANTOM
 62
               2
100
AcDbCircle
 10
-78.070954845342726
 20
92.000000000000227
 30
0.0
 40
0.4
100
AcDbArc
 50
270.0
 51
90.0
  0
ARC
  5
394
100
AcDbEntity
  8
0
  6
PHANTOM
 62
               2
100
AcDbCircle
 10
-76.500000000000341
 20
87.500000000000227
 30
0.0
 40
0.5
100
AcDbArc
 50
270.0
 51
0.0
  0
ARC
  5
395
100
AcDbEntity
  8
0
  6
PHANTOM
 62
               2
100
AcDbCircle
 10
-84.700000000000443
 20
87.500000000000114
 30
0.0
 40
0.5
100
AcDbArc
 50
180.0
 51
270.0
  0
ARC
  5
396
100
AcDbEntity
  8
0
  6
PHANTOM
 62
               2
100
AcDbCircle
 10
-85.500000000000341
 20
88.500000000000227
 30
0.0
 40
0.5
100
AcDbArc
 50
180.0
 51
270.0
  0
LINE
  5
397
100
AcDbEntity
  8
0
  6
PHANTOM
 62
               2
100
AcDbLine
 10
-85.500000000000171
 20
88.000000000000114
 30
0.0
 11
-85.200000000000443
 21
88.000000000000114
 31
0.0
  0
LINE
  5
398
100
AcDbEntity
  8
0
  6
PHANTOM
 62
               2
100
AcDbLine
 10
-76.500000000000171
 20
87.000000000000114
 30
0.0
 11
-84.700000000000443
 21
87.000000000000114
 31
0.0
  0
LINE
  5
399
100
AcDbEntity
  8
0
  6
PHANTOM
 62
               2
100
AcDbLine
 10
-74.300000000000352
 20
89.500000000000227
 30
0.0
 11
-76.000000000000171
 21
89.500000000000114
 31
0.0
  0
LINE
  5
39A
100
AcDbEntity
  8
0
  6
PHANTOM
 62
               2
100
AcDbLine
 10
-74.000000000000171
 20
90.500000000000227
 30
0.0
 11
-74.300000000000352
 21
90.500000000000227
 31
0.0
  0
LINE
  5
39B
100
AcDbEntity
  8
0
  6
PHANTOM
 62
               2
100
AcDbLine
 10
-70.000000000000171
 20
102.50000000000023
 30
0.0
 11
-72.799999999999955
 21
102.50000000000023
 31
0.0
  0
LINE
  5
39C
100
AcDbEntity
  8
0
  6
PHANTOM
 62
               2
100
AcDbLine
 10
-72.799999999999955
 20
87.500000000000227
 30
0.0
 11
-70.000000000000171
 21
87.500000000000227
 31
0.0
  0
ARC
  5
39D
100
AcDbEntity
  8
0
  6
PHANTOM
 62
               2
100
AcDbCircle
 10
78.070954845342271
 20
101.00000000000023
 30
0.0
 40
0.4
100
AcDbArc
 50
90.0
 51
270.0
  0
LINE
  5
39E
100
AcDbEntity
  8
0
  6
PHANTOM
 62
               2
100
AcDbLine
 10
85.199999999999875
 20
100.60000000000019
 30
0.0
 11
78.07095484534193
 21
100.60000000000019
 31
0.0
  0
LINE
  5
39F
100
AcDbEntity
  8
0
  6
PHANTOM
 62
               2
100
AcDbLine
 10
85.199999999999875
 20
98.400000000000205
 30
0.0
 11
78.07095484534193
 21
98.400000000000205
 31
0.0
  0
ARC
  5
3A0
100
AcDbEntity
  8
0
  6
PHANTOM
 62
               2
100
AcDbCircle
 10
78.070954845342271
 20
98.000000000000227
 30
0.0
 40
0.4
100
AcDbArc
 50
90.0
 51
270.0
  0
LINE
  5
3A1
100
AcDbEntity
  8
0
  6
PHANTOM
 62
               2
100
AcDbLine
 10
74.299999999999841
 20
100.50000000000023
 30
0.0
 11
75.999999999999545
 21
100.50000000000011
 31
0.0
  0
LINE
  5
3A2
100
AcDbEntity
  8
0
  6
PHANTOM
 62
               2
100
AcDbLine
 10
73.999999999999659
 20
99.500000000000227
 30
0.0
 11
74.299999999999841
 21
99.500000000000227
 31
0.0
  0
LINE
  5
3A3
100
AcDbEntity
  8
0
  6
PHANTOM
 62
               2
100
AcDbLine
 10
75.999999999999545
 20
102.50000000000011
 30
0.0
 11
75.999999999999545
 21
87.500000000000114
 31
0.0
  0
LINE
  5
3A4
100
AcDbEntity
  8
0
  6
PHANTOM
 62
               2
100
AcDbLine
 10
74.299999999999841
 20
100.50000000000023
 30
0.0
 11
74.299999999999841
 21
89.500000000000227
 31
0.0
  0
LINE
  5
3A5
100
AcDbEntity
  8
0
  6
PHANTOM
 62
               2
100
AcDbLine
 10
85.199999999999875
 20
102.50000000000011
 30
0.0
 11
85.199999999999875
 21
87.500000000000114
 31
0.0
  0
LINE
  5
3A6
100
AcDbEntity
  8
0
  6
PHANTOM
 62
               2
100
AcDbLine
 10
85.999999999999943
 20
101.50000000000023
 30
0.0
 11
85.999999999999943
 21
88.500000000000227
 31
0.0
  0
LINE
  5
3A7
100
AcDbEntity
  8
0
  6
PHANTOM
 62
               2
100
AcDbLine
 10
85.199999999999875
 20
101.4000000000002
 30
0.0
 11
78.07095484534193
 21
101.4000000000002
 31
0.0
  0
ARC
  5
3A8
100
AcDbEntity
  8
0
  6
PHANTOM
 62
               2
100
AcDbCircle
 10
76.499999999999886
 20
102.50000000000023
 30
0.0
 40
0.5
100
AcDbArc
 50
90.0
 51
180.0
  0
ARC
  5
3A9
100
AcDbEntity
  8
0
  6
PHANTOM
 62
               2
100
AcDbCircle
 10
84.699999999999989
 20
102.50000000000023
 30
0.0
 40
0.5
100
AcDbArc
 50
0.0
 51
90.0
  0
ARC
  5
3AA
100
AcDbEntity
  8
0
  6
PHANTOM
 62
               2
100
AcDbCircle
 10
85.499999999999943
 20
101.50000000000011
 30
0.0
 40
0.5
100
AcDbArc
 50
0.0
 51
90.0
  0
LINE
  5
3AB
100
AcDbEntity
  8
0
  6
PHANTOM
 62
               2
100
AcDbLine
 10
85.499999999999716
 20
102.00000000000011
 30
0.0
 11
85.199999999999875
 21
102.00000000000011
 31
0.0
  0
LINE
  5
3AC
100
AcDbEntity
  8
0
  6
PHANTOM
 62
               2
100
AcDbLine
 10
76.499999999999659
 20
103.00000000000011
 30
0.0
 11
84.699999999999989
 21
103.00000000000011
 31
0.0
  0
LINE
  5
3AD
100
AcDbEntity
  8
0
  6
PHANTOM
 62
               2
100
AcDbLine
 10
85.199999999999875
 20
97.600000000000193
 30
0.0
 11
78.07095484534193
 21
97.600000000000193
 31
0.0
  0
LINE
  5
3AE
100
AcDbEntity
  8
0
  6
CONTINUOUS
 62
               2
100
AcDbLine
 10
64.588572597823713
 20
95.000000000000227
 30
0.0
 11
89.135477364127098
 21
95.000000000000227
 31
0.0
  0
ARC
  5
3AF
100
AcDbEntity
  8
0
  6
PHANTOM
 62
               2
100
AcDbCircle
 10
78.070954845342271
 20
95.000000000000227
 30
0.0
 40
0.4
100
AcDbArc
 50
90.0
 51
270.0
  0
LINE
  5
3B0
100
AcDbEntity
  8
0
  6
PHANTOM
 62
               2
100
AcDbLine
 10
85.199999999999875
 20
95.400000000000205
 30
0.0
 11
78.07095484534193
 21
95.400000000000205
 31
0.0
  0
LINE
  5
3B1
100
AcDbEntity
  8
0
  6
PHANTOM
 62
               2
100
AcDbLine
 10
85.199999999999875
 20
94.600000000000307
 30
0.0
 11
78.07095484534193
 21
94.600000000000307
 31
0.0
  0
ARC
  5
3B2
100
AcDbEntity
  8
0
  6
PHANTOM
 62
               2
100
AcDbCircle
 10
78.070954845342271
 20
89.000000000000227
 30
0.0
 40
0.4
100
AcDbArc
 50
90.0
 51
270.0
  0
LINE
  5
3B3
100
AcDbEntity
  8
0
  6
PHANTOM
 62
               2
100
AcDbLine
 10
85.199999999999875
 20
89.400000000000205
 30
0.0
 11
78.07095484534193
 21
89.400000000000205
 31
0.0
  0
LINE
  5
3B4
100
AcDbEntity
  8
0
  6
PHANTOM
 62
               2
100
AcDbLine
 10
85.199999999999875
 20
88.600000000000307
 30
0.0
 11
78.07095484534193
 21
88.600000000000307
 31
0.0
  0
LINE
  5
3B5
100
AcDbEntity
  8
0
  6
PHANTOM
 62
               2
100
AcDbLine
 10
85.199999999999875
 20
91.600000000000193
 30
0.0
 11
78.07095484534193
 21
91.600000000000193
 31
0.0
  0
LINE
  5
3B6
100
AcDbEntity
  8
0
  6
PHANTOM
 62
               2
100
AcDbLine
 10
85.199999999999875
 20
92.400000000000205
 30
0.0
 11
78.07095484534193
 21
92.400000000000205
 31
0.0
  0
ARC
  5
3B7
100
AcDbEntity
  8
0
  6
PHANTOM
 62
               2
100
AcDbCircle
 10
78.070954845342271
 20
92.000000000000227
 30
0.0
 40
0.4
100
AcDbArc
 50
90.0
 51
270.0
  0
ARC
  5
3B8
100
AcDbEntity
  8
0
  6
PHANTOM
 62
               2
100
AcDbCircle
 10
76.499999999999886
 20
87.500000000000227
 30
0.0
 40
0.5
100
AcDbArc
 50
180.0
 51
270.0
  0
ARC
  5
3B9
100
AcDbEntity
  8
0
  6
PHANTOM
 62
               2
100
AcDbCircle
 10
84.699999999999989
 20
87.500000000000114
 30
0.0
 40
0.5
100
AcDbArc
 50
270.0
 51
0.0
  0
ARC
  5
3BA
100
AcDbEntity
  8
0
  6
PHANTOM
 62
               2
100
AcDbCircle
 10
85.499999999999943
 20
88.500000000000227
 30
0.0
 40
0.5
100
AcDbArc
 50
270.0
 51
0.0
  0
LINE
  5
3BB
100
AcDbEntity
  8
0
  6
PHANTOM
 62
               2
100
AcDbLine
 10
85.499999999999716
 20
88.000000000000114
 30
0.0
 11
85.199999999999875
 21
88.000000000000114
 31
0.0
  0
LINE
  5
3BC
100
AcDbEntity
  8
0
  6
PHANTOM
 62
               2
100
AcDbLine
 10
76.499999999999659
 20
87.000000000000114
 30
0.0
 11
84.699999999999989
 21
87.000000000000114
 31
0.0
  0
LINE
  5
3BD
100
AcDbEntity
  8
0
  6
PHANTOM
 62
               2
100
AcDbLine
 10
74.299999999999841
 20
89.500000000000227
 30
0.0
 11
75.999999999999545
 21
89.500000000000114
 31
0.0
  0
LINE
  5
3BE
100
AcDbEntity
  8
0
  6
PHANTOM
 62
               2
100
AcDbLine
 10
73.999999999999659
 20
90.500000000000227
 30
0.0
 11
74.299999999999841
 21
90.500000000000227
 31
0.0
  0
LINE
  5
3BF
100
AcDbEntity
  8
0
  6
PHANTOM
 62
               2
100
AcDbLine
 10
69.999999999999659
 20
102.50000000000023
 30
0.0
 11
72.7999999999995
 21
102.50000000000023
 31
0.0
  0
LINE
  5
3C0
100
AcDbEntity
  8
0
  6
PHANTOM
 62
               2
100
AcDbLine
 10
72.7999999999995
 20
87.500000000000227
 30
0.0
 11
69.999999999999659
 21
87.500000000000227
 31
0.0
  0
CIRCLE
  5
3C1
100
AcDbEntity
  8
0
  6
CONTINUOUS
 62
               7
100
AcDbCircle
 10
22.499999999999773
 20
27.100000000000193
 30
0.0
 40
2.0
  0
CIRCLE
  5
3C2
100
AcDbEntity
  8
0
  6
CONTINUOUS
 62
               7
100
AcDbCircle
 10
22.499999999999773
 20
27.100000000000193
 30
0.0
 40
2.5
  0
POLYLINE
  5
3C3
100
AcDbEntity
  8
0
  6
CONTINUOUS
 62
               7
100
AcDb2dPolyline
 66
               1
 10
0.0
 20
0.0
 30
0.0
 70
               1
  0
VERTEX
  5
53A
100
AcDbEntity
  8
0
  6
CONTINUOUS
 62
               7
100
AcDbVertex
100
AcDb2dVertex
 10
0.6907609477389087
 20
27.923807901831509
 30
0.0
  0
VERTEX
  5
53B
100
AcDbEntity
  8
0
  6
CONTINUOUS
 62
               7
100
AcDbVertex
100
AcDb2dVertex
 10
2.5937579561209532
 20
27.923807901831509
 30
0.0
  0
VERTEX
  5
53C
100
AcDbEntity
  8
0
  6
CONTINUOUS
 62
               7
100
AcDbVertex
100
AcDb2dVertex
 10
2.5937579561209532
 20
26.086195601276899
 30
0.0
  0
VERTEX
  5
53D
100
AcDbEntity
  8
0
  6
CONTINUOUS
 62
               7
100
AcDbVertex
100
AcDb2dVertex
 10
0.6907609477389087
 20
26.086195601276899
 30
0.0
  0
SEQEND
  5
53E
100
AcDbEntity
  8
0
  6
CONTINUOUS
 62
               7
  0
LINE
  5
3C4
100
AcDbEntity
  8
0
  6
CONTINUOUS
 62
               7
100
AcDbLine
 10
-27.300000000000466
 20
33.80000000000021
 30
0.0
 11
-27.300000000000466
 21
24.200000000000188
 31
0.0
  0
LINE
  5
3C5
100
AcDbEntity
  8
0
  6
CONTINUOUS
 62
               7
100
AcDbLine
 10
-27.300000000000466
 20
24.200000000000188
 30
0.0
 11
-17.700000000000216
 21
24.200000000000188
 31
0.0
  0
LINE
  5
3C6
100
AcDbEntity
  8
0
  6
CONTINUOUS
 62
               7
100
AcDbLine
 10
-17.700000000000216
 20
24.200000000000188
 30
0.0
 11
-17.700000000000216
 21
33.80000000000021
 31
0.0
  0
LINE
  5
3C7
100
AcDbEntity
  8
0
  6
CONTINUOUS
 62
               7
100
AcDbLine
 10
-17.700000000000216
 20
33.80000000000021
 30
0.0
 11
-27.300000000000466
 21
33.80000000000021
 31
0.0
  0
LINE
  5
3C8
100
AcDbEntity
  8
0
  6
CONTINUOUS
 62
               7
100
AcDbLine
 10
-18.500000000000455
 20
33.000000000000313
 30
0.0
 11
-22.250000000000568
 21
33.000000000000313
 31
0.0
  0
LINE
  5
3C9
100
AcDbEntity
  8
0
  6
CONTINUOUS
 62
               7
100
AcDbLine
 10
-18.500000000000455
 20
25.000000000000313
 30
0.0
 11
-18.500000000000455
 21
28.750000000000313
 31
0.0
  0
LINE
  5
3CA
100
AcDbEntity
  8
0
  6
CONTINUOUS
 62
               7
100
AcDbLine
 10
-25.700000000000216
 20
25.000000000000313
 30
0.0
 11
-23.550000000000239
 21
25.000000000000313
 31
0.0
  0
LINE
  5
3CB
100
AcDbEntity
  8
0
  6
CONTINUOUS
 62
               7
100
AcDbLine
 10
-26.500000000000455
 20
33.000000000000313
 30
0.0
 11
-26.500000000000455
 21
29.250000000000313
 31
0.0
  0
LINE
  5
3CC
100
AcDbEntity
  8
0
  6
CONTINUOUS
 62
               7
100
AcDbLine
 10
-22.750000000000568
 20
33.000000000000313
 30
0.0
 11
-22.750000000000568
 21
29.250000000000313
 31
0.0
  0
LINE
  5
3CD
100
AcDbEntity
  8
0
  6
CONTINUOUS
 62
               7
100
AcDbLine
 10
-22.250000000000568
 20
33.000000000000313
 30
0.0
 11
-22.250000000000227
 21
30.050000000000296
 31
0.0
  0
LINE
  5
3CE
100
AcDbEntity
  8
0
  6
CONTINUOUS
 62
               7
100
AcDbLine
 10
-19.300000000000466
 20
29.250000000000199
 30
0.0
 11
-21.45000000000033
 21
29.250000000000199
 31
0.0
  0
LINE
  5
3CF
100
AcDbEntity
  8
0
  6
CONTINUOUS
 62
               7
100
AcDbLine
 10
-18.500000000000455
 20
28.750000000000313
 30
0.0
 11
-22.250000000000568
 21
28.750000000000199
 31
0.0
  0
LINE
  5
3D0
100
AcDbEntity
  8
0
  6
CONTINUOUS
 62
               7
100
AcDbLine
 10
-22.750000000000568
 20
33.000000000000313
 30
0.0
 11
-26.500000000000455
 21
33.000000000000313
 31
0.0
  0
LINE
  5
3D1
100
AcDbEntity
  8
0
  6
CONTINUOUS
 62
               7
100
AcDbLine
 10
-18.500000000000455
 20
30.050000000000296
 30
0.0
 11
-18.500000000000455
 21
33.000000000000313
 31
0.0
  0
LINE
  5
3D2
100
AcDbEntity
  8
0
  6
CONTINUOUS
 62
               7
100
AcDbLine
 10
-22.250000000000568
 20
28.750000000000313
 30
0.0
 11
-22.250000000000568
 21
25.000000000000313
 31
0.0
  0
LINE
  5
3D3
100
AcDbEntity
  8
0
  6
CONTINUOUS
 62
               7
100
AcDbLine
 10
-22.750000000000568
 20
29.250000000000199
 30
0.0
 11
-26.500000000000227
 21
29.250000000000313
 31
0.0
  0
LINE
  5
3D4
100
AcDbEntity
  8
0
  6
CONTINUOUS
 62
               7
100
AcDbLine
 10
-22.750000000000568
 20
28.750000000000313
 30
0.0
 11
-22.750000000000227
 21
25.800000000000296
 31
0.0
  0
LINE
  5
3D5
100
AcDbEntity
  8
0
  6
CONTINUOUS
 62
               7
100
AcDbLine
 10
-26.500000000000455
 20
28.750000000000313
 30
0.0
 11
-26.500000000000227
 21
25.800000000000296
 31
0.0
  0
LINE
  5
3D6
100
AcDbEntity
  8
0
  6
CONTINUOUS
 62
               7
100
AcDbLine
 10
-22.250000000000568
 20
25.000000000000313
 30
0.0
 11
-18.500000000000455
 21
25.000000000000313
 31
0.0
  0
LINE
  5
3D7
100
AcDbEntity
  8
0
  6
CONTINUOUS
 62
               7
100
AcDbLine
 10
-22.750000000000568
 20
28.750000000000199
 30
0.0
 11
-26.500000000000455
 21
28.750000000000313
 31
0.0
  0
LINE
  5
3D8
100
AcDbEntity
  8
0
  6
CONTINUOUS
 62
               7
100
AcDbLine
 10
-18.500000000000455
 20
30.050000000000296
 30
0.0
 11
-19.300000000000466
 21
29.250000000000199
 31
0.0
  0
LINE
  5
3D9
100
AcDbEntity
  8
0
  6
CONTINUOUS
 62
               7
100
AcDbLine
 10
-21.45000000000033
 20
29.250000000000199
 30
0.0
 11
-22.250000000000227
 21
30.050000000000296
 31
0.0
  0
LINE
  5
3DA
100
AcDbEntity
  8
0
  6
CONTINUOUS
 62
               7
100
AcDbLine
 10
-22.750000000000227
 20
25.800000000000296
 30
0.0
 11
-23.550000000000239
 21
25.000000000000313
 31
0.0
  0
LINE
  5
3DB
100
AcDbEntity
  8
0
  6
CONTINUOUS
 62
               7
100
AcDbLine
 10
-25.700000000000216
 20
25.000000000000313
 30
0.0
 11
-26.500000000000227
 21
25.800000000000296
 31
0.0
  0
LINE
  5
3DC
100
AcDbEntity
  8
0
  6
CONTINUOUS
 62
               7
100
AcDbLine
 10
-24.000000000000568
 20
34.80000000000021
 30
0.0
 11
-21.000000000000455
 21
34.80000000000021
 31
0.0
  0
LINE
  5
3DD
100
AcDbEntity
  8
0
  6
CONTINUOUS
 62
               7
100
AcDbLine
 10
-21.000000000000455
 20
34.80000000000021
 30
0.0
 11
-21.000000000000455
 21
33.80000000000021
 31
0.0
  0
LINE
  5
3DE
100
AcDbEntity
  8
0
  6
CONTINUOUS
 62
               7
100
AcDbLine
 10
-24.000000000000568
 20
34.80000000000021
 30
0.0
 11
-24.000000000000568
 21
33.80000000000021
 31
0.0
  0
LINE
  5
3DF
100
AcDbEntity
  8
0
  6
PHANTOM
 62
               2
100
AcDbLine
 10
-74.000000000000341
 20
0.0
 30
0.0
 11
73.999999999999773
 21
0.0
 31
0.0
  0
LINE
  5
3E0
100
AcDbEntity
  8
0
  6
PHANTOM
 62
               2
100
AcDbLine
 10
-72.800000000000239
 20
1.1999999999999886
 30
0.0
 11
72.799999999999613
 21
1.1999999999999886
 31
0.0
  0
LINE
  5
3E1
100
AcDbEntity
  8
0
  6
PHANTOM
 62
               2
100
AcDbLine
 10
-2.2500000000003411
 20
1.1999999999999886
 30
0.0
 11
-2.2500000000003411
 21
0.0
 31
0.0
  0
LINE
  5
3E2
100
AcDbEntity
  8
0
  6
PHANTOM
 62
               2
100
AcDbLine
 10
-74.000000000000341
 20
0.0
 30
0.0
 11
-74.000000000000341
 21
105.0
 31
0.0
  0
LINE
  5
3E3
100
AcDbEntity
  8
0
  6
PHANTOM
 62
               2
100
AcDbLine
 10
-74.000000000000341
 20
105.0
 30
0.0
 11
-72.800000000000239
 21
105.0
 31
0.0
  0
LINE
  5
3E4
100
AcDbEntity
  8
0
  6
PHANTOM
 62
               2
100
AcDbLine
 10
-72.800000000000239
 20
105.0
 30
0.0
 11
-72.800000000000239
 21
1.1999999999999886
 31
0.0
  0
LINE
  5
3E5
100
AcDbEntity
  8
0
  6
PHANTOM
 62
               2
100
AcDbLine
 10
73.999999999999773
 20
0.0
 30
0.0
 11
73.999999999999773
 21
105.0
 31
0.0
  0
LINE
  5
3E6
100
AcDbEntity
  8
0
  6
PHANTOM
 62
               2
100
AcDbLine
 10
73.999999999999773
 20
105.0
 30
0.0
 11
72.799999999999613
 21
105.0
 31
0.0
  0
LINE
  5
3E7
100
AcDbEntity
  8
0
  6
PHANTOM
 62
               2
100
AcDbLine
 10
72.799999999999613
 20
105.0
 30
0.0
 11
72.799999999999613
 21
1.1999999999999886
 31
0.0
  0
LINE
  5
3E8
100
AcDbEntity
  8
0
  6
PHANTOM
 62
               2
100
AcDbLine
 10
-74.000000000000341
 20
97.600000000000023
 30
0.0
 11
-72.800000000000239
 21
97.600000000000023
 31
0.0
  0
LINE
  5
3E9
100
AcDbEntity
  8
0
  6
PHANTOM
 62
               2
100
AcDbLine
 10
-74.000000000000341
 20
92.400000000000091
 30
0.0
 11
-72.800000000000239
 21
92.400000000000091
 31
0.0
  0
LINE
  5
3EA
100
AcDbEntity
  8
0
  6
PHANTOM
 62
               2
100
AcDbLine
 10
72.799999999999613
 20
97.600000000000023
 30
0.0
 11
73.999999999999773
 21
97.600000000000023
 31
0.0
  0
LINE
  5
3EB
100
AcDbEntity
  8
0
  6
PHANTOM
 62
               2
100
AcDbLine
 10
72.799999999999613
 20
92.400000000000091
 30
0.0
 11
73.999999999999773
 21
92.400000000000091
 31
0.0
  0
LINE
  5
3EC
100
AcDbEntity
  8
0
  6
PHANTOM
 62
               2
100
AcDbLine
 10
-74.000000000000341
 20
25.000000000000114
 30
0.0
 11
-72.800000000000239
 21
25.000000000000114
 31
0.0
  0
LINE
  5
3ED
100
AcDbEntity
  8
0
  6
PHANTOM
 62
               2
100
AcDbLine
 10
72.799999999999613
 20
25.000000000000114
 30
0.0
 11
73.999999999999773
 21
25.0
 31
0.0
  0
LINE
  5
3EE
100
AcDbEntity
  8
0
  6
PHANTOM
 62
               2
100
AcDbLine
 10
27.749999999999773
 20
0.0
 30
0.0
 11
27.749999999999773
 21
1.1999999999999886
 31
0.0
  0
LINE
  5
3EF
100
AcDbEntity
  8
0
  6
PHANTOM
 62
               2
100
AcDbLine
 10
-32.250000000000227
 20
0.0000000000001137
 30
0.0
 11
-32.250000000000227
 21
1.1999999999999886
 31
0.0
  0
LINE
  5
3F0
100
AcDbEntity
  8
0
  6
PHANTOM
 62
               2
100
AcDbLine
 10
32.249999999999773
 20
0.0
 30
0.0
 11
32.249999999999773
 21
1.1999999999999886
 31
0.0
  0
LINE
  5
3F1
100
AcDbEntity
  8
0
  6
PHANTOM
 62
               2
100
AcDbLine
 10
2.2499999999997726
 20
1.1999999999999886
 30
0.0
 11
2.2499999999997726
 21
0.0
 31
0.0
  0
LINE
  5
3F2
100
AcDbEntity
  8
0
  6
PHANTOM
 62
               2
100
AcDbLine
 10
-27.750000000000341
 20
0.0
 30
0.0
 11
-27.750000000000341
 21
1.1999999999999886
 31
0.0
  0
LINE
  5
3F3
100
AcDbEntity
  8
0
  6
CONTINUOUS
 62
               7
100
AcDbLine
 10
-70.000000000000227
 20
175.00000000000023
 30
0.0
 11
-70.000000000000227
 21
15.000000000000115
 31
0.0
  0
LINE
  5
3F4
100
AcDbEntity
  8
0
  6
CONTINUOUS
 62
               7
100
AcDbLine
 10
69.999999999999659
 20
15.000000000000115
 30
0.0
 11
69.999999999999659
 21
175.00000000000023
 31
0.0
  0
LINE
  5
3F5
100
AcDbEntity
  8
0
  6
CONTINUOUS
 62
               7
100
AcDbLine
 10
-28.250000000000227
 20
23.650000000000489
 30
0.0
 11
-28.250000000000227
 21
34.600000000000307
 31
0.0
  0
LINE
  5
3F6
100
AcDbEntity
  8
0
  6
CONTINUOUS
 62
               7
100
AcDbLine
 10
-16.750000000000227
 20
34.600000000000307
 30
0.0
 11
-16.750000000000227
 21
23.650000000000489
 31
0.0
  0
LINE
  5
3F7
100
AcDbEntity
  8
0
  6
CONTINUOUS
 62
               7
100
AcDbLine
 10
2.9999999999997726
 20
25.500000000000114
 30
0.0
 11
2.9999999999997726
 21
28.500000000000114
 31
0.0
  0
LINE
  5
3F8
100
AcDbEntity
  8
0
  6
CONTINUOUS
 62
               7
100
AcDbLine
 10
-3.0000000000002274
 20
25.500000000000114
 30
0.0
 11
-3.0000000000002274
 21
28.500000000000114
 31
0.0
  0
LINE
  5
3F9
100
AcDbEntity
  8
0
  6
CONTINUOUS
 62
               7
100
AcDbLine
 10
2.9999999999997726
 20
28.500000000000114
 30
0.0
 11
-3.0000000000002274
 21
28.500000000000114
 31
0.0
  0
LINE
  5
3FA
100
AcDbEntity
  8
0
  6
CONTINUOUS
 62
               7
100
AcDbLine
 10
2.9999999999997726
 20
25.500000000000199
 30
0.0
 11
-3.0000000000002274
 21
25.500000000000199
 31
0.0
  0
LINE
  5
3FB
100
AcDbEntity
  8
0
  6
CONTINUOUS
 62
               7
100
AcDbLine
 10
-20.000000000000227
 20
34.600000000000307
 30
0.0
 11
-16.750000000000227
 21
34.600000000000307
 31
0.0
  0
LINE
  5
3FC
100
AcDbEntity
  8
0
  6
CONTINUOUS
 62
               7
100
AcDbLine
 10
-20.000000000000227
 20
40.100000000000307
 30
0.0
 11
-25.000000000000227
 21
40.100000000000307
 31
0.0
  0
LINE
  5
3FD
100
AcDbEntity
  8
0
  6
CONTINUOUS
 62
               7
100
AcDbLine
 10
-25.000000000000227
 20
40.100000000000307
 30
0.0
 11
-25.000000000000227
 21
34.600000000000307
 31
0.0
  0
LINE
  5
3FE
100
AcDbEntity
  8
0
  6
CONTINUOUS
 62
               7
100
AcDbLine
 10
-20.000000000000227
 20
40.100000000000307
 30
0.0
 11
-20.000000000000227
 21
34.600000000000307
 31
0.0
  0
LINE
  5
3FF
100
AcDbEntity
  8
0
  6
CONTINUOUS
 62
               7
100
AcDbLine
 10
-28.250000000000227
 20
34.600000000000307
 30
0.0
 11
-25.000000000000227
 21
34.600000000000307
 31
0.0
  0
LINE
  5
400
100
AcDbEntity
  8
0
  6
CONTINUOUS
 62
               7
100
AcDbLine
 10
-16.750000000000057
 20
23.650000000000489
 30
0.0
 11
-28.250000000000057
 21
23.650000000000489
 31
0.0
  0
LINE
  5
401
100
AcDbEntity
  8
0
  6
CONTINUOUS
 62
               7
100
AcDbLine
 10
69.999999999999659
 20
175.00000000000023
 30
0.0
 11
-70.000000000000227
 21
175.00000000000023
 31
0.0
  0
LINE
  5
402
100
AcDbEntity
  8
0
  6
CONTINUOUS
 62
               7
100
AcDbLine
 10
-69.000000000000227
 20
175.00000000000023
 30
0.0
 11
-69.000000000000227
 21
15.000000000000115
 31
0.0
  0
LINE
  5
403
100
AcDbEntity
  8
0
  6
CONTINUOUS
 62
               7
100
AcDbLine
 10
-70.000000000000227
 20
15.000000000000115
 30
0.0
 11
69.999999999999659
 21
15.000000000000115
 31
0.0
  0
LINE
  5
404
100
AcDbEntity
  8
0
  6
CONTINUOUS
 62
               7
100
AcDbLine
 10
68.999999999999773
 20
15.000000000000115
 30
0.0
 11
68.999999999999773
 21
175.00000000000023
 31
0.0
  0
ARC
  5
405
100
AcDbEntity
  8
0
  6
PHANTOM
 62
               2
100
AcDbCircle
 10
54.75
 20
164.75000000000023
 30
0.0
 40
7.5
100
AcDbArc
 50
0.0
 51
90.0
  0
ARC
  5
406
100
AcDbEntity
  8
0
  6
PHANTOM
 62
               2
100
AcDbCircle
 10
-54.750000000000057
 20
164.75000000000023
 30
0.0
 40
7.5
100
AcDbArc
 50
90.0
 51
180.0
  0
LINE
  5
407
100
AcDbEntity
  8
0
  6
PHANTOM
 62
               2
100
AcDbLine
 10
-54.750000000000057
 20
172.25000000000023
 30
0.0
 11
54.75
 21
172.25000000000023
 31
0.0
  0
ARC
  5
408
100
AcDbEntity
  8
0
  6
PHANTOM
 62
               2
100
AcDbCircle
 10
-54.750000000000057
 20
55.250000000000199
 30
0.0
 40
7.5
100
AcDbArc
 50
180.0
 51
270.0
  0
LINE
  5
409
100
AcDbEntity
  8
0
  6
PHANTOM
 62
               2
100
AcDbLine
 10
-62.250000000000057
 20
55.250000000000199
 30
0.0
 11
-62.250000000000171
 21
164.75000000000023
 31
0.0
  0
LINE
  5
40A
100
AcDbEntity
  8
0
  6
PHANTOM
 62
               2
100
AcDbLine
 10
62.25
 20
164.75000000000023
 30
0.0
 11
62.25
 21
55.250000000000199
 31
0.0
  0
LINE
  5
40B
100
AcDbEntity
  8
0
  6
PHANTOM
 62
               2
100
AcDbLine
 10
54.75
 20
47.750000000000199
 30
0.0
 11
-54.750000000000057
 21
47.750000000000199
 31
0.0
  0
ARC
  5
40C
100
AcDbEntity
  8
0
  6
PHANTOM
 62
               2
100
AcDbCircle
 10
54.75
 20
55.250000000000199
 30
0.0
 40
7.5
100
AcDbArc
 50
270.0
 51
0.0
  0
ARC
  5
40D
100
AcDbEntity
  8
0
  6
CONTINUOUS
 62
               7
100
AcDbCircle
 10
-54.25
 20
164.75000000000011
 30
0.0
 40
5.0
100
AcDbArc
 50
90.000000000000057
 51
180.0
  0
ARC
  5
40E
100
AcDbEntity
  8
0
  6
CONTINUOUS
 62
               7
100
AcDbCircle
 10
-54.249999999998977
 20
56.250000000000199
 30
0.0
 40
5.0
100
AcDbArc
 50
180.0
 51
270.0
  0
ARC
  5
40F
100
AcDbEntity
  8
0
  6
CONTINUOUS
 62
               7
100
AcDbCircle
 10
54.25
 20
56.250000000000313
 30
0.0
 40
5.0
100
AcDbArc
 50
270.0
 51
0.0
  0
ARC
  5
410
100
AcDbEntity
  8
0
  6
CONTINUOUS
 62
               7
100
AcDbCircle
 10
54.25
 20
164.75000000000028
 30
0.0
 40
5.0
100
AcDbArc
 50
0.0
 51
90.0
  0
LINE
  5
411
100
AcDbEntity
  8
0
  6
CONTINUOUS
 62
               7
100
AcDbLine
 10
59.25
 20
164.75000000000028
 30
0.0
 11
59.25
 21
56.250000000000313
 31
0.0
  0
LINE
  5
412
100
AcDbEntity
  8
0
  6
CONTINUOUS
 62
               7
100
AcDbLine
 10
-59.25
 20
164.75000000000011
 30
0.0
 11
-59.25
 21
56.250000000000199
 31
0.0
  0
LINE
  5
413
100
AcDbEntity
  8
0
  6
CONTINUOUS
 62
               7
100
AcDbLine
 10
-54.249999999998977
 20
51.250000000000199
 30
0.0
 11
54.25
 21
51.250000000000313
 31
0.0
  0
LINE
  5
414
100
AcDbEntity
  8
0
  6
CONTINUOUS
 62
               7
100
AcDbLine
 10
-54.25
 20
169.75000000000011
 30
0.0
 11
54.25
 21
169.75000000000028
 31
0.0
  0
CIRCLE
  5
415
100
AcDbEntity
  8
0
  6
CONTINUOUS
 62
               7
100
AcDbCircle
 10
52.400000000000091
 20
58.100000000000193
 30
0.0
 40
3.75
  0
CIRCLE
  5
416
100
AcDbEntity
  8
0
  6
CONTINUOUS
 62
               7
100
AcDbCircle
 10
-52.399999999999977
 20
58.100000000000193
 30
0.0
 40
3.75
  0
CIRCLE
  5
417
100
AcDbEntity
  8
0
  6
CONTINUOUS
 62
               7
100
AcDbCircle
 10
-52.399999999999977
 20
162.90000000000009
 30
0.0
 40
3.75
  0
CIRCLE
  5
418
100
AcDbEntity
  8
0
  6
CONTINUOUS
 62
               7
100
AcDbCircle
 10
52.400000000000091
 20
162.90000000000009
 30
0.0
 40
3.75
  0
ARC
  5
419
100
AcDbEntity
  8
0
  6
CONTINUOUS
 62
               7
100
AcDbCircle
 10
66.951893800594007
 20
89.852350661974697
 30
0.0
 40
80.0
100
AcDbArc
 50
117.99154555412818
 51
124.6547912043801
  0
ARC
  5
41A
100
AcDbEntity
  8
0
  6
CONTINUOUS
 62
               7
100
AcDbCircle
 10
66.951893800594007
 20
89.852350661974697
 30
0.0
 40
78.0
100
AcDbArc
 50
117.1259058369441
 51
123.8501558789761
  0
ARC
  5
41B
100
AcDbEntity
  8
0
  6
CONTINUOUS
 62
               7
100
AcDbCircle
 10
0.0
 20
110.50000000000023
 30
0.0
 40
60.0
100
AcDbArc
 50
58.333844508883502
 51
72.585892039407923
  0
ARC
  5
41C
100
AcDbEntity
  8
0
  6
CONTINUOUS
 62
               7
100
AcDbCircle
 10
0.0000000000009095
 20
110.49999999999989
 30
0.0
 40
58.0
100
AcDbArc
 50
59.537406552410388
 51
80.775913470842013
  0
ARC
  5
41D
100
AcDbEntity
  8
0
  6
CONTINUOUS
 62
               7
100
AcDbCircle
 10
66.951893800594007
 20
89.852350661974697
 30
0.0
 40
80.0
100
AcDbArc
 50
126.3049169991467
 51
132.8667251174812
  0
ARC
  5
41E
100
AcDbEntity
  8
0
  6
CONTINUOUS
 62
               7
100
AcDbCircle
 10
0.0000000000009095
 20
110.49999999999989
 30
0.0
 40
50.0
100
AcDbArc
 50
64.581368876164788
 51
133.96036396400081
  0
ARC
  5
41F
100
AcDbEntity
  8
0
  6
CONTINUOUS
 62
               7
100
AcDbCircle
 10
66.951893800594007
 20
89.852350661974697
 30
0.0
 40
78.0
100
AcDbArc
 50
125.5124321853643
 51
132.1070201818134
  0
ARC
  5
420
100
AcDbEntity
  8
0
  6
CONTINUOUS
 62
               7
100
AcDbCircle
 10
0.0
 20
110.50000000000023
 30
0.0
 40
48.0
100
AcDbArc
 50
65.919031956062184
 51
135.19844368905359
  0
ARC
  5
421
100
AcDbEntity
  8
0
  6
CONTINUOUS
 62
               7
100
AcDbCircle
 10
66.951893800594007
 20
89.852350661974697
 30
0.0
 40
80.0
100
AcDbArc
 50
134.5023442063995
 51
141.06626599317249
  0
ARC
  5
422
100
AcDbEntity
  8
0
  6
CONTINUOUS
 62
               7
100
AcDbCircle
 10
0.0000000000009095
 20
110.49999999999989
 30
0.0
 40
40.0
100
AcDbArc
 50
71.747412534061496
 51
140.51311948351349
  0
ARC
  5
423
100
AcDbEntity
  8
0
  6
CONTINUOUS
 62
               7
100
AcDbCircle
 10
66.951893800594007
 20
89.852350661974697
 30
0.0
 40
78.0
100
AcDbArc
 50
133.74588604751909
 51
140.2917890903617
  0
ARC
  5
424
100
AcDbEntity
  8
0
  6
CONTINUOUS
 62
               7
100
AcDbCircle
 10
0.0
 20
110.50000000000023
 30
0.0
 40
38.0
100
AcDbArc
 50
73.367491405525755
 51
141.966050828471
  0
ARC
  5
425
100
AcDbEntity
  8
0
  6
CONTINUOUS
 62
               7
100
AcDbCircle
 10
66.951893800594007
 20
89.852350661974697
 30
0.0
 40
80.0
100
AcDbArc
 50
142.72330718254941
 51
163.7209667729081
  0
ARC
  5
426
100
AcDbEntity
  8
0
  6
CONTINUOUS
 62
               7
100
AcDbCircle
 10
0.0000000000009095
 20
110.49999999999989
 30
0.0
 40
30.0
100
AcDbArc
 50
80.943925528263904
 51
148.61289436969602
  0
ARC
  5
427
100
AcDbEntity
  8
0
  6
CONTINUOUS
 62
               7
100
AcDbCircle
 10
66.951893800594007
 20
89.852350661974697
 30
0.0
 40
78.0
100
AcDbArc
 50
141.9329842371119
 51
158.1440350363188
  0
ARC
  5
428
100
AcDbEntity
  8
0
  6
CONTINUOUS
 62
               7
100
AcDbCircle
 10
0.0
 20
110.50000000000023
 30
0.0
 40
28.0
100
AcDbArc
 50
83.243297342580163
 51
150.58150496766211
  0
ARC
  5
429
100
AcDbEntity
  8
0
  6
CONTINUOUS
 62
               7
100
AcDbCircle
 10
1.0521915408630775
 20
40.44449058329991
 30
0.0
 40
80.0
100
AcDbArc
 50
70.723307182548282
 51
91.720966772907119
  0
ARC
  5
42A
100
AcDbEntity
  8
0
  6
CONTINUOUS
 62
               7
100
AcDbCircle
 10
0.0
 20
110.50000000000023
 30
0.0
 40
28.0
100
AcDbArc
 50
11.2432973425789
 51
78.581504967662426
  0
ARC
  5
42B
100
AcDbEntity
  8
0
  6
CONTINUOUS
 62
               7
100
AcDbCircle
 10
1.0521915408630775
 20
40.44449058329991
 30
0.0
 40
78.0
100
AcDbArc
 50
69.932984237110801
 51
86.144035036317746
  0
ARC
  5
42C
100
AcDbEntity
  8
0
  6
CONTINUOUS
 62
               7
100
AcDbCircle
 10
0.0000000000009095
 20
110.49999999999989
 30
0.0
 40
30.0
100
AcDbArc
 50
8.9439255282623282
 51
76.612894369696804
  0
ARC
  5
42D
100
AcDbEntity
  8
0
  6
CONTINUOUS
 62
               7
100
AcDbCircle
 10
1.0521915408630775
 20
40.44449058329991
 30
0.0
 40
80.0
100
AcDbArc
 50
62.502344206398384
 51
69.0662659931711
  0
ARC
  5
42E
100
AcDbEntity
  8
0
  6
CONTINUOUS
 62
               7
100
AcDbCircle
 10
0.0
 20
110.50000000000023
 30
0.0
 40
38.0
100
AcDbArc
 50
1.3674914055246969
 51
69.966050828470983
  0
ARC
  5
42F
100
AcDbEntity
  8
0
  6
CONTINUOUS
 62
               7
100
AcDbCircle
 10
1.0521915408630775
 20
40.44449058329991
 30
0.0
 40
78.0
100
AcDbArc
 50
61.745886047517992
 51
68.291789090360325
  0
ARC
  5
430
100
AcDbEntity
  8
0
  6
CONTINUOUS
 62
               7
100
AcDbCircle
 10
0.0000000000009095
 20
110.49999999999989
 30
0.0
 40
40.0
100
AcDbArc
 50
359.74741253406
 51
68.513119483513933
  0
ARC
  5
431
100
AcDbEntity
  8
0
  6
CONTINUOUS
 62
               7
100
AcDbCircle
 10
1.0521915408630775
 20
40.44449058329991
 30
0.0
 40
78.0
100
AcDbArc
 50
53.512432185363231
 51
60.107020181811983
  0
ARC
  5
432
100
AcDbEntity
  8
0
  6
CONTINUOUS
 62
               7
100
AcDbCircle
 10
0.0
 20
110.50000000000023
 30
0.0
 40
48.0
100
AcDbArc
 50
353.91903195606102
 51
63.198443689053597
  0
ARC
  5
433
100
AcDbEntity
  8
0
  6
CONTINUOUS
 62
               7
100
AcDbCircle
 10
1.0521915408630775
 20
40.44449058329991
 30
0.0
 40
80.0
100
AcDbArc
 50
54.30491699914559
 51
60.866725117479852
  0
ARC
  5
434
100
AcDbEntity
  8
0
  6
CONTINUOUS
 62
               7
100
AcDbCircle
 10
0.0000000000009095
 20
110.49999999999989
 30
0.0
 40
50.0
100
AcDbArc
 50
352.58136887616331
 51
61.960363964001033
  0
LINE
  5
435
100
AcDbEntity
  8
0
  6
CONTINUOUS
 62
               7
100
AcDbLine
 10
57.25
 20
119.7971769908952
 30
0.0
 11
57.25
 21
101.20282300910509
 31
0.0
  0
ARC
  5
436
100
AcDbEntity
  8
0
  6
CONTINUOUS
 62
               7
100
AcDbCircle
 10
0.0000000000009095
 20
110.49999999999989
 30
0.0
 40
58.0
100
AcDbArc
 50
347.53740655240892
 51
350.77591347083961
  0
ARC
  5
437
100
AcDbEntity
  8
0
  6
CONTINUOUS
 62
               7
100
AcDbCircle
 10
0.0000000000009095
 20
110.49999999999989
 30
0.0
 40
58.0
100
AcDbArc
 50
9.2240865291606138
 51
57.236514790681959
  0
ARC
  5
438
100
AcDbEntity
  8
0
  6
CONTINUOUS
 62
               7
100
AcDbCircle
 10
0.0
 20
110.50000000000023
 30
0.0
 40
60.0
100
AcDbArc
 50
17.41410796059186
 51
56.097388980839888
  0
ARC
  5
439
100
AcDbEntity
  8
0
  6
CONTINUOUS
 62
               7
100
AcDbCircle
 10
0.0
 20
110.50000000000023
 30
0.0
 40
28.0
100
AcDbArc
 50
299.24329734257998
 51
6.5815049676611066
  0
ARC
  5
43A
100
AcDbEntity
  8
0
  6
CONTINUOUS
 62
               7
100
AcDbCircle
 10
0.0000000000009095
 20
110.49999999999989
 30
0.0
 40
30.0
100
AcDbArc
 50
296.94392552826253
 51
4.6128943696950673
  0
ARC
  5
43B
100
AcDbEntity
  8
0
  6
CONTINUOUS
 62
               7
100
AcDbCircle
 10
-66.301603665664175
 20
87.850963419316429
 30
0.0
 40
80.0
100
AcDbArc
 50
358.7233071825496
 51
19.72096677290893
  0
ARC
  5
43C
100
AcDbEntity
  8
0
  6
CONTINUOUS
 62
               7
100
AcDbCircle
 10
-66.301603665664175
 20
87.850963419316429
 30
0.0
 40
78.0
100
AcDbArc
 50
357.93298423711212
 51
14.144035036318918
  0
ARC
  5
43D
100
AcDbEntity
  8
0
  6
CONTINUOUS
 62
               7
100
AcDbCircle
 10
-66.301603665664175
 20
87.850963419316429
 30
0.0
 40
80.0
100
AcDbArc
 50
350.50234420639964
 51
357.06626599317229
  0
ARC
  5
43E
100
AcDbEntity
  8
0
  6
CONTINUOUS
 62
               7
100
AcDbCircle
 10
0.0
 20
110.50000000000023
 30
0.0
 40
38.0
100
AcDbArc
 50
289.36749140552593
 51
357.96605082846992
  0
ARC
  5
43F
100
AcDbEntity
  8
0
  6
CONTINUOUS
 62
               7
100
AcDbCircle
 10
-66.301603665664175
 20
87.850963419316429
 30
0.0
 40
78.0
100
AcDbArc
 50
349.74588604751932
 51
356.29178909036148
  0
ARC
  5
440
100
AcDbEntity
  8
0
  6
CONTINUOUS
 62
               7
100
AcDbCircle
 10
0.0000000000009095
 20
110.49999999999989
 30
0.0
 40
40.0
100
AcDbArc
 50
287.74741253406046
 51
356.51311948351241
  0
ARC
  5
441
100
AcDbEntity
  8
0
  6
CONTINUOUS
 62
               7
100
AcDbCircle
 10
0.0
 20
110.50000000000023
 30
0.0
 40
48.0
100
AcDbArc
 50
281.91903195606221
 51
351.19844368905251
  0
ARC
  5
442
100
AcDbEntity
  8
0
  6
CONTINUOUS
 62
               7
100
AcDbCircle
 10
0.0000000000009095
 20
110.49999999999989
 30
0.0
 40
50.0
100
AcDbArc
 50
280.58136887616411
 51
349.96036396399961
  0
ARC
  5
443
100
AcDbEntity
  8
0
  6
CONTINUOUS
 62
               7
100
AcDbCircle
 10
-66.301603665664175
 20
87.850963419316429
 30
0.0
 40
78.0
100
AcDbArc
 50
341.5124321853645
 51
348.1070201818132
  0
ARC
  5
444
100
AcDbEntity
  8
0
  6
CONTINUOUS
 62
               7
100
AcDbCircle
 10
-66.301603665664175
 20
87.850963419316429
 30
0.0
 40
80.0
100
AcDbArc
 50
342.30491699914688
 51
348.86672511748111
  0
LINE
  5
445
100
AcDbEntity
  8
0
  6
CONTINUOUS
 62
               7
100
AcDbLine
 10
17.95654476785603
 20
53.250000000000114
 30
0.0
 11
37.25
 21
53.250000000000114
 31
0.0
  0
ARC
  5
446
100
AcDbEntity
  8
0
  6
CONTINUOUS
 62
               7
100
AcDbCircle
 10
0.0000000000009095
 20
110.49999999999989
 30
0.0
 40
58.0
100
AcDbArc
 50
279.22408652916027
 51
345.23651479068042
  0
LINE
  5
447
100
AcDbEntity
  8
0
  6
CONTINUOUS
 62
               7
100
AcDbLine
 10
-9.2971769908940587
 20
53.250000000000313
 30
0.0
 11
3.6038562817179809
 21
53.250000000000114
 31
0.0
  0
ARC
  5
448
100
AcDbEntity
  8
0
  6
CONTINUOUS
 62
               7
100
AcDbCircle
 10
0.0
 20
110.50000000000023
 30
0.0
 40
60.0
100
AcDbArc
 50
287.41410796059148
 51
342.58589203940829
  0
ARC
  5
449
100
AcDbEntity
  8
0
  6
CONTINUOUS
 62
               7
100
AcDbCircle
 10
0.0
 20
110.50000000000023
 30
0.0
 40
28.0
100
AcDbArc
 50
227.24329734258009
 51
294.58150496766228
  0
ARC
  5
44A
100
AcDbEntity
  8
0
  6
CONTINUOUS
 62
               7
100
AcDbCircle
 10
-42.028836114869023
 20
166.55763499739822
 30
0.0
 40
78.0
100
AcDbArc
 50
285.93298423711212
 51
302.14403503631888
  0
ARC
  5
44B
100
AcDbEntity
  8
0
  6
CONTINUOUS
 62
               7
100
AcDbCircle
 10
-42.028836114869023
 20
166.55763499739822
 30
0.0
 40
80.0
100
AcDbArc
 50
286.72330718254949
 51
307.72096677290853
  0
ARC
  5
44C
100
AcDbEntity
  8
0
  6
CONTINUOUS
 62
               7
100
AcDbCircle
 10
0.0000000000009095
 20
110.49999999999989
 30
0.0
 40
30.0
100
AcDbArc
 50
224.9439255282625
 51
292.61289436969548
  0
ARC
  5
44D
100
AcDbEntity
  8
0
  6
CONTINUOUS
 62
               7
100
AcDbCircle
 10
-42.028836114869023
 20
166.55763499739822
 30
0.0
 40
78.0
100
AcDbArc
 50
277.74588604751921
 51
284.2917890903617
  0
ARC
  5
44E
100
AcDbEntity
  8
0
  6
CONTINUOUS
 62
               7
100
AcDbCircle
 10
0.0
 20
110.50000000000023
 30
0.0
 40
38.0
100
AcDbArc
 50
217.3674914055259
 51
285.96605082847111
  0
ARC
  5
44F
100
AcDbEntity
  8
0
  6
CONTINUOUS
 62
               7
100
AcDbCircle
 10
-42.028836114869023
 20
166.55763499739822
 30
0.0
 40
80.0
100
AcDbArc
 50
278.50234420639964
 51
285.06626599317252
  0
ARC
  5
450
100
AcDbEntity
  8
0
  6
CONTINUOUS
 62
               7
100
AcDbCircle
 10
0.0000000000009095
 20
110.49999999999989
 30
0.0
 40
40.0
100
AcDbArc
 50
215.7474125340606
 51
284.51311948351309
  0
ARC
  5
451
100
AcDbEntity
  8
0
  6
CONTINUOUS
 62
               7
100
AcDbCircle
 10
-42.028836114869023
 20
166.55763499739822
 30
0.0
 40
80.0
100
AcDbArc
 50
270.30491699914688
 51
276.86672511748139
  0
ARC
  5
452
100
AcDbEntity
  8
0
  6
CONTINUOUS
 62
               7
100
AcDbCircle
 10
0.0
 20
110.50000000000023
 30
0.0
 40
48.0
100
AcDbArc
 50
209.91903195606221
 51
279.19844368905359
  0
ARC
  5
453
100
AcDbEntity
  8
0
  6
CONTINUOUS
 62
               7
100
AcDbCircle
 10
-42.028836114869023
 20
166.55763499739822
 30
0.0
 40
78.0
100
AcDbArc
 50
269.51243218536439
 51
276.10702018181343
  0
ARC
  5
454
100
AcDbEntity
  8
0
  6
CONTINUOUS
 62
               7
100
AcDbCircle
 10
0.0000000000009095
 20
110.49999999999989
 30
0.0
 40
50.0
100
AcDbArc
 50
208.58136887616419
 51
277.96036396400029
  0
ARC
  5
455
100
AcDbEntity
  8
0
  6
CONTINUOUS
 62
               7
100
AcDbCircle
 10
0.0000000000009095
 20
110.49999999999989
 30
0.0
 40
58.0
100
AcDbArc
 50
203.53740655240989
 51
260.77591347083921
  0
ARC
  5
456
100
AcDbEntity
  8
0
  6
CONTINUOUS
 62
               7
100
AcDbCircle
 10
-42.028836114869023
 20
166.55763499739822
 30
0.0
 40
80.0
100
AcDbArc
 50
261.99154555412838
 51
268.65479120438027
  0
ARC
  5
457
100
AcDbEntity
  8
0
  6
CONTINUOUS
 62
               7
100
AcDbCircle
 10
0.0
 20
110.50000000000023
 30
0.0
 40
60.0
100
AcDbArc
 50
202.3338445088836
 51
252.5858920394079
  0
ARC
  5
458
100
AcDbEntity
  8
0
  6
CONTINUOUS
 62
               7
100
AcDbCircle
 10
-42.028836114869023
 20
166.55763499739822
 30
0.0
 40
78.0
100
AcDbArc
 50
261.1259058369443
 51
267.8501558789763
  0
ARC
  5
459
100
AcDbEntity
  8
0
  6
CONTINUOUS
 62
               7
100
AcDbCircle
 10
0.0000000000009095
 20
110.49999999999989
 30
0.0
 40
58.0
100
AcDbArc
 50
189.22408652915709
 51
201.23651479068141
  0
LINE
  5
45A
100
AcDbEntity
  8
0
  6
CONTINUOUS
 62
               7
100
AcDbLine
 10
-57.25
 20
119.79717699089161
 30
0.0
 11
-57.25
 21
101.20282300910839
 31
0.0
  0
ARC
  5
45B
100
AcDbEntity
  8
0
  6
CONTINUOUS
 62
               7
100
AcDbCircle
 10
40.326354439077022
 20
167.79456033801148
 30
0.0
 40
80.0
100
AcDbArc
 50
214.72330718254949
 51
235.72096677290904
  0
ARC
  5
45C
100
AcDbEntity
  8
0
  6
CONTINUOUS
 62
               7
100
AcDbCircle
 10
40.326354439077022
 20
167.79456033801148
 30
0.0
 40
78.0
100
AcDbArc
 50
213.93298423711204
 51
230.14403503631891
  0
ARC
  5
45D
100
AcDbEntity
  8
0
  6
CONTINUOUS
 62
               7
100
AcDbCircle
 10
40.326354439077022
 20
167.79456033801148
 30
0.0
 40
80.0
100
AcDbArc
 50
206.50234420639961
 51
213.06626599317283
  0
ARC
  5
45E
100
AcDbEntity
  8
0
  6
CONTINUOUS
 62
               7
100
AcDbCircle
 10
40.326354439077022
 20
167.79456033801148
 30
0.0
 40
78.0
100
AcDbArc
 50
205.74588604751921
 51
212.29178909036202
  0
ARC
  5
45F
100
AcDbEntity
  8
0
  6
CONTINUOUS
 62
               7
100
AcDbCircle
 10
40.326354439077022
 20
167.79456033801148
 30
0.0
 40
80.0
100
AcDbArc
 50
198.3049169991468
 51
204.86672511748159
  0
ARC
  5
460
100
AcDbEntity
  8
0
  6
CONTINUOUS
 62
               7
100
AcDbCircle
 10
40.326354439077022
 20
167.79456033801148
 30
0.0
 40
78.0
100
AcDbArc
 50
197.51243218536439
 51
204.10702018181371
  0
ARC
  5
461
100
AcDbEntity
  8
0
  6
CONTINUOUS
 62
               7
100
AcDbCircle
 10
0.0000000000009095
 20
110.49999999999989
 30
0.0
 40
58.0
100
AcDbArc
 50
131.53740655241029
 51
170.7759134708428
  0
ARC
  5
462
100
AcDbEntity
  8
0
  6
CONTINUOUS
 62
               7
100
AcDbCircle
 10
40.326354439077022
 20
167.79456033801148
 30
0.0
 40
80.0
100
AcDbArc
 50
189.99154555412861
 51
196.6547912043805
  0
ARC
  5
463
100
AcDbEntity
  8
0
  6
CONTINUOUS
 62
               7
100
AcDbCircle
 10
40.326354439077022
 20
167.79456033801148
 30
0.0
 40
78.0
100
AcDbArc
 50
189.12590583694441
 51
195.85015587897649
  0
ARC
  5
464
100
AcDbEntity
  8
0
  6
CONTINUOUS
 62
               7
100
AcDbCircle
 10
0.0
 20
110.50000000000023
 30
0.0
 40
60.0
100
AcDbArc
 50
130.33384450888349
 51
162.58589203940841
  0
LINE
  5
465
100
AcDbEntity
  8
0
  6
CONTINUOUS
 62
               7
100
AcDbLine
 10
17.95654476785603
 20
167.75000000000011
 30
0.0
 11
37.25
 21
167.75000000000011
 31
0.0
  0
LINE
  5
466
100
AcDbEntity
  8
0
  6
CONTINUOUS
 62
               7
100
AcDbLine
 10
-9.2971769908920123
 20
167.75000000000023
 30
0.0
 11
9.2971769908929218
 21
167.75000000000011
 31
0.0
  0
ARC
  5
467
100
AcDbEntity
  8
0
  6
CONTINUOUS
 62
               7
100
AcDbCircle
 10
0.0
 20
110.50000000000023
 30
0.0
 40
28.0
100
AcDbArc
 50
155.24329734257989
 51
222.58150496766234
  0
ARC
  5
468
100
AcDbEntity
  8
0
  6
CONTINUOUS
 62
               7
100
AcDbCircle
 10
0.0000000000009095
 20
110.49999999999989
 30
0.0
 40
30.0
100
AcDbArc
 50
152.94392552826321
 51
220.6128943696954
  0
ARC
  5
469
100
AcDbEntity
  8
0
  6
CONTINUOUS
 62
               7
100
AcDbCircle
 10
0.0
 20
110.50000000000023
 30
0.0
 40
38.0
100
AcDbArc
 50
145.36749140552581
 51
213.96605082847111
  0
ARC
  5
46A
100
AcDbEntity
  8
0
  6
CONTINUOUS
 62
               7
100
AcDbCircle
 10
0.0000000000009095
 20
110.49999999999989
 30
0.0
 40
40.0
100
AcDbArc
 50
143.7474125340612
 51
212.51311948351301
  0
ARC
  5
46B
100
AcDbEntity
  8
0
  6
CONTINUOUS
 62
               7
100
AcDbCircle
 10
0.0
 20
110.50000000000023
 30
0.0
 40
48.0
100
AcDbArc
 50
137.9190319560621
 51
207.1984436890537
  0
ARC
  5
46C
100
AcDbEntity
  8
0
  6
CONTINUOUS
 62
               7
100
AcDbCircle
 10
0.0000000000009095
 20
110.49999999999989
 30
0.0
 40
50.0
100
AcDbArc
 50
136.58136887616459
 51
205.96036396400049
  0
ARC
  5
46D
100
AcDbEntity
  8
0
  6
CONTINUOUS
 62
               7
100
AcDbCircle
 10
0.0000000000009095
 20
110.49999999999989
 30
0.0
 40
58.0
100
AcDbArc
 50
99.224086529157773
 51
129.23651479068181
  0
ARC
  5
46E
100
AcDbEntity
  8
0
  6
CONTINUOUS
 62
               7
100
AcDbCircle
 10
0.0
 20
110.50000000000023
 30
0.0
 40
60.0
100
AcDbArc
 50
107.41410796059201
 51
128.0973889808399
  0
LINE
  5
46F
100
AcDbEntity
  8
0
  6
CONTINUOUS
 62
               7
100
AcDbLine
 10
57.25
 20
92.543455232144595
 30
0.0
 11
57.25
 21
73.25
 31
0.0
  0
LINE
  5
470
100
AcDbEntity
  8
0
  6
CONTINUOUS
 62
               7
100
AcDbLine
 10
5.8286488672029009
 20
53.250000000000114
 30
0.0
 11
9.2971769908958777
 21
53.250000000000114
 31
0.0
  0
LINE
  5
471
100
AcDbEntity
  8
0
  6
CONTINUOUS
 62
               7
100
AcDbLine
 10
-57.25
 20
88.019006476255925
 30
0.0
 11
-57.25
 21
73.250000000000284
 31
0.0
  0
LINE
  5
472
100
AcDbEntity
  8
0
  6
CONTINUOUS
 62
               7
100
AcDbLine
 10
-39.636693312293005
 20
165.36330668770671
 30
0.0
 11
-57.25
 21
147.75000000000023
 31
0.0
  0
LINE
  5
473
100
AcDbEntity
  8
0
  6
CONTINUOUS
 62
               7
100
AcDbLine
 10
41.43835869843906
 20
163.56164130156162
 30
0.0
 11
57.25
 21
147.75
 31
0.0
  0
LINE
  5
474
100
AcDbEntity
  8
0
  6
CONTINUOUS
 62
               7
100
AcDbLine
 10
-37.25
 20
53.250000000000313
 30
0.0
 11
-57.25
 21
73.250000000000284
 31
0.0
  0
LINE
  5
475
100
AcDbEntity
  8
0
  6
CONTINUOUS
 62
               7
100
AcDbLine
 10
57.25
 20
73.25
 30
0.0
 11
37.25
 21
53.250000000000114
 31
0.0
  0
LINE
  5
476
100
AcDbEntity
  8
0
  6
CONTINUOUS
 62
               7
100
AcDbLine
 10
37.25
 20
167.75000000000011
 30
0.0
 11
39.870749626290944
 21
165.12925037370962
 31
0.0
  0
LINE
  5
477
100
AcDbEntity
  8
0
  6
CONTINUOUS
 62
               7
100
AcDbLine
 10
-37.25
 20
167.75000000000023
 30
0.0
 11
-37.672248685182922
 21
167.3277513148164
 31
0.0
  0
ARC
  5
478
100
AcDbEntity
  8
0
  6
CONTINUOUS
 62
               7
100
AcDbCircle
 10
66.951893800594007
 20
89.852350661974697
 30
0.0
 40
80.0
100
AcDbArc
 50
109.7863831594059
 51
116.3064387178254
  0
LINE
  5
479
100
AcDbEntity
  8
0
  6
CONTINUOUS
 62
               7
100
AcDbLine
 10
-37.25
 20
53.250000000000313
 30
0.0
 11
-17.95654476785603
 21
53.250000000000313
 31
0.0
  0
LINE
  5
47A
100
AcDbEntity
  8
0
  6
CONTINUOUS
 62
               7
100
AcDbLine
 10
-37.25
 20
167.75000000000023
 30
0.0
 11
-17.956544767855121
 21
167.75000000000011
 31
0.0
  0
LINE
  5
47B
100
AcDbEntity
  8
0
  6
CONTINUOUS
 62
               7
100
AcDbLine
 10
57.25
 20
147.75
 30
0.0
 11
57.25
 21
128.45654476785597
 31
0.0
  0
LINE
  5
47C
100
AcDbEntity
  8
0
  6
CONTINUOUS
 62
               7
100
AcDbLine
 10
-57.25
 20
147.75000000000023
 30
0.0
 11
-57.25
 21
128.45654476785552
 31
0.0
  0
ARC
  5
47D
100
AcDbEntity
  8
0
  6
CONTINUOUS
 62
               7
100
AcDbCircle
 10
0.0
 20
110.50000000000023
 30
0.0
 40
10.0
100
AcDbArc
 50
227.96020689272021
 51
266.96777322095068
  0
ARC
  5
47E
100
AcDbEntity
  8
0
  6
CONTINUOUS
 62
               7
100
AcDbCircle
 10
0.0
 20
110.50000000000023
 30
0.0
 40
10.0
100
AcDbArc
 50
299.96020689272501
 51
338.96777322095028
  0
ARC
  5
47F
100
AcDbEntity
  8
0
  6
CONTINUOUS
 62
               7
100
AcDbCircle
 10
0.0
 20
110.50000000000023
 30
0.0
 40
10.0
100
AcDbArc
 50
11.96020689272118
 51
50.967773220950079
  0
ARC
  5
480
100
AcDbEntity
  8
0
  6
CONTINUOUS
 62
               7
100
AcDbCircle
 10
0.0
 20
110.50000000000023
 30
0.0
 40
10.0
100
AcDbArc
 50
83.960206892724699
 51
122.967773220951
  0
ARC
  5
481
100
AcDbEntity
  8
0
  6
CONTINUOUS
 62
               7
100
AcDbCircle
 10
-42.028836114869023
 20
166.55763499739822
 30
0.0
 40
80.0
100
AcDbArc
 50
259.03177665133842
 51
260.30643871782559
  0
ARC
  5
482
100
AcDbEntity
  8
0
  6
CONTINUOUS
 62
               7
100
AcDbCircle
 10
40.326354439077022
 20
167.79456033801148
 30
0.0
 40
80.0
100
AcDbArc
 50
181.74152531051189
 51
188.30643871782561
  0
ARC
  5
483
100
AcDbEntity
  8
0
  6
CONTINUOUS
 62
               7
100
AcDbCircle
 10
40.326354439077022
 20
167.79456033801148
 30
0.0
 40
78.0
100
AcDbArc
 50
180.34290187861109
 51
187.42275243022331
  0
ARC
  5
484
100
AcDbEntity
  8
0
  6
CONTINUOUS
 62
               7
100
AcDbCircle
 10
66.951893800594007
 20
89.852350661974697
 30
0.0
 40
78.0
100
AcDbArc
 50
109.0926455884622
 51
115.42275243022321
  0
ARC
  5
485
100
AcDbEntity
  8
0
  6
CONTINUOUS
 62
               7
100
AcDbCircle
 10
-66.301603665664175
 20
87.850963419316429
 30
0.0
 40
78.0
100
AcDbArc
 50
333.66606414883199
 51
339.85015587897601
  0
ARC
  5
486
100
AcDbEntity
  8
0
  6
CONTINUOUS
 62
               7
100
AcDbCircle
 10
-66.301603665664175
 20
87.850963419316429
 30
0.0
 40
80.0
100
AcDbArc
 50
334.37291336225059
 51
340.6547912043801
  0
ARC
  5
487
100
AcDbEntity
  8
0
  6
CONTINUOUS
 62
               7
100
AcDbCircle
 10
1.0521915408630775
 20
40.44449058329991
 30
0.0
 40
78.0
100
AcDbArc
 50
45.125905836942657
 51
51.850155878974739
  0
ARC
  5
488
100
AcDbEntity
  8
0
  6
CONTINUOUS
 62
               7
100
AcDbCircle
 10
1.0521915408630775
 20
40.44449058329991
 30
0.0
 40
80.0
100
AcDbArc
 50
45.991545554126859
 51
52.654791204378732
  0
ARC
  5
489
100
AcDbEntity
  8
0
  6
CONTINUOUS
 62
               7
100
AcDbCircle
 10
0.0
 20
110.50000000000023
 30
0.0
 40
10.0
100
AcDbArc
 50
155.9602068927272
 51
194.96777322095031
  0
LINE
  5
48A
100
AcDbEntity
  8
0
  6
CONTINUOUS
 62
               2
100
AcDbLine
 10
17.499999999999773
 20
27.100000000000193
 30
0.0
 11
27.499999999999773
 21
27.100000000000193
 31
0.0
  0
LINE
  5
48B
100
AcDbEntity
  8
0
  6
CONTINUOUS
 62
               2
100
AcDbLine
 10
22.499999999999773
 20
22.100000000000193
 30
0.0
 11
22.499999999999773
 21
32.100000000000193
 31
0.0
  0
LINE
  5
48C
100
AcDbEntity
  8
0
  6
CONTINUOUS
 62
               2
100
AcDbLine
 10
-30.000000000000171
 20
29.000000000000199
 30
0.0
 11
-15.000000000000171
 21
29.000000000000199
 31
0.0
  0
LINE
  5
48D
100
AcDbEntity
  8
0
  6
CONTINUOUS
 62
               2
100
AcDbLine
 10
-22.500000000000171
 20
21.500000000000199
 30
0.0
 11
-22.500000000000171
 21
36.500000000000199
 31
0.0
  0
LINE
  5
48E
100
AcDbEntity
  8
0
  6
CONTINUOUS
 62
               2
100
AcDbLine
 10
29.999999999999773
 20
8.7774834091005971
 30
0.0
 11
29.999999999999773
 21
-7.5774834091004948
 31
0.0
  0
LINE
  5
48F
100
AcDbEntity
  8
0
  6
CONTINUOUS
 62
               2
100
AcDbLine
 10
-30.000000000000341
 20
8.7774834091005971
 30
0.0
 11
-30.000000000000341
 21
-7.5774834091004948
 31
0.0
  0
LINE
  5
490
100
AcDbEntity
  8
0
  6
CONTINUOUS
 62
               2
100
AcDbLine
 10
0.0
 20
184.6640526749689
 30
0.0
 11
0.0
 21
-7.5774834091004948
 31
0.0
  0
ENDBLK
  5
491
100
AcDbEntity
  8
0
100
AcDbBlockEnd
  0
BLOCK
  5
492
100
AcDbEntity
  8
0
100
AcDbBlockBegin
  2
DTRY-ELF04-4
 70
               0
 10
0.0
 20
0.0
 30
0.0
  3
DTRY-ELF04-4
  1

  0
LINE
  5
493
100
AcDbEntity
  8
0
  6
CONTINUOUS
 62
               7
100
AcDbLine
 10
-63.521278452110295
 20
16.35044480687705
 30
0.0
 11
-66.378721547888489
 21
19.149555193123007
 31
0.0
  0
LINE
  5
494
100
AcDbEntity
  8
0
  6
CONTINUOUS
 62
               7
100
AcDbLine
 10
-66.364213562372498
 20
16.335786437626922
 30
0.0
 11
-63.535786437626285
 21
19.164213562373135
 31
0.0
  0
LINE
  5
495
100
AcDbEntity
  8
0
  6
CONTINUOUS
 62
               7
100
AcDbLine
 10
66.378721547888887
 20
16.60044480687705
 30
0.0
 11
63.521278452110693
 21
19.399555193123007
 31
0.0
  0
LINE
  5
496
100
AcDbEntity
  8
0
  6
CONTINUOUS
 62
               7
100
AcDbLine
 10
63.535786437626683
 20
16.585786437626922
 30
0.0
 11
66.364213562372896
 21
19.414213562373135
 31
0.0
  0
LINE
  5
497
100
AcDbEntity
  8
0
  6
CONTINUOUS
 62
               2
100
AcDbLine
 10
30.0
 20
10.138992692662882
 30
0.0
 11
30.0
 21
-10.138992692662725
 31
0.0
  0
LINE
  5
498
100
AcDbEntity
  8
0
  6
CONTINUOUS
 62
               2
100
AcDbLine
 10
-30.000000000000114
 20
10.138992692662882
 30
0.0
 11
-30.000000000000114
 21
-10.138992692662725
 31
0.0
  0
LINE
  5
499
100
AcDbEntity
  8
0
  6
CONTINUOUS
 62
               7
100
AcDbLine
 10
-17.250000000000114
 20
38.499999999999972
 30
0.0
 11
-29.750000000000114
 21
38.499999999999972
 31
0.0
  0
LINE
  5
49A
100
AcDbEntity
  8
0
  6
CONTINUOUS
 62
               7
100
AcDbLine
 10
-16.75
 20
38.000000000000085
 30
0.0
 11
-30.25
 21
38.000000000000085
 31
0.0
  0
LINE
  5
49B
100
AcDbEntity
  8
0
  6
CONTINUOUS
 62
               7
100
AcDbLine
 10
-16.500000000000114
 20
26.500000000000085
 30
0.0
 11
-30.5
 21
26.500000000000085
 31
0.0
  0
LINE
  5
49C
100
AcDbEntity
  8
0
  6
CONTINUOUS
 62
               7
100
AcDbLine
 10
-17.250000000000114
 20
38.499999999999972
 30
0.0
 11
-17.250000000000114
 21
38.000000000000085
 31
0.0
  0
LINE
  5
49D
100
AcDbEntity
  8
0
  6
CONTINUOUS
 62
               7
100
AcDbLine
 10
-29.750000000000114
 20
38.499999999999972
 30
0.0
 11
-29.750000000000114
 21
38.000000000000085
 31
0.0
  0
LINE
  5
49E
100
AcDbEntity
  8
0
  6
CONTINUOUS
 62
               7
100
AcDbLine
 10
-30.25
 20
38.000000000000085
 30
0.0
 11
-30.5
 21
26.500000000000085
 31
0.0
  0
LINE
  5
49F
100
AcDbEntity
  8
0
  6
CONTINUOUS
 62
               7
100
AcDbLine
 10
-30.5
 20
26.500000000000085
 30
0.0
 11
-30.5
 21
25.000000000000085
 31
0.0
  0
LINE
  5
4A0
100
AcDbEntity
  8
0
  6
CONTINUOUS
 62
               7
100
AcDbLine
 10
-16.75
 20
38.000000000000085
 30
0.0
 11
-16.500000000000114
 21
26.500000000000085
 31
0.0
  0
LINE
  5
4A1
100
AcDbEntity
  8
0
  6
CONTINUOUS
 62
               7
100
AcDbLine
 10
-16.500000000000114
 20
26.500000000000085
 30
0.0
 11
-16.500000000000114
 21
25.000000000000085
 31
0.0
  0
LINE
  5
4A2
100
AcDbEntity
  8
0
  6
CONTINUOUS
 62
               7
100
AcDbLine
 10
-22.500000000000114
 20
38.000000000000085
 30
0.0
 11
-22.500000000000114
 21
26.500000000000085
 31
0.0
  0
LINE
  5
4A3
100
AcDbEntity
  8
0
  6
CONTINUOUS
 62
               7
100
AcDbLine
 10
-20.500000000000114
 20
38.000000000000085
 30
0.0
 11
-20.500000000000114
 21
26.500000000000085
 31
0.0
  0
LINE
  5
4A4
100
AcDbEntity
  8
0
  6
CONTINUOUS
 62
               7
100
AcDbLine
 10
-21.500000000000114
 20
38.000000000000085
 30
0.0
 11
-21.500000000000114
 21
26.500000000000085
 31
0.0
  0
LINE
  5
4A5
100
AcDbEntity
  8
0
  6
CONTINUOUS
 62
               7
100
AcDbLine
 10
-19.500000000000114
 20
38.000000000000085
 30
0.0
 11
-19.500000000000114
 21
26.500000000000085
 31
0.0
  0
LINE
  5
4A6
100
AcDbEntity
  8
0
  6
CONTINUOUS
 62
               7
100
AcDbLine
 10
-18.500000000000114
 20
38.000000000000085
 30
0.0
 11
-18.500000000000114
 21
26.500000000000085
 31
0.0
  0
LINE
  5
4A7
100
AcDbEntity
  8
0
  6
CONTINUOUS
 62
               7
100
AcDbLine
 10
-17.5
 20
38.000000000000085
 30
0.0
 11
-17.5
 21
26.500000000000085
 31
0.0
  0
LINE
  5
4A8
100
AcDbEntity
  8
0
  6
CONTINUOUS
 62
               7
100
AcDbLine
 10
-25.5
 20
38.000000000000085
 30
0.0
 11
-25.5
 21
26.500000000000085
 31
0.0
  0
LINE
  5
4A9
100
AcDbEntity
  8
0
  6
CONTINUOUS
 62
               7
100
AcDbLine
 10
-26.5
 20
38.000000000000085
 30
0.0
 11
-26.5
 21
26.500000000000085
 31
0.0
  0
LINE
  5
4AA
100
AcDbEntity
  8
0
  6
CONTINUOUS
 62
               7
100
AcDbLine
 10
-24.500000000000114
 20
38.000000000000085
 30
0.0
 11
-24.500000000000114
 21
26.500000000000085
 31
0.0
  0
LINE
  5
4AB
100
AcDbEntity
  8
0
  6
CONTINUOUS
 62
               7
100
AcDbLine
 10
-23.500000000000114
 20
38.000000000000085
 30
0.0
 11
-23.500000000000114
 21
26.500000000000085
 31
0.0
  0
LINE
  5
4AC
100
AcDbEntity
  8
0
  6
CONTINUOUS
 62
               7
100
AcDbLine
 10
-28.5
 20
38.000000000000085
 30
0.0
 11
-28.5
 21
26.500000000000085
 31
0.0
  0
LINE
  5
4AD
100
AcDbEntity
  8
0
  6
CONTINUOUS
 62
               7
100
AcDbLine
 10
-27.5
 20
38.000000000000085
 30
0.0
 11
-27.5
 21
26.500000000000085
 31
0.0
  0
LINE
  5
4AE
100
AcDbEntity
  8
0
  6
CONTINUOUS
 62
               7
100
AcDbLine
 10
-29.5
 20
38.000000000000085
 30
0.0
 11
-29.5
 21
26.500000000000085
 31
0.0
  0
ARC
  5
4AF
100
AcDbEntity
  8
0
  6
CONTINUOUS
 62
               7
100
AcDbCircle
 10
-8.749999999999801
 20
34.749994330755072
 30
0.0
 40
1.25
100
AcDbArc
 50
90.0
 51
180.0
  0
LINE
  5
4B0
100
AcDbEntity
  8
0
  6
CONTINUOUS
 62
               7
100
AcDbLine
 10
-62.999999999999687
 20
27.999999999999972
 30
0.0
 11
-30.467391304347814
 21
28.000000000000171
 31
0.0
  0
LINE
  5
4B1
100
AcDbEntity
  8
0
  6
CONTINUOUS
 62
               7
100
AcDbLine
 10
-61.499995972472504
 20
30.000000000000284
 30
0.0
 11
-30.423913043478308
 21
30.000000000000369
 31
0.0
  0
LINE
  5
4B2
100
AcDbEntity
  8
0
  6
CONTINUOUS
 62
               7
100
AcDbLine
 10
-61.499995972472504
 20
27.999999999999972
 30
0.0
 11
-61.499995972472504
 21
30.000000000000284
 31
0.0
  0
LINE
  5
4B3
100
AcDbEntity
  8
0
  6
CONTINUOUS
 62
               7
100
AcDbLine
 10
-62.999999999999687
 20
24.999999999999986
 30
0.0
 11
-62.999999999999687
 21
27.999999999999972
 31
0.0
  0
LINE
  5
4B4
100
AcDbEntity
  8
0
  6
CONTINUOUS
 62
               7
100
AcDbLine
 10
-9.999999999999801
 20
34.749994330755072
 30
0.0
 11
-9.999999999999801
 21
30.000000000000369
 31
0.0
  0
LINE
  5
4B5
100
AcDbEntity
  8
0
  6
CONTINUOUS
 62
               7
100
AcDbLine
 10
22.049999999999983
 20
25.000000000000085
 30
0.0
 11
22.049999999999983
 21
27.999999999999972
 31
0.0
  0
LINE
  5
4B6
100
AcDbEntity
  8
0
  6
CONTINUOUS
 62
               7
100
AcDbLine
 10
30.949999999999989
 20
27.999999999999972
 30
0.0
 11
30.949999999999989
 21
25.000000000000085
 31
0.0
  0
LINE
  5
4B7
100
AcDbEntity
  8
0
  6
CONTINUOUS
 62
               7
100
AcDbLine
 10
-16.5326086956523
 20
28.000000000000369
 30
0.0
 11
63.000000000000284
 21
27.999999999999972
 31
0.0
  0
LINE
  5
4B8
100
AcDbEntity
  8
0
  6
CONTINUOUS
 62
               7
100
AcDbLine
 10
-16.576086956521806
 20
30.000000000000369
 30
0.0
 11
61.499995972472988
 21
30.000000000000369
 31
0.0
  0
ARC
  5
4B9
100
AcDbEntity
  8
0
  6
CONTINUOUS
 62
               7
100
AcDbCircle
 10
8.7499999999998863
 20
34.749994330754873
 30
0.0
 40
1.25
100
AcDbArc
 50
0.0
 51
90.0
  0
LINE
  5
4BA
100
AcDbEntity
  8
0
  6
CONTINUOUS
 62
               7
100
AcDbLine
 10
63.000000000000284
 20
27.999999999999972
 30
0.0
 11
63.000000000000483
 21
25.000000000000085
 31
0.0
  0
LINE
  5
4BB
100
AcDbEntity
  8
0
  6
CONTINUOUS
 62
               7
100
AcDbLine
 10
61.499995972472988
 20
30.000000000000369
 30
0.0
 11
61.499995972472988
 21
27.999999999999972
 31
0.0
  0
LINE
  5
4BC
100
AcDbEntity
  8
0
  6
CONTINUOUS
 62
               7
100
AcDbLine
 10
10.0
 20
34.749994330754873
 30
0.0
 11
10.0
 21
30.000000000000369
 31
0.0
  0
LINE
  5
4BD
100
AcDbEntity
  8
0
  6
CONTINUOUS
 62
               7
100
AcDbLine
 10
8.7499999999998863
 20
35.999994330755072
 30
0.0
 11
-8.749999999999801
 21
35.999994330755072
 31
0.0
  0
LINE
  5
4BE
100
AcDbEntity
  8
0
  6
CONTINUOUS
 62
               7
100
AcDbLine
 10
59.25
 20
-31.0
 30
0.0
 11
59.25
 21
-25.0
 31
0.0
  0
LINE
  5
4BF
100
AcDbEntity
  8
0
  6
PHANTOM
 62
               2
100
AcDbLine
 10
62.25
 20
-29.0
 30
0.0
 11
62.25
 21
-35.0
 31
0.0
  0
LINE
  5
4C0
100
AcDbEntity
  8
0
  6
PHANTOM
 62
               2
100
AcDbLine
 10
12.0
 20
-29.0
 30
0.0
 11
12.0
 21
-25.0
 31
0.0
  0
LINE
  5
4C1
100
AcDbEntity
  8
0
  6
PHANTOM
 62
               2
100
AcDbLine
 10
-12.0
 20
-25.0
 30
0.0
 11
-12.0
 21
-29.0
 31
0.0
  0
LINE
  5
4C2
100
AcDbEntity
  8
0
  6
PHANTOM
 62
               2
100
AcDbLine
 10
62.25
 20
-29.0
 30
0.0
 11
12.0
 21
-29.0
 31
0.0
  0
LINE
  5
4C3
100
AcDbEntity
  8
0
  6
CONTINUOUS
 62
               7
100
AcDbLine
 10
-59.250000000000085
 20
-31.0
 30
0.0
 11
-59.250000000000085
 21
-25.0
 31
0.0
  0
LINE
  5
4C4
100
AcDbEntity
  8
0
  6
PHANTOM
 62
               2
100
AcDbLine
 10
-62.250000000000085
 20
-29.0
 30
0.0
 11
-62.250000000000085
 21
-35.0
 31
0.0
  0
LINE
  5
4C5
100
AcDbEntity
  8
0
  6
PHANTOM
 62
               2
100
AcDbLine
 10
-12.0
 20
-29.0
 30
0.0
 11
-62.250000000000085
 21
-29.0
 31
0.0
  0
LINE
  5
4C6
100
AcDbEntity
  8
0
  6
PHANTOM
 62
               2
100
AcDbLine
 10
-62.250000000000085
 20
-35.0
 30
0.0
 11
62.25
 21
-35.0
 31
0.0
  0
LINE
  5
4C7
100
AcDbEntity
  8
0
  6
PHANTOM
 62
               2
100
AcDbLine
 10
-85.19999999999996
 20
5.6000000000000796
 30
0.0
 11
-78.070954845342072
 21
5.6000000000000796
 31
0.0
  0
LINE
  5
4C8
100
AcDbEntity
  8
0
  6
PHANTOM
 62
               2
100
AcDbLine
 10
-85.19999999999996
 20
3.3999999999999773
 30
0.0
 11
-78.070954845342072
 21
3.3999999999999773
 31
0.0
  0
LINE
  5
4C9
100
AcDbEntity
  8
0
  6
PHANTOM
 62
               2
100
AcDbLine
 10
-85.19999999999996
 20
7.4999999999998863
 30
0.0
 11
-85.19999999999996
 21
-7.5000000000000568
 31
0.0
  0
LINE
  5
4CA
100
AcDbEntity
  8
0
  6
PHANTOM
 62
               2
100
AcDbLine
 10
-85.999999999999687
 20
6.4999999999998863
 30
0.0
 11
-85.999999999999687
 21
-6.5000000000000568
 31
0.0
  0
LINE
  5
4CB
100
AcDbEntity
  8
0
  6
PHANTOM
 62
               2
100
AcDbLine
 10
-85.19999999999996
 20
6.3999999999999773
 30
0.0
 11
-78.070954845342072
 21
6.3999999999999773
 31
0.0
  0
ARC
  5
4CC
100
AcDbEntity
  8
0
  6
PHANTOM
 62
               2
100
AcDbCircle
 10
-84.69999999999996
 20
7.5000000000000853
 30
0.0
 40
0.5
100
AcDbArc
 50
90.0
 51
180.0
  0
ARC
  5
4CD
100
AcDbEntity
  8
0
  6
PHANTOM
 62
               2
100
AcDbCircle
 10
-85.499999999999915
 20
6.4999999999998863
 30
0.0
 40
0.5
100
AcDbArc
 50
90.0
 51
180.0
  0
LINE
  5
4CE
100
AcDbEntity
  8
0
  6
PHANTOM
 62
               2
100
AcDbLine
 10
-85.499999999999687
 20
6.9999999999998863
 30
0.0
 11
-85.19999999999996
 21
6.9999999999998863
 31
0.0
  0
LINE
  5
4CF
100
AcDbEntity
  8
0
  6
PHANTOM
 62
               2
100
AcDbLine
 10
-76.499999999999687
 20
7.9999999999998863
 30
0.0
 11
-84.69999999999996
 21
7.9999999999998863
 31
0.0
  0
LINE
  5
4D0
100
AcDbEntity
  8
0
  6
PHANTOM
 62
               2
100
AcDbLine
 10
-85.19999999999996
 20
2.6000000000000796
 30
0.0
 11
-78.070954845342072
 21
2.6000000000000796
 31
0.0
  0
LINE
  5
4D1
100
AcDbEntity
  8
0
  6
PHANTOM
 62
               2
100
AcDbLine
 10
-85.19999999999996
 20
0.3999999999999773
 30
0.0
 11
-78.070954845342072
 21
0.3999999999999773
 31
0.0
  0
LINE
  5
4D2
100
AcDbEntity
  8
0
  6
PHANTOM
 62
               2
100
AcDbLine
 10
-85.19999999999996
 20
-0.3999999999999204
 30
0.0
 11
-78.070954845342072
 21
-0.3999999999999204
 31
0.0
  0
LINE
  5
4D3
100
AcDbEntity
  8
0
  6
PHANTOM
 62
               2
100
AcDbLine
 10
-85.19999999999996
 20
-5.5999999999999659
 30
0.0
 11
-78.070954845342072
 21
-5.5999999999999659
 31
0.0
  0
LINE
  5
4D4
100
AcDbEntity
  8
0
  6
PHANTOM
 62
               2
100
AcDbLine
 10
-85.19999999999996
 20
-6.3999999999999204
 30
0.0
 11
-78.070954845342072
 21
-6.3999999999999204
 31
0.0
  0
LINE
  5
4D5
100
AcDbEntity
  8
0
  6
PHANTOM
 62
               2
100
AcDbLine
 10
-85.19999999999996
 20
-3.3999999999999204
 30
0.0
 11
-78.070954845342072
 21
-3.3999999999999204
 31
0.0
  0
LINE
  5
4D6
100
AcDbEntity
  8
0
  6
PHANTOM
 62
               2
100
AcDbLine
 10
-85.19999999999996
 20
-2.5999999999999659
 30
0.0
 11
-78.070954845342072
 21
-2.5999999999999659
 31
0.0
  0
ARC
  5
4D7
100
AcDbEntity
  8
0
  6
PHANTOM
 62
               2
100
AcDbCircle
 10
-84.69999999999996
 20
-7.5000000000000568
 30
0.0
 40
0.5
100
AcDbArc
 50
180.0
 51
270.0
  0
ARC
  5
4D8
100
AcDbEntity
  8
0
  6
PHANTOM
 62
               2
100
AcDbCircle
 10
-85.499999999999915
 20
-6.4999999999999432
 30
0.0
 40
0.5
100
AcDbArc
 50
180.0
 51
270.0
  0
LINE
  5
4D9
100
AcDbEntity
  8
0
  6
PHANTOM
 62
               2
100
AcDbLine
 10
-85.499999999999687
 20
-7.0000000000000568
 30
0.0
 11
-85.19999999999996
 21
-7.0000000000000568
 31
0.0
  0
ARC
  5
4DA
100
AcDbEntity
  8
0
  6
PHANTOM
 62
               2
100
AcDbCircle
 10
-78.0709548453423
 20
6.0
 30
0.0
 40
0.4
100
AcDbArc
 50
270.0
 51
90.0
  0
ARC
  5
4DB
100
AcDbEntity
  8
0
  6
PHANTOM
 62
               2
100
AcDbCircle
 10
-78.0709548453423
 20
3.0
 30
0.0
 40
0.4
100
AcDbArc
 50
270.0
 51
90.0
  0
LINE
  5
4DC
100
AcDbEntity
  8
0
  6
PHANTOM
 62
               2
100
AcDbLine
 10
-74.299999999999869
 20
5.5000000000000853
 30
0.0
 11
-75.999999999999687
 21
5.4999999999998863
 31
0.0
  0
LINE
  5
4DD
100
AcDbEntity
  8
0
  6
PHANTOM
 62
               2
100
AcDbLine
 10
-73.999999999999687
 20
4.5000000000000853
 30
0.0
 11
-74.299999999999869
 21
4.5000000000000853
 31
0.0
  0
LINE
  5
4DE
100
AcDbEntity
  8
0
  6
PHANTOM
 62
               2
100
AcDbLine
 10
-75.999999999999687
 20
7.4999999999998863
 30
0.0
 11
-75.999999999999687
 21
-7.5000000000000568
 31
0.0
  0
LINE
  5
4DF
100
AcDbEntity
  8
0
  6
PHANTOM
 62
               2
100
AcDbLine
 10
-74.299999999999869
 20
5.5000000000000853
 30
0.0
 11
-74.299999999999869
 21
-5.4999999999999432
 31
0.0
  0
ARC
  5
4E0
100
AcDbEntity
  8
0
  6
PHANTOM
 62
               2
100
AcDbCircle
 10
-76.499999999999915
 20
7.5000000000000853
 30
0.0
 40
0.5
100
AcDbArc
 50
0.000000000000007
 51
90.0
  0
ARC
  5
4E1
100
AcDbEntity
  8
0
  6
PHANTOM
 62
               2
100
AcDbCircle
 10
-78.0709548453423
 20
0.0
 30
0.0
 40
0.4
100
AcDbArc
 50
270.0
 51
90.0
  0
ARC
  5
4E2
100
AcDbEntity
  8
0
  6
PHANTOM
 62
               2
100
AcDbCircle
 10
-78.0709548453423
 20
-5.9999999999999432
 30
0.0
 40
0.4
100
AcDbArc
 50
270.0
 51
90.0
  0
ARC
  5
4E3
100
AcDbEntity
  8
0
  6
PHANTOM
 62
               2
100
AcDbCircle
 10
-78.0709548453423
 20
-2.9999999999999432
 30
0.0
 40
0.4
100
AcDbArc
 50
270.0
 51
90.0
  0
ARC
  5
4E4
100
AcDbEntity
  8
0
  6
PHANTOM
 62
               2
100
AcDbCircle
 10
-76.499999999999915
 20
-7.4999999999999432
 30
0.0
 40
0.5
100
AcDbArc
 50
270.0
 51
0.0
  0
LINE
  5
4E5
100
AcDbEntity
  8
0
  6
PHANTOM
 62
               2
100
AcDbLine
 10
-76.499999999999687
 20
-8.0000000000000568
 30
0.0
 11
-84.69999999999996
 21
-8.0000000000000568
 31
0.0
  0
LINE
  5
4E6
100
AcDbEntity
  8
0
  6
PHANTOM
 62
               2
100
AcDbLine
 10
-74.299999999999869
 20
-5.4999999999999432
 30
0.0
 11
-75.999999999999687
 21
-5.5000000000000568
 31
0.0
  0
LINE
  5
4E7
100
AcDbEntity
  8
0
  6
PHANTOM
 62
               2
100
AcDbLine
 10
-73.999999999999687
 20
-4.4999999999999432
 30
0.0
 11
-74.299999999999869
 21
-4.4999999999999432
 31
0.0
  0
LINE
  5
4E8
100
AcDbEntity
  8
0
  6
PHANTOM
 62
               2
100
AcDbLine
 10
74.000000000000085
 20
-4.4999999999999432
 30
0.0
 11
74.300000000000182
 21
-4.4999999999999432
 31
0.0
  0
LINE
  5
4E9
100
AcDbEntity
  8
0
  6
PHANTOM
 62
               2
100
AcDbLine
 10
74.300000000000182
 20
-5.4999999999999432
 30
0.0
 11
76.000000000000085
 21
-5.5000000000000568
 31
0.0
  0
LINE
  5
4EA
100
AcDbEntity
  8
0
  6
PHANTOM
 62
               2
100
AcDbLine
 10
76.500000000000085
 20
-8.0000000000000568
 30
0.0
 11
84.700000000000301
 21
-8.0000000000000568
 31
0.0
  0
LINE
  5
4EB
100
AcDbEntity
  8
0
  6
PHANTOM
 62
               2
100
AcDbLine
 10
85.500000000000085
 20
-7.0000000000000568
 30
0.0
 11
85.200000000000387
 21
-7.0000000000000568
 31
0.0
  0
ARC
  5
4EC
100
AcDbEntity
  8
0
  6
PHANTOM
 62
               2
100
AcDbCircle
 10
85.500000000000284
 20
-6.4999999999999432
 30
0.0
 40
0.5
100
AcDbArc
 50
270.0
 51
0.0
  0
ARC
  5
4ED
100
AcDbEntity
  8
0
  6
PHANTOM
 62
               2
100
AcDbCircle
 10
84.700000000000301
 20
-7.5000000000000568
 30
0.0
 40
0.5
100
AcDbArc
 50
270.0
 51
0.0
  0
ARC
  5
4EE
100
AcDbEntity
  8
0
  6
PHANTOM
 62
               2
100
AcDbCircle
 10
76.500000000000284
 20
-7.4999999999999432
 30
0.0
 40
0.5
100
AcDbArc
 50
180.0
 51
270.0
  0
ARC
  5
4EF
100
AcDbEntity
  8
0
  6
PHANTOM
 62
               2
100
AcDbCircle
 10
78.070954845342698
 20
-2.9999999999999432
 30
0.0
 40
0.4
100
AcDbArc
 50
90.0
 51
270.0
  0
LINE
  5
4F0
100
AcDbEntity
  8
0
  6
PHANTOM
 62
               2
100
AcDbLine
 10
85.200000000000387
 20
-2.5999999999999659
 30
0.0
 11
78.070954845342499
 21
-2.5999999999999659
 31
0.0
  0
LINE
  5
4F1
100
AcDbEntity
  8
0
  6
PHANTOM
 62
               2
100
AcDbLine
 10
85.200000000000387
 20
-3.3999999999999204
 30
0.0
 11
78.070954845342499
 21
-3.3999999999999204
 31
0.0
  0
LINE
  5
4F2
100
AcDbEntity
  8
0
  6
PHANTOM
 62
               2
100
AcDbLine
 10
85.200000000000387
 20
-6.3999999999999204
 30
0.0
 11
78.070954845342499
 21
-6.3999999999999204
 31
0.0
  0
LINE
  5
4F3
100
AcDbEntity
  8
0
  6
PHANTOM
 62
               2
100
AcDbLine
 10
85.200000000000387
 20
-5.5999999999999659
 30
0.0
 11
78.070954845342499
 21
-5.5999999999999659
 31
0.0
  0
ARC
  5
4F4
100
AcDbEntity
  8
0
  6
PHANTOM
 62
               2
100
AcDbCircle
 10
78.070954845342698
 20
-5.9999999999999432
 30
0.0
 40
0.4
100
AcDbArc
 50
90.0
 51
270.0
  0
LINE
  5
4F5
100
AcDbEntity
  8
0
  6
PHANTOM
 62
               2
100
AcDbLine
 10
85.200000000000387
 20
-0.3999999999999204
 30
0.0
 11
78.070954845342499
 21
-0.3999999999999204
 31
0.0
  0
LINE
  5
4F6
100
AcDbEntity
  8
0
  6
PHANTOM
 62
               2
100
AcDbLine
 10
85.200000000000387
 20
0.3999999999999773
 30
0.0
 11
78.070954845342499
 21
0.3999999999999773
 31
0.0
  0
ARC
  5
4F7
100
AcDbEntity
  8
0
  6
PHANTOM
 62
               2
100
AcDbCircle
 10
78.070954845342698
 20
0.0
 30
0.0
 40
0.4
100
AcDbArc
 50
90.0
 51
270.0
  0
LINE
  5
4F8
100
AcDbEntity
  8
0
  6
PHANTOM
 62
               2
100
AcDbLine
 10
85.200000000000387
 20
2.6000000000000796
 30
0.0
 11
78.070954845342499
 21
2.6000000000000796
 31
0.0
  0
LINE
  5
4F9
100
AcDbEntity
  8
0
  6
PHANTOM
 62
               2
100
AcDbLine
 10
76.500000000000085
 20
7.9999999999998863
 30
0.0
 11
84.700000000000301
 21
7.9999999999998863
 31
0.0
  0
LINE
  5
4FA
100
AcDbEntity
  8
0
  6
PHANTOM
 62
               2
100
AcDbLine
 10
85.500000000000085
 20
6.9999999999998863
 30
0.0
 11
85.200000000000387
 21
6.9999999999998863
 31
0.0
  0
ARC
  5
4FB
100
AcDbEntity
  8
0
  6
PHANTOM
 62
               2
100
AcDbCircle
 10
85.500000000000284
 20
6.4999999999998863
 30
0.0
 40
0.5
100
AcDbArc
 50
0.0
 51
90.0
  0
ARC
  5
4FC
100
AcDbEntity
  8
0
  6
PHANTOM
 62
               2
100
AcDbCircle
 10
84.700000000000301
 20
7.5000000000000853
 30
0.0
 40
0.5
100
AcDbArc
 50
0.0
 51
90.0
  0
ARC
  5
4FD
100
AcDbEntity
  8
0
  6
PHANTOM
 62
               2
100
AcDbCircle
 10
76.500000000000284
 20
7.5000000000000853
 30
0.0
 40
0.5
100
AcDbArc
 50
90.0
 51
180.0
  0
LINE
  5
4FE
100
AcDbEntity
  8
0
  6
PHANTOM
 62
               2
100
AcDbLine
 10
85.200000000000387
 20
6.3999999999999773
 30
0.0
 11
78.070954845342499
 21
6.3999999999999773
 31
0.0
  0
LINE
  5
4FF
100
AcDbEntity
  8
0
  6
PHANTOM
 62
               2
100
AcDbLine
 10
86.000000000000085
 20
6.4999999999998863
 30
0.0
 11
86.000000000000085
 21
-6.5000000000000568
 31
0.0
  0
LINE
  5
500
100
AcDbEntity
  8
0
  6
PHANTOM
 62
               2
100
AcDbLine
 10
85.200000000000387
 20
7.4999999999998863
 30
0.0
 11
85.200000000000387
 21
-7.5000000000000568
 31
0.0
  0
LINE
  5
501
100
AcDbEntity
  8
0
  6
PHANTOM
 62
               2
100
AcDbLine
 10
74.300000000000182
 20
5.5000000000000853
 30
0.0
 11
74.300000000000182
 21
-5.4999999999999432
 31
0.0
  0
LINE
  5
502
100
AcDbEntity
  8
0
  6
PHANTOM
 62
               2
100
AcDbLine
 10
76.000000000000085
 20
7.4999999999998863
 30
0.0
 11
76.000000000000085
 21
-7.5000000000000568
 31
0.0
  0
LINE
  5
503
100
AcDbEntity
  8
0
  6
PHANTOM
 62
               2
100
AcDbLine
 10
74.000000000000085
 20
4.5000000000000853
 30
0.0
 11
74.300000000000182
 21
4.5000000000000853
 31
0.0
  0
LINE
  5
504
100
AcDbEntity
  8
0
  6
PHANTOM
 62
               2
100
AcDbLine
 10
74.300000000000182
 20
5.5000000000000853
 30
0.0
 11
76.000000000000085
 21
5.4999999999998863
 31
0.0
  0
ARC
  5
505
100
AcDbEntity
  8
0
  6
PHANTOM
 62
               2
100
AcDbCircle
 10
78.070954845342698
 20
3.0
 30
0.0
 40
0.4
100
AcDbArc
 50
90.0
 51
270.0
  0
LINE
  5
506
100
AcDbEntity
  8
0
  6
PHANTOM
 62
               2
100
AcDbLine
 10
85.200000000000387
 20
3.3999999999999773
 30
0.0
 11
78.070954845342499
 21
3.3999999999999773
 31
0.0
  0
LINE
  5
507
100
AcDbEntity
  8
0
  6
PHANTOM
 62
               2
100
AcDbLine
 10
85.200000000000387
 20
5.6000000000000796
 30
0.0
 11
78.070954845342499
 21
5.6000000000000796
 31
0.0
  0
ARC
  5
508
100
AcDbEntity
  8
0
  6
PHANTOM
 62
               2
100
AcDbCircle
 10
78.070954845342698
 20
6.0
 30
0.0
 40
0.4
100
AcDbArc
 50
90.0
 51
270.0
  0
CIRCLE
  5
509
100
AcDbEntity
  8
0
  6
PHANTOM
 62
               2
100
AcDbCircle
 10
30.0
 20
0.0
 30
0.0
 40
2.25
  0
CIRCLE
  5
50A
100
AcDbEntity
  8
0
  6
PHANTOM
 62
               2
100
AcDbCircle
 10
-30.000000000000114
 20
0.0
 30
0.0
 40
2.25
  0
CIRCLE
  5
50B
100
AcDbEntity
  8
0
  6
PHANTOM
 62
               2
100
AcDbCircle
 10
0.0
 20
0.0
 30
0.0
 40
2.25
  0
LINE
  5
50C
100
AcDbEntity
  8
0
  6
PHANTOM
 62
               2
100
AcDbLine
 10
74.0
 20
25.000000000000085
 30
0.0
 11
74.0
 21
-24.999999999999943
 31
0.0
  0
LINE
  5
50D
100
AcDbEntity
  8
0
  6
PHANTOM
 62
               2
100
AcDbLine
 10
-74.000000000000028
 20
25.000000000000085
 30
0.0
 11
-74.000000000000028
 21
-24.999999999999943
 31
0.0
  0
LINE
  5
50E
100
AcDbEntity
  8
0
  6
PHANTOM
 62
               2
100
AcDbLine
 10
-74.000000000000028
 20
25.000000000000085
 30
0.0
 11
74.0
 21
25.000000000000085
 31
0.0
  0
LINE
  5
50F
100
AcDbEntity
  8
0
  6
PHANTOM
 62
               2
100
AcDbLine
 10
74.0
 20
-24.999999999999943
 30
0.0
 11
-74.000000000000028
 21
-24.999999999999943
 31
0.0
  0
LINE
  5
510
100
AcDbEntity
  8
0
  6
CONTINUOUS
 62
               7
100
AcDbLine
 10
59.25
 20
-31.0
 30
0.0
 11
-59.250000000000085
 21
-31.0
 31
0.0
  0
LINE
  5
511
100
AcDbEntity
  8
0
  6
CONTINUOUS
 62
               7
100
AcDbLine
 10
69.999999999999787
 20
25.000000000000085
 30
0.0
 11
69.999999999999787
 21
-24.999999999999943
 31
0.0
  0
LINE
  5
512
100
AcDbEntity
  8
0
  6
CONTINUOUS
 62
               7
100
AcDbLine
 10
-70.000000000000085
 20
25.000000000000085
 30
0.0
 11
-70.000000000000085
 21
-24.999999999999943
 31
0.0
  0
LINE
  5
513
100
AcDbEntity
  8
0
  6
CONTINUOUS
 62
               7
100
AcDbLine
 10
68.999999999999972
 20
23.999999999999517
 30
0.0
 11
-69.000000000000028
 21
23.999999999999829
 31
0.0
  0
LINE
  5
514
100
AcDbEntity
  8
0
  6
CONTINUOUS
 62
               7
100
AcDbLine
 10
69.999999999999744
 20
25.000000000000028
 30
0.0
 11
-70.000000000000028
 21
25.000000000000028
 31
0.0
  0
LINE
  5
515
100
AcDbEntity
  8
0
  6
CONTINUOUS
 62
               7
100
AcDbLine
 10
68.499999999999972
 20
23.800000000000011
 30
0.0
 11
-68.500000000000028
 21
23.800000000000011
 31
0.0
  0
CIRCLE
  5
516
100
AcDbEntity
  8
0
  6
CONTINUOUS
 62
               7
100
AcDbCircle
 10
64.94999999999979
 20
18.000000000000028
 30
0.0
 40
3.0
  0
LINE
  5
517
100
AcDbEntity
  8
0
  6
CONTINUOUS
 62
               7
100
AcDbLine
 10
68.499999999999972
 20
23.800000000000011
 30
0.0
 11
68.999999999999972
 21
23.300000000000011
 31
0.0
  0
LINE
  5
518
100
AcDbEntity
  8
0
  6
CONTINUOUS
 62
               7
100
AcDbLine
 10
-69.000000000000256
 20
-24.999999999999943
 30
0.0
 11
-69.000000000000256
 21
23.999999999999829
 31
0.0
  0
CIRCLE
  5
519
100
AcDbEntity
  8
0
  6
CONTINUOUS
 62
               7
100
AcDbCircle
 10
-64.949999999999392
 20
17.750000000000028
 30
0.0
 40
3.0
  0
LINE
  5
51A
100
AcDbEntity
  8
0
  6
CONTINUOUS
 62
               7
100
AcDbLine
 10
-68.500000000000028
 20
23.800000000000011
 30
0.0
 11
-69.000000000000028
 21
23.300000000000011
 31
0.0
  0
LINE
  5
51B
100
AcDbEntity
  8
0
  6
CONTINUOUS
 62
               7
100
AcDbLine
 10
68.999999999999972
 20
-24.999999999999943
 30
0.0
 11
-69.000000000000028
 21
-24.999999999999943
 31
0.0
  0
CIRCLE
  5
51C
100
AcDbEntity
  8
0
  6
CONTINUOUS
 62
               7
100
AcDbCircle
 10
22.499999999999972
 20
0.0000000000000142
 30
0.0
 40
1.1999999999999991
  0
CIRCLE
  5
51D
100
AcDbEntity
  8
0
  6
CONTINUOUS
 62
               2
100
AcDbCircle
 10
22.499999999999972
 20
0.0000000000000142
 30
0.0
 40
1.5
  0
CIRCLE
  5
51E
100
AcDbEntity
  8
0
  6
CONTINUOUS
 62
               7
100
AcDbCircle
 10
-22.500000000000028
 20
0.0000000000000142
 30
0.0
 40
1.1999999999999991
  0
CIRCLE
  5
51F
100
AcDbEntity
  8
0
  6
CONTINUOUS
 62
               2
100
AcDbCircle
 10
-22.500000000000028
 20
0.0000000000000142
 30
0.0
 40
1.5
  0
LINE
  5
520
100
AcDbEntity
  8
0
  6
CONTINUOUS
 62
               2
100
AcDbLine
 10
22.499999999999915
 20
4.3365941923209448
 30
0.0
 11
22.499999999999915
 21
-4.3365941923208169
 31
0.0
  0
LINE
  5
521
100
AcDbEntity
  8
0
  6
CONTINUOUS
 62
               2
100
AcDbLine
 10
-22.500000000000028
 20
4.3365941923209448
 30
0.0
 11
-22.500000000000028
 21
-4.3365941923208169
 31
0.0
  0
LINE
  5
522
100
AcDbEntity
  8
0
  6
CONTINUOUS
 62
               7
100
AcDbLine
 10
68.999999999999972
 20
-24.999999999999943
 30
0.0
 11
68.999999999999972
 21
23.999999999999829
 31
0.0
  0
LINE
  5
523
100
AcDbEntity
  8
0
  6
CONTINUOUS
 62
               2
100
AcDbLine
 10
0.0
 20
44.357363446544781
 30
0.0
 11
0.0
 21
-44.357363446544639
 31
0.0
  0
LINE
  5
524
100
AcDbEntity
  8
0
  6
CONTINUOUS
 62
               2
100
AcDbLine
 10
89.135477364127212
 20
0.0
 30
0.0
 11
-89.135477364127269
 21
0.0
 31
0.0
  0
ENDBLK
  5
525
100
AcDbEntity
  8
0
100
AcDbBlockEnd
  0
ENDSEC
  0
SECTION
  2
ENTITIES
  0
INSERT
  5
526
100
AcDbEntity
  8
0
  6
ByBlock
100
AcDbBlockReference
  2
DTRY-ELF04-4
 10
-150.0
 20
-118.94645618662054
 30
0.0
  0
INSERT
  5
527
100
AcDbEntity
  8
0
  6
ByBlock
100
AcDbBlockReference
  2
DTRY-ELF04-3
 10
170.0
 20
-30.0
 30
0.0
  0
INSERT
  5
528
100
AcDbEntity
  8
0
  6
ByBlock
100
AcDbBlockReference
  2
DTRY-ELF04-2
 10
11.48823054050365
 20
-29.999999999999986
 30
0.0
  0
INSERT
  5
529
100
AcDbEntity
  8
0
  6
ByBlock
100
AcDbBlockReference
  2
DTRY-ELF04-1
 10
-150.0
 20
-29.999999999999986
 30
0.0
 50
360.0
  0
MTEXT
  5
52A
100
AcDbEntity
  8
0
  6
CONTINUOUS
 62
               7
100
AcDbMText
 10
-251.6822043090194
 20
180.5
 30
0.0
 40
6.3000001907348633
 41
0.0
 71
               4
 72
               1
  1
\W1.017;\A1;DTRY-ELF04
  0
MTEXT
  5
52B
100
AcDbEntity
  8
0
  6
CONTINUOUS
 62
               7
100
AcDbMText
 10
-267.36961862439284
 20
190.5
 30
0.0
 40
6.3000001907348633
 41
0.0
 71
               4
 72
               1
  1
\W1.077;\A1;CRECEED IONIZER
  0
LINE
  5
52C
100
AcDbEntity
  8
0
  6
CONTINUOUS
 62
               7
100
AcDbLine
 10
-281.25
 20
175.5
 30
0.0
 11
-161.25
 21
175.5
 31
0.0
  0
LINE
  5
52D
100
AcDbEntity
  8
0
  6
CONTINUOUS
 62
               7
100
AcDbLine
 10
-161.25
 20
195.5
 30
0.0
 11
-161.25
 21
175.5
 31
0.0
  0
LINE
  5
52E
100
AcDbEntity
  8
0
  6
CONTINUOUS
 62
               7
100
AcDbLine
 10
162.0999755859375
 20
-175.0
 30
0.0
 11
162.0999755859375
 21
-195.0
 31
0.0
  0
LINE
  5
52F
100
AcDbEntity
  8
0
  6
CONTINUOUS
 62
               7
100
AcDbLine
 10
162.0999755859375
 20
-175.0
 30
0.0
 11
282.099853515625
 21
-175.0
 31
0.0
  0
MTEXT
  5
530
100
AcDbEntity
  8
0
  6
CONTINUOUS
 62
               7
100
AcDbMText
 10
170.2809980228688
 20
-185.0
 30
0.0
 40
9.0
 41
0.0
 71
               4
 72
               1
  1
\W1.121;\A1;KOGANEI CORP.
  0
MTEXT
  5
531
100
AcDbEntity
  8
0
  6
CONTINUOUS
 62
               7
100
AcDbMText
 10
198.2770240315611
 20
185.5
 30
0.0
 40
6.3000001907348633
 41
0.0
 71
               4
 72
               1
  1
\W1.311;\A1;Ver. 1.0
  0
LINE
  5
532
100
AcDbEntity
  8
0
  6
CONTINUOUS
 62
               7
100
AcDbLine
 10
162.0999755859375
 20
175.5
 30
0.0
 11
282.099853515625
 21
175.5
 31
0.0
  0
LINE
  5
533
100
AcDbEntity
  8
0
  6
CONTINUOUS
 62
               7
100
AcDbLine
 10
162.0999755859375
 20
195.5
 30
0.0
 11
162.0999755859375
 21
175.5
 31
0.0
  0
LINE
  5
534
100
AcDbEntity
  8
0
  6
CONTINUOUS
 62
               7
100
AcDbLine
 10
282.099853515625
 20
195.5
 30
0.0
 11
282.099853515625
 21
-195.0
 31
0.0
  0
LINE
  5
535
100
AcDbEntity
  8
0
  6
CONTINUOUS
 62
               7
100
AcDbLine
 10
-281.25
 20
195.5
 30
0.0
 11
282.099853515625
 21
195.5
 31
0.0
  0
LINE
  5
536
100
AcDbEntity
  8
0
  6
CONTINUOUS
 62
               7
100
AcDbLine
 10
-281.25
 20
195.5
 30
0.0
 11
-281.25
 21
-195.0
 31
0.0
  0
LINE
  5
537
100
AcDbEntity
  8
0
  6
CONTINUOUS
 62
               7
100
AcDbLine
 10
-281.25
 20
-195.0
 30
0.0
 11
282.099853515625
 21
-195.0
 31
0.0
  0
MTEXT
  5
538
100
AcDbEntity
  8
0
  6
CONTINUOUS
 62
               7
100
AcDbMText
 10
-268.29230775341381
 20
160.5
 30
0.0
 40
6.3000001907348633
 41
0.0
 71
               4
 72
               1
  1
\W1.055;\A1;MODEL:DTRY-ELF04
  0
ENDSEC
  0
SECTION
  2
OBJECTS
  0
DICTIONARY
  5
19
100
AcDbDictionary
  3
ACAD_GROUP
350
1A
  3
ACAD_MLINESTYLE
350
1B
  0
DICTIONARY
  5
1A
102
{ACAD_REACTORS
330
19
102
}
100
AcDbDictionary
  0
DICTIONARY
  5
1B
102
{ACAD_REACTORS
330
19
102
}
100
AcDbDictionary
  3
STANDARD
350
1C
  0
MLINESTYLE
  5
1C
102
{ACAD_REACTORS
330
1B
102
}
100
AcDbMlineStyle
  2
Standard
 70
               0
  3

 62
               0
 51
90.0
 52
90.0
 71
               2
 49
0.5
 62
             256
  6
ByLayer
 49
-0.5
 62
             256
  6
ByLayer
  0
ENDSEC
  0
EOF
