  0
SECTION
  2
HEADER
  9
$ACADVER
  1
AC1012
  9
$DWGCODEPAGE
  3
dos932
  9
$INSBASE
 10
0.0
 20
0.0
 30
0.0
  9
$EXTMIN
 10
-281.25
 20
-195.0
 30
0.0
  9
$EXTMAX
 10
285.6319057062413
 20
195.5
 30
0.0
  9
$LIMMIN
 10
-281.25
 20
-195.0
  9
$LIMMAX
 10
285.6319057062413
 20
195.5
  9
$ORTHOMODE
 70
               0
  9
$REGENMODE
 70
               1
  9
$FILLMODE
 70
               1
  9
$QTEXTMODE
 70
               0
  9
$MIRRTEXT
 70
               1
  9
$DRAGMODE
 70
               2
  9
$LTSCALE
 40
1.0
  9
$OSMODE
 70
               0
  9
$ATTMODE
 70
               1
  9
$TEXTSIZE
 40
3.2000000476837158
  9
$TRACEWID
 40
0.05
  9
$TEXTSTYLE
  7
MX_NOTE_STANDARD
  9
$CLAYER
  8
0
  9
$CELTYPE
  6
CONTINUOUS
  9
$CECOLOR
 62
             256
  9
$CELTSCALE
 40
1.0
  9
$DELOBJ
 70
               1
  9
$DISPSILH
 70
               0
  9
$DIMSCALE
 40
1.0
  9
$DIMASZ
 40
2.5
  9
$DIMEXO
 40
1.5
  9
$DIMDLI
 40
3.75
  9
$DIMRND
 40
0.0
  9
$DIMDLE
 40
0.0
  9
$DIMEXE
 40
1.5
  9
$DIMTP
 40
0.0
  9
$DIMTM
 40
0.0
  9
$DIMTXT
 40
3.2000000476837158
  9
$DIMCEN
 40
2.5
  9
$DIMTSZ
 40
0.0
  9
$DIMTOL
 70
               0
  9
$DIMLIM
 70
               0
  9
$DIMTIH
 70
               0
  9
$DIMTOH
 70
               0
  9
$DIMSE1
 70
               0
  9
$DIMSE2
 70
               0
  9
$DIMTAD
 70
               1
  9
$DIMZIN
 70
               8
  9
$DIMBLK
  1

  9
$DIMASO
 70
               1
  9
$DIMSHO
 70
               1
  9
$DIMPOST
  1

  9
$DIMAPOST
  1

  9
$DIMALT
 70
               0
  9
$DIMALTD
 70
               4
  9
$DIMALTF
 40
0.03937007874016
  9
$DIMLFAC
 40
1.0
  9
$DIMTOFL
 70
               1
  9
$DIMTVP
 40
0.0
  9
$DIMTIX
 70
               0
  9
$DIMSOXD
 70
               0
  9
$DIMSAH
 70
               0
  9
$DIMBLK1
  1

  9
$DIMBLK2
  1

  9
$DIMSTYLE
  2
MXDIMSTYLE
  9
$DIMCLRD
 70
               0
  9
$DIMCLRE
 70
               0
  9
$DIMCLRT
 70
               0
  9
$DIMTFAC
 40
1.0
  9
$DIMGAP
 40
1.0
  9
$DIMJUST
 70
               0
  9
$DIMSD1
 70
               0
  9
$DIMSD2
 70
               0
  9
$DIMTOLJ
 70
               1
  9
$DIMTZIN
 70
               0
  9
$DIMALTZ
 70
               0
  9
$DIMALTTZ
 70
               0
  9
$DIMFIT
 70
               3
  9
$DIMUPT
 70
               1
  9
$DIMUNIT
 70
               2
  9
$DIMDEC
 70
               4
  9
$DIMTDEC
 70
               4
  9
$DIMALTU
 70
               2
  9
$DIMALTTD
 70
               4
  9
$DIMTXSTY
  7
MX_NOTE_STANDARD
  9
$DIMAUNIT
 70
               0
  9
$LUNITS
 70
               2
  9
$LUPREC
 70
               4
  9
$SKETCHINC
 40
0.1
  9
$FILLETRAD
 40
0.0
  9
$AUNITS
 70
               0
  9
$AUPREC
 70
               0
  9
$MENU
  1
acad
  9
$ELEVATION
 40
0.0
  9
$PELEVATION
 40
0.0
  9
$THICKNESS
 40
0.0
  9
$LIMCHECK
 70
               0
  9
$BLIPMODE
 70
               1
  9
$CHAMFERA
 40
0.0
  9
$CHAMFERB
 40
0.0
  9
$CHAMFERC
 40
0.0
  9
$CHAMFERD
 40
0.0
  9
$SKPOLY
 70
               0
  9
$TDCREATE
 40
2453378.356284722
  9
$TDUPDATE
 40
2453378.356284722
  9
$TDINDWG
 40
0.0000000000
  9
$TDUSRTIMER
 40
0.0000000000
  9
$USRTIMER
 70
               1
  9
$ANGBASE
 50
0.0
  9
$ANGDIR
 70
               0
  9
$PDMODE
 70
               0
  9
$PDSIZE
 40
0.0
  9
$PLINEWID
 40
0.0
  9
$COORDS
 70
               1
  9
$SPLFRAME
 70
               0
  9
$SPLINETYPE
 70
               6
  9
$SPLINESEGS
 70
               8
  9
$ATTDIA
 70
               0
  9
$ATTREQ
 70
               1
  9
$HANDLING
 70
               1
  9
$HANDSEED
  5
425
  9
$SURFTAB1
 70
               6
  9
$SURFTAB2
 70
               6
  9
$SURFTYPE
 70
               6
  9
$SURFU
 70
               6
  9
$SURFV
 70
               6
  9
$UCSNAME
  2

  9
$UCSORG
 10
0.0
 20
0.0
 30
0.0
  9
$UCSXDIR
 10
1.0
 20
0.0
 30
0.0
  9
$UCSYDIR
 10
0.0
 20
1.0
 30
0.0
  9
$PUCSNAME
  2

  9
$PUCSORG
 10
0.0
 20
0.0
 30
0.0
  9
$PUCSXDIR
 10
1.0
 20
0.0
 30
0.0
  9
$PUCSYDIR
 10
0.0
 20
1.0
 30
0.0
  9
$USERI1
 70
               0
  9
$USERI2
 70
               0
  9
$USERI3
 70
               0
  9
$USERI4
 70
               0
  9
$USERI5
 70
               0
  9
$USERR1
 40
0.0
  9
$USERR2
 40
0.0
  9
$USERR3
 40
0.0
  9
$USERR4
 40
0.0
  9
$USERR5
 40
0.0
  9
$WORLDVIEW
 70
               1
  9
$SHADEDGE
 70
               3
  9
$SHADEDIF
 70
              70
  9
$TILEMODE
 70
               1
  9
$MAXACTVP
 70
              16
  9
$PINSBASE
 10
0.0
 20
0.0
 30
0.0
  9
$PLIMCHECK
 70
               0
  9
$PEXTMIN
 10
1.0000000000000000E+20
 20
1.0000000000000000E+20
 30
1.0000000000000000E+20
  9
$PEXTMAX
 10
-1.0000000000000000E+20
 20
-1.0000000000000000E+20
 30
-1.0000000000000000E+20
  9
$PLIMMIN
 10
0.0
 20
0.0
  9
$PLIMMAX
 10
12.0
 20
9.0
  9
$UNITMODE
 70
               0
  9
$VISRETAIN
 70
               0
  9
$PLINEGEN
 70
               1
  9
$PSLTSCALE
 70
               0
  9
$TREEDEPTH
 70
            3020
  9
$PICKSTYLE
 70
               1
  9
$CMLSTYLE
  2
Standard
  9
$CMLJUST
 70
               0
  9
$CMLSCALE
 40
1.0
  9
$SAVEIMAGES
 70
               0
  0
ENDSEC
  0
SECTION
  2
CLASSES
  0
CLASS
  1
LWPOLYLINE
  2
AcDbPolyline
  3
"AutoCAD"
 90
        0
280
               0
281
               1
  0
CLASS
  1
IMAGE
  2
AcDbRasterImage
  3
ISM
 90
      127
280
               0
281
               1
  0
CLASS
  1
OLE2FRAME
  2
AcDbOle2Frame
  3
""
 90
        0
280
               0
281
               1
  0
CLASS
  1
HATCH
  2
AcDbHatch
  3
"ACAD_SEDONA"
 90
        0
280
               0
281
               1
  0
CLASS
  1
DICTIONARYVAR
  2
AcDbDictionaryVar
  3
"AutoCAD"
 90
        0
280
               0
281
               0
  0
CLASS
  1
RASTERVARIABLES
  2
AcDbRasterVariables
  3
ISM
 90
        0
280
               0
281
               0
  0
CLASS
  1
IMAGEDEF
  2
AcDbRasterImageDef
  3
ISM
 90
        0
280
               0
281
               0
  0
CLASS
  1
IMAGEDEF_REACTOR
  2
AcDbRasterImageDefReactor
  3
ISM
 90
        1
280
               0
281
               0
  0
CLASS
  1
IDBUFFER
  2
AcDbIdBuffer
  3
"Acad"
 90
        0
280
               0
281
               0
  0
CLASS
  1
SPATIAL_FILTER
  2
AcDbSpatialFilter
  3
"Acad"
 90
        0
280
               0
281
               0
  0
CLASS
  1
XRECORD
  2
AcDbXrecord
  3
"<Built In>"
 90
        0
280
               0
281
               0
  0
CLASS
  1
SORTENTSTABLE
  2
AcDbSortentsTable
  3
"AutoCAD"
 90
        0
280
               0
281
               0
  0
CLASS
  1
LAYER_INDEX
  2
AcDbLayerIndex
  3
"Acad"
 90
        0
280
               0
281
               0
  0
CLASS
  1
SPATIAL_INDEX
  2
AcDbSpatialIndex
  3
"Acad"
 90
        0
280
               0
281
               0
  0
CLASS
  1
OBJECT_PTR
  2
CAseDLPNTableRecord
  3
"ASE-LPNTableRecord"
 90
        1
280
               0
281
               0
  0
CLASS
  1
LAYOUT
  2
AcDbLayout
  3
"AutoCAD 2000"
 90
        1
280
               0
281
               0
  0
CLASS
  1
PLOTSETTINGS
  2
AcDbPlotSettings
  3
"AutoCAD 2000"
 90
        1
280
               0
281
               0
  0
CLASS
  1
ACDBDICTIONARYWDFLT
  2
AcDbDictionaryWithDefault
  3
"AutoCAD 2000"
 90
        1
280
               0
281
               0
  0
CLASS
  1
ACDBPLACEHOLDER
  2
AcDbPlaceHolder
  3
"AutoCAD 2000"
 90
        1
280
               0
281
               0
  0
ENDSEC
  0
SECTION
  2
TABLES
  0
TABLE
  2
VPORT
  5
7
100
AcDbSymbolTable
 70
               1
  0
VPORT
  5
15
100
AcDbSymbolTableRecord
100
AcDbViewportTableRecord
  2
*ACTIVE
 70
               0
 10
0.0
 20
0.0
 11
1.0
 21
1.0
 12
2.1909528531206206
 22
0.25
 13
0.0
 23
0.0
 14
1.0
 24
1.0
 15
0.0
 25
0.0
 16
0.0
 26
0.0
 36
1.0
 17
0.0
 27
0.0
 37
0.0
 40
394.40500000000003
 41
1.7320508075688772
 42
50.0
 43
0.0
 44
0.0
 50
0.0
 51
0.0
 71
               0
 72
             100
 73
               1
 74
               1
 75
               0
 76
               0
 77
               0
 78
               0
  0
ENDTAB
  0
TABLE
  2
LTYPE
  5
4
100
AcDbSymbolTable
 70
               6
  0
LTYPE
  5
11
100
AcDbSymbolTableRecord
100
AcDbLinetypeTableRecord
  2
BYBLOCK
 70
              64
  3

 72
              65
 73
               0
 40
0.0
  0
LTYPE
  5
12
100
AcDbSymbolTableRecord
100
AcDbLinetypeTableRecord
  2
BYLAYER
 70
              64
  3

 72
              65
 73
               0
 40
0.0
  0
LTYPE
  5
13
100
AcDbSymbolTableRecord
100
AcDbLinetypeTableRecord
  2
CONTINUOUS
 70
              64
  3
Solid line
 72
              65
 73
               0
 40
0.0
  0
LTYPE
  5
2A
100
AcDbSymbolTableRecord
100
AcDbLinetypeTableRecord
  2
CENTER
 70
              64
  3
Center ____ _ ____ _ ____ _ ____ _ ____ _ ____
 72
              65
 73
               4
 40
26.0
 49
20.0
 74
               0
 49
-2.0
 74
               0
 49
2.0
 74
               0
 49
-2.0
 74
               0
  0
LTYPE
  5
A0
100
AcDbSymbolTableRecord
100
AcDbLinetypeTableRecord
  2
DASHED
 70
              64
  3
Dashed __ __ __ __ __ __ __ __ __ __ __ __ __ _
 72
              65
 73
               2
 40
4.0
 49
2.0
 74
               0
 49
-2.0
 74
               0
  0
LTYPE
  5
331
100
AcDbSymbolTableRecord
100
AcDbLinetypeTableRecord
  2
PHANTOM
 70
              64
  3
Phantom ______  __  __  ______  __  __  ______
 72
              65
 73
               6
 40
30.0
 49
20.0
 74
               0
 49
-2.0
 74
               0
 49
2.0
 74
               0
 49
-2.0
 74
               0
 49
2.0
 74
               0
 49
-2.0
 74
               0
  0
ENDTAB
  0
TABLE
  2
LAYER
  5
2
100
AcDbSymbolTable
 70
               2
  0
LAYER
  5
14
100
AcDbSymbolTableRecord
100
AcDbLayerTableRecord
  2
0
 70
               0
 62
               7
  6
CONTINUOUS
  0
LAYER
  5
1D
100
AcDbSymbolTableRecord
100
AcDbLayerTableRecord
  2
DEFPOINTS
 70
               0
 62
               7
  6
CONTINUOUS
  0
ENDTAB
  0
TABLE
  2
STYLE
  5
3
100
AcDbSymbolTable
 70
               1
  0
STYLE
  5
17
100
AcDbSymbolTableRecord
100
AcDbTextStyleTableRecord
  2
MX_NOTE_STANDARD
 70
               0
 40
0.0
 41
1.0
 50
0.0
 71
               0
 42
3.2000000476837158
  3
txt.shx
  4
extfont.shx
  0
ENDTAB
  0
TABLE
  2
VIEW
  5
5
100
AcDbSymbolTable
 70
               0
  0
ENDTAB
  0
TABLE
  2
UCS
  5
6
100
AcDbSymbolTable
 70
               0
  0
ENDTAB
  0
TABLE
  2
APPID
  5
8
100
AcDbSymbolTable
 70
               1
  0
APPID
  5
16
100
AcDbSymbolTableRecord
100
AcDbRegAppTableRecord
  2
ACAD
 70
               0
  0
ENDTAB
  0
TABLE
  2
DIMSTYLE
  5
9
100
AcDbSymbolTable
 70
               1
  0
DIMSTYLE
105
18
100
AcDbSymbolTableRecord
100
AcDbDimStyleTableRecord
  2
MXDIMSTYLE
 70
               0
  3

  4

  5

  6

  7

 40
1.0
 41
2.5
 42
1.5
 43
3.75
 44
1.5
 45
0.0
 46
0.0
 47
0.0
 48
0.0
 71
               0
 72
               0
 73
               0
 74
               0
 75
               0
 76
               0
 77
               1
 78
               8
140
3.2000000476837158
141
2.5
142
0.0
143
0.03937007874016
144
1.0
145
0.0
146
1.0
147
1.0
170
               0
171
               4
172
               1
173
               0
174
               0
175
               0
176
               0
177
               0
178
               0
270
               2
271
               4
272
               4
273
               2
274
               4
275
               0
280
               0
281
               0
282
               0
283
               1
284
               0
285
               0
286
               0
287
               3
288
               1
340
17
  0
ENDTAB
  0
TABLE
  2
BLOCK_RECORD
  5
1
100
AcDbSymbolTable
 70
               9
  0
BLOCK_RECORD
  5
A
100
AcDbSymbolTableRecord
100
AcDbBlockTableRecord
  2
*MODEL_SPACE
  0
BLOCK_RECORD
  5
B
100
AcDbSymbolTableRecord
100
AcDbBlockTableRecord
  2
*PAPER_SPACE
  0
BLOCK_RECORD
  5
1E
100
AcDbSymbolTableRecord
100
AcDbBlockTableRecord
  2
DTRY-ELL01-1
  0
BLOCK_RECORD
  5
1F
100
AcDbSymbolTableRecord
100
AcDbBlockTableRecord
  2
DTRY-ELL01-2
  0
BLOCK_RECORD
  5
20
100
AcDbSymbolTableRecord
100
AcDbBlockTableRecord
  2
DTRY-ELL01-3
  0
BLOCK_RECORD
  5
21
100
AcDbSymbolTableRecord
100
AcDbBlockTableRecord
  2
DTRY-ELL01-4
  0
BLOCK_RECORD
  5
22
100
AcDbSymbolTableRecord
100
AcDbBlockTableRecord
  2
DTRY-ELL01-5
  0
BLOCK_RECORD
  5
23
100
AcDbSymbolTableRecord
100
AcDbBlockTableRecord
  2
DTRY-ELL01-6
  0
BLOCK_RECORD
  5
24
100
AcDbSymbolTableRecord
100
AcDbBlockTableRecord
  2
DTRY-ELL01-7
  0
BLOCK_RECORD
  5
25
100
AcDbSymbolTableRecord
100
AcDbBlockTableRecord
  2
DTRY-ELL01-8
  0
BLOCK_RECORD
  5
26
100
AcDbSymbolTableRecord
100
AcDbBlockTableRecord
  2
DTRY-ELL01-9
  0
ENDTAB
  0
ENDSEC
  0
SECTION
  2
BLOCKS
  0
BLOCK
  5
D
100
AcDbEntity
  8
0
100
AcDbBlockBegin
  2
*MODEL_SPACE
 70
               0
 10
0.0
 20
0.0
 30
0.0
  3
*MODEL_SPACE
  1

  0
ENDBLK
  5
E
100
AcDbEntity
  8
0
100
AcDbBlockEnd
  0
BLOCK
  5
F
100
AcDbEntity
 67
               1
  8
0
100
AcDbBlockBegin
  2
*PAPER_SPACE
 70
               0
 10
0.0
 20
0.0
 30
0.0
  3
*PAPER_SPACE
  1

  0
ENDBLK
  5
10
100
AcDbEntity
 67
               1
  8
0
100
AcDbBlockEnd
  0
BLOCK
  5
27
100
AcDbEntity
  8
0
100
AcDbBlockBegin
  2
DTRY-ELL01-1
 70
               0
 10
0.0
 20
0.0
 30
0.0
  3
DTRY-ELL01-1
  1

  0
SPLINE
  5
28
100
AcDbEntity
  8
0
  6
CONTINUOUS
 62
               7
100
AcDbSpline
210
0.0
220
0.0
230
1.0
 70
               0
 71
               3
 72
               0
 73
               0
 74
               9
 44
0.000001
 12
0.152057184253941
 22
0.9883716976506172
 32
0.0
 13
-0.1520571842539409
 23
0.9883716976506172
 33
0.0
 11
6.0
 21
34.0
 31
0.0
 11
6.2175613610462488
 21
35.616034368284694
 31
0.0
 11
6.3739114451645795
 21
37.239386590354648
 31
0.0
 11
6.4683511352159275
 21
38.868527804817035
 31
0.0
 11
6.5
 21
40.5
 31
0.0
 11
6.4683511352159275
 21
42.131472195182965
 31
0.0
 11
6.3739114451645795
 21
43.760613409645352
 31
0.0
 11
6.2175613610462488
 21
45.383965631715306
 31
0.0
 11
6.0
 21
47.0
 31
0.0
  0
SPLINE
  5
29
100
AcDbEntity
  8
0
  6
CONTINUOUS
 62
               7
100
AcDbSpline
210
0.0
220
0.0
230
1.0
 70
               0
 71
               3
 72
               0
 73
               0
 74
              17
 44
0.000001
 12
-0.0995037190209989
 22
-0.9950371902099892
 32
0.0
 13
0.099503719020999
 23
-0.9950371902099892
 33
0.0
 11
71.0
 21
48.0
 31
0.0
 11
70.883161846781022
 21
46.753737513798661
 31
0.0
 11
70.781773095427241
 21
45.506102779984523
 31
0.0
 11
70.695853363248091
 21
44.257021667464848
 31
0.0
 11
70.625464973713107
 21
43.006974605696598
 31
0.0
 11
70.570638191698038
 21
41.755960988940018
 31
0.0
 11
70.531424365142414
 21
40.504359128560374
 31
0.0
 11
70.507863167789907
 21
39.2522776731128
 31
0.0
 11
70.5
 21
38.0
 31
0.0
 11
70.507863167789907
 21
36.7477223268872
 31
0.0
 11
70.531424365142414
 21
35.495640871439626
 31
0.0
 11
70.570638191698038
 21
34.244039011059982
 31
0.0
 11
70.625464973713107
 21
32.993025394303402
 31
0.0
 11
70.695853363248091
 21
31.742978332535152
 31
0.0
 11
70.781773095427241
 21
30.493897220015477
 31
0.0
 11
70.883161846781022
 21
29.246262486201339
 31
0.0
 11
71.0
 21
28.0
 31
0.0
  0
LINE
  5
2B
100
AcDbEntity
  8
0
  6
CENTER
 62
               2
100
AcDbLine
 10
-32.139999999999986
 20
40.5
 30
0.0
 11
8.584699293888491
 21
40.5
 31
0.0
  0
LINE
  5
2C
100
AcDbEntity
  8
0
  6
CONTINUOUS
 62
               7
100
AcDbLine
 10
81.0
 20
1.0
 30
0.0
 11
81.0
 21
0.0
 31
0.0
  0
LINE
  5
2D
100
AcDbEntity
  8
0
  6
CENTER
 62
               2
100
AcDbLine
 10
77.0
 20
2.3876961285609681
 30
0.0
 11
77.0
 21
-1.7084368151935223
 31
0.0
  0
LINE
  5
2E
100
AcDbEntity
  8
0
  6
CONTINUOUS
 62
               7
100
AcDbLine
 10
70.0
 20
3.7679491924311228
 30
0.0
 11
70.0
 21
1.0
 31
0.0
  0
LINE
  5
2F
100
AcDbEntity
  8
0
  6
CONTINUOUS
 62
               7
100
AcDbLine
 10
-4.0
 20
1.0
 30
0.0
 11
81.0
 21
1.0
 31
0.0
  0
LINE
  5
30
100
AcDbEntity
  8
0
  6
CONTINUOUS
 62
               7
100
AcDbLine
 10
-4.0
 20
1.0
 30
0.0
 11
-4.0
 21
0.0
 31
0.0
  0
LINE
  5
31
100
AcDbEntity
  8
0
  6
CENTER
 62
               2
100
AcDbLine
 10
0.0
 20
2.3876961285609681
 30
0.0
 11
0.0
 21
-1.7084368151935223
 31
0.0
  0
LINE
  5
32
100
AcDbEntity
  8
0
  6
CONTINUOUS
 62
               7
100
AcDbLine
 10
7.0
 20
3.7679491924311179
 30
0.0
 11
7.0
 21
1.0
 31
0.0
  0
LINE
  5
33
100
AcDbEntity
  8
0
  6
CONTINUOUS
 62
               7
100
AcDbLine
 10
-4.0
 20
0.0
 30
0.0
 11
81.0
 21
0.0
 31
0.0
  0
CIRCLE
  5
34
100
AcDbEntity
  8
0
  6
CONTINUOUS
 62
               7
100
AcDbCircle
 10
64.0
 20
15.0
 30
0.0
 40
1.75
  0
CIRCLE
  5
35
100
AcDbEntity
  8
0
  6
CONTINUOUS
 62
               7
100
AcDbCircle
 10
54.0
 20
15.0
 30
0.0
 40
1.75
  0
LINE
  5
36
100
AcDbEntity
  8
0
  6
CONTINUOUS
 62
               7
100
AcDbLine
 10
6.0
 20
17.099999999999994
 30
0.0
 11
2.0
 21
17.099999999999994
 31
0.0
  0
LINE
  5
37
100
AcDbEntity
  8
0
  6
CONTINUOUS
 62
               7
100
AcDbLine
 10
6.0
 20
16.299999999999997
 30
0.0
 11
2.0
 21
16.299999999999997
 31
0.0
  0
ARC
  5
38
100
AcDbEntity
  8
0
  6
CONTINUOUS
 62
               7
100
AcDbCircle
 10
-6.7791000000000281
 20
38.0
 30
0.0
 40
7.2209000000000163
100
AcDbArc
 50
159.74389999999957
 51
200.25609999999941
  0
ARC
  5
39
100
AcDbEntity
  8
0
  6
CONTINUOUS
 62
               7
100
AcDbCircle
 10
-6.7791000000000281
 20
43.0
 30
0.0
 40
7.2209000000000163
100
AcDbArc
 50
159.74389999999957
 51
200.25609999999941
  0
LINE
  5
3A
100
AcDbEntity
  8
0
  6
CONTINUOUS
 62
               7
100
AcDbLine
 10
-14.000000000000028
 20
35.5
 30
0.0
 11
-14.000000000000028
 21
45.5
 31
0.0
  0
LINE
  5
3B
100
AcDbEntity
  8
0
  6
CONTINUOUS
 62
               7
100
AcDbLine
 10
-15.100000000000023
 20
44.5
 30
0.0
 11
-14.000000000000028
 21
44.5
 31
0.0
  0
LINE
  5
3C
100
AcDbEntity
  8
0
  6
CONTINUOUS
 62
               7
100
AcDbLine
 10
-15.100000000000023
 20
36.5
 30
0.0
 11
-14.000000000000028
 21
36.5
 31
0.0
  0
LINE
  5
3D
100
AcDbEntity
  8
0
  6
CONTINUOUS
 62
               7
100
AcDbLine
 10
-14.000000000000028
 20
35.5
 30
0.0
 11
-10.000000000000028
 21
35.5
 31
0.0
  0
LINE
  5
3E
100
AcDbEntity
  8
0
  6
CONTINUOUS
 62
               7
100
AcDbLine
 10
-14.000000000000028
 20
45.5
 30
0.0
 11
-10.000000000000028
 21
45.5
 31
0.0
  0
LINE
  5
3F
100
AcDbEntity
  8
0
  6
CONTINUOUS
 62
               7
100
AcDbLine
 10
-13.553400000000011
 20
40.5
 30
0.0
 11
-10.000000000000028
 21
40.5
 31
0.0
  0
LINE
  5
40
100
AcDbEntity
  8
0
  6
CONTINUOUS
 62
               7
100
AcDbLine
 10
-8.7999999999999545
 20
47.699999999999989
 30
0.0
 11
0.8000000000000682
 21
47.699999999999989
 31
0.0
  0
LINE
  5
41
100
AcDbEntity
  8
0
  6
CONTINUOUS
 62
               7
100
AcDbLine
 10
0.8000000000000682
 20
47.699999999999989
 30
0.0
 11
2.0
 21
47.0
 31
0.0
  0
LINE
  5
42
100
AcDbEntity
  8
0
  6
CONTINUOUS
 62
               7
100
AcDbLine
 10
-8.7999999999999545
 20
47.699999999999989
 30
0.0
 11
-10.0
 21
47.0
 31
0.0
  0
LINE
  5
43
100
AcDbEntity
  8
0
  6
CONTINUOUS
 62
               7
100
AcDbLine
 10
-17.199999999999989
 20
45.5
 30
0.0
 11
-17.199999999999989
 21
46.75
 31
0.0
  0
LINE
  5
44
100
AcDbEntity
  8
0
  6
CONTINUOUS
 62
               7
100
AcDbLine
 10
-19.199999999999989
 20
43.0
 30
0.0
 11
-19.199999999999989
 21
46.75
 31
0.0
  0
LINE
  5
45
100
AcDbEntity
  8
0
  6
CONTINUOUS
 62
               7
100
AcDbLine
 10
-21.199999999999989
 20
43.0
 30
0.0
 11
-21.199999999999989
 21
46.25
 31
0.0
  0
LINE
  5
46
100
AcDbEntity
  8
0
  6
CONTINUOUS
 62
               7
100
AcDbLine
 10
-22.399999999999977
 20
43.0
 30
0.0
 11
-22.399999999999977
 21
46.400000000000006
 31
0.0
  0
LINE
  5
47
100
AcDbEntity
  8
0
  6
CONTINUOUS
 62
               7
100
AcDbLine
 10
-24.199999999999989
 20
43.0
 30
0.0
 11
-24.199999999999989
 21
46.400000000000006
 31
0.0
  0
LINE
  5
48
100
AcDbEntity
  8
0
  6
CONTINUOUS
 62
               7
100
AcDbLine
 10
3.000000019020149
 20
35.526852979421676
 30
0.0
 11
6.0
 21
35.526852979421676
 31
0.0
  0
LINE
  5
49
100
AcDbEntity
  8
0
  6
CONTINUOUS
 62
               2
100
AcDbLine
 10
3.000000019020149
 20
36.101818181818174
 30
0.0
 11
6.0
 21
36.101818181818174
 31
0.0
  0
LINE
  5
4A
100
AcDbEntity
  8
0
  6
CONTINUOUS
 62
               2
100
AcDbLine
 10
3.000000019020149
 20
44.898181818181826
 30
0.0
 11
6.0
 21
44.898181818181826
 31
0.0
  0
LINE
  5
4B
100
AcDbEntity
  8
0
  6
CONTINUOUS
 62
               7
100
AcDbLine
 10
3.000000019020149
 20
45.473147020578324
 30
0.0
 11
6.0
 21
45.473147020578324
 31
0.0
  0
LINE
  5
4C
100
AcDbEntity
  8
0
  6
CONTINUOUS
 62
               7
100
AcDbLine
 10
-17.199999999999989
 20
34.25
 30
0.0
 11
-17.199999999999989
 21
35.5
 31
0.0
  0
LINE
  5
4D
100
AcDbEntity
  8
0
  6
CONTINUOUS
 62
               7
100
AcDbLine
 10
-19.199999999999989
 20
34.75
 30
0.0
 11
-21.199999999999989
 21
34.75
 31
0.0
  0
LINE
  5
4E
100
AcDbEntity
  8
0
  6
CONTINUOUS
 62
               7
100
AcDbLine
 10
-9.6999999999999886
 20
34.25
 30
0.0
 11
-19.199999999999989
 21
34.25
 31
0.0
  0
LINE
  5
4F
100
AcDbEntity
  8
0
  6
CONTINUOUS
 62
               7
100
AcDbLine
 10
-10.0
 20
46.75
 30
0.0
 11
-19.199999999999989
 21
46.75
 31
0.0
  0
LINE
  5
50
100
AcDbEntity
  8
0
  6
CONTINUOUS
 62
               7
100
AcDbLine
 10
-19.199999999999989
 20
34.25
 30
0.0
 11
-19.199999999999989
 21
38.0
 31
0.0
  0
LINE
  5
51
100
AcDbEntity
  8
0
  6
CONTINUOUS
 62
               7
100
AcDbLine
 10
-19.199999999999989
 20
46.25
 30
0.0
 11
-21.199999999999989
 21
46.25
 31
0.0
  0
LINE
  5
52
100
AcDbEntity
  8
0
  6
CONTINUOUS
 62
               7
100
AcDbLine
 10
-21.199999999999989
 20
34.75
 30
0.0
 11
-21.199999999999989
 21
38.0
 31
0.0
  0
LINE
  5
53
100
AcDbEntity
  8
0
  6
CONTINUOUS
 62
               7
100
AcDbLine
 10
-21.199999999999989
 20
44.800000000000011
 30
0.0
 11
-22.399999999999977
 21
44.800000000000011
 31
0.0
  0
LINE
  5
54
100
AcDbEntity
  8
0
  6
CONTINUOUS
 62
               7
100
AcDbLine
 10
-21.199999999999989
 20
36.200000000000017
 30
0.0
 11
-22.399999999999977
 21
36.200000000000017
 31
0.0
  0
LINE
  5
55
100
AcDbEntity
  8
0
  6
CONTINUOUS
 62
               7
100
AcDbLine
 10
-22.399999999999977
 20
34.600000000000023
 30
0.0
 11
-22.399999999999977
 21
38.0
 31
0.0
  0
LINE
  5
56
100
AcDbEntity
  8
0
  6
CONTINUOUS
 62
               7
100
AcDbLine
 10
-22.399999999999977
 20
34.600000000000023
 30
0.0
 11
-24.199999999999989
 21
34.600000000000023
 31
0.0
  0
LINE
  5
57
100
AcDbEntity
  8
0
  6
CONTINUOUS
 62
               7
100
AcDbLine
 10
-22.399999999999977
 20
46.400000000000006
 30
0.0
 11
-24.199999999999989
 21
46.400000000000006
 31
0.0
  0
LINE
  5
58
100
AcDbEntity
  8
0
  6
CONTINUOUS
 62
               7
100
AcDbLine
 10
-24.199999999999989
 20
34.600000000000023
 30
0.0
 11
-24.199999999999989
 21
38.0
 31
0.0
  0
LINE
  5
59
100
AcDbEntity
  8
0
  6
CONTINUOUS
 62
               7
100
AcDbLine
 10
-10.0
 20
34.0
 30
0.0
 11
-10.0
 21
47.0
 31
0.0
  0
LINE
  5
5A
100
AcDbEntity
  8
0
  6
CONTINUOUS
 62
               7
100
AcDbLine
 10
2.0
 20
34.0
 30
0.0
 11
2.0
 21
47.0
 31
0.0
  0
LINE
  5
5B
100
AcDbEntity
  8
0
  6
CONTINUOUS
 62
               2
100
AcDbLine
 10
-25.199999999999989
 20
38.439999999999998
 30
0.0
 11
-18.600000000000023
 21
38.439999999999998
 31
0.0
  0
LINE
  5
5C
100
AcDbEntity
  8
0
  6
CONTINUOUS
 62
               2
100
AcDbLine
 10
-25.199999999999989
 20
42.560000000000002
 30
0.0
 11
-18.600000000000023
 21
42.560000000000002
 31
0.0
  0
LINE
  5
5D
100
AcDbEntity
  8
0
  6
CONTINUOUS
 62
               7
100
AcDbLine
 10
-25.199999999999989
 20
43.0
 30
0.0
 11
-18.600000000000023
 21
43.0
 31
0.0
  0
LINE
  5
5E
100
AcDbEntity
  8
0
  6
CONTINUOUS
 62
               7
100
AcDbLine
 10
-25.199999999999989
 20
38.0
 30
0.0
 11
-18.600000000000023
 21
38.0
 31
0.0
  0
LINE
  5
5F
100
AcDbEntity
  8
0
  6
CONTINUOUS
 62
               7
100
AcDbLine
 10
-15.600000000000023
 20
35.5
 30
0.0
 11
-15.600000000000023
 21
45.5
 31
0.0
  0
LINE
  5
60
100
AcDbEntity
  8
0
  6
CONTINUOUS
 62
               7
100
AcDbLine
 10
-18.100000000000023
 20
35.5
 30
0.0
 11
-18.100000000000023
 21
45.5
 31
0.0
  0
LINE
  5
61
100
AcDbEntity
  8
0
  6
CONTINUOUS
 62
               7
100
AcDbLine
 10
-25.699999999999989
 20
36.5
 30
0.0
 11
-25.699999999999989
 21
44.5
 31
0.0
  0
LINE
  5
62
100
AcDbEntity
  8
0
  6
CONTINUOUS
 62
               7
100
AcDbLine
 10
-28.699999999999989
 20
36.5
 30
0.0
 11
-28.699999999999989
 21
44.5
 31
0.0
  0
LINE
  5
63
100
AcDbEntity
  8
0
  6
CONTINUOUS
 62
               7
100
AcDbLine
 10
-25.199999999999989
 20
44.0
 30
0.0
 11
-25.699999999999989
 21
44.5
 31
0.0
  0
LINE
  5
64
100
AcDbEntity
  8
0
  6
CONTINUOUS
 62
               7
100
AcDbLine
 10
-25.699999999999989
 20
36.5
 30
0.0
 11
-25.199999999999989
 21
37.0
 31
0.0
  0
LINE
  5
65
100
AcDbEntity
  8
0
  6
CONTINUOUS
 62
               7
100
AcDbLine
 10
-29.199999999999989
 20
37.0
 30
0.0
 11
-28.699999999999989
 21
36.5
 31
0.0
  0
LINE
  5
66
100
AcDbEntity
  8
0
  6
CONTINUOUS
 62
               7
100
AcDbLine
 10
-28.699999999999989
 20
44.5
 30
0.0
 11
-29.199999999999989
 21
44.0
 31
0.0
  0
LINE
  5
67
100
AcDbEntity
  8
0
  6
CONTINUOUS
 62
               7
100
AcDbLine
 10
-15.100000000000023
 20
45.0
 30
0.0
 11
-15.600000000000023
 21
45.5
 31
0.0
  0
LINE
  5
68
100
AcDbEntity
  8
0
  6
CONTINUOUS
 62
               7
100
AcDbLine
 10
-15.600000000000023
 20
35.5
 30
0.0
 11
-15.100000000000023
 21
36.0
 31
0.0
  0
LINE
  5
69
100
AcDbEntity
  8
0
  6
CONTINUOUS
 62
               7
100
AcDbLine
 10
-18.600000000000023
 20
36.0
 30
0.0
 11
-18.100000000000023
 21
35.5
 31
0.0
  0
LINE
  5
6A
100
AcDbEntity
  8
0
  6
CONTINUOUS
 62
               7
100
AcDbLine
 10
-18.100000000000023
 20
45.5
 30
0.0
 11
-18.600000000000023
 21
45.0
 31
0.0
  0
LINE
  5
6B
100
AcDbEntity
  8
0
  6
CONTINUOUS
 62
               7
100
AcDbLine
 10
-28.699999999999989
 20
44.5
 30
0.0
 11
-27.699999999999989
 21
44.5
 31
0.0
  0
LINE
  5
6C
100
AcDbEntity
  8
0
  6
CONTINUOUS
 62
               7
100
AcDbLine
 10
-28.699999999999989
 20
36.5
 30
0.0
 11
-27.699999999999989
 21
36.5
 31
0.0
  0
LINE
  5
6D
100
AcDbEntity
  8
0
  6
CONTINUOUS
 62
               7
100
AcDbLine
 10
-18.100000000000023
 20
35.5
 30
0.0
 11
-15.600000000000023
 21
35.5
 31
0.0
  0
LINE
  5
6E
100
AcDbEntity
  8
0
  6
CONTINUOUS
 62
               7
100
AcDbLine
 10
-18.100000000000023
 20
45.5
 30
0.0
 11
-15.600000000000023
 21
45.5
 31
0.0
  0
LINE
  5
6F
100
AcDbEntity
  8
0
  6
CONTINUOUS
 62
               7
100
AcDbLine
 10
-18.600000000000023
 20
36.0
 30
0.0
 11
-18.600000000000023
 21
45.0
 31
0.0
  0
LINE
  5
70
100
AcDbEntity
  8
0
  6
CONTINUOUS
 62
               7
100
AcDbLine
 10
-15.100000000000023
 20
36.0
 30
0.0
 11
-15.100000000000023
 21
45.0
 31
0.0
  0
LINE
  5
71
100
AcDbEntity
  8
0
  6
CONTINUOUS
 62
               7
100
AcDbLine
 10
-8.7999999999999545
 20
33.300000000000011
 30
0.0
 11
-10.0
 21
34.0
 31
0.0
  0
LINE
  5
72
100
AcDbEntity
  8
0
  6
CONTINUOUS
 62
               7
100
AcDbLine
 10
0.8000000000000682
 20
33.300000000000011
 30
0.0
 11
2.0
 21
34.0
 31
0.0
  0
LINE
  5
73
100
AcDbEntity
  8
0
  6
CONTINUOUS
 62
               7
100
AcDbLine
 10
-8.7999999999999545
 20
33.300000000000011
 30
0.0
 11
-8.7999999999999545
 21
47.699999999999989
 31
0.0
  0
LINE
  5
74
100
AcDbEntity
  8
0
  6
CONTINUOUS
 62
               7
100
AcDbLine
 10
0.8000000000000682
 20
33.300000000000011
 30
0.0
 11
0.8000000000000682
 21
47.699999999999989
 31
0.0
  0
LINE
  5
75
100
AcDbEntity
  8
0
  6
CONTINUOUS
 62
               7
100
AcDbLine
 10
-25.199999999999989
 20
37.0
 30
0.0
 11
-25.199999999999989
 21
44.0
 31
0.0
  0
LINE
  5
76
100
AcDbEntity
  8
0
  6
CONTINUOUS
 62
               7
100
AcDbLine
 10
-8.7999999999999545
 20
33.300000000000011
 30
0.0
 11
0.8000000000000682
 21
33.300000000000011
 31
0.0
  0
LINE
  5
77
100
AcDbEntity
  8
0
  6
CONTINUOUS
 62
               7
100
AcDbLine
 10
-29.199999999999989
 20
37.0
 30
0.0
 11
-29.199999999999989
 21
44.0
 31
0.0
  0
LINE
  5
78
100
AcDbEntity
  8
0
  6
CONTINUOUS
 62
               7
100
AcDbLine
 10
-27.699999999999989
 20
36.5
 30
0.0
 11
-27.699999999999989
 21
44.5
 31
0.0
  0
LINE
  5
79
100
AcDbEntity
  8
0
  6
CONTINUOUS
 62
               7
100
AcDbLine
 10
-26.699999999999989
 20
36.5
 30
0.0
 11
-26.699999999999989
 21
44.5
 31
0.0
  0
LINE
  5
7A
100
AcDbEntity
  8
0
  6
CONTINUOUS
 62
               7
100
AcDbLine
 10
-26.699999999999989
 20
44.5
 30
0.0
 11
-25.699999999999989
 21
44.5
 31
0.0
  0
LINE
  5
7B
100
AcDbEntity
  8
0
  6
CONTINUOUS
 62
               7
100
AcDbLine
 10
-26.699999999999989
 20
36.5
 30
0.0
 11
-25.699999999999989
 21
36.5
 31
0.0
  0
LINE
  5
7C
100
AcDbEntity
  8
0
  6
CONTINUOUS
 62
               7
100
AcDbLine
 10
-27.699999999999989
 20
44.0
 30
0.0
 11
-26.699999999999989
 21
44.0
 31
0.0
  0
LINE
  5
7D
100
AcDbEntity
  8
0
  6
CONTINUOUS
 62
               7
100
AcDbLine
 10
-27.699999999999989
 20
37.0
 30
0.0
 11
-26.699999999999989
 21
37.0
 31
0.0
  0
LINE
  5
7E
100
AcDbEntity
  8
0
  6
CONTINUOUS
 62
               7
100
AcDbLine
 10
2.0
 20
45.509999999999991
 30
0.0
 11
3.158236496109339
 21
45.473147020578324
 31
0.0
  0
LINE
  5
7F
100
AcDbEntity
  8
0
  6
CONTINUOUS
 62
               2
100
AcDbLine
 10
2.0
 20
44.930000000000007
 30
0.0
 11
3.139800615079821
 21
44.893733616792929
 31
0.0
  0
LINE
  5
80
100
AcDbEntity
  8
0
  6
CONTINUOUS
 62
               2
100
AcDbLine
 10
2.0
 20
36.069999999999993
 30
0.0
 11
3.139800615079821
 21
36.106266383207071
 31
0.0
  0
LINE
  5
81
100
AcDbEntity
  8
0
  6
CONTINUOUS
 62
               7
100
AcDbLine
 10
2.0
 20
35.490000000000009
 30
0.0
 11
3.158236496109339
 21
35.526852979421676
 31
0.0
  0
ARC
  5
82
100
AcDbEntity
  8
0
  6
CONTINUOUS
 62
               7
100
AcDbCircle
 10
48.0
 20
30.5
 30
0.0
 40
1.0
100
AcDbArc
 50
0.0
 51
89.999999999999815
  0
ARC
  5
83
100
AcDbEntity
  8
0
  6
CONTINUOUS
 62
               7
100
AcDbCircle
 10
48.0
 20
23.5
 30
0.0
 40
1.0
100
AcDbArc
 50
269.99999999999937
 51
0.0
  0
ARC
  5
84
100
AcDbEntity
  8
0
  6
CONTINUOUS
 62
               7
100
AcDbCircle
 10
20.0
 20
23.5
 30
0.0
 40
1.0
100
AcDbArc
 50
179.99999999999963
 51
269.99999999999937
  0
ARC
  5
85
100
AcDbEntity
  8
0
  6
CONTINUOUS
 62
               7
100
AcDbCircle
 10
20.0
 20
30.5
 30
0.0
 40
1.0
100
AcDbArc
 50
89.999999999999815
 51
179.99999999999963
  0
LINE
  5
86
100
AcDbEntity
  8
0
  6
CONTINUOUS
 62
               7
100
AcDbLine
 10
49.0
 20
30.5
 30
0.0
 11
49.0
 21
23.5
 31
0.0
  0
LINE
  5
87
100
AcDbEntity
  8
0
  6
CONTINUOUS
 62
               7
100
AcDbLine
 10
19.0
 20
30.5
 30
0.0
 11
19.0
 21
23.5
 31
0.0
  0
LINE
  5
88
100
AcDbEntity
  8
0
  6
CONTINUOUS
 62
               7
100
AcDbLine
 10
20.0
 20
31.5
 30
0.0
 11
48.0
 21
31.5
 31
0.0
  0
LINE
  5
89
100
AcDbEntity
  8
0
  6
CONTINUOUS
 62
               7
100
AcDbLine
 10
20.0
 20
22.5
 30
0.0
 11
48.0
 21
22.5
 31
0.0
  0
LINE
  5
8A
100
AcDbEntity
  8
0
  6
CONTINUOUS
 62
               7
100
AcDbLine
 10
5.0
 20
25.5
 30
0.0
 11
5.0
 21
24.0
 31
0.0
  0
LINE
  5
8B
100
AcDbEntity
  8
0
  6
CONTINUOUS
 62
               7
100
AcDbLine
 10
2.0
 20
24.0
 30
0.0
 11
4.598076211353316
 21
25.5
 31
0.0
  0
LINE
  5
8C
100
AcDbEntity
  8
0
  6
CONTINUOUS
 62
               7
100
AcDbLine
 10
4.598076211353316
 20
25.5
 30
0.0
 11
5.0
 21
25.5
 31
0.0
  0
LINE
  5
8D
100
AcDbEntity
  8
0
  6
CONTINUOUS
 62
               7
100
AcDbLine
 10
6.0
 20
24.0
 30
0.0
 11
2.0
 21
24.0
 31
0.0
  0
LINE
  5
8E
100
AcDbEntity
  8
0
  6
CONTINUOUS
 62
               7
100
AcDbLine
 10
4.0
 20
15.5
 30
0.0
 11
6.0
 21
15.5
 31
0.0
  0
LINE
  5
8F
100
AcDbEntity
  8
0
  6
CONTINUOUS
 62
               7
100
AcDbLine
 10
2.0
 20
14.5
 30
0.0
 11
4.0
 21
14.5
 31
0.0
  0
LINE
  5
90
100
AcDbEntity
  8
0
  6
CONTINUOUS
 62
               7
100
AcDbLine
 10
2.0
 20
24.0
 30
0.0
 11
2.0
 21
14.5
 31
0.0
  0
LINE
  5
91
100
AcDbEntity
  8
0
  6
CONTINUOUS
 62
               7
100
AcDbLine
 10
4.0
 20
15.5
 30
0.0
 11
4.0
 21
14.0
 31
0.0
  0
LINE
  5
92
100
AcDbEntity
  8
0
  6
CONTINUOUS
 62
               7
100
AcDbLine
 10
4.0
 20
14.0
 30
0.0
 11
6.0
 21
14.0
 31
0.0
  0
LINE
  5
93
100
AcDbEntity
  8
0
  6
CONTINUOUS
 62
               7
100
AcDbLine
 10
71.0
 20
28.0
 30
0.0
 11
71.0
 21
5.5
 31
0.0
  0
LINE
  5
94
100
AcDbEntity
  8
0
  6
CONTINUOUS
 62
               7
100
AcDbLine
 10
71.0
 20
28.0
 30
0.0
 11
71.400000000000006
 21
28.0
 31
0.0
  0
LINE
  5
95
100
AcDbEntity
  8
0
  6
CONTINUOUS
 62
               7
100
AcDbLine
 10
71.0
 20
48.0
 30
0.0
 11
71.400000000000006
 21
48.0
 31
0.0
  0
LINE
  5
96
100
AcDbEntity
  8
0
  6
CENTER
 62
               2
100
AcDbLine
 10
55.420976868760675
 20
38.0
 30
0.0
 11
74.72605405405406
 21
38.0
 31
0.0
  0
ARC
  5
97
100
AcDbEntity
  8
0
  6
CONTINUOUS
 62
               7
100
AcDbCircle
 10
69.0
 20
5.5
 30
0.0
 40
2.0
100
AcDbArc
 50
269.99999999999937
 51
0.0
  0
ARC
  5
98
100
AcDbEntity
  8
0
  6
CONTINUOUS
 62
               7
100
AcDbCircle
 10
69.0
 20
48.5
 30
0.0
 40
2.0
100
AcDbArc
 50
0.0
 51
89.999999999999815
  0
LINE
  5
99
100
AcDbEntity
  8
0
  6
CONTINUOUS
 62
               7
100
AcDbLine
 10
71.0
 20
48.5
 30
0.0
 11
71.0
 21
48.0
 31
0.0
  0
ARC
  5
9A
100
AcDbEntity
  8
0
  6
CONTINUOUS
 62
               7
100
AcDbCircle
 10
8.0
 20
5.5
 30
0.0
 40
2.0
100
AcDbArc
 50
179.99999999999963
 51
269.99999999999937
  0
ARC
  5
9B
100
AcDbEntity
  8
0
  6
CONTINUOUS
 62
               7
100
AcDbCircle
 10
8.0
 20
48.5
 30
0.0
 40
2.0
100
AcDbArc
 50
89.999999999999815
 51
179.99999999999963
  0
LINE
  5
9C
100
AcDbEntity
  8
0
  6
CONTINUOUS
 62
               7
100
AcDbLine
 10
8.0
 20
50.5
 30
0.0
 11
69.0
 21
50.5
 31
0.0
  0
LINE
  5
9D
100
AcDbEntity
  8
0
  6
CONTINUOUS
 62
               7
100
AcDbLine
 10
8.0
 20
3.5
 30
0.0
 11
69.0
 21
3.5
 31
0.0
  0
LINE
  5
9E
100
AcDbEntity
  8
0
  6
CONTINUOUS
 62
               7
100
AcDbLine
 10
71.400000000000006
 20
48.0
 30
0.0
 11
71.400000000000006
 21
28.0
 31
0.0
  0
LINE
  5
9F
100
AcDbEntity
  8
0
  6
CONTINUOUS
 62
               7
100
AcDbLine
 10
6.0
 20
48.5
 30
0.0
 11
6.0
 21
5.5
 31
0.0
  0
LINE
  5
A1
100
AcDbEntity
  8
0
  6
DASHED
 62
               7
100
AcDbLine
 10
68.200961859586272
 20
38.75
 30
0.0
 11
57.064570732895078
 21
38.75
 31
0.0
  0
LINE
  5
A2
100
AcDbEntity
  8
0
  6
DASHED
 62
               7
100
AcDbLine
 10
68.200961894323356
 20
37.25
 30
0.0
 11
57.064570732895078
 21
37.25
 31
0.0
  0
LINE
  5
A3
100
AcDbEntity
  8
0
  6
DASHED
 62
               7
100
AcDbLine
 10
68.200961763734654
 20
38.750000025683335
 30
0.0
 11
70.999999982631465
 21
37.999999995346116
 31
0.0
  0
LINE
  5
A4
100
AcDbEntity
  8
0
  6
DASHED
 62
               7
100
AcDbLine
 10
68.200961823339298
 20
37.249999980979851
 30
0.0
 11
70.999999982631465
 21
37.999999995346116
 31
0.0
  0
ENDBLK
  5
A5
100
AcDbEntity
  8
0
100
AcDbBlockEnd
  0
BLOCK
  5
A6
100
AcDbEntity
  8
0
100
AcDbBlockBegin
  2
DTRY-ELL01-2
 70
               0
 10
0.0
 20
0.0
 30
0.0
  3
DTRY-ELL01-2
  1

  0
LINE
  5
A7
100
AcDbEntity
  8
0
  6
CENTER
 62
               2
100
AcDbLine
 10
-22.699999999999989
 20
49.109143413683924
 30
0.0
 11
-22.699999999999989
 21
32.163900657414132
 31
0.0
  0
ARC
  5
A8
100
AcDbEntity
  8
0
  6
CONTINUOUS
 62
               7
100
AcDbCircle
 10
2.6500000000000057
 20
15.0
 30
0.0
 40
1.75
100
AcDbArc
 50
320.48234720282733
 51
39.517652797172659
  0
LINE
  5
A9
100
AcDbEntity
  8
0
  6
CENTER
 62
               2
100
AcDbLine
 10
-18.836404036716772
 20
20.0
 30
0.0
 11
-25.239200265839571
 21
20.0
 31
0.0
  0
LINE
  5
AA
100
AcDbEntity
  8
0
  6
CONTINUOUS
 62
               7
100
AcDbLine
 10
-21.0
 20
6.3402657631320523
 30
0.0
 11
-21.0
 21
0.0
 31
0.0
  0
LINE
  5
AB
100
AcDbEntity
  8
0
  6
CONTINUOUS
 62
               7
100
AcDbLine
 10
-3.75
 20
16.299999999999997
 30
0.0
 11
-3.75
 21
14.5
 31
0.0
  0
LINE
  5
AC
100
AcDbEntity
  8
0
  6
CENTER
 62
               2
100
AcDbLine
 10
-17.0
 20
2.3876961285609681
 30
0.0
 11
-17.0
 21
-1.4790445580716067
 31
0.0
  0
LINE
  5
AD
100
AcDbEntity
  8
0
  6
CENTER
 62
               2
100
AcDbLine
 10
0.0
 20
2.3876961285609681
 30
0.0
 11
0.0
 21
-1.4790445580716067
 31
0.0
  0
LINE
  5
AE
100
AcDbEntity
  8
0
  6
CONTINUOUS
 62
               7
100
AcDbLine
 10
4.0
 20
1.0
 30
0.0
 11
4.0
 21
0.0
 31
0.0
  0
ARC
  5
AF
100
AcDbEntity
  8
0
  6
CONTINUOUS
 62
               7
100
AcDbCircle
 10
-21.0
 20
1.0
 30
0.0
 40
1.0
100
AcDbArc
 50
179.99999999999963
 51
269.99999999999937
  0
LINE
  5
B0
100
AcDbEntity
  8
0
  6
CONTINUOUS
 62
               7
100
AcDbLine
 10
-22.0
 20
25.0
 30
0.0
 11
-22.0
 21
1.0
 31
0.0
  0
LINE
  5
B1
100
AcDbEntity
  8
0
  6
CONTINUOUS
 62
               7
100
AcDbLine
 10
-21.0
 20
25.0
 30
0.0
 11
-22.0
 21
25.0
 31
0.0
  0
LINE
  5
B2
100
AcDbEntity
  8
0
  6
CONTINUOUS
 62
               7
100
AcDbLine
 10
4.0
 20
0.0
 30
0.0
 11
-21.0
 21
0.0
 31
0.0
  0
LINE
  5
B3
100
AcDbEntity
  8
0
  6
CONTINUOUS
 62
               7
100
AcDbLine
 10
4.0
 20
1.0
 30
0.0
 11
-21.0
 21
1.0
 31
0.0
  0
LINE
  5
B4
100
AcDbEntity
  8
0
  6
CONTINUOUS
 62
               7
100
AcDbLine
 10
-13.25
 20
14.5
 30
0.0
 11
-3.75
 21
14.5
 31
0.0
  0
LINE
  5
B5
100
AcDbEntity
  8
0
  6
CONTINUOUS
 62
               7
100
AcDbLine
 10
-13.25
 20
24.0
 30
0.0
 11
-3.75
 21
24.0
 31
0.0
  0
LINE
  5
B6
100
AcDbEntity
  8
0
  6
CONTINUOUS
 62
               7
100
AcDbLine
 10
-5.9000000000000057
 20
17.650000000000006
 30
0.0
 11
-5.9000000000000057
 21
16.650000000000006
 31
0.0
  0
LINE
  5
B7
100
AcDbEntity
  8
0
  6
CONTINUOUS
 62
               7
100
AcDbLine
 10
-6.9000000000000057
 20
17.650000000000006
 30
0.0
 11
-6.9000000000000057
 21
16.650000000000006
 31
0.0
  0
LINE
  5
B8
100
AcDbEntity
  8
0
  6
CONTINUOUS
 62
               7
100
AcDbLine
 10
-10.099999999999994
 20
17.650000000000006
 30
0.0
 11
-10.099999999999994
 21
16.650000000000006
 31
0.0
  0
LINE
  5
B9
100
AcDbEntity
  8
0
  6
CONTINUOUS
 62
               7
100
AcDbLine
 10
-11.099999999999994
 20
17.650000000000006
 30
0.0
 11
-11.099999999999994
 21
16.650000000000006
 31
0.0
  0
LINE
  5
BA
100
AcDbEntity
  8
0
  6
CONTINUOUS
 62
               7
100
AcDbLine
 10
-6.9000000000000057
 20
16.650000000000006
 30
0.0
 11
-5.9000000000000057
 21
16.650000000000006
 31
0.0
  0
LINE
  5
BB
100
AcDbEntity
  8
0
  6
CONTINUOUS
 62
               7
100
AcDbLine
 10
-6.9000000000000057
 20
17.650000000000006
 30
0.0
 11
-5.9000000000000057
 21
17.650000000000006
 31
0.0
  0
LINE
  5
BC
100
AcDbEntity
  8
0
  6
CONTINUOUS
 62
               7
100
AcDbLine
 10
-6.9000000000000057
 20
20.849999999999994
 30
0.0
 11
-5.9000000000000057
 21
20.849999999999994
 31
0.0
  0
LINE
  5
BD
100
AcDbEntity
  8
0
  6
CONTINUOUS
 62
               7
100
AcDbLine
 10
-6.9000000000000057
 20
21.849999999999994
 30
0.0
 11
-5.9000000000000057
 21
21.849999999999994
 31
0.0
  0
LINE
  5
BE
100
AcDbEntity
  8
0
  6
CONTINUOUS
 62
               7
100
AcDbLine
 10
-11.099999999999994
 20
21.849999999999994
 30
0.0
 11
-11.099999999999994
 21
20.849999999999994
 31
0.0
  0
LINE
  5
BF
100
AcDbEntity
  8
0
  6
CONTINUOUS
 62
               7
100
AcDbLine
 10
-10.099999999999994
 20
21.849999999999994
 30
0.0
 11
-10.099999999999994
 21
20.849999999999994
 31
0.0
  0
LINE
  5
C0
100
AcDbEntity
  8
0
  6
CONTINUOUS
 62
               7
100
AcDbLine
 10
-11.099999999999994
 20
16.650000000000006
 30
0.0
 11
-10.099999999999994
 21
16.650000000000006
 31
0.0
  0
LINE
  5
C1
100
AcDbEntity
  8
0
  6
CONTINUOUS
 62
               7
100
AcDbLine
 10
-11.099999999999994
 20
17.650000000000006
 30
0.0
 11
-10.099999999999994
 21
17.650000000000006
 31
0.0
  0
LINE
  5
C2
100
AcDbEntity
  8
0
  6
CONTINUOUS
 62
               7
100
AcDbLine
 10
-11.099999999999994
 20
20.849999999999994
 30
0.0
 11
-10.099999999999994
 21
20.849999999999994
 31
0.0
  0
LINE
  5
C3
100
AcDbEntity
  8
0
  6
CONTINUOUS
 62
               7
100
AcDbLine
 10
-11.099999999999994
 20
21.849999999999994
 30
0.0
 11
-10.099999999999994
 21
21.849999999999994
 31
0.0
  0
LINE
  5
C4
100
AcDbEntity
  8
0
  6
CONTINUOUS
 62
               7
100
AcDbLine
 10
-6.9000000000000057
 20
21.849999999999994
 30
0.0
 11
-6.9000000000000057
 21
20.849999999999994
 31
0.0
  0
LINE
  5
C5
100
AcDbEntity
  8
0
  6
CONTINUOUS
 62
               7
100
AcDbLine
 10
-5.9000000000000057
 20
21.849999999999994
 30
0.0
 11
-5.9000000000000057
 21
20.849999999999994
 31
0.0
  0
LINE
  5
C6
100
AcDbEntity
  8
0
  6
CONTINUOUS
 62
               7
100
AcDbLine
 10
-8.75
 20
16.299999999999997
 30
0.0
 11
-9.7500000000000142
 21
15.299999999999997
 31
0.0
  0
LINE
  5
C7
100
AcDbEntity
  8
0
  6
CONTINUOUS
 62
               7
100
AcDbLine
 10
-12.450000000000003
 20
16.299999999999997
 30
0.0
 11
-11.449999999999861
 21
15.299999999999997
 31
0.0
  0
LINE
  5
C8
100
AcDbEntity
  8
0
  6
CONTINUOUS
 62
               7
100
AcDbLine
 10
-4.5499999999999972
 20
20.5
 30
0.0
 11
-5.5499999999999829
 21
19.5
 31
0.0
  0
LINE
  5
C9
100
AcDbEntity
  8
0
  6
CONTINUOUS
 62
               7
100
AcDbLine
 10
-7.25
 20
19.5
 30
0.0
 11
-8.2499999999999858
 21
20.500000000000099
 31
0.0
  0
LINE
  5
CA
100
AcDbEntity
  8
0
  6
CONTINUOUS
 62
               7
100
AcDbLine
 10
-8.25
 20
15.299999999999997
 30
0.0
 11
-4.5499999999999972
 21
15.299999999999997
 31
0.0
  0
LINE
  5
CB
100
AcDbEntity
  8
0
  6
CONTINUOUS
 62
               7
100
AcDbLine
 10
-4.5499999999999972
 20
19.0
 30
0.0
 11
-4.5499999999999972
 21
15.299999999999997
 31
0.0
  0
LINE
  5
CC
100
AcDbEntity
  8
0
  6
CONTINUOUS
 62
               7
100
AcDbLine
 10
-12.450000000000003
 20
19.0
 30
0.0
 11
-12.450000000000003
 21
16.299999999999997
 31
0.0
  0
LINE
  5
CD
100
AcDbEntity
  8
0
  6
CONTINUOUS
 62
               7
100
AcDbLine
 10
-8.25
 20
23.200000000000003
 30
0.0
 11
-4.5499999999999972
 21
23.200000000000003
 31
0.0
  0
LINE
  5
CE
100
AcDbEntity
  8
0
  6
CONTINUOUS
 62
               7
100
AcDbLine
 10
-8.25
 20
19.0
 30
0.0
 11
-8.25
 21
15.299999999999997
 31
0.0
  0
LINE
  5
CF
100
AcDbEntity
  8
0
  6
CONTINUOUS
 62
               7
100
AcDbLine
 10
-8.75
 20
19.0
 30
0.0
 11
-8.75
 21
16.299999999999997
 31
0.0
  0
LINE
  5
D0
100
AcDbEntity
  8
0
  6
CONTINUOUS
 62
               7
100
AcDbLine
 10
-8.25
 20
19.0
 30
0.0
 11
-4.5499999999999972
 21
19.0
 31
0.0
  0
LINE
  5
D1
100
AcDbEntity
  8
0
  6
CONTINUOUS
 62
               7
100
AcDbLine
 10
-7.25
 20
19.5
 30
0.0
 11
-5.5499999999999829
 21
19.5
 31
0.0
  0
LINE
  5
D2
100
AcDbEntity
  8
0
  6
CONTINUOUS
 62
               7
100
AcDbLine
 10
-12.450000000000003
 20
19.0
 30
0.0
 11
-8.75
 21
19.0
 31
0.0
  0
LINE
  5
D3
100
AcDbEntity
  8
0
  6
CONTINUOUS
 62
               7
100
AcDbLine
 10
-12.450000000000003
 20
19.5
 30
0.0
 11
-8.75
 21
19.5
 31
0.0
  0
LINE
  5
D4
100
AcDbEntity
  8
0
  6
CONTINUOUS
 62
               7
100
AcDbLine
 10
-11.449999999999861
 20
15.299999999999997
 30
0.0
 11
-9.7500000000000142
 21
15.299999999999997
 31
0.0
  0
LINE
  5
D5
100
AcDbEntity
  8
0
  6
CONTINUOUS
 62
               7
100
AcDbLine
 10
-12.450000000000003
 20
23.200000000000003
 30
0.0
 11
-8.75
 21
23.200000000000003
 31
0.0
  0
LINE
  5
D6
100
AcDbEntity
  8
0
  6
CONTINUOUS
 62
               7
100
AcDbLine
 10
-12.450000000000003
 20
23.200000000000003
 30
0.0
 11
-12.450000000000003
 21
19.5
 31
0.0
  0
LINE
  5
D7
100
AcDbEntity
  8
0
  6
CONTINUOUS
 62
               7
100
AcDbLine
 10
-4.5499999999999972
 20
23.200000000000003
 30
0.0
 11
-4.5499999999999972
 21
20.5
 31
0.0
  0
LINE
  5
D8
100
AcDbEntity
  8
0
  6
CONTINUOUS
 62
               7
100
AcDbLine
 10
-8.75
 20
23.200000000000003
 30
0.0
 11
-8.75
 21
19.5
 31
0.0
  0
LINE
  5
D9
100
AcDbEntity
  8
0
  6
CONTINUOUS
 62
               7
100
AcDbLine
 10
-8.25
 20
23.200000000000003
 30
0.0
 11
-8.25
 21
20.500000000000099
 31
0.0
  0
LINE
  5
DA
100
AcDbEntity
  8
0
  6
CONTINUOUS
 62
               7
100
AcDbLine
 10
-10.200000000000003
 20
25.5
 30
0.0
 11
-6.7999999999999972
 21
25.5
 31
0.0
  0
LINE
  5
DB
100
AcDbEntity
  8
0
  6
CONTINUOUS
 62
               7
100
AcDbLine
 10
-10.200000000000003
 20
25.5
 30
0.0
 11
-10.200000000000003
 21
24.0
 31
0.0
  0
LINE
  5
DC
100
AcDbEntity
  8
0
  6
CONTINUOUS
 62
               7
100
AcDbLine
 10
-12.700000000000003
 20
14.5
 30
0.0
 11
-12.700000000000003
 21
14.0
 31
0.0
  0
LINE
  5
DD
100
AcDbEntity
  8
0
  6
CONTINUOUS
 62
               7
100
AcDbLine
 10
-14.0
 20
15.5
 30
0.0
 11
-13.25
 21
15.5
 31
0.0
  0
LINE
  5
DE
100
AcDbEntity
  8
0
  6
CONTINUOUS
 62
               7
100
AcDbLine
 10
-13.25
 20
24.0
 30
0.0
 11
-13.25
 21
14.5
 31
0.0
  0
ARC
  5
DF
100
AcDbEntity
  8
0
  6
CONTINUOUS
 62
               7
100
AcDbCircle
 10
-3.75
 20
16.699999999999989
 30
0.0
 40
0.3999999999999986
100
AcDbArc
 50
269.99999999999937
 51
89.999999999999801
  0
LINE
  5
E0
100
AcDbEntity
  8
0
  6
CONTINUOUS
 62
               7
100
AcDbLine
 10
-3.0
 20
15.5
 30
0.0
 11
-3.75
 21
15.5
 31
0.0
  0
LINE
  5
E1
100
AcDbEntity
  8
0
  6
CONTINUOUS
 62
               7
100
AcDbLine
 10
-4.2999999999999972
 20
14.5
 30
0.0
 11
-4.2999999999999972
 21
14.0
 31
0.0
  0
LINE
  5
E2
100
AcDbEntity
  8
0
  6
CONTINUOUS
 62
               7
100
AcDbLine
 10
-6.7999999999999972
 20
25.5
 30
0.0
 11
-6.7999999999999972
 21
24.0
 31
0.0
  0
LINE
  5
E3
100
AcDbEntity
  8
0
  6
CONTINUOUS
 62
               7
100
AcDbLine
 10
-3.75
 20
24.0
 30
0.0
 11
-3.75
 21
17.099999999999994
 31
0.0
  0
LINE
  5
E4
100
AcDbEntity
  8
0
  6
CENTER
 62
               2
100
AcDbLine
 10
-31.031779999999998
 20
40.5
 30
0.0
 11
0.5145945945945982
 21
40.5
 31
0.0
  0
LINE
  5
E5
100
AcDbEntity
  8
0
  6
CONTINUOUS
 62
               7
100
AcDbLine
 10
-14.646340000000009
 20
36.75
 30
0.0
 11
-17.699999999999989
 21
36.75
 31
0.0
  0
LINE
  5
E6
100
AcDbEntity
  8
0
  6
CONTINUOUS
 62
               7
100
AcDbLine
 10
-5.6132400000000047
 20
45.5
 30
0.0
 11
-11.386750000000006
 21
45.5
 31
0.0
  0
LINE
  5
E7
100
AcDbEntity
  8
0
  6
CONTINUOUS
 62
               7
100
AcDbLine
 10
-5.6132500000000078
 20
35.5
 30
0.0
 11
-11.386750000000006
 21
35.5
 31
0.0
  0
LINE
  5
E8
100
AcDbEntity
  8
0
  6
CONTINUOUS
 62
               7
100
AcDbLine
 10
-15.660830000000004
 20
41.25
 30
0.0
 11
-16.495159999999998
 21
41.25
 31
0.0
  0
LINE
  5
E9
100
AcDbEntity
  8
0
  6
CONTINUOUS
 62
               7
100
AcDbLine
 10
-15.660830000000004
 20
39.75
 30
0.0
 11
-16.495159999999998
 21
39.75
 31
0.0
  0
LINE
  5
EA
100
AcDbEntity
  8
0
  6
CONTINUOUS
 62
               7
100
AcDbLine
 10
-5.6132500000000078
 20
45.5
 30
0.0
 11
-2.7265000000000015
 21
40.5
 31
0.0
  0
LINE
  5
EB
100
AcDbEntity
  8
0
  6
CONTINUOUS
 62
               7
100
AcDbLine
 10
-14.273520000000005
 20
40.5
 30
0.0
 11
-11.386769999999999
 21
35.5
 31
0.0
  0
LINE
  5
EC
100
AcDbEntity
  8
0
  6
CONTINUOUS
 62
               7
100
AcDbLine
 10
-2.7264899999999983
 20
40.5
 30
0.0
 11
-5.6132500000000078
 21
35.5
 31
0.0
  0
LINE
  5
ED
100
AcDbEntity
  8
0
  6
CONTINUOUS
 62
               7
100
AcDbLine
 10
-11.38673
 20
45.5
 30
0.0
 11
-14.273480000000006
 21
40.5
 31
0.0
  0
CIRCLE
  5
EE
100
AcDbEntity
  8
0
  6
CONTINUOUS
 62
               7
100
AcDbCircle
 10
-8.5
 20
40.5
 30
0.0
 40
7.2000000000000028
  0
CIRCLE
  5
EF
100
AcDbEntity
  8
0
  6
CONTINUOUS
 62
               7
100
AcDbCircle
 10
-8.5
 20
40.5
 30
0.0
 40
5.0
  0
CIRCLE
  5
F0
100
AcDbEntity
  8
0
  6
CONTINUOUS
 62
               7
100
AcDbCircle
 10
-8.5
 20
40.5
 30
0.0
 40
4.0
  0
LINE
  5
F1
100
AcDbEntity
  8
0
  6
CONTINUOUS
 62
               7
100
AcDbLine
 10
-14.646340000000009
 20
44.25
 30
0.0
 11
-17.699999999999989
 21
44.25
 31
0.0
  0
LINE
  5
F2
100
AcDbEntity
  8
0
  6
CONTINUOUS
 62
               7
100
AcDbLine
 10
-29.0
 20
44.25
 30
0.0
 11
-27.699999999999989
 21
44.25
 31
0.0
  0
LINE
  5
F3
100
AcDbEntity
  8
0
  6
CONTINUOUS
 62
               7
100
AcDbLine
 10
-29.0
 20
36.75
 30
0.0
 11
-27.699999999999989
 21
36.75
 31
0.0
  0
LINE
  5
F4
100
AcDbEntity
  8
0
  6
CONTINUOUS
 62
               7
100
AcDbLine
 10
-29.0
 20
44.25
 30
0.0
 11
-29.0
 21
36.75
 31
0.0
  0
CIRCLE
  5
F5
100
AcDbEntity
  8
0
  6
CONTINUOUS
 62
               7
100
AcDbCircle
 10
-22.699999999999989
 20
40.5
 30
0.0
 40
6.25
  0
CIRCLE
  5
F6
100
AcDbEntity
  8
0
  6
CONTINUOUS
 62
               7
100
AcDbCircle
 10
-22.699999999999989
 20
40.5
 30
0.0
 40
3.1000000000000014
  0
LINE
  5
F7
100
AcDbEntity
  8
0
  6
CONTINUOUS
 62
               7
100
AcDbLine
 10
-8.0
 20
33.317382092857784
 30
0.0
 11
-8.0
 21
30.0
 31
0.0
  0
LINE
  5
F8
100
AcDbEntity
  8
0
  6
CONTINUOUS
 62
               7
100
AcDbLine
 10
-9.0
 20
33.317382092857784
 30
0.0
 11
-9.0
 21
30.0
 31
0.0
  0
LINE
  5
F9
100
AcDbEntity
  8
0
  6
CONTINUOUS
 62
               7
100
AcDbLine
 10
-10.5
 20
24.5
 30
0.0
 11
-14.0
 21
24.5
 31
0.0
  0
LINE
  5
FA
100
AcDbEntity
  8
0
  6
CONTINUOUS
 62
               7
100
AcDbLine
 10
-14.0
 20
24.5
 30
0.0
 11
-14.0
 21
14.0
 31
0.0
  0
LINE
  5
FB
100
AcDbEntity
  8
0
  6
CONTINUOUS
 62
               7
100
AcDbLine
 10
-3.0
 20
24.5
 30
0.0
 11
-3.0
 21
14.0
 31
0.0
  0
LINE
  5
FC
100
AcDbEntity
  8
0
  6
CONTINUOUS
 62
               7
100
AcDbLine
 10
-10.5
 20
30.0
 30
0.0
 11
-10.5
 21
24.5
 31
0.0
  0
LINE
  5
FD
100
AcDbEntity
  8
0
  6
CONTINUOUS
 62
               7
100
AcDbLine
 10
-6.5
 20
30.0
 30
0.0
 11
-6.5
 21
24.5
 31
0.0
  0
LINE
  5
FE
100
AcDbEntity
  8
0
  6
CONTINUOUS
 62
               7
100
AcDbLine
 10
-6.5
 20
30.0
 30
0.0
 11
-10.5
 21
30.0
 31
0.0
  0
LINE
  5
FF
100
AcDbEntity
  8
0
  6
CONTINUOUS
 62
               7
100
AcDbLine
 10
-3.0
 20
24.5
 30
0.0
 11
-6.5
 21
24.5
 31
0.0
  0
LINE
  5
100
100
AcDbEntity
  8
0
  6
CONTINUOUS
 62
               7
100
AcDbLine
 10
-3.0
 20
14.0
 30
0.0
 11
-14.0
 21
14.0
 31
0.0
  0
LINE
  5
101
100
AcDbEntity
  8
0
  6
CONTINUOUS
 62
               7
100
AcDbLine
 10
4.0
 20
38.0
 30
0.0
 11
4.0
 21
6.3402657631320523
 31
0.0
  0
LINE
  5
102
100
AcDbEntity
  8
0
  6
CONTINUOUS
 62
               7
100
AcDbLine
 10
-21.0
 20
34.485642178918852
 30
0.0
 11
-21.0
 21
6.3402657631320523
 31
0.0
  0
ARC
  5
103
100
AcDbEntity
  8
0
  6
CONTINUOUS
 62
               7
100
AcDbCircle
 10
-8.5
 20
38.0
 30
0.0
 40
12.5
100
AcDbArc
 50
92.292442775955635
 51
144.41619849848342
  0
LINE
  5
104
100
AcDbEntity
  8
0
  6
CENTER
 62
               2
100
AcDbLine
 10
-8.5
 20
51.945992979107729
 30
0.0
 11
-8.5
 21
0.8805776217579364
 31
0.0
  0
LINE
  5
105
100
AcDbEntity
  8
0
  6
CONTINUOUS
 62
               7
100
AcDbLine
 10
-9.0
 20
50.489995996796793
 30
0.0
 11
-9.0
 21
47.682617907142216
 31
0.0
  0
LINE
  5
106
100
AcDbEntity
  8
0
  6
CONTINUOUS
 62
               7
100
AcDbLine
 10
-8.0
 20
50.489995996796793
 30
0.0
 11
-8.0
 21
47.682617907142216
 31
0.0
  0
LINE
  5
107
100
AcDbEntity
  8
0
  6
CONTINUOUS
 62
               7
100
AcDbLine
 10
-8.0
 20
50.0
 30
0.0
 11
-9.0
 21
50.0
 31
0.0
  0
ARC
  5
108
100
AcDbEntity
  8
0
  6
CONTINUOUS
 62
               7
100
AcDbCircle
 10
-8.5
 20
38.0
 30
0.0
 40
12.5
100
AcDbArc
 50
0.0
 51
87.70755722404391
  0
LINE
  5
109
100
AcDbEntity
  8
0
  6
CONTINUOUS
 62
               7
100
AcDbLine
 10
-9.0
 20
14.0
 30
0.0
 11
-9.0
 21
3.5
 31
0.0
  0
LINE
  5
10A
100
AcDbEntity
  8
0
  6
CONTINUOUS
 62
               7
100
AcDbLine
 10
-8.0
 20
14.0
 30
0.0
 11
-8.0
 21
3.5
 31
0.0
  0
LINE
  5
10B
100
AcDbEntity
  8
0
  6
CONTINUOUS
 62
               7
100
AcDbLine
 10
-9.0
 20
3.5
 30
0.0
 11
-19.166090959707475
 21
4.3471742466422825
 31
0.0
  0
LINE
  5
10C
100
AcDbEntity
  8
0
  6
CONTINUOUS
 62
               7
100
AcDbLine
 10
-8.0
 20
3.5
 30
0.0
 11
2.1660909597074891
 21
4.3471742466422825
 31
0.0
  0
LINE
  5
10D
100
AcDbEntity
  8
0
  6
CONTINUOUS
 62
               7
100
AcDbLine
 10
-8.0
 20
4.0
 30
0.0
 11
-9.0
 21
4.0
 31
0.0
  0
ARC
  5
10E
100
AcDbEntity
  8
0
  6
CONTINUOUS
 62
               7
100
AcDbCircle
 10
-19.0
 20
6.3402657631320523
 30
0.0
 40
2.0
100
AcDbArc
 50
179.99999999999963
 51
265.23635830927338
  0
ARC
  5
10F
100
AcDbEntity
  8
0
  6
CONTINUOUS
 62
               7
100
AcDbCircle
 10
2.0000000000000142
 20
6.3402657631320523
 30
0.0
 40
2.0
100
AcDbArc
 50
274.76364169072622
 51
0.0
  0
LINE
  5
110
100
AcDbEntity
  8
0
  6
CONTINUOUS
 62
               7
100
AcDbLine
 10
-22.0
 20
23.150000000000006
 30
0.0
 11
-22.828982751300487
 21
22.92787474124971
 31
0.0
  0
LINE
  5
111
100
AcDbEntity
  8
0
  6
CONTINUOUS
 62
               7
100
AcDbLine
 10
-22.0
 20
16.849999999999994
 30
0.0
 11
-22.828982751300487
 21
17.07212525875029
 31
0.0
  0
ARC
  5
112
100
AcDbEntity
  8
0
  6
CONTINUOUS
 62
               7
100
AcDbCircle
 10
-16.900000000000006
 20
20.0
 30
0.0
 40
7.0
100
AcDbArc
 50
160.91372770515963
 51
199.08627229483943
  0
ARC
  5
113
100
AcDbEntity
  8
0
  6
CONTINUOUS
 62
               7
100
AcDbCircle
 10
-22.570163706197974
 20
21.961948914960644
 30
0.0
 40
1.0
100
AcDbArc
 50
104.99999999999936
 51
160.91372770515926
  0
ARC
  5
114
100
AcDbEntity
  8
0
  6
CONTINUOUS
 62
               7
100
AcDbCircle
 10
-22.570163706197974
 20
18.038051085039356
 30
0.0
 40
1.0
100
AcDbArc
 50
199.08627229483918
 51
254.99999999999986
  0
ENDBLK
  5
115
100
AcDbEntity
  8
0
100
AcDbBlockEnd
  0
BLOCK
  5
116
100
AcDbEntity
  8
0
100
AcDbBlockBegin
  2
DTRY-ELL01-3
 70
               0
 10
0.0
 20
0.0
 30
0.0
  3
DTRY-ELL01-3
  1

  0
ARC
  5
117
100
AcDbEntity
  8
0
  6
CONTINUOUS
 62
               7
100
AcDbCircle
 10
-19.650000000000006
 20
15.0
 30
0.0
 40
1.75
100
AcDbArc
 50
140.48234720282693
 51
219.51765279717227
  0
LINE
  5
118
100
AcDbEntity
  8
0
  6
CONTINUOUS
 62
               7
100
AcDbLine
 10
4.0
 20
6.3402657631320523
 30
0.0
 11
4.0
 21
0.0
 31
0.0
  0
LINE
  5
119
100
AcDbEntity
  8
0
  6
CENTER
 62
               2
100
AcDbLine
 10
-17.0
 20
2.3876961285609681
 30
0.0
 11
-17.0
 21
-1.4790445580716067
 31
0.0
  0
LINE
  5
11A
100
AcDbEntity
  8
0
  6
CENTER
 62
               2
100
AcDbLine
 10
0.0
 20
2.3876961285609681
 30
0.0
 11
0.0
 21
-1.4790445580716067
 31
0.0
  0
LINE
  5
11B
100
AcDbEntity
  8
0
  6
CONTINUOUS
 62
               7
100
AcDbLine
 10
4.0
 20
38.0
 30
0.0
 11
4.0
 21
6.3402657631320523
 31
0.0
  0
LINE
  5
11C
100
AcDbEntity
  8
0
  6
CONTINUOUS
 62
               7
100
AcDbLine
 10
4.0
 20
25.0
 30
0.0
 11
5.0
 21
25.0
 31
0.0
  0
LINE
  5
11D
100
AcDbEntity
  8
0
  6
CONTINUOUS
 62
               7
100
AcDbLine
 10
-21.0
 20
1.0
 30
0.0
 11
-21.0
 21
0.0
 31
0.0
  0
ARC
  5
11E
100
AcDbEntity
  8
0
  6
CONTINUOUS
 62
               7
100
AcDbCircle
 10
4.0
 20
1.0
 30
0.0
 40
1.0
100
AcDbArc
 50
270.00000000000023
 51
0.0
  0
LINE
  5
11F
100
AcDbEntity
  8
0
  6
CONTINUOUS
 62
               7
100
AcDbLine
 10
5.0
 20
25.0
 30
0.0
 11
5.0
 21
1.0
 31
0.0
  0
LINE
  5
120
100
AcDbEntity
  8
0
  6
CONTINUOUS
 62
               7
100
AcDbLine
 10
-21.0
 20
0.0
 30
0.0
 11
4.0
 21
0.0
 31
0.0
  0
LINE
  5
121
100
AcDbEntity
  8
0
  6
CONTINUOUS
 62
               7
100
AcDbLine
 10
-21.0
 20
1.0
 30
0.0
 11
4.0
 21
1.0
 31
0.0
  0
LINE
  5
122
100
AcDbEntity
  8
0
  6
CONTINUOUS
 62
               7
100
AcDbLine
 10
11.949999999999989
 20
44.25
 30
0.0
 11
10.699999999999989
 21
44.25
 31
0.0
  0
LINE
  5
123
100
AcDbEntity
  8
0
  6
CONTINUOUS
 62
               7
100
AcDbLine
 10
11.949999999999989
 20
36.75
 30
0.0
 11
10.699999999999989
 21
36.75
 31
0.0
  0
LINE
  5
124
100
AcDbEntity
  8
0
  6
CONTINUOUS
 62
               7
100
AcDbLine
 10
11.949999999999989
 20
44.25
 30
0.0
 11
11.949999999999989
 21
36.75
 31
0.0
  0
LINE
  5
125
100
AcDbEntity
  8
0
  6
CONTINUOUS
 62
               7
100
AcDbLine
 10
10.137060000000019
 20
39.75
 30
0.0
 11
3.8768937944865627
 21
39.75
 31
0.0
  0
ARC
  5
126
100
AcDbEntity
  8
0
  6
CONTINUOUS
 62
               7
100
AcDbCircle
 10
5.6999999999999886
 20
40.5
 30
0.0
 40
3.1000000000000063
100
AcDbArc
 50
236.74356871403023
 51
345.99919799999901
  0
ARC
  5
127
100
AcDbEntity
  8
0
  6
CONTINUOUS
 62
               7
100
AcDbCircle
 10
5.6999999999999886
 20
40.5
 30
0.0
 40
3.0999999999999939
100
AcDbArc
 50
14.687528999999778
 51
143.23384710272362
  0
LINE
  5
128
100
AcDbEntity
  8
0
  6
CONTINUOUS
 62
               7
100
AcDbLine
 10
3.570107704573303
 20
41.25
 30
0.0
 11
10.137060000000019
 21
41.25
 31
0.0
  0
ARC
  5
129
100
AcDbEntity
  8
0
  6
CONTINUOUS
 62
               7
100
AcDbCircle
 10
5.6999999999999886
 20
40.5
 30
0.0
 40
4.5000000000000018
100
AcDbArc
 50
247.80389914317908
 51
133.62677324747955
  0
ARC
  5
12A
100
AcDbEntity
  8
0
  6
CONTINUOUS
 62
               7
100
AcDbCircle
 10
5.6999999999999886
 20
40.5
 30
0.0
 40
6.25
100
AcDbArc
 50
254.2166867709409
 51
130.20087789313683
  0
CIRCLE
  5
12B
100
AcDbEntity
  8
0
  6
CONTINUOUS
 62
               7
100
AcDbCircle
 10
-8.5
 20
38.0
 30
0.0
 40
2.0
  0
CIRCLE
  5
12C
100
AcDbEntity
  8
0
  6
CONTINUOUS
 62
               2
100
AcDbCircle
 10
-8.5
 20
38.0
 30
0.0
 40
2.5
  0
CIRCLE
  5
12D
100
AcDbEntity
  8
0
  6
CONTINUOUS
 62
               7
100
AcDbCircle
 10
-8.5
 20
43.400000000000006
 30
0.0
 40
1.1000000000000001
  0
CIRCLE
  5
12E
100
AcDbEntity
  8
0
  6
CONTINUOUS
 62
               7
100
AcDbCircle
 10
-8.5
 20
38.0
 30
0.0
 40
6.5
  0
CIRCLE
  5
12F
100
AcDbEntity
  8
0
  6
CONTINUOUS
 62
               2
100
AcDbCircle
 10
-8.5
 20
38.0
 30
0.0
 40
7.0
  0
ARC
  5
130
100
AcDbEntity
  8
0
  6
CONTINUOUS
 62
               7
100
AcDbCircle
 10
-19.0
 20
6.3402657631320523
 30
0.0
 40
2.0
100
AcDbArc
 50
179.99999999999963
 51
265.23635830927338
  0
ARC
  5
131
100
AcDbEntity
  8
0
  6
CONTINUOUS
 62
               7
100
AcDbCircle
 10
2.0
 20
6.3402657631320523
 30
0.0
 40
2.0
100
AcDbArc
 50
274.76364169072622
 51
0.0
  0
LINE
  5
132
100
AcDbEntity
  8
0
  6
CONTINUOUS
 62
               7
100
AcDbLine
 10
-9.0
 20
4.0
 30
0.0
 11
-8.0
 21
4.0
 31
0.0
  0
LINE
  5
133
100
AcDbEntity
  8
0
  6
CONTINUOUS
 62
               7
100
AcDbLine
 10
-9.0
 20
3.5
 30
0.0
 11
-19.166090959707503
 21
4.3471742466422825
 31
0.0
  0
LINE
  5
134
100
AcDbEntity
  8
0
  6
CONTINUOUS
 62
               7
100
AcDbLine
 10
-8.0
 20
3.5
 30
0.0
 11
2.1660909597074749
 21
4.3471742466422825
 31
0.0
  0
LINE
  5
135
100
AcDbEntity
  8
0
  6
CONTINUOUS
 62
               7
100
AcDbLine
 10
-9.0
 20
28.012507822280909
 30
0.0
 11
-9.0
 21
3.5
 31
0.0
  0
LINE
  5
136
100
AcDbEntity
  8
0
  6
CONTINUOUS
 62
               7
100
AcDbLine
 10
-8.0
 20
28.012507822280909
 30
0.0
 11
-8.0
 21
3.5
 31
0.0
  0
ARC
  5
137
100
AcDbEntity
  8
0
  6
CONTINUOUS
 62
               7
100
AcDbCircle
 10
-8.5
 20
38.0
 30
0.0
 40
12.5
100
AcDbArc
 50
92.292442775955692
 51
179.99999999999963
  0
LINE
  5
138
100
AcDbEntity
  8
0
  6
CONTINUOUS
 62
               7
100
AcDbLine
 10
-9.0
 20
50.0
 30
0.0
 11
-8.0
 21
50.0
 31
0.0
  0
LINE
  5
139
100
AcDbEntity
  8
0
  6
CONTINUOUS
 62
               7
100
AcDbLine
 10
-9.0
 20
50.489995996796793
 30
0.0
 11
-9.0
 21
47.987492177719091
 31
0.0
  0
LINE
  5
13A
100
AcDbEntity
  8
0
  6
CONTINUOUS
 62
               7
100
AcDbLine
 10
-8.0
 20
50.489995996796793
 30
0.0
 11
-8.0
 21
47.987492177719091
 31
0.0
  0
LINE
  5
13B
100
AcDbEntity
  8
0
  6
CENTER
 62
               2
100
AcDbLine
 10
-19.883243243243214
 20
38.0
 30
0.0
 11
3.0010810810811108
 21
38.0
 31
0.0
  0
LINE
  5
13C
100
AcDbEntity
  8
0
  6
CONTINUOUS
 62
               7
100
AcDbLine
 10
-10.5
 20
30.200000000000003
 30
0.0
 11
-10.5
 21
29.225035612607883
 31
0.0
  0
LINE
  5
13D
100
AcDbEntity
  8
0
  6
CONTINUOUS
 62
               7
100
AcDbLine
 10
-6.5
 20
30.200000000000003
 30
0.0
 11
-6.5
 21
29.225035612607883
 31
0.0
  0
LINE
  5
13E
100
AcDbEntity
  8
0
  6
CENTER
 62
               2
100
AcDbLine
 10
-8.5
 20
51.945992979107729
 30
0.0
 11
-8.5
 21
0.8805776217579364
 31
0.0
  0
LINE
  5
13F
100
AcDbEntity
  8
0
  6
CONTINUOUS
 62
               7
100
AcDbLine
 10
-10.5
 20
30.200000000000003
 30
0.0
 11
-6.5
 21
30.200000000000003
 31
0.0
  0
CIRCLE
  5
140
100
AcDbEntity
  8
0
  6
CONTINUOUS
 62
               7
100
AcDbCircle
 10
-8.5
 20
38.0
 30
0.0
 40
9.0
  0
CIRCLE
  5
141
100
AcDbEntity
  8
0
  6
CONTINUOUS
 62
               7
100
AcDbCircle
 10
-8.5
 20
38.0
 30
0.0
 40
10.0
  0
ARC
  5
142
100
AcDbEntity
  8
0
  6
CONTINUOUS
 62
               7
100
AcDbCircle
 10
-8.5
 20
38.0
 30
0.0
 40
12.5
100
AcDbArc
 50
0.0
 51
87.70755722404391
  0
LINE
  5
143
100
AcDbEntity
  8
0
  6
CONTINUOUS
 62
               7
100
AcDbLine
 10
-21.0
 20
38.0
 30
0.0
 11
-21.0
 21
6.3402657631320523
 31
0.0
  0
CIRCLE
  5
144
100
AcDbEntity
  8
0
  6
CONTINUOUS
 62
               7
100
AcDbCircle
 10
-8.5
 20
38.0
 30
0.0
 40
0.75
  0
LINE
  5
145
100
AcDbEntity
  8
0
  6
CENTER
 62
               2
100
AcDbLine
 10
1.8364040367167718
 20
20.0
 30
0.0
 11
8.2392002658395711
 21
20.0
 31
0.0
  0
LINE
  5
146
100
AcDbEntity
  8
0
  6
CONTINUOUS
 62
               7
100
AcDbLine
 10
5.0
 20
23.150000000000006
 30
0.0
 11
5.8289827513004866
 21
22.92787474124971
 31
0.0
  0
LINE
  5
147
100
AcDbEntity
  8
0
  6
CONTINUOUS
 62
               7
100
AcDbLine
 10
5.0
 20
16.849999999999994
 30
0.0
 11
5.8289827513004866
 21
17.07212525875029
 31
0.0
  0
ARC
  5
148
100
AcDbEntity
  8
0
  6
CONTINUOUS
 62
               7
100
AcDbCircle
 10
5.5701637061979739
 20
18.038051085039356
 30
0.0
 40
1.0
100
AcDbArc
 50
284.99999999999892
 51
340.9137277051596
  0
ARC
  5
149
100
AcDbEntity
  8
0
  6
CONTINUOUS
 62
               7
100
AcDbCircle
 10
5.5701637061979739
 20
21.961948914960644
 30
0.0
 40
1.0
100
AcDbArc
 50
19.086272294840352
 51
75.000000000000227
  0
ARC
  5
14A
100
AcDbEntity
  8
0
  6
CONTINUOUS
 62
               7
100
AcDbCircle
 10
-0.0999999999999943
 20
20.0
 30
0.0
 40
7.0
100
AcDbArc
 50
340.91372770516011
 51
19.086272294839965
  0
ENDBLK
  5
14B
100
AcDbEntity
  8
0
100
AcDbBlockEnd
  0
BLOCK
  5
14C
100
AcDbEntity
  8
0
100
AcDbBlockBegin
  2
DTRY-ELL01-4
 70
               0
 10
0.0
 20
0.0
 30
0.0
  3
DTRY-ELL01-4
  1

  0
LINE
  5
14D
100
AcDbEntity
  8
0
  6
CONTINUOUS
 62
               7
100
AcDbLine
 10
2.0
 20
3.3499999999999943
 30
0.0
 11
6.0
 21
3.3499999999999943
 31
0.0
  0
LINE
  5
14E
100
AcDbEntity
  8
0
  6
CONTINUOUS
 62
               7
100
AcDbLine
 10
4.0
 20
14.0
 30
0.0
 11
4.0
 21
13.473147020578324
 31
0.0
  0
LINE
  5
14F
100
AcDbEntity
  8
0
  6
CONTINUOUS
 62
               7
100
AcDbLine
 10
4.0
 20
3.0
 30
0.0
 11
4.0
 21
3.3499999999999943
 31
0.0
  0
LINE
  5
150
100
AcDbEntity
  8
0
  6
CONTINUOUS
 62
               7
100
AcDbLine
 10
6.0
 20
3.0
 30
0.0
 11
4.0
 21
3.0
 31
0.0
  0
LINE
  5
151
100
AcDbEntity
  8
0
  6
CONTINUOUS
 62
               7
100
AcDbLine
 10
6.0
 20
14.0
 30
0.0
 11
4.0
 21
14.0
 31
0.0
  0
LINE
  5
152
100
AcDbEntity
  8
0
  6
CONTINUOUS
 62
               2
100
AcDbLine
 10
2.0
 20
12.930000000000007
 30
0.0
 11
3.139800615079821
 21
12.893733616792929
 31
0.0
  0
LINE
  5
153
100
AcDbEntity
  8
0
  6
CONTINUOUS
 62
               7
100
AcDbLine
 10
2.0
 20
13.509999999999991
 30
0.0
 11
3.158236496109339
 21
13.473147020578324
 31
0.0
  0
LINE
  5
154
100
AcDbEntity
  8
0
  6
CONTINUOUS
 62
               7
100
AcDbLine
 10
2.0
 20
3.4900000000000091
 30
0.0
 11
3.158236496109339
 21
3.5268529794216761
 31
0.0
  0
LINE
  5
155
100
AcDbEntity
  8
0
  6
CONTINUOUS
 62
               2
100
AcDbLine
 10
2.0
 20
4.0699999999999932
 30
0.0
 11
3.139800615079821
 21
4.1062663832070712
 31
0.0
  0
LINE
  5
156
100
AcDbEntity
  8
0
  6
CONTINUOUS
 62
               2
100
AcDbLine
 10
3.000000019020149
 20
4.1018181818181745
 30
0.0
 11
6.0
 21
4.1018181818181745
 31
0.0
  0
LINE
  5
157
100
AcDbEntity
  8
0
  6
CONTINUOUS
 62
               7
100
AcDbLine
 10
3.000000019020149
 20
3.5268529794216761
 30
0.0
 11
6.0
 21
3.5268529794216761
 31
0.0
  0
LINE
  5
158
100
AcDbEntity
  8
0
  6
CONTINUOUS
 62
               7
100
AcDbLine
 10
3.000000019020149
 20
13.473147020578324
 30
0.0
 11
6.0
 21
13.473147020578324
 31
0.0
  0
LINE
  5
159
100
AcDbEntity
  8
0
  6
CONTINUOUS
 62
               2
100
AcDbLine
 10
3.000000019020149
 20
12.898181818181826
 30
0.0
 11
6.0
 21
12.898181818181826
 31
0.0
  0
LINE
  5
15A
100
AcDbEntity
  8
0
  6
CONTINUOUS
 62
               7
100
AcDbLine
 10
6.0
 20
2.0
 30
0.0
 11
6.5
 21
2.0
 31
0.0
  0
LINE
  5
15B
100
AcDbEntity
  8
0
  6
CONTINUOUS
 62
               7
100
AcDbLine
 10
6.0
 20
15.0
 30
0.0
 11
6.5
 21
15.0
 31
0.0
  0
LINE
  5
15C
100
AcDbEntity
  8
0
  6
CONTINUOUS
 62
               7
100
AcDbLine
 10
6.0
 20
2.0
 30
0.0
 11
6.0
 21
15.0
 31
0.0
  0
LINE
  5
15D
100
AcDbEntity
  8
0
  6
CONTINUOUS
 62
               7
100
AcDbLine
 10
0.7999999999999545
 20
15.699999999999989
 30
0.0
 11
2.0
 21
15.0
 31
0.0
  0
LINE
  5
15E
100
AcDbEntity
  8
0
  6
CONTINUOUS
 62
               7
100
AcDbLine
 10
2.0
 20
15.699999999999989
 30
0.0
 11
-0.4499999999999318
 21
15.699999999999989
 31
0.0
  0
LINE
  5
15F
100
AcDbEntity
  8
0
  6
CONTINUOUS
 62
               7
100
AcDbLine
 10
0.8000000000000682
 20
1.3000000000000114
 30
0.0
 11
0.8000000000000682
 21
15.699999999999989
 31
0.0
  0
LINE
  5
160
100
AcDbEntity
  8
0
  6
CONTINUOUS
 62
               7
100
AcDbLine
 10
0.7999999999999545
 20
1.3000000000000114
 30
0.0
 11
2.0
 21
2.0
 31
0.0
  0
LINE
  5
161
100
AcDbEntity
  8
0
  6
CONTINUOUS
 62
               7
100
AcDbLine
 10
71.400000000000006
 20
-1.5
 30
0.0
 11
70.152825753357718
 21
-1.5
 31
0.0
  0
LINE
  5
162
100
AcDbEntity
  8
0
  6
CONTINUOUS
 62
               7
100
AcDbLine
 10
71.400000000000006
 20
18.5
 30
0.0
 11
70.208333333333329
 21
18.5
 31
0.0
  0
LINE
  5
163
100
AcDbEntity
  8
0
  6
CONTINUOUS
 62
               7
100
AcDbLine
 10
71.400000000000006
 20
-1.5
 30
0.0
 11
71.400000000000006
 21
18.5
 31
0.0
  0
LINE
  5
164
100
AcDbEntity
  8
0
  6
CONTINUOUS
 62
               7
100
AcDbLine
 10
78.0
 20
21.0
 30
0.0
 11
2.0
 21
21.0
 31
0.0
  0
LINE
  5
165
100
AcDbEntity
  8
0
  6
CONTINUOUS
 62
               7
100
AcDbLine
 10
-4.0
 20
-1.0
 30
0.0
 11
-4.0
 21
1.3000000000000114
 31
0.0
  0
LINE
  5
166
100
AcDbEntity
  8
0
  6
DASHED
 62
               7
100
AcDbLine
 10
8.8402657631320523
 20
21.0
 30
0.0
 11
68.159734236867948
 21
21.0
 31
0.0
  0
LINE
  5
167
100
AcDbEntity
  8
0
  6
CONTINUOUS
 62
               7
100
AcDbLine
 10
68.159734236867962
 20
-4.0
 30
0.0
 11
78.0
 21
-4.0
 31
0.0
  0
LINE
  5
168
100
AcDbEntity
  8
0
  6
CONTINUOUS
 62
               7
100
AcDbLine
 10
8.8402657631320523
 20
-4.0
 30
0.0
 11
68.159734236867962
 21
-4.0
 31
0.0
  0
LINE
  5
169
100
AcDbEntity
  8
0
  6
CENTER
 62
               2
100
AcDbLine
 10
2.9254346238129898
 20
0.0
 30
0.0
 11
-3.2644811297784457
 21
0.0
 31
0.0
  0
LINE
  5
16A
100
AcDbEntity
  8
0
  6
CENTER
 62
               2
100
AcDbLine
 10
0.0
 20
-3.303263452641886
 30
0.0
 11
0.0
 21
3.0863270026783027
 31
0.0
  0
LINE
  5
16B
100
AcDbEntity
  8
0
  6
CENTER
 62
               2
100
AcDbLine
 10
77.0
 20
2.7000000000000028
 30
0.0
 11
77.0
 21
-2.7000000000000028
 31
0.0
  0
LINE
  5
16C
100
AcDbEntity
  8
0
  6
CENTER
 62
               2
100
AcDbLine
 10
74.299999999999997
 20
0.0
 30
0.0
 11
79.700000000000003
 21
0.0
 31
0.0
  0
ARC
  5
16D
100
AcDbEntity
  8
0
  6
CONTINUOUS
 62
               7
100
AcDbCircle
 10
-1.0
 20
-1.0
 30
0.0
 40
3.0
100
AcDbArc
 50
179.99999999999963
 51
269.99999999999937
  0
ARC
  5
16E
100
AcDbEntity
  8
0
  6
CONTINUOUS
 62
               7
100
AcDbCircle
 10
78.0
 20
18.0
 30
0.0
 40
3.0
100
AcDbArc
 50
0.0
 51
89.999999999999815
  0
ARC
  5
16F
100
AcDbEntity
  8
0
  6
CONTINUOUS
 62
               7
100
AcDbCircle
 10
78.0
 20
-1.0
 30
0.0
 40
3.0
100
AcDbArc
 50
270.00000000000023
 51
0.0
  0
LINE
  5
170
100
AcDbEntity
  8
0
  6
CONTINUOUS
 62
               7
100
AcDbLine
 10
81.0
 20
-1.0
 30
0.0
 11
81.0
 21
18.0
 31
0.0
  0
LINE
  5
171
100
AcDbEntity
  8
0
  6
CONTINUOUS
 62
               7
100
AcDbLine
 10
7.0
 20
22.0
 30
0.0
 11
7.0
 21
21.0
 31
0.0
  0
LINE
  5
172
100
AcDbEntity
  8
0
  6
CONTINUOUS
 62
               7
100
AcDbLine
 10
70.0
 20
22.0
 30
0.0
 11
70.0
 21
21.0
 31
0.0
  0
LINE
  5
173
100
AcDbEntity
  8
0
  6
CONTINUOUS
 62
               7
100
AcDbLine
 10
7.0
 20
22.0
 30
0.0
 11
70.0
 21
22.0
 31
0.0
  0
LINE
  5
174
100
AcDbEntity
  8
0
  6
CONTINUOUS
 62
               7
100
AcDbLine
 10
-27.699999999999989
 20
5.0
 30
0.0
 11
-26.699999999999989
 21
5.0
 31
0.0
  0
LINE
  5
175
100
AcDbEntity
  8
0
  6
CONTINUOUS
 62
               7
100
AcDbLine
 10
-27.699999999999989
 20
12.0
 30
0.0
 11
-26.699999999999989
 21
12.0
 31
0.0
  0
LINE
  5
176
100
AcDbEntity
  8
0
  6
CONTINUOUS
 62
               7
100
AcDbLine
 10
-26.699999999999989
 20
4.5
 30
0.0
 11
-25.699999999999989
 21
4.5
 31
0.0
  0
LINE
  5
177
100
AcDbEntity
  8
0
  6
CONTINUOUS
 62
               7
100
AcDbLine
 10
-26.699999999999989
 20
12.5
 30
0.0
 11
-25.699999999999989
 21
12.5
 31
0.0
  0
LINE
  5
178
100
AcDbEntity
  8
0
  6
CONTINUOUS
 62
               7
100
AcDbLine
 10
-26.699999999999989
 20
4.5
 30
0.0
 11
-26.699999999999989
 21
12.5
 31
0.0
  0
LINE
  5
179
100
AcDbEntity
  8
0
  6
CONTINUOUS
 62
               7
100
AcDbLine
 10
-27.699999999999989
 20
4.5
 30
0.0
 11
-27.699999999999989
 21
12.5
 31
0.0
  0
LINE
  5
17A
100
AcDbEntity
  8
0
  6
CONTINUOUS
 62
               7
100
AcDbLine
 10
-29.199999999999989
 20
5.0
 30
0.0
 11
-29.199999999999989
 21
12.0
 31
0.0
  0
LINE
  5
17B
100
AcDbEntity
  8
0
  6
CONTINUOUS
 62
               7
100
AcDbLine
 10
0.7999999999999545
 20
1.3000000000000114
 30
0.0
 11
-8.7999999999999545
 21
1.3000000000000114
 31
0.0
  0
LINE
  5
17C
100
AcDbEntity
  8
0
  6
CONTINUOUS
 62
               7
100
AcDbLine
 10
-25.199999999999989
 20
5.0
 30
0.0
 11
-25.199999999999989
 21
12.0
 31
0.0
  0
LINE
  5
17D
100
AcDbEntity
  8
0
  6
CONTINUOUS
 62
               7
100
AcDbLine
 10
-8.7999999999999545
 20
1.3000000000000114
 30
0.0
 11
-8.7999999999999545
 21
15.699999999999989
 31
0.0
  0
LINE
  5
17E
100
AcDbEntity
  8
0
  6
CONTINUOUS
 62
               7
100
AcDbLine
 10
-8.7999999999999545
 20
15.699999999999989
 30
0.0
 11
-10.0
 21
15.0
 31
0.0
  0
LINE
  5
17F
100
AcDbEntity
  8
0
  6
CONTINUOUS
 62
               7
100
AcDbLine
 10
-8.7999999999999545
 20
1.3000000000000114
 30
0.0
 11
-10.0
 21
2.0
 31
0.0
  0
LINE
  5
180
100
AcDbEntity
  8
0
  6
CONTINUOUS
 62
               7
100
AcDbLine
 10
-14.0
 20
3.5
 30
0.0
 11
-14.0
 21
13.5
 31
0.0
  0
LINE
  5
181
100
AcDbEntity
  8
0
  6
CONTINUOUS
 62
               7
100
AcDbLine
 10
-13.549999999999955
 20
14.269999999999982
 30
0.0
 11
-10.0
 21
14.269999999999982
 31
0.0
  0
LINE
  5
182
100
AcDbEntity
  8
0
  6
CONTINUOUS
 62
               7
100
AcDbLine
 10
-13.549999999999955
 20
2.7299999999999613
 30
0.0
 11
-10.0
 21
2.7299999999999613
 31
0.0
  0
LINE
  5
183
100
AcDbEntity
  8
0
  6
CONTINUOUS
 62
               7
100
AcDbLine
 10
-13.549999999999955
 20
5.6200000000000045
 30
0.0
 11
-10.0
 21
5.6200000000000045
 31
0.0
  0
LINE
  5
184
100
AcDbEntity
  8
0
  6
CONTINUOUS
 62
               7
100
AcDbLine
 10
-13.549999999999955
 20
11.379999999999995
 30
0.0
 11
-10.0
 21
11.379999999999995
 31
0.0
  0
LINE
  5
185
100
AcDbEntity
  8
0
  6
CONTINUOUS
 62
               7
100
AcDbLine
 10
-14.0
 20
13.5
 30
0.0
 11
-13.549999999999955
 21
14.269999999999982
 31
0.0
  0
LINE
  5
186
100
AcDbEntity
  8
0
  6
CONTINUOUS
 62
               7
100
AcDbLine
 10
-14.0
 20
3.5
 30
0.0
 11
-13.549999999999955
 21
2.7299999999999613
 31
0.0
  0
LINE
  5
187
100
AcDbEntity
  8
0
  6
CONTINUOUS
 62
               7
100
AcDbLine
 10
-15.100000000000023
 20
4.0
 30
0.0
 11
-15.100000000000023
 21
13.0
 31
0.0
  0
LINE
  5
188
100
AcDbEntity
  8
0
  6
CONTINUOUS
 62
               7
100
AcDbLine
 10
-18.600000000000023
 20
4.0
 30
0.0
 11
-18.600000000000023
 21
13.0
 31
0.0
  0
LINE
  5
189
100
AcDbEntity
  8
0
  6
CONTINUOUS
 62
               7
100
AcDbLine
 10
-18.100000000000023
 20
13.5
 30
0.0
 11
-15.600000000000023
 21
13.5
 31
0.0
  0
LINE
  5
18A
100
AcDbEntity
  8
0
  6
CONTINUOUS
 62
               7
100
AcDbLine
 10
-18.100000000000023
 20
3.5
 30
0.0
 11
-15.600000000000023
 21
3.5
 31
0.0
  0
LINE
  5
18B
100
AcDbEntity
  8
0
  6
CONTINUOUS
 62
               7
100
AcDbLine
 10
-28.699999999999989
 20
4.5
 30
0.0
 11
-27.699999999999989
 21
4.5
 31
0.0
  0
LINE
  5
18C
100
AcDbEntity
  8
0
  6
CONTINUOUS
 62
               7
100
AcDbLine
 10
-28.699999999999989
 20
12.5
 30
0.0
 11
-27.699999999999989
 21
12.5
 31
0.0
  0
LINE
  5
18D
100
AcDbEntity
  8
0
  6
CONTINUOUS
 62
               7
100
AcDbLine
 10
-18.100000000000023
 20
13.5
 30
0.0
 11
-18.600000000000023
 21
13.0
 31
0.0
  0
LINE
  5
18E
100
AcDbEntity
  8
0
  6
CONTINUOUS
 62
               7
100
AcDbLine
 10
-18.600000000000023
 20
4.0
 30
0.0
 11
-18.100000000000023
 21
3.5
 31
0.0
  0
LINE
  5
18F
100
AcDbEntity
  8
0
  6
CONTINUOUS
 62
               7
100
AcDbLine
 10
-15.600000000000023
 20
3.5
 30
0.0
 11
-15.100000000000023
 21
4.0
 31
0.0
  0
LINE
  5
190
100
AcDbEntity
  8
0
  6
CONTINUOUS
 62
               7
100
AcDbLine
 10
-15.100000000000023
 20
13.0
 30
0.0
 11
-15.600000000000023
 21
13.5
 31
0.0
  0
LINE
  5
191
100
AcDbEntity
  8
0
  6
CONTINUOUS
 62
               7
100
AcDbLine
 10
-28.699999999999989
 20
12.5
 30
0.0
 11
-29.199999999999989
 21
12.0
 31
0.0
  0
LINE
  5
192
100
AcDbEntity
  8
0
  6
CONTINUOUS
 62
               7
100
AcDbLine
 10
-29.199999999999989
 20
5.0
 30
0.0
 11
-28.699999999999989
 21
4.5
 31
0.0
  0
LINE
  5
193
100
AcDbEntity
  8
0
  6
CONTINUOUS
 62
               7
100
AcDbLine
 10
-25.699999999999989
 20
4.5
 30
0.0
 11
-25.199999999999989
 21
5.0
 31
0.0
  0
LINE
  5
194
100
AcDbEntity
  8
0
  6
CONTINUOUS
 62
               7
100
AcDbLine
 10
-25.199999999999989
 20
12.0
 30
0.0
 11
-25.699999999999989
 21
12.5
 31
0.0
  0
LINE
  5
195
100
AcDbEntity
  8
0
  6
CONTINUOUS
 62
               7
100
AcDbLine
 10
-28.699999999999989
 20
4.5
 30
0.0
 11
-28.699999999999989
 21
12.5
 31
0.0
  0
LINE
  5
196
100
AcDbEntity
  8
0
  6
CONTINUOUS
 62
               7
100
AcDbLine
 10
-25.699999999999989
 20
4.5
 30
0.0
 11
-25.699999999999989
 21
12.5
 31
0.0
  0
LINE
  5
197
100
AcDbEntity
  8
0
  6
CONTINUOUS
 62
               7
100
AcDbLine
 10
-18.100000000000023
 20
3.5
 30
0.0
 11
-18.100000000000023
 21
13.5
 31
0.0
  0
LINE
  5
198
100
AcDbEntity
  8
0
  6
CONTINUOUS
 62
               7
100
AcDbLine
 10
-15.600000000000023
 20
3.5
 30
0.0
 11
-15.600000000000023
 21
13.5
 31
0.0
  0
LINE
  5
199
100
AcDbEntity
  8
0
  6
CONTINUOUS
 62
               7
100
AcDbLine
 10
-25.199999999999989
 20
6.0
 30
0.0
 11
-18.600000000000023
 21
6.0
 31
0.0
  0
LINE
  5
19A
100
AcDbEntity
  8
0
  6
CONTINUOUS
 62
               7
100
AcDbLine
 10
-25.199999999999989
 20
11.0
 30
0.0
 11
-18.600000000000023
 21
11.0
 31
0.0
  0
LINE
  5
19B
100
AcDbEntity
  8
0
  6
CONTINUOUS
 62
               2
100
AcDbLine
 10
-25.199999999999989
 20
10.560000000000002
 30
0.0
 11
-18.600000000000023
 21
10.560000000000002
 31
0.0
  0
LINE
  5
19C
100
AcDbEntity
  8
0
  6
CONTINUOUS
 62
               2
100
AcDbLine
 10
-25.199999999999989
 20
6.4399999999999977
 30
0.0
 11
-18.600000000000023
 21
6.4399999999999977
 31
0.0
  0
LINE
  5
19D
100
AcDbEntity
  8
0
  6
CONTINUOUS
 62
               7
100
AcDbLine
 10
-15.100000000000023
 20
12.5
 30
0.0
 11
-14.0
 21
12.5
 31
0.0
  0
LINE
  5
19E
100
AcDbEntity
  8
0
  6
CONTINUOUS
 62
               7
100
AcDbLine
 10
-15.100000000000023
 20
4.5
 30
0.0
 11
-14.0
 21
4.5
 31
0.0
  0
LINE
  5
19F
100
AcDbEntity
  8
0
  6
CONTINUOUS
 62
               7
100
AcDbLine
 10
-8.7999999999999545
 20
15.699999999999989
 30
0.0
 11
-7.9499999999999886
 21
15.699999999999989
 31
0.0
  0
LINE
  5
1A0
100
AcDbEntity
  8
0
  6
CONTINUOUS
 62
               7
100
AcDbLine
 10
2.0
 20
2.0
 30
0.0
 11
2.0
 21
27.450000000000003
 31
0.0
  0
LINE
  5
1A1
100
AcDbEntity
  8
0
  6
CONTINUOUS
 62
               7
100
AcDbLine
 10
-10.0
 20
2.0
 30
0.0
 11
-10.0
 21
16.449999999999989
 31
0.0
  0
LINE
  5
1A2
100
AcDbEntity
  8
0
  6
CONTINUOUS
 62
               7
100
AcDbLine
 10
-0.4499999999999318
 20
15.699999999999989
 30
0.0
 11
-0.4499999999999318
 21
28.950000000000003
 31
0.0
  0
LINE
  5
1A3
100
AcDbEntity
  8
0
  6
CONTINUOUS
 62
               7
100
AcDbLine
 10
-24.199999999999989
 20
16.800000000000011
 30
0.0
 11
-24.199999999999989
 21
28.59999999999998
 31
0.0
  0
LINE
  5
1A4
100
AcDbEntity
  8
0
  6
CONTINUOUS
 62
               7
100
AcDbLine
 10
-22.399999999999977
 20
28.59999999999998
 30
0.0
 11
-24.199999999999989
 21
28.59999999999998
 31
0.0
  0
LINE
  5
1A5
100
AcDbEntity
  8
0
  6
CONTINUOUS
 62
               7
100
AcDbLine
 10
-22.399999999999977
 20
16.800000000000011
 30
0.0
 11
-24.199999999999989
 21
16.800000000000011
 31
0.0
  0
LINE
  5
1A6
100
AcDbEntity
  8
0
  6
CONTINUOUS
 62
               7
100
AcDbLine
 10
-22.399999999999977
 20
16.800000000000011
 30
0.0
 11
-22.399999999999977
 21
28.59999999999998
 31
0.0
  0
LINE
  5
1A7
100
AcDbEntity
  8
0
  6
CONTINUOUS
 62
               7
100
AcDbLine
 10
-21.199999999999989
 20
18.399999999999977
 30
0.0
 11
-22.399999999999977
 21
18.399999999999977
 31
0.0
  0
LINE
  5
1A8
100
AcDbEntity
  8
0
  6
CONTINUOUS
 62
               7
100
AcDbLine
 10
-21.199999999999989
 20
27.000000000000014
 30
0.0
 11
-22.399999999999977
 21
27.000000000000014
 31
0.0
  0
LINE
  5
1A9
100
AcDbEntity
  8
0
  6
CONTINUOUS
 62
               7
100
AcDbLine
 10
-21.199999999999989
 20
16.949999999999989
 30
0.0
 11
-21.199999999999989
 21
28.450000000000003
 31
0.0
  0
LINE
  5
1AA
100
AcDbEntity
  8
0
  6
CONTINUOUS
 62
               7
100
AcDbLine
 10
-19.199999999999989
 20
28.450000000000003
 30
0.0
 11
-21.199999999999989
 21
28.450000000000003
 31
0.0
  0
LINE
  5
1AB
100
AcDbEntity
  8
0
  6
CONTINUOUS
 62
               7
100
AcDbLine
 10
-19.199999999999989
 20
16.449999999999989
 30
0.0
 11
-19.199999999999989
 21
28.950000000000003
 31
0.0
  0
LINE
  5
1AC
100
AcDbEntity
  8
0
  6
CONTINUOUS
 62
               7
100
AcDbLine
 10
0.5
 20
28.950000000000003
 30
0.0
 11
-19.199999999999989
 21
28.950000000000003
 31
0.0
  0
LINE
  5
1AD
100
AcDbEntity
  8
0
  6
CONTINUOUS
 62
               7
100
AcDbLine
 10
-9.6999999999999886
 20
16.449999999999989
 30
0.0
 11
-19.199999999999989
 21
16.449999999999989
 31
0.0
  0
LINE
  5
1AE
100
AcDbEntity
  8
0
  6
CONTINUOUS
 62
               7
100
AcDbLine
 10
-19.199999999999989
 20
16.949999999999989
 30
0.0
 11
-21.199999999999989
 21
16.949999999999989
 31
0.0
  0
LINE
  5
1AF
100
AcDbEntity
  8
0
  6
CONTINUOUS
 62
               7
100
AcDbLine
 10
-9.6999999999999886
 20
16.449999999999989
 30
0.0
 11
-9.6999999999999886
 21
28.950000000000003
 31
0.0
  0
LINE
  5
1B0
100
AcDbEntity
  8
0
  6
CONTINUOUS
 62
               7
100
AcDbLine
 10
-9.6999999999999886
 20
28.950000000000003
 30
0.0
 11
-7.9499999999999886
 21
27.200000000000003
 31
0.0
  0
LINE
  5
1B1
100
AcDbEntity
  8
0
  6
CONTINUOUS
 62
               7
100
AcDbLine
 10
-9.6999999999999886
 20
16.449999999999989
 30
0.0
 11
-7.9499999999999886
 21
18.199999999999989
 31
0.0
  0
LINE
  5
1B2
100
AcDbEntity
  8
0
  6
CONTINUOUS
 62
               7
100
AcDbLine
 10
-7.9499999999999886
 20
28.950000000000003
 30
0.0
 11
-7.9499999999999886
 21
27.200000000000003
 31
0.0
  0
LINE
  5
1B3
100
AcDbEntity
  8
0
  6
CONTINUOUS
 62
               7
100
AcDbLine
 10
-5.9499999999999886
 20
18.199999999999989
 30
0.0
 11
-7.9499999999999886
 21
18.199999999999989
 31
0.0
  0
LINE
  5
1B4
100
AcDbEntity
  8
0
  6
CONTINUOUS
 62
               7
100
AcDbLine
 10
-4.1999999999999318
 20
19.949999999999989
 30
0.0
 11
-4.1999999999999318
 21
25.450000000000003
 31
0.0
  0
LINE
  5
1B5
100
AcDbEntity
  8
0
  6
CONTINUOUS
 62
               7
100
AcDbLine
 10
-5.9499999999999886
 20
27.200000000000003
 30
0.0
 11
-7.9499999999999886
 21
27.200000000000003
 31
0.0
  0
LINE
  5
1B6
100
AcDbEntity
  8
0
  6
CONTINUOUS
 62
               7
100
AcDbLine
 10
-17.199999999999989
 20
16.449999999999989
 30
0.0
 11
-17.199999999999989
 21
28.950000000000003
 31
0.0
  0
LINE
  5
1B7
100
AcDbEntity
  8
0
  6
CONTINUOUS
 62
               7
100
AcDbLine
 10
-7.9499999999999886
 20
27.200000000000003
 30
0.0
 11
-7.9499999999999886
 21
18.199999999999989
 31
0.0
  0
LINE
  5
1B8
100
AcDbEntity
  8
0
  6
CONTINUOUS
 62
               7
100
AcDbLine
 10
-7.9499999999999886
 20
18.199999999999989
 30
0.0
 11
-7.9499999999999886
 21
15.699999999999989
 31
0.0
  0
ARC
  5
1B9
100
AcDbEntity
  8
0
  6
CONTINUOUS
 62
               7
100
AcDbCircle
 10
-4.1999999999999318
 20
18.215621948242188
 30
0.0
 40
4.5156232998864976
100
AcDbArc
 50
213.85499397182187
 51
326.14500602817679
  0
ARC
  5
1BA
100
AcDbEntity
  8
0
  6
CONTINUOUS
 62
               7
100
AcDbCircle
 10
0.4999969482422557
 20
27.449996948242202
 30
0.0
 40
1.5000030517609169
100
AcDbArc
 50
0.0001165683246656
 51
89.99988343167513
  0
ARC
  5
1BB
100
AcDbEntity
  8
0
  6
CONTINUOUS
 62
               7
100
AcDbCircle
 10
-11.944297952369197
 20
12.8261742582485
 30
0.0
 40
2.1609486460780212
100
AcDbArc
 50
197.95552249200404
 51
222.00775624569366
  0
ARC
  5
1BC
100
AcDbEntity
  8
0
  6
CONTINUOUS
 62
               7
100
AcDbCircle
 10
-11.944297952369197
 20
4.1738257417514433
 30
0.0
 40
2.1609486460780212
100
AcDbArc
 50
137.99224375430558
 51
162.04447750799517
  0
ARC
  5
1BD
100
AcDbEntity
  8
0
  6
CONTINUOUS
 62
               7
100
AcDbCircle
 10
-4.446589660644463
 20
8.5
 30
0.0
 40
9.5481139397623487
100
AcDbArc
 50
162.44445390905668
 51
197.55554609094258
  0
ARC
  5
1BE
100
AcDbEntity
  8
0
  6
CONTINUOUS
 62
               7
100
AcDbCircle
 10
-5.9500015258795429
 20
25.449998474120449
 30
0.0
 40
1.7500015258802364
100
AcDbArc
 50
0.0000499579333164
 51
89.999950042066487
  0
ARC
  5
1BF
100
AcDbEntity
  8
0
  6
CONTINUOUS
 62
               7
100
AcDbCircle
 10
-5.9499984741217418
 20
19.949998474121742
 30
0.0
 40
1.7499984741224246
100
AcDbArc
 50
269.99995004202259
 51
0.0000499579768264
  0
LINE
  5
1C0
100
AcDbEntity
  8
0
  6
CENTER
 62
               2
100
AcDbLine
 10
-3.4042057189598154
 20
22.699999999999989
 30
0.0
 11
-26.629999999999995
 21
22.699999999999989
 31
0.0
  0
LINE
  5
1C1
100
AcDbEntity
  8
0
  6
CONTINUOUS
 62
               7
100
AcDbLine
 10
6.5
 20
8.0
 30
0.0
 11
6.5
 21
9.0
 31
0.0
  0
LINE
  5
1C2
100
AcDbEntity
  8
0
  6
CONTINUOUS
 62
               7
100
AcDbLine
 10
70.5
 20
8.0
 30
0.0
 11
70.5
 21
9.0
 31
0.0
  0
ARC
  5
1C3
100
AcDbEntity
  8
0
  6
CONTINUOUS
 62
               7
100
AcDbCircle
 10
8.8402657631320523
 20
19.0
 30
0.0
 40
2.0
100
AcDbArc
 50
89.999999999999815
 51
175.23635830927347
  0
ARC
  5
1C4
100
AcDbEntity
  8
0
  6
CONTINUOUS
 62
               7
100
AcDbCircle
 10
68.159734236867962
 20
19.0
 30
0.0
 40
2.0
100
AcDbArc
 50
4.7636416907262191
 51
89.999999999999815
  0
ARC
  5
1C5
100
AcDbEntity
  8
0
  6
CONTINUOUS
 62
               7
100
AcDbCircle
 10
68.159734236867962
 20
-2.0
 30
0.0
 40
2.0
100
AcDbArc
 50
269.99999999999937
 51
355.23635830927293
  0
ARC
  5
1C6
100
AcDbEntity
  8
0
  6
CONTINUOUS
 62
               7
100
AcDbCircle
 10
8.8402657631320523
 20
-2.0
 30
0.0
 40
2.0
100
AcDbArc
 50
184.76364169072582
 51
269.99999999999937
  0
LINE
  5
1C7
100
AcDbEntity
  8
0
  6
CONTINUOUS
 62
               7
100
AcDbLine
 10
71.0
 20
8.0
 30
0.0
 11
70.152825753357703
 21
-2.1660909597074749
 31
0.0
  0
LINE
  5
1C8
100
AcDbEntity
  8
0
  6
CONTINUOUS
 62
               7
100
AcDbLine
 10
70.152825753357703
 20
19.166090959707503
 30
0.0
 11
71.0
 21
9.0
 31
0.0
  0
LINE
  5
1C9
100
AcDbEntity
  8
0
  6
CONTINUOUS
 62
               7
100
AcDbLine
 10
6.0
 20
9.0
 30
0.0
 11
6.8471742466422896
 21
19.166090959707503
 31
0.0
  0
LINE
  5
1CA
100
AcDbEntity
  8
0
  6
CONTINUOUS
 62
               7
100
AcDbLine
 10
6.8471742466422896
 20
-2.1660909597074749
 30
0.0
 11
6.0
 21
8.0
 31
0.0
  0
LINE
  5
1CB
100
AcDbEntity
  8
0
  6
CONTINUOUS
 62
               7
100
AcDbLine
 10
6.0
 20
9.0
 30
0.0
 11
71.0
 21
9.0
 31
0.0
  0
LINE
  5
1CC
100
AcDbEntity
  8
0
  6
CONTINUOUS
 62
               7
100
AcDbLine
 10
6.0
 20
8.0
 30
0.0
 11
71.0
 21
8.0
 31
0.0
  0
LINE
  5
1CD
100
AcDbEntity
  8
0
  6
CONTINUOUS
 62
               7
100
AcDbLine
 10
-1.0
 20
-4.0
 30
0.0
 11
8.8402657631320523
 21
-4.0
 31
0.0
  0
CIRCLE
  5
1CE
100
AcDbEntity
  8
0
  6
CONTINUOUS
 62
               7
100
AcDbCircle
 10
77.0
 20
0.0
 30
0.0
 40
1.7
  0
CIRCLE
  5
1CF
100
AcDbEntity
  8
0
  6
CONTINUOUS
 62
               7
100
AcDbCircle
 10
77.0
 20
17.0
 30
0.0
 40
1.7
  0
ARC
  5
1D0
100
AcDbEntity
  8
0
  6
CONTINUOUS
 62
               7
100
AcDbCircle
 10
0.0
 20
0.0
 30
0.0
 40
1.7
100
AcDbArc
 50
130.11916689840422
 51
55.307197770621535
  0
ARC
  5
1D1
100
AcDbEntity
  8
0
  6
CONTINUOUS
 62
               7
100
AcDbCircle
 10
54.0
 20
-2.6500000000000057
 30
0.0
 40
1.75
100
AcDbArc
 50
230.48234720282673
 51
309.51765279717205
  0
ARC
  5
1D2
100
AcDbEntity
  8
0
  6
CONTINUOUS
 62
               7
100
AcDbCircle
 10
64.0
 20
-2.6500000000000057
 30
0.0
 40
1.75
100
AcDbArc
 50
230.48234720282673
 51
309.51765279717205
  0
ARC
  5
1D3
100
AcDbEntity
  8
0
  6
CONTINUOUS
 62
               7
100
AcDbCircle
 10
44.0
 20
16.900000000000006
 30
0.0
 40
7.0
100
AcDbArc
 50
70.913727705159829
 51
109.08627229483965
  0
ARC
  5
1D4
100
AcDbEntity
  8
0
  6
CONTINUOUS
 62
               7
100
AcDbCircle
 10
45.961948914960644
 20
22.570163706197974
 30
0.0
 40
1.0
100
AcDbArc
 50
14.999999999999542
 51
70.913727705159417
  0
ARC
  5
1D5
100
AcDbEntity
  8
0
  6
CONTINUOUS
 62
               7
100
AcDbCircle
 10
42.038051085039356
 20
22.570163706197974
 30
0.0
 40
1.0
100
AcDbArc
 50
109.08627229483942
 51
165.00000000000009
  0
LINE
  5
1D6
100
AcDbEntity
  8
0
  6
CONTINUOUS
 62
               7
100
AcDbLine
 10
40.849999999999994
 20
22.0
 30
0.0
 11
41.07212525875029
 21
22.828982751300487
 31
0.0
  0
LINE
  5
1D7
100
AcDbEntity
  8
0
  6
CONTINUOUS
 62
               7
100
AcDbLine
 10
47.150000000000006
 20
22.0
 30
0.0
 11
46.92787474124971
 21
22.828982751300487
 31
0.0
  0
LINE
  5
1D8
100
AcDbEntity
  8
0
  6
CENTER
 62
               2
100
AcDbLine
 10
44.0
 20
18.836404036716772
 30
0.0
 11
44.0
 21
25.239200265839557
 31
0.0
  0
ARC
  5
1D9
100
AcDbEntity
  8
0
  6
CONTINUOUS
 62
               7
100
AcDbCircle
 10
29.0
 20
16.900000000000006
 30
0.0
 40
7.0
100
AcDbArc
 50
70.913727705159829
 51
109.08627229483965
  0
ARC
  5
1DA
100
AcDbEntity
  8
0
  6
CONTINUOUS
 62
               7
100
AcDbCircle
 10
30.961948914960644
 20
22.570163706197974
 30
0.0
 40
1.0
100
AcDbArc
 50
14.999999999999542
 51
70.913727705159417
  0
ARC
  5
1DB
100
AcDbEntity
  8
0
  6
CONTINUOUS
 62
               7
100
AcDbCircle
 10
27.038051085039356
 20
22.570163706197974
 30
0.0
 40
1.0
100
AcDbArc
 50
109.08627229483942
 51
165.00000000000009
  0
LINE
  5
1DC
100
AcDbEntity
  8
0
  6
CONTINUOUS
 62
               7
100
AcDbLine
 10
25.849999999999994
 20
22.0
 30
0.0
 11
26.07212525875029
 21
22.828982751300487
 31
0.0
  0
LINE
  5
1DD
100
AcDbEntity
  8
0
  6
CONTINUOUS
 62
               7
100
AcDbLine
 10
32.150000000000006
 20
22.0
 30
0.0
 11
31.92787474124971
 21
22.828982751300487
 31
0.0
  0
LINE
  5
1DE
100
AcDbEntity
  8
0
  6
CENTER
 62
               2
100
AcDbLine
 10
29.0
 20
18.836404036716772
 30
0.0
 11
29.0
 21
25.239200265839557
 31
0.0
  0
LINE
  5
1DF
100
AcDbEntity
  8
0
  6
CENTER
 62
               2
100
AcDbLine
 10
-32.139999999999986
 20
8.5
 30
0.0
 11
83.976216216216244
 21
8.5
 31
0.0
  0
LINE
  5
1E0
100
AcDbEntity
  8
0
  6
CENTER
 62
               2
100
AcDbLine
 10
77.0
 20
19.700000000000003
 30
0.0
 11
77.0
 21
14.299999999999997
 31
0.0
  0
LINE
  5
1E1
100
AcDbEntity
  8
0
  6
CENTER
 62
               2
100
AcDbLine
 10
74.299999999999997
 20
17.0
 30
0.0
 11
79.700000000000003
 21
17.0
 31
0.0
  0
CIRCLE
  5
1E2
100
AcDbEntity
  8
0
  6
DASHED
 62
               2
100
AcDbCircle
 10
0.0
 20
17.0
 30
0.0
 40
1.7
  0
LINE
  5
1E3
100
AcDbEntity
  8
0
  6
DASHED
 62
               2
100
AcDbLine
 10
0.0
 20
19.700000000000003
 30
0.0
 11
0.0
 21
14.299999999999997
 31
0.0
  0
LINE
  5
1E4
100
AcDbEntity
  8
0
  6
DASHED
 62
               2
100
AcDbLine
 10
-2.7000000000000028
 20
17.0
 30
0.0
 11
2.7000000000000028
 21
17.0
 31
0.0
  0
ENDBLK
  5
1E5
100
AcDbEntity
  8
0
100
AcDbBlockEnd
  0
BLOCK
  5
1E6
100
AcDbEntity
  8
0
100
AcDbBlockBegin
  2
DTRY-ELL01-5
 70
               0
 10
0.0
 20
0.0
 30
0.0
  3
DTRY-ELL01-5
  1

  0
LINE
  5
1E7
100
AcDbEntity
  8
0
  6
CONTINUOUS
 62
               7
100
AcDbLine
 10
-1.0
 20
-21.0
 30
0.0
 11
7.0
 21
-21.0
 31
0.0
  0
ARC
  5
1E8
100
AcDbEntity
  8
0
  6
CONTINUOUS
 62
               7
100
AcDbCircle
 10
-1.0
 20
-18.0
 30
0.0
 40
3.0
100
AcDbArc
 50
179.99999999999963
 51
269.99999999999937
  0
LINE
  5
1E9
100
AcDbEntity
  8
0
  6
CONTINUOUS
 62
               7
100
AcDbLine
 10
-4.0
 20
1.0
 30
0.0
 11
-4.0
 21
-18.0
 31
0.0
  0
LINE
  5
1EA
100
AcDbEntity
  8
0
  6
DASHED
 62
               7
100
AcDbLine
 10
8.8402657631320487
 20
-21.0
 30
0.0
 11
68.159734236867948
 21
-21.0
 31
0.0
  0
LINE
  5
1EB
100
AcDbEntity
  8
0
  6
CONTINUOUS
 62
               7
100
AcDbLine
 10
70.0
 20
-21.0
 30
0.0
 11
78.0
 21
-21.0
 31
0.0
  0
LINE
  5
1EC
100
AcDbEntity
  8
0
  6
CONTINUOUS
 62
               7
100
AcDbLine
 10
68.159734236867962
 20
4.0
 30
0.0
 11
78.0
 21
4.0
 31
0.0
  0
LINE
  5
1ED
100
AcDbEntity
  8
0
  6
CONTINUOUS
 62
               7
100
AcDbLine
 10
8.8402657631320487
 20
4.0
 30
0.0
 11
68.159734236867962
 21
4.0
 31
0.0
  0
LINE
  5
1EE
100
AcDbEntity
  8
0
  6
CENTER
 62
               2
100
AcDbLine
 10
2.9254346238129898
 20
0.0
 30
0.0
 11
-3.2644811297784457
 21
0.0
 31
0.0
  0
LINE
  5
1EF
100
AcDbEntity
  8
0
  6
CENTER
 62
               2
100
AcDbLine
 10
0.0
 20
3.303263452641886
 30
0.0
 11
0.0
 21
-3.0863270026783027
 31
0.0
  0
LINE
  5
1F0
100
AcDbEntity
  8
0
  6
CENTER
 62
               2
100
AcDbLine
 10
0.0
 20
-14.467785001217379
 30
0.0
 11
0.0
 21
-20.25835135135128
 31
0.0
  0
LINE
  5
1F1
100
AcDbEntity
  8
0
  6
CENTER
 62
               2
100
AcDbLine
 10
2.9254346238129898
 20
-17.0
 30
0.0
 11
-3.2644811297784457
 21
-17.0
 31
0.0
  0
LINE
  5
1F2
100
AcDbEntity
  8
0
  6
CENTER
 62
               2
100
AcDbLine
 10
77.0
 20
-2.5322149987826208
 30
0.0
 11
77.0
 21
3.2583513513512798
 31
0.0
  0
LINE
  5
1F3
100
AcDbEntity
  8
0
  6
CENTER
 62
               2
100
AcDbLine
 10
74.07456537618701
 20
-17.0
 30
0.0
 11
80.264481129778446
 21
-17.0
 31
0.0
  0
LINE
  5
1F4
100
AcDbEntity
  8
0
  6
CENTER
 62
               2
100
AcDbLine
 10
74.07456537618701
 20
0.0
 30
0.0
 11
80.264481129778446
 21
0.0
 31
0.0
  0
ARC
  5
1F5
100
AcDbEntity
  8
0
  6
CONTINUOUS
 62
               7
100
AcDbCircle
 10
-1.0
 20
1.0
 30
0.0
 40
3.0
100
AcDbArc
 50
89.999999999999815
 51
179.99999999999963
  0
LINE
  5
1F6
100
AcDbEntity
  8
0
  6
CENTER
 62
               2
100
AcDbLine
 10
77.0
 20
-20.303263452641886
 30
0.0
 11
77.0
 21
-13.913672997321697
 31
0.0
  0
ARC
  5
1F7
100
AcDbEntity
  8
0
  6
CONTINUOUS
 62
               7
100
AcDbCircle
 10
78.0
 20
-18.0
 30
0.0
 40
3.0
100
AcDbArc
 50
270.00000000000023
 51
0.0
  0
ARC
  5
1F8
100
AcDbEntity
  8
0
  6
CONTINUOUS
 62
               7
100
AcDbCircle
 10
78.0
 20
1.0
 30
0.0
 40
3.0
100
AcDbArc
 50
0.0
 51
89.999999999999815
  0
LINE
  5
1F9
100
AcDbEntity
  8
0
  6
CONTINUOUS
 62
               7
100
AcDbLine
 10
81.0
 20
1.0
 30
0.0
 11
81.0
 21
-18.0
 31
0.0
  0
LINE
  5
1FA
100
AcDbEntity
  8
0
  6
CONTINUOUS
 62
               7
100
AcDbLine
 10
7.0
 20
-22.0
 30
0.0
 11
7.0
 21
-21.0
 31
0.0
  0
LINE
  5
1FB
100
AcDbEntity
  8
0
  6
CONTINUOUS
 62
               7
100
AcDbLine
 10
70.0
 20
-22.0
 30
0.0
 11
70.0
 21
-21.0
 31
0.0
  0
LINE
  5
1FC
100
AcDbEntity
  8
0
  6
CONTINUOUS
 62
               7
100
AcDbLine
 10
7.0
 20
-22.0
 30
0.0
 11
70.0
 21
-22.0
 31
0.0
  0
LINE
  5
1FD
100
AcDbEntity
  8
0
  6
CENTER
 62
               2
100
AcDbLine
 10
-32.139999999999986
 20
-8.5
 30
0.0
 11
83.976216216216244
 21
-8.5
 31
0.0
  0
LINE
  5
1FE
100
AcDbEntity
  8
0
  6
CONTINUOUS
 62
               7
100
AcDbLine
 10
-27.699999999999989
 20
-5.0
 30
0.0
 11
-26.699999999999989
 21
-5.0
 31
0.0
  0
LINE
  5
1FF
100
AcDbEntity
  8
0
  6
CONTINUOUS
 62
               7
100
AcDbLine
 10
-27.699999999999989
 20
-12.0
 30
0.0
 11
-26.699999999999989
 21
-12.0
 31
0.0
  0
LINE
  5
200
100
AcDbEntity
  8
0
  6
CONTINUOUS
 62
               7
100
AcDbLine
 10
-26.699999999999989
 20
-4.5
 30
0.0
 11
-25.699999999999989
 21
-4.5
 31
0.0
  0
LINE
  5
201
100
AcDbEntity
  8
0
  6
CONTINUOUS
 62
               7
100
AcDbLine
 10
-26.699999999999989
 20
-12.5
 30
0.0
 11
-25.699999999999989
 21
-12.5
 31
0.0
  0
LINE
  5
202
100
AcDbEntity
  8
0
  6
CONTINUOUS
 62
               7
100
AcDbLine
 10
-26.699999999999989
 20
-4.5
 30
0.0
 11
-26.699999999999989
 21
-12.5
 31
0.0
  0
LINE
  5
203
100
AcDbEntity
  8
0
  6
CONTINUOUS
 62
               7
100
AcDbLine
 10
-27.699999999999989
 20
-4.5
 30
0.0
 11
-27.699999999999989
 21
-12.5
 31
0.0
  0
LINE
  5
204
100
AcDbEntity
  8
0
  6
CONTINUOUS
 62
               7
100
AcDbLine
 10
-29.199999999999989
 20
-5.0
 30
0.0
 11
-29.199999999999989
 21
-12.0
 31
0.0
  0
LINE
  5
205
100
AcDbEntity
  8
0
  6
CONTINUOUS
 62
               7
100
AcDbLine
 10
-8.7999999999999545
 20
-1.3000000000000114
 30
0.0
 11
-4.0
 21
-1.3000000000000114
 31
0.0
  0
LINE
  5
206
100
AcDbEntity
  8
0
  6
CONTINUOUS
 62
               7
100
AcDbLine
 10
-25.199999999999989
 20
-5.0
 30
0.0
 11
-25.199999999999989
 21
-12.0
 31
0.0
  0
LINE
  5
207
100
AcDbEntity
  8
0
  6
CONTINUOUS
 62
               7
100
AcDbLine
 10
-8.7999999999999545
 20
-1.3000000000000114
 30
0.0
 11
-8.7999999999999545
 21
-15.699999999999989
 31
0.0
  0
LINE
  5
208
100
AcDbEntity
  8
0
  6
CONTINUOUS
 62
               7
100
AcDbLine
 10
-8.7999999999999545
 20
-15.699999999999989
 30
0.0
 11
-10.0
 21
-15.0
 31
0.0
  0
LINE
  5
209
100
AcDbEntity
  8
0
  6
CONTINUOUS
 62
               7
100
AcDbLine
 10
-8.7999999999999545
 20
-1.3000000000000114
 30
0.0
 11
-10.0
 21
-2.0
 31
0.0
  0
LINE
  5
20A
100
AcDbEntity
  8
0
  6
CONTINUOUS
 62
               7
100
AcDbLine
 10
-14.0
 20
-3.5
 30
0.0
 11
-14.0
 21
-13.5
 31
0.0
  0
LINE
  5
20B
100
AcDbEntity
  8
0
  6
CONTINUOUS
 62
               7
100
AcDbLine
 10
-13.549999999999955
 20
-14.269999999999982
 30
0.0
 11
-10.0
 21
-14.269999999999982
 31
0.0
  0
LINE
  5
20C
100
AcDbEntity
  8
0
  6
CONTINUOUS
 62
               7
100
AcDbLine
 10
-13.549999999999955
 20
-2.7299999999999613
 30
0.0
 11
-10.0
 21
-2.7299999999999613
 31
0.0
  0
LINE
  5
20D
100
AcDbEntity
  8
0
  6
CONTINUOUS
 62
               7
100
AcDbLine
 10
-13.549999999999955
 20
-5.6200000000000045
 30
0.0
 11
-10.0
 21
-5.6200000000000045
 31
0.0
  0
LINE
  5
20E
100
AcDbEntity
  8
0
  6
CONTINUOUS
 62
               7
100
AcDbLine
 10
-13.549999999999955
 20
-11.379999999999995
 30
0.0
 11
-10.0
 21
-11.379999999999995
 31
0.0
  0
LINE
  5
20F
100
AcDbEntity
  8
0
  6
CONTINUOUS
 62
               7
100
AcDbLine
 10
-14.0
 20
-13.5
 30
0.0
 11
-13.549999999999955
 21
-14.269999999999982
 31
0.0
  0
LINE
  5
210
100
AcDbEntity
  8
0
  6
CONTINUOUS
 62
               7
100
AcDbLine
 10
-14.0
 20
-3.5
 30
0.0
 11
-13.549999999999955
 21
-2.7299999999999613
 31
0.0
  0
LINE
  5
211
100
AcDbEntity
  8
0
  6
CONTINUOUS
 62
               7
100
AcDbLine
 10
-15.100000000000023
 20
-4.0
 30
0.0
 11
-15.100000000000023
 21
-13.0
 31
0.0
  0
LINE
  5
212
100
AcDbEntity
  8
0
  6
CONTINUOUS
 62
               7
100
AcDbLine
 10
-18.600000000000023
 20
-4.0
 30
0.0
 11
-18.600000000000023
 21
-13.0
 31
0.0
  0
LINE
  5
213
100
AcDbEntity
  8
0
  6
CONTINUOUS
 62
               7
100
AcDbLine
 10
-18.100000000000023
 20
-13.5
 30
0.0
 11
-15.600000000000023
 21
-13.5
 31
0.0
  0
LINE
  5
214
100
AcDbEntity
  8
0
  6
CONTINUOUS
 62
               7
100
AcDbLine
 10
-18.100000000000023
 20
-3.5
 30
0.0
 11
-15.600000000000023
 21
-3.5
 31
0.0
  0
LINE
  5
215
100
AcDbEntity
  8
0
  6
CONTINUOUS
 62
               7
100
AcDbLine
 10
-28.699999999999989
 20
-4.5
 30
0.0
 11
-27.699999999999989
 21
-4.5
 31
0.0
  0
LINE
  5
216
100
AcDbEntity
  8
0
  6
CONTINUOUS
 62
               7
100
AcDbLine
 10
-28.699999999999989
 20
-12.5
 30
0.0
 11
-27.699999999999989
 21
-12.5
 31
0.0
  0
LINE
  5
217
100
AcDbEntity
  8
0
  6
CONTINUOUS
 62
               7
100
AcDbLine
 10
-18.100000000000023
 20
-13.5
 30
0.0
 11
-18.600000000000023
 21
-13.0
 31
0.0
  0
LINE
  5
218
100
AcDbEntity
  8
0
  6
CONTINUOUS
 62
               7
100
AcDbLine
 10
-18.600000000000023
 20
-4.0
 30
0.0
 11
-18.100000000000023
 21
-3.5
 31
0.0
  0
LINE
  5
219
100
AcDbEntity
  8
0
  6
CONTINUOUS
 62
               7
100
AcDbLine
 10
-15.600000000000023
 20
-3.5
 30
0.0
 11
-15.100000000000023
 21
-4.0
 31
0.0
  0
LINE
  5
21A
100
AcDbEntity
  8
0
  6
CONTINUOUS
 62
               7
100
AcDbLine
 10
-15.100000000000023
 20
-13.0
 30
0.0
 11
-15.600000000000023
 21
-13.5
 31
0.0
  0
LINE
  5
21B
100
AcDbEntity
  8
0
  6
CONTINUOUS
 62
               7
100
AcDbLine
 10
-28.699999999999989
 20
-12.5
 30
0.0
 11
-29.199999999999989
 21
-12.0
 31
0.0
  0
LINE
  5
21C
100
AcDbEntity
  8
0
  6
CONTINUOUS
 62
               7
100
AcDbLine
 10
-29.199999999999989
 20
-5.0
 30
0.0
 11
-28.699999999999989
 21
-4.5
 31
0.0
  0
LINE
  5
21D
100
AcDbEntity
  8
0
  6
CONTINUOUS
 62
               7
100
AcDbLine
 10
-25.699999999999989
 20
-4.5
 30
0.0
 11
-25.199999999999989
 21
-5.0
 31
0.0
  0
LINE
  5
21E
100
AcDbEntity
  8
0
  6
CONTINUOUS
 62
               7
100
AcDbLine
 10
-25.199999999999989
 20
-12.0
 30
0.0
 11
-25.699999999999989
 21
-12.5
 31
0.0
  0
LINE
  5
21F
100
AcDbEntity
  8
0
  6
CONTINUOUS
 62
               7
100
AcDbLine
 10
-28.699999999999989
 20
-4.5
 30
0.0
 11
-28.699999999999989
 21
-12.5
 31
0.0
  0
LINE
  5
220
100
AcDbEntity
  8
0
  6
CONTINUOUS
 62
               7
100
AcDbLine
 10
-25.699999999999989
 20
-4.5
 30
0.0
 11
-25.699999999999989
 21
-12.5
 31
0.0
  0
LINE
  5
221
100
AcDbEntity
  8
0
  6
CONTINUOUS
 62
               7
100
AcDbLine
 10
-18.100000000000023
 20
-3.5
 30
0.0
 11
-18.100000000000023
 21
-13.5
 31
0.0
  0
LINE
  5
222
100
AcDbEntity
  8
0
  6
CONTINUOUS
 62
               7
100
AcDbLine
 10
-15.600000000000023
 20
-3.5
 30
0.0
 11
-15.600000000000023
 21
-13.5
 31
0.0
  0
LINE
  5
223
100
AcDbEntity
  8
0
  6
CONTINUOUS
 62
               7
100
AcDbLine
 10
-25.199999999999989
 20
-6.0
 30
0.0
 11
-18.600000000000023
 21
-6.0
 31
0.0
  0
LINE
  5
224
100
AcDbEntity
  8
0
  6
CONTINUOUS
 62
               7
100
AcDbLine
 10
-25.199999999999989
 20
-11.0
 30
0.0
 11
-18.600000000000023
 21
-11.0
 31
0.0
  0
LINE
  5
225
100
AcDbEntity
  8
0
  6
CONTINUOUS
 62
               2
100
AcDbLine
 10
-25.199999999999989
 20
-10.560000000000002
 30
0.0
 11
-18.600000000000023
 21
-10.560000000000002
 31
0.0
  0
LINE
  5
226
100
AcDbEntity
  8
0
  6
CONTINUOUS
 62
               2
100
AcDbLine
 10
-25.199999999999989
 20
-6.4399999999999977
 30
0.0
 11
-18.600000000000023
 21
-6.4399999999999977
 31
0.0
  0
LINE
  5
227
100
AcDbEntity
  8
0
  6
CONTINUOUS
 62
               7
100
AcDbLine
 10
-15.100000000000023
 20
-12.5
 30
0.0
 11
-14.0
 21
-12.5
 31
0.0
  0
LINE
  5
228
100
AcDbEntity
  8
0
  6
CONTINUOUS
 62
               7
100
AcDbLine
 10
-15.100000000000023
 20
-4.5
 30
0.0
 11
-14.0
 21
-4.5
 31
0.0
  0
LINE
  5
229
100
AcDbEntity
  8
0
  6
CONTINUOUS
 62
               7
100
AcDbLine
 10
-8.7999999999999545
 20
-15.699999999999989
 30
0.0
 11
-7.9499999999999886
 21
-15.699999999999989
 31
0.0
  0
LINE
  5
22A
100
AcDbEntity
  8
0
  6
CONTINUOUS
 62
               7
100
AcDbLine
 10
2.0
 20
-21.0
 30
0.0
 11
2.0
 21
-27.449999999999989
 31
0.0
  0
LINE
  5
22B
100
AcDbEntity
  8
0
  6
CONTINUOUS
 62
               7
100
AcDbLine
 10
-10.0
 20
-2.0
 30
0.0
 11
-10.0
 21
-16.449999999999989
 31
0.0
  0
LINE
  5
22C
100
AcDbEntity
  8
0
  6
CONTINUOUS
 62
               7
100
AcDbLine
 10
-0.4499999999999318
 20
-20.949152420611711
 30
0.0
 11
-0.4499999999999318
 21
-28.949999999999989
 31
0.0
  0
LINE
  5
22D
100
AcDbEntity
  8
0
  6
CONTINUOUS
 62
               7
100
AcDbLine
 10
-24.199999999999989
 20
-16.800000000000011
 30
0.0
 11
-24.199999999999989
 21
-28.599999999999966
 31
0.0
  0
LINE
  5
22E
100
AcDbEntity
  8
0
  6
CONTINUOUS
 62
               7
100
AcDbLine
 10
-22.399999999999977
 20
-28.599999999999966
 30
0.0
 11
-24.199999999999989
 21
-28.599999999999966
 31
0.0
  0
LINE
  5
22F
100
AcDbEntity
  8
0
  6
CONTINUOUS
 62
               7
100
AcDbLine
 10
-22.399999999999977
 20
-16.800000000000011
 30
0.0
 11
-24.199999999999989
 21
-16.800000000000011
 31
0.0
  0
LINE
  5
230
100
AcDbEntity
  8
0
  6
CONTINUOUS
 62
               7
100
AcDbLine
 10
-22.399999999999977
 20
-16.800000000000011
 30
0.0
 11
-22.399999999999977
 21
-28.599999999999966
 31
0.0
  0
LINE
  5
231
100
AcDbEntity
  8
0
  6
CONTINUOUS
 62
               7
100
AcDbLine
 10
-21.199999999999989
 20
-18.399999999999977
 30
0.0
 11
-22.399999999999977
 21
-18.399999999999977
 31
0.0
  0
LINE
  5
232
100
AcDbEntity
  8
0
  6
CONTINUOUS
 62
               7
100
AcDbLine
 10
-21.199999999999989
 20
-27.0
 30
0.0
 11
-22.399999999999977
 21
-27.0
 31
0.0
  0
LINE
  5
233
100
AcDbEntity
  8
0
  6
CONTINUOUS
 62
               7
100
AcDbLine
 10
-21.199999999999989
 20
-16.949999999999989
 30
0.0
 11
-21.199999999999989
 21
-28.449999999999989
 31
0.0
  0
LINE
  5
234
100
AcDbEntity
  8
0
  6
CONTINUOUS
 62
               7
100
AcDbLine
 10
-19.199999999999989
 20
-28.449999999999989
 30
0.0
 11
-21.199999999999989
 21
-28.449999999999989
 31
0.0
  0
LINE
  5
235
100
AcDbEntity
  8
0
  6
CONTINUOUS
 62
               7
100
AcDbLine
 10
-19.199999999999989
 20
-16.449999999999989
 30
0.0
 11
-19.199999999999989
 21
-28.949999999999989
 31
0.0
  0
LINE
  5
236
100
AcDbEntity
  8
0
  6
CONTINUOUS
 62
               7
100
AcDbLine
 10
0.5
 20
-28.949999999999989
 30
0.0
 11
-19.199999999999989
 21
-28.949999999999989
 31
0.0
  0
LINE
  5
237
100
AcDbEntity
  8
0
  6
CONTINUOUS
 62
               7
100
AcDbLine
 10
-9.6999999999999886
 20
-16.449999999999989
 30
0.0
 11
-19.199999999999989
 21
-16.449999999999989
 31
0.0
  0
LINE
  5
238
100
AcDbEntity
  8
0
  6
CONTINUOUS
 62
               7
100
AcDbLine
 10
-19.199999999999989
 20
-16.949999999999989
 30
0.0
 11
-21.199999999999989
 21
-16.949999999999989
 31
0.0
  0
LINE
  5
239
100
AcDbEntity
  8
0
  6
CONTINUOUS
 62
               7
100
AcDbLine
 10
-9.6999999999999886
 20
-16.449999999999989
 30
0.0
 11
-9.6999999999999886
 21
-28.949999999999989
 31
0.0
  0
LINE
  5
23A
100
AcDbEntity
  8
0
  6
CONTINUOUS
 62
               7
100
AcDbLine
 10
-9.6999999999999886
 20
-28.949999999999989
 30
0.0
 11
-7.9499999999999886
 21
-27.199999999999989
 31
0.0
  0
LINE
  5
23B
100
AcDbEntity
  8
0
  6
CONTINUOUS
 62
               7
100
AcDbLine
 10
-9.6999999999999886
 20
-16.449999999999989
 30
0.0
 11
-7.9499999999999886
 21
-18.199999999999989
 31
0.0
  0
LINE
  5
23C
100
AcDbEntity
  8
0
  6
CONTINUOUS
 62
               7
100
AcDbLine
 10
-7.9499999999999886
 20
-28.949999999999989
 30
0.0
 11
-7.9499999999999886
 21
-27.199999999999989
 31
0.0
  0
LINE
  5
23D
100
AcDbEntity
  8
0
  6
CONTINUOUS
 62
               7
100
AcDbLine
 10
-5.9499999999999886
 20
-18.199999999999989
 30
0.0
 11
-7.9499999999999886
 21
-18.199999999999989
 31
0.0
  0
LINE
  5
23E
100
AcDbEntity
  8
0
  6
CONTINUOUS
 62
               7
100
AcDbLine
 10
-4.1999999999999318
 20
-19.949999999999989
 30
0.0
 11
-4.1999999999999318
 21
-25.449999999999989
 31
0.0
  0
LINE
  5
23F
100
AcDbEntity
  8
0
  6
CONTINUOUS
 62
               7
100
AcDbLine
 10
-5.9499999999999886
 20
-27.199999999999989
 30
0.0
 11
-7.9499999999999886
 21
-27.199999999999989
 31
0.0
  0
LINE
  5
240
100
AcDbEntity
  8
0
  6
CONTINUOUS
 62
               7
100
AcDbLine
 10
-17.199999999999989
 20
-16.449999999999989
 30
0.0
 11
-17.199999999999989
 21
-28.949999999999989
 31
0.0
  0
LINE
  5
241
100
AcDbEntity
  8
0
  6
CONTINUOUS
 62
               7
100
AcDbLine
 10
-7.9499999999999886
 20
-27.199999999999989
 30
0.0
 11
-7.9499999999999886
 21
-18.199999999999989
 31
0.0
  0
LINE
  5
242
100
AcDbEntity
  8
0
  6
CONTINUOUS
 62
               7
100
AcDbLine
 10
-7.9499999999999886
 20
-18.199999999999989
 30
0.0
 11
-7.9499999999999886
 21
-15.699999999999989
 31
0.0
  0
ARC
  5
243
100
AcDbEntity
  8
0
  6
CONTINUOUS
 62
               7
100
AcDbCircle
 10
-4.1999999999999318
 20
-18.215621948242188
 30
0.0
 40
4.5156232998864976
100
AcDbArc
 50
87.461500892711868
 51
146.14500602817731
  0
ARC
  5
244
100
AcDbEntity
  8
0
  6
CONTINUOUS
 62
               7
100
AcDbCircle
 10
0.4999969482422557
 20
-27.449996948242187
 30
0.0
 40
1.5000030517609169
100
AcDbArc
 50
270.00011656832407
 51
359.9998834316745
  0
ARC
  5
245
100
AcDbEntity
  8
0
  6
CONTINUOUS
 62
               7
100
AcDbCircle
 10
-11.944297952369197
 20
-12.8261742582485
 30
0.0
 40
2.1609486460780212
100
AcDbArc
 50
137.99224375430555
 51
162.04447750799517
  0
ARC
  5
246
100
AcDbEntity
  8
0
  6
CONTINUOUS
 62
               7
100
AcDbCircle
 10
-11.944297952369197
 20
-4.1738257417514433
 30
0.0
 40
2.1609486460780212
100
AcDbArc
 50
197.95552249200401
 51
222.00775624569363
  0
ARC
  5
247
100
AcDbEntity
  8
0
  6
CONTINUOUS
 62
               7
100
AcDbCircle
 10
-4.446589660644463
 20
-8.5
 30
0.0
 40
9.5481139397623487
100
AcDbArc
 50
162.44445390905662
 51
197.55554609094253
  0
ARC
  5
248
100
AcDbEntity
  8
0
  6
CONTINUOUS
 62
               7
100
AcDbCircle
 10
-5.9500015258795429
 20
-25.449998474120434
 30
0.0
 40
1.7500015258802364
100
AcDbArc
 50
270.00004995793273
 51
359.9999500420659
  0
ARC
  5
249
100
AcDbEntity
  8
0
  6
CONTINUOUS
 62
               7
100
AcDbCircle
 10
-5.9499984741217418
 20
-19.949998474121742
 30
0.0
 40
1.7499984741224246
100
AcDbArc
 50
359.99995004202322
 51
90.000049957976628
  0
LINE
  5
24A
100
AcDbEntity
  8
0
  6
CENTER
 62
               2
100
AcDbLine
 10
-3.4042057189598154
 20
-22.699999999999989
 30
0.0
 11
-26.629999999999995
 21
-22.699999999999989
 31
0.0
  0
LINE
  5
24B
100
AcDbEntity
  8
0
  6
DASHED
 62
               7
100
AcDbLine
 10
6.5
 20
-8.0
 30
0.0
 11
6.5
 21
-9.0
 31
0.0
  0
LINE
  5
24C
100
AcDbEntity
  8
0
  6
DASHED
 62
               7
100
AcDbLine
 10
70.5
 20
-8.0
 30
0.0
 11
70.5
 21
-9.0
 31
0.0
  0
ARC
  5
24D
100
AcDbEntity
  8
0
  6
DASHED
 62
               7
100
AcDbCircle
 10
8.8402657631320487
 20
-19.0
 30
0.0
 40
2.0
100
AcDbArc
 50
184.76364169072571
 51
269.99999999999937
  0
ARC
  5
24E
100
AcDbEntity
  8
0
  6
DASHED
 62
               7
100
AcDbCircle
 10
68.159734236867962
 20
-19.0
 30
0.0
 40
2.0
100
AcDbArc
 50
269.99999999999937
 51
355.23635830927299
  0
ARC
  5
24F
100
AcDbEntity
  8
0
  6
DASHED
 62
               7
100
AcDbCircle
 10
68.159734236867962
 20
2.0
 30
0.0
 40
2.0
100
AcDbArc
 50
4.7636416907262698
 51
89.999999999999815
  0
ARC
  5
250
100
AcDbEntity
  8
0
  6
DASHED
 62
               7
100
AcDbCircle
 10
8.8402657631320487
 20
2.0
 30
0.0
 40
2.0
100
AcDbArc
 50
89.999999999999815
 51
175.23635830927338
  0
LINE
  5
251
100
AcDbEntity
  8
0
  6
DASHED
 62
               7
100
AcDbLine
 10
71.0
 20
-8.0
 30
0.0
 11
70.152825753357703
 21
2.1660909597074749
 31
0.0
  0
LINE
  5
252
100
AcDbEntity
  8
0
  6
DASHED
 62
               7
100
AcDbLine
 10
70.152825753357703
 20
-19.166090959707503
 30
0.0
 11
71.0
 21
-9.0
 31
0.0
  0
LINE
  5
253
100
AcDbEntity
  8
0
  6
DASHED
 62
               7
100
AcDbLine
 10
6.0
 20
-9.0
 30
0.0
 11
6.8471742466422896
 21
-19.166090959707503
 31
0.0
  0
LINE
  5
254
100
AcDbEntity
  8
0
  6
DASHED
 62
               7
100
AcDbLine
 10
6.8471742466422896
 20
2.1660909597074749
 30
0.0
 11
6.0
 21
-8.0
 31
0.0
  0
LINE
  5
255
100
AcDbEntity
  8
0
  6
DASHED
 62
               7
100
AcDbLine
 10
6.0
 20
-9.0
 30
0.0
 11
71.0
 21
-9.0
 31
0.0
  0
LINE
  5
256
100
AcDbEntity
  8
0
  6
DASHED
 62
               7
100
AcDbLine
 10
6.0
 20
-8.0
 30
0.0
 11
71.0
 21
-8.0
 31
0.0
  0
LINE
  5
257
100
AcDbEntity
  8
0
  6
CONTINUOUS
 62
               7
100
AcDbLine
 10
-1.0
 20
4.0
 30
0.0
 11
8.8402657631320487
 21
4.0
 31
0.0
  0
CIRCLE
  5
258
100
AcDbEntity
  8
0
  6
CONTINUOUS
 62
               7
100
AcDbCircle
 10
77.0
 20
0.0
 30
0.0
 40
1.7
  0
CIRCLE
  5
259
100
AcDbEntity
  8
0
  6
CONTINUOUS
 62
               7
100
AcDbCircle
 10
77.0
 20
-17.0
 30
0.0
 40
1.7
  0
CIRCLE
  5
25A
100
AcDbEntity
  8
0
  6
CONTINUOUS
 62
               7
100
AcDbCircle
 10
0.0
 20
0.0
 30
0.0
 40
1.7
  0
CIRCLE
  5
25B
100
AcDbEntity
  8
0
  6
CONTINUOUS
 62
               7
100
AcDbCircle
 10
0.0
 20
-17.0
 30
0.0
 40
1.7
  0
ARC
  5
25C
100
AcDbEntity
  8
0
  6
CONTINUOUS
 62
               7
100
AcDbCircle
 10
54.0
 20
2.6500000000000057
 30
0.0
 40
1.75
100
AcDbArc
 50
50.482347202827121
 51
129.51765279717247
  0
ARC
  5
25D
100
AcDbEntity
  8
0
  6
CONTINUOUS
 62
               7
100
AcDbCircle
 10
64.0
 20
2.6500000000000057
 30
0.0
 40
1.75
100
AcDbArc
 50
50.482347202827121
 51
129.51765279717247
  0
ARC
  5
25E
100
AcDbEntity
  8
0
  6
CONTINUOUS
 62
               7
100
AcDbCircle
 10
44.0
 20
-16.900000000000006
 30
0.0
 40
7.0
100
AcDbArc
 50
250.91372770515957
 51
289.08627229483938
  0
ARC
  5
25F
100
AcDbEntity
  8
0
  6
CONTINUOUS
 62
               7
100
AcDbCircle
 10
45.961948914960644
 20
-22.570163706197974
 30
0.0
 40
1.0
100
AcDbArc
 50
289.08627229483977
 51
344.99999999999966
  0
ARC
  5
260
100
AcDbEntity
  8
0
  6
CONTINUOUS
 62
               7
100
AcDbCircle
 10
42.038051085039356
 20
-22.570163706197974
 30
0.0
 40
1.0
100
AcDbArc
 50
194.99999999999912
 51
250.91372770515977
  0
LINE
  5
261
100
AcDbEntity
  8
0
  6
CONTINUOUS
 62
               7
100
AcDbLine
 10
40.849999999999994
 20
-22.0
 30
0.0
 11
41.07212525875029
 21
-22.828982751300487
 31
0.0
  0
LINE
  5
262
100
AcDbEntity
  8
0
  6
CONTINUOUS
 62
               7
100
AcDbLine
 10
47.150000000000006
 20
-22.0
 30
0.0
 11
46.92787474124971
 21
-22.828982751300487
 31
0.0
  0
LINE
  5
263
100
AcDbEntity
  8
0
  6
CENTER
 62
               2
100
AcDbLine
 10
44.0
 20
-18.836404036716772
 30
0.0
 11
44.0
 21
-25.239200265839571
 31
0.0
  0
ARC
  5
264
100
AcDbEntity
  8
0
  6
CONTINUOUS
 62
               7
100
AcDbCircle
 10
29.0
 20
-16.900000000000006
 30
0.0
 40
7.0
100
AcDbArc
 50
250.91372770515957
 51
289.08627229483938
  0
ARC
  5
265
100
AcDbEntity
  8
0
  6
CONTINUOUS
 62
               7
100
AcDbCircle
 10
30.961948914960644
 20
-22.570163706197974
 30
0.0
 40
1.0
100
AcDbArc
 50
289.08627229483977
 51
344.99999999999966
  0
ARC
  5
266
100
AcDbEntity
  8
0
  6
CONTINUOUS
 62
               7
100
AcDbCircle
 10
27.038051085039356
 20
-22.570163706197974
 30
0.0
 40
1.0
100
AcDbArc
 50
194.99999999999912
 51
250.91372770515977
  0
LINE
  5
267
100
AcDbEntity
  8
0
  6
CONTINUOUS
 62
               7
100
AcDbLine
 10
25.849999999999994
 20
-22.0
 30
0.0
 11
26.07212525875029
 21
-22.828982751300487
 31
0.0
  0
LINE
  5
268
100
AcDbEntity
  8
0
  6
CONTINUOUS
 62
               7
100
AcDbLine
 10
32.150000000000006
 20
-22.0
 30
0.0
 11
31.92787474124971
 21
-22.828982751300487
 31
0.0
  0
LINE
  5
269
100
AcDbEntity
  8
0
  6
CENTER
 62
               2
100
AcDbLine
 10
29.0
 20
-18.836404036716772
 30
0.0
 11
29.0
 21
-25.239200265839571
 31
0.0
  0
ENDBLK
  5
26A
100
AcDbEntity
  8
0
100
AcDbBlockEnd
  0
BLOCK
  5
26B
100
AcDbEntity
  8
0
100
AcDbBlockBegin
  2
DTRY-ELL01-6
 70
               0
 10
0.0
 20
0.0
 30
0.0
  3
DTRY-ELL01-6
  1

  0
SPLINE
  5
26C
100
AcDbEntity
  8
0
  6
CONTINUOUS
 62
               7
100
AcDbSpline
210
0.0
220
0.0
230
1.0
 70
               0
 71
               3
 72
               0
 73
               0
 74
               9
 44
0.000001
 12
0.152057184253941
 22
-0.9883716976506172
 32
0.0
 13
-0.1520571842539409
 23
-0.9883716976506172
 33
0.0
 11
6.0
 21
-34.0
 31
0.0
 11
6.2175613610462488
 21
-35.616034368284694
 31
0.0
 11
6.3739114451645795
 21
-37.239386590354648
 31
0.0
 11
6.4683511352159275
 21
-38.868527804817035
 31
0.0
 11
6.5
 21
-40.5
 31
0.0
 11
6.4683511352159275
 21
-42.131472195182965
 31
0.0
 11
6.3739114451645795
 21
-43.760613409645352
 31
0.0
 11
6.2175613610462488
 21
-45.383965631715306
 31
0.0
 11
6.0
 21
-47.0
 31
0.0
  0
SPLINE
  5
26D
100
AcDbEntity
  8
0
  6
CONTINUOUS
 62
               7
100
AcDbSpline
210
0.0
220
0.0
230
1.0
 70
               0
 71
               3
 72
               0
 73
               0
 74
              17
 44
0.000001
 12
-0.0995037190209989
 22
0.9950371902099892
 32
0.0
 13
0.099503719020999
 23
0.9950371902099892
 33
0.0
 11
71.0
 21
-48.0
 31
0.0
 11
70.883161846781022
 21
-46.753737513798661
 31
0.0
 11
70.781773095427241
 21
-45.506102779984523
 31
0.0
 11
70.695853363248091
 21
-44.257021667464848
 31
0.0
 11
70.625464973713107
 21
-43.006974605696598
 31
0.0
 11
70.570638191698038
 21
-41.755960988940018
 31
0.0
 11
70.531424365142414
 21
-40.504359128560374
 31
0.0
 11
70.507863167789907
 21
-39.2522776731128
 31
0.0
 11
70.5
 21
-38.0
 31
0.0
 11
70.507863167789907
 21
-36.7477223268872
 31
0.0
 11
70.531424365142414
 21
-35.495640871439626
 31
0.0
 11
70.570638191698038
 21
-34.244039011059982
 31
0.0
 11
70.625464973713107
 21
-32.993025394303402
 31
0.0
 11
70.695853363248091
 21
-31.742978332535152
 31
0.0
 11
70.781773095427241
 21
-30.493897220015477
 31
0.0
 11
70.883161846781022
 21
-29.246262486201339
 31
0.0
 11
71.0
 21
-28.0
 31
0.0
  0
CIRCLE
  5
26E
100
AcDbEntity
  8
0
  6
CONTINUOUS
 62
               7
100
AcDbCircle
 10
44.0
 20
-20.0
 30
0.0
 40
3.1499999999999999
  0
CIRCLE
  5
26F
100
AcDbEntity
  8
0
  6
CONTINUOUS
 62
               7
100
AcDbCircle
 10
29.0
 20
-20.0
 30
0.0
 40
3.1499999999999999
  0
LINE
  5
270
100
AcDbEntity
  8
0
  6
CENTER
 62
               2
100
AcDbLine
 10
40.135592890187496
 20
-20.0
 30
0.0
 11
47.775154614073543
 21
-20.0
 31
0.0
  0
CIRCLE
  5
271
100
AcDbEntity
  8
0
  6
DASHED
 62
               7
100
AcDbCircle
 10
44.0
 20
-20.0
 30
0.0
 40
2.5
  0
CIRCLE
  5
272
100
AcDbEntity
  8
0
  6
DASHED
 62
               7
100
AcDbCircle
 10
29.0
 20
-20.0
 30
0.0
 40
2.5
  0
LINE
  5
273
100
AcDbEntity
  8
0
  6
CONTINUOUS
 62
               7
100
AcDbLine
 10
42.585786437626908
 20
-18.585786437626922
 30
0.0
 11
45.414213562373092
 21
-21.414213562373078
 31
0.0
  0
LINE
  5
274
100
AcDbEntity
  8
0
  6
CONTINUOUS
 62
               7
100
AcDbLine
 10
42.585786437626908
 20
-21.414213562373078
 30
0.0
 11
45.414213562373092
 21
-18.585786437626922
 31
0.0
  0
LINE
  5
275
100
AcDbEntity
  8
0
  6
CONTINUOUS
 62
               7
100
AcDbLine
 10
27.585786437626908
 20
-21.414213562373078
 30
0.0
 11
30.414213562373092
 21
-18.585786437626922
 31
0.0
  0
LINE
  5
276
100
AcDbEntity
  8
0
  6
CONTINUOUS
 62
               7
100
AcDbLine
 10
27.585786437626908
 20
-18.585786437626922
 30
0.0
 11
30.414213562373092
 21
-21.414213562373078
 31
0.0
  0
LINE
  5
277
100
AcDbEntity
  8
0
  6
DASHED
 62
               7
100
AcDbLine
 10
9.2928932188134539
 20
-8.2071067811865532
 30
0.0
 11
10.707106781186546
 21
-6.7928932188134468
 31
0.0
  0
LINE
  5
278
100
AcDbEntity
  8
0
  6
DASHED
 62
               7
100
AcDbLine
 10
9.2928932188134539
 20
-6.7928932188134468
 30
0.0
 11
10.707106781186546
 21
-8.2071067811865532
 31
0.0
  0
LINE
  5
279
100
AcDbEntity
  8
0
  6
DASHED
 62
               7
100
AcDbLine
 10
66.292893218813447
 20
-6.7928932188134468
 30
0.0
 11
67.707106781186553
 21
-8.2071067811865532
 31
0.0
  0
LINE
  5
27A
100
AcDbEntity
  8
0
  6
DASHED
 62
               7
100
AcDbLine
 10
66.292893218813447
 20
-8.2071067811865532
 30
0.0
 11
67.707106781186553
 21
-6.7928932188134468
 31
0.0
  0
CIRCLE
  5
27B
100
AcDbEntity
  8
0
  6
DASHED
 62
               7
100
AcDbCircle
 10
67.0
 20
-7.5
 30
0.0
 40
1.5
  0
CIRCLE
  5
27C
100
AcDbEntity
  8
0
  6
DASHED
 62
               7
100
AcDbCircle
 10
10.0
 20
-7.5
 30
0.0
 40
1.5
  0
LINE
  5
27D
100
AcDbEntity
  8
0
  6
CENTER
 62
               2
100
AcDbLine
 10
0.0
 20
-2.2474784514244561
 30
0.0
 11
0.0
 21
1.7084368151935223
 31
0.0
  0
LINE
  5
27E
100
AcDbEntity
  8
0
  6
CENTER
 62
               2
100
AcDbLine
 10
77.0
 20
-2.2474784514244561
 30
0.0
 11
77.0
 21
1.7084368151935223
 31
0.0
  0
LINE
  5
27F
100
AcDbEntity
  8
0
  6
CONTINUOUS
 62
               7
100
AcDbLine
 10
70.0
 20
-1.0
 30
0.0
 11
81.0
 21
-1.0
 31
0.0
  0
LINE
  5
280
100
AcDbEntity
  8
0
  6
CONTINUOUS
 62
               7
100
AcDbLine
 10
81.0
 20
-1.0
 30
0.0
 11
81.0
 21
0.0
 31
0.0
  0
LINE
  5
281
100
AcDbEntity
  8
0
  6
CONTINUOUS
 62
               7
100
AcDbLine
 10
-4.0
 20
-1.0
 30
0.0
 11
-4.0
 21
0.0
 31
0.0
  0
LINE
  5
282
100
AcDbEntity
  8
0
  6
CONTINUOUS
 62
               7
100
AcDbLine
 10
-4.0
 20
-1.0
 30
0.0
 11
7.0
 21
-1.0
 31
0.0
  0
LINE
  5
283
100
AcDbEntity
  8
0
  6
CONTINUOUS
 62
               7
100
AcDbLine
 10
12.0
 20
-25.0
 30
0.0
 11
65.0
 21
-25.0
 31
0.0
  0
LINE
  5
284
100
AcDbEntity
  8
0
  6
CONTINUOUS
 62
               7
100
AcDbLine
 10
70.0
 20
-20.0
 30
0.0
 11
70.0
 21
0.0
 31
0.0
  0
LINE
  5
285
100
AcDbEntity
  8
0
  6
CONTINUOUS
 62
               7
100
AcDbLine
 10
7.0
 20
-20.0
 30
0.0
 11
7.0
 21
0.0
 31
0.0
  0
LINE
  5
286
100
AcDbEntity
  8
0
  6
CONTINUOUS
 62
               7
100
AcDbLine
 10
-4.0
 20
0.0
 30
0.0
 11
81.0
 21
0.0
 31
0.0
  0
CIRCLE
  5
287
100
AcDbEntity
  8
0
  6
DASHED
 62
               7
100
AcDbCircle
 10
67.0
 20
-7.5
 30
0.0
 40
1.95
  0
CIRCLE
  5
288
100
AcDbEntity
  8
0
  6
DASHED
 62
               7
100
AcDbCircle
 10
10.0
 20
-7.5
 30
0.0
 40
1.95
  0
CIRCLE
  5
289
100
AcDbEntity
  8
0
  6
DASHED
 62
               7
100
AcDbCircle
 10
44.0
 20
-20.0
 30
0.0
 40
1.5
  0
CIRCLE
  5
28A
100
AcDbEntity
  8
0
  6
DASHED
 62
               7
100
AcDbCircle
 10
29.0
 20
-20.0
 30
0.0
 40
1.5
  0
LINE
  5
28B
100
AcDbEntity
  8
0
  6
CENTER
 62
               2
100
AcDbLine
 10
44.0
 20
-23.790175310445619
 30
0.0
 11
44.0
 21
-16.039895300706149
 31
0.0
  0
LINE
  5
28C
100
AcDbEntity
  8
0
  6
CENTER
 62
               2
100
AcDbLine
 10
29.0
 20
-23.790175310445619
 30
0.0
 11
29.0
 21
-16.039895300706149
 31
0.0
  0
LINE
  5
28D
100
AcDbEntity
  8
0
  6
CENTER
 62
               2
100
AcDbLine
 10
25.188624299975658
 20
-20.0
 30
0.0
 11
32.496031166301442
 21
-20.0
 31
0.0
  0
LINE
  5
28E
100
AcDbEntity
  8
0
  6
CONTINUOUS
 62
               7
100
AcDbLine
 10
2.0000000000000568
 20
-45.509999999999991
 30
0.0
 11
3.1582364961093958
 21
-45.473147020578324
 31
0.0
  0
LINE
  5
28F
100
AcDbEntity
  8
0
  6
CONTINUOUS
 62
               2
100
AcDbLine
 10
2.0000000000000568
 20
-44.930000000000007
 30
0.0
 11
3.1398006150798778
 21
-44.893733616792929
 31
0.0
  0
LINE
  5
290
100
AcDbEntity
  8
0
  6
CONTINUOUS
 62
               7
100
AcDbLine
 10
3.0000000190202059
 20
-45.473147020578324
 30
0.0
 11
6.0
 21
-45.473147020578324
 31
0.0
  0
LINE
  5
291
100
AcDbEntity
  8
0
  6
CONTINUOUS
 62
               2
100
AcDbLine
 10
3.0000000190202059
 20
-44.898181818181826
 30
0.0
 11
6.0
 21
-44.898181818181826
 31
0.0
  0
LINE
  5
292
100
AcDbEntity
  8
0
  6
CONTINUOUS
 62
               2
100
AcDbLine
 10
2.0000000000000568
 20
-36.069999999999993
 30
0.0
 11
3.1398006150798778
 21
-36.106266383207071
 31
0.0
  0
LINE
  5
293
100
AcDbEntity
  8
0
  6
CONTINUOUS
 62
               7
100
AcDbLine
 10
2.0000000000000568
 20
-35.490000000000009
 30
0.0
 11
3.1582364961093958
 21
-35.526852979421676
 31
0.0
  0
LINE
  5
294
100
AcDbEntity
  8
0
  6
CONTINUOUS
 62
               2
100
AcDbLine
 10
3.0000000190202059
 20
-36.101818181818174
 30
0.0
 11
6.0
 21
-36.101818181818174
 31
0.0
  0
LINE
  5
295
100
AcDbEntity
  8
0
  6
CONTINUOUS
 62
               7
100
AcDbLine
 10
3.0000000190202059
 20
-35.526852979421676
 30
0.0
 11
6.0
 21
-35.526852979421676
 31
0.0
  0
LINE
  5
296
100
AcDbEntity
  8
0
  6
CONTINUOUS
 62
               7
100
AcDbLine
 10
-25.699999999999989
 20
-44.5
 30
0.0
 11
-25.699999999999989
 21
-36.5
 31
0.0
  0
LINE
  5
297
100
AcDbEntity
  8
0
  6
CONTINUOUS
 62
               7
100
AcDbLine
 10
-28.699999999999989
 20
-44.5
 30
0.0
 11
-28.699999999999989
 21
-36.5
 31
0.0
  0
LINE
  5
298
100
AcDbEntity
  8
0
  6
CONTINUOUS
 62
               7
100
AcDbLine
 10
-25.199999999999989
 20
-37.0
 30
0.0
 11
-25.699999999999989
 21
-36.5
 31
0.0
  0
LINE
  5
299
100
AcDbEntity
  8
0
  6
CONTINUOUS
 62
               7
100
AcDbLine
 10
-25.699999999999989
 20
-44.5
 30
0.0
 11
-25.199999999999989
 21
-44.0
 31
0.0
  0
LINE
  5
29A
100
AcDbEntity
  8
0
  6
CONTINUOUS
 62
               7
100
AcDbLine
 10
-29.199999999999989
 20
-44.0
 30
0.0
 11
-28.699999999999989
 21
-44.5
 31
0.0
  0
LINE
  5
29B
100
AcDbEntity
  8
0
  6
CONTINUOUS
 62
               7
100
AcDbLine
 10
-28.699999999999989
 20
-36.5
 30
0.0
 11
-29.199999999999989
 21
-37.0
 31
0.0
  0
LINE
  5
29C
100
AcDbEntity
  8
0
  6
CONTINUOUS
 62
               7
100
AcDbLine
 10
-28.699999999999989
 20
-36.5
 30
0.0
 11
-27.699999999999989
 21
-36.5
 31
0.0
  0
LINE
  5
29D
100
AcDbEntity
  8
0
  6
CONTINUOUS
 62
               7
100
AcDbLine
 10
-28.699999999999989
 20
-44.5
 30
0.0
 11
-27.699999999999989
 21
-44.5
 31
0.0
  0
LINE
  5
29E
100
AcDbEntity
  8
0
  6
CONTINUOUS
 62
               7
100
AcDbLine
 10
-25.199999999999989
 20
-44.0
 30
0.0
 11
-25.199999999999989
 21
-37.0
 31
0.0
  0
LINE
  5
29F
100
AcDbEntity
  8
0
  6
CONTINUOUS
 62
               7
100
AcDbLine
 10
-29.199999999999989
 20
-44.0
 30
0.0
 11
-29.199999999999989
 21
-37.0
 31
0.0
  0
LINE
  5
2A0
100
AcDbEntity
  8
0
  6
CONTINUOUS
 62
               7
100
AcDbLine
 10
-27.699999999999989
 20
-44.5
 30
0.0
 11
-27.699999999999989
 21
-36.5
 31
0.0
  0
LINE
  5
2A1
100
AcDbEntity
  8
0
  6
CONTINUOUS
 62
               7
100
AcDbLine
 10
-26.699999999999989
 20
-44.5
 30
0.0
 11
-26.699999999999989
 21
-36.5
 31
0.0
  0
LINE
  5
2A2
100
AcDbEntity
  8
0
  6
CONTINUOUS
 62
               7
100
AcDbLine
 10
-26.699999999999989
 20
-36.5
 30
0.0
 11
-25.699999999999989
 21
-36.5
 31
0.0
  0
LINE
  5
2A3
100
AcDbEntity
  8
0
  6
CONTINUOUS
 62
               7
100
AcDbLine
 10
-26.699999999999989
 20
-44.5
 30
0.0
 11
-25.699999999999989
 21
-44.5
 31
0.0
  0
LINE
  5
2A4
100
AcDbEntity
  8
0
  6
CONTINUOUS
 62
               7
100
AcDbLine
 10
-27.699999999999989
 20
-37.0
 30
0.0
 11
-26.699999999999989
 21
-37.0
 31
0.0
  0
LINE
  5
2A5
100
AcDbEntity
  8
0
  6
CONTINUOUS
 62
               7
100
AcDbLine
 10
-27.699999999999989
 20
-44.0
 30
0.0
 11
-26.699999999999989
 21
-44.0
 31
0.0
  0
LINE
  5
2A6
100
AcDbEntity
  8
0
  6
CONTINUOUS
 62
               7
100
AcDbLine
 10
-25.199999999999989
 20
-43.0
 30
0.0
 11
-24.199999999999932
 21
-43.0
 31
0.0
  0
LINE
  5
2A7
100
AcDbEntity
  8
0
  6
CONTINUOUS
 62
               7
100
AcDbLine
 10
-25.199999999999989
 20
-38.0
 30
0.0
 11
-24.199999999999932
 21
-38.0
 31
0.0
  0
LINE
  5
2A8
100
AcDbEntity
  8
0
  6
CONTINUOUS
 62
               2
100
AcDbLine
 10
-25.199999999999989
 20
-38.439999999999998
 30
0.0
 11
-24.199999999999932
 21
-38.439999999999998
 31
0.0
  0
LINE
  5
2A9
100
AcDbEntity
  8
0
  6
CONTINUOUS
 62
               2
100
AcDbLine
 10
-25.199999999999989
 20
-42.560000000000002
 30
0.0
 11
-24.199999999999932
 21
-42.560000000000002
 31
0.0
  0
LINE
  5
2AA
100
AcDbEntity
  8
0
  6
CONTINUOUS
 62
               7
100
AcDbLine
 10
-17.199999999999932
 20
-34.25
 30
0.0
 11
-17.199999999999932
 21
-46.75
 31
0.0
  0
LINE
  5
2AB
100
AcDbEntity
  8
0
  6
CONTINUOUS
 62
               7
100
AcDbLine
 10
-19.199999999999932
 20
-34.75
 30
0.0
 11
-21.199999999999932
 21
-34.75
 31
0.0
  0
LINE
  5
2AC
100
AcDbEntity
  8
0
  6
CONTINUOUS
 62
               7
100
AcDbLine
 10
-21.199999999999932
 20
-34.75
 30
0.0
 11
-21.199999999999932
 21
-46.25
 31
0.0
  0
LINE
  5
2AD
100
AcDbEntity
  8
0
  6
CONTINUOUS
 62
               7
100
AcDbLine
 10
-21.199999999999932
 20
-36.199999999999989
 30
0.0
 11
-22.39999999999992
 21
-36.199999999999989
 31
0.0
  0
LINE
  5
2AE
100
AcDbEntity
  8
0
  6
CONTINUOUS
 62
               7
100
AcDbLine
 10
-22.39999999999992
 20
-34.599999999999994
 30
0.0
 11
-22.39999999999992
 21
-46.400000000000006
 31
0.0
  0
LINE
  5
2AF
100
AcDbEntity
  8
0
  6
CONTINUOUS
 62
               7
100
AcDbLine
 10
-22.39999999999992
 20
-34.599999999999994
 30
0.0
 11
-24.199999999999932
 21
-34.599999999999994
 31
0.0
  0
LINE
  5
2B0
100
AcDbEntity
  8
0
  6
CONTINUOUS
 62
               7
100
AcDbLine
 10
-24.199999999999932
 20
-34.599999999999994
 30
0.0
 11
-24.199999999999932
 21
-46.400000000000006
 31
0.0
  0
LINE
  5
2B1
100
AcDbEntity
  8
0
  6
CONTINUOUS
 62
               7
100
AcDbLine
 10
-22.39999999999992
 20
-46.400000000000006
 30
0.0
 11
-24.199999999999932
 21
-46.400000000000006
 31
0.0
  0
LINE
  5
2B2
100
AcDbEntity
  8
0
  6
CONTINUOUS
 62
               7
100
AcDbLine
 10
-21.199999999999932
 20
-44.800000000000011
 30
0.0
 11
-22.39999999999992
 21
-44.800000000000011
 31
0.0
  0
LINE
  5
2B3
100
AcDbEntity
  8
0
  6
CONTINUOUS
 62
               7
100
AcDbLine
 10
-19.199999999999932
 20
-46.25
 30
0.0
 11
-21.199999999999932
 21
-46.25
 31
0.0
  0
LINE
  5
2B4
100
AcDbEntity
  8
0
  6
CONTINUOUS
 62
               7
100
AcDbLine
 10
-19.199999999999932
 20
-34.25
 30
0.0
 11
-19.199999999999932
 21
-46.75
 31
0.0
  0
LINE
  5
2B5
100
AcDbEntity
  8
0
  6
CONTINUOUS
 62
               7
100
AcDbLine
 10
-8.7999999999998977
 20
-33.300000000000011
 30
0.0
 11
0.8000000000000682
 21
-33.300000000000011
 31
0.0
  0
LINE
  5
2B6
100
AcDbEntity
  8
0
  6
CONTINUOUS
 62
               7
100
AcDbLine
 10
2.0000000000000568
 20
-34.0
 30
0.0
 11
2.0000000000000568
 21
-47.0
 31
0.0
  0
LINE
  5
2B7
100
AcDbEntity
  8
0
  6
CONTINUOUS
 62
               7
100
AcDbLine
 10
-9.9999999999999432
 20
-34.0
 30
0.0
 11
-9.9999999999999432
 21
-34.25
 31
0.0
  0
LINE
  5
2B8
100
AcDbEntity
  8
0
  6
CONTINUOUS
 62
               7
100
AcDbLine
 10
0.8000000000000682
 20
-33.300000000000011
 30
0.0
 11
0.8000000000000682
 21
-39.75
 31
0.0
  0
LINE
  5
2B9
100
AcDbEntity
  8
0
  6
CONTINUOUS
 62
               7
100
AcDbLine
 10
-8.7999999999998977
 20
-33.300000000000011
 30
0.0
 11
-8.7999999999998977
 21
-35.150000000000006
 31
0.0
  0
LINE
  5
2BA
100
AcDbEntity
  8
0
  6
CONTINUOUS
 62
               7
100
AcDbLine
 10
-8.7999999999998977
 20
-47.699999999999989
 30
0.0
 11
-9.9999999999999432
 21
-47.0
 31
0.0
  0
LINE
  5
2BB
100
AcDbEntity
  8
0
  6
CONTINUOUS
 62
               7
100
AcDbLine
 10
0.8000000000000682
 20
-33.300000000000011
 30
0.0
 11
2.0000000000000568
 21
-34.0
 31
0.0
  0
LINE
  5
2BC
100
AcDbEntity
  8
0
  6
CONTINUOUS
 62
               7
100
AcDbLine
 10
-8.7999999999998977
 20
-33.300000000000011
 30
0.0
 11
-9.9999999999999432
 21
-34.0
 31
0.0
  0
LINE
  5
2BD
100
AcDbEntity
  8
0
  6
CONTINUOUS
 62
               7
100
AcDbLine
 10
0.8000000000000682
 20
-47.699999999999989
 30
0.0
 11
2.0000000000000568
 21
-47.0
 31
0.0
  0
LINE
  5
2BE
100
AcDbEntity
  8
0
  6
CONTINUOUS
 62
               7
100
AcDbLine
 10
-8.7999999999998977
 20
-47.699999999999989
 30
0.0
 11
0.8000000000000682
 21
-47.699999999999989
 31
0.0
  0
LINE
  5
2BF
100
AcDbEntity
  8
0
  6
CONTINUOUS
 62
               7
100
AcDbLine
 10
-8.7999999999998977
 20
-45.849999999999994
 30
0.0
 11
-8.7999999999998977
 21
-47.699999999999989
 31
0.0
  0
LINE
  5
2C0
100
AcDbEntity
  8
0
  6
CONTINUOUS
 62
               7
100
AcDbLine
 10
0.8000000000000682
 20
-41.25
 30
0.0
 11
0.8000000000000682
 21
-47.699999999999989
 31
0.0
  0
LINE
  5
2C1
100
AcDbEntity
  8
0
  6
CONTINUOUS
 62
               7
100
AcDbLine
 10
-9.9999999999999432
 20
-46.75
 30
0.0
 11
-9.9999999999999432
 21
-47.0
 31
0.0
  0
LINE
  5
2C2
100
AcDbEntity
  8
0
  6
CONTINUOUS
 62
               7
100
AcDbLine
 10
-9.6999999999999318
 20
-39.75
 30
0.0
 11
-9.6999999999999318
 21
-34.25
 31
0.0
  0
LINE
  5
2C3
100
AcDbEntity
  8
0
  6
CONTINUOUS
 62
               7
100
AcDbLine
 10
-5.9499999999999318
 20
-45.0
 30
0.0
 11
-7.9499999999999318
 21
-45.0
 31
0.0
  0
LINE
  5
2C4
100
AcDbEntity
  8
0
  6
CONTINUOUS
 62
               7
100
AcDbLine
 10
-7.9499999999999318
 20
-39.75
 30
0.0
 11
-7.9499999999999318
 21
-36.0
 31
0.0
  0
LINE
  5
2C5
100
AcDbEntity
  8
0
  6
CONTINUOUS
 62
               7
100
AcDbLine
 10
-9.6999999999999318
 20
-46.75
 30
0.0
 11
-7.9499999999999318
 21
-45.0
 31
0.0
  0
LINE
  5
2C6
100
AcDbEntity
  8
0
  6
CONTINUOUS
 62
               7
100
AcDbLine
 10
-9.6999999999999318
 20
-34.25
 30
0.0
 11
-7.9499999999999318
 21
-36.0
 31
0.0
  0
LINE
  5
2C7
100
AcDbEntity
  8
0
  6
CONTINUOUS
 62
               7
100
AcDbLine
 10
-5.9499999999999318
 20
-36.0
 30
0.0
 11
-7.9499999999999318
 21
-36.0
 31
0.0
  0
LINE
  5
2C8
100
AcDbEntity
  8
0
  6
CONTINUOUS
 62
               7
100
AcDbLine
 10
-7.9499999999999318
 20
-45.0
 30
0.0
 11
-7.9499999999999318
 21
-41.25
 31
0.0
  0
LINE
  5
2C9
100
AcDbEntity
  8
0
  6
CONTINUOUS
 62
               7
100
AcDbLine
 10
-9.6999999999999318
 20
-41.25
 30
0.0
 11
-9.6999999999999318
 21
-46.75
 31
0.0
  0
LINE
  5
2CA
100
AcDbEntity
  8
0
  6
CONTINUOUS
 62
               7
100
AcDbLine
 10
-9.6999999999999318
 20
-41.25
 30
0.0
 11
-7.8699999999999477
 21
-41.25
 31
0.0
  0
LINE
  5
2CB
100
AcDbEntity
  8
0
  6
CONTINUOUS
 62
               7
100
AcDbLine
 10
-0.519999999999925
 20
-39.75
 30
0.0
 11
2.0000000000000568
 21
-39.75
 31
0.0
  0
LINE
  5
2CC
100
AcDbEntity
  8
0
  6
CONTINUOUS
 62
               7
100
AcDbLine
 10
-9.6999999999999318
 20
-39.75
 30
0.0
 11
-7.8699999999999477
 21
-39.75
 31
0.0
  0
LINE
  5
2CD
100
AcDbEntity
  8
0
  6
CONTINUOUS
 62
               7
100
AcDbLine
 10
-0.519999999999925
 20
-41.25
 30
0.0
 11
2.0000000000000568
 21
-41.25
 31
0.0
  0
ARC
  5
2CE
100
AcDbEntity
  8
0
  6
CONTINUOUS
 62
               7
100
AcDbCircle
 10
-4.1949999999999363
 20
-40.49999933359905
 30
0.0
 40
3.7507500582685944
100
AcDbArc
 50
191.53463062787358
 51
348.46536937212522
  0
ARC
  5
2CF
100
AcDbEntity
  8
0
  6
CONTINUOUS
 62
               7
100
AcDbCircle
 10
-5.9498924110460507
 20
-37.750057137684223
 30
0.0
 40
1.7500571409913752
100
AcDbArc
 50
34.056791150510669
 51
90.003522395263133
  0
ARC
  5
2D0
100
AcDbEntity
  8
0
  6
CONTINUOUS
 62
               7
100
AcDbCircle
 10
-4.1949999999999363
 20
-40.50000066640095
 30
0.0
 40
3.7507500582685944
100
AcDbArc
 50
11.534630627874019
 51
168.46536937212556
  0
ARC
  5
2D1
100
AcDbEntity
  8
0
  6
CONTINUOUS
 62
               7
100
AcDbCircle
 10
-5.9498924110460507
 20
-43.249942862315777
 30
0.0
 40
1.7500571409913752
100
AcDbArc
 50
269.99647760473607
 51
325.9432088494886
  0
LINE
  5
2D2
100
AcDbEntity
  8
0
  6
CONTINUOUS
 62
               7
100
AcDbLine
 10
-9.6999999999999318
 20
-46.75
 30
0.0
 11
-19.199999999999932
 21
-46.75
 31
0.0
  0
LINE
  5
2D3
100
AcDbEntity
  8
0
  6
CONTINUOUS
 62
               7
100
AcDbLine
 10
-9.6999999999999318
 20
-34.25
 30
0.0
 11
-19.199999999999932
 21
-34.25
 31
0.0
  0
LINE
  5
2D4
100
AcDbEntity
  8
0
  6
CENTER
 62
               2
100
AcDbLine
 10
8.584699293888491
 20
-40.5
 30
0.0
 11
-32.139999999999986
 21
-40.5
 31
0.0
  0
LINE
  5
2D5
100
AcDbEntity
  8
0
  6
CONTINUOUS
 62
               7
100
AcDbLine
 10
6.0
 20
-48.5
 30
0.0
 11
6.0
 21
-5.5
 31
0.0
  0
LINE
  5
2D6
100
AcDbEntity
  8
0
  6
CONTINUOUS
 62
               7
100
AcDbLine
 10
71.400000000000006
 20
-48.0
 30
0.0
 11
71.400000000000006
 21
-28.0
 31
0.0
  0
LINE
  5
2D7
100
AcDbEntity
  8
0
  6
DASHED
 62
               7
100
AcDbLine
 10
8.0
 20
-3.5
 30
0.0
 11
69.0
 21
-3.5
 31
0.0
  0
LINE
  5
2D8
100
AcDbEntity
  8
0
  6
CONTINUOUS
 62
               7
100
AcDbLine
 10
8.0
 20
-50.5
 30
0.0
 11
69.0
 21
-50.5
 31
0.0
  0
ARC
  5
2D9
100
AcDbEntity
  8
0
  6
CONTINUOUS
 62
               7
100
AcDbCircle
 10
8.0
 20
-48.5
 30
0.0
 40
2.0
100
AcDbArc
 50
179.99999999999963
 51
269.99999999999937
  0
ARC
  5
2DA
100
AcDbEntity
  8
0
  6
CONTINUOUS
 62
               7
100
AcDbCircle
 10
8.0
 20
-5.5
 30
0.0
 40
2.0
100
AcDbArc
 50
119.99999999999972
 51
179.99999999999963
  0
LINE
  5
2DB
100
AcDbEntity
  8
0
  6
CONTINUOUS
 62
               7
100
AcDbLine
 10
71.0
 20
-48.5
 30
0.0
 11
71.0
 21
-48.0
 31
0.0
  0
ARC
  5
2DC
100
AcDbEntity
  8
0
  6
CONTINUOUS
 62
               7
100
AcDbCircle
 10
69.0
 20
-48.5
 30
0.0
 40
2.0
100
AcDbArc
 50
269.99999999999937
 51
0.0
  0
ARC
  5
2DD
100
AcDbEntity
  8
0
  6
DASHED
 62
               7
100
AcDbCircle
 10
69.0
 20
-5.5
 30
0.0
 40
2.0
100
AcDbArc
 50
59.999999999999957
 51
89.999999999999815
  0
LINE
  5
2DE
100
AcDbEntity
  8
0
  6
CENTER
 62
               2
100
AcDbLine
 10
67.602059916158311
 20
-38.0
 30
0.0
 11
74.72605405405406
 21
-38.0
 31
0.0
  0
LINE
  5
2DF
100
AcDbEntity
  8
0
  6
CONTINUOUS
 62
               7
100
AcDbLine
 10
71.0
 20
-48.0
 30
0.0
 11
71.400000000000006
 21
-48.0
 31
0.0
  0
LINE
  5
2E0
100
AcDbEntity
  8
0
  6
CONTINUOUS
 62
               7
100
AcDbLine
 10
71.0
 20
-28.0
 30
0.0
 11
71.400000000000006
 21
-28.0
 31
0.0
  0
LINE
  5
2E1
100
AcDbEntity
  8
0
  6
CONTINUOUS
 62
               7
100
AcDbLine
 10
71.0
 20
-28.0
 30
0.0
 11
71.0
 21
-5.5
 31
0.0
  0
LINE
  5
2E2
100
AcDbEntity
  8
0
  6
CONTINUOUS
 62
               7
100
AcDbLine
 10
4.0
 20
-14.0
 30
0.0
 11
6.0
 21
-14.0
 31
0.0
  0
LINE
  5
2E3
100
AcDbEntity
  8
0
  6
CONTINUOUS
 62
               7
100
AcDbLine
 10
4.0
 20
-15.5
 30
0.0
 11
4.0
 21
-14.0
 31
0.0
  0
LINE
  5
2E4
100
AcDbEntity
  8
0
  6
CONTINUOUS
 62
               7
100
AcDbLine
 10
2.0
 20
-24.0
 30
0.0
 11
2.0
 21
-14.5
 31
0.0
  0
LINE
  5
2E5
100
AcDbEntity
  8
0
  6
CONTINUOUS
 62
               7
100
AcDbLine
 10
2.0
 20
-14.5
 30
0.0
 11
4.0
 21
-14.5
 31
0.0
  0
LINE
  5
2E6
100
AcDbEntity
  8
0
  6
CONTINUOUS
 62
               7
100
AcDbLine
 10
4.0
 20
-15.5
 30
0.0
 11
6.0
 21
-15.5
 31
0.0
  0
LINE
  5
2E7
100
AcDbEntity
  8
0
  6
CONTINUOUS
 62
               7
100
AcDbLine
 10
6.0
 20
-24.0
 30
0.0
 11
2.0
 21
-24.0
 31
0.0
  0
LINE
  5
2E8
100
AcDbEntity
  8
0
  6
CONTINUOUS
 62
               7
100
AcDbLine
 10
4.598076211353316
 20
-25.5
 30
0.0
 11
5.0
 21
-25.5
 31
0.0
  0
LINE
  5
2E9
100
AcDbEntity
  8
0
  6
CONTINUOUS
 62
               7
100
AcDbLine
 10
2.0
 20
-24.0
 30
0.0
 11
4.598076211353316
 21
-25.5
 31
0.0
  0
LINE
  5
2EA
100
AcDbEntity
  8
0
  6
CONTINUOUS
 62
               7
100
AcDbLine
 10
5.0
 20
-25.5
 30
0.0
 11
5.0
 21
-24.0
 31
0.0
  0
ARC
  5
2EB
100
AcDbEntity
  8
0
  6
CONTINUOUS
 62
               7
100
AcDbCircle
 10
12.0
 20
-20.0
 30
0.0
 40
5.0
100
AcDbArc
 50
179.99999999999963
 51
269.99999999999937
  0
ARC
  5
2EC
100
AcDbEntity
  8
0
  6
CONTINUOUS
 62
               7
100
AcDbCircle
 10
65.0
 20
-20.0
 30
0.0
 40
5.0
100
AcDbArc
 50
270.00000000000023
 51
0.0
  0
ARC
  5
2ED
100
AcDbEntity
  8
0
  6
DASHED
 62
               7
100
AcDbCircle
 10
8.0
 20
-5.5
 30
0.0
 40
2.0
100
AcDbArc
 50
89.999999999999815
 51
119.99999999999972
  0
ARC
  5
2EE
100
AcDbEntity
  8
0
  6
CONTINUOUS
 62
               7
100
AcDbCircle
 10
69.0
 20
-5.5
 30
0.0
 40
2.0
100
AcDbArc
 50
0.0000000000000127
 51
59.999999999999957
  0
LINE
  5
2EF
100
AcDbEntity
  8
0
  6
DASHED
 62
               7
100
AcDbLine
 10
-1.7
 20
0.0
 30
0.0
 11
-1.7
 21
-1.0
 31
0.0
  0
LINE
  5
2F0
100
AcDbEntity
  8
0
  6
DASHED
 62
               7
100
AcDbLine
 10
1.7
 20
0.0
 30
0.0
 11
1.7
 21
-1.0
 31
0.0
  0
LINE
  5
2F1
100
AcDbEntity
  8
0
  6
DASHED
 62
               7
100
AcDbLine
 10
75.299999999999997
 20
0.0
 30
0.0
 11
75.299999999999997
 21
-1.0
 31
0.0
  0
LINE
  5
2F2
100
AcDbEntity
  8
0
  6
DASHED
 62
               7
100
AcDbLine
 10
78.700000000000003
 20
0.0
 30
0.0
 11
78.700000000000003
 21
-1.0
 31
0.0
  0
ENDBLK
  5
2F3
100
AcDbEntity
  8
0
100
AcDbBlockEnd
  0
BLOCK
  5
2F4
100
AcDbEntity
  8
0
100
AcDbBlockBegin
  2
DTRY-ELL01-7
 70
               0
 10
0.0
 20
0.0
 30
0.0
  3
DTRY-ELL01-7
  1

  0
LINE
  5
2F5
100
AcDbEntity
  8
0
  6
CONTINUOUS
 62
               7
100
AcDbLine
 10
-39.5
 20
-20.5
 30
0.0
 11
-39.5
 21
0.5
 31
0.0
  0
LINE
  5
2F6
100
AcDbEntity
  8
0
  6
CONTINUOUS
 62
               7
100
AcDbLine
 10
-17.5
 20
-20.5
 30
0.0
 11
-17.5
 21
0.5
 31
0.0
  0
LINE
  5
2F7
100
AcDbEntity
  8
0
  6
CONTINUOUS
 62
               7
100
AcDbLine
 10
-1.5
 20
-14.500000007986344
 30
0.0
 11
-1.5
 21
-5.500000007986344
 31
0.0
  0
LINE
  5
2F8
100
AcDbEntity
  8
0
  6
CENTER
 62
               2
100
AcDbLine
 10
-41.643378628186269
 20
-10.0
 30
0.0
 11
1.1524271768606695
 21
-10.0
 31
0.0
  0
LINE
  5
2F9
100
AcDbEntity
  8
0
  6
CONTINUOUS
 62
               7
100
AcDbLine
 10
-39.0
 20
1.0
 30
0.0
 11
-17.5
 21
1.0
 31
0.0
  0
LINE
  5
2FA
100
AcDbEntity
  8
0
  6
CONTINUOUS
 62
               7
100
AcDbLine
 10
-39.0
 20
-21.0
 30
0.0
 11
-32.0
 21
-21.0
 31
0.0
  0
LINE
  5
2FB
100
AcDbEntity
  8
0
  6
CONTINUOUS
 62
               7
100
AcDbLine
 10
-17.5
 20
-5.5
 30
0.0
 11
-15.0
 21
-5.5
 31
0.0
  0
LINE
  5
2FC
100
AcDbEntity
  8
0
  6
CONTINUOUS
 62
               7
100
AcDbLine
 10
-17.5
 20
-14.5
 30
0.0
 11
-15.0
 21
-14.5
 31
0.0
  0
LINE
  5
2FD
100
AcDbEntity
  8
0
  6
CENTER
 62
               2
100
AcDbLine
 10
-34.5
 20
-15.417882460152619
 30
0.0
 11
-34.5
 21
-4.6178999851037652
 31
0.0
  0
LINE
  5
2FE
100
AcDbEntity
  8
0
  6
CONTINUOUS
 62
               7
100
AcDbLine
 10
-36.0
 20
-9.1339743137359619
 30
0.0
 11
-36.0
 21
-10.866025686264038
 31
0.0
  0
LINE
  5
2FF
100
AcDbEntity
  8
0
  6
CONTINUOUS
 62
               7
100
AcDbLine
 10
-33.0
 20
-9.1339746117591858
 30
0.0
 11
-33.0
 21
-10.866025388240814
 31
0.0
  0
LINE
  5
300
100
AcDbEntity
  8
0
  6
CONTINUOUS
 62
               7
100
AcDbLine
 10
-36.000000399862074
 20
-9.1339747389539525
 30
0.0
 11
-34.500000247230219
 21
-8.2679493943467719
 31
0.0
  0
LINE
  5
301
100
AcDbEntity
  8
0
  6
CONTINUOUS
 62
               7
100
AcDbLine
 10
-34.500000642559996
 20
-11.732050018165552
 30
0.0
 11
-33.000000489928141
 21
-10.866024673558371
 31
0.0
  0
LINE
  5
302
100
AcDbEntity
  8
0
  6
CONTINUOUS
 62
               7
100
AcDbLine
 10
-34.500000642559996
 20
-8.2679499818344482
 30
0.0
 11
-33.000000489928141
 21
-9.1339753264416288
 31
0.0
  0
LINE
  5
303
100
AcDbEntity
  8
0
  6
CONTINUOUS
 62
               7
100
AcDbLine
 10
-36.000000399862074
 20
-10.866025261046047
 30
0.0
 11
-34.500000247230219
 21
-11.732050605653228
 31
0.0
  0
CIRCLE
  5
304
100
AcDbEntity
  8
0
  6
CONTINUOUS
 62
               7
100
AcDbCircle
 10
-34.5
 20
-10.0
 30
0.0
 40
3.5
  0
CIRCLE
  5
305
100
AcDbEntity
  8
0
  6
CONTINUOUS
 62
               7
100
AcDbCircle
 10
-34.5
 20
-9.9999998807907104
 30
0.0
 40
2.9803848266601563
  0
LINE
  5
306
100
AcDbEntity
  8
0
  6
CENTER
 62
               2
100
AcDbLine
 10
-25.5
 20
-46.149880392208402
 30
0.0
 11
-25.5
 21
8.9162552684384693
 31
0.0
  0
LINE
  5
307
100
AcDbEntity
  8
0
  6
CONTINUOUS
 62
               7
100
AcDbLine
 10
-33.5
 20
6.0
 30
0.0
 11
-17.5
 21
6.0
 31
0.0
  0
LINE
  5
308
100
AcDbEntity
  8
0
  6
CONTINUOUS
 62
               7
100
AcDbLine
 10
-29.500000014525597
 20
-44.0
 30
0.0
 11
-21.500000030495698
 21
-44.0
 31
0.0
  0
LINE
  5
309
100
AcDbEntity
  8
0
  6
CONTINUOUS
 62
               7
100
AcDbLine
 10
-33.5
 20
1.0
 30
0.0
 11
-33.5
 21
6.0
 31
0.0
  0
LINE
  5
30A
100
AcDbEntity
  8
0
  6
CONTINUOUS
 62
               7
100
AcDbLine
 10
-32.0
 20
-39.669873006236905
 30
0.0
 11
-32.0
 21
-21.0
 31
0.0
  0
LINE
  5
30B
100
AcDbEntity
  8
0
  6
CONTINUOUS
 62
               7
100
AcDbLine
 10
-19.0
 20
-39.66987294637125
 30
0.0
 11
-19.0
 21
-21.0
 31
0.0
  0
LINE
  5
30C
100
AcDbEntity
  8
0
  6
CONTINUOUS
 62
               7
100
AcDbLine
 10
-21.500000035106609
 20
-44.000000007986344
 30
0.0
 11
-19.000000035106609
 21
-39.669873007177628
 31
0.0
  0
LINE
  5
30D
100
AcDbEntity
  8
0
  6
CONTINUOUS
 62
               7
100
AcDbLine
 10
-29.499999975501964
 20
-44.000000067590989
 30
0.0
 11
-32.0
 21
-39.669873006236919
 31
0.0
  0
ARC
  5
30E
100
AcDbEntity
  8
0
  6
CONTINUOUS
 62
               7
100
AcDbCircle
 10
-9.0
 20
-10.0
 30
0.0
 40
7.5
100
AcDbArc
 50
183.82255372927392
 51
356.17744627072489
  0
LINE
  5
30F
100
AcDbEntity
  8
0
  6
CONTINUOUS
 62
               7
100
AcDbLine
 10
-3.0
 20
-5.5
 30
0.0
 11
-1.5
 21
-5.5
 31
0.0
  0
LINE
  5
310
100
AcDbEntity
  8
0
  6
CONTINUOUS
 62
               7
100
AcDbLine
 10
-3.0
 20
-14.5
 30
0.0
 11
-1.5
 21
-14.5
 31
0.0
  0
LINE
  5
311
100
AcDbEntity
  8
0
  6
CONTINUOUS
 62
               7
100
AcDbLine
 10
-16.483314773547875
 20
-9.5
 30
0.0
 11
-1.5166852264521253
 21
-9.5
 31
0.0
  0
LINE
  5
312
100
AcDbEntity
  8
0
  6
CONTINUOUS
 62
               7
100
AcDbLine
 10
-16.483314773547875
 20
-10.5
 30
0.0
 11
-1.5166852264521253
 21
-10.5
 31
0.0
  0
ARC
  5
313
100
AcDbEntity
  8
0
  6
CONTINUOUS
 62
               7
100
AcDbCircle
 10
-9.0
 20
-10.0
 30
0.0
 40
7.5
100
AcDbArc
 50
3.8225537292743201
 51
176.17744627072528
  0
LINE
  5
314
100
AcDbEntity
  8
0
  6
CENTER
 62
               2
100
AcDbLine
 10
-9.0
 20
-18.567986019491471
 30
0.0
 11
-9.0
 21
-1.3527679523222815
 31
0.0
  0
LINE
  5
315
100
AcDbEntity
  8
0
  6
CONTINUOUS
 62
               7
100
AcDbLine
 10
-11.0
 20
-10.5
 30
0.0
 11
-11.0
 21
-9.5
 31
0.0
  0
LINE
  5
316
100
AcDbEntity
  8
0
  6
CONTINUOUS
 62
               7
100
AcDbLine
 10
-7.0
 20
-10.5
 30
0.0
 11
-7.0
 21
-9.5
 31
0.0
  0
LINE
  5
317
100
AcDbEntity
  8
0
  6
CONTINUOUS
 62
               2
100
AcDbLine
 10
-10.5
 20
-10.5
 30
0.0
 11
-10.5
 21
-9.5
 31
0.0
  0
LINE
  5
318
100
AcDbEntity
  8
0
  6
CONTINUOUS
 62
               2
100
AcDbLine
 10
-7.5
 20
-10.5
 30
0.0
 11
-7.5
 21
-9.5
 31
0.0
  0
LINE
  5
319
100
AcDbEntity
  8
0
  6
CONTINUOUS
 62
               7
100
AcDbLine
 10
0.0
 20
-23.0
 30
0.0
 11
0.0
 21
-14.5
 31
0.0
  0
LINE
  5
31A
100
AcDbEntity
  8
0
  6
CONTINUOUS
 62
               7
100
AcDbLine
 10
-4.5
 20
3.0
 30
0.0
 11
0.0
 21
3.0
 31
0.0
  0
LINE
  5
31B
100
AcDbEntity
  8
0
  6
CONTINUOUS
 62
               7
100
AcDbLine
 10
-4.5
 20
-23.0
 30
0.0
 11
0.0
 21
-23.0
 31
0.0
  0
LINE
  5
31C
100
AcDbEntity
  8
0
  6
CONTINUOUS
 62
               7
100
AcDbLine
 10
-5.0
 20
-22.5
 30
0.0
 11
-5.0
 21
-16.344288770224765
 31
0.0
  0
LINE
  5
31D
100
AcDbEntity
  8
0
  6
CONTINUOUS
 62
               7
100
AcDbLine
 10
-17.5
 20
-4.0
 30
0.0
 11
-13.5
 21
-4.0
 31
0.0
  0
LINE
  5
31E
100
AcDbEntity
  8
0
  6
CONTINUOUS
 62
               7
100
AcDbLine
 10
-17.5
 20
-16.0
 30
0.0
 11
-13.5
 21
-16.0
 31
0.0
  0
LINE
  5
31F
100
AcDbEntity
  8
0
  6
CONTINUOUS
 62
               7
100
AcDbLine
 10
-5.0
 20
-3.655711229775239
 30
0.0
 11
-5.0
 21
2.5
 31
0.0
  0
LINE
  5
320
100
AcDbEntity
  8
0
  6
CONTINUOUS
 62
               7
100
AcDbLine
 10
-0.8000000000000114
 20
-14.5
 30
0.0
 11
-0.8000000000000114
 21
-5.5
 31
0.0
  0
LINE
  5
321
100
AcDbEntity
  8
0
  6
CONTINUOUS
 62
               7
100
AcDbLine
 10
-0.8000000000000114
 20
-5.5
 30
0.0
 11
0.0
 21
-5.5
 31
0.0
  0
LINE
  5
322
100
AcDbEntity
  8
0
  6
CONTINUOUS
 62
               7
100
AcDbLine
 10
-0.8000000000000114
 20
-14.5
 30
0.0
 11
0.0
 21
-14.5
 31
0.0
  0
LINE
  5
323
100
AcDbEntity
  8
0
  6
CONTINUOUS
 62
               7
100
AcDbLine
 10
0.0
 20
-5.5
 30
0.0
 11
0.0
 21
3.0
 31
0.0
  0
LINE
  5
324
100
AcDbEntity
  8
0
  6
CONTINUOUS
 62
               7
100
AcDbLine
 10
-32.0
 20
-39.669873006236905
 30
0.0
 11
-19.000000035106609
 21
-39.669873007177628
 31
0.0
  0
ARC
  5
325
100
AcDbEntity
  8
0
  6
CONTINUOUS
 62
               7
100
AcDbCircle
 10
-25.5
 20
9.502272727272711
 30
0.0
 40
10.702272727272714
100
AcDbArc
 50
232.60203439163715
 51
307.39796560836157
  0
ARC
  5
326
100
AcDbEntity
  8
0
  6
CONTINUOUS
 62
               7
100
AcDbCircle
 10
-25.5
 20
-29.502272727272711
 30
0.0
 40
10.702272727272714
100
AcDbArc
 50
52.602034391637595
 51
127.39796560836206
  0
LINE
  5
327
100
AcDbEntity
  8
0
  6
CONTINUOUS
 62
               7
100
AcDbLine
 10
-19.0
 20
-21.0
 30
0.0
 11
-18.0
 21
-21.0
 31
0.0
  0
ARC
  5
328
100
AcDbEntity
  8
0
  6
CONTINUOUS
 62
               7
100
AcDbCircle
 10
-39.0
 20
0.5
 30
0.0
 40
0.5
100
AcDbArc
 50
89.999999999999815
 51
179.99999999999963
  0
ARC
  5
329
100
AcDbEntity
  8
0
  6
CONTINUOUS
 62
               7
100
AcDbCircle
 10
-39.0
 20
-20.5
 30
0.0
 40
0.5
100
AcDbArc
 50
179.99999999999963
 51
269.99999999999937
  0
ARC
  5
32A
100
AcDbEntity
  8
0
  6
CONTINUOUS
 62
               7
100
AcDbCircle
 10
-18.0
 20
-20.5
 30
0.0
 40
0.5
100
AcDbArc
 50
270.00000000000023
 51
0.0
  0
ARC
  5
32B
100
AcDbEntity
  8
0
  6
CONTINUOUS
 62
               7
100
AcDbCircle
 10
-18.0
 20
0.5
 30
0.0
 40
0.5
100
AcDbArc
 50
0.0
 51
89.999999999999815
  0
ARC
  5
32C
100
AcDbEntity
  8
0
  6
CONTINUOUS
 62
               7
100
AcDbCircle
 10
-4.5
 20
2.5
 30
0.0
 40
0.5
100
AcDbArc
 50
89.999999999999815
 51
179.99999999999963
  0
ARC
  5
32D
100
AcDbEntity
  8
0
  6
CONTINUOUS
 62
               7
100
AcDbCircle
 10
-4.5
 20
-22.5
 30
0.0
 40
0.5
100
AcDbArc
 50
179.99999999999963
 51
269.99999999999937
  0
LINE
  5
32E
100
AcDbEntity
  8
0
  6
CONTINUOUS
 62
               7
100
AcDbLine
 10
-17.5
 20
6.0
 30
0.0
 11
-17.5
 21
1.0
 31
0.0
  0
LINE
  5
32F
100
AcDbEntity
  8
0
  6
CENTER
 62
               2
100
AcDbLine
 10
-8.4717128584451871
 20
0.0
 30
0.0
 11
5.5296673252457822
 21
0.0
 31
0.0
  0
LINE
  5
330
100
AcDbEntity
  8
0
  6
CENTER
 62
               2
100
AcDbLine
 10
-8.7721502238812832
 20
-20.0
 30
0.0
 11
6.1490137833740164
 21
-20.0
 31
0.0
  0
LINE
  5
332
100
AcDbEntity
  8
0
  6
PHANTOM
 62
               2
100
AcDbLine
 10
-9.7535207901605645
 20
-49.694863735933723
 30
0.0
 11
-2.8253175737154947
 21
-45.694863743918752
 31
0.0
  0
LINE
  5
333
100
AcDbEntity
  8
0
  6
PHANTOM
 62
               2
100
AcDbLine
 10
-2.8253175646587465
 20
-40.694863698614157
 30
0.0
 11
-12.160254037844368
 21
-24.52627944162883
 31
0.0
  0
LINE
  5
334
100
AcDbEntity
  8
0
  6
PHANTOM
 62
               2
100
AcDbLine
 10
-14.083647783923652
 20
-47.194863750459334
 30
0.0
 11
-2.8253175646587465
 21
-40.694863768827318
 31
0.0
  0
LINE
  5
335
100
AcDbEntity
  8
0
  6
PHANTOM
 62
               2
100
AcDbLine
 10
-2.8253175737154947
 20
-45.694863753140581
 30
0.0
 11
-2.8253175646587465
 21
-40.694863768827318
 31
0.0
  0
LINE
  5
336
100
AcDbEntity
  8
0
  6
PHANTOM
 62
               2
100
AcDbLine
 10
-14.083647783923652
 20
-47.194863750459334
 30
0.0
 11
-19.0
 21
-38.679491924311236
 31
0.0
  0
LINE
  5
337
100
AcDbEntity
  8
0
  6
PHANTOM
 62
               2
100
AcDbLine
 10
-9.7535207225695331
 20
-49.694863774957398
 30
0.0
 11
-14.083647783923652
 21
-47.194863750459348
 31
0.0
  0
LINE
  5
338
100
AcDbEntity
  8
0
  6
CENTER
 62
               2
100
AcDbLine
 10
-5.4218901506937982
 20
-49.197468054060963
 30
0.0
 11
-19.91523454837909
 21
-24.094259185676265
 31
0.0
  0
LINE
  5
339
100
AcDbEntity
  8
0
  6
PHANTOM
 62
               2
100
AcDbLine
 10
-43.753520790160565
 20
-29.194863721408112
 30
0.0
 11
-36.825317573715495
 21
-33.194863713423082
 31
0.0
  0
LINE
  5
33A
100
AcDbEntity
  8
0
  6
PHANTOM
 62
               2
100
AcDbLine
 10
-43.753520790160565
 20
-24.194863750459334
 30
0.0
 11
-39.5
 21
-16.827549630850754
 31
0.0
  0
LINE
  5
33B
100
AcDbEntity
  8
0
  6
PHANTOM
 62
               2
100
AcDbLine
 10
-43.753520790160565
 20
-24.194863750459334
 30
0.0
 11
-32.495190571836361
 21
-30.694863733720737
 31
0.0
  0
LINE
  5
33C
100
AcDbEntity
  8
0
  6
PHANTOM
 62
               2
100
AcDbLine
 10
-43.753520790160565
 20
-29.194863799455462
 30
0.0
 11
-43.753520790160565
 21
-24.194863750459355
 31
0.0
  0
LINE
  5
33D
100
AcDbEntity
  8
0
  6
PHANTOM
 62
               2
100
AcDbLine
 10
-32.495190511029989
 20
-30.694863698614157
 30
0.0
 11
-29.080371430783259
 21
-24.780223552971179
 31
0.0
  0
LINE
  5
33E
100
AcDbEntity
  8
0
  6
PHANTOM
 62
               2
100
AcDbLine
 10
-36.825317581701825
 20
-33.194863718034
 30
0.0
 11
-32.495190571836361
 21
-30.694863733720737
 31
0.0
  0
LINE
  5
33F
100
AcDbEntity
  8
0
  6
CENTER
 62
               2
100
AcDbLine
 10
-41.424148477050153
 20
-33.160272554407918
 30
0.0
 11
-14.214577794694264
 21
13.968086319569046
 31
0.0
  0
LINE
  5
340
100
AcDbEntity
  8
0
  6
PHANTOM
 62
               2
100
AcDbLine
 10
-22.217622392718738
 20
16.106406460551018
 30
0.0
 11
-8.3612159321677382
 21
8.1064064605510175
 31
0.0
  0
LINE
  5
341
100
AcDbEntity
  8
0
  6
PHANTOM
 62
               2
100
AcDbLine
 10
-24.717622392718738
 20
11.776279441628823
 30
0.0
 11
-22.217622392718738
 21
16.106406460551018
 31
0.0
  0
LINE
  5
342
100
AcDbEntity
  8
0
  6
PHANTOM
 62
               2
100
AcDbLine
 10
-29.48076211353316
 20
14.526279441628823
 30
0.0
 11
-10.861215932167738
 21
3.7762794416288266
 31
0.0
  0
ARC
  5
343
100
AcDbEntity
  8
0
  6
PHANTOM
 62
               2
100
AcDbCircle
 10
-13.538282798806904
 20
15.139463613350593
 30
0.0
 40
10.702272727272714
100
AcDbArc
 50
202.60203439163718
 51
277.39796560836157
  0
LINE
  5
344
100
AcDbEntity
  8
0
  6
PHANTOM
 62
               2
100
AcDbLine
 10
-37.867513459481302
 20
1.0
 30
0.0
 11
-30.16377481542537
 21
14.343266739736606
 31
0.0
  0
ARC
  5
345
100
AcDbEntity
  8
0
  6
PHANTOM
 62
               2
100
AcDbCircle
 10
-29.73076211353316
 20
14.093266739736606
 30
0.0
 40
0.5
100
AcDbArc
 50
59.999999999999858
 51
149.99999999999966
  0
LINE
  5
346
100
AcDbEntity
  8
0
  6
PHANTOM
 62
               2
100
AcDbLine
 10
-8.3612159321677382
 20
8.1064064605510175
 30
0.0
 11
-10.861215932167738
 21
3.7762794416288266
 31
0.0
  0
ARC
  5
347
100
AcDbEntity
  8
0
  6
PHANTOM
 62
               2
100
AcDbCircle
 10
-11.544228634059948
 20
3.593266739736606
 30
0.0
 40
0.5
100
AcDbArc
 50
330.00000000000006
 51
59.999999999999829
  0
LINE
  5
348
100
AcDbEntity
  8
0
  6
PHANTOM
 62
               2
100
AcDbLine
 10
-15.350852961085877
 20
-4.0
 30
0.0
 11
-11.111215932167738
 21
3.343266739736606
 31
0.0
  0
LINE
  5
349
100
AcDbEntity
  8
0
  6
PHANTOM
 62
               2
100
AcDbLine
 10
-11.111215932167738
 20
-23.343266739736606
 30
0.0
 11
-14.888139720814422
 21
-16.801442841485013
 31
0.0
  0
ARC
  5
34A
100
AcDbEntity
  8
0
  6
PHANTOM
 62
               2
100
AcDbCircle
 10
-13.538282798806904
 20
-35.139463613350593
 30
0.0
 40
10.702272727272714
100
AcDbArc
 50
82.602034391637474
 51
120.68597747597278
  0
ARC
  5
34B
100
AcDbEntity
  8
0
  6
PHANTOM
 62
               2
100
AcDbCircle
 10
-11.544228634059948
 20
-23.593266739736606
 30
0.0
 40
0.5
100
AcDbArc
 50
300.00000000000011
 51
29.999999999999915
  0
LINE
  5
34C
100
AcDbEntity
  8
0
  6
PHANTOM
 62
               2
100
AcDbLine
 10
-12.160254037844368
 20
-24.52627944162883
 30
0.0
 11
-11.294228634059948
 21
-24.02627944162883
 31
0.0
  0
LINE
  5
34D
100
AcDbEntity
  8
0
  6
PHANTOM
 62
               2
100
AcDbLine
 10
-7.8000001907348633
 20
2.75
 30
0.0
 11
-5.0
 21
2.75
 31
0.0
  0
LINE
  5
34E
100
AcDbEntity
  8
0
  6
PHANTOM
 62
               2
100
AcDbLine
 10
-7.799999031749735
 20
2.7500002050277317
 30
0.0
 11
-7.9999993893777628
 21
2.4035895780295959
 31
0.0
  0
LINE
  5
34F
100
AcDbEntity
  8
0
  6
PHANTOM
 62
               2
100
AcDbLine
 10
-8.0
 20
2.4035892486572266
 30
0.0
 11
-8.0
 21
-2.4035892486572266
 31
0.0
  0
LINE
  5
350
100
AcDbEntity
  8
0
  6
PHANTOM
 62
               2
100
AcDbLine
 10
-7.8000001907348633
 20
2.75
 30
0.0
 11
-7.8000001907348633
 21
-2.5966223615322974
 31
0.0
  0
LINE
  5
351
100
AcDbEntity
  8
0
  6
PHANTOM
 62
               2
100
AcDbLine
 10
-7.8972776531022646
 20
-2.5815093566378096
 30
0.0
 11
-7.9999997653316086
 21
-2.4035893754789015
 31
0.0
  0
LINE
  5
352
100
AcDbEntity
  8
0
  6
PHANTOM
 62
               2
100
AcDbLine
 10
-7.0797135630328398
 20
-2.75
 30
0.0
 11
-5.0
 21
-2.75
 31
0.0
  0
LINE
  5
353
100
AcDbEntity
  8
0
  6
PHANTOM
 62
               2
100
AcDbLine
 10
0.0
 20
1.5
 30
0.0
 11
4.4000015258789062
 21
1.5
 31
0.0
  0
LINE
  5
354
100
AcDbEntity
  8
0
  6
PHANTOM
 62
               2
100
AcDbLine
 10
0.0
 20
1.2294998168945312
 30
0.0
 11
4.670501708984375
 21
1.2294998168945312
 31
0.0
  0
LINE
  5
355
100
AcDbEntity
  8
0
  6
PHANTOM
 62
               2
100
AcDbLine
 10
0.0
 20
-1.5
 30
0.0
 11
4.4000015258789062
 21
-1.5
 31
0.0
  0
LINE
  5
356
100
AcDbEntity
  8
0
  6
PHANTOM
 62
               2
100
AcDbLine
 10
0.0
 20
-1.2294998168945312
 30
0.0
 11
4.670501708984375
 21
-1.2294998168945312
 31
0.0
  0
LINE
  5
357
100
AcDbEntity
  8
0
  6
PHANTOM
 62
               2
100
AcDbLine
 10
4.3999996185302734
 20
1.5
 30
0.0
 11
4.3999996185302734
 21
-1.5
 31
0.0
  0
LINE
  5
358
100
AcDbEntity
  8
0
  6
PHANTOM
 62
               2
100
AcDbLine
 10
5.0
 20
0.8999999761581421
 30
0.0
 11
5.0
 21
-0.8999999761581421
 31
0.0
  0
LINE
  5
359
100
AcDbEntity
  8
0
  6
PHANTOM
 62
               2
100
AcDbLine
 10
5.0000004806032621
 20
0.9000028141068128
 30
0.0
 11
4.4000015800993424
 21
1.5000022709483574
 31
0.0
  0
LINE
  5
35A
100
AcDbEntity
  8
0
  6
PHANTOM
 62
               2
100
AcDbLine
 10
5.0000004806032621
 20
-0.9000028141068128
 30
0.0
 11
4.4000015800993424
 21
-1.5000022709483574
 31
0.0
  0
LINE
  5
35B
100
AcDbEntity
  8
0
  6
PHANTOM
 62
               2
100
AcDbLine
 10
-5.0
 20
2.75
 30
0.0
 11
-5.0
 21
2.5
 31
0.0
  0
LINE
  5
35C
100
AcDbEntity
  8
0
  6
PHANTOM
 62
               2
100
AcDbLine
 10
-5.0
 20
-22.75
 30
0.0
 11
-5.0
 21
-22.5
 31
0.0
  0
LINE
  5
35D
100
AcDbEntity
  8
0
  6
PHANTOM
 62
               2
100
AcDbLine
 10
5.0000004806032621
 20
-19.099997185893187
 30
0.0
 11
4.4000015800993424
 21
-18.499997729051643
 31
0.0
  0
LINE
  5
35E
100
AcDbEntity
  8
0
  6
PHANTOM
 62
               2
100
AcDbLine
 10
5.0000004806032621
 20
-20.900002814106813
 30
0.0
 11
4.4000015800993424
 21
-21.500002270948357
 31
0.0
  0
LINE
  5
35F
100
AcDbEntity
  8
0
  6
PHANTOM
 62
               2
100
AcDbLine
 10
5.0
 20
-20.899999976158142
 30
0.0
 11
5.0
 21
-19.100000023841858
 31
0.0
  0
LINE
  5
360
100
AcDbEntity
  8
0
  6
PHANTOM
 62
               2
100
AcDbLine
 10
4.3999996185302734
 20
-21.5
 30
0.0
 11
4.3999996185302734
 21
-18.5
 31
0.0
  0
LINE
  5
361
100
AcDbEntity
  8
0
  6
PHANTOM
 62
               2
100
AcDbLine
 10
0.0
 20
-18.770500183105469
 30
0.0
 11
4.670501708984375
 21
-18.770500183105469
 31
0.0
  0
LINE
  5
362
100
AcDbEntity
  8
0
  6
PHANTOM
 62
               2
100
AcDbLine
 10
0.0
 20
-18.5
 30
0.0
 11
4.4000015258789062
 21
-18.5
 31
0.0
  0
LINE
  5
363
100
AcDbEntity
  8
0
  6
PHANTOM
 62
               2
100
AcDbLine
 10
0.0
 20
-21.229499816894531
 30
0.0
 11
4.670501708984375
 21
-21.229499816894531
 31
0.0
  0
LINE
  5
364
100
AcDbEntity
  8
0
  6
PHANTOM
 62
               2
100
AcDbLine
 10
0.0
 20
-21.5
 30
0.0
 11
4.4000015258789062
 21
-21.5
 31
0.0
  0
LINE
  5
365
100
AcDbEntity
  8
0
  6
PHANTOM
 62
               2
100
AcDbLine
 10
-7.0797135630328398
 20
-17.25
 30
0.0
 11
-5.0
 21
-17.25
 31
0.0
  0
LINE
  5
366
100
AcDbEntity
  8
0
  6
PHANTOM
 62
               2
100
AcDbLine
 10
-7.8972776531022646
 20
-17.41849064336219
 30
0.0
 11
-7.9999997653316086
 21
-17.596410624521098
 31
0.0
  0
LINE
  5
367
100
AcDbEntity
  8
0
  6
PHANTOM
 62
               2
100
AcDbLine
 10
-7.8000001907348633
 20
-22.75
 30
0.0
 11
-7.8000001907348633
 21
-17.403377638467703
 31
0.0
  0
LINE
  5
368
100
AcDbEntity
  8
0
  6
PHANTOM
 62
               2
100
AcDbLine
 10
-8.0
 20
-22.403589248657227
 30
0.0
 11
-8.0
 21
-17.596410751342773
 31
0.0
  0
LINE
  5
369
100
AcDbEntity
  8
0
  6
PHANTOM
 62
               2
100
AcDbLine
 10
-7.799999031749735
 20
-22.750000205027732
 30
0.0
 11
-7.9999993893777628
 21
-22.403589578029596
 31
0.0
  0
LINE
  5
36A
100
AcDbEntity
  8
0
  6
PHANTOM
 62
               2
100
AcDbLine
 10
-7.8000001907348633
 20
-22.75
 30
0.0
 11
-5.0
 21
-22.75
 31
0.0
  0
CIRCLE
  5
36B
100
AcDbEntity
  8
0
  6
CONTINUOUS
 62
               7
100
AcDbCircle
 10
-25.5
 20
-24.0
 30
0.0
 40
1.5
  0
CIRCLE
  5
36C
100
AcDbEntity
  8
0
  6
CONTINUOUS
 62
               2
100
AcDbCircle
 10
-25.5
 20
-24.0
 30
0.0
 40
1.25
  0
LINE
  5
36D
100
AcDbEntity
  8
0
  6
CENTER
 62
               2
100
AcDbLine
 10
-27.640027512448683
 20
-24.0
 30
0.0
 11
-23.259640371143291
 21
-24.0
 31
0.0
  0
LINE
  5
36E
100
AcDbEntity
  8
0
  6
CONTINUOUS
 62
               7
100
AcDbLine
 10
-26.25
 20
-24.430958234635327
 30
0.0
 11
-26.25
 21
-23.569041765364673
 31
0.0
  0
LINE
  5
36F
100
AcDbEntity
  8
0
  6
CONTINUOUS
 62
               7
100
AcDbLine
 10
-24.75
 20
-24.430958234635327
 30
0.0
 11
-24.75
 21
-23.569041765364673
 31
0.0
  0
LINE
  5
370
100
AcDbEntity
  8
0
  6
CONTINUOUS
 62
               7
100
AcDbLine
 10
-26.25
 20
-23.569041765364673
 30
0.0
 11
-25.5
 21
-23.135000000000005
 31
0.0
  0
LINE
  5
371
100
AcDbEntity
  8
0
  6
CONTINUOUS
 62
               7
100
AcDbLine
 10
-25.5
 20
-23.135000000000005
 30
0.0
 11
-24.75
 21
-23.569041765364673
 31
0.0
  0
LINE
  5
372
100
AcDbEntity
  8
0
  6
CONTINUOUS
 62
               7
100
AcDbLine
 10
-24.75
 20
-24.430958234635327
 30
0.0
 11
-25.5
 21
-24.864999999999995
 31
0.0
  0
LINE
  5
373
100
AcDbEntity
  8
0
  6
CONTINUOUS
 62
               7
100
AcDbLine
 10
-25.5
 20
-24.864999999999995
 30
0.0
 11
-26.25
 21
-24.430958234635327
 31
0.0
  0
ENDBLK
  5
374
100
AcDbEntity
  8
0
100
AcDbBlockEnd
  0
BLOCK
  5
375
100
AcDbEntity
  8
0
100
AcDbBlockBegin
  2
DTRY-ELL01-8
 70
               0
 10
0.0
 20
0.0
 30
0.0
  3
DTRY-ELL01-8
  1

  0
LINE
  5
376
100
AcDbEntity
  8
0
  6
CONTINUOUS
 62
               7
100
AcDbLine
 10
-4.0000000033174388
 20
3.0
 30
0.0
 11
3.9999999966825612
 21
3.0
 31
0.0
  0
LINE
  5
377
100
AcDbEntity
  8
0
  6
CONTINUOUS
 62
               7
100
AcDbLine
 10
-4.0000000033174388
 20
-23.0
 30
0.0
 11
3.9999999966825612
 21
-23.0
 31
0.0
  0
LINE
  5
378
100
AcDbEntity
  8
0
  6
CONTINUOUS
 62
               7
100
AcDbLine
 10
-4.0
 20
3.0
 30
0.0
 11
-4.0
 21
-23.0
 31
0.0
  0
LINE
  5
379
100
AcDbEntity
  8
0
  6
CONTINUOUS
 62
               7
100
AcDbLine
 10
4.0
 20
3.0
 30
0.0
 11
4.0
 21
-23.0
 31
0.0
  0
LINE
  5
37A
100
AcDbEntity
  8
0
  6
CENTER
 62
               2
100
AcDbLine
 10
-6.1395991511396062
 20
-10.0
 30
0.0
 11
33.601401996091909
 21
-10.0
 31
0.0
  0
LINE
  5
37B
100
AcDbEntity
  8
0
  6
CONTINUOUS
 62
               7
100
AcDbLine
 10
-4.0000000033174388
 20
-4.0
 30
0.0
 11
3.9999999966825612
 21
-4.0
 31
0.0
  0
LINE
  5
37C
100
AcDbEntity
  8
0
  6
CONTINUOUS
 62
               7
100
AcDbLine
 10
-4.0000000033174388
 20
-16.0
 30
0.0
 11
3.9999999966825612
 21
-16.0
 31
0.0
  0
LINE
  5
37D
100
AcDbEntity
  8
0
  6
CONTINUOUS
 62
               7
100
AcDbLine
 10
-4.0000000033174388
 20
-9.6499999999999986
 30
0.0
 11
3.9999999966825612
 21
-9.6499999999999986
 31
0.0
  0
LINE
  5
37E
100
AcDbEntity
  8
0
  6
CONTINUOUS
 62
               7
100
AcDbLine
 10
-4.0000000033174388
 20
-10.350000000000001
 30
0.0
 11
3.9999999966825612
 21
-10.350000000000001
 31
0.0
  0
LINE
  5
37F
100
AcDbEntity
  8
0
  6
CENTER
 62
               2
100
AcDbLine
 10
-2.5282045685037247
 20
0.0
 30
0.0
 11
2.5605787070286681
 21
0.0
 31
0.0
  0
LINE
  5
380
100
AcDbEntity
  8
0
  6
CENTER
 62
               2
100
AcDbLine
 10
-2.9385903165305081
 20
-20.0
 30
0.0
 11
3.053041604660848
 21
-20.0
 31
0.0
  0
LINE
  5
381
100
AcDbEntity
  8
0
  6
CENTER
 62
               2
100
AcDbLine
 10
0.0
 20
2.4875182853909195
 30
0.0
 11
0.0
 21
-17.250858338968854
 31
0.0
  0
ARC
  5
382
100
AcDbEntity
  8
0
  6
CONTINUOUS
 62
               7
100
AcDbCircle
 10
0.0
 20
0.0
 30
0.0
 40
1.6499999999999999
100
AcDbArc
 50
322.69479903421421
 51
217.30520096578445
  0
CIRCLE
  5
383
100
AcDbEntity
  8
0
  6
CONTINUOUS
 62
               7
100
AcDbCircle
 10
0.0
 20
-20.0
 30
0.0
 40
1.6499999999999999
  0
LINE
  5
384
100
AcDbEntity
  8
0
  6
CENTER
 62
               2
100
AcDbLine
 10
0.0
 20
-17.046843320684992
 30
0.0
 11
0.0
 21
-22.874320942665626
 31
0.0
  0
LINE
  5
385
100
AcDbEntity
  8
0
  6
CONTINUOUS
 62
               7
100
AcDbLine
 10
29.0
 20
-3.0
 30
0.0
 11
29.0
 21
-17.0
 31
0.0
  0
LINE
  5
386
100
AcDbEntity
  8
0
  6
CONTINUOUS
 62
               7
100
AcDbLine
 10
25.046738469715535
 20
-2.5
 30
0.0
 11
28.5
 21
-2.5
 31
0.0
  0
LINE
  5
387
100
AcDbEntity
  8
0
  6
CONTINUOUS
 62
               7
100
AcDbLine
 10
25.046738469715535
 20
-17.5
 30
0.0
 11
28.5
 21
-17.5
 31
0.0
  0
LINE
  5
388
100
AcDbEntity
  8
0
  6
CONTINUOUS
 62
               7
100
AcDbLine
 10
4.0
 20
-7.0
 30
0.0
 11
6.4169947557416549
 21
-7.0
 31
0.0
  0
LINE
  5
389
100
AcDbEntity
  8
0
  6
CONTINUOUS
 62
               7
100
AcDbLine
 10
4.0
 20
-13.0
 30
0.0
 11
6.4169947557416549
 21
-13.0
 31
0.0
  0
LINE
  5
38A
100
AcDbEntity
  8
0
  6
CENTER
 62
               2
100
AcDbLine
 10
17.0
 20
9.075634184169715
 30
0.0
 11
17.0
 21
-46.007642631196163
 31
0.0
  0
ARC
  5
38B
100
AcDbEntity
  8
0
  6
CONTINUOUS
 62
               7
100
AcDbCircle
 10
17.0
 20
-10.0
 30
0.0
 40
11.0
100
AcDbArc
 50
92.605251265057078
 51
267.39474873494208
  0
LINE
  5
38C
100
AcDbEntity
  8
0
  6
CONTINUOUS
 62
               7
100
AcDbLine
 10
8.9999999966825612
 20
1.0
 30
0.0
 11
24.999999996682561
 21
1.0
 31
0.0
  0
LINE
  5
38D
100
AcDbEntity
  8
0
  6
CONTINUOUS
 62
               7
100
AcDbLine
 10
8.9999999966825612
 20
6.0
 30
0.0
 11
24.999999996682561
 21
6.0
 31
0.0
  0
LINE
  5
38E
100
AcDbEntity
  8
0
  6
CONTINUOUS
 62
               7
100
AcDbLine
 10
25.0
 20
6.0
 30
0.0
 11
25.0
 21
1.0
 31
0.0
  0
LINE
  5
38F
100
AcDbEntity
  8
0
  6
CONTINUOUS
 62
               7
100
AcDbLine
 10
9.0
 20
6.0
 30
0.0
 11
9.0
 21
1.0
 31
0.0
  0
LINE
  5
390
100
AcDbEntity
  8
0
  6
CONTINUOUS
 62
               7
100
AcDbLine
 10
23.5
 20
1.0
 30
0.0
 11
23.5
 21
-1.1258803253505789
 31
0.0
  0
LINE
  5
391
100
AcDbEntity
  8
0
  6
CONTINUOUS
 62
               7
100
AcDbLine
 10
10.5
 20
1.0
 30
0.0
 11
10.5
 21
-1.1258803253505754
 31
0.0
  0
LINE
  5
392
100
AcDbEntity
  8
0
  6
CONTINUOUS
 62
               7
100
AcDbLine
 10
12.999999937077916
 20
-44.0
 30
0.0
 11
20.999999996682561
 21
-44.0
 31
0.0
  0
LINE
  5
393
100
AcDbEntity
  8
0
  6
CONTINUOUS
 62
               7
100
AcDbLine
 10
20.999999966880239
 20
-44.000000007986344
 30
0.0
 11
23.499999966880239
 21
-39.669873007177628
 31
0.0
  0
LINE
  5
394
100
AcDbEntity
  8
0
  6
CONTINUOUS
 62
               7
100
AcDbLine
 10
12.999999937077916
 20
-43.999999948381699
 30
0.0
 11
10.500000026484884
 21
-39.669873066782273
 31
0.0
  0
LINE
  5
395
100
AcDbEntity
  8
0
  6
CONTINUOUS
 62
               7
100
AcDbLine
 10
23.5
 20
-18.874119674649421
 30
0.0
 11
23.5
 21
-39.669872949812522
 31
0.0
  0
LINE
  5
396
100
AcDbEntity
  8
0
  6
CONTINUOUS
 62
               7
100
AcDbLine
 10
10.5
 20
-18.874119674649421
 30
0.0
 11
10.5
 21
-39.669873020909101
 31
0.0
  0
LINE
  5
397
100
AcDbEntity
  8
0
  6
CONTINUOUS
 62
               7
100
AcDbLine
 10
10.500000026484884
 20
-39.669873066782273
 30
0.0
 11
23.499999966880239
 21
-39.669873007177628
 31
0.0
  0
LINE
  5
398
100
AcDbEntity
  8
0
  6
CONTINUOUS
 62
               7
100
AcDbLine
 10
17.5
 20
1.0
 30
0.0
 11
17.5
 21
-20.988630487917959
 31
0.0
  0
LINE
  5
399
100
AcDbEntity
  8
0
  6
CONTINUOUS
 62
               7
100
AcDbLine
 10
16.5
 20
1.0
 30
0.0
 11
16.5
 21
-20.988630487917959
 31
0.0
  0
ARC
  5
39A
100
AcDbEntity
  8
0
  6
CONTINUOUS
 62
               7
100
AcDbCircle
 10
17.0
 20
-10.0
 30
0.0
 40
11.0
100
AcDbArc
 50
272.60525126505667
 51
87.394748734942482
  0
LINE
  5
39B
100
AcDbEntity
  8
0
  6
CONTINUOUS
 62
               7
100
AcDbLine
 10
16.5
 20
-8.0
 30
0.0
 11
17.5
 21
-8.0
 31
0.0
  0
LINE
  5
39C
100
AcDbEntity
  8
0
  6
CONTINUOUS
 62
               7
100
AcDbLine
 10
16.5
 20
-12.0
 30
0.0
 11
17.5
 21
-12.0
 31
0.0
  0
LINE
  5
39D
100
AcDbEntity
  8
0
  6
CONTINUOUS
 62
               2
100
AcDbLine
 10
16.5
 20
-8.5
 30
0.0
 11
17.5
 21
-8.5
 31
0.0
  0
LINE
  5
39E
100
AcDbEntity
  8
0
  6
CONTINUOUS
 62
               2
100
AcDbLine
 10
16.5
 20
-11.5
 30
0.0
 11
17.5
 21
-11.5
 31
0.0
  0
LINE
  5
39F
100
AcDbEntity
  8
0
  6
CONTINUOUS
 62
               7
100
AcDbLine
 10
2.75
 20
-1.1999998092651367
 30
0.0
 11
2.75
 21
-4.0
 31
0.0
  0
LINE
  5
3A0
100
AcDbEntity
  8
0
  6
CONTINUOUS
 62
               7
100
AcDbLine
 10
2.7500002050277317
 20
-1.2000009682502366
 30
0.0
 11
2.4035895780295959
 21
-1.0000006106222656
 31
0.0
  0
LINE
  5
3A1
100
AcDbEntity
  8
0
  6
CONTINUOUS
 62
               7
100
AcDbLine
 10
2.4035892486572266
 20
-1.0
 30
0.0
 11
-2.4035892486572266
 21
-1.0
 31
0.0
  0
LINE
  5
3A2
100
AcDbEntity
  8
0
  6
CONTINUOUS
 62
               7
100
AcDbLine
 10
2.75
 20
-1.1999998092651367
 30
0.0
 11
-2.75
 21
-1.1999998092651367
 31
0.0
  0
LINE
  5
3A3
100
AcDbEntity
  8
0
  6
CONTINUOUS
 62
               7
100
AcDbLine
 10
-2.7499996610495714
 20
-1.20000023466838
 30
0.0
 11
-2.4035893754789015
 21
-1.0000002346683914
 31
0.0
  0
LINE
  5
3A4
100
AcDbEntity
  8
0
  6
CONTINUOUS
 62
               7
100
AcDbLine
 10
-2.75
 20
-1.1999998092651367
 30
0.0
 11
-2.75
 21
-4.0
 31
0.0
  0
LINE
  5
3A5
100
AcDbEntity
  8
0
  6
CONTINUOUS
 62
               7
100
AcDbLine
 10
1.5
 20
-9.6499999999999986
 30
0.0
 11
1.5
 21
-10.350000000000001
 31
0.0
  0
LINE
  5
3A6
100
AcDbEntity
  8
0
  6
CONTINUOUS
 62
               2
100
AcDbLine
 10
1.2294998168945312
 20
-9.6499999999999986
 30
0.0
 11
1.2294998168945312
 21
-10.350000000000001
 31
0.0
  0
LINE
  5
3A7
100
AcDbEntity
  8
0
  6
CONTINUOUS
 62
               7
100
AcDbLine
 10
-1.5
 20
-9.6499999999999986
 30
0.0
 11
-1.5
 21
-10.350000000000001
 31
0.0
  0
LINE
  5
3A8
100
AcDbEntity
  8
0
  6
CONTINUOUS
 62
               2
100
AcDbLine
 10
-1.2294998168945312
 20
-9.6499999999999986
 30
0.0
 11
-1.2294998168945312
 21
-10.350000000000001
 31
0.0
  0
ARC
  5
3A9
100
AcDbEntity
  8
0
  6
DASHED
 62
               7
100
AcDbCircle
 10
0.0
 20
0.0
 30
0.0
 40
1.6499999999999999
100
AcDbArc
 50
217.30520096578454
 51
322.69479903421421
  0
ARC
  5
3AA
100
AcDbEntity
  8
0
  6
CONTINUOUS
 62
               7
100
AcDbCircle
 10
28.5
 20
-3.0
 30
0.0
 40
0.5
100
AcDbArc
 50
0.0
 51
89.999999999999815
  0
ARC
  5
3AB
100
AcDbEntity
  8
0
  6
CONTINUOUS
 62
               7
100
AcDbCircle
 10
28.5
 20
-17.0
 30
0.0
 40
0.5
100
AcDbArc
 50
270.00000000000023
 51
0.0
  0
LINE
  5
3AC
100
AcDbEntity
  8
0
  6
PHANTOM
 62
               2
100
AcDbLine
 10
3.4641015824620354
 20
-41.44486371902741
 30
0.0
 11
7.7942285923274994
 21
-38.944863734714147
 31
0.0
  0
LINE
  5
3AD
100
AcDbEntity
  8
0
  6
PHANTOM
 62
               2
100
AcDbLine
 10
9.7061863035313252
 20
-35.633255903225518
 30
0.0
 11
7.7942286496925988
 21
-38.944863701594386
 31
0.0
  0
LINE
  5
3AE
100
AcDbEntity
  8
0
  6
PHANTOM
 62
               2
100
AcDbLine
 10
-3.464101635053396
 20
-32.444863816135602
 30
0.0
 11
7.7942285923274994
 21
-38.944863734714147
 31
0.0
  0
LINE
  5
3AF
100
AcDbEntity
  8
0
  6
PHANTOM
 62
               2
100
AcDbLine
 10
1.6076422120832206
 20
-23.66034573695034
 30
0.0
 11
-3.464101635053396
 21
-32.444863763165827
 31
0.0
  0
LINE
  5
3B0
100
AcDbEntity
  8
0
  6
PHANTOM
 62
               2
100
AcDbLine
 10
-3.4641016438207259
 20
-37.444863652507109
 30
0.0
 11
-3.464101635053396
 21
-32.444863816135602
 31
0.0
  0
LINE
  5
3B1
100
AcDbEntity
  8
0
  6
PHANTOM
 62
               2
100
AcDbLine
 10
-3.4641016696298834
 20
-37.444863697209875
 30
0.0
 11
3.4641016122647557
 21
-41.444863727012198
 31
0.0
  0
LINE
  5
3B2
100
AcDbEntity
  8
0
  6
CENTER
 62
               2
100
AcDbLine
 10
18.533150558687112
 20
-7.3445053367012889
 30
0.0
 11
-1.0038213155980884
 21
-41.183533249007425
 31
0.0
  0
LINE
  5
3B3
100
AcDbEntity
  8
0
  6
PHANTOM
 62
               2
100
AcDbLine
 10
23.941804297607149
 20
-35.02355773965558
 30
0.0
 11
26.205771385855712
 21
-38.944863763165827
 31
0.0
  0
LINE
  5
3B4
100
AcDbEntity
  8
0
  6
PHANTOM
 62
               2
100
AcDbLine
 10
26.205771431728863
 20
-38.944863789650718
 30
0.0
 11
37.464101599505113
 21
-32.444863767833908
 31
0.0
  0
LINE
  5
3B5
100
AcDbEntity
  8
0
  6
PHANTOM
 62
               2
100
AcDbLine
 10
30.535898304560988
 20
-41.4448637154292
 30
0.0
 11
26.205771431728863
 21
-38.944863789650718
 31
0.0
  0
LINE
  5
3B6
100
AcDbEntity
  8
0
  6
PHANTOM
 62
               2
100
AcDbLine
 10
37.464101590448365
 20
-37.444863752147171
 30
0.0
 11
37.464101599505113
 21
-32.444863767833908
 31
0.0
  0
LINE
  5
3B7
100
AcDbEntity
  8
0
  6
PHANTOM
 62
               2
100
AcDbLine
 10
29.316615779966014
 20
-18.33300430820573
 30
0.0
 11
37.464101599505113
 21
-32.444863701594386
 31
0.0
  0
LINE
  5
3B8
100
AcDbEntity
  8
0
  6
PHANTOM
 62
               2
100
AcDbLine
 10
30.535898330370117
 20
-41.444863760131952
 30
0.0
 11
37.464101612264756
 21
-37.444863730329644
 31
0.0
  0
LINE
  5
3B9
100
AcDbEntity
  8
0
  6
CENTER
 62
               2
100
AcDbLine
 10
15.466849441312888
 20
-7.3445053367012889
 30
0.0
 11
35.003821315598088
 21
-41.183533249007425
 31
0.0
  0
ENDBLK
  5
3BA
100
AcDbEntity
  8
0
100
AcDbBlockEnd
  0
BLOCK
  5
3BB
100
AcDbEntity
  8
0
100
AcDbBlockBegin
  2
DTRY-ELL01-9
 70
               0
 10
0.0
 20
0.0
 30
0.0
  3
DTRY-ELL01-9
  1

  0
LINE
  5
3BC
100
AcDbEntity
  8
0
  6
CONTINUOUS
 62
               7
100
AcDbLine
 10
-4.0
 20
-18.000000027305134
 30
0.0
 11
-4.0
 21
-0.0000000273051342
 31
0.0
  0
LINE
  5
3BD
100
AcDbEntity
  8
0
  6
CONTINUOUS
 62
               7
100
AcDbLine
 10
4.0
 20
-18.000000027305134
 30
0.0
 11
4.0
 21
-0.0000000273051342
 31
0.0
  0
LINE
  5
3BE
100
AcDbEntity
  8
0
  6
CONTINUOUS
 62
               7
100
AcDbLine
 10
-4.0000000033174388
 20
0.0
 30
0.0
 11
3.9999999966825612
 21
0.0
 31
0.0
  0
LINE
  5
3BF
100
AcDbEntity
  8
0
  6
CONTINUOUS
 62
               7
100
AcDbLine
 10
-4.0000000033174388
 20
-18.0
 30
0.0
 11
3.9999999966825612
 21
-18.0
 31
0.0
  0
LINE
  5
3C0
100
AcDbEntity
  8
0
  6
CONTINUOUS
 62
               7
100
AcDbLine
 10
-4.0000000033174388
 20
-5.0
 30
0.0
 11
4.0
 21
-5.0
 31
0.0
  0
LINE
  5
3C1
100
AcDbEntity
  8
0
  6
CENTER
 62
               2
100
AcDbLine
 10
-6.0925436504596746
 20
-9.0
 30
0.0
 11
32.315035531838419
 21
-9.0
 31
0.0
  0
LINE
  5
3C2
100
AcDbEntity
  8
0
  6
CONTINUOUS
 62
               7
100
AcDbLine
 10
29.0
 20
-16.0
 30
0.0
 11
29.0
 21
-2.0
 31
0.0
  0
LINE
  5
3C3
100
AcDbEntity
  8
0
  6
CONTINUOUS
 62
               7
100
AcDbLine
 10
10.5
 20
-1.5
 30
0.0
 11
12.5
 21
-1.5
 31
0.0
  0
LINE
  5
3C4
100
AcDbEntity
  8
0
  6
CONTINUOUS
 62
               7
100
AcDbLine
 10
10.5
 20
-16.5
 30
0.0
 11
12.5
 21
-16.5
 31
0.0
  0
LINE
  5
3C5
100
AcDbEntity
  8
0
  6
CONTINUOUS
 62
               7
100
AcDbLine
 10
10.0
 20
-16.0
 30
0.0
 11
10.0
 21
-2.0
 31
0.0
  0
LINE
  5
3C6
100
AcDbEntity
  8
0
  6
CONTINUOUS
 62
               7
100
AcDbLine
 10
4.0
 20
-6.0
 30
0.0
 11
10.0
 21
-6.0
 31
0.0
  0
LINE
  5
3C7
100
AcDbEntity
  8
0
  6
CONTINUOUS
 62
               7
100
AcDbLine
 10
4.0
 20
-12.0
 30
0.0
 11
10.0
 21
-12.0
 31
0.0
  0
LINE
  5
3C8
100
AcDbEntity
  8
0
  6
CENTER
 62
               2
100
AcDbLine
 10
17.0
 20
-41.191205979513327
 30
0.0
 11
17.0
 21
0.0446535755281587
 31
0.0
  0
LINE
  5
3C9
100
AcDbEntity
  8
0
  6
CONTINUOUS
 62
               7
100
AcDbLine
 10
6.5
 20
-39.5
 30
0.0
 11
16.5
 21
-39.5
 31
0.0
  0
LINE
  5
3CA
100
AcDbEntity
  8
0
  6
CONTINUOUS
 62
               7
100
AcDbLine
 10
6.5
 20
-17.5
 30
0.0
 11
27.5
 21
-17.5
 31
0.0
  0
LINE
  5
3CB
100
AcDbEntity
  8
0
  6
CONTINUOUS
 62
               7
100
AcDbLine
 10
6.0
 20
-39.0
 30
0.0
 11
6.0
 21
-18.0
 31
0.0
  0
LINE
  5
3CC
100
AcDbEntity
  8
0
  6
CONTINUOUS
 62
               7
100
AcDbLine
 10
28.0
 20
-39.0
 30
0.0
 11
28.0
 21
-18.0
 31
0.0
  0
LINE
  5
3CD
100
AcDbEntity
  8
0
  6
CONTINUOUS
 62
               7
100
AcDbLine
 10
12.5
 20
-17.5
 30
0.0
 11
12.5
 21
-16.5
 31
0.0
  0
LINE
  5
3CE
100
AcDbEntity
  8
0
  6
CONTINUOUS
 62
               7
100
AcDbLine
 10
21.5
 20
-17.5
 30
0.0
 11
21.5
 21
-16.5
 31
0.0
  0
LINE
  5
3CF
100
AcDbEntity
  8
0
  6
CENTER
 62
               2
100
AcDbLine
 10
7.1802248451232344
 20
-25.5
 30
0.0
 11
26.896495886017703
 21
-25.5
 31
0.0
  0
LINE
  5
3D0
100
AcDbEntity
  8
0
  6
CONTINUOUS
 62
               7
100
AcDbLine
 10
22.5
 20
-8.1339743137359619
 30
0.0
 11
22.5
 21
-9.8660256862640381
 31
0.0
  0
LINE
  5
3D1
100
AcDbEntity
  8
0
  6
CONTINUOUS
 62
               7
100
AcDbLine
 10
25.5
 20
-8.1339746117591858
 30
0.0
 11
25.5
 21
-9.8660253882408142
 31
0.0
  0
LINE
  5
3D2
100
AcDbEntity
  8
0
  6
CONTINUOUS
 62
               7
100
AcDbLine
 10
22.499999600137926
 20
-8.1339747389539525
 30
0.0
 11
23.999999752769781
 21
-7.2679493943467719
 31
0.0
  0
LINE
  5
3D3
100
AcDbEntity
  8
0
  6
CONTINUOUS
 62
               7
100
AcDbLine
 10
23.999999357440004
 20
-10.732050018165552
 30
0.0
 11
25.499999510071859
 21
-9.8660246735583712
 31
0.0
  0
LINE
  5
3D4
100
AcDbEntity
  8
0
  6
CONTINUOUS
 62
               7
100
AcDbLine
 10
23.999999357440004
 20
-7.2679499818344482
 30
0.0
 11
25.499999510071859
 21
-8.1339753264416288
 31
0.0
  0
LINE
  5
3D5
100
AcDbEntity
  8
0
  6
CONTINUOUS
 62
               7
100
AcDbLine
 10
22.499999600137926
 20
-9.8660252610460475
 30
0.0
 11
23.999999752769781
 21
-10.732050605653228
 31
0.0
  0
CIRCLE
  5
3D6
100
AcDbEntity
  8
0
  6
CONTINUOUS
 62
               7
100
AcDbCircle
 10
24.0
 20
-9.0
 30
0.0
 40
3.5
  0
CIRCLE
  5
3D7
100
AcDbEntity
  8
0
  6
CONTINUOUS
 62
               7
100
AcDbCircle
 10
24.0
 20
-8.9999998807907104
 30
0.0
 40
2.9803848266601563
  0
CIRCLE
  5
3D8
100
AcDbEntity
  8
0
  6
CONTINUOUS
 62
               7
100
AcDbCircle
 10
17.0
 20
-25.5
 30
0.0
 40
8.0
  0
CIRCLE
  5
3D9
100
AcDbEntity
  8
0
  6
CONTINUOUS
 62
               7
100
AcDbCircle
 10
17.0
 20
-25.5
 30
0.0
 40
3.0
  0
LINE
  5
3DA
100
AcDbEntity
  8
0
  6
CENTER
 62
               2
100
AcDbLine
 10
24.0
 20
-14.62232854025919
 30
0.0
 11
24.0
 21
-3.5619813476862987
 31
0.0
  0
CIRCLE
  5
3DB
100
AcDbEntity
  8
0
  6
CONTINUOUS
 62
               7
100
AcDbCircle
 10
24.0
 20
-9.0
 30
0.0
 40
3.7000000000000002
  0
LINE
  5
3DC
100
AcDbEntity
  8
0
  6
CONTINUOUS
 62
               7
100
AcDbLine
 10
16.5
 20
-39.5
 30
0.0
 11
16.5
 21
-33.484359711335657
 31
0.0
  0
LINE
  5
3DD
100
AcDbEntity
  8
0
  6
CONTINUOUS
 62
               7
100
AcDbLine
 10
17.5
 20
-39.5
 30
0.0
 11
17.5
 21
-33.484359711335657
 31
0.0
  0
LINE
  5
3DE
100
AcDbEntity
  8
0
  6
CONTINUOUS
 62
               7
100
AcDbLine
 10
17.5
 20
-39.5
 30
0.0
 11
27.5
 21
-39.5
 31
0.0
  0
ARC
  5
3DF
100
AcDbEntity
  8
0
  6
CONTINUOUS
 62
               7
100
AcDbCircle
 10
6.5
 20
-39.0
 30
0.0
 40
0.5
100
AcDbArc
 50
179.99999999999963
 51
269.99999999999937
  0
ARC
  5
3E0
100
AcDbEntity
  8
0
  6
CONTINUOUS
 62
               7
100
AcDbCircle
 10
27.5
 20
-39.0
 30
0.0
 40
0.5
100
AcDbArc
 50
269.99999999999937
 51
0.0
  0
ARC
  5
3E1
100
AcDbEntity
  8
0
  6
CONTINUOUS
 62
               7
100
AcDbCircle
 10
27.5
 20
-18.0
 30
0.0
 40
0.5
100
AcDbArc
 50
0.0
 51
89.999999999999815
  0
ARC
  5
3E2
100
AcDbEntity
  8
0
  6
CONTINUOUS
 62
               7
100
AcDbCircle
 10
6.5
 20
-18.0
 30
0.0
 40
0.5
100
AcDbArc
 50
89.999999999999815
 51
179.99999999999963
  0
ARC
  5
3E3
100
AcDbEntity
  8
0
  6
CONTINUOUS
 62
               7
100
AcDbCircle
 10
10.5
 20
-2.0
 30
0.0
 40
0.5
100
AcDbArc
 50
89.999999999999815
 51
179.99999999999963
  0
ARC
  5
3E4
100
AcDbEntity
  8
0
  6
CONTINUOUS
 62
               7
100
AcDbCircle
 10
10.5
 20
-16.0
 30
0.0
 40
0.5
100
AcDbArc
 50
179.99999999999963
 51
269.99999999999937
  0
ARC
  5
3E5
100
AcDbEntity
  8
0
  6
CONTINUOUS
 62
               7
100
AcDbCircle
 10
28.5
 20
-16.0
 30
0.0
 40
0.5
100
AcDbArc
 50
269.99999999999937
 51
0.0
  0
ARC
  5
3E6
100
AcDbEntity
  8
0
  6
CONTINUOUS
 62
               7
100
AcDbCircle
 10
28.5
 20
-2.0
 30
0.0
 40
0.5
100
AcDbArc
 50
0.0
 51
89.999999999999815
  0
LINE
  5
3E7
100
AcDbEntity
  8
0
  6
CENTER
 62
               2
100
AcDbLine
 10
0.0
 20
-8.430629075194517
 30
0.0
 11
0.0
 21
5.5429657846419218
 31
0.0
  0
LINE
  5
3E8
100
AcDbEntity
  8
0
  6
CONTINUOUS
 62
               7
100
AcDbLine
 10
-1.2500000033174388
 20
-13.278311967849731
 30
0.0
 11
-1.2500000033174388
 21
-14.721688032150269
 31
0.0
  0
LINE
  5
3E9
100
AcDbEntity
  8
0
  6
CONTINUOUS
 62
               7
100
AcDbLine
 10
1.2499999966825612
 20
-13.278312087059021
 30
0.0
 11
1.2499999966825612
 21
-14.721687912940979
 31
0.0
  0
LINE
  5
3EA
100
AcDbEntity
  8
0
  6
CONTINUOUS
 62
               7
100
AcDbLine
 10
-1.2499999235827204
 20
-13.278312044043076
 30
0.0
 11
0.0000000659594548
 21
-12.556624336343276
 31
0.0
  0
LINE
  5
3EB
100
AcDbEntity
  8
0
  6
CONTINUOUS
 62
               7
100
AcDbLine
 10
-0.0000005494314337
 20
-15.443374837750497
 30
0.0
 11
1.2499994401107415
 21
-14.721687130050697
 31
0.0
  0
LINE
  5
3EC
100
AcDbEntity
  8
0
  6
CONTINUOUS
 62
               7
100
AcDbLine
 10
-0.0000005494314337
 20
-12.556625162249503
 30
0.0
 11
1.2499994401107415
 21
-13.278312869949303
 31
0.0
  0
LINE
  5
3ED
100
AcDbEntity
  8
0
  6
CONTINUOUS
 62
               7
100
AcDbLine
 10
-1.2499999235827204
 20
-14.721687955956924
 30
0.0
 11
0.0000000659594548
 21
-15.443375663656724
 31
0.0
  0
CIRCLE
  5
3EE
100
AcDbEntity
  8
0
  6
CONTINUOUS
 62
               7
100
AcDbCircle
 10
-0.0000000033174388
 20
-14.0
 30
0.0
 40
2.75
  0
CIRCLE
  5
3EF
100
AcDbEntity
  8
0
  6
CONTINUOUS
 62
               7
100
AcDbCircle
 10
-0.0000000033174388
 20
-13.99999988079071
 30
0.0
 40
2.4035892486572266
  0
LINE
  5
3F0
100
AcDbEntity
  8
0
  6
CENTER
 62
               2
100
AcDbLine
 10
-3.7695188524662058
 20
-14.0
 30
0.0
 11
3.7872400830682693
 21
-14.0
 31
0.0
  0
LINE
  5
3F1
100
AcDbEntity
  8
0
  6
CENTER
 62
               2
100
AcDbLine
 10
-0.0000000033174388
 20
-17.673885194045042
 30
0.0
 11
-0.0000000033174388
 21
-9.7736372159862697
 31
0.0
  0
ARC
  5
3F2
100
AcDbEntity
  8
0
  6
CONTINUOUS
 62
               7
100
AcDbCircle
 10
17.0
 20
5.6384615384615415
 30
0.0
 40
8.438461538461544
100
AcDbArc
 50
237.77316353382088
 51
302.22683646617799
  0
ARC
  5
3F3
100
AcDbEntity
  8
0
  6
CONTINUOUS
 62
               7
100
AcDbCircle
 10
17.0
 20
-23.638461538461542
 30
0.0
 40
8.438461538461544
100
AcDbArc
 50
57.773163533821254
 51
122.22683646617834
  0
LINE
  5
3F4
100
AcDbEntity
  8
0
  6
CONTINUOUS
 62
               7
100
AcDbLine
 10
21.5
 20
-1.5
 30
0.0
 11
28.5
 21
-1.5
 31
0.0
  0
LINE
  5
3F5
100
AcDbEntity
  8
0
  6
CONTINUOUS
 62
               7
100
AcDbLine
 10
12.699999999999989
 20
-1.5
 30
0.0
 11
21.300000000000011
 21
-1.5
 31
0.0
  0
ARC
  5
3F6
100
AcDbEntity
  8
0
  6
CONTINUOUS
 62
               7
100
AcDbCircle
 10
21.300000000000011
 20
-1.7000000000000028
 30
0.0
 40
0.2
100
AcDbArc
 50
50.579376240798801
 51
89.999999999999815
  0
ARC
  5
3F7
100
AcDbEntity
  8
0
  6
CONTINUOUS
 62
               7
100
AcDbCircle
 10
12.699999999999989
 20
-1.7000000000000028
 30
0.0
 40
0.2
100
AcDbArc
 50
89.999999999999815
 51
129.4206237592
  0
LINE
  5
3F8
100
AcDbEntity
  8
0
  6
CONTINUOUS
 62
               7
100
AcDbLine
 10
21.5
 20
-16.5
 30
0.0
 11
28.5
 21
-16.5
 31
0.0
  0
LINE
  5
3F9
100
AcDbEntity
  8
0
  6
PHANTOM
 62
               2
100
AcDbLine
 10
-2.75
 20
-7.8000001907348633
 30
0.0
 11
-2.75
 21
-5.0
 31
0.0
  0
LINE
  5
3FA
100
AcDbEntity
  8
0
  6
PHANTOM
 62
               2
100
AcDbLine
 10
-2.7500002050277317
 20
-7.7999990317497634
 30
0.0
 11
-2.4035895780295959
 21
-7.9999993893777344
 31
0.0
  0
LINE
  5
3FB
100
AcDbEntity
  8
0
  6
PHANTOM
 62
               2
100
AcDbLine
 10
-2.4035892486572266
 20
-8.0
 30
0.0
 11
2.4035892486572266
 21
-8.0
 31
0.0
  0
LINE
  5
3FC
100
AcDbEntity
  8
0
  6
PHANTOM
 62
               2
100
AcDbLine
 10
-2.75
 20
-7.8000001907348633
 30
0.0
 11
2.75
 21
-7.8000001907348633
 31
0.0
  0
LINE
  5
3FD
100
AcDbEntity
  8
0
  6
PHANTOM
 62
               2
100
AcDbLine
 10
2.7499996610495714
 20
-7.79999976533162
 30
0.0
 11
2.4035893754789015
 21
-7.9999997653316086
 31
0.0
  0
LINE
  5
3FE
100
AcDbEntity
  8
0
  6
PHANTOM
 62
               2
100
AcDbLine
 10
2.75
 20
-7.8000001907348633
 30
0.0
 11
2.75
 21
-5.0
 31
0.0
  0
LINE
  5
3FF
100
AcDbEntity
  8
0
  6
PHANTOM
 62
               2
100
AcDbLine
 10
-1.5
 20
0.0
 30
0.0
 11
-1.5
 21
4.3999996185302734
 31
0.0
  0
LINE
  5
400
100
AcDbEntity
  8
0
  6
PHANTOM
 62
               2
100
AcDbLine
 10
-1.2294998168945312
 20
0.0
 30
0.0
 11
-1.2294998168945312
 21
4.6705037833351213
 31
0.0
  0
LINE
  5
401
100
AcDbEntity
  8
0
  6
PHANTOM
 62
               2
100
AcDbLine
 10
1.5
 20
0.0
 30
0.0
 11
1.5
 21
4.3999996185302734
 31
0.0
  0
LINE
  5
402
100
AcDbEntity
  8
0
  6
PHANTOM
 62
               2
100
AcDbLine
 10
1.2294998168945312
 20
0.0
 30
0.0
 11
1.2294998168945312
 21
4.6705037833351213
 31
0.0
  0
LINE
  5
403
100
AcDbEntity
  8
0
  6
PHANTOM
 62
               2
100
AcDbLine
 10
-1.5
 20
4.3999996185302734
 30
0.0
 11
1.5
 21
4.3999996185302734
 31
0.0
  0
LINE
  5
404
100
AcDbEntity
  8
0
  6
PHANTOM
 62
               2
100
AcDbLine
 10
-0.8999999761581421
 20
5.0
 30
0.0
 11
0.8999999761581421
 21
5.0
 31
0.0
  0
LINE
  5
405
100
AcDbEntity
  8
0
  6
PHANTOM
 62
               2
100
AcDbLine
 10
-0.9000028141068128
 20
5.0000004806032621
 30
0.0
 11
-1.5000022709483574
 21
4.4000015800993424
 31
0.0
  0
LINE
  5
406
100
AcDbEntity
  8
0
  6
PHANTOM
 62
               2
100
AcDbLine
 10
0.9000028141068128
 20
5.0000004806032621
 30
0.0
 11
1.5000022709483574
 21
4.4000015800993424
 31
0.0
  0
ENDBLK
  5
407
100
AcDbEntity
  8
0
100
AcDbBlockEnd
  0
ENDSEC
  0
SECTION
  2
ENTITIES
  0
INSERT
  5
408
100
AcDbEntity
  8
0
  6
ByBlock
100
AcDbBlockReference
  2
DTRY-ELL01-1
 10
-121.48652096153003
 20
30.88021158077197
 30
0.0
  0
INSERT
  5
409
100
AcDbEntity
  8
0
  6
ByBlock
100
AcDbBlockReference
  2
DTRY-ELL01-2
 10
-214.29048468782767
 20
30.88021158077197
 30
0.0
  0
INSERT
  5
40A
100
AcDbEntity
  8
0
  6
ByBlock
100
AcDbBlockReference
  2
DTRY-ELL01-3
 10
55.309507231185336
 20
30.88021158077197
 30
0.0
  0
INSERT
  5
40B
100
AcDbEntity
  8
0
  6
ByBlock
100
AcDbBlockReference
  2
DTRY-ELL01-4
 10
-121.48652096153003
 20
134.2993587994543
 30
0.0
  0
INSERT
  5
40C
100
AcDbEntity
  8
0
  6
ByBlock
100
AcDbBlockReference
  2
DTRY-ELL01-5
 10
-121.48652096153003
 20
-29.674082156600747
 30
0.0
  0
INSERT
  5
40D
100
AcDbEntity
  8
0
  6
ByBlock
100
AcDbBlockReference
  2
DTRY-ELL01-6
 10
-121.48652096153003
 20
-104.28351498838541
 30
0.0
  0
INSERT
  5
40E
100
AcDbEntity
  8
0
  6
ByBlock
100
AcDbBlockReference
  2
DTRY-ELL01-7
 10
207.78648103141541
 20
-112.36593451568902
 30
0.0
  0
INSERT
  5
40F
100
AcDbEntity
  8
0
  6
ByBlock
100
AcDbBlockReference
  2
DTRY-ELL01-8
 10
73.639195901810979
 20
-109.97924965893591
 30
0.0
  0
INSERT
  5
410
100
AcDbEntity
  8
0
  6
ByBlock
100
AcDbBlockReference
  2
DTRY-ELL01-9
 10
72.584829385599264
 20
-42.417935233065158
 30
0.0
  0
MTEXT
  5
411
100
AcDbEntity
  8
0
  6
CONTINUOUS
 62
               7
100
AcDbMText
 10
-268.26741582267874
 20
160.5
 30
0.0
 40
6.3000001907348633
 41
0.0
 71
               4
 72
               1
  1
\W1.079;\A1;MODEL:DTRY-ELL01
  0
LINE
  5
412
100
AcDbEntity
  8
0
  6
CONTINUOUS
 62
               7
100
AcDbLine
 10
-281.25
 20
-195.0
 30
0.0
 11
282.099853515625
 21
-195.0
 31
0.0
  0
LINE
  5
413
100
AcDbEntity
  8
0
  6
CONTINUOUS
 62
               7
100
AcDbLine
 10
-281.25
 20
195.5
 30
0.0
 11
-281.25
 21
-195.0
 31
0.0
  0
LINE
  5
414
100
AcDbEntity
  8
0
  6
CONTINUOUS
 62
               7
100
AcDbLine
 10
-281.25
 20
195.5
 30
0.0
 11
282.099853515625
 21
195.5
 31
0.0
  0
LINE
  5
415
100
AcDbEntity
  8
0
  6
CONTINUOUS
 62
               7
100
AcDbLine
 10
282.099853515625
 20
195.5
 30
0.0
 11
282.099853515625
 21
-195.0
 31
0.0
  0
LINE
  5
416
100
AcDbEntity
  8
0
  6
CONTINUOUS
 62
               7
100
AcDbLine
 10
162.0999755859375
 20
195.5
 30
0.0
 11
162.0999755859375
 21
175.5
 31
0.0
  0
LINE
  5
417
100
AcDbEntity
  8
0
  6
CONTINUOUS
 62
               7
100
AcDbLine
 10
162.0999755859375
 20
175.5
 30
0.0
 11
282.099853515625
 21
175.5
 31
0.0
  0
MTEXT
  5
418
100
AcDbEntity
  8
0
  6
CONTINUOUS
 62
               7
100
AcDbMText
 10
198.27702406779611
 20
185.5
 30
0.0
 40
6.3000001907348633
 41
0.0
 71
               4
 72
               1
  1
\W1.311;\A1;Ver. 1.0
  0
MTEXT
  5
419
100
AcDbEntity
  8
0
  6
CONTINUOUS
 62
               7
100
AcDbMText
 10
170.28099805280428
 20
-185.0
 30
0.0
 40
9.0
 41
0.0
 71
               4
 72
               1
  1
\W1.121;\A1;KOGANEI CORP.
  0
LINE
  5
41A
100
AcDbEntity
  8
0
  6
CONTINUOUS
 62
               7
100
AcDbLine
 10
162.0999755859375
 20
-175.0
 30
0.0
 11
282.099853515625
 21
-175.0
 31
0.0
  0
LINE
  5
41B
100
AcDbEntity
  8
0
  6
CONTINUOUS
 62
               7
100
AcDbLine
 10
162.0999755859375
 20
-175.0
 30
0.0
 11
162.0999755859375
 21
-195.0
 31
0.0
  0
LINE
  5
41C
100
AcDbEntity
  8
0
  6
CONTINUOUS
 62
               7
100
AcDbLine
 10
-161.25
 20
195.5
 30
0.0
 11
-161.25
 21
175.5
 31
0.0
  0
LINE
  5
41D
100
AcDbEntity
  8
0
  6
CONTINUOUS
 62
               7
100
AcDbLine
 10
-281.25
 20
175.5
 30
0.0
 11
-161.25
 21
175.5
 31
0.0
  0
MTEXT
  5
41E
100
AcDbEntity
  8
0
  6
CONTINUOUS
 62
               7
100
AcDbMText
 10
-242.25000063578287
 20
190.22499999999999
 30
0.0
 40
6.3000001907348633
 41
0.0
 71
               4
 72
               1
  1
\A1;CRECEED
  0
MTEXT
  5
41F
100
AcDbEntity
  8
0
  6
CONTINUOUS
 62
               7
100
AcDbMText
 10
-242.13947428728054
 20
180.77500000000001
 30
0.0
 40
6.3000001907348633
 41
0.0
 71
               4
 72
               1
  1
\W1.105;\A1;IONIZER
  0
LINE
  5
420
100
AcDbEntity
  8
0
  6
CONTINUOUS
 62
               7
100
AcDbLine
 10
282.099853515625
 20
0.25
 30
0.0
 11
0.4249267578125
 21
0.25
 31
0.0
  0
MTEXT
  5
421
100
AcDbEntity
  8
0
  6
CONTINUOUS
 62
               7
100
AcDbMText
 10
13.394926678513784
 20
-14.75
 30
0.0
 40
6.3000001907348633
 41
0.0
 71
               4
 72
               1
  1
\W1.067;\A1;MODEL:DTRY-NZR31
  0
LINE
  5
422
100
AcDbEntity
  8
0
  6
CONTINUOUS
 62
               7
100
AcDbLine
 10
0.4249267578125
 20
-195.0
 30
0.0
 11
0.4249267578125
 21
0.25
 31
0.0
  0
ENDSEC
  0
SECTION
  2
OBJECTS
  0
DICTIONARY
  5
19
100
AcDbDictionary
  3
ACAD_GROUP
350
1A
  3
ACAD_MLINESTYLE
350
1B
  0
DICTIONARY
  5
1A
102
{ACAD_REACTORS
330
19
102
}
100
AcDbDictionary
  0
DICTIONARY
  5
1B
102
{ACAD_REACTORS
330
19
102
}
100
AcDbDictionary
  3
STANDARD
350
1C
  0
MLINESTYLE
  5
1C
102
{ACAD_REACTORS
330
1B
102
}
100
AcDbMlineStyle
  2
Standard
 70
               0
  3

 62
               0
 51
90.0
 52
90.0
 71
               2
 49
0.5
 62
             256
  6
ByLayer
 49
-0.5
 62
             256
  6
ByLayer
  0
ENDSEC
  0
EOF
