  0
SECTION
  2
HEADER
  9
$ACADVER
  1
AC1012
  9
$DWGCODEPAGE
  3
dos932
  9
$INSBASE
 10
0.0
 20
0.0
 30
0.0
  9
$EXTMIN
 10
-194.25
 20
-133.5
 30
0.0
  9
$EXTMAX
 10
196.2723600854633
 20
132.60000610351562
 30
0.0
  9
$LIMMIN
 10
-194.25
 20
-133.5
  9
$LIMMAX
 10
196.2723600854633
 20
132.60000610351562
  9
$ORTHOMODE
 70
               0
  9
$REGENMODE
 70
               1
  9
$FILLMODE
 70
               1
  9
$QTEXTMODE
 70
               0
  9
$MIRRTEXT
 70
               1
  9
$DRAGMODE
 70
               2
  9
$LTSCALE
 40
1.0
  9
$OSMODE
 70
               0
  9
$ATTMODE
 70
               1
  9
$TEXTSIZE
 40
3.2000000476837158
  9
$TRACEWID
 40
0.05
  9
$TEXTSTYLE
  7
MX_NOTE_STANDARD
  9
$CLAYER
  8
0
  9
$CELTYPE
  6
CONTINUOUS
  9
$CECOLOR
 62
             256
  9
$CELTSCALE
 40
1.0
  9
$DELOBJ
 70
               1
  9
$DISPSILH
 70
               0
  9
$DIMSCALE
 40
1.0
  9
$DIMASZ
 40
2.5
  9
$DIMEXO
 40
1.5
  9
$DIMDLI
 40
3.75
  9
$DIMRND
 40
0.0
  9
$DIMDLE
 40
0.0
  9
$DIMEXE
 40
1.5
  9
$DIMTP
 40
0.0
  9
$DIMTM
 40
0.0
  9
$DIMTXT
 40
3.2000000476837158
  9
$DIMCEN
 40
2.5
  9
$DIMTSZ
 40
0.0
  9
$DIMTOL
 70
               0
  9
$DIMLIM
 70
               0
  9
$DIMTIH
 70
               0
  9
$DIMTOH
 70
               0
  9
$DIMSE1
 70
               0
  9
$DIMSE2
 70
               0
  9
$DIMTAD
 70
               1
  9
$DIMZIN
 70
               8
  9
$DIMBLK
  1

  9
$DIMASO
 70
               1
  9
$DIMSHO
 70
               1
  9
$DIMPOST
  1

  9
$DIMAPOST
  1

  9
$DIMALT
 70
               0
  9
$DIMALTD
 70
               4
  9
$DIMALTF
 40
0.03937007874016
  9
$DIMLFAC
 40
1.0
  9
$DIMTOFL
 70
               1
  9
$DIMTVP
 40
0.0
  9
$DIMTIX
 70
               0
  9
$DIMSOXD
 70
               0
  9
$DIMSAH
 70
               0
  9
$DIMBLK1
  1

  9
$DIMBLK2
  1

  9
$DIMSTYLE
  2
MXDIMSTYLE
  9
$DIMCLRD
 70
               0
  9
$DIMCLRE
 70
               0
  9
$DIMCLRT
 70
               0
  9
$DIMTFAC
 40
1.0
  9
$DIMGAP
 40
1.0
  9
$DIMJUST
 70
               0
  9
$DIMSD1
 70
               0
  9
$DIMSD2
 70
               0
  9
$DIMTOLJ
 70
               1
  9
$DIMTZIN
 70
               0
  9
$DIMALTZ
 70
               0
  9
$DIMALTTZ
 70
               0
  9
$DIMFIT
 70
               3
  9
$DIMUPT
 70
               1
  9
$DIMUNIT
 70
               2
  9
$DIMDEC
 70
               4
  9
$DIMTDEC
 70
               4
  9
$DIMALTU
 70
               2
  9
$DIMALTTD
 70
               4
  9
$DIMTXSTY
  7
MX_NOTE_STANDARD
  9
$DIMAUNIT
 70
               0
  9
$LUNITS
 70
               2
  9
$LUPREC
 70
               4
  9
$SKETCHINC
 40
0.1
  9
$FILLETRAD
 40
0.0
  9
$AUNITS
 70
               0
  9
$AUPREC
 70
               0
  9
$MENU
  1
acad
  9
$ELEVATION
 40
0.0
  9
$PELEVATION
 40
0.0
  9
$THICKNESS
 40
0.0
  9
$LIMCHECK
 70
               0
  9
$BLIPMODE
 70
               1
  9
$CHAMFERA
 40
0.0
  9
$CHAMFERB
 40
0.0
  9
$CHAMFERC
 40
0.0
  9
$CHAMFERD
 40
0.0
  9
$SKPOLY
 70
               0
  9
$TDCREATE
 40
2453378.356296296
  9
$TDUPDATE
 40
2453378.356296296
  9
$TDINDWG
 40
0.0000000000
  9
$TDUSRTIMER
 40
0.0000000000
  9
$USRTIMER
 70
               1
  9
$ANGBASE
 50
0.0
  9
$ANGDIR
 70
               0
  9
$PDMODE
 70
               0
  9
$PDSIZE
 40
0.0
  9
$PLINEWID
 40
0.0
  9
$COORDS
 70
               1
  9
$SPLFRAME
 70
               0
  9
$SPLINETYPE
 70
               6
  9
$SPLINESEGS
 70
               8
  9
$ATTDIA
 70
               0
  9
$ATTREQ
 70
               1
  9
$HANDLING
 70
               1
  9
$HANDSEED
  5
1A7
  9
$SURFTAB1
 70
               6
  9
$SURFTAB2
 70
               6
  9
$SURFTYPE
 70
               6
  9
$SURFU
 70
               6
  9
$SURFV
 70
               6
  9
$UCSNAME
  2

  9
$UCSORG
 10
0.0
 20
0.0
 30
0.0
  9
$UCSXDIR
 10
1.0
 20
0.0
 30
0.0
  9
$UCSYDIR
 10
0.0
 20
1.0
 30
0.0
  9
$PUCSNAME
  2

  9
$PUCSORG
 10
0.0
 20
0.0
 30
0.0
  9
$PUCSXDIR
 10
1.0
 20
0.0
 30
0.0
  9
$PUCSYDIR
 10
0.0
 20
1.0
 30
0.0
  9
$USERI1
 70
               0
  9
$USERI2
 70
               0
  9
$USERI3
 70
               0
  9
$USERI4
 70
               0
  9
$USERI5
 70
               0
  9
$USERR1
 40
0.0
  9
$USERR2
 40
0.0
  9
$USERR3
 40
0.0
  9
$USERR4
 40
0.0
  9
$USERR5
 40
0.0
  9
$WORLDVIEW
 70
               1
  9
$SHADEDGE
 70
               3
  9
$SHADEDIF
 70
              70
  9
$TILEMODE
 70
               1
  9
$MAXACTVP
 70
              16
  9
$PINSBASE
 10
0.0
 20
0.0
 30
0.0
  9
$PLIMCHECK
 70
               0
  9
$PEXTMIN
 10
1.0000000000000000E+20
 20
1.0000000000000000E+20
 30
1.0000000000000000E+20
  9
$PEXTMAX
 10
-1.0000000000000000E+20
 20
-1.0000000000000000E+20
 30
-1.0000000000000000E+20
  9
$PLIMMIN
 10
0.0
 20
0.0
  9
$PLIMMAX
 10
12.0
 20
9.0
  9
$UNITMODE
 70
               0
  9
$VISRETAIN
 70
               0
  9
$PLINEGEN
 70
               1
  9
$PSLTSCALE
 70
               0
  9
$TREEDEPTH
 70
            3020
  9
$PICKSTYLE
 70
               1
  9
$CMLSTYLE
  2
Standard
  9
$CMLJUST
 70
               0
  9
$CMLSCALE
 40
1.0
  9
$SAVEIMAGES
 70
               0
  0
ENDSEC
  0
SECTION
  2
CLASSES
  0
CLASS
  1
LWPOLYLINE
  2
AcDbPolyline
  3
"AutoCAD"
 90
        0
280
               0
281
               1
  0
CLASS
  1
IMAGE
  2
AcDbRasterImage
  3
ISM
 90
      127
280
               0
281
               1
  0
CLASS
  1
OLE2FRAME
  2
AcDbOle2Frame
  3
""
 90
        0
280
               0
281
               1
  0
CLASS
  1
HATCH
  2
AcDbHatch
  3
"ACAD_SEDONA"
 90
        0
280
               0
281
               1
  0
CLASS
  1
DICTIONARYVAR
  2
AcDbDictionaryVar
  3
"AutoCAD"
 90
        0
280
               0
281
               0
  0
CLASS
  1
RASTERVARIABLES
  2
AcDbRasterVariables
  3
ISM
 90
        0
280
               0
281
               0
  0
CLASS
  1
IMAGEDEF
  2
AcDbRasterImageDef
  3
ISM
 90
        0
280
               0
281
               0
  0
CLASS
  1
IMAGEDEF_REACTOR
  2
AcDbRasterImageDefReactor
  3
ISM
 90
        1
280
               0
281
               0
  0
CLASS
  1
IDBUFFER
  2
AcDbIdBuffer
  3
"Acad"
 90
        0
280
               0
281
               0
  0
CLASS
  1
SPATIAL_FILTER
  2
AcDbSpatialFilter
  3
"Acad"
 90
        0
280
               0
281
               0
  0
CLASS
  1
XRECORD
  2
AcDbXrecord
  3
"<Built In>"
 90
        0
280
               0
281
               0
  0
CLASS
  1
SORTENTSTABLE
  2
AcDbSortentsTable
  3
"AutoCAD"
 90
        0
280
               0
281
               0
  0
CLASS
  1
LAYER_INDEX
  2
AcDbLayerIndex
  3
"Acad"
 90
        0
280
               0
281
               0
  0
CLASS
  1
SPATIAL_INDEX
  2
AcDbSpatialIndex
  3
"Acad"
 90
        0
280
               0
281
               0
  0
CLASS
  1
OBJECT_PTR
  2
CAseDLPNTableRecord
  3
"ASE-LPNTableRecord"
 90
        1
280
               0
281
               0
  0
CLASS
  1
LAYOUT
  2
AcDbLayout
  3
"AutoCAD 2000"
 90
        1
280
               0
281
               0
  0
CLASS
  1
PLOTSETTINGS
  2
AcDbPlotSettings
  3
"AutoCAD 2000"
 90
        1
280
               0
281
               0
  0
CLASS
  1
ACDBDICTIONARYWDFLT
  2
AcDbDictionaryWithDefault
  3
"AutoCAD 2000"
 90
        1
280
               0
281
               0
  0
CLASS
  1
ACDBPLACEHOLDER
  2
AcDbPlaceHolder
  3
"AutoCAD 2000"
 90
        1
280
               0
281
               0
  0
ENDSEC
  0
SECTION
  2
TABLES
  0
TABLE
  2
VPORT
  5
7
100
AcDbSymbolTable
 70
               1
  0
VPORT
  5
15
100
AcDbSymbolTableRecord
100
AcDbViewportTableRecord
  2
*ACTIVE
 70
               0
 10
0.0
 20
0.0
 11
1.0
 21
1.0
 12
1.0111800427316666
 22
-0.4499969482421875
 13
0.0
 23
0.0
 14
1.0
 24
1.0
 15
0.0
 25
0.0
 16
0.0
 26
0.0
 36
1.0
 17
0.0
 27
0.0
 37
0.0
 40
268.76100616455079
 41
1.7320508075688772
 42
50.0
 43
0.0
 44
0.0
 50
0.0
 51
0.0
 71
               0
 72
             100
 73
               1
 74
               1
 75
               0
 76
               0
 77
               0
 78
               0
  0
ENDTAB
  0
TABLE
  2
LTYPE
  5
4
100
AcDbSymbolTable
 70
               4
  0
LTYPE
  5
11
100
AcDbSymbolTableRecord
100
AcDbLinetypeTableRecord
  2
BYBLOCK
 70
              64
  3

 72
              65
 73
               0
 40
0.0
  0
LTYPE
  5
12
100
AcDbSymbolTableRecord
100
AcDbLinetypeTableRecord
  2
BYLAYER
 70
              64
  3

 72
              65
 73
               0
 40
0.0
  0
LTYPE
  5
13
100
AcDbSymbolTableRecord
100
AcDbLinetypeTableRecord
  2
CONTINUOUS
 70
              64
  3
Solid line
 72
              65
 73
               0
 40
0.0
  0
LTYPE
  5
19E
100
AcDbSymbolTableRecord
100
AcDbLinetypeTableRecord
  2
PHANTOM
 70
              64
  3
Phantom ______  __  __  ______  __  __  ______
 72
              65
 73
               6
 40
30.0
 49
20.0
 74
               0
 49
-2.0
 74
               0
 49
2.0
 74
               0
 49
-2.0
 74
               0
 49
2.0
 74
               0
 49
-2.0
 74
               0
  0
ENDTAB
  0
TABLE
  2
LAYER
  5
2
100
AcDbSymbolTable
 70
               2
  0
LAYER
  5
14
100
AcDbSymbolTableRecord
100
AcDbLayerTableRecord
  2
0
 70
               0
 62
               7
  6
CONTINUOUS
  0
LAYER
  5
1D
100
AcDbSymbolTableRecord
100
AcDbLayerTableRecord
  2
DEFPOINTS
 70
               0
 62
               7
  6
CONTINUOUS
  0
ENDTAB
  0
TABLE
  2
STYLE
  5
3
100
AcDbSymbolTable
 70
               1
  0
STYLE
  5
17
100
AcDbSymbolTableRecord
100
AcDbTextStyleTableRecord
  2
MX_NOTE_STANDARD
 70
               0
 40
0.0
 41
1.0
 50
0.0
 71
               0
 42
3.2000000476837158
  3
txt.shx
  4
extfont.shx
  0
ENDTAB
  0
TABLE
  2
VIEW
  5
5
100
AcDbSymbolTable
 70
               0
  0
ENDTAB
  0
TABLE
  2
UCS
  5
6
100
AcDbSymbolTable
 70
               0
  0
ENDTAB
  0
TABLE
  2
APPID
  5
8
100
AcDbSymbolTable
 70
               1
  0
APPID
  5
16
100
AcDbSymbolTableRecord
100
AcDbRegAppTableRecord
  2
ACAD
 70
               0
  0
ENDTAB
  0
TABLE
  2
DIMSTYLE
  5
9
100
AcDbSymbolTable
 70
               1
  0
DIMSTYLE
105
18
100
AcDbSymbolTableRecord
100
AcDbDimStyleTableRecord
  2
MXDIMSTYLE
 70
               0
  3

  4

  5

  6

  7

 40
1.0
 41
2.5
 42
1.5
 43
3.75
 44
1.5
 45
0.0
 46
0.0
 47
0.0
 48
0.0
 71
               0
 72
               0
 73
               0
 74
               0
 75
               0
 76
               0
 77
               1
 78
               8
140
3.2000000476837158
141
2.5
142
0.0
143
0.03937007874016
144
1.0
145
0.0
146
1.0
147
1.0
170
               0
171
               4
172
               1
173
               0
174
               0
175
               0
176
               0
177
               0
178
               0
270
               2
271
               4
272
               4
273
               2
274
               4
275
               0
280
               0
281
               0
282
               0
283
               1
284
               0
285
               0
286
               0
287
               3
288
               1
340
17
  0
ENDTAB
  0
TABLE
  2
BLOCK_RECORD
  5
1
100
AcDbSymbolTable
 70
               3
  0
BLOCK_RECORD
  5
A
100
AcDbSymbolTableRecord
100
AcDbBlockTableRecord
  2
*MODEL_SPACE
  0
BLOCK_RECORD
  5
B
100
AcDbSymbolTableRecord
100
AcDbBlockTableRecord
  2
*PAPER_SPACE
  0
BLOCK_RECORD
  5
1E
100
AcDbSymbolTableRecord
100
AcDbBlockTableRecord
  2
DTRY-NZL100FMT-1
  0
BLOCK_RECORD
  5
1F
100
AcDbSymbolTableRecord
100
AcDbBlockTableRecord
  2
DTRY-NZL100FMT-2
  0
BLOCK_RECORD
  5
20
100
AcDbSymbolTableRecord
100
AcDbBlockTableRecord
  2
DTRY-NZL100FMT-3
  0
ENDTAB
  0
ENDSEC
  0
SECTION
  2
BLOCKS
  0
BLOCK
  5
D
100
AcDbEntity
  8
0
100
AcDbBlockBegin
  2
*MODEL_SPACE
 70
               0
 10
0.0
 20
0.0
 30
0.0
  3
*MODEL_SPACE
  1

  0
ENDBLK
  5
E
100
AcDbEntity
  8
0
100
AcDbBlockEnd
  0
BLOCK
  5
F
100
AcDbEntity
 67
               1
  8
0
100
AcDbBlockBegin
  2
*PAPER_SPACE
 70
               0
 10
0.0
 20
0.0
 30
0.0
  3
*PAPER_SPACE
  1

  0
ENDBLK
  5
10
100
AcDbEntity
 67
               1
  8
0
100
AcDbBlockEnd
  0
BLOCK
  5
21
100
AcDbEntity
  8
0
100
AcDbBlockBegin
  2
DTRY-NZL100FMT-1
 70
               0
 10
0.0
 20
0.0
 30
0.0
  3
DTRY-NZL100FMT-1
  1

  0
LINE
  5
22
100
AcDbEntity
  8
0
  6
CONTINUOUS
 62
               7
100
AcDbLine
 10
37.702616614376097
 20
73.0
 30
0.0
 11
20.0
 21
73.0
 31
0.0
  0
LINE
  5
23
100
AcDbEntity
  8
0
  6
CONTINUOUS
 62
               7
100
AcDbLine
 10
37.702616614376097
 20
67.0
 30
0.0
 11
20.0
 21
67.0
 31
0.0
  0
LINE
  5
24
100
AcDbEntity
  8
0
  6
CONTINUOUS
 62
               2
100
AcDbLine
 10
20.0
 20
70.000000042762238
 30
0.0
 11
206.27849252677282
 21
70.000000042762238
 31
0.0
  0
LINE
  5
25
100
AcDbEntity
  8
0
  6
CONTINUOUS
 62
               7
100
AcDbLine
 10
-7.0
 20
-7.9000000000000057
 30
0.0
 11
-7.0
 21
-1.5
 31
0.0
  0
LINE
  5
26
100
AcDbEntity
  8
0
  6
CONTINUOUS
 62
               7
100
AcDbLine
 10
-11.0
 20
0.0
 30
0.0
 11
-11.0
 21
2.0
 31
0.0
  0
LINE
  5
27
100
AcDbEntity
  8
0
  6
CONTINUOUS
 62
               2
100
AcDbLine
 10
-6.5
 20
-8.4000000000000057
 30
0.0
 11
-6.5
 21
-1.5
 31
0.0
  0
LINE
  5
28
100
AcDbEntity
  8
0
  6
CONTINUOUS
 62
               7
100
AcDbLine
 10
-6.2000000000000028
 20
-1.5
 30
0.0
 11
-6.2000000000000028
 21
0.0
 31
0.0
  0
LINE
  5
29
100
AcDbEntity
  8
0
  6
CONTINUOUS
 62
               7
100
AcDbLine
 10
6.4000000000000057
 20
-8.5
 30
0.0
 11
-6.3999999999999915
 21
-8.5
 31
0.0
  0
LINE
  5
2A
100
AcDbEntity
  8
0
  6
CONTINUOUS
 62
               7
100
AcDbLine
 10
6.2000000000000028
 20
-1.5
 30
0.0
 11
6.2000000000000028
 21
0.0
 31
0.0
  0
LINE
  5
2B
100
AcDbEntity
  8
0
  6
CONTINUOUS
 62
               7
100
AcDbLine
 10
11.0
 20
0.0
 30
0.0
 11
-11.0
 21
0.0
 31
0.0
  0
LINE
  5
2C
100
AcDbEntity
  8
0
  6
CONTINUOUS
 62
               2
100
AcDbLine
 10
6.5
 20
-8.4000000000000057
 30
0.0
 11
6.5
 21
-1.5
 31
0.0
  0
LINE
  5
2D
100
AcDbEntity
  8
0
  6
CONTINUOUS
 62
               7
100
AcDbLine
 10
7.0
 20
-1.5
 30
0.0
 11
-7.0
 21
-1.5
 31
0.0
  0
LINE
  5
2E
100
AcDbEntity
  8
0
  6
CONTINUOUS
 62
               7
100
AcDbLine
 10
7.0
 20
-7.9000000000000057
 30
0.0
 11
7.0
 21
-1.5
 31
0.0
  0
LINE
  5
2F
100
AcDbEntity
  8
0
  6
CONTINUOUS
 62
               7
100
AcDbLine
 10
11.0
 20
0.0
 30
0.0
 11
11.0
 21
2.0
 31
0.0
  0
LINE
  5
30
100
AcDbEntity
  8
0
  6
CONTINUOUS
 62
               7
100
AcDbLine
 10
11.0
 20
2.0
 30
0.0
 11
-11.0
 21
2.0
 31
0.0
  0
LINE
  5
31
100
AcDbEntity
  8
0
  6
CONTINUOUS
 62
               7
100
AcDbLine
 10
10.5
 20
0.0
 30
0.0
 11
10.5
 21
2.0
 31
0.0
  0
LINE
  5
32
100
AcDbEntity
  8
0
  6
CONTINUOUS
 62
               7
100
AcDbLine
 10
10.0
 20
0.0
 30
0.0
 11
10.0
 21
2.0
 31
0.0
  0
LINE
  5
33
100
AcDbEntity
  8
0
  6
CONTINUOUS
 62
               7
100
AcDbLine
 10
9.5
 20
0.0
 30
0.0
 11
9.5
 21
1.6204153620790152
 31
0.0
  0
LINE
  5
34
100
AcDbEntity
  8
0
  6
CONTINUOUS
 62
               7
100
AcDbLine
 10
8.5
 20
0.0
 30
0.0
 11
8.5
 21
1.1499365458052466
 31
0.0
  0
LINE
  5
35
100
AcDbEntity
  8
0
  6
CONTINUOUS
 62
               7
100
AcDbLine
 10
7.5
 20
0.0
 30
0.0
 11
7.5
 21
0.7578708655771038
 31
0.0
  0
LINE
  5
36
100
AcDbEntity
  8
0
  6
CONTINUOUS
 62
               7
100
AcDbLine
 10
-7.0
 20
-7.9000000000000057
 30
0.0
 11
-6.3999999999999915
 21
-8.5
 31
0.0
  0
LINE
  5
37
100
AcDbEntity
  8
0
  6
CONTINUOUS
 62
               7
100
AcDbLine
 10
6.4000000000000057
 20
-8.5
 30
0.0
 11
7.0
 21
-7.9000000000000057
 31
0.0
  0
LINE
  5
38
100
AcDbEntity
  8
0
  6
CONTINUOUS
 62
               7
100
AcDbLine
 10
7.0
 20
-7.9000000000000057
 30
0.0
 11
-7.0
 21
-7.9000000000000057
 31
0.0
  0
LINE
  5
39
100
AcDbEntity
  8
0
  6
CONTINUOUS
 62
               7
100
AcDbLine
 10
-6.0
 20
14.0
 30
0.0
 11
-11.0
 21
2.0
 31
0.0
  0
LINE
  5
3A
100
AcDbEntity
  8
0
  6
CONTINUOUS
 62
               7
100
AcDbLine
 10
11.0
 20
2.0
 30
0.0
 11
6.0
 21
14.0
 31
0.0
  0
LINE
  5
3B
100
AcDbEntity
  8
0
  6
CONTINUOUS
 62
               7
100
AcDbLine
 10
6.0
 20
14.0
 30
0.0
 11
-6.0
 21
14.0
 31
0.0
  0
LINE
  5
3C
100
AcDbEntity
  8
0
  6
CONTINUOUS
 62
               7
100
AcDbLine
 10
-5.5
 20
32.282913388988476
 30
0.0
 11
5.5
 21
32.282913388988476
 31
0.0
  0
LINE
  5
3D
100
AcDbEntity
  8
0
  6
CONTINUOUS
 62
               7
100
AcDbLine
 10
-6.0
 20
21.282913388988476
 30
0.0
 11
5.9999999275658666
 21
21.282913388988476
 31
0.0
  0
LINE
  5
3E
100
AcDbEntity
  8
0
  6
CONTINUOUS
 62
               7
100
AcDbLine
 10
6.928203252866453
 20
29.747014983907277
 30
0.0
 11
6.928203252866453
 21
21.818811806323623
 31
0.0
  0
LINE
  5
3F
100
AcDbEntity
  8
0
  6
CONTINUOUS
 62
               7
100
AcDbLine
 10
-6.928203252866453
 20
29.74701500404926
 30
0.0
 11
-6.928203252866453
 21
21.818811786898962
 31
0.0
  0
LINE
  5
40
100
AcDbEntity
  8
0
  6
CONTINUOUS
 62
               7
100
AcDbLine
 10
6.0
 20
31.782913388988476
 30
0.0
 11
6.0
 21
30.282913388988476
 31
0.0
  0
LINE
  5
41
100
AcDbEntity
  8
0
  6
CONTINUOUS
 62
               7
100
AcDbLine
 10
-6.0
 20
31.782913388988476
 30
0.0
 11
-6.0
 21
30.282913388988476
 31
0.0
  0
LINE
  5
42
100
AcDbEntity
  8
0
  6
CONTINUOUS
 62
               7
100
AcDbLine
 10
5.999999957368189
 20
30.282913410375272
 30
0.0
 11
6.9282032123063146
 21
29.747015008042013
 31
0.0
  0
LINE
  5
43
100
AcDbEntity
  8
0
  6
CONTINUOUS
 62
               7
100
AcDbLine
 10
-6.9282032975699366
 20
29.74701497823969
 30
0.0
 11
-6.0
 21
30.282913401954403
 31
0.0
  0
LINE
  5
44
100
AcDbEntity
  8
0
  6
CONTINUOUS
 62
               7
100
AcDbLine
 10
5.5
 20
32.282913388988476
 30
0.0
 11
6.0
 21
31.782913388988476
 31
0.0
  0
LINE
  5
45
100
AcDbEntity
  8
0
  6
CONTINUOUS
 62
               7
100
AcDbLine
 10
-5.5
 20
32.282913388988476
 30
0.0
 11
-6.0
 21
31.782913388988476
 31
0.0
  0
LINE
  5
46
100
AcDbEntity
  8
0
  6
CONTINUOUS
 62
               7
100
AcDbLine
 10
5.9999999275658666
 20
21.282913365671789
 30
0.0
 11
6.9282032123063146
 21
21.818811782906209
 31
0.0
  0
LINE
  5
47
100
AcDbEntity
  8
0
  6
CONTINUOUS
 62
               7
100
AcDbLine
 10
-6.9282032975699366
 20
21.818811812708532
 30
0.0
 11
-5.9999999999907345
 21
21.282913388988476
 31
0.0
  0
LINE
  5
48
100
AcDbEntity
  8
0
  6
CONTINUOUS
 62
               7
100
AcDbLine
 10
5.7499999714815146
 20
18.566987329109296
 30
0.0
 11
5.0000000310861594
 21
18.99999999342738
 31
0.0
  0
LINE
  5
49
100
AcDbEntity
  8
0
  6
CONTINUOUS
 62
               7
100
AcDbLine
 10
-4.999999998716163
 20
18.999999978526219
 30
0.0
 11
-5.7499999689138406
 21
18.566987284405812
 31
0.0
  0
LINE
  5
4A
100
AcDbEntity
  8
0
  6
CONTINUOUS
 62
               7
100
AcDbLine
 10
5.0000000197020427
 20
19.0
 30
0.0
 11
-4.9999999615224766
 21
19.0
 31
0.0
  0
LINE
  5
4B
100
AcDbEntity
  8
0
  6
CONTINUOUS
 62
               7
100
AcDbLine
 10
4.8640000069994471
 20
21.0
 30
0.0
 11
-4.8639999930005615
 21
21.0
 31
0.0
  0
LINE
  5
4C
100
AcDbEntity
  8
0
  6
CONTINUOUS
 62
               7
100
AcDbLine
 10
4.0000000069994428
 20
19.0
 30
0.0
 11
4.0000000069994428
 21
21.0
 31
0.0
  0
LINE
  5
4D
100
AcDbEntity
  8
0
  6
CONTINUOUS
 62
               7
100
AcDbLine
 10
-3.9999999930005572
 20
19.0
 30
0.0
 11
-3.9999999930005572
 21
21.0
 31
0.0
  0
LINE
  5
4E
100
AcDbEntity
  8
0
  6
CONTINUOUS
 62
               7
100
AcDbLine
 10
5.7500000069994428
 20
14.0
 30
0.0
 11
5.7500000069994428
 21
18.566987308603004
 31
0.0
  0
LINE
  5
4F
100
AcDbEntity
  8
0
  6
CONTINUOUS
 62
               7
100
AcDbLine
 10
-5.7499999930005572
 20
14.0
 30
0.0
 11
-5.7499999930005572
 21
18.56698727049934
 31
0.0
  0
LINE
  5
50
100
AcDbEntity
  8
0
  6
CONTINUOUS
 62
               7
100
AcDbLine
 10
4.8640000069994471
 20
20.999999972862923
 30
0.0
 11
4.8640000069994471
 21
21.282913388988476
 31
0.0
  0
LINE
  5
51
100
AcDbEntity
  8
0
  6
CONTINUOUS
 62
               7
100
AcDbLine
 10
-4.8639999930005615
 20
20.999999972862923
 30
0.0
 11
-4.8639999930005615
 21
21.28291335968467
 31
0.0
  0
LINE
  5
52
100
AcDbEntity
  8
0
  6
CONTINUOUS
 62
               7
100
AcDbLine
 10
-6.0
 20
30.282913388988476
 30
0.0
 11
6.0
 21
30.282913385761784
 31
0.0
  0
LINE
  5
53
100
AcDbEntity
  8
0
  6
CONTINUOUS
 62
               7
100
AcDbLine
 10
-6.0
 20
31.782913388988476
 30
0.0
 11
6.0
 21
31.782913388988476
 31
0.0
  0
LINE
  5
54
100
AcDbEntity
  8
0
  6
CONTINUOUS
 62
               7
100
AcDbLine
 10
-3.4641015955950678
 20
22.282913415747462
 30
0.0
 11
-3.4641015955950678
 21
29.282913359684677
 31
0.0
  0
LINE
  5
55
100
AcDbEntity
  8
0
  6
CONTINUOUS
 62
               7
100
AcDbLine
 10
3.4641015955950678
 20
22.282913415747473
 30
0.0
 11
3.4641015955950678
 21
29.28291335968467
 31
0.0
  0
ARC
  5
56
100
AcDbEntity
  8
0
  6
CONTINUOUS
 62
               7
100
AcDbCircle
 10
5.196152431686528
 20
28.282913336109644
 30
0.0
 40
2.0000000364887889
100
AcDbArc
 50
89.999999984593501
 51
149.99999982366373
  0
ARC
  5
57
100
AcDbEntity
  8
0
  6
CONTINUOUS
 62
               7
100
AcDbCircle
 10
-5.196152431686528
 20
28.282913336109644
 30
0.0
 40
2.0000000364887889
100
AcDbArc
 50
30.00000017633586
 51
90.000000015406101
  0
ARC
  5
58
100
AcDbEntity
  8
0
  6
CONTINUOUS
 62
               7
100
AcDbCircle
 10
5.196152431686528
 20
23.282913439322499
 30
0.0
 40
2.0000000364887889
100
AcDbArc
 50
210.00000017633548
 51
270.0000000154057
  0
ARC
  5
59
100
AcDbEntity
  8
0
  6
CONTINUOUS
 62
               7
100
AcDbCircle
 10
-5.196152431686528
 20
23.282913439322499
 30
0.0
 40
2.0000000364887889
100
AcDbArc
 50
269.9999999845931
 51
329.99999982366336
  0
ARC
  5
5A
100
AcDbEntity
  8
0
  6
CONTINUOUS
 62
               7
100
AcDbCircle
 10
0.0
 20
23.782913607370514
 30
0.0
 40
6.4999997800046208
100
AcDbArc
 50
57.795771478232105
 51
122.20422852176736
  0
ARC
  5
5B
100
AcDbEntity
  8
0
  6
CONTINUOUS
 62
               7
100
AcDbCircle
 10
0.0
 20
27.782913168061626
 30
0.0
 40
6.4999997800046208
100
AcDbArc
 50
237.79577147823181
 51
302.20422852176711
  0
LINE
  5
5C
100
AcDbEntity
  8
0
  6
CONTINUOUS
 62
               7
100
AcDbLine
 10
-3.0
 20
14.0
 30
0.0
 11
-3.0
 21
18.5
 31
0.0
  0
LINE
  5
5D
100
AcDbEntity
  8
0
  6
CONTINUOUS
 62
               7
100
AcDbLine
 10
3.0
 20
14.0
 30
0.0
 11
3.0
 21
18.5
 31
0.0
  0
ARC
  5
5E
100
AcDbEntity
  8
0
  6
CONTINUOUS
 62
               7
100
AcDbCircle
 10
4.3750000034997214
 20
16.85937499037577
 30
0.0
 40
2.1406250096242339
100
AcDbArc
 50
89.999999999999815
 51
129.96621295012645
  0
ARC
  5
5F
100
AcDbEntity
  8
0
  6
CONTINUOUS
 62
               7
100
AcDbCircle
 10
-4.3750000034997214
 20
16.85937499037577
 30
0.0
 40
2.1406250096242339
100
AcDbArc
 50
50.033787049873155
 51
89.999999999999815
  0
ARC
  5
60
100
AcDbEntity
  8
0
  6
CONTINUOUS
 62
               7
100
AcDbCircle
 10
0.0
 20
9.7499999999999716
 30
0.0
 40
9.2500000000000266
100
AcDbArc
 50
71.075355583948664
 51
108.92464441605094
  0
LINE
  5
61
100
AcDbEntity
  8
0
  6
CONTINUOUS
 62
               7
100
AcDbLine
 10
3.0
 20
50.0
 30
0.0
 11
3.0
 21
32.282913388988476
 31
0.0
  0
LINE
  5
62
100
AcDbEntity
  8
0
  6
CONTINUOUS
 62
               7
100
AcDbLine
 10
-3.0
 20
50.0
 30
0.0
 11
-3.0
 21
32.282913388988476
 31
0.0
  0
LINE
  5
63
100
AcDbEntity
  8
0
  6
CONTINUOUS
 62
               2
100
AcDbLine
 10
0.0
 20
-14.206401366826803
 30
0.0
 11
0.0
 21
49.999999999999993
 31
0.0
  0
ARC
  5
64
100
AcDbEntity
  8
0
  6
CONTINUOUS
 62
               7
100
AcDbCircle
 10
20.0
 20
50.0
 30
0.0
 40
17.0
100
AcDbArc
 50
89.999999999999815
 51
179.99999999999963
  0
ARC
  5
65
100
AcDbEntity
  8
0
  6
CONTINUOUS
 62
               7
100
AcDbCircle
 10
20.0
 20
50.0
 30
0.0
 40
23.0
100
AcDbArc
 50
89.999999999999815
 51
179.99999999999963
  0
ARC
  5
66
100
AcDbEntity
  8
0
  6
CONTINUOUS
 62
               2
100
AcDbCircle
 10
20.0
 20
50.0
 30
0.0
 40
20.0
100
AcDbArc
 50
89.999999999999815
 51
179.99999999999963
  0
ARC
  5
67
100
AcDbEntity
  8
0
  6
CONTINUOUS
 62
               7
100
AcDbCircle
 10
62.450900660900906
 20
64.80384760359604
 30
0.0
 40
3.0669871978581349
100
AcDbArc
 50
145.61575137457203
 51
179.99999999999963
  0
ARC
  5
68
100
AcDbEntity
  8
0
  6
CONTINUOUS
 62
               7
100
AcDbCircle
 10
65.316926286571416
 20
64.80384760359604
 30
0.0
 40
3.0669871978581504
100
AcDbArc
 50
0.0
 51
34.38424862542734
  0
ARC
  5
69
100
AcDbEntity
  8
0
  6
CONTINUOUS
 62
               7
100
AcDbCircle
 10
42.769603790847455
 20
64.80384760359604
 30
0.0
 40
3.0669871978581504
100
AcDbArc
 50
145.61575137457226
 51
179.99999999999963
  0
ARC
  5
6A
100
AcDbEntity
  8
0
  6
CONTINUOUS
 62
               7
100
AcDbCircle
 10
45.635629416517965
 20
64.80384760359604
 30
0.0
 40
3.0669871978581349
100
AcDbArc
 50
0.0
 51
34.384248625427567
  0
LINE
  5
6B
100
AcDbEntity
  8
0
  6
CONTINUOUS
 62
               7
100
AcDbLine
 10
197.96076952489625
 20
73.800000006999454
 30
0.0
 11
197.96076952489625
 21
66.200000006999446
 31
0.0
  0
LINE
  5
6C
100
AcDbEntity
  8
0
  6
CONTINUOUS
 62
               7
100
AcDbLine
 10
196.49999999437964
 20
73.800000006999454
 30
0.0
 11
196.49999999437964
 21
66.200000006999446
 31
0.0
  0
LINE
  5
6D
100
AcDbEntity
  8
0
  6
CONTINUOUS
 62
               7
100
AcDbLine
 10
195.99999999643626
 20
73.300000009056063
 30
0.0
 11
195.99999999643626
 21
66.700000004942822
 31
0.0
  0
LINE
  5
6E
100
AcDbEntity
  8
0
  6
CONTINUOUS
 62
               7
100
AcDbLine
 10
195.50000001339404
 20
73.800000006999454
 30
0.0
 11
195.50000001339404
 21
66.200000006999446
 31
0.0
  0
LINE
  5
6F
100
AcDbEntity
  8
0
  6
CONTINUOUS
 62
               7
100
AcDbLine
 10
57.043265038709436
 20
63.500000042762238
 30
0.0
 11
57.043265038709436
 21
76.500000042762238
 31
0.0
  0
LINE
  5
70
100
AcDbEntity
  8
0
  6
CONTINUOUS
 62
               7
100
AcDbLine
 10
49.043265038709436
 20
74.864000042762243
 30
0.0
 11
49.043265038709436
 21
65.136000042762234
 31
0.0
  0
LINE
  5
71
100
AcDbEntity
  8
0
  6
CONTINUOUS
 62
               7
100
AcDbLine
 10
51.043265038709436
 20
66.000000042762238
 30
0.0
 11
49.043265038709436
 21
66.000000042762238
 31
0.0
  0
LINE
  5
72
100
AcDbEntity
  8
0
  6
CONTINUOUS
 62
               7
100
AcDbLine
 10
51.043265038709436
 20
74.000000042762238
 30
0.0
 11
49.043265038709436
 21
74.000000042762238
 31
0.0
  0
LINE
  5
73
100
AcDbEntity
  8
0
  6
CONTINUOUS
 62
               2
100
AcDbLine
 10
49.043265038709436
 20
65.717000042762237
 30
0.0
 11
48.702616614376097
 21
65.717000042762237
 31
0.0
  0
LINE
  5
74
100
AcDbEntity
  8
0
  6
CONTINUOUS
 62
               2
100
AcDbLine
 10
49.043265038709436
 20
74.283000042762239
 30
0.0
 11
48.702616614376097
 21
74.283000042762239
 31
0.0
  0
LINE
  5
75
100
AcDbEntity
  8
0
  6
CONTINUOUS
 62
               7
100
AcDbLine
 10
49.043265038709436
 20
65.136000042762234
 30
0.0
 11
48.702616614376097
 21
65.136000042762234
 31
0.0
  0
LINE
  5
76
100
AcDbEntity
  8
0
  6
CONTINUOUS
 62
               7
100
AcDbLine
 10
49.043265038709436
 20
74.864000042762243
 30
0.0
 11
48.702616614376097
 21
74.864000042762243
 31
0.0
  0
LINE
  5
77
100
AcDbEntity
  8
0
  6
CONTINUOUS
 62
               7
100
AcDbLine
 10
51.043265038709436
 20
63.500000042762238
 30
0.0
 11
51.043265038709436
 21
76.500000042762238
 31
0.0
  0
LINE
  5
78
100
AcDbEntity
  8
0
  6
CONTINUOUS
 62
               7
100
AcDbLine
 10
56.12937512177534
 20
78.082903811416998
 30
0.0
 11
51.957154955643531
 21
78.082903811416998
 31
0.0
  0
LINE
  5
79
100
AcDbEntity
  8
0
  6
CONTINUOUS
 62
               7
100
AcDbLine
 10
56.129375121775333
 20
61.917096274107472
 30
0.0
 11
51.957154955643531
 21
61.917096274107472
 31
0.0
  0
LINE
  5
7A
100
AcDbEntity
  8
0
  6
CONTINUOUS
 62
               7
100
AcDbLine
 10
56.12937512177534
 20
74.041451927089625
 30
0.0
 11
51.957154955643531
 21
74.041451927089625
 31
0.0
  0
LINE
  5
7B
100
AcDbEntity
  8
0
  6
CONTINUOUS
 62
               7
100
AcDbLine
 10
56.12937512177534
 20
65.958548158434866
 30
0.0
 11
51.957154955643531
 21
65.958548158434866
 31
0.0
  0
LINE
  5
7C
100
AcDbEntity
  8
0
  6
CONTINUOUS
 62
               7
100
AcDbLine
 10
57.043265038709436
 20
76.500000042762238
 30
0.0
 11
56.12937512177534
 21
78.082903811416998
 31
0.0
  0
LINE
  5
7D
100
AcDbEntity
  8
0
  6
CONTINUOUS
 62
               7
100
AcDbLine
 10
51.043265038709436
 20
76.500000042762238
 30
0.0
 11
51.957154955643531
 21
78.082903811416998
 31
0.0
  0
LINE
  5
7E
100
AcDbEntity
  8
0
  6
CONTINUOUS
 62
               7
100
AcDbLine
 10
57.043265038709436
 20
63.500000042762238
 30
0.0
 11
56.129375121775333
 21
61.917096274107472
 31
0.0
  0
LINE
  5
7F
100
AcDbEntity
  8
0
  6
CONTINUOUS
 62
               7
100
AcDbLine
 10
51.043265038709436
 20
63.500000042762238
 30
0.0
 11
51.957154955643531
 21
61.917096274107472
 31
0.0
  0
SPLINE
  5
80
100
AcDbEntity
  8
0
  6
CONTINUOUS
 62
               7
100
AcDbSpline
210
0.0
220
0.0
230
1.0
 70
               0
 71
               3
 72
               0
 73
               0
 74
               9
 44
0.000001
 12
0.4120750373626765
 22
-0.9111499127929217
 32
0.0
 13
-0.4120750373626762
 23
-0.9111499127929218
 33
0.0
 11
56.12937512177534
 21
74.041451927089625
 31
0.0
 11
56.51294476807174
 21
73.073115119944063
 31
0.0
 11
56.799748796254448
 21
72.070621473506279
 31
0.0
 11
56.980441955833228
 21
71.04171150030497
 31
0.0
 11
57.043265038709436
 21
70.000000042762238
 31
0.0
 11
56.980441955833228
 21
68.95828858521952
 31
0.0
 11
56.799748796254448
 21
67.929378612018212
 31
0.0
 11
56.51294476807174
 21
66.926884965580427
 31
0.0
 11
56.12937512177534
 21
65.958548158434866
 31
0.0
  0
SPLINE
  5
81
100
AcDbEntity
  8
0
  6
CONTINUOUS
 62
               7
100
AcDbSpline
210
0.0
220
0.0
230
1.0
 70
               0
 71
               3
 72
               0
 73
               0
 74
               9
 44
0.000001
 12
-0.4120750373626764
 22
-0.9111499127929217
 32
0.0
 13
0.4120750373626761
 23
-0.9111499127929219
 33
0.0
 11
51.957154955643531
 21
74.041451927089625
 31
0.0
 11
51.573585309347131
 21
73.073115119944063
 31
0.0
 11
51.286781281164423
 21
72.070621473506279
 31
0.0
 11
51.106088121585643
 21
71.04171150030497
 31
0.0
 11
51.043265038709436
 21
70.000000042762238
 31
0.0
 11
51.106088121585643
 21
68.95828858521952
 31
0.0
 11
51.286781281164423
 21
67.929378612018212
 31
0.0
 11
51.573585309347131
 21
66.926884965580427
 31
0.0
 11
51.957154955643531
 21
65.958548158434866
 31
0.0
  0
LINE
  5
82
100
AcDbEntity
  8
0
  6
CONTINUOUS
 62
               7
100
AcDbLine
 10
48.166718190656042
 20
63.071796745192302
 30
0.0
 11
48.702616614376097
 21
64.000000042771518
 31
0.0
  0
LINE
  5
83
100
AcDbEntity
  8
0
  6
CONTINUOUS
 62
               7
100
AcDbLine
 10
48.702616637692785
 20
75.999999970328105
 30
0.0
 11
48.166718220458364
 21
76.928203255068553
 31
0.0
  0
LINE
  5
84
100
AcDbEntity
  8
0
  6
CONTINUOUS
 62
               7
100
AcDbLine
 10
37.702616614376097
 20
64.500000042762238
 30
0.0
 11
38.202616614376097
 21
64.000000042762238
 31
0.0
  0
LINE
  5
85
100
AcDbEntity
  8
0
  6
CONTINUOUS
 62
               7
100
AcDbLine
 10
37.702616614376097
 20
75.500000042762238
 30
0.0
 11
38.202616614376097
 21
76.000000042762238
 31
0.0
  0
LINE
  5
86
100
AcDbEntity
  8
0
  6
CONTINUOUS
 62
               7
100
AcDbLine
 10
40.238515025124883
 20
63.071796745192302
 30
0.0
 11
39.702616601410185
 21
64.000000042762238
 31
0.0
  0
LINE
  5
87
100
AcDbEntity
  8
0
  6
CONTINUOUS
 62
               7
100
AcDbLine
 10
39.702616592989301
 20
76.000000000130427
 30
0.0
 11
40.238514995322561
 21
76.928203255068553
 31
0.0
  0
LINE
  5
88
100
AcDbEntity
  8
0
  6
CONTINUOUS
 62
               7
100
AcDbLine
 10
38.202616614376097
 20
64.000000042762238
 30
0.0
 11
39.702616614376097
 21
64.000000042762238
 31
0.0
  0
LINE
  5
89
100
AcDbEntity
  8
0
  6
CONTINUOUS
 62
               7
100
AcDbLine
 10
38.202616614376097
 20
76.000000042762238
 30
0.0
 11
39.702616614376097
 21
76.000000042762238
 31
0.0
  0
LINE
  5
8A
100
AcDbEntity
  8
0
  6
CONTINUOUS
 62
               7
100
AcDbLine
 10
40.238514999315314
 20
63.071796789895785
 30
0.0
 11
48.166718190656042
 21
63.071796789895785
 31
0.0
  0
LINE
  5
8B
100
AcDbEntity
  8
0
  6
CONTINUOUS
 62
               7
100
AcDbLine
 10
40.238515019457296
 20
76.928203295628691
 30
0.0
 11
48.166718220458364
 21
76.928203295628691
 31
0.0
  0
LINE
  5
8C
100
AcDbEntity
  8
0
  6
CONTINUOUS
 62
               7
100
AcDbLine
 10
48.702616614376097
 20
64.000000042762238
 30
0.0
 11
48.702616614376097
 21
76.000000042762238
 31
0.0
  0
LINE
  5
8D
100
AcDbEntity
  8
0
  6
CONTINUOUS
 62
               7
100
AcDbLine
 10
37.702616614376097
 20
64.500000042762238
 30
0.0
 11
37.702616614376097
 21
75.500000042762238
 31
0.0
  0
LINE
  5
8E
100
AcDbEntity
  8
0
  6
CONTINUOUS
 62
               7
100
AcDbLine
 10
38.202616614376097
 20
76.000000042762238
 30
0.0
 11
38.202616614376097
 21
64.000000042762238
 31
0.0
  0
LINE
  5
8F
100
AcDbEntity
  8
0
  6
CONTINUOUS
 62
               7
100
AcDbLine
 10
39.702616592989301
 20
76.000000000130427
 30
0.0
 11
39.702616592989301
 21
64.000000042762238
 31
0.0
  0
LINE
  5
90
100
AcDbEntity
  8
0
  6
CONTINUOUS
 62
               7
100
AcDbLine
 10
40.238514995322561
 20
73.464101638357306
 30
0.0
 11
48.166718212042838
 21
73.464101638357306
 31
0.0
  0
LINE
  5
91
100
AcDbEntity
  8
0
  6
CONTINUOUS
 62
               7
100
AcDbLine
 10
40.238514995322561
 20
66.53589840567841
 30
0.0
 11
48.166718212042838
 21
66.53589840567841
 31
0.0
  0
SPLINE
  5
92
100
AcDbEntity
  8
0
  6
CONTINUOUS
 62
               7
100
AcDbSpline
210
0.0
220
0.0
230
1.0
 70
               0
 71
               3
 72
               0
 73
               0
 74
               9
 44
0.000001
 12
-0.295576736991905
 22
-0.9553190004125419
 32
0.0
 13
0.2955767368408807
 23
-0.955319000459269
 33
0.0
 11
40.238514995322561
 21
73.464101638357306
 31
0.0
 11
40.008911214355813
 21
72.616329901006452
 31
0.0
 11
39.841054842647168
 21
71.753690943346186
 31
0.0
 11
39.737769677726035
 21
70.879389622679682
 31
0.0
 11
39.702616592989301
 21
70.000000042762238
 31
0.0
 11
39.737769675428936
 21
69.120610452394516
 31
0.0
 11
39.841054839638375
 21
68.246309121201264
 31
0.0
 11
40.008911212134159
 21
67.383670153139917
 31
0.0
 11
40.238514995322561
 21
66.53589840567841
 31
0.0
  0
SPLINE
  5
93
100
AcDbEntity
  8
0
  6
CONTINUOUS
 62
               7
100
AcDbSpline
210
0.0
220
0.0
230
1.0
 70
               0
 71
               3
 72
               0
 73
               0
 74
               5
 44
0.000001
 12
-0.5262037093213885
 22
0.8503585457302182
 32
0.0
 13
-0.0000000167205216
 23
0.9999999999999999
 33
0.0
 11
40.238514995322561
 21
73.464101638357306
 31
0.0
 11
40.019851148358612
 21
73.867040953214513
 31
0.0
 11
39.851310927424279
 21
74.294445854672347
 31
0.0
 11
39.741851419136623
 21
74.740406817244846
 31
0.0
 11
39.702616592989301
 21
75.196152427516836
 31
0.0
  0
SPLINE
  5
94
100
AcDbEntity
  8
0
  6
CONTINUOUS
 62
               7
100
AcDbSpline
210
0.0
220
0.0
230
1.0
 70
               0
 71
               3
 72
               0
 73
               0
 74
               5
 44
0.000001
 12
0.5262037093213885
 22
0.8503585457302183
 32
0.0
 13
0.0000000167205217
 23
0.9999999999999999
 33
0.0
 11
48.166718212042838
 21
73.464101638357306
 31
0.0
 11
48.385382059006787
 21
73.867040953214513
 31
0.0
 11
48.553922279941119
 21
74.294445854672347
 31
0.0
 11
48.663381788228776
 21
74.740406817244846
 31
0.0
 11
48.702616614376097
 21
75.196152427516836
 31
0.0
  0
SPLINE
  5
95
100
AcDbEntity
  8
0
  6
CONTINUOUS
 62
               7
100
AcDbSpline
210
0.0
220
0.0
230
1.0
 70
               0
 71
               3
 72
               0
 73
               0
 74
               9
 44
0.000001
 12
0.2955767369919049
 22
-0.9553190004125419
 32
0.0
 13
-0.2955767368408803
 23
-0.9553190004592691
 33
0.0
 11
48.166718212042838
 21
73.464101638357306
 31
0.0
 11
48.396321993009586
 21
72.616329901006452
 31
0.0
 11
48.564178364718231
 21
71.753690943346186
 31
0.0
 11
48.667463529639363
 21
70.879389622679682
 31
0.0
 11
48.702616614376097
 21
70.000000042762238
 31
0.0
 11
48.667463531936463
 21
69.120610452394516
 31
0.0
 11
48.564178367727024
 21
68.246309121201264
 31
0.0
 11
48.39632199523124
 21
67.383670153139917
 31
0.0
 11
48.166718212042838
 21
66.53589840567841
 31
0.0
  0
LINE
  5
96
100
AcDbEntity
  8
0
  6
CONTINUOUS
 62
               7
100
AcDbLine
 10
57.043265038709436
 20
66.000000042762238
 30
0.0
 11
59.043265038709436
 21
66.000000042762238
 31
0.0
  0
LINE
  5
97
100
AcDbEntity
  8
0
  6
CONTINUOUS
 62
               7
100
AcDbLine
 10
57.043265038709436
 20
74.000000042762238
 30
0.0
 11
59.043265038709436
 21
74.000000042762238
 31
0.0
  0
SPLINE
  5
98
100
AcDbEntity
  8
0
  6
CONTINUOUS
 62
               7
100
AcDbSpline
210
0.0
220
0.0
230
1.0
 70
               0
 71
               3
 72
               0
 73
               0
 74
               9
 44
0.000001
 12
-0.295576736991905
 22
-0.9553190004125419
 32
0.0
 13
0.2955767368408807
 23
-0.955319000459269
 33
0.0
 11
59.919811865376033
 21
73.464101638357306
 31
0.0
 11
59.690208084409285
 21
72.616329901006452
 31
0.0
 11
59.52235171270064
 21
71.753690943346186
 31
0.0
 11
59.419066547779508
 21
70.879389622679682
 31
0.0
 11
59.383913463042774
 21
70.000000042762238
 31
0.0
 11
59.419066545482409
 21
69.120610452394516
 31
0.0
 11
59.522351709691847
 21
68.246309121201264
 31
0.0
 11
59.690208082187631
 21
67.383670153139917
 31
0.0
 11
59.919811865376033
 21
66.53589840567841
 31
0.0
  0
SPLINE
  5
99
100
AcDbEntity
  8
0
  6
CONTINUOUS
 62
               7
100
AcDbSpline
210
0.0
220
0.0
230
1.0
 70
               0
 71
               3
 72
               0
 73
               0
 74
               5
 44
0.000001
 12
-0.5262037093213885
 22
0.8503585457302182
 32
0.0
 13
-0.0000000167205216
 23
0.9999999999999999
 33
0.0
 11
59.919811865376033
 21
73.464101638357306
 31
0.0
 11
59.701148018412084
 21
73.867040953214513
 31
0.0
 11
59.532607797477752
 21
74.294445854672347
 31
0.0
 11
59.423148289190095
 21
74.740406817244846
 31
0.0
 11
59.383913463042774
 21
75.196152427516836
 31
0.0
  0
SPLINE
  5
9A
100
AcDbEntity
  8
0
  6
CONTINUOUS
 62
               7
100
AcDbSpline
210
0.0
220
0.0
230
1.0
 70
               0
 71
               3
 72
               0
 73
               0
 74
               5
 44
0.000001
 12
0.5262037093213885
 22
0.8503585457302183
 32
0.0
 13
0.0000000167205217
 23
0.9999999999999999
 33
0.0
 11
67.84801508209631
 21
73.464101638357306
 31
0.0
 11
68.066678929060259
 21
73.867040953214513
 31
0.0
 11
68.235219149994592
 21
74.294445854672347
 31
0.0
 11
68.344678658282248
 21
74.740406817244846
 31
0.0
 11
68.38391348442957
 21
75.196152427516836
 31
0.0
  0
SPLINE
  5
9B
100
AcDbEntity
  8
0
  6
CONTINUOUS
 62
               7
100
AcDbSpline
210
0.0
220
0.0
230
1.0
 70
               0
 71
               3
 72
               0
 73
               0
 74
               9
 44
0.000001
 12
0.2955767369919049
 22
-0.9553190004125419
 32
0.0
 13
-0.2955767368408803
 23
-0.9553190004592691
 33
0.0
 11
67.84801508209631
 21
73.464101638357306
 31
0.0
 11
68.077618863063066
 21
72.616329901006452
 31
0.0
 11
68.245475234771703
 21
71.753690943346186
 31
0.0
 11
68.348760399692836
 21
70.879389622679682
 31
0.0
 11
68.38391348442957
 21
70.000000042762238
 31
0.0
 11
68.348760401989935
 21
69.120610452394516
 31
0.0
 11
68.245475237780497
 21
68.246309121201264
 31
0.0
 11
68.07761886528472
 21
67.383670153139917
 31
0.0
 11
67.84801508209631
 21
66.53589840567841
 31
0.0
  0
LINE
  5
9C
100
AcDbEntity
  8
0
  6
CONTINUOUS
 62
               7
100
AcDbLine
 10
67.84801508209631
 20
66.53589840567841
 30
0.0
 11
59.919811865376033
 21
66.53589840567841
 31
0.0
  0
LINE
  5
9D
100
AcDbEntity
  8
0
  6
CONTINUOUS
 62
               7
100
AcDbLine
 10
67.84801508209631
 20
73.464101638357306
 30
0.0
 11
59.919811865376033
 21
73.464101638357306
 31
0.0
  0
LINE
  5
9E
100
AcDbEntity
  8
0
  6
CONTINUOUS
 62
               7
100
AcDbLine
 10
68.38391348442957
 20
76.000000000130427
 30
0.0
 11
68.38391348442957
 21
64.000000042762238
 31
0.0
  0
LINE
  5
9F
100
AcDbEntity
  8
0
  6
CONTINUOUS
 62
               7
100
AcDbLine
 10
69.883913463042774
 20
76.000000042762238
 30
0.0
 11
69.883913463042774
 21
64.000000042762238
 31
0.0
  0
LINE
  5
A0
100
AcDbEntity
  8
0
  6
CONTINUOUS
 62
               7
100
AcDbLine
 10
70.383913463042774
 20
64.500000042762238
 30
0.0
 11
70.383913463042774
 21
75.500000042762238
 31
0.0
  0
LINE
  5
A1
100
AcDbEntity
  8
0
  6
CONTINUOUS
 62
               7
100
AcDbLine
 10
59.383913463042774
 20
64.000000042762238
 30
0.0
 11
59.383913463042774
 21
76.000000042762238
 31
0.0
  0
LINE
  5
A2
100
AcDbEntity
  8
0
  6
CONTINUOUS
 62
               7
100
AcDbLine
 10
67.848015057961575
 20
76.928203295628691
 30
0.0
 11
59.919811856960507
 21
76.928203295628691
 31
0.0
  0
LINE
  5
A3
100
AcDbEntity
  8
0
  6
CONTINUOUS
 62
               7
100
AcDbLine
 10
67.848015078103558
 20
63.071796789895785
 30
0.0
 11
59.91981188676283
 21
63.071796789895785
 31
0.0
  0
LINE
  5
A4
100
AcDbEntity
  8
0
  6
CONTINUOUS
 62
               7
100
AcDbLine
 10
69.883913463042774
 20
76.000000042762238
 30
0.0
 11
68.383913463042774
 21
76.000000042762238
 31
0.0
  0
LINE
  5
A5
100
AcDbEntity
  8
0
  6
CONTINUOUS
 62
               7
100
AcDbLine
 10
69.883913463042774
 20
64.000000042762238
 30
0.0
 11
68.383913463042774
 21
64.000000042762238
 31
0.0
  0
LINE
  5
A6
100
AcDbEntity
  8
0
  6
CONTINUOUS
 62
               7
100
AcDbLine
 10
68.38391348442957
 20
76.000000000130427
 30
0.0
 11
67.84801508209631
 21
76.928203255068553
 31
0.0
  0
LINE
  5
A7
100
AcDbEntity
  8
0
  6
CONTINUOUS
 62
               7
100
AcDbLine
 10
67.848015052293988
 20
63.071796745192302
 30
0.0
 11
68.383913476008686
 21
64.000000042762238
 31
0.0
  0
LINE
  5
A8
100
AcDbEntity
  8
0
  6
CONTINUOUS
 62
               7
100
AcDbLine
 10
70.383913463042774
 20
75.500000042762238
 30
0.0
 11
69.883913463042774
 21
76.000000042762238
 31
0.0
  0
LINE
  5
A9
100
AcDbEntity
  8
0
  6
CONTINUOUS
 62
               7
100
AcDbLine
 10
70.383913463042774
 20
64.500000042762238
 30
0.0
 11
69.883913463042774
 21
64.000000042762238
 31
0.0
  0
LINE
  5
AA
100
AcDbEntity
  8
0
  6
CONTINUOUS
 62
               7
100
AcDbLine
 10
59.383913439726086
 20
75.999999970328105
 30
0.0
 11
59.919811856960507
 21
76.928203255068553
 31
0.0
  0
LINE
  5
AB
100
AcDbEntity
  8
0
  6
CONTINUOUS
 62
               7
100
AcDbLine
 10
59.91981188676283
 20
63.071796745192302
 30
0.0
 11
59.383913463042774
 21
64.000000042771518
 31
0.0
  0
LINE
  5
AC
100
AcDbEntity
  8
0
  6
CONTINUOUS
 62
               7
100
AcDbLine
 10
59.043265038709436
 20
74.864000042762243
 30
0.0
 11
59.383913463042774
 21
74.864000042762243
 31
0.0
  0
LINE
  5
AD
100
AcDbEntity
  8
0
  6
CONTINUOUS
 62
               7
100
AcDbLine
 10
59.043265038709436
 20
65.136000042762234
 30
0.0
 11
59.383913463042774
 21
65.136000042762234
 31
0.0
  0
LINE
  5
AE
100
AcDbEntity
  8
0
  6
CONTINUOUS
 62
               2
100
AcDbLine
 10
59.043265038709436
 20
74.283000042762239
 30
0.0
 11
59.383913463042774
 21
74.283000042762239
 31
0.0
  0
LINE
  5
AF
100
AcDbEntity
  8
0
  6
CONTINUOUS
 62
               2
100
AcDbLine
 10
59.043265038709436
 20
65.717000042762237
 30
0.0
 11
59.383913463042774
 21
65.717000042762237
 31
0.0
  0
LINE
  5
B0
100
AcDbEntity
  8
0
  6
CONTINUOUS
 62
               7
100
AcDbLine
 10
59.043265038709436
 20
74.864000042762243
 30
0.0
 11
59.043265038709436
 21
65.136000042762234
 31
0.0
  0
LINE
  5
B1
100
AcDbEntity
  8
0
  6
CONTINUOUS
 62
               7
100
AcDbLine
 10
194.0
 20
67.000000048539903
 30
0.0
 11
70.383913463042774
 21
67.000000010782031
 31
0.0
  0
LINE
  5
B2
100
AcDbEntity
  8
0
  6
CONTINUOUS
 62
               7
100
AcDbLine
 10
194.0
 20
73.000000048539903
 30
0.0
 11
70.383913463042774
 21
73.000000010782045
 31
0.0
  0
LINE
  5
B3
100
AcDbEntity
  8
0
  6
CONTINUOUS
 62
               2
100
AcDbLine
 10
188.0
 20
71.818814262256666
 30
0.0
 11
188.0
 21
74.354606811562718
 31
0.0
  0
LINE
  5
B4
100
AcDbEntity
  8
0
  6
CONTINUOUS
 62
               2
100
AcDbLine
 10
178.0
 20
71.818814262256666
 30
0.0
 11
178.0
 21
74.354606811562718
 31
0.0
  0
LINE
  5
B5
100
AcDbEntity
  8
0
  6
CONTINUOUS
 62
               2
100
AcDbLine
 10
168.0
 20
71.818814262256666
 30
0.0
 11
168.0
 21
74.354606811562718
 31
0.0
  0
LINE
  5
B6
100
AcDbEntity
  8
0
  6
CONTINUOUS
 62
               2
100
AcDbLine
 10
158.0
 20
71.818814262256666
 30
0.0
 11
158.0
 21
74.354606811562718
 31
0.0
  0
LINE
  5
B7
100
AcDbEntity
  8
0
  6
CONTINUOUS
 62
               2
100
AcDbLine
 10
148.0
 20
71.818814262256666
 30
0.0
 11
148.0
 21
74.354606811562718
 31
0.0
  0
LINE
  5
B8
100
AcDbEntity
  8
0
  6
CONTINUOUS
 62
               2
100
AcDbLine
 10
138.0
 20
71.818814262256666
 30
0.0
 11
138.0
 21
74.354606811562718
 31
0.0
  0
LINE
  5
B9
100
AcDbEntity
  8
0
  6
CONTINUOUS
 62
               2
100
AcDbLine
 10
128.0
 20
71.818814262256666
 30
0.0
 11
128.0
 21
74.354606811562718
 31
0.0
  0
LINE
  5
BA
100
AcDbEntity
  8
0
  6
CONTINUOUS
 62
               2
100
AcDbLine
 10
118.0
 20
71.818814262256666
 30
0.0
 11
118.0
 21
74.354606811562718
 31
0.0
  0
LINE
  5
BB
100
AcDbEntity
  8
0
  6
CONTINUOUS
 62
               7
100
AcDbLine
 10
200.0
 20
72.622649738346581
 30
0.0
 11
200.0
 21
67.377350275652304
 31
0.0
  0
LINE
  5
BC
100
AcDbEntity
  8
0
  6
CONTINUOUS
 62
               7
100
AcDbLine
 10
196.49999999437964
 20
73.800000006999454
 30
0.0
 11
197.96076952489625
 21
73.800000006999454
 31
0.0
  0
LINE
  5
BD
100
AcDbEntity
  8
0
  6
CONTINUOUS
 62
               7
100
AcDbLine
 10
195.99999999643626
 20
73.300000009056063
 30
0.0
 11
196.49999999437964
 21
73.800000006999454
 31
0.0
  0
LINE
  5
BE
100
AcDbEntity
  8
0
  6
CONTINUOUS
 62
               7
100
AcDbLine
 10
195.50000001339404
 20
73.800000006999454
 30
0.0
 11
195.99999999643626
 21
73.300000009056063
 31
0.0
  0
LINE
  5
BF
100
AcDbEntity
  8
0
  6
CONTINUOUS
 62
               7
100
AcDbLine
 10
196.49999999437964
 20
66.200000006999446
 30
0.0
 11
197.96076952489625
 21
66.200000006999446
 31
0.0
  0
LINE
  5
C0
100
AcDbEntity
  8
0
  6
CONTINUOUS
 62
               7
100
AcDbLine
 10
195.99999999643626
 20
66.700000004942822
 30
0.0
 11
196.49999999437964
 21
66.200000006999446
 31
0.0
  0
LINE
  5
C1
100
AcDbEntity
  8
0
  6
CONTINUOUS
 62
               7
100
AcDbLine
 10
195.50000001339404
 20
66.200000006999446
 30
0.0
 11
195.99999999643626
 21
66.700000004942822
 31
0.0
  0
LINE
  5
C2
100
AcDbEntity
  8
0
  6
CONTINUOUS
 62
               7
100
AcDbLine
 10
194.00000000232404
 20
66.800000013998897
 30
0.0
 11
194.34641014271921
 21
66.200000049761684
 31
0.0
  0
LINE
  5
C3
100
AcDbEntity
  8
0
  6
CONTINUOUS
 62
               7
100
AcDbLine
 10
197.9607695215339
 20
66.2000000050582
 30
0.0
 11
200.0
 21
67.377350275652304
 31
0.0
  0
LINE
  5
C4
100
AcDbEntity
  8
0
  6
CONTINUOUS
 62
               7
100
AcDbLine
 10
197.9607695215339
 20
73.800000008940685
 30
0.0
 11
200.0
 21
72.622649738346581
 31
0.0
  0
LINE
  5
C5
100
AcDbEntity
  8
0
  6
CONTINUOUS
 62
               7
100
AcDbLine
 10
194.00000000232404
 20
73.199999999999989
 30
0.0
 11
194.34641014271921
 21
73.799999964237202
 31
0.0
  0
LINE
  5
C6
100
AcDbEntity
  8
0
  6
CONTINUOUS
 62
               7
100
AcDbLine
 10
194.34641016740798
 20
66.200000006999446
 30
0.0
 11
195.50000001339404
 21
66.200000006999446
 31
0.0
  0
LINE
  5
C7
100
AcDbEntity
  8
0
  6
CONTINUOUS
 62
               7
100
AcDbLine
 10
194.34641016740798
 20
73.800000006999454
 30
0.0
 11
195.50000001339404
 21
73.800000006999454
 31
0.0
  0
LINE
  5
C8
100
AcDbEntity
  8
0
  6
CONTINUOUS
 62
               7
100
AcDbLine
 10
194.0
 20
73.199999995974636
 30
0.0
 11
194.0
 21
66.800000013998897
 31
0.0
  0
LINE
  5
C9
100
AcDbEntity
  8
0
  6
CONTINUOUS
 62
               2
100
AcDbLine
 10
88.0
 20
71.818814262256666
 30
0.0
 11
88.0
 21
74.737301209920162
 31
0.0
  0
LINE
  5
CA
100
AcDbEntity
  8
0
  6
CONTINUOUS
 62
               2
100
AcDbLine
 10
108.0
 20
71.818814262256666
 30
0.0
 11
108.0
 21
74.354606811562718
 31
0.0
  0
LINE
  5
CB
100
AcDbEntity
  8
0
  6
CONTINUOUS
 62
               2
100
AcDbLine
 10
98.0
 20
71.818814262256666
 30
0.0
 11
98.0
 21
74.689289377254767
 31
0.0
  0
ARC
  5
CC
100
AcDbEntity
  8
0
  6
CONTINUOUS
 62
               7
100
AcDbCircle
 10
53.279325044475272
 20
76.500000042762238
 30
0.0
 40
3.7639399942341654
100
AcDbArc
 50
319.21785080118997
 51
0.0
  0
ARC
  5
CD
100
AcDbEntity
  8
0
  6
CONTINUOUS
 62
               7
100
AcDbCircle
 10
54.8072050329436
 20
76.500000042762238
 30
0.0
 40
3.7639399942341654
100
AcDbArc
 50
179.99999999999963
 51
220.78214919880881
  0
ARC
  5
CE
100
AcDbEntity
  8
0
  6
CONTINUOUS
 62
               7
100
AcDbCircle
 10
53.279325044475272
 20
63.500000042762238
 30
0.0
 40
3.7639399942341654
100
AcDbArc
 50
0.0
 51
40.782149198809236
  0
ARC
  5
CF
100
AcDbEntity
  8
0
  6
CONTINUOUS
 62
               7
100
AcDbCircle
 10
54.8072050329436
 20
63.500000042762238
 30
0.0
 40
3.7639399942341654
100
AcDbArc
 50
139.21785080119039
 51
179.99999999999963
  0
ENDBLK
  5
D0
100
AcDbEntity
  8
0
100
AcDbBlockEnd
  0
BLOCK
  5
D1
100
AcDbEntity
  8
0
100
AcDbBlockBegin
  2
DTRY-NZL100FMT-2
 70
               0
 10
0.0
 20
0.0
 30
0.0
  3
DTRY-NZL100FMT-2
  1

  0
SPLINE
  5
D2
100
AcDbEntity
  8
0
  6
CONTINUOUS
 62
               7
100
AcDbSpline
210
0.0
220
0.0
230
1.0
 70
               0
 71
               3
 72
               0
 73
               0
 74
               9
 44
0.000001
 12
0.9284766908852622
 22
0.3713906763540965
 32
0.0
 13
0.9284766908852563
 23
-0.3713906763541112
 33
0.0
 11
-5.0
 21
18.5
 31
0.0
 11
-4.395989573352054
 21
18.711556249085152
 31
0.0
 11
-3.7749074283056108
 21
18.868358019118499
 31
0.0
 11
-3.1405430285684068
 21
18.966250905088188
 31
0.0
 11
-2.4999999999999716
 21
19.0
 31
0.0
 11
-1.8594569714315496
 21
18.966250905088188
 31
0.0
 11
-1.2250925716943595
 21
18.868358019118499
 31
0.0
 11
-0.60401042664793
 21
18.711556249085156
 31
0.0
 11
0.0
 21
18.5
 31
0.0
  0
SPLINE
  5
D3
100
AcDbEntity
  8
0
  6
CONTINUOUS
 62
               7
100
AcDbSpline
210
0.0
220
0.0
230
1.0
 70
               0
 71
               3
 72
               0
 73
               0
 74
               9
 44
0.000001
 12
0.9284766908852622
 22
0.3713906763540965
 32
0.0
 13
0.9284766908852592
 23
-0.3713906763541041
 33
0.0
 11
0.0
 21
18.5
 31
0.0
 11
0.6040104266479323
 21
18.711556249085149
 31
0.0
 11
1.2250925716943617
 21
18.868358019118496
 31
0.0
 11
1.8594569714315505
 21
18.966250905088188
 31
0.0
 11
2.4999999999999716
 21
19.0
 31
0.0
 11
3.1405430285684073
 21
18.966250905088192
 31
0.0
 11
3.7749074283056112
 21
18.868358019118503
 31
0.0
 11
4.3959895733520549
 21
18.711556249085156
 31
0.0
 11
5.0
 21
18.5
 31
0.0
  0
LINE
  5
D4
100
AcDbEntity
  8
0
  6
CONTINUOUS
 62
               7
100
AcDbLine
 10
0.0
 20
18.5
 30
0.0
 11
0.0
 21
14.0
 31
0.0
  0
LINE
  5
D5
100
AcDbEntity
  8
0
  6
CONTINUOUS
 62
               7
100
AcDbLine
 10
-5.0
 20
19.0
 30
0.0
 11
-5.0
 21
14.0
 31
0.0
  0
LINE
  5
D6
100
AcDbEntity
  8
0
  6
CONTINUOUS
 62
               7
100
AcDbLine
 10
5.0
 20
19.0
 30
0.0
 11
5.0
 21
14.0
 31
0.0
  0
SPLINE
  5
D7
100
AcDbEntity
  8
0
  6
CONTINUOUS
 62
               7
100
AcDbSpline
210
0.0
220
0.0
230
1.0
 70
               0
 71
               3
 72
               0
 73
               0
 74
               9
 44
0.000001
 12
0.8320502870421396
 22
-0.5547002071687852
 32
0.0
 13
0.8320502870421347
 23
0.5547002071687924
 33
0.0
 11
-6.0
 21
22.282913387375139
 31
0.0
 11
-5.308196836742737
 21
21.878321296726977
 31
0.0
 11
-4.5691548670597104
 21
21.563648863349147
 31
0.0
 11
-3.7948382884937648
 21
21.357504727484187
 31
0.0
 11
-2.9999999999999716
 21
21.282913358877998
 31
0.0
 11
-2.2051617115061921
 21
21.357504727484187
 31
0.0
 11
-1.4308451329402605
 21
21.563648863349151
 31
0.0
 11
-0.691803163257249
 21
21.87832129672698
 31
0.0
 11
-0.0000000000000011
 21
22.282913387375139
 31
0.0
  0
SPLINE
  5
D8
100
AcDbEntity
  8
0
  6
CONTINUOUS
 62
               7
100
AcDbSpline
210
0.0
220
0.0
230
1.0
 70
               0
 71
               3
 72
               0
 73
               0
 74
               9
 44
0.000001
 12
0.8320502874551748
 22
-0.5547002065492322
 32
0.0
 13
0.8320502874551745
 23
0.5547002065492327
 33
0.0
 11
0.0
 21
22.282913387375139
 31
0.0
 11
0.691803163396485
 21
21.878321297302509
 31
0.0
 11
1.4308451331055687
 21
21.5636488644361
 31
0.0
 11
2.2051617116208093
 21
21.357504728945933
 31
0.0
 11
2.9999999999999716
 21
21.282913360491339
 31
0.0
 11
3.7948382883791489
 21
21.357504728945926
 31
0.0
 11
4.5691548668944044
 21
21.56364886443609
 31
0.0
 11
5.3081968366035017
 21
21.878321297302502
 31
0.0
 11
6.0
 21
22.282913387375139
 31
0.0
  0
LINE
  5
D9
100
AcDbEntity
  8
0
  6
CONTINUOUS
 62
               7
100
AcDbLine
 10
-6.0
 20
21.28291335968467
 30
0.0
 11
6.0
 21
21.28291335968467
 31
0.0
  0
SPLINE
  5
DA
100
AcDbEntity
  8
0
  6
CONTINUOUS
 62
               7
100
AcDbSpline
210
0.0
220
0.0
230
1.0
 70
               0
 71
               3
 72
               0
 73
               0
 74
               9
 44
0.000001
 12
0.8320502870421396
 22
0.5547002071687852
 32
0.0
 13
0.8320502870421347
 23
-0.5547002071687924
 33
0.0
 11
-6.0
 21
29.282913359684663
 31
0.0
 11
-5.308196836742737
 21
29.687505450332825
 31
0.0
 11
-4.5691548670597104
 21
30.002177883710655
 31
0.0
 11
-3.7948382884937648
 21
30.208322019575615
 31
0.0
 11
-2.9999999999999716
 21
30.282913388181804
 31
0.0
 11
-2.2051617115061921
 21
30.208322019575615
 31
0.0
 11
-1.4308451329402605
 21
30.002177883710651
 31
0.0
 11
-0.691803163257249
 21
29.687505450332822
 31
0.0
 11
-0.0000000000000011
 21
29.282913359684663
 31
0.0
  0
SPLINE
  5
DB
100
AcDbEntity
  8
0
  6
CONTINUOUS
 62
               7
100
AcDbSpline
210
0.0
220
0.0
230
1.0
 70
               0
 71
               3
 72
               0
 73
               0
 74
               9
 44
0.000001
 12
0.8320502874551748
 22
0.5547002065492322
 32
0.0
 13
0.8320502874551745
 23
-0.5547002065492327
 33
0.0
 11
0.0
 21
29.282913359684663
 31
0.0
 11
0.691803163396485
 21
29.687505449757293
 31
0.0
 11
1.4308451331055687
 21
30.002177882623702
 31
0.0
 11
2.2051617116208093
 21
30.208322018113869
 31
0.0
 11
2.9999999999999716
 21
30.282913386568463
 31
0.0
 11
3.7948382883791489
 21
30.208322018113876
 31
0.0
 11
4.5691548668944044
 21
30.002177882623712
 31
0.0
 11
5.3081968366035017
 21
29.6875054497573
 31
0.0
 11
6.0
 21
29.282913359684663
 31
0.0
  0
LINE
  5
DC
100
AcDbEntity
  8
0
  6
CONTINUOUS
 62
               7
100
AcDbLine
 10
-6.0
 20
30.282913388988472
 30
0.0
 11
-6.0
 21
21.282913359684667
 31
0.0
  0
LINE
  5
DD
100
AcDbEntity
  8
0
  6
CONTINUOUS
 62
               7
100
AcDbLine
 10
6.0
 20
30.282913385761788
 30
0.0
 11
6.0
 21
21.28291335968467
 31
0.0
  0
LINE
  5
DE
100
AcDbEntity
  8
0
  6
CONTINUOUS
 62
               7
100
AcDbLine
 10
-3.0
 20
63.649147081676354
 30
0.0
 11
-7.0
 21
65.958548158434837
 31
0.0
  0
LINE
  5
DF
100
AcDbEntity
  8
0
  6
CONTINUOUS
 62
               7
100
AcDbLine
 10
3.0
 20
63.649147081676354
 30
0.0
 11
7.0
 21
65.958548158434837
 31
0.0
  0
LINE
  5
E0
100
AcDbEntity
  8
0
  6
CONTINUOUS
 62
               7
100
AcDbLine
 10
0.0
 20
78.082903811416983
 30
0.0
 11
-7.0
 21
74.041451927089639
 31
0.0
  0
LINE
  5
E1
100
AcDbEntity
  8
0
  6
CONTINUOUS
 62
               7
100
AcDbLine
 10
-7.0
 20
65.958548158434837
 30
0.0
 11
-7.0
 21
74.041451927089639
 31
0.0
  0
LINE
  5
E2
100
AcDbEntity
  8
0
  6
CONTINUOUS
 62
               7
100
AcDbLine
 10
0.0
 20
78.082903811416983
 30
0.0
 11
7.0
 21
74.041451927089639
 31
0.0
  0
LINE
  5
E3
100
AcDbEntity
  8
0
  6
CONTINUOUS
 62
               7
100
AcDbLine
 10
7.0
 20
65.958548158434837
 30
0.0
 11
7.0
 21
74.041451927089639
 31
0.0
  0
ARC
  5
E4
100
AcDbEntity
  8
0
  6
CONTINUOUS
 62
               7
100
AcDbCircle
 10
0.0
 20
70.000000042762238
 30
0.0
 40
7.0
100
AcDbArc
 50
295.37693352515163
 51
244.62306647484715
  0
LINE
  5
E5
100
AcDbEntity
  8
0
  6
CONTINUOUS
 62
               7
100
AcDbLine
 10
3.0
 20
64.803847620055606
 30
0.0
 11
6.0
 21
66.53589842762446
 31
0.0
  0
LINE
  5
E6
100
AcDbEntity
  8
0
  6
CONTINUOUS
 62
               7
100
AcDbLine
 10
-3.0
 20
64.803847620055606
 30
0.0
 11
-6.0
 21
66.53589842762446
 31
0.0
  0
LINE
  5
E7
100
AcDbEntity
  8
0
  6
CONTINUOUS
 62
               2
100
AcDbLine
 10
-10.0
 20
70.000000042762238
 30
0.0
 11
10.0
 21
70.000000042762238
 31
0.0
  0
LINE
  5
E8
100
AcDbEntity
  8
0
  6
CONTINUOUS
 62
               7
100
AcDbLine
 10
-6.0
 20
66.53589842762446
 30
0.0
 11
-6.0
 21
73.464101657900017
 31
0.0
  0
LINE
  5
E9
100
AcDbEntity
  8
0
  6
CONTINUOUS
 62
               7
100
AcDbLine
 10
6.0
 20
66.53589842762446
 30
0.0
 11
6.0
 21
73.464101657900017
 31
0.0
  0
LINE
  5
EA
100
AcDbEntity
  8
0
  6
CONTINUOUS
 62
               7
100
AcDbLine
 10
0.0
 20
76.928203273037724
 30
0.0
 11
-6.0
 21
73.464101657900017
 31
0.0
  0
LINE
  5
EB
100
AcDbEntity
  8
0
  6
CONTINUOUS
 62
               7
100
AcDbLine
 10
0.0
 20
76.928203273037724
 30
0.0
 11
6.0
 21
73.464101657900017
 31
0.0
  0
ARC
  5
EC
100
AcDbEntity
  8
0
  6
CONTINUOUS
 62
               7
100
AcDbCircle
 10
0.0
 20
70.000000042762238
 30
0.0
 40
5.5
100
AcDbArc
 50
303.05573115085338
 51
236.94426884914532
  0
ARC
  5
ED
100
AcDbEntity
  8
0
  6
CONTINUOUS
 62
               7
100
AcDbCircle
 10
0.0
 20
70.000000042762238
 30
0.0
 40
6.0
100
AcDbArc
 50
299.99999999999932
 51
239.99999999999943
  0
ARC
  5
EE
100
AcDbEntity
  8
0
  6
CONTINUOUS
 62
               7
100
AcDbCircle
 10
0.0
 20
70.000000042762238
 30
0.0
 40
3.0
100
AcDbArc
 50
0.0
 51
179.99999999999963
  0
LINE
  5
EF
100
AcDbEntity
  8
0
  6
CONTINUOUS
 62
               7
100
AcDbLine
 10
-6.0
 20
31.782913388988476
 30
0.0
 11
6.0
 21
31.782913388988476
 31
0.0
  0
LINE
  5
F0
100
AcDbEntity
  8
0
  6
CONTINUOUS
 62
               7
100
AcDbLine
 10
-6.0
 20
30.282913388988476
 30
0.0
 11
6.0
 21
30.282913385761784
 31
0.0
  0
LINE
  5
F1
100
AcDbEntity
  8
0
  6
CONTINUOUS
 62
               7
100
AcDbLine
 10
-4.8639999930005615
 20
20.999999972862923
 30
0.0
 11
-4.8639999930005615
 21
21.28291335968467
 31
0.0
  0
LINE
  5
F2
100
AcDbEntity
  8
0
  6
CONTINUOUS
 62
               7
100
AcDbLine
 10
4.8640000069994471
 20
20.999999972862923
 30
0.0
 11
4.8640000069994471
 21
21.282913388988476
 31
0.0
  0
LINE
  5
F3
100
AcDbEntity
  8
0
  6
CONTINUOUS
 62
               7
100
AcDbLine
 10
-3.9999999930005572
 20
19.0
 30
0.0
 11
-3.9999999930005572
 21
21.0
 31
0.0
  0
LINE
  5
F4
100
AcDbEntity
  8
0
  6
CONTINUOUS
 62
               7
100
AcDbLine
 10
4.0000000069994428
 20
19.0
 30
0.0
 11
4.0000000069994428
 21
21.0
 31
0.0
  0
LINE
  5
F5
100
AcDbEntity
  8
0
  6
CONTINUOUS
 62
               7
100
AcDbLine
 10
4.8640000069994471
 20
21.0
 30
0.0
 11
-4.8639999930005615
 21
21.0
 31
0.0
  0
LINE
  5
F6
100
AcDbEntity
  8
0
  6
CONTINUOUS
 62
               7
100
AcDbLine
 10
5.0000000197020427
 20
19.0
 30
0.0
 11
-4.9999999615224624
 21
19.0
 31
0.0
  0
LINE
  5
F7
100
AcDbEntity
  8
0
  6
CONTINUOUS
 62
               7
100
AcDbLine
 10
-5.5
 20
32.282913388988476
 30
0.0
 11
-6.0
 21
31.782913388988476
 31
0.0
  0
LINE
  5
F8
100
AcDbEntity
  8
0
  6
CONTINUOUS
 62
               7
100
AcDbLine
 10
5.5
 20
32.282913388988476
 30
0.0
 11
6.0
 21
31.782913388988476
 31
0.0
  0
LINE
  5
F9
100
AcDbEntity
  8
0
  6
CONTINUOUS
 62
               7
100
AcDbLine
 10
-6.0
 20
31.782913388988476
 30
0.0
 11
-6.0
 21
30.282913388988476
 31
0.0
  0
LINE
  5
FA
100
AcDbEntity
  8
0
  6
CONTINUOUS
 62
               7
100
AcDbLine
 10
6.0
 20
31.782913388988476
 30
0.0
 11
6.0
 21
30.282913388988476
 31
0.0
  0
LINE
  5
FB
100
AcDbEntity
  8
0
  6
CONTINUOUS
 62
               7
100
AcDbLine
 10
-5.5
 20
32.282913388988476
 30
0.0
 11
5.5
 21
32.282913388988476
 31
0.0
  0
LINE
  5
FC
100
AcDbEntity
  8
0
  6
CONTINUOUS
 62
               7
100
AcDbLine
 10
6.0000000000000284
 20
14.0
 30
0.0
 11
-5.9999999999999716
 21
14.0
 31
0.0
  0
LINE
  5
FD
100
AcDbEntity
  8
0
  6
CONTINUOUS
 62
               7
100
AcDbLine
 10
3.0
 20
70.000000042762238
 30
0.0
 11
3.0
 21
32.282913388988476
 31
0.0
  0
LINE
  5
FE
100
AcDbEntity
  8
0
  6
CONTINUOUS
 62
               7
100
AcDbLine
 10
-3.0
 20
70.000000042762238
 30
0.0
 11
-3.0
 21
32.282913388988476
 31
0.0
  0
LINE
  5
FF
100
AcDbEntity
  8
0
  6
CONTINUOUS
 62
               2
100
AcDbLine
 10
0.0
 20
79.758225064751898
 30
0.0
 11
0.0
 21
-14.206401366826796
 31
0.0
  0
LINE
  5
100
100
AcDbEntity
  8
0
  6
CONTINUOUS
 62
               7
100
AcDbLine
 10
-6.0
 20
14.0
 30
0.0
 11
-11.0
 21
2.0
 31
0.0
  0
LINE
  5
101
100
AcDbEntity
  8
0
  6
CONTINUOUS
 62
               7
100
AcDbLine
 10
11.0
 20
2.0
 30
0.0
 11
6.0
 21
14.0
 31
0.0
  0
LINE
  5
102
100
AcDbEntity
  8
0
  6
CONTINUOUS
 62
               7
100
AcDbLine
 10
7.0
 20
-7.9000000000000057
 30
0.0
 11
-7.0
 21
-7.9000000000000057
 31
0.0
  0
LINE
  5
103
100
AcDbEntity
  8
0
  6
CONTINUOUS
 62
               7
100
AcDbLine
 10
6.4000000000000057
 20
-8.5
 30
0.0
 11
7.0
 21
-7.9000000000000057
 31
0.0
  0
LINE
  5
104
100
AcDbEntity
  8
0
  6
CONTINUOUS
 62
               7
100
AcDbLine
 10
-7.0
 20
-7.9000000000000057
 30
0.0
 11
-6.3999999999999773
 21
-8.5
 31
0.0
  0
LINE
  5
105
100
AcDbEntity
  8
0
  6
CONTINUOUS
 62
               7
100
AcDbLine
 10
7.5
 20
0.0
 30
0.0
 11
7.5
 21
0.7578708655771038
 31
0.0
  0
LINE
  5
106
100
AcDbEntity
  8
0
  6
CONTINUOUS
 62
               7
100
AcDbLine
 10
8.5
 20
0.0
 30
0.0
 11
8.5
 21
1.1499365458052466
 31
0.0
  0
LINE
  5
107
100
AcDbEntity
  8
0
  6
CONTINUOUS
 62
               7
100
AcDbLine
 10
9.5
 20
0.0
 30
0.0
 11
9.5
 21
1.6204153620790152
 31
0.0
  0
LINE
  5
108
100
AcDbEntity
  8
0
  6
CONTINUOUS
 62
               7
100
AcDbLine
 10
10.0
 20
0.0
 30
0.0
 11
10.0
 21
2.0
 31
0.0
  0
LINE
  5
109
100
AcDbEntity
  8
0
  6
CONTINUOUS
 62
               7
100
AcDbLine
 10
10.5
 20
0.0
 30
0.0
 11
10.5
 21
2.0
 31
0.0
  0
LINE
  5
10A
100
AcDbEntity
  8
0
  6
CONTINUOUS
 62
               7
100
AcDbLine
 10
11.0
 20
2.0
 30
0.0
 11
-11.0
 21
2.0
 31
0.0
  0
LINE
  5
10B
100
AcDbEntity
  8
0
  6
CONTINUOUS
 62
               7
100
AcDbLine
 10
11.0
 20
0.0
 30
0.0
 11
11.0
 21
2.0
 31
0.0
  0
LINE
  5
10C
100
AcDbEntity
  8
0
  6
CONTINUOUS
 62
               7
100
AcDbLine
 10
7.0
 20
-7.9000000000000057
 30
0.0
 11
7.0
 21
-1.5
 31
0.0
  0
LINE
  5
10D
100
AcDbEntity
  8
0
  6
CONTINUOUS
 62
               7
100
AcDbLine
 10
7.0
 20
-1.5
 30
0.0
 11
-7.0
 21
-1.5
 31
0.0
  0
LINE
  5
10E
100
AcDbEntity
  8
0
  6
CONTINUOUS
 62
               2
100
AcDbLine
 10
6.5
 20
-8.4000000000000057
 30
0.0
 11
6.5
 21
-1.5
 31
0.0
  0
LINE
  5
10F
100
AcDbEntity
  8
0
  6
CONTINUOUS
 62
               7
100
AcDbLine
 10
11.0
 20
0.0
 30
0.0
 11
-11.0
 21
0.0
 31
0.0
  0
LINE
  5
110
100
AcDbEntity
  8
0
  6
CONTINUOUS
 62
               7
100
AcDbLine
 10
6.1999999999999886
 20
-1.5
 30
0.0
 11
6.1999999999999886
 21
0.0
 31
0.0
  0
LINE
  5
111
100
AcDbEntity
  8
0
  6
CONTINUOUS
 62
               7
100
AcDbLine
 10
6.4000000000000057
 20
-8.5
 30
0.0
 11
-6.3999999999999773
 21
-8.5
 31
0.0
  0
LINE
  5
112
100
AcDbEntity
  8
0
  6
CONTINUOUS
 62
               7
100
AcDbLine
 10
-6.1999999999999886
 20
-1.5
 30
0.0
 11
-6.1999999999999886
 21
0.0
 31
0.0
  0
LINE
  5
113
100
AcDbEntity
  8
0
  6
CONTINUOUS
 62
               2
100
AcDbLine
 10
-6.5
 20
-8.4000000000000057
 30
0.0
 11
-6.5
 21
-1.5
 31
0.0
  0
LINE
  5
114
100
AcDbEntity
  8
0
  6
CONTINUOUS
 62
               7
100
AcDbLine
 10
-11.0
 20
0.0
 30
0.0
 11
-11.0
 21
2.0
 31
0.0
  0
LINE
  5
115
100
AcDbEntity
  8
0
  6
CONTINUOUS
 62
               7
100
AcDbLine
 10
-7.0
 20
-7.9000000000000057
 30
0.0
 11
-7.0
 21
-1.5
 31
0.0
  0
ENDBLK
  5
116
100
AcDbEntity
  8
0
100
AcDbBlockEnd
  0
BLOCK
  5
117
100
AcDbEntity
  8
0
100
AcDbBlockBegin
  2
DTRY-NZL100FMT-3
 70
               0
 10
0.0
 20
0.0
 30
0.0
  3
DTRY-NZL100FMT-3
  1

  0
LINE
  5
118
100
AcDbEntity
  8
0
  6
CONTINUOUS
 62
               2
100
AcDbLine
 10
0.0
 20
-16.817807508113162
 30
0.0
 11
0.0
 21
16.814025395581723
 31
0.0
  0
LINE
  5
119
100
AcDbEntity
  8
0
  6
CONTINUOUS
 62
               7
100
AcDbLine
 10
0.0
 20
3.0
 30
0.0
 11
37.702616614376097
 21
3.0
 31
0.0
  0
LINE
  5
11A
100
AcDbEntity
  8
0
  6
CONTINUOUS
 62
               7
100
AcDbLine
 10
0.0
 20
-3.0
 30
0.0
 11
37.702616614376097
 21
-3.0
 31
0.0
  0
LINE
  5
11B
100
AcDbEntity
  8
0
  6
CONTINUOUS
 62
               2
100
AcDbLine
 10
-17.275557436704148
 20
0.0
 30
0.0
 11
207.85353900249657
 21
0.0
 31
0.0
  0
ARC
  5
11C
100
AcDbEntity
  8
0
  6
CONTINUOUS
 62
               7
100
AcDbCircle
 10
0.0
 20
0.0
 30
0.0
 40
3.0
100
AcDbArc
 50
89.999999999999815
 51
269.99999999999937
  0
ARC
  5
11D
100
AcDbEntity
  8
0
  6
CONTINUOUS
 62
               7
100
AcDbCircle
 10
0.0
 20
0.0
 30
0.0
 40
6.0
100
AcDbArc
 50
29.999999999999932
 51
329.99999999999926
  0
LINE
  5
11E
100
AcDbEntity
  8
0
  6
CONTINUOUS
 62
               7
100
AcDbLine
 10
3.4641016253973902
 20
6.0
 30
0.0
 11
-3.4641016295407354
 21
6.0
 31
0.0
  0
LINE
  5
11F
100
AcDbEntity
  8
0
  6
CONTINUOUS
 62
               7
100
AcDbLine
 10
3.4641016253973902
 20
-6.0
 30
0.0
 11
-3.4641016295407354
 21
-6.0
 31
0.0
  0
LINE
  5
120
100
AcDbEntity
  8
0
  6
CONTINUOUS
 62
               7
100
AcDbLine
 10
5.1961524399099517
 20
3.0
 30
0.0
 11
3.4641015955950678
 21
6.0000000718606543
 31
0.0
  0
LINE
  5
121
100
AcDbEntity
  8
0
  6
CONTINUOUS
 62
               7
100
AcDbLine
 10
5.1961524399099517
 20
-3.0
 30
0.0
 11
3.4641015955950678
 21
-6.0000000718606543
 31
0.0
  0
LINE
  5
122
100
AcDbEntity
  8
0
  6
CONTINUOUS
 62
               7
100
AcDbLine
 10
-6.928203252866453
 20
-0.0000000175463128
 30
0.0
 11
-3.4641015955950678
 21
6.0000000718606543
 31
0.0
  0
LINE
  5
123
100
AcDbEntity
  8
0
  6
CONTINUOUS
 62
               7
100
AcDbLine
 10
-6.928203252866453
 20
0.0000000175463128
 30
0.0
 11
-3.4641015955950678
 21
-6.0000000718606543
 31
0.0
  0
LINE
  5
124
100
AcDbEntity
  8
0
  6
CONTINUOUS
 62
               7
100
AcDbLine
 10
197.96076952489625
 20
3.7999999642372018
 30
0.0
 11
197.96076952489625
 21
-3.8000000357627925
 31
0.0
  0
LINE
  5
125
100
AcDbEntity
  8
0
  6
CONTINUOUS
 62
               7
100
AcDbLine
 10
196.49999999437964
 20
3.7999999642372018
 30
0.0
 11
196.49999999437964
 21
-3.8000000357627925
 31
0.0
  0
LINE
  5
126
100
AcDbEntity
  8
0
  6
CONTINUOUS
 62
               7
100
AcDbLine
 10
195.99999999643626
 20
3.2999999662938251
 30
0.0
 11
195.99999999643626
 21
-3.3000000378194159
 31
0.0
  0
LINE
  5
127
100
AcDbEntity
  8
0
  6
CONTINUOUS
 62
               7
100
AcDbLine
 10
195.50000001339404
 20
3.7999999642372018
 30
0.0
 11
195.50000001339404
 21
-3.8000000357627925
 31
0.0
  0
LINE
  5
128
100
AcDbEntity
  8
0
  6
CONTINUOUS
 62
               7
100
AcDbLine
 10
200.0
 20
2.6226496955843572
 30
0.0
 11
200.0
 21
-2.622649767109948
 31
0.0
  0
LINE
  5
129
100
AcDbEntity
  8
0
  6
CONTINUOUS
 62
               7
100
AcDbLine
 10
196.49999999437964
 20
3.7999999642372018
 30
0.0
 11
197.96076952489625
 21
3.7999999642372018
 31
0.0
  0
LINE
  5
12A
100
AcDbEntity
  8
0
  6
CONTINUOUS
 62
               7
100
AcDbLine
 10
195.99999999643626
 20
3.2999999662938251
 30
0.0
 11
196.49999999437964
 21
3.7999999642372018
 31
0.0
  0
LINE
  5
12B
100
AcDbEntity
  8
0
  6
CONTINUOUS
 62
               7
100
AcDbLine
 10
195.50000001339404
 20
3.7999999642372018
 30
0.0
 11
195.99999999643626
 21
3.2999999662938251
 31
0.0
  0
LINE
  5
12C
100
AcDbEntity
  8
0
  6
CONTINUOUS
 62
               7
100
AcDbLine
 10
196.49999999437964
 20
-3.8000000357627925
 30
0.0
 11
197.96076952489625
 21
-3.8000000357627925
 31
0.0
  0
LINE
  5
12D
100
AcDbEntity
  8
0
  6
CONTINUOUS
 62
               7
100
AcDbLine
 10
195.99999999643626
 20
-3.3000000378194159
 30
0.0
 11
196.49999999437964
 21
-3.8000000357627925
 31
0.0
  0
LINE
  5
12E
100
AcDbEntity
  8
0
  6
CONTINUOUS
 62
               7
100
AcDbLine
 10
195.50000001339404
 20
-3.8000000357627925
 30
0.0
 11
195.99999999643626
 21
-3.3000000378194159
 31
0.0
  0
LINE
  5
12F
100
AcDbEntity
  8
0
  6
CONTINUOUS
 62
               7
100
AcDbLine
 10
194.00000000232404
 20
-3.2000000287633554
 30
0.0
 11
194.34641014271921
 21
-3.7999999930005686
 31
0.0
  0
LINE
  5
130
100
AcDbEntity
  8
0
  6
CONTINUOUS
 62
               7
100
AcDbLine
 10
197.9607695215339
 20
-3.8000000377040521
 30
0.0
 11
200.0
 21
-2.622649767109948
 31
0.0
  0
LINE
  5
131
100
AcDbEntity
  8
0
  6
CONTINUOUS
 62
               7
100
AcDbLine
 10
197.9607695215339
 20
3.7999999661784614
 30
0.0
 11
200.0
 21
2.6226496955843572
 31
0.0
  0
LINE
  5
132
100
AcDbEntity
  8
0
  6
CONTINUOUS
 62
               7
100
AcDbLine
 10
194.00000000232404
 20
3.1999999572377646
 30
0.0
 11
194.34641014271921
 21
3.7999999214749778
 31
0.0
  0
LINE
  5
133
100
AcDbEntity
  8
0
  6
CONTINUOUS
 62
               7
100
AcDbLine
 10
194.34641016740798
 20
-3.8000000357627925
 30
0.0
 11
195.50000001339404
 21
-3.8000000357627925
 31
0.0
  0
LINE
  5
134
100
AcDbEntity
  8
0
  6
CONTINUOUS
 62
               7
100
AcDbLine
 10
194.34641016740798
 20
3.7999999642372018
 30
0.0
 11
195.50000001339404
 21
3.7999999642372018
 31
0.0
  0
LINE
  5
135
100
AcDbEntity
  8
0
  6
CONTINUOUS
 62
               7
100
AcDbLine
 10
194.0
 20
3.1999999532123979
 30
0.0
 11
194.0
 21
-3.2000000287633554
 31
0.0
  0
LINE
  5
136
100
AcDbEntity
  8
0
  6
CONTINUOUS
 62
               2
100
AcDbLine
 10
158.0
 20
-1.1811857447427769
 30
0.0
 11
158.0
 21
1.3546068045632751
 31
0.0
  0
LINE
  5
137
100
AcDbEntity
  8
0
  6
CONTINUOUS
 62
               2
100
AcDbLine
 10
168.0
 20
-1.1811857447427769
 30
0.0
 11
168.0
 21
1.3546068045632751
 31
0.0
  0
LINE
  5
138
100
AcDbEntity
  8
0
  6
CONTINUOUS
 62
               2
100
AcDbLine
 10
178.0
 20
-1.1811857447427769
 30
0.0
 11
178.0
 21
1.3546068045632751
 31
0.0
  0
LINE
  5
139
100
AcDbEntity
  8
0
  6
CONTINUOUS
 62
               2
100
AcDbLine
 10
188.0
 20
-1.1811857447427769
 30
0.0
 11
188.0
 21
1.3546068045632751
 31
0.0
  0
LINE
  5
13A
100
AcDbEntity
  8
0
  6
CONTINUOUS
 62
               2
100
AcDbLine
 10
108.00000000000001
 20
-1.1811857447427769
 30
0.0
 11
108.00000000000001
 21
1.3546068045632751
 31
0.0
  0
LINE
  5
13B
100
AcDbEntity
  8
0
  6
CONTINUOUS
 62
               2
100
AcDbLine
 10
118.00000000000001
 20
-1.1811857447427769
 30
0.0
 11
118.00000000000001
 21
1.3546068045632751
 31
0.0
  0
LINE
  5
13C
100
AcDbEntity
  8
0
  6
CONTINUOUS
 62
               2
100
AcDbLine
 10
128.0
 20
-1.1811857447427769
 30
0.0
 11
128.0
 21
1.3546068045632751
 31
0.0
  0
LINE
  5
13D
100
AcDbEntity
  8
0
  6
CONTINUOUS
 62
               2
100
AcDbLine
 10
138.0
 20
-1.1811857447427769
 30
0.0
 11
138.0
 21
1.3546068045632751
 31
0.0
  0
LINE
  5
13E
100
AcDbEntity
  8
0
  6
CONTINUOUS
 62
               2
100
AcDbLine
 10
148.0
 20
-1.1811857447427769
 30
0.0
 11
148.0
 21
1.3546068045632751
 31
0.0
  0
LINE
  5
13F
100
AcDbEntity
  8
0
  6
CONTINUOUS
 62
               7
100
AcDbLine
 10
51.043265038709436
 20
-7.0
 30
0.0
 11
51.043265038709436
 21
7.0
 31
0.0
  0
LINE
  5
140
100
AcDbEntity
  8
0
  6
CONTINUOUS
 62
               7
100
AcDbLine
 10
57.043265038709436
 20
-7.0
 30
0.0
 11
57.043265038709436
 21
7.0
 31
0.0
  0
LINE
  5
141
100
AcDbEntity
  8
0
  6
CONTINUOUS
 62
               7
100
AcDbLine
 10
49.043265038709436
 20
4.8640000000000043
 30
0.0
 11
49.043265038709436
 21
-4.8640000000000043
 31
0.0
  0
LINE
  5
142
100
AcDbEntity
  8
0
  6
CONTINUOUS
 62
               7
100
AcDbLine
 10
51.043265038709436
 20
-4.0
 30
0.0
 11
49.043265038709436
 21
-4.0
 31
0.0
  0
LINE
  5
143
100
AcDbEntity
  8
0
  6
CONTINUOUS
 62
               7
100
AcDbLine
 10
51.043265038709436
 20
4.0
 30
0.0
 11
49.043265038709436
 21
4.0
 31
0.0
  0
LINE
  5
144
100
AcDbEntity
  8
0
  6
CONTINUOUS
 62
               2
100
AcDbLine
 10
49.043265038709436
 20
-4.2830000000000013
 30
0.0
 11
48.702616614376097
 21
-4.2830000000000013
 31
0.0
  0
LINE
  5
145
100
AcDbEntity
  8
0
  6
CONTINUOUS
 62
               2
100
AcDbLine
 10
49.043265038709436
 20
4.2830000000000013
 30
0.0
 11
48.702616614376097
 21
4.2830000000000013
 31
0.0
  0
LINE
  5
146
100
AcDbEntity
  8
0
  6
CONTINUOUS
 62
               7
100
AcDbLine
 10
49.043265038709436
 20
-4.8640000000000043
 30
0.0
 11
48.702616614376097
 21
-4.8640000000000043
 31
0.0
  0
LINE
  5
147
100
AcDbEntity
  8
0
  6
CONTINUOUS
 62
               7
100
AcDbLine
 10
49.043265038709436
 20
4.8640000000000043
 30
0.0
 11
48.702616614376097
 21
4.8640000000000043
 31
0.0
  0
LINE
  5
148
100
AcDbEntity
  8
0
  6
CONTINUOUS
 62
               7
100
AcDbLine
 10
37.702616614376097
 20
-5.5
 30
0.0
 11
38.202616614376097
 21
-6.0
 31
0.0
  0
LINE
  5
149
100
AcDbEntity
  8
0
  6
CONTINUOUS
 62
               7
100
AcDbLine
 10
37.702616614376097
 20
5.5
 30
0.0
 11
38.202616614376097
 21
6.0
 31
0.0
  0
LINE
  5
14A
100
AcDbEntity
  8
0
  6
CONTINUOUS
 62
               7
100
AcDbLine
 10
38.202616614376097
 20
-6.0
 30
0.0
 11
48.702616614376097
 21
-6.0
 31
0.0
  0
LINE
  5
14B
100
AcDbEntity
  8
0
  6
CONTINUOUS
 62
               7
100
AcDbLine
 10
48.702616614376097
 20
6.0
 30
0.0
 11
38.202616614376097
 21
6.0
 31
0.0
  0
LINE
  5
14C
100
AcDbEntity
  8
0
  6
CONTINUOUS
 62
               7
100
AcDbLine
 10
48.702616614376097
 20
-6.0
 30
0.0
 11
48.702616614376097
 21
6.0
 31
0.0
  0
LINE
  5
14D
100
AcDbEntity
  8
0
  6
CONTINUOUS
 62
               7
100
AcDbLine
 10
37.702616614376097
 20
-5.5
 30
0.0
 11
37.702616614376097
 21
5.5
 31
0.0
  0
LINE
  5
14E
100
AcDbEntity
  8
0
  6
CONTINUOUS
 62
               7
100
AcDbLine
 10
38.202616614376097
 20
6.0
 30
0.0
 11
38.202616614376097
 21
-6.0
 31
0.0
  0
LINE
  5
14F
100
AcDbEntity
  8
0
  6
CONTINUOUS
 62
               7
100
AcDbLine
 10
39.702616592989301
 20
5.999999957368189
 30
0.0
 11
39.702616592989301
 21
-6.0
 31
0.0
  0
LINE
  5
150
100
AcDbEntity
  8
0
  6
CONTINUOUS
 62
               7
100
AcDbLine
 10
57.043265038709436
 20
-4.0
 30
0.0
 11
59.043265038709436
 21
-4.0
 31
0.0
  0
LINE
  5
151
100
AcDbEntity
  8
0
  6
CONTINUOUS
 62
               7
100
AcDbLine
 10
70.383913463042774
 20
3.0
 30
0.0
 11
194.0
 21
3.0
 31
0.0
  0
LINE
  5
152
100
AcDbEntity
  8
0
  6
CONTINUOUS
 62
               7
100
AcDbLine
 10
70.383913463042774
 20
-3.0
 30
0.0
 11
194.0
 21
-3.0
 31
0.0
  0
LINE
  5
153
100
AcDbEntity
  8
0
  6
CONTINUOUS
 62
               2
100
AcDbLine
 10
98.000000000000014
 20
-1.181185760015012
 30
0.0
 11
98.000000000000014
 21
1.3546068045632751
 31
0.0
  0
LINE
  5
154
100
AcDbEntity
  8
0
  6
CONTINUOUS
 62
               2
100
AcDbLine
 10
88.000000000000014
 20
-1.181185760015012
 30
0.0
 11
88.000000000000014
 21
1.3546068045632751
 31
0.0
  0
CIRCLE
  5
155
100
AcDbEntity
  8
0
  6
CONTINUOUS
 62
               7
100
AcDbCircle
 10
188.0
 20
0.0
 30
0.0
 40
0.6
  0
CIRCLE
  5
156
100
AcDbEntity
  8
0
  6
CONTINUOUS
 62
               7
100
AcDbCircle
 10
178.0
 20
0.0
 30
0.0
 40
0.6
  0
CIRCLE
  5
157
100
AcDbEntity
  8
0
  6
CONTINUOUS
 62
               7
100
AcDbCircle
 10
168.0
 20
0.0
 30
0.0
 40
0.6
  0
CIRCLE
  5
158
100
AcDbEntity
  8
0
  6
CONTINUOUS
 62
               7
100
AcDbCircle
 10
158.0
 20
0.0
 30
0.0
 40
0.6
  0
CIRCLE
  5
159
100
AcDbEntity
  8
0
  6
CONTINUOUS
 62
               7
100
AcDbCircle
 10
148.0
 20
0.0
 30
0.0
 40
0.6
  0
CIRCLE
  5
15A
100
AcDbEntity
  8
0
  6
CONTINUOUS
 62
               7
100
AcDbCircle
 10
138.0
 20
0.0
 30
0.0
 40
0.6
  0
CIRCLE
  5
15B
100
AcDbEntity
  8
0
  6
CONTINUOUS
 62
               7
100
AcDbCircle
 10
128.0
 20
0.0
 30
0.0
 40
0.6
  0
CIRCLE
  5
15C
100
AcDbEntity
  8
0
  6
CONTINUOUS
 62
               7
100
AcDbCircle
 10
118.00000000000001
 20
0.0
 30
0.0
 40
0.6
  0
CIRCLE
  5
15D
100
AcDbEntity
  8
0
  6
CONTINUOUS
 62
               7
100
AcDbCircle
 10
108.00000000000001
 20
0.0
 30
0.0
 40
0.6
  0
CIRCLE
  5
15E
100
AcDbEntity
  8
0
  6
CONTINUOUS
 62
               7
100
AcDbCircle
 10
98.000000000000014
 20
0.0
 30
0.0
 40
0.6
  0
CIRCLE
  5
15F
100
AcDbEntity
  8
0
  6
CONTINUOUS
 62
               7
100
AcDbCircle
 10
88.000000000000014
 20
0.0
 30
0.0
 40
0.6
  0
ARC
  5
160
100
AcDbEntity
  8
0
  6
CONTINUOUS
 62
               7
100
AcDbCircle
 10
0.0
 20
0.0
 30
0.0
 40
11.0
100
AcDbArc
 50
15.826620131872316
 51
344.17337986812686
  0
SPLINE
  5
161
100
AcDbEntity
  8
0
  6
CONTINUOUS
 62
               7
100
AcDbSpline
210
0.0
220
0.0
230
1.0
 70
               0
 71
               3
 72
               0
 73
               0
 74
               9
 44
0.000001
 12
-0.3364388813861331
 22
-0.9417053037397886
 32
0.0
 13
0.3364388813861338
 23
-0.9417053037397883
 33
0.0
 11
40.238514946832112
 21
6.0
 31
0.0
 11
40.010366182044955
 21
5.2705759214336618
 31
0.0
 11
39.842404061036305
 21
4.5244057086113152
 31
0.0
 11
39.738284419126401
 21
3.7651517109186008
 31
0.0
 11
39.702616592989301
 21
2.9999999999999574
 31
0.0
 11
39.738284419126408
 21
2.2348482890813353
 31
0.0
 11
39.842404061036312
 21
1.4755942913886426
 31
0.0
 11
40.010366182044962
 21
0.7294240785663175
 31
0.0
 11
40.238514946832112
 21
0.0000000000000002
 31
0.0
  0
SPLINE
  5
162
100
AcDbEntity
  8
0
  6
CONTINUOUS
 62
               7
100
AcDbSpline
210
0.0
220
0.0
230
1.0
 70
               0
 71
               3
 72
               0
 73
               0
 74
               9
 44
0.000001
 12
-0.3364388813861327
 22
-0.9417053037397888
 32
0.0
 13
0.3364388813861303
 23
-0.9417053037397896
 33
0.0
 11
40.238514946832112
 21
0.0
 31
0.0
 11
40.010366182044962
 21
-0.7294240785663183
 31
0.0
 11
39.842404061036312
 21
-1.4755942913886433
 31
0.0
 11
39.738284419126408
 21
-2.2348482890813353
 31
0.0
 11
39.702616592989301
 21
-2.9999999999999574
 31
0.0
 11
39.738284419126401
 21
-3.7651517109186008
 31
0.0
 11
39.842404061036305
 21
-4.5244057086113143
 31
0.0
 11
40.010366182044955
 21
-5.2705759214336609
 31
0.0
 11
40.238514946832112
 21
-6.0
 31
0.0
  0
SPLINE
  5
163
100
AcDbEntity
  8
0
  6
CONTINUOUS
 62
               7
100
AcDbSpline
210
0.0
220
0.0
230
1.0
 70
               0
 71
               3
 72
               0
 73
               0
 74
               9
 44
0.000001
 12
0.3364388813861332
 22
-0.9417053037397886
 32
0.0
 13
-0.3364388813861335
 23
-0.9417053037397885
 33
0.0
 11
48.166718260533287
 21
6.0
 31
0.0
 11
48.394867025320444
 21
5.2705759214336618
 31
0.0
 11
48.562829146329094
 21
4.5244057086113152
 31
0.0
 11
48.666948788238997
 21
3.7651517109186008
 31
0.0
 11
48.702616614376097
 21
2.9999999999999574
 31
0.0
 11
48.66694878823899
 21
2.2348482890813353
 31
0.0
 11
48.562829146329086
 21
1.4755942913886426
 31
0.0
 11
48.394867025320437
 21
0.7294240785663174
 31
0.0
 11
48.166718260533287
 21
-0.0000000000000002
 31
0.0
  0
SPLINE
  5
164
100
AcDbEntity
  8
0
  6
CONTINUOUS
 62
               7
100
AcDbSpline
210
0.0
220
0.0
230
1.0
 70
               0
 71
               3
 72
               0
 73
               0
 74
               9
 44
0.000001
 12
0.3364388813861326
 22
-0.9417053037397888
 32
0.0
 13
-0.33643888138613
 23
-0.9417053037397897
 33
0.0
 11
48.166718260533287
 21
0.0
 31
0.0
 11
48.394867025320437
 21
-0.7294240785663183
 31
0.0
 11
48.562829146329086
 21
-1.4755942913886433
 31
0.0
 11
48.66694878823899
 21
-2.2348482890813353
 31
0.0
 11
48.702616614376097
 21
-2.9999999999999574
 31
0.0
 11
48.666948788238997
 21
-3.7651517109186008
 31
0.0
 11
48.562829146329094
 21
-4.5244057086113143
 31
0.0
 11
48.394867025320444
 21
-5.2705759214336609
 31
0.0
 11
48.166718260533287
 21
-6.0
 31
0.0
  0
LINE
  5
165
100
AcDbEntity
  8
0
  6
CONTINUOUS
 62
               7
100
AcDbLine
 10
40.238514946832112
 20
0.0
 30
0.0
 11
48.166718260533287
 21
0.0
 31
0.0
  0
LINE
  5
166
100
AcDbEntity
  8
0
  6
CONTINUOUS
 62
               7
100
AcDbLine
 10
57.043265038709436
 20
4.0
 30
0.0
 11
59.043265038709436
 21
4.0
 31
0.0
  0
LINE
  5
167
100
AcDbEntity
  8
0
  6
CONTINUOUS
 62
               7
100
AcDbLine
 10
67.848015130586759
 20
0.0
 30
0.0
 11
59.919811816885584
 21
0.0
 31
0.0
  0
SPLINE
  5
168
100
AcDbEntity
  8
0
  6
CONTINUOUS
 62
               7
100
AcDbSpline
210
0.0
220
0.0
230
1.0
 70
               0
 71
               3
 72
               0
 73
               0
 74
               9
 44
0.000001
 12
-0.3364388813861327
 22
-0.9417053037397888
 32
0.0
 13
0.3364388813861303
 23
-0.9417053037397896
 33
0.0
 11
59.919811816885584
 21
0.0
 31
0.0
 11
59.691663052098434
 21
-0.7294240785663183
 31
0.0
 11
59.523700931089785
 21
-1.4755942913886433
 31
0.0
 11
59.419581289179881
 21
-2.2348482890813353
 31
0.0
 11
59.383913463042774
 21
-2.9999999999999574
 31
0.0
 11
59.419581289179874
 21
-3.7651517109186008
 31
0.0
 11
59.523700931089778
 21
-4.5244057086113143
 31
0.0
 11
59.691663052098427
 21
-5.2705759214336609
 31
0.0
 11
59.919811816885584
 21
-6.0
 31
0.0
  0
SPLINE
  5
169
100
AcDbEntity
  8
0
  6
CONTINUOUS
 62
               7
100
AcDbSpline
210
0.0
220
0.0
230
1.0
 70
               0
 71
               3
 72
               0
 73
               0
 74
               9
 44
0.000001
 12
-0.3364388813861331
 22
-0.9417053037397886
 32
0.0
 13
0.3364388813861338
 23
-0.9417053037397883
 33
0.0
 11
59.919811816885584
 21
6.0
 31
0.0
 11
59.691663052098427
 21
5.2705759214336618
 31
0.0
 11
59.523700931089778
 21
4.5244057086113152
 31
0.0
 11
59.419581289179874
 21
3.7651517109186008
 31
0.0
 11
59.383913463042774
 21
2.9999999999999574
 31
0.0
 11
59.419581289179881
 21
2.2348482890813353
 31
0.0
 11
59.523700931089785
 21
1.4755942913886426
 31
0.0
 11
59.691663052098434
 21
0.7294240785663175
 31
0.0
 11
59.919811816885584
 21
0.0000000000000002
 31
0.0
  0
SPLINE
  5
16A
100
AcDbEntity
  8
0
  6
CONTINUOUS
 62
               7
100
AcDbSpline
210
0.0
220
0.0
230
1.0
 70
               0
 71
               3
 72
               0
 73
               0
 74
               9
 44
0.000001
 12
0.3364388813861326
 22
-0.9417053037397888
 32
0.0
 13
-0.3364388813861302
 23
-0.9417053037397897
 33
0.0
 11
67.848015130586759
 21
0.0
 31
0.0
 11
68.076163895373909
 21
-0.7294240785663182
 31
0.0
 11
68.244126016382566
 21
-1.4755942913886433
 31
0.0
 11
68.34824565829247
 21
-2.2348482890813353
 31
0.0
 11
68.38391348442957
 21
-2.9999999999999574
 31
0.0
 11
68.34824565829247
 21
-3.7651517109186008
 31
0.0
 11
68.244126016382566
 21
-4.5244057086113143
 31
0.0
 11
68.076163895373909
 21
-5.2705759214336609
 31
0.0
 11
67.848015130586759
 21
-6.0
 31
0.0
  0
SPLINE
  5
16B
100
AcDbEntity
  8
0
  6
CONTINUOUS
 62
               7
100
AcDbSpline
210
0.0
220
0.0
230
1.0
 70
               0
 71
               3
 72
               0
 73
               0
 74
               9
 44
0.000001
 12
0.3364388813861332
 22
-0.9417053037397886
 32
0.0
 13
-0.3364388813861335
 23
-0.9417053037397885
 33
0.0
 11
67.848015130586759
 21
6.0
 31
0.0
 11
68.076163895373909
 21
5.2705759214336618
 31
0.0
 11
68.244126016382566
 21
4.5244057086113152
 31
0.0
 11
68.34824565829247
 21
3.7651517109186008
 31
0.0
 11
68.38391348442957
 21
2.9999999999999574
 31
0.0
 11
68.34824565829247
 21
2.2348482890813353
 31
0.0
 11
68.244126016382566
 21
1.4755942913886426
 31
0.0
 11
68.076163895373909
 21
0.7294240785663174
 31
0.0
 11
67.848015130586759
 21
-0.0000000000000004
 31
0.0
  0
LINE
  5
16C
100
AcDbEntity
  8
0
  6
CONTINUOUS
 62
               7
100
AcDbLine
 10
68.38391348442957
 20
5.999999957368189
 30
0.0
 11
68.38391348442957
 21
-6.0
 31
0.0
  0
LINE
  5
16D
100
AcDbEntity
  8
0
  6
CONTINUOUS
 62
               7
100
AcDbLine
 10
69.883913463042774
 20
6.0
 30
0.0
 11
69.883913463042774
 21
-6.0
 31
0.0
  0
LINE
  5
16E
100
AcDbEntity
  8
0
  6
CONTINUOUS
 62
               7
100
AcDbLine
 10
70.383913463042774
 20
-5.5
 30
0.0
 11
70.383913463042774
 21
5.5
 31
0.0
  0
LINE
  5
16F
100
AcDbEntity
  8
0
  6
CONTINUOUS
 62
               7
100
AcDbLine
 10
59.383913463042774
 20
-6.0
 30
0.0
 11
59.383913463042774
 21
6.0
 31
0.0
  0
LINE
  5
170
100
AcDbEntity
  8
0
  6
CONTINUOUS
 62
               7
100
AcDbLine
 10
59.383913463042774
 20
6.0
 30
0.0
 11
69.883913463042774
 21
6.0
 31
0.0
  0
LINE
  5
171
100
AcDbEntity
  8
0
  6
CONTINUOUS
 62
               7
100
AcDbLine
 10
69.883913463042774
 20
-6.0
 30
0.0
 11
59.383913463042774
 21
-6.0
 31
0.0
  0
LINE
  5
172
100
AcDbEntity
  8
0
  6
CONTINUOUS
 62
               7
100
AcDbLine
 10
70.383913463042774
 20
5.5
 30
0.0
 11
69.883913463042774
 21
6.0
 31
0.0
  0
LINE
  5
173
100
AcDbEntity
  8
0
  6
CONTINUOUS
 62
               7
100
AcDbLine
 10
70.383913463042774
 20
-5.5
 30
0.0
 11
69.883913463042774
 21
-6.0
 31
0.0
  0
LINE
  5
174
100
AcDbEntity
  8
0
  6
CONTINUOUS
 62
               7
100
AcDbLine
 10
59.043265038709436
 20
4.8640000000000043
 30
0.0
 11
59.383913463042774
 21
4.8640000000000043
 31
0.0
  0
LINE
  5
175
100
AcDbEntity
  8
0
  6
CONTINUOUS
 62
               7
100
AcDbLine
 10
59.043265038709436
 20
-4.8640000000000043
 30
0.0
 11
59.383913463042774
 21
-4.8640000000000043
 31
0.0
  0
LINE
  5
176
100
AcDbEntity
  8
0
  6
CONTINUOUS
 62
               2
100
AcDbLine
 10
59.043265038709436
 20
4.2830000000000013
 30
0.0
 11
59.383913463042774
 21
4.2830000000000013
 31
0.0
  0
LINE
  5
177
100
AcDbEntity
  8
0
  6
CONTINUOUS
 62
               2
100
AcDbLine
 10
59.043265038709436
 20
-4.2830000000000013
 30
0.0
 11
59.383913463042774
 21
-4.2830000000000013
 31
0.0
  0
LINE
  5
178
100
AcDbEntity
  8
0
  6
CONTINUOUS
 62
               7
100
AcDbLine
 10
59.043265038709436
 20
4.8640000000000043
 30
0.0
 11
59.043265038709436
 21
-4.8640000000000043
 31
0.0
  0
LINE
  5
179
100
AcDbEntity
  8
0
  6
CONTINUOUS
 62
               7
100
AcDbLine
 10
51.043265038709421
 20
7.0
 30
0.0
 11
57.043265038709421
 21
7.0
 31
0.0
  0
LINE
  5
17A
100
AcDbEntity
  8
0
  6
CONTINUOUS
 62
               7
100
AcDbLine
 10
51.043265038709421
 20
-7.0
 30
0.0
 11
57.043265038709436
 21
-7.0
 31
0.0
  0
LINE
  5
17B
100
AcDbEntity
  8
0
  6
CONTINUOUS
 62
               7
100
AcDbLine
 10
51.957154955643531
 20
0.0
 30
0.0
 11
56.12937512177534
 21
0.0
 31
0.0
  0
SPLINE
  5
17C
100
AcDbEntity
  8
0
  6
CONTINUOUS
 62
               7
100
AcDbSpline
210
0.0
220
0.0
230
1.0
 70
               0
 71
               3
 72
               0
 73
               0
 74
               9
 44
0.000001
 12
0.4629029750557498
 22
-0.8864089551017272
 32
0.0
 13
-0.4629029750557531
 23
-0.8864089551017255
 33
0.0
 11
56.12937512177534
 21
7.0
 31
0.0
 11
56.508557373805282
 21
6.1713353974999423
 31
0.0
 11
56.795630129960145
 21
5.3050409590332936
 31
0.0
 11
56.978797163510521
 21
4.4099208574268243
 31
0.0
 11
57.04326503870945
 21
3.4999999999999858
 31
0.0
 11
56.978797163510521
 21
2.590079142573154
 31
0.0
 11
56.795630129960145
 21
1.6949590409666913
 31
0.0
 11
56.508557373805282
 21
0.8286646025000497
 31
0.0
 11
56.12937512177534
 21
-0.0000000000000009
 31
0.0
  0
SPLINE
  5
17D
100
AcDbEntity
  8
0
  6
CONTINUOUS
 62
               7
100
AcDbSpline
210
0.0
220
0.0
230
1.0
 70
               0
 71
               3
 72
               0
 73
               0
 74
               9
 44
0.000001
 12
0.4629029750557471
 22
-0.8864089551017287
 32
0.0
 13
-0.4629029750557472
 23
-0.8864089551017286
 33
0.0
 11
56.12937512177534
 21
0.0
 31
0.0
 11
56.508557373805274
 21
-0.8286646025000516
 31
0.0
 11
56.795630129960131
 21
-1.6949590409666926
 31
0.0
 11
56.978797163510507
 21
-2.5900791425731549
 31
0.0
 11
57.043265038709436
 21
-3.4999999999999858
 31
0.0
 11
56.978797163510514
 21
-4.4099208574268234
 31
0.0
 11
56.795630129960138
 21
-5.3050409590332936
 31
0.0
 11
56.508557373805282
 21
-6.1713353974999414
 31
0.0
 11
56.12937512177534
 21
-6.9999999999999991
 31
0.0
  0
SPLINE
  5
17E
100
AcDbEntity
  8
0
  6
CONTINUOUS
 62
               7
100
AcDbSpline
210
0.0
220
0.0
230
1.0
 70
               0
 71
               3
 72
               0
 73
               0
 74
               9
 44
0.000001
 12
-0.4629029750557441
 22
-0.8864089551017302
 32
0.0
 13
0.462902975055741
 23
-0.8864089551017318
 33
0.0
 11
51.957154955643531
 21
0.0
 31
0.0
 11
51.577972703613597
 21
-0.8286646025000518
 31
0.0
 11
51.290899947458747
 21
-1.6949590409666935
 31
0.0
 11
51.107732913908372
 21
-2.5900791425731562
 31
0.0
 11
51.04326503870945
 21
-3.4999999999999858
 31
0.0
 11
51.107732913908372
 21
-4.4099208574268225
 31
0.0
 11
51.290899947458747
 21
-5.3050409590332919
 31
0.0
 11
51.577972703613597
 21
-6.1713353974999414
 31
0.0
 11
51.957154955643531
 21
-7.0000000000000009
 31
0.0
  0
SPLINE
  5
17F
100
AcDbEntity
  8
0
  6
CONTINUOUS
 62
               7
100
AcDbSpline
210
0.0
220
0.0
230
1.0
 70
               0
 71
               3
 72
               0
 73
               0
 74
               9
 44
0.000001
 12
-0.4629029750557413
 22
0.8864089551017317
 32
0.0
 13
0.4629029750557382
 23
0.8864089551017332
 33
0.0
 11
51.957154955643531
 21
0.0
 31
0.0
 11
51.577972703613597
 21
0.8286646025000528
 31
0.0
 11
51.290899947458747
 21
1.6949590409666946
 31
0.0
 11
51.107732913908372
 21
2.5900791425731562
 31
0.0
 11
51.04326503870945
 21
3.4999999999999858
 31
0.0
 11
51.107732913908372
 21
4.4099208574268225
 31
0.0
 11
51.290899947458747
 21
5.305040959033291
 31
0.0
 11
51.577972703613597
 21
6.1713353974999396
 31
0.0
 11
51.957154955643531
 21
7.0
 31
0.0
  0
ENDBLK
  5
180
100
AcDbEntity
  8
0
100
AcDbBlockEnd
  0
ENDSEC
  0
SECTION
  2
ENTITIES
  0
INSERT
  5
181
100
AcDbEntity
  8
0
  6
ByBlock
100
AcDbBlockReference
  2
DTRY-NZL100FMT-1
 10
-45.488499035956011
 20
-48.921541663689339
 30
0.0
  0
INSERT
  5
182
100
AcDbEntity
  8
0
  6
ByBlock
100
AcDbBlockReference
  2
DTRY-NZL100FMT-2
 10
-134.57364712276973
 20
-48.921541663689339
 30
0.0
  0
INSERT
  5
183
100
AcDbEntity
  8
0
  6
ByBlock
100
AcDbBlockReference
  2
DTRY-NZL100FMT-3
 10
-45.488499035956011
 20
82.384597646352375
 30
0.0
  0
MTEXT
  5
184
100
AcDbEntity
  8
0
  6
CONTINUOUS
 62
               7
100
AcDbMText
 10
115.52672595002113
 20
-126.0
 30
0.0
 40
6.3000001907348633
 41
0.0
 71
               4
 72
               1
  1
\W1.121;\A1;KOGANEI CORP.
  0
MTEXT
  5
185
100
AcDbEntity
  8
0
  6
CONTINUOUS
 62
               7
100
AcDbMText
 10
135.28361320185996
 20
125.10000610351562
 30
0.0
 40
4.5
 41
0.0
 71
               4
 72
               1
  1
\W1.311;\A1;Ver. 1.0
  0
LINE
  5
186
100
AcDbEntity
  8
0
  6
CONTINUOUS
 62
               7
100
AcDbLine
 10
-109.25
 20
132.60000610351562
 30
0.0
 11
-109.25
 21
117.60000610351562
 31
0.0
  0
LINE
  5
187
100
AcDbEntity
  8
0
  6
CONTINUOUS
 62
               7
100
AcDbLine
 10
-194.25
 20
117.60000610351562
 30
0.0
 11
-109.25
 21
117.60000610351562
 31
0.0
  0
LINE
  5
188
100
AcDbEntity
  8
0
  6
CONTINUOUS
 62
               7
100
AcDbLine
 10
109.80000305175781
 20
117.60000610351562
 30
0.0
 11
194.80000305175781
 21
117.60000610351562
 31
0.0
  0
LINE
  5
189
100
AcDbEntity
  8
0
  6
CONTINUOUS
 62
               7
100
AcDbLine
 10
109.80000305175781
 20
132.60000610351562
 30
0.0
 11
109.80000305175781
 21
117.60000610351562
 31
0.0
  0
LINE
  5
18A
100
AcDbEntity
  8
0
  6
CONTINUOUS
 62
               7
100
AcDbLine
 10
109.80000305175781
 20
-118.5
 30
0.0
 11
194.80000305175781
 21
-118.5
 31
0.0
  0
LINE
  5
18B
100
AcDbEntity
  8
0
  6
CONTINUOUS
 62
               7
100
AcDbLine
 10
109.80000305175781
 20
-118.5
 30
0.0
 11
109.80000305175781
 21
-133.5
 31
0.0
  0
LINE
  5
18C
100
AcDbEntity
  8
0
  6
CONTINUOUS
 62
               7
100
AcDbLine
 10
-194.25
 20
-133.5
 30
0.0
 11
194.80000305175781
 21
-133.5
 31
0.0
  0
LINE
  5
18D
100
AcDbEntity
  8
0
  6
CONTINUOUS
 62
               7
100
AcDbLine
 10
-194.25
 20
132.60000610351562
 30
0.0
 11
-194.25
 21
-133.5
 31
0.0
  0
LINE
  5
18E
100
AcDbEntity
  8
0
  6
CONTINUOUS
 62
               7
100
AcDbLine
 10
194.80000305175781
 20
132.60000610351562
 30
0.0
 11
194.80000305175781
 21
-133.5
 31
0.0
  0
LINE
  5
18F
100
AcDbEntity
  8
0
  6
CONTINUOUS
 62
               7
100
AcDbLine
 10
-194.25
 20
132.60000610351562
 30
0.0
 11
194.80000305175781
 21
132.60000610351562
 31
0.0
  0
MTEXT
  5
190
100
AcDbEntity
  8
0
  6
CONTINUOUS
 62
               7
100
AcDbMText
 10
-185.69642856631597
 20
107.60000610351562
 30
0.0
 40
4.5
 41
0.0
 71
               4
 72
               1
  1
\W1.071;\A1;MODEL:DTRY-NZL100FMT
  0
MTEXT
  5
191
100
AcDbEntity
  8
0
  6
CONTINUOUS
 62
               1
100
AcDbMText
 10
-166.74999666213989
 20
128.85000610351562
 30
0.0
 40
4.5
 41
0.0
 71
               4
 72
               1
  1
\A1;CRECEED
  0
MTEXT
  5
192
100
AcDbEntity
  8
0
  6
CONTINUOUS
 62
               1
100
AcDbMText
 10
-166.67104949861888
 20
121.35000610351562
 30
0.0
 40
4.5
 41
0.0
 71
               4
 72
               1
  1
\W1.105;\A1;IONIZER
  0
MTEXT
  5
193
100
AcDbEntity
  8
0
  6
CONTINUOUS
 62
               3
100
AcDbMText
 10
78.98768690636085
 20
98.097140242225223
 30
0.0
 40
3.1999950408935547
 41
0.0
 71
               4
 72
               1
  1
\W1.065;\A1;STRETCH LINE
  0
LINE
  5
194
100
AcDbEntity
  8
0
  6
CONTINUOUS
 62
               7
100
AcDbLine
 10
-184.25
 20
-115.50000000000003
 30
0.0
 11
-80.749999999999972
 21
-115.50000000000003
 31
0.0
  0
LINE
  5
195
100
AcDbEntity
  8
0
  6
CONTINUOUS
 62
               7
100
AcDbLine
 10
-184.25
 20
-123.50000000000003
 30
0.0
 11
-80.749999999999972
 21
-123.50000000000003
 31
0.0
  0
MTEXT
  5
196
100
AcDbEntity
  8
0
  6
CONTINUOUS
 62
               7
100
AcDbMText
 10
-181.21249996189027
 20
-111.50000000000003
 30
0.0
 40
4.5
 41
0.0
 71
               4
 72
               1
  1
\W1.050;\A1;DTRY-NZL100FMT
  0
MTEXT
  5
197
100
AcDbEntity
  8
0
  6
CONTINUOUS
 62
               7
100
AcDbMText
 10
-181.2317073395011
 20
-119.50000000000003
 30
0.0
 40
4.5
 41
0.0
 71
               4
 72
               1
  1
\W1.024;\A1;DTRY-NZL200FMT
  0
MTEXT
  5
198
100
AcDbEntity
  8
0
  6
CONTINUOUS
 62
               7
100
AcDbMText
 10
-104.5357142948356
 20
-119.50000000000003
 30
0.0
 40
4.5
 41
0.0
 71
               4
 72
               1
  1
\W1.286;\A1;100
  0
MTEXT
  5
199
100
AcDbEntity
  8
0
  6
CONTINUOUS
 62
               7
100
AcDbMText
 10
-100.09999999284742
 20
-111.50000000000003
 30
0.0
 40
4.5
 41
0.0
 71
               4
 72
               1
  1
\W1.200;\A1;0
  0
MTEXT
  5
19A
100
AcDbEntity
  8
0
  6
CONTINUOUS
 62
               7
100
AcDbMText
 10
-113.74999999999997
 20
-103.50000000000003
 30
0.0
 40
4.5
 41
0.0
 71
               4
 72
               1
  1
\A1;STRETCH
  0
MTEXT
  5
19B
100
AcDbEntity
  8
0
  6
CONTINUOUS
 62
               7
100
AcDbMText
 10
-158.75
 20
-103.50000000000003
 30
0.0
 40
4.5
 41
0.0
 71
               4
 72
               1
  1
\A1;TYPE
  0
LINE
  5
19C
100
AcDbEntity
  8
0
  6
CONTINUOUS
 62
               7
100
AcDbLine
 10
-116.74999999999997
 20
-99.500000000000028
 30
0.0
 11
-116.74999999999997
 21
-123.5
 31
0.0
  0
LINE
  5
19D
100
AcDbEntity
  8
0
  6
CONTINUOUS
 62
               7
100
AcDbLine
 10
-184.25
 20
-99.500000000000028
 30
0.0
 11
-184.25
 21
-123.5
 31
0.0
  0
LINE
  5
19F
100
AcDbEntity
  8
0
  6
PHANTOM
 62
               3
100
AcDbLine
 10
97.509610706992987
 20
95.097140242225223
 30
0.0
 11
97.509610706992987
 21
64.365967728039152
 31
0.0
  0
LINE
  5
1A0
100
AcDbEntity
  8
0
  6
CONTINUOUS
 62
               7
100
AcDbLine
 10
-184.25
 20
-107.50000000000003
 30
0.0
 11
-80.749999999999972
 21
-107.50000000000003
 31
0.0
  0
LINE
  5
1A1
100
AcDbEntity
  8
0
  6
CONTINUOUS
 62
               7
100
AcDbLine
 10
-184.25
 20
-99.500000000000028
 30
0.0
 11
-80.749999999999972
 21
-99.500000000000028
 31
0.0
  0
MTEXT
  5
1A2
100
AcDbEntity
  8
0
  6
CONTINUOUS
 62
               7
100
AcDbMText
 10
-158.7011834411183
 20
-94.575045462574224
 30
0.0
 40
4.5
 41
0.0
 71
               4
 72
               1
  1
\W1.065;\A1;STRETCH LIST
  0
LINE
  5
1A3
100
AcDbEntity
  8
0
  6
CONTINUOUS
 62
               7
100
AcDbLine
 10
-80.749999999999972
 20
-99.500000000000028
 30
0.0
 11
-80.749999999999972
 21
-123.5
 31
0.0
  0
LINE
  5
1A4
100
AcDbEntity
  8
0
  6
PHANTOM
 62
               3
100
AcDbLine
 10
95.934564231269235
 20
33.791000974945746
 30
0.0
 11
95.934564231269235
 21
3.0598284607596753
 31
0.0
  0
ENDSEC
  0
SECTION
  2
OBJECTS
  0
DICTIONARY
  5
19
100
AcDbDictionary
  3
ACAD_GROUP
350
1A
  3
ACAD_MLINESTYLE
350
1B
  0
DICTIONARY
  5
1A
102
{ACAD_REACTORS
330
19
102
}
100
AcDbDictionary
  0
DICTIONARY
  5
1B
102
{ACAD_REACTORS
330
19
102
}
100
AcDbDictionary
  3
STANDARD
350
1C
  0
MLINESTYLE
  5
1C
102
{ACAD_REACTORS
330
1B
102
}
100
AcDbMlineStyle
  2
Standard
 70
               0
  3

 62
               0
 51
90.0
 52
90.0
 71
               2
 49
0.5
 62
             256
  6
ByLayer
 49
-0.5
 62
             256
  6
ByLayer
  0
ENDSEC
  0
EOF
