  0
SECTION
  2
HEADER
  9
$ACADVER
  1
AC1012
  9
$DWGCODEPAGE
  3
dos932
  9
$INSBASE
 10
0.0
 20
0.0
 30
0.0
  9
$EXTMIN
 10
-138.39999389648437
 20
-94.800003051757812
 30
0.0
  9
$EXTMAX
 10
138.35000610351562
 20
94.5
 30
0.0
  9
$LIMMIN
 10
-138.39999389648437
 20
-94.800003051757812
  9
$LIMMAX
 10
138.35000610351562
 20
94.5
  9
$ORTHOMODE
 70
               0
  9
$REGENMODE
 70
               1
  9
$FILLMODE
 70
               1
  9
$QTEXTMODE
 70
               0
  9
$MIRRTEXT
 70
               1
  9
$DRAGMODE
 70
               2
  9
$LTSCALE
 40
1.0
  9
$OSMODE
 70
               0
  9
$ATTMODE
 70
               1
  9
$TEXTSIZE
 40
3.2000000476837158
  9
$TRACEWID
 40
0.05
  9
$TEXTSTYLE
  7
MX_NOTE_STANDARD
  9
$CLAYER
  8
0
  9
$CELTYPE
  6
CONTINUOUS
  9
$CECOLOR
 62
             256
  9
$CELTSCALE
 40
1.0
  9
$DELOBJ
 70
               1
  9
$DISPSILH
 70
               0
  9
$DIMSCALE
 40
1.0
  9
$DIMASZ
 40
2.5
  9
$DIMEXO
 40
1.5
  9
$DIMDLI
 40
3.75
  9
$DIMRND
 40
0.0
  9
$DIMDLE
 40
0.0
  9
$DIMEXE
 40
1.5
  9
$DIMTP
 40
0.0
  9
$DIMTM
 40
0.0
  9
$DIMTXT
 40
3.2000000476837158
  9
$DIMCEN
 40
2.5
  9
$DIMTSZ
 40
0.0
  9
$DIMTOL
 70
               0
  9
$DIMLIM
 70
               0
  9
$DIMTIH
 70
               0
  9
$DIMTOH
 70
               0
  9
$DIMSE1
 70
               0
  9
$DIMSE2
 70
               0
  9
$DIMTAD
 70
               1
  9
$DIMZIN
 70
               8
  9
$DIMBLK
  1

  9
$DIMASO
 70
               1
  9
$DIMSHO
 70
               1
  9
$DIMPOST
  1

  9
$DIMAPOST
  1

  9
$DIMALT
 70
               0
  9
$DIMALTD
 70
               4
  9
$DIMALTF
 40
0.03937007874016
  9
$DIMLFAC
 40
1.0
  9
$DIMTOFL
 70
               1
  9
$DIMTVP
 40
0.0
  9
$DIMTIX
 70
               0
  9
$DIMSOXD
 70
               0
  9
$DIMSAH
 70
               0
  9
$DIMBLK1
  1

  9
$DIMBLK2
  1

  9
$DIMSTYLE
  2
MXDIMSTYLE
  9
$DIMCLRD
 70
               0
  9
$DIMCLRE
 70
               0
  9
$DIMCLRT
 70
               0
  9
$DIMTFAC
 40
1.0
  9
$DIMGAP
 40
1.0
  9
$DIMJUST
 70
               0
  9
$DIMSD1
 70
               0
  9
$DIMSD2
 70
               0
  9
$DIMTOLJ
 70
               1
  9
$DIMTZIN
 70
               0
  9
$DIMALTZ
 70
               0
  9
$DIMALTTZ
 70
               0
  9
$DIMFIT
 70
               3
  9
$DIMUPT
 70
               1
  9
$DIMUNIT
 70
               2
  9
$DIMDEC
 70
               4
  9
$DIMTDEC
 70
               4
  9
$DIMALTU
 70
               2
  9
$DIMALTTD
 70
               4
  9
$DIMTXSTY
  7
MX_NOTE_STANDARD
  9
$DIMAUNIT
 70
               0
  9
$LUNITS
 70
               2
  9
$LUPREC
 70
               4
  9
$SKETCHINC
 40
0.1
  9
$FILLETRAD
 40
0.0
  9
$AUNITS
 70
               0
  9
$AUPREC
 70
               0
  9
$MENU
  1
acad
  9
$ELEVATION
 40
0.0
  9
$PELEVATION
 40
0.0
  9
$THICKNESS
 40
0.0
  9
$LIMCHECK
 70
               0
  9
$BLIPMODE
 70
               1
  9
$CHAMFERA
 40
0.0
  9
$CHAMFERB
 40
0.0
  9
$CHAMFERC
 40
0.0
  9
$CHAMFERD
 40
0.0
  9
$SKPOLY
 70
               0
  9
$TDCREATE
 40
2453378.356307870
  9
$TDUPDATE
 40
2453378.356307870
  9
$TDINDWG
 40
0.0000000000
  9
$TDUSRTIMER
 40
0.0000000000
  9
$USRTIMER
 70
               1
  9
$ANGBASE
 50
0.0
  9
$ANGDIR
 70
               0
  9
$PDMODE
 70
               0
  9
$PDSIZE
 40
0.0
  9
$PLINEWID
 40
0.0
  9
$COORDS
 70
               1
  9
$SPLFRAME
 70
               0
  9
$SPLINETYPE
 70
               6
  9
$SPLINESEGS
 70
               8
  9
$ATTDIA
 70
               0
  9
$ATTREQ
 70
               1
  9
$HANDLING
 70
               1
  9
$HANDSEED
  5
DF
  9
$SURFTAB1
 70
               6
  9
$SURFTAB2
 70
               6
  9
$SURFTYPE
 70
               6
  9
$SURFU
 70
               6
  9
$SURFV
 70
               6
  9
$UCSNAME
  2

  9
$UCSORG
 10
0.0
 20
0.0
 30
0.0
  9
$UCSXDIR
 10
1.0
 20
0.0
 30
0.0
  9
$UCSYDIR
 10
0.0
 20
1.0
 30
0.0
  9
$PUCSNAME
  2

  9
$PUCSORG
 10
0.0
 20
0.0
 30
0.0
  9
$PUCSXDIR
 10
1.0
 20
0.0
 30
0.0
  9
$PUCSYDIR
 10
0.0
 20
1.0
 30
0.0
  9
$USERI1
 70
               0
  9
$USERI2
 70
               0
  9
$USERI3
 70
               0
  9
$USERI4
 70
               0
  9
$USERI5
 70
               0
  9
$USERR1
 40
0.0
  9
$USERR2
 40
0.0
  9
$USERR3
 40
0.0
  9
$USERR4
 40
0.0
  9
$USERR5
 40
0.0
  9
$WORLDVIEW
 70
               1
  9
$SHADEDGE
 70
               3
  9
$SHADEDIF
 70
              70
  9
$TILEMODE
 70
               1
  9
$MAXACTVP
 70
              16
  9
$PINSBASE
 10
0.0
 20
0.0
 30
0.0
  9
$PLIMCHECK
 70
               0
  9
$PEXTMIN
 10
1.0000000000000000E+20
 20
1.0000000000000000E+20
 30
1.0000000000000000E+20
  9
$PEXTMAX
 10
-1.0000000000000000E+20
 20
-1.0000000000000000E+20
 30
-1.0000000000000000E+20
  9
$PLIMMIN
 10
0.0
 20
0.0
  9
$PLIMMAX
 10
12.0
 20
9.0
  9
$UNITMODE
 70
               0
  9
$VISRETAIN
 70
               0
  9
$PLINEGEN
 70
               1
  9
$PSLTSCALE
 70
               0
  9
$TREEDEPTH
 70
            3020
  9
$PICKSTYLE
 70
               1
  9
$CMLSTYLE
  2
Standard
  9
$CMLJUST
 70
               0
  9
$CMLSCALE
 40
1.0
  9
$SAVEIMAGES
 70
               0
  0
ENDSEC
  0
SECTION
  2
CLASSES
  0
CLASS
  1
LWPOLYLINE
  2
AcDbPolyline
  3
"AutoCAD"
 90
        0
280
               0
281
               1
  0
CLASS
  1
IMAGE
  2
AcDbRasterImage
  3
ISM
 90
      127
280
               0
281
               1
  0
CLASS
  1
OLE2FRAME
  2
AcDbOle2Frame
  3
""
 90
        0
280
               0
281
               1
  0
CLASS
  1
HATCH
  2
AcDbHatch
  3
"ACAD_SEDONA"
 90
        0
280
               0
281
               1
  0
CLASS
  1
DICTIONARYVAR
  2
AcDbDictionaryVar
  3
"AutoCAD"
 90
        0
280
               0
281
               0
  0
CLASS
  1
RASTERVARIABLES
  2
AcDbRasterVariables
  3
ISM
 90
        0
280
               0
281
               0
  0
CLASS
  1
IMAGEDEF
  2
AcDbRasterImageDef
  3
ISM
 90
        0
280
               0
281
               0
  0
CLASS
  1
IMAGEDEF_REACTOR
  2
AcDbRasterImageDefReactor
  3
ISM
 90
        1
280
               0
281
               0
  0
CLASS
  1
IDBUFFER
  2
AcDbIdBuffer
  3
"Acad"
 90
        0
280
               0
281
               0
  0
CLASS
  1
SPATIAL_FILTER
  2
AcDbSpatialFilter
  3
"Acad"
 90
        0
280
               0
281
               0
  0
CLASS
  1
XRECORD
  2
AcDbXrecord
  3
"<Built In>"
 90
        0
280
               0
281
               0
  0
CLASS
  1
SORTENTSTABLE
  2
AcDbSortentsTable
  3
"AutoCAD"
 90
        0
280
               0
281
               0
  0
CLASS
  1
LAYER_INDEX
  2
AcDbLayerIndex
  3
"Acad"
 90
        0
280
               0
281
               0
  0
CLASS
  1
SPATIAL_INDEX
  2
AcDbSpatialIndex
  3
"Acad"
 90
        0
280
               0
281
               0
  0
CLASS
  1
OBJECT_PTR
  2
CAseDLPNTableRecord
  3
"ASE-LPNTableRecord"
 90
        1
280
               0
281
               0
  0
CLASS
  1
LAYOUT
  2
AcDbLayout
  3
"AutoCAD 2000"
 90
        1
280
               0
281
               0
  0
CLASS
  1
PLOTSETTINGS
  2
AcDbPlotSettings
  3
"AutoCAD 2000"
 90
        1
280
               0
281
               0
  0
CLASS
  1
ACDBDICTIONARYWDFLT
  2
AcDbDictionaryWithDefault
  3
"AutoCAD 2000"
 90
        1
280
               0
281
               0
  0
CLASS
  1
ACDBPLACEHOLDER
  2
AcDbPlaceHolder
  3
"AutoCAD 2000"
 90
        1
280
               0
281
               0
  0
ENDSEC
  0
SECTION
  2
TABLES
  0
TABLE
  2
VPORT
  5
7
100
AcDbSymbolTable
 70
               1
  0
VPORT
  5
15
100
AcDbSymbolTableRecord
100
AcDbViewportTableRecord
  2
*ACTIVE
 70
               0
 10
0.0
 20
0.0
 11
1.0
 21
1.0
 12
-0.024993896484375
 22
-0.1500015258789063
 13
0.0
 23
0.0
 14
1.0
 24
1.0
 15
0.0
 25
0.0
 16
0.0
 26
0.0
 36
1.0
 17
0.0
 27
0.0
 37
0.0
 40
191.1930030822754
 41
1.7320508075688772
 42
50.0
 43
0.0
 44
0.0
 50
0.0
 51
0.0
 71
               0
 72
             100
 73
               1
 74
               1
 75
               0
 76
               0
 77
               0
 78
               0
  0
ENDTAB
  0
TABLE
  2
LTYPE
  5
4
100
AcDbSymbolTable
 70
               5
  0
LTYPE
  5
11
100
AcDbSymbolTableRecord
100
AcDbLinetypeTableRecord
  2
BYBLOCK
 70
              64
  3

 72
              65
 73
               0
 40
0.0
  0
LTYPE
  5
12
100
AcDbSymbolTableRecord
100
AcDbLinetypeTableRecord
  2
BYLAYER
 70
              64
  3

 72
              65
 73
               0
 40
0.0
  0
LTYPE
  5
13
100
AcDbSymbolTableRecord
100
AcDbLinetypeTableRecord
  2
CONTINUOUS
 70
              64
  3
Solid line
 72
              65
 73
               0
 40
0.0
  0
LTYPE
  5
21
100
AcDbSymbolTableRecord
100
AcDbLinetypeTableRecord
  2
CENTER
 70
              64
  3
Center ____ _ ____ _ ____ _ ____ _ ____ _ ____
 72
              65
 73
               4
 40
26.0
 49
20.0
 74
               0
 49
-2.0
 74
               0
 49
2.0
 74
               0
 49
-2.0
 74
               0
  0
LTYPE
  5
77
100
AcDbSymbolTableRecord
100
AcDbLinetypeTableRecord
  2
DASHED
 70
              64
  3
Dashed __ __ __ __ __ __ __ __ __ __ __ __ __ _
 72
              65
 73
               2
 40
4.0
 49
2.0
 74
               0
 49
-2.0
 74
               0
  0
ENDTAB
  0
TABLE
  2
LAYER
  5
2
100
AcDbSymbolTable
 70
               2
  0
LAYER
  5
14
100
AcDbSymbolTableRecord
100
AcDbLayerTableRecord
  2
0
 70
               0
 62
               7
  6
CONTINUOUS
  0
LAYER
  5
1D
100
AcDbSymbolTableRecord
100
AcDbLayerTableRecord
  2
DEFPOINTS
 70
               0
 62
               7
  6
CONTINUOUS
  0
ENDTAB
  0
TABLE
  2
STYLE
  5
3
100
AcDbSymbolTable
 70
               1
  0
STYLE
  5
17
100
AcDbSymbolTableRecord
100
AcDbTextStyleTableRecord
  2
MX_NOTE_STANDARD
 70
               0
 40
0.0
 41
1.0
 50
0.0
 71
               0
 42
3.2000000476837158
  3
txt.shx
  4
extfont.shx
  0
ENDTAB
  0
TABLE
  2
VIEW
  5
5
100
AcDbSymbolTable
 70
               0
  0
ENDTAB
  0
TABLE
  2
UCS
  5
6
100
AcDbSymbolTable
 70
               0
  0
ENDTAB
  0
TABLE
  2
APPID
  5
8
100
AcDbSymbolTable
 70
               1
  0
APPID
  5
16
100
AcDbSymbolTableRecord
100
AcDbRegAppTableRecord
  2
ACAD
 70
               0
  0
ENDTAB
  0
TABLE
  2
DIMSTYLE
  5
9
100
AcDbSymbolTable
 70
               1
  0
DIMSTYLE
105
18
100
AcDbSymbolTableRecord
100
AcDbDimStyleTableRecord
  2
MXDIMSTYLE
 70
               0
  3

  4

  5

  6

  7

 40
1.0
 41
2.5
 42
1.5
 43
3.75
 44
1.5
 45
0.0
 46
0.0
 47
0.0
 48
0.0
 71
               0
 72
               0
 73
               0
 74
               0
 75
               0
 76
               0
 77
               1
 78
               8
140
3.2000000476837158
141
2.5
142
0.0
143
0.03937007874016
144
1.0
145
0.0
146
1.0
147
1.0
170
               0
171
               4
172
               1
173
               0
174
               0
175
               0
176
               0
177
               0
178
               0
270
               2
271
               4
272
               4
273
               2
274
               4
275
               0
280
               0
281
               0
282
               0
283
               1
284
               0
285
               0
286
               0
287
               3
288
               1
340
17
  0
ENDTAB
  0
TABLE
  2
BLOCK_RECORD
  5
1
100
AcDbSymbolTable
 70
               2
  0
BLOCK_RECORD
  5
A
100
AcDbSymbolTableRecord
100
AcDbBlockTableRecord
  2
*MODEL_SPACE
  0
BLOCK_RECORD
  5
B
100
AcDbSymbolTableRecord
100
AcDbBlockTableRecord
  2
*PAPER_SPACE
  0
BLOCK_RECORD
  5
1E
100
AcDbSymbolTableRecord
100
AcDbBlockTableRecord
  2
DTRY-NZR100U-1
  0
BLOCK_RECORD
  5
1F
100
AcDbSymbolTableRecord
100
AcDbBlockTableRecord
  2
DTRY-NZR100U-2
  0
ENDTAB
  0
ENDSEC
  0
SECTION
  2
BLOCKS
  0
BLOCK
  5
D
100
AcDbEntity
  8
0
100
AcDbBlockBegin
  2
*MODEL_SPACE
 70
               0
 10
0.0
 20
0.0
 30
0.0
  3
*MODEL_SPACE
  1

  0
ENDBLK
  5
E
100
AcDbEntity
  8
0
100
AcDbBlockEnd
  0
BLOCK
  5
F
100
AcDbEntity
 67
               1
  8
0
100
AcDbBlockBegin
  2
*PAPER_SPACE
 70
               0
 10
0.0
 20
0.0
 30
0.0
  3
*PAPER_SPACE
  1

  0
ENDBLK
  5
10
100
AcDbEntity
 67
               1
  8
0
100
AcDbBlockEnd
  0
BLOCK
  5
20
100
AcDbEntity
  8
0
100
AcDbBlockBegin
  2
DTRY-NZR100U-1
 70
               0
 10
0.0
 20
0.0
 30
0.0
  3
DTRY-NZR100U-1
  1

  0
LINE
  5
22
100
AcDbEntity
  8
0
  6
CENTER
 62
               2
100
AcDbLine
 10
163.5227425781261
 20
-18.0
 30
0.0
 11
189.47851066839848
 21
-18.0
 31
0.0
  0
LINE
  5
23
100
AcDbEntity
  8
0
  6
CONTINUOUS
 62
               7
100
AcDbLine
 10
-7.0
 20
-11.5
 30
0.0
 11
-7.0
 21
11.5
 31
0.0
  0
LINE
  5
24
100
AcDbEntity
  8
0
  6
CONTINUOUS
 62
               7
100
AcDbLine
 10
0.0
 20
15.0
 30
0.0
 11
4.999999954771539
 21
15.0
 31
0.0
  0
LINE
  5
25
100
AcDbEntity
  8
0
  6
CONTINUOUS
 62
               7
100
AcDbLine
 10
0.0
 20
-15.0
 30
0.0
 11
5.0
 21
-15.0
 31
0.0
  0
LINE
  5
26
100
AcDbEntity
  8
0
  6
CONTINUOUS
 62
               7
100
AcDbLine
 10
5.0
 20
14.999999972862923
 30
0.0
 11
20.0
 21
6.0
 31
0.0
  0
LINE
  5
27
100
AcDbEntity
  8
0
  6
CONTINUOUS
 62
               7
100
AcDbLine
 10
5.0
 20
-15.0
 30
0.0
 11
20.0
 21
-6.0
 31
0.0
  0
LINE
  5
28
100
AcDbEntity
  8
0
  6
CONTINUOUS
 62
               7
100
AcDbLine
 10
-6.5
 20
12.0
 30
0.0
 11
-1.5
 21
12.0
 31
0.0
  0
LINE
  5
29
100
AcDbEntity
  8
0
  6
CONTINUOUS
 62
               7
100
AcDbLine
 10
-6.5
 20
-12.0
 30
0.0
 11
-1.5
 21
-12.0
 31
0.0
  0
LINE
  5
2A
100
AcDbEntity
  8
0
  6
CONTINUOUS
 62
               2
100
AcDbLine
 10
-7.0
 20
11.5
 30
0.0
 11
-1.5
 21
11.5
 31
0.0
  0
LINE
  5
2B
100
AcDbEntity
  8
0
  6
CONTINUOUS
 62
               2
100
AcDbLine
 10
-7.0
 20
-11.5
 30
0.0
 11
-1.5
 21
-11.5
 31
0.0
  0
LINE
  5
2C
100
AcDbEntity
  8
0
  6
CONTINUOUS
 62
               7
100
AcDbLine
 10
-1.5
 20
-12.0
 30
0.0
 11
-1.5
 21
12.0
 31
0.0
  0
LINE
  5
2D
100
AcDbEntity
  8
0
  6
CONTINUOUS
 62
               7
100
AcDbLine
 10
-1.5
 20
11.0
 30
0.0
 11
0.0
 21
11.0
 31
0.0
  0
LINE
  5
2E
100
AcDbEntity
  8
0
  6
CONTINUOUS
 62
               7
100
AcDbLine
 10
-1.5
 20
-11.0
 30
0.0
 11
0.0
 21
-11.0
 31
0.0
  0
LINE
  5
2F
100
AcDbEntity
  8
0
  6
CONTINUOUS
 62
               7
100
AcDbLine
 10
0.0
 20
-15.0
 30
0.0
 11
0.0
 21
14.999999972862923
 31
0.0
  0
LINE
  5
30
100
AcDbEntity
  8
0
  6
CONTINUOUS
 62
               7
100
AcDbLine
 10
-6.5
 20
12.0
 30
0.0
 11
-7.0
 21
11.5
 31
0.0
  0
LINE
  5
31
100
AcDbEntity
  8
0
  6
CONTINUOUS
 62
               7
100
AcDbLine
 10
-7.0
 20
-11.5
 30
0.0
 11
-6.5
 21
-12.0
 31
0.0
  0
LINE
  5
32
100
AcDbEntity
  8
0
  6
CONTINUOUS
 62
               7
100
AcDbLine
 10
20.0
 20
-6.0
 30
0.0
 11
20.0
 21
6.0
 31
0.0
  0
LINE
  5
33
100
AcDbEntity
  8
0
  6
CONTINUOUS
 62
               7
100
AcDbLine
 10
38.282913388988476
 20
5.5
 30
0.0
 11
38.282913388988476
 21
-5.5
 31
0.0
  0
LINE
  5
34
100
AcDbEntity
  8
0
  6
CONTINUOUS
 62
               7
100
AcDbLine
 10
27.282913388988476
 20
6.0
 30
0.0
 11
27.282913388988476
 21
-5.9999999275658666
 31
0.0
  0
LINE
  5
35
100
AcDbEntity
  8
0
  6
CONTINUOUS
 62
               7
100
AcDbLine
 10
35.747014983907277
 20
-6.928203252866453
 30
0.0
 11
27.818811806323623
 21
-6.928203252866453
 31
0.0
  0
LINE
  5
36
100
AcDbEntity
  8
0
  6
CONTINUOUS
 62
               7
100
AcDbLine
 10
35.74701500404926
 20
6.928203252866453
 30
0.0
 11
27.818811786898962
 21
6.928203252866453
 31
0.0
  0
LINE
  5
37
100
AcDbEntity
  8
0
  6
CONTINUOUS
 62
               7
100
AcDbLine
 10
37.782913388988476
 20
-6.0
 30
0.0
 11
36.282913388988476
 21
-6.0
 31
0.0
  0
LINE
  5
38
100
AcDbEntity
  8
0
  6
CONTINUOUS
 62
               7
100
AcDbLine
 10
37.782913388988476
 20
6.0
 30
0.0
 11
36.282913388988476
 21
6.0
 31
0.0
  0
LINE
  5
39
100
AcDbEntity
  8
0
  6
CONTINUOUS
 62
               7
100
AcDbLine
 10
36.282913410375272
 20
-5.999999957368189
 30
0.0
 11
35.747015008042013
 21
-6.9282032123063146
 31
0.0
  0
LINE
  5
3A
100
AcDbEntity
  8
0
  6
CONTINUOUS
 62
               7
100
AcDbLine
 10
35.74701497823969
 20
6.9282032975699366
 30
0.0
 11
36.282913401954403
 21
6.0
 31
0.0
  0
LINE
  5
3B
100
AcDbEntity
  8
0
  6
CONTINUOUS
 62
               7
100
AcDbLine
 10
38.282913388988476
 20
-5.5
 30
0.0
 11
37.782913388988476
 21
-6.0
 31
0.0
  0
LINE
  5
3C
100
AcDbEntity
  8
0
  6
CONTINUOUS
 62
               7
100
AcDbLine
 10
38.282913388988476
 20
5.5
 30
0.0
 11
37.782913388988476
 21
6.0
 31
0.0
  0
LINE
  5
3D
100
AcDbEntity
  8
0
  6
CONTINUOUS
 62
               7
100
AcDbLine
 10
27.282913365671789
 20
-5.9999999275658666
 30
0.0
 11
27.818811782906209
 21
-6.9282032123063146
 31
0.0
  0
LINE
  5
3E
100
AcDbEntity
  8
0
  6
CONTINUOUS
 62
               7
100
AcDbLine
 10
27.818811812708532
 20
6.9282032975699366
 30
0.0
 11
27.282913388988476
 21
5.9999999999907345
 31
0.0
  0
LINE
  5
3F
100
AcDbEntity
  8
0
  6
CONTINUOUS
 62
               7
100
AcDbLine
 10
24.566987329109296
 20
-5.7499999714815146
 30
0.0
 11
24.99999999342738
 21
-5.0000000310861594
 31
0.0
  0
LINE
  5
40
100
AcDbEntity
  8
0
  6
CONTINUOUS
 62
               7
100
AcDbLine
 10
24.999999978526219
 20
4.999999998716163
 30
0.0
 11
24.566987284405812
 21
5.7499999689138406
 31
0.0
  0
LINE
  5
41
100
AcDbEntity
  8
0
  6
CONTINUOUS
 62
               7
100
AcDbLine
 10
25.0
 20
-5.0000000310861594
 30
0.0
 11
25.0
 21
4.9999999615224766
 31
0.0
  0
LINE
  5
42
100
AcDbEntity
  8
0
  6
CONTINUOUS
 62
               7
100
AcDbLine
 10
27.0
 20
-4.8640000069994471
 30
0.0
 11
27.0
 21
4.8639999930005615
 31
0.0
  0
LINE
  5
43
100
AcDbEntity
  8
0
  6
CONTINUOUS
 62
               7
100
AcDbLine
 10
25.0
 20
-4.0000000069994428
 30
0.0
 11
27.0
 21
-4.0000000069994428
 31
0.0
  0
LINE
  5
44
100
AcDbEntity
  8
0
  6
CONTINUOUS
 62
               7
100
AcDbLine
 10
25.0
 20
3.9999999930005572
 30
0.0
 11
27.0
 21
3.9999999930005572
 31
0.0
  0
LINE
  5
45
100
AcDbEntity
  8
0
  6
CONTINUOUS
 62
               7
100
AcDbLine
 10
20.0
 20
-5.7500000069994428
 30
0.0
 11
24.566987308603004
 21
-5.7500000069994428
 31
0.0
  0
LINE
  5
46
100
AcDbEntity
  8
0
  6
CONTINUOUS
 62
               7
100
AcDbLine
 10
20.0
 20
5.7499999930005572
 30
0.0
 11
24.56698727049934
 21
5.7499999930005572
 31
0.0
  0
LINE
  5
47
100
AcDbEntity
  8
0
  6
CONTINUOUS
 62
               7
100
AcDbLine
 10
47.500000005620365
 20
-39.799999999999997
 30
0.0
 11
46.03923047510375
 21
-39.799999999999997
 31
0.0
  0
LINE
  5
48
100
AcDbEntity
  8
0
  6
CONTINUOUS
 62
               7
100
AcDbLine
 10
48.000000003563741
 20
-39.300000002056613
 30
0.0
 11
47.500000005620365
 21
-39.799999999999997
 31
0.0
  0
LINE
  5
49
100
AcDbEntity
  8
0
  6
CONTINUOUS
 62
               7
100
AcDbLine
 10
48.499999986605957
 20
-39.799999999999997
 30
0.0
 11
48.000000003563741
 21
-39.300000002056613
 31
0.0
  0
LINE
  5
4A
100
AcDbEntity
  8
0
  6
CONTINUOUS
 62
               7
100
AcDbLine
 10
47.500000005620365
 20
-32.199999999999996
 30
0.0
 11
46.03923047510375
 21
-32.199999999999996
 31
0.0
  0
LINE
  5
4B
100
AcDbEntity
  8
0
  6
CONTINUOUS
 62
               7
100
AcDbLine
 10
48.000000003563741
 20
-32.699999997943372
 30
0.0
 11
47.500000005620365
 21
-32.199999999999996
 31
0.0
  0
LINE
  5
4C
100
AcDbEntity
  8
0
  6
CONTINUOUS
 62
               7
100
AcDbLine
 10
48.499999986605957
 20
-32.199999999999996
 30
0.0
 11
48.000000003563741
 21
-32.699999997943372
 31
0.0
  0
LINE
  5
4D
100
AcDbEntity
  8
0
  6
CONTINUOUS
 62
               7
100
AcDbLine
 10
49.999999997675957
 20
-32.80000000699944
 30
0.0
 11
49.653589857280792
 21
-32.200000042762227
 31
0.0
  0
LINE
  5
4E
100
AcDbEntity
  8
0
  6
CONTINUOUS
 62
               7
100
AcDbLine
 10
46.039230478466095
 20
-32.199999998058743
 30
0.0
 11
44.0
 21
-33.377350268652847
 31
0.0
  0
LINE
  5
4F
100
AcDbEntity
  8
0
  6
CONTINUOUS
 62
               7
100
AcDbLine
 10
46.039230478466095
 20
-39.800000001941243
 30
0.0
 11
44.0
 21
-38.622649731347138
 31
0.0
  0
LINE
  5
50
100
AcDbEntity
  8
0
  6
CONTINUOUS
 62
               7
100
AcDbLine
 10
49.999999997675957
 20
-39.199999993000546
 30
0.0
 11
49.653589857280792
 21
-39.799999957237759
 31
0.0
  0
LINE
  5
51
100
AcDbEntity
  8
0
  6
CONTINUOUS
 62
               7
100
AcDbLine
 10
49.653589832592004
 20
-32.199999999999996
 30
0.0
 11
48.499999986605957
 21
-32.199999999999996
 31
0.0
  0
LINE
  5
52
100
AcDbEntity
  8
0
  6
CONTINUOUS
 62
               7
100
AcDbLine
 10
49.653589832592004
 20
-39.799999999999997
 30
0.0
 11
48.499999986605957
 21
-39.799999999999997
 31
0.0
  0
LINE
  5
53
100
AcDbEntity
  8
0
  6
CONTINUOUS
 62
               7
100
AcDbLine
 10
50.0
 20
-32.80000000699944
 30
0.0
 11
50.0
 21
-39.199999988975186
 31
0.0
  0
LINE
  5
54
100
AcDbEntity
  8
0
  6
CENTER
 62
               2
100
AcDbLine
 10
56.0
 20
-4.4811857447427741
 30
0.0
 11
56.0
 21
-0.4340202453079058
 31
0.0
  0
LINE
  5
55
100
AcDbEntity
  8
0
  6
CENTER
 62
               2
100
AcDbLine
 10
-8.8991372679456617
 20
0.0
 30
0.0
 11
166.0
 21
0.0
 31
0.0
  0
LINE
  5
56
100
AcDbEntity
  8
0
  6
CONTINUOUS
 62
               7
100
AcDbLine
 10
5.0
 20
14.999999972862923
 30
0.0
 11
5.0
 21
-15.0
 31
0.0
  0
LINE
  5
57
100
AcDbEntity
  8
0
  6
CONTINUOUS
 62
               7
100
AcDbLine
 10
-6.5
 20
12.0
 30
0.0
 11
-6.5
 21
-12.0
 31
0.0
  0
LINE
  5
58
100
AcDbEntity
  8
0
  6
CONTINUOUS
 62
               7
100
AcDbLine
 10
36.282913388988476
 20
6.0
 30
0.0
 11
36.282913410375272
 21
-5.999999957368189
 31
0.0
  0
LINE
  5
59
100
AcDbEntity
  8
0
  6
CONTINUOUS
 62
               7
100
AcDbLine
 10
37.782913388988476
 20
6.0
 30
0.0
 11
37.782913388988476
 21
-6.0
 31
0.0
  0
LINE
  5
5A
100
AcDbEntity
  8
0
  6
CONTINUOUS
 62
               7
100
AcDbLine
 10
26.999999990584001
 20
4.8639999930005615
 30
0.0
 11
27.282913377405748
 21
4.8639999930005615
 31
0.0
  0
LINE
  5
5B
100
AcDbEntity
  8
0
  6
CONTINUOUS
 62
               7
100
AcDbLine
 10
26.999999990584001
 20
-4.8640000069994471
 30
0.0
 11
27.282913377405748
 21
-4.8640000069994471
 31
0.0
  0
LINE
  5
5C
100
AcDbEntity
  8
0
  6
CONTINUOUS
 62
               7
100
AcDbLine
 10
49.653589857280792
 20
-39.799999957237759
 30
0.0
 11
49.653589832592004
 21
-32.199999999999996
 31
0.0
  0
LINE
  5
5D
100
AcDbEntity
  8
0
  6
CONTINUOUS
 62
               7
100
AcDbLine
 10
48.499999986605957
 20
-39.799999999999997
 30
0.0
 11
48.499999986605957
 21
-32.199999999999996
 31
0.0
  0
LINE
  5
5E
100
AcDbEntity
  8
0
  6
CONTINUOUS
 62
               7
100
AcDbLine
 10
48.000000003563741
 20
-39.300000002056613
 30
0.0
 11
48.000000003563741
 21
-32.699999997943372
 31
0.0
  0
LINE
  5
5F
100
AcDbEntity
  8
0
  6
CONTINUOUS
 62
               7
100
AcDbLine
 10
47.500000005620365
 20
-39.799999999999997
 30
0.0
 11
47.500000005620365
 21
-32.199999999999996
 31
0.0
  0
LINE
  5
60
100
AcDbEntity
  8
0
  6
CONTINUOUS
 62
               7
100
AcDbLine
 10
46.039230475103764
 20
-39.799999999999997
 30
0.0
 11
46.039230478466095
 21
-32.199999998058743
 31
0.0
  0
LINE
  5
61
100
AcDbEntity
  8
0
  6
CONTINUOUS
 62
               7
100
AcDbLine
 10
28.282913405855709
 20
3.4641015955950678
 30
0.0
 11
35.282913377405748
 21
3.4641015955950678
 31
0.0
  0
LINE
  5
62
100
AcDbEntity
  8
0
  6
CONTINUOUS
 62
               7
100
AcDbLine
 10
28.282913419639186
 20
-3.4641016370838358
 30
0.0
 11
35.282913449266402
 21
-3.4641016370838358
 31
0.0
  0
ARC
  5
63
100
AcDbEntity
  8
0
  6
CONTINUOUS
 62
               7
100
AcDbCircle
 10
34.282913345881184
 20
5.1961524270968624
 30
0.0
 40
2.0000000364887964
100
AcDbArc
 50
300.00000043930368
 51
0.0000001021144306
  0
ARC
  5
64
100
AcDbEntity
  8
0
  6
CONTINUOUS
 62
               7
100
AcDbCircle
 10
34.282913345881184
 20
-5.1961524270968624
 30
0.0
 40
2.0000000364887964
100
AcDbArc
 50
0.0000001021144306
 51
59.999999560695521
  0
ARC
  5
65
100
AcDbEntity
  8
0
  6
CONTINUOUS
 62
               7
100
AcDbCircle
 10
29.782913623854512
 20
-0.0000000098022781
 30
0.0
 40
6.4999997758273622
100
AcDbArc
 50
327.79577112494883
 51
32.204228647073528
  0
ARC
  5
66
100
AcDbEntity
  8
0
  6
CONTINUOUS
 62
               7
100
AcDbCircle
 10
29.282913425032604
 20
5.1961524270968624
 30
0.0
 40
2.0000000364887964
100
AcDbArc
 50
179.99999989788517
 51
239.99999956069516
  0
ARC
  5
67
100
AcDbEntity
  8
0
  6
CONTINUOUS
 62
               7
100
AcDbCircle
 10
33.782913147059276
 20
-0.0000000098022781
 30
0.0
 40
6.4999997758273622
100
AcDbArc
 50
147.79577135292607
 51
212.20422887504998
  0
ARC
  5
68
100
AcDbEntity
  8
0
  6
CONTINUOUS
 62
               7
100
AcDbCircle
 10
29.282913425032604
 20
-5.1961524270968624
 30
0.0
 40
2.0000000364887964
100
AcDbArc
 50
120.00000043930409
 51
179.99999989788517
  0
LINE
  5
69
100
AcDbEntity
  8
0
  6
CONTINUOUS
 62
               7
100
AcDbLine
 10
20.0
 20
3.0
 30
0.0
 11
24.5
 21
3.0
 31
0.0
  0
LINE
  5
6A
100
AcDbEntity
  8
0
  6
CONTINUOUS
 62
               7
100
AcDbLine
 10
20.0
 20
-3.0
 30
0.0
 11
24.5
 21
-3.0
 31
0.0
  0
ARC
  5
6B
100
AcDbEntity
  8
0
  6
CONTINUOUS
 62
               7
100
AcDbCircle
 10
22.859375009624216
 20
4.3749999965002786
 30
0.0
 40
2.1406249903757768
100
AcDbArc
 50
320.0337868625262
 51
0.0
  0
ARC
  5
6C
100
AcDbEntity
  8
0
  6
CONTINUOUS
 62
               7
100
AcDbCircle
 10
22.859375009624216
 20
-4.3749999965002786
 30
0.0
 40
2.1406249903757768
100
AcDbArc
 50
0.0
 51
39.96621313747297
  0
ARC
  5
6D
100
AcDbEntity
  8
0
  6
CONTINUOUS
 62
               7
100
AcDbCircle
 10
15.750000000000014
 20
0.0
 30
0.0
 40
9.2499999999999876
100
AcDbArc
 50
341.07535558394801
 51
18.924644416051194
  0
LINE
  5
6E
100
AcDbEntity
  8
0
  6
CONTINUOUS
 62
               7
100
AcDbLine
 10
44.0
 20
-38.622649731347138
 30
0.0
 11
44.0
 21
-33.377350268652847
 31
0.0
  0
LINE
  5
6F
100
AcDbEntity
  8
0
  6
CONTINUOUS
 62
               7
100
AcDbLine
 10
166.0
 20
3.0
 30
0.0
 11
38.282913388988476
 21
3.0
 31
0.0
  0
LINE
  5
70
100
AcDbEntity
  8
0
  6
CONTINUOUS
 62
               7
100
AcDbLine
 10
166.0
 20
-3.0
 30
0.0
 11
38.282913388988476
 21
-3.0
 31
0.0
  0
ARC
  5
71
100
AcDbEntity
  8
0
  6
CENTER
 62
               2
100
AcDbCircle
 10
166.0
 20
-18.0
 30
0.0
 40
18.0
100
AcDbArc
 50
269.99999999999937
 51
89.999999999999801
  0
ARC
  5
72
100
AcDbEntity
  8
0
  6
CONTINUOUS
 62
               7
100
AcDbCircle
 10
166.0
 20
-18.0
 30
0.0
 40
21.0
100
AcDbArc
 50
269.99999999999937
 51
89.999999999999801
  0
ARC
  5
73
100
AcDbEntity
  8
0
  6
CONTINUOUS
 62
               7
100
AcDbCircle
 10
166.0
 20
-18.0
 30
0.0
 40
15.0
100
AcDbArc
 50
269.99999999999937
 51
89.999999999999801
  0
LINE
  5
74
100
AcDbEntity
  8
0
  6
CONTINUOUS
 62
               7
100
AcDbLine
 10
50.0
 20
-33.0
 30
0.0
 11
165.999999990584
 21
-33.0
 31
0.0
  0
LINE
  5
75
100
AcDbEntity
  8
0
  6
CENTER
 62
               2
100
AcDbLine
 10
42.841913490888146
 20
-36.0
 30
0.0
 11
165.999999990584
 21
-36.0
 31
0.0
  0
LINE
  5
76
100
AcDbEntity
  8
0
  6
CONTINUOUS
 62
               7
100
AcDbLine
 10
50.0
 20
-39.0
 30
0.0
 11
165.999999990584
 21
-39.0
 31
0.0
  0
LINE
  5
78
100
AcDbEntity
  8
0
  6
DASHED
 62
               7
100
AcDbLine
 10
55.399999999999999
 20
-3.0
 30
0.0
 11
55.399999999999999
 21
-2.5
 31
0.0
  0
LINE
  5
79
100
AcDbEntity
  8
0
  6
DASHED
 62
               7
100
AcDbLine
 10
56.600000000000001
 20
-3.0
 30
0.0
 11
56.600000000000001
 21
-2.5
 31
0.0
  0
LINE
  5
7A
100
AcDbEntity
  8
0
  6
CENTER
 62
               2
100
AcDbLine
 10
66.0
 20
-4.4811857447427741
 30
0.0
 11
66.0
 21
-0.8138722631005493
 31
0.0
  0
LINE
  5
7B
100
AcDbEntity
  8
0
  6
DASHED
 62
               7
100
AcDbLine
 10
66.599999999999994
 20
-3.0
 30
0.0
 11
66.599999999999994
 21
-2.5
 31
0.0
  0
LINE
  5
7C
100
AcDbEntity
  8
0
  6
DASHED
 62
               7
100
AcDbLine
 10
65.400000000000006
 20
-3.0
 30
0.0
 11
65.400000000000006
 21
-2.5
 31
0.0
  0
LINE
  5
7D
100
AcDbEntity
  8
0
  6
CENTER
 62
               2
100
AcDbLine
 10
76.0
 20
-4.4811857447427741
 30
0.0
 11
76.0
 21
-1.3816462584339888
 31
0.0
  0
LINE
  5
7E
100
AcDbEntity
  8
0
  6
DASHED
 62
               7
100
AcDbLine
 10
76.599999999999994
 20
-3.0
 30
0.0
 11
76.599999999999994
 21
-2.5
 31
0.0
  0
LINE
  5
7F
100
AcDbEntity
  8
0
  6
DASHED
 62
               7
100
AcDbLine
 10
75.400000000000006
 20
-3.0
 30
0.0
 11
75.400000000000006
 21
-2.5
 31
0.0
  0
LINE
  5
80
100
AcDbEntity
  8
0
  6
CENTER
 62
               2
100
AcDbLine
 10
86.0
 20
-4.4811857447427741
 30
0.0
 11
86.0
 21
-1.3816462584339888
 31
0.0
  0
LINE
  5
81
100
AcDbEntity
  8
0
  6
DASHED
 62
               7
100
AcDbLine
 10
86.599999999999994
 20
-3.0
 30
0.0
 11
86.599999999999994
 21
-2.5
 31
0.0
  0
LINE
  5
82
100
AcDbEntity
  8
0
  6
DASHED
 62
               7
100
AcDbLine
 10
85.400000000000006
 20
-3.0
 30
0.0
 11
85.400000000000006
 21
-2.5
 31
0.0
  0
LINE
  5
83
100
AcDbEntity
  8
0
  6
CENTER
 62
               2
100
AcDbLine
 10
96.0
 20
-4.4811857447427741
 30
0.0
 11
96.0
 21
-1.3816462584339888
 31
0.0
  0
LINE
  5
84
100
AcDbEntity
  8
0
  6
DASHED
 62
               7
100
AcDbLine
 10
96.599999999999994
 20
-3.0
 30
0.0
 11
96.599999999999994
 21
-2.5
 31
0.0
  0
LINE
  5
85
100
AcDbEntity
  8
0
  6
DASHED
 62
               7
100
AcDbLine
 10
95.400000000000006
 20
-3.0
 30
0.0
 11
95.400000000000006
 21
-2.5
 31
0.0
  0
LINE
  5
86
100
AcDbEntity
  8
0
  6
CENTER
 62
               2
100
AcDbLine
 10
106.0
 20
-4.4811857447427741
 30
0.0
 11
106.0
 21
-1.3816462584339888
 31
0.0
  0
LINE
  5
87
100
AcDbEntity
  8
0
  6
DASHED
 62
               7
100
AcDbLine
 10
106.59999999999999
 20
-3.0
 30
0.0
 11
106.59999999999999
 21
-2.5
 31
0.0
  0
LINE
  5
88
100
AcDbEntity
  8
0
  6
DASHED
 62
               7
100
AcDbLine
 10
105.40000000000001
 20
-3.0
 30
0.0
 11
105.40000000000001
 21
-2.5
 31
0.0
  0
LINE
  5
89
100
AcDbEntity
  8
0
  6
CENTER
 62
               2
100
AcDbLine
 10
116.0
 20
-4.4811857447427741
 30
0.0
 11
116.0
 21
-1.3816462584339888
 31
0.0
  0
LINE
  5
8A
100
AcDbEntity
  8
0
  6
DASHED
 62
               7
100
AcDbLine
 10
116.59999999999999
 20
-3.0
 30
0.0
 11
116.59999999999999
 21
-2.5
 31
0.0
  0
LINE
  5
8B
100
AcDbEntity
  8
0
  6
DASHED
 62
               7
100
AcDbLine
 10
115.40000000000001
 20
-3.0
 30
0.0
 11
115.40000000000001
 21
-2.5
 31
0.0
  0
LINE
  5
8C
100
AcDbEntity
  8
0
  6
CENTER
 62
               2
100
AcDbLine
 10
126.0
 20
-4.4811857447427741
 30
0.0
 11
126.0
 21
-1.3816462584339888
 31
0.0
  0
LINE
  5
8D
100
AcDbEntity
  8
0
  6
DASHED
 62
               7
100
AcDbLine
 10
126.59999999999999
 20
-3.0
 30
0.0
 11
126.59999999999999
 21
-2.5
 31
0.0
  0
LINE
  5
8E
100
AcDbEntity
  8
0
  6
DASHED
 62
               7
100
AcDbLine
 10
125.40000000000001
 20
-3.0
 30
0.0
 11
125.40000000000001
 21
-2.5
 31
0.0
  0
LINE
  5
8F
100
AcDbEntity
  8
0
  6
CENTER
 62
               2
100
AcDbLine
 10
136.0
 20
-4.4811857447427741
 30
0.0
 11
136.0
 21
-1.3816462584339888
 31
0.0
  0
LINE
  5
90
100
AcDbEntity
  8
0
  6
DASHED
 62
               7
100
AcDbLine
 10
136.59999999999999
 20
-3.0
 30
0.0
 11
136.59999999999999
 21
-2.5
 31
0.0
  0
LINE
  5
91
100
AcDbEntity
  8
0
  6
DASHED
 62
               7
100
AcDbLine
 10
135.40000000000001
 20
-3.0
 30
0.0
 11
135.40000000000001
 21
-2.5
 31
0.0
  0
LINE
  5
92
100
AcDbEntity
  8
0
  6
CENTER
 62
               2
100
AcDbLine
 10
146.0
 20
-4.4811857447427741
 30
0.0
 11
146.0
 21
-1.3816462584339888
 31
0.0
  0
LINE
  5
93
100
AcDbEntity
  8
0
  6
DASHED
 62
               7
100
AcDbLine
 10
146.59999999999999
 20
-3.0
 30
0.0
 11
146.59999999999999
 21
-2.5
 31
0.0
  0
LINE
  5
94
100
AcDbEntity
  8
0
  6
DASHED
 62
               7
100
AcDbLine
 10
145.40000000000001
 20
-3.0
 30
0.0
 11
145.40000000000001
 21
-2.5
 31
0.0
  0
LINE
  5
95
100
AcDbEntity
  8
0
  6
CENTER
 62
               2
100
AcDbLine
 10
156.0
 20
-4.4811857447427741
 30
0.0
 11
156.0
 21
-0.9304726663735323
 31
0.0
  0
LINE
  5
96
100
AcDbEntity
  8
0
  6
DASHED
 62
               7
100
AcDbLine
 10
156.59999999999999
 20
-3.0
 30
0.0
 11
156.59999999999999
 21
-2.5
 31
0.0
  0
LINE
  5
97
100
AcDbEntity
  8
0
  6
DASHED
 62
               7
100
AcDbLine
 10
155.40000000000001
 20
-3.0
 30
0.0
 11
155.40000000000001
 21
-2.5
 31
0.0
  0
LINE
  5
98
100
AcDbEntity
  8
0
  6
DASHED
 62
               7
100
AcDbLine
 10
155.40000000000001
 20
-33.0
 30
0.0
 11
155.40000000000001
 21
-33.5
 31
0.0
  0
LINE
  5
99
100
AcDbEntity
  8
0
  6
DASHED
 62
               7
100
AcDbLine
 10
156.59999999999999
 20
-33.0
 30
0.0
 11
156.59999999999999
 21
-33.5
 31
0.0
  0
LINE
  5
9A
100
AcDbEntity
  8
0
  6
CENTER
 62
               2
100
AcDbLine
 10
156.0
 20
-31.518814255257226
 30
0.0
 11
156.0
 21
-34.618353741566011
 31
0.0
  0
LINE
  5
9B
100
AcDbEntity
  8
0
  6
DASHED
 62
               7
100
AcDbLine
 10
145.40000000000001
 20
-33.0
 30
0.0
 11
145.40000000000001
 21
-33.5
 31
0.0
  0
LINE
  5
9C
100
AcDbEntity
  8
0
  6
DASHED
 62
               7
100
AcDbLine
 10
146.59999999999999
 20
-33.0
 30
0.0
 11
146.59999999999999
 21
-33.5
 31
0.0
  0
LINE
  5
9D
100
AcDbEntity
  8
0
  6
CENTER
 62
               2
100
AcDbLine
 10
146.0
 20
-31.518814255257226
 30
0.0
 11
146.0
 21
-34.618353741566011
 31
0.0
  0
LINE
  5
9E
100
AcDbEntity
  8
0
  6
DASHED
 62
               7
100
AcDbLine
 10
135.40000000000001
 20
-33.0
 30
0.0
 11
135.40000000000001
 21
-33.5
 31
0.0
  0
LINE
  5
9F
100
AcDbEntity
  8
0
  6
DASHED
 62
               7
100
AcDbLine
 10
136.59999999999999
 20
-33.0
 30
0.0
 11
136.59999999999999
 21
-33.5
 31
0.0
  0
LINE
  5
A0
100
AcDbEntity
  8
0
  6
CENTER
 62
               2
100
AcDbLine
 10
136.0
 20
-31.518814255257226
 30
0.0
 11
136.0
 21
-34.618353741566011
 31
0.0
  0
LINE
  5
A1
100
AcDbEntity
  8
0
  6
DASHED
 62
               7
100
AcDbLine
 10
125.40000000000001
 20
-33.0
 30
0.0
 11
125.40000000000001
 21
-33.5
 31
0.0
  0
LINE
  5
A2
100
AcDbEntity
  8
0
  6
DASHED
 62
               7
100
AcDbLine
 10
126.59999999999999
 20
-33.0
 30
0.0
 11
126.59999999999999
 21
-33.5
 31
0.0
  0
LINE
  5
A3
100
AcDbEntity
  8
0
  6
CENTER
 62
               2
100
AcDbLine
 10
126.0
 20
-31.518814255257226
 30
0.0
 11
126.0
 21
-34.618353741566011
 31
0.0
  0
LINE
  5
A4
100
AcDbEntity
  8
0
  6
DASHED
 62
               7
100
AcDbLine
 10
115.40000000000001
 20
-33.0
 30
0.0
 11
115.40000000000001
 21
-33.5
 31
0.0
  0
LINE
  5
A5
100
AcDbEntity
  8
0
  6
DASHED
 62
               7
100
AcDbLine
 10
116.59999999999999
 20
-33.0
 30
0.0
 11
116.59999999999999
 21
-33.5
 31
0.0
  0
LINE
  5
A6
100
AcDbEntity
  8
0
  6
CENTER
 62
               2
100
AcDbLine
 10
116.0
 20
-31.518814255257226
 30
0.0
 11
116.0
 21
-34.618353741566011
 31
0.0
  0
LINE
  5
A7
100
AcDbEntity
  8
0
  6
DASHED
 62
               7
100
AcDbLine
 10
105.40000000000001
 20
-33.0
 30
0.0
 11
105.40000000000001
 21
-33.5
 31
0.0
  0
LINE
  5
A8
100
AcDbEntity
  8
0
  6
DASHED
 62
               7
100
AcDbLine
 10
106.59999999999999
 20
-33.0
 30
0.0
 11
106.59999999999999
 21
-33.5
 31
0.0
  0
LINE
  5
A9
100
AcDbEntity
  8
0
  6
CENTER
 62
               2
100
AcDbLine
 10
106.0
 20
-31.518814255257226
 30
0.0
 11
106.0
 21
-34.618353741566011
 31
0.0
  0
LINE
  5
AA
100
AcDbEntity
  8
0
  6
DASHED
 62
               7
100
AcDbLine
 10
95.400000000000006
 20
-33.0
 30
0.0
 11
95.400000000000006
 21
-33.5
 31
0.0
  0
LINE
  5
AB
100
AcDbEntity
  8
0
  6
DASHED
 62
               7
100
AcDbLine
 10
96.599999999999994
 20
-33.0
 30
0.0
 11
96.599999999999994
 21
-33.5
 31
0.0
  0
LINE
  5
AC
100
AcDbEntity
  8
0
  6
CENTER
 62
               2
100
AcDbLine
 10
96.0
 20
-31.518814255257226
 30
0.0
 11
96.0
 21
-34.618353741566011
 31
0.0
  0
LINE
  5
AD
100
AcDbEntity
  8
0
  6
DASHED
 62
               7
100
AcDbLine
 10
85.400000000000006
 20
-33.0
 30
0.0
 11
85.400000000000006
 21
-33.5
 31
0.0
  0
LINE
  5
AE
100
AcDbEntity
  8
0
  6
DASHED
 62
               7
100
AcDbLine
 10
86.599999999999994
 20
-33.0
 30
0.0
 11
86.599999999999994
 21
-33.5
 31
0.0
  0
LINE
  5
AF
100
AcDbEntity
  8
0
  6
CENTER
 62
               2
100
AcDbLine
 10
86.0
 20
-31.518814255257226
 30
0.0
 11
86.0
 21
-34.618353741566011
 31
0.0
  0
LINE
  5
B0
100
AcDbEntity
  8
0
  6
DASHED
 62
               7
100
AcDbLine
 10
75.400000000000006
 20
-33.0
 30
0.0
 11
75.400000000000006
 21
-33.5
 31
0.0
  0
LINE
  5
B1
100
AcDbEntity
  8
0
  6
DASHED
 62
               7
100
AcDbLine
 10
76.599999999999994
 20
-33.0
 30
0.0
 11
76.599999999999994
 21
-33.5
 31
0.0
  0
LINE
  5
B2
100
AcDbEntity
  8
0
  6
CENTER
 62
               2
100
AcDbLine
 10
76.0
 20
-31.518814255257226
 30
0.0
 11
76.0
 21
-34.618353741566011
 31
0.0
  0
LINE
  5
B3
100
AcDbEntity
  8
0
  6
DASHED
 62
               7
100
AcDbLine
 10
65.400000000000006
 20
-33.0
 30
0.0
 11
65.400000000000006
 21
-33.5
 31
0.0
  0
LINE
  5
B4
100
AcDbEntity
  8
0
  6
DASHED
 62
               7
100
AcDbLine
 10
66.599999999999994
 20
-33.0
 30
0.0
 11
66.599999999999994
 21
-33.5
 31
0.0
  0
LINE
  5
B5
100
AcDbEntity
  8
0
  6
CENTER
 62
               2
100
AcDbLine
 10
66.0
 20
-31.518814255257226
 30
0.0
 11
66.0
 21
-34.618353741566011
 31
0.0
  0
LINE
  5
B6
100
AcDbEntity
  8
0
  6
DASHED
 62
               7
100
AcDbLine
 10
56.600000000000001
 20
-33.0
 30
0.0
 11
56.600000000000001
 21
-33.5
 31
0.0
  0
LINE
  5
B7
100
AcDbEntity
  8
0
  6
DASHED
 62
               7
100
AcDbLine
 10
55.399999999999999
 20
-33.0
 30
0.0
 11
55.399999999999999
 21
-33.5
 31
0.0
  0
LINE
  5
B8
100
AcDbEntity
  8
0
  6
CENTER
 62
               2
100
AcDbLine
 10
56.0
 20
-31.518814255257226
 30
0.0
 11
56.0
 21
-34.618353741566011
 31
0.0
  0
ENDBLK
  5
B9
100
AcDbEntity
  8
0
100
AcDbBlockEnd
  0
BLOCK
  5
BA
100
AcDbEntity
  8
0
100
AcDbBlockBegin
  2
DTRY-NZR100U-2
 70
               0
 10
0.0
 20
0.0
 30
0.0
  3
DTRY-NZR100U-2
  1

  0
LINE
  5
BB
100
AcDbEntity
  8
0
  6
CENTER
 62
               2
100
AcDbLine
 10
-16.817807508113162
 20
0.0
 30
0.0
 11
16.814025395581723
 21
0.0
 31
0.0
  0
LINE
  5
BC
100
AcDbEntity
  8
0
  6
CENTER
 62
               2
100
AcDbLine
 10
0.0
 20
-41.396892215809459
 30
0.0
 11
0.0
 21
16.761094586555615
 31
0.0
  0
ARC
  5
BD
100
AcDbEntity
  8
0
  6
CONTINUOUS
 62
               7
100
AcDbCircle
 10
0.0000000340567539
 20
0.0
 30
0.0
 40
15.0
100
AcDbArc
 50
281.53695890004519
 51
258.46304083441419
  0
ARC
  5
BE
100
AcDbEntity
  8
0
  6
CONTINUOUS
 62
               7
100
AcDbCircle
 10
0.0
 20
0.0
 30
0.0
 40
6.0
100
AcDbArc
 50
299.99999999999932
 51
239.99999999999943
  0
LINE
  5
BF
100
AcDbEntity
  8
0
  6
CONTINUOUS
 62
               7
100
AcDbLine
 10
6.0
 20
-3.4641016253973902
 30
0.0
 11
6.0
 21
3.4641016295407354
 31
0.0
  0
LINE
  5
C0
100
AcDbEntity
  8
0
  6
CONTINUOUS
 62
               7
100
AcDbLine
 10
-6.0
 20
-3.4641016253973902
 30
0.0
 11
-6.0
 21
3.4641016295407354
 31
0.0
  0
LINE
  5
C1
100
AcDbEntity
  8
0
  6
CONTINUOUS
 62
               7
100
AcDbLine
 10
3.0
 20
-5.1961524399099588
 30
0.0
 11
6.0000000718606543
 21
-3.4641015955950678
 31
0.0
  0
LINE
  5
C2
100
AcDbEntity
  8
0
  6
CONTINUOUS
 62
               7
100
AcDbLine
 10
-3.0
 20
-5.1961524399099588
 30
0.0
 11
-6.0000000718606543
 21
-3.4641015955950678
 31
0.0
  0
LINE
  5
C3
100
AcDbEntity
  8
0
  6
CONTINUOUS
 62
               7
100
AcDbLine
 10
-0.0000000175463128
 20
6.928203252866453
 30
0.0
 11
6.0000000718606543
 21
3.4641015955950678
 31
0.0
  0
LINE
  5
C4
100
AcDbEntity
  8
0
  6
CONTINUOUS
 62
               7
100
AcDbLine
 10
0.0000000175463128
 20
6.928203252866453
 30
0.0
 11
-6.0000000718606543
 21
3.4641015955950678
 31
0.0
  0
ARC
  5
C5
100
AcDbEntity
  8
0
  6
CONTINUOUS
 62
               7
100
AcDbCircle
 10
0.0
 20
0.0
 30
0.0
 40
3.0
100
AcDbArc
 50
0.0
 51
179.99999999999963
  0
LINE
  5
C6
100
AcDbEntity
  8
0
  6
CONTINUOUS
 62
               7
100
AcDbLine
 10
3.0
 20
-36.000000027137077
 30
0.0
 11
3.0
 21
-0.0000000271370766
 31
0.0
  0
LINE
  5
C7
100
AcDbEntity
  8
0
  6
CONTINUOUS
 62
               7
100
AcDbLine
 10
-3.0
 20
-36.000000027137077
 30
0.0
 11
-3.0
 21
-0.0000000271370766
 31
0.0
  0
ARC
  5
C8
100
AcDbEntity
  8
0
  6
CONTINUOUS
 62
               7
100
AcDbCircle
 10
0.0
 20
-36.000000027137077
 30
0.0
 40
3.0
100
AcDbArc
 50
179.99999999999963
 51
0.0
  0
ARC
  5
C9
100
AcDbEntity
  8
0
  6
CONTINUOUS
 62
               7
100
AcDbCircle
 10
0.0
 20
-36.000000027137077
 30
0.0
 40
3.7999999999999998
100
AcDbArc
 50
142.13635363826933
 51
37.863646361730233
  0
LINE
  5
CA
100
AcDbEntity
  8
0
  6
CENTER
 62
               2
100
AcDbLine
 10
-5.4250320611933347
 20
-36.000000027137077
 30
0.0
 11
5.5074605351610728
 21
-36.000000027137077
 31
0.0
  0
ENDBLK
  5
CB
100
AcDbEntity
  8
0
100
AcDbBlockEnd
  0
ENDSEC
  0
SECTION
  2
ENTITIES
  0
INSERT
  5
CC
100
AcDbEntity
  8
0
  6
ByBlock
100
AcDbBlockReference
  2
DTRY-NZR100U-1
 10
-118.4700288953442
 20
4.4136414219842237
 30
0.0
  0
INSERT
  5
CD
100
AcDbEntity
  8
0
  6
ByBlock
100
AcDbBlockReference
  2
DTRY-NZR100U-2
 10
94.900888534112084
 20
4.4136414219842237
 30
0.0
  0
MTEXT
  5
CE
100
AcDbEntity
  8
0
  6
CONTINUOUS
 62
               7
100
AcDbMText
 10
-129.42640892271712
 20
74.5
 30
0.0
 40
3.1999998092651367
 41
0.0
 71
               4
 72
               1
  1
\W1.075;\A1;MMODEL:DTRY-NZR100U
  0
MTEXT
  5
CF
100
AcDbEntity
  8
0
  6
CONTINUOUS
 62
               7
100
AcDbMText
 10
-116.56665992736816
 20
93.099999841054284
 30
0.0
 40
3.1999998092651367
 41
0.0
 71
               1
 72
               1
  1
\A1;CRECEED
  0
MTEXT
  5
D0
100
AcDbEntity
  8
0
  6
CONTINUOUS
 62
               7
100
AcDbMText
 10
93.749460389051933
 20
89.5
 30
0.0
 40
3.1999998092651367
 41
0.0
 71
               4
 72
               1
  1
\W1.311;\A1;Ver. 1.0
  0
MTEXT
  5
D1
100
AcDbEntity
  8
0
  6
CONTINUOUS
 62
               7
100
AcDbMText
 10
77.440523981154129
 20
-89.800003051757812
 30
0.0
 40
4.5
 41
0.0
 71
               4
 72
               1
  1
\W1.121;\A1;KOGANEI CORP.
  0
LINE
  5
D2
100
AcDbEntity
  8
0
  6
CONTINUOUS
 62
               7
100
AcDbLine
 10
-73.399993896484375
 20
94.5
 30
0.0
 11
-73.399993896484375
 21
84.5
 31
0.0
  0
LINE
  5
D3
100
AcDbEntity
  8
0
  6
CONTINUOUS
 62
               7
100
AcDbLine
 10
73.350006103515625
 20
94.5
 30
0.0
 11
73.350006103515625
 21
84.5
 31
0.0
  0
LINE
  5
D4
100
AcDbEntity
  8
0
  6
CONTINUOUS
 62
               7
100
AcDbLine
 10
73.350006103515625
 20
-84.800003051757813
 30
0.0
 11
73.350006103515625
 21
-94.800003051757812
 31
0.0
  0
LINE
  5
D5
100
AcDbEntity
  8
0
  6
CONTINUOUS
 62
               7
100
AcDbLine
 10
73.350006103515625
 20
84.5
 30
0.0
 11
138.35000610351562
 21
84.5
 31
0.0
  0
LINE
  5
D6
100
AcDbEntity
  8
0
  6
CONTINUOUS
 62
               7
100
AcDbLine
 10
-138.39999389648437
 20
84.5
 30
0.0
 11
-73.399993896484375
 21
84.5
 31
0.0
  0
LINE
  5
D7
100
AcDbEntity
  8
0
  6
CONTINUOUS
 62
               7
100
AcDbLine
 10
73.350006103515625
 20
-84.800003051757813
 30
0.0
 11
138.35000610351562
 21
-84.800003051757813
 31
0.0
  0
LINE
  5
D8
100
AcDbEntity
  8
0
  6
CONTINUOUS
 62
               7
100
AcDbLine
 10
-138.39999389648437
 20
94.5
 30
0.0
 11
-138.39999389648437
 21
-94.800003051757812
 31
0.0
  0
LINE
  5
D9
100
AcDbEntity
  8
0
  6
CONTINUOUS
 62
               7
100
AcDbLine
 10
-138.39999389648437
 20
-94.800003051757812
 30
0.0
 11
138.35000610351562
 21
-94.800003051757812
 31
0.0
  0
LINE
  5
DA
100
AcDbEntity
  8
0
  6
CONTINUOUS
 62
               7
100
AcDbLine
 10
138.35000610351562
 20
94.5
 30
0.0
 11
138.35000610351562
 21
-94.800003051757812
 31
0.0
  0
LINE
  5
DB
100
AcDbEntity
  8
0
  6
CONTINUOUS
 62
               7
100
AcDbLine
 10
-138.39999389648437
 20
94.5
 30
0.0
 11
138.35000610351562
 21
94.5
 31
0.0
  0
MTEXT
  5
DC
100
AcDbEntity
  8
0
  6
CONTINUOUS
 62
               7
100
AcDbMText
 10
-116.51051956841908
 20
87.5
 30
0.0
 40
3.1999998092651367
 41
0.0
 71
               4
 72
               1
  1
\W1.105;\A1;IONIZER
  0
ENDSEC
  0
SECTION
  2
OBJECTS
  0
DICTIONARY
  5
19
100
AcDbDictionary
  3
ACAD_GROUP
350
1A
  3
ACAD_MLINESTYLE
350
1B
  0
DICTIONARY
  5
1A
102
{ACAD_REACTORS
330
19
102
}
100
AcDbDictionary
  0
DICTIONARY
  5
1B
102
{ACAD_REACTORS
330
19
102
}
100
AcDbDictionary
  3
STANDARD
350
1C
  0
MLINESTYLE
  5
1C
102
{ACAD_REACTORS
330
1B
102
}
100
AcDbMlineStyle
  2
Standard
 70
               0
  3

 62
               0
 51
90.0
 52
90.0
 71
               2
 49
0.5
 62
             256
  6
ByLayer
 49
-0.5
 62
             256
  6
ByLayer
  0
ENDSEC
  0
EOF
