  0
SECTION
  2
HEADER
  9
$ACADVER
  1
AC1012
  9
$DWGCODEPAGE
  3
dos932
  9
$INSBASE
 10
0.0
 20
0.0
 30
0.0
  9
$EXTMIN
 10
-399.52490234375
 20
-276.5
 30
0.0
  9
$EXTMAX
 10
405.77491474151611
 20
277.0
 30
0.0
  9
$LIMMIN
 10
-420.0
 20
-297.0
  9
$LIMMAX
 10
420.0
 20
297.0
  9
$ORTHOMODE
 70
               0
  9
$REGENMODE
 70
               1
  9
$FILLMODE
 70
               1
  9
$QTEXTMODE
 70
               0
  9
$MIRRTEXT
 70
               1
  9
$DRAGMODE
 70
               2
  9
$LTSCALE
 40
1.0
  9
$OSMODE
 70
               0
  9
$ATTMODE
 70
               1
  9
$TEXTSIZE
 40
3.2000000476837158
  9
$TRACEWID
 40
0.05
  9
$TEXTSTYLE
  7
MX_NOTE_STANDARD
  9
$CLAYER
  8
0
  9
$CELTYPE
  6
CONTINUOUS
  9
$CECOLOR
 62
             256
  9
$CELTSCALE
 40
1.0
  9
$DELOBJ
 70
               1
  9
$DISPSILH
 70
               0
  9
$DIMSCALE
 40
1.0
  9
$DIMASZ
 40
2.5
  9
$DIMEXO
 40
1.5
  9
$DIMDLI
 40
3.75
  9
$DIMRND
 40
0.0
  9
$DIMDLE
 40
0.0
  9
$DIMEXE
 40
1.5
  9
$DIMTP
 40
0.0
  9
$DIMTM
 40
0.0
  9
$DIMTXT
 40
3.2000000476837158
  9
$DIMCEN
 40
2.5
  9
$DIMTSZ
 40
0.0
  9
$DIMTOL
 70
               0
  9
$DIMLIM
 70
               0
  9
$DIMTIH
 70
               0
  9
$DIMTOH
 70
               0
  9
$DIMSE1
 70
               0
  9
$DIMSE2
 70
               0
  9
$DIMTAD
 70
               1
  9
$DIMZIN
 70
               8
  9
$DIMBLK
  1

  9
$DIMASO
 70
               1
  9
$DIMSHO
 70
               1
  9
$DIMPOST
  1

  9
$DIMAPOST
  1

  9
$DIMALT
 70
               0
  9
$DIMALTD
 70
               4
  9
$DIMALTF
 40
0.03937007874016
  9
$DIMLFAC
 40
1.0
  9
$DIMTOFL
 70
               1
  9
$DIMTVP
 40
0.0
  9
$DIMTIX
 70
               0
  9
$DIMSOXD
 70
               0
  9
$DIMSAH
 70
               1
  9
$DIMBLK1
  1
_OPEN30
  9
$DIMBLK2
  1
_OPEN30
  9
$DIMSTYLE
  2
MXDIMSTYLE
  9
$DIMCLRD
 70
               0
  9
$DIMCLRE
 70
               0
  9
$DIMCLRT
 70
               0
  9
$DIMTFAC
 40
1.0
  9
$DIMGAP
 40
1.0
  9
$DIMJUST
 70
               0
  9
$DIMSD1
 70
               0
  9
$DIMSD2
 70
               0
  9
$DIMTOLJ
 70
               0
  9
$DIMTZIN
 70
               0
  9
$DIMALTZ
 70
               0
  9
$DIMALTTZ
 70
               0
  9
$DIMFIT
 70
               3
  9
$DIMUPT
 70
               1
  9
$DIMUNIT
 70
               2
  9
$DIMDEC
 70
               2
  9
$DIMTDEC
 70
               2
  9
$DIMALTU
 70
               2
  9
$DIMALTTD
 70
               4
  9
$DIMTXSTY
  7
MX_NOTE_STANDARD
  9
$DIMAUNIT
 70
               0
  9
$LUNITS
 70
               2
  9
$LUPREC
 70
               4
  9
$SKETCHINC
 40
0.1
  9
$FILLETRAD
 40
0.0
  9
$AUNITS
 70
               0
  9
$AUPREC
 70
               0
  9
$MENU
  1
acad
  9
$ELEVATION
 40
0.0
  9
$PELEVATION
 40
0.0
  9
$THICKNESS
 40
0.0
  9
$LIMCHECK
 70
               0
  9
$BLIPMODE
 70
               1
  9
$CHAMFERA
 40
0.0
  9
$CHAMFERB
 40
0.0
  9
$CHAMFERC
 40
0.0
  9
$CHAMFERD
 40
0.0
  9
$SKPOLY
 70
               0
  9
$TDCREATE
 40
2453984.744699074
  9
$TDUPDATE
 40
2453984.744699074
  9
$TDINDWG
 40
0.0000000000
  9
$TDUSRTIMER
 40
0.0000000000
  9
$USRTIMER
 70
               1
  9
$ANGBASE
 50
0.0
  9
$ANGDIR
 70
               0
  9
$PDMODE
 70
               0
  9
$PDSIZE
 40
0.0
  9
$PLINEWID
 40
0.0
  9
$COORDS
 70
               1
  9
$SPLFRAME
 70
               0
  9
$SPLINETYPE
 70
               6
  9
$SPLINESEGS
 70
               8
  9
$ATTDIA
 70
               0
  9
$ATTREQ
 70
               1
  9
$HANDLING
 70
               1
  9
$HANDSEED
  5
1DA
  9
$SURFTAB1
 70
               6
  9
$SURFTAB2
 70
               6
  9
$SURFTYPE
 70
               6
  9
$SURFU
 70
               6
  9
$SURFV
 70
               6
  9
$UCSNAME
  2

  9
$UCSORG
 10
0.0
 20
0.0
 30
0.0
  9
$UCSXDIR
 10
1.0
 20
0.0
 30
0.0
  9
$UCSYDIR
 10
0.0
 20
1.0
 30
0.0
  9
$PUCSNAME
  2

  9
$PUCSORG
 10
0.0
 20
0.0
 30
0.0
  9
$PUCSXDIR
 10
1.0
 20
0.0
 30
0.0
  9
$PUCSYDIR
 10
0.0
 20
1.0
 30
0.0
  9
$USERI1
 70
               0
  9
$USERI2
 70
               0
  9
$USERI3
 70
               0
  9
$USERI4
 70
               0
  9
$USERI5
 70
               0
  9
$USERR1
 40
0.0
  9
$USERR2
 40
0.0
  9
$USERR3
 40
0.0
  9
$USERR4
 40
0.0
  9
$USERR5
 40
0.0
  9
$WORLDVIEW
 70
               1
  9
$SHADEDGE
 70
               3
  9
$SHADEDIF
 70
              70
  9
$TILEMODE
 70
               1
  9
$MAXACTVP
 70
              16
  9
$PINSBASE
 10
0.0
 20
0.0
 30
0.0
  9
$PLIMCHECK
 70
               0
  9
$PEXTMIN
 10
1.0000000000000000E+20
 20
1.0000000000000000E+20
 30
1.0000000000000000E+20
  9
$PEXTMAX
 10
-1.0000000000000000E+20
 20
-1.0000000000000000E+20
 30
-1.0000000000000000E+20
  9
$PLIMMIN
 10
0.0
 20
0.0
  9
$PLIMMAX
 10
12.0
 20
9.0
  9
$UNITMODE
 70
               0
  9
$VISRETAIN
 70
               0
  9
$PLINEGEN
 70
               1
  9
$PSLTSCALE
 70
               0
  9
$TREEDEPTH
 70
            3020
  9
$PICKSTYLE
 70
               1
  9
$CMLSTYLE
  2
Standard
  9
$CMLJUST
 70
               0
  9
$CMLSCALE
 40
1.0
  9
$SAVEIMAGES
 70
               0
  0
ENDSEC
  0
SECTION
  2
CLASSES
  0
CLASS
  1
LWPOLYLINE
  2
AcDbPolyline
  3
"AutoCAD"
 90
    32768
280
               0
281
               1
  0
CLASS
  1
IMAGE
  2
AcDbRasterImage
  3
ISM
 90
    32895
280
               0
281
               1
  0
CLASS
  1
OLE2FRAME
  2
AcDbOle2Frame
  3
""
 90
    32768
280
               0
281
               1
  0
CLASS
  1
HATCH
  2
AcDbHatch
  3
"ACAD_SEDONA"
 90
    32768
280
               0
281
               1
  0
CLASS
  1
DICTIONARYVAR
  2
AcDbDictionaryVar
  3
"AutoCAD"
 90
    32768
280
               0
281
               0
  0
CLASS
  1
RASTERVARIABLES
  2
AcDbRasterVariables
  3
ISM
 90
    32768
280
               0
281
               0
  0
CLASS
  1
IMAGEDEF
  2
AcDbRasterImageDef
  3
ISM
 90
    32768
280
               0
281
               0
  0
CLASS
  1
IMAGEDEF_REACTOR
  2
AcDbRasterImageDefReactor
  3
ISM
 90
    32769
280
               0
281
               0
  0
CLASS
  1
IDBUFFER
  2
AcDbIdBuffer
  3
"Acad"
 90
    32768
280
               0
281
               0
  0
CLASS
  1
SPATIAL_FILTER
  2
AcDbSpatialFilter
  3
"Acad"
 90
    32768
280
               0
281
               0
  0
CLASS
  1
XRECORD
  2
AcDbXrecord
  3
"<Built In>"
 90
    32768
280
               0
281
               0
  0
CLASS
  1
SORTENTSTABLE
  2
AcDbSortentsTable
  3
"AutoCAD"
 90
    32768
280
               0
281
               0
  0
CLASS
  1
LAYER_INDEX
  2
AcDbLayerIndex
  3
"Acad"
 90
    32768
280
               0
281
               0
  0
CLASS
  1
SPATIAL_INDEX
  2
AcDbSpatialIndex
  3
"Acad"
 90
    32768
280
               0
281
               0
  0
CLASS
  1
OBJECT_PTR
  2
CAseDLPNTableRecord
  3
"ASE-LPNTableRecord"
 90
    32769
280
               0
281
               0
  0
CLASS
  1
LAYOUT
  2
AcDbLayout
  3
"AutoCAD 2000"
 90
    32768
280
               0
281
               0
  0
CLASS
  1
PLOTSETTINGS
  2
AcDbPlotSettings
  3
"AutoCAD 2000"
 90
    32768
280
               0
281
               0
  0
CLASS
  1
ACDBDICTIONARYWDFLT
  2
AcDbDictionaryWithDefault
  3
"AutoCAD 2000"
 90
    32768
280
               0
281
               0
  0
CLASS
  1
ACDBPLACEHOLDER
  2
AcDbPlaceHolder
  3
"AutoCAD 2000"
 90
    32768
280
               0
281
               0
  0
ENDSEC
  0
SECTION
  2
TABLES
  0
TABLE
  2
VPORT
  5
7
100
AcDbSymbolTable
 70
               1
  0
VPORT
  5
15
100
AcDbSymbolTableRecord
100
AcDbViewportTableRecord
  2
*ACTIVE
 70
               0
 10
0.0
 20
0.0
 11
1.0
 21
1.0
 12
0.0
 22
0.0
 13
0.0
 23
0.0
 14
1.0
 24
1.0
 15
0.0
 25
0.0
 16
0.0
 26
0.0
 36
1.0
 17
0.0
 27
0.0
 37
0.0
 40
599.94000000000005
 41
1.7320508075688772
 42
50.0
 43
0.0
 44
0.0
 50
0.0
 51
0.0
 71
               0
 72
             100
 73
               1
 74
               1
 75
               0
 76
               0
 77
               0
 78
               0
  0
ENDTAB
  0
TABLE
  2
LTYPE
  5
4
100
AcDbSymbolTable
 70
               5
  0
LTYPE
  5
11
100
AcDbSymbolTableRecord
100
AcDbLinetypeTableRecord
  2
BYBLOCK
 70
              64
  3

 72
              65
 73
               0
 40
0.0
  0
LTYPE
  5
12
100
AcDbSymbolTableRecord
100
AcDbLinetypeTableRecord
  2
BYLAYER
 70
              64
  3

 72
              65
 73
               0
 40
0.0
  0
LTYPE
  5
13
100
AcDbSymbolTableRecord
100
AcDbLinetypeTableRecord
  2
CONTINUOUS
 70
              64
  3
Solid line
 72
              65
 73
               0
 40
0.0
  0
LTYPE
  5
2A
100
AcDbSymbolTableRecord
100
AcDbLinetypeTableRecord
  2
CENTER
 70
              64
  3
Center ____ _ ____ _ ____ _ ____ _ ____ _ ____
 72
              65
 73
               4
 40
50.800000000000004
 49
31.75
 74
               0
 49
-6.3499999999999996
 74
               0
 49
6.3499999999999996
 74
               0
 49
-6.3499999999999996
 74
               0
  0
LTYPE
  5
2C
100
AcDbSymbolTableRecord
100
AcDbLinetypeTableRecord
  2
DASHED
 70
              64
  3
Dashed __ __ __ __ __ __ __ __ __ __ __ __ __ _
 72
              65
 73
               2
 40
19.049999999999997
 49
12.699999999999999
 74
               0
 49
-6.3499999999999996
 74
               0
  0
ENDTAB
  0
TABLE
  2
LAYER
  5
2
100
AcDbSymbolTable
 70
               2
  0
LAYER
  5
14
100
AcDbSymbolTableRecord
100
AcDbLayerTableRecord
  2
0
 70
               0
 62
               7
  6
CONTINUOUS
  0
LAYER
  5
1D
100
AcDbSymbolTableRecord
100
AcDbLayerTableRecord
  2
DEFPOINTS
 70
               0
 62
               7
  6
CONTINUOUS
  0
ENDTAB
  0
TABLE
  2
STYLE
  5
3
100
AcDbSymbolTable
 70
               1
  0
STYLE
  5
17
100
AcDbSymbolTableRecord
100
AcDbTextStyleTableRecord
  2
MX_NOTE_STANDARD
 70
               0
 40
0.0
 41
1.0
 50
0.0
 71
               0
 42
3.2000000476837158
  3
txt.shx
  4
extfont.shx
  0
ENDTAB
  0
TABLE
  2
VIEW
  5
5
100
AcDbSymbolTable
 70
               0
  0
ENDTAB
  0
TABLE
  2
UCS
  5
6
100
AcDbSymbolTable
 70
               0
  0
ENDTAB
  0
TABLE
  2
APPID
  5
8
100
AcDbSymbolTable
 70
               1
  0
APPID
  5
16
100
AcDbSymbolTableRecord
100
AcDbRegAppTableRecord
  2
ACAD
 70
               0
  0
ENDTAB
  0
TABLE
  2
DIMSTYLE
  5
9
100
AcDbSymbolTable
 70
               1
  0
DIMSTYLE
105
18
100
AcDbSymbolTableRecord
100
AcDbDimStyleTableRecord
  2
MXDIMSTYLE
 70
               0
  3

  4

  5

  6
_OPEN30
  7
_OPEN30
 40
1.0
 41
2.5
 42
1.5
 43
3.75
 44
1.5
 45
0.0
 46
0.0
 47
0.0
 48
0.0
 71
               0
 72
               0
 73
               0
 74
               0
 75
               0
 76
               0
 77
               1
 78
               8
140
3.2000000476837158
141
2.5
142
0.0
143
0.03937007874016
144
1.0
145
0.0
146
1.0
147
1.0
170
               0
171
               4
172
               1
173
               1
174
               0
175
               0
176
               0
177
               0
178
               0
270
               2
271
               2
272
               2
273
               2
274
               4
275
               0
280
               0
281
               0
282
               0
283
               0
284
               0
285
               0
286
               0
287
               3
288
               1
340
17
  0
ENDTAB
  0
TABLE
  2
BLOCK_RECORD
  5
1
100
AcDbSymbolTable
 70
               6
  0
BLOCK_RECORD
  5
A
100
AcDbSymbolTableRecord
100
AcDbBlockTableRecord
  2
*MODEL_SPACE
  0
BLOCK_RECORD
  5
B
100
AcDbSymbolTableRecord
100
AcDbBlockTableRecord
  2
*PAPER_SPACE
  0
BLOCK_RECORD
  5
1E
100
AcDbSymbolTableRecord
100
AcDbBlockTableRecord
  2
MS_1
  0
BLOCK_RECORD
  5
1F
100
AcDbSymbolTableRecord
100
AcDbBlockTableRecord
  2
MS_2
  0
BLOCK_RECORD
  5
20
100
AcDbSymbolTableRecord
100
AcDbBlockTableRecord
  2
MS_3
  0
BLOCK_RECORD
  5
21
100
AcDbSymbolTableRecord
100
AcDbBlockTableRecord
  2
MS_4
  0
BLOCK_RECORD
  5
22
100
AcDbSymbolTableRecord
100
AcDbBlockTableRecord
  2
MS_5
  0
BLOCK_RECORD
  5
23
100
AcDbSymbolTableRecord
100
AcDbBlockTableRecord
  2
_OPEN30
  0
ENDTAB
  0
ENDSEC
  0
SECTION
  2
BLOCKS
  0
BLOCK
  5
D
100
AcDbEntity
  8
0
100
AcDbBlockBegin
  2
*MODEL_SPACE
 70
               0
 10
0.0
 20
0.0
 30
0.0
  3
*MODEL_SPACE
  1

  0
ENDBLK
  5
E
100
AcDbEntity
  8
0
100
AcDbBlockEnd
  0
BLOCK
  5
F
100
AcDbEntity
 67
               1
  8
0
100
AcDbBlockBegin
  2
*PAPER_SPACE
 70
               0
 10
0.0
 20
0.0
 30
0.0
  3
*PAPER_SPACE
  1

  0
ENDBLK
  5
10
100
AcDbEntity
 67
               1
  8
0
100
AcDbBlockEnd
  0
BLOCK
  5
29
100
AcDbEntity
  8
0
100
AcDbBlockBegin
  2
MS_1
 70
               0
 10
0.0
 20
0.0
 30
0.0
  3
MS_1
  1

  0
LINE
  5
2B
100
AcDbEntity
  8
0
  6
CENTER
 62
               2
100
AcDbLine
 10
172.60247369547855
 20
20.999999999999972
 30
0.0
 11
193.39752630452145
 21
20.999999999999972
 31
0.0
  0
LINE
  5
2D
100
AcDbEntity
  8
0
  6
DASHED
 62
               2
100
AcDbLine
 10
180.40000000000001
 20
28.999999999999972
 30
0.0
 11
180.40000000000001
 21
26.407402333838291
 31
0.0
  0
LINE
  5
2E
100
AcDbEntity
  8
0
  6
DASHED
 62
               2
100
AcDbLine
 10
185.59999999999999
 20
28.999999999999972
 30
0.0
 11
185.59999999999999
 21
26.407402333838291
 31
0.0
  0
ARC
  5
2F
100
AcDbEntity
  8
0
  6
DASHED
 62
               2
100
AcDbCircle
 10
183.0
 20
28.999999999999972
 30
0.0
 40
2.6000000000000001
100
AcDbArc
 50
0.0
 51
180.0
  0
LINE
  5
30
100
AcDbEntity
  8
0
  6
CENTER
 62
               2
100
AcDbLine
 10
183.0
 20
10.999999999999972
 30
0.0
 11
183.0
 21
33.064576444571543
 31
0.0
  0
CIRCLE
  5
31
100
AcDbEntity
  8
0
  6
DASHED
 62
               2
100
AcDbCircle
 10
183.0
 20
20.999999999999972
 30
0.0
 40
6.0
  0
CIRCLE
  5
32
100
AcDbEntity
  8
0
  6
DASHED
 62
               2
100
AcDbCircle
 10
16.999999999999972
 20
20.999999999999972
 30
0.0
 40
6.0
  0
LINE
  5
33
100
AcDbEntity
  8
0
  6
DASHED
 62
               2
100
AcDbLine
 10
14.399999999999977
 20
28.999999999999972
 30
0.0
 11
14.399999999999977
 21
26.407402333838291
 31
0.0
  0
LINE
  5
34
100
AcDbEntity
  8
0
  6
DASHED
 62
               2
100
AcDbLine
 10
19.599999999999966
 20
28.999999999999972
 30
0.0
 11
19.599999999999966
 21
26.407402333838291
 31
0.0
  0
ARC
  5
35
100
AcDbEntity
  8
0
  6
DASHED
 62
               2
100
AcDbCircle
 10
16.999999999999972
 20
28.999999999999972
 30
0.0
 40
2.6000000000000001
100
AcDbArc
 50
0.0
 51
180.0
  0
LINE
  5
36
100
AcDbEntity
  8
0
  6
CENTER
 62
               2
100
AcDbLine
 10
6.602473695478551
 20
20.999999999999972
 30
0.0
 11
27.397526304521449
 21
20.999999999999972
 31
0.0
  0
LINE
  5
37
100
AcDbEntity
  8
0
  6
CENTER
 62
               2
100
AcDbLine
 10
16.999999999999972
 20
10.999999999999972
 30
0.0
 11
16.999999999999972
 21
33.064576444571543
 31
0.0
  0
CIRCLE
  5
38
100
AcDbEntity
  8
0
  6
DASHED
 62
               2
100
AcDbCircle
 10
37.0
 20
-12.999999999999972
 30
0.0
 40
2.0
  0
CIRCLE
  5
39
100
AcDbEntity
  8
0
  6
DASHED
 62
               2
100
AcDbCircle
 10
37.0
 20
29.000000000000028
 30
0.0
 40
2.0
  0
CIRCLE
  5
3A
100
AcDbEntity
  8
0
  6
DASHED
 62
               2
100
AcDbCircle
 10
163.0
 20
29.000000000000057
 30
0.0
 40
2.0
  0
CIRCLE
  5
3B
100
AcDbEntity
  8
0
  6
DASHED
 62
               2
100
AcDbCircle
 10
163.0
 20
-12.999999999999943
 30
0.0
 40
2.0
  0
LINE
  5
3C
100
AcDbEntity
  8
0
  6
CENTER
 62
               2
100
AcDbLine
 10
37.0
 20
34.0
 30
0.0
 11
37.0
 21
24.0
 31
0.0
  0
LINE
  5
3D
100
AcDbEntity
  8
0
  6
CENTER
 62
               2
100
AcDbLine
 10
163.0
 20
34.0
 30
0.0
 11
163.0
 21
24.0
 31
0.0
  0
LINE
  5
3E
100
AcDbEntity
  8
0
  6
CENTER
 62
               2
100
AcDbLine
 10
32.0
 20
29.000000000000028
 30
0.0
 11
42.0
 21
29.000000000000028
 31
0.0
  0
LINE
  5
3F
100
AcDbEntity
  8
0
  6
CENTER
 62
               2
100
AcDbLine
 10
32.0
 20
-12.999999999999972
 30
0.0
 11
42.0
 21
-12.999999999999972
 31
0.0
  0
LINE
  5
40
100
AcDbEntity
  8
0
  6
CONTINUOUS
 62
               2
100
AcDbLine
 10
200.0
 20
-5.0000000000000284
 30
0.0
 11
200.0
 21
4.9999999999999716
 31
0.0
  0
LINE
  5
41
100
AcDbEntity
  8
0
  6
CONTINUOUS
 62
               2
100
AcDbLine
 10
0.0
 20
-5.0
 30
0.0
 11
0.0
 21
5.0
 31
0.0
  0
LINE
  5
42
100
AcDbEntity
  8
0
  6
CONTINUOUS
 62
               7
100
AcDbLine
 10
182.0
 20
-23.499999999999986
 30
0.0
 11
18.0
 21
-23.499999999999986
 31
0.0
  0
LINE
  5
43
100
AcDbEntity
  8
0
  6
CONTINUOUS
 62
               7
100
AcDbLine
 10
130.0
 20
-12.499999999999986
 30
0.0
 11
124.99999999999999
 21
-12.499999999999986
 31
0.0
  0
CIRCLE
  5
44
100
AcDbEntity
  8
0
  6
CONTINUOUS
 62
               7
100
AcDbCircle
 10
106.49999999999999
 20
-12.499999999999986
 30
0.0
 40
2.0
  0
LINE
  5
45
100
AcDbEntity
  8
0
  6
CONTINUOUS
 62
               7
100
AcDbLine
 10
103.00000000000001
 20
2.0000000000000142
 30
0.0
 11
103.00000000000001
 21
4.0000000000000142
 31
0.0
  0
ARC
  5
46
100
AcDbEntity
  8
0
  6
CONTINUOUS
 62
               7
100
AcDbCircle
 10
171.0
 20
-15.499999999999986
 30
0.0
 40
2.0
100
AcDbArc
 50
270.0
 51
0.0
  0
ARC
  5
47
100
AcDbEntity
  8
0
  6
CONTINUOUS
 62
               7
100
AcDbCircle
 10
160.0
 20
-15.499999999999986
 30
0.0
 40
2.0
100
AcDbArc
 50
180.0
 51
270.0
  0
ARC
  5
48
100
AcDbEntity
  8
0
  6
CONTINUOUS
 62
               7
100
AcDbCircle
 10
171.0
 20
-9.4999999999999858
 30
0.0
 40
2.0
100
AcDbArc
 50
0.0
 51
90.0
  0
ARC
  5
49
100
AcDbEntity
  8
0
  6
CONTINUOUS
 62
               7
100
AcDbCircle
 10
160.0
 20
-9.4999999999999858
 30
0.0
 40
2.0
100
AcDbArc
 50
90.0
 51
180.0
  0
ARC
  5
4A
100
AcDbEntity
  8
0
  6
CONTINUOUS
 62
               7
100
AcDbCircle
 10
146.0
 20
-9.4999999999999858
 30
0.0
 40
2.0
100
AcDbArc
 50
0.0
 51
90.0
  0
ARC
  5
4B
100
AcDbEntity
  8
0
  6
CONTINUOUS
 62
               7
100
AcDbCircle
 10
146.0
 20
-15.499999999999986
 30
0.0
 40
2.0
100
AcDbArc
 50
270.0
 51
0.0
  0
ARC
  5
4C
100
AcDbEntity
  8
0
  6
CONTINUOUS
 62
               7
100
AcDbCircle
 10
135.0
 20
-15.499999999999986
 30
0.0
 40
2.0
100
AcDbArc
 50
180.0
 51
270.0
  0
ARC
  5
4D
100
AcDbEntity
  8
0
  6
CONTINUOUS
 62
               7
100
AcDbCircle
 10
135.0
 20
-9.4999999999999858
 30
0.0
 40
2.0
100
AcDbArc
 50
90.0
 51
180.0
  0
LINE
  5
4E
100
AcDbEntity
  8
0
  6
CONTINUOUS
 62
               7
100
AcDbLine
 10
146.0
 20
-17.499999999999986
 30
0.0
 11
135.0
 21
-17.499999999999986
 31
0.0
  0
LINE
  5
4F
100
AcDbEntity
  8
0
  6
CONTINUOUS
 62
               7
100
AcDbLine
 10
146.0
 20
-7.4999999999999858
 30
0.0
 11
135.0
 21
-7.4999999999999858
 31
0.0
  0
LINE
  5
50
100
AcDbEntity
  8
0
  6
CONTINUOUS
 62
               7
100
AcDbLine
 10
133.0
 20
-9.4999999999999858
 30
0.0
 11
133.0
 21
-15.499999999999986
 31
0.0
  0
LINE
  5
51
100
AcDbEntity
  8
0
  6
CONTINUOUS
 62
               7
100
AcDbLine
 10
148.0
 20
-9.4999999999999858
 30
0.0
 11
148.0
 21
-15.499999999999986
 31
0.0
  0
LINE
  5
52
100
AcDbEntity
  8
0
  6
CONTINUOUS
 62
               7
100
AcDbLine
 10
158.0
 20
-9.4999999999999858
 30
0.0
 11
158.0
 21
-15.499999999999986
 31
0.0
  0
LINE
  5
53
100
AcDbEntity
  8
0
  6
CONTINUOUS
 62
               7
100
AcDbLine
 10
173.0
 20
-9.4999999999999716
 30
0.0
 11
173.0
 21
-15.499999999999972
 31
0.0
  0
LINE
  5
54
100
AcDbEntity
  8
0
  6
CONTINUOUS
 62
               7
100
AcDbLine
 10
171.0
 20
-7.4999999999999858
 30
0.0
 11
160.0
 21
-7.4999999999999858
 31
0.0
  0
LINE
  5
55
100
AcDbEntity
  8
0
  6
CONTINUOUS
 62
               7
100
AcDbLine
 10
171.0
 20
-17.499999999999986
 30
0.0
 11
160.0
 21
-17.499999999999986
 31
0.0
  0
LINE
  5
56
100
AcDbEntity
  8
0
  6
CONTINUOUS
 62
               7
100
AcDbLine
 10
109.99999999999999
 20
4.0000000000000142
 30
0.0
 11
109.99999999999999
 21
1.0000000000000142
 31
0.0
  0
LINE
  5
57
100
AcDbEntity
  8
0
  6
CONTINUOUS
 62
               7
100
AcDbLine
 10
138.0
 20
1.0000000000000142
 30
0.0
 11
138.0
 21
4.0000000000000142
 31
0.0
  0
LINE
  5
58
100
AcDbEntity
  8
0
  6
CONTINUOUS
 62
               7
100
AcDbLine
 10
166.0
 20
1.0000000000000142
 30
0.0
 11
166.0
 21
4.0000000000000142
 31
0.0
  0
LINE
  5
59
100
AcDbEntity
  8
0
  6
CONTINUOUS
 62
               7
100
AcDbLine
 10
173.0
 20
2.0000000000000142
 30
0.0
 11
173.0
 21
4.0000000000000142
 31
0.0
  0
LINE
  5
5A
100
AcDbEntity
  8
0
  6
CONTINUOUS
 62
               7
100
AcDbLine
 10
103.00000000000001
 20
2.0000000000000142
 30
0.0
 11
173.0
 21
2.0000000000000142
 31
0.0
  0
LINE
  5
5B
100
AcDbEntity
  8
0
  6
CONTINUOUS
 62
               7
100
AcDbLine
 10
108.99999999999999
 20
3.0000000000000142
 30
0.0
 11
103.99999999999999
 21
3.0000000000000142
 31
0.0
  0
LINE
  5
5C
100
AcDbEntity
  8
0
  6
CONTINUOUS
 62
               7
100
AcDbLine
 10
108.99999999999999
 20
7.0000000000000142
 30
0.0
 11
108.99999999999999
 21
3.0000000000000142
 31
0.0
  0
LINE
  5
5D
100
AcDbEntity
  8
0
  6
CONTINUOUS
 62
               7
100
AcDbLine
 10
103.99999999999999
 20
7.0000000000000142
 30
0.0
 11
108.99999999999999
 21
7.0000000000000142
 31
0.0
  0
LINE
  5
5E
100
AcDbEntity
  8
0
  6
CONTINUOUS
 62
               7
100
AcDbLine
 10
103.99999999999999
 20
3.0000000000000142
 30
0.0
 11
103.99999999999999
 21
7.0000000000000142
 31
0.0
  0
LINE
  5
5F
100
AcDbEntity
  8
0
  6
CONTINUOUS
 62
               7
100
AcDbLine
 10
182.0
 20
23.500000000000028
 30
0.0
 11
18.0
 21
23.500000000000028
 31
0.0
  0
LINE
  5
60
100
AcDbEntity
  8
0
  6
CONTINUOUS
 62
               7
100
AcDbLine
 10
183.0
 20
22.500000000000028
 30
0.0
 11
183.0
 21
-22.499999999999986
 31
0.0
  0
LINE
  5
61
100
AcDbEntity
  8
0
  6
CONTINUOUS
 62
               7
100
AcDbLine
 10
17.0
 20
22.500000000000028
 30
0.0
 11
17.0
 21
-22.499999999999986
 31
0.0
  0
LINE
  5
62
100
AcDbEntity
  8
0
  6
CONTINUOUS
 62
               7
100
AcDbLine
 10
110.99999999999999
 20
3.0000000000000142
 30
0.0
 11
110.99999999999999
 21
7.7000000000000028
 31
0.0
  0
LINE
  5
63
100
AcDbEntity
  8
0
  6
CONTINUOUS
 62
               7
100
AcDbLine
 10
110.99999999999999
 20
7.7000000000000028
 30
0.0
 11
115.99999999999999
 21
7.7000000000000028
 31
0.0
  0
LINE
  5
64
100
AcDbEntity
  8
0
  6
CONTINUOUS
 62
               7
100
AcDbLine
 10
115.99999999999999
 20
7.7000000000000028
 30
0.0
 11
115.99999999999999
 21
3.0000000000000142
 31
0.0
  0
LINE
  5
65
100
AcDbEntity
  8
0
  6
CONTINUOUS
 62
               7
100
AcDbLine
 10
115.99999999999999
 20
3.0000000000000142
 30
0.0
 11
110.99999999999999
 21
3.0000000000000142
 31
0.0
  0
LINE
  5
66
100
AcDbEntity
  8
0
  6
CONTINUOUS
 62
               7
100
AcDbLine
 10
122.99999999999999
 20
3.0000000000000142
 30
0.0
 11
117.99999999999999
 21
3.0000000000000142
 31
0.0
  0
LINE
  5
67
100
AcDbEntity
  8
0
  6
CONTINUOUS
 62
               7
100
AcDbLine
 10
122.99999999999999
 20
8.3999999999999915
 30
0.0
 11
122.99999999999999
 21
3.0000000000000142
 31
0.0
  0
LINE
  5
68
100
AcDbEntity
  8
0
  6
CONTINUOUS
 62
               7
100
AcDbLine
 10
117.99999999999999
 20
8.3999999999999915
 30
0.0
 11
122.99999999999999
 21
8.3999999999999915
 31
0.0
  0
LINE
  5
69
100
AcDbEntity
  8
0
  6
CONTINUOUS
 62
               7
100
AcDbLine
 10
117.99999999999999
 20
3.0000000000000142
 30
0.0
 11
117.99999999999999
 21
8.3999999999999915
 31
0.0
  0
LINE
  5
6A
100
AcDbEntity
  8
0
  6
CONTINUOUS
 62
               7
100
AcDbLine
 10
124.99999999999999
 20
3.0000000000000142
 30
0.0
 11
124.99999999999999
 21
9.0999999999999801
 31
0.0
  0
LINE
  5
6B
100
AcDbEntity
  8
0
  6
CONTINUOUS
 62
               7
100
AcDbLine
 10
124.99999999999999
 20
9.0999999999999801
 30
0.0
 11
130.0
 21
9.0999999999999801
 31
0.0
  0
LINE
  5
6C
100
AcDbEntity
  8
0
  6
CONTINUOUS
 62
               7
100
AcDbLine
 10
130.0
 20
9.0999999999999801
 30
0.0
 11
130.0
 21
3.0000000000000142
 31
0.0
  0
LINE
  5
6D
100
AcDbEntity
  8
0
  6
CONTINUOUS
 62
               7
100
AcDbLine
 10
130.0
 20
3.0000000000000142
 30
0.0
 11
124.99999999999999
 21
3.0000000000000142
 31
0.0
  0
LINE
  5
6E
100
AcDbEntity
  8
0
  6
CONTINUOUS
 62
               7
100
AcDbLine
 10
132.0
 20
3.0000000000000142
 30
0.0
 11
132.0
 21
9.7999999999999687
 31
0.0
  0
LINE
  5
6F
100
AcDbEntity
  8
0
  6
CONTINUOUS
 62
               7
100
AcDbLine
 10
132.0
 20
9.7999999999999687
 30
0.0
 11
137.0
 21
9.7999999999999687
 31
0.0
  0
LINE
  5
70
100
AcDbEntity
  8
0
  6
CONTINUOUS
 62
               7
100
AcDbLine
 10
137.0
 20
9.7999999999999687
 30
0.0
 11
137.0
 21
3.0000000000000142
 31
0.0
  0
LINE
  5
71
100
AcDbEntity
  8
0
  6
CONTINUOUS
 62
               7
100
AcDbLine
 10
137.0
 20
3.0000000000000142
 30
0.0
 11
132.0
 21
3.0000000000000142
 31
0.0
  0
LINE
  5
72
100
AcDbEntity
  8
0
  6
CONTINUOUS
 62
               7
100
AcDbLine
 10
139.0
 20
3.0000000000000142
 30
0.0
 11
139.0
 21
10.499999999999957
 31
0.0
  0
LINE
  5
73
100
AcDbEntity
  8
0
  6
CONTINUOUS
 62
               7
100
AcDbLine
 10
139.0
 20
10.499999999999957
 30
0.0
 11
144.0
 21
10.499999999999957
 31
0.0
  0
LINE
  5
74
100
AcDbEntity
  8
0
  6
CONTINUOUS
 62
               7
100
AcDbLine
 10
144.0
 20
10.499999999999957
 30
0.0
 11
144.0
 21
3.0000000000000142
 31
0.0
  0
LINE
  5
75
100
AcDbEntity
  8
0
  6
CONTINUOUS
 62
               7
100
AcDbLine
 10
144.0
 20
3.0000000000000142
 30
0.0
 11
139.0
 21
3.0000000000000142
 31
0.0
  0
LINE
  5
76
100
AcDbEntity
  8
0
  6
CONTINUOUS
 62
               7
100
AcDbLine
 10
146.0
 20
3.0000000000000142
 30
0.0
 11
146.0
 21
11.199999999999946
 31
0.0
  0
LINE
  5
77
100
AcDbEntity
  8
0
  6
CONTINUOUS
 62
               7
100
AcDbLine
 10
146.0
 20
11.199999999999946
 30
0.0
 11
151.0
 21
11.199999999999946
 31
0.0
  0
LINE
  5
78
100
AcDbEntity
  8
0
  6
CONTINUOUS
 62
               7
100
AcDbLine
 10
151.0
 20
11.199999999999946
 30
0.0
 11
151.0
 21
3.0000000000000142
 31
0.0
  0
LINE
  5
79
100
AcDbEntity
  8
0
  6
CONTINUOUS
 62
               7
100
AcDbLine
 10
151.0
 20
3.0000000000000142
 30
0.0
 11
146.0
 21
3.0000000000000142
 31
0.0
  0
LINE
  5
7A
100
AcDbEntity
  8
0
  6
CONTINUOUS
 62
               7
100
AcDbLine
 10
153.0
 20
3.0000000000000142
 30
0.0
 11
153.0
 21
11.899999999999935
 31
0.0
  0
LINE
  5
7B
100
AcDbEntity
  8
0
  6
CONTINUOUS
 62
               7
100
AcDbLine
 10
153.0
 20
11.899999999999935
 30
0.0
 11
158.0
 21
11.899999999999935
 31
0.0
  0
LINE
  5
7C
100
AcDbEntity
  8
0
  6
CONTINUOUS
 62
               7
100
AcDbLine
 10
158.0
 20
11.899999999999935
 30
0.0
 11
158.0
 21
3.0000000000000142
 31
0.0
  0
LINE
  5
7D
100
AcDbEntity
  8
0
  6
CONTINUOUS
 62
               7
100
AcDbLine
 10
158.0
 20
3.0000000000000142
 30
0.0
 11
153.0
 21
3.0000000000000142
 31
0.0
  0
LINE
  5
7E
100
AcDbEntity
  8
0
  6
CONTINUOUS
 62
               7
100
AcDbLine
 10
160.0
 20
3.0000000000000142
 30
0.0
 11
160.0
 21
12.599999999999937
 31
0.0
  0
LINE
  5
7F
100
AcDbEntity
  8
0
  6
CONTINUOUS
 62
               7
100
AcDbLine
 10
160.0
 20
12.599999999999937
 30
0.0
 11
165.0
 21
12.599999999999937
 31
0.0
  0
LINE
  5
80
100
AcDbEntity
  8
0
  6
CONTINUOUS
 62
               7
100
AcDbLine
 10
165.0
 20
12.599999999999937
 30
0.0
 11
165.0
 21
3.0000000000000142
 31
0.0
  0
LINE
  5
81
100
AcDbEntity
  8
0
  6
CONTINUOUS
 62
               7
100
AcDbLine
 10
165.0
 20
3.0000000000000142
 30
0.0
 11
160.0
 21
3.0000000000000142
 31
0.0
  0
LINE
  5
82
100
AcDbEntity
  8
0
  6
CONTINUOUS
 62
               7
100
AcDbLine
 10
167.0
 20
3.0000000000000142
 30
0.0
 11
167.0
 21
13.299999999999926
 31
0.0
  0
LINE
  5
83
100
AcDbEntity
  8
0
  6
CONTINUOUS
 62
               7
100
AcDbLine
 10
167.0
 20
13.299999999999926
 30
0.0
 11
172.0
 21
13.299999999999926
 31
0.0
  0
LINE
  5
84
100
AcDbEntity
  8
0
  6
CONTINUOUS
 62
               7
100
AcDbLine
 10
172.0
 20
13.299999999999926
 30
0.0
 11
172.0
 21
3.0000000000000142
 31
0.0
  0
LINE
  5
85
100
AcDbEntity
  8
0
  6
CONTINUOUS
 62
               7
100
AcDbLine
 10
172.0
 20
3.0000000000000142
 30
0.0
 11
167.0
 21
3.0000000000000142
 31
0.0
  0
LINE
  5
86
100
AcDbEntity
  8
0
  6
CONTINUOUS
 62
               7
100
AcDbLine
 10
179.0
 20
19.500000000000028
 30
0.0
 11
21.0
 21
19.500000000000028
 31
0.0
  0
LINE
  5
87
100
AcDbEntity
  8
0
  6
CONTINUOUS
 62
               7
100
AcDbLine
 10
179.0
 20
19.500000000000028
 30
0.0
 11
179.0
 21
-19.499999999999986
 31
0.0
  0
LINE
  5
88
100
AcDbEntity
  8
0
  6
CONTINUOUS
 62
               7
100
AcDbLine
 10
21.0
 20
19.500000000000028
 30
0.0
 11
21.0
 21
-19.499999999999986
 31
0.0
  0
LINE
  5
89
100
AcDbEntity
  8
0
  6
CONTINUOUS
 62
               7
100
AcDbLine
 10
179.0
 20
-19.499999999999986
 30
0.0
 11
21.0
 21
-19.499999999999986
 31
0.0
  0
ARC
  5
8A
100
AcDbEntity
  8
0
  6
CONTINUOUS
 62
               7
100
AcDbCircle
 10
18.0
 20
22.500000000000028
 30
0.0
 40
1.0
100
AcDbArc
 50
90.0
 51
180.0
  0
ARC
  5
8B
100
AcDbEntity
  8
0
  6
CONTINUOUS
 62
               7
100
AcDbCircle
 10
182.0
 20
22.500000000000028
 30
0.0
 40
1.0
100
AcDbArc
 50
0.0
 51
90.0
  0
ARC
  5
8C
100
AcDbEntity
  8
0
  6
CONTINUOUS
 62
               7
100
AcDbCircle
 10
182.0
 20
-22.499999999999986
 30
0.0
 40
1.0
100
AcDbArc
 50
270.0
 51
0.0
  0
ARC
  5
8D
100
AcDbEntity
  8
0
  6
CONTINUOUS
 62
               7
100
AcDbCircle
 10
18.0
 20
-22.499999999999986
 30
0.0
 40
1.0
100
AcDbArc
 50
180.0
 51
270.0
  0
LINE
  5
8E
100
AcDbEntity
  8
0
  6
CONTINUOUS
 62
               7
100
AcDbLine
 10
195.0
 20
29.999999999999943
 30
0.0
 11
5.0
 21
30.0
 31
0.0
  0
LINE
  5
8F
100
AcDbEntity
  8
0
  6
CONTINUOUS
 62
               7
100
AcDbLine
 10
195.0
 20
-30.000000000000057
 30
0.0
 11
5.0
 21
-30.0
 31
0.0
  0
ARC
  5
90
100
AcDbEntity
  8
0
  6
CONTINUOUS
 62
               7
100
AcDbCircle
 10
15.0
 20
41.0
 30
0.0
 40
10.0
100
AcDbArc
 50
90.0
 51
180.0
  0
ARC
  5
91
100
AcDbEntity
  8
0
  6
CONTINUOUS
 62
               7
100
AcDbCircle
 10
15.0
 20
-41.0
 30
0.0
 40
10.0
100
AcDbArc
 50
180.0
 51
270.0
  0
LINE
  5
92
100
AcDbEntity
  8
0
  6
CONTINUOUS
 62
               7
100
AcDbLine
 10
5.0
 20
41.0
 30
0.0
 11
5.0
 21
-41.0
 31
0.0
  0
ARC
  5
93
100
AcDbEntity
  8
0
  6
CONTINUOUS
 62
               7
100
AcDbCircle
 10
185.0
 20
-41.000000000000057
 30
0.0
 40
10.0
100
AcDbArc
 50
270.0
 51
0.0
  0
ARC
  5
94
100
AcDbEntity
  8
0
  6
CONTINUOUS
 62
               7
100
AcDbCircle
 10
185.0
 20
40.999999999999943
 30
0.0
 40
10.0
100
AcDbArc
 50
0.0
 51
90.0
  0
LINE
  5
95
100
AcDbEntity
  8
0
  6
CONTINUOUS
 62
               7
100
AcDbLine
 10
195.0
 20
40.999999999999943
 30
0.0
 11
195.0
 21
-41.000000000000057
 31
0.0
  0
LINE
  5
96
100
AcDbEntity
  8
0
  6
CONTINUOUS
 62
               7
100
AcDbLine
 10
15.0
 20
51.000000000000028
 30
0.0
 11
185.0
 21
50.999999999999915
 31
0.0
  0
LINE
  5
97
100
AcDbEntity
  8
0
  6
CONTINUOUS
 62
               7
100
AcDbLine
 10
185.0
 20
-51.000000000000057
 30
0.0
 11
15.0
 21
-51.0
 31
0.0
  0
LINE
  5
98
100
AcDbEntity
  8
0
  6
CONTINUOUS
 62
               7
100
AcDbLine
 10
27.0
 20
33.150000000000034
 30
0.0
 11
27.0
 21
51.000000000000028
 31
0.0
  0
LINE
  5
99
100
AcDbEntity
  8
0
  6
CONTINUOUS
 62
               7
100
AcDbLine
 10
27.0
 20
-33.149999999999977
 30
0.0
 11
27.0
 21
-51.0
 31
0.0
  0
LINE
  5
9A
100
AcDbEntity
  8
0
  6
CONTINUOUS
 62
               7
100
AcDbLine
 10
30.300000000000011
 20
33.150000000000034
 30
0.0
 11
30.300000000000011
 21
51.000000000000028
 31
0.0
  0
LINE
  5
9B
100
AcDbEntity
  8
0
  6
CONTINUOUS
 62
               7
100
AcDbLine
 10
30.300000000000011
 20
-33.149999999999977
 30
0.0
 11
30.300000000000011
 21
-51.0
 31
0.0
  0
ARC
  5
9C
100
AcDbEntity
  8
0
  6
CONTINUOUS
 62
               7
100
AcDbCircle
 10
28.650000000000034
 20
33.150000000000034
 30
0.0
 40
1.6499999999999986
100
AcDbArc
 50
180.0
 51
0.0
  0
ARC
  5
9D
100
AcDbEntity
  8
0
  6
CONTINUOUS
 62
               7
100
AcDbCircle
 10
28.650000000000034
 20
-33.149999999999977
 30
0.0
 40
1.6499999999999986
100
AcDbArc
 50
0.0
 51
180.0
  0
ARC
  5
9E
100
AcDbEntity
  8
0
  6
CONTINUOUS
 62
               7
100
AcDbCircle
 10
39.650000000000034
 20
33.150000000000034
 30
0.0
 40
1.6499999999999986
100
AcDbArc
 50
180.0
 51
0.0
  0
LINE
  5
9F
100
AcDbEntity
  8
0
  6
CONTINUOUS
 62
               7
100
AcDbLine
 10
41.300000000000011
 20
33.150000000000034
 30
0.0
 11
41.300000000000011
 21
51.000000000000028
 31
0.0
  0
LINE
  5
A0
100
AcDbEntity
  8
0
  6
CONTINUOUS
 62
               7
100
AcDbLine
 10
38.0
 20
33.150000000000034
 30
0.0
 11
38.0
 21
51.000000000000028
 31
0.0
  0
ARC
  5
A1
100
AcDbEntity
  8
0
  6
CONTINUOUS
 62
               7
100
AcDbCircle
 10
39.650000000000034
 20
-33.149999999999977
 30
0.0
 40
1.6499999999999986
100
AcDbArc
 50
0.0
 51
180.0
  0
LINE
  5
A2
100
AcDbEntity
  8
0
  6
CONTINUOUS
 62
               7
100
AcDbLine
 10
41.300000000000011
 20
-33.149999999999977
 30
0.0
 11
41.300000000000011
 21
-51.0
 31
0.0
  0
LINE
  5
A3
100
AcDbEntity
  8
0
  6
CONTINUOUS
 62
               7
100
AcDbLine
 10
38.0
 20
-33.149999999999977
 30
0.0
 11
38.0
 21
-51.0
 31
0.0
  0
ARC
  5
A4
100
AcDbEntity
  8
0
  6
CONTINUOUS
 62
               7
100
AcDbCircle
 10
50.650000000000034
 20
33.150000000000006
 30
0.0
 40
1.6499999999999986
100
AcDbArc
 50
180.0
 51
0.0
  0
LINE
  5
A5
100
AcDbEntity
  8
0
  6
CONTINUOUS
 62
               7
100
AcDbLine
 10
52.300000000000011
 20
33.149999999999949
 30
0.0
 11
52.300000000000011
 21
50.999999999999972
 31
0.0
  0
LINE
  5
A6
100
AcDbEntity
  8
0
  6
CONTINUOUS
 62
               7
100
AcDbLine
 10
49.0
 20
33.150000000000006
 30
0.0
 11
49.0
 21
50.999999999999972
 31
0.0
  0
ARC
  5
A7
100
AcDbEntity
  8
0
  6
CONTINUOUS
 62
               7
100
AcDbCircle
 10
50.650000000000034
 20
-33.15000000000002
 30
0.0
 40
1.6499999999999986
100
AcDbArc
 50
0.0
 51
180.0
  0
LINE
  5
A8
100
AcDbEntity
  8
0
  6
CONTINUOUS
 62
               7
100
AcDbLine
 10
52.300000000000011
 20
-33.15000000000002
 30
0.0
 11
52.300000000000011
 21
-51.000000000000043
 31
0.0
  0
LINE
  5
A9
100
AcDbEntity
  8
0
  6
CONTINUOUS
 62
               7
100
AcDbLine
 10
49.0
 20
-33.15000000000002
 30
0.0
 11
49.0
 21
-51.000000000000043
 31
0.0
  0
ARC
  5
AA
100
AcDbEntity
  8
0
  6
CONTINUOUS
 62
               7
100
AcDbCircle
 10
61.650000000000034
 20
33.149999999999949
 30
0.0
 40
1.6499999999999986
100
AcDbArc
 50
180.0
 51
0.0
  0
LINE
  5
AB
100
AcDbEntity
  8
0
  6
CONTINUOUS
 62
               7
100
AcDbLine
 10
63.300000000000011
 20
33.149999999999949
 30
0.0
 11
63.300000000000011
 21
50.999999999999972
 31
0.0
  0
LINE
  5
AC
100
AcDbEntity
  8
0
  6
CONTINUOUS
 62
               7
100
AcDbLine
 10
60.0
 20
33.149999999999949
 30
0.0
 11
60.0
 21
50.999999999999972
 31
0.0
  0
ARC
  5
AD
100
AcDbEntity
  8
0
  6
CONTINUOUS
 62
               7
100
AcDbCircle
 10
61.650000000000034
 20
-33.15000000000002
 30
0.0
 40
1.6499999999999986
100
AcDbArc
 50
0.0
 51
180.0
  0
LINE
  5
AE
100
AcDbEntity
  8
0
  6
CONTINUOUS
 62
               7
100
AcDbLine
 10
63.300000000000011
 20
-33.15000000000002
 30
0.0
 11
63.300000000000011
 21
-51.000000000000043
 31
0.0
  0
LINE
  5
AF
100
AcDbEntity
  8
0
  6
CONTINUOUS
 62
               7
100
AcDbLine
 10
60.0
 20
-33.15000000000002
 30
0.0
 11
60.0
 21
-51.000000000000043
 31
0.0
  0
ARC
  5
B0
100
AcDbEntity
  8
0
  6
CONTINUOUS
 62
               7
100
AcDbCircle
 10
72.650000000000034
 20
33.149999999999949
 30
0.0
 40
1.6499999999999986
100
AcDbArc
 50
180.0
 51
0.0
  0
LINE
  5
B1
100
AcDbEntity
  8
0
  6
CONTINUOUS
 62
               7
100
AcDbLine
 10
74.300000000000011
 20
33.149999999999949
 30
0.0
 11
74.300000000000011
 21
50.999999999999972
 31
0.0
  0
LINE
  5
B2
100
AcDbEntity
  8
0
  6
CONTINUOUS
 62
               7
100
AcDbLine
 10
71.0
 20
33.149999999999949
 30
0.0
 11
71.0
 21
50.999999999999972
 31
0.0
  0
ARC
  5
B3
100
AcDbEntity
  8
0
  6
CONTINUOUS
 62
               7
100
AcDbCircle
 10
72.649999999999977
 20
-33.15000000000002
 30
0.0
 40
1.6499999999999986
100
AcDbArc
 50
0.0
 51
180.0
  0
LINE
  5
B4
100
AcDbEntity
  8
0
  6
CONTINUOUS
 62
               7
100
AcDbLine
 10
74.299999999999955
 20
-33.15000000000002
 30
0.0
 11
74.299999999999955
 21
-51.000000000000043
 31
0.0
  0
LINE
  5
B5
100
AcDbEntity
  8
0
  6
CONTINUOUS
 62
               7
100
AcDbLine
 10
71.0
 20
-33.15000000000002
 30
0.0
 11
71.0
 21
-51.000000000000043
 31
0.0
  0
ARC
  5
B6
100
AcDbEntity
  8
0
  6
CONTINUOUS
 62
               7
100
AcDbCircle
 10
83.650000000000034
 20
33.149999999999949
 30
0.0
 40
1.6499999999999986
100
AcDbArc
 50
180.0
 51
0.0
  0
LINE
  5
B7
100
AcDbEntity
  8
0
  6
CONTINUOUS
 62
               7
100
AcDbLine
 10
85.300000000000011
 20
33.149999999999949
 30
0.0
 11
85.300000000000011
 21
50.999999999999972
 31
0.0
  0
LINE
  5
B8
100
AcDbEntity
  8
0
  6
CONTINUOUS
 62
               7
100
AcDbLine
 10
82.0
 20
33.149999999999949
 30
0.0
 11
82.0
 21
50.999999999999972
 31
0.0
  0
ARC
  5
B9
100
AcDbEntity
  8
0
  6
CONTINUOUS
 62
               7
100
AcDbCircle
 10
83.649999999999977
 20
-33.15000000000002
 30
0.0
 40
1.6499999999999986
100
AcDbArc
 50
0.0
 51
180.0
  0
LINE
  5
BA
100
AcDbEntity
  8
0
  6
CONTINUOUS
 62
               7
100
AcDbLine
 10
85.299999999999955
 20
-33.15000000000002
 30
0.0
 11
85.299999999999955
 21
-51.000000000000043
 31
0.0
  0
LINE
  5
BB
100
AcDbEntity
  8
0
  6
CONTINUOUS
 62
               7
100
AcDbLine
 10
82.0
 20
-33.15000000000002
 30
0.0
 11
82.0
 21
-51.000000000000043
 31
0.0
  0
ARC
  5
BC
100
AcDbEntity
  8
0
  6
CONTINUOUS
 62
               7
100
AcDbCircle
 10
94.650000000000034
 20
33.149999999999949
 30
0.0
 40
1.6499999999999986
100
AcDbArc
 50
180.0
 51
0.0
  0
LINE
  5
BD
100
AcDbEntity
  8
0
  6
CONTINUOUS
 62
               7
100
AcDbLine
 10
96.300000000000011
 20
33.149999999999949
 30
0.0
 11
96.300000000000011
 21
50.999999999999972
 31
0.0
  0
LINE
  5
BE
100
AcDbEntity
  8
0
  6
CONTINUOUS
 62
               7
100
AcDbLine
 10
93.0
 20
33.149999999999949
 30
0.0
 11
93.0
 21
50.999999999999972
 31
0.0
  0
ARC
  5
BF
100
AcDbEntity
  8
0
  6
CONTINUOUS
 62
               7
100
AcDbCircle
 10
94.649999999999977
 20
-33.15000000000002
 30
0.0
 40
1.6499999999999986
100
AcDbArc
 50
0.0
 51
180.0
  0
LINE
  5
C0
100
AcDbEntity
  8
0
  6
CONTINUOUS
 62
               7
100
AcDbLine
 10
96.299999999999955
 20
-33.15000000000002
 30
0.0
 11
96.299999999999955
 21
-51.000000000000043
 31
0.0
  0
LINE
  5
C1
100
AcDbEntity
  8
0
  6
CONTINUOUS
 62
               7
100
AcDbLine
 10
93.0
 20
-33.15000000000002
 30
0.0
 11
93.0
 21
-51.000000000000043
 31
0.0
  0
LINE
  5
C2
100
AcDbEntity
  8
0
  6
CONTINUOUS
 62
               7
100
AcDbLine
 10
195.0
 20
-25.000000000000057
 30
0.0
 11
5.0
 21
-25.0
 31
0.0
  0
LINE
  5
C3
100
AcDbEntity
  8
0
  6
CONTINUOUS
 62
               7
100
AcDbLine
 10
195.0
 20
24.999999999999943
 30
0.0
 11
5.0
 21
25.0
 31
0.0
  0
LINE
  5
C4
100
AcDbEntity
  8
0
  6
CONTINUOUS
 62
               7
100
AcDbLine
 10
176.0
 20
50.999999999999915
 30
0.0
 11
176.0
 21
45.981974594193332
 31
0.0
  0
LINE
  5
C5
100
AcDbEntity
  8
0
  6
CONTINUOUS
 62
               7
100
AcDbLine
 10
174.0
 20
50.999999999999915
 30
0.0
 11
174.0
 21
45.981974594193332
 31
0.0
  0
ARC
  5
C6
100
AcDbEntity
  8
0
  6
CONTINUOUS
 62
               7
100
AcDbCircle
 10
175.0
 20
45.981974594193332
 30
0.0
 40
1.0
100
AcDbArc
 50
180.0
 51
0.0
  0
LINE
  5
C7
100
AcDbEntity
  8
0
  6
CONTINUOUS
 62
               7
100
AcDbLine
 10
165.5
 20
50.999999999999915
 30
0.0
 11
165.5
 21
45.981974594193332
 31
0.0
  0
LINE
  5
C8
100
AcDbEntity
  8
0
  6
CONTINUOUS
 62
               7
100
AcDbLine
 10
163.5
 20
50.999999999999915
 30
0.0
 11
163.5
 21
45.981974594193332
 31
0.0
  0
ARC
  5
C9
100
AcDbEntity
  8
0
  6
CONTINUOUS
 62
               7
100
AcDbCircle
 10
164.5
 20
45.981974594193332
 30
0.0
 40
1.0
100
AcDbArc
 50
180.0
 51
0.0
  0
LINE
  5
CA
100
AcDbEntity
  8
0
  6
CONTINUOUS
 62
               7
100
AcDbLine
 10
155.0
 20
50.999999999999972
 30
0.0
 11
155.0
 21
45.98197459419336
 31
0.0
  0
LINE
  5
CB
100
AcDbEntity
  8
0
  6
CONTINUOUS
 62
               7
100
AcDbLine
 10
153.0
 20
50.999999999999972
 30
0.0
 11
153.0
 21
45.98197459419336
 31
0.0
  0
ARC
  5
CC
100
AcDbEntity
  8
0
  6
CONTINUOUS
 62
               7
100
AcDbCircle
 10
154.0
 20
45.98197459419336
 30
0.0
 40
1.0
100
AcDbArc
 50
180.0
 51
0.0
  0
LINE
  5
CD
100
AcDbEntity
  8
0
  6
CONTINUOUS
 62
               7
100
AcDbLine
 10
144.5
 20
50.999999999999972
 30
0.0
 11
144.5
 21
45.98197459419336
 31
0.0
  0
LINE
  5
CE
100
AcDbEntity
  8
0
  6
CONTINUOUS
 62
               7
100
AcDbLine
 10
142.5
 20
50.999999999999972
 30
0.0
 11
142.5
 21
45.98197459419336
 31
0.0
  0
ARC
  5
CF
100
AcDbEntity
  8
0
  6
CONTINUOUS
 62
               7
100
AcDbCircle
 10
143.5
 20
45.98197459419336
 30
0.0
 40
1.0
100
AcDbArc
 50
180.0
 51
0.0
  0
LINE
  5
D0
100
AcDbEntity
  8
0
  6
CONTINUOUS
 62
               7
100
AcDbLine
 10
134.0
 20
50.999999999999972
 30
0.0
 11
134.0
 21
45.98197459419336
 31
0.0
  0
LINE
  5
D1
100
AcDbEntity
  8
0
  6
CONTINUOUS
 62
               7
100
AcDbLine
 10
132.0
 20
50.999999999999972
 30
0.0
 11
132.0
 21
45.98197459419336
 31
0.0
  0
ARC
  5
D2
100
AcDbEntity
  8
0
  6
CONTINUOUS
 62
               7
100
AcDbCircle
 10
133.0
 20
45.98197459419336
 30
0.0
 40
1.0
100
AcDbArc
 50
180.0
 51
0.0
  0
CIRCLE
  5
D3
100
AcDbEntity
  8
0
  6
CONTINUOUS
 62
               7
100
AcDbCircle
 10
200.0
 20
-0.0000000000000284
 30
0.0
 40
2.1499999999999999
  0
LINE
  5
D4
100
AcDbEntity
  8
0
  6
CONTINUOUS
 62
               7
100
AcDbLine
 10
203.53553390593277
 20
6.4644660940672054
 30
0.0
 11
196.46446609406723
 21
13.535533905932738
 31
0.0
  0
LINE
  5
D5
100
AcDbEntity
  8
0
  6
CONTINUOUS
 62
               7
100
AcDbLine
 10
203.53553390593271
 20
-6.4644660940673191
 30
0.0
 11
196.46446609406729
 21
-13.535533905932766
 31
0.0
  0
ARC
  5
D6
100
AcDbEntity
  8
0
  6
CONTINUOUS
 62
               7
100
AcDbCircle
 10
200.0
 20
2.9289321881344392
 30
0.0
 40
5.0
100
AcDbArc
 50
0.0
 51
45.0
  0
ARC
  5
D7
100
AcDbEntity
  8
0
  6
CONTINUOUS
 62
               7
100
AcDbCircle
 10
200.0
 20
-2.9289321881346098
 30
0.0
 40
5.0
100
AcDbArc
 50
314.99999999999977
 51
0.0
  0
LINE
  5
D8
100
AcDbEntity
  8
0
  6
CONTINUOUS
 62
               7
100
AcDbLine
 10
205.0
 20
2.9289321881344392
 30
0.0
 11
205.0
 21
-2.9289321881346098
 31
0.0
  0
ARC
  5
D9
100
AcDbEntity
  8
0
  6
CONTINUOUS
 62
               7
100
AcDbCircle
 10
200.0
 20
17.071067811865504
 30
0.0
 40
5.0
100
AcDbArc
 50
180.0
 51
225.0
  0
ARC
  5
DA
100
AcDbEntity
  8
0
  6
CONTINUOUS
 62
               7
100
AcDbCircle
 10
200.0
 20
-17.071067811865504
 30
0.0
 40
5.0
100
AcDbArc
 50
134.99999999999989
 51
180.0
  0
ARC
  5
DB
100
AcDbEntity
  8
0
  6
CONTINUOUS
 62
               7
100
AcDbCircle
 10
0.0
 20
17.071067811865532
 30
0.0
 40
5.0
100
AcDbArc
 50
315.0
 51
0.0
  0
ARC
  5
DC
100
AcDbEntity
  8
0
  6
CONTINUOUS
 62
               7
100
AcDbCircle
 10
0.0
 20
-17.071067811865476
 30
0.0
 40
5.0
100
AcDbArc
 50
0.0
 51
45.000000000000099
  0
LINE
  5
DD
100
AcDbEntity
  8
0
  6
CONTINUOUS
 62
               7
100
AcDbLine
 10
-5.0
 20
2.9289321881344677
 30
0.0
 11
-5.0
 21
-2.9289321881345813
 31
0.0
  0
ARC
  5
DE
100
AcDbEntity
  8
0
  6
CONTINUOUS
 62
               7
100
AcDbCircle
 10
0.0
 20
-2.9289321881345813
 30
0.0
 40
5.0
100
AcDbArc
 50
180.0
 51
225.00000000000026
  0
ARC
  5
DF
100
AcDbEntity
  8
0
  6
CONTINUOUS
 62
               7
100
AcDbCircle
 10
0.0
 20
2.9289321881344677
 30
0.0
 40
5.0
100
AcDbArc
 50
135.0
 51
180.0
  0
LINE
  5
E0
100
AcDbEntity
  8
0
  6
CONTINUOUS
 62
               7
100
AcDbLine
 10
-3.5355339059327093
 20
-6.4644660940672907
 30
0.0
 11
3.5355339059327093
 21
-13.535533905932738
 31
0.0
  0
LINE
  5
E1
100
AcDbEntity
  8
0
  6
CONTINUOUS
 62
               7
100
AcDbLine
 10
-3.5355339059327662
 20
6.4644660940672338
 30
0.0
 11
3.5355339059327662
 21
13.535533905932766
 31
0.0
  0
CIRCLE
  5
E2
100
AcDbEntity
  8
0
  6
CONTINUOUS
 62
               7
100
AcDbCircle
 10
0.0
 20
0.0
 30
0.0
 40
2.1499999999999999
  0
LINE
  5
E3
100
AcDbEntity
  8
0
  6
CONTINUOUS
 62
               2
100
AcDbLine
 10
-10.0
 20
0.0
 30
0.0
 11
210.0
 21
-0.0000000000000142
 31
0.0
  0
LINE
  5
E4
100
AcDbEntity
  8
0
  6
CENTER
 62
               2
100
AcDbLine
 10
158.0
 20
29.0
 30
0.0
 11
168.0
 21
29.0
 31
0.0
  0
LINE
  5
E5
100
AcDbEntity
  8
0
  6
CENTER
 62
               2
100
AcDbLine
 10
158.0
 20
-13.0
 30
0.0
 11
168.0
 21
-13.0
 31
0.0
  0
LINE
  5
E6
100
AcDbEntity
  8
0
  6
CENTER
 62
               2
100
AcDbLine
 10
163.0
 20
-8.0
 30
0.0
 11
163.0
 21
-18.0
 31
0.0
  0
LINE
  5
E7
100
AcDbEntity
  8
0
  6
CENTER
 62
               2
100
AcDbLine
 10
37.0
 20
-8.0
 30
0.0
 11
37.0
 21
-18.0
 31
0.0
  0
ENDBLK
  5
E8
100
AcDbEntity
  8
0
100
AcDbBlockEnd
  0
BLOCK
  5
E9
100
AcDbEntity
  8
0
100
AcDbBlockBegin
  2
MS_2
 70
               0
 10
0.0
 20
0.0
 30
0.0
  3
MS_2
  1

  0
LINE
  5
EA
100
AcDbEntity
  8
0
  6
CONTINUOUS
 62
               7
100
AcDbLine
 10
4.0051649343585041
 20
-17.071067811865518
 30
0.0
 11
0.9098154657538657
 21
-17.071067811865518
 31
0.0
  0
LINE
  5
EB
100
AcDbEntity
  8
0
  6
CONTINUOUS
 62
               7
100
AcDbLine
 10
4.0825486710735959
 20
17.07106781186549
 30
0.0
 11
0.5228967821782931
 21
17.07106781186549
 31
0.0
  0
ARC
  5
EC
100
AcDbEntity
  8
0
  6
CONTINUOUS
 62
               7
100
AcDbCircle
 10
33.107070972196425
 20
-45.479877964989115
 30
0.0
 40
5.0
100
AcDbArc
 50
272.00000000000006
 51
354.72831256478361
  0
ARC
  5
ED
100
AcDbEntity
  8
0
  6
CONTINUOUS
 62
               7
100
AcDbCircle
 10
33.107070972196425
 20
45.479877964988944
 30
0.0
 40
5.0
100
AcDbArc
 50
5.2716874352155072
 51
87.999999999999972
  0
ARC
  5
EE
100
AcDbEntity
  8
0
  6
CONTINUOUS
 62
               7
100
AcDbCircle
 10
-459.79918857447421
 20
0.0
 30
0.0
 40
500.0
100
AcDbArc
 50
354.72831256478406
 51
356.56018723248479
  0
ARC
  5
EF
100
AcDbEntity
  8
0
  6
CONTINUOUS
 62
               7
100
AcDbCircle
 10
-459.79918857447421
 20
0.0
 30
0.0
 40
500.0
100
AcDbArc
 50
3.4398127675151682
 51
5.2716874352158634
  0
LINE
  5
F0
100
AcDbEntity
  8
0
  6
CONTINUOUS
 62
               7
100
AcDbLine
 10
4.0825486710735959
 20
-5.0000000000000426
 30
0.0
 11
0.7550479923236821
 21
-5.0000000000000426
 31
0.0
  0
LINE
  5
F1
100
AcDbEntity
  8
0
  6
CONTINUOUS
 62
               7
100
AcDbLine
 10
4.0051649343585041
 20
4.9999999999999574
 30
0.0
 11
0.7550479923236821
 21
4.9999999999999574
 31
0.0
  0
LINE
  5
F2
100
AcDbEntity
  8
0
  6
CONTINUOUS
 62
               7
100
AcDbLine
 10
5.0
 20
17.07106781186549
 30
0.0
 11
5.0
 21
-17.071067811865518
 31
0.0
  0
LINE
  5
F3
100
AcDbEntity
  8
0
  6
CONTINUOUS
 62
               7
100
AcDbLine
 10
17.799999964237259
 20
-17.071067811865518
 30
0.0
 11
5.0
 21
-17.071067811865518
 31
0.0
  0
LINE
  5
F4
100
AcDbEntity
  8
0
  6
CONTINUOUS
 62
               7
100
AcDbLine
 10
17.799999964237259
 20
17.07106781186549
 30
0.0
 11
5.0
 21
17.07106781186549
 31
0.0
  0
LINE
  5
F5
100
AcDbEntity
  8
0
  6
CONTINUOUS
 62
               7
100
AcDbLine
 10
39.299999964237259
 20
29.999999999999901
 30
0.0
 11
42.800000000000068
 21
24.999999999999901
 31
0.0
  0
LINE
  5
F6
100
AcDbEntity
  8
0
  6
CONTINUOUS
 62
               7
100
AcDbLine
 10
42.800000000000068
 20
-25.000000000000099
 30
0.0
 11
39.299999964237259
 21
-30.000000000000099
 31
0.0
  0
LINE
  5
F7
100
AcDbEntity
  8
0
  6
CONTINUOUS
 62
               7
100
AcDbLine
 10
34.094642857142958
 20
29.999999999999872
 30
0.0
 11
39.299999964237259
 21
29.999999999999901
 31
0.0
  0
LINE
  5
F8
100
AcDbEntity
  8
0
  6
CONTINUOUS
 62
               7
100
AcDbLine
 10
34.094642857142958
 20
-30.000000000000128
 30
0.0
 11
39.299999964237259
 21
-30.000000000000099
 31
0.0
  0
LINE
  5
F9
100
AcDbEntity
  8
0
  6
CONTINUOUS
 62
               7
100
AcDbLine
 10
42.800000000000068
 20
-25.000000000000099
 30
0.0
 11
42.800000000000068
 21
24.999999999999901
 31
0.0
  0
LINE
  5
FA
100
AcDbEntity
  8
0
  6
CONTINUOUS
 62
               7
100
AcDbLine
 10
17.799999964237259
 20
-50.500000000000099
 30
0.0
 11
18.299999964237259
 21
-50.500000000000099
 31
0.0
  0
LINE
  5
FB
100
AcDbEntity
  8
0
  6
CONTINUOUS
 62
               7
100
AcDbLine
 10
17.799999964237259
 20
50.499999999999901
 30
0.0
 11
18.299999964237259
 21
50.499999999999901
 31
0.0
  0
LINE
  5
FC
100
AcDbEntity
  8
0
  6
CONTINUOUS
 62
               7
100
AcDbLine
 10
18.299999964237259
 20
50.999999999999901
 30
0.0
 11
18.299999964237259
 21
-51.000000000000099
 31
0.0
  0
LINE
  5
FD
100
AcDbEntity
  8
0
  6
CONTINUOUS
 62
               7
100
AcDbLine
 10
17.799999964237259
 20
50.999999999999901
 30
0.0
 11
17.799999964237259
 21
-51.000000000000099
 31
0.0
  0
LINE
  5
FE
100
AcDbEntity
  8
0
  6
CONTINUOUS
 62
               7
100
AcDbLine
 10
0.0
 20
50.378410304295571
 30
0.0
 11
0.0
 21
-50.378410304295727
 31
0.0
  0
LINE
  5
FF
100
AcDbEntity
  8
0
  6
CONTINUOUS
 62
               7
100
AcDbLine
 10
42.800000000000068
 20
24.999999999999901
 30
0.0
 11
34.094642857142958
 21
24.999999999999872
 31
0.0
  0
LINE
  5
100
100
AcDbEntity
  8
0
  6
CONTINUOUS
 62
               7
100
AcDbLine
 10
42.800000000000068
 20
-25.000000000000099
 30
0.0
 11
34.094642857142958
 21
-25.000000000000128
 31
0.0
  0
LINE
  5
101
100
AcDbEntity
  8
0
  6
CONTINUOUS
 62
               7
100
AcDbLine
 10
17.799999964237259
 20
50.999999999999901
 30
0.0
 11
0.0
 21
50.378410304295571
 31
0.0
  0
LINE
  5
102
100
AcDbEntity
  8
0
  6
CONTINUOUS
 62
               7
100
AcDbLine
 10
18.299999964237259
 20
50.999999999999901
 30
0.0
 11
33.281568455708964
 21
50.476832100084394
 31
0.0
  0
LINE
  5
103
100
AcDbEntity
  8
0
  6
CONTINUOUS
 62
               7
100
AcDbLine
 10
18.299999964237259
 20
-51.000000000000099
 30
0.0
 11
33.281568455708907
 21
-50.476832100084593
 31
0.0
  0
LINE
  5
104
100
AcDbEntity
  8
0
  6
CONTINUOUS
 62
               7
100
AcDbLine
 10
17.799999964237259
 20
-51.000000000000099
 30
0.0
 11
0.0
 21
-50.378410304295734
 31
0.0
  0
LINE
  5
105
100
AcDbEntity
  8
0
  6
CONTINUOUS
 62
               2
100
AcDbLine
 10
-10.0
 20
0.0
 30
0.0
 11
50.0
 21
0.0
 31
0.0
  0
LINE
  5
106
100
AcDbEntity
  8
0
  6
CONTINUOUS
 62
               2
100
AcDbLine
 10
-4.0
 20
29.000000000000014
 30
0.0
 11
4.0
 21
29.000000000000014
 31
0.0
  0
LINE
  5
107
100
AcDbEntity
  8
0
  6
CONTINUOUS
 62
               2
100
AcDbLine
 10
4.0
 20
-12.999999999999986
 30
0.0
 11
-4.0
 21
-12.999999999999986
 31
0.0
  0
ENDBLK
  5
108
100
AcDbEntity
  8
0
100
AcDbBlockEnd
  0
BLOCK
  5
109
100
AcDbEntity
  8
0
100
AcDbBlockBegin
  2
MS_3
 70
               0
 10
0.0
 20
0.0
 30
0.0
  3
MS_3
  1

  0
LINE
  5
10A
100
AcDbEntity
  8
0
  6
CONTINUOUS
 62
               7
100
AcDbLine
 10
-4.0
 20
-17.071067811865476
 30
0.0
 11
-1.0
 21
-17.071067811865476
 31
0.0
  0
LINE
  5
10B
100
AcDbEntity
  8
0
  6
CONTINUOUS
 62
               7
100
AcDbLine
 10
-4.0
 20
17.071067811865532
 30
0.0
 11
-1.0
 21
17.071067811865532
 31
0.0
  0
LINE
  5
10C
100
AcDbEntity
  8
0
  6
CONTINUOUS
 62
               7
100
AcDbLine
 10
-17.799999964237202
 20
-51.000000000000057
 30
0.0
 11
0.0
 21
-50.378410304295691
 31
0.0
  0
LINE
  5
10D
100
AcDbEntity
  8
0
  6
CONTINUOUS
 62
               7
100
AcDbLine
 10
-18.299999964237202
 20
-51.000000000000057
 30
0.0
 11
-33.281568455708907
 21
-50.47683210008455
 31
0.0
  0
LINE
  5
10E
100
AcDbEntity
  8
0
  6
CONTINUOUS
 62
               7
100
AcDbLine
 10
-18.299999964237202
 20
50.999999999999943
 30
0.0
 11
-33.281568455708907
 21
50.476832100084437
 31
0.0
  0
LINE
  5
10F
100
AcDbEntity
  8
0
  6
CONTINUOUS
 62
               7
100
AcDbLine
 10
-17.799999964237202
 20
50.999999999999943
 30
0.0
 11
0.0
 21
50.378410304295613
 31
0.0
  0
LINE
  5
110
100
AcDbEntity
  8
0
  6
CONTINUOUS
 62
               7
100
AcDbLine
 10
-18.299999964237202
 20
-29.000000000000085
 30
0.0
 11
-18.299999964237202
 21
-51.000000000000057
 31
0.0
  0
ARC
  5
111
100
AcDbEntity
  8
0
  6
CONTINUOUS
 62
               7
100
AcDbCircle
 10
-22.799999964237202
 20
-26.500000000000085
 30
0.0
 40
2.5000000000000071
100
AcDbArc
 50
306.86989764584399
 51
53.130102354156186
  0
LINE
  5
112
100
AcDbEntity
  8
0
  6
CONTINUOUS
 62
               7
100
AcDbLine
 10
-17.799999964237202
 20
-28.500000000000085
 30
0.0
 11
-21.299999964237202
 21
-28.500000000000085
 31
0.0
  0
LINE
  5
113
100
AcDbEntity
  8
0
  6
CONTINUOUS
 62
               7
100
AcDbLine
 10
-17.799999964237202
 20
-24.500000000000085
 30
0.0
 11
-21.299999964237202
 21
-24.500000000000085
 31
0.0
  0
ARC
  5
114
100
AcDbEntity
  8
0
  6
CONTINUOUS
 62
               7
100
AcDbCircle
 10
-24.799999964237202
 20
-15.500000000000085
 30
0.0
 40
4.5
100
AcDbArc
 50
297.26604445073281
 51
62.733955549267193
  0
LINE
  5
115
100
AcDbEntity
  8
0
  6
CONTINUOUS
 62
               7
100
AcDbLine
 10
-18.299999964237202
 20
-20.000000000000085
 30
0.0
 11
-18.299999964237202
 21
-24.000000000000085
 31
0.0
  0
LINE
  5
116
100
AcDbEntity
  8
0
  6
CONTINUOUS
 62
               7
100
AcDbLine
 10
-17.799999964237202
 20
-19.500000000000085
 30
0.0
 11
-22.738447151428375
 21
-19.500000000000085
 31
0.0
  0
LINE
  5
117
100
AcDbEntity
  8
0
  6
CONTINUOUS
 62
               7
100
AcDbLine
 10
-17.799999964237202
 20
-11.500000000000085
 30
0.0
 11
-22.738447151428375
 21
-11.500000000000085
 31
0.0
  0
ARC
  5
118
100
AcDbEntity
  8
0
  6
CONTINUOUS
 62
               7
100
AcDbCircle
 10
-22.799999964237202
 20
-26.500000000000085
 30
0.0
 40
2.5000000000000071
100
AcDbArc
 50
90.0
 51
270.0
  0
ARC
  5
119
100
AcDbEntity
  8
0
  6
CONTINUOUS
 62
               7
100
AcDbCircle
 10
-24.799999964237202
 20
-15.500000000000085
 30
0.0
 40
4.5
100
AcDbArc
 50
90.0
 51
270.0
  0
LINE
  5
11A
100
AcDbEntity
  8
0
  6
CONTINUOUS
 62
               7
100
AcDbLine
 10
-18.299999964237202
 20
-29.000000000000085
 30
0.0
 11
-22.799999964237202
 21
-29.000000000000085
 31
0.0
  0
LINE
  5
11B
100
AcDbEntity
  8
0
  6
CONTINUOUS
 62
               7
100
AcDbLine
 10
-18.299999964237202
 20
-24.000000000000085
 30
0.0
 11
-22.799999964237202
 21
-24.000000000000085
 31
0.0
  0
LINE
  5
11C
100
AcDbEntity
  8
0
  6
CONTINUOUS
 62
               7
100
AcDbLine
 10
-18.299999964237202
 20
-20.000000000000085
 30
0.0
 11
-24.799999964237202
 21
-20.000000000000085
 31
0.0
  0
LINE
  5
11D
100
AcDbEntity
  8
0
  6
CONTINUOUS
 62
               7
100
AcDbLine
 10
-18.299999964237202
 20
-11.000000000000085
 30
0.0
 11
-24.799999964237202
 21
-11.000000000000085
 31
0.0
  0
LINE
  5
11E
100
AcDbEntity
  8
0
  6
CONTINUOUS
 62
               7
100
AcDbLine
 10
-42.800000000000068
 20
-25.000000000000057
 30
0.0
 11
-34.094642857142901
 21
-25.000000000000085
 31
0.0
  0
LINE
  5
11F
100
AcDbEntity
  8
0
  6
CONTINUOUS
 62
               7
100
AcDbLine
 10
-42.800000000000068
 20
24.999999999999943
 30
0.0
 11
-34.094642857142901
 21
24.999999999999915
 31
0.0
  0
LINE
  5
120
100
AcDbEntity
  8
0
  6
CONTINUOUS
 62
               7
100
AcDbLine
 10
0.0
 20
50.378410304295613
 30
0.0
 11
0.0
 21
-50.378410304295684
 31
0.0
  0
LINE
  5
121
100
AcDbEntity
  8
0
  6
CONTINUOUS
 62
               7
100
AcDbLine
 10
-17.799999964237202
 20
50.999999999999943
 30
0.0
 11
-17.799999964237202
 21
-51.000000000000057
 31
0.0
  0
LINE
  5
122
100
AcDbEntity
  8
0
  6
CONTINUOUS
 62
               7
100
AcDbLine
 10
-18.299999964237202
 20
50.999999999999943
 30
0.0
 11
-18.299999964237202
 21
-11.000000000000085
 31
0.0
  0
LINE
  5
123
100
AcDbEntity
  8
0
  6
CONTINUOUS
 62
               7
100
AcDbLine
 10
-17.799999964237202
 20
50.499999999999943
 30
0.0
 11
-18.299999964237202
 21
50.499999999999943
 31
0.0
  0
LINE
  5
124
100
AcDbEntity
  8
0
  6
CONTINUOUS
 62
               7
100
AcDbLine
 10
-17.799999964237202
 20
-50.500000000000057
 30
0.0
 11
-18.299999964237202
 21
-50.500000000000057
 31
0.0
  0
LINE
  5
125
100
AcDbEntity
  8
0
  6
CONTINUOUS
 62
               7
100
AcDbLine
 10
-42.800000000000068
 20
-25.000000000000057
 30
0.0
 11
-42.800000000000068
 21
24.999999999999943
 31
0.0
  0
LINE
  5
126
100
AcDbEntity
  8
0
  6
CONTINUOUS
 62
               7
100
AcDbLine
 10
-34.094642857142901
 20
-30.000000000000085
 30
0.0
 11
-39.299999964237259
 21
-30.000000000000057
 31
0.0
  0
LINE
  5
127
100
AcDbEntity
  8
0
  6
CONTINUOUS
 62
               7
100
AcDbLine
 10
-34.094642857142901
 20
29.999999999999915
 30
0.0
 11
-39.299999964237259
 21
29.999999999999943
 31
0.0
  0
LINE
  5
128
100
AcDbEntity
  8
0
  6
CONTINUOUS
 62
               7
100
AcDbLine
 10
-42.800000000000068
 20
-25.000000000000057
 30
0.0
 11
-39.299999964237259
 21
-30.000000000000057
 31
0.0
  0
LINE
  5
129
100
AcDbEntity
  8
0
  6
CONTINUOUS
 62
               7
100
AcDbLine
 10
-39.299999964237259
 20
29.999999999999943
 30
0.0
 11
-42.800000000000068
 21
24.999999999999943
 31
0.0
  0
LINE
  5
12A
100
AcDbEntity
  8
0
  6
CONTINUOUS
 62
               7
100
AcDbLine
 10
-17.799999964237202
 20
17.071067811865532
 30
0.0
 11
-5.0
 21
17.071067811865532
 31
0.0
  0
LINE
  5
12B
100
AcDbEntity
  8
0
  6
CONTINUOUS
 62
               7
100
AcDbLine
 10
-17.799999964237202
 20
-17.071067811865476
 30
0.0
 11
-5.0
 21
-17.071067811865476
 31
0.0
  0
LINE
  5
12C
100
AcDbEntity
  8
0
  6
CONTINUOUS
 62
               7
100
AcDbLine
 10
-5.0
 20
17.071067811865532
 30
0.0
 11
-5.0
 21
-17.071067811865476
 31
0.0
  0
LINE
  5
12D
100
AcDbEntity
  8
0
  6
CONTINUOUS
 62
               7
100
AcDbLine
 10
-4.0
 20
5.0
 30
0.0
 11
-0.6766589056031762
 21
5.0
 31
0.0
  0
LINE
  5
12E
100
AcDbEntity
  8
0
  6
CONTINUOUS
 62
               7
100
AcDbLine
 10
-4.0
 20
-5.0
 30
0.0
 11
-1.0
 21
-5.0
 31
0.0
  0
ARC
  5
12F
100
AcDbEntity
  8
0
  6
CONTINUOUS
 62
               7
100
AcDbCircle
 10
459.79918857447399
 20
0.0000000000000426
 30
0.0
 40
500.0
100
AcDbArc
 50
174.72831256478415
 51
176.56018723248482
  0
ARC
  5
130
100
AcDbEntity
  8
0
  6
CONTINUOUS
 62
               7
100
AcDbCircle
 10
459.79918857447399
 20
0.0000000000000426
 30
0.0
 40
500.0
100
AcDbArc
 50
183.43981276751524
 51
185.27168743521594
  0
ARC
  5
131
100
AcDbEntity
  8
0
  6
CONTINUOUS
 62
               7
100
AcDbCircle
 10
-33.107070972196425
 20
45.479877964988987
 30
0.0
 40
5.0
100
AcDbArc
 50
92.000000000000028
 51
174.72831256478449
  0
ARC
  5
132
100
AcDbEntity
  8
0
  6
CONTINUOUS
 62
               7
100
AcDbCircle
 10
-33.107070972196368
 20
-45.479877964989072
 30
0.0
 40
5.0
100
AcDbArc
 50
185.27168743521636
 51
267.99999999999994
  0
LINE
  5
133
100
AcDbEntity
  8
0
  6
CONTINUOUS
 62
               2
100
AcDbLine
 10
-50.0
 20
0.0
 30
0.0
 11
10.0
 21
0.0
 31
0.0
  0
LINE
  5
134
100
AcDbEntity
  8
0
  6
CONTINUOUS
 62
               2
100
AcDbLine
 10
-4.0
 20
29.000000000000014
 30
0.0
 11
4.0
 21
29.000000000000014
 31
0.0
  0
LINE
  5
135
100
AcDbEntity
  8
0
  6
CONTINUOUS
 62
               2
100
AcDbLine
 10
4.0
 20
-12.999999999999986
 30
0.0
 11
-4.0
 21
-12.999999999999986
 31
0.0
  0
ENDBLK
  5
136
100
AcDbEntity
  8
0
100
AcDbBlockEnd
  0
BLOCK
  5
137
100
AcDbEntity
  8
0
100
AcDbBlockBegin
  2
MS_4
 70
               0
 10
0.0
 20
0.0
 30
0.0
  3
MS_4
  1

  0
LINE
  5
138
100
AcDbEntity
  8
0
  6
CONTINUOUS
 62
               7
100
AcDbLine
 10
10.742750593533913
 20
-39.300000000000011
 30
0.0
 11
187.50684241702379
 21
-39.300000000000068
 31
0.0
  0
LINE
  5
139
100
AcDbEntity
  8
0
  6
CONTINUOUS
 62
               7
100
AcDbLine
 10
5.5000000000000568
 20
-17.800000000000011
 30
0.0
 11
5.5000000000000568
 21
-18.300000000000011
 31
0.0
  0
ARC
  5
13A
100
AcDbEntity
  8
0
  6
CONTINUOUS
 62
               7
100
AcDbCircle
 10
174.0
 20
-30.300000000000011
 30
0.0
 40
1.0
100
AcDbArc
 50
0.0
 51
180.0
  0
LINE
  5
13B
100
AcDbEntity
  8
0
  6
CONTINUOUS
 62
               7
100
AcDbLine
 10
175.0
 20
-30.300000000000011
 30
0.0
 11
175.0
 21
-39.300000000000068
 31
0.0
  0
LINE
  5
13C
100
AcDbEntity
  8
0
  6
CONTINUOUS
 62
               7
100
AcDbLine
 10
173.0
 20
-39.300000000000068
 30
0.0
 11
173.0
 21
-30.300000000000011
 31
0.0
  0
ARC
  5
13D
100
AcDbEntity
  8
0
  6
CONTINUOUS
 62
               7
100
AcDbCircle
 10
163.50000000000003
 20
-30.300000000000011
 30
0.0
 40
1.0
100
AcDbArc
 50
0.0
 51
180.0
  0
LINE
  5
13E
100
AcDbEntity
  8
0
  6
CONTINUOUS
 62
               7
100
AcDbLine
 10
164.5
 20
-30.300000000000011
 30
0.0
 11
164.5
 21
-39.300000000000068
 31
0.0
  0
LINE
  5
13F
100
AcDbEntity
  8
0
  6
CONTINUOUS
 62
               7
100
AcDbLine
 10
162.50000000000003
 20
-39.300000000000068
 30
0.0
 11
162.50000000000003
 21
-30.300000000000011
 31
0.0
  0
ARC
  5
140
100
AcDbEntity
  8
0
  6
CONTINUOUS
 62
               7
100
AcDbCircle
 10
153.00000000000003
 20
-30.300000000000011
 30
0.0
 40
1.0
100
AcDbArc
 50
0.0
 51
180.0
  0
LINE
  5
141
100
AcDbEntity
  8
0
  6
CONTINUOUS
 62
               7
100
AcDbLine
 10
154.00000000000003
 20
-30.300000000000011
 30
0.0
 11
154.00000000000003
 21
-39.300000000000011
 31
0.0
  0
LINE
  5
142
100
AcDbEntity
  8
0
  6
CONTINUOUS
 62
               7
100
AcDbLine
 10
152.00000000000003
 20
-39.300000000000011
 30
0.0
 11
152.00000000000003
 21
-30.300000000000011
 31
0.0
  0
ARC
  5
143
100
AcDbEntity
  8
0
  6
CONTINUOUS
 62
               7
100
AcDbCircle
 10
142.5
 20
-30.300000000000011
 30
0.0
 40
1.0
100
AcDbArc
 50
0.0
 51
180.0
  0
LINE
  5
144
100
AcDbEntity
  8
0
  6
CONTINUOUS
 62
               7
100
AcDbLine
 10
143.5
 20
-30.300000000000011
 30
0.0
 11
143.5
 21
-39.300000000000011
 31
0.0
  0
LINE
  5
145
100
AcDbEntity
  8
0
  6
CONTINUOUS
 62
               7
100
AcDbLine
 10
141.5
 20
-39.300000000000011
 30
0.0
 11
141.5
 21
-30.300000000000011
 31
0.0
  0
ARC
  5
146
100
AcDbEntity
  8
0
  6
CONTINUOUS
 62
               7
100
AcDbCircle
 10
132.0
 20
-30.300000000000011
 30
0.0
 40
1.0
100
AcDbArc
 50
0.0
 51
180.0
  0
LINE
  5
147
100
AcDbEntity
  8
0
  6
CONTINUOUS
 62
               7
100
AcDbLine
 10
133.0
 20
-30.300000000000011
 30
0.0
 11
133.0
 21
-39.300000000000011
 31
0.0
  0
LINE
  5
148
100
AcDbEntity
  8
0
  6
CONTINUOUS
 62
               7
100
AcDbLine
 10
131.0
 20
-39.300000000000011
 30
0.0
 11
131.0
 21
-30.300000000000011
 31
0.0
  0
ARC
  5
149
100
AcDbEntity
  8
0
  6
CONTINUOUS
 62
               7
100
AcDbCircle
 10
93.650000000000048
 20
-31.950000000000045
 30
0.0
 40
1.6499999999999986
100
AcDbArc
 50
0.0
 51
180.0
  0
LINE
  5
14A
100
AcDbEntity
  8
0
  6
CONTINUOUS
 62
               7
100
AcDbLine
 10
95.300000000000011
 20
-39.300000000000011
 30
0.0
 11
95.300000000000026
 21
-31.950000000000045
 31
0.0
  0
LINE
  5
14B
100
AcDbEntity
  8
0
  6
CONTINUOUS
 62
               7
100
AcDbLine
 10
92.0
 20
-39.300000000000011
 30
0.0
 11
92.000000000000014
 21
-31.950000000000045
 31
0.0
  0
ARC
  5
14C
100
AcDbEntity
  8
0
  6
CONTINUOUS
 62
               7
100
AcDbCircle
 10
82.650000000000034
 20
-31.950000000000045
 30
0.0
 40
1.6499999999999986
100
AcDbArc
 50
0.0
 51
180.0
  0
LINE
  5
14D
100
AcDbEntity
  8
0
  6
CONTINUOUS
 62
               7
100
AcDbLine
 10
84.300000000000011
 20
-39.300000000000011
 30
0.0
 11
84.300000000000011
 21
-31.950000000000045
 31
0.0
  0
LINE
  5
14E
100
AcDbEntity
  8
0
  6
CONTINUOUS
 62
               7
100
AcDbLine
 10
81.0
 20
-39.300000000000011
 30
0.0
 11
81.0
 21
-31.950000000000045
 31
0.0
  0
ARC
  5
14F
100
AcDbEntity
  8
0
  6
CONTINUOUS
 62
               7
100
AcDbCircle
 10
71.650000000000034
 20
-31.950000000000045
 30
0.0
 40
1.6499999999999986
100
AcDbArc
 50
0.0
 51
180.0
  0
LINE
  5
150
100
AcDbEntity
  8
0
  6
CONTINUOUS
 62
               7
100
AcDbLine
 10
73.300000000000011
 20
-39.300000000000011
 30
0.0
 11
73.300000000000011
 21
-31.950000000000045
 31
0.0
  0
LINE
  5
151
100
AcDbEntity
  8
0
  6
CONTINUOUS
 62
               7
100
AcDbLine
 10
70.0
 20
-39.300000000000011
 30
0.0
 11
70.0
 21
-31.950000000000045
 31
0.0
  0
ARC
  5
152
100
AcDbEntity
  8
0
  6
CONTINUOUS
 62
               7
100
AcDbCircle
 10
60.650000000000063
 20
-31.950000000000045
 30
0.0
 40
1.6499999999999986
100
AcDbArc
 50
0.0
 51
180.0
  0
LINE
  5
153
100
AcDbEntity
  8
0
  6
CONTINUOUS
 62
               7
100
AcDbLine
 10
62.30000000000004
 20
-39.300000000000011
 30
0.0
 11
62.30000000000004
 21
-31.950000000000045
 31
0.0
  0
LINE
  5
154
100
AcDbEntity
  8
0
  6
CONTINUOUS
 62
               7
100
AcDbLine
 10
59.000000000000028
 20
-39.300000000000011
 30
0.0
 11
59.000000000000028
 21
-31.950000000000045
 31
0.0
  0
ARC
  5
155
100
AcDbEntity
  8
0
  6
CONTINUOUS
 62
               7
100
AcDbCircle
 10
49.650000000000063
 20
-31.950000000000045
 30
0.0
 40
1.6499999999999986
100
AcDbArc
 50
0.0
 51
180.0
  0
LINE
  5
156
100
AcDbEntity
  8
0
  6
CONTINUOUS
 62
               7
100
AcDbLine
 10
51.30000000000004
 20
-39.300000000000011
 30
0.0
 11
51.30000000000004
 21
-31.950000000000045
 31
0.0
  0
LINE
  5
157
100
AcDbEntity
  8
0
  6
CONTINUOUS
 62
               7
100
AcDbLine
 10
48.000000000000028
 20
-39.300000000000011
 30
0.0
 11
48.000000000000028
 21
-31.950000000000045
 31
0.0
  0
ARC
  5
158
100
AcDbEntity
  8
0
  6
CONTINUOUS
 62
               7
100
AcDbCircle
 10
38.650000000000063
 20
-31.950000000000045
 30
0.0
 40
1.6499999999999986
100
AcDbArc
 50
0.0
 51
180.0
  0
LINE
  5
159
100
AcDbEntity
  8
0
  6
CONTINUOUS
 62
               7
100
AcDbLine
 10
40.30000000000004
 20
-39.300000000000011
 30
0.0
 11
40.30000000000004
 21
-31.950000000000045
 31
0.0
  0
LINE
  5
15A
100
AcDbEntity
  8
0
  6
CONTINUOUS
 62
               7
100
AcDbLine
 10
37.000000000000028
 20
-39.300000000000011
 30
0.0
 11
37.000000000000028
 21
-31.950000000000045
 31
0.0
  0
ARC
  5
15B
100
AcDbEntity
  8
0
  6
CONTINUOUS
 62
               7
100
AcDbCircle
 10
27.650000000000091
 20
-31.950000000000045
 30
0.0
 40
1.6499999999999986
100
AcDbArc
 50
0.0
 51
180.0
  0
LINE
  5
15C
100
AcDbEntity
  8
0
  6
CONTINUOUS
 62
               7
100
AcDbLine
 10
29.300000000000011
 20
-39.300000000000011
 30
0.0
 11
29.300000000000068
 21
-31.950000000000045
 31
0.0
  0
LINE
  5
15D
100
AcDbEntity
  8
0
  6
CONTINUOUS
 62
               7
100
AcDbLine
 10
26.0
 20
-39.300000000000011
 30
0.0
 11
26.000000000000057
 21
-31.950000000000045
 31
0.0
  0
LINE
  5
15E
100
AcDbEntity
  8
0
  6
CONTINUOUS
 62
               7
100
AcDbLine
 10
194.5
 20
-17.800000000000011
 30
0.0
 11
194.5
 21
-18.300000000000011
 31
0.0
  0
LINE
  5
15F
100
AcDbEntity
  8
0
  6
CONTINUOUS
 62
               7
100
AcDbLine
 10
15.512446600618659
 20
-42.800000000000011
 30
0.0
 11
184.48755339938145
 21
-42.800000000000068
 31
0.0
  0
LINE
  5
160
100
AcDbEntity
  8
0
  6
CONTINUOUS
 62
               7
100
AcDbLine
 10
195.0
 20
-18.300000000000011
 30
0.0
 11
5.0000000000000568
 21
-18.300000000000011
 31
0.0
  0
LINE
  5
161
100
AcDbEntity
  8
0
  6
CONTINUOUS
 62
               7
100
AcDbLine
 10
138.99999999999991
 20
-5.0
 30
0.0
 11
60.999999999999886
 21
-5.0
 31
0.0
  0
LINE
  5
162
100
AcDbEntity
  8
0
  6
CONTINUOUS
 62
               7
100
AcDbLine
 10
195.00000000000006
 20
-17.800000000000011
 30
0.0
 11
5.0000000000000568
 21
-17.800000000000011
 31
0.0
  0
LINE
  5
163
100
AcDbEntity
  8
0
  6
CONTINUOUS
 62
               7
100
AcDbLine
 10
139.99999999999991
 20
-4.0
 30
0.0
 11
139.99999999999991
 21
-1.0
 31
0.0
  0
ARC
  5
164
100
AcDbEntity
  8
0
  6
CONTINUOUS
 62
               7
100
AcDbCircle
 10
140.99999999999991
 20
-1.0
 30
0.0
 40
1.0
100
AcDbArc
 50
90.0
 51
180.0
  0
ARC
  5
165
100
AcDbEntity
  8
0
  6
CONTINUOUS
 62
               7
100
AcDbCircle
 10
138.99999999999991
 20
-4.0
 30
0.0
 40
1.0
100
AcDbArc
 50
270.0
 51
0.0
  0
LINE
  5
166
100
AcDbEntity
  8
0
  6
CONTINUOUS
 62
               7
100
AcDbLine
 10
5.0000000000000568
 20
-17.800000000000011
 30
0.0
 11
5.6215896969533219
 21
0.0
 31
0.0
  0
LINE
  5
167
100
AcDbEntity
  8
0
  6
CONTINUOUS
 62
               7
100
AcDbLine
 10
5.0000000000001137
 20
-18.300000000000239
 30
0.0
 11
5.5185383304276456
 21
-33.148994967025033
 31
0.0
  0
ARC
  5
168
100
AcDbEntity
  8
0
  6
CONTINUOUS
 62
               7
100
AcDbCircle
 10
15.512446600618659
 20
-32.800000000000011
 30
0.0
 40
10.0
100
AcDbArc
 50
181.99999999999991
 51
270.0
  0
LINE
  5
169
100
AcDbEntity
  8
0
  6
CONTINUOUS
 62
               7
100
AcDbLine
 10
195.00000000000006
 20
-17.800000000000011
 30
0.0
 11
194.37841030304682
 21
0.0
 31
0.0
  0
LINE
  5
16A
100
AcDbEntity
  8
0
  6
CONTINUOUS
 62
               7
100
AcDbLine
 10
195.0
 20
-18.300000000000239
 30
0.0
 11
194.48146166957247
 21
-33.148994967025033
 31
0.0
  0
ARC
  5
16B
100
AcDbEntity
  8
0
  6
CONTINUOUS
 62
               7
100
AcDbCircle
 10
187.50684241702379
 20
-32.300000000000011
 30
0.0
 40
7.0
100
AcDbArc
 50
270.0
 51
358.00000000000006
  0
ARC
  5
16C
100
AcDbEntity
  8
0
  6
CONTINUOUS
 62
               7
100
AcDbCircle
 10
184.48755339938145
 20
-32.800000000000011
 30
0.0
 40
10.0
100
AcDbArc
 50
270.0
 51
358.00000000000006
  0
LINE
  5
16D
100
AcDbEntity
  8
0
  6
CONTINUOUS
 62
               7
100
AcDbLine
 10
140.99999999999991
 20
0.0
 30
0.0
 11
204.79235091988414
 21
0.0
 31
0.0
  0
ARC
  5
16E
100
AcDbEntity
  8
0
  6
CONTINUOUS
 62
               7
100
AcDbCircle
 10
60.999999999999886
 20
-4.0
 30
0.0
 40
1.0
100
AcDbArc
 50
180.0
 51
270.0
  0
ARC
  5
16F
100
AcDbEntity
  8
0
  6
CONTINUOUS
 62
               7
100
AcDbCircle
 10
58.999999999999886
 20
-1.0
 30
0.0
 40
1.0
100
AcDbArc
 50
0.0
 51
90.0
  0
LINE
  5
170
100
AcDbEntity
  8
0
  6
CONTINUOUS
 62
               7
100
AcDbLine
 10
59.999999999999886
 20
-4.0
 30
0.0
 11
59.999999999999886
 21
-1.0
 31
0.0
  0
LINE
  5
171
100
AcDbEntity
  8
0
  6
CONTINUOUS
 62
               7
100
AcDbLine
 10
204.96695476734294
 20
-5.0
 30
0.0
 11
204.79235091988414
 21
0.0
 31
0.0
  0
LINE
  5
172
100
AcDbEntity
  8
0
  6
CONTINUOUS
 62
               7
100
AcDbLine
 10
204.96695476734294
 20
-5.0
 30
0.0
 11
194.55301415050559
 21
-5.0
 31
0.0
  0
LINE
  5
173
100
AcDbEntity
  8
0
  6
CONTINUOUS
 62
               7
100
AcDbLine
 10
58.999999999999886
 20
0.0
 30
0.0
 11
-4.3784103030467065
 21
0.0
 31
0.0
  0
LINE
  5
174
100
AcDbEntity
  8
0
  6
CONTINUOUS
 62
               7
100
AcDbLine
 10
-4.5530141505054758
 20
-5.0
 30
0.0
 11
5.4469858494945527
 21
-5.0
 31
0.0
  0
LINE
  5
175
100
AcDbEntity
  8
0
  6
CONTINUOUS
 62
               7
100
AcDbLine
 10
-4.5530141505054758
 20
-5.0
 30
0.0
 11
-4.3784103030467065
 21
0.0
 31
0.0
  0
ARC
  5
176
100
AcDbEntity
  8
0
  6
CONTINUOUS
 62
               7
100
AcDbCircle
 10
10.742750593533913
 20
-34.300000000000011
 30
0.0
 40
5.0
100
AcDbArc
 50
197.45760312372209
 51
270.0
  0
LINE
  5
177
100
AcDbEntity
  8
0
  6
CONTINUOUS
 62
               2
100
AcDbLine
 10
0.0
 20
-11.877002302926087
 30
0.0
 11
0.0
 21
6.2037195121951356
 31
0.0
  0
LINE
  5
178
100
AcDbEntity
  8
0
  6
CONTINUOUS
 62
               2
100
AcDbLine
 10
200.0
 20
-11.877002302926087
 30
0.0
 11
200.0
 21
6.2037195121951072
 31
0.0
  0
LINE
  5
179
100
AcDbEntity
  8
0
  6
CONTINUOUS
 62
               2
100
AcDbLine
 10
37.0
 20
4.0
 30
0.0
 11
37.0
 21
-4.0
 31
0.0
  0
LINE
  5
17A
100
AcDbEntity
  8
0
  6
CONTINUOUS
 62
               2
100
AcDbLine
 10
163.0
 20
4.0
 30
0.0
 11
163.0
 21
-4.0
 31
0.0
  0
ENDBLK
  5
17B
100
AcDbEntity
  8
0
100
AcDbBlockEnd
  0
BLOCK
  5
17C
100
AcDbEntity
  8
0
100
AcDbBlockBegin
  2
MS_5
 70
               0
 10
0.0
 20
0.0
 30
0.0
  3
MS_5
  1

  0
LINE
  5
17D
100
AcDbEntity
  8
0
  6
CONTINUOUS
 62
               7
100
AcDbLine
 10
-4.5530141505054758
 20
5.0
 30
0.0
 11
-4.3784103030467065
 21
0.0
 31
0.0
  0
LINE
  5
17E
100
AcDbEntity
  8
0
  6
CONTINUOUS
 62
               7
100
AcDbLine
 10
-4.5530141505054758
 20
5.0
 30
0.0
 11
5.4469858494945242
 21
5.0
 31
0.0
  0
LINE
  5
17F
100
AcDbEntity
  8
0
  6
CONTINUOUS
 62
               7
100
AcDbLine
 10
58.999999999999886
 20
0.0
 30
0.0
 11
-4.3784103030467065
 21
0.0
 31
0.0
  0
LINE
  5
180
100
AcDbEntity
  8
0
  6
CONTINUOUS
 62
               7
100
AcDbLine
 10
204.96695476734294
 20
5.0
 30
0.0
 11
194.55301415050559
 21
5.0
 31
0.0
  0
LINE
  5
181
100
AcDbEntity
  8
0
  6
CONTINUOUS
 62
               7
100
AcDbLine
 10
204.96695476734294
 20
5.0
 30
0.0
 11
204.79235091988414
 21
0.0
 31
0.0
  0
LINE
  5
182
100
AcDbEntity
  8
0
  6
CONTINUOUS
 62
               7
100
AcDbLine
 10
59.999999999999886
 20
4.0
 30
0.0
 11
59.999999999999886
 21
1.0
 31
0.0
  0
ARC
  5
183
100
AcDbEntity
  8
0
  6
CONTINUOUS
 62
               7
100
AcDbCircle
 10
58.999999999999886
 20
1.0
 30
0.0
 40
1.0
100
AcDbArc
 50
270.0
 51
0.0
  0
ARC
  5
184
100
AcDbEntity
  8
0
  6
CONTINUOUS
 62
               7
100
AcDbCircle
 10
60.999999999999886
 20
4.0
 30
0.0
 40
1.0
100
AcDbArc
 50
90.0
 51
180.0
  0
LINE
  5
185
100
AcDbEntity
  8
0
  6
CONTINUOUS
 62
               7
100
AcDbLine
 10
140.99999999999991
 20
0.0
 30
0.0
 11
204.79235091988414
 21
0.0
 31
0.0
  0
ARC
  5
186
100
AcDbEntity
  8
0
  6
CONTINUOUS
 62
               7
100
AcDbCircle
 10
184.48755339938145
 20
32.800000000000011
 30
0.0
 40
10.0
100
AcDbArc
 50
1.9999999999999265
 51
90.0
  0
LINE
  5
187
100
AcDbEntity
  8
0
  6
CONTINUOUS
 62
               7
100
AcDbLine
 10
195.0
 20
18.300000000000239
 30
0.0
 11
194.48146166957247
 21
33.148994967025033
 31
0.0
  0
LINE
  5
188
100
AcDbEntity
  8
0
  6
CONTINUOUS
 62
               7
100
AcDbLine
 10
195.00000000000006
 20
17.800000000000011
 30
0.0
 11
194.37841030304682
 21
0.0
 31
0.0
  0
ARC
  5
189
100
AcDbEntity
  8
0
  6
CONTINUOUS
 62
               7
100
AcDbCircle
 10
15.512446600618659
 20
32.800000000000011
 30
0.0
 40
10.0
100
AcDbArc
 50
90.0
 51
178.00000000000009
  0
LINE
  5
18A
100
AcDbEntity
  8
0
  6
CONTINUOUS
 62
               7
100
AcDbLine
 10
5.0000000000001137
 20
18.300000000000239
 30
0.0
 11
5.5185383304276456
 21
33.148994967025033
 31
0.0
  0
LINE
  5
18B
100
AcDbEntity
  8
0
  6
CONTINUOUS
 62
               7
100
AcDbLine
 10
5.0000000000000568
 20
17.800000000000011
 30
0.0
 11
5.6215896969532935
 21
0.0
 31
0.0
  0
ARC
  5
18C
100
AcDbEntity
  8
0
  6
CONTINUOUS
 62
               7
100
AcDbCircle
 10
138.99999999999991
 20
4.0
 30
0.0
 40
1.0
100
AcDbArc
 50
0.0
 51
90.0
  0
ARC
  5
18D
100
AcDbEntity
  8
0
  6
CONTINUOUS
 62
               7
100
AcDbCircle
 10
140.99999999999991
 20
1.0
 30
0.0
 40
1.0
100
AcDbArc
 50
180.0
 51
270.0
  0
LINE
  5
18E
100
AcDbEntity
  8
0
  6
CONTINUOUS
 62
               7
100
AcDbLine
 10
139.99999999999991
 20
4.0
 30
0.0
 11
139.99999999999991
 21
1.0
 31
0.0
  0
LINE
  5
18F
100
AcDbEntity
  8
0
  6
CONTINUOUS
 62
               7
100
AcDbLine
 10
195.00000000000006
 20
17.800000000000011
 30
0.0
 11
5.0000000000000568
 21
17.800000000000011
 31
0.0
  0
LINE
  5
190
100
AcDbEntity
  8
0
  6
CONTINUOUS
 62
               7
100
AcDbLine
 10
138.99999999999991
 20
5.0
 30
0.0
 11
60.999999999999886
 21
5.0
 31
0.0
  0
LINE
  5
191
100
AcDbEntity
  8
0
  6
CONTINUOUS
 62
               7
100
AcDbLine
 10
195.0
 20
18.300000000000011
 30
0.0
 11
182.99999999999994
 21
18.300000000000011
 31
0.0
  0
LINE
  5
192
100
AcDbEntity
  8
0
  6
CONTINUOUS
 62
               7
100
AcDbLine
 10
15.512446600618659
 20
42.800000000000011
 30
0.0
 11
184.48755339938145
 21
42.800000000000068
 31
0.0
  0
LINE
  5
193
100
AcDbEntity
  8
0
  6
CONTINUOUS
 62
               7
100
AcDbLine
 10
194.5
 20
17.800000000000011
 30
0.0
 11
194.5
 21
18.300000000000011
 31
0.0
  0
LINE
  5
194
100
AcDbEntity
  8
0
  6
CONTINUOUS
 62
               7
100
AcDbLine
 10
26.0
 20
39.300000000000011
 30
0.0
 11
26.000000000000057
 21
31.950000000000045
 31
0.0
  0
LINE
  5
195
100
AcDbEntity
  8
0
  6
CONTINUOUS
 62
               7
100
AcDbLine
 10
29.300000000000011
 20
39.300000000000011
 30
0.0
 11
29.300000000000068
 21
31.950000000000045
 31
0.0
  0
ARC
  5
196
100
AcDbEntity
  8
0
  6
CONTINUOUS
 62
               7
100
AcDbCircle
 10
27.650000000000091
 20
31.950000000000045
 30
0.0
 40
1.6499999999999986
100
AcDbArc
 50
180.0
 51
0.0
  0
LINE
  5
197
100
AcDbEntity
  8
0
  6
CONTINUOUS
 62
               7
100
AcDbLine
 10
37.000000000000028
 20
39.300000000000011
 30
0.0
 11
37.000000000000028
 21
31.950000000000045
 31
0.0
  0
LINE
  5
198
100
AcDbEntity
  8
0
  6
CONTINUOUS
 62
               7
100
AcDbLine
 10
40.30000000000004
 20
39.300000000000011
 30
0.0
 11
40.30000000000004
 21
31.950000000000045
 31
0.0
  0
ARC
  5
199
100
AcDbEntity
  8
0
  6
CONTINUOUS
 62
               7
100
AcDbCircle
 10
38.650000000000063
 20
31.950000000000045
 30
0.0
 40
1.6499999999999986
100
AcDbArc
 50
180.0
 51
0.0
  0
LINE
  5
19A
100
AcDbEntity
  8
0
  6
CONTINUOUS
 62
               7
100
AcDbLine
 10
48.000000000000028
 20
39.300000000000011
 30
0.0
 11
48.000000000000028
 21
31.950000000000045
 31
0.0
  0
LINE
  5
19B
100
AcDbEntity
  8
0
  6
CONTINUOUS
 62
               7
100
AcDbLine
 10
51.30000000000004
 20
39.300000000000011
 30
0.0
 11
51.30000000000004
 21
31.950000000000045
 31
0.0
  0
ARC
  5
19C
100
AcDbEntity
  8
0
  6
CONTINUOUS
 62
               7
100
AcDbCircle
 10
49.650000000000063
 20
31.950000000000045
 30
0.0
 40
1.6499999999999986
100
AcDbArc
 50
180.0
 51
0.0
  0
LINE
  5
19D
100
AcDbEntity
  8
0
  6
CONTINUOUS
 62
               7
100
AcDbLine
 10
59.000000000000028
 20
39.300000000000011
 30
0.0
 11
59.000000000000028
 21
31.950000000000045
 31
0.0
  0
LINE
  5
19E
100
AcDbEntity
  8
0
  6
CONTINUOUS
 62
               7
100
AcDbLine
 10
62.30000000000004
 20
39.300000000000011
 30
0.0
 11
62.30000000000004
 21
31.950000000000045
 31
0.0
  0
ARC
  5
19F
100
AcDbEntity
  8
0
  6
CONTINUOUS
 62
               7
100
AcDbCircle
 10
60.650000000000063
 20
31.950000000000045
 30
0.0
 40
1.6499999999999986
100
AcDbArc
 50
180.0
 51
0.0
  0
LINE
  5
1A0
100
AcDbEntity
  8
0
  6
CONTINUOUS
 62
               7
100
AcDbLine
 10
70.0
 20
39.300000000000011
 30
0.0
 11
70.0
 21
31.950000000000045
 31
0.0
  0
LINE
  5
1A1
100
AcDbEntity
  8
0
  6
CONTINUOUS
 62
               7
100
AcDbLine
 10
73.300000000000011
 20
39.300000000000011
 30
0.0
 11
73.300000000000011
 21
31.950000000000045
 31
0.0
  0
ARC
  5
1A2
100
AcDbEntity
  8
0
  6
CONTINUOUS
 62
               7
100
AcDbCircle
 10
71.650000000000034
 20
31.950000000000045
 30
0.0
 40
1.6499999999999986
100
AcDbArc
 50
180.0
 51
0.0
  0
LINE
  5
1A3
100
AcDbEntity
  8
0
  6
CONTINUOUS
 62
               7
100
AcDbLine
 10
81.0
 20
39.300000000000011
 30
0.0
 11
81.0
 21
31.950000000000045
 31
0.0
  0
LINE
  5
1A4
100
AcDbEntity
  8
0
  6
CONTINUOUS
 62
               7
100
AcDbLine
 10
84.300000000000011
 20
39.300000000000011
 30
0.0
 11
84.300000000000011
 21
31.950000000000045
 31
0.0
  0
ARC
  5
1A5
100
AcDbEntity
  8
0
  6
CONTINUOUS
 62
               7
100
AcDbCircle
 10
82.650000000000034
 20
31.950000000000045
 30
0.0
 40
1.6499999999999986
100
AcDbArc
 50
180.0
 51
0.0
  0
LINE
  5
1A6
100
AcDbEntity
  8
0
  6
CONTINUOUS
 62
               7
100
AcDbLine
 10
92.0
 20
39.300000000000011
 30
0.0
 11
92.000000000000014
 21
31.950000000000045
 31
0.0
  0
LINE
  5
1A7
100
AcDbEntity
  8
0
  6
CONTINUOUS
 62
               7
100
AcDbLine
 10
95.300000000000011
 20
39.300000000000011
 30
0.0
 11
95.300000000000026
 21
31.950000000000045
 31
0.0
  0
ARC
  5
1A8
100
AcDbEntity
  8
0
  6
CONTINUOUS
 62
               7
100
AcDbCircle
 10
93.650000000000048
 20
31.950000000000045
 30
0.0
 40
1.6499999999999986
100
AcDbArc
 50
180.0
 51
0.0
  0
LINE
  5
1A9
100
AcDbEntity
  8
0
  6
CONTINUOUS
 62
               7
100
AcDbLine
 10
5.5000000000000568
 20
17.800000000000011
 30
0.0
 11
5.5000000000000568
 21
18.300000000000011
 31
0.0
  0
LINE
  5
1AA
100
AcDbEntity
  8
0
  6
CONTINUOUS
 62
               7
100
AcDbLine
 10
10.742750593533941
 20
39.300000000000011
 30
0.0
 11
189.25724940646617
 21
39.300000000000068
 31
0.0
  0
LINE
  5
1AB
100
AcDbEntity
  8
0
  6
CONTINUOUS
 62
               7
100
AcDbLine
 10
155.39999999999992
 20
32.900000000000063
 30
0.0
 11
155.39999999999992
 21
18.30000000000004
 31
0.0
  0
LINE
  5
1AC
100
AcDbEntity
  8
0
  6
CONTINUOUS
 62
               7
100
AcDbLine
 10
170.69999999999987
 20
32.900000000000063
 30
0.0
 11
170.69999999999987
 21
18.30000000000004
 31
0.0
  0
LINE
  5
1AD
100
AcDbEntity
  8
0
  6
CONTINUOUS
 62
               7
100
AcDbLine
 10
173.99999999999994
 20
26.80000000000004
 30
0.0
 11
173.99999999999994
 21
18.30000000000004
 31
0.0
  0
LINE
  5
1AE
100
AcDbEntity
  8
0
  6
CONTINUOUS
 62
               7
100
AcDbLine
 10
182.99999999999994
 20
26.80000000000004
 30
0.0
 11
182.99999999999994
 21
18.30000000000004
 31
0.0
  0
ARC
  5
1AF
100
AcDbEntity
  8
0
  6
CONTINUOUS
 62
               7
100
AcDbCircle
 10
178.49999999999994
 20
26.80000000000004
 30
0.0
 40
4.5
100
AcDbArc
 50
0.0
 51
180.0
  0
LINE
  5
1B0
100
AcDbEntity
  8
0
  6
CONTINUOUS
 62
               7
100
AcDbLine
 10
182.49999999999994
 20
24.738447187191213
 30
0.0
 11
182.49999999999994
 21
19.80000000000004
 31
0.0
  0
LINE
  5
1B1
100
AcDbEntity
  8
0
  6
CONTINUOUS
 62
               7
100
AcDbLine
 10
174.49999999999994
 20
19.80000000000004
 30
0.0
 11
174.49999999999994
 21
24.738447187191213
 31
0.0
  0
ARC
  5
1B2
100
AcDbEntity
  8
0
  6
CONTINUOUS
 62
               7
100
AcDbCircle
 10
178.49999999999994
 20
26.80000000000004
 30
0.0
 40
4.5
100
AcDbArc
 50
207.26604445073286
 51
332.73395554926725
  0
LINE
  5
1B3
100
AcDbEntity
  8
0
  6
CONTINUOUS
 62
               7
100
AcDbLine
 10
182.99999999999994
 20
19.80000000000004
 30
0.0
 11
182.49999999999994
 21
19.80000000000004
 31
0.0
  0
LINE
  5
1B4
100
AcDbEntity
  8
0
  6
CONTINUOUS
 62
               7
100
AcDbLine
 10
173.99999999999994
 20
19.80000000000004
 30
0.0
 11
174.49999999999994
 21
19.80000000000004
 31
0.0
  0
LINE
  5
1B5
100
AcDbEntity
  8
0
  6
CONTINUOUS
 62
               7
100
AcDbLine
 10
170.69999999999987
 20
32.900000000000063
 30
0.0
 11
155.39999999999992
 21
32.900000000000063
 31
0.0
  0
LINE
  5
1B6
100
AcDbEntity
  8
0
  6
CONTINUOUS
 62
               7
100
AcDbLine
 10
170.19999999999987
 20
21.30000000000004
 30
0.0
 11
170.19999999999987
 21
19.80000000000004
 31
0.0
  0
LINE
  5
1B7
100
AcDbEntity
  8
0
  6
CONTINUOUS
 62
               7
100
AcDbLine
 10
155.89999999999992
 20
21.30000000000004
 30
0.0
 11
155.89999999999992
 21
19.80000000000004
 31
0.0
  0
LINE
  5
1B8
100
AcDbEntity
  8
0
  6
CONTINUOUS
 62
               7
100
AcDbLine
 10
170.19999999999987
 20
21.30000000000004
 30
0.0
 11
155.89999999999992
 21
21.30000000000004
 31
0.0
  0
LINE
  5
1B9
100
AcDbEntity
  8
0
  6
CONTINUOUS
 62
               7
100
AcDbLine
 10
170.69999999999987
 20
19.80000000000004
 30
0.0
 11
170.19999999999987
 21
19.80000000000004
 31
0.0
  0
LINE
  5
1BA
100
AcDbEntity
  8
0
  6
CONTINUOUS
 62
               7
100
AcDbLine
 10
155.89999999999992
 20
19.80000000000004
 30
0.0
 11
155.39999999999992
 21
19.80000000000004
 31
0.0
  0
LINE
  5
1BB
100
AcDbEntity
  8
0
  6
CONTINUOUS
 62
               7
100
AcDbLine
 10
155.39999999999992
 20
18.300000000000011
 30
0.0
 11
5.0000000000000568
 21
18.300000000000011
 31
0.0
  0
LINE
  5
1BC
100
AcDbEntity
  8
0
  6
CONTINUOUS
 62
               7
100
AcDbLine
 10
173.99999999999994
 20
18.300000000000011
 30
0.0
 11
170.69999999999987
 21
18.300000000000011
 31
0.0
  0
ARC
  5
1BD
100
AcDbEntity
  8
0
  6
CONTINUOUS
 62
               7
100
AcDbCircle
 10
10.742750593533941
 20
34.300000000000011
 30
0.0
 40
5.0
100
AcDbArc
 50
90.0
 51
162.54239687627791
  0
ARC
  5
1BE
100
AcDbEntity
  8
0
  6
CONTINUOUS
 62
               7
100
AcDbCircle
 10
189.25724940646617
 20
34.300000000000068
 30
0.0
 40
5.0
100
AcDbArc
 50
17.457603123722709
 51
90.0
  0
LINE
  5
1BF
100
AcDbEntity
  8
0
  6
CONTINUOUS
 62
               2
100
AcDbLine
 10
163.0
 20
4.0
 30
0.0
 11
163.0
 21
-4.0
 31
0.0
  0
LINE
  5
1C0
100
AcDbEntity
  8
0
  6
CONTINUOUS
 62
               2
100
AcDbLine
 10
37.0
 20
4.0
 30
0.0
 11
37.0
 21
-4.0
 31
0.0
  0
LINE
  5
1C1
100
AcDbEntity
  8
0
  6
CONTINUOUS
 62
               2
100
AcDbLine
 10
200.0
 20
-5.5844413273162559
 30
0.0
 11
200.0
 21
12.496280487804938
 31
0.0
  0
LINE
  5
1C2
100
AcDbEntity
  8
0
  6
CONTINUOUS
 62
               2
100
AcDbLine
 10
0.0
 20
-5.5844413273162559
 30
0.0
 11
0.0
 21
12.496280487804967
 31
0.0
  0
ENDBLK
  5
1C3
100
AcDbEntity
  8
0
100
AcDbBlockEnd
  0
BLOCK
  5
24
100
AcDbEntity
  8
0
  6
ByBlock
 62
               0
100
AcDbBlockBegin
  2
_OPEN30
 70
               2
 10
0.0
 20
0.0
 30
0.0
  3
_OPEN30
  1

  0
LINE
  5
25
100
AcDbEntity
  8
0
  6
ByBlock
 62
               0
100
AcDbLine
 10
-1.0
 20
0.267949
 30
0.0
 11
0.0
 21
0.0
 31
0.0
  0
LINE
  5
26
100
AcDbEntity
  8
0
  6
ByBlock
 62
               0
100
AcDbLine
 10
0.0
 20
0.0
 30
0.0
 11
-1.0
 21
-0.267949
 31
0.0
  0
LINE
  5
27
100
AcDbEntity
  8
0
  6
ByBlock
 62
               0
100
AcDbLine
 10
0.0
 20
0.0
 30
0.0
 11
-1.0
 21
0.0
 31
0.0
  0
ENDBLK
  5
28
100
AcDbEntity
  8
0
  6
ByBlock
 62
               0
100
AcDbBlockEnd
  0
ENDSEC
  0
SECTION
  2
ENTITIES
  0
INSERT
  5
1C4
100
AcDbEntity
  8
0
  6
ByBlock
100
AcDbBlockReference
  2
MS_5
 10
-110.0
 20
-140.0
 30
0.0
  0
INSERT
  5
1C5
100
AcDbEntity
  8
0
  6
ByBlock
100
AcDbBlockReference
  2
MS_4
 10
-110.0
 20
200.0
 30
0.0
  0
INSERT
  5
1C6
100
AcDbEntity
  8
0
  6
ByBlock
100
AcDbBlockReference
  2
MS_3
 10
250.0
 20
30.0
 30
0.0
  0
INSERT
  5
1C7
100
AcDbEntity
  8
0
  6
ByBlock
100
AcDbBlockReference
  2
MS_2
 10
-270.0
 20
30.000000000000014
 30
0.0
  0
INSERT
  5
1C8
100
AcDbEntity
  8
0
  6
ByBlock
100
AcDbBlockReference
  2
MS_1
 10
-110.0
 20
30.0
 30
0.0
  0
MTEXT
  5
1C9
100
AcDbEntity
  8
0
  6
CONTINUOUS
 62
               7
100
AcDbMText
 10
-362.94595497532896
 20
257.75
 30
0.0
 40
9.0
 41
0.0
 71
               4
 72
               1
  1
\W1.053;\A1;DTY-CMH-01
  0
MTEXT
  5
1CA
100
AcDbEntity
  8
0
  6
CONTINUOUS
 62
               7
100
AcDbMText
 10
-382.4069248167437
 20
231.5
 30
0.0
 40
9.0
 41
0.0
 71
               4
 72
               1
  1
\W1.079;\A1;MODEL:DTY-CMH-01
  0
LINE
  5
1CB
100
AcDbEntity
  8
0
  6
CONTINUOUS
 62
               7
100
AcDbLine
 10
-239.52490234375
 20
251.5
 30
0.0
 11
-239.52490234375
 21
276.5
 31
0.0
  0
LINE
  5
1CC
100
AcDbEntity
  8
0
  6
CONTINUOUS
 62
               7
100
AcDbLine
 10
-239.52490234375
 20
251.5
 30
0.0
 11
-399.52490234375
 21
251.5
 31
0.0
  0
MTEXT
  5
1CD
100
AcDbEntity
  8
0
  6
CONTINUOUS
 62
               7
100
AcDbMText
 10
-362.90619731124934
 20
270.25
 30
0.0
 40
9.0
 41
0.0
 71
               4
 72
               1
  1
\W1.079;\A1;CC MONITOR
  0
LINE
  5
1CE
100
AcDbEntity
  8
0
  6
CONTINUOUS
 62
               7
100
AcDbLine
 10
239.52490234375
 20
-251.5
 30
0.0
 11
239.52490234375
 21
-276.5
 31
0.0
  0
LINE
  5
1CF
100
AcDbEntity
  8
0
  6
CONTINUOUS
 62
               7
100
AcDbLine
 10
239.52490234375
 20
-251.5
 30
0.0
 11
399.52490234375
 21
-251.5
 31
0.0
  0
MTEXT
  5
1D0
100
AcDbEntity
  8
0
  6
CONTINUOUS
 62
               7
100
AcDbMText
 10
245.60966041118564
 20
-264.0
 30
0.0
 40
12.5
 41
0.0
 71
               4
 72
               1
  1
\W1.121;\A1;KOGANEI CORP.
  0
LINE
  5
1D1
100
AcDbEntity
  8
0
  6
CONTINUOUS
 62
               7
100
AcDbLine
 10
239.52490234375
 20
251.5
 30
0.0
 11
239.52490234375
 21
276.5
 31
0.0
  0
LINE
  5
1D2
100
AcDbEntity
  8
0
  6
CONTINUOUS
 62
               7
100
AcDbLine
 10
239.52490234375
 20
251.5
 30
0.0
 11
399.52490234375
 21
251.5
 31
0.0
  0
MTEXT
  5
1D3
100
AcDbEntity
  8
0
  6
CONTINUOUS
 62
               7
100
AcDbMText
 10
285.49211543928197
 20
264.0
 30
0.0
 40
9.0
 41
0.0
 71
               4
 72
               1
  1
\W1.311;\A1;Ver. 1.0
  0
LINE
  5
1D4
100
AcDbEntity
  8
0
  6
CONTINUOUS
 62
               7
100
AcDbLine
 10
-399.52490234375
 20
-276.5
 30
0.0
 11
399.52490234375
 21
-276.5
 31
0.0
  0
LINE
  5
1D5
100
AcDbEntity
  8
0
  6
CONTINUOUS
 62
               7
100
AcDbLine
 10
-399.52490234375
 20
276.5
 30
0.0
 11
399.52490234375
 21
276.5
 31
0.0
  0
LINE
  5
1D6
100
AcDbEntity
  8
0
  6
CONTINUOUS
 62
               7
100
AcDbLine
 10
-399.52490234375
 20
276.5
 30
0.0
 11
-399.52490234375
 21
-276.5
 31
0.0
  0
LINE
  5
1D7
100
AcDbEntity
  8
0
  6
CONTINUOUS
 62
               7
100
AcDbLine
 10
399.52490234375
 20
276.5
 30
0.0
 11
399.52490234375
 21
-276.5
 31
0.0
  0
ENDSEC
  0
SECTION
  2
OBJECTS
  0
DICTIONARY
  5
19
100
AcDbDictionary
  3
ACAD_GROUP
350
1A
  3
ACAD_MLINESTYLE
350
1B
  0
DICTIONARY
  5
1A
102
{ACAD_REACTORS
330
19
102
}
100
AcDbDictionary
  0
DICTIONARY
  5
1B
102
{ACAD_REACTORS
330
19
102
}
100
AcDbDictionary
  3
STANDARD
350
1C
  0
MLINESTYLE
  5
1C
102
{ACAD_REACTORS
330
1B
102
}
100
AcDbMlineStyle
  2
Standard
 70
               0
  3

 62
               0
 51
90.0
 52
90.0
 71
               2
 49
0.5
 62
             256
  6
ByLayer
 49
-0.5
 62
             256
  6
ByLayer
  0
ENDSEC
  0
EOF
