  0
SECTION
  2
HEADER
  9
$ACADVER
  1
AC1012
  9
$DWGCODEPAGE
  3
dos932
  9
$INSBASE
 10
0.0
 20
0.0
 30
0.0
  9
$EXTMIN
 10
-194.25
 20
-133.5
 30
0.0
  9
$EXTMAX
 10
196.24998569488525
 20
132.60000610351562
 30
0.0
  9
$LIMMIN
 10
-210.0
 20
-148.5
  9
$LIMMAX
 10
210.0
 20
148.5
  9
$ORTHOMODE
 70
               0
  9
$REGENMODE
 70
               1
  9
$FILLMODE
 70
               1
  9
$QTEXTMODE
 70
               0
  9
$MIRRTEXT
 70
               1
  9
$DRAGMODE
 70
               2
  9
$LTSCALE
 40
1.0
  9
$OSMODE
 70
               0
  9
$ATTMODE
 70
               1
  9
$TEXTSIZE
 40
3.2000000476837158
  9
$TRACEWID
 40
0.05
  9
$TEXTSTYLE
  7
MX_NOTE_STANDARD
  9
$CLAYER
  8
0
  9
$CELTYPE
  6
CONTINUOUS
  9
$CECOLOR
 62
             256
  9
$CELTSCALE
 40
1.0
  9
$DELOBJ
 70
               1
  9
$DISPSILH
 70
               0
  9
$DIMSCALE
 40
1.0
  9
$DIMASZ
 40
2.5
  9
$DIMEXO
 40
1.5
  9
$DIMDLI
 40
3.75
  9
$DIMRND
 40
0.0
  9
$DIMDLE
 40
0.0
  9
$DIMEXE
 40
1.5
  9
$DIMTP
 40
0.0
  9
$DIMTM
 40
0.0
  9
$DIMTXT
 40
3.2000000476837158
  9
$DIMCEN
 40
2.5
  9
$DIMTSZ
 40
0.0
  9
$DIMTOL
 70
               0
  9
$DIMLIM
 70
               0
  9
$DIMTIH
 70
               0
  9
$DIMTOH
 70
               0
  9
$DIMSE1
 70
               0
  9
$DIMSE2
 70
               0
  9
$DIMTAD
 70
               1
  9
$DIMZIN
 70
               8
  9
$DIMBLK
  1

  9
$DIMASO
 70
               1
  9
$DIMSHO
 70
               1
  9
$DIMPOST
  1

  9
$DIMAPOST
  1

  9
$DIMALT
 70
               0
  9
$DIMALTD
 70
               4
  9
$DIMALTF
 40
0.03937007874016
  9
$DIMLFAC
 40
1.0
  9
$DIMTOFL
 70
               1
  9
$DIMTVP
 40
0.0
  9
$DIMTIX
 70
               0
  9
$DIMSOXD
 70
               0
  9
$DIMSAH
 70
               1
  9
$DIMBLK1
  1
_OPEN30
  9
$DIMBLK2
  1
_OPEN30
  9
$DIMSTYLE
  2
MXDIMSTYLE
  9
$DIMCLRD
 70
               0
  9
$DIMCLRE
 70
               0
  9
$DIMCLRT
 70
               0
  9
$DIMTFAC
 40
1.0
  9
$DIMGAP
 40
1.0
  9
$DIMJUST
 70
               0
  9
$DIMSD1
 70
               0
  9
$DIMSD2
 70
               0
  9
$DIMTOLJ
 70
               0
  9
$DIMTZIN
 70
               0
  9
$DIMALTZ
 70
               0
  9
$DIMALTTZ
 70
               0
  9
$DIMFIT
 70
               3
  9
$DIMUPT
 70
               1
  9
$DIMUNIT
 70
               2
  9
$DIMDEC
 70
               2
  9
$DIMTDEC
 70
               2
  9
$DIMALTU
 70
               2
  9
$DIMALTTD
 70
               4
  9
$DIMTXSTY
  7
MX_NOTE_STANDARD
  9
$DIMAUNIT
 70
               0
  9
$LUNITS
 70
               2
  9
$LUPREC
 70
               4
  9
$SKETCHINC
 40
0.1
  9
$FILLETRAD
 40
0.0
  9
$AUNITS
 70
               0
  9
$AUPREC
 70
               0
  9
$MENU
  1
acad
  9
$ELEVATION
 40
0.0
  9
$PELEVATION
 40
0.0
  9
$THICKNESS
 40
0.0
  9
$LIMCHECK
 70
               0
  9
$BLIPMODE
 70
               1
  9
$CHAMFERA
 40
0.0
  9
$CHAMFERB
 40
0.0
  9
$CHAMFERC
 40
0.0
  9
$CHAMFERD
 40
0.0
  9
$SKPOLY
 70
               0
  9
$TDCREATE
 40
2454057.468761574
  9
$TDUPDATE
 40
2454057.468761574
  9
$TDINDWG
 40
0.0000000000
  9
$TDUSRTIMER
 40
0.0000000000
  9
$USRTIMER
 70
               1
  9
$ANGBASE
 50
0.0
  9
$ANGDIR
 70
               0
  9
$PDMODE
 70
               0
  9
$PDSIZE
 40
0.0
  9
$PLINEWID
 40
0.0
  9
$COORDS
 70
               1
  9
$SPLFRAME
 70
               0
  9
$SPLINETYPE
 70
               6
  9
$SPLINESEGS
 70
               8
  9
$ATTDIA
 70
               0
  9
$ATTREQ
 70
               1
  9
$HANDLING
 70
               1
  9
$HANDSEED
  5
25D
  9
$SURFTAB1
 70
               6
  9
$SURFTAB2
 70
               6
  9
$SURFTYPE
 70
               6
  9
$SURFU
 70
               6
  9
$SURFV
 70
               6
  9
$UCSNAME
  2

  9
$UCSORG
 10
0.0
 20
0.0
 30
0.0
  9
$UCSXDIR
 10
1.0
 20
0.0
 30
0.0
  9
$UCSYDIR
 10
0.0
 20
1.0
 30
0.0
  9
$PUCSNAME
  2

  9
$PUCSORG
 10
0.0
 20
0.0
 30
0.0
  9
$PUCSXDIR
 10
1.0
 20
0.0
 30
0.0
  9
$PUCSYDIR
 10
0.0
 20
1.0
 30
0.0
  9
$USERI1
 70
               0
  9
$USERI2
 70
               0
  9
$USERI3
 70
               0
  9
$USERI4
 70
               0
  9
$USERI5
 70
               0
  9
$USERR1
 40
0.0
  9
$USERR2
 40
0.0
  9
$USERR3
 40
0.0
  9
$USERR4
 40
0.0
  9
$USERR5
 40
0.0
  9
$WORLDVIEW
 70
               1
  9
$SHADEDGE
 70
               3
  9
$SHADEDIF
 70
              70
  9
$TILEMODE
 70
               1
  9
$MAXACTVP
 70
              16
  9
$PINSBASE
 10
0.0
 20
0.0
 30
0.0
  9
$PLIMCHECK
 70
               0
  9
$PEXTMIN
 10
1.0000000000000000E+20
 20
1.0000000000000000E+20
 30
1.0000000000000000E+20
  9
$PEXTMAX
 10
-1.0000000000000000E+20
 20
-1.0000000000000000E+20
 30
-1.0000000000000000E+20
  9
$PLIMMIN
 10
0.0
 20
0.0
  9
$PLIMMAX
 10
12.0
 20
9.0
  9
$UNITMODE
 70
               0
  9
$VISRETAIN
 70
               0
  9
$PLINEGEN
 70
               1
  9
$PSLTSCALE
 70
               0
  9
$TREEDEPTH
 70
            3020
  9
$PICKSTYLE
 70
               1
  9
$CMLSTYLE
  2
Standard
  9
$CMLJUST
 70
               0
  9
$CMLSCALE
 40
1.0
  9
$SAVEIMAGES
 70
               0
  0
ENDSEC
  0
SECTION
  2
CLASSES
  0
CLASS
  1
LWPOLYLINE
  2
AcDbPolyline
  3
"AutoCAD"
 90
    32768
280
               0
281
               1
  0
CLASS
  1
IMAGE
  2
AcDbRasterImage
  3
ISM
 90
    32895
280
               0
281
               1
  0
CLASS
  1
OLE2FRAME
  2
AcDbOle2Frame
  3
""
 90
    32768
280
               0
281
               1
  0
CLASS
  1
HATCH
  2
AcDbHatch
  3
"ACAD_SEDONA"
 90
    32768
280
               0
281
               1
  0
CLASS
  1
DICTIONARYVAR
  2
AcDbDictionaryVar
  3
"AutoCAD"
 90
    32768
280
               0
281
               0
  0
CLASS
  1
RASTERVARIABLES
  2
AcDbRasterVariables
  3
ISM
 90
    32768
280
               0
281
               0
  0
CLASS
  1
IMAGEDEF
  2
AcDbRasterImageDef
  3
ISM
 90
    32768
280
               0
281
               0
  0
CLASS
  1
IMAGEDEF_REACTOR
  2
AcDbRasterImageDefReactor
  3
ISM
 90
    32769
280
               0
281
               0
  0
CLASS
  1
IDBUFFER
  2
AcDbIdBuffer
  3
"Acad"
 90
    32768
280
               0
281
               0
  0
CLASS
  1
SPATIAL_FILTER
  2
AcDbSpatialFilter
  3
"Acad"
 90
    32768
280
               0
281
               0
  0
CLASS
  1
XRECORD
  2
AcDbXrecord
  3
"<Built In>"
 90
    32768
280
               0
281
               0
  0
CLASS
  1
SORTENTSTABLE
  2
AcDbSortentsTable
  3
"AutoCAD"
 90
    32768
280
               0
281
               0
  0
CLASS
  1
LAYER_INDEX
  2
AcDbLayerIndex
  3
"Acad"
 90
    32768
280
               0
281
               0
  0
CLASS
  1
SPATIAL_INDEX
  2
AcDbSpatialIndex
  3
"Acad"
 90
    32768
280
               0
281
               0
  0
CLASS
  1
OBJECT_PTR
  2
CAseDLPNTableRecord
  3
"ASE-LPNTableRecord"
 90
    32769
280
               0
281
               0
  0
CLASS
  1
LAYOUT
  2
AcDbLayout
  3
"AutoCAD 2000"
 90
    32768
280
               0
281
               0
  0
CLASS
  1
PLOTSETTINGS
  2
AcDbPlotSettings
  3
"AutoCAD 2000"
 90
    32768
280
               0
281
               0
  0
CLASS
  1
ACDBDICTIONARYWDFLT
  2
AcDbDictionaryWithDefault
  3
"AutoCAD 2000"
 90
    32768
280
               0
281
               0
  0
CLASS
  1
ACDBPLACEHOLDER
  2
AcDbPlaceHolder
  3
"AutoCAD 2000"
 90
    32768
280
               0
281
               0
  0
ENDSEC
  0
SECTION
  2
TABLES
  0
TABLE
  2
VPORT
  5
7
100
AcDbSymbolTable
 70
               1
  0
VPORT
  5
15
100
AcDbSymbolTableRecord
100
AcDbViewportTableRecord
  2
*ACTIVE
 70
               0
 10
0.0
 20
0.0
 11
1.0
 21
1.0
 12
0.0
 22
0.0
 13
0.0
 23
0.0
 14
1.0
 24
1.0
 15
0.0
 25
0.0
 16
0.0
 26
0.0
 36
1.0
 17
0.0
 27
0.0
 37
0.0
 40
299.97000000000003
 41
1.7320508075688772
 42
50.0
 43
0.0
 44
0.0
 50
0.0
 51
0.0
 71
               0
 72
             100
 73
               1
 74
               1
 75
               0
 76
               0
 77
               0
 78
               0
  0
ENDTAB
  0
TABLE
  2
LTYPE
  5
4
100
AcDbSymbolTable
 70
               4
  0
LTYPE
  5
11
100
AcDbSymbolTableRecord
100
AcDbLinetypeTableRecord
  2
BYBLOCK
 70
              64
  3

 72
              65
 73
               0
 40
0.0
  0
LTYPE
  5
12
100
AcDbSymbolTableRecord
100
AcDbLinetypeTableRecord
  2
BYLAYER
 70
              64
  3

 72
              65
 73
               0
 40
0.0
  0
LTYPE
  5
13
100
AcDbSymbolTableRecord
100
AcDbLinetypeTableRecord
  2
CONTINUOUS
 70
              64
  3
Solid line
 72
              65
 73
               0
 40
0.0
  0
LTYPE
  5
19D
100
AcDbSymbolTableRecord
100
AcDbLinetypeTableRecord
  2
CENTER
 70
              64
  3
Center ____ _ ____ _ ____ _ ____ _ ____ _ ____
 72
              65
 73
               4
 40
50.800000000000004
 49
31.75
 74
               0
 49
-6.3499999999999996
 74
               0
 49
6.3499999999999996
 74
               0
 49
-6.3499999999999996
 74
               0
  0
ENDTAB
  0
TABLE
  2
LAYER
  5
2
100
AcDbSymbolTable
 70
               2
  0
LAYER
  5
14
100
AcDbSymbolTableRecord
100
AcDbLayerTableRecord
  2
0
 70
               0
 62
               7
  6
CONTINUOUS
  0
LAYER
  5
1D
100
AcDbSymbolTableRecord
100
AcDbLayerTableRecord
  2
DEFPOINTS
 70
               0
 62
               7
  6
CONTINUOUS
  0
ENDTAB
  0
TABLE
  2
STYLE
  5
3
100
AcDbSymbolTable
 70
               1
  0
STYLE
  5
17
100
AcDbSymbolTableRecord
100
AcDbTextStyleTableRecord
  2
MX_NOTE_STANDARD
 70
               0
 40
0.0
 41
1.0
 50
0.0
 71
               0
 42
3.2000000476837158
  3
txt.shx
  4
extfont.shx
  0
ENDTAB
  0
TABLE
  2
VIEW
  5
5
100
AcDbSymbolTable
 70
               0
  0
ENDTAB
  0
TABLE
  2
UCS
  5
6
100
AcDbSymbolTable
 70
               0
  0
ENDTAB
  0
TABLE
  2
APPID
  5
8
100
AcDbSymbolTable
 70
               1
  0
APPID
  5
16
100
AcDbSymbolTableRecord
100
AcDbRegAppTableRecord
  2
ACAD
 70
               0
  0
ENDTAB
  0
TABLE
  2
DIMSTYLE
  5
9
100
AcDbSymbolTable
 70
               1
  0
DIMSTYLE
105
18
100
AcDbSymbolTableRecord
100
AcDbDimStyleTableRecord
  2
MXDIMSTYLE
 70
               0
  3

  4

  5

  6
_OPEN30
  7
_OPEN30
 40
1.0
 41
2.5
 42
1.5
 43
3.75
 44
1.5
 45
0.0
 46
0.0
 47
0.0
 48
0.0
 71
               0
 72
               0
 73
               0
 74
               0
 75
               0
 76
               0
 77
               1
 78
               8
140
3.2000000476837158
141
2.5
142
0.0
143
0.03937007874016
144
1.0
145
0.0
146
1.0
147
1.0
170
               0
171
               4
172
               1
173
               1
174
               0
175
               0
176
               0
177
               0
178
               0
270
               2
271
               2
272
               2
273
               2
274
               4
275
               0
280
               0
281
               0
282
               0
283
               0
284
               0
285
               0
286
               0
287
               3
288
               1
340
17
  0
ENDTAB
  0
TABLE
  2
BLOCK_RECORD
  5
1
100
AcDbSymbolTable
 70
               4
  0
BLOCK_RECORD
  5
A
100
AcDbSymbolTableRecord
100
AcDbBlockTableRecord
  2
*MODEL_SPACE
  0
BLOCK_RECORD
  5
B
100
AcDbSymbolTableRecord
100
AcDbBlockTableRecord
  2
*PAPER_SPACE
  0
BLOCK_RECORD
  5
1E
100
AcDbSymbolTableRecord
100
AcDbBlockTableRecord
  2
DTY-EPU-P-1
  0
BLOCK_RECORD
  5
1F
100
AcDbSymbolTableRecord
100
AcDbBlockTableRecord
  2
DTY-EPU-P-2
  0
BLOCK_RECORD
  5
20
100
AcDbSymbolTableRecord
100
AcDbBlockTableRecord
  2
DTY-EPU-P-3
  0
BLOCK_RECORD
  5
21
100
AcDbSymbolTableRecord
100
AcDbBlockTableRecord
  2
_OPEN30
  0
ENDTAB
  0
ENDSEC
  0
SECTION
  2
BLOCKS
  0
BLOCK
  5
D
100
AcDbEntity
  8
0
100
AcDbBlockBegin
  2
*MODEL_SPACE
 70
               0
 10
0.0
 20
0.0
 30
0.0
  3
*MODEL_SPACE
  1

  0
ENDBLK
  5
E
100
AcDbEntity
  8
0
100
AcDbBlockEnd
  0
BLOCK
  5
F
100
AcDbEntity
 67
               1
  8
0
100
AcDbBlockBegin
  2
*PAPER_SPACE
 70
               0
 10
0.0
 20
0.0
 30
0.0
  3
*PAPER_SPACE
  1

  0
ENDBLK
  5
10
100
AcDbEntity
 67
               1
  8
0
100
AcDbBlockEnd
  0
BLOCK
  5
27
100
AcDbEntity
  8
0
100
AcDbBlockBegin
  2
DTY-EPU-P-1
 70
               0
 10
0.0
 20
0.0
 30
0.0
  3
DTY-EPU-P-1
  1

  0
ARC
  5
28
100
AcDbEntity
  8
0
  6
CONTINUOUS
 62
               7
100
AcDbCircle
 10
-19.0
 20
18.999999973286421
 30
0.0
 40
1.0
100
AcDbArc
 50
90.0
 51
180.0
  0
ARC
  5
29
100
AcDbEntity
  8
0
  6
CONTINUOUS
 62
               7
100
AcDbCircle
 10
19.0
 20
-19.000000026713593
 30
0.0
 40
1.0
100
AcDbArc
 50
270.0
 51
0.0
  0
ARC
  5
2A
100
AcDbEntity
  8
0
  6
CONTINUOUS
 62
               7
100
AcDbCircle
 10
-19.0
 20
-19.000000026713593
 30
0.0
 40
1.0
100
AcDbArc
 50
180.0
 51
270.0
  0
ARC
  5
2B
100
AcDbEntity
  8
0
  6
CONTINUOUS
 62
               7
100
AcDbCircle
 10
19.0
 20
18.999999973286421
 30
0.0
 40
1.0
100
AcDbArc
 50
0.0
 51
90.0
  0
LINE
  5
2C
100
AcDbEntity
  8
0
  6
CONTINUOUS
 62
               7
100
AcDbLine
 10
19.0
 20
19.999999973286421
 30
0.0
 11
-19.0
 21
19.999999973286421
 31
0.0
  0
LINE
  5
2D
100
AcDbEntity
  8
0
  6
CONTINUOUS
 62
               7
100
AcDbLine
 10
19.0
 20
-20.000000026713593
 30
0.0
 11
-19.0
 21
-20.000000026713593
 31
0.0
  0
LINE
  5
2E
100
AcDbEntity
  8
0
  6
CONTINUOUS
 62
               7
100
AcDbLine
 10
-20.0
 20
18.999999973286421
 30
0.0
 11
-20.0
 21
-19.000000026713593
 31
0.0
  0
LINE
  5
2F
100
AcDbEntity
  8
0
  6
CONTINUOUS
 62
               7
100
AcDbLine
 10
20.0
 20
-19.000000026713593
 30
0.0
 11
20.0
 21
18.999999973286421
 31
0.0
  0
LINE
  5
30
100
AcDbEntity
  8
0
  6
CONTINUOUS
 62
               7
100
AcDbLine
 10
19.0
 20
18.999999973286421
 30
0.0
 11
-19.0
 21
18.999999973286421
 31
0.0
  0
LINE
  5
31
100
AcDbEntity
  8
0
  6
CONTINUOUS
 62
               7
100
AcDbLine
 10
19.0
 20
-19.000000026713593
 30
0.0
 11
19.0
 21
18.999999973286421
 31
0.0
  0
LINE
  5
32
100
AcDbEntity
  8
0
  6
CONTINUOUS
 62
               7
100
AcDbLine
 10
19.0
 20
-19.000000026713593
 30
0.0
 11
-19.0
 21
-19.000000026713593
 31
0.0
  0
LINE
  5
33
100
AcDbEntity
  8
0
  6
CONTINUOUS
 62
               7
100
AcDbLine
 10
-19.0
 20
18.999999973286421
 30
0.0
 11
-19.0
 21
-19.000000026713593
 31
0.0
  0
LINE
  5
34
100
AcDbEntity
  8
0
  6
CONTINUOUS
 62
               7
100
AcDbLine
 10
19.0
 20
18.999999973286421
 30
0.0
 11
19.707106781186553
 21
19.70710675447296
 31
0.0
  0
LINE
  5
35
100
AcDbEntity
  8
0
  6
CONTINUOUS
 62
               7
100
AcDbLine
 10
-19.0
 20
-19.000000026713593
 30
0.0
 11
-19.707106781186553
 21
-19.707106807900146
 31
0.0
  0
LINE
  5
36
100
AcDbEntity
  8
0
  6
CONTINUOUS
 62
               7
100
AcDbLine
 10
19.0
 20
-19.000000026713593
 30
0.0
 11
19.707106781186553
 21
-19.707106807900118
 31
0.0
  0
LINE
  5
37
100
AcDbEntity
  8
0
  6
CONTINUOUS
 62
               7
100
AcDbLine
 10
-19.0
 20
18.999999973286421
 30
0.0
 11
-19.707106781186553
 21
19.70710675447296
 31
0.0
  0
ARC
  5
38
100
AcDbEntity
  8
0
  6
CONTINUOUS
 62
               7
100
AcDbCircle
 10
-18.0
 20
-18.000000026713593
 30
0.0
 40
0.5
100
AcDbArc
 50
180.0
 51
270.0
  0
ARC
  5
39
100
AcDbEntity
  8
0
  6
CONTINUOUS
 62
               7
100
AcDbCircle
 10
18.0
 20
17.999999973286421
 30
0.0
 40
0.5
100
AcDbArc
 50
0.0
 51
90.0
  0
LINE
  5
3A
100
AcDbEntity
  8
0
  6
CONTINUOUS
 62
               7
100
AcDbLine
 10
8.5
 20
0.0999999732864296
 30
0.0
 11
10.5
 21
0.0999999732864296
 31
0.0
  0
LINE
  5
3B
100
AcDbEntity
  8
0
  6
CONTINUOUS
 62
               7
100
AcDbLine
 10
11.5
 20
-1.9000000267135704
 30
0.0
 11
11.5
 21
-1.4000000267135704
 31
0.0
  0
LINE
  5
3C
100
AcDbEntity
  8
0
  6
CONTINUOUS
 62
               7
100
AcDbLine
 10
11.5
 20
-4.4000000267135704
 30
0.0
 11
13.665063509461049
 21
-2.9000000267135704
 31
0.0
  0
LINE
  5
3D
100
AcDbEntity
  8
0
  6
CONTINUOUS
 62
               7
100
AcDbLine
 10
11.5
 20
-1.4000000267135704
 30
0.0
 11
13.665063509461106
 21
-2.9000000267135704
 31
0.0
  0
LINE
  5
3E
100
AcDbEntity
  8
0
  6
CONTINUOUS
 62
               7
100
AcDbLine
 10
11.5
 20
-3.9000000267135704
 30
0.0
 11
11.5
 21
-4.4000000267135704
 31
0.0
  0
LINE
  5
3F
100
AcDbEntity
  8
0
  6
CONTINUOUS
 62
               7
100
AcDbLine
 10
8.5
 20
-1.4000000267135704
 30
0.0
 11
8.5
 21
0.0999999732864296
 31
0.0
  0
LINE
  5
40
100
AcDbEntity
  8
0
  6
CONTINUOUS
 62
               7
100
AcDbLine
 10
10.5
 20
-1.4000000267135704
 30
0.0
 11
10.5
 21
0.0999999732864296
 31
0.0
  0
LINE
  5
41
100
AcDbEntity
  8
0
  6
CONTINUOUS
 62
               7
100
AcDbLine
 10
11.0
 20
-3.9000000267135704
 30
0.0
 11
11.5
 21
-3.9000000267135704
 31
0.0
  0
LINE
  5
42
100
AcDbEntity
  8
0
  6
CONTINUOUS
 62
               7
100
AcDbLine
 10
11.0
 20
-1.9000000267135704
 30
0.0
 11
11.5
 21
-1.9000000267135704
 31
0.0
  0
ARC
  5
43
100
AcDbEntity
  8
0
  6
CONTINUOUS
 62
               7
100
AcDbCircle
 10
11.0
 20
-1.4000000267135704
 30
0.0
 40
2.5
100
AcDbArc
 50
180.0
 51
270.0
  0
ARC
  5
44
100
AcDbEntity
  8
0
  6
CONTINUOUS
 62
               7
100
AcDbCircle
 10
11.0
 20
-1.4000000267135704
 30
0.0
 40
0.5
100
AcDbArc
 50
180.0
 51
270.0
  0
LINE
  5
45
100
AcDbEntity
  8
0
  6
CONTINUOUS
 62
               7
100
AcDbLine
 10
2.598076211353316
 20
0.2499999732864211
 30
0.0
 11
0.0
 21
-4.2500000267135931
 31
0.0
  0
LINE
  5
46
100
AcDbEntity
  8
0
  6
CONTINUOUS
 62
               7
100
AcDbLine
 10
-2.598076211353316
 20
0.2499999732864211
 30
0.0
 11
2.598076211353316
 21
0.2499999732864211
 31
0.0
  0
LINE
  5
47
100
AcDbEntity
  8
0
  6
CONTINUOUS
 62
               7
100
AcDbLine
 10
0.0
 20
-4.2500000267135931
 30
0.0
 11
-2.598076211353316
 21
0.2499999732864211
 31
0.0
  0
LINE
  5
48
100
AcDbEntity
  8
0
  6
CONTINUOUS
 62
               7
100
AcDbLine
 10
-13.598076211353316
 20
-4.2500000267135931
 30
0.0
 11
-11.0
 21
0.2499999732864211
 31
0.0
  0
LINE
  5
49
100
AcDbEntity
  8
0
  6
CONTINUOUS
 62
               7
100
AcDbLine
 10
-8.401923788646684
 20
-4.2500000267135931
 30
0.0
 11
-13.598076211353316
 21
-4.2500000267135931
 31
0.0
  0
LINE
  5
4A
100
AcDbEntity
  8
0
  6
CONTINUOUS
 62
               7
100
AcDbLine
 10
-11.0
 20
0.2499999732864211
 30
0.0
 11
-8.401923788646684
 21
-4.2500000267135931
 31
0.0
  0
LINE
  5
4B
100
AcDbEntity
  8
0
  6
CONTINUOUS
 62
               7
100
AcDbLine
 10
18.5
 20
2.2499999732864211
 30
0.0
 11
-18.5
 21
2.2499999732864211
 31
0.0
  0
ARC
  5
4C
100
AcDbEntity
  8
0
  6
CONTINUOUS
 62
               7
100
AcDbCircle
 10
18.0
 20
-18.000000026713593
 30
0.0
 40
0.5
100
AcDbArc
 50
270.0
 51
0.0
  0
ARC
  5
4D
100
AcDbEntity
  8
0
  6
CONTINUOUS
 62
               7
100
AcDbCircle
 10
-18.0
 20
17.999999973286421
 30
0.0
 40
0.5
100
AcDbArc
 50
90.0
 51
180.0
  0
LINE
  5
4E
100
AcDbEntity
  8
0
  6
CONTINUOUS
 62
               7
100
AcDbLine
 10
14.0
 20
0.9999999732864211
 30
0.0
 11
14.0
 21
-5.0000000267135931
 31
0.0
  0
LINE
  5
4F
100
AcDbEntity
  8
0
  6
CONTINUOUS
 62
               7
100
AcDbLine
 10
8.0
 20
-5.0000000267135931
 30
0.0
 11
14.0
 21
-5.0000000267135931
 31
0.0
  0
LINE
  5
50
100
AcDbEntity
  8
0
  6
CONTINUOUS
 62
               7
100
AcDbLine
 10
8.0
 20
0.9999999732864211
 30
0.0
 11
14.0
 21
0.9999999732864211
 31
0.0
  0
LINE
  5
51
100
AcDbEntity
  8
0
  6
CONTINUOUS
 62
               7
100
AcDbLine
 10
8.0
 20
0.9999999732864211
 30
0.0
 11
8.0
 21
-5.0000000267135931
 31
0.0
  0
LINE
  5
52
100
AcDbEntity
  8
0
  6
CONTINUOUS
 62
               7
100
AcDbLine
 10
-3.0
 20
-5.0000000267135931
 30
0.0
 11
-3.0
 21
0.9999999732864211
 31
0.0
  0
LINE
  5
53
100
AcDbEntity
  8
0
  6
CONTINUOUS
 62
               7
100
AcDbLine
 10
3.0
 20
0.9999999732864211
 30
0.0
 11
-3.0
 21
0.9999999732864211
 31
0.0
  0
LINE
  5
54
100
AcDbEntity
  8
0
  6
CONTINUOUS
 62
               7
100
AcDbLine
 10
3.0
 20
-5.0000000267135931
 30
0.0
 11
-3.0
 21
-5.0000000267135931
 31
0.0
  0
LINE
  5
55
100
AcDbEntity
  8
0
  6
CONTINUOUS
 62
               7
100
AcDbLine
 10
3.0
 20
-5.0000000267135931
 30
0.0
 11
3.0
 21
0.9999999732864211
 31
0.0
  0
LINE
  5
56
100
AcDbEntity
  8
0
  6
CONTINUOUS
 62
               7
100
AcDbLine
 10
-14.0
 20
0.9999999732864211
 30
0.0
 11
-14.0
 21
-5.0000000267135931
 31
0.0
  0
LINE
  5
57
100
AcDbEntity
  8
0
  6
CONTINUOUS
 62
               7
100
AcDbLine
 10
18.5
 20
-18.000000026713593
 30
0.0
 11
18.5
 21
17.999999973286421
 31
0.0
  0
LINE
  5
58
100
AcDbEntity
  8
0
  6
CONTINUOUS
 62
               7
100
AcDbLine
 10
18.0
 20
-18.500000026713593
 30
0.0
 11
-18.0
 21
-18.500000026713593
 31
0.0
  0
LINE
  5
59
100
AcDbEntity
  8
0
  6
CONTINUOUS
 62
               7
100
AcDbLine
 10
18.0
 20
18.499999973286421
 30
0.0
 11
-18.0
 21
18.499999973286421
 31
0.0
  0
LINE
  5
5A
100
AcDbEntity
  8
0
  6
CONTINUOUS
 62
               7
100
AcDbLine
 10
-14.0
 20
0.9999999732864211
 30
0.0
 11
-8.0
 21
0.9999999732864211
 31
0.0
  0
LINE
  5
5B
100
AcDbEntity
  8
0
  6
CONTINUOUS
 62
               7
100
AcDbLine
 10
-14.0
 20
-5.0000000267135931
 30
0.0
 11
-8.0
 21
-5.0000000267135931
 31
0.0
  0
LINE
  5
5C
100
AcDbEntity
  8
0
  6
CONTINUOUS
 62
               7
100
AcDbLine
 10
-8.0
 20
0.9999999732864211
 30
0.0
 11
-8.0
 21
-5.0000000267135931
 31
0.0
  0
CIRCLE
  5
5D
100
AcDbEntity
  8
0
  6
CONTINUOUS
 62
               7
100
AcDbCircle
 10
-13.5
 20
-8.5000000267135931
 30
0.0
 40
2.0
  0
CIRCLE
  5
5E
100
AcDbEntity
  8
0
  6
CONTINUOUS
 62
               7
100
AcDbCircle
 10
-13.5
 20
-15.000000026713593
 30
0.0
 40
2.0
  0
CIRCLE
  5
5F
100
AcDbEntity
  8
0
  6
CONTINUOUS
 62
               7
100
AcDbCircle
 10
-8.5
 20
-15.000000026713593
 30
0.0
 40
2.0
  0
CIRCLE
  5
60
100
AcDbEntity
  8
0
  6
CONTINUOUS
 62
               7
100
AcDbCircle
 10
-3.5
 20
-15.000000026713593
 30
0.0
 40
2.0
  0
CIRCLE
  5
61
100
AcDbEntity
  8
0
  6
CONTINUOUS
 62
               7
100
AcDbCircle
 10
1.5
 20
-15.000000026713593
 30
0.0
 40
2.0
  0
CIRCLE
  5
62
100
AcDbEntity
  8
0
  6
CONTINUOUS
 62
               7
100
AcDbCircle
 10
1.5
 20
-8.5000000267135931
 30
0.0
 40
2.0
  0
CIRCLE
  5
63
100
AcDbEntity
  8
0
  6
CONTINUOUS
 62
               7
100
AcDbCircle
 10
-3.5
 20
-8.5000000267135931
 30
0.0
 40
2.0
  0
CIRCLE
  5
64
100
AcDbEntity
  8
0
  6
CONTINUOUS
 62
               7
100
AcDbCircle
 10
-8.5
 20
-8.5000000267135931
 30
0.0
 40
2.0
  0
LINE
  5
65
100
AcDbEntity
  8
0
  6
CONTINUOUS
 62
               7
100
AcDbLine
 10
15.0
 20
14.249999973286421
 30
0.0
 11
-15.0
 21
14.249999973286421
 31
0.0
  0
LINE
  5
66
100
AcDbEntity
  8
0
  6
CONTINUOUS
 62
               7
100
AcDbLine
 10
15.0
 20
2.7499999732864211
 30
0.0
 11
-15.0
 21
2.7499999732864211
 31
0.0
  0
LINE
  5
67
100
AcDbEntity
  8
0
  6
CONTINUOUS
 62
               7
100
AcDbLine
 10
-15.0
 20
14.249999973286421
 30
0.0
 11
-15.0
 21
2.7499999732864211
 31
0.0
  0
LINE
  5
68
100
AcDbEntity
  8
0
  6
CONTINUOUS
 62
               7
100
AcDbLine
 10
15.0
 20
14.249999973286421
 30
0.0
 11
15.0
 21
2.7499999732864211
 31
0.0
  0
LINE
  5
69
100
AcDbEntity
  8
0
  6
CONTINUOUS
 62
               7
100
AcDbLine
 10
-18.5
 20
-18.000000026713593
 30
0.0
 11
-18.5
 21
17.999999973286421
 31
0.0
  0
LINE
  5
6A
100
AcDbEntity
  8
0
  6
CONTINUOUS
 62
               7
100
AcDbLine
 10
-24.0
 20
23.999999973286421
 30
0.0
 11
24.0
 21
23.999999973286421
 31
0.0
  0
LINE
  5
6B
100
AcDbEntity
  8
0
  6
CONTINUOUS
 62
               7
100
AcDbLine
 10
-24.0
 20
-24.000000026713593
 30
0.0
 11
24.0
 21
-24.000000026713593
 31
0.0
  0
LINE
  5
6C
100
AcDbEntity
  8
0
  6
CONTINUOUS
 62
               7
100
AcDbLine
 10
-24.0
 20
-24.000000026713593
 30
0.0
 11
-24.0
 21
23.999999973286421
 31
0.0
  0
LINE
  5
6D
100
AcDbEntity
  8
0
  6
CONTINUOUS
 62
               7
100
AcDbLine
 10
24.0
 20
-24.000000026713593
 30
0.0
 11
24.0
 21
23.999999973286421
 31
0.0
  0
LINE
  5
6E
100
AcDbEntity
  8
0
  6
CONTINUOUS
 62
               2
100
AcDbLine
 10
23.0
 20
-23.000000026713593
 30
0.0
 11
23.0
 21
22.999999973286421
 31
0.0
  0
LINE
  5
6F
100
AcDbEntity
  8
0
  6
CONTINUOUS
 62
               2
100
AcDbLine
 10
-23.0
 20
22.999999973286421
 30
0.0
 11
23.0
 21
22.999999973286421
 31
0.0
  0
LINE
  5
70
100
AcDbEntity
  8
0
  6
CONTINUOUS
 62
               2
100
AcDbLine
 10
-23.0
 20
-23.000000026713593
 30
0.0
 11
-23.0
 21
22.999999973286421
 31
0.0
  0
LINE
  5
71
100
AcDbEntity
  8
0
  6
CONTINUOUS
 62
               2
100
AcDbLine
 10
-23.0
 20
-23.000000026713593
 30
0.0
 11
23.0
 21
-23.000000026713593
 31
0.0
  0
LINE
  5
72
100
AcDbEntity
  8
0
  6
CONTINUOUS
 62
               2
100
AcDbLine
 10
23.0
 20
-23.000000026713593
 30
0.0
 11
24.0
 21
-24.000000026713593
 31
0.0
  0
LINE
  5
73
100
AcDbEntity
  8
0
  6
CONTINUOUS
 62
               2
100
AcDbLine
 10
23.0
 20
22.999999973286421
 30
0.0
 11
24.0
 21
23.999999973286421
 31
0.0
  0
LINE
  5
74
100
AcDbEntity
  8
0
  6
CONTINUOUS
 62
               2
100
AcDbLine
 10
-23.0
 20
22.999999973286421
 30
0.0
 11
-24.0
 21
23.999999973286421
 31
0.0
  0
LINE
  5
75
100
AcDbEntity
  8
0
  6
CONTINUOUS
 62
               2
100
AcDbLine
 10
-23.0
 20
-23.000000026713593
 30
0.0
 11
-24.0
 21
-24.000000026713593
 31
0.0
  0
LINE
  5
76
100
AcDbEntity
  8
0
  6
CONTINUOUS
 62
               7
100
AcDbLine
 10
24.700000000000003
 20
-22.5
 30
0.0
 11
24.700000000000003
 21
22.5
 31
0.0
  0
LINE
  5
77
100
AcDbEntity
  8
0
  6
CONTINUOUS
 62
               7
100
AcDbLine
 10
27.700000000000003
 20
-22.5
 30
0.0
 11
27.700000000000003
 21
22.5
 31
0.0
  0
LINE
  5
78
100
AcDbEntity
  8
0
  6
CONTINUOUS
 62
               7
100
AcDbLine
 10
24.699999998916752
 20
22.499999973286421
 30
0.0
 11
27.700000000000003
 21
22.499999973286421
 31
0.0
  0
LINE
  5
79
100
AcDbEntity
  8
0
  6
CONTINUOUS
 62
               7
100
AcDbLine
 10
24.699999998916752
 20
-22.500000026713593
 30
0.0
 11
27.699999998916752
 21
-22.500000026713593
 31
0.0
  0
LINE
  5
7A
100
AcDbEntity
  8
0
  6
CONTINUOUS
 62
               7
100
AcDbLine
 10
24.699999998916752
 20
17.499999973286421
 30
0.0
 11
27.699999998916752
 21
17.499999973286421
 31
0.0
  0
LINE
  5
7B
100
AcDbEntity
  8
0
  6
CONTINUOUS
 62
               7
100
AcDbLine
 10
24.699999998916752
 20
-17.500000026713593
 30
0.0
 11
27.699999998916752
 21
-17.500000026713593
 31
0.0
  0
LINE
  5
7C
100
AcDbEntity
  8
0
  6
CONTINUOUS
 62
               7
100
AcDbLine
 10
-24.699999998916752
 20
22.499999973286421
 30
0.0
 11
-27.700000000000003
 21
22.499999973286421
 31
0.0
  0
LINE
  5
7D
100
AcDbEntity
  8
0
  6
CONTINUOUS
 62
               7
100
AcDbLine
 10
-24.699999998916752
 20
-22.500000026713593
 30
0.0
 11
-27.699999998916752
 21
-22.500000026713593
 31
0.0
  0
LINE
  5
7E
100
AcDbEntity
  8
0
  6
CONTINUOUS
 62
               7
100
AcDbLine
 10
-24.699999998916752
 20
17.499999973286421
 30
0.0
 11
-27.699999998916752
 21
17.499999973286421
 31
0.0
  0
LINE
  5
7F
100
AcDbEntity
  8
0
  6
CONTINUOUS
 62
               7
100
AcDbLine
 10
-24.699999998916752
 20
-17.500000026713593
 30
0.0
 11
-27.699999998916752
 21
-17.500000026713593
 31
0.0
  0
LINE
  5
80
100
AcDbEntity
  8
0
  6
CONTINUOUS
 62
               7
100
AcDbLine
 10
-27.700000000000003
 20
-22.5
 30
0.0
 11
-27.700000000000003
 21
22.5
 31
0.0
  0
LINE
  5
81
100
AcDbEntity
  8
0
  6
CONTINUOUS
 62
               7
100
AcDbLine
 10
-24.700000000000003
 20
-22.5
 30
0.0
 11
-24.700000000000003
 21
22.5
 31
0.0
  0
LINE
  5
82
100
AcDbEntity
  8
0
  6
CONTINUOUS
 62
               7
100
AcDbLine
 10
-24.699999987256291
 20
2.9999999732864211
 30
0.0
 11
-24.0
 21
2.9999999732864211
 31
0.0
  0
LINE
  5
83
100
AcDbEntity
  8
0
  6
CONTINUOUS
 62
               7
100
AcDbLine
 10
-24.699999987256291
 20
-3.0000000267135931
 30
0.0
 11
-24.0
 21
-3.0000000267135931
 31
0.0
  0
LINE
  5
84
100
AcDbEntity
  8
0
  6
CONTINUOUS
 62
               7
100
AcDbLine
 10
-24.699999987256291
 20
6.9999999732864211
 30
0.0
 11
-24.0
 21
6.9999999732864211
 31
0.0
  0
LINE
  5
85
100
AcDbEntity
  8
0
  6
CONTINUOUS
 62
               7
100
AcDbLine
 10
-24.699999987256291
 20
-7.0000000267135931
 30
0.0
 11
-24.0
 21
-7.0000000267135931
 31
0.0
  0
LINE
  5
86
100
AcDbEntity
  8
0
  6
CONTINUOUS
 62
               7
100
AcDbLine
 10
24.0
 20
6.9999999732864211
 30
0.0
 11
24.699999988901851
 21
6.9999999732864211
 31
0.0
  0
LINE
  5
87
100
AcDbEntity
  8
0
  6
CONTINUOUS
 62
               7
100
AcDbLine
 10
24.0
 20
2.9999999732864211
 30
0.0
 11
24.699999988901851
 21
2.9999999732864211
 31
0.0
  0
LINE
  5
88
100
AcDbEntity
  8
0
  6
CONTINUOUS
 62
               7
100
AcDbLine
 10
24.0
 20
-3.0000000267135931
 30
0.0
 11
24.699999988901851
 21
-3.0000000267135931
 31
0.0
  0
LINE
  5
89
100
AcDbEntity
  8
0
  6
CONTINUOUS
 62
               7
100
AcDbLine
 10
24.0
 20
-7.0000000267135931
 30
0.0
 11
24.699999988901851
 21
-7.0000000267135931
 31
0.0
  0
CIRCLE
  5
8A
100
AcDbEntity
  8
0
  6
CONTINUOUS
 62
               7
100
AcDbCircle
 10
-7.1749773270519199
 20
4.5999999732864296
 30
0.0
 40
0.3999999999999986
  0
CIRCLE
  5
8B
100
AcDbEntity
  8
0
  6
CONTINUOUS
 62
               7
100
AcDbCircle
 10
-0.3749773270519654
 20
4.5999999732864296
 30
0.0
 40
0.3999999999999986
  0
CIRCLE
  5
8C
100
AcDbEntity
  8
0
  6
CONTINUOUS
 62
               7
100
AcDbCircle
 10
6.4250226729481028
 20
4.5999999732864296
 30
0.0
 40
0.3999999999999986
  0
ARC
  5
8D
100
AcDbEntity
  8
0
  6
CONTINUOUS
 62
               7
100
AcDbCircle
 10
-11.775735931288011
 20
4.0499999732865319
 30
0.0
 40
0.3000000000000007
100
AcDbArc
 50
135.00000000000199
 51
270.00000000000006
  0
ARC
  5
8E
100
AcDbEntity
  8
0
  6
CONTINUOUS
 62
               7
100
AcDbCircle
 10
-11.175735931287932
 20
4.6499999732866115
 30
0.0
 40
0.3000000000000007
100
AcDbArc
 50
90.000000000005443
 51
134.9999999999998
  0
ARC
  5
8F
100
AcDbEntity
  8
0
  6
CONTINUOUS
 62
               7
100
AcDbCircle
 10
-9.6964191610173884
 20
4.6499999732867821
 30
0.0
 40
0.2999999999999996
100
AcDbArc
 50
34.99999999999838
 51
90.0
  0
ARC
  5
90
100
AcDbEntity
  8
0
  6
CONTINUOUS
 62
               7
100
AcDbCircle
 10
-9.2762946380914855
 20
4.0499999732866456
 30
0.0
 40
0.3000000000000007
100
AcDbArc
 50
270.00000000000341
 51
35.000000000000213
  0
ARC
  5
91
100
AcDbEntity
  8
0
  6
CONTINUOUS
 62
               7
100
AcDbCircle
 10
-11.934917179806945
 20
7.8724550684715808
 30
0.0
 40
0.3000000000000007
100
AcDbArc
 50
45.0
 51
135.0
  0
ARC
  5
92
100
AcDbEntity
  8
0
  6
CONTINUOUS
 62
               7
100
AcDbCircle
 10
-11.692130598424825
 20
7.6296684870894609
 30
0.0
 40
0.300000000000006
100
AcDbArc
 50
354.99999999999534
 51
45.0000000000027
  0
ARC
  5
93
100
AcDbEntity
  8
0
  6
CONTINUOUS
 62
               7
100
AcDbCircle
 10
-11.869266339443953
 20
5.6049977025544564
 30
0.0
 40
0.300000000000001
100
AcDbArc
 50
314.99999999999812
 51
354.99999999999545
  0
ARC
  5
94
100
AcDbEntity
  8
0
  6
CONTINUOUS
 62
               7
100
AcDbCircle
 10
-12.529304060019911
 20
4.9449599819784851
 30
0.0
 40
0.2999999999999954
100
AcDbArc
 50
174.99999999999523
 51
315.00000000000006
  0
ARC
  5
95
100
AcDbEntity
  8
0
  6
CONTINUOUS
 62
               7
100
AcDbCircle
 10
-12.30561311978704
 20
7.5017591284914857
 30
0.0
 40
0.3000000000000007
100
AcDbArc
 50
134.99999999999994
 51
174.99999999999528
  0
ARC
  5
96
100
AcDbEntity
  8
0
  6
CONTINUOUS
 62
               7
100
AcDbCircle
 10
-9.6242640687125629
 20
8.8999999732864268
 30
0.0
 40
0.3
100
AcDbArc
 50
44.999999999994252
 51
90.0
  0
ARC
  5
97
100
AcDbEntity
  8
0
  6
CONTINUOUS
 62
               7
100
AcDbCircle
 10
-9.349264068712472
 20
8.6249999732863643
 30
0.0
 40
0.3000000000000013
100
AcDbArc
 50
314.99999999999619
 51
45.000000000004583
  0
ARC
  5
98
100
AcDbEntity
  8
0
  6
CONTINUOUS
 62
               7
100
AcDbCircle
 10
-9.6742640687124322
 20
8.2999999732864183
 30
0.0
 40
0.3000000000000007
100
AcDbArc
 50
270.00000000001091
 51
314.99999999999977
  0
ARC
  5
99
100
AcDbEntity
  8
0
  6
CONTINUOUS
 62
               7
100
AcDbCircle
 10
-10.77573593128858
 20
8.2999999732863188
 30
0.0
 40
0.3
100
AcDbArc
 50
225.0
 51
270.0
  0
ARC
  5
9A
100
AcDbEntity
  8
0
  6
CONTINUOUS
 62
               7
100
AcDbCircle
 10
-11.050735931288671
 20
8.5749999732864097
 30
0.0
 40
0.3000000000000013
100
AcDbArc
 50
134.99999999999994
 51
224.99999999999923
  0
ARC
  5
9B
100
AcDbEntity
  8
0
  6
CONTINUOUS
 62
               7
100
AcDbCircle
 10
-10.725735931288682
 20
8.8999999732864268
 30
0.0
 40
0.3000000000000007
100
AcDbArc
 50
90.0
 51
134.99999999999974
  0
ARC
  5
9C
100
AcDbEntity
  8
0
  6
CONTINUOUS
 62
               7
100
AcDbCircle
 10
-8.528825537550091
 20
7.8724550684715808
 30
0.0
 40
0.3000000000000013
100
AcDbArc
 50
45.000000000003361
 51
134.99999999999974
  0
ARC
  5
9D
100
AcDbEntity
  8
0
  6
CONTINUOUS
 62
               7
100
AcDbCircle
 10
-8.2860389561679426
 20
7.6296684870894609
 30
0.0
 40
0.300000000000006
100
AcDbArc
 50
354.99999999999511
 51
45.000000000000455
  0
ARC
  5
9E
100
AcDbEntity
  8
0
  6
CONTINUOUS
 62
               7
100
AcDbCircle
 10
-8.5176248308780487
 20
4.9826298265747084
 30
0.0
 40
0.3000000000000004
100
AcDbArc
 50
214.99999999998639
 51
354.99999999999523
  0
ARC
  5
9F
100
AcDbEntity
  8
0
  6
CONTINUOUS
 62
               7
100
AcDbCircle
 10
-9.0530207480122158
 20
5.7472544384479676
 30
0.0
 40
0.2999999999999954
100
AcDbArc
 50
174.99999999999511
 51
214.99999999999019
  0
ARC
  5
A0
100
AcDbEntity
  8
0
  6
CONTINUOUS
 62
               7
100
AcDbCircle
 10
-8.8995214775302145
 20
7.5017591284914857
 30
0.0
 40
0.3000000000000007
100
AcDbArc
 50
134.99999999999974
 51
174.99999999999511
  0
ARC
  5
A1
100
AcDbEntity
  8
0
  6
CONTINUOUS
 62
               7
100
AcDbCircle
 10
-7.8811734285031605
 20
12.257302643876685
 30
0.0
 40
0.300000000000006
100
AcDbArc
 50
354.99999999999881
 51
134.99999999999955
  0
ARC
  5
A2
100
AcDbEntity
  8
0
  6
CONTINUOUS
 62
               7
100
AcDbCircle
 10
-8.1048643687359458
 20
9.7005034973636981
 30
0.0
 40
0.3000000000000013
100
AcDbArc
 50
314.99999999999619
 51
354.99999999999523
  0
ARC
  5
A3
100
AcDbEntity
  8
0
  6
CONTINUOUS
 62
               7
100
AcDbCircle
 10
-8.4755603087160694
 20
9.329807557383603
 30
0.0
 40
0.3000000000000007
100
AcDbArc
 50
225.0
 51
314.99999999999977
  0
ARC
  5
A4
100
AcDbEntity
  8
0
  6
CONTINUOUS
 62
               7
100
AcDbCircle
 10
-8.7183468900982177
 20
9.572594138765723
 30
0.0
 40
0.300000000000006
100
AcDbArc
 50
174.99999999999238
 51
224.99999999999949
  0
ARC
  5
A5
100
AcDbEntity
  8
0
  6
CONTINUOUS
 62
               7
100
AcDbCircle
 10
-8.5412111490790892
 20
11.597264923300742
 30
0.0
 40
0.300000000000002
100
AcDbArc
 50
135.00000000000045
 51
174.99999999999531
  0
ARC
  5
A6
100
AcDbEntity
  8
0
  6
CONTINUOUS
 62
               7
100
AcDbCircle
 10
-11.346979251988586
 20
11.452745508125091
 30
0.0
 40
0.300000000000006
100
AcDbArc
 50
354.99999999999267
 51
34.999999999990294
  0
ARC
  5
A7
100
AcDbEntity
  8
0
  6
CONTINUOUS
 62
               7
100
AcDbCircle
 10
-11.500280563684214
 20
9.7005034973636981
 30
0.0
 40
0.3000000000000007
100
AcDbArc
 50
315.00000000000193
 51
354.99999999999494
  0
ARC
  5
A8
100
AcDbEntity
  8
0
  6
CONTINUOUS
 62
               7
100
AcDbCircle
 10
-11.870976503664338
 20
9.329807557383603
 30
0.0
 40
0.3000000000000007
100
AcDbArc
 50
225.0
 51
314.99999999999977
  0
ARC
  5
A9
100
AcDbEntity
  8
0
  6
CONTINUOUS
 62
               7
100
AcDbCircle
 10
-12.113763085046457
 20
9.5725941387657514
 30
0.0
 40
0.299999999999999
100
AcDbArc
 50
174.99999999999787
 51
224.99999999999909
  0
ARC
  5
AA
100
AcDbEntity
  8
0
  6
CONTINUOUS
 62
               7
100
AcDbCircle
 10
-11.882375169122724
 20
12.217370119998336
 30
0.0
 40
0.2999999999999996
100
AcDbArc
 50
34.999999999990493
 51
174.99999999999528
  0
ARC
  5
AB
100
AcDbEntity
  8
0
  6
CONTINUOUS
 62
               7
100
AcDbCircle
 10
-8.6242640687127903
 20
13.149999973286555
 30
0.0
 40
0.3000000000000007
100
AcDbArc
 50
315.00000000000409
 51
90.000000000003411
  0
ARC
  5
AC
100
AcDbEntity
  8
0
  6
CONTINUOUS
 62
               7
100
AcDbCircle
 10
-9.2242640687128414
 20
12.549999973286475
 30
0.0
 40
0.3000000000000007
100
AcDbArc
 50
270.0
 51
315.00000000000045
  0
ARC
  5
AD
100
AcDbEntity
  8
0
  6
CONTINUOUS
 62
               7
100
AcDbCircle
 10
-10.703580838983413
 20
12.549999973286262
 30
0.0
 40
0.3000000000000008
100
AcDbArc
 50
214.99999999999926
 51
270.0000000000075
  0
ARC
  5
AE
100
AcDbEntity
  8
0
  6
CONTINUOUS
 62
               7
100
AcDbCircle
 10
-11.123705361909316
 20
13.149999973286398
 30
0.0
 40
0.3000000000000007
100
AcDbArc
 50
90.0
 51
215.00000000000026
  0
LINE
  5
AF
100
AcDbEntity
  8
0
  6
CONTINUOUS
 62
               7
100
AcDbLine
 10
-11.775735931288011
 20
3.7499999732865206
 30
0.0
 11
-9.2762946380914855
 21
3.7499999732866627
 31
0.0
  0
LINE
  5
B0
100
AcDbEntity
  8
0
  6
CONTINUOUS
 62
               7
100
AcDbLine
 10
-11.387867965643892
 20
4.8621320076425718
 30
0.0
 11
-11.987867965644
 21
4.2621320076424638
 31
0.0
  0
LINE
  5
B1
100
AcDbEntity
  8
0
  6
CONTINUOUS
 62
               7
100
AcDbLine
 10
-9.6964191610173884
 20
4.9499999732867934
 30
0.0
 11
-11.17573593128796
 21
4.9499999732866229
 31
0.0
  0
LINE
  5
B2
100
AcDbEntity
  8
0
  6
CONTINUOUS
 62
               7
100
AcDbLine
 10
-9.0305490248047988
 20
4.2220729041919753
 30
0.0
 11
-9.4506735477307018
 21
4.8220729041920833
 31
0.0
  0
LINE
  5
B3
100
AcDbEntity
  8
0
  6
CONTINUOUS
 62
               7
100
AcDbLine
 10
-11.479998564068865
 20
7.8418005214454354
 30
0.0
 11
-11.722785145450985
 21
8.0845871028275411
 31
0.0
  0
LINE
  5
B4
100
AcDbEntity
  8
0
  6
CONTINUOUS
 62
               7
100
AcDbLine
 10
-11.570407930016444
 20
5.5788509797301344
 30
0.0
 11
-11.393272188997315
 21
7.6035217642651389
 31
0.0
  0
LINE
  5
B5
100
AcDbEntity
  8
0
  6
CONTINUOUS
 62
               7
100
AcDbLine
 10
-12.31717202566395
 20
4.7328279476225248
 30
0.0
 11
-11.657134305087993
 21
5.3928656681984819
 31
0.0
  0
LINE
  5
B6
100
AcDbEntity
  8
0
  6
CONTINUOUS
 62
               7
100
AcDbLine
 10
-12.60447152921455
 20
7.5279058513158077
 30
0.0
 11
-12.82816246944742
 21
4.9711067048027928
 31
0.0
  0
LINE
  5
B7
100
AcDbEntity
  8
0
  6
CONTINUOUS
 62
               7
100
AcDbLine
 10
-12.147049214162905
 20
8.0845871028275411
 30
0.0
 11
-12.517745154143
 21
7.713891162847446
 31
0.0
  0
LINE
  5
B8
100
AcDbEntity
  8
0
  6
CONTINUOUS
 62
               7
100
AcDbLine
 10
-9.1371320343565117
 20
8.8371320076423387
 30
0.0
 11
-9.4121320343565458
 21
9.1121320076423729
 31
0.0
  0
LINE
  5
B9
100
AcDbEntity
  8
0
  6
CONTINUOUS
 62
               7
100
AcDbLine
 10
-9.4621320343565003
 20
8.087867938930458
 30
0.0
 11
-9.1371320343565117
 21
8.412867938930404
 31
0.0
  0
LINE
  5
BA
100
AcDbEntity
  8
0
  6
CONTINUOUS
 62
               7
100
AcDbLine
 10
-10.77573593128858
 20
7.9999999732863216
 30
0.0
 11
-9.6742640687123753
 21
7.9999999732864211
 31
0.0
  0
LINE
  5
BB
100
AcDbEntity
  8
0
  6
CONTINUOUS
 62
               7
100
AcDbLine
 10
-11.262867965644631
 20
8.3628679389304494
 30
0.0
 11
-10.98786796564454
 21
8.0878679389303585
 31
0.0
  0
LINE
  5
BC
100
AcDbEntity
  8
0
  6
CONTINUOUS
 62
               7
100
AcDbLine
 10
-10.937867965644614
 20
9.1121320076424013
 30
0.0
 11
-11.262867965644631
 21
8.78713200764237
 31
0.0
  0
LINE
  5
BD
100
AcDbEntity
  8
0
  6
CONTINUOUS
 62
               7
100
AcDbLine
 10
-9.6242640687125629
 20
9.1999999732864097
 30
0.0
 11
-10.725735931288682
 21
9.1999999732864097
 31
0.0
  0
LINE
  5
BE
100
AcDbEntity
  8
0
  6
CONTINUOUS
 62
               7
100
AcDbLine
 10
-8.7409575719060513
 20
8.0845871028275553
 30
0.0
 11
-9.1116535118861748
 21
7.7138911628474602
 31
0.0
  0
LINE
  5
BF
100
AcDbEntity
  8
0
  6
CONTINUOUS
 62
               7
100
AcDbLine
 10
-8.0739069218119823
 20
7.8418005214454354
 30
0.0
 11
-8.3166935031941307
 21
8.0845871028275553
 31
0.0
  0
LINE
  5
C0
100
AcDbEntity
  8
0
  6
CONTINUOUS
 62
               7
100
AcDbLine
 10
-8.2187664214505389
 20
4.9564831037504007
 30
0.0
 11
-7.9871805467404329
 21
7.6035217642651389
 31
0.0
  0
LINE
  5
C1
100
AcDbEntity
  8
0
  6
CONTINUOUS
 62
               7
100
AcDbLine
 10
-9.2987663612989309
 20
5.5751815075426947
 30
0.0
 11
-8.7633704441648206
 21
4.810556895669464
 31
0.0
  0
LINE
  5
C2
100
AcDbEntity
  8
0
  6
CONTINUOUS
 62
               7
100
AcDbLine
 10
-9.1983798869577242
 20
7.5279058513158077
 30
0.0
 11
-9.3518791574397255
 21
5.7734011612722895
 31
0.0
  0
LINE
  5
C3
100
AcDbEntity
  8
0
  6
CONTINUOUS
 62
               7
100
AcDbLine
 10
-8.0933054628591208
 20
12.469434678232659
 30
0.0
 11
-8.7533431834350495
 21
11.809396957656702
 31
0.0
  0
LINE
  5
C4
100
AcDbEntity
  8
0
  6
CONTINUOUS
 62
               7
100
AcDbLine
 10
-7.8060059593084361
 20
9.6743567745393761
 30
0.0
 11
-7.5823150190756223
 21
12.231155921052391
 31
0.0
  0
LINE
  5
C5
100
AcDbEntity
  8
0
  6
CONTINUOUS
 62
               7
100
AcDbLine
 10
-8.2634282743601091
 20
9.1176755230276285
 30
0.0
 11
-7.8927323343800424
 21
9.4883714630077378
 31
0.0
  0
LINE
  5
C6
100
AcDbEntity
  8
0
  6
CONTINUOUS
 62
               7
100
AcDbLine
 10
-8.930478924454178
 20
9.3604621044097485
 30
0.0
 11
-8.6876923430720581
 21
9.1176755230276427
 31
0.0
  0
LINE
  5
C7
100
AcDbEntity
  8
0
  6
CONTINUOUS
 62
               7
100
AcDbLine
 10
-8.8400695585065989
 20
11.623411646125064
 30
0.0
 11
-9.017205299525699
 21
9.5987408615900591
 31
0.0
  0
LINE
  5
C8
100
AcDbEntity
  8
0
  6
CONTINUOUS
 62
               7
100
AcDbLine
 10
-11.101233638701842
 20
11.624818439030363
 30
0.0
 11
-11.636629555835981
 21
12.389443050903623
 31
0.0
  0
LINE
  5
C9
100
AcDbEntity
  8
0
  6
CONTINUOUS
 62
               7
100
AcDbLine
 10
-11.201422154256704
 20
9.6743567745393761
 30
0.0
 11
-11.048120842561048
 21
11.426598785300754
 31
0.0
  0
LINE
  5
CA
100
AcDbEntity
  8
0
  6
CONTINUOUS
 62
               7
100
AcDbLine
 10
-11.658844469308349
 20
9.1176755230276285
 30
0.0
 11
-11.288148529328254
 21
9.4883714630077378
 31
0.0
  0
LINE
  5
CB
100
AcDbEntity
  8
0
  6
CONTINUOUS
 62
               7
100
AcDbLine
 10
-12.325895119402418
 20
9.3604621044097911
 30
0.0
 11
-12.083108538020269
 21
9.1176755230276427
 31
0.0
  0
LINE
  5
CC
100
AcDbEntity
  8
0
  6
CONTINUOUS
 62
               7
100
AcDbLine
 10
-12.181233578550234
 20
12.243516842822658
 30
0.0
 11
-12.412621494473967
 21
9.5987408615900591
 31
0.0
  0
LINE
  5
CD
100
AcDbEntity
  8
0
  6
CONTINUOUS
 62
               7
100
AcDbLine
 10
-8.6242640687127903
 20
13.449999973286538
 30
0.0
 11
-11.123705361909316
 21
13.449999973286396
 31
0.0
  0
LINE
  5
CE
100
AcDbEntity
  8
0
  6
CONTINUOUS
 62
               7
100
AcDbLine
 10
-9.0121320343568811
 20
12.337867938930501
 30
0.0
 11
-8.4121320343567731
 21
12.937867938930594
 31
0.0
  0
LINE
  5
CF
100
AcDbEntity
  8
0
  6
CONTINUOUS
 62
               7
100
AcDbLine
 10
-10.703580838983385
 20
12.249999973286265
 30
0.0
 11
-9.2242640687128414
 21
12.249999973286464
 31
0.0
  0
LINE
  5
D0
100
AcDbEntity
  8
0
  6
CONTINUOUS
 62
               7
100
AcDbLine
 10
-11.369450975196003
 20
12.977927042381083
 30
0.0
 11
-10.9493264522701
 21
12.377927042380961
 31
0.0
  0
LINE
  5
D1
100
AcDbEntity
  8
0
  6
CONTINUOUS
 62
               7
100
AcDbLine
 10
-4.5694509751960055
 20
12.977927042381083
 30
0.0
 11
-4.1493264522701025
 21
12.377927042380961
 31
0.0
  0
LINE
  5
D2
100
AcDbEntity
  8
0
  6
CONTINUOUS
 62
               7
100
AcDbLine
 10
-3.9035808389833875
 20
12.249999973286265
 30
0.0
 11
-2.4242640687128443
 21
12.249999973286464
 31
0.0
  0
LINE
  5
D3
100
AcDbEntity
  8
0
  6
CONTINUOUS
 62
               7
100
AcDbLine
 10
-2.212132034356884
 20
12.337867938930501
 30
0.0
 11
-1.612132034356776
 21
12.937867938930594
 31
0.0
  0
LINE
  5
D4
100
AcDbEntity
  8
0
  6
CONTINUOUS
 62
               7
100
AcDbLine
 10
-1.8242640687127931
 20
13.449999973286538
 30
0.0
 11
-4.3237053619093189
 21
13.449999973286396
 31
0.0
  0
LINE
  5
D5
100
AcDbEntity
  8
0
  6
CONTINUOUS
 62
               7
100
AcDbLine
 10
-5.381233578550237
 20
12.243516842822658
 30
0.0
 11
-5.6126214944739701
 21
9.5987408615900591
 31
0.0
  0
LINE
  5
D6
100
AcDbEntity
  8
0
  6
CONTINUOUS
 62
               7
100
AcDbLine
 10
-5.5258951194024206
 20
9.3604621044097911
 30
0.0
 11
-5.2831085380202722
 21
9.1176755230276427
 31
0.0
  0
LINE
  5
D7
100
AcDbEntity
  8
0
  6
CONTINUOUS
 62
               7
100
AcDbLine
 10
-4.8588444693083517
 20
9.1176755230276285
 30
0.0
 11
-4.4881485293282566
 21
9.4883714630077378
 31
0.0
  0
LINE
  5
D8
100
AcDbEntity
  8
0
  6
CONTINUOUS
 62
               7
100
AcDbLine
 10
-4.4014221542567071
 20
9.6743567745393761
 30
0.0
 11
-4.2481208425610504
 21
11.426598785300754
 31
0.0
  0
LINE
  5
D9
100
AcDbEntity
  8
0
  6
CONTINUOUS
 62
               7
100
AcDbLine
 10
-4.3012336387018451
 20
11.624818439030363
 30
0.0
 11
-4.8366295558359838
 21
12.389443050903623
 31
0.0
  0
LINE
  5
DA
100
AcDbEntity
  8
0
  6
CONTINUOUS
 62
               7
100
AcDbLine
 10
-2.0400695585066018
 20
11.623411646125064
 30
0.0
 11
-2.2172052995257019
 21
9.5987408615900591
 31
0.0
  0
LINE
  5
DB
100
AcDbEntity
  8
0
  6
CONTINUOUS
 62
               7
100
AcDbLine
 10
-2.1304789244541809
 20
9.3604621044097485
 30
0.0
 11
-1.8876923430720609
 21
9.1176755230276427
 31
0.0
  0
LINE
  5
DC
100
AcDbEntity
  8
0
  6
CONTINUOUS
 62
               7
100
AcDbLine
 10
-1.4634282743601119
 20
9.1176755230276285
 30
0.0
 11
-1.0927323343800452
 21
9.4883714630077378
 31
0.0
  0
LINE
  5
DD
100
AcDbEntity
  8
0
  6
CONTINUOUS
 62
               7
100
AcDbLine
 10
-1.0060059593084389
 20
9.6743567745393761
 30
0.0
 11
-0.7823150190756252
 21
12.231155921052391
 31
0.0
  0
LINE
  5
DE
100
AcDbEntity
  8
0
  6
CONTINUOUS
 62
               7
100
AcDbLine
 10
-1.2933054628591236
 20
12.469434678232659
 30
0.0
 11
-1.9533431834350523
 21
11.809396957656702
 31
0.0
  0
LINE
  5
DF
100
AcDbEntity
  8
0
  6
CONTINUOUS
 62
               7
100
AcDbLine
 10
-2.3983798869577271
 20
7.5279058513158077
 30
0.0
 11
-2.5518791574397284
 21
5.7734011612722895
 31
0.0
  0
LINE
  5
E0
100
AcDbEntity
  8
0
  6
CONTINUOUS
 62
               7
100
AcDbLine
 10
-2.4987663612989337
 20
5.5751815075426947
 30
0.0
 11
-1.9633704441648234
 21
4.810556895669464
 31
0.0
  0
LINE
  5
E1
100
AcDbEntity
  8
0
  6
CONTINUOUS
 62
               7
100
AcDbLine
 10
-1.4187664214505418
 20
4.9564831037504007
 30
0.0
 11
-1.1871805467404357
 21
7.6035217642651389
 31
0.0
  0
LINE
  5
E2
100
AcDbEntity
  8
0
  6
CONTINUOUS
 62
               7
100
AcDbLine
 10
-1.2739069218119852
 20
7.8418005214454354
 30
0.0
 11
-1.5166935031941335
 21
8.0845871028275553
 31
0.0
  0
LINE
  5
E3
100
AcDbEntity
  8
0
  6
CONTINUOUS
 62
               7
100
AcDbLine
 10
-1.9409575719060541
 20
8.0845871028275553
 30
0.0
 11
-2.3116535118861776
 21
7.7138911628474602
 31
0.0
  0
LINE
  5
E4
100
AcDbEntity
  8
0
  6
CONTINUOUS
 62
               7
100
AcDbLine
 10
-2.8242640687125657
 20
9.1999999732864097
 30
0.0
 11
-3.9257359312886848
 21
9.1999999732864097
 31
0.0
  0
LINE
  5
E5
100
AcDbEntity
  8
0
  6
CONTINUOUS
 62
               7
100
AcDbLine
 10
-4.1378679656446167
 20
9.1121320076424013
 30
0.0
 11
-4.4628679656446337
 21
8.78713200764237
 31
0.0
  0
LINE
  5
E6
100
AcDbEntity
  8
0
  6
CONTINUOUS
 62
               7
100
AcDbLine
 10
-4.4628679656446337
 20
8.3628679389304494
 30
0.0
 11
-4.1878679656445428
 21
8.0878679389303585
 31
0.0
  0
LINE
  5
E7
100
AcDbEntity
  8
0
  6
CONTINUOUS
 62
               7
100
AcDbLine
 10
-3.9757359312885825
 20
7.9999999732863216
 30
0.0
 11
-2.8742640687123782
 21
7.9999999732864211
 31
0.0
  0
LINE
  5
E8
100
AcDbEntity
  8
0
  6
CONTINUOUS
 62
               7
100
AcDbLine
 10
-2.6621320343565031
 20
8.087867938930458
 30
0.0
 11
-2.3371320343565145
 21
8.412867938930404
 31
0.0
  0
LINE
  5
E9
100
AcDbEntity
  8
0
  6
CONTINUOUS
 62
               7
100
AcDbLine
 10
-2.3371320343565145
 20
8.8371320076423387
 30
0.0
 11
-2.6121320343565486
 21
9.1121320076423729
 31
0.0
  0
LINE
  5
EA
100
AcDbEntity
  8
0
  6
CONTINUOUS
 62
               7
100
AcDbLine
 10
-5.347049214162908
 20
8.0845871028275411
 30
0.0
 11
-5.7177451541430031
 21
7.713891162847446
 31
0.0
  0
LINE
  5
EB
100
AcDbEntity
  8
0
  6
CONTINUOUS
 62
               7
100
AcDbLine
 10
-5.8044715292145526
 20
7.5279058513158077
 30
0.0
 11
-6.0281624694474232
 21
4.9711067048027928
 31
0.0
  0
LINE
  5
EC
100
AcDbEntity
  8
0
  6
CONTINUOUS
 62
               7
100
AcDbLine
 10
-5.5171720256639531
 20
4.7328279476225248
 30
0.0
 11
-4.857134305087996
 21
5.3928656681984819
 31
0.0
  0
LINE
  5
ED
100
AcDbEntity
  8
0
  6
CONTINUOUS
 62
               7
100
AcDbLine
 10
-4.7704079300164466
 20
5.5788509797301344
 30
0.0
 11
-4.593272188997318
 21
7.6035217642651389
 31
0.0
  0
LINE
  5
EE
100
AcDbEntity
  8
0
  6
CONTINUOUS
 62
               7
100
AcDbLine
 10
-4.6799985640688675
 20
7.8418005214454354
 30
0.0
 11
-4.9227851454509874
 21
8.0845871028275411
 31
0.0
  0
LINE
  5
EF
100
AcDbEntity
  8
0
  6
CONTINUOUS
 62
               7
100
AcDbLine
 10
-2.2305490248048017
 20
4.2220729041919753
 30
0.0
 11
-2.6506735477307046
 21
4.8220729041920833
 31
0.0
  0
LINE
  5
F0
100
AcDbEntity
  8
0
  6
CONTINUOUS
 62
               7
100
AcDbLine
 10
-2.8964191610173913
 20
4.9499999732867934
 30
0.0
 11
-4.3757359312879629
 21
4.9499999732866229
 31
0.0
  0
LINE
  5
F1
100
AcDbEntity
  8
0
  6
CONTINUOUS
 62
               7
100
AcDbLine
 10
-4.5878679656438948
 20
4.8621320076425718
 30
0.0
 11
-5.1878679656440028
 21
4.2621320076424638
 31
0.0
  0
LINE
  5
F2
100
AcDbEntity
  8
0
  6
CONTINUOUS
 62
               7
100
AcDbLine
 10
-4.9757359312880141
 20
3.7499999732865206
 30
0.0
 11
-2.4762946380914883
 21
3.7499999732866627
 31
0.0
  0
ARC
  5
F3
100
AcDbEntity
  8
0
  6
CONTINUOUS
 62
               7
100
AcDbCircle
 10
-4.3237053619093189
 20
13.149999973286398
 30
0.0
 40
0.3000000000000007
100
AcDbArc
 50
90.0
 51
215.00000000000026
  0
ARC
  5
F4
100
AcDbEntity
  8
0
  6
CONTINUOUS
 62
               7
100
AcDbCircle
 10
-3.9035808389834159
 20
12.549999973286262
 30
0.0
 40
0.3000000000000008
100
AcDbArc
 50
214.99999999999926
 51
270.0000000000075
  0
ARC
  5
F5
100
AcDbEntity
  8
0
  6
CONTINUOUS
 62
               7
100
AcDbCircle
 10
-2.4242640687128443
 20
12.549999973286475
 30
0.0
 40
0.3000000000000007
100
AcDbArc
 50
270.0
 51
315.00000000000045
  0
ARC
  5
F6
100
AcDbEntity
  8
0
  6
CONTINUOUS
 62
               7
100
AcDbCircle
 10
-1.8242640687127931
 20
13.149999973286555
 30
0.0
 40
0.3000000000000007
100
AcDbArc
 50
315.00000000000409
 51
90.000000000003411
  0
ARC
  5
F7
100
AcDbEntity
  8
0
  6
CONTINUOUS
 62
               7
100
AcDbCircle
 10
-5.0823751691227272
 20
12.217370119998336
 30
0.0
 40
0.2999999999999996
100
AcDbArc
 50
34.999999999990493
 51
174.99999999999528
  0
ARC
  5
F8
100
AcDbEntity
  8
0
  6
CONTINUOUS
 62
               7
100
AcDbCircle
 10
-5.3137630850464603
 20
9.5725941387657514
 30
0.0
 40
0.299999999999999
100
AcDbArc
 50
174.99999999999787
 51
224.99999999999909
  0
ARC
  5
F9
100
AcDbEntity
  8
0
  6
CONTINUOUS
 62
               7
100
AcDbCircle
 10
-5.0709765036643404
 20
9.329807557383603
 30
0.0
 40
0.3000000000000007
100
AcDbArc
 50
225.0
 51
314.99999999999977
  0
ARC
  5
FA
100
AcDbEntity
  8
0
  6
CONTINUOUS
 62
               7
100
AcDbCircle
 10
-4.7002805636842169
 20
9.7005034973636981
 30
0.0
 40
0.3000000000000007
100
AcDbArc
 50
315.00000000000193
 51
354.99999999999494
  0
ARC
  5
FB
100
AcDbEntity
  8
0
  6
CONTINUOUS
 62
               7
100
AcDbCircle
 10
-4.5469792519885885
 20
11.452745508125091
 30
0.0
 40
0.300000000000006
100
AcDbArc
 50
354.99999999999267
 51
34.999999999990294
  0
ARC
  5
FC
100
AcDbEntity
  8
0
  6
CONTINUOUS
 62
               7
100
AcDbCircle
 10
-1.741211149079092
 20
11.597264923300742
 30
0.0
 40
0.300000000000002
100
AcDbArc
 50
135.00000000000045
 51
174.99999999999531
  0
ARC
  5
FD
100
AcDbEntity
  8
0
  6
CONTINUOUS
 62
               7
100
AcDbCircle
 10
-1.9183468900982206
 20
9.572594138765723
 30
0.0
 40
0.300000000000006
100
AcDbArc
 50
174.99999999999238
 51
224.99999999999949
  0
ARC
  5
FE
100
AcDbEntity
  8
0
  6
CONTINUOUS
 62
               7
100
AcDbCircle
 10
-1.6755603087160722
 20
9.329807557383603
 30
0.0
 40
0.3000000000000007
100
AcDbArc
 50
225.0
 51
314.99999999999977
  0
ARC
  5
FF
100
AcDbEntity
  8
0
  6
CONTINUOUS
 62
               7
100
AcDbCircle
 10
-1.3048643687359487
 20
9.7005034973636981
 30
0.0
 40
0.3000000000000013
100
AcDbArc
 50
314.99999999999619
 51
354.99999999999523
  0
ARC
  5
100
100
AcDbEntity
  8
0
  6
CONTINUOUS
 62
               7
100
AcDbCircle
 10
-1.0811734285031633
 20
12.257302643876685
 30
0.0
 40
0.300000000000006
100
AcDbArc
 50
354.99999999999881
 51
134.99999999999955
  0
ARC
  5
101
100
AcDbEntity
  8
0
  6
CONTINUOUS
 62
               7
100
AcDbCircle
 10
-2.0995214775302173
 20
7.5017591284914857
 30
0.0
 40
0.3000000000000007
100
AcDbArc
 50
134.99999999999974
 51
174.99999999999511
  0
ARC
  5
102
100
AcDbEntity
  8
0
  6
CONTINUOUS
 62
               7
100
AcDbCircle
 10
-2.2530207480122186
 20
5.7472544384479676
 30
0.0
 40
0.2999999999999954
100
AcDbArc
 50
174.99999999999511
 51
214.99999999999019
  0
ARC
  5
103
100
AcDbEntity
  8
0
  6
CONTINUOUS
 62
               7
100
AcDbCircle
 10
-1.7176248308780515
 20
4.9826298265747084
 30
0.0
 40
0.3000000000000004
100
AcDbArc
 50
214.99999999998639
 51
354.99999999999523
  0
ARC
  5
104
100
AcDbEntity
  8
0
  6
CONTINUOUS
 62
               7
100
AcDbCircle
 10
-1.4860389561679455
 20
7.6296684870894609
 30
0.0
 40
0.300000000000006
100
AcDbArc
 50
354.99999999999511
 51
45.000000000000455
  0
ARC
  5
105
100
AcDbEntity
  8
0
  6
CONTINUOUS
 62
               7
100
AcDbCircle
 10
-1.7288255375500938
 20
7.8724550684715808
 30
0.0
 40
0.3000000000000013
100
AcDbArc
 50
45.000000000003361
 51
134.99999999999974
  0
ARC
  5
106
100
AcDbEntity
  8
0
  6
CONTINUOUS
 62
               7
100
AcDbCircle
 10
-3.9257359312886848
 20
8.8999999732864268
 30
0.0
 40
0.3000000000000007
100
AcDbArc
 50
90.0
 51
134.99999999999974
  0
ARC
  5
107
100
AcDbEntity
  8
0
  6
CONTINUOUS
 62
               7
100
AcDbCircle
 10
-4.2507359312886734
 20
8.5749999732864097
 30
0.0
 40
0.3000000000000013
100
AcDbArc
 50
134.99999999999994
 51
224.99999999999923
  0
ARC
  5
108
100
AcDbEntity
  8
0
  6
CONTINUOUS
 62
               7
100
AcDbCircle
 10
-3.9757359312885825
 20
8.2999999732863188
 30
0.0
 40
0.3
100
AcDbArc
 50
225.0
 51
270.0
  0
ARC
  5
109
100
AcDbEntity
  8
0
  6
CONTINUOUS
 62
               7
100
AcDbCircle
 10
-2.874264068712435
 20
8.2999999732864183
 30
0.0
 40
0.3000000000000007
100
AcDbArc
 50
270.00000000001091
 51
314.99999999999977
  0
ARC
  5
10A
100
AcDbEntity
  8
0
  6
CONTINUOUS
 62
               7
100
AcDbCircle
 10
-2.5492640687124748
 20
8.6249999732863643
 30
0.0
 40
0.3000000000000013
100
AcDbArc
 50
314.99999999999619
 51
45.000000000004583
  0
ARC
  5
10B
100
AcDbEntity
  8
0
  6
CONTINUOUS
 62
               7
100
AcDbCircle
 10
-2.8242640687125657
 20
8.8999999732864268
 30
0.0
 40
0.3
100
AcDbArc
 50
44.999999999994252
 51
90.0
  0
ARC
  5
10C
100
AcDbEntity
  8
0
  6
CONTINUOUS
 62
               7
100
AcDbCircle
 10
-5.5056131197870428
 20
7.5017591284914857
 30
0.0
 40
0.3000000000000007
100
AcDbArc
 50
134.99999999999994
 51
174.99999999999528
  0
ARC
  5
10D
100
AcDbEntity
  8
0
  6
CONTINUOUS
 62
               7
100
AcDbCircle
 10
-5.7293040600199134
 20
4.9449599819784851
 30
0.0
 40
0.2999999999999954
100
AcDbArc
 50
174.99999999999523
 51
315.00000000000006
  0
ARC
  5
10E
100
AcDbEntity
  8
0
  6
CONTINUOUS
 62
               7
100
AcDbCircle
 10
-5.0692663394439563
 20
5.6049977025544564
 30
0.0
 40
0.300000000000001
100
AcDbArc
 50
314.99999999999812
 51
354.99999999999545
  0
ARC
  5
10F
100
AcDbEntity
  8
0
  6
CONTINUOUS
 62
               7
100
AcDbCircle
 10
-4.8921305984248278
 20
7.6296684870894609
 30
0.0
 40
0.300000000000006
100
AcDbArc
 50
354.99999999999534
 51
45.0000000000027
  0
ARC
  5
110
100
AcDbEntity
  8
0
  6
CONTINUOUS
 62
               7
100
AcDbCircle
 10
-5.1349171798069477
 20
7.8724550684715808
 30
0.0
 40
0.3000000000000007
100
AcDbArc
 50
45.0
 51
135.0
  0
ARC
  5
111
100
AcDbEntity
  8
0
  6
CONTINUOUS
 62
               7
100
AcDbCircle
 10
-2.4762946380914883
 20
4.0499999732866456
 30
0.0
 40
0.3000000000000007
100
AcDbArc
 50
270.00000000000341
 51
35.000000000000213
  0
ARC
  5
112
100
AcDbEntity
  8
0
  6
CONTINUOUS
 62
               7
100
AcDbCircle
 10
-2.8964191610173913
 20
4.6499999732867821
 30
0.0
 40
0.2999999999999996
100
AcDbArc
 50
34.99999999999838
 51
90.0
  0
ARC
  5
113
100
AcDbEntity
  8
0
  6
CONTINUOUS
 62
               7
100
AcDbCircle
 10
-4.3757359312879345
 20
4.6499999732866115
 30
0.0
 40
0.3000000000000007
100
AcDbArc
 50
90.000000000005443
 51
134.9999999999998
  0
ARC
  5
114
100
AcDbEntity
  8
0
  6
CONTINUOUS
 62
               7
100
AcDbCircle
 10
-4.9757359312880141
 20
4.0499999732865319
 30
0.0
 40
0.3000000000000007
100
AcDbArc
 50
135.00000000000199
 51
270.00000000000006
  0
LINE
  5
115
100
AcDbEntity
  8
0
  6
CONTINUOUS
 62
               7
100
AcDbLine
 10
2.2305490248039916
 20
12.977927042381083
 30
0.0
 11
2.6506735477298946
 21
12.377927042380961
 31
0.0
  0
LINE
  5
116
100
AcDbEntity
  8
0
  6
CONTINUOUS
 62
               7
100
AcDbLine
 10
2.8964191610166097
 20
12.249999973286265
 30
0.0
 11
4.3757359312871529
 21
12.249999973286464
 31
0.0
  0
LINE
  5
117
100
AcDbEntity
  8
0
  6
CONTINUOUS
 62
               7
100
AcDbLine
 10
4.5878679656431132
 20
12.337867938930501
 30
0.0
 11
5.1878679656432212
 21
12.937867938930594
 31
0.0
  0
LINE
  5
118
100
AcDbEntity
  8
0
  6
CONTINUOUS
 62
               7
100
AcDbLine
 10
4.975735931287204
 20
13.449999973286538
 30
0.0
 11
2.4762946380906783
 21
13.449999973286396
 31
0.0
  0
LINE
  5
119
100
AcDbEntity
  8
0
  6
CONTINUOUS
 62
               7
100
AcDbLine
 10
1.4187664214497602
 20
12.243516842822658
 30
0.0
 11
1.1873785055260271
 21
9.5987408615900591
 31
0.0
  0
LINE
  5
11A
100
AcDbEntity
  8
0
  6
CONTINUOUS
 62
               7
100
AcDbLine
 10
1.2741048805975765
 20
9.3604621044097911
 30
0.0
 11
1.5168914619797249
 21
9.1176755230276427
 31
0.0
  0
LINE
  5
11B
100
AcDbEntity
  8
0
  6
CONTINUOUS
 62
               7
100
AcDbLine
 10
1.9411555306916455
 20
9.1176755230276285
 30
0.0
 11
2.3118514706717406
 21
9.4883714630077378
 31
0.0
  0
LINE
  5
11C
100
AcDbEntity
  8
0
  6
CONTINUOUS
 62
               7
100
AcDbLine
 10
2.39857784574329
 20
9.6743567745393761
 30
0.0
 11
2.5518791574389468
 21
11.426598785300754
 31
0.0
  0
LINE
  5
11D
100
AcDbEntity
  8
0
  6
CONTINUOUS
 62
               7
100
AcDbLine
 10
2.4987663612981521
 20
11.624818439030363
 30
0.0
 11
1.9633704441640134
 21
12.389443050903623
 31
0.0
  0
LINE
  5
11E
100
AcDbEntity
  8
0
  6
CONTINUOUS
 62
               7
100
AcDbLine
 10
4.7599304414933954
 20
11.623411646125064
 30
0.0
 11
4.5827947004742953
 21
9.5987408615900591
 31
0.0
  0
LINE
  5
11F
100
AcDbEntity
  8
0
  6
CONTINUOUS
 62
               7
100
AcDbLine
 10
4.6695210755458163
 20
9.3604621044097485
 30
0.0
 11
4.9123076569279363
 21
9.1176755230276427
 31
0.0
  0
LINE
  5
120
100
AcDbEntity
  8
0
  6
CONTINUOUS
 62
               7
100
AcDbLine
 10
5.3365717256398852
 20
9.1176755230276285
 30
0.0
 11
5.7072676656199519
 21
9.4883714630077378
 31
0.0
  0
LINE
  5
121
100
AcDbEntity
  8
0
  6
CONTINUOUS
 62
               7
100
AcDbLine
 10
5.7939940406915582
 20
9.6743567745393761
 30
0.0
 11
6.017684980924372
 21
12.231155921052391
 31
0.0
  0
LINE
  5
122
100
AcDbEntity
  8
0
  6
CONTINUOUS
 62
               7
100
AcDbLine
 10
5.5066945371408735
 20
12.469434678232659
 30
0.0
 11
4.8466568165649448
 21
11.809396957656702
 31
0.0
  0
LINE
  5
123
100
AcDbEntity
  8
0
  6
CONTINUOUS
 62
               7
100
AcDbLine
 10
4.4016201130422701
 20
7.5279058513158077
 30
0.0
 11
4.2481208425602688
 21
5.7734011612722895
 31
0.0
  0
LINE
  5
124
100
AcDbEntity
  8
0
  6
CONTINUOUS
 62
               7
100
AcDbLine
 10
4.3012336387010635
 20
5.5751815075426947
 30
0.0
 11
4.8366295558351737
 21
4.810556895669464
 31
0.0
  0
LINE
  5
125
100
AcDbEntity
  8
0
  6
CONTINUOUS
 62
               7
100
AcDbLine
 10
5.3812335785494554
 20
4.9564831037504007
 30
0.0
 11
5.6128194532595614
 21
7.6035217642651389
 31
0.0
  0
LINE
  5
126
100
AcDbEntity
  8
0
  6
CONTINUOUS
 62
               7
100
AcDbLine
 10
5.526093078188012
 20
7.8418005214454354
 30
0.0
 11
5.2833064968058636
 21
8.0845871028275553
 31
0.0
  0
LINE
  5
127
100
AcDbEntity
  8
0
  6
CONTINUOUS
 62
               7
100
AcDbLine
 10
4.859042428093943
 20
8.0845871028275553
 30
0.0
 11
4.4883464881138195
 21
7.7138911628474602
 31
0.0
  0
LINE
  5
128
100
AcDbEntity
  8
0
  6
CONTINUOUS
 62
               7
100
AcDbLine
 10
3.9757359312874314
 20
9.1999999732864097
 30
0.0
 11
2.8742640687113123
 21
9.1999999732864097
 31
0.0
  0
LINE
  5
129
100
AcDbEntity
  8
0
  6
CONTINUOUS
 62
               7
100
AcDbLine
 10
2.6621320343553805
 20
9.1121320076424013
 30
0.0
 11
2.3371320343553634
 21
8.78713200764237
 31
0.0
  0
LINE
  5
12A
100
AcDbEntity
  8
0
  6
CONTINUOUS
 62
               7
100
AcDbLine
 10
2.3371320343553634
 20
8.3628679389304494
 30
0.0
 11
2.6121320343554544
 21
8.0878679389303585
 31
0.0
  0
LINE
  5
12B
100
AcDbEntity
  8
0
  6
CONTINUOUS
 62
               7
100
AcDbLine
 10
2.8242640687114147
 20
7.9999999732863216
 30
0.0
 11
3.925735931287619
 21
7.9999999732864211
 31
0.0
  0
LINE
  5
12C
100
AcDbEntity
  8
0
  6
CONTINUOUS
 62
               7
100
AcDbLine
 10
4.137867965643494
 20
8.087867938930458
 30
0.0
 11
4.4628679656434826
 21
8.412867938930404
 31
0.0
  0
LINE
  5
12D
100
AcDbEntity
  8
0
  6
CONTINUOUS
 62
               7
100
AcDbLine
 10
4.4628679656434826
 20
8.8371320076423387
 30
0.0
 11
4.1878679656434485
 21
9.1121320076423729
 31
0.0
  0
LINE
  5
12E
100
AcDbEntity
  8
0
  6
CONTINUOUS
 62
               7
100
AcDbLine
 10
1.4529507858370891
 20
8.0845871028275411
 30
0.0
 11
1.0822548458569941
 21
7.713891162847446
 31
0.0
  0
LINE
  5
12F
100
AcDbEntity
  8
0
  6
CONTINUOUS
 62
               7
100
AcDbLine
 10
0.9955284707854446
 20
7.5279058513158077
 30
0.0
 11
0.771837530552574
 21
4.9711067048027928
 31
0.0
  0
LINE
  5
130
100
AcDbEntity
  8
0
  6
CONTINUOUS
 62
               7
100
AcDbLine
 10
1.282827974336044
 20
4.7328279476225248
 30
0.0
 11
1.9428656949120011
 21
5.3928656681984819
 31
0.0
  0
LINE
  5
131
100
AcDbEntity
  8
0
  6
CONTINUOUS
 62
               7
100
AcDbLine
 10
2.0295920699835506
 20
5.5788509797301344
 30
0.0
 11
2.2067278110026791
 21
7.6035217642651389
 31
0.0
  0
LINE
  5
132
100
AcDbEntity
  8
0
  6
CONTINUOUS
 62
               7
100
AcDbLine
 10
2.1200014359311297
 20
7.8418005214454354
 30
0.0
 11
1.8772148545490097
 21
8.0845871028275411
 31
0.0
  0
LINE
  5
133
100
AcDbEntity
  8
0
  6
CONTINUOUS
 62
               7
100
AcDbLine
 10
4.5694509751951955
 20
4.2220729041919753
 30
0.0
 11
4.1493264522692925
 21
4.8220729041920833
 31
0.0
  0
LINE
  5
134
100
AcDbEntity
  8
0
  6
CONTINUOUS
 62
               7
100
AcDbLine
 10
3.9035808389826059
 20
4.9499999732867934
 30
0.0
 11
2.4242640687120343
 21
4.9499999732866229
 31
0.0
  0
LINE
  5
135
100
AcDbEntity
  8
0
  6
CONTINUOUS
 62
               7
100
AcDbLine
 10
2.2121320343561024
 20
4.8621320076425718
 30
0.0
 11
1.6121320343559944
 21
4.2621320076424638
 31
0.0
  0
LINE
  5
136
100
AcDbEntity
  8
0
  6
CONTINUOUS
 62
               7
100
AcDbLine
 10
1.8242640687119831
 20
3.7499999732865206
 30
0.0
 11
4.3237053619085088
 21
3.7499999732866627
 31
0.0
  0
ARC
  5
137
100
AcDbEntity
  8
0
  6
CONTINUOUS
 62
               7
100
AcDbCircle
 10
2.4762946380906783
 20
13.149999973286398
 30
0.0
 40
0.3000000000000007
100
AcDbArc
 50
90.0
 51
215.00000000000026
  0
ARC
  5
138
100
AcDbEntity
  8
0
  6
CONTINUOUS
 62
               7
100
AcDbCircle
 10
2.8964191610165813
 20
12.549999973286262
 30
0.0
 40
0.3000000000000008
100
AcDbArc
 50
214.99999999999926
 51
270.0000000000075
  0
ARC
  5
139
100
AcDbEntity
  8
0
  6
CONTINUOUS
 62
               7
100
AcDbCircle
 10
4.3757359312871529
 20
12.549999973286475
 30
0.0
 40
0.3000000000000007
100
AcDbArc
 50
270.0
 51
315.00000000000045
  0
ARC
  5
13A
100
AcDbEntity
  8
0
  6
CONTINUOUS
 62
               7
100
AcDbCircle
 10
4.975735931287204
 20
13.149999973286555
 30
0.0
 40
0.3000000000000007
100
AcDbArc
 50
315.00000000000409
 51
90.000000000003411
  0
ARC
  5
13B
100
AcDbEntity
  8
0
  6
CONTINUOUS
 62
               7
100
AcDbCircle
 10
1.7176248308772699
 20
12.217370119998336
 30
0.0
 40
0.2999999999999996
100
AcDbArc
 50
34.999999999990493
 51
174.99999999999528
  0
ARC
  5
13C
100
AcDbEntity
  8
0
  6
CONTINUOUS
 62
               7
100
AcDbCircle
 10
1.4862369149535368
 20
9.5725941387657514
 30
0.0
 40
0.299999999999999
100
AcDbArc
 50
174.99999999999787
 51
224.99999999999909
  0
ARC
  5
13D
100
AcDbEntity
  8
0
  6
CONTINUOUS
 62
               7
100
AcDbCircle
 10
1.7290234963356568
 20
9.329807557383603
 30
0.0
 40
0.3000000000000007
100
AcDbArc
 50
225.0
 51
314.99999999999977
  0
ARC
  5
13E
100
AcDbEntity
  8
0
  6
CONTINUOUS
 62
               7
100
AcDbCircle
 10
2.0997194363157803
 20
9.7005034973636981
 30
0.0
 40
0.3000000000000007
100
AcDbArc
 50
315.00000000000193
 51
354.99999999999494
  0
ARC
  5
13F
100
AcDbEntity
  8
0
  6
CONTINUOUS
 62
               7
100
AcDbCircle
 10
2.2530207480114086
 20
11.452745508125091
 30
0.0
 40
0.300000000000006
100
AcDbArc
 50
354.99999999999267
 51
34.999999999990294
  0
ARC
  5
140
100
AcDbEntity
  8
0
  6
CONTINUOUS
 62
               7
100
AcDbCircle
 10
5.0587888509209051
 20
11.597264923300742
 30
0.0
 40
0.300000000000002
100
AcDbArc
 50
135.00000000000045
 51
174.99999999999531
  0
ARC
  5
141
100
AcDbEntity
  8
0
  6
CONTINUOUS
 62
               7
100
AcDbCircle
 10
4.8816531099017766
 20
9.572594138765723
 30
0.0
 40
0.300000000000006
100
AcDbArc
 50
174.99999999999238
 51
224.99999999999949
  0
ARC
  5
142
100
AcDbEntity
  8
0
  6
CONTINUOUS
 62
               7
100
AcDbCircle
 10
5.124439691283925
 20
9.329807557383603
 30
0.0
 40
0.3000000000000007
100
AcDbArc
 50
225.0
 51
314.99999999999977
  0
ARC
  5
143
100
AcDbEntity
  8
0
  6
CONTINUOUS
 62
               7
100
AcDbCircle
 10
5.4951356312640485
 20
9.7005034973636981
 30
0.0
 40
0.3000000000000013
100
AcDbArc
 50
314.99999999999619
 51
354.99999999999523
  0
ARC
  5
144
100
AcDbEntity
  8
0
  6
CONTINUOUS
 62
               7
100
AcDbCircle
 10
5.7188265714968338
 20
12.257302643876685
 30
0.0
 40
0.300000000000006
100
AcDbArc
 50
354.99999999999881
 51
134.99999999999955
  0
ARC
  5
145
100
AcDbEntity
  8
0
  6
CONTINUOUS
 62
               7
100
AcDbCircle
 10
4.7004785224697798
 20
7.5017591284914857
 30
0.0
 40
0.3000000000000007
100
AcDbArc
 50
134.99999999999974
 51
174.99999999999511
  0
ARC
  5
146
100
AcDbEntity
  8
0
  6
CONTINUOUS
 62
               7
100
AcDbCircle
 10
4.5469792519877785
 20
5.7472544384479676
 30
0.0
 40
0.2999999999999954
100
AcDbArc
 50
174.99999999999511
 51
214.99999999999019
  0
ARC
  5
147
100
AcDbEntity
  8
0
  6
CONTINUOUS
 62
               7
100
AcDbCircle
 10
5.0823751691219456
 20
4.9826298265747084
 30
0.0
 40
0.3000000000000004
100
AcDbArc
 50
214.99999999998639
 51
354.99999999999523
  0
ARC
  5
148
100
AcDbEntity
  8
0
  6
CONTINUOUS
 62
               7
100
AcDbCircle
 10
5.3139610438320517
 20
7.6296684870894609
 30
0.0
 40
0.300000000000006
100
AcDbArc
 50
354.99999999999511
 51
45.000000000000455
  0
ARC
  5
149
100
AcDbEntity
  8
0
  6
CONTINUOUS
 62
               7
100
AcDbCircle
 10
5.0711744624499033
 20
7.8724550684715808
 30
0.0
 40
0.3000000000000013
100
AcDbArc
 50
45.000000000003361
 51
134.99999999999974
  0
ARC
  5
14A
100
AcDbEntity
  8
0
  6
CONTINUOUS
 62
               7
100
AcDbCircle
 10
2.8742640687113123
 20
8.8999999732864268
 30
0.0
 40
0.3000000000000007
100
AcDbArc
 50
90.0
 51
134.99999999999974
  0
ARC
  5
14B
100
AcDbEntity
  8
0
  6
CONTINUOUS
 62
               7
100
AcDbCircle
 10
2.5492640687113237
 20
8.5749999732864097
 30
0.0
 40
0.3000000000000013
100
AcDbArc
 50
134.99999999999994
 51
224.99999999999923
  0
ARC
  5
14C
100
AcDbEntity
  8
0
  6
CONTINUOUS
 62
               7
100
AcDbCircle
 10
2.8242640687114147
 20
8.2999999732863188
 30
0.0
 40
0.3
100
AcDbArc
 50
225.0
 51
270.0
  0
ARC
  5
14D
100
AcDbEntity
  8
0
  6
CONTINUOUS
 62
               7
100
AcDbCircle
 10
3.9257359312875622
 20
8.2999999732864183
 30
0.0
 40
0.3000000000000007
100
AcDbArc
 50
270.00000000001091
 51
314.99999999999977
  0
ARC
  5
14E
100
AcDbEntity
  8
0
  6
CONTINUOUS
 62
               7
100
AcDbCircle
 10
4.2507359312875224
 20
8.6249999732863643
 30
0.0
 40
0.3000000000000013
100
AcDbArc
 50
314.99999999999619
 51
45.000000000004583
  0
ARC
  5
14F
100
AcDbEntity
  8
0
  6
CONTINUOUS
 62
               7
100
AcDbCircle
 10
3.9757359312874314
 20
8.8999999732864268
 30
0.0
 40
0.3
100
AcDbArc
 50
44.999999999994252
 51
90.0
  0
ARC
  5
150
100
AcDbEntity
  8
0
  6
CONTINUOUS
 62
               7
100
AcDbCircle
 10
1.2943868802129543
 20
7.5017591284914857
 30
0.0
 40
0.3000000000000007
100
AcDbArc
 50
134.99999999999994
 51
174.99999999999528
  0
ARC
  5
151
100
AcDbEntity
  8
0
  6
CONTINUOUS
 62
               7
100
AcDbCircle
 10
1.0706959399800837
 20
4.9449599819784851
 30
0.0
 40
0.2999999999999954
100
AcDbArc
 50
174.99999999999523
 51
315.00000000000006
  0
ARC
  5
152
100
AcDbEntity
  8
0
  6
CONTINUOUS
 62
               7
100
AcDbCircle
 10
1.7307336605560408
 20
5.6049977025544564
 30
0.0
 40
0.300000000000001
100
AcDbArc
 50
314.99999999999812
 51
354.99999999999545
  0
ARC
  5
153
100
AcDbEntity
  8
0
  6
CONTINUOUS
 62
               7
100
AcDbCircle
 10
1.9078694015751694
 20
7.6296684870894609
 30
0.0
 40
0.300000000000006
100
AcDbArc
 50
354.99999999999534
 51
45.0000000000027
  0
ARC
  5
154
100
AcDbEntity
  8
0
  6
CONTINUOUS
 62
               7
100
AcDbCircle
 10
1.6650828201930494
 20
7.8724550684715808
 30
0.0
 40
0.3000000000000007
100
AcDbArc
 50
45.0
 51
135.0
  0
ARC
  5
155
100
AcDbEntity
  8
0
  6
CONTINUOUS
 62
               7
100
AcDbCircle
 10
4.3237053619085088
 20
4.0499999732866456
 30
0.0
 40
0.3000000000000007
100
AcDbArc
 50
270.00000000000341
 51
35.000000000000213
  0
ARC
  5
156
100
AcDbEntity
  8
0
  6
CONTINUOUS
 62
               7
100
AcDbCircle
 10
3.9035808389826059
 20
4.6499999732867821
 30
0.0
 40
0.2999999999999996
100
AcDbArc
 50
34.99999999999838
 51
90.0
  0
ARC
  5
157
100
AcDbEntity
  8
0
  6
CONTINUOUS
 62
               7
100
AcDbCircle
 10
2.4242640687120627
 20
4.6499999732866115
 30
0.0
 40
0.3000000000000007
100
AcDbArc
 50
90.000000000005443
 51
134.9999999999998
  0
ARC
  5
158
100
AcDbEntity
  8
0
  6
CONTINUOUS
 62
               7
100
AcDbCircle
 10
1.8242640687119831
 20
4.0499999732865319
 30
0.0
 40
0.3000000000000007
100
AcDbArc
 50
135.00000000000199
 51
270.00000000000006
  0
LINE
  5
159
100
AcDbEntity
  8
0
  6
CONTINUOUS
 62
               7
100
AcDbLine
 10
9.0305490248039888
 20
12.977927042381083
 30
0.0
 11
9.4506735477298918
 21
12.377927042380961
 31
0.0
  0
LINE
  5
15A
100
AcDbEntity
  8
0
  6
CONTINUOUS
 62
               7
100
AcDbLine
 10
9.6964191610166068
 20
12.249999973286265
 30
0.0
 11
11.17573593128715
 21
12.249999973286464
 31
0.0
  0
LINE
  5
15B
100
AcDbEntity
  8
0
  6
CONTINUOUS
 62
               7
100
AcDbLine
 10
11.38786796564311
 20
12.337867938930501
 30
0.0
 11
11.987867965643218
 21
12.937867938930594
 31
0.0
  0
LINE
  5
15C
100
AcDbEntity
  8
0
  6
CONTINUOUS
 62
               7
100
AcDbLine
 10
11.775735931287201
 20
13.449999973286538
 30
0.0
 11
9.2762946380906754
 21
13.449999973286396
 31
0.0
  0
LINE
  5
15D
100
AcDbEntity
  8
0
  6
CONTINUOUS
 62
               7
100
AcDbLine
 10
8.2187664214497573
 20
12.243516842822658
 30
0.0
 11
7.9873785055260242
 21
9.5987408615900591
 31
0.0
  0
LINE
  5
15E
100
AcDbEntity
  8
0
  6
CONTINUOUS
 62
               7
100
AcDbLine
 10
8.0741048805975737
 20
9.3604621044097911
 30
0.0
 11
8.3168914619797221
 21
9.1176755230276427
 31
0.0
  0
LINE
  5
15F
100
AcDbEntity
  8
0
  6
CONTINUOUS
 62
               7
100
AcDbLine
 10
8.7411555306916426
 20
9.1176755230276285
 30
0.0
 11
9.1118514706717377
 21
9.4883714630077378
 31
0.0
  0
LINE
  5
160
100
AcDbEntity
  8
0
  6
CONTINUOUS
 62
               7
100
AcDbLine
 10
9.1985778457432872
 20
9.6743567745393761
 30
0.0
 11
9.3518791574389439
 21
11.426598785300754
 31
0.0
  0
LINE
  5
161
100
AcDbEntity
  8
0
  6
CONTINUOUS
 62
               7
100
AcDbLine
 10
9.2987663612981493
 20
11.624818439030363
 30
0.0
 11
8.7633704441640106
 21
12.389443050903623
 31
0.0
  0
LINE
  5
162
100
AcDbEntity
  8
0
  6
CONTINUOUS
 62
               7
100
AcDbLine
 10
11.559930441493393
 20
11.623411646125064
 30
0.0
 11
11.382794700474292
 21
9.5987408615900591
 31
0.0
  0
LINE
  5
163
100
AcDbEntity
  8
0
  6
CONTINUOUS
 62
               7
100
AcDbLine
 10
11.469521075545813
 20
9.3604621044097485
 30
0.0
 11
11.712307656927933
 21
9.1176755230276427
 31
0.0
  0
LINE
  5
164
100
AcDbEntity
  8
0
  6
CONTINUOUS
 62
               7
100
AcDbLine
 10
12.136571725639882
 20
9.1176755230276285
 30
0.0
 11
12.507267665619949
 21
9.4883714630077378
 31
0.0
  0
LINE
  5
165
100
AcDbEntity
  8
0
  6
CONTINUOUS
 62
               7
100
AcDbLine
 10
12.593994040691555
 20
9.6743567745393761
 30
0.0
 11
12.817684980924369
 21
12.231155921052391
 31
0.0
  0
LINE
  5
166
100
AcDbEntity
  8
0
  6
CONTINUOUS
 62
               7
100
AcDbLine
 10
12.306694537140871
 20
12.469434678232659
 30
0.0
 11
11.646656816564942
 21
11.809396957656702
 31
0.0
  0
LINE
  5
167
100
AcDbEntity
  8
0
  6
CONTINUOUS
 62
               7
100
AcDbLine
 10
11.201620113042267
 20
7.5279058513158077
 30
0.0
 11
11.048120842560266
 21
5.7734011612722895
 31
0.0
  0
LINE
  5
168
100
AcDbEntity
  8
0
  6
CONTINUOUS
 62
               7
100
AcDbLine
 10
11.101233638701061
 20
5.5751815075426947
 30
0.0
 11
11.636629555835171
 21
4.810556895669464
 31
0.0
  0
LINE
  5
169
100
AcDbEntity
  8
0
  6
CONTINUOUS
 62
               7
100
AcDbLine
 10
12.181233578549453
 20
4.9564831037504007
 30
0.0
 11
12.412819453259559
 21
7.6035217642651389
 31
0.0
  0
LINE
  5
16A
100
AcDbEntity
  8
0
  6
CONTINUOUS
 62
               7
100
AcDbLine
 10
12.326093078188009
 20
7.8418005214454354
 30
0.0
 11
12.083306496805861
 21
8.0845871028275553
 31
0.0
  0
LINE
  5
16B
100
AcDbEntity
  8
0
  6
CONTINUOUS
 62
               7
100
AcDbLine
 10
11.65904242809394
 20
8.0845871028275553
 30
0.0
 11
11.288346488113817
 21
7.7138911628474602
 31
0.0
  0
LINE
  5
16C
100
AcDbEntity
  8
0
  6
CONTINUOUS
 62
               7
100
AcDbLine
 10
10.775735931287429
 20
9.1999999732864097
 30
0.0
 11
9.6742640687113095
 21
9.1999999732864097
 31
0.0
  0
LINE
  5
16D
100
AcDbEntity
  8
0
  6
CONTINUOUS
 62
               7
100
AcDbLine
 10
9.4621320343553776
 20
9.1121320076424013
 30
0.0
 11
9.1371320343553606
 21
8.78713200764237
 31
0.0
  0
LINE
  5
16E
100
AcDbEntity
  8
0
  6
CONTINUOUS
 62
               7
100
AcDbLine
 10
9.1371320343553606
 20
8.3628679389304494
 30
0.0
 11
9.4121320343554515
 21
8.0878679389303585
 31
0.0
  0
LINE
  5
16F
100
AcDbEntity
  8
0
  6
CONTINUOUS
 62
               7
100
AcDbLine
 10
9.6242640687114118
 20
7.9999999732863216
 30
0.0
 11
10.725735931287616
 21
7.9999999732864211
 31
0.0
  0
LINE
  5
170
100
AcDbEntity
  8
0
  6
CONTINUOUS
 62
               7
100
AcDbLine
 10
10.937867965643491
 20
8.087867938930458
 30
0.0
 11
11.26286796564348
 21
8.412867938930404
 31
0.0
  0
LINE
  5
171
100
AcDbEntity
  8
0
  6
CONTINUOUS
 62
               7
100
AcDbLine
 10
11.26286796564348
 20
8.8371320076423387
 30
0.0
 11
10.987867965643446
 21
9.1121320076423729
 31
0.0
  0
LINE
  5
172
100
AcDbEntity
  8
0
  6
CONTINUOUS
 62
               7
100
AcDbLine
 10
8.2529507858370863
 20
8.0845871028275411
 30
0.0
 11
7.8822548458569912
 21
7.713891162847446
 31
0.0
  0
LINE
  5
173
100
AcDbEntity
  8
0
  6
CONTINUOUS
 62
               7
100
AcDbLine
 10
7.7955284707854418
 20
7.5279058513158077
 30
0.0
 11
7.5718375305525711
 21
4.9711067048027928
 31
0.0
  0
LINE
  5
174
100
AcDbEntity
  8
0
  6
CONTINUOUS
 62
               7
100
AcDbLine
 10
8.0828279743360412
 20
4.7328279476225248
 30
0.0
 11
8.7428656949119983
 21
5.3928656681984819
 31
0.0
  0
LINE
  5
175
100
AcDbEntity
  8
0
  6
CONTINUOUS
 62
               7
100
AcDbLine
 10
8.8295920699835477
 20
5.5788509797301344
 30
0.0
 11
9.0067278110026763
 21
7.6035217642651389
 31
0.0
  0
LINE
  5
176
100
AcDbEntity
  8
0
  6
CONTINUOUS
 62
               7
100
AcDbLine
 10
8.9200014359311268
 20
7.8418005214454354
 30
0.0
 11
8.6772148545490069
 21
8.0845871028275411
 31
0.0
  0
LINE
  5
177
100
AcDbEntity
  8
0
  6
CONTINUOUS
 62
               7
100
AcDbLine
 10
11.369450975195193
 20
4.2220729041919753
 30
0.0
 11
10.94932645226929
 21
4.8220729041920833
 31
0.0
  0
LINE
  5
178
100
AcDbEntity
  8
0
  6
CONTINUOUS
 62
               7
100
AcDbLine
 10
10.703580838982603
 20
4.9499999732867934
 30
0.0
 11
9.2242640687120314
 21
4.9499999732866229
 31
0.0
  0
LINE
  5
179
100
AcDbEntity
  8
0
  6
CONTINUOUS
 62
               7
100
AcDbLine
 10
9.0121320343560996
 20
4.8621320076425718
 30
0.0
 11
8.4121320343559916
 21
4.2621320076424638
 31
0.0
  0
LINE
  5
17A
100
AcDbEntity
  8
0
  6
CONTINUOUS
 62
               7
100
AcDbLine
 10
8.6242640687119803
 20
3.7499999732865206
 30
0.0
 11
11.123705361908506
 21
3.7499999732866627
 31
0.0
  0
ARC
  5
17B
100
AcDbEntity
  8
0
  6
CONTINUOUS
 62
               7
100
AcDbCircle
 10
9.2762946380906754
 20
13.149999973286398
 30
0.0
 40
0.3000000000000007
100
AcDbArc
 50
90.0
 51
215.00000000000026
  0
ARC
  5
17C
100
AcDbEntity
  8
0
  6
CONTINUOUS
 62
               7
100
AcDbCircle
 10
9.6964191610165784
 20
12.549999973286262
 30
0.0
 40
0.3000000000000008
100
AcDbArc
 50
214.99999999999926
 51
270.0000000000075
  0
ARC
  5
17D
100
AcDbEntity
  8
0
  6
CONTINUOUS
 62
               7
100
AcDbCircle
 10
11.17573593128715
 20
12.549999973286475
 30
0.0
 40
0.3000000000000007
100
AcDbArc
 50
270.0
 51
315.00000000000045
  0
ARC
  5
17E
100
AcDbEntity
  8
0
  6
CONTINUOUS
 62
               7
100
AcDbCircle
 10
11.775735931287201
 20
13.149999973286555
 30
0.0
 40
0.3000000000000007
100
AcDbArc
 50
315.00000000000409
 51
90.000000000003411
  0
ARC
  5
17F
100
AcDbEntity
  8
0
  6
CONTINUOUS
 62
               7
100
AcDbCircle
 10
8.5176248308772671
 20
12.217370119998336
 30
0.0
 40
0.2999999999999996
100
AcDbArc
 50
34.999999999990493
 51
174.99999999999528
  0
ARC
  5
180
100
AcDbEntity
  8
0
  6
CONTINUOUS
 62
               7
100
AcDbCircle
 10
8.286236914953534
 20
9.5725941387657514
 30
0.0
 40
0.299999999999999
100
AcDbArc
 50
174.99999999999787
 51
224.99999999999909
  0
ARC
  5
181
100
AcDbEntity
  8
0
  6
CONTINUOUS
 62
               7
100
AcDbCircle
 10
8.5290234963356539
 20
9.329807557383603
 30
0.0
 40
0.3000000000000007
100
AcDbArc
 50
225.0
 51
314.99999999999977
  0
ARC
  5
182
100
AcDbEntity
  8
0
  6
CONTINUOUS
 62
               7
100
AcDbCircle
 10
8.8997194363157774
 20
9.7005034973636981
 30
0.0
 40
0.3000000000000007
100
AcDbArc
 50
315.00000000000193
 51
354.99999999999494
  0
ARC
  5
183
100
AcDbEntity
  8
0
  6
CONTINUOUS
 62
               7
100
AcDbCircle
 10
9.0530207480114058
 20
11.452745508125091
 30
0.0
 40
0.300000000000006
100
AcDbArc
 50
354.99999999999267
 51
34.999999999990294
  0
ARC
  5
184
100
AcDbEntity
  8
0
  6
CONTINUOUS
 62
               7
100
AcDbCircle
 10
11.858788850920902
 20
11.597264923300742
 30
0.0
 40
0.300000000000002
100
AcDbArc
 50
135.00000000000045
 51
174.99999999999531
  0
ARC
  5
185
100
AcDbEntity
  8
0
  6
CONTINUOUS
 62
               7
100
AcDbCircle
 10
11.681653109901774
 20
9.572594138765723
 30
0.0
 40
0.300000000000006
100
AcDbArc
 50
174.99999999999238
 51
224.99999999999949
  0
ARC
  5
186
100
AcDbEntity
  8
0
  6
CONTINUOUS
 62
               7
100
AcDbCircle
 10
11.924439691283922
 20
9.329807557383603
 30
0.0
 40
0.3000000000000007
100
AcDbArc
 50
225.0
 51
314.99999999999977
  0
ARC
  5
187
100
AcDbEntity
  8
0
  6
CONTINUOUS
 62
               7
100
AcDbCircle
 10
12.295135631264046
 20
9.7005034973636981
 30
0.0
 40
0.3000000000000013
100
AcDbArc
 50
314.99999999999619
 51
354.99999999999523
  0
ARC
  5
188
100
AcDbEntity
  8
0
  6
CONTINUOUS
 62
               7
100
AcDbCircle
 10
12.518826571496831
 20
12.257302643876685
 30
0.0
 40
0.300000000000006
100
AcDbArc
 50
354.99999999999881
 51
134.99999999999955
  0
ARC
  5
189
100
AcDbEntity
  8
0
  6
CONTINUOUS
 62
               7
100
AcDbCircle
 10
11.500478522469777
 20
7.5017591284914857
 30
0.0
 40
0.3000000000000007
100
AcDbArc
 50
134.99999999999974
 51
174.99999999999511
  0
ARC
  5
18A
100
AcDbEntity
  8
0
  6
CONTINUOUS
 62
               7
100
AcDbCircle
 10
11.346979251987776
 20
5.7472544384479676
 30
0.0
 40
0.2999999999999954
100
AcDbArc
 50
174.99999999999511
 51
214.99999999999019
  0
ARC
  5
18B
100
AcDbEntity
  8
0
  6
CONTINUOUS
 62
               7
100
AcDbCircle
 10
11.882375169121943
 20
4.9826298265747084
 30
0.0
 40
0.3000000000000004
100
AcDbArc
 50
214.99999999998639
 51
354.99999999999523
  0
ARC
  5
18C
100
AcDbEntity
  8
0
  6
CONTINUOUS
 62
               7
100
AcDbCircle
 10
12.113961043832049
 20
7.6296684870894609
 30
0.0
 40
0.300000000000006
100
AcDbArc
 50
354.99999999999511
 51
45.000000000000455
  0
ARC
  5
18D
100
AcDbEntity
  8
0
  6
CONTINUOUS
 62
               7
100
AcDbCircle
 10
11.8711744624499
 20
7.8724550684715808
 30
0.0
 40
0.3000000000000013
100
AcDbArc
 50
45.000000000003361
 51
134.99999999999974
  0
ARC
  5
18E
100
AcDbEntity
  8
0
  6
CONTINUOUS
 62
               7
100
AcDbCircle
 10
9.6742640687113095
 20
8.8999999732864268
 30
0.0
 40
0.3000000000000007
100
AcDbArc
 50
90.0
 51
134.99999999999974
  0
ARC
  5
18F
100
AcDbEntity
  8
0
  6
CONTINUOUS
 62
               7
100
AcDbCircle
 10
9.3492640687113209
 20
8.5749999732864097
 30
0.0
 40
0.3000000000000013
100
AcDbArc
 50
134.99999999999994
 51
224.99999999999923
  0
ARC
  5
190
100
AcDbEntity
  8
0
  6
CONTINUOUS
 62
               7
100
AcDbCircle
 10
9.6242640687114118
 20
8.2999999732863188
 30
0.0
 40
0.3
100
AcDbArc
 50
225.0
 51
270.0
  0
ARC
  5
191
100
AcDbEntity
  8
0
  6
CONTINUOUS
 62
               7
100
AcDbCircle
 10
10.725735931287559
 20
8.2999999732864183
 30
0.0
 40
0.3000000000000007
100
AcDbArc
 50
270.00000000001091
 51
314.99999999999977
  0
ARC
  5
192
100
AcDbEntity
  8
0
  6
CONTINUOUS
 62
               7
100
AcDbCircle
 10
11.05073593128752
 20
8.6249999732863643
 30
0.0
 40
0.3000000000000013
100
AcDbArc
 50
314.99999999999619
 51
45.000000000004583
  0
ARC
  5
193
100
AcDbEntity
  8
0
  6
CONTINUOUS
 62
               7
100
AcDbCircle
 10
10.775735931287429
 20
8.8999999732864268
 30
0.0
 40
0.3
100
AcDbArc
 50
44.999999999994252
 51
90.0
  0
ARC
  5
194
100
AcDbEntity
  8
0
  6
CONTINUOUS
 62
               7
100
AcDbCircle
 10
8.0943868802129515
 20
7.5017591284914857
 30
0.0
 40
0.3000000000000007
100
AcDbArc
 50
134.99999999999994
 51
174.99999999999528
  0
ARC
  5
195
100
AcDbEntity
  8
0
  6
CONTINUOUS
 62
               7
100
AcDbCircle
 10
7.8706959399800809
 20
4.9449599819784851
 30
0.0
 40
0.2999999999999954
100
AcDbArc
 50
174.99999999999523
 51
315.00000000000006
  0
ARC
  5
196
100
AcDbEntity
  8
0
  6
CONTINUOUS
 62
               7
100
AcDbCircle
 10
8.530733660556038
 20
5.6049977025544564
 30
0.0
 40
0.300000000000001
100
AcDbArc
 50
314.99999999999812
 51
354.99999999999545
  0
ARC
  5
197
100
AcDbEntity
  8
0
  6
CONTINUOUS
 62
               7
100
AcDbCircle
 10
8.7078694015751665
 20
7.6296684870894609
 30
0.0
 40
0.300000000000006
100
AcDbArc
 50
354.99999999999534
 51
45.0000000000027
  0
ARC
  5
198
100
AcDbEntity
  8
0
  6
CONTINUOUS
 62
               7
100
AcDbCircle
 10
8.4650828201930466
 20
7.8724550684715808
 30
0.0
 40
0.3000000000000007
100
AcDbArc
 50
45.0
 51
135.0
  0
ARC
  5
199
100
AcDbEntity
  8
0
  6
CONTINUOUS
 62
               7
100
AcDbCircle
 10
11.123705361908506
 20
4.0499999732866456
 30
0.0
 40
0.3000000000000007
100
AcDbArc
 50
270.00000000000341
 51
35.000000000000213
  0
ARC
  5
19A
100
AcDbEntity
  8
0
  6
CONTINUOUS
 62
               7
100
AcDbCircle
 10
10.703580838982603
 20
4.6499999732867821
 30
0.0
 40
0.2999999999999996
100
AcDbArc
 50
34.99999999999838
 51
90.0
  0
ARC
  5
19B
100
AcDbEntity
  8
0
  6
CONTINUOUS
 62
               7
100
AcDbCircle
 10
9.2242640687120598
 20
4.6499999732866115
 30
0.0
 40
0.3000000000000007
100
AcDbArc
 50
90.000000000005443
 51
134.9999999999998
  0
ARC
  5
19C
100
AcDbEntity
  8
0
  6
CONTINUOUS
 62
               7
100
AcDbCircle
 10
8.6242640687119803
 20
4.0499999732865319
 30
0.0
 40
0.3000000000000007
100
AcDbArc
 50
135.00000000000199
 51
270.00000000000006
  0
LINE
  5
19E
100
AcDbEntity
  8
0
  6
CENTER
 62
               2
100
AcDbLine
 10
-32.700000000000003
 20
0.0
 30
0.0
 11
32.700000000000003
 21
0.0
 31
0.0
  0
LINE
  5
19F
100
AcDbEntity
  8
0
  6
CENTER
 62
               2
100
AcDbLine
 10
0.0
 20
28.999999973286421
 30
0.0
 11
0.0
 21
-29.000000026713593
 31
0.0
  0
ENDBLK
  5
1A0
100
AcDbEntity
  8
0
100
AcDbBlockEnd
  0
BLOCK
  5
1A1
100
AcDbEntity
  8
0
100
AcDbBlockBegin
  2
DTY-EPU-P-2
 70
               0
 10
0.0
 20
0.0
 30
0.0
  3
DTY-EPU-P-2
  1

  0
LINE
  5
1A2
100
AcDbEntity
  8
0
  6
CONTINUOUS
 62
               7
100
AcDbLine
 10
29.30000001154491
 20
-14.700000005321328
 30
0.0
 11
25.500000011544941
 21
-14.700000005321328
 31
0.0
  0
LINE
  5
1A3
100
AcDbEntity
  8
0
  6
CONTINUOUS
 62
               7
100
AcDbLine
 10
29.30000001154491
 20
-15.000000005321311
 30
0.0
 11
25.500000011544941
 21
-15.000000005321311
 31
0.0
  0
LINE
  5
1A4
100
AcDbEntity
  8
0
  6
CONTINUOUS
 62
               7
100
AcDbLine
 10
29.30000001154491
 20
-19.666608265192338
 30
0.0
 11
29.30000001154491
 21
-14.700000005321328
 31
0.0
  0
LINE
  5
1A5
100
AcDbEntity
  8
0
  6
CONTINUOUS
 62
               7
100
AcDbLine
 10
28.30000001154491
 20
-19.684063330120551
 30
0.0
 11
28.30000001154491
 21
-15.000000005321311
 31
0.0
  0
LINE
  5
1A6
100
AcDbEntity
  8
0
  6
CONTINUOUS
 62
               7
100
AcDbLine
 10
28.500000011544955
 20
-7.8000000053213512
 30
0.0
 11
28.500000011544955
 21
-7.8750000053213398
 31
0.0
  0
LINE
  5
1A7
100
AcDbEntity
  8
0
  6
CONTINUOUS
 62
               7
100
AcDbLine
 10
28.500000011544955
 20
-7.8000000053213512
 30
0.0
 11
25.500000011544941
 21
-7.8000000053213512
 31
0.0
  0
LINE
  5
1A8
100
AcDbEntity
  8
0
  6
CONTINUOUS
 62
               7
100
AcDbLine
 10
32.700000011544944
 20
-2.2000000053213569
 30
0.0
 11
32.700000011544944
 21
-1.0000000053213398
 31
0.0
  0
LINE
  5
1A9
100
AcDbEntity
  8
0
  6
CONTINUOUS
 62
               7
100
AcDbLine
 10
31.700000011544944
 20
10.199999994678649
 30
0.0
 11
31.700000011544944
 21
11.899999994678637
 31
0.0
  0
LINE
  5
1AA
100
AcDbEntity
  8
0
  6
CONTINUOUS
 62
               7
100
AcDbLine
 10
27.758926355208018
 20
6.9999999946786744
 30
0.0
 11
27.758926355208018
 21
7.8749999946786744
 31
0.0
  0
LINE
  5
1AB
100
AcDbEntity
  8
0
  6
CONTINUOUS
 62
               7
100
AcDbLine
 10
31.700000011544944
 20
-1.0000000053213398
 30
0.0
 11
32.700000011544944
 21
-1.0000000053213398
 31
0.0
  0
LINE
  5
1AC
100
AcDbEntity
  8
0
  6
CONTINUOUS
 62
               7
100
AcDbLine
 10
31.700000011544944
 20
11.899999994678637
 30
0.0
 11
32.700000011544944
 21
11.899999994678637
 31
0.0
  0
LINE
  5
1AD
100
AcDbEntity
  8
0
  6
CONTINUOUS
 62
               7
100
AcDbLine
 10
30.000000011544941
 20
10.199999994678649
 30
0.0
 11
31.700000011544944
 21
10.199999994678649
 31
0.0
  0
LINE
  5
1AE
100
AcDbEntity
  8
0
  6
CONTINUOUS
 62
               7
100
AcDbLine
 10
30.000000011544941
 20
0.1999999946786488
 30
0.0
 11
31.700000011544944
 21
0.1999999946786488
 31
0.0
  0
LINE
  5
1AF
100
AcDbEntity
  8
0
  6
CONTINUOUS
 62
               7
100
AcDbLine
 10
32.700000011544944
 20
11.899999994678637
 30
0.0
 11
32.700000011544944
 21
13.599999994678655
 31
0.0
  0
LINE
  5
1B0
100
AcDbEntity
  8
0
  6
CONTINUOUS
 62
               7
100
AcDbLine
 10
31.700000011544944
 20
-1.0000000053213398
 30
0.0
 11
31.700000011544944
 21
0.1999999946786488
 31
0.0
  0
LINE
  5
1B1
100
AcDbEntity
  8
0
  6
CONTINUOUS
 62
               7
100
AcDbLine
 10
32.700000011544944
 20
13.599999994678655
 30
0.0
 11
30.000000011544941
 21
13.599999994678655
 31
0.0
  0
LINE
  5
1B2
100
AcDbEntity
  8
0
  6
CONTINUOUS
 62
               7
100
AcDbLine
 10
32.700000011544944
 20
-2.2000000053213569
 30
0.0
 11
30.000000011544941
 21
-2.2000000053213569
 31
0.0
  0
LINE
  5
1B3
100
AcDbEntity
  8
0
  6
CONTINUOUS
 62
               7
100
AcDbLine
 10
-3.0
 20
23.999999994678674
 30
0.0
 11
0.0
 21
23.999999994678674
 31
0.0
  0
LINE
  5
1B4
100
AcDbEntity
  8
0
  6
CONTINUOUS
 62
               7
100
AcDbLine
 10
-3.0
 20
-24.00000000532134
 30
0.0
 11
0.0
 21
-24.00000000532134
 31
0.0
  0
LINE
  5
1B5
100
AcDbEntity
  8
0
  6
CONTINUOUS
 62
               7
100
AcDbLine
 10
-3.999999988455059
 20
-23.0
 30
0.0
 11
-3.999999988455059
 21
23.0
 31
0.0
  0
LINE
  5
1B6
100
AcDbEntity
  8
0
  6
CONTINUOUS
 62
               7
100
AcDbLine
 10
-3.0
 20
23.999999994678674
 30
0.0
 11
-3.9999999884550732
 21
23.000000006223459
 31
0.0
  0
LINE
  5
1B7
100
AcDbEntity
  8
0
  6
CONTINUOUS
 62
               7
100
AcDbLine
 10
-3.999999988455059
 20
-23.0
 30
0.0
 11
-2.9999999831337334
 21
-24.00000000532134
 31
0.0
  0
LINE
  5
1B8
100
AcDbEntity
  8
0
  6
CONTINUOUS
 62
               7
100
AcDbLine
 10
-3.0
 20
23.999999994678674
 30
0.0
 11
-3.0
 21
-24.00000000532134
 31
0.0
  0
LINE
  5
1B9
100
AcDbEntity
  8
0
  6
CONTINUOUS
 62
               7
100
AcDbLine
 10
0.0
 20
23.999999994678674
 30
0.0
 11
0.0
 21
16.499999994678674
 31
0.0
  0
LINE
  5
1BA
100
AcDbEntity
  8
0
  6
CONTINUOUS
 62
               7
100
AcDbLine
 10
-2.499999988455059
 20
11.499999994678674
 30
0.0
 11
-2.499999988455059
 21
16.499999994678674
 31
0.0
  0
LINE
  5
1BB
100
AcDbEntity
  8
0
  6
CONTINUOUS
 62
               7
100
AcDbLine
 10
-2.499999988455059
 20
16.499999994678674
 30
0.0
 11
0.0
 21
16.499999994678674
 31
0.0
  0
LINE
  5
1BC
100
AcDbEntity
  8
0
  6
CONTINUOUS
 62
               7
100
AcDbLine
 10
-2.499999988455059
 20
11.499999994678674
 30
0.0
 11
0.0
 21
11.499999994678674
 31
0.0
  0
LINE
  5
1BD
100
AcDbEntity
  8
0
  6
CONTINUOUS
 62
               7
100
AcDbLine
 10
0.0
 20
11.499999994678674
 30
0.0
 11
0.0
 21
-11.50000000532134
 31
0.0
  0
LINE
  5
1BE
100
AcDbEntity
  8
0
  6
CONTINUOUS
 62
               7
100
AcDbLine
 10
-2.499999988455059
 20
-16.50000000532134
 30
0.0
 11
0.0
 21
-16.50000000532134
 31
0.0
  0
LINE
  5
1BF
100
AcDbEntity
  8
0
  6
CONTINUOUS
 62
               7
100
AcDbLine
 10
-2.499999988455059
 20
-11.50000000532134
 30
0.0
 11
0.0
 21
-11.50000000532134
 31
0.0
  0
LINE
  5
1C0
100
AcDbEntity
  8
0
  6
CONTINUOUS
 62
               7
100
AcDbLine
 10
-2.499999988455059
 20
-11.50000000532134
 30
0.0
 11
-2.499999988455059
 21
-16.50000000532134
 31
0.0
  0
LINE
  5
1C1
100
AcDbEntity
  8
0
  6
CONTINUOUS
 62
               7
100
AcDbLine
 10
0.0
 20
-16.50000000532134
 30
0.0
 11
0.0
 21
-24.00000000532134
 31
0.0
  0
LINE
  5
1C2
100
AcDbEntity
  8
0
  6
CONTINUOUS
 62
               7
100
AcDbLine
 10
1.500000011544941
 20
17.499999994678674
 30
0.0
 11
1.500000011544941
 21
22.499999994678674
 31
0.0
  0
LINE
  5
1C3
100
AcDbEntity
  8
0
  6
CONTINUOUS
 62
               7
100
AcDbLine
 10
1.5
 20
17.499999994678674
 30
0.0
 11
4.500000011544941
 21
17.499999994678674
 31
0.0
  0
LINE
  5
1C4
100
AcDbEntity
  8
0
  6
CONTINUOUS
 62
               7
100
AcDbLine
 10
1.5
 20
-17.50000000532134
 30
0.0
 11
4.500000011544941
 21
-17.50000000532134
 31
0.0
  0
LINE
  5
1C5
100
AcDbEntity
  8
0
  6
CONTINUOUS
 62
               7
100
AcDbLine
 10
1.500000011544941
 20
-17.50000000532134
 30
0.0
 11
1.500000011544941
 21
-22.50000000532134
 31
0.0
  0
ARC
  5
1C6
100
AcDbEntity
  8
0
  6
CONTINUOUS
 62
               7
100
AcDbCircle
 10
-45.041666655121595
 20
-0.0000000053213114
 30
0.0
 40
52.541666666666536
100
AcDbArc
 50
340.5448428971967
 51
19.455157102803241
  0
ARC
  5
1C7
100
AcDbEntity
  8
0
  6
CONTINUOUS
 62
               7
100
AcDbCircle
 10
-48.499999988455194
 20
-0.0000000053213114
 30
0.0
 40
58.500000000000121
100
AcDbArc
 50
2.93953448643432
 51
22.619864948040362
  0
CIRCLE
  5
1C8
100
AcDbEntity
  8
0
  6
CONTINUOUS
 62
               7
100
AcDbCircle
 10
3.5000000057724705
 20
19.999999994678674
 30
0.0
 40
0.9
  0
CIRCLE
  5
1C9
100
AcDbEntity
  8
0
  6
CONTINUOUS
 62
               7
100
AcDbCircle
 10
3.5000000057725131
 20
-20.00000000532134
 30
0.0
 40
0.9
  0
LINE
  5
1CA
100
AcDbEntity
  8
0
  6
CONTINUOUS
 62
               7
100
AcDbLine
 10
30.000000011544941
 20
-7.0000000053213398
 30
0.0
 11
30.000000011544941
 21
6.9999999946786744
 31
0.0
  0
LINE
  5
1CB
100
AcDbEntity
  8
0
  6
CONTINUOUS
 62
               7
100
AcDbLine
 10
25.500000011544941
 20
-24.00000000532134
 30
0.0
 11
25.500000011544941
 21
-7.0000000053213398
 31
0.0
  0
LINE
  5
1CC
100
AcDbEntity
  8
0
  6
CONTINUOUS
 62
               7
100
AcDbLine
 10
15.500000011544941
 20
-24.00000000532134
 30
0.0
 11
15.500000011544941
 21
-3.0000000053213398
 31
0.0
  0
LINE
  5
1CD
100
AcDbEntity
  8
0
  6
CONTINUOUS
 62
               7
100
AcDbLine
 10
30.000000011544941
 20
6.9999999946786744
 30
0.0
 11
24.000000011544941
 21
6.9999999946786744
 31
0.0
  0
LINE
  5
1CE
100
AcDbEntity
  8
0
  6
CONTINUOUS
 62
               7
100
AcDbLine
 10
30.000000011544941
 20
-7.0000000053213398
 30
0.0
 11
24.000000011544941
 21
-7.0000000053213398
 31
0.0
  0
LINE
  5
1CF
100
AcDbEntity
  8
0
  6
CONTINUOUS
 62
               7
100
AcDbLine
 10
9.9230262939962728
 20
2.9999999946786744
 30
0.0
 11
20.000000011544941
 21
2.9999999946786744
 31
0.0
  0
LINE
  5
1D0
100
AcDbEntity
  8
0
  6
CONTINUOUS
 62
               7
100
AcDbLine
 10
9.9230262939962728
 20
-3.0000000053213398
 30
0.0
 11
20.000000011544941
 21
-3.0000000053213398
 31
0.0
  0
LINE
  5
1D1
100
AcDbEntity
  8
0
  6
CONTINUOUS
 62
               7
100
AcDbLine
 10
20.000000011544941
 20
2.9999999946786744
 30
0.0
 11
24.000000011544941
 21
6.9999999946786744
 31
0.0
  0
LINE
  5
1D2
100
AcDbEntity
  8
0
  6
CONTINUOUS
 62
               7
100
AcDbLine
 10
20.000000011544941
 20
-3.0000000053213398
 30
0.0
 11
24.000000011544941
 21
-7.0000000053213398
 31
0.0
  0
LINE
  5
1D3
100
AcDbEntity
  8
0
  6
CONTINUOUS
 62
               7
100
AcDbLine
 10
0.0
 20
22.499999994678674
 30
0.0
 11
15.500000011544941
 21
22.499999994678674
 31
0.0
  0
LINE
  5
1D4
100
AcDbEntity
  8
0
  6
CONTINUOUS
 62
               7
100
AcDbLine
 10
0.0
 20
-22.50000000532134
 30
0.0
 11
15.500000011544941
 21
-22.50000000532134
 31
0.0
  0
LINE
  5
1D5
100
AcDbEntity
  8
0
  6
CONTINUOUS
 62
               7
100
AcDbLine
 10
15.500000011544941
 20
23.999999994678674
 30
0.0
 11
25.500000011544941
 21
23.999999994678674
 31
0.0
  0
LINE
  5
1D6
100
AcDbEntity
  8
0
  6
CONTINUOUS
 62
               7
100
AcDbLine
 10
15.500000011544941
 20
-24.00000000532134
 30
0.0
 11
25.500000011544941
 21
-24.00000000532134
 31
0.0
  0
LINE
  5
1D7
100
AcDbEntity
  8
0
  6
CONTINUOUS
 62
               7
100
AcDbLine
 10
30.000000011544941
 20
7.8749999946786744
 30
0.0
 11
30.000000011544941
 21
14.374999994678674
 31
0.0
  0
LINE
  5
1D8
100
AcDbEntity
  8
0
  6
CONTINUOUS
 62
               7
100
AcDbLine
 10
25.500000011544941
 20
22.499999994678674
 30
0.0
 11
27.500000011544941
 21
22.499999994678674
 31
0.0
  0
LINE
  5
1D9
100
AcDbEntity
  8
0
  6
CONTINUOUS
 62
               7
100
AcDbLine
 10
25.500000011544941
 20
-22.50000000532134
 30
0.0
 11
27.500000011544941
 21
-22.50000000532134
 31
0.0
  0
LINE
  5
1DA
100
AcDbEntity
  8
0
  6
CONTINUOUS
 62
               7
100
AcDbLine
 10
15.500000011544941
 20
2.9999999946786744
 30
0.0
 11
15.500000011544941
 21
23.999999994678674
 31
0.0
  0
LINE
  5
1DB
100
AcDbEntity
  8
0
  6
CONTINUOUS
 62
               7
100
AcDbLine
 10
25.500000011544941
 20
6.9999999946786744
 30
0.0
 11
25.500000011544941
 21
23.999999994678674
 31
0.0
  0
LINE
  5
1DC
100
AcDbEntity
  8
0
  6
CONTINUOUS
 62
               2
100
AcDbLine
 10
10.000000011544941
 20
6.8124999946786744
 30
0.0
 11
10.000000011544941
 21
15.437499994678674
 31
0.0
  0
LINE
  5
1DD
100
AcDbEntity
  8
0
  6
CONTINUOUS
 62
               7
100
AcDbLine
 10
11.062500011544941
 20
16.499999994678674
 30
0.0
 11
15.500000011544941
 21
16.499999994678674
 31
0.0
  0
LINE
  5
1DE
100
AcDbEntity
  8
0
  6
CONTINUOUS
 62
               7
100
AcDbLine
 10
11.062500011544941
 20
5.7499999946786744
 30
0.0
 11
15.500000011544941
 21
5.7499999946786744
 31
0.0
  0
LINE
  5
1DF
100
AcDbEntity
  8
0
  6
CONTINUOUS
 62
               7
100
AcDbLine
 10
11.062500011544941
 20
14.374999994678674
 30
0.0
 11
15.500000011544941
 21
14.374999994678674
 31
0.0
  0
LINE
  5
1E0
100
AcDbEntity
  8
0
  6
CONTINUOUS
 62
               7
100
AcDbLine
 10
11.062500011544941
 20
7.8749999946786744
 30
0.0
 11
15.500000011544941
 21
7.8749999946786744
 31
0.0
  0
ARC
  5
1E1
100
AcDbEntity
  8
0
  6
CONTINUOUS
 62
               7
100
AcDbCircle
 10
11.062500011544941
 20
15.437499994678674
 30
0.0
 40
1.0625
100
AcDbArc
 50
90.0
 51
270.0
  0
LINE
  5
1E2
100
AcDbEntity
  8
0
  6
CONTINUOUS
 62
               7
100
AcDbLine
 10
27.500000011544941
 20
16.499999994678674
 30
0.0
 11
27.500000011544941
 21
22.499999994678674
 31
0.0
  0
ARC
  5
1E3
100
AcDbEntity
  8
0
  6
CONTINUOUS
 62
               7
100
AcDbCircle
 10
11.062500011544941
 20
6.8124999946786744
 30
0.0
 40
1.0625
100
AcDbArc
 50
90.0
 51
270.0
  0
LINE
  5
1E4
100
AcDbEntity
  8
0
  6
CONTINUOUS
 62
               7
100
AcDbLine
 10
25.500000011544941
 20
16.499999994678674
 30
0.0
 11
27.500000011544941
 21
16.499999994678674
 31
0.0
  0
LINE
  5
1E5
100
AcDbEntity
  8
0
  6
CONTINUOUS
 62
               7
100
AcDbLine
 10
25.500000011544941
 20
14.374999994678674
 30
0.0
 11
30.000000011544941
 21
14.374999994678674
 31
0.0
  0
LINE
  5
1E6
100
AcDbEntity
  8
0
  6
CONTINUOUS
 62
               7
100
AcDbLine
 10
25.500000011544941
 20
7.8749999946786744
 30
0.0
 11
30.000000011544941
 21
7.8749999946786744
 31
0.0
  0
LINE
  5
1E7
100
AcDbEntity
  8
0
  6
CONTINUOUS
 62
               7
100
AcDbLine
 10
27.500000011544941
 20
-16.50000000532134
 30
0.0
 11
27.500000011544941
 21
-22.50000000532134
 31
0.0
  0
LINE
  5
1E8
100
AcDbEntity
  8
0
  6
CONTINUOUS
 62
               7
100
AcDbLine
 10
25.500000011544941
 20
-16.50000000532134
 30
0.0
 11
27.500000011544941
 21
-16.50000000532134
 31
0.0
  0
LINE
  5
1E9
100
AcDbEntity
  8
0
  6
CONTINUOUS
 62
               7
100
AcDbLine
 10
30.000000011544941
 20
-7.8750000053213398
 30
0.0
 11
30.000000011544941
 21
-14.37500000532134
 31
0.0
  0
LINE
  5
1EA
100
AcDbEntity
  8
0
  6
CONTINUOUS
 62
               7
100
AcDbLine
 10
25.500000011544941
 20
-14.37500000532134
 30
0.0
 11
30.000000011544941
 21
-14.37500000532134
 31
0.0
  0
LINE
  5
1EB
100
AcDbEntity
  8
0
  6
CONTINUOUS
 62
               7
100
AcDbLine
 10
25.500000011544941
 20
-7.8750000053213398
 30
0.0
 11
30.000000011544941
 21
-7.8750000053213398
 31
0.0
  0
LINE
  5
1EC
100
AcDbEntity
  8
0
  6
CONTINUOUS
 62
               7
100
AcDbLine
 10
11.062500011544941
 20
-16.50000000532134
 30
0.0
 11
15.500000011544941
 21
-16.50000000532134
 31
0.0
  0
LINE
  5
1ED
100
AcDbEntity
  8
0
  6
CONTINUOUS
 62
               7
100
AcDbLine
 10
11.062500011544941
 20
-14.37500000532134
 30
0.0
 11
15.500000011544941
 21
-14.37500000532134
 31
0.0
  0
ARC
  5
1EE
100
AcDbEntity
  8
0
  6
CONTINUOUS
 62
               7
100
AcDbCircle
 10
11.062500011544941
 20
-15.43750000532134
 30
0.0
 40
1.0625
100
AcDbArc
 50
90.0
 51
270.0
  0
LINE
  5
1EF
100
AcDbEntity
  8
0
  6
CONTINUOUS
 62
               2
100
AcDbLine
 10
10.000000011544941
 20
-6.8125000053213398
 30
0.0
 11
10.000000011544941
 21
-15.43750000532134
 31
0.0
  0
LINE
  5
1F0
100
AcDbEntity
  8
0
  6
CONTINUOUS
 62
               7
100
AcDbLine
 10
11.062500011544941
 20
-5.7500000053213398
 30
0.0
 11
15.500000011544941
 21
-5.7500000053213398
 31
0.0
  0
LINE
  5
1F1
100
AcDbEntity
  8
0
  6
CONTINUOUS
 62
               7
100
AcDbLine
 10
11.062500011544941
 20
-7.8750000053213398
 30
0.0
 11
15.500000011544941
 21
-7.8750000053213398
 31
0.0
  0
ARC
  5
1F2
100
AcDbEntity
  8
0
  6
CONTINUOUS
 62
               7
100
AcDbCircle
 10
11.062500011544941
 20
-6.8125000053213398
 30
0.0
 40
1.0625
100
AcDbArc
 50
90.0
 51
270.0
  0
LINE
  5
1F3
100
AcDbEntity
  8
0
  6
CONTINUOUS
 62
               2
100
AcDbLine
 10
0.0
 20
16.499999994678674
 30
0.0
 11
0.0
 21
11.499999994678674
 31
0.0
  0
LINE
  5
1F4
100
AcDbEntity
  8
0
  6
CONTINUOUS
 62
               2
100
AcDbLine
 10
0.0
 20
-11.50000000532134
 30
0.0
 11
0.0
 21
-16.50000000532134
 31
0.0
  0
LINE
  5
1F5
100
AcDbEntity
  8
0
  6
CONTINUOUS
 62
               2
100
AcDbLine
 10
17.000000011544941
 20
-2.0000000053213256
 30
0.0
 11
17.000000011544941
 21
1.9999999946786744
 31
0.0
  0
LINE
  5
1F6
100
AcDbEntity
  8
0
  6
CONTINUOUS
 62
               2
100
AcDbLine
 10
15.000000011544941
 20
-3.0000000053213398
 30
0.0
 11
15.000000011544941
 21
2.9999999946786744
 31
0.0
  0
LINE
  5
1F7
100
AcDbEntity
  8
0
  6
CONTINUOUS
 62
               2
100
AcDbLine
 10
15.000000011544941
 20
1.9999999946786744
 30
0.0
 11
20.000000011544941
 21
1.9999999946786744
 31
0.0
  0
LINE
  5
1F8
100
AcDbEntity
  8
0
  6
CONTINUOUS
 62
               2
100
AcDbLine
 10
15.000000011544941
 20
-2.0000000053213256
 30
0.0
 11
20.000000011544941
 21
-2.0000000053213256
 31
0.0
  0
LINE
  5
1F9
100
AcDbEntity
  8
0
  6
CONTINUOUS
 62
               2
100
AcDbLine
 10
20.000000011544941
 20
1.9999999946786744
 30
0.0
 11
20.000000011544941
 21
2.9999999946786744
 31
0.0
  0
LINE
  5
1FA
100
AcDbEntity
  8
0
  6
CONTINUOUS
 62
               2
100
AcDbLine
 10
20.000000011544941
 20
-2.0000000053213256
 30
0.0
 11
20.000000011544941
 21
-3.0000000053213398
 31
0.0
  0
LINE
  5
1FB
100
AcDbEntity
  8
0
  6
CONTINUOUS
 62
               7
100
AcDbLine
 10
27.500000011544941
 20
-19.699772888555941
 30
0.0
 11
29.300000011544896
 21
-19.668353771685133
 31
0.0
  0
ARC
  5
1FC
100
AcDbEntity
  8
0
  6
CONTINUOUS
 62
               7
100
AcDbCircle
 10
-48.499999988455194
 20
-0.0000000053213114
 30
0.0
 40
58.500000000000121
100
AcDbArc
 50
337.3801350519596
 51
357.06046551356565
  0
LINE
  5
1FD
100
AcDbEntity
  8
0
  6
CENTER
 62
               2
100
AcDbLine
 10
-8.999999988455059
 20
0.0
 30
0.0
 11
37.700000011544944
 21
0.0
 31
0.0
  0
ENDBLK
  5
1FE
100
AcDbEntity
  8
0
100
AcDbBlockEnd
  0
BLOCK
  5
1FF
100
AcDbEntity
  8
0
100
AcDbBlockBegin
  2
DTY-EPU-P-3
 70
               0
 10
0.0
 20
0.0
 30
0.0
  3
DTY-EPU-P-3
  1

  0
LINE
  5
200
100
AcDbEntity
  8
0
  6
CONTINUOUS
 62
               7
100
AcDbLine
 10
24.700000000000003
 20
1.5000000139176137
 30
0.0
 11
24.700000000000003
 21
15.500000011544941
 31
0.0
  0
LINE
  5
201
100
AcDbEntity
  8
0
  6
CONTINUOUS
 62
               7
100
AcDbLine
 10
-22.5
 20
27.500000011544941
 30
0.0
 11
22.5
 21
27.500000011544941
 31
0.0
  0
LINE
  5
202
100
AcDbEntity
  8
0
  6
CONTINUOUS
 62
               7
100
AcDbLine
 10
-24.0
 20
25.500000011544941
 30
0.0
 11
24.0
 21
25.500000011544941
 31
0.0
  0
LINE
  5
203
100
AcDbEntity
  8
0
  6
CONTINUOUS
 62
               7
100
AcDbLine
 10
-24.700000000000003
 20
15.500000011544941
 30
0.0
 11
-5.0
 21
15.500000011544941
 31
0.0
  0
LINE
  5
204
100
AcDbEntity
  8
0
  6
CONTINUOUS
 62
               7
100
AcDbLine
 10
22.5
 20
25.500000011544941
 30
0.0
 11
22.5
 21
27.500000011544941
 31
0.0
  0
LINE
  5
205
100
AcDbEntity
  8
0
  6
CONTINUOUS
 62
               7
100
AcDbLine
 10
24.0
 20
15.500000011544941
 30
0.0
 11
24.0
 21
25.500000011544941
 31
0.0
  0
LINE
  5
206
100
AcDbEntity
  8
0
  6
CONTINUOUS
 62
               7
100
AcDbLine
 10
-24.0
 20
15.500000011544941
 30
0.0
 11
-24.0
 21
25.500000011544941
 31
0.0
  0
LINE
  5
207
100
AcDbEntity
  8
0
  6
CONTINUOUS
 62
               7
100
AcDbLine
 10
22.5
 20
-0.0000000000000142
 30
0.0
 11
22.5
 21
15.500000011544941
 31
0.0
  0
LINE
  5
208
100
AcDbEntity
  8
0
  6
CONTINUOUS
 62
               7
100
AcDbLine
 10
-22.5
 20
0.0000000000000142
 30
0.0
 11
-22.5
 21
15.500000011544941
 31
0.0
  0
LINE
  5
209
100
AcDbEntity
  8
0
  6
CENTER
 62
               2
100
AcDbLine
 10
0.0
 20
-8.999999988455059
 30
0.0
 11
0.0
 21
37.700000000000003
 31
0.0
  0
LINE
  5
20A
100
AcDbEntity
  8
0
  6
CONTINUOUS
 62
               7
100
AcDbLine
 10
16.5
 20
-0.0000000000000142
 30
0.0
 11
24.0
 21
-0.0000000000000142
 31
0.0
  0
LINE
  5
20B
100
AcDbEntity
  8
0
  6
CONTINUOUS
 62
               7
100
AcDbLine
 10
11.5
 20
-2.499999988455059
 30
0.0
 11
16.5
 21
-2.499999988455059
 31
0.0
  0
LINE
  5
20C
100
AcDbEntity
  8
0
  6
CONTINUOUS
 62
               7
100
AcDbLine
 10
11.5
 20
-2.499999988455059
 30
0.0
 11
11.5
 21
-0.0000000000000142
 31
0.0
  0
LINE
  5
20D
100
AcDbEntity
  8
0
  6
CONTINUOUS
 62
               7
100
AcDbLine
 10
16.5
 20
-2.499999988455059
 30
0.0
 11
16.5
 21
-0.0000000000000142
 31
0.0
  0
LINE
  5
20E
100
AcDbEntity
  8
0
  6
CONTINUOUS
 62
               7
100
AcDbLine
 10
-11.5
 20
0.0000000000000142
 30
0.0
 11
11.5
 21
-0.0000000000000142
 31
0.0
  0
LINE
  5
20F
100
AcDbEntity
  8
0
  6
CONTINUOUS
 62
               7
100
AcDbLine
 10
-11.5
 20
-2.499999988455059
 30
0.0
 11
-11.5
 21
0.0000000000000142
 31
0.0
  0
LINE
  5
210
100
AcDbEntity
  8
0
  6
CONTINUOUS
 62
               7
100
AcDbLine
 10
-16.5
 20
-2.499999988455059
 30
0.0
 11
-16.5
 21
0.0000000000000142
 31
0.0
  0
LINE
  5
211
100
AcDbEntity
  8
0
  6
CONTINUOUS
 62
               7
100
AcDbLine
 10
-11.5
 20
-2.499999988455059
 30
0.0
 11
-16.5
 21
-2.499999988455059
 31
0.0
  0
LINE
  5
212
100
AcDbEntity
  8
0
  6
CONTINUOUS
 62
               7
100
AcDbLine
 10
-24.0
 20
0.0000000000000142
 30
0.0
 11
-16.5
 21
0.0000000000000142
 31
0.0
  0
LINE
  5
213
100
AcDbEntity
  8
0
  6
CONTINUOUS
 62
               7
100
AcDbLine
 10
-24.0
 20
-2.9999999999999858
 30
0.0
 11
24.0
 21
-3.0000000000000142
 31
0.0
  0
LINE
  5
214
100
AcDbEntity
  8
0
  6
CONTINUOUS
 62
               7
100
AcDbLine
 10
22.99999999467866
 20
-3.999999988455059
 30
0.0
 11
24.0
 21
-2.9999999831337192
 31
0.0
  0
LINE
  5
215
100
AcDbEntity
  8
0
  6
CONTINUOUS
 62
               7
100
AcDbLine
 10
-24.0
 20
-2.9999999999999858
 30
0.0
 11
-23.000000011544785
 21
-3.999999988455059
 31
0.0
  0
LINE
  5
216
100
AcDbEntity
  8
0
  6
CONTINUOUS
 62
               7
100
AcDbLine
 10
22.99999999467866
 20
-3.999999988455059
 30
0.0
 11
-23.00000000532134
 21
-3.999999988455059
 31
0.0
  0
LINE
  5
217
100
AcDbEntity
  8
0
  6
CONTINUOUS
 62
               7
100
AcDbLine
 10
24.0
 20
-3.0000000000000142
 30
0.0
 11
24.0
 21
-0.0000000000000142
 31
0.0
  0
LINE
  5
218
100
AcDbEntity
  8
0
  6
CONTINUOUS
 62
               7
100
AcDbLine
 10
-24.0
 20
-2.9999999999999858
 30
0.0
 11
-24.0
 21
0.0000000000000142
 31
0.0
  0
LINE
  5
219
100
AcDbEntity
  8
0
  6
CONTINUOUS
 62
               2
100
AcDbLine
 10
-16.5
 20
0.0000000000000142
 30
0.0
 11
-11.5
 21
0.0000000000000142
 31
0.0
  0
LINE
  5
21A
100
AcDbEntity
  8
0
  6
CONTINUOUS
 62
               2
100
AcDbLine
 10
11.5
 20
-0.0000000000000142
 30
0.0
 11
16.5
 21
-0.0000000000000142
 31
0.0
  0
LINE
  5
21B
100
AcDbEntity
  8
0
  6
CONTINUOUS
 62
               7
100
AcDbLine
 10
27.700000000000003
 20
1.5000000139176137
 30
0.0
 11
27.700000000000003
 21
16.500000011544941
 31
0.0
  0
LINE
  5
21C
100
AcDbEntity
  8
0
  6
CONTINUOUS
 62
               7
100
AcDbLine
 10
24.700000002563058
 20
1.500000011544941
 30
0.0
 11
27.700000002563058
 21
1.500000011544941
 31
0.0
  0
LINE
  5
21D
100
AcDbEntity
  8
0
  6
CONTINUOUS
 62
               7
100
AcDbLine
 10
24.700000002563058
 20
5.500000011544941
 30
0.0
 11
27.700000002563058
 21
5.500000011544941
 31
0.0
  0
LINE
  5
21E
100
AcDbEntity
  8
0
  6
CONTINUOUS
 62
               7
100
AcDbLine
 10
24.700000002563058
 20
9.9230262939962728
 30
0.0
 11
27.700000002563058
 21
9.9230262939962728
 31
0.0
  0
LINE
  5
21F
100
AcDbEntity
  8
0
  6
CONTINUOUS
 62
               7
100
AcDbLine
 10
25.0
 20
20.000000011544941
 30
0.0
 11
25.0
 21
30.000000011544941
 31
0.0
  0
LINE
  5
220
100
AcDbEntity
  8
0
  6
CONTINUOUS
 62
               7
100
AcDbLine
 10
25.0
 20
20.000000011544941
 30
0.0
 11
27.700000000000003
 21
16.500000011544941
 31
0.0
  0
LINE
  5
221
100
AcDbEntity
  8
0
  6
CONTINUOUS
 62
               7
100
AcDbLine
 10
25.000000014483987
 20
30.000000011544941
 30
0.0
 11
23.500000014483987
 21
30.000000011544941
 31
0.0
  0
LINE
  5
222
100
AcDbEntity
  8
0
  6
CONTINUOUS
 62
               7
100
AcDbLine
 10
23.500000014483987
 20
30.000000011544941
 30
0.0
 11
22.5
 21
25.500000011544941
 31
0.0
  0
LINE
  5
223
100
AcDbEntity
  8
0
  6
CONTINUOUS
 62
               7
100
AcDbLine
 10
6.0
 20
2.9999999999999858
 30
0.0
 11
6.0
 21
12.399999999999991
 31
0.0
  0
LINE
  5
224
100
AcDbEntity
  8
0
  6
CONTINUOUS
 62
               7
100
AcDbLine
 10
-5.0
 20
15.500000011544941
 30
0.0
 11
-5.0
 21
16.000000011544941
 31
0.0
  0
LINE
  5
225
100
AcDbEntity
  8
0
  6
CONTINUOUS
 62
               7
100
AcDbLine
 10
5.0
 20
15.500000011544941
 30
0.0
 11
5.0
 21
16.000000011544941
 31
0.0
  0
LINE
  5
226
100
AcDbEntity
  8
0
  6
CONTINUOUS
 62
               7
100
AcDbLine
 10
5.0
 20
15.500000011544941
 30
0.0
 11
24.700000000000003
 21
15.500000011544941
 31
0.0
  0
LINE
  5
227
100
AcDbEntity
  8
0
  6
CONTINUOUS
 62
               7
100
AcDbLine
 10
-5.0
 20
16.000000011544941
 30
0.0
 11
5.0
 21
16.000000011544941
 31
0.0
  0
LINE
  5
228
100
AcDbEntity
  8
0
  6
CONTINUOUS
 62
               7
100
AcDbLine
 10
22.0
 20
27.500000011544941
 30
0.0
 11
22.0
 21
30.000000011544941
 31
0.0
  0
LINE
  5
229
100
AcDbEntity
  8
0
  6
CONTINUOUS
 62
               7
100
AcDbLine
 10
22.0
 20
30.000000011544941
 30
0.0
 11
21.0
 21
30.000000011544941
 31
0.0
  0
LINE
  5
22A
100
AcDbEntity
  8
0
  6
CONTINUOUS
 62
               7
100
AcDbLine
 10
21.0
 20
30.000000011544941
 30
0.0
 11
18.8125
 21
27.500000011544941
 31
0.0
  0
LINE
  5
22B
100
AcDbEntity
  8
0
  6
CONTINUOUS
 62
               7
100
AcDbLine
 10
-24.700000002563058
 20
1.500000011544941
 30
0.0
 11
-27.700000002563058
 21
1.500000011544941
 31
0.0
  0
LINE
  5
22C
100
AcDbEntity
  8
0
  6
CONTINUOUS
 62
               7
100
AcDbLine
 10
-24.700000002563058
 20
5.500000011544941
 30
0.0
 11
-27.700000002563058
 21
5.500000011544941
 31
0.0
  0
LINE
  5
22D
100
AcDbEntity
  8
0
  6
CONTINUOUS
 62
               7
100
AcDbLine
 10
-24.700000002563058
 20
9.9230262939962728
 30
0.0
 11
-27.700000002563058
 21
9.9230262939962728
 31
0.0
  0
LINE
  5
22E
100
AcDbEntity
  8
0
  6
CONTINUOUS
 62
               7
100
AcDbLine
 10
-25.000000014483987
 20
30.000000011544941
 30
0.0
 11
-23.500000014483987
 21
30.000000011544941
 31
0.0
  0
LINE
  5
22F
100
AcDbEntity
  8
0
  6
CONTINUOUS
 62
               7
100
AcDbLine
 10
-25.0
 20
20.000000011544941
 30
0.0
 11
-27.700000000000003
 21
16.500000011544941
 31
0.0
  0
LINE
  5
230
100
AcDbEntity
  8
0
  6
CONTINUOUS
 62
               7
100
AcDbLine
 10
-25.0
 20
20.000000011544941
 30
0.0
 11
-25.0
 21
30.000000011544941
 31
0.0
  0
LINE
  5
231
100
AcDbEntity
  8
0
  6
CONTINUOUS
 62
               7
100
AcDbLine
 10
-27.700000000000003
 20
1.5000000139176137
 30
0.0
 11
-27.700000000000003
 21
16.500000011544941
 31
0.0
  0
LINE
  5
232
100
AcDbEntity
  8
0
  6
CONTINUOUS
 62
               7
100
AcDbLine
 10
-24.700000000000003
 20
1.5000000139176137
 30
0.0
 11
-24.700000000000003
 21
15.500000011544941
 31
0.0
  0
LINE
  5
233
100
AcDbEntity
  8
0
  6
CONTINUOUS
 62
               7
100
AcDbLine
 10
-22.5
 20
25.500000011544941
 30
0.0
 11
-22.5
 21
27.500000011544941
 31
0.0
  0
LINE
  5
234
100
AcDbEntity
  8
0
  6
CONTINUOUS
 62
               7
100
AcDbLine
 10
-23.500000014483987
 20
30.000000011544941
 30
0.0
 11
-22.5
 21
25.500000011544941
 31
0.0
  0
LINE
  5
235
100
AcDbEntity
  8
0
  6
CONTINUOUS
 62
               7
100
AcDbLine
 10
-21.0
 20
30.000000011544941
 30
0.0
 11
-18.8125
 21
27.500000011544941
 31
0.0
  0
LINE
  5
236
100
AcDbEntity
  8
0
  6
CONTINUOUS
 62
               7
100
AcDbLine
 10
-22.0
 20
30.000000011544941
 30
0.0
 11
-21.0
 21
30.000000011544941
 31
0.0
  0
LINE
  5
237
100
AcDbEntity
  8
0
  6
CONTINUOUS
 62
               7
100
AcDbLine
 10
-22.0
 20
27.500000011544941
 30
0.0
 11
-22.0
 21
30.000000011544941
 31
0.0
  0
LINE
  5
238
100
AcDbEntity
  8
0
  6
CONTINUOUS
 62
               7
100
AcDbLine
 10
8.0
 20
-0.0000000000000142
 30
0.0
 11
8.0
 21
12.399999999999991
 31
0.0
  0
LINE
  5
239
100
AcDbEntity
  8
0
  6
CONTINUOUS
 62
               7
100
AcDbLine
 10
-6.0
 20
3.0000000000000142
 30
0.0
 11
6.0
 21
2.9999999999999858
 31
0.0
  0
ARC
  5
23A
100
AcDbEntity
  8
0
  6
CONTINUOUS
 62
               7
100
AcDbCircle
 10
7.0
 20
12.399999999999991
 30
0.0
 40
1.0
100
AcDbArc
 50
0.0
 51
180.0
  0
LINE
  5
23B
100
AcDbEntity
  8
0
  6
CONTINUOUS
 62
               7
100
AcDbLine
 10
-6.0
 20
2.9999999999999858
 30
0.0
 11
-6.0
 21
12.399999999999991
 31
0.0
  0
LINE
  5
23C
100
AcDbEntity
  8
0
  6
CONTINUOUS
 62
               7
100
AcDbLine
 10
-8.0
 20
-0.0000000000000142
 30
0.0
 11
-8.0
 21
12.399999999999991
 31
0.0
  0
ARC
  5
23D
100
AcDbEntity
  8
0
  6
CONTINUOUS
 62
               7
100
AcDbCircle
 10
-7.0
 20
12.399999999999991
 30
0.0
 40
1.0
100
AcDbArc
 50
0.0
 51
180.0
  0
LINE
  5
23E
100
AcDbEntity
  8
0
  6
CONTINUOUS
 62
               7
100
AcDbLine
 10
-19.739999994612418
 20
28.560000005387721
 30
0.0
 11
-19.000000000000512
 21
29.300000000000011
 31
0.0
  0
LINE
  5
23F
100
AcDbEntity
  8
0
  6
CONTINUOUS
 62
               7
100
AcDbLine
 10
19.739999994612361
 20
28.56000000538765
 30
0.0
 11
19.0
 21
29.300000000000011
 31
0.0
  0
LINE
  5
240
100
AcDbEntity
  8
0
  6
CONTINUOUS
 62
               7
100
AcDbLine
 10
-13.5
 20
29.300000000000011
 30
0.0
 11
-19.000000000000512
 21
29.300000000000011
 31
0.0
  0
LINE
  5
241
100
AcDbEntity
  8
0
  6
CONTINUOUS
 62
               7
100
AcDbLine
 10
19.0
 20
29.300000000000011
 30
0.0
 11
13.5
 21
29.300000000000011
 31
0.0
  0
LINE
  5
242
100
AcDbEntity
  8
0
  6
CONTINUOUS
 62
               7
100
AcDbLine
 10
17.0
 20
29.300000000000011
 30
0.0
 11
17.0
 21
27.500000011544941
 31
0.0
  0
LINE
  5
243
100
AcDbEntity
  8
0
  6
CONTINUOUS
 62
               7
100
AcDbLine
 10
-17.0
 20
29.300000000000011
 30
0.0
 11
-17.0
 21
27.500000011544941
 31
0.0
  0
LINE
  5
244
100
AcDbEntity
  8
0
  6
CONTINUOUS
 62
               7
100
AcDbLine
 10
-13.5
 20
27.500000011544941
 30
0.0
 11
-13.5
 21
32.700000000000003
 31
0.0
  0
LINE
  5
245
100
AcDbEntity
  8
0
  6
CONTINUOUS
 62
               7
100
AcDbLine
 10
13.5
 20
27.500000011544941
 30
0.0
 11
13.5
 21
32.700000000000003
 31
0.0
  0
LINE
  5
246
100
AcDbEntity
  8
0
  6
CONTINUOUS
 62
               7
100
AcDbLine
 10
13.5
 20
32.700000000000003
 30
0.0
 11
-13.5
 21
32.700000000000003
 31
0.0
  0
LINE
  5
247
100
AcDbEntity
  8
0
  6
CONTINUOUS
 62
               7
100
AcDbLine
 10
-6.0
 20
6.5000000000000142
 30
0.0
 11
6.0
 21
6.4999999999999858
 31
0.0
  0
ENDBLK
  5
248
100
AcDbEntity
  8
0
100
AcDbBlockEnd
  0
BLOCK
  5
22
100
AcDbEntity
  8
0
  6
ByBlock
 62
               0
100
AcDbBlockBegin
  2
_OPEN30
 70
               2
 10
0.0
 20
0.0
 30
0.0
  3
_OPEN30
  1

  0
LINE
  5
23
100
AcDbEntity
  8
0
  6
ByBlock
 62
               0
100
AcDbLine
 10
-1.0
 20
0.267949
 30
0.0
 11
0.0
 21
0.0
 31
0.0
  0
LINE
  5
24
100
AcDbEntity
  8
0
  6
ByBlock
 62
               0
100
AcDbLine
 10
0.0
 20
0.0
 30
0.0
 11
-1.0
 21
-0.267949
 31
0.0
  0
LINE
  5
25
100
AcDbEntity
  8
0
  6
ByBlock
 62
               0
100
AcDbLine
 10
0.0
 20
0.0
 30
0.0
 11
-1.0
 21
0.0
 31
0.0
  0
ENDBLK
  5
26
100
AcDbEntity
  8
0
  6
ByBlock
 62
               0
100
AcDbBlockEnd
  0
ENDSEC
  0
SECTION
  2
ENTITIES
  0
INSERT
  5
249
100
AcDbEntity
  8
0
  6
ByBlock
100
AcDbBlockReference
  2
DTY-EPU-P-3
 10
-40.0
 20
50.0
 30
0.0
  0
INSERT
  5
24A
100
AcDbEntity
  8
0
  6
ByBlock
100
AcDbBlockReference
  2
DTY-EPU-P-2
 10
54.098704319796695
 20
-30.031803123551718
 30
0.0
  0
INSERT
  5
24B
100
AcDbEntity
  8
0
  6
ByBlock
100
AcDbBlockReference
  2
DTY-EPU-P-1
 10
-40.0
 20
-30.031803102159465
 30
0.0
  0
MTEXT
  5
24C
100
AcDbEntity
  8
0
  6
CONTINUOUS
 62
               7
100
AcDbMText
 10
-173.44064748374967
 20
128.85000610351562
 30
0.0
 40
4.5
 41
0.0
 71
               4
 72
               1
  1
\W1.079;\A1;EP MONITER
  0
MTEXT
  5
24D
100
AcDbEntity
  8
0
  6
CONTINUOUS
 62
               7
100
AcDbMText
 10
-171.25
 20
121.35000610351562
 30
0.0
 40
4.5
 41
0.0
 71
               4
 72
               1
  1
\A1;DTY-EPU-P
  0
MTEXT
  5
24E
100
AcDbEntity
  8
0
  6
CONTINUOUS
 62
               7
100
AcDbMText
 10
-185.71511627961377
 20
107.60000610351562
 30
0.0
 40
4.5
 41
0.0
 71
               4
 72
               1
  1
\W1.047;\A1;MODEL:DTY-EPU-P
  0
LINE
  5
24F
100
AcDbEntity
  8
0
  6
CONTINUOUS
 62
               7
100
AcDbLine
 10
-194.25
 20
132.60000610351562
 30
0.0
 11
194.80000305175781
 21
132.60000610351562
 31
0.0
  0
LINE
  5
250
100
AcDbEntity
  8
0
  6
CONTINUOUS
 62
               7
100
AcDbLine
 10
194.80000305175781
 20
132.60000610351562
 30
0.0
 11
194.80000305175781
 21
-133.5
 31
0.0
  0
LINE
  5
251
100
AcDbEntity
  8
0
  6
CONTINUOUS
 62
               7
100
AcDbLine
 10
-194.25
 20
132.60000610351562
 30
0.0
 11
-194.25
 21
-133.5
 31
0.0
  0
LINE
  5
252
100
AcDbEntity
  8
0
  6
CONTINUOUS
 62
               7
100
AcDbLine
 10
-194.25
 20
-133.5
 30
0.0
 11
194.80000305175781
 21
-133.5
 31
0.0
  0
LINE
  5
253
100
AcDbEntity
  8
0
  6
CONTINUOUS
 62
               7
100
AcDbLine
 10
109.80000305175781
 20
-118.5
 30
0.0
 11
109.80000305175781
 21
-133.5
 31
0.0
  0
LINE
  5
254
100
AcDbEntity
  8
0
  6
CONTINUOUS
 62
               7
100
AcDbLine
 10
109.80000305175781
 20
-118.5
 30
0.0
 11
194.80000305175781
 21
-118.5
 31
0.0
  0
LINE
  5
255
100
AcDbEntity
  8
0
  6
CONTINUOUS
 62
               7
100
AcDbLine
 10
109.80000305175781
 20
132.60000610351562
 30
0.0
 11
109.80000305175781
 21
117.60000610351562
 31
0.0
  0
LINE
  5
256
100
AcDbEntity
  8
0
  6
CONTINUOUS
 62
               7
100
AcDbLine
 10
109.80000305175781
 20
117.60000610351562
 30
0.0
 11
194.80000305175781
 21
117.60000610351562
 31
0.0
  0
LINE
  5
257
100
AcDbEntity
  8
0
  6
CONTINUOUS
 62
               7
100
AcDbLine
 10
-194.25
 20
117.60000610351562
 30
0.0
 11
-109.25
 21
117.60000610351562
 31
0.0
  0
LINE
  5
258
100
AcDbEntity
  8
0
  6
CONTINUOUS
 62
               7
100
AcDbLine
 10
-109.25
 20
132.60000610351562
 30
0.0
 11
-109.25
 21
117.60000610351562
 31
0.0
  0
MTEXT
  5
259
100
AcDbEntity
  8
0
  6
CONTINUOUS
 62
               7
100
AcDbMText
 10
135.2836095995238
 20
125.10000610351562
 30
0.0
 40
4.5
 41
0.0
 71
               4
 72
               1
  1
\W1.311;\A1;Ver. 1.0
  0
MTEXT
  5
25A
100
AcDbEntity
  8
0
  6
CONTINUOUS
 62
               7
100
AcDbMText
 10
115.5267440447775
 20
-126.0
 30
0.0
 40
6.2999992370605469
 41
0.0
 71
               4
 72
               1
  1
\W1.121;\A1;KOGANEI CORP.
  0
ENDSEC
  0
SECTION
  2
OBJECTS
  0
DICTIONARY
  5
19
100
AcDbDictionary
  3
ACAD_GROUP
350
1A
  3
ACAD_MLINESTYLE
350
1B
  0
DICTIONARY
  5
1A
102
{ACAD_REACTORS
330
19
102
}
100
AcDbDictionary
  0
DICTIONARY
  5
1B
102
{ACAD_REACTORS
330
19
102
}
100
AcDbDictionary
  3
STANDARD
350
1C
  0
MLINESTYLE
  5
1C
102
{ACAD_REACTORS
330
1B
102
}
100
AcDbMlineStyle
  2
Standard
 70
               0
  3

 62
               0
 51
90.0
 52
90.0
 71
               2
 49
0.5
 62
             256
  6
ByLayer
 49
-0.5
 62
             256
  6
ByLayer
  0
ENDSEC
  0
EOF
