  0
SECTION
  2
HEADER
  9
$ACADVER
  1
AC1012
  9
$DWGCODEPAGE
  3
dos932
  9
$INSBASE
 10
0.0
 20
0.0
 30
0.0
  9
$EXTMIN
 10
-194.25
 20
-133.5
 30
0.0
  9
$EXTMAX
 10
196.24998569488525
 20
132.60000610351562
 30
0.0
  9
$LIMMIN
 10
-210.0
 20
-148.5
  9
$LIMMAX
 10
210.0
 20
148.5
  9
$ORTHOMODE
 70
               0
  9
$REGENMODE
 70
               1
  9
$FILLMODE
 70
               1
  9
$QTEXTMODE
 70
               0
  9
$MIRRTEXT
 70
               1
  9
$DRAGMODE
 70
               2
  9
$LTSCALE
 40
1.0
  9
$OSMODE
 70
               0
  9
$ATTMODE
 70
               1
  9
$TEXTSIZE
 40
3.2000000476837158
  9
$TRACEWID
 40
0.05
  9
$TEXTSTYLE
  7
MX_NOTE_STANDARD
  9
$CLAYER
  8
0
  9
$CELTYPE
  6
CONTINUOUS
  9
$CECOLOR
 62
             256
  9
$CELTSCALE
 40
1.0
  9
$DELOBJ
 70
               1
  9
$DISPSILH
 70
               0
  9
$DIMSCALE
 40
1.0
  9
$DIMASZ
 40
2.5
  9
$DIMEXO
 40
1.5
  9
$DIMDLI
 40
3.75
  9
$DIMRND
 40
0.0
  9
$DIMDLE
 40
0.0
  9
$DIMEXE
 40
1.5
  9
$DIMTP
 40
0.0
  9
$DIMTM
 40
0.0
  9
$DIMTXT
 40
3.2000000476837158
  9
$DIMCEN
 40
2.5
  9
$DIMTSZ
 40
0.0
  9
$DIMTOL
 70
               0
  9
$DIMLIM
 70
               0
  9
$DIMTIH
 70
               0
  9
$DIMTOH
 70
               0
  9
$DIMSE1
 70
               0
  9
$DIMSE2
 70
               0
  9
$DIMTAD
 70
               1
  9
$DIMZIN
 70
               8
  9
$DIMBLK
  1

  9
$DIMASO
 70
               1
  9
$DIMSHO
 70
               1
  9
$DIMPOST
  1

  9
$DIMAPOST
  1

  9
$DIMALT
 70
               0
  9
$DIMALTD
 70
               4
  9
$DIMALTF
 40
0.03937007874016
  9
$DIMLFAC
 40
1.0
  9
$DIMTOFL
 70
               1
  9
$DIMTVP
 40
0.0
  9
$DIMTIX
 70
               0
  9
$DIMSOXD
 70
               0
  9
$DIMSAH
 70
               1
  9
$DIMBLK1
  1
_OPEN30
  9
$DIMBLK2
  1
_OPEN30
  9
$DIMSTYLE
  2
MXDIMSTYLE
  9
$DIMCLRD
 70
               0
  9
$DIMCLRE
 70
               0
  9
$DIMCLRT
 70
               0
  9
$DIMTFAC
 40
1.0
  9
$DIMGAP
 40
1.0
  9
$DIMJUST
 70
               0
  9
$DIMSD1
 70
               0
  9
$DIMSD2
 70
               0
  9
$DIMTOLJ
 70
               0
  9
$DIMTZIN
 70
               0
  9
$DIMALTZ
 70
               0
  9
$DIMALTTZ
 70
               0
  9
$DIMFIT
 70
               3
  9
$DIMUPT
 70
               1
  9
$DIMUNIT
 70
               2
  9
$DIMDEC
 70
               2
  9
$DIMTDEC
 70
               2
  9
$DIMALTU
 70
               2
  9
$DIMALTTD
 70
               4
  9
$DIMTXSTY
  7
MX_NOTE_STANDARD
  9
$DIMAUNIT
 70
               0
  9
$LUNITS
 70
               2
  9
$LUPREC
 70
               4
  9
$SKETCHINC
 40
0.1
  9
$FILLETRAD
 40
0.0
  9
$AUNITS
 70
               0
  9
$AUPREC
 70
               0
  9
$MENU
  1
acad
  9
$ELEVATION
 40
0.0
  9
$PELEVATION
 40
0.0
  9
$THICKNESS
 40
0.0
  9
$LIMCHECK
 70
               0
  9
$BLIPMODE
 70
               1
  9
$CHAMFERA
 40
0.0
  9
$CHAMFERB
 40
0.0
  9
$CHAMFERC
 40
0.0
  9
$CHAMFERD
 40
0.0
  9
$SKPOLY
 70
               0
  9
$TDCREATE
 40
2454057.468761574
  9
$TDUPDATE
 40
2454057.468761574
  9
$TDINDWG
 40
0.0000000000
  9
$TDUSRTIMER
 40
0.0000000000
  9
$USRTIMER
 70
               1
  9
$ANGBASE
 50
0.0
  9
$ANGDIR
 70
               0
  9
$PDMODE
 70
               0
  9
$PDSIZE
 40
0.0
  9
$PLINEWID
 40
0.0
  9
$COORDS
 70
               1
  9
$SPLFRAME
 70
               0
  9
$SPLINETYPE
 70
               6
  9
$SPLINESEGS
 70
               8
  9
$ATTDIA
 70
               0
  9
$ATTREQ
 70
               1
  9
$HANDLING
 70
               1
  9
$HANDSEED
  5
233
  9
$SURFTAB1
 70
               6
  9
$SURFTAB2
 70
               6
  9
$SURFTYPE
 70
               6
  9
$SURFU
 70
               6
  9
$SURFV
 70
               6
  9
$UCSNAME
  2

  9
$UCSORG
 10
0.0
 20
0.0
 30
0.0
  9
$UCSXDIR
 10
1.0
 20
0.0
 30
0.0
  9
$UCSYDIR
 10
0.0
 20
1.0
 30
0.0
  9
$PUCSNAME
  2

  9
$PUCSORG
 10
0.0
 20
0.0
 30
0.0
  9
$PUCSXDIR
 10
1.0
 20
0.0
 30
0.0
  9
$PUCSYDIR
 10
0.0
 20
1.0
 30
0.0
  9
$USERI1
 70
               0
  9
$USERI2
 70
               0
  9
$USERI3
 70
               0
  9
$USERI4
 70
               0
  9
$USERI5
 70
               0
  9
$USERR1
 40
0.0
  9
$USERR2
 40
0.0
  9
$USERR3
 40
0.0
  9
$USERR4
 40
0.0
  9
$USERR5
 40
0.0
  9
$WORLDVIEW
 70
               1
  9
$SHADEDGE
 70
               3
  9
$SHADEDIF
 70
              70
  9
$TILEMODE
 70
               1
  9
$MAXACTVP
 70
              16
  9
$PINSBASE
 10
0.0
 20
0.0
 30
0.0
  9
$PLIMCHECK
 70
               0
  9
$PEXTMIN
 10
1.0000000000000000E+20
 20
1.0000000000000000E+20
 30
1.0000000000000000E+20
  9
$PEXTMAX
 10
-1.0000000000000000E+20
 20
-1.0000000000000000E+20
 30
-1.0000000000000000E+20
  9
$PLIMMIN
 10
0.0
 20
0.0
  9
$PLIMMAX
 10
12.0
 20
9.0
  9
$UNITMODE
 70
               0
  9
$VISRETAIN
 70
               0
  9
$PLINEGEN
 70
               1
  9
$PSLTSCALE
 70
               0
  9
$TREEDEPTH
 70
            3020
  9
$PICKSTYLE
 70
               1
  9
$CMLSTYLE
  2
Standard
  9
$CMLJUST
 70
               0
  9
$CMLSCALE
 40
1.0
  9
$SAVEIMAGES
 70
               0
  0
ENDSEC
  0
SECTION
  2
CLASSES
  0
CLASS
  1
LWPOLYLINE
  2
AcDbPolyline
  3
"AutoCAD"
 90
    32768
280
               0
281
               1
  0
CLASS
  1
IMAGE
  2
AcDbRasterImage
  3
ISM
 90
    32895
280
               0
281
               1
  0
CLASS
  1
OLE2FRAME
  2
AcDbOle2Frame
  3
""
 90
    32768
280
               0
281
               1
  0
CLASS
  1
HATCH
  2
AcDbHatch
  3
"ACAD_SEDONA"
 90
    32768
280
               0
281
               1
  0
CLASS
  1
DICTIONARYVAR
  2
AcDbDictionaryVar
  3
"AutoCAD"
 90
    32768
280
               0
281
               0
  0
CLASS
  1
RASTERVARIABLES
  2
AcDbRasterVariables
  3
ISM
 90
    32768
280
               0
281
               0
  0
CLASS
  1
IMAGEDEF
  2
AcDbRasterImageDef
  3
ISM
 90
    32768
280
               0
281
               0
  0
CLASS
  1
IMAGEDEF_REACTOR
  2
AcDbRasterImageDefReactor
  3
ISM
 90
    32769
280
               0
281
               0
  0
CLASS
  1
IDBUFFER
  2
AcDbIdBuffer
  3
"Acad"
 90
    32768
280
               0
281
               0
  0
CLASS
  1
SPATIAL_FILTER
  2
AcDbSpatialFilter
  3
"Acad"
 90
    32768
280
               0
281
               0
  0
CLASS
  1
XRECORD
  2
AcDbXrecord
  3
"<Built In>"
 90
    32768
280
               0
281
               0
  0
CLASS
  1
SORTENTSTABLE
  2
AcDbSortentsTable
  3
"AutoCAD"
 90
    32768
280
               0
281
               0
  0
CLASS
  1
LAYER_INDEX
  2
AcDbLayerIndex
  3
"Acad"
 90
    32768
280
               0
281
               0
  0
CLASS
  1
SPATIAL_INDEX
  2
AcDbSpatialIndex
  3
"Acad"
 90
    32768
280
               0
281
               0
  0
CLASS
  1
OBJECT_PTR
  2
CAseDLPNTableRecord
  3
"ASE-LPNTableRecord"
 90
    32769
280
               0
281
               0
  0
CLASS
  1
LAYOUT
  2
AcDbLayout
  3
"AutoCAD 2000"
 90
    32768
280
               0
281
               0
  0
CLASS
  1
PLOTSETTINGS
  2
AcDbPlotSettings
  3
"AutoCAD 2000"
 90
    32768
280
               0
281
               0
  0
CLASS
  1
ACDBDICTIONARYWDFLT
  2
AcDbDictionaryWithDefault
  3
"AutoCAD 2000"
 90
    32768
280
               0
281
               0
  0
CLASS
  1
ACDBPLACEHOLDER
  2
AcDbPlaceHolder
  3
"AutoCAD 2000"
 90
    32768
280
               0
281
               0
  0
ENDSEC
  0
SECTION
  2
TABLES
  0
TABLE
  2
VPORT
  5
7
100
AcDbSymbolTable
 70
               1
  0
VPORT
  5
15
100
AcDbSymbolTableRecord
100
AcDbViewportTableRecord
  2
*ACTIVE
 70
               0
 10
0.0
 20
0.0
 11
1.0
 21
1.0
 12
0.0
 22
0.0
 13
0.0
 23
0.0
 14
1.0
 24
1.0
 15
0.0
 25
0.0
 16
0.0
 26
0.0
 36
1.0
 17
0.0
 27
0.0
 37
0.0
 40
299.97000000000003
 41
1.7320508075688772
 42
50.0
 43
0.0
 44
0.0
 50
0.0
 51
0.0
 71
               0
 72
             100
 73
               1
 74
               1
 75
               0
 76
               0
 77
               0
 78
               0
  0
ENDTAB
  0
TABLE
  2
LTYPE
  5
4
100
AcDbSymbolTable
 70
               4
  0
LTYPE
  5
11
100
AcDbSymbolTableRecord
100
AcDbLinetypeTableRecord
  2
BYBLOCK
 70
              64
  3

 72
              65
 73
               0
 40
0.0
  0
LTYPE
  5
12
100
AcDbSymbolTableRecord
100
AcDbLinetypeTableRecord
  2
BYLAYER
 70
              64
  3

 72
              65
 73
               0
 40
0.0
  0
LTYPE
  5
13
100
AcDbSymbolTableRecord
100
AcDbLinetypeTableRecord
  2
CONTINUOUS
 70
              64
  3
Solid line
 72
              65
 73
               0
 40
0.0
  0
LTYPE
  5
181
100
AcDbSymbolTableRecord
100
AcDbLinetypeTableRecord
  2
DASHED
 70
              64
  3
Dashed __ __ __ __ __ __ __ __ __ __ __ __ __ _
 72
              65
 73
               2
 40
19.049999999999997
 49
12.699999999999999
 74
               0
 49
-6.3499999999999996
 74
               0
  0
ENDTAB
  0
TABLE
  2
LAYER
  5
2
100
AcDbSymbolTable
 70
               2
  0
LAYER
  5
14
100
AcDbSymbolTableRecord
100
AcDbLayerTableRecord
  2
0
 70
               0
 62
               7
  6
CONTINUOUS
  0
LAYER
  5
1D
100
AcDbSymbolTableRecord
100
AcDbLayerTableRecord
  2
DEFPOINTS
 70
               0
 62
               7
  6
CONTINUOUS
  0
ENDTAB
  0
TABLE
  2
STYLE
  5
3
100
AcDbSymbolTable
 70
               1
  0
STYLE
  5
17
100
AcDbSymbolTableRecord
100
AcDbTextStyleTableRecord
  2
MX_NOTE_STANDARD
 70
               0
 40
0.0
 41
1.0
 50
0.0
 71
               0
 42
3.2000000476837158
  3
txt.shx
  4
extfont.shx
  0
ENDTAB
  0
TABLE
  2
VIEW
  5
5
100
AcDbSymbolTable
 70
               0
  0
ENDTAB
  0
TABLE
  2
UCS
  5
6
100
AcDbSymbolTable
 70
               0
  0
ENDTAB
  0
TABLE
  2
APPID
  5
8
100
AcDbSymbolTable
 70
               1
  0
APPID
  5
16
100
AcDbSymbolTableRecord
100
AcDbRegAppTableRecord
  2
ACAD
 70
               0
  0
ENDTAB
  0
TABLE
  2
DIMSTYLE
  5
9
100
AcDbSymbolTable
 70
               1
  0
DIMSTYLE
105
18
100
AcDbSymbolTableRecord
100
AcDbDimStyleTableRecord
  2
MXDIMSTYLE
 70
               0
  3

  4

  5

  6
_OPEN30
  7
_OPEN30
 40
1.0
 41
2.5
 42
1.5
 43
3.75
 44
1.5
 45
0.0
 46
0.0
 47
0.0
 48
0.0
 71
               0
 72
               0
 73
               0
 74
               0
 75
               0
 76
               0
 77
               1
 78
               8
140
3.2000000476837158
141
2.5
142
0.0
143
0.03937007874016
144
1.0
145
0.0
146
1.0
147
1.0
170
               0
171
               4
172
               1
173
               1
174
               0
175
               0
176
               0
177
               0
178
               0
270
               2
271
               2
272
               2
273
               2
274
               4
275
               0
280
               0
281
               0
282
               0
283
               0
284
               0
285
               0
286
               0
287
               3
288
               1
340
17
  0
ENDTAB
  0
TABLE
  2
BLOCK_RECORD
  5
1
100
AcDbSymbolTable
 70
               4
  0
BLOCK_RECORD
  5
A
100
AcDbSymbolTableRecord
100
AcDbBlockTableRecord
  2
*MODEL_SPACE
  0
BLOCK_RECORD
  5
B
100
AcDbSymbolTableRecord
100
AcDbBlockTableRecord
  2
*PAPER_SPACE
  0
BLOCK_RECORD
  5
1E
100
AcDbSymbolTableRecord
100
AcDbBlockTableRecord
  2
DTY-EPU-1
  0
BLOCK_RECORD
  5
1F
100
AcDbSymbolTableRecord
100
AcDbBlockTableRecord
  2
DTY-EPU-2
  0
BLOCK_RECORD
  5
20
100
AcDbSymbolTableRecord
100
AcDbBlockTableRecord
  2
DTY-EPU-3
  0
BLOCK_RECORD
  5
21
100
AcDbSymbolTableRecord
100
AcDbBlockTableRecord
  2
_OPEN30
  0
ENDTAB
  0
ENDSEC
  0
SECTION
  2
BLOCKS
  0
BLOCK
  5
D
100
AcDbEntity
  8
0
100
AcDbBlockBegin
  2
*MODEL_SPACE
 70
               0
 10
0.0
 20
0.0
 30
0.0
  3
*MODEL_SPACE
  1

  0
ENDBLK
  5
E
100
AcDbEntity
  8
0
100
AcDbBlockEnd
  0
BLOCK
  5
F
100
AcDbEntity
 67
               1
  8
0
100
AcDbBlockBegin
  2
*PAPER_SPACE
 70
               0
 10
0.0
 20
0.0
 30
0.0
  3
*PAPER_SPACE
  1

  0
ENDBLK
  5
10
100
AcDbEntity
 67
               1
  8
0
100
AcDbBlockEnd
  0
BLOCK
  5
27
100
AcDbEntity
  8
0
100
AcDbBlockBegin
  2
DTY-EPU-1
 70
               0
 10
0.0
 20
0.0
 30
0.0
  3
DTY-EPU-1
  1

  0
LINE
  5
28
100
AcDbEntity
  8
0
  6
CONTINUOUS
 62
               7
100
AcDbLine
 10
34.0
 20
37.350000000000001
 30
0.0
 11
-4.0
 21
37.350000000000001
 31
0.0
  0
LINE
  5
29
100
AcDbEntity
  8
0
  6
CONTINUOUS
 62
               7
100
AcDbLine
 10
34.0
 20
-2.6499999999999986
 30
0.0
 11
-4.0
 21
-2.6499999999999986
 31
0.0
  0
LINE
  5
2A
100
AcDbEntity
  8
0
  6
CONTINUOUS
 62
               7
100
AcDbLine
 10
34.0
 20
36.350000000000001
 30
0.0
 11
-4.0
 21
36.350000000000001
 31
0.0
  0
LINE
  5
2B
100
AcDbEntity
  8
0
  6
CONTINUOUS
 62
               7
100
AcDbLine
 10
34.0
 20
-1.6499999999999986
 30
0.0
 11
-4.0
 21
-1.6499999999999986
 31
0.0
  0
LINE
  5
2C
100
AcDbEntity
  8
0
  6
CONTINUOUS
 62
               7
100
AcDbLine
 10
33.5
 20
19.600000000000001
 30
0.0
 11
-3.5
 21
19.600000000000001
 31
0.0
  0
LINE
  5
2D
100
AcDbEntity
  8
0
  6
CONTINUOUS
 62
               7
100
AcDbLine
 10
33.0
 20
-1.1499999999999986
 30
0.0
 11
-3.0
 21
-1.1499999999999986
 31
0.0
  0
LINE
  5
2E
100
AcDbEntity
  8
0
  6
CONTINUOUS
 62
               7
100
AcDbLine
 10
33.0
 20
35.850000000000001
 30
0.0
 11
-3.0
 21
35.850000000000001
 31
0.0
  0
CIRCLE
  5
2F
100
AcDbEntity
  8
0
  6
CONTINUOUS
 62
               7
100
AcDbCircle
 10
11.5
 20
2.3500000000000014
 30
0.0
 40
2.0
  0
CIRCLE
  5
30
100
AcDbEntity
  8
0
  6
CONTINUOUS
 62
               7
100
AcDbCircle
 10
11.5
 20
8.8500000000000014
 30
0.0
 40
2.0
  0
LINE
  5
31
100
AcDbEntity
  8
0
  6
CONTINUOUS
 62
               7
100
AcDbLine
 10
30.0
 20
20.100000000000001
 30
0.0
 11
0.0
 21
20.100000000000001
 31
0.0
  0
ARC
  5
32
100
AcDbEntity
  8
0
  6
CONTINUOUS
 62
               7
100
AcDbCircle
 10
10.453020748011411
 20
28.802745534838671
 30
0.0
 40
0.300000000000006
100
AcDbArc
 50
354.99999999999267
 51
34.999999999990294
  0
LINE
  5
33
100
AcDbEntity
  8
0
  6
CONTINUOUS
 62
               7
100
AcDbLine
 10
10.024264068711986
 20
21.100000000000101
 30
0.0
 11
12.523705361908512
 21
21.100000000000236
 31
0.0
  0
LINE
  5
34
100
AcDbEntity
  8
0
  6
CONTINUOUS
 62
               7
100
AcDbLine
 10
12.103580838982609
 20
22.300000000000367
 30
0.0
 11
10.624264068712037
 21
22.300000000000196
 31
0.0
  0
LINE
  5
35
100
AcDbEntity
  8
0
  6
CONTINUOUS
 62
               7
100
AcDbLine
 10
10.537132034355366
 20
25.71286796564403
 30
0.0
 11
10.812132034355457
 21
25.437867965643939
 31
0.0
  0
LINE
  5
36
100
AcDbEntity
  8
0
  6
CONTINUOUS
 62
               7
100
AcDbLine
 10
10.862132034355383
 20
26.462132034355974
 30
0.0
 11
10.537132034355366
 21
26.13713203435595
 31
0.0
  0
LINE
  5
37
100
AcDbEntity
  8
0
  6
CONTINUOUS
 62
               7
100
AcDbLine
 10
10.598577845743293
 20
27.024356801252956
 30
0.0
 11
10.75187915743895
 21
28.776598812014335
 31
0.0
  0
LINE
  5
38
100
AcDbEntity
  8
0
  6
CONTINUOUS
 62
               7
100
AcDbLine
 10
13.175735931287207
 20
30.800000000000125
 30
0.0
 11
10.676294638090681
 21
30.799999999999976
 31
0.0
  0
LINE
  5
39
100
AcDbEntity
  8
0
  6
CONTINUOUS
 62
               7
100
AcDbLine
 10
10.430549024803994
 20
30.327927069094663
 30
0.0
 11
10.850673547729897
 21
29.727927069094541
 31
0.0
  0
LINE
  5
3A
100
AcDbEntity
  8
0
  6
CONTINUOUS
 62
               7
100
AcDbLine
 10
30.0
 20
31.600000000000001
 30
0.0
 11
0.0
 21
31.600000000000001
 31
0.0
  0
CIRCLE
  5
3B
100
AcDbEntity
  8
0
  6
CONTINUOUS
 62
               7
100
AcDbCircle
 10
14.625022672948035
 20
21.950000000000017
 30
0.0
 40
0.3999999999999986
  0
CIRCLE
  5
3C
100
AcDbEntity
  8
0
  6
CONTINUOUS
 62
               7
100
AcDbCircle
 10
21.425022672948103
 20
21.950000000000017
 30
0.0
 40
0.3999999999999986
  0
LINE
  5
3D
100
AcDbEntity
  8
0
  6
CONTINUOUS
 62
               7
100
AcDbLine
 10
11.096419161016613
 20
29.599999999999838
 30
0.0
 11
12.575735931287156
 21
29.600000000000037
 31
0.0
  0
LINE
  5
3E
100
AcDbEntity
  8
0
  6
CONTINUOUS
 62
               7
100
AcDbLine
 10
12.787867965643116
 20
29.687867965644081
 30
0.0
 11
13.387867965643224
 21
30.287867965644168
 31
0.0
  0
LINE
  5
3F
100
AcDbEntity
  8
0
  6
CONTINUOUS
 62
               7
100
AcDbLine
 10
12.959930441493398
 20
28.973411672838644
 30
0.0
 11
12.782794700474298
 21
26.948740888303639
 31
0.0
  0
LINE
  5
40
100
AcDbEntity
  8
0
  6
CONTINUOUS
 62
               7
100
AcDbLine
 10
12.869521075545819
 20
26.710462131123336
 30
0.0
 11
13.112307656927939
 21
26.467675549741223
 31
0.0
  0
LINE
  5
41
100
AcDbEntity
  8
0
  6
CONTINUOUS
 62
               7
100
AcDbLine
 10
13.536571725639888
 20
26.467675549741216
 30
0.0
 11
13.907267665619955
 21
26.838371489721318
 31
0.0
  0
LINE
  5
42
100
AcDbEntity
  8
0
  6
CONTINUOUS
 62
               7
100
AcDbLine
 10
13.993994040691561
 20
27.024356801252956
 30
0.0
 11
14.217684980924375
 21
29.581155947765964
 31
0.0
  0
LINE
  5
43
100
AcDbEntity
  8
0
  6
CONTINUOUS
 62
               7
100
AcDbLine
 10
13.706694537140876
 20
29.819434704946239
 30
0.0
 11
13.046656816564948
 21
29.159396984370289
 31
0.0
  0
LINE
  5
44
100
AcDbEntity
  8
0
  6
CONTINUOUS
 62
               7
100
AcDbLine
 10
12.601620113042273
 20
24.877905878029388
 30
0.0
 11
12.448120842560272
 21
23.12340118798587
 31
0.0
  0
LINE
  5
45
100
AcDbEntity
  8
0
  6
CONTINUOUS
 62
               7
100
AcDbLine
 10
12.501233638701066
 20
22.925181534256275
 30
0.0
 11
13.036629555835177
 21
22.160556922383037
 31
0.0
  0
LINE
  5
46
100
AcDbEntity
  8
0
  6
CONTINUOUS
 62
               7
100
AcDbLine
 10
13.581233578549458
 20
22.306483130463974
 30
0.0
 11
13.812819453259564
 21
24.953521790978719
 31
0.0
  0
LINE
  5
47
100
AcDbEntity
  8
0
  6
CONTINUOUS
 62
               7
100
AcDbLine
 10
13.726093078188015
 20
25.191800548159016
 30
0.0
 11
13.483306496805866
 21
25.434587129541136
 31
0.0
  0
LINE
  5
48
100
AcDbEntity
  8
0
  6
CONTINUOUS
 62
               7
100
AcDbLine
 10
13.059042428093946
 20
25.434587129541129
 30
0.0
 11
12.688346488113822
 21
25.063891189561033
 31
0.0
  0
LINE
  5
49
100
AcDbEntity
  8
0
  6
CONTINUOUS
 62
               7
100
AcDbLine
 10
12.175735931287434
 20
26.54999999999999
 30
0.0
 11
11.074264068711315
 21
26.54999999999999
 31
0.0
  0
LINE
  5
4A
100
AcDbEntity
  8
0
  6
CONTINUOUS
 62
               7
100
AcDbLine
 10
11.024264068711418
 20
25.349999999999895
 30
0.0
 11
12.125735931287622
 21
25.350000000000001
 31
0.0
  0
LINE
  5
4B
100
AcDbEntity
  8
0
  6
CONTINUOUS
 62
               7
100
AcDbLine
 10
12.337867965643497
 20
25.437867965644031
 30
0.0
 11
12.662867965643485
 21
25.762867965643984
 31
0.0
  0
LINE
  5
4C
100
AcDbEntity
  8
0
  6
CONTINUOUS
 62
               7
100
AcDbLine
 10
12.662867965643485
 20
26.187132034355912
 30
0.0
 11
12.387867965643451
 21
26.462132034355953
 31
0.0
  0
LINE
  5
4D
100
AcDbEntity
  8
0
  6
CONTINUOUS
 62
               7
100
AcDbLine
 10
12.769450975195198
 20
21.572072930905556
 30
0.0
 11
12.349326452269295
 21
22.172072930905671
 31
0.0
  0
ARC
  5
4E
100
AcDbEntity
  8
0
  6
CONTINUOUS
 62
               7
100
AcDbCircle
 10
11.096419161016584
 20
29.899999999999842
 30
0.0
 40
0.3000000000000008
100
AcDbArc
 50
214.99999999999926
 51
270.0000000000075
  0
ARC
  5
4F
100
AcDbEntity
  8
0
  6
CONTINUOUS
 62
               7
100
AcDbCircle
 10
12.575735931287156
 20
29.900000000000048
 30
0.0
 40
0.3000000000000007
100
AcDbArc
 50
270.0
 51
315.00000000000045
  0
ARC
  5
50
100
AcDbEntity
  8
0
  6
CONTINUOUS
 62
               7
100
AcDbCircle
 10
13.175735931287207
 20
30.500000000000128
 30
0.0
 40
0.3000000000000007
100
AcDbArc
 50
315.00000000000409
 51
90.000000000003411
  0
ARC
  5
51
100
AcDbEntity
  8
0
  6
CONTINUOUS
 62
               7
100
AcDbCircle
 10
13.258788850920908
 20
28.947264950014322
 30
0.0
 40
0.300000000000002
100
AcDbArc
 50
135.00000000000045
 51
174.99999999999531
  0
ARC
  5
52
100
AcDbEntity
  8
0
  6
CONTINUOUS
 62
               7
100
AcDbCircle
 10
13.081653109901779
 20
26.922594165479303
 30
0.0
 40
0.300000000000006
100
AcDbArc
 50
174.99999999999238
 51
224.99999999999949
  0
ARC
  5
53
100
AcDbEntity
  8
0
  6
CONTINUOUS
 62
               7
100
AcDbCircle
 10
13.324439691283928
 20
26.679807584097183
 30
0.0
 40
0.3000000000000007
100
AcDbArc
 50
225.0
 51
314.99999999999977
  0
ARC
  5
54
100
AcDbEntity
  8
0
  6
CONTINUOUS
 62
               7
100
AcDbCircle
 10
13.695135631264051
 20
27.050503524077278
 30
0.0
 40
0.3000000000000013
100
AcDbArc
 50
314.99999999999619
 51
354.99999999999523
  0
ARC
  5
55
100
AcDbEntity
  8
0
  6
CONTINUOUS
 62
               7
100
AcDbCircle
 10
13.918826571496837
 20
29.607302670590265
 30
0.0
 40
0.300000000000006
100
AcDbArc
 50
354.99999999999881
 51
134.99999999999955
  0
ARC
  5
56
100
AcDbEntity
  8
0
  6
CONTINUOUS
 62
               7
100
AcDbCircle
 10
12.900478522469783
 20
24.851759155205066
 30
0.0
 40
0.3000000000000007
100
AcDbArc
 50
134.99999999999974
 51
174.99999999999511
  0
ARC
  5
57
100
AcDbEntity
  8
0
  6
CONTINUOUS
 62
               7
100
AcDbCircle
 10
12.746979251987781
 20
23.097254465161548
 30
0.0
 40
0.2999999999999954
100
AcDbArc
 50
174.99999999999511
 51
214.99999999999019
  0
ARC
  5
58
100
AcDbEntity
  8
0
  6
CONTINUOUS
 62
               7
100
AcDbCircle
 10
13.282375169121948
 20
22.332629853288289
 30
0.0
 40
0.3000000000000004
100
AcDbArc
 50
214.99999999998639
 51
354.99999999999523
  0
ARC
  5
59
100
AcDbEntity
  8
0
  6
CONTINUOUS
 62
               7
100
AcDbCircle
 10
13.513961043832055
 20
24.979668513803041
 30
0.0
 40
0.300000000000006
100
AcDbArc
 50
354.99999999999511
 51
45.000000000000455
  0
ARC
  5
5A
100
AcDbEntity
  8
0
  6
CONTINUOUS
 62
               7
100
AcDbCircle
 10
13.271174462449906
 20
25.222455095185161
 30
0.0
 40
0.3000000000000013
100
AcDbArc
 50
45.000000000003361
 51
134.99999999999974
  0
ARC
  5
5B
100
AcDbEntity
  8
0
  6
CONTINUOUS
 62
               7
100
AcDbCircle
 10
11.074264068711315
 20
26.250000000000007
 30
0.0
 40
0.3000000000000007
100
AcDbArc
 50
90.0
 51
134.99999999999974
  0
ARC
  5
5C
100
AcDbEntity
  8
0
  6
CONTINUOUS
 62
               7
100
AcDbCircle
 10
11.024264068711418
 20
25.649999999999899
 30
0.0
 40
0.3
100
AcDbArc
 50
225.0
 51
270.0
  0
ARC
  5
5D
100
AcDbEntity
  8
0
  6
CONTINUOUS
 62
               7
100
AcDbCircle
 10
12.125735931287565
 20
25.649999999999999
 30
0.0
 40
0.3000000000000007
100
AcDbArc
 50
270.00000000001091
 51
314.99999999999977
  0
ARC
  5
5E
100
AcDbEntity
  8
0
  6
CONTINUOUS
 62
               7
100
AcDbCircle
 10
12.450735931287525
 20
25.974999999999945
 30
0.0
 40
0.3000000000000013
100
AcDbArc
 50
314.99999999999619
 51
45.000000000004583
  0
ARC
  5
5F
100
AcDbEntity
  8
0
  6
CONTINUOUS
 62
               7
100
AcDbCircle
 10
12.175735931287434
 20
26.250000000000007
 30
0.0
 40
0.3
100
AcDbArc
 50
44.999999999994252
 51
90.0
  0
ARC
  5
60
100
AcDbEntity
  8
0
  6
CONTINUOUS
 62
               7
100
AcDbCircle
 10
12.523705361908512
 20
21.400000000000233
 30
0.0
 40
0.3000000000000007
100
AcDbArc
 50
270.00000000000341
 51
35.000000000000213
  0
ARC
  5
61
100
AcDbEntity
  8
0
  6
CONTINUOUS
 62
               7
100
AcDbCircle
 10
12.103580838982609
 20
22.000000000000362
 30
0.0
 40
0.2999999999999996
100
AcDbArc
 50
34.99999999999838
 51
90.0
  0
LINE
  5
62
100
AcDbEntity
  8
0
  6
CONTINUOUS
 62
               7
100
AcDbLine
 10
17.230549024803992
 20
30.327927069094663
 30
0.0
 11
17.650673547729895
 21
29.727927069094541
 31
0.0
  0
LINE
  5
63
100
AcDbEntity
  8
0
  6
CONTINUOUS
 62
               7
100
AcDbLine
 10
17.89641916101661
 20
29.599999999999838
 30
0.0
 11
19.375735931287153
 21
29.600000000000037
 31
0.0
  0
LINE
  5
64
100
AcDbEntity
  8
0
  6
CONTINUOUS
 62
               7
100
AcDbLine
 10
19.587867965643113
 20
29.687867965644081
 30
0.0
 11
20.187867965643221
 21
30.287867965644168
 31
0.0
  0
LINE
  5
65
100
AcDbEntity
  8
0
  6
CONTINUOUS
 62
               7
100
AcDbLine
 10
19.975735931287204
 20
30.800000000000125
 30
0.0
 11
17.476294638090678
 21
30.799999999999976
 31
0.0
  0
LINE
  5
66
100
AcDbEntity
  8
0
  6
CONTINUOUS
 62
               7
100
AcDbLine
 10
16.41876642144976
 20
29.593516869536238
 30
0.0
 11
16.187378505526027
 21
26.948740888303639
 31
0.0
  0
LINE
  5
67
100
AcDbEntity
  8
0
  6
CONTINUOUS
 62
               7
100
AcDbLine
 10
16.274104880597577
 20
26.710462131123371
 30
0.0
 11
16.516891461979725
 21
26.467675549741223
 31
0.0
  0
LINE
  5
68
100
AcDbEntity
  8
0
  6
CONTINUOUS
 62
               7
100
AcDbLine
 10
16.941155530691645
 20
26.467675549741216
 30
0.0
 11
17.311851470671741
 21
26.838371489721318
 31
0.0
  0
LINE
  5
69
100
AcDbEntity
  8
0
  6
CONTINUOUS
 62
               7
100
AcDbLine
 10
17.39857784574329
 20
27.024356801252956
 30
0.0
 11
17.551879157438947
 21
28.776598812014335
 31
0.0
  0
LINE
  5
6A
100
AcDbEntity
  8
0
  6
CONTINUOUS
 62
               7
100
AcDbLine
 10
17.498766361298152
 20
28.974818465743944
 30
0.0
 11
16.963370444164013
 21
29.739443077617196
 31
0.0
  0
LINE
  5
6B
100
AcDbEntity
  8
0
  6
CONTINUOUS
 62
               7
100
AcDbLine
 10
19.759930441493395
 20
28.973411672838644
 30
0.0
 11
19.582794700474295
 21
26.948740888303639
 31
0.0
  0
LINE
  5
6C
100
AcDbEntity
  8
0
  6
CONTINUOUS
 62
               7
100
AcDbLine
 10
19.669521075545816
 20
26.710462131123336
 30
0.0
 11
19.912307656927936
 21
26.467675549741223
 31
0.0
  0
LINE
  5
6D
100
AcDbEntity
  8
0
  6
CONTINUOUS
 62
               7
100
AcDbLine
 10
20.336571725639885
 20
26.467675549741216
 30
0.0
 11
20.707267665619952
 21
26.838371489721318
 31
0.0
  0
LINE
  5
6E
100
AcDbEntity
  8
0
  6
CONTINUOUS
 62
               7
100
AcDbLine
 10
20.793994040691558
 20
27.024356801252956
 30
0.0
 11
21.017684980924372
 21
29.581155947765964
 31
0.0
  0
LINE
  5
6F
100
AcDbEntity
  8
0
  6
CONTINUOUS
 62
               7
100
AcDbLine
 10
20.506694537140874
 20
29.819434704946239
 30
0.0
 11
19.846656816564945
 21
29.159396984370289
 31
0.0
  0
LINE
  5
70
100
AcDbEntity
  8
0
  6
CONTINUOUS
 62
               7
100
AcDbLine
 10
19.40162011304227
 20
24.877905878029388
 30
0.0
 11
19.248120842560269
 21
23.12340118798587
 31
0.0
  0
LINE
  5
71
100
AcDbEntity
  8
0
  6
CONTINUOUS
 62
               7
100
AcDbLine
 10
19.301233638701063
 20
22.925181534256275
 30
0.0
 11
19.836629555835174
 21
22.160556922383037
 31
0.0
  0
LINE
  5
72
100
AcDbEntity
  8
0
  6
CONTINUOUS
 62
               7
100
AcDbLine
 10
20.381233578549455
 20
22.306483130463974
 30
0.0
 11
20.612819453259561
 21
24.953521790978719
 31
0.0
  0
LINE
  5
73
100
AcDbEntity
  8
0
  6
CONTINUOUS
 62
               7
100
AcDbLine
 10
20.526093078188012
 20
25.191800548159016
 30
0.0
 11
20.283306496805864
 21
25.434587129541136
 31
0.0
  0
LINE
  5
74
100
AcDbEntity
  8
0
  6
CONTINUOUS
 62
               7
100
AcDbLine
 10
19.859042428093943
 20
25.434587129541129
 30
0.0
 11
19.48834648811382
 21
25.063891189561033
 31
0.0
  0
LINE
  5
75
100
AcDbEntity
  8
0
  6
CONTINUOUS
 62
               7
100
AcDbLine
 10
18.975735931287431
 20
26.54999999999999
 30
0.0
 11
17.874264068711312
 21
26.54999999999999
 31
0.0
  0
LINE
  5
76
100
AcDbEntity
  8
0
  6
CONTINUOUS
 62
               7
100
AcDbLine
 10
17.66213203435538
 20
26.462132034355974
 30
0.0
 11
17.337132034355363
 21
26.13713203435595
 31
0.0
  0
LINE
  5
77
100
AcDbEntity
  8
0
  6
CONTINUOUS
 62
               7
100
AcDbLine
 10
17.337132034355363
 20
25.71286796564403
 30
0.0
 11
17.612132034355454
 21
25.437867965643939
 31
0.0
  0
LINE
  5
78
100
AcDbEntity
  8
0
  6
CONTINUOUS
 62
               7
100
AcDbLine
 10
17.824264068711415
 20
25.349999999999895
 30
0.0
 11
18.925735931287619
 21
25.350000000000001
 31
0.0
  0
LINE
  5
79
100
AcDbEntity
  8
0
  6
CONTINUOUS
 62
               7
100
AcDbLine
 10
19.137867965643494
 20
25.437867965644031
 30
0.0
 11
19.462867965643483
 21
25.762867965643984
 31
0.0
  0
LINE
  5
7A
100
AcDbEntity
  8
0
  6
CONTINUOUS
 62
               7
100
AcDbLine
 10
19.462867965643483
 20
26.187132034355912
 30
0.0
 11
19.187867965643449
 21
26.462132034355953
 31
0.0
  0
LINE
  5
7B
100
AcDbEntity
  8
0
  6
CONTINUOUS
 62
               7
100
AcDbLine
 10
16.452950785837089
 20
25.434587129541121
 30
0.0
 11
16.082254845856994
 21
25.063891189561026
 31
0.0
  0
LINE
  5
7C
100
AcDbEntity
  8
0
  6
CONTINUOUS
 62
               7
100
AcDbLine
 10
15.995528470785445
 20
24.877905878029388
 30
0.0
 11
15.771837530552574
 21
22.32110673151638
 31
0.0
  0
LINE
  5
7D
100
AcDbEntity
  8
0
  6
CONTINUOUS
 62
               7
100
AcDbLine
 10
16.282827974336044
 20
22.082827974336105
 30
0.0
 11
16.942865694912001
 21
22.742865694912062
 31
0.0
  0
LINE
  5
7E
100
AcDbEntity
  8
0
  6
CONTINUOUS
 62
               7
100
AcDbLine
 10
17.029592069983551
 20
22.928851006443715
 30
0.0
 11
17.206727811002679
 21
24.953521790978719
 31
0.0
  0
LINE
  5
7F
100
AcDbEntity
  8
0
  6
CONTINUOUS
 62
               7
100
AcDbLine
 10
17.12000143593113
 20
25.191800548159009
 30
0.0
 11
16.87721485454901
 21
25.434587129541121
 31
0.0
  0
LINE
  5
80
100
AcDbEntity
  8
0
  6
CONTINUOUS
 62
               7
100
AcDbLine
 10
19.569450975195195
 20
21.572072930905556
 30
0.0
 11
19.149326452269293
 21
22.172072930905671
 31
0.0
  0
LINE
  5
81
100
AcDbEntity
  8
0
  6
CONTINUOUS
 62
               7
100
AcDbLine
 10
18.903580838982606
 20
22.300000000000367
 30
0.0
 11
17.424264068712034
 21
22.300000000000196
 31
0.0
  0
LINE
  5
82
100
AcDbEntity
  8
0
  6
CONTINUOUS
 62
               7
100
AcDbLine
 10
17.212132034356102
 20
22.212132034356145
 30
0.0
 11
16.612132034355994
 21
21.612132034356051
 31
0.0
  0
LINE
  5
83
100
AcDbEntity
  8
0
  6
CONTINUOUS
 62
               7
100
AcDbLine
 10
16.824264068711983
 20
21.100000000000101
 30
0.0
 11
19.323705361908509
 21
21.100000000000236
 31
0.0
  0
ARC
  5
84
100
AcDbEntity
  8
0
  6
CONTINUOUS
 62
               7
100
AcDbCircle
 10
17.476294638090678
 20
30.499999999999979
 30
0.0
 40
0.3000000000000007
100
AcDbArc
 50
90.0
 51
215.00000000000026
  0
ARC
  5
85
100
AcDbEntity
  8
0
  6
CONTINUOUS
 62
               7
100
AcDbCircle
 10
17.896419161016581
 20
29.899999999999842
 30
0.0
 40
0.3000000000000008
100
AcDbArc
 50
214.99999999999926
 51
270.0000000000075
  0
ARC
  5
86
100
AcDbEntity
  8
0
  6
CONTINUOUS
 62
               7
100
AcDbCircle
 10
19.375735931287153
 20
29.900000000000048
 30
0.0
 40
0.3000000000000007
100
AcDbArc
 50
270.0
 51
315.00000000000045
  0
ARC
  5
87
100
AcDbEntity
  8
0
  6
CONTINUOUS
 62
               7
100
AcDbCircle
 10
19.975735931287204
 20
30.500000000000128
 30
0.0
 40
0.3000000000000007
100
AcDbArc
 50
315.00000000000409
 51
90.000000000003411
  0
ARC
  5
88
100
AcDbEntity
  8
0
  6
CONTINUOUS
 62
               7
100
AcDbCircle
 10
16.71762483087727
 20
29.567370146711916
 30
0.0
 40
0.2999999999999996
100
AcDbArc
 50
34.999999999990493
 51
174.99999999999528
  0
ARC
  5
89
100
AcDbEntity
  8
0
  6
CONTINUOUS
 62
               7
100
AcDbCircle
 10
16.486236914953537
 20
26.922594165479332
 30
0.0
 40
0.299999999999999
100
AcDbArc
 50
174.99999999999787
 51
224.99999999999909
  0
ARC
  5
8A
100
AcDbEntity
  8
0
  6
CONTINUOUS
 62
               7
100
AcDbCircle
 10
16.729023496335657
 20
26.679807584097183
 30
0.0
 40
0.3000000000000007
100
AcDbArc
 50
225.0
 51
314.99999999999977
  0
ARC
  5
8B
100
AcDbEntity
  8
0
  6
CONTINUOUS
 62
               7
100
AcDbCircle
 10
17.09971943631578
 20
27.050503524077278
 30
0.0
 40
0.3000000000000007
100
AcDbArc
 50
315.00000000000193
 51
354.99999999999494
  0
ARC
  5
8C
100
AcDbEntity
  8
0
  6
CONTINUOUS
 62
               7
100
AcDbCircle
 10
17.253020748011409
 20
28.802745534838671
 30
0.0
 40
0.300000000000006
100
AcDbArc
 50
354.99999999999267
 51
34.999999999990294
  0
ARC
  5
8D
100
AcDbEntity
  8
0
  6
CONTINUOUS
 62
               7
100
AcDbCircle
 10
20.058788850920905
 20
28.947264950014322
 30
0.0
 40
0.300000000000002
100
AcDbArc
 50
135.00000000000045
 51
174.99999999999531
  0
ARC
  5
8E
100
AcDbEntity
  8
0
  6
CONTINUOUS
 62
               7
100
AcDbCircle
 10
19.881653109901777
 20
26.922594165479303
 30
0.0
 40
0.300000000000006
100
AcDbArc
 50
174.99999999999238
 51
224.99999999999949
  0
ARC
  5
8F
100
AcDbEntity
  8
0
  6
CONTINUOUS
 62
               7
100
AcDbCircle
 10
20.124439691283925
 20
26.679807584097183
 30
0.0
 40
0.3000000000000007
100
AcDbArc
 50
225.0
 51
314.99999999999977
  0
ARC
  5
90
100
AcDbEntity
  8
0
  6
CONTINUOUS
 62
               7
100
AcDbCircle
 10
20.495135631264048
 20
27.050503524077278
 30
0.0
 40
0.3000000000000013
100
AcDbArc
 50
314.99999999999619
 51
354.99999999999523
  0
ARC
  5
91
100
AcDbEntity
  8
0
  6
CONTINUOUS
 62
               7
100
AcDbCircle
 10
20.718826571496834
 20
29.607302670590265
 30
0.0
 40
0.300000000000006
100
AcDbArc
 50
354.99999999999881
 51
134.99999999999955
  0
ARC
  5
92
100
AcDbEntity
  8
0
  6
CONTINUOUS
 62
               7
100
AcDbCircle
 10
19.70047852246978
 20
24.851759155205066
 30
0.0
 40
0.3000000000000007
100
AcDbArc
 50
134.99999999999974
 51
174.99999999999511
  0
ARC
  5
93
100
AcDbEntity
  8
0
  6
CONTINUOUS
 62
               7
100
AcDbCircle
 10
19.546979251987779
 20
23.097254465161548
 30
0.0
 40
0.2999999999999954
100
AcDbArc
 50
174.99999999999511
 51
214.99999999999019
  0
ARC
  5
94
100
AcDbEntity
  8
0
  6
CONTINUOUS
 62
               7
100
AcDbCircle
 10
20.082375169121946
 20
22.332629853288289
 30
0.0
 40
0.3000000000000004
100
AcDbArc
 50
214.99999999998639
 51
354.99999999999523
  0
ARC
  5
95
100
AcDbEntity
  8
0
  6
CONTINUOUS
 62
               7
100
AcDbCircle
 10
20.313961043832052
 20
24.979668513803041
 30
0.0
 40
0.300000000000006
100
AcDbArc
 50
354.99999999999511
 51
45.000000000000455
  0
ARC
  5
96
100
AcDbEntity
  8
0
  6
CONTINUOUS
 62
               7
100
AcDbCircle
 10
20.071174462449903
 20
25.222455095185161
 30
0.0
 40
0.3000000000000013
100
AcDbArc
 50
45.000000000003361
 51
134.99999999999974
  0
ARC
  5
97
100
AcDbEntity
  8
0
  6
CONTINUOUS
 62
               7
100
AcDbCircle
 10
17.874264068711312
 20
26.250000000000007
 30
0.0
 40
0.3000000000000007
100
AcDbArc
 50
90.0
 51
134.99999999999974
  0
ARC
  5
98
100
AcDbEntity
  8
0
  6
CONTINUOUS
 62
               7
100
AcDbCircle
 10
17.549264068711324
 20
25.92499999999999
 30
0.0
 40
0.3000000000000013
100
AcDbArc
 50
134.99999999999994
 51
224.99999999999923
  0
ARC
  5
99
100
AcDbEntity
  8
0
  6
CONTINUOUS
 62
               7
100
AcDbCircle
 10
17.824264068711415
 20
25.649999999999899
 30
0.0
 40
0.3
100
AcDbArc
 50
225.0
 51
270.0
  0
ARC
  5
9A
100
AcDbEntity
  8
0
  6
CONTINUOUS
 62
               7
100
AcDbCircle
 10
18.925735931287562
 20
25.649999999999999
 30
0.0
 40
0.3000000000000007
100
AcDbArc
 50
270.00000000001091
 51
314.99999999999977
  0
ARC
  5
9B
100
AcDbEntity
  8
0
  6
CONTINUOUS
 62
               7
100
AcDbCircle
 10
19.250735931287522
 20
25.974999999999945
 30
0.0
 40
0.3000000000000013
100
AcDbArc
 50
314.99999999999619
 51
45.000000000004583
  0
ARC
  5
9C
100
AcDbEntity
  8
0
  6
CONTINUOUS
 62
               7
100
AcDbCircle
 10
18.975735931287431
 20
26.250000000000007
 30
0.0
 40
0.3
100
AcDbArc
 50
44.999999999994252
 51
90.0
  0
ARC
  5
9D
100
AcDbEntity
  8
0
  6
CONTINUOUS
 62
               7
100
AcDbCircle
 10
16.294386880212954
 20
24.851759155205066
 30
0.0
 40
0.3000000000000007
100
AcDbArc
 50
134.99999999999994
 51
174.99999999999528
  0
ARC
  5
9E
100
AcDbEntity
  8
0
  6
CONTINUOUS
 62
               7
100
AcDbCircle
 10
16.070695939980084
 20
22.294960008692065
 30
0.0
 40
0.2999999999999954
100
AcDbArc
 50
174.99999999999523
 51
315.00000000000006
  0
ARC
  5
9F
100
AcDbEntity
  8
0
  6
CONTINUOUS
 62
               7
100
AcDbCircle
 10
16.730733660556041
 20
22.954997729268037
 30
0.0
 40
0.300000000000001
100
AcDbArc
 50
314.99999999999812
 51
354.99999999999545
  0
ARC
  5
A0
100
AcDbEntity
  8
0
  6
CONTINUOUS
 62
               7
100
AcDbCircle
 10
16.907869401575169
 20
24.979668513803041
 30
0.0
 40
0.300000000000006
100
AcDbArc
 50
354.99999999999534
 51
45.0000000000027
  0
ARC
  5
A1
100
AcDbEntity
  8
0
  6
CONTINUOUS
 62
               7
100
AcDbCircle
 10
16.665082820193049
 20
25.222455095185161
 30
0.0
 40
0.3000000000000007
100
AcDbArc
 50
45.0
 51
135.0
  0
ARC
  5
A2
100
AcDbEntity
  8
0
  6
CONTINUOUS
 62
               7
100
AcDbCircle
 10
19.323705361908509
 20
21.400000000000233
 30
0.0
 40
0.3000000000000007
100
AcDbArc
 50
270.00000000000341
 51
35.000000000000213
  0
ARC
  5
A3
100
AcDbEntity
  8
0
  6
CONTINUOUS
 62
               7
100
AcDbCircle
 10
18.903580838982606
 20
22.000000000000362
 30
0.0
 40
0.2999999999999996
100
AcDbArc
 50
34.99999999999838
 51
90.0
  0
ARC
  5
A4
100
AcDbEntity
  8
0
  6
CONTINUOUS
 62
               7
100
AcDbCircle
 10
17.424264068712063
 20
22.000000000000185
 30
0.0
 40
0.3000000000000007
100
AcDbArc
 50
90.000000000005443
 51
134.9999999999998
  0
ARC
  5
A5
100
AcDbEntity
  8
0
  6
CONTINUOUS
 62
               7
100
AcDbCircle
 10
16.824264068711983
 20
21.400000000000105
 30
0.0
 40
0.3000000000000007
100
AcDbArc
 50
135.00000000000199
 51
270.00000000000006
  0
LINE
  5
A6
100
AcDbEntity
  8
0
  6
CONTINUOUS
 62
               7
100
AcDbLine
 10
24.030549024803989
 20
30.327927069094663
 30
0.0
 11
24.450673547729892
 21
29.727927069094541
 31
0.0
  0
LINE
  5
A7
100
AcDbEntity
  8
0
  6
CONTINUOUS
 62
               7
100
AcDbLine
 10
24.696419161016607
 20
29.599999999999838
 30
0.0
 11
26.17573593128715
 21
29.600000000000037
 31
0.0
  0
LINE
  5
A8
100
AcDbEntity
  8
0
  6
CONTINUOUS
 62
               7
100
AcDbLine
 10
26.38786796564311
 20
29.687867965644081
 30
0.0
 11
26.987867965643218
 21
30.287867965644168
 31
0.0
  0
LINE
  5
A9
100
AcDbEntity
  8
0
  6
CONTINUOUS
 62
               7
100
AcDbLine
 10
26.775735931287201
 20
30.800000000000125
 30
0.0
 11
24.276294638090675
 21
30.799999999999976
 31
0.0
  0
LINE
  5
AA
100
AcDbEntity
  8
0
  6
CONTINUOUS
 62
               7
100
AcDbLine
 10
23.218766421449757
 20
29.593516869536238
 30
0.0
 11
22.987378505526024
 21
26.948740888303639
 31
0.0
  0
LINE
  5
AB
100
AcDbEntity
  8
0
  6
CONTINUOUS
 62
               7
100
AcDbLine
 10
23.074104880597574
 20
26.710462131123371
 30
0.0
 11
23.316891461979722
 21
26.467675549741223
 31
0.0
  0
LINE
  5
AC
100
AcDbEntity
  8
0
  6
CONTINUOUS
 62
               7
100
AcDbLine
 10
23.741155530691643
 20
26.467675549741216
 30
0.0
 11
24.111851470671738
 21
26.838371489721318
 31
0.0
  0
LINE
  5
AD
100
AcDbEntity
  8
0
  6
CONTINUOUS
 62
               7
100
AcDbLine
 10
24.198577845743287
 20
27.024356801252956
 30
0.0
 11
24.351879157438944
 21
28.776598812014335
 31
0.0
  0
LINE
  5
AE
100
AcDbEntity
  8
0
  6
CONTINUOUS
 62
               7
100
AcDbLine
 10
24.298766361298149
 20
28.974818465743944
 30
0.0
 11
23.763370444164011
 21
29.739443077617196
 31
0.0
  0
LINE
  5
AF
100
AcDbEntity
  8
0
  6
CONTINUOUS
 62
               7
100
AcDbLine
 10
26.559930441493393
 20
28.973411672838644
 30
0.0
 11
26.382794700474292
 21
26.948740888303639
 31
0.0
  0
LINE
  5
B0
100
AcDbEntity
  8
0
  6
CONTINUOUS
 62
               7
100
AcDbLine
 10
26.469521075545813
 20
26.710462131123336
 30
0.0
 11
26.712307656927933
 21
26.467675549741223
 31
0.0
  0
LINE
  5
B1
100
AcDbEntity
  8
0
  6
CONTINUOUS
 62
               7
100
AcDbLine
 10
27.136571725639882
 20
26.467675549741216
 30
0.0
 11
27.507267665619949
 21
26.838371489721318
 31
0.0
  0
LINE
  5
B2
100
AcDbEntity
  8
0
  6
CONTINUOUS
 62
               7
100
AcDbLine
 10
27.593994040691555
 20
27.024356801252956
 30
0.0
 11
27.817684980924369
 21
29.581155947765964
 31
0.0
  0
LINE
  5
B3
100
AcDbEntity
  8
0
  6
CONTINUOUS
 62
               7
100
AcDbLine
 10
27.306694537140871
 20
29.819434704946239
 30
0.0
 11
26.646656816564942
 21
29.159396984370289
 31
0.0
  0
LINE
  5
B4
100
AcDbEntity
  8
0
  6
CONTINUOUS
 62
               7
100
AcDbLine
 10
26.201620113042267
 20
24.877905878029388
 30
0.0
 11
26.048120842560266
 21
23.12340118798587
 31
0.0
  0
LINE
  5
B5
100
AcDbEntity
  8
0
  6
CONTINUOUS
 62
               7
100
AcDbLine
 10
26.101233638701061
 20
22.925181534256275
 30
0.0
 11
26.636629555835171
 21
22.160556922383037
 31
0.0
  0
LINE
  5
B6
100
AcDbEntity
  8
0
  6
CONTINUOUS
 62
               7
100
AcDbLine
 10
27.181233578549453
 20
22.306483130463974
 30
0.0
 11
27.412819453259559
 21
24.953521790978719
 31
0.0
  0
LINE
  5
B7
100
AcDbEntity
  8
0
  6
CONTINUOUS
 62
               7
100
AcDbLine
 10
27.326093078188009
 20
25.191800548159016
 30
0.0
 11
27.083306496805861
 21
25.434587129541136
 31
0.0
  0
LINE
  5
B8
100
AcDbEntity
  8
0
  6
CONTINUOUS
 62
               7
100
AcDbLine
 10
26.65904242809394
 20
25.434587129541129
 30
0.0
 11
26.288346488113817
 21
25.063891189561033
 31
0.0
  0
LINE
  5
B9
100
AcDbEntity
  8
0
  6
CONTINUOUS
 62
               7
100
AcDbLine
 10
25.775735931287429
 20
26.54999999999999
 30
0.0
 11
24.67426406871131
 21
26.54999999999999
 31
0.0
  0
LINE
  5
BA
100
AcDbEntity
  8
0
  6
CONTINUOUS
 62
               7
100
AcDbLine
 10
24.462132034355378
 20
26.462132034355974
 30
0.0
 11
24.137132034355361
 21
26.13713203435595
 31
0.0
  0
LINE
  5
BB
100
AcDbEntity
  8
0
  6
CONTINUOUS
 62
               7
100
AcDbLine
 10
24.137132034355361
 20
25.71286796564403
 30
0.0
 11
24.412132034355452
 21
25.437867965643939
 31
0.0
  0
LINE
  5
BC
100
AcDbEntity
  8
0
  6
CONTINUOUS
 62
               7
100
AcDbLine
 10
24.624264068711412
 20
25.349999999999895
 30
0.0
 11
25.725735931287616
 21
25.350000000000001
 31
0.0
  0
LINE
  5
BD
100
AcDbEntity
  8
0
  6
CONTINUOUS
 62
               7
100
AcDbLine
 10
25.937867965643491
 20
25.437867965644031
 30
0.0
 11
26.26286796564348
 21
25.762867965643984
 31
0.0
  0
LINE
  5
BE
100
AcDbEntity
  8
0
  6
CONTINUOUS
 62
               7
100
AcDbLine
 10
26.26286796564348
 20
26.187132034355912
 30
0.0
 11
25.987867965643446
 21
26.462132034355953
 31
0.0
  0
LINE
  5
BF
100
AcDbEntity
  8
0
  6
CONTINUOUS
 62
               7
100
AcDbLine
 10
23.252950785837086
 20
25.434587129541121
 30
0.0
 11
22.882254845856991
 21
25.063891189561026
 31
0.0
  0
LINE
  5
C0
100
AcDbEntity
  8
0
  6
CONTINUOUS
 62
               7
100
AcDbLine
 10
22.795528470785442
 20
24.877905878029388
 30
0.0
 11
22.571837530552571
 21
22.32110673151638
 31
0.0
  0
LINE
  5
C1
100
AcDbEntity
  8
0
  6
CONTINUOUS
 62
               7
100
AcDbLine
 10
23.082827974336041
 20
22.082827974336105
 30
0.0
 11
23.742865694911998
 21
22.742865694912062
 31
0.0
  0
LINE
  5
C2
100
AcDbEntity
  8
0
  6
CONTINUOUS
 62
               7
100
AcDbLine
 10
23.829592069983548
 20
22.928851006443715
 30
0.0
 11
24.006727811002676
 21
24.953521790978719
 31
0.0
  0
LINE
  5
C3
100
AcDbEntity
  8
0
  6
CONTINUOUS
 62
               7
100
AcDbLine
 10
23.920001435931127
 20
25.191800548159009
 30
0.0
 11
23.677214854549007
 21
25.434587129541121
 31
0.0
  0
LINE
  5
C4
100
AcDbEntity
  8
0
  6
CONTINUOUS
 62
               7
100
AcDbLine
 10
26.369450975195193
 20
21.572072930905556
 30
0.0
 11
25.94932645226929
 21
22.172072930905671
 31
0.0
  0
LINE
  5
C5
100
AcDbEntity
  8
0
  6
CONTINUOUS
 62
               7
100
AcDbLine
 10
25.703580838982603
 20
22.300000000000367
 30
0.0
 11
24.224264068712031
 21
22.300000000000196
 31
0.0
  0
LINE
  5
C6
100
AcDbEntity
  8
0
  6
CONTINUOUS
 62
               7
100
AcDbLine
 10
24.0121320343561
 20
22.212132034356145
 30
0.0
 11
23.412132034355992
 21
21.612132034356051
 31
0.0
  0
LINE
  5
C7
100
AcDbEntity
  8
0
  6
CONTINUOUS
 62
               7
100
AcDbLine
 10
23.62426406871198
 20
21.100000000000101
 30
0.0
 11
26.123705361908506
 21
21.100000000000236
 31
0.0
  0
ARC
  5
C8
100
AcDbEntity
  8
0
  6
CONTINUOUS
 62
               7
100
AcDbCircle
 10
24.276294638090675
 20
30.499999999999979
 30
0.0
 40
0.3000000000000007
100
AcDbArc
 50
90.0
 51
215.00000000000026
  0
ARC
  5
C9
100
AcDbEntity
  8
0
  6
CONTINUOUS
 62
               7
100
AcDbCircle
 10
24.696419161016578
 20
29.899999999999842
 30
0.0
 40
0.3000000000000008
100
AcDbArc
 50
214.99999999999926
 51
270.0000000000075
  0
ARC
  5
CA
100
AcDbEntity
  8
0
  6
CONTINUOUS
 62
               7
100
AcDbCircle
 10
26.17573593128715
 20
29.900000000000048
 30
0.0
 40
0.3000000000000007
100
AcDbArc
 50
270.0
 51
315.00000000000045
  0
ARC
  5
CB
100
AcDbEntity
  8
0
  6
CONTINUOUS
 62
               7
100
AcDbCircle
 10
26.775735931287201
 20
30.500000000000128
 30
0.0
 40
0.3000000000000007
100
AcDbArc
 50
315.00000000000409
 51
90.000000000003411
  0
ARC
  5
CC
100
AcDbEntity
  8
0
  6
CONTINUOUS
 62
               7
100
AcDbCircle
 10
23.517624830877267
 20
29.567370146711916
 30
0.0
 40
0.2999999999999996
100
AcDbArc
 50
34.999999999990493
 51
174.99999999999528
  0
ARC
  5
CD
100
AcDbEntity
  8
0
  6
CONTINUOUS
 62
               7
100
AcDbCircle
 10
23.286236914953534
 20
26.922594165479332
 30
0.0
 40
0.299999999999999
100
AcDbArc
 50
174.99999999999787
 51
224.99999999999909
  0
ARC
  5
CE
100
AcDbEntity
  8
0
  6
CONTINUOUS
 62
               7
100
AcDbCircle
 10
23.529023496335654
 20
26.679807584097183
 30
0.0
 40
0.3000000000000007
100
AcDbArc
 50
225.0
 51
314.99999999999977
  0
ARC
  5
CF
100
AcDbEntity
  8
0
  6
CONTINUOUS
 62
               7
100
AcDbCircle
 10
23.899719436315777
 20
27.050503524077278
 30
0.0
 40
0.3000000000000007
100
AcDbArc
 50
315.00000000000193
 51
354.99999999999494
  0
ARC
  5
D0
100
AcDbEntity
  8
0
  6
CONTINUOUS
 62
               7
100
AcDbCircle
 10
24.053020748011406
 20
28.802745534838671
 30
0.0
 40
0.300000000000006
100
AcDbArc
 50
354.99999999999267
 51
34.999999999990294
  0
ARC
  5
D1
100
AcDbEntity
  8
0
  6
CONTINUOUS
 62
               7
100
AcDbCircle
 10
26.858788850920902
 20
28.947264950014322
 30
0.0
 40
0.300000000000002
100
AcDbArc
 50
135.00000000000045
 51
174.99999999999531
  0
ARC
  5
D2
100
AcDbEntity
  8
0
  6
CONTINUOUS
 62
               7
100
AcDbCircle
 10
26.681653109901774
 20
26.922594165479303
 30
0.0
 40
0.300000000000006
100
AcDbArc
 50
174.99999999999238
 51
224.99999999999949
  0
ARC
  5
D3
100
AcDbEntity
  8
0
  6
CONTINUOUS
 62
               7
100
AcDbCircle
 10
26.924439691283922
 20
26.679807584097183
 30
0.0
 40
0.3000000000000007
100
AcDbArc
 50
225.0
 51
314.99999999999977
  0
ARC
  5
D4
100
AcDbEntity
  8
0
  6
CONTINUOUS
 62
               7
100
AcDbCircle
 10
27.295135631264046
 20
27.050503524077278
 30
0.0
 40
0.3000000000000013
100
AcDbArc
 50
314.99999999999619
 51
354.99999999999523
  0
ARC
  5
D5
100
AcDbEntity
  8
0
  6
CONTINUOUS
 62
               7
100
AcDbCircle
 10
27.518826571496831
 20
29.607302670590265
 30
0.0
 40
0.300000000000006
100
AcDbArc
 50
354.99999999999881
 51
134.99999999999955
  0
ARC
  5
D6
100
AcDbEntity
  8
0
  6
CONTINUOUS
 62
               7
100
AcDbCircle
 10
26.500478522469777
 20
24.851759155205066
 30
0.0
 40
0.3000000000000007
100
AcDbArc
 50
134.99999999999974
 51
174.99999999999511
  0
ARC
  5
D7
100
AcDbEntity
  8
0
  6
CONTINUOUS
 62
               7
100
AcDbCircle
 10
26.346979251987776
 20
23.097254465161548
 30
0.0
 40
0.2999999999999954
100
AcDbArc
 50
174.99999999999511
 51
214.99999999999019
  0
ARC
  5
D8
100
AcDbEntity
  8
0
  6
CONTINUOUS
 62
               7
100
AcDbCircle
 10
26.882375169121943
 20
22.332629853288289
 30
0.0
 40
0.3000000000000004
100
AcDbArc
 50
214.99999999998639
 51
354.99999999999523
  0
ARC
  5
D9
100
AcDbEntity
  8
0
  6
CONTINUOUS
 62
               7
100
AcDbCircle
 10
27.113961043832049
 20
24.979668513803041
 30
0.0
 40
0.300000000000006
100
AcDbArc
 50
354.99999999999511
 51
45.000000000000455
  0
ARC
  5
DA
100
AcDbEntity
  8
0
  6
CONTINUOUS
 62
               7
100
AcDbCircle
 10
26.8711744624499
 20
25.222455095185161
 30
0.0
 40
0.3000000000000013
100
AcDbArc
 50
45.000000000003361
 51
134.99999999999974
  0
ARC
  5
DB
100
AcDbEntity
  8
0
  6
CONTINUOUS
 62
               7
100
AcDbCircle
 10
24.67426406871131
 20
26.250000000000007
 30
0.0
 40
0.3000000000000007
100
AcDbArc
 50
90.0
 51
134.99999999999974
  0
ARC
  5
DC
100
AcDbEntity
  8
0
  6
CONTINUOUS
 62
               7
100
AcDbCircle
 10
24.349264068711321
 20
25.92499999999999
 30
0.0
 40
0.3000000000000013
100
AcDbArc
 50
134.99999999999994
 51
224.99999999999923
  0
ARC
  5
DD
100
AcDbEntity
  8
0
  6
CONTINUOUS
 62
               7
100
AcDbCircle
 10
24.624264068711412
 20
25.649999999999899
 30
0.0
 40
0.3
100
AcDbArc
 50
225.0
 51
270.0
  0
ARC
  5
DE
100
AcDbEntity
  8
0
  6
CONTINUOUS
 62
               7
100
AcDbCircle
 10
25.725735931287559
 20
25.649999999999999
 30
0.0
 40
0.3000000000000007
100
AcDbArc
 50
270.00000000001091
 51
314.99999999999977
  0
ARC
  5
DF
100
AcDbEntity
  8
0
  6
CONTINUOUS
 62
               7
100
AcDbCircle
 10
26.05073593128752
 20
25.974999999999945
 30
0.0
 40
0.3000000000000013
100
AcDbArc
 50
314.99999999999619
 51
45.000000000004583
  0
ARC
  5
E0
100
AcDbEntity
  8
0
  6
CONTINUOUS
 62
               7
100
AcDbCircle
 10
25.775735931287429
 20
26.250000000000007
 30
0.0
 40
0.3
100
AcDbArc
 50
44.999999999994252
 51
90.0
  0
ARC
  5
E1
100
AcDbEntity
  8
0
  6
CONTINUOUS
 62
               7
100
AcDbCircle
 10
23.094386880212951
 20
24.851759155205066
 30
0.0
 40
0.3000000000000007
100
AcDbArc
 50
134.99999999999994
 51
174.99999999999528
  0
ARC
  5
E2
100
AcDbEntity
  8
0
  6
CONTINUOUS
 62
               7
100
AcDbCircle
 10
22.870695939980081
 20
22.294960008692065
 30
0.0
 40
0.2999999999999954
100
AcDbArc
 50
174.99999999999523
 51
315.00000000000006
  0
ARC
  5
E3
100
AcDbEntity
  8
0
  6
CONTINUOUS
 62
               7
100
AcDbCircle
 10
23.530733660556038
 20
22.954997729268037
 30
0.0
 40
0.300000000000001
100
AcDbArc
 50
314.99999999999812
 51
354.99999999999545
  0
ARC
  5
E4
100
AcDbEntity
  8
0
  6
CONTINUOUS
 62
               7
100
AcDbCircle
 10
23.707869401575167
 20
24.979668513803041
 30
0.0
 40
0.300000000000006
100
AcDbArc
 50
354.99999999999534
 51
45.0000000000027
  0
ARC
  5
E5
100
AcDbEntity
  8
0
  6
CONTINUOUS
 62
               7
100
AcDbCircle
 10
23.465082820193047
 20
25.222455095185161
 30
0.0
 40
0.3000000000000007
100
AcDbArc
 50
45.0
 51
135.0
  0
ARC
  5
E6
100
AcDbEntity
  8
0
  6
CONTINUOUS
 62
               7
100
AcDbCircle
 10
26.123705361908506
 20
21.400000000000233
 30
0.0
 40
0.3000000000000007
100
AcDbArc
 50
270.00000000000341
 51
35.000000000000213
  0
ARC
  5
E7
100
AcDbEntity
  8
0
  6
CONTINUOUS
 62
               7
100
AcDbCircle
 10
25.703580838982603
 20
22.000000000000362
 30
0.0
 40
0.2999999999999996
100
AcDbArc
 50
34.99999999999838
 51
90.0
  0
ARC
  5
E8
100
AcDbEntity
  8
0
  6
CONTINUOUS
 62
               7
100
AcDbCircle
 10
24.22426406871206
 20
22.000000000000185
 30
0.0
 40
0.3000000000000007
100
AcDbArc
 50
90.000000000005443
 51
134.9999999999998
  0
ARC
  5
E9
100
AcDbEntity
  8
0
  6
CONTINUOUS
 62
               7
100
AcDbCircle
 10
23.62426406871198
 20
21.400000000000105
 30
0.0
 40
0.3000000000000007
100
AcDbArc
 50
135.00000000000199
 51
270.00000000000006
  0
LINE
  5
EA
100
AcDbEntity
  8
0
  6
CONTINUOUS
 62
               2
100
AcDbLine
 10
27.0
 20
0.0
 30
0.0
 11
33.0
 21
0.0
 31
0.0
  0
LINE
  5
EB
100
AcDbEntity
  8
0
  6
CONTINUOUS
 62
               2
100
AcDbLine
 10
0.0
 20
-3.0
 30
0.0
 11
0.0
 21
2.9999999999999929
 31
0.0
  0
LINE
  5
EC
100
AcDbEntity
  8
0
  6
CONTINUOUS
 62
               2
100
AcDbLine
 10
-3.0
 20
0.0
 30
0.0
 11
3.0
 21
0.0
 31
0.0
  0
LINE
  5
ED
100
AcDbEntity
  8
0
  6
CONTINUOUS
 62
               2
100
AcDbLine
 10
30.0
 20
-3.0
 30
0.0
 11
30.0
 21
3.0
 31
0.0
  0
LINE
  5
EE
100
AcDbEntity
  8
0
  6
CONTINUOUS
 62
               7
100
AcDbLine
 10
30.0
 20
31.600000000000001
 30
0.0
 11
30.0
 21
20.100000000000001
 31
0.0
  0
CIRCLE
  5
EF
100
AcDbEntity
  8
0
  6
CONTINUOUS
 62
               7
100
AcDbCircle
 10
16.5
 20
8.8500000000000014
 30
0.0
 40
2.0
  0
CIRCLE
  5
F0
100
AcDbEntity
  8
0
  6
CONTINUOUS
 62
               7
100
AcDbCircle
 10
16.5
 20
2.3500000000000014
 30
0.0
 40
2.0
  0
LINE
  5
F1
100
AcDbEntity
  8
0
  6
CONTINUOUS
 62
               7
100
AcDbLine
 10
33.5
 20
-0.6499999999999986
 30
0.0
 11
33.5
 21
35.350000000000001
 31
0.0
  0
LINE
  5
F2
100
AcDbEntity
  8
0
  6
CONTINUOUS
 62
               7
100
AcDbLine
 10
18.0
 20
12.350000000000001
 30
0.0
 11
18.0
 21
18.350000000000001
 31
0.0
  0
LINE
  5
F3
100
AcDbEntity
  8
0
  6
CONTINUOUS
 62
               7
100
AcDbLine
 10
18.0
 20
12.350000000000001
 30
0.0
 11
12.0
 21
12.350000000000001
 31
0.0
  0
LINE
  5
F4
100
AcDbEntity
  8
0
  6
CONTINUOUS
 62
               7
100
AcDbLine
 10
18.0
 20
18.350000000000001
 30
0.0
 11
12.0
 21
18.350000000000001
 31
0.0
  0
LINE
  5
F5
100
AcDbEntity
  8
0
  6
CONTINUOUS
 62
               7
100
AcDbLine
 10
12.0
 20
12.350000000000001
 30
0.0
 11
12.0
 21
18.350000000000001
 31
0.0
  0
LINE
  5
F6
100
AcDbEntity
  8
0
  6
CONTINUOUS
 62
               7
100
AcDbLine
 10
23.0
 20
18.350000000000001
 30
0.0
 11
23.0
 21
12.350000000000001
 31
0.0
  0
LINE
  5
F7
100
AcDbEntity
  8
0
  6
CONTINUOUS
 62
               7
100
AcDbLine
 10
23.0
 20
18.350000000000001
 30
0.0
 11
29.0
 21
18.350000000000001
 31
0.0
  0
LINE
  5
F8
100
AcDbEntity
  8
0
  6
CONTINUOUS
 62
               7
100
AcDbLine
 10
23.0
 20
12.350000000000001
 30
0.0
 11
29.0
 21
12.350000000000001
 31
0.0
  0
LINE
  5
F9
100
AcDbEntity
  8
0
  6
CONTINUOUS
 62
               7
100
AcDbLine
 10
29.0
 20
18.350000000000001
 30
0.0
 11
29.0
 21
12.350000000000001
 31
0.0
  0
ARC
  5
FA
100
AcDbEntity
  8
0
  6
CONTINUOUS
 62
               7
100
AcDbCircle
 10
33.0
 20
-0.6499999999999986
 30
0.0
 40
0.5
100
AcDbArc
 50
270.0
 51
0.0
  0
LINE
  5
FB
100
AcDbEntity
  8
0
  6
CONTINUOUS
 62
               7
100
AcDbLine
 10
15.0
 20
13.100000000000001
 30
0.0
 11
12.401923788646684
 21
17.600000000000001
 31
0.0
  0
LINE
  5
FC
100
AcDbEntity
  8
0
  6
CONTINUOUS
 62
               7
100
AcDbLine
 10
12.401923788646684
 20
17.600000000000001
 30
0.0
 11
17.598076211353316
 21
17.600000000000001
 31
0.0
  0
LINE
  5
FD
100
AcDbEntity
  8
0
  6
CONTINUOUS
 62
               7
100
AcDbLine
 10
17.598076211353316
 20
17.600000000000001
 30
0.0
 11
15.0
 21
13.100000000000001
 31
0.0
  0
ARC
  5
FE
100
AcDbEntity
  8
0
  6
CONTINUOUS
 62
               7
100
AcDbCircle
 10
26.0
 20
15.950000000000003
 30
0.0
 40
0.5
100
AcDbArc
 50
180.0
 51
270.0
  0
ARC
  5
FF
100
AcDbEntity
  8
0
  6
CONTINUOUS
 62
               7
100
AcDbCircle
 10
26.0
 20
15.950000000000003
 30
0.0
 40
2.5
100
AcDbArc
 50
180.0
 51
270.0
  0
LINE
  5
100
100
AcDbEntity
  8
0
  6
CONTINUOUS
 62
               7
100
AcDbLine
 10
26.0
 20
15.450000000000003
 30
0.0
 11
26.5
 21
15.450000000000003
 31
0.0
  0
LINE
  5
101
100
AcDbEntity
  8
0
  6
CONTINUOUS
 62
               7
100
AcDbLine
 10
26.0
 20
13.450000000000003
 30
0.0
 11
26.5
 21
13.450000000000003
 31
0.0
  0
LINE
  5
102
100
AcDbEntity
  8
0
  6
CONTINUOUS
 62
               7
100
AcDbLine
 10
25.5
 20
15.950000000000003
 30
0.0
 11
25.5
 21
17.450000000000003
 31
0.0
  0
LINE
  5
103
100
AcDbEntity
  8
0
  6
CONTINUOUS
 62
               7
100
AcDbLine
 10
23.5
 20
15.950000000000003
 30
0.0
 11
23.5
 21
17.450000000000003
 31
0.0
  0
LINE
  5
104
100
AcDbEntity
  8
0
  6
CONTINUOUS
 62
               7
100
AcDbLine
 10
26.5
 20
13.450000000000003
 30
0.0
 11
26.5
 21
12.950000000000003
 31
0.0
  0
LINE
  5
105
100
AcDbEntity
  8
0
  6
CONTINUOUS
 62
               7
100
AcDbLine
 10
26.5
 20
15.950000000000003
 30
0.0
 11
28.665063509461106
 21
14.449999999999996
 31
0.0
  0
LINE
  5
106
100
AcDbEntity
  8
0
  6
CONTINUOUS
 62
               7
100
AcDbLine
 10
26.5
 20
12.950000000000003
 30
0.0
 11
28.665063509461049
 21
14.449999999999996
 31
0.0
  0
LINE
  5
107
100
AcDbEntity
  8
0
  6
CONTINUOUS
 62
               7
100
AcDbLine
 10
26.5
 20
15.450000000000003
 30
0.0
 11
26.5
 21
15.950000000000003
 31
0.0
  0
LINE
  5
108
100
AcDbEntity
  8
0
  6
CONTINUOUS
 62
               7
100
AcDbLine
 10
23.5
 20
17.450000000000003
 30
0.0
 11
25.5
 21
17.450000000000003
 31
0.0
  0
ARC
  5
109
100
AcDbEntity
  8
0
  6
CONTINUOUS
 62
               7
100
AcDbCircle
 10
33.0
 20
35.350000000000001
 30
0.0
 40
0.5
100
AcDbArc
 50
0.0
 51
90.0
  0
LINE
  5
10A
100
AcDbEntity
  8
0
  6
CONTINUOUS
 62
               7
100
AcDbLine
 10
34.0
 20
-1.6499999999999986
 30
0.0
 11
34.707106781186553
 21
-2.3571067811865447
 31
0.0
  0
LINE
  5
10B
100
AcDbEntity
  8
0
  6
CONTINUOUS
 62
               7
100
AcDbLine
 10
34.0
 20
36.350000000000001
 30
0.0
 11
34.707106781186553
 21
37.057106781186548
 31
0.0
  0
LINE
  5
10C
100
AcDbEntity
  8
0
  6
CONTINUOUS
 62
               7
100
AcDbLine
 10
34.0
 20
-1.6499999999999986
 30
0.0
 11
34.0
 21
36.350000000000001
 31
0.0
  0
LINE
  5
10D
100
AcDbEntity
  8
0
  6
CONTINUOUS
 62
               7
100
AcDbLine
 10
35.0
 20
-1.6499999999999986
 30
0.0
 11
35.0
 21
36.350000000000001
 31
0.0
  0
ARC
  5
10E
100
AcDbEntity
  8
0
  6
CONTINUOUS
 62
               7
100
AcDbCircle
 10
34.0
 20
36.350000000000001
 30
0.0
 40
1.0
100
AcDbArc
 50
0.0
 51
90.0
  0
ARC
  5
10F
100
AcDbEntity
  8
0
  6
CONTINUOUS
 62
               7
100
AcDbCircle
 10
34.0
 20
-1.6499999999999986
 30
0.0
 40
1.0
100
AcDbArc
 50
270.0
 51
0.0
  0
CIRCLE
  5
110
100
AcDbEntity
  8
0
  6
CONTINUOUS
 62
               7
100
AcDbCircle
 10
7.8250226729480801
 20
21.950000000000017
 30
0.0
 40
0.3999999999999986
  0
ARC
  5
111
100
AcDbEntity
  8
0
  6
CONTINUOUS
 62
               7
100
AcDbCircle
 10
3.2242640687119888
 20
21.400000000000105
 30
0.0
 40
0.3000000000000007
100
AcDbArc
 50
135.00000000000199
 51
270.00000000000006
  0
ARC
  5
112
100
AcDbEntity
  8
0
  6
CONTINUOUS
 62
               7
100
AcDbCircle
 10
3.8242640687120684
 20
22.000000000000185
 30
0.0
 40
0.3000000000000007
100
AcDbArc
 50
90.000000000005443
 51
134.9999999999998
  0
ARC
  5
113
100
AcDbEntity
  8
0
  6
CONTINUOUS
 62
               7
100
AcDbCircle
 10
5.3035808389826116
 20
22.000000000000362
 30
0.0
 40
0.2999999999999996
100
AcDbArc
 50
34.99999999999838
 51
90.0
  0
ARC
  5
114
100
AcDbEntity
  8
0
  6
CONTINUOUS
 62
               7
100
AcDbCircle
 10
5.7237053619085145
 20
21.400000000000233
 30
0.0
 40
0.3000000000000007
100
AcDbArc
 50
270.00000000000341
 51
35.000000000000213
  0
ARC
  5
115
100
AcDbEntity
  8
0
  6
CONTINUOUS
 62
               7
100
AcDbCircle
 10
3.0650828201930551
 20
25.222455095185161
 30
0.0
 40
0.3000000000000007
100
AcDbArc
 50
45.0
 51
135.0
  0
ARC
  5
116
100
AcDbEntity
  8
0
  6
CONTINUOUS
 62
               7
100
AcDbCircle
 10
3.3078694015751751
 20
24.979668513803041
 30
0.0
 40
0.300000000000006
100
AcDbArc
 50
354.99999999999534
 51
45.0000000000027
  0
ARC
  5
117
100
AcDbEntity
  8
0
  6
CONTINUOUS
 62
               7
100
AcDbCircle
 10
3.1307336605560465
 20
22.954997729268037
 30
0.0
 40
0.300000000000001
100
AcDbArc
 50
314.99999999999812
 51
354.99999999999545
  0
ARC
  5
118
100
AcDbEntity
  8
0
  6
CONTINUOUS
 62
               7
100
AcDbCircle
 10
2.4706959399800894
 20
22.294960008692065
 30
0.0
 40
0.2999999999999954
100
AcDbArc
 50
174.99999999999523
 51
315.00000000000006
  0
ARC
  5
119
100
AcDbEntity
  8
0
  6
CONTINUOUS
 62
               7
100
AcDbCircle
 10
2.69438688021296
 20
24.851759155205066
 30
0.0
 40
0.3000000000000007
100
AcDbArc
 50
134.99999999999994
 51
174.99999999999528
  0
ARC
  5
11A
100
AcDbEntity
  8
0
  6
CONTINUOUS
 62
               7
100
AcDbCircle
 10
5.3757359312874371
 20
26.250000000000007
 30
0.0
 40
0.3
100
AcDbArc
 50
44.999999999994252
 51
90.0
  0
ARC
  5
11B
100
AcDbEntity
  8
0
  6
CONTINUOUS
 62
               7
100
AcDbCircle
 10
5.650735931287528
 20
25.974999999999945
 30
0.0
 40
0.3000000000000013
100
AcDbArc
 50
314.99999999999619
 51
45.000000000004583
  0
ARC
  5
11C
100
AcDbEntity
  8
0
  6
CONTINUOUS
 62
               7
100
AcDbCircle
 10
5.3257359312875678
 20
25.649999999999999
 30
0.0
 40
0.3000000000000007
100
AcDbArc
 50
270.00000000001091
 51
314.99999999999977
  0
ARC
  5
11D
100
AcDbEntity
  8
0
  6
CONTINUOUS
 62
               7
100
AcDbCircle
 10
4.2242640687114204
 20
25.649999999999899
 30
0.0
 40
0.3
100
AcDbArc
 50
225.0
 51
270.0
  0
ARC
  5
11E
100
AcDbEntity
  8
0
  6
CONTINUOUS
 62
               7
100
AcDbCircle
 10
3.9492640687113294
 20
25.92499999999999
 30
0.0
 40
0.3000000000000013
100
AcDbArc
 50
134.99999999999994
 51
224.99999999999923
  0
ARC
  5
11F
100
AcDbEntity
  8
0
  6
CONTINUOUS
 62
               7
100
AcDbCircle
 10
4.274264068711318
 20
26.250000000000007
 30
0.0
 40
0.3000000000000007
100
AcDbArc
 50
90.0
 51
134.99999999999974
  0
ARC
  5
120
100
AcDbEntity
  8
0
  6
CONTINUOUS
 62
               7
100
AcDbCircle
 10
6.471174462449909
 20
25.222455095185161
 30
0.0
 40
0.3000000000000013
100
AcDbArc
 50
45.000000000003361
 51
134.99999999999974
  0
ARC
  5
121
100
AcDbEntity
  8
0
  6
CONTINUOUS
 62
               7
100
AcDbCircle
 10
6.7139610438320574
 20
24.979668513803041
 30
0.0
 40
0.300000000000006
100
AcDbArc
 50
354.99999999999511
 51
45.000000000000455
  0
ARC
  5
122
100
AcDbEntity
  8
0
  6
CONTINUOUS
 62
               7
100
AcDbCircle
 10
6.4823751691219513
 20
22.332629853288289
 30
0.0
 40
0.3000000000000004
100
AcDbArc
 50
214.99999999998639
 51
354.99999999999523
  0
ARC
  5
123
100
AcDbEntity
  8
0
  6
CONTINUOUS
 62
               7
100
AcDbCircle
 10
5.9469792519877842
 20
23.097254465161548
 30
0.0
 40
0.2999999999999954
100
AcDbArc
 50
174.99999999999511
 51
214.99999999999019
  0
ARC
  5
124
100
AcDbEntity
  8
0
  6
CONTINUOUS
 62
               7
100
AcDbCircle
 10
6.1004785224697855
 20
24.851759155205066
 30
0.0
 40
0.3000000000000007
100
AcDbArc
 50
134.99999999999974
 51
174.99999999999511
  0
ARC
  5
125
100
AcDbEntity
  8
0
  6
CONTINUOUS
 62
               7
100
AcDbCircle
 10
7.1188265714968395
 20
29.607302670590265
 30
0.0
 40
0.300000000000006
100
AcDbArc
 50
354.99999999999881
 51
134.99999999999955
  0
ARC
  5
126
100
AcDbEntity
  8
0
  6
CONTINUOUS
 62
               7
100
AcDbCircle
 10
6.8951356312640542
 20
27.050503524077278
 30
0.0
 40
0.3000000000000013
100
AcDbArc
 50
314.99999999999619
 51
354.99999999999523
  0
ARC
  5
127
100
AcDbEntity
  8
0
  6
CONTINUOUS
 62
               7
100
AcDbCircle
 10
6.5244396912839306
 20
26.679807584097183
 30
0.0
 40
0.3000000000000007
100
AcDbArc
 50
225.0
 51
314.99999999999977
  0
ARC
  5
128
100
AcDbEntity
  8
0
  6
CONTINUOUS
 62
               7
100
AcDbCircle
 10
6.2816531099017823
 20
26.922594165479303
 30
0.0
 40
0.300000000000006
100
AcDbArc
 50
174.99999999999238
 51
224.99999999999949
  0
ARC
  5
129
100
AcDbEntity
  8
0
  6
CONTINUOUS
 62
               7
100
AcDbCircle
 10
6.4587888509209108
 20
28.947264950014322
 30
0.0
 40
0.300000000000002
100
AcDbArc
 50
135.00000000000045
 51
174.99999999999531
  0
ARC
  5
12A
100
AcDbEntity
  8
0
  6
CONTINUOUS
 62
               7
100
AcDbCircle
 10
3.6530207480114143
 20
28.802745534838671
 30
0.0
 40
0.300000000000006
100
AcDbArc
 50
354.99999999999267
 51
34.999999999990294
  0
ARC
  5
12B
100
AcDbEntity
  8
0
  6
CONTINUOUS
 62
               7
100
AcDbCircle
 10
3.499719436315786
 20
27.050503524077278
 30
0.0
 40
0.3000000000000007
100
AcDbArc
 50
315.00000000000193
 51
354.99999999999494
  0
ARC
  5
12C
100
AcDbEntity
  8
0
  6
CONTINUOUS
 62
               7
100
AcDbCircle
 10
3.1290234963356625
 20
26.679807584097183
 30
0.0
 40
0.3000000000000007
100
AcDbArc
 50
225.0
 51
314.99999999999977
  0
ARC
  5
12D
100
AcDbEntity
  8
0
  6
CONTINUOUS
 62
               7
100
AcDbCircle
 10
2.8862369149535425
 20
26.922594165479332
 30
0.0
 40
0.299999999999999
100
AcDbArc
 50
174.99999999999787
 51
224.99999999999909
  0
ARC
  5
12E
100
AcDbEntity
  8
0
  6
CONTINUOUS
 62
               7
100
AcDbCircle
 10
3.1176248308772756
 20
29.567370146711916
 30
0.0
 40
0.2999999999999996
100
AcDbArc
 50
34.999999999990493
 51
174.99999999999528
  0
ARC
  5
12F
100
AcDbEntity
  8
0
  6
CONTINUOUS
 62
               7
100
AcDbCircle
 10
6.3757359312872097
 20
30.500000000000128
 30
0.0
 40
0.3000000000000007
100
AcDbArc
 50
315.00000000000409
 51
90.000000000003411
  0
ARC
  5
130
100
AcDbEntity
  8
0
  6
CONTINUOUS
 62
               7
100
AcDbCircle
 10
5.7757359312871586
 20
29.900000000000048
 30
0.0
 40
0.3000000000000007
100
AcDbArc
 50
270.0
 51
315.00000000000045
  0
ARC
  5
131
100
AcDbEntity
  8
0
  6
CONTINUOUS
 62
               7
100
AcDbCircle
 10
4.2964191610165869
 20
29.899999999999842
 30
0.0
 40
0.3000000000000008
100
AcDbArc
 50
214.99999999999926
 51
270.0000000000075
  0
ARC
  5
132
100
AcDbEntity
  8
0
  6
CONTINUOUS
 62
               7
100
AcDbCircle
 10
3.876294638090684
 20
30.499999999999979
 30
0.0
 40
0.3000000000000007
100
AcDbArc
 50
90.0
 51
215.00000000000026
  0
LINE
  5
133
100
AcDbEntity
  8
0
  6
CONTINUOUS
 62
               7
100
AcDbLine
 10
3.2242640687119888
 20
21.100000000000101
 30
0.0
 11
5.7237053619085145
 21
21.100000000000236
 31
0.0
  0
LINE
  5
134
100
AcDbEntity
  8
0
  6
CONTINUOUS
 62
               7
100
AcDbLine
 10
3.6121320343561081
 20
22.212132034356145
 30
0.0
 11
3.0121320343560001
 21
21.612132034356051
 31
0.0
  0
LINE
  5
135
100
AcDbEntity
  8
0
  6
CONTINUOUS
 62
               7
100
AcDbLine
 10
5.3035808389826116
 20
22.300000000000367
 30
0.0
 11
3.8242640687120399
 21
22.300000000000196
 31
0.0
  0
LINE
  5
136
100
AcDbEntity
  8
0
  6
CONTINUOUS
 62
               7
100
AcDbLine
 10
5.9694509751952012
 20
21.572072930905556
 30
0.0
 11
5.5493264522692982
 21
22.172072930905671
 31
0.0
  0
LINE
  5
137
100
AcDbEntity
  8
0
  6
CONTINUOUS
 62
               7
100
AcDbLine
 10
3.5200014359311353
 20
25.191800548159009
 30
0.0
 11
3.2772148545490154
 21
25.434587129541121
 31
0.0
  0
LINE
  5
138
100
AcDbEntity
  8
0
  6
CONTINUOUS
 62
               7
100
AcDbLine
 10
3.4295920699835563
 20
22.928851006443715
 30
0.0
 11
3.6067278110026848
 21
24.953521790978719
 31
0.0
  0
LINE
  5
139
100
AcDbEntity
  8
0
  6
CONTINUOUS
 62
               7
100
AcDbLine
 10
2.6828279743360497
 20
22.082827974336105
 30
0.0
 11
3.3428656949120068
 21
22.742865694912062
 31
0.0
  0
LINE
  5
13A
100
AcDbEntity
  8
0
  6
CONTINUOUS
 62
               7
100
AcDbLine
 10
2.3955284707854503
 20
24.877905878029388
 30
0.0
 11
2.1718375305525797
 21
22.32110673151638
 31
0.0
  0
LINE
  5
13B
100
AcDbEntity
  8
0
  6
CONTINUOUS
 62
               7
100
AcDbLine
 10
2.8529507858370948
 20
25.434587129541121
 30
0.0
 11
2.4822548458569997
 21
25.063891189561026
 31
0.0
  0
LINE
  5
13C
100
AcDbEntity
  8
0
  6
CONTINUOUS
 62
               7
100
AcDbLine
 10
5.8628679656434883
 20
26.187132034355912
 30
0.0
 11
5.5878679656434542
 21
26.462132034355953
 31
0.0
  0
LINE
  5
13D
100
AcDbEntity
  8
0
  6
CONTINUOUS
 62
               7
100
AcDbLine
 10
5.5378679656434997
 20
25.437867965644031
 30
0.0
 11
5.8628679656434883
 21
25.762867965643984
 31
0.0
  0
LINE
  5
13E
100
AcDbEntity
  8
0
  6
CONTINUOUS
 62
               7
100
AcDbLine
 10
4.2242640687114204
 20
25.349999999999895
 30
0.0
 11
5.3257359312876247
 21
25.350000000000001
 31
0.0
  0
LINE
  5
13F
100
AcDbEntity
  8
0
  6
CONTINUOUS
 62
               7
100
AcDbLine
 10
3.7371320343553691
 20
25.71286796564403
 30
0.0
 11
4.0121320343554601
 21
25.437867965643939
 31
0.0
  0
LINE
  5
140
100
AcDbEntity
  8
0
  6
CONTINUOUS
 62
               7
100
AcDbLine
 10
4.0621320343553862
 20
26.462132034355974
 30
0.0
 11
3.7371320343553691
 21
26.13713203435595
 31
0.0
  0
LINE
  5
141
100
AcDbEntity
  8
0
  6
CONTINUOUS
 62
               7
100
AcDbLine
 10
5.3757359312874371
 20
26.54999999999999
 30
0.0
 11
4.274264068711318
 21
26.54999999999999
 31
0.0
  0
LINE
  5
142
100
AcDbEntity
  8
0
  6
CONTINUOUS
 62
               7
100
AcDbLine
 10
6.2590424280939487
 20
25.434587129541129
 30
0.0
 11
5.8883464881138252
 21
25.063891189561033
 31
0.0
  0
LINE
  5
143
100
AcDbEntity
  8
0
  6
CONTINUOUS
 62
               7
100
AcDbLine
 10
6.9260930781880177
 20
25.191800548159016
 30
0.0
 11
6.6833064968058693
 21
25.434587129541136
 31
0.0
  0
LINE
  5
144
100
AcDbEntity
  8
0
  6
CONTINUOUS
 62
               7
100
AcDbLine
 10
6.7812335785494611
 20
22.306483130463974
 30
0.0
 11
7.0128194532595671
 21
24.953521790978719
 31
0.0
  0
LINE
  5
145
100
AcDbEntity
  8
0
  6
CONTINUOUS
 62
               7
100
AcDbLine
 10
5.7012336387010691
 20
22.925181534256275
 30
0.0
 11
6.2366295558351794
 21
22.160556922383037
 31
0.0
  0
LINE
  5
146
100
AcDbEntity
  8
0
  6
CONTINUOUS
 62
               7
100
AcDbLine
 10
5.8016201130422758
 20
24.877905878029388
 30
0.0
 11
5.6481208425602745
 21
23.12340118798587
 31
0.0
  0
LINE
  5
147
100
AcDbEntity
  8
0
  6
CONTINUOUS
 62
               7
100
AcDbLine
 10
6.9066945371408792
 20
29.819434704946239
 30
0.0
 11
6.2466568165649505
 21
29.159396984370289
 31
0.0
  0
LINE
  5
148
100
AcDbEntity
  8
0
  6
CONTINUOUS
 62
               7
100
AcDbLine
 10
7.1939940406915639
 20
27.024356801252956
 30
0.0
 11
7.4176849809243777
 21
29.581155947765964
 31
0.0
  0
LINE
  5
149
100
AcDbEntity
  8
0
  6
CONTINUOUS
 62
               7
100
AcDbLine
 10
6.7365717256398909
 20
26.467675549741216
 30
0.0
 11
7.1072676656199576
 21
26.838371489721318
 31
0.0
  0
LINE
  5
14A
100
AcDbEntity
  8
0
  6
CONTINUOUS
 62
               7
100
AcDbLine
 10
6.069521075545822
 20
26.710462131123336
 30
0.0
 11
6.3123076569279419
 21
26.467675549741223
 31
0.0
  0
LINE
  5
14B
100
AcDbEntity
  8
0
  6
CONTINUOUS
 62
               7
100
AcDbLine
 10
6.1599304414934011
 20
28.973411672838644
 30
0.0
 11
5.982794700474301
 21
26.948740888303639
 31
0.0
  0
LINE
  5
14C
100
AcDbEntity
  8
0
  6
CONTINUOUS
 62
               7
100
AcDbLine
 10
3.8987663612981578
 20
28.974818465743944
 30
0.0
 11
3.3633704441640191
 21
29.739443077617196
 31
0.0
  0
LINE
  5
14D
100
AcDbEntity
  8
0
  6
CONTINUOUS
 62
               7
100
AcDbLine
 10
3.7985778457432957
 20
27.024356801252956
 30
0.0
 11
3.9518791574389525
 21
28.776598812014335
 31
0.0
  0
LINE
  5
14E
100
AcDbEntity
  8
0
  6
CONTINUOUS
 62
               7
100
AcDbLine
 10
3.3411555306916512
 20
26.467675549741216
 30
0.0
 11
3.7118514706717463
 21
26.838371489721318
 31
0.0
  0
LINE
  5
14F
100
AcDbEntity
  8
0
  6
CONTINUOUS
 62
               7
100
AcDbLine
 10
2.6741048805975822
 20
26.710462131123371
 30
0.0
 11
2.9168914619797306
 21
26.467675549741223
 31
0.0
  0
LINE
  5
150
100
AcDbEntity
  8
0
  6
CONTINUOUS
 62
               7
100
AcDbLine
 10
2.8187664214497659
 20
29.593516869536238
 30
0.0
 11
2.5873785055260328
 21
26.948740888303639
 31
0.0
  0
LINE
  5
151
100
AcDbEntity
  8
0
  6
CONTINUOUS
 62
               7
100
AcDbLine
 10
6.3757359312872097
 20
30.800000000000125
 30
0.0
 11
3.876294638090684
 21
30.799999999999976
 31
0.0
  0
LINE
  5
152
100
AcDbEntity
  8
0
  6
CONTINUOUS
 62
               7
100
AcDbLine
 10
5.9878679656431189
 20
29.687867965644081
 30
0.0
 11
6.5878679656432269
 21
30.287867965644168
 31
0.0
  0
LINE
  5
153
100
AcDbEntity
  8
0
  6
CONTINUOUS
 62
               7
100
AcDbLine
 10
4.2964191610166154
 20
29.599999999999838
 30
0.0
 11
5.7757359312871586
 21
29.600000000000037
 31
0.0
  0
LINE
  5
154
100
AcDbEntity
  8
0
  6
CONTINUOUS
 62
               7
100
AcDbLine
 10
3.6305490248039973
 20
30.327927069094663
 30
0.0
 11
4.0506735477299003
 21
29.727927069094541
 31
0.0
  0
LINE
  5
155
100
AcDbEntity
  8
0
  6
CONTINUOUS
 62
               7
100
AcDbLine
 10
9.618766421449763
 20
29.593516869536238
 30
0.0
 11
9.3873785055260299
 21
26.948740888303639
 31
0.0
  0
LINE
  5
156
100
AcDbEntity
  8
0
  6
CONTINUOUS
 62
               7
100
AcDbLine
 10
9.4741048805975794
 20
26.710462131123371
 30
0.0
 11
9.7168914619797278
 21
26.467675549741223
 31
0.0
  0
LINE
  5
157
100
AcDbEntity
  8
0
  6
CONTINUOUS
 62
               7
100
AcDbLine
 10
10.141155530691648
 20
26.467675549741216
 30
0.0
 11
10.511851470671743
 21
26.838371489721318
 31
0.0
  0
LINE
  5
158
100
AcDbEntity
  8
0
  6
CONTINUOUS
 62
               7
100
AcDbLine
 10
10.698766361298155
 20
28.974818465743944
 30
0.0
 11
10.163370444164016
 21
29.739443077617196
 31
0.0
  0
LINE
  5
159
100
AcDbEntity
  8
0
  6
CONTINUOUS
 62
               7
100
AcDbLine
 10
9.652950785837092
 20
25.434587129541121
 30
0.0
 11
9.2822548458569969
 21
25.063891189561026
 31
0.0
  0
LINE
  5
15A
100
AcDbEntity
  8
0
  6
CONTINUOUS
 62
               7
100
AcDbLine
 10
9.1955284707854474
 20
24.877905878029388
 30
0.0
 11
8.9718375305525768
 21
22.32110673151638
 31
0.0
  0
LINE
  5
15B
100
AcDbEntity
  8
0
  6
CONTINUOUS
 62
               7
100
AcDbLine
 10
9.4828279743360469
 20
22.082827974336105
 30
0.0
 11
10.142865694912004
 21
22.742865694912062
 31
0.0
  0
LINE
  5
15C
100
AcDbEntity
  8
0
  6
CONTINUOUS
 62
               7
100
AcDbLine
 10
10.229592069983553
 20
22.928851006443715
 30
0.0
 11
10.406727811002682
 21
24.953521790978719
 31
0.0
  0
LINE
  5
15D
100
AcDbEntity
  8
0
  6
CONTINUOUS
 62
               7
100
AcDbLine
 10
10.320001435931133
 20
25.191800548159009
 30
0.0
 11
10.077214854549013
 21
25.434587129541121
 31
0.0
  0
LINE
  5
15E
100
AcDbEntity
  8
0
  6
CONTINUOUS
 62
               7
100
AcDbLine
 10
10.412132034356105
 20
22.212132034356145
 30
0.0
 11
9.8121320343559972
 21
21.612132034356051
 31
0.0
  0
ARC
  5
15F
100
AcDbEntity
  8
0
  6
CONTINUOUS
 62
               7
100
AcDbCircle
 10
10.676294638090681
 20
30.499999999999979
 30
0.0
 40
0.3000000000000007
100
AcDbArc
 50
90.0
 51
215.00000000000026
  0
ARC
  5
160
100
AcDbEntity
  8
0
  6
CONTINUOUS
 62
               7
100
AcDbCircle
 10
9.9176248308772728
 20
29.567370146711916
 30
0.0
 40
0.2999999999999996
100
AcDbArc
 50
34.999999999990493
 51
174.99999999999528
  0
ARC
  5
161
100
AcDbEntity
  8
0
  6
CONTINUOUS
 62
               7
100
AcDbCircle
 10
9.6862369149535397
 20
26.922594165479332
 30
0.0
 40
0.299999999999999
100
AcDbArc
 50
174.99999999999787
 51
224.99999999999909
  0
ARC
  5
162
100
AcDbEntity
  8
0
  6
CONTINUOUS
 62
               7
100
AcDbCircle
 10
9.9290234963356596
 20
26.679807584097183
 30
0.0
 40
0.3000000000000007
100
AcDbArc
 50
225.0
 51
314.99999999999977
  0
ARC
  5
163
100
AcDbEntity
  8
0
  6
CONTINUOUS
 62
               7
100
AcDbCircle
 10
10.299719436315783
 20
27.050503524077278
 30
0.0
 40
0.3000000000000007
100
AcDbArc
 50
315.00000000000193
 51
354.99999999999494
  0
ARC
  5
164
100
AcDbEntity
  8
0
  6
CONTINUOUS
 62
               7
100
AcDbCircle
 10
10.749264068711327
 20
25.92499999999999
 30
0.0
 40
0.3000000000000013
100
AcDbArc
 50
134.99999999999994
 51
224.99999999999923
  0
ARC
  5
165
100
AcDbEntity
  8
0
  6
CONTINUOUS
 62
               7
100
AcDbCircle
 10
9.4943868802129572
 20
24.851759155205066
 30
0.0
 40
0.3000000000000007
100
AcDbArc
 50
134.99999999999994
 51
174.99999999999528
  0
ARC
  5
166
100
AcDbEntity
  8
0
  6
CONTINUOUS
 62
               7
100
AcDbCircle
 10
9.2706959399800866
 20
22.294960008692065
 30
0.0
 40
0.2999999999999954
100
AcDbArc
 50
174.99999999999523
 51
315.00000000000006
  0
ARC
  5
167
100
AcDbEntity
  8
0
  6
CONTINUOUS
 62
               7
100
AcDbCircle
 10
9.9307336605560437
 20
22.954997729268037
 30
0.0
 40
0.300000000000001
100
AcDbArc
 50
314.99999999999812
 51
354.99999999999545
  0
ARC
  5
168
100
AcDbEntity
  8
0
  6
CONTINUOUS
 62
               7
100
AcDbCircle
 10
10.107869401575172
 20
24.979668513803041
 30
0.0
 40
0.300000000000006
100
AcDbArc
 50
354.99999999999534
 51
45.0000000000027
  0
ARC
  5
169
100
AcDbEntity
  8
0
  6
CONTINUOUS
 62
               7
100
AcDbCircle
 10
9.8650828201930523
 20
25.222455095185161
 30
0.0
 40
0.3000000000000007
100
AcDbArc
 50
45.0
 51
135.0
  0
ARC
  5
16A
100
AcDbEntity
  8
0
  6
CONTINUOUS
 62
               7
100
AcDbCircle
 10
10.624264068712066
 20
22.000000000000185
 30
0.0
 40
0.3000000000000007
100
AcDbArc
 50
90.000000000005443
 51
134.9999999999998
  0
ARC
  5
16B
100
AcDbEntity
  8
0
  6
CONTINUOUS
 62
               7
100
AcDbCircle
 10
10.024264068711986
 20
21.400000000000105
 30
0.0
 40
0.3000000000000007
100
AcDbArc
 50
135.00000000000199
 51
270.00000000000006
  0
LINE
  5
16C
100
AcDbEntity
  8
0
  6
CONTINUOUS
 62
               7
100
AcDbLine
 10
-3.5
 20
-0.6499999999999986
 30
0.0
 11
-3.5
 21
35.350000000000001
 31
0.0
  0
LINE
  5
16D
100
AcDbEntity
  8
0
  6
CONTINUOUS
 62
               7
100
AcDbLine
 10
0.0
 20
31.600000000000001
 30
0.0
 11
0.0
 21
20.100000000000001
 31
0.0
  0
CIRCLE
  5
16E
100
AcDbEntity
  8
0
  6
CONTINUOUS
 62
               7
100
AcDbCircle
 10
6.5
 20
8.8500000000000014
 30
0.0
 40
2.0
  0
CIRCLE
  5
16F
100
AcDbEntity
  8
0
  6
CONTINUOUS
 62
               7
100
AcDbCircle
 10
6.5
 20
2.3500000000000014
 30
0.0
 40
2.0
  0
CIRCLE
  5
170
100
AcDbEntity
  8
0
  6
CONTINUOUS
 62
               7
100
AcDbCircle
 10
1.5
 20
2.3500000000000014
 30
0.0
 40
2.0
  0
CIRCLE
  5
171
100
AcDbEntity
  8
0
  6
CONTINUOUS
 62
               7
100
AcDbCircle
 10
1.5
 20
8.8500000000000014
 30
0.0
 40
2.0
  0
LINE
  5
172
100
AcDbEntity
  8
0
  6
CONTINUOUS
 62
               7
100
AcDbLine
 10
7.0
 20
18.350000000000001
 30
0.0
 11
7.0
 21
12.350000000000001
 31
0.0
  0
LINE
  5
173
100
AcDbEntity
  8
0
  6
CONTINUOUS
 62
               7
100
AcDbLine
 10
1.0
 20
12.350000000000001
 30
0.0
 11
7.0
 21
12.350000000000001
 31
0.0
  0
LINE
  5
174
100
AcDbEntity
  8
0
  6
CONTINUOUS
 62
               7
100
AcDbLine
 10
1.0
 20
18.350000000000001
 30
0.0
 11
7.0
 21
18.350000000000001
 31
0.0
  0
LINE
  5
175
100
AcDbEntity
  8
0
  6
CONTINUOUS
 62
               7
100
AcDbLine
 10
1.0
 20
18.350000000000001
 30
0.0
 11
1.0
 21
12.350000000000001
 31
0.0
  0
ARC
  5
176
100
AcDbEntity
  8
0
  6
CONTINUOUS
 62
               7
100
AcDbCircle
 10
-3.0
 20
35.350000000000001
 30
0.0
 40
0.5
100
AcDbArc
 50
90.0
 51
180.0
  0
LINE
  5
177
100
AcDbEntity
  8
0
  6
CONTINUOUS
 62
               7
100
AcDbLine
 10
4.0
 20
17.600000000000001
 30
0.0
 11
6.598076211353316
 21
13.100000000000001
 31
0.0
  0
LINE
  5
178
100
AcDbEntity
  8
0
  6
CONTINUOUS
 62
               7
100
AcDbLine
 10
6.598076211353316
 20
13.100000000000001
 30
0.0
 11
1.401923788646684
 21
13.100000000000001
 31
0.0
  0
LINE
  5
179
100
AcDbEntity
  8
0
  6
CONTINUOUS
 62
               7
100
AcDbLine
 10
1.401923788646684
 20
13.100000000000001
 30
0.0
 11
4.0
 21
17.600000000000001
 31
0.0
  0
ARC
  5
17A
100
AcDbEntity
  8
0
  6
CONTINUOUS
 62
               7
100
AcDbCircle
 10
-3.0
 20
-0.6499999999999986
 30
0.0
 40
0.5
100
AcDbArc
 50
180.0
 51
270.0
  0
LINE
  5
17B
100
AcDbEntity
  8
0
  6
CONTINUOUS
 62
               7
100
AcDbLine
 10
-4.0
 20
36.350000000000001
 30
0.0
 11
-4.7071067811865532
 21
37.057106781186548
 31
0.0
  0
LINE
  5
17C
100
AcDbEntity
  8
0
  6
CONTINUOUS
 62
               7
100
AcDbLine
 10
-4.0
 20
-1.6499999999999986
 30
0.0
 11
-4.7071067811865532
 21
-2.3571067811865518
 31
0.0
  0
LINE
  5
17D
100
AcDbEntity
  8
0
  6
CONTINUOUS
 62
               7
100
AcDbLine
 10
-4.0
 20
36.350000000000001
 30
0.0
 11
-4.0
 21
-1.6499999999999986
 31
0.0
  0
LINE
  5
17E
100
AcDbEntity
  8
0
  6
CONTINUOUS
 62
               7
100
AcDbLine
 10
-5.0
 20
36.350000000000001
 30
0.0
 11
-5.0
 21
-1.6499999999999986
 31
0.0
  0
ARC
  5
17F
100
AcDbEntity
  8
0
  6
CONTINUOUS
 62
               7
100
AcDbCircle
 10
-4.0
 20
-1.6499999999999986
 30
0.0
 40
1.0
100
AcDbArc
 50
180.0
 51
270.0
  0
ARC
  5
180
100
AcDbEntity
  8
0
  6
CONTINUOUS
 62
               7
100
AcDbCircle
 10
-4.0
 20
36.350000000000001
 30
0.0
 40
1.0
100
AcDbArc
 50
90.0
 51
180.0
  0
CIRCLE
  5
182
100
AcDbEntity
  8
0
  6
DASHED
 62
               7
100
AcDbCircle
 10
30.0
 20
0.0
 30
0.0
 40
1.3
  0
CIRCLE
  5
183
100
AcDbEntity
  8
0
  6
DASHED
 62
               7
100
AcDbCircle
 10
0.0
 20
0.0
 30
0.0
 40
1.3
  0
ENDBLK
  5
184
100
AcDbEntity
  8
0
100
AcDbBlockEnd
  0
BLOCK
  5
185
100
AcDbEntity
  8
0
100
AcDbBlockBegin
  2
DTY-EPU-2
 70
               0
 10
0.0
 20
0.0
 30
0.0
  3
DTY-EPU-2
  1

  0
LINE
  5
186
100
AcDbEntity
  8
0
  6
CONTINUOUS
 62
               7
100
AcDbLine
 10
3.4000000000000341
 20
15.149999999999984
 30
0.0
 11
-4.3999999999999773
 21
15.149999999999984
 31
0.0
  0
LINE
  5
187
100
AcDbEntity
  8
0
  6
CONTINUOUS
 62
               7
100
AcDbLine
 10
3.4000000000000341
 20
30.949999999999982
 30
0.0
 11
-4.3999999999999773
 21
30.949999999999982
 31
0.0
  0
LINE
  5
188
100
AcDbEntity
  8
0
  6
CONTINUOUS
 62
               7
100
AcDbLine
 10
2.4000000000000341
 20
16.349999999999987
 30
0.0
 11
2.4000000000000341
 21
17.549999999999976
 31
0.0
  0
LINE
  5
189
100
AcDbEntity
  8
0
  6
CONTINUOUS
 62
               7
100
AcDbLine
 10
3.4000000000000341
 20
29.249999999999979
 30
0.0
 11
3.4000000000000341
 21
30.949999999999982
 31
0.0
  0
LINE
  5
18A
100
AcDbEntity
  8
0
  6
CONTINUOUS
 62
               7
100
AcDbLine
 10
-1.5410736563368914
 20
17.549999999999976
 30
0.0
 11
2.4000000000000341
 21
17.549999999999976
 31
0.0
  0
LINE
  5
18B
100
AcDbEntity
  8
0
  6
CONTINUOUS
 62
               7
100
AcDbLine
 10
-1.5410736563368914
 20
27.549999999999976
 30
0.0
 11
2.4000000000000341
 21
27.549999999999976
 31
0.0
  0
LINE
  5
18C
100
AcDbEntity
  8
0
  6
CONTINUOUS
 62
               7
100
AcDbLine
 10
2.4000000000000341
 20
29.249999999999979
 30
0.0
 11
3.4000000000000341
 21
29.249999999999979
 31
0.0
  0
LINE
  5
18D
100
AcDbEntity
  8
0
  6
CONTINUOUS
 62
               7
100
AcDbLine
 10
2.4000000000000341
 20
16.349999999999987
 30
0.0
 11
3.4000000000000341
 21
16.349999999999987
 31
0.0
  0
LINE
  5
18E
100
AcDbEntity
  8
0
  6
CONTINUOUS
 62
               7
100
AcDbLine
 10
-1.5410736563368914
 20
17.549999999999976
 30
0.0
 11
-1.5410736563368914
 21
27.549999999999976
 31
0.0
  0
LINE
  5
18F
100
AcDbEntity
  8
0
  6
CONTINUOUS
 62
               7
100
AcDbLine
 10
2.4000000000000341
 20
27.549999999999976
 30
0.0
 11
2.4000000000000341
 21
29.249999999999979
 31
0.0
  0
LINE
  5
190
100
AcDbEntity
  8
0
  6
CONTINUOUS
 62
               7
100
AcDbLine
 10
3.4000000000000341
 20
15.149999999999984
 30
0.0
 11
3.4000000000000341
 21
16.349999999999987
 31
0.0
  0
LINE
  5
191
100
AcDbEntity
  8
0
  6
CONTINUOUS
 62
               7
100
AcDbLine
 10
-0.7999999999999545
 20
9.5499999999999829
 30
0.0
 11
-4.3999999999999773
 21
9.5499999999999829
 31
0.0
  0
LINE
  5
192
100
AcDbEntity
  8
0
  6
CONTINUOUS
 62
               7
100
AcDbLine
 10
-2.7999999999999545
 20
3.1499999999999773
 30
0.0
 11
-4.3999999999999773
 21
3.1499999999999773
 31
0.0
  0
LINE
  5
193
100
AcDbEntity
  8
0
  6
CONTINUOUS
 62
               7
100
AcDbLine
 10
-0.7999999999999545
 20
9.5499999999999829
 30
0.0
 11
-0.7999999999999545
 21
6.6130567178314124
 31
0.0
  0
LINE
  5
194
100
AcDbEntity
  8
0
  6
CONTINUOUS
 62
               7
100
AcDbLine
 10
-0.7999999999999545
 20
6.6130567178314124
 30
0.0
 11
-2.7999999999999545
 21
6.6130567178314124
 31
0.0
  0
LINE
  5
195
100
AcDbEntity
  8
0
  6
CONTINUOUS
 62
               7
100
AcDbLine
 10
-2.7999999999999545
 20
6.6130567178314124
 30
0.0
 11
-2.7999999999999545
 21
3.1499999999999773
 31
0.0
  0
LINE
  5
196
100
AcDbEntity
  8
0
  6
CONTINUOUS
 62
               7
100
AcDbLine
 10
-19.0
 20
-2.6499999999999986
 30
0.0
 11
-0.0000000000000142
 21
-2.3183537663638134
 31
0.0
  0
LINE
  5
197
100
AcDbEntity
  8
0
  6
CONTINUOUS
 62
               7
100
AcDbLine
 10
-19.0
 20
37.350000000000016
 30
0.0
 11
-5.4000000000000909
 21
37.112611116976261
 31
0.0
  0
LINE
  5
198
100
AcDbEntity
  8
0
  6
CONTINUOUS
 62
               7
100
AcDbLine
 10
-1.0
 20
-2.3340633247992102
 30
0.0
 11
-1.0
 21
2.3500000000000156
 31
0.0
  0
LINE
  5
199
100
AcDbEntity
  8
0
  6
CONTINUOUS
 62
               7
100
AcDbLine
 10
-22.0
 20
8.9500000000000384
 30
0.0
 11
-22.0
 21
6.5500000000000327
 31
0.0
  0
LINE
  5
19A
100
AcDbEntity
  8
0
  6
CONTINUOUS
 62
               7
100
AcDbLine
 10
-22.0
 20
28.150000000000027
 30
0.0
 11
-22.0
 21
25.750000000000021
 31
0.0
  0
LINE
  5
19B
100
AcDbEntity
  8
0
  6
CONTINUOUS
 62
               7
100
AcDbLine
 10
-4.4000000000000057
 20
2.3500000000000156
 30
0.0
 11
-4.4000000000000057
 21
36.112611116976261
 31
0.0
  0
LINE
  5
19C
100
AcDbEntity
  8
0
  6
CONTINUOUS
 62
               7
100
AcDbLine
 10
-4.4000000000000057
 20
36.112611116976261
 30
0.0
 11
-5.4000000000000909
 21
37.112611116976261
 31
0.0
  0
LINE
  5
19D
100
AcDbEntity
  8
0
  6
CONTINUOUS
 62
               7
100
AcDbLine
 10
-22.0
 20
6.7500000000000071
 30
0.0
 11
-20.0
 21
6.7500000000000071
 31
0.0
  0
LINE
  5
19E
100
AcDbEntity
  8
0
  6
CONTINUOUS
 62
               7
100
AcDbLine
 10
-22.0
 20
8.7500000000000071
 30
0.0
 11
-20.0
 21
8.7500000000000071
 31
0.0
  0
LINE
  5
19F
100
AcDbEntity
  8
0
  6
CONTINUOUS
 62
               7
100
AcDbLine
 10
-22.0
 20
25.950000000000024
 30
0.0
 11
-20.0
 21
25.950000000000024
 31
0.0
  0
LINE
  5
1A0
100
AcDbEntity
  8
0
  6
CONTINUOUS
 62
               7
100
AcDbLine
 10
-22.0
 20
27.950000000000024
 30
0.0
 11
-20.0
 21
27.950000000000024
 31
0.0
  0
LINE
  5
1A1
100
AcDbEntity
  8
0
  6
CONTINUOUS
 62
               7
100
AcDbLine
 10
-20.0
 20
28.150000000000027
 30
0.0
 11
-20.0
 21
25.750000000000021
 31
0.0
  0
LINE
  5
1A2
100
AcDbEntity
  8
0
  6
CONTINUOUS
 62
               7
100
AcDbLine
 10
-20.0
 20
8.9500000000000384
 30
0.0
 11
-20.0
 21
6.5500000000000327
 31
0.0
  0
LINE
  5
1A3
100
AcDbEntity
  8
0
  6
CONTINUOUS
 62
               7
100
AcDbLine
 10
-19.0
 20
-2.6499999999999986
 30
0.0
 11
-19.0
 21
37.350000000000016
 31
0.0
  0
LINE
  5
1A4
100
AcDbEntity
  8
0
  6
CONTINUOUS
 62
               7
100
AcDbLine
 10
0.0
 20
-2.3166082598709963
 30
0.0
 11
0.0
 21
2.6500000000000128
 31
0.0
  0
LINE
  5
1A5
100
AcDbEntity
  8
0
  6
CONTINUOUS
 62
               7
100
AcDbLine
 10
0.0
 20
2.3500000000000156
 30
0.0
 11
-5.4000000000000909
 21
2.3500000000000156
 31
0.0
  0
LINE
  5
1A6
100
AcDbEntity
  8
0
  6
CONTINUOUS
 62
               7
100
AcDbLine
 10
0.0
 20
2.6500000000000128
 30
0.0
 11
-4.3999999999999773
 21
2.6500000000000128
 31
0.0
  0
LINE
  5
1A7
100
AcDbEntity
  8
0
  6
CONTINUOUS
 62
               7
100
AcDbLine
 10
-5.4000000000000909
 20
37.112611116976261
 30
0.0
 11
-5.4000000000000909
 21
2.3500000000000156
 31
0.0
  0
LINE
  5
1A8
100
AcDbEntity
  8
0
  6
CONTINUOUS
 62
               7
100
AcDbLine
 10
-20.5
 20
27.950000000000024
 30
0.0
 11
-20.5
 21
25.950000000000024
 31
0.0
  0
LINE
  5
1A9
100
AcDbEntity
  8
0
  6
CONTINUOUS
 62
               7
100
AcDbLine
 10
-20.5
 20
8.7500000000000071
 30
0.0
 11
-20.5
 21
6.7500000000000071
 31
0.0
  0
LINE
  5
1AA
100
AcDbEntity
  8
0
  6
CONTINUOUS
 62
               7
100
AcDbLine
 10
-30.999999999999886
 20
37.140539220861406
 30
0.0
 11
-30.999999999999886
 21
-2.4405392208613534
 31
0.0
  0
LINE
  5
1AB
100
AcDbEntity
  8
0
  6
CONTINUOUS
 62
               7
100
AcDbLine
 10
-32.0
 20
-1.4405392208612326
 30
0.0
 11
-32.0
 21
36.14053922086142
 31
0.0
  0
LINE
  5
1AC
100
AcDbEntity
  8
0
  6
CONTINUOUS
 62
               7
100
AcDbLine
 10
-32.0
 20
36.140539220861406
 30
0.0
 11
-30.999999999999886
 21
37.140539220861406
 31
0.0
  0
LINE
  5
1AD
100
AcDbEntity
  8
0
  6
CONTINUOUS
 62
               7
100
AcDbLine
 10
-32.0
 20
-1.4405392208612326
 30
0.0
 11
-31.0
 21
-2.4405392208612326
 31
0.0
  0
LINE
  5
1AE
100
AcDbEntity
  8
0
  6
CONTINUOUS
 62
               7
100
AcDbLine
 10
-19.0
 20
4.5500000000000327
 30
0.0
 11
-21.5
 21
4.5500000000000327
 31
0.0
  0
LINE
  5
1AF
100
AcDbEntity
  8
0
  6
CONTINUOUS
 62
               7
100
AcDbLine
 10
-19.0
 20
10.950000000000038
 30
0.0
 11
-21.5
 21
10.950000000000038
 31
0.0
  0
LINE
  5
1B0
100
AcDbEntity
  8
0
  6
CONTINUOUS
 62
               7
100
AcDbLine
 10
-19.0
 20
5.5500000000000327
 30
0.0
 11
-21.5
 21
5.5500000000000327
 31
0.0
  0
LINE
  5
1B1
100
AcDbEntity
  8
0
  6
CONTINUOUS
 62
               7
100
AcDbLine
 10
-19.0
 20
9.9500000000000384
 30
0.0
 11
-21.5
 21
9.9500000000000384
 31
0.0
  0
LINE
  5
1B2
100
AcDbEntity
  8
0
  6
CONTINUOUS
 62
               7
100
AcDbLine
 10
-20.0
 20
6.5500000000000327
 30
0.0
 11
-22.0
 21
6.5500000000000327
 31
0.0
  0
LINE
  5
1B3
100
AcDbEntity
  8
0
  6
CONTINUOUS
 62
               7
100
AcDbLine
 10
-20.0
 20
8.9500000000000384
 30
0.0
 11
-22.0
 21
8.9500000000000384
 31
0.0
  0
LINE
  5
1B4
100
AcDbEntity
  8
0
  6
CONTINUOUS
 62
               7
100
AcDbLine
 10
-19.0
 20
23.750000000000021
 30
0.0
 11
-21.5
 21
23.750000000000021
 31
0.0
  0
LINE
  5
1B5
100
AcDbEntity
  8
0
  6
CONTINUOUS
 62
               7
100
AcDbLine
 10
-19.0
 20
30.150000000000027
 30
0.0
 11
-21.5
 21
30.150000000000027
 31
0.0
  0
LINE
  5
1B6
100
AcDbEntity
  8
0
  6
CONTINUOUS
 62
               7
100
AcDbLine
 10
-19.0
 20
24.750000000000021
 30
0.0
 11
-21.5
 21
24.750000000000021
 31
0.0
  0
LINE
  5
1B7
100
AcDbEntity
  8
0
  6
CONTINUOUS
 62
               7
100
AcDbLine
 10
-19.0
 20
29.150000000000027
 30
0.0
 11
-21.5
 21
29.150000000000027
 31
0.0
  0
LINE
  5
1B8
100
AcDbEntity
  8
0
  6
CONTINUOUS
 62
               7
100
AcDbLine
 10
-20.0
 20
25.750000000000021
 30
0.0
 11
-22.0
 21
25.750000000000021
 31
0.0
  0
LINE
  5
1B9
100
AcDbEntity
  8
0
  6
CONTINUOUS
 62
               7
100
AcDbLine
 10
-20.0
 20
28.150000000000027
 30
0.0
 11
-22.0
 21
28.150000000000027
 31
0.0
  0
ARC
  5
1BA
100
AcDbEntity
  8
0
  6
CONTINUOUS
 62
               7
100
AcDbCircle
 10
-21.5
 20
29.650000000000027
 30
0.0
 40
0.5
100
AcDbArc
 50
180.0
 51
270.0
  0
ARC
  5
1BB
100
AcDbEntity
  8
0
  6
CONTINUOUS
 62
               7
100
AcDbCircle
 10
-21.5
 20
29.650000000000027
 30
0.0
 40
0.5
100
AcDbArc
 50
90.0
 51
180.0
  0
ARC
  5
1BC
100
AcDbEntity
  8
0
  6
CONTINUOUS
 62
               7
100
AcDbCircle
 10
-21.5
 20
24.250000000000021
 30
0.0
 40
0.5
100
AcDbArc
 50
90.0
 51
180.0
  0
ARC
  5
1BD
100
AcDbEntity
  8
0
  6
CONTINUOUS
 62
               7
100
AcDbCircle
 10
-21.5
 20
24.250000000000021
 30
0.0
 40
0.5
100
AcDbArc
 50
180.0
 51
270.0
  0
ARC
  5
1BE
100
AcDbEntity
  8
0
  6
CONTINUOUS
 62
               7
100
AcDbCircle
 10
-21.5
 20
10.450000000000038
 30
0.0
 40
0.5
100
AcDbArc
 50
90.0
 51
180.0
  0
ARC
  5
1BF
100
AcDbEntity
  8
0
  6
CONTINUOUS
 62
               7
100
AcDbCircle
 10
-21.5
 20
10.450000000000038
 30
0.0
 40
0.5
100
AcDbArc
 50
180.0
 51
270.0
  0
ARC
  5
1C0
100
AcDbEntity
  8
0
  6
CONTINUOUS
 62
               7
100
AcDbCircle
 10
-21.5
 20
5.0500000000000327
 30
0.0
 40
0.5
100
AcDbArc
 50
90.0
 51
180.0
  0
ARC
  5
1C1
100
AcDbEntity
  8
0
  6
CONTINUOUS
 62
               7
100
AcDbCircle
 10
-21.5
 20
5.0500000000000327
 30
0.0
 40
0.5
100
AcDbArc
 50
180.0
 51
270.0
  0
LINE
  5
1C2
100
AcDbEntity
  8
0
  6
CONTINUOUS
 62
               7
100
AcDbLine
 10
-19.0
 20
37.350000000000016
 30
0.0
 11
-30.999999999999886
 21
37.140539220861406
 31
0.0
  0
LINE
  5
1C3
100
AcDbEntity
  8
0
  6
CONTINUOUS
 62
               7
100
AcDbLine
 10
-19.0
 20
-2.6499999999999844
 30
0.0
 11
-30.999999999999886
 21
-2.4405392208613463
 31
0.0
  0
LINE
  5
1C4
100
AcDbEntity
  8
0
  6
CONTINUOUS
 62
               2
100
AcDbLine
 10
-3.0
 20
0.0
 30
0.0
 11
3.0
 21
0.0
 31
0.0
  0
ENDBLK
  5
1C5
100
AcDbEntity
  8
0
100
AcDbBlockEnd
  0
BLOCK
  5
1C6
100
AcDbEntity
  8
0
100
AcDbBlockBegin
  2
DTY-EPU-3
 70
               0
 10
0.0
 20
0.0
 30
0.0
  3
DTY-EPU-3
  1

  0
LINE
  5
1C7
100
AcDbEntity
  8
0
  6
CONTINUOUS
 62
               7
100
AcDbLine
 10
32.5
 20
-30.399999999999991
 30
0.0
 11
18.5
 21
-30.399999999999991
 31
0.0
  0
LINE
  5
1C8
100
AcDbEntity
  8
0
  6
CONTINUOUS
 62
               7
100
AcDbLine
 10
32.5
 20
-22.399999999999991
 30
0.0
 11
18.5
 21
-22.399999999999991
 31
0.0
  0
LINE
  5
1C9
100
AcDbEntity
  8
0
  6
CONTINUOUS
 62
               7
100
AcDbLine
 10
17.5
 20
-29.399999999999991
 30
0.0
 11
17.5
 21
-23.399999999999991
 31
0.0
  0
LINE
  5
1CA
100
AcDbEntity
  8
0
  6
CONTINUOUS
 62
               7
100
AcDbLine
 10
33.5
 20
-29.399999999999991
 30
0.0
 11
33.5
 21
-23.399999999999991
 31
0.0
  0
LINE
  5
1CB
100
AcDbEntity
  8
0
  6
CONTINUOUS
 62
               7
100
AcDbLine
 10
33.5
 20
-27.899999999999991
 30
0.0
 11
17.5
 21
-27.899999999999991
 31
0.0
  0
ARC
  5
1CC
100
AcDbEntity
  8
0
  6
CONTINUOUS
 62
               7
100
AcDbCircle
 10
18.5
 20
-29.399999999999991
 30
0.0
 40
1.0
100
AcDbArc
 50
180.0
 51
270.0
  0
ARC
  5
1CD
100
AcDbEntity
  8
0
  6
CONTINUOUS
 62
               7
100
AcDbCircle
 10
32.5
 20
-29.399999999999991
 30
0.0
 40
1.0
100
AcDbArc
 50
270.0
 51
0.0
  0
ARC
  5
1CE
100
AcDbEntity
  8
0
  6
CONTINUOUS
 62
               7
100
AcDbCircle
 10
32.5
 20
-23.399999999999991
 30
0.0
 40
1.0
100
AcDbArc
 50
0.0
 51
90.0
  0
ARC
  5
1CF
100
AcDbEntity
  8
0
  6
CONTINUOUS
 62
               7
100
AcDbCircle
 10
18.5
 20
-23.399999999999991
 30
0.0
 40
1.0
100
AcDbArc
 50
90.0
 51
180.0
  0
LINE
  5
1D0
100
AcDbEntity
  8
0
  6
CONTINUOUS
 62
               7
100
AcDbLine
 10
7.1508941686041112
 20
-10.649999999999991
 30
0.0
 11
5.6508941686041112
 21
-10.649999999999991
 31
0.0
  0
LINE
  5
1D1
100
AcDbEntity
  8
0
  6
CONTINUOUS
 62
               7
100
AcDbLine
 10
7.1508941686041112
 20
-16.649999999999991
 30
0.0
 11
5.6508941686041112
 21
-16.649999999999991
 31
0.0
  0
LINE
  5
1D2
100
AcDbEntity
  8
0
  6
CONTINUOUS
 62
               7
100
AcDbLine
 10
5.6508941686041112
 20
-16.649999999999991
 30
0.0
 11
5.6508941686041112
 21
-10.649999999999991
 31
0.0
  0
LINE
  5
1D3
100
AcDbEntity
  8
0
  6
CONTINUOUS
 62
               7
100
AcDbLine
 10
7.1508941686041112
 20
-16.649999999999991
 30
0.0
 11
7.1508941686041112
 21
-10.649999999999991
 31
0.0
  0
LINE
  5
1D4
100
AcDbEntity
  8
0
  6
CONTINUOUS
 62
               7
100
AcDbLine
 10
32.004666666666651
 20
-5.8999999999999915
 30
0.0
 11
32.004666666666651
 21
-21.899999999999991
 31
0.0
  0
LINE
  5
1D5
100
AcDbEntity
  8
0
  6
CONTINUOUS
 62
               7
100
AcDbLine
 10
9.0046666666666511
 20
-5.8999999999999915
 30
0.0
 11
9.0046666666666511
 21
-21.899999999999991
 31
0.0
  0
ARC
  5
1D6
100
AcDbEntity
  8
0
  6
CONTINUOUS
 62
               7
100
AcDbCircle
 10
33.0
 20
-21.399999999999991
 30
0.0
 40
0.5
100
AcDbArc
 50
270.0
 51
0.0
  0
ARC
  5
1D7
100
AcDbEntity
  8
0
  6
CONTINUOUS
 62
               7
100
AcDbCircle
 10
33.0
 20
-6.3999999999999915
 30
0.0
 40
0.5
100
AcDbArc
 50
0.0
 51
90.0
  0
ARC
  5
1D8
100
AcDbEntity
  8
0
  6
CONTINUOUS
 62
               7
100
AcDbCircle
 10
-3.0
 20
-6.3999999999999915
 30
0.0
 40
0.5
100
AcDbArc
 50
90.0
 51
180.0
  0
ARC
  5
1D9
100
AcDbEntity
  8
0
  6
CONTINUOUS
 62
               7
100
AcDbCircle
 10
-3.0
 20
-21.399999999999991
 30
0.0
 40
0.5
100
AcDbArc
 50
180.0
 51
270.0
  0
LINE
  5
1DA
100
AcDbEntity
  8
0
  6
CONTINUOUS
 62
               7
100
AcDbLine
 10
31.504666666666651
 20
-12.629333333333321
 30
0.0
 11
9.5046666666666511
 21
-12.629333333333321
 31
0.0
  0
LINE
  5
1DB
100
AcDbEntity
  8
0
  6
CONTINUOUS
 62
               7
100
AcDbLine
 10
31.504666666666651
 20
-14.629333333333321
 30
0.0
 11
31.504666666666651
 21
-6.6293333333333209
 31
0.0
  0
LINE
  5
1DC
100
AcDbEntity
  8
0
  6
CONTINUOUS
 62
               7
100
AcDbLine
 10
29.504666666666651
 20
-14.629333333333321
 30
0.0
 11
29.504666666666651
 21
-6.6293333333333209
 31
0.0
  0
LINE
  5
1DD
100
AcDbEntity
  8
0
  6
CONTINUOUS
 62
               7
100
AcDbLine
 10
9.5046666666666511
 20
-14.629333333333321
 30
0.0
 11
9.5046666666666511
 21
-6.6293333333333209
 31
0.0
  0
LINE
  5
1DE
100
AcDbEntity
  8
0
  6
CONTINUOUS
 62
               7
100
AcDbLine
 10
11.504666666666651
 20
-14.629333333333321
 30
0.0
 11
11.504666666666651
 21
-6.6293333333333209
 31
0.0
  0
LINE
  5
1DF
100
AcDbEntity
  8
0
  6
CONTINUOUS
 62
               7
100
AcDbLine
 10
13.504666666666651
 20
-14.629333333333321
 30
0.0
 11
13.504666666666651
 21
-6.6293333333333209
 31
0.0
  0
LINE
  5
1E0
100
AcDbEntity
  8
0
  6
CONTINUOUS
 62
               7
100
AcDbLine
 10
15.504666666666651
 20
-14.629333333333321
 30
0.0
 11
15.504666666666651
 21
-6.6293333333333209
 31
0.0
  0
LINE
  5
1E1
100
AcDbEntity
  8
0
  6
CONTINUOUS
 62
               7
100
AcDbLine
 10
17.504666666666651
 20
-14.629333333333321
 30
0.0
 11
17.504666666666651
 21
-6.6293333333333209
 31
0.0
  0
LINE
  5
1E2
100
AcDbEntity
  8
0
  6
CONTINUOUS
 62
               7
100
AcDbLine
 10
19.504666666666651
 20
-14.629333333333321
 30
0.0
 11
19.504666666666651
 21
-6.6293333333333209
 31
0.0
  0
LINE
  5
1E3
100
AcDbEntity
  8
0
  6
CONTINUOUS
 62
               7
100
AcDbLine
 10
21.504666666666651
 20
-14.629333333333321
 30
0.0
 11
21.504666666666651
 21
-6.6293333333333209
 31
0.0
  0
LINE
  5
1E4
100
AcDbEntity
  8
0
  6
CONTINUOUS
 62
               7
100
AcDbLine
 10
23.504666666666651
 20
-14.629333333333321
 30
0.0
 11
23.504666666666651
 21
-6.6293333333333209
 31
0.0
  0
LINE
  5
1E5
100
AcDbEntity
  8
0
  6
CONTINUOUS
 62
               7
100
AcDbLine
 10
25.504666666666651
 20
-14.629333333333321
 30
0.0
 11
25.504666666666651
 21
-6.6293333333333209
 31
0.0
  0
LINE
  5
1E6
100
AcDbEntity
  8
0
  6
CONTINUOUS
 62
               7
100
AcDbLine
 10
27.504666666666651
 20
-14.629333333333321
 30
0.0
 11
27.504666666666651
 21
-6.6293333333333209
 31
0.0
  0
LINE
  5
1E7
100
AcDbEntity
  8
0
  6
CONTINUOUS
 62
               7
100
AcDbLine
 10
31.504666666666651
 20
-6.6293333333333209
 30
0.0
 11
9.5046666666666511
 21
-6.6293333333333209
 31
0.0
  0
LINE
  5
1E8
100
AcDbEntity
  8
0
  6
CONTINUOUS
 62
               7
100
AcDbLine
 10
31.504666666666651
 20
-14.629333333333321
 30
0.0
 11
9.5046666666666511
 21
-14.629333333333321
 31
0.0
  0
LINE
  5
1E9
100
AcDbEntity
  8
0
  6
CONTINUOUS
 62
               7
100
AcDbLine
 10
14.804666666666662
 20
-20.629333333333321
 30
0.0
 11
14.804666666666662
 21
-15.629333333333321
 31
0.0
  0
LINE
  5
1EA
100
AcDbEntity
  8
0
  6
CONTINUOUS
 62
               7
100
AcDbLine
 10
13.304666666666662
 20
-20.629333333333321
 30
0.0
 11
13.304666666666662
 21
-15.629333333333321
 31
0.0
  0
LINE
  5
1EB
100
AcDbEntity
  8
0
  6
CONTINUOUS
 62
               7
100
AcDbLine
 10
14.804666666666662
 20
-20.629333333333321
 30
0.0
 11
13.304666666666662
 21
-20.629333333333321
 31
0.0
  0
LINE
  5
1EC
100
AcDbEntity
  8
0
  6
CONTINUOUS
 62
               7
100
AcDbLine
 10
14.804666666666662
 20
-15.629333333333321
 30
0.0
 11
13.304666666666662
 21
-15.629333333333321
 31
0.0
  0
LINE
  5
1ED
100
AcDbEntity
  8
0
  6
CONTINUOUS
 62
               7
100
AcDbLine
 10
19.20466666666664
 20
-20.629333333333321
 30
0.0
 11
19.20466666666664
 21
-15.629333333333321
 31
0.0
  0
LINE
  5
1EE
100
AcDbEntity
  8
0
  6
CONTINUOUS
 62
               7
100
AcDbLine
 10
17.70466666666664
 20
-20.629333333333321
 30
0.0
 11
17.70466666666664
 21
-15.629333333333321
 31
0.0
  0
LINE
  5
1EF
100
AcDbEntity
  8
0
  6
CONTINUOUS
 62
               7
100
AcDbLine
 10
19.20466666666664
 20
-20.629333333333321
 30
0.0
 11
17.70466666666664
 21
-20.629333333333321
 31
0.0
  0
LINE
  5
1F0
100
AcDbEntity
  8
0
  6
CONTINUOUS
 62
               7
100
AcDbLine
 10
19.20466666666664
 20
-15.629333333333321
 30
0.0
 11
17.70466666666664
 21
-15.629333333333321
 31
0.0
  0
LINE
  5
1F1
100
AcDbEntity
  8
0
  6
CONTINUOUS
 62
               7
100
AcDbLine
 10
23.604666666666674
 20
-20.629333333333321
 30
0.0
 11
23.604666666666674
 21
-15.629333333333321
 31
0.0
  0
LINE
  5
1F2
100
AcDbEntity
  8
0
  6
CONTINUOUS
 62
               7
100
AcDbLine
 10
22.104666666666674
 20
-20.629333333333321
 30
0.0
 11
22.104666666666674
 21
-15.629333333333321
 31
0.0
  0
LINE
  5
1F3
100
AcDbEntity
  8
0
  6
CONTINUOUS
 62
               7
100
AcDbLine
 10
23.604666666666674
 20
-20.629333333333321
 30
0.0
 11
22.104666666666674
 21
-20.629333333333321
 31
0.0
  0
LINE
  5
1F4
100
AcDbEntity
  8
0
  6
CONTINUOUS
 62
               7
100
AcDbLine
 10
23.604666666666674
 20
-15.629333333333321
 30
0.0
 11
22.104666666666674
 21
-15.629333333333321
 31
0.0
  0
LINE
  5
1F5
100
AcDbEntity
  8
0
  6
CONTINUOUS
 62
               7
100
AcDbLine
 10
28.004666666666651
 20
-15.629333333333321
 30
0.0
 11
26.504666666666651
 21
-15.629333333333321
 31
0.0
  0
LINE
  5
1F6
100
AcDbEntity
  8
0
  6
CONTINUOUS
 62
               7
100
AcDbLine
 10
28.004666666666651
 20
-20.629333333333321
 30
0.0
 11
26.504666666666651
 21
-20.629333333333321
 31
0.0
  0
LINE
  5
1F7
100
AcDbEntity
  8
0
  6
CONTINUOUS
 62
               7
100
AcDbLine
 10
26.504666666666651
 20
-20.629333333333321
 30
0.0
 11
26.504666666666651
 21
-15.629333333333321
 31
0.0
  0
LINE
  5
1F8
100
AcDbEntity
  8
0
  6
CONTINUOUS
 62
               7
100
AcDbLine
 10
28.004666666666651
 20
-20.629333333333321
 30
0.0
 11
28.004666666666651
 21
-15.629333333333321
 31
0.0
  0
LINE
  5
1F9
100
AcDbEntity
  8
0
  6
CONTINUOUS
 62
               7
100
AcDbLine
 10
33.5
 20
-21.399999999999991
 30
0.0
 11
33.5
 21
-6.3999999999999915
 31
0.0
  0
LINE
  5
1FA
100
AcDbEntity
  8
0
  6
CONTINUOUS
 62
               7
100
AcDbLine
 10
-3.5
 20
-21.399999999999991
 30
0.0
 11
-3.5
 21
-6.3999999999999915
 31
0.0
  0
LINE
  5
1FB
100
AcDbEntity
  8
0
  6
CONTINUOUS
 62
               7
100
AcDbLine
 10
33.0
 20
-5.8999999999999915
 30
0.0
 11
-3.0
 21
-5.8999999999999915
 31
0.0
  0
LINE
  5
1FC
100
AcDbEntity
  8
0
  6
CONTINUOUS
 62
               7
100
AcDbLine
 10
33.0
 20
-21.899999999999991
 30
0.0
 11
-3.0
 21
-21.899999999999991
 31
0.0
  0
LINE
  5
1FD
100
AcDbEntity
  8
0
  6
CONTINUOUS
 62
               7
100
AcDbLine
 10
12.804666666666662
 20
-21.129333333333321
 30
0.0
 11
12.804666666666662
 21
-15.129333333333321
 31
0.0
  0
LINE
  5
1FE
100
AcDbEntity
  8
0
  6
CONTINUOUS
 62
               7
100
AcDbLine
 10
12.804666666666662
 20
-15.129333333333321
 30
0.0
 11
28.504666666666651
 21
-15.129333333333321
 31
0.0
  0
LINE
  5
1FF
100
AcDbEntity
  8
0
  6
CONTINUOUS
 62
               7
100
AcDbLine
 10
12.804666666666662
 20
-21.129333333333321
 30
0.0
 11
28.504666666666651
 21
-21.129333333333321
 31
0.0
  0
LINE
  5
200
100
AcDbEntity
  8
0
  6
CONTINUOUS
 62
               7
100
AcDbLine
 10
28.504666666666651
 20
-21.129333333333321
 30
0.0
 11
28.504666666666651
 21
-15.129333333333321
 31
0.0
  0
LINE
  5
201
100
AcDbEntity
  8
0
  6
CONTINUOUS
 62
               7
100
AcDbLine
 10
33.5
 20
-19.000000000000014
 30
0.0
 11
35.0
 21
-19.000000000000014
 31
0.0
  0
LINE
  5
202
100
AcDbEntity
  8
0
  6
CONTINUOUS
 62
               7
100
AcDbLine
 10
-4.0
 20
-32.000000000000014
 30
0.0
 11
34.0
 21
-32.000000000000014
 31
0.0
  0
LINE
  5
203
100
AcDbEntity
  8
0
  6
CONTINUOUS
 62
               7
100
AcDbLine
 10
-5.0
 20
-19.000000000000014
 30
0.0
 11
-3.5
 21
-19.000000000000014
 31
0.0
  0
LINE
  5
204
100
AcDbEntity
  8
0
  6
CONTINUOUS
 62
               7
100
AcDbLine
 10
-5.0
 20
-31.000000000000014
 30
0.0
 11
-5.0
 21
-19.000000000000014
 31
0.0
  0
LINE
  5
205
100
AcDbEntity
  8
0
  6
CONTINUOUS
 62
               7
100
AcDbLine
 10
35.0
 20
-31.000000000000014
 30
0.0
 11
35.0
 21
-19.000000000000014
 31
0.0
  0
LINE
  5
206
100
AcDbEntity
  8
0
  6
CONTINUOUS
 62
               7
100
AcDbLine
 10
35.0
 20
-31.000000000000014
 30
0.0
 11
34.0
 21
-32.000000000000014
 31
0.0
  0
LINE
  5
207
100
AcDbEntity
  8
0
  6
CONTINUOUS
 62
               7
100
AcDbLine
 10
-5.0
 20
-1.0
 30
0.0
 11
-4.0000000000005116
 21
0.0
 31
0.0
  0
LINE
  5
208
100
AcDbEntity
  8
0
  6
CONTINUOUS
 62
               7
100
AcDbLine
 10
35.0
 20
-1.0
 30
0.0
 11
34.0
 21
0.0
 31
0.0
  0
LINE
  5
209
100
AcDbEntity
  8
0
  6
CONTINUOUS
 62
               7
100
AcDbLine
 10
1.5
 20
0.0
 30
0.0
 11
-4.0000000000005116
 21
0.0
 31
0.0
  0
LINE
  5
20A
100
AcDbEntity
  8
0
  6
CONTINUOUS
 62
               7
100
AcDbLine
 10
35.0
 20
-5.3999999999999915
 30
0.0
 11
-5.0
 21
-5.3999999999999915
 31
0.0
  0
LINE
  5
20B
100
AcDbEntity
  8
0
  6
CONTINUOUS
 62
               7
100
AcDbLine
 10
35.0
 20
-19.000000000000014
 30
0.0
 11
35.0
 21
-1.0
 31
0.0
  0
LINE
  5
20C
100
AcDbEntity
  8
0
  6
CONTINUOUS
 62
               7
100
AcDbLine
 10
-5.0
 20
-19.000000000000014
 30
0.0
 11
-5.0
 21
-1.0
 31
0.0
  0
LINE
  5
20D
100
AcDbEntity
  8
0
  6
CONTINUOUS
 62
               7
100
AcDbLine
 10
34.0
 20
0.0
 30
0.0
 11
28.5
 21
0.0
 31
0.0
  0
LINE
  5
20E
100
AcDbEntity
  8
0
  6
CONTINUOUS
 62
               7
100
AcDbLine
 10
34.0
 20
-4.3999999999999915
 30
0.0
 11
-4.0
 21
-4.3999999999999915
 31
0.0
  0
LINE
  5
20F
100
AcDbEntity
  8
0
  6
CONTINUOUS
 62
               7
100
AcDbLine
 10
35.0
 20
-5.3999999999999915
 30
0.0
 11
34.0
 21
-4.3999999999999915
 31
0.0
  0
LINE
  5
210
100
AcDbEntity
  8
0
  6
CONTINUOUS
 62
               7
100
AcDbLine
 10
-5.0
 20
-5.3999999999999915
 30
0.0
 11
-4.0
 21
-4.3999999999999915
 31
0.0
  0
LINE
  5
211
100
AcDbEntity
  8
0
  6
CONTINUOUS
 62
               7
100
AcDbLine
 10
32.0
 20
0.0
 30
0.0
 11
32.0
 21
-4.3999999999999915
 31
0.0
  0
LINE
  5
212
100
AcDbEntity
  8
0
  6
CONTINUOUS
 62
               7
100
AcDbLine
 10
-2.0
 20
0.0
 30
0.0
 11
-2.0
 21
-4.3999999999999915
 31
0.0
  0
LINE
  5
213
100
AcDbEntity
  8
0
  6
CONTINUOUS
 62
               7
100
AcDbLine
 10
-4.0
 20
-32.000000000000014
 30
0.0
 11
-5.0
 21
-31.000000000000014
 31
0.0
  0
LINE
  5
214
100
AcDbEntity
  8
0
  6
CONTINUOUS
 62
               7
100
AcDbLine
 10
35.0
 20
-31.000000000000014
 30
0.0
 11
-5.0
 21
-31.000000000000014
 31
0.0
  0
LINE
  5
215
100
AcDbEntity
  8
0
  6
CONTINUOUS
 62
               7
100
AcDbLine
 10
1.5
 20
-4.3999999999999915
 30
0.0
 11
1.5
 21
3.3999999999999915
 31
0.0
  0
LINE
  5
216
100
AcDbEntity
  8
0
  6
CONTINUOUS
 62
               7
100
AcDbLine
 10
28.5
 20
-4.3999999999999915
 30
0.0
 11
28.5
 21
3.3999999999999915
 31
0.0
  0
LINE
  5
217
100
AcDbEntity
  8
0
  6
CONTINUOUS
 62
               7
100
AcDbLine
 10
28.5
 20
3.3999999999999915
 30
0.0
 11
1.5
 21
3.3999999999999915
 31
0.0
  0
LINE
  5
218
100
AcDbEntity
  8
0
  6
CONTINUOUS
 62
               7
100
AcDbLine
 10
30.0
 20
-4.3999999999999915
 30
0.0
 11
30.0
 21
-2.9999999999999858
 31
0.0
  0
LINE
  5
219
100
AcDbEntity
  8
0
  6
CONTINUOUS
 62
               7
100
AcDbLine
 10
0.0
 20
-4.3999999999999915
 30
0.0
 11
0.0
 21
-2.9999999999999858
 31
0.0
  0
LINE
  5
21A
100
AcDbEntity
  8
0
  6
CONTINUOUS
 62
               7
100
AcDbLine
 10
0.0
 20
-2.9999999999999858
 30
0.0
 11
1.5
 21
-2.9999999999999858
 31
0.0
  0
LINE
  5
21B
100
AcDbEntity
  8
0
  6
CONTINUOUS
 62
               7
100
AcDbLine
 10
30.0
 20
-2.9999999999999858
 30
0.0
 11
28.5
 21
-2.9999999999999858
 31
0.0
  0
LINE
  5
21C
100
AcDbEntity
  8
0
  6
CONTINUOUS
 62
               2
100
AcDbLine
 10
0.0
 20
-1.9500000000000099
 30
0.0
 11
0.0
 21
3.3999999999999915
 31
0.0
  0
LINE
  5
21D
100
AcDbEntity
  8
0
  6
CONTINUOUS
 62
               2
100
AcDbLine
 10
30.0
 20
-1.9500000000000099
 30
0.0
 11
30.0
 21
3.3999999999999915
 31
0.0
  0
ENDBLK
  5
21E
100
AcDbEntity
  8
0
100
AcDbBlockEnd
  0
BLOCK
  5
22
100
AcDbEntity
  8
0
  6
ByBlock
 62
               0
100
AcDbBlockBegin
  2
_OPEN30
 70
               2
 10
0.0
 20
0.0
 30
0.0
  3
_OPEN30
  1

  0
LINE
  5
23
100
AcDbEntity
  8
0
  6
ByBlock
 62
               0
100
AcDbLine
 10
-1.0
 20
0.267949
 30
0.0
 11
0.0
 21
0.0
 31
0.0
  0
LINE
  5
24
100
AcDbEntity
  8
0
  6
ByBlock
 62
               0
100
AcDbLine
 10
0.0
 20
0.0
 30
0.0
 11
-1.0
 21
-0.267949
 31
0.0
  0
LINE
  5
25
100
AcDbEntity
  8
0
  6
ByBlock
 62
               0
100
AcDbLine
 10
0.0
 20
0.0
 30
0.0
 11
-1.0
 21
0.0
 31
0.0
  0
ENDBLK
  5
26
100
AcDbEntity
  8
0
  6
ByBlock
 62
               0
100
AcDbBlockEnd
  0
ENDSEC
  0
SECTION
  2
ENTITIES
  0
INSERT
  5
21F
100
AcDbEntity
  8
0
  6
ByBlock
100
AcDbBlockReference
  2
DTY-EPU-3
 10
-40.0
 20
60.0
 30
0.0
  0
INSERT
  5
220
100
AcDbEntity
  8
0
  6
ByBlock
100
AcDbBlockReference
  2
DTY-EPU-2
 10
80.0
 20
-50.0
 30
0.0
  0
INSERT
  5
221
100
AcDbEntity
  8
0
  6
ByBlock
100
AcDbBlockReference
  2
DTY-EPU-1
 10
-40.0
 20
-50.0
 30
0.0
  0
MTEXT
  5
222
100
AcDbEntity
  8
0
  6
CONTINUOUS
 62
               7
100
AcDbMText
 10
-173.44064748374967
 20
128.85000610351562
 30
0.0
 40
4.5
 41
0.0
 71
               4
 72
               1
  1
\W1.079;\A1;EP MONITER
  0
MTEXT
  5
223
100
AcDbEntity
  8
0
  6
CONTINUOUS
 62
               7
100
AcDbMText
 10
-166.75
 20
121.35000610351562
 30
0.0
 40
4.5
 41
0.0
 71
               4
 72
               1
  1
\A1;DTY-EPU
  0
MTEXT
  5
224
100
AcDbEntity
  8
0
  6
CONTINUOUS
 62
               7
100
AcDbMText
 10
-185.70945946009621
 20
107.60000610351562
 30
0.0
 40
4.5
 41
0.0
 71
               4
 72
               1
  1
\W1.054;\A1;MODEL:DTY-EPU
  0
LINE
  5
225
100
AcDbEntity
  8
0
  6
CONTINUOUS
 62
               7
100
AcDbLine
 10
-194.25
 20
132.60000610351562
 30
0.0
 11
194.80000305175781
 21
132.60000610351562
 31
0.0
  0
LINE
  5
226
100
AcDbEntity
  8
0
  6
CONTINUOUS
 62
               7
100
AcDbLine
 10
194.80000305175781
 20
132.60000610351562
 30
0.0
 11
194.80000305175781
 21
-133.5
 31
0.0
  0
LINE
  5
227
100
AcDbEntity
  8
0
  6
CONTINUOUS
 62
               7
100
AcDbLine
 10
-194.25
 20
132.60000610351562
 30
0.0
 11
-194.25
 21
-133.5
 31
0.0
  0
LINE
  5
228
100
AcDbEntity
  8
0
  6
CONTINUOUS
 62
               7
100
AcDbLine
 10
-194.25
 20
-133.5
 30
0.0
 11
194.80000305175781
 21
-133.5
 31
0.0
  0
LINE
  5
229
100
AcDbEntity
  8
0
  6
CONTINUOUS
 62
               7
100
AcDbLine
 10
109.80000305175781
 20
-118.5
 30
0.0
 11
109.80000305175781
 21
-133.5
 31
0.0
  0
LINE
  5
22A
100
AcDbEntity
  8
0
  6
CONTINUOUS
 62
               7
100
AcDbLine
 10
109.80000305175781
 20
-118.5
 30
0.0
 11
194.80000305175781
 21
-118.5
 31
0.0
  0
LINE
  5
22B
100
AcDbEntity
  8
0
  6
CONTINUOUS
 62
               7
100
AcDbLine
 10
109.80000305175781
 20
132.60000610351562
 30
0.0
 11
109.80000305175781
 21
117.60000610351562
 31
0.0
  0
LINE
  5
22C
100
AcDbEntity
  8
0
  6
CONTINUOUS
 62
               7
100
AcDbLine
 10
109.80000305175781
 20
117.60000610351562
 30
0.0
 11
194.80000305175781
 21
117.60000610351562
 31
0.0
  0
LINE
  5
22D
100
AcDbEntity
  8
0
  6
CONTINUOUS
 62
               7
100
AcDbLine
 10
-194.25
 20
117.60000610351562
 30
0.0
 11
-109.25
 21
117.60000610351562
 31
0.0
  0
LINE
  5
22E
100
AcDbEntity
  8
0
  6
CONTINUOUS
 62
               7
100
AcDbLine
 10
-109.25
 20
132.60000610351562
 30
0.0
 11
-109.25
 21
117.60000610351562
 31
0.0
  0
MTEXT
  5
22F
100
AcDbEntity
  8
0
  6
CONTINUOUS
 62
               7
100
AcDbMText
 10
135.2836095995238
 20
125.10000610351562
 30
0.0
 40
4.5
 41
0.0
 71
               4
 72
               1
  1
\W1.311;\A1;Ver. 1.0
  0
MTEXT
  5
230
100
AcDbEntity
  8
0
  6
CONTINUOUS
 62
               7
100
AcDbMText
 10
115.5267440447775
 20
-126.0
 30
0.0
 40
6.2999992370605469
 41
0.0
 71
               4
 72
               1
  1
\W1.121;\A1;KOGANEI CORP.
  0
ENDSEC
  0
SECTION
  2
OBJECTS
  0
DICTIONARY
  5
19
100
AcDbDictionary
  3
ACAD_GROUP
350
1A
  3
ACAD_MLINESTYLE
350
1B
  0
DICTIONARY
  5
1A
102
{ACAD_REACTORS
330
19
102
}
100
AcDbDictionary
  0
DICTIONARY
  5
1B
102
{ACAD_REACTORS
330
19
102
}
100
AcDbDictionary
  3
STANDARD
350
1C
  0
MLINESTYLE
  5
1C
102
{ACAD_REACTORS
330
1B
102
}
100
AcDbMlineStyle
  2
Standard
 70
               0
  3

 62
               0
 51
90.0
 52
90.0
 71
               2
 49
0.5
 62
             256
  6
ByLayer
 49
-0.5
 62
             256
  6
ByLayer
  0
ENDSEC
  0
EOF
