  0
SECTION
  2
HEADER
  9
$ACADVER
  1
AC1009
  9
$DWGCODEPAGE
  3
dos932
  9
$INSBASE
 10
0.0
 20
0.0
 30
0.0
  9
$EXTMIN
 10
-281.25
 20
-195.0
 30
0.0
  9
$EXTMAX
 10
282.09985352
 20
195.5
 30
0.0
  9
$LIMMIN
 10
-281.25
 20
-195.0
  9
$LIMMAX
 10
282.09985352
 20
195.5
  9
$ORTHOMODE
 70
       0
  9
$REGENMODE
 70
       1
  9
$FILLMODE
 70
       1
  9
$QTEXTMODE
 70
       0
  9
$MIRRTEXT
 70
       1
  9
$DRAGMODE
 70
       2
  9
$LTSCALE
 40
1.0
  9
$OSMODE
 70
       0
  9
$ATTMODE
 70
       1
  9
$TEXTSIZE
 40
3.20000005
  9
$TRACEWID
 40
0.05
  9
$TEXTSTYLE
  7
MX_NOTE_STANDARD
  9
$CLAYER
  8
0
  9
$CELTYPE
  6
CONTINUOUS
  9
$CECOLOR
 62
     256
  9
$DIMSCALE
 40
1.0
  9
$DIMASZ
 40
2.5
  9
$DIMEXO
 40
1.5
  9
$DIMDLI
 40
3.75
  9
$DIMRND
 40
0.0
  9
$DIMDLE
 40
0.0
  9
$DIMEXE
 40
1.5
  9
$DIMTP
 40
0.0
  9
$DIMTM
 40
0.0
  9
$DIMTXT
 40
3.20000005
  9
$DIMCEN
 40
2.5
  9
$DIMTSZ
 40
0.0
  9
$DIMTOL
 70
       0
  9
$DIMLIM
 70
       0
  9
$DIMTIH
 70
       0
  9
$DIMTOH
 70
       0
  9
$DIMSE1
 70
       0
  9
$DIMSE2
 70
       0
  9
$DIMTAD
 70
       1
  9
$DIMZIN
 70
       8
  9
$DIMBLK
  1

  9
$DIMASO
 70
       1
  9
$DIMSHO
 70
       1
  9
$DIMPOST
  1

  9
$DIMAPOST
  1

  9
$DIMALT
 70
       0
  9
$DIMALTD
 70
       4
  9
$DIMALTF
 40
0.03937008
  9
$DIMLFAC
 40
1.0
  9
$DIMTOFL
 70
       1
  9
$DIMTVP
 40
0.0
  9
$DIMTIX
 70
       0
  9
$DIMSOXD
 70
       0
  9
$DIMSAH
 70
       0
  9
$DIMBLK1
  1

  9
$DIMBLK2
  1

  9
$DIMSTYLE
  2
MXDIMSTYLE
  9
$DIMCLRD
 70
       0
  9
$DIMCLRE
 70
       0
  9
$DIMCLRT
 70
       0
  9
$DIMTFAC
 40
1.0
  9
$DIMGAP
 40
1.0
  9
$LUNITS
 70
       2
  9
$LUPREC
 70
       4
  9
$AXISMODE
 70
       0
  9
$AXISUNIT
 10
0.0
 20
0.0
  9
$SKETCHINC
 40
0.1
  9
$FILLETRAD
 40
0.0
  9
$AUNITS
 70
       0
  9
$AUPREC
 70
       0
  9
$MENU
  1
acad
  9
$ELEVATION
 40
0.0
  9
$PELEVATION
 40
0.0
  9
$THICKNESS
 40
0.0
  9
$LIMCHECK
 70
       0
  9
$BLIPMODE
 70
       1
  9
$CHAMFERA
 40
0.0
  9
$CHAMFERB
 40
0.0
  9
$SKPOLY
 70
       0
  9
$TDCREATE
 40
2453202.570416667
  9
$TDUPDATE
 40
2453202.570416667
  9
$TDINDWG
 40
0.0000000000
  9
$TDUSRTIMER
 40
0.0000000000
  9
$USRTIMER
 70
       1
  9
$ANGBASE
 50
0.0
  9
$ANGDIR
 70
       0
  9
$PDMODE
 70
       0
  9
$PDSIZE
 40
0.0
  9
$PLINEWID
 40
0.0
  9
$COORDS
 70
       1
  9
$SPLFRAME
 70
       0
  9
$SPLINETYPE
 70
       6
  9
$SPLINESEGS
 70
       8
  9
$ATTDIA
 70
       0
  9
$ATTREQ
 70
       1
  9
$HANDLING
 70
       1
  9
$HANDSEED
  5
74D
  9
$SURFTAB1
 70
       6
  9
$SURFTAB2
 70
       6
  9
$SURFTYPE
 70
       6
  9
$SURFU
 70
       6
  9
$SURFV
 70
       6
  9
$UCSNAME
  2

  9
$UCSORG
 10
0.0
 20
0.0
 30
0.0
  9
$UCSXDIR
 10
1.0
 20
0.0
 30
0.0
  9
$UCSYDIR
 10
0.0
 20
1.0
 30
0.0
  9
$PUCSNAME
  2

  9
$PUCSORG
 10
0.0
 20
0.0
 30
0.0
  9
$PUCSXDIR
 10
1.0
 20
0.0
 30
0.0
  9
$PUCSYDIR
 10
0.0
 20
1.0
 30
0.0
  9
$USERI1
 70
       0
  9
$USERI2
 70
       0
  9
$USERI3
 70
       0
  9
$USERI4
 70
       0
  9
$USERI5
 70
       0
  9
$USERR1
 40
0.0
  9
$USERR2
 40
0.0
  9
$USERR3
 40
0.0
  9
$USERR4
 40
0.0
  9
$USERR5
 40
0.0
  9
$WORLDVIEW
 70
       1
  9
$SHADEDGE
 70
       3
  9
$SHADEDIF
 70
      70
  9
$TILEMODE
 70
       1
  9
$MAXACTVP
 70
      16
  9
$PINSBASE
 10
0.0
 20
0.0
 30
0.0
  9
$PLIMCHECK
 70
       0
  9
$PEXTMIN
 10
1.00000000E+20
 20
1.00000000E+20
 30
1.00000000E+20
  9
$PEXTMAX
 10
-1.00000000E+20
 20
-1.00000000E+20
 30
-1.00000000E+20
  9
$PLIMMIN
 10
0.0
 20
0.0
  9
$PLIMMAX
 10
12.0
 20
9.0
  9
$UNITMODE
 70
       0
  9
$VISRETAIN
 70
       0
  9
$PLINEGEN
 70
       1
  9
$PSLTSCALE
 70
       0
  9
$TREEDEPTH
 70
    3020
  9
$DWGCODEPAGE
  3
dos932
  0
ENDSEC
  0
SECTION
  2
TABLES
  0
TABLE
  2
VPORT
 70
       1
  0
VPORT
  2
*ACTIVE
 70
       0
 10
0.0
 20
0.0
 11
1.0
 21
1.0
 12
0.42492676
 22
0.25
 13
0.0
 23
0.0
 14
1.0
 24
1.0
 15
0.0
 25
0.0
 16
0.0
 26
0.0
 36
1.0
 17
0.0
 27
0.0
 37
0.0
 40
394.405
 41
1.73205081
 42
50.0
 43
0.0
 44
0.0
 50
0.0
 51
0.0
 71
       0
 72
     100
 73
       1
 74
       1
 75
       0
 76
       0
 77
       0
 78
       0
  0
ENDTAB
  0
TABLE
  2
LTYPE
 70
       3
  0
LTYPE
  2
CONTINUOUS
 70
      64
  3
Solid line
 72
      65
 73
       0
 40
0.0
  0
LTYPE
  2
CENTER
 70
      64
  3
Center ____ _ ____ _ ____ _ ____ _ ____ _ ____
 72
      65
 73
       4
 40
50.8
 49
31.75
 49
-6.35
 49
6.35
 49
-6.35
  0
LTYPE
  2
PHANTOM
 70
      64
  3
Phantom ______  __  __  ______  __  __  ______
 72
      65
 73
       6
 40
63.5
 49
31.75
 49
-6.35
 49
6.35
 49
-6.35
 49
6.35
 49
-6.35
  0
ENDTAB
  0
TABLE
  2
LAYER
 70
       2
  0
LAYER
  2
0
 70
       0
 62
       7
  6
CONTINUOUS
  0
LAYER
  2
DEFPOINTS
 70
       0
 62
       7
  6
CONTINUOUS
  0
ENDTAB
  0
TABLE
  2
STYLE
 70
       1
  0
STYLE
  2
MX_NOTE_STANDARD
 70
       0
 40
0.0
 41
1.0
 50
0.0
 71
       0
 42
3.20000005
  3
txt.shx
  4
extfont.shx
  0
ENDTAB
  0
TABLE
  2
VIEW
 70
       0
  0
ENDTAB
  0
TABLE
  2
UCS
 70
       0
  0
ENDTAB
  0
TABLE
  2
APPID
 70
       1
  0
APPID
  2
ACAD
 70
       0
  0
ENDTAB
  0
TABLE
  2
DIMSTYLE
 70
       1
  0
DIMSTYLE
  2
MXDIMSTYLE
 70
       0
  3

  4

  5

  6

  7

 40
1.0
 41
2.5
 42
1.5
 43
3.75
 44
1.5
 45
0.0
 46
0.0
 47
0.0
 48
0.0
 71
       0
 72
       0
 73
       0
 74
       0
 75
       0
 76
       0
 77
       1
 78
       8
140
3.20000005
141
2.5
142
0.0
143
0.03937008
144
1.0
145
0.0
146
1.0
147
1.0
170
       0
171
       4
172
       1
173
       0
174
       0
175
       0
176
       0
177
       0
178
       0
  0
ENDTAB
  0
ENDSEC
  0
SECTION
  2
BLOCKS
  0
ENDSEC
  0
SECTION
  2
ENTITIES
  0
LINE
  8
0
  6
CONTINUOUS
 62
       2
  5
1E
 10
-224.14298936
 20
17.42874047
 30
0.0
 11
-153.93985403
 21
17.42874047
 31
0.0
  0
LINE
  8
0
  6
CONTINUOUS
 62
       2
  5
1F
 10
-178.82298936
 20
49.59874047
 30
0.0
 11
-197.82298936
 21
49.59874047
 31
0.0
  0
ARC
  8
0
  6
CONTINUOUS
 62
       7
  5
20
 10
-188.32279289
 20
17.42744112
 30
0.0
 40
20.99870065
 50
107.45928003
 51
269.99946394
  0
ARC
  8
0
  6
CONTINUOUS
 62
       7
  5
21
 10
-188.32298936
 20
17.42874047
 30
0.0
 40
20.8
 50
90.0
 51
270.0
  0
ARC
  8
0
  6
CONTINUOUS
 62
       2
  5
22
 10
-221.82299241
 20
-24.07125648
 30
0.0
 40
4.00000305
 50
270.00004371
 51
359.99995629
  0
ARC
  8
0
  6
CONTINUOUS
 62
       2
  5
23
 10
-221.81416825
 20
-24.05820286
 30
0.0
 40
8.50084616
 50
323.36102917
 51
328.41002494
  0
ARC
  8
0
  6
CONTINUOUS
 62
       2
  5
24
 10
-221.82364168
 20
-24.07420649
 30
0.0
 40
8.50065283
 50
335.26356687
 51
0.01986301
  0
ARC
  8
0
  6
CONTINUOUS
 62
       2
  5
25
 10
-221.82717426
 20
-24.07306755
 30
0.0
 40
8.49819301
 50
270.02821506
 51
316.79279889
  0
ARC
  8
0
  6
CONTINUOUS
 62
       7
  5
26
 10
-188.32581531
 20
49.59958309
 30
0.0
 40
8.07915788
 50
89.97995894
 51
201.88024656
  0
ARC
  8
0
  6
CONTINUOUS
 62
       7
  5
27
 10
-188.32298936
 20
17.42874047
 30
0.0
 40
6.0
 50
90.0
 51
270.0
  0
ARC
  8
0
  6
CONTINUOUS
 62
       7
  5
28
 10
-188.32298936
 20
17.42874047
 30
0.0
 40
7.0
 50
90.0
 51
270.0
  0
ARC
  8
0
  6
CONTINUOUS
 62
       7
  5
29
 10
-188.32298936
 20
17.42874047
 30
0.0
 40
9.5
 50
90.0
 51
270.0
  0
ARC
  8
0
  6
CONTINUOUS
 62
       7
  5
2A
 10
-188.32298936
 20
17.42874047
 30
0.0
 40
16.5
 50
90.0
 51
270.0
  0
ARC
  8
0
  6
CONTINUOUS
 62
       7
  5
2B
 10
-188.32298936
 20
17.42874047
 30
0.0
 40
15.5
 50
90.0
 51
270.0
  0
LINE
  8
0
  6
CONTINUOUS
 62
       2
  5
2C
 10
-218.82298936
 20
12.92874047
 30
0.0
 11
-218.82298936
 21
12.54874047
 31
0.0
  0
LINE
  8
0
  6
CONTINUOUS
 62
       2
  5
2D
 10
-218.02298936
 20
21.92874047
 30
0.0
 11
-218.02298936
 21
23.42874047
 31
0.0
  0
LINE
  8
0
  6
CONTINUOUS
 62
       2
  5
2E
 10
-217.62298936
 20
18.92874047
 30
0.0
 11
-217.62298936
 21
15.92874047
 31
0.0
  0
LINE
  8
0
  6
CONTINUOUS
 62
       2
  5
2F
 10
-220.62298936
 20
16.79874047
 30
0.0
 11
-220.62298936
 21
17.29874047
 31
0.0
  0
LINE
  8
0
  6
CONTINUOUS
 62
       2
  5
30
 10
-220.62298936
 20
18.29874047
 30
0.0
 11
-220.62298936
 21
21.42874047
 31
0.0
  0
LINE
  8
0
  6
CONTINUOUS
 62
       2
  5
31
 10
-221.12298936
 20
18.42874047
 30
0.0
 11
-221.12298936
 21
18.92874047
 31
0.0
  0
LINE
  8
0
  6
CONTINUOUS
 62
       2
  5
32
 10
-221.12298936
 20
19.92874047
 30
0.0
 11
-221.12298936
 21
20.92874047
 31
0.0
  0
LINE
  8
0
  6
CONTINUOUS
 62
       2
  5
33
 10
-218.02298936
 20
18.92874047
 30
0.0
 11
-218.02298936
 21
15.92874047
 31
0.0
  0
LINE
  8
0
  6
CONTINUOUS
 62
       2
  5
34
 10
-218.82298936
 20
18.92874047
 30
0.0
 11
-218.82298936
 21
15.92874047
 31
0.0
  0
LINE
  8
0
  6
CONTINUOUS
 62
       2
  5
35
 10
-220.62298936
 20
13.42874047
 30
0.0
 11
-220.62298936
 21
15.79874047
 31
0.0
  0
LINE
  8
0
  6
CONTINUOUS
 62
       2
  5
36
 10
-220.62298936
 20
21.42874047
 30
0.0
 11
-220.32298936
 21
21.42874047
 31
0.0
  0
LINE
  8
0
  6
CONTINUOUS
 62
       2
  5
37
 10
-229.42298936
 20
-31.57125953
 30
0.0
 11
-229.42298936
 21
-32.57125953
 31
0.0
  0
LINE
  8
0
  6
CONTINUOUS
 62
       2
  5
38
 10
-240.94298936
 20
-32.57125953
 30
0.0
 11
-239.82298936
 21
-32.57125953
 31
0.0
  0
LINE
  8
0
  6
CONTINUOUS
 62
       2
  5
39
 10
-217.82298936
 20
27.42874047
 30
0.0
 11
-217.82298936
 21
21.92874047
 31
0.0
  0
LINE
  8
0
  6
CONTINUOUS
 62
       2
  5
3A
 10
-218.82298936
 20
23.42874047
 30
0.0
 11
-218.02298936
 21
23.42874047
 31
0.0
  0
LINE
  8
0
  6
CONTINUOUS
 62
       2
  5
3B
 10
-237.22298936
 20
-31.94125953
 30
0.0
 11
-237.22298936
 21
-32.57125953
 31
0.0
  0
LINE
  8
0
  6
CONTINUOUS
 62
       2
  5
3C
 10
-229.42298936
 20
-30.07125953
 30
0.0
 11
-229.42298936
 21
-30.57125953
 31
0.0
  0
LINE
  8
0
  6
CONTINUOUS
 62
       2
  5
3D
 10
-237.22298936
 20
-29.69125953
 30
0.0
 11
-237.22298936
 21
-30.94125953
 31
0.0
  0
LINE
  8
0
  6
CONTINUOUS
 62
       2
  5
3E
 10
-238.82298936
 20
-32.57125953
 30
0.0
 11
-221.82298936
 21
-32.57125953
 31
0.0
  0
LINE
  8
0
  6
CONTINUOUS
 62
       2
  5
3F
 10
-223.44298936
 20
-28.07125953
 30
0.0
 11
-221.82298936
 21
-28.07125953
 31
0.0
  0
LINE
  8
0
  6
CENTER
 62
       2
  5
41
 10
-213.32298936
 20
-24.07125953
 30
0.0
 11
-213.32298936
 21
10.92874047
 31
0.0
  0
LINE
  8
0
  6
CENTER
 62
       2
  5
42
 10
-217.82298936
 20
-24.07125953
 30
0.0
 11
-217.82298936
 21
12.92874047
 31
0.0
  0
LINE
  8
0
  6
CONTINUOUS
 62
       2
  5
43
 10
-243.32298936
 20
-28.07125953
 30
0.0
 11
-226.94298936
 21
-28.07125953
 31
0.0
  0
LINE
  8
0
  6
CONTINUOUS
 62
       2
  5
44
 10
-243.32298936
 20
-28.07125953
 30
0.0
 11
-243.32298936
 21
-32.57125953
 31
0.0
  0
LINE
  8
0
  6
CONTINUOUS
 62
       2
  5
45
 10
-229.42298936
 20
-28.07125953
 30
0.0
 11
-229.42298936
 21
-29.07125953
 31
0.0
  0
LINE
  8
0
  6
CONTINUOUS
 62
       2
  5
46
 10
-225.94298936
 20
-28.07125953
 30
0.0
 11
-224.44298936
 21
-28.07125953
 31
0.0
  0
LINE
  8
0
  6
CONTINUOUS
 62
       2
  5
47
 10
-221.12298936
 20
20.92874047
 30
0.0
 11
-220.62298936
 21
21.42874047
 31
0.0
  0
LINE
  8
0
  6
CONTINUOUS
 62
       2
  5
48
 10
-237.22298936
 20
-28.07125953
 30
0.0
 11
-237.22298936
 21
-28.69125953
 31
0.0
  0
LINE
  8
0
  6
CONTINUOUS
 62
       2
  5
49
 10
-218.02298936
 20
12.54874047
 30
0.0
 11
-218.02298936
 21
12.92874047
 31
0.0
  0
LINE
  8
0
  6
CONTINUOUS
 62
       2
  5
4A
 10
-218.92298936
 20
15.92874047
 30
0.0
 11
-218.92298936
 21
18.92874047
 31
0.0
  0
LINE
  8
0
  6
CONTINUOUS
 62
       2
  5
4B
 10
-233.32298936
 20
-25.57125953
 30
0.0
 11
-233.32298936
 21
-41.19125953
 31
0.0
  0
LINE
  8
0
  6
CONTINUOUS
 62
       2
  5
4C
 10
-218.82298936
 20
12.54874047
 30
0.0
 11
-218.02298936
 21
12.54874047
 31
0.0
  0
LINE
  8
0
  6
CONTINUOUS
 62
       2
  5
4D
 10
-217.82298936
 20
27.42874047
 30
0.0
 11
-213.32298936
 21
27.42874047
 31
0.0
  0
LINE
  8
0
  6
CONTINUOUS
 62
       2
  5
4E
 10
-213.32298936
 20
27.42874047
 30
0.0
 11
-213.32298936
 21
23.92874047
 31
0.0
  0
LINE
  8
0
  6
CONTINUOUS
 62
       2
  5
4F
 10
-218.82298936
 20
23.42874047
 30
0.0
 11
-218.82298936
 21
21.92874047
 31
0.0
  0
LINE
  8
0
  6
CONTINUOUS
 62
       2
  5
50
 10
-220.62298936
 20
13.42874047
 30
0.0
 11
-220.32298936
 21
13.42874047
 31
0.0
  0
LINE
  8
0
  6
CONTINUOUS
 62
       2
  5
51
 10
-243.32298936
 20
-32.57125953
 30
0.0
 11
-241.94298936
 21
-32.57125953
 31
0.0
  0
LINE
  8
0
  6
CONTINUOUS
 62
       2
  5
52
 10
-221.12298936
 20
13.92874047
 30
0.0
 11
-221.12298936
 21
17.42874047
 31
0.0
  0
LINE
  8
0
  6
CONTINUOUS
 62
       2
  5
53
 10
-221.12298936
 20
13.92874047
 30
0.0
 11
-220.62298936
 21
13.42874047
 31
0.0
  0
LINE
  8
0
  6
CONTINUOUS
 62
       2
  5
54
 10
-194.28298936
 20
40.09874047
 30
0.0
 11
-193.70298936
 21
39.09874047
 31
0.0
  0
LINE
  8
0
  6
CONTINUOUS
 62
       7
  5
55
 10
-188.32298936
 20
39.09874047
 30
0.0
 11
-194.70298936
 21
39.09874047
 31
0.0
  0
LINE
  8
0
  6
CONTINUOUS
 62
       7
  5
56
 10
-196.40298936
 20
44.92874047
 30
0.0
 11
-195.82298936
 21
44.59874047
 31
0.0
  0
LINE
  8
0
  6
CONTINUOUS
 62
       7
  5
57
 10
-196.40298936
 20
54.26874047
 30
0.0
 11
-188.32298936
 21
58.92874047
 31
0.0
  0
LINE
  8
0
  6
CONTINUOUS
 62
       7
  5
58
 10
-196.40298936
 20
54.26874047
 30
0.0
 11
-196.40298936
 21
44.92874047
 31
0.0
  0
LINE
  8
0
  6
CONTINUOUS
 62
       7
  5
59
 10
-188.32298936
 20
57.09874047
 30
0.0
 11
-195.82298936
 21
53.09874047
 31
0.0
  0
LINE
  8
0
  6
CONTINUOUS
 62
       7
  5
5A
 10
-195.82298936
 20
53.09874047
 30
0.0
 11
-195.82298936
 21
40.09874047
 31
0.0
  0
LINE
  8
0
  6
CONTINUOUS
 62
       7
  5
5B
 10
-188.32298936
 20
40.09874047
 30
0.0
 11
-195.82298936
 21
40.09874047
 31
0.0
  0
LINE
  8
0
  6
CONTINUOUS
 62
       2
  5
5C
 10
-207.69298936
 20
25.52874047
 30
0.0
 11
-210.32298936
 21
25.52874047
 31
0.0
  0
LINE
  8
0
  6
CONTINUOUS
 62
       2
  5
5D
 10
-207.69298936
 20
9.32874047
 30
0.0
 11
-210.32298936
 21
9.32874047
 31
0.0
  0
LINE
  8
0
  6
CONTINUOUS
 62
       7
  5
5E
 10
-219.82298936
 20
18.92874047
 30
0.0
 11
-219.82298936
 21
21.92874047
 31
0.0
  0
LINE
  8
0
  6
CONTINUOUS
 62
       7
  5
5F
 10
-219.82298936
 20
15.92874047
 30
0.0
 11
-219.82298936
 21
12.92874047
 31
0.0
  0
LINE
  8
0
  6
CONTINUOUS
 62
       7
  5
60
 10
-220.32298936
 20
21.42874047
 30
0.0
 11
-219.82298936
 21
21.92874047
 31
0.0
  0
LINE
  8
0
  6
CONTINUOUS
 62
       7
  5
61
 10
-219.82298936
 20
18.92874047
 30
0.0
 11
-220.32298936
 21
19.42874047
 31
0.0
  0
LINE
  8
0
  6
CONTINUOUS
 62
       7
  5
62
 10
-220.32298936
 20
15.42874047
 30
0.0
 11
-219.82298936
 21
15.92874047
 31
0.0
  0
LINE
  8
0
  6
CONTINUOUS
 62
       7
  5
63
 10
-219.82298936
 20
12.92874047
 30
0.0
 11
-220.32298936
 21
13.42874047
 31
0.0
  0
LINE
  8
0
  6
CONTINUOUS
 62
       2
  5
64
 10
-207.30298936
 20
20.42874047
 30
0.0
 11
-221.35298936
 21
20.42874047
 31
0.0
  0
LINE
  8
0
  6
CONTINUOUS
 62
       2
  5
65
 10
-207.30298936
 20
14.42874047
 30
0.0
 11
-221.11298936
 21
14.42874047
 31
0.0
  0
LINE
  8
0
  6
CONTINUOUS
 62
       2
  5
66
 10
-215.32298936
 20
21.42874047
 30
0.0
 11
-220.32298936
 21
21.42874047
 31
0.0
  0
LINE
  8
0
  6
CONTINUOUS
 62
       7
  5
67
 10
-215.32298936
 20
15.92874047
 30
0.0
 11
-219.82298936
 21
15.92874047
 31
0.0
  0
LINE
  8
0
  6
CONTINUOUS
 62
       7
  5
68
 10
-215.32298936
 20
12.92874047
 30
0.0
 11
-219.82298936
 21
12.92874047
 31
0.0
  0
LINE
  8
0
  6
CONTINUOUS
 62
       7
  5
69
 10
-207.52298936
 20
25.92874047
 30
0.0
 11
-210.32298936
 21
25.92874047
 31
0.0
  0
LINE
  8
0
  6
CONTINUOUS
 62
       2
  5
6A
 10
-210.32298936
 20
22.92874047
 30
0.0
 11
-215.32298936
 21
22.92874047
 31
0.0
  0
LINE
  8
0
  6
CONTINUOUS
 62
       2
  5
6B
 10
-210.32298936
 20
11.92874047
 30
0.0
 11
-215.32298936
 21
11.92874047
 31
0.0
  0
LINE
  8
0
  6
CONTINUOUS
 62
       2
  5
6C
 10
-207.93298936
 20
9.92874047
 30
0.0
 11
-210.32298936
 21
9.92874047
 31
0.0
  0
LINE
  8
0
  6
CONTINUOUS
 62
       2
  5
6D
 10
-215.32298936
 20
19.42874047
 30
0.0
 11
-220.32298936
 21
19.42874047
 31
0.0
  0
LINE
  8
0
  6
CONTINUOUS
 62
       2
  5
6E
 10
-208.22298936
 20
10.72874047
 30
0.0
 11
-210.32298936
 21
10.72874047
 31
0.0
  0
LINE
  8
0
  6
CONTINUOUS
 62
       2
  5
6F
 10
-207.93298936
 20
24.92874047
 30
0.0
 11
-210.32298936
 21
24.92874047
 31
0.0
  0
LINE
  8
0
  6
CONTINUOUS
 62
       2
  5
70
 10
-208.22298936
 20
24.12874047
 30
0.0
 11
-210.32298936
 21
24.12874047
 31
0.0
  0
LINE
  8
0
  6
CONTINUOUS
 62
       2
  5
71
 10
-209.20298936
 20
15.22874047
 30
0.0
 11
-210.32298936
 21
15.22874047
 31
0.0
  0
LINE
  8
0
  6
CONTINUOUS
 62
       2
  5
72
 10
-209.20298936
 20
19.62874047
 30
0.0
 11
-210.32298936
 21
19.62874047
 31
0.0
  0
LINE
  8
0
  6
CONTINUOUS
 62
       2
  5
73
 10
-208.89298936
 20
21.62874047
 30
0.0
 11
-210.32298936
 21
21.62874047
 31
0.0
  0
LINE
  8
0
  6
CONTINUOUS
 62
       7
  5
74
 10
-220.32298936
 20
13.42874047
 30
0.0
 11
-220.32298936
 21
15.42874047
 31
0.0
  0
LINE
  8
0
  6
CONTINUOUS
 62
       7
  5
75
 10
-215.32298936
 20
21.92874047
 30
0.0
 11
-219.82298936
 21
21.92874047
 31
0.0
  0
LINE
  8
0
  6
CONTINUOUS
 62
       7
  5
76
 10
-214.32298936
 20
23.92874047
 30
0.0
 11
-214.32298936
 21
10.92874047
 31
0.0
  0
LINE
  8
0
  6
CONTINUOUS
 62
       7
  5
77
 10
-215.32298936
 20
18.92874047
 30
0.0
 11
-219.82298936
 21
18.92874047
 31
0.0
  0
LINE
  8
0
  6
CONTINUOUS
 62
       7
  5
78
 10
-210.32298936
 20
23.92874047
 30
0.0
 11
-214.32298936
 21
23.92874047
 31
0.0
  0
LINE
  8
0
  6
CONTINUOUS
 62
       7
  5
79
 10
-210.32298936
 20
10.92874047
 30
0.0
 11
-214.32298936
 21
10.92874047
 31
0.0
  0
LINE
  8
0
  6
CONTINUOUS
 62
       7
  5
7A
 10
-220.32298936
 20
19.42874047
 30
0.0
 11
-220.32298936
 21
21.42874047
 31
0.0
  0
LINE
  8
0
  6
CONTINUOUS
 62
       2
  5
7B
 10
-208.53298936
 20
23.12874047
 30
0.0
 11
-210.32298936
 21
23.12874047
 31
0.0
  0
LINE
  8
0
  6
CONTINUOUS
 62
       7
  5
7C
 10
-207.52298936
 20
8.92874047
 30
0.0
 11
-210.32298936
 21
8.92874047
 31
0.0
  0
LINE
  8
0
  6
CONTINUOUS
 62
       2
  5
7D
 10
-215.32298936
 20
13.42874047
 30
0.0
 11
-220.32298936
 21
13.42874047
 31
0.0
  0
LINE
  8
0
  6
CONTINUOUS
 62
       7
  5
7E
 10
-215.32298936
 20
11.92874047
 30
0.0
 11
-214.32298936
 21
10.92874047
 31
0.0
  0
LINE
  8
0
  6
CONTINUOUS
 62
       7
  5
7F
 10
-215.32298936
 20
22.92874047
 30
0.0
 11
-214.32298936
 21
23.92874047
 31
0.0
  0
LINE
  8
0
  6
CONTINUOUS
 62
       7
  5
80
 10
-210.32298936
 20
8.92874047
 30
0.0
 11
-210.32298936
 21
25.92874047
 31
0.0
  0
LINE
  8
0
  6
CONTINUOUS
 62
       7
  5
81
 10
-215.32298936
 20
11.92874047
 30
0.0
 11
-215.32298936
 21
22.92874047
 31
0.0
  0
LINE
  8
0
  6
CONTINUOUS
 62
       2
  5
82
 10
-208.89298936
 20
13.22874047
 30
0.0
 11
-210.32298936
 21
13.22874047
 31
0.0
  0
LINE
  8
0
  6
CONTINUOUS
 62
       2
  5
83
 10
-208.53298936
 20
11.72874047
 30
0.0
 11
-210.32298936
 21
11.72874047
 31
0.0
  0
LINE
  8
0
  6
CONTINUOUS
 62
       2
  5
84
 10
-215.32298936
 20
15.42874047
 30
0.0
 11
-220.32298936
 21
15.42874047
 31
0.0
  0
LINE
  8
0
  6
CONTINUOUS
 62
       2
  5
85
 10
-193.70298936
 20
39.09874047
 30
0.0
 11
-193.62298936
 21
37.53874047
 31
0.0
  0
LINE
  8
0
  6
CONTINUOUS
 62
       7
  5
86
 10
-194.76298936
 20
40.09874047
 30
0.0
 11
-194.61298936
 21
37.24874047
 31
0.0
  0
LINE
  8
0
  6
CONTINUOUS
 62
       7
  5
87
 10
-197.82298936
 20
11.93874047
 30
0.0
 11
-188.32298936
 21
6.45874047
 31
0.0
  0
LINE
  8
0
  6
CONTINUOUS
 62
       7
  5
88
 10
-197.82298936
 20
22.90874047
 30
0.0
 11
-188.32298936
 21
28.39874047
 31
0.0
  0
LINE
  8
0
  6
CONTINUOUS
 62
       2
  5
89
 10
-188.32298936
 20
60.80874047
 30
0.0
 11
-188.32298936
 21
-8.20125953
 31
0.0
  0
LINE
  8
0
  6
CONTINUOUS
 62
       7
  5
8A
 10
-197.82298936
 20
22.90874047
 30
0.0
 11
-197.82298936
 21
11.93874047
 31
0.0
  0
LINE
  8
0
  6
CONTINUOUS
 62
       2
  5
8B
 10
-143.32298936
 20
-25.57125953
 30
0.0
 11
-143.32298936
 21
-41.19125953
 31
0.0
  0
LINE
  8
0
  6
CONTINUOUS
 62
       7
  5
8C
 10
-178.82298936
 20
22.90874047
 30
0.0
 11
-178.82298936
 21
11.93874047
 31
0.0
  0
LINE
  8
0
  6
CONTINUOUS
 62
       7
  5
8D
 10
-178.82298936
 20
22.90874047
 30
0.0
 11
-188.32298936
 21
28.39874047
 31
0.0
  0
LINE
  8
0
  6
CONTINUOUS
 62
       7
  5
8E
 10
-178.82298936
 20
11.93874047
 30
0.0
 11
-188.32298936
 21
6.45874047
 31
0.0
  0
LINE
  8
0
  6
CONTINUOUS
 62
       7
  5
8F
 10
-181.88298936
 20
40.09874047
 30
0.0
 11
-182.03298936
 21
37.24874047
 31
0.0
  0
LINE
  8
0
  6
CONTINUOUS
 62
       2
  5
90
 10
-182.94298936
 20
39.09874047
 30
0.0
 11
-183.02298936
 21
37.53874047
 31
0.0
  0
LINE
  8
0
  6
CONTINUOUS
 62
       7
  5
91
 10
-188.32298936
 20
40.09874047
 30
0.0
 11
-180.82298936
 21
40.09874047
 31
0.0
  0
LINE
  8
0
  6
CONTINUOUS
 62
       7
  5
92
 10
-180.82298936
 20
53.09874047
 30
0.0
 11
-180.82298936
 21
40.09874047
 31
0.0
  0
LINE
  8
0
  6
CONTINUOUS
 62
       7
  5
93
 10
-188.32298936
 20
57.09874047
 30
0.0
 11
-180.82298936
 21
53.09874047
 31
0.0
  0
LINE
  8
0
  6
CONTINUOUS
 62
       7
  5
94
 10
-180.24298936
 20
54.26874047
 30
0.0
 11
-180.24298936
 21
44.92874047
 31
0.0
  0
LINE
  8
0
  6
CONTINUOUS
 62
       7
  5
95
 10
-180.24298936
 20
54.26874047
 30
0.0
 11
-188.32298936
 21
58.92874047
 31
0.0
  0
LINE
  8
0
  6
CONTINUOUS
 62
       7
  5
96
 10
-180.24298936
 20
44.92874047
 30
0.0
 11
-180.82298936
 21
44.59874047
 31
0.0
  0
LINE
  8
0
  6
CONTINUOUS
 62
       7
  5
97
 10
-188.32298936
 20
39.09874047
 30
0.0
 11
-181.94298936
 21
39.09874047
 31
0.0
  0
LINE
  8
0
  6
CONTINUOUS
 62
       2
  5
98
 10
-182.36298936
 20
40.09874047
 30
0.0
 11
-182.94298936
 21
39.09874047
 31
0.0
  0
LINE
  8
0
  6
CONTINUOUS
 62
       2
  5
99
 10
-133.32298936
 20
-32.57125953
 30
0.0
 11
-134.70298936
 21
-32.57125953
 31
0.0
  0
LINE
  8
0
  6
CENTER
 62
       2
  5
9A
 10
-158.82298936
 20
27.42874047
 30
0.0
 11
-163.32298936
 21
27.42874047
 31
0.0
  0
LINE
  8
0
  6
CONTINUOUS
 62
       2
  5
9B
 10
-139.42298936
 20
-28.07125953
 30
0.0
 11
-139.42298936
 21
-28.69125953
 31
0.0
  0
LINE
  8
0
  6
CONTINUOUS
 62
       2
  5
9C
 10
-150.70298936
 20
-28.07125953
 30
0.0
 11
-152.20298936
 21
-28.07125953
 31
0.0
  0
LINE
  8
0
  6
CONTINUOUS
 62
       2
  5
9D
 10
-147.22298936
 20
-28.07125953
 30
0.0
 11
-147.22298936
 21
-29.07125953
 31
0.0
  0
LINE
  8
0
  6
CENTER
 62
       2
  5
9E
 10
-163.32298936
 20
-5.32125953
 30
0.0
 11
-163.32298936
 21
-6.73125953
 31
0.0
  0
LINE
  8
0
  6
CONTINUOUS
 62
       2
  5
9F
 10
-133.32298936
 20
-28.07125953
 30
0.0
 11
-133.32298936
 21
-32.57125953
 31
0.0
  0
LINE
  8
0
  6
CONTINUOUS
 62
       2
  5
A0
 10
-133.32298936
 20
-28.07125953
 30
0.0
 11
-149.70298936
 21
-28.07125953
 31
0.0
  0
LINE
  8
0
  6
CENTER
 62
       2
  5
A1
 10
-163.32298936
 20
-4.32125953
 30
0.0
 11
-163.32298936
 21
27.42874047
 31
0.0
  0
LINE
  8
0
  6
CONTINUOUS
 62
       2
  5
A2
 10
-153.20298936
 20
-28.07125953
 30
0.0
 11
-154.82298936
 21
-28.07125953
 31
0.0
  0
LINE
  8
0
  6
CONTINUOUS
 62
       2
  5
A3
 10
-137.82298936
 20
-32.57125953
 30
0.0
 11
-154.82298936
 21
-32.57125953
 31
0.0
  0
LINE
  8
0
  6
CONTINUOUS
 62
       2
  5
A4
 10
-139.42298936
 20
-29.69125953
 30
0.0
 11
-139.42298936
 21
-30.94125953
 31
0.0
  0
LINE
  8
0
  6
CONTINUOUS
 62
       2
  5
A5
 10
-147.22298936
 20
-30.07125953
 30
0.0
 11
-147.22298936
 21
-30.57125953
 31
0.0
  0
LINE
  8
0
  6
CONTINUOUS
 62
       2
  5
A6
 10
-139.42298936
 20
-31.94125953
 30
0.0
 11
-139.42298936
 21
-32.57125953
 31
0.0
  0
LINE
  8
0
  6
CENTER
 62
       2
  5
A7
 10
-158.82298936
 20
-24.07125953
 30
0.0
 11
-158.82298936
 21
27.42874047
 31
0.0
  0
LINE
  8
0
  6
CONTINUOUS
 62
       2
  5
A8
 10
-135.70298936
 20
-32.57125953
 30
0.0
 11
-136.82298936
 21
-32.57125953
 31
0.0
  0
LINE
  8
0
  6
CONTINUOUS
 62
       2
  5
A9
 10
-147.22298936
 20
-31.57125953
 30
0.0
 11
-147.22298936
 21
-32.57125953
 31
0.0
  0
LINE
  8
0
  6
CENTER
 62
       2
  5
AA
 10
-163.32298936
 20
-7.73125953
 30
0.0
 11
-163.32298936
 21
-24.07125953
 31
0.0
  0
ARC
  8
0
  6
CONTINUOUS
 62
       7
  5
AB
 10
-188.32298936
 20
17.42874047
 30
0.0
 40
15.5
 50
270.0
 51
90.0
  0
ARC
  8
0
  6
CONTINUOUS
 62
       7
  5
AC
 10
-188.32298936
 20
17.42874047
 30
0.0
 40
16.5
 50
270.0
 51
90.0
  0
ARC
  8
0
  6
CONTINUOUS
 62
       7
  5
AD
 10
-188.32298936
 20
17.42874047
 30
0.0
 40
9.5
 50
270.0
 51
90.0
  0
ARC
  8
0
  6
CONTINUOUS
 62
       7
  5
AE
 10
-188.32298936
 20
17.42874047
 30
0.0
 40
7.0
 50
270.0
 51
90.0
  0
ARC
  8
0
  6
CONTINUOUS
 62
       7
  5
AF
 10
-188.32298936
 20
17.42874047
 30
0.0
 40
6.0
 50
270.0
 51
90.0
  0
ARC
  8
0
  6
CONTINUOUS
 62
       7
  5
B0
 10
-188.32016341
 20
49.59958309
 30
0.0
 40
8.07915788
 50
338.11975344
 51
90.02004106
  0
ARC
  8
0
  6
CONTINUOUS
 62
       2
  5
B1
 10
-154.81880446
 20
-24.07306755
 30
0.0
 40
8.49819301
 50
223.20720111
 51
269.97178494
  0
ARC
  8
0
  6
CONTINUOUS
 62
       2
  5
B2
 10
-154.82233704
 20
-24.07420649
 30
0.0
 40
8.50065283
 50
179.98013699
 51
204.73643313
  0
ARC
  8
0
  6
CONTINUOUS
 62
       2
  5
B3
 10
-154.83181047
 20
-24.05820286
 30
0.0
 40
8.50084616
 50
211.58997506
 51
216.63897083
  0
ARC
  8
0
  6
CONTINUOUS
 62
       2
  5
B4
 10
-154.82298631
 20
-24.07125648
 30
0.0
 40
4.00000305
 50
180.00004371
 51
269.99995629
  0
ARC
  8
0
  6
CONTINUOUS
 62
       7
  5
B5
 10
-188.32298936
 20
17.42874047
 30
0.0
 40
20.8
 50
270.0
 51
90.0
  0
ARC
  8
0
  6
CONTINUOUS
 62
       7
  5
B6
 10
-188.32318582
 20
17.42744112
 30
0.0
 40
20.99870065
 50
270.00053606
 51
72.54071997
  0
LINE
  8
0
  6
CENTER
 62
       2
  5
B7
 10
-156.02298936
 20
13.42874047
 30
0.0
 11
-156.02298936
 21
21.42874047
 31
0.0
  0
LINE
  8
0
  6
CENTER
 62
       2
  5
B8
 10
-155.52298936
 20
13.92874047
 30
0.0
 11
-155.52298936
 21
20.92874047
 31
0.0
  0
LINE
  8
0
  6
CENTER
 62
       2
  5
B9
 10
-155.52298936
 20
20.92874047
 30
0.0
 11
-156.02298936
 21
21.42874047
 31
0.0
  0
LINE
  8
0
  6
CENTER
 62
       2
  5
BA
 10
-158.62298936
 20
12.54874047
 30
0.0
 11
-158.62298936
 21
23.42874047
 31
0.0
  0
LINE
  8
0
  6
CENTER
 62
       2
  5
BB
 10
-157.82298936
 20
23.42874047
 30
0.0
 11
-158.62298936
 21
23.42874047
 31
0.0
  0
LINE
  8
0
  6
CENTER
 62
       2
  5
BC
 10
-157.72298936
 20
13.42874047
 30
0.0
 11
-157.72298936
 21
21.42874047
 31
0.0
  0
LINE
  8
0
  6
CENTER
 62
       2
  5
BD
 10
-157.82298936
 20
12.54874047
 30
0.0
 11
-158.62298936
 21
12.54874047
 31
0.0
  0
LINE
  8
0
  6
CENTER
 62
       2
  5
BE
 10
-157.82298936
 20
12.54874047
 30
0.0
 11
-157.82298936
 21
23.42874047
 31
0.0
  0
LINE
  8
0
  6
CENTER
 62
       2
  5
BF
 10
-155.52298936
 20
13.92874047
 30
0.0
 11
-156.02298936
 21
13.42874047
 31
0.0
  0
LINE
  8
0
  6
CENTER
 62
       2
  5
C0
 10
-167.70872919
 20
13.42874047
 30
0.0
 11
-167.32448521
 21
13.42874047
 31
0.0
  0
LINE
  8
0
  6
CENTER
 62
       2
  5
C1
 10
-156.02298936
 20
21.42874047
 30
0.0
 11
-157.82298936
 21
21.42874047
 31
0.0
  0
LINE
  8
0
  6
PHANTOM
 62
       2
  5
C3
 10
-167.32448524
 20
23.20224314
 30
0.0
 11
-163.8701753
 21
23.20224314
 31
0.0
  0
LINE
  8
0
  6
PHANTOM
 62
       2
  5
C4
 10
-167.32448524
 20
11.6552378
 30
0.0
 11
-163.8701753
 21
11.6552378
 31
0.0
  0
LINE
  8
0
  6
PHANTOM
 62
       2
  5
C5
 10
-167.32448524
 20
14.54198915
 30
0.0
 11
-163.8701753
 21
14.54198915
 31
0.0
  0
LINE
  8
0
  6
PHANTOM
 62
       2
  5
C6
 10
-167.32448524
 20
20.3154918
 30
0.0
 11
-163.8701753
 21
20.3154918
 31
0.0
  0
LINE
  8
0
  6
PHANTOM
 62
       2
  5
C7
 10
-167.32448521
 20
11.65523778
 30
0.0
 11
-167.32448521
 21
23.20224314
 31
0.0
  0
LINE
  8
0
  6
CENTER
 62
       2
  5
C8
 10
-167.32448521
 20
21.42874047
 30
0.0
 11
-167.70923345
 21
21.42874047
 31
0.0
  0
LINE
  8
0
  6
CENTER
 62
       2
  5
C9
 10
-158.82298936
 20
13.42874047
 30
0.0
 11
-158.62298936
 21
13.42874047
 31
0.0
  0
ARC
  8
0
  6
PHANTOM
 62
       2
  5
CA
 10
-171.21130032
 20
17.42874047
 30
0.0
 40
7.88831096
 50
338.53375422
 51
21.46624578
  0
ARC
  8
0
  6
PHANTOM
 62
       2
  5
CB
 10
-165.50026185
 20
21.75886747
 30
0.0
 40
2.17727249
 50
318.47640997
 51
41.52359003
  0
ARC
  8
0
  6
PHANTOM
 62
       2
  5
CC
 10
-165.50026186
 20
13.09861347
 30
0.0
 40
2.1772725
 50
318.47641007
 51
41.52358993
  0
LINE
  8
0
  6
CENTER
 62
       2
  5
CD
 10
-158.62298936
 20
21.42874047
 30
0.0
 11
-158.82298936
 21
21.42874047
 31
0.0
  0
LINE
  8
0
  6
CENTER
 62
       2
  5
CE
 10
-157.82298936
 20
13.42874047
 30
0.0
 11
-156.02298936
 21
13.42874047
 31
0.0
  0
LINE
  8
0
  6
CONTINUOUS
 62
       2
  5
CF
 10
99.17701064
 20
52.16874047
 30
0.0
 11
99.17701064
 21
-34.25125953
 31
0.0
  0
ARC
  8
0
  6
CONTINUOUS
 62
       2
  5
D0
 10
79.17819983
 20
-77.07016457
 30
0.0
 40
3.40118936
 50
85.12888293
 51
180.01844541
  0
ARC
  8
0
  6
CONTINUOUS
 62
       2
  5
D1
 10
79.17042581
 20
-77.06777214
 30
0.0
 40
3.40114819
 50
55.90470898
 51
68.13634224
  0
ARC
  8
0
  6
CONTINUOUS
 62
       2
  5
D2
 10
79.16790277
 20
-78.06490783
 30
0.0
 40
3.39945348
 50
224.34998041
 51
246.03302329
  0
ARC
  8
0
  6
CONTINUOUS
 62
       2
  5
D3
 10
79.17834828
 20
-78.07007945
 30
0.0
 40
3.39866257
 50
262.70870353
 51
359.98010587
  0
ARC
  8
0
  6
CONTINUOUS
 62
       2
  5
D4
 10
119.1809892
 20
-77.05920837
 30
0.0
 40
3.40399989
 50
143.4335503
 51
180.20284431
  0
ARC
  8
0
  6
CONTINUOUS
 62
       2
  5
D5
 10
119.19662087
 20
-77.05944109
 30
0.0
 40
3.40631539
 50
115.74538117
 51
126.78208222
  0
ARC
  8
0
  6
CONTINUOUS
 62
       2
  5
D6
 10
119.17947936
 20
-78.06467824
 30
0.0
 40
3.39753765
 50
318.83004797
 51
359.88901364
  0
ARC
  8
0
  6
CONTINUOUS
 62
       2
  5
D7
 10
79.17856875
 20
-77.05098418
 30
0.0
 40
3.39850237
 50
351.19398421
 51
359.65817327
  0
ARC
  8
0
  6
CONTINUOUS
 62
       2
  5
D8
 10
79.17656604
 20
-78.06944475
 30
0.0
 40
3.39955588
 50
180.03058607
 51
207.34951316
  0
ARC
  8
0
  6
CONTINUOUS
 62
       2
  5
D9
 10
119.17692797
 20
-78.07116494
 30
0.0
 40
3.39991733
 50
180.00159399
 51
260.17915067
  0
ARC
  8
0
  6
CONTINUOUS
 62
       2
  5
DA
 10
119.1735656
 20
-77.06828792
 30
0.0
 40
3.40344634
 50
359.949974
 51
98.38926583
  0
ARC
  8
0
  6
CONTINUOUS
 62
       2
  5
DB
 10
79.17780297
 20
-77.07350151
 30
0.0
 40
3.39920841
 50
0.0377899
 51
39.06620044
  0
ARC
  8
0
  6
CONTINUOUS
 62
       2
  5
DC
 10
119.1774523
 20
-76.51625953
 30
0.0
 40
3.40088642
 50
179.07335769
 51
180.92664231
  0
ARC
  8
0
  6
CONTINUOUS
 62
       2
  5
DD
 10
119.18001737
 20
-78.07019698
 30
0.0
 40
3.39554212
 50
276.88408398
 51
301.95285751
  0
LINE
  8
0
  6
CONTINUOUS
 62
       2
  5
DE
 10
82.57701064
 20
-77.07125953
 30
0.0
 11
82.57701064
 21
-78.07125953
 31
0.0
  0
LINE
  8
0
  6
CONTINUOUS
 62
       2
  5
DF
 10
74.72701064
 20
-78.07125953
 30
0.0
 11
82.87701064
 21
-78.07125953
 31
0.0
  0
LINE
  8
0
  6
CONTINUOUS
 62
       2
  5
E0
 10
75.77701064
 20
-77.07125953
 30
0.0
 11
75.77701064
 21
-78.07125953
 31
0.0
  0
LINE
  8
0
  6
CONTINUOUS
 62
       2
  5
E1
 10
122.57701064
 20
-77.07125953
 30
0.0
 11
122.57701064
 21
-78.07125953
 31
0.0
  0
LINE
  8
0
  6
CONTINUOUS
 62
       2
  5
E2
 10
71.67701064
 20
-84.99125953
 30
0.0
 11
71.67701064
 21
-97.57125953
 31
0.0
  0
LINE
  8
0
  6
CONTINUOUS
 62
       2
  5
E3
 10
115.77701064
 20
-77.07125953
 30
0.0
 11
115.77701064
 21
-78.07125953
 31
0.0
  0
LINE
  8
0
  6
CONTINUOUS
 62
       2
  5
E4
 10
74.72701064
 20
-77.07125953
 30
0.0
 11
82.97701064
 21
-77.07125953
 31
0.0
  0
LINE
  8
0
  6
CONTINUOUS
 62
       2
  5
E5
 10
71.67701064
 20
-97.57125953
 30
0.0
 11
82.59701064
 21
-97.57125953
 31
0.0
  0
LINE
  8
0
  6
CONTINUOUS
 62
       2
  5
E6
 10
71.67701064
 20
-72.57125953
 30
0.0
 11
71.67701064
 21
-81.49125953
 31
0.0
  0
LINE
  8
0
  6
CONTINUOUS
 62
       2
  5
E7
 10
74.72701064
 20
-77.57125953
 30
0.0
 11
83.03701064
 21
-77.57125953
 31
0.0
  0
LINE
  8
0
  6
CONTINUOUS
 62
       2
  5
E8
 10
119.17701064
 20
-72.66125953
 30
0.0
 11
119.17701064
 21
-82.49125953
 31
0.0
  0
LINE
  8
0
  6
CONTINUOUS
 62
       2
  5
E9
 10
79.17701064
 20
-72.63125953
 30
0.0
 11
79.17701064
 21
-82.45125953
 31
0.0
  0
LINE
  8
0
  6
CONTINUOUS
 62
       2
  5
EA
 10
80.97701064
 20
-93.07125953
 30
0.0
 11
83.34701064
 21
-93.07125953
 31
0.0
  0
LINE
  8
0
  6
CONTINUOUS
 62
       2
  5
EB
 10
71.67701064
 20
-93.07125953
 30
0.0
 11
74.47701064
 21
-93.07125953
 31
0.0
  0
LINE
  8
0
  6
CONTINUOUS
 62
       2
  5
EC
 10
78.34701064
 20
-93.07125953
 30
0.0
 11
79.97701064
 21
-93.07125953
 31
0.0
  0
LINE
  8
0
  6
CONTINUOUS
 62
       2
  5
ED
 10
84.34701064
 20
-93.07125953
 30
0.0
 11
86.22701064
 21
-93.07125953
 31
0.0
  0
LINE
  8
0
  6
CONTINUOUS
 62
       2
  5
EE
 10
126.67701064
 20
-72.57125953
 30
0.0
 11
126.67701064
 21
-83.49125953
 31
0.0
  0
LINE
  8
0
  6
CONTINUOUS
 62
       2
  5
EF
 10
114.22701064
 20
-93.07125953
 30
0.0
 11
116.84701064
 21
-93.07125953
 31
0.0
  0
LINE
  8
0
  6
CONTINUOUS
 62
       2
  5
F0
 10
120.84701064
 20
-93.07125953
 30
0.0
 11
122.72701064
 21
-93.07125953
 31
0.0
  0
LINE
  8
0
  6
CONTINUOUS
 62
       2
  5
F1
 10
123.72701064
 20
-93.07125953
 30
0.0
 11
126.67701064
 21
-93.07125953
 31
0.0
  0
LINE
  8
0
  6
CONTINUOUS
 62
       2
  5
F2
 10
117.84701064
 20
-93.07125953
 30
0.0
 11
119.84701064
 21
-93.07125953
 31
0.0
  0
LINE
  8
0
  6
CONTINUOUS
 62
       2
  5
F3
 10
115.22701064
 20
-97.57125953
 30
0.0
 11
116.97701064
 21
-97.57125953
 31
0.0
  0
LINE
  8
0
  6
CONTINUOUS
 62
       2
  5
F4
 10
83.59701064
 20
-97.57125953
 30
0.0
 11
85.59701064
 21
-97.57125953
 31
0.0
  0
LINE
  8
0
  6
CONTINUOUS
 62
       2
  5
F5
 10
126.67701064
 20
-86.61125953
 30
0.0
 11
126.67701064
 21
-97.57125953
 31
0.0
  0
LINE
  8
0
  6
CONTINUOUS
 62
       2
  5
F6
 10
117.97701064
 20
-97.57125953
 30
0.0
 11
126.67701064
 21
-97.57125953
 31
0.0
  0
LINE
  8
0
  6
CONTINUOUS
 62
       2
  5
F7
 10
86.59701064
 20
-97.57125953
 30
0.0
 11
114.22701064
 21
-97.57125953
 31
0.0
  0
LINE
  8
0
  6
CONTINUOUS
 62
       2
  5
F8
 10
71.67701064
 20
-82.49125953
 30
0.0
 11
71.67701064
 21
-83.99125953
 31
0.0
  0
LINE
  8
0
  6
CONTINUOUS
 62
       2
  5
F9
 10
104.34701064
 20
-93.07125953
 30
0.0
 11
107.84701064
 21
-93.07125953
 31
0.0
  0
LINE
  8
0
  6
CONTINUOUS
 62
       2
  5
FA
 10
101.22701064
 20
-93.07125953
 30
0.0
 11
103.34701064
 21
-93.07125953
 31
0.0
  0
LINE
  8
0
  6
CONTINUOUS
 62
       2
  5
FB
 10
108.84701064
 20
-93.07125953
 30
0.0
 11
110.59701064
 21
-93.07125953
 31
0.0
  0
LINE
  8
0
  6
CONTINUOUS
 62
       2
  5
FC
 10
126.67701064
 20
-84.49125953
 30
0.0
 11
126.67701064
 21
-85.61125953
 31
0.0
  0
LINE
  8
0
  6
CONTINUOUS
 62
       2
  5
FD
 10
115.33701064
 20
-77.57125953
 30
0.0
 11
122.99701064
 21
-77.57125953
 31
0.0
  0
LINE
  8
0
  6
CONTINUOUS
 62
       2
  5
FE
 10
94.09701064
 20
-93.07125953
 30
0.0
 11
96.59701064
 21
-93.07125953
 31
0.0
  0
LINE
  8
0
  6
CONTINUOUS
 62
       2
  5
FF
 10
97.59701064
 20
-93.07125953
 30
0.0
 11
100.22701064
 21
-93.07125953
 31
0.0
  0
LINE
  8
0
  6
CONTINUOUS
 62
       2
  5
100
 10
90.09701064
 20
-93.07125953
 30
0.0
 11
93.09701064
 21
-93.07125953
 31
0.0
  0
LINE
  8
0
  6
CONTINUOUS
 62
       2
  5
101
 10
111.59701064
 20
-93.07125953
 30
0.0
 11
113.22701064
 21
-93.07125953
 31
0.0
  0
LINE
  8
0
  6
CONTINUOUS
 62
       2
  5
102
 10
87.22701064
 20
-93.07125953
 30
0.0
 11
89.09701064
 21
-93.07125953
 31
0.0
  0
LINE
  8
0
  6
CONTINUOUS
 62
       2
  5
103
 10
75.47701064
 20
-93.07125953
 30
0.0
 11
77.34701064
 21
-93.07125953
 31
0.0
  0
LINE
  8
0
  6
CONTINUOUS
 62
       2
  5
104
 10
218.57701064
 20
14.42874047
 30
0.0
 11
182.17701064
 21
14.42874047
 31
0.0
  0
LINE
  8
0
  6
CONTINUOUS
 62
       2
  5
105
 10
218.32701064
 20
20.42874047
 30
0.0
 11
182.17701064
 21
20.42874047
 31
0.0
  0
LINE
  8
0
  6
CONTINUOUS
 62
       7
  5
106
 10
217.17701064
 20
19.92874047
 30
0.0
 11
212.04701064
 21
19.92874047
 31
0.0
  0
LINE
  8
0
  6
CONTINUOUS
 62
       7
  5
107
 10
212.04701064
 20
20.92874047
 30
0.0
 11
217.17701064
 21
20.92874047
 31
0.0
  0
LINE
  8
0
  6
CONTINUOUS
 62
       7
  5
108
 10
217.17701064
 20
13.92874047
 30
0.0
 11
212.04701064
 21
13.92874047
 31
0.0
  0
LINE
  8
0
  6
CONTINUOUS
 62
       7
  5
109
 10
212.04701064
 20
14.92874047
 30
0.0
 11
217.17701064
 21
14.92874047
 31
0.0
  0
POLYLINE
  8
0
  6
CONTINUOUS
 62
       7
  5
10A
 66
       1
 10
0.0
 20
0.0
 30
0.0
  0
VERTEX
  8
0
  6
CONTINUOUS
 62
       7
  5
27C
 10
129.67701064
 20
-3.57125953
 30
0.0
  0
VERTEX
  8
0
  6
CONTINUOUS
 62
       7
  5
27D
 10
129.18714062
 20
-3.45261642
 30
0.0
  0
VERTEX
  8
0
  6
CONTINUOUS
 62
       7
  5
27E
 10
128.69530988
 20
-3.34115412
 30
0.0
  0
VERTEX
  8
0
  6
CONTINUOUS
 62
       7
  5
27F
 10
128.20164915
 20
-3.23693796
 30
0.0
  0
VERTEX
  8
0
  6
CONTINUOUS
 62
       7
  5
280
 10
127.70628915
 20
-3.1400333
 30
0.0
  0
VERTEX
  8
0
  6
CONTINUOUS
 62
       7
  5
281
 10
127.20936062
 20
-3.05050547
 30
0.0
  0
VERTEX
  8
0
  6
CONTINUOUS
 62
       7
  5
282
 10
126.71099426
 20
-2.96841983
 30
0.0
  0
VERTEX
  8
0
  6
CONTINUOUS
 62
       7
  5
283
 10
126.21132082
 20
-2.89384172
 30
0.0
  0
VERTEX
  8
0
  6
CONTINUOUS
 62
       7
  5
284
 10
125.71047102
 20
-2.82683648
 30
0.0
  0
VERTEX
  8
0
  6
CONTINUOUS
 62
       7
  5
285
 10
125.20857557
 20
-2.76746946
 30
0.0
  0
VERTEX
  8
0
  6
CONTINUOUS
 62
       7
  5
286
 10
124.70576522
 20
-2.71580601
 30
0.0
  0
VERTEX
  8
0
  6
CONTINUOUS
 62
       7
  5
287
 10
124.20217069
 20
-2.67191146
 30
0.0
  0
VERTEX
  8
0
  6
CONTINUOUS
 62
       7
  5
288
 10
123.69792269
 20
-2.63585118
 30
0.0
  0
VERTEX
  8
0
  6
CONTINUOUS
 62
       7
  5
289
 10
123.19315196
 20
-2.6076905
 30
0.0
  0
VERTEX
  8
0
  6
CONTINUOUS
 62
       7
  5
28A
 10
122.68798923
 20
-2.58749477
 30
0.0
  0
VERTEX
  8
0
  6
CONTINUOUS
 62
       7
  5
28B
 10
122.18256521
 20
-2.57532933
 30
0.0
  0
VERTEX
  8
0
  6
CONTINUOUS
 62
       7
  5
28C
 10
121.67701064
 20
-2.57125953
 30
0.0
  0
VERTEX
  8
0
  6
CONTINUOUS
 62
       7
  5
28D
 10
121.17145608
 20
-2.57532901
 30
0.0
  0
VERTEX
  8
0
  6
CONTINUOUS
 62
       7
  5
28E
 10
120.66603208
 20
-2.58749425
 30
0.0
  0
VERTEX
  8
0
  6
CONTINUOUS
 62
       7
  5
28F
 10
120.16086938
 20
-2.6076899
 30
0.0
  0
VERTEX
  8
0
  6
CONTINUOUS
 62
       7
  5
290
 10
119.65609868
 20
-2.6358506
 30
0.0
  0
VERTEX
  8
0
  6
CONTINUOUS
 62
       7
  5
291
 10
119.15185073
 20
-2.67191097
 30
0.0
  0
VERTEX
  8
0
  6
CONTINUOUS
 62
       7
  5
292
 10
118.64825623
 20
-2.71580565
 30
0.0
  0
VERTEX
  8
0
  6
CONTINUOUS
 62
       7
  5
293
 10
118.14544592
 20
-2.76746928
 30
0.0
  0
VERTEX
  8
0
  6
CONTINUOUS
 62
       7
  5
294
 10
117.64355051
 20
-2.8268365
 30
0.0
  0
VERTEX
  8
0
  6
CONTINUOUS
 62
       7
  5
295
 10
117.14270073
 20
-2.89384193
 30
0.0
  0
VERTEX
  8
0
  6
CONTINUOUS
 62
       7
  5
296
 10
116.64302731
 20
-2.96842022
 30
0.0
  0
VERTEX
  8
0
  6
CONTINUOUS
 62
       7
  5
297
 10
116.14466096
 20
-3.050506
 30
0.0
  0
VERTEX
  8
0
  6
CONTINUOUS
 62
       7
  5
298
 10
115.6477324
 20
-3.14003391
 30
0.0
  0
VERTEX
  8
0
  6
CONTINUOUS
 62
       7
  5
299
 10
115.15237237
 20
-3.23693858
 30
0.0
  0
VERTEX
  8
0
  6
CONTINUOUS
 62
       7
  5
29A
 10
114.65871159
 20
-3.34115465
 30
0.0
  0
VERTEX
  8
0
  6
CONTINUOUS
 62
       7
  5
29B
 10
114.16688077
 20
-3.45261676
 30
0.0
  0
VERTEX
  8
0
  6
CONTINUOUS
 62
       7
  5
29C
 10
113.67701064
 20
-3.57125953
 30
0.0
  0
SEQEND
  8
0
  6
CONTINUOUS
 62
       7
  5
29D
  0
POLYLINE
  8
0
  6
CONTINUOUS
 62
       7
  5
10B
 66
       1
 10
0.0
 20
0.0
 30
0.0
  0
VERTEX
  8
0
  6
CONTINUOUS
 62
       7
  5
29E
 10
142.17701064
 20
-4.57125953
 30
0.0
  0
VERTEX
  8
0
  6
CONTINUOUS
 62
       7
  5
29F
 10
142.1870146
 20
-4.63327643
 30
0.0
  0
VERTEX
  8
0
  6
CONTINUOUS
 62
       7
  5
2A0
 10
142.19605183
 20
-4.69599894
 30
0.0
  0
VERTEX
  8
0
  6
CONTINUOUS
 62
       7
  5
2A1
 10
142.20404367
 20
-4.75928964
 30
0.0
  0
VERTEX
  8
0
  6
CONTINUOUS
 62
       7
  5
2A2
 10
142.21091145
 20
-4.82301116
 30
0.0
  0
VERTEX
  8
0
  6
CONTINUOUS
 62
       7
  5
2A3
 10
142.21657648
 20
-4.88702608
 30
0.0
  0
VERTEX
  8
0
  6
CONTINUOUS
 62
       7
  5
2A4
 10
142.2209601
 20
-4.95119701
 30
0.0
  0
VERTEX
  8
0
  6
CONTINUOUS
 62
       7
  5
2A5
 10
142.22398363
 20
-5.01538656
 30
0.0
  0
VERTEX
  8
0
  6
CONTINUOUS
 62
       7
  5
2A6
 10
142.2255684
 20
-5.07945733
 30
0.0
  0
VERTEX
  8
0
  6
CONTINUOUS
 62
       7
  5
2A7
 10
142.22563575
 20
-5.14327191
 30
0.0
  0
VERTEX
  8
0
  6
CONTINUOUS
 62
       7
  5
2A8
 10
142.22410699
 20
-5.20669291
 30
0.0
  0
VERTEX
  8
0
  6
CONTINUOUS
 62
       7
  5
2A9
 10
142.22090346
 20
-5.26958294
 30
0.0
  0
VERTEX
  8
0
  6
CONTINUOUS
 62
       7
  5
2AA
 10
142.21594648
 20
-5.3318046
 30
0.0
  0
VERTEX
  8
0
  6
CONTINUOUS
 62
       7
  5
2AB
 10
142.20915738
 20
-5.39322048
 30
0.0
  0
VERTEX
  8
0
  6
CONTINUOUS
 62
       7
  5
2AC
 10
142.20045749
 20
-5.4536932
 30
0.0
  0
VERTEX
  8
0
  6
CONTINUOUS
 62
       7
  5
2AD
 10
142.18976813
 20
-5.51308534
 30
0.0
  0
VERTEX
  8
0
  6
CONTINUOUS
 62
       7
  5
2AE
 10
142.17701064
 20
-5.57125953
 30
0.0
  0
VERTEX
  8
0
  6
CONTINUOUS
 62
       7
  5
2AF
 10
142.10915359
 20
-5.78058536
 30
0.0
  0
VERTEX
  8
0
  6
CONTINUOUS
 62
       7
  5
2B0
 10
142.0121108
 20
-5.97100725
 30
0.0
  0
VERTEX
  8
0
  6
CONTINUOUS
 62
       7
  5
2B1
 10
141.88782512
 20
-6.14327387
 30
0.0
  0
VERTEX
  8
0
  6
CONTINUOUS
 62
       7
  5
2B2
 10
141.73823942
 20
-6.2981339
 30
0.0
  0
VERTEX
  8
0
  6
CONTINUOUS
 62
       7
  5
2B3
 10
141.56529657
 20
-6.43633603
 30
0.0
  0
VERTEX
  8
0
  6
CONTINUOUS
 62
       7
  5
2B4
 10
141.37093941
 20
-6.55862892
 30
0.0
  0
VERTEX
  8
0
  6
CONTINUOUS
 62
       7
  5
2B5
 10
141.15711082
 20
-6.66576127
 30
0.0
  0
VERTEX
  8
0
  6
CONTINUOUS
 62
       7
  5
2B6
 10
140.92575364
 20
-6.75848174
 30
0.0
  0
VERTEX
  8
0
  6
CONTINUOUS
 62
       7
  5
2B7
 10
140.67881075
 20
-6.83753901
 30
0.0
  0
VERTEX
  8
0
  6
CONTINUOUS
 62
       7
  5
2B8
 10
140.41822499
 20
-6.90368178
 30
0.0
  0
VERTEX
  8
0
  6
CONTINUOUS
 62
       7
  5
2B9
 10
140.14593924
 20
-6.9576587
 30
0.0
  0
VERTEX
  8
0
  6
CONTINUOUS
 62
       7
  5
2BA
 10
139.86389636
 20
-7.00021847
 30
0.0
  0
VERTEX
  8
0
  6
CONTINUOUS
 62
       7
  5
2BB
 10
139.57403919
 20
-7.03210976
 30
0.0
  0
VERTEX
  8
0
  6
CONTINUOUS
 62
       7
  5
2BC
 10
139.27831061
 20
-7.05408124
 30
0.0
  0
VERTEX
  8
0
  6
CONTINUOUS
 62
       7
  5
2BD
 10
138.97865347
 20
-7.06688161
 30
0.0
  0
VERTEX
  8
0
  6
CONTINUOUS
 62
       7
  5
2BE
 10
138.67701064
 20
-7.07125953
 30
0.0
  0
VERTEX
  8
0
  6
CONTINUOUS
 62
       7
  5
2BF
 10
138.37386978
 20
-7.06767807
 30
0.0
  0
VERTEX
  8
0
  6
CONTINUOUS
 62
       7
  5
2C0
 10
138.07264961
 20
-7.05559429
 30
0.0
  0
VERTEX
  8
0
  6
CONTINUOUS
 62
       7
  5
2C1
 10
137.77531401
 20
-7.03425386
 30
0.0
  0
VERTEX
  8
0
  6
CONTINUOUS
 62
       7
  5
2C2
 10
137.48382685
 20
-7.00290247
 30
0.0
  0
VERTEX
  8
0
  6
CONTINUOUS
 62
       7
  5
2C3
 10
137.20015201
 20
-6.9607858
 30
0.0
  0
VERTEX
  8
0
  6
CONTINUOUS
 62
       7
  5
2C4
 10
136.92625337
 20
-6.90714954
 30
0.0
  0
VERTEX
  8
0
  6
CONTINUOUS
 62
       7
  5
2C5
 10
136.6640948
 20
-6.84123937
 30
0.0
  0
VERTEX
  8
0
  6
CONTINUOUS
 62
       7
  5
2C6
 10
136.41564018
 20
-6.76230096
 30
0.0
  0
VERTEX
  8
0
  6
CONTINUOUS
 62
       7
  5
2C7
 10
136.18285339
 20
-6.66958002
 30
0.0
  0
VERTEX
  8
0
  6
CONTINUOUS
 62
       7
  5
2C8
 10
135.9676983
 20
-6.56232221
 30
0.0
  0
VERTEX
  8
0
  6
CONTINUOUS
 62
       7
  5
2C9
 10
135.77213879
 20
-6.43977322
 30
0.0
  0
VERTEX
  8
0
  6
CONTINUOUS
 62
       7
  5
2CA
 10
135.59813874
 20
-6.30117874
 30
0.0
  0
VERTEX
  8
0
  6
CONTINUOUS
 62
       7
  5
2CB
 10
135.44766202
 20
-6.14578444
 30
0.0
  0
VERTEX
  8
0
  6
CONTINUOUS
 62
       7
  5
2CC
 10
135.32267251
 20
-5.97283602
 30
0.0
  0
VERTEX
  8
0
  6
CONTINUOUS
 62
       7
  5
2CD
 10
135.2251341
 20
-5.78157916
 30
0.0
  0
VERTEX
  8
0
  6
CONTINUOUS
 62
       7
  5
2CE
 10
135.15701064
 20
-5.57125953
 30
0.0
  0
VERTEX
  8
0
  6
CONTINUOUS
 62
       7
  5
2CF
 10
135.14427996
 20
-5.51308167
 30
0.0
  0
VERTEX
  8
0
  6
CONTINUOUS
 62
       7
  5
2D0
 10
135.13361389
 20
-5.45368737
 30
0.0
  0
VERTEX
  8
0
  6
CONTINUOUS
 62
       7
  5
2D1
 10
135.12493374
 20
-5.3932138
 30
0.0
  0
VERTEX
  8
0
  6
CONTINUOUS
 62
       7
  5
2D2
 10
135.11816084
 20
-5.33179815
 30
0.0
  0
VERTEX
  8
0
  6
CONTINUOUS
 62
       7
  5
2D3
 10
135.1132165
 20
-5.26957758
 30
0.0
  0
VERTEX
  8
0
  6
CONTINUOUS
 62
       7
  5
2D4
 10
135.11002203
 20
-5.20668927
 30
0.0
  0
VERTEX
  8
0
  6
CONTINUOUS
 62
       7
  5
2D5
 10
135.10849876
 20
-5.1432704
 30
0.0
  0
VERTEX
  8
0
  6
CONTINUOUS
 62
       7
  5
2D6
 10
135.10856801
 20
-5.07945815
 30
0.0
  0
VERTEX
  8
0
  6
CONTINUOUS
 62
       7
  5
2D7
 10
135.11015109
 20
-5.01538969
 30
0.0
  0
VERTEX
  8
0
  6
CONTINUOUS
 62
       7
  5
2D8
 10
135.11316932
 20
-4.9512022
 30
0.0
  0
VERTEX
  8
0
  6
CONTINUOUS
 62
       7
  5
2D9
 10
135.11754401
 20
-4.88703286
 30
0.0
  0
VERTEX
  8
0
  6
CONTINUOUS
 62
       7
  5
2DA
 10
135.1231965
 20
-4.82301884
 30
0.0
  0
VERTEX
  8
0
  6
CONTINUOUS
 62
       7
  5
2DB
 10
135.13004808
 20
-4.75929732
 30
0.0
  0
VERTEX
  8
0
  6
CONTINUOUS
 62
       7
  5
2DC
 10
135.13802009
 20
-4.69600548
 30
0.0
  0
VERTEX
  8
0
  6
CONTINUOUS
 62
       7
  5
2DD
 10
135.14703384
 20
-4.63328049
 30
0.0
  0
VERTEX
  8
0
  6
CONTINUOUS
 62
       7
  5
2DE
 10
135.15701064
 20
-4.57125953
 30
0.0
  0
SEQEND
  8
0
  6
CONTINUOUS
 62
       7
  5
2DF
  0
POLYLINE
  8
0
  6
CONTINUOUS
 62
       7
  5
10C
 66
       1
 10
0.0
 20
0.0
 30
0.0
 70
       1
  0
VERTEX
  8
0
  6
CONTINUOUS
 62
       7
  5
2E0
 10
113.6770095
 20
17.42873284
 30
0.0
  0
VERTEX
  8
0
  6
CONTINUOUS
 62
       7
  5
2E1
 10
113.70745136
 20
16.86222065
 30
0.0
  0
VERTEX
  8
0
  6
CONTINUOUS
 62
       7
  5
2E2
 10
113.79854637
 20
16.3000199
 30
0.0
  0
VERTEX
  8
0
  6
CONTINUOUS
 62
       7
  5
2E3
 10
113.94960122
 20
15.74640928
 30
0.0
  0
VERTEX
  8
0
  6
CONTINUOUS
 62
       7
  5
2E4
 10
114.1594663
 20
15.2056021
 30
0.0
  0
VERTEX
  8
0
  6
CONTINUOUS
 62
       7
  5
2E5
 10
114.4265444
 20
14.68171423
 30
0.0
  0
VERTEX
  8
0
  6
CONTINUOUS
 62
       7
  5
2E6
 10
114.74880291
 20
14.17873277
 30
0.0
  0
VERTEX
  8
0
  6
CONTINUOUS
 62
       7
  5
2E7
 10
115.12378924
 20
13.70048572
 30
0.0
  0
VERTEX
  8
0
  6
CONTINUOUS
 62
       7
  5
2E8
 10
115.54864952
 20
13.25061282
 30
0.0
  0
VERTEX
  8
0
  6
CONTINUOUS
 62
       7
  5
2E9
 10
116.02015031
 20
12.83253788
 30
0.0
  0
VERTEX
  8
0
  6
CONTINUOUS
 62
       7
  5
2EA
 10
116.53470319
 20
12.4494427
 30
0.0
  0
VERTEX
  8
0
  6
CONTINUOUS
 62
       7
  5
2EB
 10
117.08839212
 20
12.10424286
 30
0.0
  0
VERTEX
  8
0
  6
CONTINUOUS
 62
       7
  5
2EC
 10
117.67700318
 20
11.79956555
 30
0.0
  0
VERTEX
  8
0
  6
CONTINUOUS
 62
       7
  5
2ED
 10
118.29605668
 20
11.53772955
 30
0.0
  0
VERTEX
  8
0
  6
CONTINUOUS
 62
       7
  5
2EE
 10
118.94084127
 20
11.32072758
 30
0.0
  0
VERTEX
  8
0
  6
CONTINUOUS
 62
       7
  5
2EF
 10
119.60644973
 20
11.15021116
 30
0.0
  0
VERTEX
  8
0
  6
CONTINUOUS
 62
       7
  5
2F0
 10
120.28781639
 20
11.02747802
 30
0.0
  0
VERTEX
  8
0
  6
CONTINUOUS
 62
       7
  5
2F1
 10
120.97975564
 20
10.95346224
 30
0.0
  0
VERTEX
  8
0
  6
CONTINUOUS
 62
       7
  5
2F2
 10
121.67700139
 20
10.92872712
 30
0.0
  0
VERTEX
  8
0
  6
CONTINUOUS
 62
       7
  5
2F3
 10
122.37424719
 20
10.95346091
 30
0.0
  0
VERTEX
  8
0
  6
CONTINUOUS
 62
       7
  5
2F4
 10
123.06618658
 20
11.02747537
 30
0.0
  0
VERTEX
  8
0
  6
CONTINUOUS
 62
       7
  5
2F5
 10
123.74755347
 20
11.15020721
 30
0.0
  0
VERTEX
  8
0
  6
CONTINUOUS
 62
       7
  5
2F6
 10
124.41316226
 20
11.32072236
 30
0.0
  0
VERTEX
  8
0
  6
CONTINUOUS
 62
       7
  5
2F7
 10
125.05794726
 20
11.5377231
 30
0.0
  0
VERTEX
  8
0
  6
CONTINUOUS
 62
       7
  5
2F8
 10
125.67700127
 20
11.79955792
 30
0.0
  0
VERTEX
  8
0
  6
CONTINUOUS
 62
       7
  5
2F9
 10
126.26561291
 20
12.10423411
 30
0.0
  0
VERTEX
  8
0
  6
CONTINUOUS
 62
       7
  5
2FA
 10
126.81930249
 20
12.44943289
 30
0.0
  0
VERTEX
  8
0
  6
CONTINUOUS
 62
       7
  5
2FB
 10
127.33385611
 20
12.83252709
 30
0.0
  0
VERTEX
  8
0
  6
CONTINUOUS
 62
       7
  5
2FC
 10
127.80535769
 20
13.25060113
 30
0.0
  0
VERTEX
  8
0
  6
CONTINUOUS
 62
       7
  5
2FD
 10
128.23021883
 20
13.70047322
 30
0.0
  0
VERTEX
  8
0
  6
CONTINUOUS
 62
       7
  5
2FE
 10
128.60520607
 20
14.17871956
 30
0.0
  0
VERTEX
  8
0
  6
CONTINUOUS
 62
       7
  5
2FF
 10
128.92746554
 20
14.6817004
 30
0.0
  0
VERTEX
  8
0
  6
CONTINUOUS
 62
       7
  5
300
 10
129.19454464
 20
15.20558776
 30
0.0
  0
VERTEX
  8
0
  6
CONTINUOUS
 62
       7
  5
301
 10
129.40441075
 20
15.74639454
 30
0.0
  0
VERTEX
  8
0
  6
CONTINUOUS
 62
       7
  5
302
 10
129.55546666
 20
16.30000487
 30
0.0
  0
VERTEX
  8
0
  6
CONTINUOUS
 62
       7
  5
303
 10
129.64656273
 20
16.86220545
 30
0.0
  0
VERTEX
  8
0
  6
CONTINUOUS
 62
       7
  5
304
 10
129.67700568
 20
17.42871758
 30
0.0
  0
VERTEX
  8
0
  6
CONTINUOUS
 62
       7
  5
305
 10
129.64656381
 20
17.99522977
 30
0.0
  0
VERTEX
  8
0
  6
CONTINUOUS
 62
       7
  5
306
 10
129.55546881
 20
18.55743052
 30
0.0
  0
VERTEX
  8
0
  6
CONTINUOUS
 62
       7
  5
307
 10
129.40441396
 20
19.11104114
 30
0.0
  0
VERTEX
  8
0
  6
CONTINUOUS
 62
       7
  5
308
 10
129.19454888
 20
19.65184832
 30
0.0
  0
VERTEX
  8
0
  6
CONTINUOUS
 62
       7
  5
309
 10
128.92747078
 20
20.17573619
 30
0.0
  0
VERTEX
  8
0
  6
CONTINUOUS
 62
       7
  5
30A
 10
128.60521227
 20
20.67871765
 30
0.0
  0
VERTEX
  8
0
  6
CONTINUOUS
 62
       7
  5
30B
 10
128.23022594
 20
21.1569647
 30
0.0
  0
VERTEX
  8
0
  6
CONTINUOUS
 62
       7
  5
30C
 10
127.80536566
 20
21.6068376
 30
0.0
  0
VERTEX
  8
0
  6
CONTINUOUS
 62
       7
  5
30D
 10
127.33386487
 20
22.02491255
 30
0.0
  0
VERTEX
  8
0
  6
CONTINUOUS
 62
       7
  5
30E
 10
126.81931199
 20
22.40800773
 30
0.0
  0
VERTEX
  8
0
  6
CONTINUOUS
 62
       7
  5
30F
 10
126.26562306
 20
22.75320756
 30
0.0
  0
VERTEX
  8
0
  6
CONTINUOUS
 62
       7
  5
310
 10
125.677012
 20
23.05788487
 30
0.0
  0
VERTEX
  8
0
  6
CONTINUOUS
 62
       7
  5
311
 10
125.0579585
 20
23.31972087
 30
0.0
  0
VERTEX
  8
0
  6
CONTINUOUS
 62
       7
  5
312
 10
124.41317391
 20
23.53672284
 30
0.0
  0
VERTEX
  8
0
  6
CONTINUOUS
 62
       7
  5
313
 10
123.74756544
 20
23.70723927
 30
0.0
  0
VERTEX
  8
0
  6
CONTINUOUS
 62
       7
  5
314
 10
123.06619878
 20
23.8299724
 30
0.0
  0
VERTEX
  8
0
  6
CONTINUOUS
 62
       7
  5
315
 10
122.37425954
 20
23.90398818
 30
0.0
  0
VERTEX
  8
0
  6
CONTINUOUS
 62
       7
  5
316
 10
121.67701379
 20
23.9287233
 30
0.0
  0
VERTEX
  8
0
  6
CONTINUOUS
 62
       7
  5
317
 10
120.97976799
 20
23.90398951
 30
0.0
  0
VERTEX
  8
0
  6
CONTINUOUS
 62
       7
  5
318
 10
120.2878286
 20
23.82997505
 30
0.0
  0
VERTEX
  8
0
  6
CONTINUOUS
 62
       7
  5
319
 10
119.60646171
 20
23.70724321
 30
0.0
  0
VERTEX
  8
0
  6
CONTINUOUS
 62
       7
  5
31A
 10
118.94085292
 20
23.53672806
 30
0.0
  0
VERTEX
  8
0
  6
CONTINUOUS
 62
       7
  5
31B
 10
118.29606792
 20
23.31972732
 30
0.0
  0
VERTEX
  8
0
  6
CONTINUOUS
 62
       7
  5
31C
 10
117.67701391
 20
23.0578925
 30
0.0
  0
VERTEX
  8
0
  6
CONTINUOUS
 62
       7
  5
31D
 10
117.08840227
 20
22.75321631
 30
0.0
  0
VERTEX
  8
0
  6
CONTINUOUS
 62
       7
  5
31E
 10
116.53471269
 20
22.40801753
 30
0.0
  0
VERTEX
  8
0
  6
CONTINUOUS
 62
       7
  5
31F
 10
116.02015907
 20
22.02492334
 30
0.0
  0
VERTEX
  8
0
  6
CONTINUOUS
 62
       7
  5
320
 10
115.54865749
 20
21.60684929
 30
0.0
  0
VERTEX
  8
0
  6
CONTINUOUS
 62
       7
  5
321
 10
115.12379635
 20
21.1569772
 30
0.0
  0
VERTEX
  8
0
  6
CONTINUOUS
 62
       7
  5
322
 10
114.74880911
 20
20.67873087
 30
0.0
  0
VERTEX
  8
0
  6
CONTINUOUS
 62
       7
  5
323
 10
114.42654964
 20
20.17575002
 30
0.0
  0
VERTEX
  8
0
  6
CONTINUOUS
 62
       7
  5
324
 10
114.15947054
 20
19.65186266
 30
0.0
  0
VERTEX
  8
0
  6
CONTINUOUS
 62
       7
  5
325
 10
113.94960443
 20
19.11105588
 30
0.0
  0
VERTEX
  8
0
  6
CONTINUOUS
 62
       7
  5
326
 10
113.79854852
 20
18.55744555
 30
0.0
  0
VERTEX
  8
0
  6
CONTINUOUS
 62
       7
  5
327
 10
113.70745245
 20
17.99524497
 30
0.0
  0
VERTEX
  8
0
  6
CONTINUOUS
 62
       7
  5
328
 10
113.6770095
 20
17.42873284
 30
0.0
  0
SEQEND
  8
0
  6
CONTINUOUS
 62
       7
  5
329
  0
POLYLINE
  8
0
  6
CONTINUOUS
 62
       7
  5
10D
 66
       1
 10
0.0
 20
0.0
 30
0.0
  0
VERTEX
  8
0
  6
CONTINUOUS
 62
       7
  5
32A
 10
142.17701064
 20
39.42874047
 30
0.0
  0
VERTEX
  8
0
  6
CONTINUOUS
 62
       7
  5
32B
 10
142.18701464
 20
39.49075736
 30
0.0
  0
VERTEX
  8
0
  6
CONTINUOUS
 62
       7
  5
32C
 10
142.1960519
 20
39.55347986
 30
0.0
  0
VERTEX
  8
0
  6
CONTINUOUS
 62
       7
  5
32D
 10
142.20404375
 20
39.61677056
 30
0.0
  0
VERTEX
  8
0
  6
CONTINUOUS
 62
       7
  5
32E
 10
142.21091152
 20
39.68049206
 30
0.0
  0
VERTEX
  8
0
  6
CONTINUOUS
 62
       7
  5
32F
 10
142.21657655
 20
39.74450698
 30
0.0
  0
VERTEX
  8
0
  6
CONTINUOUS
 62
       7
  5
330
 10
142.22096015
 20
39.80867791
 30
0.0
  0
VERTEX
  8
0
  6
CONTINUOUS
 62
       7
  5
331
 10
142.22398367
 20
39.87286745
 30
0.0
  0
VERTEX
  8
0
  6
CONTINUOUS
 62
       7
  5
332
 10
142.22556842
 20
39.93693821
 30
0.0
  0
VERTEX
  8
0
  6
CONTINUOUS
 62
       7
  5
333
 10
142.22563574
 20
40.00075279
 30
0.0
  0
VERTEX
  8
0
  6
CONTINUOUS
 62
       7
  5
334
 10
142.22410696
 20
40.06417379
 30
0.0
  0
VERTEX
  8
0
  6
CONTINUOUS
 62
       7
  5
335
 10
142.22090342
 20
40.12706382
 30
0.0
  0
VERTEX
  8
0
  6
CONTINUOUS
 62
       7
  5
336
 10
142.21594643
 20
40.18928548
 30
0.0
  0
VERTEX
  8
0
  6
CONTINUOUS
 62
       7
  5
337
 10
142.20915732
 20
40.25070138
 30
0.0
  0
VERTEX
  8
0
  6
CONTINUOUS
 62
       7
  5
338
 10
142.20045744
 20
40.3111741
 30
0.0
  0
VERTEX
  8
0
  6
CONTINUOUS
 62
       7
  5
339
 10
142.1897681
 20
40.37056627
 30
0.0
  0
VERTEX
  8
0
  6
CONTINUOUS
 62
       7
  5
33A
 10
142.17701064
 20
40.42874047
 30
0.0
  0
VERTEX
  8
0
  6
CONTINUOUS
 62
       7
  5
33B
 10
142.10915373
 20
40.63806636
 30
0.0
  0
VERTEX
  8
0
  6
CONTINUOUS
 62
       7
  5
33C
 10
142.01211104
 20
40.82848827
 30
0.0
  0
VERTEX
  8
0
  6
CONTINUOUS
 62
       7
  5
33D
 10
141.88782543
 20
41.00075487
 30
0.0
  0
VERTEX
  8
0
  6
CONTINUOUS
 62
       7
  5
33E
 10
141.73823978
 20
41.15561486
 30
0.0
  0
VERTEX
  8
0
  6
CONTINUOUS
 62
       7
  5
33F
 10
141.56529694
 20
41.29381691
 30
0.0
  0
VERTEX
  8
0
  6
CONTINUOUS
 62
       7
  5
340
 10
141.37093978
 20
41.41610973
 30
0.0
  0
VERTEX
  8
0
  6
CONTINUOUS
 62
       7
  5
341
 10
141.15711116
 20
41.52324199
 30
0.0
  0
VERTEX
  8
0
  6
CONTINUOUS
 62
       7
  5
342
 10
140.92575395
 20
41.61596237
 30
0.0
  0
VERTEX
  8
0
  6
CONTINUOUS
 62
       7
  5
343
 10
140.67881102
 20
41.69501958
 30
0.0
  0
VERTEX
  8
0
  6
CONTINUOUS
 62
       7
  5
344
 10
140.41822522
 20
41.76116228
 30
0.0
  0
VERTEX
  8
0
  6
CONTINUOUS
 62
       7
  5
345
 10
140.14593941
 20
41.81513918
 30
0.0
  0
VERTEX
  8
0
  6
CONTINUOUS
 62
       7
  5
346
 10
139.86389647
 20
41.85769894
 30
0.0
  0
VERTEX
  8
0
  6
CONTINUOUS
 62
       7
  5
347
 10
139.57403926
 20
41.88959027
 30
0.0
  0
VERTEX
  8
0
  6
CONTINUOUS
 62
       7
  5
348
 10
139.27831065
 20
41.91156184
 30
0.0
  0
VERTEX
  8
0
  6
CONTINUOUS
 62
       7
  5
349
 10
138.97865348
 20
41.92436235
 30
0.0
  0
VERTEX
  8
0
  6
CONTINUOUS
 62
       7
  5
34A
 10
138.67701064
 20
41.92874047
 30
0.0
  0
VERTEX
  8
0
  6
CONTINUOUS
 62
       7
  5
34B
 10
138.37386979
 20
41.92515922
 30
0.0
  0
VERTEX
  8
0
  6
CONTINUOUS
 62
       7
  5
34C
 10
138.07264965
 20
41.91307559
 30
0.0
  0
VERTEX
  8
0
  6
CONTINUOUS
 62
       7
  5
34D
 10
137.77531409
 20
41.89173526
 30
0.0
  0
VERTEX
  8
0
  6
CONTINUOUS
 62
       7
  5
34E
 10
137.48382698
 20
41.86038392
 30
0.0
  0
VERTEX
  8
0
  6
CONTINUOUS
 62
       7
  5
34F
 10
137.2001522
 20
41.81826727
 30
0.0
  0
VERTEX
  8
0
  6
CONTINUOUS
 62
       7
  5
350
 10
136.92625361
 20
41.764631
 30
0.0
  0
VERTEX
  8
0
  6
CONTINUOUS
 62
       7
  5
351
 10
136.66409509
 20
41.69872078
 30
0.0
  0
VERTEX
  8
0
  6
CONTINUOUS
 62
       7
  5
352
 10
136.41564052
 20
41.61978232
 30
0.0
  0
VERTEX
  8
0
  6
CONTINUOUS
 62
       7
  5
353
 10
136.18285377
 20
41.5270613
 30
0.0
  0
VERTEX
  8
0
  6
CONTINUOUS
 62
       7
  5
354
 10
135.9676987
 20
41.41980341
 30
0.0
  0
VERTEX
  8
0
  6
CONTINUOUS
 62
       7
  5
355
 10
135.77213919
 20
41.29725435
 30
0.0
  0
VERTEX
  8
0
  6
CONTINUOUS
 62
       7
  5
356
 10
135.59813912
 20
41.15865979
 30
0.0
  0
VERTEX
  8
0
  6
CONTINUOUS
 62
       7
  5
357
 10
135.44766236
 20
41.00326544
 30
0.0
  0
VERTEX
  8
0
  6
CONTINUOUS
 62
       7
  5
358
 10
135.32267278
 20
40.83031697
 30
0.0
  0
VERTEX
  8
0
  6
CONTINUOUS
 62
       7
  5
359
 10
135.22513425
 20
40.63906009
 30
0.0
  0
VERTEX
  8
0
  6
CONTINUOUS
 62
       7
  5
35A
 10
135.15701064
 20
40.42874047
 30
0.0
  0
VERTEX
  8
0
  6
CONTINUOUS
 62
       7
  5
35B
 10
135.14427993
 20
40.37056262
 30
0.0
  0
VERTEX
  8
0
  6
CONTINUOUS
 62
       7
  5
35C
 10
135.13361383
 20
40.31116833
 30
0.0
  0
VERTEX
  8
0
  6
CONTINUOUS
 62
       7
  5
35D
 10
135.12493368
 20
40.25069476
 30
0.0
  0
VERTEX
  8
0
  6
CONTINUOUS
 62
       7
  5
35E
 10
135.11816077
 20
40.18927911
 30
0.0
  0
VERTEX
  8
0
  6
CONTINUOUS
 62
       7
  5
35F
 10
135.11321644
 20
40.12705854
 30
0.0
  0
VERTEX
  8
0
  6
CONTINUOUS
 62
       7
  5
360
 10
135.11002199
 20
40.06417024
 30
0.0
  0
VERTEX
  8
0
  6
CONTINUOUS
 62
       7
  5
361
 10
135.10849875
 20
40.00075137
 30
0.0
  0
VERTEX
  8
0
  6
CONTINUOUS
 62
       7
  5
362
 10
135.10856802
 20
39.93693912
 30
0.0
  0
VERTEX
  8
0
  6
CONTINUOUS
 62
       7
  5
363
 10
135.11015112
 20
39.87287066
 30
0.0
  0
VERTEX
  8
0
  6
CONTINUOUS
 62
       7
  5
364
 10
135.11316937
 20
39.80868317
 30
0.0
  0
VERTEX
  8
0
  6
CONTINUOUS
 62
       7
  5
365
 10
135.11754408
 20
39.74451383
 30
0.0
  0
VERTEX
  8
0
  6
CONTINUOUS
 62
       7
  5
366
 10
135.12319657
 20
39.6804998
 30
0.0
  0
VERTEX
  8
0
  6
CONTINUOUS
 62
       7
  5
367
 10
135.13004816
 20
39.61677828
 30
0.0
  0
VERTEX
  8
0
  6
CONTINUOUS
 62
       7
  5
368
 10
135.13802015
 20
39.55348643
 30
0.0
  0
VERTEX
  8
0
  6
CONTINUOUS
 62
       7
  5
369
 10
135.14703388
 20
39.49076144
 30
0.0
  0
VERTEX
  8
0
  6
CONTINUOUS
 62
       7
  5
36A
 10
135.15701064
 20
39.42874047
 30
0.0
  0
SEQEND
  8
0
  6
CONTINUOUS
 62
       7
  5
36B
  0
POLYLINE
  8
0
  6
CONTINUOUS
 62
       7
  5
10E
 66
       1
 10
0.0
 20
0.0
 30
0.0
  0
VERTEX
  8
0
  6
CONTINUOUS
 62
       7
  5
36C
 10
129.67701064
 20
38.42874047
 30
0.0
  0
VERTEX
  8
0
  6
CONTINUOUS
 62
       7
  5
36D
 10
129.18714052
 20
38.31009769
 30
0.0
  0
VERTEX
  8
0
  6
CONTINUOUS
 62
       7
  5
36E
 10
128.69530972
 20
38.19863557
 30
0.0
  0
VERTEX
  8
0
  6
CONTINUOUS
 62
       7
  5
36F
 10
128.20164897
 20
38.0944195
 30
0.0
  0
VERTEX
  8
0
  6
CONTINUOUS
 62
       7
  5
370
 10
127.70628897
 20
37.99751482
 30
0.0
  0
VERTEX
  8
0
  6
CONTINUOUS
 62
       7
  5
371
 10
127.20936046
 20
37.90798691
 30
0.0
  0
VERTEX
  8
0
  6
CONTINUOUS
 62
       7
  5
372
 10
126.71099415
 20
37.82590113
 30
0.0
  0
VERTEX
  8
0
  6
CONTINUOUS
 62
       7
  5
373
 10
126.21132076
 20
37.75132284
 30
0.0
  0
VERTEX
  8
0
  6
CONTINUOUS
 62
       7
  5
374
 10
125.71047101
 20
37.68431741
 30
0.0
  0
VERTEX
  8
0
  6
CONTINUOUS
 62
       7
  5
375
 10
125.20857563
 20
37.6249502
 30
0.0
  0
VERTEX
  8
0
  6
CONTINUOUS
 62
       7
  5
376
 10
124.70576533
 20
37.57328657
 30
0.0
  0
VERTEX
  8
0
  6
CONTINUOUS
 62
       7
  5
377
 10
124.20217084
 20
37.52939189
 30
0.0
  0
VERTEX
  8
0
  6
CONTINUOUS
 62
       7
  5
378
 10
123.69792287
 20
37.49333153
 30
0.0
  0
VERTEX
  8
0
  6
CONTINUOUS
 62
       7
  5
379
 10
123.19315214
 20
37.46517084
 30
0.0
  0
VERTEX
  8
0
  6
CONTINUOUS
 62
       7
  5
37A
 10
122.68798938
 20
37.44497519
 30
0.0
  0
VERTEX
  8
0
  6
CONTINUOUS
 62
       7
  5
37B
 10
122.18256531
 20
37.43280995
 30
0.0
  0
VERTEX
  8
0
  6
CONTINUOUS
 62
       7
  5
37C
 10
121.67701064
 20
37.42874047
 30
0.0
  0
VERTEX
  8
0
  6
CONTINUOUS
 62
       7
  5
37D
 10
121.17145597
 20
37.43281027
 30
0.0
  0
VERTEX
  8
0
  6
CONTINUOUS
 62
       7
  5
37E
 10
120.66603187
 20
37.44497571
 30
0.0
  0
VERTEX
  8
0
  6
CONTINUOUS
 62
       7
  5
37F
 10
120.16086908
 20
37.46517145
 30
0.0
  0
VERTEX
  8
0
  6
CONTINUOUS
 62
       7
  5
380
 10
119.65609832
 20
37.49333213
 30
0.0
  0
VERTEX
  8
0
  6
CONTINUOUS
 62
       7
  5
381
 10
119.15185031
 20
37.52939242
 30
0.0
  0
VERTEX
  8
0
  6
CONTINUOUS
 62
       7
  5
382
 10
118.64825578
 20
37.57328697
 30
0.0
  0
VERTEX
  8
0
  6
CONTINUOUS
 62
       7
  5
383
 10
118.14544544
 20
37.62495042
 30
0.0
  0
VERTEX
  8
0
  6
CONTINUOUS
 62
       7
  5
384
 10
117.64355002
 20
37.68431745
 30
0.0
  0
VERTEX
  8
0
  6
CONTINUOUS
 62
       7
  5
385
 10
117.14270025
 20
37.75132269
 30
0.0
  0
VERTEX
  8
0
  6
CONTINUOUS
 62
       7
  5
386
 10
116.64302685
 20
37.8259008
 30
0.0
  0
VERTEX
  8
0
  6
CONTINUOUS
 62
       7
  5
387
 10
116.14466053
 20
37.90798645
 30
0.0
  0
VERTEX
  8
0
  6
CONTINUOUS
 62
       7
  5
388
 10
115.64773203
 20
37.99751427
 30
0.0
  0
VERTEX
  8
0
  6
CONTINUOUS
 62
       7
  5
389
 10
115.15237207
 20
38.09441893
 30
0.0
  0
VERTEX
  8
0
  6
CONTINUOUS
 62
       7
  5
38A
 10
114.65871137
 20
38.19863508
 30
0.0
  0
VERTEX
  8
0
  6
CONTINUOUS
 62
       7
  5
38B
 10
114.16688065
 20
38.31009738
 30
0.0
  0
VERTEX
  8
0
  6
CONTINUOUS
 62
       7
  5
38C
 10
113.67701064
 20
38.42874047
 30
0.0
  0
SEQEND
  8
0
  6
CONTINUOUS
 62
       7
  5
38D
  0
POLYLINE
  8
0
  6
CONTINUOUS
 62
       7
  5
10F
 66
       1
 10
0.0
 20
0.0
 30
0.0
 70
       1
  0
VERTEX
  8
0
  6
CONTINUOUS
 62
       7
  5
38E
 10
104.17700759
 20
17.42874047
 30
0.0
  0
VERTEX
  8
0
  6
CONTINUOUS
 62
       7
  5
38F
 10
104.15798108
 20
17.77736344
 30
0.0
  0
VERTEX
  8
0
  6
CONTINUOUS
 62
       7
  5
390
 10
104.10104635
 20
18.12333318
 30
0.0
  0
VERTEX
  8
0
  6
CONTINUOUS
 62
       7
  5
391
 10
104.00663672
 20
18.46401665
 30
0.0
  0
VERTEX
  8
0
  6
CONTINUOUS
 62
       7
  5
392
 10
103.87547069
 20
18.79682104
 30
0.0
  0
VERTEX
  8
0
  6
CONTINUOUS
 62
       7
  5
393
 10
103.70854652
 20
19.11921352
 30
0.0
  0
VERTEX
  8
0
  6
CONTINUOUS
 62
       7
  5
394
 10
103.50713461
 20
19.42874047
 30
0.0
  0
VERTEX
  8
0
  6
CONTINUOUS
 62
       7
  5
395
 10
103.27276781
 20
19.72304622
 30
0.0
  0
VERTEX
  8
0
  6
CONTINUOUS
 62
       7
  5
396
 10
103.00722981
 20
19.99989091
 30
0.0
  0
VERTEX
  8
0
  6
CONTINUOUS
 62
       7
  5
397
 10
102.7125415
 20
20.2571676
 30
0.0
  0
VERTEX
  8
0
  6
CONTINUOUS
 62
       7
  5
398
 10
102.39094564
 20
20.49291824
 30
0.0
  0
VERTEX
  8
0
  6
CONTINUOUS
 62
       7
  5
399
 10
102.04488977
 20
20.70534865
 30
0.0
  0
VERTEX
  8
0
  6
CONTINUOUS
 62
       7
  5
39A
 10
101.67700759
 20
20.89284209
 30
0.0
  0
VERTEX
  8
0
  6
CONTINUOUS
 62
       7
  5
39B
 10
101.2900989
 20
21.05397162
 30
0.0
  0
VERTEX
  8
0
  6
CONTINUOUS
 62
       7
  5
39C
 10
100.88710831
 20
21.18751095
 30
0.0
  0
VERTEX
  8
0
  6
CONTINUOUS
 62
       7
  5
39D
 10
100.47110282
 20
21.29244378
 30
0.0
  0
VERTEX
  8
0
  6
CONTINUOUS
 62
       7
  5
39E
 10
100.04524848
 20
21.36797148
 30
0.0
  0
VERTEX
  8
0
  6
CONTINUOUS
 62
       7
  5
39F
 10
99.6127863
 20
21.41351926
 30
0.0
  0
VERTEX
  8
0
  6
CONTINUOUS
 62
       7
  5
3A0
 10
99.17700759
 20
21.42874047
 30
0.0
  0
VERTEX
  8
0
  6
CONTINUOUS
 62
       7
  5
3A1
 10
98.74122888
 20
21.41351926
 30
0.0
  0
VERTEX
  8
0
  6
CONTINUOUS
 62
       7
  5
3A2
 10
98.3087667
 20
21.36797148
 30
0.0
  0
VERTEX
  8
0
  6
CONTINUOUS
 62
       7
  5
3A3
 10
97.88291236
 20
21.29244378
 30
0.0
  0
VERTEX
  8
0
  6
CONTINUOUS
 62
       7
  5
3A4
 10
97.46690687
 20
21.18751095
 30
0.0
  0
VERTEX
  8
0
  6
CONTINUOUS
 62
       7
  5
3A5
 10
97.06391628
 20
21.05397162
 30
0.0
  0
VERTEX
  8
0
  6
CONTINUOUS
 62
       7
  5
3A6
 10
96.67700759
 20
20.89284209
 30
0.0
  0
VERTEX
  8
0
  6
CONTINUOUS
 62
       7
  5
3A7
 10
96.30912541
 20
20.70534865
 30
0.0
  0
VERTEX
  8
0
  6
CONTINUOUS
 62
       7
  5
3A8
 10
95.96306954
 20
20.49291824
 30
0.0
  0
VERTEX
  8
0
  6
CONTINUOUS
 62
       7
  5
3A9
 10
95.64147368
 20
20.2571676
 30
0.0
  0
VERTEX
  8
0
  6
CONTINUOUS
 62
       7
  5
3AA
 10
95.34678537
 20
19.99989091
 30
0.0
  0
VERTEX
  8
0
  6
CONTINUOUS
 62
       7
  5
3AB
 10
95.08124737
 20
19.72304622
 30
0.0
  0
VERTEX
  8
0
  6
CONTINUOUS
 62
       7
  5
3AC
 10
94.84688057
 20
19.42874047
 30
0.0
  0
VERTEX
  8
0
  6
CONTINUOUS
 62
       7
  5
3AD
 10
94.64546865
 20
19.11921352
 30
0.0
  0
VERTEX
  8
0
  6
CONTINUOUS
 62
       7
  5
3AE
 10
94.47854449
 20
18.79682104
 30
0.0
  0
VERTEX
  8
0
  6
CONTINUOUS
 62
       7
  5
3AF
 10
94.34737846
 20
18.46401665
 30
0.0
  0
VERTEX
  8
0
  6
CONTINUOUS
 62
       7
  5
3B0
 10
94.25296882
 20
18.12333318
 30
0.0
  0
VERTEX
  8
0
  6
CONTINUOUS
 62
       7
  5
3B1
 10
94.1960341
 20
17.77736344
 30
0.0
  0
VERTEX
  8
0
  6
CONTINUOUS
 62
       7
  5
3B2
 10
94.17700759
 20
17.42874047
 30
0.0
  0
VERTEX
  8
0
  6
CONTINUOUS
 62
       7
  5
3B3
 10
94.1960341
 20
17.0801175
 30
0.0
  0
VERTEX
  8
0
  6
CONTINUOUS
 62
       7
  5
3B4
 10
94.25296882
 20
16.73414776
 30
0.0
  0
VERTEX
  8
0
  6
CONTINUOUS
 62
       7
  5
3B5
 10
94.34737846
 20
16.39346429
 30
0.0
  0
VERTEX
  8
0
  6
CONTINUOUS
 62
       7
  5
3B6
 10
94.47854449
 20
16.0606599
 30
0.0
  0
VERTEX
  8
0
  6
CONTINUOUS
 62
       7
  5
3B7
 10
94.64546865
 20
15.73826742
 30
0.0
  0
VERTEX
  8
0
  6
CONTINUOUS
 62
       7
  5
3B8
 10
94.84688057
 20
15.42874047
 30
0.0
  0
VERTEX
  8
0
  6
CONTINUOUS
 62
       7
  5
3B9
 10
95.08124737
 20
15.13443472
 30
0.0
  0
VERTEX
  8
0
  6
CONTINUOUS
 62
       7
  5
3BA
 10
95.34678537
 20
14.85759003
 30
0.0
  0
VERTEX
  8
0
  6
CONTINUOUS
 62
       7
  5
3BB
 10
95.64147368
 20
14.60031335
 30
0.0
  0
VERTEX
  8
0
  6
CONTINUOUS
 62
       7
  5
3BC
 10
95.96306954
 20
14.3645627
 30
0.0
  0
VERTEX
  8
0
  6
CONTINUOUS
 62
       7
  5
3BD
 10
96.30912541
 20
14.15213229
 30
0.0
  0
VERTEX
  8
0
  6
CONTINUOUS
 62
       7
  5
3BE
 10
96.67700759
 20
13.96463886
 30
0.0
  0
VERTEX
  8
0
  6
CONTINUOUS
 62
       7
  5
3BF
 10
97.06391628
 20
13.80350932
 30
0.0
  0
VERTEX
  8
0
  6
CONTINUOUS
 62
       7
  5
3C0
 10
97.46690687
 20
13.66996999
 30
0.0
  0
VERTEX
  8
0
  6
CONTINUOUS
 62
       7
  5
3C1
 10
97.88291236
 20
13.56503717
 30
0.0
  0
VERTEX
  8
0
  6
CONTINUOUS
 62
       7
  5
3C2
 10
98.3087667
 20
13.48950946
 30
0.0
  0
VERTEX
  8
0
  6
CONTINUOUS
 62
       7
  5
3C3
 10
98.74122888
 20
13.44396168
 30
0.0
  0
VERTEX
  8
0
  6
CONTINUOUS
 62
       7
  5
3C4
 10
99.17700759
 20
13.42874047
 30
0.0
  0
VERTEX
  8
0
  6
CONTINUOUS
 62
       7
  5
3C5
 10
99.6127863
 20
13.44396168
 30
0.0
  0
VERTEX
  8
0
  6
CONTINUOUS
 62
       7
  5
3C6
 10
100.04524848
 20
13.48950946
 30
0.0
  0
VERTEX
  8
0
  6
CONTINUOUS
 62
       7
  5
3C7
 10
100.47110282
 20
13.56503717
 30
0.0
  0
VERTEX
  8
0
  6
CONTINUOUS
 62
       7
  5
3C8
 10
100.88710831
 20
13.66996999
 30
0.0
  0
VERTEX
  8
0
  6
CONTINUOUS
 62
       7
  5
3C9
 10
101.2900989
 20
13.80350932
 30
0.0
  0
VERTEX
  8
0
  6
CONTINUOUS
 62
       7
  5
3CA
 10
101.67700759
 20
13.96463886
 30
0.0
  0
VERTEX
  8
0
  6
CONTINUOUS
 62
       7
  5
3CB
 10
102.04488977
 20
14.15213229
 30
0.0
  0
VERTEX
  8
0
  6
CONTINUOUS
 62
       7
  5
3CC
 10
102.39094564
 20
14.3645627
 30
0.0
  0
VERTEX
  8
0
  6
CONTINUOUS
 62
       7
  5
3CD
 10
102.7125415
 20
14.60031335
 30
0.0
  0
VERTEX
  8
0
  6
CONTINUOUS
 62
       7
  5
3CE
 10
103.00722981
 20
14.85759003
 30
0.0
  0
VERTEX
  8
0
  6
CONTINUOUS
 62
       7
  5
3CF
 10
103.27276781
 20
15.13443472
 30
0.0
  0
VERTEX
  8
0
  6
CONTINUOUS
 62
       7
  5
3D0
 10
103.50713461
 20
15.42874047
 30
0.0
  0
VERTEX
  8
0
  6
CONTINUOUS
 62
       7
  5
3D1
 10
103.70854652
 20
15.73826742
 30
0.0
  0
VERTEX
  8
0
  6
CONTINUOUS
 62
       7
  5
3D2
 10
103.87547069
 20
16.0606599
 30
0.0
  0
VERTEX
  8
0
  6
CONTINUOUS
 62
       7
  5
3D3
 10
104.00663672
 20
16.39346429
 30
0.0
  0
VERTEX
  8
0
  6
CONTINUOUS
 62
       7
  5
3D4
 10
104.10104635
 20
16.73414776
 30
0.0
  0
VERTEX
  8
0
  6
CONTINUOUS
 62
       7
  5
3D5
 10
104.15798108
 20
17.0801175
 30
0.0
  0
VERTEX
  8
0
  6
CONTINUOUS
 62
       7
  5
3D6
 10
104.17700759
 20
17.42874047
 30
0.0
  0
SEQEND
  8
0
  6
CONTINUOUS
 62
       7
  5
3D7
  0
POLYLINE
  8
0
  6
CONTINUOUS
 62
       7
  5
110
 66
       1
 10
0.0
 20
0.0
 30
0.0
  0
VERTEX
  8
0
  6
CONTINUOUS
 62
       7
  5
3D8
 10
89.31701064
 20
4.11874047
 30
0.0
  0
VERTEX
  8
0
  6
CONTINUOUS
 62
       7
  5
3D9
 10
89.35599127
 20
4.05374865
 30
0.0
  0
VERTEX
  8
0
  6
CONTINUOUS
 62
       7
  5
3DA
 10
89.39334857
 20
3.98731564
 30
0.0
  0
VERTEX
  8
0
  6
CONTINUOUS
 62
       7
  5
3DB
 10
89.42895951
 20
3.91953576
 30
0.0
  0
VERTEX
  8
0
  6
CONTINUOUS
 62
       7
  5
3DC
 10
89.46270108
 20
3.8505033
 30
0.0
  0
VERTEX
  8
0
  6
CONTINUOUS
 62
       7
  5
3DD
 10
89.49445026
 20
3.78031258
 30
0.0
  0
VERTEX
  8
0
  6
CONTINUOUS
 62
       7
  5
3DE
 10
89.52408403
 20
3.7090579
 30
0.0
  0
VERTEX
  8
0
  6
CONTINUOUS
 62
       7
  5
3DF
 10
89.55147939
 20
3.63683356
 30
0.0
  0
VERTEX
  8
0
  6
CONTINUOUS
 62
       7
  5
3E0
 10
89.5765133
 20
3.56373387
 30
0.0
  0
VERTEX
  8
0
  6
CONTINUOUS
 62
       7
  5
3E1
 10
89.59906275
 20
3.48985314
 30
0.0
  0
VERTEX
  8
0
  6
CONTINUOUS
 62
       7
  5
3E2
 10
89.61900473
 20
3.41528567
 30
0.0
  0
VERTEX
  8
0
  6
CONTINUOUS
 62
       7
  5
3E3
 10
89.63621622
 20
3.34012577
 30
0.0
  0
VERTEX
  8
0
  6
CONTINUOUS
 62
       7
  5
3E4
 10
89.65057419
 20
3.26446774
 30
0.0
  0
VERTEX
  8
0
  6
CONTINUOUS
 62
       7
  5
3E5
 10
89.66195564
 20
3.18840589
 30
0.0
  0
VERTEX
  8
0
  6
CONTINUOUS
 62
       7
  5
3E6
 10
89.67023754
 20
3.11203453
 30
0.0
  0
VERTEX
  8
0
  6
CONTINUOUS
 62
       7
  5
3E7
 10
89.67529688
 20
3.03544795
 30
0.0
  0
VERTEX
  8
0
  6
CONTINUOUS
 62
       7
  5
3E8
 10
89.67701064
 20
2.95874047
 30
0.0
  0
VERTEX
  8
0
  6
CONTINUOUS
 62
       7
  5
3E9
 10
89.67529682
 20
2.88267542
 30
0.0
  0
VERTEX
  8
0
  6
CONTINUOUS
 62
       7
  5
3EA
 10
89.67023742
 20
2.80679969
 30
0.0
  0
VERTEX
  8
0
  6
CONTINUOUS
 62
       7
  5
3EB
 10
89.66195547
 20
2.73119242
 30
0.0
  0
VERTEX
  8
0
  6
CONTINUOUS
 62
       7
  5
3EC
 10
89.65057399
 20
2.65593276
 30
0.0
  0
VERTEX
  8
0
  6
CONTINUOUS
 62
       7
  5
3ED
 10
89.63621599
 20
2.58109987
 30
0.0
  0
VERTEX
  8
0
  6
CONTINUOUS
 62
       7
  5
3EE
 10
89.61900448
 20
2.50677288
 30
0.0
  0
VERTEX
  8
0
  6
CONTINUOUS
 62
       7
  5
3EF
 10
89.59906249
 20
2.43303094
 30
0.0
  0
VERTEX
  8
0
  6
CONTINUOUS
 62
       7
  5
3F0
 10
89.57651304
 20
2.35995321
 30
0.0
  0
VERTEX
  8
0
  6
CONTINUOUS
 62
       7
  5
3F1
 10
89.55147913
 20
2.28761883
 30
0.0
  0
VERTEX
  8
0
  6
CONTINUOUS
 62
       7
  5
3F2
 10
89.5240838
 20
2.21610695
 30
0.0
  0
VERTEX
  8
0
  6
CONTINUOUS
 62
       7
  5
3F3
 10
89.49445004
 20
2.14549672
 30
0.0
  0
VERTEX
  8
0
  6
CONTINUOUS
 62
       7
  5
3F4
 10
89.46270089
 20
2.07586729
 30
0.0
  0
VERTEX
  8
0
  6
CONTINUOUS
 62
       7
  5
3F5
 10
89.42895936
 20
2.0072978
 30
0.0
  0
VERTEX
  8
0
  6
CONTINUOUS
 62
       7
  5
3F6
 10
89.39334846
 20
1.9398674
 30
0.0
  0
VERTEX
  8
0
  6
CONTINUOUS
 62
       7
  5
3F7
 10
89.35599122
 20
1.87365524
 30
0.0
  0
VERTEX
  8
0
  6
CONTINUOUS
 62
       7
  5
3F8
 10
89.31701064
 20
1.80874047
 30
0.0
  0
SEQEND
  8
0
  6
CONTINUOUS
 62
       7
  5
3F9
  0
POLYLINE
  8
0
  6
CONTINUOUS
 62
       7
  5
111
 66
       1
 10
0.0
 20
0.0
 30
0.0
  0
VERTEX
  8
0
  6
CONTINUOUS
 62
       7
  5
3FA
 10
89.31701064
 20
8.72874047
 30
0.0
  0
VERTEX
  8
0
  6
CONTINUOUS
 62
       7
  5
3FB
 10
89.35899587
 20
8.58883949
 30
0.0
  0
VERTEX
  8
0
  6
CONTINUOUS
 62
       7
  5
3FC
 10
89.39858323
 20
8.44822303
 30
0.0
  0
VERTEX
  8
0
  6
CONTINUOUS
 62
       7
  5
3FD
 10
89.43572985
 20
8.30693443
 30
0.0
  0
VERTEX
  8
0
  6
CONTINUOUS
 62
       7
  5
3FE
 10
89.47039282
 20
8.16501705
 30
0.0
  0
VERTEX
  8
0
  6
CONTINUOUS
 62
       7
  5
3FF
 10
89.50252924
 20
8.02251422
 30
0.0
  0
VERTEX
  8
0
  6
CONTINUOUS
 62
       7
  5
400
 10
89.53209624
 20
7.87946929
 30
0.0
  0
VERTEX
  8
0
  6
CONTINUOUS
 62
       7
  5
401
 10
89.55905091
 20
7.73592561
 30
0.0
  0
VERTEX
  8
0
  6
CONTINUOUS
 62
       7
  5
402
 10
89.58335035
 20
7.59192652
 30
0.0
  0
VERTEX
  8
0
  6
CONTINUOUS
 62
       7
  5
403
 10
89.60495168
 20
7.44751537
 30
0.0
  0
VERTEX
  8
0
  6
CONTINUOUS
 62
       7
  5
404
 10
89.623812
 20
7.3027355
 30
0.0
  0
VERTEX
  8
0
  6
CONTINUOUS
 62
       7
  5
405
 10
89.63988842
 20
7.15763025
 30
0.0
  0
VERTEX
  8
0
  6
CONTINUOUS
 62
       7
  5
406
 10
89.65313803
 20
7.01224297
 30
0.0
  0
VERTEX
  8
0
  6
CONTINUOUS
 62
       7
  5
407
 10
89.66351796
 20
6.86661701
 30
0.0
  0
VERTEX
  8
0
  6
CONTINUOUS
 62
       7
  5
408
 10
89.6709853
 20
6.72079571
 30
0.0
  0
VERTEX
  8
0
  6
CONTINUOUS
 62
       7
  5
409
 10
89.67549716
 20
6.57482242
 30
0.0
  0
VERTEX
  8
0
  6
CONTINUOUS
 62
       7
  5
40A
 10
89.67701064
 20
6.42874047
 30
0.0
  0
VERTEX
  8
0
  6
CONTINUOUS
 62
       7
  5
40B
 10
89.67549716
 20
6.28200116
 30
0.0
  0
VERTEX
  8
0
  6
CONTINUOUS
 62
       7
  5
40C
 10
89.6709853
 20
6.13530593
 30
0.0
  0
VERTEX
  8
0
  6
CONTINUOUS
 62
       7
  5
40D
 10
89.66351796
 20
5.98871288
 30
0.0
  0
VERTEX
  8
0
  6
CONTINUOUS
 62
       7
  5
40E
 10
89.65313803
 20
5.84228012
 30
0.0
  0
VERTEX
  8
0
  6
CONTINUOUS
 62
       7
  5
40F
 10
89.63988841
 20
5.69606576
 30
0.0
  0
VERTEX
  8
0
  6
CONTINUOUS
 62
       7
  5
410
 10
89.623812
 20
5.5501279
 30
0.0
  0
VERTEX
  8
0
  6
CONTINUOUS
 62
       7
  5
411
 10
89.60495168
 20
5.40452465
 30
0.0
  0
VERTEX
  8
0
  6
CONTINUOUS
 62
       7
  5
412
 10
89.58335035
 20
5.25931411
 30
0.0
  0
VERTEX
  8
0
  6
CONTINUOUS
 62
       7
  5
413
 10
89.55905091
 20
5.1145544
 30
0.0
  0
VERTEX
  8
0
  6
CONTINUOUS
 62
       7
  5
414
 10
89.53209624
 20
4.97030362
 30
0.0
  0
VERTEX
  8
0
  6
CONTINUOUS
 62
       7
  5
415
 10
89.50252924
 20
4.82661988
 30
0.0
  0
VERTEX
  8
0
  6
CONTINUOUS
 62
       7
  5
416
 10
89.47039281
 20
4.68356128
 30
0.0
  0
VERTEX
  8
0
  6
CONTINUOUS
 62
       7
  5
417
 10
89.43572985
 20
4.54118593
 30
0.0
  0
VERTEX
  8
0
  6
CONTINUOUS
 62
       7
  5
418
 10
89.39858323
 20
4.39955194
 30
0.0
  0
VERTEX
  8
0
  6
CONTINUOUS
 62
       7
  5
419
 10
89.35899587
 20
4.25871742
 30
0.0
  0
VERTEX
  8
0
  6
CONTINUOUS
 62
       7
  5
41A
 10
89.31701064
 20
4.11874047
 30
0.0
  0
SEQEND
  8
0
  6
CONTINUOUS
 62
       7
  5
41B
  0
POLYLINE
  8
0
  6
CONTINUOUS
 62
       7
  5
112
 66
       1
 10
0.0
 20
0.0
 30
0.0
  0
VERTEX
  8
0
  6
CONTINUOUS
 62
       7
  5
41C
 10
89.31701064
 20
11.03874047
 30
0.0
  0
VERTEX
  8
0
  6
CONTINUOUS
 62
       7
  5
41D
 10
89.35599118
 20
10.97379074
 30
0.0
  0
VERTEX
  8
0
  6
CONTINUOUS
 62
       7
  5
41E
 10
89.3933484
 20
10.90748282
 30
0.0
  0
VERTEX
  8
0
  6
CONTINUOUS
 62
       7
  5
41F
 10
89.42895928
 20
10.83990988
 30
0.0
  0
VERTEX
  8
0
  6
CONTINUOUS
 62
       7
  5
420
 10
89.46270079
 20
10.7711651
 30
0.0
  0
VERTEX
  8
0
  6
CONTINUOUS
 62
       7
  5
421
 10
89.49444993
 20
10.70134166
 30
0.0
  0
VERTEX
  8
0
  6
CONTINUOUS
 62
       7
  5
422
 10
89.52408367
 20
10.63053273
 30
0.0
  0
VERTEX
  8
0
  6
CONTINUOUS
 62
       7
  5
423
 10
89.55147901
 20
10.55883148
 30
0.0
  0
VERTEX
  8
0
  6
CONTINUOUS
 62
       7
  5
424
 10
89.57651291
 20
10.48633111
 30
0.0
  0
VERTEX
  8
0
  6
CONTINUOUS
 62
       7
  5
425
 10
89.59906237
 20
10.41312477
 30
0.0
  0
VERTEX
  8
0
  6
CONTINUOUS
 62
       7
  5
426
 10
89.61900436
 20
10.33930566
 30
0.0
  0
VERTEX
  8
0
  6
CONTINUOUS
 62
       7
  5
427
 10
89.63621588
 20
10.26496694
 30
0.0
  0
VERTEX
  8
0
  6
CONTINUOUS
 62
       7
  5
428
 10
89.6505739
 20
10.19020179
 30
0.0
  0
VERTEX
  8
0
  6
CONTINUOUS
 62
       7
  5
429
 10
89.6619554
 20
10.1151034
 30
0.0
  0
VERTEX
  8
0
  6
CONTINUOUS
 62
       7
  5
42A
 10
89.67023737
 20
10.03976493
 30
0.0
  0
VERTEX
  8
0
  6
CONTINUOUS
 62
       7
  5
42B
 10
89.67529679
 20
9.96427956
 30
0.0
  0
VERTEX
  8
0
  6
CONTINUOUS
 62
       7
  5
42C
 10
89.67701064
 20
9.88874047
 30
0.0
  0
VERTEX
  8
0
  6
CONTINUOUS
 62
       7
  5
42D
 10
89.67529691
 20
9.81256312
 30
0.0
  0
VERTEX
  8
0
  6
CONTINUOUS
 62
       7
  5
42E
 10
89.67023759
 20
9.73637002
 30
0.0
  0
VERTEX
  8
0
  6
CONTINUOUS
 62
       7
  5
42F
 10
89.6619557
 20
9.66026961
 30
0.0
  0
VERTEX
  8
0
  6
CONTINUOUS
 62
       7
  5
430
 10
89.65057427
 20
9.58437033
 30
0.0
  0
VERTEX
  8
0
  6
CONTINUOUS
 62
       7
  5
431
 10
89.6362163
 20
9.50878063
 30
0.0
  0
VERTEX
  8
0
  6
CONTINUOUS
 62
       7
  5
432
 10
89.61900482
 20
9.43360895
 30
0.0
  0
VERTEX
  8
0
  6
CONTINUOUS
 62
       7
  5
433
 10
89.59906284
 20
9.35896372
 30
0.0
  0
VERTEX
  8
0
  6
CONTINUOUS
 62
       7
  5
434
 10
89.57651338
 20
9.2849534
 30
0.0
  0
VERTEX
  8
0
  6
CONTINUOUS
 62
       7
  5
435
 10
89.55147947
 20
9.21168642
 30
0.0
  0
VERTEX
  8
0
  6
CONTINUOUS
 62
       7
  5
436
 10
89.52408411
 20
9.13927124
 30
0.0
  0
VERTEX
  8
0
  6
CONTINUOUS
 62
       7
  5
437
 10
89.49445032
 20
9.06781628
 30
0.0
  0
VERTEX
  8
0
  6
CONTINUOUS
 62
       7
  5
438
 10
89.46270113
 20
8.99743
 30
0.0
  0
VERTEX
  8
0
  6
CONTINUOUS
 62
       7
  5
439
 10
89.42895955
 20
8.92822084
 30
0.0
  0
VERTEX
  8
0
  6
CONTINUOUS
 62
       7
  5
43A
 10
89.39334859
 20
8.86029723
 30
0.0
  0
VERTEX
  8
0
  6
CONTINUOUS
 62
       7
  5
43B
 10
89.35599129
 20
8.79376763
 30
0.0
  0
VERTEX
  8
0
  6
CONTINUOUS
 62
       7
  5
43C
 10
89.31701064
 20
8.72874047
 30
0.0
  0
SEQEND
  8
0
  6
CONTINUOUS
 62
       7
  5
43D
  0
POLYLINE
  8
0
  6
CONTINUOUS
 62
       7
  5
113
 66
       1
 10
0.0
 20
0.0
 30
0.0
  0
VERTEX
  8
0
  6
CONTINUOUS
 62
       7
  5
43E
 10
86.02701064
 20
4.11874047
 30
0.0
  0
VERTEX
  8
0
  6
CONTINUOUS
 62
       7
  5
43F
 10
85.98814232
 20
4.05374882
 30
0.0
  0
VERTEX
  8
0
  6
CONTINUOUS
 62
       7
  5
440
 10
85.9511024
 20
3.98731629
 30
0.0
  0
VERTEX
  8
0
  6
CONTINUOUS
 62
       7
  5
441
 10
85.91598463
 20
3.91953711
 30
0.0
  0
VERTEX
  8
0
  6
CONTINUOUS
 62
       7
  5
442
 10
85.88288271
 20
3.85050552
 30
0.0
  0
VERTEX
  8
0
  6
CONTINUOUS
 62
       7
  5
443
 10
85.85189036
 20
3.78031575
 30
0.0
  0
VERTEX
  8
0
  6
CONTINUOUS
 62
       7
  5
444
 10
85.82310131
 20
3.70906205
 30
0.0
  0
VERTEX
  8
0
  6
CONTINUOUS
 62
       7
  5
445
 10
85.79660928
 20
3.63683864
 30
0.0
  0
VERTEX
  8
0
  6
CONTINUOUS
 62
       7
  5
446
 10
85.77250798
 20
3.56373978
 30
0.0
  0
VERTEX
  8
0
  6
CONTINUOUS
 62
       7
  5
447
 10
85.75089115
 20
3.48985968
 30
0.0
  0
VERTEX
  8
0
  6
CONTINUOUS
 62
       7
  5
448
 10
85.73185249
 20
3.41529259
 30
0.0
  0
VERTEX
  8
0
  6
CONTINUOUS
 62
       7
  5
449
 10
85.71548573
 20
3.34013275
 30
0.0
  0
VERTEX
  8
0
  6
CONTINUOUS
 62
       7
  5
44A
 10
85.70188459
 20
3.26447438
 30
0.0
  0
VERTEX
  8
0
  6
CONTINUOUS
 62
       7
  5
44B
 10
85.69114279
 20
3.18841174
 30
0.0
  0
VERTEX
  8
0
  6
CONTINUOUS
 62
       7
  5
44C
 10
85.68335405
 20
3.11203905
 30
0.0
  0
VERTEX
  8
0
  6
CONTINUOUS
 62
       7
  5
44D
 10
85.6786121
 20
3.03545055
 30
0.0
  0
VERTEX
  8
0
  6
CONTINUOUS
 62
       7
  5
44E
 10
85.67701064
 20
2.95874047
 30
0.0
  0
VERTEX
  8
0
  6
CONTINUOUS
 62
       7
  5
44F
 10
85.67861216
 20
2.88267542
 30
0.0
  0
VERTEX
  8
0
  6
CONTINUOUS
 62
       7
  5
450
 10
85.68335418
 20
2.80679969
 30
0.0
  0
VERTEX
  8
0
  6
CONTINUOUS
 62
       7
  5
451
 10
85.69114296
 20
2.73119242
 30
0.0
  0
VERTEX
  8
0
  6
CONTINUOUS
 62
       7
  5
452
 10
85.7018848
 20
2.65593276
 30
0.0
  0
VERTEX
  8
0
  6
CONTINUOUS
 62
       7
  5
453
 10
85.71548596
 20
2.58109987
 30
0.0
  0
VERTEX
  8
0
  6
CONTINUOUS
 62
       7
  5
454
 10
85.73185274
 20
2.50677288
 30
0.0
  0
VERTEX
  8
0
  6
CONTINUOUS
 62
       7
  5
455
 10
85.75089141
 20
2.43303094
 30
0.0
  0
VERTEX
  8
0
  6
CONTINUOUS
 62
       7
  5
456
 10
85.77250824
 20
2.35995321
 30
0.0
  0
VERTEX
  8
0
  6
CONTINUOUS
 62
       7
  5
457
 10
85.79660953
 20
2.28761883
 30
0.0
  0
VERTEX
  8
0
  6
CONTINUOUS
 62
       7
  5
458
 10
85.82310155
 20
2.21610695
 30
0.0
  0
VERTEX
  8
0
  6
CONTINUOUS
 62
       7
  5
459
 10
85.85189057
 20
2.14549672
 30
0.0
  0
VERTEX
  8
0
  6
CONTINUOUS
 62
       7
  5
45A
 10
85.88288289
 20
2.07586729
 30
0.0
  0
VERTEX
  8
0
  6
CONTINUOUS
 62
       7
  5
45B
 10
85.91598478
 20
2.0072978
 30
0.0
  0
VERTEX
  8
0
  6
CONTINUOUS
 62
       7
  5
45C
 10
85.95110251
 20
1.9398674
 30
0.0
  0
VERTEX
  8
0
  6
CONTINUOUS
 62
       7
  5
45D
 10
85.98814237
 20
1.87365524
 30
0.0
  0
VERTEX
  8
0
  6
CONTINUOUS
 62
       7
  5
45E
 10
86.02701064
 20
1.80874047
 30
0.0
  0
SEQEND
  8
0
  6
CONTINUOUS
 62
       7
  5
45F
  0
POLYLINE
  8
0
  6
CONTINUOUS
 62
       7
  5
114
 66
       1
 10
0.0
 20
0.0
 30
0.0
  0
VERTEX
  8
0
  6
CONTINUOUS
 62
       7
  5
460
 10
86.02701064
 20
8.72874047
 30
0.0
  0
VERTEX
  8
0
  6
CONTINUOUS
 62
       7
  5
461
 10
85.98513772
 20
8.58883944
 30
0.0
  0
VERTEX
  8
0
  6
CONTINUOUS
 62
       7
  5
462
 10
85.94586774
 20
8.44822285
 30
0.0
  0
VERTEX
  8
0
  6
CONTINUOUS
 62
       7
  5
463
 10
85.90921429
 20
8.30693406
 30
0.0
  0
VERTEX
  8
0
  6
CONTINUOUS
 62
       7
  5
464
 10
85.87519097
 20
8.16501644
 30
0.0
  0
VERTEX
  8
0
  6
CONTINUOUS
 62
       7
  5
465
 10
85.84381137
 20
8.02251335
 30
0.0
  0
VERTEX
  8
0
  6
CONTINUOUS
 62
       7
  5
466
 10
85.81508911
 20
7.87946816
 30
0.0
  0
VERTEX
  8
0
  6
CONTINUOUS
 62
       7
  5
467
 10
85.78903776
 20
7.73592422
 30
0.0
  0
VERTEX
  8
0
  6
CONTINUOUS
 62
       7
  5
468
 10
85.76567093
 20
7.59192491
 30
0.0
  0
VERTEX
  8
0
  6
CONTINUOUS
 62
       7
  5
469
 10
85.74500222
 20
7.44751358
 30
0.0
  0
VERTEX
  8
0
  6
CONTINUOUS
 62
       7
  5
46A
 10
85.72704522
 20
7.3027336
 30
0.0
  0
VERTEX
  8
0
  6
CONTINUOUS
 62
       7
  5
46B
 10
85.71181353
 20
7.15762834
 30
0.0
  0
VERTEX
  8
0
  6
CONTINUOUS
 62
       7
  5
46C
 10
85.69932075
 20
7.01224115
 30
0.0
  0
VERTEX
  8
0
  6
CONTINUOUS
 62
       7
  5
46D
 10
85.68958047
 20
6.86661541
 30
0.0
  0
VERTEX
  8
0
  6
CONTINUOUS
 62
       7
  5
46E
 10
85.6826063
 20
6.72079447
 30
0.0
  0
VERTEX
  8
0
  6
CONTINUOUS
 62
       7
  5
46F
 10
85.67841182
 20
6.57482171
 30
0.0
  0
VERTEX
  8
0
  6
CONTINUOUS
 62
       7
  5
470
 10
85.67701064
 20
6.42874047
 30
0.0
  0
VERTEX
  8
0
  6
CONTINUOUS
 62
       7
  5
471
 10
85.67841182
 20
6.28200116
 30
0.0
  0
VERTEX
  8
0
  6
CONTINUOUS
 62
       7
  5
472
 10
85.6826063
 20
6.13530593
 30
0.0
  0
VERTEX
  8
0
  6
CONTINUOUS
 62
       7
  5
473
 10
85.68958047
 20
5.98871288
 30
0.0
  0
VERTEX
  8
0
  6
CONTINUOUS
 62
       7
  5
474
 10
85.69932075
 20
5.84228012
 30
0.0
  0
VERTEX
  8
0
  6
CONTINUOUS
 62
       7
  5
475
 10
85.71181353
 20
5.69606576
 30
0.0
  0
VERTEX
  8
0
  6
CONTINUOUS
 62
       7
  5
476
 10
85.72704522
 20
5.5501279
 30
0.0
  0
VERTEX
  8
0
  6
CONTINUOUS
 62
       7
  5
477
 10
85.74500222
 20
5.40452465
 30
0.0
  0
VERTEX
  8
0
  6
CONTINUOUS
 62
       7
  5
478
 10
85.76567093
 20
5.25931411
 30
0.0
  0
VERTEX
  8
0
  6
CONTINUOUS
 62
       7
  5
479
 10
85.78903776
 20
5.1145544
 30
0.0
  0
VERTEX
  8
0
  6
CONTINUOUS
 62
       7
  5
47A
 10
85.81508911
 20
4.97030362
 30
0.0
  0
VERTEX
  8
0
  6
CONTINUOUS
 62
       7
  5
47B
 10
85.84381138
 20
4.82661988
 30
0.0
  0
VERTEX
  8
0
  6
CONTINUOUS
 62
       7
  5
47C
 10
85.87519097
 20
4.68356128
 30
0.0
  0
VERTEX
  8
0
  6
CONTINUOUS
 62
       7
  5
47D
 10
85.90921429
 20
4.54118593
 30
0.0
  0
VERTEX
  8
0
  6
CONTINUOUS
 62
       7
  5
47E
 10
85.94586774
 20
4.39955194
 30
0.0
  0
VERTEX
  8
0
  6
CONTINUOUS
 62
       7
  5
47F
 10
85.98513772
 20
4.25871742
 30
0.0
  0
VERTEX
  8
0
  6
CONTINUOUS
 62
       7
  5
480
 10
86.02701064
 20
4.11874047
 30
0.0
  0
SEQEND
  8
0
  6
CONTINUOUS
 62
       7
  5
481
  0
POLYLINE
  8
0
  6
CONTINUOUS
 62
       7
  5
115
 66
       1
 10
0.0
 20
0.0
 30
0.0
  0
VERTEX
  8
0
  6
CONTINUOUS
 62
       7
  5
482
 10
86.02701064
 20
11.03874047
 30
0.0
  0
VERTEX
  8
0
  6
CONTINUOUS
 62
       7
  5
483
 10
85.9881424
 20
10.97379057
 30
0.0
  0
VERTEX
  8
0
  6
CONTINUOUS
 62
       7
  5
484
 10
85.95110257
 20
10.90748219
 30
0.0
  0
VERTEX
  8
0
  6
CONTINUOUS
 62
       7
  5
485
 10
85.91598486
 20
10.83990855
 30
0.0
  0
VERTEX
  8
0
  6
CONTINUOUS
 62
       7
  5
486
 10
85.88288299
 20
10.77116292
 30
0.0
  0
VERTEX
  8
0
  6
CONTINUOUS
 62
       7
  5
487
 10
85.85189069
 20
10.70133854
 30
0.0
  0
VERTEX
  8
0
  6
CONTINUOUS
 62
       7
  5
488
 10
85.82310167
 20
10.63052864
 30
0.0
  0
VERTEX
  8
0
  6
CONTINUOUS
 62
       7
  5
489
 10
85.79660966
 20
10.55882648
 30
0.0
  0
VERTEX
  8
0
  6
CONTINUOUS
 62
       7
  5
48A
 10
85.77250837
 20
10.48632529
 30
0.0
  0
VERTEX
  8
0
  6
CONTINUOUS
 62
       7
  5
48B
 10
85.75089153
 20
10.41311834
 30
0.0
  0
VERTEX
  8
0
  6
CONTINUOUS
 62
       7
  5
48C
 10
85.73185286
 20
10.33929885
 30
0.0
  0
VERTEX
  8
0
  6
CONTINUOUS
 62
       7
  5
48D
 10
85.71548607
 20
10.26496007
 30
0.0
  0
VERTEX
  8
0
  6
CONTINUOUS
 62
       7
  5
48E
 10
85.70188489
 20
10.19019525
 30
0.0
  0
VERTEX
  8
0
  6
CONTINUOUS
 62
       7
  5
48F
 10
85.69114303
 20
10.11509764
 30
0.0
  0
VERTEX
  8
0
  6
CONTINUOUS
 62
       7
  5
490
 10
85.68335423
 20
10.03976048
 30
0.0
  0
VERTEX
  8
0
  6
CONTINUOUS
 62
       7
  5
491
 10
85.67861219
 20
9.964277
 30
0.0
  0
VERTEX
  8
0
  6
CONTINUOUS
 62
       7
  5
492
 10
85.67701064
 20
9.88874047
 30
0.0
  0
VERTEX
  8
0
  6
CONTINUOUS
 62
       7
  5
493
 10
85.67861207
 20
9.81256312
 30
0.0
  0
VERTEX
  8
0
  6
CONTINUOUS
 62
       7
  5
494
 10
85.68335401
 20
9.73637002
 30
0.0
  0
VERTEX
  8
0
  6
CONTINUOUS
 62
       7
  5
495
 10
85.69114273
 20
9.66026961
 30
0.0
  0
VERTEX
  8
0
  6
CONTINUOUS
 62
       7
  5
496
 10
85.70188451
 20
9.58437033
 30
0.0
  0
VERTEX
  8
0
  6
CONTINUOUS
 62
       7
  5
497
 10
85.71548565
 20
9.50878063
 30
0.0
  0
VERTEX
  8
0
  6
CONTINUOUS
 62
       7
  5
498
 10
85.7318524
 20
9.43360895
 30
0.0
  0
VERTEX
  8
0
  6
CONTINUOUS
 62
       7
  5
499
 10
85.75089106
 20
9.35896372
 30
0.0
  0
VERTEX
  8
0
  6
CONTINUOUS
 62
       7
  5
49A
 10
85.7725079
 20
9.2849534
 30
0.0
  0
VERTEX
  8
0
  6
CONTINUOUS
 62
       7
  5
49B
 10
85.7966092
 20
9.21168642
 30
0.0
  0
VERTEX
  8
0
  6
CONTINUOUS
 62
       7
  5
49C
 10
85.82310124
 20
9.13927124
 30
0.0
  0
VERTEX
  8
0
  6
CONTINUOUS
 62
       7
  5
49D
 10
85.8518903
 20
9.06781628
 30
0.0
  0
VERTEX
  8
0
  6
CONTINUOUS
 62
       7
  5
49E
 10
85.88288265
 20
8.99743
 30
0.0
  0
VERTEX
  8
0
  6
CONTINUOUS
 62
       7
  5
49F
 10
85.91598459
 20
8.92822084
 30
0.0
  0
VERTEX
  8
0
  6
CONTINUOUS
 62
       7
  5
4A0
 10
85.95110238
 20
8.86029723
 30
0.0
  0
VERTEX
  8
0
  6
CONTINUOUS
 62
       7
  5
4A1
 10
85.9881423
 20
8.79376763
 30
0.0
  0
VERTEX
  8
0
  6
CONTINUOUS
 62
       7
  5
4A2
 10
86.02701064
 20
8.72874047
 30
0.0
  0
SEQEND
  8
0
  6
CONTINUOUS
 62
       7
  5
4A3
  0
POLYLINE
  8
0
  6
CONTINUOUS
 62
       7
  5
116
 66
       1
 10
0.0
 20
0.0
 30
0.0
  0
VERTEX
  8
0
  6
CONTINUOUS
 62
       7
  5
4A4
 10
-17.82298936
 20
53.63874047
 30
0.0
  0
VERTEX
  8
0
  6
CONTINUOUS
 62
       7
  5
4A5
 10
-17.93565509
 20
53.40376418
 30
0.0
  0
VERTEX
  8
0
  6
CONTINUOUS
 62
       7
  5
4A6
 10
-18.04268089
 20
53.16541143
 30
0.0
  0
VERTEX
  8
0
  6
CONTINUOUS
 62
       7
  5
4A7
 10
-18.14384201
 20
52.92390507
 30
0.0
  0
VERTEX
  8
0
  6
CONTINUOUS
 62
       7
  5
4A8
 10
-18.23891369
 20
52.67946796
 30
0.0
  0
VERTEX
  8
0
  6
CONTINUOUS
 62
       7
  5
4A9
 10
-18.3276712
 20
52.43232294
 30
0.0
  0
VERTEX
  8
0
  6
CONTINUOUS
 62
       7
  5
4AA
 10
-18.40988977
 20
52.18269285
 30
0.0
  0
VERTEX
  8
0
  6
CONTINUOUS
 62
       7
  5
4AB
 10
-18.48534467
 20
51.93080056
 30
0.0
  0
VERTEX
  8
0
  6
CONTINUOUS
 62
       7
  5
4AC
 10
-18.55381113
 20
51.6768689
 30
0.0
  0
VERTEX
  8
0
  6
CONTINUOUS
 62
       7
  5
4AD
 10
-18.61506441
 20
51.42112073
 30
0.0
  0
VERTEX
  8
0
  6
CONTINUOUS
 62
       7
  5
4AE
 10
-18.66887977
 20
51.1637789
 30
0.0
  0
VERTEX
  8
0
  6
CONTINUOUS
 62
       7
  5
4AF
 10
-18.71503244
 20
50.90506624
 30
0.0
  0
VERTEX
  8
0
  6
CONTINUOUS
 62
       7
  5
4B0
 10
-18.75329768
 20
50.64520563
 30
0.0
  0
VERTEX
  8
0
  6
CONTINUOUS
 62
       7
  5
4B1
 10
-18.78345075
 20
50.38441989
 30
0.0
  0
VERTEX
  8
0
  6
CONTINUOUS
 62
       7
  5
4B2
 10
-18.80526688
 20
50.12293189
 30
0.0
  0
VERTEX
  8
0
  6
CONTINUOUS
 62
       7
  5
4B3
 10
-18.81852133
 20
49.86096446
 30
0.0
  0
VERTEX
  8
0
  6
CONTINUOUS
 62
       7
  5
4B4
 10
-18.82298936
 20
49.59874047
 30
0.0
  0
VERTEX
  8
0
  6
CONTINUOUS
 62
       7
  5
4B5
 10
-18.81852115
 20
49.33651647
 30
0.0
  0
VERTEX
  8
0
  6
CONTINUOUS
 62
       7
  5
4B6
 10
-18.80526659
 20
49.07454902
 30
0.0
  0
VERTEX
  8
0
  6
CONTINUOUS
 62
       7
  5
4B7
 10
-18.78345039
 20
48.81306098
 30
0.0
  0
VERTEX
  8
0
  6
CONTINUOUS
 62
       7
  5
4B8
 10
-18.75329732
 20
48.55227521
 30
0.0
  0
VERTEX
  8
0
  6
CONTINUOUS
 62
       7
  5
4B9
 10
-18.7150321
 20
48.29241454
 30
0.0
  0
VERTEX
  8
0
  6
CONTINUOUS
 62
       7
  5
4BA
 10
-18.66887948
 20
48.03370185
 30
0.0
  0
VERTEX
  8
0
  6
CONTINUOUS
 62
       7
  5
4BB
 10
-18.6150642
 20
47.77635997
 30
0.0
  0
VERTEX
  8
0
  6
CONTINUOUS
 62
       7
  5
4BC
 10
-18.553811
 20
47.52061176
 30
0.0
  0
VERTEX
  8
0
  6
CONTINUOUS
 62
       7
  5
4BD
 10
-18.48534463
 20
47.26668007
 30
0.0
  0
VERTEX
  8
0
  6
CONTINUOUS
 62
       7
  5
4BE
 10
-18.40988983
 20
47.01478776
 30
0.0
  0
VERTEX
  8
0
  6
CONTINUOUS
 62
       7
  5
4BF
 10
-18.32767132
 20
46.76515767
 30
0.0
  0
VERTEX
  8
0
  6
CONTINUOUS
 62
       7
  5
4C0
 10
-18.23891387
 20
46.51801266
 30
0.0
  0
VERTEX
  8
0
  6
CONTINUOUS
 62
       7
  5
4C1
 10
-18.14384221
 20
46.27357559
 30
0.0
  0
VERTEX
  8
0
  6
CONTINUOUS
 62
       7
  5
4C2
 10
-18.04268107
 20
46.03206929
 30
0.0
  0
VERTEX
  8
0
  6
CONTINUOUS
 62
       7
  5
4C3
 10
-17.93565521
 20
45.79371664
 30
0.0
  0
VERTEX
  8
0
  6
CONTINUOUS
 62
       7
  5
4C4
 10
-17.82298936
 20
45.55874047
 30
0.0
  0
SEQEND
  8
0
  6
CONTINUOUS
 62
       7
  5
4C5
  0
POLYLINE
  8
0
  6
CONTINUOUS
 62
       7
  5
117
 66
       1
 10
0.0
 20
0.0
 30
0.0
  0
VERTEX
  8
0
  6
CONTINUOUS
 62
       7
  5
4C6
 10
-9.02298936
 20
45.55874047
 30
0.0
  0
VERTEX
  8
0
  6
CONTINUOUS
 62
       7
  5
4C7
 10
-8.826283
 20
45.76383078
 30
0.0
  0
VERTEX
  8
0
  6
CONTINUOUS
 62
       7
  5
4C8
 10
-8.6334776
 20
45.97808176
 30
0.0
  0
VERTEX
  8
0
  6
CONTINUOUS
 62
       7
  5
4C9
 10
-8.445786
 20
46.20088496
 30
0.0
  0
VERTEX
  8
0
  6
CONTINUOUS
 62
       7
  5
4CA
 10
-8.26442102
 20
46.43163195
 30
0.0
  0
VERTEX
  8
0
  6
CONTINUOUS
 62
       7
  5
4CB
 10
-8.0905955
 20
46.6697143
 30
0.0
  0
VERTEX
  8
0
  6
CONTINUOUS
 62
       7
  5
4CC
 10
-7.92552227
 20
46.91452356
 30
0.0
  0
VERTEX
  8
0
  6
CONTINUOUS
 62
       7
  5
4CD
 10
-7.77041417
 20
47.1654513
 30
0.0
  0
VERTEX
  8
0
  6
CONTINUOUS
 62
       7
  5
4CE
 10
-7.62648403
 20
47.42188908
 30
0.0
  0
VERTEX
  8
0
  6
CONTINUOUS
 62
       7
  5
4CF
 10
-7.49494467
 20
47.68322847
 30
0.0
  0
VERTEX
  8
0
  6
CONTINUOUS
 62
       7
  5
4D0
 10
-7.37700895
 20
47.94886102
 30
0.0
  0
VERTEX
  8
0
  6
CONTINUOUS
 62
       7
  5
4D1
 10
-7.27388968
 20
48.21817831
 30
0.0
  0
VERTEX
  8
0
  6
CONTINUOUS
 62
       7
  5
4D2
 10
-7.1867997
 20
48.4905719
 30
0.0
  0
VERTEX
  8
0
  6
CONTINUOUS
 62
       7
  5
4D3
 10
-7.11695184
 20
48.76543334
 30
0.0
  0
VERTEX
  8
0
  6
CONTINUOUS
 62
       7
  5
4D4
 10
-7.06555895
 20
49.04215421
 30
0.0
  0
VERTEX
  8
0
  6
CONTINUOUS
 62
       7
  5
4D5
 10
-7.03383384
 20
49.32012607
 30
0.0
  0
VERTEX
  8
0
  6
CONTINUOUS
 62
       7
  5
4D6
 10
-7.02298936
 20
49.59874047
 30
0.0
  0
VERTEX
  8
0
  6
CONTINUOUS
 62
       7
  5
4D7
 10
-7.03383402
 20
49.87735488
 30
0.0
  0
VERTEX
  8
0
  6
CONTINUOUS
 62
       7
  5
4D8
 10
-7.06555924
 20
50.15532676
 30
0.0
  0
VERTEX
  8
0
  6
CONTINUOUS
 62
       7
  5
4D9
 10
-7.1169522
 20
50.43204767
 30
0.0
  0
VERTEX
  8
0
  6
CONTINUOUS
 62
       7
  5
4DA
 10
-7.18680007
 20
50.70690916
 30
0.0
  0
VERTEX
  8
0
  6
CONTINUOUS
 62
       7
  5
4DB
 10
-7.27389003
 20
50.9793028
 30
0.0
  0
VERTEX
  8
0
  6
CONTINUOUS
 62
       7
  5
4DC
 10
-7.37700925
 20
51.24862014
 30
0.0
  0
VERTEX
  8
0
  6
CONTINUOUS
 62
       7
  5
4DD
 10
-7.4949449
 20
51.51425275
 30
0.0
  0
VERTEX
  8
0
  6
CONTINUOUS
 62
       7
  5
4DE
 10
-7.62648417
 20
51.77559218
 30
0.0
  0
VERTEX
  8
0
  6
CONTINUOUS
 62
       7
  5
4DF
 10
-7.77041422
 20
52.03202999
 30
0.0
  0
VERTEX
  8
0
  6
CONTINUOUS
 62
       7
  5
4E0
 10
-7.92552224
 20
52.28295775
 30
0.0
  0
VERTEX
  8
0
  6
CONTINUOUS
 62
       7
  5
4E1
 10
-8.09059539
 20
52.52776701
 30
0.0
  0
VERTEX
  8
0
  6
CONTINUOUS
 62
       7
  5
4E2
 10
-8.26442086
 20
52.76584934
 30
0.0
  0
VERTEX
  8
0
  6
CONTINUOUS
 62
       7
  5
4E3
 10
-8.44578582
 20
52.99659629
 30
0.0
  0
VERTEX
  8
0
  6
CONTINUOUS
 62
       7
  5
4E4
 10
-8.63347743
 20
53.21939942
 30
0.0
  0
VERTEX
  8
0
  6
CONTINUOUS
 62
       7
  5
4E5
 10
-8.82628289
 20
53.43365029
 30
0.0
  0
VERTEX
  8
0
  6
CONTINUOUS
 62
       7
  5
4E6
 10
-9.02298936
 20
53.63874047
 30
0.0
  0
SEQEND
  8
0
  6
CONTINUOUS
 62
       7
  5
4E7
  0
POLYLINE
  8
0
  6
CONTINUOUS
 62
       7
  5
118
 66
       1
 10
0.0
 20
0.0
 30
0.0
  0
VERTEX
  8
0
  6
CONTINUOUS
 62
       7
  5
4E8
 10
-17.82298936
 20
57.67874047
 30
0.0
  0
VERTEX
  8
0
  6
CONTINUOUS
 62
       7
  5
4E9
 10
-17.92134255
 20
57.5761953
 30
0.0
  0
VERTEX
  8
0
  6
CONTINUOUS
 62
       7
  5
4EA
 10
-18.01774526
 20
57.46906977
 30
0.0
  0
VERTEX
  8
0
  6
CONTINUOUS
 62
       7
  5
4EB
 10
-18.11159106
 20
57.35766812
 30
0.0
  0
VERTEX
  8
0
  6
CONTINUOUS
 62
       7
  5
4EC
 10
-18.20227356
 20
57.24229456
 30
0.0
  0
VERTEX
  8
0
  6
CONTINUOUS
 62
       7
  5
4ED
 10
-18.28918632
 20
57.12325331
 30
0.0
  0
VERTEX
  8
0
  6
CONTINUOUS
 62
       7
  5
4EE
 10
-18.37172293
 20
57.00084861
 30
0.0
  0
VERTEX
  8
0
  6
CONTINUOUS
 62
       7
  5
4EF
 10
-18.44927698
 20
56.87538467
 30
0.0
  0
VERTEX
  8
0
  6
CONTINUOUS
 62
       7
  5
4F0
 10
-18.52124205
 20
56.74716572
 30
0.0
  0
VERTEX
  8
0
  6
CONTINUOUS
 62
       7
  5
4F1
 10
-18.58701172
 20
56.61649598
 30
0.0
  0
VERTEX
  8
0
  6
CONTINUOUS
 62
       7
  5
4F2
 10
-18.64597958
 20
56.48367968
 30
0.0
  0
VERTEX
  8
0
  6
CONTINUOUS
 62
       7
  5
4F3
 10
-18.69753921
 20
56.34902103
 30
0.0
  0
VERTEX
  8
0
  6
CONTINUOUS
 62
       7
  5
4F4
 10
-18.7410842
 20
56.21282426
 30
0.0
  0
VERTEX
  8
0
  6
CONTINUOUS
 62
       7
  5
4F5
 10
-18.77600812
 20
56.0753936
 30
0.0
  0
VERTEX
  8
0
  6
CONTINUOUS
 62
       7
  5
4F6
 10
-18.80170457
 20
55.93703326
 30
0.0
  0
VERTEX
  8
0
  6
CONTINUOUS
 62
       7
  5
4F7
 10
-18.81756712
 20
55.79804748
 30
0.0
  0
VERTEX
  8
0
  6
CONTINUOUS
 62
       7
  5
4F8
 10
-18.82298936
 20
55.65874047
 30
0.0
  0
VERTEX
  8
0
  6
CONTINUOUS
 62
       7
  5
4F9
 10
-18.81756703
 20
55.51943346
 30
0.0
  0
VERTEX
  8
0
  6
CONTINUOUS
 62
       7
  5
4FA
 10
-18.80170442
 20
55.38044766
 30
0.0
  0
VERTEX
  8
0
  6
CONTINUOUS
 62
       7
  5
4FB
 10
-18.77600794
 20
55.24208731
 30
0.0
  0
VERTEX
  8
0
  6
CONTINUOUS
 62
       7
  5
4FC
 10
-18.74108401
 20
55.10465662
 30
0.0
  0
VERTEX
  8
0
  6
CONTINUOUS
 62
       7
  5
4FD
 10
-18.69753904
 20
54.96845983
 30
0.0
  0
VERTEX
  8
0
  6
CONTINUOUS
 62
       7
  5
4FE
 10
-18.64597944
 20
54.83380116
 30
0.0
  0
VERTEX
  8
0
  6
CONTINUOUS
 62
       7
  5
4FF
 10
-18.58701162
 20
54.70098483
 30
0.0
  0
VERTEX
  8
0
  6
CONTINUOUS
 62
       7
  5
500
 10
-18.52124199
 20
54.57031507
 30
0.0
  0
VERTEX
  8
0
  6
CONTINUOUS
 62
       7
  5
501
 10
-18.44927696
 20
54.4420961
 30
0.0
  0
VERTEX
  8
0
  6
CONTINUOUS
 62
       7
  5
502
 10
-18.37172296
 20
54.31663215
 30
0.0
  0
VERTEX
  8
0
  6
CONTINUOUS
 62
       7
  5
503
 10
-18.28918638
 20
54.19422745
 30
0.0
  0
VERTEX
  8
0
  6
CONTINUOUS
 62
       7
  5
504
 10
-18.20227365
 20
54.07518621
 30
0.0
  0
VERTEX
  8
0
  6
CONTINUOUS
 62
       7
  5
505
 10
-18.11159116
 20
53.95981267
 30
0.0
  0
VERTEX
  8
0
  6
CONTINUOUS
 62
       7
  5
506
 10
-18.01774535
 20
53.84841105
 30
0.0
  0
VERTEX
  8
0
  6
CONTINUOUS
 62
       7
  5
507
 10
-17.92134261
 20
53.74128558
 30
0.0
  0
VERTEX
  8
0
  6
CONTINUOUS
 62
       7
  5
508
 10
-17.82298936
 20
53.63874047
 30
0.0
  0
SEQEND
  8
0
  6
CONTINUOUS
 62
       7
  5
509
  0
POLYLINE
  8
0
  6
CONTINUOUS
 62
       7
  5
119
 66
       1
 10
0.0
 20
0.0
 30
0.0
  0
VERTEX
  8
0
  6
CONTINUOUS
 62
       7
  5
50A
 10
-9.02298936
 20
53.63874047
 30
0.0
  0
VERTEX
  8
0
  6
CONTINUOUS
 62
       7
  5
50B
 10
-8.86112939
 20
53.72309508
 30
0.0
  0
VERTEX
  8
0
  6
CONTINUOUS
 62
       7
  5
50C
 10
-8.69418777
 20
53.81555076
 30
0.0
  0
VERTEX
  8
0
  6
CONTINUOUS
 62
       7
  5
50D
 10
-8.52430655
 20
53.91556858
 30
0.0
  0
VERTEX
  8
0
  6
CONTINUOUS
 62
       7
  5
50E
 10
-8.35362781
 20
54.0226096
 30
0.0
  0
VERTEX
  8
0
  6
CONTINUOUS
 62
       7
  5
50F
 10
-8.18429362
 20
54.13613489
 30
0.0
  0
VERTEX
  8
0
  6
CONTINUOUS
 62
       7
  5
510
 10
-8.01844605
 20
54.25560553
 30
0.0
  0
VERTEX
  8
0
  6
CONTINUOUS
 62
       7
  5
511
 10
-7.85822715
 20
54.38048257
 30
0.0
  0
VERTEX
  8
0
  6
CONTINUOUS
 62
       7
  5
512
 10
-7.70577902
 20
54.51022709
 30
0.0
  0
VERTEX
  8
0
  6
CONTINUOUS
 62
       7
  5
513
 10
-7.56324371
 20
54.64430015
 30
0.0
  0
VERTEX
  8
0
  6
CONTINUOUS
 62
       7
  5
514
 10
-7.43276328
 20
54.78216283
 30
0.0
  0
VERTEX
  8
0
  6
CONTINUOUS
 62
       7
  5
515
 10
-7.31647982
 20
54.92327618
 30
0.0
  0
VERTEX
  8
0
  6
CONTINUOUS
 62
       7
  5
516
 10
-7.21653539
 20
55.06710127
 30
0.0
  0
VERTEX
  8
0
  6
CONTINUOUS
 62
       7
  5
517
 10
-7.13507206
 20
55.21309918
 30
0.0
  0
VERTEX
  8
0
  6
CONTINUOUS
 62
       7
  5
518
 10
-7.0742319
 20
55.36073097
 30
0.0
  0
VERTEX
  8
0
  6
CONTINUOUS
 62
       7
  5
519
 10
-7.03615698
 20
55.50945771
 30
0.0
  0
VERTEX
  8
0
  6
CONTINUOUS
 62
       7
  5
51A
 10
-7.02298936
 20
55.65874047
 30
0.0
  0
VERTEX
  8
0
  6
CONTINUOUS
 62
       7
  5
51B
 10
-7.03615707
 20
55.80802323
 30
0.0
  0
VERTEX
  8
0
  6
CONTINUOUS
 62
       7
  5
51C
 10
-7.07423206
 20
55.95674999
 30
0.0
  0
VERTEX
  8
0
  6
CONTINUOUS
 62
       7
  5
51D
 10
-7.13507226
 20
56.10438181
 30
0.0
  0
VERTEX
  8
0
  6
CONTINUOUS
 62
       7
  5
51E
 10
-7.2165356
 20
56.25037975
 30
0.0
  0
VERTEX
  8
0
  6
CONTINUOUS
 62
       7
  5
51F
 10
-7.31648002
 20
56.39420489
 30
0.0
  0
VERTEX
  8
0
  6
CONTINUOUS
 62
       7
  5
520
 10
-7.43276345
 20
56.53531828
 30
0.0
  0
VERTEX
  8
0
  6
CONTINUOUS
 62
       7
  5
521
 10
-7.56324383
 20
56.67318098
 30
0.0
  0
VERTEX
  8
0
  6
CONTINUOUS
 62
       7
  5
522
 10
-7.7057791
 20
56.80725408
 30
0.0
  0
VERTEX
  8
0
  6
CONTINUOUS
 62
       7
  5
523
 10
-7.85822719
 20
56.93699862
 30
0.0
  0
VERTEX
  8
0
  6
CONTINUOUS
 62
       7
  5
524
 10
-8.01844603
 20
57.06187568
 30
0.0
  0
VERTEX
  8
0
  6
CONTINUOUS
 62
       7
  5
525
 10
-8.18429357
 20
57.18134632
 30
0.0
  0
VERTEX
  8
0
  6
CONTINUOUS
 62
       7
  5
526
 10
-8.35362773
 20
57.2948716
 30
0.0
  0
VERTEX
  8
0
  6
CONTINUOUS
 62
       7
  5
527
 10
-8.52430645
 20
57.40191259
 30
0.0
  0
VERTEX
  8
0
  6
CONTINUOUS
 62
       7
  5
528
 10
-8.69418768
 20
57.50193036
 30
0.0
  0
VERTEX
  8
0
  6
CONTINUOUS
 62
       7
  5
529
 10
-8.86112933
 20
57.59438596
 30
0.0
  0
VERTEX
  8
0
  6
CONTINUOUS
 62
       7
  5
52A
 10
-9.02298936
 20
57.67874047
 30
0.0
  0
SEQEND
  8
0
  6
CONTINUOUS
 62
       7
  5
52B
  0
POLYLINE
  8
0
  6
CONTINUOUS
 62
       7
  5
11A
 66
       1
 10
0.0
 20
0.0
 30
0.0
  0
VERTEX
  8
0
  6
CONTINUOUS
 62
       7
  5
52C
 10
-9.02298936
 20
41.51874047
 30
0.0
  0
VERTEX
  8
0
  6
CONTINUOUS
 62
       7
  5
52D
 10
-8.8611294
 20
41.60309506
 30
0.0
  0
VERTEX
  8
0
  6
CONTINUOUS
 62
       7
  5
52E
 10
-8.69418779
 20
41.69555073
 30
0.0
  0
VERTEX
  8
0
  6
CONTINUOUS
 62
       7
  5
52F
 10
-8.52430659
 20
41.79556855
 30
0.0
  0
VERTEX
  8
0
  6
CONTINUOUS
 62
       7
  5
530
 10
-8.35362786
 20
41.90260957
 30
0.0
  0
VERTEX
  8
0
  6
CONTINUOUS
 62
       7
  5
531
 10
-8.18429368
 20
42.01613488
 30
0.0
  0
VERTEX
  8
0
  6
CONTINUOUS
 62
       7
  5
532
 10
-8.01844611
 20
42.13560552
 30
0.0
  0
VERTEX
  8
0
  6
CONTINUOUS
 62
       7
  5
533
 10
-7.85822723
 20
42.26048258
 30
0.0
  0
VERTEX
  8
0
  6
CONTINUOUS
 62
       7
  5
534
 10
-7.7057791
 20
42.39022711
 30
0.0
  0
VERTEX
  8
0
  6
CONTINUOUS
 62
       7
  5
535
 10
-7.56324379
 20
42.52430019
 30
0.0
  0
VERTEX
  8
0
  6
CONTINUOUS
 62
       7
  5
536
 10
-7.43276337
 20
42.66216287
 30
0.0
  0
VERTEX
  8
0
  6
CONTINUOUS
 62
       7
  5
537
 10
-7.31647991
 20
42.80327623
 30
0.0
  0
VERTEX
  8
0
  6
CONTINUOUS
 62
       7
  5
538
 10
-7.21653547
 20
42.94710133
 30
0.0
  0
VERTEX
  8
0
  6
CONTINUOUS
 62
       7
  5
539
 10
-7.13507213
 20
43.09309924
 30
0.0
  0
VERTEX
  8
0
  6
CONTINUOUS
 62
       7
  5
53A
 10
-7.07423195
 20
43.24073102
 30
0.0
  0
VERTEX
  8
0
  6
CONTINUOUS
 62
       7
  5
53B
 10
-7.036157
 20
43.38945774
 30
0.0
  0
VERTEX
  8
0
  6
CONTINUOUS
 62
       7
  5
53C
 10
-7.02298936
 20
43.53874047
 30
0.0
  0
VERTEX
  8
0
  6
CONTINUOUS
 62
       7
  5
53D
 10
-7.03615705
 20
43.6880232
 30
0.0
  0
VERTEX
  8
0
  6
CONTINUOUS
 62
       7
  5
53E
 10
-7.07423202
 20
43.83674994
 30
0.0
  0
VERTEX
  8
0
  6
CONTINUOUS
 62
       7
  5
53F
 10
-7.1350722
 20
43.98438174
 30
0.0
  0
VERTEX
  8
0
  6
CONTINUOUS
 62
       7
  5
540
 10
-7.21653553
 20
44.13037967
 30
0.0
  0
VERTEX
  8
0
  6
CONTINUOUS
 62
       7
  5
541
 10
-7.31647995
 20
44.27420479
 30
0.0
  0
VERTEX
  8
0
  6
CONTINUOUS
 62
       7
  5
542
 10
-7.43276338
 20
44.41531817
 30
0.0
  0
VERTEX
  8
0
  6
CONTINUOUS
 62
       7
  5
543
 10
-7.56324377
 20
44.55318088
 30
0.0
  0
VERTEX
  8
0
  6
CONTINUOUS
 62
       7
  5
544
 10
-7.70577904
 20
44.68725397
 30
0.0
  0
VERTEX
  8
0
  6
CONTINUOUS
 62
       7
  5
545
 10
-7.85822714
 20
44.81699852
 30
0.0
  0
VERTEX
  8
0
  6
CONTINUOUS
 62
       7
  5
546
 10
-8.01844599
 20
44.94187558
 30
0.0
  0
VERTEX
  8
0
  6
CONTINUOUS
 62
       7
  5
547
 10
-8.18429353
 20
45.06134623
 30
0.0
  0
VERTEX
  8
0
  6
CONTINUOUS
 62
       7
  5
548
 10
-8.35362771
 20
45.17487153
 30
0.0
  0
VERTEX
  8
0
  6
CONTINUOUS
 62
       7
  5
549
 10
-8.52430644
 20
45.28191253
 30
0.0
  0
VERTEX
  8
0
  6
CONTINUOUS
 62
       7
  5
54A
 10
-8.69418767
 20
45.38193032
 30
0.0
  0
VERTEX
  8
0
  6
CONTINUOUS
 62
       7
  5
54B
 10
-8.86112933
 20
45.47438594
 30
0.0
  0
VERTEX
  8
0
  6
CONTINUOUS
 62
       7
  5
54C
 10
-9.02298936
 20
45.55874047
 30
0.0
  0
SEQEND
  8
0
  6
CONTINUOUS
 62
       7
  5
54D
  0
POLYLINE
  8
0
  6
CONTINUOUS
 62
       7
  5
11B
 66
       1
 10
0.0
 20
0.0
 30
0.0
  0
VERTEX
  8
0
  6
CONTINUOUS
 62
       7
  5
54E
 10
-17.82298936
 20
45.55874047
 30
0.0
  0
VERTEX
  8
0
  6
CONTINUOUS
 62
       7
  5
54F
 10
-17.92134253
 20
45.45619528
 30
0.0
  0
VERTEX
  8
0
  6
CONTINUOUS
 62
       7
  5
550
 10
-18.01774523
 20
45.34906974
 30
0.0
  0
VERTEX
  8
0
  6
CONTINUOUS
 62
       7
  5
551
 10
-18.11159104
 20
45.23766808
 30
0.0
  0
VERTEX
  8
0
  6
CONTINUOUS
 62
       7
  5
552
 10
-18.20227353
 20
45.12229451
 30
0.0
  0
VERTEX
  8
0
  6
CONTINUOUS
 62
       7
  5
553
 10
-18.2891863
 20
45.00325326
 30
0.0
  0
VERTEX
  8
0
  6
CONTINUOUS
 62
       7
  5
554
 10
-18.37172292
 20
44.88084856
 30
0.0
  0
VERTEX
  8
0
  6
CONTINUOUS
 62
       7
  5
555
 10
-18.44927697
 20
44.75538462
 30
0.0
  0
VERTEX
  8
0
  6
CONTINUOUS
 62
       7
  5
556
 10
-18.52124205
 20
44.62716567
 30
0.0
  0
VERTEX
  8
0
  6
CONTINUOUS
 62
       7
  5
557
 10
-18.58701173
 20
44.49649593
 30
0.0
  0
VERTEX
  8
0
  6
CONTINUOUS
 62
       7
  5
558
 10
-18.6459796
 20
44.36367963
 30
0.0
  0
VERTEX
  8
0
  6
CONTINUOUS
 62
       7
  5
559
 10
-18.69753924
 20
44.22902099
 30
0.0
  0
VERTEX
  8
0
  6
CONTINUOUS
 62
       7
  5
55A
 10
-18.74108423
 20
44.09282423
 30
0.0
  0
VERTEX
  8
0
  6
CONTINUOUS
 62
       7
  5
55B
 10
-18.77600815
 20
43.95539357
 30
0.0
  0
VERTEX
  8
0
  6
CONTINUOUS
 62
       7
  5
55C
 10
-18.80170459
 20
43.81703325
 30
0.0
  0
VERTEX
  8
0
  6
CONTINUOUS
 62
       7
  5
55D
 10
-18.81756713
 20
43.67804747
 30
0.0
  0
VERTEX
  8
0
  6
CONTINUOUS
 62
       7
  5
55E
 10
-18.82298936
 20
43.53874047
 30
0.0
  0
VERTEX
  8
0
  6
CONTINUOUS
 62
       7
  5
55F
 10
-18.81756701
 20
43.39943346
 30
0.0
  0
VERTEX
  8
0
  6
CONTINUOUS
 62
       7
  5
560
 10
-18.80170439
 20
43.26044767
 30
0.0
  0
VERTEX
  8
0
  6
CONTINUOUS
 62
       7
  5
561
 10
-18.7760079
 20
43.12208732
 30
0.0
  0
VERTEX
  8
0
  6
CONTINUOUS
 62
       7
  5
562
 10
-18.74108395
 20
42.98465663
 30
0.0
  0
VERTEX
  8
0
  6
CONTINUOUS
 62
       7
  5
563
 10
-18.69753897
 20
42.84845983
 30
0.0
  0
VERTEX
  8
0
  6
CONTINUOUS
 62
       7
  5
564
 10
-18.64597936
 20
42.71380116
 30
0.0
  0
VERTEX
  8
0
  6
CONTINUOUS
 62
       7
  5
565
 10
-18.58701153
 20
42.58098482
 30
0.0
  0
VERTEX
  8
0
  6
CONTINUOUS
 62
       7
  5
566
 10
-18.5212419
 20
42.45031505
 30
0.0
  0
VERTEX
  8
0
  6
CONTINUOUS
 62
       7
  5
567
 10
-18.44927688
 20
42.32209608
 30
0.0
  0
VERTEX
  8
0
  6
CONTINUOUS
 62
       7
  5
568
 10
-18.37172287
 20
42.19663213
 30
0.0
  0
VERTEX
  8
0
  6
CONTINUOUS
 62
       7
  5
569
 10
-18.2891863
 20
42.07422742
 30
0.0
  0
VERTEX
  8
0
  6
CONTINUOUS
 62
       7
  5
56A
 10
-18.20227357
 20
41.95518619
 30
0.0
  0
VERTEX
  8
0
  6
CONTINUOUS
 62
       7
  5
56B
 10
-18.11159111
 20
41.83981265
 30
0.0
  0
VERTEX
  8
0
  6
CONTINUOUS
 62
       7
  5
56C
 10
-18.0177453
 20
41.72841103
 30
0.0
  0
VERTEX
  8
0
  6
CONTINUOUS
 62
       7
  5
56D
 10
-17.92134258
 20
41.62128556
 30
0.0
  0
VERTEX
  8
0
  6
CONTINUOUS
 62
       7
  5
56E
 10
-17.82298936
 20
41.51874047
 30
0.0
  0
SEQEND
  8
0
  6
CONTINUOUS
 62
       7
  5
56F
  0
POLYLINE
  8
0
  6
CONTINUOUS
 62
       7
  5
11C
 66
       1
 10
0.0
 20
0.0
 30
0.0
  0
VERTEX
  8
0
  6
CONTINUOUS
 62
       7
  5
570
 10
89.17701064
 20
53.63874047
 30
0.0
  0
VERTEX
  8
0
  6
CONTINUOUS
 62
       7
  5
571
 10
89.28967637
 20
53.40376418
 30
0.0
  0
VERTEX
  8
0
  6
CONTINUOUS
 62
       7
  5
572
 10
89.39670217
 20
53.16541143
 30
0.0
  0
VERTEX
  8
0
  6
CONTINUOUS
 62
       7
  5
573
 10
89.49786329
 20
52.92390507
 30
0.0
  0
VERTEX
  8
0
  6
CONTINUOUS
 62
       7
  5
574
 10
89.59293497
 20
52.67946796
 30
0.0
  0
VERTEX
  8
0
  6
CONTINUOUS
 62
       7
  5
575
 10
89.68169248
 20
52.43232294
 30
0.0
  0
VERTEX
  8
0
  6
CONTINUOUS
 62
       7
  5
576
 10
89.76391106
 20
52.18269285
 30
0.0
  0
VERTEX
  8
0
  6
CONTINUOUS
 62
       7
  5
577
 10
89.83936595
 20
51.93080056
 30
0.0
  0
VERTEX
  8
0
  6
CONTINUOUS
 62
       7
  5
578
 10
89.90783241
 20
51.6768689
 30
0.0
  0
VERTEX
  8
0
  6
CONTINUOUS
 62
       7
  5
579
 10
89.9690857
 20
51.42112073
 30
0.0
  0
VERTEX
  8
0
  6
CONTINUOUS
 62
       7
  5
57A
 10
90.02290105
 20
51.1637789
 30
0.0
  0
VERTEX
  8
0
  6
CONTINUOUS
 62
       7
  5
57B
 10
90.06905372
 20
50.90506624
 30
0.0
  0
VERTEX
  8
0
  6
CONTINUOUS
 62
       7
  5
57C
 10
90.10731897
 20
50.64520563
 30
0.0
  0
VERTEX
  8
0
  6
CONTINUOUS
 62
       7
  5
57D
 10
90.13747203
 20
50.38441989
 30
0.0
  0
VERTEX
  8
0
  6
CONTINUOUS
 62
       7
  5
57E
 10
90.15928816
 20
50.12293189
 30
0.0
  0
VERTEX
  8
0
  6
CONTINUOUS
 62
       7
  5
57F
 10
90.17254262
 20
49.86096446
 30
0.0
  0
VERTEX
  8
0
  6
CONTINUOUS
 62
       7
  5
580
 10
90.17701064
 20
49.59874047
 30
0.0
  0
VERTEX
  8
0
  6
CONTINUOUS
 62
       7
  5
581
 10
90.17254244
 20
49.33651647
 30
0.0
  0
VERTEX
  8
0
  6
CONTINUOUS
 62
       7
  5
582
 10
90.15928787
 20
49.07454902
 30
0.0
  0
VERTEX
  8
0
  6
CONTINUOUS
 62
       7
  5
583
 10
90.13747167
 20
48.81306098
 30
0.0
  0
VERTEX
  8
0
  6
CONTINUOUS
 62
       7
  5
584
 10
90.1073186
 20
48.55227521
 30
0.0
  0
VERTEX
  8
0
  6
CONTINUOUS
 62
       7
  5
585
 10
90.06905338
 20
48.29241454
 30
0.0
  0
VERTEX
  8
0
  6
CONTINUOUS
 62
       7
  5
586
 10
90.02290076
 20
48.03370185
 30
0.0
  0
VERTEX
  8
0
  6
CONTINUOUS
 62
       7
  5
587
 10
89.96908548
 20
47.77635997
 30
0.0
  0
VERTEX
  8
0
  6
CONTINUOUS
 62
       7
  5
588
 10
89.90783229
 20
47.52061176
 30
0.0
  0
VERTEX
  8
0
  6
CONTINUOUS
 62
       7
  5
589
 10
89.83936592
 20
47.26668007
 30
0.0
  0
VERTEX
  8
0
  6
CONTINUOUS
 62
       7
  5
58A
 10
89.76391111
 20
47.01478776
 30
0.0
  0
VERTEX
  8
0
  6
CONTINUOUS
 62
       7
  5
58B
 10
89.68169261
 20
46.76515767
 30
0.0
  0
VERTEX
  8
0
  6
CONTINUOUS
 62
       7
  5
58C
 10
89.59293515
 20
46.51801266
 30
0.0
  0
VERTEX
  8
0
  6
CONTINUOUS
 62
       7
  5
58D
 10
89.49786349
 20
46.27357559
 30
0.0
  0
VERTEX
  8
0
  6
CONTINUOUS
 62
       7
  5
58E
 10
89.39670235
 20
46.03206929
 30
0.0
  0
VERTEX
  8
0
  6
CONTINUOUS
 62
       7
  5
58F
 10
89.28967649
 20
45.79371664
 30
0.0
  0
VERTEX
  8
0
  6
CONTINUOUS
 62
       7
  5
590
 10
89.17701064
 20
45.55874047
 30
0.0
  0
SEQEND
  8
0
  6
CONTINUOUS
 62
       7
  5
591
  0
POLYLINE
  8
0
  6
CONTINUOUS
 62
       7
  5
11D
 66
       1
 10
0.0
 20
0.0
 30
0.0
  0
VERTEX
  8
0
  6
CONTINUOUS
 62
       7
  5
592
 10
80.37701064
 20
45.55874047
 30
0.0
  0
VERTEX
  8
0
  6
CONTINUOUS
 62
       7
  5
593
 10
80.18030428
 20
45.76383079
 30
0.0
  0
VERTEX
  8
0
  6
CONTINUOUS
 62
       7
  5
594
 10
79.98749887
 20
45.97808177
 30
0.0
  0
VERTEX
  8
0
  6
CONTINUOUS
 62
       7
  5
595
 10
79.79980727
 20
46.20088497
 30
0.0
  0
VERTEX
  8
0
  6
CONTINUOUS
 62
       7
  5
596
 10
79.61844228
 20
46.43163196
 30
0.0
  0
VERTEX
  8
0
  6
CONTINUOUS
 62
       7
  5
597
 10
79.44461676
 20
46.6697143
 30
0.0
  0
VERTEX
  8
0
  6
CONTINUOUS
 62
       7
  5
598
 10
79.27954354
 20
46.91452356
 30
0.0
  0
VERTEX
  8
0
  6
CONTINUOUS
 62
       7
  5
599
 10
79.12443543
 20
47.1654513
 30
0.0
  0
VERTEX
  8
0
  6
CONTINUOUS
 62
       7
  5
59A
 10
78.98050529
 20
47.42188908
 30
0.0
  0
VERTEX
  8
0
  6
CONTINUOUS
 62
       7
  5
59B
 10
78.84896594
 20
47.68322846
 30
0.0
  0
VERTEX
  8
0
  6
CONTINUOUS
 62
       7
  5
59C
 10
78.73103022
 20
47.94886101
 30
0.0
  0
VERTEX
  8
0
  6
CONTINUOUS
 62
       7
  5
59D
 10
78.62791095
 20
48.2181783
 30
0.0
  0
VERTEX
  8
0
  6
CONTINUOUS
 62
       7
  5
59E
 10
78.54082097
 20
48.49057189
 30
0.0
  0
VERTEX
  8
0
  6
CONTINUOUS
 62
       7
  5
59F
 10
78.47097312
 20
48.76543333
 30
0.0
  0
VERTEX
  8
0
  6
CONTINUOUS
 62
       7
  5
5A0
 10
78.41958023
 20
49.0421542
 30
0.0
  0
VERTEX
  8
0
  6
CONTINUOUS
 62
       7
  5
5A1
 10
78.38785512
 20
49.32012606
 30
0.0
  0
VERTEX
  8
0
  6
CONTINUOUS
 62
       7
  5
5A2
 10
78.37701064
 20
49.59874047
 30
0.0
  0
VERTEX
  8
0
  6
CONTINUOUS
 62
       7
  5
5A3
 10
78.3878553
 20
49.87735489
 30
0.0
  0
VERTEX
  8
0
  6
CONTINUOUS
 62
       7
  5
5A4
 10
78.41958053
 20
50.15532677
 30
0.0
  0
VERTEX
  8
0
  6
CONTINUOUS
 62
       7
  5
5A5
 10
78.47097348
 20
50.43204768
 30
0.0
  0
VERTEX
  8
0
  6
CONTINUOUS
 62
       7
  5
5A6
 10
78.54082135
 20
50.70690917
 30
0.0
  0
VERTEX
  8
0
  6
CONTINUOUS
 62
       7
  5
5A7
 10
78.6279113
 20
50.97930281
 30
0.0
  0
VERTEX
  8
0
  6
CONTINUOUS
 62
       7
  5
5A8
 10
78.73103052
 20
51.24862015
 30
0.0
  0
VERTEX
  8
0
  6
CONTINUOUS
 62
       7
  5
5A9
 10
78.84896617
 20
51.51425275
 30
0.0
  0
VERTEX
  8
0
  6
CONTINUOUS
 62
       7
  5
5AA
 10
78.98050544
 20
51.77559218
 30
0.0
  0
VERTEX
  8
0
  6
CONTINUOUS
 62
       7
  5
5AB
 10
79.12443549
 20
52.03202999
 30
0.0
  0
VERTEX
  8
0
  6
CONTINUOUS
 62
       7
  5
5AC
 10
79.2795435
 20
52.28295775
 30
0.0
  0
VERTEX
  8
0
  6
CONTINUOUS
 62
       7
  5
5AD
 10
79.44461666
 20
52.52776701
 30
0.0
  0
VERTEX
  8
0
  6
CONTINUOUS
 62
       7
  5
5AE
 10
79.61844212
 20
52.76584933
 30
0.0
  0
VERTEX
  8
0
  6
CONTINUOUS
 62
       7
  5
5AF
 10
79.79980708
 20
52.99659628
 30
0.0
  0
VERTEX
  8
0
  6
CONTINUOUS
 62
       7
  5
5B0
 10
79.9874987
 20
53.21939941
 30
0.0
  0
VERTEX
  8
0
  6
CONTINUOUS
 62
       7
  5
5B1
 10
80.18030416
 20
53.43365029
 30
0.0
  0
VERTEX
  8
0
  6
CONTINUOUS
 62
       7
  5
5B2
 10
80.37701064
 20
53.63874047
 30
0.0
  0
SEQEND
  8
0
  6
CONTINUOUS
 62
       7
  5
5B3
  0
POLYLINE
  8
0
  6
CONTINUOUS
 62
       7
  5
11E
 66
       1
 10
0.0
 20
0.0
 30
0.0
  0
VERTEX
  8
0
  6
CONTINUOUS
 62
       7
  5
5B4
 10
89.17701064
 20
57.67874047
 30
0.0
  0
VERTEX
  8
0
  6
CONTINUOUS
 62
       7
  5
5B5
 10
89.27536383
 20
57.5761953
 30
0.0
  0
VERTEX
  8
0
  6
CONTINUOUS
 62
       7
  5
5B6
 10
89.37176654
 20
57.46906977
 30
0.0
  0
VERTEX
  8
0
  6
CONTINUOUS
 62
       7
  5
5B7
 10
89.46561235
 20
57.35766812
 30
0.0
  0
VERTEX
  8
0
  6
CONTINUOUS
 62
       7
  5
5B8
 10
89.55629484
 20
57.24229456
 30
0.0
  0
VERTEX
  8
0
  6
CONTINUOUS
 62
       7
  5
5B9
 10
89.6432076
 20
57.12325331
 30
0.0
  0
VERTEX
  8
0
  6
CONTINUOUS
 62
       7
  5
5BA
 10
89.72574421
 20
57.00084861
 30
0.0
  0
VERTEX
  8
0
  6
CONTINUOUS
 62
       7
  5
5BB
 10
89.80329826
 20
56.87538467
 30
0.0
  0
VERTEX
  8
0
  6
CONTINUOUS
 62
       7
  5
5BC
 10
89.87526333
 20
56.74716572
 30
0.0
  0
VERTEX
  8
0
  6
CONTINUOUS
 62
       7
  5
5BD
 10
89.94103301
 20
56.61649598
 30
0.0
  0
VERTEX
  8
0
  6
CONTINUOUS
 62
       7
  5
5BE
 10
90.00000087
 20
56.48367968
 30
0.0
  0
VERTEX
  8
0
  6
CONTINUOUS
 62
       7
  5
5BF
 10
90.0515605
 20
56.34902103
 30
0.0
  0
VERTEX
  8
0
  6
CONTINUOUS
 62
       7
  5
5C0
 10
90.09510548
 20
56.21282426
 30
0.0
  0
VERTEX
  8
0
  6
CONTINUOUS
 62
       7
  5
5C1
 10
90.13002941
 20
56.0753936
 30
0.0
  0
VERTEX
  8
0
  6
CONTINUOUS
 62
       7
  5
5C2
 10
90.15572585
 20
55.93703326
 30
0.0
  0
VERTEX
  8
0
  6
CONTINUOUS
 62
       7
  5
5C3
 10
90.1715884
 20
55.79804748
 30
0.0
  0
VERTEX
  8
0
  6
CONTINUOUS
 62
       7
  5
5C4
 10
90.17701064
 20
55.65874047
 30
0.0
  0
VERTEX
  8
0
  6
CONTINUOUS
 62
       7
  5
5C5
 10
90.17158831
 20
55.51943346
 30
0.0
  0
VERTEX
  8
0
  6
CONTINUOUS
 62
       7
  5
5C6
 10
90.1557257
 20
55.38044766
 30
0.0
  0
VERTEX
  8
0
  6
CONTINUOUS
 62
       7
  5
5C7
 10
90.13002923
 20
55.24208731
 30
0.0
  0
VERTEX
  8
0
  6
CONTINUOUS
 62
       7
  5
5C8
 10
90.0951053
 20
55.10465662
 30
0.0
  0
VERTEX
  8
0
  6
CONTINUOUS
 62
       7
  5
5C9
 10
90.05156032
 20
54.96845983
 30
0.0
  0
VERTEX
  8
0
  6
CONTINUOUS
 62
       7
  5
5CA
 10
90.00000072
 20
54.83380116
 30
0.0
  0
VERTEX
  8
0
  6
CONTINUOUS
 62
       7
  5
5CB
 10
89.9410329
 20
54.70098483
 30
0.0
  0
VERTEX
  8
0
  6
CONTINUOUS
 62
       7
  5
5CC
 10
89.87526327
 20
54.57031507
 30
0.0
  0
VERTEX
  8
0
  6
CONTINUOUS
 62
       7
  5
5CD
 10
89.80329825
 20
54.4420961
 30
0.0
  0
VERTEX
  8
0
  6
CONTINUOUS
 62
       7
  5
5CE
 10
89.72574424
 20
54.31663215
 30
0.0
  0
VERTEX
  8
0
  6
CONTINUOUS
 62
       7
  5
5CF
 10
89.64320766
 20
54.19422745
 30
0.0
  0
VERTEX
  8
0
  6
CONTINUOUS
 62
       7
  5
5D0
 10
89.55629493
 20
54.07518621
 30
0.0
  0
VERTEX
  8
0
  6
CONTINUOUS
 62
       7
  5
5D1
 10
89.46561245
 20
53.95981267
 30
0.0
  0
VERTEX
  8
0
  6
CONTINUOUS
 62
       7
  5
5D2
 10
89.37176663
 20
53.84841105
 30
0.0
  0
VERTEX
  8
0
  6
CONTINUOUS
 62
       7
  5
5D3
 10
89.27536389
 20
53.74128558
 30
0.0
  0
VERTEX
  8
0
  6
CONTINUOUS
 62
       7
  5
5D4
 10
89.17701064
 20
53.63874047
 30
0.0
  0
SEQEND
  8
0
  6
CONTINUOUS
 62
       7
  5
5D5
  0
POLYLINE
  8
0
  6
CONTINUOUS
 62
       7
  5
11F
 66
       1
 10
0.0
 20
0.0
 30
0.0
  0
VERTEX
  8
0
  6
CONTINUOUS
 62
       7
  5
5D6
 10
80.37701064
 20
53.63874047
 30
0.0
  0
VERTEX
  8
0
  6
CONTINUOUS
 62
       7
  5
5D7
 10
80.21515068
 20
53.72309508
 30
0.0
  0
VERTEX
  8
0
  6
CONTINUOUS
 62
       7
  5
5D8
 10
80.04820905
 20
53.81555076
 30
0.0
  0
VERTEX
  8
0
  6
CONTINUOUS
 62
       7
  5
5D9
 10
79.87832783
 20
53.91556858
 30
0.0
  0
VERTEX
  8
0
  6
CONTINUOUS
 62
       7
  5
5DA
 10
79.7076491
 20
54.0226096
 30
0.0
  0
VERTEX
  8
0
  6
CONTINUOUS
 62
       7
  5
5DB
 10
79.5383149
 20
54.13613489
 30
0.0
  0
VERTEX
  8
0
  6
CONTINUOUS
 62
       7
  5
5DC
 10
79.37246733
 20
54.25560553
 30
0.0
  0
VERTEX
  8
0
  6
CONTINUOUS
 62
       7
  5
5DD
 10
79.21224844
 20
54.38048257
 30
0.0
  0
VERTEX
  8
0
  6
CONTINUOUS
 62
       7
  5
5DE
 10
79.0598003
 20
54.51022709
 30
0.0
  0
VERTEX
  8
0
  6
CONTINUOUS
 62
       7
  5
5DF
 10
78.91726499
 20
54.64430015
 30
0.0
  0
VERTEX
  8
0
  6
CONTINUOUS
 62
       7
  5
5E0
 10
78.78678457
 20
54.78216283
 30
0.0
  0
VERTEX
  8
0
  6
CONTINUOUS
 62
       7
  5
5E1
 10
78.67050111
 20
54.92327618
 30
0.0
  0
VERTEX
  8
0
  6
CONTINUOUS
 62
       7
  5
5E2
 10
78.57055668
 20
55.06710127
 30
0.0
  0
VERTEX
  8
0
  6
CONTINUOUS
 62
       7
  5
5E3
 10
78.48909335
 20
55.21309918
 30
0.0
  0
VERTEX
  8
0
  6
CONTINUOUS
 62
       7
  5
5E4
 10
78.42825318
 20
55.36073097
 30
0.0
  0
VERTEX
  8
0
  6
CONTINUOUS
 62
       7
  5
5E5
 10
78.39017826
 20
55.50945771
 30
0.0
  0
VERTEX
  8
0
  6
CONTINUOUS
 62
       7
  5
5E6
 10
78.37701064
 20
55.65874047
 30
0.0
  0
VERTEX
  8
0
  6
CONTINUOUS
 62
       7
  5
5E7
 10
78.39017836
 20
55.80802323
 30
0.0
  0
VERTEX
  8
0
  6
CONTINUOUS
 62
       7
  5
5E8
 10
78.42825335
 20
55.95674999
 30
0.0
  0
VERTEX
  8
0
  6
CONTINUOUS
 62
       7
  5
5E9
 10
78.48909354
 20
56.10438181
 30
0.0
  0
VERTEX
  8
0
  6
CONTINUOUS
 62
       7
  5
5EA
 10
78.57055688
 20
56.25037975
 30
0.0
  0
VERTEX
  8
0
  6
CONTINUOUS
 62
       7
  5
5EB
 10
78.6705013
 20
56.39420489
 30
0.0
  0
VERTEX
  8
0
  6
CONTINUOUS
 62
       7
  5
5EC
 10
78.78678473
 20
56.53531828
 30
0.0
  0
VERTEX
  8
0
  6
CONTINUOUS
 62
       7
  5
5ED
 10
78.91726511
 20
56.67318098
 30
0.0
  0
VERTEX
  8
0
  6
CONTINUOUS
 62
       7
  5
5EE
 10
79.05980038
 20
56.80725408
 30
0.0
  0
VERTEX
  8
0
  6
CONTINUOUS
 62
       7
  5
5EF
 10
79.21224847
 20
56.93699862
 30
0.0
  0
VERTEX
  8
0
  6
CONTINUOUS
 62
       7
  5
5F0
 10
79.37246731
 20
57.06187568
 30
0.0
  0
VERTEX
  8
0
  6
CONTINUOUS
 62
       7
  5
5F1
 10
79.53831485
 20
57.18134632
 30
0.0
  0
VERTEX
  8
0
  6
CONTINUOUS
 62
       7
  5
5F2
 10
79.70764901
 20
57.2948716
 30
0.0
  0
VERTEX
  8
0
  6
CONTINUOUS
 62
       7
  5
5F3
 10
79.87832774
 20
57.40191259
 30
0.0
  0
VERTEX
  8
0
  6
CONTINUOUS
 62
       7
  5
5F4
 10
80.04820896
 20
57.50193036
 30
0.0
  0
VERTEX
  8
0
  6
CONTINUOUS
 62
       7
  5
5F5
 10
80.21515062
 20
57.59438596
 30
0.0
  0
VERTEX
  8
0
  6
CONTINUOUS
 62
       7
  5
5F6
 10
80.37701064
 20
57.67874047
 30
0.0
  0
SEQEND
  8
0
  6
CONTINUOUS
 62
       7
  5
5F7
  0
POLYLINE
  8
0
  6
CONTINUOUS
 62
       7
  5
120
 66
       1
 10
0.0
 20
0.0
 30
0.0
  0
VERTEX
  8
0
  6
CONTINUOUS
 62
       7
  5
5F8
 10
80.37701064
 20
41.51874047
 30
0.0
  0
VERTEX
  8
0
  6
CONTINUOUS
 62
       7
  5
5F9
 10
80.21515069
 20
41.60309506
 30
0.0
  0
VERTEX
  8
0
  6
CONTINUOUS
 62
       7
  5
5FA
 10
80.04820907
 20
41.69555073
 30
0.0
  0
VERTEX
  8
0
  6
CONTINUOUS
 62
       7
  5
5FB
 10
79.87832787
 20
41.79556855
 30
0.0
  0
VERTEX
  8
0
  6
CONTINUOUS
 62
       7
  5
5FC
 10
79.70764914
 20
41.90260957
 30
0.0
  0
VERTEX
  8
0
  6
CONTINUOUS
 62
       7
  5
5FD
 10
79.53831496
 20
42.01613488
 30
0.0
  0
VERTEX
  8
0
  6
CONTINUOUS
 62
       7
  5
5FE
 10
79.37246739
 20
42.13560552
 30
0.0
  0
VERTEX
  8
0
  6
CONTINUOUS
 62
       7
  5
5FF
 10
79.21224851
 20
42.26048258
 30
0.0
  0
VERTEX
  8
0
  6
CONTINUOUS
 62
       7
  5
600
 10
79.05980038
 20
42.39022711
 30
0.0
  0
VERTEX
  8
0
  6
CONTINUOUS
 62
       7
  5
601
 10
78.91726507
 20
42.52430019
 30
0.0
  0
VERTEX
  8
0
  6
CONTINUOUS
 62
       7
  5
602
 10
78.78678465
 20
42.66216287
 30
0.0
  0
VERTEX
  8
0
  6
CONTINUOUS
 62
       7
  5
603
 10
78.67050119
 20
42.80327623
 30
0.0
  0
VERTEX
  8
0
  6
CONTINUOUS
 62
       7
  5
604
 10
78.57055675
 20
42.94710133
 30
0.0
  0
VERTEX
  8
0
  6
CONTINUOUS
 62
       7
  5
605
 10
78.48909341
 20
43.09309924
 30
0.0
  0
VERTEX
  8
0
  6
CONTINUOUS
 62
       7
  5
606
 10
78.42825323
 20
43.24073102
 30
0.0
  0
VERTEX
  8
0
  6
CONTINUOUS
 62
       7
  5
607
 10
78.39017829
 20
43.38945774
 30
0.0
  0
VERTEX
  8
0
  6
CONTINUOUS
 62
       7
  5
608
 10
78.37701064
 20
43.53874047
 30
0.0
  0
VERTEX
  8
0
  6
CONTINUOUS
 62
       7
  5
609
 10
78.39017833
 20
43.6880232
 30
0.0
  0
VERTEX
  8
0
  6
CONTINUOUS
 62
       7
  5
60A
 10
78.4282533
 20
43.83674994
 30
0.0
  0
VERTEX
  8
0
  6
CONTINUOUS
 62
       7
  5
60B
 10
78.48909348
 20
43.98438174
 30
0.0
  0
VERTEX
  8
0
  6
CONTINUOUS
 62
       7
  5
60C
 10
78.57055681
 20
44.13037967
 30
0.0
  0
VERTEX
  8
0
  6
CONTINUOUS
 62
       7
  5
60D
 10
78.67050123
 20
44.27420479
 30
0.0
  0
VERTEX
  8
0
  6
CONTINUOUS
 62
       7
  5
60E
 10
78.78678466
 20
44.41531817
 30
0.0
  0
VERTEX
  8
0
  6
CONTINUOUS
 62
       7
  5
60F
 10
78.91726505
 20
44.55318088
 30
0.0
  0
VERTEX
  8
0
  6
CONTINUOUS
 62
       7
  5
610
 10
79.05980032
 20
44.68725397
 30
0.0
  0
VERTEX
  8
0
  6
CONTINUOUS
 62
       7
  5
611
 10
79.21224842
 20
44.81699852
 30
0.0
  0
VERTEX
  8
0
  6
CONTINUOUS
 62
       7
  5
612
 10
79.37246727
 20
44.94187558
 30
0.0
  0
VERTEX
  8
0
  6
CONTINUOUS
 62
       7
  5
613
 10
79.53831482
 20
45.06134623
 30
0.0
  0
VERTEX
  8
0
  6
CONTINUOUS
 62
       7
  5
614
 10
79.70764899
 20
45.17487153
 30
0.0
  0
VERTEX
  8
0
  6
CONTINUOUS
 62
       7
  5
615
 10
79.87832772
 20
45.28191253
 30
0.0
  0
VERTEX
  8
0
  6
CONTINUOUS
 62
       7
  5
616
 10
80.04820895
 20
45.38193032
 30
0.0
  0
VERTEX
  8
0
  6
CONTINUOUS
 62
       7
  5
617
 10
80.21515061
 20
45.47438594
 30
0.0
  0
VERTEX
  8
0
  6
CONTINUOUS
 62
       7
  5
618
 10
80.37701064
 20
45.55874047
 30
0.0
  0
SEQEND
  8
0
  6
CONTINUOUS
 62
       7
  5
619
  0
POLYLINE
  8
0
  6
CONTINUOUS
 62
       7
  5
121
 66
       1
 10
0.0
 20
0.0
 30
0.0
  0
VERTEX
  8
0
  6
CONTINUOUS
 62
       7
  5
61A
 10
89.17701064
 20
45.55874047
 30
0.0
  0
VERTEX
  8
0
  6
CONTINUOUS
 62
       7
  5
61B
 10
89.27536382
 20
45.4561953
 30
0.0
  0
VERTEX
  8
0
  6
CONTINUOUS
 62
       7
  5
61C
 10
89.37176652
 20
45.34906983
 30
0.0
  0
VERTEX
  8
0
  6
CONTINUOUS
 62
       7
  5
61D
 10
89.46561232
 20
45.23766826
 30
0.0
  0
VERTEX
  8
0
  6
CONTINUOUS
 62
       7
  5
61E
 10
89.55629481
 20
45.12229482
 30
0.0
  0
VERTEX
  8
0
  6
CONTINUOUS
 62
       7
  5
61F
 10
89.64320758
 20
45.0032537
 30
0.0
  0
VERTEX
  8
0
  6
CONTINUOUS
 62
       7
  5
620
 10
89.7257442
 20
44.88084914
 30
0.0
  0
VERTEX
  8
0
  6
CONTINUOUS
 62
       7
  5
621
 10
89.80329826
 20
44.75538533
 30
0.0
  0
VERTEX
  8
0
  6
CONTINUOUS
 62
       7
  5
622
 10
89.87526333
 20
44.62716649
 30
0.0
  0
VERTEX
  8
0
  6
CONTINUOUS
 62
       7
  5
623
 10
89.94103302
 20
44.49649685
 30
0.0
  0
VERTEX
  8
0
  6
CONTINUOUS
 62
       7
  5
624
 10
90.00000088
 20
44.3636806
 30
0.0
  0
VERTEX
  8
0
  6
CONTINUOUS
 62
       7
  5
625
 10
90.05156052
 20
44.22902196
 30
0.0
  0
VERTEX
  8
0
  6
CONTINUOUS
 62
       7
  5
626
 10
90.09510551
 20
44.09282516
 30
0.0
  0
VERTEX
  8
0
  6
CONTINUOUS
 62
       7
  5
627
 10
90.13002943
 20
43.95539439
 30
0.0
  0
VERTEX
  8
0
  6
CONTINUOUS
 62
       7
  5
628
 10
90.15572587
 20
43.81703388
 30
0.0
  0
VERTEX
  8
0
  6
CONTINUOUS
 62
       7
  5
629
 10
90.17158842
 20
43.67804783
 30
0.0
  0
VERTEX
  8
0
  6
CONTINUOUS
 62
       7
  5
62A
 10
90.17701064
 20
43.53874047
 30
0.0
  0
VERTEX
  8
0
  6
CONTINUOUS
 62
       7
  5
62B
 10
90.17158829
 20
43.3994331
 30
0.0
  0
VERTEX
  8
0
  6
CONTINUOUS
 62
       7
  5
62C
 10
90.15572567
 20
43.26044704
 30
0.0
  0
VERTEX
  8
0
  6
CONTINUOUS
 62
       7
  5
62D
 10
90.13002918
 20
43.1220865
 30
0.0
  0
VERTEX
  8
0
  6
CONTINUOUS
 62
       7
  5
62E
 10
90.09510524
 20
42.9846557
 30
0.0
  0
VERTEX
  8
0
  6
CONTINUOUS
 62
       7
  5
62F
 10
90.05156025
 20
42.84845885
 30
0.0
  0
VERTEX
  8
0
  6
CONTINUOUS
 62
       7
  5
630
 10
90.00000064
 20
42.71380018
 30
0.0
  0
VERTEX
  8
0
  6
CONTINUOUS
 62
       7
  5
631
 10
89.94103281
 20
42.5809839
 30
0.0
  0
VERTEX
  8
0
  6
CONTINUOUS
 62
       7
  5
632
 10
89.87526318
 20
42.45031422
 30
0.0
  0
VERTEX
  8
0
  6
CONTINUOUS
 62
       7
  5
633
 10
89.80329816
 20
42.32209536
 30
0.0
  0
VERTEX
  8
0
  6
CONTINUOUS
 62
       7
  5
634
 10
89.72574415
 20
42.19663154
 30
0.0
  0
VERTEX
  8
0
  6
CONTINUOUS
 62
       7
  5
635
 10
89.64320758
 20
42.07422697
 30
0.0
  0
VERTEX
  8
0
  6
CONTINUOUS
 62
       7
  5
636
 10
89.55629486
 20
41.95518586
 30
0.0
  0
VERTEX
  8
0
  6
CONTINUOUS
 62
       7
  5
637
 10
89.46561239
 20
41.83981245
 30
0.0
  0
VERTEX
  8
0
  6
CONTINUOUS
 62
       7
  5
638
 10
89.37176659
 20
41.72841093
 30
0.0
  0
VERTEX
  8
0
  6
CONTINUOUS
 62
       7
  5
639
 10
89.27536387
 20
41.62128553
 30
0.0
  0
VERTEX
  8
0
  6
CONTINUOUS
 62
       7
  5
63A
 10
89.17701064
 20
41.51874047
 30
0.0
  0
SEQEND
  8
0
  6
CONTINUOUS
 62
       7
  5
63B
  0
POLYLINE
  8
0
  6
CONTINUOUS
 62
       7
  5
122
 66
       1
 10
0.0
 20
0.0
 30
0.0
  0
VERTEX
  8
0
  6
CONTINUOUS
 62
       7
  5
63C
 10
-54.82298936
 20
21.29874047
 30
0.0
  0
VERTEX
  8
0
  6
CONTINUOUS
 62
       7
  5
63D
 10
-54.93503726
 20
21.07477795
 30
0.0
  0
VERTEX
  8
0
  6
CONTINUOUS
 62
       7
  5
63E
 10
-55.04160448
 20
20.84731132
 30
0.0
  0
VERTEX
  8
0
  6
CONTINUOUS
 62
       7
  5
63F
 10
-55.14244979
 20
20.61657968
 30
0.0
  0
VERTEX
  8
0
  6
CONTINUOUS
 62
       7
  5
640
 10
-55.23733198
 20
20.38282213
 30
0.0
  0
VERTEX
  8
0
  6
CONTINUOUS
 62
       7
  5
641
 10
-55.32600982
 20
20.14627776
 30
0.0
  0
VERTEX
  8
0
  6
CONTINUOUS
 62
       7
  5
642
 10
-55.40824209
 20
19.90718566
 30
0.0
  0
VERTEX
  8
0
  6
CONTINUOUS
 62
       7
  5
643
 10
-55.48378757
 20
19.66578493
 30
0.0
  0
VERTEX
  8
0
  6
CONTINUOUS
 62
       7
  5
644
 10
-55.55240502
 20
19.42231466
 30
0.0
  0
VERTEX
  8
0
  6
CONTINUOUS
 62
       7
  5
645
 10
-55.61385324
 20
19.17701395
 30
0.0
  0
VERTEX
  8
0
  6
CONTINUOUS
 62
       7
  5
646
 10
-55.667891
 20
18.93012189
 30
0.0
  0
VERTEX
  8
0
  6
CONTINUOUS
 62
       7
  5
647
 10
-55.71427707
 20
18.68187758
 30
0.0
  0
VERTEX
  8
0
  6
CONTINUOUS
 62
       7
  5
648
 10
-55.75277023
 20
18.4325201
 30
0.0
  0
VERTEX
  8
0
  6
CONTINUOUS
 62
       7
  5
649
 10
-55.78312927
 20
18.18228856
 30
0.0
  0
VERTEX
  8
0
  6
CONTINUOUS
 62
       7
  5
64A
 10
-55.80511295
 20
17.93142204
 30
0.0
  0
VERTEX
  8
0
  6
CONTINUOUS
 62
       7
  5
64B
 10
-55.81848005
 20
17.68015965
 30
0.0
  0
VERTEX
  8
0
  6
CONTINUOUS
 62
       7
  5
64C
 10
-55.82298936
 20
17.42874047
 30
0.0
  0
VERTEX
  8
0
  6
CONTINUOUS
 62
       7
  5
64D
 10
-55.81848005
 20
17.1766737
 30
0.0
  0
VERTEX
  8
0
  6
CONTINUOUS
 62
       7
  5
64E
 10
-55.80511295
 20
16.92469662
 30
0.0
  0
VERTEX
  8
0
  6
CONTINUOUS
 62
       7
  5
64F
 10
-55.78312927
 20
16.67306335
 30
0.0
  0
VERTEX
  8
0
  6
CONTINUOUS
 62
       7
  5
650
 10
-55.75277024
 20
16.422028
 30
0.0
  0
VERTEX
  8
0
  6
CONTINUOUS
 62
       7
  5
651
 10
-55.71427707
 20
16.1718447
 30
0.0
  0
VERTEX
  8
0
  6
CONTINUOUS
 62
       7
  5
652
 10
-55.66789101
 20
15.92276756
 30
0.0
  0
VERTEX
  8
0
  6
CONTINUOUS
 62
       7
  5
653
 10
-55.61385325
 20
15.6750507
 30
0.0
  0
VERTEX
  8
0
  6
CONTINUOUS
 62
       7
  5
654
 10
-55.55240503
 20
15.42894822
 30
0.0
  0
VERTEX
  8
0
  6
CONTINUOUS
 62
       7
  5
655
 10
-55.48378758
 20
15.18471425
 30
0.0
  0
VERTEX
  8
0
  6
CONTINUOUS
 62
       7
  5
656
 10
-55.4082421
 20
14.94260291
 30
0.0
  0
VERTEX
  8
0
  6
CONTINUOUS
 62
       7
  5
657
 10
-55.32600983
 20
14.70286831
 30
0.0
  0
VERTEX
  8
0
  6
CONTINUOUS
 62
       7
  5
658
 10
-55.23733199
 20
14.46576456
 30
0.0
  0
VERTEX
  8
0
  6
CONTINUOUS
 62
       7
  5
659
 10
-55.1424498
 20
14.23154579
 30
0.0
  0
VERTEX
  8
0
  6
CONTINUOUS
 62
       7
  5
65A
 10
-55.04160448
 20
14.00046611
 30
0.0
  0
VERTEX
  8
0
  6
CONTINUOUS
 62
       7
  5
65B
 10
-54.93503726
 20
13.77277963
 30
0.0
  0
VERTEX
  8
0
  6
CONTINUOUS
 62
       7
  5
65C
 10
-54.82298936
 20
13.54874047
 30
0.0
  0
SEQEND
  8
0
  6
CONTINUOUS
 62
       7
  5
65D
  0
POLYLINE
  8
0
  6
CONTINUOUS
 62
       7
  5
123
 66
       1
 10
0.0
 20
0.0
 30
0.0
  0
VERTEX
  8
0
  6
CONTINUOUS
 62
       7
  5
65E
 10
-50.82298936
 20
21.29874047
 30
0.0
  0
VERTEX
  8
0
  6
CONTINUOUS
 62
       7
  5
65F
 10
-50.71094146
 20
21.07477795
 30
0.0
  0
VERTEX
  8
0
  6
CONTINUOUS
 62
       7
  5
660
 10
-50.60437424
 20
20.84731132
 30
0.0
  0
VERTEX
  8
0
  6
CONTINUOUS
 62
       7
  5
661
 10
-50.50352892
 20
20.61657968
 30
0.0
  0
VERTEX
  8
0
  6
CONTINUOUS
 62
       7
  5
662
 10
-50.40864674
 20
20.38282213
 30
0.0
  0
VERTEX
  8
0
  6
CONTINUOUS
 62
       7
  5
663
 10
-50.3199689
 20
20.14627776
 30
0.0
  0
VERTEX
  8
0
  6
CONTINUOUS
 62
       7
  5
664
 10
-50.23773663
 20
19.90718566
 30
0.0
  0
VERTEX
  8
0
  6
CONTINUOUS
 62
       7
  5
665
 10
-50.16219115
 20
19.66578493
 30
0.0
  0
VERTEX
  8
0
  6
CONTINUOUS
 62
       7
  5
666
 10
-50.09357369
 20
19.42231466
 30
0.0
  0
VERTEX
  8
0
  6
CONTINUOUS
 62
       7
  5
667
 10
-50.03212548
 20
19.17701395
 30
0.0
  0
VERTEX
  8
0
  6
CONTINUOUS
 62
       7
  5
668
 10
-49.97808772
 20
18.93012189
 30
0.0
  0
VERTEX
  8
0
  6
CONTINUOUS
 62
       7
  5
669
 10
-49.93170165
 20
18.68187758
 30
0.0
  0
VERTEX
  8
0
  6
CONTINUOUS
 62
       7
  5
66A
 10
-49.89320848
 20
18.4325201
 30
0.0
  0
VERTEX
  8
0
  6
CONTINUOUS
 62
       7
  5
66B
 10
-49.86284945
 20
18.18228856
 30
0.0
  0
VERTEX
  8
0
  6
CONTINUOUS
 62
       7
  5
66C
 10
-49.84086577
 20
17.93142204
 30
0.0
  0
VERTEX
  8
0
  6
CONTINUOUS
 62
       7
  5
66D
 10
-49.82749867
 20
17.68015965
 30
0.0
  0
VERTEX
  8
0
  6
CONTINUOUS
 62
       7
  5
66E
 10
-49.82298936
 20
17.42874047
 30
0.0
  0
VERTEX
  8
0
  6
CONTINUOUS
 62
       7
  5
66F
 10
-49.82749866
 20
17.1766737
 30
0.0
  0
VERTEX
  8
0
  6
CONTINUOUS
 62
       7
  5
670
 10
-49.84086577
 20
16.92469662
 30
0.0
  0
VERTEX
  8
0
  6
CONTINUOUS
 62
       7
  5
671
 10
-49.86284945
 20
16.67306335
 30
0.0
  0
VERTEX
  8
0
  6
CONTINUOUS
 62
       7
  5
672
 10
-49.89320848
 20
16.422028
 30
0.0
  0
VERTEX
  8
0
  6
CONTINUOUS
 62
       7
  5
673
 10
-49.93170164
 20
16.1718447
 30
0.0
  0
VERTEX
  8
0
  6
CONTINUOUS
 62
       7
  5
674
 10
-49.97808771
 20
15.92276756
 30
0.0
  0
VERTEX
  8
0
  6
CONTINUOUS
 62
       7
  5
675
 10
-50.03212547
 20
15.6750507
 30
0.0
  0
VERTEX
  8
0
  6
CONTINUOUS
 62
       7
  5
676
 10
-50.09357368
 20
15.42894822
 30
0.0
  0
VERTEX
  8
0
  6
CONTINUOUS
 62
       7
  5
677
 10
-50.16219114
 20
15.18471425
 30
0.0
  0
VERTEX
  8
0
  6
CONTINUOUS
 62
       7
  5
678
 10
-50.23773661
 20
14.94260291
 30
0.0
  0
VERTEX
  8
0
  6
CONTINUOUS
 62
       7
  5
679
 10
-50.31996888
 20
14.70286831
 30
0.0
  0
VERTEX
  8
0
  6
CONTINUOUS
 62
       7
  5
67A
 10
-50.40864672
 20
14.46576456
 30
0.0
  0
VERTEX
  8
0
  6
CONTINUOUS
 62
       7
  5
67B
 10
-50.50352891
 20
14.23154579
 30
0.0
  0
VERTEX
  8
0
  6
CONTINUOUS
 62
       7
  5
67C
 10
-50.60437423
 20
14.00046611
 30
0.0
  0
VERTEX
  8
0
  6
CONTINUOUS
 62
       7
  5
67D
 10
-50.71094145
 20
13.77277963
 30
0.0
  0
VERTEX
  8
0
  6
CONTINUOUS
 62
       7
  5
67E
 10
-50.82298936
 20
13.54874047
 30
0.0
  0
SEQEND
  8
0
  6
CONTINUOUS
 62
       7
  5
67F
  0
POLYLINE
  8
0
  6
CONTINUOUS
 62
       7
  5
124
 66
       1
 10
0.0
 20
0.0
 30
0.0
  0
VERTEX
  8
0
  6
CONTINUOUS
 62
       7
  5
680
 10
-72.47298936
 20
22.90874047
 30
0.0
  0
VERTEX
  8
0
  6
CONTINUOUS
 62
       7
  5
681
 10
-72.572649
 20
22.57632929
 30
0.0
  0
VERTEX
  8
0
  6
CONTINUOUS
 62
       7
  5
682
 10
-72.66651097
 20
22.2419465
 30
0.0
  0
VERTEX
  8
0
  6
CONTINUOUS
 62
       7
  5
683
 10
-72.75448805
 20
21.90572634
 30
0.0
  0
VERTEX
  8
0
  6
CONTINUOUS
 62
       7
  5
684
 10
-72.83649306
 20
21.56780305
 30
0.0
  0
VERTEX
  8
0
  6
CONTINUOUS
 62
       7
  5
685
 10
-72.91243877
 20
21.22831085
 30
0.0
  0
VERTEX
  8
0
  6
CONTINUOUS
 62
       7
  5
686
 10
-72.98223801
 20
20.88738399
 30
0.0
  0
VERTEX
  8
0
  6
CONTINUOUS
 62
       7
  5
687
 10
-73.04580356
 20
20.5451567
 30
0.0
  0
VERTEX
  8
0
  6
CONTINUOUS
 62
       7
  5
688
 10
-73.10304822
 20
20.20176321
 30
0.0
  0
VERTEX
  8
0
  6
CONTINUOUS
 62
       7
  5
689
 10
-73.15388479
 20
19.85733776
 30
0.0
  0
VERTEX
  8
0
  6
CONTINUOUS
 62
       7
  5
68A
 10
-73.19822607
 20
19.51201459
 30
0.0
  0
VERTEX
  8
0
  6
CONTINUOUS
 62
       7
  5
68B
 10
-73.23598486
 20
19.16592792
 30
0.0
  0
VERTEX
  8
0
  6
CONTINUOUS
 62
       7
  5
68C
 10
-73.26707395
 20
18.819212
 30
0.0
  0
VERTEX
  8
0
  6
CONTINUOUS
 62
       7
  5
68D
 10
-73.29140615
 20
18.47200106
 30
0.0
  0
VERTEX
  8
0
  6
CONTINUOUS
 62
       7
  5
68E
 10
-73.30889425
 20
18.12442934
 30
0.0
  0
VERTEX
  8
0
  6
CONTINUOUS
 62
       7
  5
68F
 10
-73.31945105
 20
17.77663106
 30
0.0
  0
VERTEX
  8
0
  6
CONTINUOUS
 62
       7
  5
690
 10
-73.32298936
 20
17.42874047
 30
0.0
  0
VERTEX
  8
0
  6
CONTINUOUS
 62
       7
  5
691
 10
-73.31945103
 20
17.0801927
 30
0.0
  0
VERTEX
  8
0
  6
CONTINUOUS
 62
       7
  5
692
 10
-73.3088942
 20
16.73167262
 30
0.0
  0
VERTEX
  8
0
  6
CONTINUOUS
 62
       7
  5
693
 10
-73.29140608
 20
16.38332922
 30
0.0
  0
VERTEX
  8
0
  6
CONTINUOUS
 62
       7
  5
694
 10
-73.26707387
 20
16.03531151
 30
0.0
  0
VERTEX
  8
0
  6
CONTINUOUS
 62
       7
  5
695
 10
-73.23598476
 20
15.6877685
 30
0.0
  0
VERTEX
  8
0
  6
CONTINUOUS
 62
       7
  5
696
 10
-73.19822597
 20
15.34084919
 30
0.0
  0
VERTEX
  8
0
  6
CONTINUOUS
 62
       7
  5
697
 10
-73.15388468
 20
14.99470259
 30
0.0
  0
VERTEX
  8
0
  6
CONTINUOUS
 62
       7
  5
698
 10
-73.10304811
 20
14.64947769
 30
0.0
  0
VERTEX
  8
0
  6
CONTINUOUS
 62
       7
  5
699
 10
-73.04580345
 20
14.3053235
 30
0.0
  0
VERTEX
  8
0
  6
CONTINUOUS
 62
       7
  5
69A
 10
-72.9822379
 20
13.96238903
 30
0.0
  0
VERTEX
  8
0
  6
CONTINUOUS
 62
       7
  5
69B
 10
-72.91243868
 20
13.62082328
 30
0.0
  0
VERTEX
  8
0
  6
CONTINUOUS
 62
       7
  5
69C
 10
-72.83649297
 20
13.28077525
 30
0.0
  0
VERTEX
  8
0
  6
CONTINUOUS
 62
       7
  5
69D
 10
-72.75448798
 20
12.94239395
 30
0.0
  0
VERTEX
  8
0
  6
CONTINUOUS
 62
       7
  5
69E
 10
-72.66651092
 20
12.60582839
 30
0.0
  0
VERTEX
  8
0
  6
CONTINUOUS
 62
       7
  5
69F
 10
-72.57264898
 20
12.27122756
 30
0.0
  0
VERTEX
  8
0
  6
CONTINUOUS
 62
       7
  5
6A0
 10
-72.47298936
 20
11.93874047
 30
0.0
  0
SEQEND
  8
0
  6
CONTINUOUS
 62
       7
  5
6A1
  0
POLYLINE
  8
0
  6
CONTINUOUS
 62
       7
  5
125
 66
       1
 10
0.0
 20
0.0
 30
0.0
  0
VERTEX
  8
0
  6
CONTINUOUS
 62
       7
  5
6A2
 10
-66.16298936
 20
22.90874047
 30
0.0
  0
VERTEX
  8
0
  6
CONTINUOUS
 62
       7
  5
6A3
 10
-66.06344183
 20
22.57632931
 30
0.0
  0
VERTEX
  8
0
  6
CONTINUOUS
 62
       7
  5
6A4
 10
-65.96989711
 20
22.24194649
 30
0.0
  0
VERTEX
  8
0
  6
CONTINUOUS
 62
       7
  5
6A5
 10
-65.8824131
 20
21.90572626
 30
0.0
  0
VERTEX
  8
0
  6
CONTINUOUS
 62
       7
  5
6A6
 10
-65.80104768
 20
21.56780287
 30
0.0
  0
VERTEX
  8
0
  6
CONTINUOUS
 62
       7
  5
6A7
 10
-65.72585877
 20
21.22831056
 30
0.0
  0
VERTEX
  8
0
  6
CONTINUOUS
 62
       7
  5
6A8
 10
-65.65690427
 20
20.88738358
 30
0.0
  0
VERTEX
  8
0
  6
CONTINUOUS
 62
       7
  5
6A9
 10
-65.59424207
 20
20.54515616
 30
0.0
  0
VERTEX
  8
0
  6
CONTINUOUS
 62
       7
  5
6AA
 10
-65.53793007
 20
20.20176256
 30
0.0
  0
VERTEX
  8
0
  6
CONTINUOUS
 62
       7
  5
6AB
 10
-65.48802618
 20
19.85733702
 30
0.0
  0
VERTEX
  8
0
  6
CONTINUOUS
 62
       7
  5
6AC
 10
-65.44458828
 20
19.51201378
 30
0.0
  0
VERTEX
  8
0
  6
CONTINUOUS
 62
       7
  5
6AD
 10
-65.40767429
 20
19.1659271
 30
0.0
  0
VERTEX
  8
0
  6
CONTINUOUS
 62
       7
  5
6AE
 10
-65.3773421
 20
18.8192112
 30
0.0
  0
VERTEX
  8
0
  6
CONTINUOUS
 62
       7
  5
6AF
 10
-65.35364961
 20
18.47200035
 30
0.0
  0
VERTEX
  8
0
  6
CONTINUOUS
 62
       7
  5
6B0
 10
-65.33665473
 20
18.12442878
 30
0.0
  0
VERTEX
  8
0
  6
CONTINUOUS
 62
       7
  5
6B1
 10
-65.32641534
 20
17.77663074
 30
0.0
  0
VERTEX
  8
0
  6
CONTINUOUS
 62
       7
  5
6B2
 10
-65.32298936
 20
17.42874047
 30
0.0
  0
VERTEX
  8
0
  6
CONTINUOUS
 62
       7
  5
6B3
 10
-65.32641537
 20
17.08019272
 30
0.0
  0
VERTEX
  8
0
  6
CONTINUOUS
 62
       7
  5
6B4
 10
-65.33665478
 20
16.73167265
 30
0.0
  0
VERTEX
  8
0
  6
CONTINUOUS
 62
       7
  5
6B5
 10
-65.35364969
 20
16.38332924
 30
0.0
  0
VERTEX
  8
0
  6
CONTINUOUS
 62
       7
  5
6B6
 10
-65.37734219
 20
16.03531152
 30
0.0
  0
VERTEX
  8
0
  6
CONTINUOUS
 62
       7
  5
6B7
 10
-65.4076744
 20
15.68776848
 30
0.0
  0
VERTEX
  8
0
  6
CONTINUOUS
 62
       7
  5
6B8
 10
-65.4445884
 20
15.34084914
 30
0.0
  0
VERTEX
  8
0
  6
CONTINUOUS
 62
       7
  5
6B9
 10
-65.48802629
 20
14.99470251
 30
0.0
  0
VERTEX
  8
0
  6
CONTINUOUS
 62
       7
  5
6BA
 10
-65.53793019
 20
14.64947758
 30
0.0
  0
VERTEX
  8
0
  6
CONTINUOUS
 62
       7
  5
6BB
 10
-65.59424219
 20
14.30532336
 30
0.0
  0
VERTEX
  8
0
  6
CONTINUOUS
 62
       7
  5
6BC
 10
-65.65690438
 20
13.96238887
 30
0.0
  0
VERTEX
  8
0
  6
CONTINUOUS
 62
       7
  5
6BD
 10
-65.72585888
 20
13.62082311
 30
0.0
  0
VERTEX
  8
0
  6
CONTINUOUS
 62
       7
  5
6BE
 10
-65.80104777
 20
13.28077508
 30
0.0
  0
VERTEX
  8
0
  6
CONTINUOUS
 62
       7
  5
6BF
 10
-65.88241317
 20
12.94239379
 30
0.0
  0
VERTEX
  8
0
  6
CONTINUOUS
 62
       7
  5
6C0
 10
-65.96989716
 20
12.60582826
 30
0.0
  0
VERTEX
  8
0
  6
CONTINUOUS
 62
       7
  5
6C1
 10
-66.06344186
 20
12.27122748
 30
0.0
  0
VERTEX
  8
0
  6
CONTINUOUS
 62
       7
  5
6C2
 10
-66.16298936
 20
11.93874047
 30
0.0
  0
SEQEND
  8
0
  6
CONTINUOUS
 62
       7
  5
6C3
  0
POLYLINE
  8
0
  6
CONTINUOUS
 62
       7
  5
126
 66
       1
 10
0.0
 20
0.0
 30
0.0
  0
VERTEX
  8
0
  6
CONTINUOUS
 62
       7
  5
6C4
 10
-72.47298936
 20
28.39874047
 30
0.0
  0
VERTEX
  8
0
  6
CONTINUOUS
 62
       7
  5
6C5
 10
-72.56551279
 20
28.24439282
 30
0.0
  0
VERTEX
  8
0
  6
CONTINUOUS
 62
       7
  5
6C6
 10
-72.6540781
 20
28.08664046
 30
0.0
  0
VERTEX
  8
0
  6
CONTINUOUS
 62
       7
  5
6C7
 10
-72.73840779
 20
27.92571219
 30
0.0
  0
VERTEX
  8
0
  6
CONTINUOUS
 62
       7
  5
6C8
 10
-72.81822435
 20
27.76183681
 30
0.0
  0
VERTEX
  8
0
  6
CONTINUOUS
 62
       7
  5
6C9
 10
-72.89325029
 20
27.59524313
 30
0.0
  0
VERTEX
  8
0
  6
CONTINUOUS
 62
       7
  5
6CA
 10
-72.9632081
 20
27.42615993
 30
0.0
  0
VERTEX
  8
0
  6
CONTINUOUS
 62
       7
  5
6CB
 10
-73.02782029
 20
27.25481602
 30
0.0
  0
VERTEX
  8
0
  6
CONTINUOUS
 62
       7
  5
6CC
 10
-73.08680935
 20
27.08144019
 30
0.0
  0
VERTEX
  8
0
  6
CONTINUOUS
 62
       7
  5
6CD
 10
-73.13989779
 20
26.90626125
 30
0.0
  0
VERTEX
  8
0
  6
CONTINUOUS
 62
       7
  5
6CE
 10
-73.18680811
 20
26.72950799
 30
0.0
  0
VERTEX
  8
0
  6
CONTINUOUS
 62
       7
  5
6CF
 10
-73.22726279
 20
26.55140921
 30
0.0
  0
VERTEX
  8
0
  6
CONTINUOUS
 62
       7
  5
6D0
 10
-73.26098436
 20
26.37219371
 30
0.0
  0
VERTEX
  8
0
  6
CONTINUOUS
 62
       7
  5
6D1
 10
-73.2876953
 20
26.19209029
 30
0.0
  0
VERTEX
  8
0
  6
CONTINUOUS
 62
       7
  5
6D2
 10
-73.30711811
 20
26.01132774
 30
0.0
  0
VERTEX
  8
0
  6
CONTINUOUS
 62
       7
  5
6D3
 10
-73.3189753
 20
25.83013487
 30
0.0
  0
VERTEX
  8
0
  6
CONTINUOUS
 62
       7
  5
6D4
 10
-73.32298936
 20
25.64874047
 30
0.0
  0
VERTEX
  8
0
  6
CONTINUOUS
 62
       7
  5
6D5
 10
-73.3189753
 20
25.46798755
 30
0.0
  0
VERTEX
  8
0
  6
CONTINUOUS
 62
       7
  5
6D6
 10
-73.30711811
 20
25.28750482
 30
0.0
  0
VERTEX
  8
0
  6
CONTINUOUS
 62
       7
  5
6D7
 10
-73.2876953
 20
25.1075059
 30
0.0
  0
VERTEX
  8
0
  6
CONTINUOUS
 62
       7
  5
6D8
 10
-73.26098436
 20
24.92820441
 30
0.0
  0
VERTEX
  8
0
  6
CONTINUOUS
 62
       7
  5
6D9
 10
-73.2272628
 20
24.74981394
 30
0.0
  0
VERTEX
  8
0
  6
CONTINUOUS
 62
       7
  5
6DA
 10
-73.18680811
 20
24.57254813
 30
0.0
  0
VERTEX
  8
0
  6
CONTINUOUS
 62
       7
  5
6DB
 10
-73.1398978
 20
24.39662058
 30
0.0
  0
VERTEX
  8
0
  6
CONTINUOUS
 62
       7
  5
6DC
 10
-73.08680937
 20
24.2222449
 30
0.0
  0
VERTEX
  8
0
  6
CONTINUOUS
 62
       7
  5
6DD
 10
-73.0278203
 20
24.04963471
 30
0.0
  0
VERTEX
  8
0
  6
CONTINUOUS
 62
       7
  5
6DE
 10
-72.96320812
 20
23.87900362
 30
0.0
  0
VERTEX
  8
0
  6
CONTINUOUS
 62
       7
  5
6DF
 10
-72.89325031
 20
23.71056524
 30
0.0
  0
VERTEX
  8
0
  6
CONTINUOUS
 62
       7
  5
6E0
 10
-72.81822437
 20
23.54453318
 30
0.0
  0
VERTEX
  8
0
  6
CONTINUOUS
 62
       7
  5
6E1
 10
-72.7384078
 20
23.38112107
 30
0.0
  0
VERTEX
  8
0
  6
CONTINUOUS
 62
       7
  5
6E2
 10
-72.65407811
 20
23.2205425
 30
0.0
  0
VERTEX
  8
0
  6
CONTINUOUS
 62
       7
  5
6E3
 10
-72.5655128
 20
23.0630111
 30
0.0
  0
VERTEX
  8
0
  6
CONTINUOUS
 62
       7
  5
6E4
 10
-72.47298936
 20
22.90874047
 30
0.0
  0
SEQEND
  8
0
  6
CONTINUOUS
 62
       7
  5
6E5
  0
POLYLINE
  8
0
  6
CONTINUOUS
 62
       7
  5
127
 66
       1
 10
0.0
 20
0.0
 30
0.0
  0
VERTEX
  8
0
  6
CONTINUOUS
 62
       7
  5
6E6
 10
-66.16298936
 20
28.39874047
 30
0.0
  0
VERTEX
  8
0
  6
CONTINUOUS
 62
       7
  5
6E7
 10
-66.07057805
 20
28.24439291
 30
0.0
  0
VERTEX
  8
0
  6
CONTINUOUS
 62
       7
  5
6E8
 10
-65.98232998
 20
28.08664076
 30
0.0
  0
VERTEX
  8
0
  6
CONTINUOUS
 62
       7
  5
6E9
 10
-65.89849337
 20
27.9257128
 30
0.0
  0
VERTEX
  8
0
  6
CONTINUOUS
 62
       7
  5
6EA
 10
-65.8193164
 20
27.7618378
 30
0.0
  0
VERTEX
  8
0
  6
CONTINUOUS
 62
       7
  5
6EB
 10
-65.74504728
 20
27.59524453
 30
0.0
  0
VERTEX
  8
0
  6
CONTINUOUS
 62
       7
  5
6EC
 10
-65.67593419
 20
27.42616175
 30
0.0
  0
VERTEX
  8
0
  6
CONTINUOUS
 62
       7
  5
6ED
 10
-65.61222535
 20
27.25481824
 30
0.0
  0
VERTEX
  8
0
  6
CONTINUOUS
 62
       7
  5
6EE
 10
-65.55416895
 20
27.08144276
 30
0.0
  0
VERTEX
  8
0
  6
CONTINUOUS
 62
       7
  5
6EF
 10
-65.50201319
 20
26.90626408
 30
0.0
  0
VERTEX
  8
0
  6
CONTINUOUS
 62
       7
  5
6F0
 10
-65.45600626
 20
26.72951098
 30
0.0
  0
VERTEX
  8
0
  6
CONTINUOUS
 62
       7
  5
6F1
 10
-65.41639637
 20
26.55141222
 30
0.0
  0
VERTEX
  8
0
  6
CONTINUOUS
 62
       7
  5
6F2
 10
-65.38343171
 20
26.37219657
 30
0.0
  0
VERTEX
  8
0
  6
CONTINUOUS
 62
       7
  5
6F3
 10
-65.35736048
 20
26.1920928
 30
0.0
  0
VERTEX
  8
0
  6
CONTINUOUS
 62
       7
  5
6F4
 10
-65.33843088
 20
26.01132968
 30
0.0
  0
VERTEX
  8
0
  6
CONTINUOUS
 62
       7
  5
6F5
 10
-65.3268911
 20
25.83013598
 30
0.0
  0
VERTEX
  8
0
  6
CONTINUOUS
 62
       7
  5
6F6
 10
-65.32298936
 20
25.64874047
 30
0.0
  0
VERTEX
  8
0
  6
CONTINUOUS
 62
       7
  5
6F7
 10
-65.32689111
 20
25.46798752
 30
0.0
  0
VERTEX
  8
0
  6
CONTINUOUS
 62
       7
  5
6F8
 10
-65.33843088
 20
25.28750476
 30
0.0
  0
VERTEX
  8
0
  6
CONTINUOUS
 62
       7
  5
6F9
 10
-65.35736049
 20
25.10750582
 30
0.0
  0
VERTEX
  8
0
  6
CONTINUOUS
 62
       7
  5
6FA
 10
-65.38343172
 20
24.92820429
 30
0.0
  0
VERTEX
  8
0
  6
CONTINUOUS
 62
       7
  5
6FB
 10
-65.41639639
 20
24.74981381
 30
0.0
  0
VERTEX
  8
0
  6
CONTINUOUS
 62
       7
  5
6FC
 10
-65.45600629
 20
24.57254797
 30
0.0
  0
VERTEX
  8
0
  6
CONTINUOUS
 62
       7
  5
6FD
 10
-65.50201323
 20
24.3966204
 30
0.0
  0
VERTEX
  8
0
  6
CONTINUOUS
 62
       7
  5
6FE
 10
-65.554169
 20
24.22224471
 30
0.0
  0
VERTEX
  8
0
  6
CONTINUOUS
 62
       7
  5
6FF
 10
-65.61222541
 20
24.04963451
 30
0.0
  0
VERTEX
  8
0
  6
CONTINUOUS
 62
       7
  5
700
 10
-65.67593425
 20
23.87900342
 30
0.0
  0
VERTEX
  8
0
  6
CONTINUOUS
 62
       7
  5
701
 10
-65.74504733
 20
23.71056505
 30
0.0
  0
VERTEX
  8
0
  6
CONTINUOUS
 62
       7
  5
702
 10
-65.81931645
 20
23.54453301
 30
0.0
  0
VERTEX
  8
0
  6
CONTINUOUS
 62
       7
  5
703
 10
-65.89849342
 20
23.38112092
 30
0.0
  0
VERTEX
  8
0
  6
CONTINUOUS
 62
       7
  5
704
 10
-65.98233002
 20
23.22054239
 30
0.0
  0
VERTEX
  8
0
  6
CONTINUOUS
 62
       7
  5
705
 10
-66.07057807
 20
23.06301104
 30
0.0
  0
VERTEX
  8
0
  6
CONTINUOUS
 62
       7
  5
706
 10
-66.16298936
 20
22.90874047
 30
0.0
  0
SEQEND
  8
0
  6
CONTINUOUS
 62
       7
  5
707
  0
POLYLINE
  8
0
  6
CONTINUOUS
 62
       7
  5
128
 66
       1
 10
0.0
 20
0.0
 30
0.0
  0
VERTEX
  8
0
  6
CONTINUOUS
 62
       7
  5
708
 10
-72.47298936
 20
11.93874047
 30
0.0
  0
VERTEX
  8
0
  6
CONTINUOUS
 62
       7
  5
709
 10
-72.56551283
 20
11.78446969
 30
0.0
  0
VERTEX
  8
0
  6
CONTINUOUS
 62
       7
  5
70A
 10
-72.65407816
 20
11.62693814
 30
0.0
  0
VERTEX
  8
0
  6
CONTINUOUS
 62
       7
  5
70B
 10
-72.73840787
 20
11.46635942
 30
0.0
  0
VERTEX
  8
0
  6
CONTINUOUS
 62
       7
  5
70C
 10
-72.81822444
 20
11.30294716
 30
0.0
  0
VERTEX
  8
0
  6
CONTINUOUS
 62
       7
  5
70D
 10
-72.89325039
 20
11.13691498
 30
0.0
  0
VERTEX
  8
0
  6
CONTINUOUS
 62
       7
  5
70E
 10
-72.9632082
 20
10.96847649
 30
0.0
  0
VERTEX
  8
0
  6
CONTINUOUS
 62
       7
  5
70F
 10
-73.02782039
 20
10.79784531
 30
0.0
  0
VERTEX
  8
0
  6
CONTINUOUS
 62
       7
  5
710
 10
-73.08680945
 20
10.62523505
 30
0.0
  0
VERTEX
  8
0
  6
CONTINUOUS
 62
       7
  5
711
 10
-73.13989788
 20
10.45085934
 30
0.0
  0
VERTEX
  8
0
  6
CONTINUOUS
 62
       7
  5
712
 10
-73.18680818
 20
10.2749318
 30
0.0
  0
VERTEX
  8
0
  6
CONTINUOUS
 62
       7
  5
713
 10
-73.22726286
 20
10.09766603
 30
0.0
  0
VERTEX
  8
0
  6
CONTINUOUS
 62
       7
  5
714
 10
-73.26098441
 20
9.91927565
 30
0.0
  0
VERTEX
  8
0
  6
CONTINUOUS
 62
       7
  5
715
 10
-73.28769533
 20
9.73997429
 30
0.0
  0
VERTEX
  8
0
  6
CONTINUOUS
 62
       7
  5
716
 10
-73.30711813
 20
9.55997557
 30
0.0
  0
VERTEX
  8
0
  6
CONTINUOUS
 62
       7
  5
717
 10
-73.31897531
 20
9.37949308
 30
0.0
  0
VERTEX
  8
0
  6
CONTINUOUS
 62
       7
  5
718
 10
-73.32298936
 20
9.19874047
 30
0.0
  0
VERTEX
  8
0
  6
CONTINUOUS
 62
       7
  5
719
 10
-73.31897529
 20
9.01798785
 30
0.0
  0
VERTEX
  8
0
  6
CONTINUOUS
 62
       7
  5
71A
 10
-73.3071181
 20
8.83750536
 30
0.0
  0
VERTEX
  8
0
  6
CONTINUOUS
 62
       7
  5
71B
 10
-73.28769528
 20
8.65750661
 30
0.0
  0
VERTEX
  8
0
  6
CONTINUOUS
 62
       7
  5
71C
 10
-73.26098435
 20
8.47820523
 30
0.0
  0
VERTEX
  8
0
  6
CONTINUOUS
 62
       7
  5
71D
 10
-73.22726279
 20
8.29981483
 30
0.0
  0
VERTEX
  8
0
  6
CONTINUOUS
 62
       7
  5
71E
 10
-73.18680811
 20
8.12254904
 30
0.0
  0
VERTEX
  8
0
  6
CONTINUOUS
 62
       7
  5
71F
 10
-73.1398978
 20
7.94662147
 30
0.0
  0
VERTEX
  8
0
  6
CONTINUOUS
 62
       7
  5
720
 10
-73.08680937
 20
7.77224574
 30
0.0
  0
VERTEX
  8
0
  6
CONTINUOUS
 62
       7
  5
721
 10
-73.02782031
 20
7.59963547
 30
0.0
  0
VERTEX
  8
0
  6
CONTINUOUS
 62
       7
  5
722
 10
-72.96320813
 20
7.42900428
 30
0.0
  0
VERTEX
  8
0
  6
CONTINUOUS
 62
       7
  5
723
 10
-72.89325032
 20
7.26056578
 30
0.0
  0
VERTEX
  8
0
  6
CONTINUOUS
 62
       7
  5
724
 10
-72.81822438
 20
7.09453361
 30
0.0
  0
VERTEX
  8
0
  6
CONTINUOUS
 62
       7
  5
725
 10
-72.73840782
 20
6.93112137
 30
0.0
  0
VERTEX
  8
0
  6
CONTINUOUS
 62
       7
  5
726
 10
-72.65407813
 20
6.77054269
 30
0.0
  0
VERTEX
  8
0
  6
CONTINUOUS
 62
       7
  5
727
 10
-72.56551281
 20
6.61301118
 30
0.0
  0
VERTEX
  8
0
  6
CONTINUOUS
 62
       7
  5
728
 10
-72.47298936
 20
6.45874047
 30
0.0
  0
SEQEND
  8
0
  6
CONTINUOUS
 62
       7
  5
729
  0
POLYLINE
  8
0
  6
CONTINUOUS
 62
       7
  5
129
 66
       1
 10
0.0
 20
0.0
 30
0.0
  0
VERTEX
  8
0
  6
CONTINUOUS
 62
       7
  5
72A
 10
-66.16298936
 20
11.93874047
 30
0.0
  0
VERTEX
  8
0
  6
CONTINUOUS
 62
       7
  5
72B
 10
-66.07057805
 20
11.78446977
 30
0.0
  0
VERTEX
  8
0
  6
CONTINUOUS
 62
       7
  5
72C
 10
-65.98232999
 20
11.62693826
 30
0.0
  0
VERTEX
  8
0
  6
CONTINUOUS
 62
       7
  5
72D
 10
-65.89849337
 20
11.46635955
 30
0.0
  0
VERTEX
  8
0
  6
CONTINUOUS
 62
       7
  5
72E
 10
-65.8193164
 20
11.30294728
 30
0.0
  0
VERTEX
  8
0
  6
CONTINUOUS
 62
       7
  5
72F
 10
-65.74504727
 20
11.13691506
 30
0.0
  0
VERTEX
  8
0
  6
CONTINUOUS
 62
       7
  5
730
 10
-65.67593418
 20
10.96847652
 30
0.0
  0
VERTEX
  8
0
  6
CONTINUOUS
 62
       7
  5
731
 10
-65.61222533
 20
10.79784528
 30
0.0
  0
VERTEX
  8
0
  6
CONTINUOUS
 62
       7
  5
732
 10
-65.55416893
 20
10.62523497
 30
0.0
  0
VERTEX
  8
0
  6
CONTINUOUS
 62
       7
  5
733
 10
-65.50201316
 20
10.4508592
 30
0.0
  0
VERTEX
  8
0
  6
CONTINUOUS
 62
       7
  5
734
 10
-65.45600622
 20
10.2749316
 30
0.0
  0
VERTEX
  8
0
  6
CONTINUOUS
 62
       7
  5
735
 10
-65.41639633
 20
10.09766579
 30
0.0
  0
VERTEX
  8
0
  6
CONTINUOUS
 62
       7
  5
736
 10
-65.38343167
 20
9.9192754
 30
0.0
  0
VERTEX
  8
0
  6
CONTINUOUS
 62
       7
  5
737
 10
-65.35736044
 20
9.73997405
 30
0.0
  0
VERTEX
  8
0
  6
CONTINUOUS
 62
       7
  5
738
 10
-65.33843085
 20
9.55997537
 30
0.0
  0
VERTEX
  8
0
  6
CONTINUOUS
 62
       7
  5
739
 10
-65.32689109
 20
9.37949296
 30
0.0
  0
VERTEX
  8
0
  6
CONTINUOUS
 62
       7
  5
73A
 10
-65.32298936
 20
9.19874047
 30
0.0
  0
VERTEX
  8
0
  6
CONTINUOUS
 62
       7
  5
73B
 10
-65.32689112
 20
9.01798797
 30
0.0
  0
VERTEX
  8
0
  6
CONTINUOUS
 62
       7
  5
73C
 10
-65.33843091
 20
8.83750556
 30
0.0
  0
VERTEX
  8
0
  6
CONTINUOUS
 62
       7
  5
73D
 10
-65.35736053
 20
8.65750686
 30
0.0
  0
VERTEX
  8
0
  6
CONTINUOUS
 62
       7
  5
73E
 10
-65.38343178
 20
8.4782055
 30
0.0
  0
VERTEX
  8
0
  6
CONTINUOUS
 62
       7
  5
73F
 10
-65.41639646
 20
8.29981509
 30
0.0
  0
VERTEX
  8
0
  6
CONTINUOUS
 62
       7
  5
740
 10
-65.45600637
 20
8.12254927
 30
0.0
  0
VERTEX
  8
0
  6
CONTINUOUS
 62
       7
  5
741
 10
-65.50201331
 20
7.94662165
 30
0.0
  0
VERTEX
  8
0
  6
CONTINUOUS
 62
       7
  5
742
 10
-65.55416908
 20
7.77224587
 30
0.0
  0
VERTEX
  8
0
  6
CONTINUOUS
 62
       7
  5
743
 10
-65.61222548
 20
7.59963554
 30
0.0
  0
VERTEX
  8
0
  6
CONTINUOUS
 62
       7
  5
744
 10
-65.67593433
 20
7.42900429
 30
0.0
  0
VERTEX
  8
0
  6
CONTINUOUS
 62
       7
  5
745
 10
-65.7450474
 20
7.26056575
 30
0.0
  0
VERTEX
  8
0
  6
CONTINUOUS
 62
       7
  5
746
 10
-65.81931652
 20
7.09453354
 30
0.0
  0
VERTEX
  8
0
  6
CONTINUOUS
 62
       7
  5
747
 10
-65.89849347
 20
6.93112128
 30
0.0
  0
VERTEX
  8
0
  6
CONTINUOUS
 62
       7
  5
748
 10
-65.98233006
 20
6.7705426
 30
0.0
  0
VERTEX
  8
0
  6
CONTINUOUS
 62
       7
  5
749
 10
-66.07057809
 20
6.61301112
 30
0.0
  0
VERTEX
  8
0
  6
CONTINUOUS
 62
       7
  5
74A
 10
-66.16298936
 20
6.45874047
 30
0.0
  0
SEQEND
  8
0
  6
CONTINUOUS
 62
       7
  5
74B
  0
ARC
  8
0
  6
CONTINUOUS
 62
       2
  5
12A
 10
99.17397595
 20
17.42833113
 30
0.0
 40
5.99647748
 50
55.30740452
 51
140.05052309
  0
ARC
  8
0
  6
CONTINUOUS
 62
       2
  5
12B
 10
99.17724175
 20
17.4288493
 30
0.0
 40
4.59925954
 50
105.12714037
 51
124.7298079
  0
ARC
  8
0
  6
CONTINUOUS
 62
       2
  5
12C
 10
99.17201064
 20
17.42873644
 30
0.0
 40
2.99211435
 50
74.98842578
 51
105.01157422
  0
ARC
  8
0
  6
CONTINUOUS
 62
       2
  5
12D
 10
99.18858381
 20
17.41982578
 30
0.0
 40
9.99655345
 50
42.85348041
 51
62.03031531
  0
ARC
  8
0
  6
CONTINUOUS
 62
       2
  5
12E
 10
99.17493582
 20
-5.07229049
 30
0.0
 40
10.00103118
 50
89.98811337
 51
142.91200122
  0
ARC
  8
0
  6
CONTINUOUS
 62
       2
  5
12F
 10
99.17921106
 20
17.38718112
 30
0.0
 40
12.49786868
 50
0.19052687
 51
6.06996285
  0
ARC
  8
0
  6
CONTINUOUS
 62
       2
  5
130
 10
99.17386369
 20
17.42739903
 30
0.0
 40
12.49865896
 50
270.01442609
 51
316.21398988
  0
ARC
  8
0
  6
CONTINUOUS
 62
       2
  5
131
 10
99.18571717
 20
17.42621727
 30
0.0
 40
9.99536723
 50
67.77129438
 51
79.96730851
  0
CIRCLE
  8
0
  6
CONTINUOUS
 62
       2
  5
132
 10
99.17700759
 20
17.42874047
 30
0.0
 40
5.0
  0
CIRCLE
  8
0
  6
CONTINUOUS
 62
       2
  5
133
 10
99.17700759
 20
17.42874047
 30
0.0
 40
4.0
  0
ARC
  8
0
  6
CONTINUOUS
 62
       2
  5
134
 10
99.18050349
 20
17.41709546
 30
0.0
 40
4.59652191
 50
0.14515561
 51
33.42013268
  0
ARC
  8
0
  6
CONTINUOUS
 62
       2
  5
135
 10
99.18006516
 20
17.41780738
 30
0.0
 40
5.99695545
 50
0.10445636
 51
31.24858037
  0
ARC
  8
0
  6
CONTINUOUS
 62
       2
  5
136
 10
99.17830247
 20
-5.06112255
 30
0.0
 40
10.00242899
 50
159.70205332
 51
185.79613398
  0
ARC
  8
0
  6
CONTINUOUS
 62
       2
  5
137
 10
99.19657779
 20
-5.03540712
 30
0.0
 40
10.00189947
 50
148.84758112
 51
154.12992629
  0
ARC
  8
0
  6
CONTINUOUS
 62
       2
  5
138
 10
99.18513119
 20
17.44047285
 30
0.0
 40
12.49562969
 50
320.71635473
 51
329.82025686
  0
ARC
  8
0
  6
CONTINUOUS
 62
       2
  5
139
 10
99.17835329
 20
17.43468136
 30
0.0
 40
12.49865876
 50
334.4739444
 51
359.97276606
  0
ARC
  8
0
  6
CONTINUOUS
 62
       2
  5
13A
 10
99.16909748
 20
17.42563536
 30
0.0
 40
10.00262547
 50
85.59700422
 51
137.22413217
  0
ARC
  8
0
  6
CONTINUOUS
 62
       2
  5
13B
 10
99.16298265
 20
17.39953423
 30
0.0
 40
6.00383291
 50
149.36665911
 51
159.02427609
  0
ARC
  8
0
  6
CONTINUOUS
 62
       2
  5
13C
 10
99.19222018
 20
17.41262319
 30
0.0
 40
5.99066989
 50
40.94786272
 51
45.95582188
  0
ARC
  8
0
  6
CONTINUOUS
 62
       2
  5
13D
 10
99.18092054
 20
17.45043748
 30
0.0
 40
4.60396102
 50
159.55364254
 51
180.27001789
  0
ARC
  8
0
  6
CONTINUOUS
 62
       2
  5
13E
 10
99.16941334
 20
17.41906294
 30
0.0
 40
4.6003616
 50
136.96186817
 51
146.64076148
  0
ARC
  8
0
  6
CONTINUOUS
 62
       2
  5
13F
 10
99.1761763
 20
17.42562963
 30
0.0
 40
3.00083595
 50
330.07776945
 51
0.05939619
  0
ARC
  8
0
  6
CONTINUOUS
 62
       2
  5
140
 10
99.16907741
 20
-7.05801947
 30
0.0
 40
10.01042691
 50
207.95871051
 51
213.96880256
  0
ARC
  8
0
  6
CONTINUOUS
 62
       2
  5
141
 10
99.17911697
 20
-7.08598022
 30
0.0
 40
10.00370324
 50
174.17821834
 51
202.04835222
  0
ARC
  8
0
  6
CONTINUOUS
 62
       2
  5
142
 10
99.16912073
 20
-7.06755269
 30
0.0
 40
10.00370995
 50
219.65281237
 51
270.04518913
  0
ARC
  8
0
  6
CONTINUOUS
 62
       2
  5
143
 10
99.17783928
 20
17.42562811
 30
0.0
 40
3.00083025
 50
179.94057469
 51
209.92225967
  0
ARC
  8
0
  6
CONTINUOUS
 62
       2
  5
144
 10
99.17432837
 20
17.42351623
 30
0.0
 40
6.00268455
 50
305.69845396
 51
0.04986555
  0
ARC
  8
0
  6
CONTINUOUS
 62
       2
  5
145
 10
99.17974479
 20
17.42180459
 30
0.0
 40
6.00716698
 50
168.79866111
 51
234.21416077
  0
ARC
  8
0
  6
CONTINUOUS
 62
       2
  5
146
 10
99.14760262
 20
17.4393955
 30
0.0
 40
4.59413243
 50
65.16716607
 51
74.60765736
  0
ARC
  8
0
  6
CONTINUOUS
 62
       2
  5
147
 10
99.15678101
 20
17.44616782
 30
0.0
 40
4.59827307
 50
45.3730764
 51
52.79815716
  0
CIRCLE
  8
0
  6
CONTINUOUS
 62
       2
  5
148
 10
121.67700759
 20
17.42872521
 30
0.0
 40
6.5
  0
ARC
  8
0
  6
CONTINUOUS
 62
       7
  5
149
 10
174.17700149
 20
32.42873131
 30
0.0
 40
6.00000916
 50
0.00008743
 51
89.99991257
  0
ARC
  8
0
  6
CONTINUOUS
 62
       7
  5
14A
 10
174.17701674
 20
2.42873437
 30
0.0
 40
5.9999939
 50
269.99994172
 51
0.00005828
  0
ARC
  8
0
  6
CONTINUOUS
 62
       7
  5
14B
 10
180.177032
 20
13.42871911
 30
0.0
 40
1.99997864
 50
269.99938801
 51
0.00061199
  0
CIRCLE
  8
0
  6
CONTINUOUS
 62
       7
  5
14C
 10
121.67700759
 20
17.42872521
 30
0.0
 40
5.75
  0
ARC
  8
0
  6
CONTINUOUS
 62
       7
  5
14D
 10
180.17700149
 20
21.42873131
 30
0.0
 40
2.00000916
 50
0.00026228
 51
89.99973772
  0
CIRCLE
  8
0
  6
CONTINUOUS
 62
       7
  5
14E
 10
99.17700759
 20
17.42874047
 30
0.0
 40
3.0
  0
ARC
  8
0
  6
CONTINUOUS
 62
       7
  5
14F
 10
-29.82549033
 20
51.60124144
 30
0.0
 40
1.49750112
 50
89.90431059
 51
180.09568941
  0
ARC
  8
0
  6
CONTINUOUS
 62
       7
  5
150
 10
-19.82549172
 20
41.60124283
 30
0.0
 40
4.49749834
 50
89.96812127
 51
180.03187873
  0
ARC
  8
0
  6
CONTINUOUS
 62
       7
  5
151
 10
-19.32548929
 20
41.1012404
 30
0.0
 40
0.99750321
 50
89.85640607
 51
180.14359393
  0
ARC
  8
0
  6
CONTINUOUS
 62
       7
  5
152
 10
-30.32549179
 20
52.1012429
 30
0.0
 40
4.9974982
 50
89.97130995
 51
180.02869005
  0
ARC
  8
0
  6
CONTINUOUS
 62
       7
  5
153
 10
91.17950995
 20
41.60123977
 30
0.0
 40
4.49750139
 50
359.96816019
 51
90.03183981
  0
ARC
  8
0
  6
CONTINUOUS
 62
       7
  5
154
 10
101.1795162
 20
51.60124602
 30
0.0
 40
1.49749654
 50
359.90413486
 51
90.09586514
  0
ARC
  8
0
  6
CONTINUOUS
 62
       7
  5
155
 10
90.67950751
 20
41.10123734
 30
0.0
 40
0.99750626
 50
359.85658224
 51
90.14341776
  0
ARC
  8
0
  6
CONTINUOUS
 62
       7
  5
156
 10
101.67951765
 20
52.10124748
 30
0.0
 40
4.99749362
 50
359.97125741
 51
90.02874259
  0
LINE
  8
0
  6
CONTINUOUS
 62
       7
  5
157
 10
-48.56298936
 20
33.92874047
 30
0.0
 11
-48.56298936
 21
0.92874047
 31
0.0
  0
LINE
  8
0
  6
CONTINUOUS
 62
       2
  5
158
 10
96.14701064
 20
14.35874047
 30
0.0
 11
96.29701064
 21
14.87874047
 31
0.0
  0
LINE
  8
0
  6
CONTINUOUS
 62
       2
  5
159
 10
96.54701064
 20
15.84874047
 30
0.0
 11
96.57701064
 21
15.92874047
 31
0.0
  0
LINE
  8
0
  6
CONTINUOUS
 62
       2
  5
15A
 10
102.56701064
 20
12.94874047
 30
0.0
 11
102.67701064
 21
12.54874047
 31
0.0
  0
LINE
  8
0
  6
CONTINUOUS
 62
       2
  5
15B
 10
102.12701064
 20
14.58874047
 30
0.0
 11
102.31701064
 21
13.90874047
 31
0.0
  0
LINE
  8
0
  6
CONTINUOUS
 62
       2
  5
15C
 10
101.77701064
 20
15.92874047
 30
0.0
 11
101.87701064
 21
15.54874047
 31
0.0
  0
LINE
  8
0
  6
CONTINUOUS
 62
       2
  5
15D
 10
95.66701064
 20
12.55874047
 30
0.0
 11
95.89701064
 21
13.38874047
 31
0.0
  0
LINE
  8
0
  6
CONTINUOUS
 62
       2
  5
15E
 10
97.97701064
 20
21.86874047
 30
0.0
 11
98.39701064
 21
20.31874047
 31
0.0
  0
LINE
  8
0
  6
CONTINUOUS
 62
       2
  5
15F
 10
99.94701064
 20
20.31874047
 30
0.0
 11
100.36701064
 21
21.86874047
 31
0.0
  0
LINE
  8
0
  6
CONTINUOUS
 62
       2
  5
160
 10
96.42701064
 20
-32.57125953
 30
0.0
 11
126.67701064
 21
-32.57125953
 31
0.0
  0
LINE
  8
0
  6
CONTINUOUS
 62
       2
  5
161
 10
93.44701064
 20
-32.57125953
 30
0.0
 11
94.69701064
 21
-32.57125953
 31
0.0
  0
LINE
  8
0
  6
CONTINUOUS
 62
       2
  5
162
 10
113.19701064
 20
-28.07125953
 30
0.0
 11
126.67701064
 21
-28.07125953
 31
0.0
  0
LINE
  8
0
  6
CONTINUOUS
 62
       2
  5
163
 10
110.94701064
 20
-28.07125953
 30
0.0
 11
112.19701064
 21
-28.07125953
 31
0.0
  0
LINE
  8
0
  6
CONTINUOUS
 62
       2
  5
164
 10
87.94701064
 20
-28.07125953
 30
0.0
 11
109.94701064
 21
-28.07125953
 31
0.0
  0
LINE
  8
0
  6
CONTINUOUS
 62
       2
  5
165
 10
85.44701064
 20
-28.07125953
 30
0.0
 11
86.94701064
 21
-28.07125953
 31
0.0
  0
LINE
  8
0
  6
CONTINUOUS
 62
       2
  5
166
 10
71.67701064
 20
-14.10125953
 30
0.0
 11
71.67701064
 21
-32.57125953
 31
0.0
  0
LINE
  8
0
  6
CONTINUOUS
 62
       2
  5
167
 10
71.67701064
 20
-12.35125953
 30
0.0
 11
71.67701064
 21
-13.10125953
 31
0.0
  0
LINE
  8
0
  6
CONTINUOUS
 62
       2
  5
168
 10
74.76701064
 20
5.76874047
 30
0.0
 11
75.05701064
 21
6.08874047
 31
0.0
  0
LINE
  8
0
  6
CONTINUOUS
 62
       2
  5
169
 10
75.73701064
 20
6.81874047
 30
0.0
 11
87.30701064
 21
19.31874047
 31
0.0
  0
LINE
  8
0
  6
CONTINUOUS
 62
       2
  5
16A
 10
87.98701064
 20
20.05874047
 30
0.0
 11
88.61701064
 21
20.73874047
 31
0.0
  0
LINE
  8
0
  6
CONTINUOUS
 62
       2
  5
16B
 10
89.29701064
 20
21.47874047
 30
0.0
 11
91.82701064
 21
24.21874047
 31
0.0
  0
LINE
  8
0
  6
CONTINUOUS
 62
       2
  5
16C
 10
107.32701064
 20
-17.07125953
 30
0.0
 11
121.67701064
 21
-17.07125953
 31
0.0
  0
LINE
  8
0
  6
CONTINUOUS
 62
       2
  5
16D
 10
105.19701064
 20
-17.07125953
 30
0.0
 11
106.32701064
 21
-17.07125953
 31
0.0
  0
LINE
  8
0
  6
CONTINUOUS
 62
       2
  5
16E
 10
125.29701064
 20
-20.70125953
 30
0.0
 11
126.67701064
 21
-22.07125953
 31
0.0
  0
LINE
  8
0
  6
CONTINUOUS
 62
       2
  5
16F
 10
123.67701064
 20
-19.08125953
 30
0.0
 11
124.59701064
 21
-20.00125953
 31
0.0
  0
LINE
  8
0
  6
CONTINUOUS
 62
       2
  5
170
 10
126.67701064
 20
-24.60125953
 30
0.0
 11
126.67701064
 21
-25.45125953
 31
0.0
  0
LINE
  8
0
  6
CONTINUOUS
 62
       2
  5
171
 10
122.57701064
 20
-32.09125953
 30
0.0
 11
122.57701064
 21
-32.57125953
 31
0.0
  0
LINE
  8
0
  6
CONTINUOUS
 62
       2
  5
172
 10
122.57701064
 20
-30.09125953
 30
0.0
 11
122.57701064
 21
-31.09125953
 31
0.0
  0
LINE
  8
0
  6
CONTINUOUS
 62
       2
  5
173
 10
115.77701064
 20
-31.47125953
 30
0.0
 11
115.77701064
 21
-32.57125953
 31
0.0
  0
LINE
  8
0
  6
CONTINUOUS
 62
       2
  5
174
 10
115.77701064
 20
-29.84125953
 30
0.0
 11
115.77701064
 21
-30.47125953
 31
0.0
  0
LINE
  8
0
  6
CONTINUOUS
 62
       2
  5
175
 10
82.57701064
 20
-32.09125953
 30
0.0
 11
82.57701064
 21
-32.57125953
 31
0.0
  0
LINE
  8
0
  6
CONTINUOUS
 62
       2
  5
176
 10
82.57701064
 20
-29.72125953
 30
0.0
 11
82.57701064
 21
-31.09125953
 31
0.0
  0
LINE
  8
0
  6
CONTINUOUS
 62
       2
  5
177
 10
75.77701064
 20
-31.84125953
 30
0.0
 11
75.77701064
 21
-32.57125953
 31
0.0
  0
LINE
  8
0
  6
CONTINUOUS
 62
       2
  5
178
 10
75.77701064
 20
-29.47125953
 30
0.0
 11
75.77701064
 21
-30.84125953
 31
0.0
  0
LINE
  8
0
  6
CONTINUOUS
 62
       2
  5
179
 10
115.77701064
 20
-28.07125953
 30
0.0
 11
115.77701064
 21
-28.84125953
 31
0.0
  0
LINE
  8
0
  6
CONTINUOUS
 62
       2
  5
17A
 10
122.57701064
 20
-28.07125953
 30
0.0
 11
122.57701064
 21
-29.09125953
 31
0.0
  0
LINE
  8
0
  6
CONTINUOUS
 62
       2
  5
17B
 10
75.77701064
 20
-28.07125953
 30
0.0
 11
75.77701064
 21
-28.47125953
 31
0.0
  0
LINE
  8
0
  6
CONTINUOUS
 62
       2
  5
17C
 10
82.57701064
 20
-28.07125953
 30
0.0
 11
82.57701064
 21
-28.72125953
 31
0.0
  0
LINE
  8
0
  6
CONTINUOUS
 62
       2
  5
17D
 10
79.17701064
 20
-26.02125953
 30
0.0
 11
79.17701064
 21
-41.17125953
 31
0.0
  0
LINE
  8
0
  6
CONTINUOUS
 62
       2
  5
17E
 10
119.17701064
 20
-26.54125953
 30
0.0
 11
119.17701064
 21
-41.17125953
 31
0.0
  0
LINE
  8
0
  6
CONTINUOUS
 62
       2
  5
17F
 10
121.67701064
 20
-17.07125953
 30
0.0
 11
122.96701064
 21
-18.37125953
 31
0.0
  0
LINE
  8
0
  6
CONTINUOUS
 62
       2
  5
180
 10
99.17701064
 20
-17.07125953
 30
0.0
 11
104.19701064
 21
-17.07125953
 31
0.0
  0
LINE
  8
0
  6
CONTINUOUS
 62
       2
  5
181
 10
111.60701064
 20
18.70874047
 30
0.0
 11
106.51701064
 21
24.21874047
 31
0.0
  0
LINE
  8
0
  6
CONTINUOUS
 62
       2
  5
182
 10
126.67701064
 20
-22.07125953
 30
0.0
 11
126.67701064
 21
-23.60125953
 31
0.0
  0
LINE
  8
0
  6
CONTINUOUS
 62
       2
  5
183
 10
71.67701064
 20
2.42874047
 30
0.0
 11
74.08701064
 21
5.02874047
 31
0.0
  0
LINE
  8
0
  6
CONTINUOUS
 62
       2
  5
184
 10
71.67701064
 20
-28.07125953
 30
0.0
 11
84.44701064
 21
-28.07125953
 31
0.0
  0
LINE
  8
0
  6
CONTINUOUS
 62
       2
  5
185
 10
71.67701064
 20
2.42874047
 30
0.0
 11
71.67701064
 21
-11.35125953
 31
0.0
  0
LINE
  8
0
  6
CONTINUOUS
 62
       2
  5
186
 10
71.67701064
 20
-32.57125953
 30
0.0
 11
92.44701064
 21
-32.57125953
 31
0.0
  0
LINE
  8
0
  6
CONTINUOUS
 62
       2
  5
187
 10
94.17701064
 20
14.53874047
 30
0.0
 11
99.17701064
 21
11.64874047
 31
0.0
  0
LINE
  8
0
  6
CONTINUOUS
 62
       2
  5
188
 10
99.17701064
 20
23.19874047
 30
0.0
 11
104.17701064
 21
20.30874047
 31
0.0
  0
LINE
  8
0
  6
CONTINUOUS
 62
       2
  5
189
 10
99.17701064
 20
11.64874047
 30
0.0
 11
104.17701064
 21
14.53874047
 31
0.0
  0
LINE
  8
0
  6
CONTINUOUS
 62
       2
  5
18A
 10
94.17701064
 20
20.30874047
 30
0.0
 11
99.17701064
 21
23.19874047
 31
0.0
  0
LINE
  8
0
  6
CONTINUOUS
 62
       2
  5
18B
 10
94.17701064
 20
20.30874047
 30
0.0
 11
94.17701064
 21
14.53874047
 31
0.0
  0
LINE
  8
0
  6
CONTINUOUS
 62
       2
  5
18C
 10
104.17701064
 20
20.30874047
 30
0.0
 11
104.17701064
 21
14.53874047
 31
0.0
  0
LINE
  8
0
  6
CONTINUOUS
 62
       2
  5
18D
 10
126.67701064
 20
-26.44125953
 30
0.0
 11
126.67701064
 21
-32.57125953
 31
0.0
  0
LINE
  8
0
  6
CONTINUOUS
 62
       2
  5
18E
 10
89.17701064
 20
-5.07125953
 30
0.0
 11
89.17701064
 21
-7.07125953
 31
0.0
  0
LINE
  8
0
  6
CONTINUOUS
 62
       2
  5
18F
 10
-27.82298936
 20
49.59874047
 30
0.0
 11
74.17701064
 21
49.59874047
 31
0.0
  0
LINE
  8
0
  6
CONTINUOUS
 62
       7
  5
190
 10
-2.82298936
 20
46.59874047
 30
0.0
 11
74.17701064
 21
46.59874047
 31
0.0
  0
LINE
  8
0
  6
CONTINUOUS
 62
       7
  5
191
 10
-2.82298936
 20
52.59874047
 30
0.0
 11
74.17701064
 21
52.59874047
 31
0.0
  0
LINE
  8
0
  6
CONTINUOUS
 62
       2
  5
192
 10
191.32701064
 20
15.69874047
 30
0.0
 11
191.51701064
 21
16.41874047
 31
0.0
  0
LINE
  8
0
  6
CONTINUOUS
 62
       2
  5
193
 10
196.53701064
 20
16.47874047
 30
0.0
 11
196.66701064
 21
16.96874047
 31
0.0
  0
LINE
  8
0
  6
CONTINUOUS
 62
       2
  5
194
 10
196.96701064
 20
18.09874047
 30
0.0
 11
197.03701064
 21
18.36874047
 31
0.0
  0
LINE
  8
0
  6
CONTINUOUS
 62
       2
  5
195
 10
197.29701064
 20
19.33874047
 30
0.0
 11
197.85701064
 21
21.42874047
 31
0.0
  0
LINE
  8
0
  6
CONTINUOUS
 62
       2
  5
196
 10
191.77701064
 20
17.38874047
 30
0.0
 11
191.92701064
 21
17.94874047
 31
0.0
  0
LINE
  8
0
  6
CONTINUOUS
 62
       2
  5
197
 10
192.18701064
 20
18.91874047
 30
0.0
 11
192.85701064
 21
21.42874047
 31
0.0
  0
LINE
  8
0
  6
CONTINUOUS
 62
       2
  5
198
 10
195.71701064
 20
13.42874047
 30
0.0
 11
196.27701064
 21
15.50874047
 31
0.0
  0
LINE
  8
0
  6
CONTINUOUS
 62
       2
  5
199
 10
190.71701064
 20
13.42874047
 30
0.0
 11
191.06701064
 21
14.72874047
 31
0.0
  0
LINE
  8
0
  6
CONTINUOUS
 62
       2
  5
19A
 10
93.14701064
 20
41.22874047
 30
0.0
 11
93.72701064
 21
40.22874047
 31
0.0
  0
LINE
  8
0
  6
CONTINUOUS
 62
       2
  5
19B
 10
104.61701064
 20
40.22874047
 30
0.0
 11
105.19701064
 21
41.22874047
 31
0.0
  0
LINE
  8
0
  6
CONTINUOUS
 62
       2
  5
19C
 10
-22.37298936
 20
40.22874047
 30
0.0
 11
-21.79298936
 21
41.22874047
 31
0.0
  0
LINE
  8
0
  6
CONTINUOUS
 62
       2
  5
19D
 10
-33.84298936
 20
41.22874047
 30
0.0
 11
-33.26298936
 21
40.22874047
 31
0.0
  0
LINE
  8
0
  6
CONTINUOUS
 62
       7
  5
19E
 10
105.61701064
 20
40.22874047
 30
0.0
 11
92.72701064
 21
40.22874047
 31
0.0
  0
LINE
  8
0
  6
CONTINUOUS
 62
       7
  5
19F
 10
-34.26298936
 20
40.22874047
 30
0.0
 11
-21.37298936
 21
40.22874047
 31
0.0
  0
LINE
  8
0
  6
CONTINUOUS
 62
       7
  5
1A0
 10
-34.32298936
 20
41.22874047
 30
0.0
 11
-34.16298936
 21
38.22874047
 31
0.0
  0
LINE
  8
0
  6
CONTINUOUS
 62
       2
  5
1A1
 10
-33.26298936
 20
40.22874047
 30
0.0
 11
-33.16298936
 21
38.27874047
 31
0.0
  0
LINE
  8
0
  6
CONTINUOUS
 62
       2
  5
1A2
 10
116.17701064
 20
-4.57125953
 30
0.0
 11
116.17701064
 21
-3.05125953
 31
0.0
  0
LINE
  8
0
  6
CONTINUOUS
 62
       2
  5
1A3
 10
127.17701064
 20
-4.57125953
 30
0.0
 11
127.17701064
 21
-3.05125953
 31
0.0
  0
LINE
  8
0
  6
CONTINUOUS
 62
       2
  5
1A4
 10
-83.99782624
 20
17.42874047
 30
0.0
 11
183.26701064
 21
17.42874047
 31
0.0
  0
LINE
  8
0
  6
CONTINUOUS
 62
       7
  5
1A5
 10
128.17701064
 20
38.42874047
 30
0.0
 11
128.17701064
 21
38.08874047
 31
0.0
  0
LINE
  8
0
  6
CONTINUOUS
 62
       7
  5
1A6
 10
128.17701064
 20
38.42874047
 30
0.0
 11
127.17701064
 21
39.42874047
 31
0.0
  0
LINE
  8
0
  6
CONTINUOUS
 62
       7
  5
1A7
 10
116.17701064
 20
39.42874047
 30
0.0
 11
115.17701064
 21
38.42874047
 31
0.0
  0
LINE
  8
0
  6
CONTINUOUS
 62
       7
  5
1A8
 10
115.17701064
 20
38.42874047
 30
0.0
 11
115.17701064
 21
38.08874047
 31
0.0
  0
LINE
  8
0
  6
CONTINUOUS
 62
       7
  5
1A9
 10
128.17701064
 20
38.42874047
 30
0.0
 11
115.17701064
 21
38.42874047
 31
0.0
  0
LINE
  8
0
  6
CONTINUOUS
 62
       7
  5
1AA
 10
127.17701064
 20
39.42874047
 30
0.0
 11
116.17701064
 21
39.42874047
 31
0.0
  0
LINE
  8
0
  6
CONTINUOUS
 62
       2
  5
1AB
 10
121.67701064
 20
-11.41125953
 30
0.0
 11
121.67701064
 21
45.42874047
 31
0.0
  0
LINE
  8
0
  6
CONTINUOUS
 62
       7
  5
1AC
 10
180.17701064
 20
2.42874047
 30
0.0
 11
180.17701064
 21
32.42874047
 31
0.0
  0
LINE
  8
0
  6
CONTINUOUS
 62
       7
  5
1AD
 10
212.04701064
 20
15.42874047
 30
0.0
 11
196.24701064
 21
15.42874047
 31
0.0
  0
LINE
  8
0
  6
CONTINUOUS
 62
       7
  5
1AE
 10
190.71701064
 20
13.42874047
 30
0.0
 11
182.04701064
 21
13.42874047
 31
0.0
  0
LINE
  8
0
  6
CONTINUOUS
 62
       7
  5
1AF
 10
191.24701064
 20
15.42874047
 30
0.0
 11
182.17701064
 21
15.42874047
 31
0.0
  0
LINE
  8
0
  6
CONTINUOUS
 62
       7
  5
1B0
 10
192.32701064
 20
19.42874047
 30
0.0
 11
182.17701064
 21
19.42874047
 31
0.0
  0
LINE
  8
0
  6
CONTINUOUS
 62
       7
  5
1B1
 10
192.85701064
 20
21.42874047
 30
0.0
 11
182.29701064
 21
21.42874047
 31
0.0
  0
LINE
  8
0
  6
CONTINUOUS
 62
       7
  5
1B2
 10
212.04701064
 20
21.42874047
 30
0.0
 11
212.04701064
 21
19.42874047
 31
0.0
  0
LINE
  8
0
  6
CONTINUOUS
 62
       7
  5
1B3
 10
212.04701064
 20
15.42874047
 30
0.0
 11
212.04701064
 21
13.42874047
 31
0.0
  0
LINE
  8
0
  6
CONTINUOUS
 62
       7
  5
1B4
 10
212.04701064
 20
13.42874047
 30
0.0
 11
195.71701064
 21
13.42874047
 31
0.0
  0
LINE
  8
0
  6
CONTINUOUS
 62
       7
  5
1B5
 10
212.04701064
 20
21.42874047
 30
0.0
 11
197.85701064
 21
21.42874047
 31
0.0
  0
LINE
  8
0
  6
CONTINUOUS
 62
       7
  5
1B6
 10
212.04701064
 20
19.42874047
 30
0.0
 11
197.32701064
 21
19.42874047
 31
0.0
  0
LINE
  8
0
  6
CONTINUOUS
 62
       7
  5
1B7
 10
180.27701064
 20
11.42874047
 30
0.0
 11
180.17701064
 21
11.42874047
 31
0.0
  0
LINE
  8
0
  6
CONTINUOUS
 62
       7
  5
1B8
 10
182.17701064
 20
13.42874047
 30
0.0
 11
182.17701064
 21
21.42874047
 31
0.0
  0
LINE
  8
0
  6
CONTINUOUS
 62
       2
  5
1B9
 10
116.17701064
 20
39.42874047
 30
0.0
 11
116.17701064
 21
37.89874047
 31
0.0
  0
LINE
  8
0
  6
CONTINUOUS
 62
       2
  5
1BA
 10
127.17701064
 20
39.42874047
 30
0.0
 11
127.17701064
 21
37.89874047
 31
0.0
  0
LINE
  8
0
  6
CONTINUOUS
 62
       7
  5
1BB
 10
128.17701064
 20
-3.57125953
 30
0.0
 11
115.17701064
 21
-3.57125953
 31
0.0
  0
LINE
  8
0
  6
CONTINUOUS
 62
       7
  5
1BC
 10
116.17701064
 20
-4.57125953
 30
0.0
 11
115.17701064
 21
-3.57125953
 31
0.0
  0
LINE
  8
0
  6
CONTINUOUS
 62
       7
  5
1BD
 10
128.17701064
 20
-3.57125953
 30
0.0
 11
127.17701064
 21
-4.57125953
 31
0.0
  0
LINE
  8
0
  6
CONTINUOUS
 62
       7
  5
1BE
 10
115.17701064
 20
-3.57125953
 30
0.0
 11
115.17701064
 21
-3.24125953
 31
0.0
  0
LINE
  8
0
  6
CONTINUOUS
 62
       7
  5
1BF
 10
128.17701064
 20
-3.57125953
 30
0.0
 11
128.17701064
 21
-3.24125953
 31
0.0
  0
LINE
  8
0
  6
CONTINUOUS
 62
       7
  5
1C0
 10
127.17701064
 20
-4.57125953
 30
0.0
 11
116.17701064
 21
-4.57125953
 31
0.0
  0
LINE
  8
0
  6
CONTINUOUS
 62
       2
  5
1C1
 10
138.67701064
 20
37.42874047
 30
0.0
 11
138.67701064
 21
44.17874047
 31
0.0
  0
LINE
  8
0
  6
CONTINUOUS
 62
       7
  5
1C2
 10
134.67701064
 20
38.42874047
 30
0.0
 11
134.67701064
 21
39.42874047
 31
0.0
  0
LINE
  8
0
  6
CONTINUOUS
 62
       7
  5
1C3
 10
142.67701064
 20
38.42874047
 30
0.0
 11
142.67701064
 21
39.42874047
 31
0.0
  0
LINE
  8
0
  6
CONTINUOUS
 62
       7
  5
1C4
 10
142.67701064
 20
-4.57125953
 30
0.0
 11
134.67701064
 21
-4.57125953
 31
0.0
  0
LINE
  8
0
  6
CONTINUOUS
 62
       7
  5
1C5
 10
142.67701064
 20
39.42874047
 30
0.0
 11
134.67701064
 21
39.42874047
 31
0.0
  0
LINE
  8
0
  6
CONTINUOUS
 62
       7
  5
1C6
 10
134.67701064
 20
-4.57125953
 30
0.0
 11
134.67701064
 21
-3.57125953
 31
0.0
  0
LINE
  8
0
  6
CONTINUOUS
 62
       7
  5
1C7
 10
142.67701064
 20
-4.57125953
 30
0.0
 11
142.67701064
 21
-3.57125953
 31
0.0
  0
LINE
  8
0
  6
CONTINUOUS
 62
       7
  5
1C8
 10
113.67701064
 20
-3.57125953
 30
0.0
 11
108.17701064
 21
-3.57125953
 31
0.0
  0
LINE
  8
0
  6
CONTINUOUS
 62
       7
  5
1C9
 10
113.67701064
 20
38.42874047
 30
0.0
 11
108.17701064
 21
38.42874047
 31
0.0
  0
LINE
  8
0
  6
CONTINUOUS
 62
       2
  5
1CA
 10
138.67701064
 20
-8.65125953
 30
0.0
 11
138.67701064
 21
-1.42125953
 31
0.0
  0
LINE
  8
0
  6
CONTINUOUS
 62
       7
  5
1CB
 10
108.17701064
 20
38.42874047
 30
0.0
 11
108.17701064
 21
-3.57125953
 31
0.0
  0
LINE
  8
0
  6
CONTINUOUS
 62
       7
  5
1CC
 10
108.17701064
 20
-3.57125953
 30
0.0
 11
107.17701064
 21
-2.57125953
 31
0.0
  0
LINE
  8
0
  6
CONTINUOUS
 62
       7
  5
1CD
 10
107.17701064
 20
37.42874047
 30
0.0
 11
108.17701064
 21
38.42874047
 31
0.0
  0
LINE
  8
0
  6
CONTINUOUS
 62
       7
  5
1CE
 10
132.67701064
 20
-3.57125953
 30
0.0
 11
132.67701064
 21
38.42874047
 31
0.0
  0
LINE
  8
0
  6
CONTINUOUS
 62
       7
  5
1CF
 10
174.17701064
 20
38.42874047
 30
0.0
 11
129.67701064
 21
38.42874047
 31
0.0
  0
LINE
  8
0
  6
CONTINUOUS
 62
       7
  5
1D0
 10
174.17701064
 20
-3.57125953
 30
0.0
 11
129.67701064
 21
-3.57125953
 31
0.0
  0
LINE
  8
0
  6
CONTINUOUS
 62
       2
  5
1D1
 10
84.73701064
 20
4.35874047
 30
0.0
 11
85.67701064
 21
4.35874047
 31
0.0
  0
LINE
  8
0
  6
CONTINUOUS
 62
       2
  5
1D2
 10
84.73701064
 20
8.48874047
 30
0.0
 11
85.67701064
 21
8.48874047
 31
0.0
  0
LINE
  8
0
  6
CONTINUOUS
 62
       7
  5
1D3
 10
84.67701064
 20
4.42874047
 30
0.0
 11
85.17701064
 21
3.92874047
 31
0.0
  0
LINE
  8
0
  6
CONTINUOUS
 62
       7
  5
1D4
 10
84.67701064
 20
8.42874047
 30
0.0
 11
85.17701064
 21
8.92874047
 31
0.0
  0
LINE
  8
0
  6
CONTINUOUS
 62
       7
  5
1D5
 10
85.17701064
 20
8.92874047
 30
0.0
 11
85.17701064
 21
3.92874047
 31
0.0
  0
LINE
  8
0
  6
CONTINUOUS
 62
       7
  5
1D6
 10
85.17701064
 20
3.92874047
 30
0.0
 11
85.67701064
 21
3.92874047
 31
0.0
  0
LINE
  8
0
  6
CONTINUOUS
 62
       7
  5
1D7
 10
85.17701064
 20
8.92874047
 30
0.0
 11
85.67701064
 21
8.92874047
 31
0.0
  0
LINE
  8
0
  6
CONTINUOUS
 62
       7
  5
1D8
 10
84.67701064
 20
8.42874047
 30
0.0
 11
84.67701064
 21
4.42874047
 31
0.0
  0
LINE
  8
0
  6
CONTINUOUS
 62
       7
  5
1D9
 10
85.67701064
 20
2.42874047
 30
0.0
 11
86.02701064
 21
1.80874047
 31
0.0
  0
LINE
  8
0
  6
CONTINUOUS
 62
       7
  5
1DA
 10
89.31701064
 20
11.03874047
 30
0.0
 11
89.67701064
 21
10.42874047
 31
0.0
  0
LINE
  8
0
  6
CONTINUOUS
 62
       7
  5
1DB
 10
89.31701064
 20
1.80874047
 30
0.0
 11
89.67701064
 21
2.42874047
 31
0.0
  0
LINE
  8
0
  6
CONTINUOUS
 62
       7
  5
1DC
 10
85.67701064
 20
10.42874047
 30
0.0
 11
86.02701064
 21
11.03874047
 31
0.0
  0
LINE
  8
0
  6
CONTINUOUS
 62
       7
  5
1DD
 10
86.02701064
 20
1.80874047
 30
0.0
 11
89.31701064
 21
1.80874047
 31
0.0
  0
LINE
  8
0
  6
CONTINUOUS
 62
       7
  5
1DE
 10
86.02701064
 20
4.11874047
 30
0.0
 11
89.31701064
 21
4.11874047
 31
0.0
  0
LINE
  8
0
  6
CONTINUOUS
 62
       7
  5
1DF
 10
86.02701064
 20
8.72874047
 30
0.0
 11
89.31701064
 21
8.72874047
 31
0.0
  0
LINE
  8
0
  6
CONTINUOUS
 62
       7
  5
1E0
 10
86.02701064
 20
11.03874047
 30
0.0
 11
89.31701064
 21
11.03874047
 31
0.0
  0
LINE
  8
0
  6
CONTINUOUS
 62
       7
  5
1E1
 10
85.67701064
 20
10.42874047
 30
0.0
 11
85.67701064
 21
2.42874047
 31
0.0
  0
LINE
  8
0
  6
CONTINUOUS
 62
       7
  5
1E2
 10
89.67701064
 20
6.78874047
 30
0.0
 11
91.17701064
 21
5.92874047
 31
0.0
  0
LINE
  8
0
  6
CONTINUOUS
 62
       7
  5
1E3
 10
89.67701064
 20
7.78874047
 30
0.0
 11
91.17701064
 21
6.92874047
 31
0.0
  0
LINE
  8
0
  6
CONTINUOUS
 62
       7
  5
1E4
 10
89.67701064
 20
1.77874047
 30
0.0
 11
91.17701064
 21
1.77874047
 31
0.0
  0
LINE
  8
0
  6
CONTINUOUS
 62
       7
  5
1E5
 10
89.67701064
 20
11.07874047
 30
0.0
 11
91.17701064
 21
11.07874047
 31
0.0
  0
LINE
  8
0
  6
CONTINUOUS
 62
       7
  5
1E6
 10
89.67701064
 20
11.07874047
 30
0.0
 11
89.67701064
 21
2.42874047
 31
0.0
  0
LINE
  8
0
  6
CONTINUOUS
 62
       2
  5
1E7
 10
-22.47298936
 20
38.27874047
 30
0.0
 11
-22.37298936
 21
40.22874047
 31
0.0
  0
LINE
  8
0
  6
CONTINUOUS
 62
       7
  5
1E8
 10
-21.47298936
 20
38.22874047
 30
0.0
 11
-21.32298936
 21
41.22874047
 31
0.0
  0
LINE
  8
0
  6
CONTINUOUS
 62
       2
  5
1E9
 10
-27.82298936
 20
36.78874047
 30
0.0
 11
-27.82298936
 21
50.58874047
 31
0.0
  0
LINE
  8
0
  6
CONTINUOUS
 62
       7
  5
1EA
 10
-19.25298936
 20
55.65874047
 30
0.0
 11
-18.82298936
 21
55.65874047
 31
0.0
  0
LINE
  8
0
  6
CONTINUOUS
 62
       7
  5
1EB
 10
-19.25298936
 20
43.53874047
 30
0.0
 11
-18.82298936
 21
43.53874047
 31
0.0
  0
LINE
  8
0
  6
CONTINUOUS
 62
       7
  5
1EC
 10
-24.32298936
 20
41.22874047
 30
0.0
 11
-24.32298936
 21
41.59874047
 31
0.0
  0
LINE
  8
0
  6
CONTINUOUS
 62
       7
  5
1ED
 10
-35.32298936
 20
41.22874047
 30
0.0
 11
-35.32298936
 21
52.09874047
 31
0.0
  0
LINE
  8
0
  6
CONTINUOUS
 62
       7
  5
1EE
 10
-31.32298936
 20
41.22874047
 30
0.0
 11
-31.32298936
 21
51.59874047
 31
0.0
  0
LINE
  8
0
  6
CONTINUOUS
 62
       7
  5
1EF
 10
-19.32298936
 20
42.09874047
 30
0.0
 11
-19.25298936
 21
42.09874047
 31
0.0
  0
LINE
  8
0
  6
CONTINUOUS
 62
       7
  5
1F0
 10
-19.82298936
 20
46.09874047
 30
0.0
 11
-19.25298936
 21
46.09874047
 31
0.0
  0
LINE
  8
0
  6
CONTINUOUS
 62
       7
  5
1F1
 10
-29.82298936
 20
53.09874047
 30
0.0
 11
-19.25298936
 21
53.09874047
 31
0.0
  0
LINE
  8
0
  6
CONTINUOUS
 62
       7
  5
1F2
 10
-30.32298936
 20
57.09874047
 30
0.0
 11
-19.25298936
 21
57.09874047
 31
0.0
  0
LINE
  8
0
  6
CONTINUOUS
 62
       7
  5
1F3
 10
-35.32298936
 20
41.22874047
 30
0.0
 11
-20.32298936
 21
41.22874047
 31
0.0
  0
LINE
  8
0
  6
CONTINUOUS
 62
       7
  5
1F4
 10
-20.32298936
 20
41.09874047
 30
0.0
 11
-20.32298936
 21
41.22874047
 31
0.0
  0
LINE
  8
0
  6
CONTINUOUS
 62
       7
  5
1F5
 10
-19.25298936
 20
42.09874047
 30
0.0
 11
-19.25298936
 21
57.09874047
 31
0.0
  0
LINE
  8
0
  6
CONTINUOUS
 62
       7
  5
1F6
 10
-24.32298936
 20
42.02874047
 30
0.0
 11
-24.32298936
 21
42.09874047
 31
0.0
  0
LINE
  8
0
  6
CONTINUOUS
 62
       7
  5
1F7
 10
-9.02298936
 20
57.67874047
 30
0.0
 11
-2.82298936
 21
54.09874047
 31
0.0
  0
LINE
  8
0
  6
CONTINUOUS
 62
       7
  5
1F8
 10
-9.02298936
 20
41.51874047
 30
0.0
 11
-2.82298936
 21
45.09874047
 31
0.0
  0
LINE
  8
0
  6
CONTINUOUS
 62
       7
  5
1F9
 10
-2.82298936
 20
45.09874047
 30
0.0
 11
-2.82298936
 21
54.09874047
 31
0.0
  0
LINE
  8
0
  6
CONTINUOUS
 62
       7
  5
1FA
 10
-18.82298936
 20
43.53874047
 30
0.0
 11
-18.82298936
 21
55.65874047
 31
0.0
  0
LINE
  8
0
  6
CONTINUOUS
 62
       7
  5
1FB
 10
-17.82298936
 20
57.67874047
 30
0.0
 11
-9.02298936
 21
57.67874047
 31
0.0
  0
LINE
  8
0
  6
CONTINUOUS
 62
       7
  5
1FC
 10
-17.82298936
 20
53.63874047
 30
0.0
 11
-9.02298936
 21
53.63874047
 31
0.0
  0
LINE
  8
0
  6
CONTINUOUS
 62
       7
  5
1FD
 10
-17.82298936
 20
45.55874047
 30
0.0
 11
-9.02298936
 21
45.55874047
 31
0.0
  0
LINE
  8
0
  6
CONTINUOUS
 62
       7
  5
1FE
 10
-17.82298936
 20
41.51874047
 30
0.0
 11
-9.02298936
 21
41.51874047
 31
0.0
  0
LINE
  8
0
  6
CONTINUOUS
 62
       2
  5
1FF
 10
93.72701064
 20
40.22874047
 30
0.0
 11
93.82701064
 21
38.27874047
 31
0.0
  0
LINE
  8
0
  6
CONTINUOUS
 62
       2
  5
200
 10
104.51701064
 20
38.27874047
 30
0.0
 11
104.61701064
 21
40.22874047
 31
0.0
  0
LINE
  8
0
  6
CONTINUOUS
 62
       7
  5
201
 10
92.67701064
 20
41.22874047
 30
0.0
 11
92.82701064
 21
38.22874047
 31
0.0
  0
LINE
  8
0
  6
CONTINUOUS
 62
       7
  5
202
 10
105.51701064
 20
38.22874047
 30
0.0
 11
105.67701064
 21
41.22874047
 31
0.0
  0
LINE
  8
0
  6
CONTINUOUS
 62
       7
  5
203
 10
90.60701064
 20
55.65874047
 30
0.0
 11
90.17701064
 21
55.65874047
 31
0.0
  0
LINE
  8
0
  6
CONTINUOUS
 62
       7
  5
204
 10
90.60701064
 20
43.53874047
 30
0.0
 11
90.17701064
 21
43.53874047
 31
0.0
  0
LINE
  8
0
  6
CONTINUOUS
 62
       7
  5
205
 10
95.67701064
 20
41.22874047
 30
0.0
 11
95.67701064
 21
41.59874047
 31
0.0
  0
LINE
  8
0
  6
CONTINUOUS
 62
       7
  5
206
 10
106.67701064
 20
41.22874047
 30
0.0
 11
106.67701064
 21
52.09874047
 31
0.0
  0
LINE
  8
0
  6
CONTINUOUS
 62
       7
  5
207
 10
102.67701064
 20
41.22874047
 30
0.0
 11
102.67701064
 21
51.59874047
 31
0.0
  0
LINE
  8
0
  6
CONTINUOUS
 62
       7
  5
208
 10
90.67701064
 20
42.09874047
 30
0.0
 11
90.60701064
 21
42.09874047
 31
0.0
  0
LINE
  8
0
  6
CONTINUOUS
 62
       7
  5
209
 10
91.17701064
 20
46.09874047
 30
0.0
 11
90.60701064
 21
46.09874047
 31
0.0
  0
LINE
  8
0
  6
CONTINUOUS
 62
       7
  5
20A
 10
101.17701064
 20
53.09874047
 30
0.0
 11
90.60701064
 21
53.09874047
 31
0.0
  0
LINE
  8
0
  6
CONTINUOUS
 62
       7
  5
20B
 10
101.67701064
 20
57.09874047
 30
0.0
 11
90.60701064
 21
57.09874047
 31
0.0
  0
LINE
  8
0
  6
CONTINUOUS
 62
       7
  5
20C
 10
106.67701064
 20
41.22874047
 30
0.0
 11
91.67701064
 21
41.22874047
 31
0.0
  0
LINE
  8
0
  6
CONTINUOUS
 62
       7
  5
20D
 10
91.67701064
 20
41.09874047
 30
0.0
 11
91.67701064
 21
41.22874047
 31
0.0
  0
LINE
  8
0
  6
CONTINUOUS
 62
       7
  5
20E
 10
90.60701064
 20
42.09874047
 30
0.0
 11
90.60701064
 21
57.09874047
 31
0.0
  0
LINE
  8
0
  6
CONTINUOUS
 62
       7
  5
20F
 10
95.67701064
 20
42.02874047
 30
0.0
 11
95.67701064
 21
42.09874047
 31
0.0
  0
LINE
  8
0
  6
CONTINUOUS
 62
       7
  5
210
 10
80.37701064
 20
57.67874047
 30
0.0
 11
74.17701064
 21
54.09874047
 31
0.0
  0
LINE
  8
0
  6
CONTINUOUS
 62
       7
  5
211
 10
80.37701064
 20
41.51874047
 30
0.0
 11
74.17701064
 21
45.09874047
 31
0.0
  0
LINE
  8
0
  6
CONTINUOUS
 62
       2
  5
212
 10
100.83701064
 20
49.59874047
 30
0.0
 11
74.17701064
 21
49.59874047
 31
0.0
  0
LINE
  8
0
  6
CONTINUOUS
 62
       7
  5
213
 10
74.17701064
 20
45.09874047
 30
0.0
 11
74.17701064
 21
54.09874047
 31
0.0
  0
LINE
  8
0
  6
CONTINUOUS
 62
       7
  5
214
 10
90.17701064
 20
43.53874047
 30
0.0
 11
90.17701064
 21
55.65874047
 31
0.0
  0
LINE
  8
0
  6
CONTINUOUS
 62
       7
  5
215
 10
89.17701064
 20
57.67874047
 30
0.0
 11
80.37701064
 21
57.67874047
 31
0.0
  0
LINE
  8
0
  6
CONTINUOUS
 62
       7
  5
216
 10
89.17701064
 20
53.63874047
 30
0.0
 11
80.37701064
 21
53.63874047
 31
0.0
  0
LINE
  8
0
  6
CONTINUOUS
 62
       7
  5
217
 10
89.17701064
 20
45.55874047
 30
0.0
 11
80.37701064
 21
45.55874047
 31
0.0
  0
LINE
  8
0
  6
CONTINUOUS
 62
       7
  5
218
 10
89.17701064
 20
41.51874047
 30
0.0
 11
80.37701064
 21
41.51874047
 31
0.0
  0
LINE
  8
0
  6
CONTINUOUS
 62
       2
  5
219
 10
83.89701064
 20
6.42874047
 30
0.0
 11
92.02701064
 21
6.42874047
 31
0.0
  0
LINE
  8
0
  6
CONTINUOUS
 62
       7
  5
21A
 10
81.17701064
 20
-3.37125953
 30
0.0
 11
74.17701064
 21
-3.37125953
 31
0.0
  0
LINE
  8
0
  6
CONTINUOUS
 62
       7
  5
21B
 10
91.17701064
 20
-2.37125953
 30
0.0
 11
81.17701064
 21
-2.37125953
 31
0.0
  0
LINE
  8
0
  6
CONTINUOUS
 62
       7
  5
21C
 10
91.17701064
 20
22.69874047
 30
0.0
 11
91.17701064
 21
-3.37125953
 31
0.0
  0
LINE
  8
0
  6
CONTINUOUS
 62
       7
  5
21D
 10
81.17701064
 20
22.69874047
 30
0.0
 11
81.17701064
 21
-3.37125953
 31
0.0
  0
LINE
  8
0
  6
CONTINUOUS
 62
       7
  5
21E
 10
106.17701064
 20
38.22874047
 30
0.0
 11
107.17701064
 21
37.22874047
 31
0.0
  0
LINE
  8
0
  6
CONTINUOUS
 62
       7
  5
21F
 10
106.17701064
 20
-3.37125953
 30
0.0
 11
107.17701064
 21
-2.37125953
 31
0.0
  0
LINE
  8
0
  6
CONTINUOUS
 62
       7
  5
220
 10
106.17701064
 20
38.22874047
 30
0.0
 11
106.17701064
 21
-3.37125953
 31
0.0
  0
LINE
  8
0
  6
CONTINUOUS
 62
       7
  5
221
 10
107.17701064
 20
37.42874047
 30
0.0
 11
107.17701064
 21
-2.37125953
 31
0.0
  0
LINE
  8
0
  6
CONTINUOUS
 62
       7
  5
222
 10
81.17701064
 20
22.69874047
 30
0.0
 11
91.17701064
 21
22.69874047
 31
0.0
  0
LINE
  8
0
  6
CONTINUOUS
 62
       7
  5
223
 10
-80.82298936
 20
11.42874047
 30
0.0
 11
-79.82298936
 21
10.42874047
 31
0.0
  0
LINE
  8
0
  6
CONTINUOUS
 62
       7
  5
224
 10
-80.82298936
 20
23.42874047
 30
0.0
 11
-80.82298936
 21
11.42874047
 31
0.0
  0
LINE
  8
0
  6
CONTINUOUS
 62
       7
  5
225
 10
-79.82298936
 20
24.42874047
 30
0.0
 11
-80.82298936
 21
23.42874047
 31
0.0
  0
LINE
  8
0
  6
CONTINUOUS
 62
       2
  5
226
 10
-65.32298936
 20
11.42874047
 30
0.0
 11
-57.82298936
 21
11.42874047
 31
0.0
  0
LINE
  8
0
  6
CONTINUOUS
 62
       2
  5
227
 10
-57.82298936
 20
11.42874047
 30
0.0
 11
-56.08298936
 21
10.42874047
 31
0.0
  0
LINE
  8
0
  6
CONTINUOUS
 62
       2
  5
228
 10
-57.82298936
 20
23.42874047
 30
0.0
 11
-56.08298936
 21
24.42874047
 31
0.0
  0
LINE
  8
0
  6
CONTINUOUS
 62
       7
  5
229
 10
-79.82298936
 20
24.42874047
 30
0.0
 11
-79.82298936
 21
10.42874047
 31
0.0
  0
LINE
  8
0
  6
CONTINUOUS
 62
       2
  5
22A
 10
-65.32298936
 20
23.42874047
 30
0.0
 11
-57.82298936
 21
23.42874047
 31
0.0
  0
LINE
  8
0
  6
CONTINUOUS
 62
       2
  5
22B
 10
-80.82298936
 20
11.42874047
 30
0.0
 11
-73.32298936
 21
11.42874047
 31
0.0
  0
LINE
  8
0
  6
CONTINUOUS
 62
       2
  5
22C
 10
-80.82298936
 20
23.42874047
 30
0.0
 11
-73.32298936
 21
23.42874047
 31
0.0
  0
LINE
  8
0
  6
CONTINUOUS
 62
       7
  5
22D
 10
-65.32298936
 20
24.42874047
 30
0.0
 11
-55.82298936
 21
24.42874047
 31
0.0
  0
LINE
  8
0
  6
CONTINUOUS
 62
       7
  5
22E
 10
-65.32298936
 20
10.42874047
 30
0.0
 11
-55.82298936
 21
10.42874047
 31
0.0
  0
LINE
  8
0
  6
CONTINUOUS
 62
       7
  5
22F
 10
-54.82298936
 20
9.42874047
 30
0.0
 11
-49.82298936
 21
9.42874047
 31
0.0
  0
LINE
  8
0
  6
CONTINUOUS
 62
       7
  5
230
 10
-54.82298936
 20
25.42874047
 30
0.0
 11
-49.82298936
 21
25.42874047
 31
0.0
  0
LINE
  8
0
  6
CONTINUOUS
 62
       7
  5
231
 10
-54.82298936
 20
9.42874047
 30
0.0
 11
-54.82298936
 21
13.54874047
 31
0.0
  0
LINE
  8
0
  6
CONTINUOUS
 62
       2
  5
232
 10
-50.82298936
 20
21.29874047
 30
0.0
 11
-54.82298936
 21
13.54874047
 31
0.0
  0
LINE
  8
0
  6
CONTINUOUS
 62
       2
  5
233
 10
-54.82298936
 20
21.29874047
 30
0.0
 11
-50.82298936
 21
13.54874047
 31
0.0
  0
LINE
  8
0
  6
CONTINUOUS
 62
       7
  5
234
 10
-54.82298936
 20
13.54874047
 30
0.0
 11
-50.82298936
 21
13.54874047
 31
0.0
  0
LINE
  8
0
  6
CONTINUOUS
 62
       7
  5
235
 10
-54.82298936
 20
21.29874047
 30
0.0
 11
-50.82298936
 21
21.29874047
 31
0.0
  0
LINE
  8
0
  6
CONTINUOUS
 62
       7
  5
236
 10
-50.82298936
 20
13.54874047
 30
0.0
 11
-50.82298936
 21
21.29874047
 31
0.0
  0
LINE
  8
0
  6
CONTINUOUS
 62
       7
  5
237
 10
-54.82298936
 20
21.29874047
 30
0.0
 11
-54.82298936
 21
25.42874047
 31
0.0
  0
LINE
  8
0
  6
CONTINUOUS
 62
       7
  5
238
 10
-55.82298936
 20
10.42874047
 30
0.0
 11
-54.82298936
 21
9.42874047
 31
0.0
  0
LINE
  8
0
  6
CONTINUOUS
 62
       7
  5
239
 10
-55.82298936
 20
24.42874047
 30
0.0
 11
-54.82298936
 21
25.42874047
 31
0.0
  0
LINE
  8
0
  6
CONTINUOUS
 62
       7
  5
23A
 10
-55.82298936
 20
10.42874047
 30
0.0
 11
-55.82298936
 21
24.42874047
 31
0.0
  0
LINE
  8
0
  6
CONTINUOUS
 62
       7
  5
23B
 10
-57.82298936
 20
24.42874047
 30
0.0
 11
-57.82298936
 21
10.42874047
 31
0.0
  0
LINE
  8
0
  6
CONTINUOUS
 62
       7
  5
23C
 10
-79.82298936
 20
10.42874047
 30
0.0
 11
-73.32298936
 21
10.42874047
 31
0.0
  0
LINE
  8
0
  6
CONTINUOUS
 62
       7
  5
23D
 10
-79.82298936
 20
24.42874047
 30
0.0
 11
-73.32298936
 21
24.42874047
 31
0.0
  0
LINE
  8
0
  6
CONTINUOUS
 62
       7
  5
23E
 10
-72.47298936
 20
28.39874047
 30
0.0
 11
-73.32298936
 21
26.92874047
 31
0.0
  0
LINE
  8
0
  6
CONTINUOUS
 62
       7
  5
23F
 10
-72.47298936
 20
22.90874047
 30
0.0
 11
-66.16298936
 21
22.90874047
 31
0.0
  0
LINE
  8
0
  6
CONTINUOUS
 62
       7
  5
240
 10
-72.47298936
 20
11.93874047
 30
0.0
 11
-66.16298936
 21
11.93874047
 31
0.0
  0
LINE
  8
0
  6
CONTINUOUS
 62
       7
  5
241
 10
-49.82298936
 20
2.42874047
 30
0.0
 11
-48.56298936
 21
0.92874047
 31
0.0
  0
LINE
  8
0
  6
CONTINUOUS
 62
       7
  5
242
 10
-37.82298936
 20
33.92874047
 30
0.0
 11
-37.82298936
 21
0.92874047
 31
0.0
  0
LINE
  8
0
  6
CONTINUOUS
 62
       7
  5
243
 10
-49.82298936
 20
32.42874047
 30
0.0
 11
-48.56298936
 21
33.92874047
 31
0.0
  0
LINE
  8
0
  6
CONTINUOUS
 62
       7
  5
244
 10
-48.56298936
 20
0.92874047
 30
0.0
 11
-35.82298936
 21
0.92874047
 31
0.0
  0
LINE
  8
0
  6
CONTINUOUS
 62
       7
  5
245
 10
-72.47298936
 20
6.45874047
 30
0.0
 11
-66.16298936
 21
6.45874047
 31
0.0
  0
LINE
  8
0
  6
CONTINUOUS
 62
       7
  5
246
 10
-35.82298936
 20
38.22874047
 30
0.0
 11
-35.82298936
 21
-3.37125953
 31
0.0
  0
LINE
  8
0
  6
CONTINUOUS
 62
       7
  5
247
 10
-66.16298936
 20
28.39874047
 30
0.0
 11
-65.32298936
 21
26.92874047
 31
0.0
  0
LINE
  8
0
  6
CONTINUOUS
 62
       7
  5
248
 10
-72.47298936
 20
28.39874047
 30
0.0
 11
-66.16298936
 21
28.39874047
 31
0.0
  0
LINE
  8
0
  6
CONTINUOUS
 62
       7
  5
249
 10
-35.82298936
 20
-3.37125953
 30
0.0
 11
-20.82298936
 21
-3.37125953
 31
0.0
  0
LINE
  8
0
  6
CONTINUOUS
 62
       7
  5
24A
 10
-20.82298936
 20
38.22874047
 30
0.0
 11
-20.82298936
 21
-3.37125953
 31
0.0
  0
LINE
  8
0
  6
CONTINUOUS
 62
       7
  5
24B
 10
74.17701064
 20
38.22874047
 30
0.0
 11
74.17701064
 21
-3.37125953
 31
0.0
  0
LINE
  8
0
  6
CONTINUOUS
 62
       7
  5
24C
 10
73.17701064
 20
38.22874047
 30
0.0
 11
73.17701064
 21
-3.37125953
 31
0.0
  0
LINE
  8
0
  6
CONTINUOUS
 62
       7
  5
24D
 10
72.17701064
 20
38.22874047
 30
0.0
 11
72.17701064
 21
-3.37125953
 31
0.0
  0
LINE
  8
0
  6
CONTINUOUS
 62
       7
  5
24E
 10
71.17701064
 20
38.22874047
 30
0.0
 11
71.17701064
 21
-3.37125953
 31
0.0
  0
LINE
  8
0
  6
CONTINUOUS
 62
       7
  5
24F
 10
73.17701064
 20
38.22874047
 30
0.0
 11
72.17701064
 21
38.22874047
 31
0.0
  0
LINE
  8
0
  6
CONTINUOUS
 62
       7
  5
250
 10
72.17701064
 20
37.22874047
 30
0.0
 11
71.17701064
 21
38.22874047
 31
0.0
  0
LINE
  8
0
  6
CONTINUOUS
 62
       7
  5
251
 10
106.17701064
 20
38.22874047
 30
0.0
 11
74.17701064
 21
38.22874047
 31
0.0
  0
LINE
  8
0
  6
CONTINUOUS
 62
       7
  5
252
 10
74.17701064
 20
-2.37125953
 30
0.0
 11
73.17701064
 21
-3.37125953
 31
0.0
  0
LINE
  8
0
  6
CONTINUOUS
 62
       7
  5
253
 10
73.17701064
 20
-3.37125953
 30
0.0
 11
72.17701064
 21
-3.37125953
 31
0.0
  0
LINE
  8
0
  6
CONTINUOUS
 62
       7
  5
254
 10
72.17701064
 20
-2.37125953
 30
0.0
 11
71.17701064
 21
-3.37125953
 31
0.0
  0
LINE
  8
0
  6
CONTINUOUS
 62
       7
  5
255
 10
106.17701064
 20
-3.37125953
 30
0.0
 11
91.17701064
 21
-3.37125953
 31
0.0
  0
LINE
  8
0
  6
CONTINUOUS
 62
       2
  5
256
 10
-37.82298936
 20
32.92874047
 30
0.0
 11
-36.08298936
 21
33.92874047
 31
0.0
  0
LINE
  8
0
  6
CONTINUOUS
 62
       2
  5
257
 10
-37.82298936
 20
1.92874047
 30
0.0
 11
-36.08298936
 21
0.92874047
 31
0.0
  0
LINE
  8
0
  6
CONTINUOUS
 62
       7
  5
258
 10
-19.82298936
 20
38.22874047
 30
0.0
 11
-19.82298936
 21
-3.37125953
 31
0.0
  0
LINE
  8
0
  6
CONTINUOUS
 62
       7
  5
259
 10
-18.82298936
 20
38.22874047
 30
0.0
 11
-18.82298936
 21
-3.37125953
 31
0.0
  0
LINE
  8
0
  6
CONTINUOUS
 62
       7
  5
25A
 10
-17.82298936
 20
38.22874047
 30
0.0
 11
-17.82298936
 21
-3.37125953
 31
0.0
  0
LINE
  8
0
  6
CONTINUOUS
 62
       7
  5
25B
 10
-17.82298936
 20
38.22874047
 30
0.0
 11
71.17701064
 21
38.22874047
 31
0.0
  0
LINE
  8
0
  6
CONTINUOUS
 62
       7
  5
25C
 10
-17.82298936
 20
-3.37125953
 30
0.0
 11
71.17701064
 21
-3.37125953
 31
0.0
  0
LINE
  8
0
  6
CONTINUOUS
 62
       7
  5
25D
 10
-20.82298936
 20
37.22874047
 30
0.0
 11
-19.82298936
 21
38.22874047
 31
0.0
  0
LINE
  8
0
  6
CONTINUOUS
 62
       7
  5
25E
 10
-18.82298936
 20
37.22874047
 30
0.0
 11
-17.82298936
 21
38.22874047
 31
0.0
  0
LINE
  8
0
  6
CONTINUOUS
 62
       7
  5
25F
 10
-19.82298936
 20
38.22874047
 30
0.0
 11
-18.82298936
 21
38.22874047
 31
0.0
  0
LINE
  8
0
  6
CONTINUOUS
 62
       7
  5
260
 10
-20.82298936
 20
-2.37125953
 30
0.0
 11
-19.82298936
 21
-3.37125953
 31
0.0
  0
LINE
  8
0
  6
CONTINUOUS
 62
       7
  5
261
 10
74.17701064
 20
37.22874047
 30
0.0
 11
73.17701064
 21
38.22874047
 31
0.0
  0
LINE
  8
0
  6
CONTINUOUS
 62
       7
  5
262
 10
-48.56298936
 20
33.92874047
 30
0.0
 11
-35.82298936
 21
33.92874047
 31
0.0
  0
LINE
  8
0
  6
CONTINUOUS
 62
       7
  5
263
 10
-49.82298936
 20
32.42874047
 30
0.0
 11
-49.82298936
 21
2.42874047
 31
0.0
  0
LINE
  8
0
  6
CONTINUOUS
 62
       2
  5
264
 10
-49.40298936
 20
1.92874047
 30
0.0
 11
-37.82298936
 21
1.92874047
 31
0.0
  0
LINE
  8
0
  6
CONTINUOUS
 62
       2
  5
265
 10
-49.40298936
 20
32.92874047
 30
0.0
 11
-37.82298936
 21
32.92874047
 31
0.0
  0
LINE
  8
0
  6
CONTINUOUS
 62
       7
  5
266
 10
-66.16298936
 20
6.45874047
 30
0.0
 11
-65.32298936
 21
7.92874047
 31
0.0
  0
LINE
  8
0
  6
CONTINUOUS
 62
       7
  5
267
 10
-73.32298936
 20
11.93874047
 30
0.0
 11
-73.32298936
 21
26.92874047
 31
0.0
  0
LINE
  8
0
  6
CONTINUOUS
 62
       7
  5
268
 10
-73.32298936
 20
7.92874047
 30
0.0
 11
-73.32298936
 21
11.93874047
 31
0.0
  0
LINE
  8
0
  6
CONTINUOUS
 62
       7
  5
269
 10
-73.32298936
 20
7.92874047
 30
0.0
 11
-72.47298936
 21
6.45874047
 31
0.0
  0
LINE
  8
0
  6
CONTINUOUS
 62
       7
  5
26A
 10
-65.32298936
 20
7.92874047
 30
0.0
 11
-65.32298936
 21
26.92874047
 31
0.0
  0
LINE
  8
0
  6
CONTINUOUS
 62
       7
  5
26B
 10
-18.82298936
 20
-2.37125953
 30
0.0
 11
-17.82298936
 21
-3.37125953
 31
0.0
  0
LINE
  8
0
  6
CONTINUOUS
 62
       7
  5
26C
 10
-19.82298936
 20
-3.37125953
 30
0.0
 11
-18.82298936
 21
-3.37125953
 31
0.0
  0
LINE
  8
0
  6
CONTINUOUS
 62
       7
  5
26D
 10
-35.82298936
 20
38.22874047
 30
0.0
 11
-20.82298936
 21
38.22874047
 31
0.0
  0
LINE
  8
0
  6
CONTINUOUS
 62
       2
  5
26E
 10
104.22701064
 20
-67.57125953
 30
0.0
 11
106.47701064
 21
-67.57125953
 31
0.0
  0
LINE
  8
0
  6
CONTINUOUS
 62
       2
  5
26F
 10
76.67701064
 20
-67.57125953
 30
0.0
 11
77.84701064
 21
-67.57125953
 31
0.0
  0
LINE
  8
0
  6
CONTINUOUS
 62
       2
  5
270
 10
81.59701064
 20
-67.57125953
 30
0.0
 11
103.22701064
 21
-67.57125953
 31
0.0
  0
LINE
  8
0
  6
CONTINUOUS
 62
       2
  5
271
 10
107.47701064
 20
-67.57125953
 30
0.0
 11
121.67701064
 21
-67.57125953
 31
0.0
  0
LINE
  8
0
  6
CONTINUOUS
 62
       2
  5
272
 10
78.84701064
 20
-67.57125953
 30
0.0
 11
80.59701064
 21
-67.57125953
 31
0.0
  0
LINE
  8
0
  6
CONTINUOUS
 62
       2
  5
273
 10
99.17701064
 20
-65.32125953
 30
0.0
 11
99.17701064
 21
-99.32125953
 31
0.0
  0
ARC
  8
0
  6
CONTINUOUS
 62
       2
  5
274
 10
76.67700912
 20
-72.571258
 30
0.0
 40
4.99999847
 50
89.99998251
 51
180.00001749
  0
ARC
  8
0
  6
CONTINUOUS
 62
       2
  5
275
 10
121.67700912
 20
-72.57126106
 30
0.0
 40
5.00000153
 50
0.00001749
 51
89.99998251
  0
LINE
  8
0
  6
CONTINUOUS
 62
       7
  5
276
 10
282.09985352
 20
195.5
 30
0.0
 11
282.09985352
 21
-195.0
 31
0.0
  0
LINE
  8
0
  6
CONTINUOUS
 62
       7
  5
277
 10
-281.25
 20
195.5
 30
0.0
 11
282.09985352
 21
195.5
 31
0.0
  0
LINE
  8
0
  6
CONTINUOUS
 62
       7
  5
278
 10
-281.25
 20
195.5
 30
0.0
 11
-281.25
 21
-195.0
 31
0.0
  0
LINE
  8
0
  6
CONTINUOUS
 62
       7
  5
279
 10
-281.25
 20
-195.0
 30
0.0
 11
282.09985352
 21
-195.0
 31
0.0
  0
TEXT
  8
0
  6
CONTINUOUS
 62
       7
  5
27A
 10
-268.26063836
 20
177.3499999
 30
0.0
 40
6.30000019
  1
MODEL:DV40*50-11T
 41
1.08510638
  7
MX_NOTE_STANDARD
 11
-268.26063836
 21
180.5
 31
0.0
 73
       2
  0
ENDSEC
  0
EOF
