  0
SECTION
  2
HEADER
  9
$ACADVER
  1
AC1012
  9
$DWGCODEPAGE
  3
dos932
  9
$INSBASE
 10
0.0
 20
0.0
 30
0.0
  9
$EXTMIN
 10
-281.25
 20
-195.0
 30
0.0
  9
$EXTMAX
 10
285.6319057062413
 20
195.5
 30
0.0
  9
$LIMMIN
 10
-281.25
 20
-195.0
  9
$LIMMAX
 10
285.6319057062413
 20
195.5
  9
$ORTHOMODE
 70
               0
  9
$REGENMODE
 70
               1
  9
$FILLMODE
 70
               1
  9
$QTEXTMODE
 70
               0
  9
$MIRRTEXT
 70
               1
  9
$DRAGMODE
 70
               2
  9
$LTSCALE
 40
1.0
  9
$OSMODE
 70
               0
  9
$ATTMODE
 70
               1
  9
$TEXTSIZE
 40
3.2000000476837158
  9
$TRACEWID
 40
0.05
  9
$TEXTSTYLE
  7
MX_NOTE_STANDARD
  9
$CLAYER
  8
0
  9
$CELTYPE
  6
CONTINUOUS
  9
$CECOLOR
 62
             256
  9
$CELTSCALE
 40
1.0
  9
$DELOBJ
 70
               1
  9
$DISPSILH
 70
               0
  9
$DIMSCALE
 40
1.0
  9
$DIMASZ
 40
2.5
  9
$DIMEXO
 40
1.5
  9
$DIMDLI
 40
3.75
  9
$DIMRND
 40
0.0
  9
$DIMDLE
 40
0.0
  9
$DIMEXE
 40
1.5
  9
$DIMTP
 40
0.0
  9
$DIMTM
 40
0.0
  9
$DIMTXT
 40
3.2000000476837158
  9
$DIMCEN
 40
2.5
  9
$DIMTSZ
 40
0.0
  9
$DIMTOL
 70
               0
  9
$DIMLIM
 70
               0
  9
$DIMTIH
 70
               0
  9
$DIMTOH
 70
               0
  9
$DIMSE1
 70
               0
  9
$DIMSE2
 70
               0
  9
$DIMTAD
 70
               1
  9
$DIMZIN
 70
               8
  9
$DIMBLK
  1

  9
$DIMASO
 70
               1
  9
$DIMSHO
 70
               1
  9
$DIMPOST
  1

  9
$DIMAPOST
  1

  9
$DIMALT
 70
               0
  9
$DIMALTD
 70
               4
  9
$DIMALTF
 40
0.03937007874016
  9
$DIMLFAC
 40
1.0
  9
$DIMTOFL
 70
               1
  9
$DIMTVP
 40
0.0
  9
$DIMTIX
 70
               0
  9
$DIMSOXD
 70
               0
  9
$DIMSAH
 70
               0
  9
$DIMBLK1
  1

  9
$DIMBLK2
  1

  9
$DIMSTYLE
  2
MXDIMSTYLE
  9
$DIMCLRD
 70
               0
  9
$DIMCLRE
 70
               0
  9
$DIMCLRT
 70
               0
  9
$DIMTFAC
 40
1.0
  9
$DIMGAP
 40
1.0
  9
$DIMJUST
 70
               0
  9
$DIMSD1
 70
               0
  9
$DIMSD2
 70
               0
  9
$DIMTOLJ
 70
               1
  9
$DIMTZIN
 70
               0
  9
$DIMALTZ
 70
               0
  9
$DIMALTTZ
 70
               0
  9
$DIMFIT
 70
               3
  9
$DIMUPT
 70
               1
  9
$DIMUNIT
 70
               2
  9
$DIMDEC
 70
               4
  9
$DIMTDEC
 70
               4
  9
$DIMALTU
 70
               2
  9
$DIMALTTD
 70
               4
  9
$DIMTXSTY
  7
MX_NOTE_STANDARD
  9
$DIMAUNIT
 70
               0
  9
$LUNITS
 70
               2
  9
$LUPREC
 70
               4
  9
$SKETCHINC
 40
0.1
  9
$FILLETRAD
 40
0.0
  9
$AUNITS
 70
               0
  9
$AUPREC
 70
               0
  9
$MENU
  1
acad
  9
$ELEVATION
 40
0.0
  9
$PELEVATION
 40
0.0
  9
$THICKNESS
 40
0.0
  9
$LIMCHECK
 70
               0
  9
$BLIPMODE
 70
               1
  9
$CHAMFERA
 40
0.0
  9
$CHAMFERB
 40
0.0
  9
$CHAMFERC
 40
0.0
  9
$CHAMFERD
 40
0.0
  9
$SKPOLY
 70
               0
  9
$TDCREATE
 40
2453378.356319444
  9
$TDUPDATE
 40
2453378.356319444
  9
$TDINDWG
 40
0.0000000000
  9
$TDUSRTIMER
 40
0.0000000000
  9
$USRTIMER
 70
               1
  9
$ANGBASE
 50
0.0
  9
$ANGDIR
 70
               0
  9
$PDMODE
 70
               0
  9
$PDSIZE
 40
0.0
  9
$PLINEWID
 40
0.0
  9
$COORDS
 70
               1
  9
$SPLFRAME
 70
               0
  9
$SPLINETYPE
 70
               6
  9
$SPLINESEGS
 70
               8
  9
$ATTDIA
 70
               0
  9
$ATTREQ
 70
               1
  9
$HANDLING
 70
               1
  9
$HANDSEED
  5
42A
  9
$SURFTAB1
 70
               6
  9
$SURFTAB2
 70
               6
  9
$SURFTYPE
 70
               6
  9
$SURFU
 70
               6
  9
$SURFV
 70
               6
  9
$UCSNAME
  2

  9
$UCSORG
 10
0.0
 20
0.0
 30
0.0
  9
$UCSXDIR
 10
1.0
 20
0.0
 30
0.0
  9
$UCSYDIR
 10
0.0
 20
1.0
 30
0.0
  9
$PUCSNAME
  2

  9
$PUCSORG
 10
0.0
 20
0.0
 30
0.0
  9
$PUCSXDIR
 10
1.0
 20
0.0
 30
0.0
  9
$PUCSYDIR
 10
0.0
 20
1.0
 30
0.0
  9
$USERI1
 70
               0
  9
$USERI2
 70
               0
  9
$USERI3
 70
               0
  9
$USERI4
 70
               0
  9
$USERI5
 70
               0
  9
$USERR1
 40
0.0
  9
$USERR2
 40
0.0
  9
$USERR3
 40
0.0
  9
$USERR4
 40
0.0
  9
$USERR5
 40
0.0
  9
$WORLDVIEW
 70
               1
  9
$SHADEDGE
 70
               3
  9
$SHADEDIF
 70
              70
  9
$TILEMODE
 70
               1
  9
$MAXACTVP
 70
              16
  9
$PINSBASE
 10
0.0
 20
0.0
 30
0.0
  9
$PLIMCHECK
 70
               0
  9
$PEXTMIN
 10
1.0000000000000000E+20
 20
1.0000000000000000E+20
 30
1.0000000000000000E+20
  9
$PEXTMAX
 10
-1.0000000000000000E+20
 20
-1.0000000000000000E+20
 30
-1.0000000000000000E+20
  9
$PLIMMIN
 10
0.0
 20
0.0
  9
$PLIMMAX
 10
12.0
 20
9.0
  9
$UNITMODE
 70
               0
  9
$VISRETAIN
 70
               0
  9
$PLINEGEN
 70
               1
  9
$PSLTSCALE
 70
               0
  9
$TREEDEPTH
 70
            3020
  9
$PICKSTYLE
 70
               1
  9
$CMLSTYLE
  2
Standard
  9
$CMLJUST
 70
               0
  9
$CMLSCALE
 40
1.0
  9
$SAVEIMAGES
 70
               0
  0
ENDSEC
  0
SECTION
  2
CLASSES
  0
CLASS
  1
LWPOLYLINE
  2
AcDbPolyline
  3
"AutoCAD"
 90
        0
280
               0
281
               1
  0
CLASS
  1
IMAGE
  2
AcDbRasterImage
  3
ISM
 90
      127
280
               0
281
               1
  0
CLASS
  1
OLE2FRAME
  2
AcDbOle2Frame
  3
""
 90
        0
280
               0
281
               1
  0
CLASS
  1
HATCH
  2
AcDbHatch
  3
"ACAD_SEDONA"
 90
        0
280
               0
281
               1
  0
CLASS
  1
DICTIONARYVAR
  2
AcDbDictionaryVar
  3
"AutoCAD"
 90
        0
280
               0
281
               0
  0
CLASS
  1
RASTERVARIABLES
  2
AcDbRasterVariables
  3
ISM
 90
        0
280
               0
281
               0
  0
CLASS
  1
IMAGEDEF
  2
AcDbRasterImageDef
  3
ISM
 90
        0
280
               0
281
               0
  0
CLASS
  1
IMAGEDEF_REACTOR
  2
AcDbRasterImageDefReactor
  3
ISM
 90
        1
280
               0
281
               0
  0
CLASS
  1
IDBUFFER
  2
AcDbIdBuffer
  3
"Acad"
 90
        0
280
               0
281
               0
  0
CLASS
  1
SPATIAL_FILTER
  2
AcDbSpatialFilter
  3
"Acad"
 90
        0
280
               0
281
               0
  0
CLASS
  1
XRECORD
  2
AcDbXrecord
  3
"<Built In>"
 90
        0
280
               0
281
               0
  0
CLASS
  1
SORTENTSTABLE
  2
AcDbSortentsTable
  3
"AutoCAD"
 90
        0
280
               0
281
               0
  0
CLASS
  1
LAYER_INDEX
  2
AcDbLayerIndex
  3
"Acad"
 90
        0
280
               0
281
               0
  0
CLASS
  1
SPATIAL_INDEX
  2
AcDbSpatialIndex
  3
"Acad"
 90
        0
280
               0
281
               0
  0
CLASS
  1
OBJECT_PTR
  2
CAseDLPNTableRecord
  3
"ASE-LPNTableRecord"
 90
        1
280
               0
281
               0
  0
CLASS
  1
LAYOUT
  2
AcDbLayout
  3
"AutoCAD 2000"
 90
        1
280
               0
281
               0
  0
CLASS
  1
PLOTSETTINGS
  2
AcDbPlotSettings
  3
"AutoCAD 2000"
 90
        1
280
               0
281
               0
  0
CLASS
  1
ACDBDICTIONARYWDFLT
  2
AcDbDictionaryWithDefault
  3
"AutoCAD 2000"
 90
        1
280
               0
281
               0
  0
CLASS
  1
ACDBPLACEHOLDER
  2
AcDbPlaceHolder
  3
"AutoCAD 2000"
 90
        1
280
               0
281
               0
  0
ENDSEC
  0
SECTION
  2
TABLES
  0
TABLE
  2
VPORT
  5
7
100
AcDbSymbolTable
 70
               1
  0
VPORT
  5
15
100
AcDbSymbolTableRecord
100
AcDbViewportTableRecord
  2
*ACTIVE
 70
               0
 10
0.0
 20
0.0
 11
1.0
 21
1.0
 12
2.1909528531206206
 22
0.25
 13
0.0
 23
0.0
 14
1.0
 24
1.0
 15
0.0
 25
0.0
 16
0.0
 26
0.0
 36
1.0
 17
0.0
 27
0.0
 37
0.0
 40
394.40500000000003
 41
1.7320508075688772
 42
50.0
 43
0.0
 44
0.0
 50
0.0
 51
0.0
 71
               0
 72
             100
 73
               1
 74
               1
 75
               0
 76
               0
 77
               0
 78
               0
  0
ENDTAB
  0
TABLE
  2
LTYPE
  5
4
100
AcDbSymbolTable
 70
               5
  0
LTYPE
  5
11
100
AcDbSymbolTableRecord
100
AcDbLinetypeTableRecord
  2
BYBLOCK
 70
              64
  3

 72
              65
 73
               0
 40
0.0
  0
LTYPE
  5
12
100
AcDbSymbolTableRecord
100
AcDbLinetypeTableRecord
  2
BYLAYER
 70
              64
  3

 72
              65
 73
               0
 40
0.0
  0
LTYPE
  5
13
100
AcDbSymbolTableRecord
100
AcDbLinetypeTableRecord
  2
CONTINUOUS
 70
              64
  3
Solid line
 72
              65
 73
               0
 40
0.0
  0
LTYPE
  5
28
100
AcDbSymbolTableRecord
100
AcDbLinetypeTableRecord
  2
PHANTOM
 70
              64
  3
Phantom ______  __  __  ______  __  __  ______
 72
              65
 73
               6
 40
30.0
 49
20.0
 74
               0
 49
-2.0
 74
               0
 49
2.0
 74
               0
 49
-2.0
 74
               0
 49
2.0
 74
               0
 49
-2.0
 74
               0
  0
LTYPE
  5
35
100
AcDbSymbolTableRecord
100
AcDbLinetypeTableRecord
  2
CENTER
 70
              64
  3
Center ____ _ ____ _ ____ _ ____ _ ____ _ ____
 72
              65
 73
               4
 40
26.0
 49
20.0
 74
               0
 49
-2.0
 74
               0
 49
2.0
 74
               0
 49
-2.0
 74
               0
  0
ENDTAB
  0
TABLE
  2
LAYER
  5
2
100
AcDbSymbolTable
 70
               2
  0
LAYER
  5
14
100
AcDbSymbolTableRecord
100
AcDbLayerTableRecord
  2
0
 70
               0
 62
               7
  6
CONTINUOUS
  0
LAYER
  5
1D
100
AcDbSymbolTableRecord
100
AcDbLayerTableRecord
  2
DEFPOINTS
 70
               0
 62
               7
  6
CONTINUOUS
  0
ENDTAB
  0
TABLE
  2
STYLE
  5
3
100
AcDbSymbolTable
 70
               1
  0
STYLE
  5
17
100
AcDbSymbolTableRecord
100
AcDbTextStyleTableRecord
  2
MX_NOTE_STANDARD
 70
               0
 40
0.0
 41
1.0
 50
0.0
 71
               0
 42
3.2000000476837158
  3
txt.shx
  4
extfont.shx
  0
ENDTAB
  0
TABLE
  2
VIEW
  5
5
100
AcDbSymbolTable
 70
               0
  0
ENDTAB
  0
TABLE
  2
UCS
  5
6
100
AcDbSymbolTable
 70
               0
  0
ENDTAB
  0
TABLE
  2
APPID
  5
8
100
AcDbSymbolTable
 70
               1
  0
APPID
  5
16
100
AcDbSymbolTableRecord
100
AcDbRegAppTableRecord
  2
ACAD
 70
               0
  0
ENDTAB
  0
TABLE
  2
DIMSTYLE
  5
9
100
AcDbSymbolTable
 70
               1
  0
DIMSTYLE
105
18
100
AcDbSymbolTableRecord
100
AcDbDimStyleTableRecord
  2
MXDIMSTYLE
 70
               0
  3

  4

  5

  6

  7

 40
1.0
 41
2.5
 42
1.5
 43
3.75
 44
1.5
 45
0.0
 46
0.0
 47
0.0
 48
0.0
 71
               0
 72
               0
 73
               0
 74
               0
 75
               0
 76
               0
 77
               1
 78
               8
140
3.2000000476837158
141
2.5
142
0.0
143
0.03937007874016
144
1.0
145
0.0
146
1.0
147
1.0
170
               0
171
               4
172
               1
173
               0
174
               0
175
               0
176
               0
177
               0
178
               0
270
               2
271
               4
272
               4
273
               2
274
               4
275
               0
280
               0
281
               0
282
               0
283
               1
284
               0
285
               0
286
               0
287
               3
288
               1
340
17
  0
ENDTAB
  0
TABLE
  2
BLOCK_RECORD
  5
1
100
AcDbSymbolTable
 70
              10
  0
BLOCK_RECORD
  5
A
100
AcDbSymbolTableRecord
100
AcDbBlockTableRecord
  2
*MODEL_SPACE
  0
BLOCK_RECORD
  5
B
100
AcDbSymbolTableRecord
100
AcDbBlockTableRecord
  2
*PAPER_SPACE
  0
BLOCK_RECORD
  5
1E
100
AcDbSymbolTableRecord
100
AcDbBlockTableRecord
  2
EA10A5-1
  0
BLOCK_RECORD
  5
1F
100
AcDbSymbolTableRecord
100
AcDbBlockTableRecord
  2
EA10A5-2
  0
BLOCK_RECORD
  5
20
100
AcDbSymbolTableRecord
100
AcDbBlockTableRecord
  2
EA10A5-3
  0
BLOCK_RECORD
  5
21
100
AcDbSymbolTableRecord
100
AcDbBlockTableRecord
  2
EA10A5-4
  0
BLOCK_RECORD
  5
22
100
AcDbSymbolTableRecord
100
AcDbBlockTableRecord
  2
EA10A5-5
  0
BLOCK_RECORD
  5
23
100
AcDbSymbolTableRecord
100
AcDbBlockTableRecord
  2
EA10A5-6
  0
BLOCK_RECORD
  5
24
100
AcDbSymbolTableRecord
100
AcDbBlockTableRecord
  2
EA10A5-7
  0
BLOCK_RECORD
  5
25
100
AcDbSymbolTableRecord
100
AcDbBlockTableRecord
  2
EA10A5-8
  0
BLOCK_RECORD
  5
26
100
AcDbSymbolTableRecord
100
AcDbBlockTableRecord
  2
EA10A5-9
  0
BLOCK_RECORD
  5
41D
100
AcDbSymbolTableRecord
100
AcDbBlockTableRecord
  2
_OPEN30
  0
ENDTAB
  0
ENDSEC
  0
SECTION
  2
BLOCKS
  0
BLOCK
  5
D
100
AcDbEntity
  8
0
100
AcDbBlockBegin
  2
*MODEL_SPACE
 70
               0
 10
0.0
 20
0.0
 30
0.0
  3
*MODEL_SPACE
  1

  0
ENDBLK
  5
E
100
AcDbEntity
  8
0
100
AcDbBlockEnd
  0
BLOCK
  5
F
100
AcDbEntity
 67
               1
  8
0
100
AcDbBlockBegin
  2
*PAPER_SPACE
 70
               0
 10
0.0
 20
0.0
 30
0.0
  3
*PAPER_SPACE
  1

  0
ENDBLK
  5
10
100
AcDbEntity
 67
               1
  8
0
100
AcDbBlockEnd
  0
BLOCK
  5
27
100
AcDbEntity
  8
0
100
AcDbBlockBegin
  2
EA10A5-1
 70
               0
 10
0.0
 20
0.0
 30
0.0
  3
EA10A5-1
  1

  0
LINE
  5
29
100
AcDbEntity
  8
0
  6
PHANTOM
 62
             200
100
AcDbLine
 10
16.200000000000017
 20
-18.399999999999999
 30
0.0
 11
16.200000000000017
 21
-26.399999999999999
 31
0.0
  0
LINE
  5
2A
100
AcDbEntity
  8
0
  6
PHANTOM
 62
             200
100
AcDbLine
 10
14.200000000000017
 20
-18.399999999999999
 30
0.0
 11
14.200000000000017
 21
-26.399999999999999
 31
0.0
  0
LINE
  5
2B
100
AcDbEntity
  8
0
  6
PHANTOM
 62
             200
100
AcDbLine
 10
16.700000000000017
 20
-18.899999999999999
 30
0.0
 11
16.700000000000017
 21
-25.899999999999999
 31
0.0
  0
ARC
  5
2C
100
AcDbEntity
  8
0
  6
PHANTOM
 62
             200
100
AcDbCircle
 10
16.200000000000017
 20
-25.899999999999999
 30
0.0
 40
0.5
100
AcDbArc
 50
269.99999999999937
 51
0.0
  0
ARC
  5
2D
100
AcDbEntity
  8
0
  6
PHANTOM
 62
             200
100
AcDbCircle
 10
16.200000000000017
 20
-18.899999999999999
 30
0.0
 40
0.5
100
AcDbArc
 50
0.0
 51
89.999999999999815
  0
ARC
  5
2E
100
AcDbEntity
  8
0
  6
PHANTOM
 62
             200
100
AcDbCircle
 10
16.200000000000017
 20
-1.2999999999999972
 30
0.0
 40
0.5
100
AcDbArc
 50
0.0
 51
89.999999999999815
  0
ARC
  5
2F
100
AcDbEntity
  8
0
  6
PHANTOM
 62
             200
100
AcDbCircle
 10
16.200000000000017
 20
-8.2999999999999972
 30
0.0
 40
0.5
100
AcDbArc
 50
269.99999999999937
 51
0.0
  0
LINE
  5
30
100
AcDbEntity
  8
0
  6
PHANTOM
 62
             200
100
AcDbLine
 10
16.700000000000017
 20
-1.2999999999999972
 30
0.0
 11
16.700000000000017
 21
-8.2999999999999972
 31
0.0
  0
LINE
  5
31
100
AcDbEntity
  8
0
  6
PHANTOM
 62
             200
100
AcDbLine
 10
14.200000000000017
 20
-0.7999999999999972
 30
0.0
 11
14.200000000000017
 21
-8.7999999999999972
 31
0.0
  0
LINE
  5
32
100
AcDbEntity
  8
0
  6
PHANTOM
 62
             200
100
AcDbLine
 10
16.200000000000017
 20
-0.7999999999999972
 30
0.0
 11
16.200000000000017
 21
-8.7999999999999972
 31
0.0
  0
LINE
  5
33
100
AcDbEntity
  8
0
  6
PHANTOM
 62
             200
100
AcDbLine
 10
2.6999999999999886
 20
-8.7999999999999972
 30
0.0
 11
16.200000000000017
 21
-8.7999999999999972
 31
0.0
  0
LINE
  5
34
100
AcDbEntity
  8
0
  6
PHANTOM
 62
             200
100
AcDbLine
 10
2.6999999999999886
 20
-0.7999999999999972
 30
0.0
 11
16.200000000000017
 21
-0.7999999999999972
 31
0.0
  0
LINE
  5
36
100
AcDbEntity
  8
0
  6
CENTER
 62
               2
100
AcDbLine
 10
0.2162062056379739
 20
-4.7999999999999972
 30
0.0
 11
17.830000000000013
 21
-4.7999999999999972
 31
0.0
  0
LINE
  5
37
100
AcDbEntity
  8
0
  6
PHANTOM
 62
             200
100
AcDbLine
 10
2.6999999999999886
 20
-26.399999999999999
 30
0.0
 11
16.200000000000017
 21
-26.399999999999999
 31
0.0
  0
LINE
  5
38
100
AcDbEntity
  8
0
  6
PHANTOM
 62
             200
100
AcDbLine
 10
2.6999999999999886
 20
-18.399999999999999
 30
0.0
 11
16.200000000000017
 21
-18.399999999999999
 31
0.0
  0
LINE
  5
39
100
AcDbEntity
  8
0
  6
CENTER
 62
               2
100
AcDbLine
 10
0.2162062056379739
 20
-22.399999999999999
 30
0.0
 11
17.830000000000013
 21
-22.399999999999999
 31
0.0
  0
LINE
  5
3A
100
AcDbEntity
  8
0
  6
CONTINUOUS
 62
               7
100
AcDbLine
 10
-14.300000000000011
 20
2.7000000000000028
 30
0.0
 11
-13.300000000000011
 21
2.7000000000000028
 31
0.0
  0
LINE
  5
3B
100
AcDbEntity
  8
0
  6
CONTINUOUS
 62
               7
100
AcDbLine
 10
-14.300000000000011
 20
-32.299999999999997
 30
0.0
 11
-14.300000000000011
 21
2.7000000000000028
 31
0.0
  0
LINE
  5
3C
100
AcDbEntity
  8
0
  6
CONTINUOUS
 62
               7
100
AcDbLine
 10
-4.6000000000000227
 20
-17.999001430615188
 30
0.0
 11
-3.3000000000000114
 21
-17.999001430615188
 31
0.0
  0
LINE
  5
3D
100
AcDbEntity
  8
0
  6
CONTINUOUS
 62
               7
100
AcDbLine
 10
-4.6000000000000227
 20
-21.199001430615176
 30
0.0
 11
-3.3000000000000114
 21
-21.199001430615176
 31
0.0
  0
LINE
  5
3E
100
AcDbEntity
  8
0
  6
CONTINUOUS
 62
               7
100
AcDbLine
 10
-12.0
 20
-8.3990014306152005
 30
0.0
 11
-13.300000000000011
 21
-8.3990014306152005
 31
0.0
  0
LINE
  5
3F
100
AcDbEntity
  8
0
  6
CONTINUOUS
 62
               7
100
AcDbLine
 10
-12.0
 20
-11.599001430615218
 30
0.0
 11
-13.300000000000011
 21
-11.599001430615218
 31
0.0
  0
ARC
  5
40
100
AcDbEntity
  8
0
  6
CONTINUOUS
 62
               7
100
AcDbCircle
 10
-4.6000000000000227
 20
-19.599001430615182
 30
0.0
 40
1.6000000000000001
100
AcDbArc
 50
89.999999999999815
 51
269.99999999999937
  0
ARC
  5
41
100
AcDbEntity
  8
0
  6
CONTINUOUS
 62
               7
100
AcDbCircle
 10
-12.0
 20
-9.9990014306152233
 30
0.0
 40
1.6000000000000001
100
AcDbArc
 50
269.99999999999937
 51
89.999999999999801
  0
LINE
  5
42
100
AcDbEntity
  8
0
  6
CENTER
 62
               2
100
AcDbLine
 10
-8.3000000000000114
 20
-31.354793953993259
 30
0.0
 11
-8.3000000000000114
 21
28.698998569384841
 31
0.0
  0
LINE
  5
43
100
AcDbEntity
  8
0
  6
CONTINUOUS
 62
               7
100
AcDbLine
 10
2.6999999999999886
 20
2.7000000000000028
 30
0.0
 11
2.6999999999999886
 21
-32.299999999999997
 31
0.0
  0
LINE
  5
44
100
AcDbEntity
  8
0
  6
CENTER
 62
               2
100
AcDbLine
 10
0.0
 20
2.5
 30
0.0
 11
0.0
 21
-2.5
 31
0.0
  0
LINE
  5
45
100
AcDbEntity
  8
0
  6
CENTER
 62
               2
100
AcDbLine
 10
0.0
 20
-27.099999999999994
 30
0.0
 11
0.0
 21
-32.099999999999994
 31
0.0
  0
CIRCLE
  5
46
100
AcDbEntity
  8
0
  6
CONTINUOUS
 62
               7
100
AcDbCircle
 10
0.0000183105468636
 20
-29.599993896484371
 30
0.0
 40
1.5499992370605469
  0
CIRCLE
  5
47
100
AcDbEntity
  8
0
  6
CONTINUOUS
 62
               7
100
AcDbCircle
 10
0.0000183105468636
 20
-0.0000030517578153
 30
0.0
 40
1.5499992370605469
  0
LINE
  5
48
100
AcDbEntity
  8
0
  6
CENTER
 62
               2
100
AcDbLine
 10
-2.5
 20
-29.599999999999994
 30
0.0
 11
2.5
 21
-29.599999999999994
 31
0.0
  0
LINE
  5
49
100
AcDbEntity
  8
0
  6
CENTER
 62
               2
100
AcDbLine
 10
-2.5
 20
0.0
 30
0.0
 11
2.5
 21
0.0
 31
0.0
  0
LINE
  5
4A
100
AcDbEntity
  8
0
  6
CONTINUOUS
 62
               7
100
AcDbLine
 10
-3.3000000000000114
 20
2.7000000000000028
 30
0.0
 11
2.6999999999999886
 21
2.7000000000000028
 31
0.0
  0
LINE
  5
4B
100
AcDbEntity
  8
0
  6
CONTINUOUS
 62
               7
100
AcDbLine
 10
-14.300000000000011
 20
-32.299999999999997
 30
0.0
 11
2.6999999999999886
 21
-32.299999999999997
 31
0.0
  0
ARC
  5
4C
100
AcDbEntity
  8
0
  6
CONTINUOUS
 62
               7
100
AcDbCircle
 10
-12.709446031890934
 20
-27.630750161962133
 30
0.0
 40
0.6105564724372722
100
AcDbArc
 50
179.83589550320582
 51
253.77907243150949
  0
LINE
  5
4D
100
AcDbEntity
  8
0
  6
CONTINUOUS
 62
               7
100
AcDbLine
 10
-3.5
 20
-28.899001430615179
 30
0.0
 11
-13.100000000000023
 21
-28.899001430615179
 31
0.0
  0
LINE
  5
4E
100
AcDbEntity
  8
0
  6
CONTINUOUS
 62
               7
100
AcDbLine
 10
-13.319999999999993
 20
-27.099001430615168
 30
0.0
 11
-9.8000000000000114
 21
-27.099001430615168
 31
0.0
  0
ARC
  5
4F
100
AcDbEntity
  8
0
  6
CONTINUOUS
 62
               7
100
AcDbCircle
 10
-13.000895136858901
 20
-26.799896567474057
 30
0.0
 40
0.2991062025847394
100
AcDbArc
 50
179.82853033398985
 51
270.17146966600922
  0
ARC
  5
50
100
AcDbEntity
  8
0
  6
CONTINUOUS
 62
               7
100
AcDbCircle
 10
-13.100000000000023
 20
-28.699001430615191
 30
0.0
 40
0.2
100
AcDbArc
 50
179.99999999999963
 51
269.99999999999937
  0
LINE
  5
51
100
AcDbEntity
  8
0
  6
CONTINUOUS
 62
               7
100
AcDbLine
 10
-9.8000000000000114
 20
-28.899001430615179
 30
0.0
 11
-9.8000000000000114
 21
-27.099001430615168
 31
0.0
  0
ARC
  5
52
100
AcDbEntity
  8
0
  6
CONTINUOUS
 62
               7
100
AcDbCircle
 10
-11.600000000000023
 20
-23.811580193881206
 30
0.0
 40
4.5876068132596712
100
AcDbArc
 50
253.79871892415684
 51
286.20128107584191
  0
ARC
  5
53
100
AcDbEntity
  8
0
  6
CONTINUOUS
 62
               7
100
AcDbCircle
 10
-10.491771995833915
 20
-27.62983871264418
 30
0.0
 40
0.6117725687931934
100
AcDbArc
 50
286.30661609184898
 51
0.0784159734340139
  0
LINE
  5
54
100
AcDbEntity
  8
0
  6
CONTINUOUS
 62
               7
100
AcDbLine
 10
-9.8799999999999955
 20
-27.629001430615141
 30
0.0
 11
-9.8799999999999955
 21
-27.099001430615168
 31
0.0
  0
LINE
  5
55
100
AcDbEntity
  8
0
  6
CONTINUOUS
 62
               7
100
AcDbLine
 10
-13.300000000000011
 20
-28.699001430615191
 30
0.0
 11
-13.300000000000011
 21
-27.785750861269229
 31
0.0
  0
LINE
  5
56
100
AcDbEntity
  8
0
  6
CONTINUOUS
 62
               7
100
AcDbLine
 10
-13.319999999999993
 20
-27.629001430615141
 30
0.0
 11
-13.319999999999993
 21
-27.099001430615168
 31
0.0
  0
ARC
  5
57
100
AcDbEntity
  8
0
  6
CONTINUOUS
 62
               7
100
AcDbCircle
 10
-3.5
 20
-28.699001430615191
 30
0.0
 40
0.2
100
AcDbArc
 50
269.99999999999937
 51
0.0
  0
LINE
  5
58
100
AcDbEntity
  8
0
  6
CONTINUOUS
 62
               7
100
AcDbLine
 10
-3.3000000000000114
 20
-23.899001430615179
 30
0.0
 11
-13.300000000000011
 21
-23.899001430615179
 31
0.0
  0
LINE
  5
59
100
AcDbEntity
  8
0
  6
CONTINUOUS
 62
               7
100
AcDbLine
 10
-3.3000000000000114
 20
-28.699001430615191
 30
0.0
 11
-3.3000000000000114
 21
-20.346334338585123
 31
0.0
  0
LINE
  5
5A
100
AcDbEntity
  8
0
  6
CONTINUOUS
 62
               7
100
AcDbLine
 10
-13.300000000000011
 20
-27.099001430615168
 30
0.0
 11
-13.300000000000011
 21
-10.747332907969948
 31
0.0
  0
ARC
  5
5B
100
AcDbEntity
  8
0
  6
CONTINUOUS
 62
               4
100
AcDbCircle
 10
-4.0311974244897328
 20
8.0001873222226294
 30
0.0
 40
0.5011988548874781
100
AcDbArc
 50
270.1368866551544
 51
359.86311334484418
  0
ARC
  5
5C
100
AcDbEntity
  8
0
  6
CONTINUOUS
 62
               4
100
AcDbCircle
 10
-12.56880257551029
 20
8.0001873222226294
 30
0.0
 40
0.5011988548874781
100
AcDbArc
 50
180.13688665515463
 51
269.86311334484435
  0
LINE
  5
5D
100
AcDbEntity
  8
0
  6
CONTINUOUS
 62
               4
100
AcDbLine
 10
-12.569999999999993
 20
7.4989898977329261
 30
0.0
 11
-4.0300000000000296
 21
7.4989898977329261
 31
0.0
  0
LINE
  5
5E
100
AcDbEntity
  8
0
  6
CONTINUOUS
 62
               4
100
AcDbLine
 10
-12.800000000000011
 20
24.80299856938484
 30
0.0
 11
-11.050000000000011
 21
24.80299856938484
 31
0.0
  0
ARC
  5
5F
100
AcDbEntity
  8
0
  6
CONTINUOUS
 62
               4
100
AcDbCircle
 10
-12.569999084445726
 20
24.302997653830573
 30
0.0
 40
0.5000009155550945
100
AcDbArc
 50
90.000104914596918
 51
179.99989508540253
  0
ARC
  5
60
100
AcDbEntity
  8
0
  6
CONTINUOUS
 62
               4
100
AcDbCircle
 10
-12.799989318826704
 20
24.302987888211533
 30
0.0
 40
0.5000106812873828
100
AcDbArc
 50
90.001223946153175
 51
179.9987760538454
  0
LINE
  5
61
100
AcDbEntity
  8
0
  6
PHANTOM
 62
             200
100
AcDbLine
 10
-9.8000000000000114
 20
12.802998569384812
 30
0.0
 11
-9.8000000000000114
 21
10.802998569384812
 31
0.0
  0
LINE
  5
62
100
AcDbEntity
  8
0
  6
PHANTOM
 62
             200
100
AcDbLine
 10
-6.8000000000000114
 20
12.802998569384812
 30
0.0
 11
-6.8000000000000114
 21
10.802998569384812
 31
0.0
  0
LINE
  5
63
100
AcDbEntity
  8
0
  6
PHANTOM
 62
             200
100
AcDbLine
 10
-9.8000000000000114
 20
10.802998569384812
 30
0.0
 11
-6.8000000000000114
 21
10.802998569384812
 31
0.0
  0
LINE
  5
64
100
AcDbEntity
  8
0
  6
PHANTOM
 62
             200
100
AcDbLine
 10
-9.8000000000000114
 20
12.802998569384812
 30
0.0
 11
-6.8000000000000114
 21
12.802998569384812
 31
0.0
  0
LINE
  5
65
100
AcDbEntity
  8
0
  6
CONTINUOUS
 62
               4
100
AcDbLine
 10
-10.5
 20
23.352998569384823
 30
0.0
 11
-8.6000000000000227
 21
23.352998569384823
 31
0.0
  0
LINE
  5
66
100
AcDbEntity
  8
0
  6
CONTINUOUS
 62
               4
100
AcDbLine
 10
-10.5
 20
23.55299856938484
 30
0.0
 11
-8.6000000000000227
 21
23.55299856938484
 31
0.0
  0
LINE
  5
67
100
AcDbEntity
  8
0
  6
CONTINUOUS
 62
               4
100
AcDbLine
 10
-9.0500000000000114
 20
21.452998569384818
 30
0.0
 11
-9.0500000000000114
 21
21.152998569384835
 31
0.0
  0
LINE
  5
68
100
AcDbEntity
  8
0
  6
CONTINUOUS
 62
               4
100
AcDbLine
 10
-8.6000000000000227
 20
23.55299856938484
 30
0.0
 11
-8.6000000000000227
 21
21.452998569384818
 31
0.0
  0
LINE
  5
69
100
AcDbEntity
  8
0
  6
CONTINUOUS
 62
               4
100
AcDbLine
 10
-11.149999999999977
 20
24.80299856938484
 30
0.0
 11
-11.149999999999977
 21
23.30299856938484
 31
0.0
  0
LINE
  5
6A
100
AcDbEntity
  8
0
  6
CONTINUOUS
 62
               4
100
AcDbLine
 10
-11.050000000000011
 20
23.862998569384843
 30
0.0
 11
-10.720000000000027
 21
24.202998569384818
 31
0.0
  0
LINE
  5
6B
100
AcDbEntity
  8
0
  6
CONTINUOUS
 62
               4
100
AcDbLine
 10
-12.149999999999977
 20
23.30299856938484
 30
0.0
 11
-11.149999999999977
 21
23.30299856938484
 31
0.0
  0
LINE
  5
6C
100
AcDbEntity
  8
0
  6
CONTINUOUS
 62
               4
100
AcDbLine
 10
-12.149999999999977
 20
23.30299856938484
 30
0.0
 11
-12.149999999999977
 21
21.30299856938484
 31
0.0
  0
LINE
  5
6D
100
AcDbEntity
  8
0
  6
CONTINUOUS
 62
               4
100
AcDbLine
 10
-12.050000000000011
 20
21.402998569384835
 30
0.0
 11
-12.050000000000011
 21
23.202998569384818
 31
0.0
  0
LINE
  5
6E
100
AcDbEntity
  8
0
  6
CONTINUOUS
 62
               4
100
AcDbLine
 10
-12.050000000000011
 20
23.202998569384818
 30
0.0
 11
-11.050000000000011
 21
23.202998569384818
 31
0.0
  0
LINE
  5
6F
100
AcDbEntity
  8
0
  6
CONTINUOUS
 62
               4
100
AcDbLine
 10
-11.050000000000011
 20
21.402998569384835
 30
0.0
 11
-11.050000000000011
 21
19.902998569384835
 31
0.0
  0
LINE
  5
70
100
AcDbEntity
  8
0
  6
CONTINUOUS
 62
               4
100
AcDbLine
 10
-10.050000000000011
 20
21.452998569384818
 30
0.0
 11
-10.050000000000011
 21
21.152998569384835
 31
0.0
  0
LINE
  5
71
100
AcDbEntity
  8
0
  6
CONTINUOUS
 62
               4
100
AcDbLine
 10
-11.149999999999977
 20
21.30299856938484
 30
0.0
 11
-11.149999999999977
 21
19.80299856938484
 31
0.0
  0
CIRCLE
  5
72
100
AcDbEntity
  8
0
  6
CONTINUOUS
 62
               4
100
AcDbCircle
 10
-9.5500000000000114
 20
22.402983310595772
 30
0.0
 40
0.8499675393104553
  0
LINE
  5
73
100
AcDbEntity
  8
0
  6
CONTINUOUS
 62
               4
100
AcDbLine
 10
-12.149999999999977
 20
21.30299856938484
 30
0.0
 11
-11.149999999999977
 21
21.30299856938484
 31
0.0
  0
LINE
  5
74
100
AcDbEntity
  8
0
  6
CONTINUOUS
 62
               4
100
AcDbLine
 10
-10.5
 20
23.55299856938484
 30
0.0
 11
-10.5
 21
21.452998569384818
 31
0.0
  0
LINE
  5
75
100
AcDbEntity
  8
0
  6
CONTINUOUS
 62
               4
100
AcDbLine
 10
-12.050000000000011
 20
21.402998569384835
 30
0.0
 11
-11.050000000000011
 21
21.402998569384835
 31
0.0
  0
LINE
  5
76
100
AcDbEntity
  8
0
  6
CONTINUOUS
 62
               4
100
AcDbLine
 10
-10.050000000000011
 20
21.152998569384835
 30
0.0
 11
-9.0500000000000114
 21
21.152998569384835
 31
0.0
  0
LINE
  5
77
100
AcDbEntity
  8
0
  6
CONTINUOUS
 62
               4
100
AcDbLine
 10
-10.5
 20
21.452998569384818
 30
0.0
 11
-8.6000000000000227
 21
21.452998569384818
 31
0.0
  0
LINE
  5
78
100
AcDbEntity
  8
0
  6
CONTINUOUS
 62
               4
100
AcDbLine
 10
-11.050000000000011
 20
26.902998569384835
 30
0.0
 11
-11.050000000000011
 21
23.202998569384818
 31
0.0
  0
LINE
  5
79
100
AcDbEntity
  8
0
  6
CONTINUOUS
 62
               4
100
AcDbLine
 10
-11.050000000000011
 20
26.902998569384835
 30
0.0
 11
-5.5500000000000114
 21
26.902998569384835
 31
0.0
  0
LINE
  5
7A
100
AcDbEntity
  8
0
  6
CONTINUOUS
 62
               4
100
AcDbLine
 10
-11.050000000000011
 20
25.902998569384835
 30
0.0
 11
-5.5500000000000114
 21
25.902998569384835
 31
0.0
  0
CIRCLE
  5
7B
100
AcDbEntity
  8
0
  6
CONTINUOUS
 62
               4
100
AcDbCircle
 10
-7.0500000000000114
 20
22.402983310595772
 30
0.0
 40
0.8499675393104553
  0
LINE
  5
7C
100
AcDbEntity
  8
0
  6
CONTINUOUS
 62
               4
100
AcDbLine
 10
-5.4499999999999886
 20
21.30299856938484
 30
0.0
 11
-4.4499999999999886
 21
21.30299856938484
 31
0.0
  0
LINE
  5
7D
100
AcDbEntity
  8
0
  6
CONTINUOUS
 62
               4
100
AcDbLine
 10
-5.4499999999999886
 20
23.30299856938484
 30
0.0
 11
-4.4499999999999886
 21
23.30299856938484
 31
0.0
  0
LINE
  5
7E
100
AcDbEntity
  8
0
  6
CONTINUOUS
 62
               4
100
AcDbLine
 10
-8.0
 20
23.55299856938484
 30
0.0
 11
-6.1000000000000227
 21
23.55299856938484
 31
0.0
  0
LINE
  5
7F
100
AcDbEntity
  8
0
  6
CONTINUOUS
 62
               4
100
AcDbLine
 10
-8.0
 20
21.452998569384818
 30
0.0
 11
-6.1000000000000227
 21
21.452998569384818
 31
0.0
  0
LINE
  5
80
100
AcDbEntity
  8
0
  6
CONTINUOUS
 62
               4
100
AcDbLine
 10
-8.0
 20
23.352998569384823
 30
0.0
 11
-6.1000000000000227
 21
23.352998569384823
 31
0.0
  0
LINE
  5
81
100
AcDbEntity
  8
0
  6
CONTINUOUS
 62
               4
100
AcDbLine
 10
-5.5500000000000114
 20
23.202998569384818
 30
0.0
 11
-4.5500000000000114
 21
23.202998569384818
 31
0.0
  0
LINE
  5
82
100
AcDbEntity
  8
0
  6
CONTINUOUS
 62
               4
100
AcDbLine
 10
-5.5500000000000114
 20
21.402998569384835
 30
0.0
 11
-4.5500000000000114
 21
21.402998569384835
 31
0.0
  0
LINE
  5
83
100
AcDbEntity
  8
0
  6
CONTINUOUS
 62
               4
100
AcDbLine
 10
-7.5500000000000114
 20
21.152998569384835
 30
0.0
 11
-6.5500000000000114
 21
21.152998569384835
 31
0.0
  0
LINE
  5
84
100
AcDbEntity
  8
0
  6
CONTINUOUS
 62
               4
100
AcDbLine
 10
-5.5500000000000114
 20
21.402998569384835
 30
0.0
 11
-5.5500000000000114
 21
19.902998569384835
 31
0.0
  0
LINE
  5
85
100
AcDbEntity
  8
0
  6
CONTINUOUS
 62
               4
100
AcDbLine
 10
-6.5500000000000114
 20
21.452998569384818
 30
0.0
 11
-6.5500000000000114
 21
21.152998569384835
 31
0.0
  0
LINE
  5
86
100
AcDbEntity
  8
0
  6
CONTINUOUS
 62
               4
100
AcDbLine
 10
-5.5900000000000318
 20
23.902998569384835
 30
0.0
 11
-5.8899999999999864
 21
24.202998569384818
 31
0.0
  0
LINE
  5
87
100
AcDbEntity
  8
0
  6
CONTINUOUS
 62
               4
100
AcDbLine
 10
-6.1000000000000227
 20
23.55299856938484
 30
0.0
 11
-6.1000000000000227
 21
21.452998569384818
 31
0.0
  0
LINE
  5
88
100
AcDbEntity
  8
0
  6
CONTINUOUS
 62
               4
100
AcDbLine
 10
-5.4499999999999886
 20
24.80299856938484
 30
0.0
 11
-5.4499999999999886
 21
23.30299856938484
 31
0.0
  0
LINE
  5
89
100
AcDbEntity
  8
0
  6
CONTINUOUS
 62
               4
100
AcDbLine
 10
-5.4499999999999886
 20
21.30299856938484
 30
0.0
 11
-5.4499999999999886
 21
19.80299856938484
 31
0.0
  0
LINE
  5
8A
100
AcDbEntity
  8
0
  6
CONTINUOUS
 62
               4
100
AcDbLine
 10
-4.4499999999999886
 20
23.30299856938484
 30
0.0
 11
-4.4499999999999886
 21
21.30299856938484
 31
0.0
  0
LINE
  5
8B
100
AcDbEntity
  8
0
  6
CONTINUOUS
 62
               4
100
AcDbLine
 10
-4.5500000000000114
 20
21.402998569384835
 30
0.0
 11
-4.5500000000000114
 21
23.202998569384818
 31
0.0
  0
ARC
  5
8C
100
AcDbEntity
  8
0
  6
CONTINUOUS
 62
               4
100
AcDbCircle
 10
-4.0300009155542398
 20
24.302997653830573
 30
0.0
 40
0.5000009155550945
100
AcDbArc
 50
0.0001049145970977
 51
89.999895085402713
  0
LINE
  5
8D
100
AcDbEntity
  8
0
  6
CONTINUOUS
 62
               4
100
AcDbLine
 10
-7.5500000000000114
 20
21.452998569384818
 30
0.0
 11
-7.5500000000000114
 21
21.152998569384835
 31
0.0
  0
LINE
  5
8E
100
AcDbEntity
  8
0
  6
CONTINUOUS
 62
               4
100
AcDbLine
 10
-8.0
 20
23.55299856938484
 30
0.0
 11
-8.0
 21
21.452998569384818
 31
0.0
  0
LINE
  5
8F
100
AcDbEntity
  8
0
  6
CONTINUOUS
 62
               4
100
AcDbLine
 10
-5.5500000000000114
 20
24.80299856938484
 30
0.0
 11
-3.8000000000000114
 21
24.80299856938484
 31
0.0
  0
ARC
  5
90
100
AcDbEntity
  8
0
  6
CONTINUOUS
 62
               4
100
AcDbCircle
 10
-3.799995422477366
 20
24.303003146907457
 30
0.0
 40
0.4999954224983215
100
AcDbArc
 50
359.99947544974214
 51
90.000524550256856
  0
LINE
  5
91
100
AcDbEntity
  8
0
  6
CONTINUOUS
 62
               4
100
AcDbLine
 10
-11.050000000000011
 20
19.902998569384835
 30
0.0
 11
-5.5500000000000114
 21
19.902998569384835
 31
0.0
  0
LINE
  5
92
100
AcDbEntity
  8
0
  6
CONTINUOUS
 62
               4
100
AcDbLine
 10
-11.050000000000011
 20
24.902998569384835
 30
0.0
 11
-5.5500000000000114
 21
24.902998569384835
 31
0.0
  0
LINE
  5
93
100
AcDbEntity
  8
0
  6
CONTINUOUS
 62
               4
100
AcDbLine
 10
-11.019999999999982
 20
23.902998569384835
 30
0.0
 11
-5.5900000000000318
 21
23.902998569384835
 31
0.0
  0
LINE
  5
94
100
AcDbEntity
  8
0
  6
CONTINUOUS
 62
               4
100
AcDbLine
 10
-10.720000000000027
 20
24.202998569384818
 30
0.0
 11
-5.8899999999999864
 21
24.202998569384818
 31
0.0
  0
LINE
  5
95
100
AcDbEntity
  8
0
  6
CONTINUOUS
 62
               4
100
AcDbLine
 10
-11.149999999999977
 20
19.80299856938484
 30
0.0
 11
-5.4499999999999886
 21
19.80299856938484
 31
0.0
  0
LINE
  5
96
100
AcDbEntity
  8
0
  6
CONTINUOUS
 62
               4
100
AcDbLine
 10
-5.5500000000000114
 20
26.902998569384835
 30
0.0
 11
-5.5500000000000114
 21
23.202998569384818
 31
0.0
  0
ARC
  5
97
100
AcDbEntity
  8
0
  6
CONTINUOUS
 62
               4
100
AcDbCircle
 10
-5.8970880052370376
 20
27.202086574621845
 30
0.0
 40
0.5989129830170392
100
AcDbArc
 50
89.895914524772735
 51
180.10408547522667
  0
ARC
  5
98
100
AcDbEntity
  8
0
  6
CONTINUOUS
 62
               4
100
AcDbCircle
 10
-4.0959048533417786
 20
27.20109371604299
 30
0.0
 40
0.5999048608870732
100
AcDbArc
 50
359.99091272245295
 51
90.009087277546172
  0
LINE
  5
99
100
AcDbEntity
  8
0
  6
CONTINUOUS
 62
               4
100
AcDbLine
 10
-3.3000000000000114
 20
27.200998569384822
 30
0.0
 11
-6.5
 21
27.200998569384822
 31
0.0
  0
ARC
  5
9A
100
AcDbEntity
  8
0
  6
CONTINUOUS
 62
               4
100
AcDbCircle
 10
-12.800000000000011
 20
27.200998569384822
 30
0.0
 40
0.5
100
AcDbArc
 50
89.999999999999815
 51
179.99999999999963
  0
LINE
  5
9B
100
AcDbEntity
  8
0
  6
CONTINUOUS
 62
               4
100
AcDbLine
 10
-6.5
 20
27.700998569384822
 30
0.0
 11
-6.5
 21
26.902998569384835
 31
0.0
  0
LINE
  5
9C
100
AcDbEntity
  8
0
  6
CONTINUOUS
 62
               4
100
AcDbLine
 10
-6.5
 20
27.700998569384822
 30
0.0
 11
-12.800000000000011
 21
27.700998569384822
 31
0.0
  0
LINE
  5
9D
100
AcDbEntity
  8
0
  6
CONTINUOUS
 62
               4
100
AcDbLine
 10
-3.3000000000000114
 20
26.200998569384822
 30
0.0
 11
-5.5500000000000114
 21
26.200998569384822
 31
0.0
  0
LINE
  5
9E
100
AcDbEntity
  8
0
  6
CONTINUOUS
 62
               4
100
AcDbLine
 10
-3.3000000000000114
 20
27.800998569384845
 30
0.0
 11
-13.300000000000011
 21
27.800998569384845
 31
0.0
  0
LINE
  5
9F
100
AcDbEntity
  8
0
  6
CONTINUOUS
 62
               4
100
AcDbLine
 10
-3.3000000000000114
 20
27.800998569384845
 30
0.0
 11
-3.3000000000000114
 21
5.3009985693848165
 31
0.0
  0
LINE
  5
A0
100
AcDbEntity
  8
0
  6
CONTINUOUS
 62
               4
100
AcDbLine
 10
-13.300000000000011
 20
27.800998569384845
 30
0.0
 11
-13.300000000000011
 21
5.3009985693848165
 31
0.0
  0
LINE
  5
A1
100
AcDbEntity
  8
0
  6
CONTINUOUS
 62
               4
100
AcDbLine
 10
-3.5300000000000296
 20
24.30299856938484
 30
0.0
 11
-3.5300000000000296
 21
7.9989898977333524
 31
0.0
  0
LINE
  5
A2
100
AcDbEntity
  8
0
  6
CONTINUOUS
 62
               4
100
AcDbLine
 10
-13.069999999999993
 20
24.30299856938484
 30
0.0
 11
-13.069999999999993
 21
7.9989898977333524
 31
0.0
  0
LINE
  5
A3
100
AcDbEntity
  8
0
  6
CONTINUOUS
 62
               7
100
AcDbLine
 10
-3.3000000000000114
 20
-5.6990014306151835
 30
0.0
 11
-13.300000000000011
 21
-5.6990014306151835
 31
0.0
  0
CIRCLE
  5
A4
100
AcDbEntity
  8
0
  6
CONTINUOUS
 62
               7
100
AcDbCircle
 10
-8.3000000000000114
 20
3.0009985693848336
 30
0.0
 40
0.75
  0
CIRCLE
  5
A5
100
AcDbEntity
  8
0
  6
CONTINUOUS
 62
               7
100
AcDbCircle
 10
-8.3000000000000114
 20
3.0009985693848336
 30
0.0
 40
1.1000000000000001
  0
CIRCLE
  5
A6
100
AcDbEntity
  8
0
  6
CONTINUOUS
 62
               7
100
AcDbCircle
 10
-8.3000000000000114
 20
3.0009985693848336
 30
0.0
 40
1.1500000000000001
  0
CIRCLE
  5
A7
100
AcDbEntity
  8
0
  6
CONTINUOUS
 62
               7
100
AcDbCircle
 10
-8.3000000000000114
 20
3.0009985693848336
 30
0.0
 40
1.3000000000000012
  0
LINE
  5
A8
100
AcDbEntity
  8
0
  6
CENTER
 62
               2
100
AcDbLine
 10
-6.6000000000000227
 20
3.0009985693848336
 30
0.0
 11
-10.0
 21
3.0009985693848336
 31
0.0
  0
ARC
  5
A9
100
AcDbEntity
  8
0
  6
CONTINUOUS
 62
               7
100
AcDbCircle
 10
-8.3000000000000114
 20
1.3009985693848165
 30
0.0
 40
2.0
100
AcDbArc
 50
179.99999999999963
 51
0.0
  0
LINE
  5
AA
100
AcDbEntity
  8
0
  6
CONTINUOUS
 62
               7
100
AcDbLine
 10
-6.3000000000000114
 20
1.3009985693848165
 30
0.0
 11
-6.3000000000000114
 21
5.3009985693848165
 31
0.0
  0
LINE
  5
AB
100
AcDbEntity
  8
0
  6
CONTINUOUS
 62
               7
100
AcDbLine
 10
-10.300000000000011
 20
1.3009985693848165
 30
0.0
 11
-10.300000000000011
 21
5.3009985693848165
 31
0.0
  0
LINE
  5
AC
100
AcDbEntity
  8
0
  6
CONTINUOUS
 62
               7
100
AcDbLine
 10
-3.3000000000000114
 20
-5.6990014306151835
 30
0.0
 11
-3.3000000000000114
 21
5.3009985693848165
 31
0.0
  0
LINE
  5
AD
100
AcDbEntity
  8
0
  6
CONTINUOUS
 62
               7
100
AcDbLine
 10
-13.300000000000011
 20
-5.6990014306151835
 30
0.0
 11
-13.300000000000011
 21
5.3009985693848165
 31
0.0
  0
LINE
  5
AE
100
AcDbEntity
  8
0
  6
CONTINUOUS
 62
               4
100
AcDbLine
 10
-3.3000000000000114
 20
5.3009985693848165
 30
0.0
 11
-13.300000000000011
 21
5.3009985693848165
 31
0.0
  0
LINE
  5
AF
100
AcDbEntity
  8
0
  6
CENTER
 62
               2
100
AcDbLine
 10
-6.9699999999999989
 20
3.0
 30
0.0
 11
-9.6399999999999864
 21
3.0
 31
0.0
  0
CIRCLE
  5
B0
100
AcDbEntity
  8
0
  6
CONTINUOUS
 62
               7
100
AcDbCircle
 10
-4.6000000000000227
 20
-19.598002861230356
 30
0.0
 40
1.5
  0
LINE
  5
B1
100
AcDbEntity
  8
0
  6
CONTINUOUS
 62
               7
100
AcDbLine
 10
-3.8928932188135263
 20
-20.3061082118017
 30
0.0
 11
-5.307106781186576
 21
-18.891894649428608
 31
0.0
  0
LINE
  5
B2
100
AcDbEntity
  8
0
  6
CONTINUOUS
 62
               7
100
AcDbLine
 10
-5.307106781186576
 20
-20.3061082118017
 30
0.0
 11
-3.8928932188134695
 21
-18.891894649428608
 31
0.0
  0
CIRCLE
  5
B3
100
AcDbEntity
  8
0
  6
CONTINUOUS
 62
               7
100
AcDbCircle
 10
-12.0
 20
-9.9990014306151807
 30
0.0
 40
1.5
  0
LINE
  5
B4
100
AcDbEntity
  8
0
  6
CONTINUOUS
 62
               7
100
AcDbLine
 10
-11.292893218813504
 20
-10.707106781186525
 30
0.0
 11
-12.707106781186553
 21
-9.2928932188134326
 31
0.0
  0
LINE
  5
B5
100
AcDbEntity
  8
0
  6
CONTINUOUS
 62
               7
100
AcDbLine
 10
-12.707106781186553
 20
-10.707106781186525
 30
0.0
 11
-11.292893218813447
 21
-9.2928932188134326
 31
0.0
  0
LINE
  5
B6
100
AcDbEntity
  8
0
  6
CONTINUOUS
 62
               7
100
AcDbLine
 10
-3.3000000000000114
 20
-18.849671383875588
 30
0.0
 11
-3.3000000000000114
 21
-5.6990014306151835
 31
0.0
  0
LINE
  5
B7
100
AcDbEntity
  8
0
  6
CONTINUOUS
 62
               7
100
AcDbLine
 10
-13.300000000000011
 20
-9.2506699532604131
 30
0.0
 11
-13.300000000000011
 21
-5.6990014306151835
 31
0.0
  0
ARC
  5
B8
100
AcDbEntity
  8
0
  6
CONTINUOUS
 62
               7
100
AcDbCircle
 10
-8.3000000000000114
 20
1.3009985693848165
 30
0.0
 40
3.090998569384837
100
AcDbArc
 50
179.99999999999963
 51
0.0
  0
LINE
  5
B9
100
AcDbEntity
  8
0
  6
CONTINUOUS
 62
               7
100
AcDbLine
 10
-5.2090014306151602
 20
1.3009985693848165
 30
0.0
 11
-5.2090014306151602
 21
5.3009985693848165
 31
0.0
  0
LINE
  5
BA
100
AcDbEntity
  8
0
  6
CONTINUOUS
 62
               7
100
AcDbLine
 10
-11.390998569384834
 20
1.3009985693848165
 30
0.0
 11
-11.390998569384834
 21
5.3009985693848165
 31
0.0
  0
ENDBLK
  5
BB
100
AcDbEntity
  8
0
100
AcDbBlockEnd
  0
BLOCK
  5
BC
100
AcDbEntity
  8
0
100
AcDbBlockBegin
  2
EA10A5-2
 70
               0
 10
0.0
 20
0.0
 30
0.0
  3
EA10A5-2
  1

  0
LINE
  5
BD
100
AcDbEntity
  8
0
  6
CENTER
 62
               2
100
AcDbLine
 10
-2.0
 20
-29.599999999999994
 30
0.0
 11
2.0
 21
-29.599999999999994
 31
0.0
  0
LINE
  5
BE
100
AcDbEntity
  8
0
  6
CENTER
 62
               7
100
AcDbLine
 10
-2.0
 20
0.0
 30
0.0
 11
2.0
 21
0.0
 31
0.0
  0
LINE
  5
BF
100
AcDbEntity
  8
0
  6
CENTER
 62
               2
100
AcDbLine
 10
-2.0000000167243002
 20
0.0
 30
0.0
 11
1.9999999832756998
 21
0.0
 31
0.0
  0
ARC
  5
C0
100
AcDbEntity
  8
0
  6
CONTINUOUS
 62
               4
100
AcDbCircle
 10
19.601088207790468
 20
27.206088005236666
 30
0.0
 40
0.5989129830170392
100
AcDbArc
 50
359.89591452477299
 51
90.104085475226924
  0
LINE
  5
C1
100
AcDbEntity
  8
0
  6
CONTINUOUS
 62
               4
100
AcDbLine
 10
20.700000202553383
 20
27.204999999999657
 30
0.0
 11
20.700000202553383
 21
27.80499999999968
 31
0.0
  0
LINE
  5
C2
100
AcDbEntity
  8
0
  6
CENTER
 62
               2
100
AcDbLine
 10
24.000000021518844
 20
-31.107999999998881
 30
0.0
 11
24.000000021517764
 21
29.647850672798185
 31
0.0
  0
LINE
  5
C3
100
AcDbEntity
  8
0
  6
CONTINUOUS
 62
               7
100
AcDbLine
 10
16.999996948242199
 20
-30.100006103515625
 30
0.0
 11
15.999996948242199
 21
-30.100006103515625
 31
0.0
  0
LINE
  5
C4
100
AcDbEntity
  8
0
  6
CONTINUOUS
 62
               7
100
AcDbLine
 10
16.999996948242199
 20
0.4999938964843835
 30
0.0
 11
15.999996948242199
 21
0.4999938964843835
 31
0.0
  0
LINE
  5
C5
100
AcDbEntity
  8
0
  6
CONTINUOUS
 62
               7
100
AcDbLine
 10
16.0
 20
-32.299999999999997
 30
0.0
 11
16.0
 21
2.7000000000000028
 31
0.0
  0
LINE
  5
C6
100
AcDbEntity
  8
0
  6
CONTINUOUS
 62
               7
100
AcDbLine
 10
0.0
 20
2.7000000000000028
 30
0.0
 11
0.0
 21
-32.299999999999997
 31
0.0
  0
LINE
  5
C7
100
AcDbEntity
  8
0
  6
CENTER
 62
               2
100
AcDbLine
 10
11.0
 20
-16.5
 30
0.0
 11
11.0
 21
-23.499999999999993
 31
0.0
  0
LINE
  5
C8
100
AcDbEntity
  8
0
  6
CENTER
 62
               2
100
AcDbLine
 10
5.0
 20
-8.7999999999999972
 30
0.0
 11
5.0
 21
-15.799999999999997
 31
0.0
  0
LINE
  5
C9
100
AcDbEntity
  8
0
  6
CENTER
 62
               2
100
AcDbLine
 10
1.5
 20
-12.299999999999997
 30
0.0
 11
8.5
 21
-12.299999999999997
 31
0.0
  0
CIRCLE
  5
CA
100
AcDbEntity
  8
0
  6
CONTINUOUS
 62
               7
100
AcDbCircle
 10
4.9999816894531364
 20
-12.300006103515628
 30
0.0
 40
2.0669994354248047
  0
CIRCLE
  5
CB
100
AcDbEntity
  8
0
  6
CONTINUOUS
 62
               7
100
AcDbCircle
 10
10.999996948242199
 20
-20.000003051757808
 30
0.0
 40
2.0669994354248047
  0
CIRCLE
  5
CC
100
AcDbEntity
  8
0
  6
CONTINUOUS
 62
               2
100
AcDbCircle
 10
10.999996948242199
 20
-20.000003051757808
 30
0.0
 40
2.5
  0
CIRCLE
  5
CD
100
AcDbEntity
  8
0
  6
CONTINUOUS
 62
               2
100
AcDbCircle
 10
4.9999816894531364
 20
-12.300006103515628
 30
0.0
 40
2.5
  0
LINE
  5
CE
100
AcDbEntity
  8
0
  6
CENTER
 62
               2
100
AcDbLine
 10
7.5
 20
-19.999999999999993
 30
0.0
 11
14.5
 21
-19.999999999999993
 31
0.0
  0
LINE
  5
CF
100
AcDbEntity
  8
0
  6
CONTINUOUS
 62
               7
100
AcDbLine
 10
16.0
 20
-32.299999999999997
 30
0.0
 11
0.0
 21
-32.299999999999997
 31
0.0
  0
LINE
  5
D0
100
AcDbEntity
  8
0
  6
CONTINUOUS
 62
               7
100
AcDbLine
 10
16.0
 20
2.7000000000000028
 30
0.0
 11
0.0
 21
2.7000000000000028
 31
0.0
  0
LINE
  5
D1
100
AcDbEntity
  8
0
  6
CONTINUOUS
 62
               7
100
AcDbLine
 10
27.5
 20
-27.594999999999992
 30
0.0
 11
27.5
 21
-28.694999999999993
 31
0.0
  0
LINE
  5
D2
100
AcDbEntity
  8
0
  6
CONTINUOUS
 62
               7
100
AcDbLine
 10
27.549999999999983
 20
-27.92499999999999
 30
0.0
 11
27.549999999999983
 21
-27.454999999999991
 31
0.0
  0
ARC
  5
D3
100
AcDbEntity
  8
0
  6
CONTINUOUS
 62
               7
100
AcDbCircle
 10
27.299998474115256
 20
-28.694998474115266
 30
0.0
 40
0.200001525890548
100
AcDbArc
 50
270.00043713043902
 51
359.99956286956035
  0
ARC
  5
D4
100
AcDbEntity
  8
0
  6
CONTINUOUS
 62
               7
100
AcDbCircle
 10
27.699992370611284
 20
-27.594992370611287
 30
0.0
 40
0.1999923707568137
100
AcDbArc
 50
89.997814257754712
 51
180.00218574224468
  0
ARC
  5
D5
100
AcDbEntity
  8
0
  6
CONTINUOUS
 62
               7
100
AcDbCircle
 10
27.974082972497598
 20
-27.927923464014604
 30
0.0
 40
0.4240930489930741
100
AcDbArc
 50
179.60503130945165
 51
242.76491800802398
  0
ARC
  5
D6
100
AcDbEntity
  8
0
  6
CONTINUOUS
 62
               7
100
AcDbCircle
 10
17.400003051944083
 20
-28.494996948055913
 30
0.0
 40
0.4000030519557204
100
AcDbArc
 50
180.00043715545169
 51
269.99956284454754
  0
LINE
  5
D7
100
AcDbEntity
  8
0
  6
CONTINUOUS
 62
               7
100
AcDbLine
 10
16.999999988079082
 20
-23.894999999999996
 30
0.0
 11
30.999999988079054
 21
-23.894999999999996
 31
0.0
  0
ARC
  5
D8
100
AcDbEntity
  8
0
  6
CONTINUOUS
 62
               7
100
AcDbCircle
 10
29.305000000000007
 20
-25.494981304912841
 30
0.0
 40
3.1971596874005721
100
AcDbArc
 50
241.5112711324667
 51
298.48872886753213
  0
LINE
  5
D9
100
AcDbEntity
  8
0
  6
CONTINUOUS
 62
               7
100
AcDbLine
 10
31.049999999999983
 20
-27.394999999999996
 30
0.0
 11
27.699999999999989
 21
-27.394999999999996
 31
0.0
  0
LINE
  5
DA
100
AcDbEntity
  8
0
  6
CONTINUOUS
 62
               7
100
AcDbLine
 10
30.599999999999994
 20
-28.894999999999996
 30
0.0
 11
17.400000000000006
 21
-28.894999999999996
 31
0.0
  0
LINE
  5
DB
100
AcDbEntity
  8
0
  6
CONTINUOUS
 62
               4
100
AcDbLine
 10
54.495959596051165
 20
22.960555545466988
 30
0.0
 11
51.158585860584566
 21
22.960555545466931
 31
0.0
  0
LINE
  5
DC
100
AcDbEntity
  8
0
  6
CONTINUOUS
 62
               4
100
AcDbLine
 10
54.495959596051193
 20
21.659545445200294
 30
0.0
 11
51.90808080965121
 21
21.659545445200237
 31
0.0
  0
LINE
  5
DD
100
AcDbEntity
  8
0
  6
CONTINUOUS
 62
               4
100
AcDbLine
 10
17.00000002151819
 20
5.3049999999996515
 30
0.0
 11
33.884848496718121
 21
5.3049999999999642
 31
0.0
  0
LINE
  5
DE
100
AcDbEntity
  8
0
  6
CONTINUOUS
 62
               4
100
AcDbLine
 10
31.00000001351782
 20
24.806010089866604
 30
0.0
 11
38.49494950418449
 21
24.806010089866774
 31
0.0
  0
LINE
  5
DF
100
AcDbEntity
  8
0
  6
CONTINUOUS
 62
               4
100
AcDbLine
 10
38.996969705917849
 20
24.303989888133387
 30
0.0
 11
38.996969705918161
 21
7.9565151500001292
 31
0.0
  0
LINE
  5
E0
100
AcDbEntity
  8
0
  6
CONTINUOUS
 62
               4
100
AcDbLine
 10
34.098535171945997
 20
5.3519560324806292
 30
0.0
 11
38.707070716184802
 21
7.5039898977333763
 31
0.0
  0
LINE
  5
E1
100
AcDbEntity
  8
0
  6
CONTINUOUS
 62
               4
100
AcDbLine
 10
46.993939398317906
 20
19.807020193733464
 30
0.0
 11
46.993939398317821
 21
23.908030292400198
 31
0.0
  0
LINE
  5
E2
100
AcDbEntity
  8
0
  6
CONTINUOUS
 62
               4
100
AcDbLine
 10
40.389898998051166
 20
25.909040392266817
 30
0.0
 11
45.494949500184475
 21
26.807020189733564
 31
0.0
  0
LINE
  5
E3
100
AcDbEntity
  8
0
  6
CONTINUOUS
 62
               4
100
AcDbLine
 10
46.993939398317792
 20
25.810050493333492
 30
0.0
 11
46.993939398317764
 21
26.807020189733564
 31
0.0
  0
LINE
  5
E4
100
AcDbEntity
  8
0
  6
CONTINUOUS
 62
               4
100
AcDbLine
 10
39.329292938051196
 20
24.707020190933335
 30
0.0
 11
45.671717176851132
 21
25.82419190746684
 31
0.0
  0
LINE
  5
E5
100
AcDbEntity
  8
0
  6
CONTINUOUS
 62
               4
100
AcDbLine
 10
37.992929302451159
 20
24.904999988800043
 30
0.0
 11
32.293939406717783
 21
24.904999988799929
 31
0.0
  0
LINE
  5
E6
100
AcDbEntity
  8
0
  6
CONTINUOUS
 62
               4
100
AcDbLine
 10
46.993939398317821
 20
23.908030292400198
 30
0.0
 11
46.696969701517844
 21
24.204999989200175
 31
0.0
  0
LINE
  5
E7
100
AcDbEntity
  8
0
  6
CONTINUOUS
 62
               4
100
AcDbLine
 10
45.996969701917891
 20
19.807020193733464
 30
0.0
 11
45.996969701917891
 21
20.408030294400177
 31
0.0
  0
LINE
  5
E8
100
AcDbEntity
  8
0
  6
CONTINUOUS
 62
               4
100
AcDbLine
 10
45.996969701917891
 20
20.408030294400177
 30
0.0
 11
40.997979805784524
 21
20.40803029440012
 31
0.0
  0
LINE
  5
E9
100
AcDbEntity
  8
0
  6
CONTINUOUS
 62
               4
100
AcDbLine
 10
40.997979805784553
 20
19.807020193733351
 30
0.0
 11
40.997979805784524
 21
20.40803029440012
 31
0.0
  0
LINE
  5
EA
100
AcDbEntity
  8
0
  6
CONTINUOUS
 62
               4
100
AcDbLine
 10
40.495959604051166
 20
23.908030292400085
 30
0.0
 11
40.792929300851142
 21
24.204999989200061
 31
0.0
  0
LINE
  5
EB
100
AcDbEntity
  8
0
  6
CONTINUOUS
 62
               4
100
AcDbLine
 10
40.389898998051166
 20
25.909040392266817
 30
0.0
 11
31.296969710317768
 21
25.909040392266647
 31
0.0
  0
LINE
  5
EC
100
AcDbEntity
  8
0
  6
CONTINUOUS
 62
               4
100
AcDbLine
 10
32.293939406717783
 20
24.80601008986666
 30
0.0
 11
32.293939406717783
 21
24.904999988799929
 31
0.0
  0
LINE
  5
ED
100
AcDbEntity
  8
0
  6
CONTINUOUS
 62
               4
100
AcDbLine
 10
51.561616163384514
 20
21.659545445200237
 30
0.0
 11
46.993939398317877
 21
21.659545445200123
 31
0.0
  0
LINE
  5
EE
100
AcDbEntity
  8
0
  6
CONTINUOUS
 62
             200
100
AcDbLine
 10
50.324242426717831
 20
23.809040393466873
 30
0.0
 11
52.056565658051227
 21
20.80398989013365
 31
0.0
  0
LINE
  5
EF
100
AcDbEntity
  8
0
  6
CONTINUOUS
 62
               4
100
AcDbLine
 10
50.81212121431787
 20
22.960555545466903
 30
0.0
 11
46.993939398317849
 21
22.960555545466846
 31
0.0
  0
LINE
  5
F0
100
AcDbEntity
  8
0
  6
CONTINUOUS
 62
               4
100
AcDbLine
 10
46.993939398317764
 20
26.807020189733564
 30
0.0
 11
45.494949500184475
 21
26.807020189733564
 31
0.0
  0
LINE
  5
F1
100
AcDbEntity
  8
0
  6
CONTINUOUS
 62
               4
100
AcDbLine
 10
46.993939398317792
 20
25.810050493333492
 30
0.0
 11
45.586868692051098
 21
25.810050493333492
 31
0.0
  0
LINE
  5
F2
100
AcDbEntity
  8
0
  6
CONTINUOUS
 62
               4
100
AcDbLine
 10
46.696969701517844
 20
24.204999989200175
 30
0.0
 11
40.792929300851142
 21
24.204999989200061
 31
0.0
  0
LINE
  5
F3
100
AcDbEntity
  8
0
  6
CONTINUOUS
 62
               4
100
AcDbLine
 10
46.993939398317821
 20
23.908030292400198
 30
0.0
 11
39.400000008717882
 21
23.908030292400056
 31
0.0
  0
LINE
  5
F4
100
AcDbEntity
  8
0
  6
CONTINUOUS
 62
               4
100
AcDbLine
 10
46.993939398317849
 20
23.208030292800217
 30
0.0
 11
38.996969705917877
 21
23.208030292800103
 31
0.0
  0
LINE
  5
F5
100
AcDbEntity
  8
0
  6
CONTINUOUS
 62
               4
100
AcDbLine
 10
46.993939398317877
 20
21.404999990800221
 30
0.0
 11
38.996969705917905
 21
21.404999990800079
 31
0.0
  0
LINE
  5
F6
100
AcDbEntity
  8
0
  6
CONTINUOUS
 62
               4
100
AcDbLine
 10
38.996969705917934
 20
19.807020193733351
 30
0.0
 11
40.997979805784553
 21
19.807020193733351
 31
0.0
  0
LINE
  5
F7
100
AcDbEntity
  8
0
  6
CONTINUOUS
 62
               4
100
AcDbLine
 10
45.996969701917891
 20
19.807020193733464
 30
0.0
 11
46.993939398317906
 21
19.807020193733464
 31
0.0
  0
LINE
  5
F8
100
AcDbEntity
  8
0
  6
CONTINUOUS
 62
               4
100
AcDbLine
 10
33.884848496718121
 20
5.3049999999999642
 30
0.0
 11
33.88484849671778
 21
24.80601008986666
 31
0.0
  0
ARC
  5
F9
100
AcDbEntity
  8
0
  6
CONTINUOUS
 62
               4
100
AcDbCircle
 10
38.497257383074867
 20
7.9575224605392378
 30
0.0
 40
0.4997133381008656
100
AcDbArc
 50
294.82621530980992
 51
359.88450442035736
  0
ARC
  5
FA
100
AcDbEntity
  8
0
  6
CONTINUOUS
 62
               4
100
AcDbCircle
 10
38.500332854439165
 20
24.309373238388062
 30
0.0
 40
0.4966660273328702
100
AcDbArc
 50
359.37896036356483
 51
90.621039636434716
  0
ARC
  5
FB
100
AcDbEntity
  8
0
  6
CONTINUOUS
 62
               4
100
AcDbCircle
 10
31.299431305235231
 20
25.609584129418593
 30
0.0
 40
0.2994663800970315
100
AcDbArc
 50
90.47097302846538
 51
180.87710076750685
  0
ARC
  5
FC
100
AcDbEntity
  8
0
  6
CONTINUOUS
 62
               4
100
AcDbCircle
 10
37.999912527655027
 20
24.410034325092667
 30
0.0
 40
0.4950149226876426
100
AcDbArc
 50
53.123124741165753
 51
90.808304124579536
  0
ARC
  5
FD
100
AcDbEntity
  8
0
  6
CONTINUOUS
 62
               4
100
AcDbCircle
 10
39.399895939896879
 20
24.310327231604575
 30
0.0
 40
0.4029269013737999
100
AcDbArc
 50
100.09177155739695
 51
179.8957164142515
  0
ARC
  5
FE
100
AcDbEntity
  8
0
  6
CONTINUOUS
 62
               4
100
AcDbCircle
 10
39.400834052872199
 20
24.311894639354406
 30
0.0
 40
0.403865208170398
100
AcDbArc
 50
180.11832473551567
 51
269.88167526448677
  0
LINE
  5
FF
100
AcDbEntity
  8
0
  6
CONTINUOUS
 62
             200
100
AcDbLine
 10
50.670707072984527
 20
23.80904039346693
 30
0.0
 11
52.403030304317923
 21
20.811060597200267
 31
0.0
  0
LINE
  5
100
100
AcDbEntity
  8
0
  6
CONTINUOUS
 62
               4
100
AcDbLine
 10
17.00000002151819
 20
5.3049999999996515
 30
0.0
 11
17.000000021517792
 21
27.204999999999629
 31
0.0
  0
LINE
  5
101
100
AcDbEntity
  8
0
  6
CONTINUOUS
 62
               4
100
AcDbLine
 10
29.000000025517835
 20
26.204999999999799
 30
0.0
 11
17.000000029517821
 21
26.2049999999996
 31
0.0
  0
LINE
  5
102
100
AcDbEntity
  8
0
  6
CONTINUOUS
 62
               4
100
AcDbLine
 10
29.000000025517835
 20
27.804999999999851
 30
0.0
 11
29.000000025517835
 21
26.204999999999799
 31
0.0
  0
LINE
  5
103
100
AcDbEntity
  8
0
  6
CONTINUOUS
 62
               4
100
AcDbLine
 10
30.50000002151782
 20
27.704999999999913
 30
0.0
 11
29.000000025517835
 21
27.704999999999856
 31
0.0
  0
ARC
  5
104
100
AcDbEntity
  8
0
  6
CONTINUOUS
 62
               4
100
AcDbCircle
 10
30.50000002151782
 20
27.204999999999856
 30
0.0
 40
0.5
100
AcDbArc
 50
0.0000000000010687
 51
90.000000000000867
  0
LINE
  5
105
100
AcDbEntity
  8
0
  6
CONTINUOUS
 62
               4
100
AcDbLine
 10
31.000000013517791
 20
27.204999999999885
 30
0.0
 11
31.000000013518161
 21
5.3049999999999073
 31
0.0
  0
LINE
  5
106
100
AcDbEntity
  8
0
  6
CONTINUOUS
 62
               4
100
AcDbLine
 10
30.199999935517809
 20
27.804999999999907
 30
0.0
 11
17.800000115517804
 21
27.80499999999968
 31
0.0
  0
ARC
  5
107
100
AcDbEntity
  8
0
  6
CONTINUOUS
 62
               4
100
AcDbCircle
 10
17.500000029517764
 20
27.204999999999657
 30
0.0
 40
0.5
100
AcDbArc
 50
93.919585899651864
 51
180.00000000000065
  0
LINE
  5
108
100
AcDbEntity
  8
0
  6
CONTINUOUS
 62
               4
100
AcDbLine
 10
20.700000202553383
 20
27.204999999999671
 30
0.0
 11
17.000000029517793
 21
27.204999999999629
 31
0.0
  0
ARC
  5
109
100
AcDbEntity
  8
0
  6
CONTINUOUS
 62
               4
100
AcDbCircle
 10
17.798912110389551
 20
27.20608800512791
 30
0.0
 40
0.598912923125741
100
AcDbArc
 50
89.895914524773801
 51
180.10408547522775
  0
ARC
  5
10A
100
AcDbEntity
  8
0
  6
CONTINUOUS
 62
               4
100
AcDbCircle
 10
30.200095082166513
 20
27.20509514664856
 30
0.0
 40
0.599904800896587
100
AcDbArc
 50
56.247417870394948
 51
90.009087277547238
  0
LINE
  5
10B
100
AcDbEntity
  8
0
  6
CONTINUOUS
 62
               4
100
AcDbLine
 10
54.495959596051193
 20
21.659545445200294
 30
0.0
 11
54.495959596051165
 21
22.960555545466988
 31
0.0
  0
LINE
  5
10C
100
AcDbEntity
  8
0
  6
CONTINUOUS
 62
               7
100
AcDbLine
 10
30.0
 20
-11.594001430615208
 30
0.0
 11
31.0
 21
-11.594001430615208
 31
0.0
  0
LINE
  5
10D
100
AcDbEntity
  8
0
  6
CONTINUOUS
 62
               7
100
AcDbLine
 10
30.0
 20
-8.3940014306151909
 30
0.0
 11
31.0
 21
-8.3940014306151909
 31
0.0
  0
LINE
  5
10E
100
AcDbEntity
  8
0
  6
CONTINUOUS
 62
               7
100
AcDbLine
 10
17.000000013518104
 20
-5.6950000000000074
 30
0.0
 11
31.0
 21
-5.6949999999999932
 31
0.0
  0
LINE
  5
10F
100
AcDbEntity
  8
0
  6
CONTINUOUS
 62
               7
100
AcDbLine
 10
32.100000013518155
 20
-0.6950000000000074
 30
0.0
 11
32.100000013518155
 21
5.3049999999999216
 31
0.0
  0
LINE
  5
110
100
AcDbEntity
  8
0
  6
CONTINUOUS
 62
               7
100
AcDbLine
 10
32.548000013518077
 20
1.9049999999999869
 30
0.0
 11
32.100000013518155
 21
1.9049999999999869
 31
0.0
  0
LINE
  5
111
100
AcDbEntity
  8
0
  6
CONTINUOUS
 62
               7
100
AcDbLine
 10
32.548000013518134
 20
4.1050000000000324
 30
0.0
 11
32.100000013518155
 21
4.1050000000000182
 31
0.0
  0
LINE
  5
112
100
AcDbEntity
  8
0
  6
CONTINUOUS
 62
               7
100
AcDbLine
 10
32.548000013518077
 20
1.9049999999999869
 30
0.0
 11
32.548000013518134
 21
4.1050000000000324
 31
0.0
  0
LINE
  5
113
100
AcDbEntity
  8
0
  6
CONTINUOUS
 62
               7
100
AcDbLine
 10
31.000000013518161
 20
5.3049999999999216
 30
0.0
 11
31.000000013518161
 21
-5.6950000000000074
 31
0.0
  0
LINE
  5
114
100
AcDbEntity
  8
0
  6
CONTINUOUS
 62
               7
100
AcDbLine
 10
31.000000013518132
 20
-1.7900000000000205
 30
0.0
 11
32.100000013518155
 21
-0.6950000000000074
 31
0.0
  0
ARC
  5
115
100
AcDbEntity
  8
0
  6
CONTINUOUS
 62
               7
100
AcDbCircle
 10
30.599993896379601
 20
-28.49499389637959
 30
0.0
 40
0.400006103666966
100
AcDbArc
 50
270.00087426588038
 51
359.99912573411802
  0
ARC
  5
116
100
AcDbEntity
  8
0
  6
CONTINUOUS
 62
               7
100
AcDbCircle
 10
30.623582287124151
 20
-27.931810797808701
 30
0.0
 40
0.4264721008707071
100
AcDbArc
 50
298.94777670470961
 51
0.9150576515650383
  0
LINE
  5
117
100
AcDbEntity
  8
0
  6
CONTINUOUS
 62
               7
100
AcDbLine
 10
31.0
 20
-5.6949999999999932
 30
0.0
 11
31.0
 21
-27.394999999999989
 31
0.0
  0
LINE
  5
118
100
AcDbEntity
  8
0
  6
CONTINUOUS
 62
               7
100
AcDbLine
 10
31.0
 20
-28.124999999999993
 30
0.0
 11
31.0
 21
-28.494999999999997
 31
0.0
  0
LINE
  5
119
100
AcDbEntity
  8
0
  6
CONTINUOUS
 62
               7
100
AcDbLine
 10
31.049999999999983
 20
-27.92499999999999
 30
0.0
 11
31.049999999999983
 21
-27.394999999999996
 31
0.0
  0
LINE
  5
11A
100
AcDbEntity
  8
0
  6
CONTINUOUS
 62
               7
100
AcDbLine
 10
30.0
 20
-8.3940014306151909
 30
0.0
 11
30.0
 21
-11.594001430615208
 31
0.0
  0
LINE
  5
11B
100
AcDbEntity
  8
0
  6
CONTINUOUS
 62
               7
100
AcDbLine
 10
17.000000013518104
 20
5.3049999999999358
 30
0.0
 11
16.999996948242199
 21
-30.100006103515625
 31
0.0
  0
LINE
  5
11C
100
AcDbEntity
  8
0
  6
CONTINUOUS
 62
               7
100
AcDbLine
 10
30.599999999999994
 20
-8.8950000000000244
 30
0.0
 11
30.599999999999994
 21
-11.095000000000027
 31
0.0
  0
ARC
  5
11D
100
AcDbEntity
  8
0
  6
CONTINUOUS
 62
               7
100
AcDbCircle
 10
30.199999999999989
 20
-11.095000000000027
 30
0.0
 40
0.4
100
AcDbArc
 50
270.00000000000023
 51
0.0
  0
LINE
  5
11E
100
AcDbEntity
  8
0
  6
CONTINUOUS
 62
               7
100
AcDbLine
 10
30.199999999999989
 20
-11.495000000000019
 30
0.0
 11
30.0
 21
-11.495000000000019
 31
0.0
  0
ARC
  5
11F
100
AcDbEntity
  8
0
  6
CONTINUOUS
 62
               7
100
AcDbCircle
 10
30.199999999999989
 20
-8.8950000000000244
 30
0.0
 40
0.4
100
AcDbArc
 50
0.0
 51
89.999999999999815
  0
LINE
  5
120
100
AcDbEntity
  8
0
  6
CONTINUOUS
 62
               7
100
AcDbLine
 10
30.199999999999989
 20
-8.4950000000000188
 30
0.0
 11
30.0
 21
-8.4950000000000188
 31
0.0
  0
LINE
  5
121
100
AcDbEntity
  8
0
  6
CONTINUOUS
 62
               4
100
AcDbLine
 10
54.495959596051165
 20
22.559233112521127
 30
0.0
 11
57.995959596051222
 21
22.559233112521127
 31
0.0
  0
LINE
  5
122
100
AcDbEntity
  8
0
  6
CONTINUOUS
 62
               4
100
AcDbLine
 10
57.995959596051222
 20
22.559233112521127
 30
0.0
 11
57.995959596051222
 21
22.059233112521127
 31
0.0
  0
LINE
  5
123
100
AcDbEntity
  8
0
  6
CONTINUOUS
 62
               4
100
AcDbLine
 10
54.495959596051165
 20
22.059233112521127
 30
0.0
 11
57.995959596051222
 21
22.059233112521127
 31
0.0
  0
ARC
  5
124
100
AcDbEntity
  8
0
  6
CONTINUOUS
 62
               4
100
AcDbCircle
 10
33.886980727563014
 20
5.8049954535708963
 30
0.0
 40
0.5
100
AcDbArc
 50
269.75566360192528
 51
295.0310208172188
  0
ENDBLK
  5
125
100
AcDbEntity
  8
0
100
AcDbBlockEnd
  0
BLOCK
  5
126
100
AcDbEntity
  8
0
100
AcDbBlockBegin
  2
EA10A5-3
 70
               0
 10
0.0
 20
0.0
 30
0.0
  3
EA10A5-3
  1

  0
LINE
  5
127
100
AcDbEntity
  8
0
  6
CENTER
 62
               2
100
AcDbLine
 10
-2.0000000167243286
 20
0.0
 30
0.0
 11
1.9999999832756714
 21
0.0
 31
0.0
  0
LINE
  5
128
100
AcDbEntity
  8
0
  6
CENTER
 62
               2
100
AcDbLine
 10
-2.0000000167243286
 20
-29.599999999999994
 30
0.0
 11
1.9999999832756714
 21
-29.599999999999994
 31
0.0
  0
ARC
  5
129
100
AcDbEntity
  8
0
  6
CONTINUOUS
 62
               4
100
AcDbCircle
 10
-33.886980682203031
 20
5.7999954535706451
 30
0.0
 40
0.5
100
AcDbArc
 50
244.96897918278245
 51
270.24433639730165
  0
ARC
  5
12A
100
AcDbEntity
  8
0
  6
CONTINUOUS
 62
               4
100
AcDbCircle
 10
-28.398911781885886
 20
27.201088005236755
 30
0.0
 40
0.5989129830170392
100
AcDbArc
 50
359.89591452477299
 51
90.104085475226924
  0
LINE
  5
12B
100
AcDbEntity
  8
0
  6
CONTINUOUS
 62
               4
100
AcDbLine
 10
-27.299999787122971
 20
27.199999999999747
 30
0.0
 11
-27.299999787122971
 21
27.79999999999977
 31
0.0
  0
LINE
  5
12C
100
AcDbEntity
  8
0
  6
CONTINUOUS
 62
               7
100
AcDbLine
 10
-16.999978637695335
 20
0.4999938964843835
 30
0.0
 11
-15.999978637695335
 21
0.4999938964843835
 31
0.0
  0
LINE
  5
12D
100
AcDbEntity
  8
0
  6
CONTINUOUS
 62
               7
100
AcDbLine
 10
-16.999978637695335
 20
-30.100006103515625
 30
0.0
 11
-15.999978637695335
 21
-30.100006103515625
 31
0.0
  0
LINE
  5
12E
100
AcDbEntity
  8
0
  6
CENTER
 62
               2
100
AcDbLine
 10
-23.999999976158165
 20
29.647850672801098
 30
0.0
 11
-23.999999976158165
 21
-31.099999999999994
 31
0.0
  0
CIRCLE
  5
12F
100
AcDbEntity
  8
0
  6
CONTINUOUS
 62
               2
100
AcDbCircle
 10
-9.9999786376953352
 20
-4.8000061035156278
 30
0.0
 40
2.5
  0
CIRCLE
  5
130
100
AcDbEntity
  8
0
  6
CONTINUOUS
 62
               2
100
AcDbCircle
 10
-10.999978637695335
 20
-14.800006103515628
 30
0.0
 40
2.5
  0
CIRCLE
  5
131
100
AcDbEntity
  8
0
  6
CONTINUOUS
 62
               2
100
AcDbCircle
 10
-4.9999786376953352
 20
-22.399996948242183
 30
0.0
 40
2.5
  0
CIRCLE
  5
132
100
AcDbEntity
  8
0
  6
CONTINUOUS
 62
               7
100
AcDbCircle
 10
-4.9999786376953352
 20
-22.399996948242183
 30
0.0
 40
2.0669994354248047
  0
CIRCLE
  5
133
100
AcDbEntity
  8
0
  6
CONTINUOUS
 62
               7
100
AcDbCircle
 10
-10.999978637695335
 20
-14.800006103515628
 30
0.0
 40
2.0669994354248047
  0
CIRCLE
  5
134
100
AcDbEntity
  8
0
  6
CONTINUOUS
 62
               7
100
AcDbCircle
 10
-9.9999786376953352
 20
-4.8000061035156278
 30
0.0
 40
2.0669994354248047
  0
LINE
  5
135
100
AcDbEntity
  8
0
  6
CENTER
 62
               2
100
AcDbLine
 10
-13.5
 20
-4.7999999999999972
 30
0.0
 11
-6.5
 21
-4.7999999999999972
 31
0.0
  0
LINE
  5
136
100
AcDbEntity
  8
0
  6
CENTER
 62
               2
100
AcDbLine
 10
-10.0
 20
-1.2999999999999972
 30
0.0
 11
-10.0
 21
-8.2999999999999972
 31
0.0
  0
LINE
  5
137
100
AcDbEntity
  8
0
  6
CENTER
 62
               2
100
AcDbLine
 10
-14.5
 20
-14.799999999999997
 30
0.0
 11
-7.5
 21
-14.799999999999997
 31
0.0
  0
LINE
  5
138
100
AcDbEntity
  8
0
  6
CENTER
 62
               2
100
AcDbLine
 10
-11.0
 20
-11.299999999999997
 30
0.0
 11
-11.0
 21
-18.299999999999997
 31
0.0
  0
LINE
  5
139
100
AcDbEntity
  8
0
  6
CENTER
 62
               2
100
AcDbLine
 10
-8.5
 20
-22.399999999999999
 30
0.0
 11
-1.5
 21
-22.399999999999999
 31
0.0
  0
LINE
  5
13A
100
AcDbEntity
  8
0
  6
CENTER
 62
               2
100
AcDbLine
 10
-5.0
 20
-18.899999999999999
 30
0.0
 11
-5.0
 21
-25.899999999999999
 31
0.0
  0
LINE
  5
13B
100
AcDbEntity
  8
0
  6
CONTINUOUS
 62
               7
100
AcDbLine
 10
-16.0
 20
-32.299999999999997
 30
0.0
 11
0.0
 21
-32.299999999999997
 31
0.0
  0
LINE
  5
13C
100
AcDbEntity
  8
0
  6
CONTINUOUS
 62
               7
100
AcDbLine
 10
-16.0
 20
2.7000000000000028
 30
0.0
 11
0.0
 21
2.7000000000000028
 31
0.0
  0
LINE
  5
13D
100
AcDbEntity
  8
0
  6
CONTINUOUS
 62
               7
100
AcDbLine
 10
0.0
 20
2.7000000000000028
 30
0.0
 11
0.0
 21
-32.299999999999997
 31
0.0
  0
LINE
  5
13E
100
AcDbEntity
  8
0
  6
CONTINUOUS
 62
               7
100
AcDbLine
 10
-16.0
 20
-32.299999999999997
 30
0.0
 11
-16.0
 21
2.7000000000000028
 31
0.0
  0
LINE
  5
13F
100
AcDbEntity
  8
0
  6
CONTINUOUS
 62
               4
100
AcDbLine
 10
-54.495959550691737
 20
21.654545445199275
 30
0.0
 11
-54.495959550691765
 21
22.95555554546597
 31
0.0
  0
LINE
  5
140
100
AcDbEntity
  8
0
  6
CONTINUOUS
 62
               4
100
AcDbLine
 10
-16.999999976158165
 20
5.2999999999999972
 30
0.0
 11
-33.884848451358096
 21
5.2999999999996987
 31
0.0
  0
LINE
  5
141
100
AcDbEntity
  8
0
  6
CONTINUOUS
 62
               4
100
AcDbLine
 10
-30.999999968158477
 20
24.801010089866438
 30
0.0
 11
-38.494949458825147
 21
24.801010089866338
 31
0.0
  0
LINE
  5
142
100
AcDbEntity
  8
0
  6
CONTINUOUS
 62
               4
100
AcDbLine
 10
-38.996969660558506
 20
24.298989888132937
 30
0.0
 11
-38.99696966055825
 21
7.951515149999679
 31
0.0
  0
LINE
  5
143
100
AcDbEntity
  8
0
  6
CONTINUOUS
 62
               4
100
AcDbLine
 10
-34.098535126585986
 20
5.3469560324803496
 30
0.0
 11
-38.707070670824834
 21
7.4989898977329261
 31
0.0
  0
LINE
  5
144
100
AcDbEntity
  8
0
  6
CONTINUOUS
 62
               4
100
AcDbLine
 10
-46.993939352958392
 20
19.802020193732716
 30
0.0
 11
-46.993939352958478
 21
23.903030292399464
 31
0.0
  0
LINE
  5
145
100
AcDbEntity
  8
0
  6
CONTINUOUS
 62
               4
100
AcDbLine
 10
-40.38989895269188
 20
25.90404039226631
 30
0.0
 11
-45.494949454825246
 21
26.802020189732872
 31
0.0
  0
LINE
  5
146
100
AcDbEntity
  8
0
  6
CONTINUOUS
 62
               4
100
AcDbLine
 10
-46.993939352958506
 20
25.805050493332757
 30
0.0
 11
-46.993939352958535
 21
26.802020189732829
 31
0.0
  0
LINE
  5
147
100
AcDbEntity
  8
0
  6
CONTINUOUS
 62
               4
100
AcDbLine
 10
-39.329292892691853
 20
24.70202019093287
 30
0.0
 11
-45.671717131491846
 21
25.819191907466134
 31
0.0
  0
LINE
  5
148
100
AcDbEntity
  8
0
  6
CONTINUOUS
 62
               4
100
AcDbLine
 10
-37.992929257091873
 20
24.899999988799621
 30
0.0
 11
-32.293939361358497
 21
24.899999988799721
 31
0.0
  0
LINE
  5
149
100
AcDbEntity
  8
0
  6
CONTINUOUS
 62
               4
100
AcDbLine
 10
-46.993939352958478
 20
23.903030292399464
 30
0.0
 11
-46.696969656158501
 21
24.199999989199441
 31
0.0
  0
LINE
  5
14A
100
AcDbEntity
  8
0
  6
CONTINUOUS
 62
               4
100
AcDbLine
 10
-45.996969656558377
 20
19.802020193732758
 30
0.0
 11
-45.996969656558434
 21
20.403030294399471
 31
0.0
  0
LINE
  5
14B
100
AcDbEntity
  8
0
  6
CONTINUOUS
 62
               4
100
AcDbLine
 10
-45.996969656558434
 20
20.403030294399471
 30
0.0
 11
-40.997979760425068
 21
20.403030294399599
 31
0.0
  0
LINE
  5
14C
100
AcDbEntity
  8
0
  6
CONTINUOUS
 62
               4
100
AcDbLine
 10
-40.997979760425039
 20
19.80202019373283
 30
0.0
 11
-40.997979760425068
 21
20.403030294399599
 31
0.0
  0
LINE
  5
14D
100
AcDbEntity
  8
0
  6
CONTINUOUS
 62
               4
100
AcDbLine
 10
-40.495959558691823
 20
23.903030292399578
 30
0.0
 11
-40.792929255491799
 21
24.19999998919954
 31
0.0
  0
LINE
  5
14E
100
AcDbEntity
  8
0
  6
CONTINUOUS
 62
               4
100
AcDbLine
 10
-40.38989895269188
 20
25.90404039226631
 30
0.0
 11
-31.296969664958482
 21
25.904040392266481
 31
0.0
  0
LINE
  5
14F
100
AcDbEntity
  8
0
  6
CONTINUOUS
 62
               4
100
AcDbLine
 10
-32.29393936135844
 20
24.801010089866452
 30
0.0
 11
-32.293939361358497
 21
24.899999988799721
 31
0.0
  0
LINE
  5
150
100
AcDbEntity
  8
0
  6
CONTINUOUS
 62
               4
100
AcDbLine
 10
-51.561616118025057
 20
21.654545445199332
 30
0.0
 11
-46.993939352958421
 21
21.654545445199389
 31
0.0
  0
LINE
  5
151
100
AcDbEntity
  8
0
  6
CONTINUOUS
 62
             200
100
AcDbLine
 10
-50.324242381358488
 20
23.804040393466011
 30
0.0
 11
-52.05656561269177
 21
20.798989890132717
 31
0.0
  0
LINE
  5
152
100
AcDbEntity
  8
0
  6
CONTINUOUS
 62
               4
100
AcDbLine
 10
-50.81212116895847
 20
22.955555545466027
 30
0.0
 11
-46.993939352958449
 21
22.955555545466112
 31
0.0
  0
LINE
  5
153
100
AcDbEntity
  8
0
  6
CONTINUOUS
 62
               4
100
AcDbLine
 10
-46.993939352958535
 20
26.802020189732829
 30
0.0
 11
-45.494949454825246
 21
26.802020189732872
 31
0.0
  0
LINE
  5
154
100
AcDbEntity
  8
0
  6
CONTINUOUS
 62
               4
100
AcDbLine
 10
-46.993939352958506
 20
25.805050493332757
 30
0.0
 11
-45.586868646691812
 21
25.8050504933328
 31
0.0
  0
LINE
  5
155
100
AcDbEntity
  8
0
  6
CONTINUOUS
 62
               4
100
AcDbLine
 10
-46.696969656158501
 20
24.199999989199441
 30
0.0
 11
-40.792929255491799
 21
24.19999998919954
 31
0.0
  0
LINE
  5
156
100
AcDbEntity
  8
0
  6
CONTINUOUS
 62
               4
100
AcDbLine
 10
-46.993939352958478
 20
23.903030292399464
 30
0.0
 11
-39.399999963358539
 21
23.903030292399578
 31
0.0
  0
LINE
  5
157
100
AcDbEntity
  8
0
  6
CONTINUOUS
 62
               4
100
AcDbLine
 10
-46.993939352958449
 20
23.203030292799482
 30
0.0
 11
-38.996969660558477
 21
23.203030292799653
 31
0.0
  0
LINE
  5
158
100
AcDbEntity
  8
0
  6
CONTINUOUS
 62
               4
100
AcDbLine
 10
-46.993939352958421
 20
21.399999990799486
 30
0.0
 11
-38.996969660558449
 21
21.399999990799628
 31
0.0
  0
LINE
  5
159
100
AcDbEntity
  8
0
  6
CONTINUOUS
 62
               4
100
AcDbLine
 10
-38.99696966055842
 20
19.802020193732901
 30
0.0
 11
-40.997979760425039
 21
19.80202019373283
 31
0.0
  0
LINE
  5
15A
100
AcDbEntity
  8
0
  6
CONTINUOUS
 62
               4
100
AcDbLine
 10
-45.996969656558377
 20
19.802020193732758
 30
0.0
 11
-46.993939352958392
 21
19.802020193732716
 31
0.0
  0
LINE
  5
15B
100
AcDbEntity
  8
0
  6
CONTINUOUS
 62
               4
100
AcDbLine
 10
-33.884848451358096
 20
5.2999999999996987
 30
0.0
 11
-33.884848451358437
 21
24.801010089866395
 31
0.0
  0
ARC
  5
15C
100
AcDbEntity
  8
0
  6
CONTINUOUS
 62
               4
100
AcDbCircle
 10
-38.497257337714956
 20
7.9525224605388019
 30
0.0
 40
0.4997133381008656
100
AcDbArc
 50
180.11549557964358
 51
245.17378469019093
  0
ARC
  5
15D
100
AcDbEntity
  8
0
  6
CONTINUOUS
 62
               4
100
AcDbCircle
 10
-38.500332809079822
 20
24.304373238387626
 30
0.0
 40
0.4966660273328702
100
AcDbArc
 50
89.378960363566961
 51
180.62103963643685
  0
ARC
  5
15E
100
AcDbEntity
  8
0
  6
CONTINUOUS
 62
               4
100
AcDbCircle
 10
-31.299431259875945
 20
25.604584129418427
 30
0.0
 40
0.2994663800970315
100
AcDbArc
 50
359.12289923249404
 51
89.529026971536297
  0
ARC
  5
15F
100
AcDbEntity
  8
0
  6
CONTINUOUS
 62
               4
100
AcDbCircle
 10
-37.999912482295684
 20
24.405034325092245
 30
0.0
 40
0.4950149226876426
100
AcDbArc
 50
89.191695875422141
 51
126.87687525883594
  0
ARC
  5
160
100
AcDbEntity
  8
0
  6
CONTINUOUS
 62
               4
100
AcDbCircle
 10
-39.399895894537536
 20
24.305327231604096
 30
0.0
 40
0.4029269013737999
100
AcDbArc
 50
0.1042835857501941
 51
79.908228442604724
  0
ARC
  5
161
100
AcDbEntity
  8
0
  6
CONTINUOUS
 62
               4
100
AcDbCircle
 10
-39.400834007512856
 20
24.306894639353928
 30
0.0
 40
0.403865208170398
100
AcDbArc
 50
270.11832473551408
 51
359.88167526448518
  0
LINE
  5
162
100
AcDbEntity
  8
0
  6
CONTINUOUS
 62
             200
100
AcDbLine
 10
-50.670707027625184
 20
23.804040393466053
 30
0.0
 11
-52.403030258958466
 21
20.806060597199334
 31
0.0
  0
LINE
  5
163
100
AcDbEntity
  8
0
  6
CONTINUOUS
 62
               4
100
AcDbLine
 10
-16.999999976158165
 20
5.2999999999999972
 30
0.0
 11
-16.999999976158563
 21
27.199999999999974
 31
0.0
  0
LINE
  5
164
100
AcDbEntity
  8
0
  6
CONTINUOUS
 62
               4
100
AcDbLine
 10
-18.999999972158491
 20
26.199999999999903
 30
0.0
 11
-30.999999968158505
 21
26.19999999999969
 31
0.0
  0
LINE
  5
165
100
AcDbEntity
  8
0
  6
CONTINUOUS
 62
               4
100
AcDbLine
 10
-18.999999972158491
 20
27.799999999999955
 30
0.0
 11
-18.999999972158491
 21
26.199999999999903
 31
0.0
  0
LINE
  5
166
100
AcDbEntity
  8
0
  6
CONTINUOUS
 62
               4
100
AcDbLine
 10
-17.499999976158534
 20
27.700000000000003
 30
0.0
 11
-18.99999997215852
 21
27.69999999999996
 31
0.0
  0
ARC
  5
167
100
AcDbEntity
  8
0
  6
CONTINUOUS
 62
               4
100
AcDbCircle
 10
-17.499999976158534
 20
27.199999999999946
 30
0.0
 40
0.5
100
AcDbArc
 50
0.0000000000010687
 51
90.000000000000867
  0
LINE
  5
168
100
AcDbEntity
  8
0
  6
CONTINUOUS
 62
               4
100
AcDbLine
 10
-30.999999968158562
 20
27.199999999999719
 30
0.0
 11
-30.999999968158136
 21
5.2999999999997414
 31
0.0
  0
LINE
  5
169
100
AcDbEntity
  8
0
  6
CONTINUOUS
 62
               4
100
AcDbLine
 10
-17.800000062158517
 20
27.799999999999997
 30
0.0
 11
-30.199999882158522
 21
27.79999999999977
 31
0.0
  0
ARC
  5
16A
100
AcDbEntity
  8
0
  6
CONTINUOUS
 62
               4
100
AcDbCircle
 10
-30.49999996815859
 20
27.199999999999747
 30
0.0
 40
0.5
100
AcDbArc
 50
93.919585899651864
 51
180.00000000000065
  0
LINE
  5
16B
100
AcDbEntity
  8
0
  6
CONTINUOUS
 62
               4
100
AcDbLine
 10
-27.299999787122971
 20
27.199999999999775
 30
0.0
 11
-30.999999968158562
 21
27.199999999999719
 31
0.0
  0
ARC
  5
16C
100
AcDbEntity
  8
0
  6
CONTINUOUS
 62
               4
100
AcDbCircle
 10
-30.201087887286803
 20
27.201088005128
 30
0.0
 40
0.598912923125741
100
AcDbArc
 50
89.895914524773801
 51
180.10408547522775
  0
ARC
  5
16D
100
AcDbEntity
  8
0
  6
CONTINUOUS
 62
               4
100
AcDbCircle
 10
-17.799904915509842
 20
27.20009514664865
 30
0.0
 40
0.599904800896587
100
AcDbArc
 50
56.247417870394948
 51
90.009087277547238
  0
LINE
  5
16E
100
AcDbEntity
  8
0
  6
CONTINUOUS
 62
               4
100
AcDbLine
 10
-54.495959550691737
 20
21.654545445199275
 30
0.0
 11
-51.908080764291753
 21
21.654545445199304
 31
0.0
  0
LINE
  5
16F
100
AcDbEntity
  8
0
  6
CONTINUOUS
 62
               4
100
AcDbLine
 10
-54.495959550691765
 20
22.95555554546597
 30
0.0
 11
-51.158585815225166
 21
22.955555545466027
 31
0.0
  0
LINE
  5
170
100
AcDbEntity
  8
0
  6
CONTINUOUS
 62
               7
100
AcDbLine
 10
-30.99999995231633
 20
-23.899999999999999
 30
0.0
 11
-16.99999995231633
 21
-23.899999999999999
 31
0.0
  0
LINE
  5
171
100
AcDbEntity
  8
0
  6
CONTINUOUS
 62
               7
100
AcDbLine
 10
-20.299999964237259
 20
-27.399999999999999
 30
0.0
 11
-16.99999995231633
 21
-27.399999999999999
 31
0.0
  0
LINE
  5
172
100
AcDbEntity
  8
0
  6
CONTINUOUS
 62
               7
100
AcDbLine
 10
-29.999999976158165
 20
-21.199001430615176
 30
0.0
 11
-30.999999976158165
 21
-21.199001430615176
 31
0.0
  0
LINE
  5
173
100
AcDbEntity
  8
0
  6
CONTINUOUS
 62
               7
100
AcDbLine
 10
-29.999999976158165
 20
-17.999001430615188
 30
0.0
 11
-30.999999976158165
 21
-17.999001430615188
 31
0.0
  0
LINE
  5
174
100
AcDbEntity
  8
0
  6
CONTINUOUS
 62
               7
100
AcDbLine
 10
-32.547999976158167
 20
1.8999999999999915
 30
0.0
 11
-32.099999976158188
 21
1.8999999999999915
 31
0.0
  0
LINE
  5
175
100
AcDbEntity
  8
0
  6
CONTINUOUS
 62
               7
100
AcDbLine
 10
-32.547999976158167
 20
4.1000000000000369
 30
0.0
 11
-32.099999976158188
 21
4.1000000000000369
 31
0.0
  0
LINE
  5
176
100
AcDbEntity
  8
0
  6
CONTINUOUS
 62
               7
100
AcDbLine
 10
-32.547999976158167
 20
1.8999999999999915
 30
0.0
 11
-32.547999976158167
 21
4.1000000000000369
 31
0.0
  0
LINE
  5
177
100
AcDbEntity
  8
0
  6
CONTINUOUS
 62
               7
100
AcDbLine
 10
-30.999999976158222
 20
-1.7999999999999972
 30
0.0
 11
-32.099999976158188
 21
-0.7000000000000028
 31
0.0
  0
LINE
  5
178
100
AcDbEntity
  8
0
  6
CONTINUOUS
 62
               7
100
AcDbLine
 10
-32.099999976158188
 20
-0.7000000000000028
 30
0.0
 11
-32.099999976158188
 21
5.2999999999999403
 31
0.0
  0
LINE
  5
179
100
AcDbEntity
  8
0
  6
CONTINUOUS
 62
               7
100
AcDbLine
 10
-31.00003850088882
 20
5.7999999985157871
 30
0.0
 11
-30.999999976158165
 21
5.2999999999999972
 31
0.0
  0
LINE
  5
17A
100
AcDbEntity
  8
0
  6
CONTINUOUS
 62
               7
100
AcDbLine
 10
-30.999999976158165
 20
5.2999999999999972
 30
0.0
 11
-30.999999976158165
 21
-28.499999999999993
 31
0.0
  0
LINE
  5
17B
100
AcDbEntity
  8
0
  6
CONTINUOUS
 62
               7
100
AcDbLine
 10
-16.999999976158165
 20
-5.7000000000000028
 30
0.0
 11
-30.999999976158165
 21
-5.7000000000000028
 31
0.0
  0
LINE
  5
17C
100
AcDbEntity
  8
0
  6
CONTINUOUS
 62
               7
100
AcDbLine
 10
-29.999999976158165
 20
-17.999001430615188
 30
0.0
 11
-29.999999976158165
 21
-21.199001430615176
 31
0.0
  0
LINE
  5
17D
100
AcDbEntity
  8
0
  6
CONTINUOUS
 62
               7
100
AcDbLine
 10
-30.599999976158188
 20
-28.899999999999999
 30
0.0
 11
-17.399999976158199
 21
-28.899999999999999
 31
0.0
  0
LINE
  5
17E
100
AcDbEntity
  8
0
  6
CONTINUOUS
 62
               7
100
AcDbLine
 10
-20.499999976158165
 20
-27.599999999999994
 30
0.0
 11
-20.499999976158165
 21
-28.699999999999996
 31
0.0
  0
LINE
  5
17F
100
AcDbEntity
  8
0
  6
CONTINUOUS
 62
               7
100
AcDbLine
 10
-20.449999976158153
 20
-27.929999999999993
 30
0.0
 11
-20.449999976158153
 21
-27.459999999999994
 31
0.0
  0
ARC
  5
180
100
AcDbEntity
  8
0
  6
CONTINUOUS
 62
               7
100
AcDbCircle
 10
-18.704999976158206
 20
-25.499981271273313
 30
0.0
 40
3.1971597169667145
100
AcDbArc
 50
241.51127142001724
 51
298.48872857998202
  0
ARC
  5
181
100
AcDbEntity
  8
0
  6
CONTINUOUS
 62
               7
100
AcDbCircle
 10
-20.699989295477337
 20
-28.700010680680855
 30
0.0
 40
0.1999893196043432
100
AcDbArc
 50
269.99694004691679
 51
0.0030599530887399
  0
ARC
  5
182
100
AcDbEntity
  8
0
  6
CONTINUOUS
 62
               7
100
AcDbCircle
 10
-20.299995398049987
 20
-27.600004578108198
 30
0.0
 40
0.2000045781606
100
AcDbArc
 50
90.001311501357506
 51
179.99868849862943
  0
ARC
  5
183
100
AcDbEntity
  8
0
  6
CONTINUOUS
 62
               7
100
AcDbCircle
 10
-20.023563967371388
 20
-27.936800205439219
 30
0.0
 40
0.4264902254261231
100
AcDbArc
 50
179.08640442595285
 51
241.0507612177737
  0
ARC
  5
184
100
AcDbEntity
  8
0
  6
CONTINUOUS
 62
               7
100
AcDbCircle
 10
-17.374706615486957
 20
-27.935293360671231
 30
0.0
 40
0.4222744853241268
100
AcDbArc
 50
297.45748041710277
 51
332.54251958289433
  0
ARC
  5
185
100
AcDbEntity
  8
0
  6
CONTINUOUS
 62
               7
100
AcDbCircle
 10
-17.39999387321302
 20
-28.500006102945186
 30
0.0
 40
0.3999938971013656
100
AcDbArc
 50
269.99912580415821
 51
0.0008741958432351
  0
ARC
  5
186
100
AcDbEntity
  8
0
  6
CONTINUOUS
 62
               7
100
AcDbCircle
 10
-30.599984717369125
 20
-28.49998474121093
 30
0.0
 40
0.4000152590800927
100
AcDbArc
 50
180.00218557716028
 51
269.99781442283921
  0
LINE
  5
187
100
AcDbEntity
  8
0
  6
CONTINUOUS
 62
               7
100
AcDbLine
 10
-16.999999976158165
 20
5.2999999999999972
 30
0.0
 11
-16.999978637695335
 21
-30.100006103515625
 31
0.0
  0
LINE
  5
188
100
AcDbEntity
  8
0
  6
CONTINUOUS
 62
               7
100
AcDbLine
 10
-30.599999976158159
 20
-18.5
 30
0.0
 11
-30.599999976158159
 21
-20.700000000000003
 31
0.0
  0
ARC
  5
189
100
AcDbEntity
  8
0
  6
CONTINUOUS
 62
               7
100
AcDbCircle
 10
-30.199999976158153
 20
-20.700000000000003
 30
0.0
 40
0.4
100
AcDbArc
 50
179.99999999999963
 51
269.99999999999937
  0
LINE
  5
18A
100
AcDbEntity
  8
0
  6
CONTINUOUS
 62
               7
100
AcDbLine
 10
-30.199999976158153
 20
-21.099999999999994
 30
0.0
 11
-29.999999976158165
 21
-21.099999999999994
 31
0.0
  0
ARC
  5
18B
100
AcDbEntity
  8
0
  6
CONTINUOUS
 62
               7
100
AcDbCircle
 10
-30.199999976158153
 20
-18.5
 30
0.0
 40
0.4
100
AcDbArc
 50
89.999999999999815
 51
179.99999999999963
  0
LINE
  5
18C
100
AcDbEntity
  8
0
  6
CONTINUOUS
 62
               7
100
AcDbLine
 10
-30.199999976158153
 20
-18.099999999999994
 30
0.0
 11
-29.999999976158165
 21
-18.099999999999994
 31
0.0
  0
LINE
  5
18D
100
AcDbEntity
  8
0
  6
CONTINUOUS
 62
               4
100
AcDbLine
 10
-54.495959550691751
 20
22.554233112520095
 30
0.0
 11
-57.995959550691808
 21
22.554233112519952
 31
0.0
  0
LINE
  5
18E
100
AcDbEntity
  8
0
  6
CONTINUOUS
 62
               4
100
AcDbLine
 10
-57.995959550691808
 20
22.554233112519952
 30
0.0
 11
-57.995959550691808
 21
22.054233112519952
 31
0.0
  0
LINE
  5
18F
100
AcDbEntity
  8
0
  6
CONTINUOUS
 62
               4
100
AcDbLine
 10
-54.495959550691751
 20
22.054233112520095
 30
0.0
 11
-57.995959550691808
 21
22.054233112519952
 31
0.0
  0
ENDBLK
  5
190
100
AcDbEntity
  8
0
100
AcDbBlockEnd
  0
BLOCK
  5
191
100
AcDbEntity
  8
0
100
AcDbBlockBegin
  2
EA10A5-4
 70
               0
 10
0.0
 20
0.0
 30
0.0
  3
EA10A5-4
  1

  0
LINE
  5
192
100
AcDbEntity
  8
0
  6
PHANTOM
 62
             200
100
AcDbLine
 10
16.200000000000017
 20
-18.399999999999991
 30
0.0
 11
16.200000000000017
 21
-26.399999999999991
 31
0.0
  0
LINE
  5
193
100
AcDbEntity
  8
0
  6
PHANTOM
 62
             200
100
AcDbLine
 10
14.200000000000017
 20
-18.399999999999991
 30
0.0
 11
14.200000000000017
 21
-26.399999999999991
 31
0.0
  0
LINE
  5
194
100
AcDbEntity
  8
0
  6
PHANTOM
 62
             200
100
AcDbLine
 10
16.700000000000017
 20
-18.899999999999991
 30
0.0
 11
16.700000000000017
 21
-25.899999999999991
 31
0.0
  0
ARC
  5
195
100
AcDbEntity
  8
0
  6
PHANTOM
 62
             200
100
AcDbCircle
 10
16.200000000000017
 20
-25.899999999999991
 30
0.0
 40
0.5
100
AcDbArc
 50
269.99999999999937
 51
0.0
  0
ARC
  5
196
100
AcDbEntity
  8
0
  6
PHANTOM
 62
             200
100
AcDbCircle
 10
16.200000000000017
 20
-18.899999999999991
 30
0.0
 40
0.5
100
AcDbArc
 50
0.0
 51
89.999999999999815
  0
ARC
  5
197
100
AcDbEntity
  8
0
  6
PHANTOM
 62
             200
100
AcDbCircle
 10
16.200000000000017
 20
-1.2999999999999972
 30
0.0
 40
0.5
100
AcDbArc
 50
0.0
 51
89.999999999999815
  0
ARC
  5
198
100
AcDbEntity
  8
0
  6
PHANTOM
 62
             200
100
AcDbCircle
 10
16.200000000000017
 20
-8.2999999999999972
 30
0.0
 40
0.5
100
AcDbArc
 50
269.99999999999937
 51
0.0
  0
LINE
  5
199
100
AcDbEntity
  8
0
  6
PHANTOM
 62
             200
100
AcDbLine
 10
16.700000000000017
 20
-1.2999999999999972
 30
0.0
 11
16.700000000000017
 21
-8.2999999999999972
 31
0.0
  0
LINE
  5
19A
100
AcDbEntity
  8
0
  6
PHANTOM
 62
             200
100
AcDbLine
 10
14.200000000000017
 20
-0.7999999999999972
 30
0.0
 11
14.200000000000017
 21
-8.7999999999999972
 31
0.0
  0
LINE
  5
19B
100
AcDbEntity
  8
0
  6
PHANTOM
 62
             200
100
AcDbLine
 10
16.200000000000017
 20
-0.7999999999999972
 30
0.0
 11
16.200000000000017
 21
-8.7999999999999972
 31
0.0
  0
LINE
  5
19C
100
AcDbEntity
  8
0
  6
PHANTOM
 62
             200
100
AcDbLine
 10
2.6999999999999886
 20
-8.7999999999999972
 30
0.0
 11
16.200000000000017
 21
-8.7999999999999972
 31
0.0
  0
LINE
  5
19D
100
AcDbEntity
  8
0
  6
PHANTOM
 62
             200
100
AcDbLine
 10
2.6999999999999886
 20
-0.7999999999999972
 30
0.0
 11
16.200000000000017
 21
-0.7999999999999972
 31
0.0
  0
LINE
  5
19E
100
AcDbEntity
  8
0
  6
CENTER
 62
               2
100
AcDbLine
 10
0.2162062056379739
 20
-4.7999999999999972
 30
0.0
 11
17.830000000000013
 21
-4.7999999999999972
 31
0.0
  0
LINE
  5
19F
100
AcDbEntity
  8
0
  6
PHANTOM
 62
             200
100
AcDbLine
 10
2.6999999999999886
 20
-26.399999999999991
 30
0.0
 11
16.200000000000017
 21
-26.399999999999991
 31
0.0
  0
LINE
  5
1A0
100
AcDbEntity
  8
0
  6
PHANTOM
 62
             200
100
AcDbLine
 10
2.6999999999999886
 20
-18.399999999999991
 30
0.0
 11
16.200000000000017
 21
-18.399999999999991
 31
0.0
  0
LINE
  5
1A1
100
AcDbEntity
  8
0
  6
CENTER
 62
               2
100
AcDbLine
 10
0.2162062056379739
 20
-22.399999999999991
 30
0.0
 11
17.830000000000013
 21
-22.399999999999991
 31
0.0
  0
LINE
  5
1A2
100
AcDbEntity
  8
0
  6
CONTINUOUS
 62
               7
100
AcDbLine
 10
-14.300000000000011
 20
2.7000000000000028
 30
0.0
 11
-13.300000000000011
 21
2.7000000000000028
 31
0.0
  0
LINE
  5
1A3
100
AcDbEntity
  8
0
  6
CONTINUOUS
 62
               7
100
AcDbLine
 10
-14.300000000000011
 20
-32.299999999999997
 30
0.0
 11
-14.300000000000011
 21
2.7000000000000028
 31
0.0
  0
LINE
  5
1A4
100
AcDbEntity
  8
0
  6
CONTINUOUS
 62
               7
100
AcDbLine
 10
-4.6000000000000227
 20
-17.999001430615195
 30
0.0
 11
-3.3000000000000114
 21
-17.999001430615195
 31
0.0
  0
LINE
  5
1A5
100
AcDbEntity
  8
0
  6
CONTINUOUS
 62
               7
100
AcDbLine
 10
-4.6000000000000227
 20
-21.199001430615183
 30
0.0
 11
-3.3000000000000114
 21
-21.199001430615183
 31
0.0
  0
LINE
  5
1A6
100
AcDbEntity
  8
0
  6
CONTINUOUS
 62
               7
100
AcDbLine
 10
-12.0
 20
-8.3990014306152005
 30
0.0
 11
-13.300000000000011
 21
-8.3990014306152005
 31
0.0
  0
LINE
  5
1A7
100
AcDbEntity
  8
0
  6
CONTINUOUS
 62
               7
100
AcDbLine
 10
-12.0
 20
-11.599001430615218
 30
0.0
 11
-13.300000000000011
 21
-11.599001430615218
 31
0.0
  0
ARC
  5
1A8
100
AcDbEntity
  8
0
  6
CONTINUOUS
 62
               7
100
AcDbCircle
 10
-4.6000000000000227
 20
-19.599001430615189
 30
0.0
 40
1.6000000000000001
100
AcDbArc
 50
89.999999999999815
 51
269.99999999999937
  0
ARC
  5
1A9
100
AcDbEntity
  8
0
  6
CONTINUOUS
 62
               7
100
AcDbCircle
 10
-12.0
 20
-9.9990014306152233
 30
0.0
 40
1.6000000000000001
100
AcDbArc
 50
269.99999999999937
 51
89.999999999999801
  0
LINE
  5
1AA
100
AcDbEntity
  8
0
  6
CONTINUOUS
 62
               7
100
AcDbLine
 10
2.6999999999999886
 20
2.7000000000000028
 30
0.0
 11
2.6999999999999886
 21
-32.299999999999997
 31
0.0
  0
LINE
  5
1AB
100
AcDbEntity
  8
0
  6
CENTER
 62
               2
100
AcDbLine
 10
0.0
 20
2.5
 30
0.0
 11
0.0
 21
-2.5
 31
0.0
  0
LINE
  5
1AC
100
AcDbEntity
  8
0
  6
CENTER
 62
               2
100
AcDbLine
 10
0.0
 20
-27.099999999999994
 30
0.0
 11
0.0
 21
-32.099999999999994
 31
0.0
  0
CIRCLE
  5
1AD
100
AcDbEntity
  8
0
  6
CONTINUOUS
 62
               7
100
AcDbCircle
 10
0.0000183105468636
 20
-29.599993896484378
 30
0.0
 40
1.5499992370605469
  0
CIRCLE
  5
1AE
100
AcDbEntity
  8
0
  6
CONTINUOUS
 62
               7
100
AcDbCircle
 10
0.0000183105468636
 20
-0.0000030517578153
 30
0.0
 40
1.5499992370605469
  0
LINE
  5
1AF
100
AcDbEntity
  8
0
  6
CENTER
 62
               2
100
AcDbLine
 10
-2.5
 20
-29.599999999999994
 30
0.0
 11
2.5
 21
-29.599999999999994
 31
0.0
  0
LINE
  5
1B0
100
AcDbEntity
  8
0
  6
CENTER
 62
               2
100
AcDbLine
 10
-2.5
 20
0.0
 30
0.0
 11
2.5
 21
0.0
 31
0.0
  0
LINE
  5
1B1
100
AcDbEntity
  8
0
  6
CONTINUOUS
 62
               7
100
AcDbLine
 10
-3.3000000000000114
 20
2.7000000000000028
 30
0.0
 11
2.6999999999999886
 21
2.7000000000000028
 31
0.0
  0
LINE
  5
1B2
100
AcDbEntity
  8
0
  6
CONTINUOUS
 62
               7
100
AcDbLine
 10
-14.300000000000011
 20
-32.299999999999997
 30
0.0
 11
2.6999999999999886
 21
-32.299999999999997
 31
0.0
  0
ARC
  5
1B3
100
AcDbEntity
  8
0
  6
CONTINUOUS
 62
               7
100
AcDbCircle
 10
-12.709446031890934
 20
-27.630750161962126
 30
0.0
 40
0.6105564724372722
100
AcDbArc
 50
179.83589550320582
 51
253.77907243150949
  0
LINE
  5
1B4
100
AcDbEntity
  8
0
  6
CONTINUOUS
 62
               7
100
AcDbLine
 10
-3.5
 20
-28.899001430615172
 30
0.0
 11
-13.100000000000023
 21
-28.899001430615172
 31
0.0
  0
LINE
  5
1B5
100
AcDbEntity
  8
0
  6
CONTINUOUS
 62
               7
100
AcDbLine
 10
-13.319999999999993
 20
-27.099001430615161
 30
0.0
 11
-9.8000000000000114
 21
-27.099001430615161
 31
0.0
  0
ARC
  5
1B6
100
AcDbEntity
  8
0
  6
CONTINUOUS
 62
               7
100
AcDbCircle
 10
-13.000895136858901
 20
-26.79989656747405
 30
0.0
 40
0.2991062025847394
100
AcDbArc
 50
179.82853033398985
 51
270.17146966600922
  0
ARC
  5
1B7
100
AcDbEntity
  8
0
  6
CONTINUOUS
 62
               7
100
AcDbCircle
 10
-13.100000000000023
 20
-28.699001430615183
 30
0.0
 40
0.2
100
AcDbArc
 50
179.99999999999963
 51
269.99999999999937
  0
LINE
  5
1B8
100
AcDbEntity
  8
0
  6
CONTINUOUS
 62
               7
100
AcDbLine
 10
-9.8000000000000114
 20
-28.899001430615172
 30
0.0
 11
-9.8000000000000114
 21
-27.099001430615161
 31
0.0
  0
ARC
  5
1B9
100
AcDbEntity
  8
0
  6
CONTINUOUS
 62
               7
100
AcDbCircle
 10
-11.600000000000023
 20
-23.811580193881198
 30
0.0
 40
4.5876068132596712
100
AcDbArc
 50
253.79871892415684
 51
286.20128107584191
  0
ARC
  5
1BA
100
AcDbEntity
  8
0
  6
CONTINUOUS
 62
               7
100
AcDbCircle
 10
-10.491771995833915
 20
-27.629838712644172
 30
0.0
 40
0.6117725687931934
100
AcDbArc
 50
286.30661609184898
 51
0.0784159734340139
  0
LINE
  5
1BB
100
AcDbEntity
  8
0
  6
CONTINUOUS
 62
               7
100
AcDbLine
 10
-9.8799999999999955
 20
-27.629001430615133
 30
0.0
 11
-9.8799999999999955
 21
-27.099001430615161
 31
0.0
  0
LINE
  5
1BC
100
AcDbEntity
  8
0
  6
CONTINUOUS
 62
               7
100
AcDbLine
 10
-13.300000000000011
 20
-28.699001430615183
 30
0.0
 11
-13.300000000000011
 21
-27.785750861269221
 31
0.0
  0
LINE
  5
1BD
100
AcDbEntity
  8
0
  6
CONTINUOUS
 62
               7
100
AcDbLine
 10
-13.319999999999993
 20
-27.629001430615133
 30
0.0
 11
-13.319999999999993
 21
-27.099001430615161
 31
0.0
  0
ARC
  5
1BE
100
AcDbEntity
  8
0
  6
CONTINUOUS
 62
               7
100
AcDbCircle
 10
-3.5
 20
-28.699001430615183
 30
0.0
 40
0.2
100
AcDbArc
 50
269.99999999999937
 51
0.0
  0
LINE
  5
1BF
100
AcDbEntity
  8
0
  6
CONTINUOUS
 62
               7
100
AcDbLine
 10
-3.3000000000000114
 20
-23.899001430615172
 30
0.0
 11
-13.300000000000011
 21
-23.899001430615172
 31
0.0
  0
LINE
  5
1C0
100
AcDbEntity
  8
0
  6
CONTINUOUS
 62
               7
100
AcDbLine
 10
-3.3000000000000114
 20
-28.699001430615183
 30
0.0
 11
-3.3000000000000114
 21
-20.346334338585123
 31
0.0
  0
LINE
  5
1C1
100
AcDbEntity
  8
0
  6
CONTINUOUS
 62
               7
100
AcDbLine
 10
-13.300000000000011
 20
-27.099001430615161
 30
0.0
 11
-13.300000000000011
 21
-10.747332907969948
 31
0.0
  0
LINE
  5
1C2
100
AcDbEntity
  8
0
  6
CONTINUOUS
 62
               7
100
AcDbLine
 10
-3.3000000000000114
 20
-5.6990014306151835
 30
0.0
 11
-13.300000000000011
 21
-5.6990014306151835
 31
0.0
  0
CIRCLE
  5
1C3
100
AcDbEntity
  8
0
  6
CONTINUOUS
 62
               7
100
AcDbCircle
 10
-8.3000000000000114
 20
3.0009985693848336
 30
0.0
 40
0.75
  0
CIRCLE
  5
1C4
100
AcDbEntity
  8
0
  6
CONTINUOUS
 62
               7
100
AcDbCircle
 10
-8.3000000000000114
 20
3.0009985693848336
 30
0.0
 40
1.1000000000000001
  0
CIRCLE
  5
1C5
100
AcDbEntity
  8
0
  6
CONTINUOUS
 62
               7
100
AcDbCircle
 10
-8.3000000000000114
 20
3.0009985693848336
 30
0.0
 40
1.1500000000000001
  0
CIRCLE
  5
1C6
100
AcDbEntity
  8
0
  6
CONTINUOUS
 62
               7
100
AcDbCircle
 10
-8.3000000000000114
 20
3.0009985693848336
 30
0.0
 40
1.3000000000000012
  0
LINE
  5
1C7
100
AcDbEntity
  8
0
  6
CENTER
 62
               2
100
AcDbLine
 10
-6.6000000000000227
 20
3.0009985693848336
 30
0.0
 11
-10.0
 21
3.0009985693848336
 31
0.0
  0
ARC
  5
1C8
100
AcDbEntity
  8
0
  6
CONTINUOUS
 62
               7
100
AcDbCircle
 10
-8.3000000000000114
 20
1.3009985693848165
 30
0.0
 40
2.0
100
AcDbArc
 50
179.99999999999963
 51
0.0
  0
LINE
  5
1C9
100
AcDbEntity
  8
0
  6
CONTINUOUS
 62
               7
100
AcDbLine
 10
-6.3000000000000114
 20
1.3009985693848165
 30
0.0
 11
-6.3000000000000114
 21
5.3009985693848165
 31
0.0
  0
LINE
  5
1CA
100
AcDbEntity
  8
0
  6
CONTINUOUS
 62
               7
100
AcDbLine
 10
-10.300000000000011
 20
1.3009985693848165
 30
0.0
 11
-10.300000000000011
 21
5.3009985693848165
 31
0.0
  0
LINE
  5
1CB
100
AcDbEntity
  8
0
  6
CONTINUOUS
 62
               7
100
AcDbLine
 10
-3.3000000000000114
 20
-5.6990014306151835
 30
0.0
 11
-3.3000000000000114
 21
5.3009985693848165
 31
0.0
  0
LINE
  5
1CC
100
AcDbEntity
  8
0
  6
CONTINUOUS
 62
               7
100
AcDbLine
 10
-13.300000000000011
 20
-5.6990014306151835
 30
0.0
 11
-13.300000000000011
 21
5.3009985693848165
 31
0.0
  0
LINE
  5
1CD
100
AcDbEntity
  8
0
  6
CENTER
 62
               2
100
AcDbLine
 10
-6.9699999999999989
 20
3.0
 30
0.0
 11
-9.6399999999999864
 21
3.0
 31
0.0
  0
CIRCLE
  5
1CE
100
AcDbEntity
  8
0
  6
CONTINUOUS
 62
               7
100
AcDbCircle
 10
-4.6000000000000227
 20
-19.598002861230356
 30
0.0
 40
1.5
  0
LINE
  5
1CF
100
AcDbEntity
  8
0
  6
CONTINUOUS
 62
               7
100
AcDbLine
 10
-3.8928932188135263
 20
-20.3061082118017
 30
0.0
 11
-5.307106781186576
 21
-18.891894649428608
 31
0.0
  0
LINE
  5
1D0
100
AcDbEntity
  8
0
  6
CONTINUOUS
 62
               7
100
AcDbLine
 10
-5.307106781186576
 20
-20.3061082118017
 30
0.0
 11
-3.8928932188134695
 21
-18.891894649428608
 31
0.0
  0
CIRCLE
  5
1D1
100
AcDbEntity
  8
0
  6
CONTINUOUS
 62
               7
100
AcDbCircle
 10
-12.0
 20
-9.9990014306151807
 30
0.0
 40
1.5
  0
LINE
  5
1D2
100
AcDbEntity
  8
0
  6
CONTINUOUS
 62
               7
100
AcDbLine
 10
-11.292893218813504
 20
-10.707106781186525
 30
0.0
 11
-12.707106781186553
 21
-9.2928932188134326
 31
0.0
  0
LINE
  5
1D3
100
AcDbEntity
  8
0
  6
CONTINUOUS
 62
               7
100
AcDbLine
 10
-12.707106781186553
 20
-10.707106781186525
 30
0.0
 11
-11.292893218813447
 21
-9.2928932188134326
 31
0.0
  0
LINE
  5
1D4
100
AcDbEntity
  8
0
  6
CONTINUOUS
 62
               7
100
AcDbLine
 10
-3.3000000000000114
 20
-18.849671383875588
 30
0.0
 11
-3.3000000000000114
 21
-5.6990014306151835
 31
0.0
  0
LINE
  5
1D5
100
AcDbEntity
  8
0
  6
CONTINUOUS
 62
               7
100
AcDbLine
 10
-13.300000000000011
 20
-9.2506699532604131
 30
0.0
 11
-13.300000000000011
 21
-5.6990014306151835
 31
0.0
  0
ARC
  5
1D6
100
AcDbEntity
  8
0
  6
CONTINUOUS
 62
               7
100
AcDbCircle
 10
-8.3000000000000114
 20
1.3009985693848165
 30
0.0
 40
3.090998569384837
100
AcDbArc
 50
179.99999999999963
 51
0.0
  0
LINE
  5
1D7
100
AcDbEntity
  8
0
  6
CONTINUOUS
 62
               7
100
AcDbLine
 10
-5.2090014306151602
 20
1.3009985693848165
 30
0.0
 11
-5.2090014306151602
 21
5.3009985693848165
 31
0.0
  0
LINE
  5
1D8
100
AcDbEntity
  8
0
  6
CONTINUOUS
 62
               7
100
AcDbLine
 10
-11.390998569384834
 20
1.3009985693848165
 30
0.0
 11
-11.390998569384834
 21
5.3009985693848165
 31
0.0
  0
LINE
  5
1D9
100
AcDbEntity
  8
0
  6
CONTINUOUS
 62
               4
100
AcDbLine
 10
-7.300018310546875
 20
43.793927840318176
 30
0.0
 11
-6.800018310546875
 21
43.793927840318176
 31
0.0
  0
LINE
  5
1DA
100
AcDbEntity
  8
0
  6
CONTINUOUS
 62
               4
100
AcDbLine
 10
-9.800018310546875
 20
43.793927840318176
 30
0.0
 11
-9.300018310546875
 21
43.793927840318176
 31
0.0
  0
ARC
  5
1DB
100
AcDbEntity
  8
0
  6
CONTINUOUS
 62
               4
100
AcDbCircle
 10
-3.7997031521358053
 20
5.8007017215206105
 30
0.0
 40
0.4997032403068001
100
AcDbArc
 50
269.96596353714654
 51
0.0340364628527164
  0
LINE
  5
1DC
100
AcDbEntity
  8
0
  6
CONTINUOUS
 62
               4
100
AcDbLine
 10
-13.300000000000011
 20
5.3009985693848165
 30
0.0
 11
-3.3000000000000114
 21
5.3009985693848165
 31
0.0
  0
LINE
  5
1DD
100
AcDbEntity
  8
0
  6
CONTINUOUS
 62
               4
100
AcDbLine
 10
-3.3000000000000114
 20
27.800998569384817
 30
0.0
 11
-3.3000000000000114
 21
5.3009985693848165
 31
0.0
  0
LINE
  5
1DE
100
AcDbEntity
  8
0
  6
CONTINUOUS
 62
               4
100
AcDbLine
 10
-13.299999970910847
 20
27.800998573654184
 30
0.0
 11
-12.050018310546875
 21
27.800998573654184
 31
0.0
  0
ARC
  5
1DF
100
AcDbEntity
  8
0
  6
CONTINUOUS
 62
               4
100
AcDbCircle
 10
-4.0959048533418354
 20
27.201093720312358
 30
0.0
 40
0.5999048608870732
100
AcDbArc
 50
359.99091272245295
 51
90.009087277546172
  0
ARC
  5
1E0
100
AcDbEntity
  8
0
  6
CONTINUOUS
 62
               4
100
AcDbCircle
 10
-12.800000000000011
 20
27.200998573654161
 30
0.0
 40
0.5
100
AcDbArc
 50
89.999999999999815
 51
179.99999999999963
  0
LINE
  5
1E1
100
AcDbEntity
  8
0
  6
CONTINUOUS
 62
               4
100
AcDbLine
 10
-12.050018310546875
 20
27.700998573654161
 30
0.0
 11
-12.800000000000011
 21
27.700998573654161
 31
0.0
  0
LINE
  5
1E2
100
AcDbEntity
  8
0
  6
CONTINUOUS
 62
               4
100
AcDbLine
 10
-3.3000000000000114
 20
26.200998573654161
 30
0.0
 11
-4.550018310546875
 21
26.200998573654161
 31
0.0
  0
LINE
  5
1E3
100
AcDbEntity
  8
0
  6
CONTINUOUS
 62
               4
100
AcDbLine
 10
-3.3000000000000114
 20
27.800998573654184
 30
0.0
 11
-4.550018310546875
 21
27.800998573654184
 31
0.0
  0
LINE
  5
1E4
100
AcDbEntity
  8
0
  6
CONTINUOUS
 62
               4
100
AcDbLine
 10
-3.3000000000000114
 20
27.200998573654161
 30
0.0
 11
-4.550018310546875
 21
27.200998573654161
 31
0.0
  0
LINE
  5
1E5
100
AcDbEntity
  8
0
  6
CONTINUOUS
 62
               4
100
AcDbLine
 10
-13.300000000000011
 20
27.800998573654184
 30
0.0
 11
-13.300000000000011
 21
5.3009985693848165
 31
0.0
  0
LINE
  5
1E6
100
AcDbEntity
  8
0
  6
CONTINUOUS
 62
               4
100
AcDbLine
 10
-13.300018310546875
 20
24.800998569384703
 30
0.0
 11
-12.800018310546875
 21
24.800998569384703
 31
0.0
  0
LINE
  5
1E7
100
AcDbEntity
  8
0
  6
CONTINUOUS
 62
               4
100
AcDbLine
 10
-12.800018310546875
 20
24.800998569384703
 30
0.0
 11
-11.050018310546875
 21
24.800998569384703
 31
0.0
  0
LINE
  5
1E8
100
AcDbEntity
  8
0
  6
CONTINUOUS
 62
               4
100
AcDbLine
 10
-3.5300183105468932
 20
24.300998569384703
 30
0.0
 11
-3.5300183105468932
 21
7.992917760038651
 31
0.0
  0
LINE
  5
1E9
100
AcDbEntity
  8
0
  6
CONTINUOUS
 62
               4
100
AcDbLine
 10
-13.070018310546914
 20
24.300998569384703
 30
0.0
 11
-13.070018310546914
 21
7.9929177600579493
 31
0.0
  0
LINE
  5
1EA
100
AcDbEntity
  8
0
  6
CONTINUOUS
 62
               4
100
AcDbLine
 10
-12.570018310546914
 20
7.4929177600542261
 30
0.0
 11
-4.0300183105468932
 21
7.4929177600542261
 31
0.0
  0
LINE
  5
1EB
100
AcDbEntity
  8
0
  6
CONTINUOUS
 62
               4
100
AcDbLine
 10
-3.800018310546875
 20
24.800998569384703
 30
0.0
 11
-3.300018310546875
 21
24.800998569384703
 31
0.0
  0
LINE
  5
1EC
100
AcDbEntity
  8
0
  6
CONTINUOUS
 62
               4
100
AcDbLine
 10
-11.050018310546875
 20
16.800998569384703
 30
0.0
 11
-5.550018310546875
 21
16.800998569384703
 31
0.0
  0
LINE
  5
1ED
100
AcDbEntity
  8
0
  6
CONTINUOUS
 62
               4
100
AcDbLine
 10
-5.550018310546875
 20
24.800998569384703
 30
0.0
 11
-3.800018310546875
 21
24.800998569384703
 31
0.0
  0
LINE
  5
1EE
100
AcDbEntity
  8
0
  6
CONTINUOUS
 62
               4
100
AcDbLine
 10
-11.050018310546875
 20
32.800998569384703
 30
0.0
 11
-11.050018310546875
 21
16.800998569384703
 31
0.0
  0
LINE
  5
1EF
100
AcDbEntity
  8
0
  6
CONTINUOUS
 62
               4
100
AcDbLine
 10
-12.050018310546875
 20
32.800998569384703
 30
0.0
 11
-12.050018310546875
 21
24.800998569384703
 31
0.0
  0
LINE
  5
1F0
100
AcDbEntity
  8
0
  6
CONTINUOUS
 62
               4
100
AcDbLine
 10
-11.050018310546875
 20
31.300998569384703
 30
0.0
 11
-5.550018310546875
 21
31.300998569384703
 31
0.0
  0
LINE
  5
1F1
100
AcDbEntity
  8
0
  6
CONTINUOUS
 62
               4
100
AcDbLine
 10
-5.550018310546875
 20
32.800998569384703
 30
0.0
 11
-5.550018310546875
 21
16.800998569384703
 31
0.0
  0
LINE
  5
1F2
100
AcDbEntity
  8
0
  6
CONTINUOUS
 62
               4
100
AcDbLine
 10
-4.550018310546875
 20
32.800998569384703
 30
0.0
 11
-4.550018310546875
 21
24.800998569384703
 31
0.0
  0
LINE
  5
1F3
100
AcDbEntity
  8
0
  6
CONTINUOUS
 62
               4
100
AcDbLine
 10
-12.050018310546875
 20
32.800998569384703
 30
0.0
 11
-4.550018310546875
 21
32.800998569384703
 31
0.0
  0
ARC
  5
1F4
100
AcDbEntity
  8
0
  6
CONTINUOUS
 62
               4
100
AcDbCircle
 10
-12.568830026641649
 20
7.9941060439594906
 30
0.0
 40
0.5011896925741138
100
AcDbArc
 50
180.13584420715239
 51
269.86415579284636
  0
ARC
  5
1F5
100
AcDbEntity
  8
0
  6
CONTINUOUS
 62
               4
100
AcDbCircle
 10
-4.0312218166586149
 20
7.9941212661659762
 30
0.0
 40
0.5012049510586274
100
AcDbArc
 50
270.13758021931233
 51
359.86241978068648
  0
ARC
  5
1F6
100
AcDbEntity
  8
0
  6
CONTINUOUS
 62
               4
100
AcDbCircle
 10
-4.0300207520261324
 20
24.300996127905407
 30
0.0
 40
0.500002441485227
100
AcDbArc
 50
0.0002797715494944
 51
89.999720228450514
  0
ARC
  5
1F7
100
AcDbEntity
  8
0
  6
CONTINUOUS
 62
               4
100
AcDbCircle
 10
-12.570031127884647
 20
24.301011386722436
 30
0.0
 40
0.4999871828265524
100
AcDbArc
 50
89.998531203634272
 51
180.00146879636483
  0
ARC
  5
1F8
100
AcDbEntity
  8
0
  6
CONTINUOUS
 62
               4
100
AcDbCircle
 10
-12.800028991678289
 20
24.30100925051606
 30
0.0
 40
0.4999893189827007
100
AcDbArc
 50
89.998776006354774
 51
180.00122399364432
  0
ARC
  5
1F9
100
AcDbEntity
  8
0
  6
CONTINUOUS
 62
               4
100
AcDbCircle
 10
-3.8000228882976899
 20
24.300993991633888
 30
0.0
 40
0.5000045777717621
100
AcDbArc
 50
0.0005245667992071
 51
89.9994754332008
  0
ARC
  5
1FA
100
AcDbEntity
  8
0
  6
CONTINUOUS
 62
               4
100
AcDbCircle
 10
-12.80002288806952
 20
5.8009939918620574
 30
0.0
 40
0.4999954224983215
100
AcDbArc
 50
179.99947544974256
 51
270.00052455025656
  0
ARC
  5
1FB
100
AcDbEntity
  8
0
  6
CONTINUOUS
 62
               4
100
AcDbCircle
 10
-3.8000289917201826
 20
5.8010092505580104
 30
0.0
 40
0.5000106812873828
100
AcDbArc
 50
270.00122394615329
 51
359.9987760538454
  0
LINE
  5
1FC
100
AcDbEntity
  8
0
  6
CONTINUOUS
 62
               4
100
AcDbLine
 10
-6.4000183105468977
 20
40.293927842318155
 30
0.0
 11
-6.4000183105468977
 21
36.800998569384703
 31
0.0
  0
LINE
  5
1FD
100
AcDbEntity
  8
0
  6
CONTINUOUS
 62
               4
100
AcDbLine
 10
-7.7000183105469091
 20
40.293927842318155
 30
0.0
 11
-7.7000183105469091
 21
37.150998569384726
 31
0.0
  0
LINE
  5
1FE
100
AcDbEntity
  8
0
  6
CONTINUOUS
 62
               4
100
AcDbLine
 10
-9.300018310546875
 20
43.793927840318176
 30
0.0
 11
-9.300018310546875
 21
40.293927842318155
 31
0.0
  0
LINE
  5
1FF
100
AcDbEntity
  8
0
  6
CONTINUOUS
 62
               4
100
AcDbLine
 10
-9.800018310546875
 20
43.793927840318176
 30
0.0
 11
-9.800018310546875
 21
40.293927842318155
 31
0.0
  0
LINE
  5
200
100
AcDbEntity
  8
0
  6
CONTINUOUS
 62
               4
100
AcDbLine
 10
-6.4000183105468977
 20
35.770998569384673
 30
0.0
 11
-6.4000183105468977
 21
32.800998569384703
 31
0.0
  0
LINE
  5
201
100
AcDbEntity
  8
0
  6
CONTINUOUS
 62
               4
100
AcDbLine
 10
-7.7000183105469091
 20
36.120998569384696
 30
0.0
 11
-7.7000183105469091
 21
32.800998569384703
 31
0.0
  0
LINE
  5
202
100
AcDbEntity
  8
0
  6
CONTINUOUS
 62
               4
100
AcDbLine
 10
-10.200018310546909
 20
36.790998569384712
 30
0.0
 11
-10.200018310546909
 21
32.800998569384703
 31
0.0
  0
LINE
  5
203
100
AcDbEntity
  8
0
  6
CONTINUOUS
 62
               4
100
AcDbLine
 10
-8.9000183105468977
 20
40.293927842318155
 30
0.0
 11
-8.9000183105468977
 21
37.470998569384719
 31
0.0
  0
LINE
  5
204
100
AcDbEntity
  8
0
  6
CONTINUOUS
 62
               4
100
AcDbLine
 10
-10.200018310546909
 20
40.293927842318155
 30
0.0
 11
-10.200018310546909
 21
37.820998569384685
 31
0.0
  0
LINE
  5
205
100
AcDbEntity
  8
0
  6
CONTINUOUS
 62
               4
100
AcDbLine
 10
-6.800018310546875
 20
43.793927840318176
 30
0.0
 11
-6.800018310546875
 21
40.293927842318155
 31
0.0
  0
LINE
  5
206
100
AcDbEntity
  8
0
  6
CONTINUOUS
 62
               4
100
AcDbLine
 10
-7.300018310546875
 20
43.793927840318176
 30
0.0
 11
-7.300018310546875
 21
40.293927842318155
 31
0.0
  0
LINE
  5
207
100
AcDbEntity
  8
0
  6
CONTINUOUS
 62
               4
100
AcDbLine
 10
-8.9000183105468977
 20
36.440998569384689
 30
0.0
 11
-8.9000183105468977
 21
32.800998569384703
 31
0.0
  0
LINE
  5
208
100
AcDbEntity
  8
0
  6
CONTINUOUS
 62
               4
100
AcDbLine
 10
-10.200018310546909
 20
40.293927842318155
 30
0.0
 11
-8.9000183105468977
 21
40.293927842318155
 31
0.0
  0
LINE
  5
209
100
AcDbEntity
  8
0
  6
CONTINUOUS
 62
             200
100
AcDbLine
 10
-12.050018310546875
 20
37.280998569384721
 30
0.0
 11
-4.550018310546875
 21
35.270998569384673
 31
0.0
  0
LINE
  5
20A
100
AcDbEntity
  8
0
  6
CONTINUOUS
 62
             200
100
AcDbLine
 10
-12.050018310546875
 20
38.320998569384685
 30
0.0
 11
-4.550018310546875
 21
36.310998569384694
 31
0.0
  0
LINE
  5
20B
100
AcDbEntity
  8
0
  6
CONTINUOUS
 62
               4
100
AcDbLine
 10
-7.7000183105469091
 20
40.293927842318155
 30
0.0
 11
-6.4000183105468977
 21
40.293927842318155
 31
0.0
  0
LINE
  5
20C
100
AcDbEntity
  8
0
  6
PHANTOM
 62
             200
100
AcDbLine
 10
-6.800018310546875
 20
12.800998569384703
 30
0.0
 11
-6.800018310546875
 21
10.800998569384703
 31
0.0
  0
LINE
  5
20D
100
AcDbEntity
  8
0
  6
PHANTOM
 62
             200
100
AcDbLine
 10
-9.800018310546875
 20
12.800998569384703
 30
0.0
 11
-9.800018310546875
 21
10.800998569384703
 31
0.0
  0
LINE
  5
20E
100
AcDbEntity
  8
0
  6
PHANTOM
 62
             200
100
AcDbLine
 10
-9.800018310546875
 20
10.800998569384703
 30
0.0
 11
-6.800018310546875
 21
10.800998569384703
 31
0.0
  0
LINE
  5
20F
100
AcDbEntity
  8
0
  6
PHANTOM
 62
             200
100
AcDbLine
 10
-9.800018310546875
 20
12.800998569384703
 30
0.0
 11
-6.800018310546875
 21
12.800998569384703
 31
0.0
  0
LINE
  5
210
100
AcDbEntity
  8
0
  6
CENTER
 62
               2
100
AcDbLine
 10
-8.3000000000000114
 20
33.670681626333177
 30
0.0
 11
-8.3000000000000114
 21
-31.354793953993251
 31
0.0
  0
ENDBLK
  5
211
100
AcDbEntity
  8
0
100
AcDbBlockEnd
  0
BLOCK
  5
212
100
AcDbEntity
  8
0
100
AcDbBlockBegin
  2
EA10A5-5
 70
               0
 10
0.0
 20
0.0
 30
0.0
  3
EA10A5-5
  1

  0
LINE
  5
213
100
AcDbEntity
  8
0
  6
CENTER
 62
               2
100
AcDbLine
 10
-2.0
 20
-29.599999999999994
 30
0.0
 11
2.0
 21
-29.599999999999994
 31
0.0
  0
LINE
  5
214
100
AcDbEntity
  8
0
  6
CENTER
 62
               2
100
AcDbLine
 10
-2.0
 20
0.0
 30
0.0
 11
2.0
 21
0.0
 31
0.0
  0
LINE
  5
215
100
AcDbEntity
  8
0
  6
CENTER
 62
               2
100
AcDbLine
 10
-2.0000000167243002
 20
0.0
 30
0.0
 11
1.9999999832756998
 21
0.0
 31
0.0
  0
LINE
  5
216
100
AcDbEntity
  8
0
  6
CENTER
 62
               2
100
AcDbLine
 10
24.000000021518844
 20
-31.107999999998881
 30
0.0
 11
24.000000021517764
 21
29.647850672798185
 31
0.0
  0
LINE
  5
217
100
AcDbEntity
  8
0
  6
CONTINUOUS
 62
               7
100
AcDbLine
 10
16.999996948242199
 20
-30.100006103515625
 30
0.0
 11
15.999996948242199
 21
-30.100006103515625
 31
0.0
  0
LINE
  5
218
100
AcDbEntity
  8
0
  6
CONTINUOUS
 62
               7
100
AcDbLine
 10
16.999996948242199
 20
0.4999938964843835
 30
0.0
 11
15.999996948242199
 21
0.4999938964843835
 31
0.0
  0
LINE
  5
219
100
AcDbEntity
  8
0
  6
CONTINUOUS
 62
               7
100
AcDbLine
 10
16.0
 20
-32.299999999999997
 30
0.0
 11
16.0
 21
2.7000000000000028
 31
0.0
  0
LINE
  5
21A
100
AcDbEntity
  8
0
  6
CONTINUOUS
 62
               7
100
AcDbLine
 10
0.0
 20
2.7000000000000028
 30
0.0
 11
0.0
 21
-32.299999999999997
 31
0.0
  0
LINE
  5
21B
100
AcDbEntity
  8
0
  6
CENTER
 62
               2
100
AcDbLine
 10
11.0
 20
-16.5
 30
0.0
 11
11.0
 21
-23.499999999999986
 31
0.0
  0
LINE
  5
21C
100
AcDbEntity
  8
0
  6
CENTER
 62
               2
100
AcDbLine
 10
5.0
 20
-8.7999999999999972
 30
0.0
 11
5.0
 21
-15.799999999999997
 31
0.0
  0
LINE
  5
21D
100
AcDbEntity
  8
0
  6
CENTER
 62
               2
100
AcDbLine
 10
1.5
 20
-12.299999999999997
 30
0.0
 11
8.5
 21
-12.299999999999997
 31
0.0
  0
CIRCLE
  5
21E
100
AcDbEntity
  8
0
  6
CONTINUOUS
 62
               7
100
AcDbCircle
 10
4.9999816894531364
 20
-12.300006103515628
 30
0.0
 40
2.0669994354248047
  0
CIRCLE
  5
21F
100
AcDbEntity
  8
0
  6
CONTINUOUS
 62
               7
100
AcDbCircle
 10
10.999996948242199
 20
-20.000003051757815
 30
0.0
 40
2.0669994354248047
  0
CIRCLE
  5
220
100
AcDbEntity
  8
0
  6
CONTINUOUS
 62
               2
100
AcDbCircle
 10
10.999996948242199
 20
-20.000003051757815
 30
0.0
 40
2.5
  0
CIRCLE
  5
221
100
AcDbEntity
  8
0
  6
CONTINUOUS
 62
               2
100
AcDbCircle
 10
4.9999816894531364
 20
-12.300006103515628
 30
0.0
 40
2.5
  0
LINE
  5
222
100
AcDbEntity
  8
0
  6
CENTER
 62
               2
100
AcDbLine
 10
7.5
 20
-19.999999999999986
 30
0.0
 11
14.5
 21
-19.999999999999986
 31
0.0
  0
LINE
  5
223
100
AcDbEntity
  8
0
  6
CONTINUOUS
 62
               7
100
AcDbLine
 10
16.0
 20
-32.299999999999997
 30
0.0
 11
0.0
 21
-32.299999999999997
 31
0.0
  0
LINE
  5
224
100
AcDbEntity
  8
0
  6
CONTINUOUS
 62
               7
100
AcDbLine
 10
16.0
 20
2.7000000000000028
 30
0.0
 11
0.0
 21
2.7000000000000028
 31
0.0
  0
LINE
  5
225
100
AcDbEntity
  8
0
  6
CONTINUOUS
 62
               7
100
AcDbLine
 10
27.5
 20
-27.594999999999985
 30
0.0
 11
27.5
 21
-28.694999999999993
 31
0.0
  0
LINE
  5
226
100
AcDbEntity
  8
0
  6
CONTINUOUS
 62
               7
100
AcDbLine
 10
27.549999999999983
 20
-27.924999999999997
 30
0.0
 11
27.549999999999983
 21
-27.454999999999998
 31
0.0
  0
ARC
  5
227
100
AcDbEntity
  8
0
  6
CONTINUOUS
 62
               7
100
AcDbCircle
 10
27.299998474115256
 20
-28.694998474115266
 30
0.0
 40
0.200001525890548
100
AcDbArc
 50
270.00043713043902
 51
359.99956286956035
  0
ARC
  5
228
100
AcDbEntity
  8
0
  6
CONTINUOUS
 62
               7
100
AcDbCircle
 10
27.699992370611284
 20
-27.59499237061128
 30
0.0
 40
0.1999923707568137
100
AcDbArc
 50
89.997814257754712
 51
180.00218574224468
  0
ARC
  5
229
100
AcDbEntity
  8
0
  6
CONTINUOUS
 62
               7
100
AcDbCircle
 10
27.974082972497598
 20
-27.927923464014597
 30
0.0
 40
0.4240930489930741
100
AcDbArc
 50
179.60503130945165
 51
242.76491800802398
  0
ARC
  5
22A
100
AcDbEntity
  8
0
  6
CONTINUOUS
 62
               7
100
AcDbCircle
 10
17.400003051944083
 20
-28.494996948055913
 30
0.0
 40
0.4000030519557204
100
AcDbArc
 50
180.00043715545169
 51
269.99956284454754
  0
LINE
  5
22B
100
AcDbEntity
  8
0
  6
CONTINUOUS
 62
               7
100
AcDbLine
 10
16.999999988079082
 20
-23.894999999999996
 30
0.0
 11
30.999999988079054
 21
-23.894999999999996
 31
0.0
  0
ARC
  5
22C
100
AcDbEntity
  8
0
  6
CONTINUOUS
 62
               7
100
AcDbCircle
 10
29.305000000000007
 20
-25.494981304912841
 30
0.0
 40
3.1971596874005721
100
AcDbArc
 50
241.5112711324667
 51
298.48872886753213
  0
LINE
  5
22D
100
AcDbEntity
  8
0
  6
CONTINUOUS
 62
               7
100
AcDbLine
 10
31.049999999999983
 20
-27.394999999999996
 30
0.0
 11
27.699999999999989
 21
-27.394999999999996
 31
0.0
  0
LINE
  5
22E
100
AcDbEntity
  8
0
  6
CONTINUOUS
 62
               7
100
AcDbLine
 10
30.599999999999994
 20
-28.894999999999996
 30
0.0
 11
17.400000000000006
 21
-28.894999999999996
 31
0.0
  0
LINE
  5
22F
100
AcDbEntity
  8
0
  6
CONTINUOUS
 62
               7
100
AcDbLine
 10
30.0
 20
-11.594001430615208
 30
0.0
 11
31.0
 21
-11.594001430615208
 31
0.0
  0
LINE
  5
230
100
AcDbEntity
  8
0
  6
CONTINUOUS
 62
               7
100
AcDbLine
 10
30.0
 20
-8.3940014306151909
 30
0.0
 11
31.0
 21
-8.3940014306151909
 31
0.0
  0
LINE
  5
231
100
AcDbEntity
  8
0
  6
CONTINUOUS
 62
               7
100
AcDbLine
 10
17.000000013518104
 20
-5.6950000000000074
 30
0.0
 11
31.0
 21
-5.6949999999999932
 31
0.0
  0
LINE
  5
232
100
AcDbEntity
  8
0
  6
CONTINUOUS
 62
               7
100
AcDbLine
 10
32.100000013518155
 20
-0.6950000000000074
 30
0.0
 11
32.100000013518155
 21
5.3049999999999216
 31
0.0
  0
LINE
  5
233
100
AcDbEntity
  8
0
  6
CONTINUOUS
 62
               7
100
AcDbLine
 10
32.548000013518077
 20
1.9049999999999869
 30
0.0
 11
32.100000013518155
 21
1.9049999999999869
 31
0.0
  0
LINE
  5
234
100
AcDbEntity
  8
0
  6
CONTINUOUS
 62
               7
100
AcDbLine
 10
32.548000013518134
 20
4.1050000000000324
 30
0.0
 11
32.100000013518155
 21
4.1050000000000182
 31
0.0
  0
LINE
  5
235
100
AcDbEntity
  8
0
  6
CONTINUOUS
 62
               7
100
AcDbLine
 10
32.548000013518077
 20
1.9049999999999869
 30
0.0
 11
32.548000013518134
 21
4.1050000000000324
 31
0.0
  0
LINE
  5
236
100
AcDbEntity
  8
0
  6
CONTINUOUS
 62
               7
100
AcDbLine
 10
31.000000013518161
 20
5.3049999999999216
 30
0.0
 11
31.000000013518161
 21
-5.6950000000000074
 31
0.0
  0
LINE
  5
237
100
AcDbEntity
  8
0
  6
CONTINUOUS
 62
               7
100
AcDbLine
 10
31.000000013518132
 20
-1.7900000000000205
 30
0.0
 11
32.100000013518155
 21
-0.6950000000000074
 31
0.0
  0
ARC
  5
238
100
AcDbEntity
  8
0
  6
CONTINUOUS
 62
               7
100
AcDbCircle
 10
30.599993896379601
 20
-28.494993896379597
 30
0.0
 40
0.400006103666966
100
AcDbArc
 50
270.00087426588038
 51
359.99912573411802
  0
ARC
  5
239
100
AcDbEntity
  8
0
  6
CONTINUOUS
 62
               7
100
AcDbCircle
 10
30.623582287124151
 20
-27.931810797808694
 30
0.0
 40
0.4264721008707071
100
AcDbArc
 50
298.94777670470961
 51
0.9150576515650383
  0
LINE
  5
23A
100
AcDbEntity
  8
0
  6
CONTINUOUS
 62
               7
100
AcDbLine
 10
31.0
 20
-5.6949999999999932
 30
0.0
 11
31.0
 21
-27.394999999999996
 31
0.0
  0
LINE
  5
23B
100
AcDbEntity
  8
0
  6
CONTINUOUS
 62
               7
100
AcDbLine
 10
31.0
 20
-28.124999999999986
 30
0.0
 11
31.0
 21
-28.49499999999999
 31
0.0
  0
LINE
  5
23C
100
AcDbEntity
  8
0
  6
CONTINUOUS
 62
               7
100
AcDbLine
 10
31.049999999999983
 20
-27.924999999999997
 30
0.0
 11
31.049999999999983
 21
-27.394999999999996
 31
0.0
  0
LINE
  5
23D
100
AcDbEntity
  8
0
  6
CONTINUOUS
 62
               7
100
AcDbLine
 10
30.0
 20
-8.3940014306151909
 30
0.0
 11
30.0
 21
-11.594001430615208
 31
0.0
  0
LINE
  5
23E
100
AcDbEntity
  8
0
  6
CONTINUOUS
 62
               7
100
AcDbLine
 10
17.000000013518104
 20
5.3049999999999358
 30
0.0
 11
16.999996948242199
 21
-30.100006103515625
 31
0.0
  0
LINE
  5
23F
100
AcDbEntity
  8
0
  6
CONTINUOUS
 62
               7
100
AcDbLine
 10
30.599999999999994
 20
-8.8950000000000244
 30
0.0
 11
30.599999999999994
 21
-11.095000000000027
 31
0.0
  0
ARC
  5
240
100
AcDbEntity
  8
0
  6
CONTINUOUS
 62
               7
100
AcDbCircle
 10
30.199999999999989
 20
-11.095000000000027
 30
0.0
 40
0.4
100
AcDbArc
 50
270.00000000000023
 51
0.0
  0
LINE
  5
241
100
AcDbEntity
  8
0
  6
CONTINUOUS
 62
               7
100
AcDbLine
 10
30.199999999999989
 20
-11.495000000000019
 30
0.0
 11
30.0
 21
-11.495000000000019
 31
0.0
  0
ARC
  5
242
100
AcDbEntity
  8
0
  6
CONTINUOUS
 62
               7
100
AcDbCircle
 10
30.199999999999989
 20
-8.8950000000000244
 30
0.0
 40
0.4
100
AcDbArc
 50
0.0
 51
89.999999999999815
  0
LINE
  5
243
100
AcDbEntity
  8
0
  6
CONTINUOUS
 62
               7
100
AcDbLine
 10
30.199999999999989
 20
-8.4950000000000188
 30
0.0
 11
30.0
 21
-8.4950000000000188
 31
0.0
  0
LINE
  5
244
100
AcDbEntity
  8
0
  6
CONTINUOUS
 62
               4
100
AcDbLine
 10
36.253535368051473
 20
43.799949488666641
 30
0.0
 11
36.748484862718158
 21
43.799949488666641
 31
0.0
  0
LINE
  5
245
100
AcDbEntity
  8
0
  6
CONTINUOUS
 62
               4
100
AcDbLine
 10
31.00000002151819
 20
5.3050000000000637
 30
0.0
 11
31.00000002151819
 21
27.204999994932336
 31
0.0
  0
LINE
  5
246
100
AcDbEntity
  8
0
  6
CONTINUOUS
 62
               4
100
AcDbLine
 10
17.00000002151819
 20
27.205000000000069
 30
0.0
 11
17.00000002151819
 21
5.3050000000000637
 31
0.0
  0
LINE
  5
247
100
AcDbEntity
  8
0
  6
CONTINUOUS
 62
               4
100
AcDbLine
 10
17.00000002151819
 20
5.3050000000000637
 30
0.0
 11
34.000002838044963
 21
5.3050000000000637
 31
0.0
  0
LINE
  5
248
100
AcDbEntity
  8
0
  6
CONTINUOUS
 62
               4
100
AcDbLine
 10
19.700000021518179
 20
27.805000000000092
 30
0.0
 11
19.700000021518179
 21
27.205000000000126
 31
0.0
  0
LINE
  5
249
100
AcDbEntity
  8
0
  6
CONTINUOUS
 62
               4
100
AcDbLine
 10
19.700000021518179
 20
27.205000000000126
 30
0.0
 11
17.000000025518204
 21
27.205000000000126
 31
0.0
  0
LINE
  5
24A
100
AcDbEntity
  8
0
  6
CONTINUOUS
 62
               4
100
AcDbLine
 10
30.500000017518175
 20
27.705000000000126
 30
0.0
 11
29.000000021518247
 21
27.705000000000126
 31
0.0
  0
LINE
  5
24B
100
AcDbEntity
  8
0
  6
CONTINUOUS
 62
               4
100
AcDbLine
 10
30.199999931518221
 20
27.805000000000092
 30
0.0
 11
17.800000111518159
 21
27.805000000000092
 31
0.0
  0
ARC
  5
24C
100
AcDbEntity
  8
0
  6
CONTINUOUS
 62
               4
100
AcDbCircle
 10
30.200095078166839
 20
27.205095146648745
 30
0.0
 40
0.5999048008965869
100
AcDbArc
 50
56.247417870393882
 51
90.009087277546172
  0
ARC
  5
24D
100
AcDbEntity
  8
0
  6
CONTINUOUS
 62
               4
100
AcDbCircle
 10
17.798912106389992
 20
27.206088005128294
 30
0.0
 40
0.5989129231257409
100
AcDbArc
 50
89.895914524772735
 51
180.10408547522667
  0
ARC
  5
24E
100
AcDbEntity
  8
0
  6
CONTINUOUS
 62
               4
100
AcDbCircle
 10
17.500000025518204
 20
27.205000000000126
 30
0.0
 40
0.5
100
AcDbArc
 50
93.919585899650798
 51
179.99999999999963
  0
ARC
  5
24F
100
AcDbEntity
  8
0
  6
CONTINUOUS
 62
               4
100
AcDbCircle
 10
30.500000017518175
 20
27.205000000000126
 30
0.0
 40
0.5
100
AcDbArc
 50
0.0
 51
89.999999999999815
  0
LINE
  5
250
100
AcDbEntity
  8
0
  6
CONTINUOUS
 62
               4
100
AcDbLine
 10
29.000000021518247
 20
27.805000000000092
 30
0.0
 11
29.000000021518247
 21
26.205000000000126
 31
0.0
  0
LINE
  5
251
100
AcDbEntity
  8
0
  6
CONTINUOUS
 62
               4
100
AcDbLine
 10
29.000000021518247
 20
26.205000000000126
 30
0.0
 11
17.000000025518204
 21
26.205000000000126
 31
0.0
  0
LINE
  5
252
100
AcDbEntity
  8
0
  6
CONTINUOUS
 62
               4
100
AcDbLine
 10
31.000000017518175
 20
24.798939382800114
 30
0.0
 11
38.502020215251548
 21
24.798939382800114
 31
0.0
  0
LINE
  5
253
100
AcDbEntity
  8
0
  6
CONTINUOUS
 62
               4
100
AcDbLine
 10
39.004040416984878
 20
24.30398988813343
 30
0.0
 11
39.004040416984878
 21
7.9494444429333271
 31
0.0
  0
LINE
  5
254
100
AcDbEntity
  8
0
  6
CONTINUOUS
 62
               4
100
AcDbLine
 10
34.005050520851512
 20
5.3049999999999784
 30
0.0
 11
38.714141427251491
 21
7.4969191906667163
 31
0.0
  0
LINE
  5
255
100
AcDbEntity
  8
0
  6
CONTINUOUS
 62
               4
100
AcDbLine
 10
34.005050520851512
 20
32.80499999999995
 30
0.0
 11
38.098989912451486
 21
32.80499999999995
 31
0.0
  0
LINE
  5
256
100
AcDbEntity
  8
0
  6
CONTINUOUS
 62
               4
100
AcDbLine
 10
35.603030317918126
 20
32.80499999999995
 30
0.0
 11
35.603030317918126
 21
24.801969692400007
 31
0.0
  0
LINE
  5
257
100
AcDbEntity
  8
0
  6
CONTINUOUS
 62
               4
100
AcDbLine
 10
37.398989912851505
 20
32.80499999999995
 30
0.0
 11
37.398989912851505
 21
24.801969692400007
 31
0.0
  0
LINE
  5
258
100
AcDbEntity
  8
0
  6
CONTINUOUS
 62
               4
100
AcDbLine
 10
40.997979809784795
 20
32.80499999999995
 30
0.0
 11
40.997979809784795
 21
31.307020193733308
 31
0.0
  0
LINE
  5
259
100
AcDbEntity
  8
0
  6
CONTINUOUS
 62
               4
100
AcDbLine
 10
40.100000012318162
 20
26.20196969159997
 30
0.0
 11
40.997979809784795
 21
31.307020193733308
 31
0.0
  0
LINE
  5
25A
100
AcDbEntity
  8
0
  6
CONTINUOUS
 62
               4
100
AcDbLine
 10
40.001010113384893
 20
32.80499999999995
 30
0.0
 11
40.001010113384893
 21
31.391868678533285
 31
0.0
  0
LINE
  5
25B
100
AcDbEntity
  8
0
  6
CONTINUOUS
 62
               4
100
AcDbLine
 10
40.001010113384893
 20
32.80499999999995
 30
0.0
 11
40.997979809784795
 21
32.80499999999995
 31
0.0
  0
LINE
  5
25C
100
AcDbEntity
  8
0
  6
CONTINUOUS
 62
               4
100
AcDbLine
 10
38.89797981098485
 20
25.134292924533327
 30
0.0
 11
40.015151527518185
 21
31.476717163333319
 31
0.0
  0
LINE
  5
25D
100
AcDbEntity
  8
0
  6
CONTINUOUS
 62
               4
100
AcDbLine
 10
39.103030315918147
 20
23.804999995999992
 30
0.0
 11
39.103030315918147
 21
18.106010100266644
 31
0.0
  0
LINE
  5
25E
100
AcDbEntity
  8
0
  6
CONTINUOUS
 62
               4
100
AcDbLine
 10
38.098989912451486
 20
32.80499999999995
 30
0.0
 11
38.098989912451486
 21
25.204999995200012
 31
0.0
  0
LINE
  5
25F
100
AcDbEntity
  8
0
  6
CONTINUOUS
 62
               4
100
AcDbLine
 10
38.403030316318166
 20
32.500959596133271
 30
0.0
 11
38.403030316318166
 21
26.604999994399975
 31
0.0
  0
LINE
  5
260
100
AcDbEntity
  8
0
  6
CONTINUOUS
 62
               4
100
AcDbLine
 10
38.098989912451486
 20
32.80499999999995
 30
0.0
 11
38.403030316318166
 21
32.500959596133271
 31
0.0
  0
LINE
  5
261
100
AcDbEntity
  8
0
  6
CONTINUOUS
 62
               4
100
AcDbLine
 10
34.005050520851512
 20
31.801969688399993
 30
0.0
 11
34.500000015518197
 21
31.801969688399993
 31
0.0
  0
LINE
  5
262
100
AcDbEntity
  8
0
  6
CONTINUOUS
 62
               4
100
AcDbLine
 10
34.005050520851512
 20
26.802979792266626
 30
0.0
 11
34.500000015518197
 21
26.802979792266626
 31
0.0
  0
LINE
  5
263
100
AcDbEntity
  8
0
  6
CONTINUOUS
 62
               4
100
AcDbLine
 10
38.098989912451486
 20
26.300959590533353
 30
0.0
 11
38.403030316318166
 21
26.604999994399975
 31
0.0
  0
LINE
  5
264
100
AcDbEntity
  8
0
  6
CONTINUOUS
 62
               4
100
AcDbLine
 10
40.100000012318162
 20
26.20196969159997
 30
0.0
 11
40.100000012318162
 21
17.101969696799983
 31
0.0
  0
LINE
  5
265
100
AcDbEntity
  8
0
  6
CONTINUOUS
 62
               4
100
AcDbLine
 10
39.103030315918147
 20
16.80499999999995
 30
0.0
 11
39.803030315518129
 21
16.80499999999995
 31
0.0
  0
LINE
  5
266
100
AcDbEntity
  8
0
  6
CONTINUOUS
 62
               4
100
AcDbLine
 10
39.004040416984878
 20
18.106010100266644
 30
0.0
 11
39.103030315918147
 21
18.106010100266644
 31
0.0
  0
LINE
  5
267
100
AcDbEntity
  8
0
  6
CONTINUOUS
 62
               4
100
AcDbLine
 10
39.004040416984878
 20
16.903989898933276
 30
0.0
 11
39.103030315918147
 21
16.80499999999995
 31
0.0
  0
LINE
  5
268
100
AcDbEntity
  8
0
  6
CONTINUOUS
 62
               4
100
AcDbLine
 10
35.850505065251525
 20
37.372676765066615
 30
0.0
 11
35.850505065251525
 21
32.80499999999995
 31
0.0
  0
LINE
  5
269
100
AcDbEntity
  8
0
  6
CONTINUOUS
 62
               4
100
AcDbLine
 10
37.151515165518219
 20
40.29994949066662
 30
0.0
 11
37.151515165518219
 21
36.96964646226661
 31
0.0
  0
LINE
  5
26A
100
AcDbEntity
  8
0
  6
CONTINUOUS
 62
               4
100
AcDbLine
 10
35.850505065251525
 20
40.29994949066662
 30
0.0
 11
35.850505065251525
 21
37.719141411333283
 31
0.0
  0
LINE
  5
26B
100
AcDbEntity
  8
0
  6
CONTINUOUS
 62
               4
100
AcDbLine
 10
35.850505065251525
 20
40.29994949066662
 30
0.0
 11
37.151515165518219
 21
40.29994949066662
 31
0.0
  0
LINE
  5
26C
100
AcDbEntity
  8
0
  6
CONTINUOUS
 62
               4
100
AcDbLine
 10
36.253535368051473
 20
43.799949488666641
 30
0.0
 11
36.253535368051473
 21
40.29994949066662
 31
0.0
  0
LINE
  5
26D
100
AcDbEntity
  8
0
  6
CONTINUOUS
 62
               4
100
AcDbLine
 10
36.748484862718158
 20
43.799949488666641
 30
0.0
 11
36.748484862718158
 21
40.29994949066662
 31
0.0
  0
LINE
  5
26E
100
AcDbEntity
  8
0
  6
CONTINUOUS
 62
             200
100
AcDbLine
 10
38.000000013518218
 20
36.474696967599982
 30
0.0
 11
35.002020217251527
 21
38.207020198933265
 31
0.0
  0
LINE
  5
26F
100
AcDbEntity
  8
0
  6
CONTINUOUS
 62
             200
100
AcDbLine
 10
38.000000013518218
 20
36.128232321333314
 30
0.0
 11
35.002020217251527
 21
37.860555552666654
 31
0.0
  0
LINE
  5
270
100
AcDbEntity
  8
0
  6
CONTINUOUS
 62
               4
100
AcDbLine
 10
37.151515165518219
 20
36.623181815999942
 30
0.0
 11
37.151515165518219
 21
32.80499999999995
 31
0.0
  0
LINE
  5
271
100
AcDbEntity
  8
0
  6
CONTINUOUS
 62
               4
100
AcDbLine
 10
34.005050520851512
 20
32.80499999999995
 30
0.0
 11
34.005050520851512
 21
31.801969688399993
 31
0.0
  0
LINE
  5
272
100
AcDbEntity
  8
0
  6
CONTINUOUS
 62
               4
100
AcDbLine
 10
34.005050520851512
 20
26.802979792266626
 30
0.0
 11
34.005050520851512
 21
24.801969692400007
 31
0.0
  0
LINE
  5
273
100
AcDbEntity
  8
0
  6
CONTINUOUS
 62
               4
100
AcDbLine
 10
34.500000015518197
 20
31.801969688399993
 30
0.0
 11
34.500000015518197
 21
26.802979792266626
 31
0.0
  0
LINE
  5
274
100
AcDbEntity
  8
0
  6
CONTINUOUS
 62
               4
100
AcDbLine
 10
34.005050520851512
 20
5.3049999999999784
 30
0.0
 11
34.005050520851512
 21
24.798939382800114
 31
0.0
  0
ARC
  5
275
100
AcDbEntity
  8
0
  6
CONTINUOUS
 62
               4
100
AcDbCircle
 10
38.498033079087293
 20
7.9544844974917339
 30
0.0
 40
0.5060324378497572
100
AcDbArc
 50
295.28139190005214
 51
359.42932783011406
  0
ARC
  5
276
100
AcDbEntity
  8
0
  6
CONTINUOUS
 62
               4
100
AcDbCircle
 10
38.503834140796869
 20
24.298708514783726
 30
0.0
 40
0.5002341568128574
100
AcDbArc
 50
0.6049287534634878
 51
90.207763713153867
  0
ARC
  5
277
100
AcDbEntity
  8
0
  6
CONTINUOUS
 62
               4
100
AcDbCircle
 10
39.797896139610032
 20
17.107103872708194
 30
0.0
 40
0.3021474965435785
100
AcDbArc
 50
270.97363298451126
 51
359.02636701548732
  0
ARC
  5
278
100
AcDbEntity
  8
0
  6
CONTINUOUS
 62
               4
100
AcDbCircle
 10
38.599986962385003
 20
23.802302043044506
 30
0.0
 40
0.5030505883944908
100
AcDbArc
 50
0.3072892911898554
 51
36.562608354652731
  0
ARC
  5
279
100
AcDbEntity
  8
0
  6
CONTINUOUS
 62
               4
100
AcDbCircle
 10
38.501921144216169
 20
25.208476452093691
 30
0.0
 40
0.4029462287748787
100
AcDbArc
 50
180.49433091715488
 51
349.39117201772478
  0
ENDBLK
  5
27A
100
AcDbEntity
  8
0
100
AcDbBlockEnd
  0
BLOCK
  5
27B
100
AcDbEntity
  8
0
100
AcDbBlockBegin
  2
EA10A5-6
 70
               0
 10
0.0
 20
0.0
 30
0.0
  3
EA10A5-6
  1

  0
LINE
  5
27C
100
AcDbEntity
  8
0
  6
CENTER
 62
               2
100
AcDbLine
 10
-2.0000000167243286
 20
0.0
 30
0.0
 11
1.9999999832756714
 21
0.0
 31
0.0
  0
LINE
  5
27D
100
AcDbEntity
  8
0
  6
CENTER
 62
               2
100
AcDbLine
 10
-2.0000000167243286
 20
-29.599999999999994
 30
0.0
 11
1.9999999832756714
 21
-29.599999999999994
 31
0.0
  0
LINE
  5
27E
100
AcDbEntity
  8
0
  6
CONTINUOUS
 62
               7
100
AcDbLine
 10
-16.999978637695335
 20
0.4999938964843835
 30
0.0
 11
-15.999978637695335
 21
0.4999938964843835
 31
0.0
  0
LINE
  5
27F
100
AcDbEntity
  8
0
  6
CONTINUOUS
 62
               7
100
AcDbLine
 10
-16.999978637695335
 20
-30.100006103515625
 30
0.0
 11
-15.999978637695335
 21
-30.100006103515625
 31
0.0
  0
LINE
  5
280
100
AcDbEntity
  8
0
  6
CENTER
 62
               2
100
AcDbLine
 10
-23.999999976158165
 20
29.647850672801098
 30
0.0
 11
-23.999999976158165
 21
-31.099999999999994
 31
0.0
  0
CIRCLE
  5
281
100
AcDbEntity
  8
0
  6
CONTINUOUS
 62
               2
100
AcDbCircle
 10
-9.9999786376953352
 20
-4.8000061035156278
 30
0.0
 40
2.5
  0
CIRCLE
  5
282
100
AcDbEntity
  8
0
  6
CONTINUOUS
 62
               2
100
AcDbCircle
 10
-10.999978637695335
 20
-14.800006103515628
 30
0.0
 40
2.5
  0
CIRCLE
  5
283
100
AcDbEntity
  8
0
  6
CONTINUOUS
 62
               2
100
AcDbCircle
 10
-4.9999786376953352
 20
-22.39999694824219
 30
0.0
 40
2.5
  0
CIRCLE
  5
284
100
AcDbEntity
  8
0
  6
CONTINUOUS
 62
               7
100
AcDbCircle
 10
-4.9999786376953352
 20
-22.39999694824219
 30
0.0
 40
2.0669994354248047
  0
CIRCLE
  5
285
100
AcDbEntity
  8
0
  6
CONTINUOUS
 62
               7
100
AcDbCircle
 10
-10.999978637695335
 20
-14.800006103515628
 30
0.0
 40
2.0669994354248047
  0
CIRCLE
  5
286
100
AcDbEntity
  8
0
  6
CONTINUOUS
 62
               7
100
AcDbCircle
 10
-9.9999786376953352
 20
-4.8000061035156278
 30
0.0
 40
2.0669994354248047
  0
LINE
  5
287
100
AcDbEntity
  8
0
  6
CENTER
 62
               2
100
AcDbLine
 10
-13.5
 20
-4.7999999999999972
 30
0.0
 11
-6.5
 21
-4.7999999999999972
 31
0.0
  0
LINE
  5
288
100
AcDbEntity
  8
0
  6
CENTER
 62
               2
100
AcDbLine
 10
-10.0
 20
-1.2999999999999972
 30
0.0
 11
-10.0
 21
-8.2999999999999972
 31
0.0
  0
LINE
  5
289
100
AcDbEntity
  8
0
  6
CENTER
 62
               2
100
AcDbLine
 10
-14.5
 20
-14.799999999999997
 30
0.0
 11
-7.5
 21
-14.799999999999997
 31
0.0
  0
LINE
  5
28A
100
AcDbEntity
  8
0
  6
CENTER
 62
               2
100
AcDbLine
 10
-11.0
 20
-11.299999999999997
 30
0.0
 11
-11.0
 21
-18.299999999999997
 31
0.0
  0
LINE
  5
28B
100
AcDbEntity
  8
0
  6
CENTER
 62
               2
100
AcDbLine
 10
-8.5
 20
-22.399999999999991
 30
0.0
 11
-1.5
 21
-22.399999999999991
 31
0.0
  0
LINE
  5
28C
100
AcDbEntity
  8
0
  6
CENTER
 62
               2
100
AcDbLine
 10
-5.0
 20
-18.899999999999991
 30
0.0
 11
-5.0
 21
-25.899999999999991
 31
0.0
  0
LINE
  5
28D
100
AcDbEntity
  8
0
  6
CONTINUOUS
 62
               7
100
AcDbLine
 10
-16.0
 20
-32.299999999999997
 30
0.0
 11
0.0
 21
-32.299999999999997
 31
0.0
  0
LINE
  5
28E
100
AcDbEntity
  8
0
  6
CONTINUOUS
 62
               7
100
AcDbLine
 10
-16.0
 20
2.7000000000000028
 30
0.0
 11
0.0
 21
2.7000000000000028
 31
0.0
  0
LINE
  5
28F
100
AcDbEntity
  8
0
  6
CONTINUOUS
 62
               7
100
AcDbLine
 10
0.0
 20
2.7000000000000028
 30
0.0
 11
0.0
 21
-32.299999999999997
 31
0.0
  0
LINE
  5
290
100
AcDbEntity
  8
0
  6
CONTINUOUS
 62
               7
100
AcDbLine
 10
-16.0
 20
-32.299999999999997
 30
0.0
 11
-16.0
 21
2.7000000000000028
 31
0.0
  0
LINE
  5
291
100
AcDbEntity
  8
0
  6
CONTINUOUS
 62
               7
100
AcDbLine
 10
-30.99999995231633
 20
-23.899999999999991
 30
0.0
 11
-16.99999995231633
 21
-23.899999999999991
 31
0.0
  0
LINE
  5
292
100
AcDbEntity
  8
0
  6
CONTINUOUS
 62
               7
100
AcDbLine
 10
-20.299999964237259
 20
-27.399999999999991
 30
0.0
 11
-16.99999995231633
 21
-27.399999999999991
 31
0.0
  0
LINE
  5
293
100
AcDbEntity
  8
0
  6
CONTINUOUS
 62
               7
100
AcDbLine
 10
-29.999999976158165
 20
-21.199001430615183
 30
0.0
 11
-30.999999976158165
 21
-21.199001430615183
 31
0.0
  0
LINE
  5
294
100
AcDbEntity
  8
0
  6
CONTINUOUS
 62
               7
100
AcDbLine
 10
-29.999999976158165
 20
-17.999001430615195
 30
0.0
 11
-30.999999976158165
 21
-17.999001430615195
 31
0.0
  0
LINE
  5
295
100
AcDbEntity
  8
0
  6
CONTINUOUS
 62
               7
100
AcDbLine
 10
-32.547999976158167
 20
1.8999999999999915
 30
0.0
 11
-32.099999976158188
 21
1.8999999999999915
 31
0.0
  0
LINE
  5
296
100
AcDbEntity
  8
0
  6
CONTINUOUS
 62
               7
100
AcDbLine
 10
-32.547999976158167
 20
4.1000000000000369
 30
0.0
 11
-32.099999976158188
 21
4.1000000000000369
 31
0.0
  0
LINE
  5
297
100
AcDbEntity
  8
0
  6
CONTINUOUS
 62
               7
100
AcDbLine
 10
-32.547999976158167
 20
1.8999999999999915
 30
0.0
 11
-32.547999976158167
 21
4.1000000000000369
 31
0.0
  0
LINE
  5
298
100
AcDbEntity
  8
0
  6
CONTINUOUS
 62
               7
100
AcDbLine
 10
-30.999999976158222
 20
-1.7999999999999972
 30
0.0
 11
-32.099999976158188
 21
-0.7000000000000028
 31
0.0
  0
LINE
  5
299
100
AcDbEntity
  8
0
  6
CONTINUOUS
 62
               7
100
AcDbLine
 10
-32.099999976158188
 20
-0.7000000000000028
 30
0.0
 11
-32.099999976158188
 21
5.2999999999999403
 31
0.0
  0
LINE
  5
29A
100
AcDbEntity
  8
0
  6
CONTINUOUS
 62
               7
100
AcDbLine
 10
-31.00003850088882
 20
5.7999999985157871
 30
0.0
 11
-30.999999976158165
 21
5.2999999999999972
 31
0.0
  0
LINE
  5
29B
100
AcDbEntity
  8
0
  6
CONTINUOUS
 62
               7
100
AcDbLine
 10
-30.999999976158165
 20
5.2999999999999972
 30
0.0
 11
-30.999999976158165
 21
-28.499999999999986
 31
0.0
  0
LINE
  5
29C
100
AcDbEntity
  8
0
  6
CONTINUOUS
 62
               7
100
AcDbLine
 10
-16.999999976158165
 20
-5.7000000000000028
 30
0.0
 11
-30.999999976158165
 21
-5.7000000000000028
 31
0.0
  0
LINE
  5
29D
100
AcDbEntity
  8
0
  6
CONTINUOUS
 62
               7
100
AcDbLine
 10
-29.999999976158165
 20
-17.999001430615195
 30
0.0
 11
-29.999999976158165
 21
-21.199001430615183
 31
0.0
  0
LINE
  5
29E
100
AcDbEntity
  8
0
  6
CONTINUOUS
 62
               7
100
AcDbLine
 10
-30.599999976158188
 20
-28.899999999999991
 30
0.0
 11
-17.399999976158199
 21
-28.899999999999991
 31
0.0
  0
LINE
  5
29F
100
AcDbEntity
  8
0
  6
CONTINUOUS
 62
               7
100
AcDbLine
 10
-20.499999976158165
 20
-27.599999999999994
 30
0.0
 11
-20.499999976158165
 21
-28.700000000000003
 31
0.0
  0
LINE
  5
2A0
100
AcDbEntity
  8
0
  6
CONTINUOUS
 62
               7
100
AcDbLine
 10
-20.449999976158153
 20
-27.929999999999993
 30
0.0
 11
-20.449999976158153
 21
-27.459999999999994
 31
0.0
  0
ARC
  5
2A1
100
AcDbEntity
  8
0
  6
CONTINUOUS
 62
               7
100
AcDbCircle
 10
-18.704999976158206
 20
-25.499981271273313
 30
0.0
 40
3.1971597169667145
100
AcDbArc
 50
241.51127142001724
 51
298.48872857998202
  0
ARC
  5
2A2
100
AcDbEntity
  8
0
  6
CONTINUOUS
 62
               7
100
AcDbCircle
 10
-20.699989295477337
 20
-28.700010680680847
 30
0.0
 40
0.1999893196043432
100
AcDbArc
 50
269.99694004691679
 51
0.0030599530887399
  0
ARC
  5
2A3
100
AcDbEntity
  8
0
  6
CONTINUOUS
 62
               7
100
AcDbCircle
 10
-20.299995398049987
 20
-27.600004578108198
 30
0.0
 40
0.2000045781606
100
AcDbArc
 50
90.001311501357506
 51
179.99868849862943
  0
ARC
  5
2A4
100
AcDbEntity
  8
0
  6
CONTINUOUS
 62
               7
100
AcDbCircle
 10
-20.023563967371388
 20
-27.936800205439212
 30
0.0
 40
0.4264902254261231
100
AcDbArc
 50
179.08640442595285
 51
241.0507612177737
  0
ARC
  5
2A5
100
AcDbEntity
  8
0
  6
CONTINUOUS
 62
               7
100
AcDbCircle
 10
-17.374706615486957
 20
-27.935293360671224
 30
0.0
 40
0.4222744853241268
100
AcDbArc
 50
297.45748041710277
 51
332.54251958289433
  0
ARC
  5
2A6
100
AcDbEntity
  8
0
  6
CONTINUOUS
 62
               7
100
AcDbCircle
 10
-17.39999387321302
 20
-28.500006102945193
 30
0.0
 40
0.3999938971013656
100
AcDbArc
 50
269.99912580415821
 51
0.0008741958432351
  0
ARC
  5
2A7
100
AcDbEntity
  8
0
  6
CONTINUOUS
 62
               7
100
AcDbCircle
 10
-30.599984717369125
 20
-28.499984741210923
 30
0.0
 40
0.4000152590800927
100
AcDbArc
 50
180.00218557716028
 51
269.99781442283921
  0
LINE
  5
2A8
100
AcDbEntity
  8
0
  6
CONTINUOUS
 62
               7
100
AcDbLine
 10
-16.999999976158165
 20
5.2999999999999972
 30
0.0
 11
-16.999978637695335
 21
-30.100006103515625
 31
0.0
  0
LINE
  5
2A9
100
AcDbEntity
  8
0
  6
CONTINUOUS
 62
               7
100
AcDbLine
 10
-30.599999976158159
 20
-18.5
 30
0.0
 11
-30.599999976158159
 21
-20.700000000000003
 31
0.0
  0
ARC
  5
2AA
100
AcDbEntity
  8
0
  6
CONTINUOUS
 62
               7
100
AcDbCircle
 10
-30.199999976158153
 20
-20.700000000000003
 30
0.0
 40
0.4
100
AcDbArc
 50
179.99999999999963
 51
269.99999999999937
  0
LINE
  5
2AB
100
AcDbEntity
  8
0
  6
CONTINUOUS
 62
               7
100
AcDbLine
 10
-30.199999976158153
 20
-21.099999999999994
 30
0.0
 11
-29.999999976158165
 21
-21.099999999999994
 31
0.0
  0
ARC
  5
2AC
100
AcDbEntity
  8
0
  6
CONTINUOUS
 62
               7
100
AcDbCircle
 10
-30.199999976158153
 20
-18.5
 30
0.0
 40
0.4
100
AcDbArc
 50
89.999999999999815
 51
179.99999999999963
  0
LINE
  5
2AD
100
AcDbEntity
  8
0
  6
CONTINUOUS
 62
               7
100
AcDbLine
 10
-30.199999976158153
 20
-18.099999999999994
 30
0.0
 11
-29.999999976158165
 21
-18.099999999999994
 31
0.0
  0
ARC
  5
2AE
100
AcDbEntity
  8
0
  6
CONTINUOUS
 62
               4
100
AcDbCircle
 10
-38.501921098856144
 20
25.203476452093625
 30
0.0
 40
0.4029462287748787
100
AcDbArc
 50
190.60882798227402
 51
359.50566908284389
  0
ARC
  5
2AF
100
AcDbEntity
  8
0
  6
CONTINUOUS
 62
               4
100
AcDbCircle
 10
-38.599986917024978
 20
23.797302043044439
 30
0.0
 40
0.5030505883944908
100
AcDbArc
 50
143.43739164534688
 51
179.69271070880976
  0
ARC
  5
2B0
100
AcDbEntity
  8
0
  6
CONTINUOUS
 62
               4
100
AcDbCircle
 10
-39.797896094250007
 20
17.102103872708128
 30
0.0
 40
0.3021474965435785
100
AcDbArc
 50
180.97363298451145
 51
269.02636701548755
  0
ARC
  5
2B1
100
AcDbEntity
  8
0
  6
CONTINUOUS
 62
               4
100
AcDbCircle
 10
-38.503834095436844
 20
24.29370851478366
 30
0.0
 40
0.5002341568128574
100
AcDbArc
 50
89.792236286845736
 51
179.39507124653611
  0
ARC
  5
2B2
100
AcDbEntity
  8
0
  6
CONTINUOUS
 62
               4
100
AcDbCircle
 10
-38.498033033727268
 20
7.9494844974916674
 30
0.0
 40
0.5060324378497572
100
AcDbArc
 50
180.57067216988474
 51
244.71860809994666
  0
LINE
  5
2B3
100
AcDbEntity
  8
0
  6
CONTINUOUS
 62
               4
100
AcDbLine
 10
-34.005050475491487
 20
5.2999999999999119
 30
0.0
 11
-34.005050475491487
 21
24.793939382800048
 31
0.0
  0
LINE
  5
2B4
100
AcDbEntity
  8
0
  6
CONTINUOUS
 62
               4
100
AcDbLine
 10
-34.499999970158171
 20
31.796969688399926
 30
0.0
 11
-34.499999970158171
 21
26.79797979226656
 31
0.0
  0
LINE
  5
2B5
100
AcDbEntity
  8
0
  6
CONTINUOUS
 62
               4
100
AcDbLine
 10
-34.005050475491487
 20
26.79797979226656
 30
0.0
 11
-34.005050475491487
 21
24.796969692399941
 31
0.0
  0
LINE
  5
2B6
100
AcDbEntity
  8
0
  6
CONTINUOUS
 62
               4
100
AcDbLine
 10
-34.005050475491487
 20
32.799999999999883
 30
0.0
 11
-34.005050475491487
 21
31.796969688399926
 31
0.0
  0
LINE
  5
2B7
100
AcDbEntity
  8
0
  6
CONTINUOUS
 62
               4
100
AcDbLine
 10
-37.151515120158194
 20
36.618181815999876
 30
0.0
 11
-37.151515120158194
 21
32.799999999999883
 31
0.0
  0
LINE
  5
2B8
100
AcDbEntity
  8
0
  6
CONTINUOUS
 62
             200
100
AcDbLine
 10
-37.999999968158193
 20
36.123232321333248
 30
0.0
 11
-35.002020171891502
 21
37.855555552666587
 31
0.0
  0
LINE
  5
2B9
100
AcDbEntity
  8
0
  6
CONTINUOUS
 62
             200
100
AcDbLine
 10
-37.999999968158193
 20
36.469696967599916
 30
0.0
 11
-35.002020171891502
 21
38.202020198933198
 31
0.0
  0
LINE
  5
2BA
100
AcDbEntity
  8
0
  6
CONTINUOUS
 62
               4
100
AcDbLine
 10
-36.748484817358133
 20
43.794949488666575
 30
0.0
 11
-36.748484817358133
 21
40.294949490666554
 31
0.0
  0
LINE
  5
2BB
100
AcDbEntity
  8
0
  6
CONTINUOUS
 62
               4
100
AcDbLine
 10
-36.253535322691448
 20
43.794949488666575
 30
0.0
 11
-36.253535322691448
 21
40.294949490666554
 31
0.0
  0
LINE
  5
2BC
100
AcDbEntity
  8
0
  6
CONTINUOUS
 62
               4
100
AcDbLine
 10
-35.8505050198915
 20
40.294949490666554
 30
0.0
 11
-37.151515120158194
 21
40.294949490666554
 31
0.0
  0
LINE
  5
2BD
100
AcDbEntity
  8
0
  6
CONTINUOUS
 62
               4
100
AcDbLine
 10
-35.8505050198915
 20
40.294949490666554
 30
0.0
 11
-35.8505050198915
 21
37.714141411333216
 31
0.0
  0
LINE
  5
2BE
100
AcDbEntity
  8
0
  6
CONTINUOUS
 62
               4
100
AcDbLine
 10
-37.151515120158194
 20
40.294949490666554
 30
0.0
 11
-37.151515120158194
 21
36.964646462266543
 31
0.0
  0
LINE
  5
2BF
100
AcDbEntity
  8
0
  6
CONTINUOUS
 62
               4
100
AcDbLine
 10
-35.8505050198915
 20
37.367676765066548
 30
0.0
 11
-35.8505050198915
 21
32.799999999999883
 31
0.0
  0
LINE
  5
2C0
100
AcDbEntity
  8
0
  6
CONTINUOUS
 62
               4
100
AcDbLine
 10
-39.004040371624853
 20
16.898989898933209
 30
0.0
 11
-39.103030270558122
 21
16.799999999999883
 31
0.0
  0
LINE
  5
2C1
100
AcDbEntity
  8
0
  6
CONTINUOUS
 62
               4
100
AcDbLine
 10
-39.004040371624853
 20
18.101010100266578
 30
0.0
 11
-39.103030270558122
 21
18.101010100266578
 31
0.0
  0
LINE
  5
2C2
100
AcDbEntity
  8
0
  6
CONTINUOUS
 62
               4
100
AcDbLine
 10
-39.103030270558122
 20
16.799999999999883
 30
0.0
 11
-39.803030270158104
 21
16.799999999999883
 31
0.0
  0
LINE
  5
2C3
100
AcDbEntity
  8
0
  6
CONTINUOUS
 62
               4
100
AcDbLine
 10
-40.099999966958137
 20
26.196969691599904
 30
0.0
 11
-40.099999966958137
 21
17.096969696799917
 31
0.0
  0
LINE
  5
2C4
100
AcDbEntity
  8
0
  6
CONTINUOUS
 62
               4
100
AcDbLine
 10
-38.098989867091461
 20
26.295959590533286
 30
0.0
 11
-38.403030270958141
 21
26.599999994399909
 31
0.0
  0
LINE
  5
2C5
100
AcDbEntity
  8
0
  6
CONTINUOUS
 62
               4
100
AcDbLine
 10
-34.005050475491487
 20
26.79797979226656
 30
0.0
 11
-34.499999970158171
 21
26.79797979226656
 31
0.0
  0
LINE
  5
2C6
100
AcDbEntity
  8
0
  6
CONTINUOUS
 62
               4
100
AcDbLine
 10
-34.005050475491487
 20
31.796969688399926
 30
0.0
 11
-34.499999970158171
 21
31.796969688399926
 31
0.0
  0
LINE
  5
2C7
100
AcDbEntity
  8
0
  6
CONTINUOUS
 62
               4
100
AcDbLine
 10
-38.098989867091461
 20
32.799999999999883
 30
0.0
 11
-38.403030270958141
 21
32.495959596133204
 31
0.0
  0
LINE
  5
2C8
100
AcDbEntity
  8
0
  6
CONTINUOUS
 62
               4
100
AcDbLine
 10
-38.403030270958141
 20
32.495959596133204
 30
0.0
 11
-38.403030270958141
 21
26.599999994399909
 31
0.0
  0
LINE
  5
2C9
100
AcDbEntity
  8
0
  6
CONTINUOUS
 62
               4
100
AcDbLine
 10
-38.098989867091461
 20
32.799999999999883
 30
0.0
 11
-38.098989867091461
 21
25.199999995199946
 31
0.0
  0
LINE
  5
2CA
100
AcDbEntity
  8
0
  6
CONTINUOUS
 62
               4
100
AcDbLine
 10
-39.103030270558122
 20
23.799999995999926
 30
0.0
 11
-39.103030270558122
 21
18.101010100266578
 31
0.0
  0
LINE
  5
2CB
100
AcDbEntity
  8
0
  6
CONTINUOUS
 62
               4
100
AcDbLine
 10
-38.897979765624825
 20
25.12929292453326
 30
0.0
 11
-40.01515148215816
 21
31.471717163333253
 31
0.0
  0
LINE
  5
2CC
100
AcDbEntity
  8
0
  6
CONTINUOUS
 62
               4
100
AcDbLine
 10
-40.001010068024868
 20
32.799999999999883
 30
0.0
 11
-40.99797976442477
 21
32.799999999999883
 31
0.0
  0
LINE
  5
2CD
100
AcDbEntity
  8
0
  6
CONTINUOUS
 62
               4
100
AcDbLine
 10
-40.001010068024868
 20
32.799999999999883
 30
0.0
 11
-40.001010068024868
 21
31.386868678533219
 31
0.0
  0
LINE
  5
2CE
100
AcDbEntity
  8
0
  6
CONTINUOUS
 62
               4
100
AcDbLine
 10
-40.099999966958137
 20
26.196969691599904
 30
0.0
 11
-40.99797976442477
 21
31.302020193733242
 31
0.0
  0
LINE
  5
2CF
100
AcDbEntity
  8
0
  6
CONTINUOUS
 62
               4
100
AcDbLine
 10
-40.99797976442477
 20
32.799999999999883
 30
0.0
 11
-40.99797976442477
 21
31.302020193733242
 31
0.0
  0
LINE
  5
2D0
100
AcDbEntity
  8
0
  6
CONTINUOUS
 62
               4
100
AcDbLine
 10
-37.39898986749148
 20
32.799999999999883
 30
0.0
 11
-37.39898986749148
 21
24.796969692399941
 31
0.0
  0
LINE
  5
2D1
100
AcDbEntity
  8
0
  6
CONTINUOUS
 62
               4
100
AcDbLine
 10
-35.603030272558101
 20
32.799999999999883
 30
0.0
 11
-35.603030272558101
 21
24.796969692399941
 31
0.0
  0
LINE
  5
2D2
100
AcDbEntity
  8
0
  6
CONTINUOUS
 62
               4
100
AcDbLine
 10
-34.005050475491487
 20
32.799999999999883
 30
0.0
 11
-38.098989867091461
 21
32.799999999999883
 31
0.0
  0
LINE
  5
2D3
100
AcDbEntity
  8
0
  6
CONTINUOUS
 62
               4
100
AcDbLine
 10
-34.005050475491487
 20
5.2999999999999119
 30
0.0
 11
-38.714141381891466
 21
7.4919191906666498
 31
0.0
  0
LINE
  5
2D4
100
AcDbEntity
  8
0
  6
CONTINUOUS
 62
               4
100
AcDbLine
 10
-39.004040371624853
 20
24.298989888133363
 30
0.0
 11
-39.004040371624853
 21
7.9444444429332606
 31
0.0
  0
LINE
  5
2D5
100
AcDbEntity
  8
0
  6
CONTINUOUS
 62
               4
100
AcDbLine
 10
-30.99999997215815
 20
24.793939382800048
 30
0.0
 11
-38.502020169891523
 21
24.793939382800048
 31
0.0
  0
LINE
  5
2D6
100
AcDbEntity
  8
0
  6
CONTINUOUS
 62
               4
100
AcDbLine
 10
-18.999999976158108
 20
26.20000000000006
 30
0.0
 11
-30.99999997215815
 21
26.20000000000006
 31
0.0
  0
LINE
  5
2D7
100
AcDbEntity
  8
0
  6
CONTINUOUS
 62
               4
100
AcDbLine
 10
-18.999999976158108
 20
27.800000000000026
 30
0.0
 11
-18.999999976158108
 21
26.20000000000006
 31
0.0
  0
ARC
  5
2D8
100
AcDbEntity
  8
0
  6
CONTINUOUS
 62
               4
100
AcDbCircle
 10
-17.499999980158179
 20
27.20000000000006
 30
0.0
 40
0.5
100
AcDbArc
 50
0.0
 51
89.999999999999815
  0
ARC
  5
2D9
100
AcDbEntity
  8
0
  6
CONTINUOUS
 62
               4
100
AcDbCircle
 10
-30.49999997215815
 20
27.20000000000006
 30
0.0
 40
0.5
100
AcDbArc
 50
93.919585899650798
 51
179.99999999999963
  0
ARC
  5
2DA
100
AcDbEntity
  8
0
  6
CONTINUOUS
 62
               4
100
AcDbCircle
 10
-30.201087891286363
 20
27.201088005128227
 30
0.0
 40
0.5989129231257409
100
AcDbArc
 50
89.895914524772735
 51
180.10408547522667
  0
ARC
  5
2DB
100
AcDbEntity
  8
0
  6
CONTINUOUS
 62
               4
100
AcDbCircle
 10
-17.799904919509515
 20
27.200095146648678
 30
0.0
 40
0.5999048008965869
100
AcDbArc
 50
56.247417870393882
 51
90.009087277546172
  0
LINE
  5
2DC
100
AcDbEntity
  8
0
  6
CONTINUOUS
 62
               4
100
AcDbLine
 10
-17.800000066158134
 20
27.800000000000026
 30
0.0
 11
-30.199999886158196
 21
27.800000000000026
 31
0.0
  0
LINE
  5
2DD
100
AcDbEntity
  8
0
  6
CONTINUOUS
 62
               4
100
AcDbLine
 10
-17.499999980158179
 20
27.70000000000006
 30
0.0
 11
-18.999999976158108
 21
27.70000000000006
 31
0.0
  0
LINE
  5
2DE
100
AcDbEntity
  8
0
  6
CONTINUOUS
 62
               4
100
AcDbLine
 10
-28.299999976158176
 20
27.20000000000006
 30
0.0
 11
-30.99999997215815
 21
27.20000000000006
 31
0.0
  0
LINE
  5
2DF
100
AcDbEntity
  8
0
  6
CONTINUOUS
 62
               4
100
AcDbLine
 10
-28.299999976158176
 20
27.800000000000026
 30
0.0
 11
-28.299999976158176
 21
27.20000000000006
 31
0.0
  0
LINE
  5
2E0
100
AcDbEntity
  8
0
  6
CONTINUOUS
 62
               4
100
AcDbLine
 10
-16.999999976158165
 20
5.2999999999999972
 30
0.0
 11
-34.000002792684938
 21
5.2999999999999972
 31
0.0
  0
LINE
  5
2E1
100
AcDbEntity
  8
0
  6
CONTINUOUS
 62
               4
100
AcDbLine
 10
-16.999999976158165
 20
27.200000000000003
 30
0.0
 11
-16.999999976158165
 21
5.2999999999999972
 31
0.0
  0
LINE
  5
2E2
100
AcDbEntity
  8
0
  6
CONTINUOUS
 62
               4
100
AcDbLine
 10
-30.999999976158165
 20
5.2999999999999972
 30
0.0
 11
-30.999999976158165
 21
27.19999999493227
 31
0.0
  0
LINE
  5
2E3
100
AcDbEntity
  8
0
  6
CONTINUOUS
 62
               4
100
AcDbLine
 10
-36.253535322691448
 20
43.794949488666575
 30
0.0
 11
-36.748484817358133
 21
43.794949488666575
 31
0.0
  0
ENDBLK
  5
2E4
100
AcDbEntity
  8
0
100
AcDbBlockEnd
  0
BLOCK
  5
2E5
100
AcDbEntity
  8
0
100
AcDbBlockBegin
  2
EA10A5-7
 70
               0
 10
0.0
 20
0.0
 30
0.0
  3
EA10A5-7
  1

  0
LINE
  5
2E6
100
AcDbEntity
  8
0
  6
PHANTOM
 62
             200
100
AcDbLine
 10
16.200000000000017
 20
-18.400000000000006
 30
0.0
 11
16.200000000000017
 21
-26.400000000000006
 31
0.0
  0
LINE
  5
2E7
100
AcDbEntity
  8
0
  6
PHANTOM
 62
             200
100
AcDbLine
 10
14.200000000000017
 20
-18.400000000000006
 30
0.0
 11
14.200000000000017
 21
-26.400000000000006
 31
0.0
  0
LINE
  5
2E8
100
AcDbEntity
  8
0
  6
PHANTOM
 62
             200
100
AcDbLine
 10
16.700000000000017
 20
-18.900000000000006
 30
0.0
 11
16.700000000000017
 21
-25.900000000000006
 31
0.0
  0
ARC
  5
2E9
100
AcDbEntity
  8
0
  6
PHANTOM
 62
             200
100
AcDbCircle
 10
16.200000000000017
 20
-25.900000000000006
 30
0.0
 40
0.5
100
AcDbArc
 50
269.99999999999937
 51
0.0
  0
ARC
  5
2EA
100
AcDbEntity
  8
0
  6
PHANTOM
 62
             200
100
AcDbCircle
 10
16.200000000000017
 20
-18.900000000000006
 30
0.0
 40
0.5
100
AcDbArc
 50
0.0
 51
89.999999999999815
  0
ARC
  5
2EB
100
AcDbEntity
  8
0
  6
PHANTOM
 62
             200
100
AcDbCircle
 10
16.200000000000017
 20
-1.3000000000000114
 30
0.0
 40
0.5
100
AcDbArc
 50
0.0
 51
89.999999999999815
  0
ARC
  5
2EC
100
AcDbEntity
  8
0
  6
PHANTOM
 62
             200
100
AcDbCircle
 10
16.200000000000017
 20
-8.3000000000000114
 30
0.0
 40
0.5
100
AcDbArc
 50
269.99999999999937
 51
0.0
  0
LINE
  5
2ED
100
AcDbEntity
  8
0
  6
PHANTOM
 62
             200
100
AcDbLine
 10
16.700000000000017
 20
-1.3000000000000114
 30
0.0
 11
16.700000000000017
 21
-8.3000000000000114
 31
0.0
  0
LINE
  5
2EE
100
AcDbEntity
  8
0
  6
PHANTOM
 62
             200
100
AcDbLine
 10
14.200000000000017
 20
-0.8000000000000114
 30
0.0
 11
14.200000000000017
 21
-8.8000000000000114
 31
0.0
  0
LINE
  5
2EF
100
AcDbEntity
  8
0
  6
PHANTOM
 62
             200
100
AcDbLine
 10
16.200000000000017
 20
-0.8000000000000114
 30
0.0
 11
16.200000000000017
 21
-8.8000000000000114
 31
0.0
  0
LINE
  5
2F0
100
AcDbEntity
  8
0
  6
PHANTOM
 62
             200
100
AcDbLine
 10
2.7000000000000028
 20
-8.8000000000000114
 30
0.0
 11
16.200000000000017
 21
-8.8000000000000114
 31
0.0
  0
LINE
  5
2F1
100
AcDbEntity
  8
0
  6
PHANTOM
 62
             200
100
AcDbLine
 10
2.7000000000000028
 20
-0.8000000000000114
 30
0.0
 11
16.200000000000017
 21
-0.8000000000000114
 31
0.0
  0
LINE
  5
2F2
100
AcDbEntity
  8
0
  6
CENTER
 62
               2
100
AcDbLine
 10
0.2162062056379739
 20
-4.8000000000000114
 30
0.0
 11
17.830000000000013
 21
-4.8000000000000114
 31
0.0
  0
LINE
  5
2F3
100
AcDbEntity
  8
0
  6
PHANTOM
 62
             200
100
AcDbLine
 10
2.7000000000000028
 20
-26.400000000000006
 30
0.0
 11
16.200000000000017
 21
-26.400000000000006
 31
0.0
  0
LINE
  5
2F4
100
AcDbEntity
  8
0
  6
PHANTOM
 62
             200
100
AcDbLine
 10
2.7000000000000028
 20
-18.400000000000006
 30
0.0
 11
16.200000000000017
 21
-18.400000000000006
 31
0.0
  0
LINE
  5
2F5
100
AcDbEntity
  8
0
  6
CENTER
 62
               2
100
AcDbLine
 10
0.2162062056379739
 20
-22.400000000000006
 30
0.0
 11
17.830000000000013
 21
-22.400000000000006
 31
0.0
  0
LINE
  5
2F6
100
AcDbEntity
  8
0
  6
CONTINUOUS
 62
               7
100
AcDbLine
 10
-14.299999999999997
 20
2.6999999999999886
 30
0.0
 11
-13.299999999999997
 21
2.6999999999999886
 31
0.0
  0
LINE
  5
2F7
100
AcDbEntity
  8
0
  6
CONTINUOUS
 62
               7
100
AcDbLine
 10
-14.299999999999997
 20
-32.300000000000011
 30
0.0
 11
-14.299999999999997
 21
2.6999999999999886
 31
0.0
  0
LINE
  5
2F8
100
AcDbEntity
  8
0
  6
CONTINUOUS
 62
               7
100
AcDbLine
 10
-4.6000000000000085
 20
-17.999001430615181
 30
0.0
 11
-3.2999999999999972
 21
-17.999001430615181
 31
0.0
  0
LINE
  5
2F9
100
AcDbEntity
  8
0
  6
CONTINUOUS
 62
               7
100
AcDbLine
 10
-4.6000000000000085
 20
-21.199001430615169
 30
0.0
 11
-3.2999999999999972
 21
-21.199001430615169
 31
0.0
  0
LINE
  5
2FA
100
AcDbEntity
  8
0
  6
CONTINUOUS
 62
               7
100
AcDbLine
 10
-11.999999999999986
 20
-8.3990014306152148
 30
0.0
 11
-13.299999999999997
 21
-8.3990014306152148
 31
0.0
  0
LINE
  5
2FB
100
AcDbEntity
  8
0
  6
CONTINUOUS
 62
               7
100
AcDbLine
 10
-11.999999999999986
 20
-11.599001430615203
 30
0.0
 11
-13.299999999999997
 21
-11.599001430615203
 31
0.0
  0
ARC
  5
2FC
100
AcDbEntity
  8
0
  6
CONTINUOUS
 62
               7
100
AcDbCircle
 10
-4.6000000000000085
 20
-19.599001430615175
 30
0.0
 40
1.6000000000000001
100
AcDbArc
 50
89.999999999999815
 51
269.99999999999937
  0
ARC
  5
2FD
100
AcDbEntity
  8
0
  6
CONTINUOUS
 62
               7
100
AcDbCircle
 10
-11.999999999999986
 20
-9.9990014306152091
 30
0.0
 40
1.6000000000000001
100
AcDbArc
 50
269.99999999999937
 51
89.999999999999801
  0
LINE
  5
2FE
100
AcDbEntity
  8
0
  6
CONTINUOUS
 62
               7
100
AcDbLine
 10
2.7000000000000028
 20
2.6999999999999886
 30
0.0
 11
2.7000000000000028
 21
-32.300000000000011
 31
0.0
  0
LINE
  5
2FF
100
AcDbEntity
  8
0
  6
CENTER
 62
               2
100
AcDbLine
 10
0.0
 20
2.5
 30
0.0
 11
0.0
 21
-2.5
 31
0.0
  0
LINE
  5
300
100
AcDbEntity
  8
0
  6
CENTER
 62
               2
100
AcDbLine
 10
0.0
 20
-27.099999999999994
 30
0.0
 11
0.0
 21
-32.099999999999994
 31
0.0
  0
CIRCLE
  5
301
100
AcDbEntity
  8
0
  6
CONTINUOUS
 62
               7
100
AcDbCircle
 10
0.0000183105468778
 20
-29.599993896484364
 30
0.0
 40
1.5499992370605469
  0
CIRCLE
  5
302
100
AcDbEntity
  8
0
  6
CONTINUOUS
 62
               7
100
AcDbCircle
 10
0.0000183105468778
 20
-0.0000030517578011
 30
0.0
 40
1.5499992370605469
  0
LINE
  5
303
100
AcDbEntity
  8
0
  6
CENTER
 62
               2
100
AcDbLine
 10
-2.5
 20
-29.599999999999994
 30
0.0
 11
2.5
 21
-29.599999999999994
 31
0.0
  0
LINE
  5
304
100
AcDbEntity
  8
0
  6
CENTER
 62
               2
100
AcDbLine
 10
-2.5
 20
0.0
 30
0.0
 11
2.5
 21
0.0
 31
0.0
  0
LINE
  5
305
100
AcDbEntity
  8
0
  6
CONTINUOUS
 62
               7
100
AcDbLine
 10
-3.2999999999999972
 20
2.6999999999999886
 30
0.0
 11
2.7000000000000028
 21
2.6999999999999886
 31
0.0
  0
LINE
  5
306
100
AcDbEntity
  8
0
  6
CONTINUOUS
 62
               7
100
AcDbLine
 10
-14.299999999999997
 20
-32.300000000000011
 30
0.0
 11
2.7000000000000028
 21
-32.300000000000011
 31
0.0
  0
ARC
  5
307
100
AcDbEntity
  8
0
  6
CONTINUOUS
 62
               7
100
AcDbCircle
 10
-12.70944603189092
 20
-27.630750161962141
 30
0.0
 40
0.6105564724372722
100
AcDbArc
 50
179.83589550320582
 51
253.77907243150949
  0
LINE
  5
308
100
AcDbEntity
  8
0
  6
CONTINUOUS
 62
               7
100
AcDbLine
 10
-3.4999999999999858
 20
-28.899001430615186
 30
0.0
 11
-13.100000000000009
 21
-28.899001430615186
 31
0.0
  0
LINE
  5
309
100
AcDbEntity
  8
0
  6
CONTINUOUS
 62
               7
100
AcDbLine
 10
-13.319999999999979
 20
-27.099001430615175
 30
0.0
 11
-9.7999999999999972
 21
-27.099001430615175
 31
0.0
  0
ARC
  5
30A
100
AcDbEntity
  8
0
  6
CONTINUOUS
 62
               7
100
AcDbCircle
 10
-13.000895136858887
 20
-26.799896567474065
 30
0.0
 40
0.2991062025847394
100
AcDbArc
 50
179.82853033398985
 51
270.17146966600922
  0
ARC
  5
30B
100
AcDbEntity
  8
0
  6
CONTINUOUS
 62
               7
100
AcDbCircle
 10
-13.100000000000009
 20
-28.699001430615198
 30
0.0
 40
0.2
100
AcDbArc
 50
179.99999999999963
 51
269.99999999999937
  0
LINE
  5
30C
100
AcDbEntity
  8
0
  6
CONTINUOUS
 62
               7
100
AcDbLine
 10
-9.7999999999999972
 20
-28.899001430615186
 30
0.0
 11
-9.7999999999999972
 21
-27.099001430615175
 31
0.0
  0
ARC
  5
30D
100
AcDbEntity
  8
0
  6
CONTINUOUS
 62
               7
100
AcDbCircle
 10
-11.600000000000009
 20
-23.811580193881213
 30
0.0
 40
4.5876068132596712
100
AcDbArc
 50
253.79871892415684
 51
286.20128107584191
  0
ARC
  5
30E
100
AcDbEntity
  8
0
  6
CONTINUOUS
 62
               7
100
AcDbCircle
 10
-10.491771995833901
 20
-27.629838712644187
 30
0.0
 40
0.6117725687931934
100
AcDbArc
 50
286.30661609184898
 51
0.0784159734340139
  0
LINE
  5
30F
100
AcDbEntity
  8
0
  6
CONTINUOUS
 62
               7
100
AcDbLine
 10
-9.8799999999999812
 20
-27.629001430615148
 30
0.0
 11
-9.8799999999999812
 21
-27.099001430615175
 31
0.0
  0
LINE
  5
310
100
AcDbEntity
  8
0
  6
CONTINUOUS
 62
               7
100
AcDbLine
 10
-13.299999999999997
 20
-28.699001430615198
 30
0.0
 11
-13.299999999999997
 21
-27.785750861269236
 31
0.0
  0
LINE
  5
311
100
AcDbEntity
  8
0
  6
CONTINUOUS
 62
               7
100
AcDbLine
 10
-13.319999999999979
 20
-27.629001430615148
 30
0.0
 11
-13.319999999999979
 21
-27.099001430615175
 31
0.0
  0
ARC
  5
312
100
AcDbEntity
  8
0
  6
CONTINUOUS
 62
               7
100
AcDbCircle
 10
-3.4999999999999858
 20
-28.699001430615198
 30
0.0
 40
0.2
100
AcDbArc
 50
269.99999999999937
 51
0.0
  0
LINE
  5
313
100
AcDbEntity
  8
0
  6
CONTINUOUS
 62
               7
100
AcDbLine
 10
-3.2999999999999972
 20
-23.899001430615186
 30
0.0
 11
-13.299999999999997
 21
-23.899001430615186
 31
0.0
  0
LINE
  5
314
100
AcDbEntity
  8
0
  6
CONTINUOUS
 62
               7
100
AcDbLine
 10
-3.2999999999999972
 20
-28.699001430615198
 30
0.0
 11
-3.2999999999999972
 21
-20.346334338585109
 31
0.0
  0
LINE
  5
315
100
AcDbEntity
  8
0
  6
CONTINUOUS
 62
               7
100
AcDbLine
 10
-13.299999999999997
 20
-27.099001430615175
 30
0.0
 11
-13.299999999999997
 21
-10.747332907969962
 31
0.0
  0
LINE
  5
316
100
AcDbEntity
  8
0
  6
CONTINUOUS
 62
               7
100
AcDbLine
 10
-3.2999999999999972
 20
-5.6990014306151693
 30
0.0
 11
-13.299999999999997
 21
-5.6990014306151693
 31
0.0
  0
CIRCLE
  5
317
100
AcDbEntity
  8
0
  6
CONTINUOUS
 62
               7
100
AcDbCircle
 10
-8.2999999999999972
 20
3.0009985693848193
 30
0.0
 40
0.75
  0
CIRCLE
  5
318
100
AcDbEntity
  8
0
  6
CONTINUOUS
 62
               7
100
AcDbCircle
 10
-8.2999999999999972
 20
3.0009985693848193
 30
0.0
 40
1.1000000000000001
  0
CIRCLE
  5
319
100
AcDbEntity
  8
0
  6
CONTINUOUS
 62
               7
100
AcDbCircle
 10
-8.2999999999999972
 20
3.0009985693848193
 30
0.0
 40
1.1500000000000001
  0
CIRCLE
  5
31A
100
AcDbEntity
  8
0
  6
CONTINUOUS
 62
               7
100
AcDbCircle
 10
-8.2999999999999972
 20
3.0009985693848193
 30
0.0
 40
1.3000000000000012
  0
LINE
  5
31B
100
AcDbEntity
  8
0
  6
CENTER
 62
               2
100
AcDbLine
 10
-6.6000000000000085
 20
3.0009985693848193
 30
0.0
 11
-9.9999999999999858
 21
3.0009985693848193
 31
0.0
  0
ARC
  5
31C
100
AcDbEntity
  8
0
  6
CONTINUOUS
 62
               7
100
AcDbCircle
 10
-8.2999999999999972
 20
1.3009985693848307
 30
0.0
 40
2.0
100
AcDbArc
 50
179.99999999999963
 51
0.0
  0
LINE
  5
31D
100
AcDbEntity
  8
0
  6
CONTINUOUS
 62
               7
100
AcDbLine
 10
-6.2999999999999972
 20
1.3009985693848307
 30
0.0
 11
-6.2999999999999972
 21
5.3009985693848307
 31
0.0
  0
LINE
  5
31E
100
AcDbEntity
  8
0
  6
CONTINUOUS
 62
               7
100
AcDbLine
 10
-10.299999999999997
 20
1.3009985693848307
 30
0.0
 11
-10.299999999999997
 21
5.3009985693848307
 31
0.0
  0
LINE
  5
31F
100
AcDbEntity
  8
0
  6
CONTINUOUS
 62
               7
100
AcDbLine
 10
-3.2999999999999972
 20
-5.6990014306151693
 30
0.0
 11
-3.2999999999999972
 21
5.3009985693848307
 31
0.0
  0
LINE
  5
320
100
AcDbEntity
  8
0
  6
CONTINUOUS
 62
               7
100
AcDbLine
 10
-13.299999999999997
 20
-5.6990014306151693
 30
0.0
 11
-13.299999999999997
 21
5.3009985693848307
 31
0.0
  0
LINE
  5
321
100
AcDbEntity
  8
0
  6
CENTER
 62
               2
100
AcDbLine
 10
-6.9699999999999989
 20
3.0
 30
0.0
 11
-9.6400000000000006
 21
3.0
 31
0.0
  0
CIRCLE
  5
322
100
AcDbEntity
  8
0
  6
CONTINUOUS
 62
               7
100
AcDbCircle
 10
-4.6000000000000085
 20
-19.598002861230356
 30
0.0
 40
1.5
  0
LINE
  5
323
100
AcDbEntity
  8
0
  6
CONTINUOUS
 62
               7
100
AcDbLine
 10
-3.8928932188135121
 20
-20.3061082118017
 30
0.0
 11
-5.3071067811865618
 21
-18.891894649428593
 31
0.0
  0
LINE
  5
324
100
AcDbEntity
  8
0
  6
CONTINUOUS
 62
               7
100
AcDbLine
 10
-5.3071067811865618
 20
-20.3061082118017
 30
0.0
 11
-3.8928932188134837
 21
-18.891894649428593
 31
0.0
  0
CIRCLE
  5
325
100
AcDbEntity
  8
0
  6
CONTINUOUS
 62
               7
100
AcDbCircle
 10
-11.999999999999986
 20
-9.9990014306151807
 30
0.0
 40
1.5
  0
LINE
  5
326
100
AcDbEntity
  8
0
  6
CONTINUOUS
 62
               7
100
AcDbLine
 10
-11.292893218813489
 20
-10.707106781186525
 30
0.0
 11
-12.707106781186539
 21
-9.2928932188134468
 31
0.0
  0
LINE
  5
327
100
AcDbEntity
  8
0
  6
CONTINUOUS
 62
               7
100
AcDbLine
 10
-12.707106781186539
 20
-10.707106781186525
 30
0.0
 11
-11.292893218813461
 21
-9.2928932188134468
 31
0.0
  0
LINE
  5
328
100
AcDbEntity
  8
0
  6
CONTINUOUS
 62
               7
100
AcDbLine
 10
-3.2999999999999972
 20
-18.849671383875602
 30
0.0
 11
-3.2999999999999972
 21
-5.6990014306151693
 31
0.0
  0
LINE
  5
329
100
AcDbEntity
  8
0
  6
CONTINUOUS
 62
               7
100
AcDbLine
 10
-13.299999999999997
 20
-9.2506699532603989
 30
0.0
 11
-13.299999999999997
 21
-5.6990014306151693
 31
0.0
  0
ARC
  5
32A
100
AcDbEntity
  8
0
  6
CONTINUOUS
 62
               7
100
AcDbCircle
 10
-8.2999999999999972
 20
1.3009985693848307
 30
0.0
 40
3.090998569384837
100
AcDbArc
 50
179.99999999999963
 51
0.0
  0
LINE
  5
32B
100
AcDbEntity
  8
0
  6
CONTINUOUS
 62
               7
100
AcDbLine
 10
-5.2090014306151602
 20
1.3009985693848307
 30
0.0
 11
-5.2090014306151602
 21
5.3009985693848307
 31
0.0
  0
LINE
  5
32C
100
AcDbEntity
  8
0
  6
CONTINUOUS
 62
               7
100
AcDbLine
 10
-11.390998569384834
 20
1.3009985693848307
 30
0.0
 11
-11.390998569384834
 21
5.3009985693848307
 31
0.0
  0
LINE
  5
32D
100
AcDbEntity
  8
0
  6
CONTINUOUS
 62
               4
100
AcDbLine
 10
-4.2379999999999853
 20
6.378998565118934
 30
0.0
 11
-12.362000000000009
 21
6.378998565118934
 31
0.0
  0
LINE
  5
32E
100
AcDbEntity
  8
0
  6
CONTINUOUS
 62
               4
100
AcDbLine
 10
-3.7999999999999972
 20
23.800998569384831
 30
0.0
 11
-12.799999999999997
 21
23.800998569384831
 31
0.0
  0
LINE
  5
32F
100
AcDbEntity
  8
0
  6
CONTINUOUS
 62
               4
100
AcDbLine
 10
-3.2999999999999972
 20
26.200998569384808
 30
0.0
 11
-6.5000000000000426
 21
26.200998569384808
 31
0.0
  0
LINE
  5
330
100
AcDbEntity
  8
0
  6
CONTINUOUS
 62
               4
100
AcDbLine
 10
-3.2999999999999972
 20
27.800998569384831
 30
0.0
 11
-13.299999999999997
 21
27.800998569384831
 31
0.0
  0
LINE
  5
331
100
AcDbEntity
  8
0
  6
CONTINUOUS
 62
               4
100
AcDbLine
 10
-3.2999999999999972
 20
27.200998569384808
 30
0.0
 11
-6.5000000000000426
 21
27.200998569384808
 31
0.0
  0
LINE
  5
332
100
AcDbEntity
  8
0
  6
CONTINUOUS
 62
               4
100
AcDbLine
 10
-13.299999999999997
 20
5.3009985693848307
 30
0.0
 11
-3.2999999999999972
 21
5.3009985693848307
 31
0.0
  0
ARC
  5
333
100
AcDbEntity
  8
0
  6
CONTINUOUS
 62
               4
100
AcDbCircle
 10
-12.799702975793863
 20
5.8012955935909361
 30
0.0
 40
0.5002971123771115
100
AcDbArc
 50
180.03401625554557
 51
269.96598374445358
  0
LINE
  5
334
100
AcDbEntity
  8
0
  6
PHANTOM
 62
             200
100
AcDbLine
 10
-9.8000183105468608
 20
12.80099856511535
 30
0.0
 11
-9.8000183105468608
 21
10.80099856511535
 31
0.0
  0
LINE
  5
335
100
AcDbEntity
  8
0
  6
PHANTOM
 62
             200
100
AcDbLine
 10
-6.8000183105468608
 20
12.80099856511535
 30
0.0
 11
-6.8000183105468608
 21
10.80099856511535
 31
0.0
  0
LINE
  5
336
100
AcDbEntity
  8
0
  6
PHANTOM
 62
             200
100
AcDbLine
 10
-9.8000183105468608
 20
10.80099856511535
 30
0.0
 11
-6.8000183105468608
 21
10.80099856511535
 31
0.0
  0
LINE
  5
337
100
AcDbEntity
  8
0
  6
PHANTOM
 62
             200
100
AcDbLine
 10
-9.8000183105468608
 20
12.80099856511535
 30
0.0
 11
-6.8000183105468608
 21
12.80099856511535
 31
0.0
  0
LINE
  5
338
100
AcDbEntity
  8
0
  6
CONTINUOUS
 62
               4
100
AcDbLine
 10
-6.5000000000000426
 20
27.700998569384808
 30
0.0
 11
-12.799999999999997
 21
27.700998569384808
 31
0.0
  0
LINE
  5
339
100
AcDbEntity
  8
0
  6
CONTINUOUS
 62
               4
100
AcDbLine
 10
-6.5000000000000426
 20
27.700998569384808
 30
0.0
 11
-6.5000000000000426
 21
26.200998569384808
 31
0.0
  0
ARC
  5
33A
100
AcDbEntity
  8
0
  6
CONTINUOUS
 62
               4
100
AcDbCircle
 10
-12.799999999999997
 20
27.200998569384808
 30
0.0
 40
0.5
100
AcDbArc
 50
89.999999999999815
 51
179.99999999999963
  0
CIRCLE
  5
33B
100
AcDbEntity
  8
0
  6
CONTINUOUS
 62
               4
100
AcDbCircle
 10
-7.0494061279296574
 20
20.300998569384831
 30
0.0
 40
0.25
  0
CIRCLE
  5
33C
100
AcDbEntity
  8
0
  6
CONTINUOUS
 62
               4
100
AcDbCircle
 10
-9.5494061279296574
 20
20.300998569384831
 30
0.0
 40
0.25
  0
LINE
  5
33D
100
AcDbEntity
  8
0
  6
CONTINUOUS
 62
               4
100
AcDbLine
 10
-12.862000000000009
 20
23.300998569384831
 30
0.0
 11
-12.862000000000009
 21
6.878998565118934
 31
0.0
  0
ARC
  5
33E
100
AcDbEntity
  8
0
  6
CONTINUOUS
 62
               4
100
AcDbCircle
 10
-12.361982055342068
 20
23.30098062472689
 30
0.0
 40
0.5000179449799356
100
AcDbArc
 50
90.002056232531103
 51
179.99794376746806
  0
ARC
  5
33F
100
AcDbEntity
  8
0
  6
CONTINUOUS
 62
               4
100
AcDbCircle
 10
-12.799702975793863
 20
23.300701545178697
 30
0.0
 40
0.5002971123771114
100
AcDbArc
 50
90.034016255545609
 51
179.96598374445358
  0
ARC
  5
340
100
AcDbEntity
  8
0
  6
CONTINUOUS
 62
               4
100
AcDbCircle
 10
-12.362213560790835
 20
6.8787850043281082
 30
0.0
 40
0.4997864848369056
100
AcDbArc
 50
179.97551728042748
 51
270.02448271957149
  0
ARC
  5
341
100
AcDbEntity
  8
0
  6
CONTINUOUS
 62
               4
100
AcDbCircle
 10
-7.0499999999999972
 20
20.300998569384831
 30
0.0
 40
2.0000000881710065
100
AcDbArc
 50
269.99999999999937
 51
89.999999999999801
  0
ARC
  5
342
100
AcDbEntity
  8
0
  6
CONTINUOUS
 62
               4
100
AcDbCircle
 10
-9.5499999999999972
 20
20.300998569384831
 30
0.0
 40
2.0000000881710065
100
AcDbArc
 50
89.999999999999815
 51
269.99999999999937
  0
LINE
  5
343
100
AcDbEntity
  8
0
  6
CONTINUOUS
 62
               4
100
AcDbLine
 10
-7.0499999999999972
 20
22.300998569384831
 30
0.0
 11
-9.5499999999999972
 21
22.300998569384831
 31
0.0
  0
LINE
  5
344
100
AcDbEntity
  8
0
  6
CONTINUOUS
 62
               4
100
AcDbLine
 10
-7.0499999999999972
 20
18.300998569384831
 30
0.0
 11
-9.5499999999999972
 21
18.300998569384831
 31
0.0
  0
CIRCLE
  5
345
100
AcDbEntity
  8
0
  6
CONTINUOUS
 62
               4
100
AcDbCircle
 10
-7.0494061279296574
 20
20.300998569384831
 30
0.0
 40
0.7250000000000001
  0
CIRCLE
  5
346
100
AcDbEntity
  8
0
  6
CONTINUOUS
 62
               4
100
AcDbCircle
 10
-9.5494061279296574
 20
20.300998569384831
 30
0.0
 40
0.7250000000000001
  0
ARC
  5
347
100
AcDbEntity
  8
0
  6
CONTINUOUS
 62
               4
100
AcDbCircle
 10
-5.8970880052370802
 20
27.202086574621831
 30
0.0
 40
0.5989129830170392
100
AcDbArc
 50
89.895914524772735
 51
180.10408547522667
  0
LINE
  5
348
100
AcDbEntity
  8
0
  6
CONTINUOUS
 62
               4
100
AcDbLine
 10
-13.299999999999997
 20
27.800998569384831
 30
0.0
 11
-13.299999999999997
 21
5.3009985693848307
 31
0.0
  0
ARC
  5
349
100
AcDbEntity
  8
0
  6
CONTINUOUS
 62
               4
100
AcDbCircle
 10
-3.7997031521357911
 20
5.8007017215206247
 30
0.0
 40
0.4997032403068001
100
AcDbArc
 50
269.96596353714654
 51
0.0340364628527164
  0
LINE
  5
34A
100
AcDbEntity
  8
0
  6
CONTINUOUS
 62
               4
100
AcDbLine
 10
-3.7379999999999853
 20
23.300998569384831
 30
0.0
 11
-3.7379999999999853
 21
6.878998565118934
 31
0.0
  0
ARC
  5
34B
100
AcDbEntity
  8
0
  6
CONTINUOUS
 62
               4
100
AcDbCircle
 10
-3.7997031521357911
 20
23.301295417249008
 30
0.0
 40
0.4997032403068001
100
AcDbArc
 50
359.96596353714654
 51
90.034036462852711
  0
ARC
  5
34C
100
AcDbEntity
  8
0
  6
CONTINUOUS
 62
               4
100
AcDbCircle
 10
-4.2374244039577178
 20
23.301574165427098
 30
0.0
 40
0.499424735650256
100
AcDbArc
 50
359.93396556302804
 51
90.066034436970796
  0
ARC
  5
34D
100
AcDbEntity
  8
0
  6
CONTINUOUS
 62
               4
100
AcDbCircle
 10
-4.2371926234663277
 20
6.8781911885852196
 30
0.0
 40
0.4991932763770037
100
AcDbArc
 50
269.90733190886618
 51
0.0926680911333844
  0
ARC
  5
34E
100
AcDbEntity
  8
0
  6
CONTINUOUS
 62
               4
100
AcDbCircle
 10
-4.0959048533418212
 20
27.201093716043005
 30
0.0
 40
0.5999048608870732
100
AcDbArc
 50
359.99091272245295
 51
90.009087277546172
  0
LINE
  5
34F
100
AcDbEntity
  8
0
  6
CONTINUOUS
 62
               4
100
AcDbLine
 10
-3.2999999999999972
 20
27.800998569384831
 30
0.0
 11
-3.2999999999999972
 21
5.3009985693848307
 31
0.0
  0
LINE
  5
350
100
AcDbEntity
  8
0
  6
CENTER
 62
               2
100
AcDbLine
 10
-8.2999999999999972
 20
29.166052508586603
 30
0.0
 11
-8.2999999999999972
 21
-31.354793953993266
 31
0.0
  0
ENDBLK
  5
351
100
AcDbEntity
  8
0
100
AcDbBlockEnd
  0
BLOCK
  5
352
100
AcDbEntity
  8
0
100
AcDbBlockBegin
  2
EA10A5-8
 70
               0
 10
0.0
 20
0.0
 30
0.0
  3
EA10A5-8
  1

  0
LINE
  5
353
100
AcDbEntity
  8
0
  6
CENTER
 62
               2
100
AcDbLine
 10
-2.0
 20
-29.599999999999994
 30
0.0
 11
2.0
 21
-29.599999999999994
 31
0.0
  0
LINE
  5
354
100
AcDbEntity
  8
0
  6
CENTER
 62
               7
100
AcDbLine
 10
-2.0
 20
0.0
 30
0.0
 11
2.0
 21
0.0
 31
0.0
  0
LINE
  5
355
100
AcDbEntity
  8
0
  6
CENTER
 62
               2
100
AcDbLine
 10
-2.0000000167243002
 20
0.0
 30
0.0
 11
1.9999999832756998
 21
0.0
 31
0.0
  0
LINE
  5
356
100
AcDbEntity
  8
0
  6
CENTER
 62
               2
100
AcDbLine
 10
24.000000021518844
 20
-31.107999999998867
 30
0.0
 11
24.000000021517764
 21
29.647850672798199
 31
0.0
  0
LINE
  5
357
100
AcDbEntity
  8
0
  6
CONTINUOUS
 62
               7
100
AcDbLine
 10
16.999996948242199
 20
-30.100006103515625
 30
0.0
 11
15.999996948242199
 21
-30.100006103515625
 31
0.0
  0
LINE
  5
358
100
AcDbEntity
  8
0
  6
CONTINUOUS
 62
               7
100
AcDbLine
 10
16.999996948242199
 20
0.4999938964843977
 30
0.0
 11
15.999996948242199
 21
0.4999938964843977
 31
0.0
  0
LINE
  5
359
100
AcDbEntity
  8
0
  6
CONTINUOUS
 62
               7
100
AcDbLine
 10
16.0
 20
-32.300000000000011
 30
0.0
 11
16.0
 21
2.6999999999999886
 31
0.0
  0
LINE
  5
35A
100
AcDbEntity
  8
0
  6
CONTINUOUS
 62
               7
100
AcDbLine
 10
0.0
 20
2.6999999999999886
 30
0.0
 11
0.0
 21
-32.300000000000011
 31
0.0
  0
LINE
  5
35B
100
AcDbEntity
  8
0
  6
CENTER
 62
               2
100
AcDbLine
 10
11.0
 20
-16.5
 30
0.0
 11
11.0
 21
-23.5
 31
0.0
  0
LINE
  5
35C
100
AcDbEntity
  8
0
  6
CENTER
 62
               2
100
AcDbLine
 10
5.0
 20
-8.8000000000000114
 30
0.0
 11
5.0
 21
-15.800000000000011
 31
0.0
  0
LINE
  5
35D
100
AcDbEntity
  8
0
  6
CENTER
 62
               2
100
AcDbLine
 10
1.5
 20
-12.300000000000011
 30
0.0
 11
8.5
 21
-12.300000000000011
 31
0.0
  0
CIRCLE
  5
35E
100
AcDbEntity
  8
0
  6
CONTINUOUS
 62
               7
100
AcDbCircle
 10
4.9999816894531364
 20
-12.300006103515614
 30
0.0
 40
2.0669994354248047
  0
CIRCLE
  5
35F
100
AcDbEntity
  8
0
  6
CONTINUOUS
 62
               7
100
AcDbCircle
 10
10.999996948242199
 20
-20.000003051757801
 30
0.0
 40
2.0669994354248047
  0
CIRCLE
  5
360
100
AcDbEntity
  8
0
  6
CONTINUOUS
 62
               2
100
AcDbCircle
 10
10.999996948242199
 20
-20.000003051757801
 30
0.0
 40
2.5
  0
CIRCLE
  5
361
100
AcDbEntity
  8
0
  6
CONTINUOUS
 62
               2
100
AcDbCircle
 10
4.9999816894531364
 20
-12.300006103515614
 30
0.0
 40
2.5
  0
LINE
  5
362
100
AcDbEntity
  8
0
  6
CENTER
 62
               2
100
AcDbLine
 10
7.5
 20
-20.0
 30
0.0
 11
14.5
 21
-20.0
 31
0.0
  0
LINE
  5
363
100
AcDbEntity
  8
0
  6
CONTINUOUS
 62
               7
100
AcDbLine
 10
16.0
 20
-32.300000000000011
 30
0.0
 11
0.0
 21
-32.300000000000011
 31
0.0
  0
LINE
  5
364
100
AcDbEntity
  8
0
  6
CONTINUOUS
 62
               7
100
AcDbLine
 10
16.0
 20
2.6999999999999886
 30
0.0
 11
0.0
 21
2.6999999999999886
 31
0.0
  0
LINE
  5
365
100
AcDbEntity
  8
0
  6
CONTINUOUS
 62
               7
100
AcDbLine
 10
27.5
 20
-27.594999999999999
 30
0.0
 11
27.5
 21
-28.694999999999993
 31
0.0
  0
LINE
  5
366
100
AcDbEntity
  8
0
  6
CONTINUOUS
 62
               7
100
AcDbLine
 10
27.549999999999983
 20
-27.924999999999983
 30
0.0
 11
27.549999999999983
 21
-27.454999999999984
 31
0.0
  0
ARC
  5
367
100
AcDbEntity
  8
0
  6
CONTINUOUS
 62
               7
100
AcDbCircle
 10
27.299998474115256
 20
-28.694998474115266
 30
0.0
 40
0.200001525890548
100
AcDbArc
 50
270.00043713043902
 51
359.99956286956035
  0
ARC
  5
368
100
AcDbEntity
  8
0
  6
CONTINUOUS
 62
               7
100
AcDbCircle
 10
27.699992370611284
 20
-27.594992370611294
 30
0.0
 40
0.1999923707568137
100
AcDbArc
 50
89.997814257754712
 51
180.00218574224468
  0
ARC
  5
369
100
AcDbEntity
  8
0
  6
CONTINUOUS
 62
               7
100
AcDbCircle
 10
27.974082972497598
 20
-27.927923464014611
 30
0.0
 40
0.4240930489930741
100
AcDbArc
 50
179.60503130945165
 51
242.76491800802398
  0
ARC
  5
36A
100
AcDbEntity
  8
0
  6
CONTINUOUS
 62
               7
100
AcDbCircle
 10
17.400003051944083
 20
-28.494996948055928
 30
0.0
 40
0.4000030519557204
100
AcDbArc
 50
180.00043715545169
 51
269.99956284454754
  0
LINE
  5
36B
100
AcDbEntity
  8
0
  6
CONTINUOUS
 62
               7
100
AcDbLine
 10
16.999999988079082
 20
-23.894999999999982
 30
0.0
 11
30.999999988079054
 21
-23.894999999999982
 31
0.0
  0
ARC
  5
36C
100
AcDbEntity
  8
0
  6
CONTINUOUS
 62
               7
100
AcDbCircle
 10
29.305000000000007
 20
-25.494981304912841
 30
0.0
 40
3.1971596874005721
100
AcDbArc
 50
241.5112711324667
 51
298.48872886753213
  0
LINE
  5
36D
100
AcDbEntity
  8
0
  6
CONTINUOUS
 62
               7
100
AcDbLine
 10
31.049999999999983
 20
-27.394999999999982
 30
0.0
 11
27.699999999999989
 21
-27.394999999999982
 31
0.0
  0
LINE
  5
36E
100
AcDbEntity
  8
0
  6
CONTINUOUS
 62
               7
100
AcDbLine
 10
30.599999999999994
 20
-28.894999999999982
 30
0.0
 11
17.400000000000006
 21
-28.894999999999982
 31
0.0
  0
LINE
  5
36F
100
AcDbEntity
  8
0
  6
CONTINUOUS
 62
               7
100
AcDbLine
 10
30.0
 20
-11.594001430615208
 30
0.0
 11
31.0
 21
-11.594001430615208
 31
0.0
  0
LINE
  5
370
100
AcDbEntity
  8
0
  6
CONTINUOUS
 62
               7
100
AcDbLine
 10
30.0
 20
-8.3940014306151909
 30
0.0
 11
31.0
 21
-8.3940014306151909
 31
0.0
  0
LINE
  5
371
100
AcDbEntity
  8
0
  6
CONTINUOUS
 62
               7
100
AcDbLine
 10
17.000000013518104
 20
-5.6949999999999932
 30
0.0
 11
31.0
 21
-5.6949999999999932
 31
0.0
  0
LINE
  5
372
100
AcDbEntity
  8
0
  6
CONTINUOUS
 62
               7
100
AcDbLine
 10
32.100000013518155
 20
-0.6949999999999932
 30
0.0
 11
32.100000013518155
 21
5.3049999999999216
 31
0.0
  0
LINE
  5
373
100
AcDbEntity
  8
0
  6
CONTINUOUS
 62
               7
100
AcDbLine
 10
32.548000013518077
 20
1.9049999999999727
 30
0.0
 11
32.100000013518155
 21
1.9049999999999727
 31
0.0
  0
LINE
  5
374
100
AcDbEntity
  8
0
  6
CONTINUOUS
 62
               7
100
AcDbLine
 10
32.548000013518134
 20
4.1050000000000182
 30
0.0
 11
32.100000013518155
 21
4.1050000000000182
 31
0.0
  0
LINE
  5
375
100
AcDbEntity
  8
0
  6
CONTINUOUS
 62
               7
100
AcDbLine
 10
32.548000013518077
 20
1.9049999999999727
 30
0.0
 11
32.548000013518134
 21
4.1050000000000182
 31
0.0
  0
LINE
  5
376
100
AcDbEntity
  8
0
  6
CONTINUOUS
 62
               7
100
AcDbLine
 10
31.000000013518161
 20
5.3049999999999216
 30
0.0
 11
31.000000013518161
 21
-5.6949999999999932
 31
0.0
  0
LINE
  5
377
100
AcDbEntity
  8
0
  6
CONTINUOUS
 62
               7
100
AcDbLine
 10
31.000000013518132
 20
-1.7900000000000205
 30
0.0
 11
32.100000013518155
 21
-0.6949999999999932
 31
0.0
  0
ARC
  5
378
100
AcDbEntity
  8
0
  6
CONTINUOUS
 62
               7
100
AcDbCircle
 10
30.599993896379601
 20
-28.494993896379583
 30
0.0
 40
0.400006103666966
100
AcDbArc
 50
270.00087426588038
 51
359.99912573411802
  0
ARC
  5
379
100
AcDbEntity
  8
0
  6
CONTINUOUS
 62
               7
100
AcDbCircle
 10
30.623582287124151
 20
-27.931810797808708
 30
0.0
 40
0.4264721008707071
100
AcDbArc
 50
298.94777670470961
 51
0.9150576515650383
  0
LINE
  5
37A
100
AcDbEntity
  8
0
  6
CONTINUOUS
 62
               7
100
AcDbLine
 10
31.0
 20
-5.6949999999999932
 30
0.0
 11
31.0
 21
-27.394999999999982
 31
0.0
  0
LINE
  5
37B
100
AcDbEntity
  8
0
  6
CONTINUOUS
 62
               7
100
AcDbLine
 10
31.0
 20
-28.125
 30
0.0
 11
31.0
 21
-28.495000000000005
 31
0.0
  0
LINE
  5
37C
100
AcDbEntity
  8
0
  6
CONTINUOUS
 62
               7
100
AcDbLine
 10
31.049999999999983
 20
-27.924999999999983
 30
0.0
 11
31.049999999999983
 21
-27.394999999999982
 31
0.0
  0
LINE
  5
37D
100
AcDbEntity
  8
0
  6
CONTINUOUS
 62
               7
100
AcDbLine
 10
30.0
 20
-8.3940014306151909
 30
0.0
 11
30.0
 21
-11.594001430615208
 31
0.0
  0
LINE
  5
37E
100
AcDbEntity
  8
0
  6
CONTINUOUS
 62
               7
100
AcDbLine
 10
17.000000013518104
 20
5.30499999999995
 30
0.0
 11
16.999996948242199
 21
-30.100006103515625
 31
0.0
  0
LINE
  5
37F
100
AcDbEntity
  8
0
  6
CONTINUOUS
 62
               7
100
AcDbLine
 10
30.599999999999994
 20
-8.8950000000000387
 30
0.0
 11
30.599999999999994
 21
-11.095000000000027
 31
0.0
  0
ARC
  5
380
100
AcDbEntity
  8
0
  6
CONTINUOUS
 62
               7
100
AcDbCircle
 10
30.199999999999989
 20
-11.095000000000027
 30
0.0
 40
0.4
100
AcDbArc
 50
270.00000000000023
 51
0.0
  0
LINE
  5
381
100
AcDbEntity
  8
0
  6
CONTINUOUS
 62
               7
100
AcDbLine
 10
30.199999999999989
 20
-11.495000000000005
 30
0.0
 11
30.0
 21
-11.495000000000005
 31
0.0
  0
ARC
  5
382
100
AcDbEntity
  8
0
  6
CONTINUOUS
 62
               7
100
AcDbCircle
 10
30.199999999999989
 20
-8.8950000000000387
 30
0.0
 40
0.4
100
AcDbArc
 50
0.0
 51
89.999999999999815
  0
LINE
  5
383
100
AcDbEntity
  8
0
  6
CONTINUOUS
 62
               7
100
AcDbLine
 10
30.199999999999989
 20
-8.4950000000000045
 30
0.0
 11
30.0
 21
-8.4950000000000045
 31
0.0
  0
LINE
  5
384
100
AcDbEntity
  8
0
  6
CONTINUOUS
 62
               4
100
AcDbLine
 10
17.000000021518161
 20
5.3050000000000637
 30
0.0
 11
34.000002838044935
 21
5.3050000000000637
 31
0.0
  0
LINE
  5
385
100
AcDbEntity
  8
0
  6
CONTINUOUS
 62
               4
100
AcDbLine
 10
46.796903960722545
 20
20.552182617187526
 30
0.0
 11
46.796903960722545
 21
20.052182617187526
 31
0.0
  0
ARC
  5
386
100
AcDbEntity
  8
0
  6
CONTINUOUS
 62
               4
100
AcDbCircle
 10
17.682904874859986
 20
27.205095146658266
 30
0.0
 40
0.5999048608870732
100
AcDbArc
 50
89.99091272245343
 51
123.56005066674096
  0
ARC
  5
387
100
AcDbEntity
  8
0
  6
CONTINUOUS
 62
               4
100
AcDbCircle
 10
17.500000021518218
 20
27.205000000000069
 30
0.0
 40
0.5
100
AcDbArc
 50
114.73039869686018
 51
179.99999999999963
  0
ARC
  5
388
100
AcDbEntity
  8
0
  6
CONTINUOUS
 62
               4
100
AcDbCircle
 10
30.500000021518218
 20
27.205000000000069
 30
0.0
 40
0.5
100
AcDbArc
 50
0.0
 51
89.999999999999815
  0
LINE
  5
389
100
AcDbEntity
  8
0
  6
CONTINUOUS
 62
               4
100
AcDbLine
 10
30.500000021518218
 20
27.705000000000069
 30
0.0
 11
29.000000021518218
 21
27.705000000000069
 31
0.0
  0
LINE
  5
38A
100
AcDbEntity
  8
0
  6
CONTINUOUS
 62
               4
100
AcDbLine
 10
17.000000021518161
 20
26.205000000000155
 30
0.0
 11
29.000002838044935
 21
26.205000000000155
 31
0.0
  0
LINE
  5
38B
100
AcDbEntity
  8
0
  6
CONTINUOUS
 62
               4
100
AcDbLine
 10
29.000002838044935
 20
27.805000000000149
 30
0.0
 11
29.000002838044935
 21
26.205000000000155
 31
0.0
  0
LINE
  5
38C
100
AcDbEntity
  8
0
  6
CONTINUOUS
 62
               4
100
AcDbLine
 10
17.000000021518218
 20
27.205000000000183
 30
0.0
 11
20.70000002151815
 21
27.205000000000183
 31
0.0
  0
ARC
  5
38D
100
AcDbEntity
  8
0
  6
CONTINUOUS
 62
               4
100
AcDbCircle
 10
17.682904874859986
 20
27.205095146658266
 30
0.0
 40
0.5999048608870732
100
AcDbArc
 50
123.56005066674096
 51
180.00908727754583
  0
ARC
  5
38E
100
AcDbEntity
  8
0
  6
CONTINUOUS
 62
               4
100
AcDbCircle
 10
19.484088026755188
 20
27.206088005237092
 30
0.0
 40
0.5989129830170392
100
AcDbArc
 50
359.89591452477293
 51
90.104085475226867
  0
LINE
  5
38F
100
AcDbEntity
  8
0
  6
CONTINUOUS
 62
               4
100
AcDbLine
 10
17.682904874859929
 20
27.805000000000064
 30
0.0
 11
29.000002838044935
 21
27.805000000000149
 31
0.0
  0
LINE
  5
390
100
AcDbEntity
  8
0
  6
CONTINUOUS
 62
               4
100
AcDbLine
 10
20.70000002151815
 20
27.205000000000183
 30
0.0
 11
20.70000002151815
 21
27.805000000000092
 31
0.0
  0
LINE
  5
391
100
AcDbEntity
  8
0
  6
CONTINUOUS
 62
               4
100
AcDbLine
 10
36.600002838044958
 20
22.803000000000083
 30
0.0
 11
36.600002838044958
 21
6.8370000000000459
 31
0.0
  0
LINE
  5
392
100
AcDbEntity
  8
0
  6
CONTINUOUS
 62
               4
100
AcDbLine
 10
37.800002838044946
 20
20.95300000000006
 30
0.0
 11
39.276903960722535
 21
20.95300000000006
 31
0.0
  0
LINE
  5
393
100
AcDbEntity
  8
0
  6
CONTINUOUS
 62
               4
100
AcDbLine
 10
37.800002838044946
 20
19.653000000000048
 30
0.0
 11
40.026903960722535
 21
19.653000000000048
 31
0.0
  0
LINE
  5
394
100
AcDbEntity
  8
0
  6
CONTINUOUS
 62
               4
100
AcDbLine
 10
31.000002838044935
 20
23.803000000000083
 30
0.0
 11
36.100002838044958
 21
23.803000000000083
 31
0.0
  0
ARC
  5
395
100
AcDbEntity
  8
0
  6
CONTINUOUS
 62
               4
100
AcDbCircle
 10
36.10004036205035
 20
23.303037524005475
 30
0.0
 40
0.4999624774027422
100
AcDbArc
 50
359.99569974300096
 51
90.004300256998803
  0
ARC
  5
396
100
AcDbEntity
  8
0
  6
CONTINUOUS
 62
               4
100
AcDbCircle
 10
36.099538393526956
 20
6.8361272247163356
 30
0.0
 40
0.5004652055472239
100
AcDbArc
 50
295.12116424320402
 51
0.0999197646782735
  0
LINE
  5
397
100
AcDbEntity
  8
0
  6
CONTINUOUS
 62
               4
100
AcDbLine
 10
36.600002838044958
 20
23.303000000000083
 30
0.0
 11
36.600002838044958
 21
22.803000000000083
 31
0.0
  0
LINE
  5
398
100
AcDbEntity
  8
0
  6
CONTINUOUS
 62
             200
100
AcDbLine
 10
38.930903960722532
 20
21.553000000000083
 30
0.0
 11
40.374903960722492
 21
19.053000000000054
 31
0.0
  0
LINE
  5
399
100
AcDbEntity
  8
0
  6
CONTINUOUS
 62
               4
100
AcDbLine
 10
40.526903960722535
 20
19.653000000000048
 30
0.0
 11
43.296903960722517
 21
19.653000000000048
 31
0.0
  0
LINE
  5
39A
100
AcDbEntity
  8
0
  6
CONTINUOUS
 62
               4
100
AcDbLine
 10
39.776903960722535
 20
20.95300000000006
 30
0.0
 11
43.296903960722517
 21
20.95300000000006
 31
0.0
  0
LINE
  5
39B
100
AcDbEntity
  8
0
  6
CONTINUOUS
 62
             200
100
AcDbLine
 10
39.430903960722532
 20
21.553000000000083
 30
0.0
 11
40.874903960722492
 21
19.053000000000054
 31
0.0
  0
LINE
  5
39C
100
AcDbEntity
  8
0
  6
CONTINUOUS
 62
               4
100
AcDbLine
 10
43.296903960722517
 20
20.952182617187503
 30
0.0
 11
43.296903960722517
 21
19.652182617187549
 31
0.0
  0
LINE
  5
39D
100
AcDbEntity
  8
0
  6
CONTINUOUS
 62
               4
100
AcDbLine
 10
36.600002838044958
 20
17.803000000000054
 30
0.0
 11
37.300002838044946
 21
17.803000000000054
 31
0.0
  0
LINE
  5
39E
100
AcDbEntity
  8
0
  6
CONTINUOUS
 62
               4
100
AcDbLine
 10
37.800002838044946
 20
18.303000000000054
 30
0.0
 11
37.800002838044946
 21
22.303000000000083
 31
0.0
  0
LINE
  5
39F
100
AcDbEntity
  8
0
  6
CONTINUOUS
 62
               4
100
AcDbLine
 10
36.600002838044958
 20
22.803000000000083
 30
0.0
 11
37.300002838044946
 21
22.803000000000083
 31
0.0
  0
ARC
  5
3A0
100
AcDbEntity
  8
0
  6
CONTINUOUS
 62
               4
100
AcDbCircle
 10
37.300002838044946
 20
18.303000000000054
 30
0.0
 40
0.5
100
AcDbArc
 50
270.00000000000023
 51
0.0
  0
ARC
  5
3A1
100
AcDbEntity
  8
0
  6
CONTINUOUS
 62
               4
100
AcDbCircle
 10
37.300002838044946
 20
22.303000000000083
 30
0.0
 40
0.5
100
AcDbArc
 50
0.0
 51
89.999999999999815
  0
LINE
  5
3A2
100
AcDbEntity
  8
0
  6
CONTINUOUS
 62
               4
100
AcDbLine
 10
43.296903960722517
 20
20.052182617187526
 30
0.0
 11
46.796903960722545
 21
20.052182617187526
 31
0.0
  0
LINE
  5
3A3
100
AcDbEntity
  8
0
  6
CONTINUOUS
 62
               4
100
AcDbLine
 10
43.296903960722517
 20
20.552182617187526
 30
0.0
 11
46.796903960722545
 21
20.552182617187526
 31
0.0
  0
LINE
  5
3A4
100
AcDbEntity
  8
0
  6
CONTINUOUS
 62
               4
100
AcDbLine
 10
34.000002838044935
 20
5.3050000000000637
 30
0.0
 11
36.312002838044947
 21
6.3830000000000666
 31
0.0
  0
LINE
  5
3A5
100
AcDbEntity
  8
0
  6
CONTINUOUS
 62
               4
100
AcDbLine
 10
34.000002838044935
 20
5.3050000000000637
 30
0.0
 11
34.000002838044935
 21
23.803000000000083
 31
0.0
  0
LINE
  5
3A6
100
AcDbEntity
  8
0
  6
CONTINUOUS
 62
               4
100
AcDbLine
 10
17.000000021518161
 20
27.205000000000069
 30
0.0
 11
17.000000021518161
 21
5.3050000000000637
 31
0.0
  0
LINE
  5
3A7
100
AcDbEntity
  8
0
  6
CONTINUOUS
 62
               4
100
AcDbLine
 10
31.000000021518161
 20
5.3050000000000637
 30
0.0
 11
31.000000021518161
 21
27.204999994932336
 31
0.0
  0
ENDBLK
  5
3A8
100
AcDbEntity
  8
0
100
AcDbBlockEnd
  0
BLOCK
  5
3A9
100
AcDbEntity
  8
0
100
AcDbBlockBegin
  2
EA10A5-9
 70
               0
 10
0.0
 20
0.0
 30
0.0
  3
EA10A5-9
  1

  0
LINE
  5
3AA
100
AcDbEntity
  8
0
  6
CENTER
 62
               2
100
AcDbLine
 10
-2.0000000167243286
 20
0.0
 30
0.0
 11
1.9999999832756714
 21
0.0
 31
0.0
  0
LINE
  5
3AB
100
AcDbEntity
  8
0
  6
CENTER
 62
               2
100
AcDbLine
 10
-2.0000000167243286
 20
-29.599999999999994
 30
0.0
 11
1.9999999832756714
 21
-29.599999999999994
 31
0.0
  0
LINE
  5
3AC
100
AcDbEntity
  8
0
  6
CONTINUOUS
 62
               7
100
AcDbLine
 10
-16.999978637695335
 20
0.4999938964843977
 30
0.0
 11
-15.999978637695335
 21
0.4999938964843977
 31
0.0
  0
LINE
  5
3AD
100
AcDbEntity
  8
0
  6
CONTINUOUS
 62
               7
100
AcDbLine
 10
-16.999978637695335
 20
-30.100006103515625
 30
0.0
 11
-15.999978637695335
 21
-30.100006103515625
 31
0.0
  0
LINE
  5
3AE
100
AcDbEntity
  8
0
  6
CENTER
 62
               2
100
AcDbLine
 10
-23.999999976158165
 20
29.647850672801098
 30
0.0
 11
-23.999999976158165
 21
-31.099999999999994
 31
0.0
  0
CIRCLE
  5
3AF
100
AcDbEntity
  8
0
  6
CONTINUOUS
 62
               2
100
AcDbCircle
 10
-9.9999786376953352
 20
-4.8000061035156136
 30
0.0
 40
2.5
  0
CIRCLE
  5
3B0
100
AcDbEntity
  8
0
  6
CONTINUOUS
 62
               2
100
AcDbCircle
 10
-10.999978637695335
 20
-14.800006103515614
 30
0.0
 40
2.5
  0
CIRCLE
  5
3B1
100
AcDbEntity
  8
0
  6
CONTINUOUS
 62
               2
100
AcDbCircle
 10
-4.9999786376953352
 20
-22.399996948242176
 30
0.0
 40
2.5
  0
CIRCLE
  5
3B2
100
AcDbEntity
  8
0
  6
CONTINUOUS
 62
               7
100
AcDbCircle
 10
-4.9999786376953352
 20
-22.399996948242176
 30
0.0
 40
2.0669994354248047
  0
CIRCLE
  5
3B3
100
AcDbEntity
  8
0
  6
CONTINUOUS
 62
               7
100
AcDbCircle
 10
-10.999978637695335
 20
-14.800006103515614
 30
0.0
 40
2.0669994354248047
  0
CIRCLE
  5
3B4
100
AcDbEntity
  8
0
  6
CONTINUOUS
 62
               7
100
AcDbCircle
 10
-9.9999786376953352
 20
-4.8000061035156136
 30
0.0
 40
2.0669994354248047
  0
LINE
  5
3B5
100
AcDbEntity
  8
0
  6
CENTER
 62
               2
100
AcDbLine
 10
-13.5
 20
-4.8000000000000114
 30
0.0
 11
-6.5
 21
-4.8000000000000114
 31
0.0
  0
LINE
  5
3B6
100
AcDbEntity
  8
0
  6
CENTER
 62
               2
100
AcDbLine
 10
-10.0
 20
-1.3000000000000114
 30
0.0
 11
-10.0
 21
-8.3000000000000114
 31
0.0
  0
LINE
  5
3B7
100
AcDbEntity
  8
0
  6
CENTER
 62
               2
100
AcDbLine
 10
-14.5
 20
-14.800000000000011
 30
0.0
 11
-7.5
 21
-14.800000000000011
 31
0.0
  0
LINE
  5
3B8
100
AcDbEntity
  8
0
  6
CENTER
 62
               2
100
AcDbLine
 10
-11.0
 20
-11.300000000000011
 30
0.0
 11
-11.0
 21
-18.300000000000011
 31
0.0
  0
LINE
  5
3B9
100
AcDbEntity
  8
0
  6
CENTER
 62
               2
100
AcDbLine
 10
-8.5
 20
-22.400000000000006
 30
0.0
 11
-1.5
 21
-22.400000000000006
 31
0.0
  0
LINE
  5
3BA
100
AcDbEntity
  8
0
  6
CENTER
 62
               2
100
AcDbLine
 10
-5.0
 20
-18.900000000000006
 30
0.0
 11
-5.0
 21
-25.900000000000006
 31
0.0
  0
LINE
  5
3BB
100
AcDbEntity
  8
0
  6
CONTINUOUS
 62
               7
100
AcDbLine
 10
-16.0
 20
-32.300000000000011
 30
0.0
 11
0.0
 21
-32.300000000000011
 31
0.0
  0
LINE
  5
3BC
100
AcDbEntity
  8
0
  6
CONTINUOUS
 62
               7
100
AcDbLine
 10
-16.0
 20
2.6999999999999886
 30
0.0
 11
0.0
 21
2.6999999999999886
 31
0.0
  0
LINE
  5
3BD
100
AcDbEntity
  8
0
  6
CONTINUOUS
 62
               7
100
AcDbLine
 10
0.0
 20
2.6999999999999886
 30
0.0
 11
0.0
 21
-32.300000000000011
 31
0.0
  0
LINE
  5
3BE
100
AcDbEntity
  8
0
  6
CONTINUOUS
 62
               7
100
AcDbLine
 10
-16.0
 20
-32.300000000000011
 30
0.0
 11
-16.0
 21
2.6999999999999886
 31
0.0
  0
LINE
  5
3BF
100
AcDbEntity
  8
0
  6
CONTINUOUS
 62
               7
100
AcDbLine
 10
-30.99999995231633
 20
-23.900000000000006
 30
0.0
 11
-16.99999995231633
 21
-23.900000000000006
 31
0.0
  0
LINE
  5
3C0
100
AcDbEntity
  8
0
  6
CONTINUOUS
 62
               7
100
AcDbLine
 10
-20.299999964237259
 20
-27.400000000000006
 30
0.0
 11
-16.99999995231633
 21
-27.400000000000006
 31
0.0
  0
LINE
  5
3C1
100
AcDbEntity
  8
0
  6
CONTINUOUS
 62
               7
100
AcDbLine
 10
-29.999999976158165
 20
-21.199001430615169
 30
0.0
 11
-30.999999976158165
 21
-21.199001430615169
 31
0.0
  0
LINE
  5
3C2
100
AcDbEntity
  8
0
  6
CONTINUOUS
 62
               7
100
AcDbLine
 10
-29.999999976158165
 20
-17.999001430615181
 30
0.0
 11
-30.999999976158165
 21
-17.999001430615181
 31
0.0
  0
LINE
  5
3C3
100
AcDbEntity
  8
0
  6
CONTINUOUS
 62
               7
100
AcDbLine
 10
-32.547999976158167
 20
1.8999999999999773
 30
0.0
 11
-32.099999976158188
 21
1.8999999999999773
 31
0.0
  0
LINE
  5
3C4
100
AcDbEntity
  8
0
  6
CONTINUOUS
 62
               7
100
AcDbLine
 10
-32.547999976158167
 20
4.1000000000000227
 30
0.0
 11
-32.099999976158188
 21
4.1000000000000227
 31
0.0
  0
LINE
  5
3C5
100
AcDbEntity
  8
0
  6
CONTINUOUS
 62
               7
100
AcDbLine
 10
-32.547999976158167
 20
1.8999999999999773
 30
0.0
 11
-32.547999976158167
 21
4.1000000000000227
 31
0.0
  0
LINE
  5
3C6
100
AcDbEntity
  8
0
  6
CONTINUOUS
 62
               7
100
AcDbLine
 10
-30.999999976158222
 20
-1.8000000000000114
 30
0.0
 11
-32.099999976158188
 21
-0.6999999999999886
 31
0.0
  0
LINE
  5
3C7
100
AcDbEntity
  8
0
  6
CONTINUOUS
 62
               7
100
AcDbLine
 10
-32.099999976158188
 20
-0.6999999999999886
 30
0.0
 11
-32.099999976158188
 21
5.2999999999999545
 31
0.0
  0
LINE
  5
3C8
100
AcDbEntity
  8
0
  6
CONTINUOUS
 62
               7
100
AcDbLine
 10
-31.00003850088882
 20
5.7999999985157729
 30
0.0
 11
-30.999999976158165
 21
5.3000000000000114
 31
0.0
  0
LINE
  5
3C9
100
AcDbEntity
  8
0
  6
CONTINUOUS
 62
               7
100
AcDbLine
 10
-30.999999976158165
 20
5.3000000000000114
 30
0.0
 11
-30.999999976158165
 21
-28.5
 31
0.0
  0
LINE
  5
3CA
100
AcDbEntity
  8
0
  6
CONTINUOUS
 62
               7
100
AcDbLine
 10
-16.999999976158165
 20
-5.6999999999999886
 30
0.0
 11
-30.999999976158165
 21
-5.6999999999999886
 31
0.0
  0
LINE
  5
3CB
100
AcDbEntity
  8
0
  6
CONTINUOUS
 62
               7
100
AcDbLine
 10
-29.999999976158165
 20
-17.999001430615181
 30
0.0
 11
-29.999999976158165
 21
-21.199001430615169
 31
0.0
  0
LINE
  5
3CC
100
AcDbEntity
  8
0
  6
CONTINUOUS
 62
               7
100
AcDbLine
 10
-30.599999976158188
 20
-28.900000000000006
 30
0.0
 11
-17.399999976158199
 21
-28.900000000000006
 31
0.0
  0
LINE
  5
3CD
100
AcDbEntity
  8
0
  6
CONTINUOUS
 62
               7
100
AcDbLine
 10
-20.499999976158165
 20
-27.599999999999994
 30
0.0
 11
-20.499999976158165
 21
-28.699999999999989
 31
0.0
  0
LINE
  5
3CE
100
AcDbEntity
  8
0
  6
CONTINUOUS
 62
               7
100
AcDbLine
 10
-20.449999976158153
 20
-27.930000000000007
 30
0.0
 11
-20.449999976158153
 21
-27.45999999999998
 31
0.0
  0
ARC
  5
3CF
100
AcDbEntity
  8
0
  6
CONTINUOUS
 62
               7
100
AcDbCircle
 10
-18.704999976158206
 20
-25.499981271273327
 30
0.0
 40
3.1971597169667145
100
AcDbArc
 50
241.51127142001724
 51
298.48872857998202
  0
ARC
  5
3D0
100
AcDbEntity
  8
0
  6
CONTINUOUS
 62
               7
100
AcDbCircle
 10
-20.699989295477337
 20
-28.700010680680862
 30
0.0
 40
0.1999893196043432
100
AcDbArc
 50
269.99694004691679
 51
0.0030599530887399
  0
ARC
  5
3D1
100
AcDbEntity
  8
0
  6
CONTINUOUS
 62
               7
100
AcDbCircle
 10
-20.299995398049987
 20
-27.600004578108212
 30
0.0
 40
0.2000045781606
100
AcDbArc
 50
90.001311501357506
 51
179.99868849862943
  0
ARC
  5
3D2
100
AcDbEntity
  8
0
  6
CONTINUOUS
 62
               7
100
AcDbCircle
 10
-20.023563967371388
 20
-27.936800205439226
 30
0.0
 40
0.4264902254261231
100
AcDbArc
 50
179.08640442595285
 51
241.0507612177737
  0
ARC
  5
3D3
100
AcDbEntity
  8
0
  6
CONTINUOUS
 62
               7
100
AcDbCircle
 10
-17.374706615486957
 20
-27.935293360671238
 30
0.0
 40
0.4222744853241268
100
AcDbArc
 50
297.45748041710277
 51
332.54251958289433
  0
ARC
  5
3D4
100
AcDbEntity
  8
0
  6
CONTINUOUS
 62
               7
100
AcDbCircle
 10
-17.39999387321302
 20
-28.500006102945179
 30
0.0
 40
0.3999938971013656
100
AcDbArc
 50
269.99912580415821
 51
0.0008741958432351
  0
ARC
  5
3D5
100
AcDbEntity
  8
0
  6
CONTINUOUS
 62
               7
100
AcDbCircle
 10
-30.599984717369125
 20
-28.499984741210938
 30
0.0
 40
0.4000152590800927
100
AcDbArc
 50
180.00218557716028
 51
269.99781442283921
  0
LINE
  5
3D6
100
AcDbEntity
  8
0
  6
CONTINUOUS
 62
               7
100
AcDbLine
 10
-16.999999976158165
 20
5.3000000000000114
 30
0.0
 11
-16.999978637695335
 21
-30.100006103515625
 31
0.0
  0
LINE
  5
3D7
100
AcDbEntity
  8
0
  6
CONTINUOUS
 62
               7
100
AcDbLine
 10
-30.599999976158159
 20
-18.5
 30
0.0
 11
-30.599999976158159
 21
-20.699999999999989
 31
0.0
  0
ARC
  5
3D8
100
AcDbEntity
  8
0
  6
CONTINUOUS
 62
               7
100
AcDbCircle
 10
-30.199999976158153
 20
-20.699999999999989
 30
0.0
 40
0.4
100
AcDbArc
 50
179.99999999999963
 51
269.99999999999937
  0
LINE
  5
3D9
100
AcDbEntity
  8
0
  6
CONTINUOUS
 62
               7
100
AcDbLine
 10
-30.199999976158153
 20
-21.099999999999994
 30
0.0
 11
-29.999999976158165
 21
-21.099999999999994
 31
0.0
  0
ARC
  5
3DA
100
AcDbEntity
  8
0
  6
CONTINUOUS
 62
               7
100
AcDbCircle
 10
-30.199999976158153
 20
-18.5
 30
0.0
 40
0.4
100
AcDbArc
 50
89.999999999999815
 51
179.99999999999963
  0
LINE
  5
3DB
100
AcDbEntity
  8
0
  6
CONTINUOUS
 62
               7
100
AcDbLine
 10
-30.199999976158153
 20
-18.099999999999994
 30
0.0
 11
-29.999999976158165
 21
-18.099999999999994
 31
0.0
  0
LINE
  5
3DC
100
AcDbEntity
  8
0
  6
CONTINUOUS
 62
               4
100
AcDbLine
 10
-30.999999976158179
 20
5.3000000000000114
 30
0.0
 11
-30.999999976158179
 21
27.199999994932284
 31
0.0
  0
LINE
  5
3DD
100
AcDbEntity
  8
0
  6
CONTINUOUS
 62
               4
100
AcDbLine
 10
-16.999999976158179
 20
27.200000000000017
 30
0.0
 11
-16.999999976158179
 21
5.3000000000000114
 31
0.0
  0
LINE
  5
3DE
100
AcDbEntity
  8
0
  6
CONTINUOUS
 62
               4
100
AcDbLine
 10
-34.000002792684953
 20
5.3000000000000114
 30
0.0
 11
-34.000002792684953
 21
23.79800000000003
 31
0.0
  0
LINE
  5
3DF
100
AcDbEntity
  8
0
  6
CONTINUOUS
 62
               4
100
AcDbLine
 10
-34.000002792684953
 20
5.3000000000000114
 30
0.0
 11
-36.312002792684964
 21
6.3780000000000143
 31
0.0
  0
LINE
  5
3E0
100
AcDbEntity
  8
0
  6
CONTINUOUS
 62
               4
100
AcDbLine
 10
-43.296903915362535
 20
20.547182617187474
 30
0.0
 11
-46.796903915362563
 21
20.547182617187474
 31
0.0
  0
LINE
  5
3E1
100
AcDbEntity
  8
0
  6
CONTINUOUS
 62
               4
100
AcDbLine
 10
-43.296903915362535
 20
20.047182617187474
 30
0.0
 11
-46.796903915362563
 21
20.047182617187474
 31
0.0
  0
ARC
  5
3E2
100
AcDbEntity
  8
0
  6
CONTINUOUS
 62
               4
100
AcDbCircle
 10
-37.300002792684964
 20
22.29800000000003
 30
0.0
 40
0.5
100
AcDbArc
 50
89.999999999999815
 51
179.99999999999963
  0
ARC
  5
3E3
100
AcDbEntity
  8
0
  6
CONTINUOUS
 62
               4
100
AcDbCircle
 10
-37.300002792684964
 20
18.298000000000002
 30
0.0
 40
0.5
100
AcDbArc
 50
179.99999999999963
 51
269.99999999999937
  0
LINE
  5
3E4
100
AcDbEntity
  8
0
  6
CONTINUOUS
 62
               4
100
AcDbLine
 10
-36.600002792684975
 20
22.79800000000003
 30
0.0
 11
-37.300002792684964
 21
22.79800000000003
 31
0.0
  0
LINE
  5
3E5
100
AcDbEntity
  8
0
  6
CONTINUOUS
 62
               4
100
AcDbLine
 10
-37.800002792684964
 20
18.298000000000002
 30
0.0
 11
-37.800002792684964
 21
22.29800000000003
 31
0.0
  0
LINE
  5
3E6
100
AcDbEntity
  8
0
  6
CONTINUOUS
 62
               4
100
AcDbLine
 10
-36.600002792684975
 20
17.798000000000002
 30
0.0
 11
-37.300002792684964
 21
17.798000000000002
 31
0.0
  0
LINE
  5
3E7
100
AcDbEntity
  8
0
  6
CONTINUOUS
 62
               4
100
AcDbLine
 10
-43.296903915362535
 20
20.947182617187451
 30
0.0
 11
-43.296903915362535
 21
19.647182617187497
 31
0.0
  0
LINE
  5
3E8
100
AcDbEntity
  8
0
  6
CONTINUOUS
 62
             200
100
AcDbLine
 10
-39.430903915362549
 20
21.54800000000003
 30
0.0
 11
-40.874903915362509
 21
19.048000000000002
 31
0.0
  0
LINE
  5
3E9
100
AcDbEntity
  8
0
  6
CONTINUOUS
 62
               4
100
AcDbLine
 10
-39.776903915362553
 20
20.948000000000008
 30
0.0
 11
-43.296903915362535
 21
20.948000000000008
 31
0.0
  0
LINE
  5
3EA
100
AcDbEntity
  8
0
  6
CONTINUOUS
 62
               4
100
AcDbLine
 10
-40.526903915362553
 20
19.647999999999996
 30
0.0
 11
-43.296903915362535
 21
19.647999999999996
 31
0.0
  0
LINE
  5
3EB
100
AcDbEntity
  8
0
  6
CONTINUOUS
 62
             200
100
AcDbLine
 10
-38.930903915362549
 20
21.54800000000003
 30
0.0
 11
-40.374903915362509
 21
19.048000000000002
 31
0.0
  0
LINE
  5
3EC
100
AcDbEntity
  8
0
  6
CONTINUOUS
 62
               4
100
AcDbLine
 10
-36.600002792684975
 20
23.29800000000003
 30
0.0
 11
-36.600002792684975
 21
22.79800000000003
 31
0.0
  0
ARC
  5
3ED
100
AcDbEntity
  8
0
  6
CONTINUOUS
 62
               4
100
AcDbCircle
 10
-36.099538348166973
 20
6.8311272247162833
 30
0.0
 40
0.5004652055472239
100
AcDbArc
 50
179.9000802353213
 51
244.87883575679555
  0
ARC
  5
3EE
100
AcDbEntity
  8
0
  6
CONTINUOUS
 62
               4
100
AcDbCircle
 10
-36.100040316690368
 20
23.298037524005423
 30
0.0
 40
0.4999624774027422
100
AcDbArc
 50
89.995699743000799
 51
180.00430025699865
  0
LINE
  5
3EF
100
AcDbEntity
  8
0
  6
CONTINUOUS
 62
               4
100
AcDbLine
 10
-31.000002792684953
 20
23.79800000000003
 30
0.0
 11
-36.100002792684975
 21
23.79800000000003
 31
0.0
  0
LINE
  5
3F0
100
AcDbEntity
  8
0
  6
CONTINUOUS
 62
               4
100
AcDbLine
 10
-37.800002792684964
 20
19.647999999999996
 30
0.0
 11
-40.026903915362553
 21
19.647999999999996
 31
0.0
  0
LINE
  5
3F1
100
AcDbEntity
  8
0
  6
CONTINUOUS
 62
               4
100
AcDbLine
 10
-37.800002792684964
 20
20.948000000000008
 30
0.0
 11
-39.276903915362553
 21
20.948000000000008
 31
0.0
  0
LINE
  5
3F2
100
AcDbEntity
  8
0
  6
CONTINUOUS
 62
               4
100
AcDbLine
 10
-36.600002792684975
 20
22.79800000000003
 30
0.0
 11
-36.600002792684975
 21
6.8319999999999936
 31
0.0
  0
LINE
  5
3F3
100
AcDbEntity
  8
0
  6
CONTINUOUS
 62
               4
100
AcDbLine
 10
-27.29999997615819
 20
27.200000000000131
 30
0.0
 11
-27.29999997615819
 21
27.80000000000004
 31
0.0
  0
LINE
  5
3F4
100
AcDbEntity
  8
0
  6
CONTINUOUS
 62
               4
100
AcDbLine
 10
-30.317095122816411
 20
27.800000000000011
 30
0.0
 11
-18.999997159631405
 21
27.800000000000097
 31
0.0
  0
ARC
  5
3F5
100
AcDbEntity
  8
0
  6
CONTINUOUS
 62
               4
100
AcDbCircle
 10
-28.515911970921152
 20
27.20108800523704
 30
0.0
 40
0.5989129830170392
100
AcDbArc
 50
359.89591452477293
 51
90.104085475226867
  0
ARC
  5
3F6
100
AcDbEntity
  8
0
  6
CONTINUOUS
 62
               4
100
AcDbCircle
 10
-30.317095122816355
 20
27.200095146658214
 30
0.0
 40
0.5999048608870732
100
AcDbArc
 50
123.56005066674096
 51
180.00908727754583
  0
LINE
  5
3F7
100
AcDbEntity
  8
0
  6
CONTINUOUS
 62
               4
100
AcDbLine
 10
-30.999999976158122
 20
27.200000000000131
 30
0.0
 11
-27.29999997615819
 21
27.200000000000131
 31
0.0
  0
LINE
  5
3F8
100
AcDbEntity
  8
0
  6
CONTINUOUS
 62
               4
100
AcDbLine
 10
-18.999997159631405
 20
27.800000000000097
 30
0.0
 11
-18.999997159631405
 21
26.200000000000102
 31
0.0
  0
LINE
  5
3F9
100
AcDbEntity
  8
0
  6
CONTINUOUS
 62
               4
100
AcDbLine
 10
-30.999999976158179
 20
26.200000000000102
 30
0.0
 11
-18.999997159631405
 21
26.200000000000102
 31
0.0
  0
LINE
  5
3FA
100
AcDbEntity
  8
0
  6
CONTINUOUS
 62
               4
100
AcDbLine
 10
-17.499999976158122
 20
27.700000000000017
 30
0.0
 11
-18.999999976158122
 21
27.700000000000017
 31
0.0
  0
ARC
  5
3FB
100
AcDbEntity
  8
0
  6
CONTINUOUS
 62
               4
100
AcDbCircle
 10
-17.499999976158122
 20
27.200000000000017
 30
0.0
 40
0.5
100
AcDbArc
 50
0.0
 51
89.999999999999815
  0
ARC
  5
3FC
100
AcDbEntity
  8
0
  6
CONTINUOUS
 62
               4
100
AcDbCircle
 10
-30.499999976158122
 20
27.200000000000017
 30
0.0
 40
0.5
100
AcDbArc
 50
114.73039869686018
 51
179.99999999999963
  0
ARC
  5
3FD
100
AcDbEntity
  8
0
  6
CONTINUOUS
 62
               4
100
AcDbCircle
 10
-30.317095122816355
 20
27.200095146658214
 30
0.0
 40
0.5999048608870732
100
AcDbArc
 50
89.99091272245343
 51
123.56005066674096
  0
LINE
  5
3FE
100
AcDbEntity
  8
0
  6
CONTINUOUS
 62
               4
100
AcDbLine
 10
-46.796903915362563
 20
20.547182617187474
 30
0.0
 11
-46.796903915362563
 21
20.047182617187474
 31
0.0
  0
LINE
  5
3FF
100
AcDbEntity
  8
0
  6
CONTINUOUS
 62
               4
100
AcDbLine
 10
-16.999999976158179
 20
5.3000000000000114
 30
0.0
 11
-34.000002792684953
 21
5.3000000000000114
 31
0.0
  0
ENDBLK
  5
400
100
AcDbEntity
  8
0
100
AcDbBlockEnd
  0
BLOCK
  5
41E
100
AcDbEntity
  8
0
  6
ByBlock
 62
               0
100
AcDbBlockBegin
  2
_OPEN30
 70
               2
 10
0.0
 20
0.0
 30
0.0
  3
_OPEN30
  1

  0
LINE
  5
41F
100
AcDbEntity
  8
0
  6
ByBlock
 62
               0
100
AcDbLine
 10
-1.0
 20
0.267949
 30
0.0
 11
0.0
 21
0.0
 31
0.0
  0
LINE
  5
420
100
AcDbEntity
  8
0
  6
ByBlock
 62
               0
100
AcDbLine
 10
0.0
 20
0.0
 30
0.0
 11
-1.0
 21
-0.267949
 31
0.0
  0
LINE
  5
421
100
AcDbEntity
  8
0
  6
ByBlock
 62
               0
100
AcDbLine
 10
0.0
 20
0.0
 30
0.0
 11
-1.0
 21
0.0
 31
0.0
  0
ENDBLK
  5
422
100
AcDbEntity
  8
0
  6
ByBlock
 62
               0
100
AcDbBlockEnd
  0
ENDSEC
  0
SECTION
  2
ENTITIES
  0
INSERT
  5
401
100
AcDbEntity
  8
0
  6
ByBlock
100
AcDbBlockReference
  2
EA10A5-1
 10
-137.24339434589353
 20
80.789414693210901
 30
0.0
  0
INSERT
  5
402
100
AcDbEntity
  8
0
  6
ByBlock
100
AcDbBlockReference
  2
EA10A5-2
 10
-240.34908276996893
 20
80.789414693210901
 30
0.0
  0
INSERT
  5
403
100
AcDbEntity
  8
0
  6
ByBlock
100
AcDbBlockReference
  2
EA10A5-3
 10
-38.943394369735344
 20
80.789414693210901
 30
0.0
  0
INSERT
  5
404
100
AcDbEntity
  8
0
  6
ByBlock
100
AcDbBlockReference
  2
EA10A5-4
 10
144.43153241191897
 20
80.789414693210901
 30
0.0
  0
INSERT
  5
405
100
AcDbEntity
  8
0
  6
ByBlock
100
AcDbBlockReference
  2
EA10A5-5
 10
41.325843987843569
 20
80.789414693210901
 30
0.0
  0
INSERT
  5
406
100
AcDbEntity
  8
0
  6
ByBlock
100
AcDbBlockReference
  2
EA10A5-6
 10
242.73153238807714
 20
80.789414693210901
 30
0.0
  0
INSERT
  5
407
100
AcDbEntity
  8
0
  6
ByBlock
100
AcDbBlockReference
  2
EA10A5-7
 10
8.7249267578125114
 20
-114.42358583110135
 30
0.0
  0
INSERT
  5
408
100
AcDbEntity
  8
0
  6
ByBlock
100
AcDbBlockReference
  2
EA10A5-8
 10
-94.380761666262885
 20
-114.42358583110135
 30
0.0
  0
INSERT
  5
409
100
AcDbEntity
  8
0
  6
ByBlock
100
AcDbBlockReference
  2
EA10A5-9
 10
107.0249267339707
 20
-114.42358583110135
 30
0.0
  0
MTEXT
  5
40A
100
AcDbEntity
  8
0
  6
CONTINUOUS
 62
               7
100
AcDbMText
 10
-268.24956448064034
 20
160.5
 30
0.0
 40
6.3000001907348633
 41
0.0
 71
               4
 72
               1
  1
\W1.096;\A1;MODEL:EA10(L)A5-25-PL
  0
LINE
  5
40B
100
AcDbEntity
  8
0
  6
CONTINUOUS
 62
               7
100
AcDbLine
 10
-281.25
 20
-195.0
 30
0.0
 11
282.099853515625
 21
-195.0
 31
0.0
  0
LINE
  5
40C
100
AcDbEntity
  8
0
  6
CONTINUOUS
 62
               7
100
AcDbLine
 10
-281.25
 20
195.5
 30
0.0
 11
-281.25
 21
-195.0
 31
0.0
  0
LINE
  5
40D
100
AcDbEntity
  8
0
  6
CONTINUOUS
 62
               7
100
AcDbLine
 10
-281.25
 20
195.5
 30
0.0
 11
282.099853515625
 21
195.5
 31
0.0
  0
LINE
  5
40E
100
AcDbEntity
  8
0
  6
CONTINUOUS
 62
               7
100
AcDbLine
 10
282.099853515625
 20
195.5
 30
0.0
 11
282.099853515625
 21
-195.0
 31
0.0
  0
LINE
  5
40F
100
AcDbEntity
  8
0
  6
CONTINUOUS
 62
               7
100
AcDbLine
 10
162.0999755859375
 20
195.5
 30
0.0
 11
162.0999755859375
 21
175.5
 31
0.0
  0
LINE
  5
410
100
AcDbEntity
  8
0
  6
CONTINUOUS
 62
               7
100
AcDbLine
 10
162.0999755859375
 20
175.5
 30
0.0
 11
282.099853515625
 21
175.5
 31
0.0
  0
MTEXT
  5
411
100
AcDbEntity
  8
0
  6
CONTINUOUS
 62
               7
100
AcDbMText
 10
198.27702406779611
 20
185.5
 30
0.0
 40
6.3000001907348633
 41
0.0
 71
               4
 72
               1
  1
\W1.311;\A1;Ver. 1.0
  0
MTEXT
  5
412
100
AcDbEntity
  8
0
  6
CONTINUOUS
 62
               7
100
AcDbMText
 10
170.28099805280428
 20
-185.0
 30
0.0
 40
9.0
 41
0.0
 71
               4
 72
               1
  1
\W1.121;\A1;KOGANEI CORP.
  0
LINE
  5
413
100
AcDbEntity
  8
0
  6
CONTINUOUS
 62
               7
100
AcDbLine
 10
162.0999755859375
 20
-175.0
 30
0.0
 11
282.099853515625
 21
-175.0
 31
0.0
  0
LINE
  5
414
100
AcDbEntity
  8
0
  6
CONTINUOUS
 62
               7
100
AcDbLine
 10
162.0999755859375
 20
-175.0
 30
0.0
 11
162.0999755859375
 21
-195.0
 31
0.0
  0
LINE
  5
415
100
AcDbEntity
  8
0
  6
CONTINUOUS
 62
               7
100
AcDbLine
 10
-161.25
 20
195.5
 30
0.0
 11
-161.25
 21
175.5
 31
0.0
  0
LINE
  5
416
100
AcDbEntity
  8
0
  6
CONTINUOUS
 62
               7
100
AcDbLine
 10
-281.25
 20
175.5
 30
0.0
 11
-161.25
 21
175.5
 31
0.0
  0
MTEXT
  5
417
100
AcDbEntity
  8
0
  6
CONTINUOUS
 62
               7
100
AcDbMText
 10
-257.88333446177035
 20
185.5
 30
0.0
 40
6.3000001907348633
 41
0.0
 71
               4
 72
               1
  1
\W1.111;\A1;EA･EB SERIES
  0
LINE
  5
418
100
AcDbEntity
  8
0
  6
CONTINUOUS
 62
               7
100
AcDbLine
 10
-281.25
 20
-38.799999999999983
 30
0.0
 11
282.099853515625
 21
-38.799999999999983
 31
0.0
  0
LINE
  5
419
100
AcDbEntity
  8
0
  6
CONTINUOUS
 62
               7
100
AcDbLine
 10
0.4249267578125
 20
-38.799999999999983
 30
0.0
 11
0.4249267578125
 21
195.5
 31
0.0
  0
MTEXT
  5
41A
100
AcDbEntity
  8
0
  6
CONTINUOUS
 62
               7
100
AcDbMText
 10
13.425362277172178
 20
160.5
 30
0.0
 40
6.3000001907348633
 41
0.0
 71
               4
 72
               1
  1
\W1.096;\A1;MODEL:EA10(L)A5-25-PS
  0
MTEXT
  5
41B
100
AcDbEntity
  8
0
  6
CONTINUOUS
 62
               7
100
AcDbMText
 10
-268.27722776173874
 20
-53.799999999999983
 30
0.0
 40
6.3000001907348633
 41
0.0
 71
               4
 72
               1
  1
\W1.069;\A1;MODEL:EA10A5-25-GL
  0
MTEXT
  5
41C
100
AcDbEntity
  8
0
  6
CONTINUOUS
 62
               2
100
AcDbMText
 10
-106.04475845076023
 20
43.872352837133292
 30
0.0
 40
4.5
 41
0.0
 71
               4
 72
               1
  1
\A1;-75
  0
LEADER
  5
423
100
AcDbEntity
  8
0
  6
CONTINUOUS
 62
               2
100
AcDbLeader
  3
MXDIMSTYLE
 73
               3
 74
               0
 75
               0
 40
0.0
 76
               3
 10
-121.0433943458935
 20
54.389414693210909
 30
0.0
 10
-110.88932479597507
 20
39.216103075551871
 30
0.0
 10
-92.544758450760227
 20
39.216103075551871
 30
0.0
 77
               2
1001
ACAD
1000
DSTYLE
1002
{
1070
               6
1000
_OPEN30
1070
               7
1000
_OPEN30
1070
              41
1040
2.77
1070
             173
1070
               1
1070
             341
1005
41D
1002
}
  0
MTEXT
  5
424
100
AcDbEntity
  8
0
  6
CONTINUOUS
 62
               2
100
AcDbMText
 10
175.63016830705226
 20
43.872352837133292
 30
0.0
 40
4.5
 41
0.0
 71
               4
 72
               1
  1
\A1;-75
  0
LEADER
  5
425
100
AcDbEntity
  8
0
  6
CONTINUOUS
 62
               2
100
AcDbLeader
  3
MXDIMSTYLE
 73
               3
 74
               0
 75
               0
 40
0.0
 76
               3
 10
160.63153241191901
 20
54.389414693210909
 30
0.0
 10
170.78560196183741
 20
39.216103075551871
 30
0.0
 10
189.13016830705226
 20
39.216103075551871
 30
0.0
 77
               2
1001
ACAD
1000
DSTYLE
1002
{
1070
               6
1000
_OPEN30
1070
               7
1000
_OPEN30
1070
              41
1040
2.77
1070
             173
1070
               1
1070
             341
1005
41D
1002
}
  0
MTEXT
  5
426
100
AcDbEntity
  8
0
  6
CONTINUOUS
 62
               2
100
AcDbMText
 10
39.923562652945819
 20
-151.34064768717897
 30
0.0
 40
4.5
 41
0.0
 71
               4
 72
               1
  1
\A1;-75
  0
LEADER
  5
427
100
AcDbEntity
  8
0
  6
CONTINUOUS
 62
               2
100
AcDbLeader
  3
MXDIMSTYLE
 73
               3
 74
               0
 75
               0
 40
0.0
 76
               3
 10
24.924926757812543
 20
-140.82358583110135
 30
0.0
 10
35.078996307730975
 20
-155.99689744876039
 30
0.0
 10
53.423562652945819
 20
-155.99689744876039
 30
0.0
 77
               2
1001
ACAD
1000
DSTYLE
1002
{
1070
               6
1000
_OPEN30
1070
               7
1000
_OPEN30
1070
              41
1040
2.77
1070
             173
1070
               1
1070
             341
1005
41D
1002
}
  0
ENDSEC
  0
SECTION
  2
OBJECTS
  0
DICTIONARY
  5
19
100
AcDbDictionary
  3
ACAD_GROUP
350
1A
  3
ACAD_MLINESTYLE
350
1B
  0
DICTIONARY
  5
1A
102
{ACAD_REACTORS
330
19
102
}
100
AcDbDictionary
  0
DICTIONARY
  5
1B
102
{ACAD_REACTORS
330
19
102
}
100
AcDbDictionary
  3
STANDARD
350
1C
  0
MLINESTYLE
  5
1C
102
{ACAD_REACTORS
330
1B
102
}
100
AcDbMlineStyle
  2
Standard
 70
               0
  3

 62
               0
 51
90.0
 52
90.0
 71
               2
 49
0.5
 62
             256
  6
ByLayer
 49
-0.5
 62
             256
  6
ByLayer
  0
ENDSEC
  0
EOF
