  0
SECTION
  2
HEADER
  9
$ACADVER
  1
AC1012
  9
$DWGCODEPAGE
  3
dos932
  9
$INSBASE
 10
0.0
 20
0.0
 30
0.0
  9
$EXTMIN
 10
-281.25
 20
-195.0
 30
0.0
  9
$EXTMAX
 10
285.6319057062413
 20
195.5
 30
0.0
  9
$LIMMIN
 10
-281.25
 20
-195.0
  9
$LIMMAX
 10
285.6319057062413
 20
195.5
  9
$ORTHOMODE
 70
               0
  9
$REGENMODE
 70
               1
  9
$FILLMODE
 70
               1
  9
$QTEXTMODE
 70
               0
  9
$MIRRTEXT
 70
               1
  9
$DRAGMODE
 70
               2
  9
$LTSCALE
 40
1.0
  9
$OSMODE
 70
               0
  9
$ATTMODE
 70
               1
  9
$TEXTSIZE
 40
3.2000000476837158
  9
$TRACEWID
 40
0.05
  9
$TEXTSTYLE
  7
MX_NOTE_STANDARD
  9
$CLAYER
  8
0
  9
$CELTYPE
  6
CONTINUOUS
  9
$CECOLOR
 62
             256
  9
$CELTSCALE
 40
1.0
  9
$DELOBJ
 70
               1
  9
$DISPSILH
 70
               0
  9
$DIMSCALE
 40
1.0
  9
$DIMASZ
 40
2.5
  9
$DIMEXO
 40
1.5
  9
$DIMDLI
 40
3.75
  9
$DIMRND
 40
0.0
  9
$DIMDLE
 40
0.0
  9
$DIMEXE
 40
1.5
  9
$DIMTP
 40
0.0
  9
$DIMTM
 40
0.0
  9
$DIMTXT
 40
3.2000000476837158
  9
$DIMCEN
 40
2.5
  9
$DIMTSZ
 40
0.0
  9
$DIMTOL
 70
               0
  9
$DIMLIM
 70
               0
  9
$DIMTIH
 70
               0
  9
$DIMTOH
 70
               0
  9
$DIMSE1
 70
               0
  9
$DIMSE2
 70
               0
  9
$DIMTAD
 70
               1
  9
$DIMZIN
 70
               8
  9
$DIMBLK
  1

  9
$DIMASO
 70
               1
  9
$DIMSHO
 70
               1
  9
$DIMPOST
  1

  9
$DIMAPOST
  1

  9
$DIMALT
 70
               0
  9
$DIMALTD
 70
               4
  9
$DIMALTF
 40
0.03937007874016
  9
$DIMLFAC
 40
1.0
  9
$DIMTOFL
 70
               1
  9
$DIMTVP
 40
0.0
  9
$DIMTIX
 70
               0
  9
$DIMSOXD
 70
               0
  9
$DIMSAH
 70
               0
  9
$DIMBLK1
  1

  9
$DIMBLK2
  1

  9
$DIMSTYLE
  2
MXDIMSTYLE
  9
$DIMCLRD
 70
               0
  9
$DIMCLRE
 70
               0
  9
$DIMCLRT
 70
               0
  9
$DIMTFAC
 40
1.0
  9
$DIMGAP
 40
1.0
  9
$DIMJUST
 70
               0
  9
$DIMSD1
 70
               0
  9
$DIMSD2
 70
               0
  9
$DIMTOLJ
 70
               1
  9
$DIMTZIN
 70
               0
  9
$DIMALTZ
 70
               0
  9
$DIMALTTZ
 70
               0
  9
$DIMFIT
 70
               3
  9
$DIMUPT
 70
               1
  9
$DIMUNIT
 70
               2
  9
$DIMDEC
 70
               4
  9
$DIMTDEC
 70
               4
  9
$DIMALTU
 70
               2
  9
$DIMALTTD
 70
               4
  9
$DIMTXSTY
  7
MX_NOTE_STANDARD
  9
$DIMAUNIT
 70
               0
  9
$LUNITS
 70
               2
  9
$LUPREC
 70
               4
  9
$SKETCHINC
 40
0.1
  9
$FILLETRAD
 40
0.0
  9
$AUNITS
 70
               0
  9
$AUPREC
 70
               0
  9
$MENU
  1
acad
  9
$ELEVATION
 40
0.0
  9
$PELEVATION
 40
0.0
  9
$THICKNESS
 40
0.0
  9
$LIMCHECK
 70
               0
  9
$BLIPMODE
 70
               1
  9
$CHAMFERA
 40
0.0
  9
$CHAMFERB
 40
0.0
  9
$CHAMFERC
 40
0.0
  9
$CHAMFERD
 40
0.0
  9
$SKPOLY
 70
               0
  9
$TDCREATE
 40
2453378.356319444
  9
$TDUPDATE
 40
2453378.356319444
  9
$TDINDWG
 40
0.0000000000
  9
$TDUSRTIMER
 40
0.0000000000
  9
$USRTIMER
 70
               1
  9
$ANGBASE
 50
0.0
  9
$ANGDIR
 70
               0
  9
$PDMODE
 70
               0
  9
$PDSIZE
 40
0.0
  9
$PLINEWID
 40
0.0
  9
$COORDS
 70
               1
  9
$SPLFRAME
 70
               0
  9
$SPLINETYPE
 70
               6
  9
$SPLINESEGS
 70
               8
  9
$ATTDIA
 70
               0
  9
$ATTREQ
 70
               1
  9
$HANDLING
 70
               1
  9
$HANDSEED
  5
5C7
  9
$SURFTAB1
 70
               6
  9
$SURFTAB2
 70
               6
  9
$SURFTYPE
 70
               6
  9
$SURFU
 70
               6
  9
$SURFV
 70
               6
  9
$UCSNAME
  2

  9
$UCSORG
 10
0.0
 20
0.0
 30
0.0
  9
$UCSXDIR
 10
1.0
 20
0.0
 30
0.0
  9
$UCSYDIR
 10
0.0
 20
1.0
 30
0.0
  9
$PUCSNAME
  2

  9
$PUCSORG
 10
0.0
 20
0.0
 30
0.0
  9
$PUCSXDIR
 10
1.0
 20
0.0
 30
0.0
  9
$PUCSYDIR
 10
0.0
 20
1.0
 30
0.0
  9
$USERI1
 70
               0
  9
$USERI2
 70
               0
  9
$USERI3
 70
               0
  9
$USERI4
 70
               0
  9
$USERI5
 70
               0
  9
$USERR1
 40
0.0
  9
$USERR2
 40
0.0
  9
$USERR3
 40
0.0
  9
$USERR4
 40
0.0
  9
$USERR5
 40
0.0
  9
$WORLDVIEW
 70
               1
  9
$SHADEDGE
 70
               3
  9
$SHADEDIF
 70
              70
  9
$TILEMODE
 70
               1
  9
$MAXACTVP
 70
              16
  9
$PINSBASE
 10
0.0
 20
0.0
 30
0.0
  9
$PLIMCHECK
 70
               0
  9
$PEXTMIN
 10
1.0000000000000000E+20
 20
1.0000000000000000E+20
 30
1.0000000000000000E+20
  9
$PEXTMAX
 10
-1.0000000000000000E+20
 20
-1.0000000000000000E+20
 30
-1.0000000000000000E+20
  9
$PLIMMIN
 10
0.0
 20
0.0
  9
$PLIMMAX
 10
12.0
 20
9.0
  9
$UNITMODE
 70
               0
  9
$VISRETAIN
 70
               0
  9
$PLINEGEN
 70
               1
  9
$PSLTSCALE
 70
               0
  9
$TREEDEPTH
 70
            3020
  9
$PICKSTYLE
 70
               1
  9
$CMLSTYLE
  2
Standard
  9
$CMLJUST
 70
               0
  9
$CMLSCALE
 40
1.0
  9
$SAVEIMAGES
 70
               0
  0
ENDSEC
  0
SECTION
  2
CLASSES
  0
CLASS
  1
LWPOLYLINE
  2
AcDbPolyline
  3
"AutoCAD"
 90
        0
280
               0
281
               1
  0
CLASS
  1
IMAGE
  2
AcDbRasterImage
  3
ISM
 90
      127
280
               0
281
               1
  0
CLASS
  1
OLE2FRAME
  2
AcDbOle2Frame
  3
""
 90
        0
280
               0
281
               1
  0
CLASS
  1
HATCH
  2
AcDbHatch
  3
"ACAD_SEDONA"
 90
        0
280
               0
281
               1
  0
CLASS
  1
DICTIONARYVAR
  2
AcDbDictionaryVar
  3
"AutoCAD"
 90
        0
280
               0
281
               0
  0
CLASS
  1
RASTERVARIABLES
  2
AcDbRasterVariables
  3
ISM
 90
        0
280
               0
281
               0
  0
CLASS
  1
IMAGEDEF
  2
AcDbRasterImageDef
  3
ISM
 90
        0
280
               0
281
               0
  0
CLASS
  1
IMAGEDEF_REACTOR
  2
AcDbRasterImageDefReactor
  3
ISM
 90
        1
280
               0
281
               0
  0
CLASS
  1
IDBUFFER
  2
AcDbIdBuffer
  3
"Acad"
 90
        0
280
               0
281
               0
  0
CLASS
  1
SPATIAL_FILTER
  2
AcDbSpatialFilter
  3
"Acad"
 90
        0
280
               0
281
               0
  0
CLASS
  1
XRECORD
  2
AcDbXrecord
  3
"<Built In>"
 90
        0
280
               0
281
               0
  0
CLASS
  1
SORTENTSTABLE
  2
AcDbSortentsTable
  3
"AutoCAD"
 90
        0
280
               0
281
               0
  0
CLASS
  1
LAYER_INDEX
  2
AcDbLayerIndex
  3
"Acad"
 90
        0
280
               0
281
               0
  0
CLASS
  1
SPATIAL_INDEX
  2
AcDbSpatialIndex
  3
"Acad"
 90
        0
280
               0
281
               0
  0
CLASS
  1
OBJECT_PTR
  2
CAseDLPNTableRecord
  3
"ASE-LPNTableRecord"
 90
        1
280
               0
281
               0
  0
CLASS
  1
LAYOUT
  2
AcDbLayout
  3
"AutoCAD 2000"
 90
        1
280
               0
281
               0
  0
CLASS
  1
PLOTSETTINGS
  2
AcDbPlotSettings
  3
"AutoCAD 2000"
 90
        1
280
               0
281
               0
  0
CLASS
  1
ACDBDICTIONARYWDFLT
  2
AcDbDictionaryWithDefault
  3
"AutoCAD 2000"
 90
        1
280
               0
281
               0
  0
CLASS
  1
ACDBPLACEHOLDER
  2
AcDbPlaceHolder
  3
"AutoCAD 2000"
 90
        1
280
               0
281
               0
  0
ENDSEC
  0
SECTION
  2
TABLES
  0
TABLE
  2
VPORT
  5
7
100
AcDbSymbolTable
 70
               1
  0
VPORT
  5
15
100
AcDbSymbolTableRecord
100
AcDbViewportTableRecord
  2
*ACTIVE
 70
               0
 10
0.0
 20
0.0
 11
1.0
 21
1.0
 12
2.1909528531206206
 22
0.25
 13
0.0
 23
0.0
 14
1.0
 24
1.0
 15
0.0
 25
0.0
 16
0.0
 26
0.0
 36
1.0
 17
0.0
 27
0.0
 37
0.0
 40
394.40500000000003
 41
1.7320508075688772
 42
50.0
 43
0.0
 44
0.0
 50
0.0
 51
0.0
 71
               0
 72
             100
 73
               1
 74
               1
 75
               0
 76
               0
 77
               0
 78
               0
  0
ENDTAB
  0
TABLE
  2
LTYPE
  5
4
100
AcDbSymbolTable
 70
               5
  0
LTYPE
  5
11
100
AcDbSymbolTableRecord
100
AcDbLinetypeTableRecord
  2
BYBLOCK
 70
              64
  3

 72
              65
 73
               0
 40
0.0
  0
LTYPE
  5
12
100
AcDbSymbolTableRecord
100
AcDbLinetypeTableRecord
  2
BYLAYER
 70
              64
  3

 72
              65
 73
               0
 40
0.0
  0
LTYPE
  5
13
100
AcDbSymbolTableRecord
100
AcDbLinetypeTableRecord
  2
CONTINUOUS
 70
              64
  3
Solid line
 72
              65
 73
               0
 40
0.0
  0
LTYPE
  5
28
100
AcDbSymbolTableRecord
100
AcDbLinetypeTableRecord
  2
PHANTOM
 70
              64
  3
Phantom ______  __  __  ______  __  __  ______
 72
              65
 73
               6
 40
30.0
 49
20.0
 74
               0
 49
-2.0
 74
               0
 49
2.0
 74
               0
 49
-2.0
 74
               0
 49
2.0
 74
               0
 49
-2.0
 74
               0
  0
LTYPE
  5
35
100
AcDbSymbolTableRecord
100
AcDbLinetypeTableRecord
  2
CENTER
 70
              64
  3
Center ____ _ ____ _ ____ _ ____ _ ____ _ ____
 72
              65
 73
               4
 40
26.0
 49
20.0
 74
               0
 49
-2.0
 74
               0
 49
2.0
 74
               0
 49
-2.0
 74
               0
  0
ENDTAB
  0
TABLE
  2
LAYER
  5
2
100
AcDbSymbolTable
 70
               2
  0
LAYER
  5
14
100
AcDbSymbolTableRecord
100
AcDbLayerTableRecord
  2
0
 70
               0
 62
               7
  6
CONTINUOUS
  0
LAYER
  5
1D
100
AcDbSymbolTableRecord
100
AcDbLayerTableRecord
  2
DEFPOINTS
 70
               0
 62
               7
  6
CONTINUOUS
  0
ENDTAB
  0
TABLE
  2
STYLE
  5
3
100
AcDbSymbolTable
 70
               1
  0
STYLE
  5
17
100
AcDbSymbolTableRecord
100
AcDbTextStyleTableRecord
  2
MX_NOTE_STANDARD
 70
               0
 40
0.0
 41
1.0
 50
0.0
 71
               0
 42
3.2000000476837158
  3
txt.shx
  4
extfont.shx
  0
ENDTAB
  0
TABLE
  2
VIEW
  5
5
100
AcDbSymbolTable
 70
               0
  0
ENDTAB
  0
TABLE
  2
UCS
  5
6
100
AcDbSymbolTable
 70
               0
  0
ENDTAB
  0
TABLE
  2
APPID
  5
8
100
AcDbSymbolTable
 70
               1
  0
APPID
  5
16
100
AcDbSymbolTableRecord
100
AcDbRegAppTableRecord
  2
ACAD
 70
               0
  0
ENDTAB
  0
TABLE
  2
DIMSTYLE
  5
9
100
AcDbSymbolTable
 70
               1
  0
DIMSTYLE
105
18
100
AcDbSymbolTableRecord
100
AcDbDimStyleTableRecord
  2
MXDIMSTYLE
 70
               0
  3

  4

  5

  6

  7

 40
1.0
 41
2.5
 42
1.5
 43
3.75
 44
1.5
 45
0.0
 46
0.0
 47
0.0
 48
0.0
 71
               0
 72
               0
 73
               0
 74
               0
 75
               0
 76
               0
 77
               1
 78
               8
140
3.2000000476837158
141
2.5
142
0.0
143
0.03937007874016
144
1.0
145
0.0
146
1.0
147
1.0
170
               0
171
               4
172
               1
173
               0
174
               0
175
               0
176
               0
177
               0
178
               0
270
               2
271
               4
272
               4
273
               2
274
               4
275
               0
280
               0
281
               0
282
               0
283
               1
284
               0
285
               0
286
               0
287
               3
288
               1
340
17
  0
ENDTAB
  0
TABLE
  2
BLOCK_RECORD
  5
1
100
AcDbSymbolTable
 70
              10
  0
BLOCK_RECORD
  5
A
100
AcDbSymbolTableRecord
100
AcDbBlockTableRecord
  2
*MODEL_SPACE
  0
BLOCK_RECORD
  5
B
100
AcDbSymbolTableRecord
100
AcDbBlockTableRecord
  2
*PAPER_SPACE
  0
BLOCK_RECORD
  5
1E
100
AcDbSymbolTableRecord
100
AcDbBlockTableRecord
  2
EA10A6-1
  0
BLOCK_RECORD
  5
1F
100
AcDbSymbolTableRecord
100
AcDbBlockTableRecord
  2
EA10A6-2
  0
BLOCK_RECORD
  5
20
100
AcDbSymbolTableRecord
100
AcDbBlockTableRecord
  2
EA10A6-3
  0
BLOCK_RECORD
  5
21
100
AcDbSymbolTableRecord
100
AcDbBlockTableRecord
  2
EA10A6-4
  0
BLOCK_RECORD
  5
22
100
AcDbSymbolTableRecord
100
AcDbBlockTableRecord
  2
EA10A6-5
  0
BLOCK_RECORD
  5
23
100
AcDbSymbolTableRecord
100
AcDbBlockTableRecord
  2
EA10A6-6
  0
BLOCK_RECORD
  5
24
100
AcDbSymbolTableRecord
100
AcDbBlockTableRecord
  2
EA10A6-7
  0
BLOCK_RECORD
  5
25
100
AcDbSymbolTableRecord
100
AcDbBlockTableRecord
  2
EA10A6-8
  0
BLOCK_RECORD
  5
26
100
AcDbSymbolTableRecord
100
AcDbBlockTableRecord
  2
EA10A6-9
  0
BLOCK_RECORD
  5
5B6
100
AcDbSymbolTableRecord
100
AcDbBlockTableRecord
  2
_OPEN30
  0
ENDTAB
  0
ENDSEC
  0
SECTION
  2
BLOCKS
  0
BLOCK
  5
D
100
AcDbEntity
  8
0
100
AcDbBlockBegin
  2
*MODEL_SPACE
 70
               0
 10
0.0
 20
0.0
 30
0.0
  3
*MODEL_SPACE
  1

  0
ENDBLK
  5
E
100
AcDbEntity
  8
0
100
AcDbBlockEnd
  0
BLOCK
  5
F
100
AcDbEntity
 67
               1
  8
0
100
AcDbBlockBegin
  2
*PAPER_SPACE
 70
               0
 10
0.0
 20
0.0
 30
0.0
  3
*PAPER_SPACE
  1

  0
ENDBLK
  5
10
100
AcDbEntity
 67
               1
  8
0
100
AcDbBlockEnd
  0
BLOCK
  5
27
100
AcDbEntity
  8
0
100
AcDbBlockBegin
  2
EA10A6-1
 70
               0
 10
0.0
 20
0.0
 30
0.0
  3
EA10A6-1
  1

  0
LINE
  5
29
100
AcDbEntity
  8
0
  6
PHANTOM
 62
             200
100
AcDbLine
 10
16.200000000000045
 20
-0.7980029999999942
 30
0.0
 11
16.200000000000045
 21
-8.7980029999999942
 31
0.0
  0
LINE
  5
2A
100
AcDbEntity
  8
0
  6
PHANTOM
 62
             200
100
AcDbLine
 10
14.200000000000045
 20
-0.7980029999999942
 30
0.0
 11
14.200000000000045
 21
-8.7980029999999942
 31
0.0
  0
LINE
  5
2B
100
AcDbEntity
  8
0
  6
PHANTOM
 62
             200
100
AcDbLine
 10
16.700000000000045
 20
-1.2980029999999942
 30
0.0
 11
16.700000000000045
 21
-8.2980029999999942
 31
0.0
  0
ARC
  5
2C
100
AcDbEntity
  8
0
  6
PHANTOM
 62
             200
100
AcDbCircle
 10
16.200000000000045
 20
-8.2980029999999942
 30
0.0
 40
0.5
100
AcDbArc
 50
269.99999999999937
 51
0.0
  0
ARC
  5
2D
100
AcDbEntity
  8
0
  6
PHANTOM
 62
             200
100
AcDbCircle
 10
16.200000000000045
 20
-1.2980029999999942
 30
0.0
 40
0.5
100
AcDbArc
 50
0.0
 51
89.999999999999815
  0
ARC
  5
2E
100
AcDbEntity
  8
0
  6
PHANTOM
 62
             200
100
AcDbCircle
 10
16.200000000000045
 20
-18.898003000000003
 30
0.0
 40
0.5
100
AcDbArc
 50
0.0
 51
89.999999999999815
  0
ARC
  5
2F
100
AcDbEntity
  8
0
  6
PHANTOM
 62
             200
100
AcDbCircle
 10
16.200000000000045
 20
-25.898003000000003
 30
0.0
 40
0.5
100
AcDbArc
 50
269.99999999999937
 51
0.0
  0
LINE
  5
30
100
AcDbEntity
  8
0
  6
PHANTOM
 62
             200
100
AcDbLine
 10
16.700000000000045
 20
-18.898003000000003
 30
0.0
 11
16.700000000000045
 21
-25.898003000000003
 31
0.0
  0
LINE
  5
31
100
AcDbEntity
  8
0
  6
PHANTOM
 62
             200
100
AcDbLine
 10
14.200000000000045
 20
-18.398003000000003
 30
0.0
 11
14.200000000000045
 21
-26.398003000000003
 31
0.0
  0
LINE
  5
32
100
AcDbEntity
  8
0
  6
PHANTOM
 62
             200
100
AcDbLine
 10
16.200000000000045
 20
-18.398003000000003
 30
0.0
 11
16.200000000000045
 21
-26.398003000000003
 31
0.0
  0
LINE
  5
33
100
AcDbEntity
  8
0
  6
PHANTOM
 62
             200
100
AcDbLine
 10
2.6999999999999886
 20
-8.7980029999999942
 30
0.0
 11
16.200000000000045
 21
-8.7980029999999942
 31
0.0
  0
LINE
  5
34
100
AcDbEntity
  8
0
  6
PHANTOM
 62
             200
100
AcDbLine
 10
2.6999999999999886
 20
-0.7980029999999942
 30
0.0
 11
16.200000000000045
 21
-0.7980029999999942
 31
0.0
  0
LINE
  5
36
100
AcDbEntity
  8
0
  6
CENTER
 62
               2
100
AcDbLine
 10
0.2162062056379455
 20
-4.7980029999999942
 30
0.0
 11
17.830000000000041
 21
-4.7980029999999942
 31
0.0
  0
LINE
  5
37
100
AcDbEntity
  8
0
  6
PHANTOM
 62
             200
100
AcDbLine
 10
2.6999999999999886
 20
-26.398003000000003
 30
0.0
 11
16.200000000000045
 21
-26.398003000000003
 31
0.0
  0
LINE
  5
38
100
AcDbEntity
  8
0
  6
PHANTOM
 62
             200
100
AcDbLine
 10
2.6999999999999886
 20
-18.398003000000003
 30
0.0
 11
16.200000000000045
 21
-18.398003000000003
 31
0.0
  0
LINE
  5
39
100
AcDbEntity
  8
0
  6
CENTER
 62
               2
100
AcDbLine
 10
0.2162062056379455
 20
-22.398003000000003
 30
0.0
 11
17.830000000000041
 21
-22.398003000000003
 31
0.0
  0
LINE
  5
3A
100
AcDbEntity
  8
0
  6
CONTINUOUS
 62
               7
100
AcDbLine
 10
-3.3000000000000114
 20
-32.299999999999997
 30
0.0
 11
2.6999999999999886
 21
-32.299999999999997
 31
0.0
  0
LINE
  5
3B
100
AcDbEntity
  8
0
  6
CONTINUOUS
 62
               4
100
AcDbLine
 10
-13.300000000000011
 20
-34.899999999999764
 30
0.0
 11
-3.3000000000000114
 21
-34.899999999999764
 31
0.0
  0
LINE
  5
3C
100
AcDbEntity
  8
0
  6
CONTINUOUS
 62
               7
100
AcDbLine
 10
-6.3000000000000114
 20
-30.899999999999764
 30
0.0
 11
-6.3000000000000114
 21
-34.899999999999764
 31
0.0
  0
LINE
  5
3D
100
AcDbEntity
  8
0
  6
CONTINUOUS
 62
               7
100
AcDbLine
 10
-10.300000000000011
 20
-30.899999999999764
 30
0.0
 11
-10.300000000000011
 21
-34.899999999999764
 31
0.0
  0
LINE
  5
3E
100
AcDbEntity
  8
0
  6
CONTINUOUS
 62
               7
100
AcDbLine
 10
-4.6999999999999886
 20
-30.899999999999764
 30
0.0
 11
-4.6999999999999886
 21
-34.899999999999764
 31
0.0
  0
LINE
  5
3F
100
AcDbEntity
  8
0
  6
CONTINUOUS
 62
               7
100
AcDbLine
 10
-11.900000000000034
 20
-30.899999999999764
 30
0.0
 11
-11.900000000000034
 21
-34.899999999999764
 31
0.0
  0
ARC
  5
40
100
AcDbEntity
  8
0
  6
CONTINUOUS
 62
               7
100
AcDbCircle
 10
-8.3000000000000114
 20
-30.899999999999764
 30
0.0
 40
2.0
100
AcDbArc
 50
0.0
 51
179.99999999999963
  0
ARC
  5
41
100
AcDbEntity
  8
0
  6
CONTINUOUS
 62
               7
100
AcDbCircle
 10
-8.3000000000000114
 20
-30.899999999999764
 30
0.0
 40
3.6000000000000001
100
AcDbArc
 50
0.0
 51
179.99999999999963
  0
LINE
  5
42
100
AcDbEntity
  8
0
  6
CENTER
 62
               2
100
AcDbLine
 10
-10.0
 20
-32.599999999999781
 30
0.0
 11
-6.6000000000000227
 21
-32.599999999999781
 31
0.0
  0
CIRCLE
  5
43
100
AcDbEntity
  8
0
  6
CONTINUOUS
 62
               7
100
AcDbCircle
 10
-8.3000000000000114
 20
-32.599999999999781
 30
0.0
 40
1.3000000000000012
  0
CIRCLE
  5
44
100
AcDbEntity
  8
0
  6
CONTINUOUS
 62
               7
100
AcDbCircle
 10
-8.3000000000000114
 20
-32.599999999999781
 30
0.0
 40
1.1500000000000001
  0
CIRCLE
  5
45
100
AcDbEntity
  8
0
  6
CONTINUOUS
 62
               7
100
AcDbCircle
 10
-8.3000000000000114
 20
-32.599999999999781
 30
0.0
 40
1.1000000000000001
  0
CIRCLE
  5
46
100
AcDbEntity
  8
0
  6
CONTINUOUS
 62
               7
100
AcDbCircle
 10
-8.3000000000000114
 20
-32.599999999999781
 30
0.0
 40
0.75
  0
LINE
  5
47
100
AcDbEntity
  8
0
  6
CONTINUOUS
 62
               4
100
AcDbLine
 10
-3.5300000000000296
 20
-53.901999999999788
 30
0.0
 11
-3.5300000000000296
 21
-37.599988328348303
 31
0.0
  0
LINE
  5
48
100
AcDbEntity
  8
0
  6
CONTINUOUS
 62
               4
100
AcDbLine
 10
-13.069999999999993
 20
-53.901999999999788
 30
0.0
 11
-13.069999999999993
 21
-37.599988328348516
 31
0.0
  0
LINE
  5
49
100
AcDbEntity
  8
0
  6
CONTINUOUS
 62
               4
100
AcDbLine
 10
-3.3000000000000114
 20
-57.399999999999793
 30
0.0
 11
-3.3000000000000114
 21
-34.899999999999764
 31
0.0
  0
LINE
  5
4A
100
AcDbEntity
  8
0
  6
CONTINUOUS
 62
               4
100
AcDbLine
 10
-13.300000000000011
 20
-57.399999999999793
 30
0.0
 11
-13.300000000000011
 21
-34.899999999999764
 31
0.0
  0
LINE
  5
4B
100
AcDbEntity
  8
0
  6
CONTINUOUS
 62
               4
100
AcDbLine
 10
-13.300000000000011
 20
-57.399999999999793
 30
0.0
 11
-3.3000000000000114
 21
-57.399999999999793
 31
0.0
  0
LINE
  5
4C
100
AcDbEntity
  8
0
  6
CONTINUOUS
 62
               4
100
AcDbLine
 10
-13.300000000000011
 20
-55.79999999999977
 30
0.0
 11
-11.050000000000011
 21
-55.79999999999977
 31
0.0
  0
LINE
  5
4D
100
AcDbEntity
  8
0
  6
CONTINUOUS
 62
               4
100
AcDbLine
 10
-10.100000000000023
 20
-57.29999999999977
 30
0.0
 11
-3.8000000000000114
 21
-57.29999999999977
 31
0.0
  0
LINE
  5
4E
100
AcDbEntity
  8
0
  6
CONTINUOUS
 62
               4
100
AcDbLine
 10
-10.100000000000023
 20
-57.29999999999977
 30
0.0
 11
-10.100000000000023
 21
-56.501999999999782
 31
0.0
  0
ARC
  5
4F
100
AcDbEntity
  8
0
  6
CONTINUOUS
 62
               4
100
AcDbCircle
 10
-3.8000000000000114
 20
-56.79999999999977
 30
0.0
 40
0.5
100
AcDbArc
 50
269.99999999999937
 51
0.0
  0
LINE
  5
50
100
AcDbEntity
  8
0
  6
CONTINUOUS
 62
               4
100
AcDbLine
 10
-13.300000000000011
 20
-56.79999999999977
 30
0.0
 11
-10.100000000000023
 21
-56.79999999999977
 31
0.0
  0
ARC
  5
51
100
AcDbEntity
  8
0
  6
CONTINUOUS
 62
               4
100
AcDbCircle
 10
-12.504095146658244
 20
-56.800095146657938
 30
0.0
 40
0.5999048608870732
100
AcDbArc
 50
179.99091272245337
 51
270.00908727754575
  0
ARC
  5
52
100
AcDbEntity
  8
0
  6
CONTINUOUS
 62
               4
100
AcDbCircle
 10
-10.702911994762985
 20
-56.801088005236792
 30
0.0
 40
0.5989129830170392
100
AcDbArc
 50
269.89591452477231
 51
0.1040854752270701
  0
LINE
  5
53
100
AcDbEntity
  8
0
  6
CONTINUOUS
 62
               4
100
AcDbLine
 10
-11.050000000000011
 20
-56.501999999999782
 30
0.0
 11
-11.050000000000011
 21
-52.801999999999765
 31
0.0
  0
LINE
  5
54
100
AcDbEntity
  8
0
  6
CONTINUOUS
 62
               4
100
AcDbLine
 10
-5.4499999999999886
 20
-49.401999999999788
 30
0.0
 11
-11.149999999999977
 21
-49.401999999999788
 31
0.0
  0
LINE
  5
55
100
AcDbEntity
  8
0
  6
CONTINUOUS
 62
               4
100
AcDbLine
 10
-5.8799999999999955
 20
-53.801999999999765
 30
0.0
 11
-10.710000000000036
 21
-53.801999999999765
 31
0.0
  0
LINE
  5
56
100
AcDbEntity
  8
0
  6
CONTINUOUS
 62
               4
100
AcDbLine
 10
-5.5799999999999841
 20
-53.501999999999782
 30
0.0
 11
-11.009999999999991
 21
-53.501999999999782
 31
0.0
  0
LINE
  5
57
100
AcDbEntity
  8
0
  6
CONTINUOUS
 62
               4
100
AcDbLine
 10
-5.5500000000000114
 20
-54.501999999999782
 30
0.0
 11
-11.050000000000011
 21
-54.501999999999782
 31
0.0
  0
LINE
  5
58
100
AcDbEntity
  8
0
  6
CONTINUOUS
 62
               4
100
AcDbLine
 10
-5.5500000000000114
 20
-49.501999999999782
 30
0.0
 11
-11.050000000000011
 21
-49.501999999999782
 31
0.0
  0
ARC
  5
59
100
AcDbEntity
  8
0
  6
CONTINUOUS
 62
               4
100
AcDbCircle
 10
-12.800004577522657
 20
-53.902004577522405
 30
0.0
 40
0.4999954224983215
100
AcDbArc
 50
179.99947544974253
 51
270.00052455025644
  0
LINE
  5
5A
100
AcDbEntity
  8
0
  6
CONTINUOUS
 62
               4
100
AcDbLine
 10
-11.050000000000011
 20
-54.401999999999788
 30
0.0
 11
-12.800000000000011
 21
-54.401999999999788
 31
0.0
  0
LINE
  5
5B
100
AcDbEntity
  8
0
  6
CONTINUOUS
 62
               4
100
AcDbLine
 10
-8.6000000000000227
 20
-53.151999999999788
 30
0.0
 11
-8.6000000000000227
 21
-51.051999999999765
 31
0.0
  0
LINE
  5
5C
100
AcDbEntity
  8
0
  6
CONTINUOUS
 62
               4
100
AcDbLine
 10
-9.0500000000000114
 20
-51.051999999999765
 30
0.0
 11
-9.0500000000000114
 21
-50.751999999999782
 31
0.0
  0
ARC
  5
5D
100
AcDbEntity
  8
0
  6
CONTINUOUS
 62
               4
100
AcDbCircle
 10
-12.569999084445726
 20
-53.901999084445521
 30
0.0
 40
0.5000009155550945
100
AcDbArc
 50
180.00010491459673
 51
269.99989508540227
  0
LINE
  5
5E
100
AcDbEntity
  8
0
  6
CONTINUOUS
 62
               4
100
AcDbLine
 10
-12.050000000000011
 20
-51.001999999999782
 30
0.0
 11
-12.050000000000011
 21
-52.801999999999765
 31
0.0
  0
LINE
  5
5F
100
AcDbEntity
  8
0
  6
CONTINUOUS
 62
               4
100
AcDbLine
 10
-12.149999999999977
 20
-52.901999999999788
 30
0.0
 11
-12.149999999999977
 21
-50.901999999999788
 31
0.0
  0
LINE
  5
60
100
AcDbEntity
  8
0
  6
CONTINUOUS
 62
               4
100
AcDbLine
 10
-11.149999999999977
 20
-50.901999999999788
 30
0.0
 11
-11.149999999999977
 21
-49.401999999999788
 31
0.0
  0
LINE
  5
61
100
AcDbEntity
  8
0
  6
CONTINUOUS
 62
               4
100
AcDbLine
 10
-11.149999999999977
 20
-54.401999999999788
 30
0.0
 11
-11.149999999999977
 21
-52.901999999999788
 31
0.0
  0
LINE
  5
62
100
AcDbEntity
  8
0
  6
CONTINUOUS
 62
               4
100
AcDbLine
 10
-10.5
 20
-53.151999999999788
 30
0.0
 11
-10.5
 21
-51.051999999999765
 31
0.0
  0
LINE
  5
63
100
AcDbEntity
  8
0
  6
CONTINUOUS
 62
               4
100
AcDbLine
 10
-11.009999999999991
 20
-53.501999999999782
 30
0.0
 11
-10.710000000000036
 21
-53.801999999999765
 31
0.0
  0
LINE
  5
64
100
AcDbEntity
  8
0
  6
CONTINUOUS
 62
               4
100
AcDbLine
 10
-10.050000000000011
 20
-51.051999999999765
 30
0.0
 11
-10.050000000000011
 21
-50.751999999999782
 31
0.0
  0
LINE
  5
65
100
AcDbEntity
  8
0
  6
CONTINUOUS
 62
               4
100
AcDbLine
 10
-11.050000000000011
 20
-51.001999999999782
 30
0.0
 11
-11.050000000000011
 21
-49.501999999999782
 31
0.0
  0
LINE
  5
66
100
AcDbEntity
  8
0
  6
CONTINUOUS
 62
               4
100
AcDbLine
 10
-9.0500000000000114
 20
-50.751999999999782
 30
0.0
 11
-10.050000000000011
 21
-50.751999999999782
 31
0.0
  0
LINE
  5
67
100
AcDbEntity
  8
0
  6
CONTINUOUS
 62
               4
100
AcDbLine
 10
-11.050000000000011
 20
-51.001999999999782
 30
0.0
 11
-12.050000000000011
 21
-51.001999999999782
 31
0.0
  0
LINE
  5
68
100
AcDbEntity
  8
0
  6
CONTINUOUS
 62
               4
100
AcDbLine
 10
-11.050000000000011
 20
-52.801999999999765
 30
0.0
 11
-12.050000000000011
 21
-52.801999999999765
 31
0.0
  0
LINE
  5
69
100
AcDbEntity
  8
0
  6
CONTINUOUS
 62
               4
100
AcDbLine
 10
-8.6000000000000227
 20
-52.951999999999771
 30
0.0
 11
-10.5
 21
-52.951999999999771
 31
0.0
  0
LINE
  5
6A
100
AcDbEntity
  8
0
  6
CONTINUOUS
 62
               4
100
AcDbLine
 10
-8.6000000000000227
 20
-51.051999999999765
 30
0.0
 11
-10.5
 21
-51.051999999999765
 31
0.0
  0
LINE
  5
6B
100
AcDbEntity
  8
0
  6
CONTINUOUS
 62
               4
100
AcDbLine
 10
-8.6000000000000227
 20
-53.151999999999788
 30
0.0
 11
-10.5
 21
-53.151999999999788
 31
0.0
  0
LINE
  5
6C
100
AcDbEntity
  8
0
  6
CONTINUOUS
 62
               4
100
AcDbLine
 10
-11.149999999999977
 20
-52.901999999999788
 30
0.0
 11
-12.149999999999977
 21
-52.901999999999788
 31
0.0
  0
LINE
  5
6D
100
AcDbEntity
  8
0
  6
CONTINUOUS
 62
               4
100
AcDbLine
 10
-11.149999999999977
 20
-50.901999999999788
 30
0.0
 11
-12.149999999999977
 21
-50.901999999999788
 31
0.0
  0
CIRCLE
  5
6E
100
AcDbEntity
  8
0
  6
CONTINUOUS
 62
               4
100
AcDbCircle
 10
-9.5500000000000114
 20
-52.00198474121072
 30
0.0
 40
0.8499675393104553
  0
LINE
  5
6F
100
AcDbEntity
  8
0
  6
CONTINUOUS
 62
               4
100
AcDbLine
 10
-5.5500000000000114
 20
-55.501999999999782
 30
0.0
 11
-11.050000000000011
 21
-55.501999999999782
 31
0.0
  0
LINE
  5
70
100
AcDbEntity
  8
0
  6
CONTINUOUS
 62
               4
100
AcDbLine
 10
-5.5500000000000114
 20
-56.501999999999782
 30
0.0
 11
-11.050000000000011
 21
-56.501999999999782
 31
0.0
  0
LINE
  5
71
100
AcDbEntity
  8
0
  6
CONTINUOUS
 62
               4
100
AcDbLine
 10
-5.5500000000000114
 20
-56.501999999999782
 30
0.0
 11
-5.5500000000000114
 21
-52.801999999999765
 31
0.0
  0
LINE
  5
72
100
AcDbEntity
  8
0
  6
CONTINUOUS
 62
               4
100
AcDbLine
 10
-6.1000000000000227
 20
-51.051999999999765
 30
0.0
 11
-8.0
 21
-51.051999999999765
 31
0.0
  0
LINE
  5
73
100
AcDbEntity
  8
0
  6
CONTINUOUS
 62
               4
100
AcDbLine
 10
-6.5500000000000114
 20
-50.751999999999782
 30
0.0
 11
-7.5500000000000114
 21
-50.751999999999782
 31
0.0
  0
LINE
  5
74
100
AcDbEntity
  8
0
  6
CONTINUOUS
 62
               4
100
AcDbLine
 10
-4.5500000000000114
 20
-51.001999999999782
 30
0.0
 11
-5.5500000000000114
 21
-51.001999999999782
 31
0.0
  0
LINE
  5
75
100
AcDbEntity
  8
0
  6
CONTINUOUS
 62
               4
100
AcDbLine
 10
-6.1000000000000227
 20
-53.151999999999788
 30
0.0
 11
-6.1000000000000227
 21
-51.051999999999765
 31
0.0
  0
LINE
  5
76
100
AcDbEntity
  8
0
  6
CONTINUOUS
 62
               4
100
AcDbLine
 10
-4.4499999999999886
 20
-50.901999999999788
 30
0.0
 11
-5.4499999999999886
 21
-50.901999999999788
 31
0.0
  0
CIRCLE
  5
77
100
AcDbEntity
  8
0
  6
CONTINUOUS
 62
               4
100
AcDbCircle
 10
-7.0500000000000114
 20
-52.00198474121072
 30
0.0
 40
0.8499675393104553
  0
LINE
  5
78
100
AcDbEntity
  8
0
  6
CONTINUOUS
 62
               4
100
AcDbLine
 10
-5.4499999999999886
 20
-50.901999999999788
 30
0.0
 11
-5.4499999999999886
 21
-49.401999999999788
 31
0.0
  0
LINE
  5
79
100
AcDbEntity
  8
0
  6
CONTINUOUS
 62
               4
100
AcDbLine
 10
-6.5500000000000114
 20
-51.051999999999765
 30
0.0
 11
-6.5500000000000114
 21
-50.751999999999782
 31
0.0
  0
LINE
  5
7A
100
AcDbEntity
  8
0
  6
CONTINUOUS
 62
               4
100
AcDbLine
 10
-5.5500000000000114
 20
-51.001999999999782
 30
0.0
 11
-5.5500000000000114
 21
-49.501999999999782
 31
0.0
  0
LINE
  5
7B
100
AcDbEntity
  8
0
  6
CONTINUOUS
 62
               4
100
AcDbLine
 10
-4.5500000000000114
 20
-52.801999999999765
 30
0.0
 11
-5.5500000000000114
 21
-52.801999999999765
 31
0.0
  0
LINE
  5
7C
100
AcDbEntity
  8
0
  6
CONTINUOUS
 62
               4
100
AcDbLine
 10
-4.5500000000000114
 20
-51.001999999999782
 30
0.0
 11
-4.5500000000000114
 21
-52.801999999999765
 31
0.0
  0
LINE
  5
7D
100
AcDbEntity
  8
0
  6
CONTINUOUS
 62
               4
100
AcDbLine
 10
-4.4499999999999886
 20
-52.901999999999788
 30
0.0
 11
-4.4499999999999886
 21
-50.901999999999788
 31
0.0
  0
LINE
  5
7E
100
AcDbEntity
  8
0
  6
CONTINUOUS
 62
               4
100
AcDbLine
 10
-4.4499999999999886
 20
-52.901999999999788
 30
0.0
 11
-5.4499999999999886
 21
-52.901999999999788
 31
0.0
  0
LINE
  5
7F
100
AcDbEntity
  8
0
  6
CONTINUOUS
 62
               4
100
AcDbLine
 10
-5.5500000000000114
 20
-53.46199999999979
 30
0.0
 11
-5.8799999999999955
 21
-53.801999999999765
 31
0.0
  0
LINE
  5
80
100
AcDbEntity
  8
0
  6
CONTINUOUS
 62
               4
100
AcDbLine
 10
-5.4499999999999886
 20
-54.401999999999788
 30
0.0
 11
-5.4499999999999886
 21
-52.901999999999788
 31
0.0
  0
LINE
  5
81
100
AcDbEntity
  8
0
  6
CONTINUOUS
 62
               4
100
AcDbLine
 10
-8.0
 20
-53.151999999999788
 30
0.0
 11
-8.0
 21
-51.051999999999765
 31
0.0
  0
LINE
  5
82
100
AcDbEntity
  8
0
  6
CONTINUOUS
 62
               4
100
AcDbLine
 10
-7.5500000000000114
 20
-51.051999999999765
 30
0.0
 11
-7.5500000000000114
 21
-50.751999999999782
 31
0.0
  0
LINE
  5
83
100
AcDbEntity
  8
0
  6
CONTINUOUS
 62
               4
100
AcDbLine
 10
-6.1000000000000227
 20
-53.151999999999788
 30
0.0
 11
-8.0
 21
-53.151999999999788
 31
0.0
  0
LINE
  5
84
100
AcDbEntity
  8
0
  6
CONTINUOUS
 62
               4
100
AcDbLine
 10
-6.1000000000000227
 20
-52.951999999999771
 30
0.0
 11
-8.0
 21
-52.951999999999771
 31
0.0
  0
LINE
  5
85
100
AcDbEntity
  8
0
  6
PHANTOM
 62
             200
100
AcDbLine
 10
-6.8000000000000114
 20
-42.401999999999759
 30
0.0
 11
-9.8000000000000114
 21
-42.401999999999759
 31
0.0
  0
LINE
  5
86
100
AcDbEntity
  8
0
  6
PHANTOM
 62
             200
100
AcDbLine
 10
-6.8000000000000114
 20
-40.401999999999759
 30
0.0
 11
-9.8000000000000114
 21
-40.401999999999759
 31
0.0
  0
LINE
  5
87
100
AcDbEntity
  8
0
  6
PHANTOM
 62
             200
100
AcDbLine
 10
-9.8000000000000114
 20
-42.401999999999759
 30
0.0
 11
-9.8000000000000114
 21
-40.401999999999759
 31
0.0
  0
LINE
  5
88
100
AcDbEntity
  8
0
  6
PHANTOM
 62
             200
100
AcDbLine
 10
-6.8000000000000114
 20
-42.401999999999759
 30
0.0
 11
-6.8000000000000114
 21
-40.401999999999759
 31
0.0
  0
ARC
  5
89
100
AcDbEntity
  8
0
  6
CONTINUOUS
 62
               4
100
AcDbCircle
 10
-3.800010681173319
 20
-53.90198931882648
 30
0.0
 40
0.5000106812873828
100
AcDbArc
 50
270.00122394615283
 51
359.99877605384501
  0
ARC
  5
8A
100
AcDbEntity
  8
0
  6
CONTINUOUS
 62
               4
100
AcDbCircle
 10
-4.0300009155542398
 20
-53.901999084445521
 30
0.0
 40
0.5000009155550945
100
AcDbArc
 50
270.00010491459648
 51
359.99989508540216
  0
LINE
  5
8B
100
AcDbEntity
  8
0
  6
CONTINUOUS
 62
               4
100
AcDbLine
 10
-3.8000000000000114
 20
-54.401999999999788
 30
0.0
 11
-5.5500000000000114
 21
-54.401999999999788
 31
0.0
  0
LINE
  5
8C
100
AcDbEntity
  8
0
  6
CONTINUOUS
 62
               4
100
AcDbLine
 10
-4.0300000000000296
 20
-37.099988328347877
 30
0.0
 11
-12.569999999999993
 21
-37.099988328347877
 31
0.0
  0
ARC
  5
8D
100
AcDbEntity
  8
0
  6
CONTINUOUS
 62
               4
100
AcDbCircle
 10
-4.0311974244897328
 20
-37.60118575283758
 30
0.0
 40
0.5011988548874781
100
AcDbArc
 50
0.1368866551550224
 51
89.863113344844777
  0
ARC
  5
8E
100
AcDbEntity
  8
0
  6
CONTINUOUS
 62
               4
100
AcDbCircle
 10
-12.56880257551029
 20
-37.60118575283758
 30
0.0
 40
0.5011988548874781
100
AcDbArc
 50
90.136886655154825
 51
179.86311334484458
  0
LINE
  5
8F
100
AcDbEntity
  8
0
  6
CONTINUOUS
 62
               7
100
AcDbLine
 10
-13.300000000000011
 20
-23.899999999999764
 30
0.0
 11
-13.300000000000011
 21
-34.899999999999764
 31
0.0
  0
LINE
  5
90
100
AcDbEntity
  8
0
  6
CONTINUOUS
 62
               7
100
AcDbLine
 10
-3.3000000000000114
 20
-23.899999999999764
 30
0.0
 11
-3.3000000000000114
 21
-34.899999999999764
 31
0.0
  0
ARC
  5
91
100
AcDbEntity
  8
0
  6
CONTINUOUS
 62
               4
100
AcDbCircle
 10
-4.0311974244897328
 20
7.9991888916076732
 30
0.0
 40
0.5011988548874781
100
AcDbArc
 50
270.1368866551544
 51
359.86311334484418
  0
ARC
  5
92
100
AcDbEntity
  8
0
  6
CONTINUOUS
 62
               4
100
AcDbCircle
 10
-12.56880257551029
 20
7.9991888916076732
 30
0.0
 40
0.5011988548874781
100
AcDbArc
 50
180.13688665515463
 51
269.86311334484435
  0
LINE
  5
93
100
AcDbEntity
  8
0
  6
CONTINUOUS
 62
               4
100
AcDbLine
 10
-12.569999999999993
 20
7.4979914671179699
 30
0.0
 11
-4.0300000000000296
 21
7.4979914671179699
 31
0.0
  0
LINE
  5
94
100
AcDbEntity
  8
0
  6
CONTINUOUS
 62
               4
100
AcDbLine
 10
-12.800000000000011
 20
24.802000138769884
 30
0.0
 11
-11.050000000000011
 21
24.802000138769884
 31
0.0
  0
ARC
  5
95
100
AcDbEntity
  8
0
  6
CONTINUOUS
 62
               4
100
AcDbCircle
 10
-12.569999084445726
 20
24.301999223215617
 30
0.0
 40
0.5000009155550945
100
AcDbArc
 50
90.000104914596918
 51
179.99989508540253
  0
ARC
  5
96
100
AcDbEntity
  8
0
  6
CONTINUOUS
 62
               4
100
AcDbCircle
 10
-12.799989318826704
 20
24.301989457596576
 30
0.0
 40
0.5000106812873828
100
AcDbArc
 50
90.001223946153175
 51
179.9987760538454
  0
LINE
  5
97
100
AcDbEntity
  8
0
  6
PHANTOM
 62
             200
100
AcDbLine
 10
-9.8000000000000114
 20
12.802000138769856
 30
0.0
 11
-9.8000000000000114
 21
10.802000138769856
 31
0.0
  0
LINE
  5
98
100
AcDbEntity
  8
0
  6
PHANTOM
 62
             200
100
AcDbLine
 10
-6.8000000000000114
 20
12.802000138769856
 30
0.0
 11
-6.8000000000000114
 21
10.802000138769856
 31
0.0
  0
LINE
  5
99
100
AcDbEntity
  8
0
  6
PHANTOM
 62
             200
100
AcDbLine
 10
-9.8000000000000114
 20
10.802000138769856
 30
0.0
 11
-6.8000000000000114
 21
10.802000138769856
 31
0.0
  0
LINE
  5
9A
100
AcDbEntity
  8
0
  6
PHANTOM
 62
             200
100
AcDbLine
 10
-9.8000000000000114
 20
12.802000138769856
 30
0.0
 11
-6.8000000000000114
 21
12.802000138769856
 31
0.0
  0
LINE
  5
9B
100
AcDbEntity
  8
0
  6
CONTINUOUS
 62
               4
100
AcDbLine
 10
-10.5
 20
23.352000138769867
 30
0.0
 11
-8.6000000000000227
 21
23.352000138769867
 31
0.0
  0
LINE
  5
9C
100
AcDbEntity
  8
0
  6
CONTINUOUS
 62
               4
100
AcDbLine
 10
-10.5
 20
23.552000138769884
 30
0.0
 11
-8.6000000000000227
 21
23.552000138769884
 31
0.0
  0
LINE
  5
9D
100
AcDbEntity
  8
0
  6
CONTINUOUS
 62
               4
100
AcDbLine
 10
-9.0500000000000114
 20
21.452000138769861
 30
0.0
 11
-9.0500000000000114
 21
21.152000138769878
 31
0.0
  0
LINE
  5
9E
100
AcDbEntity
  8
0
  6
CONTINUOUS
 62
               4
100
AcDbLine
 10
-8.6000000000000227
 20
23.552000138769884
 30
0.0
 11
-8.6000000000000227
 21
21.452000138769861
 31
0.0
  0
LINE
  5
9F
100
AcDbEntity
  8
0
  6
CONTINUOUS
 62
               4
100
AcDbLine
 10
-11.149999999999977
 20
24.802000138769884
 30
0.0
 11
-11.149999999999977
 21
23.302000138769884
 31
0.0
  0
LINE
  5
A0
100
AcDbEntity
  8
0
  6
CONTINUOUS
 62
               4
100
AcDbLine
 10
-11.050000000000011
 20
23.862000138769886
 30
0.0
 11
-10.720000000000027
 21
24.202000138769861
 31
0.0
  0
LINE
  5
A1
100
AcDbEntity
  8
0
  6
CONTINUOUS
 62
               4
100
AcDbLine
 10
-12.149999999999977
 20
23.302000138769884
 30
0.0
 11
-11.149999999999977
 21
23.302000138769884
 31
0.0
  0
LINE
  5
A2
100
AcDbEntity
  8
0
  6
CONTINUOUS
 62
               4
100
AcDbLine
 10
-12.149999999999977
 20
23.302000138769884
 30
0.0
 11
-12.149999999999977
 21
21.302000138769884
 31
0.0
  0
LINE
  5
A3
100
AcDbEntity
  8
0
  6
CONTINUOUS
 62
               4
100
AcDbLine
 10
-12.050000000000011
 20
21.402000138769878
 30
0.0
 11
-12.050000000000011
 21
23.202000138769861
 31
0.0
  0
LINE
  5
A4
100
AcDbEntity
  8
0
  6
CONTINUOUS
 62
               4
100
AcDbLine
 10
-12.050000000000011
 20
23.202000138769861
 30
0.0
 11
-11.050000000000011
 21
23.202000138769861
 31
0.0
  0
LINE
  5
A5
100
AcDbEntity
  8
0
  6
CONTINUOUS
 62
               4
100
AcDbLine
 10
-11.050000000000011
 20
21.402000138769878
 30
0.0
 11
-11.050000000000011
 21
19.902000138769878
 31
0.0
  0
LINE
  5
A6
100
AcDbEntity
  8
0
  6
CONTINUOUS
 62
               4
100
AcDbLine
 10
-10.050000000000011
 20
21.452000138769861
 30
0.0
 11
-10.050000000000011
 21
21.152000138769878
 31
0.0
  0
LINE
  5
A7
100
AcDbEntity
  8
0
  6
CONTINUOUS
 62
               4
100
AcDbLine
 10
-11.149999999999977
 20
21.302000138769884
 30
0.0
 11
-11.149999999999977
 21
19.802000138769884
 31
0.0
  0
CIRCLE
  5
A8
100
AcDbEntity
  8
0
  6
CONTINUOUS
 62
               4
100
AcDbCircle
 10
-9.5500000000000114
 20
22.401984879980816
 30
0.0
 40
0.8499675393104553
  0
LINE
  5
A9
100
AcDbEntity
  8
0
  6
CONTINUOUS
 62
               4
100
AcDbLine
 10
-12.149999999999977
 20
21.302000138769884
 30
0.0
 11
-11.149999999999977
 21
21.302000138769884
 31
0.0
  0
LINE
  5
AA
100
AcDbEntity
  8
0
  6
CONTINUOUS
 62
               4
100
AcDbLine
 10
-10.5
 20
23.552000138769884
 30
0.0
 11
-10.5
 21
21.452000138769861
 31
0.0
  0
LINE
  5
AB
100
AcDbEntity
  8
0
  6
CONTINUOUS
 62
               4
100
AcDbLine
 10
-12.050000000000011
 20
21.402000138769878
 30
0.0
 11
-11.050000000000011
 21
21.402000138769878
 31
0.0
  0
LINE
  5
AC
100
AcDbEntity
  8
0
  6
CONTINUOUS
 62
               4
100
AcDbLine
 10
-10.050000000000011
 20
21.152000138769878
 30
0.0
 11
-9.0500000000000114
 21
21.152000138769878
 31
0.0
  0
LINE
  5
AD
100
AcDbEntity
  8
0
  6
CONTINUOUS
 62
               4
100
AcDbLine
 10
-10.5
 20
21.452000138769861
 30
0.0
 11
-8.6000000000000227
 21
21.452000138769861
 31
0.0
  0
LINE
  5
AE
100
AcDbEntity
  8
0
  6
CONTINUOUS
 62
               4
100
AcDbLine
 10
-11.050000000000011
 20
26.902000138769878
 30
0.0
 11
-11.050000000000011
 21
23.202000138769861
 31
0.0
  0
LINE
  5
AF
100
AcDbEntity
  8
0
  6
CONTINUOUS
 62
               4
100
AcDbLine
 10
-11.050000000000011
 20
26.902000138769878
 30
0.0
 11
-5.5500000000000114
 21
26.902000138769878
 31
0.0
  0
LINE
  5
B0
100
AcDbEntity
  8
0
  6
CONTINUOUS
 62
               4
100
AcDbLine
 10
-11.050000000000011
 20
25.902000138769878
 30
0.0
 11
-5.5500000000000114
 21
25.902000138769878
 31
0.0
  0
CIRCLE
  5
B1
100
AcDbEntity
  8
0
  6
CONTINUOUS
 62
               4
100
AcDbCircle
 10
-7.0500000000000114
 20
22.401984879980816
 30
0.0
 40
0.8499675393104553
  0
LINE
  5
B2
100
AcDbEntity
  8
0
  6
CONTINUOUS
 62
               4
100
AcDbLine
 10
-5.4499999999999886
 20
21.302000138769884
 30
0.0
 11
-4.4499999999999886
 21
21.302000138769884
 31
0.0
  0
LINE
  5
B3
100
AcDbEntity
  8
0
  6
CONTINUOUS
 62
               4
100
AcDbLine
 10
-5.4499999999999886
 20
23.302000138769884
 30
0.0
 11
-4.4499999999999886
 21
23.302000138769884
 31
0.0
  0
LINE
  5
B4
100
AcDbEntity
  8
0
  6
CONTINUOUS
 62
               4
100
AcDbLine
 10
-8.0
 20
23.552000138769884
 30
0.0
 11
-6.1000000000000227
 21
23.552000138769884
 31
0.0
  0
LINE
  5
B5
100
AcDbEntity
  8
0
  6
CONTINUOUS
 62
               4
100
AcDbLine
 10
-8.0
 20
21.452000138769861
 30
0.0
 11
-6.1000000000000227
 21
21.452000138769861
 31
0.0
  0
LINE
  5
B6
100
AcDbEntity
  8
0
  6
CONTINUOUS
 62
               4
100
AcDbLine
 10
-8.0
 20
23.352000138769867
 30
0.0
 11
-6.1000000000000227
 21
23.352000138769867
 31
0.0
  0
LINE
  5
B7
100
AcDbEntity
  8
0
  6
CONTINUOUS
 62
               4
100
AcDbLine
 10
-5.5500000000000114
 20
23.202000138769861
 30
0.0
 11
-4.5500000000000114
 21
23.202000138769861
 31
0.0
  0
LINE
  5
B8
100
AcDbEntity
  8
0
  6
CONTINUOUS
 62
               4
100
AcDbLine
 10
-5.5500000000000114
 20
21.402000138769878
 30
0.0
 11
-4.5500000000000114
 21
21.402000138769878
 31
0.0
  0
LINE
  5
B9
100
AcDbEntity
  8
0
  6
CONTINUOUS
 62
               4
100
AcDbLine
 10
-7.5500000000000114
 20
21.152000138769878
 30
0.0
 11
-6.5500000000000114
 21
21.152000138769878
 31
0.0
  0
LINE
  5
BA
100
AcDbEntity
  8
0
  6
CONTINUOUS
 62
               4
100
AcDbLine
 10
-5.5500000000000114
 20
21.402000138769878
 30
0.0
 11
-5.5500000000000114
 21
19.902000138769878
 31
0.0
  0
LINE
  5
BB
100
AcDbEntity
  8
0
  6
CONTINUOUS
 62
               4
100
AcDbLine
 10
-6.5500000000000114
 20
21.452000138769861
 30
0.0
 11
-6.5500000000000114
 21
21.152000138769878
 31
0.0
  0
LINE
  5
BC
100
AcDbEntity
  8
0
  6
CONTINUOUS
 62
               4
100
AcDbLine
 10
-5.5900000000000318
 20
23.902000138769878
 30
0.0
 11
-5.8899999999999864
 21
24.202000138769861
 31
0.0
  0
LINE
  5
BD
100
AcDbEntity
  8
0
  6
CONTINUOUS
 62
               4
100
AcDbLine
 10
-6.1000000000000227
 20
23.552000138769884
 30
0.0
 11
-6.1000000000000227
 21
21.452000138769861
 31
0.0
  0
LINE
  5
BE
100
AcDbEntity
  8
0
  6
CONTINUOUS
 62
               4
100
AcDbLine
 10
-5.4499999999999886
 20
24.802000138769884
 30
0.0
 11
-5.4499999999999886
 21
23.302000138769884
 31
0.0
  0
LINE
  5
BF
100
AcDbEntity
  8
0
  6
CONTINUOUS
 62
               4
100
AcDbLine
 10
-5.4499999999999886
 20
21.302000138769884
 30
0.0
 11
-5.4499999999999886
 21
19.802000138769884
 31
0.0
  0
LINE
  5
C0
100
AcDbEntity
  8
0
  6
CONTINUOUS
 62
               4
100
AcDbLine
 10
-4.4499999999999886
 20
23.302000138769884
 30
0.0
 11
-4.4499999999999886
 21
21.302000138769884
 31
0.0
  0
LINE
  5
C1
100
AcDbEntity
  8
0
  6
CONTINUOUS
 62
               4
100
AcDbLine
 10
-4.5500000000000114
 20
21.402000138769878
 30
0.0
 11
-4.5500000000000114
 21
23.202000138769861
 31
0.0
  0
ARC
  5
C2
100
AcDbEntity
  8
0
  6
CONTINUOUS
 62
               4
100
AcDbCircle
 10
-4.0300009155542398
 20
24.301999223215617
 30
0.0
 40
0.5000009155550945
100
AcDbArc
 50
0.0001049145970977
 51
89.999895085402713
  0
LINE
  5
C3
100
AcDbEntity
  8
0
  6
CONTINUOUS
 62
               4
100
AcDbLine
 10
-7.5500000000000114
 20
21.452000138769861
 30
0.0
 11
-7.5500000000000114
 21
21.152000138769878
 31
0.0
  0
LINE
  5
C4
100
AcDbEntity
  8
0
  6
CONTINUOUS
 62
               4
100
AcDbLine
 10
-8.0
 20
23.552000138769884
 30
0.0
 11
-8.0
 21
21.452000138769861
 31
0.0
  0
LINE
  5
C5
100
AcDbEntity
  8
0
  6
CONTINUOUS
 62
               4
100
AcDbLine
 10
-5.5500000000000114
 20
24.802000138769884
 30
0.0
 11
-3.8000000000000114
 21
24.802000138769884
 31
0.0
  0
ARC
  5
C6
100
AcDbEntity
  8
0
  6
CONTINUOUS
 62
               4
100
AcDbCircle
 10
-3.799995422477366
 20
24.302004716292501
 30
0.0
 40
0.4999954224983215
100
AcDbArc
 50
359.99947544974214
 51
90.000524550256856
  0
LINE
  5
C7
100
AcDbEntity
  8
0
  6
CONTINUOUS
 62
               4
100
AcDbLine
 10
-11.050000000000011
 20
19.902000138769878
 30
0.0
 11
-5.5500000000000114
 21
19.902000138769878
 31
0.0
  0
LINE
  5
C8
100
AcDbEntity
  8
0
  6
CONTINUOUS
 62
               4
100
AcDbLine
 10
-11.050000000000011
 20
24.902000138769878
 30
0.0
 11
-5.5500000000000114
 21
24.902000138769878
 31
0.0
  0
LINE
  5
C9
100
AcDbEntity
  8
0
  6
CONTINUOUS
 62
               4
100
AcDbLine
 10
-11.019999999999982
 20
23.902000138769878
 30
0.0
 11
-5.5900000000000318
 21
23.902000138769878
 31
0.0
  0
LINE
  5
CA
100
AcDbEntity
  8
0
  6
CONTINUOUS
 62
               4
100
AcDbLine
 10
-10.720000000000027
 20
24.202000138769861
 30
0.0
 11
-5.8899999999999864
 21
24.202000138769861
 31
0.0
  0
LINE
  5
CB
100
AcDbEntity
  8
0
  6
CONTINUOUS
 62
               4
100
AcDbLine
 10
-11.149999999999977
 20
19.802000138769884
 30
0.0
 11
-5.4499999999999886
 21
19.802000138769884
 31
0.0
  0
LINE
  5
CC
100
AcDbEntity
  8
0
  6
CONTINUOUS
 62
               4
100
AcDbLine
 10
-5.5500000000000114
 20
26.902000138769878
 30
0.0
 11
-5.5500000000000114
 21
23.202000138769861
 31
0.0
  0
ARC
  5
CD
100
AcDbEntity
  8
0
  6
CONTINUOUS
 62
               4
100
AcDbCircle
 10
-5.8970880052370376
 20
27.201088144006889
 30
0.0
 40
0.5989129830170392
100
AcDbArc
 50
89.895914524772735
 51
180.10408547522667
  0
ARC
  5
CE
100
AcDbEntity
  8
0
  6
CONTINUOUS
 62
               4
100
AcDbCircle
 10
-4.0959048533417786
 20
27.200095285428034
 30
0.0
 40
0.5999048608870732
100
AcDbArc
 50
359.99091272245295
 51
90.009087277546172
  0
LINE
  5
CF
100
AcDbEntity
  8
0
  6
CONTINUOUS
 62
               4
100
AcDbLine
 10
-3.3000000000000114
 20
27.200000138769866
 30
0.0
 11
-6.5
 21
27.200000138769866
 31
0.0
  0
ARC
  5
D0
100
AcDbEntity
  8
0
  6
CONTINUOUS
 62
               4
100
AcDbCircle
 10
-12.800000000000011
 20
27.200000138769866
 30
0.0
 40
0.5
100
AcDbArc
 50
89.999999999999815
 51
179.99999999999963
  0
LINE
  5
D1
100
AcDbEntity
  8
0
  6
CONTINUOUS
 62
               4
100
AcDbLine
 10
-6.5
 20
27.700000138769866
 30
0.0
 11
-6.5
 21
26.902000138769878
 31
0.0
  0
LINE
  5
D2
100
AcDbEntity
  8
0
  6
CONTINUOUS
 62
               4
100
AcDbLine
 10
-6.5
 20
27.700000138769866
 30
0.0
 11
-12.800000000000011
 21
27.700000138769866
 31
0.0
  0
LINE
  5
D3
100
AcDbEntity
  8
0
  6
CONTINUOUS
 62
               4
100
AcDbLine
 10
-3.3000000000000114
 20
26.200000138769866
 30
0.0
 11
-5.5500000000000114
 21
26.200000138769866
 31
0.0
  0
LINE
  5
D4
100
AcDbEntity
  8
0
  6
CONTINUOUS
 62
               4
100
AcDbLine
 10
-3.3000000000000114
 20
27.800000138769889
 30
0.0
 11
-13.300000000000011
 21
27.800000138769889
 31
0.0
  0
LINE
  5
D5
100
AcDbEntity
  8
0
  6
CONTINUOUS
 62
               4
100
AcDbLine
 10
-3.3000000000000114
 20
27.800000138769889
 30
0.0
 11
-3.3000000000000114
 21
5.3000001387698603
 31
0.0
  0
LINE
  5
D6
100
AcDbEntity
  8
0
  6
CONTINUOUS
 62
               4
100
AcDbLine
 10
-13.300000000000011
 20
27.800000138769889
 30
0.0
 11
-13.300000000000011
 21
5.3000001387698603
 31
0.0
  0
LINE
  5
D7
100
AcDbEntity
  8
0
  6
CONTINUOUS
 62
               4
100
AcDbLine
 10
-3.5300000000000296
 20
24.302000138769884
 30
0.0
 11
-3.5300000000000296
 21
7.9979914671183963
 31
0.0
  0
LINE
  5
D8
100
AcDbEntity
  8
0
  6
CONTINUOUS
 62
               4
100
AcDbLine
 10
-13.069999999999993
 20
24.302000138769884
 30
0.0
 11
-13.069999999999993
 21
7.9979914671183963
 31
0.0
  0
LINE
  5
D9
100
AcDbEntity
  8
0
  6
CONTINUOUS
 62
               7
100
AcDbLine
 10
-14.300000000000011
 20
2.7000000000000028
 30
0.0
 11
-13.300000000000011
 21
2.7000000000000028
 31
0.0
  0
LINE
  5
DA
100
AcDbEntity
  8
0
  6
CONTINUOUS
 62
               7
100
AcDbLine
 10
-14.300000000000011
 20
-32.243953424198374
 30
0.0
 11
-14.300000000000011
 21
2.7000000000000028
 31
0.0
  0
LINE
  5
DB
100
AcDbEntity
  8
0
  6
CONTINUOUS
 62
               7
100
AcDbLine
 10
-3.3000000000000114
 20
-23.898002861230125
 30
0.0
 11
-3.3000000000000114
 21
-20.348331338584927
 31
0.0
  0
LINE
  5
DC
100
AcDbEntity
  8
0
  6
CONTINUOUS
 62
               7
100
AcDbLine
 10
-13.300000000000011
 20
-23.898002861230125
 30
0.0
 11
-13.300000000000011
 21
-10.748331338584975
 31
0.0
  0
ARC
  5
DD
100
AcDbEntity
  8
0
  6
CONTINUOUS
 62
               7
100
AcDbCircle
 10
-12.0
 20
-9.9999998612301653
 30
0.0
 40
1.6000000000000001
100
AcDbArc
 50
269.99999999999937
 51
89.999999999999801
  0
ARC
  5
DE
100
AcDbEntity
  8
0
  6
CONTINUOUS
 62
               7
100
AcDbCircle
 10
-4.6000000000000227
 20
-19.599999861230131
 30
0.0
 40
1.6000000000000001
100
AcDbArc
 50
89.999999999999815
 51
269.99999999999937
  0
LINE
  5
DF
100
AcDbEntity
  8
0
  6
CONTINUOUS
 62
               7
100
AcDbLine
 10
-12.0
 20
-11.59999986123016
 30
0.0
 11
-13.300000000000011
 21
-11.59999986123016
 31
0.0
  0
LINE
  5
E0
100
AcDbEntity
  8
0
  6
CONTINUOUS
 62
               7
100
AcDbLine
 10
-12.0
 20
-8.3999998612301567
 30
0.0
 11
-13.300000000000011
 21
-8.3999998612301567
 31
0.0
  0
LINE
  5
E1
100
AcDbEntity
  8
0
  6
CONTINUOUS
 62
               7
100
AcDbLine
 10
-4.6000000000000227
 20
-21.199999861230125
 30
0.0
 11
-3.3000000000000114
 21
-21.199999861230125
 31
0.0
  0
LINE
  5
E2
100
AcDbEntity
  8
0
  6
CONTINUOUS
 62
               7
100
AcDbLine
 10
-4.6000000000000227
 20
-17.999999861230137
 30
0.0
 11
-3.3000000000000114
 21
-17.999999861230137
 31
0.0
  0
CIRCLE
  5
E3
100
AcDbEntity
  8
0
  6
CONTINUOUS
 62
               7
100
AcDbCircle
 10
-8.3000000000000114
 20
3.0000001387698774
 30
0.0
 40
0.75
  0
CIRCLE
  5
E4
100
AcDbEntity
  8
0
  6
CONTINUOUS
 62
               7
100
AcDbCircle
 10
-8.3000000000000114
 20
3.0000001387698774
 30
0.0
 40
1.1000000000000001
  0
CIRCLE
  5
E5
100
AcDbEntity
  8
0
  6
CONTINUOUS
 62
               7
100
AcDbCircle
 10
-8.3000000000000114
 20
3.0000001387698774
 30
0.0
 40
1.1500000000000001
  0
CIRCLE
  5
E6
100
AcDbEntity
  8
0
  6
CONTINUOUS
 62
               7
100
AcDbCircle
 10
-8.3000000000000114
 20
3.0000001387698774
 30
0.0
 40
1.3000000000000012
  0
LINE
  5
E7
100
AcDbEntity
  8
0
  6
CENTER
 62
               2
100
AcDbLine
 10
-6.6000000000000227
 20
3.0000001387698774
 30
0.0
 11
-10.0
 21
3.0000001387698774
 31
0.0
  0
ARC
  5
E8
100
AcDbEntity
  8
0
  6
CONTINUOUS
 62
               7
100
AcDbCircle
 10
-8.3000000000000114
 20
1.3000001387698603
 30
0.0
 40
2.0
100
AcDbArc
 50
179.99999999999963
 51
0.0
  0
LINE
  5
E9
100
AcDbEntity
  8
0
  6
CONTINUOUS
 62
               7
100
AcDbLine
 10
-6.3000000000000114
 20
1.3000001387698603
 30
0.0
 11
-6.3000000000000114
 21
5.3000001387698603
 31
0.0
  0
LINE
  5
EA
100
AcDbEntity
  8
0
  6
CONTINUOUS
 62
               7
100
AcDbLine
 10
-10.300000000000011
 20
1.3000001387698603
 30
0.0
 11
-10.300000000000011
 21
5.3000001387698603
 31
0.0
  0
LINE
  5
EB
100
AcDbEntity
  8
0
  6
CONTINUOUS
 62
               7
100
AcDbLine
 10
-3.3000000000000114
 20
-5.6999998612301397
 30
0.0
 11
-3.3000000000000114
 21
5.3000001387698603
 31
0.0
  0
LINE
  5
EC
100
AcDbEntity
  8
0
  6
CONTINUOUS
 62
               7
100
AcDbLine
 10
-13.300000000000011
 20
-5.6999998612301397
 30
0.0
 11
-13.300000000000011
 21
5.3000001387698603
 31
0.0
  0
LINE
  5
ED
100
AcDbEntity
  8
0
  6
CONTINUOUS
 62
               4
100
AcDbLine
 10
-3.3000000000000114
 20
5.3000001387698603
 30
0.0
 11
-13.300000000000011
 21
5.3000001387698603
 31
0.0
  0
CIRCLE
  5
EE
100
AcDbEntity
  8
0
  6
CONTINUOUS
 62
               7
100
AcDbCircle
 10
0.0000183105468636
 20
-29.599993896484378
 30
0.0
 40
1.5499992370605469
  0
CIRCLE
  5
EF
100
AcDbEntity
  8
0
  6
CONTINUOUS
 62
               7
100
AcDbCircle
 10
0.0000183105468636
 20
-0.0000030517578153
 30
0.0
 40
1.5499992370605469
  0
LINE
  5
F0
100
AcDbEntity
  8
0
  6
CENTER
 62
               2
100
AcDbLine
 10
-2.5
 20
-29.599999999999994
 30
0.0
 11
2.5
 21
-29.599999999999994
 31
0.0
  0
LINE
  5
F1
100
AcDbEntity
  8
0
  6
CENTER
 62
               2
100
AcDbLine
 10
-2.5
 20
0.0
 30
0.0
 11
2.5
 21
0.0
 31
0.0
  0
LINE
  5
F2
100
AcDbEntity
  8
0
  6
CENTER
 62
               2
100
AcDbLine
 10
0.0
 20
-27.099999999999994
 30
0.0
 11
0.0
 21
-32.099999999999994
 31
0.0
  0
LINE
  5
F3
100
AcDbEntity
  8
0
  6
CENTER
 62
               2
100
AcDbLine
 10
0.0
 20
2.5
 30
0.0
 11
0.0
 21
-2.5
 31
0.0
  0
LINE
  5
F4
100
AcDbEntity
  8
0
  6
CONTINUOUS
 62
               7
100
AcDbLine
 10
-3.3000000000000114
 20
2.7000000000000028
 30
0.0
 11
2.6999999999999886
 21
2.7000000000000028
 31
0.0
  0
LINE
  5
F5
100
AcDbEntity
  8
0
  6
CONTINUOUS
 62
               7
100
AcDbLine
 10
2.6999999999999886
 20
2.7000000000000028
 30
0.0
 11
2.6999999999999886
 21
-32.299999999999997
 31
0.0
  0
LINE
  5
F6
100
AcDbEntity
  8
0
  6
CONTINUOUS
 62
               7
100
AcDbLine
 10
-14.300000000000011
 20
-32.299999999999997
 30
0.0
 11
-13.300000000000011
 21
-32.299999999999997
 31
0.0
  0
LINE
  5
F7
100
AcDbEntity
  8
0
  6
CENTER
 62
               2
100
AcDbLine
 10
-8.3000000000000114
 20
-59.248849103416049
 30
0.0
 11
-8.3000000000000114
 21
29.646852242186142
 31
0.0
  0
CIRCLE
  5
F8
100
AcDbEntity
  8
0
  6
CONTINUOUS
 62
               7
100
AcDbCircle
 10
-12.0
 20
-9.9999998612301937
 30
0.0
 40
1.5
  0
LINE
  5
F9
100
AcDbEntity
  8
0
  6
CONTINUOUS
 62
               7
100
AcDbLine
 10
-11.292893218813504
 20
-10.708105211801538
 30
0.0
 11
-12.707106781186553
 21
-9.2938916494284314
 31
0.0
  0
LINE
  5
FA
100
AcDbEntity
  8
0
  6
CONTINUOUS
 62
               7
100
AcDbLine
 10
-12.707106781186553
 20
-10.708105211801538
 30
0.0
 11
-11.292893218813447
 21
-9.2938916494284314
 31
0.0
  0
CIRCLE
  5
FB
100
AcDbEntity
  8
0
  6
CONTINUOUS
 62
               7
100
AcDbCircle
 10
-4.6000000000000227
 20
-19.599999861230188
 30
0.0
 40
1.5
  0
LINE
  5
FC
100
AcDbEntity
  8
0
  6
CONTINUOUS
 62
               7
100
AcDbLine
 10
-3.8928932188135263
 20
-20.308105211801532
 30
0.0
 11
-5.307106781186576
 21
-18.893891649428426
 31
0.0
  0
LINE
  5
FD
100
AcDbEntity
  8
0
  6
CONTINUOUS
 62
               7
100
AcDbLine
 10
-5.307106781186576
 20
-20.308105211801532
 30
0.0
 11
-3.8928932188134695
 21
-18.893891649428426
 31
0.0
  0
LINE
  5
FE
100
AcDbEntity
  8
0
  6
CONTINUOUS
 62
               7
100
AcDbLine
 10
-3.3000000000000114
 20
-18.851668383875435
 30
0.0
 11
-3.3000000000000114
 21
-5.6999998612301397
 31
0.0
  0
LINE
  5
FF
100
AcDbEntity
  8
0
  6
CONTINUOUS
 62
               7
100
AcDbLine
 10
-13.300000000000011
 20
-9.2516683838753977
 30
0.0
 11
-13.300000000000011
 21
-5.6999998607356588
 31
0.0
  0
ARC
  5
100
100
AcDbEntity
  8
0
  6
CONTINUOUS
 62
               7
100
AcDbCircle
 10
-8.3000000000000114
 20
1.3000001387698603
 30
0.0
 40
3.0959985693848324
100
AcDbArc
 50
179.99999999999963
 51
0.0
  0
LINE
  5
101
100
AcDbEntity
  8
0
  6
CONTINUOUS
 62
               7
100
AcDbLine
 10
-5.2040014306151647
 20
1.3000001387698603
 30
0.0
 11
-5.2040014306151647
 21
5.3000001387698603
 31
0.0
  0
LINE
  5
102
100
AcDbEntity
  8
0
  6
CONTINUOUS
 62
               7
100
AcDbLine
 10
-11.395998569384801
 20
1.3000001387698603
 30
0.0
 11
-11.395998569384801
 21
5.3000001387698603
 31
0.0
  0
LINE
  5
103
100
AcDbEntity
  8
0
  6
CONTINUOUS
 62
               7
100
AcDbLine
 10
-3.3000000000000114
 20
-5.6999998612301397
 30
0.0
 11
-13.300000000000011
 21
-5.6999998612301397
 31
0.0
  0
LINE
  5
104
100
AcDbEntity
  8
0
  6
CONTINUOUS
 62
               7
100
AcDbLine
 10
-13.300000000000011
 20
-23.899999999999764
 30
0.0
 11
-3.3000000000000114
 21
-23.899999999999764
 31
0.0
  0
ENDBLK
  5
105
100
AcDbEntity
  8
0
100
AcDbBlockEnd
  0
BLOCK
  5
106
100
AcDbEntity
  8
0
100
AcDbBlockBegin
  2
EA10A6-2
 70
               0
 10
0.0
 20
0.0
 30
0.0
  3
EA10A6-2
  1

  0
LINE
  5
107
100
AcDbEntity
  8
0
  6
CONTINUOUS
 62
               7
100
AcDbLine
 10
32.100000013518127
 20
-0.7000000000000028
 30
0.0
 11
32.100000013518127
 21
5.2999999999999261
 31
0.0
  0
LINE
  5
108
100
AcDbEntity
  8
0
  6
CONTINUOUS
 62
               7
100
AcDbLine
 10
15.999999971426575
 20
-30.100006103515625
 30
0.0
 11
17.000000013518104
 21
-30.100006103515625
 31
0.0
  0
LINE
  5
109
100
AcDbEntity
  8
0
  6
CONTINUOUS
 62
               7
100
AcDbLine
 10
15.999999971426575
 20
0.4999938964843835
 30
0.0
 11
17.000000013518104
 21
0.4999938964843835
 31
0.0
  0
LINE
  5
10A
100
AcDbEntity
  8
0
  6
CENTER
 62
               2
100
AcDbLine
 10
-2.0
 20
-29.599999999999994
 30
0.0
 11
2.0
 21
-29.599999999999994
 31
0.0
  0
LINE
  5
10B
100
AcDbEntity
  8
0
  6
CENTER
 62
               2
100
AcDbLine
 10
-2.0
 20
0.0
 30
0.0
 11
2.0
 21
0.0
 31
0.0
  0
ARC
  5
10C
100
AcDbEntity
  8
0
  6
CONTINUOUS
 62
               4
100
AcDbCircle
 10
33.886980727563071
 20
-35.399995453570924
 30
0.0
 40
0.5
100
AcDbArc
 50
64.968979182780728
 51
90.244336397298795
  0
ARC
  5
10D
100
AcDbEntity
  8
0
  6
CONTINUOUS
 62
               4
100
AcDbCircle
 10
33.886980727563071
 20
5.7999954535709293
 30
0.0
 40
0.5
100
AcDbArc
 50
269.75566360288281
 51
295.03102081721846
  0
ARC
  5
10E
100
AcDbEntity
  8
0
  6
CONTINUOUS
 62
               4
100
AcDbCircle
 10
28.398911827245115
 20
-56.791088005236929
 30
0.0
 40
0.5989129830170392
100
AcDbArc
 50
179.89591452477256
 51
270.1040854752265
  0
LINE
  5
10F
100
AcDbEntity
  8
0
  6
CONTINUOUS
 62
               4
100
AcDbLine
 10
27.299999832482229
 20
-56.789999999999921
 30
0.0
 11
27.299999832482229
 21
-57.389999999999944
 31
0.0
  0
ARC
  5
110
100
AcDbEntity
  8
0
  6
CONTINUOUS
 62
               4
100
AcDbCircle
 10
19.601088172754828
 20
27.201088005236926
 30
0.0
 40
0.5989129830170392
100
AcDbArc
 50
359.89591452477299
 51
90.104085475226924
  0
LINE
  5
111
100
AcDbEntity
  8
0
  6
CONTINUOUS
 62
               4
100
AcDbLine
 10
20.700000167517771
 20
27.199999999999918
 30
0.0
 11
20.700000167517771
 21
27.79999999999994
 31
0.0
  0
LINE
  5
112
100
AcDbEntity
  8
0
  6
CONTINUOUS
 62
               7
100
AcDbLine
 10
31.000000013518161
 20
-27.804999999999978
 30
0.0
 11
32.100000013518127
 21
-28.899999999999991
 31
0.0
  0
LINE
  5
113
100
AcDbEntity
  8
0
  6
CONTINUOUS
 62
               4
100
AcDbLine
 10
54.495959596051193
 20
-51.254545445200293
 30
0.0
 11
54.495959596051136
 21
-52.555555545466987
 31
0.0
  0
LINE
  5
114
100
AcDbEntity
  8
0
  6
CONTINUOUS
 62
               7
100
AcDbLine
 10
32.548000013518106
 20
-33.700000000000031
 30
0.0
 11
32.100000013518127
 21
-33.700000000000017
 31
0.0
  0
ARC
  5
115
100
AcDbEntity
  8
0
  6
CONTINUOUS
 62
               4
100
AcDbCircle
 10
17.799904960869071
 20
-56.800095146648331
 30
0.0
 40
0.599904800896587
100
AcDbArc
 50
236.24741787039247
 51
270.00908727754478
  0
ARC
  5
116
100
AcDbEntity
  8
0
  6
CONTINUOUS
 62
               4
100
AcDbCircle
 10
30.201087932646033
 20
-56.801088005128136
 30
0.0
 40
0.598912923125741
100
AcDbArc
 50
269.89591452477129
 51
0.1040854752260523
  0
LINE
  5
117
100
AcDbEntity
  8
0
  6
CONTINUOUS
 62
               4
100
AcDbLine
 10
27.299999832482229
 20
-56.799999999999805
 30
0.0
 11
31.000000013517763
 21
-56.799999999999883
 31
0.0
  0
ARC
  5
118
100
AcDbEntity
  8
0
  6
CONTINUOUS
 62
               4
100
AcDbCircle
 10
30.50000001351782
 20
-56.799999999999883
 30
0.0
 40
0.5
100
AcDbArc
 50
273.91958589964941
 51
359.99999999999818
  0
LINE
  5
119
100
AcDbEntity
  8
0
  6
CONTINUOUS
 62
               4
100
AcDbLine
 10
17.800000107517747
 20
-57.399999999999679
 30
0.0
 11
30.199999927517752
 21
-57.399999999999906
 31
0.0
  0
LINE
  5
11A
100
AcDbEntity
  8
0
  6
CONTINUOUS
 62
               4
100
AcDbLine
 10
31.000000013517763
 20
-56.799999999999883
 30
0.0
 11
31.000000013518161
 21
-34.899999999999906
 31
0.0
  0
ARC
  5
11B
100
AcDbEntity
  8
0
  6
CONTINUOUS
 62
               4
100
AcDbCircle
 10
17.500000021517792
 20
-56.799999999999628
 30
0.0
 40
0.5
100
AcDbArc
 50
179.99999999999858
 51
269.99999999999835
  0
LINE
  5
11C
100
AcDbEntity
  8
0
  6
CONTINUOUS
 62
               4
100
AcDbLine
 10
17.500000021517792
 20
-57.299999999999685
 30
0.0
 11
19.000000017517721
 21
-57.299999999999685
 31
0.0
  0
LINE
  5
11D
100
AcDbEntity
  8
0
  6
CONTINUOUS
 62
               4
100
AcDbLine
 10
19.000000017517721
 20
-57.399999999999679
 30
0.0
 11
19.000000017517777
 21
-55.799999999999628
 31
0.0
  0
LINE
  5
11E
100
AcDbEntity
  8
0
  6
CONTINUOUS
 62
               4
100
AcDbLine
 10
19.000000017517777
 20
-55.799999999999628
 30
0.0
 11
31.000000013517763
 21
-55.799999999999855
 31
0.0
  0
LINE
  5
11F
100
AcDbEntity
  8
0
  6
CONTINUOUS
 62
               4
100
AcDbLine
 10
17.00000002151819
 20
-34.89999999999965
 30
0.0
 11
17.000000021517792
 21
-56.799999999999628
 31
0.0
  0
LINE
  5
120
100
AcDbEntity
  8
0
  6
CONTINUOUS
 62
             200
100
AcDbLine
 10
50.670707072984499
 20
-53.404040393466929
 30
0.0
 11
52.403030304317952
 21
-50.406060597200266
 31
0.0
  0
ARC
  5
121
100
AcDbEntity
  8
0
  6
CONTINUOUS
 62
               4
100
AcDbCircle
 10
39.400834052872199
 20
-53.906894639354405
 30
0.0
 40
0.403865208170398
100
AcDbArc
 50
90.118324735512417
 51
179.88167526448353
  0
ARC
  5
122
100
AcDbEntity
  8
0
  6
CONTINUOUS
 62
               4
100
AcDbCircle
 10
39.399895939896908
 20
-53.905327231604574
 30
0.0
 40
0.4029269013737999
100
AcDbArc
 50
180.10428358574771
 51
259.90822844260225
  0
ARC
  5
123
100
AcDbEntity
  8
0
  6
CONTINUOUS
 62
               4
100
AcDbCircle
 10
37.999912527654999
 20
-54.005034325092666
 30
0.0
 40
0.4950149226876426
100
AcDbArc
 50
269.19169587541967
 51
306.87687525883342
  0
ARC
  5
124
100
AcDbEntity
  8
0
  6
CONTINUOUS
 62
               4
100
AcDbCircle
 10
31.29943130523526
 20
-55.204584129418592
 30
0.0
 40
0.2994663800970315
100
AcDbArc
 50
179.12289923249233
 51
269.52902697153382
  0
ARC
  5
125
100
AcDbEntity
  8
0
  6
CONTINUOUS
 62
               4
100
AcDbCircle
 10
38.500332854439137
 20
-53.904373238388061
 30
0.0
 40
0.4966660273328702
100
AcDbArc
 50
269.37896036356449
 51
0.6210396364351734
  0
ARC
  5
126
100
AcDbEntity
  8
0
  6
CONTINUOUS
 62
               4
100
AcDbCircle
 10
38.497257383074896
 20
-37.552522460539237
 30
0.0
 40
0.4997133381008656
100
AcDbArc
 50
0.1154955796418579
 51
65.173784690189237
  0
LINE
  5
127
100
AcDbEntity
  8
0
  6
CONTINUOUS
 62
               4
100
AcDbLine
 10
33.884848496718121
 20
-34.899999999999963
 30
0.0
 11
33.88484849671778
 21
-54.401010089866659
 31
0.0
  0
LINE
  5
128
100
AcDbEntity
  8
0
  6
CONTINUOUS
 62
               4
100
AcDbLine
 10
45.996969701917862
 20
-49.402020193733463
 30
0.0
 11
46.993939398317877
 21
-49.402020193733463
 31
0.0
  0
LINE
  5
129
100
AcDbEntity
  8
0
  6
CONTINUOUS
 62
               4
100
AcDbLine
 10
38.996969705917934
 20
-49.40202019373335
 30
0.0
 11
40.997979805784553
 21
-49.40202019373335
 31
0.0
  0
LINE
  5
12A
100
AcDbEntity
  8
0
  6
CONTINUOUS
 62
               4
100
AcDbLine
 10
46.993939398317877
 20
-50.99999999080022
 30
0.0
 11
38.996969705917934
 21
-50.999999990800077
 31
0.0
  0
LINE
  5
12B
100
AcDbEntity
  8
0
  6
CONTINUOUS
 62
               4
100
AcDbLine
 10
46.993939398317877
 20
-52.803030292800216
 30
0.0
 11
38.996969705917877
 21
-52.803030292800102
 31
0.0
  0
LINE
  5
12C
100
AcDbEntity
  8
0
  6
CONTINUOUS
 62
               4
100
AcDbLine
 10
46.993939398317821
 20
-53.503030292400197
 30
0.0
 11
39.400000008717882
 21
-53.503030292400055
 31
0.0
  0
LINE
  5
12D
100
AcDbEntity
  8
0
  6
CONTINUOUS
 62
               4
100
AcDbLine
 10
46.696969701517844
 20
-53.799999989200174
 30
0.0
 11
40.792929300851142
 21
-53.79999998920006
 31
0.0
  0
LINE
  5
12E
100
AcDbEntity
  8
0
  6
CONTINUOUS
 62
               4
100
AcDbLine
 10
46.993939398317764
 20
-55.405050493333491
 30
0.0
 11
45.586868692051098
 21
-55.405050493333491
 31
0.0
  0
LINE
  5
12F
100
AcDbEntity
  8
0
  6
CONTINUOUS
 62
               4
100
AcDbLine
 10
46.993939398317764
 20
-56.402020189733562
 30
0.0
 11
45.494949500184475
 21
-56.402020189733562
 31
0.0
  0
LINE
  5
130
100
AcDbEntity
  8
0
  6
CONTINUOUS
 62
               4
100
AcDbLine
 10
50.81212121431787
 20
-52.555555545466902
 30
0.0
 11
46.993939398317877
 21
-52.555555545466845
 31
0.0
  0
LINE
  5
131
100
AcDbEntity
  8
0
  6
CONTINUOUS
 62
             200
100
AcDbLine
 10
50.324242426717831
 20
-53.404040393466872
 30
0.0
 11
52.056565658051227
 21
-50.398989890133649
 31
0.0
  0
LINE
  5
132
100
AcDbEntity
  8
0
  6
CONTINUOUS
 62
               4
100
AcDbLine
 10
51.561616163384485
 20
-51.254545445200236
 30
0.0
 11
46.993939398317877
 21
-51.254545445200122
 31
0.0
  0
LINE
  5
133
100
AcDbEntity
  8
0
  6
CONTINUOUS
 62
               4
100
AcDbLine
 10
32.293939406717811
 20
-54.401010089866659
 30
0.0
 11
32.293939406717811
 21
-54.499999988799928
 31
0.0
  0
LINE
  5
134
100
AcDbEntity
  8
0
  6
CONTINUOUS
 62
               4
100
AcDbLine
 10
40.389898998051137
 20
-55.504040392266816
 30
0.0
 11
31.296969710317796
 21
-55.504040392266646
 31
0.0
  0
LINE
  5
135
100
AcDbEntity
  8
0
  6
CONTINUOUS
 62
               4
100
AcDbLine
 10
40.495959604051166
 20
-53.503030292400084
 30
0.0
 11
40.792929300851142
 21
-53.79999998920006
 31
0.0
  0
LINE
  5
136
100
AcDbEntity
  8
0
  6
CONTINUOUS
 62
               4
100
AcDbLine
 10
40.997979805784553
 20
-49.40202019373335
 30
0.0
 11
40.997979805784496
 21
-50.003030294400119
 31
0.0
  0
LINE
  5
137
100
AcDbEntity
  8
0
  6
CONTINUOUS
 62
               4
100
AcDbLine
 10
45.996969701917862
 20
-50.003030294400176
 30
0.0
 11
40.997979805784496
 21
-50.003030294400119
 31
0.0
  0
LINE
  5
138
100
AcDbEntity
  8
0
  6
CONTINUOUS
 62
               4
100
AcDbLine
 10
45.996969701917862
 20
-49.402020193733463
 30
0.0
 11
45.996969701917862
 21
-50.003030294400176
 31
0.0
  0
LINE
  5
139
100
AcDbEntity
  8
0
  6
CONTINUOUS
 62
               4
100
AcDbLine
 10
46.993939398317821
 20
-53.503030292400197
 30
0.0
 11
46.696969701517844
 21
-53.799999989200174
 31
0.0
  0
LINE
  5
13A
100
AcDbEntity
  8
0
  6
CONTINUOUS
 62
               4
100
AcDbLine
 10
37.992929302451159
 20
-54.499999988800042
 30
0.0
 11
32.293939406717811
 21
-54.499999988799928
 31
0.0
  0
LINE
  5
13B
100
AcDbEntity
  8
0
  6
CONTINUOUS
 62
               4
100
AcDbLine
 10
39.329292938051196
 20
-54.302020190933334
 30
0.0
 11
45.671717176851132
 21
-55.419191907466839
 31
0.0
  0
LINE
  5
13C
100
AcDbEntity
  8
0
  6
CONTINUOUS
 62
               4
100
AcDbLine
 10
46.993939398317764
 20
-55.405050493333491
 30
0.0
 11
46.993939398317764
 21
-56.402020189733562
 31
0.0
  0
LINE
  5
13D
100
AcDbEntity
  8
0
  6
CONTINUOUS
 62
               4
100
AcDbLine
 10
40.389898998051137
 20
-55.504040392266816
 30
0.0
 11
45.494949500184475
 21
-56.402020189733562
 31
0.0
  0
LINE
  5
13E
100
AcDbEntity
  8
0
  6
CONTINUOUS
 62
               4
100
AcDbLine
 10
46.993939398317877
 20
-49.402020193733463
 30
0.0
 11
46.993939398317821
 21
-53.503030292400197
 31
0.0
  0
LINE
  5
13F
100
AcDbEntity
  8
0
  6
CONTINUOUS
 62
               4
100
AcDbLine
 10
34.098535171946082
 20
-34.946956032480657
 30
0.0
 11
38.707070716184774
 21
-37.098989897733375
 31
0.0
  0
LINE
  5
140
100
AcDbEntity
  8
0
  6
CONTINUOUS
 62
               4
100
AcDbLine
 10
38.99696970591782
 20
-53.898989888133386
 30
0.0
 11
38.996969705918161
 21
-37.551515150000128
 31
0.0
  0
LINE
  5
141
100
AcDbEntity
  8
0
  6
CONTINUOUS
 62
               4
100
AcDbLine
 10
31.00000001351782
 20
-54.401010089866602
 30
0.0
 11
38.49494950418449
 21
-54.401010089866773
 31
0.0
  0
LINE
  5
142
100
AcDbEntity
  8
0
  6
CONTINUOUS
 62
               4
100
AcDbLine
 10
17.00000002151819
 20
-34.89999999999965
 30
0.0
 11
33.884848496718121
 21
-34.899999999999963
 31
0.0
  0
LINE
  5
143
100
AcDbEntity
  8
0
  6
CONTINUOUS
 62
               4
100
AcDbLine
 10
54.495959596051136
 20
-52.555555545466987
 30
0.0
 11
51.158585860584537
 21
-52.55555554546693
 31
0.0
  0
LINE
  5
144
100
AcDbEntity
  8
0
  6
CONTINUOUS
 62
               4
100
AcDbLine
 10
54.495959596051193
 20
-51.254545445200293
 30
0.0
 11
51.90808080965121
 21
-51.254545445200236
 31
0.0
  0
LINE
  5
145
100
AcDbEntity
  8
0
  6
CONTINUOUS
 62
               7
100
AcDbLine
 10
32.100000013518127
 20
-28.899999999999991
 30
0.0
 11
32.100000013518127
 21
-34.89999999999992
 31
0.0
  0
LINE
  5
146
100
AcDbEntity
  8
0
  6
CONTINUOUS
 62
               7
100
AcDbLine
 10
32.548000013518106
 20
-31.499999999999986
 30
0.0
 11
32.548000013518106
 21
-33.700000000000031
 31
0.0
  0
LINE
  5
147
100
AcDbEntity
  8
0
  6
CONTINUOUS
 62
               7
100
AcDbLine
 10
31.000000013518161
 20
-34.89999999999992
 30
0.0
 11
31.000000013518161
 21
-23.904999999999987
 31
0.0
  0
LINE
  5
148
100
AcDbEntity
  8
0
  6
CONTINUOUS
 62
               4
100
AcDbLine
 10
54.495959596051136
 20
22.955555545466993
 30
0.0
 11
51.158585860584537
 21
22.955555545466936
 31
0.0
  0
LINE
  5
149
100
AcDbEntity
  8
0
  6
CONTINUOUS
 62
               4
100
AcDbLine
 10
54.495959596051193
 20
21.654545445200299
 30
0.0
 11
51.90808080965121
 21
21.654545445200242
 31
0.0
  0
LINE
  5
14A
100
AcDbEntity
  8
0
  6
CONTINUOUS
 62
               4
100
AcDbLine
 10
17.00000002151819
 20
5.2999999999996561
 30
0.0
 11
33.884848496718121
 21
5.2999999999999687
 31
0.0
  0
LINE
  5
14B
100
AcDbEntity
  8
0
  6
CONTINUOUS
 62
               4
100
AcDbLine
 10
31.00000001351782
 20
24.801010089866608
 30
0.0
 11
38.49494950418449
 21
24.801010089866779
 31
0.0
  0
LINE
  5
14C
100
AcDbEntity
  8
0
  6
CONTINUOUS
 62
               4
100
AcDbLine
 10
38.99696970591782
 20
24.298989888133391
 30
0.0
 11
38.996969705918161
 21
7.9515151500001338
 31
0.0
  0
LINE
  5
14D
100
AcDbEntity
  8
0
  6
CONTINUOUS
 62
               4
100
AcDbLine
 10
34.098535171946082
 20
5.3469560324806622
 30
0.0
 11
38.707070716184774
 21
7.4989898977333809
 31
0.0
  0
LINE
  5
14E
100
AcDbEntity
  8
0
  6
CONTINUOUS
 62
               4
100
AcDbLine
 10
46.993939398317877
 20
19.802020193733469
 30
0.0
 11
46.993939398317821
 21
23.903030292400203
 31
0.0
  0
LINE
  5
14F
100
AcDbEntity
  8
0
  6
CONTINUOUS
 62
               4
100
AcDbLine
 10
40.389898998051137
 20
25.904040392266822
 30
0.0
 11
45.494949500184475
 21
26.802020189733568
 31
0.0
  0
LINE
  5
150
100
AcDbEntity
  8
0
  6
CONTINUOUS
 62
               4
100
AcDbLine
 10
46.993939398317764
 20
25.805050493333496
 30
0.0
 11
46.993939398317764
 21
26.802020189733568
 31
0.0
  0
LINE
  5
151
100
AcDbEntity
  8
0
  6
CONTINUOUS
 62
               4
100
AcDbLine
 10
39.329292938051196
 20
24.702020190933339
 30
0.0
 11
45.671717176851132
 21
25.819191907466845
 31
0.0
  0
LINE
  5
152
100
AcDbEntity
  8
0
  6
CONTINUOUS
 62
               4
100
AcDbLine
 10
37.992929302451159
 20
24.899999988800047
 30
0.0
 11
32.293939406717811
 21
24.899999988799934
 31
0.0
  0
LINE
  5
153
100
AcDbEntity
  8
0
  6
CONTINUOUS
 62
               4
100
AcDbLine
 10
46.993939398317821
 20
23.903030292400203
 30
0.0
 11
46.696969701517844
 21
24.19999998920018
 31
0.0
  0
LINE
  5
154
100
AcDbEntity
  8
0
  6
CONTINUOUS
 62
               4
100
AcDbLine
 10
45.996969701917862
 20
19.802020193733469
 30
0.0
 11
45.996969701917862
 21
20.403030294400182
 31
0.0
  0
LINE
  5
155
100
AcDbEntity
  8
0
  6
CONTINUOUS
 62
               4
100
AcDbLine
 10
45.996969701917862
 20
20.403030294400182
 30
0.0
 11
40.997979805784496
 21
20.403030294400125
 31
0.0
  0
LINE
  5
156
100
AcDbEntity
  8
0
  6
CONTINUOUS
 62
               4
100
AcDbLine
 10
40.997979805784553
 20
19.802020193733355
 30
0.0
 11
40.997979805784496
 21
20.403030294400125
 31
0.0
  0
LINE
  5
157
100
AcDbEntity
  8
0
  6
CONTINUOUS
 62
               4
100
AcDbLine
 10
40.495959604051166
 20
23.903030292400089
 30
0.0
 11
40.792929300851142
 21
24.199999989200066
 31
0.0
  0
LINE
  5
158
100
AcDbEntity
  8
0
  6
CONTINUOUS
 62
               4
100
AcDbLine
 10
40.389898998051137
 20
25.904040392266822
 30
0.0
 11
31.296969710317796
 21
25.904040392266651
 31
0.0
  0
LINE
  5
159
100
AcDbEntity
  8
0
  6
CONTINUOUS
 62
               4
100
AcDbLine
 10
32.293939406717811
 20
24.801010089866665
 30
0.0
 11
32.293939406717811
 21
24.899999988799934
 31
0.0
  0
LINE
  5
15A
100
AcDbEntity
  8
0
  6
CONTINUOUS
 62
               4
100
AcDbLine
 10
51.561616163384485
 20
21.654545445200242
 30
0.0
 11
46.993939398317877
 21
21.654545445200128
 31
0.0
  0
LINE
  5
15B
100
AcDbEntity
  8
0
  6
CONTINUOUS
 62
             200
100
AcDbLine
 10
50.324242426717831
 20
23.804040393466877
 30
0.0
 11
52.056565658051227
 21
20.798989890133655
 31
0.0
  0
LINE
  5
15C
100
AcDbEntity
  8
0
  6
CONTINUOUS
 62
               4
100
AcDbLine
 10
50.81212121431787
 20
22.955555545466908
 30
0.0
 11
46.993939398317877
 21
22.955555545466851
 31
0.0
  0
LINE
  5
15D
100
AcDbEntity
  8
0
  6
CONTINUOUS
 62
               4
100
AcDbLine
 10
46.993939398317764
 20
26.802020189733568
 30
0.0
 11
45.494949500184475
 21
26.802020189733568
 31
0.0
  0
LINE
  5
15E
100
AcDbEntity
  8
0
  6
CONTINUOUS
 62
               4
100
AcDbLine
 10
46.993939398317764
 20
25.805050493333496
 30
0.0
 11
45.586868692051098
 21
25.805050493333496
 31
0.0
  0
LINE
  5
15F
100
AcDbEntity
  8
0
  6
CONTINUOUS
 62
               4
100
AcDbLine
 10
46.696969701517844
 20
24.19999998920018
 30
0.0
 11
40.792929300851142
 21
24.199999989200066
 31
0.0
  0
LINE
  5
160
100
AcDbEntity
  8
0
  6
CONTINUOUS
 62
               4
100
AcDbLine
 10
46.993939398317821
 20
23.903030292400203
 30
0.0
 11
39.400000008717882
 21
23.903030292400061
 31
0.0
  0
LINE
  5
161
100
AcDbEntity
  8
0
  6
CONTINUOUS
 62
               4
100
AcDbLine
 10
46.993939398317877
 20
23.203030292800221
 30
0.0
 11
38.996969705917877
 21
23.203030292800108
 31
0.0
  0
LINE
  5
162
100
AcDbEntity
  8
0
  6
CONTINUOUS
 62
               4
100
AcDbLine
 10
46.993939398317877
 20
21.399999990800225
 30
0.0
 11
38.996969705917934
 21
21.399999990800083
 31
0.0
  0
LINE
  5
163
100
AcDbEntity
  8
0
  6
CONTINUOUS
 62
               4
100
AcDbLine
 10
38.996969705917934
 20
19.802020193733355
 30
0.0
 11
40.997979805784553
 21
19.802020193733355
 31
0.0
  0
LINE
  5
164
100
AcDbEntity
  8
0
  6
CONTINUOUS
 62
               4
100
AcDbLine
 10
45.996969701917862
 20
19.802020193733469
 30
0.0
 11
46.993939398317877
 21
19.802020193733469
 31
0.0
  0
LINE
  5
165
100
AcDbEntity
  8
0
  6
CONTINUOUS
 62
               4
100
AcDbLine
 10
33.884848496718121
 20
5.2999999999999687
 30
0.0
 11
33.88484849671778
 21
24.801010089866665
 31
0.0
  0
ARC
  5
166
100
AcDbEntity
  8
0
  6
CONTINUOUS
 62
               4
100
AcDbCircle
 10
38.497257383074896
 20
7.9525224605392424
 30
0.0
 40
0.4997133381008656
100
AcDbArc
 50
294.82621530980992
 51
359.88450442035736
  0
ARC
  5
167
100
AcDbEntity
  8
0
  6
CONTINUOUS
 62
               4
100
AcDbCircle
 10
38.500332854439137
 20
24.304373238388067
 30
0.0
 40
0.4966660273328702
100
AcDbArc
 50
359.37896036356483
 51
90.621039636434716
  0
ARC
  5
168
100
AcDbEntity
  8
0
  6
CONTINUOUS
 62
               4
100
AcDbCircle
 10
31.29943130523526
 20
25.604584129418598
 30
0.0
 40
0.2994663800970315
100
AcDbArc
 50
90.47097302846538
 51
180.87710076750685
  0
ARC
  5
169
100
AcDbEntity
  8
0
  6
CONTINUOUS
 62
               4
100
AcDbCircle
 10
37.999912527654999
 20
24.405034325092672
 30
0.0
 40
0.4950149226876426
100
AcDbArc
 50
53.123124741165753
 51
90.808304124579536
  0
ARC
  5
16A
100
AcDbEntity
  8
0
  6
CONTINUOUS
 62
               4
100
AcDbCircle
 10
39.399895939896908
 20
24.305327231604579
 30
0.0
 40
0.4029269013737999
100
AcDbArc
 50
100.09177155739695
 51
179.8957164142515
  0
ARC
  5
16B
100
AcDbEntity
  8
0
  6
CONTINUOUS
 62
               4
100
AcDbCircle
 10
39.400834052872199
 20
24.306894639354411
 30
0.0
 40
0.403865208170398
100
AcDbArc
 50
180.11832473551567
 51
269.88167526448677
  0
LINE
  5
16C
100
AcDbEntity
  8
0
  6
CONTINUOUS
 62
             200
100
AcDbLine
 10
50.670707072984499
 20
23.804040393466934
 30
0.0
 11
52.403030304317952
 21
20.806060597200272
 31
0.0
  0
LINE
  5
16D
100
AcDbEntity
  8
0
  6
CONTINUOUS
 62
               4
100
AcDbLine
 10
17.00000002151819
 20
5.2999999999996561
 30
0.0
 11
17.000000021517792
 21
27.199999999999633
 31
0.0
  0
LINE
  5
16E
100
AcDbEntity
  8
0
  6
CONTINUOUS
 62
               4
100
AcDbLine
 10
28.999999982482223
 20
26.199999999999633
 30
0.0
 11
16.999999986482237
 21
26.199999999999861
 31
0.0
  0
LINE
  5
16F
100
AcDbEntity
  8
0
  6
CONTINUOUS
 62
               4
100
AcDbLine
 10
28.999999982482279
 20
27.799999999999685
 30
0.0
 11
28.999999982482223
 21
26.199999999999633
 31
0.0
  0
LINE
  5
170
100
AcDbEntity
  8
0
  6
CONTINUOUS
 62
               4
100
AcDbLine
 10
30.499999978482208
 20
27.69999999999969
 30
0.0
 11
28.999999982482279
 21
27.69999999999969
 31
0.0
  0
ARC
  5
171
100
AcDbEntity
  8
0
  6
CONTINUOUS
 62
               4
100
AcDbCircle
 10
30.499999978482208
 20
27.199999999999633
 30
0.0
 40
0.5
100
AcDbArc
 50
359.99999999999898
 51
89.999999999998778
  0
LINE
  5
172
100
AcDbEntity
  8
0
  6
CONTINUOUS
 62
               4
100
AcDbLine
 10
31.000000013517763
 20
27.199999999999889
 30
0.0
 11
31.000000013518161
 21
5.2999999999999119
 31
0.0
  0
LINE
  5
173
100
AcDbEntity
  8
0
  6
CONTINUOUS
 62
               4
100
AcDbLine
 10
30.199999892482253
 20
27.799999999999685
 30
0.0
 11
17.800000072482248
 21
27.799999999999912
 31
0.0
  0
ARC
  5
174
100
AcDbEntity
  8
0
  6
CONTINUOUS
 62
               4
100
AcDbCircle
 10
17.49999998648218
 20
27.199999999999889
 30
0.0
 40
0.5
100
AcDbArc
 50
93.919585899649775
 51
179.99999999999858
  0
LINE
  5
175
100
AcDbEntity
  8
0
  6
CONTINUOUS
 62
               4
100
AcDbLine
 10
20.700000167517771
 20
27.199999999999818
 30
0.0
 11
16.999999986482237
 21
27.199999999999889
 31
0.0
  0
ARC
  5
176
100
AcDbEntity
  8
0
  6
CONTINUOUS
 62
               4
100
AcDbCircle
 10
17.798912067353967
 20
27.201088005128142
 30
0.0
 40
0.598912923125741
100
AcDbArc
 50
89.895914524771712
 51
180.10408547522565
  0
ARC
  5
177
100
AcDbEntity
  8
0
  6
CONTINUOUS
 62
               4
100
AcDbCircle
 10
30.200095039130929
 20
27.200095146648337
 30
0.0
 40
0.599904800896587
100
AcDbArc
 50
56.247417870392866
 51
90.009087277545149
  0
LINE
  5
178
100
AcDbEntity
  8
0
  6
CONTINUOUS
 62
               4
100
AcDbLine
 10
54.495959596051193
 20
21.654545445200299
 30
0.0
 11
54.495959596051136
 21
22.955555545466993
 31
0.0
  0
LINE
  5
179
100
AcDbEntity
  8
0
  6
CONTINUOUS
 62
               7
100
AcDbLine
 10
30.0
 20
-11.594001430615208
 30
0.0
 11
31.0
 21
-11.594001430615208
 31
0.0
  0
LINE
  5
17A
100
AcDbEntity
  8
0
  6
CONTINUOUS
 62
               7
100
AcDbLine
 10
30.0
 20
-8.3940014306151909
 30
0.0
 11
31.0
 21
-8.3940014306151909
 31
0.0
  0
LINE
  5
17B
100
AcDbEntity
  8
0
  6
CONTINUOUS
 62
               7
100
AcDbLine
 10
32.548000013518106
 20
1.8999999999999915
 30
0.0
 11
32.100000013518127
 21
1.8999999999999915
 31
0.0
  0
LINE
  5
17C
100
AcDbEntity
  8
0
  6
CONTINUOUS
 62
               7
100
AcDbLine
 10
32.548000013518106
 20
4.1000000000000369
 30
0.0
 11
32.100000013518127
 21
4.1000000000000227
 31
0.0
  0
LINE
  5
17D
100
AcDbEntity
  8
0
  6
CONTINUOUS
 62
               7
100
AcDbLine
 10
32.548000013518106
 20
1.8999999999999915
 30
0.0
 11
32.548000013518106
 21
4.1000000000000369
 31
0.0
  0
LINE
  5
17E
100
AcDbEntity
  8
0
  6
CONTINUOUS
 62
               7
100
AcDbLine
 10
31.000000013518161
 20
5.2999999999999261
 30
0.0
 11
31.000000013518161
 21
-5.6950000000000074
 31
0.0
  0
LINE
  5
17F
100
AcDbEntity
  8
0
  6
CONTINUOUS
 62
               7
100
AcDbLine
 10
31.000000013518161
 20
-1.7950000000000159
 30
0.0
 11
32.100000013518127
 21
-0.7000000000000028
 31
0.0
  0
CIRCLE
  5
180
100
AcDbEntity
  8
0
  6
CONTINUOUS
 62
               2
100
AcDbCircle
 10
4.9999816894531364
 20
-12.300006103515628
 30
0.0
 40
2.5
  0
CIRCLE
  5
181
100
AcDbEntity
  8
0
  6
CONTINUOUS
 62
               2
100
AcDbCircle
 10
10.999996948242199
 20
-20.000003051757815
 30
0.0
 40
2.5
  0
CIRCLE
  5
182
100
AcDbEntity
  8
0
  6
CONTINUOUS
 62
               7
100
AcDbCircle
 10
10.999996948242199
 20
-20.000003051757815
 30
0.0
 40
2.0669994354248047
  0
CIRCLE
  5
183
100
AcDbEntity
  8
0
  6
CONTINUOUS
 62
               7
100
AcDbCircle
 10
4.9999816894531364
 20
-12.300006103515628
 30
0.0
 40
2.0669994354248047
  0
LINE
  5
184
100
AcDbEntity
  8
0
  6
CENTER
 62
               2
100
AcDbLine
 10
1.5
 20
-12.299999999999997
 30
0.0
 11
8.5
 21
-12.299999999999997
 31
0.0
  0
LINE
  5
185
100
AcDbEntity
  8
0
  6
CENTER
 62
               2
100
AcDbLine
 10
5.0
 20
-8.7999999999999972
 30
0.0
 11
5.0
 21
-15.799999999999997
 31
0.0
  0
LINE
  5
186
100
AcDbEntity
  8
0
  6
CENTER
 62
               2
100
AcDbLine
 10
11.0
 20
-16.5
 30
0.0
 11
11.0
 21
-23.499999999999986
 31
0.0
  0
LINE
  5
187
100
AcDbEntity
  8
0
  6
CENTER
 62
               2
100
AcDbLine
 10
7.5
 20
-19.999999999999986
 30
0.0
 11
14.5
 21
-19.999999999999986
 31
0.0
  0
LINE
  5
188
100
AcDbEntity
  8
0
  6
CONTINUOUS
 62
               7
100
AcDbLine
 10
16.0
 20
-32.299999999999997
 30
0.0
 11
0.0
 21
-32.299999999999997
 31
0.0
  0
LINE
  5
189
100
AcDbEntity
  8
0
  6
CONTINUOUS
 62
               7
100
AcDbLine
 10
16.0
 20
2.7000000000000028
 30
0.0
 11
0.0
 21
2.7000000000000028
 31
0.0
  0
LINE
  5
18A
100
AcDbEntity
  8
0
  6
CONTINUOUS
 62
               7
100
AcDbLine
 10
0.0
 20
2.7000000000000028
 30
0.0
 11
0.0
 21
-32.299999999999997
 31
0.0
  0
LINE
  5
18B
100
AcDbEntity
  8
0
  6
CONTINUOUS
 62
               7
100
AcDbLine
 10
16.0
 20
-32.299999999999997
 30
0.0
 11
16.0
 21
2.7000000000000028
 31
0.0
  0
LINE
  5
18C
100
AcDbEntity
  8
0
  6
CONTINUOUS
 62
               7
100
AcDbLine
 10
30.0
 20
-8.3940014306151909
 30
0.0
 11
30.0
 21
-11.594001430615208
 31
0.0
  0
LINE
  5
18D
100
AcDbEntity
  8
0
  6
CENTER
 62
               2
100
AcDbLine
 10
24.0
 20
29.647850672801098
 30
0.0
 11
24.0
 21
-59.247850672801093
 31
0.0
  0
LINE
  5
18E
100
AcDbEntity
  8
0
  6
CONTINUOUS
 62
               7
100
AcDbLine
 10
31.0
 20
-5.6949999999999932
 30
0.0
 11
31.0
 21
-23.905000000000001
 31
0.0
  0
LINE
  5
18F
100
AcDbEntity
  8
0
  6
CONTINUOUS
 62
               7
100
AcDbLine
 10
17.000000013518104
 20
-34.899999999999935
 30
0.0
 11
17.000000013518104
 21
5.2999999999999403
 31
0.0
  0
LINE
  5
190
100
AcDbEntity
  8
0
  6
CONTINUOUS
 62
               7
100
AcDbLine
 10
30.0
 20
-8.4949999999999903
 30
0.0
 11
30.199999999999989
 21
-8.4949999999999903
 31
0.0
  0
LINE
  5
191
100
AcDbEntity
  8
0
  6
CONTINUOUS
 62
               7
100
AcDbLine
 10
30.0
 20
-11.49499999999999
 30
0.0
 11
30.199999999999989
 21
-11.49499999999999
 31
0.0
  0
LINE
  5
192
100
AcDbEntity
  8
0
  6
CONTINUOUS
 62
               7
100
AcDbLine
 10
30.599999999999966
 20
-8.894999999999996
 30
0.0
 11
30.599999999999966
 21
-11.094999999999999
 31
0.0
  0
ARC
  5
193
100
AcDbEntity
  8
0
  6
CONTINUOUS
 62
               7
100
AcDbCircle
 10
30.199999999999989
 20
-8.894999999999996
 30
0.0
 40
0.4
100
AcDbArc
 50
0.0
 51
89.999999999999815
  0
ARC
  5
194
100
AcDbEntity
  8
0
  6
CONTINUOUS
 62
               7
100
AcDbCircle
 10
30.199999999999989
 20
-11.094999999999999
 30
0.0
 40
0.4
100
AcDbArc
 50
270.00000000000023
 51
0.0
  0
LINE
  5
195
100
AcDbEntity
  8
0
  6
CONTINUOUS
 62
               4
100
AcDbLine
 10
54.495959596051136
 20
22.054233112521118
 30
0.0
 11
57.99595959605125
 21
22.054233112521118
 31
0.0
  0
LINE
  5
196
100
AcDbEntity
  8
0
  6
CONTINUOUS
 62
               4
100
AcDbLine
 10
54.495959596051136
 20
22.554233112521118
 30
0.0
 11
57.99595959605125
 21
22.554233112521118
 31
0.0
  0
LINE
  5
197
100
AcDbEntity
  8
0
  6
CONTINUOUS
 62
               4
100
AcDbLine
 10
57.99595959605125
 20
22.554233112521118
 30
0.0
 11
57.99595959605125
 21
22.054233112521118
 31
0.0
  0
LINE
  5
198
100
AcDbEntity
  8
0
  6
CONTINUOUS
 62
               4
100
AcDbLine
 10
54.495959596051193
 20
-52.155867878146168
 30
0.0
 11
57.99595959605125
 21
-52.155867878146168
 31
0.0
  0
LINE
  5
199
100
AcDbEntity
  8
0
  6
CONTINUOUS
 62
               4
100
AcDbLine
 10
54.495959596051193
 20
-51.655867878146168
 30
0.0
 11
57.99595959605125
 21
-51.655867878146168
 31
0.0
  0
LINE
  5
19A
100
AcDbEntity
  8
0
  6
CONTINUOUS
 62
               4
100
AcDbLine
 10
57.99595959605125
 20
-51.655867878146168
 30
0.0
 11
57.99595959605125
 21
-52.155867878146168
 31
0.0
  0
LINE
  5
19B
100
AcDbEntity
  8
0
  6
CONTINUOUS
 62
               7
100
AcDbLine
 10
32.548000013518106
 20
-31.499999999999986
 30
0.0
 11
32.100000013518127
 21
-31.499999999999986
 31
0.0
  0
LINE
  5
19C
100
AcDbEntity
  8
0
  6
CONTINUOUS
 62
               7
100
AcDbLine
 10
17.00000002151819
 20
-5.7000000000003439
 30
0.0
 11
31.000000013518161
 21
-5.7000000000000881
 31
0.0
  0
LINE
  5
19D
100
AcDbEntity
  8
0
  6
CONTINUOUS
 62
               7
100
AcDbLine
 10
17.00000002151819
 20
-23.89999999999965
 30
0.0
 11
31.0
 21
-23.899999999999906
 31
0.0
  0
ENDBLK
  5
19E
100
AcDbEntity
  8
0
100
AcDbBlockEnd
  0
BLOCK
  5
19F
100
AcDbEntity
  8
0
100
AcDbBlockBegin
  2
EA10A6-3
 70
               0
 10
0.0
 20
0.0
 30
0.0
  3
EA10A6-3
  1

  0
LINE
  5
1A0
100
AcDbEntity
  8
0
  6
CONTINUOUS
 62
               7
100
AcDbLine
 10
-16.999921226538049
 20
-30.100006103515625
 30
0.0
 11
-16.0
 21
-30.100006103515625
 31
0.0
  0
LINE
  5
1A1
100
AcDbEntity
  8
0
  6
CONTINUOUS
 62
               7
100
AcDbLine
 10
-16.999989318840903
 20
0.4999938964843835
 30
0.0
 11
-16.0
 21
0.4999938964843835
 31
0.0
  0
LINE
  5
1A2
100
AcDbEntity
  8
0
  6
CENTER
 62
               2
100
AcDbLine
 10
-2.0
 20
-29.599999999999994
 30
0.0
 11
2.0
 21
-29.599999999999994
 31
0.0
  0
LINE
  5
1A3
100
AcDbEntity
  8
0
  6
CENTER
 62
               2
100
AcDbLine
 10
-2.0
 20
0.0
 30
0.0
 11
2.0
 21
0.0
 31
0.0
  0
ARC
  5
1A4
100
AcDbEntity
  8
0
  6
CONTINUOUS
 62
               4
100
AcDbCircle
 10
-33.886980706044824
 20
-35.399995453570639
 30
0.0
 40
0.5
100
AcDbArc
 50
89.755663602704061
 51
115.03102081721671
  0
ARC
  5
1A5
100
AcDbEntity
  8
0
  6
CONTINUOUS
 62
               4
100
AcDbCircle
 10
-33.886980706044824
 20
5.7999954535706451
 30
0.0
 40
0.5
100
AcDbArc
 50
244.96897918278245
 51
270.24433639740585
  0
ARC
  5
1A6
100
AcDbEntity
  8
0
  6
CONTINUOUS
 62
               4
100
AcDbCircle
 10
-19.601088194272279
 20
-56.801088005236764
 30
0.0
 40
0.5989129830170392
100
AcDbArc
 50
179.89591452477256
 51
270.1040854752265
  0
LINE
  5
1A7
100
AcDbEntity
  8
0
  6
CONTINUOUS
 62
               4
100
AcDbLine
 10
-20.700000189035109
 20
-56.799999999999756
 30
0.0
 11
-20.700000189035109
 21
-57.399999999999778
 31
0.0
  0
ARC
  5
1A8
100
AcDbEntity
  8
0
  6
CONTINUOUS
 62
               4
100
AcDbCircle
 10
-28.398911805727721
 20
27.20108800523677
 30
0.0
 40
0.5989129830170392
100
AcDbArc
 50
359.89591452477299
 51
90.104085475226924
  0
LINE
  5
1A9
100
AcDbEntity
  8
0
  6
CONTINUOUS
 62
               4
100
AcDbLine
 10
-27.299999810964891
 20
27.199999999999761
 30
0.0
 11
-27.299999810964891
 21
27.799999999999784
 31
0.0
  0
LINE
  5
1AA
100
AcDbEntity
  8
0
  6
CONTINUOUS
 62
               7
100
AcDbLine
 10
-31.0
 20
-27.799999999999997
 30
0.0
 11
-32.100000000000023
 21
-28.899999999999991
 31
0.0
  0
LINE
  5
1AB
100
AcDbEntity
  8
0
  6
CONTINUOUS
 62
               7
100
AcDbLine
 10
-32.548000000000002
 20
-31.499999999999986
 30
0.0
 11
-32.100000000000023
 21
-31.499999999999986
 31
0.0
  0
LINE
  5
1AC
100
AcDbEntity
  8
0
  6
CONTINUOUS
 62
               7
100
AcDbLine
 10
-17.0
 20
-23.899999999999991
 30
0.0
 11
-31.0
 21
-23.899999999999991
 31
0.0
  0
LINE
  5
1AD
100
AcDbEntity
  8
0
  6
CONTINUOUS
 62
               4
100
AcDbLine
 10
-54.495959574533572
 20
-51.25454544519927
 30
0.0
 11
-51.908080788133589
 21
-51.254545445199298
 31
0.0
  0
LINE
  5
1AE
100
AcDbEntity
  8
0
  6
CONTINUOUS
 62
               4
100
AcDbLine
 10
-54.495959574533572
 20
-51.25454544519927
 30
0.0
 11
-54.495959574533572
 21
-52.555555545465964
 31
0.0
  0
LINE
  5
1AF
100
AcDbEntity
  8
0
  6
CONTINUOUS
 62
             200
100
AcDbLine
 10
-50.324242405200266
 20
-53.404040393466005
 30
0.0
 11
-52.056565636533605
 21
-50.398989890132711
 31
0.0
  0
LINE
  5
1B0
100
AcDbEntity
  8
0
  6
CONTINUOUS
 62
             200
100
AcDbLine
 10
-50.670707051467048
 20
-53.404040393466047
 30
0.0
 11
-52.403030282800273
 21
-50.406060597199328
 31
0.0
  0
LINE
  5
1B1
100
AcDbEntity
  8
0
  6
CONTINUOUS
 62
               4
100
AcDbLine
 10
-54.495959574533572
 20
-52.555555545465964
 30
0.0
 11
-51.158585839066973
 21
-52.555555545466021
 31
0.0
  0
LINE
  5
1B2
100
AcDbEntity
  8
0
  6
CONTINUOUS
 62
               7
100
AcDbLine
 10
-31.000038524730599
 20
-35.399999998515781
 30
0.0
 11
-31.0
 21
-34.899999999999991
 31
0.0
  0
LINE
  5
1B3
100
AcDbEntity
  8
0
  6
CONTINUOUS
 62
               7
100
AcDbLine
 10
-32.548000000000002
 20
-33.700000000000031
 30
0.0
 11
-32.100000000000023
 21
-33.700000000000031
 31
0.0
  0
ARC
  5
1B4
100
AcDbEntity
  8
0
  6
CONTINUOUS
 62
               4
100
AcDbCircle
 10
-30.200095060648323
 20
-56.800095146648644
 30
0.0
 40
0.599904800896587
100
AcDbArc
 50
236.24741787039457
 51
270.00908727754683
  0
ARC
  5
1B5
100
AcDbEntity
  8
0
  6
CONTINUOUS
 62
               4
100
AcDbCircle
 10
-17.798912088871361
 20
-56.801088005127994
 30
0.0
 40
0.598912923125741
100
AcDbArc
 50
269.89591452477339
 51
0.1040854752281387
  0
LINE
  5
1B6
100
AcDbEntity
  8
0
  6
CONTINUOUS
 62
               4
100
AcDbLine
 10
-20.700000189035109
 20
-56.79999999999977
 30
0.0
 11
-17.000000007999574
 21
-56.799999999999713
 31
0.0
  0
ARC
  5
1B7
100
AcDbEntity
  8
0
  6
CONTINUOUS
 62
               4
100
AcDbCircle
 10
-17.500000007999574
 20
-56.799999999999741
 30
0.0
 40
0.5
100
AcDbArc
 50
273.91958589965145
 51
0.0000000000010687
  0
LINE
  5
1B8
100
AcDbEntity
  8
0
  6
CONTINUOUS
 62
               4
100
AcDbLine
 10
-30.199999913999591
 20
-57.399999999999991
 30
0.0
 11
-17.800000093999643
 21
-57.399999999999764
 31
0.0
  0
LINE
  5
1B9
100
AcDbEntity
  8
0
  6
CONTINUOUS
 62
               4
100
AcDbLine
 10
-30.999999992000426
 20
-56.799999999999713
 30
0.0
 11
-30.999999991999971
 21
-34.899999999999736
 31
0.0
  0
ARC
  5
1BA
100
AcDbEntity
  8
0
  6
CONTINUOUS
 62
               4
100
AcDbCircle
 10
-30.499999999999659
 20
-56.79999999999994
 30
0.0
 40
0.5
100
AcDbArc
 50
180.00000000000065
 51
270.00000000000045
  0
LINE
  5
1BB
100
AcDbEntity
  8
0
  6
CONTINUOUS
 62
               4
100
AcDbLine
 10
-30.499999999999659
 20
-57.299999999999997
 30
0.0
 11
-29.000000003999617
 21
-57.299999999999955
 31
0.0
  0
LINE
  5
1BC
100
AcDbEntity
  8
0
  6
CONTINUOUS
 62
               4
100
AcDbLine
 10
-29.00000000399973
 20
-57.399999999999949
 30
0.0
 11
-29.00000000399973
 21
-55.799999999999898
 31
0.0
  0
LINE
  5
1BD
100
AcDbEntity
  8
0
  6
CONTINUOUS
 62
               4
100
AcDbLine
 10
-29.00000000399973
 20
-55.799999999999898
 30
0.0
 11
-17.000000007999688
 21
-55.799999999999685
 31
0.0
  0
LINE
  5
1BE
100
AcDbEntity
  8
0
  6
CONTINUOUS
 62
               4
100
AcDbLine
 10
-17.0
 20
-34.899999999999991
 30
0.0
 11
-17.000000000000455
 21
-56.799999999999969
 31
0.0
  0
ARC
  5
1BF
100
AcDbEntity
  8
0
  6
CONTINUOUS
 62
               4
100
AcDbCircle
 10
-39.400834031354634
 20
-53.906894639353922
 30
0.0
 40
0.403865208170398
100
AcDbArc
 50
0.1183247355139886
 51
89.881675264485096
  0
ARC
  5
1C0
100
AcDbEntity
  8
0
  6
CONTINUOUS
 62
               4
100
AcDbCircle
 10
-39.399895918379343
 20
-53.90532723160409
 30
0.0
 40
0.4029269013737999
100
AcDbArc
 50
280.09177155739445
 51
359.89571641424902
  0
ARC
  5
1C1
100
AcDbEntity
  8
0
  6
CONTINUOUS
 62
               4
100
AcDbCircle
 10
-37.999912506137548
 20
-54.00503432509224
 30
0.0
 40
0.4950149226876426
100
AcDbArc
 50
233.12312474116328
 51
270.80830412457703
  0
ARC
  5
1C2
100
AcDbEntity
  8
0
  6
CONTINUOUS
 62
               4
100
AcDbCircle
 10
-31.299431283717809
 20
-55.204584129418421
 30
0.0
 40
0.2994663800970315
100
AcDbArc
 50
270.47097302846367
 51
0.8771007675051766
  0
ARC
  5
1C3
100
AcDbEntity
  8
0
  6
CONTINUOUS
 62
               4
100
AcDbCircle
 10
-38.500332832921686
 20
-53.90437323838762
 30
0.0
 40
0.4966660273328702
100
AcDbArc
 50
179.37896036356233
 51
270.62103963643222
  0
ARC
  5
1C4
100
AcDbEntity
  8
0
  6
CONTINUOUS
 62
               4
100
AcDbCircle
 10
-38.497257361556763
 20
-37.552522460538796
 30
0.0
 40
0.4997133381008656
100
AcDbArc
 50
114.82621530980826
 51
179.88450442035563
  0
LINE
  5
1C5
100
AcDbEntity
  8
0
  6
CONTINUOUS
 62
               4
100
AcDbLine
 10
-33.884848475199988
 20
-34.899999999999693
 30
0.0
 11
-33.884848475200215
 21
-54.401010089866389
 31
0.0
  0
LINE
  5
1C6
100
AcDbEntity
  8
0
  6
CONTINUOUS
 62
               4
100
AcDbLine
 10
-45.996969680400184
 20
-49.402020193732753
 30
0.0
 11
-46.993939376800199
 21
-49.40202019373271
 31
0.0
  0
LINE
  5
1C7
100
AcDbEntity
  8
0
  6
CONTINUOUS
 62
               4
100
AcDbLine
 10
-38.996969684400256
 20
-49.402020193732895
 30
0.0
 11
-40.997979784266818
 21
-49.402020193732824
 31
0.0
  0
LINE
  5
1C8
100
AcDbEntity
  8
0
  6
CONTINUOUS
 62
               4
100
AcDbLine
 10
-46.993939376800199
 20
-50.999999990799481
 30
0.0
 11
-38.996969684400256
 21
-50.999999990799623
 31
0.0
  0
LINE
  5
1C9
100
AcDbEntity
  8
0
  6
CONTINUOUS
 62
               4
100
AcDbLine
 10
-46.993939376800313
 20
-52.803030292799477
 30
0.0
 11
-38.996969684400256
 21
-52.803030292799647
 31
0.0
  0
LINE
  5
1CA
100
AcDbEntity
  8
0
  6
CONTINUOUS
 62
               4
100
AcDbLine
 10
-46.993939376800313
 20
-53.503030292399458
 30
0.0
 11
-39.399999987200317
 21
-53.503030292399572
 31
0.0
  0
LINE
  5
1CB
100
AcDbEntity
  8
0
  6
CONTINUOUS
 62
               4
100
AcDbLine
 10
-46.696969680000393
 20
-53.799999989199435
 30
0.0
 11
-40.792929279333634
 21
-53.799999989199534
 31
0.0
  0
LINE
  5
1CC
100
AcDbEntity
  8
0
  6
CONTINUOUS
 62
               4
100
AcDbLine
 10
-46.993939376800313
 20
-55.405050493332752
 30
0.0
 11
-45.586868670533704
 21
-55.405050493332794
 31
0.0
  0
LINE
  5
1CD
100
AcDbEntity
  8
0
  6
CONTINUOUS
 62
               4
100
AcDbLine
 10
-46.993939376800427
 20
-56.402020189732823
 30
0.0
 11
-45.494949478667081
 21
-56.402020189732866
 31
0.0
  0
LINE
  5
1CE
100
AcDbEntity
  8
0
  6
CONTINUOUS
 62
               4
100
AcDbLine
 10
-32.293939385200247
 20
-54.401010089866446
 30
0.0
 11
-32.29393938520036
 21
-54.499999988799715
 31
0.0
  0
LINE
  5
1CF
100
AcDbEntity
  8
0
  6
CONTINUOUS
 62
               4
100
AcDbLine
 10
-40.389898976533686
 20
-55.504040392266305
 30
0.0
 11
-31.296969688800345
 21
-55.504040392266475
 31
0.0
  0
LINE
  5
1D0
100
AcDbEntity
  8
0
  6
CONTINUOUS
 62
               4
100
AcDbLine
 10
-40.495959582533715
 20
-53.503030292399572
 30
0.0
 11
-40.792929279333634
 21
-53.799999989199534
 31
0.0
  0
LINE
  5
1D1
100
AcDbEntity
  8
0
  6
CONTINUOUS
 62
               4
100
AcDbLine
 10
-40.997979784266818
 20
-49.402020193732824
 30
0.0
 11
-40.997979784266931
 21
-50.003030294399593
 31
0.0
  0
LINE
  5
1D2
100
AcDbEntity
  8
0
  6
CONTINUOUS
 62
               4
100
AcDbLine
 10
-45.996969680400298
 20
-50.003030294399466
 30
0.0
 11
-40.997979784266931
 21
-50.003030294399593
 31
0.0
  0
LINE
  5
1D3
100
AcDbEntity
  8
0
  6
CONTINUOUS
 62
               4
100
AcDbLine
 10
-45.996969680400184
 20
-49.402020193732753
 30
0.0
 11
-45.996969680400298
 21
-50.003030294399466
 31
0.0
  0
LINE
  5
1D4
100
AcDbEntity
  8
0
  6
CONTINUOUS
 62
               4
100
AcDbLine
 10
-46.993939376800313
 20
-53.503030292399458
 30
0.0
 11
-46.696969680000393
 21
-53.799999989199435
 31
0.0
  0
LINE
  5
1D5
100
AcDbEntity
  8
0
  6
CONTINUOUS
 62
               4
100
AcDbLine
 10
-37.992929280933708
 20
-54.499999988799615
 30
0.0
 11
-32.29393938520036
 21
-54.499999988799715
 31
0.0
  0
LINE
  5
1D6
100
AcDbEntity
  8
0
  6
CONTINUOUS
 62
               4
100
AcDbLine
 10
-39.329292916533632
 20
-54.302020190932865
 30
0.0
 11
-45.671717155333681
 21
-55.419191907466129
 31
0.0
  0
LINE
  5
1D7
100
AcDbEntity
  8
0
  6
CONTINUOUS
 62
               4
100
AcDbLine
 10
-46.993939376800313
 20
-55.405050493332752
 30
0.0
 11
-46.993939376800427
 21
-56.402020189732823
 31
0.0
  0
LINE
  5
1D8
100
AcDbEntity
  8
0
  6
CONTINUOUS
 62
               4
100
AcDbLine
 10
-40.389898976533686
 20
-55.504040392266305
 30
0.0
 11
-45.494949478667081
 21
-56.402020189732866
 31
0.0
  0
LINE
  5
1D9
100
AcDbEntity
  8
0
  6
CONTINUOUS
 62
               4
100
AcDbLine
 10
-46.993939376800199
 20
-49.40202019373271
 30
0.0
 11
-46.993939376800313
 21
-53.503030292399458
 31
0.0
  0
LINE
  5
1DA
100
AcDbEntity
  8
0
  6
CONTINUOUS
 62
               4
100
AcDbLine
 10
-34.098535150427779
 20
-34.946956032480358
 30
0.0
 11
-38.707070694666641
 21
-37.09898989773292
 31
0.0
  0
LINE
  5
1DB
100
AcDbEntity
  8
0
  6
CONTINUOUS
 62
               4
100
AcDbLine
 10
-38.996969684400369
 20
-53.898989888132931
 30
0.0
 11
-38.996969684400028
 21
-37.551515149999673
 31
0.0
  0
LINE
  5
1DC
100
AcDbEntity
  8
0
  6
CONTINUOUS
 62
               4
100
AcDbLine
 10
-30.999999992000312
 20
-54.401010089866432
 30
0.0
 11
-38.494949482666925
 21
-54.401010089866332
 31
0.0
  0
LINE
  5
1DD
100
AcDbEntity
  8
0
  6
CONTINUOUS
 62
               4
100
AcDbLine
 10
-17.0
 20
-34.899999999999991
 30
0.0
 11
-33.884848475199988
 21
-34.899999999999693
 31
0.0
  0
LINE
  5
1DE
100
AcDbEntity
  8
0
  6
CONTINUOUS
 62
               4
100
AcDbLine
 10
-51.561616141866921
 20
-51.254545445199327
 30
0.0
 11
-46.993939376800199
 21
-51.254545445199383
 31
0.0
  0
LINE
  5
1DF
100
AcDbEntity
  8
0
  6
CONTINUOUS
 62
               4
100
AcDbLine
 10
-50.812121192800305
 20
-52.555555545466021
 30
0.0
 11
-46.993939376800313
 21
-52.555555545466106
 31
0.0
  0
LINE
  5
1E0
100
AcDbEntity
  8
0
  6
CONTINUOUS
 62
               7
100
AcDbLine
 10
-32.548000000000002
 20
-31.499999999999986
 30
0.0
 11
-32.548000000000002
 21
-33.700000000000031
 31
0.0
  0
LINE
  5
1E1
100
AcDbEntity
  8
0
  6
CONTINUOUS
 62
               7
100
AcDbLine
 10
-32.100000000000023
 20
-28.899999999999991
 30
0.0
 11
-32.100000000000023
 21
-34.899999999999935
 31
0.0
  0
LINE
  5
1E2
100
AcDbEntity
  8
0
  6
CONTINUOUS
 62
               4
100
AcDbLine
 10
-54.495959574533572
 20
21.654545445199275
 30
0.0
 11
-54.495959574533572
 21
22.95555554546597
 31
0.0
  0
LINE
  5
1E3
100
AcDbEntity
  8
0
  6
CONTINUOUS
 62
               4
100
AcDbLine
 10
-17.0
 20
5.2999999999999972
 30
0.0
 11
-33.884848475199988
 21
5.2999999999996987
 31
0.0
  0
LINE
  5
1E4
100
AcDbEntity
  8
0
  6
CONTINUOUS
 62
               4
100
AcDbLine
 10
-30.999999992000312
 20
24.801010089866438
 30
0.0
 11
-38.494949482666925
 21
24.801010089866338
 31
0.0
  0
LINE
  5
1E5
100
AcDbEntity
  8
0
  6
CONTINUOUS
 62
               4
100
AcDbLine
 10
-38.996969684400369
 20
24.298989888132937
 30
0.0
 11
-38.996969684400028
 21
7.951515149999679
 31
0.0
  0
LINE
  5
1E6
100
AcDbEntity
  8
0
  6
CONTINUOUS
 62
               4
100
AcDbLine
 10
-34.098535150427779
 20
5.3469560324803638
 30
0.0
 11
-38.707070694666641
 21
7.4989898977329261
 31
0.0
  0
LINE
  5
1E7
100
AcDbEntity
  8
0
  6
CONTINUOUS
 62
               4
100
AcDbLine
 10
-46.993939376800199
 20
19.802020193732716
 30
0.0
 11
-46.993939376800313
 21
23.903030292399464
 31
0.0
  0
LINE
  5
1E8
100
AcDbEntity
  8
0
  6
CONTINUOUS
 62
               4
100
AcDbLine
 10
-40.389898976533686
 20
25.90404039226631
 30
0.0
 11
-45.494949478667081
 21
26.802020189732872
 31
0.0
  0
LINE
  5
1E9
100
AcDbEntity
  8
0
  6
CONTINUOUS
 62
               4
100
AcDbLine
 10
-46.993939376800313
 20
25.805050493332757
 30
0.0
 11
-46.993939376800427
 21
26.802020189732829
 31
0.0
  0
LINE
  5
1EA
100
AcDbEntity
  8
0
  6
CONTINUOUS
 62
               4
100
AcDbLine
 10
-39.329292916533632
 20
24.70202019093287
 30
0.0
 11
-45.671717155333681
 21
25.819191907466134
 31
0.0
  0
LINE
  5
1EB
100
AcDbEntity
  8
0
  6
CONTINUOUS
 62
               4
100
AcDbLine
 10
-37.992929280933708
 20
24.899999988799621
 30
0.0
 11
-32.29393938520036
 21
24.899999988799721
 31
0.0
  0
LINE
  5
1EC
100
AcDbEntity
  8
0
  6
CONTINUOUS
 62
               4
100
AcDbLine
 10
-46.993939376800313
 20
23.903030292399464
 30
0.0
 11
-46.696969680000393
 21
24.199999989199441
 31
0.0
  0
LINE
  5
1ED
100
AcDbEntity
  8
0
  6
CONTINUOUS
 62
               4
100
AcDbLine
 10
-45.996969680400184
 20
19.802020193732758
 30
0.0
 11
-45.996969680400298
 21
20.403030294399471
 31
0.0
  0
LINE
  5
1EE
100
AcDbEntity
  8
0
  6
CONTINUOUS
 62
               4
100
AcDbLine
 10
-45.996969680400298
 20
20.403030294399471
 30
0.0
 11
-40.997979784266931
 21
20.403030294399599
 31
0.0
  0
LINE
  5
1EF
100
AcDbEntity
  8
0
  6
CONTINUOUS
 62
               4
100
AcDbLine
 10
-40.997979784266818
 20
19.80202019373283
 30
0.0
 11
-40.997979784266931
 21
20.403030294399599
 31
0.0
  0
LINE
  5
1F0
100
AcDbEntity
  8
0
  6
CONTINUOUS
 62
               4
100
AcDbLine
 10
-40.495959582533715
 20
23.903030292399578
 30
0.0
 11
-40.792929279333634
 21
24.19999998919954
 31
0.0
  0
LINE
  5
1F1
100
AcDbEntity
  8
0
  6
CONTINUOUS
 62
               4
100
AcDbLine
 10
-40.389898976533686
 20
25.90404039226631
 30
0.0
 11
-31.296969688800345
 21
25.904040392266481
 31
0.0
  0
LINE
  5
1F2
100
AcDbEntity
  8
0
  6
CONTINUOUS
 62
               4
100
AcDbLine
 10
-32.293939385200247
 20
24.801010089866452
 30
0.0
 11
-32.29393938520036
 21
24.899999988799721
 31
0.0
  0
LINE
  5
1F3
100
AcDbEntity
  8
0
  6
CONTINUOUS
 62
               4
100
AcDbLine
 10
-51.561616141866921
 20
21.654545445199332
 30
0.0
 11
-46.993939376800199
 21
21.654545445199389
 31
0.0
  0
LINE
  5
1F4
100
AcDbEntity
  8
0
  6
CONTINUOUS
 62
             200
100
AcDbLine
 10
-50.324242405200266
 20
23.804040393466011
 30
0.0
 11
-52.056565636533605
 21
20.798989890132717
 31
0.0
  0
LINE
  5
1F5
100
AcDbEntity
  8
0
  6
CONTINUOUS
 62
               4
100
AcDbLine
 10
-50.812121192800305
 20
22.955555545466027
 30
0.0
 11
-46.993939376800313
 21
22.955555545466112
 31
0.0
  0
LINE
  5
1F6
100
AcDbEntity
  8
0
  6
CONTINUOUS
 62
               4
100
AcDbLine
 10
-46.993939376800427
 20
26.802020189732829
 30
0.0
 11
-45.494949478667081
 21
26.802020189732872
 31
0.0
  0
LINE
  5
1F7
100
AcDbEntity
  8
0
  6
CONTINUOUS
 62
               4
100
AcDbLine
 10
-46.993939376800313
 20
25.805050493332757
 30
0.0
 11
-45.586868670533704
 21
25.8050504933328
 31
0.0
  0
LINE
  5
1F8
100
AcDbEntity
  8
0
  6
CONTINUOUS
 62
               4
100
AcDbLine
 10
-46.696969680000393
 20
24.199999989199441
 30
0.0
 11
-40.792929279333634
 21
24.19999998919954
 31
0.0
  0
LINE
  5
1F9
100
AcDbEntity
  8
0
  6
CONTINUOUS
 62
               4
100
AcDbLine
 10
-46.993939376800313
 20
23.903030292399464
 30
0.0
 11
-39.399999987200317
 21
23.903030292399578
 31
0.0
  0
LINE
  5
1FA
100
AcDbEntity
  8
0
  6
CONTINUOUS
 62
               4
100
AcDbLine
 10
-46.993939376800313
 20
23.203030292799482
 30
0.0
 11
-38.996969684400256
 21
23.203030292799653
 31
0.0
  0
LINE
  5
1FB
100
AcDbEntity
  8
0
  6
CONTINUOUS
 62
               4
100
AcDbLine
 10
-46.993939376800199
 20
21.399999990799486
 30
0.0
 11
-38.996969684400256
 21
21.399999990799628
 31
0.0
  0
LINE
  5
1FC
100
AcDbEntity
  8
0
  6
CONTINUOUS
 62
               4
100
AcDbLine
 10
-38.996969684400256
 20
19.802020193732901
 30
0.0
 11
-40.997979784266818
 21
19.80202019373283
 31
0.0
  0
LINE
  5
1FD
100
AcDbEntity
  8
0
  6
CONTINUOUS
 62
               4
100
AcDbLine
 10
-45.996969680400184
 20
19.802020193732758
 30
0.0
 11
-46.993939376800199
 21
19.802020193732716
 31
0.0
  0
LINE
  5
1FE
100
AcDbEntity
  8
0
  6
CONTINUOUS
 62
               4
100
AcDbLine
 10
-33.884848475199988
 20
5.2999999999996987
 30
0.0
 11
-33.884848475200215
 21
24.801010089866395
 31
0.0
  0
ARC
  5
1FF
100
AcDbEntity
  8
0
  6
CONTINUOUS
 62
               4
100
AcDbCircle
 10
-38.497257361556763
 20
7.9525224605388019
 30
0.0
 40
0.4997133381008656
100
AcDbArc
 50
180.11549557964358
 51
245.17378469019093
  0
ARC
  5
200
100
AcDbEntity
  8
0
  6
CONTINUOUS
 62
               4
100
AcDbCircle
 10
-38.500332832921686
 20
24.304373238387626
 30
0.0
 40
0.4966660273328702
100
AcDbArc
 50
89.378960363566961
 51
180.62103963643685
  0
ARC
  5
201
100
AcDbEntity
  8
0
  6
CONTINUOUS
 62
               4
100
AcDbCircle
 10
-31.299431283717809
 20
25.604584129418427
 30
0.0
 40
0.2994663800970315
100
AcDbArc
 50
359.12289923249404
 51
89.529026971536297
  0
ARC
  5
202
100
AcDbEntity
  8
0
  6
CONTINUOUS
 62
               4
100
AcDbCircle
 10
-37.999912506137548
 20
24.405034325092245
 30
0.0
 40
0.4950149226876426
100
AcDbArc
 50
89.191695875422141
 51
126.87687525883594
  0
ARC
  5
203
100
AcDbEntity
  8
0
  6
CONTINUOUS
 62
               4
100
AcDbCircle
 10
-39.399895918379343
 20
24.305327231604096
 30
0.0
 40
0.4029269013737999
100
AcDbArc
 50
0.1042835857501941
 51
79.908228442604724
  0
ARC
  5
204
100
AcDbEntity
  8
0
  6
CONTINUOUS
 62
               4
100
AcDbCircle
 10
-39.400834031354634
 20
24.306894639353928
 30
0.0
 40
0.403865208170398
100
AcDbArc
 50
270.11832473551408
 51
359.88167526448518
  0
LINE
  5
205
100
AcDbEntity
  8
0
  6
CONTINUOUS
 62
             200
100
AcDbLine
 10
-50.670707051467048
 20
23.804040393466053
 30
0.0
 11
-52.403030282800273
 21
20.806060597199334
 31
0.0
  0
LINE
  5
206
100
AcDbEntity
  8
0
  6
CONTINUOUS
 62
               4
100
AcDbLine
 10
-17.0
 20
5.2999999999999972
 30
0.0
 11
-17.000000000000455
 21
27.199999999999974
 31
0.0
  0
LINE
  5
207
100
AcDbEntity
  8
0
  6
CONTINUOUS
 62
               4
100
AcDbLine
 10
-18.99999999600027
 20
26.199999999999903
 30
0.0
 11
-30.999999992000312
 21
26.19999999999969
 31
0.0
  0
LINE
  5
208
100
AcDbEntity
  8
0
  6
CONTINUOUS
 62
               4
100
AcDbLine
 10
-18.99999999600027
 20
27.799999999999955
 30
0.0
 11
-18.99999999600027
 21
26.199999999999903
 31
0.0
  0
LINE
  5
209
100
AcDbEntity
  8
0
  6
CONTINUOUS
 62
               4
100
AcDbLine
 10
-17.500000000000341
 20
27.700000000000003
 30
0.0
 11
-18.999999996000383
 21
27.69999999999996
 31
0.0
  0
ARC
  5
20A
100
AcDbEntity
  8
0
  6
CONTINUOUS
 62
               4
100
AcDbCircle
 10
-17.500000000000341
 20
27.199999999999946
 30
0.0
 40
0.5
100
AcDbArc
 50
0.0000000000010687
 51
90.000000000000867
  0
LINE
  5
20B
100
AcDbEntity
  8
0
  6
CONTINUOUS
 62
               4
100
AcDbLine
 10
-30.999999992000426
 20
27.199999999999719
 30
0.0
 11
-30.999999991999971
 21
5.2999999999997414
 31
0.0
  0
LINE
  5
20C
100
AcDbEntity
  8
0
  6
CONTINUOUS
 62
               4
100
AcDbLine
 10
-17.800000086000409
 20
27.799999999999997
 30
0.0
 11
-30.199999906000357
 21
27.79999999999977
 31
0.0
  0
ARC
  5
20D
100
AcDbEntity
  8
0
  6
CONTINUOUS
 62
               4
100
AcDbCircle
 10
-30.499999992000426
 20
27.199999999999747
 30
0.0
 40
0.5
100
AcDbArc
 50
93.919585899651864
 51
180.00000000000065
  0
LINE
  5
20E
100
AcDbEntity
  8
0
  6
CONTINUOUS
 62
               4
100
AcDbLine
 10
-27.299999810964891
 20
27.199999999999775
 30
0.0
 11
-30.999999992000426
 21
27.199999999999719
 31
0.0
  0
ARC
  5
20F
100
AcDbEntity
  8
0
  6
CONTINUOUS
 62
               4
100
AcDbCircle
 10
-30.201087911128639
 20
27.201088005128
 30
0.0
 40
0.598912923125741
100
AcDbArc
 50
89.895914524773801
 51
180.10408547522775
  0
ARC
  5
210
100
AcDbEntity
  8
0
  6
CONTINUOUS
 62
               4
100
AcDbCircle
 10
-17.799904939351677
 20
27.20009514664865
 30
0.0
 40
0.599904800896587
100
AcDbArc
 50
56.247417870394948
 51
90.009087277547238
  0
LINE
  5
211
100
AcDbEntity
  8
0
  6
CONTINUOUS
 62
               4
100
AcDbLine
 10
-54.495959574533572
 20
21.654545445199275
 30
0.0
 11
-51.908080788133589
 21
21.654545445199304
 31
0.0
  0
LINE
  5
212
100
AcDbEntity
  8
0
  6
CONTINUOUS
 62
               4
100
AcDbLine
 10
-54.495959574533572
 20
22.95555554546597
 30
0.0
 11
-51.158585839066973
 21
22.955555545466027
 31
0.0
  0
LINE
  5
213
100
AcDbEntity
  8
0
  6
CONTINUOUS
 62
               7
100
AcDbLine
 10
-30.0
 20
-21.199001430615183
 30
0.0
 11
-31.0
 21
-21.199001430615183
 31
0.0
  0
LINE
  5
214
100
AcDbEntity
  8
0
  6
CONTINUOUS
 62
               7
100
AcDbLine
 10
-30.0
 20
-17.999001430615195
 30
0.0
 11
-31.0
 21
-17.999001430615195
 31
0.0
  0
LINE
  5
215
100
AcDbEntity
  8
0
  6
CONTINUOUS
 62
               7
100
AcDbLine
 10
-32.548000000000002
 20
1.8999999999999915
 30
0.0
 11
-32.100000000000023
 21
1.8999999999999915
 31
0.0
  0
LINE
  5
216
100
AcDbEntity
  8
0
  6
CONTINUOUS
 62
               7
100
AcDbLine
 10
-32.548000000000002
 20
4.1000000000000369
 30
0.0
 11
-32.100000000000023
 21
4.1000000000000369
 31
0.0
  0
LINE
  5
217
100
AcDbEntity
  8
0
  6
CONTINUOUS
 62
               7
100
AcDbLine
 10
-32.548000000000002
 20
1.8999999999999915
 30
0.0
 11
-32.548000000000002
 21
4.1000000000000369
 31
0.0
  0
LINE
  5
218
100
AcDbEntity
  8
0
  6
CONTINUOUS
 62
               7
100
AcDbLine
 10
-31.0
 20
-1.7999999999999972
 30
0.0
 11
-32.100000000000023
 21
-0.7000000000000028
 31
0.0
  0
LINE
  5
219
100
AcDbEntity
  8
0
  6
CONTINUOUS
 62
               7
100
AcDbLine
 10
-32.100000000000023
 20
-0.7000000000000028
 30
0.0
 11
-32.100000000000023
 21
5.2999999999999403
 31
0.0
  0
LINE
  5
21A
100
AcDbEntity
  8
0
  6
CONTINUOUS
 62
               7
100
AcDbLine
 10
-31.000038524730599
 20
5.7999999985157871
 30
0.0
 11
-31.0
 21
5.2999999999999972
 31
0.0
  0
LINE
  5
21B
100
AcDbEntity
  8
0
  6
CONTINUOUS
 62
               7
100
AcDbLine
 10
-17.0
 20
-5.7000000000000028
 30
0.0
 11
-31.0
 21
-5.7000000000000028
 31
0.0
  0
LINE
  5
21C
100
AcDbEntity
  8
0
  6
CONTINUOUS
 62
               7
100
AcDbLine
 10
-30.0
 20
-17.999001430615195
 30
0.0
 11
-30.0
 21
-21.199001430615183
 31
0.0
  0
LINE
  5
21D
100
AcDbEntity
  8
0
  6
CONTINUOUS
 62
               7
100
AcDbLine
 10
-16.0
 20
-32.299999999999997
 30
0.0
 11
-16.0
 21
2.7000000000000028
 31
0.0
  0
LINE
  5
21E
100
AcDbEntity
  8
0
  6
CONTINUOUS
 62
               7
100
AcDbLine
 10
0.0
 20
2.7000000000000028
 30
0.0
 11
0.0
 21
-32.299999999999997
 31
0.0
  0
LINE
  5
21F
100
AcDbEntity
  8
0
  6
CONTINUOUS
 62
               7
100
AcDbLine
 10
-16.0
 20
2.7000000000000028
 30
0.0
 11
0.0
 21
2.7000000000000028
 31
0.0
  0
LINE
  5
220
100
AcDbEntity
  8
0
  6
CONTINUOUS
 62
               7
100
AcDbLine
 10
-16.0
 20
-32.299999999999997
 30
0.0
 11
0.0
 21
-32.299999999999997
 31
0.0
  0
LINE
  5
221
100
AcDbEntity
  8
0
  6
CENTER
 62
               2
100
AcDbLine
 10
-5.0
 20
-18.899999999999991
 30
0.0
 11
-5.0
 21
-25.899999999999991
 31
0.0
  0
LINE
  5
222
100
AcDbEntity
  8
0
  6
CENTER
 62
               2
100
AcDbLine
 10
-8.5
 20
-22.399999999999991
 30
0.0
 11
-1.5
 21
-22.399999999999991
 31
0.0
  0
LINE
  5
223
100
AcDbEntity
  8
0
  6
CENTER
 62
               2
100
AcDbLine
 10
-11.0
 20
-11.299999999999997
 30
0.0
 11
-11.0
 21
-18.299999999999997
 31
0.0
  0
LINE
  5
224
100
AcDbEntity
  8
0
  6
CENTER
 62
               2
100
AcDbLine
 10
-14.5
 20
-14.799999999999997
 30
0.0
 11
-7.5
 21
-14.799999999999997
 31
0.0
  0
LINE
  5
225
100
AcDbEntity
  8
0
  6
CENTER
 62
               2
100
AcDbLine
 10
-10.0
 20
-1.2999999999999972
 30
0.0
 11
-10.0
 21
-8.2999999999999972
 31
0.0
  0
LINE
  5
226
100
AcDbEntity
  8
0
  6
CENTER
 62
               2
100
AcDbLine
 10
-13.5
 20
-4.7999999999999972
 30
0.0
 11
-6.5
 21
-4.7999999999999972
 31
0.0
  0
CIRCLE
  5
227
100
AcDbEntity
  8
0
  6
CONTINUOUS
 62
               7
100
AcDbCircle
 10
-9.9999786376953352
 20
-4.8000061035156278
 30
0.0
 40
2.0669994354248047
  0
CIRCLE
  5
228
100
AcDbEntity
  8
0
  6
CONTINUOUS
 62
               7
100
AcDbCircle
 10
-10.999978637695335
 20
-14.800006103515628
 30
0.0
 40
2.0669994354248047
  0
CIRCLE
  5
229
100
AcDbEntity
  8
0
  6
CONTINUOUS
 62
               7
100
AcDbCircle
 10
-4.9999786376953352
 20
-22.39999694824219
 30
0.0
 40
2.0669994354248047
  0
CIRCLE
  5
22A
100
AcDbEntity
  8
0
  6
CONTINUOUS
 62
               2
100
AcDbCircle
 10
-4.9999786376953352
 20
-22.39999694824219
 30
0.0
 40
2.5
  0
CIRCLE
  5
22B
100
AcDbEntity
  8
0
  6
CONTINUOUS
 62
               2
100
AcDbCircle
 10
-10.999978637695335
 20
-14.800006103515628
 30
0.0
 40
2.5
  0
CIRCLE
  5
22C
100
AcDbEntity
  8
0
  6
CONTINUOUS
 62
               2
100
AcDbCircle
 10
-9.9999786376953352
 20
-4.8000061035156278
 30
0.0
 40
2.5
  0
LINE
  5
22D
100
AcDbEntity
  8
0
  6
CENTER
 62
               2
100
AcDbLine
 10
-24.0
 20
29.647850672801098
 30
0.0
 11
-24.0
 21
-59.247850672801093
 31
0.0
  0
LINE
  5
22E
100
AcDbEntity
  8
0
  6
CONTINUOUS
 62
               7
100
AcDbLine
 10
-31.0
 20
5.2999999999999972
 30
0.0
 11
-31.0
 21
-34.899999999999991
 31
0.0
  0
LINE
  5
22F
100
AcDbEntity
  8
0
  6
CONTINUOUS
 62
               7
100
AcDbLine
 10
-17.0
 20
-34.899999999999991
 30
0.0
 11
-17.0
 21
5.2999999999999972
 31
0.0
  0
LINE
  5
230
100
AcDbEntity
  8
0
  6
CONTINUOUS
 62
               7
100
AcDbLine
 10
-30.600000000000023
 20
-18.499999999999986
 30
0.0
 11
-30.600000000000023
 21
-20.700000000000003
 31
0.0
  0
LINE
  5
231
100
AcDbEntity
  8
0
  6
CONTINUOUS
 62
               7
100
AcDbLine
 10
-30.200000000000045
 20
-18.099999999999994
 30
0.0
 11
-30.0
 21
-18.099999999999994
 31
0.0
  0
LINE
  5
232
100
AcDbEntity
  8
0
  6
CONTINUOUS
 62
               7
100
AcDbLine
 10
-30.200000000000045
 20
-21.099999999999994
 30
0.0
 11
-30.0
 21
-21.099999999999994
 31
0.0
  0
ARC
  5
233
100
AcDbEntity
  8
0
  6
CONTINUOUS
 62
               7
100
AcDbCircle
 10
-30.200000000000045
 20
-18.499999999999986
 30
0.0
 40
0.4
100
AcDbArc
 50
89.999999999999815
 51
179.99999999999963
  0
ARC
  5
234
100
AcDbEntity
  8
0
  6
CONTINUOUS
 62
               7
100
AcDbCircle
 10
-30.200000000000045
 20
-20.700000000000003
 30
0.0
 40
0.4
100
AcDbArc
 50
179.99999999999963
 51
269.99999999999937
  0
LINE
  5
235
100
AcDbEntity
  8
0
  6
CONTINUOUS
 62
               4
100
AcDbLine
 10
-54.495959574533572
 20
22.054233112520095
 30
0.0
 11
-57.995959574533629
 21
22.054233112519952
 31
0.0
  0
LINE
  5
236
100
AcDbEntity
  8
0
  6
CONTINUOUS
 62
               4
100
AcDbLine
 10
-54.495959574533572
 20
22.554233112520095
 30
0.0
 11
-57.995959574533629
 21
22.554233112519952
 31
0.0
  0
LINE
  5
237
100
AcDbEntity
  8
0
  6
CONTINUOUS
 62
               4
100
AcDbLine
 10
-57.995959574533629
 20
22.554233112519952
 30
0.0
 11
-57.995959574533629
 21
22.054233112519952
 31
0.0
  0
LINE
  5
238
100
AcDbEntity
  8
0
  6
CONTINUOUS
 62
               4
100
AcDbLine
 10
-54.495959574533572
 20
-52.155867878145145
 30
0.0
 11
-57.995959574533629
 21
-52.155867878145287
 31
0.0
  0
LINE
  5
239
100
AcDbEntity
  8
0
  6
CONTINUOUS
 62
               4
100
AcDbLine
 10
-54.495959574533572
 20
-51.655867878145145
 30
0.0
 11
-57.995959574533629
 21
-51.655867878145287
 31
0.0
  0
LINE
  5
23A
100
AcDbEntity
  8
0
  6
CONTINUOUS
 62
               4
100
AcDbLine
 10
-57.995959574533629
 20
-51.655867878145287
 30
0.0
 11
-57.995959574533629
 21
-52.155867878145287
 31
0.0
  0
ENDBLK
  5
23B
100
AcDbEntity
  8
0
100
AcDbBlockEnd
  0
BLOCK
  5
23C
100
AcDbEntity
  8
0
100
AcDbBlockBegin
  2
EA10A6-4
 70
               0
 10
0.0
 20
0.0
 30
0.0
  3
EA10A6-4
  1

  0
LINE
  5
23D
100
AcDbEntity
  8
0
  6
PHANTOM
 62
             200
100
AcDbLine
 10
16.200000000000045
 20
-0.7980029999999942
 30
0.0
 11
16.200000000000045
 21
-8.7980029999999942
 31
0.0
  0
LINE
  5
23E
100
AcDbEntity
  8
0
  6
PHANTOM
 62
             200
100
AcDbLine
 10
14.200000000000045
 20
-0.7980029999999942
 30
0.0
 11
14.200000000000045
 21
-8.7980029999999942
 31
0.0
  0
LINE
  5
23F
100
AcDbEntity
  8
0
  6
PHANTOM
 62
             200
100
AcDbLine
 10
16.700000000000045
 20
-1.2980029999999942
 30
0.0
 11
16.700000000000045
 21
-8.2980029999999942
 31
0.0
  0
ARC
  5
240
100
AcDbEntity
  8
0
  6
PHANTOM
 62
             200
100
AcDbCircle
 10
16.200000000000045
 20
-8.2980029999999942
 30
0.0
 40
0.5
100
AcDbArc
 50
269.99999999999937
 51
0.0
  0
ARC
  5
241
100
AcDbEntity
  8
0
  6
PHANTOM
 62
             200
100
AcDbCircle
 10
16.200000000000045
 20
-1.2980029999999942
 30
0.0
 40
0.5
100
AcDbArc
 50
0.0
 51
89.999999999999815
  0
ARC
  5
242
100
AcDbEntity
  8
0
  6
PHANTOM
 62
             200
100
AcDbCircle
 10
16.200000000000045
 20
-18.898003000000003
 30
0.0
 40
0.5
100
AcDbArc
 50
0.0
 51
89.999999999999815
  0
ARC
  5
243
100
AcDbEntity
  8
0
  6
PHANTOM
 62
             200
100
AcDbCircle
 10
16.200000000000045
 20
-25.898003000000003
 30
0.0
 40
0.5
100
AcDbArc
 50
269.99999999999937
 51
0.0
  0
LINE
  5
244
100
AcDbEntity
  8
0
  6
PHANTOM
 62
             200
100
AcDbLine
 10
16.700000000000045
 20
-18.898003000000003
 30
0.0
 11
16.700000000000045
 21
-25.898003000000003
 31
0.0
  0
LINE
  5
245
100
AcDbEntity
  8
0
  6
PHANTOM
 62
             200
100
AcDbLine
 10
14.200000000000045
 20
-18.398003000000003
 30
0.0
 11
14.200000000000045
 21
-26.398003000000003
 31
0.0
  0
LINE
  5
246
100
AcDbEntity
  8
0
  6
PHANTOM
 62
             200
100
AcDbLine
 10
16.200000000000045
 20
-18.398003000000003
 30
0.0
 11
16.200000000000045
 21
-26.398003000000003
 31
0.0
  0
LINE
  5
247
100
AcDbEntity
  8
0
  6
PHANTOM
 62
             200
100
AcDbLine
 10
2.7000000000000455
 20
-8.7980029999999942
 30
0.0
 11
16.200000000000045
 21
-8.7980029999999942
 31
0.0
  0
LINE
  5
248
100
AcDbEntity
  8
0
  6
PHANTOM
 62
             200
100
AcDbLine
 10
2.7000000000000455
 20
-0.7980029999999942
 30
0.0
 11
16.200000000000045
 21
-0.7980029999999942
 31
0.0
  0
LINE
  5
249
100
AcDbEntity
  8
0
  6
CENTER
 62
               2
100
AcDbLine
 10
0.2162062056380023
 20
-4.7980029999999942
 30
0.0
 11
17.830000000000041
 21
-4.7980029999999942
 31
0.0
  0
LINE
  5
24A
100
AcDbEntity
  8
0
  6
PHANTOM
 62
             200
100
AcDbLine
 10
2.7000000000000455
 20
-26.398003000000003
 30
0.0
 11
16.200000000000045
 21
-26.398003000000003
 31
0.0
  0
LINE
  5
24B
100
AcDbEntity
  8
0
  6
PHANTOM
 62
             200
100
AcDbLine
 10
2.7000000000000455
 20
-18.398003000000003
 30
0.0
 11
16.200000000000045
 21
-18.398003000000003
 31
0.0
  0
LINE
  5
24C
100
AcDbEntity
  8
0
  6
CENTER
 62
               2
100
AcDbLine
 10
0.2162062056380023
 20
-22.398003000000003
 30
0.0
 11
17.830000000000041
 21
-22.398003000000003
 31
0.0
  0
LINE
  5
24D
100
AcDbEntity
  8
0
  6
CONTINUOUS
 62
               7
100
AcDbLine
 10
-3.2999999999999545
 20
-32.299999999999997
 30
0.0
 11
2.7000000000000455
 21
-32.299999999999997
 31
0.0
  0
LINE
  5
24E
100
AcDbEntity
  8
0
  6
CONTINUOUS
 62
               7
100
AcDbLine
 10
-6.2999999999999545
 20
-30.899999999999764
 30
0.0
 11
-6.2999999999999545
 21
-34.899999999999764
 31
0.0
  0
LINE
  5
24F
100
AcDbEntity
  8
0
  6
CONTINUOUS
 62
               7
100
AcDbLine
 10
-10.299999999999955
 20
-30.899999999999764
 30
0.0
 11
-10.299999999999955
 21
-34.899999999999764
 31
0.0
  0
LINE
  5
250
100
AcDbEntity
  8
0
  6
CONTINUOUS
 62
               7
100
AcDbLine
 10
-4.6999999999999318
 20
-30.899999999999764
 30
0.0
 11
-4.6999999999999318
 21
-34.899999999999764
 31
0.0
  0
LINE
  5
251
100
AcDbEntity
  8
0
  6
CONTINUOUS
 62
               7
100
AcDbLine
 10
-11.899999999999977
 20
-30.899999999999764
 30
0.0
 11
-11.899999999999977
 21
-34.899999999999764
 31
0.0
  0
ARC
  5
252
100
AcDbEntity
  8
0
  6
CONTINUOUS
 62
               7
100
AcDbCircle
 10
-8.2999999999999545
 20
-30.899999999999764
 30
0.0
 40
2.0
100
AcDbArc
 50
0.0
 51
179.99999999999963
  0
ARC
  5
253
100
AcDbEntity
  8
0
  6
CONTINUOUS
 62
               7
100
AcDbCircle
 10
-8.2999999999999545
 20
-30.899999999999764
 30
0.0
 40
3.6000000000000001
100
AcDbArc
 50
0.0
 51
179.99999999999963
  0
LINE
  5
254
100
AcDbEntity
  8
0
  6
CENTER
 62
               2
100
AcDbLine
 10
-9.9999999999999432
 20
-32.599999999999781
 30
0.0
 11
-6.5999999999999659
 21
-32.599999999999781
 31
0.0
  0
CIRCLE
  5
255
100
AcDbEntity
  8
0
  6
CONTINUOUS
 62
               7
100
AcDbCircle
 10
-8.2999999999999545
 20
-32.599999999999781
 30
0.0
 40
1.3000000000000012
  0
CIRCLE
  5
256
100
AcDbEntity
  8
0
  6
CONTINUOUS
 62
               7
100
AcDbCircle
 10
-8.2999999999999545
 20
-32.599999999999781
 30
0.0
 40
1.1500000000000001
  0
CIRCLE
  5
257
100
AcDbEntity
  8
0
  6
CONTINUOUS
 62
               7
100
AcDbCircle
 10
-8.2999999999999545
 20
-32.599999999999781
 30
0.0
 40
1.1000000000000001
  0
CIRCLE
  5
258
100
AcDbEntity
  8
0
  6
CONTINUOUS
 62
               7
100
AcDbCircle
 10
-8.2999999999999545
 20
-32.599999999999781
 30
0.0
 40
0.75
  0
LINE
  5
259
100
AcDbEntity
  8
0
  6
CONTINUOUS
 62
               7
100
AcDbLine
 10
-13.299999999999955
 20
-23.899999999999764
 30
0.0
 11
-13.299999999999955
 21
-34.899999999999764
 31
0.0
  0
LINE
  5
25A
100
AcDbEntity
  8
0
  6
CONTINUOUS
 62
               7
100
AcDbLine
 10
-3.2999999999999545
 20
-23.899999999999764
 30
0.0
 11
-3.2999999999999545
 21
-34.899999999999764
 31
0.0
  0
LINE
  5
25B
100
AcDbEntity
  8
0
  6
CONTINUOUS
 62
               7
100
AcDbLine
 10
-14.299999999999955
 20
2.7000000000000028
 30
0.0
 11
-13.299999999999955
 21
2.7000000000000028
 31
0.0
  0
LINE
  5
25C
100
AcDbEntity
  8
0
  6
CONTINUOUS
 62
               7
100
AcDbLine
 10
-14.299999999999955
 20
-32.243953424198381
 30
0.0
 11
-14.299999999999955
 21
2.7000000000000028
 31
0.0
  0
LINE
  5
25D
100
AcDbEntity
  8
0
  6
CONTINUOUS
 62
               7
100
AcDbLine
 10
-3.2999999999999545
 20
-23.898002861230125
 30
0.0
 11
-3.2999999999999545
 21
-20.348331338584927
 31
0.0
  0
LINE
  5
25E
100
AcDbEntity
  8
0
  6
CONTINUOUS
 62
               7
100
AcDbLine
 10
-13.299999999999955
 20
-23.898002861230125
 30
0.0
 11
-13.299999999999955
 21
-10.748331338584975
 31
0.0
  0
ARC
  5
25F
100
AcDbEntity
  8
0
  6
CONTINUOUS
 62
               7
100
AcDbCircle
 10
-11.999999999999943
 20
-9.9999998612301724
 30
0.0
 40
1.6000000000000001
100
AcDbArc
 50
269.99999999999937
 51
89.999999999999801
  0
ARC
  5
260
100
AcDbEntity
  8
0
  6
CONTINUOUS
 62
               7
100
AcDbCircle
 10
-4.5999999999999659
 20
-19.599999861230131
 30
0.0
 40
1.6000000000000001
100
AcDbArc
 50
89.999999999999815
 51
269.99999999999937
  0
LINE
  5
261
100
AcDbEntity
  8
0
  6
CONTINUOUS
 62
               7
100
AcDbLine
 10
-11.999999999999943
 20
-11.599999861230167
 30
0.0
 11
-13.299999999999955
 21
-11.599999861230167
 31
0.0
  0
LINE
  5
262
100
AcDbEntity
  8
0
  6
CONTINUOUS
 62
               7
100
AcDbLine
 10
-11.999999999999943
 20
-8.3999998612301567
 30
0.0
 11
-13.299999999999955
 21
-8.3999998612301567
 31
0.0
  0
LINE
  5
263
100
AcDbEntity
  8
0
  6
CONTINUOUS
 62
               7
100
AcDbLine
 10
-4.5999999999999659
 20
-21.199999861230125
 30
0.0
 11
-3.2999999999999545
 21
-21.199999861230125
 31
0.0
  0
LINE
  5
264
100
AcDbEntity
  8
0
  6
CONTINUOUS
 62
               7
100
AcDbLine
 10
-4.5999999999999659
 20
-17.999999861230137
 30
0.0
 11
-3.2999999999999545
 21
-17.999999861230137
 31
0.0
  0
CIRCLE
  5
265
100
AcDbEntity
  8
0
  6
CONTINUOUS
 62
               7
100
AcDbCircle
 10
-8.2999999999999545
 20
3.0000001387698774
 30
0.0
 40
0.75
  0
CIRCLE
  5
266
100
AcDbEntity
  8
0
  6
CONTINUOUS
 62
               7
100
AcDbCircle
 10
-8.2999999999999545
 20
3.0000001387698774
 30
0.0
 40
1.1000000000000001
  0
CIRCLE
  5
267
100
AcDbEntity
  8
0
  6
CONTINUOUS
 62
               7
100
AcDbCircle
 10
-8.2999999999999545
 20
3.0000001387698774
 30
0.0
 40
1.1500000000000001
  0
CIRCLE
  5
268
100
AcDbEntity
  8
0
  6
CONTINUOUS
 62
               7
100
AcDbCircle
 10
-8.2999999999999545
 20
3.0000001387698774
 30
0.0
 40
1.3000000000000012
  0
LINE
  5
269
100
AcDbEntity
  8
0
  6
CENTER
 62
               2
100
AcDbLine
 10
-6.5999999999999659
 20
3.0000001387698774
 30
0.0
 11
-9.9999999999999432
 21
3.0000001387698774
 31
0.0
  0
ARC
  5
26A
100
AcDbEntity
  8
0
  6
CONTINUOUS
 62
               7
100
AcDbCircle
 10
-8.2999999999999545
 20
1.3000001387698603
 30
0.0
 40
2.0
100
AcDbArc
 50
179.99999999999963
 51
0.0
  0
LINE
  5
26B
100
AcDbEntity
  8
0
  6
CONTINUOUS
 62
               7
100
AcDbLine
 10
-6.2999999999999545
 20
1.3000001387698603
 30
0.0
 11
-6.2999999999999545
 21
5.3000001387698603
 31
0.0
  0
LINE
  5
26C
100
AcDbEntity
  8
0
  6
CONTINUOUS
 62
               7
100
AcDbLine
 10
-10.299999999999955
 20
1.3000001387698603
 30
0.0
 11
-10.299999999999955
 21
5.3000001387698603
 31
0.0
  0
LINE
  5
26D
100
AcDbEntity
  8
0
  6
CONTINUOUS
 62
               7
100
AcDbLine
 10
-3.2999999999999545
 20
-5.6999998612301397
 30
0.0
 11
-3.2999999999999545
 21
5.3000001387698603
 31
0.0
  0
LINE
  5
26E
100
AcDbEntity
  8
0
  6
CONTINUOUS
 62
               7
100
AcDbLine
 10
-13.299999999999955
 20
-5.6999998612301397
 30
0.0
 11
-13.299999999999955
 21
5.3000001387698603
 31
0.0
  0
CIRCLE
  5
26F
100
AcDbEntity
  8
0
  6
CONTINUOUS
 62
               7
100
AcDbCircle
 10
0.0000183105469205
 20
-29.599993896484378
 30
0.0
 40
1.5499992370605469
  0
CIRCLE
  5
270
100
AcDbEntity
  8
0
  6
CONTINUOUS
 62
               7
100
AcDbCircle
 10
0.0000183105469205
 20
-0.0000030517578153
 30
0.0
 40
1.5499992370605469
  0
LINE
  5
271
100
AcDbEntity
  8
0
  6
CENTER
 62
               2
100
AcDbLine
 10
-2.5
 20
-29.599999999999994
 30
0.0
 11
2.5
 21
-29.599999999999994
 31
0.0
  0
LINE
  5
272
100
AcDbEntity
  8
0
  6
CENTER
 62
               2
100
AcDbLine
 10
-2.5
 20
0.0
 30
0.0
 11
2.5
 21
0.0
 31
0.0
  0
LINE
  5
273
100
AcDbEntity
  8
0
  6
CENTER
 62
               2
100
AcDbLine
 10
0.0
 20
-27.099999999999994
 30
0.0
 11
0.0
 21
-32.099999999999994
 31
0.0
  0
LINE
  5
274
100
AcDbEntity
  8
0
  6
CENTER
 62
               2
100
AcDbLine
 10
0.0
 20
2.5
 30
0.0
 11
0.0
 21
-2.5
 31
0.0
  0
LINE
  5
275
100
AcDbEntity
  8
0
  6
CONTINUOUS
 62
               7
100
AcDbLine
 10
-3.2999999999999545
 20
2.7000000000000028
 30
0.0
 11
2.7000000000000455
 21
2.7000000000000028
 31
0.0
  0
LINE
  5
276
100
AcDbEntity
  8
0
  6
CONTINUOUS
 62
               7
100
AcDbLine
 10
2.7000000000000455
 20
2.7000000000000028
 30
0.0
 11
2.7000000000000455
 21
-32.299999999999997
 31
0.0
  0
LINE
  5
277
100
AcDbEntity
  8
0
  6
CONTINUOUS
 62
               7
100
AcDbLine
 10
-14.299999999999955
 20
-32.299999999999997
 30
0.0
 11
-13.299999999999955
 21
-32.299999999999997
 31
0.0
  0
CIRCLE
  5
278
100
AcDbEntity
  8
0
  6
CONTINUOUS
 62
               7
100
AcDbCircle
 10
-12.0
 20
-9.9999998612301866
 30
0.0
 40
1.5
  0
LINE
  5
279
100
AcDbEntity
  8
0
  6
CONTINUOUS
 62
               7
100
AcDbLine
 10
-11.292893218813447
 20
-10.708105211801531
 30
0.0
 11
-12.707106781186553
 21
-9.2938916494284385
 31
0.0
  0
LINE
  5
27A
100
AcDbEntity
  8
0
  6
CONTINUOUS
 62
               7
100
AcDbLine
 10
-12.707106781186553
 20
-10.708105211801531
 30
0.0
 11
-11.292893218813447
 21
-9.2938916494284385
 31
0.0
  0
CIRCLE
  5
27B
100
AcDbEntity
  8
0
  6
CONTINUOUS
 62
               7
100
AcDbCircle
 10
-4.6000000000000227
 20
-19.599999861230188
 30
0.0
 40
1.5
  0
LINE
  5
27C
100
AcDbEntity
  8
0
  6
CONTINUOUS
 62
               7
100
AcDbLine
 10
-3.8928932188134695
 20
-20.308105211801532
 30
0.0
 11
-5.307106781186576
 21
-18.893891649428426
 31
0.0
  0
LINE
  5
27D
100
AcDbEntity
  8
0
  6
CONTINUOUS
 62
               7
100
AcDbLine
 10
-5.307106781186576
 20
-20.308105211801532
 30
0.0
 11
-3.8928932188134695
 21
-18.893891649428426
 31
0.0
  0
LINE
  5
27E
100
AcDbEntity
  8
0
  6
CONTINUOUS
 62
               7
100
AcDbLine
 10
-3.2999999999999545
 20
-18.851668383875435
 30
0.0
 11
-3.2999999999999545
 21
-5.6999998612301397
 31
0.0
  0
LINE
  5
27F
100
AcDbEntity
  8
0
  6
CONTINUOUS
 62
               7
100
AcDbLine
 10
-13.299999999999955
 20
-9.2516683838753977
 30
0.0
 11
-13.299999999999955
 21
-5.6999998607356588
 31
0.0
  0
ARC
  5
280
100
AcDbEntity
  8
0
  6
CONTINUOUS
 62
               7
100
AcDbCircle
 10
-8.2999999999999545
 20
1.3000001387698603
 30
0.0
 40
3.0959985693848324
100
AcDbArc
 50
179.99999999999963
 51
0.0
  0
LINE
  5
281
100
AcDbEntity
  8
0
  6
CONTINUOUS
 62
               7
100
AcDbLine
 10
-5.2040014306151079
 20
1.3000001387698603
 30
0.0
 11
-5.2040014306151079
 21
5.3000001387698603
 31
0.0
  0
LINE
  5
282
100
AcDbEntity
  8
0
  6
CONTINUOUS
 62
               7
100
AcDbLine
 10
-11.395998569384801
 20
1.3000001387698603
 30
0.0
 11
-11.395998569384801
 21
5.3000001387698603
 31
0.0
  0
LINE
  5
283
100
AcDbEntity
  8
0
  6
CONTINUOUS
 62
               7
100
AcDbLine
 10
-3.2999999999999545
 20
-5.6999998612301397
 30
0.0
 11
-13.299999999999955
 21
-5.6999998612301397
 31
0.0
  0
LINE
  5
284
100
AcDbEntity
  8
0
  6
CONTINUOUS
 62
               7
100
AcDbLine
 10
-13.299999999999955
 20
-23.899999999999764
 30
0.0
 11
-3.2999999999999545
 21
-23.899999999999764
 31
0.0
  0
LINE
  5
285
100
AcDbEntity
  8
0
  6
CONTINUOUS
 62
               4
100
AcDbLine
 10
-9.2999816894531477
 20
-73.392929270933351
 30
0.0
 11
-9.7999816894531477
 21
-73.392929270933351
 31
0.0
  0
LINE
  5
286
100
AcDbEntity
  8
0
  6
CONTINUOUS
 62
               4
100
AcDbLine
 10
-6.7999816894531477
 20
-73.392929270933351
 30
0.0
 11
-7.2999816894531477
 21
-73.392929270933351
 31
0.0
  0
ARC
  5
287
100
AcDbEntity
  8
0
  6
CONTINUOUS
 62
               4
100
AcDbCircle
 10
-12.800296847864161
 20
-35.399703152135785
 30
0.0
 40
0.4997032403068001
100
AcDbArc
 50
89.965963537146934
 51
180.03403646285233
  0
LINE
  5
288
100
AcDbEntity
  8
0
  6
CONTINUOUS
 62
               4
100
AcDbLine
 10
-3.2999999999999545
 20
-34.899999999999991
 30
0.0
 11
-13.299999999999955
 21
-34.899999999999991
 31
0.0
  0
LINE
  5
289
100
AcDbEntity
  8
0
  6
CONTINUOUS
 62
               4
100
AcDbLine
 10
-13.299999999999955
 20
-57.399999999999991
 30
0.0
 11
-13.299999999999955
 21
-34.899999999999991
 31
0.0
  0
LINE
  5
28A
100
AcDbEntity
  8
0
  6
CONTINUOUS
 62
               4
100
AcDbLine
 10
-3.3000000290891194
 20
-57.400000004269359
 30
0.0
 11
-4.5499816894531477
 21
-57.400000004269359
 31
0.0
  0
ARC
  5
28B
100
AcDbEntity
  8
0
  6
CONTINUOUS
 62
               4
100
AcDbCircle
 10
-12.504095146658187
 20
-56.800095150927532
 30
0.0
 40
0.5999048608870732
100
AcDbArc
 50
179.99091272245337
 51
270.00908727754575
  0
ARC
  5
28C
100
AcDbEntity
  8
0
  6
CONTINUOUS
 62
               4
100
AcDbCircle
 10
-3.7999999999999545
 20
-56.800000004269336
 30
0.0
 40
0.5
100
AcDbArc
 50
269.99999999999937
 51
0.0
  0
LINE
  5
28D
100
AcDbEntity
  8
0
  6
CONTINUOUS
 62
               4
100
AcDbLine
 10
-4.5499816894531477
 20
-57.300000004269336
 30
0.0
 11
-3.7999999999999545
 21
-57.300000004269336
 31
0.0
  0
LINE
  5
28E
100
AcDbEntity
  8
0
  6
CONTINUOUS
 62
               4
100
AcDbLine
 10
-13.299999999999955
 20
-55.800000004269336
 30
0.0
 11
-12.049981689453148
 21
-55.800000004269336
 31
0.0
  0
LINE
  5
28F
100
AcDbEntity
  8
0
  6
CONTINUOUS
 62
               4
100
AcDbLine
 10
-13.299999999999955
 20
-57.400000004269359
 30
0.0
 11
-12.049981689453148
 21
-57.400000004269359
 31
0.0
  0
LINE
  5
290
100
AcDbEntity
  8
0
  6
CONTINUOUS
 62
               4
100
AcDbLine
 10
-13.299999999999955
 20
-56.800000004269336
 30
0.0
 11
-12.049981689453148
 21
-56.800000004269336
 31
0.0
  0
LINE
  5
291
100
AcDbEntity
  8
0
  6
CONTINUOUS
 62
               4
100
AcDbLine
 10
-3.2999999999999545
 20
-57.400000004269359
 30
0.0
 11
-3.2999999999999545
 21
-34.899999999999991
 31
0.0
  0
LINE
  5
292
100
AcDbEntity
  8
0
  6
CONTINUOUS
 62
               4
100
AcDbLine
 10
-3.2999816894531477
 20
-54.399999999999878
 30
0.0
 11
-3.7999816894531477
 21
-54.399999999999878
 31
0.0
  0
LINE
  5
293
100
AcDbEntity
  8
0
  6
CONTINUOUS
 62
               4
100
AcDbLine
 10
-3.7999816894531477
 20
-54.399999999999878
 30
0.0
 11
-5.5499816894531477
 21
-54.399999999999878
 31
0.0
  0
LINE
  5
294
100
AcDbEntity
  8
0
  6
CONTINUOUS
 62
               4
100
AcDbLine
 10
-13.06998168945313
 20
-53.899999999999878
 30
0.0
 11
-13.06998168945313
 21
-37.591919190653826
 31
0.0
  0
LINE
  5
295
100
AcDbEntity
  8
0
  6
CONTINUOUS
 62
               4
100
AcDbLine
 10
-3.5299816894530522
 20
-53.899999999999878
 30
0.0
 11
-3.5299816894530522
 21
-37.591919190673124
 31
0.0
  0
LINE
  5
296
100
AcDbEntity
  8
0
  6
CONTINUOUS
 62
               4
100
AcDbLine
 10
-4.0299816894530522
 20
-37.091919190669401
 30
0.0
 11
-12.56998168945313
 21
-37.091919190669401
 31
0.0
  0
LINE
  5
297
100
AcDbEntity
  8
0
  6
CONTINUOUS
 62
               4
100
AcDbLine
 10
-12.799981689453148
 20
-54.399999999999878
 30
0.0
 11
-13.299981689453148
 21
-54.399999999999878
 31
0.0
  0
LINE
  5
298
100
AcDbEntity
  8
0
  6
CONTINUOUS
 62
               4
100
AcDbLine
 10
-5.5499816894531477
 20
-46.399999999999878
 30
0.0
 11
-11.049981689453148
 21
-46.399999999999878
 31
0.0
  0
LINE
  5
299
100
AcDbEntity
  8
0
  6
CONTINUOUS
 62
               4
100
AcDbLine
 10
-11.049981689453148
 20
-54.399999999999878
 30
0.0
 11
-12.799981689453148
 21
-54.399999999999878
 31
0.0
  0
LINE
  5
29A
100
AcDbEntity
  8
0
  6
CONTINUOUS
 62
               4
100
AcDbLine
 10
-5.5499816894531477
 20
-62.399999999999878
 30
0.0
 11
-5.5499816894531477
 21
-46.399999999999878
 31
0.0
  0
LINE
  5
29B
100
AcDbEntity
  8
0
  6
CONTINUOUS
 62
               4
100
AcDbLine
 10
-4.5499816894531477
 20
-62.399999999999878
 30
0.0
 11
-4.5499816894531477
 21
-54.399999999999878
 31
0.0
  0
LINE
  5
29C
100
AcDbEntity
  8
0
  6
CONTINUOUS
 62
               4
100
AcDbLine
 10
-5.5499816894531477
 20
-60.899999999999878
 30
0.0
 11
-11.049981689453148
 21
-60.899999999999878
 31
0.0
  0
LINE
  5
29D
100
AcDbEntity
  8
0
  6
CONTINUOUS
 62
               4
100
AcDbLine
 10
-11.049981689453148
 20
-62.399999999999878
 30
0.0
 11
-11.049981689453148
 21
-46.399999999999878
 31
0.0
  0
LINE
  5
29E
100
AcDbEntity
  8
0
  6
CONTINUOUS
 62
               4
100
AcDbLine
 10
-12.049981689453148
 20
-62.399999999999878
 30
0.0
 11
-12.049981689453148
 21
-54.399999999999878
 31
0.0
  0
LINE
  5
29F
100
AcDbEntity
  8
0
  6
CONTINUOUS
 62
               4
100
AcDbLine
 10
-4.5499816894531477
 20
-62.399999999999878
 30
0.0
 11
-12.049981689453148
 21
-62.399999999999878
 31
0.0
  0
ARC
  5
2A0
100
AcDbEntity
  8
0
  6
CONTINUOUS
 62
               4
100
AcDbCircle
 10
-4.0311699733583737
 20
-37.593107474574666
 30
0.0
 40
0.5011896925741138
100
AcDbArc
 50
0.1358442071527786
 51
89.864155792846745
  0
ARC
  5
2A1
100
AcDbEntity
  8
0
  6
CONTINUOUS
 62
               4
100
AcDbCircle
 10
-12.568778183341351
 20
-37.593122696781151
 30
0.0
 40
0.5012049510586274
100
AcDbArc
 50
90.137580219312724
 51
179.86241978068688
  0
ARC
  5
2A2
100
AcDbEntity
  8
0
  6
CONTINUOUS
 62
               4
100
AcDbCircle
 10
-12.569979247973833
 20
-53.899997558520582
 30
0.0
 40
0.500002441485227
100
AcDbArc
 50
180.00027977154909
 51
269.99972022845009
  0
ARC
  5
2A3
100
AcDbEntity
  8
0
  6
CONTINUOUS
 62
               4
100
AcDbCircle
 10
-4.0299688721153188
 20
-53.900012817337611
 30
0.0
 40
0.4999871828265524
100
AcDbArc
 50
269.99853120363389
 51
0.0014687963652481
  0
ARC
  5
2A4
100
AcDbEntity
  8
0
  6
CONTINUOUS
 62
               4
100
AcDbCircle
 10
-3.7999710083216769
 20
-53.900010681131235
 30
0.0
 40
0.4999893189827007
100
AcDbArc
 50
269.99877600635432
 51
0.0012239936446972
  0
ARC
  5
2A5
100
AcDbEntity
  8
0
  6
CONTINUOUS
 62
               4
100
AcDbCircle
 10
-12.799977111702333
 20
-53.899995422249063
 30
0.0
 40
0.5000045777717621
100
AcDbArc
 50
180.00052456679882
 51
269.99947543320042
  0
ARC
  5
2A6
100
AcDbEntity
  8
0
  6
CONTINUOUS
 62
               4
100
AcDbCircle
 10
-3.7999771119305024
 20
-35.399995422477232
 30
0.0
 40
0.4999954224983215
100
AcDbArc
 50
359.99947544974214
 51
90.000524550256955
  0
ARC
  5
2A7
100
AcDbEntity
  8
0
  6
CONTINUOUS
 62
               4
100
AcDbCircle
 10
-12.79997100827984
 20
-35.400010681173185
 30
0.0
 40
0.5000106812873828
100
AcDbArc
 50
90.001223946153672
 51
179.99877605384583
  0
LINE
  5
2A8
100
AcDbEntity
  8
0
  6
CONTINUOUS
 62
               4
100
AcDbLine
 10
-10.199981689453125
 20
-69.89292927293333
 30
0.0
 11
-10.199981689453125
 21
-66.399999999999878
 31
0.0
  0
LINE
  5
2A9
100
AcDbEntity
  8
0
  6
CONTINUOUS
 62
               4
100
AcDbLine
 10
-8.8999816894530568
 20
-69.89292927293333
 30
0.0
 11
-8.8999816894530568
 21
-66.749999999999901
 31
0.0
  0
LINE
  5
2AA
100
AcDbEntity
  8
0
  6
CONTINUOUS
 62
               4
100
AcDbLine
 10
-7.2999816894531477
 20
-73.392929270933351
 30
0.0
 11
-7.2999816894531477
 21
-69.89292927293333
 31
0.0
  0
LINE
  5
2AB
100
AcDbEntity
  8
0
  6
CONTINUOUS
 62
               4
100
AcDbLine
 10
-6.7999816894531477
 20
-73.392929270933351
 30
0.0
 11
-6.7999816894531477
 21
-69.89292927293333
 31
0.0
  0
LINE
  5
2AC
100
AcDbEntity
  8
0
  6
CONTINUOUS
 62
               4
100
AcDbLine
 10
-10.199981689453125
 20
-65.369999999999848
 30
0.0
 11
-10.199981689453125
 21
-62.399999999999878
 31
0.0
  0
LINE
  5
2AD
100
AcDbEntity
  8
0
  6
CONTINUOUS
 62
               4
100
AcDbLine
 10
-8.8999816894530568
 20
-65.719999999999871
 30
0.0
 11
-8.8999816894530568
 21
-62.399999999999878
 31
0.0
  0
LINE
  5
2AE
100
AcDbEntity
  8
0
  6
CONTINUOUS
 62
               4
100
AcDbLine
 10
-6.3999816894530568
 20
-66.389999999999887
 30
0.0
 11
-6.3999816894530568
 21
-62.399999999999878
 31
0.0
  0
LINE
  5
2AF
100
AcDbEntity
  8
0
  6
CONTINUOUS
 62
               4
100
AcDbLine
 10
-7.699981689453125
 20
-69.89292927293333
 30
0.0
 11
-7.699981689453125
 21
-67.069999999999894
 31
0.0
  0
LINE
  5
2B0
100
AcDbEntity
  8
0
  6
CONTINUOUS
 62
               4
100
AcDbLine
 10
-6.3999816894530568
 20
-69.89292927293333
 30
0.0
 11
-6.3999816894530568
 21
-67.41999999999986
 31
0.0
  0
LINE
  5
2B1
100
AcDbEntity
  8
0
  6
CONTINUOUS
 62
               4
100
AcDbLine
 10
-9.7999816894531477
 20
-73.392929270933351
 30
0.0
 11
-9.7999816894531477
 21
-69.89292927293333
 31
0.0
  0
LINE
  5
2B2
100
AcDbEntity
  8
0
  6
CONTINUOUS
 62
               4
100
AcDbLine
 10
-9.2999816894531477
 20
-73.392929270933351
 30
0.0
 11
-9.2999816894531477
 21
-69.89292927293333
 31
0.0
  0
LINE
  5
2B3
100
AcDbEntity
  8
0
  6
CONTINUOUS
 62
               4
100
AcDbLine
 10
-7.699981689453125
 20
-66.039999999999864
 30
0.0
 11
-7.699981689453125
 21
-62.399999999999878
 31
0.0
  0
LINE
  5
2B4
100
AcDbEntity
  8
0
  6
CONTINUOUS
 62
               4
100
AcDbLine
 10
-6.3999816894530568
 20
-69.89292927293333
 30
0.0
 11
-7.699981689453125
 21
-69.89292927293333
 31
0.0
  0
LINE
  5
2B5
100
AcDbEntity
  8
0
  6
CONTINUOUS
 62
             200
100
AcDbLine
 10
-4.5499816894531477
 20
-66.879999999999896
 30
0.0
 11
-12.049981689453148
 21
-64.869999999999848
 31
0.0
  0
LINE
  5
2B6
100
AcDbEntity
  8
0
  6
CONTINUOUS
 62
             200
100
AcDbLine
 10
-4.5499816894531477
 20
-67.91999999999986
 30
0.0
 11
-12.049981689453148
 21
-65.909999999999869
 31
0.0
  0
LINE
  5
2B7
100
AcDbEntity
  8
0
  6
CONTINUOUS
 62
               4
100
AcDbLine
 10
-8.8999816894530568
 20
-69.89292927293333
 30
0.0
 11
-10.199981689453125
 21
-69.89292927293333
 31
0.0
  0
LINE
  5
2B8
100
AcDbEntity
  8
0
  6
PHANTOM
 62
             200
100
AcDbLine
 10
-9.7999816894531477
 20
-42.399999999999878
 30
0.0
 11
-9.7999816894531477
 21
-40.399999999999878
 31
0.0
  0
LINE
  5
2B9
100
AcDbEntity
  8
0
  6
PHANTOM
 62
             200
100
AcDbLine
 10
-6.7999816894531477
 20
-42.399999999999878
 30
0.0
 11
-6.7999816894531477
 21
-40.399999999999878
 31
0.0
  0
LINE
  5
2BA
100
AcDbEntity
  8
0
  6
PHANTOM
 62
             200
100
AcDbLine
 10
-6.7999816894531477
 20
-40.399999999999878
 30
0.0
 11
-9.7999816894531477
 21
-40.399999999999878
 31
0.0
  0
LINE
  5
2BB
100
AcDbEntity
  8
0
  6
PHANTOM
 62
             200
100
AcDbLine
 10
-6.7999816894531477
 20
-42.399999999999878
 30
0.0
 11
-9.7999816894531477
 21
-42.399999999999878
 31
0.0
  0
LINE
  5
2BC
100
AcDbEntity
  8
0
  6
CONTINUOUS
 62
               4
100
AcDbLine
 10
-7.300018310546875
 20
43.792929270933357
 30
0.0
 11
-6.800018310546875
 21
43.792929270933357
 31
0.0
  0
LINE
  5
2BD
100
AcDbEntity
  8
0
  6
CONTINUOUS
 62
               4
100
AcDbLine
 10
-9.800018310546875
 20
43.792929270933357
 30
0.0
 11
-9.300018310546875
 21
43.792929270933357
 31
0.0
  0
ARC
  5
2BE
100
AcDbEntity
  8
0
  6
CONTINUOUS
 62
               4
100
AcDbCircle
 10
-3.7997031521357485
 20
5.7997031521357911
 30
0.0
 40
0.4997032403068001
100
AcDbArc
 50
269.96596353714654
 51
0.0340364628527164
  0
LINE
  5
2BF
100
AcDbEntity
  8
0
  6
CONTINUOUS
 62
               4
100
AcDbLine
 10
-13.299999999999955
 20
5.2999999999999972
 30
0.0
 11
-3.2999999999999545
 21
5.2999999999999972
 31
0.0
  0
LINE
  5
2C0
100
AcDbEntity
  8
0
  6
CONTINUOUS
 62
               4
100
AcDbLine
 10
-3.2999999999999545
 20
27.799999999999997
 30
0.0
 11
-3.2999999999999545
 21
5.2999999999999972
 31
0.0
  0
LINE
  5
2C1
100
AcDbEntity
  8
0
  6
CONTINUOUS
 62
               4
100
AcDbLine
 10
-13.29999997091079
 20
27.800000004269364
 30
0.0
 11
-12.050018310546875
 21
27.800000004269364
 31
0.0
  0
ARC
  5
2C2
100
AcDbEntity
  8
0
  6
CONTINUOUS
 62
               4
100
AcDbCircle
 10
-4.0959048533418354
 20
27.200095150927538
 30
0.0
 40
0.5999048608870732
100
AcDbArc
 50
359.99091272245295
 51
90.009087277546172
  0
ARC
  5
2C3
100
AcDbEntity
  8
0
  6
CONTINUOUS
 62
               4
100
AcDbCircle
 10
-12.799999999999955
 20
27.200000004269342
 30
0.0
 40
0.5
100
AcDbArc
 50
89.999999999999815
 51
179.99999999999963
  0
LINE
  5
2C4
100
AcDbEntity
  8
0
  6
CONTINUOUS
 62
               4
100
AcDbLine
 10
-12.050018310546875
 20
27.700000004269342
 30
0.0
 11
-12.799999999999955
 21
27.700000004269342
 31
0.0
  0
LINE
  5
2C5
100
AcDbEntity
  8
0
  6
CONTINUOUS
 62
               4
100
AcDbLine
 10
-3.2999999999999545
 20
26.200000004269342
 30
0.0
 11
-4.550018310546875
 21
26.200000004269342
 31
0.0
  0
LINE
  5
2C6
100
AcDbEntity
  8
0
  6
CONTINUOUS
 62
               4
100
AcDbLine
 10
-3.2999999999999545
 20
27.800000004269364
 30
0.0
 11
-4.550018310546875
 21
27.800000004269364
 31
0.0
  0
LINE
  5
2C7
100
AcDbEntity
  8
0
  6
CONTINUOUS
 62
               4
100
AcDbLine
 10
-3.2999999999999545
 20
27.200000004269342
 30
0.0
 11
-4.550018310546875
 21
27.200000004269342
 31
0.0
  0
LINE
  5
2C8
100
AcDbEntity
  8
0
  6
CONTINUOUS
 62
               4
100
AcDbLine
 10
-13.299999999999955
 20
27.800000004269364
 30
0.0
 11
-13.299999999999955
 21
5.2999999999999972
 31
0.0
  0
LINE
  5
2C9
100
AcDbEntity
  8
0
  6
CONTINUOUS
 62
               4
100
AcDbLine
 10
-13.300018310546875
 20
24.799999999999883
 30
0.0
 11
-12.800018310546875
 21
24.799999999999883
 31
0.0
  0
LINE
  5
2CA
100
AcDbEntity
  8
0
  6
CONTINUOUS
 62
               4
100
AcDbLine
 10
-12.800018310546875
 20
24.799999999999883
 30
0.0
 11
-11.050018310546875
 21
24.799999999999883
 31
0.0
  0
LINE
  5
2CB
100
AcDbEntity
  8
0
  6
CONTINUOUS
 62
               4
100
AcDbLine
 10
-3.5300183105468932
 20
24.299999999999883
 30
0.0
 11
-3.5300183105468932
 21
7.9919191906538316
 31
0.0
  0
LINE
  5
2CC
100
AcDbEntity
  8
0
  6
CONTINUOUS
 62
               4
100
AcDbLine
 10
-13.070018310546857
 20
24.299999999999883
 30
0.0
 11
-13.070018310546857
 21
7.9919191906731299
 31
0.0
  0
LINE
  5
2CD
100
AcDbEntity
  8
0
  6
CONTINUOUS
 62
               4
100
AcDbLine
 10
-12.570018310546857
 20
7.4919191906694067
 30
0.0
 11
-4.0300183105468932
 21
7.4919191906694067
 31
0.0
  0
LINE
  5
2CE
100
AcDbEntity
  8
0
  6
CONTINUOUS
 62
               4
100
AcDbLine
 10
-3.800018310546875
 20
24.799999999999883
 30
0.0
 11
-3.300018310546875
 21
24.799999999999883
 31
0.0
  0
LINE
  5
2CF
100
AcDbEntity
  8
0
  6
CONTINUOUS
 62
               4
100
AcDbLine
 10
-11.050018310546875
 20
16.799999999999883
 30
0.0
 11
-5.550018310546875
 21
16.799999999999883
 31
0.0
  0
LINE
  5
2D0
100
AcDbEntity
  8
0
  6
CONTINUOUS
 62
               4
100
AcDbLine
 10
-5.550018310546875
 20
24.799999999999883
 30
0.0
 11
-3.800018310546875
 21
24.799999999999883
 31
0.0
  0
LINE
  5
2D1
100
AcDbEntity
  8
0
  6
CONTINUOUS
 62
               4
100
AcDbLine
 10
-11.050018310546875
 20
32.799999999999883
 30
0.0
 11
-11.050018310546875
 21
16.799999999999883
 31
0.0
  0
LINE
  5
2D2
100
AcDbEntity
  8
0
  6
CONTINUOUS
 62
               4
100
AcDbLine
 10
-12.050018310546875
 20
32.799999999999883
 30
0.0
 11
-12.050018310546875
 21
24.799999999999883
 31
0.0
  0
LINE
  5
2D3
100
AcDbEntity
  8
0
  6
CONTINUOUS
 62
               4
100
AcDbLine
 10
-11.050018310546875
 20
31.299999999999883
 30
0.0
 11
-5.550018310546875
 21
31.299999999999883
 31
0.0
  0
LINE
  5
2D4
100
AcDbEntity
  8
0
  6
CONTINUOUS
 62
               4
100
AcDbLine
 10
-5.550018310546875
 20
32.799999999999883
 30
0.0
 11
-5.550018310546875
 21
16.799999999999883
 31
0.0
  0
LINE
  5
2D5
100
AcDbEntity
  8
0
  6
CONTINUOUS
 62
               4
100
AcDbLine
 10
-4.550018310546875
 20
32.799999999999883
 30
0.0
 11
-4.550018310546875
 21
24.799999999999883
 31
0.0
  0
LINE
  5
2D6
100
AcDbEntity
  8
0
  6
CONTINUOUS
 62
               4
100
AcDbLine
 10
-12.050018310546875
 20
32.799999999999883
 30
0.0
 11
-4.550018310546875
 21
32.799999999999883
 31
0.0
  0
ARC
  5
2D7
100
AcDbEntity
  8
0
  6
CONTINUOUS
 62
               4
100
AcDbCircle
 10
-12.568830026641649
 20
7.9931074745746713
 30
0.0
 40
0.5011896925741138
100
AcDbArc
 50
180.13584420715239
 51
269.86415579284636
  0
ARC
  5
2D8
100
AcDbEntity
  8
0
  6
CONTINUOUS
 62
               4
100
AcDbCircle
 10
-4.0312218166585581
 20
7.9931226967811568
 30
0.0
 40
0.5012049510586274
100
AcDbArc
 50
270.13758021931233
 51
359.86241978068648
  0
ARC
  5
2D9
100
AcDbEntity
  8
0
  6
CONTINUOUS
 62
               4
100
AcDbCircle
 10
-4.0300207520260756
 20
24.299997558520587
 30
0.0
 40
0.500002441485227
100
AcDbArc
 50
0.0002797715494944
 51
89.999720228450514
  0
ARC
  5
2DA
100
AcDbEntity
  8
0
  6
CONTINUOUS
 62
               4
100
AcDbCircle
 10
-12.57003112788459
 20
24.300012817337617
 30
0.0
 40
0.4999871828265524
100
AcDbArc
 50
89.998531203634272
 51
180.00146879636483
  0
ARC
  5
2DB
100
AcDbEntity
  8
0
  6
CONTINUOUS
 62
               4
100
AcDbCircle
 10
-12.800028991678232
 20
24.300010681131241
 30
0.0
 40
0.4999893189827007
100
AcDbArc
 50
89.998776006354774
 51
180.00122399364432
  0
ARC
  5
2DC
100
AcDbEntity
  8
0
  6
CONTINUOUS
 62
               4
100
AcDbCircle
 10
-3.8000228882976899
 20
24.299995422249069
 30
0.0
 40
0.5000045777717621
100
AcDbArc
 50
0.0005245667992071
 51
89.9994754332008
  0
ARC
  5
2DD
100
AcDbEntity
  8
0
  6
CONTINUOUS
 62
               4
100
AcDbCircle
 10
-12.80002288806952
 20
5.7999954224772381
 30
0.0
 40
0.4999954224983215
100
AcDbArc
 50
179.99947544974256
 51
270.00052455025656
  0
ARC
  5
2DE
100
AcDbEntity
  8
0
  6
CONTINUOUS
 62
               4
100
AcDbCircle
 10
-3.8000289917201826
 20
5.8000106811731911
 30
0.0
 40
0.5000106812873828
100
AcDbArc
 50
270.00122394615329
 51
359.9987760538454
  0
LINE
  5
2DF
100
AcDbEntity
  8
0
  6
CONTINUOUS
 62
               4
100
AcDbLine
 10
-6.4000183105468977
 20
40.292929272933335
 30
0.0
 11
-6.4000183105468977
 21
36.799999999999883
 31
0.0
  0
LINE
  5
2E0
100
AcDbEntity
  8
0
  6
CONTINUOUS
 62
               4
100
AcDbLine
 10
-7.7000183105468523
 20
40.292929272933335
 30
0.0
 11
-7.7000183105468523
 21
37.149999999999906
 31
0.0
  0
LINE
  5
2E1
100
AcDbEntity
  8
0
  6
CONTINUOUS
 62
               4
100
AcDbLine
 10
-9.300018310546875
 20
43.792929270933357
 30
0.0
 11
-9.300018310546875
 21
40.292929272933335
 31
0.0
  0
LINE
  5
2E2
100
AcDbEntity
  8
0
  6
CONTINUOUS
 62
               4
100
AcDbLine
 10
-9.800018310546875
 20
43.792929270933357
 30
0.0
 11
-9.800018310546875
 21
40.292929272933335
 31
0.0
  0
LINE
  5
2E3
100
AcDbEntity
  8
0
  6
CONTINUOUS
 62
               4
100
AcDbLine
 10
-6.4000183105468977
 20
35.769999999999854
 30
0.0
 11
-6.4000183105468977
 21
32.799999999999883
 31
0.0
  0
LINE
  5
2E4
100
AcDbEntity
  8
0
  6
CONTINUOUS
 62
               4
100
AcDbLine
 10
-7.7000183105468523
 20
36.119999999999877
 30
0.0
 11
-7.7000183105468523
 21
32.799999999999883
 31
0.0
  0
LINE
  5
2E5
100
AcDbEntity
  8
0
  6
CONTINUOUS
 62
               4
100
AcDbLine
 10
-10.200018310546852
 20
36.789999999999893
 30
0.0
 11
-10.200018310546852
 21
32.799999999999883
 31
0.0
  0
LINE
  5
2E6
100
AcDbEntity
  8
0
  6
CONTINUOUS
 62
               4
100
AcDbLine
 10
-8.9000183105468977
 20
40.292929272933335
 30
0.0
 11
-8.9000183105468977
 21
37.469999999999899
 31
0.0
  0
LINE
  5
2E7
100
AcDbEntity
  8
0
  6
CONTINUOUS
 62
               4
100
AcDbLine
 10
-10.200018310546852
 20
40.292929272933335
 30
0.0
 11
-10.200018310546852
 21
37.819999999999865
 31
0.0
  0
LINE
  5
2E8
100
AcDbEntity
  8
0
  6
CONTINUOUS
 62
               4
100
AcDbLine
 10
-6.800018310546875
 20
43.792929270933357
 30
0.0
 11
-6.800018310546875
 21
40.292929272933335
 31
0.0
  0
LINE
  5
2E9
100
AcDbEntity
  8
0
  6
CONTINUOUS
 62
               4
100
AcDbLine
 10
-7.300018310546875
 20
43.792929270933357
 30
0.0
 11
-7.300018310546875
 21
40.292929272933335
 31
0.0
  0
LINE
  5
2EA
100
AcDbEntity
  8
0
  6
CONTINUOUS
 62
               4
100
AcDbLine
 10
-8.9000183105468977
 20
36.43999999999987
 30
0.0
 11
-8.9000183105468977
 21
32.799999999999883
 31
0.0
  0
LINE
  5
2EB
100
AcDbEntity
  8
0
  6
CONTINUOUS
 62
               4
100
AcDbLine
 10
-10.200018310546852
 20
40.292929272933335
 30
0.0
 11
-8.9000183105468977
 21
40.292929272933335
 31
0.0
  0
LINE
  5
2EC
100
AcDbEntity
  8
0
  6
CONTINUOUS
 62
             200
100
AcDbLine
 10
-12.050018310546875
 20
37.279999999999902
 30
0.0
 11
-4.550018310546875
 21
35.269999999999854
 31
0.0
  0
LINE
  5
2ED
100
AcDbEntity
  8
0
  6
CONTINUOUS
 62
             200
100
AcDbLine
 10
-12.050018310546875
 20
38.319999999999865
 30
0.0
 11
-4.550018310546875
 21
36.309999999999874
 31
0.0
  0
LINE
  5
2EE
100
AcDbEntity
  8
0
  6
CONTINUOUS
 62
               4
100
AcDbLine
 10
-7.7000183105468523
 20
40.292929272933335
 30
0.0
 11
-6.4000183105468977
 21
40.292929272933335
 31
0.0
  0
LINE
  5
2EF
100
AcDbEntity
  8
0
  6
PHANTOM
 62
             200
100
AcDbLine
 10
-6.800018310546875
 20
12.799999999999883
 30
0.0
 11
-6.800018310546875
 21
10.799999999999883
 31
0.0
  0
LINE
  5
2F0
100
AcDbEntity
  8
0
  6
PHANTOM
 62
             200
100
AcDbLine
 10
-9.800018310546875
 20
12.799999999999883
 30
0.0
 11
-9.800018310546875
 21
10.799999999999883
 31
0.0
  0
LINE
  5
2F1
100
AcDbEntity
  8
0
  6
PHANTOM
 62
             200
100
AcDbLine
 10
-9.800018310546875
 20
10.799999999999883
 30
0.0
 11
-6.800018310546875
 21
10.799999999999883
 31
0.0
  0
LINE
  5
2F2
100
AcDbEntity
  8
0
  6
PHANTOM
 62
             200
100
AcDbLine
 10
-9.800018310546875
 20
12.799999999999883
 30
0.0
 11
-6.800018310546875
 21
12.799999999999883
 31
0.0
  0
LINE
  5
2F3
100
AcDbEntity
  8
0
  6
CENTER
 62
               2
100
AcDbLine
 10
-8.2999999999999545
 20
-63.269683056948352
 30
0.0
 11
-8.2999999999999545
 21
33.669683056948358
 31
0.0
  0
ENDBLK
  5
2F4
100
AcDbEntity
  8
0
100
AcDbBlockEnd
  0
BLOCK
  5
2F5
100
AcDbEntity
  8
0
100
AcDbBlockBegin
  2
EA10A6-5
 70
               0
 10
0.0
 20
0.0
 30
0.0
  3
EA10A6-5
  1

  0
LINE
  5
2F6
100
AcDbEntity
  8
0
  6
CONTINUOUS
 62
               7
100
AcDbLine
 10
32.100000013518127
 20
-0.7000000000000028
 30
0.0
 11
32.100000013518127
 21
5.2999999999999261
 31
0.0
  0
LINE
  5
2F7
100
AcDbEntity
  8
0
  6
CONTINUOUS
 62
               7
100
AcDbLine
 10
15.999999971426575
 20
-30.100006103515625
 30
0.0
 11
17.000000013518104
 21
-30.100006103515625
 31
0.0
  0
LINE
  5
2F8
100
AcDbEntity
  8
0
  6
CONTINUOUS
 62
               7
100
AcDbLine
 10
15.999999971426575
 20
0.4999938964843835
 30
0.0
 11
17.000000013518104
 21
0.4999938964843835
 31
0.0
  0
LINE
  5
2F9
100
AcDbEntity
  8
0
  6
CENTER
 62
               2
100
AcDbLine
 10
-2.0
 20
-29.599999999999994
 30
0.0
 11
2.0
 21
-29.599999999999994
 31
0.0
  0
LINE
  5
2FA
100
AcDbEntity
  8
0
  6
CENTER
 62
               2
100
AcDbLine
 10
-2.0
 20
0.0
 30
0.0
 11
2.0
 21
0.0
 31
0.0
  0
LINE
  5
2FB
100
AcDbEntity
  8
0
  6
CONTINUOUS
 62
               7
100
AcDbLine
 10
31.000000013518161
 20
-27.804999999999978
 30
0.0
 11
32.100000013518127
 21
-28.899999999999991
 31
0.0
  0
LINE
  5
2FC
100
AcDbEntity
  8
0
  6
CONTINUOUS
 62
               7
100
AcDbLine
 10
32.548000013518106
 20
-33.700000000000031
 30
0.0
 11
32.100000013518127
 21
-33.700000000000017
 31
0.0
  0
LINE
  5
2FD
100
AcDbEntity
  8
0
  6
CONTINUOUS
 62
               7
100
AcDbLine
 10
32.100000013518127
 20
-28.899999999999991
 30
0.0
 11
32.100000013518127
 21
-34.89999999999992
 31
0.0
  0
LINE
  5
2FE
100
AcDbEntity
  8
0
  6
CONTINUOUS
 62
               7
100
AcDbLine
 10
32.548000013518106
 20
-31.499999999999986
 30
0.0
 11
32.548000013518106
 21
-33.700000000000031
 31
0.0
  0
LINE
  5
2FF
100
AcDbEntity
  8
0
  6
CONTINUOUS
 62
               7
100
AcDbLine
 10
31.000000013518161
 20
-34.89999999999992
 30
0.0
 11
31.000000013518161
 21
-23.904999999999987
 31
0.0
  0
LINE
  5
300
100
AcDbEntity
  8
0
  6
CONTINUOUS
 62
               7
100
AcDbLine
 10
30.0
 20
-11.594001430615208
 30
0.0
 11
31.0
 21
-11.594001430615208
 31
0.0
  0
LINE
  5
301
100
AcDbEntity
  8
0
  6
CONTINUOUS
 62
               7
100
AcDbLine
 10
30.0
 20
-8.3940014306151909
 30
0.0
 11
31.0
 21
-8.3940014306151909
 31
0.0
  0
LINE
  5
302
100
AcDbEntity
  8
0
  6
CONTINUOUS
 62
               7
100
AcDbLine
 10
32.548000013518106
 20
1.8999999999999915
 30
0.0
 11
32.100000013518127
 21
1.8999999999999915
 31
0.0
  0
LINE
  5
303
100
AcDbEntity
  8
0
  6
CONTINUOUS
 62
               7
100
AcDbLine
 10
32.548000013518106
 20
4.1000000000000369
 30
0.0
 11
32.100000013518127
 21
4.1000000000000227
 31
0.0
  0
LINE
  5
304
100
AcDbEntity
  8
0
  6
CONTINUOUS
 62
               7
100
AcDbLine
 10
32.548000013518106
 20
1.8999999999999915
 30
0.0
 11
32.548000013518106
 21
4.1000000000000369
 31
0.0
  0
LINE
  5
305
100
AcDbEntity
  8
0
  6
CONTINUOUS
 62
               7
100
AcDbLine
 10
31.000000013518161
 20
5.2999999999999261
 30
0.0
 11
31.000000013518161
 21
-5.6950000000000074
 31
0.0
  0
LINE
  5
306
100
AcDbEntity
  8
0
  6
CONTINUOUS
 62
               7
100
AcDbLine
 10
31.000000013518161
 20
-1.7950000000000159
 30
0.0
 11
32.100000013518127
 21
-0.7000000000000028
 31
0.0
  0
CIRCLE
  5
307
100
AcDbEntity
  8
0
  6
CONTINUOUS
 62
               2
100
AcDbCircle
 10
4.9999816894531364
 20
-12.300006103515621
 30
0.0
 40
2.5
  0
CIRCLE
  5
308
100
AcDbEntity
  8
0
  6
CONTINUOUS
 62
               2
100
AcDbCircle
 10
10.999996948242199
 20
-20.000003051757815
 30
0.0
 40
2.5
  0
CIRCLE
  5
309
100
AcDbEntity
  8
0
  6
CONTINUOUS
 62
               7
100
AcDbCircle
 10
10.999996948242199
 20
-20.000003051757815
 30
0.0
 40
2.0669994354248047
  0
CIRCLE
  5
30A
100
AcDbEntity
  8
0
  6
CONTINUOUS
 62
               7
100
AcDbCircle
 10
4.9999816894531364
 20
-12.300006103515621
 30
0.0
 40
2.0669994354248047
  0
LINE
  5
30B
100
AcDbEntity
  8
0
  6
CENTER
 62
               2
100
AcDbLine
 10
1.5
 20
-12.299999999999997
 30
0.0
 11
8.5
 21
-12.299999999999997
 31
0.0
  0
LINE
  5
30C
100
AcDbEntity
  8
0
  6
CENTER
 62
               2
100
AcDbLine
 10
5.0
 20
-8.7999999999999972
 30
0.0
 11
5.0
 21
-15.799999999999997
 31
0.0
  0
LINE
  5
30D
100
AcDbEntity
  8
0
  6
CENTER
 62
               2
100
AcDbLine
 10
11.0
 20
-16.5
 30
0.0
 11
11.0
 21
-23.499999999999986
 31
0.0
  0
LINE
  5
30E
100
AcDbEntity
  8
0
  6
CENTER
 62
               2
100
AcDbLine
 10
7.5
 20
-19.999999999999986
 30
0.0
 11
14.5
 21
-19.999999999999986
 31
0.0
  0
LINE
  5
30F
100
AcDbEntity
  8
0
  6
CONTINUOUS
 62
               7
100
AcDbLine
 10
16.0
 20
-32.299999999999997
 30
0.0
 11
0.0
 21
-32.299999999999997
 31
0.0
  0
LINE
  5
310
100
AcDbEntity
  8
0
  6
CONTINUOUS
 62
               7
100
AcDbLine
 10
16.0
 20
2.7000000000000028
 30
0.0
 11
0.0
 21
2.7000000000000028
 31
0.0
  0
LINE
  5
311
100
AcDbEntity
  8
0
  6
CONTINUOUS
 62
               7
100
AcDbLine
 10
0.0
 20
2.7000000000000028
 30
0.0
 11
0.0
 21
-32.299999999999997
 31
0.0
  0
LINE
  5
312
100
AcDbEntity
  8
0
  6
CONTINUOUS
 62
               7
100
AcDbLine
 10
16.0
 20
-32.299999999999997
 30
0.0
 11
16.0
 21
2.7000000000000028
 31
0.0
  0
LINE
  5
313
100
AcDbEntity
  8
0
  6
CONTINUOUS
 62
               7
100
AcDbLine
 10
30.0
 20
-8.3940014306151909
 30
0.0
 11
30.0
 21
-11.594001430615208
 31
0.0
  0
LINE
  5
314
100
AcDbEntity
  8
0
  6
CENTER
 62
               2
100
AcDbLine
 10
24.0
 20
29.647850672801098
 30
0.0
 11
24.0
 21
-59.247850672801093
 31
0.0
  0
LINE
  5
315
100
AcDbEntity
  8
0
  6
CONTINUOUS
 62
               7
100
AcDbLine
 10
31.0
 20
-5.6949999999999932
 30
0.0
 11
31.0
 21
-23.905000000000001
 31
0.0
  0
LINE
  5
316
100
AcDbEntity
  8
0
  6
CONTINUOUS
 62
               7
100
AcDbLine
 10
17.000000013518104
 20
-34.899999999999935
 30
0.0
 11
17.000000013518104
 21
5.2999999999999403
 31
0.0
  0
LINE
  5
317
100
AcDbEntity
  8
0
  6
CONTINUOUS
 62
               7
100
AcDbLine
 10
30.0
 20
-8.4949999999999903
 30
0.0
 11
30.199999999999989
 21
-8.4949999999999903
 31
0.0
  0
LINE
  5
318
100
AcDbEntity
  8
0
  6
CONTINUOUS
 62
               7
100
AcDbLine
 10
30.0
 20
-11.494999999999997
 30
0.0
 11
30.199999999999989
 21
-11.494999999999997
 31
0.0
  0
LINE
  5
319
100
AcDbEntity
  8
0
  6
CONTINUOUS
 62
               7
100
AcDbLine
 10
30.599999999999966
 20
-8.894999999999996
 30
0.0
 11
30.599999999999966
 21
-11.094999999999999
 31
0.0
  0
ARC
  5
31A
100
AcDbEntity
  8
0
  6
CONTINUOUS
 62
               7
100
AcDbCircle
 10
30.199999999999989
 20
-8.894999999999996
 30
0.0
 40
0.4
100
AcDbArc
 50
0.0
 51
89.999999999999815
  0
ARC
  5
31B
100
AcDbEntity
  8
0
  6
CONTINUOUS
 62
               7
100
AcDbCircle
 10
30.199999999999989
 20
-11.094999999999999
 30
0.0
 40
0.4
100
AcDbArc
 50
270.00000000000023
 51
0.0
  0
LINE
  5
31C
100
AcDbEntity
  8
0
  6
CONTINUOUS
 62
               7
100
AcDbLine
 10
32.548000013518106
 20
-31.499999999999986
 30
0.0
 11
32.100000013518127
 21
-31.499999999999986
 31
0.0
  0
LINE
  5
31D
100
AcDbEntity
  8
0
  6
CONTINUOUS
 62
               7
100
AcDbLine
 10
17.00000002151819
 20
-5.7000000000003439
 30
0.0
 11
31.000000013518161
 21
-5.7000000000000881
 31
0.0
  0
LINE
  5
31E
100
AcDbEntity
  8
0
  6
CONTINUOUS
 62
               7
100
AcDbLine
 10
17.00000002151819
 20
-23.89999999999965
 30
0.0
 11
31.0
 21
-23.899999999999906
 31
0.0
  0
LINE
  5
31F
100
AcDbEntity
  8
0
  6
CONTINUOUS
 62
               4
100
AcDbLine
 10
36.253535346533283
 20
43.794949488666575
 30
0.0
 11
36.748484841199968
 21
43.794949488666575
 31
0.0
  0
LINE
  5
320
100
AcDbEntity
  8
0
  6
CONTINUOUS
 62
               4
100
AcDbLine
 10
31.0
 20
5.2999999999999972
 30
0.0
 11
31.0
 21
27.19999999493227
 31
0.0
  0
LINE
  5
321
100
AcDbEntity
  8
0
  6
CONTINUOUS
 62
               4
100
AcDbLine
 10
17.0
 20
27.200000000000003
 30
0.0
 11
17.0
 21
5.2999999999999972
 31
0.0
  0
LINE
  5
322
100
AcDbEntity
  8
0
  6
CONTINUOUS
 62
               4
100
AcDbLine
 10
17.0
 20
5.2999999999999972
 30
0.0
 11
34.005050499333322
 21
5.2999999999999972
 31
0.0
  0
LINE
  5
323
100
AcDbEntity
  8
0
  6
CONTINUOUS
 62
               4
100
AcDbLine
 10
19.699999999999989
 20
27.800000000000026
 30
0.0
 11
19.699999999999989
 21
27.20000000000006
 31
0.0
  0
LINE
  5
324
100
AcDbEntity
  8
0
  6
CONTINUOUS
 62
               4
100
AcDbLine
 10
19.699999999999989
 20
27.20000000000006
 30
0.0
 11
17.000000004000015
 21
27.20000000000006
 31
0.0
  0
LINE
  5
325
100
AcDbEntity
  8
0
  6
CONTINUOUS
 62
               4
100
AcDbLine
 10
30.499999995999985
 20
27.70000000000006
 30
0.0
 11
29.000000000000057
 21
27.70000000000006
 31
0.0
  0
LINE
  5
326
100
AcDbEntity
  8
0
  6
CONTINUOUS
 62
               4
100
AcDbLine
 10
30.199999910000031
 20
27.800000000000026
 30
0.0
 11
17.800000089999969
 21
27.800000000000026
 31
0.0
  0
ARC
  5
327
100
AcDbEntity
  8
0
  6
CONTINUOUS
 62
               4
100
AcDbCircle
 10
30.200095056648649
 20
27.200095146648678
 30
0.0
 40
0.5999048008965869
100
AcDbArc
 50
56.247417870393882
 51
90.009087277546172
  0
ARC
  5
328
100
AcDbEntity
  8
0
  6
CONTINUOUS
 62
               4
100
AcDbCircle
 10
17.798912084871802
 20
27.201088005128227
 30
0.0
 40
0.5989129231257409
100
AcDbArc
 50
89.895914524772735
 51
180.10408547522667
  0
ARC
  5
329
100
AcDbEntity
  8
0
  6
CONTINUOUS
 62
               4
100
AcDbCircle
 10
17.500000004000015
 20
27.20000000000006
 30
0.0
 40
0.5
100
AcDbArc
 50
93.919585899650798
 51
179.99999999999963
  0
ARC
  5
32A
100
AcDbEntity
  8
0
  6
CONTINUOUS
 62
               4
100
AcDbCircle
 10
30.499999995999985
 20
27.20000000000006
 30
0.0
 40
0.5
100
AcDbArc
 50
0.0
 51
89.999999999999815
  0
LINE
  5
32B
100
AcDbEntity
  8
0
  6
CONTINUOUS
 62
               4
100
AcDbLine
 10
29.000000000000057
 20
27.800000000000026
 30
0.0
 11
29.000000000000057
 21
26.20000000000006
 31
0.0
  0
LINE
  5
32C
100
AcDbEntity
  8
0
  6
CONTINUOUS
 62
               4
100
AcDbLine
 10
29.000000000000057
 20
26.20000000000006
 30
0.0
 11
17.000000004000015
 21
26.20000000000006
 31
0.0
  0
LINE
  5
32D
100
AcDbEntity
  8
0
  6
CONTINUOUS
 62
               4
100
AcDbLine
 10
30.999999995999985
 20
24.793939382800048
 30
0.0
 11
38.502020193733358
 21
24.793939382800048
 31
0.0
  0
LINE
  5
32E
100
AcDbEntity
  8
0
  6
CONTINUOUS
 62
               4
100
AcDbLine
 10
39.004040395466689
 20
24.298989888133363
 30
0.0
 11
39.004040395466689
 21
7.9444444429332606
 31
0.0
  0
LINE
  5
32F
100
AcDbEntity
  8
0
  6
CONTINUOUS
 62
               4
100
AcDbLine
 10
34.005050499333322
 20
5.2999999999999119
 30
0.0
 11
38.714141405733301
 21
7.4919191906666498
 31
0.0
  0
LINE
  5
330
100
AcDbEntity
  8
0
  6
CONTINUOUS
 62
               4
100
AcDbLine
 10
34.005050499333322
 20
32.799999999999883
 30
0.0
 11
38.098989890933296
 21
32.799999999999883
 31
0.0
  0
LINE
  5
331
100
AcDbEntity
  8
0
  6
CONTINUOUS
 62
               4
100
AcDbLine
 10
35.603030296399936
 20
32.799999999999883
 30
0.0
 11
35.603030296399936
 21
24.796969692399941
 31
0.0
  0
LINE
  5
332
100
AcDbEntity
  8
0
  6
CONTINUOUS
 62
               4
100
AcDbLine
 10
37.398989891333315
 20
32.799999999999883
 30
0.0
 11
37.398989891333315
 21
24.796969692399941
 31
0.0
  0
LINE
  5
333
100
AcDbEntity
  8
0
  6
CONTINUOUS
 62
               4
100
AcDbLine
 10
40.997979788266605
 20
32.799999999999883
 30
0.0
 11
40.997979788266605
 21
31.302020193733242
 31
0.0
  0
LINE
  5
334
100
AcDbEntity
  8
0
  6
CONTINUOUS
 62
               4
100
AcDbLine
 10
40.099999990799972
 20
26.196969691599904
 30
0.0
 11
40.997979788266605
 21
31.302020193733242
 31
0.0
  0
LINE
  5
335
100
AcDbEntity
  8
0
  6
CONTINUOUS
 62
               4
100
AcDbLine
 10
40.001010091866704
 20
32.799999999999883
 30
0.0
 11
40.001010091866704
 21
31.386868678533219
 31
0.0
  0
LINE
  5
336
100
AcDbEntity
  8
0
  6
CONTINUOUS
 62
               4
100
AcDbLine
 10
40.001010091866704
 20
32.799999999999883
 30
0.0
 11
40.997979788266605
 21
32.799999999999883
 31
0.0
  0
LINE
  5
337
100
AcDbEntity
  8
0
  6
CONTINUOUS
 62
               4
100
AcDbLine
 10
38.89797978946666
 20
25.12929292453326
 30
0.0
 11
40.015151505999995
 21
31.471717163333253
 31
0.0
  0
LINE
  5
338
100
AcDbEntity
  8
0
  6
CONTINUOUS
 62
               4
100
AcDbLine
 10
39.103030294399957
 20
23.799999995999926
 30
0.0
 11
39.103030294399957
 21
18.101010100266578
 31
0.0
  0
LINE
  5
339
100
AcDbEntity
  8
0
  6
CONTINUOUS
 62
               4
100
AcDbLine
 10
38.098989890933296
 20
32.799999999999883
 30
0.0
 11
38.098989890933296
 21
25.199999995199946
 31
0.0
  0
LINE
  5
33A
100
AcDbEntity
  8
0
  6
CONTINUOUS
 62
               4
100
AcDbLine
 10
38.403030294799976
 20
32.495959596133204
 30
0.0
 11
38.403030294799976
 21
26.599999994399909
 31
0.0
  0
LINE
  5
33B
100
AcDbEntity
  8
0
  6
CONTINUOUS
 62
               4
100
AcDbLine
 10
38.098989890933296
 20
32.799999999999883
 30
0.0
 11
38.403030294799976
 21
32.495959596133204
 31
0.0
  0
LINE
  5
33C
100
AcDbEntity
  8
0
  6
CONTINUOUS
 62
               4
100
AcDbLine
 10
34.005050499333322
 20
31.796969688399926
 30
0.0
 11
34.499999994000007
 21
31.796969688399926
 31
0.0
  0
LINE
  5
33D
100
AcDbEntity
  8
0
  6
CONTINUOUS
 62
               4
100
AcDbLine
 10
34.005050499333322
 20
26.79797979226656
 30
0.0
 11
34.499999994000007
 21
26.79797979226656
 31
0.0
  0
LINE
  5
33E
100
AcDbEntity
  8
0
  6
CONTINUOUS
 62
               4
100
AcDbLine
 10
38.098989890933296
 20
26.295959590533286
 30
0.0
 11
38.403030294799976
 21
26.599999994399909
 31
0.0
  0
LINE
  5
33F
100
AcDbEntity
  8
0
  6
CONTINUOUS
 62
               4
100
AcDbLine
 10
40.099999990799972
 20
26.196969691599904
 30
0.0
 11
40.099999990799972
 21
17.096969696799917
 31
0.0
  0
LINE
  5
340
100
AcDbEntity
  8
0
  6
CONTINUOUS
 62
               4
100
AcDbLine
 10
39.103030294399957
 20
16.799999999999883
 30
0.0
 11
39.803030293999939
 21
16.799999999999883
 31
0.0
  0
LINE
  5
341
100
AcDbEntity
  8
0
  6
CONTINUOUS
 62
               4
100
AcDbLine
 10
39.004040395466689
 20
18.101010100266578
 30
0.0
 11
39.103030294399957
 21
18.101010100266578
 31
0.0
  0
LINE
  5
342
100
AcDbEntity
  8
0
  6
CONTINUOUS
 62
               4
100
AcDbLine
 10
39.004040395466689
 20
16.898989898933209
 30
0.0
 11
39.103030294399957
 21
16.799999999999883
 31
0.0
  0
LINE
  5
343
100
AcDbEntity
  8
0
  6
CONTINUOUS
 62
               4
100
AcDbLine
 10
35.850505043733335
 20
37.367676765066548
 30
0.0
 11
35.850505043733335
 21
32.799999999999883
 31
0.0
  0
LINE
  5
344
100
AcDbEntity
  8
0
  6
CONTINUOUS
 62
               4
100
AcDbLine
 10
37.15151514400003
 20
40.294949490666554
 30
0.0
 11
37.15151514400003
 21
36.964646462266543
 31
0.0
  0
LINE
  5
345
100
AcDbEntity
  8
0
  6
CONTINUOUS
 62
               4
100
AcDbLine
 10
35.850505043733335
 20
40.294949490666554
 30
0.0
 11
35.850505043733335
 21
37.714141411333216
 31
0.0
  0
LINE
  5
346
100
AcDbEntity
  8
0
  6
CONTINUOUS
 62
               4
100
AcDbLine
 10
35.850505043733335
 20
40.294949490666554
 30
0.0
 11
37.15151514400003
 21
40.294949490666554
 31
0.0
  0
LINE
  5
347
100
AcDbEntity
  8
0
  6
CONTINUOUS
 62
               4
100
AcDbLine
 10
36.253535346533283
 20
43.794949488666575
 30
0.0
 11
36.253535346533283
 21
40.294949490666554
 31
0.0
  0
LINE
  5
348
100
AcDbEntity
  8
0
  6
CONTINUOUS
 62
               4
100
AcDbLine
 10
36.748484841199968
 20
43.794949488666575
 30
0.0
 11
36.748484841199968
 21
40.294949490666554
 31
0.0
  0
LINE
  5
349
100
AcDbEntity
  8
0
  6
CONTINUOUS
 62
             200
100
AcDbLine
 10
37.999999992000028
 20
36.469696967599916
 30
0.0
 11
35.002020195733337
 21
38.202020198933198
 31
0.0
  0
LINE
  5
34A
100
AcDbEntity
  8
0
  6
CONTINUOUS
 62
             200
100
AcDbLine
 10
37.999999992000028
 20
36.123232321333248
 30
0.0
 11
35.002020195733337
 21
37.855555552666587
 31
0.0
  0
LINE
  5
34B
100
AcDbEntity
  8
0
  6
CONTINUOUS
 62
               4
100
AcDbLine
 10
37.15151514400003
 20
36.618181815999876
 30
0.0
 11
37.15151514400003
 21
32.799999999999883
 31
0.0
  0
LINE
  5
34C
100
AcDbEntity
  8
0
  6
CONTINUOUS
 62
               4
100
AcDbLine
 10
34.005050499333322
 20
32.799999999999883
 30
0.0
 11
34.005050499333322
 21
31.796969688399926
 31
0.0
  0
LINE
  5
34D
100
AcDbEntity
  8
0
  6
CONTINUOUS
 62
               4
100
AcDbLine
 10
34.005050499333322
 20
26.79797979226656
 30
0.0
 11
34.005050499333322
 21
24.796969692399941
 31
0.0
  0
LINE
  5
34E
100
AcDbEntity
  8
0
  6
CONTINUOUS
 62
               4
100
AcDbLine
 10
34.499999994000007
 20
31.796969688399926
 30
0.0
 11
34.499999994000007
 21
26.79797979226656
 31
0.0
  0
LINE
  5
34F
100
AcDbEntity
  8
0
  6
CONTINUOUS
 62
               4
100
AcDbLine
 10
34.005050499333322
 20
5.2999999999999119
 30
0.0
 11
34.005050499333322
 21
24.793939382800048
 31
0.0
  0
ARC
  5
350
100
AcDbEntity
  8
0
  6
CONTINUOUS
 62
               4
100
AcDbCircle
 10
38.498033057569103
 20
7.9494844974916674
 30
0.0
 40
0.5060324378497572
100
AcDbArc
 50
295.28139190005214
 51
359.42932783011406
  0
ARC
  5
351
100
AcDbEntity
  8
0
  6
CONTINUOUS
 62
               4
100
AcDbCircle
 10
38.503834119278679
 20
24.29370851478366
 30
0.0
 40
0.5002341568128574
100
AcDbArc
 50
0.6049287534634878
 51
90.207763713153867
  0
ARC
  5
352
100
AcDbEntity
  8
0
  6
CONTINUOUS
 62
               4
100
AcDbCircle
 10
39.797896118091842
 20
17.102103872708128
 30
0.0
 40
0.3021474965435785
100
AcDbArc
 50
270.97363298451126
 51
359.02636701548732
  0
ARC
  5
353
100
AcDbEntity
  8
0
  6
CONTINUOUS
 62
               4
100
AcDbCircle
 10
38.599986940866813
 20
23.797302043044439
 30
0.0
 40
0.5030505883944908
100
AcDbArc
 50
0.3072892911898554
 51
36.562608354652731
  0
ARC
  5
354
100
AcDbEntity
  8
0
  6
CONTINUOUS
 62
               4
100
AcDbCircle
 10
38.501921122697979
 20
25.203476452093625
 30
0.0
 40
0.4029462287748787
100
AcDbArc
 50
180.49433091715488
 51
349.39117201772478
  0
ARC
  5
355
100
AcDbEntity
  8
0
  6
CONTINUOUS
 62
               4
100
AcDbCircle
 10
38.501921122697979
 20
-54.803476452093619
 30
0.0
 40
0.4029462287748787
100
AcDbArc
 50
10.608827982274413
 51
179.50566908284432
  0
ARC
  5
356
100
AcDbEntity
  8
0
  6
CONTINUOUS
 62
               4
100
AcDbCircle
 10
38.599986940866813
 20
-53.397302043044434
 30
0.0
 40
0.5030505883944908
100
AcDbArc
 50
323.43739164534645
 51
359.69271070880933
  0
ARC
  5
357
100
AcDbEntity
  8
0
  6
CONTINUOUS
 62
               4
100
AcDbCircle
 10
39.797896118091842
 20
-46.702103872708122
 30
0.0
 40
0.3021474965435785
100
AcDbArc
 50
0.9736329845118463
 51
89.026367015487978
  0
ARC
  5
358
100
AcDbEntity
  8
0
  6
CONTINUOUS
 62
               4
100
AcDbCircle
 10
38.503834119278679
 20
-53.893708514783654
 30
0.0
 40
0.5002341568128574
100
AcDbArc
 50
269.79223628684531
 51
359.39507124653568
  0
ARC
  5
359
100
AcDbEntity
  8
0
  6
CONTINUOUS
 62
               4
100
AcDbCircle
 10
38.498033057569103
 20
-37.549484497491662
 30
0.0
 40
0.5060324378497572
100
AcDbArc
 50
0.570672169885155
 51
64.718608099947076
  0
LINE
  5
35A
100
AcDbEntity
  8
0
  6
CONTINUOUS
 62
               4
100
AcDbLine
 10
34.005050499333322
 20
-34.899999999999906
 30
0.0
 11
34.005050499333322
 21
-54.393939382800042
 31
0.0
  0
LINE
  5
35B
100
AcDbEntity
  8
0
  6
CONTINUOUS
 62
               4
100
AcDbLine
 10
34.499999994000007
 20
-61.396969688399921
 30
0.0
 11
34.499999994000007
 21
-56.397979792266554
 31
0.0
  0
LINE
  5
35C
100
AcDbEntity
  8
0
  6
CONTINUOUS
 62
               4
100
AcDbLine
 10
34.005050499333322
 20
-56.397979792266554
 30
0.0
 11
34.005050499333322
 21
-54.396969692399935
 31
0.0
  0
LINE
  5
35D
100
AcDbEntity
  8
0
  6
CONTINUOUS
 62
               4
100
AcDbLine
 10
34.005050499333322
 20
-62.399999999999878
 30
0.0
 11
34.005050499333322
 21
-61.396969688399921
 31
0.0
  0
LINE
  5
35E
100
AcDbEntity
  8
0
  6
CONTINUOUS
 62
               4
100
AcDbLine
 10
37.15151514400003
 20
-66.21818181599987
 30
0.0
 11
37.15151514400003
 21
-62.399999999999878
 31
0.0
  0
LINE
  5
35F
100
AcDbEntity
  8
0
  6
CONTINUOUS
 62
             200
100
AcDbLine
 10
37.999999992000028
 20
-65.723232321333242
 30
0.0
 11
35.002020195733337
 21
-67.455555552666581
 31
0.0
  0
LINE
  5
360
100
AcDbEntity
  8
0
  6
CONTINUOUS
 62
             200
100
AcDbLine
 10
37.999999992000028
 20
-66.06969696759991
 30
0.0
 11
35.002020195733337
 21
-67.802020198933192
 31
0.0
  0
LINE
  5
361
100
AcDbEntity
  8
0
  6
CONTINUOUS
 62
               4
100
AcDbLine
 10
36.748484841199968
 20
-73.394949488666569
 30
0.0
 11
36.748484841199968
 21
-69.894949490666548
 31
0.0
  0
LINE
  5
362
100
AcDbEntity
  8
0
  6
CONTINUOUS
 62
               4
100
AcDbLine
 10
36.253535346533283
 20
-73.394949488666569
 30
0.0
 11
36.253535346533283
 21
-69.894949490666548
 31
0.0
  0
LINE
  5
363
100
AcDbEntity
  8
0
  6
CONTINUOUS
 62
               4
100
AcDbLine
 10
35.850505043733335
 20
-69.894949490666548
 30
0.0
 11
37.15151514400003
 21
-69.894949490666548
 31
0.0
  0
LINE
  5
364
100
AcDbEntity
  8
0
  6
CONTINUOUS
 62
               4
100
AcDbLine
 10
35.850505043733335
 20
-69.894949490666548
 30
0.0
 11
35.850505043733335
 21
-67.31414141133321
 31
0.0
  0
LINE
  5
365
100
AcDbEntity
  8
0
  6
CONTINUOUS
 62
               4
100
AcDbLine
 10
37.15151514400003
 20
-69.894949490666548
 30
0.0
 11
37.15151514400003
 21
-66.564646462266538
 31
0.0
  0
LINE
  5
366
100
AcDbEntity
  8
0
  6
CONTINUOUS
 62
               4
100
AcDbLine
 10
35.850505043733335
 20
-66.967676765066543
 30
0.0
 11
35.850505043733335
 21
-62.399999999999878
 31
0.0
  0
LINE
  5
367
100
AcDbEntity
  8
0
  6
CONTINUOUS
 62
               4
100
AcDbLine
 10
39.004040395466689
 20
-46.498989898933203
 30
0.0
 11
39.103030294399957
 21
-46.399999999999878
 31
0.0
  0
LINE
  5
368
100
AcDbEntity
  8
0
  6
CONTINUOUS
 62
               4
100
AcDbLine
 10
39.004040395466689
 20
-47.701010100266572
 30
0.0
 11
39.103030294399957
 21
-47.701010100266572
 31
0.0
  0
LINE
  5
369
100
AcDbEntity
  8
0
  6
CONTINUOUS
 62
               4
100
AcDbLine
 10
39.103030294399957
 20
-46.399999999999878
 30
0.0
 11
39.803030293999939
 21
-46.399999999999878
 31
0.0
  0
LINE
  5
36A
100
AcDbEntity
  8
0
  6
CONTINUOUS
 62
               4
100
AcDbLine
 10
40.099999990799972
 20
-55.796969691599898
 30
0.0
 11
40.099999990799972
 21
-46.696969696799911
 31
0.0
  0
LINE
  5
36B
100
AcDbEntity
  8
0
  6
CONTINUOUS
 62
               4
100
AcDbLine
 10
38.098989890933296
 20
-55.89595959053328
 30
0.0
 11
38.403030294799976
 21
-56.199999994399903
 31
0.0
  0
LINE
  5
36C
100
AcDbEntity
  8
0
  6
CONTINUOUS
 62
               4
100
AcDbLine
 10
34.005050499333322
 20
-56.397979792266554
 30
0.0
 11
34.499999994000007
 21
-56.397979792266554
 31
0.0
  0
LINE
  5
36D
100
AcDbEntity
  8
0
  6
CONTINUOUS
 62
               4
100
AcDbLine
 10
34.005050499333322
 20
-61.396969688399921
 30
0.0
 11
34.499999994000007
 21
-61.396969688399921
 31
0.0
  0
LINE
  5
36E
100
AcDbEntity
  8
0
  6
CONTINUOUS
 62
               4
100
AcDbLine
 10
38.098989890933296
 20
-62.399999999999878
 30
0.0
 11
38.403030294799976
 21
-62.095959596133198
 31
0.0
  0
LINE
  5
36F
100
AcDbEntity
  8
0
  6
CONTINUOUS
 62
               4
100
AcDbLine
 10
38.403030294799976
 20
-62.095959596133198
 30
0.0
 11
38.403030294799976
 21
-56.199999994399903
 31
0.0
  0
LINE
  5
370
100
AcDbEntity
  8
0
  6
CONTINUOUS
 62
               4
100
AcDbLine
 10
38.098989890933296
 20
-62.399999999999878
 30
0.0
 11
38.098989890933296
 21
-54.79999999519994
 31
0.0
  0
LINE
  5
371
100
AcDbEntity
  8
0
  6
CONTINUOUS
 62
               4
100
AcDbLine
 10
39.103030294399957
 20
-53.39999999599992
 30
0.0
 11
39.103030294399957
 21
-47.701010100266572
 31
0.0
  0
LINE
  5
372
100
AcDbEntity
  8
0
  6
CONTINUOUS
 62
               4
100
AcDbLine
 10
38.89797978946666
 20
-54.729292924533254
 30
0.0
 11
40.015151505999995
 21
-61.071717163333247
 31
0.0
  0
LINE
  5
373
100
AcDbEntity
  8
0
  6
CONTINUOUS
 62
               4
100
AcDbLine
 10
40.001010091866704
 20
-62.399999999999878
 30
0.0
 11
40.997979788266605
 21
-62.399999999999878
 31
0.0
  0
LINE
  5
374
100
AcDbEntity
  8
0
  6
CONTINUOUS
 62
               4
100
AcDbLine
 10
40.001010091866704
 20
-62.399999999999878
 30
0.0
 11
40.001010091866704
 21
-60.986868678533213
 31
0.0
  0
LINE
  5
375
100
AcDbEntity
  8
0
  6
CONTINUOUS
 62
               4
100
AcDbLine
 10
40.099999990799972
 20
-55.796969691599898
 30
0.0
 11
40.997979788266605
 21
-60.902020193733236
 31
0.0
  0
LINE
  5
376
100
AcDbEntity
  8
0
  6
CONTINUOUS
 62
               4
100
AcDbLine
 10
40.997979788266605
 20
-62.399999999999878
 30
0.0
 11
40.997979788266605
 21
-60.902020193733236
 31
0.0
  0
LINE
  5
377
100
AcDbEntity
  8
0
  6
CONTINUOUS
 62
               4
100
AcDbLine
 10
37.398989891333315
 20
-62.399999999999878
 30
0.0
 11
37.398989891333315
 21
-54.396969692399935
 31
0.0
  0
LINE
  5
378
100
AcDbEntity
  8
0
  6
CONTINUOUS
 62
               4
100
AcDbLine
 10
35.603030296399936
 20
-62.399999999999878
 30
0.0
 11
35.603030296399936
 21
-54.396969692399935
 31
0.0
  0
LINE
  5
379
100
AcDbEntity
  8
0
  6
CONTINUOUS
 62
               4
100
AcDbLine
 10
34.005050499333322
 20
-62.399999999999878
 30
0.0
 11
38.098989890933296
 21
-62.399999999999878
 31
0.0
  0
LINE
  5
37A
100
AcDbEntity
  8
0
  6
CONTINUOUS
 62
               4
100
AcDbLine
 10
34.005050499333322
 20
-34.899999999999906
 30
0.0
 11
38.714141405733301
 21
-37.091919190666644
 31
0.0
  0
LINE
  5
37B
100
AcDbEntity
  8
0
  6
CONTINUOUS
 62
               4
100
AcDbLine
 10
39.004040395466689
 20
-53.898989888133357
 30
0.0
 11
39.004040395466689
 21
-37.544444442933255
 31
0.0
  0
LINE
  5
37C
100
AcDbEntity
  8
0
  6
CONTINUOUS
 62
               4
100
AcDbLine
 10
30.999999995999985
 20
-54.393939382800042
 30
0.0
 11
38.502020193733358
 21
-54.393939382800042
 31
0.0
  0
LINE
  5
37D
100
AcDbEntity
  8
0
  6
CONTINUOUS
 62
               4
100
AcDbLine
 10
18.999999999999943
 20
-55.800000000000054
 30
0.0
 11
30.999999995999985
 21
-55.800000000000054
 31
0.0
  0
LINE
  5
37E
100
AcDbEntity
  8
0
  6
CONTINUOUS
 62
               4
100
AcDbLine
 10
18.999999999999943
 20
-57.40000000000002
 30
0.0
 11
18.999999999999943
 21
-55.800000000000054
 31
0.0
  0
ARC
  5
37F
100
AcDbEntity
  8
0
  6
CONTINUOUS
 62
               4
100
AcDbCircle
 10
17.500000004000015
 20
-56.800000000000054
 30
0.0
 40
0.5
100
AcDbArc
 50
179.99999999999963
 51
269.99999999999937
  0
ARC
  5
380
100
AcDbEntity
  8
0
  6
CONTINUOUS
 62
               4
100
AcDbCircle
 10
30.499999995999985
 20
-56.800000000000054
 30
0.0
 40
0.5
100
AcDbArc
 50
273.91958589965037
 51
0.0
  0
ARC
  5
381
100
AcDbEntity
  8
0
  6
CONTINUOUS
 62
               4
100
AcDbCircle
 10
30.201087915128198
 20
-56.801088005128221
 30
0.0
 40
0.5989129231257409
100
AcDbArc
 50
269.89591452477231
 51
0.1040854752270701
  0
ARC
  5
382
100
AcDbEntity
  8
0
  6
CONTINUOUS
 62
               4
100
AcDbCircle
 10
17.799904943351351
 20
-56.800095146648673
 30
0.0
 40
0.5999048008965869
100
AcDbArc
 50
236.24741787039349
 51
270.00908727754575
  0
LINE
  5
383
100
AcDbEntity
  8
0
  6
CONTINUOUS
 62
               4
100
AcDbLine
 10
17.800000089999969
 20
-57.40000000000002
 30
0.0
 11
30.199999910000031
 21
-57.40000000000002
 31
0.0
  0
LINE
  5
384
100
AcDbEntity
  8
0
  6
CONTINUOUS
 62
               4
100
AcDbLine
 10
17.500000004000015
 20
-57.300000000000054
 30
0.0
 11
18.999999999999943
 21
-57.300000000000054
 31
0.0
  0
LINE
  5
385
100
AcDbEntity
  8
0
  6
CONTINUOUS
 62
               4
100
AcDbLine
 10
28.300000000000011
 20
-56.800000000000054
 30
0.0
 11
30.999999995999985
 21
-56.800000000000054
 31
0.0
  0
LINE
  5
386
100
AcDbEntity
  8
0
  6
CONTINUOUS
 62
               4
100
AcDbLine
 10
28.300000000000011
 20
-57.40000000000002
 30
0.0
 11
28.300000000000011
 21
-56.800000000000054
 31
0.0
  0
LINE
  5
387
100
AcDbEntity
  8
0
  6
CONTINUOUS
 62
               4
100
AcDbLine
 10
17.0
 20
-34.899999999999991
 30
0.0
 11
34.000002816526774
 21
-34.899999999999991
 31
0.0
  0
LINE
  5
388
100
AcDbEntity
  8
0
  6
CONTINUOUS
 62
               4
100
AcDbLine
 10
17.0
 20
-56.799999999999997
 30
0.0
 11
17.0
 21
-34.899999999999991
 31
0.0
  0
LINE
  5
389
100
AcDbEntity
  8
0
  6
CONTINUOUS
 62
               4
100
AcDbLine
 10
31.0
 20
-34.899999999999991
 30
0.0
 11
31.0
 21
-56.799999994932264
 31
0.0
  0
LINE
  5
38A
100
AcDbEntity
  8
0
  6
CONTINUOUS
 62
               4
100
AcDbLine
 10
36.253535346533283
 20
-73.394949488666569
 30
0.0
 11
36.748484841199968
 21
-73.394949488666569
 31
0.0
  0
ENDBLK
  5
38B
100
AcDbEntity
  8
0
100
AcDbBlockEnd
  0
BLOCK
  5
38C
100
AcDbEntity
  8
0
100
AcDbBlockBegin
  2
EA10A6-6
 70
               0
 10
0.0
 20
0.0
 30
0.0
  3
EA10A6-6
  1

  0
LINE
  5
38D
100
AcDbEntity
  8
0
  6
CONTINUOUS
 62
               7
100
AcDbLine
 10
-16.999921226538049
 20
-30.100006103515625
 30
0.0
 11
-16.0
 21
-30.100006103515625
 31
0.0
  0
LINE
  5
38E
100
AcDbEntity
  8
0
  6
CONTINUOUS
 62
               7
100
AcDbLine
 10
-16.999989318840903
 20
0.4999938964843835
 30
0.0
 11
-16.0
 21
0.4999938964843835
 31
0.0
  0
LINE
  5
38F
100
AcDbEntity
  8
0
  6
CENTER
 62
               2
100
AcDbLine
 10
-2.0
 20
-29.599999999999994
 30
0.0
 11
2.0
 21
-29.599999999999994
 31
0.0
  0
LINE
  5
390
100
AcDbEntity
  8
0
  6
CENTER
 62
               2
100
AcDbLine
 10
-2.0
 20
0.0
 30
0.0
 11
2.0
 21
0.0
 31
0.0
  0
LINE
  5
391
100
AcDbEntity
  8
0
  6
CONTINUOUS
 62
               7
100
AcDbLine
 10
-31.000000000000114
 20
-27.799999999999997
 30
0.0
 11
-32.100000000000023
 21
-28.899999999999991
 31
0.0
  0
LINE
  5
392
100
AcDbEntity
  8
0
  6
CONTINUOUS
 62
               7
100
AcDbLine
 10
-32.548000000000002
 20
-31.499999999999986
 30
0.0
 11
-32.100000000000023
 21
-31.499999999999986
 31
0.0
  0
LINE
  5
393
100
AcDbEntity
  8
0
  6
CONTINUOUS
 62
               7
100
AcDbLine
 10
-17.0
 20
-23.899999999999991
 30
0.0
 11
-31.0
 21
-23.899999999999991
 31
0.0
  0
LINE
  5
394
100
AcDbEntity
  8
0
  6
CONTINUOUS
 62
               7
100
AcDbLine
 10
-32.548000000000002
 20
-33.700000000000031
 30
0.0
 11
-32.100000000000023
 21
-33.700000000000031
 31
0.0
  0
LINE
  5
395
100
AcDbEntity
  8
0
  6
CONTINUOUS
 62
               7
100
AcDbLine
 10
-32.548000000000002
 20
-31.499999999999986
 30
0.0
 11
-32.548000000000002
 21
-33.700000000000031
 31
0.0
  0
LINE
  5
396
100
AcDbEntity
  8
0
  6
CONTINUOUS
 62
               7
100
AcDbLine
 10
-32.100000000000023
 20
-28.899999999999991
 30
0.0
 11
-32.100000000000023
 21
-34.899999999999935
 31
0.0
  0
LINE
  5
397
100
AcDbEntity
  8
0
  6
CONTINUOUS
 62
               7
100
AcDbLine
 10
-30.0
 20
-21.199001430615183
 30
0.0
 11
-31.0
 21
-21.199001430615183
 31
0.0
  0
LINE
  5
398
100
AcDbEntity
  8
0
  6
CONTINUOUS
 62
               7
100
AcDbLine
 10
-30.0
 20
-17.999001430615195
 30
0.0
 11
-31.0
 21
-17.999001430615195
 31
0.0
  0
LINE
  5
399
100
AcDbEntity
  8
0
  6
CONTINUOUS
 62
               7
100
AcDbLine
 10
-32.548000000000002
 20
1.8999999999999915
 30
0.0
 11
-32.100000000000023
 21
1.8999999999999915
 31
0.0
  0
LINE
  5
39A
100
AcDbEntity
  8
0
  6
CONTINUOUS
 62
               7
100
AcDbLine
 10
-32.548000000000002
 20
4.1000000000000369
 30
0.0
 11
-32.100000000000023
 21
4.1000000000000369
 31
0.0
  0
LINE
  5
39B
100
AcDbEntity
  8
0
  6
CONTINUOUS
 62
               7
100
AcDbLine
 10
-32.548000000000002
 20
1.8999999999999915
 30
0.0
 11
-32.548000000000002
 21
4.1000000000000369
 31
0.0
  0
LINE
  5
39C
100
AcDbEntity
  8
0
  6
CONTINUOUS
 62
               7
100
AcDbLine
 10
-31.000000000000114
 20
-1.7999999999999972
 30
0.0
 11
-32.100000000000023
 21
-0.7000000000000028
 31
0.0
  0
LINE
  5
39D
100
AcDbEntity
  8
0
  6
CONTINUOUS
 62
               7
100
AcDbLine
 10
-32.100000000000023
 20
-0.7000000000000028
 30
0.0
 11
-32.100000000000023
 21
5.2999999999999403
 31
0.0
  0
LINE
  5
39E
100
AcDbEntity
  8
0
  6
CONTINUOUS
 62
               7
100
AcDbLine
 10
-17.0
 20
-5.7000000000000028
 30
0.0
 11
-31.0
 21
-5.7000000000000028
 31
0.0
  0
LINE
  5
39F
100
AcDbEntity
  8
0
  6
CONTINUOUS
 62
               7
100
AcDbLine
 10
-30.0
 20
-17.999001430615195
 30
0.0
 11
-30.0
 21
-21.199001430615183
 31
0.0
  0
LINE
  5
3A0
100
AcDbEntity
  8
0
  6
CONTINUOUS
 62
               7
100
AcDbLine
 10
-16.0
 20
-32.299999999999997
 30
0.0
 11
-16.0
 21
2.7000000000000028
 31
0.0
  0
LINE
  5
3A1
100
AcDbEntity
  8
0
  6
CONTINUOUS
 62
               7
100
AcDbLine
 10
0.0
 20
2.7000000000000028
 30
0.0
 11
0.0
 21
-32.299999999999997
 31
0.0
  0
LINE
  5
3A2
100
AcDbEntity
  8
0
  6
CONTINUOUS
 62
               7
100
AcDbLine
 10
-16.0
 20
2.7000000000000028
 30
0.0
 11
0.0
 21
2.7000000000000028
 31
0.0
  0
LINE
  5
3A3
100
AcDbEntity
  8
0
  6
CONTINUOUS
 62
               7
100
AcDbLine
 10
-16.0
 20
-32.299999999999997
 30
0.0
 11
0.0
 21
-32.299999999999997
 31
0.0
  0
LINE
  5
3A4
100
AcDbEntity
  8
0
  6
CENTER
 62
               2
100
AcDbLine
 10
-5.0
 20
-18.899999999999991
 30
0.0
 11
-5.0
 21
-25.899999999999991
 31
0.0
  0
LINE
  5
3A5
100
AcDbEntity
  8
0
  6
CENTER
 62
               2
100
AcDbLine
 10
-8.5
 20
-22.399999999999991
 30
0.0
 11
-1.5
 21
-22.399999999999991
 31
0.0
  0
LINE
  5
3A6
100
AcDbEntity
  8
0
  6
CENTER
 62
               2
100
AcDbLine
 10
-11.0
 20
-11.299999999999997
 30
0.0
 11
-11.0
 21
-18.299999999999997
 31
0.0
  0
LINE
  5
3A7
100
AcDbEntity
  8
0
  6
CENTER
 62
               2
100
AcDbLine
 10
-14.5
 20
-14.799999999999997
 30
0.0
 11
-7.5
 21
-14.799999999999997
 31
0.0
  0
LINE
  5
3A8
100
AcDbEntity
  8
0
  6
CENTER
 62
               2
100
AcDbLine
 10
-10.0
 20
-1.2999999999999972
 30
0.0
 11
-10.0
 21
-8.2999999999999972
 31
0.0
  0
LINE
  5
3A9
100
AcDbEntity
  8
0
  6
CENTER
 62
               2
100
AcDbLine
 10
-13.5
 20
-4.7999999999999972
 30
0.0
 11
-6.5
 21
-4.7999999999999972
 31
0.0
  0
CIRCLE
  5
3AA
100
AcDbEntity
  8
0
  6
CONTINUOUS
 62
               7
100
AcDbCircle
 10
-9.9999786376953352
 20
-4.8000061035156278
 30
0.0
 40
2.0669994354248047
  0
CIRCLE
  5
3AB
100
AcDbEntity
  8
0
  6
CONTINUOUS
 62
               7
100
AcDbCircle
 10
-10.999978637695335
 20
-14.800006103515621
 30
0.0
 40
2.0669994354248047
  0
CIRCLE
  5
3AC
100
AcDbEntity
  8
0
  6
CONTINUOUS
 62
               7
100
AcDbCircle
 10
-4.9999786376953352
 20
-22.39999694824219
 30
0.0
 40
2.0669994354248047
  0
CIRCLE
  5
3AD
100
AcDbEntity
  8
0
  6
CONTINUOUS
 62
               2
100
AcDbCircle
 10
-4.9999786376953352
 20
-22.39999694824219
 30
0.0
 40
2.5
  0
CIRCLE
  5
3AE
100
AcDbEntity
  8
0
  6
CONTINUOUS
 62
               2
100
AcDbCircle
 10
-10.999978637695335
 20
-14.800006103515621
 30
0.0
 40
2.5
  0
CIRCLE
  5
3AF
100
AcDbEntity
  8
0
  6
CONTINUOUS
 62
               2
100
AcDbCircle
 10
-9.9999786376953352
 20
-4.8000061035156278
 30
0.0
 40
2.5
  0
LINE
  5
3B0
100
AcDbEntity
  8
0
  6
CENTER
 62
               2
100
AcDbLine
 10
-24.0
 20
29.647850672801098
 30
0.0
 11
-24.0
 21
-59.247850672801093
 31
0.0
  0
LINE
  5
3B1
100
AcDbEntity
  8
0
  6
CONTINUOUS
 62
               7
100
AcDbLine
 10
-31.0
 20
5.2999999999999972
 30
0.0
 11
-31.0
 21
-34.899999999999991
 31
0.0
  0
LINE
  5
3B2
100
AcDbEntity
  8
0
  6
CONTINUOUS
 62
               7
100
AcDbLine
 10
-17.0
 20
-34.899999999999991
 30
0.0
 11
-17.0
 21
5.2999999999999972
 31
0.0
  0
LINE
  5
3B3
100
AcDbEntity
  8
0
  6
CONTINUOUS
 62
               7
100
AcDbLine
 10
-30.600000000000023
 20
-18.499999999999986
 30
0.0
 11
-30.600000000000023
 21
-20.700000000000003
 31
0.0
  0
LINE
  5
3B4
100
AcDbEntity
  8
0
  6
CONTINUOUS
 62
               7
100
AcDbLine
 10
-30.200000000000045
 20
-18.099999999999994
 30
0.0
 11
-30.0
 21
-18.099999999999994
 31
0.0
  0
LINE
  5
3B5
100
AcDbEntity
  8
0
  6
CONTINUOUS
 62
               7
100
AcDbLine
 10
-30.200000000000045
 20
-21.099999999999994
 30
0.0
 11
-30.0
 21
-21.099999999999994
 31
0.0
  0
ARC
  5
3B6
100
AcDbEntity
  8
0
  6
CONTINUOUS
 62
               7
100
AcDbCircle
 10
-30.200000000000045
 20
-18.499999999999986
 30
0.0
 40
0.4
100
AcDbArc
 50
89.999999999999815
 51
179.99999999999963
  0
ARC
  5
3B7
100
AcDbEntity
  8
0
  6
CONTINUOUS
 62
               7
100
AcDbCircle
 10
-30.200000000000045
 20
-20.700000000000003
 30
0.0
 40
0.4
100
AcDbArc
 50
179.99999999999963
 51
269.99999999999937
  0
LINE
  5
3B8
100
AcDbEntity
  8
0
  6
CONTINUOUS
 62
               4
100
AcDbLine
 10
-36.25353534653334
 20
-73.394949488666569
 30
0.0
 11
-36.748484841200025
 21
-73.394949488666569
 31
0.0
  0
LINE
  5
3B9
100
AcDbEntity
  8
0
  6
CONTINUOUS
 62
               4
100
AcDbLine
 10
-31.0
 20
-34.899999999999991
 30
0.0
 11
-31.0
 21
-56.799999994932264
 31
0.0
  0
LINE
  5
3BA
100
AcDbEntity
  8
0
  6
CONTINUOUS
 62
               4
100
AcDbLine
 10
-17.0
 20
-56.799999999999997
 30
0.0
 11
-17.0
 21
-34.899999999999991
 31
0.0
  0
LINE
  5
3BB
100
AcDbEntity
  8
0
  6
CONTINUOUS
 62
               4
100
AcDbLine
 10
-17.0
 20
-34.899999999999991
 30
0.0
 11
-34.005050499333379
 21
-34.899999999999991
 31
0.0
  0
LINE
  5
3BC
100
AcDbEntity
  8
0
  6
CONTINUOUS
 62
               4
100
AcDbLine
 10
-19.700000000000045
 20
-57.40000000000002
 30
0.0
 11
-19.700000000000045
 21
-56.800000000000054
 31
0.0
  0
LINE
  5
3BD
100
AcDbEntity
  8
0
  6
CONTINUOUS
 62
               4
100
AcDbLine
 10
-19.700000000000045
 20
-56.800000000000054
 30
0.0
 11
-17.000000004000071
 21
-56.800000000000054
 31
0.0
  0
LINE
  5
3BE
100
AcDbEntity
  8
0
  6
CONTINUOUS
 62
               4
100
AcDbLine
 10
-30.499999996000042
 20
-57.300000000000054
 30
0.0
 11
-29.000000000000114
 21
-57.300000000000054
 31
0.0
  0
LINE
  5
3BF
100
AcDbEntity
  8
0
  6
CONTINUOUS
 62
               4
100
AcDbLine
 10
-30.199999910000088
 20
-57.40000000000002
 30
0.0
 11
-17.800000090000026
 21
-57.40000000000002
 31
0.0
  0
ARC
  5
3C0
100
AcDbEntity
  8
0
  6
CONTINUOUS
 62
               4
100
AcDbCircle
 10
-30.200095056648706
 20
-56.800095146648673
 30
0.0
 40
0.5999048008965869
100
AcDbArc
 50
236.24741787039349
 51
270.00908727754575
  0
ARC
  5
3C1
100
AcDbEntity
  8
0
  6
CONTINUOUS
 62
               4
100
AcDbCircle
 10
-17.798912084871858
 20
-56.801088005128221
 30
0.0
 40
0.5989129231257409
100
AcDbArc
 50
269.89591452477231
 51
0.1040854752270701
  0
ARC
  5
3C2
100
AcDbEntity
  8
0
  6
CONTINUOUS
 62
               4
100
AcDbCircle
 10
-17.500000004000071
 20
-56.800000000000054
 30
0.0
 40
0.5
100
AcDbArc
 50
273.91958589965037
 51
0.0
  0
ARC
  5
3C3
100
AcDbEntity
  8
0
  6
CONTINUOUS
 62
               4
100
AcDbCircle
 10
-30.499999996000042
 20
-56.800000000000054
 30
0.0
 40
0.5
100
AcDbArc
 50
179.99999999999963
 51
269.99999999999937
  0
LINE
  5
3C4
100
AcDbEntity
  8
0
  6
CONTINUOUS
 62
               4
100
AcDbLine
 10
-29.000000000000114
 20
-57.40000000000002
 30
0.0
 11
-29.000000000000114
 21
-55.800000000000054
 31
0.0
  0
LINE
  5
3C5
100
AcDbEntity
  8
0
  6
CONTINUOUS
 62
               4
100
AcDbLine
 10
-29.000000000000114
 20
-55.800000000000054
 30
0.0
 11
-17.000000004000071
 21
-55.800000000000054
 31
0.0
  0
LINE
  5
3C6
100
AcDbEntity
  8
0
  6
CONTINUOUS
 62
               4
100
AcDbLine
 10
-30.999999996000042
 20
-54.393939382800042
 30
0.0
 11
-38.502020193733415
 21
-54.393939382800042
 31
0.0
  0
LINE
  5
3C7
100
AcDbEntity
  8
0
  6
CONTINUOUS
 62
               4
100
AcDbLine
 10
-39.004040395466745
 20
-53.898989888133357
 30
0.0
 11
-39.004040395466745
 21
-37.544444442933255
 31
0.0
  0
LINE
  5
3C8
100
AcDbEntity
  8
0
  6
CONTINUOUS
 62
               4
100
AcDbLine
 10
-34.005050499333379
 20
-34.899999999999906
 30
0.0
 11
-38.714141405733358
 21
-37.091919190666644
 31
0.0
  0
LINE
  5
3C9
100
AcDbEntity
  8
0
  6
CONTINUOUS
 62
               4
100
AcDbLine
 10
-34.005050499333379
 20
-62.399999999999878
 30
0.0
 11
-38.098989890933353
 21
-62.399999999999878
 31
0.0
  0
LINE
  5
3CA
100
AcDbEntity
  8
0
  6
CONTINUOUS
 62
               4
100
AcDbLine
 10
-35.603030296399993
 20
-62.399999999999878
 30
0.0
 11
-35.603030296399993
 21
-54.396969692399935
 31
0.0
  0
LINE
  5
3CB
100
AcDbEntity
  8
0
  6
CONTINUOUS
 62
               4
100
AcDbLine
 10
-37.398989891333372
 20
-62.399999999999878
 30
0.0
 11
-37.398989891333372
 21
-54.396969692399935
 31
0.0
  0
LINE
  5
3CC
100
AcDbEntity
  8
0
  6
CONTINUOUS
 62
               4
100
AcDbLine
 10
-40.997979788266662
 20
-62.399999999999878
 30
0.0
 11
-40.997979788266662
 21
-60.902020193733236
 31
0.0
  0
LINE
  5
3CD
100
AcDbEntity
  8
0
  6
CONTINUOUS
 62
               4
100
AcDbLine
 10
-40.099999990800029
 20
-55.796969691599898
 30
0.0
 11
-40.997979788266662
 21
-60.902020193733236
 31
0.0
  0
LINE
  5
3CE
100
AcDbEntity
  8
0
  6
CONTINUOUS
 62
               4
100
AcDbLine
 10
-40.00101009186676
 20
-62.399999999999878
 30
0.0
 11
-40.00101009186676
 21
-60.986868678533213
 31
0.0
  0
LINE
  5
3CF
100
AcDbEntity
  8
0
  6
CONTINUOUS
 62
               4
100
AcDbLine
 10
-40.00101009186676
 20
-62.399999999999878
 30
0.0
 11
-40.997979788266662
 21
-62.399999999999878
 31
0.0
  0
LINE
  5
3D0
100
AcDbEntity
  8
0
  6
CONTINUOUS
 62
               4
100
AcDbLine
 10
-38.897979789466717
 20
-54.729292924533254
 30
0.0
 11
-40.015151506000052
 21
-61.071717163333247
 31
0.0
  0
LINE
  5
3D1
100
AcDbEntity
  8
0
  6
CONTINUOUS
 62
               4
100
AcDbLine
 10
-39.103030294400014
 20
-53.39999999599992
 30
0.0
 11
-39.103030294400014
 21
-47.701010100266572
 31
0.0
  0
LINE
  5
3D2
100
AcDbEntity
  8
0
  6
CONTINUOUS
 62
               4
100
AcDbLine
 10
-38.098989890933353
 20
-62.399999999999878
 30
0.0
 11
-38.098989890933353
 21
-54.79999999519994
 31
0.0
  0
LINE
  5
3D3
100
AcDbEntity
  8
0
  6
CONTINUOUS
 62
               4
100
AcDbLine
 10
-38.403030294800033
 20
-62.095959596133198
 30
0.0
 11
-38.403030294800033
 21
-56.199999994399903
 31
0.0
  0
LINE
  5
3D4
100
AcDbEntity
  8
0
  6
CONTINUOUS
 62
               4
100
AcDbLine
 10
-38.098989890933353
 20
-62.399999999999878
 30
0.0
 11
-38.403030294800033
 21
-62.095959596133198
 31
0.0
  0
LINE
  5
3D5
100
AcDbEntity
  8
0
  6
CONTINUOUS
 62
               4
100
AcDbLine
 10
-34.005050499333379
 20
-61.396969688399921
 30
0.0
 11
-34.499999994000063
 21
-61.396969688399921
 31
0.0
  0
LINE
  5
3D6
100
AcDbEntity
  8
0
  6
CONTINUOUS
 62
               4
100
AcDbLine
 10
-34.005050499333379
 20
-56.397979792266554
 30
0.0
 11
-34.499999994000063
 21
-56.397979792266554
 31
0.0
  0
LINE
  5
3D7
100
AcDbEntity
  8
0
  6
CONTINUOUS
 62
               4
100
AcDbLine
 10
-38.098989890933353
 20
-55.89595959053328
 30
0.0
 11
-38.403030294800033
 21
-56.199999994399903
 31
0.0
  0
LINE
  5
3D8
100
AcDbEntity
  8
0
  6
CONTINUOUS
 62
               4
100
AcDbLine
 10
-40.099999990800029
 20
-55.796969691599898
 30
0.0
 11
-40.099999990800029
 21
-46.696969696799911
 31
0.0
  0
LINE
  5
3D9
100
AcDbEntity
  8
0
  6
CONTINUOUS
 62
               4
100
AcDbLine
 10
-39.103030294400014
 20
-46.399999999999878
 30
0.0
 11
-39.803030293999996
 21
-46.399999999999878
 31
0.0
  0
LINE
  5
3DA
100
AcDbEntity
  8
0
  6
CONTINUOUS
 62
               4
100
AcDbLine
 10
-39.004040395466745
 20
-47.701010100266572
 30
0.0
 11
-39.103030294400014
 21
-47.701010100266572
 31
0.0
  0
LINE
  5
3DB
100
AcDbEntity
  8
0
  6
CONTINUOUS
 62
               4
100
AcDbLine
 10
-39.004040395466745
 20
-46.498989898933203
 30
0.0
 11
-39.103030294400014
 21
-46.399999999999878
 31
0.0
  0
LINE
  5
3DC
100
AcDbEntity
  8
0
  6
CONTINUOUS
 62
               4
100
AcDbLine
 10
-35.850505043733392
 20
-66.967676765066543
 30
0.0
 11
-35.850505043733392
 21
-62.399999999999878
 31
0.0
  0
LINE
  5
3DD
100
AcDbEntity
  8
0
  6
CONTINUOUS
 62
               4
100
AcDbLine
 10
-37.151515144000086
 20
-69.894949490666548
 30
0.0
 11
-37.151515144000086
 21
-66.564646462266538
 31
0.0
  0
LINE
  5
3DE
100
AcDbEntity
  8
0
  6
CONTINUOUS
 62
               4
100
AcDbLine
 10
-35.850505043733392
 20
-69.894949490666548
 30
0.0
 11
-35.850505043733392
 21
-67.31414141133321
 31
0.0
  0
LINE
  5
3DF
100
AcDbEntity
  8
0
  6
CONTINUOUS
 62
               4
100
AcDbLine
 10
-35.850505043733392
 20
-69.894949490666548
 30
0.0
 11
-37.151515144000086
 21
-69.894949490666548
 31
0.0
  0
LINE
  5
3E0
100
AcDbEntity
  8
0
  6
CONTINUOUS
 62
               4
100
AcDbLine
 10
-36.25353534653334
 20
-73.394949488666569
 30
0.0
 11
-36.25353534653334
 21
-69.894949490666548
 31
0.0
  0
LINE
  5
3E1
100
AcDbEntity
  8
0
  6
CONTINUOUS
 62
               4
100
AcDbLine
 10
-36.748484841200025
 20
-73.394949488666569
 30
0.0
 11
-36.748484841200025
 21
-69.894949490666548
 31
0.0
  0
LINE
  5
3E2
100
AcDbEntity
  8
0
  6
CONTINUOUS
 62
             200
100
AcDbLine
 10
-37.999999992000085
 20
-66.06969696759991
 30
0.0
 11
-35.002020195733394
 21
-67.802020198933192
 31
0.0
  0
LINE
  5
3E3
100
AcDbEntity
  8
0
  6
CONTINUOUS
 62
             200
100
AcDbLine
 10
-37.999999992000085
 20
-65.723232321333242
 30
0.0
 11
-35.002020195733394
 21
-67.455555552666581
 31
0.0
  0
LINE
  5
3E4
100
AcDbEntity
  8
0
  6
CONTINUOUS
 62
               4
100
AcDbLine
 10
-37.151515144000086
 20
-66.21818181599987
 30
0.0
 11
-37.151515144000086
 21
-62.399999999999878
 31
0.0
  0
LINE
  5
3E5
100
AcDbEntity
  8
0
  6
CONTINUOUS
 62
               4
100
AcDbLine
 10
-34.005050499333379
 20
-62.399999999999878
 30
0.0
 11
-34.005050499333379
 21
-61.396969688399921
 31
0.0
  0
LINE
  5
3E6
100
AcDbEntity
  8
0
  6
CONTINUOUS
 62
               4
100
AcDbLine
 10
-34.005050499333379
 20
-56.397979792266554
 30
0.0
 11
-34.005050499333379
 21
-54.396969692399935
 31
0.0
  0
LINE
  5
3E7
100
AcDbEntity
  8
0
  6
CONTINUOUS
 62
               4
100
AcDbLine
 10
-34.499999994000063
 20
-61.396969688399921
 30
0.0
 11
-34.499999994000063
 21
-56.397979792266554
 31
0.0
  0
LINE
  5
3E8
100
AcDbEntity
  8
0
  6
CONTINUOUS
 62
               4
100
AcDbLine
 10
-34.005050499333379
 20
-34.899999999999906
 30
0.0
 11
-34.005050499333379
 21
-54.393939382800042
 31
0.0
  0
ARC
  5
3E9
100
AcDbEntity
  8
0
  6
CONTINUOUS
 62
               4
100
AcDbCircle
 10
-38.49803305756916
 20
-37.549484497491662
 30
0.0
 40
0.5060324378497572
100
AcDbArc
 50
115.28139190005248
 51
179.4293278301144
  0
ARC
  5
3EA
100
AcDbEntity
  8
0
  6
CONTINUOUS
 62
               4
100
AcDbCircle
 10
-38.503834119278736
 20
-53.893708514783654
 30
0.0
 40
0.5002341568128574
100
AcDbArc
 50
180.6049287534631
 51
270.20776371315344
  0
ARC
  5
3EB
100
AcDbEntity
  8
0
  6
CONTINUOUS
 62
               4
100
AcDbCircle
 10
-39.797896118091899
 20
-46.702103872708122
 30
0.0
 40
0.3021474965435785
100
AcDbArc
 50
90.973632984511639
 51
179.02636701548775
  0
ARC
  5
3EC
100
AcDbEntity
  8
0
  6
CONTINUOUS
 62
               4
100
AcDbCircle
 10
-38.59998694086687
 20
-53.397302043044434
 30
0.0
 40
0.5030505883944908
100
AcDbArc
 50
180.30728929118945
 51
216.56260835465233
  0
ARC
  5
3ED
100
AcDbEntity
  8
0
  6
CONTINUOUS
 62
               4
100
AcDbCircle
 10
-38.501921122698036
 20
-54.803476452093619
 30
0.0
 40
0.4029462287748787
100
AcDbArc
 50
0.4943309171552727
 51
169.39117201772518
  0
ARC
  5
3EE
100
AcDbEntity
  8
0
  6
CONTINUOUS
 62
               4
100
AcDbCircle
 10
-38.501921122698036
 20
25.203476452093625
 30
0.0
 40
0.4029462287748787
100
AcDbArc
 50
190.60882798227402
 51
359.50566908284389
  0
ARC
  5
3EF
100
AcDbEntity
  8
0
  6
CONTINUOUS
 62
               4
100
AcDbCircle
 10
-38.59998694086687
 20
23.797302043044439
 30
0.0
 40
0.5030505883944908
100
AcDbArc
 50
143.43739164534688
 51
179.69271070880976
  0
ARC
  5
3F0
100
AcDbEntity
  8
0
  6
CONTINUOUS
 62
               4
100
AcDbCircle
 10
-39.797896118091899
 20
17.102103872708128
 30
0.0
 40
0.3021474965435785
100
AcDbArc
 50
180.97363298451145
 51
269.02636701548755
  0
ARC
  5
3F1
100
AcDbEntity
  8
0
  6
CONTINUOUS
 62
               4
100
AcDbCircle
 10
-38.503834119278736
 20
24.29370851478366
 30
0.0
 40
0.5002341568128574
100
AcDbArc
 50
89.792236286845736
 51
179.39507124653611
  0
ARC
  5
3F2
100
AcDbEntity
  8
0
  6
CONTINUOUS
 62
               4
100
AcDbCircle
 10
-38.49803305756916
 20
7.9494844974916674
 30
0.0
 40
0.5060324378497572
100
AcDbArc
 50
180.57067216988474
 51
244.71860809994666
  0
LINE
  5
3F3
100
AcDbEntity
  8
0
  6
CONTINUOUS
 62
               4
100
AcDbLine
 10
-34.005050499333379
 20
5.2999999999999119
 30
0.0
 11
-34.005050499333379
 21
24.793939382800048
 31
0.0
  0
LINE
  5
3F4
100
AcDbEntity
  8
0
  6
CONTINUOUS
 62
               4
100
AcDbLine
 10
-34.499999994000063
 20
31.796969688399926
 30
0.0
 11
-34.499999994000063
 21
26.79797979226656
 31
0.0
  0
LINE
  5
3F5
100
AcDbEntity
  8
0
  6
CONTINUOUS
 62
               4
100
AcDbLine
 10
-34.005050499333379
 20
26.79797979226656
 30
0.0
 11
-34.005050499333379
 21
24.796969692399941
 31
0.0
  0
LINE
  5
3F6
100
AcDbEntity
  8
0
  6
CONTINUOUS
 62
               4
100
AcDbLine
 10
-34.005050499333379
 20
32.799999999999883
 30
0.0
 11
-34.005050499333379
 21
31.796969688399926
 31
0.0
  0
LINE
  5
3F7
100
AcDbEntity
  8
0
  6
CONTINUOUS
 62
               4
100
AcDbLine
 10
-37.151515144000086
 20
36.618181815999876
 30
0.0
 11
-37.151515144000086
 21
32.799999999999883
 31
0.0
  0
LINE
  5
3F8
100
AcDbEntity
  8
0
  6
CONTINUOUS
 62
             200
100
AcDbLine
 10
-37.999999992000085
 20
36.123232321333248
 30
0.0
 11
-35.002020195733394
 21
37.855555552666587
 31
0.0
  0
LINE
  5
3F9
100
AcDbEntity
  8
0
  6
CONTINUOUS
 62
             200
100
AcDbLine
 10
-37.999999992000085
 20
36.469696967599916
 30
0.0
 11
-35.002020195733394
 21
38.202020198933198
 31
0.0
  0
LINE
  5
3FA
100
AcDbEntity
  8
0
  6
CONTINUOUS
 62
               4
100
AcDbLine
 10
-36.748484841200025
 20
43.794949488666575
 30
0.0
 11
-36.748484841200025
 21
40.294949490666554
 31
0.0
  0
LINE
  5
3FB
100
AcDbEntity
  8
0
  6
CONTINUOUS
 62
               4
100
AcDbLine
 10
-36.25353534653334
 20
43.794949488666575
 30
0.0
 11
-36.25353534653334
 21
40.294949490666554
 31
0.0
  0
LINE
  5
3FC
100
AcDbEntity
  8
0
  6
CONTINUOUS
 62
               4
100
AcDbLine
 10
-35.850505043733392
 20
40.294949490666554
 30
0.0
 11
-37.151515144000086
 21
40.294949490666554
 31
0.0
  0
LINE
  5
3FD
100
AcDbEntity
  8
0
  6
CONTINUOUS
 62
               4
100
AcDbLine
 10
-35.850505043733392
 20
40.294949490666554
 30
0.0
 11
-35.850505043733392
 21
37.714141411333216
 31
0.0
  0
LINE
  5
3FE
100
AcDbEntity
  8
0
  6
CONTINUOUS
 62
               4
100
AcDbLine
 10
-37.151515144000086
 20
40.294949490666554
 30
0.0
 11
-37.151515144000086
 21
36.964646462266543
 31
0.0
  0
LINE
  5
3FF
100
AcDbEntity
  8
0
  6
CONTINUOUS
 62
               4
100
AcDbLine
 10
-35.850505043733392
 20
37.367676765066548
 30
0.0
 11
-35.850505043733392
 21
32.799999999999883
 31
0.0
  0
LINE
  5
400
100
AcDbEntity
  8
0
  6
CONTINUOUS
 62
               4
100
AcDbLine
 10
-39.004040395466745
 20
16.898989898933209
 30
0.0
 11
-39.103030294400014
 21
16.799999999999883
 31
0.0
  0
LINE
  5
401
100
AcDbEntity
  8
0
  6
CONTINUOUS
 62
               4
100
AcDbLine
 10
-39.004040395466745
 20
18.101010100266578
 30
0.0
 11
-39.103030294400014
 21
18.101010100266578
 31
0.0
  0
LINE
  5
402
100
AcDbEntity
  8
0
  6
CONTINUOUS
 62
               4
100
AcDbLine
 10
-39.103030294400014
 20
16.799999999999883
 30
0.0
 11
-39.803030293999996
 21
16.799999999999883
 31
0.0
  0
LINE
  5
403
100
AcDbEntity
  8
0
  6
CONTINUOUS
 62
               4
100
AcDbLine
 10
-40.099999990800029
 20
26.196969691599904
 30
0.0
 11
-40.099999990800029
 21
17.096969696799917
 31
0.0
  0
LINE
  5
404
100
AcDbEntity
  8
0
  6
CONTINUOUS
 62
               4
100
AcDbLine
 10
-38.098989890933353
 20
26.295959590533286
 30
0.0
 11
-38.403030294800033
 21
26.599999994399909
 31
0.0
  0
LINE
  5
405
100
AcDbEntity
  8
0
  6
CONTINUOUS
 62
               4
100
AcDbLine
 10
-34.005050499333379
 20
26.79797979226656
 30
0.0
 11
-34.499999994000063
 21
26.79797979226656
 31
0.0
  0
LINE
  5
406
100
AcDbEntity
  8
0
  6
CONTINUOUS
 62
               4
100
AcDbLine
 10
-34.005050499333379
 20
31.796969688399926
 30
0.0
 11
-34.499999994000063
 21
31.796969688399926
 31
0.0
  0
LINE
  5
407
100
AcDbEntity
  8
0
  6
CONTINUOUS
 62
               4
100
AcDbLine
 10
-38.098989890933353
 20
32.799999999999883
 30
0.0
 11
-38.403030294800033
 21
32.495959596133204
 31
0.0
  0
LINE
  5
408
100
AcDbEntity
  8
0
  6
CONTINUOUS
 62
               4
100
AcDbLine
 10
-38.403030294800033
 20
32.495959596133204
 30
0.0
 11
-38.403030294800033
 21
26.599999994399909
 31
0.0
  0
LINE
  5
409
100
AcDbEntity
  8
0
  6
CONTINUOUS
 62
               4
100
AcDbLine
 10
-38.098989890933353
 20
32.799999999999883
 30
0.0
 11
-38.098989890933353
 21
25.199999995199946
 31
0.0
  0
LINE
  5
40A
100
AcDbEntity
  8
0
  6
CONTINUOUS
 62
               4
100
AcDbLine
 10
-39.103030294400014
 20
23.799999995999926
 30
0.0
 11
-39.103030294400014
 21
18.101010100266578
 31
0.0
  0
LINE
  5
40B
100
AcDbEntity
  8
0
  6
CONTINUOUS
 62
               4
100
AcDbLine
 10
-38.897979789466717
 20
25.12929292453326
 30
0.0
 11
-40.015151506000052
 21
31.471717163333253
 31
0.0
  0
LINE
  5
40C
100
AcDbEntity
  8
0
  6
CONTINUOUS
 62
               4
100
AcDbLine
 10
-40.00101009186676
 20
32.799999999999883
 30
0.0
 11
-40.997979788266662
 21
32.799999999999883
 31
0.0
  0
LINE
  5
40D
100
AcDbEntity
  8
0
  6
CONTINUOUS
 62
               4
100
AcDbLine
 10
-40.00101009186676
 20
32.799999999999883
 30
0.0
 11
-40.00101009186676
 21
31.386868678533219
 31
0.0
  0
LINE
  5
40E
100
AcDbEntity
  8
0
  6
CONTINUOUS
 62
               4
100
AcDbLine
 10
-40.099999990800029
 20
26.196969691599904
 30
0.0
 11
-40.997979788266662
 21
31.302020193733242
 31
0.0
  0
LINE
  5
40F
100
AcDbEntity
  8
0
  6
CONTINUOUS
 62
               4
100
AcDbLine
 10
-40.997979788266662
 20
32.799999999999883
 30
0.0
 11
-40.997979788266662
 21
31.302020193733242
 31
0.0
  0
LINE
  5
410
100
AcDbEntity
  8
0
  6
CONTINUOUS
 62
               4
100
AcDbLine
 10
-37.398989891333372
 20
32.799999999999883
 30
0.0
 11
-37.398989891333372
 21
24.796969692399941
 31
0.0
  0
LINE
  5
411
100
AcDbEntity
  8
0
  6
CONTINUOUS
 62
               4
100
AcDbLine
 10
-35.603030296399993
 20
32.799999999999883
 30
0.0
 11
-35.603030296399993
 21
24.796969692399941
 31
0.0
  0
LINE
  5
412
100
AcDbEntity
  8
0
  6
CONTINUOUS
 62
               4
100
AcDbLine
 10
-34.005050499333379
 20
32.799999999999883
 30
0.0
 11
-38.098989890933353
 21
32.799999999999883
 31
0.0
  0
LINE
  5
413
100
AcDbEntity
  8
0
  6
CONTINUOUS
 62
               4
100
AcDbLine
 10
-34.005050499333379
 20
5.2999999999999119
 30
0.0
 11
-38.714141405733358
 21
7.4919191906666498
 31
0.0
  0
LINE
  5
414
100
AcDbEntity
  8
0
  6
CONTINUOUS
 62
               4
100
AcDbLine
 10
-39.004040395466745
 20
24.298989888133363
 30
0.0
 11
-39.004040395466745
 21
7.9444444429332606
 31
0.0
  0
LINE
  5
415
100
AcDbEntity
  8
0
  6
CONTINUOUS
 62
               4
100
AcDbLine
 10
-30.999999996000042
 20
24.793939382800048
 30
0.0
 11
-38.502020193733415
 21
24.793939382800048
 31
0.0
  0
LINE
  5
416
100
AcDbEntity
  8
0
  6
CONTINUOUS
 62
               4
100
AcDbLine
 10
-19.0
 20
26.20000000000006
 30
0.0
 11
-30.999999996000042
 21
26.20000000000006
 31
0.0
  0
LINE
  5
417
100
AcDbEntity
  8
0
  6
CONTINUOUS
 62
               4
100
AcDbLine
 10
-19.0
 20
27.800000000000026
 30
0.0
 11
-19.0
 21
26.20000000000006
 31
0.0
  0
ARC
  5
418
100
AcDbEntity
  8
0
  6
CONTINUOUS
 62
               4
100
AcDbCircle
 10
-17.500000004000071
 20
27.20000000000006
 30
0.0
 40
0.5
100
AcDbArc
 50
0.0
 51
89.999999999999815
  0
ARC
  5
419
100
AcDbEntity
  8
0
  6
CONTINUOUS
 62
               4
100
AcDbCircle
 10
-30.499999996000042
 20
27.20000000000006
 30
0.0
 40
0.5
100
AcDbArc
 50
93.919585899650798
 51
179.99999999999963
  0
ARC
  5
41A
100
AcDbEntity
  8
0
  6
CONTINUOUS
 62
               4
100
AcDbCircle
 10
-30.201087915128255
 20
27.201088005128227
 30
0.0
 40
0.5989129231257409
100
AcDbArc
 50
89.895914524772735
 51
180.10408547522667
  0
ARC
  5
41B
100
AcDbEntity
  8
0
  6
CONTINUOUS
 62
               4
100
AcDbCircle
 10
-17.799904943351407
 20
27.200095146648678
 30
0.0
 40
0.5999048008965869
100
AcDbArc
 50
56.247417870393882
 51
90.009087277546172
  0
LINE
  5
41C
100
AcDbEntity
  8
0
  6
CONTINUOUS
 62
               4
100
AcDbLine
 10
-17.800000090000026
 20
27.800000000000026
 30
0.0
 11
-30.199999910000088
 21
27.800000000000026
 31
0.0
  0
LINE
  5
41D
100
AcDbEntity
  8
0
  6
CONTINUOUS
 62
               4
100
AcDbLine
 10
-17.500000004000071
 20
27.70000000000006
 30
0.0
 11
-19.0
 21
27.70000000000006
 31
0.0
  0
LINE
  5
41E
100
AcDbEntity
  8
0
  6
CONTINUOUS
 62
               4
100
AcDbLine
 10
-28.300000000000068
 20
27.20000000000006
 30
0.0
 11
-30.999999996000042
 21
27.20000000000006
 31
0.0
  0
LINE
  5
41F
100
AcDbEntity
  8
0
  6
CONTINUOUS
 62
               4
100
AcDbLine
 10
-28.300000000000068
 20
27.800000000000026
 30
0.0
 11
-28.300000000000068
 21
27.20000000000006
 31
0.0
  0
LINE
  5
420
100
AcDbEntity
  8
0
  6
CONTINUOUS
 62
               4
100
AcDbLine
 10
-17.0
 20
5.2999999999999972
 30
0.0
 11
-34.00000281652683
 21
5.2999999999999972
 31
0.0
  0
LINE
  5
421
100
AcDbEntity
  8
0
  6
CONTINUOUS
 62
               4
100
AcDbLine
 10
-17.0
 20
27.200000000000003
 30
0.0
 11
-17.0
 21
5.2999999999999972
 31
0.0
  0
LINE
  5
422
100
AcDbEntity
  8
0
  6
CONTINUOUS
 62
               4
100
AcDbLine
 10
-31.0
 20
5.2999999999999972
 30
0.0
 11
-31.0
 21
27.19999999493227
 31
0.0
  0
LINE
  5
423
100
AcDbEntity
  8
0
  6
CONTINUOUS
 62
               4
100
AcDbLine
 10
-36.25353534653334
 20
43.794949488666575
 30
0.0
 11
-36.748484841200025
 21
43.794949488666575
 31
0.0
  0
ENDBLK
  5
424
100
AcDbEntity
  8
0
100
AcDbBlockEnd
  0
BLOCK
  5
425
100
AcDbEntity
  8
0
100
AcDbBlockBegin
  2
EA10A6-7
 70
               0
 10
0.0
 20
0.0
 30
0.0
  3
EA10A6-7
  1

  0
LINE
  5
426
100
AcDbEntity
  8
0
  6
PHANTOM
 62
             200
100
AcDbLine
 10
16.200000000000045
 20
-0.7980029999999942
 30
0.0
 11
16.200000000000045
 21
-8.7980029999999942
 31
0.0
  0
LINE
  5
427
100
AcDbEntity
  8
0
  6
PHANTOM
 62
             200
100
AcDbLine
 10
14.200000000000045
 20
-0.7980029999999942
 30
0.0
 11
14.200000000000045
 21
-8.7980029999999942
 31
0.0
  0
LINE
  5
428
100
AcDbEntity
  8
0
  6
PHANTOM
 62
             200
100
AcDbLine
 10
16.700000000000045
 20
-1.2980029999999942
 30
0.0
 11
16.700000000000045
 21
-8.2980029999999942
 31
0.0
  0
ARC
  5
429
100
AcDbEntity
  8
0
  6
PHANTOM
 62
             200
100
AcDbCircle
 10
16.200000000000045
 20
-8.2980029999999942
 30
0.0
 40
0.5
100
AcDbArc
 50
269.99999999999937
 51
0.0
  0
ARC
  5
42A
100
AcDbEntity
  8
0
  6
PHANTOM
 62
             200
100
AcDbCircle
 10
16.200000000000045
 20
-1.2980029999999942
 30
0.0
 40
0.5
100
AcDbArc
 50
0.0
 51
89.999999999999815
  0
ARC
  5
42B
100
AcDbEntity
  8
0
  6
PHANTOM
 62
             200
100
AcDbCircle
 10
16.200000000000045
 20
-18.898002999999989
 30
0.0
 40
0.5
100
AcDbArc
 50
0.0
 51
89.999999999999815
  0
ARC
  5
42C
100
AcDbEntity
  8
0
  6
PHANTOM
 62
             200
100
AcDbCircle
 10
16.200000000000045
 20
-25.898002999999989
 30
0.0
 40
0.5
100
AcDbArc
 50
269.99999999999937
 51
0.0
  0
LINE
  5
42D
100
AcDbEntity
  8
0
  6
PHANTOM
 62
             200
100
AcDbLine
 10
16.700000000000045
 20
-18.898002999999989
 30
0.0
 11
16.700000000000045
 21
-25.898002999999989
 31
0.0
  0
LINE
  5
42E
100
AcDbEntity
  8
0
  6
PHANTOM
 62
             200
100
AcDbLine
 10
14.200000000000045
 20
-18.398002999999989
 30
0.0
 11
14.200000000000045
 21
-26.398002999999989
 31
0.0
  0
LINE
  5
42F
100
AcDbEntity
  8
0
  6
PHANTOM
 62
             200
100
AcDbLine
 10
16.200000000000045
 20
-18.398002999999989
 30
0.0
 11
16.200000000000045
 21
-26.398002999999989
 31
0.0
  0
LINE
  5
430
100
AcDbEntity
  8
0
  6
PHANTOM
 62
             200
100
AcDbLine
 10
2.7000000000000455
 20
-8.7980029999999942
 30
0.0
 11
16.200000000000045
 21
-8.7980029999999942
 31
0.0
  0
LINE
  5
431
100
AcDbEntity
  8
0
  6
PHANTOM
 62
             200
100
AcDbLine
 10
2.7000000000000455
 20
-0.7980029999999942
 30
0.0
 11
16.200000000000045
 21
-0.7980029999999942
 31
0.0
  0
LINE
  5
432
100
AcDbEntity
  8
0
  6
CENTER
 62
               2
100
AcDbLine
 10
0.2162062056380023
 20
-4.7980029999999942
 30
0.0
 11
17.830000000000041
 21
-4.7980029999999942
 31
0.0
  0
LINE
  5
433
100
AcDbEntity
  8
0
  6
PHANTOM
 62
             200
100
AcDbLine
 10
2.7000000000000455
 20
-26.398002999999989
 30
0.0
 11
16.200000000000045
 21
-26.398002999999989
 31
0.0
  0
LINE
  5
434
100
AcDbEntity
  8
0
  6
PHANTOM
 62
             200
100
AcDbLine
 10
2.7000000000000455
 20
-18.398002999999989
 30
0.0
 11
16.200000000000045
 21
-18.398002999999989
 31
0.0
  0
LINE
  5
435
100
AcDbEntity
  8
0
  6
CENTER
 62
               2
100
AcDbLine
 10
0.2162062056380023
 20
-22.398002999999989
 30
0.0
 11
17.830000000000041
 21
-22.398002999999989
 31
0.0
  0
LINE
  5
436
100
AcDbEntity
  8
0
  6
CONTINUOUS
 62
               7
100
AcDbLine
 10
-3.2999999999999545
 20
-32.300000000000011
 30
0.0
 11
2.7000000000000455
 21
-32.300000000000011
 31
0.0
  0
LINE
  5
437
100
AcDbEntity
  8
0
  6
CONTINUOUS
 62
               7
100
AcDbLine
 10
-6.2999999999999545
 20
-30.89999999999975
 30
0.0
 11
-6.2999999999999545
 21
-34.89999999999975
 31
0.0
  0
LINE
  5
438
100
AcDbEntity
  8
0
  6
CONTINUOUS
 62
               7
100
AcDbLine
 10
-10.299999999999955
 20
-30.89999999999975
 30
0.0
 11
-10.299999999999955
 21
-34.89999999999975
 31
0.0
  0
LINE
  5
439
100
AcDbEntity
  8
0
  6
CONTINUOUS
 62
               7
100
AcDbLine
 10
-4.6999999999999318
 20
-30.89999999999975
 30
0.0
 11
-4.6999999999999318
 21
-34.89999999999975
 31
0.0
  0
LINE
  5
43A
100
AcDbEntity
  8
0
  6
CONTINUOUS
 62
               7
100
AcDbLine
 10
-11.899999999999977
 20
-30.89999999999975
 30
0.0
 11
-11.899999999999977
 21
-34.89999999999975
 31
0.0
  0
ARC
  5
43B
100
AcDbEntity
  8
0
  6
CONTINUOUS
 62
               7
100
AcDbCircle
 10
-8.2999999999999545
 20
-30.89999999999975
 30
0.0
 40
2.0
100
AcDbArc
 50
0.0
 51
179.99999999999963
  0
ARC
  5
43C
100
AcDbEntity
  8
0
  6
CONTINUOUS
 62
               7
100
AcDbCircle
 10
-8.2999999999999545
 20
-30.89999999999975
 30
0.0
 40
3.6000000000000001
100
AcDbArc
 50
0.0
 51
179.99999999999963
  0
LINE
  5
43D
100
AcDbEntity
  8
0
  6
CENTER
 62
               2
100
AcDbLine
 10
-9.9999999999999432
 20
-32.599999999999795
 30
0.0
 11
-6.5999999999999659
 21
-32.599999999999795
 31
0.0
  0
CIRCLE
  5
43E
100
AcDbEntity
  8
0
  6
CONTINUOUS
 62
               7
100
AcDbCircle
 10
-8.2999999999999545
 20
-32.599999999999795
 30
0.0
 40
1.3000000000000012
  0
CIRCLE
  5
43F
100
AcDbEntity
  8
0
  6
CONTINUOUS
 62
               7
100
AcDbCircle
 10
-8.2999999999999545
 20
-32.599999999999795
 30
0.0
 40
1.1500000000000001
  0
CIRCLE
  5
440
100
AcDbEntity
  8
0
  6
CONTINUOUS
 62
               7
100
AcDbCircle
 10
-8.2999999999999545
 20
-32.599999999999795
 30
0.0
 40
1.1000000000000001
  0
CIRCLE
  5
441
100
AcDbEntity
  8
0
  6
CONTINUOUS
 62
               7
100
AcDbCircle
 10
-8.2999999999999545
 20
-32.599999999999795
 30
0.0
 40
0.75
  0
LINE
  5
442
100
AcDbEntity
  8
0
  6
CONTINUOUS
 62
               7
100
AcDbLine
 10
-13.299999999999955
 20
-23.89999999999975
 30
0.0
 11
-13.299999999999955
 21
-34.89999999999975
 31
0.0
  0
LINE
  5
443
100
AcDbEntity
  8
0
  6
CONTINUOUS
 62
               7
100
AcDbLine
 10
-3.2999999999999545
 20
-23.89999999999975
 30
0.0
 11
-3.2999999999999545
 21
-34.89999999999975
 31
0.0
  0
LINE
  5
444
100
AcDbEntity
  8
0
  6
CONTINUOUS
 62
               7
100
AcDbLine
 10
-14.299999999999955
 20
2.6999999999999886
 30
0.0
 11
-13.299999999999955
 21
2.6999999999999886
 31
0.0
  0
LINE
  5
445
100
AcDbEntity
  8
0
  6
CONTINUOUS
 62
               7
100
AcDbLine
 10
-14.299999999999955
 20
-32.243953424198367
 30
0.0
 11
-14.299999999999955
 21
2.6999999999999886
 31
0.0
  0
LINE
  5
446
100
AcDbEntity
  8
0
  6
CONTINUOUS
 62
               7
100
AcDbLine
 10
-3.2999999999999545
 20
-23.89800286123014
 30
0.0
 11
-3.2999999999999545
 21
-20.348331338584927
 31
0.0
  0
LINE
  5
447
100
AcDbEntity
  8
0
  6
CONTINUOUS
 62
               7
100
AcDbLine
 10
-13.299999999999955
 20
-23.89800286123014
 30
0.0
 11
-13.299999999999955
 21
-10.74833133858499
 31
0.0
  0
ARC
  5
448
100
AcDbEntity
  8
0
  6
CONTINUOUS
 62
               7
100
AcDbCircle
 10
-11.999999999999943
 20
-9.9999998612301795
 30
0.0
 40
1.6000000000000001
100
AcDbArc
 50
269.99999999999937
 51
89.999999999999801
  0
ARC
  5
449
100
AcDbEntity
  8
0
  6
CONTINUOUS
 62
               7
100
AcDbCircle
 10
-4.5999999999999659
 20
-19.599999861230145
 30
0.0
 40
1.6000000000000001
100
AcDbArc
 50
89.999999999999815
 51
269.99999999999937
  0
LINE
  5
44A
100
AcDbEntity
  8
0
  6
CONTINUOUS
 62
               7
100
AcDbLine
 10
-11.999999999999943
 20
-11.599999861230174
 30
0.0
 11
-13.299999999999955
 21
-11.599999861230174
 31
0.0
  0
LINE
  5
44B
100
AcDbEntity
  8
0
  6
CONTINUOUS
 62
               7
100
AcDbLine
 10
-11.999999999999943
 20
-8.3999998612301567
 30
0.0
 11
-13.299999999999955
 21
-8.3999998612301567
 31
0.0
  0
LINE
  5
44C
100
AcDbEntity
  8
0
  6
CONTINUOUS
 62
               7
100
AcDbLine
 10
-4.5999999999999659
 20
-21.19999986123014
 30
0.0
 11
-3.2999999999999545
 21
-21.19999986123014
 31
0.0
  0
LINE
  5
44D
100
AcDbEntity
  8
0
  6
CONTINUOUS
 62
               7
100
AcDbLine
 10
-4.5999999999999659
 20
-17.999999861230151
 30
0.0
 11
-3.2999999999999545
 21
-17.999999861230151
 31
0.0
  0
CIRCLE
  5
44E
100
AcDbEntity
  8
0
  6
CONTINUOUS
 62
               7
100
AcDbCircle
 10
-8.2999999999999545
 20
3.0000001387698774
 30
0.0
 40
0.75
  0
CIRCLE
  5
44F
100
AcDbEntity
  8
0
  6
CONTINUOUS
 62
               7
100
AcDbCircle
 10
-8.2999999999999545
 20
3.0000001387698774
 30
0.0
 40
1.1000000000000001
  0
CIRCLE
  5
450
100
AcDbEntity
  8
0
  6
CONTINUOUS
 62
               7
100
AcDbCircle
 10
-8.2999999999999545
 20
3.0000001387698774
 30
0.0
 40
1.1500000000000001
  0
CIRCLE
  5
451
100
AcDbEntity
  8
0
  6
CONTINUOUS
 62
               7
100
AcDbCircle
 10
-8.2999999999999545
 20
3.0000001387698774
 30
0.0
 40
1.3000000000000012
  0
LINE
  5
452
100
AcDbEntity
  8
0
  6
CENTER
 62
               2
100
AcDbLine
 10
-6.5999999999999659
 20
3.0000001387698774
 30
0.0
 11
-9.9999999999999432
 21
3.0000001387698774
 31
0.0
  0
ARC
  5
453
100
AcDbEntity
  8
0
  6
CONTINUOUS
 62
               7
100
AcDbCircle
 10
-8.2999999999999545
 20
1.3000001387698603
 30
0.0
 40
2.0
100
AcDbArc
 50
179.99999999999963
 51
0.0
  0
LINE
  5
454
100
AcDbEntity
  8
0
  6
CONTINUOUS
 62
               7
100
AcDbLine
 10
-6.2999999999999545
 20
1.3000001387698603
 30
0.0
 11
-6.2999999999999545
 21
5.3000001387698603
 31
0.0
  0
LINE
  5
455
100
AcDbEntity
  8
0
  6
CONTINUOUS
 62
               7
100
AcDbLine
 10
-10.299999999999955
 20
1.3000001387698603
 30
0.0
 11
-10.299999999999955
 21
5.3000001387698603
 31
0.0
  0
LINE
  5
456
100
AcDbEntity
  8
0
  6
CONTINUOUS
 62
               7
100
AcDbLine
 10
-3.2999999999999545
 20
-5.6999998612301397
 30
0.0
 11
-3.2999999999999545
 21
5.3000001387698603
 31
0.0
  0
LINE
  5
457
100
AcDbEntity
  8
0
  6
CONTINUOUS
 62
               7
100
AcDbLine
 10
-13.299999999999955
 20
-5.6999998612301397
 30
0.0
 11
-13.299999999999955
 21
5.3000001387698603
 31
0.0
  0
CIRCLE
  5
458
100
AcDbEntity
  8
0
  6
CONTINUOUS
 62
               7
100
AcDbCircle
 10
0.0000183105469205
 20
-29.599993896484364
 30
0.0
 40
1.5499992370605469
  0
CIRCLE
  5
459
100
AcDbEntity
  8
0
  6
CONTINUOUS
 62
               7
100
AcDbCircle
 10
0.0000183105469205
 20
-0.0000030517578011
 30
0.0
 40
1.5499992370605469
  0
LINE
  5
45A
100
AcDbEntity
  8
0
  6
CENTER
 62
               2
100
AcDbLine
 10
-2.5
 20
-29.599999999999994
 30
0.0
 11
2.5
 21
-29.599999999999994
 31
0.0
  0
LINE
  5
45B
100
AcDbEntity
  8
0
  6
CENTER
 62
               2
100
AcDbLine
 10
-2.5
 20
0.0
 30
0.0
 11
2.5
 21
0.0
 31
0.0
  0
LINE
  5
45C
100
AcDbEntity
  8
0
  6
CENTER
 62
               2
100
AcDbLine
 10
0.0
 20
-27.099999999999994
 30
0.0
 11
0.0
 21
-32.099999999999994
 31
0.0
  0
LINE
  5
45D
100
AcDbEntity
  8
0
  6
CENTER
 62
               2
100
AcDbLine
 10
0.0
 20
2.5
 30
0.0
 11
0.0
 21
-2.5
 31
0.0
  0
LINE
  5
45E
100
AcDbEntity
  8
0
  6
CONTINUOUS
 62
               7
100
AcDbLine
 10
-3.2999999999999545
 20
2.6999999999999886
 30
0.0
 11
2.7000000000000455
 21
2.6999999999999886
 31
0.0
  0
LINE
  5
45F
100
AcDbEntity
  8
0
  6
CONTINUOUS
 62
               7
100
AcDbLine
 10
2.7000000000000455
 20
2.6999999999999886
 30
0.0
 11
2.7000000000000455
 21
-32.300000000000011
 31
0.0
  0
LINE
  5
460
100
AcDbEntity
  8
0
  6
CONTINUOUS
 62
               7
100
AcDbLine
 10
-14.299999999999955
 20
-32.300000000000011
 30
0.0
 11
-13.299999999999955
 21
-32.300000000000011
 31
0.0
  0
LINE
  5
461
100
AcDbEntity
  8
0
  6
CENTER
 62
               2
100
AcDbLine
 10
-8.2999999999999545
 20
-59.248849103416035
 30
0.0
 11
-8.2999999999999545
 21
29.646852242186128
 31
0.0
  0
CIRCLE
  5
462
100
AcDbEntity
  8
0
  6
CONTINUOUS
 62
               7
100
AcDbCircle
 10
-12.0
 20
-9.9999998612301795
 30
0.0
 40
1.5
  0
LINE
  5
463
100
AcDbEntity
  8
0
  6
CONTINUOUS
 62
               7
100
AcDbLine
 10
-11.292893218813447
 20
-10.708105211801524
 30
0.0
 11
-12.707106781186553
 21
-9.2938916494284456
 31
0.0
  0
LINE
  5
464
100
AcDbEntity
  8
0
  6
CONTINUOUS
 62
               7
100
AcDbLine
 10
-12.707106781186553
 20
-10.708105211801524
 30
0.0
 11
-11.292893218813447
 21
-9.2938916494284456
 31
0.0
  0
CIRCLE
  5
465
100
AcDbEntity
  8
0
  6
CONTINUOUS
 62
               7
100
AcDbCircle
 10
-4.6000000000000227
 20
-19.599999861230174
 30
0.0
 40
1.5
  0
LINE
  5
466
100
AcDbEntity
  8
0
  6
CONTINUOUS
 62
               7
100
AcDbLine
 10
-3.8928932188134695
 20
-20.308105211801518
 30
0.0
 11
-5.307106781186576
 21
-18.89389164942844
 31
0.0
  0
LINE
  5
467
100
AcDbEntity
  8
0
  6
CONTINUOUS
 62
               7
100
AcDbLine
 10
-5.307106781186576
 20
-20.308105211801518
 30
0.0
 11
-3.8928932188134695
 21
-18.89389164942844
 31
0.0
  0
LINE
  5
468
100
AcDbEntity
  8
0
  6
CONTINUOUS
 62
               7
100
AcDbLine
 10
-3.2999999999999545
 20
-18.851668383875449
 30
0.0
 11
-3.2999999999999545
 21
-5.6999998612301397
 31
0.0
  0
LINE
  5
469
100
AcDbEntity
  8
0
  6
CONTINUOUS
 62
               7
100
AcDbLine
 10
-13.299999999999955
 20
-9.2516683838753977
 30
0.0
 11
-13.299999999999955
 21
-5.6999998607356588
 31
0.0
  0
ARC
  5
46A
100
AcDbEntity
  8
0
  6
CONTINUOUS
 62
               7
100
AcDbCircle
 10
-8.2999999999999545
 20
1.3000001387698603
 30
0.0
 40
3.0959985693848324
100
AcDbArc
 50
179.99999999999963
 51
0.0
  0
LINE
  5
46B
100
AcDbEntity
  8
0
  6
CONTINUOUS
 62
               7
100
AcDbLine
 10
-5.2040014306151079
 20
1.3000001387698603
 30
0.0
 11
-5.2040014306151079
 21
5.3000001387698603
 31
0.0
  0
LINE
  5
46C
100
AcDbEntity
  8
0
  6
CONTINUOUS
 62
               7
100
AcDbLine
 10
-11.395998569384801
 20
1.3000001387698603
 30
0.0
 11
-11.395998569384801
 21
5.3000001387698603
 31
0.0
  0
LINE
  5
46D
100
AcDbEntity
  8
0
  6
CONTINUOUS
 62
               7
100
AcDbLine
 10
-3.2999999999999545
 20
-5.6999998612301397
 30
0.0
 11
-13.299999999999955
 21
-5.6999998612301397
 31
0.0
  0
LINE
  5
46E
100
AcDbEntity
  8
0
  6
CONTINUOUS
 62
               7
100
AcDbLine
 10
-13.299999999999955
 20
-23.89999999999975
 30
0.0
 11
-3.2999999999999545
 21
-23.89999999999975
 31
0.0
  0
LINE
  5
46F
100
AcDbEntity
  8
0
  6
CONTINUOUS
 62
               4
100
AcDbLine
 10
-12.361999999999966
 20
-35.977999995734081
 30
0.0
 11
-4.2379999999999427
 21
-35.977999995734081
 31
0.0
  0
LINE
  5
470
100
AcDbEntity
  8
0
  6
CONTINUOUS
 62
               4
100
AcDbLine
 10
-12.799999999999955
 20
-53.399999999999977
 30
0.0
 11
-3.7999999999999545
 21
-53.399999999999977
 31
0.0
  0
LINE
  5
471
100
AcDbEntity
  8
0
  6
CONTINUOUS
 62
               4
100
AcDbLine
 10
-13.299999999999955
 20
-55.799999999999955
 30
0.0
 11
-10.099999999999909
 21
-55.799999999999955
 31
0.0
  0
LINE
  5
472
100
AcDbEntity
  8
0
  6
CONTINUOUS
 62
               4
100
AcDbLine
 10
-13.299999999999955
 20
-57.399999999999977
 30
0.0
 11
-3.2999999999999545
 21
-57.399999999999977
 31
0.0
  0
LINE
  5
473
100
AcDbEntity
  8
0
  6
CONTINUOUS
 62
               4
100
AcDbLine
 10
-13.299999999999955
 20
-56.799999999999955
 30
0.0
 11
-10.099999999999909
 21
-56.799999999999955
 31
0.0
  0
LINE
  5
474
100
AcDbEntity
  8
0
  6
CONTINUOUS
 62
               4
100
AcDbLine
 10
-3.2999999999999545
 20
-34.899999999999977
 30
0.0
 11
-13.299999999999955
 21
-34.899999999999977
 31
0.0
  0
ARC
  5
475
100
AcDbEntity
  8
0
  6
CONTINUOUS
 62
               4
100
AcDbCircle
 10
-3.8002970242060883
 20
-35.400297024206083
 30
0.0
 40
0.5002971123771115
100
AcDbArc
 50
0.034016255545966
 51
89.965983744453979
  0
LINE
  5
476
100
AcDbEntity
  8
0
  6
PHANTOM
 62
             200
100
AcDbLine
 10
-6.7999816894531477
 20
-42.399999995730496
 30
0.0
 11
-6.7999816894531477
 21
-40.399999995730496
 31
0.0
  0
LINE
  5
477
100
AcDbEntity
  8
0
  6
PHANTOM
 62
             200
100
AcDbLine
 10
-9.7999816894531477
 20
-42.399999995730496
 30
0.0
 11
-9.7999816894531477
 21
-40.399999995730496
 31
0.0
  0
LINE
  5
478
100
AcDbEntity
  8
0
  6
PHANTOM
 62
             200
100
AcDbLine
 10
-6.7999816894531477
 20
-40.399999995730496
 30
0.0
 11
-9.7999816894531477
 21
-40.399999995730496
 31
0.0
  0
LINE
  5
479
100
AcDbEntity
  8
0
  6
PHANTOM
 62
             200
100
AcDbLine
 10
-6.7999816894531477
 20
-42.399999995730496
 30
0.0
 11
-9.7999816894531477
 21
-42.399999995730496
 31
0.0
  0
LINE
  5
47A
100
AcDbEntity
  8
0
  6
CONTINUOUS
 62
               4
100
AcDbLine
 10
-10.099999999999909
 20
-57.299999999999955
 30
0.0
 11
-3.7999999999999545
 21
-57.299999999999955
 31
0.0
  0
LINE
  5
47B
100
AcDbEntity
  8
0
  6
CONTINUOUS
 62
               4
100
AcDbLine
 10
-10.099999999999909
 20
-57.299999999999955
 30
0.0
 11
-10.099999999999909
 21
-55.799999999999955
 31
0.0
  0
ARC
  5
47C
100
AcDbEntity
  8
0
  6
CONTINUOUS
 62
               4
100
AcDbCircle
 10
-3.7999999999999545
 20
-56.799999999999955
 30
0.0
 40
0.5
100
AcDbArc
 50
269.99999999999937
 51
0.0
  0
CIRCLE
  5
47D
100
AcDbEntity
  8
0
  6
CONTINUOUS
 62
               4
100
AcDbCircle
 10
-9.5505938720702943
 20
-49.899999999999977
 30
0.0
 40
0.25
  0
CIRCLE
  5
47E
100
AcDbEntity
  8
0
  6
CONTINUOUS
 62
               4
100
AcDbCircle
 10
-7.0505938720702943
 20
-49.899999999999977
 30
0.0
 40
0.25
  0
LINE
  5
47F
100
AcDbEntity
  8
0
  6
CONTINUOUS
 62
               4
100
AcDbLine
 10
-3.7379999999999427
 20
-52.899999999999977
 30
0.0
 11
-3.7379999999999427
 21
-36.477999995734081
 31
0.0
  0
ARC
  5
480
100
AcDbEntity
  8
0
  6
CONTINUOUS
 62
               4
100
AcDbCircle
 10
-4.2380179446579405
 20
-52.899982055342036
 30
0.0
 40
0.5000179449799356
100
AcDbArc
 50
270.00205623253072
 51
359.99794376746769
  0
ARC
  5
481
100
AcDbEntity
  8
0
  6
CONTINUOUS
 62
               4
100
AcDbCircle
 10
-3.8002970242060883
 20
-52.899702975793844
 30
0.0
 40
0.5002971123771114
100
AcDbArc
 50
270.03401625554523
 51
359.96598374445318
  0
ARC
  5
482
100
AcDbEntity
  8
0
  6
CONTINUOUS
 62
               4
100
AcDbCircle
 10
-4.2377864392091169
 20
-36.477786434943255
 30
0.0
 40
0.4997864848369056
100
AcDbArc
 50
359.97551728042708
 51
90.024482719571907
  0
ARC
  5
483
100
AcDbEntity
  8
0
  6
CONTINUOUS
 62
               4
100
AcDbCircle
 10
-9.5499999999999545
 20
-49.899999999999977
 30
0.0
 40
2.0000000881710065
100
AcDbArc
 50
89.999999999999815
 51
269.99999999999937
  0
ARC
  5
484
100
AcDbEntity
  8
0
  6
CONTINUOUS
 62
               4
100
AcDbCircle
 10
-7.0499999999999545
 20
-49.899999999999977
 30
0.0
 40
2.0000000881710065
100
AcDbArc
 50
269.99999999999937
 51
89.999999999999801
  0
LINE
  5
485
100
AcDbEntity
  8
0
  6
CONTINUOUS
 62
               4
100
AcDbLine
 10
-9.5499999999999545
 20
-51.899999999999977
 30
0.0
 11
-7.0499999999999545
 21
-51.899999999999977
 31
0.0
  0
LINE
  5
486
100
AcDbEntity
  8
0
  6
CONTINUOUS
 62
               4
100
AcDbLine
 10
-9.5499999999999545
 20
-47.899999999999977
 30
0.0
 11
-7.0499999999999545
 21
-47.899999999999977
 31
0.0
  0
CIRCLE
  5
487
100
AcDbEntity
  8
0
  6
CONTINUOUS
 62
               4
100
AcDbCircle
 10
-9.5505938720702943
 20
-49.899999999999977
 30
0.0
 40
0.7250000000000001
  0
CIRCLE
  5
488
100
AcDbEntity
  8
0
  6
CONTINUOUS
 62
               4
100
AcDbCircle
 10
-7.0505938720702943
 20
-49.899999999999977
 30
0.0
 40
0.7250000000000001
  0
ARC
  5
489
100
AcDbEntity
  8
0
  6
CONTINUOUS
 62
               4
100
AcDbCircle
 10
-10.702911994762871
 20
-56.801088005236977
 30
0.0
 40
0.5989129830170392
100
AcDbArc
 50
269.89591452477231
 51
0.1040854752270701
  0
LINE
  5
48A
100
AcDbEntity
  8
0
  6
CONTINUOUS
 62
               4
100
AcDbLine
 10
-3.2999999999999545
 20
-57.399999999999977
 30
0.0
 11
-3.2999999999999545
 21
-34.899999999999977
 31
0.0
  0
ARC
  5
48B
100
AcDbEntity
  8
0
  6
CONTINUOUS
 62
               4
100
AcDbCircle
 10
-12.800296847864161
 20
-35.399703152135771
 30
0.0
 40
0.4997032403068001
100
AcDbArc
 50
89.965963537146934
 51
180.03403646285233
  0
LINE
  5
48C
100
AcDbEntity
  8
0
  6
CONTINUOUS
 62
               4
100
AcDbLine
 10
-12.861999999999966
 20
-52.899999999999977
 30
0.0
 11
-12.861999999999966
 21
-36.477999995734081
 31
0.0
  0
ARC
  5
48D
100
AcDbEntity
  8
0
  6
CONTINUOUS
 62
               4
100
AcDbCircle
 10
-12.800296847864161
 20
-52.900296847864155
 30
0.0
 40
0.4997032403068001
100
AcDbArc
 50
179.96596353714693
 51
270.03403646285233
  0
ARC
  5
48E
100
AcDbEntity
  8
0
  6
CONTINUOUS
 62
               4
100
AcDbCircle
 10
-12.362575596042234
 20
-52.900575596042245
 30
0.0
 40
0.499424735650256
100
AcDbArc
 50
179.93396556302844
 51
270.06603443697037
  0
ARC
  5
48F
100
AcDbEntity
  8
0
  6
CONTINUOUS
 62
               4
100
AcDbCircle
 10
-12.362807376533624
 20
-36.477192619200366
 30
0.0
 40
0.4991932763770037
100
AcDbArc
 50
89.907331908866567
 51
180.09266809113299
  0
ARC
  5
490
100
AcDbEntity
  8
0
  6
CONTINUOUS
 62
               4
100
AcDbCircle
 10
-12.504095146658187
 20
-56.800095146658151
 30
0.0
 40
0.5999048608870732
100
AcDbArc
 50
179.99091272245337
 51
270.00908727754575
  0
LINE
  5
491
100
AcDbEntity
  8
0
  6
CONTINUOUS
 62
               4
100
AcDbLine
 10
-13.299999999999955
 20
-57.399999999999977
 30
0.0
 11
-13.299999999999955
 21
-34.899999999999977
 31
0.0
  0
LINE
  5
492
100
AcDbEntity
  8
0
  6
CONTINUOUS
 62
               4
100
AcDbLine
 10
-4.2379999999999427
 20
6.3779999957340578
 30
0.0
 11
-12.361999999999966
 21
6.3779999957340578
 31
0.0
  0
LINE
  5
493
100
AcDbEntity
  8
0
  6
CONTINUOUS
 62
               4
100
AcDbLine
 10
-3.7999999999999545
 20
23.799999999999955
 30
0.0
 11
-12.799999999999955
 21
23.799999999999955
 31
0.0
  0
LINE
  5
494
100
AcDbEntity
  8
0
  6
CONTINUOUS
 62
               4
100
AcDbLine
 10
-3.2999999999999545
 20
26.199999999999932
 30
0.0
 11
-6.5
 21
26.199999999999932
 31
0.0
  0
LINE
  5
495
100
AcDbEntity
  8
0
  6
CONTINUOUS
 62
               4
100
AcDbLine
 10
-3.2999999999999545
 20
27.799999999999955
 30
0.0
 11
-13.299999999999955
 21
27.799999999999955
 31
0.0
  0
LINE
  5
496
100
AcDbEntity
  8
0
  6
CONTINUOUS
 62
               4
100
AcDbLine
 10
-3.2999999999999545
 20
27.199999999999932
 30
0.0
 11
-6.5
 21
27.199999999999932
 31
0.0
  0
LINE
  5
497
100
AcDbEntity
  8
0
  6
CONTINUOUS
 62
               4
100
AcDbLine
 10
-13.299999999999955
 20
5.2999999999999545
 30
0.0
 11
-3.2999999999999545
 21
5.2999999999999545
 31
0.0
  0
ARC
  5
498
100
AcDbEntity
  8
0
  6
CONTINUOUS
 62
               4
100
AcDbCircle
 10
-12.799702975793821
 20
5.8002970242060599
 30
0.0
 40
0.5002971123771115
100
AcDbArc
 50
180.03401625554557
 51
269.96598374445358
  0
LINE
  5
499
100
AcDbEntity
  8
0
  6
PHANTOM
 62
             200
100
AcDbLine
 10
-9.800018310546875
 20
12.799999995730474
 30
0.0
 11
-9.800018310546875
 21
10.799999995730474
 31
0.0
  0
LINE
  5
49A
100
AcDbEntity
  8
0
  6
PHANTOM
 62
             200
100
AcDbLine
 10
-6.800018310546875
 20
12.799999995730474
 30
0.0
 11
-6.800018310546875
 21
10.799999995730474
 31
0.0
  0
LINE
  5
49B
100
AcDbEntity
  8
0
  6
PHANTOM
 62
             200
100
AcDbLine
 10
-9.800018310546875
 20
10.799999995730474
 30
0.0
 11
-6.800018310546875
 21
10.799999995730474
 31
0.0
  0
LINE
  5
49C
100
AcDbEntity
  8
0
  6
PHANTOM
 62
             200
100
AcDbLine
 10
-9.800018310546875
 20
12.799999995730474
 30
0.0
 11
-6.800018310546875
 21
12.799999995730474
 31
0.0
  0
LINE
  5
49D
100
AcDbEntity
  8
0
  6
CONTINUOUS
 62
               4
100
AcDbLine
 10
-6.5
 20
27.699999999999932
 30
0.0
 11
-12.799999999999955
 21
27.699999999999932
 31
0.0
  0
LINE
  5
49E
100
AcDbEntity
  8
0
  6
CONTINUOUS
 62
               4
100
AcDbLine
 10
-6.5
 20
27.699999999999932
 30
0.0
 11
-6.5
 21
26.199999999999932
 31
0.0
  0
ARC
  5
49F
100
AcDbEntity
  8
0
  6
CONTINUOUS
 62
               4
100
AcDbCircle
 10
-12.799999999999955
 20
27.199999999999932
 30
0.0
 40
0.5
100
AcDbArc
 50
89.999999999999815
 51
179.99999999999963
  0
CIRCLE
  5
4A0
100
AcDbEntity
  8
0
  6
CONTINUOUS
 62
               4
100
AcDbCircle
 10
-7.0494061279296147
 20
20.299999999999955
 30
0.0
 40
0.25
  0
CIRCLE
  5
4A1
100
AcDbEntity
  8
0
  6
CONTINUOUS
 62
               4
100
AcDbCircle
 10
-9.5494061279296147
 20
20.299999999999955
 30
0.0
 40
0.25
  0
LINE
  5
4A2
100
AcDbEntity
  8
0
  6
CONTINUOUS
 62
               4
100
AcDbLine
 10
-12.861999999999966
 20
23.299999999999955
 30
0.0
 11
-12.861999999999966
 21
6.8779999957340578
 31
0.0
  0
ARC
  5
4A3
100
AcDbEntity
  8
0
  6
CONTINUOUS
 62
               4
100
AcDbCircle
 10
-12.361982055342082
 20
23.299982055342014
 30
0.0
 40
0.5000179449799356
100
AcDbArc
 50
90.002056232531103
 51
179.99794376746806
  0
ARC
  5
4A4
100
AcDbEntity
  8
0
  6
CONTINUOUS
 62
               4
100
AcDbCircle
 10
-12.799702975793821
 20
23.299702975793821
 30
0.0
 40
0.5002971123771114
100
AcDbArc
 50
90.034016255545609
 51
179.96598374445358
  0
ARC
  5
4A5
100
AcDbEntity
  8
0
  6
CONTINUOUS
 62
               4
100
AcDbCircle
 10
-12.362213560790792
 20
6.8777864349432321
 30
0.0
 40
0.4997864848369056
100
AcDbArc
 50
179.97551728042748
 51
270.02448271957149
  0
ARC
  5
4A6
100
AcDbEntity
  8
0
  6
CONTINUOUS
 62
               4
100
AcDbCircle
 10
-7.0499999999999545
 20
20.299999999999955
 30
0.0
 40
2.0000000881710065
100
AcDbArc
 50
269.99999999999937
 51
89.999999999999801
  0
ARC
  5
4A7
100
AcDbEntity
  8
0
  6
CONTINUOUS
 62
               4
100
AcDbCircle
 10
-9.5499999999999545
 20
20.299999999999955
 30
0.0
 40
2.0000000881710065
100
AcDbArc
 50
89.999999999999815
 51
269.99999999999937
  0
LINE
  5
4A8
100
AcDbEntity
  8
0
  6
CONTINUOUS
 62
               4
100
AcDbLine
 10
-7.0499999999999545
 20
22.299999999999955
 30
0.0
 11
-9.5499999999999545
 21
22.299999999999955
 31
0.0
  0
LINE
  5
4A9
100
AcDbEntity
  8
0
  6
CONTINUOUS
 62
               4
100
AcDbLine
 10
-7.0499999999999545
 20
18.299999999999955
 30
0.0
 11
-9.5499999999999545
 21
18.299999999999955
 31
0.0
  0
CIRCLE
  5
4AA
100
AcDbEntity
  8
0
  6
CONTINUOUS
 62
               4
100
AcDbCircle
 10
-7.0494061279296147
 20
20.299999999999955
 30
0.0
 40
0.7250000000000001
  0
CIRCLE
  5
4AB
100
AcDbEntity
  8
0
  6
CONTINUOUS
 62
               4
100
AcDbCircle
 10
-9.5494061279296147
 20
20.299999999999955
 30
0.0
 40
0.7250000000000001
  0
ARC
  5
4AC
100
AcDbEntity
  8
0
  6
CONTINUOUS
 62
               4
100
AcDbCircle
 10
-5.8970880052370376
 20
27.201088005236954
 30
0.0
 40
0.5989129830170392
100
AcDbArc
 50
89.895914524772735
 51
180.10408547522667
  0
LINE
  5
4AD
100
AcDbEntity
  8
0
  6
CONTINUOUS
 62
               4
100
AcDbLine
 10
-13.299999999999955
 20
27.799999999999955
 30
0.0
 11
-13.299999999999955
 21
5.2999999999999545
 31
0.0
  0
ARC
  5
4AE
100
AcDbEntity
  8
0
  6
CONTINUOUS
 62
               4
100
AcDbCircle
 10
-3.7997031521357485
 20
5.7997031521357485
 30
0.0
 40
0.4997032403068001
100
AcDbArc
 50
269.96596353714654
 51
0.0340364628527164
  0
LINE
  5
4AF
100
AcDbEntity
  8
0
  6
CONTINUOUS
 62
               4
100
AcDbLine
 10
-3.7379999999999427
 20
23.299999999999955
 30
0.0
 11
-3.7379999999999427
 21
6.8779999957340578
 31
0.0
  0
ARC
  5
4B0
100
AcDbEntity
  8
0
  6
CONTINUOUS
 62
               4
100
AcDbCircle
 10
-3.7997031521357485
 20
23.300296847864132
 30
0.0
 40
0.4997032403068001
100
AcDbArc
 50
359.96596353714654
 51
90.034036462852711
  0
ARC
  5
4B1
100
AcDbEntity
  8
0
  6
CONTINUOUS
 62
               4
100
AcDbCircle
 10
-4.2374244039576752
 20
23.300575596042222
 30
0.0
 40
0.499424735650256
100
AcDbArc
 50
359.93396556302804
 51
90.066034436970796
  0
ARC
  5
4B2
100
AcDbEntity
  8
0
  6
CONTINUOUS
 62
               4
100
AcDbCircle
 10
-4.2371926234662851
 20
6.8771926192003434
 30
0.0
 40
0.4991932763770037
100
AcDbArc
 50
269.90733190886618
 51
0.0926680911333844
  0
ARC
  5
4B3
100
AcDbEntity
  8
0
  6
CONTINUOUS
 62
               4
100
AcDbCircle
 10
-4.0959048533418354
 20
27.200095146658128
 30
0.0
 40
0.5999048608870732
100
AcDbArc
 50
359.99091272245295
 51
90.009087277546172
  0
LINE
  5
4B4
100
AcDbEntity
  8
0
  6
CONTINUOUS
 62
               4
100
AcDbLine
 10
-3.2999999999999545
 20
27.799999999999955
 30
0.0
 11
-3.2999999999999545
 21
5.2999999999999545
 31
0.0
  0
ENDBLK
  5
4B5
100
AcDbEntity
  8
0
100
AcDbBlockEnd
  0
BLOCK
  5
4B6
100
AcDbEntity
  8
0
100
AcDbBlockBegin
  2
EA10A6-8
 70
               0
 10
0.0
 20
0.0
 30
0.0
  3
EA10A6-8
  1

  0
LINE
  5
4B7
100
AcDbEntity
  8
0
  6
CONTINUOUS
 62
               7
100
AcDbLine
 10
32.100000013518127
 20
-0.6999999999999886
 30
0.0
 11
32.100000013518127
 21
5.2999999999999261
 31
0.0
  0
LINE
  5
4B8
100
AcDbEntity
  8
0
  6
CONTINUOUS
 62
               7
100
AcDbLine
 10
15.999999971426575
 20
-30.100006103515625
 30
0.0
 11
17.000000013518104
 21
-30.100006103515625
 31
0.0
  0
LINE
  5
4B9
100
AcDbEntity
  8
0
  6
CONTINUOUS
 62
               7
100
AcDbLine
 10
15.999999971426575
 20
0.4999938964843977
 30
0.0
 11
17.000000013518104
 21
0.4999938964843977
 31
0.0
  0
LINE
  5
4BA
100
AcDbEntity
  8
0
  6
CENTER
 62
               2
100
AcDbLine
 10
-2.0
 20
-29.599999999999994
 30
0.0
 11
2.0
 21
-29.599999999999994
 31
0.0
  0
LINE
  5
4BB
100
AcDbEntity
  8
0
  6
CENTER
 62
               2
100
AcDbLine
 10
-2.0
 20
0.0
 30
0.0
 11
2.0
 21
0.0
 31
0.0
  0
LINE
  5
4BC
100
AcDbEntity
  8
0
  6
CONTINUOUS
 62
               7
100
AcDbLine
 10
31.000000013518161
 20
-27.804999999999978
 30
0.0
 11
32.100000013518127
 21
-28.899999999999977
 31
0.0
  0
LINE
  5
4BD
100
AcDbEntity
  8
0
  6
CONTINUOUS
 62
               7
100
AcDbLine
 10
32.548000013518106
 20
-33.700000000000045
 30
0.0
 11
32.100000013518127
 21
-33.700000000000017
 31
0.0
  0
LINE
  5
4BE
100
AcDbEntity
  8
0
  6
CONTINUOUS
 62
               7
100
AcDbLine
 10
32.100000013518127
 20
-28.899999999999977
 30
0.0
 11
32.100000013518127
 21
-34.89999999999992
 31
0.0
  0
LINE
  5
4BF
100
AcDbEntity
  8
0
  6
CONTINUOUS
 62
               7
100
AcDbLine
 10
32.548000013518106
 20
-31.5
 30
0.0
 11
32.548000013518106
 21
-33.700000000000045
 31
0.0
  0
LINE
  5
4C0
100
AcDbEntity
  8
0
  6
CONTINUOUS
 62
               7
100
AcDbLine
 10
31.000000013518161
 20
-34.89999999999992
 30
0.0
 11
31.000000013518161
 21
-23.904999999999973
 31
0.0
  0
LINE
  5
4C1
100
AcDbEntity
  8
0
  6
CONTINUOUS
 62
               7
100
AcDbLine
 10
30.0
 20
-11.594001430615208
 30
0.0
 11
31.0
 21
-11.594001430615208
 31
0.0
  0
LINE
  5
4C2
100
AcDbEntity
  8
0
  6
CONTINUOUS
 62
               7
100
AcDbLine
 10
30.0
 20
-8.3940014306151909
 30
0.0
 11
31.0
 21
-8.3940014306151909
 31
0.0
  0
LINE
  5
4C3
100
AcDbEntity
  8
0
  6
CONTINUOUS
 62
               7
100
AcDbLine
 10
32.548000013518106
 20
1.8999999999999773
 30
0.0
 11
32.100000013518127
 21
1.8999999999999773
 31
0.0
  0
LINE
  5
4C4
100
AcDbEntity
  8
0
  6
CONTINUOUS
 62
               7
100
AcDbLine
 10
32.548000013518106
 20
4.1000000000000227
 30
0.0
 11
32.100000013518127
 21
4.1000000000000227
 31
0.0
  0
LINE
  5
4C5
100
AcDbEntity
  8
0
  6
CONTINUOUS
 62
               7
100
AcDbLine
 10
32.548000013518106
 20
1.8999999999999773
 30
0.0
 11
32.548000013518106
 21
4.1000000000000227
 31
0.0
  0
LINE
  5
4C6
100
AcDbEntity
  8
0
  6
CONTINUOUS
 62
               7
100
AcDbLine
 10
31.000000013518161
 20
5.2999999999999261
 30
0.0
 11
31.000000013518161
 21
-5.6949999999999932
 31
0.0
  0
LINE
  5
4C7
100
AcDbEntity
  8
0
  6
CONTINUOUS
 62
               7
100
AcDbLine
 10
31.000000013518161
 20
-1.7950000000000159
 30
0.0
 11
32.100000013518127
 21
-0.6999999999999886
 31
0.0
  0
CIRCLE
  5
4C8
100
AcDbEntity
  8
0
  6
CONTINUOUS
 62
               2
100
AcDbCircle
 10
4.9999816894531364
 20
-12.300006103515614
 30
0.0
 40
2.5
  0
CIRCLE
  5
4C9
100
AcDbEntity
  8
0
  6
CONTINUOUS
 62
               2
100
AcDbCircle
 10
10.999996948242199
 20
-20.000003051757801
 30
0.0
 40
2.5
  0
CIRCLE
  5
4CA
100
AcDbEntity
  8
0
  6
CONTINUOUS
 62
               7
100
AcDbCircle
 10
10.999996948242199
 20
-20.000003051757801
 30
0.0
 40
2.0669994354248047
  0
CIRCLE
  5
4CB
100
AcDbEntity
  8
0
  6
CONTINUOUS
 62
               7
100
AcDbCircle
 10
4.9999816894531364
 20
-12.300006103515614
 30
0.0
 40
2.0669994354248047
  0
LINE
  5
4CC
100
AcDbEntity
  8
0
  6
CENTER
 62
               2
100
AcDbLine
 10
1.5
 20
-12.300000000000011
 30
0.0
 11
8.5
 21
-12.300000000000011
 31
0.0
  0
LINE
  5
4CD
100
AcDbEntity
  8
0
  6
CENTER
 62
               2
100
AcDbLine
 10
5.0
 20
-8.8000000000000114
 30
0.0
 11
5.0
 21
-15.800000000000011
 31
0.0
  0
LINE
  5
4CE
100
AcDbEntity
  8
0
  6
CENTER
 62
               2
100
AcDbLine
 10
11.0
 20
-16.5
 30
0.0
 11
11.0
 21
-23.5
 31
0.0
  0
LINE
  5
4CF
100
AcDbEntity
  8
0
  6
CENTER
 62
               2
100
AcDbLine
 10
7.5
 20
-20.0
 30
0.0
 11
14.5
 21
-20.0
 31
0.0
  0
LINE
  5
4D0
100
AcDbEntity
  8
0
  6
CONTINUOUS
 62
               7
100
AcDbLine
 10
16.0
 20
-32.300000000000011
 30
0.0
 11
0.0
 21
-32.300000000000011
 31
0.0
  0
LINE
  5
4D1
100
AcDbEntity
  8
0
  6
CONTINUOUS
 62
               7
100
AcDbLine
 10
16.0
 20
2.6999999999999886
 30
0.0
 11
0.0
 21
2.6999999999999886
 31
0.0
  0
LINE
  5
4D2
100
AcDbEntity
  8
0
  6
CONTINUOUS
 62
               7
100
AcDbLine
 10
0.0
 20
2.6999999999999886
 30
0.0
 11
0.0
 21
-32.300000000000011
 31
0.0
  0
LINE
  5
4D3
100
AcDbEntity
  8
0
  6
CONTINUOUS
 62
               7
100
AcDbLine
 10
16.0
 20
-32.300000000000011
 30
0.0
 11
16.0
 21
2.6999999999999886
 31
0.0
  0
LINE
  5
4D4
100
AcDbEntity
  8
0
  6
CONTINUOUS
 62
               7
100
AcDbLine
 10
30.0
 20
-8.3940014306151909
 30
0.0
 11
30.0
 21
-11.594001430615208
 31
0.0
  0
LINE
  5
4D5
100
AcDbEntity
  8
0
  6
CENTER
 62
               2
100
AcDbLine
 10
24.0
 20
29.647850672801098
 30
0.0
 11
24.0
 21
-59.247850672801093
 31
0.0
  0
LINE
  5
4D6
100
AcDbEntity
  8
0
  6
CONTINUOUS
 62
               7
100
AcDbLine
 10
31.0
 20
-5.6949999999999932
 30
0.0
 11
31.0
 21
-23.905000000000001
 31
0.0
  0
LINE
  5
4D7
100
AcDbEntity
  8
0
  6
CONTINUOUS
 62
               7
100
AcDbLine
 10
17.000000013518104
 20
-34.89999999999992
 30
0.0
 11
17.000000013518104
 21
5.2999999999999545
 31
0.0
  0
LINE
  5
4D8
100
AcDbEntity
  8
0
  6
CONTINUOUS
 62
               7
100
AcDbLine
 10
30.0
 20
-8.4950000000000045
 30
0.0
 11
30.199999999999989
 21
-8.4950000000000045
 31
0.0
  0
LINE
  5
4D9
100
AcDbEntity
  8
0
  6
CONTINUOUS
 62
               7
100
AcDbLine
 10
30.0
 20
-11.495000000000005
 30
0.0
 11
30.199999999999989
 21
-11.495000000000005
 31
0.0
  0
LINE
  5
4DA
100
AcDbEntity
  8
0
  6
CONTINUOUS
 62
               7
100
AcDbLine
 10
30.599999999999966
 20
-8.8949999999999818
 30
0.0
 11
30.599999999999966
 21
-11.094999999999999
 31
0.0
  0
ARC
  5
4DB
100
AcDbEntity
  8
0
  6
CONTINUOUS
 62
               7
100
AcDbCircle
 10
30.199999999999989
 20
-8.8949999999999818
 30
0.0
 40
0.4
100
AcDbArc
 50
0.0
 51
89.999999999999815
  0
ARC
  5
4DC
100
AcDbEntity
  8
0
  6
CONTINUOUS
 62
               7
100
AcDbCircle
 10
30.199999999999989
 20
-11.094999999999999
 30
0.0
 40
0.4
100
AcDbArc
 50
270.00000000000023
 51
0.0
  0
LINE
  5
4DD
100
AcDbEntity
  8
0
  6
CONTINUOUS
 62
               7
100
AcDbLine
 10
32.548000013518106
 20
-31.5
 30
0.0
 11
32.100000013518127
 21
-31.5
 31
0.0
  0
LINE
  5
4DE
100
AcDbEntity
  8
0
  6
CONTINUOUS
 62
               7
100
AcDbLine
 10
17.00000002151819
 20
-5.7000000000003297
 30
0.0
 11
31.000000013518161
 21
-5.7000000000001023
 31
0.0
  0
LINE
  5
4DF
100
AcDbEntity
  8
0
  6
CONTINUOUS
 62
               7
100
AcDbLine
 10
17.00000002151819
 20
-23.899999999999636
 30
0.0
 11
31.0
 21
-23.89999999999992
 31
0.0
  0
LINE
  5
4E0
100
AcDbEntity
  8
0
  6
CONTINUOUS
 62
               4
100
AcDbLine
 10
31.0
 20
-34.899999999999977
 30
0.0
 11
31.0
 21
-56.79999999493225
 31
0.0
  0
LINE
  5
4E1
100
AcDbEntity
  8
0
  6
CONTINUOUS
 62
               4
100
AcDbLine
 10
17.0
 20
-56.799999999999983
 30
0.0
 11
17.0
 21
-34.899999999999977
 31
0.0
  0
LINE
  5
4E2
100
AcDbEntity
  8
0
  6
CONTINUOUS
 62
               4
100
AcDbLine
 10
34.000002816526774
 20
-34.899999999999977
 30
0.0
 11
34.000002816526774
 21
-53.397999999999996
 31
0.0
  0
LINE
  5
4E3
100
AcDbEntity
  8
0
  6
CONTINUOUS
 62
               4
100
AcDbLine
 10
34.000002816526774
 20
-34.899999999999977
 30
0.0
 11
36.312002816526785
 21
-35.97799999999998
 31
0.0
  0
LINE
  5
4E4
100
AcDbEntity
  8
0
  6
CONTINUOUS
 62
               4
100
AcDbLine
 10
43.296903939204356
 20
-50.14718261718744
 30
0.0
 11
46.796903939204356
 21
-50.14718261718744
 31
0.0
  0
LINE
  5
4E5
100
AcDbEntity
  8
0
  6
CONTINUOUS
 62
               4
100
AcDbLine
 10
43.296903939204356
 20
-49.64718261718744
 30
0.0
 11
46.796903939204356
 21
-49.64718261718744
 31
0.0
  0
ARC
  5
4E6
100
AcDbEntity
  8
0
  6
CONTINUOUS
 62
               4
100
AcDbCircle
 10
37.300002816526785
 20
-51.897999999999996
 30
0.0
 40
0.5
100
AcDbArc
 50
269.99999999999937
 51
0.0
  0
ARC
  5
4E7
100
AcDbEntity
  8
0
  6
CONTINUOUS
 62
               4
100
AcDbCircle
 10
37.300002816526785
 20
-47.897999999999968
 30
0.0
 40
0.5
100
AcDbArc
 50
0.0
 51
89.999999999999815
  0
LINE
  5
4E8
100
AcDbEntity
  8
0
  6
CONTINUOUS
 62
               4
100
AcDbLine
 10
36.600002816526796
 20
-52.397999999999996
 30
0.0
 11
37.300002816526785
 21
-52.397999999999996
 31
0.0
  0
LINE
  5
4E9
100
AcDbEntity
  8
0
  6
CONTINUOUS
 62
               4
100
AcDbLine
 10
37.800002816526785
 20
-47.897999999999968
 30
0.0
 11
37.800002816526785
 21
-51.897999999999996
 31
0.0
  0
LINE
  5
4EA
100
AcDbEntity
  8
0
  6
CONTINUOUS
 62
               4
100
AcDbLine
 10
36.600002816526796
 20
-47.397999999999968
 30
0.0
 11
37.300002816526785
 21
-47.397999999999968
 31
0.0
  0
LINE
  5
4EB
100
AcDbEntity
  8
0
  6
CONTINUOUS
 62
               4
100
AcDbLine
 10
43.296903939204356
 20
-50.547182617187417
 30
0.0
 11
43.296903939204356
 21
-49.247182617187462
 31
0.0
  0
LINE
  5
4EC
100
AcDbEntity
  8
0
  6
CONTINUOUS
 62
             200
100
AcDbLine
 10
39.43090393920437
 20
-51.147999999999996
 30
0.0
 11
40.87490393920433
 21
-48.647999999999968
 31
0.0
  0
LINE
  5
4ED
100
AcDbEntity
  8
0
  6
CONTINUOUS
 62
               4
100
AcDbLine
 10
39.776903939204374
 20
-50.547999999999973
 30
0.0
 11
43.296903939204356
 21
-50.547999999999973
 31
0.0
  0
LINE
  5
4EE
100
AcDbEntity
  8
0
  6
CONTINUOUS
 62
               4
100
AcDbLine
 10
40.526903939204374
 20
-49.247999999999962
 30
0.0
 11
43.296903939204356
 21
-49.247999999999962
 31
0.0
  0
LINE
  5
4EF
100
AcDbEntity
  8
0
  6
CONTINUOUS
 62
             200
100
AcDbLine
 10
38.93090393920437
 20
-51.147999999999996
 30
0.0
 11
40.37490393920433
 21
-48.647999999999968
 31
0.0
  0
LINE
  5
4F0
100
AcDbEntity
  8
0
  6
CONTINUOUS
 62
               4
100
AcDbLine
 10
36.600002816526796
 20
-52.897999999999996
 30
0.0
 11
36.600002816526796
 21
-52.397999999999996
 31
0.0
  0
ARC
  5
4F1
100
AcDbEntity
  8
0
  6
CONTINUOUS
 62
               4
100
AcDbCircle
 10
36.099538372008794
 20
-36.431127224716249
 30
0.0
 40
0.5004652055472239
100
AcDbArc
 50
359.90008023532084
 51
64.878835756795922
  0
ARC
  5
4F2
100
AcDbEntity
  8
0
  6
CONTINUOUS
 62
               4
100
AcDbCircle
 10
36.100040340532189
 20
-52.898037524005389
 30
0.0
 40
0.4999624774027422
100
AcDbArc
 50
269.99569974300039
 51
0.0043002569990523
  0
LINE
  5
4F3
100
AcDbEntity
  8
0
  6
CONTINUOUS
 62
               4
100
AcDbLine
 10
31.000002816526774
 20
-53.397999999999996
 30
0.0
 11
36.100002816526796
 21
-53.397999999999996
 31
0.0
  0
LINE
  5
4F4
100
AcDbEntity
  8
0
  6
CONTINUOUS
 62
               4
100
AcDbLine
 10
37.800002816526785
 20
-49.247999999999962
 30
0.0
 11
40.026903939204374
 21
-49.247999999999962
 31
0.0
  0
LINE
  5
4F5
100
AcDbEntity
  8
0
  6
CONTINUOUS
 62
               4
100
AcDbLine
 10
37.800002816526785
 20
-50.547999999999973
 30
0.0
 11
39.276903939204374
 21
-50.547999999999973
 31
0.0
  0
LINE
  5
4F6
100
AcDbEntity
  8
0
  6
CONTINUOUS
 62
               4
100
AcDbLine
 10
36.600002816526796
 20
-52.397999999999996
 30
0.0
 11
36.600002816526796
 21
-36.43199999999996
 31
0.0
  0
LINE
  5
4F7
100
AcDbEntity
  8
0
  6
CONTINUOUS
 62
               4
100
AcDbLine
 10
27.300000000000011
 20
-56.800000000000097
 30
0.0
 11
27.300000000000011
 21
-57.400000000000006
 31
0.0
  0
LINE
  5
4F8
100
AcDbEntity
  8
0
  6
CONTINUOUS
 62
               4
100
AcDbLine
 10
30.317095146658232
 20
-57.399999999999977
 30
0.0
 11
18.999997183473226
 21
-57.400000000000063
 31
0.0
  0
ARC
  5
4F9
100
AcDbEntity
  8
0
  6
CONTINUOUS
 62
               4
100
AcDbCircle
 10
28.515911994762973
 20
-56.801088005237006
 30
0.0
 40
0.5989129830170392
100
AcDbArc
 50
179.89591452477254
 51
270.10408547522644
  0
ARC
  5
4FA
100
AcDbEntity
  8
0
  6
CONTINUOUS
 62
               4
100
AcDbCircle
 10
30.317095146658176
 20
-56.80009514665818
 30
0.0
 40
0.5999048608870732
100
AcDbArc
 50
303.56005066674135
 51
0.0090872775462214
  0
LINE
  5
4FB
100
AcDbEntity
  8
0
  6
CONTINUOUS
 62
               4
100
AcDbLine
 10
30.999999999999943
 20
-56.800000000000097
 30
0.0
 11
27.300000000000011
 21
-56.800000000000097
 31
0.0
  0
LINE
  5
4FC
100
AcDbEntity
  8
0
  6
CONTINUOUS
 62
               4
100
AcDbLine
 10
18.999997183473226
 20
-57.400000000000063
 30
0.0
 11
18.999997183473226
 21
-55.800000000000068
 31
0.0
  0
LINE
  5
4FD
100
AcDbEntity
  8
0
  6
CONTINUOUS
 62
               4
100
AcDbLine
 10
31.0
 20
-55.800000000000068
 30
0.0
 11
18.999997183473226
 21
-55.800000000000068
 31
0.0
  0
LINE
  5
4FE
100
AcDbEntity
  8
0
  6
CONTINUOUS
 62
               4
100
AcDbLine
 10
17.499999999999943
 20
-57.299999999999983
 30
0.0
 11
18.999999999999943
 21
-57.299999999999983
 31
0.0
  0
ARC
  5
4FF
100
AcDbEntity
  8
0
  6
CONTINUOUS
 62
               4
100
AcDbCircle
 10
17.499999999999943
 20
-56.799999999999983
 30
0.0
 40
0.5
100
AcDbArc
 50
179.99999999999963
 51
269.99999999999937
  0
ARC
  5
500
100
AcDbEntity
  8
0
  6
CONTINUOUS
 62
               4
100
AcDbCircle
 10
30.499999999999943
 20
-56.799999999999983
 30
0.0
 40
0.5
100
AcDbArc
 50
294.73039869686056
 51
0.0
  0
ARC
  5
501
100
AcDbEntity
  8
0
  6
CONTINUOUS
 62
               4
100
AcDbCircle
 10
30.317095146658176
 20
-56.80009514665818
 30
0.0
 40
0.5999048608870732
100
AcDbArc
 50
269.990912722453
 51
303.56005066674055
  0
LINE
  5
502
100
AcDbEntity
  8
0
  6
CONTINUOUS
 62
               4
100
AcDbLine
 10
46.796903939204356
 20
-50.14718261718744
 30
0.0
 11
46.796903939204356
 21
-49.64718261718744
 31
0.0
  0
LINE
  5
503
100
AcDbEntity
  8
0
  6
CONTINUOUS
 62
               4
100
AcDbLine
 10
17.0
 20
-34.899999999999977
 30
0.0
 11
34.000002816526774
 21
-34.899999999999977
 31
0.0
  0
LINE
  5
504
100
AcDbEntity
  8
0
  6
CONTINUOUS
 62
               4
100
AcDbLine
 10
17.0
 20
5.2999999999999545
 30
0.0
 11
34.000002816526774
 21
5.2999999999999545
 31
0.0
  0
LINE
  5
505
100
AcDbEntity
  8
0
  6
CONTINUOUS
 62
               4
100
AcDbLine
 10
46.796903939204356
 20
20.547182617187417
 30
0.0
 11
46.796903939204356
 21
20.047182617187417
 31
0.0
  0
ARC
  5
506
100
AcDbEntity
  8
0
  6
CONTINUOUS
 62
               4
100
AcDbCircle
 10
17.682904853341824
 20
27.200095146658157
 30
0.0
 40
0.5999048608870732
100
AcDbArc
 50
89.99091272245343
 51
123.56005066674096
  0
ARC
  5
507
100
AcDbEntity
  8
0
  6
CONTINUOUS
 62
               4
100
AcDbCircle
 10
17.500000000000057
 20
27.19999999999996
 30
0.0
 40
0.5
100
AcDbArc
 50
114.73039869686018
 51
179.99999999999963
  0
ARC
  5
508
100
AcDbEntity
  8
0
  6
CONTINUOUS
 62
               4
100
AcDbCircle
 10
30.500000000000057
 20
27.19999999999996
 30
0.0
 40
0.5
100
AcDbArc
 50
0.0
 51
89.999999999999815
  0
LINE
  5
509
100
AcDbEntity
  8
0
  6
CONTINUOUS
 62
               4
100
AcDbLine
 10
30.500000000000057
 20
27.69999999999996
 30
0.0
 11
29.000000000000057
 21
27.69999999999996
 31
0.0
  0
LINE
  5
50A
100
AcDbEntity
  8
0
  6
CONTINUOUS
 62
               4
100
AcDbLine
 10
17.0
 20
26.200000000000045
 30
0.0
 11
29.000002816526774
 21
26.200000000000045
 31
0.0
  0
LINE
  5
50B
100
AcDbEntity
  8
0
  6
CONTINUOUS
 62
               4
100
AcDbLine
 10
29.000002816526774
 20
27.80000000000004
 30
0.0
 11
29.000002816526774
 21
26.200000000000045
 31
0.0
  0
LINE
  5
50C
100
AcDbEntity
  8
0
  6
CONTINUOUS
 62
               4
100
AcDbLine
 10
17.000000000000057
 20
27.200000000000074
 30
0.0
 11
20.699999999999989
 21
27.200000000000074
 31
0.0
  0
ARC
  5
50D
100
AcDbEntity
  8
0
  6
CONTINUOUS
 62
               4
100
AcDbCircle
 10
17.682904853341824
 20
27.200095146658157
 30
0.0
 40
0.5999048608870732
100
AcDbArc
 50
123.56005066674096
 51
180.00908727754583
  0
ARC
  5
50E
100
AcDbEntity
  8
0
  6
CONTINUOUS
 62
               4
100
AcDbCircle
 10
19.484088005237027
 20
27.201088005236983
 30
0.0
 40
0.5989129830170392
100
AcDbArc
 50
359.89591452477293
 51
90.104085475226867
  0
LINE
  5
50F
100
AcDbEntity
  8
0
  6
CONTINUOUS
 62
               4
100
AcDbLine
 10
17.682904853341768
 20
27.799999999999955
 30
0.0
 11
29.000002816526774
 21
27.80000000000004
 31
0.0
  0
LINE
  5
510
100
AcDbEntity
  8
0
  6
CONTINUOUS
 62
               4
100
AcDbLine
 10
20.699999999999989
 20
27.200000000000074
 30
0.0
 11
20.699999999999989
 21
27.799999999999983
 31
0.0
  0
LINE
  5
511
100
AcDbEntity
  8
0
  6
CONTINUOUS
 62
               4
100
AcDbLine
 10
36.600002816526796
 20
22.797999999999973
 30
0.0
 11
36.600002816526796
 21
6.8319999999999368
 31
0.0
  0
LINE
  5
512
100
AcDbEntity
  8
0
  6
CONTINUOUS
 62
               4
100
AcDbLine
 10
37.800002816526785
 20
20.947999999999951
 30
0.0
 11
39.276903939204374
 21
20.947999999999951
 31
0.0
  0
LINE
  5
513
100
AcDbEntity
  8
0
  6
CONTINUOUS
 62
               4
100
AcDbLine
 10
37.800002816526785
 20
19.647999999999939
 30
0.0
 11
40.026903939204374
 21
19.647999999999939
 31
0.0
  0
LINE
  5
514
100
AcDbEntity
  8
0
  6
CONTINUOUS
 62
               4
100
AcDbLine
 10
31.000002816526774
 20
23.797999999999973
 30
0.0
 11
36.100002816526796
 21
23.797999999999973
 31
0.0
  0
ARC
  5
515
100
AcDbEntity
  8
0
  6
CONTINUOUS
 62
               4
100
AcDbCircle
 10
36.100040340532189
 20
23.298037524005366
 30
0.0
 40
0.4999624774027422
100
AcDbArc
 50
359.99569974300096
 51
90.004300256998803
  0
ARC
  5
516
100
AcDbEntity
  8
0
  6
CONTINUOUS
 62
               4
100
AcDbCircle
 10
36.099538372008794
 20
6.8311272247162265
 30
0.0
 40
0.5004652055472239
100
AcDbArc
 50
295.12116424320402
 51
0.0999197646782735
  0
LINE
  5
517
100
AcDbEntity
  8
0
  6
CONTINUOUS
 62
               4
100
AcDbLine
 10
36.600002816526796
 20
23.297999999999973
 30
0.0
 11
36.600002816526796
 21
22.797999999999973
 31
0.0
  0
LINE
  5
518
100
AcDbEntity
  8
0
  6
CONTINUOUS
 62
             200
100
AcDbLine
 10
38.93090393920437
 20
21.547999999999973
 30
0.0
 11
40.37490393920433
 21
19.047999999999945
 31
0.0
  0
LINE
  5
519
100
AcDbEntity
  8
0
  6
CONTINUOUS
 62
               4
100
AcDbLine
 10
40.526903939204374
 20
19.647999999999939
 30
0.0
 11
43.296903939204356
 21
19.647999999999939
 31
0.0
  0
LINE
  5
51A
100
AcDbEntity
  8
0
  6
CONTINUOUS
 62
               4
100
AcDbLine
 10
39.776903939204374
 20
20.947999999999951
 30
0.0
 11
43.296903939204356
 21
20.947999999999951
 31
0.0
  0
LINE
  5
51B
100
AcDbEntity
  8
0
  6
CONTINUOUS
 62
             200
100
AcDbLine
 10
39.43090393920437
 20
21.547999999999973
 30
0.0
 11
40.87490393920433
 21
19.047999999999945
 31
0.0
  0
LINE
  5
51C
100
AcDbEntity
  8
0
  6
CONTINUOUS
 62
               4
100
AcDbLine
 10
43.296903939204356
 20
20.947182617187394
 30
0.0
 11
43.296903939204356
 21
19.64718261718744
 31
0.0
  0
LINE
  5
51D
100
AcDbEntity
  8
0
  6
CONTINUOUS
 62
               4
100
AcDbLine
 10
36.600002816526796
 20
17.797999999999945
 30
0.0
 11
37.300002816526785
 21
17.797999999999945
 31
0.0
  0
LINE
  5
51E
100
AcDbEntity
  8
0
  6
CONTINUOUS
 62
               4
100
AcDbLine
 10
37.800002816526785
 20
18.297999999999945
 30
0.0
 11
37.800002816526785
 21
22.297999999999973
 31
0.0
  0
LINE
  5
51F
100
AcDbEntity
  8
0
  6
CONTINUOUS
 62
               4
100
AcDbLine
 10
36.600002816526796
 20
22.797999999999973
 30
0.0
 11
37.300002816526785
 21
22.797999999999973
 31
0.0
  0
ARC
  5
520
100
AcDbEntity
  8
0
  6
CONTINUOUS
 62
               4
100
AcDbCircle
 10
37.300002816526785
 20
18.297999999999945
 30
0.0
 40
0.5
100
AcDbArc
 50
270.00000000000023
 51
0.0
  0
ARC
  5
521
100
AcDbEntity
  8
0
  6
CONTINUOUS
 62
               4
100
AcDbCircle
 10
37.300002816526785
 20
22.297999999999973
 30
0.0
 40
0.5
100
AcDbArc
 50
0.0
 51
89.999999999999815
  0
LINE
  5
522
100
AcDbEntity
  8
0
  6
CONTINUOUS
 62
               4
100
AcDbLine
 10
43.296903939204356
 20
20.047182617187417
 30
0.0
 11
46.796903939204356
 21
20.047182617187417
 31
0.0
  0
LINE
  5
523
100
AcDbEntity
  8
0
  6
CONTINUOUS
 62
               4
100
AcDbLine
 10
43.296903939204356
 20
20.547182617187417
 30
0.0
 11
46.796903939204356
 21
20.547182617187417
 31
0.0
  0
LINE
  5
524
100
AcDbEntity
  8
0
  6
CONTINUOUS
 62
               4
100
AcDbLine
 10
34.000002816526774
 20
5.2999999999999545
 30
0.0
 11
36.312002816526785
 21
6.3779999999999575
 31
0.0
  0
LINE
  5
525
100
AcDbEntity
  8
0
  6
CONTINUOUS
 62
               4
100
AcDbLine
 10
34.000002816526774
 20
5.2999999999999545
 30
0.0
 11
34.000002816526774
 21
23.797999999999973
 31
0.0
  0
LINE
  5
526
100
AcDbEntity
  8
0
  6
CONTINUOUS
 62
               4
100
AcDbLine
 10
17.0
 20
27.19999999999996
 30
0.0
 11
17.0
 21
5.2999999999999545
 31
0.0
  0
LINE
  5
527
100
AcDbEntity
  8
0
  6
CONTINUOUS
 62
               4
100
AcDbLine
 10
31.0
 20
5.2999999999999545
 30
0.0
 11
31.0
 21
27.199999994932227
 31
0.0
  0
ENDBLK
  5
528
100
AcDbEntity
  8
0
100
AcDbBlockEnd
  0
BLOCK
  5
529
100
AcDbEntity
  8
0
100
AcDbBlockBegin
  2
EA10A6-9
 70
               0
 10
0.0
 20
0.0
 30
0.0
  3
EA10A6-9
  1

  0
LINE
  5
52A
100
AcDbEntity
  8
0
  6
CONTINUOUS
 62
               7
100
AcDbLine
 10
-16.999921226538049
 20
-30.100006103515625
 30
0.0
 11
-16.0
 21
-30.100006103515625
 31
0.0
  0
LINE
  5
52B
100
AcDbEntity
  8
0
  6
CONTINUOUS
 62
               7
100
AcDbLine
 10
-16.999989318840903
 20
0.4999938964843977
 30
0.0
 11
-16.0
 21
0.4999938964843977
 31
0.0
  0
LINE
  5
52C
100
AcDbEntity
  8
0
  6
CENTER
 62
               2
100
AcDbLine
 10
-2.0
 20
-29.599999999999994
 30
0.0
 11
2.0
 21
-29.599999999999994
 31
0.0
  0
LINE
  5
52D
100
AcDbEntity
  8
0
  6
CENTER
 62
               2
100
AcDbLine
 10
-2.0
 20
0.0
 30
0.0
 11
2.0
 21
0.0
 31
0.0
  0
LINE
  5
52E
100
AcDbEntity
  8
0
  6
CONTINUOUS
 62
               7
100
AcDbLine
 10
-31.000000000000114
 20
-27.800000000000011
 30
0.0
 11
-32.100000000000023
 21
-28.899999999999977
 31
0.0
  0
LINE
  5
52F
100
AcDbEntity
  8
0
  6
CONTINUOUS
 62
               7
100
AcDbLine
 10
-32.548000000000002
 20
-31.5
 30
0.0
 11
-32.100000000000023
 21
-31.5
 31
0.0
  0
LINE
  5
530
100
AcDbEntity
  8
0
  6
CONTINUOUS
 62
               7
100
AcDbLine
 10
-17.0
 20
-23.899999999999977
 30
0.0
 11
-31.0
 21
-23.899999999999977
 31
0.0
  0
LINE
  5
531
100
AcDbEntity
  8
0
  6
CONTINUOUS
 62
               7
100
AcDbLine
 10
-32.548000000000002
 20
-33.700000000000045
 30
0.0
 11
-32.100000000000023
 21
-33.700000000000045
 31
0.0
  0
LINE
  5
532
100
AcDbEntity
  8
0
  6
CONTINUOUS
 62
               7
100
AcDbLine
 10
-32.548000000000002
 20
-31.5
 30
0.0
 11
-32.548000000000002
 21
-33.700000000000045
 31
0.0
  0
LINE
  5
533
100
AcDbEntity
  8
0
  6
CONTINUOUS
 62
               7
100
AcDbLine
 10
-32.100000000000023
 20
-28.899999999999977
 30
0.0
 11
-32.100000000000023
 21
-34.89999999999992
 31
0.0
  0
LINE
  5
534
100
AcDbEntity
  8
0
  6
CONTINUOUS
 62
               7
100
AcDbLine
 10
-30.0
 20
-21.199001430615169
 30
0.0
 11
-31.0
 21
-21.199001430615169
 31
0.0
  0
LINE
  5
535
100
AcDbEntity
  8
0
  6
CONTINUOUS
 62
               7
100
AcDbLine
 10
-30.0
 20
-17.999001430615181
 30
0.0
 11
-31.0
 21
-17.999001430615181
 31
0.0
  0
LINE
  5
536
100
AcDbEntity
  8
0
  6
CONTINUOUS
 62
               7
100
AcDbLine
 10
-32.548000000000002
 20
1.8999999999999773
 30
0.0
 11
-32.100000000000023
 21
1.8999999999999773
 31
0.0
  0
LINE
  5
537
100
AcDbEntity
  8
0
  6
CONTINUOUS
 62
               7
100
AcDbLine
 10
-32.548000000000002
 20
4.1000000000000227
 30
0.0
 11
-32.100000000000023
 21
4.1000000000000227
 31
0.0
  0
LINE
  5
538
100
AcDbEntity
  8
0
  6
CONTINUOUS
 62
               7
100
AcDbLine
 10
-32.548000000000002
 20
1.8999999999999773
 30
0.0
 11
-32.548000000000002
 21
4.1000000000000227
 31
0.0
  0
LINE
  5
539
100
AcDbEntity
  8
0
  6
CONTINUOUS
 62
               7
100
AcDbLine
 10
-31.000000000000114
 20
-1.8000000000000114
 30
0.0
 11
-32.100000000000023
 21
-0.6999999999999886
 31
0.0
  0
LINE
  5
53A
100
AcDbEntity
  8
0
  6
CONTINUOUS
 62
               7
100
AcDbLine
 10
-32.100000000000023
 20
-0.6999999999999886
 30
0.0
 11
-32.100000000000023
 21
5.2999999999999545
 31
0.0
  0
LINE
  5
53B
100
AcDbEntity
  8
0
  6
CONTINUOUS
 62
               7
100
AcDbLine
 10
-17.0
 20
-5.6999999999999886
 30
0.0
 11
-31.0
 21
-5.6999999999999886
 31
0.0
  0
LINE
  5
53C
100
AcDbEntity
  8
0
  6
CONTINUOUS
 62
               7
100
AcDbLine
 10
-30.0
 20
-17.999001430615181
 30
0.0
 11
-30.0
 21
-21.199001430615169
 31
0.0
  0
LINE
  5
53D
100
AcDbEntity
  8
0
  6
CONTINUOUS
 62
               7
100
AcDbLine
 10
-16.0
 20
-32.300000000000011
 30
0.0
 11
-16.0
 21
2.6999999999999886
 31
0.0
  0
LINE
  5
53E
100
AcDbEntity
  8
0
  6
CONTINUOUS
 62
               7
100
AcDbLine
 10
0.0
 20
2.6999999999999886
 30
0.0
 11
0.0
 21
-32.300000000000011
 31
0.0
  0
LINE
  5
53F
100
AcDbEntity
  8
0
  6
CONTINUOUS
 62
               7
100
AcDbLine
 10
-16.0
 20
2.6999999999999886
 30
0.0
 11
0.0
 21
2.6999999999999886
 31
0.0
  0
LINE
  5
540
100
AcDbEntity
  8
0
  6
CONTINUOUS
 62
               7
100
AcDbLine
 10
-16.0
 20
-32.300000000000011
 30
0.0
 11
0.0
 21
-32.300000000000011
 31
0.0
  0
LINE
  5
541
100
AcDbEntity
  8
0
  6
CENTER
 62
               2
100
AcDbLine
 10
-5.0
 20
-18.900000000000006
 30
0.0
 11
-5.0
 21
-25.900000000000006
 31
0.0
  0
LINE
  5
542
100
AcDbEntity
  8
0
  6
CENTER
 62
               2
100
AcDbLine
 10
-8.5
 20
-22.400000000000006
 30
0.0
 11
-1.5
 21
-22.400000000000006
 31
0.0
  0
LINE
  5
543
100
AcDbEntity
  8
0
  6
CENTER
 62
               2
100
AcDbLine
 10
-11.0
 20
-11.300000000000011
 30
0.0
 11
-11.0
 21
-18.300000000000011
 31
0.0
  0
LINE
  5
544
100
AcDbEntity
  8
0
  6
CENTER
 62
               2
100
AcDbLine
 10
-14.5
 20
-14.800000000000011
 30
0.0
 11
-7.5
 21
-14.800000000000011
 31
0.0
  0
LINE
  5
545
100
AcDbEntity
  8
0
  6
CENTER
 62
               2
100
AcDbLine
 10
-10.0
 20
-1.3000000000000114
 30
0.0
 11
-10.0
 21
-8.3000000000000114
 31
0.0
  0
LINE
  5
546
100
AcDbEntity
  8
0
  6
CENTER
 62
               2
100
AcDbLine
 10
-13.5
 20
-4.8000000000000114
 30
0.0
 11
-6.5
 21
-4.8000000000000114
 31
0.0
  0
CIRCLE
  5
547
100
AcDbEntity
  8
0
  6
CONTINUOUS
 62
               7
100
AcDbCircle
 10
-9.9999786376953352
 20
-4.8000061035156136
 30
0.0
 40
2.0669994354248047
  0
CIRCLE
  5
548
100
AcDbEntity
  8
0
  6
CONTINUOUS
 62
               7
100
AcDbCircle
 10
-10.999978637695335
 20
-14.800006103515614
 30
0.0
 40
2.0669994354248047
  0
CIRCLE
  5
549
100
AcDbEntity
  8
0
  6
CONTINUOUS
 62
               7
100
AcDbCircle
 10
-4.9999786376953352
 20
-22.399996948242176
 30
0.0
 40
2.0669994354248047
  0
CIRCLE
  5
54A
100
AcDbEntity
  8
0
  6
CONTINUOUS
 62
               2
100
AcDbCircle
 10
-4.9999786376953352
 20
-22.399996948242176
 30
0.0
 40
2.5
  0
CIRCLE
  5
54B
100
AcDbEntity
  8
0
  6
CONTINUOUS
 62
               2
100
AcDbCircle
 10
-10.999978637695335
 20
-14.800006103515614
 30
0.0
 40
2.5
  0
CIRCLE
  5
54C
100
AcDbEntity
  8
0
  6
CONTINUOUS
 62
               2
100
AcDbCircle
 10
-9.9999786376953352
 20
-4.8000061035156136
 30
0.0
 40
2.5
  0
LINE
  5
54D
100
AcDbEntity
  8
0
  6
CENTER
 62
               2
100
AcDbLine
 10
-24.0
 20
29.647850672801098
 30
0.0
 11
-24.0
 21
-59.247850672801093
 31
0.0
  0
LINE
  5
54E
100
AcDbEntity
  8
0
  6
CONTINUOUS
 62
               7
100
AcDbLine
 10
-31.0
 20
5.3000000000000114
 30
0.0
 11
-31.0
 21
-34.899999999999977
 31
0.0
  0
LINE
  5
54F
100
AcDbEntity
  8
0
  6
CONTINUOUS
 62
               7
100
AcDbLine
 10
-17.0
 20
-34.899999999999977
 30
0.0
 11
-17.0
 21
5.3000000000000114
 31
0.0
  0
LINE
  5
550
100
AcDbEntity
  8
0
  6
CONTINUOUS
 62
               7
100
AcDbLine
 10
-30.600000000000023
 20
-18.5
 30
0.0
 11
-30.600000000000023
 21
-20.699999999999989
 31
0.0
  0
LINE
  5
551
100
AcDbEntity
  8
0
  6
CONTINUOUS
 62
               7
100
AcDbLine
 10
-30.200000000000045
 20
-18.099999999999994
 30
0.0
 11
-30.0
 21
-18.099999999999994
 31
0.0
  0
LINE
  5
552
100
AcDbEntity
  8
0
  6
CONTINUOUS
 62
               7
100
AcDbLine
 10
-30.200000000000045
 20
-21.099999999999994
 30
0.0
 11
-30.0
 21
-21.099999999999994
 31
0.0
  0
ARC
  5
553
100
AcDbEntity
  8
0
  6
CONTINUOUS
 62
               7
100
AcDbCircle
 10
-30.200000000000045
 20
-18.5
 30
0.0
 40
0.4
100
AcDbArc
 50
89.999999999999815
 51
179.99999999999963
  0
ARC
  5
554
100
AcDbEntity
  8
0
  6
CONTINUOUS
 62
               7
100
AcDbCircle
 10
-30.200000000000045
 20
-20.699999999999989
 30
0.0
 40
0.4
100
AcDbArc
 50
179.99999999999963
 51
269.99999999999937
  0
LINE
  5
555
100
AcDbEntity
  8
0
  6
CONTINUOUS
 62
               4
100
AcDbLine
 10
-31.0
 20
5.2999999999999545
 30
0.0
 11
-31.0
 21
27.199999994932227
 31
0.0
  0
LINE
  5
556
100
AcDbEntity
  8
0
  6
CONTINUOUS
 62
               4
100
AcDbLine
 10
-17.0
 20
27.19999999999996
 30
0.0
 11
-17.0
 21
5.2999999999999545
 31
0.0
  0
LINE
  5
557
100
AcDbEntity
  8
0
  6
CONTINUOUS
 62
               4
100
AcDbLine
 10
-34.00000281652683
 20
5.2999999999999545
 30
0.0
 11
-34.00000281652683
 21
23.797999999999973
 31
0.0
  0
LINE
  5
558
100
AcDbEntity
  8
0
  6
CONTINUOUS
 62
               4
100
AcDbLine
 10
-34.00000281652683
 20
5.2999999999999545
 30
0.0
 11
-36.312002816526842
 21
6.3779999999999575
 31
0.0
  0
LINE
  5
559
100
AcDbEntity
  8
0
  6
CONTINUOUS
 62
               4
100
AcDbLine
 10
-43.296903939204412
 20
20.547182617187417
 30
0.0
 11
-46.796903939204412
 21
20.547182617187417
 31
0.0
  0
LINE
  5
55A
100
AcDbEntity
  8
0
  6
CONTINUOUS
 62
               4
100
AcDbLine
 10
-43.296903939204412
 20
20.047182617187417
 30
0.0
 11
-46.796903939204412
 21
20.047182617187417
 31
0.0
  0
ARC
  5
55B
100
AcDbEntity
  8
0
  6
CONTINUOUS
 62
               4
100
AcDbCircle
 10
-37.300002816526785
 20
22.297999999999973
 30
0.0
 40
0.5
100
AcDbArc
 50
89.999999999999815
 51
179.99999999999963
  0
ARC
  5
55C
100
AcDbEntity
  8
0
  6
CONTINUOUS
 62
               4
100
AcDbCircle
 10
-37.300002816526785
 20
18.297999999999945
 30
0.0
 40
0.5
100
AcDbArc
 50
179.99999999999963
 51
269.99999999999937
  0
LINE
  5
55D
100
AcDbEntity
  8
0
  6
CONTINUOUS
 62
               4
100
AcDbLine
 10
-36.600002816526853
 20
22.797999999999973
 30
0.0
 11
-37.300002816526785
 21
22.797999999999973
 31
0.0
  0
LINE
  5
55E
100
AcDbEntity
  8
0
  6
CONTINUOUS
 62
               4
100
AcDbLine
 10
-37.800002816526785
 20
18.297999999999945
 30
0.0
 11
-37.800002816526785
 21
22.297999999999973
 31
0.0
  0
LINE
  5
55F
100
AcDbEntity
  8
0
  6
CONTINUOUS
 62
               4
100
AcDbLine
 10
-36.600002816526853
 20
17.797999999999945
 30
0.0
 11
-37.300002816526785
 21
17.797999999999945
 31
0.0
  0
LINE
  5
560
100
AcDbEntity
  8
0
  6
CONTINUOUS
 62
               4
100
AcDbLine
 10
-43.296903939204412
 20
20.947182617187394
 30
0.0
 11
-43.296903939204412
 21
19.64718261718744
 31
0.0
  0
LINE
  5
561
100
AcDbEntity
  8
0
  6
CONTINUOUS
 62
             200
100
AcDbLine
 10
-39.430903939204427
 20
21.547999999999973
 30
0.0
 11
-40.874903939204387
 21
19.047999999999945
 31
0.0
  0
LINE
  5
562
100
AcDbEntity
  8
0
  6
CONTINUOUS
 62
               4
100
AcDbLine
 10
-39.776903939204431
 20
20.947999999999951
 30
0.0
 11
-43.296903939204412
 21
20.947999999999951
 31
0.0
  0
LINE
  5
563
100
AcDbEntity
  8
0
  6
CONTINUOUS
 62
               4
100
AcDbLine
 10
-40.526903939204431
 20
19.647999999999939
 30
0.0
 11
-43.296903939204412
 21
19.647999999999939
 31
0.0
  0
LINE
  5
564
100
AcDbEntity
  8
0
  6
CONTINUOUS
 62
             200
100
AcDbLine
 10
-38.930903939204427
 20
21.547999999999973
 30
0.0
 11
-40.374903939204387
 21
19.047999999999945
 31
0.0
  0
LINE
  5
565
100
AcDbEntity
  8
0
  6
CONTINUOUS
 62
               4
100
AcDbLine
 10
-36.600002816526853
 20
23.297999999999973
 30
0.0
 11
-36.600002816526853
 21
22.797999999999973
 31
0.0
  0
ARC
  5
566
100
AcDbEntity
  8
0
  6
CONTINUOUS
 62
               4
100
AcDbCircle
 10
-36.099538372008851
 20
6.8311272247162265
 30
0.0
 40
0.5004652055472239
100
AcDbArc
 50
179.9000802353213
 51
244.87883575679555
  0
ARC
  5
567
100
AcDbEntity
  8
0
  6
CONTINUOUS
 62
               4
100
AcDbCircle
 10
-36.100040340532246
 20
23.298037524005366
 30
0.0
 40
0.4999624774027422
100
AcDbArc
 50
89.995699743000799
 51
180.00430025699865
  0
LINE
  5
568
100
AcDbEntity
  8
0
  6
CONTINUOUS
 62
               4
100
AcDbLine
 10
-31.00000281652683
 20
23.797999999999973
 30
0.0
 11
-36.100002816526853
 21
23.797999999999973
 31
0.0
  0
LINE
  5
569
100
AcDbEntity
  8
0
  6
CONTINUOUS
 62
               4
100
AcDbLine
 10
-37.800002816526785
 20
19.647999999999939
 30
0.0
 11
-40.026903939204431
 21
19.647999999999939
 31
0.0
  0
LINE
  5
56A
100
AcDbEntity
  8
0
  6
CONTINUOUS
 62
               4
100
AcDbLine
 10
-37.800002816526785
 20
20.947999999999951
 30
0.0
 11
-39.276903939204431
 21
20.947999999999951
 31
0.0
  0
LINE
  5
56B
100
AcDbEntity
  8
0
  6
CONTINUOUS
 62
               4
100
AcDbLine
 10
-36.600002816526853
 20
22.797999999999973
 30
0.0
 11
-36.600002816526853
 21
6.8319999999999368
 31
0.0
  0
LINE
  5
56C
100
AcDbEntity
  8
0
  6
CONTINUOUS
 62
               4
100
AcDbLine
 10
-27.300000000000068
 20
27.200000000000074
 30
0.0
 11
-27.300000000000068
 21
27.799999999999983
 31
0.0
  0
LINE
  5
56D
100
AcDbEntity
  8
0
  6
CONTINUOUS
 62
               4
100
AcDbLine
 10
-30.317095146658289
 20
27.799999999999955
 30
0.0
 11
-18.999997183473283
 21
27.80000000000004
 31
0.0
  0
ARC
  5
56E
100
AcDbEntity
  8
0
  6
CONTINUOUS
 62
               4
100
AcDbCircle
 10
-28.515911994762973
 20
27.201088005236983
 30
0.0
 40
0.5989129830170392
100
AcDbArc
 50
359.89591452477293
 51
90.104085475226867
  0
ARC
  5
56F
100
AcDbEntity
  8
0
  6
CONTINUOUS
 62
               4
100
AcDbCircle
 10
-30.317095146658176
 20
27.200095146658157
 30
0.0
 40
0.5999048608870732
100
AcDbArc
 50
123.56005066674096
 51
180.00908727754583
  0
LINE
  5
570
100
AcDbEntity
  8
0
  6
CONTINUOUS
 62
               4
100
AcDbLine
 10
-31.0
 20
27.200000000000074
 30
0.0
 11
-27.300000000000068
 21
27.200000000000074
 31
0.0
  0
LINE
  5
571
100
AcDbEntity
  8
0
  6
CONTINUOUS
 62
               4
100
AcDbLine
 10
-18.999997183473283
 20
27.80000000000004
 30
0.0
 11
-18.999997183473283
 21
26.200000000000045
 31
0.0
  0
LINE
  5
572
100
AcDbEntity
  8
0
  6
CONTINUOUS
 62
               4
100
AcDbLine
 10
-31.0
 20
26.200000000000045
 30
0.0
 11
-18.999997183473283
 21
26.200000000000045
 31
0.0
  0
LINE
  5
573
100
AcDbEntity
  8
0
  6
CONTINUOUS
 62
               4
100
AcDbLine
 10
-17.5
 20
27.69999999999996
 30
0.0
 11
-19.0
 21
27.69999999999996
 31
0.0
  0
ARC
  5
574
100
AcDbEntity
  8
0
  6
CONTINUOUS
 62
               4
100
AcDbCircle
 10
-17.5
 20
27.19999999999996
 30
0.0
 40
0.5
100
AcDbArc
 50
0.0
 51
89.999999999999815
  0
ARC
  5
575
100
AcDbEntity
  8
0
  6
CONTINUOUS
 62
               4
100
AcDbCircle
 10
-30.5
 20
27.19999999999996
 30
0.0
 40
0.5
100
AcDbArc
 50
114.73039869686018
 51
179.99999999999963
  0
ARC
  5
576
100
AcDbEntity
  8
0
  6
CONTINUOUS
 62
               4
100
AcDbCircle
 10
-30.317095146658176
 20
27.200095146658157
 30
0.0
 40
0.5999048608870732
100
AcDbArc
 50
89.99091272245343
 51
123.56005066674096
  0
LINE
  5
577
100
AcDbEntity
  8
0
  6
CONTINUOUS
 62
               4
100
AcDbLine
 10
-46.796903939204412
 20
20.547182617187417
 30
0.0
 11
-46.796903939204412
 21
20.047182617187417
 31
0.0
  0
LINE
  5
578
100
AcDbEntity
  8
0
  6
CONTINUOUS
 62
               4
100
AcDbLine
 10
-17.0
 20
5.2999999999999545
 30
0.0
 11
-34.00000281652683
 21
5.2999999999999545
 31
0.0
  0
LINE
  5
579
100
AcDbEntity
  8
0
  6
CONTINUOUS
 62
               4
100
AcDbLine
 10
-17.0
 20
-34.899999999999977
 30
0.0
 11
-34.00000281652683
 21
-34.899999999999977
 31
0.0
  0
LINE
  5
57A
100
AcDbEntity
  8
0
  6
CONTINUOUS
 62
               4
100
AcDbLine
 10
-46.796903939204412
 20
-50.14718261718744
 30
0.0
 11
-46.796903939204412
 21
-49.64718261718744
 31
0.0
  0
ARC
  5
57B
100
AcDbEntity
  8
0
  6
CONTINUOUS
 62
               4
100
AcDbCircle
 10
-17.682904853341824
 20
-56.80009514665818
 30
0.0
 40
0.5999048608870732
100
AcDbArc
 50
269.990912722453
 51
303.56005066674055
  0
ARC
  5
57C
100
AcDbEntity
  8
0
  6
CONTINUOUS
 62
               4
100
AcDbCircle
 10
-17.500000000000114
 20
-56.799999999999983
 30
0.0
 40
0.5
100
AcDbArc
 50
294.73039869686056
 51
0.0
  0
ARC
  5
57D
100
AcDbEntity
  8
0
  6
CONTINUOUS
 62
               4
100
AcDbCircle
 10
-30.500000000000114
 20
-56.799999999999983
 30
0.0
 40
0.5
100
AcDbArc
 50
179.99999999999963
 51
269.99999999999937
  0
LINE
  5
57E
100
AcDbEntity
  8
0
  6
CONTINUOUS
 62
               4
100
AcDbLine
 10
-30.500000000000114
 20
-57.299999999999983
 30
0.0
 11
-29.000000000000114
 21
-57.299999999999983
 31
0.0
  0
LINE
  5
57F
100
AcDbEntity
  8
0
  6
CONTINUOUS
 62
               4
100
AcDbLine
 10
-17.0
 20
-55.800000000000068
 30
0.0
 11
-29.00000281652683
 21
-55.800000000000068
 31
0.0
  0
LINE
  5
580
100
AcDbEntity
  8
0
  6
CONTINUOUS
 62
               4
100
AcDbLine
 10
-29.00000281652683
 20
-57.400000000000063
 30
0.0
 11
-29.00000281652683
 21
-55.800000000000068
 31
0.0
  0
LINE
  5
581
100
AcDbEntity
  8
0
  6
CONTINUOUS
 62
               4
100
AcDbLine
 10
-17.000000000000114
 20
-56.800000000000097
 30
0.0
 11
-20.700000000000045
 21
-56.800000000000097
 31
0.0
  0
ARC
  5
582
100
AcDbEntity
  8
0
  6
CONTINUOUS
 62
               4
100
AcDbCircle
 10
-17.682904853341824
 20
-56.80009514665818
 30
0.0
 40
0.5999048608870732
100
AcDbArc
 50
303.56005066674135
 51
0.0090872775462214
  0
ARC
  5
583
100
AcDbEntity
  8
0
  6
CONTINUOUS
 62
               4
100
AcDbCircle
 10
-19.484088005237027
 20
-56.801088005237006
 30
0.0
 40
0.5989129830170392
100
AcDbArc
 50
179.89591452477254
 51
270.10408547522644
  0
LINE
  5
584
100
AcDbEntity
  8
0
  6
CONTINUOUS
 62
               4
100
AcDbLine
 10
-17.682904853341824
 20
-57.399999999999977
 30
0.0
 11
-29.00000281652683
 21
-57.400000000000063
 31
0.0
  0
LINE
  5
585
100
AcDbEntity
  8
0
  6
CONTINUOUS
 62
               4
100
AcDbLine
 10
-20.700000000000045
 20
-56.800000000000097
 30
0.0
 11
-20.700000000000045
 21
-57.400000000000006
 31
0.0
  0
LINE
  5
586
100
AcDbEntity
  8
0
  6
CONTINUOUS
 62
               4
100
AcDbLine
 10
-36.600002816526853
 20
-52.397999999999996
 30
0.0
 11
-36.600002816526853
 21
-36.43199999999996
 31
0.0
  0
LINE
  5
587
100
AcDbEntity
  8
0
  6
CONTINUOUS
 62
               4
100
AcDbLine
 10
-37.800002816526785
 20
-50.547999999999973
 30
0.0
 11
-39.276903939204431
 21
-50.547999999999973
 31
0.0
  0
LINE
  5
588
100
AcDbEntity
  8
0
  6
CONTINUOUS
 62
               4
100
AcDbLine
 10
-37.800002816526785
 20
-49.247999999999962
 30
0.0
 11
-40.026903939204431
 21
-49.247999999999962
 31
0.0
  0
LINE
  5
589
100
AcDbEntity
  8
0
  6
CONTINUOUS
 62
               4
100
AcDbLine
 10
-31.00000281652683
 20
-53.397999999999996
 30
0.0
 11
-36.100002816526853
 21
-53.397999999999996
 31
0.0
  0
ARC
  5
58A
100
AcDbEntity
  8
0
  6
CONTINUOUS
 62
               4
100
AcDbCircle
 10
-36.100040340532246
 20
-52.898037524005389
 30
0.0
 40
0.4999624774027422
100
AcDbArc
 50
179.99569974300056
 51
270.00430025699842
  0
ARC
  5
58B
100
AcDbEntity
  8
0
  6
CONTINUOUS
 62
               4
100
AcDbCircle
 10
-36.099538372008851
 20
-36.431127224716249
 30
0.0
 40
0.5004652055472239
100
AcDbArc
 50
115.12116424320362
 51
180.09991976467791
  0
LINE
  5
58C
100
AcDbEntity
  8
0
  6
CONTINUOUS
 62
               4
100
AcDbLine
 10
-36.600002816526853
 20
-52.897999999999996
 30
0.0
 11
-36.600002816526853
 21
-52.397999999999996
 31
0.0
  0
LINE
  5
58D
100
AcDbEntity
  8
0
  6
CONTINUOUS
 62
             200
100
AcDbLine
 10
-38.930903939204427
 20
-51.147999999999996
 30
0.0
 11
-40.374903939204387
 21
-48.647999999999968
 31
0.0
  0
LINE
  5
58E
100
AcDbEntity
  8
0
  6
CONTINUOUS
 62
               4
100
AcDbLine
 10
-40.526903939204431
 20
-49.247999999999962
 30
0.0
 11
-43.296903939204412
 21
-49.247999999999962
 31
0.0
  0
LINE
  5
58F
100
AcDbEntity
  8
0
  6
CONTINUOUS
 62
               4
100
AcDbLine
 10
-39.776903939204431
 20
-50.547999999999973
 30
0.0
 11
-43.296903939204412
 21
-50.547999999999973
 31
0.0
  0
LINE
  5
590
100
AcDbEntity
  8
0
  6
CONTINUOUS
 62
             200
100
AcDbLine
 10
-39.430903939204427
 20
-51.147999999999996
 30
0.0
 11
-40.874903939204387
 21
-48.647999999999968
 31
0.0
  0
LINE
  5
591
100
AcDbEntity
  8
0
  6
CONTINUOUS
 62
               4
100
AcDbLine
 10
-43.296903939204412
 20
-50.547182617187417
 30
0.0
 11
-43.296903939204412
 21
-49.247182617187462
 31
0.0
  0
LINE
  5
592
100
AcDbEntity
  8
0
  6
CONTINUOUS
 62
               4
100
AcDbLine
 10
-36.600002816526853
 20
-47.397999999999968
 30
0.0
 11
-37.300002816526785
 21
-47.397999999999968
 31
0.0
  0
LINE
  5
593
100
AcDbEntity
  8
0
  6
CONTINUOUS
 62
               4
100
AcDbLine
 10
-37.800002816526785
 20
-47.897999999999968
 30
0.0
 11
-37.800002816526785
 21
-51.897999999999996
 31
0.0
  0
LINE
  5
594
100
AcDbEntity
  8
0
  6
CONTINUOUS
 62
               4
100
AcDbLine
 10
-36.600002816526853
 20
-52.397999999999996
 30
0.0
 11
-37.300002816526785
 21
-52.397999999999996
 31
0.0
  0
ARC
  5
595
100
AcDbEntity
  8
0
  6
CONTINUOUS
 62
               4
100
AcDbCircle
 10
-37.300002816526785
 20
-47.897999999999968
 30
0.0
 40
0.5
100
AcDbArc
 50
89.999999999999815
 51
179.99999999999963
  0
ARC
  5
596
100
AcDbEntity
  8
0
  6
CONTINUOUS
 62
               4
100
AcDbCircle
 10
-37.300002816526785
 20
-51.897999999999996
 30
0.0
 40
0.5
100
AcDbArc
 50
179.99999999999963
 51
269.99999999999937
  0
LINE
  5
597
100
AcDbEntity
  8
0
  6
CONTINUOUS
 62
               4
100
AcDbLine
 10
-43.296903939204412
 20
-49.64718261718744
 30
0.0
 11
-46.796903939204412
 21
-49.64718261718744
 31
0.0
  0
LINE
  5
598
100
AcDbEntity
  8
0
  6
CONTINUOUS
 62
               4
100
AcDbLine
 10
-43.296903939204412
 20
-50.14718261718744
 30
0.0
 11
-46.796903939204412
 21
-50.14718261718744
 31
0.0
  0
LINE
  5
599
100
AcDbEntity
  8
0
  6
CONTINUOUS
 62
               4
100
AcDbLine
 10
-34.00000281652683
 20
-34.899999999999977
 30
0.0
 11
-36.312002816526842
 21
-35.97799999999998
 31
0.0
  0
LINE
  5
59A
100
AcDbEntity
  8
0
  6
CONTINUOUS
 62
               4
100
AcDbLine
 10
-34.00000281652683
 20
-34.899999999999977
 30
0.0
 11
-34.00000281652683
 21
-53.397999999999996
 31
0.0
  0
LINE
  5
59B
100
AcDbEntity
  8
0
  6
CONTINUOUS
 62
               4
100
AcDbLine
 10
-17.0
 20
-56.799999999999983
 30
0.0
 11
-17.0
 21
-34.899999999999977
 31
0.0
  0
LINE
  5
59C
100
AcDbEntity
  8
0
  6
CONTINUOUS
 62
               4
100
AcDbLine
 10
-31.0
 20
-34.899999999999977
 30
0.0
 11
-31.0
 21
-56.79999999493225
 31
0.0
  0
ENDBLK
  5
59D
100
AcDbEntity
  8
0
100
AcDbBlockEnd
  0
BLOCK
  5
5B7
100
AcDbEntity
  8
0
  6
ByBlock
 62
               0
100
AcDbBlockBegin
  2
_OPEN30
 70
               2
 10
0.0
 20
0.0
 30
0.0
  3
_OPEN30
  1

  0
LINE
  5
5B8
100
AcDbEntity
  8
0
  6
ByBlock
 62
               0
100
AcDbLine
 10
-1.0
 20
0.267949
 30
0.0
 11
0.0
 21
0.0
 31
0.0
  0
LINE
  5
5B9
100
AcDbEntity
  8
0
  6
ByBlock
 62
               0
100
AcDbLine
 10
0.0
 20
0.0
 30
0.0
 11
-1.0
 21
-0.267949
 31
0.0
  0
LINE
  5
5BA
100
AcDbEntity
  8
0
  6
ByBlock
 62
               0
100
AcDbLine
 10
0.0
 20
0.0
 30
0.0
 11
-1.0
 21
0.0
 31
0.0
  0
ENDBLK
  5
5BB
100
AcDbEntity
  8
0
  6
ByBlock
 62
               0
100
AcDbBlockEnd
  0
ENDSEC
  0
SECTION
  2
ENTITIES
  0
INSERT
  5
59E
100
AcDbEntity
  8
0
  6
ByBlock
100
AcDbBlockReference
  2
EA10A6-1
 10
-136.57113116506446
 20
84.651061575689383
 30
0.0
  0
INSERT
  5
59F
100
AcDbEntity
  8
0
  6
ByBlock
100
AcDbBlockReference
  2
EA10A6-2
 10
-242.67113116506442
 20
84.651061575689383
 30
0.0
  0
INSERT
  5
5A0
100
AcDbEntity
  8
0
  6
ByBlock
100
AcDbBlockReference
  2
EA10A6-3
 10
-38.271131165064389
 20
84.651061575689383
 30
0.0
  0
INSERT
  5
5A1
100
AcDbEntity
  8
0
  6
ByBlock
100
AcDbBlockReference
  2
EA10A6-4
 10
145.10379559274804
 20
84.651061575689383
 30
0.0
  0
INSERT
  5
5A2
100
AcDbEntity
  8
0
  6
ByBlock
100
AcDbBlockReference
  2
EA10A6-5
 10
39.003795592748077
 20
84.651061575689383
 30
0.0
  0
INSERT
  5
5A3
100
AcDbEntity
  8
0
  6
ByBlock
100
AcDbBlockReference
  2
EA10A6-6
 10
243.40379559274811
 20
84.651061575689383
 30
0.0
  0
INSERT
  5
5A4
100
AcDbEntity
  8
0
  6
ByBlock
100
AcDbBlockReference
  2
EA10A6-7
 10
8.7249267578124545
 20
-106.16260876633828
 30
0.0
  0
INSERT
  5
5A5
100
AcDbEntity
  8
0
  6
ByBlock
100
AcDbBlockReference
  2
EA10A6-8
 10
-97.375073242187511
 20
-106.16260876633828
 30
0.0
  0
INSERT
  5
5A6
100
AcDbEntity
  8
0
  6
ByBlock
100
AcDbBlockReference
  2
EA10A6-9
 10
107.02492675781252
 20
-106.16260876633828
 30
0.0
  0
MTEXT
  5
5A7
100
AcDbEntity
  8
0
  6
CONTINUOUS
 62
               7
100
AcDbMText
 10
-268.24956448064034
 20
160.5
 30
0.0
 40
6.3000001907348633
 41
0.0
 71
               4
 72
               1
  1
\W1.096;\A1;MODEL:EA10(L)A6-25-PL
  0
LINE
  5
5A8
100
AcDbEntity
  8
0
  6
CONTINUOUS
 62
               7
100
AcDbLine
 10
-281.25
 20
-195.0
 30
0.0
 11
282.099853515625
 21
-195.0
 31
0.0
  0
LINE
  5
5A9
100
AcDbEntity
  8
0
  6
CONTINUOUS
 62
               7
100
AcDbLine
 10
-281.25
 20
195.5
 30
0.0
 11
-281.25
 21
-195.0
 31
0.0
  0
LINE
  5
5AA
100
AcDbEntity
  8
0
  6
CONTINUOUS
 62
               7
100
AcDbLine
 10
-281.25
 20
195.5
 30
0.0
 11
282.099853515625
 21
195.5
 31
0.0
  0
LINE
  5
5AB
100
AcDbEntity
  8
0
  6
CONTINUOUS
 62
               7
100
AcDbLine
 10
282.099853515625
 20
195.5
 30
0.0
 11
282.099853515625
 21
-195.0
 31
0.0
  0
LINE
  5
5AC
100
AcDbEntity
  8
0
  6
CONTINUOUS
 62
               7
100
AcDbLine
 10
162.0999755859375
 20
195.5
 30
0.0
 11
162.0999755859375
 21
175.5
 31
0.0
  0
LINE
  5
5AD
100
AcDbEntity
  8
0
  6
CONTINUOUS
 62
               7
100
AcDbLine
 10
162.0999755859375
 20
175.5
 30
0.0
 11
282.099853515625
 21
175.5
 31
0.0
  0
MTEXT
  5
5AE
100
AcDbEntity
  8
0
  6
CONTINUOUS
 62
               7
100
AcDbMText
 10
198.27702406779611
 20
185.5
 30
0.0
 40
6.3000001907348633
 41
0.0
 71
               4
 72
               1
  1
\W1.311;\A1;Ver. 1.0
  0
MTEXT
  5
5AF
100
AcDbEntity
  8
0
  6
CONTINUOUS
 62
               7
100
AcDbMText
 10
170.28099805280428
 20
-185.0
 30
0.0
 40
9.0
 41
0.0
 71
               4
 72
               1
  1
\W1.121;\A1;KOGANEI CORP.
  0
LINE
  5
5B0
100
AcDbEntity
  8
0
  6
CONTINUOUS
 62
               7
100
AcDbLine
 10
162.0999755859375
 20
-175.0
 30
0.0
 11
282.099853515625
 21
-175.0
 31
0.0
  0
LINE
  5
5B1
100
AcDbEntity
  8
0
  6
CONTINUOUS
 62
               7
100
AcDbLine
 10
162.0999755859375
 20
-175.0
 30
0.0
 11
162.0999755859375
 21
-195.0
 31
0.0
  0
LINE
  5
5B2
100
AcDbEntity
  8
0
  6
CONTINUOUS
 62
               7
100
AcDbLine
 10
-161.25
 20
195.5
 30
0.0
 11
-161.25
 21
175.5
 31
0.0
  0
LINE
  5
5B3
100
AcDbEntity
  8
0
  6
CONTINUOUS
 62
               7
100
AcDbLine
 10
-281.25
 20
175.5
 30
0.0
 11
-161.25
 21
175.5
 31
0.0
  0
MTEXT
  5
5B4
100
AcDbEntity
  8
0
  6
CONTINUOUS
 62
               7
100
AcDbMText
 10
-257.88333446177035
 20
185.5
 30
0.0
 40
6.3000001907348633
 41
0.0
 71
               4
 72
               1
  1
\W1.111;\A1;EA･EB SERIES
  0
MTEXT
  5
5B5
100
AcDbEntity
  8
0
  6
CONTINUOUS
 62
               2
100
AcDbMText
 10
36.72267950284504
 20
-143.07767362241589
 30
0.0
 40
4.5
 41
0.0
 71
               4
 72
               1
  1
\A1;-75
  0
LEADER
  5
5BC
100
AcDbEntity
  8
0
  6
CONTINUOUS
 62
               2
100
AcDbLeader
  3
MXDIMSTYLE
 73
               3
 74
               0
 75
               0
 40
0.0
 76
               3
 10
24.9249267578125
 20
-132.56061176633827
 30
0.0
 10
35.078996307730904
 20
-147.73392338399731
 30
0.0
 10
50.22267950284504
 20
-147.73392338399731
 30
0.0
 77
               2
1001
ACAD
1000
DSTYLE
1002
{
1070
               6
1000
_OPEN30
1070
               7
1000
_OPEN30
1070
              41
1040
2.77
1070
             173
1070
               1
1070
             341
1005
5B6
1002
}
  0
MTEXT
  5
5BD
100
AcDbEntity
  8
0
  6
CONTINUOUS
 62
               2
100
AcDbMText
 10
173.10154833778063
 20
47.735996719611776
 30
0.0
 40
4.5
 41
0.0
 71
               4
 72
               1
  1
\A1;-75
  0
LEADER
  5
5BE
100
AcDbEntity
  8
0
  6
CONTINUOUS
 62
               2
100
AcDbLeader
  3
MXDIMSTYLE
 73
               3
 74
               0
 75
               0
 40
0.0
 76
               3
 10
161.30379559274809
 20
58.25305857568938
 30
0.0
 10
171.45786514266649
 20
43.079746958030356
 30
0.0
 10
186.60154833778063
 20
43.079746958030356
 30
0.0
 77
               2
1001
ACAD
1000
DSTYLE
1002
{
1070
               6
1000
_OPEN30
1070
               7
1000
_OPEN30
1070
              41
1040
2.77
1070
             173
1070
               1
1070
             341
1005
5B6
1002
}
  0
MTEXT
  5
5BF
100
AcDbEntity
  8
0
  6
CONTINUOUS
 62
               2
100
AcDbMText
 10
-108.57337842003187
 20
47.735996719611776
 30
0.0
 40
4.5
 41
0.0
 71
               4
 72
               1
  1
\A1;-75
  0
LEADER
  5
5C0
100
AcDbEntity
  8
0
  6
CONTINUOUS
 62
               2
100
AcDbLeader
  3
MXDIMSTYLE
 73
               3
 74
               0
 75
               0
 40
0.0
 76
               3
 10
-120.37113116506441
 20
58.25305857568938
 30
0.0
 10
-110.21706161514601
 20
43.079746958030356
 30
0.0
 10
-95.073378420031872
 20
43.079746958030356
 30
0.0
 77
               2
1001
ACAD
1000
DSTYLE
1002
{
1070
               6
1000
_OPEN30
1070
               7
1000
_OPEN30
1070
              41
1040
2.77
1070
             173
1070
               1
1070
             341
1005
5B6
1002
}
  0
LINE
  5
5C1
100
AcDbEntity
  8
0
  6
CONTINUOUS
 62
               7
100
AcDbLine
 10
-281.25
 20
-38.799999999999983
 30
0.0
 11
282.099853515625
 21
-38.799999999999983
 31
0.0
  0
LINE
  5
5C2
100
AcDbEntity
  8
0
  6
CONTINUOUS
 62
               7
100
AcDbLine
 10
0.4249267578125
 20
-38.799999999999983
 30
0.0
 11
0.4249267578125
 21
195.5
 31
0.0
  0
MTEXT
  5
5C3
100
AcDbEntity
  8
0
  6
CONTINUOUS
 62
               7
100
AcDbMText
 10
13.425362277172178
 20
160.5
 30
0.0
 40
6.3000001907348633
 41
0.0
 71
               4
 72
               1
  1
\W1.096;\A1;MODEL:EA10(L)A6-25-PS
  0
MTEXT
  5
5C4
100
AcDbEntity
  8
0
  6
CONTINUOUS
 62
               7
100
AcDbMText
 10
-268.27722776173874
 20
-53.799999999999983
 30
0.0
 40
6.3000001907348633
 41
0.0
 71
               4
 72
               1
  1
\W1.069;\A1;MODEL:EA10A6-25-GL
  0
ENDSEC
  0
SECTION
  2
OBJECTS
  0
DICTIONARY
  5
19
100
AcDbDictionary
  3
ACAD_GROUP
350
1A
  3
ACAD_MLINESTYLE
350
1B
  0
DICTIONARY
  5
1A
102
{ACAD_REACTORS
330
19
102
}
100
AcDbDictionary
  0
DICTIONARY
  5
1B
102
{ACAD_REACTORS
330
19
102
}
100
AcDbDictionary
  3
STANDARD
350
1C
  0
MLINESTYLE
  5
1C
102
{ACAD_REACTORS
330
1B
102
}
100
AcDbMlineStyle
  2
Standard
 70
               0
  3

 62
               0
 51
90.0
 52
90.0
 71
               2
 49
0.5
 62
             256
  6
ByLayer
 49
-0.5
 62
             256
  6
ByLayer
  0
ENDSEC
  0
EOF
