  0
SECTION
  2
HEADER
  9
$ACADVER
  1
AC1012
  9
$DWGCODEPAGE
  3
dos932
  9
$INSBASE
 10
0.0
 20
0.0
 30
0.0
  9
$EXTMIN
 10
-194.25
 20
-133.5
 30
0.0
  9
$EXTMAX
 10
196.2723600854633
 20
132.60000610351562
 30
0.0
  9
$LIMMIN
 10
-194.25
 20
-133.5
  9
$LIMMAX
 10
196.2723600854633
 20
132.60000610351562
  9
$ORTHOMODE
 70
               0
  9
$REGENMODE
 70
               1
  9
$FILLMODE
 70
               1
  9
$QTEXTMODE
 70
               0
  9
$MIRRTEXT
 70
               1
  9
$DRAGMODE
 70
               2
  9
$LTSCALE
 40
1.0
  9
$OSMODE
 70
               0
  9
$ATTMODE
 70
               1
  9
$TEXTSIZE
 40
3.2000000476837158
  9
$TRACEWID
 40
0.05
  9
$TEXTSTYLE
  7
MX_NOTE_STANDARD
  9
$CLAYER
  8
0
  9
$CELTYPE
  6
CONTINUOUS
  9
$CECOLOR
 62
             256
  9
$CELTSCALE
 40
1.0
  9
$DELOBJ
 70
               1
  9
$DISPSILH
 70
               0
  9
$DIMSCALE
 40
1.0
  9
$DIMASZ
 40
2.5
  9
$DIMEXO
 40
1.5
  9
$DIMDLI
 40
3.75
  9
$DIMRND
 40
0.0
  9
$DIMDLE
 40
0.0
  9
$DIMEXE
 40
1.5
  9
$DIMTP
 40
0.0
  9
$DIMTM
 40
0.0
  9
$DIMTXT
 40
3.2000000476837158
  9
$DIMCEN
 40
2.5
  9
$DIMTSZ
 40
0.0
  9
$DIMTOL
 70
               0
  9
$DIMLIM
 70
               0
  9
$DIMTIH
 70
               0
  9
$DIMTOH
 70
               0
  9
$DIMSE1
 70
               0
  9
$DIMSE2
 70
               0
  9
$DIMTAD
 70
               1
  9
$DIMZIN
 70
               8
  9
$DIMBLK
  1

  9
$DIMASO
 70
               1
  9
$DIMSHO
 70
               1
  9
$DIMPOST
  1

  9
$DIMAPOST
  1

  9
$DIMALT
 70
               0
  9
$DIMALTD
 70
               4
  9
$DIMALTF
 40
0.03937007874016
  9
$DIMLFAC
 40
1.0
  9
$DIMTOFL
 70
               1
  9
$DIMTVP
 40
0.0
  9
$DIMTIX
 70
               0
  9
$DIMSOXD
 70
               0
  9
$DIMSAH
 70
               0
  9
$DIMBLK1
  1

  9
$DIMBLK2
  1

  9
$DIMSTYLE
  2
MXDIMSTYLE
  9
$DIMCLRD
 70
               0
  9
$DIMCLRE
 70
               0
  9
$DIMCLRT
 70
               0
  9
$DIMTFAC
 40
1.0
  9
$DIMGAP
 40
1.0
  9
$DIMJUST
 70
               0
  9
$DIMSD1
 70
               0
  9
$DIMSD2
 70
               0
  9
$DIMTOLJ
 70
               1
  9
$DIMTZIN
 70
               0
  9
$DIMALTZ
 70
               0
  9
$DIMALTTZ
 70
               0
  9
$DIMFIT
 70
               3
  9
$DIMUPT
 70
               1
  9
$DIMUNIT
 70
               2
  9
$DIMDEC
 70
               4
  9
$DIMTDEC
 70
               4
  9
$DIMALTU
 70
               2
  9
$DIMALTTD
 70
               4
  9
$DIMTXSTY
  7
MX_NOTE_STANDARD
  9
$DIMAUNIT
 70
               0
  9
$LUNITS
 70
               2
  9
$LUPREC
 70
               4
  9
$SKETCHINC
 40
0.1
  9
$FILLETRAD
 40
0.0
  9
$AUNITS
 70
               0
  9
$AUPREC
 70
               0
  9
$MENU
  1
acad
  9
$ELEVATION
 40
0.0
  9
$PELEVATION
 40
0.0
  9
$THICKNESS
 40
0.0
  9
$LIMCHECK
 70
               0
  9
$BLIPMODE
 70
               1
  9
$CHAMFERA
 40
0.0
  9
$CHAMFERB
 40
0.0
  9
$CHAMFERC
 40
0.0
  9
$CHAMFERD
 40
0.0
  9
$SKPOLY
 70
               0
  9
$TDCREATE
 40
2453378.356331019
  9
$TDUPDATE
 40
2453378.356331019
  9
$TDINDWG
 40
0.0000000000
  9
$TDUSRTIMER
 40
0.0000000000
  9
$USRTIMER
 70
               1
  9
$ANGBASE
 50
0.0
  9
$ANGDIR
 70
               0
  9
$PDMODE
 70
               0
  9
$PDSIZE
 40
0.0
  9
$PLINEWID
 40
0.0
  9
$COORDS
 70
               1
  9
$SPLFRAME
 70
               0
  9
$SPLINETYPE
 70
               6
  9
$SPLINESEGS
 70
               8
  9
$ATTDIA
 70
               0
  9
$ATTREQ
 70
               1
  9
$HANDLING
 70
               1
  9
$HANDSEED
  5
446
  9
$SURFTAB1
 70
               6
  9
$SURFTAB2
 70
               6
  9
$SURFTYPE
 70
               6
  9
$SURFU
 70
               6
  9
$SURFV
 70
               6
  9
$UCSNAME
  2

  9
$UCSORG
 10
0.0
 20
0.0
 30
0.0
  9
$UCSXDIR
 10
1.0
 20
0.0
 30
0.0
  9
$UCSYDIR
 10
0.0
 20
1.0
 30
0.0
  9
$PUCSNAME
  2

  9
$PUCSORG
 10
0.0
 20
0.0
 30
0.0
  9
$PUCSXDIR
 10
1.0
 20
0.0
 30
0.0
  9
$PUCSYDIR
 10
0.0
 20
1.0
 30
0.0
  9
$USERI1
 70
               0
  9
$USERI2
 70
               0
  9
$USERI3
 70
               0
  9
$USERI4
 70
               0
  9
$USERI5
 70
               0
  9
$USERR1
 40
0.0
  9
$USERR2
 40
0.0
  9
$USERR3
 40
0.0
  9
$USERR4
 40
0.0
  9
$USERR5
 40
0.0
  9
$WORLDVIEW
 70
               1
  9
$SHADEDGE
 70
               3
  9
$SHADEDIF
 70
              70
  9
$TILEMODE
 70
               1
  9
$MAXACTVP
 70
              16
  9
$PINSBASE
 10
0.0
 20
0.0
 30
0.0
  9
$PLIMCHECK
 70
               0
  9
$PEXTMIN
 10
1.0000000000000000E+20
 20
1.0000000000000000E+20
 30
1.0000000000000000E+20
  9
$PEXTMAX
 10
-1.0000000000000000E+20
 20
-1.0000000000000000E+20
 30
-1.0000000000000000E+20
  9
$PLIMMIN
 10
0.0
 20
0.0
  9
$PLIMMAX
 10
12.0
 20
9.0
  9
$UNITMODE
 70
               0
  9
$VISRETAIN
 70
               0
  9
$PLINEGEN
 70
               1
  9
$PSLTSCALE
 70
               0
  9
$TREEDEPTH
 70
            3020
  9
$PICKSTYLE
 70
               1
  9
$CMLSTYLE
  2
Standard
  9
$CMLJUST
 70
               0
  9
$CMLSCALE
 40
1.0
  9
$SAVEIMAGES
 70
               0
  0
ENDSEC
  0
SECTION
  2
CLASSES
  0
CLASS
  1
LWPOLYLINE
  2
AcDbPolyline
  3
"AutoCAD"
 90
        0
280
               0
281
               1
  0
CLASS
  1
IMAGE
  2
AcDbRasterImage
  3
ISM
 90
      127
280
               0
281
               1
  0
CLASS
  1
OLE2FRAME
  2
AcDbOle2Frame
  3
""
 90
        0
280
               0
281
               1
  0
CLASS
  1
HATCH
  2
AcDbHatch
  3
"ACAD_SEDONA"
 90
        0
280
               0
281
               1
  0
CLASS
  1
DICTIONARYVAR
  2
AcDbDictionaryVar
  3
"AutoCAD"
 90
        0
280
               0
281
               0
  0
CLASS
  1
RASTERVARIABLES
  2
AcDbRasterVariables
  3
ISM
 90
        0
280
               0
281
               0
  0
CLASS
  1
IMAGEDEF
  2
AcDbRasterImageDef
  3
ISM
 90
        0
280
               0
281
               0
  0
CLASS
  1
IMAGEDEF_REACTOR
  2
AcDbRasterImageDefReactor
  3
ISM
 90
        1
280
               0
281
               0
  0
CLASS
  1
IDBUFFER
  2
AcDbIdBuffer
  3
"Acad"
 90
        0
280
               0
281
               0
  0
CLASS
  1
SPATIAL_FILTER
  2
AcDbSpatialFilter
  3
"Acad"
 90
        0
280
               0
281
               0
  0
CLASS
  1
XRECORD
  2
AcDbXrecord
  3
"<Built In>"
 90
        0
280
               0
281
               0
  0
CLASS
  1
SORTENTSTABLE
  2
AcDbSortentsTable
  3
"AutoCAD"
 90
        0
280
               0
281
               0
  0
CLASS
  1
LAYER_INDEX
  2
AcDbLayerIndex
  3
"Acad"
 90
        0
280
               0
281
               0
  0
CLASS
  1
SPATIAL_INDEX
  2
AcDbSpatialIndex
  3
"Acad"
 90
        0
280
               0
281
               0
  0
CLASS
  1
OBJECT_PTR
  2
CAseDLPNTableRecord
  3
"ASE-LPNTableRecord"
 90
        1
280
               0
281
               0
  0
CLASS
  1
LAYOUT
  2
AcDbLayout
  3
"AutoCAD 2000"
 90
        1
280
               0
281
               0
  0
CLASS
  1
PLOTSETTINGS
  2
AcDbPlotSettings
  3
"AutoCAD 2000"
 90
        1
280
               0
281
               0
  0
CLASS
  1
ACDBDICTIONARYWDFLT
  2
AcDbDictionaryWithDefault
  3
"AutoCAD 2000"
 90
        1
280
               0
281
               0
  0
CLASS
  1
ACDBPLACEHOLDER
  2
AcDbPlaceHolder
  3
"AutoCAD 2000"
 90
        1
280
               0
281
               0
  0
ENDSEC
  0
SECTION
  2
TABLES
  0
TABLE
  2
VPORT
  5
7
100
AcDbSymbolTable
 70
               1
  0
VPORT
  5
15
100
AcDbSymbolTableRecord
100
AcDbViewportTableRecord
  2
*ACTIVE
 70
               0
 10
0.0
 20
0.0
 11
1.0
 21
1.0
 12
1.0111800427316666
 22
-0.4499969482421875
 13
0.0
 23
0.0
 14
1.0
 24
1.0
 15
0.0
 25
0.0
 16
0.0
 26
0.0
 36
1.0
 17
0.0
 27
0.0
 37
0.0
 40
268.76100616455079
 41
1.7320508075688772
 42
50.0
 43
0.0
 44
0.0
 50
0.0
 51
0.0
 71
               0
 72
             100
 73
               1
 74
               1
 75
               0
 76
               0
 77
               0
 78
               0
  0
ENDTAB
  0
TABLE
  2
LTYPE
  5
4
100
AcDbSymbolTable
 70
               5
  0
LTYPE
  5
11
100
AcDbSymbolTableRecord
100
AcDbLinetypeTableRecord
  2
BYBLOCK
 70
              64
  3

 72
              65
 73
               0
 40
0.0
  0
LTYPE
  5
12
100
AcDbSymbolTableRecord
100
AcDbLinetypeTableRecord
  2
BYLAYER
 70
              64
  3

 72
              65
 73
               0
 40
0.0
  0
LTYPE
  5
13
100
AcDbSymbolTableRecord
100
AcDbLinetypeTableRecord
  2
CONTINUOUS
 70
              64
  3
Solid line
 72
              65
 73
               0
 40
0.0
  0
LTYPE
  5
35
100
AcDbSymbolTableRecord
100
AcDbLinetypeTableRecord
  2
CENTER
 70
              64
  3
Center ____ _ ____ _ ____ _ ____ _ ____ _ ____
 72
              65
 73
               4
 40
26.0
 49
20.0
 74
               0
 49
-2.0
 74
               0
 49
2.0
 74
               0
 49
-2.0
 74
               0
  0
LTYPE
  5
5F
100
AcDbSymbolTableRecord
100
AcDbLinetypeTableRecord
  2
PHANTOM
 70
              64
  3
Phantom ______  __  __  ______  __  __  ______
 72
              65
 73
               6
 40
30.0
 49
20.0
 74
               0
 49
-2.0
 74
               0
 49
2.0
 74
               0
 49
-2.0
 74
               0
 49
2.0
 74
               0
 49
-2.0
 74
               0
  0
ENDTAB
  0
TABLE
  2
LAYER
  5
2
100
AcDbSymbolTable
 70
               2
  0
LAYER
  5
14
100
AcDbSymbolTableRecord
100
AcDbLayerTableRecord
  2
0
 70
               0
 62
               7
  6
CONTINUOUS
  0
LAYER
  5
1D
100
AcDbSymbolTableRecord
100
AcDbLayerTableRecord
  2
DEFPOINTS
 70
               0
 62
               7
  6
CONTINUOUS
  0
ENDTAB
  0
TABLE
  2
STYLE
  5
3
100
AcDbSymbolTable
 70
               1
  0
STYLE
  5
17
100
AcDbSymbolTableRecord
100
AcDbTextStyleTableRecord
  2
MX_NOTE_STANDARD
 70
               0
 40
0.0
 41
1.0
 50
0.0
 71
               0
 42
3.2000000476837158
  3
txt.shx
  4
extfont.shx
  0
ENDTAB
  0
TABLE
  2
VIEW
  5
5
100
AcDbSymbolTable
 70
               0
  0
ENDTAB
  0
TABLE
  2
UCS
  5
6
100
AcDbSymbolTable
 70
               0
  0
ENDTAB
  0
TABLE
  2
APPID
  5
8
100
AcDbSymbolTable
 70
               1
  0
APPID
  5
16
100
AcDbSymbolTableRecord
100
AcDbRegAppTableRecord
  2
ACAD
 70
               0
  0
ENDTAB
  0
TABLE
  2
DIMSTYLE
  5
9
100
AcDbSymbolTable
 70
               1
  0
DIMSTYLE
105
18
100
AcDbSymbolTableRecord
100
AcDbDimStyleTableRecord
  2
MXDIMSTYLE
 70
               0
  3

  4

  5

  6

  7

 40
1.0
 41
2.5
 42
1.5
 43
3.75
 44
1.5
 45
0.0
 46
0.0
 47
0.0
 48
0.0
 71
               0
 72
               0
 73
               0
 74
               0
 75
               0
 76
               0
 77
               1
 78
               8
140
3.2000000476837158
141
2.5
142
0.0
143
0.03937007874016
144
1.0
145
0.0
146
1.0
147
1.0
170
               0
171
               4
172
               1
173
               0
174
               0
175
               0
176
               0
177
               0
178
               0
270
               2
271
               4
272
               4
273
               2
274
               4
275
               0
280
               0
281
               0
282
               0
283
               1
284
               0
285
               0
286
               0
287
               3
288
               1
340
17
  0
ENDTAB
  0
TABLE
  2
BLOCK_RECORD
  5
1
100
AcDbSymbolTable
 70
               7
  0
BLOCK_RECORD
  5
A
100
AcDbSymbolTableRecord
100
AcDbBlockTableRecord
  2
*MODEL_SPACE
  0
BLOCK_RECORD
  5
B
100
AcDbSymbolTableRecord
100
AcDbBlockTableRecord
  2
*PAPER_SPACE
  0
BLOCK_RECORD
  5
1E
100
AcDbSymbolTableRecord
100
AcDbBlockTableRecord
  2
EA10SA6-1
  0
BLOCK_RECORD
  5
1F
100
AcDbSymbolTableRecord
100
AcDbBlockTableRecord
  2
EA10SA6-2
  0
BLOCK_RECORD
  5
20
100
AcDbSymbolTableRecord
100
AcDbBlockTableRecord
  2
EA10SA6-3
  0
BLOCK_RECORD
  5
21
100
AcDbSymbolTableRecord
100
AcDbBlockTableRecord
  2
EA10SA6-4
  0
BLOCK_RECORD
  5
22
100
AcDbSymbolTableRecord
100
AcDbBlockTableRecord
  2
EA10SA6-5
  0
BLOCK_RECORD
  5
23
100
AcDbSymbolTableRecord
100
AcDbBlockTableRecord
  2
EA10SA6-6
  0
BLOCK_RECORD
  5
43B
100
AcDbSymbolTableRecord
100
AcDbBlockTableRecord
  2
_OPEN30
  0
ENDTAB
  0
ENDSEC
  0
SECTION
  2
BLOCKS
  0
BLOCK
  5
D
100
AcDbEntity
  8
0
100
AcDbBlockBegin
  2
*MODEL_SPACE
 70
               0
 10
0.0
 20
0.0
 30
0.0
  3
*MODEL_SPACE
  1

  0
ENDBLK
  5
E
100
AcDbEntity
  8
0
100
AcDbBlockEnd
  0
BLOCK
  5
F
100
AcDbEntity
 67
               1
  8
0
100
AcDbBlockBegin
  2
*PAPER_SPACE
 70
               0
 10
0.0
 20
0.0
 30
0.0
  3
*PAPER_SPACE
  1

  0
ENDBLK
  5
10
100
AcDbEntity
 67
               1
  8
0
100
AcDbBlockEnd
  0
BLOCK
  5
24
100
AcDbEntity
  8
0
100
AcDbBlockBegin
  2
EA10SA6-1
 70
               0
 10
0.0
 20
0.0
 30
0.0
  3
EA10SA6-1
  1

  0
LINE
  5
25
100
AcDbEntity
  8
0
  6
CONTINUOUS
 62
               7
100
AcDbLine
 10
-13.299999999999997
 20
-23.899999999999764
 30
0.0
 11
-3.2999999999999972
 21
-23.899999999999764
 31
0.0
  0
LINE
  5
26
100
AcDbEntity
  8
0
  6
CONTINUOUS
 62
               7
100
AcDbLine
 10
-3.2999999999999972
 20
-5.6999998612301397
 30
0.0
 11
-13.299999999999997
 21
-5.6999998612301397
 31
0.0
  0
LINE
  5
27
100
AcDbEntity
  8
0
  6
CONTINUOUS
 62
               7
100
AcDbLine
 10
-11.39599856938483
 20
2.0000001387698632
 30
0.0
 11
-11.39599856938483
 21
6.0000001387698632
 31
0.0
  0
LINE
  5
28
100
AcDbEntity
  8
0
  6
CONTINUOUS
 62
               7
100
AcDbLine
 10
-5.2040014306151647
 20
2.0000001387698632
 30
0.0
 11
-5.2040014306151647
 21
6.0000001387698632
 31
0.0
  0
ARC
  5
29
100
AcDbEntity
  8
0
  6
CONTINUOUS
 62
               7
100
AcDbCircle
 10
-8.2999999999999972
 20
2.0000001387698632
 30
0.0
 40
3.0959985693848324
100
AcDbArc
 50
179.99999999999963
 51
0.0
  0
LINE
  5
2A
100
AcDbEntity
  8
0
  6
CONTINUOUS
 62
               7
100
AcDbLine
 10
-13.299999999999997
 20
-9.2516683838753977
 30
0.0
 11
-13.299999999999997
 21
-5.6999998607356588
 31
0.0
  0
LINE
  5
2B
100
AcDbEntity
  8
0
  6
CONTINUOUS
 62
               7
100
AcDbLine
 10
-3.2999999999999972
 20
-18.851668383875435
 30
0.0
 11
-3.2999999999999972
 21
-5.6999998612301397
 31
0.0
  0
LINE
  5
2C
100
AcDbEntity
  8
0
  6
CONTINUOUS
 62
               7
100
AcDbLine
 10
-5.307106781186576
 20
-20.308105211801532
 30
0.0
 11
-3.8928932188134979
 21
-18.893891649428426
 31
0.0
  0
LINE
  5
2D
100
AcDbEntity
  8
0
  6
CONTINUOUS
 62
               7
100
AcDbLine
 10
-3.8928932188135263
 20
-20.308105211801532
 30
0.0
 11
-5.307106781186576
 21
-18.893891649428426
 31
0.0
  0
CIRCLE
  5
2E
100
AcDbEntity
  8
0
  6
CONTINUOUS
 62
               7
100
AcDbCircle
 10
-4.6000000000000227
 20
-19.599999861230188
 30
0.0
 40
1.5
  0
LINE
  5
2F
100
AcDbEntity
  8
0
  6
CONTINUOUS
 62
               7
100
AcDbLine
 10
-12.707106781186553
 20
-10.708105211801531
 30
0.0
 11
-11.292893218813475
 21
-9.2938916494284385
 31
0.0
  0
LINE
  5
30
100
AcDbEntity
  8
0
  6
CONTINUOUS
 62
               7
100
AcDbLine
 10
-11.292893218813504
 20
-10.708105211801531
 30
0.0
 11
-12.707106781186553
 21
-9.2938916494284385
 31
0.0
  0
CIRCLE
  5
31
100
AcDbEntity
  8
0
  6
CONTINUOUS
 62
               7
100
AcDbCircle
 10
-12.0
 20
-9.9999998612301866
 30
0.0
 40
1.5
  0
LINE
  5
32
100
AcDbEntity
  8
0
  6
CONTINUOUS
 62
               7
100
AcDbLine
 10
-14.299999999999997
 20
-32.299999999999997
 30
0.0
 11
-13.299999999999997
 21
-32.299999999999997
 31
0.0
  0
LINE
  5
33
100
AcDbEntity
  8
0
  6
CONTINUOUS
 62
               7
100
AcDbLine
 10
2.7000000000000028
 20
2.7000000000000028
 30
0.0
 11
2.7000000000000028
 21
-32.299999999999997
 31
0.0
  0
LINE
  5
34
100
AcDbEntity
  8
0
  6
CONTINUOUS
 62
               7
100
AcDbLine
 10
-3.2999999999999972
 20
2.7000000000000028
 30
0.0
 11
2.7000000000000028
 21
2.7000000000000028
 31
0.0
  0
LINE
  5
36
100
AcDbEntity
  8
0
  6
CENTER
 62
               2
100
AcDbLine
 10
0.0
 20
2.5
 30
0.0
 11
0.0
 21
-2.5
 31
0.0
  0
LINE
  5
37
100
AcDbEntity
  8
0
  6
CENTER
 62
               2
100
AcDbLine
 10
0.0
 20
-27.099999999999994
 30
0.0
 11
0.0
 21
-32.099999999999994
 31
0.0
  0
LINE
  5
38
100
AcDbEntity
  8
0
  6
CENTER
 62
               2
100
AcDbLine
 10
-2.5
 20
0.0
 30
0.0
 11
2.5
 21
0.0
 31
0.0
  0
LINE
  5
39
100
AcDbEntity
  8
0
  6
CENTER
 62
               2
100
AcDbLine
 10
-2.5
 20
-29.599999999999994
 30
0.0
 11
2.5
 21
-29.599999999999994
 31
0.0
  0
CIRCLE
  5
3A
100
AcDbEntity
  8
0
  6
CONTINUOUS
 62
               7
100
AcDbCircle
 10
0.0000183105468778
 20
-0.0000030517578153
 30
0.0
 40
1.5499992370605469
  0
CIRCLE
  5
3B
100
AcDbEntity
  8
0
  6
CONTINUOUS
 62
               7
100
AcDbCircle
 10
0.0000183105468778
 20
-29.599993896484378
 30
0.0
 40
1.5499992370605469
  0
LINE
  5
3C
100
AcDbEntity
  8
0
  6
CONTINUOUS
 62
               7
100
AcDbLine
 10
-13.299999999999997
 20
-5.6999998612301397
 30
0.0
 11
-13.299999999999997
 21
6.0000001387698632
 31
0.0
  0
LINE
  5
3D
100
AcDbEntity
  8
0
  6
CONTINUOUS
 62
               7
100
AcDbLine
 10
-3.2999999999999972
 20
-5.6999998612301397
 30
0.0
 11
-3.2999999999999972
 21
6.0000001387698632
 31
0.0
  0
LINE
  5
3E
100
AcDbEntity
  8
0
  6
CONTINUOUS
 62
               7
100
AcDbLine
 10
-10.299999999999997
 20
2.0000001387698632
 30
0.0
 11
-10.299999999999997
 21
6.0000001387698632
 31
0.0
  0
LINE
  5
3F
100
AcDbEntity
  8
0
  6
CONTINUOUS
 62
               7
100
AcDbLine
 10
-6.2999999999999972
 20
2.0000001387698632
 30
0.0
 11
-6.2999999999999972
 21
6.0000001387698632
 31
0.0
  0
ARC
  5
40
100
AcDbEntity
  8
0
  6
CONTINUOUS
 62
               7
100
AcDbCircle
 10
-8.2999999999999972
 20
2.0000001387698632
 30
0.0
 40
2.0
100
AcDbArc
 50
179.99999999999963
 51
0.0
  0
LINE
  5
41
100
AcDbEntity
  8
0
  6
CENTER
 62
               2
100
AcDbLine
 10
-6.6000000000000085
 20
3.7000001387698802
 30
0.0
 11
-9.9999999999999858
 21
3.7000001387698802
 31
0.0
  0
CIRCLE
  5
42
100
AcDbEntity
  8
0
  6
CONTINUOUS
 62
               7
100
AcDbCircle
 10
-8.2999999999999972
 20
3.7000001387698802
 30
0.0
 40
1.3000000000000012
  0
CIRCLE
  5
43
100
AcDbEntity
  8
0
  6
CONTINUOUS
 62
               7
100
AcDbCircle
 10
-8.2999999999999972
 20
3.7000001387698802
 30
0.0
 40
1.1500000000000001
  0
CIRCLE
  5
44
100
AcDbEntity
  8
0
  6
CONTINUOUS
 62
               7
100
AcDbCircle
 10
-8.2999999999999972
 20
3.7000001387698802
 30
0.0
 40
1.1000000000000001
  0
CIRCLE
  5
45
100
AcDbEntity
  8
0
  6
CONTINUOUS
 62
               7
100
AcDbCircle
 10
-8.2999999999999972
 20
3.7000001387698802
 30
0.0
 40
0.75
  0
LINE
  5
46
100
AcDbEntity
  8
0
  6
CONTINUOUS
 62
               7
100
AcDbLine
 10
-4.6000000000000085
 20
-17.999999861230137
 30
0.0
 11
-3.2999999999999972
 21
-17.999999861230137
 31
0.0
  0
LINE
  5
47
100
AcDbEntity
  8
0
  6
CONTINUOUS
 62
               7
100
AcDbLine
 10
-4.6000000000000085
 20
-21.199999861230125
 30
0.0
 11
-3.2999999999999972
 21
-21.199999861230125
 31
0.0
  0
LINE
  5
48
100
AcDbEntity
  8
0
  6
CONTINUOUS
 62
               7
100
AcDbLine
 10
-11.999999999999986
 20
-8.3999998612301567
 30
0.0
 11
-13.299999999999997
 21
-8.3999998612301567
 31
0.0
  0
LINE
  5
49
100
AcDbEntity
  8
0
  6
CONTINUOUS
 62
               7
100
AcDbLine
 10
-11.999999999999986
 20
-11.599999861230167
 30
0.0
 11
-13.299999999999997
 21
-11.599999861230167
 31
0.0
  0
ARC
  5
4A
100
AcDbEntity
  8
0
  6
CONTINUOUS
 62
               7
100
AcDbCircle
 10
-4.6000000000000085
 20
-19.599999861230131
 30
0.0
 40
1.6000000000000001
100
AcDbArc
 50
89.999999999999815
 51
269.99999999999937
  0
ARC
  5
4B
100
AcDbEntity
  8
0
  6
CONTINUOUS
 62
               7
100
AcDbCircle
 10
-11.999999999999986
 20
-9.9999998612301724
 30
0.0
 40
1.6000000000000001
100
AcDbArc
 50
269.99999999999937
 51
89.999999999999801
  0
LINE
  5
4C
100
AcDbEntity
  8
0
  6
CONTINUOUS
 62
               7
100
AcDbLine
 10
-13.299999999999997
 20
-23.898002861230125
 30
0.0
 11
-13.299999999999997
 21
-10.748331338584975
 31
0.0
  0
LINE
  5
4D
100
AcDbEntity
  8
0
  6
CONTINUOUS
 62
               7
100
AcDbLine
 10
-3.2999999999999972
 20
-23.898002861230125
 30
0.0
 11
-3.2999999999999972
 21
-20.348331338584927
 31
0.0
  0
LINE
  5
4E
100
AcDbEntity
  8
0
  6
CONTINUOUS
 62
               7
100
AcDbLine
 10
-14.299999999999997
 20
-32.243953424198381
 30
0.0
 11
-14.299999999999997
 21
2.7000000000000028
 31
0.0
  0
LINE
  5
4F
100
AcDbEntity
  8
0
  6
CONTINUOUS
 62
               7
100
AcDbLine
 10
-14.299999999999997
 20
2.7000000000000028
 30
0.0
 11
-13.299999999999997
 21
2.7000000000000028
 31
0.0
  0
LINE
  5
50
100
AcDbEntity
  8
0
  6
CONTINUOUS
 62
               7
100
AcDbLine
 10
-3.2999999999999972
 20
-23.899999999999764
 30
0.0
 11
-3.2999999999999972
 21
-35.599999999999767
 31
0.0
  0
LINE
  5
51
100
AcDbEntity
  8
0
  6
CONTINUOUS
 62
               7
100
AcDbLine
 10
-13.299999999999997
 20
-23.899999999999764
 30
0.0
 11
-13.299999999999997
 21
-35.599999999999767
 31
0.0
  0
CIRCLE
  5
52
100
AcDbEntity
  8
0
  6
CONTINUOUS
 62
               7
100
AcDbCircle
 10
-8.2999999999999972
 20
-33.299999999999784
 30
0.0
 40
0.75
  0
CIRCLE
  5
53
100
AcDbEntity
  8
0
  6
CONTINUOUS
 62
               7
100
AcDbCircle
 10
-8.2999999999999972
 20
-33.299999999999784
 30
0.0
 40
1.1000000000000001
  0
CIRCLE
  5
54
100
AcDbEntity
  8
0
  6
CONTINUOUS
 62
               7
100
AcDbCircle
 10
-8.2999999999999972
 20
-33.299999999999784
 30
0.0
 40
1.1500000000000001
  0
CIRCLE
  5
55
100
AcDbEntity
  8
0
  6
CONTINUOUS
 62
               7
100
AcDbCircle
 10
-8.2999999999999972
 20
-33.299999999999784
 30
0.0
 40
1.3000000000000012
  0
LINE
  5
56
100
AcDbEntity
  8
0
  6
CENTER
 62
               2
100
AcDbLine
 10
-9.9999999999999858
 20
-33.299999999999784
 30
0.0
 11
-6.6000000000000085
 21
-33.299999999999784
 31
0.0
  0
ARC
  5
57
100
AcDbEntity
  8
0
  6
CONTINUOUS
 62
               7
100
AcDbCircle
 10
-8.2999999999999972
 20
-31.599999999999767
 30
0.0
 40
3.6000000000000001
100
AcDbArc
 50
0.0
 51
179.99999999999963
  0
ARC
  5
58
100
AcDbEntity
  8
0
  6
CONTINUOUS
 62
               7
100
AcDbCircle
 10
-8.2999999999999972
 20
-31.599999999999767
 30
0.0
 40
2.0
100
AcDbArc
 50
0.0
 51
179.99999999999963
  0
LINE
  5
59
100
AcDbEntity
  8
0
  6
CONTINUOUS
 62
               7
100
AcDbLine
 10
-11.90000000000002
 20
-31.599999999999767
 30
0.0
 11
-11.90000000000002
 21
-35.599999999999767
 31
0.0
  0
LINE
  5
5A
100
AcDbEntity
  8
0
  6
CONTINUOUS
 62
               7
100
AcDbLine
 10
-4.6999999999999744
 20
-31.599999999999767
 30
0.0
 11
-4.6999999999999744
 21
-35.599999999999767
 31
0.0
  0
LINE
  5
5B
100
AcDbEntity
  8
0
  6
CONTINUOUS
 62
               7
100
AcDbLine
 10
-10.299999999999997
 20
-31.599999999999767
 30
0.0
 11
-10.299999999999997
 21
-35.599999999999767
 31
0.0
  0
LINE
  5
5C
100
AcDbEntity
  8
0
  6
CONTINUOUS
 62
               7
100
AcDbLine
 10
-6.2999999999999972
 20
-31.599999999999767
 30
0.0
 11
-6.2999999999999972
 21
-35.599999999999767
 31
0.0
  0
LINE
  5
5D
100
AcDbEntity
  8
0
  6
CONTINUOUS
 62
               7
100
AcDbLine
 10
-3.2999999999999972
 20
-32.299999999999997
 30
0.0
 11
2.7000000000000028
 21
-32.299999999999997
 31
0.0
  0
LINE
  5
5E
100
AcDbEntity
  8
0
  6
CENTER
 62
               2
100
AcDbLine
 10
0.2162062056379739
 20
-22.398003000000003
 30
0.0
 11
17.830000000000013
 21
-22.398003000000003
 31
0.0
  0
LINE
  5
60
100
AcDbEntity
  8
0
  6
PHANTOM
 62
             200
100
AcDbLine
 10
2.7000000000000028
 20
-18.398003000000003
 30
0.0
 11
16.200000000000017
 21
-18.398003000000003
 31
0.0
  0
LINE
  5
61
100
AcDbEntity
  8
0
  6
PHANTOM
 62
             200
100
AcDbLine
 10
2.7000000000000028
 20
-26.398003000000003
 30
0.0
 11
16.200000000000017
 21
-26.398003000000003
 31
0.0
  0
LINE
  5
62
100
AcDbEntity
  8
0
  6
CENTER
 62
               2
100
AcDbLine
 10
0.2162062056379739
 20
-4.7980029999999942
 30
0.0
 11
17.830000000000013
 21
-4.7980029999999942
 31
0.0
  0
LINE
  5
63
100
AcDbEntity
  8
0
  6
PHANTOM
 62
             200
100
AcDbLine
 10
2.7000000000000028
 20
-0.7980029999999942
 30
0.0
 11
16.200000000000017
 21
-0.7980029999999942
 31
0.0
  0
LINE
  5
64
100
AcDbEntity
  8
0
  6
PHANTOM
 62
             200
100
AcDbLine
 10
2.7000000000000028
 20
-8.7980029999999942
 30
0.0
 11
16.200000000000017
 21
-8.7980029999999942
 31
0.0
  0
LINE
  5
65
100
AcDbEntity
  8
0
  6
PHANTOM
 62
             200
100
AcDbLine
 10
16.200000000000017
 20
-18.398003000000003
 30
0.0
 11
16.200000000000017
 21
-26.398003000000003
 31
0.0
  0
LINE
  5
66
100
AcDbEntity
  8
0
  6
PHANTOM
 62
             200
100
AcDbLine
 10
14.200000000000017
 20
-18.398003000000003
 30
0.0
 11
14.200000000000017
 21
-26.398003000000003
 31
0.0
  0
LINE
  5
67
100
AcDbEntity
  8
0
  6
PHANTOM
 62
             200
100
AcDbLine
 10
16.700000000000017
 20
-18.898003000000003
 30
0.0
 11
16.700000000000017
 21
-25.898003000000003
 31
0.0
  0
ARC
  5
68
100
AcDbEntity
  8
0
  6
PHANTOM
 62
             200
100
AcDbCircle
 10
16.200000000000017
 20
-25.898003000000003
 30
0.0
 40
0.5
100
AcDbArc
 50
269.99999999999937
 51
0.0
  0
ARC
  5
69
100
AcDbEntity
  8
0
  6
PHANTOM
 62
             200
100
AcDbCircle
 10
16.200000000000017
 20
-18.898003000000003
 30
0.0
 40
0.5
100
AcDbArc
 50
0.0
 51
89.999999999999815
  0
ARC
  5
6A
100
AcDbEntity
  8
0
  6
PHANTOM
 62
             200
100
AcDbCircle
 10
16.200000000000017
 20
-1.2980029999999942
 30
0.0
 40
0.5
100
AcDbArc
 50
0.0
 51
89.999999999999815
  0
ARC
  5
6B
100
AcDbEntity
  8
0
  6
PHANTOM
 62
             200
100
AcDbCircle
 10
16.200000000000017
 20
-8.2980029999999942
 30
0.0
 40
0.5
100
AcDbArc
 50
269.99999999999937
 51
0.0
  0
LINE
  5
6C
100
AcDbEntity
  8
0
  6
PHANTOM
 62
             200
100
AcDbLine
 10
16.700000000000017
 20
-1.2980029999999942
 30
0.0
 11
16.700000000000017
 21
-8.2980029999999942
 31
0.0
  0
LINE
  5
6D
100
AcDbEntity
  8
0
  6
PHANTOM
 62
             200
100
AcDbLine
 10
14.200000000000017
 20
-0.7980029999999942
 30
0.0
 11
14.200000000000017
 21
-8.7980029999999942
 31
0.0
  0
LINE
  5
6E
100
AcDbEntity
  8
0
  6
PHANTOM
 62
             200
100
AcDbLine
 10
16.200000000000017
 20
-0.7980029999999942
 30
0.0
 11
16.200000000000017
 21
-8.7980029999999942
 31
0.0
  0
LINE
  5
6F
100
AcDbEntity
  8
0
  6
CONTINUOUS
 62
               4
100
AcDbLine
 10
-7.300018310546875
 20
44.492929409703223
 30
0.0
 11
-6.800018310546875
 21
44.492929409703223
 31
0.0
  0
LINE
  5
70
100
AcDbEntity
  8
0
  6
CONTINUOUS
 62
               4
100
AcDbLine
 10
-9.800018310546875
 20
44.492929409703223
 30
0.0
 11
-9.300018310546875
 21
44.492929409703223
 31
0.0
  0
ARC
  5
71
100
AcDbEntity
  8
0
  6
CONTINUOUS
 62
               4
100
AcDbCircle
 10
-3.7997031521358053
 20
6.4997032909056571
 30
0.0
 40
0.4997032403068001
100
AcDbArc
 50
269.96596353714654
 51
0.0340364628527164
  0
LINE
  5
72
100
AcDbEntity
  8
0
  6
CONTINUOUS
 62
               4
100
AcDbLine
 10
-13.300000000000011
 20
6.0000001387698632
 30
0.0
 11
-3.3000000000000114
 21
6.0000001387698632
 31
0.0
  0
LINE
  5
73
100
AcDbEntity
  8
0
  6
CONTINUOUS
 62
               4
100
AcDbLine
 10
-3.3000000000000114
 20
28.500000138769863
 30
0.0
 11
-3.3000000000000114
 21
6.0000001387698632
 31
0.0
  0
LINE
  5
74
100
AcDbEntity
  8
0
  6
CONTINUOUS
 62
               4
100
AcDbLine
 10
-13.299999970910847
 20
28.50000014303923
 30
0.0
 11
-12.050018310546875
 21
28.50000014303923
 31
0.0
  0
ARC
  5
75
100
AcDbEntity
  8
0
  6
CONTINUOUS
 62
               4
100
AcDbCircle
 10
-4.0959048533418354
 20
27.900095289697404
 30
0.0
 40
0.5999048608870732
100
AcDbArc
 50
359.99091272245295
 51
90.009087277546172
  0
ARC
  5
76
100
AcDbEntity
  8
0
  6
CONTINUOUS
 62
               4
100
AcDbCircle
 10
-12.800000000000011
 20
27.900000143039208
 30
0.0
 40
0.5
100
AcDbArc
 50
89.999999999999815
 51
179.99999999999963
  0
LINE
  5
77
100
AcDbEntity
  8
0
  6
CONTINUOUS
 62
               4
100
AcDbLine
 10
-12.050018310546875
 20
28.400000143039208
 30
0.0
 11
-12.800000000000011
 21
28.400000143039208
 31
0.0
  0
LINE
  5
78
100
AcDbEntity
  8
0
  6
CONTINUOUS
 62
               4
100
AcDbLine
 10
-3.3000000000000114
 20
26.900000143039208
 30
0.0
 11
-4.550018310546875
 21
26.900000143039208
 31
0.0
  0
LINE
  5
79
100
AcDbEntity
  8
0
  6
CONTINUOUS
 62
               4
100
AcDbLine
 10
-3.3000000000000114
 20
28.50000014303923
 30
0.0
 11
-4.550018310546875
 21
28.50000014303923
 31
0.0
  0
LINE
  5
7A
100
AcDbEntity
  8
0
  6
CONTINUOUS
 62
               4
100
AcDbLine
 10
-3.3000000000000114
 20
27.900000143039208
 30
0.0
 11
-4.550018310546875
 21
27.900000143039208
 31
0.0
  0
LINE
  5
7B
100
AcDbEntity
  8
0
  6
CONTINUOUS
 62
               4
100
AcDbLine
 10
-13.300000000000011
 20
28.50000014303923
 30
0.0
 11
-13.300000000000011
 21
6.0000001387698632
 31
0.0
  0
LINE
  5
7C
100
AcDbEntity
  8
0
  6
CONTINUOUS
 62
               4
100
AcDbLine
 10
-13.300018310546875
 20
25.500000138769749
 30
0.0
 11
-12.800018310546875
 21
25.500000138769749
 31
0.0
  0
LINE
  5
7D
100
AcDbEntity
  8
0
  6
CONTINUOUS
 62
               4
100
AcDbLine
 10
-12.800018310546875
 20
25.500000138769749
 30
0.0
 11
-11.050018310546875
 21
25.500000138769749
 31
0.0
  0
LINE
  5
7E
100
AcDbEntity
  8
0
  6
CONTINUOUS
 62
               4
100
AcDbLine
 10
-3.5300183105468932
 20
25.000000138769749
 30
0.0
 11
-3.5300183105468932
 21
8.6919193294236976
 31
0.0
  0
LINE
  5
7F
100
AcDbEntity
  8
0
  6
CONTINUOUS
 62
               4
100
AcDbLine
 10
-13.070018310546914
 20
25.000000138769749
 30
0.0
 11
-13.070018310546914
 21
8.6919193294429959
 31
0.0
  0
LINE
  5
80
100
AcDbEntity
  8
0
  6
CONTINUOUS
 62
               4
100
AcDbLine
 10
-12.570018310546914
 20
8.1919193294392727
 30
0.0
 11
-4.0300183105468932
 21
8.1919193294392727
 31
0.0
  0
LINE
  5
81
100
AcDbEntity
  8
0
  6
CONTINUOUS
 62
               4
100
AcDbLine
 10
-3.800018310546875
 20
25.500000138769749
 30
0.0
 11
-3.300018310546875
 21
25.500000138769749
 31
0.0
  0
LINE
  5
82
100
AcDbEntity
  8
0
  6
CONTINUOUS
 62
               4
100
AcDbLine
 10
-11.050018310546875
 20
17.500000138769749
 30
0.0
 11
-5.550018310546875
 21
17.500000138769749
 31
0.0
  0
LINE
  5
83
100
AcDbEntity
  8
0
  6
CONTINUOUS
 62
               4
100
AcDbLine
 10
-5.550018310546875
 20
25.500000138769749
 30
0.0
 11
-3.800018310546875
 21
25.500000138769749
 31
0.0
  0
LINE
  5
84
100
AcDbEntity
  8
0
  6
CONTINUOUS
 62
               4
100
AcDbLine
 10
-11.050018310546875
 20
33.500000138769749
 30
0.0
 11
-11.050018310546875
 21
17.500000138769749
 31
0.0
  0
LINE
  5
85
100
AcDbEntity
  8
0
  6
CONTINUOUS
 62
               4
100
AcDbLine
 10
-12.050018310546875
 20
33.500000138769749
 30
0.0
 11
-12.050018310546875
 21
25.500000138769749
 31
0.0
  0
LINE
  5
86
100
AcDbEntity
  8
0
  6
CONTINUOUS
 62
               4
100
AcDbLine
 10
-11.050018310546875
 20
32.000000138769749
 30
0.0
 11
-5.550018310546875
 21
32.000000138769749
 31
0.0
  0
LINE
  5
87
100
AcDbEntity
  8
0
  6
CONTINUOUS
 62
               4
100
AcDbLine
 10
-5.550018310546875
 20
33.500000138769749
 30
0.0
 11
-5.550018310546875
 21
17.500000138769749
 31
0.0
  0
LINE
  5
88
100
AcDbEntity
  8
0
  6
CONTINUOUS
 62
               4
100
AcDbLine
 10
-4.550018310546875
 20
33.500000138769749
 30
0.0
 11
-4.550018310546875
 21
25.500000138769749
 31
0.0
  0
LINE
  5
89
100
AcDbEntity
  8
0
  6
CONTINUOUS
 62
               4
100
AcDbLine
 10
-12.050018310546875
 20
33.500000138769749
 30
0.0
 11
-4.550018310546875
 21
33.500000138769749
 31
0.0
  0
ARC
  5
8A
100
AcDbEntity
  8
0
  6
CONTINUOUS
 62
               4
100
AcDbCircle
 10
-12.568830026641649
 20
8.6931076133445373
 30
0.0
 40
0.5011896925741138
100
AcDbArc
 50
180.13584420715239
 51
269.86415579284636
  0
ARC
  5
8B
100
AcDbEntity
  8
0
  6
CONTINUOUS
 62
               4
100
AcDbCircle
 10
-4.0312218166586149
 20
8.6931228355510228
 30
0.0
 40
0.5012049510586274
100
AcDbArc
 50
270.13758021931233
 51
359.86241978068648
  0
ARC
  5
8C
100
AcDbEntity
  8
0
  6
CONTINUOUS
 62
               4
100
AcDbCircle
 10
-4.0300207520261324
 20
24.999997697290453
 30
0.0
 40
0.500002441485227
100
AcDbArc
 50
0.0002797715494944
 51
89.999720228450514
  0
ARC
  5
8D
100
AcDbEntity
  8
0
  6
CONTINUOUS
 62
               4
100
AcDbCircle
 10
-12.570031127884647
 20
25.000012956107483
 30
0.0
 40
0.4999871828265524
100
AcDbArc
 50
89.998531203634272
 51
180.00146879636483
  0
ARC
  5
8E
100
AcDbEntity
  8
0
  6
CONTINUOUS
 62
               4
100
AcDbCircle
 10
-12.800028991678289
 20
25.000010819901107
 30
0.0
 40
0.4999893189827007
100
AcDbArc
 50
89.998776006354774
 51
180.00122399364432
  0
ARC
  5
8F
100
AcDbEntity
  8
0
  6
CONTINUOUS
 62
               4
100
AcDbCircle
 10
-3.8000228882976899
 20
24.999995561018935
 30
0.0
 40
0.5000045777717621
100
AcDbArc
 50
0.0005245667992071
 51
89.9994754332008
  0
ARC
  5
90
100
AcDbEntity
  8
0
  6
CONTINUOUS
 62
               4
100
AcDbCircle
 10
-12.80002288806952
 20
6.4999955612471041
 30
0.0
 40
0.4999954224983215
100
AcDbArc
 50
179.99947544974256
 51
270.00052455025656
  0
ARC
  5
91
100
AcDbEntity
  8
0
  6
CONTINUOUS
 62
               4
100
AcDbCircle
 10
-3.8000289917201826
 20
6.5000108199430571
 30
0.0
 40
0.5000106812873828
100
AcDbArc
 50
270.00122394615329
 51
359.9987760538454
  0
LINE
  5
92
100
AcDbEntity
  8
0
  6
CONTINUOUS
 62
               4
100
AcDbLine
 10
-6.4000183105468977
 20
40.992929411703201
 30
0.0
 11
-6.4000183105468977
 21
37.500000138769749
 31
0.0
  0
LINE
  5
93
100
AcDbEntity
  8
0
  6
CONTINUOUS
 62
               4
100
AcDbLine
 10
-7.7000183105469091
 20
40.992929411703201
 30
0.0
 11
-7.7000183105469091
 21
37.850000138769772
 31
0.0
  0
LINE
  5
94
100
AcDbEntity
  8
0
  6
CONTINUOUS
 62
               4
100
AcDbLine
 10
-9.300018310546875
 20
44.492929409703223
 30
0.0
 11
-9.300018310546875
 21
40.992929411703201
 31
0.0
  0
LINE
  5
95
100
AcDbEntity
  8
0
  6
CONTINUOUS
 62
               4
100
AcDbLine
 10
-9.800018310546875
 20
44.492929409703223
 30
0.0
 11
-9.800018310546875
 21
40.992929411703201
 31
0.0
  0
LINE
  5
96
100
AcDbEntity
  8
0
  6
CONTINUOUS
 62
               4
100
AcDbLine
 10
-6.4000183105468977
 20
36.47000013876972
 30
0.0
 11
-6.4000183105468977
 21
33.500000138769749
 31
0.0
  0
LINE
  5
97
100
AcDbEntity
  8
0
  6
CONTINUOUS
 62
               4
100
AcDbLine
 10
-7.7000183105469091
 20
36.820000138769743
 30
0.0
 11
-7.7000183105469091
 21
33.500000138769749
 31
0.0
  0
LINE
  5
98
100
AcDbEntity
  8
0
  6
CONTINUOUS
 62
               4
100
AcDbLine
 10
-10.200018310546909
 20
37.490000138769759
 30
0.0
 11
-10.200018310546909
 21
33.500000138769749
 31
0.0
  0
LINE
  5
99
100
AcDbEntity
  8
0
  6
CONTINUOUS
 62
               4
100
AcDbLine
 10
-8.9000183105468977
 20
40.992929411703201
 30
0.0
 11
-8.9000183105468977
 21
38.170000138769765
 31
0.0
  0
LINE
  5
9A
100
AcDbEntity
  8
0
  6
CONTINUOUS
 62
               4
100
AcDbLine
 10
-10.200018310546909
 20
40.992929411703201
 30
0.0
 11
-10.200018310546909
 21
38.520000138769731
 31
0.0
  0
LINE
  5
9B
100
AcDbEntity
  8
0
  6
CONTINUOUS
 62
               4
100
AcDbLine
 10
-6.800018310546875
 20
44.492929409703223
 30
0.0
 11
-6.800018310546875
 21
40.992929411703201
 31
0.0
  0
LINE
  5
9C
100
AcDbEntity
  8
0
  6
CONTINUOUS
 62
               4
100
AcDbLine
 10
-7.300018310546875
 20
44.492929409703223
 30
0.0
 11
-7.300018310546875
 21
40.992929411703201
 31
0.0
  0
LINE
  5
9D
100
AcDbEntity
  8
0
  6
CONTINUOUS
 62
               4
100
AcDbLine
 10
-8.9000183105468977
 20
37.140000138769736
 30
0.0
 11
-8.9000183105468977
 21
33.500000138769749
 31
0.0
  0
LINE
  5
9E
100
AcDbEntity
  8
0
  6
CONTINUOUS
 62
               4
100
AcDbLine
 10
-10.200018310546909
 20
40.992929411703201
 30
0.0
 11
-8.9000183105468977
 21
40.992929411703201
 31
0.0
  0
LINE
  5
9F
100
AcDbEntity
  8
0
  6
CONTINUOUS
 62
             200
100
AcDbLine
 10
-12.050018310546875
 20
37.980000138769768
 30
0.0
 11
-4.550018310546875
 21
35.97000013876972
 31
0.0
  0
LINE
  5
A0
100
AcDbEntity
  8
0
  6
CONTINUOUS
 62
             200
100
AcDbLine
 10
-12.050018310546875
 20
39.020000138769731
 30
0.0
 11
-4.550018310546875
 21
37.01000013876974
 31
0.0
  0
LINE
  5
A1
100
AcDbEntity
  8
0
  6
CONTINUOUS
 62
               4
100
AcDbLine
 10
-7.7000183105469091
 20
40.992929411703201
 30
0.0
 11
-6.4000183105468977
 21
40.992929411703201
 31
0.0
  0
LINE
  5
A2
100
AcDbEntity
  8
0
  6
PHANTOM
 62
             200
100
AcDbLine
 10
-6.800018310546875
 20
13.500000138769749
 30
0.0
 11
-6.800018310546875
 21
11.500000138769749
 31
0.0
  0
LINE
  5
A3
100
AcDbEntity
  8
0
  6
PHANTOM
 62
             200
100
AcDbLine
 10
-9.800018310546875
 20
13.500000138769749
 30
0.0
 11
-9.800018310546875
 21
11.500000138769749
 31
0.0
  0
LINE
  5
A4
100
AcDbEntity
  8
0
  6
PHANTOM
 62
             200
100
AcDbLine
 10
-9.800018310546875
 20
11.500000138769749
 30
0.0
 11
-6.800018310546875
 21
11.500000138769749
 31
0.0
  0
LINE
  5
A5
100
AcDbEntity
  8
0
  6
PHANTOM
 62
             200
100
AcDbLine
 10
-9.800018310546875
 20
13.500000138769749
 30
0.0
 11
-6.800018310546875
 21
13.500000138769749
 31
0.0
  0
LINE
  5
A6
100
AcDbEntity
  8
0
  6
CONTINUOUS
 62
               4
100
AcDbLine
 10
-9.2999816894531477
 20
-74.092929270933126
 30
0.0
 11
-9.7999816894531477
 21
-74.092929270933126
 31
0.0
  0
LINE
  5
A7
100
AcDbEntity
  8
0
  6
CONTINUOUS
 62
               4
100
AcDbLine
 10
-6.7999816894531477
 20
-74.092929270933126
 30
0.0
 11
-7.2999816894531477
 21
-74.092929270933126
 31
0.0
  0
ARC
  5
A8
100
AcDbEntity
  8
0
  6
CONTINUOUS
 62
               4
100
AcDbCircle
 10
-12.800296847864217
 20
-36.099703152135561
 30
0.0
 40
0.4997032403068001
100
AcDbArc
 50
89.965963537146934
 51
180.03403646285233
  0
LINE
  5
A9
100
AcDbEntity
  8
0
  6
CONTINUOUS
 62
               4
100
AcDbLine
 10
-3.3000000000000114
 20
-35.599999999999767
 30
0.0
 11
-13.300000000000011
 21
-35.599999999999767
 31
0.0
  0
LINE
  5
AA
100
AcDbEntity
  8
0
  6
CONTINUOUS
 62
               4
100
AcDbLine
 10
-13.300000000000011
 20
-58.099999999999767
 30
0.0
 11
-13.300000000000011
 21
-35.599999999999767
 31
0.0
  0
LINE
  5
AB
100
AcDbEntity
  8
0
  6
CONTINUOUS
 62
               4
100
AcDbLine
 10
-3.3000000290891762
 20
-58.100000004269134
 30
0.0
 11
-4.5499816894531477
 21
-58.100000004269134
 31
0.0
  0
ARC
  5
AC
100
AcDbEntity
  8
0
  6
CONTINUOUS
 62
               4
100
AcDbCircle
 10
-12.504095146658187
 20
-57.500095150927308
 30
0.0
 40
0.5999048608870732
100
AcDbArc
 50
179.99091272245337
 51
270.00908727754575
  0
ARC
  5
AD
100
AcDbEntity
  8
0
  6
CONTINUOUS
 62
               4
100
AcDbCircle
 10
-3.8000000000000114
 20
-57.500000004269111
 30
0.0
 40
0.5
100
AcDbArc
 50
269.99999999999937
 51
0.0
  0
LINE
  5
AE
100
AcDbEntity
  8
0
  6
CONTINUOUS
 62
               4
100
AcDbLine
 10
-4.5499816894531477
 20
-58.000000004269111
 30
0.0
 11
-3.8000000000000114
 21
-58.000000004269111
 31
0.0
  0
LINE
  5
AF
100
AcDbEntity
  8
0
  6
CONTINUOUS
 62
               4
100
AcDbLine
 10
-13.300000000000011
 20
-56.500000004269111
 30
0.0
 11
-12.049981689453148
 21
-56.500000004269111
 31
0.0
  0
LINE
  5
B0
100
AcDbEntity
  8
0
  6
CONTINUOUS
 62
               4
100
AcDbLine
 10
-13.300000000000011
 20
-58.100000004269134
 30
0.0
 11
-12.049981689453148
 21
-58.100000004269134
 31
0.0
  0
LINE
  5
B1
100
AcDbEntity
  8
0
  6
CONTINUOUS
 62
               4
100
AcDbLine
 10
-13.300000000000011
 20
-57.500000004269111
 30
0.0
 11
-12.049981689453148
 21
-57.500000004269111
 31
0.0
  0
LINE
  5
B2
100
AcDbEntity
  8
0
  6
CONTINUOUS
 62
               4
100
AcDbLine
 10
-3.3000000000000114
 20
-58.100000004269134
 30
0.0
 11
-3.3000000000000114
 21
-35.599999999999767
 31
0.0
  0
LINE
  5
B3
100
AcDbEntity
  8
0
  6
CONTINUOUS
 62
               4
100
AcDbLine
 10
-3.2999816894531477
 20
-55.099999999999653
 30
0.0
 11
-3.7999816894531477
 21
-55.099999999999653
 31
0.0
  0
LINE
  5
B4
100
AcDbEntity
  8
0
  6
CONTINUOUS
 62
               4
100
AcDbLine
 10
-3.7999816894531477
 20
-55.099999999999653
 30
0.0
 11
-5.5499816894531477
 21
-55.099999999999653
 31
0.0
  0
LINE
  5
B5
100
AcDbEntity
  8
0
  6
CONTINUOUS
 62
               4
100
AcDbLine
 10
-13.06998168945313
 20
-54.599999999999653
 30
0.0
 11
-13.06998168945313
 21
-38.291919190653601
 31
0.0
  0
LINE
  5
B6
100
AcDbEntity
  8
0
  6
CONTINUOUS
 62
               4
100
AcDbLine
 10
-3.5299816894531091
 20
-54.599999999999653
 30
0.0
 11
-3.5299816894531091
 21
-38.2919191906729
 31
0.0
  0
LINE
  5
B7
100
AcDbEntity
  8
0
  6
CONTINUOUS
 62
               4
100
AcDbLine
 10
-4.0299816894531091
 20
-37.791919190669176
 30
0.0
 11
-12.56998168945313
 21
-37.791919190669176
 31
0.0
  0
LINE
  5
B8
100
AcDbEntity
  8
0
  6
CONTINUOUS
 62
               4
100
AcDbLine
 10
-12.799981689453148
 20
-55.099999999999653
 30
0.0
 11
-13.299981689453148
 21
-55.099999999999653
 31
0.0
  0
LINE
  5
B9
100
AcDbEntity
  8
0
  6
CONTINUOUS
 62
               4
100
AcDbLine
 10
-5.5499816894531477
 20
-47.099999999999653
 30
0.0
 11
-11.049981689453148
 21
-47.099999999999653
 31
0.0
  0
LINE
  5
BA
100
AcDbEntity
  8
0
  6
CONTINUOUS
 62
               4
100
AcDbLine
 10
-11.049981689453148
 20
-55.099999999999653
 30
0.0
 11
-12.799981689453148
 21
-55.099999999999653
 31
0.0
  0
LINE
  5
BB
100
AcDbEntity
  8
0
  6
CONTINUOUS
 62
               4
100
AcDbLine
 10
-5.5499816894531477
 20
-63.099999999999653
 30
0.0
 11
-5.5499816894531477
 21
-47.099999999999653
 31
0.0
  0
LINE
  5
BC
100
AcDbEntity
  8
0
  6
CONTINUOUS
 62
               4
100
AcDbLine
 10
-4.5499816894531477
 20
-63.099999999999653
 30
0.0
 11
-4.5499816894531477
 21
-55.099999999999653
 31
0.0
  0
LINE
  5
BD
100
AcDbEntity
  8
0
  6
CONTINUOUS
 62
               4
100
AcDbLine
 10
-5.5499816894531477
 20
-61.599999999999653
 30
0.0
 11
-11.049981689453148
 21
-61.599999999999653
 31
0.0
  0
LINE
  5
BE
100
AcDbEntity
  8
0
  6
CONTINUOUS
 62
               4
100
AcDbLine
 10
-11.049981689453148
 20
-63.099999999999653
 30
0.0
 11
-11.049981689453148
 21
-47.099999999999653
 31
0.0
  0
LINE
  5
BF
100
AcDbEntity
  8
0
  6
CONTINUOUS
 62
               4
100
AcDbLine
 10
-12.049981689453148
 20
-63.099999999999653
 30
0.0
 11
-12.049981689453148
 21
-55.099999999999653
 31
0.0
  0
LINE
  5
C0
100
AcDbEntity
  8
0
  6
CONTINUOUS
 62
               4
100
AcDbLine
 10
-4.5499816894531477
 20
-63.099999999999653
 30
0.0
 11
-12.049981689453148
 21
-63.099999999999653
 31
0.0
  0
ARC
  5
C1
100
AcDbEntity
  8
0
  6
CONTINUOUS
 62
               4
100
AcDbCircle
 10
-4.0311699733583737
 20
-38.293107474574441
 30
0.0
 40
0.5011896925741138
100
AcDbArc
 50
0.1358442071527786
 51
89.864155792846745
  0
ARC
  5
C2
100
AcDbEntity
  8
0
  6
CONTINUOUS
 62
               4
100
AcDbCircle
 10
-12.568778183341408
 20
-38.293122696780927
 30
0.0
 40
0.5012049510586274
100
AcDbArc
 50
90.137580219312724
 51
179.86241978068688
  0
ARC
  5
C3
100
AcDbEntity
  8
0
  6
CONTINUOUS
 62
               4
100
AcDbCircle
 10
-12.56997924797389
 20
-54.599997558520357
 30
0.0
 40
0.500002441485227
100
AcDbArc
 50
180.00027977154909
 51
269.99972022845009
  0
ARC
  5
C4
100
AcDbEntity
  8
0
  6
CONTINUOUS
 62
               4
100
AcDbCircle
 10
-4.0299688721153757
 20
-54.600012817337387
 30
0.0
 40
0.4999871828265524
100
AcDbArc
 50
269.99853120363389
 51
0.0014687963652481
  0
ARC
  5
C5
100
AcDbEntity
  8
0
  6
CONTINUOUS
 62
               4
100
AcDbCircle
 10
-3.7999710083217337
 20
-54.60001068113101
 30
0.0
 40
0.4999893189827007
100
AcDbArc
 50
269.99877600635432
 51
0.0012239936446972
  0
ARC
  5
C6
100
AcDbEntity
  8
0
  6
CONTINUOUS
 62
               4
100
AcDbCircle
 10
-12.799977111702333
 20
-54.599995422248838
 30
0.0
 40
0.5000045777717621
100
AcDbArc
 50
180.00052456679882
 51
269.99947543320042
  0
ARC
  5
C7
100
AcDbEntity
  8
0
  6
CONTINUOUS
 62
               4
100
AcDbCircle
 10
-3.7999771119305024
 20
-36.099995422477008
 30
0.0
 40
0.4999954224983215
100
AcDbArc
 50
359.99947544974214
 51
90.000524550256955
  0
ARC
  5
C8
100
AcDbEntity
  8
0
  6
CONTINUOUS
 62
               4
100
AcDbCircle
 10
-12.79997100827984
 20
-36.100010681172961
 30
0.0
 40
0.5000106812873828
100
AcDbArc
 50
90.001223946153672
 51
179.99877605384583
  0
LINE
  5
C9
100
AcDbEntity
  8
0
  6
CONTINUOUS
 62
               4
100
AcDbLine
 10
-10.199981689453125
 20
-70.592929272933105
 30
0.0
 11
-10.199981689453125
 21
-67.099999999999653
 31
0.0
  0
LINE
  5
CA
100
AcDbEntity
  8
0
  6
CONTINUOUS
 62
               4
100
AcDbLine
 10
-8.8999816894531136
 20
-70.592929272933105
 30
0.0
 11
-8.8999816894531136
 21
-67.449999999999676
 31
0.0
  0
LINE
  5
CB
100
AcDbEntity
  8
0
  6
CONTINUOUS
 62
               4
100
AcDbLine
 10
-7.2999816894531477
 20
-74.092929270933126
 30
0.0
 11
-7.2999816894531477
 21
-70.592929272933105
 31
0.0
  0
LINE
  5
CC
100
AcDbEntity
  8
0
  6
CONTINUOUS
 62
               4
100
AcDbLine
 10
-6.7999816894531477
 20
-74.092929270933126
 30
0.0
 11
-6.7999816894531477
 21
-70.592929272933105
 31
0.0
  0
LINE
  5
CD
100
AcDbEntity
  8
0
  6
CONTINUOUS
 62
               4
100
AcDbLine
 10
-10.199981689453125
 20
-66.069999999999624
 30
0.0
 11
-10.199981689453125
 21
-63.099999999999653
 31
0.0
  0
LINE
  5
CE
100
AcDbEntity
  8
0
  6
CONTINUOUS
 62
               4
100
AcDbLine
 10
-8.8999816894531136
 20
-66.419999999999646
 30
0.0
 11
-8.8999816894531136
 21
-63.099999999999653
 31
0.0
  0
LINE
  5
CF
100
AcDbEntity
  8
0
  6
CONTINUOUS
 62
               4
100
AcDbLine
 10
-6.3999816894531136
 20
-67.089999999999662
 30
0.0
 11
-6.3999816894531136
 21
-63.099999999999653
 31
0.0
  0
LINE
  5
D0
100
AcDbEntity
  8
0
  6
CONTINUOUS
 62
               4
100
AcDbLine
 10
-7.699981689453125
 20
-70.592929272933105
 30
0.0
 11
-7.699981689453125
 21
-67.769999999999669
 31
0.0
  0
LINE
  5
D1
100
AcDbEntity
  8
0
  6
CONTINUOUS
 62
               4
100
AcDbLine
 10
-6.3999816894531136
 20
-70.592929272933105
 30
0.0
 11
-6.3999816894531136
 21
-68.119999999999635
 31
0.0
  0
LINE
  5
D2
100
AcDbEntity
  8
0
  6
CONTINUOUS
 62
               4
100
AcDbLine
 10
-9.7999816894531477
 20
-74.092929270933126
 30
0.0
 11
-9.7999816894531477
 21
-70.592929272933105
 31
0.0
  0
LINE
  5
D3
100
AcDbEntity
  8
0
  6
CONTINUOUS
 62
               4
100
AcDbLine
 10
-9.2999816894531477
 20
-74.092929270933126
 30
0.0
 11
-9.2999816894531477
 21
-70.592929272933105
 31
0.0
  0
LINE
  5
D4
100
AcDbEntity
  8
0
  6
CONTINUOUS
 62
               4
100
AcDbLine
 10
-7.699981689453125
 20
-66.73999999999964
 30
0.0
 11
-7.699981689453125
 21
-63.099999999999653
 31
0.0
  0
LINE
  5
D5
100
AcDbEntity
  8
0
  6
CONTINUOUS
 62
               4
100
AcDbLine
 10
-6.3999816894531136
 20
-70.592929272933105
 30
0.0
 11
-7.699981689453125
 21
-70.592929272933105
 31
0.0
  0
LINE
  5
D6
100
AcDbEntity
  8
0
  6
CONTINUOUS
 62
             200
100
AcDbLine
 10
-4.5499816894531477
 20
-67.579999999999671
 30
0.0
 11
-12.049981689453148
 21
-65.569999999999624
 31
0.0
  0
LINE
  5
D7
100
AcDbEntity
  8
0
  6
CONTINUOUS
 62
             200
100
AcDbLine
 10
-4.5499816894531477
 20
-68.619999999999635
 30
0.0
 11
-12.049981689453148
 21
-66.609999999999644
 31
0.0
  0
LINE
  5
D8
100
AcDbEntity
  8
0
  6
CONTINUOUS
 62
               4
100
AcDbLine
 10
-8.8999816894531136
 20
-70.592929272933105
 30
0.0
 11
-10.199981689453125
 21
-70.592929272933105
 31
0.0
  0
LINE
  5
D9
100
AcDbEntity
  8
0
  6
PHANTOM
 62
             200
100
AcDbLine
 10
-9.7999816894531477
 20
-43.099999999999653
 30
0.0
 11
-9.7999816894531477
 21
-41.099999999999653
 31
0.0
  0
LINE
  5
DA
100
AcDbEntity
  8
0
  6
PHANTOM
 62
             200
100
AcDbLine
 10
-6.7999816894531477
 20
-43.099999999999653
 30
0.0
 11
-6.7999816894531477
 21
-41.099999999999653
 31
0.0
  0
LINE
  5
DB
100
AcDbEntity
  8
0
  6
PHANTOM
 62
             200
100
AcDbLine
 10
-6.7999816894531477
 20
-41.099999999999653
 30
0.0
 11
-9.7999816894531477
 21
-41.099999999999653
 31
0.0
  0
LINE
  5
DC
100
AcDbEntity
  8
0
  6
PHANTOM
 62
             200
100
AcDbLine
 10
-6.7999816894531477
 20
-43.099999999999653
 30
0.0
 11
-9.7999816894531477
 21
-43.099999999999653
 31
0.0
  0
LINE
  5
DD
100
AcDbEntity
  8
0
  6
CENTER
 62
               2
100
AcDbLine
 10
-8.3000000000000114
 20
34.369683195718224
 30
0.0
 11
-8.3000000000000114
 21
-63.969683056948128
 31
0.0
  0
ENDBLK
  5
DE
100
AcDbEntity
  8
0
100
AcDbBlockEnd
  0
BLOCK
  5
DF
100
AcDbEntity
  8
0
100
AcDbBlockBegin
  2
EA10SA6-2
 70
               0
 10
0.0
 20
0.0
 30
0.0
  3
EA10SA6-2
  1

  0
LINE
  5
E0
100
AcDbEntity
  8
0
  6
CONTINUOUS
 62
               7
100
AcDbLine
 10
17.00000002151819
 20
-23.89999999999965
 30
0.0
 11
31.0
 21
-23.899999999999906
 31
0.0
  0
LINE
  5
E1
100
AcDbEntity
  8
0
  6
CONTINUOUS
 62
               7
100
AcDbLine
 10
17.00000002151819
 20
-5.7000000000003439
 30
0.0
 11
31.000000013518161
 21
-5.7000000000000881
 31
0.0
  0
LINE
  5
E2
100
AcDbEntity
  8
0
  6
CONTINUOUS
 62
               7
100
AcDbLine
 10
32.548000013518106
 20
-32.199999999999989
 30
0.0
 11
32.100000013518155
 21
-32.199999999999989
 31
0.0
  0
ARC
  5
E3
100
AcDbEntity
  8
0
  6
CONTINUOUS
 62
               7
100
AcDbCircle
 10
30.199999999999989
 20
-11.094999999999999
 30
0.0
 40
0.4
100
AcDbArc
 50
270.00000000000023
 51
0.0
  0
ARC
  5
E4
100
AcDbEntity
  8
0
  6
CONTINUOUS
 62
               7
100
AcDbCircle
 10
30.199999999999989
 20
-8.894999999999996
 30
0.0
 40
0.4
100
AcDbArc
 50
0.0
 51
89.999999999999815
  0
LINE
  5
E5
100
AcDbEntity
  8
0
  6
CONTINUOUS
 62
               7
100
AcDbLine
 10
30.599999999999994
 20
-8.894999999999996
 30
0.0
 11
30.599999999999994
 21
-11.094999999999999
 31
0.0
  0
LINE
  5
E6
100
AcDbEntity
  8
0
  6
CONTINUOUS
 62
               7
100
AcDbLine
 10
30.0
 20
-11.494999999999997
 30
0.0
 11
30.199999999999989
 21
-11.494999999999997
 31
0.0
  0
LINE
  5
E7
100
AcDbEntity
  8
0
  6
CONTINUOUS
 62
               7
100
AcDbLine
 10
30.0
 20
-8.4949999999999903
 30
0.0
 11
30.199999999999989
 21
-8.4949999999999903
 31
0.0
  0
LINE
  5
E8
100
AcDbEntity
  8
0
  6
CONTINUOUS
 62
               7
100
AcDbLine
 10
17.000000013518104
 20
-35.599999999999937
 30
0.0
 11
17.000000013518104
 21
5.9999999999999432
 31
0.0
  0
LINE
  5
E9
100
AcDbEntity
  8
0
  6
CONTINUOUS
 62
               7
100
AcDbLine
 10
31.0
 20
-5.6949999999999932
 30
0.0
 11
31.0
 21
-23.905000000000001
 31
0.0
  0
LINE
  5
EA
100
AcDbEntity
  8
0
  6
CENTER
 62
               2
100
AcDbLine
 10
24.0
 20
30.347850672801098
 30
0.0
 11
24.0
 21
-59.947850672801096
 31
0.0
  0
LINE
  5
EB
100
AcDbEntity
  8
0
  6
CONTINUOUS
 62
               7
100
AcDbLine
 10
30.0
 20
-8.3940014306151909
 30
0.0
 11
30.0
 21
-11.594001430615208
 31
0.0
  0
LINE
  5
EC
100
AcDbEntity
  8
0
  6
CONTINUOUS
 62
               7
100
AcDbLine
 10
16.0
 20
-32.299999999999997
 30
0.0
 11
16.0
 21
2.7000000000000028
 31
0.0
  0
LINE
  5
ED
100
AcDbEntity
  8
0
  6
CONTINUOUS
 62
               7
100
AcDbLine
 10
0.0
 20
2.7000000000000028
 30
0.0
 11
0.0
 21
-32.299999999999997
 31
0.0
  0
LINE
  5
EE
100
AcDbEntity
  8
0
  6
CONTINUOUS
 62
               7
100
AcDbLine
 10
16.0
 20
2.7000000000000028
 30
0.0
 11
0.0
 21
2.7000000000000028
 31
0.0
  0
LINE
  5
EF
100
AcDbEntity
  8
0
  6
CONTINUOUS
 62
               7
100
AcDbLine
 10
16.0
 20
-32.299999999999997
 30
0.0
 11
0.0
 21
-32.299999999999997
 31
0.0
  0
LINE
  5
F0
100
AcDbEntity
  8
0
  6
CENTER
 62
               2
100
AcDbLine
 10
7.5
 20
-19.999999999999986
 30
0.0
 11
14.5
 21
-19.999999999999986
 31
0.0
  0
LINE
  5
F1
100
AcDbEntity
  8
0
  6
CENTER
 62
               2
100
AcDbLine
 10
11.0
 20
-16.5
 30
0.0
 11
11.0
 21
-23.499999999999986
 31
0.0
  0
LINE
  5
F2
100
AcDbEntity
  8
0
  6
CENTER
 62
               2
100
AcDbLine
 10
5.0
 20
-8.7999999999999972
 30
0.0
 11
5.0
 21
-15.799999999999997
 31
0.0
  0
LINE
  5
F3
100
AcDbEntity
  8
0
  6
CENTER
 62
               2
100
AcDbLine
 10
1.5
 20
-12.299999999999997
 30
0.0
 11
8.5
 21
-12.299999999999997
 31
0.0
  0
CIRCLE
  5
F4
100
AcDbEntity
  8
0
  6
CONTINUOUS
 62
               7
100
AcDbCircle
 10
4.9999816894531364
 20
-12.300006103515621
 30
0.0
 40
2.0669994354248047
  0
CIRCLE
  5
F5
100
AcDbEntity
  8
0
  6
CONTINUOUS
 62
               7
100
AcDbCircle
 10
10.999996948242199
 20
-20.000003051757815
 30
0.0
 40
2.0669994354248047
  0
CIRCLE
  5
F6
100
AcDbEntity
  8
0
  6
CONTINUOUS
 62
               2
100
AcDbCircle
 10
10.999996948242199
 20
-20.000003051757815
 30
0.0
 40
2.5
  0
CIRCLE
  5
F7
100
AcDbEntity
  8
0
  6
CONTINUOUS
 62
               2
100
AcDbCircle
 10
4.9999816894531364
 20
-12.300006103515621
 30
0.0
 40
2.5
  0
LINE
  5
F8
100
AcDbEntity
  8
0
  6
CONTINUOUS
 62
               7
100
AcDbLine
 10
31.000000013518161
 20
-1.0950000000000131
 30
0.0
 11
32.100000013518155
 21
0.0
 31
0.0
  0
LINE
  5
F9
100
AcDbEntity
  8
0
  6
CONTINUOUS
 62
               7
100
AcDbLine
 10
31.000000013518161
 20
5.9999999999999289
 30
0.0
 11
31.000000013518161
 21
-5.6950000000000074
 31
0.0
  0
LINE
  5
FA
100
AcDbEntity
  8
0
  6
CONTINUOUS
 62
               7
100
AcDbLine
 10
32.548000013518106
 20
2.5999999999999943
 30
0.0
 11
32.548000013518106
 21
4.8000000000000398
 31
0.0
  0
LINE
  5
FB
100
AcDbEntity
  8
0
  6
CONTINUOUS
 62
               7
100
AcDbLine
 10
32.548000013518106
 20
4.8000000000000398
 30
0.0
 11
32.100000013518127
 21
4.8000000000000256
 31
0.0
  0
LINE
  5
FC
100
AcDbEntity
  8
0
  6
CONTINUOUS
 62
               7
100
AcDbLine
 10
32.548000013518106
 20
2.5999999999999943
 30
0.0
 11
32.100000013518155
 21
2.5999999999999943
 31
0.0
  0
LINE
  5
FD
100
AcDbEntity
  8
0
  6
CONTINUOUS
 62
               7
100
AcDbLine
 10
30.0
 20
-8.3940014306151909
 30
0.0
 11
31.0
 21
-8.3940014306151909
 31
0.0
  0
LINE
  5
FE
100
AcDbEntity
  8
0
  6
CONTINUOUS
 62
               7
100
AcDbLine
 10
30.0
 20
-11.594001430615208
 30
0.0
 11
31.0
 21
-11.594001430615208
 31
0.0
  0
LINE
  5
FF
100
AcDbEntity
  8
0
  6
CONTINUOUS
 62
               7
100
AcDbLine
 10
31.000000013518161
 20
-35.599999999999923
 30
0.0
 11
31.000000013518161
 21
-23.904999999999987
 31
0.0
  0
LINE
  5
100
100
AcDbEntity
  8
0
  6
CONTINUOUS
 62
               7
100
AcDbLine
 10
32.548000013518106
 20
-32.199999999999989
 30
0.0
 11
32.548000013518106
 21
-34.400000000000034
 31
0.0
  0
LINE
  5
101
100
AcDbEntity
  8
0
  6
CONTINUOUS
 62
               7
100
AcDbLine
 10
32.100000013518155
 20
-29.599999999999994
 30
0.0
 11
32.100000013518155
 21
-35.599999999999923
 31
0.0
  0
LINE
  5
102
100
AcDbEntity
  8
0
  6
CONTINUOUS
 62
               7
100
AcDbLine
 10
32.548000013518106
 20
-34.400000000000034
 30
0.0
 11
32.100000013518127
 21
-34.40000000000002
 31
0.0
  0
LINE
  5
103
100
AcDbEntity
  8
0
  6
CONTINUOUS
 62
               7
100
AcDbLine
 10
31.000000013518161
 20
-28.504999999999981
 30
0.0
 11
32.100000013518155
 21
-29.599999999999994
 31
0.0
  0
LINE
  5
104
100
AcDbEntity
  8
0
  6
CENTER
 62
               2
100
AcDbLine
 10
-2.0
 20
0.0
 30
0.0
 11
2.0
 21
0.0
 31
0.0
  0
LINE
  5
105
100
AcDbEntity
  8
0
  6
CENTER
 62
               2
100
AcDbLine
 10
-2.0
 20
-29.599999999999994
 30
0.0
 11
2.0
 21
-29.599999999999994
 31
0.0
  0
LINE
  5
106
100
AcDbEntity
  8
0
  6
CONTINUOUS
 62
               7
100
AcDbLine
 10
15.999999971426575
 20
0.4999938964843835
 30
0.0
 11
17.000000013518104
 21
0.4999938964843835
 31
0.0
  0
LINE
  5
107
100
AcDbEntity
  8
0
  6
CONTINUOUS
 62
               7
100
AcDbLine
 10
15.999999971426575
 20
-30.100006103515625
 30
0.0
 11
17.000000013518104
 21
-30.100006103515625
 31
0.0
  0
LINE
  5
108
100
AcDbEntity
  8
0
  6
CONTINUOUS
 62
               7
100
AcDbLine
 10
32.100000013518155
 20
0.0
 30
0.0
 11
32.100000013518155
 21
5.9999999999999289
 31
0.0
  0
LINE
  5
109
100
AcDbEntity
  8
0
  6
CONTINUOUS
 62
               4
100
AcDbLine
 10
36.253535346533283
 20
44.494949488666521
 30
0.0
 11
36.748484841199968
 21
44.494949488666521
 31
0.0
  0
LINE
  5
10A
100
AcDbEntity
  8
0
  6
CONTINUOUS
 62
               4
100
AcDbLine
 10
31.0
 20
5.9999999999999432
 30
0.0
 11
31.0
 21
27.899999994932216
 31
0.0
  0
LINE
  5
10B
100
AcDbEntity
  8
0
  6
CONTINUOUS
 62
               4
100
AcDbLine
 10
17.0
 20
27.899999999999949
 30
0.0
 11
17.0
 21
5.9999999999999432
 31
0.0
  0
LINE
  5
10C
100
AcDbEntity
  8
0
  6
CONTINUOUS
 62
               4
100
AcDbLine
 10
17.0
 20
5.9999999999999432
 30
0.0
 11
34.000002816526774
 21
5.9999999999999432
 31
0.0
  0
LINE
  5
10D
100
AcDbEntity
  8
0
  6
CONTINUOUS
 62
               4
100
AcDbLine
 10
19.699999999999989
 20
28.499999999999972
 30
0.0
 11
19.699999999999989
 21
27.900000000000006
 31
0.0
  0
LINE
  5
10E
100
AcDbEntity
  8
0
  6
CONTINUOUS
 62
               4
100
AcDbLine
 10
19.699999999999989
 20
27.900000000000006
 30
0.0
 11
17.000000004000015
 21
27.900000000000006
 31
0.0
  0
LINE
  5
10F
100
AcDbEntity
  8
0
  6
CONTINUOUS
 62
               4
100
AcDbLine
 10
30.499999995999985
 20
28.400000000000006
 30
0.0
 11
29.000000000000057
 21
28.400000000000006
 31
0.0
  0
LINE
  5
110
100
AcDbEntity
  8
0
  6
CONTINUOUS
 62
               4
100
AcDbLine
 10
30.199999910000031
 20
28.499999999999972
 30
0.0
 11
17.800000089999969
 21
28.499999999999972
 31
0.0
  0
ARC
  5
111
100
AcDbEntity
  8
0
  6
CONTINUOUS
 62
               4
100
AcDbCircle
 10
30.200095056648649
 20
27.900095146648624
 30
0.0
 40
0.5999048008965869
100
AcDbArc
 50
56.247417870393882
 51
90.009087277546172
  0
ARC
  5
112
100
AcDbEntity
  8
0
  6
CONTINUOUS
 62
               4
100
AcDbCircle
 10
17.798912084871802
 20
27.901088005128173
 30
0.0
 40
0.5989129231257409
100
AcDbArc
 50
89.895914524772735
 51
180.10408547522667
  0
ARC
  5
113
100
AcDbEntity
  8
0
  6
CONTINUOUS
 62
               4
100
AcDbCircle
 10
17.500000004000015
 20
27.900000000000006
 30
0.0
 40
0.5
100
AcDbArc
 50
93.919585899650798
 51
179.99999999999963
  0
ARC
  5
114
100
AcDbEntity
  8
0
  6
CONTINUOUS
 62
               4
100
AcDbCircle
 10
30.499999995999985
 20
27.900000000000006
 30
0.0
 40
0.5
100
AcDbArc
 50
0.0
 51
89.999999999999815
  0
LINE
  5
115
100
AcDbEntity
  8
0
  6
CONTINUOUS
 62
               4
100
AcDbLine
 10
29.000000000000057
 20
28.499999999999972
 30
0.0
 11
29.000000000000057
 21
26.900000000000006
 31
0.0
  0
LINE
  5
116
100
AcDbEntity
  8
0
  6
CONTINUOUS
 62
               4
100
AcDbLine
 10
29.000000000000057
 20
26.900000000000006
 30
0.0
 11
17.000000004000015
 21
26.900000000000006
 31
0.0
  0
LINE
  5
117
100
AcDbEntity
  8
0
  6
CONTINUOUS
 62
               4
100
AcDbLine
 10
30.999999995999985
 20
25.493939382799994
 30
0.0
 11
38.502020193733358
 21
25.493939382799994
 31
0.0
  0
LINE
  5
118
100
AcDbEntity
  8
0
  6
CONTINUOUS
 62
               4
100
AcDbLine
 10
39.004040395466689
 20
24.998989888133309
 30
0.0
 11
39.004040395466689
 21
8.6444444429332066
 31
0.0
  0
LINE
  5
119
100
AcDbEntity
  8
0
  6
CONTINUOUS
 62
               4
100
AcDbLine
 10
34.005050499333322
 20
5.9999999999998579
 30
0.0
 11
38.714141405733301
 21
8.1919191906665958
 31
0.0
  0
LINE
  5
11A
100
AcDbEntity
  8
0
  6
CONTINUOUS
 62
               4
100
AcDbLine
 10
34.005050499333322
 20
33.499999999999829
 30
0.0
 11
38.098989890933296
 21
33.499999999999829
 31
0.0
  0
LINE
  5
11B
100
AcDbEntity
  8
0
  6
CONTINUOUS
 62
               4
100
AcDbLine
 10
35.603030296399936
 20
33.499999999999829
 30
0.0
 11
35.603030296399936
 21
25.496969692399887
 31
0.0
  0
LINE
  5
11C
100
AcDbEntity
  8
0
  6
CONTINUOUS
 62
               4
100
AcDbLine
 10
37.398989891333315
 20
33.499999999999829
 30
0.0
 11
37.398989891333315
 21
25.496969692399887
 31
0.0
  0
LINE
  5
11D
100
AcDbEntity
  8
0
  6
CONTINUOUS
 62
               4
100
AcDbLine
 10
40.997979788266605
 20
33.499999999999829
 30
0.0
 11
40.997979788266605
 21
32.002020193733188
 31
0.0
  0
LINE
  5
11E
100
AcDbEntity
  8
0
  6
CONTINUOUS
 62
               4
100
AcDbLine
 10
40.099999990799972
 20
26.89696969159985
 30
0.0
 11
40.997979788266605
 21
32.002020193733188
 31
0.0
  0
LINE
  5
11F
100
AcDbEntity
  8
0
  6
CONTINUOUS
 62
               4
100
AcDbLine
 10
40.001010091866704
 20
33.499999999999829
 30
0.0
 11
40.001010091866704
 21
32.086868678533165
 31
0.0
  0
LINE
  5
120
100
AcDbEntity
  8
0
  6
CONTINUOUS
 62
               4
100
AcDbLine
 10
40.001010091866704
 20
33.499999999999829
 30
0.0
 11
40.997979788266605
 21
33.499999999999829
 31
0.0
  0
LINE
  5
121
100
AcDbEntity
  8
0
  6
CONTINUOUS
 62
               4
100
AcDbLine
 10
38.89797978946666
 20
25.829292924533206
 30
0.0
 11
40.015151505999995
 21
32.171717163333199
 31
0.0
  0
LINE
  5
122
100
AcDbEntity
  8
0
  6
CONTINUOUS
 62
               4
100
AcDbLine
 10
39.103030294399957
 20
24.499999995999872
 30
0.0
 11
39.103030294399957
 21
18.801010100266524
 31
0.0
  0
LINE
  5
123
100
AcDbEntity
  8
0
  6
CONTINUOUS
 62
               4
100
AcDbLine
 10
38.098989890933296
 20
33.499999999999829
 30
0.0
 11
38.098989890933296
 21
25.899999995199892
 31
0.0
  0
LINE
  5
124
100
AcDbEntity
  8
0
  6
CONTINUOUS
 62
               4
100
AcDbLine
 10
38.403030294799976
 20
33.19595959613315
 30
0.0
 11
38.403030294799976
 21
27.299999994399855
 31
0.0
  0
LINE
  5
125
100
AcDbEntity
  8
0
  6
CONTINUOUS
 62
               4
100
AcDbLine
 10
38.098989890933296
 20
33.499999999999829
 30
0.0
 11
38.403030294799976
 21
33.19595959613315
 31
0.0
  0
LINE
  5
126
100
AcDbEntity
  8
0
  6
CONTINUOUS
 62
               4
100
AcDbLine
 10
34.005050499333322
 20
32.496969688399872
 30
0.0
 11
34.499999994000007
 21
32.496969688399872
 31
0.0
  0
LINE
  5
127
100
AcDbEntity
  8
0
  6
CONTINUOUS
 62
               4
100
AcDbLine
 10
34.005050499333322
 20
27.497979792266506
 30
0.0
 11
34.499999994000007
 21
27.497979792266506
 31
0.0
  0
LINE
  5
128
100
AcDbEntity
  8
0
  6
CONTINUOUS
 62
               4
100
AcDbLine
 10
38.098989890933296
 20
26.995959590533232
 30
0.0
 11
38.403030294799976
 21
27.299999994399855
 31
0.0
  0
LINE
  5
129
100
AcDbEntity
  8
0
  6
CONTINUOUS
 62
               4
100
AcDbLine
 10
40.099999990799972
 20
26.89696969159985
 30
0.0
 11
40.099999990799972
 21
17.796969696799863
 31
0.0
  0
LINE
  5
12A
100
AcDbEntity
  8
0
  6
CONTINUOUS
 62
               4
100
AcDbLine
 10
39.103030294399957
 20
17.499999999999829
 30
0.0
 11
39.803030293999939
 21
17.499999999999829
 31
0.0
  0
LINE
  5
12B
100
AcDbEntity
  8
0
  6
CONTINUOUS
 62
               4
100
AcDbLine
 10
39.004040395466689
 20
18.801010100266524
 30
0.0
 11
39.103030294399957
 21
18.801010100266524
 31
0.0
  0
LINE
  5
12C
100
AcDbEntity
  8
0
  6
CONTINUOUS
 62
               4
100
AcDbLine
 10
39.004040395466689
 20
17.598989898933155
 30
0.0
 11
39.103030294399957
 21
17.499999999999829
 31
0.0
  0
LINE
  5
12D
100
AcDbEntity
  8
0
  6
CONTINUOUS
 62
               4
100
AcDbLine
 10
35.850505043733335
 20
38.067676765066494
 30
0.0
 11
35.850505043733335
 21
33.499999999999829
 31
0.0
  0
LINE
  5
12E
100
AcDbEntity
  8
0
  6
CONTINUOUS
 62
               4
100
AcDbLine
 10
37.15151514400003
 20
40.9949494906665
 30
0.0
 11
37.15151514400003
 21
37.664646462266489
 31
0.0
  0
LINE
  5
12F
100
AcDbEntity
  8
0
  6
CONTINUOUS
 62
               4
100
AcDbLine
 10
35.850505043733335
 20
40.9949494906665
 30
0.0
 11
35.850505043733335
 21
38.414141411333162
 31
0.0
  0
LINE
  5
130
100
AcDbEntity
  8
0
  6
CONTINUOUS
 62
               4
100
AcDbLine
 10
35.850505043733335
 20
40.9949494906665
 30
0.0
 11
37.15151514400003
 21
40.9949494906665
 31
0.0
  0
LINE
  5
131
100
AcDbEntity
  8
0
  6
CONTINUOUS
 62
               4
100
AcDbLine
 10
36.253535346533283
 20
44.494949488666521
 30
0.0
 11
36.253535346533283
 21
40.9949494906665
 31
0.0
  0
LINE
  5
132
100
AcDbEntity
  8
0
  6
CONTINUOUS
 62
               4
100
AcDbLine
 10
36.748484841199968
 20
44.494949488666521
 30
0.0
 11
36.748484841199968
 21
40.9949494906665
 31
0.0
  0
LINE
  5
133
100
AcDbEntity
  8
0
  6
CONTINUOUS
 62
             200
100
AcDbLine
 10
37.999999992000028
 20
37.169696967599862
 30
0.0
 11
35.002020195733337
 21
38.902020198933144
 31
0.0
  0
LINE
  5
134
100
AcDbEntity
  8
0
  6
CONTINUOUS
 62
             200
100
AcDbLine
 10
37.999999992000028
 20
36.823232321333194
 30
0.0
 11
35.002020195733337
 21
38.555555552666533
 31
0.0
  0
LINE
  5
135
100
AcDbEntity
  8
0
  6
CONTINUOUS
 62
               4
100
AcDbLine
 10
37.15151514400003
 20
37.318181815999822
 30
0.0
 11
37.15151514400003
 21
33.499999999999829
 31
0.0
  0
LINE
  5
136
100
AcDbEntity
  8
0
  6
CONTINUOUS
 62
               4
100
AcDbLine
 10
34.005050499333322
 20
33.499999999999829
 30
0.0
 11
34.005050499333322
 21
32.496969688399872
 31
0.0
  0
LINE
  5
137
100
AcDbEntity
  8
0
  6
CONTINUOUS
 62
               4
100
AcDbLine
 10
34.005050499333322
 20
27.497979792266506
 30
0.0
 11
34.005050499333322
 21
25.496969692399887
 31
0.0
  0
LINE
  5
138
100
AcDbEntity
  8
0
  6
CONTINUOUS
 62
               4
100
AcDbLine
 10
34.499999994000007
 20
32.496969688399872
 30
0.0
 11
34.499999994000007
 21
27.497979792266506
 31
0.0
  0
LINE
  5
139
100
AcDbEntity
  8
0
  6
CONTINUOUS
 62
               4
100
AcDbLine
 10
34.005050499333322
 20
5.9999999999998579
 30
0.0
 11
34.005050499333322
 21
25.493939382799994
 31
0.0
  0
ARC
  5
13A
100
AcDbEntity
  8
0
  6
CONTINUOUS
 62
               4
100
AcDbCircle
 10
38.498033057569103
 20
8.6494844974916134
 30
0.0
 40
0.5060324378497572
100
AcDbArc
 50
295.28139190005214
 51
359.42932783011406
  0
ARC
  5
13B
100
AcDbEntity
  8
0
  6
CONTINUOUS
 62
               4
100
AcDbCircle
 10
38.503834119278679
 20
24.993708514783606
 30
0.0
 40
0.5002341568128574
100
AcDbArc
 50
0.6049287534634878
 51
90.207763713153867
  0
ARC
  5
13C
100
AcDbEntity
  8
0
  6
CONTINUOUS
 62
               4
100
AcDbCircle
 10
39.797896118091842
 20
17.802103872708074
 30
0.0
 40
0.3021474965435785
100
AcDbArc
 50
270.97363298451126
 51
359.02636701548732
  0
ARC
  5
13D
100
AcDbEntity
  8
0
  6
CONTINUOUS
 62
               4
100
AcDbCircle
 10
38.599986940866813
 20
24.497302043044385
 30
0.0
 40
0.5030505883944908
100
AcDbArc
 50
0.3072892911898554
 51
36.562608354652731
  0
ARC
  5
13E
100
AcDbEntity
  8
0
  6
CONTINUOUS
 62
               4
100
AcDbCircle
 10
38.501921122697979
 20
25.903476452093571
 30
0.0
 40
0.4029462287748787
100
AcDbArc
 50
180.49433091715488
 51
349.39117201772478
  0
ARC
  5
13F
100
AcDbEntity
  8
0
  6
CONTINUOUS
 62
               4
100
AcDbCircle
 10
38.501921122697979
 20
-55.503476452093565
 30
0.0
 40
0.4029462287748787
100
AcDbArc
 50
10.608827982274413
 51
179.50566908284432
  0
ARC
  5
140
100
AcDbEntity
  8
0
  6
CONTINUOUS
 62
               4
100
AcDbCircle
 10
38.599986940866813
 20
-54.09730204304438
 30
0.0
 40
0.5030505883944908
100
AcDbArc
 50
323.43739164534645
 51
359.69271070880933
  0
ARC
  5
141
100
AcDbEntity
  8
0
  6
CONTINUOUS
 62
               4
100
AcDbCircle
 10
39.797896118091842
 20
-47.402103872708068
 30
0.0
 40
0.3021474965435785
100
AcDbArc
 50
0.9736329845118463
 51
89.026367015487978
  0
ARC
  5
142
100
AcDbEntity
  8
0
  6
CONTINUOUS
 62
               4
100
AcDbCircle
 10
38.503834119278679
 20
-54.5937085147836
 30
0.0
 40
0.5002341568128574
100
AcDbArc
 50
269.79223628684531
 51
359.39507124653568
  0
ARC
  5
143
100
AcDbEntity
  8
0
  6
CONTINUOUS
 62
               4
100
AcDbCircle
 10
38.498033057569103
 20
-38.249484497491608
 30
0.0
 40
0.5060324378497572
100
AcDbArc
 50
0.570672169885155
 51
64.718608099947076
  0
LINE
  5
144
100
AcDbEntity
  8
0
  6
CONTINUOUS
 62
               4
100
AcDbLine
 10
34.005050499333322
 20
-35.599999999999852
 30
0.0
 11
34.005050499333322
 21
-55.093939382799988
 31
0.0
  0
LINE
  5
145
100
AcDbEntity
  8
0
  6
CONTINUOUS
 62
               4
100
AcDbLine
 10
34.499999994000007
 20
-62.096969688399867
 30
0.0
 11
34.499999994000007
 21
-57.0979797922665
 31
0.0
  0
LINE
  5
146
100
AcDbEntity
  8
0
  6
CONTINUOUS
 62
               4
100
AcDbLine
 10
34.005050499333322
 20
-57.0979797922665
 30
0.0
 11
34.005050499333322
 21
-55.096969692399881
 31
0.0
  0
LINE
  5
147
100
AcDbEntity
  8
0
  6
CONTINUOUS
 62
               4
100
AcDbLine
 10
34.005050499333322
 20
-63.099999999999824
 30
0.0
 11
34.005050499333322
 21
-62.096969688399867
 31
0.0
  0
LINE
  5
148
100
AcDbEntity
  8
0
  6
CONTINUOUS
 62
               4
100
AcDbLine
 10
37.15151514400003
 20
-66.918181815999816
 30
0.0
 11
37.15151514400003
 21
-63.099999999999824
 31
0.0
  0
LINE
  5
149
100
AcDbEntity
  8
0
  6
CONTINUOUS
 62
             200
100
AcDbLine
 10
37.999999992000028
 20
-66.423232321333188
 30
0.0
 11
35.002020195733337
 21
-68.155555552666527
 31
0.0
  0
LINE
  5
14A
100
AcDbEntity
  8
0
  6
CONTINUOUS
 62
             200
100
AcDbLine
 10
37.999999992000028
 20
-66.769696967599856
 30
0.0
 11
35.002020195733337
 21
-68.502020198933138
 31
0.0
  0
LINE
  5
14B
100
AcDbEntity
  8
0
  6
CONTINUOUS
 62
               4
100
AcDbLine
 10
36.748484841199968
 20
-74.094949488666515
 30
0.0
 11
36.748484841199968
 21
-70.594949490666494
 31
0.0
  0
LINE
  5
14C
100
AcDbEntity
  8
0
  6
CONTINUOUS
 62
               4
100
AcDbLine
 10
36.253535346533283
 20
-74.094949488666515
 30
0.0
 11
36.253535346533283
 21
-70.594949490666494
 31
0.0
  0
LINE
  5
14D
100
AcDbEntity
  8
0
  6
CONTINUOUS
 62
               4
100
AcDbLine
 10
35.850505043733335
 20
-70.594949490666494
 30
0.0
 11
37.15151514400003
 21
-70.594949490666494
 31
0.0
  0
LINE
  5
14E
100
AcDbEntity
  8
0
  6
CONTINUOUS
 62
               4
100
AcDbLine
 10
35.850505043733335
 20
-70.594949490666494
 30
0.0
 11
35.850505043733335
 21
-68.014141411333156
 31
0.0
  0
LINE
  5
14F
100
AcDbEntity
  8
0
  6
CONTINUOUS
 62
               4
100
AcDbLine
 10
37.15151514400003
 20
-70.594949490666494
 30
0.0
 11
37.15151514400003
 21
-67.264646462266484
 31
0.0
  0
LINE
  5
150
100
AcDbEntity
  8
0
  6
CONTINUOUS
 62
               4
100
AcDbLine
 10
35.850505043733335
 20
-67.667676765066489
 30
0.0
 11
35.850505043733335
 21
-63.099999999999824
 31
0.0
  0
LINE
  5
151
100
AcDbEntity
  8
0
  6
CONTINUOUS
 62
               4
100
AcDbLine
 10
39.004040395466689
 20
-47.198989898933149
 30
0.0
 11
39.103030294399957
 21
-47.099999999999824
 31
0.0
  0
LINE
  5
152
100
AcDbEntity
  8
0
  6
CONTINUOUS
 62
               4
100
AcDbLine
 10
39.004040395466689
 20
-48.401010100266518
 30
0.0
 11
39.103030294399957
 21
-48.401010100266518
 31
0.0
  0
LINE
  5
153
100
AcDbEntity
  8
0
  6
CONTINUOUS
 62
               4
100
AcDbLine
 10
39.103030294399957
 20
-47.099999999999824
 30
0.0
 11
39.803030293999939
 21
-47.099999999999824
 31
0.0
  0
LINE
  5
154
100
AcDbEntity
  8
0
  6
CONTINUOUS
 62
               4
100
AcDbLine
 10
40.099999990799972
 20
-56.496969691599844
 30
0.0
 11
40.099999990799972
 21
-47.396969696799857
 31
0.0
  0
LINE
  5
155
100
AcDbEntity
  8
0
  6
CONTINUOUS
 62
               4
100
AcDbLine
 10
38.098989890933296
 20
-56.595959590533226
 30
0.0
 11
38.403030294799976
 21
-56.899999994399849
 31
0.0
  0
LINE
  5
156
100
AcDbEntity
  8
0
  6
CONTINUOUS
 62
               4
100
AcDbLine
 10
34.005050499333322
 20
-57.0979797922665
 30
0.0
 11
34.499999994000007
 21
-57.0979797922665
 31
0.0
  0
LINE
  5
157
100
AcDbEntity
  8
0
  6
CONTINUOUS
 62
               4
100
AcDbLine
 10
34.005050499333322
 20
-62.096969688399867
 30
0.0
 11
34.499999994000007
 21
-62.096969688399867
 31
0.0
  0
LINE
  5
158
100
AcDbEntity
  8
0
  6
CONTINUOUS
 62
               4
100
AcDbLine
 10
38.098989890933296
 20
-63.099999999999824
 30
0.0
 11
38.403030294799976
 21
-62.795959596133144
 31
0.0
  0
LINE
  5
159
100
AcDbEntity
  8
0
  6
CONTINUOUS
 62
               4
100
AcDbLine
 10
38.403030294799976
 20
-62.795959596133144
 30
0.0
 11
38.403030294799976
 21
-56.899999994399849
 31
0.0
  0
LINE
  5
15A
100
AcDbEntity
  8
0
  6
CONTINUOUS
 62
               4
100
AcDbLine
 10
38.098989890933296
 20
-63.099999999999824
 30
0.0
 11
38.098989890933296
 21
-55.499999995199886
 31
0.0
  0
LINE
  5
15B
100
AcDbEntity
  8
0
  6
CONTINUOUS
 62
               4
100
AcDbLine
 10
39.103030294399957
 20
-54.099999995999866
 30
0.0
 11
39.103030294399957
 21
-48.401010100266518
 31
0.0
  0
LINE
  5
15C
100
AcDbEntity
  8
0
  6
CONTINUOUS
 62
               4
100
AcDbLine
 10
38.89797978946666
 20
-55.4292929245332
 30
0.0
 11
40.015151505999995
 21
-61.771717163333193
 31
0.0
  0
LINE
  5
15D
100
AcDbEntity
  8
0
  6
CONTINUOUS
 62
               4
100
AcDbLine
 10
40.001010091866704
 20
-63.099999999999824
 30
0.0
 11
40.997979788266605
 21
-63.099999999999824
 31
0.0
  0
LINE
  5
15E
100
AcDbEntity
  8
0
  6
CONTINUOUS
 62
               4
100
AcDbLine
 10
40.001010091866704
 20
-63.099999999999824
 30
0.0
 11
40.001010091866704
 21
-61.686868678533159
 31
0.0
  0
LINE
  5
15F
100
AcDbEntity
  8
0
  6
CONTINUOUS
 62
               4
100
AcDbLine
 10
40.099999990799972
 20
-56.496969691599844
 30
0.0
 11
40.997979788266605
 21
-61.602020193733182
 31
0.0
  0
LINE
  5
160
100
AcDbEntity
  8
0
  6
CONTINUOUS
 62
               4
100
AcDbLine
 10
40.997979788266605
 20
-63.099999999999824
 30
0.0
 11
40.997979788266605
 21
-61.602020193733182
 31
0.0
  0
LINE
  5
161
100
AcDbEntity
  8
0
  6
CONTINUOUS
 62
               4
100
AcDbLine
 10
37.398989891333315
 20
-63.099999999999824
 30
0.0
 11
37.398989891333315
 21
-55.096969692399881
 31
0.0
  0
LINE
  5
162
100
AcDbEntity
  8
0
  6
CONTINUOUS
 62
               4
100
AcDbLine
 10
35.603030296399936
 20
-63.099999999999824
 30
0.0
 11
35.603030296399936
 21
-55.096969692399881
 31
0.0
  0
LINE
  5
163
100
AcDbEntity
  8
0
  6
CONTINUOUS
 62
               4
100
AcDbLine
 10
34.005050499333322
 20
-63.099999999999824
 30
0.0
 11
38.098989890933296
 21
-63.099999999999824
 31
0.0
  0
LINE
  5
164
100
AcDbEntity
  8
0
  6
CONTINUOUS
 62
               4
100
AcDbLine
 10
34.005050499333322
 20
-35.599999999999852
 30
0.0
 11
38.714141405733301
 21
-37.79191919066659
 31
0.0
  0
LINE
  5
165
100
AcDbEntity
  8
0
  6
CONTINUOUS
 62
               4
100
AcDbLine
 10
39.004040395466689
 20
-54.598989888133303
 30
0.0
 11
39.004040395466689
 21
-38.244444442933201
 31
0.0
  0
LINE
  5
166
100
AcDbEntity
  8
0
  6
CONTINUOUS
 62
               4
100
AcDbLine
 10
30.999999995999985
 20
-55.093939382799988
 30
0.0
 11
38.502020193733358
 21
-55.093939382799988
 31
0.0
  0
LINE
  5
167
100
AcDbEntity
  8
0
  6
CONTINUOUS
 62
               4
100
AcDbLine
 10
18.999999999999943
 20
-56.5
 30
0.0
 11
30.999999995999985
 21
-56.5
 31
0.0
  0
LINE
  5
168
100
AcDbEntity
  8
0
  6
CONTINUOUS
 62
               4
100
AcDbLine
 10
18.999999999999943
 20
-58.099999999999966
 30
0.0
 11
18.999999999999943
 21
-56.5
 31
0.0
  0
ARC
  5
169
100
AcDbEntity
  8
0
  6
CONTINUOUS
 62
               4
100
AcDbCircle
 10
17.500000004000015
 20
-57.5
 30
0.0
 40
0.5
100
AcDbArc
 50
179.99999999999963
 51
269.99999999999937
  0
ARC
  5
16A
100
AcDbEntity
  8
0
  6
CONTINUOUS
 62
               4
100
AcDbCircle
 10
30.499999995999985
 20
-57.5
 30
0.0
 40
0.5
100
AcDbArc
 50
273.91958589965037
 51
0.0
  0
ARC
  5
16B
100
AcDbEntity
  8
0
  6
CONTINUOUS
 62
               4
100
AcDbCircle
 10
30.201087915128198
 20
-57.501088005128167
 30
0.0
 40
0.5989129231257409
100
AcDbArc
 50
269.89591452477231
 51
0.1040854752270701
  0
ARC
  5
16C
100
AcDbEntity
  8
0
  6
CONTINUOUS
 62
               4
100
AcDbCircle
 10
17.799904943351351
 20
-57.500095146648619
 30
0.0
 40
0.5999048008965869
100
AcDbArc
 50
236.24741787039349
 51
270.00908727754575
  0
LINE
  5
16D
100
AcDbEntity
  8
0
  6
CONTINUOUS
 62
               4
100
AcDbLine
 10
17.800000089999969
 20
-58.099999999999966
 30
0.0
 11
30.199999910000031
 21
-58.099999999999966
 31
0.0
  0
LINE
  5
16E
100
AcDbEntity
  8
0
  6
CONTINUOUS
 62
               4
100
AcDbLine
 10
17.500000004000015
 20
-58.0
 30
0.0
 11
18.999999999999943
 21
-58.0
 31
0.0
  0
LINE
  5
16F
100
AcDbEntity
  8
0
  6
CONTINUOUS
 62
               4
100
AcDbLine
 10
28.300000000000011
 20
-57.5
 30
0.0
 11
30.999999995999985
 21
-57.5
 31
0.0
  0
LINE
  5
170
100
AcDbEntity
  8
0
  6
CONTINUOUS
 62
               4
100
AcDbLine
 10
28.300000000000011
 20
-58.099999999999966
 30
0.0
 11
28.300000000000011
 21
-57.5
 31
0.0
  0
LINE
  5
171
100
AcDbEntity
  8
0
  6
CONTINUOUS
 62
               4
100
AcDbLine
 10
17.0
 20
-35.599999999999937
 30
0.0
 11
34.000002816526774
 21
-35.599999999999937
 31
0.0
  0
LINE
  5
172
100
AcDbEntity
  8
0
  6
CONTINUOUS
 62
               4
100
AcDbLine
 10
17.0
 20
-57.499999999999943
 30
0.0
 11
17.0
 21
-35.599999999999937
 31
0.0
  0
LINE
  5
173
100
AcDbEntity
  8
0
  6
CONTINUOUS
 62
               4
100
AcDbLine
 10
31.0
 20
-35.599999999999937
 30
0.0
 11
31.0
 21
-57.49999999493221
 31
0.0
  0
LINE
  5
174
100
AcDbEntity
  8
0
  6
CONTINUOUS
 62
               4
100
AcDbLine
 10
36.253535346533283
 20
-74.094949488666515
 30
0.0
 11
36.748484841199968
 21
-74.094949488666515
 31
0.0
  0
ENDBLK
  5
175
100
AcDbEntity
  8
0
100
AcDbBlockEnd
  0
BLOCK
  5
176
100
AcDbEntity
  8
0
100
AcDbBlockBegin
  2
EA10SA6-3
 70
               0
 10
0.0
 20
0.0
 30
0.0
  3
EA10SA6-3
  1

  0
ARC
  5
177
100
AcDbEntity
  8
0
  6
CONTINUOUS
 62
               7
100
AcDbCircle
 10
-30.199999999999989
 20
-20.700000000000003
 30
0.0
 40
0.4
100
AcDbArc
 50
179.99999999999963
 51
269.99999999999937
  0
ARC
  5
178
100
AcDbEntity
  8
0
  6
CONTINUOUS
 62
               7
100
AcDbCircle
 10
-30.199999999999989
 20
-18.499999999999986
 30
0.0
 40
0.4
100
AcDbArc
 50
89.999999999999815
 51
179.99999999999963
  0
LINE
  5
179
100
AcDbEntity
  8
0
  6
CONTINUOUS
 62
               7
100
AcDbLine
 10
-30.199999999999989
 20
-21.099999999999994
 30
0.0
 11
-30.0
 21
-21.099999999999994
 31
0.0
  0
LINE
  5
17A
100
AcDbEntity
  8
0
  6
CONTINUOUS
 62
               7
100
AcDbLine
 10
-30.199999999999989
 20
-18.099999999999994
 30
0.0
 11
-30.0
 21
-18.099999999999994
 31
0.0
  0
LINE
  5
17B
100
AcDbEntity
  8
0
  6
CONTINUOUS
 62
               7
100
AcDbLine
 10
-30.599999999999994
 20
-18.499999999999986
 30
0.0
 11
-30.599999999999994
 21
-20.700000000000003
 31
0.0
  0
LINE
  5
17C
100
AcDbEntity
  8
0
  6
CONTINUOUS
 62
               7
100
AcDbLine
 10
-17.0
 20
-35.599999999999994
 30
0.0
 11
-17.0
 21
6.0
 31
0.0
  0
LINE
  5
17D
100
AcDbEntity
  8
0
  6
CONTINUOUS
 62
               7
100
AcDbLine
 10
-31.0
 20
6.0
 30
0.0
 11
-31.0
 21
-35.599999999999994
 31
0.0
  0
LINE
  5
17E
100
AcDbEntity
  8
0
  6
CENTER
 62
               2
100
AcDbLine
 10
-24.0
 20
30.347850672801155
 30
0.0
 11
-24.0
 21
-59.947850672801039
 31
0.0
  0
CIRCLE
  5
17F
100
AcDbEntity
  8
0
  6
CONTINUOUS
 62
               2
100
AcDbCircle
 10
-9.9999786376953352
 20
-4.8000061035156278
 30
0.0
 40
2.5
  0
CIRCLE
  5
180
100
AcDbEntity
  8
0
  6
CONTINUOUS
 62
               2
100
AcDbCircle
 10
-10.999978637695335
 20
-14.800006103515628
 30
0.0
 40
2.5
  0
CIRCLE
  5
181
100
AcDbEntity
  8
0
  6
CONTINUOUS
 62
               2
100
AcDbCircle
 10
-4.9999786376953352
 20
-22.39999694824219
 30
0.0
 40
2.5
  0
CIRCLE
  5
182
100
AcDbEntity
  8
0
  6
CONTINUOUS
 62
               7
100
AcDbCircle
 10
-4.9999786376953352
 20
-22.39999694824219
 30
0.0
 40
2.0669994354248047
  0
CIRCLE
  5
183
100
AcDbEntity
  8
0
  6
CONTINUOUS
 62
               7
100
AcDbCircle
 10
-10.999978637695335
 20
-14.800006103515628
 30
0.0
 40
2.0669994354248047
  0
CIRCLE
  5
184
100
AcDbEntity
  8
0
  6
CONTINUOUS
 62
               7
100
AcDbCircle
 10
-9.9999786376953352
 20
-4.8000061035156278
 30
0.0
 40
2.0669994354248047
  0
LINE
  5
185
100
AcDbEntity
  8
0
  6
CENTER
 62
               2
100
AcDbLine
 10
-13.5
 20
-4.7999999999999972
 30
0.0
 11
-6.5
 21
-4.7999999999999972
 31
0.0
  0
LINE
  5
186
100
AcDbEntity
  8
0
  6
CENTER
 62
               2
100
AcDbLine
 10
-10.0
 20
-1.2999999999999972
 30
0.0
 11
-10.0
 21
-8.2999999999999972
 31
0.0
  0
LINE
  5
187
100
AcDbEntity
  8
0
  6
CENTER
 62
               2
100
AcDbLine
 10
-14.5
 20
-14.799999999999997
 30
0.0
 11
-7.5
 21
-14.799999999999997
 31
0.0
  0
LINE
  5
188
100
AcDbEntity
  8
0
  6
CENTER
 62
               2
100
AcDbLine
 10
-11.0
 20
-11.299999999999997
 30
0.0
 11
-11.0
 21
-18.299999999999997
 31
0.0
  0
LINE
  5
189
100
AcDbEntity
  8
0
  6
CENTER
 62
               2
100
AcDbLine
 10
-8.5
 20
-22.399999999999991
 30
0.0
 11
-1.5
 21
-22.399999999999991
 31
0.0
  0
LINE
  5
18A
100
AcDbEntity
  8
0
  6
CENTER
 62
               2
100
AcDbLine
 10
-5.0
 20
-18.899999999999991
 30
0.0
 11
-5.0
 21
-25.899999999999991
 31
0.0
  0
LINE
  5
18B
100
AcDbEntity
  8
0
  6
CONTINUOUS
 62
               7
100
AcDbLine
 10
-16.0
 20
-32.299999999999997
 30
0.0
 11
0.0
 21
-32.299999999999997
 31
0.0
  0
LINE
  5
18C
100
AcDbEntity
  8
0
  6
CONTINUOUS
 62
               7
100
AcDbLine
 10
-16.0
 20
2.7000000000000028
 30
0.0
 11
0.0
 21
2.7000000000000028
 31
0.0
  0
LINE
  5
18D
100
AcDbEntity
  8
0
  6
CONTINUOUS
 62
               7
100
AcDbLine
 10
0.0
 20
2.7000000000000028
 30
0.0
 11
0.0
 21
-32.299999999999997
 31
0.0
  0
LINE
  5
18E
100
AcDbEntity
  8
0
  6
CONTINUOUS
 62
               7
100
AcDbLine
 10
-16.0
 20
-32.299999999999997
 30
0.0
 11
-16.0
 21
2.7000000000000028
 31
0.0
  0
LINE
  5
18F
100
AcDbEntity
  8
0
  6
CONTINUOUS
 62
               7
100
AcDbLine
 10
-30.0
 20
-17.999001430615195
 30
0.0
 11
-30.0
 21
-21.199001430615183
 31
0.0
  0
LINE
  5
190
100
AcDbEntity
  8
0
  6
CONTINUOUS
 62
               7
100
AcDbLine
 10
-17.0
 20
-5.7000000000000028
 30
0.0
 11
-31.0
 21
-5.7000000000000028
 31
0.0
  0
LINE
  5
191
100
AcDbEntity
  8
0
  6
CONTINUOUS
 62
               7
100
AcDbLine
 10
-31.000038524730655
 20
6.4999999985157899
 30
0.0
 11
-31.0
 21
6.0
 31
0.0
  0
LINE
  5
192
100
AcDbEntity
  8
0
  6
CONTINUOUS
 62
               7
100
AcDbLine
 10
-32.100000000000023
 20
0.0
 30
0.0
 11
-32.100000000000023
 21
5.9999999999999432
 31
0.0
  0
LINE
  5
193
100
AcDbEntity
  8
0
  6
CONTINUOUS
 62
               7
100
AcDbLine
 10
-31.000000000000057
 20
-1.0999999999999943
 30
0.0
 11
-32.100000000000023
 21
0.0
 31
0.0
  0
LINE
  5
194
100
AcDbEntity
  8
0
  6
CONTINUOUS
 62
               7
100
AcDbLine
 10
-32.548000000000002
 20
2.5999999999999943
 30
0.0
 11
-32.548000000000002
 21
4.8000000000000398
 31
0.0
  0
LINE
  5
195
100
AcDbEntity
  8
0
  6
CONTINUOUS
 62
               7
100
AcDbLine
 10
-32.548000000000002
 20
4.8000000000000398
 30
0.0
 11
-32.100000000000023
 21
4.8000000000000398
 31
0.0
  0
LINE
  5
196
100
AcDbEntity
  8
0
  6
CONTINUOUS
 62
               7
100
AcDbLine
 10
-32.548000000000002
 20
2.5999999999999943
 30
0.0
 11
-32.100000000000023
 21
2.5999999999999943
 31
0.0
  0
LINE
  5
197
100
AcDbEntity
  8
0
  6
CONTINUOUS
 62
               7
100
AcDbLine
 10
-30.0
 20
-17.999001430615195
 30
0.0
 11
-31.0
 21
-17.999001430615195
 31
0.0
  0
LINE
  5
198
100
AcDbEntity
  8
0
  6
CONTINUOUS
 62
               7
100
AcDbLine
 10
-30.0
 20
-21.199001430615183
 30
0.0
 11
-31.0
 21
-21.199001430615183
 31
0.0
  0
LINE
  5
199
100
AcDbEntity
  8
0
  6
CONTINUOUS
 62
               7
100
AcDbLine
 10
-32.100000000000023
 20
-29.599999999999994
 30
0.0
 11
-32.100000000000023
 21
-35.599999999999937
 31
0.0
  0
LINE
  5
19A
100
AcDbEntity
  8
0
  6
CONTINUOUS
 62
               7
100
AcDbLine
 10
-32.548000000000002
 20
-32.199999999999989
 30
0.0
 11
-32.548000000000002
 21
-34.400000000000034
 31
0.0
  0
LINE
  5
19B
100
AcDbEntity
  8
0
  6
CONTINUOUS
 62
               7
100
AcDbLine
 10
-32.548000000000002
 20
-34.400000000000034
 30
0.0
 11
-32.100000000000023
 21
-34.400000000000034
 31
0.0
  0
LINE
  5
19C
100
AcDbEntity
  8
0
  6
CONTINUOUS
 62
               7
100
AcDbLine
 10
-31.000038524730655
 20
-36.099999998515784
 30
0.0
 11
-31.0
 21
-35.599999999999994
 31
0.0
  0
LINE
  5
19D
100
AcDbEntity
  8
0
  6
CONTINUOUS
 62
               7
100
AcDbLine
 10
-17.0
 20
-23.899999999999991
 30
0.0
 11
-31.0
 21
-23.899999999999991
 31
0.0
  0
LINE
  5
19E
100
AcDbEntity
  8
0
  6
CONTINUOUS
 62
               7
100
AcDbLine
 10
-32.548000000000002
 20
-32.199999999999989
 30
0.0
 11
-32.100000000000023
 21
-32.199999999999989
 31
0.0
  0
LINE
  5
19F
100
AcDbEntity
  8
0
  6
CONTINUOUS
 62
               7
100
AcDbLine
 10
-31.000000000000057
 20
-28.5
 30
0.0
 11
-32.100000000000023
 21
-29.599999999999994
 31
0.0
  0
LINE
  5
1A0
100
AcDbEntity
  8
0
  6
CENTER
 62
               2
100
AcDbLine
 10
-2.0
 20
0.0
 30
0.0
 11
2.0
 21
0.0
 31
0.0
  0
LINE
  5
1A1
100
AcDbEntity
  8
0
  6
CENTER
 62
               2
100
AcDbLine
 10
-2.0
 20
-29.599999999999994
 30
0.0
 11
2.0
 21
-29.599999999999994
 31
0.0
  0
LINE
  5
1A2
100
AcDbEntity
  8
0
  6
CONTINUOUS
 62
               7
100
AcDbLine
 10
-16.999989318840889
 20
0.4999938964843835
 30
0.0
 11
-16.000000000000014
 21
0.4999938964843835
 31
0.0
  0
LINE
  5
1A3
100
AcDbEntity
  8
0
  6
CONTINUOUS
 62
               7
100
AcDbLine
 10
-16.999921226538035
 20
-30.100006103515625
 30
0.0
 11
-15.999999999999986
 21
-30.100006103515625
 31
0.0
  0
ARC
  5
1A4
100
AcDbEntity
  8
0
  6
CONTINUOUS
 62
               4
100
AcDbCircle
 10
-38.501921122697979
 20
25.903476452093628
 30
0.0
 40
0.4029462287748787
100
AcDbArc
 50
190.60882798227402
 51
359.50566908284389
  0
ARC
  5
1A5
100
AcDbEntity
  8
0
  6
CONTINUOUS
 62
               4
100
AcDbCircle
 10
-38.599986940866813
 20
24.497302043044442
 30
0.0
 40
0.5030505883944908
100
AcDbArc
 50
143.43739164534688
 51
179.69271070880976
  0
ARC
  5
1A6
100
AcDbEntity
  8
0
  6
CONTINUOUS
 62
               4
100
AcDbCircle
 10
-39.797896118091842
 20
17.80210387270813
 30
0.0
 40
0.3021474965435785
100
AcDbArc
 50
180.97363298451145
 51
269.02636701548755
  0
ARC
  5
1A7
100
AcDbEntity
  8
0
  6
CONTINUOUS
 62
               4
100
AcDbCircle
 10
-38.503834119278679
 20
24.993708514783663
 30
0.0
 40
0.5002341568128574
100
AcDbArc
 50
89.792236286845736
 51
179.39507124653611
  0
ARC
  5
1A8
100
AcDbEntity
  8
0
  6
CONTINUOUS
 62
               4
100
AcDbCircle
 10
-38.498033057569103
 20
8.6494844974916703
 30
0.0
 40
0.5060324378497572
100
AcDbArc
 50
180.57067216988474
 51
244.71860809994666
  0
LINE
  5
1A9
100
AcDbEntity
  8
0
  6
CONTINUOUS
 62
               4
100
AcDbLine
 10
-34.005050499333322
 20
5.9999999999999147
 30
0.0
 11
-34.005050499333322
 21
25.49393938280005
 31
0.0
  0
LINE
  5
1AA
100
AcDbEntity
  8
0
  6
CONTINUOUS
 62
               4
100
AcDbLine
 10
-34.499999994000007
 20
32.496969688399929
 30
0.0
 11
-34.499999994000007
 21
27.497979792266563
 31
0.0
  0
LINE
  5
1AB
100
AcDbEntity
  8
0
  6
CONTINUOUS
 62
               4
100
AcDbLine
 10
-34.005050499333322
 20
27.497979792266563
 30
0.0
 11
-34.005050499333322
 21
25.496969692399944
 31
0.0
  0
LINE
  5
1AC
100
AcDbEntity
  8
0
  6
CONTINUOUS
 62
               4
100
AcDbLine
 10
-34.005050499333322
 20
33.499999999999886
 30
0.0
 11
-34.005050499333322
 21
32.496969688399929
 31
0.0
  0
LINE
  5
1AD
100
AcDbEntity
  8
0
  6
CONTINUOUS
 62
               4
100
AcDbLine
 10
-37.15151514400003
 20
37.318181815999878
 30
0.0
 11
-37.15151514400003
 21
33.499999999999886
 31
0.0
  0
LINE
  5
1AE
100
AcDbEntity
  8
0
  6
CONTINUOUS
 62
             200
100
AcDbLine
 10
-37.999999992000028
 20
36.823232321333251
 30
0.0
 11
-35.002020195733337
 21
38.55555555266659
 31
0.0
  0
LINE
  5
1AF
100
AcDbEntity
  8
0
  6
CONTINUOUS
 62
             200
100
AcDbLine
 10
-37.999999992000028
 20
37.169696967599918
 30
0.0
 11
-35.002020195733337
 21
38.902020198933201
 31
0.0
  0
LINE
  5
1B0
100
AcDbEntity
  8
0
  6
CONTINUOUS
 62
               4
100
AcDbLine
 10
-36.748484841199968
 20
44.494949488666578
 30
0.0
 11
-36.748484841199968
 21
40.994949490666556
 31
0.0
  0
LINE
  5
1B1
100
AcDbEntity
  8
0
  6
CONTINUOUS
 62
               4
100
AcDbLine
 10
-36.253535346533283
 20
44.494949488666578
 30
0.0
 11
-36.253535346533283
 21
40.994949490666556
 31
0.0
  0
LINE
  5
1B2
100
AcDbEntity
  8
0
  6
CONTINUOUS
 62
               4
100
AcDbLine
 10
-35.850505043733335
 20
40.994949490666556
 30
0.0
 11
-37.15151514400003
 21
40.994949490666556
 31
0.0
  0
LINE
  5
1B3
100
AcDbEntity
  8
0
  6
CONTINUOUS
 62
               4
100
AcDbLine
 10
-35.850505043733335
 20
40.994949490666556
 30
0.0
 11
-35.850505043733335
 21
38.414141411333219
 31
0.0
  0
LINE
  5
1B4
100
AcDbEntity
  8
0
  6
CONTINUOUS
 62
               4
100
AcDbLine
 10
-37.15151514400003
 20
40.994949490666556
 30
0.0
 11
-37.15151514400003
 21
37.664646462266546
 31
0.0
  0
LINE
  5
1B5
100
AcDbEntity
  8
0
  6
CONTINUOUS
 62
               4
100
AcDbLine
 10
-35.850505043733335
 20
38.067676765066551
 30
0.0
 11
-35.850505043733335
 21
33.499999999999886
 31
0.0
  0
LINE
  5
1B6
100
AcDbEntity
  8
0
  6
CONTINUOUS
 62
               4
100
AcDbLine
 10
-39.004040395466689
 20
17.598989898933212
 30
0.0
 11
-39.103030294399957
 21
17.499999999999886
 31
0.0
  0
LINE
  5
1B7
100
AcDbEntity
  8
0
  6
CONTINUOUS
 62
               4
100
AcDbLine
 10
-39.004040395466689
 20
18.801010100266581
 30
0.0
 11
-39.103030294399957
 21
18.801010100266581
 31
0.0
  0
LINE
  5
1B8
100
AcDbEntity
  8
0
  6
CONTINUOUS
 62
               4
100
AcDbLine
 10
-39.103030294399957
 20
17.499999999999886
 30
0.0
 11
-39.803030293999939
 21
17.499999999999886
 31
0.0
  0
LINE
  5
1B9
100
AcDbEntity
  8
0
  6
CONTINUOUS
 62
               4
100
AcDbLine
 10
-40.099999990799972
 20
26.896969691599907
 30
0.0
 11
-40.099999990799972
 21
17.79696969679992
 31
0.0
  0
LINE
  5
1BA
100
AcDbEntity
  8
0
  6
CONTINUOUS
 62
               4
100
AcDbLine
 10
-38.098989890933296
 20
26.995959590533289
 30
0.0
 11
-38.403030294799976
 21
27.299999994399911
 31
0.0
  0
LINE
  5
1BB
100
AcDbEntity
  8
0
  6
CONTINUOUS
 62
               4
100
AcDbLine
 10
-34.005050499333322
 20
27.497979792266563
 30
0.0
 11
-34.499999994000007
 21
27.497979792266563
 31
0.0
  0
LINE
  5
1BC
100
AcDbEntity
  8
0
  6
CONTINUOUS
 62
               4
100
AcDbLine
 10
-34.005050499333322
 20
32.496969688399929
 30
0.0
 11
-34.499999994000007
 21
32.496969688399929
 31
0.0
  0
LINE
  5
1BD
100
AcDbEntity
  8
0
  6
CONTINUOUS
 62
               4
100
AcDbLine
 10
-38.098989890933296
 20
33.499999999999886
 30
0.0
 11
-38.403030294799976
 21
33.195959596133207
 31
0.0
  0
LINE
  5
1BE
100
AcDbEntity
  8
0
  6
CONTINUOUS
 62
               4
100
AcDbLine
 10
-38.403030294799976
 20
33.195959596133207
 30
0.0
 11
-38.403030294799976
 21
27.299999994399911
 31
0.0
  0
LINE
  5
1BF
100
AcDbEntity
  8
0
  6
CONTINUOUS
 62
               4
100
AcDbLine
 10
-38.098989890933296
 20
33.499999999999886
 30
0.0
 11
-38.098989890933296
 21
25.899999995199948
 31
0.0
  0
LINE
  5
1C0
100
AcDbEntity
  8
0
  6
CONTINUOUS
 62
               4
100
AcDbLine
 10
-39.103030294399957
 20
24.499999995999929
 30
0.0
 11
-39.103030294399957
 21
18.801010100266581
 31
0.0
  0
LINE
  5
1C1
100
AcDbEntity
  8
0
  6
CONTINUOUS
 62
               4
100
AcDbLine
 10
-38.89797978946666
 20
25.829292924533263
 30
0.0
 11
-40.015151505999995
 21
32.171717163333255
 31
0.0
  0
LINE
  5
1C2
100
AcDbEntity
  8
0
  6
CONTINUOUS
 62
               4
100
AcDbLine
 10
-40.001010091866704
 20
33.499999999999886
 30
0.0
 11
-40.997979788266605
 21
33.499999999999886
 31
0.0
  0
LINE
  5
1C3
100
AcDbEntity
  8
0
  6
CONTINUOUS
 62
               4
100
AcDbLine
 10
-40.001010091866704
 20
33.499999999999886
 30
0.0
 11
-40.001010091866704
 21
32.086868678533222
 31
0.0
  0
LINE
  5
1C4
100
AcDbEntity
  8
0
  6
CONTINUOUS
 62
               4
100
AcDbLine
 10
-40.099999990799972
 20
26.896969691599907
 30
0.0
 11
-40.997979788266605
 21
32.002020193733244
 31
0.0
  0
LINE
  5
1C5
100
AcDbEntity
  8
0
  6
CONTINUOUS
 62
               4
100
AcDbLine
 10
-40.997979788266605
 20
33.499999999999886
 30
0.0
 11
-40.997979788266605
 21
32.002020193733244
 31
0.0
  0
LINE
  5
1C6
100
AcDbEntity
  8
0
  6
CONTINUOUS
 62
               4
100
AcDbLine
 10
-37.398989891333315
 20
33.499999999999886
 30
0.0
 11
-37.398989891333315
 21
25.496969692399944
 31
0.0
  0
LINE
  5
1C7
100
AcDbEntity
  8
0
  6
CONTINUOUS
 62
               4
100
AcDbLine
 10
-35.603030296399936
 20
33.499999999999886
 30
0.0
 11
-35.603030296399936
 21
25.496969692399944
 31
0.0
  0
LINE
  5
1C8
100
AcDbEntity
  8
0
  6
CONTINUOUS
 62
               4
100
AcDbLine
 10
-34.005050499333322
 20
33.499999999999886
 30
0.0
 11
-38.098989890933296
 21
33.499999999999886
 31
0.0
  0
LINE
  5
1C9
100
AcDbEntity
  8
0
  6
CONTINUOUS
 62
               4
100
AcDbLine
 10
-34.005050499333322
 20
5.9999999999999147
 30
0.0
 11
-38.714141405733301
 21
8.1919191906666526
 31
0.0
  0
LINE
  5
1CA
100
AcDbEntity
  8
0
  6
CONTINUOUS
 62
               4
100
AcDbLine
 10
-39.004040395466689
 20
24.998989888133366
 30
0.0
 11
-39.004040395466689
 21
8.6444444429332634
 31
0.0
  0
LINE
  5
1CB
100
AcDbEntity
  8
0
  6
CONTINUOUS
 62
               4
100
AcDbLine
 10
-30.999999995999985
 20
25.49393938280005
 30
0.0
 11
-38.502020193733358
 21
25.49393938280005
 31
0.0
  0
LINE
  5
1CC
100
AcDbEntity
  8
0
  6
CONTINUOUS
 62
               4
100
AcDbLine
 10
-18.999999999999943
 20
26.900000000000063
 30
0.0
 11
-30.999999995999985
 21
26.900000000000063
 31
0.0
  0
LINE
  5
1CD
100
AcDbEntity
  8
0
  6
CONTINUOUS
 62
               4
100
AcDbLine
 10
-18.999999999999943
 20
28.500000000000028
 30
0.0
 11
-18.999999999999943
 21
26.900000000000063
 31
0.0
  0
ARC
  5
1CE
100
AcDbEntity
  8
0
  6
CONTINUOUS
 62
               4
100
AcDbCircle
 10
-17.500000004000015
 20
27.900000000000063
 30
0.0
 40
0.5
100
AcDbArc
 50
0.0
 51
89.999999999999815
  0
ARC
  5
1CF
100
AcDbEntity
  8
0
  6
CONTINUOUS
 62
               4
100
AcDbCircle
 10
-30.499999995999985
 20
27.900000000000063
 30
0.0
 40
0.5
100
AcDbArc
 50
93.919585899650798
 51
179.99999999999963
  0
ARC
  5
1D0
100
AcDbEntity
  8
0
  6
CONTINUOUS
 62
               4
100
AcDbCircle
 10
-30.201087915128198
 20
27.90108800512823
 30
0.0
 40
0.5989129231257409
100
AcDbArc
 50
89.895914524772735
 51
180.10408547522667
  0
ARC
  5
1D1
100
AcDbEntity
  8
0
  6
CONTINUOUS
 62
               4
100
AcDbCircle
 10
-17.799904943351351
 20
27.900095146648681
 30
0.0
 40
0.5999048008965869
100
AcDbArc
 50
56.247417870393882
 51
90.009087277546172
  0
LINE
  5
1D2
100
AcDbEntity
  8
0
  6
CONTINUOUS
 62
               4
100
AcDbLine
 10
-17.800000089999969
 20
28.500000000000028
 30
0.0
 11
-30.199999910000031
 21
28.500000000000028
 31
0.0
  0
LINE
  5
1D3
100
AcDbEntity
  8
0
  6
CONTINUOUS
 62
               4
100
AcDbLine
 10
-17.500000004000015
 20
28.400000000000063
 30
0.0
 11
-18.999999999999943
 21
28.400000000000063
 31
0.0
  0
LINE
  5
1D4
100
AcDbEntity
  8
0
  6
CONTINUOUS
 62
               4
100
AcDbLine
 10
-28.300000000000011
 20
27.900000000000063
 30
0.0
 11
-30.999999995999985
 21
27.900000000000063
 31
0.0
  0
LINE
  5
1D5
100
AcDbEntity
  8
0
  6
CONTINUOUS
 62
               4
100
AcDbLine
 10
-28.300000000000011
 20
28.500000000000028
 30
0.0
 11
-28.300000000000011
 21
27.900000000000063
 31
0.0
  0
LINE
  5
1D6
100
AcDbEntity
  8
0
  6
CONTINUOUS
 62
               4
100
AcDbLine
 10
-17.0
 20
6.0
 30
0.0
 11
-34.000002816526774
 21
6.0
 31
0.0
  0
LINE
  5
1D7
100
AcDbEntity
  8
0
  6
CONTINUOUS
 62
               4
100
AcDbLine
 10
-17.0
 20
27.900000000000006
 30
0.0
 11
-17.0
 21
6.0
 31
0.0
  0
LINE
  5
1D8
100
AcDbEntity
  8
0
  6
CONTINUOUS
 62
               4
100
AcDbLine
 10
-31.0
 20
6.0
 30
0.0
 11
-31.0
 21
27.899999994932273
 31
0.0
  0
LINE
  5
1D9
100
AcDbEntity
  8
0
  6
CONTINUOUS
 62
               4
100
AcDbLine
 10
-36.253535346533283
 20
44.494949488666578
 30
0.0
 11
-36.748484841199968
 21
44.494949488666578
 31
0.0
  0
LINE
  5
1DA
100
AcDbEntity
  8
0
  6
CONTINUOUS
 62
               4
100
AcDbLine
 10
-36.253535346533283
 20
-74.094949488666515
 30
0.0
 11
-36.748484841199968
 21
-74.094949488666515
 31
0.0
  0
LINE
  5
1DB
100
AcDbEntity
  8
0
  6
CONTINUOUS
 62
               4
100
AcDbLine
 10
-31.0
 20
-35.599999999999937
 30
0.0
 11
-31.0
 21
-57.49999999493221
 31
0.0
  0
LINE
  5
1DC
100
AcDbEntity
  8
0
  6
CONTINUOUS
 62
               4
100
AcDbLine
 10
-17.0
 20
-57.499999999999943
 30
0.0
 11
-17.0
 21
-35.599999999999937
 31
0.0
  0
LINE
  5
1DD
100
AcDbEntity
  8
0
  6
CONTINUOUS
 62
               4
100
AcDbLine
 10
-17.0
 20
-35.599999999999937
 30
0.0
 11
-34.000002816526774
 21
-35.599999999999937
 31
0.0
  0
LINE
  5
1DE
100
AcDbEntity
  8
0
  6
CONTINUOUS
 62
               4
100
AcDbLine
 10
-19.699999999999989
 20
-58.099999999999966
 30
0.0
 11
-19.699999999999989
 21
-57.5
 31
0.0
  0
LINE
  5
1DF
100
AcDbEntity
  8
0
  6
CONTINUOUS
 62
               4
100
AcDbLine
 10
-19.699999999999989
 20
-57.5
 30
0.0
 11
-17.000000004000015
 21
-57.5
 31
0.0
  0
LINE
  5
1E0
100
AcDbEntity
  8
0
  6
CONTINUOUS
 62
               4
100
AcDbLine
 10
-30.499999995999985
 20
-58.0
 30
0.0
 11
-29.000000000000057
 21
-58.0
 31
0.0
  0
LINE
  5
1E1
100
AcDbEntity
  8
0
  6
CONTINUOUS
 62
               4
100
AcDbLine
 10
-30.199999910000031
 20
-58.099999999999966
 30
0.0
 11
-17.800000089999969
 21
-58.099999999999966
 31
0.0
  0
ARC
  5
1E2
100
AcDbEntity
  8
0
  6
CONTINUOUS
 62
               4
100
AcDbCircle
 10
-30.200095056648649
 20
-57.500095146648619
 30
0.0
 40
0.5999048008965869
100
AcDbArc
 50
236.24741787039349
 51
270.00908727754575
  0
ARC
  5
1E3
100
AcDbEntity
  8
0
  6
CONTINUOUS
 62
               4
100
AcDbCircle
 10
-17.798912084871802
 20
-57.501088005128167
 30
0.0
 40
0.5989129231257409
100
AcDbArc
 50
269.89591452477231
 51
0.1040854752270701
  0
ARC
  5
1E4
100
AcDbEntity
  8
0
  6
CONTINUOUS
 62
               4
100
AcDbCircle
 10
-17.500000004000015
 20
-57.5
 30
0.0
 40
0.5
100
AcDbArc
 50
273.91958589965037
 51
0.0
  0
ARC
  5
1E5
100
AcDbEntity
  8
0
  6
CONTINUOUS
 62
               4
100
AcDbCircle
 10
-30.499999995999985
 20
-57.5
 30
0.0
 40
0.5
100
AcDbArc
 50
179.99999999999963
 51
269.99999999999937
  0
LINE
  5
1E6
100
AcDbEntity
  8
0
  6
CONTINUOUS
 62
               4
100
AcDbLine
 10
-29.000000000000057
 20
-58.099999999999966
 30
0.0
 11
-29.000000000000057
 21
-56.5
 31
0.0
  0
LINE
  5
1E7
100
AcDbEntity
  8
0
  6
CONTINUOUS
 62
               4
100
AcDbLine
 10
-29.000000000000057
 20
-56.5
 30
0.0
 11
-17.000000004000015
 21
-56.5
 31
0.0
  0
LINE
  5
1E8
100
AcDbEntity
  8
0
  6
CONTINUOUS
 62
               4
100
AcDbLine
 10
-30.999999995999985
 20
-55.093939382799988
 30
0.0
 11
-38.502020193733358
 21
-55.093939382799988
 31
0.0
  0
LINE
  5
1E9
100
AcDbEntity
  8
0
  6
CONTINUOUS
 62
               4
100
AcDbLine
 10
-39.004040395466689
 20
-54.598989888133303
 30
0.0
 11
-39.004040395466689
 21
-38.244444442933201
 31
0.0
  0
LINE
  5
1EA
100
AcDbEntity
  8
0
  6
CONTINUOUS
 62
               4
100
AcDbLine
 10
-34.005050499333322
 20
-35.599999999999852
 30
0.0
 11
-38.714141405733301
 21
-37.79191919066659
 31
0.0
  0
LINE
  5
1EB
100
AcDbEntity
  8
0
  6
CONTINUOUS
 62
               4
100
AcDbLine
 10
-34.005050499333322
 20
-63.099999999999824
 30
0.0
 11
-38.098989890933296
 21
-63.099999999999824
 31
0.0
  0
LINE
  5
1EC
100
AcDbEntity
  8
0
  6
CONTINUOUS
 62
               4
100
AcDbLine
 10
-35.603030296399936
 20
-63.099999999999824
 30
0.0
 11
-35.603030296399936
 21
-55.096969692399881
 31
0.0
  0
LINE
  5
1ED
100
AcDbEntity
  8
0
  6
CONTINUOUS
 62
               4
100
AcDbLine
 10
-37.398989891333315
 20
-63.099999999999824
 30
0.0
 11
-37.398989891333315
 21
-55.096969692399881
 31
0.0
  0
LINE
  5
1EE
100
AcDbEntity
  8
0
  6
CONTINUOUS
 62
               4
100
AcDbLine
 10
-40.997979788266605
 20
-63.099999999999824
 30
0.0
 11
-40.997979788266605
 21
-61.602020193733182
 31
0.0
  0
LINE
  5
1EF
100
AcDbEntity
  8
0
  6
CONTINUOUS
 62
               4
100
AcDbLine
 10
-40.099999990799972
 20
-56.496969691599844
 30
0.0
 11
-40.997979788266605
 21
-61.602020193733182
 31
0.0
  0
LINE
  5
1F0
100
AcDbEntity
  8
0
  6
CONTINUOUS
 62
               4
100
AcDbLine
 10
-40.001010091866704
 20
-63.099999999999824
 30
0.0
 11
-40.001010091866704
 21
-61.686868678533159
 31
0.0
  0
LINE
  5
1F1
100
AcDbEntity
  8
0
  6
CONTINUOUS
 62
               4
100
AcDbLine
 10
-40.001010091866704
 20
-63.099999999999824
 30
0.0
 11
-40.997979788266605
 21
-63.099999999999824
 31
0.0
  0
LINE
  5
1F2
100
AcDbEntity
  8
0
  6
CONTINUOUS
 62
               4
100
AcDbLine
 10
-38.89797978946666
 20
-55.4292929245332
 30
0.0
 11
-40.015151505999995
 21
-61.771717163333193
 31
0.0
  0
LINE
  5
1F3
100
AcDbEntity
  8
0
  6
CONTINUOUS
 62
               4
100
AcDbLine
 10
-39.103030294399957
 20
-54.099999995999866
 30
0.0
 11
-39.103030294399957
 21
-48.401010100266518
 31
0.0
  0
LINE
  5
1F4
100
AcDbEntity
  8
0
  6
CONTINUOUS
 62
               4
100
AcDbLine
 10
-38.098989890933296
 20
-63.099999999999824
 30
0.0
 11
-38.098989890933296
 21
-55.499999995199886
 31
0.0
  0
LINE
  5
1F5
100
AcDbEntity
  8
0
  6
CONTINUOUS
 62
               4
100
AcDbLine
 10
-38.403030294799976
 20
-62.795959596133144
 30
0.0
 11
-38.403030294799976
 21
-56.899999994399849
 31
0.0
  0
LINE
  5
1F6
100
AcDbEntity
  8
0
  6
CONTINUOUS
 62
               4
100
AcDbLine
 10
-38.098989890933296
 20
-63.099999999999824
 30
0.0
 11
-38.403030294799976
 21
-62.795959596133144
 31
0.0
  0
LINE
  5
1F7
100
AcDbEntity
  8
0
  6
CONTINUOUS
 62
               4
100
AcDbLine
 10
-34.005050499333322
 20
-62.096969688399867
 30
0.0
 11
-34.499999994000007
 21
-62.096969688399867
 31
0.0
  0
LINE
  5
1F8
100
AcDbEntity
  8
0
  6
CONTINUOUS
 62
               4
100
AcDbLine
 10
-34.005050499333322
 20
-57.0979797922665
 30
0.0
 11
-34.499999994000007
 21
-57.0979797922665
 31
0.0
  0
LINE
  5
1F9
100
AcDbEntity
  8
0
  6
CONTINUOUS
 62
               4
100
AcDbLine
 10
-38.098989890933296
 20
-56.595959590533226
 30
0.0
 11
-38.403030294799976
 21
-56.899999994399849
 31
0.0
  0
LINE
  5
1FA
100
AcDbEntity
  8
0
  6
CONTINUOUS
 62
               4
100
AcDbLine
 10
-40.099999990799972
 20
-56.496969691599844
 30
0.0
 11
-40.099999990799972
 21
-47.396969696799857
 31
0.0
  0
LINE
  5
1FB
100
AcDbEntity
  8
0
  6
CONTINUOUS
 62
               4
100
AcDbLine
 10
-39.103030294399957
 20
-47.099999999999824
 30
0.0
 11
-39.803030293999939
 21
-47.099999999999824
 31
0.0
  0
LINE
  5
1FC
100
AcDbEntity
  8
0
  6
CONTINUOUS
 62
               4
100
AcDbLine
 10
-39.004040395466689
 20
-48.401010100266518
 30
0.0
 11
-39.103030294399957
 21
-48.401010100266518
 31
0.0
  0
LINE
  5
1FD
100
AcDbEntity
  8
0
  6
CONTINUOUS
 62
               4
100
AcDbLine
 10
-39.004040395466689
 20
-47.198989898933149
 30
0.0
 11
-39.103030294399957
 21
-47.099999999999824
 31
0.0
  0
LINE
  5
1FE
100
AcDbEntity
  8
0
  6
CONTINUOUS
 62
               4
100
AcDbLine
 10
-35.850505043733335
 20
-67.667676765066489
 30
0.0
 11
-35.850505043733335
 21
-63.099999999999824
 31
0.0
  0
LINE
  5
1FF
100
AcDbEntity
  8
0
  6
CONTINUOUS
 62
               4
100
AcDbLine
 10
-37.15151514400003
 20
-70.594949490666494
 30
0.0
 11
-37.15151514400003
 21
-67.264646462266484
 31
0.0
  0
LINE
  5
200
100
AcDbEntity
  8
0
  6
CONTINUOUS
 62
               4
100
AcDbLine
 10
-35.850505043733335
 20
-70.594949490666494
 30
0.0
 11
-35.850505043733335
 21
-68.014141411333156
 31
0.0
  0
LINE
  5
201
100
AcDbEntity
  8
0
  6
CONTINUOUS
 62
               4
100
AcDbLine
 10
-35.850505043733335
 20
-70.594949490666494
 30
0.0
 11
-37.15151514400003
 21
-70.594949490666494
 31
0.0
  0
LINE
  5
202
100
AcDbEntity
  8
0
  6
CONTINUOUS
 62
               4
100
AcDbLine
 10
-36.253535346533283
 20
-74.094949488666515
 30
0.0
 11
-36.253535346533283
 21
-70.594949490666494
 31
0.0
  0
LINE
  5
203
100
AcDbEntity
  8
0
  6
CONTINUOUS
 62
               4
100
AcDbLine
 10
-36.748484841199968
 20
-74.094949488666515
 30
0.0
 11
-36.748484841199968
 21
-70.594949490666494
 31
0.0
  0
LINE
  5
204
100
AcDbEntity
  8
0
  6
CONTINUOUS
 62
             200
100
AcDbLine
 10
-37.999999992000028
 20
-66.769696967599856
 30
0.0
 11
-35.002020195733337
 21
-68.502020198933138
 31
0.0
  0
LINE
  5
205
100
AcDbEntity
  8
0
  6
CONTINUOUS
 62
             200
100
AcDbLine
 10
-37.999999992000028
 20
-66.423232321333188
 30
0.0
 11
-35.002020195733337
 21
-68.155555552666527
 31
0.0
  0
LINE
  5
206
100
AcDbEntity
  8
0
  6
CONTINUOUS
 62
               4
100
AcDbLine
 10
-37.15151514400003
 20
-66.918181815999816
 30
0.0
 11
-37.15151514400003
 21
-63.099999999999824
 31
0.0
  0
LINE
  5
207
100
AcDbEntity
  8
0
  6
CONTINUOUS
 62
               4
100
AcDbLine
 10
-34.005050499333322
 20
-63.099999999999824
 30
0.0
 11
-34.005050499333322
 21
-62.096969688399867
 31
0.0
  0
LINE
  5
208
100
AcDbEntity
  8
0
  6
CONTINUOUS
 62
               4
100
AcDbLine
 10
-34.005050499333322
 20
-57.0979797922665
 30
0.0
 11
-34.005050499333322
 21
-55.096969692399881
 31
0.0
  0
LINE
  5
209
100
AcDbEntity
  8
0
  6
CONTINUOUS
 62
               4
100
AcDbLine
 10
-34.499999994000007
 20
-62.096969688399867
 30
0.0
 11
-34.499999994000007
 21
-57.0979797922665
 31
0.0
  0
LINE
  5
20A
100
AcDbEntity
  8
0
  6
CONTINUOUS
 62
               4
100
AcDbLine
 10
-34.005050499333322
 20
-35.599999999999852
 30
0.0
 11
-34.005050499333322
 21
-55.093939382799988
 31
0.0
  0
ARC
  5
20B
100
AcDbEntity
  8
0
  6
CONTINUOUS
 62
               4
100
AcDbCircle
 10
-38.498033057569103
 20
-38.249484497491608
 30
0.0
 40
0.5060324378497572
100
AcDbArc
 50
115.28139190005248
 51
179.4293278301144
  0
ARC
  5
20C
100
AcDbEntity
  8
0
  6
CONTINUOUS
 62
               4
100
AcDbCircle
 10
-38.503834119278679
 20
-54.5937085147836
 30
0.0
 40
0.5002341568128574
100
AcDbArc
 50
180.6049287534631
 51
270.20776371315344
  0
ARC
  5
20D
100
AcDbEntity
  8
0
  6
CONTINUOUS
 62
               4
100
AcDbCircle
 10
-39.797896118091842
 20
-47.402103872708068
 30
0.0
 40
0.3021474965435785
100
AcDbArc
 50
90.973632984511639
 51
179.02636701548775
  0
ARC
  5
20E
100
AcDbEntity
  8
0
  6
CONTINUOUS
 62
               4
100
AcDbCircle
 10
-38.599986940866813
 20
-54.09730204304438
 30
0.0
 40
0.5030505883944908
100
AcDbArc
 50
180.30728929118945
 51
216.56260835465233
  0
ARC
  5
20F
100
AcDbEntity
  8
0
  6
CONTINUOUS
 62
               4
100
AcDbCircle
 10
-38.501921122697979
 20
-55.503476452093565
 30
0.0
 40
0.4029462287748787
100
AcDbArc
 50
0.4943309171552727
 51
169.39117201772518
  0
ENDBLK
  5
210
100
AcDbEntity
  8
0
100
AcDbBlockEnd
  0
BLOCK
  5
211
100
AcDbEntity
  8
0
100
AcDbBlockBegin
  2
EA10SA6-4
 70
               0
 10
0.0
 20
0.0
 30
0.0
  3
EA10SA6-4
  1

  0
LINE
  5
212
100
AcDbEntity
  8
0
  6
PHANTOM
 62
             200
100
AcDbLine
 10
16.200000000000017
 20
-0.7980029999999942
 30
0.0
 11
16.200000000000017
 21
-8.7980029999999942
 31
0.0
  0
LINE
  5
213
100
AcDbEntity
  8
0
  6
PHANTOM
 62
             200
100
AcDbLine
 10
14.200000000000017
 20
-0.7980029999999942
 30
0.0
 11
14.200000000000017
 21
-8.7980029999999942
 31
0.0
  0
LINE
  5
214
100
AcDbEntity
  8
0
  6
PHANTOM
 62
             200
100
AcDbLine
 10
16.700000000000017
 20
-1.2980029999999942
 30
0.0
 11
16.700000000000017
 21
-8.2980029999999942
 31
0.0
  0
ARC
  5
215
100
AcDbEntity
  8
0
  6
PHANTOM
 62
             200
100
AcDbCircle
 10
16.200000000000017
 20
-8.2980029999999942
 30
0.0
 40
0.5
100
AcDbArc
 50
269.99999999999937
 51
0.0
  0
ARC
  5
216
100
AcDbEntity
  8
0
  6
PHANTOM
 62
             200
100
AcDbCircle
 10
16.200000000000017
 20
-1.2980029999999942
 30
0.0
 40
0.5
100
AcDbArc
 50
0.0
 51
89.999999999999815
  0
ARC
  5
217
100
AcDbEntity
  8
0
  6
PHANTOM
 62
             200
100
AcDbCircle
 10
16.200000000000017
 20
-18.898003000000003
 30
0.0
 40
0.5
100
AcDbArc
 50
0.0
 51
89.999999999999815
  0
ARC
  5
218
100
AcDbEntity
  8
0
  6
PHANTOM
 62
             200
100
AcDbCircle
 10
16.200000000000017
 20
-25.898003000000003
 30
0.0
 40
0.5
100
AcDbArc
 50
269.99999999999937
 51
0.0
  0
LINE
  5
219
100
AcDbEntity
  8
0
  6
PHANTOM
 62
             200
100
AcDbLine
 10
16.700000000000017
 20
-18.898003000000003
 30
0.0
 11
16.700000000000017
 21
-25.898003000000003
 31
0.0
  0
LINE
  5
21A
100
AcDbEntity
  8
0
  6
PHANTOM
 62
             200
100
AcDbLine
 10
14.200000000000017
 20
-18.398003000000003
 30
0.0
 11
14.200000000000017
 21
-26.398003000000003
 31
0.0
  0
LINE
  5
21B
100
AcDbEntity
  8
0
  6
PHANTOM
 62
             200
100
AcDbLine
 10
16.200000000000017
 20
-18.398003000000003
 30
0.0
 11
16.200000000000017
 21
-26.398003000000003
 31
0.0
  0
LINE
  5
21C
100
AcDbEntity
  8
0
  6
PHANTOM
 62
             200
100
AcDbLine
 10
2.7000000000000028
 20
-8.7980029999999942
 30
0.0
 11
16.200000000000017
 21
-8.7980029999999942
 31
0.0
  0
LINE
  5
21D
100
AcDbEntity
  8
0
  6
PHANTOM
 62
             200
100
AcDbLine
 10
2.7000000000000028
 20
-0.7980029999999942
 30
0.0
 11
16.200000000000017
 21
-0.7980029999999942
 31
0.0
  0
LINE
  5
21E
100
AcDbEntity
  8
0
  6
CENTER
 62
               2
100
AcDbLine
 10
0.2162062056379739
 20
-4.7980029999999942
 30
0.0
 11
17.830000000000013
 21
-4.7980029999999942
 31
0.0
  0
LINE
  5
21F
100
AcDbEntity
  8
0
  6
PHANTOM
 62
             200
100
AcDbLine
 10
2.7000000000000028
 20
-26.398003000000003
 30
0.0
 11
16.200000000000017
 21
-26.398003000000003
 31
0.0
  0
LINE
  5
220
100
AcDbEntity
  8
0
  6
PHANTOM
 62
             200
100
AcDbLine
 10
2.7000000000000028
 20
-18.398003000000003
 30
0.0
 11
16.200000000000017
 21
-18.398003000000003
 31
0.0
  0
LINE
  5
221
100
AcDbEntity
  8
0
  6
CENTER
 62
               2
100
AcDbLine
 10
0.2162062056379739
 20
-22.398003000000003
 30
0.0
 11
17.830000000000013
 21
-22.398003000000003
 31
0.0
  0
LINE
  5
222
100
AcDbEntity
  8
0
  6
CONTINUOUS
 62
               7
100
AcDbLine
 10
-3.2999999999999972
 20
-32.299999999999997
 30
0.0
 11
2.7000000000000028
 21
-32.299999999999997
 31
0.0
  0
LINE
  5
223
100
AcDbEntity
  8
0
  6
CONTINUOUS
 62
               4
100
AcDbLine
 10
-13.299999999999997
 20
-35.599999999999767
 30
0.0
 11
-3.2999999999999972
 21
-35.599999999999767
 31
0.0
  0
LINE
  5
224
100
AcDbEntity
  8
0
  6
CONTINUOUS
 62
               7
100
AcDbLine
 10
-6.2999999999999972
 20
-31.599999999999767
 30
0.0
 11
-6.2999999999999972
 21
-35.599999999999767
 31
0.0
  0
LINE
  5
225
100
AcDbEntity
  8
0
  6
CONTINUOUS
 62
               7
100
AcDbLine
 10
-10.299999999999997
 20
-31.599999999999767
 30
0.0
 11
-10.299999999999997
 21
-35.599999999999767
 31
0.0
  0
LINE
  5
226
100
AcDbEntity
  8
0
  6
CONTINUOUS
 62
               7
100
AcDbLine
 10
-4.6999999999999744
 20
-31.599999999999767
 30
0.0
 11
-4.6999999999999744
 21
-35.599999999999767
 31
0.0
  0
LINE
  5
227
100
AcDbEntity
  8
0
  6
CONTINUOUS
 62
               7
100
AcDbLine
 10
-11.90000000000002
 20
-31.599999999999767
 30
0.0
 11
-11.90000000000002
 21
-35.599999999999767
 31
0.0
  0
ARC
  5
228
100
AcDbEntity
  8
0
  6
CONTINUOUS
 62
               7
100
AcDbCircle
 10
-8.2999999999999972
 20
-31.599999999999767
 30
0.0
 40
2.0
100
AcDbArc
 50
0.0
 51
179.99999999999963
  0
ARC
  5
229
100
AcDbEntity
  8
0
  6
CONTINUOUS
 62
               7
100
AcDbCircle
 10
-8.2999999999999972
 20
-31.599999999999767
 30
0.0
 40
3.6000000000000001
100
AcDbArc
 50
0.0
 51
179.99999999999963
  0
LINE
  5
22A
100
AcDbEntity
  8
0
  6
CENTER
 62
               2
100
AcDbLine
 10
-9.9999999999999858
 20
-33.299999999999784
 30
0.0
 11
-6.6000000000000085
 21
-33.299999999999784
 31
0.0
  0
CIRCLE
  5
22B
100
AcDbEntity
  8
0
  6
CONTINUOUS
 62
               7
100
AcDbCircle
 10
-8.2999999999999972
 20
-33.299999999999784
 30
0.0
 40
1.3000000000000012
  0
CIRCLE
  5
22C
100
AcDbEntity
  8
0
  6
CONTINUOUS
 62
               7
100
AcDbCircle
 10
-8.2999999999999972
 20
-33.299999999999784
 30
0.0
 40
1.1500000000000001
  0
CIRCLE
  5
22D
100
AcDbEntity
  8
0
  6
CONTINUOUS
 62
               7
100
AcDbCircle
 10
-8.2999999999999972
 20
-33.299999999999784
 30
0.0
 40
1.1000000000000001
  0
CIRCLE
  5
22E
100
AcDbEntity
  8
0
  6
CONTINUOUS
 62
               7
100
AcDbCircle
 10
-8.2999999999999972
 20
-33.299999999999784
 30
0.0
 40
0.75
  0
LINE
  5
22F
100
AcDbEntity
  8
0
  6
CONTINUOUS
 62
               4
100
AcDbLine
 10
-3.5300000000000153
 20
-54.601999999999791
 30
0.0
 11
-3.5300000000000153
 21
-38.299988328348306
 31
0.0
  0
LINE
  5
230
100
AcDbEntity
  8
0
  6
CONTINUOUS
 62
               4
100
AcDbLine
 10
-13.069999999999993
 20
-54.601999999999791
 30
0.0
 11
-13.069999999999979
 21
-38.299988328348519
 31
0.0
  0
LINE
  5
231
100
AcDbEntity
  8
0
  6
CONTINUOUS
 62
               4
100
AcDbLine
 10
-3.2999999999999972
 20
-58.099999999999795
 30
0.0
 11
-3.2999999999999972
 21
-35.599999999999767
 31
0.0
  0
LINE
  5
232
100
AcDbEntity
  8
0
  6
CONTINUOUS
 62
               4
100
AcDbLine
 10
-13.300000000000011
 20
-58.099999999999795
 30
0.0
 11
-13.299999999999997
 21
-35.599999999999767
 31
0.0
  0
LINE
  5
233
100
AcDbEntity
  8
0
  6
CONTINUOUS
 62
               4
100
AcDbLine
 10
-13.300000000000011
 20
-58.099999999999795
 30
0.0
 11
-3.2999999999999972
 21
-58.099999999999795
 31
0.0
  0
LINE
  5
234
100
AcDbEntity
  8
0
  6
CONTINUOUS
 62
               4
100
AcDbLine
 10
-13.300000000000011
 20
-56.499999999999773
 30
0.0
 11
-11.050000000000011
 21
-56.499999999999773
 31
0.0
  0
LINE
  5
235
100
AcDbEntity
  8
0
  6
CONTINUOUS
 62
               4
100
AcDbLine
 10
-10.100000000000023
 20
-57.999999999999773
 30
0.0
 11
-3.7999999999999972
 21
-57.999999999999773
 31
0.0
  0
LINE
  5
236
100
AcDbEntity
  8
0
  6
CONTINUOUS
 62
               4
100
AcDbLine
 10
-10.100000000000023
 20
-57.999999999999773
 30
0.0
 11
-10.100000000000023
 21
-57.201999999999785
 31
0.0
  0
ARC
  5
237
100
AcDbEntity
  8
0
  6
CONTINUOUS
 62
               4
100
AcDbCircle
 10
-3.7999999999999972
 20
-57.499999999999773
 30
0.0
 40
0.5
100
AcDbArc
 50
269.99999999999937
 51
0.0
  0
LINE
  5
238
100
AcDbEntity
  8
0
  6
CONTINUOUS
 62
               4
100
AcDbLine
 10
-13.300000000000011
 20
-57.499999999999773
 30
0.0
 11
-10.100000000000023
 21
-57.499999999999773
 31
0.0
  0
ARC
  5
239
100
AcDbEntity
  8
0
  6
CONTINUOUS
 62
               4
100
AcDbCircle
 10
-12.504095146658244
 20
-57.500095146657941
 30
0.0
 40
0.5999048608870732
100
AcDbArc
 50
179.99091272245337
 51
270.00908727754575
  0
ARC
  5
23A
100
AcDbEntity
  8
0
  6
CONTINUOUS
 62
               4
100
AcDbCircle
 10
-10.702911994762985
 20
-57.501088005236795
 30
0.0
 40
0.5989129830170392
100
AcDbArc
 50
269.89591452477231
 51
0.1040854752270701
  0
LINE
  5
23B
100
AcDbEntity
  8
0
  6
CONTINUOUS
 62
               4
100
AcDbLine
 10
-11.050000000000011
 20
-57.201999999999785
 30
0.0
 11
-11.050000000000011
 21
-53.501999999999768
 31
0.0
  0
LINE
  5
23C
100
AcDbEntity
  8
0
  6
CONTINUOUS
 62
               4
100
AcDbLine
 10
-5.4500000000000099
 20
-50.101999999999791
 30
0.0
 11
-11.150000000000006
 21
-50.101999999999791
 31
0.0
  0
LINE
  5
23D
100
AcDbEntity
  8
0
  6
CONTINUOUS
 62
               4
100
AcDbLine
 10
-5.8799999999999883
 20
-54.501999999999768
 30
0.0
 11
-10.710000000000008
 21
-54.501999999999768
 31
0.0
  0
LINE
  5
23E
100
AcDbEntity
  8
0
  6
CONTINUOUS
 62
               4
100
AcDbLine
 10
-5.5800000000000054
 20
-54.201999999999785
 30
0.0
 11
-11.009999999999991
 21
-54.201999999999785
 31
0.0
  0
LINE
  5
23F
100
AcDbEntity
  8
0
  6
CONTINUOUS
 62
               4
100
AcDbLine
 10
-5.5500000000000043
 20
-55.201999999999785
 30
0.0
 11
-11.050000000000011
 21
-55.201999999999785
 31
0.0
  0
LINE
  5
240
100
AcDbEntity
  8
0
  6
CONTINUOUS
 62
               4
100
AcDbLine
 10
-5.5500000000000043
 20
-50.201999999999785
 30
0.0
 11
-11.050000000000011
 21
-50.201999999999785
 31
0.0
  0
ARC
  5
241
100
AcDbEntity
  8
0
  6
CONTINUOUS
 62
               4
100
AcDbCircle
 10
-12.800004577522657
 20
-54.602004577522408
 30
0.0
 40
0.4999954224983215
100
AcDbArc
 50
179.99947544974253
 51
270.00052455025644
  0
LINE
  5
242
100
AcDbEntity
  8
0
  6
CONTINUOUS
 62
               4
100
AcDbLine
 10
-11.050000000000011
 20
-55.101999999999791
 30
0.0
 11
-12.800000000000011
 21
-55.101999999999791
 31
0.0
  0
LINE
  5
243
100
AcDbEntity
  8
0
  6
CONTINUOUS
 62
               4
100
AcDbLine
 10
-8.6000000000000156
 20
-53.851999999999791
 30
0.0
 11
-8.6000000000000156
 21
-51.751999999999768
 31
0.0
  0
LINE
  5
244
100
AcDbEntity
  8
0
  6
CONTINUOUS
 62
               4
100
AcDbLine
 10
-9.0500000000000043
 20
-51.751999999999768
 30
0.0
 11
-9.0500000000000043
 21
-51.451999999999785
 31
0.0
  0
ARC
  5
245
100
AcDbEntity
  8
0
  6
CONTINUOUS
 62
               4
100
AcDbCircle
 10
-12.569999084445755
 20
-54.601999084445524
 30
0.0
 40
0.5000009155550945
100
AcDbArc
 50
180.00010491459673
 51
269.99989508540227
  0
LINE
  5
246
100
AcDbEntity
  8
0
  6
CONTINUOUS
 62
               4
100
AcDbLine
 10
-12.050000000000011
 20
-51.701999999999785
 30
0.0
 11
-12.050000000000011
 21
-53.501999999999768
 31
0.0
  0
LINE
  5
247
100
AcDbEntity
  8
0
  6
CONTINUOUS
 62
               4
100
AcDbLine
 10
-12.150000000000006
 20
-53.601999999999791
 30
0.0
 11
-12.150000000000006
 21
-51.601999999999791
 31
0.0
  0
LINE
  5
248
100
AcDbEntity
  8
0
  6
CONTINUOUS
 62
               4
100
AcDbLine
 10
-11.150000000000006
 20
-51.601999999999791
 30
0.0
 11
-11.150000000000006
 21
-50.101999999999791
 31
0.0
  0
LINE
  5
249
100
AcDbEntity
  8
0
  6
CONTINUOUS
 62
               4
100
AcDbLine
 10
-11.150000000000006
 20
-55.101999999999791
 30
0.0
 11
-11.150000000000006
 21
-53.601999999999791
 31
0.0
  0
LINE
  5
24A
100
AcDbEntity
  8
0
  6
CONTINUOUS
 62
               4
100
AcDbLine
 10
-10.5
 20
-53.851999999999791
 30
0.0
 11
-10.5
 21
-51.751999999999768
 31
0.0
  0
LINE
  5
24B
100
AcDbEntity
  8
0
  6
CONTINUOUS
 62
               4
100
AcDbLine
 10
-11.009999999999991
 20
-54.201999999999785
 30
0.0
 11
-10.710000000000008
 21
-54.501999999999768
 31
0.0
  0
LINE
  5
24C
100
AcDbEntity
  8
0
  6
CONTINUOUS
 62
               4
100
AcDbLine
 10
-10.050000000000011
 20
-51.751999999999768
 30
0.0
 11
-10.050000000000011
 21
-51.451999999999785
 31
0.0
  0
LINE
  5
24D
100
AcDbEntity
  8
0
  6
CONTINUOUS
 62
               4
100
AcDbLine
 10
-11.050000000000011
 20
-51.701999999999785
 30
0.0
 11
-11.050000000000011
 21
-50.201999999999785
 31
0.0
  0
LINE
  5
24E
100
AcDbEntity
  8
0
  6
CONTINUOUS
 62
               4
100
AcDbLine
 10
-9.0500000000000043
 20
-51.451999999999785
 30
0.0
 11
-10.050000000000011
 21
-51.451999999999785
 31
0.0
  0
LINE
  5
24F
100
AcDbEntity
  8
0
  6
CONTINUOUS
 62
               4
100
AcDbLine
 10
-11.050000000000011
 20
-51.701999999999785
 30
0.0
 11
-12.050000000000011
 21
-51.701999999999785
 31
0.0
  0
LINE
  5
250
100
AcDbEntity
  8
0
  6
CONTINUOUS
 62
               4
100
AcDbLine
 10
-11.050000000000011
 20
-53.501999999999768
 30
0.0
 11
-12.050000000000011
 21
-53.501999999999768
 31
0.0
  0
LINE
  5
251
100
AcDbEntity
  8
0
  6
CONTINUOUS
 62
               4
100
AcDbLine
 10
-8.6000000000000156
 20
-53.651999999999774
 30
0.0
 11
-10.5
 21
-53.651999999999774
 31
0.0
  0
LINE
  5
252
100
AcDbEntity
  8
0
  6
CONTINUOUS
 62
               4
100
AcDbLine
 10
-8.6000000000000156
 20
-51.751999999999768
 30
0.0
 11
-10.5
 21
-51.751999999999768
 31
0.0
  0
LINE
  5
253
100
AcDbEntity
  8
0
  6
CONTINUOUS
 62
               4
100
AcDbLine
 10
-8.6000000000000156
 20
-53.851999999999791
 30
0.0
 11
-10.5
 21
-53.851999999999791
 31
0.0
  0
LINE
  5
254
100
AcDbEntity
  8
0
  6
CONTINUOUS
 62
               4
100
AcDbLine
 10
-11.150000000000006
 20
-53.601999999999791
 30
0.0
 11
-12.150000000000006
 21
-53.601999999999791
 31
0.0
  0
LINE
  5
255
100
AcDbEntity
  8
0
  6
CONTINUOUS
 62
               4
100
AcDbLine
 10
-11.150000000000006
 20
-51.601999999999791
 30
0.0
 11
-12.150000000000006
 21
-51.601999999999791
 31
0.0
  0
CIRCLE
  5
256
100
AcDbEntity
  8
0
  6
CONTINUOUS
 62
               4
100
AcDbCircle
 10
-9.5500000000000114
 20
-52.701984741210723
 30
0.0
 40
0.8499675393104553
  0
LINE
  5
257
100
AcDbEntity
  8
0
  6
CONTINUOUS
 62
               4
100
AcDbLine
 10
-5.5500000000000043
 20
-56.201999999999785
 30
0.0
 11
-11.050000000000011
 21
-56.201999999999785
 31
0.0
  0
LINE
  5
258
100
AcDbEntity
  8
0
  6
CONTINUOUS
 62
               4
100
AcDbLine
 10
-5.5500000000000043
 20
-57.201999999999785
 30
0.0
 11
-11.050000000000011
 21
-57.201999999999785
 31
0.0
  0
LINE
  5
259
100
AcDbEntity
  8
0
  6
CONTINUOUS
 62
               4
100
AcDbLine
 10
-5.5500000000000043
 20
-57.201999999999785
 30
0.0
 11
-5.5500000000000043
 21
-53.501999999999768
 31
0.0
  0
LINE
  5
25A
100
AcDbEntity
  8
0
  6
CONTINUOUS
 62
               4
100
AcDbLine
 10
-6.1000000000000156
 20
-51.751999999999768
 30
0.0
 11
-7.9999999999999929
 21
-51.751999999999768
 31
0.0
  0
LINE
  5
25B
100
AcDbEntity
  8
0
  6
CONTINUOUS
 62
               4
100
AcDbLine
 10
-6.5500000000000043
 20
-51.451999999999785
 30
0.0
 11
-7.5500000000000043
 21
-51.451999999999785
 31
0.0
  0
LINE
  5
25C
100
AcDbEntity
  8
0
  6
CONTINUOUS
 62
               4
100
AcDbLine
 10
-4.5499999999999972
 20
-51.701999999999785
 30
0.0
 11
-5.5500000000000043
 21
-51.701999999999785
 31
0.0
  0
LINE
  5
25D
100
AcDbEntity
  8
0
  6
CONTINUOUS
 62
               4
100
AcDbLine
 10
-6.1000000000000156
 20
-53.851999999999791
 30
0.0
 11
-6.1000000000000156
 21
-51.751999999999768
 31
0.0
  0
LINE
  5
25E
100
AcDbEntity
  8
0
  6
CONTINUOUS
 62
               4
100
AcDbLine
 10
-4.4500000000000028
 20
-51.601999999999791
 30
0.0
 11
-5.4500000000000099
 21
-51.601999999999791
 31
0.0
  0
CIRCLE
  5
25F
100
AcDbEntity
  8
0
  6
CONTINUOUS
 62
               4
100
AcDbCircle
 10
-7.0500000000000043
 20
-52.701984741210723
 30
0.0
 40
0.8499675393104553
  0
LINE
  5
260
100
AcDbEntity
  8
0
  6
CONTINUOUS
 62
               4
100
AcDbLine
 10
-5.4500000000000099
 20
-51.601999999999791
 30
0.0
 11
-5.4500000000000099
 21
-50.101999999999791
 31
0.0
  0
LINE
  5
261
100
AcDbEntity
  8
0
  6
CONTINUOUS
 62
               4
100
AcDbLine
 10
-6.5500000000000043
 20
-51.751999999999768
 30
0.0
 11
-6.5500000000000043
 21
-51.451999999999785
 31
0.0
  0
LINE
  5
262
100
AcDbEntity
  8
0
  6
CONTINUOUS
 62
               4
100
AcDbLine
 10
-5.5500000000000043
 20
-51.701999999999785
 30
0.0
 11
-5.5500000000000043
 21
-50.201999999999785
 31
0.0
  0
LINE
  5
263
100
AcDbEntity
  8
0
  6
CONTINUOUS
 62
               4
100
AcDbLine
 10
-4.5499999999999972
 20
-53.501999999999768
 30
0.0
 11
-5.5500000000000043
 21
-53.501999999999768
 31
0.0
  0
LINE
  5
264
100
AcDbEntity
  8
0
  6
CONTINUOUS
 62
               4
100
AcDbLine
 10
-4.5499999999999972
 20
-51.701999999999785
 30
0.0
 11
-4.5499999999999972
 21
-53.501999999999768
 31
0.0
  0
LINE
  5
265
100
AcDbEntity
  8
0
  6
CONTINUOUS
 62
               4
100
AcDbLine
 10
-4.4500000000000028
 20
-53.601999999999791
 30
0.0
 11
-4.4500000000000028
 21
-51.601999999999791
 31
0.0
  0
LINE
  5
266
100
AcDbEntity
  8
0
  6
CONTINUOUS
 62
               4
100
AcDbLine
 10
-4.4500000000000028
 20
-53.601999999999791
 30
0.0
 11
-5.4500000000000099
 21
-53.601999999999791
 31
0.0
  0
LINE
  5
267
100
AcDbEntity
  8
0
  6
CONTINUOUS
 62
               4
100
AcDbLine
 10
-5.5500000000000043
 20
-54.161999999999793
 30
0.0
 11
-5.8799999999999883
 21
-54.501999999999768
 31
0.0
  0
LINE
  5
268
100
AcDbEntity
  8
0
  6
CONTINUOUS
 62
               4
100
AcDbLine
 10
-5.4500000000000099
 20
-55.101999999999791
 30
0.0
 11
-5.4500000000000099
 21
-53.601999999999791
 31
0.0
  0
LINE
  5
269
100
AcDbEntity
  8
0
  6
CONTINUOUS
 62
               4
100
AcDbLine
 10
-7.9999999999999929
 20
-53.851999999999791
 30
0.0
 11
-7.9999999999999929
 21
-51.751999999999768
 31
0.0
  0
LINE
  5
26A
100
AcDbEntity
  8
0
  6
CONTINUOUS
 62
               4
100
AcDbLine
 10
-7.5500000000000043
 20
-51.751999999999768
 30
0.0
 11
-7.5500000000000043
 21
-51.451999999999785
 31
0.0
  0
LINE
  5
26B
100
AcDbEntity
  8
0
  6
CONTINUOUS
 62
               4
100
AcDbLine
 10
-6.1000000000000156
 20
-53.851999999999791
 30
0.0
 11
-7.9999999999999929
 21
-53.851999999999791
 31
0.0
  0
LINE
  5
26C
100
AcDbEntity
  8
0
  6
CONTINUOUS
 62
               4
100
AcDbLine
 10
-6.1000000000000156
 20
-53.651999999999774
 30
0.0
 11
-7.9999999999999929
 21
-53.651999999999774
 31
0.0
  0
LINE
  5
26D
100
AcDbEntity
  8
0
  6
PHANTOM
 62
             200
100
AcDbLine
 10
-6.7999999999999972
 20
-43.101999999999762
 30
0.0
 11
-9.7999999999999972
 21
-43.101999999999762
 31
0.0
  0
LINE
  5
26E
100
AcDbEntity
  8
0
  6
PHANTOM
 62
             200
100
AcDbLine
 10
-6.7999999999999972
 20
-41.101999999999762
 30
0.0
 11
-9.7999999999999972
 21
-41.101999999999762
 31
0.0
  0
LINE
  5
26F
100
AcDbEntity
  8
0
  6
PHANTOM
 62
             200
100
AcDbLine
 10
-9.7999999999999972
 20
-43.101999999999762
 30
0.0
 11
-9.7999999999999972
 21
-41.101999999999762
 31
0.0
  0
LINE
  5
270
100
AcDbEntity
  8
0
  6
PHANTOM
 62
             200
100
AcDbLine
 10
-6.7999999999999972
 20
-43.101999999999762
 30
0.0
 11
-6.7999999999999972
 21
-41.101999999999762
 31
0.0
  0
ARC
  5
271
100
AcDbEntity
  8
0
  6
CONTINUOUS
 62
               4
100
AcDbCircle
 10
-3.8000106811733048
 20
-54.601989318826483
 30
0.0
 40
0.5000106812873828
100
AcDbArc
 50
270.00122394615283
 51
359.99877605384501
  0
ARC
  5
272
100
AcDbEntity
  8
0
  6
CONTINUOUS
 62
               4
100
AcDbCircle
 10
-4.030000915554254
 20
-54.601999084445524
 30
0.0
 40
0.5000009155550945
100
AcDbArc
 50
270.00010491459648
 51
359.99989508540216
  0
LINE
  5
273
100
AcDbEntity
  8
0
  6
CONTINUOUS
 62
               4
100
AcDbLine
 10
-3.7999999999999972
 20
-55.101999999999791
 30
0.0
 11
-5.5500000000000043
 21
-55.101999999999791
 31
0.0
  0
LINE
  5
274
100
AcDbEntity
  8
0
  6
CONTINUOUS
 62
               4
100
AcDbLine
 10
-4.0300000000000153
 20
-37.799988328347879
 30
0.0
 11
-12.569999999999979
 21
-37.799988328347879
 31
0.0
  0
ARC
  5
275
100
AcDbEntity
  8
0
  6
CONTINUOUS
 62
               4
100
AcDbCircle
 10
-4.0311974244897186
 20
-38.301185752837583
 30
0.0
 40
0.5011988548874781
100
AcDbArc
 50
0.1368866551550224
 51
89.863113344844777
  0
ARC
  5
276
100
AcDbEntity
  8
0
  6
CONTINUOUS
 62
               4
100
AcDbCircle
 10
-12.568802575510276
 20
-38.301185752837583
 30
0.0
 40
0.5011988548874781
100
AcDbArc
 50
90.136886655154825
 51
179.86311334484458
  0
LINE
  5
277
100
AcDbEntity
  8
0
  6
CONTINUOUS
 62
               7
100
AcDbLine
 10
-13.299999999999997
 20
-23.899999999999764
 30
0.0
 11
-13.299999999999997
 21
-35.599999999999767
 31
0.0
  0
LINE
  5
278
100
AcDbEntity
  8
0
  6
CONTINUOUS
 62
               7
100
AcDbLine
 10
-3.2999999999999972
 20
-23.899999999999764
 30
0.0
 11
-3.2999999999999972
 21
-35.599999999999767
 31
0.0
  0
ARC
  5
279
100
AcDbEntity
  8
0
  6
CONTINUOUS
 62
               4
100
AcDbCircle
 10
-4.0311974244897186
 20
8.6991888916076761
 30
0.0
 40
0.5011988548874781
100
AcDbArc
 50
270.1368866551544
 51
359.86311334484418
  0
ARC
  5
27A
100
AcDbEntity
  8
0
  6
CONTINUOUS
 62
               4
100
AcDbCircle
 10
-12.568802575510276
 20
8.6991888916076761
 30
0.0
 40
0.5011988548874781
100
AcDbArc
 50
180.13688665515463
 51
269.86311334484435
  0
LINE
  5
27B
100
AcDbEntity
  8
0
  6
CONTINUOUS
 62
               4
100
AcDbLine
 10
-12.569999999999979
 20
8.1979914671179728
 30
0.0
 11
-4.0300000000000153
 21
8.1979914671179728
 31
0.0
  0
LINE
  5
27C
100
AcDbEntity
  8
0
  6
CONTINUOUS
 62
               4
100
AcDbLine
 10
-12.799999999999997
 20
25.502000138769883
 30
0.0
 11
-11.049999999999997
 21
25.502000138769883
 31
0.0
  0
ARC
  5
27D
100
AcDbEntity
  8
0
  6
CONTINUOUS
 62
               4
100
AcDbCircle
 10
-12.56999908444574
 20
25.001999223215616
 30
0.0
 40
0.5000009155550945
100
AcDbArc
 50
90.000104914596918
 51
179.99989508540253
  0
ARC
  5
27E
100
AcDbEntity
  8
0
  6
CONTINUOUS
 62
               4
100
AcDbCircle
 10
-12.79998931882669
 20
25.001989457596576
 30
0.0
 40
0.5000106812873828
100
AcDbArc
 50
90.001223946153175
 51
179.9987760538454
  0
LINE
  5
27F
100
AcDbEntity
  8
0
  6
PHANTOM
 62
             200
100
AcDbLine
 10
-9.7999999999999972
 20
13.502000138769858
 30
0.0
 11
-9.7999999999999972
 21
11.502000138769858
 31
0.0
  0
LINE
  5
280
100
AcDbEntity
  8
0
  6
PHANTOM
 62
             200
100
AcDbLine
 10
-6.7999999999999972
 20
13.502000138769858
 30
0.0
 11
-6.7999999999999972
 21
11.502000138769858
 31
0.0
  0
LINE
  5
281
100
AcDbEntity
  8
0
  6
PHANTOM
 62
             200
100
AcDbLine
 10
-9.7999999999999972
 20
11.502000138769858
 30
0.0
 11
-6.7999999999999972
 21
11.502000138769858
 31
0.0
  0
LINE
  5
282
100
AcDbEntity
  8
0
  6
PHANTOM
 62
             200
100
AcDbLine
 10
-9.7999999999999972
 20
13.502000138769858
 30
0.0
 11
-6.7999999999999972
 21
13.502000138769858
 31
0.0
  0
LINE
  5
283
100
AcDbEntity
  8
0
  6
CONTINUOUS
 62
               4
100
AcDbLine
 10
-10.499999999999986
 20
24.052000138769866
 30
0.0
 11
-8.6000000000000085
 21
24.052000138769866
 31
0.0
  0
LINE
  5
284
100
AcDbEntity
  8
0
  6
CONTINUOUS
 62
               4
100
AcDbLine
 10
-10.499999999999986
 20
24.252000138769883
 30
0.0
 11
-8.6000000000000085
 21
24.252000138769883
 31
0.0
  0
LINE
  5
285
100
AcDbEntity
  8
0
  6
CONTINUOUS
 62
               4
100
AcDbLine
 10
-9.0499999999999972
 20
22.152000138769861
 30
0.0
 11
-9.0499999999999972
 21
21.852000138769878
 31
0.0
  0
LINE
  5
286
100
AcDbEntity
  8
0
  6
CONTINUOUS
 62
               4
100
AcDbLine
 10
-8.6000000000000085
 20
24.252000138769883
 30
0.0
 11
-8.6000000000000085
 21
22.152000138769861
 31
0.0
  0
LINE
  5
287
100
AcDbEntity
  8
0
  6
CONTINUOUS
 62
               4
100
AcDbLine
 10
-11.149999999999991
 20
25.502000138769883
 30
0.0
 11
-11.149999999999991
 21
24.002000138769883
 31
0.0
  0
LINE
  5
288
100
AcDbEntity
  8
0
  6
CONTINUOUS
 62
               4
100
AcDbLine
 10
-11.049999999999997
 20
24.562000138769886
 30
0.0
 11
-10.720000000000013
 21
24.902000138769861
 31
0.0
  0
LINE
  5
289
100
AcDbEntity
  8
0
  6
CONTINUOUS
 62
               4
100
AcDbLine
 10
-12.149999999999991
 20
24.002000138769883
 30
0.0
 11
-11.149999999999991
 21
24.002000138769883
 31
0.0
  0
LINE
  5
28A
100
AcDbEntity
  8
0
  6
CONTINUOUS
 62
               4
100
AcDbLine
 10
-12.149999999999991
 20
24.002000138769883
 30
0.0
 11
-12.149999999999991
 21
22.002000138769883
 31
0.0
  0
LINE
  5
28B
100
AcDbEntity
  8
0
  6
CONTINUOUS
 62
               4
100
AcDbLine
 10
-12.049999999999997
 20
22.102000138769878
 30
0.0
 11
-12.049999999999997
 21
23.902000138769861
 31
0.0
  0
LINE
  5
28C
100
AcDbEntity
  8
0
  6
CONTINUOUS
 62
               4
100
AcDbLine
 10
-12.049999999999997
 20
23.902000138769861
 30
0.0
 11
-11.049999999999997
 21
23.902000138769861
 31
0.0
  0
LINE
  5
28D
100
AcDbEntity
  8
0
  6
CONTINUOUS
 62
               4
100
AcDbLine
 10
-11.049999999999997
 20
22.102000138769878
 30
0.0
 11
-11.049999999999997
 21
20.602000138769878
 31
0.0
  0
LINE
  5
28E
100
AcDbEntity
  8
0
  6
CONTINUOUS
 62
               4
100
AcDbLine
 10
-10.049999999999997
 20
22.152000138769861
 30
0.0
 11
-10.049999999999997
 21
21.852000138769878
 31
0.0
  0
LINE
  5
28F
100
AcDbEntity
  8
0
  6
CONTINUOUS
 62
               4
100
AcDbLine
 10
-11.149999999999991
 20
22.002000138769883
 30
0.0
 11
-11.149999999999991
 21
20.502000138769883
 31
0.0
  0
CIRCLE
  5
290
100
AcDbEntity
  8
0
  6
CONTINUOUS
 62
               4
100
AcDbCircle
 10
-9.5499999999999972
 20
23.101984879980815
 30
0.0
 40
0.8499675393104553
  0
LINE
  5
291
100
AcDbEntity
  8
0
  6
CONTINUOUS
 62
               4
100
AcDbLine
 10
-12.149999999999991
 20
22.002000138769883
 30
0.0
 11
-11.149999999999991
 21
22.002000138769883
 31
0.0
  0
LINE
  5
292
100
AcDbEntity
  8
0
  6
CONTINUOUS
 62
               4
100
AcDbLine
 10
-10.499999999999986
 20
24.252000138769883
 30
0.0
 11
-10.499999999999986
 21
22.152000138769861
 31
0.0
  0
LINE
  5
293
100
AcDbEntity
  8
0
  6
CONTINUOUS
 62
               4
100
AcDbLine
 10
-12.049999999999997
 20
22.102000138769878
 30
0.0
 11
-11.049999999999997
 21
22.102000138769878
 31
0.0
  0
LINE
  5
294
100
AcDbEntity
  8
0
  6
CONTINUOUS
 62
               4
100
AcDbLine
 10
-10.049999999999997
 20
21.852000138769878
 30
0.0
 11
-9.0499999999999972
 21
21.852000138769878
 31
0.0
  0
LINE
  5
295
100
AcDbEntity
  8
0
  6
CONTINUOUS
 62
               4
100
AcDbLine
 10
-10.499999999999986
 20
22.152000138769861
 30
0.0
 11
-8.6000000000000085
 21
22.152000138769861
 31
0.0
  0
LINE
  5
296
100
AcDbEntity
  8
0
  6
CONTINUOUS
 62
               4
100
AcDbLine
 10
-11.049999999999997
 20
27.602000138769878
 30
0.0
 11
-11.049999999999997
 21
23.902000138769861
 31
0.0
  0
LINE
  5
297
100
AcDbEntity
  8
0
  6
CONTINUOUS
 62
               4
100
AcDbLine
 10
-11.049999999999997
 20
27.602000138769878
 30
0.0
 11
-5.5499999999999972
 21
27.602000138769878
 31
0.0
  0
LINE
  5
298
100
AcDbEntity
  8
0
  6
CONTINUOUS
 62
               4
100
AcDbLine
 10
-11.049999999999997
 20
26.602000138769878
 30
0.0
 11
-5.5499999999999972
 21
26.602000138769878
 31
0.0
  0
CIRCLE
  5
299
100
AcDbEntity
  8
0
  6
CONTINUOUS
 62
               4
100
AcDbCircle
 10
-7.0499999999999972
 20
23.101984879980815
 30
0.0
 40
0.8499675393104553
  0
LINE
  5
29A
100
AcDbEntity
  8
0
  6
CONTINUOUS
 62
               4
100
AcDbLine
 10
-5.4500000000000028
 20
22.002000138769883
 30
0.0
 11
-4.4500000000000028
 21
22.002000138769883
 31
0.0
  0
LINE
  5
29B
100
AcDbEntity
  8
0
  6
CONTINUOUS
 62
               4
100
AcDbLine
 10
-5.4500000000000028
 20
24.002000138769883
 30
0.0
 11
-4.4500000000000028
 21
24.002000138769883
 31
0.0
  0
LINE
  5
29C
100
AcDbEntity
  8
0
  6
CONTINUOUS
 62
               4
100
AcDbLine
 10
-7.9999999999999858
 20
24.252000138769883
 30
0.0
 11
-6.1000000000000085
 21
24.252000138769883
 31
0.0
  0
LINE
  5
29D
100
AcDbEntity
  8
0
  6
CONTINUOUS
 62
               4
100
AcDbLine
 10
-7.9999999999999858
 20
22.152000138769861
 30
0.0
 11
-6.1000000000000085
 21
22.152000138769861
 31
0.0
  0
LINE
  5
29E
100
AcDbEntity
  8
0
  6
CONTINUOUS
 62
               4
100
AcDbLine
 10
-7.9999999999999858
 20
24.052000138769866
 30
0.0
 11
-6.1000000000000085
 21
24.052000138769866
 31
0.0
  0
LINE
  5
29F
100
AcDbEntity
  8
0
  6
CONTINUOUS
 62
               4
100
AcDbLine
 10
-5.5499999999999972
 20
23.902000138769861
 30
0.0
 11
-4.5499999999999972
 21
23.902000138769861
 31
0.0
  0
LINE
  5
2A0
100
AcDbEntity
  8
0
  6
CONTINUOUS
 62
               4
100
AcDbLine
 10
-5.5499999999999972
 20
22.102000138769878
 30
0.0
 11
-4.5499999999999972
 21
22.102000138769878
 31
0.0
  0
LINE
  5
2A1
100
AcDbEntity
  8
0
  6
CONTINUOUS
 62
               4
100
AcDbLine
 10
-7.5499999999999972
 20
21.852000138769878
 30
0.0
 11
-6.5499999999999972
 21
21.852000138769878
 31
0.0
  0
LINE
  5
2A2
100
AcDbEntity
  8
0
  6
CONTINUOUS
 62
               4
100
AcDbLine
 10
-5.5499999999999972
 20
22.102000138769878
 30
0.0
 11
-5.5499999999999972
 21
20.602000138769878
 31
0.0
  0
LINE
  5
2A3
100
AcDbEntity
  8
0
  6
CONTINUOUS
 62
               4
100
AcDbLine
 10
-6.5499999999999972
 20
22.152000138769861
 30
0.0
 11
-6.5499999999999972
 21
21.852000138769878
 31
0.0
  0
LINE
  5
2A4
100
AcDbEntity
  8
0
  6
CONTINUOUS
 62
               4
100
AcDbLine
 10
-5.5900000000000176
 20
24.602000138769878
 30
0.0
 11
-5.8900000000000006
 21
24.902000138769861
 31
0.0
  0
LINE
  5
2A5
100
AcDbEntity
  8
0
  6
CONTINUOUS
 62
               4
100
AcDbLine
 10
-6.1000000000000085
 20
24.252000138769883
 30
0.0
 11
-6.1000000000000085
 21
22.152000138769861
 31
0.0
  0
LINE
  5
2A6
100
AcDbEntity
  8
0
  6
CONTINUOUS
 62
               4
100
AcDbLine
 10
-5.4500000000000028
 20
25.502000138769883
 30
0.0
 11
-5.4500000000000028
 21
24.002000138769883
 31
0.0
  0
LINE
  5
2A7
100
AcDbEntity
  8
0
  6
CONTINUOUS
 62
               4
100
AcDbLine
 10
-5.4500000000000028
 20
22.002000138769883
 30
0.0
 11
-5.4500000000000028
 21
20.502000138769883
 31
0.0
  0
LINE
  5
2A8
100
AcDbEntity
  8
0
  6
CONTINUOUS
 62
               4
100
AcDbLine
 10
-4.4500000000000028
 20
24.002000138769883
 30
0.0
 11
-4.4500000000000028
 21
22.002000138769883
 31
0.0
  0
LINE
  5
2A9
100
AcDbEntity
  8
0
  6
CONTINUOUS
 62
               4
100
AcDbLine
 10
-4.5499999999999972
 20
22.102000138769878
 30
0.0
 11
-4.5499999999999972
 21
23.902000138769861
 31
0.0
  0
ARC
  5
2AA
100
AcDbEntity
  8
0
  6
CONTINUOUS
 62
               4
100
AcDbCircle
 10
-4.030000915554254
 20
25.001999223215616
 30
0.0
 40
0.5000009155550945
100
AcDbArc
 50
0.0001049145970977
 51
89.999895085402713
  0
LINE
  5
2AB
100
AcDbEntity
  8
0
  6
CONTINUOUS
 62
               4
100
AcDbLine
 10
-7.5499999999999972
 20
22.152000138769861
 30
0.0
 11
-7.5499999999999972
 21
21.852000138769878
 31
0.0
  0
LINE
  5
2AC
100
AcDbEntity
  8
0
  6
CONTINUOUS
 62
               4
100
AcDbLine
 10
-7.9999999999999858
 20
24.252000138769883
 30
0.0
 11
-7.9999999999999858
 21
22.152000138769861
 31
0.0
  0
LINE
  5
2AD
100
AcDbEntity
  8
0
  6
CONTINUOUS
 62
               4
100
AcDbLine
 10
-5.5499999999999972
 20
25.502000138769883
 30
0.0
 11
-3.7999999999999972
 21
25.502000138769883
 31
0.0
  0
ARC
  5
2AE
100
AcDbEntity
  8
0
  6
CONTINUOUS
 62
               4
100
AcDbCircle
 10
-3.7999954224773518
 20
25.0020047162925
 30
0.0
 40
0.4999954224983215
100
AcDbArc
 50
359.99947544974214
 51
90.000524550256856
  0
LINE
  5
2AF
100
AcDbEntity
  8
0
  6
CONTINUOUS
 62
               4
100
AcDbLine
 10
-11.049999999999997
 20
20.602000138769878
 30
0.0
 11
-5.5499999999999972
 21
20.602000138769878
 31
0.0
  0
LINE
  5
2B0
100
AcDbEntity
  8
0
  6
CONTINUOUS
 62
               4
100
AcDbLine
 10
-11.049999999999997
 20
25.602000138769878
 30
0.0
 11
-5.5499999999999972
 21
25.602000138769878
 31
0.0
  0
LINE
  5
2B1
100
AcDbEntity
  8
0
  6
CONTINUOUS
 62
               4
100
AcDbLine
 10
-11.019999999999996
 20
24.602000138769878
 30
0.0
 11
-5.5900000000000176
 21
24.602000138769878
 31
0.0
  0
LINE
  5
2B2
100
AcDbEntity
  8
0
  6
CONTINUOUS
 62
               4
100
AcDbLine
 10
-10.720000000000013
 20
24.902000138769861
 30
0.0
 11
-5.8900000000000006
 21
24.902000138769861
 31
0.0
  0
LINE
  5
2B3
100
AcDbEntity
  8
0
  6
CONTINUOUS
 62
               4
100
AcDbLine
 10
-11.149999999999991
 20
20.502000138769883
 30
0.0
 11
-5.4500000000000028
 21
20.502000138769883
 31
0.0
  0
LINE
  5
2B4
100
AcDbEntity
  8
0
  6
CONTINUOUS
 62
               4
100
AcDbLine
 10
-5.5499999999999972
 20
27.602000138769878
 30
0.0
 11
-5.5499999999999972
 21
23.902000138769861
 31
0.0
  0
ARC
  5
2B5
100
AcDbEntity
  8
0
  6
CONTINUOUS
 62
               4
100
AcDbCircle
 10
-5.8970880052370234
 20
27.901088144006888
 30
0.0
 40
0.5989129830170392
100
AcDbArc
 50
89.895914524772735
 51
180.10408547522667
  0
ARC
  5
2B6
100
AcDbEntity
  8
0
  6
CONTINUOUS
 62
               4
100
AcDbCircle
 10
-4.0959048533417644
 20
27.900095285428034
 30
0.0
 40
0.5999048608870732
100
AcDbArc
 50
359.99091272245295
 51
90.009087277546172
  0
LINE
  5
2B7
100
AcDbEntity
  8
0
  6
CONTINUOUS
 62
               4
100
AcDbLine
 10
-3.2999999999999972
 20
27.900000138769865
 30
0.0
 11
-6.4999999999999858
 21
27.900000138769865
 31
0.0
  0
ARC
  5
2B8
100
AcDbEntity
  8
0
  6
CONTINUOUS
 62
               4
100
AcDbCircle
 10
-12.799999999999997
 20
27.900000138769865
 30
0.0
 40
0.5
100
AcDbArc
 50
89.999999999999815
 51
179.99999999999963
  0
LINE
  5
2B9
100
AcDbEntity
  8
0
  6
CONTINUOUS
 62
               4
100
AcDbLine
 10
-6.4999999999999858
 20
28.400000138769865
 30
0.0
 11
-6.4999999999999858
 21
27.602000138769878
 31
0.0
  0
LINE
  5
2BA
100
AcDbEntity
  8
0
  6
CONTINUOUS
 62
               4
100
AcDbLine
 10
-6.4999999999999858
 20
28.400000138769865
 30
0.0
 11
-12.799999999999997
 21
28.400000138769865
 31
0.0
  0
LINE
  5
2BB
100
AcDbEntity
  8
0
  6
CONTINUOUS
 62
               4
100
AcDbLine
 10
-3.2999999999999972
 20
26.900000138769865
 30
0.0
 11
-5.5499999999999972
 21
26.900000138769865
 31
0.0
  0
LINE
  5
2BC
100
AcDbEntity
  8
0
  6
CONTINUOUS
 62
               4
100
AcDbLine
 10
-3.2999999999999972
 20
28.500000138769888
 30
0.0
 11
-13.299999999999997
 21
28.500000138769888
 31
0.0
  0
LINE
  5
2BD
100
AcDbEntity
  8
0
  6
CONTINUOUS
 62
               4
100
AcDbLine
 10
-3.2999999999999972
 20
28.500000138769888
 30
0.0
 11
-3.2999999999999972
 21
6.0000001387698632
 31
0.0
  0
LINE
  5
2BE
100
AcDbEntity
  8
0
  6
CONTINUOUS
 62
               4
100
AcDbLine
 10
-13.299999999999997
 20
28.500000138769888
 30
0.0
 11
-13.299999999999997
 21
6.0000001387698632
 31
0.0
  0
LINE
  5
2BF
100
AcDbEntity
  8
0
  6
CONTINUOUS
 62
               4
100
AcDbLine
 10
-3.5300000000000153
 20
25.002000138769883
 30
0.0
 11
-3.5300000000000153
 21
8.6979914671183991
 31
0.0
  0
LINE
  5
2C0
100
AcDbEntity
  8
0
  6
CONTINUOUS
 62
               4
100
AcDbLine
 10
-13.069999999999979
 20
25.002000138769883
 30
0.0
 11
-13.069999999999979
 21
8.6979914671183991
 31
0.0
  0
LINE
  5
2C1
100
AcDbEntity
  8
0
  6
CONTINUOUS
 62
               7
100
AcDbLine
 10
-14.299999999999997
 20
2.7000000000000028
 30
0.0
 11
-13.299999999999997
 21
2.7000000000000028
 31
0.0
  0
LINE
  5
2C2
100
AcDbEntity
  8
0
  6
CONTINUOUS
 62
               7
100
AcDbLine
 10
-14.299999999999997
 20
-32.243953424198381
 30
0.0
 11
-14.299999999999997
 21
2.7000000000000028
 31
0.0
  0
LINE
  5
2C3
100
AcDbEntity
  8
0
  6
CONTINUOUS
 62
               7
100
AcDbLine
 10
-3.2999999999999972
 20
-23.898002861230125
 30
0.0
 11
-3.2999999999999972
 21
-20.348331338584927
 31
0.0
  0
LINE
  5
2C4
100
AcDbEntity
  8
0
  6
CONTINUOUS
 62
               7
100
AcDbLine
 10
-13.299999999999997
 20
-23.898002861230125
 30
0.0
 11
-13.299999999999997
 21
-10.748331338584975
 31
0.0
  0
ARC
  5
2C5
100
AcDbEntity
  8
0
  6
CONTINUOUS
 62
               7
100
AcDbCircle
 10
-11.999999999999986
 20
-9.9999998612301724
 30
0.0
 40
1.6000000000000001
100
AcDbArc
 50
269.99999999999937
 51
89.999999999999801
  0
ARC
  5
2C6
100
AcDbEntity
  8
0
  6
CONTINUOUS
 62
               7
100
AcDbCircle
 10
-4.6000000000000085
 20
-19.599999861230131
 30
0.0
 40
1.6000000000000001
100
AcDbArc
 50
89.999999999999815
 51
269.99999999999937
  0
LINE
  5
2C7
100
AcDbEntity
  8
0
  6
CONTINUOUS
 62
               7
100
AcDbLine
 10
-11.999999999999986
 20
-11.599999861230167
 30
0.0
 11
-13.299999999999997
 21
-11.599999861230167
 31
0.0
  0
LINE
  5
2C8
100
AcDbEntity
  8
0
  6
CONTINUOUS
 62
               7
100
AcDbLine
 10
-11.999999999999986
 20
-8.3999998612301567
 30
0.0
 11
-13.299999999999997
 21
-8.3999998612301567
 31
0.0
  0
LINE
  5
2C9
100
AcDbEntity
  8
0
  6
CONTINUOUS
 62
               7
100
AcDbLine
 10
-4.6000000000000085
 20
-21.199999861230125
 30
0.0
 11
-3.2999999999999972
 21
-21.199999861230125
 31
0.0
  0
LINE
  5
2CA
100
AcDbEntity
  8
0
  6
CONTINUOUS
 62
               7
100
AcDbLine
 10
-4.6000000000000085
 20
-17.999999861230137
 30
0.0
 11
-3.2999999999999972
 21
-17.999999861230137
 31
0.0
  0
CIRCLE
  5
2CB
100
AcDbEntity
  8
0
  6
CONTINUOUS
 62
               7
100
AcDbCircle
 10
-8.2999999999999972
 20
3.7000001387698802
 30
0.0
 40
0.75
  0
CIRCLE
  5
2CC
100
AcDbEntity
  8
0
  6
CONTINUOUS
 62
               7
100
AcDbCircle
 10
-8.2999999999999972
 20
3.7000001387698802
 30
0.0
 40
1.1000000000000001
  0
CIRCLE
  5
2CD
100
AcDbEntity
  8
0
  6
CONTINUOUS
 62
               7
100
AcDbCircle
 10
-8.2999999999999972
 20
3.7000001387698802
 30
0.0
 40
1.1500000000000001
  0
CIRCLE
  5
2CE
100
AcDbEntity
  8
0
  6
CONTINUOUS
 62
               7
100
AcDbCircle
 10
-8.2999999999999972
 20
3.7000001387698802
 30
0.0
 40
1.3000000000000012
  0
LINE
  5
2CF
100
AcDbEntity
  8
0
  6
CENTER
 62
               2
100
AcDbLine
 10
-6.6000000000000085
 20
3.7000001387698802
 30
0.0
 11
-9.9999999999999858
 21
3.7000001387698802
 31
0.0
  0
ARC
  5
2D0
100
AcDbEntity
  8
0
  6
CONTINUOUS
 62
               7
100
AcDbCircle
 10
-8.2999999999999972
 20
2.0000001387698632
 30
0.0
 40
2.0
100
AcDbArc
 50
179.99999999999963
 51
0.0
  0
LINE
  5
2D1
100
AcDbEntity
  8
0
  6
CONTINUOUS
 62
               7
100
AcDbLine
 10
-6.2999999999999972
 20
2.0000001387698632
 30
0.0
 11
-6.2999999999999972
 21
6.0000001387698632
 31
0.0
  0
LINE
  5
2D2
100
AcDbEntity
  8
0
  6
CONTINUOUS
 62
               7
100
AcDbLine
 10
-10.299999999999997
 20
2.0000001387698632
 30
0.0
 11
-10.299999999999997
 21
6.0000001387698632
 31
0.0
  0
LINE
  5
2D3
100
AcDbEntity
  8
0
  6
CONTINUOUS
 62
               7
100
AcDbLine
 10
-3.2999999999999972
 20
-5.6999998612301397
 30
0.0
 11
-3.2999999999999972
 21
6.0000001387698632
 31
0.0
  0
LINE
  5
2D4
100
AcDbEntity
  8
0
  6
CONTINUOUS
 62
               7
100
AcDbLine
 10
-13.299999999999997
 20
-5.6999998612301397
 30
0.0
 11
-13.299999999999997
 21
6.0000001387698632
 31
0.0
  0
LINE
  5
2D5
100
AcDbEntity
  8
0
  6
CONTINUOUS
 62
               4
100
AcDbLine
 10
-3.2999999999999972
 20
6.0000001387698632
 30
0.0
 11
-13.299999999999997
 21
6.0000001387698632
 31
0.0
  0
CIRCLE
  5
2D6
100
AcDbEntity
  8
0
  6
CONTINUOUS
 62
               7
100
AcDbCircle
 10
0.0000183105468778
 20
-29.599993896484378
 30
0.0
 40
1.5499992370605469
  0
CIRCLE
  5
2D7
100
AcDbEntity
  8
0
  6
CONTINUOUS
 62
               7
100
AcDbCircle
 10
0.0000183105468778
 20
-0.0000030517578153
 30
0.0
 40
1.5499992370605469
  0
LINE
  5
2D8
100
AcDbEntity
  8
0
  6
CENTER
 62
               2
100
AcDbLine
 10
-2.5
 20
-29.599999999999994
 30
0.0
 11
2.5
 21
-29.599999999999994
 31
0.0
  0
LINE
  5
2D9
100
AcDbEntity
  8
0
  6
CENTER
 62
               2
100
AcDbLine
 10
-2.5
 20
0.0
 30
0.0
 11
2.5
 21
0.0
 31
0.0
  0
LINE
  5
2DA
100
AcDbEntity
  8
0
  6
CENTER
 62
               2
100
AcDbLine
 10
0.0
 20
-27.099999999999994
 30
0.0
 11
0.0
 21
-32.099999999999994
 31
0.0
  0
LINE
  5
2DB
100
AcDbEntity
  8
0
  6
CENTER
 62
               2
100
AcDbLine
 10
0.0
 20
2.5
 30
0.0
 11
0.0
 21
-2.5
 31
0.0
  0
LINE
  5
2DC
100
AcDbEntity
  8
0
  6
CONTINUOUS
 62
               7
100
AcDbLine
 10
-3.2999999999999972
 20
2.7000000000000028
 30
0.0
 11
2.7000000000000028
 21
2.7000000000000028
 31
0.0
  0
LINE
  5
2DD
100
AcDbEntity
  8
0
  6
CONTINUOUS
 62
               7
100
AcDbLine
 10
2.7000000000000028
 20
2.7000000000000028
 30
0.0
 11
2.7000000000000028
 21
-32.299999999999997
 31
0.0
  0
LINE
  5
2DE
100
AcDbEntity
  8
0
  6
CONTINUOUS
 62
               7
100
AcDbLine
 10
-14.299999999999997
 20
-32.299999999999997
 30
0.0
 11
-13.299999999999997
 21
-32.299999999999997
 31
0.0
  0
LINE
  5
2DF
100
AcDbEntity
  8
0
  6
CENTER
 62
               2
100
AcDbLine
 10
-8.3000000000000043
 20
-59.948849103416052
 30
0.0
 11
-8.2999999999999972
 21
30.346852242186142
 31
0.0
  0
CIRCLE
  5
2E0
100
AcDbEntity
  8
0
  6
CONTINUOUS
 62
               7
100
AcDbCircle
 10
-12.0
 20
-9.9999998612301866
 30
0.0
 40
1.5
  0
LINE
  5
2E1
100
AcDbEntity
  8
0
  6
CONTINUOUS
 62
               7
100
AcDbLine
 10
-11.292893218813504
 20
-10.708105211801531
 30
0.0
 11
-12.707106781186553
 21
-9.2938916494284385
 31
0.0
  0
LINE
  5
2E2
100
AcDbEntity
  8
0
  6
CONTINUOUS
 62
               7
100
AcDbLine
 10
-12.707106781186553
 20
-10.708105211801531
 30
0.0
 11
-11.292893218813475
 21
-9.2938916494284385
 31
0.0
  0
CIRCLE
  5
2E3
100
AcDbEntity
  8
0
  6
CONTINUOUS
 62
               7
100
AcDbCircle
 10
-4.6000000000000227
 20
-19.599999861230188
 30
0.0
 40
1.5
  0
LINE
  5
2E4
100
AcDbEntity
  8
0
  6
CONTINUOUS
 62
               7
100
AcDbLine
 10
-3.8928932188135263
 20
-20.308105211801532
 30
0.0
 11
-5.307106781186576
 21
-18.893891649428426
 31
0.0
  0
LINE
  5
2E5
100
AcDbEntity
  8
0
  6
CONTINUOUS
 62
               7
100
AcDbLine
 10
-5.307106781186576
 20
-20.308105211801532
 30
0.0
 11
-3.8928932188134979
 21
-18.893891649428426
 31
0.0
  0
LINE
  5
2E6
100
AcDbEntity
  8
0
  6
CONTINUOUS
 62
               7
100
AcDbLine
 10
-3.2999999999999972
 20
-18.851668383875435
 30
0.0
 11
-3.2999999999999972
 21
-5.6999998612301397
 31
0.0
  0
LINE
  5
2E7
100
AcDbEntity
  8
0
  6
CONTINUOUS
 62
               7
100
AcDbLine
 10
-13.299999999999997
 20
-9.2516683838753977
 30
0.0
 11
-13.299999999999997
 21
-5.6999998607356588
 31
0.0
  0
ARC
  5
2E8
100
AcDbEntity
  8
0
  6
CONTINUOUS
 62
               7
100
AcDbCircle
 10
-8.2999999999999972
 20
2.0000001387698632
 30
0.0
 40
3.0959985693848324
100
AcDbArc
 50
179.99999999999963
 51
0.0
  0
LINE
  5
2E9
100
AcDbEntity
  8
0
  6
CONTINUOUS
 62
               7
100
AcDbLine
 10
-5.2040014306151647
 20
2.0000001387698632
 30
0.0
 11
-5.2040014306151647
 21
6.0000001387698632
 31
0.0
  0
LINE
  5
2EA
100
AcDbEntity
  8
0
  6
CONTINUOUS
 62
               7
100
AcDbLine
 10
-11.39599856938483
 20
2.0000001387698632
 30
0.0
 11
-11.39599856938483
 21
6.0000001387698632
 31
0.0
  0
LINE
  5
2EB
100
AcDbEntity
  8
0
  6
CONTINUOUS
 62
               7
100
AcDbLine
 10
-3.2999999999999972
 20
-5.6999998612301397
 30
0.0
 11
-13.299999999999997
 21
-5.6999998612301397
 31
0.0
  0
LINE
  5
2EC
100
AcDbEntity
  8
0
  6
CONTINUOUS
 62
               7
100
AcDbLine
 10
-13.299999999999997
 20
-23.899999999999764
 30
0.0
 11
-3.2999999999999972
 21
-23.899999999999764
 31
0.0
  0
ENDBLK
  5
2ED
100
AcDbEntity
  8
0
100
AcDbBlockEnd
  0
BLOCK
  5
2EE
100
AcDbEntity
  8
0
100
AcDbBlockBegin
  2
EA10SA6-5
 70
               0
 10
0.0
 20
0.0
 30
0.0
  3
EA10SA6-5
  1

  0
LINE
  5
2EF
100
AcDbEntity
  8
0
  6
CONTINUOUS
 62
               7
100
AcDbLine
 10
32.100000013518155
 20
0.0
 30
0.0
 11
32.100000013518155
 21
5.9999999999999289
 31
0.0
  0
LINE
  5
2F0
100
AcDbEntity
  8
0
  6
CONTINUOUS
 62
               7
100
AcDbLine
 10
15.999999971426575
 20
-30.100006103515625
 30
0.0
 11
17.000000013518104
 21
-30.100006103515625
 31
0.0
  0
LINE
  5
2F1
100
AcDbEntity
  8
0
  6
CONTINUOUS
 62
               7
100
AcDbLine
 10
15.999999971426575
 20
0.4999938964843835
 30
0.0
 11
17.000000013518104
 21
0.4999938964843835
 31
0.0
  0
LINE
  5
2F2
100
AcDbEntity
  8
0
  6
CENTER
 62
               2
100
AcDbLine
 10
-2.0
 20
-29.599999999999994
 30
0.0
 11
2.0
 21
-29.599999999999994
 31
0.0
  0
LINE
  5
2F3
100
AcDbEntity
  8
0
  6
CENTER
 62
               2
100
AcDbLine
 10
-2.0
 20
0.0
 30
0.0
 11
2.0
 21
0.0
 31
0.0
  0
ARC
  5
2F4
100
AcDbEntity
  8
0
  6
CONTINUOUS
 62
               4
100
AcDbCircle
 10
33.886980727563071
 20
-36.099995453570926
 30
0.0
 40
0.5
100
AcDbArc
 50
64.968979182780728
 51
90.244336397298795
  0
ARC
  5
2F5
100
AcDbEntity
  8
0
  6
CONTINUOUS
 62
               4
100
AcDbCircle
 10
33.886980727563071
 20
6.4999954535709321
 30
0.0
 40
0.5
100
AcDbArc
 50
269.75566360288281
 51
295.03102081721846
  0
ARC
  5
2F6
100
AcDbEntity
  8
0
  6
CONTINUOUS
 62
               4
100
AcDbCircle
 10
28.398911827245115
 20
-57.491088005236932
 30
0.0
 40
0.5989129830170392
100
AcDbArc
 50
179.89591452477256
 51
270.1040854752265
  0
LINE
  5
2F7
100
AcDbEntity
  8
0
  6
CONTINUOUS
 62
               4
100
AcDbLine
 10
27.299999832482229
 20
-57.489999999999924
 30
0.0
 11
27.299999832482229
 21
-58.089999999999947
 31
0.0
  0
ARC
  5
2F8
100
AcDbEntity
  8
0
  6
CONTINUOUS
 62
               4
100
AcDbCircle
 10
19.601088172754856
 20
27.901088005236925
 30
0.0
 40
0.5989129830170392
100
AcDbArc
 50
359.89591452477299
 51
90.104085475226924
  0
LINE
  5
2F9
100
AcDbEntity
  8
0
  6
CONTINUOUS
 62
               4
100
AcDbLine
 10
20.700000167517771
 20
27.899999999999917
 30
0.0
 11
20.700000167517771
 21
28.49999999999994
 31
0.0
  0
LINE
  5
2FA
100
AcDbEntity
  8
0
  6
CONTINUOUS
 62
               7
100
AcDbLine
 10
31.000000013518161
 20
-28.504999999999981
 30
0.0
 11
32.100000013518155
 21
-29.599999999999994
 31
0.0
  0
LINE
  5
2FB
100
AcDbEntity
  8
0
  6
CONTINUOUS
 62
               4
100
AcDbLine
 10
54.495959596051193
 20
-51.954545445200296
 30
0.0
 11
54.495959596051165
 21
-53.25555554546699
 31
0.0
  0
LINE
  5
2FC
100
AcDbEntity
  8
0
  6
CONTINUOUS
 62
               7
100
AcDbLine
 10
32.548000013518106
 20
-34.400000000000034
 30
0.0
 11
32.100000013518127
 21
-34.40000000000002
 31
0.0
  0
ARC
  5
2FD
100
AcDbEntity
  8
0
  6
CONTINUOUS
 62
               4
100
AcDbCircle
 10
17.799904960869071
 20
-57.500095146648334
 30
0.0
 40
0.599904800896587
100
AcDbArc
 50
236.24741787039247
 51
270.00908727754478
  0
ARC
  5
2FE
100
AcDbEntity
  8
0
  6
CONTINUOUS
 62
               4
100
AcDbCircle
 10
30.201087932646033
 20
-57.501088005128139
 30
0.0
 40
0.598912923125741
100
AcDbArc
 50
269.89591452477129
 51
0.1040854752260523
  0
LINE
  5
2FF
100
AcDbEntity
  8
0
  6
CONTINUOUS
 62
               4
100
AcDbLine
 10
27.299999832482229
 20
-57.499999999999801
 30
0.0
 11
31.000000013517791
 21
-57.499999999999886
 31
0.0
  0
ARC
  5
300
100
AcDbEntity
  8
0
  6
CONTINUOUS
 62
               4
100
AcDbCircle
 10
30.50000001351782
 20
-57.499999999999886
 30
0.0
 40
0.5
100
AcDbArc
 50
273.91958589964941
 51
359.99999999999818
  0
LINE
  5
301
100
AcDbEntity
  8
0
  6
CONTINUOUS
 62
               4
100
AcDbLine
 10
17.800000107517747
 20
-58.099999999999682
 30
0.0
 11
30.199999927517752
 21
-58.099999999999909
 31
0.0
  0
LINE
  5
302
100
AcDbEntity
  8
0
  6
CONTINUOUS
 62
               4
100
AcDbLine
 10
31.000000013517791
 20
-57.499999999999886
 30
0.0
 11
31.000000013518161
 21
-35.599999999999909
 31
0.0
  0
ARC
  5
303
100
AcDbEntity
  8
0
  6
CONTINUOUS
 62
               4
100
AcDbCircle
 10
17.500000021517764
 20
-57.499999999999631
 30
0.0
 40
0.5
100
AcDbArc
 50
179.99999999999858
 51
269.99999999999835
  0
LINE
  5
304
100
AcDbEntity
  8
0
  6
CONTINUOUS
 62
               4
100
AcDbLine
 10
17.500000021517764
 20
-57.999999999999687
 30
0.0
 11
19.000000017517749
 21
-57.999999999999687
 31
0.0
  0
LINE
  5
305
100
AcDbEntity
  8
0
  6
CONTINUOUS
 62
               4
100
AcDbLine
 10
19.000000017517721
 20
-58.099999999999682
 30
0.0
 11
19.000000017517777
 21
-56.499999999999631
 31
0.0
  0
LINE
  5
306
100
AcDbEntity
  8
0
  6
CONTINUOUS
 62
               4
100
AcDbLine
 10
19.000000017517777
 20
-56.499999999999631
 30
0.0
 11
31.000000013517791
 21
-56.499999999999858
 31
0.0
  0
LINE
  5
307
100
AcDbEntity
  8
0
  6
CONTINUOUS
 62
               4
100
AcDbLine
 10
17.00000002151819
 20
-35.599999999999653
 30
0.0
 11
17.000000021517792
 21
-57.499999999999631
 31
0.0
  0
LINE
  5
308
100
AcDbEntity
  8
0
  6
CONTINUOUS
 62
             200
100
AcDbLine
 10
50.670707072984527
 20
-54.104040393466931
 30
0.0
 11
52.403030304317923
 21
-51.106060597200269
 31
0.0
  0
ARC
  5
309
100
AcDbEntity
  8
0
  6
CONTINUOUS
 62
               4
100
AcDbCircle
 10
39.400834052872199
 20
-54.606894639354408
 30
0.0
 40
0.403865208170398
100
AcDbArc
 50
90.118324735512417
 51
179.88167526448353
  0
ARC
  5
30A
100
AcDbEntity
  8
0
  6
CONTINUOUS
 62
               4
100
AcDbCircle
 10
39.399895939896879
 20
-54.605327231604576
 30
0.0
 40
0.4029269013737999
100
AcDbArc
 50
180.10428358574771
 51
259.90822844260225
  0
ARC
  5
30B
100
AcDbEntity
  8
0
  6
CONTINUOUS
 62
               4
100
AcDbCircle
 10
37.999912527655027
 20
-54.705034325092669
 30
0.0
 40
0.4950149226876426
100
AcDbArc
 50
269.19169587541967
 51
306.87687525883342
  0
ARC
  5
30C
100
AcDbEntity
  8
0
  6
CONTINUOUS
 62
               4
100
AcDbCircle
 10
31.299431305235231
 20
-55.904584129418595
 30
0.0
 40
0.2994663800970315
100
AcDbArc
 50
179.12289923249233
 51
269.52902697153382
  0
ARC
  5
30D
100
AcDbEntity
  8
0
  6
CONTINUOUS
 62
               4
100
AcDbCircle
 10
38.500332854439165
 20
-54.604373238388064
 30
0.0
 40
0.4966660273328702
100
AcDbArc
 50
269.37896036356449
 51
0.6210396364351734
  0
ARC
  5
30E
100
AcDbEntity
  8
0
  6
CONTINUOUS
 62
               4
100
AcDbCircle
 10
38.497257383074867
 20
-38.25252246053924
 30
0.0
 40
0.4997133381008656
100
AcDbArc
 50
0.1154955796418579
 51
65.173784690189237
  0
LINE
  5
30F
100
AcDbEntity
  8
0
  6
CONTINUOUS
 62
               4
100
AcDbLine
 10
33.884848496718121
 20
-35.599999999999966
 30
0.0
 11
33.88484849671778
 21
-55.101010089866662
 31
0.0
  0
LINE
  5
310
100
AcDbEntity
  8
0
  6
CONTINUOUS
 62
               4
100
AcDbLine
 10
45.996969701917891
 20
-50.102020193733466
 30
0.0
 11
46.993939398317906
 21
-50.102020193733466
 31
0.0
  0
LINE
  5
311
100
AcDbEntity
  8
0
  6
CONTINUOUS
 62
               4
100
AcDbLine
 10
38.996969705917934
 20
-50.102020193733352
 30
0.0
 11
40.997979805784553
 21
-50.102020193733352
 31
0.0
  0
LINE
  5
312
100
AcDbEntity
  8
0
  6
CONTINUOUS
 62
               4
100
AcDbLine
 10
46.993939398317877
 20
-51.699999990800222
 30
0.0
 11
38.996969705917905
 21
-51.69999999080008
 31
0.0
  0
LINE
  5
313
100
AcDbEntity
  8
0
  6
CONTINUOUS
 62
               4
100
AcDbLine
 10
46.993939398317849
 20
-53.503030292800219
 30
0.0
 11
38.996969705917877
 21
-53.503030292800105
 31
0.0
  0
LINE
  5
314
100
AcDbEntity
  8
0
  6
CONTINUOUS
 62
               4
100
AcDbLine
 10
46.993939398317821
 20
-54.2030302924002
 30
0.0
 11
39.400000008717882
 21
-54.203030292400058
 31
0.0
  0
LINE
  5
315
100
AcDbEntity
  8
0
  6
CONTINUOUS
 62
               4
100
AcDbLine
 10
46.696969701517844
 20
-54.499999989200177
 30
0.0
 11
40.792929300851142
 21
-54.499999989200063
 31
0.0
  0
LINE
  5
316
100
AcDbEntity
  8
0
  6
CONTINUOUS
 62
               4
100
AcDbLine
 10
46.993939398317792
 20
-56.105050493333493
 30
0.0
 11
45.586868692051098
 21
-56.105050493333493
 31
0.0
  0
LINE
  5
317
100
AcDbEntity
  8
0
  6
CONTINUOUS
 62
               4
100
AcDbLine
 10
46.993939398317764
 20
-57.102020189733565
 30
0.0
 11
45.494949500184475
 21
-57.102020189733565
 31
0.0
  0
LINE
  5
318
100
AcDbEntity
  8
0
  6
CONTINUOUS
 62
               4
100
AcDbLine
 10
50.81212121431787
 20
-53.255555545466905
 30
0.0
 11
46.993939398317849
 21
-53.255555545466848
 31
0.0
  0
LINE
  5
319
100
AcDbEntity
  8
0
  6
CONTINUOUS
 62
             200
100
AcDbLine
 10
50.324242426717831
 20
-54.104040393466875
 30
0.0
 11
52.056565658051227
 21
-51.098989890133652
 31
0.0
  0
LINE
  5
31A
100
AcDbEntity
  8
0
  6
CONTINUOUS
 62
               4
100
AcDbLine
 10
51.561616163384514
 20
-51.954545445200239
 30
0.0
 11
46.993939398317877
 21
-51.954545445200125
 31
0.0
  0
LINE
  5
31B
100
AcDbEntity
  8
0
  6
CONTINUOUS
 62
               4
100
AcDbLine
 10
32.293939406717783
 20
-55.101010089866662
 30
0.0
 11
32.293939406717783
 21
-55.199999988799931
 31
0.0
  0
LINE
  5
31C
100
AcDbEntity
  8
0
  6
CONTINUOUS
 62
               4
100
AcDbLine
 10
40.389898998051166
 20
-56.204040392266819
 30
0.0
 11
31.296969710317768
 21
-56.204040392266648
 31
0.0
  0
LINE
  5
31D
100
AcDbEntity
  8
0
  6
CONTINUOUS
 62
               4
100
AcDbLine
 10
40.495959604051166
 20
-54.203030292400086
 30
0.0
 11
40.792929300851142
 21
-54.499999989200063
 31
0.0
  0
LINE
  5
31E
100
AcDbEntity
  8
0
  6
CONTINUOUS
 62
               4
100
AcDbLine
 10
40.997979805784553
 20
-50.102020193733352
 30
0.0
 11
40.997979805784524
 21
-50.703030294400122
 31
0.0
  0
LINE
  5
31F
100
AcDbEntity
  8
0
  6
CONTINUOUS
 62
               4
100
AcDbLine
 10
45.996969701917891
 20
-50.703030294400179
 30
0.0
 11
40.997979805784524
 21
-50.703030294400122
 31
0.0
  0
LINE
  5
320
100
AcDbEntity
  8
0
  6
CONTINUOUS
 62
               4
100
AcDbLine
 10
45.996969701917891
 20
-50.102020193733466
 30
0.0
 11
45.996969701917891
 21
-50.703030294400179
 31
0.0
  0
LINE
  5
321
100
AcDbEntity
  8
0
  6
CONTINUOUS
 62
               4
100
AcDbLine
 10
46.993939398317821
 20
-54.2030302924002
 30
0.0
 11
46.696969701517844
 21
-54.499999989200177
 31
0.0
  0
LINE
  5
322
100
AcDbEntity
  8
0
  6
CONTINUOUS
 62
               4
100
AcDbLine
 10
37.992929302451159
 20
-55.199999988800045
 30
0.0
 11
32.293939406717783
 21
-55.199999988799931
 31
0.0
  0
LINE
  5
323
100
AcDbEntity
  8
0
  6
CONTINUOUS
 62
               4
100
AcDbLine
 10
39.329292938051196
 20
-55.002020190933337
 30
0.0
 11
45.671717176851132
 21
-56.119191907466842
 31
0.0
  0
LINE
  5
324
100
AcDbEntity
  8
0
  6
CONTINUOUS
 62
               4
100
AcDbLine
 10
46.993939398317792
 20
-56.105050493333493
 30
0.0
 11
46.993939398317764
 21
-57.102020189733565
 31
0.0
  0
LINE
  5
325
100
AcDbEntity
  8
0
  6
CONTINUOUS
 62
               4
100
AcDbLine
 10
40.389898998051166
 20
-56.204040392266819
 30
0.0
 11
45.494949500184475
 21
-57.102020189733565
 31
0.0
  0
LINE
  5
326
100
AcDbEntity
  8
0
  6
CONTINUOUS
 62
               4
100
AcDbLine
 10
46.993939398317906
 20
-50.102020193733466
 30
0.0
 11
46.993939398317821
 21
-54.2030302924002
 31
0.0
  0
LINE
  5
327
100
AcDbEntity
  8
0
  6
CONTINUOUS
 62
               4
100
AcDbLine
 10
34.098535171946068
 20
-35.646956032480659
 30
0.0
 11
38.707070716184802
 21
-37.798989897733378
 31
0.0
  0
LINE
  5
328
100
AcDbEntity
  8
0
  6
CONTINUOUS
 62
               4
100
AcDbLine
 10
38.996969705917849
 20
-54.598989888133389
 30
0.0
 11
38.996969705918161
 21
-38.251515150000131
 31
0.0
  0
LINE
  5
329
100
AcDbEntity
  8
0
  6
CONTINUOUS
 62
               4
100
AcDbLine
 10
31.00000001351782
 20
-55.101010089866605
 30
0.0
 11
38.49494950418449
 21
-55.101010089866776
 31
0.0
  0
LINE
  5
32A
100
AcDbEntity
  8
0
  6
CONTINUOUS
 62
               4
100
AcDbLine
 10
17.00000002151819
 20
-35.599999999999653
 30
0.0
 11
33.884848496718121
 21
-35.599999999999966
 31
0.0
  0
LINE
  5
32B
100
AcDbEntity
  8
0
  6
CONTINUOUS
 62
               4
100
AcDbLine
 10
54.495959596051165
 20
-53.25555554546699
 30
0.0
 11
51.158585860584566
 21
-53.255555545466933
 31
0.0
  0
LINE
  5
32C
100
AcDbEntity
  8
0
  6
CONTINUOUS
 62
               4
100
AcDbLine
 10
54.495959596051193
 20
-51.954545445200296
 30
0.0
 11
51.90808080965121
 21
-51.954545445200239
 31
0.0
  0
LINE
  5
32D
100
AcDbEntity
  8
0
  6
CONTINUOUS
 62
               7
100
AcDbLine
 10
32.100000013518155
 20
-29.599999999999994
 30
0.0
 11
32.100000013518155
 21
-35.599999999999923
 31
0.0
  0
LINE
  5
32E
100
AcDbEntity
  8
0
  6
CONTINUOUS
 62
               7
100
AcDbLine
 10
32.548000013518106
 20
-32.199999999999989
 30
0.0
 11
32.548000013518106
 21
-34.400000000000034
 31
0.0
  0
LINE
  5
32F
100
AcDbEntity
  8
0
  6
CONTINUOUS
 62
               7
100
AcDbLine
 10
31.000000013518161
 20
-35.599999999999923
 30
0.0
 11
31.000000013518161
 21
-23.904999999999987
 31
0.0
  0
LINE
  5
330
100
AcDbEntity
  8
0
  6
CONTINUOUS
 62
               4
100
AcDbLine
 10
54.495959596051165
 20
23.655555545466992
 30
0.0
 11
51.158585860584566
 21
23.655555545466935
 31
0.0
  0
LINE
  5
331
100
AcDbEntity
  8
0
  6
CONTINUOUS
 62
               4
100
AcDbLine
 10
54.495959596051193
 20
22.354545445200298
 30
0.0
 11
51.90808080965121
 21
22.354545445200241
 31
0.0
  0
LINE
  5
332
100
AcDbEntity
  8
0
  6
CONTINUOUS
 62
               4
100
AcDbLine
 10
17.00000002151819
 20
5.9999999999996589
 30
0.0
 11
33.884848496718121
 21
5.9999999999999716
 31
0.0
  0
LINE
  5
333
100
AcDbEntity
  8
0
  6
CONTINUOUS
 62
               4
100
AcDbLine
 10
31.00000001351782
 20
25.501010089866607
 30
0.0
 11
38.49494950418449
 21
25.501010089866778
 31
0.0
  0
LINE
  5
334
100
AcDbEntity
  8
0
  6
CONTINUOUS
 62
               4
100
AcDbLine
 10
38.996969705917849
 20
24.998989888133391
 30
0.0
 11
38.996969705918161
 21
8.6515151500001366
 31
0.0
  0
LINE
  5
335
100
AcDbEntity
  8
0
  6
CONTINUOUS
 62
               4
100
AcDbLine
 10
34.098535171946068
 20
6.046956032480665
 30
0.0
 11
38.707070716184802
 21
8.1989898977333837
 31
0.0
  0
LINE
  5
336
100
AcDbEntity
  8
0
  6
CONTINUOUS
 62
               4
100
AcDbLine
 10
46.993939398317906
 20
20.502020193733468
 30
0.0
 11
46.993939398317821
 21
24.603030292400202
 31
0.0
  0
LINE
  5
337
100
AcDbEntity
  8
0
  6
CONTINUOUS
 62
               4
100
AcDbLine
 10
40.389898998051166
 20
26.604040392266821
 30
0.0
 11
45.494949500184475
 21
27.502020189733567
 31
0.0
  0
LINE
  5
338
100
AcDbEntity
  8
0
  6
CONTINUOUS
 62
               4
100
AcDbLine
 10
46.993939398317792
 20
26.505050493333496
 30
0.0
 11
46.993939398317764
 21
27.502020189733567
 31
0.0
  0
LINE
  5
339
100
AcDbEntity
  8
0
  6
CONTINUOUS
 62
               4
100
AcDbLine
 10
39.329292938051196
 20
25.402020190933339
 30
0.0
 11
45.671717176851132
 21
26.519191907466844
 31
0.0
  0
LINE
  5
33A
100
AcDbEntity
  8
0
  6
CONTINUOUS
 62
               4
100
AcDbLine
 10
37.992929302451159
 20
25.599999988800047
 30
0.0
 11
32.293939406717783
 21
25.599999988799933
 31
0.0
  0
LINE
  5
33B
100
AcDbEntity
  8
0
  6
CONTINUOUS
 62
               4
100
AcDbLine
 10
46.993939398317821
 20
24.603030292400202
 30
0.0
 11
46.696969701517844
 21
24.899999989200179
 31
0.0
  0
LINE
  5
33C
100
AcDbEntity
  8
0
  6
CONTINUOUS
 62
               4
100
AcDbLine
 10
45.996969701917891
 20
20.502020193733468
 30
0.0
 11
45.996969701917891
 21
21.103030294400181
 31
0.0
  0
LINE
  5
33D
100
AcDbEntity
  8
0
  6
CONTINUOUS
 62
               4
100
AcDbLine
 10
45.996969701917891
 20
21.103030294400181
 30
0.0
 11
40.997979805784524
 21
21.103030294400124
 31
0.0
  0
LINE
  5
33E
100
AcDbEntity
  8
0
  6
CONTINUOUS
 62
               4
100
AcDbLine
 10
40.997979805784553
 20
20.502020193733355
 30
0.0
 11
40.997979805784524
 21
21.103030294400124
 31
0.0
  0
LINE
  5
33F
100
AcDbEntity
  8
0
  6
CONTINUOUS
 62
               4
100
AcDbLine
 10
40.495959604051166
 20
24.603030292400089
 30
0.0
 11
40.792929300851142
 21
24.899999989200065
 31
0.0
  0
LINE
  5
340
100
AcDbEntity
  8
0
  6
CONTINUOUS
 62
               4
100
AcDbLine
 10
40.389898998051166
 20
26.604040392266821
 30
0.0
 11
31.296969710317768
 21
26.604040392266651
 31
0.0
  0
LINE
  5
341
100
AcDbEntity
  8
0
  6
CONTINUOUS
 62
               4
100
AcDbLine
 10
32.293939406717783
 20
25.501010089866664
 30
0.0
 11
32.293939406717783
 21
25.599999988799933
 31
0.0
  0
LINE
  5
342
100
AcDbEntity
  8
0
  6
CONTINUOUS
 62
               4
100
AcDbLine
 10
51.561616163384514
 20
22.354545445200241
 30
0.0
 11
46.993939398317877
 21
22.354545445200127
 31
0.0
  0
LINE
  5
343
100
AcDbEntity
  8
0
  6
CONTINUOUS
 62
             200
100
AcDbLine
 10
50.324242426717831
 20
24.504040393466877
 30
0.0
 11
52.056565658051227
 21
21.498989890133654
 31
0.0
  0
LINE
  5
344
100
AcDbEntity
  8
0
  6
CONTINUOUS
 62
               4
100
AcDbLine
 10
50.81212121431787
 20
23.655555545466907
 30
0.0
 11
46.993939398317849
 21
23.65555554546685
 31
0.0
  0
LINE
  5
345
100
AcDbEntity
  8
0
  6
CONTINUOUS
 62
               4
100
AcDbLine
 10
46.993939398317764
 20
27.502020189733567
 30
0.0
 11
45.494949500184475
 21
27.502020189733567
 31
0.0
  0
LINE
  5
346
100
AcDbEntity
  8
0
  6
CONTINUOUS
 62
               4
100
AcDbLine
 10
46.993939398317792
 20
26.505050493333496
 30
0.0
 11
45.586868692051098
 21
26.505050493333496
 31
0.0
  0
LINE
  5
347
100
AcDbEntity
  8
0
  6
CONTINUOUS
 62
               4
100
AcDbLine
 10
46.696969701517844
 20
24.899999989200179
 30
0.0
 11
40.792929300851142
 21
24.899999989200065
 31
0.0
  0
LINE
  5
348
100
AcDbEntity
  8
0
  6
CONTINUOUS
 62
               4
100
AcDbLine
 10
46.993939398317821
 20
24.603030292400202
 30
0.0
 11
39.400000008717882
 21
24.60303029240006
 31
0.0
  0
LINE
  5
349
100
AcDbEntity
  8
0
  6
CONTINUOUS
 62
               4
100
AcDbLine
 10
46.993939398317849
 20
23.903030292800221
 30
0.0
 11
38.996969705917877
 21
23.903030292800107
 31
0.0
  0
LINE
  5
34A
100
AcDbEntity
  8
0
  6
CONTINUOUS
 62
               4
100
AcDbLine
 10
46.993939398317877
 20
22.099999990800224
 30
0.0
 11
38.996969705917905
 21
22.099999990800082
 31
0.0
  0
LINE
  5
34B
100
AcDbEntity
  8
0
  6
CONTINUOUS
 62
               4
100
AcDbLine
 10
38.996969705917934
 20
20.502020193733355
 30
0.0
 11
40.997979805784553
 21
20.502020193733355
 31
0.0
  0
LINE
  5
34C
100
AcDbEntity
  8
0
  6
CONTINUOUS
 62
               4
100
AcDbLine
 10
45.996969701917891
 20
20.502020193733468
 30
0.0
 11
46.993939398317906
 21
20.502020193733468
 31
0.0
  0
LINE
  5
34D
100
AcDbEntity
  8
0
  6
CONTINUOUS
 62
               4
100
AcDbLine
 10
33.884848496718121
 20
5.9999999999999716
 30
0.0
 11
33.88484849671778
 21
25.501010089866664
 31
0.0
  0
ARC
  5
34E
100
AcDbEntity
  8
0
  6
CONTINUOUS
 62
               4
100
AcDbCircle
 10
38.497257383074867
 20
8.6525224605392452
 30
0.0
 40
0.4997133381008656
100
AcDbArc
 50
294.82621530980992
 51
359.88450442035736
  0
ARC
  5
34F
100
AcDbEntity
  8
0
  6
CONTINUOUS
 62
               4
100
AcDbCircle
 10
38.500332854439165
 20
25.004373238388066
 30
0.0
 40
0.4966660273328702
100
AcDbArc
 50
359.37896036356483
 51
90.621039636434716
  0
ARC
  5
350
100
AcDbEntity
  8
0
  6
CONTINUOUS
 62
               4
100
AcDbCircle
 10
31.299431305235231
 20
26.304584129418597
 30
0.0
 40
0.2994663800970315
100
AcDbArc
 50
90.47097302846538
 51
180.87710076750685
  0
ARC
  5
351
100
AcDbEntity
  8
0
  6
CONTINUOUS
 62
               4
100
AcDbCircle
 10
37.999912527655027
 20
25.105034325092671
 30
0.0
 40
0.4950149226876426
100
AcDbArc
 50
53.123124741165753
 51
90.808304124579536
  0
ARC
  5
352
100
AcDbEntity
  8
0
  6
CONTINUOUS
 62
               4
100
AcDbCircle
 10
39.399895939896879
 20
25.005327231604578
 30
0.0
 40
0.4029269013737999
100
AcDbArc
 50
100.09177155739695
 51
179.8957164142515
  0
ARC
  5
353
100
AcDbEntity
  8
0
  6
CONTINUOUS
 62
               4
100
AcDbCircle
 10
39.400834052872199
 20
25.00689463935441
 30
0.0
 40
0.403865208170398
100
AcDbArc
 50
180.11832473551567
 51
269.88167526448677
  0
LINE
  5
354
100
AcDbEntity
  8
0
  6
CONTINUOUS
 62
             200
100
AcDbLine
 10
50.670707072984527
 20
24.504040393466934
 30
0.0
 11
52.403030304317923
 21
21.506060597200271
 31
0.0
  0
LINE
  5
355
100
AcDbEntity
  8
0
  6
CONTINUOUS
 62
               4
100
AcDbLine
 10
17.00000002151819
 20
5.9999999999996589
 30
0.0
 11
17.000000021517792
 21
27.899999999999633
 31
0.0
  0
LINE
  5
356
100
AcDbEntity
  8
0
  6
CONTINUOUS
 62
               4
100
AcDbLine
 10
28.999999982482223
 20
26.899999999999633
 30
0.0
 11
16.999999986482209
 21
26.89999999999986
 31
0.0
  0
LINE
  5
357
100
AcDbEntity
  8
0
  6
CONTINUOUS
 62
               4
100
AcDbLine
 10
28.999999982482279
 20
28.499999999999684
 30
0.0
 11
28.999999982482223
 21
26.899999999999633
 31
0.0
  0
LINE
  5
358
100
AcDbEntity
  8
0
  6
CONTINUOUS
 62
               4
100
AcDbLine
 10
30.499999978482236
 20
28.399999999999689
 30
0.0
 11
28.999999982482251
 21
28.399999999999689
 31
0.0
  0
ARC
  5
359
100
AcDbEntity
  8
0
  6
CONTINUOUS
 62
               4
100
AcDbCircle
 10
30.499999978482236
 20
27.899999999999633
 30
0.0
 40
0.5
100
AcDbArc
 50
359.99999999999898
 51
89.999999999998778
  0
LINE
  5
35A
100
AcDbEntity
  8
0
  6
CONTINUOUS
 62
               4
100
AcDbLine
 10
31.000000013517791
 20
27.899999999999888
 30
0.0
 11
31.000000013518161
 21
5.9999999999999147
 31
0.0
  0
LINE
  5
35B
100
AcDbEntity
  8
0
  6
CONTINUOUS
 62
               4
100
AcDbLine
 10
30.199999892482253
 20
28.499999999999684
 30
0.0
 11
17.800000072482248
 21
28.499999999999911
 31
0.0
  0
ARC
  5
35C
100
AcDbEntity
  8
0
  6
CONTINUOUS
 62
               4
100
AcDbCircle
 10
17.49999998648218
 20
27.899999999999888
 30
0.0
 40
0.5
100
AcDbArc
 50
93.919585899649775
 51
179.99999999999858
  0
LINE
  5
35D
100
AcDbEntity
  8
0
  6
CONTINUOUS
 62
               4
100
AcDbLine
 10
20.700000167517771
 20
27.899999999999817
 30
0.0
 11
16.999999986482209
 21
27.899999999999888
 31
0.0
  0
ARC
  5
35E
100
AcDbEntity
  8
0
  6
CONTINUOUS
 62
               4
100
AcDbCircle
 10
17.798912067353967
 20
27.901088005128141
 30
0.0
 40
0.598912923125741
100
AcDbArc
 50
89.895914524771712
 51
180.10408547522565
  0
ARC
  5
35F
100
AcDbEntity
  8
0
  6
CONTINUOUS
 62
               4
100
AcDbCircle
 10
30.200095039130929
 20
27.900095146648336
 30
0.0
 40
0.599904800896587
100
AcDbArc
 50
56.247417870392866
 51
90.009087277545149
  0
LINE
  5
360
100
AcDbEntity
  8
0
  6
CONTINUOUS
 62
               4
100
AcDbLine
 10
54.495959596051193
 20
22.354545445200298
 30
0.0
 11
54.495959596051165
 21
23.655555545466992
 31
0.0
  0
LINE
  5
361
100
AcDbEntity
  8
0
  6
CONTINUOUS
 62
               7
100
AcDbLine
 10
30.0
 20
-11.594001430615208
 30
0.0
 11
31.0
 21
-11.594001430615208
 31
0.0
  0
LINE
  5
362
100
AcDbEntity
  8
0
  6
CONTINUOUS
 62
               7
100
AcDbLine
 10
30.0
 20
-8.3940014306151909
 30
0.0
 11
31.0
 21
-8.3940014306151909
 31
0.0
  0
LINE
  5
363
100
AcDbEntity
  8
0
  6
CONTINUOUS
 62
               7
100
AcDbLine
 10
32.548000013518106
 20
2.5999999999999943
 30
0.0
 11
32.100000013518155
 21
2.5999999999999943
 31
0.0
  0
LINE
  5
364
100
AcDbEntity
  8
0
  6
CONTINUOUS
 62
               7
100
AcDbLine
 10
32.548000013518106
 20
4.8000000000000398
 30
0.0
 11
32.100000013518127
 21
4.8000000000000256
 31
0.0
  0
LINE
  5
365
100
AcDbEntity
  8
0
  6
CONTINUOUS
 62
               7
100
AcDbLine
 10
32.548000013518106
 20
2.5999999999999943
 30
0.0
 11
32.548000013518106
 21
4.8000000000000398
 31
0.0
  0
LINE
  5
366
100
AcDbEntity
  8
0
  6
CONTINUOUS
 62
               7
100
AcDbLine
 10
31.000000013518161
 20
5.9999999999999289
 30
0.0
 11
31.000000013518161
 21
-5.6950000000000074
 31
0.0
  0
LINE
  5
367
100
AcDbEntity
  8
0
  6
CONTINUOUS
 62
               7
100
AcDbLine
 10
31.000000013518161
 20
-1.0950000000000131
 30
0.0
 11
32.100000013518155
 21
0.0
 31
0.0
  0
CIRCLE
  5
368
100
AcDbEntity
  8
0
  6
CONTINUOUS
 62
               2
100
AcDbCircle
 10
4.9999816894531364
 20
-12.300006103515621
 30
0.0
 40
2.5
  0
CIRCLE
  5
369
100
AcDbEntity
  8
0
  6
CONTINUOUS
 62
               2
100
AcDbCircle
 10
10.999996948242199
 20
-20.000003051757815
 30
0.0
 40
2.5
  0
CIRCLE
  5
36A
100
AcDbEntity
  8
0
  6
CONTINUOUS
 62
               7
100
AcDbCircle
 10
10.999996948242199
 20
-20.000003051757815
 30
0.0
 40
2.0669994354248047
  0
CIRCLE
  5
36B
100
AcDbEntity
  8
0
  6
CONTINUOUS
 62
               7
100
AcDbCircle
 10
4.9999816894531364
 20
-12.300006103515621
 30
0.0
 40
2.0669994354248047
  0
LINE
  5
36C
100
AcDbEntity
  8
0
  6
CENTER
 62
               2
100
AcDbLine
 10
1.5
 20
-12.299999999999997
 30
0.0
 11
8.5
 21
-12.299999999999997
 31
0.0
  0
LINE
  5
36D
100
AcDbEntity
  8
0
  6
CENTER
 62
               2
100
AcDbLine
 10
5.0
 20
-8.7999999999999972
 30
0.0
 11
5.0
 21
-15.799999999999997
 31
0.0
  0
LINE
  5
36E
100
AcDbEntity
  8
0
  6
CENTER
 62
               2
100
AcDbLine
 10
11.0
 20
-16.5
 30
0.0
 11
11.0
 21
-23.499999999999986
 31
0.0
  0
LINE
  5
36F
100
AcDbEntity
  8
0
  6
CENTER
 62
               2
100
AcDbLine
 10
7.5
 20
-19.999999999999986
 30
0.0
 11
14.5
 21
-19.999999999999986
 31
0.0
  0
LINE
  5
370
100
AcDbEntity
  8
0
  6
CONTINUOUS
 62
               7
100
AcDbLine
 10
16.0
 20
-32.299999999999997
 30
0.0
 11
0.0
 21
-32.299999999999997
 31
0.0
  0
LINE
  5
371
100
AcDbEntity
  8
0
  6
CONTINUOUS
 62
               7
100
AcDbLine
 10
16.0
 20
2.7000000000000028
 30
0.0
 11
0.0
 21
2.7000000000000028
 31
0.0
  0
LINE
  5
372
100
AcDbEntity
  8
0
  6
CONTINUOUS
 62
               7
100
AcDbLine
 10
0.0
 20
2.7000000000000028
 30
0.0
 11
0.0
 21
-32.299999999999997
 31
0.0
  0
LINE
  5
373
100
AcDbEntity
  8
0
  6
CONTINUOUS
 62
               7
100
AcDbLine
 10
16.0
 20
-32.299999999999997
 30
0.0
 11
16.0
 21
2.7000000000000028
 31
0.0
  0
LINE
  5
374
100
AcDbEntity
  8
0
  6
CONTINUOUS
 62
               7
100
AcDbLine
 10
30.0
 20
-8.3940014306151909
 30
0.0
 11
30.0
 21
-11.594001430615208
 31
0.0
  0
LINE
  5
375
100
AcDbEntity
  8
0
  6
CENTER
 62
               2
100
AcDbLine
 10
24.0
 20
30.347850672801098
 30
0.0
 11
24.0
 21
-59.947850672801096
 31
0.0
  0
LINE
  5
376
100
AcDbEntity
  8
0
  6
CONTINUOUS
 62
               7
100
AcDbLine
 10
31.0
 20
-5.6949999999999932
 30
0.0
 11
31.0
 21
-23.905000000000001
 31
0.0
  0
LINE
  5
377
100
AcDbEntity
  8
0
  6
CONTINUOUS
 62
               7
100
AcDbLine
 10
17.000000013518104
 20
-35.599999999999937
 30
0.0
 11
17.000000013518104
 21
5.9999999999999432
 31
0.0
  0
LINE
  5
378
100
AcDbEntity
  8
0
  6
CONTINUOUS
 62
               7
100
AcDbLine
 10
30.0
 20
-8.4949999999999903
 30
0.0
 11
30.199999999999989
 21
-8.4949999999999903
 31
0.0
  0
LINE
  5
379
100
AcDbEntity
  8
0
  6
CONTINUOUS
 62
               7
100
AcDbLine
 10
30.0
 20
-11.494999999999997
 30
0.0
 11
30.199999999999989
 21
-11.494999999999997
 31
0.0
  0
LINE
  5
37A
100
AcDbEntity
  8
0
  6
CONTINUOUS
 62
               7
100
AcDbLine
 10
30.599999999999994
 20
-8.894999999999996
 30
0.0
 11
30.599999999999994
 21
-11.094999999999999
 31
0.0
  0
ARC
  5
37B
100
AcDbEntity
  8
0
  6
CONTINUOUS
 62
               7
100
AcDbCircle
 10
30.199999999999989
 20
-8.894999999999996
 30
0.0
 40
0.4
100
AcDbArc
 50
0.0
 51
89.999999999999815
  0
ARC
  5
37C
100
AcDbEntity
  8
0
  6
CONTINUOUS
 62
               7
100
AcDbCircle
 10
30.199999999999989
 20
-11.094999999999999
 30
0.0
 40
0.4
100
AcDbArc
 50
270.00000000000023
 51
0.0
  0
LINE
  5
37D
100
AcDbEntity
  8
0
  6
CONTINUOUS
 62
               4
100
AcDbLine
 10
54.495959596051165
 20
22.754233112521117
 30
0.0
 11
57.995959596051222
 21
22.754233112521117
 31
0.0
  0
LINE
  5
37E
100
AcDbEntity
  8
0
  6
CONTINUOUS
 62
               4
100
AcDbLine
 10
54.495959596051165
 20
23.254233112521117
 30
0.0
 11
57.995959596051222
 21
23.254233112521117
 31
0.0
  0
LINE
  5
37F
100
AcDbEntity
  8
0
  6
CONTINUOUS
 62
               4
100
AcDbLine
 10
57.995959596051222
 20
23.254233112521117
 30
0.0
 11
57.995959596051222
 21
22.754233112521117
 31
0.0
  0
LINE
  5
380
100
AcDbEntity
  8
0
  6
CONTINUOUS
 62
               4
100
AcDbLine
 10
54.495959596051179
 20
-52.855867878146171
 30
0.0
 11
57.995959596051236
 21
-52.855867878146171
 31
0.0
  0
LINE
  5
381
100
AcDbEntity
  8
0
  6
CONTINUOUS
 62
               4
100
AcDbLine
 10
54.495959596051179
 20
-52.355867878146171
 30
0.0
 11
57.995959596051236
 21
-52.355867878146171
 31
0.0
  0
LINE
  5
382
100
AcDbEntity
  8
0
  6
CONTINUOUS
 62
               4
100
AcDbLine
 10
57.995959596051236
 20
-52.355867878146171
 30
0.0
 11
57.995959596051236
 21
-52.855867878146171
 31
0.0
  0
LINE
  5
383
100
AcDbEntity
  8
0
  6
CONTINUOUS
 62
               7
100
AcDbLine
 10
32.548000013518106
 20
-32.199999999999989
 30
0.0
 11
32.100000013518155
 21
-32.199999999999989
 31
0.0
  0
LINE
  5
384
100
AcDbEntity
  8
0
  6
CONTINUOUS
 62
               7
100
AcDbLine
 10
17.00000002151819
 20
-5.7000000000003439
 30
0.0
 11
31.000000013518161
 21
-5.7000000000000881
 31
0.0
  0
LINE
  5
385
100
AcDbEntity
  8
0
  6
CONTINUOUS
 62
               7
100
AcDbLine
 10
17.00000002151819
 20
-23.89999999999965
 30
0.0
 11
31.0
 21
-23.899999999999906
 31
0.0
  0
ENDBLK
  5
386
100
AcDbEntity
  8
0
100
AcDbBlockEnd
  0
BLOCK
  5
387
100
AcDbEntity
  8
0
100
AcDbBlockBegin
  2
EA10SA6-6
 70
               0
 10
0.0
 20
0.0
 30
0.0
  3
EA10SA6-6
  1

  0
LINE
  5
388
100
AcDbEntity
  8
0
  6
CONTINUOUS
 62
               7
100
AcDbLine
 10
-16.999921226538035
 20
-30.100006103515625
 30
0.0
 11
-15.999999999999986
 21
-30.100006103515625
 31
0.0
  0
LINE
  5
389
100
AcDbEntity
  8
0
  6
CONTINUOUS
 62
               7
100
AcDbLine
 10
-16.999989318840889
 20
0.4999938964843835
 30
0.0
 11
-16.000000000000014
 21
0.4999938964843835
 31
0.0
  0
LINE
  5
38A
100
AcDbEntity
  8
0
  6
CENTER
 62
               2
100
AcDbLine
 10
-2.0
 20
-29.599999999999994
 30
0.0
 11
2.0
 21
-29.599999999999994
 31
0.0
  0
LINE
  5
38B
100
AcDbEntity
  8
0
  6
CENTER
 62
               2
100
AcDbLine
 10
-2.0
 20
0.0
 30
0.0
 11
2.0
 21
0.0
 31
0.0
  0
ARC
  5
38C
100
AcDbEntity
  8
0
  6
CONTINUOUS
 62
               4
100
AcDbCircle
 10
-33.886980706044852
 20
-36.099995453570642
 30
0.0
 40
0.5
100
AcDbArc
 50
89.755663602704061
 51
115.03102081721671
  0
ARC
  5
38D
100
AcDbEntity
  8
0
  6
CONTINUOUS
 62
               4
100
AcDbCircle
 10
-33.886980706044852
 20
6.4999954535706479
 30
0.0
 40
0.5
100
AcDbArc
 50
244.96897918278245
 51
270.24433639740585
  0
ARC
  5
38E
100
AcDbEntity
  8
0
  6
CONTINUOUS
 62
               4
100
AcDbCircle
 10
-19.601088194272251
 20
-57.501088005236767
 30
0.0
 40
0.5989129830170392
100
AcDbArc
 50
179.89591452477256
 51
270.1040854752265
  0
LINE
  5
38F
100
AcDbEntity
  8
0
  6
CONTINUOUS
 62
               4
100
AcDbLine
 10
-20.700000189035165
 20
-57.499999999999758
 30
0.0
 11
-20.700000189035165
 21
-58.099999999999781
 31
0.0
  0
ARC
  5
390
100
AcDbEntity
  8
0
  6
CONTINUOUS
 62
               4
100
AcDbCircle
 10
-28.398911805727749
 20
27.901088005236769
 30
0.0
 40
0.5989129830170392
100
AcDbArc
 50
359.89591452477299
 51
90.104085475226924
  0
LINE
  5
391
100
AcDbEntity
  8
0
  6
CONTINUOUS
 62
               4
100
AcDbLine
 10
-27.299999810964835
 20
27.899999999999761
 30
0.0
 11
-27.299999810964835
 21
28.499999999999783
 31
0.0
  0
LINE
  5
392
100
AcDbEntity
  8
0
  6
CONTINUOUS
 62
               7
100
AcDbLine
 10
-31.000000000000057
 20
-28.5
 30
0.0
 11
-32.100000000000023
 21
-29.599999999999994
 31
0.0
  0
LINE
  5
393
100
AcDbEntity
  8
0
  6
CONTINUOUS
 62
               7
100
AcDbLine
 10
-32.548000000000002
 20
-32.199999999999989
 30
0.0
 11
-32.100000000000023
 21
-32.199999999999989
 31
0.0
  0
LINE
  5
394
100
AcDbEntity
  8
0
  6
CONTINUOUS
 62
               7
100
AcDbLine
 10
-17.0
 20
-23.899999999999991
 30
0.0
 11
-31.0
 21
-23.899999999999991
 31
0.0
  0
LINE
  5
395
100
AcDbEntity
  8
0
  6
CONTINUOUS
 62
               4
100
AcDbLine
 10
-54.495959574533572
 20
-51.954545445199273
 30
0.0
 11
-51.908080788133589
 21
-51.954545445199301
 31
0.0
  0
LINE
  5
396
100
AcDbEntity
  8
0
  6
CONTINUOUS
 62
               4
100
AcDbLine
 10
-54.495959574533572
 20
-51.954545445199273
 30
0.0
 11
-54.4959595745336
 21
-53.255555545465967
 31
0.0
  0
LINE
  5
397
100
AcDbEntity
  8
0
  6
CONTINUOUS
 62
             200
100
AcDbLine
 10
-50.324242405200323
 20
-54.104040393466008
 30
0.0
 11
-52.056565636533605
 21
-51.098989890132714
 31
0.0
  0
LINE
  5
398
100
AcDbEntity
  8
0
  6
CONTINUOUS
 62
             200
100
AcDbLine
 10
-50.670707051467019
 20
-54.10404039346605
 30
0.0
 11
-52.403030282800302
 21
-51.106060597199331
 31
0.0
  0
LINE
  5
399
100
AcDbEntity
  8
0
  6
CONTINUOUS
 62
               4
100
AcDbLine
 10
-54.4959595745336
 20
-53.255555545465967
 30
0.0
 11
-51.158585839067001
 21
-53.255555545466024
 31
0.0
  0
LINE
  5
39A
100
AcDbEntity
  8
0
  6
CONTINUOUS
 62
               7
100
AcDbLine
 10
-31.000038524730655
 20
-36.099999998515784
 30
0.0
 11
-31.0
 21
-35.599999999999994
 31
0.0
  0
LINE
  5
39B
100
AcDbEntity
  8
0
  6
CONTINUOUS
 62
               7
100
AcDbLine
 10
-32.548000000000002
 20
-34.400000000000034
 30
0.0
 11
-32.100000000000023
 21
-34.400000000000034
 31
0.0
  0
ARC
  5
39C
100
AcDbEntity
  8
0
  6
CONTINUOUS
 62
               4
100
AcDbCircle
 10
-30.200095060648323
 20
-57.500095146648647
 30
0.0
 40
0.599904800896587
100
AcDbArc
 50
236.24741787039457
 51
270.00908727754683
  0
ARC
  5
39D
100
AcDbEntity
  8
0
  6
CONTINUOUS
 62
               4
100
AcDbCircle
 10
-17.798912088871361
 20
-57.501088005127997
 30
0.0
 40
0.598912923125741
100
AcDbArc
 50
269.89591452477339
 51
0.1040854752281387
  0
LINE
  5
39E
100
AcDbEntity
  8
0
  6
CONTINUOUS
 62
               4
100
AcDbLine
 10
-20.700000189035165
 20
-57.499999999999773
 30
0.0
 11
-17.000000007999603
 21
-57.499999999999716
 31
0.0
  0
ARC
  5
39F
100
AcDbEntity
  8
0
  6
CONTINUOUS
 62
               4
100
AcDbCircle
 10
-17.500000007999574
 20
-57.499999999999744
 30
0.0
 40
0.5
100
AcDbArc
 50
273.91958589965145
 51
0.0000000000010687
  0
LINE
  5
3A0
100
AcDbEntity
  8
0
  6
CONTINUOUS
 62
               4
100
AcDbLine
 10
-30.199999913999648
 20
-58.099999999999994
 30
0.0
 11
-17.800000093999643
 21
-58.099999999999767
 31
0.0
  0
LINE
  5
3A1
100
AcDbEntity
  8
0
  6
CONTINUOUS
 62
               4
100
AcDbLine
 10
-30.999999992000397
 20
-57.499999999999716
 30
0.0
 11
-30.999999991999971
 21
-35.599999999999739
 31
0.0
  0
ARC
  5
3A2
100
AcDbEntity
  8
0
  6
CONTINUOUS
 62
               4
100
AcDbCircle
 10
-30.499999999999631
 20
-57.499999999999943
 30
0.0
 40
0.5
100
AcDbArc
 50
180.00000000000065
 51
270.00000000000045
  0
LINE
  5
3A3
100
AcDbEntity
  8
0
  6
CONTINUOUS
 62
               4
100
AcDbLine
 10
-30.499999999999631
 20
-58.0
 30
0.0
 11
-29.000000003999645
 21
-57.999999999999957
 31
0.0
  0
LINE
  5
3A4
100
AcDbEntity
  8
0
  6
CONTINUOUS
 62
               4
100
AcDbLine
 10
-29.000000003999673
 20
-58.099999999999952
 30
0.0
 11
-29.000000003999673
 21
-56.499999999999901
 31
0.0
  0
LINE
  5
3A5
100
AcDbEntity
  8
0
  6
CONTINUOUS
 62
               4
100
AcDbLine
 10
-29.000000003999673
 20
-56.499999999999901
 30
0.0
 11
-17.00000000799966
 21
-56.499999999999687
 31
0.0
  0
LINE
  5
3A6
100
AcDbEntity
  8
0
  6
CONTINUOUS
 62
               4
100
AcDbLine
 10
-17.0
 20
-35.599999999999994
 30
0.0
 11
-17.000000000000398
 21
-57.499999999999972
 31
0.0
  0
ARC
  5
3A7
100
AcDbEntity
  8
0
  6
CONTINUOUS
 62
               4
100
AcDbCircle
 10
-39.400834031354691
 20
-54.606894639353925
 30
0.0
 40
0.403865208170398
100
AcDbArc
 50
0.1183247355139886
 51
89.881675264485096
  0
ARC
  5
3A8
100
AcDbEntity
  8
0
  6
CONTINUOUS
 62
               4
100
AcDbCircle
 10
-39.399895918379372
 20
-54.605327231604093
 30
0.0
 40
0.4029269013737999
100
AcDbArc
 50
280.09177155739445
 51
359.89571641424902
  0
ARC
  5
3A9
100
AcDbEntity
  8
0
  6
CONTINUOUS
 62
               4
100
AcDbCircle
 10
-37.99991250613752
 20
-54.705034325092242
 30
0.0
 40
0.4950149226876426
100
AcDbArc
 50
233.12312474116328
 51
270.80830412457703
  0
ARC
  5
3AA
100
AcDbEntity
  8
0
  6
CONTINUOUS
 62
               4
100
AcDbCircle
 10
-31.29943128371778
 20
-55.904584129418424
 30
0.0
 40
0.2994663800970315
100
AcDbArc
 50
270.47097302846367
 51
0.8771007675051766
  0
ARC
  5
3AB
100
AcDbEntity
  8
0
  6
CONTINUOUS
 62
               4
100
AcDbCircle
 10
-38.500332832921657
 20
-54.604373238387623
 30
0.0
 40
0.4966660273328702
100
AcDbArc
 50
179.37896036356233
 51
270.62103963643222
  0
ARC
  5
3AC
100
AcDbEntity
  8
0
  6
CONTINUOUS
 62
               4
100
AcDbCircle
 10
-38.497257361556791
 20
-38.252522460538799
 30
0.0
 40
0.4997133381008656
100
AcDbArc
 50
114.82621530980826
 51
179.88450442035563
  0
LINE
  5
3AD
100
AcDbEntity
  8
0
  6
CONTINUOUS
 62
               4
100
AcDbLine
 10
-33.884848475199931
 20
-35.599999999999696
 30
0.0
 11
-33.884848475200272
 21
-55.101010089866392
 31
0.0
  0
LINE
  5
3AE
100
AcDbEntity
  8
0
  6
CONTINUOUS
 62
               4
100
AcDbLine
 10
-45.996969680400213
 20
-50.102020193732756
 30
0.0
 11
-46.993939376800228
 21
-50.102020193732713
 31
0.0
  0
LINE
  5
3AF
100
AcDbEntity
  8
0
  6
CONTINUOUS
 62
               4
100
AcDbLine
 10
-38.996969684400256
 20
-50.102020193732898
 30
0.0
 11
-40.997979784266875
 21
-50.102020193732827
 31
0.0
  0
LINE
  5
3B0
100
AcDbEntity
  8
0
  6
CONTINUOUS
 62
               4
100
AcDbLine
 10
-46.993939376800256
 20
-51.699999990799483
 30
0.0
 11
-38.996969684400284
 21
-51.699999990799625
 31
0.0
  0
LINE
  5
3B1
100
AcDbEntity
  8
0
  6
CONTINUOUS
 62
               4
100
AcDbLine
 10
-46.993939376800284
 20
-53.50303029279948
 30
0.0
 11
-38.996969684400312
 21
-53.50303029279965
 31
0.0
  0
LINE
  5
3B2
100
AcDbEntity
  8
0
  6
CONTINUOUS
 62
               4
100
AcDbLine
 10
-46.993939376800313
 20
-54.203030292399461
 30
0.0
 11
-39.399999987200374
 21
-54.203030292399575
 31
0.0
  0
LINE
  5
3B3
100
AcDbEntity
  8
0
  6
CONTINUOUS
 62
               4
100
AcDbLine
 10
-46.696969680000336
 20
-54.499999989199438
 30
0.0
 11
-40.792929279333634
 21
-54.499999989199537
 31
0.0
  0
LINE
  5
3B4
100
AcDbEntity
  8
0
  6
CONTINUOUS
 62
               4
100
AcDbLine
 10
-46.993939376800341
 20
-56.105050493332755
 30
0.0
 11
-45.586868670533647
 21
-56.105050493332797
 31
0.0
  0
LINE
  5
3B5
100
AcDbEntity
  8
0
  6
CONTINUOUS
 62
               4
100
AcDbLine
 10
-46.99393937680037
 20
-57.102020189732826
 30
0.0
 11
-45.494949478667081
 21
-57.102020189732869
 31
0.0
  0
LINE
  5
3B6
100
AcDbEntity
  8
0
  6
CONTINUOUS
 62
               4
100
AcDbLine
 10
-32.293939385200275
 20
-55.101010089866449
 30
0.0
 11
-32.293939385200332
 21
-55.199999988799718
 31
0.0
  0
LINE
  5
3B7
100
AcDbEntity
  8
0
  6
CONTINUOUS
 62
               4
100
AcDbLine
 10
-40.389898976533715
 20
-56.204040392266307
 30
0.0
 11
-31.296969688800317
 21
-56.204040392266478
 31
0.0
  0
LINE
  5
3B8
100
AcDbEntity
  8
0
  6
CONTINUOUS
 62
               4
100
AcDbLine
 10
-40.495959582533658
 20
-54.203030292399575
 30
0.0
 11
-40.792929279333634
 21
-54.499999989199537
 31
0.0
  0
LINE
  5
3B9
100
AcDbEntity
  8
0
  6
CONTINUOUS
 62
               4
100
AcDbLine
 10
-40.997979784266875
 20
-50.102020193732827
 30
0.0
 11
-40.997979784266903
 21
-50.703030294399596
 31
0.0
  0
LINE
  5
3BA
100
AcDbEntity
  8
0
  6
CONTINUOUS
 62
               4
100
AcDbLine
 10
-45.996969680400269
 20
-50.703030294399468
 30
0.0
 11
-40.997979784266903
 21
-50.703030294399596
 31
0.0
  0
LINE
  5
3BB
100
AcDbEntity
  8
0
  6
CONTINUOUS
 62
               4
100
AcDbLine
 10
-45.996969680400213
 20
-50.102020193732756
 30
0.0
 11
-45.996969680400269
 21
-50.703030294399468
 31
0.0
  0
LINE
  5
3BC
100
AcDbEntity
  8
0
  6
CONTINUOUS
 62
               4
100
AcDbLine
 10
-46.993939376800313
 20
-54.203030292399461
 30
0.0
 11
-46.696969680000336
 21
-54.499999989199438
 31
0.0
  0
LINE
  5
3BD
100
AcDbEntity
  8
0
  6
CONTINUOUS
 62
               4
100
AcDbLine
 10
-37.992929280933708
 20
-55.199999988799618
 30
0.0
 11
-32.293939385200332
 21
-55.199999988799718
 31
0.0
  0
LINE
  5
3BE
100
AcDbEntity
  8
0
  6
CONTINUOUS
 62
               4
100
AcDbLine
 10
-39.329292916533689
 20
-55.002020190932868
 30
0.0
 11
-45.671717155333681
 21
-56.119191907466131
 31
0.0
  0
LINE
  5
3BF
100
AcDbEntity
  8
0
  6
CONTINUOUS
 62
               4
100
AcDbLine
 10
-46.993939376800341
 20
-56.105050493332755
 30
0.0
 11
-46.99393937680037
 21
-57.102020189732826
 31
0.0
  0
LINE
  5
3C0
100
AcDbEntity
  8
0
  6
CONTINUOUS
 62
               4
100
AcDbLine
 10
-40.389898976533715
 20
-56.204040392266307
 30
0.0
 11
-45.494949478667081
 21
-57.102020189732869
 31
0.0
  0
LINE
  5
3C1
100
AcDbEntity
  8
0
  6
CONTINUOUS
 62
               4
100
AcDbLine
 10
-46.993939376800228
 20
-50.102020193732713
 30
0.0
 11
-46.993939376800313
 21
-54.203030292399461
 31
0.0
  0
LINE
  5
3C2
100
AcDbEntity
  8
0
  6
CONTINUOUS
 62
               4
100
AcDbLine
 10
-34.098535150427836
 20
-35.646956032480361
 30
0.0
 11
-38.707070694666669
 21
-37.798989897732923
 31
0.0
  0
LINE
  5
3C3
100
AcDbEntity
  8
0
  6
CONTINUOUS
 62
               4
100
AcDbLine
 10
-38.996969684400341
 20
-54.598989888132934
 30
0.0
 11
-38.996969684400085
 21
-38.251515149999676
 31
0.0
  0
LINE
  5
3C4
100
AcDbEntity
  8
0
  6
CONTINUOUS
 62
               4
100
AcDbLine
 10
-30.999999992000312
 20
-55.101010089866435
 30
0.0
 11
-38.494949482666982
 21
-55.101010089866335
 31
0.0
  0
LINE
  5
3C5
100
AcDbEntity
  8
0
  6
CONTINUOUS
 62
               4
100
AcDbLine
 10
-17.0
 20
-35.599999999999994
 30
0.0
 11
-33.884848475199931
 21
-35.599999999999696
 31
0.0
  0
LINE
  5
3C6
100
AcDbEntity
  8
0
  6
CONTINUOUS
 62
               4
100
AcDbLine
 10
-51.561616141866892
 20
-51.954545445199329
 30
0.0
 11
-46.993939376800256
 21
-51.954545445199386
 31
0.0
  0
LINE
  5
3C7
100
AcDbEntity
  8
0
  6
CONTINUOUS
 62
               4
100
AcDbLine
 10
-50.812121192800305
 20
-53.255555545466024
 30
0.0
 11
-46.993939376800284
 21
-53.255555545466109
 31
0.0
  0
LINE
  5
3C8
100
AcDbEntity
  8
0
  6
CONTINUOUS
 62
               7
100
AcDbLine
 10
-32.548000000000002
 20
-32.199999999999989
 30
0.0
 11
-32.548000000000002
 21
-34.400000000000034
 31
0.0
  0
LINE
  5
3C9
100
AcDbEntity
  8
0
  6
CONTINUOUS
 62
               7
100
AcDbLine
 10
-32.100000000000023
 20
-29.599999999999994
 30
0.0
 11
-32.100000000000023
 21
-35.599999999999937
 31
0.0
  0
LINE
  5
3CA
100
AcDbEntity
  8
0
  6
CONTINUOUS
 62
               4
100
AcDbLine
 10
-54.495959574533572
 20
22.354545445199275
 30
0.0
 11
-54.4959595745336
 21
23.655555545465969
 31
0.0
  0
LINE
  5
3CB
100
AcDbEntity
  8
0
  6
CONTINUOUS
 62
               4
100
AcDbLine
 10
-17.0
 20
6.0
 30
0.0
 11
-33.884848475199931
 21
5.9999999999997016
 31
0.0
  0
LINE
  5
3CC
100
AcDbEntity
  8
0
  6
CONTINUOUS
 62
               4
100
AcDbLine
 10
-30.999999992000312
 20
25.501010089866437
 30
0.0
 11
-38.494949482666982
 21
25.501010089866337
 31
0.0
  0
LINE
  5
3CD
100
AcDbEntity
  8
0
  6
CONTINUOUS
 62
               4
100
AcDbLine
 10
-38.996969684400341
 20
24.998989888132936
 30
0.0
 11
-38.996969684400085
 21
8.6515151499996819
 31
0.0
  0
LINE
  5
3CE
100
AcDbEntity
  8
0
  6
CONTINUOUS
 62
               4
100
AcDbLine
 10
-34.098535150427836
 20
6.0469560324803666
 30
0.0
 11
-38.707070694666669
 21
8.198989897732929
 31
0.0
  0
LINE
  5
3CF
100
AcDbEntity
  8
0
  6
CONTINUOUS
 62
               4
100
AcDbLine
 10
-46.993939376800228
 20
20.502020193732715
 30
0.0
 11
-46.993939376800313
 21
24.603030292399463
 31
0.0
  0
LINE
  5
3D0
100
AcDbEntity
  8
0
  6
CONTINUOUS
 62
               4
100
AcDbLine
 10
-40.389898976533715
 20
26.60404039226631
 30
0.0
 11
-45.494949478667081
 21
27.502020189732871
 31
0.0
  0
LINE
  5
3D1
100
AcDbEntity
  8
0
  6
CONTINUOUS
 62
               4
100
AcDbLine
 10
-46.993939376800341
 20
26.505050493332757
 30
0.0
 11
-46.99393937680037
 21
27.502020189732828
 31
0.0
  0
LINE
  5
3D2
100
AcDbEntity
  8
0
  6
CONTINUOUS
 62
               4
100
AcDbLine
 10
-39.329292916533689
 20
25.40202019093287
 30
0.0
 11
-45.671717155333681
 21
26.519191907466134
 31
0.0
  0
LINE
  5
3D3
100
AcDbEntity
  8
0
  6
CONTINUOUS
 62
               4
100
AcDbLine
 10
-37.992929280933708
 20
25.59999998879962
 30
0.0
 11
-32.293939385200332
 21
25.59999998879972
 31
0.0
  0
LINE
  5
3D4
100
AcDbEntity
  8
0
  6
CONTINUOUS
 62
               4
100
AcDbLine
 10
-46.993939376800313
 20
24.603030292399463
 30
0.0
 11
-46.696969680000336
 21
24.89999998919944
 31
0.0
  0
LINE
  5
3D5
100
AcDbEntity
  8
0
  6
CONTINUOUS
 62
               4
100
AcDbLine
 10
-45.996969680400213
 20
20.502020193732758
 30
0.0
 11
-45.996969680400269
 21
21.103030294399471
 31
0.0
  0
LINE
  5
3D6
100
AcDbEntity
  8
0
  6
CONTINUOUS
 62
               4
100
AcDbLine
 10
-45.996969680400269
 20
21.103030294399471
 30
0.0
 11
-40.997979784266903
 21
21.103030294399598
 31
0.0
  0
LINE
  5
3D7
100
AcDbEntity
  8
0
  6
CONTINUOUS
 62
               4
100
AcDbLine
 10
-40.997979784266875
 20
20.502020193732829
 30
0.0
 11
-40.997979784266903
 21
21.103030294399598
 31
0.0
  0
LINE
  5
3D8
100
AcDbEntity
  8
0
  6
CONTINUOUS
 62
               4
100
AcDbLine
 10
-40.495959582533658
 20
24.603030292399577
 30
0.0
 11
-40.792929279333634
 21
24.899999989199539
 31
0.0
  0
LINE
  5
3D9
100
AcDbEntity
  8
0
  6
CONTINUOUS
 62
               4
100
AcDbLine
 10
-40.389898976533715
 20
26.60404039226631
 30
0.0
 11
-31.296969688800317
 21
26.60404039226648
 31
0.0
  0
LINE
  5
3DA
100
AcDbEntity
  8
0
  6
CONTINUOUS
 62
               4
100
AcDbLine
 10
-32.293939385200275
 20
25.501010089866451
 30
0.0
 11
-32.293939385200332
 21
25.59999998879972
 31
0.0
  0
LINE
  5
3DB
100
AcDbEntity
  8
0
  6
CONTINUOUS
 62
               4
100
AcDbLine
 10
-51.561616141866892
 20
22.354545445199332
 30
0.0
 11
-46.993939376800256
 21
22.354545445199388
 31
0.0
  0
LINE
  5
3DC
100
AcDbEntity
  8
0
  6
CONTINUOUS
 62
             200
100
AcDbLine
 10
-50.324242405200323
 20
24.50404039346601
 30
0.0
 11
-52.056565636533605
 21
21.498989890132716
 31
0.0
  0
LINE
  5
3DD
100
AcDbEntity
  8
0
  6
CONTINUOUS
 62
               4
100
AcDbLine
 10
-50.812121192800305
 20
23.655555545466026
 30
0.0
 11
-46.993939376800284
 21
23.655555545466111
 31
0.0
  0
LINE
  5
3DE
100
AcDbEntity
  8
0
  6
CONTINUOUS
 62
               4
100
AcDbLine
 10
-46.99393937680037
 20
27.502020189732828
 30
0.0
 11
-45.494949478667081
 21
27.502020189732871
 31
0.0
  0
LINE
  5
3DF
100
AcDbEntity
  8
0
  6
CONTINUOUS
 62
               4
100
AcDbLine
 10
-46.993939376800341
 20
26.505050493332757
 30
0.0
 11
-45.586868670533647
 21
26.505050493332799
 31
0.0
  0
LINE
  5
3E0
100
AcDbEntity
  8
0
  6
CONTINUOUS
 62
               4
100
AcDbLine
 10
-46.696969680000336
 20
24.89999998919944
 30
0.0
 11
-40.792929279333634
 21
24.899999989199539
 31
0.0
  0
LINE
  5
3E1
100
AcDbEntity
  8
0
  6
CONTINUOUS
 62
               4
100
AcDbLine
 10
-46.993939376800313
 20
24.603030292399463
 30
0.0
 11
-39.399999987200374
 21
24.603030292399577
 31
0.0
  0
LINE
  5
3E2
100
AcDbEntity
  8
0
  6
CONTINUOUS
 62
               4
100
AcDbLine
 10
-46.993939376800284
 20
23.903030292799482
 30
0.0
 11
-38.996969684400312
 21
23.903030292799652
 31
0.0
  0
LINE
  5
3E3
100
AcDbEntity
  8
0
  6
CONTINUOUS
 62
               4
100
AcDbLine
 10
-46.993939376800256
 20
22.099999990799486
 30
0.0
 11
-38.996969684400284
 21
22.099999990799628
 31
0.0
  0
LINE
  5
3E4
100
AcDbEntity
  8
0
  6
CONTINUOUS
 62
               4
100
AcDbLine
 10
-38.996969684400256
 20
20.5020201937329
 30
0.0
 11
-40.997979784266875
 21
20.502020193732829
 31
0.0
  0
LINE
  5
3E5
100
AcDbEntity
  8
0
  6
CONTINUOUS
 62
               4
100
AcDbLine
 10
-45.996969680400213
 20
20.502020193732758
 30
0.0
 11
-46.993939376800228
 21
20.502020193732715
 31
0.0
  0
LINE
  5
3E6
100
AcDbEntity
  8
0
  6
CONTINUOUS
 62
               4
100
AcDbLine
 10
-33.884848475199931
 20
5.9999999999997016
 30
0.0
 11
-33.884848475200272
 21
25.501010089866394
 31
0.0
  0
ARC
  5
3E7
100
AcDbEntity
  8
0
  6
CONTINUOUS
 62
               4
100
AcDbCircle
 10
-38.497257361556791
 20
8.6525224605388047
 30
0.0
 40
0.4997133381008656
100
AcDbArc
 50
180.11549557964358
 51
245.17378469019093
  0
ARC
  5
3E8
100
AcDbEntity
  8
0
  6
CONTINUOUS
 62
               4
100
AcDbCircle
 10
-38.500332832921657
 20
25.004373238387625
 30
0.0
 40
0.4966660273328702
100
AcDbArc
 50
89.378960363566961
 51
180.62103963643685
  0
ARC
  5
3E9
100
AcDbEntity
  8
0
  6
CONTINUOUS
 62
               4
100
AcDbCircle
 10
-31.29943128371778
 20
26.304584129418426
 30
0.0
 40
0.2994663800970315
100
AcDbArc
 50
359.12289923249404
 51
89.529026971536297
  0
ARC
  5
3EA
100
AcDbEntity
  8
0
  6
CONTINUOUS
 62
               4
100
AcDbCircle
 10
-37.99991250613752
 20
25.105034325092245
 30
0.0
 40
0.4950149226876426
100
AcDbArc
 50
89.191695875422141
 51
126.87687525883594
  0
ARC
  5
3EB
100
AcDbEntity
  8
0
  6
CONTINUOUS
 62
               4
100
AcDbCircle
 10
-39.399895918379372
 20
25.005327231604095
 30
0.0
 40
0.4029269013737999
100
AcDbArc
 50
0.1042835857501941
 51
79.908228442604724
  0
ARC
  5
3EC
100
AcDbEntity
  8
0
  6
CONTINUOUS
 62
               4
100
AcDbCircle
 10
-39.400834031354691
 20
25.006894639353927
 30
0.0
 40
0.403865208170398
100
AcDbArc
 50
270.11832473551408
 51
359.88167526448518
  0
LINE
  5
3ED
100
AcDbEntity
  8
0
  6
CONTINUOUS
 62
             200
100
AcDbLine
 10
-50.670707051467019
 20
24.504040393466052
 30
0.0
 11
-52.403030282800302
 21
21.506060597199333
 31
0.0
  0
LINE
  5
3EE
100
AcDbEntity
  8
0
  6
CONTINUOUS
 62
               4
100
AcDbLine
 10
-17.0
 20
6.0
 30
0.0
 11
-17.000000000000398
 21
27.899999999999974
 31
0.0
  0
LINE
  5
3EF
100
AcDbEntity
  8
0
  6
CONTINUOUS
 62
               4
100
AcDbLine
 10
-18.999999996000327
 20
26.899999999999903
 30
0.0
 11
-30.99999999200034
 21
26.899999999999689
 31
0.0
  0
LINE
  5
3F0
100
AcDbEntity
  8
0
  6
CONTINUOUS
 62
               4
100
AcDbLine
 10
-18.999999996000327
 20
28.499999999999954
 30
0.0
 11
-18.999999996000327
 21
26.899999999999903
 31
0.0
  0
LINE
  5
3F1
100
AcDbEntity
  8
0
  6
CONTINUOUS
 62
               4
100
AcDbLine
 10
-17.500000000000369
 20
28.400000000000002
 30
0.0
 11
-18.999999996000355
 21
28.399999999999959
 31
0.0
  0
ARC
  5
3F2
100
AcDbEntity
  8
0
  6
CONTINUOUS
 62
               4
100
AcDbCircle
 10
-17.500000000000369
 20
27.899999999999945
 30
0.0
 40
0.5
100
AcDbArc
 50
0.0000000000010687
 51
90.000000000000867
  0
LINE
  5
3F3
100
AcDbEntity
  8
0
  6
CONTINUOUS
 62
               4
100
AcDbLine
 10
-30.999999992000397
 20
27.899999999999718
 30
0.0
 11
-30.999999991999971
 21
5.9999999999997442
 31
0.0
  0
LINE
  5
3F4
100
AcDbEntity
  8
0
  6
CONTINUOUS
 62
               4
100
AcDbLine
 10
-17.800000086000352
 20
28.499999999999996
 30
0.0
 11
-30.199999906000357
 21
28.499999999999769
 31
0.0
  0
ARC
  5
3F5
100
AcDbEntity
  8
0
  6
CONTINUOUS
 62
               4
100
AcDbCircle
 10
-30.499999992000426
 20
27.899999999999746
 30
0.0
 40
0.5
100
AcDbArc
 50
93.919585899651864
 51
180.00000000000065
  0
LINE
  5
3F6
100
AcDbEntity
  8
0
  6
CONTINUOUS
 62
               4
100
AcDbLine
 10
-27.299999810964835
 20
27.899999999999775
 30
0.0
 11
-30.999999992000397
 21
27.899999999999718
 31
0.0
  0
ARC
  5
3F7
100
AcDbEntity
  8
0
  6
CONTINUOUS
 62
               4
100
AcDbCircle
 10
-30.201087911128639
 20
27.901088005127999
 30
0.0
 40
0.598912923125741
100
AcDbArc
 50
89.895914524773801
 51
180.10408547522775
  0
ARC
  5
3F8
100
AcDbEntity
  8
0
  6
CONTINUOUS
 62
               4
100
AcDbCircle
 10
-17.799904939351677
 20
27.900095146648649
 30
0.0
 40
0.599904800896587
100
AcDbArc
 50
56.247417870394948
 51
90.009087277547238
  0
LINE
  5
3F9
100
AcDbEntity
  8
0
  6
CONTINUOUS
 62
               4
100
AcDbLine
 10
-54.495959574533572
 20
22.354545445199275
 30
0.0
 11
-51.908080788133589
 21
22.354545445199303
 31
0.0
  0
LINE
  5
3FA
100
AcDbEntity
  8
0
  6
CONTINUOUS
 62
               4
100
AcDbLine
 10
-54.4959595745336
 20
23.655555545465969
 30
0.0
 11
-51.158585839067001
 21
23.655555545466026
 31
0.0
  0
LINE
  5
3FB
100
AcDbEntity
  8
0
  6
CONTINUOUS
 62
               7
100
AcDbLine
 10
-30.0
 20
-21.199001430615183
 30
0.0
 11
-31.0
 21
-21.199001430615183
 31
0.0
  0
LINE
  5
3FC
100
AcDbEntity
  8
0
  6
CONTINUOUS
 62
               7
100
AcDbLine
 10
-30.0
 20
-17.999001430615195
 30
0.0
 11
-31.0
 21
-17.999001430615195
 31
0.0
  0
LINE
  5
3FD
100
AcDbEntity
  8
0
  6
CONTINUOUS
 62
               7
100
AcDbLine
 10
-32.548000000000002
 20
2.5999999999999943
 30
0.0
 11
-32.100000000000023
 21
2.5999999999999943
 31
0.0
  0
LINE
  5
3FE
100
AcDbEntity
  8
0
  6
CONTINUOUS
 62
               7
100
AcDbLine
 10
-32.548000000000002
 20
4.8000000000000398
 30
0.0
 11
-32.100000000000023
 21
4.8000000000000398
 31
0.0
  0
LINE
  5
3FF
100
AcDbEntity
  8
0
  6
CONTINUOUS
 62
               7
100
AcDbLine
 10
-32.548000000000002
 20
2.5999999999999943
 30
0.0
 11
-32.548000000000002
 21
4.8000000000000398
 31
0.0
  0
LINE
  5
400
100
AcDbEntity
  8
0
  6
CONTINUOUS
 62
               7
100
AcDbLine
 10
-31.000000000000057
 20
-1.0999999999999943
 30
0.0
 11
-32.100000000000023
 21
0.0
 31
0.0
  0
LINE
  5
401
100
AcDbEntity
  8
0
  6
CONTINUOUS
 62
               7
100
AcDbLine
 10
-32.100000000000023
 20
0.0
 30
0.0
 11
-32.100000000000023
 21
5.9999999999999432
 31
0.0
  0
LINE
  5
402
100
AcDbEntity
  8
0
  6
CONTINUOUS
 62
               7
100
AcDbLine
 10
-31.000038524730655
 20
6.4999999985157899
 30
0.0
 11
-31.0
 21
6.0
 31
0.0
  0
LINE
  5
403
100
AcDbEntity
  8
0
  6
CONTINUOUS
 62
               7
100
AcDbLine
 10
-17.0
 20
-5.7000000000000028
 30
0.0
 11
-31.0
 21
-5.7000000000000028
 31
0.0
  0
LINE
  5
404
100
AcDbEntity
  8
0
  6
CONTINUOUS
 62
               7
100
AcDbLine
 10
-30.0
 20
-17.999001430615195
 30
0.0
 11
-30.0
 21
-21.199001430615183
 31
0.0
  0
LINE
  5
405
100
AcDbEntity
  8
0
  6
CONTINUOUS
 62
               7
100
AcDbLine
 10
-16.0
 20
-32.299999999999997
 30
0.0
 11
-16.0
 21
2.7000000000000028
 31
0.0
  0
LINE
  5
406
100
AcDbEntity
  8
0
  6
CONTINUOUS
 62
               7
100
AcDbLine
 10
0.0
 20
2.7000000000000028
 30
0.0
 11
0.0
 21
-32.299999999999997
 31
0.0
  0
LINE
  5
407
100
AcDbEntity
  8
0
  6
CONTINUOUS
 62
               7
100
AcDbLine
 10
-16.0
 20
2.7000000000000028
 30
0.0
 11
0.0
 21
2.7000000000000028
 31
0.0
  0
LINE
  5
408
100
AcDbEntity
  8
0
  6
CONTINUOUS
 62
               7
100
AcDbLine
 10
-16.0
 20
-32.299999999999997
 30
0.0
 11
0.0
 21
-32.299999999999997
 31
0.0
  0
LINE
  5
409
100
AcDbEntity
  8
0
  6
CENTER
 62
               2
100
AcDbLine
 10
-5.0
 20
-18.899999999999991
 30
0.0
 11
-5.0
 21
-25.899999999999991
 31
0.0
  0
LINE
  5
40A
100
AcDbEntity
  8
0
  6
CENTER
 62
               2
100
AcDbLine
 10
-8.5
 20
-22.399999999999991
 30
0.0
 11
-1.5
 21
-22.399999999999991
 31
0.0
  0
LINE
  5
40B
100
AcDbEntity
  8
0
  6
CENTER
 62
               2
100
AcDbLine
 10
-11.0
 20
-11.299999999999997
 30
0.0
 11
-11.0
 21
-18.299999999999997
 31
0.0
  0
LINE
  5
40C
100
AcDbEntity
  8
0
  6
CENTER
 62
               2
100
AcDbLine
 10
-14.5
 20
-14.799999999999997
 30
0.0
 11
-7.5
 21
-14.799999999999997
 31
0.0
  0
LINE
  5
40D
100
AcDbEntity
  8
0
  6
CENTER
 62
               2
100
AcDbLine
 10
-10.0
 20
-1.2999999999999972
 30
0.0
 11
-10.0
 21
-8.2999999999999972
 31
0.0
  0
LINE
  5
40E
100
AcDbEntity
  8
0
  6
CENTER
 62
               2
100
AcDbLine
 10
-13.5
 20
-4.7999999999999972
 30
0.0
 11
-6.5
 21
-4.7999999999999972
 31
0.0
  0
CIRCLE
  5
40F
100
AcDbEntity
  8
0
  6
CONTINUOUS
 62
               7
100
AcDbCircle
 10
-9.9999786376953352
 20
-4.8000061035156278
 30
0.0
 40
2.0669994354248047
  0
CIRCLE
  5
410
100
AcDbEntity
  8
0
  6
CONTINUOUS
 62
               7
100
AcDbCircle
 10
-10.999978637695335
 20
-14.800006103515628
 30
0.0
 40
2.0669994354248047
  0
CIRCLE
  5
411
100
AcDbEntity
  8
0
  6
CONTINUOUS
 62
               7
100
AcDbCircle
 10
-4.9999786376953352
 20
-22.39999694824219
 30
0.0
 40
2.0669994354248047
  0
CIRCLE
  5
412
100
AcDbEntity
  8
0
  6
CONTINUOUS
 62
               2
100
AcDbCircle
 10
-4.9999786376953352
 20
-22.39999694824219
 30
0.0
 40
2.5
  0
CIRCLE
  5
413
100
AcDbEntity
  8
0
  6
CONTINUOUS
 62
               2
100
AcDbCircle
 10
-10.999978637695335
 20
-14.800006103515628
 30
0.0
 40
2.5
  0
CIRCLE
  5
414
100
AcDbEntity
  8
0
  6
CONTINUOUS
 62
               2
100
AcDbCircle
 10
-9.9999786376953352
 20
-4.8000061035156278
 30
0.0
 40
2.5
  0
LINE
  5
415
100
AcDbEntity
  8
0
  6
CENTER
 62
               2
100
AcDbLine
 10
-24.0
 20
30.347850672801098
 30
0.0
 11
-24.0
 21
-59.947850672801096
 31
0.0
  0
LINE
  5
416
100
AcDbEntity
  8
0
  6
CONTINUOUS
 62
               7
100
AcDbLine
 10
-31.0
 20
6.0
 30
0.0
 11
-31.0
 21
-35.599999999999994
 31
0.0
  0
LINE
  5
417
100
AcDbEntity
  8
0
  6
CONTINUOUS
 62
               7
100
AcDbLine
 10
-17.0
 20
-35.599999999999994
 30
0.0
 11
-17.0
 21
6.0
 31
0.0
  0
LINE
  5
418
100
AcDbEntity
  8
0
  6
CONTINUOUS
 62
               7
100
AcDbLine
 10
-30.599999999999994
 20
-18.499999999999986
 30
0.0
 11
-30.599999999999994
 21
-20.700000000000003
 31
0.0
  0
LINE
  5
419
100
AcDbEntity
  8
0
  6
CONTINUOUS
 62
               7
100
AcDbLine
 10
-30.199999999999989
 20
-18.099999999999994
 30
0.0
 11
-30.0
 21
-18.099999999999994
 31
0.0
  0
LINE
  5
41A
100
AcDbEntity
  8
0
  6
CONTINUOUS
 62
               7
100
AcDbLine
 10
-30.199999999999989
 20
-21.099999999999994
 30
0.0
 11
-30.0
 21
-21.099999999999994
 31
0.0
  0
ARC
  5
41B
100
AcDbEntity
  8
0
  6
CONTINUOUS
 62
               7
100
AcDbCircle
 10
-30.199999999999989
 20
-18.499999999999986
 30
0.0
 40
0.4
100
AcDbArc
 50
89.999999999999815
 51
179.99999999999963
  0
ARC
  5
41C
100
AcDbEntity
  8
0
  6
CONTINUOUS
 62
               7
100
AcDbCircle
 10
-30.199999999999989
 20
-20.700000000000003
 30
0.0
 40
0.4
100
AcDbArc
 50
179.99999999999963
 51
269.99999999999937
  0
LINE
  5
41D
100
AcDbEntity
  8
0
  6
CONTINUOUS
 62
               4
100
AcDbLine
 10
-54.495959574533586
 20
22.754233112520094
 30
0.0
 11
-57.995959574533643
 21
22.754233112519952
 31
0.0
  0
LINE
  5
41E
100
AcDbEntity
  8
0
  6
CONTINUOUS
 62
               4
100
AcDbLine
 10
-54.495959574533586
 20
23.254233112520094
 30
0.0
 11
-57.995959574533643
 21
23.254233112519952
 31
0.0
  0
LINE
  5
41F
100
AcDbEntity
  8
0
  6
CONTINUOUS
 62
               4
100
AcDbLine
 10
-57.995959574533643
 20
23.254233112519952
 30
0.0
 11
-57.995959574533643
 21
22.754233112519952
 31
0.0
  0
LINE
  5
420
100
AcDbEntity
  8
0
  6
CONTINUOUS
 62
               4
100
AcDbLine
 10
-54.495959574533586
 20
-52.855867878145148
 30
0.0
 11
-57.995959574533643
 21
-52.85586787814529
 31
0.0
  0
LINE
  5
421
100
AcDbEntity
  8
0
  6
CONTINUOUS
 62
               4
100
AcDbLine
 10
-54.495959574533586
 20
-52.355867878145148
 30
0.0
 11
-57.995959574533643
 21
-52.35586787814529
 31
0.0
  0
LINE
  5
422
100
AcDbEntity
  8
0
  6
CONTINUOUS
 62
               4
100
AcDbLine
 10
-57.995959574533643
 20
-52.35586787814529
 30
0.0
 11
-57.995959574533643
 21
-52.85586787814529
 31
0.0
  0
ENDBLK
  5
423
100
AcDbEntity
  8
0
100
AcDbBlockEnd
  0
BLOCK
  5
43C
100
AcDbEntity
  8
0
  6
ByBlock
 62
               0
100
AcDbBlockBegin
  2
_OPEN30
 70
               2
 10
0.0
 20
0.0
 30
0.0
  3
_OPEN30
  1

  0
LINE
  5
43D
100
AcDbEntity
  8
0
  6
ByBlock
 62
               0
100
AcDbLine
 10
-1.0
 20
0.267949
 30
0.0
 11
0.0
 21
0.0
 31
0.0
  0
LINE
  5
43E
100
AcDbEntity
  8
0
  6
ByBlock
 62
               0
100
AcDbLine
 10
0.0
 20
0.0
 30
0.0
 11
-1.0
 21
-0.267949
 31
0.0
  0
LINE
  5
43F
100
AcDbEntity
  8
0
  6
ByBlock
 62
               0
100
AcDbLine
 10
0.0
 20
0.0
 30
0.0
 11
-1.0
 21
0.0
 31
0.0
  0
ENDBLK
  5
440
100
AcDbEntity
  8
0
  6
ByBlock
 62
               0
100
AcDbBlockEnd
  0
ENDSEC
  0
SECTION
  2
ENTITIES
  0
INSERT
  5
424
100
AcDbEntity
  8
0
  6
ByBlock
100
AcDbBlockReference
  2
EA10SA6-6
 10
113.72886883493558
 20
72.451067679205096
 30
0.0
  0
INSERT
  5
425
100
AcDbEntity
  8
0
  6
ByBlock
100
AcDbBlockReference
  2
EA10SA6-5
 10
-90.671131165064423
 20
72.451067679205096
 30
0.0
  0
INSERT
  5
426
100
AcDbEntity
  8
0
  6
ByBlock
100
AcDbBlockReference
  2
EA10SA6-4
 10
15.428868834935571
 20
72.451067679205096
 30
0.0
  0
INSERT
  5
427
100
AcDbEntity
  8
0
  6
ByBlock
100
AcDbBlockReference
  2
EA10SA6-1
 10
15.428868834935571
 20
-51.298935372552805
 30
0.0
  0
INSERT
  5
428
100
AcDbEntity
  8
0
  6
ByBlock
100
AcDbBlockReference
  2
EA10SA6-2
 10
-90.671131165064423
 20
-51.298935372552805
 30
0.0
  0
INSERT
  5
429
100
AcDbEntity
  8
0
  6
ByBlock
100
AcDbBlockReference
  2
EA10SA6-3
 10
113.72886883493558
 20
-51.298935372552805
 30
0.0
  0
MTEXT
  5
42A
100
AcDbEntity
  8
0
  6
CONTINUOUS
 62
               7
100
AcDbMText
 10
115.52672595002113
 20
-126.0
 30
0.0
 40
6.3000001907348633
 41
0.0
 71
               4
 72
               1
  1
\W1.121;\A1;KOGANEI CORP.
  0
MTEXT
  5
42B
100
AcDbEntity
  8
0
  6
CONTINUOUS
 62
               7
100
AcDbMText
 10
135.2836095956161
 20
125.10000610351562
 30
0.0
 40
4.5
 41
0.0
 71
               4
 72
               1
  1
\W1.311;\A1;Ver. 1.0
  0
LINE
  5
42C
100
AcDbEntity
  8
0
  6
CONTINUOUS
 62
               7
100
AcDbLine
 10
-109.25
 20
132.60000610351562
 30
0.0
 11
-109.25
 21
117.60000610351562
 31
0.0
  0
LINE
  5
42D
100
AcDbEntity
  8
0
  6
CONTINUOUS
 62
               7
100
AcDbLine
 10
-194.25
 20
117.60000610351562
 30
0.0
 11
-109.25
 21
117.60000610351562
 31
0.0
  0
LINE
  5
42E
100
AcDbEntity
  8
0
  6
CONTINUOUS
 62
               7
100
AcDbLine
 10
109.80000305175781
 20
117.60000610351562
 30
0.0
 11
194.80000305175781
 21
117.60000610351562
 31
0.0
  0
LINE
  5
42F
100
AcDbEntity
  8
0
  6
CONTINUOUS
 62
               7
100
AcDbLine
 10
109.80000305175781
 20
132.60000610351562
 30
0.0
 11
109.80000305175781
 21
117.60000610351562
 31
0.0
  0
LINE
  5
430
100
AcDbEntity
  8
0
  6
CONTINUOUS
 62
               7
100
AcDbLine
 10
109.80000305175781
 20
-118.5
 30
0.0
 11
194.80000305175781
 21
-118.5
 31
0.0
  0
LINE
  5
431
100
AcDbEntity
  8
0
  6
CONTINUOUS
 62
               7
100
AcDbLine
 10
109.80000305175781
 20
-118.5
 30
0.0
 11
109.80000305175781
 21
-133.5
 31
0.0
  0
LINE
  5
432
100
AcDbEntity
  8
0
  6
CONTINUOUS
 62
               7
100
AcDbLine
 10
-194.25
 20
-133.5
 30
0.0
 11
194.80000305175781
 21
-133.5
 31
0.0
  0
LINE
  5
433
100
AcDbEntity
  8
0
  6
CONTINUOUS
 62
               7
100
AcDbLine
 10
-194.25
 20
132.60000610351562
 30
0.0
 11
-194.25
 21
-133.5
 31
0.0
  0
LINE
  5
434
100
AcDbEntity
  8
0
  6
CONTINUOUS
 62
               7
100
AcDbLine
 10
194.80000305175781
 20
132.60000610351562
 30
0.0
 11
194.80000305175781
 21
-133.5
 31
0.0
  0
LINE
  5
435
100
AcDbEntity
  8
0
  6
CONTINUOUS
 62
               7
100
AcDbLine
 10
-194.25
 20
132.60000610351562
 30
0.0
 11
194.80000305175781
 21
132.60000610351562
 31
0.0
  0
MTEXT
  5
436
100
AcDbEntity
  8
0
  6
CONTINUOUS
 62
               7
100
AcDbMText
 10
-185.70093460595376
 20
107.60000610351562
 30
0.0
 40
4.5
 41
0.0
 71
               4
 72
               1
  1
\W1.065;\A1;MODEL:EA10SA6-25-PL
  0
MTEXT
  5
437
100
AcDbEntity
  8
0
  6
CONTINUOUS
 62
               1
100
AcDbMText
 10
-177.91666665526046
 20
125.10000610351562
 30
0.0
 40
4.5
 41
0.0
 71
               4
 72
               1
  1
\W1.111;\A1;EA･EB SERIES
  0
LINE
  5
438
100
AcDbEntity
  8
0
  6
CONTINUOUS
 62
               7
100
AcDbLine
 10
-194.25
 20
-0.4499969482421875
 30
0.0
 11
194.80000305175781
 21
-0.4499969482421875
 31
0.0
  0
MTEXT
  5
439
100
AcDbEntity
  8
0
  6
CONTINUOUS
 62
               7
100
AcDbMText
 10
-185.70093460595376
 20
-10.449996948242187
 30
0.0
 40
4.5
 41
0.0
 71
               4
 72
               1
  1
\W1.065;\A1;MODEL:EA10SA6-25-PS
  0
MTEXT
  5
43A
100
AcDbEntity
  8
0
  6
CONTINUOUS
 62
               2
100
AcDbMText
 10
43.426621579968156
 20
-89.270250323997843
 30
0.0
 40
3.1999998092651367
 41
0.0
 71
               4
 72
               1
  1
\A1;-75
  0
LEADER
  5
441
100
AcDbEntity
  8
0
  6
CONTINUOUS
 62
               2
100
AcDbLeader
  3
MXDIMSTYLE
 73
               3
 74
               0
 75
               0
 40
0.0
 76
               3
 10
31.628868834935588
 20
-77.696938372552808
 30
0.0
 10
41.78293838485402
 20
-92.870249990211832
 30
0.0
 10
53.026621007763566
 20
-92.870249990211832
 30
0.0
 77
               2
1001
ACAD
1000
DSTYLE
1002
{
1070
               6
1000
_OPEN30
1070
               7
1000
_OPEN30
1070
              41
1040
2.77
1070
             173
1070
               1
1070
             341
1005
43B
1002
}
  0
MTEXT
  5
442
100
AcDbEntity
  8
0
  6
CONTINUOUS
 62
               2
100
AcDbMText
 10
43.426621579968156
 20
34.479752727760058
 30
0.0
 40
3.1999998092651367
 41
0.0
 71
               4
 72
               1
  1
\A1;-75
  0
LEADER
  5
443
100
AcDbEntity
  8
0
  6
CONTINUOUS
 62
               2
100
AcDbLeader
  3
MXDIMSTYLE
 73
               3
 74
               0
 75
               0
 40
0.0
 76
               3
 10
31.628868834935588
 20
46.053064679205093
 30
0.0
 10
41.78293838485402
 20
30.879753061546069
 30
0.0
 10
53.026621007763566
 20
30.879753061546069
 30
0.0
 77
               2
1001
ACAD
1000
DSTYLE
1002
{
1070
               6
1000
_OPEN30
1070
               7
1000
_OPEN30
1070
              41
1040
2.77
1070
             173
1070
               1
1070
             341
1005
43B
1002
}
  0
ENDSEC
  0
SECTION
  2
OBJECTS
  0
DICTIONARY
  5
19
100
AcDbDictionary
  3
ACAD_GROUP
350
1A
  3
ACAD_MLINESTYLE
350
1B
  0
DICTIONARY
  5
1A
102
{ACAD_REACTORS
330
19
102
}
100
AcDbDictionary
  0
DICTIONARY
  5
1B
102
{ACAD_REACTORS
330
19
102
}
100
AcDbDictionary
  3
STANDARD
350
1C
  0
MLINESTYLE
  5
1C
102
{ACAD_REACTORS
330
1B
102
}
100
AcDbMlineStyle
  2
Standard
 70
               0
  3

 62
               0
 51
90.0
 52
90.0
 71
               2
 49
0.5
 62
             256
  6
ByLayer
 49
-0.5
 62
             256
  6
ByLayer
  0
ENDSEC
  0
EOF
