  0
SECTION
  2
HEADER
  9
$ACADVER
  1
AC1012
  9
$DWGCODEPAGE
  3
dos932
  9
$INSBASE
 10
0.0
 20
0.0
 30
0.0
  9
$EXTMIN
 10
-194.25
 20
-133.5
 30
0.0
  9
$EXTMAX
 10
196.2723600854633
 20
132.60000610351562
 30
0.0
  9
$LIMMIN
 10
-194.25
 20
-133.5
  9
$LIMMAX
 10
196.2723600854633
 20
132.60000610351562
  9
$ORTHOMODE
 70
               0
  9
$REGENMODE
 70
               1
  9
$FILLMODE
 70
               1
  9
$QTEXTMODE
 70
               0
  9
$MIRRTEXT
 70
               1
  9
$DRAGMODE
 70
               2
  9
$LTSCALE
 40
1.0
  9
$OSMODE
 70
               0
  9
$ATTMODE
 70
               1
  9
$TEXTSIZE
 40
3.2000000476837158
  9
$TRACEWID
 40
0.05
  9
$TEXTSTYLE
  7
MX_NOTE_STANDARD
  9
$CLAYER
  8
0
  9
$CELTYPE
  6
CONTINUOUS
  9
$CECOLOR
 62
             256
  9
$CELTSCALE
 40
1.0
  9
$DELOBJ
 70
               1
  9
$DISPSILH
 70
               0
  9
$DIMSCALE
 40
1.0
  9
$DIMASZ
 40
2.5
  9
$DIMEXO
 40
1.5
  9
$DIMDLI
 40
3.75
  9
$DIMRND
 40
0.0
  9
$DIMDLE
 40
0.0
  9
$DIMEXE
 40
1.5
  9
$DIMTP
 40
0.0
  9
$DIMTM
 40
0.0
  9
$DIMTXT
 40
3.2000000476837158
  9
$DIMCEN
 40
2.5
  9
$DIMTSZ
 40
0.0
  9
$DIMTOL
 70
               0
  9
$DIMLIM
 70
               0
  9
$DIMTIH
 70
               0
  9
$DIMTOH
 70
               0
  9
$DIMSE1
 70
               0
  9
$DIMSE2
 70
               0
  9
$DIMTAD
 70
               1
  9
$DIMZIN
 70
               8
  9
$DIMBLK
  1

  9
$DIMASO
 70
               1
  9
$DIMSHO
 70
               1
  9
$DIMPOST
  1

  9
$DIMAPOST
  1

  9
$DIMALT
 70
               0
  9
$DIMALTD
 70
               4
  9
$DIMALTF
 40
0.03937007874016
  9
$DIMLFAC
 40
1.0
  9
$DIMTOFL
 70
               1
  9
$DIMTVP
 40
0.0
  9
$DIMTIX
 70
               0
  9
$DIMSOXD
 70
               0
  9
$DIMSAH
 70
               0
  9
$DIMBLK1
  1

  9
$DIMBLK2
  1

  9
$DIMSTYLE
  2
MXDIMSTYLE
  9
$DIMCLRD
 70
               0
  9
$DIMCLRE
 70
               0
  9
$DIMCLRT
 70
               0
  9
$DIMTFAC
 40
1.0
  9
$DIMGAP
 40
1.0
  9
$DIMJUST
 70
               0
  9
$DIMSD1
 70
               0
  9
$DIMSD2
 70
               0
  9
$DIMTOLJ
 70
               1
  9
$DIMTZIN
 70
               0
  9
$DIMALTZ
 70
               0
  9
$DIMALTTZ
 70
               0
  9
$DIMFIT
 70
               3
  9
$DIMUPT
 70
               1
  9
$DIMUNIT
 70
               2
  9
$DIMDEC
 70
               4
  9
$DIMTDEC
 70
               4
  9
$DIMALTU
 70
               2
  9
$DIMALTTD
 70
               4
  9
$DIMTXSTY
  7
MX_NOTE_STANDARD
  9
$DIMAUNIT
 70
               0
  9
$LUNITS
 70
               2
  9
$LUPREC
 70
               4
  9
$SKETCHINC
 40
0.1
  9
$FILLETRAD
 40
0.0
  9
$AUNITS
 70
               0
  9
$AUPREC
 70
               0
  9
$MENU
  1
acad
  9
$ELEVATION
 40
0.0
  9
$PELEVATION
 40
0.0
  9
$THICKNESS
 40
0.0
  9
$LIMCHECK
 70
               0
  9
$BLIPMODE
 70
               1
  9
$CHAMFERA
 40
0.0
  9
$CHAMFERB
 40
0.0
  9
$CHAMFERC
 40
0.0
  9
$CHAMFERD
 40
0.0
  9
$SKPOLY
 70
               0
  9
$TDCREATE
 40
2453378.356331019
  9
$TDUPDATE
 40
2453378.356331019
  9
$TDINDWG
 40
0.0000000000
  9
$TDUSRTIMER
 40
0.0000000000
  9
$USRTIMER
 70
               1
  9
$ANGBASE
 50
0.0
  9
$ANGDIR
 70
               0
  9
$PDMODE
 70
               0
  9
$PDSIZE
 40
0.0
  9
$PLINEWID
 40
0.0
  9
$COORDS
 70
               1
  9
$SPLFRAME
 70
               0
  9
$SPLINETYPE
 70
               6
  9
$SPLINESEGS
 70
               8
  9
$ATTDIA
 70
               0
  9
$ATTREQ
 70
               1
  9
$HANDLING
 70
               1
  9
$HANDSEED
  5
320
  9
$SURFTAB1
 70
               6
  9
$SURFTAB2
 70
               6
  9
$SURFTYPE
 70
               6
  9
$SURFU
 70
               6
  9
$SURFV
 70
               6
  9
$UCSNAME
  2

  9
$UCSORG
 10
0.0
 20
0.0
 30
0.0
  9
$UCSXDIR
 10
1.0
 20
0.0
 30
0.0
  9
$UCSYDIR
 10
0.0
 20
1.0
 30
0.0
  9
$PUCSNAME
  2

  9
$PUCSORG
 10
0.0
 20
0.0
 30
0.0
  9
$PUCSXDIR
 10
1.0
 20
0.0
 30
0.0
  9
$PUCSYDIR
 10
0.0
 20
1.0
 30
0.0
  9
$USERI1
 70
               0
  9
$USERI2
 70
               0
  9
$USERI3
 70
               0
  9
$USERI4
 70
               0
  9
$USERI5
 70
               0
  9
$USERR1
 40
0.0
  9
$USERR2
 40
0.0
  9
$USERR3
 40
0.0
  9
$USERR4
 40
0.0
  9
$USERR5
 40
0.0
  9
$WORLDVIEW
 70
               1
  9
$SHADEDGE
 70
               3
  9
$SHADEDIF
 70
              70
  9
$TILEMODE
 70
               1
  9
$MAXACTVP
 70
              16
  9
$PINSBASE
 10
0.0
 20
0.0
 30
0.0
  9
$PLIMCHECK
 70
               0
  9
$PEXTMIN
 10
1.0000000000000000E+20
 20
1.0000000000000000E+20
 30
1.0000000000000000E+20
  9
$PEXTMAX
 10
-1.0000000000000000E+20
 20
-1.0000000000000000E+20
 30
-1.0000000000000000E+20
  9
$PLIMMIN
 10
0.0
 20
0.0
  9
$PLIMMAX
 10
12.0
 20
9.0
  9
$UNITMODE
 70
               0
  9
$VISRETAIN
 70
               0
  9
$PLINEGEN
 70
               1
  9
$PSLTSCALE
 70
               0
  9
$TREEDEPTH
 70
            3020
  9
$PICKSTYLE
 70
               1
  9
$CMLSTYLE
  2
Standard
  9
$CMLJUST
 70
               0
  9
$CMLSCALE
 40
1.0
  9
$SAVEIMAGES
 70
               0
  0
ENDSEC
  0
SECTION
  2
CLASSES
  0
CLASS
  1
LWPOLYLINE
  2
AcDbPolyline
  3
"AutoCAD"
 90
        0
280
               0
281
               1
  0
CLASS
  1
IMAGE
  2
AcDbRasterImage
  3
ISM
 90
      127
280
               0
281
               1
  0
CLASS
  1
OLE2FRAME
  2
AcDbOle2Frame
  3
""
 90
        0
280
               0
281
               1
  0
CLASS
  1
HATCH
  2
AcDbHatch
  3
"ACAD_SEDONA"
 90
        0
280
               0
281
               1
  0
CLASS
  1
DICTIONARYVAR
  2
AcDbDictionaryVar
  3
"AutoCAD"
 90
        0
280
               0
281
               0
  0
CLASS
  1
RASTERVARIABLES
  2
AcDbRasterVariables
  3
ISM
 90
        0
280
               0
281
               0
  0
CLASS
  1
IMAGEDEF
  2
AcDbRasterImageDef
  3
ISM
 90
        0
280
               0
281
               0
  0
CLASS
  1
IMAGEDEF_REACTOR
  2
AcDbRasterImageDefReactor
  3
ISM
 90
        1
280
               0
281
               0
  0
CLASS
  1
IDBUFFER
  2
AcDbIdBuffer
  3
"Acad"
 90
        0
280
               0
281
               0
  0
CLASS
  1
SPATIAL_FILTER
  2
AcDbSpatialFilter
  3
"Acad"
 90
        0
280
               0
281
               0
  0
CLASS
  1
XRECORD
  2
AcDbXrecord
  3
"<Built In>"
 90
        0
280
               0
281
               0
  0
CLASS
  1
SORTENTSTABLE
  2
AcDbSortentsTable
  3
"AutoCAD"
 90
        0
280
               0
281
               0
  0
CLASS
  1
LAYER_INDEX
  2
AcDbLayerIndex
  3
"Acad"
 90
        0
280
               0
281
               0
  0
CLASS
  1
SPATIAL_INDEX
  2
AcDbSpatialIndex
  3
"Acad"
 90
        0
280
               0
281
               0
  0
CLASS
  1
OBJECT_PTR
  2
CAseDLPNTableRecord
  3
"ASE-LPNTableRecord"
 90
        1
280
               0
281
               0
  0
CLASS
  1
LAYOUT
  2
AcDbLayout
  3
"AutoCAD 2000"
 90
        1
280
               0
281
               0
  0
CLASS
  1
PLOTSETTINGS
  2
AcDbPlotSettings
  3
"AutoCAD 2000"
 90
        1
280
               0
281
               0
  0
CLASS
  1
ACDBDICTIONARYWDFLT
  2
AcDbDictionaryWithDefault
  3
"AutoCAD 2000"
 90
        1
280
               0
281
               0
  0
CLASS
  1
ACDBPLACEHOLDER
  2
AcDbPlaceHolder
  3
"AutoCAD 2000"
 90
        1
280
               0
281
               0
  0
ENDSEC
  0
SECTION
  2
TABLES
  0
TABLE
  2
VPORT
  5
7
100
AcDbSymbolTable
 70
               1
  0
VPORT
  5
15
100
AcDbSymbolTableRecord
100
AcDbViewportTableRecord
  2
*ACTIVE
 70
               0
 10
0.0
 20
0.0
 11
1.0
 21
1.0
 12
1.0111800427316666
 22
-0.4499969482421875
 13
0.0
 23
0.0
 14
1.0
 24
1.0
 15
0.0
 25
0.0
 16
0.0
 26
0.0
 36
1.0
 17
0.0
 27
0.0
 37
0.0
 40
268.76100616455079
 41
1.7320508075688772
 42
50.0
 43
0.0
 44
0.0
 50
0.0
 51
0.0
 71
               0
 72
             100
 73
               1
 74
               1
 75
               0
 76
               0
 77
               0
 78
               0
  0
ENDTAB
  0
TABLE
  2
LTYPE
  5
4
100
AcDbSymbolTable
 70
               6
  0
LTYPE
  5
11
100
AcDbSymbolTableRecord
100
AcDbLinetypeTableRecord
  2
BYBLOCK
 70
              64
  3

 72
              65
 73
               0
 40
0.0
  0
LTYPE
  5
12
100
AcDbSymbolTableRecord
100
AcDbLinetypeTableRecord
  2
BYLAYER
 70
              64
  3

 72
              65
 73
               0
 40
0.0
  0
LTYPE
  5
13
100
AcDbSymbolTableRecord
100
AcDbLinetypeTableRecord
  2
CONTINUOUS
 70
              64
  3
Solid line
 72
              65
 73
               0
 40
0.0
  0
LTYPE
  5
25
100
AcDbSymbolTableRecord
100
AcDbLinetypeTableRecord
  2
PHANTOM
 70
              64
  3
Phantom ______  __  __  ______  __  __  ______
 72
              65
 73
               6
 40
30.0
 49
20.0
 74
               0
 49
-2.0
 74
               0
 49
2.0
 74
               0
 49
-2.0
 74
               0
 49
2.0
 74
               0
 49
-2.0
 74
               0
  0
LTYPE
  5
5D
100
AcDbSymbolTableRecord
100
AcDbLinetypeTableRecord
  2
CENTER
 70
              64
  3
Center ____ _ ____ _ ____ _ ____ _ ____ _ ____
 72
              65
 73
               4
 40
26.0
 49
20.0
 74
               0
 49
-2.0
 74
               0
 49
2.0
 74
               0
 49
-2.0
 74
               0
  0
LTYPE
  5
11A
100
AcDbSymbolTableRecord
100
AcDbLinetypeTableRecord
  2
DASHED
 70
              64
  3
Dashed __ __ __ __ __ __ __ __ __ __ __ __ __ _
 72
              65
 73
               2
 40
4.0
 49
2.0
 74
               0
 49
-2.0
 74
               0
  0
ENDTAB
  0
TABLE
  2
LAYER
  5
2
100
AcDbSymbolTable
 70
               2
  0
LAYER
  5
14
100
AcDbSymbolTableRecord
100
AcDbLayerTableRecord
  2
0
 70
               0
 62
               7
  6
CONTINUOUS
  0
LAYER
  5
1D
100
AcDbSymbolTableRecord
100
AcDbLayerTableRecord
  2
DEFPOINTS
 70
               0
 62
               7
  6
CONTINUOUS
  0
ENDTAB
  0
TABLE
  2
STYLE
  5
3
100
AcDbSymbolTable
 70
               1
  0
STYLE
  5
17
100
AcDbSymbolTableRecord
100
AcDbTextStyleTableRecord
  2
MX_NOTE_STANDARD
 70
               0
 40
0.0
 41
1.0
 50
0.0
 71
               0
 42
3.2000000476837158
  3
txt.shx
  4
extfont.shx
  0
ENDTAB
  0
TABLE
  2
VIEW
  5
5
100
AcDbSymbolTable
 70
               0
  0
ENDTAB
  0
TABLE
  2
UCS
  5
6
100
AcDbSymbolTable
 70
               0
  0
ENDTAB
  0
TABLE
  2
APPID
  5
8
100
AcDbSymbolTable
 70
               1
  0
APPID
  5
16
100
AcDbSymbolTableRecord
100
AcDbRegAppTableRecord
  2
ACAD
 70
               0
  0
ENDTAB
  0
TABLE
  2
DIMSTYLE
  5
9
100
AcDbSymbolTable
 70
               1
  0
DIMSTYLE
105
18
100
AcDbSymbolTableRecord
100
AcDbDimStyleTableRecord
  2
MXDIMSTYLE
 70
               0
  3

  4

  5

  6

  7

 40
1.0
 41
2.5
 42
1.5
 43
3.75
 44
1.5
 45
0.0
 46
0.0
 47
0.0
 48
0.0
 71
               0
 72
               0
 73
               0
 74
               0
 75
               0
 76
               0
 77
               1
 78
               8
140
3.2000000476837158
141
2.5
142
0.0
143
0.03937007874016
144
1.0
145
0.0
146
1.0
147
1.0
170
               0
171
               4
172
               1
173
               0
174
               0
175
               0
176
               0
177
               0
178
               0
270
               2
271
               4
272
               4
273
               2
274
               4
275
               0
280
               0
281
               0
282
               0
283
               1
284
               0
285
               0
286
               0
287
               3
288
               1
340
17
  0
ENDTAB
  0
TABLE
  2
BLOCK_RECORD
  5
1
100
AcDbSymbolTable
 70
               6
  0
BLOCK_RECORD
  5
A
100
AcDbSymbolTableRecord
100
AcDbBlockTableRecord
  2
*MODEL_SPACE
  0
BLOCK_RECORD
  5
B
100
AcDbSymbolTableRecord
100
AcDbBlockTableRecord
  2
*PAPER_SPACE
  0
BLOCK_RECORD
  5
1E
100
AcDbSymbolTableRecord
100
AcDbBlockTableRecord
  2
EA10SF5-1
  0
BLOCK_RECORD
  5
1F
100
AcDbSymbolTableRecord
100
AcDbBlockTableRecord
  2
EA10SF5-2
  0
BLOCK_RECORD
  5
20
100
AcDbSymbolTableRecord
100
AcDbBlockTableRecord
  2
EA10SF5-3
  0
BLOCK_RECORD
  5
21
100
AcDbSymbolTableRecord
100
AcDbBlockTableRecord
  2
EA10SF5-4
  0
BLOCK_RECORD
  5
22
100
AcDbSymbolTableRecord
100
AcDbBlockTableRecord
  2
EA10SF5-5
  0
BLOCK_RECORD
  5
23
100
AcDbSymbolTableRecord
100
AcDbBlockTableRecord
  2
EA10SF5-6
  0
ENDTAB
  0
ENDSEC
  0
SECTION
  2
BLOCKS
  0
BLOCK
  5
D
100
AcDbEntity
  8
0
100
AcDbBlockBegin
  2
*MODEL_SPACE
 70
               0
 10
0.0
 20
0.0
 30
0.0
  3
*MODEL_SPACE
  1

  0
ENDBLK
  5
E
100
AcDbEntity
  8
0
100
AcDbBlockEnd
  0
BLOCK
  5
F
100
AcDbEntity
 67
               1
  8
0
100
AcDbBlockBegin
  2
*PAPER_SPACE
 70
               0
 10
0.0
 20
0.0
 30
0.0
  3
*PAPER_SPACE
  1

  0
ENDBLK
  5
10
100
AcDbEntity
 67
               1
  8
0
100
AcDbBlockEnd
  0
BLOCK
  5
24
100
AcDbEntity
  8
0
100
AcDbBlockBegin
  2
EA10SF5-1
 70
               0
 10
0.0
 20
0.0
 30
0.0
  3
EA10SF5-1
  1

  0
LINE
  5
26
100
AcDbEntity
  8
0
  6
PHANTOM
 62
             200
100
AcDbLine
 10
9.4999816894531222
 20
47.399999999999892
 30
0.0
 11
12.499981689453122
 21
47.399999999999892
 31
0.0
  0
LINE
  5
27
100
AcDbEntity
  8
0
  6
PHANTOM
 62
             200
100
AcDbLine
 10
9.4999816894531222
 20
45.399999999999892
 30
0.0
 11
12.499981689453122
 21
45.399999999999892
 31
0.0
  0
LINE
  5
28
100
AcDbEntity
  8
0
  6
PHANTOM
 62
             200
100
AcDbLine
 10
9.4999816894531222
 20
47.399999999999892
 30
0.0
 11
9.4999816894531222
 21
45.399999999999892
 31
0.0
  0
LINE
  5
29
100
AcDbEntity
  8
0
  6
PHANTOM
 62
             200
100
AcDbLine
 10
12.499981689453122
 20
47.399999999999892
 30
0.0
 11
12.499981689453122
 21
45.399999999999892
 31
0.0
  0
LINE
  5
2A
100
AcDbEntity
  8
0
  6
CONTINUOUS
 62
               4
100
AcDbLine
 10
11.599981689453088
 20
74.892929272933344
 30
0.0
 11
12.899981689453099
 21
74.892929272933344
 31
0.0
  0
LINE
  5
2B
100
AcDbEntity
  8
0
  6
CONTINUOUS
 62
             200
100
AcDbLine
 10
7.2499816894531222
 20
72.919999999999874
 30
0.0
 11
14.749981689453122
 21
70.909999999999883
 31
0.0
  0
LINE
  5
2C
100
AcDbEntity
  8
0
  6
CONTINUOUS
 62
             200
100
AcDbLine
 10
7.2499816894531222
 20
71.87999999999991
 30
0.0
 11
14.749981689453122
 21
69.869999999999862
 31
0.0
  0
LINE
  5
2D
100
AcDbEntity
  8
0
  6
CONTINUOUS
 62
               4
100
AcDbLine
 10
9.0999816894530881
 20
74.892929272933344
 30
0.0
 11
10.399981689453099
 21
74.892929272933344
 31
0.0
  0
LINE
  5
2E
100
AcDbEntity
  8
0
  6
CONTINUOUS
 62
               4
100
AcDbLine
 10
10.399981689453099
 20
71.039999999999878
 30
0.0
 11
10.399981689453099
 21
67.399999999999892
 31
0.0
  0
LINE
  5
2F
100
AcDbEntity
  8
0
  6
CONTINUOUS
 62
               4
100
AcDbLine
 10
11.999981689453122
 20
78.392929270933365
 30
0.0
 11
11.999981689453122
 21
74.892929272933344
 31
0.0
  0
LINE
  5
30
100
AcDbEntity
  8
0
  6
CONTINUOUS
 62
               4
100
AcDbLine
 10
12.499981689453122
 20
78.392929270933365
 30
0.0
 11
12.499981689453122
 21
74.892929272933344
 31
0.0
  0
LINE
  5
31
100
AcDbEntity
  8
0
  6
CONTINUOUS
 62
               4
100
AcDbLine
 10
9.0999816894530881
 20
74.892929272933344
 30
0.0
 11
9.0999816894530881
 21
72.419999999999874
 31
0.0
  0
LINE
  5
32
100
AcDbEntity
  8
0
  6
CONTINUOUS
 62
               4
100
AcDbLine
 10
10.399981689453099
 20
74.892929272933344
 30
0.0
 11
10.399981689453099
 21
72.069999999999908
 31
0.0
  0
LINE
  5
33
100
AcDbEntity
  8
0
  6
CONTINUOUS
 62
               4
100
AcDbLine
 10
9.0999816894530881
 20
71.389999999999901
 30
0.0
 11
9.0999816894530881
 21
67.399999999999892
 31
0.0
  0
LINE
  5
34
100
AcDbEntity
  8
0
  6
CONTINUOUS
 62
               4
100
AcDbLine
 10
11.599981689453088
 20
70.719999999999885
 30
0.0
 11
11.599981689453088
 21
67.399999999999892
 31
0.0
  0
LINE
  5
35
100
AcDbEntity
  8
0
  6
CONTINUOUS
 62
               4
100
AcDbLine
 10
12.899981689453099
 20
70.369999999999862
 30
0.0
 11
12.899981689453099
 21
67.399999999999892
 31
0.0
  0
LINE
  5
36
100
AcDbEntity
  8
0
  6
CONTINUOUS
 62
               4
100
AcDbLine
 10
9.4999816894531222
 20
78.392929270933365
 30
0.0
 11
9.4999816894531222
 21
74.892929272933344
 31
0.0
  0
LINE
  5
37
100
AcDbEntity
  8
0
  6
CONTINUOUS
 62
               4
100
AcDbLine
 10
9.9999816894531222
 20
78.392929270933365
 30
0.0
 11
9.9999816894531222
 21
74.892929272933344
 31
0.0
  0
LINE
  5
38
100
AcDbEntity
  8
0
  6
CONTINUOUS
 62
               4
100
AcDbLine
 10
11.599981689453088
 20
74.892929272933344
 30
0.0
 11
11.599981689453088
 21
71.749999999999915
 31
0.0
  0
LINE
  5
39
100
AcDbEntity
  8
0
  6
CONTINUOUS
 62
               4
100
AcDbLine
 10
12.899981689453099
 20
74.892929272933344
 30
0.0
 11
12.899981689453099
 21
71.399999999999892
 31
0.0
  0
ARC
  5
3A
100
AcDbEntity
  8
0
  6
CONTINUOUS
 62
               4
100
AcDbCircle
 10
15.499971008279815
 20
40.4000106811732
 30
0.0
 40
0.5000106812873828
100
AcDbArc
 50
270.00122394615329
 51
359.9987760538454
  0
ARC
  5
3B
100
AcDbEntity
  8
0
  6
CONTINUOUS
 62
               4
100
AcDbCircle
 10
6.4999771119304768
 20
40.399995422477247
 30
0.0
 40
0.4999954224983215
100
AcDbArc
 50
179.99947544974256
 51
270.00052455025656
  0
ARC
  5
3C
100
AcDbEntity
  8
0
  6
CONTINUOUS
 62
               4
100
AcDbCircle
 10
15.499977111702307
 20
58.899995422249077
 30
0.0
 40
0.5000045777717621
100
AcDbArc
 50
0.0005245667992071
 51
89.9994754332008
  0
ARC
  5
3D
100
AcDbEntity
  8
0
  6
CONTINUOUS
 62
               4
100
AcDbCircle
 10
6.4999710083217082
 20
58.900010681131249
 30
0.0
 40
0.4999893189827007
100
AcDbArc
 50
89.998776006354774
 51
180.00122399364432
  0
ARC
  5
3E
100
AcDbEntity
  8
0
  6
CONTINUOUS
 62
               4
100
AcDbCircle
 10
6.7299688721153501
 20
58.900012817337625
 30
0.0
 40
0.4999871828265524
100
AcDbArc
 50
89.998531203634272
 51
180.00146879636483
  0
ARC
  5
3F
100
AcDbEntity
  8
0
  6
CONTINUOUS
 62
               4
100
AcDbCircle
 10
15.269979247973865
 20
58.899997558520596
 30
0.0
 40
0.500002441485227
100
AcDbArc
 50
0.0002797715494944
 51
89.999720228450514
  0
ARC
  5
40
100
AcDbEntity
  8
0
  6
CONTINUOUS
 62
               4
100
AcDbCircle
 10
15.268778183341382
 20
42.593122696781165
 30
0.0
 40
0.5012049510586274
100
AcDbArc
 50
270.13758021931233
 51
359.86241978068648
  0
ARC
  5
41
100
AcDbEntity
  8
0
  6
CONTINUOUS
 62
               4
100
AcDbCircle
 10
6.7311699733583481
 20
42.59310747457468
 30
0.0
 40
0.5011896925741138
100
AcDbArc
 50
180.13584420715239
 51
269.86415579284636
  0
LINE
  5
42
100
AcDbEntity
  8
0
  6
CONTINUOUS
 62
               4
100
AcDbLine
 10
7.2499816894531222
 20
67.399999999999892
 30
0.0
 11
14.749981689453122
 21
67.399999999999892
 31
0.0
  0
LINE
  5
43
100
AcDbEntity
  8
0
  6
CONTINUOUS
 62
               4
100
AcDbLine
 10
14.749981689453122
 20
67.399999999999892
 30
0.0
 11
14.749981689453122
 21
59.399999999999892
 31
0.0
  0
LINE
  5
44
100
AcDbEntity
  8
0
  6
CONTINUOUS
 62
               4
100
AcDbLine
 10
13.749981689453122
 20
67.399999999999892
 30
0.0
 11
13.749981689453122
 21
51.399999999999892
 31
0.0
  0
LINE
  5
45
100
AcDbEntity
  8
0
  6
CONTINUOUS
 62
               4
100
AcDbLine
 10
8.2499816894531222
 20
65.899999999999892
 30
0.0
 11
13.749981689453122
 21
65.899999999999892
 31
0.0
  0
LINE
  5
46
100
AcDbEntity
  8
0
  6
CONTINUOUS
 62
               4
100
AcDbLine
 10
7.2499816894531222
 20
67.399999999999892
 30
0.0
 11
7.2499816894531222
 21
59.399999999999892
 31
0.0
  0
LINE
  5
47
100
AcDbEntity
  8
0
  6
CONTINUOUS
 62
               4
100
AcDbLine
 10
8.2499816894531222
 20
67.399999999999892
 30
0.0
 11
8.2499816894531222
 21
51.399999999999892
 31
0.0
  0
LINE
  5
48
100
AcDbEntity
  8
0
  6
CONTINUOUS
 62
               4
100
AcDbLine
 10
13.749981689453122
 20
59.399999999999892
 30
0.0
 11
15.499981689453122
 21
59.399999999999892
 31
0.0
  0
LINE
  5
49
100
AcDbEntity
  8
0
  6
CONTINUOUS
 62
               4
100
AcDbLine
 10
8.2499816894531222
 20
51.399999999999892
 30
0.0
 11
13.749981689453122
 21
51.399999999999892
 31
0.0
  0
LINE
  5
4A
100
AcDbEntity
  8
0
  6
CONTINUOUS
 62
               4
100
AcDbLine
 10
15.499981689453122
 20
59.399999999999892
 30
0.0
 11
15.999981689453122
 21
59.399999999999892
 31
0.0
  0
LINE
  5
4B
100
AcDbEntity
  8
0
  6
CONTINUOUS
 62
               4
100
AcDbLine
 10
6.7299816894530835
 20
42.091919190669415
 30
0.0
 11
15.269981689453104
 21
42.091919190669415
 31
0.0
  0
LINE
  5
4C
100
AcDbEntity
  8
0
  6
CONTINUOUS
 62
               4
100
AcDbLine
 10
6.2299816894530835
 20
58.899999999999892
 30
0.0
 11
6.2299816894530835
 21
42.591919190673138
 31
0.0
  0
LINE
  5
4D
100
AcDbEntity
  8
0
  6
CONTINUOUS
 62
               4
100
AcDbLine
 10
15.769981689453104
 20
58.899999999999892
 30
0.0
 11
15.769981689453104
 21
42.59191919065384
 31
0.0
  0
LINE
  5
4E
100
AcDbEntity
  8
0
  6
CONTINUOUS
 62
               4
100
AcDbLine
 10
6.4999816894531222
 20
59.399999999999892
 30
0.0
 11
8.2499816894531222
 21
59.399999999999892
 31
0.0
  0
LINE
  5
4F
100
AcDbEntity
  8
0
  6
CONTINUOUS
 62
               4
100
AcDbLine
 10
5.9999816894531222
 20
59.399999999999892
 30
0.0
 11
6.4999816894531222
 21
59.399999999999892
 31
0.0
  0
LINE
  5
50
100
AcDbEntity
  8
0
  6
CONTINUOUS
 62
               4
100
AcDbLine
 10
5.9999999999999858
 20
62.400000004269373
 30
0.0
 11
5.9999999999999858
 21
39.900000000000006
 31
0.0
  0
LINE
  5
51
100
AcDbEntity
  8
0
  6
CONTINUOUS
 62
               4
100
AcDbLine
 10
15.999999999999986
 20
61.80000000426935
 30
0.0
 11
14.749981689453122
 21
61.80000000426935
 31
0.0
  0
LINE
  5
52
100
AcDbEntity
  8
0
  6
CONTINUOUS
 62
               4
100
AcDbLine
 10
15.999999999999986
 20
62.400000004269373
 30
0.0
 11
14.749981689453122
 21
62.400000004269373
 31
0.0
  0
LINE
  5
53
100
AcDbEntity
  8
0
  6
CONTINUOUS
 62
               4
100
AcDbLine
 10
15.999999999999986
 20
60.80000000426935
 30
0.0
 11
14.749981689453122
 21
60.80000000426935
 31
0.0
  0
LINE
  5
54
100
AcDbEntity
  8
0
  6
CONTINUOUS
 62
               4
100
AcDbLine
 10
7.2499816894531222
 20
62.30000000426935
 30
0.0
 11
6.4999999999999858
 21
62.30000000426935
 31
0.0
  0
ARC
  5
55
100
AcDbEntity
  8
0
  6
CONTINUOUS
 62
               4
100
AcDbCircle
 10
6.4999999999999858
 20
61.80000000426935
 30
0.0
 40
0.5
100
AcDbArc
 50
89.999999999999815
 51
179.99999999999963
  0
ARC
  5
56
100
AcDbEntity
  8
0
  6
CONTINUOUS
 62
               4
100
AcDbCircle
 10
15.204095146658162
 20
61.800095150927547
 30
0.0
 40
0.5999048608870732
100
AcDbArc
 50
359.99091272245295
 51
90.009087277546172
  0
LINE
  5
57
100
AcDbEntity
  8
0
  6
CONTINUOUS
 62
               4
100
AcDbLine
 10
6.0000000290891506
 20
62.400000004269373
 30
0.0
 11
7.2499816894531222
 21
62.400000004269373
 31
0.0
  0
LINE
  5
58
100
AcDbEntity
  8
0
  6
CONTINUOUS
 62
               4
100
AcDbLine
 10
15.999999999999986
 20
62.400000000000006
 30
0.0
 11
15.999999999999986
 21
39.900000000000006
 31
0.0
  0
LINE
  5
59
100
AcDbEntity
  8
0
  6
CONTINUOUS
 62
               4
100
AcDbLine
 10
5.9999999999999858
 20
39.900000000000006
 30
0.0
 11
15.999999999999986
 21
39.900000000000006
 31
0.0
  0
ARC
  5
5A
100
AcDbEntity
  8
0
  6
CONTINUOUS
 62
               4
100
AcDbCircle
 10
15.500296847864192
 20
40.3997031521358
 30
0.0
 40
0.4997032403068001
100
AcDbArc
 50
269.96596353714654
 51
0.0340364628527164
  0
LINE
  5
5B
100
AcDbEntity
  8
0
  6
CONTINUOUS
 62
               4
100
AcDbLine
 10
9.4999816894531222
 20
78.392929270933365
 30
0.0
 11
9.9999816894531222
 21
78.392929270933365
 31
0.0
  0
LINE
  5
5C
100
AcDbEntity
  8
0
  6
CONTINUOUS
 62
               4
100
AcDbLine
 10
11.999981689453122
 20
78.392929270933365
 30
0.0
 11
12.499981689453122
 21
78.392929270933365
 31
0.0
  0
LINE
  5
5E
100
AcDbEntity
  8
0
  6
CENTER
 62
             200
100
AcDbLine
 10
1.75
 20
0.0
 30
0.0
 11
1.75
 21
1.2000000000000171
 31
0.0
  0
LINE
  5
5F
100
AcDbEntity
  8
0
  6
CENTER
 62
             200
100
AcDbLine
 10
-1.75
 20
0.0
 30
0.0
 11
-1.75
 21
1.2000000000000171
 31
0.0
  0
LINE
  5
60
100
AcDbEntity
  8
0
  6
CENTER
 62
             200
100
AcDbLine
 10
23.75
 20
0.0
 30
0.0
 11
23.75
 21
1.2000000000000171
 31
0.0
  0
LINE
  5
61
100
AcDbEntity
  8
0
  6
CENTER
 62
             200
100
AcDbLine
 10
20.25
 20
0.0
 30
0.0
 11
20.25
 21
1.2000000000000171
 31
0.0
  0
LINE
  5
62
100
AcDbEntity
  8
0
  6
CENTER
 62
             200
100
AcDbLine
 10
22.0
 20
-2.4438717557984688
 30
0.0
 11
22.0
 21
3.8000000000000114
 31
0.0
  0
LINE
  5
63
100
AcDbEntity
  8
0
  6
CENTER
 62
             200
100
AcDbLine
 10
0.0
 20
-2.4438717557984688
 30
0.0
 11
0.0
 21
3.8000000000000114
 31
0.0
  0
CIRCLE
  5
64
100
AcDbEntity
  8
0
  6
CONTINUOUS
 62
               7
100
AcDbCircle
 10
7.3000000000000114
 20
23.900000000000006
 30
0.0
 40
1.0
  0
ARC
  5
65
100
AcDbEntity
  8
0
  6
CONTINUOUS
 62
               7
100
AcDbCircle
 10
7.3000000000000114
 20
23.900000000000006
 30
0.0
 40
1.6499999999999999
100
AcDbArc
 50
269.99999999999937
 51
89.999999999999801
  0
LINE
  5
66
100
AcDbEntity
  8
0
  6
CONTINUOUS
 62
               7
100
AcDbLine
 10
7.3000000000000114
 20
25.549999999999997
 30
0.0
 11
6.0
 21
25.549999999999997
 31
0.0
  0
LINE
  5
67
100
AcDbEntity
  8
0
  6
CONTINUOUS
 62
               7
100
AcDbLine
 10
7.3000000000000114
 20
22.25
 30
0.0
 11
6.0
 21
22.25
 31
0.0
  0
LINE
  5
68
100
AcDbEntity
  8
0
  6
CENTER
 62
               2
100
AcDbLine
 10
15.178166284015219
 20
22.300000000000011
 30
0.0
 11
10.821833715984781
 21
22.300000000000011
 31
0.0
  0
ARC
  5
69
100
AcDbEntity
  8
0
  6
CONTINUOUS
 62
               7
100
AcDbCircle
 10
6.5905539681090772
 20
6.2682512686530458
 30
0.0
 40
0.6105564724372722
100
AcDbArc
 50
179.83589550320582
 51
253.77907243150949
  0
LINE
  5
6A
100
AcDbEntity
  8
0
  6
CONTINUOUS
 62
               7
100
AcDbLine
 10
15.800000000000011
 20
5.0
 30
0.0
 11
6.1999999999999886
 21
5.0
 31
0.0
  0
LINE
  5
6B
100
AcDbEntity
  8
0
  6
CONTINUOUS
 62
               7
100
AcDbLine
 10
5.9800000000000182
 20
6.8000000000000114
 30
0.0
 11
9.5
 21
6.8000000000000114
 31
0.0
  0
ARC
  5
6C
100
AcDbEntity
  8
0
  6
CONTINUOUS
 62
               7
100
AcDbCircle
 10
6.2991048631411104
 20
7.0991048631411218
 30
0.0
 40
0.2991062025847394
100
AcDbArc
 50
179.82853033398985
 51
270.17146966600922
  0
ARC
  5
6D
100
AcDbEntity
  8
0
  6
CONTINUOUS
 62
               7
100
AcDbCircle
 10
6.1999999999999886
 20
5.1999999999999886
 30
0.0
 40
0.2
100
AcDbArc
 50
179.99999999999963
 51
269.99999999999937
  0
LINE
  5
6E
100
AcDbEntity
  8
0
  6
CONTINUOUS
 62
               7
100
AcDbLine
 10
9.5
 20
5.0
 30
0.0
 11
9.5
 21
6.8000000000000114
 31
0.0
  0
ARC
  5
6F
100
AcDbEntity
  8
0
  6
CONTINUOUS
 62
               7
100
AcDbCircle
 10
7.6999999999999886
 20
10.087421236733974
 30
0.0
 40
4.5876068132596712
100
AcDbArc
 50
253.79871892415684
 51
286.20128107584191
  0
ARC
  5
70
100
AcDbEntity
  8
0
  6
CONTINUOUS
 62
               7
100
AcDbCircle
 10
8.8082280041660965
 20
6.2691627179709997
 30
0.0
 40
0.6117725687931934
100
AcDbArc
 50
286.30661609184898
 51
0.0784159734340139
  0
LINE
  5
71
100
AcDbEntity
  8
0
  6
CONTINUOUS
 62
               7
100
AcDbLine
 10
9.4200000000000159
 20
6.2700000000000387
 30
0.0
 11
9.4200000000000159
 21
6.8000000000000114
 31
0.0
  0
LINE
  5
72
100
AcDbEntity
  8
0
  6
CONTINUOUS
 62
               7
100
AcDbLine
 10
6.0
 20
5.1999999999999886
 30
0.0
 11
6.0
 21
6.1132505693459507
 31
0.0
  0
LINE
  5
73
100
AcDbEntity
  8
0
  6
CONTINUOUS
 62
               7
100
AcDbLine
 10
5.9800000000000182
 20
6.2700000000000387
 30
0.0
 11
5.9800000000000182
 21
6.8000000000000114
 31
0.0
  0
ARC
  5
74
100
AcDbEntity
  8
0
  6
CONTINUOUS
 62
               7
100
AcDbCircle
 10
15.800000000000011
 20
5.1999999999999886
 30
0.0
 40
0.2
100
AcDbArc
 50
269.99999999999937
 51
0.0
  0
LINE
  5
75
100
AcDbEntity
  8
0
  6
CONTINUOUS
 62
               7
100
AcDbLine
 10
16.0
 20
10.0
 30
0.0
 11
6.0
 21
10.0
 31
0.0
  0
LINE
  5
76
100
AcDbEntity
  8
0
  6
CENTER
 62
               2
100
AcDbLine
 10
14.700000000000017
 20
12.121833715984792
 30
0.0
 11
14.700000000000017
 21
16.478166284015231
 31
0.0
  0
CIRCLE
  5
77
100
AcDbEntity
  8
0
  6
CONTINUOUS
 62
               7
100
AcDbCircle
 10
14.700000000000017
 20
14.300000000000011
 30
0.0
 40
1.0
  0
LINE
  5
78
100
AcDbEntity
  8
0
  6
CENTER
 62
               2
100
AcDbLine
 10
11.178166284015219
 20
15.900000000000006
 30
0.0
 11
6.8218337159847806
 21
15.900000000000006
 31
0.0
  0
CIRCLE
  5
79
100
AcDbEntity
  8
0
  6
CONTINUOUS
 62
               2
100
AcDbCircle
 10
9.0026882635082472
 20
15.892204297557385
 30
0.0
 40
1.5
  0
CIRCLE
  5
7A
100
AcDbEntity
  8
0
  6
CONTINUOUS
 62
               7
100
AcDbCircle
 10
9.0026882635082472
 20
15.892204297557385
 30
0.0
 40
1.25
  0
LINE
  5
7B
100
AcDbEntity
  8
0
  6
CENTER
 62
               2
100
AcDbLine
 10
9.0
 20
13.721833715984786
 30
0.0
 11
9.0
 21
18.078166284015225
 31
0.0
  0
ARC
  5
7C
100
AcDbEntity
  8
0
  6
CONTINUOUS
 62
               7
100
AcDbCircle
 10
14.700000000000017
 20
14.300000000000011
 30
0.0
 40
1.6499999999999999
100
AcDbArc
 50
89.999999999999815
 51
269.99999999999937
  0
LINE
  5
7D
100
AcDbEntity
  8
0
  6
CONTINUOUS
 62
               7
100
AcDbLine
 10
14.700000000000017
 20
15.949999999999989
 30
0.0
 11
16.0
 21
15.949999999999989
 31
0.0
  0
LINE
  5
7E
100
AcDbEntity
  8
0
  6
CONTINUOUS
 62
               7
100
AcDbLine
 10
14.700000000000017
 20
12.650000000000006
 30
0.0
 11
16.0
 21
12.650000000000006
 31
0.0
  0
LINE
  5
7F
100
AcDbEntity
  8
0
  6
CENTER
 62
               2
100
AcDbLine
 10
7.3000000000000114
 20
21.721833715984758
 30
0.0
 11
7.3000000000000114
 21
26.078166284015197
 31
0.0
  0
LINE
  5
80
100
AcDbEntity
  8
0
  6
CENTER
 62
               2
100
AcDbLine
 10
13.0
 20
20.121833715984792
 30
0.0
 11
13.0
 21
24.478166284015231
 31
0.0
  0
CIRCLE
  5
81
100
AcDbEntity
  8
0
  6
CONTINUOUS
 62
               7
100
AcDbCircle
 10
13.0
 20
22.300000000000011
 30
0.0
 40
1.25
  0
CIRCLE
  5
82
100
AcDbEntity
  8
0
  6
CONTINUOUS
 62
               2
100
AcDbCircle
 10
13.0
 20
22.300000000000011
 30
0.0
 40
1.5
  0
LINE
  5
83
100
AcDbEntity
  8
0
  6
CONTINUOUS
 62
               7
100
AcDbLine
 10
16.0
 20
5.1999999999999886
 30
0.0
 11
16.0
 21
28.200000000000003
 31
0.0
  0
LINE
  5
84
100
AcDbEntity
  8
0
  6
CONTINUOUS
 62
               7
100
AcDbLine
 10
6.0
 20
6.8000000000000114
 30
0.0
 11
6.0
 21
28.200000000000003
 31
0.0
  0
LINE
  5
85
100
AcDbEntity
  8
0
  6
CONTINUOUS
 62
               7
100
AcDbLine
 10
16.0
 20
28.200000000000003
 30
0.0
 11
6.0
 21
28.200000000000003
 31
0.0
  0
CIRCLE
  5
86
100
AcDbEntity
  8
0
  6
CONTINUOUS
 62
               7
100
AcDbCircle
 10
11.0
 20
37.600000000000023
 30
0.0
 40
0.75
  0
CIRCLE
  5
87
100
AcDbEntity
  8
0
  6
CONTINUOUS
 62
               7
100
AcDbCircle
 10
11.0
 20
37.600000000000023
 30
0.0
 40
1.1000000000000001
  0
CIRCLE
  5
88
100
AcDbEntity
  8
0
  6
CONTINUOUS
 62
               7
100
AcDbCircle
 10
11.0
 20
37.600000000000023
 30
0.0
 40
1.1500000000000001
  0
CIRCLE
  5
89
100
AcDbEntity
  8
0
  6
CONTINUOUS
 62
               7
100
AcDbCircle
 10
11.0
 20
37.600000000000023
 30
0.0
 40
1.3000000000000012
  0
LINE
  5
8A
100
AcDbEntity
  8
0
  6
CENTER
 62
               2
100
AcDbLine
 10
12.699999999999989
 20
37.600000000000023
 30
0.0
 11
9.3000000000000114
 21
37.600000000000023
 31
0.0
  0
ARC
  5
8B
100
AcDbEntity
  8
0
  6
CONTINUOUS
 62
               7
100
AcDbCircle
 10
11.0
 20
35.900000000000006
 30
0.0
 40
2.0
100
AcDbArc
 50
179.99999999999963
 51
0.0
  0
LINE
  5
8C
100
AcDbEntity
  8
0
  6
CONTINUOUS
 62
               7
100
AcDbLine
 10
13.0
 20
35.900000000000006
 30
0.0
 11
13.0
 21
39.900000000000006
 31
0.0
  0
LINE
  5
8D
100
AcDbEntity
  8
0
  6
CONTINUOUS
 62
               7
100
AcDbLine
 10
9.0
 20
35.900000000000006
 30
0.0
 11
9.0
 21
39.900000000000006
 31
0.0
  0
LINE
  5
8E
100
AcDbEntity
  8
0
  6
CONTINUOUS
 62
               7
100
AcDbLine
 10
16.0
 20
28.200000000000003
 30
0.0
 11
16.0
 21
39.900000000000006
 31
0.0
  0
LINE
  5
8F
100
AcDbEntity
  8
0
  6
CONTINUOUS
 62
               7
100
AcDbLine
 10
6.0
 20
28.200000000000003
 30
0.0
 11
6.0
 21
39.900000000000006
 31
0.0
  0
LINE
  5
90
100
AcDbEntity
  8
0
  6
CONTINUOUS
 62
               7
100
AcDbLine
 10
16.0
 20
39.900000000000006
 30
0.0
 11
6.0
 21
39.900000000000006
 31
0.0
  0
LINE
  5
91
100
AcDbEntity
  8
0
  6
CONTINUOUS
 62
               4
100
AcDbLine
 10
-3.0
 20
1.2000000000000171
 30
0.0
 11
4.1000000000000227
 21
1.2000000000000171
 31
0.0
  0
LINE
  5
92
100
AcDbEntity
  8
0
  6
CONTINUOUS
 62
               4
100
AcDbLine
 10
-3.0
 20
0.0
 30
0.0
 11
4.1000000000000227
 21
0.0
 31
0.0
  0
LINE
  5
93
100
AcDbEntity
  8
0
  6
CONTINUOUS
 62
               4
100
AcDbLine
 10
-3.0
 20
0.0
 30
0.0
 11
-3.0
 21
1.2000000000000171
 31
0.0
  0
LINE
  5
94
100
AcDbEntity
  8
0
  6
CONTINUOUS
 62
               4
100
AcDbLine
 10
5.7000000000000171
 20
3.8000000000000114
 30
0.0
 11
16.300000000000011
 21
3.8000000000000114
 31
0.0
  0
LINE
  5
95
100
AcDbEntity
  8
0
  6
CONTINUOUS
 62
               4
100
AcDbLine
 10
5.5
 20
1.4000000000000057
 30
0.0
 11
5.5
 21
3.5999999999999943
 31
0.0
  0
LINE
  5
96
100
AcDbEntity
  8
0
  6
CONTINUOUS
 62
               4
100
AcDbLine
 10
4.3000000000000114
 20
1.4000000000000057
 30
0.0
 11
4.3000000000000114
 21
3.5999999999999943
 31
0.0
  0
LINE
  5
97
100
AcDbEntity
  8
0
  6
CONTINUOUS
 62
               4
100
AcDbLine
 10
5.9700000000000273
 20
3.2660000000000196
 30
0.0
 11
5.9700000000000273
 21
3.8000000000000114
 31
0.0
  0
LINE
  5
98
100
AcDbEntity
  8
0
  6
CONTINUOUS
 62
               4
100
AcDbLine
 10
9.4300000000000068
 20
3.2660000000000196
 30
0.0
 11
9.4300000000000068
 21
3.8000000000000114
 31
0.0
  0
LINE
  5
99
100
AcDbEntity
  8
0
  6
CONTINUOUS
 62
               4
100
AcDbLine
 10
12.569999999999993
 20
3.2660000000000196
 30
0.0
 11
12.569999999999993
 21
3.8000000000000114
 31
0.0
  0
LINE
  5
9A
100
AcDbEntity
  8
0
  6
CONTINUOUS
 62
               4
100
AcDbLine
 10
16.03000000000003
 20
3.2660000000000196
 30
0.0
 11
16.03000000000003
 21
3.8000000000000114
 31
0.0
  0
ARC
  5
9B
100
AcDbEntity
  8
0
  6
CONTINUOUS
 62
               4
100
AcDbCircle
 10
4.0999415866173763
 20
1.4000584133826521
 30
0.0
 40
0.2000584219104543
100
AcDbArc
 50
270.01672931490481
 51
359.98327068509366
  0
ARC
  5
9C
100
AcDbEntity
  8
0
  6
CONTINUOUS
 62
               4
100
AcDbCircle
 10
16.299115528302707
 20
3.5991155283026899
 30
0.0
 40
0.2008864188024893
100
AcDbArc
 50
0.2522652321918488
 51
89.747734767807131
  0
ARC
  5
9D
100
AcDbEntity
  8
0
  6
CONTINUOUS
 62
               4
100
AcDbCircle
 10
5.6999333589326397
 20
3.6000666410673716
 30
0.0
 40
0.1999333700389205
100
AcDbArc
 50
89.980902377767208
 51
180.01909762223218
  0
ARC
  5
9E
100
AcDbEntity
  8
0
  6
CONTINUOUS
 62
               4
100
AcDbCircle
 10
4.099943315390135
 20
1.4000566846098934
 30
0.0
 40
1.4000566857574084
100
AcDbArc
 50
270.00231975529556
 51
359.99768024470291
  0
ARC
  5
9F
100
AcDbEntity
  8
0
  6
CONTINUOUS
 62
               4
100
AcDbCircle
 10
7.6990000000000123
 20
7.1068760989089697
 30
0.0
 40
4.6140039015894576
100
AcDbArc
 50
253.80344035273558
 51
286.19655964726314
  0
ARC
  5
A0
100
AcDbEntity
  8
0
  6
CONTINUOUS
 62
               4
100
AcDbCircle
 10
6.5838413187467495
 20
3.265298072688239
 30
0.0
 40
0.613841720073419
100
AcDbArc
 50
179.93448232673219
 51
253.74313632481389
  0
ARC
  5
A1
100
AcDbEntity
  8
0
  6
CONTINUOUS
 62
               4
100
AcDbCircle
 10
8.8152220268359258
 20
3.2665820679404476
 30
0.0
 40
0.6147782487131708
100
AcDbArc
 50
286.12822533946951
 51
359.94575273046883
  0
ARC
  5
A2
100
AcDbEntity
  8
0
  6
CONTINUOUS
 62
               4
100
AcDbCircle
 10
14.299000000000035
 20
7.1068760988772226
 30
0.0
 40
4.6140039015589682
100
AcDbArc
 50
253.80344035262561
 51
286.19655964737319
  0
ARC
  5
A3
100
AcDbEntity
  8
0
  6
CONTINUOUS
 62
               4
100
AcDbCircle
 10
13.183839364596452
 20
3.2652966087315747
 30
0.0
 40
0.6138397676001843
100
AcDbArc
 50
179.93434547259068
 51
253.74327317895529
  0
ARC
  5
A4
100
AcDbEntity
  8
0
  6
CONTINUOUS
 62
               4
100
AcDbCircle
 10
15.415220075966602
 20
3.2665835360522806
 30
0.0
 40
0.6147802009733803
100
AcDbArc
 50
286.12836199114588
 51
359.94561607879228
  0
LINE
  5
A5
100
AcDbEntity
  8
0
  6
CONTINUOUS
 62
               4
100
AcDbLine
 10
25.0
 20
0.0
 30
0.0
 11
25.0
 21
1.2000000000000171
 31
0.0
  0
LINE
  5
A6
100
AcDbEntity
  8
0
  6
CONTINUOUS
 62
               4
100
AcDbLine
 10
17.900000000000034
 20
1.2000000000000171
 30
0.0
 11
25.0
 21
1.2000000000000171
 31
0.0
  0
LINE
  5
A7
100
AcDbEntity
  8
0
  6
CONTINUOUS
 62
               4
100
AcDbLine
 10
17.900000000000034
 20
0.0
 30
0.0
 11
25.0
 21
0.0
 31
0.0
  0
ARC
  5
A8
100
AcDbEntity
  8
0
  6
CONTINUOUS
 62
               4
100
AcDbCircle
 10
17.899103340046224
 20
1.3991033400461959
 30
0.0
 40
0.1991053590856348
100
AcDbArc
 50
179.74197075907335
 51
270.25802924092562
  0
ARC
  5
A9
100
AcDbEntity
  8
0
  6
CONTINUOUS
 62
               4
100
AcDbCircle
 10
17.899103333594837
 20
1.3991033335948089
 30
0.0
 40
1.3991036209254675
100
AcDbArc
 50
179.96327991479848
 51
270.03672008520033
  0
LINE
  5
AA
100
AcDbEntity
  8
0
  6
CONTINUOUS
 62
               4
100
AcDbLine
 10
17.699999999999989
 20
1.4000000000000057
 30
0.0
 11
17.699999999999989
 21
3.5999999999999943
 31
0.0
  0
LINE
  5
AB
100
AcDbEntity
  8
0
  6
CONTINUOUS
 62
               4
100
AcDbLine
 10
16.5
 20
1.4000000000000057
 30
0.0
 11
16.5
 21
3.5999999999999943
 31
0.0
  0
ARC
  5
AC
100
AcDbEntity
  8
0
  6
CONTINUOUS
 62
               4
100
AcDbCircle
 10
5.6999316768315111
 20
3.6000683231685287
 30
0.0
 40
1.3999316784987346
100
AcDbArc
 50
89.997203699822904
 51
180.00279630017653
  0
ARC
  5
AD
100
AcDbEntity
  8
0
  6
CONTINUOUS
 62
               4
100
AcDbCircle
 10
16.299115537943862
 20
3.5991155379438453
 30
0.0
 40
1.4008847412629901
100
AcDbArc
 50
0.0361742439122946
 51
89.963825756087459
  0
LINE
  5
AE
100
AcDbEntity
  8
0
  6
CONTINUOUS
 62
               4
100
AcDbLine
 10
16.300000000000011
 20
5.0
 30
0.0
 11
5.7000000000000171
 21
5.0
 31
0.0
  0
LINE
  5
AF
100
AcDbEntity
  8
0
  6
CONTINUOUS
 62
               4
100
AcDbLine
 10
22.0
 20
0.0
 30
0.0
 11
22.0
 21
1.2000000000000171
 31
0.0
  0
LINE
  5
B0
100
AcDbEntity
  8
0
  6
CONTINUOUS
 62
               4
100
AcDbLine
 10
0.0
 20
0.0
 30
0.0
 11
0.0
 21
1.2000000000000171
 31
0.0
  0
ARC
  5
B1
100
AcDbEntity
  8
0
  6
CONTINUOUS
 62
               7
100
AcDbCircle
 10
11.0
 20
35.900000000000006
 30
0.0
 40
3.090998569384837
100
AcDbArc
 50
179.99999999999963
 51
0.0
  0
LINE
  5
B2
100
AcDbEntity
  8
0
  6
CONTINUOUS
 62
               7
100
AcDbLine
 10
14.090998569384851
 20
35.900000000000006
 30
0.0
 11
14.090998569384851
 21
39.900000000000006
 31
0.0
  0
LINE
  5
B3
100
AcDbEntity
  8
0
  6
CONTINUOUS
 62
               7
100
AcDbLine
 10
7.9090014306151488
 20
35.900000000000006
 30
0.0
 11
7.9090014306151488
 21
39.900000000000006
 31
0.0
  0
LINE
  5
B4
100
AcDbEntity
  8
0
  6
CENTER
 62
               2
100
AcDbLine
 10
16.878166284015236
 20
14.300000000000011
 30
0.0
 11
12.521833715984798
 21
14.300000000000011
 31
0.0
  0
LINE
  5
B5
100
AcDbEntity
  8
0
  6
CENTER
 62
               2
100
AcDbLine
 10
9.4781662840152308
 20
23.900000000000006
 30
0.0
 11
5.121833715984792
 21
23.899999999999977
 31
0.0
  0
LINE
  5
B6
100
AcDbEntity
  8
0
  6
CENTER
 62
               2
100
AcDbLine
 10
11.0
 20
2.2438875818592123
 30
0.0
 11
10.999999999999986
 21
68.269683056948367
 31
0.0
  0
ENDBLK
  5
B7
100
AcDbEntity
  8
0
100
AcDbBlockEnd
  0
BLOCK
  5
B8
100
AcDbEntity
  8
0
100
AcDbBlockBegin
  2
EA10SF5-2
 70
               0
 10
0.0
 20
0.0
 30
0.0
  3
EA10SF5-2
  1

  0
ARC
  5
B9
100
AcDbEntity
  8
0
  6
CONTINUOUS
 62
               4
100
AcDbCircle
 10
14.501921268822755
 20
59.803476452093406
 30
0.0
 40
0.4029462287748787
100
AcDbArc
 50
180.49433091715488
 51
349.39117201772478
  0
ARC
  5
BA
100
AcDbEntity
  8
0
  6
CONTINUOUS
 62
               4
100
AcDbCircle
 10
14.59998708699159
 20
58.39730204304422
 30
0.0
 40
0.5030505883944908
100
AcDbArc
 50
0.3072892911898554
 51
36.562608354652731
  0
ARC
  5
BB
100
AcDbEntity
  8
0
  6
CONTINUOUS
 62
               4
100
AcDbCircle
 10
15.797896264216618
 20
51.702103872707909
 30
0.0
 40
0.3021474965435785
100
AcDbArc
 50
270.97363298451126
 51
359.02636701548732
  0
ARC
  5
BC
100
AcDbEntity
  8
0
  6
CONTINUOUS
 62
               4
100
AcDbCircle
 10
14.503834265403455
 20
58.893708514783441
 30
0.0
 40
0.5002341568128574
100
AcDbArc
 50
0.6049287534634878
 51
90.207763713153867
  0
ARC
  5
BD
100
AcDbEntity
  8
0
  6
CONTINUOUS
 62
               4
100
AcDbCircle
 10
14.498033203693879
 20
42.549484497491449
 30
0.0
 40
0.5060324378497572
100
AcDbArc
 50
295.28139190005214
 51
359.42932783011406
  0
LINE
  5
BE
100
AcDbEntity
  8
0
  6
CONTINUOUS
 62
               4
100
AcDbLine
 10
10.005050645458098
 20
39.899999999999693
 30
0.0
 11
10.005050645458098
 21
59.393939382799829
 31
0.0
  0
LINE
  5
BF
100
AcDbEntity
  8
0
  6
CONTINUOUS
 62
               4
100
AcDbLine
 10
10.500000140124783
 20
66.396969688399707
 30
0.0
 11
10.500000140124783
 21
61.397979792266341
 31
0.0
  0
LINE
  5
C0
100
AcDbEntity
  8
0
  6
CONTINUOUS
 62
               4
100
AcDbLine
 10
10.005050645458098
 20
61.397979792266341
 30
0.0
 11
10.005050645458098
 21
59.396969692399722
 31
0.0
  0
LINE
  5
C1
100
AcDbEntity
  8
0
  6
CONTINUOUS
 62
               4
100
AcDbLine
 10
10.005050645458098
 20
67.399999999999665
 30
0.0
 11
10.005050645458098
 21
66.396969688399707
 31
0.0
  0
LINE
  5
C2
100
AcDbEntity
  8
0
  6
CONTINUOUS
 62
               4
100
AcDbLine
 10
13.151515290124806
 20
71.218181815999657
 30
0.0
 11
13.151515290124806
 21
67.399999999999665
 31
0.0
  0
LINE
  5
C3
100
AcDbEntity
  8
0
  6
CONTINUOUS
 62
             200
100
AcDbLine
 10
14.000000138124804
 20
70.723232321333029
 30
0.0
 11
11.002020341858113
 21
72.455555552666368
 31
0.0
  0
LINE
  5
C4
100
AcDbEntity
  8
0
  6
CONTINUOUS
 62
             200
100
AcDbLine
 10
14.000000138124804
 20
71.069696967599697
 30
0.0
 11
11.002020341858113
 21
72.802020198932979
 31
0.0
  0
LINE
  5
C5
100
AcDbEntity
  8
0
  6
CONTINUOUS
 62
               4
100
AcDbLine
 10
12.748484987324744
 20
78.394949488666356
 30
0.0
 11
12.748484987324744
 21
74.894949490666335
 31
0.0
  0
LINE
  5
C6
100
AcDbEntity
  8
0
  6
CONTINUOUS
 62
               4
100
AcDbLine
 10
12.25353549265806
 20
78.394949488666356
 30
0.0
 11
12.25353549265806
 21
74.894949490666335
 31
0.0
  0
LINE
  5
C7
100
AcDbEntity
  8
0
  6
CONTINUOUS
 62
               4
100
AcDbLine
 10
11.850505189858112
 20
74.894949490666335
 30
0.0
 11
13.151515290124806
 21
74.894949490666335
 31
0.0
  0
LINE
  5
C8
100
AcDbEntity
  8
0
  6
CONTINUOUS
 62
               4
100
AcDbLine
 10
11.850505189858112
 20
74.894949490666335
 30
0.0
 11
11.850505189858112
 21
72.314141411332997
 31
0.0
  0
LINE
  5
C9
100
AcDbEntity
  8
0
  6
CONTINUOUS
 62
               4
100
AcDbLine
 10
13.151515290124806
 20
74.894949490666335
 30
0.0
 11
13.151515290124806
 21
71.564646462266325
 31
0.0
  0
LINE
  5
CA
100
AcDbEntity
  8
0
  6
CONTINUOUS
 62
               4
100
AcDbLine
 10
11.850505189858112
 20
71.967676765066329
 30
0.0
 11
11.850505189858112
 21
67.399999999999665
 31
0.0
  0
LINE
  5
CB
100
AcDbEntity
  8
0
  6
CONTINUOUS
 62
               4
100
AcDbLine
 10
15.004040541591465
 20
51.49898989893299
 30
0.0
 11
15.103030440524734
 21
51.399999999999665
 31
0.0
  0
LINE
  5
CC
100
AcDbEntity
  8
0
  6
CONTINUOUS
 62
               4
100
AcDbLine
 10
15.004040541591465
 20
52.701010100266359
 30
0.0
 11
15.103030440524734
 21
52.701010100266359
 31
0.0
  0
LINE
  5
CD
100
AcDbEntity
  8
0
  6
CONTINUOUS
 62
               4
100
AcDbLine
 10
15.103030440524734
 20
51.399999999999665
 30
0.0
 11
15.803030440124715
 21
51.399999999999665
 31
0.0
  0
LINE
  5
CE
100
AcDbEntity
  8
0
  6
CONTINUOUS
 62
               4
100
AcDbLine
 10
16.100000136924749
 20
60.796969691599685
 30
0.0
 11
16.100000136924749
 21
51.696969696799698
 31
0.0
  0
LINE
  5
CF
100
AcDbEntity
  8
0
  6
CONTINUOUS
 62
               4
100
AcDbLine
 10
14.098990037058073
 20
60.895959590533067
 30
0.0
 11
14.403030440924752
 21
61.19999999439969
 31
0.0
  0
LINE
  5
D0
100
AcDbEntity
  8
0
  6
CONTINUOUS
 62
               4
100
AcDbLine
 10
10.005050645458098
 20
61.397979792266341
 30
0.0
 11
10.500000140124783
 21
61.397979792266341
 31
0.0
  0
LINE
  5
D1
100
AcDbEntity
  8
0
  6
CONTINUOUS
 62
               4
100
AcDbLine
 10
10.005050645458098
 20
66.396969688399707
 30
0.0
 11
10.500000140124783
 21
66.396969688399707
 31
0.0
  0
LINE
  5
D2
100
AcDbEntity
  8
0
  6
CONTINUOUS
 62
               4
100
AcDbLine
 10
14.098990037058073
 20
67.399999999999665
 30
0.0
 11
14.403030440924752
 21
67.095959596132985
 31
0.0
  0
LINE
  5
D3
100
AcDbEntity
  8
0
  6
CONTINUOUS
 62
               4
100
AcDbLine
 10
14.403030440924752
 20
67.095959596132985
 30
0.0
 11
14.403030440924752
 21
61.19999999439969
 31
0.0
  0
LINE
  5
D4
100
AcDbEntity
  8
0
  6
CONTINUOUS
 62
               4
100
AcDbLine
 10
14.098990037058073
 20
67.399999999999665
 30
0.0
 11
14.098990037058073
 21
59.799999995199727
 31
0.0
  0
LINE
  5
D5
100
AcDbEntity
  8
0
  6
CONTINUOUS
 62
               4
100
AcDbLine
 10
15.103030440524734
 20
58.399999995999707
 30
0.0
 11
15.103030440524734
 21
52.701010100266359
 31
0.0
  0
LINE
  5
D6
100
AcDbEntity
  8
0
  6
CONTINUOUS
 62
               4
100
AcDbLine
 10
14.897979935591437
 20
59.729292924533041
 30
0.0
 11
16.015151652124771
 21
66.071717163333034
 31
0.0
  0
LINE
  5
D7
100
AcDbEntity
  8
0
  6
CONTINUOUS
 62
               4
100
AcDbLine
 10
16.00101023799148
 20
67.399999999999665
 30
0.0
 11
16.997979934391381
 21
67.399999999999665
 31
0.0
  0
LINE
  5
D8
100
AcDbEntity
  8
0
  6
CONTINUOUS
 62
               4
100
AcDbLine
 10
16.00101023799148
 20
67.399999999999665
 30
0.0
 11
16.00101023799148
 21
65.986868678533
 31
0.0
  0
LINE
  5
D9
100
AcDbEntity
  8
0
  6
CONTINUOUS
 62
               4
100
AcDbLine
 10
16.100000136924749
 20
60.796969691599685
 30
0.0
 11
16.997979934391381
 21
65.902020193733023
 31
0.0
  0
LINE
  5
DA
100
AcDbEntity
  8
0
  6
CONTINUOUS
 62
               4
100
AcDbLine
 10
16.997979934391381
 20
67.399999999999665
 30
0.0
 11
16.997979934391381
 21
65.902020193733023
 31
0.0
  0
LINE
  5
DB
100
AcDbEntity
  8
0
  6
CONTINUOUS
 62
               4
100
AcDbLine
 10
13.398990037458091
 20
67.399999999999665
 30
0.0
 11
13.398990037458091
 21
59.396969692399722
 31
0.0
  0
LINE
  5
DC
100
AcDbEntity
  8
0
  6
CONTINUOUS
 62
               4
100
AcDbLine
 10
11.603030442524712
 20
67.399999999999665
 30
0.0
 11
11.603030442524712
 21
59.396969692399722
 31
0.0
  0
LINE
  5
DD
100
AcDbEntity
  8
0
  6
CONTINUOUS
 62
               4
100
AcDbLine
 10
10.005050645458098
 20
67.399999999999665
 30
0.0
 11
14.098990037058073
 21
67.399999999999665
 31
0.0
  0
LINE
  5
DE
100
AcDbEntity
  8
0
  6
CONTINUOUS
 62
               4
100
AcDbLine
 10
10.005050645458098
 20
39.899999999999693
 30
0.0
 11
14.714141551858077
 21
42.091919190666431
 31
0.0
  0
LINE
  5
DF
100
AcDbEntity
  8
0
  6
CONTINUOUS
 62
               4
100
AcDbLine
 10
15.004040541591465
 20
58.898989888133144
 30
0.0
 11
15.004040541591465
 21
42.544444442933042
 31
0.0
  0
LINE
  5
E0
100
AcDbEntity
  8
0
  6
CONTINUOUS
 62
               4
100
AcDbLine
 10
7.0000001421247617
 20
59.393939382799829
 30
0.0
 11
14.502020339858134
 21
59.393939382799829
 31
0.0
  0
LINE
  5
E1
100
AcDbEntity
  8
0
  6
CONTINUOUS
 62
               4
100
AcDbLine
 10
5.0000001461248331
 20
60.799999999999841
 30
0.0
 11
-6.9999998498752092
 21
60.799999999999841
 31
0.0
  0
LINE
  5
E2
100
AcDbEntity
  8
0
  6
CONTINUOUS
 62
               4
100
AcDbLine
 10
5.0000001461248331
 20
62.399999999999807
 30
0.0
 11
5.0000001461248331
 21
60.799999999999841
 31
0.0
  0
ARC
  5
E3
100
AcDbEntity
  8
0
  6
CONTINUOUS
 62
               4
100
AcDbCircle
 10
6.5000001421247617
 20
61.799999999999841
 30
0.0
 40
0.5
100
AcDbArc
 50
0.0
 51
89.999999999999815
  0
ARC
  5
E4
100
AcDbEntity
  8
0
  6
CONTINUOUS
 62
               4
100
AcDbCircle
 10
-6.4999998498752092
 20
61.799999999999841
 30
0.0
 40
0.5
100
AcDbArc
 50
93.919585899650798
 51
179.99999999999963
  0
ARC
  5
E5
100
AcDbEntity
  8
0
  6
CONTINUOUS
 62
               4
100
AcDbCircle
 10
-6.2010877690034221
 20
61.801088005128008
 30
0.0
 40
0.5989129231257409
100
AcDbArc
 50
89.895914524772735
 51
180.10408547522667
  0
ARC
  5
E6
100
AcDbEntity
  8
0
  6
CONTINUOUS
 62
               4
100
AcDbCircle
 10
6.2000952027734257
 20
61.800095146648459
 30
0.0
 40
0.5999048008965869
100
AcDbArc
 50
56.247417870393882
 51
90.009087277546172
  0
LINE
  5
E7
100
AcDbEntity
  8
0
  6
CONTINUOUS
 62
               4
100
AcDbLine
 10
6.2000000561248072
 20
62.399999999999807
 30
0.0
 11
-6.1999997638752546
 21
62.399999999999807
 31
0.0
  0
LINE
  5
E8
100
AcDbEntity
  8
0
  6
CONTINUOUS
 62
               4
100
AcDbLine
 10
6.5000001421247617
 20
62.299999999999841
 30
0.0
 11
5.0000001461248331
 21
62.299999999999841
 31
0.0
  0
LINE
  5
E9
100
AcDbEntity
  8
0
  6
CONTINUOUS
 62
               4
100
AcDbLine
 10
-4.2999998538752351
 20
61.799999999999841
 30
0.0
 11
-6.9999998498752092
 21
61.799999999999841
 31
0.0
  0
LINE
  5
EA
100
AcDbEntity
  8
0
  6
CONTINUOUS
 62
               4
100
AcDbLine
 10
-4.2999998538752351
 20
62.399999999999807
 30
0.0
 11
-4.2999998538752351
 21
61.799999999999841
 31
0.0
  0
LINE
  5
EB
100
AcDbEntity
  8
0
  6
CONTINUOUS
 62
               4
100
AcDbLine
 10
-6.9999998538752237
 20
39.899999999999778
 30
0.0
 11
10.005050645458098
 21
39.899999999999778
 31
0.0
  0
LINE
  5
EC
100
AcDbEntity
  8
0
  6
CONTINUOUS
 62
               4
100
AcDbLine
 10
-6.9999998538752237
 20
61.799999999999784
 30
0.0
 11
-6.9999998538752237
 21
39.899999999999778
 31
0.0
  0
LINE
  5
ED
100
AcDbEntity
  8
0
  6
CONTINUOUS
 62
               4
100
AcDbLine
 10
7.0000001461247763
 20
39.899999999999778
 30
0.0
 11
7.0000001461247763
 21
61.799999994932051
 31
0.0
  0
LINE
  5
EE
100
AcDbEntity
  8
0
  6
CONTINUOUS
 62
               4
100
AcDbLine
 10
12.25353549265806
 20
78.394949488666356
 30
0.0
 11
12.748484987324744
 21
78.394949488666356
 31
0.0
  0
LINE
  5
EF
100
AcDbEntity
  8
0
  6
CONTINUOUS
 62
               4
100
AcDbLine
 10
-7.0
 20
0.0000000512718543
 30
0.0
 11
-6.9999999816886174
 21
5.0000000256359272
 31
0.0
  0
LINE
  5
F0
100
AcDbEntity
  8
0
  6
CONTINUOUS
 62
               4
100
AcDbLine
 10
7.0
 20
0.0
 30
0.0
 11
7.0000000183113755
 21
4.9999999743640728
 31
0.0
  0
LINE
  5
F1
100
AcDbEntity
  8
0
  6
CONTINUOUS
 62
               4
100
AcDbLine
 10
-6.9999999963549868
 20
1.2000000256359442
 30
0.0
 11
7.0000000036450061
 21
1.1999999743640899
 31
0.0
  0
LINE
  5
F2
100
AcDbEntity
  8
0
  6
CONTINUOUS
 62
               4
100
AcDbLine
 10
-6.9999999868330747
 20
3.8000000256359385
 30
0.0
 11
7.0000000131669253
 21
3.7999999743640842
 31
0.0
  0
LINE
  5
F3
100
AcDbEntity
  8
0
  6
CONTINUOUS
 62
               4
100
AcDbLine
 10
-6.9999999824383536
 20
5.0000000256359272
 30
0.0
 11
7.0000000175616535
 21
4.9999999743640728
 31
0.0
  0
LINE
  5
F4
100
AcDbEntity
  8
0
  6
CONTINUOUS
 62
               4
100
AcDbLine
 10
-7.0000000007497221
 20
0.0000000256359272
 30
0.0
 11
7.0
 21
-0.0000000256359272
 31
0.0
  0
LINE
  5
F5
100
AcDbEntity
  8
0
  6
CONTINUOUS
 62
               4
100
AcDbLine
 10
6.9979999996337483
 20
-0.1000000256286029
 30
0.0
 11
6.9999999996337721
 21
-0.1000000256359215
 31
0.0
  0
LINE
  5
F6
100
AcDbEntity
  8
0
  6
CONTINUOUS
 62
               7
100
AcDbLine
 10
3.5000000230723316
 20
6.2999999871820478
 30
0.0
 11
3.5000000190438314
 21
5.1999999871820535
 31
0.0
  0
LINE
  5
F7
100
AcDbEntity
  8
0
  6
CONTINUOUS
 62
               7
100
AcDbLine
 10
3.5500000218637808
 20
5.9699999869989426
 30
0.0
 11
3.5500000235850493
 21
6.4399999869989415
 31
0.0
  0
ARC
  5
F8
100
AcDbEntity
  8
0
  6
CONTINUOUS
 62
               7
100
AcDbCircle
 10
3.2999984931591086
 20
5.2000015137992364
 30
0.0
 40
0.200001525890548
100
AcDbArc
 50
270.00043692060609
 51
359.99956265972747
  0
ARC
  5
F9
100
AcDbEntity
  8
0
  6
CONTINUOUS
 62
               7
100
AcDbCircle
 10
3.6999923936836439
 20
6.3000076158383251
 30
0.0
 40
0.1999923707568137
100
AcDbArc
 50
89.997814047921807
 51
180.0021855324118
  0
ARC
  5
FA
100
AcDbEntity
  8
0
  6
CONTINUOUS
 62
               7
100
AcDbCircle
 10
3.9740829943506739
 20
5.9670765214312098
 30
0.0
 40
0.4240930489930741
100
AcDbArc
 50
179.60503109961877
 51
242.76491779819096
  0
ARC
  5
FB
100
AcDbEntity
  8
0
  6
CONTINUOUS
 62
               7
100
AcDbCircle
 10
-6.5999969282796371
 20
5.4000030761150839
 30
0.0
 40
0.4000030519557204
100
AcDbArc
 50
180.00043694561882
 51
269.99956263471466
  0
CIRCLE
  5
FC
100
AcDbEntity
  8
0
  6
CONTINUOUS
 62
               7
100
AcDbCircle
 10
-4.0999999417698234
 20
15.900000015015308
 30
0.0
 40
1.075
  0
CIRCLE
  5
FD
100
AcDbEntity
  8
0
  6
CONTINUOUS
 62
               7
100
AcDbCircle
 10
-4.0999999183312639
 20
22.299999914743978
 30
0.0
 40
1.075
  0
LINE
  5
FE
100
AcDbEntity
  8
0
  6
CENTER
 62
               2
100
AcDbLine
 10
-2.4419260586713705
 20
15.90043779242319
 30
0.0
 11
-5.701000543973791
 21
15.900437804358816
 31
0.0
  0
LINE
  5
FF
100
AcDbEntity
  8
0
  6
CENTER
 62
               2
100
AcDbLine
 10
-4.099999908788547
 20
24.905677672588894
 30
0.0
 11
-4.0999999507008198
 21
13.461352530811951
 31
0.0
  0
LINE
  5
100
100
AcDbEntity
  8
0
  6
CENTER
 62
               2
100
AcDbLine
 10
-2.4419260352344168
 20
22.300000008942988
 30
0.0
 11
-5.7010005205368373
 21
22.300000020878613
 31
0.0
  0
LINE
  5
101
100
AcDbEntity
  8
0
  6
CONTINUOUS
 62
               7
100
AcDbLine
 10
-6.9999999752981807
 20
10.000000025635927
 30
0.0
 11
7.0000000247018193
 21
9.9999999743640728
 31
0.0
  0
ARC
  5
102
100
AcDbEntity
  8
0
  6
CONTINUOUS
 62
               7
100
AcDbCircle
 10
5.305000030763189
 20
8.4000186756587993
 30
0.0
 40
3.1971596874005721
100
AcDbArc
 50
241.5112709226338
 51
298.48872865769931
  0
LINE
  5
103
100
AcDbEntity
  8
0
  6
CONTINUOUS
 62
               7
100
AcDbLine
 10
7.0500000238047846
 20
6.499999974180966
 30
0.0
 11
3.7000000238047761
 21
6.4999999864495805
 31
0.0
  0
LINE
  5
104
100
AcDbEntity
  8
0
  6
CONTINUOUS
 62
               7
100
AcDbLine
 10
6.6000000183113698
 20
4.9999999758289846
 30
0.0
 11
-6.5999999816886401
 21
5.0000000241710154
 31
0.0
  0
LINE
  5
105
100
AcDbEntity
  8
0
  6
CONTINUOUS
 62
               7
100
AcDbLine
 10
-6.9999998323570338
 20
39.900000025635578
 30
0.0
 11
8.1000001596429314
 21
39.8999999703355
 31
0.0
  0
LINE
  5
106
100
AcDbEntity
  8
0
  6
CONTINUOUS
 62
               7
100
AcDbLine
 10
6.0000000816723968
 20
22.300998547411155
 30
0.0
 11
7.0000000816723968
 21
22.300998543748875
 31
0.0
  0
LINE
  5
107
100
AcDbEntity
  8
0
  6
CONTINUOUS
 62
               7
100
AcDbLine
 10
6.0000000933916766
 20
25.500998547411172
 30
0.0
 11
7.0000000933916766
 21
25.500998543748892
 31
0.0
  0
LINE
  5
108
100
AcDbEntity
  8
0
  6
CONTINUOUS
 62
               7
100
AcDbLine
 10
-6.9999998832057315
 20
28.200000025635916
 30
0.0
 11
7.0000001032761574
 21
28.19999997436409
 31
0.0
  0
LINE
  5
109
100
AcDbEntity
  8
0
  6
CONTINUOUS
 62
               7
100
AcDbLine
 10
8.1000001376692836
 20
33.899999970335557
 30
0.0
 11
8.1000001596429314
 21
39.8999999703355
 31
0.0
  0
LINE
  5
10A
100
AcDbEntity
  8
0
  6
CONTINUOUS
 62
               7
100
AcDbLine
 10
8.5480001471911322
 20
36.499999968694851
 30
0.0
 11
8.1000001471911958
 21
36.499999970335551
 31
0.0
  0
LINE
  5
10B
100
AcDbEntity
  8
0
  6
CONTINUOUS
 62
               7
100
AcDbLine
 10
8.5480001552481681
 20
38.699999968694897
 30
0.0
 11
8.1000001552481891
 21
38.699999970335597
 31
0.0
  0
LINE
  5
10C
100
AcDbEntity
  8
0
  6
CONTINUOUS
 62
               7
100
AcDbLine
 10
8.5480001471911322
 20
36.499999968694851
 30
0.0
 11
8.5480001552481681
 21
38.699999968694897
 31
0.0
  0
LINE
  5
10D
100
AcDbEntity
  8
0
  6
CONTINUOUS
 62
               7
100
AcDbLine
 10
-6.9999998403571055
 20
39.900000025635862
 30
0.0
 11
-6.9999998832057315
 21
28.200000025635916
 31
0.0
  0
LINE
  5
10E
100
AcDbEntity
  8
0
  6
CONTINUOUS
 62
               7
100
AcDbLine
 10
7.0000001596429371
 20
39.899999974364007
 30
0.0
 11
7.0000001167943182
 21
28.199999974364061
 31
0.0
  0
LINE
  5
10F
100
AcDbEntity
  8
0
  6
CONTINUOUS
 62
               7
100
AcDbLine
 10
7.0000001336590856
 20
32.804999974364065
 30
0.0
 11
8.1000001376692836
 21
33.899999970335557
 31
0.0
  0
ARC
  5
110
100
AcDbEntity
  8
0
  6
CONTINUOUS
 62
               7
100
AcDbCircle
 10
6.5999939161559098
 20
5.4000060794494118
 30
0.0
 40
0.400006103666966
100
AcDbArc
 50
270.00087405604745
 51
359.99912552428503
  0
ARC
  5
111
100
AcDbEntity
  8
0
  6
CONTINUOUS
 62
               7
100
AcDbCircle
 10
6.6235823089629804
 20
5.963189177933927
 30
0.0
 40
0.4264721008707071
100
AcDbArc
 50
298.94777649487679
 51
0.9150574417321924
  0
LINE
  5
112
100
AcDbEntity
  8
0
  6
CONTINUOUS
 62
               7
100
AcDbLine
 10
-6.9999998967238355
 20
28.200000025635944
 30
0.0
 11
-6.9999999802237056
 21
5.4000030775800099
 31
0.0
  0
LINE
  5
113
100
AcDbEntity
  8
0
  6
CONTINUOUS
 62
               7
100
AcDbLine
 10
7.0000001032761574
 20
28.19999997436409
 30
0.0
 11
7.0000000238047875
 21
6.4999999743640871
 31
0.0
  0
LINE
  5
114
100
AcDbEntity
  8
0
  6
CONTINUOUS
 62
               7
100
AcDbLine
 10
7.0000000211313278
 20
5.7699999743640831
 30
0.0
 11
7.0000000197762873
 21
5.3999999743640785
 31
0.0
  0
LINE
  5
115
100
AcDbEntity
  8
0
  6
CONTINUOUS
 62
               7
100
AcDbLine
 10
7.0500000218637808
 20
5.9699999741809791
 30
0.0
 11
7.0500000238047846
 21
6.499999974180966
 31
0.0
  0
LINE
  5
116
100
AcDbEntity
  8
0
  6
CENTER
 62
               2
100
AcDbLine
 10
0.0000002379030235
 20
64.960444473560457
 30
0.0
 11
-0.000000008968442
 21
-2.4488717557984785
 31
0.0
  0
LINE
  5
117
100
AcDbEntity
  8
0
  6
CONTINUOUS
 62
               7
100
AcDbLine
 10
6.0000000933916766
 20
25.500998547411172
 30
0.0
 11
6.0000000816723968
 21
22.300998547411155
 31
0.0
  0
LINE
  5
118
100
AcDbEntity
  8
0
  6
CENTER
 62
               2
100
AcDbLine
 10
-6.1241533781900159
 20
12.700000022428355
 30
0.0
 11
-20.405931020979054
 21
12.700000074732145
 31
0.0
  0
LINE
  5
119
100
AcDbEntity
  8
0
  6
CENTER
 62
               2
100
AcDbLine
 10
-6.1241533313128826
 20
25.500000022428353
 30
0.0
 11
-20.405930974101935
 21
25.500000074732156
 31
0.0
  0
LINE
  5
11B
100
AcDbEntity
  8
0
  6
DASHED
 62
             200
100
AcDbLine
 10
-6.9999999644759328
 20
9.7000000256359442
 30
0.0
 11
-18.499999964475933
 21
9.7000000677521143
 31
0.0
  0
LINE
  5
11C
100
AcDbEntity
  8
0
  6
DASHED
 62
             200
100
AcDbLine
 10
-6.999999942502285
 20
15.700000025635944
 30
0.0
 11
-18.499999942502285
 21
15.700000067752114
 31
0.0
  0
LINE
  5
11D
100
AcDbEntity
  8
0
  6
DASHED
 62
             200
100
AcDbLine
 10
-18.499999964475933
 20
9.7000000677521143
 30
0.0
 11
-18.499999942502285
 21
15.700000067752114
 31
0.0
  0
LINE
  5
11E
100
AcDbEntity
  8
0
  6
DASHED
 62
             200
100
AcDbLine
 10
-16.499999964475933
 20
9.7000000604275556
 30
0.0
 11
-16.499999942502285
 21
15.700000060427556
 31
0.0
  0
LINE
  5
11F
100
AcDbEntity
  8
0
  6
DASHED
 62
             200
100
AcDbLine
 10
-18.999999962644793
 20
10.20000006958324
 30
0.0
 11
-18.999999944333425
 21
15.20000006958324
 31
0.0
  0
LINE
  5
120
100
AcDbEntity
  8
0
  6
DASHED
 62
               7
100
AcDbLine
 10
-6.9999999644759328
 20
9.7000000256359442
 30
0.0
 11
-6.999999942502285
 21
15.700000025635944
 31
0.0
  0
ARC
  5
121
100
AcDbEntity
  8
0
  6
DASHED
 62
             200
100
AcDbCircle
 10
-18.499999944333425
 20
15.200000067752114
 30
0.0
 40
0.5
100
AcDbArc
 50
89.999999790166896
 51
179.9999997901667
  0
ARC
  5
122
100
AcDbEntity
  8
0
  6
DASHED
 62
             200
100
AcDbCircle
 10
-18.499999962644793
 20
10.200000067752114
 30
0.0
 40
0.5
100
AcDbArc
 50
179.99999979016664
 51
269.99999979016644
  0
ARC
  5
123
100
AcDbEntity
  8
0
  6
DASHED
 62
             200
100
AcDbCircle
 10
-18.499999915767674
 20
23.000000067752097
 30
0.0
 40
0.5
100
AcDbArc
 50
179.99999979016664
 51
269.99999979016644
  0
ARC
  5
124
100
AcDbEntity
  8
0
  6
DASHED
 62
             200
100
AcDbCircle
 10
-18.499999897456291
 20
28.000000067752097
 30
0.0
 40
0.5
100
AcDbArc
 50
89.999999790166896
 51
179.9999997901667
  0
LINE
  5
125
100
AcDbEntity
  8
0
  6
DASHED
 62
               7
100
AcDbLine
 10
-6.9999999175988137
 20
22.500000025635927
 30
0.0
 11
-6.9999998956251517
 21
28.500000025635941
 31
0.0
  0
LINE
  5
126
100
AcDbEntity
  8
0
  6
DASHED
 62
             200
100
AcDbLine
 10
-18.999999915767674
 20
23.000000069583223
 30
0.0
 11
-18.999999897456291
 21
28.000000069583251
 31
0.0
  0
LINE
  5
127
100
AcDbEntity
  8
0
  6
DASHED
 62
             200
100
AcDbLine
 10
-16.499999917598814
 20
22.500000060427539
 30
0.0
 11
-16.499999895625152
 21
28.500000060427553
 31
0.0
  0
LINE
  5
128
100
AcDbEntity
  8
0
  6
DASHED
 62
             200
100
AcDbLine
 10
-18.499999917598814
 20
22.500000067752097
 30
0.0
 11
-18.499999895625152
 21
28.500000067752097
 31
0.0
  0
LINE
  5
129
100
AcDbEntity
  8
0
  6
DASHED
 62
             200
100
AcDbLine
 10
-6.9999998956251517
 20
28.500000025635941
 30
0.0
 11
-18.499999895625152
 21
28.500000067752097
 31
0.0
  0
LINE
  5
12A
100
AcDbEntity
  8
0
  6
DASHED
 62
             200
100
AcDbLine
 10
-6.9999999175988137
 20
22.500000025635927
 30
0.0
 11
-18.499999917598814
 21
22.500000067752097
 31
0.0
  0
ENDBLK
  5
12B
100
AcDbEntity
  8
0
100
AcDbBlockEnd
  0
BLOCK
  5
12C
100
AcDbEntity
  8
0
100
AcDbBlockBegin
  2
EA10SF5-3
 70
               0
 10
0.0
 20
0.0
 30
0.0
  3
EA10SF5-3
  1

  0
LINE
  5
12D
100
AcDbEntity
  8
0
  6
CONTINUOUS
 62
               4
100
AcDbLine
 10
-7.2500183105468636
 20
66.396969688399736
 30
0.0
 11
-14.750018310546864
 21
66.396969688399736
 31
0.0
  0
LINE
  5
12E
100
AcDbEntity
  8
0
  6
CONTINUOUS
 62
               4
100
AcDbLine
 10
-14.750018310546864
 20
67.399999999999892
 30
0.0
 11
-14.750018310546864
 21
62.400000000000006
 31
0.0
  0
LINE
  5
12F
100
AcDbEntity
  8
0
  6
CONTINUOUS
 62
               4
100
AcDbLine
 10
-14.750018310546864
 20
67.399999999999892
 30
0.0
 11
-7.2500183105468636
 21
67.399999999999892
 31
0.0
  0
LINE
  5
130
100
AcDbEntity
  8
0
  6
CONTINUOUS
 62
               4
100
AcDbLine
 10
-7.2500183105468636
 20
67.399999999999892
 30
0.0
 11
-7.2500183105468636
 21
62.400000000000006
 31
0.0
  0
LINE
  5
131
100
AcDbEntity
  8
0
  6
CONTINUOUS
 62
               4
100
AcDbLine
 10
-10.000018310546864
 20
78.392929270933365
 30
0.0
 11
-9.5000183105468636
 21
78.392929270933365
 31
0.0
  0
LINE
  5
132
100
AcDbEntity
  8
0
  6
CONTINUOUS
 62
               4
100
AcDbLine
 10
-12.500018310546864
 20
78.392929270933365
 30
0.0
 11
-12.000018310546864
 21
78.392929270933365
 31
0.0
  0
LINE
  5
133
100
AcDbEntity
  8
0
  6
CONTINUOUS
 62
               4
100
AcDbLine
 10
-9.1000183105468864
 20
74.892929272933344
 30
0.0
 11
-9.1000183105468864
 21
71.399999999999892
 31
0.0
  0
LINE
  5
134
100
AcDbEntity
  8
0
  6
CONTINUOUS
 62
               4
100
AcDbLine
 10
-10.400018310546898
 20
74.892929272933344
 30
0.0
 11
-10.400018310546898
 21
71.749999999999915
 31
0.0
  0
LINE
  5
135
100
AcDbEntity
  8
0
  6
CONTINUOUS
 62
               4
100
AcDbLine
 10
-12.000018310546864
 20
78.392929270933365
 30
0.0
 11
-12.000018310546864
 21
74.892929272933344
 31
0.0
  0
LINE
  5
136
100
AcDbEntity
  8
0
  6
CONTINUOUS
 62
               4
100
AcDbLine
 10
-12.500018310546864
 20
78.392929270933365
 30
0.0
 11
-12.500018310546864
 21
74.892929272933344
 31
0.0
  0
LINE
  5
137
100
AcDbEntity
  8
0
  6
CONTINUOUS
 62
               4
100
AcDbLine
 10
-11.600018310546886
 20
74.892929272933344
 30
0.0
 11
-11.600018310546886
 21
72.069999999999908
 31
0.0
  0
LINE
  5
138
100
AcDbEntity
  8
0
  6
CONTINUOUS
 62
               4
100
AcDbLine
 10
-12.900018310546898
 20
74.892929272933344
 30
0.0
 11
-12.900018310546898
 21
72.419999999999874
 31
0.0
  0
LINE
  5
139
100
AcDbEntity
  8
0
  6
CONTINUOUS
 62
               4
100
AcDbLine
 10
-9.5000183105468636
 20
78.392929270933365
 30
0.0
 11
-9.5000183105468636
 21
74.892929272933344
 31
0.0
  0
LINE
  5
13A
100
AcDbEntity
  8
0
  6
CONTINUOUS
 62
               4
100
AcDbLine
 10
-10.000018310546864
 20
78.392929270933365
 30
0.0
 11
-10.000018310546864
 21
74.892929272933344
 31
0.0
  0
LINE
  5
13B
100
AcDbEntity
  8
0
  6
CONTINUOUS
 62
               4
100
AcDbLine
 10
-12.900018310546898
 20
74.892929272933344
 30
0.0
 11
-11.600018310546886
 21
74.892929272933344
 31
0.0
  0
LINE
  5
13C
100
AcDbEntity
  8
0
  6
CONTINUOUS
 62
             200
100
AcDbLine
 10
-14.750018310546864
 20
72.919999999999874
 30
0.0
 11
-7.2500183105468636
 21
70.909999999999883
 31
0.0
  0
LINE
  5
13D
100
AcDbEntity
  8
0
  6
CONTINUOUS
 62
               4
100
AcDbLine
 10
-10.400018310546898
 20
74.892929272933344
 30
0.0
 11
-9.1000183105468864
 21
74.892929272933344
 31
0.0
  0
LINE
  5
13E
100
AcDbEntity
  8
0
  6
CONTINUOUS
 62
             200
100
AcDbLine
 10
-14.750018310546864
 20
71.87999999999991
 30
0.0
 11
-7.2500183105468636
 21
69.869999999999862
 31
0.0
  0
LINE
  5
13F
100
AcDbEntity
  8
0
  6
CONTINUOUS
 62
               4
100
AcDbLine
 10
-11.600018310546886
 20
71.039999999999878
 30
0.0
 11
-11.600018310546886
 21
67.399999999999892
 31
0.0
  0
LINE
  5
140
100
AcDbEntity
  8
0
  6
CONTINUOUS
 62
               4
100
AcDbLine
 10
-12.900018310546898
 20
71.389999999999901
 30
0.0
 11
-12.900018310546898
 21
67.399999999999892
 31
0.0
  0
LINE
  5
141
100
AcDbEntity
  8
0
  6
CONTINUOUS
 62
               4
100
AcDbLine
 10
-10.400018310546898
 20
70.719999999999885
 30
0.0
 11
-10.400018310546898
 21
67.399999999999892
 31
0.0
  0
LINE
  5
142
100
AcDbEntity
  8
0
  6
CONTINUOUS
 62
               4
100
AcDbLine
 10
-9.1000183105468864
 20
70.369999999999862
 30
0.0
 11
-9.1000183105468864
 21
67.399999999999892
 31
0.0
  0
LINE
  5
143
100
AcDbEntity
  8
0
  6
CONTINUOUS
 62
               4
100
AcDbLine
 10
-6.0
 20
62.400000000000006
 30
0.0
 11
-16.0
 21
62.400000000000006
 31
0.0
  0
LINE
  5
144
100
AcDbEntity
  8
0
  6
CONTINUOUS
 62
               4
100
AcDbLine
 10
-6.0
 20
60.80000000000004
 30
0.0
 11
-9.1999999999999886
 21
60.80000000000004
 31
0.0
  0
LINE
  5
145
100
AcDbEntity
  8
0
  6
CONTINUOUS
 62
               4
100
AcDbLine
 10
-9.1999999999999886
 20
62.30000000000004
 30
0.0
 11
-15.5
 21
62.30000000000004
 31
0.0
  0
LINE
  5
146
100
AcDbEntity
  8
0
  6
CONTINUOUS
 62
               4
100
AcDbLine
 10
-9.1999999999999886
 20
62.30000000000004
 30
0.0
 11
-9.1999999999999886
 21
60.80000000000004
 31
0.0
  0
ARC
  5
147
100
AcDbEntity
  8
0
  6
CONTINUOUS
 62
               4
100
AcDbCircle
 10
-15.5
 20
61.80000000000004
 30
0.0
 40
0.5
100
AcDbArc
 50
89.999999999999815
 51
179.99999999999963
  0
LINE
  5
148
100
AcDbEntity
  8
0
  6
CONTINUOUS
 62
               4
100
AcDbLine
 10
-6.0
 20
61.80000000000004
 30
0.0
 11
-9.1999999999999886
 21
61.80000000000004
 31
0.0
  0
ARC
  5
149
100
AcDbEntity
  8
0
  6
CONTINUOUS
 62
               4
100
AcDbCircle
 10
-6.795904853341824
 20
61.800095146658208
 30
0.0
 40
0.5999048608870732
100
AcDbArc
 50
359.99091272245295
 51
90.009087277546172
  0
ARC
  5
14A
100
AcDbEntity
  8
0
  6
CONTINUOUS
 62
               4
100
AcDbCircle
 10
-8.5970880052370262
 20
61.801088005237006
 30
0.0
 40
0.5989129830170392
100
AcDbArc
 50
89.895914524772735
 51
180.10408547522667
  0
LINE
  5
14B
100
AcDbEntity
  8
0
  6
CONTINUOUS
 62
               4
100
AcDbLine
 10
-6.0
 20
62.400000000000006
 30
0.0
 11
-6.0
 21
39.900000000000006
 31
0.0
  0
LINE
  5
14C
100
AcDbEntity
  8
0
  6
CONTINUOUS
 62
               4
100
AcDbLine
 10
-16.0
 20
62.400000000000006
 30
0.0
 11
-16.0
 21
39.900000000000006
 31
0.0
  0
LINE
  5
14D
100
AcDbEntity
  8
0
  6
DASHED
 62
             200
100
AcDbLine
 10
-20.25
 20
0.0
 30
0.0
 11
-20.25
 21
1.2000000000000171
 31
0.0
  0
LINE
  5
14E
100
AcDbEntity
  8
0
  6
DASHED
 62
             200
100
AcDbLine
 10
-23.75
 20
0.0
 30
0.0
 11
-23.75
 21
1.2000000000000171
 31
0.0
  0
LINE
  5
14F
100
AcDbEntity
  8
0
  6
DASHED
 62
             200
100
AcDbLine
 10
1.75
 20
0.0
 30
0.0
 11
1.75
 21
1.2000000000000171
 31
0.0
  0
LINE
  5
150
100
AcDbEntity
  8
0
  6
DASHED
 62
             200
100
AcDbLine
 10
-1.75
 20
0.0
 30
0.0
 11
-1.75
 21
1.2000000000000171
 31
0.0
  0
LINE
  5
151
100
AcDbEntity
  8
0
  6
CONTINUOUS
 62
               4
100
AcDbLine
 10
-5.6999999999999886
 20
5.0
 30
0.0
 11
-16.299999999999955
 21
5.0
 31
0.0
  0
LINE
  5
152
100
AcDbEntity
  8
0
  6
CONTINUOUS
 62
               4
100
AcDbLine
 10
-22.0
 20
0.0
 30
0.0
 11
-22.0
 21
1.2000000000000171
 31
0.0
  0
LINE
  5
153
100
AcDbEntity
  8
0
  6
CONTINUOUS
 62
               4
100
AcDbLine
 10
0.0
 20
0.0
 30
0.0
 11
0.0
 21
1.2000000000000171
 31
0.0
  0
LINE
  5
154
100
AcDbEntity
  8
0
  6
CONTINUOUS
 62
               4
100
AcDbLine
 10
-5.5
 20
1.4000000000000057
 30
0.0
 11
-5.5
 21
3.5999999999999943
 31
0.0
  0
LINE
  5
155
100
AcDbEntity
  8
0
  6
CONTINUOUS
 62
               4
100
AcDbLine
 10
-4.3000000000000114
 20
1.4000000000000057
 30
0.0
 11
-4.3000000000000114
 21
3.5999999999999943
 31
0.0
  0
ARC
  5
156
100
AcDbEntity
  8
0
  6
CONTINUOUS
 62
               4
100
AcDbCircle
 10
-4.1008966664051627
 20
1.3991033335948089
 30
0.0
 40
1.3991036209254675
100
AcDbArc
 50
179.96327991479848
 51
270.03672008520033
  0
ARC
  5
157
100
AcDbEntity
  8
0
  6
CONTINUOUS
 62
               4
100
AcDbCircle
 10
-4.1008966599537757
 20
1.3991033400461959
 30
0.0
 40
0.1991053590856348
100
AcDbArc
 50
179.74197075907335
 51
270.25802924092562
  0
LINE
  5
158
100
AcDbEntity
  8
0
  6
CONTINUOUS
 62
               4
100
AcDbLine
 10
-4.0999999999999659
 20
0.0
 30
0.0
 11
3.0
 21
0.0
 31
0.0
  0
LINE
  5
159
100
AcDbEntity
  8
0
  6
CONTINUOUS
 62
               4
100
AcDbLine
 10
-4.0999999999999659
 20
1.2000000000000171
 30
0.0
 11
3.0
 21
1.2000000000000171
 31
0.0
  0
LINE
  5
15A
100
AcDbEntity
  8
0
  6
CONTINUOUS
 62
               4
100
AcDbLine
 10
3.0
 20
0.0
 30
0.0
 11
3.0
 21
1.2000000000000171
 31
0.0
  0
ARC
  5
15B
100
AcDbEntity
  8
0
  6
CONTINUOUS
 62
               4
100
AcDbCircle
 10
-6.5847799240333984
 20
3.2665835360522806
 30
0.0
 40
0.6147802009733803
100
AcDbArc
 50
286.12836199114588
 51
359.94561607879228
  0
ARC
  5
15C
100
AcDbEntity
  8
0
  6
CONTINUOUS
 62
               4
100
AcDbCircle
 10
-8.8161606354035484
 20
3.2652966087315747
 30
0.0
 40
0.6138397676001843
100
AcDbArc
 50
179.93434547259068
 51
253.74327317895529
  0
ARC
  5
15D
100
AcDbEntity
  8
0
  6
CONTINUOUS
 62
               4
100
AcDbCircle
 10
-7.700999999999965
 20
7.1068760988772226
 30
0.0
 40
4.6140039015589682
100
AcDbArc
 50
253.80344035262561
 51
286.19655964737319
  0
ARC
  5
15E
100
AcDbEntity
  8
0
  6
CONTINUOUS
 62
               4
100
AcDbCircle
 10
-13.184777973164046
 20
3.2665820679404476
 30
0.0
 40
0.6147782487131708
100
AcDbArc
 50
286.12822533946951
 51
359.94575273046883
  0
ARC
  5
15F
100
AcDbEntity
  8
0
  6
CONTINUOUS
 62
               4
100
AcDbCircle
 10
-15.416158681253251
 20
3.265298072688239
 30
0.0
 40
0.613841720073419
100
AcDbArc
 50
179.93448232673219
 51
253.74313632481389
  0
ARC
  5
160
100
AcDbEntity
  8
0
  6
CONTINUOUS
 62
               4
100
AcDbCircle
 10
-14.300999999999988
 20
7.1068760989089697
 30
0.0
 40
4.6140039015894576
100
AcDbArc
 50
253.80344035273558
 51
286.19655964726314
  0
ARC
  5
161
100
AcDbEntity
  8
0
  6
CONTINUOUS
 62
               4
100
AcDbCircle
 10
-17.900056684609865
 20
1.4000566846098934
 30
0.0
 40
1.4000566857574084
100
AcDbArc
 50
270.00231975529556
 51
359.99768024470291
  0
ARC
  5
162
100
AcDbEntity
  8
0
  6
CONTINUOUS
 62
               4
100
AcDbCircle
 10
-16.30006664106736
 20
3.6000666410673716
 30
0.0
 40
0.1999333700389205
100
AcDbArc
 50
89.980902377767208
 51
180.01909762223218
  0
ARC
  5
163
100
AcDbEntity
  8
0
  6
CONTINUOUS
 62
               4
100
AcDbCircle
 10
-5.7008844716972931
 20
3.5991155283026899
 30
0.0
 40
0.2008864188024893
100
AcDbArc
 50
0.2522652321918488
 51
89.747734767807131
  0
ARC
  5
164
100
AcDbEntity
  8
0
  6
CONTINUOUS
 62
               4
100
AcDbCircle
 10
-17.900058413382624
 20
1.4000584133826521
 30
0.0
 40
0.2000584219104543
100
AcDbArc
 50
270.01672931490481
 51
359.98327068509366
  0
LINE
  5
165
100
AcDbEntity
  8
0
  6
CONTINUOUS
 62
               4
100
AcDbLine
 10
-5.9699999999999704
 20
3.2660000000000196
 30
0.0
 11
-5.9699999999999704
 21
3.8000000000000114
 31
0.0
  0
LINE
  5
166
100
AcDbEntity
  8
0
  6
CONTINUOUS
 62
               4
100
AcDbLine
 10
-9.4300000000000068
 20
3.2660000000000196
 30
0.0
 11
-9.4300000000000068
 21
3.8000000000000114
 31
0.0
  0
LINE
  5
167
100
AcDbEntity
  8
0
  6
CONTINUOUS
 62
               4
100
AcDbLine
 10
-12.569999999999993
 20
3.2660000000000196
 30
0.0
 11
-12.569999999999993
 21
3.8000000000000114
 31
0.0
  0
LINE
  5
168
100
AcDbEntity
  8
0
  6
CONTINUOUS
 62
               4
100
AcDbLine
 10
-16.029999999999973
 20
3.2660000000000196
 30
0.0
 11
-16.029999999999973
 21
3.8000000000000114
 31
0.0
  0
LINE
  5
169
100
AcDbEntity
  8
0
  6
CONTINUOUS
 62
               4
100
AcDbLine
 10
-17.699999999999989
 20
1.4000000000000057
 30
0.0
 11
-17.699999999999989
 21
3.5999999999999943
 31
0.0
  0
LINE
  5
16A
100
AcDbEntity
  8
0
  6
CONTINUOUS
 62
               4
100
AcDbLine
 10
-16.5
 20
1.4000000000000057
 30
0.0
 11
-16.5
 21
3.5999999999999943
 31
0.0
  0
LINE
  5
16B
100
AcDbEntity
  8
0
  6
CONTINUOUS
 62
               4
100
AcDbLine
 10
-16.299999999999955
 20
3.8000000000000114
 30
0.0
 11
-5.6999999999999886
 21
3.8000000000000114
 31
0.0
  0
LINE
  5
16C
100
AcDbEntity
  8
0
  6
CONTINUOUS
 62
               4
100
AcDbLine
 10
-25.0
 20
0.0
 30
0.0
 11
-25.0
 21
1.2000000000000171
 31
0.0
  0
LINE
  5
16D
100
AcDbEntity
  8
0
  6
CONTINUOUS
 62
               4
100
AcDbLine
 10
-25.0
 20
0.0
 30
0.0
 11
-17.899999999999977
 21
0.0
 31
0.0
  0
LINE
  5
16E
100
AcDbEntity
  8
0
  6
CONTINUOUS
 62
               4
100
AcDbLine
 10
-25.0
 20
1.2000000000000171
 30
0.0
 11
-17.899999999999977
 21
1.2000000000000171
 31
0.0
  0
LINE
  5
16F
100
AcDbEntity
  8
0
  6
CENTER
 62
             200
100
AcDbLine
 10
-22.0
 20
-2.4438717557984688
 30
0.0
 11
-22.0
 21
3.8000000000000114
 31
0.0
  0
LINE
  5
170
100
AcDbEntity
  8
0
  6
CENTER
 62
             200
100
AcDbLine
 10
0.0
 20
-2.4438717557984688
 30
0.0
 11
0.0
 21
3.8000000000000114
 31
0.0
  0
ARC
  5
171
100
AcDbEntity
  8
0
  6
CONTINUOUS
 62
               4
100
AcDbCircle
 10
-16.300068323168489
 20
3.6000683231685287
 30
0.0
 40
1.3999316784987346
100
AcDbArc
 50
89.997203699822904
 51
180.00279630017653
  0
ARC
  5
172
100
AcDbEntity
  8
0
  6
CONTINUOUS
 62
               4
100
AcDbCircle
 10
-5.7008844620561376
 20
3.5991155379438453
 30
0.0
 40
1.4008847412629901
100
AcDbArc
 50
0.0361742439122946
 51
89.963825756087459
  0
LINE
  5
173
100
AcDbEntity
  8
0
  6
CONTINUOUS
 62
               7
100
AcDbLine
 10
-16.0
 20
39.900000000000006
 30
0.0
 11
-16.0
 21
6.5
 31
0.0
  0
LINE
  5
174
100
AcDbEntity
  8
0
  6
CONTINUOUS
 62
               7
100
AcDbLine
 10
-6.0
 20
39.900000000000006
 30
0.0
 11
-6.0
 21
5.4000000000000057
 31
0.0
  0
LINE
  5
175
100
AcDbEntity
  8
0
  6
CENTER
 62
               2
100
AcDbLine
 10
-13.0
 20
32.000000000000014
 30
0.0
 11
-9.0
 21
32.000000000000014
 31
0.0
  0
LINE
  5
176
100
AcDbEntity
  8
0
  6
CONTINUOUS
 62
               7
100
AcDbLine
 10
-15.599999999999994
 20
5.0
 30
0.0
 11
-6.3999999999999773
 21
5.0
 31
0.0
  0
LINE
  5
177
100
AcDbEntity
  8
0
  6
CONTINUOUS
 62
               7
100
AcDbLine
 10
-16.049999999999983
 20
6.5
 30
0.0
 11
-12.699999999999989
 21
6.5
 31
0.0
  0
LINE
  5
178
100
AcDbEntity
  8
0
  6
CONTINUOUS
 62
               7
100
AcDbLine
 10
-12.5
 20
6.3000000000000114
 30
0.0
 11
-12.5
 21
5.2000000000000171
 31
0.0
  0
LINE
  5
179
100
AcDbEntity
  8
0
  6
CONTINUOUS
 62
               7
100
AcDbLine
 10
-12.549999999999983
 20
5.9699999999999989
 30
0.0
 11
-12.549999999999983
 21
6.4399999999999977
 31
0.0
  0
LINE
  5
17A
100
AcDbEntity
  8
0
  6
CONTINUOUS
 62
               7
100
AcDbLine
 10
-16.049999999999983
 20
5.9699999999999989
 30
0.0
 11
-16.049999999999983
 21
6.5
 31
0.0
  0
LINE
  5
17B
100
AcDbEntity
  8
0
  6
CONTINUOUS
 62
               7
100
AcDbLine
 10
-16.0
 20
5.7700000000000102
 30
0.0
 11
-16.0
 21
5.4000000000000057
 31
0.0
  0
ARC
  5
17C
100
AcDbEntity
  8
0
  6
CONTINUOUS
 62
               7
100
AcDbCircle
 10
-6.4000289919349598
 20
5.4000289919349598
 30
0.0
 40
0.4000289929855506
100
AcDbArc
 50
270.00415248780246
 51
359.9958475121951
  0
ARC
  5
17D
100
AcDbEntity
  8
0
  6
CONTINUOUS
 62
               7
100
AcDbCircle
 10
-14.294999999999987
 20
8.4000340043866402
 30
0.0
 40
3.1971731429200378
100
AcDbArc
 50
241.51140199559862
 51
298.48859800440022
  0
ARC
  5
17E
100
AcDbEntity
  8
0
  6
CONTINUOUS
 62
               7
100
AcDbCircle
 10
-12.300016783684242
 20
5.1999832163157436
 30
0.0
 40
0.1999832170200287
100
AcDbArc
 50
179.99519142511818
 51
270.0048085748798
  0
ARC
  5
17F
100
AcDbEntity
  8
0
  6
CONTINUOUS
 62
               7
100
AcDbCircle
 10
-12.700010682136053
 20
6.2999893178639468
 30
0.0
 40
0.2000106824213093
100
AcDbArc
 50
0.0030600431187336
 51
89.996939956878265
  0
ARC
  5
180
100
AcDbEntity
  8
0
  6
CONTINUOUS
 62
               7
100
AcDbCircle
 10
-12.976445156839645
 20
5.963205090801921
 30
0.0
 40
0.4264992879044646
100
AcDbArc
 50
298.94996978217108
 51
0.9128645741037794
  0
ARC
  5
181
100
AcDbEntity
  8
0
  6
CONTINUOUS
 62
               7
100
AcDbCircle
 10
-15.625943992559655
 20
5.9670602150296759
 30
0.0
 40
0.4240661974054504
100
AcDbArc
 50
179.60280111535411
 51
242.76714820211964
  0
ARC
  5
182
100
AcDbEntity
  8
0
  6
CONTINUOUS
 62
               7
100
AcDbCircle
 10
-15.600012206088252
 20
5.3999877939117198
 30
0.0
 40
0.3999877940979543
100
AcDbArc
 50
179.99825155328804
 51
270.00174844670897
  0
LINE
  5
183
100
AcDbEntity
  8
0
  6
CENTER
 62
               2
100
AcDbLine
 10
-13.307660424194353
 20
25.500000000000014
 30
0.0
 11
-8.6923395758056472
 21
25.500000000000014
 31
0.0
  0
LINE
  5
184
100
AcDbEntity
  8
0
  6
CONTINUOUS
 62
               7
100
AcDbLine
 10
-6.0
 20
10.0
 30
0.0
 11
-15.999999999999972
 21
10.0
 31
0.0
  0
LINE
  5
185
100
AcDbEntity
  8
0
  6
CONTINUOUS
 62
               7
100
AcDbLine
 10
-6.0
 20
28.200000000000031
 30
0.0
 11
-15.999999999999972
 21
28.200000000000031
 31
0.0
  0
CIRCLE
  5
186
100
AcDbEntity
  8
0
  6
CONTINUOUS
 62
               7
100
AcDbCircle
 10
-7.2999999999999829
 20
23.900000000000034
 30
0.0
 40
1.0
  0
LINE
  5
187
100
AcDbEntity
  8
0
  6
CENTER
 62
               2
100
AcDbLine
 10
-7.2999999999999829
 20
22.241795658711851
 30
0.0
 11
-7.2999999999999829
 21
25.550745803814308
 31
0.0
  0
LINE
  5
188
100
AcDbEntity
  8
0
  6
CENTER
 62
               2
100
AcDbLine
 10
-5.7858293132156291
 20
23.900000000000034
 30
0.0
 11
-8.7477988131531674
 21
23.900000000000034
 31
0.0
  0
CIRCLE
  5
189
100
AcDbEntity
  8
0
  6
CONTINUOUS
 62
               7
100
AcDbCircle
 10
-14.699999999999989
 20
14.300000000000011
 30
0.0
 40
1.0
  0
LINE
  5
18A
100
AcDbEntity
  8
0
  6
CENTER
 62
               2
100
AcDbLine
 10
-13.109583850853738
 20
14.300000000000011
 30
0.0
 11
-16.159835173536891
 21
14.300000000000011
 31
0.0
  0
LINE
  5
18B
100
AcDbEntity
  8
0
  6
CENTER
 62
               2
100
AcDbLine
 10
-14.699999999999989
 20
12.799538601437746
 30
0.0
 11
-14.699999999999989
 21
15.781575310886097
 31
0.0
  0
CIRCLE
  5
18C
100
AcDbEntity
  8
0
  6
CONTINUOUS
 62
               2
100
AcDbCircle
 10
-11.0
 20
19.100000000000023
 30
0.0
 40
1.5
  0
CIRCLE
  5
18D
100
AcDbEntity
  8
0
  6
CONTINUOUS
 62
               7
100
AcDbCircle
 10
-11.0
 20
19.100000000000023
 30
0.0
 40
1.25
  0
CIRCLE
  5
18E
100
AcDbEntity
  8
0
  6
CONTINUOUS
 62
               7
100
AcDbCircle
 10
-11.0
 20
25.500000000000014
 30
0.0
 40
1.25
  0
CIRCLE
  5
18F
100
AcDbEntity
  8
0
  6
CONTINUOUS
 62
               7
100
AcDbCircle
 10
-11.0
 20
12.700000000000017
 30
0.0
 40
1.25
  0
CIRCLE
  5
190
100
AcDbEntity
  8
0
  6
CONTINUOUS
 62
               2
100
AcDbCircle
 10
-11.0
 20
25.500000000000014
 30
0.0
 40
1.5
  0
CIRCLE
  5
191
100
AcDbEntity
  8
0
  6
CONTINUOUS
 62
               2
100
AcDbCircle
 10
-11.0
 20
12.700000000000017
 30
0.0
 40
1.5
  0
LINE
  5
192
100
AcDbEntity
  8
0
  6
CENTER
 62
               2
100
AcDbLine
 10
-8.6923395758056472
 20
12.700000000000017
 30
0.0
 11
-13.307660424194353
 21
12.700000000000017
 31
0.0
  0
LINE
  5
193
100
AcDbEntity
  8
0
  6
CENTER
 62
               2
100
AcDbLine
 10
-8.6923395758056472
 20
19.100000000000023
 30
0.0
 11
-13.307660424194353
 21
19.100000000000023
 31
0.0
  0
LINE
  5
194
100
AcDbEntity
  8
0
  6
CENTER
 62
               2
100
AcDbLine
 10
-11.0
 20
65.643270813119187
 30
0.0
 11
-11.0
 21
2.7920000000000158
 31
0.0
  0
CIRCLE
  5
195
100
AcDbEntity
  8
0
  6
CONTINUOUS
 62
               7
100
AcDbCircle
 10
-11.000018310546864
 20
32.000018310546878
 30
0.0
 40
0.8999999761581421
  0
LINE
  5
196
100
AcDbEntity
  8
0
  6
CONTINUOUS
 62
               7
100
AcDbLine
 10
-16.0
 20
39.900000000000006
 30
0.0
 11
-6.0
 21
39.900000000000006
 31
0.0
  0
ENDBLK
  5
197
100
AcDbEntity
  8
0
100
AcDbBlockEnd
  0
BLOCK
  5
198
100
AcDbEntity
  8
0
100
AcDbBlockBegin
  2
EA10SF5-4
 70
               0
 10
0.0
 20
0.0
 30
0.0
  3
EA10SF5-4
  1

  0
LINE
  5
199
100
AcDbEntity
  8
0
  6
CENTER
 62
             200
100
AcDbLine
 10
1.75
 20
0.0
 30
0.0
 11
1.75
 21
1.2000000000000171
 31
0.0
  0
LINE
  5
19A
100
AcDbEntity
  8
0
  6
CENTER
 62
             200
100
AcDbLine
 10
-1.75
 20
0.0
 30
0.0
 11
-1.75
 21
1.2000000000000171
 31
0.0
  0
LINE
  5
19B
100
AcDbEntity
  8
0
  6
CENTER
 62
             200
100
AcDbLine
 10
23.75
 20
0.0
 30
0.0
 11
23.75
 21
1.2000000000000171
 31
0.0
  0
LINE
  5
19C
100
AcDbEntity
  8
0
  6
CENTER
 62
             200
100
AcDbLine
 10
20.25
 20
0.0
 30
0.0
 11
20.25
 21
1.2000000000000171
 31
0.0
  0
LINE
  5
19D
100
AcDbEntity
  8
0
  6
CENTER
 62
             200
100
AcDbLine
 10
22.0
 20
-2.4438717557984688
 30
0.0
 11
22.0
 21
3.8000000000000114
 31
0.0
  0
LINE
  5
19E
100
AcDbEntity
  8
0
  6
CENTER
 62
             200
100
AcDbLine
 10
0.0
 20
-2.4438717557984688
 30
0.0
 11
0.0
 21
3.8000000000000114
 31
0.0
  0
CIRCLE
  5
19F
100
AcDbEntity
  8
0
  6
CONTINUOUS
 62
               7
100
AcDbCircle
 10
7.3000000000000114
 20
23.900000000000006
 30
0.0
 40
1.0
  0
ARC
  5
1A0
100
AcDbEntity
  8
0
  6
CONTINUOUS
 62
               7
100
AcDbCircle
 10
7.3000000000000114
 20
23.900000000000006
 30
0.0
 40
1.6499999999999999
100
AcDbArc
 50
269.99999999999937
 51
89.999999999999801
  0
LINE
  5
1A1
100
AcDbEntity
  8
0
  6
CONTINUOUS
 62
               7
100
AcDbLine
 10
7.3000000000000114
 20
25.549999999999997
 30
0.0
 11
6.0
 21
25.549999999999997
 31
0.0
  0
LINE
  5
1A2
100
AcDbEntity
  8
0
  6
CONTINUOUS
 62
               7
100
AcDbLine
 10
7.3000000000000114
 20
22.25
 30
0.0
 11
6.0
 21
22.25
 31
0.0
  0
LINE
  5
1A3
100
AcDbEntity
  8
0
  6
CENTER
 62
               2
100
AcDbLine
 10
15.178166284015219
 20
22.300000000000011
 30
0.0
 11
10.821833715984781
 21
22.300000000000011
 31
0.0
  0
ARC
  5
1A4
100
AcDbEntity
  8
0
  6
CONTINUOUS
 62
               7
100
AcDbCircle
 10
6.5905539681090772
 20
6.2682512686530458
 30
0.0
 40
0.6105564724372722
100
AcDbArc
 50
179.83589550320582
 51
253.77907243150949
  0
LINE
  5
1A5
100
AcDbEntity
  8
0
  6
CONTINUOUS
 62
               7
100
AcDbLine
 10
15.800000000000011
 20
5.0
 30
0.0
 11
6.1999999999999886
 21
5.0
 31
0.0
  0
LINE
  5
1A6
100
AcDbEntity
  8
0
  6
CONTINUOUS
 62
               7
100
AcDbLine
 10
5.9800000000000182
 20
6.8000000000000114
 30
0.0
 11
9.5
 21
6.8000000000000114
 31
0.0
  0
ARC
  5
1A7
100
AcDbEntity
  8
0
  6
CONTINUOUS
 62
               7
100
AcDbCircle
 10
6.2991048631411104
 20
7.0991048631411218
 30
0.0
 40
0.2991062025847394
100
AcDbArc
 50
179.82853033398985
 51
270.17146966600922
  0
ARC
  5
1A8
100
AcDbEntity
  8
0
  6
CONTINUOUS
 62
               7
100
AcDbCircle
 10
6.1999999999999886
 20
5.1999999999999886
 30
0.0
 40
0.2
100
AcDbArc
 50
179.99999999999963
 51
269.99999999999937
  0
LINE
  5
1A9
100
AcDbEntity
  8
0
  6
CONTINUOUS
 62
               7
100
AcDbLine
 10
9.5
 20
5.0
 30
0.0
 11
9.5
 21
6.8000000000000114
 31
0.0
  0
ARC
  5
1AA
100
AcDbEntity
  8
0
  6
CONTINUOUS
 62
               7
100
AcDbCircle
 10
7.6999999999999886
 20
10.087421236733974
 30
0.0
 40
4.5876068132596712
100
AcDbArc
 50
253.79871892415684
 51
286.20128107584191
  0
ARC
  5
1AB
100
AcDbEntity
  8
0
  6
CONTINUOUS
 62
               7
100
AcDbCircle
 10
8.8082280041660965
 20
6.2691627179709997
 30
0.0
 40
0.6117725687931934
100
AcDbArc
 50
286.30661609184898
 51
0.0784159734340139
  0
LINE
  5
1AC
100
AcDbEntity
  8
0
  6
CONTINUOUS
 62
               7
100
AcDbLine
 10
9.4200000000000159
 20
6.2700000000000387
 30
0.0
 11
9.4200000000000159
 21
6.8000000000000114
 31
0.0
  0
LINE
  5
1AD
100
AcDbEntity
  8
0
  6
CONTINUOUS
 62
               7
100
AcDbLine
 10
6.0
 20
5.1999999999999886
 30
0.0
 11
6.0
 21
6.1132505693459507
 31
0.0
  0
LINE
  5
1AE
100
AcDbEntity
  8
0
  6
CONTINUOUS
 62
               7
100
AcDbLine
 10
5.9800000000000182
 20
6.2700000000000387
 30
0.0
 11
5.9800000000000182
 21
6.8000000000000114
 31
0.0
  0
ARC
  5
1AF
100
AcDbEntity
  8
0
  6
CONTINUOUS
 62
               7
100
AcDbCircle
 10
15.800000000000011
 20
5.1999999999999886
 30
0.0
 40
0.2
100
AcDbArc
 50
269.99999999999937
 51
0.0
  0
LINE
  5
1B0
100
AcDbEntity
  8
0
  6
CONTINUOUS
 62
               7
100
AcDbLine
 10
16.0
 20
10.0
 30
0.0
 11
6.0
 21
10.0
 31
0.0
  0
LINE
  5
1B1
100
AcDbEntity
  8
0
  6
CENTER
 62
               2
100
AcDbLine
 10
14.700000000000017
 20
12.121833715984792
 30
0.0
 11
14.700000000000017
 21
16.478166284015231
 31
0.0
  0
CIRCLE
  5
1B2
100
AcDbEntity
  8
0
  6
CONTINUOUS
 62
               7
100
AcDbCircle
 10
14.700000000000017
 20
14.300000000000011
 30
0.0
 40
1.0
  0
LINE
  5
1B3
100
AcDbEntity
  8
0
  6
CENTER
 62
               2
100
AcDbLine
 10
11.178166284015219
 20
15.900000000000006
 30
0.0
 11
6.8218337159847806
 21
15.900000000000006
 31
0.0
  0
CIRCLE
  5
1B4
100
AcDbEntity
  8
0
  6
CONTINUOUS
 62
               2
100
AcDbCircle
 10
9.0026882635082472
 20
15.892204297557385
 30
0.0
 40
1.5
  0
CIRCLE
  5
1B5
100
AcDbEntity
  8
0
  6
CONTINUOUS
 62
               7
100
AcDbCircle
 10
9.0026882635082472
 20
15.892204297557385
 30
0.0
 40
1.25
  0
LINE
  5
1B6
100
AcDbEntity
  8
0
  6
CENTER
 62
               2
100
AcDbLine
 10
9.0
 20
13.721833715984786
 30
0.0
 11
9.0
 21
18.078166284015225
 31
0.0
  0
ARC
  5
1B7
100
AcDbEntity
  8
0
  6
CONTINUOUS
 62
               7
100
AcDbCircle
 10
14.700000000000017
 20
14.300000000000011
 30
0.0
 40
1.6499999999999999
100
AcDbArc
 50
89.999999999999815
 51
269.99999999999937
  0
LINE
  5
1B8
100
AcDbEntity
  8
0
  6
CONTINUOUS
 62
               7
100
AcDbLine
 10
14.700000000000017
 20
15.949999999999989
 30
0.0
 11
16.0
 21
15.949999999999989
 31
0.0
  0
LINE
  5
1B9
100
AcDbEntity
  8
0
  6
CONTINUOUS
 62
               7
100
AcDbLine
 10
14.700000000000017
 20
12.650000000000006
 30
0.0
 11
16.0
 21
12.650000000000006
 31
0.0
  0
LINE
  5
1BA
100
AcDbEntity
  8
0
  6
CENTER
 62
               2
100
AcDbLine
 10
7.3000000000000114
 20
21.721833715984758
 30
0.0
 11
7.3000000000000114
 21
26.078166284015197
 31
0.0
  0
LINE
  5
1BB
100
AcDbEntity
  8
0
  6
CENTER
 62
               2
100
AcDbLine
 10
13.0
 20
20.121833715984792
 30
0.0
 11
13.0
 21
24.478166284015231
 31
0.0
  0
CIRCLE
  5
1BC
100
AcDbEntity
  8
0
  6
CONTINUOUS
 62
               7
100
AcDbCircle
 10
13.0
 20
22.300000000000011
 30
0.0
 40
1.25
  0
CIRCLE
  5
1BD
100
AcDbEntity
  8
0
  6
CONTINUOUS
 62
               2
100
AcDbCircle
 10
13.0
 20
22.300000000000011
 30
0.0
 40
1.5
  0
LINE
  5
1BE
100
AcDbEntity
  8
0
  6
CENTER
 62
               2
100
AcDbLine
 10
11.0
 20
2.2438875818592123
 30
0.0
 11
11.0
 21
63.29800000000003
 31
0.0
  0
LINE
  5
1BF
100
AcDbEntity
  8
0
  6
CONTINUOUS
 62
               7
100
AcDbLine
 10
16.0
 20
5.1999999999999886
 30
0.0
 11
16.0
 21
28.200000000000003
 31
0.0
  0
LINE
  5
1C0
100
AcDbEntity
  8
0
  6
CONTINUOUS
 62
               7
100
AcDbLine
 10
6.0
 20
6.8000000000000114
 30
0.0
 11
6.0
 21
28.200000000000003
 31
0.0
  0
ARC
  5
1C1
100
AcDbEntity
  8
0
  6
CONTINUOUS
 62
               4
100
AcDbCircle
 10
15.268802575510279
 20
42.604188752838269
 30
0.0
 40
0.5011988548874781
100
AcDbArc
 50
270.1368866551544
 51
359.86311334484418
  0
ARC
  5
1C2
100
AcDbEntity
  8
0
  6
CONTINUOUS
 62
               4
100
AcDbCircle
 10
6.7311974244897215
 20
42.604188752838269
 30
0.0
 40
0.5011988548874781
100
AcDbArc
 50
180.13688665515463
 51
269.86311334484435
  0
LINE
  5
1C3
100
AcDbEntity
  8
0
  6
CONTINUOUS
 62
               4
100
AcDbLine
 10
6.7300000000000182
 20
42.102991328348566
 30
0.0
 11
15.269999999999982
 21
42.102991328348566
 31
0.0
  0
LINE
  5
1C4
100
AcDbEntity
  8
0
  6
CONTINUOUS
 62
               4
100
AcDbLine
 10
6.5
 20
59.402000000000029
 30
0.0
 11
8.25
 21
59.402000000000029
 31
0.0
  0
ARC
  5
1C5
100
AcDbEntity
  8
0
  6
CONTINUOUS
 62
               4
100
AcDbCircle
 10
6.7300009155542853
 20
58.901999084445762
 30
0.0
 40
0.5000009155550945
100
AcDbArc
 50
90.000104914596918
 51
179.99989508540253
  0
ARC
  5
1C6
100
AcDbEntity
  8
0
  6
CONTINUOUS
 62
               4
100
AcDbCircle
 10
6.5000106811733076
 20
58.901989318826722
 30
0.0
 40
0.5000106812873828
100
AcDbArc
 50
90.001223946153175
 51
179.9987760538454
  0
LINE
  5
1C7
100
AcDbEntity
  8
0
  6
PHANTOM
 62
             200
100
AcDbLine
 10
9.5
 20
47.402000000000001
 30
0.0
 11
9.5
 21
45.402000000000001
 31
0.0
  0
LINE
  5
1C8
100
AcDbEntity
  8
0
  6
PHANTOM
 62
             200
100
AcDbLine
 10
12.5
 20
47.402000000000001
 30
0.0
 11
12.5
 21
45.402000000000001
 31
0.0
  0
LINE
  5
1C9
100
AcDbEntity
  8
0
  6
PHANTOM
 62
             200
100
AcDbLine
 10
9.5
 20
45.402000000000001
 30
0.0
 11
12.5
 21
45.402000000000001
 31
0.0
  0
LINE
  5
1CA
100
AcDbEntity
  8
0
  6
PHANTOM
 62
             200
100
AcDbLine
 10
9.5
 20
47.402000000000001
 30
0.0
 11
12.5
 21
47.402000000000001
 31
0.0
  0
LINE
  5
1CB
100
AcDbEntity
  8
0
  6
CONTINUOUS
 62
               4
100
AcDbLine
 10
8.8000000000000114
 20
57.952000000000012
 30
0.0
 11
10.699999999999989
 21
57.952000000000012
 31
0.0
  0
LINE
  5
1CC
100
AcDbEntity
  8
0
  6
CONTINUOUS
 62
               4
100
AcDbLine
 10
8.8000000000000114
 20
58.152000000000029
 30
0.0
 11
10.699999999999989
 21
58.152000000000029
 31
0.0
  0
LINE
  5
1CD
100
AcDbEntity
  8
0
  6
CONTINUOUS
 62
               4
100
AcDbLine
 10
10.25
 20
56.052000000000007
 30
0.0
 11
10.25
 21
55.752000000000024
 31
0.0
  0
LINE
  5
1CE
100
AcDbEntity
  8
0
  6
CONTINUOUS
 62
               4
100
AcDbLine
 10
10.699999999999989
 20
58.152000000000029
 30
0.0
 11
10.699999999999989
 21
56.052000000000007
 31
0.0
  0
LINE
  5
1CF
100
AcDbEntity
  8
0
  6
CONTINUOUS
 62
               4
100
AcDbLine
 10
9.75
 20
54.602000000000018
 30
0.0
 11
9.75
 21
55.602000000000018
 31
0.0
  0
LINE
  5
1D0
100
AcDbEntity
  8
0
  6
CONTINUOUS
 62
               4
100
AcDbLine
 10
8.1500000000000341
 20
59.402000000000029
 30
0.0
 11
8.1500000000000341
 21
57.902000000000029
 31
0.0
  0
LINE
  5
1D1
100
AcDbEntity
  8
0
  6
CONTINUOUS
 62
               4
100
AcDbLine
 10
8.25
 20
58.462000000000032
 30
0.0
 11
8.5799999999999841
 21
58.802000000000007
 31
0.0
  0
LINE
  5
1D2
100
AcDbEntity
  8
0
  6
CONTINUOUS
 62
               4
100
AcDbLine
 10
7.1500000000000341
 20
57.902000000000029
 30
0.0
 11
8.1500000000000341
 21
57.902000000000029
 31
0.0
  0
LINE
  5
1D3
100
AcDbEntity
  8
0
  6
CONTINUOUS
 62
               4
100
AcDbLine
 10
7.1500000000000341
 20
57.902000000000029
 30
0.0
 11
7.1500000000000341
 21
55.902000000000029
 31
0.0
  0
LINE
  5
1D4
100
AcDbEntity
  8
0
  6
CONTINUOUS
 62
               4
100
AcDbLine
 10
7.25
 20
56.002000000000024
 30
0.0
 11
7.25
 21
57.802000000000007
 31
0.0
  0
LINE
  5
1D5
100
AcDbEntity
  8
0
  6
CONTINUOUS
 62
               4
100
AcDbLine
 10
7.25
 20
57.802000000000007
 30
0.0
 11
8.25
 21
57.802000000000007
 31
0.0
  0
LINE
  5
1D6
100
AcDbEntity
  8
0
  6
CONTINUOUS
 62
               4
100
AcDbLine
 10
8.25
 20
56.002000000000024
 30
0.0
 11
8.25
 21
54.502000000000024
 31
0.0
  0
LINE
  5
1D7
100
AcDbEntity
  8
0
  6
CONTINUOUS
 62
               4
100
AcDbLine
 10
9.25
 20
56.052000000000007
 30
0.0
 11
9.25
 21
55.752000000000024
 31
0.0
  0
LINE
  5
1D8
100
AcDbEntity
  8
0
  6
CONTINUOUS
 62
               4
100
AcDbLine
 10
8.1500000000000341
 20
55.902000000000029
 30
0.0
 11
8.1500000000000341
 21
54.402000000000029
 31
0.0
  0
CIRCLE
  5
1D9
100
AcDbEntity
  8
0
  6
CONTINUOUS
 62
               4
100
AcDbCircle
 10
9.75
 20
57.001984741210961
 30
0.0
 40
0.8499675393104553
  0
LINE
  5
1DA
100
AcDbEntity
  8
0
  6
CONTINUOUS
 62
               4
100
AcDbLine
 10
7.1500000000000341
 20
55.902000000000029
 30
0.0
 11
8.1500000000000341
 21
55.902000000000029
 31
0.0
  0
LINE
  5
1DB
100
AcDbEntity
  8
0
  6
CONTINUOUS
 62
               4
100
AcDbLine
 10
9.25
 20
55.102000000000018
 30
0.0
 11
10.25
 21
55.102000000000018
 31
0.0
  0
LINE
  5
1DC
100
AcDbEntity
  8
0
  6
CONTINUOUS
 62
               4
100
AcDbLine
 10
8.8000000000000114
 20
58.152000000000029
 30
0.0
 11
8.8000000000000114
 21
56.052000000000007
 31
0.0
  0
LINE
  5
1DD
100
AcDbEntity
  8
0
  6
CONTINUOUS
 62
               4
100
AcDbLine
 10
7.25
 20
56.002000000000024
 30
0.0
 11
8.25
 21
56.002000000000024
 31
0.0
  0
LINE
  5
1DE
100
AcDbEntity
  8
0
  6
CONTINUOUS
 62
               4
100
AcDbLine
 10
9.25
 20
55.752000000000024
 30
0.0
 11
10.25
 21
55.752000000000024
 31
0.0
  0
LINE
  5
1DF
100
AcDbEntity
  8
0
  6
CONTINUOUS
 62
               4
100
AcDbLine
 10
8.8000000000000114
 20
56.052000000000007
 30
0.0
 11
10.699999999999989
 21
56.052000000000007
 31
0.0
  0
LINE
  5
1E0
100
AcDbEntity
  8
0
  6
CONTINUOUS
 62
               4
100
AcDbLine
 10
8.25
 20
61.502000000000024
 30
0.0
 11
8.25
 21
57.802000000000007
 31
0.0
  0
LINE
  5
1E1
100
AcDbEntity
  8
0
  6
CONTINUOUS
 62
               4
100
AcDbLine
 10
8.25
 20
61.502000000000024
 30
0.0
 11
13.75
 21
61.502000000000024
 31
0.0
  0
LINE
  5
1E2
100
AcDbEntity
  8
0
  6
CONTINUOUS
 62
               4
100
AcDbLine
 10
8.25
 20
60.502000000000024
 30
0.0
 11
13.75
 21
60.502000000000024
 31
0.0
  0
CIRCLE
  5
1E3
100
AcDbEntity
  8
0
  6
CONTINUOUS
 62
               4
100
AcDbCircle
 10
12.25
 20
57.001984741210961
 30
0.0
 40
0.8499675393104553
  0
LINE
  5
1E4
100
AcDbEntity
  8
0
  6
CONTINUOUS
 62
               4
100
AcDbLine
 10
13.850000000000023
 20
55.902000000000029
 30
0.0
 11
14.850000000000023
 21
55.902000000000029
 31
0.0
  0
LINE
  5
1E5
100
AcDbEntity
  8
0
  6
CONTINUOUS
 62
               4
100
AcDbLine
 10
13.850000000000023
 20
57.902000000000029
 30
0.0
 11
14.850000000000023
 21
57.902000000000029
 31
0.0
  0
LINE
  5
1E6
100
AcDbEntity
  8
0
  6
CONTINUOUS
 62
               4
100
AcDbLine
 10
11.75
 20
55.102000000000018
 30
0.0
 11
12.75
 21
55.102000000000018
 31
0.0
  0
LINE
  5
1E7
100
AcDbEntity
  8
0
  6
CONTINUOUS
 62
               4
100
AcDbLine
 10
11.300000000000011
 20
58.152000000000029
 30
0.0
 11
13.199999999999989
 21
58.152000000000029
 31
0.0
  0
LINE
  5
1E8
100
AcDbEntity
  8
0
  6
CONTINUOUS
 62
               4
100
AcDbLine
 10
11.300000000000011
 20
56.052000000000007
 30
0.0
 11
13.199999999999989
 21
56.052000000000007
 31
0.0
  0
LINE
  5
1E9
100
AcDbEntity
  8
0
  6
CONTINUOUS
 62
               4
100
AcDbLine
 10
11.300000000000011
 20
57.952000000000012
 30
0.0
 11
13.199999999999989
 21
57.952000000000012
 31
0.0
  0
LINE
  5
1EA
100
AcDbEntity
  8
0
  6
CONTINUOUS
 62
               4
100
AcDbLine
 10
13.75
 20
57.802000000000007
 30
0.0
 11
14.75
 21
57.802000000000007
 31
0.0
  0
LINE
  5
1EB
100
AcDbEntity
  8
0
  6
CONTINUOUS
 62
               4
100
AcDbLine
 10
13.75
 20
56.002000000000024
 30
0.0
 11
14.75
 21
56.002000000000024
 31
0.0
  0
LINE
  5
1EC
100
AcDbEntity
  8
0
  6
CONTINUOUS
 62
               4
100
AcDbLine
 10
11.75
 20
55.752000000000024
 30
0.0
 11
12.75
 21
55.752000000000024
 31
0.0
  0
LINE
  5
1ED
100
AcDbEntity
  8
0
  6
CONTINUOUS
 62
               4
100
AcDbLine
 10
13.75
 20
56.002000000000024
 30
0.0
 11
13.75
 21
54.502000000000024
 31
0.0
  0
LINE
  5
1EE
100
AcDbEntity
  8
0
  6
CONTINUOUS
 62
               4
100
AcDbLine
 10
12.75
 20
56.052000000000007
 30
0.0
 11
12.75
 21
55.752000000000024
 31
0.0
  0
LINE
  5
1EF
100
AcDbEntity
  8
0
  6
CONTINUOUS
 62
               4
100
AcDbLine
 10
13.70999999999998
 20
58.502000000000024
 30
0.0
 11
13.410000000000025
 21
58.802000000000007
 31
0.0
  0
LINE
  5
1F0
100
AcDbEntity
  8
0
  6
CONTINUOUS
 62
               4
100
AcDbLine
 10
13.199999999999989
 20
58.152000000000029
 30
0.0
 11
13.199999999999989
 21
56.052000000000007
 31
0.0
  0
LINE
  5
1F1
100
AcDbEntity
  8
0
  6
CONTINUOUS
 62
               4
100
AcDbLine
 10
13.850000000000023
 20
59.402000000000029
 30
0.0
 11
13.850000000000023
 21
57.902000000000029
 31
0.0
  0
LINE
  5
1F2
100
AcDbEntity
  8
0
  6
CONTINUOUS
 62
               4
100
AcDbLine
 10
13.850000000000023
 20
55.902000000000029
 30
0.0
 11
13.850000000000023
 21
54.402000000000029
 31
0.0
  0
LINE
  5
1F3
100
AcDbEntity
  8
0
  6
CONTINUOUS
 62
               4
100
AcDbLine
 10
14.850000000000023
 20
57.902000000000029
 30
0.0
 11
14.850000000000023
 21
55.902000000000029
 31
0.0
  0
LINE
  5
1F4
100
AcDbEntity
  8
0
  6
CONTINUOUS
 62
               4
100
AcDbLine
 10
14.75
 20
56.002000000000024
 30
0.0
 11
14.75
 21
57.802000000000007
 31
0.0
  0
ARC
  5
1F5
100
AcDbEntity
  8
0
  6
CONTINUOUS
 62
               4
100
AcDbCircle
 10
15.269999084445772
 20
58.901999084445762
 30
0.0
 40
0.5000009155550945
100
AcDbArc
 50
0.0001049145970977
 51
89.999895085402713
  0
LINE
  5
1F6
100
AcDbEntity
  8
0
  6
CONTINUOUS
 62
               4
100
AcDbLine
 10
11.75
 20
56.052000000000007
 30
0.0
 11
11.75
 21
55.752000000000024
 31
0.0
  0
LINE
  5
1F7
100
AcDbEntity
  8
0
  6
CONTINUOUS
 62
               4
100
AcDbLine
 10
11.300000000000011
 20
58.152000000000029
 30
0.0
 11
11.300000000000011
 21
56.052000000000007
 31
0.0
  0
LINE
  5
1F8
100
AcDbEntity
  8
0
  6
CONTINUOUS
 62
               4
100
AcDbLine
 10
13.75
 20
59.402000000000029
 30
0.0
 11
15.5
 21
59.402000000000029
 31
0.0
  0
ARC
  5
1F9
100
AcDbEntity
  8
0
  6
CONTINUOUS
 62
               4
100
AcDbCircle
 10
15.500004577522645
 20
58.902004577522646
 30
0.0
 40
0.4999954224983215
100
AcDbArc
 50
359.99947544974214
 51
90.000524550256856
  0
LINE
  5
1FA
100
AcDbEntity
  8
0
  6
CONTINUOUS
 62
               4
100
AcDbLine
 10
8.25
 20
54.502000000000024
 30
0.0
 11
13.75
 21
54.502000000000024
 31
0.0
  0
LINE
  5
1FB
100
AcDbEntity
  8
0
  6
CONTINUOUS
 62
               4
100
AcDbLine
 10
8.25
 20
59.502000000000024
 30
0.0
 11
13.75
 21
59.502000000000024
 31
0.0
  0
LINE
  5
1FC
100
AcDbEntity
  8
0
  6
CONTINUOUS
 62
               4
100
AcDbLine
 10
8.2800000000000296
 20
58.502000000000024
 30
0.0
 11
13.70999999999998
 21
58.502000000000024
 31
0.0
  0
LINE
  5
1FD
100
AcDbEntity
  8
0
  6
CONTINUOUS
 62
               4
100
AcDbLine
 10
8.5799999999999841
 20
58.802000000000007
 30
0.0
 11
13.410000000000025
 21
58.802000000000007
 31
0.0
  0
LINE
  5
1FE
100
AcDbEntity
  8
0
  6
CONTINUOUS
 62
               4
100
AcDbLine
 10
8.1500000000000341
 20
54.402000000000029
 30
0.0
 11
13.850000000000023
 21
54.402000000000029
 31
0.0
  0
LINE
  5
1FF
100
AcDbEntity
  8
0
  6
CONTINUOUS
 62
               4
100
AcDbLine
 10
13.75
 20
61.502000000000024
 30
0.0
 11
13.75
 21
57.802000000000007
 31
0.0
  0
ARC
  5
200
100
AcDbEntity
  8
0
  6
CONTINUOUS
 62
               4
100
AcDbCircle
 10
13.402911994762974
 20
61.801088005237034
 30
0.0
 40
0.5989129830170392
100
AcDbArc
 50
89.895914524772735
 51
180.10408547522667
  0
ARC
  5
201
100
AcDbEntity
  8
0
  6
CONTINUOUS
 62
               4
100
AcDbCircle
 10
15.204095146658233
 20
61.80009514665818
 30
0.0
 40
0.5999048608870732
100
AcDbArc
 50
359.99091272245295
 51
90.009087277546172
  0
LINE
  5
202
100
AcDbEntity
  8
0
  6
CONTINUOUS
 62
               4
100
AcDbLine
 10
16.0
 20
61.800000000000011
 30
0.0
 11
12.800000000000011
 21
61.800000000000011
 31
0.0
  0
ARC
  5
203
100
AcDbEntity
  8
0
  6
CONTINUOUS
 62
               4
100
AcDbCircle
 10
6.5
 20
61.800000000000011
 30
0.0
 40
0.5
100
AcDbArc
 50
89.999999999999815
 51
179.99999999999963
  0
LINE
  5
204
100
AcDbEntity
  8
0
  6
CONTINUOUS
 62
               4
100
AcDbLine
 10
12.800000000000011
 20
62.300000000000011
 30
0.0
 11
12.800000000000011
 21
61.502000000000024
 31
0.0
  0
LINE
  5
205
100
AcDbEntity
  8
0
  6
CONTINUOUS
 62
               4
100
AcDbLine
 10
12.800000000000011
 20
62.300000000000011
 30
0.0
 11
6.5
 21
62.300000000000011
 31
0.0
  0
LINE
  5
206
100
AcDbEntity
  8
0
  6
CONTINUOUS
 62
               4
100
AcDbLine
 10
16.0
 20
60.800000000000011
 30
0.0
 11
13.75
 21
60.800000000000011
 31
0.0
  0
LINE
  5
207
100
AcDbEntity
  8
0
  6
CONTINUOUS
 62
               4
100
AcDbLine
 10
16.0
 20
62.400000000000034
 30
0.0
 11
6.0
 21
62.400000000000034
 31
0.0
  0
LINE
  5
208
100
AcDbEntity
  8
0
  6
CONTINUOUS
 62
               4
100
AcDbLine
 10
16.0
 20
62.400000000000034
 30
0.0
 11
16.0
 21
39.900000000000006
 31
0.0
  0
LINE
  5
209
100
AcDbEntity
  8
0
  6
CONTINUOUS
 62
               4
100
AcDbLine
 10
6.0
 20
62.400000000000034
 30
0.0
 11
6.0
 21
39.900000000000006
 31
0.0
  0
LINE
  5
20A
100
AcDbEntity
  8
0
  6
CONTINUOUS
 62
               4
100
AcDbLine
 10
15.769999999999982
 20
58.902000000000029
 30
0.0
 11
15.769999999999982
 21
42.602991328348992
 31
0.0
  0
LINE
  5
20B
100
AcDbEntity
  8
0
  6
CONTINUOUS
 62
               4
100
AcDbLine
 10
6.2300000000000182
 20
58.902000000000029
 30
0.0
 11
6.2300000000000182
 21
42.602991328348992
 31
0.0
  0
LINE
  5
20C
100
AcDbEntity
  8
0
  6
CONTINUOUS
 62
               7
100
AcDbLine
 10
16.0
 20
28.200000000000003
 30
0.0
 11
6.0
 21
28.200000000000003
 31
0.0
  0
CIRCLE
  5
20D
100
AcDbEntity
  8
0
  6
CONTINUOUS
 62
               7
100
AcDbCircle
 10
11.0
 20
37.600000000000023
 30
0.0
 40
0.75
  0
CIRCLE
  5
20E
100
AcDbEntity
  8
0
  6
CONTINUOUS
 62
               7
100
AcDbCircle
 10
11.0
 20
37.600000000000023
 30
0.0
 40
1.1000000000000001
  0
CIRCLE
  5
20F
100
AcDbEntity
  8
0
  6
CONTINUOUS
 62
               7
100
AcDbCircle
 10
11.0
 20
37.600000000000023
 30
0.0
 40
1.1500000000000001
  0
CIRCLE
  5
210
100
AcDbEntity
  8
0
  6
CONTINUOUS
 62
               7
100
AcDbCircle
 10
11.0
 20
37.600000000000023
 30
0.0
 40
1.3000000000000012
  0
LINE
  5
211
100
AcDbEntity
  8
0
  6
CENTER
 62
               2
100
AcDbLine
 10
12.699999999999989
 20
37.600000000000023
 30
0.0
 11
9.3000000000000114
 21
37.600000000000023
 31
0.0
  0
ARC
  5
212
100
AcDbEntity
  8
0
  6
CONTINUOUS
 62
               7
100
AcDbCircle
 10
11.0
 20
35.900000000000006
 30
0.0
 40
2.0
100
AcDbArc
 50
179.99999999999963
 51
0.0
  0
LINE
  5
213
100
AcDbEntity
  8
0
  6
CONTINUOUS
 62
               7
100
AcDbLine
 10
13.0
 20
35.900000000000006
 30
0.0
 11
13.0
 21
39.900000000000006
 31
0.0
  0
LINE
  5
214
100
AcDbEntity
  8
0
  6
CONTINUOUS
 62
               7
100
AcDbLine
 10
9.0
 20
35.900000000000006
 30
0.0
 11
9.0
 21
39.900000000000006
 31
0.0
  0
LINE
  5
215
100
AcDbEntity
  8
0
  6
CONTINUOUS
 62
               7
100
AcDbLine
 10
16.0
 20
28.200000000000003
 30
0.0
 11
16.0
 21
39.900000000000006
 31
0.0
  0
LINE
  5
216
100
AcDbEntity
  8
0
  6
CONTINUOUS
 62
               7
100
AcDbLine
 10
6.0
 20
28.200000000000003
 30
0.0
 11
6.0
 21
39.900000000000006
 31
0.0
  0
LINE
  5
217
100
AcDbEntity
  8
0
  6
CONTINUOUS
 62
               7
100
AcDbLine
 10
16.0
 20
39.900000000000006
 30
0.0
 11
6.0
 21
39.900000000000006
 31
0.0
  0
LINE
  5
218
100
AcDbEntity
  8
0
  6
CONTINUOUS
 62
               4
100
AcDbLine
 10
-3.0
 20
1.2000000000000171
 30
0.0
 11
4.1000000000000227
 21
1.2000000000000171
 31
0.0
  0
LINE
  5
219
100
AcDbEntity
  8
0
  6
CONTINUOUS
 62
               4
100
AcDbLine
 10
-3.0
 20
0.0
 30
0.0
 11
4.1000000000000227
 21
0.0
 31
0.0
  0
LINE
  5
21A
100
AcDbEntity
  8
0
  6
CONTINUOUS
 62
               4
100
AcDbLine
 10
-3.0
 20
0.0
 30
0.0
 11
-3.0
 21
1.2000000000000171
 31
0.0
  0
LINE
  5
21B
100
AcDbEntity
  8
0
  6
CONTINUOUS
 62
               4
100
AcDbLine
 10
5.7000000000000171
 20
3.8000000000000114
 30
0.0
 11
16.300000000000011
 21
3.8000000000000114
 31
0.0
  0
LINE
  5
21C
100
AcDbEntity
  8
0
  6
CONTINUOUS
 62
               4
100
AcDbLine
 10
5.5
 20
1.4000000000000057
 30
0.0
 11
5.5
 21
3.5999999999999943
 31
0.0
  0
LINE
  5
21D
100
AcDbEntity
  8
0
  6
CONTINUOUS
 62
               4
100
AcDbLine
 10
4.3000000000000114
 20
1.4000000000000057
 30
0.0
 11
4.3000000000000114
 21
3.5999999999999943
 31
0.0
  0
LINE
  5
21E
100
AcDbEntity
  8
0
  6
CONTINUOUS
 62
               4
100
AcDbLine
 10
5.9700000000000273
 20
3.2660000000000196
 30
0.0
 11
5.9700000000000273
 21
3.8000000000000114
 31
0.0
  0
LINE
  5
21F
100
AcDbEntity
  8
0
  6
CONTINUOUS
 62
               4
100
AcDbLine
 10
9.4300000000000068
 20
3.2660000000000196
 30
0.0
 11
9.4300000000000068
 21
3.8000000000000114
 31
0.0
  0
LINE
  5
220
100
AcDbEntity
  8
0
  6
CONTINUOUS
 62
               4
100
AcDbLine
 10
12.569999999999993
 20
3.2660000000000196
 30
0.0
 11
12.569999999999993
 21
3.8000000000000114
 31
0.0
  0
LINE
  5
221
100
AcDbEntity
  8
0
  6
CONTINUOUS
 62
               4
100
AcDbLine
 10
16.03000000000003
 20
3.2660000000000196
 30
0.0
 11
16.03000000000003
 21
3.8000000000000114
 31
0.0
  0
ARC
  5
222
100
AcDbEntity
  8
0
  6
CONTINUOUS
 62
               4
100
AcDbCircle
 10
4.0999415866173763
 20
1.4000584133826521
 30
0.0
 40
0.2000584219104543
100
AcDbArc
 50
270.01672931490481
 51
359.98327068509366
  0
ARC
  5
223
100
AcDbEntity
  8
0
  6
CONTINUOUS
 62
               4
100
AcDbCircle
 10
16.299115528302707
 20
3.5991155283026899
 30
0.0
 40
0.2008864188024893
100
AcDbArc
 50
0.2522652321918488
 51
89.747734767807131
  0
ARC
  5
224
100
AcDbEntity
  8
0
  6
CONTINUOUS
 62
               4
100
AcDbCircle
 10
5.6999333589326397
 20
3.6000666410673716
 30
0.0
 40
0.1999333700389205
100
AcDbArc
 50
89.980902377767208
 51
180.01909762223218
  0
ARC
  5
225
100
AcDbEntity
  8
0
  6
CONTINUOUS
 62
               4
100
AcDbCircle
 10
4.099943315390135
 20
1.4000566846098934
 30
0.0
 40
1.4000566857574084
100
AcDbArc
 50
270.00231975529556
 51
359.99768024470291
  0
ARC
  5
226
100
AcDbEntity
  8
0
  6
CONTINUOUS
 62
               4
100
AcDbCircle
 10
7.6990000000000123
 20
7.1068760989089697
 30
0.0
 40
4.6140039015894576
100
AcDbArc
 50
253.80344035273558
 51
286.19655964726314
  0
ARC
  5
227
100
AcDbEntity
  8
0
  6
CONTINUOUS
 62
               4
100
AcDbCircle
 10
6.5838413187467495
 20
3.265298072688239
 30
0.0
 40
0.613841720073419
100
AcDbArc
 50
179.93448232673219
 51
253.74313632481389
  0
ARC
  5
228
100
AcDbEntity
  8
0
  6
CONTINUOUS
 62
               4
100
AcDbCircle
 10
8.8152220268359258
 20
3.2665820679404476
 30
0.0
 40
0.6147782487131708
100
AcDbArc
 50
286.12822533946951
 51
359.94575273046883
  0
ARC
  5
229
100
AcDbEntity
  8
0
  6
CONTINUOUS
 62
               4
100
AcDbCircle
 10
14.299000000000035
 20
7.1068760988772226
 30
0.0
 40
4.6140039015589682
100
AcDbArc
 50
253.80344035262561
 51
286.19655964737319
  0
ARC
  5
22A
100
AcDbEntity
  8
0
  6
CONTINUOUS
 62
               4
100
AcDbCircle
 10
13.183839364596452
 20
3.2652966087315747
 30
0.0
 40
0.6138397676001843
100
AcDbArc
 50
179.93434547259068
 51
253.74327317895529
  0
ARC
  5
22B
100
AcDbEntity
  8
0
  6
CONTINUOUS
 62
               4
100
AcDbCircle
 10
15.415220075966602
 20
3.2665835360522806
 30
0.0
 40
0.6147802009733803
100
AcDbArc
 50
286.12836199114588
 51
359.94561607879228
  0
LINE
  5
22C
100
AcDbEntity
  8
0
  6
CONTINUOUS
 62
               4
100
AcDbLine
 10
25.0
 20
0.0
 30
0.0
 11
25.0
 21
1.2000000000000171
 31
0.0
  0
LINE
  5
22D
100
AcDbEntity
  8
0
  6
CONTINUOUS
 62
               4
100
AcDbLine
 10
17.900000000000034
 20
1.2000000000000171
 30
0.0
 11
25.0
 21
1.2000000000000171
 31
0.0
  0
LINE
  5
22E
100
AcDbEntity
  8
0
  6
CONTINUOUS
 62
               4
100
AcDbLine
 10
17.900000000000034
 20
0.0
 30
0.0
 11
25.0
 21
0.0
 31
0.0
  0
ARC
  5
22F
100
AcDbEntity
  8
0
  6
CONTINUOUS
 62
               4
100
AcDbCircle
 10
17.899103340046224
 20
1.3991033400461959
 30
0.0
 40
0.1991053590856348
100
AcDbArc
 50
179.74197075907335
 51
270.25802924092562
  0
ARC
  5
230
100
AcDbEntity
  8
0
  6
CONTINUOUS
 62
               4
100
AcDbCircle
 10
17.899103333594837
 20
1.3991033335948089
 30
0.0
 40
1.3991036209254675
100
AcDbArc
 50
179.96327991479848
 51
270.03672008520033
  0
LINE
  5
231
100
AcDbEntity
  8
0
  6
CONTINUOUS
 62
               4
100
AcDbLine
 10
17.699999999999989
 20
1.4000000000000057
 30
0.0
 11
17.699999999999989
 21
3.5999999999999943
 31
0.0
  0
LINE
  5
232
100
AcDbEntity
  8
0
  6
CONTINUOUS
 62
               4
100
AcDbLine
 10
16.5
 20
1.4000000000000057
 30
0.0
 11
16.5
 21
3.5999999999999943
 31
0.0
  0
ARC
  5
233
100
AcDbEntity
  8
0
  6
CONTINUOUS
 62
               4
100
AcDbCircle
 10
5.6999316768315111
 20
3.6000683231685287
 30
0.0
 40
1.3999316784987346
100
AcDbArc
 50
89.997203699822904
 51
180.00279630017653
  0
ARC
  5
234
100
AcDbEntity
  8
0
  6
CONTINUOUS
 62
               4
100
AcDbCircle
 10
16.299115537943862
 20
3.5991155379438453
 30
0.0
 40
1.4008847412629901
100
AcDbArc
 50
0.0361742439122946
 51
89.963825756087459
  0
LINE
  5
235
100
AcDbEntity
  8
0
  6
CONTINUOUS
 62
               4
100
AcDbLine
 10
16.300000000000011
 20
5.0
 30
0.0
 11
5.7000000000000171
 21
5.0
 31
0.0
  0
LINE
  5
236
100
AcDbEntity
  8
0
  6
CONTINUOUS
 62
               4
100
AcDbLine
 10
22.0
 20
0.0
 30
0.0
 11
22.0
 21
1.2000000000000171
 31
0.0
  0
LINE
  5
237
100
AcDbEntity
  8
0
  6
CONTINUOUS
 62
               4
100
AcDbLine
 10
0.0
 20
0.0
 30
0.0
 11
0.0
 21
1.2000000000000171
 31
0.0
  0
ARC
  5
238
100
AcDbEntity
  8
0
  6
CONTINUOUS
 62
               7
100
AcDbCircle
 10
11.0
 20
35.900000000000006
 30
0.0
 40
3.090998569384837
100
AcDbArc
 50
179.99999999999963
 51
0.0
  0
LINE
  5
239
100
AcDbEntity
  8
0
  6
CONTINUOUS
 62
               7
100
AcDbLine
 10
14.090998569384851
 20
35.900000000000006
 30
0.0
 11
14.090998569384851
 21
39.900000000000006
 31
0.0
  0
LINE
  5
23A
100
AcDbEntity
  8
0
  6
CONTINUOUS
 62
               7
100
AcDbLine
 10
7.9090014306151488
 20
35.900000000000006
 30
0.0
 11
7.9090014306151488
 21
39.900000000000006
 31
0.0
  0
LINE
  5
23B
100
AcDbEntity
  8
0
  6
CENTER
 62
               2
100
AcDbLine
 10
16.878166284015236
 20
14.300000000000011
 30
0.0
 11
12.521833715984798
 21
14.300000000000011
 31
0.0
  0
LINE
  5
23C
100
AcDbEntity
  8
0
  6
CENTER
 62
               2
100
AcDbLine
 10
9.4781662840152308
 20
23.900000000000006
 30
0.0
 11
5.121833715984792
 21
23.899999999999977
 31
0.0
  0
ENDBLK
  5
23D
100
AcDbEntity
  8
0
100
AcDbBlockEnd
  0
BLOCK
  5
23E
100
AcDbEntity
  8
0
100
AcDbBlockBegin
  2
EA10SF5-5
 70
               0
 10
0.0
 20
0.0
 30
0.0
  3
EA10SF5-5
  1

  0
ARC
  5
23F
100
AcDbEntity
  8
0
  6
CONTINUOUS
 62
               4
100
AcDbCircle
 10
9.8869807275629569
 20
40.399995453570867
 30
0.0
 40
0.5
100
AcDbArc
 50
269.7556636029762
 51
295.03102081721903
  0
LINE
  5
240
100
AcDbEntity
  8
0
  6
CONTINUOUS
 62
               4
100
AcDbLine
 10
7.0000000135181608
 20
39.899999999999906
 30
0.0
 11
9.8848484967181207
 21
39.899999999999906
 31
0.0
  0
LINE
  5
241
100
AcDbEntity
  8
0
  6
CONTINUOUS
 62
               4
100
AcDbLine
 10
-7.0
 20
0.0000000256359272
 30
0.0
 11
-7.0
 21
5.0
 31
0.0
  0
LINE
  5
242
100
AcDbEntity
  8
0
  6
CONTINUOUS
 62
               4
100
AcDbLine
 10
7.0
 20
0.0000000256359272
 30
0.0
 11
7.0
 21
5.0
 31
0.0
  0
LINE
  5
243
100
AcDbEntity
  8
0
  6
CONTINUOUS
 62
               4
100
AcDbLine
 10
-7.0000000007497221
 20
1.2000000000000171
 30
0.0
 11
6.9999999992502779
 21
1.2000000000000171
 31
0.0
  0
LINE
  5
244
100
AcDbEntity
  8
0
  6
CONTINUOUS
 62
               4
100
AcDbLine
 10
-7.0000000007497221
 20
3.8000000000000114
 30
0.0
 11
6.9999999992502779
 21
3.8000000000000114
 31
0.0
  0
LINE
  5
245
100
AcDbEntity
  8
0
  6
CONTINUOUS
 62
               4
100
AcDbLine
 10
-7.0000000007497221
 20
5.0
 30
0.0
 11
6.9999999992502779
 21
5.0
 31
0.0
  0
LINE
  5
246
100
AcDbEntity
  8
0
  6
CONTINUOUS
 62
               4
100
AcDbLine
 10
-7.0000000007497221
 20
0.0
 30
0.0
 11
7.0
 21
0.0
 31
0.0
  0
ARC
  5
247
100
AcDbEntity
  8
0
  6
CONTINUOUS
 62
               4
100
AcDbCircle
 10
-4.3989118272451435
 20
61.801088005236934
 30
0.0
 40
0.5989129830170392
100
AcDbArc
 50
359.89591452477299
 51
90.104085475226924
  0
LINE
  5
248
100
AcDbEntity
  8
0
  6
CONTINUOUS
 62
               4
100
AcDbLine
 10
-3.2999998324822286
 20
61.799999999999912
 30
0.0
 11
-3.2999998324822286
 21
62.399999999999935
 31
0.0
  0
LINE
  5
249
100
AcDbEntity
  8
0
  6
CONTINUOUS
 62
               4
100
AcDbLine
 10
6.9979999999999762
 20
-0.0999999999999943
 30
0.0
 11
7.0
 21
-0.0999999999999943
 31
0.0
  0
LINE
  5
24A
100
AcDbEntity
  8
0
  6
CONTINUOUS
 62
               7
100
AcDbLine
 10
3.5
 20
6.3000000000000114
 30
0.0
 11
3.5
 21
5.2000000000000171
 31
0.0
  0
LINE
  5
24B
100
AcDbEntity
  8
0
  6
CONTINUOUS
 62
               7
100
AcDbLine
 10
3.5499999999999972
 20
5.9700000000000131
 30
0.0
 11
3.5499999999999972
 21
6.4400000000000119
 31
0.0
  0
ARC
  5
24C
100
AcDbEntity
  8
0
  6
CONTINUOUS
 62
               7
100
AcDbCircle
 10
3.2999984741152701
 20
5.2000015258847441
 30
0.0
 40
0.200001525890548
100
AcDbArc
 50
270.00043713043902
 51
359.99956286956035
  0
ARC
  5
24D
100
AcDbEntity
  8
0
  6
CONTINUOUS
 62
               7
100
AcDbCircle
 10
3.6999923706112838
 20
6.3000076293887162
 30
0.0
 40
0.1999923707568137
100
AcDbArc
 50
89.997814257754712
 51
180.00218574224468
  0
ARC
  5
24E
100
AcDbEntity
  8
0
  6
CONTINUOUS
 62
               7
100
AcDbCircle
 10
3.9740829724975981
 20
5.9670765359853988
 30
0.0
 40
0.4240930489930741
100
AcDbArc
 50
179.60503130945165
 51
242.76491800802398
  0
ARC
  5
24F
100
AcDbEntity
  8
0
  6
CONTINUOUS
 62
               7
100
AcDbCircle
 10
-6.5999969480559315
 20
5.4000030519440827
 30
0.0
 40
0.4000030519557204
100
AcDbArc
 50
180.00043715545169
 51
269.99956284454754
  0
CIRCLE
  5
250
100
AcDbEntity
  8
0
  6
CONTINUOUS
 62
               7
100
AcDbCircle
 10
-4.0999999999999943
 20
15.899999999999977
 30
0.0
 40
1.075
  0
CIRCLE
  5
251
100
AcDbEntity
  8
0
  6
CONTINUOUS
 62
               7
100
AcDbCircle
 10
-4.0999999999999943
 20
22.299999899728647
 30
0.0
 40
1.075
  0
LINE
  5
252
100
AcDbEntity
  8
0
  6
CENTER
 62
               2
100
AcDbLine
 10
-2.4419261169031472
 20
15.900437783480186
 30
0.0
 11
-5.7010006022055677
 21
15.900437783480186
 31
0.0
  0
LINE
  5
253
100
AcDbEntity
  8
0
  6
CENTER
 62
               2
100
AcDbLine
 10
-4.0999999999999943
 20
24.905677657573563
 30
0.0
 11
-4.0999999999999943
 21
13.461352515796619
 31
0.0
  0
LINE
  5
254
100
AcDbEntity
  8
0
  6
CENTER
 62
               2
100
AcDbLine
 10
-2.4419261169031472
 20
22.299999999999983
 30
0.0
 11
-5.7010006022055677
 21
22.299999999999983
 31
0.0
  0
LINE
  5
255
100
AcDbEntity
  8
0
  6
CONTINUOUS
 62
               7
100
AcDbLine
 10
-7.0000000119209318
 20
10.0
 30
0.0
 11
6.9999999880790682
 21
10.0
 31
0.0
  0
ARC
  5
256
100
AcDbEntity
  8
0
  6
CONTINUOUS
 62
               7
100
AcDbCircle
 10
5.3050000000000068
 20
8.4000186950871694
 30
0.0
 40
3.1971596874005721
100
AcDbArc
 50
241.5112711324667
 51
298.48872886753213
  0
LINE
  5
257
100
AcDbEntity
  8
0
  6
CONTINUOUS
 62
               7
100
AcDbLine
 10
7.0499999999999972
 20
6.5
 30
0.0
 11
3.6999999999999886
 21
6.5
 31
0.0
  0
LINE
  5
258
100
AcDbEntity
  8
0
  6
CONTINUOUS
 62
               7
100
AcDbLine
 10
6.5999999999999943
 20
5.0
 30
0.0
 11
-6.6000000000000085
 21
5.0
 31
0.0
  0
LINE
  5
259
100
AcDbEntity
  8
0
  6
CONTINUOUS
 62
               4
100
AcDbLine
 10
30.495959596051165
 20
57.560555545466968
 30
0.0
 11
27.158585860584566
 21
57.560555545466912
 31
0.0
  0
LINE
  5
25A
100
AcDbEntity
  8
0
  6
CONTINUOUS
 62
               4
100
AcDbLine
 10
30.495959596051193
 20
56.259545445200274
 30
0.0
 11
27.90808080965121
 21
56.259545445200217
 31
0.0
  0
LINE
  5
25B
100
AcDbEntity
  8
0
  6
CONTINUOUS
 62
               7
100
AcDbLine
 10
-6.9999999784818101
 20
39.89999999999965
 30
0.0
 11
7.0000000135181608
 21
39.899999999999906
 31
0.0
  0
LINE
  5
25C
100
AcDbEntity
  8
0
  6
CONTINUOUS
 62
               4
100
AcDbLine
 10
7.0000000135178198
 20
59.401010089866602
 30
0.0
 11
14.49494950418449
 21
59.401010089866773
 31
0.0
  0
LINE
  5
25D
100
AcDbEntity
  8
0
  6
CONTINUOUS
 62
               4
100
AcDbLine
 10
14.996969705917849
 20
58.898989888133386
 30
0.0
 11
14.996969705918161
 21
42.551515150000128
 31
0.0
  0
LINE
  5
25E
100
AcDbEntity
  8
0
  6
CONTINUOUS
 62
               4
100
AcDbLine
 10
10.098535171945954
 20
39.9469560324806
 30
0.0
 11
14.707070716184802
 21
42.098989897733375
 31
0.0
  0
LINE
  5
25F
100
AcDbEntity
  8
0
  6
CONTINUOUS
 62
               4
100
AcDbLine
 10
22.993939398317906
 20
54.402020193733463
 30
0.0
 11
22.993939398317821
 21
58.503030292400197
 31
0.0
  0
LINE
  5
260
100
AcDbEntity
  8
0
  6
CONTINUOUS
 62
               4
100
AcDbLine
 10
16.389898998051166
 20
60.504040392266816
 30
0.0
 11
21.494949500184475
 21
61.402020189733562
 31
0.0
  0
LINE
  5
261
100
AcDbEntity
  8
0
  6
CONTINUOUS
 62
               4
100
AcDbLine
 10
22.993939398317792
 20
60.405050493333491
 30
0.0
 11
22.993939398317764
 21
61.402020189733562
 31
0.0
  0
LINE
  5
262
100
AcDbEntity
  8
0
  6
CONTINUOUS
 62
               4
100
AcDbLine
 10
15.329292938051196
 20
59.302020190933334
 30
0.0
 11
21.671717176851132
 21
60.419191907466839
 31
0.0
  0
LINE
  5
263
100
AcDbEntity
  8
0
  6
CONTINUOUS
 62
               4
100
AcDbLine
 10
13.992929302451159
 20
59.499999988800042
 30
0.0
 11
8.293939406717783
 21
59.499999988799928
 31
0.0
  0
LINE
  5
264
100
AcDbEntity
  8
0
  6
CONTINUOUS
 62
               4
100
AcDbLine
 10
22.993939398317821
 20
58.503030292400197
 30
0.0
 11
22.696969701517844
 21
58.799999989200174
 31
0.0
  0
LINE
  5
265
100
AcDbEntity
  8
0
  6
CONTINUOUS
 62
               4
100
AcDbLine
 10
21.996969701917891
 20
54.402020193733463
 30
0.0
 11
21.996969701917891
 21
55.003030294400176
 31
0.0
  0
LINE
  5
266
100
AcDbEntity
  8
0
  6
CONTINUOUS
 62
               4
100
AcDbLine
 10
21.996969701917891
 20
55.003030294400176
 30
0.0
 11
16.997979805784524
 21
55.003030294400119
 31
0.0
  0
LINE
  5
267
100
AcDbEntity
  8
0
  6
CONTINUOUS
 62
               4
100
AcDbLine
 10
16.997979805784553
 20
54.40202019373335
 30
0.0
 11
16.997979805784524
 21
55.003030294400119
 31
0.0
  0
LINE
  5
268
100
AcDbEntity
  8
0
  6
CONTINUOUS
 62
               4
100
AcDbLine
 10
16.495959604051166
 20
58.503030292400084
 30
0.0
 11
16.792929300851142
 21
58.79999998920006
 31
0.0
  0
LINE
  5
269
100
AcDbEntity
  8
0
  6
CONTINUOUS
 62
               4
100
AcDbLine
 10
16.389898998051166
 20
60.504040392266816
 30
0.0
 11
7.296969710317768
 21
60.504040392266646
 31
0.0
  0
LINE
  5
26A
100
AcDbEntity
  8
0
  6
CONTINUOUS
 62
               4
100
AcDbLine
 10
8.293939406717783
 20
59.401010089866659
 30
0.0
 11
8.293939406717783
 21
59.499999988799928
 31
0.0
  0
LINE
  5
26B
100
AcDbEntity
  8
0
  6
CONTINUOUS
 62
               4
100
AcDbLine
 10
27.561616163384514
 20
56.254545445200236
 30
0.0
 11
22.993939398317877
 21
56.254545445200122
 31
0.0
  0
LINE
  5
26C
100
AcDbEntity
  8
0
  6
CONTINUOUS
 62
             200
100
AcDbLine
 10
26.324242426717831
 20
58.409040393466853
 30
0.0
 11
28.056565658051227
 21
55.40398989013363
 31
0.0
  0
LINE
  5
26D
100
AcDbEntity
  8
0
  6
CONTINUOUS
 62
               4
100
AcDbLine
 10
26.81212121431787
 20
57.555555545466902
 30
0.0
 11
22.993939398317849
 21
57.555555545466845
 31
0.0
  0
LINE
  5
26E
100
AcDbEntity
  8
0
  6
CONTINUOUS
 62
               4
100
AcDbLine
 10
22.993939398317764
 20
61.402020189733562
 30
0.0
 11
21.494949500184475
 21
61.402020189733562
 31
0.0
  0
LINE
  5
26F
100
AcDbEntity
  8
0
  6
CONTINUOUS
 62
               4
100
AcDbLine
 10
22.993939398317792
 20
60.405050493333491
 30
0.0
 11
21.586868692051098
 21
60.405050493333491
 31
0.0
  0
LINE
  5
270
100
AcDbEntity
  8
0
  6
CONTINUOUS
 62
               4
100
AcDbLine
 10
22.696969701517844
 20
58.799999989200174
 30
0.0
 11
16.792929300851142
 21
58.79999998920006
 31
0.0
  0
LINE
  5
271
100
AcDbEntity
  8
0
  6
CONTINUOUS
 62
               4
100
AcDbLine
 10
22.993939398317821
 20
58.503030292400197
 30
0.0
 11
15.400000008717882
 21
58.503030292400055
 31
0.0
  0
LINE
  5
272
100
AcDbEntity
  8
0
  6
CONTINUOUS
 62
               4
100
AcDbLine
 10
22.993939398317849
 20
57.803030292800216
 30
0.0
 11
14.996969705917877
 21
57.803030292800102
 31
0.0
  0
LINE
  5
273
100
AcDbEntity
  8
0
  6
CONTINUOUS
 62
               4
100
AcDbLine
 10
22.993939398317877
 20
55.99999999080022
 30
0.0
 11
14.996969705917905
 21
55.999999990800077
 31
0.0
  0
LINE
  5
274
100
AcDbEntity
  8
0
  6
CONTINUOUS
 62
               4
100
AcDbLine
 10
14.996969705917934
 20
54.40202019373335
 30
0.0
 11
16.997979805784553
 21
54.40202019373335
 31
0.0
  0
LINE
  5
275
100
AcDbEntity
  8
0
  6
CONTINUOUS
 62
               4
100
AcDbLine
 10
21.996969701917891
 20
54.402020193733463
 30
0.0
 11
22.993939398317906
 21
54.402020193733463
 31
0.0
  0
LINE
  5
276
100
AcDbEntity
  8
0
  6
CONTINUOUS
 62
               4
100
AcDbLine
 10
9.8848484967181207
 20
39.899999999999963
 30
0.0
 11
9.8848484967177797
 21
59.401010089866659
 31
0.0
  0
ARC
  5
277
100
AcDbEntity
  8
0
  6
CONTINUOUS
 62
               7
100
AcDbCircle
 10
14.497257383074867
 20
42.552522460539237
 30
0.0
 40
0.4997133381008656
100
AcDbArc
 50
294.82621530980992
 51
359.88450442035736
  0
ARC
  5
278
100
AcDbEntity
  8
0
  6
CONTINUOUS
 62
               4
100
AcDbCircle
 10
14.500332854439165
 20
58.904373238388061
 30
0.0
 40
0.4966660273328702
100
AcDbArc
 50
359.37896036356483
 51
90.621039636434716
  0
ARC
  5
279
100
AcDbEntity
  8
0
  6
CONTINUOUS
 62
               4
100
AcDbCircle
 10
7.2994313052352311
 20
60.204584129418592
 30
0.0
 40
0.2994663800970315
100
AcDbArc
 50
90.47097302846538
 51
180.87710076750685
  0
ARC
  5
27A
100
AcDbEntity
  8
0
  6
CONTINUOUS
 62
               4
100
AcDbCircle
 10
13.999912527655027
 20
59.005034325092666
 30
0.0
 40
0.4950149226876426
100
AcDbArc
 50
53.123124741165753
 51
90.808304124579536
  0
ARC
  5
27B
100
AcDbEntity
  8
0
  6
CONTINUOUS
 62
               4
100
AcDbCircle
 10
15.399895939896879
 20
58.905327231604574
 30
0.0
 40
0.4029269013737999
100
AcDbArc
 50
100.09177155739695
 51
179.8957164142515
  0
ARC
  5
27C
100
AcDbEntity
  8
0
  6
CONTINUOUS
 62
               4
100
AcDbCircle
 10
15.400834052872199
 20
58.906894639354405
 30
0.0
 40
0.403865208170398
100
AcDbArc
 50
180.11832473551567
 51
269.88167526448677
  0
LINE
  5
27D
100
AcDbEntity
  8
0
  6
CONTINUOUS
 62
             200
100
AcDbLine
 10
26.670707072984527
 20
58.40904039346691
 30
0.0
 11
28.403030304317923
 21
55.411060597200247
 31
0.0
  0
LINE
  5
27E
100
AcDbEntity
  8
0
  6
CONTINUOUS
 62
               4
100
AcDbLine
 10
-6.9999999784818101
 20
39.89999999999965
 30
0.0
 11
-6.999999978482208
 21
61.799999999999628
 31
0.0
  0
LINE
  5
27F
100
AcDbEntity
  8
0
  6
CONTINUOUS
 62
               4
100
AcDbLine
 10
4.9999999824822225
 20
60.799999999999628
 30
0.0
 11
-7.0000000135178055
 21
60.799999999999855
 31
0.0
  0
LINE
  5
280
100
AcDbEntity
  8
0
  6
CONTINUOUS
 62
               4
100
AcDbLine
 10
4.9999999824822794
 20
62.399999999999679
 30
0.0
 11
4.9999999824822225
 21
60.799999999999628
 31
0.0
  0
LINE
  5
281
100
AcDbEntity
  8
0
  6
CONTINUOUS
 62
               4
100
AcDbLine
 10
6.4999999784822364
 20
62.299999999999685
 30
0.0
 11
4.999999982482251
 21
62.299999999999685
 31
0.0
  0
ARC
  5
282
100
AcDbEntity
  8
0
  6
CONTINUOUS
 62
               4
100
AcDbCircle
 10
6.4999999784822364
 20
61.799999999999628
 30
0.0
 40
0.5
100
AcDbArc
 50
359.99999999999898
 51
89.999999999998778
  0
LINE
  5
283
100
AcDbEntity
  8
0
  6
CONTINUOUS
 62
               4
100
AcDbLine
 10
7.0000000135177913
 20
61.799999999999883
 30
0.0
 11
7.0000000135181608
 21
39.899999999999906
 31
0.0
  0
LINE
  5
284
100
AcDbEntity
  8
0
  6
CONTINUOUS
 62
               4
100
AcDbLine
 10
6.1999998924822535
 20
62.399999999999679
 30
0.0
 11
-6.1999999275177657
 21
62.399999999999906
 31
0.0
  0
ARC
  5
285
100
AcDbEntity
  8
0
  6
CONTINUOUS
 62
               4
100
AcDbCircle
 10
-6.500000013517834
 20
61.799999999999883
 30
0.0
 40
0.5
100
AcDbArc
 50
93.919585899649775
 51
179.99999999999858
  0
LINE
  5
286
100
AcDbEntity
  8
0
  6
CONTINUOUS
 62
               4
100
AcDbLine
 10
-3.2999998324822286
 20
61.799999999999827
 30
0.0
 11
-7.0000000135178055
 21
61.799999999999883
 31
0.0
  0
ARC
  5
287
100
AcDbEntity
  8
0
  6
CONTINUOUS
 62
               4
100
AcDbCircle
 10
-6.2010879326460469
 20
61.801088005128136
 30
0.0
 40
0.598912923125741
100
AcDbArc
 50
89.895914524771712
 51
180.10408547522565
  0
ARC
  5
288
100
AcDbEntity
  8
0
  6
CONTINUOUS
 62
               4
100
AcDbCircle
 10
6.2000950391309289
 20
61.800095146648331
 30
0.0
 40
0.599904800896587
100
AcDbArc
 50
56.247417870392866
 51
90.009087277545149
  0
LINE
  5
289
100
AcDbEntity
  8
0
  6
CONTINUOUS
 62
               4
100
AcDbLine
 10
30.495959596051193
 20
56.259545445200274
 30
0.0
 11
30.495959596051165
 21
57.560555545466968
 31
0.0
  0
LINE
  5
28A
100
AcDbEntity
  8
0
  6
CONTINUOUS
 62
               7
100
AcDbLine
 10
6.0
 20
22.300998569384802
 30
0.0
 11
7.0
 21
22.300998569384802
 31
0.0
  0
LINE
  5
28B
100
AcDbEntity
  8
0
  6
CONTINUOUS
 62
               7
100
AcDbLine
 10
6.0
 20
25.500998569384819
 30
0.0
 11
7.0
 21
25.500998569384819
 31
0.0
  0
LINE
  5
28C
100
AcDbEntity
  8
0
  6
CONTINUOUS
 62
               7
100
AcDbLine
 10
-6.999999986481896
 20
28.199999999999989
 30
0.0
 11
7.0
 21
28.200000000000017
 31
0.0
  0
LINE
  5
28D
100
AcDbEntity
  8
0
  6
CONTINUOUS
 62
               7
100
AcDbLine
 10
8.1000000135181551
 20
33.899999999999991
 30
0.0
 11
8.1000000135181551
 21
39.899999999999935
 31
0.0
  0
LINE
  5
28E
100
AcDbEntity
  8
0
  6
CONTINUOUS
 62
               7
100
AcDbLine
 10
8.5480000135180916
 20
36.499999999999986
 30
0.0
 11
8.1000000135181551
 21
36.499999999999986
 31
0.0
  0
LINE
  5
28F
100
AcDbEntity
  8
0
  6
CONTINUOUS
 62
               7
100
AcDbLine
 10
8.54800001351812
 20
38.700000000000031
 30
0.0
 11
8.1000000135181409
 21
38.700000000000031
 31
0.0
  0
LINE
  5
290
100
AcDbEntity
  8
0
  6
CONTINUOUS
 62
               7
100
AcDbLine
 10
8.5480000135180916
 20
36.499999999999986
 30
0.0
 11
8.54800001351812
 21
38.700000000000031
 31
0.0
  0
LINE
  5
291
100
AcDbEntity
  8
0
  6
CONTINUOUS
 62
               7
100
AcDbLine
 10
-6.9999999864818818
 20
39.899999999999935
 30
0.0
 11
-6.999999986481896
 21
28.199999999999989
 31
0.0
  0
LINE
  5
292
100
AcDbEntity
  8
0
  6
CONTINUOUS
 62
               7
100
AcDbLine
 10
7.0000000135181608
 20
39.899999999999935
 30
0.0
 11
7.0000000135181608
 21
28.199999999999989
 31
0.0
  0
LINE
  5
293
100
AcDbEntity
  8
0
  6
CONTINUOUS
 62
               7
100
AcDbLine
 10
7.0000000135181466
 20
32.804999999999993
 30
0.0
 11
8.1000000135181551
 21
33.899999999999991
 31
0.0
  0
ARC
  5
294
100
AcDbEntity
  8
0
  6
CONTINUOUS
 62
               7
100
AcDbCircle
 10
6.5999938963796012
 20
5.400006103620413
 30
0.0
 40
0.400006103666966
100
AcDbArc
 50
270.00087426588038
 51
359.99912573411802
  0
ARC
  5
295
100
AcDbEntity
  8
0
  6
CONTINUOUS
 62
               7
100
AcDbCircle
 10
6.6235822871241368
 20
5.9631892021913018
 30
0.0
 40
0.4264721008707071
100
AcDbArc
 50
298.94777670470961
 51
0.9150576515650383
  0
LINE
  5
296
100
AcDbEntity
  8
0
  6
CONTINUOUS
 62
               7
100
AcDbLine
 10
-7.0
 20
28.200000000000017
 30
0.0
 11
-7.0
 21
5.4000030519440827
 31
0.0
  0
LINE
  5
297
100
AcDbEntity
  8
0
  6
CONTINUOUS
 62
               7
100
AcDbLine
 10
7.0
 20
28.200000000000017
 30
0.0
 11
7.0
 21
6.5000000000000142
 31
0.0
  0
LINE
  5
298
100
AcDbEntity
  8
0
  6
CONTINUOUS
 62
               7
100
AcDbLine
 10
7.0
 20
5.7700000000000102
 30
0.0
 11
7.0
 21
5.4000000000000057
 31
0.0
  0
LINE
  5
299
100
AcDbEntity
  8
0
  6
CONTINUOUS
 62
               7
100
AcDbLine
 10
7.0499999999999972
 20
5.9700000000000131
 30
0.0
 11
7.0499999999999972
 21
6.5
 31
0.0
  0
LINE
  5
29A
100
AcDbEntity
  8
0
  6
CENTER
 62
               2
100
AcDbLine
 10
0.0
 20
64.960444473560457
 30
0.0
 11
0.0
 21
-2.4488717557984785
 31
0.0
  0
LINE
  5
29B
100
AcDbEntity
  8
0
  6
CONTINUOUS
 62
               7
100
AcDbLine
 10
6.0
 20
25.500998569384819
 30
0.0
 11
6.0
 21
22.300998569384802
 31
0.0
  0
LINE
  5
29C
100
AcDbEntity
  8
0
  6
CENTER
 62
               2
100
AcDbLine
 10
-6.1241534247009071
 20
12.700000000000017
 30
0.0
 11
-20.405931067489945
 21
12.700000000000017
 31
0.0
  0
LINE
  5
29D
100
AcDbEntity
  8
0
  6
CENTER
 62
               2
100
AcDbLine
 10
-6.1241534247009071
 20
25.500000000000014
 30
0.0
 11
-20.405931067489945
 21
25.500000000000014
 31
0.0
  0
LINE
  5
29E
100
AcDbEntity
  8
0
  6
DASHED
 62
             200
100
AcDbLine
 10
-7.0
 20
9.7000000000000171
 30
0.0
 11
-18.5
 21
9.7000000000000171
 31
0.0
  0
LINE
  5
29F
100
AcDbEntity
  8
0
  6
DASHED
 62
             200
100
AcDbLine
 10
-7.0
 20
15.700000000000017
 30
0.0
 11
-18.5
 21
15.700000000000017
 31
0.0
  0
LINE
  5
2A0
100
AcDbEntity
  8
0
  6
DASHED
 62
             200
100
AcDbLine
 10
-18.5
 20
9.7000000000000171
 30
0.0
 11
-18.5
 21
15.700000000000017
 31
0.0
  0
LINE
  5
2A1
100
AcDbEntity
  8
0
  6
DASHED
 62
             200
100
AcDbLine
 10
-16.5
 20
9.7000000000000171
 30
0.0
 11
-16.5
 21
15.700000000000017
 31
0.0
  0
LINE
  5
2A2
100
AcDbEntity
  8
0
  6
DASHED
 62
             200
100
AcDbLine
 10
-19.0
 20
10.200000000000017
 30
0.0
 11
-19.0
 21
15.200000000000017
 31
0.0
  0
LINE
  5
2A3
100
AcDbEntity
  8
0
  6
DASHED
 62
               7
100
AcDbLine
 10
-7.0
 20
9.7000000000000171
 30
0.0
 11
-7.0
 21
15.700000000000017
 31
0.0
  0
ARC
  5
2A4
100
AcDbEntity
  8
0
  6
DASHED
 62
             200
100
AcDbCircle
 10
-18.5
 20
15.200000000000017
 30
0.0
 40
0.5
100
AcDbArc
 50
89.999999999999815
 51
179.99999999999963
  0
ARC
  5
2A5
100
AcDbEntity
  8
0
  6
DASHED
 62
             200
100
AcDbCircle
 10
-18.5
 20
10.200000000000017
 30
0.0
 40
0.5
100
AcDbArc
 50
179.99999999999963
 51
269.99999999999937
  0
ARC
  5
2A6
100
AcDbEntity
  8
0
  6
DASHED
 62
             200
100
AcDbCircle
 10
-18.5
 20
23.0
 30
0.0
 40
0.5
100
AcDbArc
 50
179.99999999999963
 51
269.99999999999937
  0
ARC
  5
2A7
100
AcDbEntity
  8
0
  6
DASHED
 62
             200
100
AcDbCircle
 10
-18.5
 20
28.000000000000014
 30
0.0
 40
0.5
100
AcDbArc
 50
89.999999999999815
 51
179.99999999999963
  0
LINE
  5
2A8
100
AcDbEntity
  8
0
  6
DASHED
 62
               7
100
AcDbLine
 10
-7.0
 20
22.5
 30
0.0
 11
-7.0
 21
28.500000000000014
 31
0.0
  0
LINE
  5
2A9
100
AcDbEntity
  8
0
  6
DASHED
 62
             200
100
AcDbLine
 10
-19.0
 20
23.0
 30
0.0
 11
-19.0
 21
28.000000000000014
 31
0.0
  0
LINE
  5
2AA
100
AcDbEntity
  8
0
  6
DASHED
 62
             200
100
AcDbLine
 10
-16.5
 20
22.5
 30
0.0
 11
-16.5
 21
28.500000000000014
 31
0.0
  0
LINE
  5
2AB
100
AcDbEntity
  8
0
  6
DASHED
 62
             200
100
AcDbLine
 10
-18.5
 20
22.5
 30
0.0
 11
-18.5
 21
28.500000000000014
 31
0.0
  0
LINE
  5
2AC
100
AcDbEntity
  8
0
  6
DASHED
 62
             200
100
AcDbLine
 10
-7.0
 20
28.500000000000014
 30
0.0
 11
-18.5
 21
28.500000000000014
 31
0.0
  0
LINE
  5
2AD
100
AcDbEntity
  8
0
  6
DASHED
 62
             200
100
AcDbLine
 10
-7.0
 20
22.5
 30
0.0
 11
-18.5
 21
22.5
 31
0.0
  0
LINE
  5
2AE
100
AcDbEntity
  8
0
  6
CONTINUOUS
 62
               4
100
AcDbLine
 10
30.495959596051179
 20
56.659233112521093
 30
0.0
 11
33.995959596051236
 21
56.659233112521093
 31
0.0
  0
LINE
  5
2AF
100
AcDbEntity
  8
0
  6
CONTINUOUS
 62
               4
100
AcDbLine
 10
33.995959596051236
 20
57.159233112521093
 30
0.0
 11
33.995959596051236
 21
56.659233112521093
 31
0.0
  0
LINE
  5
2B0
100
AcDbEntity
  8
0
  6
CONTINUOUS
 62
               4
100
AcDbLine
 10
30.495959596051179
 20
57.159233112521093
 30
0.0
 11
33.995959596051236
 21
57.159233112521093
 31
0.0
  0
ENDBLK
  5
2B1
100
AcDbEntity
  8
0
100
AcDbBlockEnd
  0
BLOCK
  5
2B2
100
AcDbEntity
  8
0
100
AcDbBlockBegin
  2
EA10SF5-6
 70
               0
 10
0.0
 20
0.0
 30
0.0
  3
EA10SF5-6
  1

  0
LINE
  5
2B3
100
AcDbEntity
  8
0
  6
DASHED
 62
             200
100
AcDbLine
 10
-20.25
 20
0.0
 30
0.0
 11
-20.25
 21
1.2000000000000171
 31
0.0
  0
LINE
  5
2B4
100
AcDbEntity
  8
0
  6
DASHED
 62
             200
100
AcDbLine
 10
-23.75
 20
0.0
 30
0.0
 11
-23.75
 21
1.2000000000000171
 31
0.0
  0
LINE
  5
2B5
100
AcDbEntity
  8
0
  6
DASHED
 62
             200
100
AcDbLine
 10
1.75
 20
0.0
 30
0.0
 11
1.75
 21
1.2000000000000171
 31
0.0
  0
LINE
  5
2B6
100
AcDbEntity
  8
0
  6
DASHED
 62
             200
100
AcDbLine
 10
-1.75
 20
0.0
 30
0.0
 11
-1.75
 21
1.2000000000000171
 31
0.0
  0
LINE
  5
2B7
100
AcDbEntity
  8
0
  6
CONTINUOUS
 62
               4
100
AcDbLine
 10
-5.6999999999999886
 20
5.0
 30
0.0
 11
-16.299999999999955
 21
5.0
 31
0.0
  0
LINE
  5
2B8
100
AcDbEntity
  8
0
  6
CONTINUOUS
 62
               4
100
AcDbLine
 10
-22.0
 20
0.0
 30
0.0
 11
-22.0
 21
1.2000000000000171
 31
0.0
  0
LINE
  5
2B9
100
AcDbEntity
  8
0
  6
CONTINUOUS
 62
               4
100
AcDbLine
 10
0.0
 20
0.0
 30
0.0
 11
0.0
 21
1.2000000000000171
 31
0.0
  0
LINE
  5
2BA
100
AcDbEntity
  8
0
  6
CONTINUOUS
 62
               4
100
AcDbLine
 10
-5.5
 20
1.4000000000000057
 30
0.0
 11
-5.5
 21
3.5999999999999943
 31
0.0
  0
LINE
  5
2BB
100
AcDbEntity
  8
0
  6
CONTINUOUS
 62
               4
100
AcDbLine
 10
-4.3000000000000114
 20
1.4000000000000057
 30
0.0
 11
-4.3000000000000114
 21
3.5999999999999943
 31
0.0
  0
ARC
  5
2BC
100
AcDbEntity
  8
0
  6
CONTINUOUS
 62
               4
100
AcDbCircle
 10
-4.1008966664051627
 20
1.3991033335948089
 30
0.0
 40
1.3991036209254675
100
AcDbArc
 50
179.96327991479848
 51
270.03672008520033
  0
ARC
  5
2BD
100
AcDbEntity
  8
0
  6
CONTINUOUS
 62
               4
100
AcDbCircle
 10
-4.1008966599537757
 20
1.3991033400461959
 30
0.0
 40
0.1991053590856348
100
AcDbArc
 50
179.74197075907335
 51
270.25802924092562
  0
LINE
  5
2BE
100
AcDbEntity
  8
0
  6
CONTINUOUS
 62
               4
100
AcDbLine
 10
-4.0999999999999659
 20
0.0
 30
0.0
 11
3.0
 21
0.0
 31
0.0
  0
LINE
  5
2BF
100
AcDbEntity
  8
0
  6
CONTINUOUS
 62
               4
100
AcDbLine
 10
-4.0999999999999659
 20
1.2000000000000171
 30
0.0
 11
3.0
 21
1.2000000000000171
 31
0.0
  0
LINE
  5
2C0
100
AcDbEntity
  8
0
  6
CONTINUOUS
 62
               4
100
AcDbLine
 10
3.0
 20
0.0
 30
0.0
 11
3.0
 21
1.2000000000000171
 31
0.0
  0
ARC
  5
2C1
100
AcDbEntity
  8
0
  6
CONTINUOUS
 62
               4
100
AcDbCircle
 10
-6.5847799240333984
 20
3.2665835360522806
 30
0.0
 40
0.6147802009733803
100
AcDbArc
 50
286.12836199114588
 51
359.94561607879228
  0
ARC
  5
2C2
100
AcDbEntity
  8
0
  6
CONTINUOUS
 62
               4
100
AcDbCircle
 10
-8.8161606354035484
 20
3.2652966087315747
 30
0.0
 40
0.6138397676001843
100
AcDbArc
 50
179.93434547259068
 51
253.74327317895529
  0
ARC
  5
2C3
100
AcDbEntity
  8
0
  6
CONTINUOUS
 62
               4
100
AcDbCircle
 10
-7.700999999999965
 20
7.1068760988772226
 30
0.0
 40
4.6140039015589682
100
AcDbArc
 50
253.80344035262561
 51
286.19655964737319
  0
ARC
  5
2C4
100
AcDbEntity
  8
0
  6
CONTINUOUS
 62
               4
100
AcDbCircle
 10
-13.184777973164046
 20
3.2665820679404476
 30
0.0
 40
0.6147782487131708
100
AcDbArc
 50
286.12822533946951
 51
359.94575273046883
  0
ARC
  5
2C5
100
AcDbEntity
  8
0
  6
CONTINUOUS
 62
               4
100
AcDbCircle
 10
-15.416158681253251
 20
3.265298072688239
 30
0.0
 40
0.613841720073419
100
AcDbArc
 50
179.93448232673219
 51
253.74313632481389
  0
ARC
  5
2C6
100
AcDbEntity
  8
0
  6
CONTINUOUS
 62
               4
100
AcDbCircle
 10
-14.300999999999988
 20
7.1068760989089697
 30
0.0
 40
4.6140039015894576
100
AcDbArc
 50
253.80344035273558
 51
286.19655964726314
  0
ARC
  5
2C7
100
AcDbEntity
  8
0
  6
CONTINUOUS
 62
               4
100
AcDbCircle
 10
-17.900056684609865
 20
1.4000566846098934
 30
0.0
 40
1.4000566857574084
100
AcDbArc
 50
270.00231975529556
 51
359.99768024470291
  0
ARC
  5
2C8
100
AcDbEntity
  8
0
  6
CONTINUOUS
 62
               4
100
AcDbCircle
 10
-16.30006664106736
 20
3.6000666410673716
 30
0.0
 40
0.1999333700389205
100
AcDbArc
 50
89.980902377767208
 51
180.01909762223218
  0
ARC
  5
2C9
100
AcDbEntity
  8
0
  6
CONTINUOUS
 62
               4
100
AcDbCircle
 10
-5.7008844716972931
 20
3.5991155283026899
 30
0.0
 40
0.2008864188024893
100
AcDbArc
 50
0.2522652321918488
 51
89.747734767807131
  0
ARC
  5
2CA
100
AcDbEntity
  8
0
  6
CONTINUOUS
 62
               4
100
AcDbCircle
 10
-17.900058413382624
 20
1.4000584133826521
 30
0.0
 40
0.2000584219104543
100
AcDbArc
 50
270.01672931490481
 51
359.98327068509366
  0
LINE
  5
2CB
100
AcDbEntity
  8
0
  6
CONTINUOUS
 62
               4
100
AcDbLine
 10
-5.9699999999999704
 20
3.2660000000000196
 30
0.0
 11
-5.9699999999999704
 21
3.8000000000000114
 31
0.0
  0
LINE
  5
2CC
100
AcDbEntity
  8
0
  6
CONTINUOUS
 62
               4
100
AcDbLine
 10
-9.4300000000000068
 20
3.2660000000000196
 30
0.0
 11
-9.4300000000000068
 21
3.8000000000000114
 31
0.0
  0
LINE
  5
2CD
100
AcDbEntity
  8
0
  6
CONTINUOUS
 62
               4
100
AcDbLine
 10
-12.569999999999993
 20
3.2660000000000196
 30
0.0
 11
-12.569999999999993
 21
3.8000000000000114
 31
0.0
  0
LINE
  5
2CE
100
AcDbEntity
  8
0
  6
CONTINUOUS
 62
               4
100
AcDbLine
 10
-16.029999999999973
 20
3.2660000000000196
 30
0.0
 11
-16.029999999999973
 21
3.8000000000000114
 31
0.0
  0
LINE
  5
2CF
100
AcDbEntity
  8
0
  6
CONTINUOUS
 62
               4
100
AcDbLine
 10
-17.699999999999989
 20
1.4000000000000057
 30
0.0
 11
-17.699999999999989
 21
3.5999999999999943
 31
0.0
  0
LINE
  5
2D0
100
AcDbEntity
  8
0
  6
CONTINUOUS
 62
               4
100
AcDbLine
 10
-16.5
 20
1.4000000000000057
 30
0.0
 11
-16.5
 21
3.5999999999999943
 31
0.0
  0
LINE
  5
2D1
100
AcDbEntity
  8
0
  6
CONTINUOUS
 62
               4
100
AcDbLine
 10
-16.299999999999955
 20
3.8000000000000114
 30
0.0
 11
-5.6999999999999886
 21
3.8000000000000114
 31
0.0
  0
LINE
  5
2D2
100
AcDbEntity
  8
0
  6
CONTINUOUS
 62
               4
100
AcDbLine
 10
-25.0
 20
0.0
 30
0.0
 11
-25.0
 21
1.2000000000000171
 31
0.0
  0
LINE
  5
2D3
100
AcDbEntity
  8
0
  6
CONTINUOUS
 62
               4
100
AcDbLine
 10
-25.0
 20
0.0
 30
0.0
 11
-17.899999999999977
 21
0.0
 31
0.0
  0
LINE
  5
2D4
100
AcDbEntity
  8
0
  6
CONTINUOUS
 62
               4
100
AcDbLine
 10
-25.0
 20
1.2000000000000171
 30
0.0
 11
-17.899999999999977
 21
1.2000000000000171
 31
0.0
  0
LINE
  5
2D5
100
AcDbEntity
  8
0
  6
CENTER
 62
             200
100
AcDbLine
 10
-22.0
 20
-2.4438717557984688
 30
0.0
 11
-22.0
 21
3.8000000000000114
 31
0.0
  0
LINE
  5
2D6
100
AcDbEntity
  8
0
  6
CENTER
 62
             200
100
AcDbLine
 10
0.0
 20
-2.4438717557984688
 30
0.0
 11
0.0
 21
3.8000000000000114
 31
0.0
  0
ARC
  5
2D7
100
AcDbEntity
  8
0
  6
CONTINUOUS
 62
               4
100
AcDbCircle
 10
-16.300068323168489
 20
3.6000683231685287
 30
0.0
 40
1.3999316784987346
100
AcDbArc
 50
89.997203699822904
 51
180.00279630017653
  0
ARC
  5
2D8
100
AcDbEntity
  8
0
  6
CONTINUOUS
 62
               4
100
AcDbCircle
 10
-5.7008844620561376
 20
3.5991155379438453
 30
0.0
 40
1.4008847412629901
100
AcDbArc
 50
0.0361742439122946
 51
89.963825756087459
  0
LINE
  5
2D9
100
AcDbEntity
  8
0
  6
CONTINUOUS
 62
               7
100
AcDbLine
 10
-16.0
 20
39.900000000000006
 30
0.0
 11
-16.0
 21
6.5
 31
0.0
  0
LINE
  5
2DA
100
AcDbEntity
  8
0
  6
CONTINUOUS
 62
               7
100
AcDbLine
 10
-6.0
 20
39.900000000000006
 30
0.0
 11
-6.0
 21
5.4000000000000057
 31
0.0
  0
LINE
  5
2DB
100
AcDbEntity
  8
0
  6
CENTER
 62
               2
100
AcDbLine
 10
-13.0
 20
32.000000000000014
 30
0.0
 11
-9.0
 21
32.000000000000014
 31
0.0
  0
LINE
  5
2DC
100
AcDbEntity
  8
0
  6
CONTINUOUS
 62
               7
100
AcDbLine
 10
-15.599999999999994
 20
5.0
 30
0.0
 11
-6.3999999999999773
 21
5.0
 31
0.0
  0
LINE
  5
2DD
100
AcDbEntity
  8
0
  6
CONTINUOUS
 62
               7
100
AcDbLine
 10
-16.049999999999983
 20
6.5
 30
0.0
 11
-12.699999999999989
 21
6.5
 31
0.0
  0
LINE
  5
2DE
100
AcDbEntity
  8
0
  6
CONTINUOUS
 62
               7
100
AcDbLine
 10
-12.5
 20
6.3000000000000114
 30
0.0
 11
-12.5
 21
5.2000000000000171
 31
0.0
  0
LINE
  5
2DF
100
AcDbEntity
  8
0
  6
CONTINUOUS
 62
               7
100
AcDbLine
 10
-12.549999999999983
 20
5.9699999999999989
 30
0.0
 11
-12.549999999999983
 21
6.4399999999999977
 31
0.0
  0
LINE
  5
2E0
100
AcDbEntity
  8
0
  6
CONTINUOUS
 62
               7
100
AcDbLine
 10
-16.049999999999983
 20
5.9699999999999989
 30
0.0
 11
-16.049999999999983
 21
6.5
 31
0.0
  0
LINE
  5
2E1
100
AcDbEntity
  8
0
  6
CONTINUOUS
 62
               7
100
AcDbLine
 10
-16.0
 20
5.7700000000000102
 30
0.0
 11
-16.0
 21
5.4000000000000057
 31
0.0
  0
ARC
  5
2E2
100
AcDbEntity
  8
0
  6
CONTINUOUS
 62
               7
100
AcDbCircle
 10
-6.4000289919349598
 20
5.4000289919349598
 30
0.0
 40
0.4000289929855506
100
AcDbArc
 50
270.00415248780246
 51
359.9958475121951
  0
ARC
  5
2E3
100
AcDbEntity
  8
0
  6
CONTINUOUS
 62
               7
100
AcDbCircle
 10
-14.294999999999987
 20
8.4000340043866402
 30
0.0
 40
3.1971731429200378
100
AcDbArc
 50
241.51140199559862
 51
298.48859800440022
  0
ARC
  5
2E4
100
AcDbEntity
  8
0
  6
CONTINUOUS
 62
               7
100
AcDbCircle
 10
-12.300016783684242
 20
5.1999832163157436
 30
0.0
 40
0.1999832170200287
100
AcDbArc
 50
179.99519142511818
 51
270.0048085748798
  0
ARC
  5
2E5
100
AcDbEntity
  8
0
  6
CONTINUOUS
 62
               7
100
AcDbCircle
 10
-12.700010682136053
 20
6.2999893178639468
 30
0.0
 40
0.2000106824213093
100
AcDbArc
 50
0.0030600431187336
 51
89.996939956878265
  0
ARC
  5
2E6
100
AcDbEntity
  8
0
  6
CONTINUOUS
 62
               7
100
AcDbCircle
 10
-12.976445156839645
 20
5.963205090801921
 30
0.0
 40
0.4264992879044646
100
AcDbArc
 50
298.94996978217108
 51
0.9128645741037794
  0
ARC
  5
2E7
100
AcDbEntity
  8
0
  6
CONTINUOUS
 62
               7
100
AcDbCircle
 10
-15.625943992559655
 20
5.9670602150296759
 30
0.0
 40
0.4240661974054504
100
AcDbArc
 50
179.60280111535411
 51
242.76714820211964
  0
ARC
  5
2E8
100
AcDbEntity
  8
0
  6
CONTINUOUS
 62
               7
100
AcDbCircle
 10
-15.600012206088252
 20
5.3999877939117198
 30
0.0
 40
0.3999877940979543
100
AcDbArc
 50
179.99825155328804
 51
270.00174844670897
  0
LINE
  5
2E9
100
AcDbEntity
  8
0
  6
CENTER
 62
               2
100
AcDbLine
 10
-13.307660424194353
 20
25.500000000000014
 30
0.0
 11
-8.6923395758056472
 21
25.500000000000014
 31
0.0
  0
LINE
  5
2EA
100
AcDbEntity
  8
0
  6
CONTINUOUS
 62
               7
100
AcDbLine
 10
-6.0
 20
10.0
 30
0.0
 11
-15.999999999999972
 21
10.0
 31
0.0
  0
LINE
  5
2EB
100
AcDbEntity
  8
0
  6
CONTINUOUS
 62
               7
100
AcDbLine
 10
-6.0
 20
28.200000000000031
 30
0.0
 11
-15.999999999999972
 21
28.200000000000031
 31
0.0
  0
CIRCLE
  5
2EC
100
AcDbEntity
  8
0
  6
CONTINUOUS
 62
               7
100
AcDbCircle
 10
-7.2999999999999829
 20
23.900000000000034
 30
0.0
 40
1.0
  0
LINE
  5
2ED
100
AcDbEntity
  8
0
  6
CENTER
 62
               2
100
AcDbLine
 10
-7.2999999999999829
 20
22.241795658711851
 30
0.0
 11
-7.2999999999999829
 21
25.550745803814308
 31
0.0
  0
LINE
  5
2EE
100
AcDbEntity
  8
0
  6
CENTER
 62
               2
100
AcDbLine
 10
-5.7858293132156291
 20
23.900000000000034
 30
0.0
 11
-8.7477988131531674
 21
23.900000000000034
 31
0.0
  0
CIRCLE
  5
2EF
100
AcDbEntity
  8
0
  6
CONTINUOUS
 62
               7
100
AcDbCircle
 10
-14.699999999999989
 20
14.300000000000011
 30
0.0
 40
1.0
  0
LINE
  5
2F0
100
AcDbEntity
  8
0
  6
CENTER
 62
               2
100
AcDbLine
 10
-13.109583850853738
 20
14.300000000000011
 30
0.0
 11
-16.159835173536891
 21
14.300000000000011
 31
0.0
  0
LINE
  5
2F1
100
AcDbEntity
  8
0
  6
CENTER
 62
               2
100
AcDbLine
 10
-14.699999999999989
 20
12.799538601437746
 30
0.0
 11
-14.699999999999989
 21
15.781575310886097
 31
0.0
  0
CIRCLE
  5
2F2
100
AcDbEntity
  8
0
  6
CONTINUOUS
 62
               2
100
AcDbCircle
 10
-11.0
 20
19.100000000000023
 30
0.0
 40
1.5
  0
CIRCLE
  5
2F3
100
AcDbEntity
  8
0
  6
CONTINUOUS
 62
               7
100
AcDbCircle
 10
-11.0
 20
19.100000000000023
 30
0.0
 40
1.25
  0
CIRCLE
  5
2F4
100
AcDbEntity
  8
0
  6
CONTINUOUS
 62
               7
100
AcDbCircle
 10
-11.0
 20
25.500000000000014
 30
0.0
 40
1.25
  0
CIRCLE
  5
2F5
100
AcDbEntity
  8
0
  6
CONTINUOUS
 62
               7
100
AcDbCircle
 10
-11.0
 20
12.700000000000017
 30
0.0
 40
1.25
  0
CIRCLE
  5
2F6
100
AcDbEntity
  8
0
  6
CONTINUOUS
 62
               2
100
AcDbCircle
 10
-11.0
 20
25.500000000000014
 30
0.0
 40
1.5
  0
CIRCLE
  5
2F7
100
AcDbEntity
  8
0
  6
CONTINUOUS
 62
               2
100
AcDbCircle
 10
-11.0
 20
12.700000000000017
 30
0.0
 40
1.5
  0
LINE
  5
2F8
100
AcDbEntity
  8
0
  6
CENTER
 62
               2
100
AcDbLine
 10
-8.6923395758056472
 20
12.700000000000017
 30
0.0
 11
-13.307660424194353
 21
12.700000000000017
 31
0.0
  0
LINE
  5
2F9
100
AcDbEntity
  8
0
  6
CENTER
 62
               2
100
AcDbLine
 10
-8.6923395758056472
 20
19.100000000000023
 30
0.0
 11
-13.307660424194353
 21
19.100000000000023
 31
0.0
  0
LINE
  5
2FA
100
AcDbEntity
  8
0
  6
CENTER
 62
               2
100
AcDbLine
 10
-11.0
 20
65.643270813119187
 30
0.0
 11
-11.0
 21
2.7920000000000158
 31
0.0
  0
LINE
  5
2FB
100
AcDbEntity
  8
0
  6
CONTINUOUS
 62
               4
100
AcDbLine
 10
-6.0
 20
62.400000000000006
 30
0.0
 11
-16.0
 21
62.400000000000006
 31
0.0
  0
LINE
  5
2FC
100
AcDbEntity
  8
0
  6
CONTINUOUS
 62
               4
100
AcDbLine
 10
-6.0
 20
60.800000000000011
 30
0.0
 11
-9.1999999999999886
 21
60.800000000000011
 31
0.0
  0
LINE
  5
2FD
100
AcDbEntity
  8
0
  6
CONTINUOUS
 62
               4
100
AcDbLine
 10
-9.1999999999999886
 20
62.300000000000011
 30
0.0
 11
-15.5
 21
62.300000000000011
 31
0.0
  0
LINE
  5
2FE
100
AcDbEntity
  8
0
  6
CONTINUOUS
 62
               4
100
AcDbLine
 10
-9.1999999999999886
 20
62.300000000000011
 30
0.0
 11
-9.1999999999999886
 21
60.800000000000011
 31
0.0
  0
ARC
  5
2FF
100
AcDbEntity
  8
0
  6
CONTINUOUS
 62
               4
100
AcDbCircle
 10
-15.5
 20
61.800000000000011
 30
0.0
 40
0.5
100
AcDbArc
 50
89.999999999999815
 51
179.99999999999963
  0
LINE
  5
300
100
AcDbEntity
  8
0
  6
CONTINUOUS
 62
               4
100
AcDbLine
 10
-6.0
 20
61.800000000000011
 30
0.0
 11
-9.1999999999999886
 21
61.800000000000011
 31
0.0
  0
ARC
  5
301
100
AcDbEntity
  8
0
  6
CONTINUOUS
 62
               4
100
AcDbCircle
 10
-6.7959048533417672
 20
61.80009514665818
 30
0.0
 40
0.5999048608870732
100
AcDbArc
 50
359.99091272245295
 51
90.009087277546172
  0
ARC
  5
302
100
AcDbEntity
  8
0
  6
CONTINUOUS
 62
               4
100
AcDbCircle
 10
-8.5970880052370262
 20
61.801088005237006
 30
0.0
 40
0.5989129830170392
100
AcDbArc
 50
89.895914524772735
 51
180.10408547522667
  0
CIRCLE
  5
303
100
AcDbEntity
  8
0
  6
CONTINUOUS
 62
               7
100
AcDbCircle
 10
-11.000018310546864
 20
32.000018310546878
 30
0.0
 40
0.8999999761581421
  0
LINE
  5
304
100
AcDbEntity
  8
0
  6
CONTINUOUS
 62
               4
100
AcDbLine
 10
-16.0
 20
62.400000000000006
 30
0.0
 11
-16.0
 21
39.900000000000006
 31
0.0
  0
LINE
  5
305
100
AcDbEntity
  8
0
  6
CONTINUOUS
 62
               4
100
AcDbLine
 10
-6.0
 20
62.400000000000006
 30
0.0
 11
-6.0
 21
39.900000000000006
 31
0.0
  0
LINE
  5
306
100
AcDbEntity
  8
0
  6
CONTINUOUS
 62
               7
100
AcDbLine
 10
-16.0
 20
39.900000000000006
 30
0.0
 11
-6.0
 21
39.900000000000006
 31
0.0
  0
ENDBLK
  5
307
100
AcDbEntity
  8
0
100
AcDbBlockEnd
  0
ENDSEC
  0
SECTION
  2
ENTITIES
  0
INSERT
  5
308
100
AcDbEntity
  8
0
  6
ByBlock
100
AcDbBlockReference
  2
EA10SF5-6
 10
-56.492391466344714
 20
24.480355773562223
 30
0.0
  0
INSERT
  5
309
100
AcDbEntity
  8
0
  6
ByBlock
100
AcDbBlockReference
  2
EA10SF5-5
 10
3.5076085336553007
 20
24.480355773562252
 30
0.0
 50
359.99999979016627
  0
INSERT
  5
30A
100
AcDbEntity
  8
0
  6
ByBlock
100
AcDbBlockReference
  2
EA10SF5-4
 10
66.307608533655284
 20
24.480355773562252
 30
0.0
  0
INSERT
  5
30B
100
AcDbEntity
  8
0
  6
ByBlock
100
AcDbBlockReference
  2
EA10SF5-1
 10
66.307608533655284
 20
-104.71964626094294
 30
0.0
  0
INSERT
  5
30C
100
AcDbEntity
  8
0
  6
ByBlock
100
AcDbBlockReference
  2
EA10SF5-2
 10
3.5076085336553007
 20
-104.71964626094294
 30
0.0
  0
INSERT
  5
30D
100
AcDbEntity
  8
0
  6
ByBlock
100
AcDbBlockReference
  2
EA10SF5-3
 10
-56.492391466344714
 20
-104.71964626094297
 30
0.0
  0
MTEXT
  5
30E
100
AcDbEntity
  8
0
  6
CONTINUOUS
 62
               7
100
AcDbMText
 10
115.52672595002113
 20
-126.0
 30
0.0
 40
6.3000001907348633
 41
0.0
 71
               4
 72
               1
  1
\W1.121;\A1;KOGANEI CORP.
  0
MTEXT
  5
30F
100
AcDbEntity
  8
0
  6
CONTINUOUS
 62
               7
100
AcDbMText
 10
135.2836095956161
 20
125.10000610351562
 30
0.0
 40
4.5
 41
0.0
 71
               4
 72
               1
  1
\W1.311;\A1;Ver. 1.0
  0
LINE
  5
310
100
AcDbEntity
  8
0
  6
CONTINUOUS
 62
               7
100
AcDbLine
 10
-109.25
 20
132.60000610351562
 30
0.0
 11
-109.25
 21
117.60000610351562
 31
0.0
  0
LINE
  5
311
100
AcDbEntity
  8
0
  6
CONTINUOUS
 62
               7
100
AcDbLine
 10
-194.25
 20
117.60000610351562
 30
0.0
 11
-109.25
 21
117.60000610351562
 31
0.0
  0
LINE
  5
312
100
AcDbEntity
  8
0
  6
CONTINUOUS
 62
               7
100
AcDbLine
 10
109.80000305175781
 20
117.60000610351562
 30
0.0
 11
194.80000305175781
 21
117.60000610351562
 31
0.0
  0
LINE
  5
313
100
AcDbEntity
  8
0
  6
CONTINUOUS
 62
               7
100
AcDbLine
 10
109.80000305175781
 20
132.60000610351562
 30
0.0
 11
109.80000305175781
 21
117.60000610351562
 31
0.0
  0
LINE
  5
314
100
AcDbEntity
  8
0
  6
CONTINUOUS
 62
               7
100
AcDbLine
 10
109.80000305175781
 20
-118.5
 30
0.0
 11
194.80000305175781
 21
-118.5
 31
0.0
  0
LINE
  5
315
100
AcDbEntity
  8
0
  6
CONTINUOUS
 62
               7
100
AcDbLine
 10
109.80000305175781
 20
-118.5
 30
0.0
 11
109.80000305175781
 21
-133.5
 31
0.0
  0
LINE
  5
316
100
AcDbEntity
  8
0
  6
CONTINUOUS
 62
               7
100
AcDbLine
 10
-194.25
 20
-133.5
 30
0.0
 11
194.80000305175781
 21
-133.5
 31
0.0
  0
LINE
  5
317
100
AcDbEntity
  8
0
  6
CONTINUOUS
 62
               7
100
AcDbLine
 10
-194.25
 20
132.60000610351562
 30
0.0
 11
-194.25
 21
-133.5
 31
0.0
  0
LINE
  5
318
100
AcDbEntity
  8
0
  6
CONTINUOUS
 62
               7
100
AcDbLine
 10
194.80000305175781
 20
132.60000610351562
 30
0.0
 11
194.80000305175781
 21
-133.5
 31
0.0
  0
LINE
  5
319
100
AcDbEntity
  8
0
  6
CONTINUOUS
 62
               7
100
AcDbLine
 10
-194.25
 20
132.60000610351562
 30
0.0
 11
194.80000305175781
 21
132.60000610351562
 31
0.0
  0
MTEXT
  5
31A
100
AcDbEntity
  8
0
  6
CONTINUOUS
 62
               7
100
AcDbMText
 10
-185.68571430324732
 20
107.60000610351562
 30
0.0
 40
4.5
 41
0.0
 71
               4
 72
               1
  1
\W1.086;\A1;MODEL:EA10SF5-21-PL
  0
MTEXT
  5
31B
100
AcDbEntity
  8
0
  6
CONTINUOUS
 62
               1
100
AcDbMText
 10
-177.91666665526046
 20
125.10000610351562
 30
0.0
 40
4.5
 41
0.0
 71
               4
 72
               1
  1
\W1.111;\A1;EA･EB SERIES
  0
LINE
  5
31C
100
AcDbEntity
  8
0
  6
CONTINUOUS
 62
               7
100
AcDbLine
 10
-194.25
 20
-8.5999959309895786
 30
0.0
 11
194.80000305175781
 21
-8.5999959309895786
 31
0.0
  0
MTEXT
  5
31D
100
AcDbEntity
  8
0
  6
CONTINUOUS
 62
               7
100
AcDbMText
 10
-185.68571430324732
 20
-18.599995930989564
 30
0.0
 40
4.5
 41
0.0
 71
               4
 72
               1
  1
\W1.086;\A1;MODEL:EA10SF5-21-PS
  0
ENDSEC
  0
SECTION
  2
OBJECTS
  0
DICTIONARY
  5
19
100
AcDbDictionary
  3
ACAD_GROUP
350
1A
  3
ACAD_MLINESTYLE
350
1B
  0
DICTIONARY
  5
1A
102
{ACAD_REACTORS
330
19
102
}
100
AcDbDictionary
  0
DICTIONARY
  5
1B
102
{ACAD_REACTORS
330
19
102
}
100
AcDbDictionary
  3
STANDARD
350
1C
  0
MLINESTYLE
  5
1C
102
{ACAD_REACTORS
330
1B
102
}
100
AcDbMlineStyle
  2
Standard
 70
               0
  3

 62
               0
 51
90.0
 52
90.0
 71
               2
 49
0.5
 62
             256
  6
ByLayer
 49
-0.5
 62
             256
  6
ByLayer
  0
ENDSEC
  0
EOF
