  0
SECTION
  2
HEADER
  9
$ACADVER
  1
AC1012
  9
$DWGCODEPAGE
  3
dos932
  9
$INSBASE
 10
0.0
 20
0.0
 30
0.0
  9
$EXTMIN
 10
-281.25
 20
-195.0
 30
0.0
  9
$EXTMAX
 10
285.6319057062413
 20
195.5
 30
0.0
  9
$LIMMIN
 10
-281.25
 20
-195.0
  9
$LIMMAX
 10
285.6319057062413
 20
195.5
  9
$ORTHOMODE
 70
               0
  9
$REGENMODE
 70
               1
  9
$FILLMODE
 70
               1
  9
$QTEXTMODE
 70
               0
  9
$MIRRTEXT
 70
               1
  9
$DRAGMODE
 70
               2
  9
$LTSCALE
 40
1.0
  9
$OSMODE
 70
               0
  9
$ATTMODE
 70
               1
  9
$TEXTSIZE
 40
3.2000000476837158
  9
$TRACEWID
 40
0.05
  9
$TEXTSTYLE
  7
MX_NOTE_STANDARD
  9
$CLAYER
  8
0
  9
$CELTYPE
  6
CONTINUOUS
  9
$CECOLOR
 62
             256
  9
$CELTSCALE
 40
1.0
  9
$DELOBJ
 70
               1
  9
$DISPSILH
 70
               0
  9
$DIMSCALE
 40
1.0
  9
$DIMASZ
 40
2.5
  9
$DIMEXO
 40
1.5
  9
$DIMDLI
 40
3.75
  9
$DIMRND
 40
0.0
  9
$DIMDLE
 40
0.0
  9
$DIMEXE
 40
1.5
  9
$DIMTP
 40
0.0
  9
$DIMTM
 40
0.0
  9
$DIMTXT
 40
3.2000000476837158
  9
$DIMCEN
 40
2.5
  9
$DIMTSZ
 40
0.0
  9
$DIMTOL
 70
               0
  9
$DIMLIM
 70
               0
  9
$DIMTIH
 70
               0
  9
$DIMTOH
 70
               0
  9
$DIMSE1
 70
               0
  9
$DIMSE2
 70
               0
  9
$DIMTAD
 70
               1
  9
$DIMZIN
 70
               8
  9
$DIMBLK
  1

  9
$DIMASO
 70
               1
  9
$DIMSHO
 70
               1
  9
$DIMPOST
  1

  9
$DIMAPOST
  1

  9
$DIMALT
 70
               0
  9
$DIMALTD
 70
               4
  9
$DIMALTF
 40
0.03937007874016
  9
$DIMLFAC
 40
1.0
  9
$DIMTOFL
 70
               1
  9
$DIMTVP
 40
0.0
  9
$DIMTIX
 70
               0
  9
$DIMSOXD
 70
               0
  9
$DIMSAH
 70
               0
  9
$DIMBLK1
  1

  9
$DIMBLK2
  1

  9
$DIMSTYLE
  2
MXDIMSTYLE
  9
$DIMCLRD
 70
               0
  9
$DIMCLRE
 70
               0
  9
$DIMCLRT
 70
               0
  9
$DIMTFAC
 40
1.0
  9
$DIMGAP
 40
1.0
  9
$DIMJUST
 70
               0
  9
$DIMSD1
 70
               0
  9
$DIMSD2
 70
               0
  9
$DIMTOLJ
 70
               1
  9
$DIMTZIN
 70
               0
  9
$DIMALTZ
 70
               0
  9
$DIMALTTZ
 70
               0
  9
$DIMFIT
 70
               3
  9
$DIMUPT
 70
               1
  9
$DIMUNIT
 70
               2
  9
$DIMDEC
 70
               4
  9
$DIMTDEC
 70
               4
  9
$DIMALTU
 70
               2
  9
$DIMALTTD
 70
               4
  9
$DIMTXSTY
  7
MX_NOTE_STANDARD
  9
$DIMAUNIT
 70
               0
  9
$LUNITS
 70
               2
  9
$LUPREC
 70
               4
  9
$SKETCHINC
 40
0.1
  9
$FILLETRAD
 40
0.0
  9
$AUNITS
 70
               0
  9
$AUPREC
 70
               0
  9
$MENU
  1
acad
  9
$ELEVATION
 40
0.0
  9
$PELEVATION
 40
0.0
  9
$THICKNESS
 40
0.0
  9
$LIMCHECK
 70
               0
  9
$BLIPMODE
 70
               1
  9
$CHAMFERA
 40
0.0
  9
$CHAMFERB
 40
0.0
  9
$CHAMFERC
 40
0.0
  9
$CHAMFERD
 40
0.0
  9
$SKPOLY
 70
               0
  9
$TDCREATE
 40
2453378.356342593
  9
$TDUPDATE
 40
2453378.356342593
  9
$TDINDWG
 40
0.0000000000
  9
$TDUSRTIMER
 40
0.0000000000
  9
$USRTIMER
 70
               1
  9
$ANGBASE
 50
0.0
  9
$ANGDIR
 70
               0
  9
$PDMODE
 70
               0
  9
$PDSIZE
 40
0.0
  9
$PLINEWID
 40
0.0
  9
$COORDS
 70
               1
  9
$SPLFRAME
 70
               0
  9
$SPLINETYPE
 70
               6
  9
$SPLINESEGS
 70
               8
  9
$ATTDIA
 70
               0
  9
$ATTREQ
 70
               1
  9
$HANDLING
 70
               1
  9
$HANDSEED
  5
56D
  9
$SURFTAB1
 70
               6
  9
$SURFTAB2
 70
               6
  9
$SURFTYPE
 70
               6
  9
$SURFU
 70
               6
  9
$SURFV
 70
               6
  9
$UCSNAME
  2

  9
$UCSORG
 10
0.0
 20
0.0
 30
0.0
  9
$UCSXDIR
 10
1.0
 20
0.0
 30
0.0
  9
$UCSYDIR
 10
0.0
 20
1.0
 30
0.0
  9
$PUCSNAME
  2

  9
$PUCSORG
 10
0.0
 20
0.0
 30
0.0
  9
$PUCSXDIR
 10
1.0
 20
0.0
 30
0.0
  9
$PUCSYDIR
 10
0.0
 20
1.0
 30
0.0
  9
$USERI1
 70
               0
  9
$USERI2
 70
               0
  9
$USERI3
 70
               0
  9
$USERI4
 70
               0
  9
$USERI5
 70
               0
  9
$USERR1
 40
0.0
  9
$USERR2
 40
0.0
  9
$USERR3
 40
0.0
  9
$USERR4
 40
0.0
  9
$USERR5
 40
0.0
  9
$WORLDVIEW
 70
               1
  9
$SHADEDGE
 70
               3
  9
$SHADEDIF
 70
              70
  9
$TILEMODE
 70
               1
  9
$MAXACTVP
 70
              16
  9
$PINSBASE
 10
0.0
 20
0.0
 30
0.0
  9
$PLIMCHECK
 70
               0
  9
$PEXTMIN
 10
1.0000000000000000E+20
 20
1.0000000000000000E+20
 30
1.0000000000000000E+20
  9
$PEXTMAX
 10
-1.0000000000000000E+20
 20
-1.0000000000000000E+20
 30
-1.0000000000000000E+20
  9
$PLIMMIN
 10
0.0
 20
0.0
  9
$PLIMMAX
 10
12.0
 20
9.0
  9
$UNITMODE
 70
               0
  9
$VISRETAIN
 70
               0
  9
$PLINEGEN
 70
               1
  9
$PSLTSCALE
 70
               0
  9
$TREEDEPTH
 70
            3020
  9
$PICKSTYLE
 70
               1
  9
$CMLSTYLE
  2
Standard
  9
$CMLJUST
 70
               0
  9
$CMLSCALE
 40
1.0
  9
$SAVEIMAGES
 70
               0
  0
ENDSEC
  0
SECTION
  2
CLASSES
  0
CLASS
  1
LWPOLYLINE
  2
AcDbPolyline
  3
"AutoCAD"
 90
        0
280
               0
281
               1
  0
CLASS
  1
IMAGE
  2
AcDbRasterImage
  3
ISM
 90
      127
280
               0
281
               1
  0
CLASS
  1
OLE2FRAME
  2
AcDbOle2Frame
  3
""
 90
        0
280
               0
281
               1
  0
CLASS
  1
HATCH
  2
AcDbHatch
  3
"ACAD_SEDONA"
 90
        0
280
               0
281
               1
  0
CLASS
  1
DICTIONARYVAR
  2
AcDbDictionaryVar
  3
"AutoCAD"
 90
        0
280
               0
281
               0
  0
CLASS
  1
RASTERVARIABLES
  2
AcDbRasterVariables
  3
ISM
 90
        0
280
               0
281
               0
  0
CLASS
  1
IMAGEDEF
  2
AcDbRasterImageDef
  3
ISM
 90
        0
280
               0
281
               0
  0
CLASS
  1
IMAGEDEF_REACTOR
  2
AcDbRasterImageDefReactor
  3
ISM
 90
        1
280
               0
281
               0
  0
CLASS
  1
IDBUFFER
  2
AcDbIdBuffer
  3
"Acad"
 90
        0
280
               0
281
               0
  0
CLASS
  1
SPATIAL_FILTER
  2
AcDbSpatialFilter
  3
"Acad"
 90
        0
280
               0
281
               0
  0
CLASS
  1
XRECORD
  2
AcDbXrecord
  3
"<Built In>"
 90
        0
280
               0
281
               0
  0
CLASS
  1
SORTENTSTABLE
  2
AcDbSortentsTable
  3
"AutoCAD"
 90
        0
280
               0
281
               0
  0
CLASS
  1
LAYER_INDEX
  2
AcDbLayerIndex
  3
"Acad"
 90
        0
280
               0
281
               0
  0
CLASS
  1
SPATIAL_INDEX
  2
AcDbSpatialIndex
  3
"Acad"
 90
        0
280
               0
281
               0
  0
CLASS
  1
OBJECT_PTR
  2
CAseDLPNTableRecord
  3
"ASE-LPNTableRecord"
 90
        1
280
               0
281
               0
  0
CLASS
  1
LAYOUT
  2
AcDbLayout
  3
"AutoCAD 2000"
 90
        1
280
               0
281
               0
  0
CLASS
  1
PLOTSETTINGS
  2
AcDbPlotSettings
  3
"AutoCAD 2000"
 90
        1
280
               0
281
               0
  0
CLASS
  1
ACDBDICTIONARYWDFLT
  2
AcDbDictionaryWithDefault
  3
"AutoCAD 2000"
 90
        1
280
               0
281
               0
  0
CLASS
  1
ACDBPLACEHOLDER
  2
AcDbPlaceHolder
  3
"AutoCAD 2000"
 90
        1
280
               0
281
               0
  0
ENDSEC
  0
SECTION
  2
TABLES
  0
TABLE
  2
VPORT
  5
7
100
AcDbSymbolTable
 70
               1
  0
VPORT
  5
15
100
AcDbSymbolTableRecord
100
AcDbViewportTableRecord
  2
*ACTIVE
 70
               0
 10
0.0
 20
0.0
 11
1.0
 21
1.0
 12
2.1909528531206206
 22
0.25
 13
0.0
 23
0.0
 14
1.0
 24
1.0
 15
0.0
 25
0.0
 16
0.0
 26
0.0
 36
1.0
 17
0.0
 27
0.0
 37
0.0
 40
394.40500000000003
 41
1.7320508075688772
 42
50.0
 43
0.0
 44
0.0
 50
0.0
 51
0.0
 71
               0
 72
             100
 73
               1
 74
               1
 75
               0
 76
               0
 77
               0
 78
               0
  0
ENDTAB
  0
TABLE
  2
LTYPE
  5
4
100
AcDbSymbolTable
 70
               5
  0
LTYPE
  5
11
100
AcDbSymbolTableRecord
100
AcDbLinetypeTableRecord
  2
BYBLOCK
 70
              64
  3

 72
              65
 73
               0
 40
0.0
  0
LTYPE
  5
12
100
AcDbSymbolTableRecord
100
AcDbLinetypeTableRecord
  2
BYLAYER
 70
              64
  3

 72
              65
 73
               0
 40
0.0
  0
LTYPE
  5
13
100
AcDbSymbolTableRecord
100
AcDbLinetypeTableRecord
  2
CONTINUOUS
 70
              64
  3
Solid line
 72
              65
 73
               0
 40
0.0
  0
LTYPE
  5
31
100
AcDbSymbolTableRecord
100
AcDbLinetypeTableRecord
  2
PHANTOM
 70
              64
  3
Phantom ______  __  __  ______  __  __  ______
 72
              65
 73
               6
 40
30.0
 49
20.0
 74
               0
 49
-2.0
 74
               0
 49
2.0
 74
               0
 49
-2.0
 74
               0
 49
2.0
 74
               0
 49
-2.0
 74
               0
  0
LTYPE
  5
83
100
AcDbSymbolTableRecord
100
AcDbLinetypeTableRecord
  2
CENTER
 70
              64
  3
Center ____ _ ____ _ ____ _ ____ _ ____ _ ____
 72
              65
 73
               4
 40
26.0
 49
20.0
 74
               0
 49
-2.0
 74
               0
 49
2.0
 74
               0
 49
-2.0
 74
               0
  0
ENDTAB
  0
TABLE
  2
LAYER
  5
2
100
AcDbSymbolTable
 70
               2
  0
LAYER
  5
14
100
AcDbSymbolTableRecord
100
AcDbLayerTableRecord
  2
0
 70
               0
 62
               7
  6
CONTINUOUS
  0
LAYER
  5
1D
100
AcDbSymbolTableRecord
100
AcDbLayerTableRecord
  2
DEFPOINTS
 70
               0
 62
               7
  6
CONTINUOUS
  0
ENDTAB
  0
TABLE
  2
STYLE
  5
3
100
AcDbSymbolTable
 70
               1
  0
STYLE
  5
17
100
AcDbSymbolTableRecord
100
AcDbTextStyleTableRecord
  2
MX_NOTE_STANDARD
 70
               0
 40
0.0
 41
1.0
 50
0.0
 71
               0
 42
3.2000000476837158
  3
txt.shx
  4
extfont.shx
  0
ENDTAB
  0
TABLE
  2
VIEW
  5
5
100
AcDbSymbolTable
 70
               0
  0
ENDTAB
  0
TABLE
  2
UCS
  5
6
100
AcDbSymbolTable
 70
               0
  0
ENDTAB
  0
TABLE
  2
APPID
  5
8
100
AcDbSymbolTable
 70
               1
  0
APPID
  5
16
100
AcDbSymbolTableRecord
100
AcDbRegAppTableRecord
  2
ACAD
 70
               0
  0
ENDTAB
  0
TABLE
  2
DIMSTYLE
  5
9
100
AcDbSymbolTable
 70
               1
  0
DIMSTYLE
105
18
100
AcDbSymbolTableRecord
100
AcDbDimStyleTableRecord
  2
MXDIMSTYLE
 70
               0
  3

  4

  5

  6

  7

 40
1.0
 41
2.5
 42
1.5
 43
3.75
 44
1.5
 45
0.0
 46
0.0
 47
0.0
 48
0.0
 71
               0
 72
               0
 73
               0
 74
               0
 75
               0
 76
               0
 77
               1
 78
               8
140
3.2000000476837158
141
2.5
142
0.0
143
0.03937007874016
144
1.0
145
0.0
146
1.0
147
1.0
170
               0
171
               4
172
               1
173
               0
174
               0
175
               0
176
               0
177
               0
178
               0
270
               2
271
               4
272
               4
273
               2
274
               4
275
               0
280
               0
281
               0
282
               0
283
               1
284
               0
285
               0
286
               0
287
               3
288
               1
340
17
  0
ENDTAB
  0
TABLE
  2
BLOCK_RECORD
  5
1
100
AcDbSymbolTable
 70
              13
  0
BLOCK_RECORD
  5
A
100
AcDbSymbolTableRecord
100
AcDbBlockTableRecord
  2
*MODEL_SPACE
  0
BLOCK_RECORD
  5
B
100
AcDbSymbolTableRecord
100
AcDbBlockTableRecord
  2
*PAPER_SPACE
  0
BLOCK_RECORD
  5
1E
100
AcDbSymbolTableRecord
100
AcDbBlockTableRecord
  2
EB10A1-1
  0
BLOCK_RECORD
  5
1F
100
AcDbSymbolTableRecord
100
AcDbBlockTableRecord
  2
EB10A1-2
  0
BLOCK_RECORD
  5
20
100
AcDbSymbolTableRecord
100
AcDbBlockTableRecord
  2
EB10A1-3
  0
BLOCK_RECORD
  5
21
100
AcDbSymbolTableRecord
100
AcDbBlockTableRecord
  2
EB10A1-4
  0
BLOCK_RECORD
  5
22
100
AcDbSymbolTableRecord
100
AcDbBlockTableRecord
  2
EB10A1-5
  0
BLOCK_RECORD
  5
23
100
AcDbSymbolTableRecord
100
AcDbBlockTableRecord
  2
EB10A1-6
  0
BLOCK_RECORD
  5
24
100
AcDbSymbolTableRecord
100
AcDbBlockTableRecord
  2
EB10A1-7
  0
BLOCK_RECORD
  5
25
100
AcDbSymbolTableRecord
100
AcDbBlockTableRecord
  2
EB10A1-8
  0
BLOCK_RECORD
  5
26
100
AcDbSymbolTableRecord
100
AcDbBlockTableRecord
  2
EB10A1-9
  0
BLOCK_RECORD
  5
27
100
AcDbSymbolTableRecord
100
AcDbBlockTableRecord
  2
EB10A1-10
  0
BLOCK_RECORD
  5
28
100
AcDbSymbolTableRecord
100
AcDbBlockTableRecord
  2
EB10A1-11
  0
BLOCK_RECORD
  5
29
100
AcDbSymbolTableRecord
100
AcDbBlockTableRecord
  2
EB10A1-12
  0
BLOCK_RECORD
  5
54D
100
AcDbSymbolTableRecord
100
AcDbBlockTableRecord
  2
_OPEN30
  0
ENDTAB
  0
ENDSEC
  0
SECTION
  2
BLOCKS
  0
BLOCK
  5
D
100
AcDbEntity
  8
0
100
AcDbBlockBegin
  2
*MODEL_SPACE
 70
               0
 10
0.0
 20
0.0
 30
0.0
  3
*MODEL_SPACE
  1

  0
ENDBLK
  5
E
100
AcDbEntity
  8
0
100
AcDbBlockEnd
  0
BLOCK
  5
F
100
AcDbEntity
 67
               1
  8
0
100
AcDbBlockBegin
  2
*PAPER_SPACE
 70
               0
 10
0.0
 20
0.0
 30
0.0
  3
*PAPER_SPACE
  1

  0
ENDBLK
  5
10
100
AcDbEntity
 67
               1
  8
0
100
AcDbBlockEnd
  0
BLOCK
  5
2A
100
AcDbEntity
  8
0
100
AcDbBlockBegin
  2
EB10A1-1
 70
               0
 10
0.0
 20
0.0
 30
0.0
  3
EB10A1-1
  1

  0
ARC
  5
2B
100
AcDbEntity
  8
0
  6
CONTINUOUS
 62
               4
100
AcDbCircle
 10
-4.0311974626366975
 20
7.6041887528383185
 30
0.0
 40
0.5011988548874781
100
AcDbArc
 50
270.1368866551544
 51
359.86311334484418
  0
ARC
  5
2C
100
AcDbEntity
  8
0
  6
CONTINUOUS
 62
               4
100
AcDbCircle
 10
-12.568802613657255
 20
7.6041887528383185
 30
0.0
 40
0.5011988548874781
100
AcDbArc
 50
180.13688665515463
 51
269.86311334484435
  0
LINE
  5
2D
100
AcDbEntity
  8
0
  6
CONTINUOUS
 62
               4
100
AcDbLine
 10
-12.570000038146958
 20
7.1029913283486152
 30
0.0
 11
-4.0300000381469943
 21
7.1029913283486152
 31
0.0
  0
LINE
  5
2E
100
AcDbEntity
  8
0
  6
CONTINUOUS
 62
               4
100
AcDbLine
 10
-12.800000038146976
 20
24.402000000000065
 30
0.0
 11
-11.050000038146976
 21
24.402000000000065
 31
0.0
  0
ARC
  5
2F
100
AcDbEntity
  8
0
  6
CONTINUOUS
 62
               4
100
AcDbCircle
 10
-12.569999122592691
 20
23.901999084445798
 30
0.0
 40
0.5000009155550945
100
AcDbArc
 50
90.000104914596918
 51
179.99989508540253
  0
ARC
  5
30
100
AcDbEntity
  8
0
  6
CONTINUOUS
 62
               4
100
AcDbCircle
 10
-12.799989356973668
 20
23.901989318826757
 30
0.0
 40
0.5000106812873828
100
AcDbArc
 50
90.001223946153175
 51
179.9987760538454
  0
LINE
  5
32
100
AcDbEntity
  8
0
  6
PHANTOM
 62
             200
100
AcDbLine
 10
-9.8000000381469761
 20
12.402000000000037
 30
0.0
 11
-9.8000000381469761
 21
10.402000000000037
 31
0.0
  0
LINE
  5
33
100
AcDbEntity
  8
0
  6
PHANTOM
 62
             200
100
AcDbLine
 10
-6.8000000381469761
 20
12.402000000000037
 30
0.0
 11
-6.8000000381469761
 21
10.402000000000037
 31
0.0
  0
LINE
  5
34
100
AcDbEntity
  8
0
  6
PHANTOM
 62
             200
100
AcDbLine
 10
-9.8000000381469761
 20
10.402000000000037
 30
0.0
 11
-6.8000000381469761
 21
10.402000000000037
 31
0.0
  0
LINE
  5
35
100
AcDbEntity
  8
0
  6
PHANTOM
 62
             200
100
AcDbLine
 10
-9.8000000381469761
 20
12.402000000000037
 30
0.0
 11
-6.8000000381469761
 21
12.402000000000037
 31
0.0
  0
LINE
  5
36
100
AcDbEntity
  8
0
  6
CONTINUOUS
 62
               4
100
AcDbLine
 10
-10.500000038146965
 20
22.952000000000048
 30
0.0
 11
-8.6000000381469874
 21
22.952000000000048
 31
0.0
  0
LINE
  5
37
100
AcDbEntity
  8
0
  6
CONTINUOUS
 62
               4
100
AcDbLine
 10
-10.500000038146965
 20
23.152000000000065
 30
0.0
 11
-8.6000000381469874
 21
23.152000000000065
 31
0.0
  0
LINE
  5
38
100
AcDbEntity
  8
0
  6
CONTINUOUS
 62
               4
100
AcDbLine
 10
-9.0500000381469761
 20
21.052000000000042
 30
0.0
 11
-9.0500000381469761
 21
20.752000000000059
 31
0.0
  0
LINE
  5
39
100
AcDbEntity
  8
0
  6
CONTINUOUS
 62
               4
100
AcDbLine
 10
-8.6000000381469874
 20
23.152000000000065
 30
0.0
 11
-8.6000000381469874
 21
21.052000000000042
 31
0.0
  0
LINE
  5
3A
100
AcDbEntity
  8
0
  6
CONTINUOUS
 62
               4
100
AcDbLine
 10
-11.150000038146942
 20
24.402000000000065
 30
0.0
 11
-11.150000038146942
 21
22.902000000000065
 31
0.0
  0
LINE
  5
3B
100
AcDbEntity
  8
0
  6
CONTINUOUS
 62
               4
100
AcDbLine
 10
-11.050000038146976
 20
23.462000000000067
 30
0.0
 11
-10.720000038146992
 21
23.802000000000042
 31
0.0
  0
LINE
  5
3C
100
AcDbEntity
  8
0
  6
CONTINUOUS
 62
               4
100
AcDbLine
 10
-12.150000038146942
 20
22.902000000000065
 30
0.0
 11
-11.150000038146942
 21
22.902000000000065
 31
0.0
  0
LINE
  5
3D
100
AcDbEntity
  8
0
  6
CONTINUOUS
 62
               4
100
AcDbLine
 10
-12.150000038146942
 20
22.902000000000065
 30
0.0
 11
-12.150000038146942
 21
20.902000000000065
 31
0.0
  0
LINE
  5
3E
100
AcDbEntity
  8
0
  6
CONTINUOUS
 62
               4
100
AcDbLine
 10
-12.050000038146976
 20
21.002000000000059
 30
0.0
 11
-12.050000038146976
 21
22.802000000000042
 31
0.0
  0
LINE
  5
3F
100
AcDbEntity
  8
0
  6
CONTINUOUS
 62
               4
100
AcDbLine
 10
-12.050000038146976
 20
22.802000000000042
 30
0.0
 11
-11.050000038146976
 21
22.802000000000042
 31
0.0
  0
LINE
  5
40
100
AcDbEntity
  8
0
  6
CONTINUOUS
 62
               4
100
AcDbLine
 10
-11.050000038146976
 20
21.002000000000059
 30
0.0
 11
-11.050000038146976
 21
19.502000000000059
 31
0.0
  0
LINE
  5
41
100
AcDbEntity
  8
0
  6
CONTINUOUS
 62
               4
100
AcDbLine
 10
-10.050000038146976
 20
21.052000000000042
 30
0.0
 11
-10.050000038146976
 21
20.752000000000059
 31
0.0
  0
LINE
  5
42
100
AcDbEntity
  8
0
  6
CONTINUOUS
 62
               4
100
AcDbLine
 10
-11.150000038146942
 20
20.902000000000065
 30
0.0
 11
-11.150000038146942
 21
19.402000000000065
 31
0.0
  0
CIRCLE
  5
43
100
AcDbEntity
  8
0
  6
CONTINUOUS
 62
               4
100
AcDbCircle
 10
-9.5500000381469761
 20
22.001984741210997
 30
0.0
 40
0.8499675393104553
  0
LINE
  5
44
100
AcDbEntity
  8
0
  6
CONTINUOUS
 62
               4
100
AcDbLine
 10
-12.150000038146942
 20
20.902000000000065
 30
0.0
 11
-11.150000038146942
 21
20.902000000000065
 31
0.0
  0
LINE
  5
45
100
AcDbEntity
  8
0
  6
CONTINUOUS
 62
               4
100
AcDbLine
 10
-10.500000038146965
 20
23.152000000000065
 30
0.0
 11
-10.500000038146965
 21
21.052000000000042
 31
0.0
  0
LINE
  5
46
100
AcDbEntity
  8
0
  6
CONTINUOUS
 62
               4
100
AcDbLine
 10
-12.050000038146976
 20
21.002000000000059
 30
0.0
 11
-11.050000038146976
 21
21.002000000000059
 31
0.0
  0
LINE
  5
47
100
AcDbEntity
  8
0
  6
CONTINUOUS
 62
               4
100
AcDbLine
 10
-10.050000038146976
 20
20.752000000000059
 30
0.0
 11
-9.0500000381469761
 21
20.752000000000059
 31
0.0
  0
LINE
  5
48
100
AcDbEntity
  8
0
  6
CONTINUOUS
 62
               4
100
AcDbLine
 10
-10.500000038146965
 20
21.052000000000042
 30
0.0
 11
-8.6000000381469874
 21
21.052000000000042
 31
0.0
  0
LINE
  5
49
100
AcDbEntity
  8
0
  6
CONTINUOUS
 62
               4
100
AcDbLine
 10
-11.050000038146976
 20
26.502000000000059
 30
0.0
 11
-11.050000038146976
 21
22.802000000000042
 31
0.0
  0
LINE
  5
4A
100
AcDbEntity
  8
0
  6
CONTINUOUS
 62
               4
100
AcDbLine
 10
-11.050000038146976
 20
26.502000000000059
 30
0.0
 11
-5.5500000381469761
 21
26.502000000000059
 31
0.0
  0
LINE
  5
4B
100
AcDbEntity
  8
0
  6
CONTINUOUS
 62
               4
100
AcDbLine
 10
-11.050000038146976
 20
25.502000000000059
 30
0.0
 11
-5.5500000381469761
 21
25.502000000000059
 31
0.0
  0
CIRCLE
  5
4C
100
AcDbEntity
  8
0
  6
CONTINUOUS
 62
               4
100
AcDbCircle
 10
-7.0500000381469761
 20
22.001984741210997
 30
0.0
 40
0.8499675393104553
  0
LINE
  5
4D
100
AcDbEntity
  8
0
  6
CONTINUOUS
 62
               4
100
AcDbLine
 10
-5.4500000381469533
 20
20.902000000000065
 30
0.0
 11
-4.4500000381469533
 21
20.902000000000065
 31
0.0
  0
LINE
  5
4E
100
AcDbEntity
  8
0
  6
CONTINUOUS
 62
               4
100
AcDbLine
 10
-5.4500000381469533
 20
22.902000000000065
 30
0.0
 11
-4.4500000381469533
 21
22.902000000000065
 31
0.0
  0
LINE
  5
4F
100
AcDbEntity
  8
0
  6
CONTINUOUS
 62
               4
100
AcDbLine
 10
-8.0000000381469647
 20
23.152000000000065
 30
0.0
 11
-6.1000000381469874
 21
23.152000000000065
 31
0.0
  0
LINE
  5
50
100
AcDbEntity
  8
0
  6
CONTINUOUS
 62
               4
100
AcDbLine
 10
-8.0000000381469647
 20
21.052000000000042
 30
0.0
 11
-6.1000000381469874
 21
21.052000000000042
 31
0.0
  0
LINE
  5
51
100
AcDbEntity
  8
0
  6
CONTINUOUS
 62
               4
100
AcDbLine
 10
-8.0000000381469647
 20
22.952000000000048
 30
0.0
 11
-6.1000000381469874
 21
22.952000000000048
 31
0.0
  0
LINE
  5
52
100
AcDbEntity
  8
0
  6
CONTINUOUS
 62
               4
100
AcDbLine
 10
-5.5500000381469761
 20
22.802000000000042
 30
0.0
 11
-4.5500000381469761
 21
22.802000000000042
 31
0.0
  0
LINE
  5
53
100
AcDbEntity
  8
0
  6
CONTINUOUS
 62
               4
100
AcDbLine
 10
-5.5500000381469761
 20
21.002000000000059
 30
0.0
 11
-4.5500000381469761
 21
21.002000000000059
 31
0.0
  0
LINE
  5
54
100
AcDbEntity
  8
0
  6
CONTINUOUS
 62
               4
100
AcDbLine
 10
-7.5500000381469761
 20
20.752000000000059
 30
0.0
 11
-6.5500000381469761
 21
20.752000000000059
 31
0.0
  0
LINE
  5
55
100
AcDbEntity
  8
0
  6
CONTINUOUS
 62
               4
100
AcDbLine
 10
-5.5500000381469761
 20
21.002000000000059
 30
0.0
 11
-5.5500000381469761
 21
19.502000000000059
 31
0.0
  0
LINE
  5
56
100
AcDbEntity
  8
0
  6
CONTINUOUS
 62
               4
100
AcDbLine
 10
-6.5500000381469761
 20
21.052000000000042
 30
0.0
 11
-6.5500000381469761
 21
20.752000000000059
 31
0.0
  0
LINE
  5
57
100
AcDbEntity
  8
0
  6
CONTINUOUS
 62
               4
100
AcDbLine
 10
-5.5900000381469965
 20
23.502000000000059
 30
0.0
 11
-5.8900000381469511
 21
23.802000000000042
 31
0.0
  0
LINE
  5
58
100
AcDbEntity
  8
0
  6
CONTINUOUS
 62
               4
100
AcDbLine
 10
-6.1000000381469874
 20
23.152000000000065
 30
0.0
 11
-6.1000000381469874
 21
21.052000000000042
 31
0.0
  0
LINE
  5
59
100
AcDbEntity
  8
0
  6
CONTINUOUS
 62
               4
100
AcDbLine
 10
-5.4500000381469533
 20
24.402000000000065
 30
0.0
 11
-5.4500000381469533
 21
22.902000000000065
 31
0.0
  0
LINE
  5
5A
100
AcDbEntity
  8
0
  6
CONTINUOUS
 62
               4
100
AcDbLine
 10
-5.4500000381469533
 20
20.902000000000065
 30
0.0
 11
-5.4500000381469533
 21
19.402000000000065
 31
0.0
  0
LINE
  5
5B
100
AcDbEntity
  8
0
  6
CONTINUOUS
 62
               4
100
AcDbLine
 10
-4.4500000381469533
 20
22.902000000000065
 30
0.0
 11
-4.4500000381469533
 21
20.902000000000065
 31
0.0
  0
LINE
  5
5C
100
AcDbEntity
  8
0
  6
CONTINUOUS
 62
               4
100
AcDbLine
 10
-4.5500000381469761
 20
21.002000000000059
 30
0.0
 11
-4.5500000381469761
 21
22.802000000000042
 31
0.0
  0
ARC
  5
5D
100
AcDbEntity
  8
0
  6
CONTINUOUS
 62
               4
100
AcDbCircle
 10
-4.0300009537012045
 20
23.901999084445798
 30
0.0
 40
0.5000009155550945
100
AcDbArc
 50
0.0001049145970977
 51
89.999895085402713
  0
LINE
  5
5E
100
AcDbEntity
  8
0
  6
CONTINUOUS
 62
               4
100
AcDbLine
 10
-7.5500000381469761
 20
21.052000000000042
 30
0.0
 11
-7.5500000381469761
 21
20.752000000000059
 31
0.0
  0
LINE
  5
5F
100
AcDbEntity
  8
0
  6
CONTINUOUS
 62
               4
100
AcDbLine
 10
-8.0000000381469647
 20
23.152000000000065
 30
0.0
 11
-8.0000000381469647
 21
21.052000000000042
 31
0.0
  0
LINE
  5
60
100
AcDbEntity
  8
0
  6
CONTINUOUS
 62
               4
100
AcDbLine
 10
-5.5500000381469761
 20
24.402000000000065
 30
0.0
 11
-3.8000000381469761
 21
24.402000000000065
 31
0.0
  0
ARC
  5
61
100
AcDbEntity
  8
0
  6
CONTINUOUS
 62
               4
100
AcDbCircle
 10
-3.7999954606243307
 20
23.902004577522682
 30
0.0
 40
0.4999954224983215
100
AcDbArc
 50
359.99947544974214
 51
90.000524550256856
  0
LINE
  5
62
100
AcDbEntity
  8
0
  6
CONTINUOUS
 62
               4
100
AcDbLine
 10
-11.050000038146976
 20
19.502000000000059
 30
0.0
 11
-5.5500000381469761
 21
19.502000000000059
 31
0.0
  0
LINE
  5
63
100
AcDbEntity
  8
0
  6
CONTINUOUS
 62
               4
100
AcDbLine
 10
-11.050000038146976
 20
24.502000000000059
 30
0.0
 11
-5.5500000381469761
 21
24.502000000000059
 31
0.0
  0
LINE
  5
64
100
AcDbEntity
  8
0
  6
CONTINUOUS
 62
               4
100
AcDbLine
 10
-11.020000038146947
 20
23.502000000000059
 30
0.0
 11
-5.5900000381469965
 21
23.502000000000059
 31
0.0
  0
LINE
  5
65
100
AcDbEntity
  8
0
  6
CONTINUOUS
 62
               4
100
AcDbLine
 10
-10.720000038146992
 20
23.802000000000042
 30
0.0
 11
-5.8900000381469511
 21
23.802000000000042
 31
0.0
  0
LINE
  5
66
100
AcDbEntity
  8
0
  6
CONTINUOUS
 62
               4
100
AcDbLine
 10
-11.150000038146942
 20
19.402000000000065
 30
0.0
 11
-5.4500000381469533
 21
19.402000000000065
 31
0.0
  0
LINE
  5
67
100
AcDbEntity
  8
0
  6
CONTINUOUS
 62
               4
100
AcDbLine
 10
-5.5500000381469761
 20
26.502000000000059
 30
0.0
 11
-5.5500000381469761
 21
22.802000000000042
 31
0.0
  0
ARC
  5
68
100
AcDbEntity
  8
0
  6
CONTINUOUS
 62
               4
100
AcDbCircle
 10
-5.8970880433840023
 20
26.801088005237055
 30
0.0
 40
0.5989129830170392
100
AcDbArc
 50
89.895914524772735
 51
180.10408547522667
  0
ARC
  5
69
100
AcDbEntity
  8
0
  6
CONTINUOUS
 62
               4
100
AcDbCircle
 10
-4.0959048914887433
 20
26.800095146658201
 30
0.0
 40
0.5999048608870732
100
AcDbArc
 50
359.99091272245295
 51
90.009087277546172
  0
LINE
  5
6A
100
AcDbEntity
  8
0
  6
CONTINUOUS
 62
               4
100
AcDbLine
 10
-3.3000000381469761
 20
26.800000000000033
 30
0.0
 11
-6.5000000381469647
 21
26.800000000000033
 31
0.0
  0
ARC
  5
6B
100
AcDbEntity
  8
0
  6
CONTINUOUS
 62
               4
100
AcDbCircle
 10
-12.800000038146976
 20
26.800000000000033
 30
0.0
 40
0.5
100
AcDbArc
 50
89.999999999999815
 51
179.99999999999963
  0
LINE
  5
6C
100
AcDbEntity
  8
0
  6
CONTINUOUS
 62
               4
100
AcDbLine
 10
-6.5000000381469647
 20
27.300000000000033
 30
0.0
 11
-6.5000000381469647
 21
26.502000000000059
 31
0.0
  0
LINE
  5
6D
100
AcDbEntity
  8
0
  6
CONTINUOUS
 62
               4
100
AcDbLine
 10
-6.5000000381469647
 20
27.300000000000033
 30
0.0
 11
-12.800000038146976
 21
27.300000000000033
 31
0.0
  0
LINE
  5
6E
100
AcDbEntity
  8
0
  6
CONTINUOUS
 62
               4
100
AcDbLine
 10
-3.3000000381469761
 20
25.800000000000033
 30
0.0
 11
-5.5500000381469761
 21
25.800000000000033
 31
0.0
  0
LINE
  5
6F
100
AcDbEntity
  8
0
  6
CONTINUOUS
 62
               4
100
AcDbLine
 10
-3.3000000381469761
 20
27.400000000000055
 30
0.0
 11
-13.300000038146976
 21
27.400000000000055
 31
0.0
  0
LINE
  5
70
100
AcDbEntity
  8
0
  6
CONTINUOUS
 62
               4
100
AcDbLine
 10
-3.5300000381469943
 20
23.902000000000065
 30
0.0
 11
-3.5300000381469943
 21
7.6029913283490131
 31
0.0
  0
LINE
  5
71
100
AcDbEntity
  8
0
  6
CONTINUOUS
 62
               4
100
AcDbLine
 10
-13.070000038146958
 20
23.902000000000065
 30
0.0
 11
-13.070000038146958
 21
7.6029913283490131
 31
0.0
  0
LINE
  5
72
100
AcDbEntity
  8
0
  6
CONTINUOUS
 62
               4
100
AcDbLine
 10
-3.3000000381469761
 20
27.400000000000055
 30
0.0
 11
-3.3000000381469761
 21
4.9000000000000554
 31
0.0
  0
LINE
  5
73
100
AcDbEntity
  8
0
  6
CONTINUOUS
 62
               4
100
AcDbLine
 10
-13.300000038146976
 20
27.400000000000055
 30
0.0
 11
-13.300000038146976
 21
4.9000000000000554
 31
0.0
  0
LINE
  5
74
100
AcDbEntity
  8
0
  6
CONTINUOUS
 62
               7
100
AcDbLine
 10
-11.400000038146914
 20
0.9000000000000199
 30
0.0
 11
-11.400000038146914
 21
4.9000000000000199
 31
0.0
  0
LINE
  5
75
100
AcDbEntity
  8
0
  6
CONTINUOUS
 62
               7
100
AcDbLine
 10
-5.2000000381470386
 20
0.9000000000000199
 30
0.0
 11
-5.2000000381470386
 21
4.9000000000000199
 31
0.0
  0
ARC
  5
76
100
AcDbEntity
  8
0
  6
CONTINUOUS
 62
               7
100
AcDbCircle
 10
-8.3000000381469761
 20
0.9000000000000199
 30
0.0
 40
3.0999999999999304
100
AcDbArc
 50
179.99999999999963
 51
0.0
  0
LINE
  5
77
100
AcDbEntity
  8
0
  6
CONTINUOUS
 62
               7
100
AcDbLine
 10
-13.300000038146976
 20
-9.6506699532603619
 30
0.0
 11
-13.300000038146976
 21
-6.0999999995055134
 31
0.0
  0
LINE
  5
78
100
AcDbEntity
  8
0
  6
CONTINUOUS
 62
               7
100
AcDbLine
 10
-3.3000000381469761
 20
-15.55066995326041
 30
0.0
 11
-3.3000000381469761
 21
-6.1000000000000014
 31
0.0
  0
LINE
  5
79
100
AcDbEntity
  8
0
  6
CONTINUOUS
 62
               7
100
AcDbLine
 10
-11.292893256960497
 20
-11.107106781186523
 30
0.0
 11
-12.707106819333546
 21
-9.6928932188134311
 31
0.0
  0
LINE
  5
7A
100
AcDbEntity
  8
0
  6
CONTINUOUS
 62
               7
100
AcDbLine
 10
-12.707106819333546
 20
-11.107106781186523
 30
0.0
 11
-11.292893256960468
 21
-9.6928932188134311
 31
0.0
  0
CIRCLE
  5
7B
100
AcDbEntity
  8
0
  6
CONTINUOUS
 62
               7
100
AcDbCircle
 10
-12.000000038146993
 20
-10.399001430615179
 30
0.0
 40
1.5
  0
LINE
  5
7C
100
AcDbEntity
  8
0
  6
CONTINUOUS
 62
               7
100
AcDbLine
 10
-3.892893256960491
 20
-17.007106781186522
 30
0.0
 11
-5.3071068193335407
 21
-15.59289321881343
 31
0.0
  0
LINE
  5
7D
100
AcDbEntity
  8
0
  6
CONTINUOUS
 62
               7
100
AcDbLine
 10
-5.3071068193335407
 20
-17.007106781186522
 30
0.0
 11
-3.8928932569604626
 21
-15.59289321881343
 31
0.0
  0
CIRCLE
  5
7E
100
AcDbEntity
  8
0
  6
CONTINUOUS
 62
               7
100
AcDbCircle
 10
-4.6000000381469874
 20
-16.299001430615178
 30
0.0
 40
1.5
  0
LINE
  5
7F
100
AcDbEntity
  8
0
  6
CONTINUOUS
 62
               7
100
AcDbLine
 10
-13.300000031764512
 20
-20.59999999999998
 30
0.0
 11
-3.3000000317645117
 21
-20.59999999999998
 31
0.0
  0
LINE
  5
80
100
AcDbEntity
  8
0
  6
CONTINUOUS
 62
               7
100
AcDbLine
 10
-14.299999999999983
 20
2.6999999999999957
 30
0.0
 11
-13.299999999999983
 21
2.6999999999999957
 31
0.0
  0
LINE
  5
81
100
AcDbEntity
  8
0
  6
CONTINUOUS
 62
               7
100
AcDbLine
 10
-14.299999999999983
 20
-25.300000000000026
 30
0.0
 11
-14.299999999999983
 21
2.6999999999999957
 31
0.0
  0
LINE
  5
82
100
AcDbEntity
  8
0
  6
CONTINUOUS
 62
               7
100
AcDbLine
 10
-14.299999999999983
 20
-25.300000000000026
 30
0.0
 11
-13.299999999999983
 21
-25.300000000000026
 31
0.0
  0
LINE
  5
84
100
AcDbEntity
  8
0
  6
CENTER
 62
               2
100
AcDbLine
 10
0.0
 20
-24.550000000000026
 30
0.0
 11
0.0
 21
-20.649999999999984
 31
0.0
  0
CIRCLE
  5
85
100
AcDbEntity
  8
0
  6
CONTINUOUS
 62
               7
100
AcDbCircle
 10
-0.0009515380859284
 20
-22.600817382812494
 30
0.0
 40
1.55
  0
LINE
  5
86
100
AcDbEntity
  8
0
  6
CENTER
 62
               2
100
AcDbLine
 10
-1.9500000000000171
 20
-22.59999999999998
 30
0.0
 11
1.9500000000000171
 21
-22.59999999999998
 31
0.0
  0
LINE
  5
87
100
AcDbEntity
  8
0
  6
CONTINUOUS
 62
               7
100
AcDbLine
 10
-3.2999999999999829
 20
-25.300000000000026
 30
0.0
 11
2.7000000000000171
 21
-25.300000000000026
 31
0.0
  0
LINE
  5
88
100
AcDbEntity
  8
0
  6
CENTER
 62
               2
100
AcDbLine
 10
-1.9500000000000171
 20
0.0
 30
0.0
 11
1.9500000000000171
 21
0.0
 31
0.0
  0
CIRCLE
  5
89
100
AcDbEntity
  8
0
  6
CONTINUOUS
 62
               7
100
AcDbCircle
 10
-0.0009515380859284
 20
-0.0008173828124924
 30
0.0
 40
1.55
  0
LINE
  5
8A
100
AcDbEntity
  8
0
  6
CENTER
 62
               2
100
AcDbLine
 10
0.0
 20
-1.9500000000000028
 30
0.0
 11
0.0
 21
1.9499999999999957
 31
0.0
  0
LINE
  5
8B
100
AcDbEntity
  8
0
  6
CONTINUOUS
 62
               7
100
AcDbLine
 10
-3.2999999999999829
 20
2.6999999999999957
 30
0.0
 11
2.7000000000000171
 21
2.6999999999999957
 31
0.0
  0
LINE
  5
8C
100
AcDbEntity
  8
0
  6
CONTINUOUS
 62
               7
100
AcDbLine
 10
2.7000000000000171
 20
-25.300000000000026
 30
0.0
 11
2.7000000000000171
 21
2.6999999999999957
 31
0.0
  0
LINE
  5
8D
100
AcDbEntity
  8
0
  6
CONTINUOUS
 62
               7
100
AcDbLine
 10
-3.3000000381469761
 20
-25.399999999999984
 30
0.0
 11
-3.3000000381469761
 21
-17.047332907969945
 31
0.0
  0
LINE
  5
8E
100
AcDbEntity
  8
0
  6
CONTINUOUS
 62
               7
100
AcDbLine
 10
-13.300000038146976
 20
-23.800000000000026
 30
0.0
 11
-13.300000038146976
 21
-11.147332907969997
 31
0.0
  0
LINE
  5
8F
100
AcDbEntity
  8
0
  6
CONTINUOUS
 62
               7
100
AcDbLine
 10
-3.3000000381469761
 20
-6.1000000000000014
 30
0.0
 11
-13.300000038146976
 21
-6.1000000000000014
 31
0.0
  0
ARC
  5
90
100
AcDbEntity
  8
0
  6
CONTINUOUS
 62
               7
100
AcDbCircle
 10
-12.000000038146993
 20
-10.400000000000006
 30
0.0
 40
1.6000000000000001
100
AcDbArc
 50
269.99999999999937
 51
89.999999999999801
  0
ARC
  5
91
100
AcDbEntity
  8
0
  6
CONTINUOUS
 62
               7
100
AcDbCircle
 10
-4.6000000381469874
 20
-16.300000000000004
 30
0.0
 40
1.6000000000000001
100
AcDbArc
 50
89.999999999999815
 51
269.99999999999937
  0
LINE
  5
92
100
AcDbEntity
  8
0
  6
CONTINUOUS
 62
               7
100
AcDbLine
 10
-12.000000038146993
 20
-12.000000000000007
 30
0.0
 11
-13.300000038146976
 21
-12.000000000000007
 31
0.0
  0
LINE
  5
93
100
AcDbEntity
  8
0
  6
CONTINUOUS
 62
               7
100
AcDbLine
 10
-12.000000038146993
 20
-8.8000000000000043
 30
0.0
 11
-13.300000038146976
 21
-8.8000000000000043
 31
0.0
  0
LINE
  5
94
100
AcDbEntity
  8
0
  6
CONTINUOUS
 62
               7
100
AcDbLine
 10
-4.6000000381469874
 20
-14.700000000000003
 30
0.0
 11
-3.3000000381469761
 21
-14.700000000000003
 31
0.0
  0
LINE
  5
95
100
AcDbEntity
  8
0
  6
CONTINUOUS
 62
               7
100
AcDbLine
 10
-4.6000000381469874
 20
-17.900000000000006
 30
0.0
 11
-3.3000000381469761
 21
-17.900000000000006
 31
0.0
  0
ARC
  5
96
100
AcDbEntity
  8
0
  6
CONTINUOUS
 62
               7
100
AcDbCircle
 10
-3.5000000381469647
 20
-25.399999999999984
 30
0.0
 40
0.2
100
AcDbArc
 50
269.99999999999937
 51
0.0
  0
LINE
  5
97
100
AcDbEntity
  8
0
  6
CONTINUOUS
 62
               7
100
AcDbLine
 10
-13.320000038146986
 20
-24.329999999999998
 30
0.0
 11
-13.320000038146986
 21
-23.800000000000026
 31
0.0
  0
LINE
  5
98
100
AcDbEntity
  8
0
  6
CONTINUOUS
 62
               7
100
AcDbLine
 10
-13.300000038146976
 20
-25.399999999999984
 30
0.0
 11
-13.300000038146976
 21
-24.486749430654051
 31
0.0
  0
LINE
  5
99
100
AcDbEntity
  8
0
  6
CONTINUOUS
 62
               7
100
AcDbLine
 10
-9.8800000381469602
 20
-24.329999999999998
 30
0.0
 11
-9.8800000381469602
 21
-23.800000000000026
 31
0.0
  0
ARC
  5
9A
100
AcDbEntity
  8
0
  6
CONTINUOUS
 62
               7
100
AcDbCircle
 10
-10.49177203398088
 20
-24.33083728202903
 30
0.0
 40
0.6117725687931934
100
AcDbArc
 50
286.30661609184898
 51
0.0784159734340139
  0
ARC
  5
9B
100
AcDbEntity
  8
0
  6
CONTINUOUS
 62
               7
100
AcDbCircle
 10
-11.600000038146987
 20
-20.512578763266063
 30
0.0
 40
4.5876068132596712
100
AcDbArc
 50
253.79871892415684
 51
286.20128107584191
  0
LINE
  5
9C
100
AcDbEntity
  8
0
  6
CONTINUOUS
 62
               7
100
AcDbLine
 10
-9.8000000381469761
 20
-25.59999999999998
 30
0.0
 11
-9.8000000381469761
 21
-23.800000000000026
 31
0.0
  0
ARC
  5
9D
100
AcDbEntity
  8
0
  6
CONTINUOUS
 62
               7
100
AcDbCircle
 10
-13.100000038146987
 20
-25.399999999999984
 30
0.0
 40
0.2
100
AcDbArc
 50
179.99999999999963
 51
269.99999999999937
  0
ARC
  5
9E
100
AcDbEntity
  8
0
  6
CONTINUOUS
 62
               7
100
AcDbCircle
 10
-13.000895175005866
 20
-23.500895136858915
 30
0.0
 40
0.2991062025847394
100
AcDbArc
 50
179.82853033398985
 51
270.17146966600922
  0
LINE
  5
9F
100
AcDbEntity
  8
0
  6
CONTINUOUS
 62
               7
100
AcDbLine
 10
-13.320000038146986
 20
-23.800000000000026
 30
0.0
 11
-9.8000000381469761
 21
-23.800000000000026
 31
0.0
  0
LINE
  5
A0
100
AcDbEntity
  8
0
  6
CONTINUOUS
 62
               7
100
AcDbLine
 10
-3.5000000381469647
 20
-25.59999999999998
 30
0.0
 11
-13.100000038146987
 21
-25.59999999999998
 31
0.0
  0
ARC
  5
A1
100
AcDbEntity
  8
0
  6
CONTINUOUS
 62
               7
100
AcDbCircle
 10
-12.709446070037899
 20
-24.331748731346927
 30
0.0
 40
0.6105564724372722
100
AcDbArc
 50
179.83589550320582
 51
253.77907243150949
  0
CIRCLE
  5
A2
100
AcDbEntity
  8
0
  6
CONTINUOUS
 62
               7
100
AcDbCircle
 10
-8.3000000381469761
 20
2.6000000000000227
 30
0.0
 40
0.75
  0
CIRCLE
  5
A3
100
AcDbEntity
  8
0
  6
CONTINUOUS
 62
               7
100
AcDbCircle
 10
-8.3000000381469761
 20
2.6000000000000227
 30
0.0
 40
1.1000000000000001
  0
LINE
  5
A4
100
AcDbEntity
  8
0
  6
CENTER
 62
               2
100
AcDbLine
 10
-8.3000000381469761
 20
-27.594831691049194
 30
0.0
 11
-8.3000000381469761
 21
30.562585161280545
 31
0.0
  0
CIRCLE
  5
A5
100
AcDbEntity
  8
0
  6
CONTINUOUS
 62
               7
100
AcDbCircle
 10
-8.3000000381469761
 20
2.6000000000000227
 30
0.0
 40
1.1500000000000001
  0
CIRCLE
  5
A6
100
AcDbEntity
  8
0
  6
CONTINUOUS
 62
               7
100
AcDbCircle
 10
-8.3000000381469761
 20
2.6000000000000227
 30
0.0
 40
1.3000000000000012
  0
LINE
  5
A7
100
AcDbEntity
  8
0
  6
CENTER
 62
               2
100
AcDbLine
 10
-6.6000000381469874
 20
2.6000000000000227
 30
0.0
 11
-10.000000038146965
 21
2.6000000000000227
 31
0.0
  0
ARC
  5
A8
100
AcDbEntity
  8
0
  6
CONTINUOUS
 62
               7
100
AcDbCircle
 10
-8.3000000381469761
 20
0.9000000000000199
 30
0.0
 40
2.0
100
AcDbArc
 50
179.99999999999963
 51
0.0
  0
LINE
  5
A9
100
AcDbEntity
  8
0
  6
CONTINUOUS
 62
               7
100
AcDbLine
 10
-6.3000000381469761
 20
0.9000000000000199
 30
0.0
 11
-6.3000000381469761
 21
4.9000000000000199
 31
0.0
  0
LINE
  5
AA
100
AcDbEntity
  8
0
  6
CONTINUOUS
 62
               7
100
AcDbLine
 10
-10.300000038146976
 20
0.9000000000000199
 30
0.0
 11
-10.300000038146976
 21
4.9000000000000199
 31
0.0
  0
LINE
  5
AB
100
AcDbEntity
  8
0
  6
CONTINUOUS
 62
               7
100
AcDbLine
 10
-3.3000000381469761
 20
-6.1000000000000014
 30
0.0
 11
-3.3000000381469761
 21
4.9000000000000199
 31
0.0
  0
LINE
  5
AC
100
AcDbEntity
  8
0
  6
CONTINUOUS
 62
               7
100
AcDbLine
 10
-13.300000038146976
 20
-6.1000000000000014
 30
0.0
 11
-13.300000038146976
 21
4.9000000000000199
 31
0.0
  0
LINE
  5
AD
100
AcDbEntity
  8
0
  6
CONTINUOUS
 62
               7
100
AcDbLine
 10
-3.3000000381469761
 20
4.9000000000000199
 30
0.0
 11
-13.300000038146976
 21
4.9000000000000199
 31
0.0
  0
LINE
  5
AE
100
AcDbEntity
  8
0
  6
CENTER
 62
               2
100
AcDbLine
 10
0.2162062056379739
 20
-8.2999999999999332
 30
0.0
 11
17.830000000000013
 21
-8.2999999999999332
 31
0.0
  0
LINE
  5
AF
100
AcDbEntity
  8
0
  6
PHANTOM
 62
             200
100
AcDbLine
 10
2.7000000000000171
 20
-4.2999999999999332
 30
0.0
 11
16.200000000000017
 21
-4.2999999999999332
 31
0.0
  0
LINE
  5
B0
100
AcDbEntity
  8
0
  6
PHANTOM
 62
             200
100
AcDbLine
 10
2.7000000000000171
 20
-12.299999999999933
 30
0.0
 11
16.200000000000017
 21
-12.299999999999933
 31
0.0
  0
LINE
  5
B1
100
AcDbEntity
  8
0
  6
PHANTOM
 62
             200
100
AcDbLine
 10
14.200000000000017
 20
-6.6999999999999318
 30
0.0
 11
16.200000000000017
 21
-6.6999999999999318
 31
0.0
  0
LINE
  5
B2
100
AcDbEntity
  8
0
  6
PHANTOM
 62
             200
100
AcDbLine
 10
14.200000000000017
 20
-7.5999999999999304
 30
0.0
 11
16.200000000000017
 21
-7.5999999999999304
 31
0.0
  0
LINE
  5
B3
100
AcDbEntity
  8
0
  6
PHANTOM
 62
             200
100
AcDbLine
 10
14.200000000000017
 20
-5.7999999999999332
 30
0.0
 11
16.200000000000017
 21
-5.7999999999999332
 31
0.0
  0
LINE
  5
B4
100
AcDbEntity
  8
0
  6
PHANTOM
 62
             200
100
AcDbLine
 10
14.200000000000017
 20
-5.0999999999999304
 30
0.0
 11
16.200000000000017
 21
-5.0999999999999304
 31
0.0
  0
LINE
  5
B5
100
AcDbEntity
  8
0
  6
PHANTOM
 62
             200
100
AcDbLine
 10
14.200000000000017
 20
-4.5999999999999304
 30
0.0
 11
16.200000000000017
 21
-4.5999999999999304
 31
0.0
  0
LINE
  5
B6
100
AcDbEntity
  8
0
  6
PHANTOM
 62
             200
100
AcDbLine
 10
14.200000000000017
 20
-8.9999999999999289
 30
0.0
 11
16.200000000000017
 21
-8.9999999999999289
 31
0.0
  0
LINE
  5
B7
100
AcDbEntity
  8
0
  6
PHANTOM
 62
             200
100
AcDbLine
 10
16.200000000000017
 20
-4.2999999999999332
 30
0.0
 11
16.200000000000017
 21
-12.299999999999933
 31
0.0
  0
LINE
  5
B8
100
AcDbEntity
  8
0
  6
PHANTOM
 62
             200
100
AcDbLine
 10
14.200000000000017
 20
-9.8999999999999346
 30
0.0
 11
16.200000000000017
 21
-9.8999999999999346
 31
0.0
  0
LINE
  5
B9
100
AcDbEntity
  8
0
  6
PHANTOM
 62
             200
100
AcDbLine
 10
14.200000000000017
 20
-10.799999999999933
 30
0.0
 11
16.200000000000017
 21
-10.799999999999933
 31
0.0
  0
LINE
  5
BA
100
AcDbEntity
  8
0
  6
PHANTOM
 62
             200
100
AcDbLine
 10
14.200000000000017
 20
-11.499999999999929
 30
0.0
 11
16.200000000000017
 21
-11.499999999999929
 31
0.0
  0
LINE
  5
BB
100
AcDbEntity
  8
0
  6
PHANTOM
 62
             200
100
AcDbLine
 10
14.200000000000017
 20
-11.999999999999929
 30
0.0
 11
16.200000000000017
 21
-11.999999999999929
 31
0.0
  0
LINE
  5
BC
100
AcDbEntity
  8
0
  6
PHANTOM
 62
             200
100
AcDbLine
 10
14.200000000000017
 20
-4.2999999999999332
 30
0.0
 11
14.200000000000017
 21
-12.299999999999933
 31
0.0
  0
LINE
  5
BD
100
AcDbEntity
  8
0
  6
PHANTOM
 62
             200
100
AcDbLine
 10
16.700000000000017
 20
-4.7999999999999332
 30
0.0
 11
16.700000000000017
 21
-11.799999999999933
 31
0.0
  0
ARC
  5
BE
100
AcDbEntity
  8
0
  6
PHANTOM
 62
             200
100
AcDbCircle
 10
16.200000000000017
 20
-11.799999999999933
 30
0.0
 40
0.5
100
AcDbArc
 50
269.99999999999937
 51
0.0
  0
ARC
  5
BF
100
AcDbEntity
  8
0
  6
PHANTOM
 62
             200
100
AcDbCircle
 10
16.200000000000017
 20
-4.7999999999999332
 30
0.0
 40
0.5
100
AcDbArc
 50
0.0
 51
89.999999999999815
  0
ENDBLK
  5
C0
100
AcDbEntity
  8
0
100
AcDbBlockEnd
  0
BLOCK
  5
C1
100
AcDbEntity
  8
0
100
AcDbBlockBegin
  2
EB10A1-2
 70
               0
 10
0.0
 20
0.0
 30
0.0
  3
EB10A1-2
  1

  0
LINE
  5
C2
100
AcDbEntity
  8
0
  6
CENTER
 62
               2
100
AcDbLine
 10
22.498951516567786
 20
30.562585161280538
 30
0.0
 11
22.498951516567786
 21
-27.594831691049222
 31
0.0
  0
ARC
  5
C3
100
AcDbEntity
  8
0
  6
CONTINUOUS
 62
               7
100
AcDbCircle
 10
28.698951538085907
 20
-11.5
 30
0.0
 40
0.4
100
AcDbArc
 50
270.00000000000023
 51
0.0
  0
ARC
  5
C4
100
AcDbEntity
  8
0
  6
CONTINUOUS
 62
               7
100
AcDbCircle
 10
28.698951538085907
 20
-9.3000000000000114
 30
0.0
 40
0.4
100
AcDbArc
 50
0.0
 51
89.999999999999815
  0
LINE
  5
C5
100
AcDbEntity
  8
0
  6
CONTINUOUS
 62
               7
100
AcDbLine
 10
28.698951538085907
 20
-11.900000000000006
 30
0.0
 11
28.498951538085976
 21
-11.900000000000006
 31
0.0
  0
LINE
  5
C6
100
AcDbEntity
  8
0
  6
CONTINUOUS
 62
               7
100
AcDbLine
 10
28.698951538085907
 20
-8.9000000000000057
 30
0.0
 11
28.498951538085976
 21
-8.9000000000000057
 31
0.0
  0
LINE
  5
C7
100
AcDbEntity
  8
0
  6
CONTINUOUS
 62
               7
100
AcDbLine
 10
29.098951538085942
 20
-9.3000000000000114
 30
0.0
 11
29.098951538085942
 21
-11.5
 31
0.0
  0
LINE
  5
C8
100
AcDbEntity
  8
0
  6
CONTINUOUS
 62
               7
100
AcDbLine
 10
15.498951538085976
 20
4.9000000000000057
 30
0.0
 11
15.498951538085976
 21
-25.199999999999903
 31
0.0
  0
LINE
  5
C9
100
AcDbEntity
  8
0
  6
CONTINUOUS
 62
               7
100
AcDbLine
 10
14.498951538085976
 20
-5.700823486328062
 30
0.0
 11
14.498951538085976
 21
-24.700823486328062
 31
0.0
  0
LINE
  5
CA
100
AcDbEntity
  8
0
  6
CONTINUOUS
 62
               7
100
AcDbLine
 10
15.498951538085976
 20
-24.700823486328062
 30
0.0
 11
14.498951538085976
 21
-24.700823486328062
 31
0.0
  0
LINE
  5
CB
100
AcDbEntity
  8
0
  6
CONTINUOUS
 62
               7
100
AcDbLine
 10
15.498951538085976
 20
0.0991765136720062
 30
0.0
 11
14.498951538085976
 21
0.0991765136720062
 31
0.0
  0
LINE
  5
CC
100
AcDbEntity
  8
0
  6
CONTINUOUS
 62
               7
100
AcDbLine
 10
14.498951538085976
 20
0.0991765136720062
 30
0.0
 11
14.498951538085976
 21
-4.700823486328062
 31
0.0
  0
LINE
  5
CD
100
AcDbEntity
  8
0
  6
CONTINUOUS
 62
               7
100
AcDbLine
 10
14.5
 20
2.7000000000000739
 30
0.0
 11
0.0
 21
2.7000000000000739
 31
0.0
  0
LINE
  5
CE
100
AcDbEntity
  8
0
  6
CONTINUOUS
 62
               7
100
AcDbLine
 10
14.5
 20
-25.299999999999926
 30
0.0
 11
14.5
 21
2.7000000000000739
 31
0.0
  0
LINE
  5
CF
100
AcDbEntity
  8
0
  6
CONTINUOUS
 62
               7
100
AcDbLine
 10
14.5
 20
-25.299999999999926
 30
0.0
 11
0.0
 21
-25.299999999999926
 31
0.0
  0
LINE
  5
D0
100
AcDbEntity
  8
0
  6
CONTINUOUS
 62
               7
100
AcDbLine
 10
0.0
 20
2.7000000000000739
 30
0.0
 11
0.0
 21
-25.299999999999926
 31
0.0
  0
LINE
  5
D1
100
AcDbEntity
  8
0
  6
CONTINUOUS
 62
               7
100
AcDbLine
 10
29.498951538085976
 20
-6.0999999999999943
 30
0.0
 11
29.498951538085976
 21
-25.199999999999903
 31
0.0
  0
LINE
  5
D2
100
AcDbEntity
  8
0
  6
CONTINUOUS
 62
               7
100
AcDbLine
 10
15.498951538085976
 20
-6.0999999999999943
 30
0.0
 11
29.498951524567815
 21
-6.0999999999999943
 31
0.0
  0
LINE
  5
D3
100
AcDbEntity
  8
0
  6
CONTINUOUS
 62
               7
100
AcDbLine
 10
15.498951538085976
 20
-20.599999999999994
 30
0.0
 11
29.498951524567815
 21
-20.599999999999994
 31
0.0
  0
ARC
  5
D4
100
AcDbEntity
  8
0
  6
CONTINUOUS
 62
               7
100
AcDbCircle
 10
29.09992490511263
 20
-25.200973367026535
 30
0.0
 40
0.3990278201647513
100
AcDbArc
 50
269.8602356150771
 51
0.1397643849223044
  0
LINE
  5
D5
100
AcDbEntity
  8
0
  6
CONTINUOUS
 62
               7
100
AcDbLine
 10
15.898951538085953
 20
-25.599999999999994
 30
0.0
 11
29.098951538085998
 21
-25.599999999999994
 31
0.0
  0
ARC
  5
D6
100
AcDbEntity
  8
0
  6
CONTINUOUS
 62
               7
100
AcDbCircle
 10
15.897978171059322
 20
-25.200973367026535
 30
0.0
 40
0.3990278201647513
100
AcDbArc
 50
179.8602356150773
 51
270.1397643849217
  0
LINE
  5
D7
100
AcDbEntity
  8
0
  6
CONTINUOUS
 62
               7
100
AcDbLine
 10
30.598951538085885
 20
-1.0999999999999943
 30
0.0
 11
30.598951538085885
 21
4.9000000000000057
 31
0.0
  0
LINE
  5
D8
100
AcDbEntity
  8
0
  6
CONTINUOUS
 62
               7
100
AcDbLine
 10
31.046951538085978
 20
1.5000000000000284
 30
0.0
 11
30.598951538085885
 21
1.5000000000000284
 31
0.0
  0
LINE
  5
D9
100
AcDbEntity
  8
0
  6
CONTINUOUS
 62
               7
100
AcDbLine
 10
31.046951538085978
 20
3.7000000000000739
 30
0.0
 11
30.598951538085885
 21
3.7000000000000739
 31
0.0
  0
LINE
  5
DA
100
AcDbEntity
  8
0
  6
CONTINUOUS
 62
               7
100
AcDbLine
 10
31.046951538085978
 20
1.5000000000000284
 30
0.0
 11
31.046951538085978
 21
3.7000000000000739
 31
0.0
  0
LINE
  5
DB
100
AcDbEntity
  8
0
  6
CONTINUOUS
 62
               7
100
AcDbLine
 10
15.498951538085976
 20
4.9000000000000057
 30
0.0
 11
30.598951538085885
 21
4.9000000000000057
 31
0.0
  0
LINE
  5
DC
100
AcDbEntity
  8
0
  6
CONTINUOUS
 62
               7
100
AcDbLine
 10
29.498951538085976
 20
4.9000000000000057
 30
0.0
 11
29.498951538085976
 21
-6.0999999999999943
 31
0.0
  0
LINE
  5
DD
100
AcDbEntity
  8
0
  6
CONTINUOUS
 62
               7
100
AcDbLine
 10
29.498951538085976
 20
-2.1999999999999034
 30
0.0
 11
30.598951538085885
 21
-1.0999999999999943
 31
0.0
  0
ARC
  5
DE
100
AcDbEntity
  8
0
  6
CONTINUOUS
 62
               7
100
AcDbCircle
 10
28.88839756997686
 20
-24.331748731346892
 30
0.0
 40
0.6105564724372721
100
AcDbArc
 50
286.22092756849014
 51
0.1641044967937703
  0
LINE
  5
DF
100
AcDbEntity
  8
0
  6
CONTINUOUS
 62
               7
100
AcDbLine
 10
29.498951538085976
 20
-23.799999999999926
 30
0.0
 11
25.978951538085994
 21
-23.799999999999926
 31
0.0
  0
ARC
  5
E0
100
AcDbEntity
  8
0
  6
CONTINUOUS
 62
               7
100
AcDbCircle
 10
29.179846674944883
 20
-23.500895136858816
 30
0.0
 40
0.2991062025847394
100
AcDbArc
 50
269.82853033399044
 51
0.1714696660097498
  0
LINE
  5
E1
100
AcDbEntity
  8
0
  6
CONTINUOUS
 62
               7
100
AcDbLine
 10
25.978951538085994
 20
-25.599999999999994
 30
0.0
 11
25.978951538085994
 21
-23.799999999999926
 31
0.0
  0
LINE
  5
E2
100
AcDbEntity
  8
0
  6
CONTINUOUS
 62
               7
100
AcDbLine
 10
26.058951538085921
 20
-24.329999999999899
 30
0.0
 11
26.058951538085921
 21
-23.799999999999926
 31
0.0
  0
ARC
  5
E3
100
AcDbEntity
  8
0
  6
CONTINUOUS
 62
               7
100
AcDbCircle
 10
26.670723533919841
 20
-24.330837282028909
 30
0.0
 40
0.6117725687931934
100
AcDbArc
 50
179.9215840265656
 51
253.6933839081498
  0
ARC
  5
E4
100
AcDbEntity
  8
0
  6
CONTINUOUS
 62
               7
100
AcDbCircle
 10
27.778951538085948
 20
-20.512578763265964
 30
0.0
 40
4.5876068132596712
100
AcDbArc
 50
253.7987189241569
 51
286.20128107584202
  0
LINE
  5
E5
100
AcDbEntity
  8
0
  6
CENTER
 62
               2
100
AcDbLine
 10
8.5
 20
-11.299999999999926
 30
0.0
 11
1.5
 21
-11.299999999999926
 31
0.0
  0
CIRCLE
  5
E6
100
AcDbEntity
  8
0
  6
CONTINUOUS
 62
               2
100
AcDbCircle
 10
4.9933435058593432
 20
-11.299999999999926
 30
0.0
 40
2.5
  0
CIRCLE
  5
E7
100
AcDbEntity
  8
0
  6
CONTINUOUS
 62
               7
100
AcDbCircle
 10
4.9933435058593432
 20
-11.299999999999926
 30
0.0
 40
2.0
  0
LINE
  5
E8
100
AcDbEntity
  8
0
  6
CENTER
 62
               2
100
AcDbLine
 10
5.0
 20
-7.7999999999999261
 30
0.0
 11
5.0
 21
-14.799999999999926
 31
0.0
  0
LINE
  5
E9
100
AcDbEntity
  8
0
  6
CONTINUOUS
 62
               7
100
AcDbLine
 10
28.498951533131617
 20
-8.8000000000000114
 30
0.0
 11
29.498951538085976
 21
-8.8000000000000114
 31
0.0
  0
LINE
  5
EA
100
AcDbEntity
  8
0
  6
CONTINUOUS
 62
               7
100
AcDbLine
 10
28.498951533131617
 20
-12.0
 30
0.0
 11
29.498951538085976
 21
-12.0
 31
0.0
  0
LINE
  5
EB
100
AcDbEntity
  8
0
  6
CONTINUOUS
 62
               7
100
AcDbLine
 10
28.498951538085976
 20
-8.8000000000000114
 30
0.0
 11
28.498951538085976
 21
-12.0
 31
0.0
  0
LINE
  5
EC
100
AcDbEntity
  8
0
  6
CENTER
 62
               2
100
AcDbLine
 10
5.0
 20
0.2162062056380307
 30
0.0
 11
5.0
 21
17.830000000000069
 31
0.0
  0
LINE
  5
ED
100
AcDbEntity
  8
0
  6
PHANTOM
 62
             200
100
AcDbLine
 10
1.0
 20
2.7000000000000739
 30
0.0
 11
1.0
 21
16.200000000000074
 31
0.0
  0
LINE
  5
EE
100
AcDbEntity
  8
0
  6
PHANTOM
 62
             200
100
AcDbLine
 10
9.0
 20
2.7000000000000739
 30
0.0
 11
9.0
 21
16.200000000000074
 31
0.0
  0
ARC
  5
EF
100
AcDbEntity
  8
0
  6
PHANTOM
 62
             200
100
AcDbCircle
 10
1.5
 20
16.200000000000074
 30
0.0
 40
0.5
100
AcDbArc
 50
89.999999999999815
 51
179.99999999999963
  0
ARC
  5
F0
100
AcDbEntity
  8
0
  6
PHANTOM
 62
             200
100
AcDbCircle
 10
8.5
 20
16.200000000000074
 30
0.0
 40
0.5
100
AcDbArc
 50
0.0
 51
89.999999999999815
  0
LINE
  5
F1
100
AcDbEntity
  8
0
  6
PHANTOM
 62
             200
100
AcDbLine
 10
1.5
 20
16.700000000000074
 30
0.0
 11
8.5
 21
16.700000000000074
 31
0.0
  0
LINE
  5
F2
100
AcDbEntity
  8
0
  6
PHANTOM
 62
             200
100
AcDbLine
 10
1.0
 20
14.200000000000074
 30
0.0
 11
9.0
 21
14.200000000000074
 31
0.0
  0
LINE
  5
F3
100
AcDbEntity
  8
0
  6
PHANTOM
 62
             200
100
AcDbLine
 10
8.6999999999999318
 20
14.200000000000074
 30
0.0
 11
8.6999999999999318
 21
16.200000000000074
 31
0.0
  0
LINE
  5
F4
100
AcDbEntity
  8
0
  6
PHANTOM
 62
             200
100
AcDbLine
 10
8.1999999999999318
 20
14.200000000000074
 30
0.0
 11
8.1999999999999318
 21
16.200000000000074
 31
0.0
  0
LINE
  5
F5
100
AcDbEntity
  8
0
  6
PHANTOM
 62
             200
100
AcDbLine
 10
7.5
 20
14.200000000000074
 30
0.0
 11
7.5
 21
16.200000000000074
 31
0.0
  0
LINE
  5
F6
100
AcDbEntity
  8
0
  6
PHANTOM
 62
             200
100
AcDbLine
 10
6.5999999999999659
 20
14.200000000000074
 30
0.0
 11
6.5999999999999659
 21
16.200000000000074
 31
0.0
  0
LINE
  5
F7
100
AcDbEntity
  8
0
  6
PHANTOM
 62
             200
100
AcDbLine
 10
1.0
 20
16.200000000000074
 30
0.0
 11
9.0
 21
16.200000000000074
 31
0.0
  0
LINE
  5
F8
100
AcDbEntity
  8
0
  6
PHANTOM
 62
             200
100
AcDbLine
 10
5.6999999999999318
 20
14.200000000000074
 30
0.0
 11
5.6999999999999318
 21
16.200000000000074
 31
0.0
  0
LINE
  5
F9
100
AcDbEntity
  8
0
  6
PHANTOM
 62
             200
100
AcDbLine
 10
1.2999999999999545
 20
14.200000000000074
 30
0.0
 11
1.2999999999999545
 21
16.200000000000074
 31
0.0
  0
LINE
  5
FA
100
AcDbEntity
  8
0
  6
PHANTOM
 62
             200
100
AcDbLine
 10
1.7999999999999545
 20
14.200000000000074
 30
0.0
 11
1.7999999999999545
 21
16.200000000000074
 31
0.0
  0
LINE
  5
FB
100
AcDbEntity
  8
0
  6
PHANTOM
 62
             200
100
AcDbLine
 10
2.5
 20
14.200000000000074
 30
0.0
 11
2.5
 21
16.200000000000074
 31
0.0
  0
LINE
  5
FC
100
AcDbEntity
  8
0
  6
PHANTOM
 62
             200
100
AcDbLine
 10
4.2999999999999545
 20
14.200000000000074
 30
0.0
 11
4.2999999999999545
 21
16.200000000000074
 31
0.0
  0
LINE
  5
FD
100
AcDbEntity
  8
0
  6
PHANTOM
 62
             200
100
AcDbLine
 10
3.3999999999999773
 20
14.200000000000074
 30
0.0
 11
3.3999999999999773
 21
16.200000000000074
 31
0.0
  0
LINE
  5
FE
100
AcDbEntity
  8
0
  6
CENTER
 62
               2
100
AcDbLine
 10
-2.0
 20
0.0
 30
0.0
 11
2.0
 21
0.0
 31
0.0
  0
LINE
  5
FF
100
AcDbEntity
  8
0
  6
CENTER
 62
               2
100
AcDbLine
 10
-2.0
 20
-22.599999999999994
 30
0.0
 11
2.0
 21
-22.599999999999994
 31
0.0
  0
LINE
  5
100
100
AcDbEntity
  8
0
  6
CONTINUOUS
 62
               4
100
AcDbLine
 10
15.498951516567786
 20
4.9000000000000057
 30
0.0
 11
32.498954333094503
 21
4.9000000000000057
 31
0.0
  0
LINE
  5
101
100
AcDbEntity
  8
0
  6
CONTINUOUS
 62
               4
100
AcDbLine
 10
45.295855455772141
 20
20.147182617187468
 30
0.0
 11
45.295855455772141
 21
19.647182617187468
 31
0.0
  0
ARC
  5
102
100
AcDbEntity
  8
0
  6
CONTINUOUS
 62
               4
100
AcDbCircle
 10
16.18185636990961
 20
26.800095146658208
 30
0.0
 40
0.5999048608870732
100
AcDbArc
 50
89.99091272245343
 51
123.56005066674096
  0
ARC
  5
103
100
AcDbEntity
  8
0
  6
CONTINUOUS
 62
               4
100
AcDbCircle
 10
15.998951516567786
 20
26.800000000000011
 30
0.0
 40
0.5
100
AcDbArc
 50
114.73039869686018
 51
179.99999999999963
  0
ARC
  5
104
100
AcDbEntity
  8
0
  6
CONTINUOUS
 62
               4
100
AcDbCircle
 10
28.998951516567786
 20
26.800000000000011
 30
0.0
 40
0.5
100
AcDbArc
 50
0.0
 51
89.999999999999815
  0
LINE
  5
105
100
AcDbEntity
  8
0
  6
CONTINUOUS
 62
               4
100
AcDbLine
 10
28.998951516567786
 20
27.300000000000011
 30
0.0
 11
27.498951516567786
 21
27.300000000000011
 31
0.0
  0
LINE
  5
106
100
AcDbEntity
  8
0
  6
CONTINUOUS
 62
               4
100
AcDbLine
 10
15.498951516567786
 20
25.800000000000097
 30
0.0
 11
27.498954333094503
 21
25.800000000000097
 31
0.0
  0
LINE
  5
107
100
AcDbEntity
  8
0
  6
CONTINUOUS
 62
               4
100
AcDbLine
 10
27.498954333094503
 20
27.400000000000091
 30
0.0
 11
27.498954333094503
 21
25.800000000000097
 31
0.0
  0
LINE
  5
108
100
AcDbEntity
  8
0
  6
CONTINUOUS
 62
               4
100
AcDbLine
 10
15.498951516567786
 20
26.800000000000125
 30
0.0
 11
19.198951516567718
 21
26.800000000000125
 31
0.0
  0
ARC
  5
109
100
AcDbEntity
  8
0
  6
CONTINUOUS
 62
               4
100
AcDbCircle
 10
16.18185636990961
 20
26.800095146658208
 30
0.0
 40
0.5999048608870732
100
AcDbArc
 50
123.56005066674096
 51
180.00908727754583
  0
ARC
  5
10A
100
AcDbEntity
  8
0
  6
CONTINUOUS
 62
               4
100
AcDbCircle
 10
17.983039521804812
 20
26.801088005237034
 30
0.0
 40
0.5989129830170392
100
AcDbArc
 50
359.89591452477293
 51
90.104085475226867
  0
LINE
  5
10B
100
AcDbEntity
  8
0
  6
CONTINUOUS
 62
               4
100
AcDbLine
 10
16.181856369909497
 20
27.400000000000006
 30
0.0
 11
27.498954333094503
 21
27.400000000000091
 31
0.0
  0
LINE
  5
10C
100
AcDbEntity
  8
0
  6
CONTINUOUS
 62
               4
100
AcDbLine
 10
19.198951516567718
 20
26.800000000000125
 30
0.0
 11
19.198951516567718
 21
27.400000000000034
 31
0.0
  0
LINE
  5
10D
100
AcDbEntity
  8
0
  6
CONTINUOUS
 62
               4
100
AcDbLine
 10
35.098954333094525
 20
22.398000000000025
 30
0.0
 11
35.098954333094525
 21
6.4319999999999879
 31
0.0
  0
LINE
  5
10E
100
AcDbEntity
  8
0
  6
CONTINUOUS
 62
               4
100
AcDbLine
 10
36.298954333094571
 20
20.548000000000002
 30
0.0
 11
37.775855455772103
 21
20.548000000000002
 31
0.0
  0
LINE
  5
10F
100
AcDbEntity
  8
0
  6
CONTINUOUS
 62
               4
100
AcDbLine
 10
36.298954333094571
 20
19.24799999999999
 30
0.0
 11
38.525855455772103
 21
19.24799999999999
 31
0.0
  0
LINE
  5
110
100
AcDbEntity
  8
0
  6
CONTINUOUS
 62
               4
100
AcDbLine
 10
29.498954333094503
 20
23.398000000000025
 30
0.0
 11
34.598954333094525
 21
23.398000000000025
 31
0.0
  0
ARC
  5
111
100
AcDbEntity
  8
0
  6
CONTINUOUS
 62
               4
100
AcDbCircle
 10
34.598991857099918
 20
22.898037524005417
 30
0.0
 40
0.4999624774027422
100
AcDbArc
 50
359.99569974300096
 51
90.004300256998803
  0
ARC
  5
112
100
AcDbEntity
  8
0
  6
CONTINUOUS
 62
               4
100
AcDbCircle
 10
34.598489888576523
 20
6.4311272247162776
 30
0.0
 40
0.5004652055472239
100
AcDbArc
 50
295.12116424320402
 51
0.0999197646782735
  0
LINE
  5
113
100
AcDbEntity
  8
0
  6
CONTINUOUS
 62
               4
100
AcDbLine
 10
35.098954333094525
 20
22.898000000000025
 30
0.0
 11
35.098954333094525
 21
22.398000000000025
 31
0.0
  0
LINE
  5
114
100
AcDbEntity
  8
0
  6
CONTINUOUS
 62
             200
100
AcDbLine
 10
37.429855455772099
 20
21.148000000000025
 30
0.0
 11
38.873855455772059
 21
18.647999999999996
 31
0.0
  0
LINE
  5
115
100
AcDbEntity
  8
0
  6
CONTINUOUS
 62
               4
100
AcDbLine
 10
39.025855455772103
 20
19.24799999999999
 30
0.0
 11
41.795855455772084
 21
19.24799999999999
 31
0.0
  0
LINE
  5
116
100
AcDbEntity
  8
0
  6
CONTINUOUS
 62
               4
100
AcDbLine
 10
38.275855455772103
 20
20.548000000000002
 30
0.0
 11
41.795855455772084
 21
20.548000000000002
 31
0.0
  0
LINE
  5
117
100
AcDbEntity
  8
0
  6
CONTINUOUS
 62
             200
100
AcDbLine
 10
37.929855455772099
 20
21.148000000000025
 30
0.0
 11
39.373855455772059
 21
18.647999999999996
 31
0.0
  0
LINE
  5
118
100
AcDbEntity
  8
0
  6
CONTINUOUS
 62
               4
100
AcDbLine
 10
41.795855455772084
 20
20.547182617187445
 30
0.0
 11
41.795855455772084
 21
19.247182617187491
 31
0.0
  0
LINE
  5
119
100
AcDbEntity
  8
0
  6
CONTINUOUS
 62
               4
100
AcDbLine
 10
35.098954333094525
 20
17.397999999999996
 30
0.0
 11
35.798954333094571
 21
17.397999999999996
 31
0.0
  0
LINE
  5
11A
100
AcDbEntity
  8
0
  6
CONTINUOUS
 62
               4
100
AcDbLine
 10
36.298954333094571
 20
17.897999999999996
 30
0.0
 11
36.298954333094571
 21
21.898000000000025
 31
0.0
  0
LINE
  5
11B
100
AcDbEntity
  8
0
  6
CONTINUOUS
 62
               4
100
AcDbLine
 10
35.098954333094525
 20
22.398000000000025
 30
0.0
 11
35.798954333094571
 21
22.398000000000025
 31
0.0
  0
ARC
  5
11C
100
AcDbEntity
  8
0
  6
CONTINUOUS
 62
               4
100
AcDbCircle
 10
35.798954333094571
 20
17.897999999999996
 30
0.0
 40
0.5
100
AcDbArc
 50
270.00000000000023
 51
0.0
  0
ARC
  5
11D
100
AcDbEntity
  8
0
  6
CONTINUOUS
 62
               4
100
AcDbCircle
 10
35.798954333094571
 20
21.898000000000025
 30
0.0
 40
0.5
100
AcDbArc
 50
0.0
 51
89.999999999999815
  0
LINE
  5
11E
100
AcDbEntity
  8
0
  6
CONTINUOUS
 62
               4
100
AcDbLine
 10
41.795855455772084
 20
19.647182617187468
 30
0.0
 11
45.295855455772141
 21
19.647182617187468
 31
0.0
  0
LINE
  5
11F
100
AcDbEntity
  8
0
  6
CONTINUOUS
 62
               4
100
AcDbLine
 10
41.795855455772084
 20
20.147182617187468
 30
0.0
 11
45.295855455772141
 21
20.147182617187468
 31
0.0
  0
LINE
  5
120
100
AcDbEntity
  8
0
  6
CONTINUOUS
 62
               4
100
AcDbLine
 10
32.498954333094503
 20
4.9000000000000057
 30
0.0
 11
34.810954333094514
 21
5.9780000000000086
 31
0.0
  0
LINE
  5
121
100
AcDbEntity
  8
0
  6
CONTINUOUS
 62
               4
100
AcDbLine
 10
32.498954333094503
 20
4.9000000000000057
 30
0.0
 11
32.498954333094503
 21
23.398000000000025
 31
0.0
  0
LINE
  5
122
100
AcDbEntity
  8
0
  6
CONTINUOUS
 62
               4
100
AcDbLine
 10
15.498951516567786
 20
26.800000000000011
 30
0.0
 11
15.498951516567786
 21
4.9000000000000057
 31
0.0
  0
LINE
  5
123
100
AcDbEntity
  8
0
  6
CONTINUOUS
 62
               4
100
AcDbLine
 10
29.498951516567786
 20
4.9000000000000057
 30
0.0
 11
29.498951516567786
 21
26.799999994932278
 31
0.0
  0
ENDBLK
  5
124
100
AcDbEntity
  8
0
100
AcDbBlockEnd
  0
BLOCK
  5
125
100
AcDbEntity
  8
0
100
AcDbBlockBegin
  2
EB10A1-3
 70
               0
 10
0.0
 20
0.0
 30
0.0
  3
EB10A1-3
  1

  0
ARC
  5
126
100
AcDbEntity
  8
0
  6
CONTINUOUS
 62
               7
100
AcDbCircle
 10
-28.698951538086021
 20
-17.400000000000006
 30
0.0
 40
0.4
100
AcDbArc
 50
179.99999999999963
 51
269.99999999999937
  0
ARC
  5
127
100
AcDbEntity
  8
0
  6
CONTINUOUS
 62
               7
100
AcDbCircle
 10
-28.698951538086021
 20
-15.200000000000017
 30
0.0
 40
0.4
100
AcDbArc
 50
89.999999999999815
 51
179.99999999999963
  0
LINE
  5
128
100
AcDbEntity
  8
0
  6
CONTINUOUS
 62
               7
100
AcDbLine
 10
-28.698951538086021
 20
-14.800000000000011
 30
0.0
 11
-28.498951538085976
 21
-14.800000000000011
 31
0.0
  0
LINE
  5
129
100
AcDbEntity
  8
0
  6
CONTINUOUS
 62
               7
100
AcDbLine
 10
-28.698951538086021
 20
-17.800000000000011
 30
0.0
 11
-28.498951538085976
 21
-17.800000000000011
 31
0.0
  0
LINE
  5
12A
100
AcDbEntity
  8
0
  6
CONTINUOUS
 62
               7
100
AcDbLine
 10
-29.098951538085998
 20
-15.200000000000017
 30
0.0
 11
-29.098951538085998
 21
-17.400000000000006
 31
0.0
  0
ARC
  5
12B
100
AcDbEntity
  8
0
  6
CONTINUOUS
 62
               7
100
AcDbCircle
 10
-17.218951538086003
 20
-20.512578763265964
 30
0.0
 40
4.5876068132596712
100
AcDbArc
 50
253.7987189241569
 51
286.20128107584202
  0
ARC
  5
12C
100
AcDbEntity
  8
0
  6
CONTINUOUS
 62
               7
100
AcDbCircle
 10
-18.327179542252111
 20
-24.330837282028909
 30
0.0
 40
0.6117725687931934
100
AcDbArc
 50
179.9215840265656
 51
253.6933839081498
  0
LINE
  5
12D
100
AcDbEntity
  8
0
  6
CONTINUOUS
 62
               7
100
AcDbLine
 10
-18.93895153808603
 20
-24.329999999999899
 30
0.0
 11
-18.93895153808603
 21
-23.799999999999926
 31
0.0
  0
LINE
  5
12E
100
AcDbEntity
  8
0
  6
CONTINUOUS
 62
               7
100
AcDbLine
 10
-19.018951538085958
 20
-25.599999999999994
 30
0.0
 11
-19.018951538085958
 21
-23.799999999999926
 31
0.0
  0
ARC
  5
12F
100
AcDbEntity
  8
0
  6
CONTINUOUS
 62
               7
100
AcDbCircle
 10
-15.818056401227068
 20
-23.500895136858816
 30
0.0
 40
0.2991062025847394
100
AcDbArc
 50
269.82853033399044
 51
0.1714696660097498
  0
LINE
  5
130
100
AcDbEntity
  8
0
  6
CONTINUOUS
 62
               7
100
AcDbLine
 10
-15.498951538085976
 20
-23.799999999999926
 30
0.0
 11
-19.018951538085958
 21
-23.799999999999926
 31
0.0
  0
ARC
  5
131
100
AcDbEntity
  8
0
  6
CONTINUOUS
 62
               7
100
AcDbCircle
 10
-16.109505506195092
 20
-24.331748731346892
 30
0.0
 40
0.6105564724372721
100
AcDbArc
 50
286.22092756849014
 51
0.1641044967937703
  0
LINE
  5
132
100
AcDbEntity
  8
0
  6
CONTINUOUS
 62
               7
100
AcDbLine
 10
-29.498951538085976
 20
-2.1999999999999034
 30
0.0
 11
-30.598951538085998
 21
-1.0999999999999943
 31
0.0
  0
LINE
  5
133
100
AcDbEntity
  8
0
  6
CONTINUOUS
 62
               7
100
AcDbLine
 10
-29.498951538085976
 20
4.9000000000000057
 30
0.0
 11
-29.498951538085976
 21
-6.0999999999999943
 31
0.0
  0
LINE
  5
134
100
AcDbEntity
  8
0
  6
CONTINUOUS
 62
               7
100
AcDbLine
 10
-15.498951538085976
 20
4.9000000000000057
 30
0.0
 11
-30.598951538085998
 21
4.9000000000000057
 31
0.0
  0
LINE
  5
135
100
AcDbEntity
  8
0
  6
CONTINUOUS
 62
               7
100
AcDbLine
 10
-31.046951538085978
 20
1.5000000000000284
 30
0.0
 11
-31.046951538085978
 21
3.7000000000000739
 31
0.0
  0
LINE
  5
136
100
AcDbEntity
  8
0
  6
CONTINUOUS
 62
               7
100
AcDbLine
 10
-31.046951538085978
 20
3.7000000000000739
 30
0.0
 11
-30.598951538085998
 21
3.7000000000000739
 31
0.0
  0
LINE
  5
137
100
AcDbEntity
  8
0
  6
CONTINUOUS
 62
               7
100
AcDbLine
 10
-31.046951538085978
 20
1.5000000000000284
 30
0.0
 11
-30.598951538085998
 21
1.5000000000000284
 31
0.0
  0
LINE
  5
138
100
AcDbEntity
  8
0
  6
CONTINUOUS
 62
               7
100
AcDbLine
 10
-30.598951538085998
 20
-1.0999999999999943
 30
0.0
 11
-30.598951538085998
 21
4.9000000000000057
 31
0.0
  0
ARC
  5
139
100
AcDbEntity
  8
0
  6
CONTINUOUS
 62
               7
100
AcDbCircle
 10
-29.09992490511263
 20
-25.200973367026535
 30
0.0
 40
0.3990278201647513
100
AcDbArc
 50
179.8602356150773
 51
270.1397643849217
  0
LINE
  5
13A
100
AcDbEntity
  8
0
  6
CONTINUOUS
 62
               7
100
AcDbLine
 10
-29.098951538085998
 20
-25.599999999999994
 30
0.0
 11
-15.898951538085953
 21
-25.599999999999994
 31
0.0
  0
ARC
  5
13B
100
AcDbEntity
  8
0
  6
CONTINUOUS
 62
               7
100
AcDbCircle
 10
-15.897978171059322
 20
-25.200973367026535
 30
0.0
 40
0.3990278201647513
100
AcDbArc
 50
269.8602356150771
 51
0.1397643849223044
  0
LINE
  5
13C
100
AcDbEntity
  8
0
  6
CONTINUOUS
 62
               7
100
AcDbLine
 10
-15.498951538085976
 20
-20.599999999999994
 30
0.0
 11
-29.498951524567929
 21
-20.599999999999994
 31
0.0
  0
LINE
  5
13D
100
AcDbEntity
  8
0
  6
CONTINUOUS
 62
               7
100
AcDbLine
 10
-15.498951538085976
 20
-6.0999999999999943
 30
0.0
 11
-29.498951524567929
 21
-6.0999999999999943
 31
0.0
  0
LINE
  5
13E
100
AcDbEntity
  8
0
  6
CONTINUOUS
 62
               7
100
AcDbLine
 10
-29.498951538085976
 20
-6.0999999999999943
 30
0.0
 11
-29.498951538085976
 21
-25.199999999999903
 31
0.0
  0
LINE
  5
13F
100
AcDbEntity
  8
0
  6
CONTINUOUS
 62
               7
100
AcDbLine
 10
0.0
 20
2.7000000000000739
 30
0.0
 11
0.0
 21
-25.299999999999926
 31
0.0
  0
LINE
  5
140
100
AcDbEntity
  8
0
  6
CENTER
 62
               2
100
AcDbLine
 10
-5.0
 20
-14.399999999999949
 30
0.0
 11
-5.0
 21
-20.199999999999903
 31
0.0
  0
LINE
  5
141
100
AcDbEntity
  8
0
  6
CENTER
 62
               2
100
AcDbLine
 10
-12.386000000000081
 20
-8.2999999999999261
 30
0.0
 11
-6.6000000000000227
 21
-8.2999999999999261
 31
0.0
  0
CIRCLE
  5
142
100
AcDbEntity
  8
0
  6
CONTINUOUS
 62
               7
100
AcDbCircle
 10
-9.4989515380859757
 20
-8.3008173828123688
 30
0.0
 40
2.0669994354248047
  0
CIRCLE
  5
143
100
AcDbEntity
  8
0
  6
CONTINUOUS
 62
               2
100
AcDbCircle
 10
-9.4989515380859757
 20
-8.3008173828123688
 30
0.0
 40
2.5
  0
CIRCLE
  5
144
100
AcDbEntity
  8
0
  6
CONTINUOUS
 62
               2
100
AcDbCircle
 10
-4.9989515380859757
 20
-17.300817382812369
 30
0.0
 40
2.5
  0
CIRCLE
  5
145
100
AcDbEntity
  8
0
  6
CONTINUOUS
 62
               7
100
AcDbCircle
 10
-4.9989515380859757
 20
-17.300817382812369
 30
0.0
 40
2.0669994354248047
  0
LINE
  5
146
100
AcDbEntity
  8
0
  6
CENTER
 62
               2
100
AcDbLine
 10
-9.5
 20
-5.3999999999999488
 30
0.0
 11
-9.5
 21
-11.199999999999903
 31
0.0
  0
LINE
  5
147
100
AcDbEntity
  8
0
  6
CENTER
 62
               2
100
AcDbLine
 10
-7.8860000000000809
 20
-17.299999999999926
 30
0.0
 11
-2.1000000000000227
 21
-17.299999999999926
 31
0.0
  0
LINE
  5
148
100
AcDbEntity
  8
0
  6
CONTINUOUS
 62
               7
100
AcDbLine
 10
-14.5
 20
-25.299999999999926
 30
0.0
 11
0.0
 21
-25.299999999999926
 31
0.0
  0
LINE
  5
149
100
AcDbEntity
  8
0
  6
CONTINUOUS
 62
               7
100
AcDbLine
 10
-14.5
 20
-25.299999999999926
 30
0.0
 11
-14.5
 21
2.7000000000000739
 31
0.0
  0
LINE
  5
14A
100
AcDbEntity
  8
0
  6
CONTINUOUS
 62
               7
100
AcDbLine
 10
-14.5
 20
2.7000000000000739
 30
0.0
 11
0.0
 21
2.7000000000000739
 31
0.0
  0
LINE
  5
14B
100
AcDbEntity
  8
0
  6
CONTINUOUS
 62
               7
100
AcDbLine
 10
-14.498951538085976
 20
0.0991765136720062
 30
0.0
 11
-14.498951538085976
 21
-4.700823486328062
 31
0.0
  0
LINE
  5
14C
100
AcDbEntity
  8
0
  6
CONTINUOUS
 62
               7
100
AcDbLine
 10
-15.498951538085976
 20
0.0991765136720062
 30
0.0
 11
-14.498951538085976
 21
0.0991765136720062
 31
0.0
  0
LINE
  5
14D
100
AcDbEntity
  8
0
  6
CONTINUOUS
 62
               7
100
AcDbLine
 10
-15.498951538085976
 20
-24.700823486328062
 30
0.0
 11
-14.498951538085976
 21
-24.700823486328062
 31
0.0
  0
LINE
  5
14E
100
AcDbEntity
  8
0
  6
CONTINUOUS
 62
               7
100
AcDbLine
 10
-14.498951538085976
 20
-5.700823486328062
 30
0.0
 11
-14.498951538085976
 21
-24.700823486328062
 31
0.0
  0
LINE
  5
14F
100
AcDbEntity
  8
0
  6
CONTINUOUS
 62
               7
100
AcDbLine
 10
-15.498951538085976
 20
4.9000000000000057
 30
0.0
 11
-15.498951538085976
 21
-25.199999999999903
 31
0.0
  0
LINE
  5
150
100
AcDbEntity
  8
0
  6
CONTINUOUS
 62
               7
100
AcDbLine
 10
-29.498951543040334
 20
-14.700000000000017
 30
0.0
 11
-28.498951543040334
 21
-14.700000000000017
 31
0.0
  0
LINE
  5
151
100
AcDbEntity
  8
0
  6
CONTINUOUS
 62
               7
100
AcDbLine
 10
-29.498951543040334
 20
-17.900000000000006
 30
0.0
 11
-28.498951543040334
 21
-17.900000000000006
 31
0.0
  0
LINE
  5
152
100
AcDbEntity
  8
0
  6
CONTINUOUS
 62
               7
100
AcDbLine
 10
-28.498951538085976
 20
-14.700000000000017
 30
0.0
 11
-28.498951538085976
 21
-17.900000000000006
 31
0.0
  0
LINE
  5
153
100
AcDbEntity
  8
0
  6
CENTER
 62
               2
100
AcDbLine
 10
-2.0
 20
0.0
 30
0.0
 11
2.0
 21
0.0
 31
0.0
  0
LINE
  5
154
100
AcDbEntity
  8
0
  6
CENTER
 62
               2
100
AcDbLine
 10
-2.0
 20
-22.599999999999994
 30
0.0
 11
2.0
 21
-22.599999999999994
 31
0.0
  0
LINE
  5
155
100
AcDbEntity
  8
0
  6
CENTER
 62
               2
100
AcDbLine
 10
-22.498951538085976
 20
30.562585161280538
 30
0.0
 11
-22.498951538085976
 21
-27.594831691049222
 31
0.0
  0
LINE
  5
156
100
AcDbEntity
  8
0
  6
CONTINUOUS
 62
               4
100
AcDbLine
 10
-15.498951538085976
 20
4.9000000000000057
 30
0.0
 11
-32.498954354612806
 21
4.9000000000000057
 31
0.0
  0
LINE
  5
157
100
AcDbEntity
  8
0
  6
CONTINUOUS
 62
               4
100
AcDbLine
 10
-45.295855477290388
 20
20.147182617187468
 30
0.0
 11
-45.295855477290388
 21
19.647182617187468
 31
0.0
  0
ARC
  5
158
100
AcDbEntity
  8
0
  6
CONTINUOUS
 62
               4
100
AcDbCircle
 10
-28.816046684744151
 20
26.800095146658208
 30
0.0
 40
0.5999048608870732
100
AcDbArc
 50
89.99091272245343
 51
123.56005066674096
  0
ARC
  5
159
100
AcDbEntity
  8
0
  6
CONTINUOUS
 62
               4
100
AcDbCircle
 10
-28.998951538085976
 20
26.800000000000011
 30
0.0
 40
0.5
100
AcDbArc
 50
114.73039869686018
 51
179.99999999999963
  0
ARC
  5
15A
100
AcDbEntity
  8
0
  6
CONTINUOUS
 62
               4
100
AcDbCircle
 10
-15.998951538085976
 20
26.800000000000011
 30
0.0
 40
0.5
100
AcDbArc
 50
0.0
 51
89.999999999999815
  0
LINE
  5
15B
100
AcDbEntity
  8
0
  6
CONTINUOUS
 62
               4
100
AcDbLine
 10
-15.998951538085976
 20
27.300000000000011
 30
0.0
 11
-17.498951538085976
 21
27.300000000000011
 31
0.0
  0
LINE
  5
15C
100
AcDbEntity
  8
0
  6
CONTINUOUS
 62
               4
100
AcDbLine
 10
-29.498951538085976
 20
25.800000000000097
 30
0.0
 11
-17.498948721559259
 21
25.800000000000097
 31
0.0
  0
LINE
  5
15D
100
AcDbEntity
  8
0
  6
CONTINUOUS
 62
               4
100
AcDbLine
 10
-17.498948721559259
 20
27.400000000000091
 30
0.0
 11
-17.498948721559259
 21
25.800000000000097
 31
0.0
  0
LINE
  5
15E
100
AcDbEntity
  8
0
  6
CONTINUOUS
 62
               4
100
AcDbLine
 10
-29.498951538085976
 20
26.800000000000125
 30
0.0
 11
-25.798951538086044
 21
26.800000000000125
 31
0.0
  0
ARC
  5
15F
100
AcDbEntity
  8
0
  6
CONTINUOUS
 62
               4
100
AcDbCircle
 10
-28.816046684744151
 20
26.800095146658208
 30
0.0
 40
0.5999048608870732
100
AcDbArc
 50
123.56005066674096
 51
180.00908727754583
  0
ARC
  5
160
100
AcDbEntity
  8
0
  6
CONTINUOUS
 62
               4
100
AcDbCircle
 10
-27.014863532848949
 20
26.801088005237034
 30
0.0
 40
0.5989129830170392
100
AcDbArc
 50
359.89591452477293
 51
90.104085475226867
  0
LINE
  5
161
100
AcDbEntity
  8
0
  6
CONTINUOUS
 62
               4
100
AcDbLine
 10
-28.816046684744265
 20
27.400000000000006
 30
0.0
 11
-17.498948721559259
 21
27.400000000000091
 31
0.0
  0
LINE
  5
162
100
AcDbEntity
  8
0
  6
CONTINUOUS
 62
               4
100
AcDbLine
 10
-25.798951538086044
 20
26.800000000000125
 30
0.0
 11
-25.798951538086044
 21
27.400000000000034
 31
0.0
  0
LINE
  5
163
100
AcDbEntity
  8
0
  6
CONTINUOUS
 62
               4
100
AcDbLine
 10
-35.098954354612829
 20
22.398000000000025
 30
0.0
 11
-35.098954354612829
 21
6.4319999999999879
 31
0.0
  0
LINE
  5
164
100
AcDbEntity
  8
0
  6
CONTINUOUS
 62
               4
100
AcDbLine
 10
-36.298954354612761
 20
20.548000000000002
 30
0.0
 11
-37.775855477290406
 21
20.548000000000002
 31
0.0
  0
LINE
  5
165
100
AcDbEntity
  8
0
  6
CONTINUOUS
 62
               4
100
AcDbLine
 10
-36.298954354612761
 20
19.24799999999999
 30
0.0
 11
-38.525855477290406
 21
19.24799999999999
 31
0.0
  0
LINE
  5
166
100
AcDbEntity
  8
0
  6
CONTINUOUS
 62
               4
100
AcDbLine
 10
-29.498954354612806
 20
23.398000000000025
 30
0.0
 11
-34.598954354612829
 21
23.398000000000025
 31
0.0
  0
ARC
  5
167
100
AcDbEntity
  8
0
  6
CONTINUOUS
 62
               4
100
AcDbCircle
 10
-34.598991878618222
 20
22.898037524005417
 30
0.0
 40
0.4999624774027422
100
AcDbArc
 50
89.995699743000799
 51
180.00430025699865
  0
ARC
  5
168
100
AcDbEntity
  8
0
  6
CONTINUOUS
 62
               4
100
AcDbCircle
 10
-34.598489910094827
 20
6.4311272247162776
 30
0.0
 40
0.5004652055472239
100
AcDbArc
 50
179.90008023532127
 51
244.87883575679552
  0
LINE
  5
169
100
AcDbEntity
  8
0
  6
CONTINUOUS
 62
               4
100
AcDbLine
 10
-35.098954354612829
 20
22.898000000000025
 30
0.0
 11
-35.098954354612829
 21
22.398000000000025
 31
0.0
  0
LINE
  5
16A
100
AcDbEntity
  8
0
  6
CONTINUOUS
 62
             200
100
AcDbLine
 10
-37.429855477290403
 20
21.148000000000025
 30
0.0
 11
-38.873855477290363
 21
18.647999999999996
 31
0.0
  0
LINE
  5
16B
100
AcDbEntity
  8
0
  6
CONTINUOUS
 62
               4
100
AcDbLine
 10
-39.025855477290406
 20
19.24799999999999
 30
0.0
 11
-41.795855477290388
 21
19.24799999999999
 31
0.0
  0
LINE
  5
16C
100
AcDbEntity
  8
0
  6
CONTINUOUS
 62
               4
100
AcDbLine
 10
-38.275855477290406
 20
20.548000000000002
 30
0.0
 11
-41.795855477290388
 21
20.548000000000002
 31
0.0
  0
LINE
  5
16D
100
AcDbEntity
  8
0
  6
CONTINUOUS
 62
             200
100
AcDbLine
 10
-37.929855477290403
 20
21.148000000000025
 30
0.0
 11
-39.373855477290363
 21
18.647999999999996
 31
0.0
  0
LINE
  5
16E
100
AcDbEntity
  8
0
  6
CONTINUOUS
 62
               4
100
AcDbLine
 10
-41.795855477290388
 20
20.547182617187445
 30
0.0
 11
-41.795855477290388
 21
19.247182617187491
 31
0.0
  0
LINE
  5
16F
100
AcDbEntity
  8
0
  6
CONTINUOUS
 62
               4
100
AcDbLine
 10
-35.098954354612829
 20
17.397999999999996
 30
0.0
 11
-35.798954354612761
 21
17.397999999999996
 31
0.0
  0
LINE
  5
170
100
AcDbEntity
  8
0
  6
CONTINUOUS
 62
               4
100
AcDbLine
 10
-36.298954354612761
 20
17.897999999999996
 30
0.0
 11
-36.298954354612761
 21
21.898000000000025
 31
0.0
  0
LINE
  5
171
100
AcDbEntity
  8
0
  6
CONTINUOUS
 62
               4
100
AcDbLine
 10
-35.098954354612829
 20
22.398000000000025
 30
0.0
 11
-35.798954354612761
 21
22.398000000000025
 31
0.0
  0
ARC
  5
172
100
AcDbEntity
  8
0
  6
CONTINUOUS
 62
               4
100
AcDbCircle
 10
-35.798954354612761
 20
17.897999999999996
 30
0.0
 40
0.5
100
AcDbArc
 50
179.99999999999963
 51
269.99999999999937
  0
ARC
  5
173
100
AcDbEntity
  8
0
  6
CONTINUOUS
 62
               4
100
AcDbCircle
 10
-35.798954354612761
 20
21.898000000000025
 30
0.0
 40
0.5
100
AcDbArc
 50
89.999999999999815
 51
179.99999999999963
  0
LINE
  5
174
100
AcDbEntity
  8
0
  6
CONTINUOUS
 62
               4
100
AcDbLine
 10
-41.795855477290388
 20
19.647182617187468
 30
0.0
 11
-45.295855477290388
 21
19.647182617187468
 31
0.0
  0
LINE
  5
175
100
AcDbEntity
  8
0
  6
CONTINUOUS
 62
               4
100
AcDbLine
 10
-41.795855477290388
 20
20.147182617187468
 30
0.0
 11
-45.295855477290388
 21
20.147182617187468
 31
0.0
  0
LINE
  5
176
100
AcDbEntity
  8
0
  6
CONTINUOUS
 62
               4
100
AcDbLine
 10
-32.498954354612806
 20
4.9000000000000057
 30
0.0
 11
-34.810954354612818
 21
5.9780000000000086
 31
0.0
  0
LINE
  5
177
100
AcDbEntity
  8
0
  6
CONTINUOUS
 62
               4
100
AcDbLine
 10
-32.498954354612806
 20
4.9000000000000057
 30
0.0
 11
-32.498954354612806
 21
23.398000000000025
 31
0.0
  0
LINE
  5
178
100
AcDbEntity
  8
0
  6
CONTINUOUS
 62
               4
100
AcDbLine
 10
-15.498951538085976
 20
26.800000000000011
 30
0.0
 11
-15.498951538085976
 21
4.9000000000000057
 31
0.0
  0
LINE
  5
179
100
AcDbEntity
  8
0
  6
CONTINUOUS
 62
               4
100
AcDbLine
 10
-29.498951538085976
 20
4.9000000000000057
 30
0.0
 11
-29.498951538085976
 21
26.799999994932278
 31
0.0
  0
ENDBLK
  5
17A
100
AcDbEntity
  8
0
100
AcDbBlockEnd
  0
BLOCK
  5
17B
100
AcDbEntity
  8
0
100
AcDbBlockBegin
  2
EB10A1-4
 70
               0
 10
0.0
 20
0.0
 30
0.0
  3
EB10A1-4
  1

  0
LINE
  5
17C
100
AcDbEntity
  8
0
  6
CONTINUOUS
 62
               7
100
AcDbLine
 10
-13.303295036165594
 20
-15.500001951045874
 30
0.0
 11
-13.303295036165594
 21
-14.5
 31
0.0
  0
LINE
  5
17D
100
AcDbEntity
  8
0
  6
CONTINUOUS
 62
               7
100
AcDbLine
 10
-3.3032950361662756
 20
-15.500001951045874
 30
0.0
 11
-3.3032950361662756
 21
-14.5
 31
0.0
  0
LINE
  5
17E
100
AcDbEntity
  8
0
  6
CENTER
 62
               2
100
AcDbLine
 10
-8.3000000381469476
 20
-45.913337402343814
 30
0.0
 11
-8.3000000381469476
 21
-12.593165433681861
 31
0.0
  0
CIRCLE
  5
17F
100
AcDbEntity
  8
0
  6
CONTINUOUS
 62
               7
100
AcDbCircle
 10
-8.3000000000000114
 20
-5.0
 30
0.0
 40
2.1000000000000001
  0
CIRCLE
  5
180
100
AcDbEntity
  8
0
  6
CONTINUOUS
 62
               2
100
AcDbCircle
 10
-8.3000000000000114
 20
-5.0
 30
0.0
 40
2.5
  0
LINE
  5
181
100
AcDbEntity
  8
0
  6
CENTER
 62
               2
100
AcDbLine
 10
-12.300000000000011
 20
-5.0
 30
0.0
 11
-4.3000000000000114
 21
-5.0
 31
0.0
  0
LINE
  5
182
100
AcDbEntity
  8
0
  6
CENTER
 62
               2
100
AcDbLine
 10
-8.3000000000000114
 20
-9.0
 30
0.0
 11
-8.3000000000000114
 21
-1.0
 31
0.0
  0
LINE
  5
183
100
AcDbEntity
  8
0
  6
CONTINUOUS
 62
               7
100
AcDbLine
 10
-14.299999983496662
 20
-14.5
 30
0.0
 11
2.7000000165033384
 21
-14.5
 31
0.0
  0
LINE
  5
184
100
AcDbEntity
  8
0
  6
CONTINUOUS
 62
               7
100
AcDbLine
 10
-14.299999983496662
 20
0.0
 30
0.0
 11
2.6999999999999886
 21
0.0
 31
0.0
  0
LINE
  5
185
100
AcDbEntity
  8
0
  6
CONTINUOUS
 62
               7
100
AcDbLine
 10
2.6999999999999886
 20
-14.500000028081558
 30
0.0
 11
2.6999999999999886
 21
-0.0000000280815584
 31
0.0
  0
LINE
  5
186
100
AcDbEntity
  8
0
  6
CONTINUOUS
 62
               7
100
AcDbLine
 10
-14.300000000000011
 20
-14.500000028081558
 30
0.0
 11
-14.300000000000011
 21
-0.0000000280815584
 31
0.0
  0
LINE
  5
187
100
AcDbEntity
  8
0
  6
CENTER
 62
               2
100
AcDbLine
 10
0.0
 20
-2.0
 30
0.0
 11
0.0
 21
2.0
 31
0.0
  0
CIRCLE
  5
188
100
AcDbEntity
  8
0
  6
CONTINUOUS
 62
               4
100
AcDbCircle
 10
-11.600000038147016
 20
-17.199999999999989
 30
0.0
 40
1.5
  0
LINE
  5
189
100
AcDbEntity
  8
0
  6
CONTINUOUS
 62
               4
100
AcDbLine
 10
-10.965000038147025
 20
-17.83499999999998
 30
0.0
 11
-12.235000038147007
 21
-16.564999999999941
 31
0.0
  0
LINE
  5
18A
100
AcDbEntity
  8
0
  6
CONTINUOUS
 62
               4
100
AcDbLine
 10
-12.235000038147007
 20
-17.83499999999998
 30
0.0
 11
-10.965000038147025
 21
-16.564999999999941
 31
0.0
  0
CIRCLE
  5
18B
100
AcDbEntity
  8
0
  6
CONTINUOUS
 62
               4
100
AcDbCircle
 10
-5.0000000381469931
 20
-27.799999999999955
 30
0.0
 40
1.5
  0
LINE
  5
18C
100
AcDbEntity
  8
0
  6
CONTINUOUS
 62
               4
100
AcDbLine
 10
-4.3650000381470022
 20
-28.435000000000002
 30
0.0
 11
-5.635000038146984
 21
-27.164999999999964
 31
0.0
  0
LINE
  5
18D
100
AcDbEntity
  8
0
  6
CONTINUOUS
 62
               4
100
AcDbLine
 10
-5.635000038146984
 20
-28.435000000000002
 30
0.0
 11
-4.3650000381470022
 21
-27.164999999999964
 31
0.0
  0
LINE
  5
18E
100
AcDbEntity
  8
0
  6
CONTINUOUS
 62
               4
100
AcDbLine
 10
-13.300000038146948
 20
-32.5
 30
0.0
 11
-13.300000038146948
 21
-29.5
 31
0.0
  0
LINE
  5
18F
100
AcDbEntity
  8
0
  6
CONTINUOUS
 62
               4
100
AcDbLine
 10
-3.3000000381469476
 20
-32.5
 30
0.0
 11
-3.3000000381469476
 21
-29.5
 31
0.0
  0
LINE
  5
190
100
AcDbEntity
  8
0
  6
CONTINUOUS
 62
               4
100
AcDbLine
 10
-13.112000038146959
 20
-34.644000000000005
 30
0.0
 11
-13.300000038146948
 21
-32.5
 31
0.0
  0
LINE
  5
191
100
AcDbEntity
  8
0
  6
CONTINUOUS
 62
               4
100
AcDbLine
 10
-3.4880000381469358
 20
-34.644000000000005
 30
0.0
 11
-3.3000000381469476
 21
-32.5
 31
0.0
  0
LINE
  5
192
100
AcDbEntity
  8
0
  6
CONTINUOUS
 62
               4
100
AcDbLine
 10
-12.614000038146969
 20
-35.099999999999966
 30
0.0
 11
-3.9860000381469831
 21
-35.099999999999966
 31
0.0
  0
ARC
  5
193
100
AcDbEntity
  8
0
  6
CONTINUOUS
 62
               4
100
AcDbCircle
 10
-3.9845501913949306
 20
-34.601649174742306
 30
0.0
 40
0.4983529342650692
100
AcDbArc
 50
269.83331046874025
 51
355.12503371583807
  0
ARC
  5
194
100
AcDbEntity
  8
0
  6
CONTINUOUS
 62
               4
100
AcDbCircle
 10
-12.614235759258406
 20
-34.600323221740155
 30
0.0
 40
0.4996768338602159
100
AcDbArc
 50
185.01462669496541
 51
270.02702912045385
  0
LINE
  5
195
100
AcDbEntity
  8
0
  6
CONTINUOUS
 62
               4
100
AcDbLine
 10
-5.5500000381469476
 20
-36.100002816526739
 30
0.0
 11
-5.5500000381469476
 21
-35.099999999999966
 31
0.0
  0
LINE
  5
196
100
AcDbEntity
  8
0
  6
CONTINUOUS
 62
               4
100
AcDbLine
 10
-5.7500000381469931
 20
-36.300002816526785
 30
0.0
 11
-10.850000038147016
 21
-36.300002816526785
 31
0.0
  0
LINE
  5
197
100
AcDbEntity
  8
0
  6
CONTINUOUS
 62
               4
100
AcDbLine
 10
-11.050000038146948
 20
-36.100002816526739
 30
0.0
 11
-11.050000038146948
 21
-35.099999999999966
 31
0.0
  0
ARC
  5
198
100
AcDbEntity
  8
0
  6
CONTINUOUS
 62
               4
100
AcDbCircle
 10
-5.7486209541561379
 20
-36.101381900517595
 30
0.0
 40
0.1986257036462844
100
AcDbArc
 50
269.60218478432887
 51
0.3978152156701683
  0
ARC
  5
199
100
AcDbEntity
  8
0
  6
CONTINUOUS
 62
               4
100
AcDbCircle
 10
-10.850041608999277
 20
-36.100044387379057
 30
0.0
 40
0.1999584334689487
100
AcDbArc
 50
179.98808835234971
 51
270.0119116476493
  0
LINE
  5
19A
100
AcDbEntity
  8
0
  6
CONTINUOUS
 62
               4
100
AcDbLine
 10
-8.9000000381469704
 20
-36.300002816526785
 30
0.0
 11
-8.9000000381469704
 21
-39.300002816526785
 31
0.0
  0
LINE
  5
19B
100
AcDbEntity
  8
0
  6
CONTINUOUS
 62
               4
100
AcDbLine
 10
-10.200000038146982
 20
-36.300002816526785
 30
0.0
 11
-10.200000038146982
 21
-38.950002816526762
 31
0.0
  0
LINE
  5
19C
100
AcDbEntity
  8
0
  6
CONTINUOUS
 62
               4
100
AcDbLine
 10
-6.4000000381469704
 20
-36.300002816526785
 30
0.0
 11
-6.4000000381469704
 21
-39.960002816526753
 31
0.0
  0
LINE
  5
19D
100
AcDbEntity
  8
0
  6
CONTINUOUS
 62
               4
100
AcDbLine
 10
-7.7000000381469818
 20
-36.300002816526785
 30
0.0
 11
-7.7000000381469818
 21
-39.613336149860118
 31
0.0
  0
LINE
  5
19E
100
AcDbEntity
  8
0
  6
CONTINUOUS
 62
               4
100
AcDbLine
 10
-6.4000000381469704
 20
-40.856565316526769
 30
0.0
 11
-6.4000000381469704
 21
-41.996906755731118
 31
0.0
  0
LINE
  5
19F
100
AcDbEntity
  8
0
  6
CONTINUOUS
 62
               4
100
AcDbLine
 10
-7.7000000381469818
 20
-40.50719031652676
 30
0.0
 11
-7.7000000381469818
 21
-41.996906755731118
 31
0.0
  0
LINE
  5
1A0
100
AcDbEntity
  8
0
  6
CONTINUOUS
 62
               4
100
AcDbLine
 10
-7.3000000381469476
 20
-41.996906755731118
 30
0.0
 11
-7.3000000381469476
 21
-45.996906755731118
 31
0.0
  0
LINE
  5
1A1
100
AcDbEntity
  8
0
  6
CONTINUOUS
 62
               4
100
AcDbLine
 10
-6.8000000381469476
 20
-41.996906755731118
 30
0.0
 11
-6.8000000381469476
 21
-45.996906755731118
 31
0.0
  0
LINE
  5
1A2
100
AcDbEntity
  8
0
  6
CONTINUOUS
 62
               4
100
AcDbLine
 10
-6.4000000381469704
 20
-41.996906755731118
 30
0.0
 11
-7.7000000381469818
 21
-41.996906755731118
 31
0.0
  0
LINE
  5
1A3
100
AcDbEntity
  8
0
  6
CONTINUOUS
 62
               4
100
AcDbLine
 10
-6.8000000381469476
 20
-45.996906755731118
 30
0.0
 11
-7.3000000381469476
 21
-45.996906755731118
 31
0.0
  0
LINE
  5
1A4
100
AcDbEntity
  8
0
  6
CONTINUOUS
 62
             200
100
AcDbLine
 10
-11.200000038146982
 20
-38.68000281652678
 30
0.0
 11
-5.4500000381469818
 21
-40.213336149860083
 31
0.0
  0
LINE
  5
1A5
100
AcDbEntity
  8
0
  6
CONTINUOUS
 62
               4
100
AcDbLine
 10
-8.9000000381469704
 20
-40.184690316526769
 30
0.0
 11
-8.9000000381469704
 21
-41.996906755731118
 31
0.0
  0
LINE
  5
1A6
100
AcDbEntity
  8
0
  6
CONTINUOUS
 62
               4
100
AcDbLine
 10
-10.200000038146982
 20
-39.83531531652676
 30
0.0
 11
-10.200000038146982
 21
-41.996906755731118
 31
0.0
  0
LINE
  5
1A7
100
AcDbEntity
  8
0
  6
CONTINUOUS
 62
               4
100
AcDbLine
 10
-9.8000000381469476
 20
-41.996906755731118
 30
0.0
 11
-9.8000000381469476
 21
-45.996906755731118
 31
0.0
  0
LINE
  5
1A8
100
AcDbEntity
  8
0
  6
CONTINUOUS
 62
               4
100
AcDbLine
 10
-9.3000000381469476
 20
-41.996906755731118
 30
0.0
 11
-9.3000000381469476
 21
-45.996906755731118
 31
0.0
  0
LINE
  5
1A9
100
AcDbEntity
  8
0
  6
CONTINUOUS
 62
               4
100
AcDbLine
 10
-8.9000000381469704
 20
-41.996906755731118
 30
0.0
 11
-10.200000038146982
 21
-41.996906755731118
 31
0.0
  0
LINE
  5
1AA
100
AcDbEntity
  8
0
  6
CONTINUOUS
 62
               4
100
AcDbLine
 10
-9.3000000381469476
 20
-45.996906755731118
 30
0.0
 11
-9.8000000381469476
 21
-45.996906755731118
 31
0.0
  0
LINE
  5
1AB
100
AcDbEntity
  8
0
  6
CONTINUOUS
 62
             200
100
AcDbLine
 10
-11.15000003814697
 20
-39.580002816526758
 30
0.0
 11
-5.4500000381469818
 21
-41.111877816526771
 31
0.0
  0
LINE
  5
1AC
100
AcDbEntity
  8
0
  6
CONTINUOUS
 62
               4
100
AcDbLine
 10
-11.600000038147016
 20
-19.199999999999989
 30
0.0
 11
-13.300000038146948
 21
-19.199999999999989
 31
0.0
  0
ARC
  5
1AD
100
AcDbEntity
  8
0
  6
CONTINUOUS
 62
               4
100
AcDbCircle
 10
-11.600000038147016
 20
-17.199999999999989
 30
0.0
 40
2.0
100
AcDbArc
 50
269.99999999999937
 51
351.37307344132068
  0
LINE
  5
1AE
100
AcDbEntity
  8
0
  6
CONTINUOUS
 62
               4
100
AcDbLine
 10
-5.0000000381469931
 20
-25.799999999999955
 30
0.0
 11
-3.3000000381469476
 21
-25.799999999999955
 31
0.0
  0
ARC
  5
1AF
100
AcDbEntity
  8
0
  6
CONTINUOUS
 62
               4
100
AcDbCircle
 10
-5.0000000381469931
 20
-27.799999999999955
 30
0.0
 40
2.0
100
AcDbArc
 50
89.999999999999815
 51
171.37307344132105
  0
LINE
  5
1B0
100
AcDbEntity
  8
0
  6
CENTER
 62
             200
100
AcDbLine
 10
-11.600000038147016
 20
-15.164999999999964
 30
0.0
 11
-11.600000038147016
 21
-19.659999999999968
 31
0.0
  0
LINE
  5
1B1
100
AcDbEntity
  8
0
  6
CENTER
 62
             200
100
AcDbLine
 10
-9.6000000381470159
 20
-17.199999999999989
 30
0.0
 11
-13.625000038146993
 21
-17.199999999999989
 31
0.0
  0
ARC
  5
1B2
100
AcDbEntity
  8
0
  6
CONTINUOUS
 62
               4
100
AcDbCircle
 10
-6.8000000381469476
 20
-27.799999999999955
 30
0.0
 40
0.3
100
AcDbArc
 50
0.0
 51
89.999999999999815
  0
ARC
  5
1B3
100
AcDbEntity
  8
0
  6
CONTINUOUS
 62
               4
100
AcDbCircle
 10
-9.8000000381469476
 20
-17.199999999999989
 30
0.0
 40
0.3
100
AcDbArc
 50
179.99999999999963
 51
269.99999999999937
  0
ARC
  5
1B4
100
AcDbEntity
  8
0
  6
CONTINUOUS
 62
               4
100
AcDbCircle
 10
-6.2000000381469818
 20
-29.199999999999989
 30
0.0
 40
0.3
100
AcDbArc
 50
179.99999999999963
 51
269.99999999999937
  0
ARC
  5
1B5
100
AcDbEntity
  8
0
  6
CONTINUOUS
 62
               4
100
AcDbCircle
 10
-13.000000038146993
 20
-27.199999999999989
 30
0.0
 40
0.3
100
AcDbArc
 50
179.99999999999963
 51
269.99999999999937
  0
ARC
  5
1B6
100
AcDbEntity
  8
0
  6
CONTINUOUS
 62
               4
100
AcDbCircle
 10
-3.600000038146959
 20
-17.799999999999955
 30
0.0
 40
0.3
100
AcDbArc
 50
0.0
 51
89.999999999999815
  0
ARC
  5
1B7
100
AcDbEntity
  8
0
  6
CONTINUOUS
 62
               4
100
AcDbCircle
 10
-10.40000003814697
 20
-15.799999999999955
 30
0.0
 40
0.3
100
AcDbArc
 50
0.0
 51
89.999999999999815
  0
LINE
  5
1B8
100
AcDbEntity
  8
0
  6
CENTER
 62
             200
100
AcDbLine
 10
-5.0000000381469931
 20
-29.83499999999998
 30
0.0
 11
-5.0000000381469931
 21
-25.339999999999975
 31
0.0
  0
LINE
  5
1B9
100
AcDbEntity
  8
0
  6
CENTER
 62
             200
100
AcDbLine
 10
-7.0000000381469931
 20
-27.799999999999955
 30
0.0
 11
-2.975000038146959
 21
-27.799999999999955
 31
0.0
  0
LINE
  5
1BA
100
AcDbEntity
  8
0
  6
CONTINUOUS
 62
               4
100
AcDbLine
 10
-10.100000038147016
 20
-16.5
 30
0.0
 11
-9.8000000381469476
 21
-17.5
 31
0.0
  0
LINE
  5
1BB
100
AcDbEntity
  8
0
  6
CONTINUOUS
 62
               4
100
AcDbLine
 10
-6.5000000381469931
 20
-28.5
 30
0.0
 11
-6.8000000381469476
 21
-27.5
 31
0.0
  0
LINE
  5
1BC
100
AcDbEntity
  8
0
  6
CONTINUOUS
 62
               4
100
AcDbLine
 10
-13.300000038146948
 20
-27.5
 30
0.0
 11
-6.8000000381469476
 21
-27.5
 31
0.0
  0
LINE
  5
1BD
100
AcDbEntity
  8
0
  6
CONTINUOUS
 62
               4
100
AcDbLine
 10
-9.8000000381469476
 20
-17.5
 30
0.0
 11
-3.3000000381469476
 21
-17.5
 31
0.0
  0
LINE
  5
1BE
100
AcDbEntity
  8
0
  6
CONTINUOUS
 62
               4
100
AcDbLine
 10
-13.300000038146948
 20
-29.5
 30
0.0
 11
-13.300000038146948
 21
-15.5
 31
0.0
  0
LINE
  5
1BF
100
AcDbEntity
  8
0
  6
CONTINUOUS
 62
               4
100
AcDbLine
 10
-3.3000000381469476
 20
-29.5
 30
0.0
 11
-3.3000000381469476
 21
-15.5
 31
0.0
  0
LINE
  5
1C0
100
AcDbEntity
  8
0
  6
CONTINUOUS
 62
               4
100
AcDbLine
 10
-13.300000038146948
 20
-29.5
 30
0.0
 11
-3.3000000381469476
 21
-29.5
 31
0.0
  0
LINE
  5
1C1
100
AcDbEntity
  8
0
  6
CONTINUOUS
 62
               4
100
AcDbLine
 10
-13.300000038146948
 20
-15.5
 30
0.0
 11
-3.3000000381469476
 21
-15.5
 31
0.0
  0
LINE
  5
1C2
100
AcDbEntity
  8
0
  6
CENTER
 62
               2
100
AcDbLine
 10
-14.200000038146982
 20
-22.5
 30
0.0
 11
-2.3680000381469881
 21
-22.5
 31
0.0
  0
LINE
  5
1C3
100
AcDbEntity
  8
0
  6
CONTINUOUS
 62
               4
100
AcDbLine
 10
-10.100000038147016
 20
-17.199999999999989
 30
0.0
 11
-10.100000038147016
 21
-15.5
 31
0.0
  0
LINE
  5
1C4
100
AcDbEntity
  8
0
  6
CONTINUOUS
 62
               4
100
AcDbLine
 10
-6.5000000381469931
 20
-29.5
 30
0.0
 11
-6.5000000381469931
 21
-27.799999999999955
 31
0.0
  0
ENDBLK
  5
1C5
100
AcDbEntity
  8
0
100
AcDbBlockEnd
  0
BLOCK
  5
1C6
100
AcDbEntity
  8
0
100
AcDbBlockBegin
  2
EB10A1-5
 70
               0
 10
0.0
 20
0.0
 30
0.0
  3
EB10A1-5
  1

  0
ARC
  5
1C7
100
AcDbEntity
  8
0
  6
CONTINUOUS
 62
               4
100
AcDbCircle
 10
32.385932244130743
 20
5.3999954535712149
 30
0.0
 40
0.5
100
AcDbArc
 50
269.7556636029762
 51
295.03102081721903
  0
LINE
  5
1C8
100
AcDbEntity
  8
0
  6
CONTINUOUS
 62
               4
100
AcDbLine
 10
29.498951530085947
 20
4.9000000000002544
 30
0.0
 11
32.383800013285907
 21
4.9000000000002544
 31
0.0
  0
LINE
  5
1C9
100
AcDbEntity
  8
0
  6
CONTINUOUS
 62
               4
100
AcDbLine
 10
56.494911112619008
 20
21.659233128737036
 30
0.0
 11
56.494911112619008
 21
22.159233128737036
 31
0.0
  0
ARC
  5
1CA
100
AcDbEntity
  8
0
  6
CONTINUOUS
 62
               4
100
AcDbCircle
 10
18.100039689322642
 20
26.801088005237283
 30
0.0
 40
0.5989129830170392
100
AcDbArc
 50
359.89591452477299
 51
90.104085475226924
  0
LINE
  5
1CB
100
AcDbEntity
  8
0
  6
CONTINUOUS
 62
               4
100
AcDbLine
 10
19.198951684085557
 20
26.80000000000026
 30
0.0
 11
19.198951684085557
 21
27.400000000000283
 31
0.0
  0
LINE
  5
1CC
100
AcDbEntity
  8
0
  6
CONTINUOUS
 62
               4
100
AcDbLine
 10
52.994911112618951
 20
22.560555545467302
 30
0.0
 11
49.657537377152352
 21
22.560555545467246
 31
0.0
  0
LINE
  5
1CD
100
AcDbEntity
  8
0
  6
CONTINUOUS
 62
               4
100
AcDbLine
 10
52.994911112618979
 20
21.259545445200608
 30
0.0
 11
50.407032326218996
 21
21.259545445200551
 31
0.0
  0
LINE
  5
1CE
100
AcDbEntity
  8
0
  6
CONTINUOUS
 62
               4
100
AcDbLine
 10
29.498951530085606
 20
24.401010089866951
 30
0.0
 11
36.993901020752276
 21
24.401010089867121
 31
0.0
  0
LINE
  5
1CF
100
AcDbEntity
  8
0
  6
CONTINUOUS
 62
               4
100
AcDbLine
 10
37.495921222485634
 20
23.898989888133734
 30
0.0
 11
37.495921222485947
 21
7.5515151500004762
 31
0.0
  0
LINE
  5
1D0
100
AcDbEntity
  8
0
  6
CONTINUOUS
 62
               4
100
AcDbLine
 10
45.492890914885692
 20
19.402020193733811
 30
0.0
 11
45.492890914885606
 21
23.503030292400545
 31
0.0
  0
LINE
  5
1D1
100
AcDbEntity
  8
0
  6
CONTINUOUS
 62
               4
100
AcDbLine
 10
38.888850514618952
 20
25.504040392267164
 30
0.0
 11
43.993901016752261
 21
26.402020189733911
 31
0.0
  0
LINE
  5
1D2
100
AcDbEntity
  8
0
  6
CONTINUOUS
 62
               4
100
AcDbLine
 10
45.492890914885578
 20
25.405050493333839
 30
0.0
 11
45.49289091488555
 21
26.402020189733911
 31
0.0
  0
LINE
  5
1D3
100
AcDbEntity
  8
0
  6
CONTINUOUS
 62
               4
100
AcDbLine
 10
37.828244454618982
 20
24.302020190933682
 30
0.0
 11
44.170668693418918
 21
25.419191907467187
 31
0.0
  0
LINE
  5
1D4
100
AcDbEntity
  8
0
  6
CONTINUOUS
 62
               4
100
AcDbLine
 10
36.491880819018945
 20
24.49999998880039
 30
0.0
 11
30.792890923285569
 21
24.499999988800276
 31
0.0
  0
LINE
  5
1D5
100
AcDbEntity
  8
0
  6
CONTINUOUS
 62
               4
100
AcDbLine
 10
45.492890914885606
 20
23.503030292400545
 30
0.0
 11
45.19592121808563
 21
23.799999989200522
 31
0.0
  0
LINE
  5
1D6
100
AcDbEntity
  8
0
  6
CONTINUOUS
 62
               4
100
AcDbLine
 10
44.495921218485677
 20
19.402020193733811
 30
0.0
 11
44.495921218485677
 21
20.003030294400524
 31
0.0
  0
LINE
  5
1D7
100
AcDbEntity
  8
0
  6
CONTINUOUS
 62
               4
100
AcDbLine
 10
44.495921218485677
 20
20.003030294400524
 30
0.0
 11
39.49693132235231
 21
20.003030294400467
 31
0.0
  0
LINE
  5
1D8
100
AcDbEntity
  8
0
  6
CONTINUOUS
 62
               4
100
AcDbLine
 10
39.496931322352339
 20
19.402020193733698
 30
0.0
 11
39.49693132235231
 21
20.003030294400467
 31
0.0
  0
LINE
  5
1D9
100
AcDbEntity
  8
0
  6
CONTINUOUS
 62
               4
100
AcDbLine
 10
38.994911120618951
 20
23.503030292400432
 30
0.0
 11
39.291880817418928
 21
23.799999989200408
 31
0.0
  0
LINE
  5
1DA
100
AcDbEntity
  8
0
  6
CONTINUOUS
 62
               4
100
AcDbLine
 10
38.888850514618952
 20
25.504040392267164
 30
0.0
 11
29.795921226885554
 21
25.504040392266994
 31
0.0
  0
LINE
  5
1DB
100
AcDbEntity
  8
0
  6
CONTINUOUS
 62
               4
100
AcDbLine
 10
30.792890923285569
 20
24.401010089867007
 30
0.0
 11
30.792890923285569
 21
24.499999988800276
 31
0.0
  0
LINE
  5
1DC
100
AcDbEntity
  8
0
  6
CONTINUOUS
 62
               4
100
AcDbLine
 10
50.0605676799523
 20
21.254545445200584
 30
0.0
 11
45.492890914885663
 21
21.254545445200471
 31
0.0
  0
LINE
  5
1DD
100
AcDbEntity
  8
0
  6
CONTINUOUS
 62
             200
100
AcDbLine
 10
48.823193943285617
 20
23.409040393467187
 30
0.0
 11
50.555517174619013
 21
20.403989890133964
 31
0.0
  0
LINE
  5
1DE
100
AcDbEntity
  8
0
  6
CONTINUOUS
 62
               4
100
AcDbLine
 10
49.311072730885655
 20
22.55555554546725
 30
0.0
 11
45.492890914885635
 21
22.555555545467193
 31
0.0
  0
LINE
  5
1DF
100
AcDbEntity
  8
0
  6
CONTINUOUS
 62
               4
100
AcDbLine
 10
45.49289091488555
 20
26.402020189733911
 30
0.0
 11
43.993901016752261
 21
26.402020189733911
 31
0.0
  0
LINE
  5
1E0
100
AcDbEntity
  8
0
  6
CONTINUOUS
 62
               4
100
AcDbLine
 10
45.492890914885578
 20
25.405050493333839
 30
0.0
 11
44.085820208618884
 21
25.405050493333839
 31
0.0
  0
LINE
  5
1E1
100
AcDbEntity
  8
0
  6
CONTINUOUS
 62
               4
100
AcDbLine
 10
45.19592121808563
 20
23.799999989200522
 30
0.0
 11
39.291880817418928
 21
23.799999989200408
 31
0.0
  0
LINE
  5
1E2
100
AcDbEntity
  8
0
  6
CONTINUOUS
 62
               4
100
AcDbLine
 10
45.492890914885606
 20
23.503030292400545
 30
0.0
 11
37.898951525285668
 21
23.503030292400403
 31
0.0
  0
LINE
  5
1E3
100
AcDbEntity
  8
0
  6
CONTINUOUS
 62
               4
100
AcDbLine
 10
45.492890914885635
 20
22.803030292800564
 30
0.0
 11
37.495921222485663
 21
22.80303029280045
 31
0.0
  0
LINE
  5
1E4
100
AcDbEntity
  8
0
  6
CONTINUOUS
 62
               4
100
AcDbLine
 10
45.492890914885663
 20
20.999999990800568
 30
0.0
 11
37.495921222485691
 21
20.999999990800426
 31
0.0
  0
LINE
  5
1E5
100
AcDbEntity
  8
0
  6
CONTINUOUS
 62
               4
100
AcDbLine
 10
37.49592122248572
 20
19.402020193733698
 30
0.0
 11
39.496931322352339
 21
19.402020193733698
 31
0.0
  0
LINE
  5
1E6
100
AcDbEntity
  8
0
  6
CONTINUOUS
 62
               4
100
AcDbLine
 10
44.495921218485677
 20
19.402020193733811
 30
0.0
 11
45.492890914885692
 21
19.402020193733811
 31
0.0
  0
ARC
  5
1E7
100
AcDbEntity
  8
0
  6
CONTINUOUS
 62
               4
100
AcDbCircle
 10
36.996208899642653
 20
7.5525224605395849
 30
0.0
 40
0.4997133381008656
100
AcDbArc
 50
294.82621530980992
 51
359.88450442035736
  0
ARC
  5
1E8
100
AcDbEntity
  8
0
  6
CONTINUOUS
 62
               4
100
AcDbCircle
 10
36.999284371006951
 20
23.904373238388409
 30
0.0
 40
0.4966660273328702
100
AcDbArc
 50
359.37896036356483
 51
90.621039636434716
  0
ARC
  5
1E9
100
AcDbEntity
  8
0
  6
CONTINUOUS
 62
               4
100
AcDbCircle
 10
29.798382821803017
 20
25.20458412941894
 30
0.0
 40
0.2994663800970315
100
AcDbArc
 50
90.47097302846538
 51
180.87710076750685
  0
ARC
  5
1EA
100
AcDbEntity
  8
0
  6
CONTINUOUS
 62
               4
100
AcDbCircle
 10
36.498864044222813
 20
24.005034325093014
 30
0.0
 40
0.4950149226876426
100
AcDbArc
 50
53.123124741165753
 51
90.808304124579536
  0
ARC
  5
1EB
100
AcDbEntity
  8
0
  6
CONTINUOUS
 62
               4
100
AcDbCircle
 10
37.898847456464665
 20
23.905327231604922
 30
0.0
 40
0.4029269013737999
100
AcDbArc
 50
100.09177155739695
 51
179.8957164142515
  0
ARC
  5
1EC
100
AcDbEntity
  8
0
  6
CONTINUOUS
 62
               4
100
AcDbCircle
 10
37.899785569439985
 20
23.906894639354753
 30
0.0
 40
0.403865208170398
100
AcDbArc
 50
180.11832473551567
 51
269.88167526448677
  0
LINE
  5
1ED
100
AcDbEntity
  8
0
  6
CONTINUOUS
 62
             200
100
AcDbLine
 10
49.169658589552313
 20
23.409040393467244
 30
0.0
 11
50.901981820885709
 21
20.41106059720061
 31
0.0
  0
LINE
  5
1EE
100
AcDbEntity
  8
0
  6
CONTINUOUS
 62
               4
100
AcDbLine
 10
27.498951499050008
 20
25.799999999999976
 30
0.0
 11
15.498951503049966
 21
25.800000000000203
 31
0.0
  0
LINE
  5
1EF
100
AcDbEntity
  8
0
  6
CONTINUOUS
 62
               4
100
AcDbLine
 10
27.498951499050065
 20
27.400000000000027
 30
0.0
 11
27.498951499050008
 21
25.799999999999976
 31
0.0
  0
LINE
  5
1F0
100
AcDbEntity
  8
0
  6
CONTINUOUS
 62
               4
100
AcDbLine
 10
28.998951495050022
 20
27.300000000000033
 30
0.0
 11
27.498951499050037
 21
27.300000000000033
 31
0.0
  0
ARC
  5
1F1
100
AcDbEntity
  8
0
  6
CONTINUOUS
 62
               4
100
AcDbCircle
 10
28.998951495050022
 20
26.799999999999976
 30
0.0
 40
0.5
100
AcDbArc
 50
359.99999999999898
 51
89.999999999998778
  0
LINE
  5
1F2
100
AcDbEntity
  8
0
  6
CONTINUOUS
 62
               4
100
AcDbLine
 10
28.698951409050039
 20
27.400000000000027
 30
0.0
 11
16.298951589050034
 21
27.400000000000254
 31
0.0
  0
ARC
  5
1F3
100
AcDbEntity
  8
0
  6
CONTINUOUS
 62
               4
100
AcDbCircle
 10
15.998951503049966
 20
26.800000000000232
 30
0.0
 40
0.5
100
AcDbArc
 50
93.919585899649775
 51
179.99999999999858
  0
LINE
  5
1F4
100
AcDbEntity
  8
0
  6
CONTINUOUS
 62
               4
100
AcDbLine
 10
19.198951684085557
 20
26.800000000000175
 30
0.0
 11
15.498951503049966
 21
26.800000000000232
 31
0.0
  0
ARC
  5
1F5
100
AcDbEntity
  8
0
  6
CONTINUOUS
 62
               4
100
AcDbCircle
 10
16.297863583921753
 20
26.801088005128484
 30
0.0
 40
0.598912923125741
100
AcDbArc
 50
89.895914524771712
 51
180.10408547522565
  0
ARC
  5
1F6
100
AcDbEntity
  8
0
  6
CONTINUOUS
 62
               4
100
AcDbCircle
 10
28.699046555698715
 20
26.80009514664868
 30
0.0
 40
0.599904800896587
100
AcDbArc
 50
56.247417870392866
 51
90.009087277545149
  0
LINE
  5
1F7
100
AcDbEntity
  8
0
  6
CONTINUOUS
 62
               4
100
AcDbLine
 10
52.994911112618979
 20
21.259545445200608
 30
0.0
 11
52.994911112618951
 21
22.560555545467302
 31
0.0
  0
LINE
  5
1F8
100
AcDbEntity
  8
0
  6
CONTINUOUS
 62
               4
100
AcDbLine
 10
52.994911112618951
 20
22.159233112521456
 30
0.0
 11
56.494911112619008
 21
22.159233112521456
 31
0.0
  0
LINE
  5
1F9
100
AcDbEntity
  8
0
  6
CONTINUOUS
 62
               4
100
AcDbLine
 10
52.994911112618951
 20
21.659233112521456
 30
0.0
 11
56.494911112619008
 21
21.659233112521456
 31
0.0
  0
LINE
  5
1FA
100
AcDbEntity
  8
0
  6
CONTINUOUS
 62
               4
100
AcDbLine
 10
32.597486688513754
 20
4.9469560324809478
 30
0.0
 11
37.206022232752588
 21
7.0989898977337234
 31
0.0
  0
LINE
  5
1FB
100
AcDbEntity
  8
0
  6
CONTINUOUS
 62
               4
100
AcDbLine
 10
32.383800013285907
 20
4.9000000000003112
 30
0.0
 11
32.383800013285565
 21
24.401010089867007
 31
0.0
  0
LINE
  5
1FC
100
AcDbEntity
  8
0
  6
CONTINUOUS
 62
               4
100
AcDbLine
 10
15.498951538085976
 20
4.8999999999999986
 30
0.0
 11
15.498951538085578
 21
26.799999999999976
 31
0.0
  0
LINE
  5
1FD
100
AcDbEntity
  8
0
  6
CONTINUOUS
 62
               4
100
AcDbLine
 10
29.498951530085577
 20
26.800000000000232
 30
0.0
 11
29.498951530085947
 21
4.9000000000002544
 31
0.0
  0
LINE
  5
1FE
100
AcDbEntity
  8
0
  6
CENTER
 62
               2
100
AcDbLine
 10
22.498951516567786
 20
30.562585161280545
 30
0.0
 11
22.498951516567786
 21
-27.594831691049194
 31
0.0
  0
ARC
  5
1FF
100
AcDbEntity
  8
0
  6
CONTINUOUS
 62
               7
100
AcDbCircle
 10
28.698951538085964
 20
-11.500000000000007
 30
0.0
 40
0.4
100
AcDbArc
 50
270.00000000000023
 51
0.0
  0
ARC
  5
200
100
AcDbEntity
  8
0
  6
CONTINUOUS
 62
               7
100
AcDbCircle
 10
28.698951538085964
 20
-9.3000000000000043
 30
0.0
 40
0.4
100
AcDbArc
 50
0.0
 51
89.999999999999815
  0
LINE
  5
201
100
AcDbEntity
  8
0
  6
CONTINUOUS
 62
               7
100
AcDbLine
 10
28.698951538085964
 20
-11.900000000000006
 30
0.0
 11
28.498951538085976
 21
-11.900000000000006
 31
0.0
  0
LINE
  5
202
100
AcDbEntity
  8
0
  6
CONTINUOUS
 62
               7
100
AcDbLine
 10
28.698951538085964
 20
-8.9000000000000057
 30
0.0
 11
28.498951538085976
 21
-8.9000000000000057
 31
0.0
  0
LINE
  5
203
100
AcDbEntity
  8
0
  6
CONTINUOUS
 62
               7
100
AcDbLine
 10
29.09895153808597
 20
-9.3000000000000043
 30
0.0
 11
29.09895153808597
 21
-11.500000000000007
 31
0.0
  0
LINE
  5
204
100
AcDbEntity
  8
0
  6
CONTINUOUS
 62
               7
100
AcDbLine
 10
15.498951538085976
 20
4.8999999999999986
 30
0.0
 11
15.498951538085976
 21
-25.19999999999991
 31
0.0
  0
LINE
  5
205
100
AcDbEntity
  8
0
  6
CONTINUOUS
 62
               7
100
AcDbLine
 10
14.498951538085976
 20
-5.7008234863280691
 30
0.0
 11
14.498951538085976
 21
-24.700823486328069
 31
0.0
  0
LINE
  5
206
100
AcDbEntity
  8
0
  6
CONTINUOUS
 62
               7
100
AcDbLine
 10
15.498951538085976
 20
-24.700823486328069
 30
0.0
 11
14.498951538085976
 21
-24.700823486328069
 31
0.0
  0
LINE
  5
207
100
AcDbEntity
  8
0
  6
CONTINUOUS
 62
               7
100
AcDbLine
 10
15.498951538085976
 20
0.0991765136719991
 30
0.0
 11
14.498951538085976
 21
0.0991765136719991
 31
0.0
  0
LINE
  5
208
100
AcDbEntity
  8
0
  6
CONTINUOUS
 62
               7
100
AcDbLine
 10
14.498951538085976
 20
0.0991765136719991
 30
0.0
 11
14.498951538085976
 21
-4.7008234863280691
 31
0.0
  0
LINE
  5
209
100
AcDbEntity
  8
0
  6
CONTINUOUS
 62
               7
100
AcDbLine
 10
14.5
 20
2.7000000000000668
 30
0.0
 11
0.0
 21
2.7000000000000668
 31
0.0
  0
LINE
  5
20A
100
AcDbEntity
  8
0
  6
CONTINUOUS
 62
               7
100
AcDbLine
 10
14.5
 20
-25.299999999999933
 30
0.0
 11
14.5
 21
2.7000000000000668
 31
0.0
  0
LINE
  5
20B
100
AcDbEntity
  8
0
  6
CONTINUOUS
 62
               7
100
AcDbLine
 10
14.5
 20
-25.299999999999933
 30
0.0
 11
0.0
 21
-25.299999999999933
 31
0.0
  0
LINE
  5
20C
100
AcDbEntity
  8
0
  6
CONTINUOUS
 62
               7
100
AcDbLine
 10
0.0
 20
2.7000000000000668
 30
0.0
 11
0.0
 21
-25.299999999999933
 31
0.0
  0
LINE
  5
20D
100
AcDbEntity
  8
0
  6
CONTINUOUS
 62
               7
100
AcDbLine
 10
29.498951538085976
 20
-6.1000000000000014
 30
0.0
 11
29.498951538085976
 21
-25.19999999999991
 31
0.0
  0
LINE
  5
20E
100
AcDbEntity
  8
0
  6
CONTINUOUS
 62
               7
100
AcDbLine
 10
15.498951538085976
 20
-6.1000000000000014
 30
0.0
 11
29.498951524567872
 21
-6.1000000000000014
 31
0.0
  0
LINE
  5
20F
100
AcDbEntity
  8
0
  6
CONTINUOUS
 62
               7
100
AcDbLine
 10
15.498951538085976
 20
-20.600000000000001
 30
0.0
 11
29.498951524567872
 21
-20.600000000000001
 31
0.0
  0
ARC
  5
210
100
AcDbEntity
  8
0
  6
CONTINUOUS
 62
               7
100
AcDbCircle
 10
29.09992490511263
 20
-25.200973367026542
 30
0.0
 40
0.3990278201647513
100
AcDbArc
 50
269.8602356150771
 51
0.1397643849223044
  0
LINE
  5
211
100
AcDbEntity
  8
0
  6
CONTINUOUS
 62
               7
100
AcDbLine
 10
15.89895153808601
 20
-25.600000000000001
 30
0.0
 11
29.098951538085998
 21
-25.600000000000001
 31
0.0
  0
ARC
  5
212
100
AcDbEntity
  8
0
  6
CONTINUOUS
 62
               7
100
AcDbCircle
 10
15.897978171059378
 20
-25.200973367026542
 30
0.0
 40
0.3990278201647513
100
AcDbArc
 50
179.8602356150773
 51
270.1397643849217
  0
LINE
  5
213
100
AcDbEntity
  8
0
  6
CONTINUOUS
 62
               7
100
AcDbLine
 10
30.598951538085942
 20
-1.1000000000000014
 30
0.0
 11
30.598951538085942
 21
4.8999999999999986
 31
0.0
  0
LINE
  5
214
100
AcDbEntity
  8
0
  6
CONTINUOUS
 62
               7
100
AcDbLine
 10
31.046951538085978
 20
1.5000000000000213
 30
0.0
 11
30.598951538085942
 21
1.5000000000000213
 31
0.0
  0
LINE
  5
215
100
AcDbEntity
  8
0
  6
CONTINUOUS
 62
               7
100
AcDbLine
 10
31.046951538085978
 20
3.7000000000000668
 30
0.0
 11
30.598951538085942
 21
3.7000000000000668
 31
0.0
  0
LINE
  5
216
100
AcDbEntity
  8
0
  6
CONTINUOUS
 62
               7
100
AcDbLine
 10
31.046951538085978
 20
1.5000000000000213
 30
0.0
 11
31.046951538085978
 21
3.7000000000000668
 31
0.0
  0
LINE
  5
217
100
AcDbEntity
  8
0
  6
CONTINUOUS
 62
               7
100
AcDbLine
 10
15.498951538085976
 20
4.8999999999999986
 30
0.0
 11
30.598951538085942
 21
4.8999999999999986
 31
0.0
  0
LINE
  5
218
100
AcDbEntity
  8
0
  6
CONTINUOUS
 62
               7
100
AcDbLine
 10
29.498951538085976
 20
4.904999999999994
 30
0.0
 11
29.498951538085976
 21
-6.1000000000000014
 31
0.0
  0
LINE
  5
219
100
AcDbEntity
  8
0
  6
CONTINUOUS
 62
               7
100
AcDbLine
 10
29.498951538085976
 20
-2.1999999999999105
 30
0.0
 11
30.598951538085942
 21
-1.1000000000000014
 31
0.0
  0
ARC
  5
21A
100
AcDbEntity
  8
0
  6
CONTINUOUS
 62
               7
100
AcDbCircle
 10
28.888397569976917
 20
-24.331748731346899
 30
0.0
 40
0.6105564724372721
100
AcDbArc
 50
286.22092756849014
 51
0.1641044967937703
  0
LINE
  5
21B
100
AcDbEntity
  8
0
  6
CONTINUOUS
 62
               7
100
AcDbLine
 10
29.498951538085976
 20
-23.799999999999933
 30
0.0
 11
25.978951538085994
 21
-23.799999999999933
 31
0.0
  0
ARC
  5
21C
100
AcDbEntity
  8
0
  6
CONTINUOUS
 62
               7
100
AcDbCircle
 10
29.179846674944883
 20
-23.500895136858823
 30
0.0
 40
0.2991062025847394
100
AcDbArc
 50
269.82853033399044
 51
0.1714696660097498
  0
LINE
  5
21D
100
AcDbEntity
  8
0
  6
CONTINUOUS
 62
               7
100
AcDbLine
 10
25.978951538085994
 20
-25.600000000000001
 30
0.0
 11
25.978951538085994
 21
-23.799999999999933
 31
0.0
  0
LINE
  5
21E
100
AcDbEntity
  8
0
  6
CONTINUOUS
 62
               7
100
AcDbLine
 10
26.058951538085978
 20
-24.329999999999906
 30
0.0
 11
26.058951538085978
 21
-23.799999999999933
 31
0.0
  0
ARC
  5
21F
100
AcDbEntity
  8
0
  6
CONTINUOUS
 62
               7
100
AcDbCircle
 10
26.670723533919897
 20
-24.330837282028916
 30
0.0
 40
0.6117725687931934
100
AcDbArc
 50
179.9215840265656
 51
253.6933839081498
  0
ARC
  5
220
100
AcDbEntity
  8
0
  6
CONTINUOUS
 62
               7
100
AcDbCircle
 10
27.778951538085948
 20
-20.512578763265971
 30
0.0
 40
4.5876068132596712
100
AcDbArc
 50
253.7987189241569
 51
286.20128107584202
  0
LINE
  5
221
100
AcDbEntity
  8
0
  6
CENTER
 62
               2
100
AcDbLine
 10
8.5
 20
-11.299999999999933
 30
0.0
 11
1.5
 21
-11.299999999999933
 31
0.0
  0
CIRCLE
  5
222
100
AcDbEntity
  8
0
  6
CONTINUOUS
 62
               2
100
AcDbCircle
 10
4.9933435058593716
 20
-11.299999999999933
 30
0.0
 40
2.5
  0
CIRCLE
  5
223
100
AcDbEntity
  8
0
  6
CONTINUOUS
 62
               7
100
AcDbCircle
 10
4.9933435058593716
 20
-11.299999999999933
 30
0.0
 40
2.0
  0
LINE
  5
224
100
AcDbEntity
  8
0
  6
CENTER
 62
               2
100
AcDbLine
 10
5.0
 20
-7.7999999999999332
 30
0.0
 11
5.0
 21
-14.799999999999933
 31
0.0
  0
LINE
  5
225
100
AcDbEntity
  8
0
  6
CONTINUOUS
 62
               7
100
AcDbLine
 10
28.498951533131617
 20
-8.8000000000000043
 30
0.0
 11
29.498951538085976
 21
-8.8000000000000043
 31
0.0
  0
LINE
  5
226
100
AcDbEntity
  8
0
  6
CONTINUOUS
 62
               7
100
AcDbLine
 10
28.498951533131617
 20
-12.000000000000007
 30
0.0
 11
29.498951538085976
 21
-12.000000000000007
 31
0.0
  0
LINE
  5
227
100
AcDbEntity
  8
0
  6
CONTINUOUS
 62
               7
100
AcDbLine
 10
28.498951538085976
 20
-8.8000000000000043
 30
0.0
 11
28.498951538085976
 21
-12.000000000000007
 31
0.0
  0
LINE
  5
228
100
AcDbEntity
  8
0
  6
CENTER
 62
               2
100
AcDbLine
 10
5.0
 20
0.2162062056380378
 30
0.0
 11
5.0
 21
17.830000000000076
 31
0.0
  0
LINE
  5
229
100
AcDbEntity
  8
0
  6
PHANTOM
 62
             200
100
AcDbLine
 10
1.0
 20
2.7000000000000668
 30
0.0
 11
1.0
 21
16.200000000000081
 31
0.0
  0
LINE
  5
22A
100
AcDbEntity
  8
0
  6
PHANTOM
 62
             200
100
AcDbLine
 10
9.0
 20
2.7000000000000668
 30
0.0
 11
9.0
 21
16.200000000000081
 31
0.0
  0
ARC
  5
22B
100
AcDbEntity
  8
0
  6
PHANTOM
 62
             200
100
AcDbCircle
 10
1.5
 20
16.200000000000081
 30
0.0
 40
0.5
100
AcDbArc
 50
89.999999999999815
 51
179.99999999999963
  0
ARC
  5
22C
100
AcDbEntity
  8
0
  6
PHANTOM
 62
             200
100
AcDbCircle
 10
8.5
 20
16.200000000000081
 30
0.0
 40
0.5
100
AcDbArc
 50
0.0
 51
89.999999999999815
  0
LINE
  5
22D
100
AcDbEntity
  8
0
  6
PHANTOM
 62
             200
100
AcDbLine
 10
1.5
 20
16.700000000000081
 30
0.0
 11
8.5
 21
16.700000000000081
 31
0.0
  0
LINE
  5
22E
100
AcDbEntity
  8
0
  6
PHANTOM
 62
             200
100
AcDbLine
 10
1.0
 20
14.200000000000081
 30
0.0
 11
9.0
 21
14.200000000000081
 31
0.0
  0
LINE
  5
22F
100
AcDbEntity
  8
0
  6
PHANTOM
 62
             200
100
AcDbLine
 10
8.6999999999999886
 20
14.200000000000081
 30
0.0
 11
8.6999999999999886
 21
16.200000000000081
 31
0.0
  0
LINE
  5
230
100
AcDbEntity
  8
0
  6
PHANTOM
 62
             200
100
AcDbLine
 10
8.1999999999999886
 20
14.200000000000081
 30
0.0
 11
8.1999999999999886
 21
16.200000000000081
 31
0.0
  0
LINE
  5
231
100
AcDbEntity
  8
0
  6
PHANTOM
 62
             200
100
AcDbLine
 10
7.5
 20
14.200000000000081
 30
0.0
 11
7.5
 21
16.200000000000081
 31
0.0
  0
LINE
  5
232
100
AcDbEntity
  8
0
  6
PHANTOM
 62
             200
100
AcDbLine
 10
6.5999999999999943
 20
14.200000000000081
 30
0.0
 11
6.5999999999999943
 21
16.200000000000081
 31
0.0
  0
LINE
  5
233
100
AcDbEntity
  8
0
  6
PHANTOM
 62
             200
100
AcDbLine
 10
1.0
 20
16.200000000000081
 30
0.0
 11
9.0
 21
16.200000000000081
 31
0.0
  0
LINE
  5
234
100
AcDbEntity
  8
0
  6
PHANTOM
 62
             200
100
AcDbLine
 10
5.6999999999999886
 20
14.200000000000081
 30
0.0
 11
5.6999999999999886
 21
16.200000000000081
 31
0.0
  0
LINE
  5
235
100
AcDbEntity
  8
0
  6
PHANTOM
 62
             200
100
AcDbLine
 10
1.3000000000000114
 20
14.200000000000081
 30
0.0
 11
1.3000000000000114
 21
16.200000000000081
 31
0.0
  0
LINE
  5
236
100
AcDbEntity
  8
0
  6
PHANTOM
 62
             200
100
AcDbLine
 10
1.8000000000000114
 20
14.200000000000081
 30
0.0
 11
1.8000000000000114
 21
16.200000000000081
 31
0.0
  0
LINE
  5
237
100
AcDbEntity
  8
0
  6
PHANTOM
 62
             200
100
AcDbLine
 10
2.5
 20
14.200000000000081
 30
0.0
 11
2.5
 21
16.200000000000081
 31
0.0
  0
LINE
  5
238
100
AcDbEntity
  8
0
  6
PHANTOM
 62
             200
100
AcDbLine
 10
4.3000000000000114
 20
14.200000000000081
 30
0.0
 11
4.3000000000000114
 21
16.200000000000081
 31
0.0
  0
LINE
  5
239
100
AcDbEntity
  8
0
  6
PHANTOM
 62
             200
100
AcDbLine
 10
3.4000000000000057
 20
14.200000000000081
 30
0.0
 11
3.4000000000000057
 21
16.200000000000081
 31
0.0
  0
LINE
  5
23A
100
AcDbEntity
  8
0
  6
CENTER
 62
               2
100
AcDbLine
 10
-2.0
 20
0.0
 30
0.0
 11
2.0
 21
0.0
 31
0.0
  0
LINE
  5
23B
100
AcDbEntity
  8
0
  6
CENTER
 62
               2
100
AcDbLine
 10
-2.0
 20
-22.59999999999998
 30
0.0
 11
2.0
 21
-22.59999999999998
 31
0.0
  0
ENDBLK
  5
23C
100
AcDbEntity
  8
0
100
AcDbBlockEnd
  0
BLOCK
  5
23D
100
AcDbEntity
  8
0
100
AcDbBlockBegin
  2
EB10A1-6
 70
               0
 10
0.0
 20
0.0
 30
0.0
  3
EB10A1-6
  1

  0
ARC
  5
23E
100
AcDbEntity
  8
0
  6
CONTINUOUS
 62
               4
100
AcDbCircle
 10
-32.385932265648933
 20
5.3999954535712149
 30
0.0
 40
0.5
100
AcDbArc
 50
244.96897918277975
 51
270.24433639702255
  0
LINE
  5
23F
100
AcDbEntity
  8
0
  6
CONTINUOUS
 62
               4
100
AcDbLine
 10
-29.498951551604137
 20
4.9000000000002544
 30
0.0
 11
-32.383800034804096
 21
4.9000000000002544
 31
0.0
  0
LINE
  5
240
100
AcDbEntity
  8
0
  6
CONTINUOUS
 62
               4
100
AcDbLine
 10
-52.994911134137155
 20
21.659233112521456
 30
0.0
 11
-56.494911134137212
 21
21.659233112521456
 31
0.0
  0
LINE
  5
241
100
AcDbEntity
  8
0
  6
CONTINUOUS
 62
               4
100
AcDbLine
 10
-52.994911134137155
 20
22.159233112521456
 30
0.0
 11
-56.494911134137212
 21
22.159233112521456
 31
0.0
  0
LINE
  5
242
100
AcDbEntity
  8
0
  6
CONTINUOUS
 62
               4
100
AcDbLine
 10
-52.994911134137169
 20
21.259545445200608
 30
0.0
 11
-52.994911134137141
 21
22.560555545467302
 31
0.0
  0
ARC
  5
243
100
AcDbEntity
  8
0
  6
CONTINUOUS
 62
               4
100
AcDbCircle
 10
-28.699046577216905
 20
26.80009514664868
 30
0.0
 40
0.599904800896587
100
AcDbArc
 50
89.990912722454439
 51
123.75258212960674
  0
ARC
  5
244
100
AcDbEntity
  8
0
  6
CONTINUOUS
 62
               4
100
AcDbCircle
 10
-16.297863605439943
 20
26.801088005128484
 30
0.0
 40
0.598912923125741
100
AcDbArc
 50
359.89591452477396
 51
90.10408547522789
  0
LINE
  5
245
100
AcDbEntity
  8
0
  6
CONTINUOUS
 62
               4
100
AcDbLine
 10
-19.198951705603747
 20
26.800000000000175
 30
0.0
 11
-15.498951524568156
 21
26.800000000000232
 31
0.0
  0
ARC
  5
246
100
AcDbEntity
  8
0
  6
CONTINUOUS
 62
               4
100
AcDbCircle
 10
-15.998951524568156
 20
26.800000000000232
 30
0.0
 40
0.5
100
AcDbArc
 50
0.0000000000010178
 51
86.080414100349813
  0
LINE
  5
247
100
AcDbEntity
  8
0
  6
CONTINUOUS
 62
               4
100
AcDbLine
 10
-28.698951430568229
 20
27.400000000000027
 30
0.0
 11
-16.298951610568224
 21
27.400000000000254
 31
0.0
  0
ARC
  5
248
100
AcDbEntity
  8
0
  6
CONTINUOUS
 62
               4
100
AcDbCircle
 10
-28.998951516568212
 20
26.799999999999976
 30
0.0
 40
0.5
100
AcDbArc
 50
90.00000000000081
 51
180.00000000000063
  0
LINE
  5
249
100
AcDbEntity
  8
0
  6
CONTINUOUS
 62
               4
100
AcDbLine
 10
-28.998951516568212
 20
27.300000000000033
 30
0.0
 11
-27.498951520568227
 21
27.300000000000033
 31
0.0
  0
LINE
  5
24A
100
AcDbEntity
  8
0
  6
CONTINUOUS
 62
               4
100
AcDbLine
 10
-27.498951520568255
 20
27.400000000000027
 30
0.0
 11
-27.498951520568198
 21
25.799999999999976
 31
0.0
  0
LINE
  5
24B
100
AcDbEntity
  8
0
  6
CONTINUOUS
 62
               4
100
AcDbLine
 10
-27.498951520568198
 20
25.799999999999976
 30
0.0
 11
-15.498951524568156
 21
25.800000000000203
 31
0.0
  0
LINE
  5
24C
100
AcDbEntity
  8
0
  6
CONTINUOUS
 62
             200
100
AcDbLine
 10
-49.169658611070503
 20
23.409040393467244
 30
0.0
 11
-50.901981842403899
 21
20.41106059720061
 31
0.0
  0
ARC
  5
24D
100
AcDbEntity
  8
0
  6
CONTINUOUS
 62
               4
100
AcDbCircle
 10
-37.899785590958174
 20
23.906894639354753
 30
0.0
 40
0.403865208170398
100
AcDbArc
 50
270.11832473551203
 51
359.88167526448314
  0
ARC
  5
24E
100
AcDbEntity
  8
0
  6
CONTINUOUS
 62
               4
100
AcDbCircle
 10
-37.898847477982855
 20
23.905327231604922
 30
0.0
 40
0.4029269013737999
100
AcDbArc
 50
0.1042835857481077
 51
79.908228442602635
  0
ARC
  5
24F
100
AcDbEntity
  8
0
  6
CONTINUOUS
 62
               4
100
AcDbCircle
 10
-36.498864065741003
 20
24.005034325093014
 30
0.0
 40
0.4950149226876426
100
AcDbArc
 50
89.191695875420052
 51
126.87687525883385
  0
ARC
  5
250
100
AcDbEntity
  8
0
  6
CONTINUOUS
 62
               4
100
AcDbCircle
 10
-29.798382843321207
 20
25.20458412941894
 30
0.0
 40
0.2994663800970315
100
AcDbArc
 50
359.12289923249193
 51
89.529026971534208
  0
ARC
  5
251
100
AcDbEntity
  8
0
  6
CONTINUOUS
 62
               4
100
AcDbCircle
 10
-36.999284392525141
 20
23.904373238388409
 30
0.0
 40
0.4966660273328702
100
AcDbArc
 50
89.378960363564886
 51
180.62103963643477
  0
ARC
  5
252
100
AcDbEntity
  8
0
  6
CONTINUOUS
 62
               4
100
AcDbCircle
 10
-36.996208921160843
 20
7.5525224605395849
 30
0.0
 40
0.4997133381008656
100
AcDbArc
 50
180.11549557964145
 51
245.17378469018888
  0
LINE
  5
253
100
AcDbEntity
  8
0
  6
CONTINUOUS
 62
               4
100
AcDbLine
 10
-44.495921240003867
 20
19.402020193733811
 30
0.0
 11
-45.492890936403882
 21
19.402020193733811
 31
0.0
  0
LINE
  5
254
100
AcDbEntity
  8
0
  6
CONTINUOUS
 62
               4
100
AcDbLine
 10
-37.49592124400391
 20
19.402020193733698
 30
0.0
 11
-39.496931343870529
 21
19.402020193733698
 31
0.0
  0
LINE
  5
255
100
AcDbEntity
  8
0
  6
CONTINUOUS
 62
               4
100
AcDbLine
 10
-45.492890936403853
 20
20.999999990800568
 30
0.0
 11
-37.495921244003881
 21
20.999999990800426
 31
0.0
  0
LINE
  5
256
100
AcDbEntity
  8
0
  6
CONTINUOUS
 62
               4
100
AcDbLine
 10
-45.492890936403825
 20
22.803030292800564
 30
0.0
 11
-37.495921244003853
 21
22.80303029280045
 31
0.0
  0
LINE
  5
257
100
AcDbEntity
  8
0
  6
CONTINUOUS
 62
               4
100
AcDbLine
 10
-45.492890936403796
 20
23.503030292400545
 30
0.0
 11
-37.898951546803858
 21
23.503030292400403
 31
0.0
  0
LINE
  5
258
100
AcDbEntity
  8
0
  6
CONTINUOUS
 62
               4
100
AcDbLine
 10
-45.19592123960382
 20
23.799999989200522
 30
0.0
 11
-39.291880838937118
 21
23.799999989200408
 31
0.0
  0
LINE
  5
259
100
AcDbEntity
  8
0
  6
CONTINUOUS
 62
               4
100
AcDbLine
 10
-45.492890936403768
 20
25.405050493333839
 30
0.0
 11
-44.085820230137074
 21
25.405050493333839
 31
0.0
  0
LINE
  5
25A
100
AcDbEntity
  8
0
  6
CONTINUOUS
 62
               4
100
AcDbLine
 10
-45.492890936403739
 20
26.402020189733911
 30
0.0
 11
-43.993901038270451
 21
26.402020189733911
 31
0.0
  0
LINE
  5
25B
100
AcDbEntity
  8
0
  6
CONTINUOUS
 62
               4
100
AcDbLine
 10
-49.311072752403845
 20
22.55555554546725
 30
0.0
 11
-45.492890936403825
 21
22.555555545467193
 31
0.0
  0
LINE
  5
25C
100
AcDbEntity
  8
0
  6
CONTINUOUS
 62
             200
100
AcDbLine
 10
-48.823193964803806
 20
23.409040393467187
 30
0.0
 11
-50.555517196137203
 21
20.403989890133964
 31
0.0
  0
LINE
  5
25D
100
AcDbEntity
  8
0
  6
CONTINUOUS
 62
               4
100
AcDbLine
 10
-50.06056770147049
 20
21.254545445200584
 30
0.0
 11
-45.492890936403853
 21
21.254545445200471
 31
0.0
  0
LINE
  5
25E
100
AcDbEntity
  8
0
  6
CONTINUOUS
 62
               4
100
AcDbLine
 10
-30.792890944803759
 20
24.401010089867007
 30
0.0
 11
-30.792890944803759
 21
24.499999988800276
 31
0.0
  0
LINE
  5
25F
100
AcDbEntity
  8
0
  6
CONTINUOUS
 62
               4
100
AcDbLine
 10
-38.888850536137141
 20
25.504040392267164
 30
0.0
 11
-29.795921248403744
 21
25.504040392266994
 31
0.0
  0
LINE
  5
260
100
AcDbEntity
  8
0
  6
CONTINUOUS
 62
               4
100
AcDbLine
 10
-38.994911142137141
 20
23.503030292400432
 30
0.0
 11
-39.291880838937118
 21
23.799999989200408
 31
0.0
  0
LINE
  5
261
100
AcDbEntity
  8
0
  6
CONTINUOUS
 62
               4
100
AcDbLine
 10
-39.496931343870529
 20
19.402020193733698
 30
0.0
 11
-39.4969313438705
 21
20.003030294400467
 31
0.0
  0
LINE
  5
262
100
AcDbEntity
  8
0
  6
CONTINUOUS
 62
               4
100
AcDbLine
 10
-44.495921240003867
 20
20.003030294400524
 30
0.0
 11
-39.4969313438705
 21
20.003030294400467
 31
0.0
  0
LINE
  5
263
100
AcDbEntity
  8
0
  6
CONTINUOUS
 62
               4
100
AcDbLine
 10
-44.495921240003867
 20
19.402020193733811
 30
0.0
 11
-44.495921240003867
 21
20.003030294400524
 31
0.0
  0
LINE
  5
264
100
AcDbEntity
  8
0
  6
CONTINUOUS
 62
               4
100
AcDbLine
 10
-45.492890936403796
 20
23.503030292400545
 30
0.0
 11
-45.19592123960382
 21
23.799999989200522
 31
0.0
  0
LINE
  5
265
100
AcDbEntity
  8
0
  6
CONTINUOUS
 62
               4
100
AcDbLine
 10
-36.491880840537135
 20
24.49999998880039
 30
0.0
 11
-30.792890944803759
 21
24.499999988800276
 31
0.0
  0
LINE
  5
266
100
AcDbEntity
  8
0
  6
CONTINUOUS
 62
               4
100
AcDbLine
 10
-37.828244476137172
 20
24.302020190933682
 30
0.0
 11
-44.170668714937108
 21
25.419191907467187
 31
0.0
  0
LINE
  5
267
100
AcDbEntity
  8
0
  6
CONTINUOUS
 62
               4
100
AcDbLine
 10
-45.492890936403768
 20
25.405050493333839
 30
0.0
 11
-45.492890936403739
 21
26.402020189733911
 31
0.0
  0
LINE
  5
268
100
AcDbEntity
  8
0
  6
CONTINUOUS
 62
               4
100
AcDbLine
 10
-38.888850536137141
 20
25.504040392267164
 30
0.0
 11
-43.993901038270451
 21
26.402020189733911
 31
0.0
  0
LINE
  5
269
100
AcDbEntity
  8
0
  6
CONTINUOUS
 62
               4
100
AcDbLine
 10
-45.492890936403882
 20
19.402020193733811
 30
0.0
 11
-45.492890936403796
 21
23.503030292400545
 31
0.0
  0
LINE
  5
26A
100
AcDbEntity
  8
0
  6
CONTINUOUS
 62
               4
100
AcDbLine
 10
-37.495921244003824
 20
23.898989888133734
 30
0.0
 11
-37.495921244004137
 21
7.5515151500004762
 31
0.0
  0
LINE
  5
26B
100
AcDbEntity
  8
0
  6
CONTINUOUS
 62
               4
100
AcDbLine
 10
-29.498951551603795
 20
24.401010089866951
 30
0.0
 11
-36.993901042270465
 21
24.401010089867121
 31
0.0
  0
LINE
  5
26C
100
AcDbEntity
  8
0
  6
CONTINUOUS
 62
               4
100
AcDbLine
 10
-52.994911134137169
 20
21.259545445200608
 30
0.0
 11
-50.407032347737186
 21
21.259545445200551
 31
0.0
  0
LINE
  5
26D
100
AcDbEntity
  8
0
  6
CONTINUOUS
 62
               4
100
AcDbLine
 10
-52.994911134137141
 20
22.560555545467302
 30
0.0
 11
-49.657537398670542
 21
22.560555545467246
 31
0.0
  0
LINE
  5
26E
100
AcDbEntity
  8
0
  6
CONTINUOUS
 62
               4
100
AcDbLine
 10
-19.198951705603747
 20
26.80000000000026
 30
0.0
 11
-19.198951705603747
 21
27.400000000000283
 31
0.0
  0
ARC
  5
26F
100
AcDbEntity
  8
0
  6
CONTINUOUS
 62
               4
100
AcDbCircle
 10
-18.100039710840832
 20
26.801088005237283
 30
0.0
 40
0.5989129830170392
100
AcDbArc
 50
89.895914524772664
 51
180.10408547522661
  0
LINE
  5
270
100
AcDbEntity
  8
0
  6
CONTINUOUS
 62
               4
100
AcDbLine
 10
-51.494911134137212
 20
21.659233128737036
 30
0.0
 11
-51.494911134137212
 21
22.159233128737036
 31
0.0
  0
LINE
  5
271
100
AcDbEntity
  8
0
  6
CONTINUOUS
 62
               4
100
AcDbLine
 10
-32.59748671003193
 20
4.9469560324809478
 30
0.0
 11
-37.206022254270778
 21
7.0989898977337234
 31
0.0
  0
LINE
  5
272
100
AcDbEntity
  8
0
  6
CONTINUOUS
 62
               4
100
AcDbLine
 10
-32.383800034804096
 20
4.9000000000003112
 30
0.0
 11
-32.383800034803755
 21
24.401010089867007
 31
0.0
  0
LINE
  5
273
100
AcDbEntity
  8
0
  6
CONTINUOUS
 62
               4
100
AcDbLine
 10
-15.498951559604166
 20
4.8999999999999986
 30
0.0
 11
-15.498951559603768
 21
26.799999999999976
 31
0.0
  0
LINE
  5
274
100
AcDbEntity
  8
0
  6
CONTINUOUS
 62
               4
100
AcDbLine
 10
-29.498951551603767
 20
26.800000000000232
 30
0.0
 11
-29.498951551604137
 21
4.9000000000002544
 31
0.0
  0
ARC
  5
275
100
AcDbEntity
  8
0
  6
CONTINUOUS
 62
               7
100
AcDbCircle
 10
-28.698951538085964
 20
-17.400000000000006
 30
0.0
 40
0.4
100
AcDbArc
 50
179.99999999999963
 51
269.99999999999937
  0
ARC
  5
276
100
AcDbEntity
  8
0
  6
CONTINUOUS
 62
               7
100
AcDbCircle
 10
-28.698951538085964
 20
-15.200000000000003
 30
0.0
 40
0.4
100
AcDbArc
 50
89.999999999999815
 51
179.99999999999963
  0
LINE
  5
277
100
AcDbEntity
  8
0
  6
CONTINUOUS
 62
               7
100
AcDbLine
 10
-28.698951538085964
 20
-14.800000000000004
 30
0.0
 11
-28.498951538085976
 21
-14.800000000000004
 31
0.0
  0
LINE
  5
278
100
AcDbEntity
  8
0
  6
CONTINUOUS
 62
               7
100
AcDbLine
 10
-28.698951538085964
 20
-17.800000000000004
 30
0.0
 11
-28.498951538085976
 21
-17.800000000000004
 31
0.0
  0
LINE
  5
279
100
AcDbEntity
  8
0
  6
CONTINUOUS
 62
               7
100
AcDbLine
 10
-29.09895153808597
 20
-15.200000000000003
 30
0.0
 11
-29.09895153808597
 21
-17.400000000000006
 31
0.0
  0
ARC
  5
27A
100
AcDbEntity
  8
0
  6
CONTINUOUS
 62
               7
100
AcDbCircle
 10
-17.218951538086003
 20
-20.512578763265971
 30
0.0
 40
4.5876068132596712
100
AcDbArc
 50
253.7987189241569
 51
286.20128107584202
  0
ARC
  5
27B
100
AcDbEntity
  8
0
  6
CONTINUOUS
 62
               7
100
AcDbCircle
 10
-18.327179542252054
 20
-24.330837282028916
 30
0.0
 40
0.6117725687931934
100
AcDbArc
 50
179.9215840265656
 51
253.6933839081498
  0
LINE
  5
27C
100
AcDbEntity
  8
0
  6
CONTINUOUS
 62
               7
100
AcDbLine
 10
-18.938951538085973
 20
-24.329999999999906
 30
0.0
 11
-18.938951538085973
 21
-23.799999999999933
 31
0.0
  0
LINE
  5
27D
100
AcDbEntity
  8
0
  6
CONTINUOUS
 62
               7
100
AcDbLine
 10
-19.018951538085958
 20
-25.600000000000001
 30
0.0
 11
-19.018951538085958
 21
-23.799999999999933
 31
0.0
  0
ARC
  5
27E
100
AcDbEntity
  8
0
  6
CONTINUOUS
 62
               7
100
AcDbCircle
 10
-15.818056401227068
 20
-23.500895136858823
 30
0.0
 40
0.2991062025847394
100
AcDbArc
 50
269.82853033399044
 51
0.1714696660097498
  0
LINE
  5
27F
100
AcDbEntity
  8
0
  6
CONTINUOUS
 62
               7
100
AcDbLine
 10
-15.498951538085976
 20
-23.799999999999933
 30
0.0
 11
-19.018951538085958
 21
-23.799999999999933
 31
0.0
  0
ARC
  5
280
100
AcDbEntity
  8
0
  6
CONTINUOUS
 62
               7
100
AcDbCircle
 10
-16.109505506195035
 20
-24.331748731346899
 30
0.0
 40
0.6105564724372721
100
AcDbArc
 50
286.22092756849014
 51
0.1641044967937703
  0
LINE
  5
281
100
AcDbEntity
  8
0
  6
CONTINUOUS
 62
               7
100
AcDbLine
 10
-29.498951538085976
 20
-2.1999999999999105
 30
0.0
 11
-30.598951538085942
 21
-1.1000000000000014
 31
0.0
  0
LINE
  5
282
100
AcDbEntity
  8
0
  6
CONTINUOUS
 62
               7
100
AcDbLine
 10
-29.498951538085976
 20
4.8999999999999986
 30
0.0
 11
-29.498951538085976
 21
-6.1000000000000014
 31
0.0
  0
LINE
  5
283
100
AcDbEntity
  8
0
  6
CONTINUOUS
 62
               7
100
AcDbLine
 10
-15.498951538085976
 20
4.8999999999999986
 30
0.0
 11
-30.598951538085942
 21
4.8999999999999986
 31
0.0
  0
LINE
  5
284
100
AcDbEntity
  8
0
  6
CONTINUOUS
 62
               7
100
AcDbLine
 10
-31.046951538085978
 20
1.5000000000000213
 30
0.0
 11
-31.046951538085978
 21
3.7000000000000668
 31
0.0
  0
LINE
  5
285
100
AcDbEntity
  8
0
  6
CONTINUOUS
 62
               7
100
AcDbLine
 10
-31.046951538085978
 20
3.7000000000000668
 30
0.0
 11
-30.598951538085942
 21
3.7000000000000668
 31
0.0
  0
LINE
  5
286
100
AcDbEntity
  8
0
  6
CONTINUOUS
 62
               7
100
AcDbLine
 10
-31.046951538085978
 20
1.5000000000000213
 30
0.0
 11
-30.598951538085942
 21
1.5000000000000213
 31
0.0
  0
LINE
  5
287
100
AcDbEntity
  8
0
  6
CONTINUOUS
 62
               7
100
AcDbLine
 10
-30.598951538085942
 20
-1.1000000000000014
 30
0.0
 11
-30.598951538085942
 21
4.8999999999999986
 31
0.0
  0
ARC
  5
288
100
AcDbEntity
  8
0
  6
CONTINUOUS
 62
               7
100
AcDbCircle
 10
-29.099924905112573
 20
-25.200973367026542
 30
0.0
 40
0.3990278201647513
100
AcDbArc
 50
179.8602356150773
 51
270.1397643849217
  0
LINE
  5
289
100
AcDbEntity
  8
0
  6
CONTINUOUS
 62
               7
100
AcDbLine
 10
-29.098951538085942
 20
-25.600000000000001
 30
0.0
 11
-15.898951538085953
 21
-25.600000000000001
 31
0.0
  0
ARC
  5
28A
100
AcDbEntity
  8
0
  6
CONTINUOUS
 62
               7
100
AcDbCircle
 10
-15.897978171059322
 20
-25.200973367026542
 30
0.0
 40
0.3990278201647513
100
AcDbArc
 50
269.8602356150771
 51
0.1397643849223044
  0
LINE
  5
28B
100
AcDbEntity
  8
0
  6
CONTINUOUS
 62
               7
100
AcDbLine
 10
-15.498951538085976
 20
-20.600000000000001
 30
0.0
 11
-29.498951524567872
 21
-20.600000000000001
 31
0.0
  0
LINE
  5
28C
100
AcDbEntity
  8
0
  6
CONTINUOUS
 62
               7
100
AcDbLine
 10
-15.498951538085976
 20
-6.1000000000000014
 30
0.0
 11
-29.498951524567872
 21
-6.1000000000000014
 31
0.0
  0
LINE
  5
28D
100
AcDbEntity
  8
0
  6
CONTINUOUS
 62
               7
100
AcDbLine
 10
-29.498951538085976
 20
-6.1000000000000014
 30
0.0
 11
-29.498951538085976
 21
-25.19999999999991
 31
0.0
  0
LINE
  5
28E
100
AcDbEntity
  8
0
  6
CONTINUOUS
 62
               7
100
AcDbLine
 10
0.0
 20
2.7000000000000668
 30
0.0
 11
0.0
 21
-25.299999999999933
 31
0.0
  0
LINE
  5
28F
100
AcDbEntity
  8
0
  6
CENTER
 62
               2
100
AcDbLine
 10
-5.0
 20
-14.399999999999956
 30
0.0
 11
-5.0
 21
-20.19999999999991
 31
0.0
  0
LINE
  5
290
100
AcDbEntity
  8
0
  6
CENTER
 62
               2
100
AcDbLine
 10
-12.386000000000024
 20
-8.2999999999999332
 30
0.0
 11
-6.6000000000000227
 21
-8.2999999999999332
 31
0.0
  0
CIRCLE
  5
291
100
AcDbEntity
  8
0
  6
CONTINUOUS
 62
               7
100
AcDbCircle
 10
-9.4989515380859757
 20
-8.3008173828123759
 30
0.0
 40
2.0669994354248047
  0
CIRCLE
  5
292
100
AcDbEntity
  8
0
  6
CONTINUOUS
 62
               2
100
AcDbCircle
 10
-9.4989515380859757
 20
-8.3008173828123759
 30
0.0
 40
2.5
  0
CIRCLE
  5
293
100
AcDbEntity
  8
0
  6
CONTINUOUS
 62
               2
100
AcDbCircle
 10
-4.9989515380859757
 20
-17.300817382812376
 30
0.0
 40
2.5
  0
CIRCLE
  5
294
100
AcDbEntity
  8
0
  6
CONTINUOUS
 62
               7
100
AcDbCircle
 10
-4.9989515380859757
 20
-17.300817382812376
 30
0.0
 40
2.0669994354248047
  0
LINE
  5
295
100
AcDbEntity
  8
0
  6
CENTER
 62
               2
100
AcDbLine
 10
-9.5
 20
-5.3999999999999559
 30
0.0
 11
-9.5
 21
-11.19999999999991
 31
0.0
  0
LINE
  5
296
100
AcDbEntity
  8
0
  6
CENTER
 62
               2
100
AcDbLine
 10
-7.8860000000000241
 20
-17.299999999999933
 30
0.0
 11
-2.1000000000000227
 21
-17.299999999999933
 31
0.0
  0
LINE
  5
297
100
AcDbEntity
  8
0
  6
CONTINUOUS
 62
               7
100
AcDbLine
 10
-14.5
 20
-25.299999999999933
 30
0.0
 11
0.0
 21
-25.299999999999933
 31
0.0
  0
LINE
  5
298
100
AcDbEntity
  8
0
  6
CONTINUOUS
 62
               7
100
AcDbLine
 10
-14.5
 20
-25.299999999999933
 30
0.0
 11
-14.5
 21
2.7000000000000668
 31
0.0
  0
LINE
  5
299
100
AcDbEntity
  8
0
  6
CONTINUOUS
 62
               7
100
AcDbLine
 10
-14.5
 20
2.7000000000000668
 30
0.0
 11
0.0
 21
2.7000000000000668
 31
0.0
  0
LINE
  5
29A
100
AcDbEntity
  8
0
  6
CONTINUOUS
 62
               7
100
AcDbLine
 10
-14.498951538085976
 20
0.0991765136719991
 30
0.0
 11
-14.498951538085976
 21
-4.7008234863280691
 31
0.0
  0
LINE
  5
29B
100
AcDbEntity
  8
0
  6
CONTINUOUS
 62
               7
100
AcDbLine
 10
-15.498951538085976
 20
0.0991765136719991
 30
0.0
 11
-14.498951538085976
 21
0.0991765136719991
 31
0.0
  0
LINE
  5
29C
100
AcDbEntity
  8
0
  6
CONTINUOUS
 62
               7
100
AcDbLine
 10
-15.498951538085976
 20
-24.700823486328069
 30
0.0
 11
-14.498951538085976
 21
-24.700823486328069
 31
0.0
  0
LINE
  5
29D
100
AcDbEntity
  8
0
  6
CONTINUOUS
 62
               7
100
AcDbLine
 10
-14.498951538085976
 20
-5.7008234863280691
 30
0.0
 11
-14.498951538085976
 21
-24.700823486328069
 31
0.0
  0
LINE
  5
29E
100
AcDbEntity
  8
0
  6
CONTINUOUS
 62
               7
100
AcDbLine
 10
-15.498951538085976
 20
4.8999999999999986
 30
0.0
 11
-15.498951538085976
 21
-25.19999999999991
 31
0.0
  0
LINE
  5
29F
100
AcDbEntity
  8
0
  6
CONTINUOUS
 62
               7
100
AcDbLine
 10
-29.498951543040334
 20
-14.700000000000003
 30
0.0
 11
-28.498951543040334
 21
-14.700000000000003
 31
0.0
  0
LINE
  5
2A0
100
AcDbEntity
  8
0
  6
CONTINUOUS
 62
               7
100
AcDbLine
 10
-29.498951543040334
 20
-17.900000000000006
 30
0.0
 11
-28.498951543040334
 21
-17.900000000000006
 31
0.0
  0
LINE
  5
2A1
100
AcDbEntity
  8
0
  6
CONTINUOUS
 62
               7
100
AcDbLine
 10
-28.498951538085976
 20
-14.700000000000003
 30
0.0
 11
-28.498951538085976
 21
-17.900000000000006
 31
0.0
  0
LINE
  5
2A2
100
AcDbEntity
  8
0
  6
CENTER
 62
               2
100
AcDbLine
 10
-2.0
 20
0.0
 30
0.0
 11
2.0
 21
0.0
 31
0.0
  0
LINE
  5
2A3
100
AcDbEntity
  8
0
  6
CENTER
 62
               2
100
AcDbLine
 10
-2.0
 20
-22.59999999999998
 30
0.0
 11
2.0
 21
-22.59999999999998
 31
0.0
  0
LINE
  5
2A4
100
AcDbEntity
  8
0
  6
CENTER
 62
               2
100
AcDbLine
 10
-22.498951538085976
 20
30.562585161280545
 30
0.0
 11
-22.498951538085976
 21
-27.594831691049194
 31
0.0
  0
ENDBLK
  5
2A5
100
AcDbEntity
  8
0
100
AcDbBlockEnd
  0
BLOCK
  5
2A6
100
AcDbEntity
  8
0
100
AcDbBlockBegin
  2
EB10A1-7
 70
               0
 10
0.0
 20
0.0
 30
0.0
  3
EB10A1-7
  1

  0
LINE
  5
2A7
100
AcDbEntity
  8
0
  6
CONTINUOUS
 62
               7
100
AcDbLine
 10
-13.303295036165565
 20
-15.500001951045888
 30
0.0
 11
-13.303295036165565
 21
-14.500000000000014
 31
0.0
  0
LINE
  5
2A8
100
AcDbEntity
  8
0
  6
CONTINUOUS
 62
               7
100
AcDbLine
 10
-3.303295036166304
 20
-15.500001951045888
 30
0.0
 11
-3.303295036166304
 21
-14.500000000000014
 31
0.0
  0
LINE
  5
2A9
100
AcDbEntity
  8
0
  6
CENTER
 62
               2
100
AcDbLine
 10
-8.3000000381469761
 20
-45.913337402343828
 30
0.0
 11
-8.3000000381469761
 21
-12.593165433681875
 31
0.0
  0
LINE
  5
2AA
100
AcDbEntity
  8
0
  6
CONTINUOUS
 62
               4
100
AcDbLine
 10
-13.3032950361671
 20
-15.500001951045888
 30
0.0
 11
-13.303300499111998
 21
-29.499998048947205
 31
0.0
  0
LINE
  5
2AB
100
AcDbEntity
  8
0
  6
CONTINUOUS
 62
               4
100
AcDbLine
 10
-3.303295036166304
 20
-15.500001951045888
 30
0.0
 11
-3.3033004991127655
 21
-29.5000019510518
 31
0.0
  0
LINE
  5
2AC
100
AcDbEntity
  8
0
  6
CONTINUOUS
 62
               4
100
AcDbLine
 10
-3.3033004991127655
 20
-29.5000019510518
 30
0.0
 11
-13.303300499111998
 21
-29.499998048947205
 31
0.0
  0
LINE
  5
2AD
100
AcDbEntity
  8
0
  6
CONTINUOUS
 62
               4
100
AcDbLine
 10
-13.303313026428214
 20
-32.500015258789077
 30
0.0
 11
-13.303313026428214
 21
-29.500015258789077
 31
0.0
  0
LINE
  5
2AE
100
AcDbEntity
  8
0
  6
CONTINUOUS
 62
               4
100
AcDbLine
 10
-12.403313026428208
 20
-37.500015258789077
 30
0.0
 11
-11.053313026428214
 21
-37.500015258789077
 31
0.0
  0
LINE
  5
2AF
100
AcDbEntity
  8
0
  6
CONTINUOUS
 62
               4
100
AcDbLine
 10
-13.303313026428214
 20
-32.500015258789077
 30
0.0
 11
-12.903313026428208
 21
-37.040015258789154
 31
0.0
  0
LINE
  5
2B0
100
AcDbEntity
  8
0
  6
CONTINUOUS
 62
               4
100
AcDbLine
 10
-5.4533130264282192
 20
-37.500015258789077
 30
0.0
 11
-5.4533130264282192
 21
-31.500015258789077
 31
0.0
  0
LINE
  5
2B1
100
AcDbEntity
  8
0
  6
CONTINUOUS
 62
               4
100
AcDbLine
 10
-11.153313026428208
 20
-37.500015258789077
 30
0.0
 11
-11.153313026428208
 21
-31.500015258789077
 31
0.0
  0
LINE
  5
2B2
100
AcDbEntity
  8
0
  6
CONTINUOUS
 62
               4
100
AcDbLine
 10
-5.4533130264282192
 20
-31.100015258789099
 30
0.0
 11
-5.4533130264282192
 21
-29.500015258789077
 31
0.0
  0
LINE
  5
2B3
100
AcDbEntity
  8
0
  6
CONTINUOUS
 62
               4
100
AcDbLine
 10
-11.153313026428208
 20
-31.100015258789099
 30
0.0
 11
-11.153313026428208
 21
-29.500015258789077
 31
0.0
  0
LINE
  5
2B4
100
AcDbEntity
  8
0
  6
CONTINUOUS
 62
               4
100
AcDbLine
 10
-5.5533130264282136
 20
-45.500015258789077
 30
0.0
 11
-5.5533130264282136
 21
-29.500015258789077
 31
0.0
  0
LINE
  5
2B5
100
AcDbEntity
  8
0
  6
CONTINUOUS
 62
               4
100
AcDbLine
 10
-4.5533130264282136
 20
-45.500015258789077
 30
0.0
 11
-4.5533130264282136
 21
-37.500015258789077
 31
0.0
  0
LINE
  5
2B6
100
AcDbEntity
  8
0
  6
CONTINUOUS
 62
               4
100
AcDbLine
 10
-5.5533130264282136
 20
-44.000015258789077
 30
0.0
 11
-11.053313026428214
 21
-44.000015258789077
 31
0.0
  0
LINE
  5
2B7
100
AcDbEntity
  8
0
  6
CONTINUOUS
 62
               4
100
AcDbLine
 10
-11.053313026428214
 20
-45.500015258789077
 30
0.0
 11
-11.053313026428214
 21
-29.500015258789077
 31
0.0
  0
LINE
  5
2B8
100
AcDbEntity
  8
0
  6
CONTINUOUS
 62
               4
100
AcDbLine
 10
-12.053313026428214
 20
-45.500015258789077
 30
0.0
 11
-12.053313026428214
 21
-37.500015258789077
 31
0.0
  0
LINE
  5
2B9
100
AcDbEntity
  8
0
  6
CONTINUOUS
 62
               4
100
AcDbLine
 10
-4.5533130264282136
 20
-45.500015258789077
 30
0.0
 11
-12.053313026428214
 21
-45.500015258789077
 31
0.0
  0
LINE
  5
2BA
100
AcDbEntity
  8
0
  6
CONTINUOUS
 62
               4
100
AcDbLine
 10
-5.4533130264282192
 20
-31.100015258789099
 30
0.0
 11
-5.5533130264282136
 21
-31.100015258789099
 31
0.0
  0
LINE
  5
2BB
100
AcDbEntity
  8
0
  6
CONTINUOUS
 62
               4
100
AcDbLine
 10
-5.4533130264282192
 20
-31.500015258789077
 30
0.0
 11
-5.5533130264282136
 21
-31.500015258789077
 31
0.0
  0
LINE
  5
2BC
100
AcDbEntity
  8
0
  6
CONTINUOUS
 62
               4
100
AcDbLine
 10
-11.153313026428208
 20
-31.500015258789077
 30
0.0
 11
-11.053313026428214
 21
-31.500015258789077
 31
0.0
  0
LINE
  5
2BD
100
AcDbEntity
  8
0
  6
CONTINUOUS
 62
               4
100
AcDbLine
 10
-11.153313026428208
 20
-31.100015258789099
 30
0.0
 11
-11.053313026428214
 21
-31.100015258789099
 31
0.0
  0
LINE
  5
2BE
100
AcDbEntity
  8
0
  6
CONTINUOUS
 62
               4
100
AcDbLine
 10
-5.5533130264282136
 20
-37.500015258789077
 30
0.0
 11
-4.2033130264282192
 21
-37.500015258789077
 31
0.0
  0
LINE
  5
2BF
100
AcDbEntity
  8
0
  6
CONTINUOUS
 62
               4
100
AcDbLine
 10
-3.3033130264282136
 20
-32.500015258789077
 30
0.0
 11
-3.7033130264282192
 21
-37.040015258789154
 31
0.0
  0
LINE
  5
2C0
100
AcDbEntity
  8
0
  6
CONTINUOUS
 62
               4
100
AcDbLine
 10
-3.3033130264282136
 20
-32.500015258789077
 30
0.0
 11
-3.3033130264282136
 21
-29.500015258789077
 31
0.0
  0
ARC
  5
2C1
100
AcDbEntity
  8
0
  6
CONTINUOUS
 62
               4
100
AcDbCircle
 10
-4.2004572930472932
 20
-37.001380186377119
 30
0.0
 40
0.4986432498816056
100
AcDbArc
 50
269.6718648760999
 51
355.55624706312108
  0
ARC
  5
2C2
100
AcDbEntity
  8
0
  6
CONTINUOUS
 62
               4
100
AcDbCircle
 10
-12.40620868487656
 20
-37.001423583189435
 30
0.0
 40
0.4986000840504332
100
AcDbArc
 50
184.43913653114248
 51
270.33275152963415
  0
LINE
  5
2C3
100
AcDbEntity
  8
0
  6
CONTINUOUS
 62
               4
100
AcDbLine
 10
-3.3033130264282136
 20
-15.500001951045888
 30
0.0
 11
-13.303295036165565
 21
-15.500001951045888
 31
0.0
  0
LINE
  5
2C4
100
AcDbEntity
  8
0
  6
CONTINUOUS
 62
               4
100
AcDbLine
 10
-6.8000000381469761
 20
-27.500000586603065
 30
0.0
 11
-13.303300499111998
 21
-27.499998048947205
 31
0.0
  0
LINE
  5
2C5
100
AcDbEntity
  8
0
  6
CONTINUOUS
 62
               4
100
AcDbLine
 10
-3.3033130264282136
 20
-17.500001951045888
 30
0.0
 11
-9.8000000381469761
 21
-17.500001951045888
 31
0.0
  0
LINE
  5
2C6
100
AcDbEntity
  8
0
  6
CONTINUOUS
 62
               4
100
AcDbLine
 10
-10.100000038146987
 20
-17.20000195104582
 30
0.0
 11
-10.100000038146987
 21
-15.500001951045888
 31
0.0
  0
LINE
  5
2C7
100
AcDbEntity
  8
0
  6
CONTINUOUS
 62
               4
100
AcDbLine
 10
-6.5000000381469931
 20
-29.500000703666174
 30
0.0
 11
-6.5000000381469647
 21
-27.800000586603133
 31
0.0
  0
LINE
  5
2C8
100
AcDbEntity
  8
0
  6
CONTINUOUS
 62
               4
100
AcDbLine
 10
-6.8000000381469761
 20
-27.500000586603065
 30
0.0
 11
-6.5000000381469647
 21
-28.500000703666174
 31
0.0
  0
LINE
  5
2C9
100
AcDbEntity
  8
0
  6
CONTINUOUS
 62
               4
100
AcDbLine
 10
-9.8000000381469761
 20
-17.500001951045888
 30
0.0
 11
-10.100000038146987
 21
-16.500001951045888
 31
0.0
  0
ARC
  5
2CA
100
AcDbEntity
  8
0
  6
CONTINUOUS
 62
               4
100
AcDbCircle
 10
-3.8032952312715622
 20
-16.000001951045888
 30
0.0
 40
0.5
100
AcDbArc
 50
359.99997764258677
 51
89.999999999999801
  0
ARC
  5
2CB
100
AcDbEntity
  8
0
  6
CONTINUOUS
 62
               4
100
AcDbCircle
 10
-3.6033003820495821
 20
-29.200001833988736
 30
0.0
 40
0.3
100
AcDbArc
 50
269.99997764258694
 51
359.99997764258677
  0
ARC
  5
2CC
100
AcDbEntity
  8
0
  6
CONTINUOUS
 62
               4
100
AcDbCircle
 10
-13.003295153230198
 20
-15.800001951045843
 30
0.0
 40
0.3
100
AcDbArc
 50
89.999999999999815
 51
179.99999999999963
  0
ARC
  5
2CD
100
AcDbEntity
  8
0
  6
CONTINUOUS
 62
               4
100
AcDbCircle
 10
-10.400000038146999
 20
-15.800001951045843
 30
0.0
 40
0.3
100
AcDbArc
 50
0.0
 51
89.999999999999815
  0
ARC
  5
2CE
100
AcDbEntity
  8
0
  6
CONTINUOUS
 62
               4
100
AcDbCircle
 10
-9.8000000381469761
 20
-17.20000195104582
 30
0.0
 40
0.3
100
AcDbArc
 50
179.99999999999963
 51
269.99999999999937
  0
ARC
  5
2CF
100
AcDbEntity
  8
0
  6
CONTINUOUS
 62
               4
100
AcDbCircle
 10
-3.6032959336503723
 20
-17.800001951045843
 30
0.0
 40
0.3
100
AcDbArc
 50
359.99997764258677
 51
89.999999999999801
  0
ARC
  5
2D0
100
AcDbEntity
  8
0
  6
CONTINUOUS
 62
               4
100
AcDbCircle
 10
-6.8000000381469761
 20
-27.800000586603133
 30
0.0
 40
0.3
100
AcDbArc
 50
0.0
 51
89.999977642587353
  0
ARC
  5
2D1
100
AcDbEntity
  8
0
  6
CONTINUOUS
 62
               4
100
AcDbCircle
 10
-6.2000000381469818
 20
-29.200000820729329
 30
0.0
 40
0.3
100
AcDbArc
 50
179.99999999999963
 51
269.99997764258694
  0
ARC
  5
2D2
100
AcDbEntity
  8
0
  6
CONTINUOUS
 62
               4
100
AcDbCircle
 10
-13.003299601627958
 20
-27.199998166010701
 30
0.0
 40
0.3
100
AcDbArc
 50
179.99999999999963
 51
269.99997764258694
  0
ARC
  5
2D3
100
AcDbEntity
  8
0
  6
CONTINUOUS
 62
               4
100
AcDbCircle
 10
-11.600000038146987
 20
-17.199998713592905
 30
0.0
 40
2.0
100
AcDbArc
 50
269.99999999999937
 51
351.37297963377404
  0
ARC
  5
2D4
100
AcDbEntity
  8
0
  6
CONTINUOUS
 62
               4
100
AcDbCircle
 10
-5.0000000381469931
 20
-27.800001288981903
 30
0.0
 40
2.0
100
AcDbArc
 50
89.999999999999815
 51
171.37305108390927
  0
LINE
  5
2D5
100
AcDbEntity
  8
0
  6
CONTINUOUS
 62
               4
100
AcDbLine
 10
-5.0000000381469647
 20
-25.800001288981903
 30
0.0
 11
-3.3032990553337811
 21
-25.800001288981903
 31
0.0
  0
LINE
  5
2D6
100
AcDbEntity
  8
0
  6
CONTINUOUS
 62
               4
100
AcDbLine
 10
-11.600000038146987
 20
-19.199998713592905
 30
0.0
 11
-13.303296479944521
 21
-19.199998713592905
 31
0.0
  0
CIRCLE
  5
2D7
100
AcDbEntity
  8
0
  6
CONTINUOUS
 62
               4
100
AcDbCircle
 10
-11.600000038146987
 20
-17.199998713592905
 30
0.0
 40
1.5
  0
CIRCLE
  5
2D8
100
AcDbEntity
  8
0
  6
CONTINUOUS
 62
               4
100
AcDbCircle
 10
-5.0000000381469931
 20
-27.800001288981903
 30
0.0
 40
1.5
  0
LINE
  5
2D9
100
AcDbEntity
  8
0
  6
CONTINUOUS
 62
               4
100
AcDbLine
 10
-10.965000038146968
 20
-16.564998713592914
 30
0.0
 11
-12.235000038147007
 21
-17.834998713592896
 31
0.0
  0
LINE
  5
2DA
100
AcDbEntity
  8
0
  6
CONTINUOUS
 62
               4
100
AcDbLine
 10
-10.965000038146968
 20
-17.834998713592896
 30
0.0
 11
-12.235000038147007
 21
-16.564998713592914
 31
0.0
  0
LINE
  5
2DB
100
AcDbEntity
  8
0
  6
CONTINUOUS
 62
               4
100
AcDbLine
 10
-5.635000038146984
 20
-28.435001288981894
 30
0.0
 11
-4.3650000381469738
 21
-27.165001288981912
 31
0.0
  0
LINE
  5
2DC
100
AcDbEntity
  8
0
  6
CONTINUOUS
 62
               4
100
AcDbLine
 10
-4.3650000381470022
 20
-28.435001288981894
 30
0.0
 11
-5.6350000381469556
 21
-27.165001288981912
 31
0.0
  0
LINE
  5
2DD
100
AcDbEntity
  8
0
  6
CONTINUOUS
 62
             200
100
AcDbLine
 10
-8.5523029245615021
 20
-49.176782933455812
 30
0.0
 11
-5.5543231282948682
 21
-50.909106164789151
 31
0.0
  0
LINE
  5
2DE
100
AcDbEntity
  8
0
  6
CONTINUOUS
 62
               4
100
AcDbLine
 10
-7.7038180765615039
 20
-49.318197074789182
 30
0.0
 11
-7.703818076561447
 21
-45.500015258789077
 31
0.0
  0
LINE
  5
2DF
100
AcDbEntity
  8
0
  6
CONTINUOUS
 62
             200
100
AcDbLine
 10
-8.5523029245614737
 20
-48.830318287189144
 30
0.0
 11
-5.5472524212282224
 21
-50.562641518522483
 31
0.0
  0
LINE
  5
2E0
100
AcDbEntity
  8
0
  6
CONTINUOUS
 62
               4
100
AcDbLine
 10
-6.4028079762948096
 20
-50.067692023855798
 30
0.0
 11
-6.4028079762947243
 21
-45.500015258789077
 31
0.0
  0
LINE
  5
2E1
100
AcDbEntity
  8
0
  6
CONTINUOUS
 62
               4
100
AcDbLine
 10
-7.3024956436156572
 20
-53.002035456522449
 30
0.0
 11
-7.3024956436156572
 21
-56.502035456522449
 31
0.0
  0
LINE
  5
2E2
100
AcDbEntity
  8
0
  6
CONTINUOUS
 62
               4
100
AcDbLine
 10
-6.8024956436156572
 20
-53.002035456522449
 30
0.0
 11
-6.8024956436156572
 21
-56.502035456522449
 31
0.0
  0
LINE
  5
2E3
100
AcDbEntity
  8
0
  6
CONTINUOUS
 62
               4
100
AcDbLine
 10
-7.3024956436156572
 20
-56.502035456522449
 30
0.0
 11
-6.8024956436156572
 21
-56.502035456522449
 31
0.0
  0
LINE
  5
2E4
100
AcDbEntity
  8
0
  6
CONTINUOUS
 62
               4
100
AcDbLine
 10
-7.7038180765615891
 20
-53.002035456522449
 30
0.0
 11
-7.7038180765615323
 21
-49.66466172105585
 31
0.0
  0
LINE
  5
2E5
100
AcDbEntity
  8
0
  6
CONTINUOUS
 62
               4
100
AcDbLine
 10
-6.4028079762948664
 20
-53.002035456522449
 30
0.0
 11
-6.4028079762948096
 21
-50.414156670122466
 31
0.0
  0
LINE
  5
2E6
100
AcDbEntity
  8
0
  6
CONTINUOUS
 62
               4
100
AcDbLine
 10
-6.4028079762948664
 20
-53.002035456522449
 30
0.0
 11
-7.7038180765615891
 21
-53.002035456522449
 31
0.0
  0
LINE
  5
2E7
100
AcDbEntity
  8
0
  6
CONTINUOUS
 62
               4
100
AcDbLine
 10
-10.203818076561504
 20
-49.318197074789182
 30
0.0
 11
-10.203818076561447
 21
-45.500015258789077
 31
0.0
  0
LINE
  5
2E8
100
AcDbEntity
  8
0
  6
CONTINUOUS
 62
             200
100
AcDbLine
 10
-11.052302924561474
 20
-48.830318287189144
 30
0.0
 11
-8.0472524212282224
 21
-50.562641518522483
 31
0.0
  0
LINE
  5
2E9
100
AcDbEntity
  8
0
  6
CONTINUOUS
 62
               4
100
AcDbLine
 10
-8.9028079762948096
 20
-50.067692023855798
 30
0.0
 11
-8.9028079762947243
 21
-45.500015258789077
 31
0.0
  0
LINE
  5
2EA
100
AcDbEntity
  8
0
  6
CONTINUOUS
 62
               4
100
AcDbLine
 10
-8.9028079762948664
 20
-53.002035456522449
 30
0.0
 11
-10.203818076561589
 21
-53.002035456522449
 31
0.0
  0
LINE
  5
2EB
100
AcDbEntity
  8
0
  6
CONTINUOUS
 62
               4
100
AcDbLine
 10
-8.9028079762948664
 20
-53.002035456522449
 30
0.0
 11
-8.9028079762948096
 21
-50.414156670122466
 31
0.0
  0
LINE
  5
2EC
100
AcDbEntity
  8
0
  6
CONTINUOUS
 62
               4
100
AcDbLine
 10
-10.203818076561589
 20
-53.002035456522449
 30
0.0
 11
-10.203818076561532
 21
-49.66466172105585
 31
0.0
  0
LINE
  5
2ED
100
AcDbEntity
  8
0
  6
CONTINUOUS
 62
               4
100
AcDbLine
 10
-9.8024956436156572
 20
-56.502035456522449
 30
0.0
 11
-9.3024956436156572
 21
-56.502035456522449
 31
0.0
  0
LINE
  5
2EE
100
AcDbEntity
  8
0
  6
CONTINUOUS
 62
               4
100
AcDbLine
 10
-9.3024956436156572
 20
-53.002035456522449
 30
0.0
 11
-9.3024956436156572
 21
-56.502035456522449
 31
0.0
  0
LINE
  5
2EF
100
AcDbEntity
  8
0
  6
CONTINUOUS
 62
               4
100
AcDbLine
 10
-9.8024956436156572
 20
-53.002035456522449
 30
0.0
 11
-9.8024956436156572
 21
-56.502035456522449
 31
0.0
  0
LINE
  5
2F0
100
AcDbEntity
  8
0
  6
CONTINUOUS
 62
             200
100
AcDbLine
 10
-11.052302924561502
 20
-49.176782933455812
 30
0.0
 11
-8.0543231282948682
 21
-50.909106164789151
 31
0.0
  0
CIRCLE
  5
2F1
100
AcDbEntity
  8
0
  6
CONTINUOUS
 62
               7
100
AcDbCircle
 10
-8.2999999999999829
 20
-5.0
 30
0.0
 40
2.1000000000000001
  0
CIRCLE
  5
2F2
100
AcDbEntity
  8
0
  6
CONTINUOUS
 62
               2
100
AcDbCircle
 10
-8.2999999999999829
 20
-5.0
 30
0.0
 40
2.5
  0
LINE
  5
2F3
100
AcDbEntity
  8
0
  6
CENTER
 62
               2
100
AcDbLine
 10
-12.299999999999983
 20
-5.0
 30
0.0
 11
-4.2999999999999829
 21
-5.0
 31
0.0
  0
LINE
  5
2F4
100
AcDbEntity
  8
0
  6
CENTER
 62
               2
100
AcDbLine
 10
-8.2999999999999829
 20
-9.0
 30
0.0
 11
-8.2999999999999829
 21
-1.0
 31
0.0
  0
LINE
  5
2F5
100
AcDbEntity
  8
0
  6
CONTINUOUS
 62
               7
100
AcDbLine
 10
-14.29999998349669
 20
-14.500000000000014
 30
0.0
 11
2.70000001650331
 21
-14.500000000000014
 31
0.0
  0
LINE
  5
2F6
100
AcDbEntity
  8
0
  6
CONTINUOUS
 62
               7
100
AcDbLine
 10
-14.29999998349669
 20
0.0
 30
0.0
 11
2.7000000000000171
 21
0.0
 31
0.0
  0
LINE
  5
2F7
100
AcDbEntity
  8
0
  6
CONTINUOUS
 62
               7
100
AcDbLine
 10
2.7000000000000171
 20
-14.500000028081573
 30
0.0
 11
2.7000000000000171
 21
-0.0000000280815584
 31
0.0
  0
LINE
  5
2F8
100
AcDbEntity
  8
0
  6
CONTINUOUS
 62
               7
100
AcDbLine
 10
-14.299999999999983
 20
-14.500000028081573
 30
0.0
 11
-14.299999999999983
 21
-0.0000000280815584
 31
0.0
  0
LINE
  5
2F9
100
AcDbEntity
  8
0
  6
CENTER
 62
               2
100
AcDbLine
 10
0.0
 20
-2.0
 30
0.0
 11
0.0
 21
2.0
 31
0.0
  0
ENDBLK
  5
2FA
100
AcDbEntity
  8
0
100
AcDbBlockEnd
  0
BLOCK
  5
2FB
100
AcDbEntity
  8
0
100
AcDbBlockBegin
  2
EB10A1-8
 70
               0
 10
0.0
 20
0.0
 30
0.0
  3
EB10A1-8
  1

  0
LINE
  5
2FC
100
AcDbEntity
  8
0
  6
CONTINUOUS
 62
               7
100
AcDbLine
 10
-11.400000038146914
 20
0.9000000000000057
 30
0.0
 11
-11.400000038146914
 21
4.9000000000000057
 31
0.0
  0
LINE
  5
2FD
100
AcDbEntity
  8
0
  6
CONTINUOUS
 62
               7
100
AcDbLine
 10
-5.2000000381470386
 20
0.9000000000000057
 30
0.0
 11
-5.2000000381470386
 21
4.9000000000000057
 31
0.0
  0
ARC
  5
2FE
100
AcDbEntity
  8
0
  6
CONTINUOUS
 62
               7
100
AcDbCircle
 10
-8.3000000381469761
 20
0.9000000000000057
 30
0.0
 40
3.0999999999999304
100
AcDbArc
 50
179.99999999999963
 51
0.0
  0
LINE
  5
2FF
100
AcDbEntity
  8
0
  6
CONTINUOUS
 62
               7
100
AcDbLine
 10
-13.300000038146976
 20
-9.6506699532603477
 30
0.0
 11
-13.300000038146976
 21
-6.0999999995055134
 31
0.0
  0
LINE
  5
300
100
AcDbEntity
  8
0
  6
CONTINUOUS
 62
               7
100
AcDbLine
 10
-3.3000000381469761
 20
-15.55066995326041
 30
0.0
 11
-3.3000000381469761
 21
-6.0999999999999943
 31
0.0
  0
LINE
  5
301
100
AcDbEntity
  8
0
  6
CONTINUOUS
 62
               7
100
AcDbLine
 10
-11.292893256960497
 20
-11.10710678118653
 30
0.0
 11
-12.707106819333546
 21
-9.692893218813424
 31
0.0
  0
LINE
  5
302
100
AcDbEntity
  8
0
  6
CONTINUOUS
 62
               7
100
AcDbLine
 10
-12.707106819333546
 20
-11.10710678118653
 30
0.0
 11
-11.292893256960468
 21
-9.692893218813424
 31
0.0
  0
CIRCLE
  5
303
100
AcDbEntity
  8
0
  6
CONTINUOUS
 62
               7
100
AcDbCircle
 10
-12.000000038146993
 20
-10.399001430615186
 30
0.0
 40
1.5
  0
LINE
  5
304
100
AcDbEntity
  8
0
  6
CONTINUOUS
 62
               7
100
AcDbLine
 10
-3.892893256960491
 20
-17.007106781186536
 30
0.0
 11
-5.3071068193335407
 21
-15.59289321881343
 31
0.0
  0
LINE
  5
305
100
AcDbEntity
  8
0
  6
CONTINUOUS
 62
               7
100
AcDbLine
 10
-5.3071068193335407
 20
-17.007106781186536
 30
0.0
 11
-3.8928932569604626
 21
-15.59289321881343
 31
0.0
  0
CIRCLE
  5
306
100
AcDbEntity
  8
0
  6
CONTINUOUS
 62
               7
100
AcDbCircle
 10
-4.6000000381469874
 20
-16.299001430615164
 30
0.0
 40
1.5
  0
LINE
  5
307
100
AcDbEntity
  8
0
  6
CONTINUOUS
 62
               7
100
AcDbLine
 10
-13.300000031764512
 20
-20.599999999999994
 30
0.0
 11
-3.3000000317645117
 21
-20.599999999999994
 31
0.0
  0
LINE
  5
308
100
AcDbEntity
  8
0
  6
CONTINUOUS
 62
               7
100
AcDbLine
 10
-14.300000000000011
 20
2.6999999999999886
 30
0.0
 11
-13.300000000000011
 21
2.6999999999999886
 31
0.0
  0
LINE
  5
309
100
AcDbEntity
  8
0
  6
CONTINUOUS
 62
               7
100
AcDbLine
 10
-14.300000000000011
 20
-25.30000000000004
 30
0.0
 11
-14.300000000000011
 21
2.6999999999999886
 31
0.0
  0
LINE
  5
30A
100
AcDbEntity
  8
0
  6
CONTINUOUS
 62
               7
100
AcDbLine
 10
-14.300000000000011
 20
-25.30000000000004
 30
0.0
 11
-13.300000000000011
 21
-25.30000000000004
 31
0.0
  0
LINE
  5
30B
100
AcDbEntity
  8
0
  6
CENTER
 62
               2
100
AcDbLine
 10
0.0
 20
-24.55000000000004
 30
0.0
 11
0.0
 21
-20.649999999999977
 31
0.0
  0
CIRCLE
  5
30C
100
AcDbEntity
  8
0
  6
CONTINUOUS
 62
               7
100
AcDbCircle
 10
-0.0009515380859284
 20
-22.600817382812494
 30
0.0
 40
1.55
  0
LINE
  5
30D
100
AcDbEntity
  8
0
  6
CENTER
 62
               2
100
AcDbLine
 10
-1.9499999999999886
 20
-22.599999999999994
 30
0.0
 11
1.9499999999999886
 21
-22.599999999999994
 31
0.0
  0
LINE
  5
30E
100
AcDbEntity
  8
0
  6
CONTINUOUS
 62
               7
100
AcDbLine
 10
-3.3000000000000114
 20
-25.30000000000004
 30
0.0
 11
2.6999999999999886
 21
-25.30000000000004
 31
0.0
  0
LINE
  5
30F
100
AcDbEntity
  8
0
  6
CENTER
 62
               2
100
AcDbLine
 10
-1.9499999999999886
 20
0.0
 30
0.0
 11
1.9499999999999886
 21
0.0
 31
0.0
  0
CIRCLE
  5
310
100
AcDbEntity
  8
0
  6
CONTINUOUS
 62
               7
100
AcDbCircle
 10
-0.0009515380859284
 20
-0.0008173828124995
 30
0.0
 40
1.55
  0
LINE
  5
311
100
AcDbEntity
  8
0
  6
CENTER
 62
               2
100
AcDbLine
 10
0.0
 20
-1.9500000000000171
 30
0.0
 11
0.0
 21
1.9499999999999886
 31
0.0
  0
LINE
  5
312
100
AcDbEntity
  8
0
  6
CONTINUOUS
 62
               7
100
AcDbLine
 10
-3.3000000000000114
 20
2.6999999999999886
 30
0.0
 11
2.6999999999999886
 21
2.6999999999999886
 31
0.0
  0
LINE
  5
313
100
AcDbEntity
  8
0
  6
CONTINUOUS
 62
               7
100
AcDbLine
 10
2.6999999999999886
 20
-25.30000000000004
 30
0.0
 11
2.6999999999999886
 21
2.6999999999999886
 31
0.0
  0
LINE
  5
314
100
AcDbEntity
  8
0
  6
CONTINUOUS
 62
               7
100
AcDbLine
 10
-3.3000000381469761
 20
-25.399999999999977
 30
0.0
 11
-3.3000000381469761
 21
-17.047332907969945
 31
0.0
  0
LINE
  5
315
100
AcDbEntity
  8
0
  6
CONTINUOUS
 62
               7
100
AcDbLine
 10
-13.300000038146976
 20
-23.80000000000004
 30
0.0
 11
-13.300000038146976
 21
-11.147332907969997
 31
0.0
  0
LINE
  5
316
100
AcDbEntity
  8
0
  6
CONTINUOUS
 62
               7
100
AcDbLine
 10
-3.3000000381469761
 20
-6.0999999999999943
 30
0.0
 11
-13.300000038146976
 21
-6.0999999999999943
 31
0.0
  0
ARC
  5
317
100
AcDbEntity
  8
0
  6
CONTINUOUS
 62
               7
100
AcDbCircle
 10
-12.000000038146993
 20
-10.400000000000006
 30
0.0
 40
1.6000000000000001
100
AcDbArc
 50
269.99999999999937
 51
89.999999999999801
  0
ARC
  5
318
100
AcDbEntity
  8
0
  6
CONTINUOUS
 62
               7
100
AcDbCircle
 10
-4.6000000381469874
 20
-16.300000000000011
 30
0.0
 40
1.6000000000000001
100
AcDbArc
 50
89.999999999999815
 51
269.99999999999937
  0
LINE
  5
319
100
AcDbEntity
  8
0
  6
CONTINUOUS
 62
               7
100
AcDbLine
 10
-12.000000038146993
 20
-12.0
 30
0.0
 11
-13.300000038146976
 21
-12.0
 31
0.0
  0
LINE
  5
31A
100
AcDbEntity
  8
0
  6
CONTINUOUS
 62
               7
100
AcDbLine
 10
-12.000000038146993
 20
-8.8000000000000114
 30
0.0
 11
-13.300000038146976
 21
-8.8000000000000114
 31
0.0
  0
LINE
  5
31B
100
AcDbEntity
  8
0
  6
CONTINUOUS
 62
               7
100
AcDbLine
 10
-4.6000000381469874
 20
-14.700000000000017
 30
0.0
 11
-3.3000000381469761
 21
-14.700000000000017
 31
0.0
  0
LINE
  5
31C
100
AcDbEntity
  8
0
  6
CONTINUOUS
 62
               7
100
AcDbLine
 10
-4.6000000381469874
 20
-17.900000000000006
 30
0.0
 11
-3.3000000381469761
 21
-17.900000000000006
 31
0.0
  0
ARC
  5
31D
100
AcDbEntity
  8
0
  6
CONTINUOUS
 62
               7
100
AcDbCircle
 10
-3.5000000381469931
 20
-25.399999999999977
 30
0.0
 40
0.2
100
AcDbArc
 50
269.99999999999937
 51
0.0
  0
LINE
  5
31E
100
AcDbEntity
  8
0
  6
CONTINUOUS
 62
               7
100
AcDbLine
 10
-13.320000038146986
 20
-24.330000000000013
 30
0.0
 11
-13.320000038146986
 21
-23.80000000000004
 31
0.0
  0
LINE
  5
31F
100
AcDbEntity
  8
0
  6
CONTINUOUS
 62
               7
100
AcDbLine
 10
-13.300000038146976
 20
-25.399999999999977
 30
0.0
 11
-13.300000038146976
 21
-24.486749430654044
 31
0.0
  0
LINE
  5
320
100
AcDbEntity
  8
0
  6
CONTINUOUS
 62
               7
100
AcDbLine
 10
-9.8800000381469886
 20
-24.330000000000013
 30
0.0
 11
-9.8800000381469886
 21
-23.80000000000004
 31
0.0
  0
ARC
  5
321
100
AcDbEntity
  8
0
  6
CONTINUOUS
 62
               7
100
AcDbCircle
 10
-10.491772033980908
 20
-24.330837282029023
 30
0.0
 40
0.6117725687931934
100
AcDbArc
 50
286.30661609184898
 51
0.0784159734340139
  0
ARC
  5
322
100
AcDbEntity
  8
0
  6
CONTINUOUS
 62
               7
100
AcDbCircle
 10
-11.600000038146987
 20
-20.512578763266077
 30
0.0
 40
4.5876068132596712
100
AcDbArc
 50
253.79871892415684
 51
286.20128107584191
  0
LINE
  5
323
100
AcDbEntity
  8
0
  6
CONTINUOUS
 62
               7
100
AcDbLine
 10
-9.8000000381469761
 20
-25.599999999999994
 30
0.0
 11
-9.8000000381469761
 21
-23.80000000000004
 31
0.0
  0
ARC
  5
324
100
AcDbEntity
  8
0
  6
CONTINUOUS
 62
               7
100
AcDbCircle
 10
-13.100000038146987
 20
-25.399999999999977
 30
0.0
 40
0.2
100
AcDbArc
 50
179.99999999999963
 51
269.99999999999937
  0
ARC
  5
325
100
AcDbEntity
  8
0
  6
CONTINUOUS
 62
               7
100
AcDbCircle
 10
-13.000895175005866
 20
-23.500895136858929
 30
0.0
 40
0.2991062025847394
100
AcDbArc
 50
179.82853033398985
 51
270.17146966600922
  0
LINE
  5
326
100
AcDbEntity
  8
0
  6
CONTINUOUS
 62
               7
100
AcDbLine
 10
-13.320000038146986
 20
-23.80000000000004
 30
0.0
 11
-9.8000000381469761
 21
-23.80000000000004
 31
0.0
  0
LINE
  5
327
100
AcDbEntity
  8
0
  6
CONTINUOUS
 62
               7
100
AcDbLine
 10
-3.5000000381469931
 20
-25.599999999999994
 30
0.0
 11
-13.100000038146987
 21
-25.599999999999994
 31
0.0
  0
ARC
  5
328
100
AcDbEntity
  8
0
  6
CONTINUOUS
 62
               7
100
AcDbCircle
 10
-12.709446070037927
 20
-24.33174873134692
 30
0.0
 40
0.6105564724372722
100
AcDbArc
 50
179.83589550320582
 51
253.77907243150949
  0
CIRCLE
  5
329
100
AcDbEntity
  8
0
  6
CONTINUOUS
 62
               7
100
AcDbCircle
 10
-8.3000000381469761
 20
2.6000000000000227
 30
0.0
 40
0.75
  0
CIRCLE
  5
32A
100
AcDbEntity
  8
0
  6
CONTINUOUS
 62
               7
100
AcDbCircle
 10
-8.3000000381469761
 20
2.6000000000000227
 30
0.0
 40
1.1000000000000001
  0
CIRCLE
  5
32B
100
AcDbEntity
  8
0
  6
CONTINUOUS
 62
               7
100
AcDbCircle
 10
-8.3000000381469761
 20
2.6000000000000227
 30
0.0
 40
1.1500000000000001
  0
CIRCLE
  5
32C
100
AcDbEntity
  8
0
  6
CONTINUOUS
 62
               7
100
AcDbCircle
 10
-8.3000000381469761
 20
2.6000000000000227
 30
0.0
 40
1.3000000000000012
  0
LINE
  5
32D
100
AcDbEntity
  8
0
  6
CENTER
 62
               2
100
AcDbLine
 10
-6.6000000381469874
 20
2.6000000000000227
 30
0.0
 11
-10.000000038146993
 21
2.6000000000000227
 31
0.0
  0
ARC
  5
32E
100
AcDbEntity
  8
0
  6
CONTINUOUS
 62
               7
100
AcDbCircle
 10
-8.3000000381469761
 20
0.9000000000000057
 30
0.0
 40
2.0
100
AcDbArc
 50
179.99999999999963
 51
0.0
  0
LINE
  5
32F
100
AcDbEntity
  8
0
  6
CONTINUOUS
 62
               7
100
AcDbLine
 10
-6.3000000381469761
 20
0.9000000000000057
 30
0.0
 11
-6.3000000381469761
 21
4.9000000000000057
 31
0.0
  0
LINE
  5
330
100
AcDbEntity
  8
0
  6
CONTINUOUS
 62
               7
100
AcDbLine
 10
-10.300000038146976
 20
0.9000000000000057
 30
0.0
 11
-10.300000038146976
 21
4.9000000000000057
 31
0.0
  0
LINE
  5
331
100
AcDbEntity
  8
0
  6
CONTINUOUS
 62
               7
100
AcDbLine
 10
-3.3000000381469761
 20
-6.0999999999999943
 30
0.0
 11
-3.3000000381469761
 21
4.9000000000000057
 31
0.0
  0
LINE
  5
332
100
AcDbEntity
  8
0
  6
CONTINUOUS
 62
               7
100
AcDbLine
 10
-13.300000038146976
 20
-6.0999999999999943
 30
0.0
 11
-13.300000038146976
 21
4.9000000000000057
 31
0.0
  0
LINE
  5
333
100
AcDbEntity
  8
0
  6
CONTINUOUS
 62
               7
100
AcDbLine
 10
-3.3000000381469761
 20
4.9000000000000057
 30
0.0
 11
-13.300000038146976
 21
4.9000000000000057
 31
0.0
  0
LINE
  5
334
100
AcDbEntity
  8
0
  6
CENTER
 62
               2
100
AcDbLine
 10
0.2162062056379739
 20
-8.2999999999999261
 30
0.0
 11
17.830000000000013
 21
-8.2999999999999261
 31
0.0
  0
LINE
  5
335
100
AcDbEntity
  8
0
  6
PHANTOM
 62
             200
100
AcDbLine
 10
2.6999999999999886
 20
-4.2999999999999261
 30
0.0
 11
16.200000000000017
 21
-4.2999999999999261
 31
0.0
  0
LINE
  5
336
100
AcDbEntity
  8
0
  6
PHANTOM
 62
             200
100
AcDbLine
 10
2.6999999999999886
 20
-12.299999999999926
 30
0.0
 11
16.200000000000017
 21
-12.299999999999926
 31
0.0
  0
LINE
  5
337
100
AcDbEntity
  8
0
  6
PHANTOM
 62
             200
100
AcDbLine
 10
14.200000000000017
 20
-6.6999999999999318
 30
0.0
 11
16.200000000000017
 21
-6.6999999999999318
 31
0.0
  0
LINE
  5
338
100
AcDbEntity
  8
0
  6
PHANTOM
 62
             200
100
AcDbLine
 10
14.200000000000017
 20
-7.5999999999999375
 30
0.0
 11
16.200000000000017
 21
-7.5999999999999375
 31
0.0
  0
LINE
  5
339
100
AcDbEntity
  8
0
  6
PHANTOM
 62
             200
100
AcDbLine
 10
14.200000000000017
 20
-5.7999999999999261
 30
0.0
 11
16.200000000000017
 21
-5.7999999999999261
 31
0.0
  0
LINE
  5
33A
100
AcDbEntity
  8
0
  6
PHANTOM
 62
             200
100
AcDbLine
 10
14.200000000000017
 20
-5.0999999999999375
 30
0.0
 11
16.200000000000017
 21
-5.0999999999999375
 31
0.0
  0
LINE
  5
33B
100
AcDbEntity
  8
0
  6
PHANTOM
 62
             200
100
AcDbLine
 10
14.200000000000017
 20
-4.5999999999999375
 30
0.0
 11
16.200000000000017
 21
-4.5999999999999375
 31
0.0
  0
LINE
  5
33C
100
AcDbEntity
  8
0
  6
PHANTOM
 62
             200
100
AcDbLine
 10
14.200000000000017
 20
-8.9999999999999147
 30
0.0
 11
16.200000000000017
 21
-8.9999999999999147
 31
0.0
  0
LINE
  5
33D
100
AcDbEntity
  8
0
  6
PHANTOM
 62
             200
100
AcDbLine
 10
16.200000000000017
 20
-4.2999999999999261
 30
0.0
 11
16.200000000000017
 21
-12.299999999999926
 31
0.0
  0
LINE
  5
33E
100
AcDbEntity
  8
0
  6
PHANTOM
 62
             200
100
AcDbLine
 10
14.200000000000017
 20
-9.8999999999999488
 30
0.0
 11
16.200000000000017
 21
-9.8999999999999488
 31
0.0
  0
LINE
  5
33F
100
AcDbEntity
  8
0
  6
PHANTOM
 62
             200
100
AcDbLine
 10
14.200000000000017
 20
-10.799999999999926
 30
0.0
 11
16.200000000000017
 21
-10.799999999999926
 31
0.0
  0
LINE
  5
340
100
AcDbEntity
  8
0
  6
PHANTOM
 62
             200
100
AcDbLine
 10
14.200000000000017
 20
-11.499999999999915
 30
0.0
 11
16.200000000000017
 21
-11.499999999999915
 31
0.0
  0
LINE
  5
341
100
AcDbEntity
  8
0
  6
PHANTOM
 62
             200
100
AcDbLine
 10
14.200000000000017
 20
-11.999999999999915
 30
0.0
 11
16.200000000000017
 21
-11.999999999999915
 31
0.0
  0
LINE
  5
342
100
AcDbEntity
  8
0
  6
PHANTOM
 62
             200
100
AcDbLine
 10
14.200000000000017
 20
-4.2999999999999261
 30
0.0
 11
14.200000000000017
 21
-12.299999999999926
 31
0.0
  0
LINE
  5
343
100
AcDbEntity
  8
0
  6
PHANTOM
 62
             200
100
AcDbLine
 10
16.700000000000017
 20
-4.7999999999999261
 30
0.0
 11
16.700000000000017
 21
-11.799999999999926
 31
0.0
  0
ARC
  5
344
100
AcDbEntity
  8
0
  6
PHANTOM
 62
             200
100
AcDbCircle
 10
16.200000000000017
 20
-11.799999999999926
 30
0.0
 40
0.5
100
AcDbArc
 50
269.99999999999937
 51
0.0
  0
ARC
  5
345
100
AcDbEntity
  8
0
  6
PHANTOM
 62
             200
100
AcDbCircle
 10
16.200000000000017
 20
-4.7999999999999261
 30
0.0
 40
0.5
100
AcDbArc
 50
0.0
 51
89.999999999999815
  0
LINE
  5
346
100
AcDbEntity
  8
0
  6
CONTINUOUS
 62
               4
100
AcDbLine
 10
-7.3000183486938397
 20
43.392929270933365
 30
0.0
 11
-6.8000183486938397
 21
43.392929270933365
 31
0.0
  0
LINE
  5
347
100
AcDbEntity
  8
0
  6
CONTINUOUS
 62
               4
100
AcDbLine
 10
-9.8000183486938397
 20
43.392929270933365
 30
0.0
 11
-9.3000183486938397
 21
43.392929270933365
 31
0.0
  0
ARC
  5
348
100
AcDbEntity
  8
0
  6
CONTINUOUS
 62
               4
100
AcDbCircle
 10
-3.79970319028277
 20
5.3997031521357997
 30
0.0
 40
0.4997032403068001
100
AcDbArc
 50
269.96596353714654
 51
0.0340364628527164
  0
LINE
  5
349
100
AcDbEntity
  8
0
  6
CONTINUOUS
 62
               4
100
AcDbLine
 10
-13.300000038146976
 20
4.9000000000000057
 30
0.0
 11
-3.3000000381469761
 21
4.9000000000000057
 31
0.0
  0
LINE
  5
34A
100
AcDbEntity
  8
0
  6
CONTINUOUS
 62
               4
100
AcDbLine
 10
-3.3000000381469761
 20
27.400000000000006
 30
0.0
 11
-3.3000000381469761
 21
4.9000000000000057
 31
0.0
  0
LINE
  5
34B
100
AcDbEntity
  8
0
  6
CONTINUOUS
 62
               4
100
AcDbLine
 10
-13.300000009057811
 20
27.400000004269401
 30
0.0
 11
-12.05001834869384
 21
27.400000004269401
 31
0.0
  0
ARC
  5
34C
100
AcDbEntity
  8
0
  6
CONTINUOUS
 62
               4
100
AcDbCircle
 10
-4.0959048914888001
 20
26.800095150927547
 30
0.0
 40
0.5999048608870732
100
AcDbArc
 50
359.99091272245295
 51
90.009087277546172
  0
ARC
  5
34D
100
AcDbEntity
  8
0
  6
CONTINUOUS
 62
               4
100
AcDbCircle
 10
-12.800000038146976
 20
26.800000004269378
 30
0.0
 40
0.5
100
AcDbArc
 50
89.999999999999815
 51
179.99999999999963
  0
LINE
  5
34E
100
AcDbEntity
  8
0
  6
CONTINUOUS
 62
               4
100
AcDbLine
 10
-12.05001834869384
 20
27.300000004269378
 30
0.0
 11
-12.800000038146976
 21
27.300000004269378
 31
0.0
  0
LINE
  5
34F
100
AcDbEntity
  8
0
  6
CONTINUOUS
 62
               4
100
AcDbLine
 10
-3.3000000381469761
 20
25.800000004269378
 30
0.0
 11
-4.5500183486938397
 21
25.800000004269378
 31
0.0
  0
LINE
  5
350
100
AcDbEntity
  8
0
  6
CONTINUOUS
 62
               4
100
AcDbLine
 10
-3.3000000381469761
 20
27.400000004269401
 30
0.0
 11
-4.5500183486938397
 21
27.400000004269401
 31
0.0
  0
LINE
  5
351
100
AcDbEntity
  8
0
  6
CONTINUOUS
 62
               4
100
AcDbLine
 10
-3.3000000381469761
 20
26.800000004269378
 30
0.0
 11
-4.5500183486938397
 21
26.800000004269378
 31
0.0
  0
LINE
  5
352
100
AcDbEntity
  8
0
  6
CONTINUOUS
 62
               4
100
AcDbLine
 10
-13.300000038146976
 20
27.400000004269401
 30
0.0
 11
-13.300000038146976
 21
4.9000000000000057
 31
0.0
  0
LINE
  5
353
100
AcDbEntity
  8
0
  6
CONTINUOUS
 62
               4
100
AcDbLine
 10
-13.30001834869384
 20
24.399999999999892
 30
0.0
 11
-12.80001834869384
 21
24.399999999999892
 31
0.0
  0
LINE
  5
354
100
AcDbEntity
  8
0
  6
CONTINUOUS
 62
               4
100
AcDbLine
 10
-12.80001834869384
 20
24.399999999999892
 30
0.0
 11
-11.05001834869384
 21
24.399999999999892
 31
0.0
  0
LINE
  5
355
100
AcDbEntity
  8
0
  6
CONTINUOUS
 62
               4
100
AcDbLine
 10
-3.5300183486938579
 20
23.899999999999892
 30
0.0
 11
-3.5300183486938579
 21
7.5919191906538401
 31
0.0
  0
LINE
  5
356
100
AcDbEntity
  8
0
  6
CONTINUOUS
 62
               4
100
AcDbLine
 10
-13.070018348693878
 20
23.899999999999892
 30
0.0
 11
-13.070018348693878
 21
7.5919191906731669
 31
0.0
  0
LINE
  5
357
100
AcDbEntity
  8
0
  6
CONTINUOUS
 62
               4
100
AcDbLine
 10
-12.570018348693878
 20
7.0919191906694152
 30
0.0
 11
-4.0300183486938579
 21
7.0919191906694152
 31
0.0
  0
LINE
  5
358
100
AcDbEntity
  8
0
  6
CONTINUOUS
 62
               4
100
AcDbLine
 10
-3.8000183486938397
 20
24.399999999999892
 30
0.0
 11
-3.3000183486938397
 21
24.399999999999892
 31
0.0
  0
LINE
  5
359
100
AcDbEntity
  8
0
  6
CONTINUOUS
 62
               4
100
AcDbLine
 10
-11.05001834869384
 20
16.399999999999892
 30
0.0
 11
-5.5500183486938397
 21
16.399999999999892
 31
0.0
  0
LINE
  5
35A
100
AcDbEntity
  8
0
  6
CONTINUOUS
 62
               4
100
AcDbLine
 10
-5.5500183486938397
 20
24.399999999999892
 30
0.0
 11
-3.8000183486938397
 21
24.399999999999892
 31
0.0
  0
LINE
  5
35B
100
AcDbEntity
  8
0
  6
CONTINUOUS
 62
               4
100
AcDbLine
 10
-11.05001834869384
 20
32.399999999999892
 30
0.0
 11
-11.05001834869384
 21
16.399999999999892
 31
0.0
  0
LINE
  5
35C
100
AcDbEntity
  8
0
  6
CONTINUOUS
 62
               4
100
AcDbLine
 10
-12.05001834869384
 20
32.399999999999892
 30
0.0
 11
-12.05001834869384
 21
24.399999999999892
 31
0.0
  0
LINE
  5
35D
100
AcDbEntity
  8
0
  6
CONTINUOUS
 62
               4
100
AcDbLine
 10
-11.05001834869384
 20
30.899999999999892
 30
0.0
 11
-5.5500183486938397
 21
30.899999999999892
 31
0.0
  0
LINE
  5
35E
100
AcDbEntity
  8
0
  6
CONTINUOUS
 62
               4
100
AcDbLine
 10
-5.5500183486938397
 20
32.399999999999892
 30
0.0
 11
-5.5500183486938397
 21
16.399999999999892
 31
0.0
  0
LINE
  5
35F
100
AcDbEntity
  8
0
  6
CONTINUOUS
 62
               4
100
AcDbLine
 10
-4.5500183486938397
 20
32.399999999999892
 30
0.0
 11
-4.5500183486938397
 21
24.399999999999892
 31
0.0
  0
LINE
  5
360
100
AcDbEntity
  8
0
  6
CONTINUOUS
 62
               4
100
AcDbLine
 10
-12.05001834869384
 20
32.399999999999892
 30
0.0
 11
-4.5500183486938397
 21
32.399999999999892
 31
0.0
  0
ARC
  5
361
100
AcDbEntity
  8
0
  6
CONTINUOUS
 62
               4
100
AcDbCircle
 10
-12.568830064788614
 20
7.5931074745746798
 30
0.0
 40
0.5011896925741138
100
AcDbArc
 50
180.13584420715239
 51
269.86415579284636
  0
ARC
  5
362
100
AcDbEntity
  8
0
  6
CONTINUOUS
 62
               4
100
AcDbCircle
 10
-4.0312218548055796
 20
7.5931226967811938
 30
0.0
 40
0.5012049510586274
100
AcDbArc
 50
270.13758021931233
 51
359.86241978068648
  0
ARC
  5
363
100
AcDbEntity
  8
0
  6
CONTINUOUS
 62
               4
100
AcDbCircle
 10
-4.0300207901730971
 20
23.899997558520596
 30
0.0
 40
0.500002441485227
100
AcDbArc
 50
0.0002797715494944
 51
89.999720228450514
  0
ARC
  5
364
100
AcDbEntity
  8
0
  6
CONTINUOUS
 62
               4
100
AcDbCircle
 10
-12.570031166031612
 20
23.900012817337625
 30
0.0
 40
0.4999871828265524
100
AcDbArc
 50
89.998531203634272
 51
180.00146879636483
  0
ARC
  5
365
100
AcDbEntity
  8
0
  6
CONTINUOUS
 62
               4
100
AcDbCircle
 10
-12.800029029825254
 20
23.900010681131249
 30
0.0
 40
0.4999893189827007
100
AcDbArc
 50
89.998776006354774
 51
180.00122399364432
  0
ARC
  5
366
100
AcDbEntity
  8
0
  6
CONTINUOUS
 62
               4
100
AcDbCircle
 10
-3.8000229264446546
 20
23.899995422249077
 30
0.0
 40
0.5000045777717621
100
AcDbArc
 50
0.0005245667992071
 51
89.9994754332008
  0
ARC
  5
367
100
AcDbEntity
  8
0
  6
CONTINUOUS
 62
               4
100
AcDbCircle
 10
-12.800022926216485
 20
5.3999954224772466
 30
0.0
 40
0.4999954224983215
100
AcDbArc
 50
179.99947544974256
 51
270.00052455025656
  0
ARC
  5
368
100
AcDbEntity
  8
0
  6
CONTINUOUS
 62
               4
100
AcDbCircle
 10
-3.8000290298671473
 20
5.4000106811731996
 30
0.0
 40
0.5000106812873828
100
AcDbArc
 50
270.00122394615329
 51
359.9987760538454
  0
LINE
  5
369
100
AcDbEntity
  8
0
  6
CONTINUOUS
 62
               4
100
AcDbLine
 10
-6.4000183486938624
 20
39.892929272933344
 30
0.0
 11
-6.4000183486938624
 21
36.399999999999892
 31
0.0
  0
LINE
  5
36A
100
AcDbEntity
  8
0
  6
CONTINUOUS
 62
               4
100
AcDbLine
 10
-7.7000183486938738
 20
39.892929272933344
 30
0.0
 11
-7.7000183486938738
 21
36.749999999999915
 31
0.0
  0
LINE
  5
36B
100
AcDbEntity
  8
0
  6
CONTINUOUS
 62
               4
100
AcDbLine
 10
-9.3000183486938397
 20
43.392929270933365
 30
0.0
 11
-9.3000183486938397
 21
39.892929272933344
 31
0.0
  0
LINE
  5
36C
100
AcDbEntity
  8
0
  6
CONTINUOUS
 62
               4
100
AcDbLine
 10
-9.8000183486938397
 20
43.392929270933365
 30
0.0
 11
-9.8000183486938397
 21
39.892929272933344
 31
0.0
  0
LINE
  5
36D
100
AcDbEntity
  8
0
  6
CONTINUOUS
 62
               4
100
AcDbLine
 10
-6.4000183486938624
 20
35.369999999999862
 30
0.0
 11
-6.4000183486938624
 21
32.399999999999892
 31
0.0
  0
LINE
  5
36E
100
AcDbEntity
  8
0
  6
CONTINUOUS
 62
               4
100
AcDbLine
 10
-7.7000183486938738
 20
35.719999999999885
 30
0.0
 11
-7.7000183486938738
 21
32.399999999999892
 31
0.0
  0
LINE
  5
36F
100
AcDbEntity
  8
0
  6
CONTINUOUS
 62
               4
100
AcDbLine
 10
-10.200018348693874
 20
36.389999999999901
 30
0.0
 11
-10.200018348693874
 21
32.399999999999892
 31
0.0
  0
LINE
  5
370
100
AcDbEntity
  8
0
  6
CONTINUOUS
 62
               4
100
AcDbLine
 10
-8.9000183486938624
 20
39.892929272933344
 30
0.0
 11
-8.9000183486938624
 21
37.069999999999908
 31
0.0
  0
LINE
  5
371
100
AcDbEntity
  8
0
  6
CONTINUOUS
 62
               4
100
AcDbLine
 10
-10.200018348693874
 20
39.892929272933344
 30
0.0
 11
-10.200018348693874
 21
37.419999999999874
 31
0.0
  0
LINE
  5
372
100
AcDbEntity
  8
0
  6
CONTINUOUS
 62
               4
100
AcDbLine
 10
-6.8000183486938397
 20
43.392929270933365
 30
0.0
 11
-6.8000183486938397
 21
39.892929272933344
 31
0.0
  0
LINE
  5
373
100
AcDbEntity
  8
0
  6
CONTINUOUS
 62
               4
100
AcDbLine
 10
-7.3000183486938397
 20
43.392929270933365
 30
0.0
 11
-7.3000183486938397
 21
39.892929272933344
 31
0.0
  0
LINE
  5
374
100
AcDbEntity
  8
0
  6
CONTINUOUS
 62
               4
100
AcDbLine
 10
-8.9000183486938624
 20
36.039999999999878
 30
0.0
 11
-8.9000183486938624
 21
32.399999999999892
 31
0.0
  0
LINE
  5
375
100
AcDbEntity
  8
0
  6
CONTINUOUS
 62
               4
100
AcDbLine
 10
-10.200018348693874
 20
39.892929272933344
 30
0.0
 11
-8.9000183486938624
 21
39.892929272933344
 31
0.0
  0
LINE
  5
376
100
AcDbEntity
  8
0
  6
CONTINUOUS
 62
             200
100
AcDbLine
 10
-12.05001834869384
 20
36.87999999999991
 30
0.0
 11
-4.5500183486938397
 21
34.869999999999862
 31
0.0
  0
LINE
  5
377
100
AcDbEntity
  8
0
  6
CONTINUOUS
 62
             200
100
AcDbLine
 10
-12.05001834869384
 20
37.919999999999874
 30
0.0
 11
-4.5500183486938397
 21
35.909999999999883
 31
0.0
  0
LINE
  5
378
100
AcDbEntity
  8
0
  6
CONTINUOUS
 62
               4
100
AcDbLine
 10
-7.7000183486938738
 20
39.892929272933344
 30
0.0
 11
-6.4000183486938624
 21
39.892929272933344
 31
0.0
  0
LINE
  5
379
100
AcDbEntity
  8
0
  6
PHANTOM
 62
             200
100
AcDbLine
 10
-6.8000183486938397
 20
12.399999999999892
 30
0.0
 11
-6.8000183486938397
 21
10.399999999999892
 31
0.0
  0
LINE
  5
37A
100
AcDbEntity
  8
0
  6
PHANTOM
 62
             200
100
AcDbLine
 10
-9.8000183486938397
 20
12.399999999999892
 30
0.0
 11
-9.8000183486938397
 21
10.399999999999892
 31
0.0
  0
LINE
  5
37B
100
AcDbEntity
  8
0
  6
PHANTOM
 62
             200
100
AcDbLine
 10
-9.8000183486938397
 20
10.399999999999892
 30
0.0
 11
-6.8000183486938397
 21
10.399999999999892
 31
0.0
  0
LINE
  5
37C
100
AcDbEntity
  8
0
  6
PHANTOM
 62
             200
100
AcDbLine
 10
-9.8000183486938397
 20
12.399999999999892
 30
0.0
 11
-6.8000183486938397
 21
12.399999999999892
 31
0.0
  0
LINE
  5
37D
100
AcDbEntity
  8
0
  6
CENTER
 62
               2
100
AcDbLine
 10
-8.3000000381469761
 20
33.269683056948367
 30
0.0
 11
-8.3000000381469761
 21
-27.594831691049194
 31
0.0
  0
ENDBLK
  5
37E
100
AcDbEntity
  8
0
100
AcDbBlockEnd
  0
BLOCK
  5
37F
100
AcDbEntity
  8
0
100
AcDbBlockBegin
  2
EB10A1-9
 70
               0
 10
0.0
 20
0.0
 30
0.0
  3
EB10A1-9
  1

  0
LINE
  5
380
100
AcDbEntity
  8
0
  6
CENTER
 62
               2
100
AcDbLine
 10
22.498951516567757
 20
30.562585161280538
 30
0.0
 11
22.498951516567757
 21
-27.594831691049194
 31
0.0
  0
ARC
  5
381
100
AcDbEntity
  8
0
  6
CONTINUOUS
 62
               7
100
AcDbCircle
 10
28.698951538085936
 20
-11.5
 30
0.0
 40
0.4
100
AcDbArc
 50
270.00000000000023
 51
0.0
  0
ARC
  5
382
100
AcDbEntity
  8
0
  6
CONTINUOUS
 62
               7
100
AcDbCircle
 10
28.698951538085936
 20
-9.3000000000000114
 30
0.0
 40
0.4
100
AcDbArc
 50
0.0
 51
89.999999999999815
  0
LINE
  5
383
100
AcDbEntity
  8
0
  6
CONTINUOUS
 62
               7
100
AcDbLine
 10
28.698951538085936
 20
-11.900000000000006
 30
0.0
 11
28.498951538085947
 21
-11.900000000000006
 31
0.0
  0
LINE
  5
384
100
AcDbEntity
  8
0
  6
CONTINUOUS
 62
               7
100
AcDbLine
 10
28.698951538085936
 20
-8.9000000000000057
 30
0.0
 11
28.498951538085947
 21
-8.9000000000000057
 31
0.0
  0
LINE
  5
385
100
AcDbEntity
  8
0
  6
CONTINUOUS
 62
               7
100
AcDbLine
 10
29.098951538085942
 20
-9.3000000000000114
 30
0.0
 11
29.098951538085942
 21
-11.5
 31
0.0
  0
LINE
  5
386
100
AcDbEntity
  8
0
  6
CONTINUOUS
 62
               7
100
AcDbLine
 10
15.498951538085947
 20
4.9000000000000057
 30
0.0
 11
15.498951538085947
 21
-25.199999999999903
 31
0.0
  0
LINE
  5
387
100
AcDbEntity
  8
0
  6
CONTINUOUS
 62
               7
100
AcDbLine
 10
14.498951538085947
 20
-5.700823486328062
 30
0.0
 11
14.498951538085947
 21
-24.700823486328062
 31
0.0
  0
LINE
  5
388
100
AcDbEntity
  8
0
  6
CONTINUOUS
 62
               7
100
AcDbLine
 10
15.498951538085947
 20
-24.700823486328062
 30
0.0
 11
14.498951538085947
 21
-24.700823486328062
 31
0.0
  0
LINE
  5
389
100
AcDbEntity
  8
0
  6
CONTINUOUS
 62
               7
100
AcDbLine
 10
15.498951538085947
 20
0.0991765136720062
 30
0.0
 11
14.498951538085947
 21
0.0991765136720062
 31
0.0
  0
LINE
  5
38A
100
AcDbEntity
  8
0
  6
CONTINUOUS
 62
               7
100
AcDbLine
 10
14.498951538085947
 20
0.0991765136720062
 30
0.0
 11
14.498951538085947
 21
-4.700823486328062
 31
0.0
  0
LINE
  5
38B
100
AcDbEntity
  8
0
  6
CONTINUOUS
 62
               7
100
AcDbLine
 10
14.499999999999972
 20
2.7000000000000739
 30
0.0
 11
0.0
 21
2.7000000000000739
 31
0.0
  0
LINE
  5
38C
100
AcDbEntity
  8
0
  6
CONTINUOUS
 62
               7
100
AcDbLine
 10
14.499999999999972
 20
-25.299999999999926
 30
0.0
 11
14.499999999999972
 21
2.7000000000000739
 31
0.0
  0
LINE
  5
38D
100
AcDbEntity
  8
0
  6
CONTINUOUS
 62
               7
100
AcDbLine
 10
14.499999999999972
 20
-25.299999999999926
 30
0.0
 11
0.0
 21
-25.299999999999926
 31
0.0
  0
LINE
  5
38E
100
AcDbEntity
  8
0
  6
CONTINUOUS
 62
               7
100
AcDbLine
 10
0.0
 20
2.7000000000000739
 30
0.0
 11
0.0
 21
-25.299999999999926
 31
0.0
  0
LINE
  5
38F
100
AcDbEntity
  8
0
  6
CONTINUOUS
 62
               7
100
AcDbLine
 10
29.498951538085947
 20
-6.0999999999999943
 30
0.0
 11
29.498951538085947
 21
-25.199999999999903
 31
0.0
  0
LINE
  5
390
100
AcDbEntity
  8
0
  6
CONTINUOUS
 62
               7
100
AcDbLine
 10
15.498951538085947
 20
-6.0999999999999943
 30
0.0
 11
29.498951524567843
 21
-6.0999999999999943
 31
0.0
  0
LINE
  5
391
100
AcDbEntity
  8
0
  6
CONTINUOUS
 62
               7
100
AcDbLine
 10
15.498951538085947
 20
-20.599999999999994
 30
0.0
 11
29.498951524567843
 21
-20.599999999999994
 31
0.0
  0
ARC
  5
392
100
AcDbEntity
  8
0
  6
CONTINUOUS
 62
               7
100
AcDbCircle
 10
29.099924905112601
 20
-25.200973367026535
 30
0.0
 40
0.3990278201647513
100
AcDbArc
 50
269.8602356150771
 51
0.1397643849223044
  0
LINE
  5
393
100
AcDbEntity
  8
0
  6
CONTINUOUS
 62
               7
100
AcDbLine
 10
15.898951538085981
 20
-25.599999999999994
 30
0.0
 11
29.09895153808597
 21
-25.599999999999994
 31
0.0
  0
ARC
  5
394
100
AcDbEntity
  8
0
  6
CONTINUOUS
 62
               7
100
AcDbCircle
 10
15.89797817105935
 20
-25.200973367026535
 30
0.0
 40
0.3990278201647513
100
AcDbArc
 50
179.8602356150773
 51
270.1397643849217
  0
LINE
  5
395
100
AcDbEntity
  8
0
  6
CONTINUOUS
 62
               7
100
AcDbLine
 10
30.598951538085913
 20
-1.0999999999999943
 30
0.0
 11
30.598951538085913
 21
4.9000000000000057
 31
0.0
  0
LINE
  5
396
100
AcDbEntity
  8
0
  6
CONTINUOUS
 62
               7
100
AcDbLine
 10
31.046951538085949
 20
1.5000000000000284
 30
0.0
 11
30.598951538085913
 21
1.5000000000000284
 31
0.0
  0
LINE
  5
397
100
AcDbEntity
  8
0
  6
CONTINUOUS
 62
               7
100
AcDbLine
 10
31.046951538085949
 20
3.7000000000000739
 30
0.0
 11
30.598951538085913
 21
3.7000000000000739
 31
0.0
  0
LINE
  5
398
100
AcDbEntity
  8
0
  6
CONTINUOUS
 62
               7
100
AcDbLine
 10
31.046951538085949
 20
1.5000000000000284
 30
0.0
 11
31.046951538085949
 21
3.7000000000000739
 31
0.0
  0
LINE
  5
399
100
AcDbEntity
  8
0
  6
CONTINUOUS
 62
               7
100
AcDbLine
 10
15.498951538085947
 20
4.9000000000000057
 30
0.0
 11
30.598951538085913
 21
4.9000000000000057
 31
0.0
  0
LINE
  5
39A
100
AcDbEntity
  8
0
  6
CONTINUOUS
 62
               7
100
AcDbLine
 10
29.498951538085947
 20
4.9050000000000011
 30
0.0
 11
29.498951538085947
 21
-6.0999999999999943
 31
0.0
  0
LINE
  5
39B
100
AcDbEntity
  8
0
  6
CONTINUOUS
 62
               7
100
AcDbLine
 10
29.498951538085947
 20
-2.1999999999999034
 30
0.0
 11
30.598951538085913
 21
-1.0999999999999943
 31
0.0
  0
ARC
  5
39C
100
AcDbEntity
  8
0
  6
CONTINUOUS
 62
               7
100
AcDbCircle
 10
28.888397569976888
 20
-24.331748731346892
 30
0.0
 40
0.6105564724372721
100
AcDbArc
 50
286.22092756849014
 51
0.1641044967937703
  0
LINE
  5
39D
100
AcDbEntity
  8
0
  6
CONTINUOUS
 62
               7
100
AcDbLine
 10
29.498951538085947
 20
-23.799999999999926
 30
0.0
 11
25.978951538085965
 21
-23.799999999999926
 31
0.0
  0
ARC
  5
39E
100
AcDbEntity
  8
0
  6
CONTINUOUS
 62
               7
100
AcDbCircle
 10
29.179846674944855
 20
-23.500895136858816
 30
0.0
 40
0.2991062025847394
100
AcDbArc
 50
269.82853033399044
 51
0.1714696660097498
  0
LINE
  5
39F
100
AcDbEntity
  8
0
  6
CONTINUOUS
 62
               7
100
AcDbLine
 10
25.978951538085965
 20
-25.599999999999994
 30
0.0
 11
25.978951538085965
 21
-23.799999999999926
 31
0.0
  0
LINE
  5
3A0
100
AcDbEntity
  8
0
  6
CONTINUOUS
 62
               7
100
AcDbLine
 10
26.05895153808595
 20
-24.329999999999899
 30
0.0
 11
26.05895153808595
 21
-23.799999999999926
 31
0.0
  0
ARC
  5
3A1
100
AcDbEntity
  8
0
  6
CONTINUOUS
 62
               7
100
AcDbCircle
 10
26.670723533919869
 20
-24.330837282028909
 30
0.0
 40
0.6117725687931934
100
AcDbArc
 50
179.9215840265656
 51
253.6933839081498
  0
ARC
  5
3A2
100
AcDbEntity
  8
0
  6
CONTINUOUS
 62
               7
100
AcDbCircle
 10
27.77895153808592
 20
-20.512578763265964
 30
0.0
 40
4.5876068132596712
100
AcDbArc
 50
253.7987189241569
 51
286.20128107584202
  0
LINE
  5
3A3
100
AcDbEntity
  8
0
  6
CENTER
 62
               2
100
AcDbLine
 10
8.4999999999999716
 20
-11.299999999999926
 30
0.0
 11
1.5
 21
-11.299999999999926
 31
0.0
  0
CIRCLE
  5
3A4
100
AcDbEntity
  8
0
  6
CONTINUOUS
 62
               2
100
AcDbCircle
 10
4.9933435058593432
 20
-11.299999999999926
 30
0.0
 40
2.5
  0
CIRCLE
  5
3A5
100
AcDbEntity
  8
0
  6
CONTINUOUS
 62
               7
100
AcDbCircle
 10
4.9933435058593432
 20
-11.299999999999926
 30
0.0
 40
2.0
  0
LINE
  5
3A6
100
AcDbEntity
  8
0
  6
CENTER
 62
               2
100
AcDbLine
 10
4.9999999999999716
 20
-7.7999999999999261
 30
0.0
 11
4.9999999999999716
 21
-14.799999999999926
 31
0.0
  0
LINE
  5
3A7
100
AcDbEntity
  8
0
  6
CONTINUOUS
 62
               7
100
AcDbLine
 10
28.498951533131589
 20
-8.8000000000000114
 30
0.0
 11
29.498951538085947
 21
-8.8000000000000114
 31
0.0
  0
LINE
  5
3A8
100
AcDbEntity
  8
0
  6
CONTINUOUS
 62
               7
100
AcDbLine
 10
28.498951533131589
 20
-12.0
 30
0.0
 11
29.498951538085947
 21
-12.0
 31
0.0
  0
LINE
  5
3A9
100
AcDbEntity
  8
0
  6
CONTINUOUS
 62
               7
100
AcDbLine
 10
28.498951538085947
 20
-8.8000000000000114
 30
0.0
 11
28.498951538085947
 21
-12.0
 31
0.0
  0
LINE
  5
3AA
100
AcDbEntity
  8
0
  6
CENTER
 62
               2
100
AcDbLine
 10
4.9999999999999716
 20
0.2162062056380307
 30
0.0
 11
4.9999999999999716
 21
17.830000000000069
 31
0.0
  0
LINE
  5
3AB
100
AcDbEntity
  8
0
  6
PHANTOM
 62
             200
100
AcDbLine
 10
1.0
 20
2.7000000000000739
 30
0.0
 11
1.0
 21
16.200000000000074
 31
0.0
  0
LINE
  5
3AC
100
AcDbEntity
  8
0
  6
PHANTOM
 62
             200
100
AcDbLine
 10
8.9999999999999716
 20
2.7000000000000739
 30
0.0
 11
8.9999999999999716
 21
16.200000000000074
 31
0.0
  0
ARC
  5
3AD
100
AcDbEntity
  8
0
  6
PHANTOM
 62
             200
100
AcDbCircle
 10
1.5
 20
16.200000000000074
 30
0.0
 40
0.5
100
AcDbArc
 50
89.999999999999815
 51
179.99999999999963
  0
ARC
  5
3AE
100
AcDbEntity
  8
0
  6
PHANTOM
 62
             200
100
AcDbCircle
 10
8.4999999999999716
 20
16.200000000000074
 30
0.0
 40
0.5
100
AcDbArc
 50
0.0
 51
89.999999999999815
  0
LINE
  5
3AF
100
AcDbEntity
  8
0
  6
PHANTOM
 62
             200
100
AcDbLine
 10
1.5
 20
16.700000000000074
 30
0.0
 11
8.4999999999999716
 21
16.700000000000074
 31
0.0
  0
LINE
  5
3B0
100
AcDbEntity
  8
0
  6
PHANTOM
 62
             200
100
AcDbLine
 10
1.0
 20
14.200000000000074
 30
0.0
 11
8.9999999999999716
 21
14.200000000000074
 31
0.0
  0
LINE
  5
3B1
100
AcDbEntity
  8
0
  6
PHANTOM
 62
             200
100
AcDbLine
 10
8.6999999999999602
 20
14.200000000000074
 30
0.0
 11
8.6999999999999602
 21
16.200000000000074
 31
0.0
  0
LINE
  5
3B2
100
AcDbEntity
  8
0
  6
PHANTOM
 62
             200
100
AcDbLine
 10
8.1999999999999602
 20
14.200000000000074
 30
0.0
 11
8.1999999999999602
 21
16.200000000000074
 31
0.0
  0
LINE
  5
3B3
100
AcDbEntity
  8
0
  6
PHANTOM
 62
             200
100
AcDbLine
 10
7.4999999999999716
 20
14.200000000000074
 30
0.0
 11
7.4999999999999716
 21
16.200000000000074
 31
0.0
  0
LINE
  5
3B4
100
AcDbEntity
  8
0
  6
PHANTOM
 62
             200
100
AcDbLine
 10
6.5999999999999659
 20
14.200000000000074
 30
0.0
 11
6.5999999999999659
 21
16.200000000000074
 31
0.0
  0
LINE
  5
3B5
100
AcDbEntity
  8
0
  6
PHANTOM
 62
             200
100
AcDbLine
 10
1.0
 20
16.200000000000074
 30
0.0
 11
8.9999999999999716
 21
16.200000000000074
 31
0.0
  0
LINE
  5
3B6
100
AcDbEntity
  8
0
  6
PHANTOM
 62
             200
100
AcDbLine
 10
5.6999999999999602
 20
14.200000000000074
 30
0.0
 11
5.6999999999999602
 21
16.200000000000074
 31
0.0
  0
LINE
  5
3B7
100
AcDbEntity
  8
0
  6
PHANTOM
 62
             200
100
AcDbLine
 10
1.2999999999999545
 20
14.200000000000074
 30
0.0
 11
1.2999999999999545
 21
16.200000000000074
 31
0.0
  0
LINE
  5
3B8
100
AcDbEntity
  8
0
  6
PHANTOM
 62
             200
100
AcDbLine
 10
1.7999999999999545
 20
14.200000000000074
 30
0.0
 11
1.7999999999999545
 21
16.200000000000074
 31
0.0
  0
LINE
  5
3B9
100
AcDbEntity
  8
0
  6
PHANTOM
 62
             200
100
AcDbLine
 10
2.5
 20
14.200000000000074
 30
0.0
 11
2.5
 21
16.200000000000074
 31
0.0
  0
LINE
  5
3BA
100
AcDbEntity
  8
0
  6
PHANTOM
 62
             200
100
AcDbLine
 10
4.2999999999999829
 20
14.200000000000074
 30
0.0
 11
4.2999999999999829
 21
16.200000000000074
 31
0.0
  0
LINE
  5
3BB
100
AcDbEntity
  8
0
  6
PHANTOM
 62
             200
100
AcDbLine
 10
3.3999999999999773
 20
14.200000000000074
 30
0.0
 11
3.3999999999999773
 21
16.200000000000074
 31
0.0
  0
LINE
  5
3BC
100
AcDbEntity
  8
0
  6
CENTER
 62
               2
100
AcDbLine
 10
-2.0
 20
0.0
 30
0.0
 11
2.0
 21
0.0
 31
0.0
  0
LINE
  5
3BD
100
AcDbEntity
  8
0
  6
CENTER
 62
               2
100
AcDbLine
 10
-2.0
 20
-22.599999999999994
 30
0.0
 11
2.0
 21
-22.599999999999994
 31
0.0
  0
LINE
  5
3BE
100
AcDbEntity
  8
0
  6
CONTINUOUS
 62
               4
100
AcDbLine
 10
34.7524868631007
 20
43.392929270933507
 30
0.0
 11
35.247436357767384
 21
43.392929270933507
 31
0.0
  0
LINE
  5
3BF
100
AcDbEntity
  8
0
  6
CONTINUOUS
 62
               4
100
AcDbLine
 10
29.498951516567757
 20
4.9000000000000625
 30
0.0
 11
29.498951516567558
 21
26.799999994932335
 31
0.0
  0
LINE
  5
3C0
100
AcDbEntity
  8
0
  6
CONTINUOUS
 62
               4
100
AcDbLine
 10
15.498951516567558
 20
26.799999999999955
 30
0.0
 11
15.498951516567757
 21
4.8999999999999488
 31
0.0
  0
LINE
  5
3C1
100
AcDbEntity
  8
0
  6
CONTINUOUS
 62
               4
100
AcDbLine
 10
15.498951516567757
 20
4.8999999999999488
 30
0.0
 11
32.498954333094531
 21
4.9000000000000909
 31
0.0
  0
LINE
  5
3C2
100
AcDbEntity
  8
0
  6
CONTINUOUS
 62
               4
100
AcDbLine
 10
18.198951516567547
 20
27.400000000000006
 30
0.0
 11
18.198951516567547
 21
26.80000000000004
 31
0.0
  0
LINE
  5
3C3
100
AcDbEntity
  8
0
  6
CONTINUOUS
 62
               4
100
AcDbLine
 10
18.198951516567547
 20
26.80000000000004
 30
0.0
 11
15.498951520567573
 21
26.800000000000011
 31
0.0
  0
LINE
  5
3C4
100
AcDbEntity
  8
0
  6
CONTINUOUS
 62
               4
100
AcDbLine
 10
28.998951512567544
 20
27.300000000000125
 30
0.0
 11
27.498951516567615
 21
27.300000000000097
 31
0.0
  0
LINE
  5
3C5
100
AcDbEntity
  8
0
  6
CONTINUOUS
 62
               4
100
AcDbLine
 10
28.698951426567589
 20
27.400000000000091
 30
0.0
 11
16.298951606567528
 21
27.399999999999977
 31
0.0
  0
ARC
  5
3C6
100
AcDbEntity
  8
0
  6
CONTINUOUS
 62
               4
100
AcDbCircle
 10
28.699046573216208
 20
26.800095146648744
 30
0.0
 40
0.5999048008965869
100
AcDbArc
 50
56.247417870394386
 51
90.009087277546683
  0
ARC
  5
3C7
100
AcDbEntity
  8
0
  6
CONTINUOUS
 62
               4
100
AcDbCircle
 10
16.29786360143936
 20
26.801088005128179
 30
0.0
 40
0.5989129231257409
100
AcDbArc
 50
89.895914524773232
 51
180.10408547522718
  0
ARC
  5
3C8
100
AcDbEntity
  8
0
  6
CONTINUOUS
 62
               4
100
AcDbCircle
 10
15.998951520567573
 20
26.800000000000011
 30
0.0
 40
0.5
100
AcDbArc
 50
93.91958589965131
 51
180.00000000000011
  0
ARC
  5
3C9
100
AcDbEntity
  8
0
  6
CONTINUOUS
 62
               4
100
AcDbCircle
 10
28.998951512567544
 20
26.800000000000125
 30
0.0
 40
0.5
100
AcDbArc
 50
0.0000000000005089
 51
90.000000000000313
  0
LINE
  5
3CA
100
AcDbEntity
  8
0
  6
CONTINUOUS
 62
               4
100
AcDbLine
 10
27.498951516567615
 20
27.400000000000063
 30
0.0
 11
27.498951516567615
 21
25.800000000000097
 31
0.0
  0
LINE
  5
3CB
100
AcDbEntity
  8
0
  6
CONTINUOUS
 62
               4
100
AcDbLine
 10
27.498951516567615
 20
25.800000000000097
 30
0.0
 11
15.498951520567573
 21
25.800000000000011
 31
0.0
  0
LINE
  5
3CC
100
AcDbEntity
  8
0
  6
CONTINUOUS
 62
               4
100
AcDbLine
 10
29.498951512567572
 20
24.393939382800113
 30
0.0
 11
37.000971710300945
 21
24.393939382800198
 31
0.0
  0
LINE
  5
3CD
100
AcDbEntity
  8
0
  6
CONTINUOUS
 62
               4
100
AcDbLine
 10
37.502991912034275
 20
23.898989888133514
 30
0.0
 11
37.502991912034418
 21
7.5444444429333828
 31
0.0
  0
LINE
  5
3CE
100
AcDbEntity
  8
0
  6
CONTINUOUS
 62
               4
100
AcDbLine
 10
32.504002015901079
 20
4.9000000000000057
 30
0.0
 11
37.21309292230103
 21
7.0919191906668004
 31
0.0
  0
LINE
  5
3CF
100
AcDbEntity
  8
0
  6
CONTINUOUS
 62
               4
100
AcDbLine
 10
32.504002015900824
 20
32.397979782266788
 30
0.0
 11
36.597941407500798
 21
32.397979782266844
 31
0.0
  0
LINE
  5
3D0
100
AcDbEntity
  8
0
  6
CONTINUOUS
 62
               4
100
AcDbLine
 10
34.101981812967438
 20
32.397979782266788
 30
0.0
 11
34.101981812967523
 21
24.393939382800141
 31
0.0
  0
LINE
  5
3D1
100
AcDbEntity
  8
0
  6
CONTINUOUS
 62
               4
100
AcDbLine
 10
35.897941407900817
 20
32.397979782266816
 30
0.0
 11
35.897941407900902
 21
24.39393938280017
 31
0.0
  0
LINE
  5
3D2
100
AcDbEntity
  8
0
  6
CONTINUOUS
 62
               4
100
AcDbLine
 10
39.496931304834106
 20
32.397979782266844
 30
0.0
 11
39.496931304834135
 21
30.898989884133499
 31
0.0
  0
LINE
  5
3D3
100
AcDbEntity
  8
0
  6
CONTINUOUS
 62
               4
100
AcDbLine
 10
38.598951507367559
 20
25.793939382000161
 30
0.0
 11
39.496931304834135
 21
30.898989884133499
 31
0.0
  0
LINE
  5
3D4
100
AcDbEntity
  8
0
  6
CONTINUOUS
 62
               4
100
AcDbLine
 10
38.499961608434205
 20
32.397979782266844
 30
0.0
 11
38.499961608434234
 21
30.983838368933476
 31
0.0
  0
LINE
  5
3D5
100
AcDbEntity
  8
0
  6
CONTINUOUS
 62
               4
100
AcDbLine
 10
38.499961608434205
 20
32.397979782266844
 30
0.0
 11
39.496931304834106
 21
32.397979782266844
 31
0.0
  0
LINE
  5
3D6
100
AcDbEntity
  8
0
  6
CONTINUOUS
 62
               4
100
AcDbLine
 10
37.396931306034247
 20
24.726262614933518
 30
0.0
 11
38.514103022567525
 21
31.06868685373351
 31
0.0
  0
LINE
  5
3D7
100
AcDbEntity
  8
0
  6
CONTINUOUS
 62
               4
100
AcDbLine
 10
37.601981810967544
 20
23.396969686400183
 30
0.0
 11
37.601981810967601
 21
17.697979790666835
 31
0.0
  0
LINE
  5
3D8
100
AcDbEntity
  8
0
  6
CONTINUOUS
 62
               4
100
AcDbLine
 10
36.597941407500798
 20
32.397979782266844
 30
0.0
 11
36.597941407500883
 21
24.796969685600203
 31
0.0
  0
LINE
  5
3D9
100
AcDbEntity
  8
0
  6
CONTINUOUS
 62
               4
100
AcDbLine
 10
36.901981811367506
 20
32.093939378400165
 30
0.0
 11
36.901981811367534
 21
26.196969684800166
 31
0.0
  0
LINE
  5
3DA
100
AcDbEntity
  8
0
  6
CONTINUOUS
 62
               4
100
AcDbLine
 10
36.597941407500798
 20
32.397979782266844
 30
0.0
 11
36.901981811367506
 21
32.093939378400165
 31
0.0
  0
LINE
  5
3DB
100
AcDbEntity
  8
0
  6
CONTINUOUS
 62
               4
100
AcDbLine
 10
32.504002015900852
 20
31.393939378800127
 30
0.0
 11
32.998951510567537
 21
31.393939378800127
 31
0.0
  0
LINE
  5
3DC
100
AcDbEntity
  8
0
  6
CONTINUOUS
 62
               4
100
AcDbLine
 10
32.50400201590088
 20
26.39494948266676
 30
0.0
 11
32.998951510567565
 21
26.39494948266676
 31
0.0
  0
LINE
  5
3DD
100
AcDbEntity
  8
0
  6
CONTINUOUS
 62
               4
100
AcDbLine
 10
36.597941407500855
 20
25.892929280933544
 30
0.0
 11
36.901981811367534
 21
26.196969684800166
 31
0.0
  0
LINE
  5
3DE
100
AcDbEntity
  8
0
  6
CONTINUOUS
 62
               4
100
AcDbLine
 10
38.598951507367559
 20
25.793939382000161
 30
0.0
 11
38.598951507367616
 21
16.693939387200174
 31
0.0
  0
LINE
  5
3DF
100
AcDbEntity
  8
0
  6
CONTINUOUS
 62
               4
100
AcDbLine
 10
37.601981810967601
 20
16.396969690400141
 30
0.0
 11
38.301981810567582
 21
16.396969690400141
 31
0.0
  0
LINE
  5
3E0
100
AcDbEntity
  8
0
  6
CONTINUOUS
 62
               4
100
AcDbLine
 10
37.502991912034332
 20
17.697979790666835
 30
0.0
 11
37.601981810967601
 21
17.697979790666835
 31
0.0
  0
LINE
  5
3E1
100
AcDbEntity
  8
0
  6
CONTINUOUS
 62
               4
100
AcDbLine
 10
37.502991912034332
 20
16.495959589333467
 30
0.0
 11
37.601981810967601
 21
16.396969690400141
 31
0.0
  0
LINE
  5
3E2
100
AcDbEntity
  8
0
  6
CONTINUOUS
 62
               4
100
AcDbLine
 10
34.349456560300808
 20
36.965656547333481
 30
0.0
 11
34.349456560300837
 21
32.397979782266816
 31
0.0
  0
LINE
  5
3E3
100
AcDbEntity
  8
0
  6
CONTINUOUS
 62
               4
100
AcDbLine
 10
35.650466660567474
 20
39.892929272933486
 30
0.0
 11
35.650466660567503
 21
36.562626244533476
 31
0.0
  0
LINE
  5
3E4
100
AcDbEntity
  8
0
  6
CONTINUOUS
 62
               4
100
AcDbLine
 10
34.34945656030078
 20
39.892929272933486
 30
0.0
 11
34.349456560300808
 21
37.312121193600149
 31
0.0
  0
LINE
  5
3E5
100
AcDbEntity
  8
0
  6
CONTINUOUS
 62
               4
100
AcDbLine
 10
34.34945656030078
 20
39.892929272933486
 30
0.0
 11
35.650466660567474
 21
39.892929272933486
 31
0.0
  0
LINE
  5
3E6
100
AcDbEntity
  8
0
  6
CONTINUOUS
 62
               4
100
AcDbLine
 10
34.7524868631007
 20
43.392929270933507
 30
0.0
 11
34.752486863100728
 21
39.892929272933486
 31
0.0
  0
LINE
  5
3E7
100
AcDbEntity
  8
0
  6
CONTINUOUS
 62
               4
100
AcDbLine
 10
35.247436357767384
 20
43.392929270933507
 30
0.0
 11
35.247436357767413
 21
39.892929272933486
 31
0.0
  0
LINE
  5
3E8
100
AcDbEntity
  8
0
  6
CONTINUOUS
 62
             200
100
AcDbLine
 10
36.498951508567501
 20
36.067676749866877
 30
0.0
 11
33.50097171230081
 21
37.799999981200102
 31
0.0
  0
LINE
  5
3E9
100
AcDbEntity
  8
0
  6
CONTINUOUS
 62
             200
100
AcDbLine
 10
36.498951508567501
 20
35.721212103600209
 30
0.0
 11
33.50097171230081
 21
37.453535334933491
 31
0.0
  0
LINE
  5
3EA
100
AcDbEntity
  8
0
  6
CONTINUOUS
 62
               4
100
AcDbLine
 10
35.650466660567503
 20
36.216161598266808
 30
0.0
 11
35.650466660567531
 21
32.397979782266816
 31
0.0
  0
LINE
  5
3EB
100
AcDbEntity
  8
0
  6
CONTINUOUS
 62
               4
100
AcDbLine
 10
32.504002015900824
 20
32.397979782266788
 30
0.0
 11
32.504002015900852
 21
31.393939378800127
 31
0.0
  0
LINE
  5
3EC
100
AcDbEntity
  8
0
  6
CONTINUOUS
 62
               4
100
AcDbLine
 10
32.50400201590088
 20
26.39494948266676
 30
0.0
 11
32.504002015900909
 21
24.393939382800141
 31
0.0
  0
LINE
  5
3ED
100
AcDbEntity
  8
0
  6
CONTINUOUS
 62
               4
100
AcDbLine
 10
32.998951510567537
 20
31.393939378800127
 30
0.0
 11
32.998951510567565
 21
26.39494948266676
 31
0.0
  0
LINE
  5
3EE
100
AcDbEntity
  8
0
  6
CONTINUOUS
 62
               4
100
AcDbLine
 10
32.504002015901079
 20
4.9000000000000057
 30
0.0
 11
32.504002015900909
 21
24.393939382800141
 31
0.0
  0
ARC
  5
3EF
100
AcDbEntity
  8
0
  6
CONTINUOUS
 62
               4
100
AcDbCircle
 10
36.996984574136832
 20
7.549484497491818
 30
0.0
 40
0.5060324378497572
100
AcDbArc
 50
295.28139190005271
 51
359.42932783011457
  0
ARC
  5
3F0
100
AcDbEntity
  8
0
  6
CONTINUOUS
 62
               4
100
AcDbCircle
 10
37.002785635846266
 20
23.89370851478381
 30
0.0
 40
0.5002341568128574
100
AcDbArc
 50
0.6049287534639967
 51
90.207763713154378
  0
ARC
  5
3F1
100
AcDbEntity
  8
0
  6
CONTINUOUS
 62
               4
100
AcDbCircle
 10
38.296847634659485
 20
16.699073563108385
 30
0.0
 40
0.3021474965435785
100
AcDbArc
 50
270.97363298451182
 51
359.02636701548784
  0
ARC
  5
3F2
100
AcDbEntity
  8
0
  6
CONTINUOUS
 62
               4
100
AcDbCircle
 10
37.0989384574344
 20
23.394271733444697
 30
0.0
 40
0.5030505883944908
100
AcDbArc
 50
0.3072892911903642
 51
36.562608354653236
  0
ARC
  5
3F3
100
AcDbEntity
  8
0
  6
CONTINUOUS
 62
               4
100
AcDbCircle
 10
37.000872639265566
 20
24.800446142493882
 30
0.0
 40
0.4029462287748787
100
AcDbArc
 50
180.49433091715537
 51
349.3911720177253
  0
ENDBLK
  5
3F4
100
AcDbEntity
  8
0
100
AcDbBlockEnd
  0
BLOCK
  5
3F5
100
AcDbEntity
  8
0
100
AcDbBlockBegin
  2
EB10A1-10
 70
               0
 10
0.0
 20
0.0
 30
0.0
  3
EB10A1-10
  1

  0
ARC
  5
3F6
100
AcDbEntity
  8
0
  6
CONTINUOUS
 62
               7
100
AcDbCircle
 10
-28.698951538085964
 20
-17.400000000000006
 30
0.0
 40
0.4
100
AcDbArc
 50
179.99999999999963
 51
269.99999999999937
  0
ARC
  5
3F7
100
AcDbEntity
  8
0
  6
CONTINUOUS
 62
               7
100
AcDbCircle
 10
-28.698951538085964
 20
-15.200000000000017
 30
0.0
 40
0.4
100
AcDbArc
 50
89.999999999999815
 51
179.99999999999963
  0
LINE
  5
3F8
100
AcDbEntity
  8
0
  6
CONTINUOUS
 62
               7
100
AcDbLine
 10
-28.698951538085964
 20
-14.800000000000011
 30
0.0
 11
-28.498951538085976
 21
-14.800000000000011
 31
0.0
  0
LINE
  5
3F9
100
AcDbEntity
  8
0
  6
CONTINUOUS
 62
               7
100
AcDbLine
 10
-28.698951538085964
 20
-17.800000000000011
 30
0.0
 11
-28.498951538085976
 21
-17.800000000000011
 31
0.0
  0
LINE
  5
3FA
100
AcDbEntity
  8
0
  6
CONTINUOUS
 62
               7
100
AcDbLine
 10
-29.09895153808597
 20
-15.200000000000017
 30
0.0
 11
-29.09895153808597
 21
-17.400000000000006
 31
0.0
  0
ARC
  5
3FB
100
AcDbEntity
  8
0
  6
CONTINUOUS
 62
               7
100
AcDbCircle
 10
-17.218951538086003
 20
-20.512578763265964
 30
0.0
 40
4.5876068132596712
100
AcDbArc
 50
253.7987189241569
 51
286.20128107584202
  0
ARC
  5
3FC
100
AcDbEntity
  8
0
  6
CONTINUOUS
 62
               7
100
AcDbCircle
 10
-18.327179542252054
 20
-24.330837282028909
 30
0.0
 40
0.6117725687931934
100
AcDbArc
 50
179.9215840265656
 51
253.6933839081498
  0
LINE
  5
3FD
100
AcDbEntity
  8
0
  6
CONTINUOUS
 62
               7
100
AcDbLine
 10
-18.938951538085973
 20
-24.329999999999899
 30
0.0
 11
-18.938951538085973
 21
-23.799999999999926
 31
0.0
  0
LINE
  5
3FE
100
AcDbEntity
  8
0
  6
CONTINUOUS
 62
               7
100
AcDbLine
 10
-19.018951538085958
 20
-25.599999999999994
 30
0.0
 11
-19.018951538085958
 21
-23.799999999999926
 31
0.0
  0
ARC
  5
3FF
100
AcDbEntity
  8
0
  6
CONTINUOUS
 62
               7
100
AcDbCircle
 10
-15.818056401227068
 20
-23.500895136858816
 30
0.0
 40
0.2991062025847394
100
AcDbArc
 50
269.82853033399044
 51
0.1714696660097498
  0
LINE
  5
400
100
AcDbEntity
  8
0
  6
CONTINUOUS
 62
               7
100
AcDbLine
 10
-15.498951538085976
 20
-23.799999999999926
 30
0.0
 11
-19.018951538085958
 21
-23.799999999999926
 31
0.0
  0
ARC
  5
401
100
AcDbEntity
  8
0
  6
CONTINUOUS
 62
               7
100
AcDbCircle
 10
-16.109505506195035
 20
-24.331748731346892
 30
0.0
 40
0.6105564724372721
100
AcDbArc
 50
286.22092756849014
 51
0.1641044967937703
  0
LINE
  5
402
100
AcDbEntity
  8
0
  6
CONTINUOUS
 62
               7
100
AcDbLine
 10
-29.498951538085976
 20
-2.1999999999999034
 30
0.0
 11
-30.598951538085942
 21
-1.0999999999999943
 31
0.0
  0
LINE
  5
403
100
AcDbEntity
  8
0
  6
CONTINUOUS
 62
               7
100
AcDbLine
 10
-29.498951538085976
 20
4.9000000000000057
 30
0.0
 11
-29.498951538085976
 21
-6.0999999999999943
 31
0.0
  0
LINE
  5
404
100
AcDbEntity
  8
0
  6
CONTINUOUS
 62
               7
100
AcDbLine
 10
-15.498951538085976
 20
4.9000000000000057
 30
0.0
 11
-30.598951538085942
 21
4.9000000000000057
 31
0.0
  0
LINE
  5
405
100
AcDbEntity
  8
0
  6
CONTINUOUS
 62
               7
100
AcDbLine
 10
-31.046951538085978
 20
1.5000000000000284
 30
0.0
 11
-31.046951538085978
 21
3.7000000000000739
 31
0.0
  0
LINE
  5
406
100
AcDbEntity
  8
0
  6
CONTINUOUS
 62
               7
100
AcDbLine
 10
-31.046951538085978
 20
3.7000000000000739
 30
0.0
 11
-30.598951538085942
 21
3.7000000000000739
 31
0.0
  0
LINE
  5
407
100
AcDbEntity
  8
0
  6
CONTINUOUS
 62
               7
100
AcDbLine
 10
-31.046951538085978
 20
1.5000000000000284
 30
0.0
 11
-30.598951538085942
 21
1.5000000000000284
 31
0.0
  0
LINE
  5
408
100
AcDbEntity
  8
0
  6
CONTINUOUS
 62
               7
100
AcDbLine
 10
-30.598951538085942
 20
-1.0999999999999943
 30
0.0
 11
-30.598951538085942
 21
4.9000000000000057
 31
0.0
  0
ARC
  5
409
100
AcDbEntity
  8
0
  6
CONTINUOUS
 62
               7
100
AcDbCircle
 10
-29.099924905112573
 20
-25.200973367026535
 30
0.0
 40
0.3990278201647513
100
AcDbArc
 50
179.8602356150773
 51
270.1397643849217
  0
LINE
  5
40A
100
AcDbEntity
  8
0
  6
CONTINUOUS
 62
               7
100
AcDbLine
 10
-29.098951538085942
 20
-25.599999999999994
 30
0.0
 11
-15.898951538085953
 21
-25.599999999999994
 31
0.0
  0
ARC
  5
40B
100
AcDbEntity
  8
0
  6
CONTINUOUS
 62
               7
100
AcDbCircle
 10
-15.897978171059322
 20
-25.200973367026535
 30
0.0
 40
0.3990278201647513
100
AcDbArc
 50
269.8602356150771
 51
0.1397643849223044
  0
LINE
  5
40C
100
AcDbEntity
  8
0
  6
CONTINUOUS
 62
               7
100
AcDbLine
 10
-15.498951538085976
 20
-20.599999999999994
 30
0.0
 11
-29.498951524567872
 21
-20.599999999999994
 31
0.0
  0
LINE
  5
40D
100
AcDbEntity
  8
0
  6
CONTINUOUS
 62
               7
100
AcDbLine
 10
-15.498951538085976
 20
-6.0999999999999943
 30
0.0
 11
-29.498951524567872
 21
-6.0999999999999943
 31
0.0
  0
LINE
  5
40E
100
AcDbEntity
  8
0
  6
CONTINUOUS
 62
               7
100
AcDbLine
 10
-29.498951538085976
 20
-6.0999999999999943
 30
0.0
 11
-29.498951538085976
 21
-25.199999999999903
 31
0.0
  0
LINE
  5
40F
100
AcDbEntity
  8
0
  6
CONTINUOUS
 62
               7
100
AcDbLine
 10
0.0
 20
2.7000000000000739
 30
0.0
 11
0.0
 21
-25.299999999999926
 31
0.0
  0
LINE
  5
410
100
AcDbEntity
  8
0
  6
CENTER
 62
               2
100
AcDbLine
 10
-5.0
 20
-14.399999999999949
 30
0.0
 11
-5.0
 21
-20.199999999999903
 31
0.0
  0
LINE
  5
411
100
AcDbEntity
  8
0
  6
CENTER
 62
               2
100
AcDbLine
 10
-12.386000000000024
 20
-8.2999999999999261
 30
0.0
 11
-6.6000000000000227
 21
-8.2999999999999261
 31
0.0
  0
CIRCLE
  5
412
100
AcDbEntity
  8
0
  6
CONTINUOUS
 62
               7
100
AcDbCircle
 10
-9.4989515380859757
 20
-8.3008173828123688
 30
0.0
 40
2.0669994354248047
  0
CIRCLE
  5
413
100
AcDbEntity
  8
0
  6
CONTINUOUS
 62
               2
100
AcDbCircle
 10
-9.4989515380859757
 20
-8.3008173828123688
 30
0.0
 40
2.5
  0
CIRCLE
  5
414
100
AcDbEntity
  8
0
  6
CONTINUOUS
 62
               2
100
AcDbCircle
 10
-4.9989515380859757
 20
-17.300817382812369
 30
0.0
 40
2.5
  0
CIRCLE
  5
415
100
AcDbEntity
  8
0
  6
CONTINUOUS
 62
               7
100
AcDbCircle
 10
-4.9989515380859757
 20
-17.300817382812369
 30
0.0
 40
2.0669994354248047
  0
LINE
  5
416
100
AcDbEntity
  8
0
  6
CENTER
 62
               2
100
AcDbLine
 10
-9.5
 20
-5.3999999999999488
 30
0.0
 11
-9.5
 21
-11.199999999999903
 31
0.0
  0
LINE
  5
417
100
AcDbEntity
  8
0
  6
CENTER
 62
               2
100
AcDbLine
 10
-7.8860000000000241
 20
-17.299999999999926
 30
0.0
 11
-2.1000000000000227
 21
-17.299999999999926
 31
0.0
  0
LINE
  5
418
100
AcDbEntity
  8
0
  6
CONTINUOUS
 62
               7
100
AcDbLine
 10
-14.5
 20
-25.299999999999926
 30
0.0
 11
0.0
 21
-25.299999999999926
 31
0.0
  0
LINE
  5
419
100
AcDbEntity
  8
0
  6
CONTINUOUS
 62
               7
100
AcDbLine
 10
-14.5
 20
-25.299999999999926
 30
0.0
 11
-14.5
 21
2.7000000000000739
 31
0.0
  0
LINE
  5
41A
100
AcDbEntity
  8
0
  6
CONTINUOUS
 62
               7
100
AcDbLine
 10
-14.5
 20
2.7000000000000739
 30
0.0
 11
0.0
 21
2.7000000000000739
 31
0.0
  0
LINE
  5
41B
100
AcDbEntity
  8
0
  6
CONTINUOUS
 62
               7
100
AcDbLine
 10
-14.498951538085976
 20
0.0991765136720062
 30
0.0
 11
-14.498951538085976
 21
-4.700823486328062
 31
0.0
  0
LINE
  5
41C
100
AcDbEntity
  8
0
  6
CONTINUOUS
 62
               7
100
AcDbLine
 10
-15.498951538085976
 20
0.0991765136720062
 30
0.0
 11
-14.498951538085976
 21
0.0991765136720062
 31
0.0
  0
LINE
  5
41D
100
AcDbEntity
  8
0
  6
CONTINUOUS
 62
               7
100
AcDbLine
 10
-15.498951538085976
 20
-24.700823486328062
 30
0.0
 11
-14.498951538085976
 21
-24.700823486328062
 31
0.0
  0
LINE
  5
41E
100
AcDbEntity
  8
0
  6
CONTINUOUS
 62
               7
100
AcDbLine
 10
-14.498951538085976
 20
-5.700823486328062
 30
0.0
 11
-14.498951538085976
 21
-24.700823486328062
 31
0.0
  0
LINE
  5
41F
100
AcDbEntity
  8
0
  6
CONTINUOUS
 62
               7
100
AcDbLine
 10
-15.498951538085976
 20
4.9000000000000057
 30
0.0
 11
-15.498951538085976
 21
-25.199999999999903
 31
0.0
  0
LINE
  5
420
100
AcDbEntity
  8
0
  6
CONTINUOUS
 62
               7
100
AcDbLine
 10
-29.498951543040334
 20
-14.700000000000017
 30
0.0
 11
-28.498951543040334
 21
-14.700000000000017
 31
0.0
  0
LINE
  5
421
100
AcDbEntity
  8
0
  6
CONTINUOUS
 62
               7
100
AcDbLine
 10
-29.498951543040334
 20
-17.900000000000006
 30
0.0
 11
-28.498951543040334
 21
-17.900000000000006
 31
0.0
  0
LINE
  5
422
100
AcDbEntity
  8
0
  6
CONTINUOUS
 62
               7
100
AcDbLine
 10
-28.498951538085976
 20
-14.700000000000017
 30
0.0
 11
-28.498951538085976
 21
-17.900000000000006
 31
0.0
  0
LINE
  5
423
100
AcDbEntity
  8
0
  6
CENTER
 62
               2
100
AcDbLine
 10
-2.0
 20
0.0
 30
0.0
 11
2.0
 21
0.0
 31
0.0
  0
LINE
  5
424
100
AcDbEntity
  8
0
  6
CENTER
 62
               2
100
AcDbLine
 10
-2.0
 20
-22.599999999999994
 30
0.0
 11
2.0
 21
-22.599999999999994
 31
0.0
  0
LINE
  5
425
100
AcDbEntity
  8
0
  6
CENTER
 62
               2
100
AcDbLine
 10
-22.498951538085976
 20
30.562585161280538
 30
0.0
 11
-22.498951538085976
 21
-27.594831691049194
 31
0.0
  0
LINE
  5
426
100
AcDbEntity
  8
0
  6
CONTINUOUS
 62
               4
100
AcDbLine
 10
-34.752486884618918
 20
43.392929270933507
 30
0.0
 11
-35.247436379285602
 21
43.392929270933507
 31
0.0
  0
LINE
  5
427
100
AcDbEntity
  8
0
  6
CONTINUOUS
 62
               4
100
AcDbLine
 10
-29.498951538085976
 20
4.9000000000000625
 30
0.0
 11
-29.498951538085777
 21
26.799999994932335
 31
0.0
  0
LINE
  5
428
100
AcDbEntity
  8
0
  6
CONTINUOUS
 62
               4
100
AcDbLine
 10
-15.498951538085777
 20
26.799999999999955
 30
0.0
 11
-15.498951538085976
 21
4.8999999999999488
 31
0.0
  0
LINE
  5
429
100
AcDbEntity
  8
0
  6
CONTINUOUS
 62
               4
100
AcDbLine
 10
-15.498951538085976
 20
4.8999999999999488
 30
0.0
 11
-32.498954354612749
 21
4.9000000000000909
 31
0.0
  0
LINE
  5
42A
100
AcDbEntity
  8
0
  6
CONTINUOUS
 62
               4
100
AcDbLine
 10
-26.798951538086186
 20
27.400000000000006
 30
0.0
 11
-26.798951538086186
 21
26.80000000000004
 31
0.0
  0
LINE
  5
42B
100
AcDbEntity
  8
0
  6
CONTINUOUS
 62
               4
100
AcDbLine
 10
-26.798951538086186
 20
26.80000000000004
 30
0.0
 11
-29.49895153408616
 21
26.800000000000011
 31
0.0
  0
LINE
  5
42C
100
AcDbEntity
  8
0
  6
CONTINUOUS
 62
               4
100
AcDbLine
 10
-15.998951542086189
 20
27.300000000000125
 30
0.0
 11
-17.498951538086118
 21
27.300000000000097
 31
0.0
  0
LINE
  5
42D
100
AcDbEntity
  8
0
  6
CONTINUOUS
 62
               4
100
AcDbLine
 10
-16.298951628086144
 20
27.400000000000091
 30
0.0
 11
-28.698951448086206
 21
27.399999999999977
 31
0.0
  0
ARC
  5
42E
100
AcDbEntity
  8
0
  6
CONTINUOUS
 62
               4
100
AcDbCircle
 10
-16.298856481437525
 20
26.800095146648744
 30
0.0
 40
0.5999048008965869
100
AcDbArc
 50
56.247417870394386
 51
90.009087277546683
  0
ARC
  5
42F
100
AcDbEntity
  8
0
  6
CONTINUOUS
 62
               4
100
AcDbCircle
 10
-28.700039453214373
 20
26.801088005128179
 30
0.0
 40
0.5989129231257409
100
AcDbArc
 50
89.895914524773232
 51
180.10408547522718
  0
ARC
  5
430
100
AcDbEntity
  8
0
  6
CONTINUOUS
 62
               4
100
AcDbCircle
 10
-28.99895153408616
 20
26.800000000000011
 30
0.0
 40
0.5
100
AcDbArc
 50
93.91958589965131
 51
180.00000000000011
  0
ARC
  5
431
100
AcDbEntity
  8
0
  6
CONTINUOUS
 62
               4
100
AcDbCircle
 10
-15.998951542086189
 20
26.800000000000125
 30
0.0
 40
0.5
100
AcDbArc
 50
0.0000000000005089
 51
90.000000000000313
  0
LINE
  5
432
100
AcDbEntity
  8
0
  6
CONTINUOUS
 62
               4
100
AcDbLine
 10
-17.498951538086118
 20
27.400000000000063
 30
0.0
 11
-17.498951538086089
 21
25.800000000000097
 31
0.0
  0
LINE
  5
433
100
AcDbEntity
  8
0
  6
CONTINUOUS
 62
               4
100
AcDbLine
 10
-17.498951538086089
 20
25.800000000000097
 30
0.0
 11
-29.498951534086132
 21
25.800000000000011
 31
0.0
  0
LINE
  5
434
100
AcDbEntity
  8
0
  6
CONTINUOUS
 62
               4
100
AcDbLine
 10
-29.498951534085791
 20
24.393939382800113
 30
0.0
 11
-37.000971731819163
 21
24.393939382800198
 31
0.0
  0
LINE
  5
435
100
AcDbEntity
  8
0
  6
CONTINUOUS
 62
               4
100
AcDbLine
 10
-37.502991933552494
 20
23.898989888133514
 30
0.0
 11
-37.502991933552636
 21
7.5444444429334112
 31
0.0
  0
LINE
  5
436
100
AcDbEntity
  8
0
  6
CONTINUOUS
 62
               4
100
AcDbLine
 10
-32.504002037419298
 20
4.9000000000000057
 30
0.0
 11
-37.213092943819248
 21
7.0919191906668004
 31
0.0
  0
LINE
  5
437
100
AcDbEntity
  8
0
  6
CONTINUOUS
 62
               4
100
AcDbLine
 10
-32.504002037419042
 20
32.397979782266788
 30
0.0
 11
-36.597941429019016
 21
32.397979782266844
 31
0.0
  0
LINE
  5
438
100
AcDbEntity
  8
0
  6
CONTINUOUS
 62
               4
100
AcDbLine
 10
-34.101981834485656
 20
32.397979782266788
 30
0.0
 11
-34.101981834485741
 21
24.393939382800141
 31
0.0
  0
LINE
  5
439
100
AcDbEntity
  8
0
  6
CONTINUOUS
 62
               4
100
AcDbLine
 10
-35.897941429419035
 20
32.397979782266816
 30
0.0
 11
-35.89794142941912
 21
24.39393938280017
 31
0.0
  0
LINE
  5
43A
100
AcDbEntity
  8
0
  6
CONTINUOUS
 62
               4
100
AcDbLine
 10
-39.496931326352325
 20
32.397979782266844
 30
0.0
 11
-39.496931326352353
 21
30.898989884133499
 31
0.0
  0
LINE
  5
43B
100
AcDbEntity
  8
0
  6
CONTINUOUS
 62
               4
100
AcDbLine
 10
-38.598951528885777
 20
25.793939382000161
 30
0.0
 11
-39.496931326352353
 21
30.898989884133499
 31
0.0
  0
LINE
  5
43C
100
AcDbEntity
  8
0
  6
CONTINUOUS
 62
               4
100
AcDbLine
 10
-38.499961629952423
 20
32.397979782266844
 30
0.0
 11
-38.499961629952452
 21
30.983838368933476
 31
0.0
  0
LINE
  5
43D
100
AcDbEntity
  8
0
  6
CONTINUOUS
 62
               4
100
AcDbLine
 10
-38.499961629952423
 20
32.397979782266844
 30
0.0
 11
-39.496931326352325
 21
32.397979782266844
 31
0.0
  0
LINE
  5
43E
100
AcDbEntity
  8
0
  6
CONTINUOUS
 62
               4
100
AcDbLine
 10
-37.396931327552466
 20
24.726262614933518
 30
0.0
 11
-38.514103044085743
 21
31.06868685373351
 31
0.0
  0
LINE
  5
43F
100
AcDbEntity
  8
0
  6
CONTINUOUS
 62
               4
100
AcDbLine
 10
-37.601981832485762
 20
23.396969686400183
 30
0.0
 11
-37.601981832485819
 21
17.697979790666835
 31
0.0
  0
LINE
  5
440
100
AcDbEntity
  8
0
  6
CONTINUOUS
 62
               4
100
AcDbLine
 10
-36.597941429019016
 20
32.397979782266844
 30
0.0
 11
-36.597941429019102
 21
24.796969685600203
 31
0.0
  0
LINE
  5
441
100
AcDbEntity
  8
0
  6
CONTINUOUS
 62
               4
100
AcDbLine
 10
-36.901981832885724
 20
32.093939378400165
 30
0.0
 11
-36.901981832885753
 21
26.196969684800166
 31
0.0
  0
LINE
  5
442
100
AcDbEntity
  8
0
  6
CONTINUOUS
 62
               4
100
AcDbLine
 10
-36.597941429019016
 20
32.397979782266844
 30
0.0
 11
-36.901981832885724
 21
32.093939378400165
 31
0.0
  0
LINE
  5
443
100
AcDbEntity
  8
0
  6
CONTINUOUS
 62
               4
100
AcDbLine
 10
-32.50400203741907
 20
31.393939378800127
 30
0.0
 11
-32.998951532085755
 21
31.393939378800127
 31
0.0
  0
LINE
  5
444
100
AcDbEntity
  8
0
  6
CONTINUOUS
 62
               4
100
AcDbLine
 10
-32.504002037419099
 20
26.39494948266676
 30
0.0
 11
-32.998951532085783
 21
26.39494948266676
 31
0.0
  0
LINE
  5
445
100
AcDbEntity
  8
0
  6
CONTINUOUS
 62
               4
100
AcDbLine
 10
-36.597941429019102
 20
25.892929280933544
 30
0.0
 11
-36.901981832885753
 21
26.196969684800166
 31
0.0
  0
LINE
  5
446
100
AcDbEntity
  8
0
  6
CONTINUOUS
 62
               4
100
AcDbLine
 10
-38.598951528885777
 20
25.793939382000161
 30
0.0
 11
-38.598951528885834
 21
16.693939387200174
 31
0.0
  0
LINE
  5
447
100
AcDbEntity
  8
0
  6
CONTINUOUS
 62
               4
100
AcDbLine
 10
-37.601981832485819
 20
16.396969690400141
 30
0.0
 11
-38.301981832085801
 21
16.396969690400141
 31
0.0
  0
LINE
  5
448
100
AcDbEntity
  8
0
  6
CONTINUOUS
 62
               4
100
AcDbLine
 10
-37.502991933552551
 20
17.697979790666835
 30
0.0
 11
-37.601981832485819
 21
17.697979790666835
 31
0.0
  0
LINE
  5
449
100
AcDbEntity
  8
0
  6
CONTINUOUS
 62
               4
100
AcDbLine
 10
-37.502991933552551
 20
16.495959589333467
 30
0.0
 11
-37.601981832485819
 21
16.396969690400141
 31
0.0
  0
LINE
  5
44A
100
AcDbEntity
  8
0
  6
CONTINUOUS
 62
               4
100
AcDbLine
 10
-34.349456581819027
 20
36.965656547333481
 30
0.0
 11
-34.349456581819055
 21
32.397979782266816
 31
0.0
  0
LINE
  5
44B
100
AcDbEntity
  8
0
  6
CONTINUOUS
 62
               4
100
AcDbLine
 10
-35.650466682085693
 20
39.892929272933486
 30
0.0
 11
-35.650466682085721
 21
36.562626244533476
 31
0.0
  0
LINE
  5
44C
100
AcDbEntity
  8
0
  6
CONTINUOUS
 62
               4
100
AcDbLine
 10
-34.349456581818998
 20
39.892929272933486
 30
0.0
 11
-34.349456581819027
 21
37.312121193600149
 31
0.0
  0
LINE
  5
44D
100
AcDbEntity
  8
0
  6
CONTINUOUS
 62
               4
100
AcDbLine
 10
-34.349456581818998
 20
39.892929272933486
 30
0.0
 11
-35.650466682085693
 21
39.892929272933486
 31
0.0
  0
LINE
  5
44E
100
AcDbEntity
  8
0
  6
CONTINUOUS
 62
               4
100
AcDbLine
 10
-34.752486884618918
 20
43.392929270933507
 30
0.0
 11
-34.752486884618946
 21
39.892929272933486
 31
0.0
  0
LINE
  5
44F
100
AcDbEntity
  8
0
  6
CONTINUOUS
 62
               4
100
AcDbLine
 10
-35.247436379285602
 20
43.392929270933507
 30
0.0
 11
-35.247436379285631
 21
39.892929272933486
 31
0.0
  0
LINE
  5
450
100
AcDbEntity
  8
0
  6
CONTINUOUS
 62
             200
100
AcDbLine
 10
-36.498951530085719
 20
36.067676749866877
 30
0.0
 11
-33.500971733819028
 21
37.799999981200102
 31
0.0
  0
LINE
  5
451
100
AcDbEntity
  8
0
  6
CONTINUOUS
 62
             200
100
AcDbLine
 10
-36.498951530085719
 20
35.721212103600209
 30
0.0
 11
-33.500971733819028
 21
37.453535334933491
 31
0.0
  0
LINE
  5
452
100
AcDbEntity
  8
0
  6
CONTINUOUS
 62
               4
100
AcDbLine
 10
-35.650466682085721
 20
36.216161598266808
 30
0.0
 11
-35.650466682085749
 21
32.397979782266816
 31
0.0
  0
LINE
  5
453
100
AcDbEntity
  8
0
  6
CONTINUOUS
 62
               4
100
AcDbLine
 10
-32.504002037419042
 20
32.397979782266788
 30
0.0
 11
-32.50400203741907
 21
31.393939378800127
 31
0.0
  0
LINE
  5
454
100
AcDbEntity
  8
0
  6
CONTINUOUS
 62
               4
100
AcDbLine
 10
-32.504002037419099
 20
26.39494948266676
 30
0.0
 11
-32.504002037419127
 21
24.393939382800141
 31
0.0
  0
LINE
  5
455
100
AcDbEntity
  8
0
  6
CONTINUOUS
 62
               4
100
AcDbLine
 10
-32.998951532085755
 20
31.393939378800127
 30
0.0
 11
-32.998951532085783
 21
26.39494948266676
 31
0.0
  0
LINE
  5
456
100
AcDbEntity
  8
0
  6
CONTINUOUS
 62
               4
100
AcDbLine
 10
-32.504002037419298
 20
4.9000000000000057
 30
0.0
 11
-32.504002037419127
 21
24.393939382800141
 31
0.0
  0
ARC
  5
457
100
AcDbEntity
  8
0
  6
CONTINUOUS
 62
               4
100
AcDbCircle
 10
-36.99698459565505
 20
7.549484497491818
 30
0.0
 40
0.5060324378497572
100
AcDbArc
 50
180.57067216988423
 51
244.71860809994615
  0
ARC
  5
458
100
AcDbEntity
  8
0
  6
CONTINUOUS
 62
               4
100
AcDbCircle
 10
-37.002785657364484
 20
23.89370851478381
 30
0.0
 40
0.5002341568128574
100
AcDbArc
 50
89.792236286845238
 51
179.39507124653559
  0
ARC
  5
459
100
AcDbEntity
  8
0
  6
CONTINUOUS
 62
               4
100
AcDbCircle
 10
-38.296847656177704
 20
16.699073563108385
 30
0.0
 40
0.3021474965435785
100
AcDbArc
 50
180.97363298451097
 51
269.02636701548704
  0
ARC
  5
45A
100
AcDbEntity
  8
0
  6
CONTINUOUS
 62
               4
100
AcDbCircle
 10
-37.098938478952618
 20
23.394271733444697
 30
0.0
 40
0.5030505883944908
100
AcDbArc
 50
143.43739164534637
 51
179.69271070880924
  0
ARC
  5
45B
100
AcDbEntity
  8
0
  6
CONTINUOUS
 62
               4
100
AcDbCircle
 10
-37.000872660783784
 20
24.800446142493882
 30
0.0
 40
0.4029462287748787
100
AcDbArc
 50
190.60882798227351
 51
359.50566908284344
  0
ENDBLK
  5
45C
100
AcDbEntity
  8
0
100
AcDbBlockEnd
  0
BLOCK
  5
45D
100
AcDbEntity
  8
0
100
AcDbBlockBegin
  2
EB10A1-11
 70
               0
 10
0.0
 20
0.0
 30
0.0
  3
EB10A1-11
  1

  0
LINE
  5
45E
100
AcDbEntity
  8
0
  6
CENTER
 62
               2
100
AcDbLine
 10
-8.3000000381469761
 20
-42.22933412651917
 30
0.0
 11
-8.3000000381469761
 21
-12.593165433681889
 31
0.0
  0
LINE
  5
45F
100
AcDbEntity
  8
0
  6
CONTINUOUS
 62
               7
100
AcDbLine
 10
-13.303295036165565
 20
-15.500001951045903
 30
0.0
 11
-13.303295036165565
 21
-14.500000000000028
 31
0.0
  0
LINE
  5
460
100
AcDbEntity
  8
0
  6
CONTINUOUS
 62
               7
100
AcDbLine
 10
-3.303295036166304
 20
-15.500001951045903
 30
0.0
 11
-3.303295036166304
 21
-14.500000000000028
 31
0.0
  0
CIRCLE
  5
461
100
AcDbEntity
  8
0
  6
CONTINUOUS
 62
               7
100
AcDbCircle
 10
-8.3000000000000114
 20
-5.0
 30
0.0
 40
2.1000000000000001
  0
CIRCLE
  5
462
100
AcDbEntity
  8
0
  6
CONTINUOUS
 62
               2
100
AcDbCircle
 10
-8.3000000000000114
 20
-5.0
 30
0.0
 40
2.5
  0
LINE
  5
463
100
AcDbEntity
  8
0
  6
CENTER
 62
               2
100
AcDbLine
 10
-12.300000000000011
 20
-5.0
 30
0.0
 11
-4.3000000000000114
 21
-5.0
 31
0.0
  0
LINE
  5
464
100
AcDbEntity
  8
0
  6
CENTER
 62
               2
100
AcDbLine
 10
-8.3000000000000114
 20
-9.0
 30
0.0
 11
-8.3000000000000114
 21
-1.0
 31
0.0
  0
LINE
  5
465
100
AcDbEntity
  8
0
  6
CONTINUOUS
 62
               7
100
AcDbLine
 10
-14.29999998349669
 20
-14.500000000000028
 30
0.0
 11
2.70000001650331
 21
-14.500000000000028
 31
0.0
  0
LINE
  5
466
100
AcDbEntity
  8
0
  6
CONTINUOUS
 62
               7
100
AcDbLine
 10
-14.29999998349669
 20
0.0
 30
0.0
 11
2.6999999999999886
 21
0.0
 31
0.0
  0
LINE
  5
467
100
AcDbEntity
  8
0
  6
CONTINUOUS
 62
               7
100
AcDbLine
 10
2.6999999999999886
 20
-14.500000028081587
 30
0.0
 11
2.6999999999999886
 21
-0.0000000280815584
 31
0.0
  0
LINE
  5
468
100
AcDbEntity
  8
0
  6
CONTINUOUS
 62
               7
100
AcDbLine
 10
-14.300000000000011
 20
-14.500000028081587
 30
0.0
 11
-14.300000000000011
 21
-0.0000000280815584
 31
0.0
  0
LINE
  5
469
100
AcDbEntity
  8
0
  6
CENTER
 62
               2
100
AcDbLine
 10
0.0
 20
-2.0
 30
0.0
 11
0.0
 21
2.0
 31
0.0
  0
CIRCLE
  5
46A
100
AcDbEntity
  8
0
  6
CONTINUOUS
 62
               4
100
AcDbCircle
 10
-5.0000000381469647
 20
-27.800000000000011
 30
0.0
 40
1.5
  0
LINE
  5
46B
100
AcDbEntity
  8
0
  6
CONTINUOUS
 62
               4
100
AcDbLine
 10
-4.3650000381469738
 20
-28.435000000000059
 30
0.0
 11
-5.6350000381469556
 21
-27.16500000000002
 31
0.0
  0
LINE
  5
46C
100
AcDbEntity
  8
0
  6
CONTINUOUS
 62
               4
100
AcDbLine
 10
-5.6350000381469556
 20
-28.435000000000059
 30
0.0
 11
-4.3650000381469738
 21
-27.16500000000002
 31
0.0
  0
CIRCLE
  5
46D
100
AcDbEntity
  8
0
  6
CONTINUOUS
 62
               4
100
AcDbCircle
 10
-11.600000038146987
 20
-17.200000000000045
 30
0.0
 40
1.5
  0
LINE
  5
46E
100
AcDbEntity
  8
0
  6
CONTINUOUS
 62
               4
100
AcDbLine
 10
-10.965000038146997
 20
-17.835000000000036
 30
0.0
 11
-12.235000038146978
 21
-16.564999999999998
 31
0.0
  0
LINE
  5
46F
100
AcDbEntity
  8
0
  6
CONTINUOUS
 62
               4
100
AcDbLine
 10
-12.235000038146978
 20
-17.835000000000036
 30
0.0
 11
-10.965000038146997
 21
-16.564999999999998
 31
0.0
  0
LINE
  5
470
100
AcDbEntity
  8
0
  6
CONTINUOUS
 62
               4
100
AcDbLine
 10
-11.011010124833717
 20
-36.598989890933296
 30
0.0
 11
-5.5878431675821787
 21
-36.598989890933296
 31
0.0
  0
LINE
  5
471
100
AcDbEntity
  8
0
  6
CONTINUOUS
 62
               4
100
AcDbLine
 10
-10.706969752462044
 20
-36.903030294799976
 30
0.0
 11
-5.882941200883522
 21
-36.903030294799976
 31
0.0
  0
LINE
  5
472
100
AcDbEntity
  8
0
  6
CONTINUOUS
 62
               4
100
AcDbLine
 10
-11.050000038146948
 20
-38.501010091866704
 30
0.0
 11
-5.5500000381469476
 21
-38.501010091866704
 31
0.0
  0
LINE
  5
473
100
AcDbEntity
  8
0
  6
CONTINUOUS
 62
               4
100
AcDbLine
 10
-5.5500000381469476
 20
-37.500000000000028
 30
0.0
 11
-4.2000000381469818
 21
-37.500000000000028
 31
0.0
  0
LINE
  5
474
100
AcDbEntity
  8
0
  6
CONTINUOUS
 62
               4
100
AcDbLine
 10
-6.100000038146959
 20
-36.050000000000011
 30
0.0
 11
-8.0000000381469363
 21
-36.050000000000011
 31
0.0
  0
LINE
  5
475
100
AcDbEntity
  8
0
  6
CONTINUOUS
 62
               4
100
AcDbLine
 10
-6.100000038146959
 20
-36.250000000000028
 30
0.0
 11
-8.0000000381469363
 21
-36.250000000000028
 31
0.0
  0
LINE
  5
476
100
AcDbEntity
  8
0
  6
CONTINUOUS
 62
               4
100
AcDbLine
 10
-7.5500000381469476
 20
-34.150000000000006
 30
0.0
 11
-7.5500000381469476
 21
-33.850000000000023
 31
0.0
  0
LINE
  5
477
100
AcDbEntity
  8
0
  6
CONTINUOUS
 62
               4
100
AcDbLine
 10
-8.0000000381469363
 20
-36.250000000000028
 30
0.0
 11
-8.0000000381469363
 21
-34.150000000000006
 31
0.0
  0
LINE
  5
478
100
AcDbEntity
  8
0
  6
CONTINUOUS
 62
               4
100
AcDbLine
 10
-5.5500000381469476
 20
-36.560000000000031
 30
0.0
 11
-5.8829412066292548
 21
-36.903030294799976
 31
0.0
  0
LINE
  5
479
100
AcDbEntity
  8
0
  6
CONTINUOUS
 62
               4
100
AcDbLine
 10
-4.5500000381469476
 20
-34.100000000000023
 30
0.0
 11
-4.5500000381469476
 21
-35.900000000000006
 31
0.0
  0
LINE
  5
47A
100
AcDbEntity
  8
0
  6
CONTINUOUS
 62
               4
100
AcDbLine
 10
-4.5500000381469476
 20
-35.900000000000006
 30
0.0
 11
-5.5500000381469476
 21
-35.900000000000006
 31
0.0
  0
LINE
  5
47B
100
AcDbEntity
  8
0
  6
CONTINUOUS
 62
               4
100
AcDbLine
 10
-5.5500000381469476
 20
-34.100000000000023
 30
0.0
 11
-5.5500000381469476
 21
-32.600000000000023
 31
0.0
  0
LINE
  5
47C
100
AcDbEntity
  8
0
  6
CONTINUOUS
 62
               4
100
AcDbLine
 10
-6.5500000381469476
 20
-34.150000000000006
 30
0.0
 11
-6.5500000381469476
 21
-33.850000000000023
 31
0.0
  0
CIRCLE
  5
47D
100
AcDbEntity
  8
0
  6
CONTINUOUS
 62
               4
100
AcDbCircle
 10
-7.0500000381469476
 20
-35.09998474121096
 30
0.0
 40
0.8499675393104553
  0
LINE
  5
47E
100
AcDbEntity
  8
0
  6
CONTINUOUS
 62
               4
100
AcDbLine
 10
-6.100000038146959
 20
-36.250000000000028
 30
0.0
 11
-6.100000038146959
 21
-34.150000000000006
 31
0.0
  0
LINE
  5
47F
100
AcDbEntity
  8
0
  6
CONTINUOUS
 62
               4
100
AcDbLine
 10
-4.5500000381469476
 20
-34.100000000000023
 30
0.0
 11
-5.5500000381469476
 21
-34.100000000000023
 31
0.0
  0
LINE
  5
480
100
AcDbEntity
  8
0
  6
CONTINUOUS
 62
               4
100
AcDbLine
 10
-6.5500000381469476
 20
-33.850000000000023
 30
0.0
 11
-7.5500000381469476
 21
-33.850000000000023
 31
0.0
  0
LINE
  5
481
100
AcDbEntity
  8
0
  6
CONTINUOUS
 62
               4
100
AcDbLine
 10
-6.100000038146959
 20
-34.150000000000006
 30
0.0
 11
-8.0000000381469363
 21
-34.150000000000006
 31
0.0
  0
LINE
  5
482
100
AcDbEntity
  8
0
  6
CONTINUOUS
 62
               4
100
AcDbLine
 10
-5.5500000381469476
 20
-39.497979788266605
 30
0.0
 11
-5.5500000381469476
 21
-35.900000000000006
 31
0.0
  0
LINE
  5
483
100
AcDbEntity
  8
0
  6
CONTINUOUS
 62
               4
100
AcDbLine
 10
-5.5500000381469476
 20
-39.497979788266605
 30
0.0
 11
-11.050000038146948
 21
-39.497979788266605
 31
0.0
  0
CIRCLE
  5
484
100
AcDbEntity
  8
0
  6
CONTINUOUS
 62
               4
100
AcDbCircle
 10
-9.5500000381469476
 20
-35.09998474121096
 30
0.0
 40
0.8499675393104553
  0
LINE
  5
485
100
AcDbEntity
  8
0
  6
CONTINUOUS
 62
               4
100
AcDbLine
 10
-8.600000038146959
 20
-36.250000000000028
 30
0.0
 11
-10.500000038146936
 21
-36.250000000000028
 31
0.0
  0
LINE
  5
486
100
AcDbEntity
  8
0
  6
CONTINUOUS
 62
               4
100
AcDbLine
 10
-8.600000038146959
 20
-34.150000000000006
 30
0.0
 11
-10.500000038146936
 21
-34.150000000000006
 31
0.0
  0
LINE
  5
487
100
AcDbEntity
  8
0
  6
CONTINUOUS
 62
               4
100
AcDbLine
 10
-8.600000038146959
 20
-36.050000000000011
 30
0.0
 11
-10.500000038146936
 21
-36.050000000000011
 31
0.0
  0
LINE
  5
488
100
AcDbEntity
  8
0
  6
CONTINUOUS
 62
               4
100
AcDbLine
 10
-11.050000038146948
 20
-35.900000000000006
 30
0.0
 11
-12.050000038146948
 21
-35.900000000000006
 31
0.0
  0
LINE
  5
489
100
AcDbEntity
  8
0
  6
CONTINUOUS
 62
               4
100
AcDbLine
 10
-11.050000038146948
 20
-34.100000000000023
 30
0.0
 11
-12.050000038146948
 21
-34.100000000000023
 31
0.0
  0
LINE
  5
48A
100
AcDbEntity
  8
0
  6
CONTINUOUS
 62
               4
100
AcDbLine
 10
-9.0500000381469476
 20
-33.850000000000023
 30
0.0
 11
-10.050000038146948
 21
-33.850000000000023
 31
0.0
  0
LINE
  5
48B
100
AcDbEntity
  8
0
  6
CONTINUOUS
 62
               4
100
AcDbLine
 10
-11.050000038146948
 20
-34.100000000000023
 30
0.0
 11
-11.050000038146948
 21
-32.600000000000023
 31
0.0
  0
LINE
  5
48C
100
AcDbEntity
  8
0
  6
CONTINUOUS
 62
               4
100
AcDbLine
 10
-10.050000038146948
 20
-34.150000000000006
 30
0.0
 11
-10.050000038146948
 21
-33.850000000000023
 31
0.0
  0
LINE
  5
48D
100
AcDbEntity
  8
0
  6
CONTINUOUS
 62
               4
100
AcDbLine
 10
-11.050000038146948
 20
-36.560000000000002
 30
0.0
 11
-10.706969743347003
 21
-36.903030294799976
 31
0.0
  0
LINE
  5
48E
100
AcDbEntity
  8
0
  6
CONTINUOUS
 62
               4
100
AcDbLine
 10
-10.500000038146936
 20
-36.250000000000028
 30
0.0
 11
-10.500000038146936
 21
-34.150000000000006
 31
0.0
  0
LINE
  5
48F
100
AcDbEntity
  8
0
  6
CONTINUOUS
 62
               4
100
AcDbLine
 10
-12.050000038146948
 20
-34.100000000000023
 30
0.0
 11
-12.050000038146948
 21
-35.900000000000006
 31
0.0
  0
LINE
  5
490
100
AcDbEntity
  8
0
  6
CONTINUOUS
 62
               4
100
AcDbLine
 10
-9.0500000381469476
 20
-34.150000000000006
 30
0.0
 11
-9.0500000381469476
 21
-33.850000000000023
 31
0.0
  0
LINE
  5
491
100
AcDbEntity
  8
0
  6
CONTINUOUS
 62
               4
100
AcDbLine
 10
-8.600000038146959
 20
-36.250000000000028
 30
0.0
 11
-8.600000038146959
 21
-34.150000000000006
 31
0.0
  0
LINE
  5
492
100
AcDbEntity
  8
0
  6
CONTINUOUS
 62
               4
100
AcDbLine
 10
-5.5500000381469476
 20
-32.600000000000023
 30
0.0
 11
-11.050000038146948
 21
-32.600000000000023
 31
0.0
  0
LINE
  5
493
100
AcDbEntity
  8
0
  6
CONTINUOUS
 62
               4
100
AcDbLine
 10
-5.5500000381469476
 20
-37.600000000000023
 30
0.0
 11
-11.050000038146948
 21
-37.600000000000023
 31
0.0
  0
LINE
  5
494
100
AcDbEntity
  8
0
  6
CONTINUOUS
 62
               4
100
AcDbLine
 10
-11.050000038146948
 20
-39.497979788266605
 30
0.0
 11
-11.050000038146948
 21
-35.900000000000006
 31
0.0
  0
LINE
  5
495
100
AcDbEntity
  8
0
  6
CONTINUOUS
 62
               4
100
AcDbLine
 10
-13.300000038146976
 20
-32.500000000000028
 30
0.0
 11
-13.300000038146976
 21
-29.500000000000028
 31
0.0
  0
LINE
  5
496
100
AcDbEntity
  8
0
  6
CONTINUOUS
 62
               4
100
AcDbLine
 10
-3.3000000381469761
 20
-32.500000000000028
 30
0.0
 11
-3.3000000381469761
 21
-29.500000000000028
 31
0.0
  0
LINE
  5
497
100
AcDbEntity
  8
0
  6
CENTER
 62
               2
100
AcDbLine
 10
-8.3000000381469761
 20
-40.964773111846398
 30
0.0
 11
-8.3000000381469761
 21
-13.580000000000041
 31
0.0
  0
LINE
  5
498
100
AcDbEntity
  8
0
  6
CONTINUOUS
 62
               4
100
AcDbLine
 10
-12.405000038146966
 20
-37.500000000000028
 30
0.0
 11
-11.050000038146948
 21
-37.500000000000028
 31
0.0
  0
LINE
  5
499
100
AcDbEntity
  8
0
  6
CONTINUOUS
 62
               4
100
AcDbLine
 10
-13.300000038146976
 20
-32.500000000000028
 30
0.0
 11
-12.905000038146966
 21
-37.045000000000016
 31
0.0
  0
LINE
  5
49A
100
AcDbEntity
  8
0
  6
CONTINUOUS
 62
               4
100
AcDbLine
 10
-3.3000000381469761
 20
-32.500000000000028
 30
0.0
 11
-3.7000000381469818
 21
-37.045000000000016
 31
0.0
  0
LINE
  5
49B
100
AcDbEntity
  8
0
  6
CONTINUOUS
 62
               4
100
AcDbLine
 10
-12.15000003814697
 20
-36.000000000000028
 30
0.0
 11
-11.15000003814697
 21
-36.000000000000028
 31
0.0
  0
LINE
  5
49C
100
AcDbEntity
  8
0
  6
CONTINUOUS
 62
               4
100
AcDbLine
 10
-12.15000003814697
 20
-34.000000000000028
 30
0.0
 11
-11.15000003814697
 21
-34.000000000000028
 31
0.0
  0
LINE
  5
49D
100
AcDbEntity
  8
0
  6
CONTINUOUS
 62
               4
100
AcDbLine
 10
-11.15000003814697
 20
-32.500000000000028
 30
0.0
 11
-5.4500000381469818
 21
-32.500000000000028
 31
0.0
  0
LINE
  5
49E
100
AcDbEntity
  8
0
  6
CONTINUOUS
 62
               4
100
AcDbLine
 10
-11.15000003814697
 20
-37.500000000000028
 30
0.0
 11
-11.15000003814697
 21
-36.000000000000028
 31
0.0
  0
LINE
  5
49F
100
AcDbEntity
  8
0
  6
CONTINUOUS
 62
               4
100
AcDbLine
 10
-5.4500000381469818
 20
-37.500000000000028
 30
0.0
 11
-5.4500000381469818
 21
-36.000000000000028
 31
0.0
  0
LINE
  5
4A0
100
AcDbEntity
  8
0
  6
CONTINUOUS
 62
               4
100
AcDbLine
 10
-12.15000003814697
 20
-36.000000000000028
 30
0.0
 11
-12.15000003814697
 21
-34.000000000000028
 31
0.0
  0
LINE
  5
4A1
100
AcDbEntity
  8
0
  6
CONTINUOUS
 62
               4
100
AcDbLine
 10
-4.4500000381469818
 20
-36.000000000000028
 30
0.0
 11
-4.4500000381469818
 21
-34.000000000000028
 31
0.0
  0
LINE
  5
4A2
100
AcDbEntity
  8
0
  6
CONTINUOUS
 62
               4
100
AcDbLine
 10
-5.4500000381469818
 20
-34.000000000000028
 30
0.0
 11
-4.4500000381469818
 21
-34.000000000000028
 31
0.0
  0
LINE
  5
4A3
100
AcDbEntity
  8
0
  6
CONTINUOUS
 62
               4
100
AcDbLine
 10
-5.4500000381469818
 20
-36.000000000000028
 30
0.0
 11
-4.4500000381469818
 21
-36.000000000000028
 31
0.0
  0
LINE
  5
4A4
100
AcDbEntity
  8
0
  6
CONTINUOUS
 62
               4
100
AcDbLine
 10
-5.4500000381469818
 20
-34.000000000000028
 30
0.0
 11
-5.4500000381469818
 21
-32.500000000000028
 31
0.0
  0
LINE
  5
4A5
100
AcDbEntity
  8
0
  6
CONTINUOUS
 62
               4
100
AcDbLine
 10
-11.15000003814697
 20
-34.000000000000028
 30
0.0
 11
-11.15000003814697
 21
-32.500000000000028
 31
0.0
  0
ARC
  5
4A6
100
AcDbEntity
  8
0
  6
CONTINUOUS
 62
               4
100
AcDbCircle
 10
-12.405835261092705
 20
-36.998692552687658
 30
0.0
 40
0.5013081430898849
100
AcDbArc
 50
185.30015147300637
 51
270.09545979362559
  0
ARC
  5
4A7
100
AcDbEntity
  8
0
  6
CONTINUOUS
 62
               4
100
AcDbCircle
 10
-4.1969036751607689
 20
-37.001177321962899
 30
0.0
 40
0.4988322880366464
100
AcDbArc
 50
269.64435006619999
 51
354.96003866716563
  0
LINE
  5
4A8
100
AcDbEntity
  8
0
  6
CONTINUOUS
 62
               4
100
AcDbLine
 10
-11.600000038146987
 20
-19.200000000000045
 30
0.0
 11
-13.300000038146976
 21
-19.200000000000045
 31
0.0
  0
ARC
  5
4A9
100
AcDbEntity
  8
0
  6
CONTINUOUS
 62
               4
100
AcDbCircle
 10
-11.600000038146987
 20
-17.200000000000045
 30
0.0
 40
2.0
100
AcDbArc
 50
269.99999999999937
 51
351.37307344132068
  0
LINE
  5
4AA
100
AcDbEntity
  8
0
  6
CONTINUOUS
 62
               4
100
AcDbLine
 10
-5.0000000381469647
 20
-25.800000000000011
 30
0.0
 11
-3.3000000381469761
 21
-25.800000000000011
 31
0.0
  0
ARC
  5
4AB
100
AcDbEntity
  8
0
  6
CONTINUOUS
 62
               4
100
AcDbCircle
 10
-5.0000000381469647
 20
-27.800000000000011
 30
0.0
 40
2.0
100
AcDbArc
 50
89.999999999999815
 51
171.37307344132105
  0
LINE
  5
4AC
100
AcDbEntity
  8
0
  6
CENTER
 62
             200
100
AcDbLine
 10
-11.600000038146987
 20
-15.16500000000002
 30
0.0
 11
-11.600000038146987
 21
-19.660000000000025
 31
0.0
  0
LINE
  5
4AD
100
AcDbEntity
  8
0
  6
CENTER
 62
             200
100
AcDbLine
 10
-9.6000000381469874
 20
-17.200000000000045
 30
0.0
 11
-13.625000038146993
 21
-17.200000000000045
 31
0.0
  0
ARC
  5
4AE
100
AcDbEntity
  8
0
  6
CONTINUOUS
 62
               4
100
AcDbCircle
 10
-6.8000000381469761
 20
-27.800000000000011
 30
0.0
 40
0.3
100
AcDbArc
 50
0.0
 51
89.999999999999815
  0
ARC
  5
4AF
100
AcDbEntity
  8
0
  6
CONTINUOUS
 62
               4
100
AcDbCircle
 10
-9.8000000381469761
 20
-17.200000000000045
 30
0.0
 40
0.3
100
AcDbArc
 50
179.99999999999963
 51
269.99999999999937
  0
ARC
  5
4B0
100
AcDbEntity
  8
0
  6
CONTINUOUS
 62
               4
100
AcDbCircle
 10
-6.2000000381469818
 20
-29.200000000000045
 30
0.0
 40
0.3
100
AcDbArc
 50
179.99999999999963
 51
269.99999999999937
  0
ARC
  5
4B1
100
AcDbEntity
  8
0
  6
CONTINUOUS
 62
               4
100
AcDbCircle
 10
-13.000000038146993
 20
-27.200000000000045
 30
0.0
 40
0.3
100
AcDbArc
 50
179.99999999999963
 51
269.99999999999937
  0
ARC
  5
4B2
100
AcDbEntity
  8
0
  6
CONTINUOUS
 62
               4
100
AcDbCircle
 10
-3.600000038146959
 20
-17.800000000000011
 30
0.0
 40
0.3
100
AcDbArc
 50
0.0
 51
89.999999999999815
  0
ARC
  5
4B3
100
AcDbEntity
  8
0
  6
CONTINUOUS
 62
               4
100
AcDbCircle
 10
-10.40000003814697
 20
-15.800000000000011
 30
0.0
 40
0.3
100
AcDbArc
 50
0.0
 51
89.999999999999815
  0
LINE
  5
4B4
100
AcDbEntity
  8
0
  6
CENTER
 62
             200
100
AcDbLine
 10
-5.0000000381469647
 20
-29.835000000000036
 30
0.0
 11
-5.0000000381469647
 21
-25.340000000000032
 31
0.0
  0
LINE
  5
4B5
100
AcDbEntity
  8
0
  6
CENTER
 62
             200
100
AcDbLine
 10
-7.0000000381469647
 20
-27.800000000000011
 30
0.0
 11
-2.975000038146959
 21
-27.800000000000011
 31
0.0
  0
LINE
  5
4B6
100
AcDbEntity
  8
0
  6
CONTINUOUS
 62
               4
100
AcDbLine
 10
-10.100000038146987
 20
-16.500000000000028
 30
0.0
 11
-9.8000000381469761
 21
-17.500000000000028
 31
0.0
  0
LINE
  5
4B7
100
AcDbEntity
  8
0
  6
CONTINUOUS
 62
               4
100
AcDbLine
 10
-6.5000000381469647
 20
-28.500000000000028
 30
0.0
 11
-6.8000000381469761
 21
-27.500000000000028
 31
0.0
  0
LINE
  5
4B8
100
AcDbEntity
  8
0
  6
CONTINUOUS
 62
               4
100
AcDbLine
 10
-13.300000038146976
 20
-27.500000000000028
 30
0.0
 11
-6.8000000381469761
 21
-27.500000000000028
 31
0.0
  0
LINE
  5
4B9
100
AcDbEntity
  8
0
  6
CONTINUOUS
 62
               4
100
AcDbLine
 10
-9.8000000381469761
 20
-17.500000000000028
 30
0.0
 11
-3.3000000381469761
 21
-17.500000000000028
 31
0.0
  0
LINE
  5
4BA
100
AcDbEntity
  8
0
  6
CONTINUOUS
 62
               4
100
AcDbLine
 10
-13.300000038146976
 20
-29.500000000000028
 30
0.0
 11
-13.300000038146976
 21
-15.500000000000028
 31
0.0
  0
LINE
  5
4BB
100
AcDbEntity
  8
0
  6
CONTINUOUS
 62
               4
100
AcDbLine
 10
-3.3000000381469761
 20
-29.500000000000028
 30
0.0
 11
-3.3000000381469761
 21
-15.500000000000028
 31
0.0
  0
LINE
  5
4BC
100
AcDbEntity
  8
0
  6
CONTINUOUS
 62
               4
100
AcDbLine
 10
-13.300000038146976
 20
-29.500000000000028
 30
0.0
 11
-3.3000000381469761
 21
-29.500000000000028
 31
0.0
  0
LINE
  5
4BD
100
AcDbEntity
  8
0
  6
CONTINUOUS
 62
               4
100
AcDbLine
 10
-13.300000038146976
 20
-15.500000000000028
 30
0.0
 11
-3.3000000381469761
 21
-15.500000000000028
 31
0.0
  0
LINE
  5
4BE
100
AcDbEntity
  8
0
  6
CENTER
 62
               2
100
AcDbLine
 10
-14.200000038146982
 20
-22.500000000000028
 30
0.0
 11
-2.3680000381469881
 21
-22.500000000000028
 31
0.0
  0
LINE
  5
4BF
100
AcDbEntity
  8
0
  6
CONTINUOUS
 62
               4
100
AcDbLine
 10
-10.100000038146987
 20
-17.200000000000045
 30
0.0
 11
-10.100000038146987
 21
-15.500000000000028
 31
0.0
  0
LINE
  5
4C0
100
AcDbEntity
  8
0
  6
CONTINUOUS
 62
               4
100
AcDbLine
 10
-6.5000000381469647
 20
-29.500000000000028
 30
0.0
 11
-6.5000000381469647
 21
-27.800000000000011
 31
0.0
  0
ENDBLK
  5
4C1
100
AcDbEntity
  8
0
100
AcDbBlockEnd
  0
BLOCK
  5
4C2
100
AcDbEntity
  8
0
100
AcDbBlockBegin
  2
EB10A1-12
 70
               0
 10
0.0
 20
0.0
 30
0.0
  3
EB10A1-12
  1

  0
LINE
  5
4C3
100
AcDbEntity
  8
0
  6
CONTINUOUS
 62
               7
100
AcDbLine
 10
-11.400000038146914
 20
0.9000000000000057
 30
0.0
 11
-11.400000038146914
 21
4.9000000000000057
 31
0.0
  0
LINE
  5
4C4
100
AcDbEntity
  8
0
  6
CONTINUOUS
 62
               7
100
AcDbLine
 10
-5.2000000381470386
 20
0.9000000000000057
 30
0.0
 11
-5.2000000381470386
 21
4.9000000000000057
 31
0.0
  0
ARC
  5
4C5
100
AcDbEntity
  8
0
  6
CONTINUOUS
 62
               7
100
AcDbCircle
 10
-8.3000000381469476
 20
0.9000000000000057
 30
0.0
 40
3.0999999999999304
100
AcDbArc
 50
179.99999999999963
 51
0.0
  0
LINE
  5
4C6
100
AcDbEntity
  8
0
  6
CONTINUOUS
 62
               7
100
AcDbLine
 10
-13.300000038146948
 20
-9.6506699532603477
 30
0.0
 11
-13.300000038146948
 21
-6.0999999995055134
 31
0.0
  0
LINE
  5
4C7
100
AcDbEntity
  8
0
  6
CONTINUOUS
 62
               7
100
AcDbLine
 10
-3.3000000381469476
 20
-15.55066995326041
 30
0.0
 11
-3.3000000381469476
 21
-6.0999999999999943
 31
0.0
  0
LINE
  5
4C8
100
AcDbEntity
  8
0
  6
CONTINUOUS
 62
               7
100
AcDbLine
 10
-11.292893256960497
 20
-11.10710678118653
 30
0.0
 11
-12.707106819333546
 21
-9.692893218813424
 31
0.0
  0
LINE
  5
4C9
100
AcDbEntity
  8
0
  6
CONTINUOUS
 62
               7
100
AcDbLine
 10
-12.707106819333546
 20
-11.10710678118653
 30
0.0
 11
-11.29289325696044
 21
-9.692893218813424
 31
0.0
  0
CIRCLE
  5
4CA
100
AcDbEntity
  8
0
  6
CONTINUOUS
 62
               7
100
AcDbCircle
 10
-12.000000038146993
 20
-10.399001430615186
 30
0.0
 40
1.5
  0
LINE
  5
4CB
100
AcDbEntity
  8
0
  6
CONTINUOUS
 62
               7
100
AcDbLine
 10
-3.8928932569604626
 20
-17.007106781186536
 30
0.0
 11
-5.3071068193335691
 21
-15.59289321881343
 31
0.0
  0
LINE
  5
4CC
100
AcDbEntity
  8
0
  6
CONTINUOUS
 62
               7
100
AcDbLine
 10
-5.3071068193335691
 20
-17.007106781186536
 30
0.0
 11
-3.8928932569604626
 21
-15.59289321881343
 31
0.0
  0
CIRCLE
  5
4CD
100
AcDbEntity
  8
0
  6
CONTINUOUS
 62
               7
100
AcDbCircle
 10
-4.6000000381470159
 20
-16.299001430615164
 30
0.0
 40
1.5
  0
LINE
  5
4CE
100
AcDbEntity
  8
0
  6
CONTINUOUS
 62
               7
100
AcDbLine
 10
-13.300000031764512
 20
-20.599999999999994
 30
0.0
 11
-3.3000000317645117
 21
-20.599999999999994
 31
0.0
  0
LINE
  5
4CF
100
AcDbEntity
  8
0
  6
CONTINUOUS
 62
               7
100
AcDbLine
 10
-14.300000000000011
 20
2.6999999999999886
 30
0.0
 11
-13.300000000000011
 21
2.6999999999999886
 31
0.0
  0
LINE
  5
4D0
100
AcDbEntity
  8
0
  6
CONTINUOUS
 62
               7
100
AcDbLine
 10
-14.300000000000011
 20
-25.30000000000004
 30
0.0
 11
-14.300000000000011
 21
2.6999999999999886
 31
0.0
  0
LINE
  5
4D1
100
AcDbEntity
  8
0
  6
CONTINUOUS
 62
               7
100
AcDbLine
 10
-14.300000000000011
 20
-25.30000000000004
 30
0.0
 11
-13.300000000000011
 21
-25.30000000000004
 31
0.0
  0
LINE
  5
4D2
100
AcDbEntity
  8
0
  6
CENTER
 62
               2
100
AcDbLine
 10
0.0
 20
-24.55000000000004
 30
0.0
 11
0.0
 21
-20.650000000000006
 31
0.0
  0
CIRCLE
  5
4D3
100
AcDbEntity
  8
0
  6
CONTINUOUS
 62
               7
100
AcDbCircle
 10
-0.0009515380859284
 20
-22.600817382812494
 30
0.0
 40
1.55
  0
LINE
  5
4D4
100
AcDbEntity
  8
0
  6
CENTER
 62
               2
100
AcDbLine
 10
-1.9499999999999886
 20
-22.599999999999994
 30
0.0
 11
1.9499999999999886
 21
-22.599999999999994
 31
0.0
  0
LINE
  5
4D5
100
AcDbEntity
  8
0
  6
CONTINUOUS
 62
               7
100
AcDbLine
 10
-3.3000000000000114
 20
-25.30000000000004
 30
0.0
 11
2.6999999999999886
 21
-25.30000000000004
 31
0.0
  0
LINE
  5
4D6
100
AcDbEntity
  8
0
  6
CENTER
 62
               2
100
AcDbLine
 10
-1.9499999999999886
 20
0.0
 30
0.0
 11
1.9499999999999886
 21
0.0
 31
0.0
  0
CIRCLE
  5
4D7
100
AcDbEntity
  8
0
  6
CONTINUOUS
 62
               7
100
AcDbCircle
 10
-0.0009515380859284
 20
-0.0008173828124995
 30
0.0
 40
1.55
  0
LINE
  5
4D8
100
AcDbEntity
  8
0
  6
CENTER
 62
               2
100
AcDbLine
 10
0.0
 20
-1.9500000000000171
 30
0.0
 11
0.0
 21
1.9499999999999886
 31
0.0
  0
LINE
  5
4D9
100
AcDbEntity
  8
0
  6
CONTINUOUS
 62
               7
100
AcDbLine
 10
-3.3000000000000114
 20
2.6999999999999886
 30
0.0
 11
2.6999999999999886
 21
2.6999999999999886
 31
0.0
  0
LINE
  5
4DA
100
AcDbEntity
  8
0
  6
CONTINUOUS
 62
               7
100
AcDbLine
 10
2.6999999999999886
 20
-25.30000000000004
 30
0.0
 11
2.6999999999999886
 21
2.6999999999999886
 31
0.0
  0
LINE
  5
4DB
100
AcDbEntity
  8
0
  6
CONTINUOUS
 62
               7
100
AcDbLine
 10
-3.3000000381469476
 20
-25.400000000000006
 30
0.0
 11
-3.3000000381469476
 21
-17.047332907969945
 31
0.0
  0
LINE
  5
4DC
100
AcDbEntity
  8
0
  6
CONTINUOUS
 62
               7
100
AcDbLine
 10
-13.300000038146948
 20
-23.80000000000004
 30
0.0
 11
-13.300000038146948
 21
-11.147332907969997
 31
0.0
  0
LINE
  5
4DD
100
AcDbEntity
  8
0
  6
CONTINUOUS
 62
               7
100
AcDbLine
 10
-3.3000000381469476
 20
-6.0999999999999943
 30
0.0
 11
-13.300000038146948
 21
-6.0999999999999943
 31
0.0
  0
ARC
  5
4DE
100
AcDbEntity
  8
0
  6
CONTINUOUS
 62
               7
100
AcDbCircle
 10
-12.000000038146993
 20
-10.400000000000006
 30
0.0
 40
1.6000000000000001
100
AcDbArc
 50
269.99999999999937
 51
89.999999999999801
  0
ARC
  5
4DF
100
AcDbEntity
  8
0
  6
CONTINUOUS
 62
               7
100
AcDbCircle
 10
-4.6000000381470159
 20
-16.300000000000011
 30
0.0
 40
1.6000000000000001
100
AcDbArc
 50
89.999999999999815
 51
269.99999999999937
  0
LINE
  5
4E0
100
AcDbEntity
  8
0
  6
CONTINUOUS
 62
               7
100
AcDbLine
 10
-12.000000038146993
 20
-12.0
 30
0.0
 11
-13.300000038146948
 21
-12.0
 31
0.0
  0
LINE
  5
4E1
100
AcDbEntity
  8
0
  6
CONTINUOUS
 62
               7
100
AcDbLine
 10
-12.000000038146993
 20
-8.8000000000000114
 30
0.0
 11
-13.300000038146948
 21
-8.8000000000000114
 31
0.0
  0
LINE
  5
4E2
100
AcDbEntity
  8
0
  6
CONTINUOUS
 62
               7
100
AcDbLine
 10
-4.6000000381470159
 20
-14.700000000000017
 30
0.0
 11
-3.3000000381469476
 21
-14.700000000000017
 31
0.0
  0
LINE
  5
4E3
100
AcDbEntity
  8
0
  6
CONTINUOUS
 62
               7
100
AcDbLine
 10
-4.6000000381470159
 20
-17.900000000000006
 30
0.0
 11
-3.3000000381469476
 21
-17.900000000000006
 31
0.0
  0
ARC
  5
4E4
100
AcDbEntity
  8
0
  6
CONTINUOUS
 62
               7
100
AcDbCircle
 10
-3.5000000381469931
 20
-25.400000000000006
 30
0.0
 40
0.2
100
AcDbArc
 50
269.99999999999937
 51
0.0
  0
LINE
  5
4E5
100
AcDbEntity
  8
0
  6
CONTINUOUS
 62
               7
100
AcDbLine
 10
-13.320000038146986
 20
-24.330000000000013
 30
0.0
 11
-13.320000038146986
 21
-23.80000000000004
 31
0.0
  0
LINE
  5
4E6
100
AcDbEntity
  8
0
  6
CONTINUOUS
 62
               7
100
AcDbLine
 10
-13.300000038146948
 20
-25.400000000000006
 30
0.0
 11
-13.300000038146948
 21
-24.486749430654044
 31
0.0
  0
LINE
  5
4E7
100
AcDbEntity
  8
0
  6
CONTINUOUS
 62
               7
100
AcDbLine
 10
-9.8800000381469886
 20
-24.330000000000013
 30
0.0
 11
-9.8800000381469886
 21
-23.80000000000004
 31
0.0
  0
ARC
  5
4E8
100
AcDbEntity
  8
0
  6
CONTINUOUS
 62
               7
100
AcDbCircle
 10
-10.491772033980908
 20
-24.330837282029023
 30
0.0
 40
0.6117725687931934
100
AcDbArc
 50
286.30661609184898
 51
0.0784159734340139
  0
ARC
  5
4E9
100
AcDbEntity
  8
0
  6
CONTINUOUS
 62
               7
100
AcDbCircle
 10
-11.600000038147016
 20
-20.512578763266077
 30
0.0
 40
4.5876068132596712
100
AcDbArc
 50
253.79871892415684
 51
286.20128107584191
  0
LINE
  5
4EA
100
AcDbEntity
  8
0
  6
CONTINUOUS
 62
               7
100
AcDbLine
 10
-9.8000000381469476
 20
-25.599999999999994
 30
0.0
 11
-9.8000000381469476
 21
-23.80000000000004
 31
0.0
  0
ARC
  5
4EB
100
AcDbEntity
  8
0
  6
CONTINUOUS
 62
               7
100
AcDbCircle
 10
-13.100000038147016
 20
-25.400000000000006
 30
0.0
 40
0.2
100
AcDbArc
 50
179.99999999999963
 51
269.99999999999937
  0
ARC
  5
4EC
100
AcDbEntity
  8
0
  6
CONTINUOUS
 62
               7
100
AcDbCircle
 10
-13.000895175005837
 20
-23.500895136858929
 30
0.0
 40
0.2991062025847394
100
AcDbArc
 50
179.82853033398985
 51
270.17146966600922
  0
LINE
  5
4ED
100
AcDbEntity
  8
0
  6
CONTINUOUS
 62
               7
100
AcDbLine
 10
-13.320000038146986
 20
-23.80000000000004
 30
0.0
 11
-9.8000000381469476
 21
-23.80000000000004
 31
0.0
  0
LINE
  5
4EE
100
AcDbEntity
  8
0
  6
CONTINUOUS
 62
               7
100
AcDbLine
 10
-3.5000000381469931
 20
-25.599999999999994
 30
0.0
 11
-13.100000038147016
 21
-25.599999999999994
 31
0.0
  0
ARC
  5
4EF
100
AcDbEntity
  8
0
  6
CONTINUOUS
 62
               7
100
AcDbCircle
 10
-12.709446070037927
 20
-24.331748731346948
 30
0.0
 40
0.6105564724372722
100
AcDbArc
 50
179.83589550320582
 51
253.77907243150949
  0
CIRCLE
  5
4F0
100
AcDbEntity
  8
0
  6
CONTINUOUS
 62
               7
100
AcDbCircle
 10
-8.3000000381469476
 20
2.6000000000000227
 30
0.0
 40
0.75
  0
CIRCLE
  5
4F1
100
AcDbEntity
  8
0
  6
CONTINUOUS
 62
               7
100
AcDbCircle
 10
-8.3000000381469476
 20
2.6000000000000227
 30
0.0
 40
1.1000000000000001
  0
LINE
  5
4F2
100
AcDbEntity
  8
0
  6
CENTER
 62
               2
100
AcDbLine
 10
-8.3000000381469476
 20
-27.594831691049222
 30
0.0
 11
-8.3000000381469476
 21
30.562585161280538
 31
0.0
  0
CIRCLE
  5
4F3
100
AcDbEntity
  8
0
  6
CONTINUOUS
 62
               7
100
AcDbCircle
 10
-8.3000000381469476
 20
2.6000000000000227
 30
0.0
 40
1.1500000000000001
  0
CIRCLE
  5
4F4
100
AcDbEntity
  8
0
  6
CONTINUOUS
 62
               7
100
AcDbCircle
 10
-8.3000000381469476
 20
2.6000000000000227
 30
0.0
 40
1.3000000000000012
  0
LINE
  5
4F5
100
AcDbEntity
  8
0
  6
CENTER
 62
               2
100
AcDbLine
 10
-6.6000000381470159
 20
2.6000000000000227
 30
0.0
 11
-10.000000038146993
 21
2.6000000000000227
 31
0.0
  0
ARC
  5
4F6
100
AcDbEntity
  8
0
  6
CONTINUOUS
 62
               7
100
AcDbCircle
 10
-8.3000000381469476
 20
0.9000000000000057
 30
0.0
 40
2.0
100
AcDbArc
 50
179.99999999999963
 51
0.0
  0
LINE
  5
4F7
100
AcDbEntity
  8
0
  6
CONTINUOUS
 62
               7
100
AcDbLine
 10
-6.3000000381469476
 20
0.9000000000000057
 30
0.0
 11
-6.3000000381469476
 21
4.9000000000000057
 31
0.0
  0
LINE
  5
4F8
100
AcDbEntity
  8
0
  6
CONTINUOUS
 62
               7
100
AcDbLine
 10
-10.300000038146948
 20
0.9000000000000057
 30
0.0
 11
-10.300000038146948
 21
4.9000000000000057
 31
0.0
  0
LINE
  5
4F9
100
AcDbEntity
  8
0
  6
CONTINUOUS
 62
               7
100
AcDbLine
 10
-3.3000000381469476
 20
-6.0999999999999943
 30
0.0
 11
-3.3000000381469476
 21
4.9000000000000057
 31
0.0
  0
LINE
  5
4FA
100
AcDbEntity
  8
0
  6
CONTINUOUS
 62
               7
100
AcDbLine
 10
-13.300000038146948
 20
-6.0999999999999943
 30
0.0
 11
-13.300000038146948
 21
4.9000000000000057
 31
0.0
  0
LINE
  5
4FB
100
AcDbEntity
  8
0
  6
CONTINUOUS
 62
               7
100
AcDbLine
 10
-3.3000000381469476
 20
4.9000000000000057
 30
0.0
 11
-13.300000038146948
 21
4.9000000000000057
 31
0.0
  0
LINE
  5
4FC
100
AcDbEntity
  8
0
  6
CENTER
 62
               2
100
AcDbLine
 10
0.2162062056380023
 20
-8.2999999999999261
 30
0.0
 11
17.829999999999984
 21
-8.2999999999999261
 31
0.0
  0
LINE
  5
4FD
100
AcDbEntity
  8
0
  6
PHANTOM
 62
             200
100
AcDbLine
 10
2.6999999999999886
 20
-4.2999999999999261
 30
0.0
 11
16.199999999999989
 21
-4.2999999999999261
 31
0.0
  0
LINE
  5
4FE
100
AcDbEntity
  8
0
  6
PHANTOM
 62
             200
100
AcDbLine
 10
2.6999999999999886
 20
-12.299999999999926
 30
0.0
 11
16.199999999999989
 21
-12.299999999999926
 31
0.0
  0
LINE
  5
4FF
100
AcDbEntity
  8
0
  6
PHANTOM
 62
             200
100
AcDbLine
 10
14.199999999999989
 20
-6.6999999999999318
 30
0.0
 11
16.199999999999989
 21
-6.6999999999999318
 31
0.0
  0
LINE
  5
500
100
AcDbEntity
  8
0
  6
PHANTOM
 62
             200
100
AcDbLine
 10
14.199999999999989
 20
-7.5999999999999375
 30
0.0
 11
16.199999999999989
 21
-7.5999999999999375
 31
0.0
  0
LINE
  5
501
100
AcDbEntity
  8
0
  6
PHANTOM
 62
             200
100
AcDbLine
 10
14.199999999999989
 20
-5.7999999999999261
 30
0.0
 11
16.199999999999989
 21
-5.7999999999999261
 31
0.0
  0
LINE
  5
502
100
AcDbEntity
  8
0
  6
PHANTOM
 62
             200
100
AcDbLine
 10
14.199999999999989
 20
-5.0999999999999375
 30
0.0
 11
16.199999999999989
 21
-5.0999999999999375
 31
0.0
  0
LINE
  5
503
100
AcDbEntity
  8
0
  6
PHANTOM
 62
             200
100
AcDbLine
 10
14.199999999999989
 20
-4.5999999999999375
 30
0.0
 11
16.199999999999989
 21
-4.5999999999999375
 31
0.0
  0
LINE
  5
504
100
AcDbEntity
  8
0
  6
PHANTOM
 62
             200
100
AcDbLine
 10
14.199999999999989
 20
-8.9999999999999147
 30
0.0
 11
16.199999999999989
 21
-8.9999999999999147
 31
0.0
  0
LINE
  5
505
100
AcDbEntity
  8
0
  6
PHANTOM
 62
             200
100
AcDbLine
 10
16.199999999999989
 20
-4.2999999999999261
 30
0.0
 11
16.199999999999989
 21
-12.299999999999926
 31
0.0
  0
LINE
  5
506
100
AcDbEntity
  8
0
  6
PHANTOM
 62
             200
100
AcDbLine
 10
14.199999999999989
 20
-9.8999999999999488
 30
0.0
 11
16.199999999999989
 21
-9.8999999999999488
 31
0.0
  0
LINE
  5
507
100
AcDbEntity
  8
0
  6
PHANTOM
 62
             200
100
AcDbLine
 10
14.199999999999989
 20
-10.799999999999926
 30
0.0
 11
16.199999999999989
 21
-10.799999999999926
 31
0.0
  0
LINE
  5
508
100
AcDbEntity
  8
0
  6
PHANTOM
 62
             200
100
AcDbLine
 10
14.199999999999989
 20
-11.499999999999915
 30
0.0
 11
16.199999999999989
 21
-11.499999999999915
 31
0.0
  0
LINE
  5
509
100
AcDbEntity
  8
0
  6
PHANTOM
 62
             200
100
AcDbLine
 10
14.199999999999989
 20
-11.999999999999915
 30
0.0
 11
16.199999999999989
 21
-11.999999999999915
 31
0.0
  0
LINE
  5
50A
100
AcDbEntity
  8
0
  6
PHANTOM
 62
             200
100
AcDbLine
 10
14.199999999999989
 20
-4.2999999999999261
 30
0.0
 11
14.199999999999989
 21
-12.299999999999926
 31
0.0
  0
LINE
  5
50B
100
AcDbEntity
  8
0
  6
PHANTOM
 62
             200
100
AcDbLine
 10
16.699999999999989
 20
-4.7999999999999261
 30
0.0
 11
16.699999999999989
 21
-11.799999999999926
 31
0.0
  0
ARC
  5
50C
100
AcDbEntity
  8
0
  6
PHANTOM
 62
             200
100
AcDbCircle
 10
16.199999999999989
 20
-11.799999999999926
 30
0.0
 40
0.5
100
AcDbArc
 50
269.99999999999937
 51
0.0
  0
ARC
  5
50D
100
AcDbEntity
  8
0
  6
PHANTOM
 62
             200
100
AcDbCircle
 10
16.199999999999989
 20
-4.7999999999999261
 30
0.0
 40
0.5
100
AcDbArc
 50
0.0
 51
89.999999999999815
  0
LINE
  5
50E
100
AcDbEntity
  8
0
  6
CONTINUOUS
 62
               4
100
AcDbLine
 10
-4.2380000381469358
 20
5.977999995734109
 30
0.0
 11
-12.362000038146959
 21
5.977999995734109
 31
0.0
  0
LINE
  5
50F
100
AcDbEntity
  8
0
  6
CONTINUOUS
 62
               4
100
AcDbLine
 10
-3.8000000381469476
 20
23.400000000000006
 30
0.0
 11
-12.800000038146948
 21
23.400000000000006
 31
0.0
  0
LINE
  5
510
100
AcDbEntity
  8
0
  6
CONTINUOUS
 62
               4
100
AcDbLine
 10
-3.3000000381469476
 20
25.799999999999983
 30
0.0
 11
-6.5000000381469931
 21
25.799999999999983
 31
0.0
  0
LINE
  5
511
100
AcDbEntity
  8
0
  6
CONTINUOUS
 62
               4
100
AcDbLine
 10
-3.3000000381469476
 20
27.400000000000006
 30
0.0
 11
-13.300000038146948
 21
27.400000000000006
 31
0.0
  0
LINE
  5
512
100
AcDbEntity
  8
0
  6
CONTINUOUS
 62
               4
100
AcDbLine
 10
-3.3000000381469476
 20
26.799999999999983
 30
0.0
 11
-6.5000000381469931
 21
26.799999999999983
 31
0.0
  0
LINE
  5
513
100
AcDbEntity
  8
0
  6
CONTINUOUS
 62
               4
100
AcDbLine
 10
-13.300000038146948
 20
4.9000000000000057
 30
0.0
 11
-3.3000000381469476
 21
4.9000000000000057
 31
0.0
  0
ARC
  5
514
100
AcDbEntity
  8
0
  6
CONTINUOUS
 62
               4
100
AcDbCircle
 10
-12.799703013940814
 20
5.400297024206111
 30
0.0
 40
0.5002971123771115
100
AcDbArc
 50
180.03401625554557
 51
269.96598374445358
  0
LINE
  5
515
100
AcDbEntity
  8
0
  6
PHANTOM
 62
             200
100
AcDbLine
 10
-9.8000183486938681
 20
12.399999995730525
 30
0.0
 11
-9.8000183486938681
 21
10.399999995730525
 31
0.0
  0
LINE
  5
516
100
AcDbEntity
  8
0
  6
PHANTOM
 62
             200
100
AcDbLine
 10
-6.8000183486938681
 20
12.399999995730525
 30
0.0
 11
-6.8000183486938681
 21
10.399999995730525
 31
0.0
  0
LINE
  5
517
100
AcDbEntity
  8
0
  6
PHANTOM
 62
             200
100
AcDbLine
 10
-9.8000183486938681
 20
10.399999995730525
 30
0.0
 11
-6.8000183486938681
 21
10.399999995730525
 31
0.0
  0
LINE
  5
518
100
AcDbEntity
  8
0
  6
PHANTOM
 62
             200
100
AcDbLine
 10
-9.8000183486938681
 20
12.399999995730525
 30
0.0
 11
-6.8000183486938681
 21
12.399999995730525
 31
0.0
  0
LINE
  5
519
100
AcDbEntity
  8
0
  6
CONTINUOUS
 62
               4
100
AcDbLine
 10
-6.5000000381469931
 20
27.299999999999983
 30
0.0
 11
-12.800000038146948
 21
27.299999999999983
 31
0.0
  0
LINE
  5
51A
100
AcDbEntity
  8
0
  6
CONTINUOUS
 62
               4
100
AcDbLine
 10
-6.5000000381469931
 20
27.299999999999983
 30
0.0
 11
-6.5000000381469931
 21
25.799999999999983
 31
0.0
  0
ARC
  5
51B
100
AcDbEntity
  8
0
  6
CONTINUOUS
 62
               4
100
AcDbCircle
 10
-12.800000038146948
 20
26.799999999999983
 30
0.0
 40
0.5
100
AcDbArc
 50
89.999999999999815
 51
179.99999999999963
  0
CIRCLE
  5
51C
100
AcDbEntity
  8
0
  6
CONTINUOUS
 62
               4
100
AcDbCircle
 10
-7.0494061660766079
 20
19.900000000000006
 30
0.0
 40
0.25
  0
CIRCLE
  5
51D
100
AcDbEntity
  8
0
  6
CONTINUOUS
 62
               4
100
AcDbCircle
 10
-9.5494061660766079
 20
19.900000000000006
 30
0.0
 40
0.25
  0
LINE
  5
51E
100
AcDbEntity
  8
0
  6
CONTINUOUS
 62
               4
100
AcDbLine
 10
-12.862000038146959
 20
22.900000000000006
 30
0.0
 11
-12.862000038146959
 21
6.477999995734109
 31
0.0
  0
ARC
  5
51F
100
AcDbEntity
  8
0
  6
CONTINUOUS
 62
               4
100
AcDbCircle
 10
-12.361982093489075
 20
22.899982055342065
 30
0.0
 40
0.5000179449799356
100
AcDbArc
 50
90.002056232531103
 51
179.99794376746806
  0
ARC
  5
520
100
AcDbEntity
  8
0
  6
CONTINUOUS
 62
               4
100
AcDbCircle
 10
-12.799703013940814
 20
22.899702975793872
 30
0.0
 40
0.5002971123771114
100
AcDbArc
 50
90.034016255545609
 51
179.96598374445358
  0
ARC
  5
521
100
AcDbEntity
  8
0
  6
CONTINUOUS
 62
               4
100
AcDbCircle
 10
-12.362213598937785
 20
6.4777864349432832
 30
0.0
 40
0.4997864848369056
100
AcDbArc
 50
179.97551728042748
 51
270.02448271957149
  0
ARC
  5
522
100
AcDbEntity
  8
0
  6
CONTINUOUS
 62
               4
100
AcDbCircle
 10
-7.0500000381469476
 20
19.900000000000006
 30
0.0
 40
2.0000000881710065
100
AcDbArc
 50
269.99999999999937
 51
89.999999999999801
  0
ARC
  5
523
100
AcDbEntity
  8
0
  6
CONTINUOUS
 62
               4
100
AcDbCircle
 10
-9.5500000381469476
 20
19.900000000000006
 30
0.0
 40
2.0000000881710065
100
AcDbArc
 50
89.999999999999815
 51
269.99999999999937
  0
LINE
  5
524
100
AcDbEntity
  8
0
  6
CONTINUOUS
 62
               4
100
AcDbLine
 10
-7.0500000381469476
 20
21.900000000000006
 30
0.0
 11
-9.5500000381469476
 21
21.900000000000006
 31
0.0
  0
LINE
  5
525
100
AcDbEntity
  8
0
  6
CONTINUOUS
 62
               4
100
AcDbLine
 10
-7.0500000381469476
 20
17.900000000000006
 30
0.0
 11
-9.5500000381469476
 21
17.900000000000006
 31
0.0
  0
CIRCLE
  5
526
100
AcDbEntity
  8
0
  6
CONTINUOUS
 62
               4
100
AcDbCircle
 10
-7.0494061660766079
 20
19.900000000000006
 30
0.0
 40
0.7250000000000001
  0
CIRCLE
  5
527
100
AcDbEntity
  8
0
  6
CONTINUOUS
 62
               4
100
AcDbCircle
 10
-9.5494061660766079
 20
19.900000000000006
 30
0.0
 40
0.7250000000000001
  0
ARC
  5
528
100
AcDbEntity
  8
0
  6
CONTINUOUS
 62
               4
100
AcDbCircle
 10
-5.8970880433840307
 20
26.801088005237006
 30
0.0
 40
0.5989129830170392
100
AcDbArc
 50
89.895914524772735
 51
180.10408547522667
  0
LINE
  5
529
100
AcDbEntity
  8
0
  6
CONTINUOUS
 62
               4
100
AcDbLine
 10
-13.300000038146948
 20
27.400000000000006
 30
0.0
 11
-13.300000038146948
 21
4.9000000000000057
 31
0.0
  0
ARC
  5
52A
100
AcDbEntity
  8
0
  6
CONTINUOUS
 62
               4
100
AcDbCircle
 10
-3.7997031902827416
 20
5.3997031521357997
 30
0.0
 40
0.4997032403068001
100
AcDbArc
 50
269.96596353714654
 51
0.0340364628527164
  0
LINE
  5
52B
100
AcDbEntity
  8
0
  6
CONTINUOUS
 62
               4
100
AcDbLine
 10
-3.7380000381469358
 20
22.900000000000006
 30
0.0
 11
-3.7380000381469358
 21
6.477999995734109
 31
0.0
  0
ARC
  5
52C
100
AcDbEntity
  8
0
  6
CONTINUOUS
 62
               4
100
AcDbCircle
 10
-3.7997031902827416
 20
22.900296847864183
 30
0.0
 40
0.4997032403068001
100
AcDbArc
 50
359.96596353714654
 51
90.034036462852711
  0
ARC
  5
52D
100
AcDbEntity
  8
0
  6
CONTINUOUS
 62
               4
100
AcDbCircle
 10
-4.2374244421046683
 20
22.900575596042273
 30
0.0
 40
0.499424735650256
100
AcDbArc
 50
359.93396556302804
 51
90.066034436970796
  0
ARC
  5
52E
100
AcDbEntity
  8
0
  6
CONTINUOUS
 62
               4
100
AcDbCircle
 10
-4.2371926616132782
 20
6.4771926192003946
 30
0.0
 40
0.4991932763770037
100
AcDbArc
 50
269.90733190886618
 51
0.0926680911333844
  0
ARC
  5
52F
100
AcDbEntity
  8
0
  6
CONTINUOUS
 62
               4
100
AcDbCircle
 10
-4.0959048914888285
 20
26.80009514665818
 30
0.0
 40
0.5999048608870732
100
AcDbArc
 50
359.99091272245295
 51
90.009087277546172
  0
LINE
  5
530
100
AcDbEntity
  8
0
  6
CONTINUOUS
 62
               4
100
AcDbLine
 10
-3.3000000381469476
 20
27.400000000000006
 30
0.0
 11
-3.3000000381469476
 21
4.9000000000000057
 31
0.0
  0
ENDBLK
  5
531
100
AcDbEntity
  8
0
100
AcDbBlockEnd
  0
BLOCK
  5
54E
100
AcDbEntity
  8
0
  6
ByBlock
 62
               0
100
AcDbBlockBegin
  2
_OPEN30
 70
               2
 10
0.0
 20
0.0
 30
0.0
  3
_OPEN30
  1

  0
LINE
  5
54F
100
AcDbEntity
  8
0
  6
ByBlock
 62
               0
100
AcDbLine
 10
-1.0
 20
0.267949
 30
0.0
 11
0.0
 21
0.0
 31
0.0
  0
LINE
  5
550
100
AcDbEntity
  8
0
  6
ByBlock
 62
               0
100
AcDbLine
 10
0.0
 20
0.0
 30
0.0
 11
-1.0
 21
-0.267949
 31
0.0
  0
LINE
  5
551
100
AcDbEntity
  8
0
  6
ByBlock
 62
               0
100
AcDbLine
 10
0.0
 20
0.0
 30
0.0
 11
-1.0
 21
0.0
 31
0.0
  0
ENDBLK
  5
552
100
AcDbEntity
  8
0
  6
ByBlock
 62
               0
100
AcDbBlockEnd
  0
ENDSEC
  0
SECTION
  2
ENTITIES
  0
INSERT
  5
532
100
AcDbEntity
  8
0
  6
ByBlock
100
AcDbBlockReference
  2
EB10A1-8
 10
140.37017213771239
 20
13.09244774933105
 30
0.0
  0
INSERT
  5
533
100
AcDbEntity
  8
0
  6
ByBlock
100
AcDbBlockReference
  2
EB10A1-9
 10
28.111113771413699
 20
13.09244774933105
 30
0.0
  0
INSERT
  5
534
100
AcDbEntity
  8
0
  6
ByBlock
100
AcDbBlockReference
  2
EB10A1-10
 10
244.02923042771715
 20
13.09244774933105
 30
0.0
  0
INSERT
  5
535
100
AcDbEntity
  8
0
  6
ByBlock
100
AcDbBlockReference
  2
EB10A1-11
 10
140.37017213771239
 20
106.07421670420717
 30
0.0
  0
INSERT
  5
536
100
AcDbEntity
  8
0
  6
ByBlock
100
AcDbBlockReference
  2
EB10A1-12
 10
-18.122454690118559
 20
-154.12218926423282
 30
0.0
  0
INSERT
  5
537
100
AcDbEntity
  8
0
  6
ByBlock
100
AcDbBlockReference
  2
EB10A1-2
 10
-130.38151305641725
 20
-154.12218926423282
 30
0.0
  0
INSERT
  5
538
100
AcDbEntity
  8
0
  6
ByBlock
100
AcDbBlockReference
  2
EB10A1-3
 10
85.536603599886234
 20
-154.12218926423282
 30
0.0
  0
INSERT
  5
539
100
AcDbEntity
  8
0
  6
ByBlock
100
AcDbBlockReference
  2
EB10A1-4
 10
-18.122454690118559
 20
-61.140420309356699
 30
0.0
  0
INSERT
  5
53A
100
AcDbEntity
  8
0
  6
ByBlock
100
AcDbBlockReference
  2
EB10A1-1
 10
-141.30475462010011
 20
13.092447749331036
 30
0.0
  0
INSERT
  5
53B
100
AcDbEntity
  8
0
  6
ByBlock
100
AcDbBlockReference
  2
EB10A1-5
 10
-253.5638129863988
 20
13.092447749331036
 30
0.0
  0
INSERT
  5
53C
100
AcDbEntity
  8
0
  6
ByBlock
100
AcDbBlockReference
  2
EB10A1-6
 10
-37.645696330095348
 20
13.092447749331036
 30
0.0
  0
INSERT
  5
53D
100
AcDbEntity
  8
0
  6
ByBlock
100
AcDbBlockReference
  2
EB10A1-7
 10
-141.30475462010011
 20
106.07421670420717
 30
0.0
 50
0.0000005959091831
  0
MTEXT
  5
53E
100
AcDbEntity
  8
0
  6
CONTINUOUS
 62
               7
100
AcDbMText
 10
-268.22920359288071
 20
160.5
 30
0.0
 40
6.3000001907348633
 41
0.0
 71
               4
 72
               1
  1
\W1.115;\A1;MODEL:EB10(L)A1-25-PL
  0
LINE
  5
53F
100
AcDbEntity
  8
0
  6
CONTINUOUS
 62
               7
100
AcDbLine
 10
-281.25
 20
-195.0
 30
0.0
 11
282.099853515625
 21
-195.0
 31
0.0
  0
LINE
  5
540
100
AcDbEntity
  8
0
  6
CONTINUOUS
 62
               7
100
AcDbLine
 10
-281.25
 20
195.5
 30
0.0
 11
-281.25
 21
-195.0
 31
0.0
  0
LINE
  5
541
100
AcDbEntity
  8
0
  6
CONTINUOUS
 62
               7
100
AcDbLine
 10
-281.25
 20
195.5
 30
0.0
 11
282.099853515625
 21
195.5
 31
0.0
  0
LINE
  5
542
100
AcDbEntity
  8
0
  6
CONTINUOUS
 62
               7
100
AcDbLine
 10
282.099853515625
 20
195.5
 30
0.0
 11
282.099853515625
 21
-195.0
 31
0.0
  0
LINE
  5
543
100
AcDbEntity
  8
0
  6
CONTINUOUS
 62
               7
100
AcDbLine
 10
162.0999755859375
 20
195.5
 30
0.0
 11
162.0999755859375
 21
175.5
 31
0.0
  0
LINE
  5
544
100
AcDbEntity
  8
0
  6
CONTINUOUS
 62
               7
100
AcDbLine
 10
162.0999755859375
 20
175.5
 30
0.0
 11
282.099853515625
 21
175.5
 31
0.0
  0
MTEXT
  5
545
100
AcDbEntity
  8
0
  6
CONTINUOUS
 62
               7
100
AcDbMText
 10
198.27702406779611
 20
185.5
 30
0.0
 40
6.3000001907348633
 41
0.0
 71
               4
 72
               1
  1
\W1.311;\A1;Ver. 1.0
  0
MTEXT
  5
546
100
AcDbEntity
  8
0
  6
CONTINUOUS
 62
               7
100
AcDbMText
 10
170.28099805280428
 20
-185.0
 30
0.0
 40
9.0
 41
0.0
 71
               4
 72
               1
  1
\W1.121;\A1;KOGANEI CORP.
  0
LINE
  5
547
100
AcDbEntity
  8
0
  6
CONTINUOUS
 62
               7
100
AcDbLine
 10
162.0999755859375
 20
-175.0
 30
0.0
 11
282.099853515625
 21
-175.0
 31
0.0
  0
LINE
  5
548
100
AcDbEntity
  8
0
  6
CONTINUOUS
 62
               7
100
AcDbLine
 10
162.0999755859375
 20
-175.0
 30
0.0
 11
162.0999755859375
 21
-195.0
 31
0.0
  0
LINE
  5
549
100
AcDbEntity
  8
0
  6
CONTINUOUS
 62
               7
100
AcDbLine
 10
-161.25
 20
195.5
 30
0.0
 11
-161.25
 21
175.5
 31
0.0
  0
LINE
  5
54A
100
AcDbEntity
  8
0
  6
CONTINUOUS
 62
               7
100
AcDbLine
 10
-281.25
 20
175.5
 30
0.0
 11
-161.25
 21
175.5
 31
0.0
  0
MTEXT
  5
54B
100
AcDbEntity
  8
0
  6
CONTINUOUS
 62
               7
100
AcDbMText
 10
-257.88333446177035
 20
185.5
 30
0.0
 40
6.3000001907348633
 41
0.0
 71
               4
 72
               1
  1
\W1.111;\A1;EA･EB SERIES
  0
MTEXT
  5
54C
100
AcDbEntity
  8
0
  6
CONTINUOUS
 62
               2
100
AcDbMText
 10
13.878851100419894
 20
43.108951548756941
 30
0.0
 40
4.5
 41
0.0
 71
               4
 72
               1
  1
\A1;-75
  0
LEADER
  5
553
100
AcDbEntity
  8
0
  6
CONTINUOUS
 62
               2
100
AcDbLeader
  3
MXDIMSTYLE
 73
               3
 74
               0
 75
               0
 40
0.0
 76
               3
 10
33.11111377141367
 20
29.792447749331124
 30
0.0
 10
28.111113771413699
 20
38.452701787175521
 30
0.0
 10
13.878851100419894
 20
38.452701787175521
 30
0.0
 77
               2
1001
ACAD
1000
DSTYLE
1002
{
1070
               6
1000
_OPEN30
1070
               7
1000
_OPEN30
1070
              41
1040
2.77
1070
             173
1070
               1
1070
             341
1005
54D
1002
}
  0
MTEXT
  5
554
100
AcDbEntity
  8
0
  6
CONTINUOUS
 62
               2
100
AcDbMText
 10
162.38449712049794
 20
-2.4615565269318793
 30
0.0
 40
4.5
 41
0.0
 71
               4
 72
               1
  1
\A1;-75
  0
LEADER
  5
555
100
AcDbEntity
  8
0
  6
CONTINUOUS
 62
               2
100
AcDbLeader
  3
MXDIMSTYLE
 73
               3
 74
               0
 75
               0
 40
0.0
 76
               3
 10
157.0701721377124
 20
1.4264223455466762
 30
0.0
 10
162.00318483960461
 20
-7.1178062885133002
 30
0.0
 10
175.88449712049794
 20
-7.1178062885133002
 30
0.0
 77
               2
1001
ACAD
1000
DSTYLE
1002
{
1070
               6
1000
_OPEN30
1070
               7
1000
_OPEN30
1070
              41
1040
2.77
1070
             173
1070
               1
1070
             341
1005
54D
1002
}
  0
MTEXT
  5
556
100
AcDbEntity
  8
0
  6
CONTINUOUS
 62
               2
100
AcDbMText
 10
-144.61377572741105
 20
-124.10568546480692
 30
0.0
 40
4.5
 41
0.0
 71
               4
 72
               1
  1
\A1;-75
  0
LEADER
  5
557
100
AcDbEntity
  8
0
  6
CONTINUOUS
 62
               2
100
AcDbLeader
  3
MXDIMSTYLE
 73
               3
 74
               0
 75
               0
 40
0.0
 76
               3
 10
-125.38151305641725
 20
-137.42218926423274
 30
0.0
 10
-130.38151305641725
 20
-128.76193522638835
 30
0.0
 10
-144.61377572741105
 20
-128.76193522638835
 30
0.0
 77
               2
1001
ACAD
1000
DSTYLE
1002
{
1070
               6
1000
_OPEN30
1070
               7
1000
_OPEN30
1070
              41
1040
2.77
1070
             173
1070
               1
1070
             341
1005
54D
1002
}
  0
MTEXT
  5
558
100
AcDbEntity
  8
0
  6
CONTINUOUS
 62
               2
100
AcDbMText
 10
3.8918702926670221
 20
-169.67619354049575
 30
0.0
 40
4.5
 41
0.0
 71
               4
 72
               1
  1
\A1;-75
  0
LEADER
  5
559
100
AcDbEntity
  8
0
  6
CONTINUOUS
 62
               2
100
AcDbLeader
  3
MXDIMSTYLE
 73
               3
 74
               0
 75
               0
 40
0.0
 76
               3
 10
-1.4224546901185704
 20
-165.78821466801719
 30
0.0
 10
3.5105580117736963
 20
-174.33244330207717
 30
0.0
 10
17.391870292667022
 20
-174.33244330207717
 30
0.0
 77
               2
1001
ACAD
1000
DSTYLE
1002
{
1070
               6
1000
_OPEN30
1070
               7
1000
_OPEN30
1070
              41
1040
2.77
1070
             173
1070
               1
1070
             341
1005
54D
1002
}
  0
MTEXT
  5
55A
100
AcDbEntity
  8
0
  6
CONTINUOUS
 62
               2
100
AcDbMText
 10
-119.29042963731456
 20
-2.4615565269318651
 30
0.0
 40
4.5
 41
0.0
 71
               4
 72
               1
  1
\A1;-75
  0
LEADER
  5
55B
100
AcDbEntity
  8
0
  6
CONTINUOUS
 62
               2
100
AcDbLeader
  3
MXDIMSTYLE
 73
               3
 74
               0
 75
               0
 40
0.0
 76
               3
 10
-124.6047546201001
 20
1.426422345546662
 30
0.0
 10
-119.67174191820789
 20
-7.117806288513286
 30
0.0
 10
-105.79042963731456
 20
-7.117806288513286
 30
0.0
 77
               2
1001
ACAD
1000
DSTYLE
1002
{
1070
               6
1000
_OPEN30
1070
               7
1000
_OPEN30
1070
              41
1040
2.77
1070
             173
1070
               1
1070
             341
1005
54D
1002
}
  0
MTEXT
  5
55C
100
AcDbEntity
  8
0
  6
CONTINUOUS
 62
               2
100
AcDbMText
 10
-267.79607565739263
 20
43.108951548756927
 30
0.0
 40
4.5
 41
0.0
 71
               4
 72
               1
  1
\A1;-75
  0
LEADER
  5
55D
100
AcDbEntity
  8
0
  6
CONTINUOUS
 62
               2
100
AcDbLeader
  3
MXDIMSTYLE
 73
               3
 74
               0
 75
               0
 40
0.0
 76
               3
 10
-248.56381298639883
 20
29.79244774933111
 30
0.0
 10
-253.5638129863988
 20
38.452701787175506
 30
0.0
 10
-267.79607565739263
 20
38.452701787175506
 30
0.0
 77
               2
1001
ACAD
1000
DSTYLE
1002
{
1070
               6
1000
_OPEN30
1070
               7
1000
_OPEN30
1070
              41
1040
2.77
1070
             173
1070
               1
1070
             341
1005
54D
1002
}
  0
MTEXT
  5
55E
100
AcDbEntity
  8
0
  6
CONTINUOUS
 62
               7
100
AcDbMText
 10
-230.46144474729866
 20
150.5
 30
0.0
 40
6.3000001907348633
 41
0.0
 71
               4
 72
               1
  1
\W1.084;\A1;EB10(L)A2-25-PL
  0
MTEXT
  5
55F
100
AcDbEntity
  8
0
  6
CONTINUOUS
 62
               7
100
AcDbMText
 10
-230.46144474729866
 20
140.5
 30
0.0
 40
6.3000001907348633
 41
0.0
 71
               4
 72
               1
  1
\W1.084;\A1;EB10(L)A3-25-PL
  0
MTEXT
  5
560
100
AcDbEntity
  8
0
  6
CONTINUOUS
 62
               7
100
AcDbMText
 10
-230.46144474729866
 20
130.5
 30
0.0
 40
6.3000001907348633
 41
0.0
 71
               4
 72
               1
  1
\W1.084;\A1;EB10(L)A4-25-PL
  0
MTEXT
  5
561
100
AcDbEntity
  8
0
  6
CONTINUOUS
 62
               7
100
AcDbMText
 10
13.445723164931779
 20
160.5
 30
0.0
 40
6.3000001907348633
 41
0.0
 71
               4
 72
               1
  1
\W1.115;\A1;MODEL:EB10(L)A1-25-PS
  0
MTEXT
  5
562
100
AcDbEntity
  8
0
  6
CONTINUOUS
 62
               7
100
AcDbMText
 10
51.213482010513843
 20
150.5
 30
0.0
 40
6.3000001907348633
 41
0.0
 71
               4
 72
               1
  1
\W1.084;\A1;EB10(L)A2-25-PS
  0
MTEXT
  5
563
100
AcDbEntity
  8
0
  6
CONTINUOUS
 62
               7
100
AcDbMText
 10
51.213482010513843
 20
140.5
 30
0.0
 40
6.3000001907348633
 41
0.0
 71
               4
 72
               1
  1
\W1.084;\A1;EB10(L)A3-25-PS
  0
MTEXT
  5
564
100
AcDbEntity
  8
0
  6
CONTINUOUS
 62
               7
100
AcDbMText
 10
51.213482010513843
 20
130.5
 30
0.0
 40
6.3000001907348633
 41
0.0
 71
               4
 72
               1
  1
\W1.084;\A1;EB10(L)A4-25-PS
  0
LINE
  5
565
100
AcDbEntity
  8
0
  6
CONTINUOUS
 62
               7
100
AcDbLine
 10
0.4249267578125
 20
195.5
 30
0.0
 11
0.4249267578125
 21
-38.799999999999983
 31
0.0
  0
MTEXT
  5
566
100
AcDbEntity
  8
0
  6
CONTINUOUS
 62
               7
100
AcDbMText
 10
-268.25454547873522
 20
-53.799999999999983
 30
0.0
 40
6.3000001907348633
 41
0.0
 71
               4
 72
               1
  1
\W1.091;\A1;MODEL:EB10A1-25-GL
  0
MTEXT
  5
567
100
AcDbEntity
  8
0
  6
CONTINUOUS
 62
               7
100
AcDbMText
 10
-230.50434676510906
 20
-63.799999999999983
 30
0.0
 40
6.3000001907348633
 41
0.0
 71
               4
 72
               1
  1
\W1.043;\A1;EB10A2-25-GL
  0
MTEXT
  5
568
100
AcDbEntity
  8
0
  6
CONTINUOUS
 62
               7
100
AcDbMText
 10
-230.50434676510906
 20
-73.799999999999983
 30
0.0
 40
6.3000001907348633
 41
0.0
 71
               4
 72
               1
  1
\W1.043;\A1;EB10A3-25-GL
  0
MTEXT
  5
569
100
AcDbEntity
  8
0
  6
CONTINUOUS
 62
               7
100
AcDbMText
 10
-230.50434676510906
 20
-83.799999999999983
 30
0.0
 40
6.3000001907348633
 41
0.0
 71
               4
 72
               1
  1
\W1.043;\A1;EB10A4-25-GL
  0
LINE
  5
56A
100
AcDbEntity
  8
0
  6
CONTINUOUS
 62
               7
100
AcDbLine
 10
-281.25
 20
-38.799999999999983
 30
0.0
 11
282.099853515625
 21
-38.799999999999983
 31
0.0
  0
ENDSEC
  0
SECTION
  2
OBJECTS
  0
DICTIONARY
  5
19
100
AcDbDictionary
  3
ACAD_GROUP
350
1A
  3
ACAD_MLINESTYLE
350
1B
  0
DICTIONARY
  5
1A
102
{ACAD_REACTORS
330
19
102
}
100
AcDbDictionary
  0
DICTIONARY
  5
1B
102
{ACAD_REACTORS
330
19
102
}
100
AcDbDictionary
  3
STANDARD
350
1C
  0
MLINESTYLE
  5
1C
102
{ACAD_REACTORS
330
1B
102
}
100
AcDbMlineStyle
  2
Standard
 70
               0
  3

 62
               0
 51
90.0
 52
90.0
 71
               2
 49
0.5
 62
             256
  6
ByLayer
 49
-0.5
 62
             256
  6
ByLayer
  0
ENDSEC
  0
EOF
