  0
SECTION
  2
HEADER
  9
$ACADVER
  1
AC1012
  9
$DWGCODEPAGE
  3
dos932
  9
$INSBASE
 10
0.0
 20
0.0
 30
0.0
  9
$EXTMIN
 10
-194.25
 20
-133.5
 30
0.0
  9
$EXTMAX
 10
196.2723600854633
 20
132.60000610351562
 30
0.0
  9
$LIMMIN
 10
-194.25
 20
-133.5
  9
$LIMMAX
 10
196.2723600854633
 20
132.60000610351562
  9
$ORTHOMODE
 70
               0
  9
$REGENMODE
 70
               1
  9
$FILLMODE
 70
               1
  9
$QTEXTMODE
 70
               0
  9
$MIRRTEXT
 70
               1
  9
$DRAGMODE
 70
               2
  9
$LTSCALE
 40
1.0
  9
$OSMODE
 70
               0
  9
$ATTMODE
 70
               1
  9
$TEXTSIZE
 40
3.2000000476837158
  9
$TRACEWID
 40
0.05
  9
$TEXTSTYLE
  7
MX_NOTE_STANDARD
  9
$CLAYER
  8
0
  9
$CELTYPE
  6
CONTINUOUS
  9
$CECOLOR
 62
             256
  9
$CELTSCALE
 40
1.0
  9
$DELOBJ
 70
               1
  9
$DISPSILH
 70
               0
  9
$DIMSCALE
 40
1.0
  9
$DIMASZ
 40
2.5
  9
$DIMEXO
 40
1.5
  9
$DIMDLI
 40
3.75
  9
$DIMRND
 40
0.0
  9
$DIMDLE
 40
0.0
  9
$DIMEXE
 40
1.5
  9
$DIMTP
 40
0.0
  9
$DIMTM
 40
0.0
  9
$DIMTXT
 40
3.2000000476837158
  9
$DIMCEN
 40
2.5
  9
$DIMTSZ
 40
0.0
  9
$DIMTOL
 70
               0
  9
$DIMLIM
 70
               0
  9
$DIMTIH
 70
               0
  9
$DIMTOH
 70
               0
  9
$DIMSE1
 70
               0
  9
$DIMSE2
 70
               0
  9
$DIMTAD
 70
               1
  9
$DIMZIN
 70
               8
  9
$DIMBLK
  1

  9
$DIMASO
 70
               1
  9
$DIMSHO
 70
               1
  9
$DIMPOST
  1

  9
$DIMAPOST
  1

  9
$DIMALT
 70
               0
  9
$DIMALTD
 70
               4
  9
$DIMALTF
 40
0.03937007874016
  9
$DIMLFAC
 40
1.0
  9
$DIMTOFL
 70
               1
  9
$DIMTVP
 40
0.0
  9
$DIMTIX
 70
               0
  9
$DIMSOXD
 70
               0
  9
$DIMSAH
 70
               0
  9
$DIMBLK1
  1

  9
$DIMBLK2
  1

  9
$DIMSTYLE
  2
MXDIMSTYLE
  9
$DIMCLRD
 70
               0
  9
$DIMCLRE
 70
               0
  9
$DIMCLRT
 70
               0
  9
$DIMTFAC
 40
1.0
  9
$DIMGAP
 40
1.0
  9
$DIMJUST
 70
               0
  9
$DIMSD1
 70
               0
  9
$DIMSD2
 70
               0
  9
$DIMTOLJ
 70
               1
  9
$DIMTZIN
 70
               0
  9
$DIMALTZ
 70
               0
  9
$DIMALTTZ
 70
               0
  9
$DIMFIT
 70
               3
  9
$DIMUPT
 70
               1
  9
$DIMUNIT
 70
               2
  9
$DIMDEC
 70
               4
  9
$DIMTDEC
 70
               4
  9
$DIMALTU
 70
               2
  9
$DIMALTTD
 70
               4
  9
$DIMTXSTY
  7
MX_NOTE_STANDARD
  9
$DIMAUNIT
 70
               0
  9
$LUNITS
 70
               2
  9
$LUPREC
 70
               4
  9
$SKETCHINC
 40
0.1
  9
$FILLETRAD
 40
0.0
  9
$AUNITS
 70
               0
  9
$AUPREC
 70
               0
  9
$MENU
  1
acad
  9
$ELEVATION
 40
0.0
  9
$PELEVATION
 40
0.0
  9
$THICKNESS
 40
0.0
  9
$LIMCHECK
 70
               0
  9
$BLIPMODE
 70
               1
  9
$CHAMFERA
 40
0.0
  9
$CHAMFERB
 40
0.0
  9
$CHAMFERC
 40
0.0
  9
$CHAMFERD
 40
0.0
  9
$SKPOLY
 70
               0
  9
$TDCREATE
 40
2453378.356342593
  9
$TDUPDATE
 40
2453378.356342593
  9
$TDINDWG
 40
0.0000000000
  9
$TDUSRTIMER
 40
0.0000000000
  9
$USRTIMER
 70
               1
  9
$ANGBASE
 50
0.0
  9
$ANGDIR
 70
               0
  9
$PDMODE
 70
               0
  9
$PDSIZE
 40
0.0
  9
$PLINEWID
 40
0.0
  9
$COORDS
 70
               1
  9
$SPLFRAME
 70
               0
  9
$SPLINETYPE
 70
               6
  9
$SPLINESEGS
 70
               8
  9
$ATTDIA
 70
               0
  9
$ATTREQ
 70
               1
  9
$HANDLING
 70
               1
  9
$HANDSEED
  5
3E6
  9
$SURFTAB1
 70
               6
  9
$SURFTAB2
 70
               6
  9
$SURFTYPE
 70
               6
  9
$SURFU
 70
               6
  9
$SURFV
 70
               6
  9
$UCSNAME
  2

  9
$UCSORG
 10
0.0
 20
0.0
 30
0.0
  9
$UCSXDIR
 10
1.0
 20
0.0
 30
0.0
  9
$UCSYDIR
 10
0.0
 20
1.0
 30
0.0
  9
$PUCSNAME
  2

  9
$PUCSORG
 10
0.0
 20
0.0
 30
0.0
  9
$PUCSXDIR
 10
1.0
 20
0.0
 30
0.0
  9
$PUCSYDIR
 10
0.0
 20
1.0
 30
0.0
  9
$USERI1
 70
               0
  9
$USERI2
 70
               0
  9
$USERI3
 70
               0
  9
$USERI4
 70
               0
  9
$USERI5
 70
               0
  9
$USERR1
 40
0.0
  9
$USERR2
 40
0.0
  9
$USERR3
 40
0.0
  9
$USERR4
 40
0.0
  9
$USERR5
 40
0.0
  9
$WORLDVIEW
 70
               1
  9
$SHADEDGE
 70
               3
  9
$SHADEDIF
 70
              70
  9
$TILEMODE
 70
               1
  9
$MAXACTVP
 70
              16
  9
$PINSBASE
 10
0.0
 20
0.0
 30
0.0
  9
$PLIMCHECK
 70
               0
  9
$PEXTMIN
 10
1.0000000000000000E+20
 20
1.0000000000000000E+20
 30
1.0000000000000000E+20
  9
$PEXTMAX
 10
-1.0000000000000000E+20
 20
-1.0000000000000000E+20
 30
-1.0000000000000000E+20
  9
$PLIMMIN
 10
0.0
 20
0.0
  9
$PLIMMAX
 10
12.0
 20
9.0
  9
$UNITMODE
 70
               0
  9
$VISRETAIN
 70
               0
  9
$PLINEGEN
 70
               1
  9
$PSLTSCALE
 70
               0
  9
$TREEDEPTH
 70
            3020
  9
$PICKSTYLE
 70
               1
  9
$CMLSTYLE
  2
Standard
  9
$CMLJUST
 70
               0
  9
$CMLSCALE
 40
1.0
  9
$SAVEIMAGES
 70
               0
  0
ENDSEC
  0
SECTION
  2
CLASSES
  0
CLASS
  1
LWPOLYLINE
  2
AcDbPolyline
  3
"AutoCAD"
 90
        0
280
               0
281
               1
  0
CLASS
  1
IMAGE
  2
AcDbRasterImage
  3
ISM
 90
      127
280
               0
281
               1
  0
CLASS
  1
OLE2FRAME
  2
AcDbOle2Frame
  3
""
 90
        0
280
               0
281
               1
  0
CLASS
  1
HATCH
  2
AcDbHatch
  3
"ACAD_SEDONA"
 90
        0
280
               0
281
               1
  0
CLASS
  1
DICTIONARYVAR
  2
AcDbDictionaryVar
  3
"AutoCAD"
 90
        0
280
               0
281
               0
  0
CLASS
  1
RASTERVARIABLES
  2
AcDbRasterVariables
  3
ISM
 90
        0
280
               0
281
               0
  0
CLASS
  1
IMAGEDEF
  2
AcDbRasterImageDef
  3
ISM
 90
        0
280
               0
281
               0
  0
CLASS
  1
IMAGEDEF_REACTOR
  2
AcDbRasterImageDefReactor
  3
ISM
 90
        1
280
               0
281
               0
  0
CLASS
  1
IDBUFFER
  2
AcDbIdBuffer
  3
"Acad"
 90
        0
280
               0
281
               0
  0
CLASS
  1
SPATIAL_FILTER
  2
AcDbSpatialFilter
  3
"Acad"
 90
        0
280
               0
281
               0
  0
CLASS
  1
XRECORD
  2
AcDbXrecord
  3
"<Built In>"
 90
        0
280
               0
281
               0
  0
CLASS
  1
SORTENTSTABLE
  2
AcDbSortentsTable
  3
"AutoCAD"
 90
        0
280
               0
281
               0
  0
CLASS
  1
LAYER_INDEX
  2
AcDbLayerIndex
  3
"Acad"
 90
        0
280
               0
281
               0
  0
CLASS
  1
SPATIAL_INDEX
  2
AcDbSpatialIndex
  3
"Acad"
 90
        0
280
               0
281
               0
  0
CLASS
  1
OBJECT_PTR
  2
CAseDLPNTableRecord
  3
"ASE-LPNTableRecord"
 90
        1
280
               0
281
               0
  0
CLASS
  1
LAYOUT
  2
AcDbLayout
  3
"AutoCAD 2000"
 90
        1
280
               0
281
               0
  0
CLASS
  1
PLOTSETTINGS
  2
AcDbPlotSettings
  3
"AutoCAD 2000"
 90
        1
280
               0
281
               0
  0
CLASS
  1
ACDBDICTIONARYWDFLT
  2
AcDbDictionaryWithDefault
  3
"AutoCAD 2000"
 90
        1
280
               0
281
               0
  0
CLASS
  1
ACDBPLACEHOLDER
  2
AcDbPlaceHolder
  3
"AutoCAD 2000"
 90
        1
280
               0
281
               0
  0
ENDSEC
  0
SECTION
  2
TABLES
  0
TABLE
  2
VPORT
  5
7
100
AcDbSymbolTable
 70
               1
  0
VPORT
  5
15
100
AcDbSymbolTableRecord
100
AcDbViewportTableRecord
  2
*ACTIVE
 70
               0
 10
0.0
 20
0.0
 11
1.0
 21
1.0
 12
1.0111800427316666
 22
-0.4499969482421875
 13
0.0
 23
0.0
 14
1.0
 24
1.0
 15
0.0
 25
0.0
 16
0.0
 26
0.0
 36
1.0
 17
0.0
 27
0.0
 37
0.0
 40
268.76100616455079
 41
1.7320508075688772
 42
50.0
 43
0.0
 44
0.0
 50
0.0
 51
0.0
 71
               0
 72
             100
 73
               1
 74
               1
 75
               0
 76
               0
 77
               0
 78
               0
  0
ENDTAB
  0
TABLE
  2
LTYPE
  5
4
100
AcDbSymbolTable
 70
               5
  0
LTYPE
  5
11
100
AcDbSymbolTableRecord
100
AcDbLinetypeTableRecord
  2
BYBLOCK
 70
              64
  3

 72
              65
 73
               0
 40
0.0
  0
LTYPE
  5
12
100
AcDbSymbolTableRecord
100
AcDbLinetypeTableRecord
  2
BYLAYER
 70
              64
  3

 72
              65
 73
               0
 40
0.0
  0
LTYPE
  5
13
100
AcDbSymbolTableRecord
100
AcDbLinetypeTableRecord
  2
CONTINUOUS
 70
              64
  3
Solid line
 72
              65
 73
               0
 40
0.0
  0
LTYPE
  5
27
100
AcDbSymbolTableRecord
100
AcDbLinetypeTableRecord
  2
CENTER
 70
              64
  3
Center ____ _ ____ _ ____ _ ____ _ ____ _ ____
 72
              65
 73
               4
 40
26.0
 49
20.0
 74
               0
 49
-2.0
 74
               0
 49
2.0
 74
               0
 49
-2.0
 74
               0
  0
LTYPE
  5
29
100
AcDbSymbolTableRecord
100
AcDbLinetypeTableRecord
  2
PHANTOM
 70
              64
  3
Phantom ______  __  __  ______  __  __  ______
 72
              65
 73
               6
 40
30.0
 49
20.0
 74
               0
 49
-2.0
 74
               0
 49
2.0
 74
               0
 49
-2.0
 74
               0
 49
2.0
 74
               0
 49
-2.0
 74
               0
  0
ENDTAB
  0
TABLE
  2
LAYER
  5
2
100
AcDbSymbolTable
 70
               2
  0
LAYER
  5
14
100
AcDbSymbolTableRecord
100
AcDbLayerTableRecord
  2
0
 70
               0
 62
               7
  6
CONTINUOUS
  0
LAYER
  5
1D
100
AcDbSymbolTableRecord
100
AcDbLayerTableRecord
  2
DEFPOINTS
 70
               0
 62
               7
  6
CONTINUOUS
  0
ENDTAB
  0
TABLE
  2
STYLE
  5
3
100
AcDbSymbolTable
 70
               1
  0
STYLE
  5
17
100
AcDbSymbolTableRecord
100
AcDbTextStyleTableRecord
  2
MX_NOTE_STANDARD
 70
               0
 40
0.0
 41
1.0
 50
0.0
 71
               0
 42
3.2000000476837158
  3
txt.shx
  4
extfont.shx
  0
ENDTAB
  0
TABLE
  2
VIEW
  5
5
100
AcDbSymbolTable
 70
               0
  0
ENDTAB
  0
TABLE
  2
UCS
  5
6
100
AcDbSymbolTable
 70
               0
  0
ENDTAB
  0
TABLE
  2
APPID
  5
8
100
AcDbSymbolTable
 70
               1
  0
APPID
  5
16
100
AcDbSymbolTableRecord
100
AcDbRegAppTableRecord
  2
ACAD
 70
               0
  0
ENDTAB
  0
TABLE
  2
DIMSTYLE
  5
9
100
AcDbSymbolTable
 70
               1
  0
DIMSTYLE
105
18
100
AcDbSymbolTableRecord
100
AcDbDimStyleTableRecord
  2
MXDIMSTYLE
 70
               0
  3

  4

  5

  6

  7

 40
1.0
 41
2.5
 42
1.5
 43
3.75
 44
1.5
 45
0.0
 46
0.0
 47
0.0
 48
0.0
 71
               0
 72
               0
 73
               0
 74
               0
 75
               0
 76
               0
 77
               1
 78
               8
140
3.2000000476837158
141
2.5
142
0.0
143
0.03937007874016
144
1.0
145
0.0
146
1.0
147
1.0
170
               0
171
               4
172
               1
173
               0
174
               0
175
               0
176
               0
177
               0
178
               0
270
               2
271
               4
272
               4
273
               2
274
               4
275
               0
280
               0
281
               0
282
               0
283
               1
284
               0
285
               0
286
               0
287
               3
288
               1
340
17
  0
ENDTAB
  0
TABLE
  2
BLOCK_RECORD
  5
1
100
AcDbSymbolTable
 70
               9
  0
BLOCK_RECORD
  5
A
100
AcDbSymbolTableRecord
100
AcDbBlockTableRecord
  2
*MODEL_SPACE
  0
BLOCK_RECORD
  5
B
100
AcDbSymbolTableRecord
100
AcDbBlockTableRecord
  2
*PAPER_SPACE
  0
BLOCK_RECORD
  5
1E
100
AcDbSymbolTableRecord
100
AcDbBlockTableRecord
  2
EB10SA1-1
  0
BLOCK_RECORD
  5
1F
100
AcDbSymbolTableRecord
100
AcDbBlockTableRecord
  2
EB10SA1-2
  0
BLOCK_RECORD
  5
20
100
AcDbSymbolTableRecord
100
AcDbBlockTableRecord
  2
EB10SA1-3
  0
BLOCK_RECORD
  5
21
100
AcDbSymbolTableRecord
100
AcDbBlockTableRecord
  2
EB10SA1-4
  0
BLOCK_RECORD
  5
22
100
AcDbSymbolTableRecord
100
AcDbBlockTableRecord
  2
EB10SA1-5
  0
BLOCK_RECORD
  5
23
100
AcDbSymbolTableRecord
100
AcDbBlockTableRecord
  2
EB10SA1-6
  0
BLOCK_RECORD
  5
24
100
AcDbSymbolTableRecord
100
AcDbBlockTableRecord
  2
EB10SA1-7
  0
BLOCK_RECORD
  5
25
100
AcDbSymbolTableRecord
100
AcDbBlockTableRecord
  2
EB10SA1-8
  0
BLOCK_RECORD
  5
3D1
100
AcDbSymbolTableRecord
100
AcDbBlockTableRecord
  2
_OPEN30
  0
ENDTAB
  0
ENDSEC
  0
SECTION
  2
BLOCKS
  0
BLOCK
  5
D
100
AcDbEntity
  8
0
100
AcDbBlockBegin
  2
*MODEL_SPACE
 70
               0
 10
0.0
 20
0.0
 30
0.0
  3
*MODEL_SPACE
  1

  0
ENDBLK
  5
E
100
AcDbEntity
  8
0
100
AcDbBlockEnd
  0
BLOCK
  5
F
100
AcDbEntity
 67
               1
  8
0
100
AcDbBlockBegin
  2
*PAPER_SPACE
 70
               0
 10
0.0
 20
0.0
 30
0.0
  3
*PAPER_SPACE
  1

  0
ENDBLK
  5
10
100
AcDbEntity
 67
               1
  8
0
100
AcDbBlockEnd
  0
BLOCK
  5
26
100
AcDbEntity
  8
0
100
AcDbBlockBegin
  2
EB10SA1-1
 70
               0
 10
0.0
 20
0.0
 30
0.0
  3
EB10SA1-1
  1

  0
LINE
  5
28
100
AcDbEntity
  8
0
  6
CENTER
 62
               2
100
AcDbLine
 10
-8.3000000381469761
 20
33.969683056948369
 30
0.0
 11
-8.3000000381469761
 21
-27.594831691049194
 31
0.0
  0
LINE
  5
2A
100
AcDbEntity
  8
0
  6
PHANTOM
 62
             200
100
AcDbLine
 10
-9.8000183486938397
 20
13.099999999999895
 30
0.0
 11
-6.8000183486938397
 21
13.099999999999895
 31
0.0
  0
LINE
  5
2B
100
AcDbEntity
  8
0
  6
PHANTOM
 62
             200
100
AcDbLine
 10
-9.8000183486938397
 20
11.099999999999895
 30
0.0
 11
-6.8000183486938397
 21
11.099999999999895
 31
0.0
  0
LINE
  5
2C
100
AcDbEntity
  8
0
  6
PHANTOM
 62
             200
100
AcDbLine
 10
-9.8000183486938397
 20
13.099999999999895
 30
0.0
 11
-9.8000183486938397
 21
11.099999999999895
 31
0.0
  0
LINE
  5
2D
100
AcDbEntity
  8
0
  6
PHANTOM
 62
             200
100
AcDbLine
 10
-6.8000183486938397
 20
13.099999999999895
 30
0.0
 11
-6.8000183486938397
 21
11.099999999999895
 31
0.0
  0
LINE
  5
2E
100
AcDbEntity
  8
0
  6
CONTINUOUS
 62
               4
100
AcDbLine
 10
-7.7000183486938738
 20
40.592929272933347
 30
0.0
 11
-6.4000183486938624
 21
40.592929272933347
 31
0.0
  0
LINE
  5
2F
100
AcDbEntity
  8
0
  6
CONTINUOUS
 62
             200
100
AcDbLine
 10
-12.05001834869384
 20
38.619999999999877
 30
0.0
 11
-4.5500183486938397
 21
36.609999999999886
 31
0.0
  0
LINE
  5
30
100
AcDbEntity
  8
0
  6
CONTINUOUS
 62
             200
100
AcDbLine
 10
-12.05001834869384
 20
37.579999999999913
 30
0.0
 11
-4.5500183486938397
 21
35.569999999999865
 31
0.0
  0
LINE
  5
31
100
AcDbEntity
  8
0
  6
CONTINUOUS
 62
               4
100
AcDbLine
 10
-10.200018348693874
 20
40.592929272933347
 30
0.0
 11
-8.9000183486938624
 21
40.592929272933347
 31
0.0
  0
LINE
  5
32
100
AcDbEntity
  8
0
  6
CONTINUOUS
 62
               4
100
AcDbLine
 10
-8.9000183486938624
 20
36.739999999999881
 30
0.0
 11
-8.9000183486938624
 21
33.099999999999895
 31
0.0
  0
LINE
  5
33
100
AcDbEntity
  8
0
  6
CONTINUOUS
 62
               4
100
AcDbLine
 10
-7.3000183486938397
 20
44.092929270933368
 30
0.0
 11
-7.3000183486938397
 21
40.592929272933347
 31
0.0
  0
LINE
  5
34
100
AcDbEntity
  8
0
  6
CONTINUOUS
 62
               4
100
AcDbLine
 10
-6.8000183486938397
 20
44.092929270933368
 30
0.0
 11
-6.8000183486938397
 21
40.592929272933347
 31
0.0
  0
LINE
  5
35
100
AcDbEntity
  8
0
  6
CONTINUOUS
 62
               4
100
AcDbLine
 10
-10.200018348693874
 20
40.592929272933347
 30
0.0
 11
-10.200018348693874
 21
38.119999999999877
 31
0.0
  0
LINE
  5
36
100
AcDbEntity
  8
0
  6
CONTINUOUS
 62
               4
100
AcDbLine
 10
-8.9000183486938624
 20
40.592929272933347
 30
0.0
 11
-8.9000183486938624
 21
37.769999999999911
 31
0.0
  0
LINE
  5
37
100
AcDbEntity
  8
0
  6
CONTINUOUS
 62
               4
100
AcDbLine
 10
-10.200018348693874
 20
37.089999999999904
 30
0.0
 11
-10.200018348693874
 21
33.099999999999895
 31
0.0
  0
LINE
  5
38
100
AcDbEntity
  8
0
  6
CONTINUOUS
 62
               4
100
AcDbLine
 10
-7.7000183486938738
 20
36.419999999999888
 30
0.0
 11
-7.7000183486938738
 21
33.099999999999895
 31
0.0
  0
LINE
  5
39
100
AcDbEntity
  8
0
  6
CONTINUOUS
 62
               4
100
AcDbLine
 10
-6.4000183486938624
 20
36.069999999999865
 30
0.0
 11
-6.4000183486938624
 21
33.099999999999895
 31
0.0
  0
LINE
  5
3A
100
AcDbEntity
  8
0
  6
CONTINUOUS
 62
               4
100
AcDbLine
 10
-9.8000183486938397
 20
44.092929270933368
 30
0.0
 11
-9.8000183486938397
 21
40.592929272933347
 31
0.0
  0
LINE
  5
3B
100
AcDbEntity
  8
0
  6
CONTINUOUS
 62
               4
100
AcDbLine
 10
-9.3000183486938397
 20
44.092929270933368
 30
0.0
 11
-9.3000183486938397
 21
40.592929272933347
 31
0.0
  0
LINE
  5
3C
100
AcDbEntity
  8
0
  6
CONTINUOUS
 62
               4
100
AcDbLine
 10
-7.7000183486938738
 20
40.592929272933347
 30
0.0
 11
-7.7000183486938738
 21
37.449999999999918
 31
0.0
  0
LINE
  5
3D
100
AcDbEntity
  8
0
  6
CONTINUOUS
 62
               4
100
AcDbLine
 10
-6.4000183486938624
 20
40.592929272933347
 30
0.0
 11
-6.4000183486938624
 21
37.099999999999895
 31
0.0
  0
ARC
  5
3E
100
AcDbEntity
  8
0
  6
CONTINUOUS
 62
               4
100
AcDbCircle
 10
-3.8000290298671473
 20
6.1000106811732024
 30
0.0
 40
0.5000106812873828
100
AcDbArc
 50
270.00122394615329
 51
359.9987760538454
  0
ARC
  5
3F
100
AcDbEntity
  8
0
  6
CONTINUOUS
 62
               4
100
AcDbCircle
 10
-12.800022926216485
 20
6.0999954224772495
 30
0.0
 40
0.4999954224983215
100
AcDbArc
 50
179.99947544974256
 51
270.00052455025656
  0
ARC
  5
40
100
AcDbEntity
  8
0
  6
CONTINUOUS
 62
               4
100
AcDbCircle
 10
-3.8000229264446546
 20
24.59999542224908
 30
0.0
 40
0.5000045777717621
100
AcDbArc
 50
0.0005245667992071
 51
89.9994754332008
  0
ARC
  5
41
100
AcDbEntity
  8
0
  6
CONTINUOUS
 62
               4
100
AcDbCircle
 10
-12.800029029825254
 20
24.600010681131252
 30
0.0
 40
0.4999893189827007
100
AcDbArc
 50
89.998776006354774
 51
180.00122399364432
  0
ARC
  5
42
100
AcDbEntity
  8
0
  6
CONTINUOUS
 62
               4
100
AcDbCircle
 10
-12.570031166031612
 20
24.600012817337628
 30
0.0
 40
0.4999871828265524
100
AcDbArc
 50
89.998531203634272
 51
180.00146879636483
  0
ARC
  5
43
100
AcDbEntity
  8
0
  6
CONTINUOUS
 62
               4
100
AcDbCircle
 10
-4.0300207901730971
 20
24.599997558520599
 30
0.0
 40
0.500002441485227
100
AcDbArc
 50
0.0002797715494944
 51
89.999720228450514
  0
ARC
  5
44
100
AcDbEntity
  8
0
  6
CONTINUOUS
 62
               4
100
AcDbCircle
 10
-4.0312218548055796
 20
8.2931226967811682
 30
0.0
 40
0.5012049510586274
100
AcDbArc
 50
270.13758021931233
 51
359.86241978068648
  0
ARC
  5
45
100
AcDbEntity
  8
0
  6
CONTINUOUS
 62
               4
100
AcDbCircle
 10
-12.568830064788614
 20
8.2931074745746827
 30
0.0
 40
0.5011896925741138
100
AcDbArc
 50
180.13584420715239
 51
269.86415579284636
  0
LINE
  5
46
100
AcDbEntity
  8
0
  6
CONTINUOUS
 62
               4
100
AcDbLine
 10
-12.05001834869384
 20
33.099999999999895
 30
0.0
 11
-4.5500183486938397
 21
33.099999999999895
 31
0.0
  0
LINE
  5
47
100
AcDbEntity
  8
0
  6
CONTINUOUS
 62
               4
100
AcDbLine
 10
-4.5500183486938397
 20
33.099999999999895
 30
0.0
 11
-4.5500183486938397
 21
25.099999999999895
 31
0.0
  0
LINE
  5
48
100
AcDbEntity
  8
0
  6
CONTINUOUS
 62
               4
100
AcDbLine
 10
-5.5500183486938397
 20
33.099999999999895
 30
0.0
 11
-5.5500183486938397
 21
17.099999999999895
 31
0.0
  0
LINE
  5
49
100
AcDbEntity
  8
0
  6
CONTINUOUS
 62
               4
100
AcDbLine
 10
-11.05001834869384
 20
31.599999999999895
 30
0.0
 11
-5.5500183486938397
 21
31.599999999999895
 31
0.0
  0
LINE
  5
4A
100
AcDbEntity
  8
0
  6
CONTINUOUS
 62
               4
100
AcDbLine
 10
-12.05001834869384
 20
33.099999999999895
 30
0.0
 11
-12.05001834869384
 21
25.099999999999895
 31
0.0
  0
LINE
  5
4B
100
AcDbEntity
  8
0
  6
CONTINUOUS
 62
               4
100
AcDbLine
 10
-11.05001834869384
 20
33.099999999999895
 30
0.0
 11
-11.05001834869384
 21
17.099999999999895
 31
0.0
  0
LINE
  5
4C
100
AcDbEntity
  8
0
  6
CONTINUOUS
 62
               4
100
AcDbLine
 10
-5.5500183486938397
 20
25.099999999999895
 30
0.0
 11
-3.8000183486938397
 21
25.099999999999895
 31
0.0
  0
LINE
  5
4D
100
AcDbEntity
  8
0
  6
CONTINUOUS
 62
               4
100
AcDbLine
 10
-11.05001834869384
 20
17.099999999999895
 30
0.0
 11
-5.5500183486938397
 21
17.099999999999895
 31
0.0
  0
LINE
  5
4E
100
AcDbEntity
  8
0
  6
CONTINUOUS
 62
               4
100
AcDbLine
 10
-3.8000183486938397
 20
25.099999999999895
 30
0.0
 11
-3.3000183486938397
 21
25.099999999999895
 31
0.0
  0
LINE
  5
4F
100
AcDbEntity
  8
0
  6
CONTINUOUS
 62
               4
100
AcDbLine
 10
-12.570018348693878
 20
7.7919191906694181
 30
0.0
 11
-4.0300183486938579
 21
7.7919191906694181
 31
0.0
  0
LINE
  5
50
100
AcDbEntity
  8
0
  6
CONTINUOUS
 62
               4
100
AcDbLine
 10
-13.070018348693878
 20
24.599999999999895
 30
0.0
 11
-13.070018348693878
 21
8.2919191906731413
 31
0.0
  0
LINE
  5
51
100
AcDbEntity
  8
0
  6
CONTINUOUS
 62
               4
100
AcDbLine
 10
-3.5300183486938579
 20
24.599999999999895
 30
0.0
 11
-3.5300183486938579
 21
8.291919190653843
 31
0.0
  0
LINE
  5
52
100
AcDbEntity
  8
0
  6
CONTINUOUS
 62
               4
100
AcDbLine
 10
-12.80001834869384
 20
25.099999999999895
 30
0.0
 11
-11.05001834869384
 21
25.099999999999895
 31
0.0
  0
LINE
  5
53
100
AcDbEntity
  8
0
  6
CONTINUOUS
 62
               4
100
AcDbLine
 10
-13.30001834869384
 20
25.099999999999895
 30
0.0
 11
-12.80001834869384
 21
25.099999999999895
 31
0.0
  0
LINE
  5
54
100
AcDbEntity
  8
0
  6
CONTINUOUS
 62
               4
100
AcDbLine
 10
-13.300000038146976
 20
28.100000004269376
 30
0.0
 11
-13.300000038146976
 21
5.6000000000000085
 31
0.0
  0
LINE
  5
55
100
AcDbEntity
  8
0
  6
CONTINUOUS
 62
               4
100
AcDbLine
 10
-3.3000000381469761
 20
27.500000004269353
 30
0.0
 11
-4.5500183486938397
 21
27.500000004269353
 31
0.0
  0
LINE
  5
56
100
AcDbEntity
  8
0
  6
CONTINUOUS
 62
               4
100
AcDbLine
 10
-3.3000000381469761
 20
28.100000004269376
 30
0.0
 11
-4.5500183486938397
 21
28.100000004269376
 31
0.0
  0
LINE
  5
57
100
AcDbEntity
  8
0
  6
CONTINUOUS
 62
               4
100
AcDbLine
 10
-3.3000000381469761
 20
26.500000004269353
 30
0.0
 11
-4.5500183486938397
 21
26.500000004269353
 31
0.0
  0
LINE
  5
58
100
AcDbEntity
  8
0
  6
CONTINUOUS
 62
               4
100
AcDbLine
 10
-12.05001834869384
 20
28.000000004269353
 30
0.0
 11
-12.800000038146976
 21
28.000000004269353
 31
0.0
  0
ARC
  5
59
100
AcDbEntity
  8
0
  6
CONTINUOUS
 62
               4
100
AcDbCircle
 10
-12.800000038146976
 20
27.500000004269353
 30
0.0
 40
0.5
100
AcDbArc
 50
89.999999999999815
 51
179.99999999999963
  0
ARC
  5
5A
100
AcDbEntity
  8
0
  6
CONTINUOUS
 62
               4
100
AcDbCircle
 10
-4.0959048914888001
 20
27.50009515092755
 30
0.0
 40
0.5999048608870732
100
AcDbArc
 50
359.99091272245295
 51
90.009087277546172
  0
LINE
  5
5B
100
AcDbEntity
  8
0
  6
CONTINUOUS
 62
               4
100
AcDbLine
 10
-13.300000009057811
 20
28.100000004269376
 30
0.0
 11
-12.05001834869384
 21
28.100000004269376
 31
0.0
  0
LINE
  5
5C
100
AcDbEntity
  8
0
  6
CONTINUOUS
 62
               4
100
AcDbLine
 10
-3.3000000381469761
 20
28.100000000000009
 30
0.0
 11
-3.3000000381469761
 21
5.6000000000000085
 31
0.0
  0
LINE
  5
5D
100
AcDbEntity
  8
0
  6
CONTINUOUS
 62
               4
100
AcDbLine
 10
-13.300000038146976
 20
5.6000000000000085
 30
0.0
 11
-3.3000000381469761
 21
5.6000000000000085
 31
0.0
  0
ARC
  5
5E
100
AcDbEntity
  8
0
  6
CONTINUOUS
 62
               4
100
AcDbCircle
 10
-3.79970319028277
 20
6.0997031521358025
 30
0.0
 40
0.4997032403068001
100
AcDbArc
 50
269.96596353714654
 51
0.0340364628527164
  0
LINE
  5
5F
100
AcDbEntity
  8
0
  6
CONTINUOUS
 62
               4
100
AcDbLine
 10
-9.8000183486938397
 20
44.092929270933368
 30
0.0
 11
-9.3000183486938397
 21
44.092929270933368
 31
0.0
  0
LINE
  5
60
100
AcDbEntity
  8
0
  6
CONTINUOUS
 62
               4
100
AcDbLine
 10
-7.3000183486938397
 20
44.092929270933368
 30
0.0
 11
-6.8000183486938397
 21
44.092929270933368
 31
0.0
  0
LINE
  5
61
100
AcDbEntity
  8
0
  6
CONTINUOUS
 62
               7
100
AcDbLine
 10
-11.400000038146914
 20
1.6000000000000085
 30
0.0
 11
-11.400000038146914
 21
5.6000000000000085
 31
0.0
  0
LINE
  5
62
100
AcDbEntity
  8
0
  6
CONTINUOUS
 62
               7
100
AcDbLine
 10
-5.2000000381470457
 20
1.6000000000000085
 30
0.0
 11
-5.2000000381470457
 21
5.6000000000000085
 31
0.0
  0
ARC
  5
63
100
AcDbEntity
  8
0
  6
CONTINUOUS
 62
               7
100
AcDbCircle
 10
-8.3000000381469761
 20
1.6000000000000085
 30
0.0
 40
3.0999999999999304
100
AcDbArc
 50
179.99999999999963
 51
0.0
  0
LINE
  5
64
100
AcDbEntity
  8
0
  6
CONTINUOUS
 62
               7
100
AcDbLine
 10
-13.300000038146976
 20
-9.6506699532603761
 30
0.0
 11
-13.300000038146976
 21
-6.0999999995055134
 31
0.0
  0
LINE
  5
65
100
AcDbEntity
  8
0
  6
CONTINUOUS
 62
               7
100
AcDbLine
 10
-3.3000000381469761
 20
-15.55066995326041
 30
0.0
 11
-3.3000000381469761
 21
-6.1000000000000085
 31
0.0
  0
LINE
  5
66
100
AcDbEntity
  8
0
  6
CONTINUOUS
 62
               7
100
AcDbLine
 10
-11.292893256960497
 20
-11.10710678118653
 30
0.0
 11
-12.707106819333546
 21
-9.6928932188134382
 31
0.0
  0
LINE
  5
67
100
AcDbEntity
  8
0
  6
CONTINUOUS
 62
               7
100
AcDbLine
 10
-12.707106819333546
 20
-11.10710678118653
 30
0.0
 11
-11.292893256960468
 21
-9.6928932188134382
 31
0.0
  0
CIRCLE
  5
68
100
AcDbEntity
  8
0
  6
CONTINUOUS
 62
               7
100
AcDbCircle
 10
-12.000000038146993
 20
-10.399001430615186
 30
0.0
 40
1.5
  0
LINE
  5
69
100
AcDbEntity
  8
0
  6
CONTINUOUS
 62
               7
100
AcDbLine
 10
-3.892893256960491
 20
-17.007106781186536
 30
0.0
 11
-5.3071068193335407
 21
-15.59289321881343
 31
0.0
  0
LINE
  5
6A
100
AcDbEntity
  8
0
  6
CONTINUOUS
 62
               7
100
AcDbLine
 10
-5.3071068193335407
 20
-17.007106781186536
 30
0.0
 11
-3.8928932569604626
 21
-15.59289321881343
 31
0.0
  0
CIRCLE
  5
6B
100
AcDbEntity
  8
0
  6
CONTINUOUS
 62
               7
100
AcDbCircle
 10
-4.6000000381469874
 20
-16.299001430615192
 30
0.0
 40
1.5
  0
LINE
  5
6C
100
AcDbEntity
  8
0
  6
CONTINUOUS
 62
               7
100
AcDbLine
 10
-13.300000031764512
 20
-20.599999999999994
 30
0.0
 11
-3.3000000317645117
 21
-20.599999999999994
 31
0.0
  0
LINE
  5
6D
100
AcDbEntity
  8
0
  6
CONTINUOUS
 62
               7
100
AcDbLine
 10
-14.299999999999997
 20
2.6999999999999886
 30
0.0
 11
-13.299999999999997
 21
2.6999999999999886
 31
0.0
  0
LINE
  5
6E
100
AcDbEntity
  8
0
  6
CONTINUOUS
 62
               7
100
AcDbLine
 10
-14.299999999999997
 20
-25.30000000000004
 30
0.0
 11
-14.299999999999997
 21
2.6999999999999886
 31
0.0
  0
LINE
  5
6F
100
AcDbEntity
  8
0
  6
CONTINUOUS
 62
               7
100
AcDbLine
 10
-14.299999999999997
 20
-25.30000000000004
 30
0.0
 11
-13.299999999999997
 21
-25.30000000000004
 31
0.0
  0
LINE
  5
70
100
AcDbEntity
  8
0
  6
CENTER
 62
               2
100
AcDbLine
 10
0.0
 20
-24.55000000000004
 30
0.0
 11
0.0
 21
-20.649999999999991
 31
0.0
  0
CIRCLE
  5
71
100
AcDbEntity
  8
0
  6
CONTINUOUS
 62
               7
100
AcDbCircle
 10
-0.0009515380859284
 20
-22.600817382812494
 30
0.0
 40
1.55
  0
LINE
  5
72
100
AcDbEntity
  8
0
  6
CENTER
 62
               2
100
AcDbLine
 10
-1.9500000000000028
 20
-22.599999999999994
 30
0.0
 11
1.9500000000000028
 21
-22.599999999999994
 31
0.0
  0
LINE
  5
73
100
AcDbEntity
  8
0
  6
CONTINUOUS
 62
               7
100
AcDbLine
 10
-3.2999999999999972
 20
-25.30000000000004
 30
0.0
 11
2.7000000000000028
 21
-25.30000000000004
 31
0.0
  0
LINE
  5
74
100
AcDbEntity
  8
0
  6
CENTER
 62
               2
100
AcDbLine
 10
-1.9500000000000028
 20
0.0
 30
0.0
 11
1.9500000000000028
 21
0.0
 31
0.0
  0
CIRCLE
  5
75
100
AcDbEntity
  8
0
  6
CONTINUOUS
 62
               7
100
AcDbCircle
 10
-0.0009515380859284
 20
-0.0008173828124995
 30
0.0
 40
1.55
  0
LINE
  5
76
100
AcDbEntity
  8
0
  6
CENTER
 62
               2
100
AcDbLine
 10
0.0
 20
-1.9500000000000171
 30
0.0
 11
0.0
 21
1.9499999999999886
 31
0.0
  0
LINE
  5
77
100
AcDbEntity
  8
0
  6
CONTINUOUS
 62
               7
100
AcDbLine
 10
-3.2999999999999972
 20
2.6999999999999886
 30
0.0
 11
2.7000000000000028
 21
2.6999999999999886
 31
0.0
  0
LINE
  5
78
100
AcDbEntity
  8
0
  6
CONTINUOUS
 62
               7
100
AcDbLine
 10
2.7000000000000028
 20
-25.30000000000004
 30
0.0
 11
2.7000000000000028
 21
2.6999999999999886
 31
0.0
  0
LINE
  5
79
100
AcDbEntity
  8
0
  6
CONTINUOUS
 62
               7
100
AcDbLine
 10
-3.3000000381469761
 20
-25.400000000000006
 30
0.0
 11
-3.3000000381469761
 21
-17.047332907969945
 31
0.0
  0
LINE
  5
7A
100
AcDbEntity
  8
0
  6
CONTINUOUS
 62
               7
100
AcDbLine
 10
-13.300000038146976
 20
-23.80000000000004
 30
0.0
 11
-13.300000038146976
 21
-11.147332907969997
 31
0.0
  0
LINE
  5
7B
100
AcDbEntity
  8
0
  6
CONTINUOUS
 62
               7
100
AcDbLine
 10
-3.3000000381469761
 20
-6.1000000000000085
 30
0.0
 11
-13.300000038146976
 21
-6.1000000000000085
 31
0.0
  0
ARC
  5
7C
100
AcDbEntity
  8
0
  6
CONTINUOUS
 62
               7
100
AcDbCircle
 10
-12.000000038146993
 20
-10.400000000000006
 30
0.0
 40
1.6000000000000001
100
AcDbArc
 50
269.99999999999937
 51
89.999999999999801
  0
ARC
  5
7D
100
AcDbEntity
  8
0
  6
CONTINUOUS
 62
               7
100
AcDbCircle
 10
-4.6000000381469874
 20
-16.300000000000011
 30
0.0
 40
1.6000000000000001
100
AcDbArc
 50
89.999999999999815
 51
269.99999999999937
  0
LINE
  5
7E
100
AcDbEntity
  8
0
  6
CONTINUOUS
 62
               7
100
AcDbLine
 10
-12.000000038146993
 20
-12.000000000000014
 30
0.0
 11
-13.300000038146976
 21
-12.000000000000014
 31
0.0
  0
LINE
  5
7F
100
AcDbEntity
  8
0
  6
CONTINUOUS
 62
               7
100
AcDbLine
 10
-12.000000038146993
 20
-8.8000000000000114
 30
0.0
 11
-13.300000038146976
 21
-8.8000000000000114
 31
0.0
  0
LINE
  5
80
100
AcDbEntity
  8
0
  6
CONTINUOUS
 62
               7
100
AcDbLine
 10
-4.6000000381469874
 20
-14.700000000000017
 30
0.0
 11
-3.3000000381469761
 21
-14.700000000000017
 31
0.0
  0
LINE
  5
81
100
AcDbEntity
  8
0
  6
CONTINUOUS
 62
               7
100
AcDbLine
 10
-4.6000000381469874
 20
-17.900000000000006
 30
0.0
 11
-3.3000000381469761
 21
-17.900000000000006
 31
0.0
  0
ARC
  5
82
100
AcDbEntity
  8
0
  6
CONTINUOUS
 62
               7
100
AcDbCircle
 10
-3.5000000381469789
 20
-25.400000000000006
 30
0.0
 40
0.2
100
AcDbArc
 50
269.99999999999937
 51
0.0
  0
LINE
  5
83
100
AcDbEntity
  8
0
  6
CONTINUOUS
 62
               7
100
AcDbLine
 10
-13.320000038146986
 20
-24.330000000000013
 30
0.0
 11
-13.320000038146986
 21
-23.80000000000004
 31
0.0
  0
LINE
  5
84
100
AcDbEntity
  8
0
  6
CONTINUOUS
 62
               7
100
AcDbLine
 10
-13.300000038146976
 20
-25.400000000000006
 30
0.0
 11
-13.300000038146976
 21
-24.486749430654044
 31
0.0
  0
LINE
  5
85
100
AcDbEntity
  8
0
  6
CONTINUOUS
 62
               7
100
AcDbLine
 10
-9.8800000381469744
 20
-24.330000000000013
 30
0.0
 11
-9.8800000381469744
 21
-23.80000000000004
 31
0.0
  0
ARC
  5
86
100
AcDbEntity
  8
0
  6
CONTINUOUS
 62
               7
100
AcDbCircle
 10
-10.491772033980894
 20
-24.330837282029023
 30
0.0
 40
0.6117725687931934
100
AcDbArc
 50
286.30661609184898
 51
0.0784159734340139
  0
ARC
  5
87
100
AcDbEntity
  8
0
  6
CONTINUOUS
 62
               7
100
AcDbCircle
 10
-11.600000038146987
 20
-20.512578763266077
 30
0.0
 40
4.5876068132596712
100
AcDbArc
 50
253.79871892415684
 51
286.20128107584191
  0
LINE
  5
88
100
AcDbEntity
  8
0
  6
CONTINUOUS
 62
               7
100
AcDbLine
 10
-9.8000000381469761
 20
-25.599999999999994
 30
0.0
 11
-9.8000000381469761
 21
-23.80000000000004
 31
0.0
  0
ARC
  5
89
100
AcDbEntity
  8
0
  6
CONTINUOUS
 62
               7
100
AcDbCircle
 10
-13.100000038146987
 20
-25.400000000000006
 30
0.0
 40
0.2
100
AcDbArc
 50
179.99999999999963
 51
269.99999999999937
  0
ARC
  5
8A
100
AcDbEntity
  8
0
  6
CONTINUOUS
 62
               7
100
AcDbCircle
 10
-13.000895175005866
 20
-23.500895136858929
 30
0.0
 40
0.2991062025847394
100
AcDbArc
 50
179.82853033398985
 51
270.17146966600922
  0
LINE
  5
8B
100
AcDbEntity
  8
0
  6
CONTINUOUS
 62
               7
100
AcDbLine
 10
-13.320000038146986
 20
-23.80000000000004
 30
0.0
 11
-9.8000000381469761
 21
-23.80000000000004
 31
0.0
  0
LINE
  5
8C
100
AcDbEntity
  8
0
  6
CONTINUOUS
 62
               7
100
AcDbLine
 10
-3.5000000381469789
 20
-25.599999999999994
 30
0.0
 11
-13.100000038146987
 21
-25.599999999999994
 31
0.0
  0
ARC
  5
8D
100
AcDbEntity
  8
0
  6
CONTINUOUS
 62
               7
100
AcDbCircle
 10
-12.709446070037913
 20
-24.331748731346948
 30
0.0
 40
0.6105564724372722
100
AcDbArc
 50
179.83589550320582
 51
253.77907243150949
  0
CIRCLE
  5
8E
100
AcDbEntity
  8
0
  6
CONTINUOUS
 62
               7
100
AcDbCircle
 10
-8.3000000381469761
 20
3.3000000000000256
 30
0.0
 40
0.75
  0
CIRCLE
  5
8F
100
AcDbEntity
  8
0
  6
CONTINUOUS
 62
               7
100
AcDbCircle
 10
-8.3000000381469761
 20
3.3000000000000256
 30
0.0
 40
1.1000000000000001
  0
CIRCLE
  5
90
100
AcDbEntity
  8
0
  6
CONTINUOUS
 62
               7
100
AcDbCircle
 10
-8.3000000381469761
 20
3.3000000000000256
 30
0.0
 40
1.1500000000000001
  0
CIRCLE
  5
91
100
AcDbEntity
  8
0
  6
CONTINUOUS
 62
               7
100
AcDbCircle
 10
-8.3000000381469761
 20
3.3000000000000256
 30
0.0
 40
1.3000000000000012
  0
LINE
  5
92
100
AcDbEntity
  8
0
  6
CENTER
 62
               2
100
AcDbLine
 10
-6.6000000381469874
 20
3.3000000000000256
 30
0.0
 11
-10.000000038146979
 21
3.3000000000000256
 31
0.0
  0
ARC
  5
93
100
AcDbEntity
  8
0
  6
CONTINUOUS
 62
               7
100
AcDbCircle
 10
-8.3000000381469761
 20
1.6000000000000085
 30
0.0
 40
2.0
100
AcDbArc
 50
179.99999999999963
 51
0.0
  0
LINE
  5
94
100
AcDbEntity
  8
0
  6
CONTINUOUS
 62
               7
100
AcDbLine
 10
-6.3000000381469761
 20
1.6000000000000085
 30
0.0
 11
-6.3000000381469761
 21
5.6000000000000085
 31
0.0
  0
LINE
  5
95
100
AcDbEntity
  8
0
  6
CONTINUOUS
 62
               7
100
AcDbLine
 10
-10.300000038146976
 20
1.6000000000000085
 30
0.0
 11
-10.300000038146976
 21
5.6000000000000085
 31
0.0
  0
LINE
  5
96
100
AcDbEntity
  8
0
  6
CONTINUOUS
 62
               7
100
AcDbLine
 10
-3.3000000381469761
 20
-6.1000000000000085
 30
0.0
 11
-3.3000000381469761
 21
5.6000000000000085
 31
0.0
  0
LINE
  5
97
100
AcDbEntity
  8
0
  6
CONTINUOUS
 62
               7
100
AcDbLine
 10
-13.300000038146976
 20
-6.1000000000000085
 30
0.0
 11
-13.300000038146976
 21
5.6000000000000085
 31
0.0
  0
LINE
  5
98
100
AcDbEntity
  8
0
  6
CONTINUOUS
 62
               7
100
AcDbLine
 10
-3.3000000381469761
 20
5.6000000000000085
 30
0.0
 11
-13.300000038146976
 21
5.6000000000000085
 31
0.0
  0
LINE
  5
99
100
AcDbEntity
  8
0
  6
CENTER
 62
               2
100
AcDbLine
 10
0.2162062056379739
 20
-8.2999999999999403
 30
0.0
 11
17.830000000000013
 21
-8.2999999999999403
 31
0.0
  0
LINE
  5
9A
100
AcDbEntity
  8
0
  6
PHANTOM
 62
             200
100
AcDbLine
 10
2.7000000000000028
 20
-4.2999999999999403
 30
0.0
 11
16.200000000000017
 21
-4.2999999999999403
 31
0.0
  0
LINE
  5
9B
100
AcDbEntity
  8
0
  6
PHANTOM
 62
             200
100
AcDbLine
 10
2.7000000000000028
 20
-12.29999999999994
 30
0.0
 11
16.200000000000017
 21
-12.29999999999994
 31
0.0
  0
LINE
  5
9C
100
AcDbEntity
  8
0
  6
PHANTOM
 62
             200
100
AcDbLine
 10
14.200000000000017
 20
-6.6999999999999318
 30
0.0
 11
16.200000000000017
 21
-6.6999999999999318
 31
0.0
  0
LINE
  5
9D
100
AcDbEntity
  8
0
  6
PHANTOM
 62
             200
100
AcDbLine
 10
14.200000000000017
 20
-7.5999999999999375
 30
0.0
 11
16.200000000000017
 21
-7.5999999999999375
 31
0.0
  0
LINE
  5
9E
100
AcDbEntity
  8
0
  6
PHANTOM
 62
             200
100
AcDbLine
 10
14.200000000000017
 20
-5.7999999999999403
 30
0.0
 11
16.200000000000017
 21
-5.7999999999999403
 31
0.0
  0
LINE
  5
9F
100
AcDbEntity
  8
0
  6
PHANTOM
 62
             200
100
AcDbLine
 10
14.200000000000017
 20
-5.0999999999999375
 30
0.0
 11
16.200000000000017
 21
-5.0999999999999375
 31
0.0
  0
LINE
  5
A0
100
AcDbEntity
  8
0
  6
PHANTOM
 62
             200
100
AcDbLine
 10
14.200000000000017
 20
-4.5999999999999375
 30
0.0
 11
16.200000000000017
 21
-4.5999999999999375
 31
0.0
  0
LINE
  5
A1
100
AcDbEntity
  8
0
  6
PHANTOM
 62
             200
100
AcDbLine
 10
14.200000000000017
 20
-8.9999999999999432
 30
0.0
 11
16.200000000000017
 21
-8.9999999999999432
 31
0.0
  0
LINE
  5
A2
100
AcDbEntity
  8
0
  6
PHANTOM
 62
             200
100
AcDbLine
 10
16.200000000000017
 20
-4.2999999999999403
 30
0.0
 11
16.200000000000017
 21
-12.29999999999994
 31
0.0
  0
LINE
  5
A3
100
AcDbEntity
  8
0
  6
PHANTOM
 62
             200
100
AcDbLine
 10
14.200000000000017
 20
-9.8999999999999488
 30
0.0
 11
16.200000000000017
 21
-9.8999999999999488
 31
0.0
  0
LINE
  5
A4
100
AcDbEntity
  8
0
  6
PHANTOM
 62
             200
100
AcDbLine
 10
14.200000000000017
 20
-10.79999999999994
 30
0.0
 11
16.200000000000017
 21
-10.79999999999994
 31
0.0
  0
LINE
  5
A5
100
AcDbEntity
  8
0
  6
PHANTOM
 62
             200
100
AcDbLine
 10
14.200000000000017
 20
-11.499999999999943
 30
0.0
 11
16.200000000000017
 21
-11.499999999999943
 31
0.0
  0
LINE
  5
A6
100
AcDbEntity
  8
0
  6
PHANTOM
 62
             200
100
AcDbLine
 10
14.200000000000017
 20
-11.999999999999943
 30
0.0
 11
16.200000000000017
 21
-11.999999999999943
 31
0.0
  0
LINE
  5
A7
100
AcDbEntity
  8
0
  6
PHANTOM
 62
             200
100
AcDbLine
 10
14.200000000000017
 20
-4.2999999999999403
 30
0.0
 11
14.200000000000017
 21
-12.29999999999994
 31
0.0
  0
LINE
  5
A8
100
AcDbEntity
  8
0
  6
PHANTOM
 62
             200
100
AcDbLine
 10
16.700000000000017
 20
-4.7999999999999403
 30
0.0
 11
16.700000000000017
 21
-11.79999999999994
 31
0.0
  0
ARC
  5
A9
100
AcDbEntity
  8
0
  6
PHANTOM
 62
             200
100
AcDbCircle
 10
16.200000000000017
 20
-11.79999999999994
 30
0.0
 40
0.5
100
AcDbArc
 50
269.99999999999937
 51
0.0
  0
ARC
  5
AA
100
AcDbEntity
  8
0
  6
PHANTOM
 62
             200
100
AcDbCircle
 10
16.200000000000017
 20
-4.7999999999999403
 30
0.0
 40
0.5
100
AcDbArc
 50
0.0
 51
89.999999999999815
  0
ENDBLK
  5
AB
100
AcDbEntity
  8
0
100
AcDbBlockEnd
  0
BLOCK
  5
AC
100
AcDbEntity
  8
0
100
AcDbBlockBegin
  2
EB10SA1-2
 70
               0
 10
0.0
 20
0.0
 30
0.0
  3
EB10SA1-2
  1

  0
ARC
  5
AD
100
AcDbEntity
  8
0
  6
CONTINUOUS
 62
               4
100
AcDbCircle
 10
37.000872639265594
 20
25.503476452093622
 30
0.0
 40
0.4029462287748787
100
AcDbArc
 50
180.49433091715537
 51
349.3911720177253
  0
ARC
  5
AE
100
AcDbEntity
  8
0
  6
CONTINUOUS
 62
               4
100
AcDbCircle
 10
37.098938457434429
 20
24.097302043044436
 30
0.0
 40
0.5030505883944908
100
AcDbArc
 50
0.3072892911903642
 51
36.562608354653236
  0
ARC
  5
AF
100
AcDbEntity
  8
0
  6
CONTINUOUS
 62
               4
100
AcDbCircle
 10
38.296847634659514
 20
17.402103872708139
 30
0.0
 40
0.3021474965435785
100
AcDbArc
 50
270.97363298451182
 51
359.02636701548784
  0
ARC
  5
B0
100
AcDbEntity
  8
0
  6
CONTINUOUS
 62
               4
100
AcDbCircle
 10
37.002785635846294
 20
24.593708514783785
 30
0.0
 40
0.5002341568128574
100
AcDbArc
 50
0.6049287534639967
 51
90.207763713154378
  0
ARC
  5
B1
100
AcDbEntity
  8
0
  6
CONTINUOUS
 62
               4
100
AcDbCircle
 10
36.99698457413686
 20
8.2494844974917925
 30
0.0
 40
0.5060324378497572
100
AcDbArc
 50
295.28139190005271
 51
359.42932783011457
  0
LINE
  5
B2
100
AcDbEntity
  8
0
  6
CONTINUOUS
 62
               4
100
AcDbLine
 10
32.504002015901108
 20
5.5999999999999943
 30
0.0
 11
32.504002015900937
 21
25.09393938280013
 31
0.0
  0
LINE
  5
B3
100
AcDbEntity
  8
0
  6
CONTINUOUS
 62
               4
100
AcDbLine
 10
32.998951510567565
 20
32.095959596533177
 30
0.0
 11
32.998951510567593
 21
27.097979792266514
 31
0.0
  0
LINE
  5
B4
100
AcDbEntity
  8
0
  6
CONTINUOUS
 62
               4
100
AcDbLine
 10
32.504002015900909
 20
27.097979792266514
 30
0.0
 11
32.504002015900937
 21
25.096969692399895
 31
0.0
  0
LINE
  5
B5
100
AcDbEntity
  8
0
  6
CONTINUOUS
 62
               4
100
AcDbLine
 10
32.504002015900852
 20
33.099999999999838
 30
0.0
 11
32.50400201590088
 21
32.095959596533177
 31
0.0
  0
LINE
  5
B6
100
AcDbEntity
  8
0
  6
CONTINUOUS
 62
               4
100
AcDbLine
 10
35.650466660567531
 20
36.918181815999858
 30
0.0
 11
35.65046666056756
 21
33.099999999999866
 31
0.0
  0
LINE
  5
B7
100
AcDbEntity
  8
0
  6
CONTINUOUS
 62
             200
100
AcDbLine
 10
36.498951508567529
 20
36.423232321333245
 30
0.0
 11
33.500971712300839
 21
38.155555552666556
 31
0.0
  0
LINE
  5
B8
100
AcDbEntity
  8
0
  6
CONTINUOUS
 62
             200
100
AcDbLine
 10
36.498951508567529
 20
36.769696967599913
 30
0.0
 11
33.500971712300839
 21
38.502020198933167
 31
0.0
  0
LINE
  5
B9
100
AcDbEntity
  8
0
  6
CONTINUOUS
 62
               4
100
AcDbLine
 10
35.247436357767413
 20
44.094949488666558
 30
0.0
 11
35.247436357767441
 21
40.594949490666536
 31
0.0
  0
LINE
  5
BA
100
AcDbEntity
  8
0
  6
CONTINUOUS
 62
               4
100
AcDbLine
 10
34.752486863100728
 20
44.094949488666551
 30
0.0
 11
34.752486863100756
 21
40.594949490666529
 31
0.0
  0
LINE
  5
BB
100
AcDbEntity
  8
0
  6
CONTINUOUS
 62
               4
100
AcDbLine
 10
34.349456560300808
 20
40.594949490666529
 30
0.0
 11
35.650466660567503
 21
40.594949490666536
 31
0.0
  0
LINE
  5
BC
100
AcDbEntity
  8
0
  6
CONTINUOUS
 62
               4
100
AcDbLine
 10
34.349456560300808
 20
40.594949490666529
 30
0.0
 11
34.349456560300837
 21
38.014141411333199
 31
0.0
  0
LINE
  5
BD
100
AcDbEntity
  8
0
  6
CONTINUOUS
 62
               4
100
AcDbLine
 10
35.650466660567503
 20
40.594949490666536
 30
0.0
 11
35.650466660567531
 21
37.264646462266526
 31
0.0
  0
LINE
  5
BE
100
AcDbEntity
  8
0
  6
CONTINUOUS
 62
               4
100
AcDbLine
 10
34.349456560300837
 20
37.667676765066531
 30
0.0
 11
34.349456560300865
 21
33.099999999999866
 31
0.0
  0
LINE
  5
BF
100
AcDbEntity
  8
0
  6
CONTINUOUS
 62
               4
100
AcDbLine
 10
37.502991912034361
 20
17.198989898933206
 30
0.0
 11
37.601981810967629
 21
17.099999999999895
 31
0.0
  0
LINE
  5
C0
100
AcDbEntity
  8
0
  6
CONTINUOUS
 62
               4
100
AcDbLine
 10
37.502991912034361
 20
18.401010100266575
 30
0.0
 11
37.601981810967629
 21
18.401010100266589
 31
0.0
  0
LINE
  5
C1
100
AcDbEntity
  8
0
  6
CONTINUOUS
 62
               4
100
AcDbLine
 10
37.601981810967629
 20
17.099999999999895
 30
0.0
 11
38.301981810567611
 21
17.099999999999895
 31
0.0
  0
LINE
  5
C2
100
AcDbEntity
  8
0
  6
CONTINUOUS
 62
               4
100
AcDbLine
 10
38.598951507367588
 20
26.496969691599915
 30
0.0
 11
38.598951507367644
 21
17.396969696799928
 31
0.0
  0
LINE
  5
C3
100
AcDbEntity
  8
0
  6
CONTINUOUS
 62
               4
100
AcDbLine
 10
36.597941407500883
 20
26.595959590533283
 30
0.0
 11
36.901981811367563
 21
26.899999994399906
 31
0.0
  0
LINE
  5
C4
100
AcDbEntity
  8
0
  6
CONTINUOUS
 62
               4
100
AcDbLine
 10
32.504002015900909
 20
27.097979792266514
 30
0.0
 11
32.998951510567593
 21
27.097979792266514
 31
0.0
  0
LINE
  5
C5
100
AcDbEntity
  8
0
  6
CONTINUOUS
 62
               4
100
AcDbLine
 10
32.50400201590088
 20
32.095959596533177
 30
0.0
 11
32.998951510567565
 21
32.095959596533177
 31
0.0
  0
LINE
  5
C6
100
AcDbEntity
  8
0
  6
CONTINUOUS
 62
               4
100
AcDbLine
 10
36.597941407500826
 20
33.099999999999881
 30
0.0
 11
36.901981811367534
 21
32.795959596133201
 31
0.0
  0
LINE
  5
C7
100
AcDbEntity
  8
0
  6
CONTINUOUS
 62
               4
100
AcDbLine
 10
36.901981811367534
 20
32.795959596133201
 30
0.0
 11
36.901981811367563
 21
26.899999994399906
 31
0.0
  0
LINE
  5
C8
100
AcDbEntity
  8
0
  6
CONTINUOUS
 62
               4
100
AcDbLine
 10
36.597941407500826
 20
33.099999999999881
 30
0.0
 11
36.597941407500912
 21
25.499999995199943
 31
0.0
  0
LINE
  5
C9
100
AcDbEntity
  8
0
  6
CONTINUOUS
 62
               4
100
AcDbLine
 10
37.601981810967573
 20
24.099999995999937
 30
0.0
 11
37.601981810967629
 21
18.401010100266589
 31
0.0
  0
LINE
  5
CA
100
AcDbEntity
  8
0
  6
CONTINUOUS
 62
               4
100
AcDbLine
 10
37.396931306034276
 20
25.429292924533257
 30
0.0
 11
38.499961608434262
 21
31.691433312209448
 31
0.0
  0
LINE
  5
CB
100
AcDbEntity
  8
0
  6
CONTINUOUS
 62
               4
100
AcDbLine
 10
38.499961608434234
 20
33.099999999999895
 30
0.0
 11
39.496931304834135
 21
33.099999999999895
 31
0.0
  0
LINE
  5
CC
100
AcDbEntity
  8
0
  6
CONTINUOUS
 62
               4
100
AcDbLine
 10
38.499961608434234
 20
33.099999999999895
 30
0.0
 11
38.499961608434262
 21
31.691433312209448
 31
0.0
  0
LINE
  5
CD
100
AcDbEntity
  8
0
  6
CONTINUOUS
 62
               4
100
AcDbLine
 10
38.598951507367588
 20
26.496969691599915
 30
0.0
 11
39.496931304834163
 21
31.602020193733253
 31
0.0
  0
LINE
  5
CE
100
AcDbEntity
  8
0
  6
CONTINUOUS
 62
               4
100
AcDbLine
 10
39.496931304834135
 20
33.099999999999895
 30
0.0
 11
39.496931304834163
 21
31.602020193733253
 31
0.0
  0
LINE
  5
CF
100
AcDbEntity
  8
0
  6
CONTINUOUS
 62
               4
100
AcDbLine
 10
35.897941407900845
 20
33.099999999999866
 30
0.0
 11
35.89794140790093
 21
25.096969692399924
 31
0.0
  0
LINE
  5
D0
100
AcDbEntity
  8
0
  6
CONTINUOUS
 62
               4
100
AcDbLine
 10
34.101981812967466
 20
33.099999999999852
 30
0.0
 11
34.101981812967551
 21
25.096969692399909
 31
0.0
  0
LINE
  5
D1
100
AcDbEntity
  8
0
  6
CONTINUOUS
 62
               4
100
AcDbLine
 10
32.504002015900852
 20
33.099999999999838
 30
0.0
 11
36.597941407500826
 21
33.099999999999881
 31
0.0
  0
LINE
  5
D2
100
AcDbEntity
  8
0
  6
CONTINUOUS
 62
               4
100
AcDbLine
 10
32.504002015901108
 20
5.5999999999999943
 30
0.0
 11
37.213092922301058
 21
7.7919191906667749
 31
0.0
  0
LINE
  5
D3
100
AcDbEntity
  8
0
  6
CONTINUOUS
 62
               4
100
AcDbLine
 10
37.502991912034304
 20
24.598989888133502
 30
0.0
 11
37.502991912034446
 21
8.2444444429333856
 31
0.0
  0
LINE
  5
D4
100
AcDbEntity
  8
0
  6
CONTINUOUS
 62
               4
100
AcDbLine
 10
29.498951512567601
 20
25.093939382800102
 30
0.0
 11
37.000971710300973
 21
25.093939382800173
 31
0.0
  0
LINE
  5
D5
100
AcDbEntity
  8
0
  6
CONTINUOUS
 62
               4
100
AcDbLine
 10
27.498951516567644
 20
26.500000000000099
 30
0.0
 11
15.498951520567601
 21
26.5
 31
0.0
  0
LINE
  5
D6
100
AcDbEntity
  8
0
  6
CONTINUOUS
 62
               4
100
AcDbLine
 10
27.498951516567644
 20
28.100000000000065
 30
0.0
 11
27.498951516567644
 21
26.500000000000099
 31
0.0
  0
ARC
  5
D7
100
AcDbEntity
  8
0
  6
CONTINUOUS
 62
               4
100
AcDbCircle
 10
28.998951512567572
 20
27.500000000000114
 30
0.0
 40
0.5
100
AcDbArc
 50
0.0000000000005089
 51
90.000000000000313
  0
ARC
  5
D8
100
AcDbEntity
  8
0
  6
CONTINUOUS
 62
               4
100
AcDbCircle
 10
15.998951520567601
 20
27.5
 30
0.0
 40
0.5
100
AcDbArc
 50
93.91958589965131
 51
180.00000000000011
  0
ARC
  5
D9
100
AcDbEntity
  8
0
  6
CONTINUOUS
 62
               4
100
AcDbCircle
 10
16.297863601439389
 20
27.501088005128167
 30
0.0
 40
0.5989129231257409
100
AcDbArc
 50
89.895914524773232
 51
180.10408547522718
  0
ARC
  5
DA
100
AcDbEntity
  8
0
  6
CONTINUOUS
 62
               4
100
AcDbCircle
 10
28.699046573216236
 20
27.500095146648732
 30
0.0
 40
0.5999048008965869
100
AcDbArc
 50
56.247417870394386
 51
90.009087277546683
  0
LINE
  5
DB
100
AcDbEntity
  8
0
  6
CONTINUOUS
 62
               4
100
AcDbLine
 10
28.698951426567618
 20
28.10000000000008
 30
0.0
 11
16.298951606567556
 21
28.099999999999966
 31
0.0
  0
LINE
  5
DC
100
AcDbEntity
  8
0
  6
CONTINUOUS
 62
               4
100
AcDbLine
 10
28.998951512567572
 20
28.000000000000114
 30
0.0
 11
27.498951516567644
 21
28.000000000000099
 31
0.0
  0
LINE
  5
DD
100
AcDbEntity
  8
0
  6
CONTINUOUS
 62
               4
100
AcDbLine
 10
18.198951516567575
 20
27.500000000000014
 30
0.0
 11
15.498951520567601
 21
27.5
 31
0.0
  0
LINE
  5
DE
100
AcDbEntity
  8
0
  6
CONTINUOUS
 62
               4
100
AcDbLine
 10
18.198951516567575
 20
28.09999999999998
 30
0.0
 11
18.198951516567575
 21
27.500000000000014
 31
0.0
  0
LINE
  5
DF
100
AcDbEntity
  8
0
  6
CONTINUOUS
 62
               4
100
AcDbLine
 10
15.498951516567786
 20
5.5999999999999375
 30
0.0
 11
32.504002015901108
 21
5.6000000000000796
 31
0.0
  0
LINE
  5
E0
100
AcDbEntity
  8
0
  6
CONTINUOUS
 62
               4
100
AcDbLine
 10
15.498951516567587
 20
27.499999999999943
 30
0.0
 11
15.498951516567786
 21
5.5999999999999375
 31
0.0
  0
LINE
  5
E1
100
AcDbEntity
  8
0
  6
CONTINUOUS
 62
               4
100
AcDbLine
 10
29.498951516567786
 20
5.6000000000000512
 30
0.0
 11
29.498951516567587
 21
27.499999994932324
 31
0.0
  0
LINE
  5
E2
100
AcDbEntity
  8
0
  6
CONTINUOUS
 62
               4
100
AcDbLine
 10
34.752486863100728
 20
44.094949488666551
 30
0.0
 11
35.247436357767413
 21
44.094949488666558
 31
0.0
  0
LINE
  5
E3
100
AcDbEntity
  8
0
  6
CENTER
 62
               2
100
AcDbLine
 10
22.498951516567786
 20
31.262585161280541
 30
0.0
 11
22.498951516567786
 21
-27.594831691049194
 31
0.0
  0
ARC
  5
E4
100
AcDbEntity
  8
0
  6
CONTINUOUS
 62
               7
100
AcDbCircle
 10
28.698951538085964
 20
-11.500000000000014
 30
0.0
 40
0.4
100
AcDbArc
 50
270.00000000000023
 51
0.0
  0
ARC
  5
E5
100
AcDbEntity
  8
0
  6
CONTINUOUS
 62
               7
100
AcDbCircle
 10
28.698951538085964
 20
-9.3000000000000114
 30
0.0
 40
0.4
100
AcDbArc
 50
0.0
 51
89.999999999999815
  0
LINE
  5
E6
100
AcDbEntity
  8
0
  6
CONTINUOUS
 62
               7
100
AcDbLine
 10
28.698951538085964
 20
-11.900000000000006
 30
0.0
 11
28.498951538085976
 21
-11.900000000000006
 31
0.0
  0
LINE
  5
E7
100
AcDbEntity
  8
0
  6
CONTINUOUS
 62
               7
100
AcDbLine
 10
28.698951538085964
 20
-8.9000000000000057
 30
0.0
 11
28.498951538085976
 21
-8.9000000000000057
 31
0.0
  0
LINE
  5
E8
100
AcDbEntity
  8
0
  6
CONTINUOUS
 62
               7
100
AcDbLine
 10
29.09895153808597
 20
-9.3000000000000114
 30
0.0
 11
29.09895153808597
 21
-11.500000000000014
 31
0.0
  0
LINE
  5
E9
100
AcDbEntity
  8
0
  6
CONTINUOUS
 62
               7
100
AcDbLine
 10
15.498951538085976
 20
5.5999999999999943
 30
0.0
 11
15.498951538085976
 21
-25.199999999999903
 31
0.0
  0
LINE
  5
EA
100
AcDbEntity
  8
0
  6
CONTINUOUS
 62
               7
100
AcDbLine
 10
14.498951538085976
 20
-5.7008234863280762
 30
0.0
 11
14.498951538085976
 21
-24.700823486328062
 31
0.0
  0
LINE
  5
EB
100
AcDbEntity
  8
0
  6
CONTINUOUS
 62
               7
100
AcDbLine
 10
15.498951538085976
 20
-24.700823486328062
 30
0.0
 11
14.498951538085976
 21
-24.700823486328062
 31
0.0
  0
LINE
  5
EC
100
AcDbEntity
  8
0
  6
CONTINUOUS
 62
               7
100
AcDbLine
 10
15.498951538085976
 20
0.099176513671992
 30
0.0
 11
14.498951538085976
 21
0.099176513671992
 31
0.0
  0
LINE
  5
ED
100
AcDbEntity
  8
0
  6
CONTINUOUS
 62
               7
100
AcDbLine
 10
14.498951538085976
 20
0.099176513671992
 30
0.0
 11
14.498951538085976
 21
-4.7008234863280762
 31
0.0
  0
LINE
  5
EE
100
AcDbEntity
  8
0
  6
CONTINUOUS
 62
               7
100
AcDbLine
 10
14.5
 20
2.7000000000000597
 30
0.0
 11
0.0
 21
2.7000000000000597
 31
0.0
  0
LINE
  5
EF
100
AcDbEntity
  8
0
  6
CONTINUOUS
 62
               7
100
AcDbLine
 10
14.5
 20
-25.299999999999926
 30
0.0
 11
14.5
 21
2.7000000000000597
 31
0.0
  0
LINE
  5
F0
100
AcDbEntity
  8
0
  6
CONTINUOUS
 62
               7
100
AcDbLine
 10
14.5
 20
-25.299999999999926
 30
0.0
 11
0.0
 21
-25.299999999999926
 31
0.0
  0
LINE
  5
F1
100
AcDbEntity
  8
0
  6
CONTINUOUS
 62
               7
100
AcDbLine
 10
0.0
 20
2.7000000000000597
 30
0.0
 11
0.0
 21
-25.299999999999926
 31
0.0
  0
LINE
  5
F2
100
AcDbEntity
  8
0
  6
CONTINUOUS
 62
               7
100
AcDbLine
 10
29.498951538085976
 20
-6.1000000000000085
 30
0.0
 11
29.498951538085976
 21
-25.199999999999903
 31
0.0
  0
LINE
  5
F3
100
AcDbEntity
  8
0
  6
CONTINUOUS
 62
               7
100
AcDbLine
 10
15.498951538085976
 20
-6.1000000000000085
 30
0.0
 11
29.498951524567872
 21
-6.1000000000000085
 31
0.0
  0
LINE
  5
F4
100
AcDbEntity
  8
0
  6
CONTINUOUS
 62
               7
100
AcDbLine
 10
15.498951538085976
 20
-20.600000000000009
 30
0.0
 11
29.498951524567872
 21
-20.600000000000009
 31
0.0
  0
ARC
  5
F5
100
AcDbEntity
  8
0
  6
CONTINUOUS
 62
               7
100
AcDbCircle
 10
29.09992490511263
 20
-25.200973367026535
 30
0.0
 40
0.3990278201647513
100
AcDbArc
 50
269.8602356150771
 51
0.1397643849223044
  0
LINE
  5
F6
100
AcDbEntity
  8
0
  6
CONTINUOUS
 62
               7
100
AcDbLine
 10
15.89895153808601
 20
-25.599999999999994
 30
0.0
 11
29.098951538085998
 21
-25.599999999999994
 31
0.0
  0
ARC
  5
F7
100
AcDbEntity
  8
0
  6
CONTINUOUS
 62
               7
100
AcDbCircle
 10
15.897978171059378
 20
-25.200973367026535
 30
0.0
 40
0.3990278201647513
100
AcDbArc
 50
179.8602356150773
 51
270.1397643849217
  0
LINE
  5
F8
100
AcDbEntity
  8
0
  6
CONTINUOUS
 62
               7
100
AcDbLine
 10
30.598951538085942
 20
-0.4000000000000057
 30
0.0
 11
30.598951538085942
 21
5.5999999999999943
 31
0.0
  0
LINE
  5
F9
100
AcDbEntity
  8
0
  6
CONTINUOUS
 62
               7
100
AcDbLine
 10
31.046951538085978
 20
2.2000000000000171
 30
0.0
 11
30.598951538085942
 21
2.2000000000000171
 31
0.0
  0
LINE
  5
FA
100
AcDbEntity
  8
0
  6
CONTINUOUS
 62
               7
100
AcDbLine
 10
31.046951538085978
 20
4.4000000000000625
 30
0.0
 11
30.598951538085942
 21
4.4000000000000625
 31
0.0
  0
LINE
  5
FB
100
AcDbEntity
  8
0
  6
CONTINUOUS
 62
               7
100
AcDbLine
 10
31.046951538085978
 20
2.2000000000000171
 30
0.0
 11
31.046951538085978
 21
4.4000000000000625
 31
0.0
  0
LINE
  5
FC
100
AcDbEntity
  8
0
  6
CONTINUOUS
 62
               7
100
AcDbLine
 10
15.498951538085976
 20
5.5999999999999943
 30
0.0
 11
30.598951538085942
 21
5.5999999999999943
 31
0.0
  0
LINE
  5
FD
100
AcDbEntity
  8
0
  6
CONTINUOUS
 62
               7
100
AcDbLine
 10
29.498951538085976
 20
5.6049999999999898
 30
0.0
 11
29.498951538085976
 21
-6.1000000000000085
 31
0.0
  0
LINE
  5
FE
100
AcDbEntity
  8
0
  6
CONTINUOUS
 62
               7
100
AcDbLine
 10
29.498951538085976
 20
-1.4999999999999147
 30
0.0
 11
30.598951538085942
 21
-0.4000000000000057
 31
0.0
  0
ARC
  5
FF
100
AcDbEntity
  8
0
  6
CONTINUOUS
 62
               7
100
AcDbCircle
 10
28.888397569976917
 20
-24.331748731346892
 30
0.0
 40
0.6105564724372721
100
AcDbArc
 50
286.22092756849014
 51
0.1641044967937703
  0
LINE
  5
100
100
AcDbEntity
  8
0
  6
CONTINUOUS
 62
               7
100
AcDbLine
 10
29.498951538085976
 20
-23.79999999999994
 30
0.0
 11
25.978951538085994
 21
-23.79999999999994
 31
0.0
  0
ARC
  5
101
100
AcDbEntity
  8
0
  6
CONTINUOUS
 62
               7
100
AcDbCircle
 10
29.179846674944883
 20
-23.50089513685883
 30
0.0
 40
0.2991062025847394
100
AcDbArc
 50
269.82853033399044
 51
0.1714696660097498
  0
LINE
  5
102
100
AcDbEntity
  8
0
  6
CONTINUOUS
 62
               7
100
AcDbLine
 10
25.978951538085994
 20
-25.599999999999994
 30
0.0
 11
25.978951538085994
 21
-23.79999999999994
 31
0.0
  0
LINE
  5
103
100
AcDbEntity
  8
0
  6
CONTINUOUS
 62
               7
100
AcDbLine
 10
26.058951538085978
 20
-24.329999999999899
 30
0.0
 11
26.058951538085978
 21
-23.79999999999994
 31
0.0
  0
ARC
  5
104
100
AcDbEntity
  8
0
  6
CONTINUOUS
 62
               7
100
AcDbCircle
 10
26.670723533919897
 20
-24.330837282028909
 30
0.0
 40
0.6117725687931934
100
AcDbArc
 50
179.9215840265656
 51
253.6933839081498
  0
ARC
  5
105
100
AcDbEntity
  8
0
  6
CONTINUOUS
 62
               7
100
AcDbCircle
 10
27.778951538085948
 20
-20.512578763265978
 30
0.0
 40
4.5876068132596712
100
AcDbArc
 50
253.7987189241569
 51
286.20128107584202
  0
LINE
  5
106
100
AcDbEntity
  8
0
  6
CENTER
 62
               2
100
AcDbLine
 10
8.5
 20
-11.29999999999994
 30
0.0
 11
1.5
 21
-11.29999999999994
 31
0.0
  0
CIRCLE
  5
107
100
AcDbEntity
  8
0
  6
CONTINUOUS
 62
               2
100
AcDbCircle
 10
4.9933435058593716
 20
-11.29999999999994
 30
0.0
 40
2.5
  0
CIRCLE
  5
108
100
AcDbEntity
  8
0
  6
CONTINUOUS
 62
               7
100
AcDbCircle
 10
4.9933435058593716
 20
-11.29999999999994
 30
0.0
 40
2.0
  0
LINE
  5
109
100
AcDbEntity
  8
0
  6
CENTER
 62
               2
100
AcDbLine
 10
5.0
 20
-7.7999999999999403
 30
0.0
 11
5.0
 21
-14.79999999999994
 31
0.0
  0
LINE
  5
10A
100
AcDbEntity
  8
0
  6
CONTINUOUS
 62
               7
100
AcDbLine
 10
28.498951533131617
 20
-8.8000000000000114
 30
0.0
 11
29.498951538085976
 21
-8.8000000000000114
 31
0.0
  0
LINE
  5
10B
100
AcDbEntity
  8
0
  6
CONTINUOUS
 62
               7
100
AcDbLine
 10
28.498951533131617
 20
-12.000000000000014
 30
0.0
 11
29.498951538085976
 21
-12.000000000000014
 31
0.0
  0
LINE
  5
10C
100
AcDbEntity
  8
0
  6
CONTINUOUS
 62
               7
100
AcDbLine
 10
28.498951538085976
 20
-8.8000000000000114
 30
0.0
 11
28.498951538085976
 21
-12.000000000000014
 31
0.0
  0
LINE
  5
10D
100
AcDbEntity
  8
0
  6
CENTER
 62
               2
100
AcDbLine
 10
5.0
 20
0.2162062056380307
 30
0.0
 11
5.0
 21
17.830000000000069
 31
0.0
  0
LINE
  5
10E
100
AcDbEntity
  8
0
  6
PHANTOM
 62
             200
100
AcDbLine
 10
1.0
 20
2.7000000000000597
 30
0.0
 11
1.0
 21
16.200000000000074
 31
0.0
  0
LINE
  5
10F
100
AcDbEntity
  8
0
  6
PHANTOM
 62
             200
100
AcDbLine
 10
9.0
 20
2.7000000000000597
 30
0.0
 11
9.0
 21
16.200000000000074
 31
0.0
  0
ARC
  5
110
100
AcDbEntity
  8
0
  6
PHANTOM
 62
             200
100
AcDbCircle
 10
1.5
 20
16.200000000000074
 30
0.0
 40
0.5
100
AcDbArc
 50
89.999999999999815
 51
179.99999999999963
  0
ARC
  5
111
100
AcDbEntity
  8
0
  6
PHANTOM
 62
             200
100
AcDbCircle
 10
8.5
 20
16.200000000000074
 30
0.0
 40
0.5
100
AcDbArc
 50
0.0
 51
89.999999999999815
  0
LINE
  5
112
100
AcDbEntity
  8
0
  6
PHANTOM
 62
             200
100
AcDbLine
 10
1.5
 20
16.700000000000074
 30
0.0
 11
8.5
 21
16.700000000000074
 31
0.0
  0
LINE
  5
113
100
AcDbEntity
  8
0
  6
PHANTOM
 62
             200
100
AcDbLine
 10
1.0
 20
14.200000000000074
 30
0.0
 11
9.0
 21
14.200000000000074
 31
0.0
  0
LINE
  5
114
100
AcDbEntity
  8
0
  6
PHANTOM
 62
             200
100
AcDbLine
 10
8.6999999999999886
 20
14.200000000000074
 30
0.0
 11
8.6999999999999886
 21
16.200000000000074
 31
0.0
  0
LINE
  5
115
100
AcDbEntity
  8
0
  6
PHANTOM
 62
             200
100
AcDbLine
 10
8.1999999999999886
 20
14.200000000000074
 30
0.0
 11
8.1999999999999886
 21
16.200000000000074
 31
0.0
  0
LINE
  5
116
100
AcDbEntity
  8
0
  6
PHANTOM
 62
             200
100
AcDbLine
 10
7.5
 20
14.200000000000074
 30
0.0
 11
7.5
 21
16.200000000000074
 31
0.0
  0
LINE
  5
117
100
AcDbEntity
  8
0
  6
PHANTOM
 62
             200
100
AcDbLine
 10
6.5999999999999943
 20
14.200000000000074
 30
0.0
 11
6.5999999999999943
 21
16.200000000000074
 31
0.0
  0
LINE
  5
118
100
AcDbEntity
  8
0
  6
PHANTOM
 62
             200
100
AcDbLine
 10
1.0
 20
16.200000000000074
 30
0.0
 11
9.0
 21
16.200000000000074
 31
0.0
  0
LINE
  5
119
100
AcDbEntity
  8
0
  6
PHANTOM
 62
             200
100
AcDbLine
 10
5.6999999999999886
 20
14.200000000000074
 30
0.0
 11
5.6999999999999886
 21
16.200000000000074
 31
0.0
  0
LINE
  5
11A
100
AcDbEntity
  8
0
  6
PHANTOM
 62
             200
100
AcDbLine
 10
1.3000000000000114
 20
14.200000000000074
 30
0.0
 11
1.3000000000000114
 21
16.200000000000074
 31
0.0
  0
LINE
  5
11B
100
AcDbEntity
  8
0
  6
PHANTOM
 62
             200
100
AcDbLine
 10
1.8000000000000114
 20
14.200000000000074
 30
0.0
 11
1.8000000000000114
 21
16.200000000000074
 31
0.0
  0
LINE
  5
11C
100
AcDbEntity
  8
0
  6
PHANTOM
 62
             200
100
AcDbLine
 10
2.5
 20
14.200000000000074
 30
0.0
 11
2.5
 21
16.200000000000074
 31
0.0
  0
LINE
  5
11D
100
AcDbEntity
  8
0
  6
PHANTOM
 62
             200
100
AcDbLine
 10
4.3000000000000114
 20
14.200000000000074
 30
0.0
 11
4.3000000000000114
 21
16.200000000000074
 31
0.0
  0
LINE
  5
11E
100
AcDbEntity
  8
0
  6
PHANTOM
 62
             200
100
AcDbLine
 10
3.4000000000000057
 20
14.200000000000074
 30
0.0
 11
3.4000000000000057
 21
16.200000000000074
 31
0.0
  0
LINE
  5
11F
100
AcDbEntity
  8
0
  6
CENTER
 62
               2
100
AcDbLine
 10
-2.0
 20
0.0
 30
0.0
 11
2.0
 21
0.0
 31
0.0
  0
LINE
  5
120
100
AcDbEntity
  8
0
  6
CENTER
 62
               2
100
AcDbLine
 10
-2.0
 20
-22.599999999999994
 30
0.0
 11
2.0
 21
-22.599999999999994
 31
0.0
  0
ENDBLK
  5
121
100
AcDbEntity
  8
0
100
AcDbBlockEnd
  0
BLOCK
  5
122
100
AcDbEntity
  8
0
100
AcDbBlockBegin
  2
EB10SA1-3
 70
               0
 10
0.0
 20
0.0
 30
0.0
  3
EB10SA1-3
  1

  0
ARC
  5
123
100
AcDbEntity
  8
0
  6
CONTINUOUS
 62
               4
100
AcDbCircle
 10
-37.000872660783777
 20
25.503476452093622
 30
0.0
 40
0.4029462287748787
100
AcDbArc
 50
190.60882798227351
 51
359.50566908284344
  0
ARC
  5
124
100
AcDbEntity
  8
0
  6
CONTINUOUS
 62
               4
100
AcDbCircle
 10
-37.098938478952618
 20
24.097302043044436
 30
0.0
 40
0.5030505883944908
100
AcDbArc
 50
143.43739164534637
 51
179.69271070880924
  0
ARC
  5
125
100
AcDbEntity
  8
0
  6
CONTINUOUS
 62
               4
100
AcDbCircle
 10
-38.296847656177711
 20
17.402103872708139
 30
0.0
 40
0.3021474965435785
100
AcDbArc
 50
180.97363298451097
 51
269.02636701548704
  0
ARC
  5
126
100
AcDbEntity
  8
0
  6
CONTINUOUS
 62
               4
100
AcDbCircle
 10
-37.002785657364484
 20
24.593708514783785
 30
0.0
 40
0.5002341568128574
100
AcDbArc
 50
89.792236286845238
 51
179.39507124653559
  0
ARC
  5
127
100
AcDbEntity
  8
0
  6
CONTINUOUS
 62
               4
100
AcDbCircle
 10
-36.996984595655057
 20
8.2494844974917925
 30
0.0
 40
0.5060324378497572
100
AcDbArc
 50
180.57067216988423
 51
244.71860809994615
  0
LINE
  5
128
100
AcDbEntity
  8
0
  6
CONTINUOUS
 62
               4
100
AcDbLine
 10
-32.504002037419298
 20
5.5999999999999943
 30
0.0
 11
-32.50400203741912
 21
25.09393938280013
 31
0.0
  0
LINE
  5
129
100
AcDbEntity
  8
0
  6
CONTINUOUS
 62
               4
100
AcDbLine
 10
-32.998951532085741
 20
32.096969688399895
 30
0.0
 11
-32.99895153208579
 21
27.097979792266528
 31
0.0
  0
LINE
  5
12A
100
AcDbEntity
  8
0
  6
CONTINUOUS
 62
               4
100
AcDbLine
 10
-32.504002037419106
 20
27.097979792266514
 30
0.0
 11
-32.50400203741912
 21
25.096969692399895
 31
0.0
  0
LINE
  5
12B
100
AcDbEntity
  8
0
  6
CONTINUOUS
 62
               4
100
AcDbLine
 10
-32.504002037419049
 20
33.099999999999895
 30
0.0
 11
-32.504002037419056
 21
32.096969688399881
 31
0.0
  0
LINE
  5
12C
100
AcDbEntity
  8
0
  6
CONTINUOUS
 62
               4
100
AcDbLine
 10
-35.650466682085721
 20
36.918181815999915
 30
0.0
 11
-35.650466682085757
 21
33.099999999999923
 31
0.0
  0
LINE
  5
12D
100
AcDbEntity
  8
0
  6
CONTINUOUS
 62
             200
100
AcDbLine
 10
-36.498951530085726
 20
36.423232321333302
 30
0.0
 11
-33.500971733819021
 21
38.155555552666613
 31
0.0
  0
LINE
  5
12E
100
AcDbEntity
  8
0
  6
CONTINUOUS
 62
             200
100
AcDbLine
 10
-36.498951530085719
 20
36.76969696759997
 30
0.0
 11
-33.500971733819014
 21
38.502020198933224
 31
0.0
  0
LINE
  5
12F
100
AcDbEntity
  8
0
  6
CONTINUOUS
 62
               4
100
AcDbLine
 10
-35.247436379285595
 20
44.094949488666614
 30
0.0
 11
-35.247436379285631
 21
40.594949490666593
 31
0.0
  0
LINE
  5
130
100
AcDbEntity
  8
0
  6
CONTINUOUS
 62
               4
100
AcDbLine
 10
-34.752486884618911
 20
44.094949488666614
 30
0.0
 11
-34.752486884618946
 21
40.594949490666593
 31
0.0
  0
LINE
  5
131
100
AcDbEntity
  8
0
  6
CONTINUOUS
 62
               4
100
AcDbLine
 10
-34.349456581818998
 20
40.594949490666586
 30
0.0
 11
-35.650466682085693
 21
40.5949494906666
 31
0.0
  0
LINE
  5
132
100
AcDbEntity
  8
0
  6
CONTINUOUS
 62
               4
100
AcDbLine
 10
-34.349456581818998
 20
40.594949490666586
 30
0.0
 11
-34.34945658181902
 21
38.014141411333256
 31
0.0
  0
LINE
  5
133
100
AcDbEntity
  8
0
  6
CONTINUOUS
 62
               4
100
AcDbLine
 10
-35.650466682085693
 20
40.5949494906666
 30
0.0
 11
-35.650466682085721
 21
37.264646462266583
 31
0.0
  0
LINE
  5
134
100
AcDbEntity
  8
0
  6
CONTINUOUS
 62
               4
100
AcDbLine
 10
-34.34945658181902
 20
37.667676765066588
 30
0.0
 11
-34.349456581819062
 21
33.099999999999923
 31
0.0
  0
LINE
  5
135
100
AcDbEntity
  8
0
  6
CONTINUOUS
 62
               4
100
AcDbLine
 10
-37.502991933552558
 20
17.19898989893322
 30
0.0
 11
-37.601981832485833
 21
17.099999999999895
 31
0.0
  0
LINE
  5
136
100
AcDbEntity
  8
0
  6
CONTINUOUS
 62
               4
100
AcDbLine
 10
-37.502991933552551
 20
18.401010100266589
 30
0.0
 11
-37.601981832485819
 21
18.401010100266589
 31
0.0
  0
LINE
  5
137
100
AcDbEntity
  8
0
  6
CONTINUOUS
 62
               4
100
AcDbLine
 10
-37.601981832485833
 20
17.099999999999895
 30
0.0
 11
-38.301981832085815
 21
17.099999999999895
 31
0.0
  0
LINE
  5
138
100
AcDbEntity
  8
0
  6
CONTINUOUS
 62
               4
100
AcDbLine
 10
-38.598951528885763
 20
26.496969691599915
 30
0.0
 11
-38.598951528885841
 21
17.396969696799928
 31
0.0
  0
LINE
  5
139
100
AcDbEntity
  8
0
  6
CONTINUOUS
 62
               4
100
AcDbLine
 10
-36.597941429019087
 20
26.595959590533283
 30
0.0
 11
-36.90198183288576
 21
26.899999994399906
 31
0.0
  0
LINE
  5
13A
100
AcDbEntity
  8
0
  6
CONTINUOUS
 62
               4
100
AcDbLine
 10
-32.504002037419106
 20
27.097979792266514
 30
0.0
 11
-32.99895153208579
 21
27.097979792266528
 31
0.0
  0
LINE
  5
13B
100
AcDbEntity
  8
0
  6
CONTINUOUS
 62
               4
100
AcDbLine
 10
-32.504002037419056
 20
32.096969688399881
 30
0.0
 11
-32.998951532085741
 21
32.096969688399895
 31
0.0
  0
LINE
  5
13C
100
AcDbEntity
  8
0
  6
CONTINUOUS
 62
               4
100
AcDbLine
 10
-36.597941429019023
 20
33.099999999999937
 30
0.0
 11
-36.90198183288571
 21
32.795959596133258
 31
0.0
  0
LINE
  5
13D
100
AcDbEntity
  8
0
  6
CONTINUOUS
 62
               4
100
AcDbLine
 10
-36.90198183288571
 20
32.795959596133258
 30
0.0
 11
-36.90198183288576
 21
26.899999994399906
 31
0.0
  0
LINE
  5
13E
100
AcDbEntity
  8
0
  6
CONTINUOUS
 62
               4
100
AcDbLine
 10
-36.597941429019023
 20
33.099999999999937
 30
0.0
 11
-36.597941429019095
 21
25.499999995199943
 31
0.0
  0
LINE
  5
13F
100
AcDbEntity
  8
0
  6
CONTINUOUS
 62
               4
100
AcDbLine
 10
-37.601981832485762
 20
24.099999995999937
 30
0.0
 11
-37.601981832485819
 21
18.401010100266589
 31
0.0
  0
LINE
  5
140
100
AcDbEntity
  8
0
  6
CONTINUOUS
 62
               4
100
AcDbLine
 10
-37.396931327552458
 20
25.429292924533272
 30
0.0
 11
-38.499961629952445
 21
31.691433312209448
 31
0.0
  0
LINE
  5
141
100
AcDbEntity
  8
0
  6
CONTINUOUS
 62
               4
100
AcDbLine
 10
-38.499961629952431
 20
33.099999999999952
 30
0.0
 11
-39.496931326352332
 21
33.099999999999966
 31
0.0
  0
LINE
  5
142
100
AcDbEntity
  8
0
  6
CONTINUOUS
 62
               4
100
AcDbLine
 10
-38.499961629952431
 20
33.099999999999952
 30
0.0
 11
-38.499961629952445
 21
31.691433312209448
 31
0.0
  0
LINE
  5
143
100
AcDbEntity
  8
0
  6
CONTINUOUS
 62
               4
100
AcDbLine
 10
-38.598951528885763
 20
26.496969691599915
 30
0.0
 11
-39.496931326352346
 21
31.602020193733267
 31
0.0
  0
LINE
  5
144
100
AcDbEntity
  8
0
  6
CONTINUOUS
 62
               4
100
AcDbLine
 10
-39.496931326352332
 20
33.099999999999966
 30
0.0
 11
-39.496931326352346
 21
31.602020193733267
 31
0.0
  0
LINE
  5
145
100
AcDbEntity
  8
0
  6
CONTINUOUS
 62
               4
100
AcDbLine
 10
-35.897941429419042
 20
33.099999999999923
 30
0.0
 11
-35.897941429419113
 21
25.096969692399924
 31
0.0
  0
LINE
  5
146
100
AcDbEntity
  8
0
  6
CONTINUOUS
 62
               4
100
AcDbLine
 10
-34.101981834485663
 20
33.099999999999909
 30
0.0
 11
-34.101981834485734
 21
25.096969692399909
 31
0.0
  0
LINE
  5
147
100
AcDbEntity
  8
0
  6
CONTINUOUS
 62
               4
100
AcDbLine
 10
-32.504002037419049
 20
33.099999999999895
 30
0.0
 11
-36.597941429019023
 21
33.099999999999937
 31
0.0
  0
LINE
  5
148
100
AcDbEntity
  8
0
  6
CONTINUOUS
 62
               4
100
AcDbLine
 10
-32.504002037419298
 20
5.5999999999999943
 30
0.0
 11
-37.213092943819255
 21
7.7919191906667749
 31
0.0
  0
LINE
  5
149
100
AcDbEntity
  8
0
  6
CONTINUOUS
 62
               4
100
AcDbLine
 10
-37.502991933552494
 20
24.598989888133502
 30
0.0
 11
-37.502991933552643
 21
8.2444444429333998
 31
0.0
  0
LINE
  5
14A
100
AcDbEntity
  8
0
  6
CONTINUOUS
 62
               4
100
AcDbLine
 10
-29.498951534085784
 20
25.093939382800102
 30
0.0
 11
-37.000971731819156
 21
25.093939382800173
 31
0.0
  0
LINE
  5
14B
100
AcDbEntity
  8
0
  6
CONTINUOUS
 62
               4
100
AcDbLine
 10
-17.498951538086104
 20
26.500000000000099
 30
0.0
 11
-29.498951534086146
 21
26.5
 31
0.0
  0
LINE
  5
14C
100
AcDbEntity
  8
0
  6
CONTINUOUS
 62
               4
100
AcDbLine
 10
-17.498951538086118
 20
28.100000000000065
 30
0.0
 11
-17.498951538086104
 21
26.500000000000099
 31
0.0
  0
ARC
  5
14D
100
AcDbEntity
  8
0
  6
CONTINUOUS
 62
               4
100
AcDbCircle
 10
-15.998951542086189
 20
27.500000000000114
 30
0.0
 40
0.5
100
AcDbArc
 50
0.0000000000005089
 51
90.000000000000313
  0
ARC
  5
14E
100
AcDbEntity
  8
0
  6
CONTINUOUS
 62
               4
100
AcDbCircle
 10
-28.99895153408616
 20
27.5
 30
0.0
 40
0.5
100
AcDbArc
 50
93.91958589965131
 51
180.00000000000011
  0
ARC
  5
14F
100
AcDbEntity
  8
0
  6
CONTINUOUS
 62
               4
100
AcDbCircle
 10
-28.700039453214373
 20
27.501088005128167
 30
0.0
 40
0.5989129231257409
100
AcDbArc
 50
89.895914524773232
 51
180.10408547522718
  0
ARC
  5
150
100
AcDbEntity
  8
0
  6
CONTINUOUS
 62
               4
100
AcDbCircle
 10
-16.298856481437525
 20
27.500095146648732
 30
0.0
 40
0.5999048008965869
100
AcDbArc
 50
56.247417870394386
 51
90.009087277546683
  0
LINE
  5
151
100
AcDbEntity
  8
0
  6
CONTINUOUS
 62
               4
100
AcDbLine
 10
-16.298951628086144
 20
28.10000000000008
 30
0.0
 11
-28.698951448086206
 21
28.099999999999966
 31
0.0
  0
LINE
  5
152
100
AcDbEntity
  8
0
  6
CONTINUOUS
 62
               4
100
AcDbLine
 10
-15.998951542086189
 20
28.000000000000114
 30
0.0
 11
-17.498951538086118
 21
28.000000000000099
 31
0.0
  0
LINE
  5
153
100
AcDbEntity
  8
0
  6
CONTINUOUS
 62
               4
100
AcDbLine
 10
-26.798951538086186
 20
27.500000000000014
 30
0.0
 11
-29.49895153408616
 21
27.5
 31
0.0
  0
LINE
  5
154
100
AcDbEntity
  8
0
  6
CONTINUOUS
 62
               4
100
AcDbLine
 10
-26.798951538086186
 20
28.09999999999998
 30
0.0
 11
-26.798951538086186
 21
27.500000000000014
 31
0.0
  0
LINE
  5
155
100
AcDbEntity
  8
0
  6
CONTINUOUS
 62
               4
100
AcDbLine
 10
-15.498951538085976
 20
5.5999999999999375
 30
0.0
 11
-32.504002037419298
 21
5.6000000000000796
 31
0.0
  0
LINE
  5
156
100
AcDbEntity
  8
0
  6
CONTINUOUS
 62
               4
100
AcDbLine
 10
-15.498951538085777
 20
27.499999999999943
 30
0.0
 11
-15.498951538085976
 21
5.5999999999999375
 31
0.0
  0
LINE
  5
157
100
AcDbEntity
  8
0
  6
CONTINUOUS
 62
               4
100
AcDbLine
 10
-29.498951538085976
 20
5.6000000000000512
 30
0.0
 11
-29.498951538085777
 21
27.499999994932324
 31
0.0
  0
LINE
  5
158
100
AcDbEntity
  8
0
  6
CONTINUOUS
 62
               4
100
AcDbLine
 10
-34.752486884618911
 20
44.094949488666614
 30
0.0
 11
-35.247436379285595
 21
44.094949488666614
 31
0.0
  0
LINE
  5
159
100
AcDbEntity
  8
0
  6
CENTER
 62
               2
100
AcDbLine
 10
-22.498951538085976
 20
31.262585161280541
 30
0.0
 11
-22.498951538085976
 21
-27.594831691049194
 31
0.0
  0
ARC
  5
15A
100
AcDbEntity
  8
0
  6
CONTINUOUS
 62
               7
100
AcDbCircle
 10
-28.698951538085964
 20
-17.400000000000006
 30
0.0
 40
0.4
100
AcDbArc
 50
179.99999999999963
 51
269.99999999999937
  0
ARC
  5
15B
100
AcDbEntity
  8
0
  6
CONTINUOUS
 62
               7
100
AcDbCircle
 10
-28.698951538085964
 20
-15.200000000000017
 30
0.0
 40
0.4
100
AcDbArc
 50
89.999999999999815
 51
179.99999999999963
  0
LINE
  5
15C
100
AcDbEntity
  8
0
  6
CONTINUOUS
 62
               7
100
AcDbLine
 10
-28.698951538085964
 20
-14.800000000000011
 30
0.0
 11
-28.498951538085976
 21
-14.800000000000011
 31
0.0
  0
LINE
  5
15D
100
AcDbEntity
  8
0
  6
CONTINUOUS
 62
               7
100
AcDbLine
 10
-28.698951538085964
 20
-17.800000000000011
 30
0.0
 11
-28.498951538085976
 21
-17.800000000000011
 31
0.0
  0
LINE
  5
15E
100
AcDbEntity
  8
0
  6
CONTINUOUS
 62
               7
100
AcDbLine
 10
-29.09895153808597
 20
-15.200000000000017
 30
0.0
 11
-29.09895153808597
 21
-17.400000000000006
 31
0.0
  0
ARC
  5
15F
100
AcDbEntity
  8
0
  6
CONTINUOUS
 62
               7
100
AcDbCircle
 10
-17.218951538086003
 20
-20.512578763265978
 30
0.0
 40
4.5876068132596712
100
AcDbArc
 50
253.7987189241569
 51
286.20128107584202
  0
ARC
  5
160
100
AcDbEntity
  8
0
  6
CONTINUOUS
 62
               7
100
AcDbCircle
 10
-18.327179542252054
 20
-24.330837282028909
 30
0.0
 40
0.6117725687931934
100
AcDbArc
 50
179.9215840265656
 51
253.6933839081498
  0
LINE
  5
161
100
AcDbEntity
  8
0
  6
CONTINUOUS
 62
               7
100
AcDbLine
 10
-18.938951538085973
 20
-24.329999999999899
 30
0.0
 11
-18.938951538085973
 21
-23.79999999999994
 31
0.0
  0
LINE
  5
162
100
AcDbEntity
  8
0
  6
CONTINUOUS
 62
               7
100
AcDbLine
 10
-19.018951538085958
 20
-25.599999999999994
 30
0.0
 11
-19.018951538085958
 21
-23.79999999999994
 31
0.0
  0
ARC
  5
163
100
AcDbEntity
  8
0
  6
CONTINUOUS
 62
               7
100
AcDbCircle
 10
-15.818056401227068
 20
-23.50089513685883
 30
0.0
 40
0.2991062025847394
100
AcDbArc
 50
269.82853033399044
 51
0.1714696660097498
  0
LINE
  5
164
100
AcDbEntity
  8
0
  6
CONTINUOUS
 62
               7
100
AcDbLine
 10
-15.498951538085976
 20
-23.79999999999994
 30
0.0
 11
-19.018951538085958
 21
-23.79999999999994
 31
0.0
  0
ARC
  5
165
100
AcDbEntity
  8
0
  6
CONTINUOUS
 62
               7
100
AcDbCircle
 10
-16.109505506195035
 20
-24.331748731346892
 30
0.0
 40
0.6105564724372721
100
AcDbArc
 50
286.22092756849014
 51
0.1641044967937703
  0
LINE
  5
166
100
AcDbEntity
  8
0
  6
CONTINUOUS
 62
               7
100
AcDbLine
 10
-29.498951538085976
 20
-1.4999999999999147
 30
0.0
 11
-30.598951538085942
 21
-0.4000000000000057
 31
0.0
  0
LINE
  5
167
100
AcDbEntity
  8
0
  6
CONTINUOUS
 62
               7
100
AcDbLine
 10
-29.498951538085976
 20
5.5999999999999943
 30
0.0
 11
-29.498951538085976
 21
-6.1000000000000085
 31
0.0
  0
LINE
  5
168
100
AcDbEntity
  8
0
  6
CONTINUOUS
 62
               7
100
AcDbLine
 10
-15.498951538085976
 20
5.5999999999999943
 30
0.0
 11
-30.598951538085942
 21
5.5999999999999943
 31
0.0
  0
LINE
  5
169
100
AcDbEntity
  8
0
  6
CONTINUOUS
 62
               7
100
AcDbLine
 10
-31.046951538085978
 20
2.2000000000000171
 30
0.0
 11
-31.046951538085978
 21
4.4000000000000625
 31
0.0
  0
LINE
  5
16A
100
AcDbEntity
  8
0
  6
CONTINUOUS
 62
               7
100
AcDbLine
 10
-31.046951538085978
 20
4.4000000000000625
 30
0.0
 11
-30.598951538085942
 21
4.4000000000000625
 31
0.0
  0
LINE
  5
16B
100
AcDbEntity
  8
0
  6
CONTINUOUS
 62
               7
100
AcDbLine
 10
-31.046951538085978
 20
2.2000000000000171
 30
0.0
 11
-30.598951538085942
 21
2.2000000000000171
 31
0.0
  0
LINE
  5
16C
100
AcDbEntity
  8
0
  6
CONTINUOUS
 62
               7
100
AcDbLine
 10
-30.598951538085942
 20
-0.4000000000000057
 30
0.0
 11
-30.598951538085942
 21
5.5999999999999943
 31
0.0
  0
ARC
  5
16D
100
AcDbEntity
  8
0
  6
CONTINUOUS
 62
               7
100
AcDbCircle
 10
-29.099924905112573
 20
-25.200973367026535
 30
0.0
 40
0.3990278201647513
100
AcDbArc
 50
179.8602356150773
 51
270.1397643849217
  0
LINE
  5
16E
100
AcDbEntity
  8
0
  6
CONTINUOUS
 62
               7
100
AcDbLine
 10
-29.098951538085942
 20
-25.599999999999994
 30
0.0
 11
-15.898951538085953
 21
-25.599999999999994
 31
0.0
  0
ARC
  5
16F
100
AcDbEntity
  8
0
  6
CONTINUOUS
 62
               7
100
AcDbCircle
 10
-15.897978171059322
 20
-25.200973367026535
 30
0.0
 40
0.3990278201647513
100
AcDbArc
 50
269.8602356150771
 51
0.1397643849223044
  0
LINE
  5
170
100
AcDbEntity
  8
0
  6
CONTINUOUS
 62
               7
100
AcDbLine
 10
-15.498951538085976
 20
-20.600000000000009
 30
0.0
 11
-29.498951524567872
 21
-20.600000000000009
 31
0.0
  0
LINE
  5
171
100
AcDbEntity
  8
0
  6
CONTINUOUS
 62
               7
100
AcDbLine
 10
-15.498951538085976
 20
-6.1000000000000085
 30
0.0
 11
-29.498951524567872
 21
-6.1000000000000085
 31
0.0
  0
LINE
  5
172
100
AcDbEntity
  8
0
  6
CONTINUOUS
 62
               7
100
AcDbLine
 10
-29.498951538085976
 20
-6.1000000000000085
 30
0.0
 11
-29.498951538085976
 21
-25.199999999999903
 31
0.0
  0
LINE
  5
173
100
AcDbEntity
  8
0
  6
CONTINUOUS
 62
               7
100
AcDbLine
 10
0.0
 20
2.7000000000000597
 30
0.0
 11
0.0
 21
-25.299999999999926
 31
0.0
  0
LINE
  5
174
100
AcDbEntity
  8
0
  6
CENTER
 62
               2
100
AcDbLine
 10
-5.0
 20
-14.399999999999963
 30
0.0
 11
-5.0
 21
-20.199999999999918
 31
0.0
  0
LINE
  5
175
100
AcDbEntity
  8
0
  6
CENTER
 62
               2
100
AcDbLine
 10
-12.386000000000024
 20
-8.2999999999999403
 30
0.0
 11
-6.6000000000000227
 21
-8.2999999999999403
 31
0.0
  0
CIRCLE
  5
176
100
AcDbEntity
  8
0
  6
CONTINUOUS
 62
               7
100
AcDbCircle
 10
-9.4989515380859757
 20
-8.300817382812383
 30
0.0
 40
2.0669994354248047
  0
CIRCLE
  5
177
100
AcDbEntity
  8
0
  6
CONTINUOUS
 62
               2
100
AcDbCircle
 10
-9.4989515380859757
 20
-8.300817382812383
 30
0.0
 40
2.5
  0
CIRCLE
  5
178
100
AcDbEntity
  8
0
  6
CONTINUOUS
 62
               2
100
AcDbCircle
 10
-4.9989515380859757
 20
-17.300817382812383
 30
0.0
 40
2.5
  0
CIRCLE
  5
179
100
AcDbEntity
  8
0
  6
CONTINUOUS
 62
               7
100
AcDbCircle
 10
-4.9989515380859757
 20
-17.300817382812383
 30
0.0
 40
2.0669994354248047
  0
LINE
  5
17A
100
AcDbEntity
  8
0
  6
CENTER
 62
               2
100
AcDbLine
 10
-9.5
 20
-5.3999999999999631
 30
0.0
 11
-9.5
 21
-11.199999999999918
 31
0.0
  0
LINE
  5
17B
100
AcDbEntity
  8
0
  6
CENTER
 62
               2
100
AcDbLine
 10
-7.8860000000000241
 20
-17.29999999999994
 30
0.0
 11
-2.1000000000000227
 21
-17.29999999999994
 31
0.0
  0
LINE
  5
17C
100
AcDbEntity
  8
0
  6
CONTINUOUS
 62
               7
100
AcDbLine
 10
-14.5
 20
-25.299999999999926
 30
0.0
 11
0.0
 21
-25.299999999999926
 31
0.0
  0
LINE
  5
17D
100
AcDbEntity
  8
0
  6
CONTINUOUS
 62
               7
100
AcDbLine
 10
-14.5
 20
-25.299999999999926
 30
0.0
 11
-14.5
 21
2.7000000000000597
 31
0.0
  0
LINE
  5
17E
100
AcDbEntity
  8
0
  6
CONTINUOUS
 62
               7
100
AcDbLine
 10
-14.5
 20
2.7000000000000597
 30
0.0
 11
0.0
 21
2.7000000000000597
 31
0.0
  0
LINE
  5
17F
100
AcDbEntity
  8
0
  6
CONTINUOUS
 62
               7
100
AcDbLine
 10
-14.498951538085976
 20
0.099176513671992
 30
0.0
 11
-14.498951538085976
 21
-4.7008234863280762
 31
0.0
  0
LINE
  5
180
100
AcDbEntity
  8
0
  6
CONTINUOUS
 62
               7
100
AcDbLine
 10
-15.498951538085976
 20
0.099176513671992
 30
0.0
 11
-14.498951538085976
 21
0.099176513671992
 31
0.0
  0
LINE
  5
181
100
AcDbEntity
  8
0
  6
CONTINUOUS
 62
               7
100
AcDbLine
 10
-15.498951538085976
 20
-24.700823486328062
 30
0.0
 11
-14.498951538085976
 21
-24.700823486328062
 31
0.0
  0
LINE
  5
182
100
AcDbEntity
  8
0
  6
CONTINUOUS
 62
               7
100
AcDbLine
 10
-14.498951538085976
 20
-5.7008234863280762
 30
0.0
 11
-14.498951538085976
 21
-24.700823486328062
 31
0.0
  0
LINE
  5
183
100
AcDbEntity
  8
0
  6
CONTINUOUS
 62
               7
100
AcDbLine
 10
-15.498951538085976
 20
5.5999999999999943
 30
0.0
 11
-15.498951538085976
 21
-25.199999999999903
 31
0.0
  0
LINE
  5
184
100
AcDbEntity
  8
0
  6
CONTINUOUS
 62
               7
100
AcDbLine
 10
-29.498951543040334
 20
-14.700000000000017
 30
0.0
 11
-28.498951543040334
 21
-14.700000000000017
 31
0.0
  0
LINE
  5
185
100
AcDbEntity
  8
0
  6
CONTINUOUS
 62
               7
100
AcDbLine
 10
-29.498951543040334
 20
-17.900000000000006
 30
0.0
 11
-28.498951543040334
 21
-17.900000000000006
 31
0.0
  0
LINE
  5
186
100
AcDbEntity
  8
0
  6
CONTINUOUS
 62
               7
100
AcDbLine
 10
-28.498951538085976
 20
-14.700000000000017
 30
0.0
 11
-28.498951538085976
 21
-17.900000000000006
 31
0.0
  0
LINE
  5
187
100
AcDbEntity
  8
0
  6
CENTER
 62
               2
100
AcDbLine
 10
-2.0
 20
0.0
 30
0.0
 11
2.0
 21
0.0
 31
0.0
  0
LINE
  5
188
100
AcDbEntity
  8
0
  6
CENTER
 62
               2
100
AcDbLine
 10
-2.0
 20
-22.599999999999994
 30
0.0
 11
2.0
 21
-22.599999999999994
 31
0.0
  0
ENDBLK
  5
189
100
AcDbEntity
  8
0
100
AcDbBlockEnd
  0
BLOCK
  5
18A
100
AcDbEntity
  8
0
100
AcDbBlockBegin
  2
EB10SA1-4
 70
               0
 10
0.0
 20
0.0
 30
0.0
  3
EB10SA1-4
  1

  0
LINE
  5
18B
100
AcDbEntity
  8
0
  6
CENTER
 62
               2
100
AcDbLine
 10
-8.3000000381469761
 20
-41.868847660587242
 30
0.0
 11
-8.3000000381469761
 21
-12.593165433681875
 31
0.0
  0
LINE
  5
18C
100
AcDbEntity
  8
0
  6
CONTINUOUS
 62
               4
100
AcDbLine
 10
-6.5000000381469647
 20
-29.500000000000014
 30
0.0
 11
-6.5000000381469647
 21
-27.799999999999997
 31
0.0
  0
LINE
  5
18D
100
AcDbEntity
  8
0
  6
CONTINUOUS
 62
               4
100
AcDbLine
 10
-10.100000038146987
 20
-17.200000000000031
 30
0.0
 11
-10.100000038146987
 21
-15.500000000000014
 31
0.0
  0
LINE
  5
18E
100
AcDbEntity
  8
0
  6
CENTER
 62
               2
100
AcDbLine
 10
-14.200000038146982
 20
-22.500000000000014
 30
0.0
 11
-2.3680000381469881
 21
-22.500000000000014
 31
0.0
  0
LINE
  5
18F
100
AcDbEntity
  8
0
  6
CONTINUOUS
 62
               4
100
AcDbLine
 10
-13.300000038146976
 20
-15.500000000000014
 30
0.0
 11
-3.3000000381469761
 21
-15.500000000000014
 31
0.0
  0
LINE
  5
190
100
AcDbEntity
  8
0
  6
CONTINUOUS
 62
               4
100
AcDbLine
 10
-13.300000038146976
 20
-29.500000000000014
 30
0.0
 11
-3.3000000381469761
 21
-29.500000000000014
 31
0.0
  0
LINE
  5
191
100
AcDbEntity
  8
0
  6
CONTINUOUS
 62
               4
100
AcDbLine
 10
-3.3000000381469761
 20
-29.500000000000014
 30
0.0
 11
-3.3000000381469761
 21
-15.500000000000014
 31
0.0
  0
LINE
  5
192
100
AcDbEntity
  8
0
  6
CONTINUOUS
 62
               4
100
AcDbLine
 10
-13.300000038146976
 20
-29.500000000000014
 30
0.0
 11
-13.300000038146976
 21
-15.500000000000014
 31
0.0
  0
LINE
  5
193
100
AcDbEntity
  8
0
  6
CONTINUOUS
 62
               4
100
AcDbLine
 10
-9.8000000381469761
 20
-17.500000000000014
 30
0.0
 11
-3.3000000381469761
 21
-17.500000000000014
 31
0.0
  0
LINE
  5
194
100
AcDbEntity
  8
0
  6
CONTINUOUS
 62
               4
100
AcDbLine
 10
-13.300000038146976
 20
-27.500000000000014
 30
0.0
 11
-6.8000000381469761
 21
-27.500000000000014
 31
0.0
  0
LINE
  5
195
100
AcDbEntity
  8
0
  6
CONTINUOUS
 62
               4
100
AcDbLine
 10
-6.5000000381469647
 20
-28.500000000000014
 30
0.0
 11
-6.8000000381469761
 21
-27.500000000000014
 31
0.0
  0
LINE
  5
196
100
AcDbEntity
  8
0
  6
CONTINUOUS
 62
               4
100
AcDbLine
 10
-10.100000038146987
 20
-16.500000000000014
 30
0.0
 11
-9.8000000381469761
 21
-17.500000000000014
 31
0.0
  0
LINE
  5
197
100
AcDbEntity
  8
0
  6
CENTER
 62
             200
100
AcDbLine
 10
-7.0000000381469647
 20
-27.799999999999997
 30
0.0
 11
-2.975000038146959
 21
-27.799999999999997
 31
0.0
  0
LINE
  5
198
100
AcDbEntity
  8
0
  6
CENTER
 62
             200
100
AcDbLine
 10
-5.0000000381469647
 20
-29.835000000000022
 30
0.0
 11
-5.0000000381469647
 21
-25.340000000000018
 31
0.0
  0
ARC
  5
199
100
AcDbEntity
  8
0
  6
CONTINUOUS
 62
               4
100
AcDbCircle
 10
-10.40000003814697
 20
-15.799999999999997
 30
0.0
 40
0.3
100
AcDbArc
 50
0.0
 51
89.999999999999815
  0
ARC
  5
19A
100
AcDbEntity
  8
0
  6
CONTINUOUS
 62
               4
100
AcDbCircle
 10
-3.600000038146959
 20
-17.799999999999997
 30
0.0
 40
0.3
100
AcDbArc
 50
0.0
 51
89.999999999999815
  0
ARC
  5
19B
100
AcDbEntity
  8
0
  6
CONTINUOUS
 62
               4
100
AcDbCircle
 10
-13.000000038146993
 20
-27.200000000000031
 30
0.0
 40
0.3
100
AcDbArc
 50
179.99999999999963
 51
269.99999999999937
  0
ARC
  5
19C
100
AcDbEntity
  8
0
  6
CONTINUOUS
 62
               4
100
AcDbCircle
 10
-6.2000000381469818
 20
-29.200000000000031
 30
0.0
 40
0.3
100
AcDbArc
 50
179.99999999999963
 51
269.99999999999937
  0
ARC
  5
19D
100
AcDbEntity
  8
0
  6
CONTINUOUS
 62
               4
100
AcDbCircle
 10
-9.8000000381469761
 20
-17.200000000000031
 30
0.0
 40
0.3
100
AcDbArc
 50
179.99999999999963
 51
269.99999999999937
  0
ARC
  5
19E
100
AcDbEntity
  8
0
  6
CONTINUOUS
 62
               4
100
AcDbCircle
 10
-6.8000000381469761
 20
-27.799999999999997
 30
0.0
 40
0.3
100
AcDbArc
 50
0.0
 51
89.999999999999815
  0
LINE
  5
19F
100
AcDbEntity
  8
0
  6
CENTER
 62
             200
100
AcDbLine
 10
-9.6000000381469874
 20
-17.200000000000031
 30
0.0
 11
-13.625000038146993
 21
-17.200000000000031
 31
0.0
  0
LINE
  5
1A0
100
AcDbEntity
  8
0
  6
CENTER
 62
             200
100
AcDbLine
 10
-11.600000038146987
 20
-15.165000000000006
 30
0.0
 11
-11.600000038146987
 21
-19.660000000000011
 31
0.0
  0
ARC
  5
1A1
100
AcDbEntity
  8
0
  6
CONTINUOUS
 62
               4
100
AcDbCircle
 10
-5.0000000381469647
 20
-27.799999999999997
 30
0.0
 40
2.0
100
AcDbArc
 50
89.999999999999815
 51
171.37307344132105
  0
LINE
  5
1A2
100
AcDbEntity
  8
0
  6
CONTINUOUS
 62
               4
100
AcDbLine
 10
-5.0000000381469647
 20
-25.799999999999997
 30
0.0
 11
-3.3000000381469761
 21
-25.799999999999997
 31
0.0
  0
ARC
  5
1A3
100
AcDbEntity
  8
0
  6
CONTINUOUS
 62
               4
100
AcDbCircle
 10
-11.600000038146987
 20
-17.200000000000031
 30
0.0
 40
2.0
100
AcDbArc
 50
269.99999999999937
 51
351.37307344132068
  0
LINE
  5
1A4
100
AcDbEntity
  8
0
  6
CONTINUOUS
 62
               4
100
AcDbLine
 10
-11.600000038146987
 20
-19.200000000000031
 30
0.0
 11
-13.300000038146976
 21
-19.200000000000031
 31
0.0
  0
ARC
  5
1A5
100
AcDbEntity
  8
0
  6
CONTINUOUS
 62
               4
100
AcDbCircle
 10
-4.1969036751607689
 20
-37.001177321962885
 30
0.0
 40
0.4988322880366464
100
AcDbArc
 50
269.64435006619999
 51
354.96003866716563
  0
ARC
  5
1A6
100
AcDbEntity
  8
0
  6
CONTINUOUS
 62
               4
100
AcDbCircle
 10
-12.405835261092705
 20
-36.998692552687643
 30
0.0
 40
0.5013081430898849
100
AcDbArc
 50
185.30015147300637
 51
270.09545979362559
  0
LINE
  5
1A7
100
AcDbEntity
  8
0
  6
CONTINUOUS
 62
               4
100
AcDbLine
 10
-11.15000003814697
 20
-34.000000000000014
 30
0.0
 11
-11.15000003814697
 21
-32.500000000000014
 31
0.0
  0
LINE
  5
1A8
100
AcDbEntity
  8
0
  6
CONTINUOUS
 62
               4
100
AcDbLine
 10
-5.4500000381469818
 20
-34.000000000000014
 30
0.0
 11
-5.4500000381469818
 21
-32.500000000000014
 31
0.0
  0
LINE
  5
1A9
100
AcDbEntity
  8
0
  6
CONTINUOUS
 62
               4
100
AcDbLine
 10
-5.4500000381469818
 20
-36.000000000000014
 30
0.0
 11
-4.4500000381469818
 21
-36.000000000000014
 31
0.0
  0
LINE
  5
1AA
100
AcDbEntity
  8
0
  6
CONTINUOUS
 62
               4
100
AcDbLine
 10
-5.4500000381469818
 20
-34.000000000000014
 30
0.0
 11
-4.4500000381469818
 21
-34.000000000000014
 31
0.0
  0
LINE
  5
1AB
100
AcDbEntity
  8
0
  6
CONTINUOUS
 62
               4
100
AcDbLine
 10
-4.4500000381469818
 20
-36.000000000000014
 30
0.0
 11
-4.4500000381469818
 21
-34.000000000000014
 31
0.0
  0
LINE
  5
1AC
100
AcDbEntity
  8
0
  6
CONTINUOUS
 62
               4
100
AcDbLine
 10
-12.15000003814697
 20
-36.000000000000014
 30
0.0
 11
-12.15000003814697
 21
-34.000000000000014
 31
0.0
  0
LINE
  5
1AD
100
AcDbEntity
  8
0
  6
CONTINUOUS
 62
               4
100
AcDbLine
 10
-5.4500000381469818
 20
-37.500000000000014
 30
0.0
 11
-5.4500000381469818
 21
-36.000000000000014
 31
0.0
  0
LINE
  5
1AE
100
AcDbEntity
  8
0
  6
CONTINUOUS
 62
               4
100
AcDbLine
 10
-11.15000003814697
 20
-37.500000000000014
 30
0.0
 11
-11.15000003814697
 21
-36.000000000000014
 31
0.0
  0
LINE
  5
1AF
100
AcDbEntity
  8
0
  6
CONTINUOUS
 62
               4
100
AcDbLine
 10
-11.15000003814697
 20
-32.500000000000014
 30
0.0
 11
-5.4500000381469818
 21
-32.500000000000014
 31
0.0
  0
LINE
  5
1B0
100
AcDbEntity
  8
0
  6
CONTINUOUS
 62
               4
100
AcDbLine
 10
-12.15000003814697
 20
-34.000000000000014
 30
0.0
 11
-11.15000003814697
 21
-34.000000000000014
 31
0.0
  0
LINE
  5
1B1
100
AcDbEntity
  8
0
  6
CONTINUOUS
 62
               4
100
AcDbLine
 10
-12.15000003814697
 20
-36.000000000000014
 30
0.0
 11
-11.15000003814697
 21
-36.000000000000014
 31
0.0
  0
LINE
  5
1B2
100
AcDbEntity
  8
0
  6
CONTINUOUS
 62
               4
100
AcDbLine
 10
-3.3000000381469761
 20
-32.500000000000014
 30
0.0
 11
-3.7000000381469818
 21
-37.045000000000002
 31
0.0
  0
LINE
  5
1B3
100
AcDbEntity
  8
0
  6
CONTINUOUS
 62
               4
100
AcDbLine
 10
-13.300000038146976
 20
-32.500000000000014
 30
0.0
 11
-12.905000038146966
 21
-37.045000000000002
 31
0.0
  0
LINE
  5
1B4
100
AcDbEntity
  8
0
  6
CONTINUOUS
 62
               4
100
AcDbLine
 10
-12.405000038146966
 20
-37.500000000000014
 30
0.0
 11
-11.050000038146948
 21
-37.500000000000014
 31
0.0
  0
LINE
  5
1B5
100
AcDbEntity
  8
0
  6
CONTINUOUS
 62
               4
100
AcDbLine
 10
-3.3000000381469761
 20
-32.500000000000014
 30
0.0
 11
-3.3000000381469761
 21
-29.500000000000014
 31
0.0
  0
LINE
  5
1B6
100
AcDbEntity
  8
0
  6
CONTINUOUS
 62
               4
100
AcDbLine
 10
-13.300000038146976
 20
-32.500000000000014
 30
0.0
 11
-13.300000038146976
 21
-29.500000000000014
 31
0.0
  0
LINE
  5
1B7
100
AcDbEntity
  8
0
  6
CONTINUOUS
 62
               4
100
AcDbLine
 10
-11.050000038146948
 20
-39.497979788266591
 30
0.0
 11
-11.050000038146948
 21
-35.899999999999991
 31
0.0
  0
LINE
  5
1B8
100
AcDbEntity
  8
0
  6
CONTINUOUS
 62
               4
100
AcDbLine
 10
-5.5500000381469476
 20
-37.600000000000009
 30
0.0
 11
-11.050000038146948
 21
-37.600000000000009
 31
0.0
  0
LINE
  5
1B9
100
AcDbEntity
  8
0
  6
CONTINUOUS
 62
               4
100
AcDbLine
 10
-5.5500000381469476
 20
-32.600000000000009
 30
0.0
 11
-11.050000038146948
 21
-32.600000000000009
 31
0.0
  0
LINE
  5
1BA
100
AcDbEntity
  8
0
  6
CONTINUOUS
 62
               4
100
AcDbLine
 10
-8.600000038146959
 20
-36.250000000000014
 30
0.0
 11
-8.600000038146959
 21
-34.149999999999991
 31
0.0
  0
LINE
  5
1BB
100
AcDbEntity
  8
0
  6
CONTINUOUS
 62
               4
100
AcDbLine
 10
-9.0500000381469476
 20
-34.149999999999991
 30
0.0
 11
-9.0500000381469476
 21
-33.850000000000009
 31
0.0
  0
LINE
  5
1BC
100
AcDbEntity
  8
0
  6
CONTINUOUS
 62
               4
100
AcDbLine
 10
-12.050000038146948
 20
-34.100000000000009
 30
0.0
 11
-12.050000038146948
 21
-35.899999999999991
 31
0.0
  0
LINE
  5
1BD
100
AcDbEntity
  8
0
  6
CONTINUOUS
 62
               4
100
AcDbLine
 10
-10.500000038146936
 20
-36.250000000000014
 30
0.0
 11
-10.500000038146936
 21
-34.149999999999991
 31
0.0
  0
LINE
  5
1BE
100
AcDbEntity
  8
0
  6
CONTINUOUS
 62
               4
100
AcDbLine
 10
-11.050000038146948
 20
-36.559999999999988
 30
0.0
 11
-10.706969743347003
 21
-36.903030294799962
 31
0.0
  0
LINE
  5
1BF
100
AcDbEntity
  8
0
  6
CONTINUOUS
 62
               4
100
AcDbLine
 10
-10.050000038146948
 20
-34.149999999999991
 30
0.0
 11
-10.050000038146948
 21
-33.850000000000009
 31
0.0
  0
LINE
  5
1C0
100
AcDbEntity
  8
0
  6
CONTINUOUS
 62
               4
100
AcDbLine
 10
-11.050000038146948
 20
-34.100000000000009
 30
0.0
 11
-11.050000038146948
 21
-32.600000000000009
 31
0.0
  0
LINE
  5
1C1
100
AcDbEntity
  8
0
  6
CONTINUOUS
 62
               4
100
AcDbLine
 10
-9.0500000381469476
 20
-33.850000000000009
 30
0.0
 11
-10.050000038146948
 21
-33.850000000000009
 31
0.0
  0
LINE
  5
1C2
100
AcDbEntity
  8
0
  6
CONTINUOUS
 62
               4
100
AcDbLine
 10
-11.050000038146948
 20
-34.100000000000009
 30
0.0
 11
-12.050000038146948
 21
-34.100000000000009
 31
0.0
  0
LINE
  5
1C3
100
AcDbEntity
  8
0
  6
CONTINUOUS
 62
               4
100
AcDbLine
 10
-11.050000038146948
 20
-35.899999999999991
 30
0.0
 11
-12.050000038146948
 21
-35.899999999999991
 31
0.0
  0
LINE
  5
1C4
100
AcDbEntity
  8
0
  6
CONTINUOUS
 62
               4
100
AcDbLine
 10
-8.600000038146959
 20
-36.049999999999997
 30
0.0
 11
-10.500000038146936
 21
-36.049999999999997
 31
0.0
  0
LINE
  5
1C5
100
AcDbEntity
  8
0
  6
CONTINUOUS
 62
               4
100
AcDbLine
 10
-8.600000038146959
 20
-34.149999999999991
 30
0.0
 11
-10.500000038146936
 21
-34.149999999999991
 31
0.0
  0
LINE
  5
1C6
100
AcDbEntity
  8
0
  6
CONTINUOUS
 62
               4
100
AcDbLine
 10
-8.600000038146959
 20
-36.250000000000014
 30
0.0
 11
-10.500000038146936
 21
-36.250000000000014
 31
0.0
  0
CIRCLE
  5
1C7
100
AcDbEntity
  8
0
  6
CONTINUOUS
 62
               4
100
AcDbCircle
 10
-9.5500000381469476
 20
-35.099984741210946
 30
0.0
 40
0.8499675393104553
  0
LINE
  5
1C8
100
AcDbEntity
  8
0
  6
CONTINUOUS
 62
               4
100
AcDbLine
 10
-5.5500000381469476
 20
-39.497979788266591
 30
0.0
 11
-11.050000038146948
 21
-39.497979788266591
 31
0.0
  0
LINE
  5
1C9
100
AcDbEntity
  8
0
  6
CONTINUOUS
 62
               4
100
AcDbLine
 10
-5.5500000381469476
 20
-39.497979788266591
 30
0.0
 11
-5.5500000381469476
 21
-35.899999999999991
 31
0.0
  0
LINE
  5
1CA
100
AcDbEntity
  8
0
  6
CONTINUOUS
 62
               4
100
AcDbLine
 10
-6.100000038146959
 20
-34.149999999999991
 30
0.0
 11
-8.0000000381469363
 21
-34.149999999999991
 31
0.0
  0
LINE
  5
1CB
100
AcDbEntity
  8
0
  6
CONTINUOUS
 62
               4
100
AcDbLine
 10
-6.5500000381469476
 20
-33.850000000000009
 30
0.0
 11
-7.5500000381469476
 21
-33.850000000000009
 31
0.0
  0
LINE
  5
1CC
100
AcDbEntity
  8
0
  6
CONTINUOUS
 62
               4
100
AcDbLine
 10
-4.5500000381469476
 20
-34.100000000000009
 30
0.0
 11
-5.5500000381469476
 21
-34.100000000000009
 31
0.0
  0
LINE
  5
1CD
100
AcDbEntity
  8
0
  6
CONTINUOUS
 62
               4
100
AcDbLine
 10
-6.100000038146959
 20
-36.250000000000014
 30
0.0
 11
-6.100000038146959
 21
-34.149999999999991
 31
0.0
  0
CIRCLE
  5
1CE
100
AcDbEntity
  8
0
  6
CONTINUOUS
 62
               4
100
AcDbCircle
 10
-7.0500000381469476
 20
-35.099984741210946
 30
0.0
 40
0.8499675393104553
  0
LINE
  5
1CF
100
AcDbEntity
  8
0
  6
CONTINUOUS
 62
               4
100
AcDbLine
 10
-6.5500000381469476
 20
-34.149999999999991
 30
0.0
 11
-6.5500000381469476
 21
-33.850000000000009
 31
0.0
  0
LINE
  5
1D0
100
AcDbEntity
  8
0
  6
CONTINUOUS
 62
               4
100
AcDbLine
 10
-5.5500000381469476
 20
-34.100000000000009
 30
0.0
 11
-5.5500000381469476
 21
-32.600000000000009
 31
0.0
  0
LINE
  5
1D1
100
AcDbEntity
  8
0
  6
CONTINUOUS
 62
               4
100
AcDbLine
 10
-4.5500000381469476
 20
-35.899999999999991
 30
0.0
 11
-5.5500000381469476
 21
-35.899999999999991
 31
0.0
  0
LINE
  5
1D2
100
AcDbEntity
  8
0
  6
CONTINUOUS
 62
               4
100
AcDbLine
 10
-4.5500000381469476
 20
-34.100000000000009
 30
0.0
 11
-4.5500000381469476
 21
-35.899999999999991
 31
0.0
  0
LINE
  5
1D3
100
AcDbEntity
  8
0
  6
CONTINUOUS
 62
               4
100
AcDbLine
 10
-5.5500000381469476
 20
-36.560000000000016
 30
0.0
 11
-5.8829412066292548
 21
-36.903030294799962
 31
0.0
  0
LINE
  5
1D4
100
AcDbEntity
  8
0
  6
CONTINUOUS
 62
               4
100
AcDbLine
 10
-8.0000000381469363
 20
-36.250000000000014
 30
0.0
 11
-8.0000000381469363
 21
-34.149999999999991
 31
0.0
  0
LINE
  5
1D5
100
AcDbEntity
  8
0
  6
CONTINUOUS
 62
               4
100
AcDbLine
 10
-7.5500000381469476
 20
-34.149999999999991
 30
0.0
 11
-7.5500000381469476
 21
-33.850000000000009
 31
0.0
  0
LINE
  5
1D6
100
AcDbEntity
  8
0
  6
CONTINUOUS
 62
               4
100
AcDbLine
 10
-6.100000038146959
 20
-36.250000000000014
 30
0.0
 11
-8.0000000381469363
 21
-36.250000000000014
 31
0.0
  0
LINE
  5
1D7
100
AcDbEntity
  8
0
  6
CONTINUOUS
 62
               4
100
AcDbLine
 10
-6.100000038146959
 20
-36.049999999999997
 30
0.0
 11
-8.0000000381469363
 21
-36.049999999999997
 31
0.0
  0
LINE
  5
1D8
100
AcDbEntity
  8
0
  6
CONTINUOUS
 62
               4
100
AcDbLine
 10
-5.5500000381469476
 20
-37.500000000000014
 30
0.0
 11
-4.2000000381469818
 21
-37.500000000000014
 31
0.0
  0
LINE
  5
1D9
100
AcDbEntity
  8
0
  6
CONTINUOUS
 62
               4
100
AcDbLine
 10
-11.050000038146948
 20
-38.501010091866689
 30
0.0
 11
-5.5500000381469476
 21
-38.501010091866689
 31
0.0
  0
LINE
  5
1DA
100
AcDbEntity
  8
0
  6
CONTINUOUS
 62
               4
100
AcDbLine
 10
-10.706969752462044
 20
-36.903030294799962
 30
0.0
 11
-5.882941200883522
 21
-36.903030294799962
 31
0.0
  0
LINE
  5
1DB
100
AcDbEntity
  8
0
  6
CONTINUOUS
 62
               4
100
AcDbLine
 10
-11.011010124833717
 20
-36.598989890933282
 30
0.0
 11
-5.5878431675821787
 21
-36.598989890933282
 31
0.0
  0
LINE
  5
1DC
100
AcDbEntity
  8
0
  6
CONTINUOUS
 62
               4
100
AcDbLine
 10
-12.235000038146978
 20
-17.835000000000022
 30
0.0
 11
-10.965000038146997
 21
-16.564999999999984
 31
0.0
  0
LINE
  5
1DD
100
AcDbEntity
  8
0
  6
CONTINUOUS
 62
               4
100
AcDbLine
 10
-10.965000038146997
 20
-17.835000000000022
 30
0.0
 11
-12.235000038146978
 21
-16.564999999999984
 31
0.0
  0
CIRCLE
  5
1DE
100
AcDbEntity
  8
0
  6
CONTINUOUS
 62
               4
100
AcDbCircle
 10
-11.600000038146987
 20
-17.200000000000031
 30
0.0
 40
1.5
  0
LINE
  5
1DF
100
AcDbEntity
  8
0
  6
CONTINUOUS
 62
               4
100
AcDbLine
 10
-5.6350000381469556
 20
-28.435000000000045
 30
0.0
 11
-4.3650000381469738
 21
-27.165000000000006
 31
0.0
  0
LINE
  5
1E0
100
AcDbEntity
  8
0
  6
CONTINUOUS
 62
               4
100
AcDbLine
 10
-4.3650000381469738
 20
-28.435000000000045
 30
0.0
 11
-5.6350000381469556
 21
-27.165000000000006
 31
0.0
  0
CIRCLE
  5
1E1
100
AcDbEntity
  8
0
  6
CONTINUOUS
 62
               4
100
AcDbCircle
 10
-5.0000000381469647
 20
-27.799999999999997
 30
0.0
 40
1.5
  0
LINE
  5
1E2
100
AcDbEntity
  8
0
  6
CONTINUOUS
 62
               7
100
AcDbLine
 10
-13.303295036165565
 20
-15.500001951045888
 30
0.0
 11
-13.303295036165565
 21
-14.500000000000014
 31
0.0
  0
LINE
  5
1E3
100
AcDbEntity
  8
0
  6
CONTINUOUS
 62
               7
100
AcDbLine
 10
-3.3032950361662969
 20
-15.500001951045888
 30
0.0
 11
-3.3032950361662969
 21
-14.500000000000014
 31
0.0
  0
CIRCLE
  5
1E4
100
AcDbEntity
  8
0
  6
CONTINUOUS
 62
               7
100
AcDbCircle
 10
-8.2999999999999972
 20
-5.0
 30
0.0
 40
2.1000000000000001
  0
CIRCLE
  5
1E5
100
AcDbEntity
  8
0
  6
CONTINUOUS
 62
               2
100
AcDbCircle
 10
-8.2999999999999972
 20
-5.0
 30
0.0
 40
2.5
  0
LINE
  5
1E6
100
AcDbEntity
  8
0
  6
CENTER
 62
               2
100
AcDbLine
 10
-12.299999999999997
 20
-5.0
 30
0.0
 11
-4.2999999999999972
 21
-5.0
 31
0.0
  0
LINE
  5
1E7
100
AcDbEntity
  8
0
  6
CENTER
 62
               2
100
AcDbLine
 10
-8.2999999999999972
 20
-9.0
 30
0.0
 11
-8.2999999999999972
 21
-1.0
 31
0.0
  0
LINE
  5
1E8
100
AcDbEntity
  8
0
  6
CONTINUOUS
 62
               7
100
AcDbLine
 10
-14.29999998349669
 20
-14.500000000000014
 30
0.0
 11
2.70000001650331
 21
-14.500000000000014
 31
0.0
  0
LINE
  5
1E9
100
AcDbEntity
  8
0
  6
CONTINUOUS
 62
               7
100
AcDbLine
 10
-14.29999998349669
 20
0.0
 30
0.0
 11
2.7000000000000028
 21
0.0
 31
0.0
  0
LINE
  5
1EA
100
AcDbEntity
  8
0
  6
CONTINUOUS
 62
               7
100
AcDbLine
 10
2.7000000000000028
 20
-14.500000028081573
 30
0.0
 11
2.7000000000000028
 21
-0.0000000280815584
 31
0.0
  0
LINE
  5
1EB
100
AcDbEntity
  8
0
  6
CONTINUOUS
 62
               7
100
AcDbLine
 10
-14.299999999999997
 20
-14.500000028081573
 30
0.0
 11
-14.299999999999997
 21
-0.0000000280815584
 31
0.0
  0
LINE
  5
1EC
100
AcDbEntity
  8
0
  6
CENTER
 62
               2
100
AcDbLine
 10
0.0
 20
-2.0
 30
0.0
 11
0.0
 21
2.0
 31
0.0
  0
ENDBLK
  5
1ED
100
AcDbEntity
  8
0
100
AcDbBlockEnd
  0
BLOCK
  5
1EE
100
AcDbEntity
  8
0
100
AcDbBlockBegin
  2
EB10SA1-5
 70
               0
 10
0.0
 20
0.0
 30
0.0
  3
EB10SA1-5
  1

  0
ARC
  5
1EF
100
AcDbEntity
  8
0
  6
CONTINUOUS
 62
               4
100
AcDbCircle
 10
-4.0311974626366975
 20
8.3041887528383143
 30
0.0
 40
0.5011988548874781
100
AcDbArc
 50
270.1368866551544
 51
359.86311334484418
  0
ARC
  5
1F0
100
AcDbEntity
  8
0
  6
CONTINUOUS
 62
               4
100
AcDbCircle
 10
-12.568802613657255
 20
8.3041887528383143
 30
0.0
 40
0.5011988548874781
100
AcDbArc
 50
180.13688665515463
 51
269.86311334484435
  0
LINE
  5
1F1
100
AcDbEntity
  8
0
  6
CONTINUOUS
 62
               4
100
AcDbLine
 10
-12.570000038146958
 20
7.802991328348611
 30
0.0
 11
-4.0300000381469943
 21
7.802991328348611
 31
0.0
  0
LINE
  5
1F2
100
AcDbEntity
  8
0
  6
CONTINUOUS
 62
               4
100
AcDbLine
 10
-12.800000038146976
 20
25.102000000000061
 30
0.0
 11
-11.050000038146976
 21
25.102000000000061
 31
0.0
  0
ARC
  5
1F3
100
AcDbEntity
  8
0
  6
CONTINUOUS
 62
               4
100
AcDbCircle
 10
-12.569999122592691
 20
24.601999084445794
 30
0.0
 40
0.5000009155550945
100
AcDbArc
 50
90.000104914596918
 51
179.99989508540253
  0
ARC
  5
1F4
100
AcDbEntity
  8
0
  6
CONTINUOUS
 62
               4
100
AcDbCircle
 10
-12.799989356973668
 20
24.601989318826753
 30
0.0
 40
0.5000106812873828
100
AcDbArc
 50
90.001223946153175
 51
179.9987760538454
  0
LINE
  5
1F5
100
AcDbEntity
  8
0
  6
PHANTOM
 62
             200
100
AcDbLine
 10
-9.8000000381469761
 20
13.102000000000032
 30
0.0
 11
-9.8000000381469761
 21
11.102000000000032
 31
0.0
  0
LINE
  5
1F6
100
AcDbEntity
  8
0
  6
PHANTOM
 62
             200
100
AcDbLine
 10
-6.8000000381469761
 20
13.102000000000032
 30
0.0
 11
-6.8000000381469761
 21
11.102000000000032
 31
0.0
  0
LINE
  5
1F7
100
AcDbEntity
  8
0
  6
PHANTOM
 62
             200
100
AcDbLine
 10
-9.8000000381469761
 20
11.102000000000032
 30
0.0
 11
-6.8000000381469761
 21
11.102000000000032
 31
0.0
  0
LINE
  5
1F8
100
AcDbEntity
  8
0
  6
PHANTOM
 62
             200
100
AcDbLine
 10
-9.8000000381469761
 20
13.102000000000032
 30
0.0
 11
-6.8000000381469761
 21
13.102000000000032
 31
0.0
  0
LINE
  5
1F9
100
AcDbEntity
  8
0
  6
CONTINUOUS
 62
               4
100
AcDbLine
 10
-10.500000038146965
 20
23.652000000000044
 30
0.0
 11
-8.6000000381469874
 21
23.652000000000044
 31
0.0
  0
LINE
  5
1FA
100
AcDbEntity
  8
0
  6
CONTINUOUS
 62
               4
100
AcDbLine
 10
-10.500000038146965
 20
23.852000000000061
 30
0.0
 11
-8.6000000381469874
 21
23.852000000000061
 31
0.0
  0
LINE
  5
1FB
100
AcDbEntity
  8
0
  6
CONTINUOUS
 62
               4
100
AcDbLine
 10
-9.0500000381469761
 20
21.752000000000038
 30
0.0
 11
-9.0500000381469761
 21
21.452000000000055
 31
0.0
  0
LINE
  5
1FC
100
AcDbEntity
  8
0
  6
CONTINUOUS
 62
               4
100
AcDbLine
 10
-8.6000000381469874
 20
23.852000000000061
 30
0.0
 11
-8.6000000381469874
 21
21.752000000000038
 31
0.0
  0
LINE
  5
1FD
100
AcDbEntity
  8
0
  6
CONTINUOUS
 62
               4
100
AcDbLine
 10
-11.150000038146942
 20
25.102000000000061
 30
0.0
 11
-11.150000038146942
 21
23.602000000000061
 31
0.0
  0
LINE
  5
1FE
100
AcDbEntity
  8
0
  6
CONTINUOUS
 62
               4
100
AcDbLine
 10
-11.050000038146976
 20
24.162000000000063
 30
0.0
 11
-10.720000038146992
 21
24.502000000000038
 31
0.0
  0
LINE
  5
1FF
100
AcDbEntity
  8
0
  6
CONTINUOUS
 62
               4
100
AcDbLine
 10
-12.150000038146942
 20
23.602000000000061
 30
0.0
 11
-11.150000038146942
 21
23.602000000000061
 31
0.0
  0
LINE
  5
200
100
AcDbEntity
  8
0
  6
CONTINUOUS
 62
               4
100
AcDbLine
 10
-12.150000038146942
 20
23.602000000000061
 30
0.0
 11
-12.150000038146942
 21
21.602000000000061
 31
0.0
  0
LINE
  5
201
100
AcDbEntity
  8
0
  6
CONTINUOUS
 62
               4
100
AcDbLine
 10
-12.050000038146976
 20
21.702000000000055
 30
0.0
 11
-12.050000038146976
 21
23.502000000000038
 31
0.0
  0
LINE
  5
202
100
AcDbEntity
  8
0
  6
CONTINUOUS
 62
               4
100
AcDbLine
 10
-12.050000038146976
 20
23.502000000000038
 30
0.0
 11
-11.050000038146976
 21
23.502000000000038
 31
0.0
  0
LINE
  5
203
100
AcDbEntity
  8
0
  6
CONTINUOUS
 62
               4
100
AcDbLine
 10
-11.050000038146976
 20
21.702000000000055
 30
0.0
 11
-11.050000038146976
 21
20.202000000000055
 31
0.0
  0
LINE
  5
204
100
AcDbEntity
  8
0
  6
CONTINUOUS
 62
               4
100
AcDbLine
 10
-10.050000038146976
 20
21.752000000000038
 30
0.0
 11
-10.050000038146976
 21
21.452000000000055
 31
0.0
  0
LINE
  5
205
100
AcDbEntity
  8
0
  6
CONTINUOUS
 62
               4
100
AcDbLine
 10
-11.150000038146942
 20
21.602000000000061
 30
0.0
 11
-11.150000038146942
 21
20.102000000000061
 31
0.0
  0
CIRCLE
  5
206
100
AcDbEntity
  8
0
  6
CONTINUOUS
 62
               4
100
AcDbCircle
 10
-9.5500000381469761
 20
22.701984741210993
 30
0.0
 40
0.8499675393104553
  0
LINE
  5
207
100
AcDbEntity
  8
0
  6
CONTINUOUS
 62
               4
100
AcDbLine
 10
-12.150000038146942
 20
21.602000000000061
 30
0.0
 11
-11.150000038146942
 21
21.602000000000061
 31
0.0
  0
LINE
  5
208
100
AcDbEntity
  8
0
  6
CONTINUOUS
 62
               4
100
AcDbLine
 10
-10.500000038146965
 20
23.852000000000061
 30
0.0
 11
-10.500000038146965
 21
21.752000000000038
 31
0.0
  0
LINE
  5
209
100
AcDbEntity
  8
0
  6
CONTINUOUS
 62
               4
100
AcDbLine
 10
-12.050000038146976
 20
21.702000000000055
 30
0.0
 11
-11.050000038146976
 21
21.702000000000055
 31
0.0
  0
LINE
  5
20A
100
AcDbEntity
  8
0
  6
CONTINUOUS
 62
               4
100
AcDbLine
 10
-10.050000038146976
 20
21.452000000000055
 30
0.0
 11
-9.0500000381469761
 21
21.452000000000055
 31
0.0
  0
LINE
  5
20B
100
AcDbEntity
  8
0
  6
CONTINUOUS
 62
               4
100
AcDbLine
 10
-10.500000038146965
 20
21.752000000000038
 30
0.0
 11
-8.6000000381469874
 21
21.752000000000038
 31
0.0
  0
LINE
  5
20C
100
AcDbEntity
  8
0
  6
CONTINUOUS
 62
               4
100
AcDbLine
 10
-11.050000038146976
 20
27.202000000000055
 30
0.0
 11
-11.050000038146976
 21
23.502000000000038
 31
0.0
  0
LINE
  5
20D
100
AcDbEntity
  8
0
  6
CONTINUOUS
 62
               4
100
AcDbLine
 10
-11.050000038146976
 20
27.202000000000055
 30
0.0
 11
-5.5500000381469761
 21
27.202000000000055
 31
0.0
  0
LINE
  5
20E
100
AcDbEntity
  8
0
  6
CONTINUOUS
 62
               4
100
AcDbLine
 10
-11.050000038146976
 20
26.202000000000055
 30
0.0
 11
-5.5500000381469761
 21
26.202000000000055
 31
0.0
  0
CIRCLE
  5
20F
100
AcDbEntity
  8
0
  6
CONTINUOUS
 62
               4
100
AcDbCircle
 10
-7.0500000381469761
 20
22.701984741210993
 30
0.0
 40
0.8499675393104553
  0
LINE
  5
210
100
AcDbEntity
  8
0
  6
CONTINUOUS
 62
               4
100
AcDbLine
 10
-5.4500000381469533
 20
21.602000000000061
 30
0.0
 11
-4.4500000381469533
 21
21.602000000000061
 31
0.0
  0
LINE
  5
211
100
AcDbEntity
  8
0
  6
CONTINUOUS
 62
               4
100
AcDbLine
 10
-5.4500000381469533
 20
23.602000000000061
 30
0.0
 11
-4.4500000381469533
 21
23.602000000000061
 31
0.0
  0
LINE
  5
212
100
AcDbEntity
  8
0
  6
CONTINUOUS
 62
               4
100
AcDbLine
 10
-8.0000000381469647
 20
23.852000000000061
 30
0.0
 11
-6.1000000381469874
 21
23.852000000000061
 31
0.0
  0
LINE
  5
213
100
AcDbEntity
  8
0
  6
CONTINUOUS
 62
               4
100
AcDbLine
 10
-8.0000000381469647
 20
21.752000000000038
 30
0.0
 11
-6.1000000381469874
 21
21.752000000000038
 31
0.0
  0
LINE
  5
214
100
AcDbEntity
  8
0
  6
CONTINUOUS
 62
               4
100
AcDbLine
 10
-8.0000000381469647
 20
23.652000000000044
 30
0.0
 11
-6.1000000381469874
 21
23.652000000000044
 31
0.0
  0
LINE
  5
215
100
AcDbEntity
  8
0
  6
CONTINUOUS
 62
               4
100
AcDbLine
 10
-5.5500000381469761
 20
23.502000000000038
 30
0.0
 11
-4.5500000381469761
 21
23.502000000000038
 31
0.0
  0
LINE
  5
216
100
AcDbEntity
  8
0
  6
CONTINUOUS
 62
               4
100
AcDbLine
 10
-5.5500000381469761
 20
21.702000000000055
 30
0.0
 11
-4.5500000381469761
 21
21.702000000000055
 31
0.0
  0
LINE
  5
217
100
AcDbEntity
  8
0
  6
CONTINUOUS
 62
               4
100
AcDbLine
 10
-7.5500000381469761
 20
21.452000000000055
 30
0.0
 11
-6.5500000381469761
 21
21.452000000000055
 31
0.0
  0
LINE
  5
218
100
AcDbEntity
  8
0
  6
CONTINUOUS
 62
               4
100
AcDbLine
 10
-5.5500000381469761
 20
21.702000000000055
 30
0.0
 11
-5.5500000381469761
 21
20.202000000000055
 31
0.0
  0
LINE
  5
219
100
AcDbEntity
  8
0
  6
CONTINUOUS
 62
               4
100
AcDbLine
 10
-6.5500000381469761
 20
21.752000000000038
 30
0.0
 11
-6.5500000381469761
 21
21.452000000000055
 31
0.0
  0
LINE
  5
21A
100
AcDbEntity
  8
0
  6
CONTINUOUS
 62
               4
100
AcDbLine
 10
-5.5900000381469965
 20
24.202000000000055
 30
0.0
 11
-5.8900000381469511
 21
24.502000000000038
 31
0.0
  0
LINE
  5
21B
100
AcDbEntity
  8
0
  6
CONTINUOUS
 62
               4
100
AcDbLine
 10
-6.1000000381469874
 20
23.852000000000061
 30
0.0
 11
-6.1000000381469874
 21
21.752000000000038
 31
0.0
  0
LINE
  5
21C
100
AcDbEntity
  8
0
  6
CONTINUOUS
 62
               4
100
AcDbLine
 10
-5.4500000381469533
 20
25.102000000000061
 30
0.0
 11
-5.4500000381469533
 21
23.602000000000061
 31
0.0
  0
LINE
  5
21D
100
AcDbEntity
  8
0
  6
CONTINUOUS
 62
               4
100
AcDbLine
 10
-5.4500000381469533
 20
21.602000000000061
 30
0.0
 11
-5.4500000381469533
 21
20.102000000000061
 31
0.0
  0
LINE
  5
21E
100
AcDbEntity
  8
0
  6
CONTINUOUS
 62
               4
100
AcDbLine
 10
-4.4500000381469533
 20
23.602000000000061
 30
0.0
 11
-4.4500000381469533
 21
21.602000000000061
 31
0.0
  0
LINE
  5
21F
100
AcDbEntity
  8
0
  6
CONTINUOUS
 62
               4
100
AcDbLine
 10
-4.5500000381469761
 20
21.702000000000055
 30
0.0
 11
-4.5500000381469761
 21
23.502000000000038
 31
0.0
  0
ARC
  5
220
100
AcDbEntity
  8
0
  6
CONTINUOUS
 62
               4
100
AcDbCircle
 10
-4.0300009537012045
 20
24.601999084445794
 30
0.0
 40
0.5000009155550945
100
AcDbArc
 50
0.0001049145970977
 51
89.999895085402713
  0
LINE
  5
221
100
AcDbEntity
  8
0
  6
CONTINUOUS
 62
               4
100
AcDbLine
 10
-7.5500000381469761
 20
21.752000000000038
 30
0.0
 11
-7.5500000381469761
 21
21.452000000000055
 31
0.0
  0
LINE
  5
222
100
AcDbEntity
  8
0
  6
CONTINUOUS
 62
               4
100
AcDbLine
 10
-8.0000000381469647
 20
23.852000000000061
 30
0.0
 11
-8.0000000381469647
 21
21.752000000000038
 31
0.0
  0
LINE
  5
223
100
AcDbEntity
  8
0
  6
CONTINUOUS
 62
               4
100
AcDbLine
 10
-5.5500000381469761
 20
25.102000000000061
 30
0.0
 11
-3.8000000381469761
 21
25.102000000000061
 31
0.0
  0
ARC
  5
224
100
AcDbEntity
  8
0
  6
CONTINUOUS
 62
               4
100
AcDbCircle
 10
-3.7999954606243307
 20
24.602004577522678
 30
0.0
 40
0.4999954224983215
100
AcDbArc
 50
359.99947544974214
 51
90.000524550256856
  0
LINE
  5
225
100
AcDbEntity
  8
0
  6
CONTINUOUS
 62
               4
100
AcDbLine
 10
-11.050000038146976
 20
20.202000000000055
 30
0.0
 11
-5.5500000381469761
 21
20.202000000000055
 31
0.0
  0
LINE
  5
226
100
AcDbEntity
  8
0
  6
CONTINUOUS
 62
               4
100
AcDbLine
 10
-11.050000038146976
 20
25.202000000000055
 30
0.0
 11
-5.5500000381469761
 21
25.202000000000055
 31
0.0
  0
LINE
  5
227
100
AcDbEntity
  8
0
  6
CONTINUOUS
 62
               4
100
AcDbLine
 10
-11.020000038146947
 20
24.202000000000055
 30
0.0
 11
-5.5900000381469965
 21
24.202000000000055
 31
0.0
  0
LINE
  5
228
100
AcDbEntity
  8
0
  6
CONTINUOUS
 62
               4
100
AcDbLine
 10
-10.720000038146992
 20
24.502000000000038
 30
0.0
 11
-5.8900000381469511
 21
24.502000000000038
 31
0.0
  0
LINE
  5
229
100
AcDbEntity
  8
0
  6
CONTINUOUS
 62
               4
100
AcDbLine
 10
-11.150000038146942
 20
20.102000000000061
 30
0.0
 11
-5.4500000381469533
 21
20.102000000000061
 31
0.0
  0
LINE
  5
22A
100
AcDbEntity
  8
0
  6
CONTINUOUS
 62
               4
100
AcDbLine
 10
-5.5500000381469761
 20
27.202000000000055
 30
0.0
 11
-5.5500000381469761
 21
23.502000000000038
 31
0.0
  0
ARC
  5
22B
100
AcDbEntity
  8
0
  6
CONTINUOUS
 62
               4
100
AcDbCircle
 10
-5.8970880433840023
 20
27.501088005237051
 30
0.0
 40
0.5989129830170392
100
AcDbArc
 50
89.895914524772735
 51
180.10408547522667
  0
ARC
  5
22C
100
AcDbEntity
  8
0
  6
CONTINUOUS
 62
               4
100
AcDbCircle
 10
-4.0959048914887433
 20
27.500095146658197
 30
0.0
 40
0.5999048608870732
100
AcDbArc
 50
359.99091272245295
 51
90.009087277546172
  0
LINE
  5
22D
100
AcDbEntity
  8
0
  6
CONTINUOUS
 62
               4
100
AcDbLine
 10
-3.3000000381469761
 20
27.500000000000028
 30
0.0
 11
-6.5000000381469647
 21
27.500000000000028
 31
0.0
  0
ARC
  5
22E
100
AcDbEntity
  8
0
  6
CONTINUOUS
 62
               4
100
AcDbCircle
 10
-12.800000038146976
 20
27.500000000000028
 30
0.0
 40
0.5
100
AcDbArc
 50
89.999999999999815
 51
179.99999999999963
  0
LINE
  5
22F
100
AcDbEntity
  8
0
  6
CONTINUOUS
 62
               4
100
AcDbLine
 10
-6.5000000381469647
 20
28.000000000000028
 30
0.0
 11
-6.5000000381469647
 21
27.202000000000055
 31
0.0
  0
LINE
  5
230
100
AcDbEntity
  8
0
  6
CONTINUOUS
 62
               4
100
AcDbLine
 10
-6.5000000381469647
 20
28.000000000000028
 30
0.0
 11
-12.800000038146976
 21
28.000000000000028
 31
0.0
  0
LINE
  5
231
100
AcDbEntity
  8
0
  6
CONTINUOUS
 62
               4
100
AcDbLine
 10
-3.3000000381469761
 20
26.500000000000028
 30
0.0
 11
-5.5500000381469761
 21
26.500000000000028
 31
0.0
  0
LINE
  5
232
100
AcDbEntity
  8
0
  6
CONTINUOUS
 62
               4
100
AcDbLine
 10
-3.3000000381469761
 20
28.100000000000051
 30
0.0
 11
-13.300000038146976
 21
28.100000000000051
 31
0.0
  0
LINE
  5
233
100
AcDbEntity
  8
0
  6
CONTINUOUS
 62
               4
100
AcDbLine
 10
-3.5300000381469943
 20
24.602000000000061
 30
0.0
 11
-3.5300000381469943
 21
8.3029913283490089
 31
0.0
  0
LINE
  5
234
100
AcDbEntity
  8
0
  6
CONTINUOUS
 62
               4
100
AcDbLine
 10
-13.070000038146958
 20
24.602000000000061
 30
0.0
 11
-13.070000038146958
 21
8.3029913283490089
 31
0.0
  0
LINE
  5
235
100
AcDbEntity
  8
0
  6
CONTINUOUS
 62
               4
100
AcDbLine
 10
-3.3000000381469761
 20
28.100000000000051
 30
0.0
 11
-3.3000000381469761
 21
5.6000000000000512
 31
0.0
  0
LINE
  5
236
100
AcDbEntity
  8
0
  6
CONTINUOUS
 62
               4
100
AcDbLine
 10
-13.300000038146976
 20
28.100000000000051
 30
0.0
 11
-13.300000038146976
 21
5.6000000000000512
 31
0.0
  0
LINE
  5
237
100
AcDbEntity
  8
0
  6
CONTINUOUS
 62
               7
100
AcDbLine
 10
-11.400000038146914
 20
1.6000000000000085
 30
0.0
 11
-11.400000038146914
 21
5.6000000000000085
 31
0.0
  0
LINE
  5
238
100
AcDbEntity
  8
0
  6
CONTINUOUS
 62
               7
100
AcDbLine
 10
-5.2000000381470457
 20
1.6000000000000085
 30
0.0
 11
-5.2000000381470457
 21
5.6000000000000085
 31
0.0
  0
ARC
  5
239
100
AcDbEntity
  8
0
  6
CONTINUOUS
 62
               7
100
AcDbCircle
 10
-8.3000000381469761
 20
1.6000000000000085
 30
0.0
 40
3.0999999999999304
100
AcDbArc
 50
179.99999999999963
 51
0.0
  0
LINE
  5
23A
100
AcDbEntity
  8
0
  6
CONTINUOUS
 62
               7
100
AcDbLine
 10
-13.300000038146976
 20
-9.6506699532603761
 30
0.0
 11
-13.300000038146976
 21
-6.0999999995055134
 31
0.0
  0
LINE
  5
23B
100
AcDbEntity
  8
0
  6
CONTINUOUS
 62
               7
100
AcDbLine
 10
-3.3000000381469761
 20
-15.55066995326041
 30
0.0
 11
-3.3000000381469761
 21
-6.1000000000000085
 31
0.0
  0
LINE
  5
23C
100
AcDbEntity
  8
0
  6
CONTINUOUS
 62
               7
100
AcDbLine
 10
-11.292893256960497
 20
-11.10710678118653
 30
0.0
 11
-12.707106819333546
 21
-9.6928932188134382
 31
0.0
  0
LINE
  5
23D
100
AcDbEntity
  8
0
  6
CONTINUOUS
 62
               7
100
AcDbLine
 10
-12.707106819333546
 20
-11.10710678118653
 30
0.0
 11
-11.292893256960468
 21
-9.6928932188134382
 31
0.0
  0
CIRCLE
  5
23E
100
AcDbEntity
  8
0
  6
CONTINUOUS
 62
               7
100
AcDbCircle
 10
-12.000000038146993
 20
-10.399001430615186
 30
0.0
 40
1.5
  0
LINE
  5
23F
100
AcDbEntity
  8
0
  6
CONTINUOUS
 62
               7
100
AcDbLine
 10
-3.892893256960491
 20
-17.007106781186536
 30
0.0
 11
-5.3071068193335407
 21
-15.59289321881343
 31
0.0
  0
LINE
  5
240
100
AcDbEntity
  8
0
  6
CONTINUOUS
 62
               7
100
AcDbLine
 10
-5.3071068193335407
 20
-17.007106781186536
 30
0.0
 11
-3.8928932569604626
 21
-15.59289321881343
 31
0.0
  0
CIRCLE
  5
241
100
AcDbEntity
  8
0
  6
CONTINUOUS
 62
               7
100
AcDbCircle
 10
-4.6000000381469874
 20
-16.299001430615192
 30
0.0
 40
1.5
  0
LINE
  5
242
100
AcDbEntity
  8
0
  6
CONTINUOUS
 62
               7
100
AcDbLine
 10
-13.300000031764512
 20
-20.599999999999994
 30
0.0
 11
-3.3000000317645117
 21
-20.599999999999994
 31
0.0
  0
LINE
  5
243
100
AcDbEntity
  8
0
  6
CONTINUOUS
 62
               7
100
AcDbLine
 10
-14.299999999999997
 20
2.6999999999999886
 30
0.0
 11
-13.299999999999997
 21
2.6999999999999886
 31
0.0
  0
LINE
  5
244
100
AcDbEntity
  8
0
  6
CONTINUOUS
 62
               7
100
AcDbLine
 10
-14.299999999999997
 20
-25.30000000000004
 30
0.0
 11
-14.299999999999997
 21
2.6999999999999886
 31
0.0
  0
LINE
  5
245
100
AcDbEntity
  8
0
  6
CONTINUOUS
 62
               7
100
AcDbLine
 10
-14.299999999999997
 20
-25.30000000000004
 30
0.0
 11
-13.299999999999997
 21
-25.30000000000004
 31
0.0
  0
LINE
  5
246
100
AcDbEntity
  8
0
  6
CENTER
 62
               2
100
AcDbLine
 10
0.0
 20
-24.55000000000004
 30
0.0
 11
0.0
 21
-20.649999999999991
 31
0.0
  0
CIRCLE
  5
247
100
AcDbEntity
  8
0
  6
CONTINUOUS
 62
               7
100
AcDbCircle
 10
-0.0009515380859284
 20
-22.600817382812494
 30
0.0
 40
1.55
  0
LINE
  5
248
100
AcDbEntity
  8
0
  6
CENTER
 62
               2
100
AcDbLine
 10
-1.9500000000000028
 20
-22.599999999999994
 30
0.0
 11
1.9500000000000028
 21
-22.599999999999994
 31
0.0
  0
LINE
  5
249
100
AcDbEntity
  8
0
  6
CONTINUOUS
 62
               7
100
AcDbLine
 10
-3.2999999999999972
 20
-25.30000000000004
 30
0.0
 11
2.7000000000000028
 21
-25.30000000000004
 31
0.0
  0
LINE
  5
24A
100
AcDbEntity
  8
0
  6
CENTER
 62
               2
100
AcDbLine
 10
-1.9500000000000028
 20
0.0
 30
0.0
 11
1.9500000000000028
 21
0.0
 31
0.0
  0
CIRCLE
  5
24B
100
AcDbEntity
  8
0
  6
CONTINUOUS
 62
               7
100
AcDbCircle
 10
-0.0009515380859284
 20
-0.0008173828124995
 30
0.0
 40
1.55
  0
LINE
  5
24C
100
AcDbEntity
  8
0
  6
CENTER
 62
               2
100
AcDbLine
 10
0.0
 20
-1.9500000000000171
 30
0.0
 11
0.0
 21
1.9499999999999886
 31
0.0
  0
LINE
  5
24D
100
AcDbEntity
  8
0
  6
CONTINUOUS
 62
               7
100
AcDbLine
 10
-3.2999999999999972
 20
2.6999999999999886
 30
0.0
 11
2.7000000000000028
 21
2.6999999999999886
 31
0.0
  0
LINE
  5
24E
100
AcDbEntity
  8
0
  6
CONTINUOUS
 62
               7
100
AcDbLine
 10
2.7000000000000028
 20
-25.30000000000004
 30
0.0
 11
2.7000000000000028
 21
2.6999999999999886
 31
0.0
  0
LINE
  5
24F
100
AcDbEntity
  8
0
  6
CONTINUOUS
 62
               7
100
AcDbLine
 10
-3.3000000381469761
 20
-25.400000000000006
 30
0.0
 11
-3.3000000381469761
 21
-17.047332907969945
 31
0.0
  0
LINE
  5
250
100
AcDbEntity
  8
0
  6
CONTINUOUS
 62
               7
100
AcDbLine
 10
-13.300000038146976
 20
-23.80000000000004
 30
0.0
 11
-13.300000038146976
 21
-11.147332907969997
 31
0.0
  0
LINE
  5
251
100
AcDbEntity
  8
0
  6
CONTINUOUS
 62
               7
100
AcDbLine
 10
-3.3000000381469761
 20
-6.1000000000000085
 30
0.0
 11
-13.300000038146976
 21
-6.1000000000000085
 31
0.0
  0
ARC
  5
252
100
AcDbEntity
  8
0
  6
CONTINUOUS
 62
               7
100
AcDbCircle
 10
-12.000000038146993
 20
-10.400000000000006
 30
0.0
 40
1.6000000000000001
100
AcDbArc
 50
269.99999999999937
 51
89.999999999999801
  0
ARC
  5
253
100
AcDbEntity
  8
0
  6
CONTINUOUS
 62
               7
100
AcDbCircle
 10
-4.6000000381469874
 20
-16.300000000000011
 30
0.0
 40
1.6000000000000001
100
AcDbArc
 50
89.999999999999815
 51
269.99999999999937
  0
LINE
  5
254
100
AcDbEntity
  8
0
  6
CONTINUOUS
 62
               7
100
AcDbLine
 10
-12.000000038146993
 20
-12.000000000000014
 30
0.0
 11
-13.300000038146976
 21
-12.000000000000014
 31
0.0
  0
LINE
  5
255
100
AcDbEntity
  8
0
  6
CONTINUOUS
 62
               7
100
AcDbLine
 10
-12.000000038146993
 20
-8.8000000000000114
 30
0.0
 11
-13.300000038146976
 21
-8.8000000000000114
 31
0.0
  0
LINE
  5
256
100
AcDbEntity
  8
0
  6
CONTINUOUS
 62
               7
100
AcDbLine
 10
-4.6000000381469874
 20
-14.700000000000017
 30
0.0
 11
-3.3000000381469761
 21
-14.700000000000017
 31
0.0
  0
LINE
  5
257
100
AcDbEntity
  8
0
  6
CONTINUOUS
 62
               7
100
AcDbLine
 10
-4.6000000381469874
 20
-17.900000000000006
 30
0.0
 11
-3.3000000381469761
 21
-17.900000000000006
 31
0.0
  0
ARC
  5
258
100
AcDbEntity
  8
0
  6
CONTINUOUS
 62
               7
100
AcDbCircle
 10
-3.5000000381469789
 20
-25.400000000000006
 30
0.0
 40
0.2
100
AcDbArc
 50
269.99999999999937
 51
0.0
  0
LINE
  5
259
100
AcDbEntity
  8
0
  6
CONTINUOUS
 62
               7
100
AcDbLine
 10
-13.320000038146986
 20
-24.330000000000013
 30
0.0
 11
-13.320000038146986
 21
-23.80000000000004
 31
0.0
  0
LINE
  5
25A
100
AcDbEntity
  8
0
  6
CONTINUOUS
 62
               7
100
AcDbLine
 10
-13.300000038146976
 20
-25.400000000000006
 30
0.0
 11
-13.300000038146976
 21
-24.486749430654044
 31
0.0
  0
LINE
  5
25B
100
AcDbEntity
  8
0
  6
CONTINUOUS
 62
               7
100
AcDbLine
 10
-9.8800000381469744
 20
-24.330000000000013
 30
0.0
 11
-9.8800000381469744
 21
-23.80000000000004
 31
0.0
  0
ARC
  5
25C
100
AcDbEntity
  8
0
  6
CONTINUOUS
 62
               7
100
AcDbCircle
 10
-10.491772033980894
 20
-24.330837282029023
 30
0.0
 40
0.6117725687931934
100
AcDbArc
 50
286.30661609184898
 51
0.0784159734340139
  0
ARC
  5
25D
100
AcDbEntity
  8
0
  6
CONTINUOUS
 62
               7
100
AcDbCircle
 10
-11.600000038146987
 20
-20.512578763266077
 30
0.0
 40
4.5876068132596712
100
AcDbArc
 50
253.79871892415684
 51
286.20128107584191
  0
LINE
  5
25E
100
AcDbEntity
  8
0
  6
CONTINUOUS
 62
               7
100
AcDbLine
 10
-9.8000000381469761
 20
-25.599999999999994
 30
0.0
 11
-9.8000000381469761
 21
-23.80000000000004
 31
0.0
  0
ARC
  5
25F
100
AcDbEntity
  8
0
  6
CONTINUOUS
 62
               7
100
AcDbCircle
 10
-13.100000038146987
 20
-25.400000000000006
 30
0.0
 40
0.2
100
AcDbArc
 50
179.99999999999963
 51
269.99999999999937
  0
ARC
  5
260
100
AcDbEntity
  8
0
  6
CONTINUOUS
 62
               7
100
AcDbCircle
 10
-13.000895175005866
 20
-23.500895136858929
 30
0.0
 40
0.2991062025847394
100
AcDbArc
 50
179.82853033398985
 51
270.17146966600922
  0
LINE
  5
261
100
AcDbEntity
  8
0
  6
CONTINUOUS
 62
               7
100
AcDbLine
 10
-13.320000038146986
 20
-23.80000000000004
 30
0.0
 11
-9.8000000381469761
 21
-23.80000000000004
 31
0.0
  0
LINE
  5
262
100
AcDbEntity
  8
0
  6
CONTINUOUS
 62
               7
100
AcDbLine
 10
-3.5000000381469789
 20
-25.599999999999994
 30
0.0
 11
-13.100000038146987
 21
-25.599999999999994
 31
0.0
  0
ARC
  5
263
100
AcDbEntity
  8
0
  6
CONTINUOUS
 62
               7
100
AcDbCircle
 10
-12.709446070037913
 20
-24.331748731346948
 30
0.0
 40
0.6105564724372722
100
AcDbArc
 50
179.83589550320582
 51
253.77907243150949
  0
CIRCLE
  5
264
100
AcDbEntity
  8
0
  6
CONTINUOUS
 62
               7
100
AcDbCircle
 10
-8.3000000381469761
 20
3.3000000000000256
 30
0.0
 40
0.75
  0
CIRCLE
  5
265
100
AcDbEntity
  8
0
  6
CONTINUOUS
 62
               7
100
AcDbCircle
 10
-8.3000000381469761
 20
3.3000000000000256
 30
0.0
 40
1.1000000000000001
  0
LINE
  5
266
100
AcDbEntity
  8
0
  6
CENTER
 62
               2
100
AcDbLine
 10
-8.3000000381469761
 20
-27.594831691049194
 30
0.0
 11
-8.3000000381469761
 21
31.262585161280541
 31
0.0
  0
CIRCLE
  5
267
100
AcDbEntity
  8
0
  6
CONTINUOUS
 62
               7
100
AcDbCircle
 10
-8.3000000381469761
 20
3.3000000000000256
 30
0.0
 40
1.1500000000000001
  0
CIRCLE
  5
268
100
AcDbEntity
  8
0
  6
CONTINUOUS
 62
               7
100
AcDbCircle
 10
-8.3000000381469761
 20
3.3000000000000256
 30
0.0
 40
1.3000000000000012
  0
LINE
  5
269
100
AcDbEntity
  8
0
  6
CENTER
 62
               2
100
AcDbLine
 10
-6.6000000381469874
 20
3.3000000000000256
 30
0.0
 11
-10.000000038146979
 21
3.3000000000000256
 31
0.0
  0
ARC
  5
26A
100
AcDbEntity
  8
0
  6
CONTINUOUS
 62
               7
100
AcDbCircle
 10
-8.3000000381469761
 20
1.6000000000000085
 30
0.0
 40
2.0
100
AcDbArc
 50
179.99999999999963
 51
0.0
  0
LINE
  5
26B
100
AcDbEntity
  8
0
  6
CONTINUOUS
 62
               7
100
AcDbLine
 10
-6.3000000381469761
 20
1.6000000000000085
 30
0.0
 11
-6.3000000381469761
 21
5.6000000000000085
 31
0.0
  0
LINE
  5
26C
100
AcDbEntity
  8
0
  6
CONTINUOUS
 62
               7
100
AcDbLine
 10
-10.300000038146976
 20
1.6000000000000085
 30
0.0
 11
-10.300000038146976
 21
5.6000000000000085
 31
0.0
  0
LINE
  5
26D
100
AcDbEntity
  8
0
  6
CONTINUOUS
 62
               7
100
AcDbLine
 10
-3.3000000381469761
 20
-6.1000000000000085
 30
0.0
 11
-3.3000000381469761
 21
5.6000000000000085
 31
0.0
  0
LINE
  5
26E
100
AcDbEntity
  8
0
  6
CONTINUOUS
 62
               7
100
AcDbLine
 10
-13.300000038146976
 20
-6.1000000000000085
 30
0.0
 11
-13.300000038146976
 21
5.6000000000000085
 31
0.0
  0
LINE
  5
26F
100
AcDbEntity
  8
0
  6
CONTINUOUS
 62
               7
100
AcDbLine
 10
-3.3000000381469761
 20
5.6000000000000085
 30
0.0
 11
-13.300000038146976
 21
5.6000000000000085
 31
0.0
  0
LINE
  5
270
100
AcDbEntity
  8
0
  6
CENTER
 62
               2
100
AcDbLine
 10
0.2162062056379739
 20
-8.2999999999999403
 30
0.0
 11
17.830000000000013
 21
-8.2999999999999403
 31
0.0
  0
LINE
  5
271
100
AcDbEntity
  8
0
  6
PHANTOM
 62
             200
100
AcDbLine
 10
2.7000000000000028
 20
-4.2999999999999403
 30
0.0
 11
16.200000000000017
 21
-4.2999999999999403
 31
0.0
  0
LINE
  5
272
100
AcDbEntity
  8
0
  6
PHANTOM
 62
             200
100
AcDbLine
 10
2.7000000000000028
 20
-12.29999999999994
 30
0.0
 11
16.200000000000017
 21
-12.29999999999994
 31
0.0
  0
LINE
  5
273
100
AcDbEntity
  8
0
  6
PHANTOM
 62
             200
100
AcDbLine
 10
14.200000000000017
 20
-6.6999999999999318
 30
0.0
 11
16.200000000000017
 21
-6.6999999999999318
 31
0.0
  0
LINE
  5
274
100
AcDbEntity
  8
0
  6
PHANTOM
 62
             200
100
AcDbLine
 10
14.200000000000017
 20
-7.5999999999999375
 30
0.0
 11
16.200000000000017
 21
-7.5999999999999375
 31
0.0
  0
LINE
  5
275
100
AcDbEntity
  8
0
  6
PHANTOM
 62
             200
100
AcDbLine
 10
14.200000000000017
 20
-5.7999999999999403
 30
0.0
 11
16.200000000000017
 21
-5.7999999999999403
 31
0.0
  0
LINE
  5
276
100
AcDbEntity
  8
0
  6
PHANTOM
 62
             200
100
AcDbLine
 10
14.200000000000017
 20
-5.0999999999999375
 30
0.0
 11
16.200000000000017
 21
-5.0999999999999375
 31
0.0
  0
LINE
  5
277
100
AcDbEntity
  8
0
  6
PHANTOM
 62
             200
100
AcDbLine
 10
14.200000000000017
 20
-4.5999999999999375
 30
0.0
 11
16.200000000000017
 21
-4.5999999999999375
 31
0.0
  0
LINE
  5
278
100
AcDbEntity
  8
0
  6
PHANTOM
 62
             200
100
AcDbLine
 10
14.200000000000017
 20
-8.9999999999999432
 30
0.0
 11
16.200000000000017
 21
-8.9999999999999432
 31
0.0
  0
LINE
  5
279
100
AcDbEntity
  8
0
  6
PHANTOM
 62
             200
100
AcDbLine
 10
16.200000000000017
 20
-4.2999999999999403
 30
0.0
 11
16.200000000000017
 21
-12.29999999999994
 31
0.0
  0
LINE
  5
27A
100
AcDbEntity
  8
0
  6
PHANTOM
 62
             200
100
AcDbLine
 10
14.200000000000017
 20
-9.8999999999999488
 30
0.0
 11
16.200000000000017
 21
-9.8999999999999488
 31
0.0
  0
LINE
  5
27B
100
AcDbEntity
  8
0
  6
PHANTOM
 62
             200
100
AcDbLine
 10
14.200000000000017
 20
-10.79999999999994
 30
0.0
 11
16.200000000000017
 21
-10.79999999999994
 31
0.0
  0
LINE
  5
27C
100
AcDbEntity
  8
0
  6
PHANTOM
 62
             200
100
AcDbLine
 10
14.200000000000017
 20
-11.499999999999943
 30
0.0
 11
16.200000000000017
 21
-11.499999999999943
 31
0.0
  0
LINE
  5
27D
100
AcDbEntity
  8
0
  6
PHANTOM
 62
             200
100
AcDbLine
 10
14.200000000000017
 20
-11.999999999999943
 30
0.0
 11
16.200000000000017
 21
-11.999999999999943
 31
0.0
  0
LINE
  5
27E
100
AcDbEntity
  8
0
  6
PHANTOM
 62
             200
100
AcDbLine
 10
14.200000000000017
 20
-4.2999999999999403
 30
0.0
 11
14.200000000000017
 21
-12.29999999999994
 31
0.0
  0
LINE
  5
27F
100
AcDbEntity
  8
0
  6
PHANTOM
 62
             200
100
AcDbLine
 10
16.700000000000017
 20
-4.7999999999999403
 30
0.0
 11
16.700000000000017
 21
-11.79999999999994
 31
0.0
  0
ARC
  5
280
100
AcDbEntity
  8
0
  6
PHANTOM
 62
             200
100
AcDbCircle
 10
16.200000000000017
 20
-11.79999999999994
 30
0.0
 40
0.5
100
AcDbArc
 50
269.99999999999937
 51
0.0
  0
ARC
  5
281
100
AcDbEntity
  8
0
  6
PHANTOM
 62
             200
100
AcDbCircle
 10
16.200000000000017
 20
-4.7999999999999403
 30
0.0
 40
0.5
100
AcDbArc
 50
0.0
 51
89.999999999999815
  0
ENDBLK
  5
282
100
AcDbEntity
  8
0
100
AcDbBlockEnd
  0
BLOCK
  5
283
100
AcDbEntity
  8
0
100
AcDbBlockBegin
  2
EB10SA1-6
 70
               0
 10
0.0
 20
0.0
 30
0.0
  3
EB10SA1-6
  1

  0
ARC
  5
284
100
AcDbEntity
  8
0
  6
CONTINUOUS
 62
               4
100
AcDbCircle
 10
32.385932244130743
 20
6.0999954535712106
 30
0.0
 40
0.5
100
AcDbArc
 50
269.7556636029762
 51
295.03102081721903
  0
LINE
  5
285
100
AcDbEntity
  8
0
  6
CONTINUOUS
 62
               4
100
AcDbLine
 10
29.498951530085947
 20
5.6000000000002501
 30
0.0
 11
32.383800013285907
 21
5.6000000000002501
 31
0.0
  0
LINE
  5
286
100
AcDbEntity
  8
0
  6
CONTINUOUS
 62
               4
100
AcDbLine
 10
56.494911112619022
 20
22.359233128737031
 30
0.0
 11
56.494911112619022
 21
22.859233128737031
 31
0.0
  0
ARC
  5
287
100
AcDbEntity
  8
0
  6
CONTINUOUS
 62
               4
100
AcDbCircle
 10
18.100039689322642
 20
27.501088005237278
 30
0.0
 40
0.5989129830170392
100
AcDbArc
 50
359.89591452477299
 51
90.104085475226924
  0
LINE
  5
288
100
AcDbEntity
  8
0
  6
CONTINUOUS
 62
               4
100
AcDbLine
 10
19.198951684085557
 20
27.500000000000256
 30
0.0
 11
19.198951684085557
 21
28.100000000000279
 31
0.0
  0
LINE
  5
289
100
AcDbEntity
  8
0
  6
CONTINUOUS
 62
               4
100
AcDbLine
 10
52.994911112618951
 20
23.260555545467298
 30
0.0
 11
49.657537377152352
 21
23.260555545467241
 31
0.0
  0
LINE
  5
28A
100
AcDbEntity
  8
0
  6
CONTINUOUS
 62
               4
100
AcDbLine
 10
52.994911112618979
 20
21.959545445200604
 30
0.0
 11
50.407032326218996
 21
21.959545445200547
 31
0.0
  0
LINE
  5
28B
100
AcDbEntity
  8
0
  6
CONTINUOUS
 62
               4
100
AcDbLine
 10
29.498951530085606
 20
25.101010089866946
 30
0.0
 11
36.993901020752276
 21
25.101010089867117
 31
0.0
  0
LINE
  5
28C
100
AcDbEntity
  8
0
  6
CONTINUOUS
 62
               4
100
AcDbLine
 10
37.495921222485634
 20
24.59898988813373
 30
0.0
 11
37.495921222485947
 21
8.251515150000472
 31
0.0
  0
LINE
  5
28D
100
AcDbEntity
  8
0
  6
CONTINUOUS
 62
               4
100
AcDbLine
 10
45.492890914885692
 20
20.102020193733807
 30
0.0
 11
45.492890914885606
 21
24.203030292400541
 31
0.0
  0
LINE
  5
28E
100
AcDbEntity
  8
0
  6
CONTINUOUS
 62
               4
100
AcDbLine
 10
38.888850514618952
 20
26.20404039226716
 30
0.0
 11
43.993901016752261
 21
27.102020189733906
 31
0.0
  0
LINE
  5
28F
100
AcDbEntity
  8
0
  6
CONTINUOUS
 62
               4
100
AcDbLine
 10
45.492890914885578
 20
26.105050493333835
 30
0.0
 11
45.49289091488555
 21
27.102020189733906
 31
0.0
  0
LINE
  5
290
100
AcDbEntity
  8
0
  6
CONTINUOUS
 62
               4
100
AcDbLine
 10
37.828244454618982
 20
25.002020190933678
 30
0.0
 11
44.170668693418918
 21
26.119191907467183
 31
0.0
  0
LINE
  5
291
100
AcDbEntity
  8
0
  6
CONTINUOUS
 62
               4
100
AcDbLine
 10
36.491880819018945
 20
25.199999988800386
 30
0.0
 11
30.792890923285569
 21
25.199999988800272
 31
0.0
  0
LINE
  5
292
100
AcDbEntity
  8
0
  6
CONTINUOUS
 62
               4
100
AcDbLine
 10
45.492890914885606
 20
24.203030292400541
 30
0.0
 11
45.19592121808563
 21
24.499999989200518
 31
0.0
  0
LINE
  5
293
100
AcDbEntity
  8
0
  6
CONTINUOUS
 62
               4
100
AcDbLine
 10
44.495921218485677
 20
20.102020193733807
 30
0.0
 11
44.495921218485677
 21
20.70303029440052
 31
0.0
  0
LINE
  5
294
100
AcDbEntity
  8
0
  6
CONTINUOUS
 62
               4
100
AcDbLine
 10
44.495921218485677
 20
20.70303029440052
 30
0.0
 11
39.49693132235231
 21
20.703030294400463
 31
0.0
  0
LINE
  5
295
100
AcDbEntity
  8
0
  6
CONTINUOUS
 62
               4
100
AcDbLine
 10
39.496931322352339
 20
20.102020193733694
 30
0.0
 11
39.49693132235231
 21
20.703030294400463
 31
0.0
  0
LINE
  5
296
100
AcDbEntity
  8
0
  6
CONTINUOUS
 62
               4
100
AcDbLine
 10
38.994911120618951
 20
24.203030292400427
 30
0.0
 11
39.291880817418928
 21
24.499999989200404
 31
0.0
  0
LINE
  5
297
100
AcDbEntity
  8
0
  6
CONTINUOUS
 62
               4
100
AcDbLine
 10
38.888850514618952
 20
26.20404039226716
 30
0.0
 11
29.795921226885554
 21
26.20404039226699
 31
0.0
  0
LINE
  5
298
100
AcDbEntity
  8
0
  6
CONTINUOUS
 62
               4
100
AcDbLine
 10
30.792890923285569
 20
25.101010089867003
 30
0.0
 11
30.792890923285569
 21
25.199999988800272
 31
0.0
  0
LINE
  5
299
100
AcDbEntity
  8
0
  6
CONTINUOUS
 62
               4
100
AcDbLine
 10
50.0605676799523
 20
21.95454544520058
 30
0.0
 11
45.492890914885663
 21
21.954545445200466
 31
0.0
  0
LINE
  5
29A
100
AcDbEntity
  8
0
  6
CONTINUOUS
 62
             200
100
AcDbLine
 10
48.823193943285617
 20
24.109040393467183
 30
0.0
 11
50.555517174619013
 21
21.10398989013396
 31
0.0
  0
LINE
  5
29B
100
AcDbEntity
  8
0
  6
CONTINUOUS
 62
               4
100
AcDbLine
 10
49.311072730885655
 20
23.255555545467246
 30
0.0
 11
45.492890914885635
 21
23.255555545467189
 31
0.0
  0
LINE
  5
29C
100
AcDbEntity
  8
0
  6
CONTINUOUS
 62
               4
100
AcDbLine
 10
45.49289091488555
 20
27.102020189733906
 30
0.0
 11
43.993901016752261
 21
27.102020189733906
 31
0.0
  0
LINE
  5
29D
100
AcDbEntity
  8
0
  6
CONTINUOUS
 62
               4
100
AcDbLine
 10
45.492890914885578
 20
26.105050493333835
 30
0.0
 11
44.085820208618884
 21
26.105050493333835
 31
0.0
  0
LINE
  5
29E
100
AcDbEntity
  8
0
  6
CONTINUOUS
 62
               4
100
AcDbLine
 10
45.19592121808563
 20
24.499999989200518
 30
0.0
 11
39.291880817418928
 21
24.499999989200404
 31
0.0
  0
LINE
  5
29F
100
AcDbEntity
  8
0
  6
CONTINUOUS
 62
               4
100
AcDbLine
 10
45.492890914885606
 20
24.203030292400541
 30
0.0
 11
37.898951525285668
 21
24.203030292400399
 31
0.0
  0
LINE
  5
2A0
100
AcDbEntity
  8
0
  6
CONTINUOUS
 62
               4
100
AcDbLine
 10
45.492890914885635
 20
23.50303029280056
 30
0.0
 11
37.495921222485663
 21
23.503030292800446
 31
0.0
  0
LINE
  5
2A1
100
AcDbEntity
  8
0
  6
CONTINUOUS
 62
               4
100
AcDbLine
 10
45.492890914885663
 20
21.699999990800563
 30
0.0
 11
37.495921222485691
 21
21.699999990800421
 31
0.0
  0
LINE
  5
2A2
100
AcDbEntity
  8
0
  6
CONTINUOUS
 62
               4
100
AcDbLine
 10
37.49592122248572
 20
20.102020193733694
 30
0.0
 11
39.496931322352339
 21
20.102020193733694
 31
0.0
  0
LINE
  5
2A3
100
AcDbEntity
  8
0
  6
CONTINUOUS
 62
               4
100
AcDbLine
 10
44.495921218485677
 20
20.102020193733807
 30
0.0
 11
45.492890914885692
 21
20.102020193733807
 31
0.0
  0
ARC
  5
2A4
100
AcDbEntity
  8
0
  6
CONTINUOUS
 62
               4
100
AcDbCircle
 10
36.996208899642653
 20
8.2525224605395806
 30
0.0
 40
0.4997133381008656
100
AcDbArc
 50
294.82621530980992
 51
359.88450442035736
  0
ARC
  5
2A5
100
AcDbEntity
  8
0
  6
CONTINUOUS
 62
               4
100
AcDbCircle
 10
36.999284371006951
 20
24.604373238388405
 30
0.0
 40
0.4966660273328702
100
AcDbArc
 50
359.37896036356483
 51
90.621039636434716
  0
ARC
  5
2A6
100
AcDbEntity
  8
0
  6
CONTINUOUS
 62
               4
100
AcDbCircle
 10
29.798382821803017
 20
25.904584129418936
 30
0.0
 40
0.2994663800970315
100
AcDbArc
 50
90.47097302846538
 51
180.87710076750685
  0
ARC
  5
2A7
100
AcDbEntity
  8
0
  6
CONTINUOUS
 62
               4
100
AcDbCircle
 10
36.498864044222813
 20
24.70503432509301
 30
0.0
 40
0.4950149226876426
100
AcDbArc
 50
53.123124741165753
 51
90.808304124579536
  0
ARC
  5
2A8
100
AcDbEntity
  8
0
  6
CONTINUOUS
 62
               4
100
AcDbCircle
 10
37.898847456464665
 20
24.605327231604917
 30
0.0
 40
0.4029269013737999
100
AcDbArc
 50
100.09177155739695
 51
179.8957164142515
  0
ARC
  5
2A9
100
AcDbEntity
  8
0
  6
CONTINUOUS
 62
               4
100
AcDbCircle
 10
37.899785569439985
 20
24.606894639354749
 30
0.0
 40
0.403865208170398
100
AcDbArc
 50
180.11832473551567
 51
269.88167526448677
  0
LINE
  5
2AA
100
AcDbEntity
  8
0
  6
CONTINUOUS
 62
             200
100
AcDbLine
 10
49.169658589552313
 20
24.109040393467239
 30
0.0
 11
50.901981820885709
 21
21.111060597200606
 31
0.0
  0
LINE
  5
2AB
100
AcDbEntity
  8
0
  6
CONTINUOUS
 62
               4
100
AcDbLine
 10
27.498951499050008
 20
26.499999999999972
 30
0.0
 11
15.498951503049966
 21
26.500000000000199
 31
0.0
  0
LINE
  5
2AC
100
AcDbEntity
  8
0
  6
CONTINUOUS
 62
               4
100
AcDbLine
 10
27.498951499050065
 20
28.100000000000023
 30
0.0
 11
27.498951499050008
 21
26.499999999999972
 31
0.0
  0
LINE
  5
2AD
100
AcDbEntity
  8
0
  6
CONTINUOUS
 62
               4
100
AcDbLine
 10
28.998951495050022
 20
28.000000000000028
 30
0.0
 11
27.498951499050037
 21
28.000000000000028
 31
0.0
  0
ARC
  5
2AE
100
AcDbEntity
  8
0
  6
CONTINUOUS
 62
               4
100
AcDbCircle
 10
28.998951495050022
 20
27.499999999999972
 30
0.0
 40
0.5
100
AcDbArc
 50
359.99999999999898
 51
89.999999999998778
  0
LINE
  5
2AF
100
AcDbEntity
  8
0
  6
CONTINUOUS
 62
               4
100
AcDbLine
 10
28.698951409050039
 20
28.100000000000023
 30
0.0
 11
16.298951589050034
 21
28.10000000000025
 31
0.0
  0
ARC
  5
2B0
100
AcDbEntity
  8
0
  6
CONTINUOUS
 62
               4
100
AcDbCircle
 10
15.998951503049966
 20
27.500000000000227
 30
0.0
 40
0.5
100
AcDbArc
 50
93.919585899649775
 51
179.99999999999858
  0
LINE
  5
2B1
100
AcDbEntity
  8
0
  6
CONTINUOUS
 62
               4
100
AcDbLine
 10
19.198951684085557
 20
27.500000000000171
 30
0.0
 11
15.498951503049966
 21
27.500000000000227
 31
0.0
  0
ARC
  5
2B2
100
AcDbEntity
  8
0
  6
CONTINUOUS
 62
               4
100
AcDbCircle
 10
16.297863583921753
 20
27.50108800512848
 30
0.0
 40
0.598912923125741
100
AcDbArc
 50
89.895914524771712
 51
180.10408547522565
  0
ARC
  5
2B3
100
AcDbEntity
  8
0
  6
CONTINUOUS
 62
               4
100
AcDbCircle
 10
28.699046555698715
 20
27.500095146648675
 30
0.0
 40
0.599904800896587
100
AcDbArc
 50
56.247417870392866
 51
90.009087277545149
  0
LINE
  5
2B4
100
AcDbEntity
  8
0
  6
CONTINUOUS
 62
               4
100
AcDbLine
 10
52.994911112618979
 20
21.959545445200604
 30
0.0
 11
52.994911112618951
 21
23.260555545467298
 31
0.0
  0
LINE
  5
2B5
100
AcDbEntity
  8
0
  6
CONTINUOUS
 62
               4
100
AcDbLine
 10
52.994911112618965
 20
22.859233112521451
 30
0.0
 11
56.494911112619022
 21
22.859233112521451
 31
0.0
  0
LINE
  5
2B6
100
AcDbEntity
  8
0
  6
CONTINUOUS
 62
               4
100
AcDbLine
 10
52.994911112618965
 20
22.359233112521451
 30
0.0
 11
56.494911112619022
 21
22.359233112521451
 31
0.0
  0
LINE
  5
2B7
100
AcDbEntity
  8
0
  6
CONTINUOUS
 62
               4
100
AcDbLine
 10
32.597486688513754
 20
5.6469560324809436
 30
0.0
 11
37.206022232752588
 21
7.7989898977337191
 31
0.0
  0
LINE
  5
2B8
100
AcDbEntity
  8
0
  6
CONTINUOUS
 62
               4
100
AcDbLine
 10
32.383800013285907
 20
5.600000000000307
 30
0.0
 11
32.383800013285565
 21
25.101010089867003
 31
0.0
  0
LINE
  5
2B9
100
AcDbEntity
  8
0
  6
CONTINUOUS
 62
               4
100
AcDbLine
 10
15.498951538085976
 20
5.5999999999999943
 30
0.0
 11
15.498951538085578
 21
27.499999999999972
 31
0.0
  0
LINE
  5
2BA
100
AcDbEntity
  8
0
  6
CONTINUOUS
 62
               4
100
AcDbLine
 10
29.498951530085577
 20
27.500000000000227
 30
0.0
 11
29.498951530085947
 21
5.6000000000002501
 31
0.0
  0
LINE
  5
2BB
100
AcDbEntity
  8
0
  6
CENTER
 62
               2
100
AcDbLine
 10
22.498951516567786
 20
31.262585161280541
 30
0.0
 11
22.498951516567786
 21
-27.594831691049194
 31
0.0
  0
ARC
  5
2BC
100
AcDbEntity
  8
0
  6
CONTINUOUS
 62
               7
100
AcDbCircle
 10
28.698951538085964
 20
-11.500000000000014
 30
0.0
 40
0.4
100
AcDbArc
 50
270.00000000000023
 51
0.0
  0
ARC
  5
2BD
100
AcDbEntity
  8
0
  6
CONTINUOUS
 62
               7
100
AcDbCircle
 10
28.698951538085964
 20
-9.3000000000000114
 30
0.0
 40
0.4
100
AcDbArc
 50
0.0
 51
89.999999999999815
  0
LINE
  5
2BE
100
AcDbEntity
  8
0
  6
CONTINUOUS
 62
               7
100
AcDbLine
 10
28.698951538085964
 20
-11.900000000000006
 30
0.0
 11
28.498951538085976
 21
-11.900000000000006
 31
0.0
  0
LINE
  5
2BF
100
AcDbEntity
  8
0
  6
CONTINUOUS
 62
               7
100
AcDbLine
 10
28.698951538085964
 20
-8.9000000000000057
 30
0.0
 11
28.498951538085976
 21
-8.9000000000000057
 31
0.0
  0
LINE
  5
2C0
100
AcDbEntity
  8
0
  6
CONTINUOUS
 62
               7
100
AcDbLine
 10
29.09895153808597
 20
-9.3000000000000114
 30
0.0
 11
29.09895153808597
 21
-11.500000000000014
 31
0.0
  0
LINE
  5
2C1
100
AcDbEntity
  8
0
  6
CONTINUOUS
 62
               7
100
AcDbLine
 10
15.498951538085976
 20
5.5999999999999943
 30
0.0
 11
15.498951538085976
 21
-25.199999999999903
 31
0.0
  0
LINE
  5
2C2
100
AcDbEntity
  8
0
  6
CONTINUOUS
 62
               7
100
AcDbLine
 10
14.498951538085976
 20
-5.7008234863280762
 30
0.0
 11
14.498951538085976
 21
-24.700823486328062
 31
0.0
  0
LINE
  5
2C3
100
AcDbEntity
  8
0
  6
CONTINUOUS
 62
               7
100
AcDbLine
 10
15.498951538085976
 20
-24.700823486328062
 30
0.0
 11
14.498951538085976
 21
-24.700823486328062
 31
0.0
  0
LINE
  5
2C4
100
AcDbEntity
  8
0
  6
CONTINUOUS
 62
               7
100
AcDbLine
 10
15.498951538085976
 20
0.099176513671992
 30
0.0
 11
14.498951538085976
 21
0.099176513671992
 31
0.0
  0
LINE
  5
2C5
100
AcDbEntity
  8
0
  6
CONTINUOUS
 62
               7
100
AcDbLine
 10
14.498951538085976
 20
0.099176513671992
 30
0.0
 11
14.498951538085976
 21
-4.7008234863280762
 31
0.0
  0
LINE
  5
2C6
100
AcDbEntity
  8
0
  6
CONTINUOUS
 62
               7
100
AcDbLine
 10
14.5
 20
2.7000000000000597
 30
0.0
 11
0.0
 21
2.7000000000000597
 31
0.0
  0
LINE
  5
2C7
100
AcDbEntity
  8
0
  6
CONTINUOUS
 62
               7
100
AcDbLine
 10
14.5
 20
-25.299999999999926
 30
0.0
 11
14.5
 21
2.7000000000000597
 31
0.0
  0
LINE
  5
2C8
100
AcDbEntity
  8
0
  6
CONTINUOUS
 62
               7
100
AcDbLine
 10
14.5
 20
-25.299999999999926
 30
0.0
 11
0.0
 21
-25.299999999999926
 31
0.0
  0
LINE
  5
2C9
100
AcDbEntity
  8
0
  6
CONTINUOUS
 62
               7
100
AcDbLine
 10
0.0
 20
2.7000000000000597
 30
0.0
 11
0.0
 21
-25.299999999999926
 31
0.0
  0
LINE
  5
2CA
100
AcDbEntity
  8
0
  6
CONTINUOUS
 62
               7
100
AcDbLine
 10
29.498951538085976
 20
-6.1000000000000085
 30
0.0
 11
29.498951538085976
 21
-25.199999999999903
 31
0.0
  0
LINE
  5
2CB
100
AcDbEntity
  8
0
  6
CONTINUOUS
 62
               7
100
AcDbLine
 10
15.498951538085976
 20
-6.1000000000000085
 30
0.0
 11
29.498951524567872
 21
-6.1000000000000085
 31
0.0
  0
LINE
  5
2CC
100
AcDbEntity
  8
0
  6
CONTINUOUS
 62
               7
100
AcDbLine
 10
15.498951538085976
 20
-20.600000000000009
 30
0.0
 11
29.498951524567872
 21
-20.600000000000009
 31
0.0
  0
ARC
  5
2CD
100
AcDbEntity
  8
0
  6
CONTINUOUS
 62
               7
100
AcDbCircle
 10
29.09992490511263
 20
-25.200973367026535
 30
0.0
 40
0.3990278201647513
100
AcDbArc
 50
269.8602356150771
 51
0.1397643849223044
  0
LINE
  5
2CE
100
AcDbEntity
  8
0
  6
CONTINUOUS
 62
               7
100
AcDbLine
 10
15.89895153808601
 20
-25.599999999999994
 30
0.0
 11
29.098951538085998
 21
-25.599999999999994
 31
0.0
  0
ARC
  5
2CF
100
AcDbEntity
  8
0
  6
CONTINUOUS
 62
               7
100
AcDbCircle
 10
15.897978171059378
 20
-25.200973367026535
 30
0.0
 40
0.3990278201647513
100
AcDbArc
 50
179.8602356150773
 51
270.1397643849217
  0
LINE
  5
2D0
100
AcDbEntity
  8
0
  6
CONTINUOUS
 62
               7
100
AcDbLine
 10
30.598951538085942
 20
-0.4000000000000057
 30
0.0
 11
30.598951538085942
 21
5.5999999999999943
 31
0.0
  0
LINE
  5
2D1
100
AcDbEntity
  8
0
  6
CONTINUOUS
 62
               7
100
AcDbLine
 10
31.046951538085978
 20
2.2000000000000171
 30
0.0
 11
30.598951538085942
 21
2.2000000000000171
 31
0.0
  0
LINE
  5
2D2
100
AcDbEntity
  8
0
  6
CONTINUOUS
 62
               7
100
AcDbLine
 10
31.046951538085978
 20
4.4000000000000625
 30
0.0
 11
30.598951538085942
 21
4.4000000000000625
 31
0.0
  0
LINE
  5
2D3
100
AcDbEntity
  8
0
  6
CONTINUOUS
 62
               7
100
AcDbLine
 10
31.046951538085978
 20
2.2000000000000171
 30
0.0
 11
31.046951538085978
 21
4.4000000000000625
 31
0.0
  0
LINE
  5
2D4
100
AcDbEntity
  8
0
  6
CONTINUOUS
 62
               7
100
AcDbLine
 10
15.498951538085976
 20
5.5999999999999943
 30
0.0
 11
30.598951538085942
 21
5.5999999999999943
 31
0.0
  0
LINE
  5
2D5
100
AcDbEntity
  8
0
  6
CONTINUOUS
 62
               7
100
AcDbLine
 10
29.498951538085976
 20
5.6049999999999898
 30
0.0
 11
29.498951538085976
 21
-6.1000000000000085
 31
0.0
  0
LINE
  5
2D6
100
AcDbEntity
  8
0
  6
CONTINUOUS
 62
               7
100
AcDbLine
 10
29.498951538085976
 20
-1.4999999999999147
 30
0.0
 11
30.598951538085942
 21
-0.4000000000000057
 31
0.0
  0
ARC
  5
2D7
100
AcDbEntity
  8
0
  6
CONTINUOUS
 62
               7
100
AcDbCircle
 10
28.888397569976917
 20
-24.331748731346892
 30
0.0
 40
0.6105564724372721
100
AcDbArc
 50
286.22092756849014
 51
0.1641044967937703
  0
LINE
  5
2D8
100
AcDbEntity
  8
0
  6
CONTINUOUS
 62
               7
100
AcDbLine
 10
29.498951538085976
 20
-23.79999999999994
 30
0.0
 11
25.978951538085994
 21
-23.79999999999994
 31
0.0
  0
ARC
  5
2D9
100
AcDbEntity
  8
0
  6
CONTINUOUS
 62
               7
100
AcDbCircle
 10
29.179846674944883
 20
-23.50089513685883
 30
0.0
 40
0.2991062025847394
100
AcDbArc
 50
269.82853033399044
 51
0.1714696660097498
  0
LINE
  5
2DA
100
AcDbEntity
  8
0
  6
CONTINUOUS
 62
               7
100
AcDbLine
 10
25.978951538085994
 20
-25.599999999999994
 30
0.0
 11
25.978951538085994
 21
-23.79999999999994
 31
0.0
  0
LINE
  5
2DB
100
AcDbEntity
  8
0
  6
CONTINUOUS
 62
               7
100
AcDbLine
 10
26.058951538085978
 20
-24.329999999999899
 30
0.0
 11
26.058951538085978
 21
-23.79999999999994
 31
0.0
  0
ARC
  5
2DC
100
AcDbEntity
  8
0
  6
CONTINUOUS
 62
               7
100
AcDbCircle
 10
26.670723533919897
 20
-24.330837282028909
 30
0.0
 40
0.6117725687931934
100
AcDbArc
 50
179.9215840265656
 51
253.6933839081498
  0
ARC
  5
2DD
100
AcDbEntity
  8
0
  6
CONTINUOUS
 62
               7
100
AcDbCircle
 10
27.778951538085948
 20
-20.512578763265978
 30
0.0
 40
4.5876068132596712
100
AcDbArc
 50
253.7987189241569
 51
286.20128107584202
  0
LINE
  5
2DE
100
AcDbEntity
  8
0
  6
CENTER
 62
               2
100
AcDbLine
 10
8.5
 20
-11.29999999999994
 30
0.0
 11
1.5
 21
-11.29999999999994
 31
0.0
  0
CIRCLE
  5
2DF
100
AcDbEntity
  8
0
  6
CONTINUOUS
 62
               2
100
AcDbCircle
 10
4.9933435058593716
 20
-11.29999999999994
 30
0.0
 40
2.5
  0
CIRCLE
  5
2E0
100
AcDbEntity
  8
0
  6
CONTINUOUS
 62
               7
100
AcDbCircle
 10
4.9933435058593716
 20
-11.29999999999994
 30
0.0
 40
2.0
  0
LINE
  5
2E1
100
AcDbEntity
  8
0
  6
CENTER
 62
               2
100
AcDbLine
 10
5.0
 20
-7.7999999999999403
 30
0.0
 11
5.0
 21
-14.79999999999994
 31
0.0
  0
LINE
  5
2E2
100
AcDbEntity
  8
0
  6
CONTINUOUS
 62
               7
100
AcDbLine
 10
28.498951533131617
 20
-8.8000000000000114
 30
0.0
 11
29.498951538085976
 21
-8.8000000000000114
 31
0.0
  0
LINE
  5
2E3
100
AcDbEntity
  8
0
  6
CONTINUOUS
 62
               7
100
AcDbLine
 10
28.498951533131617
 20
-12.000000000000014
 30
0.0
 11
29.498951538085976
 21
-12.000000000000014
 31
0.0
  0
LINE
  5
2E4
100
AcDbEntity
  8
0
  6
CONTINUOUS
 62
               7
100
AcDbLine
 10
28.498951538085976
 20
-8.8000000000000114
 30
0.0
 11
28.498951538085976
 21
-12.000000000000014
 31
0.0
  0
LINE
  5
2E5
100
AcDbEntity
  8
0
  6
CENTER
 62
               2
100
AcDbLine
 10
5.0
 20
0.2162062056380307
 30
0.0
 11
5.0
 21
17.830000000000069
 31
0.0
  0
LINE
  5
2E6
100
AcDbEntity
  8
0
  6
PHANTOM
 62
             200
100
AcDbLine
 10
1.0
 20
2.7000000000000597
 30
0.0
 11
1.0
 21
16.200000000000074
 31
0.0
  0
LINE
  5
2E7
100
AcDbEntity
  8
0
  6
PHANTOM
 62
             200
100
AcDbLine
 10
9.0
 20
2.7000000000000597
 30
0.0
 11
9.0
 21
16.200000000000074
 31
0.0
  0
ARC
  5
2E8
100
AcDbEntity
  8
0
  6
PHANTOM
 62
             200
100
AcDbCircle
 10
1.5
 20
16.200000000000074
 30
0.0
 40
0.5
100
AcDbArc
 50
89.999999999999815
 51
179.99999999999963
  0
ARC
  5
2E9
100
AcDbEntity
  8
0
  6
PHANTOM
 62
             200
100
AcDbCircle
 10
8.5
 20
16.200000000000074
 30
0.0
 40
0.5
100
AcDbArc
 50
0.0
 51
89.999999999999815
  0
LINE
  5
2EA
100
AcDbEntity
  8
0
  6
PHANTOM
 62
             200
100
AcDbLine
 10
1.5
 20
16.700000000000074
 30
0.0
 11
8.5
 21
16.700000000000074
 31
0.0
  0
LINE
  5
2EB
100
AcDbEntity
  8
0
  6
PHANTOM
 62
             200
100
AcDbLine
 10
1.0
 20
14.200000000000074
 30
0.0
 11
9.0
 21
14.200000000000074
 31
0.0
  0
LINE
  5
2EC
100
AcDbEntity
  8
0
  6
PHANTOM
 62
             200
100
AcDbLine
 10
8.6999999999999886
 20
14.200000000000074
 30
0.0
 11
8.6999999999999886
 21
16.200000000000074
 31
0.0
  0
LINE
  5
2ED
100
AcDbEntity
  8
0
  6
PHANTOM
 62
             200
100
AcDbLine
 10
8.1999999999999886
 20
14.200000000000074
 30
0.0
 11
8.1999999999999886
 21
16.200000000000074
 31
0.0
  0
LINE
  5
2EE
100
AcDbEntity
  8
0
  6
PHANTOM
 62
             200
100
AcDbLine
 10
7.5
 20
14.200000000000074
 30
0.0
 11
7.5
 21
16.200000000000074
 31
0.0
  0
LINE
  5
2EF
100
AcDbEntity
  8
0
  6
PHANTOM
 62
             200
100
AcDbLine
 10
6.5999999999999943
 20
14.200000000000074
 30
0.0
 11
6.5999999999999943
 21
16.200000000000074
 31
0.0
  0
LINE
  5
2F0
100
AcDbEntity
  8
0
  6
PHANTOM
 62
             200
100
AcDbLine
 10
1.0
 20
16.200000000000074
 30
0.0
 11
9.0
 21
16.200000000000074
 31
0.0
  0
LINE
  5
2F1
100
AcDbEntity
  8
0
  6
PHANTOM
 62
             200
100
AcDbLine
 10
5.6999999999999886
 20
14.200000000000074
 30
0.0
 11
5.6999999999999886
 21
16.200000000000074
 31
0.0
  0
LINE
  5
2F2
100
AcDbEntity
  8
0
  6
PHANTOM
 62
             200
100
AcDbLine
 10
1.3000000000000114
 20
14.200000000000074
 30
0.0
 11
1.3000000000000114
 21
16.200000000000074
 31
0.0
  0
LINE
  5
2F3
100
AcDbEntity
  8
0
  6
PHANTOM
 62
             200
100
AcDbLine
 10
1.8000000000000114
 20
14.200000000000074
 30
0.0
 11
1.8000000000000114
 21
16.200000000000074
 31
0.0
  0
LINE
  5
2F4
100
AcDbEntity
  8
0
  6
PHANTOM
 62
             200
100
AcDbLine
 10
2.5
 20
14.200000000000074
 30
0.0
 11
2.5
 21
16.200000000000074
 31
0.0
  0
LINE
  5
2F5
100
AcDbEntity
  8
0
  6
PHANTOM
 62
             200
100
AcDbLine
 10
4.3000000000000114
 20
14.200000000000074
 30
0.0
 11
4.3000000000000114
 21
16.200000000000074
 31
0.0
  0
LINE
  5
2F6
100
AcDbEntity
  8
0
  6
PHANTOM
 62
             200
100
AcDbLine
 10
3.4000000000000057
 20
14.200000000000074
 30
0.0
 11
3.4000000000000057
 21
16.200000000000074
 31
0.0
  0
LINE
  5
2F7
100
AcDbEntity
  8
0
  6
CENTER
 62
               2
100
AcDbLine
 10
-2.0
 20
0.0
 30
0.0
 11
2.0
 21
0.0
 31
0.0
  0
LINE
  5
2F8
100
AcDbEntity
  8
0
  6
CENTER
 62
               2
100
AcDbLine
 10
-2.0
 20
-22.599999999999994
 30
0.0
 11
2.0
 21
-22.599999999999994
 31
0.0
  0
ENDBLK
  5
2F9
100
AcDbEntity
  8
0
100
AcDbBlockEnd
  0
BLOCK
  5
2FA
100
AcDbEntity
  8
0
100
AcDbBlockBegin
  2
EB10SA1-7
 70
               0
 10
0.0
 20
0.0
 30
0.0
  3
EB10SA1-7
  1

  0
LINE
  5
2FB
100
AcDbEntity
  8
0
  6
CENTER
 62
               2
100
AcDbLine
 10
-22.498951538085976
 20
31.262585161280541
 30
0.0
 11
-22.498951538085976
 21
-27.594831691049194
 31
0.0
  0
ARC
  5
2FC
100
AcDbEntity
  8
0
  6
CONTINUOUS
 62
               4
100
AcDbCircle
 10
-32.385932265648933
 20
6.0999954535712106
 30
0.0
 40
0.5
100
AcDbArc
 50
244.96897918277975
 51
270.24433639702255
  0
LINE
  5
2FD
100
AcDbEntity
  8
0
  6
CONTINUOUS
 62
               4
100
AcDbLine
 10
-29.498951551604137
 20
5.6000000000002501
 30
0.0
 11
-32.383800034804096
 21
5.6000000000002501
 31
0.0
  0
LINE
  5
2FE
100
AcDbEntity
  8
0
  6
CONTINUOUS
 62
               4
100
AcDbLine
 10
-52.994911134137155
 20
22.359233112521451
 30
0.0
 11
-56.494911134137212
 21
22.359233112521451
 31
0.0
  0
LINE
  5
2FF
100
AcDbEntity
  8
0
  6
CONTINUOUS
 62
               4
100
AcDbLine
 10
-52.994911134137155
 20
22.859233112521451
 30
0.0
 11
-56.494911134137212
 21
22.859233112521451
 31
0.0
  0
LINE
  5
300
100
AcDbEntity
  8
0
  6
CONTINUOUS
 62
               4
100
AcDbLine
 10
-52.994911134137169
 20
21.959545445200604
 30
0.0
 11
-52.994911134137141
 21
23.260555545467298
 31
0.0
  0
ARC
  5
301
100
AcDbEntity
  8
0
  6
CONTINUOUS
 62
               4
100
AcDbCircle
 10
-16.298856498955047
 20
27.500095146648675
 30
0.0
 40
0.599904800896587
100
AcDbArc
 50
56.247417870392866
 51
90.009087277545149
  0
ARC
  5
302
100
AcDbEntity
  8
0
  6
CONTINUOUS
 62
               4
100
AcDbCircle
 10
-28.700039470732008
 20
27.50108800512848
 30
0.0
 40
0.598912923125741
100
AcDbArc
 50
89.895914524771712
 51
180.10408547522565
  0
LINE
  5
303
100
AcDbEntity
  8
0
  6
CONTINUOUS
 62
               4
100
AcDbLine
 10
-25.798951370568204
 20
27.500000000000171
 30
0.0
 11
-29.498951551603795
 21
27.500000000000227
 31
0.0
  0
ARC
  5
304
100
AcDbEntity
  8
0
  6
CONTINUOUS
 62
               4
100
AcDbCircle
 10
-28.998951551603795
 20
27.500000000000227
 30
0.0
 40
0.5
100
AcDbArc
 50
93.919585899649775
 51
179.99999999999858
  0
LINE
  5
305
100
AcDbEntity
  8
0
  6
CONTINUOUS
 62
               4
100
AcDbLine
 10
-16.298951645603722
 20
28.100000000000023
 30
0.0
 11
-28.698951465603727
 21
28.10000000000025
 31
0.0
  0
ARC
  5
306
100
AcDbEntity
  8
0
  6
CONTINUOUS
 62
               4
100
AcDbCircle
 10
-15.998951559603739
 20
27.499999999999972
 30
0.0
 40
0.5
100
AcDbArc
 50
359.99999999999898
 51
89.999999999998778
  0
LINE
  5
307
100
AcDbEntity
  8
0
  6
CONTINUOUS
 62
               4
100
AcDbLine
 10
-15.998951559603739
 20
28.000000000000028
 30
0.0
 11
-17.498951555603725
 21
28.000000000000028
 31
0.0
  0
LINE
  5
308
100
AcDbEntity
  8
0
  6
CONTINUOUS
 62
               4
100
AcDbLine
 10
-17.498951555603696
 20
28.100000000000023
 30
0.0
 11
-17.498951555603753
 21
26.499999999999972
 31
0.0
  0
LINE
  5
309
100
AcDbEntity
  8
0
  6
CONTINUOUS
 62
               4
100
AcDbLine
 10
-17.498951555603753
 20
26.499999999999972
 30
0.0
 11
-29.498951551603795
 21
26.500000000000199
 31
0.0
  0
LINE
  5
30A
100
AcDbEntity
  8
0
  6
CONTINUOUS
 62
             200
100
AcDbLine
 10
-49.169658611070503
 20
24.109040393467239
 30
0.0
 11
-50.901981842403899
 21
21.111060597200606
 31
0.0
  0
ARC
  5
30B
100
AcDbEntity
  8
0
  6
CONTINUOUS
 62
               4
100
AcDbCircle
 10
-37.899785590958174
 20
24.606894639354749
 30
0.0
 40
0.403865208170398
100
AcDbArc
 50
270.11832473551203
 51
359.88167526448314
  0
ARC
  5
30C
100
AcDbEntity
  8
0
  6
CONTINUOUS
 62
               4
100
AcDbCircle
 10
-37.898847477982855
 20
24.605327231604917
 30
0.0
 40
0.4029269013737999
100
AcDbArc
 50
0.1042835857481077
 51
79.908228442602635
  0
ARC
  5
30D
100
AcDbEntity
  8
0
  6
CONTINUOUS
 62
               4
100
AcDbCircle
 10
-36.498864065741003
 20
24.70503432509301
 30
0.0
 40
0.4950149226876426
100
AcDbArc
 50
89.191695875420052
 51
126.87687525883385
  0
ARC
  5
30E
100
AcDbEntity
  8
0
  6
CONTINUOUS
 62
               4
100
AcDbCircle
 10
-29.798382843321207
 20
25.904584129418936
 30
0.0
 40
0.2994663800970315
100
AcDbArc
 50
359.12289923249193
 51
89.529026971534208
  0
ARC
  5
30F
100
AcDbEntity
  8
0
  6
CONTINUOUS
 62
               4
100
AcDbCircle
 10
-36.999284392525141
 20
24.604373238388405
 30
0.0
 40
0.4966660273328702
100
AcDbArc
 50
89.378960363564886
 51
180.62103963643477
  0
ARC
  5
310
100
AcDbEntity
  8
0
  6
CONTINUOUS
 62
               4
100
AcDbCircle
 10
-36.996208921160843
 20
8.2525224605395806
 30
0.0
 40
0.4997133381008656
100
AcDbArc
 50
180.11549557964145
 51
245.17378469018888
  0
LINE
  5
311
100
AcDbEntity
  8
0
  6
CONTINUOUS
 62
               4
100
AcDbLine
 10
-44.495921240003867
 20
20.102020193733807
 30
0.0
 11
-45.492890936403882
 21
20.102020193733807
 31
0.0
  0
LINE
  5
312
100
AcDbEntity
  8
0
  6
CONTINUOUS
 62
               4
100
AcDbLine
 10
-37.49592124400391
 20
20.102020193733694
 30
0.0
 11
-39.496931343870529
 21
20.102020193733694
 31
0.0
  0
LINE
  5
313
100
AcDbEntity
  8
0
  6
CONTINUOUS
 62
               4
100
AcDbLine
 10
-45.492890936403853
 20
21.699999990800563
 30
0.0
 11
-37.495921244003881
 21
21.699999990800421
 31
0.0
  0
LINE
  5
314
100
AcDbEntity
  8
0
  6
CONTINUOUS
 62
               4
100
AcDbLine
 10
-45.492890936403825
 20
23.50303029280056
 30
0.0
 11
-37.495921244003853
 21
23.503030292800446
 31
0.0
  0
LINE
  5
315
100
AcDbEntity
  8
0
  6
CONTINUOUS
 62
               4
100
AcDbLine
 10
-45.492890936403796
 20
24.203030292400541
 30
0.0
 11
-37.898951546803858
 21
24.203030292400399
 31
0.0
  0
LINE
  5
316
100
AcDbEntity
  8
0
  6
CONTINUOUS
 62
               4
100
AcDbLine
 10
-45.19592123960382
 20
24.499999989200518
 30
0.0
 11
-39.291880838937118
 21
24.499999989200404
 31
0.0
  0
LINE
  5
317
100
AcDbEntity
  8
0
  6
CONTINUOUS
 62
               4
100
AcDbLine
 10
-45.492890936403768
 20
26.105050493333835
 30
0.0
 11
-44.085820230137074
 21
26.105050493333835
 31
0.0
  0
LINE
  5
318
100
AcDbEntity
  8
0
  6
CONTINUOUS
 62
               4
100
AcDbLine
 10
-45.492890936403739
 20
27.102020189733906
 30
0.0
 11
-43.993901038270451
 21
27.102020189733906
 31
0.0
  0
LINE
  5
319
100
AcDbEntity
  8
0
  6
CONTINUOUS
 62
               4
100
AcDbLine
 10
-49.311072752403845
 20
23.255555545467246
 30
0.0
 11
-45.492890936403825
 21
23.255555545467189
 31
0.0
  0
LINE
  5
31A
100
AcDbEntity
  8
0
  6
CONTINUOUS
 62
             200
100
AcDbLine
 10
-48.823193964803806
 20
24.109040393467183
 30
0.0
 11
-50.555517196137203
 21
21.10398989013396
 31
0.0
  0
LINE
  5
31B
100
AcDbEntity
  8
0
  6
CONTINUOUS
 62
               4
100
AcDbLine
 10
-50.06056770147049
 20
21.95454544520058
 30
0.0
 11
-45.492890936403853
 21
21.954545445200466
 31
0.0
  0
LINE
  5
31C
100
AcDbEntity
  8
0
  6
CONTINUOUS
 62
               4
100
AcDbLine
 10
-30.792890944803759
 20
25.101010089867003
 30
0.0
 11
-30.792890944803759
 21
25.199999988800272
 31
0.0
  0
LINE
  5
31D
100
AcDbEntity
  8
0
  6
CONTINUOUS
 62
               4
100
AcDbLine
 10
-38.888850536137141
 20
26.20404039226716
 30
0.0
 11
-29.795921248403744
 21
26.20404039226699
 31
0.0
  0
LINE
  5
31E
100
AcDbEntity
  8
0
  6
CONTINUOUS
 62
               4
100
AcDbLine
 10
-38.994911142137141
 20
24.203030292400427
 30
0.0
 11
-39.291880838937118
 21
24.499999989200404
 31
0.0
  0
LINE
  5
31F
100
AcDbEntity
  8
0
  6
CONTINUOUS
 62
               4
100
AcDbLine
 10
-39.496931343870529
 20
20.102020193733694
 30
0.0
 11
-39.4969313438705
 21
20.703030294400463
 31
0.0
  0
LINE
  5
320
100
AcDbEntity
  8
0
  6
CONTINUOUS
 62
               4
100
AcDbLine
 10
-44.495921240003867
 20
20.70303029440052
 30
0.0
 11
-39.4969313438705
 21
20.703030294400463
 31
0.0
  0
LINE
  5
321
100
AcDbEntity
  8
0
  6
CONTINUOUS
 62
               4
100
AcDbLine
 10
-44.495921240003867
 20
20.102020193733807
 30
0.0
 11
-44.495921240003867
 21
20.70303029440052
 31
0.0
  0
LINE
  5
322
100
AcDbEntity
  8
0
  6
CONTINUOUS
 62
               4
100
AcDbLine
 10
-45.492890936403796
 20
24.203030292400541
 30
0.0
 11
-45.19592123960382
 21
24.499999989200518
 31
0.0
  0
LINE
  5
323
100
AcDbEntity
  8
0
  6
CONTINUOUS
 62
               4
100
AcDbLine
 10
-36.491880840537135
 20
25.199999988800386
 30
0.0
 11
-30.792890944803759
 21
25.199999988800272
 31
0.0
  0
LINE
  5
324
100
AcDbEntity
  8
0
  6
CONTINUOUS
 62
               4
100
AcDbLine
 10
-37.828244476137172
 20
25.002020190933678
 30
0.0
 11
-44.170668714937108
 21
26.119191907467183
 31
0.0
  0
LINE
  5
325
100
AcDbEntity
  8
0
  6
CONTINUOUS
 62
               4
100
AcDbLine
 10
-45.492890936403768
 20
26.105050493333835
 30
0.0
 11
-45.492890936403739
 21
27.102020189733906
 31
0.0
  0
LINE
  5
326
100
AcDbEntity
  8
0
  6
CONTINUOUS
 62
               4
100
AcDbLine
 10
-38.888850536137141
 20
26.20404039226716
 30
0.0
 11
-43.993901038270451
 21
27.102020189733906
 31
0.0
  0
LINE
  5
327
100
AcDbEntity
  8
0
  6
CONTINUOUS
 62
               4
100
AcDbLine
 10
-45.492890936403882
 20
20.102020193733807
 30
0.0
 11
-45.492890936403796
 21
24.203030292400541
 31
0.0
  0
LINE
  5
328
100
AcDbEntity
  8
0
  6
CONTINUOUS
 62
               4
100
AcDbLine
 10
-37.495921244003824
 20
24.59898988813373
 30
0.0
 11
-37.495921244004137
 21
8.251515150000472
 31
0.0
  0
LINE
  5
329
100
AcDbEntity
  8
0
  6
CONTINUOUS
 62
               4
100
AcDbLine
 10
-29.498951551603795
 20
25.101010089866946
 30
0.0
 11
-36.993901042270465
 21
25.101010089867117
 31
0.0
  0
LINE
  5
32A
100
AcDbEntity
  8
0
  6
CONTINUOUS
 62
               4
100
AcDbLine
 10
-52.994911134137169
 20
21.959545445200604
 30
0.0
 11
-50.407032347737186
 21
21.959545445200547
 31
0.0
  0
LINE
  5
32B
100
AcDbEntity
  8
0
  6
CONTINUOUS
 62
               4
100
AcDbLine
 10
-52.994911134137141
 20
23.260555545467298
 30
0.0
 11
-49.657537398670542
 21
23.260555545467241
 31
0.0
  0
LINE
  5
32C
100
AcDbEntity
  8
0
  6
CONTINUOUS
 62
               4
100
AcDbLine
 10
-25.798951370568204
 20
27.500000000000256
 30
0.0
 11
-25.798951370568204
 21
28.100000000000279
 31
0.0
  0
ARC
  5
32D
100
AcDbEntity
  8
0
  6
CONTINUOUS
 62
               4
100
AcDbCircle
 10
-26.897863365331119
 20
27.501088005237278
 30
0.0
 40
0.5989129830170392
100
AcDbArc
 50
359.89591452477299
 51
90.104085475226924
  0
LINE
  5
32E
100
AcDbEntity
  8
0
  6
CONTINUOUS
 62
               4
100
AcDbLine
 10
-56.494911134137212
 20
22.359233128737031
 30
0.0
 11
-56.494911134137212
 21
22.859233128737031
 31
0.0
  0
LINE
  5
32F
100
AcDbEntity
  8
0
  6
CONTINUOUS
 62
               4
100
AcDbLine
 10
-32.59748671003193
 20
5.6469560324809436
 30
0.0
 11
-37.206022254270778
 21
7.7989898977337191
 31
0.0
  0
LINE
  5
330
100
AcDbEntity
  8
0
  6
CONTINUOUS
 62
               4
100
AcDbLine
 10
-32.383800034804096
 20
5.600000000000307
 30
0.0
 11
-32.383800034803755
 21
25.101010089867003
 31
0.0
  0
LINE
  5
331
100
AcDbEntity
  8
0
  6
CONTINUOUS
 62
               4
100
AcDbLine
 10
-15.498951559604166
 20
5.5999999999999943
 30
0.0
 11
-15.498951559603768
 21
27.499999999999972
 31
0.0
  0
LINE
  5
332
100
AcDbEntity
  8
0
  6
CONTINUOUS
 62
               4
100
AcDbLine
 10
-29.498951551603767
 20
27.500000000000227
 30
0.0
 11
-29.498951551604137
 21
5.6000000000002501
 31
0.0
  0
ARC
  5
333
100
AcDbEntity
  8
0
  6
CONTINUOUS
 62
               7
100
AcDbCircle
 10
-28.698951538085964
 20
-17.400000000000006
 30
0.0
 40
0.4
100
AcDbArc
 50
179.99999999999963
 51
269.99999999999937
  0
ARC
  5
334
100
AcDbEntity
  8
0
  6
CONTINUOUS
 62
               7
100
AcDbCircle
 10
-28.698951538085964
 20
-15.200000000000017
 30
0.0
 40
0.4
100
AcDbArc
 50
89.999999999999815
 51
179.99999999999963
  0
LINE
  5
335
100
AcDbEntity
  8
0
  6
CONTINUOUS
 62
               7
100
AcDbLine
 10
-28.698951538085964
 20
-14.800000000000011
 30
0.0
 11
-28.498951538085976
 21
-14.800000000000011
 31
0.0
  0
LINE
  5
336
100
AcDbEntity
  8
0
  6
CONTINUOUS
 62
               7
100
AcDbLine
 10
-28.698951538085964
 20
-17.800000000000011
 30
0.0
 11
-28.498951538085976
 21
-17.800000000000011
 31
0.0
  0
LINE
  5
337
100
AcDbEntity
  8
0
  6
CONTINUOUS
 62
               7
100
AcDbLine
 10
-29.09895153808597
 20
-15.200000000000017
 30
0.0
 11
-29.09895153808597
 21
-17.400000000000006
 31
0.0
  0
ARC
  5
338
100
AcDbEntity
  8
0
  6
CONTINUOUS
 62
               7
100
AcDbCircle
 10
-17.218951538086003
 20
-20.512578763265978
 30
0.0
 40
4.5876068132596712
100
AcDbArc
 50
253.7987189241569
 51
286.20128107584202
  0
ARC
  5
339
100
AcDbEntity
  8
0
  6
CONTINUOUS
 62
               7
100
AcDbCircle
 10
-18.327179542252054
 20
-24.330837282028909
 30
0.0
 40
0.6117725687931934
100
AcDbArc
 50
179.9215840265656
 51
253.6933839081498
  0
LINE
  5
33A
100
AcDbEntity
  8
0
  6
CONTINUOUS
 62
               7
100
AcDbLine
 10
-18.938951538085973
 20
-24.329999999999899
 30
0.0
 11
-18.938951538085973
 21
-23.79999999999994
 31
0.0
  0
LINE
  5
33B
100
AcDbEntity
  8
0
  6
CONTINUOUS
 62
               7
100
AcDbLine
 10
-19.018951538085958
 20
-25.599999999999994
 30
0.0
 11
-19.018951538085958
 21
-23.79999999999994
 31
0.0
  0
ARC
  5
33C
100
AcDbEntity
  8
0
  6
CONTINUOUS
 62
               7
100
AcDbCircle
 10
-15.818056401227068
 20
-23.50089513685883
 30
0.0
 40
0.2991062025847394
100
AcDbArc
 50
269.82853033399044
 51
0.1714696660097498
  0
LINE
  5
33D
100
AcDbEntity
  8
0
  6
CONTINUOUS
 62
               7
100
AcDbLine
 10
-15.498951538085976
 20
-23.79999999999994
 30
0.0
 11
-19.018951538085958
 21
-23.79999999999994
 31
0.0
  0
ARC
  5
33E
100
AcDbEntity
  8
0
  6
CONTINUOUS
 62
               7
100
AcDbCircle
 10
-16.109505506195035
 20
-24.331748731346892
 30
0.0
 40
0.6105564724372721
100
AcDbArc
 50
286.22092756849014
 51
0.1641044967937703
  0
LINE
  5
33F
100
AcDbEntity
  8
0
  6
CONTINUOUS
 62
               7
100
AcDbLine
 10
-29.498951538085976
 20
-1.4999999999999147
 30
0.0
 11
-30.598951538085942
 21
-0.4000000000000057
 31
0.0
  0
LINE
  5
340
100
AcDbEntity
  8
0
  6
CONTINUOUS
 62
               7
100
AcDbLine
 10
-29.498951538085976
 20
5.5999999999999943
 30
0.0
 11
-29.498951538085976
 21
-6.1000000000000085
 31
0.0
  0
LINE
  5
341
100
AcDbEntity
  8
0
  6
CONTINUOUS
 62
               7
100
AcDbLine
 10
-15.498951538085976
 20
5.5999999999999943
 30
0.0
 11
-30.598951538085942
 21
5.5999999999999943
 31
0.0
  0
LINE
  5
342
100
AcDbEntity
  8
0
  6
CONTINUOUS
 62
               7
100
AcDbLine
 10
-31.046951538085978
 20
2.2000000000000171
 30
0.0
 11
-31.046951538085978
 21
4.4000000000000625
 31
0.0
  0
LINE
  5
343
100
AcDbEntity
  8
0
  6
CONTINUOUS
 62
               7
100
AcDbLine
 10
-31.046951538085978
 20
4.4000000000000625
 30
0.0
 11
-30.598951538085942
 21
4.4000000000000625
 31
0.0
  0
LINE
  5
344
100
AcDbEntity
  8
0
  6
CONTINUOUS
 62
               7
100
AcDbLine
 10
-31.046951538085978
 20
2.2000000000000171
 30
0.0
 11
-30.598951538085942
 21
2.2000000000000171
 31
0.0
  0
LINE
  5
345
100
AcDbEntity
  8
0
  6
CONTINUOUS
 62
               7
100
AcDbLine
 10
-30.598951538085942
 20
-0.4000000000000057
 30
0.0
 11
-30.598951538085942
 21
5.5999999999999943
 31
0.0
  0
ARC
  5
346
100
AcDbEntity
  8
0
  6
CONTINUOUS
 62
               7
100
AcDbCircle
 10
-29.099924905112573
 20
-25.200973367026535
 30
0.0
 40
0.3990278201647513
100
AcDbArc
 50
179.8602356150773
 51
270.1397643849217
  0
LINE
  5
347
100
AcDbEntity
  8
0
  6
CONTINUOUS
 62
               7
100
AcDbLine
 10
-29.098951538085942
 20
-25.599999999999994
 30
0.0
 11
-15.898951538085953
 21
-25.599999999999994
 31
0.0
  0
ARC
  5
348
100
AcDbEntity
  8
0
  6
CONTINUOUS
 62
               7
100
AcDbCircle
 10
-15.897978171059322
 20
-25.200973367026535
 30
0.0
 40
0.3990278201647513
100
AcDbArc
 50
269.8602356150771
 51
0.1397643849223044
  0
LINE
  5
349
100
AcDbEntity
  8
0
  6
CONTINUOUS
 62
               7
100
AcDbLine
 10
-15.498951538085976
 20
-20.600000000000009
 30
0.0
 11
-29.498951524567872
 21
-20.600000000000009
 31
0.0
  0
LINE
  5
34A
100
AcDbEntity
  8
0
  6
CONTINUOUS
 62
               7
100
AcDbLine
 10
-15.498951538085976
 20
-6.1000000000000085
 30
0.0
 11
-29.498951524567872
 21
-6.1000000000000085
 31
0.0
  0
LINE
  5
34B
100
AcDbEntity
  8
0
  6
CONTINUOUS
 62
               7
100
AcDbLine
 10
-29.498951538085976
 20
-6.1000000000000085
 30
0.0
 11
-29.498951538085976
 21
-25.199999999999903
 31
0.0
  0
LINE
  5
34C
100
AcDbEntity
  8
0
  6
CONTINUOUS
 62
               7
100
AcDbLine
 10
0.0
 20
2.7000000000000597
 30
0.0
 11
0.0
 21
-25.299999999999926
 31
0.0
  0
LINE
  5
34D
100
AcDbEntity
  8
0
  6
CENTER
 62
               2
100
AcDbLine
 10
-5.0
 20
-14.399999999999963
 30
0.0
 11
-5.0
 21
-20.199999999999918
 31
0.0
  0
LINE
  5
34E
100
AcDbEntity
  8
0
  6
CENTER
 62
               2
100
AcDbLine
 10
-12.386000000000024
 20
-8.2999999999999403
 30
0.0
 11
-6.6000000000000227
 21
-8.2999999999999403
 31
0.0
  0
CIRCLE
  5
34F
100
AcDbEntity
  8
0
  6
CONTINUOUS
 62
               7
100
AcDbCircle
 10
-9.4989515380859757
 20
-8.300817382812383
 30
0.0
 40
2.0669994354248047
  0
CIRCLE
  5
350
100
AcDbEntity
  8
0
  6
CONTINUOUS
 62
               2
100
AcDbCircle
 10
-9.4989515380859757
 20
-8.300817382812383
 30
0.0
 40
2.5
  0
CIRCLE
  5
351
100
AcDbEntity
  8
0
  6
CONTINUOUS
 62
               2
100
AcDbCircle
 10
-4.9989515380859757
 20
-17.300817382812383
 30
0.0
 40
2.5
  0
CIRCLE
  5
352
100
AcDbEntity
  8
0
  6
CONTINUOUS
 62
               7
100
AcDbCircle
 10
-4.9989515380859757
 20
-17.300817382812383
 30
0.0
 40
2.0669994354248047
  0
LINE
  5
353
100
AcDbEntity
  8
0
  6
CENTER
 62
               2
100
AcDbLine
 10
-9.5
 20
-5.3999999999999631
 30
0.0
 11
-9.5
 21
-11.199999999999918
 31
0.0
  0
LINE
  5
354
100
AcDbEntity
  8
0
  6
CENTER
 62
               2
100
AcDbLine
 10
-7.8860000000000241
 20
-17.29999999999994
 30
0.0
 11
-2.1000000000000227
 21
-17.29999999999994
 31
0.0
  0
LINE
  5
355
100
AcDbEntity
  8
0
  6
CONTINUOUS
 62
               7
100
AcDbLine
 10
-14.5
 20
-25.299999999999926
 30
0.0
 11
0.0
 21
-25.299999999999926
 31
0.0
  0
LINE
  5
356
100
AcDbEntity
  8
0
  6
CONTINUOUS
 62
               7
100
AcDbLine
 10
-14.5
 20
-25.299999999999926
 30
0.0
 11
-14.5
 21
2.7000000000000597
 31
0.0
  0
LINE
  5
357
100
AcDbEntity
  8
0
  6
CONTINUOUS
 62
               7
100
AcDbLine
 10
-14.5
 20
2.7000000000000597
 30
0.0
 11
0.0
 21
2.7000000000000597
 31
0.0
  0
LINE
  5
358
100
AcDbEntity
  8
0
  6
CONTINUOUS
 62
               7
100
AcDbLine
 10
-14.498951538085976
 20
0.099176513671992
 30
0.0
 11
-14.498951538085976
 21
-4.7008234863280762
 31
0.0
  0
LINE
  5
359
100
AcDbEntity
  8
0
  6
CONTINUOUS
 62
               7
100
AcDbLine
 10
-15.498951538085976
 20
0.099176513671992
 30
0.0
 11
-14.498951538085976
 21
0.099176513671992
 31
0.0
  0
LINE
  5
35A
100
AcDbEntity
  8
0
  6
CONTINUOUS
 62
               7
100
AcDbLine
 10
-15.498951538085976
 20
-24.700823486328062
 30
0.0
 11
-14.498951538085976
 21
-24.700823486328062
 31
0.0
  0
LINE
  5
35B
100
AcDbEntity
  8
0
  6
CONTINUOUS
 62
               7
100
AcDbLine
 10
-14.498951538085976
 20
-5.7008234863280762
 30
0.0
 11
-14.498951538085976
 21
-24.700823486328062
 31
0.0
  0
LINE
  5
35C
100
AcDbEntity
  8
0
  6
CONTINUOUS
 62
               7
100
AcDbLine
 10
-15.498951538085976
 20
5.5999999999999943
 30
0.0
 11
-15.498951538085976
 21
-25.199999999999903
 31
0.0
  0
LINE
  5
35D
100
AcDbEntity
  8
0
  6
CONTINUOUS
 62
               7
100
AcDbLine
 10
-29.498951543040334
 20
-14.700000000000017
 30
0.0
 11
-28.498951543040334
 21
-14.700000000000017
 31
0.0
  0
LINE
  5
35E
100
AcDbEntity
  8
0
  6
CONTINUOUS
 62
               7
100
AcDbLine
 10
-29.498951543040334
 20
-17.900000000000006
 30
0.0
 11
-28.498951543040334
 21
-17.900000000000006
 31
0.0
  0
LINE
  5
35F
100
AcDbEntity
  8
0
  6
CONTINUOUS
 62
               7
100
AcDbLine
 10
-28.498951538085976
 20
-14.700000000000017
 30
0.0
 11
-28.498951538085976
 21
-17.900000000000006
 31
0.0
  0
LINE
  5
360
100
AcDbEntity
  8
0
  6
CENTER
 62
               2
100
AcDbLine
 10
-2.0
 20
0.0
 30
0.0
 11
2.0
 21
0.0
 31
0.0
  0
LINE
  5
361
100
AcDbEntity
  8
0
  6
CENTER
 62
               2
100
AcDbLine
 10
-2.0
 20
-22.599999999999994
 30
0.0
 11
2.0
 21
-22.599999999999994
 31
0.0
  0
ENDBLK
  5
362
100
AcDbEntity
  8
0
100
AcDbBlockEnd
  0
BLOCK
  5
363
100
AcDbEntity
  8
0
100
AcDbBlockBegin
  2
EB10SA1-8
 70
               0
 10
0.0
 20
0.0
 30
0.0
  3
EB10SA1-8
  1

  0
LINE
  5
364
100
AcDbEntity
  8
0
  6
CONTINUOUS
 62
               7
100
AcDbLine
 10
-13.303295036165565
 20
-15.500001951045888
 30
0.0
 11
-13.303295036165565
 21
-14.500000000000014
 31
0.0
  0
LINE
  5
365
100
AcDbEntity
  8
0
  6
CONTINUOUS
 62
               7
100
AcDbLine
 10
-3.3032950361662969
 20
-15.500001951045888
 30
0.0
 11
-3.3032950361662969
 21
-14.500000000000014
 31
0.0
  0
LINE
  5
366
100
AcDbEntity
  8
0
  6
CENTER
 62
               2
100
AcDbLine
 10
-8.3000000381469761
 20
-45.913337402343828
 30
0.0
 11
-8.3000000381469761
 21
-12.593165433681875
 31
0.0
  0
LINE
  5
367
100
AcDbEntity
  8
0
  6
CONTINUOUS
 62
               4
100
AcDbLine
 10
-13.3032950361671
 20
-15.500001951045888
 30
0.0
 11
-13.303300499111998
 21
-29.499998048947205
 31
0.0
  0
LINE
  5
368
100
AcDbEntity
  8
0
  6
CONTINUOUS
 62
               4
100
AcDbLine
 10
-3.3032950361662969
 20
-15.500001951045888
 30
0.0
 11
-3.3033004991127655
 21
-29.5000019510518
 31
0.0
  0
LINE
  5
369
100
AcDbEntity
  8
0
  6
CONTINUOUS
 62
               4
100
AcDbLine
 10
-3.3033004991127655
 20
-29.5000019510518
 30
0.0
 11
-13.303300499111998
 21
-29.499998048947205
 31
0.0
  0
LINE
  5
36A
100
AcDbEntity
  8
0
  6
CONTINUOUS
 62
               4
100
AcDbLine
 10
-13.303313026428214
 20
-32.500015258789077
 30
0.0
 11
-13.303313026428214
 21
-29.500015258789077
 31
0.0
  0
LINE
  5
36B
100
AcDbEntity
  8
0
  6
CONTINUOUS
 62
               4
100
AcDbLine
 10
-12.403313026428208
 20
-37.500015258789077
 30
0.0
 11
-11.053313026428214
 21
-37.500015258789077
 31
0.0
  0
LINE
  5
36C
100
AcDbEntity
  8
0
  6
CONTINUOUS
 62
               4
100
AcDbLine
 10
-13.303313026428214
 20
-32.500015258789077
 30
0.0
 11
-12.903313026428208
 21
-37.040015258789154
 31
0.0
  0
LINE
  5
36D
100
AcDbEntity
  8
0
  6
CONTINUOUS
 62
               4
100
AcDbLine
 10
-5.4533130264282192
 20
-37.500015258789077
 30
0.0
 11
-5.4533130264282192
 21
-31.500015258789077
 31
0.0
  0
LINE
  5
36E
100
AcDbEntity
  8
0
  6
CONTINUOUS
 62
               4
100
AcDbLine
 10
-11.153313026428208
 20
-37.500015258789077
 30
0.0
 11
-11.153313026428208
 21
-31.500015258789077
 31
0.0
  0
LINE
  5
36F
100
AcDbEntity
  8
0
  6
CONTINUOUS
 62
               4
100
AcDbLine
 10
-5.4533130264282192
 20
-31.100015258789099
 30
0.0
 11
-5.4533130264282192
 21
-29.500015258789077
 31
0.0
  0
LINE
  5
370
100
AcDbEntity
  8
0
  6
CONTINUOUS
 62
               4
100
AcDbLine
 10
-11.153313026428208
 20
-31.100015258789099
 30
0.0
 11
-11.153313026428208
 21
-29.500015258789077
 31
0.0
  0
LINE
  5
371
100
AcDbEntity
  8
0
  6
CONTINUOUS
 62
               4
100
AcDbLine
 10
-5.5533130264282136
 20
-45.500015258789077
 30
0.0
 11
-5.5533130264282136
 21
-29.500015258789077
 31
0.0
  0
LINE
  5
372
100
AcDbEntity
  8
0
  6
CONTINUOUS
 62
               4
100
AcDbLine
 10
-4.5533130264282136
 20
-45.500015258789077
 30
0.0
 11
-4.5533130264282136
 21
-37.500015258789077
 31
0.0
  0
LINE
  5
373
100
AcDbEntity
  8
0
  6
CONTINUOUS
 62
               4
100
AcDbLine
 10
-5.5533130264282136
 20
-44.000015258789077
 30
0.0
 11
-11.053313026428214
 21
-44.000015258789077
 31
0.0
  0
LINE
  5
374
100
AcDbEntity
  8
0
  6
CONTINUOUS
 62
               4
100
AcDbLine
 10
-11.053313026428214
 20
-45.500015258789077
 30
0.0
 11
-11.053313026428214
 21
-29.500015258789077
 31
0.0
  0
LINE
  5
375
100
AcDbEntity
  8
0
  6
CONTINUOUS
 62
               4
100
AcDbLine
 10
-12.053313026428214
 20
-45.500015258789077
 30
0.0
 11
-12.053313026428214
 21
-37.500015258789077
 31
0.0
  0
LINE
  5
376
100
AcDbEntity
  8
0
  6
CONTINUOUS
 62
               4
100
AcDbLine
 10
-4.5533130264282136
 20
-45.500015258789077
 30
0.0
 11
-12.053313026428214
 21
-45.500015258789077
 31
0.0
  0
LINE
  5
377
100
AcDbEntity
  8
0
  6
CONTINUOUS
 62
               4
100
AcDbLine
 10
-5.4533130264282192
 20
-31.100015258789099
 30
0.0
 11
-5.5533130264282136
 21
-31.100015258789099
 31
0.0
  0
LINE
  5
378
100
AcDbEntity
  8
0
  6
CONTINUOUS
 62
               4
100
AcDbLine
 10
-5.4533130264282192
 20
-31.500015258789077
 30
0.0
 11
-5.5533130264282136
 21
-31.500015258789077
 31
0.0
  0
LINE
  5
379
100
AcDbEntity
  8
0
  6
CONTINUOUS
 62
               4
100
AcDbLine
 10
-11.153313026428208
 20
-31.500015258789077
 30
0.0
 11
-11.053313026428214
 21
-31.500015258789077
 31
0.0
  0
LINE
  5
37A
100
AcDbEntity
  8
0
  6
CONTINUOUS
 62
               4
100
AcDbLine
 10
-11.153313026428208
 20
-31.100015258789099
 30
0.0
 11
-11.053313026428214
 21
-31.100015258789099
 31
0.0
  0
LINE
  5
37B
100
AcDbEntity
  8
0
  6
CONTINUOUS
 62
               4
100
AcDbLine
 10
-5.5533130264282136
 20
-37.500015258789077
 30
0.0
 11
-4.2033130264282192
 21
-37.500015258789077
 31
0.0
  0
LINE
  5
37C
100
AcDbEntity
  8
0
  6
CONTINUOUS
 62
               4
100
AcDbLine
 10
-3.3033130264282136
 20
-32.500015258789077
 30
0.0
 11
-3.7033130264282192
 21
-37.040015258789154
 31
0.0
  0
LINE
  5
37D
100
AcDbEntity
  8
0
  6
CONTINUOUS
 62
               4
100
AcDbLine
 10
-3.3033130264282136
 20
-32.500015258789077
 30
0.0
 11
-3.3033130264282136
 21
-29.500015258789077
 31
0.0
  0
ARC
  5
37E
100
AcDbEntity
  8
0
  6
CONTINUOUS
 62
               4
100
AcDbCircle
 10
-4.2004572930472932
 20
-37.001380186377119
 30
0.0
 40
0.4986432498816056
100
AcDbArc
 50
269.6718648760999
 51
355.55624706312108
  0
ARC
  5
37F
100
AcDbEntity
  8
0
  6
CONTINUOUS
 62
               4
100
AcDbCircle
 10
-12.40620868487656
 20
-37.001423583189435
 30
0.0
 40
0.4986000840504332
100
AcDbArc
 50
184.43913653114248
 51
270.33275152963415
  0
LINE
  5
380
100
AcDbEntity
  8
0
  6
CONTINUOUS
 62
               4
100
AcDbLine
 10
-3.3033130264282136
 20
-15.500001951045888
 30
0.0
 11
-13.303295036165565
 21
-15.500001951045888
 31
0.0
  0
LINE
  5
381
100
AcDbEntity
  8
0
  6
CONTINUOUS
 62
               4
100
AcDbLine
 10
-6.8000000381469761
 20
-27.500000586603065
 30
0.0
 11
-13.303300499111998
 21
-27.499998048947205
 31
0.0
  0
LINE
  5
382
100
AcDbEntity
  8
0
  6
CONTINUOUS
 62
               4
100
AcDbLine
 10
-3.3033130264282136
 20
-17.500001951045888
 30
0.0
 11
-9.8000000381469761
 21
-17.500001951045888
 31
0.0
  0
LINE
  5
383
100
AcDbEntity
  8
0
  6
CONTINUOUS
 62
               4
100
AcDbLine
 10
-10.100000038146987
 20
-17.20000195104582
 30
0.0
 11
-10.100000038146987
 21
-15.500001951045888
 31
0.0
  0
LINE
  5
384
100
AcDbEntity
  8
0
  6
CONTINUOUS
 62
               4
100
AcDbLine
 10
-6.5000000381469931
 20
-29.500000703666174
 30
0.0
 11
-6.5000000381469647
 21
-27.800000586603133
 31
0.0
  0
LINE
  5
385
100
AcDbEntity
  8
0
  6
CONTINUOUS
 62
               4
100
AcDbLine
 10
-6.8000000381469761
 20
-27.500000586603065
 30
0.0
 11
-6.5000000381469647
 21
-28.500000703666174
 31
0.0
  0
LINE
  5
386
100
AcDbEntity
  8
0
  6
CONTINUOUS
 62
               4
100
AcDbLine
 10
-9.8000000381469761
 20
-17.500001951045888
 30
0.0
 11
-10.100000038146987
 21
-16.500001951045888
 31
0.0
  0
ARC
  5
387
100
AcDbEntity
  8
0
  6
CONTINUOUS
 62
               4
100
AcDbCircle
 10
-3.8032952312715622
 20
-16.000001951045888
 30
0.0
 40
0.5
100
AcDbArc
 50
359.99997764258677
 51
89.999999999999801
  0
ARC
  5
388
100
AcDbEntity
  8
0
  6
CONTINUOUS
 62
               4
100
AcDbCircle
 10
-3.6033003820495821
 20
-29.200001833988736
 30
0.0
 40
0.3
100
AcDbArc
 50
269.99997764258694
 51
359.99997764258677
  0
ARC
  5
389
100
AcDbEntity
  8
0
  6
CONTINUOUS
 62
               4
100
AcDbCircle
 10
-13.003295153230198
 20
-15.800001951045843
 30
0.0
 40
0.3
100
AcDbArc
 50
89.999999999999815
 51
179.99999999999963
  0
ARC
  5
38A
100
AcDbEntity
  8
0
  6
CONTINUOUS
 62
               4
100
AcDbCircle
 10
-10.400000038146999
 20
-15.800001951045843
 30
0.0
 40
0.3
100
AcDbArc
 50
0.0
 51
89.999999999999815
  0
ARC
  5
38B
100
AcDbEntity
  8
0
  6
CONTINUOUS
 62
               4
100
AcDbCircle
 10
-9.8000000381469761
 20
-17.20000195104582
 30
0.0
 40
0.3
100
AcDbArc
 50
179.99999999999963
 51
269.99999999999937
  0
ARC
  5
38C
100
AcDbEntity
  8
0
  6
CONTINUOUS
 62
               4
100
AcDbCircle
 10
-3.6032959336503723
 20
-17.800001951045843
 30
0.0
 40
0.3
100
AcDbArc
 50
359.99997764258677
 51
89.999999999999801
  0
ARC
  5
38D
100
AcDbEntity
  8
0
  6
CONTINUOUS
 62
               4
100
AcDbCircle
 10
-6.8000000381469761
 20
-27.800000586603133
 30
0.0
 40
0.3
100
AcDbArc
 50
0.0
 51
89.999977642587353
  0
ARC
  5
38E
100
AcDbEntity
  8
0
  6
CONTINUOUS
 62
               4
100
AcDbCircle
 10
-6.2000000381469818
 20
-29.200000820729329
 30
0.0
 40
0.3
100
AcDbArc
 50
179.99999999999963
 51
269.99997764258694
  0
ARC
  5
38F
100
AcDbEntity
  8
0
  6
CONTINUOUS
 62
               4
100
AcDbCircle
 10
-13.003299601627958
 20
-27.199998166010701
 30
0.0
 40
0.3
100
AcDbArc
 50
179.99999999999963
 51
269.99997764258694
  0
ARC
  5
390
100
AcDbEntity
  8
0
  6
CONTINUOUS
 62
               4
100
AcDbCircle
 10
-11.600000038146987
 20
-17.199998713592905
 30
0.0
 40
2.0
100
AcDbArc
 50
269.99999999999937
 51
351.37297963377404
  0
ARC
  5
391
100
AcDbEntity
  8
0
  6
CONTINUOUS
 62
               4
100
AcDbCircle
 10
-5.0000000381469931
 20
-27.800001288981903
 30
0.0
 40
2.0
100
AcDbArc
 50
89.999999999999815
 51
171.37305108390927
  0
LINE
  5
392
100
AcDbEntity
  8
0
  6
CONTINUOUS
 62
               4
100
AcDbLine
 10
-5.0000000381469647
 20
-25.800001288981903
 30
0.0
 11
-3.3032990553337811
 21
-25.800001288981903
 31
0.0
  0
LINE
  5
393
100
AcDbEntity
  8
0
  6
CONTINUOUS
 62
               4
100
AcDbLine
 10
-11.600000038146987
 20
-19.199998713592905
 30
0.0
 11
-13.303296479944521
 21
-19.199998713592905
 31
0.0
  0
CIRCLE
  5
394
100
AcDbEntity
  8
0
  6
CONTINUOUS
 62
               4
100
AcDbCircle
 10
-11.600000038146987
 20
-17.199998713592905
 30
0.0
 40
1.5
  0
CIRCLE
  5
395
100
AcDbEntity
  8
0
  6
CONTINUOUS
 62
               4
100
AcDbCircle
 10
-5.0000000381469931
 20
-27.800001288981903
 30
0.0
 40
1.5
  0
LINE
  5
396
100
AcDbEntity
  8
0
  6
CONTINUOUS
 62
               4
100
AcDbLine
 10
-10.965000038146968
 20
-16.564998713592914
 30
0.0
 11
-12.235000038147007
 21
-17.834998713592896
 31
0.0
  0
LINE
  5
397
100
AcDbEntity
  8
0
  6
CONTINUOUS
 62
               4
100
AcDbLine
 10
-10.965000038146968
 20
-17.834998713592896
 30
0.0
 11
-12.235000038147007
 21
-16.564998713592914
 31
0.0
  0
LINE
  5
398
100
AcDbEntity
  8
0
  6
CONTINUOUS
 62
               4
100
AcDbLine
 10
-5.635000038146984
 20
-28.435001288981894
 30
0.0
 11
-4.3650000381469738
 21
-27.165001288981912
 31
0.0
  0
LINE
  5
399
100
AcDbEntity
  8
0
  6
CONTINUOUS
 62
               4
100
AcDbLine
 10
-4.3650000381470022
 20
-28.435001288981894
 30
0.0
 11
-5.6350000381469556
 21
-27.165001288981912
 31
0.0
  0
LINE
  5
39A
100
AcDbEntity
  8
0
  6
CONTINUOUS
 62
             200
100
AcDbLine
 10
-8.5523029245615021
 20
-49.176782933455812
 30
0.0
 11
-5.5543231282948682
 21
-50.909106164789151
 31
0.0
  0
LINE
  5
39B
100
AcDbEntity
  8
0
  6
CONTINUOUS
 62
               4
100
AcDbLine
 10
-7.7038180765615039
 20
-49.318197074789182
 30
0.0
 11
-7.703818076561447
 21
-45.500015258789077
 31
0.0
  0
LINE
  5
39C
100
AcDbEntity
  8
0
  6
CONTINUOUS
 62
             200
100
AcDbLine
 10
-8.5523029245614737
 20
-48.830318287189144
 30
0.0
 11
-5.5472524212282224
 21
-50.562641518522483
 31
0.0
  0
LINE
  5
39D
100
AcDbEntity
  8
0
  6
CONTINUOUS
 62
               4
100
AcDbLine
 10
-6.4028079762948096
 20
-50.067692023855798
 30
0.0
 11
-6.4028079762947243
 21
-45.500015258789077
 31
0.0
  0
LINE
  5
39E
100
AcDbEntity
  8
0
  6
CONTINUOUS
 62
               4
100
AcDbLine
 10
-7.3024956436156572
 20
-53.002035456522449
 30
0.0
 11
-7.3024956436156572
 21
-56.502035456522449
 31
0.0
  0
LINE
  5
39F
100
AcDbEntity
  8
0
  6
CONTINUOUS
 62
               4
100
AcDbLine
 10
-6.8024956436156572
 20
-53.002035456522449
 30
0.0
 11
-6.8024956436156572
 21
-56.502035456522449
 31
0.0
  0
LINE
  5
3A0
100
AcDbEntity
  8
0
  6
CONTINUOUS
 62
               4
100
AcDbLine
 10
-7.3024956436156572
 20
-56.502035456522449
 30
0.0
 11
-6.8024956436156572
 21
-56.502035456522449
 31
0.0
  0
LINE
  5
3A1
100
AcDbEntity
  8
0
  6
CONTINUOUS
 62
               4
100
AcDbLine
 10
-7.7038180765615891
 20
-53.002035456522449
 30
0.0
 11
-7.7038180765615323
 21
-49.66466172105585
 31
0.0
  0
LINE
  5
3A2
100
AcDbEntity
  8
0
  6
CONTINUOUS
 62
               4
100
AcDbLine
 10
-6.4028079762948664
 20
-53.002035456522449
 30
0.0
 11
-6.4028079762948096
 21
-50.414156670122466
 31
0.0
  0
LINE
  5
3A3
100
AcDbEntity
  8
0
  6
CONTINUOUS
 62
               4
100
AcDbLine
 10
-6.4028079762948664
 20
-53.002035456522449
 30
0.0
 11
-7.7038180765615891
 21
-53.002035456522449
 31
0.0
  0
LINE
  5
3A4
100
AcDbEntity
  8
0
  6
CONTINUOUS
 62
               4
100
AcDbLine
 10
-10.203818076561504
 20
-49.318197074789182
 30
0.0
 11
-10.203818076561447
 21
-45.500015258789077
 31
0.0
  0
LINE
  5
3A5
100
AcDbEntity
  8
0
  6
CONTINUOUS
 62
             200
100
AcDbLine
 10
-11.052302924561474
 20
-48.830318287189144
 30
0.0
 11
-8.0472524212282224
 21
-50.562641518522483
 31
0.0
  0
LINE
  5
3A6
100
AcDbEntity
  8
0
  6
CONTINUOUS
 62
               4
100
AcDbLine
 10
-8.9028079762948096
 20
-50.067692023855798
 30
0.0
 11
-8.9028079762947243
 21
-45.500015258789077
 31
0.0
  0
LINE
  5
3A7
100
AcDbEntity
  8
0
  6
CONTINUOUS
 62
               4
100
AcDbLine
 10
-8.9028079762948664
 20
-53.002035456522449
 30
0.0
 11
-10.203818076561589
 21
-53.002035456522449
 31
0.0
  0
LINE
  5
3A8
100
AcDbEntity
  8
0
  6
CONTINUOUS
 62
               4
100
AcDbLine
 10
-8.9028079762948664
 20
-53.002035456522449
 30
0.0
 11
-8.9028079762948096
 21
-50.414156670122466
 31
0.0
  0
LINE
  5
3A9
100
AcDbEntity
  8
0
  6
CONTINUOUS
 62
               4
100
AcDbLine
 10
-10.203818076561589
 20
-53.002035456522449
 30
0.0
 11
-10.203818076561532
 21
-49.66466172105585
 31
0.0
  0
LINE
  5
3AA
100
AcDbEntity
  8
0
  6
CONTINUOUS
 62
               4
100
AcDbLine
 10
-9.8024956436156572
 20
-56.502035456522449
 30
0.0
 11
-9.3024956436156572
 21
-56.502035456522449
 31
0.0
  0
LINE
  5
3AB
100
AcDbEntity
  8
0
  6
CONTINUOUS
 62
               4
100
AcDbLine
 10
-9.3024956436156572
 20
-53.002035456522449
 30
0.0
 11
-9.3024956436156572
 21
-56.502035456522449
 31
0.0
  0
LINE
  5
3AC
100
AcDbEntity
  8
0
  6
CONTINUOUS
 62
               4
100
AcDbLine
 10
-9.8024956436156572
 20
-53.002035456522449
 30
0.0
 11
-9.8024956436156572
 21
-56.502035456522449
 31
0.0
  0
LINE
  5
3AD
100
AcDbEntity
  8
0
  6
CONTINUOUS
 62
             200
100
AcDbLine
 10
-11.052302924561502
 20
-49.176782933455812
 30
0.0
 11
-8.0543231282948682
 21
-50.909106164789151
 31
0.0
  0
CIRCLE
  5
3AE
100
AcDbEntity
  8
0
  6
CONTINUOUS
 62
               7
100
AcDbCircle
 10
-8.2999999999999972
 20
-5.0
 30
0.0
 40
2.1000000000000001
  0
CIRCLE
  5
3AF
100
AcDbEntity
  8
0
  6
CONTINUOUS
 62
               2
100
AcDbCircle
 10
-8.2999999999999972
 20
-5.0
 30
0.0
 40
2.5
  0
LINE
  5
3B0
100
AcDbEntity
  8
0
  6
CENTER
 62
               2
100
AcDbLine
 10
-12.299999999999997
 20
-5.0
 30
0.0
 11
-4.2999999999999972
 21
-5.0
 31
0.0
  0
LINE
  5
3B1
100
AcDbEntity
  8
0
  6
CENTER
 62
               2
100
AcDbLine
 10
-8.2999999999999972
 20
-9.0
 30
0.0
 11
-8.2999999999999972
 21
-1.0
 31
0.0
  0
LINE
  5
3B2
100
AcDbEntity
  8
0
  6
CONTINUOUS
 62
               7
100
AcDbLine
 10
-14.29999998349669
 20
-14.500000000000014
 30
0.0
 11
2.70000001650331
 21
-14.500000000000014
 31
0.0
  0
LINE
  5
3B3
100
AcDbEntity
  8
0
  6
CONTINUOUS
 62
               7
100
AcDbLine
 10
-14.29999998349669
 20
0.0
 30
0.0
 11
2.7000000000000028
 21
0.0
 31
0.0
  0
LINE
  5
3B4
100
AcDbEntity
  8
0
  6
CONTINUOUS
 62
               7
100
AcDbLine
 10
2.7000000000000028
 20
-14.500000028081573
 30
0.0
 11
2.7000000000000028
 21
-0.0000000280815584
 31
0.0
  0
LINE
  5
3B5
100
AcDbEntity
  8
0
  6
CONTINUOUS
 62
               7
100
AcDbLine
 10
-14.299999999999997
 20
-14.500000028081573
 30
0.0
 11
-14.299999999999997
 21
-0.0000000280815584
 31
0.0
  0
LINE
  5
3B6
100
AcDbEntity
  8
0
  6
CENTER
 62
               2
100
AcDbLine
 10
0.0
 20
-2.0
 30
0.0
 11
0.0
 21
2.0
 31
0.0
  0
ENDBLK
  5
3B7
100
AcDbEntity
  8
0
100
AcDbBlockEnd
  0
BLOCK
  5
3D2
100
AcDbEntity
  8
0
  6
ByBlock
 62
               0
100
AcDbBlockBegin
  2
_OPEN30
 70
               2
 10
0.0
 20
0.0
 30
0.0
  3
_OPEN30
  1

  0
LINE
  5
3D3
100
AcDbEntity
  8
0
  6
ByBlock
 62
               0
100
AcDbLine
 10
-1.0
 20
0.267949
 30
0.0
 11
0.0
 21
0.0
 31
0.0
  0
LINE
  5
3D4
100
AcDbEntity
  8
0
  6
ByBlock
 62
               0
100
AcDbLine
 10
0.0
 20
0.0
 30
0.0
 11
-1.0
 21
-0.267949
 31
0.0
  0
LINE
  5
3D5
100
AcDbEntity
  8
0
  6
ByBlock
 62
               0
100
AcDbLine
 10
0.0
 20
0.0
 30
0.0
 11
-1.0
 21
0.0
 31
0.0
  0
ENDBLK
  5
3D6
100
AcDbEntity
  8
0
  6
ByBlock
 62
               0
100
AcDbBlockEnd
  0
ENDSEC
  0
SECTION
  2
ENTITIES
  0
INSERT
  5
3B8
100
AcDbEntity
  8
0
  6
ByBlock
100
AcDbBlockReference
  2
EB10SA1-8
 10
-11.425943290550236
 20
121.47143640598495
 30
0.0
  0
INSERT
  5
3B9
100
AcDbEntity
  8
0
  6
ByBlock
100
AcDbBlockReference
  2
EB10SA1-7
 10
92.233114999454529
 20
28.489667451108829
 30
0.0
  0
INSERT
  5
3BA
100
AcDbEntity
  8
0
  6
ByBlock
100
AcDbBlockReference
  2
EB10SA1-5
 10
-11.425943290550236
 20
28.489667451108829
 30
0.0
  0
INSERT
  5
3BB
100
AcDbEntity
  8
0
  6
ByBlock
100
AcDbBlockReference
  2
EB10SA1-6
 10
-123.68500165684895
 20
28.489667451108829
 30
0.0
  0
INSERT
  5
3BC
100
AcDbEntity
  8
0
  6
ByBlock
100
AcDbBlockReference
  2
EB10SA1-1
 10
-11.425943290550236
 20
-103.91033661790161
 30
0.0
  0
INSERT
  5
3BD
100
AcDbEntity
  8
0
  6
ByBlock
100
AcDbBlockReference
  2
EB10SA1-2
 10
-123.68500165684895
 20
-103.91033661790161
 30
0.0
  0
INSERT
  5
3BE
100
AcDbEntity
  8
0
  6
ByBlock
100
AcDbBlockReference
  2
EB10SA1-3
 10
92.233114999454529
 20
-103.91033661790161
 30
0.0
  0
INSERT
  5
3BF
100
AcDbEntity
  8
0
  6
ByBlock
100
AcDbBlockReference
  2
EB10SA1-4
 10
-11.425943290550236
 20
-10.92856766302549
 30
0.0
 50
0.0000005959091831
  0
MTEXT
  5
3C0
100
AcDbEntity
  8
0
  6
CONTINUOUS
 62
               7
100
AcDbMText
 10
115.52672595002113
 20
-126.0
 30
0.0
 40
6.3000001907348633
 41
0.0
 71
               4
 72
               1
  1
\W1.121;\A1;KOGANEI CORP.
  0
MTEXT
  5
3C1
100
AcDbEntity
  8
0
  6
CONTINUOUS
 62
               7
100
AcDbMText
 10
135.2836095956161
 20
125.10000610351562
 30
0.0
 40
4.5
 41
0.0
 71
               4
 72
               1
  1
\W1.311;\A1;Ver. 1.0
  0
LINE
  5
3C2
100
AcDbEntity
  8
0
  6
CONTINUOUS
 62
               7
100
AcDbLine
 10
-109.25
 20
132.60000610351562
 30
0.0
 11
-109.25
 21
117.60000610351562
 31
0.0
  0
LINE
  5
3C3
100
AcDbEntity
  8
0
  6
CONTINUOUS
 62
               7
100
AcDbLine
 10
-194.25
 20
117.60000610351562
 30
0.0
 11
-109.25
 21
117.60000610351562
 31
0.0
  0
LINE
  5
3C4
100
AcDbEntity
  8
0
  6
CONTINUOUS
 62
               7
100
AcDbLine
 10
109.80000305175781
 20
117.60000610351562
 30
0.0
 11
194.80000305175781
 21
117.60000610351562
 31
0.0
  0
LINE
  5
3C5
100
AcDbEntity
  8
0
  6
CONTINUOUS
 62
               7
100
AcDbLine
 10
109.80000305175781
 20
132.60000610351562
 30
0.0
 11
109.80000305175781
 21
117.60000610351562
 31
0.0
  0
LINE
  5
3C6
100
AcDbEntity
  8
0
  6
CONTINUOUS
 62
               7
100
AcDbLine
 10
109.80000305175781
 20
-118.5
 30
0.0
 11
194.80000305175781
 21
-118.5
 31
0.0
  0
LINE
  5
3C7
100
AcDbEntity
  8
0
  6
CONTINUOUS
 62
               7
100
AcDbLine
 10
109.80000305175781
 20
-118.5
 30
0.0
 11
109.80000305175781
 21
-133.5
 31
0.0
  0
LINE
  5
3C8
100
AcDbEntity
  8
0
  6
CONTINUOUS
 62
               7
100
AcDbLine
 10
-194.25
 20
-133.5
 30
0.0
 11
194.80000305175781
 21
-133.5
 31
0.0
  0
LINE
  5
3C9
100
AcDbEntity
  8
0
  6
CONTINUOUS
 62
               7
100
AcDbLine
 10
-194.25
 20
132.60000610351562
 30
0.0
 11
-194.25
 21
-133.5
 31
0.0
  0
LINE
  5
3CA
100
AcDbEntity
  8
0
  6
CONTINUOUS
 62
               7
100
AcDbLine
 10
194.80000305175781
 20
132.60000610351562
 30
0.0
 11
194.80000305175781
 21
-133.5
 31
0.0
  0
LINE
  5
3CB
100
AcDbEntity
  8
0
  6
CONTINUOUS
 62
               7
100
AcDbLine
 10
-194.25
 20
132.60000610351562
 30
0.0
 11
194.80000305175781
 21
132.60000610351562
 31
0.0
  0
MTEXT
  5
3CC
100
AcDbEntity
  8
0
  6
CONTINUOUS
 62
               7
100
AcDbMText
 10
-185.68571430324732
 20
107.60000610351562
 30
0.0
 40
4.5
 41
0.0
 71
               4
 72
               1
  1
\W1.086;\A1;MODEL:EB10SA1-25-PL
  0
MTEXT
  5
3CD
100
AcDbEntity
  8
0
  6
CONTINUOUS
 62
               1
100
AcDbMText
 10
-177.91666665526046
 20
125.10000610351562
 30
0.0
 40
4.5
 41
0.0
 71
               4
 72
               1
  1
\W1.111;\A1;EA･EB SERIES
  0
LINE
  5
3CE
100
AcDbEntity
  8
0
  6
CONTINUOUS
 62
               7
100
AcDbLine
 10
-194.25
 20
-0.4499969482421875
 30
0.0
 11
194.80000305175781
 21
-0.4499969482421875
 31
0.0
  0
MTEXT
  5
3CF
100
AcDbEntity
  8
0
  6
CONTINUOUS
 62
               7
100
AcDbMText
 10
-185.68571430324732
 20
-10.449996948242187
 30
0.0
 40
4.5
 41
0.0
 71
               4
 72
               1
  1
\W1.086;\A1;MODEL:EB10SA1-25-PS
  0
MTEXT
  5
3D0
100
AcDbEntity
  8
0
  6
CONTINUOUS
 62
               2
100
AcDbMText
 10
-134.01726375563817
 20
-74.950082913843147
 30
0.0
 40
3.1999998092651367
 41
0.0
 71
               4
 72
               1
  1
\A1;-75
  0
LEADER
  5
3D7
100
AcDbEntity
  8
0
  6
CONTINUOUS
 62
               2
100
AcDbLeader
  3
MXDIMSTYLE
 73
               3
 74
               0
 75
               0
 40
0.0
 76
               3
 10
-118.68500165684895
 20
-87.210336617901532
 30
0.0
 10
-123.68500165684895
 20
-78.550082580057136
 30
0.0
 10
-134.01726375563817
 20
-78.550082580057136
 30
0.0
 77
               2
1001
ACAD
1000
DSTYLE
1002
{
1070
               6
1000
_OPEN30
1070
               7
1000
_OPEN30
1070
              41
1040
2.77
1070
             173
1070
               1
1070
             341
1005
3D1
1002
}
  0
MTEXT
  5
3D8
100
AcDbEntity
  8
0
  6
CONTINUOUS
 62
               2
100
AcDbMText
 10
10.588381692235323
 20
-120.52059098953194
 30
0.0
 40
3.1999998092651367
 41
0.0
 71
               4
 72
               1
  1
\A1;-75
  0
LEADER
  5
3D9
100
AcDbEntity
  8
0
  6
CONTINUOUS
 62
               2
100
AcDbLeader
  3
MXDIMSTYLE
 73
               3
 74
               0
 75
               0
 40
0.0
 76
               3
 10
5.2740567094497806
 20
-115.57636202168598
 30
0.0
 10
10.207069411341998
 20
-124.12059065574593
 30
0.0
 10
20.188381120030733
 20
-124.12059065574593
 30
0.0
 77
               2
1001
ACAD
1000
DSTYLE
1002
{
1070
               6
1000
_OPEN30
1070
               7
1000
_OPEN30
1070
              41
1040
2.77
1070
             173
1070
               1
1070
             341
1005
3D1
1002
}
  0
MTEXT
  5
3DA
100
AcDbEntity
  8
0
  6
CONTINUOUS
 62
               7
100
AcDbMText
 10
-158.71999997138977
 20
99.600006103515625
 30
0.0
 40
4.5
 41
0.0
 71
               4
 72
               1
  1
\W1.040;\A1;EB10SA2-25-PL
  0
MTEXT
  5
3DB
100
AcDbEntity
  8
0
  6
CONTINUOUS
 62
               7
100
AcDbMText
 10
-158.71999997138977
 20
91.600006103515625
 30
0.0
 40
4.5
 41
0.0
 71
               4
 72
               1
  1
\W1.040;\A1;EB10SA3-25-PL
  0
MTEXT
  5
3DC
100
AcDbEntity
  8
0
  6
CONTINUOUS
 62
               7
100
AcDbMText
 10
-158.71999997138977
 20
83.600006103515625
 30
0.0
 40
4.5
 41
0.0
 71
               4
 72
               1
  1
\W1.040;\A1;EB10SA4-25-PL
  0
MTEXT
  5
3DD
100
AcDbEntity
  8
0
  6
CONTINUOUS
 62
               7
100
AcDbMText
 10
-158.71999997138977
 20
-18.449996948242188
 30
0.0
 40
4.5
 41
0.0
 71
               4
 72
               1
  1
\W1.040;\A1;EB10SA2-25-PS
  0
MTEXT
  5
3DE
100
AcDbEntity
  8
0
  6
CONTINUOUS
 62
               7
100
AcDbMText
 10
-158.71999997138977
 20
-26.449996948242188
 30
0.0
 40
4.5
 41
0.0
 71
               4
 72
               1
  1
\W1.040;\A1;EB10SA3-25-PS
  0
MTEXT
  5
3DF
100
AcDbEntity
  8
0
  6
CONTINUOUS
 62
               7
100
AcDbMText
 10
-158.71999997138977
 20
-34.449996948242188
 30
0.0
 40
4.5
 41
0.0
 71
               4
 72
               1
  1
\W1.040;\A1;EB10SA4-25-PS
  0
MTEXT
  5
3E0
100
AcDbEntity
  8
0
  6
CONTINUOUS
 62
               2
100
AcDbMText
 10
10.588381692235323
 20
11.879413079478496
 30
0.0
 40
3.1999998092651367
 41
0.0
 71
               4
 72
               1
  1
\A1;-75
  0
LEADER
  5
3E1
100
AcDbEntity
  8
0
  6
CONTINUOUS
 62
               2
100
AcDbLeader
  3
MXDIMSTYLE
 73
               3
 74
               0
 75
               0
 40
0.0
 76
               3
 10
5.2740567094497806
 20
16.823642047324455
 30
0.0
 10
10.207069411341998
 20
8.279413413264507
 30
0.0
 10
20.188381120030733
 20
8.279413413264507
 30
0.0
 77
               2
1001
ACAD
1000
DSTYLE
1002
{
1070
               6
1000
_OPEN30
1070
               7
1000
_OPEN30
1070
              41
1040
2.77
1070
             173
1070
               1
1070
             341
1005
3D1
1002
}
  0
MTEXT
  5
3E2
100
AcDbEntity
  8
0
  6
CONTINUOUS
 62
               2
100
AcDbMText
 10
-134.01726375563817
 20
57.449921155167289
 30
0.0
 40
3.1999998092651367
 41
0.0
 71
               4
 72
               1
  1
\A1;-75
  0
LEADER
  5
3E3
100
AcDbEntity
  8
0
  6
CONTINUOUS
 62
               2
100
AcDbLeader
  3
MXDIMSTYLE
 73
               3
 74
               0
 75
               0
 40
0.0
 76
               3
 10
-118.68500165684895
 20
45.189667451108903
 30
0.0
 10
-123.68500165684895
 20
53.849921488953299
 30
0.0
 10
-134.01726375563817
 20
53.849921488953299
 30
0.0
 77
               2
1001
ACAD
1000
DSTYLE
1002
{
1070
               6
1000
_OPEN30
1070
               7
1000
_OPEN30
1070
              41
1040
2.77
1070
             173
1070
               1
1070
             341
1005
3D1
1002
}
  0
ENDSEC
  0
SECTION
  2
OBJECTS
  0
DICTIONARY
  5
19
100
AcDbDictionary
  3
ACAD_GROUP
350
1A
  3
ACAD_MLINESTYLE
350
1B
  0
DICTIONARY
  5
1A
102
{ACAD_REACTORS
330
19
102
}
100
AcDbDictionary
  0
DICTIONARY
  5
1B
102
{ACAD_REACTORS
330
19
102
}
100
AcDbDictionary
  3
STANDARD
350
1C
  0
MLINESTYLE
  5
1C
102
{ACAD_REACTORS
330
1B
102
}
100
AcDbMlineStyle
  2
Standard
 70
               0
  3

 62
               0
 51
90.0
 52
90.0
 71
               2
 49
0.5
 62
             256
  6
ByLayer
 49
-0.5
 62
             256
  6
ByLayer
  0
ENDSEC
  0
EOF
