  0
SECTION
  2
HEADER
  9
$ACADVER
  1
AC1009
  9
$DWGCODEPAGE
  3
dos932
  9
$INSBASE
 10
0.0
 20
0.0
 30
0.0
  9
$EXTMIN
 10
-281.25
 20
-195.0
 30
0.0
  9
$EXTMAX
 10
282.09985352
 20
195.5
 30
0.0
  9
$LIMMIN
 10
-281.25
 20
-195.0
  9
$LIMMAX
 10
282.09985352
 20
195.5
  9
$ORTHOMODE
 70
       0
  9
$REGENMODE
 70
       1
  9
$FILLMODE
 70
       1
  9
$QTEXTMODE
 70
       0
  9
$MIRRTEXT
 70
       1
  9
$DRAGMODE
 70
       2
  9
$LTSCALE
 40
1.0
  9
$OSMODE
 70
       0
  9
$ATTMODE
 70
       1
  9
$TEXTSIZE
 40
3.20000005
  9
$TRACEWID
 40
0.05
  9
$TEXTSTYLE
  7
MX_NOTE_STANDARD
  9
$CLAYER
  8
0
  9
$CELTYPE
  6
CONTINUOUS
  9
$CECOLOR
 62
     256
  9
$DIMSCALE
 40
1.0
  9
$DIMASZ
 40
2.5
  9
$DIMEXO
 40
1.5
  9
$DIMDLI
 40
3.75
  9
$DIMRND
 40
0.0
  9
$DIMDLE
 40
0.0
  9
$DIMEXE
 40
1.5
  9
$DIMTP
 40
0.0
  9
$DIMTM
 40
0.0
  9
$DIMTXT
 40
3.20000005
  9
$DIMCEN
 40
2.5
  9
$DIMTSZ
 40
0.0
  9
$DIMTOL
 70
       0
  9
$DIMLIM
 70
       0
  9
$DIMTIH
 70
       0
  9
$DIMTOH
 70
       0
  9
$DIMSE1
 70
       0
  9
$DIMSE2
 70
       0
  9
$DIMTAD
 70
       1
  9
$DIMZIN
 70
       8
  9
$DIMBLK
  1

  9
$DIMASO
 70
       1
  9
$DIMSHO
 70
       1
  9
$DIMPOST
  1

  9
$DIMAPOST
  1

  9
$DIMALT
 70
       0
  9
$DIMALTD
 70
       4
  9
$DIMALTF
 40
0.03937008
  9
$DIMLFAC
 40
1.0
  9
$DIMTOFL
 70
       1
  9
$DIMTVP
 40
0.0
  9
$DIMTIX
 70
       0
  9
$DIMSOXD
 70
       0
  9
$DIMSAH
 70
       0
  9
$DIMBLK1
  1

  9
$DIMBLK2
  1

  9
$DIMSTYLE
  2
MXDIMSTYLE
  9
$DIMCLRD
 70
       0
  9
$DIMCLRE
 70
       0
  9
$DIMCLRT
 70
       0
  9
$DIMTFAC
 40
1.0
  9
$DIMGAP
 40
1.0
  9
$LUNITS
 70
       2
  9
$LUPREC
 70
       4
  9
$AXISMODE
 70
       0
  9
$AXISUNIT
 10
0.0
 20
0.0
  9
$SKETCHINC
 40
0.1
  9
$FILLETRAD
 40
0.0
  9
$AUNITS
 70
       0
  9
$AUPREC
 70
       0
  9
$MENU
  1
acad
  9
$ELEVATION
 40
0.0
  9
$PELEVATION
 40
0.0
  9
$THICKNESS
 40
0.0
  9
$LIMCHECK
 70
       0
  9
$BLIPMODE
 70
       1
  9
$CHAMFERA
 40
0.0
  9
$CHAMFERB
 40
0.0
  9
$SKPOLY
 70
       0
  9
$TDCREATE
 40
2453581.678958334
  9
$TDUPDATE
 40
2453581.678958334
  9
$TDINDWG
 40
0.0000000000
  9
$TDUSRTIMER
 40
0.0000000000
  9
$USRTIMER
 70
       1
  9
$ANGBASE
 50
0.0
  9
$ANGDIR
 70
       0
  9
$PDMODE
 70
       0
  9
$PDSIZE
 40
0.0
  9
$PLINEWID
 40
0.0
  9
$COORDS
 70
       1
  9
$SPLFRAME
 70
       0
  9
$SPLINETYPE
 70
       6
  9
$SPLINESEGS
 70
       8
  9
$ATTDIA
 70
       0
  9
$ATTREQ
 70
       1
  9
$HANDLING
 70
       1
  9
$HANDSEED
  5
539
  9
$SURFTAB1
 70
       6
  9
$SURFTAB2
 70
       6
  9
$SURFTYPE
 70
       6
  9
$SURFU
 70
       6
  9
$SURFV
 70
       6
  9
$UCSNAME
  2

  9
$UCSORG
 10
0.0
 20
0.0
 30
0.0
  9
$UCSXDIR
 10
1.0
 20
0.0
 30
0.0
  9
$UCSYDIR
 10
0.0
 20
1.0
 30
0.0
  9
$PUCSNAME
  2

  9
$PUCSORG
 10
0.0
 20
0.0
 30
0.0
  9
$PUCSXDIR
 10
1.0
 20
0.0
 30
0.0
  9
$PUCSYDIR
 10
0.0
 20
1.0
 30
0.0
  9
$USERI1
 70
       0
  9
$USERI2
 70
       0
  9
$USERI3
 70
       0
  9
$USERI4
 70
       0
  9
$USERI5
 70
       0
  9
$USERR1
 40
0.0
  9
$USERR2
 40
0.0
  9
$USERR3
 40
0.0
  9
$USERR4
 40
0.0
  9
$USERR5
 40
0.0
  9
$WORLDVIEW
 70
       1
  9
$SHADEDGE
 70
       3
  9
$SHADEDIF
 70
      70
  9
$TILEMODE
 70
       1
  9
$MAXACTVP
 70
      16
  9
$PINSBASE
 10
0.0
 20
0.0
 30
0.0
  9
$PLIMCHECK
 70
       0
  9
$PEXTMIN
 10
1.00000000E+20
 20
1.00000000E+20
 30
1.00000000E+20
  9
$PEXTMAX
 10
-1.00000000E+20
 20
-1.00000000E+20
 30
-1.00000000E+20
  9
$PLIMMIN
 10
0.0
 20
0.0
  9
$PLIMMAX
 10
12.0
 20
9.0
  9
$UNITMODE
 70
       0
  9
$VISRETAIN
 70
       0
  9
$PLINEGEN
 70
       1
  9
$PSLTSCALE
 70
       0
  9
$TREEDEPTH
 70
    3020
  9
$DWGCODEPAGE
  3
dos932
  0
ENDSEC
  0
SECTION
  2
TABLES
  0
TABLE
  2
VPORT
 70
       1
  0
VPORT
  2
*ACTIVE
 70
       0
 10
0.0
 20
0.0
 11
1.0
 21
1.0
 12
0.42492676
 22
0.25
 13
0.0
 23
0.0
 14
1.0
 24
1.0
 15
0.0
 25
0.0
 16
0.0
 26
0.0
 36
1.0
 17
0.0
 27
0.0
 37
0.0
 40
394.405
 41
1.73205081
 42
50.0
 43
0.0
 44
0.0
 50
0.0
 51
0.0
 71
       0
 72
     100
 73
       1
 74
       1
 75
       0
 76
       0
 77
       0
 78
       0
  0
ENDTAB
  0
TABLE
  2
LTYPE
 70
       2
  0
LTYPE
  2
CONTINUOUS
 70
      64
  3
Solid line
 72
      65
 73
       0
 40
0.0
  0
LTYPE
  2
DASHED
 70
      64
  3
Dashed __ __ __ __ __ __ __ __ __ __ __ __ __ _
 72
      65
 73
       2
 40
4.0
 49
2.0
 49
-2.0
  0
ENDTAB
  0
TABLE
  2
LAYER
 70
       2
  0
LAYER
  2
0
 70
       0
 62
       7
  6
CONTINUOUS
  0
LAYER
  2
DEFPOINTS
 70
       0
 62
       7
  6
CONTINUOUS
  0
ENDTAB
  0
TABLE
  2
STYLE
 70
       1
  0
STYLE
  2
MX_NOTE_STANDARD
 70
       0
 40
0.0
 41
1.0
 50
0.0
 71
       0
 42
3.20000005
  3
txt.shx
  4
extfont.shx
  0
ENDTAB
  0
TABLE
  2
VIEW
 70
       0
  0
ENDTAB
  0
TABLE
  2
UCS
 70
       0
  0
ENDTAB
  0
TABLE
  2
APPID
 70
       1
  0
APPID
  2
ACAD
 70
       0
  0
ENDTAB
  0
TABLE
  2
DIMSTYLE
 70
       1
  0
DIMSTYLE
  2
MXDIMSTYLE
 70
       0
  3

  4

  5

  6

  7

 40
1.0
 41
2.5
 42
1.5
 43
3.75
 44
1.5
 45
0.0
 46
0.0
 47
0.0
 48
0.0
 71
       0
 72
       0
 73
       0
 74
       0
 75
       0
 76
       0
 77
       1
 78
       8
140
3.20000005
141
2.5
142
0.0
143
0.03937008
144
1.0
145
0.0
146
1.0
147
1.0
170
       0
171
       4
172
       1
173
       0
174
       0
175
       0
176
       0
177
       0
178
       0
  0
ENDTAB
  0
ENDSEC
  0
SECTION
  2
BLOCKS
  0
ENDSEC
  0
SECTION
  2
ENTITIES
  0
LINE
  8
0
  6
CONTINUOUS
 62
       7
  5
1E
 10
-169.42878002
 20
52.71731253
 30
0.0
 11
-113.92878002
 21
52.71731253
 31
0.0
  0
LINE
  8
0
  6
CONTINUOUS
 62
       7
  5
1F
 10
-174.17878002
 20
74.21731253
 30
0.0
 11
-174.17878002
 21
81.21731253
 31
0.0
  0
LINE
  8
0
  6
CONTINUOUS
 62
       2
  5
20
 10
-42.67878002
 20
109.71731253
 30
0.0
 11
-147.20869522
 21
109.71731253
 31
0.0
  0
LINE
  8
0
  6
CONTINUOUS
 62
       7
  5
21
 10
-47.67878002
 20
79.65106926
 30
0.0
 11
-47.67878002
 21
89.7835558
 31
0.0
  0
LINE
  8
0
  6
CONTINUOUS
 62
       7
  5
22
 10
-63.17878002
 20
85.71731253
 30
0.0
 11
-88.17878002
 21
85.71731253
 31
0.0
  0
LINE
  8
0
  6
CONTINUOUS
 62
       7
  5
23
 10
-109.17878002
 20
73.21731253
 30
0.0
 11
-173.17878002
 21
73.21731253
 31
0.0
  0
LINE
  8
0
  6
CONTINUOUS
 62
       7
  5
24
 10
-109.17878002
 20
68.21731253
 30
0.0
 11
-109.17878002
 21
81.21731253
 31
0.0
  0
LINE
  8
0
  6
CONTINUOUS
 62
       7
  5
25
 10
-113.92878002
 20
52.71731253
 30
0.0
 11
-113.92878002
 21
57.71731253
 31
0.0
  0
LINE
  8
0
  6
CONTINUOUS
 62
       7
  5
26
 10
-169.42878002
 20
52.71731253
 30
0.0
 11
-169.42878002
 21
57.71731253
 31
0.0
  0
LINE
  8
0
  6
CONTINUOUS
 62
       7
  5
27
 10
-110.17878002
 20
82.21731253
 30
0.0
 11
-114.67878002
 21
82.21731253
 31
0.0
  0
LINE
  8
0
  6
CONTINUOUS
 62
       7
  5
28
 10
-170.17878002
 20
83.21731253
 30
0.0
 11
-170.17878002
 21
87.38636063
 31
0.0
  0
LINE
  8
0
  6
CONTINUOUS
 62
       7
  5
29
 10
-115.67878002
 20
88.21731253
 30
0.0
 11
-125.17878002
 21
88.21731253
 31
0.0
  0
LINE
  8
0
  6
CONTINUOUS
 62
       7
  5
2A
 10
-126.5256657
 20
93.21731253
 30
0.0
 11
-167.2961564
 21
93.21731253
 31
0.0
  0
LINE
  8
0
  6
CONTINUOUS
 62
       7
  5
2B
 10
-167.60630124
 20
92.50477715
 30
0.0
 11
-169.7512588
 21
88.9298479
 31
0.0
  0
LINE
  8
0
  6
CONTINUOUS
 62
       7
  5
2C
 10
-114.67878002
 20
73.21731253
 30
0.0
 11
-114.67878002
 21
88.21731253
 31
0.0
  0
LINE
  8
0
  6
CONTINUOUS
 62
       7
  5
2D
 10
-168.67878002
 20
73.21731253
 30
0.0
 11
-168.67878002
 21
87.21731253
 31
0.0
  0
LINE
  8
0
  6
CONTINUOUS
 62
       7
  5
2E
 10
-126.17878002
 20
73.21731253
 30
0.0
 11
-126.17878002
 21
87.21731253
 31
0.0
  0
LINE
  8
0
  6
CONTINUOUS
 62
       7
  5
2F
 10
-157.17878002
 20
73.21731253
 30
0.0
 11
-157.17878002
 21
87.21731253
 31
0.0
  0
LINE
  8
0
  6
CONTINUOUS
 62
       7
  5
30
 10
-168.67878002
 20
82.21731253
 30
0.0
 11
-173.17878002
 21
82.21731253
 31
0.0
  0
LINE
  8
0
  6
CONTINUOUS
 62
       7
  5
31
 10
-127.17878002
 20
82.21731253
 30
0.0
 11
-156.17878002
 21
82.21731253
 31
0.0
  0
LINE
  8
0
  6
CONTINUOUS
 62
       7
  5
32
 10
-158.17878002
 20
88.21731253
 30
0.0
 11
-167.67878002
 21
88.21731253
 31
0.0
  0
LINE
  8
0
  6
CONTINUOUS
 62
       7
  5
33
 10
-92.67878002
 20
131.71731253
 30
0.0
 11
-116.17878002
 21
131.71731253
 31
0.0
  0
LINE
  8
0
  6
CONTINUOUS
 62
       7
  5
34
 10
-91.67878002
 20
87.71731253
 30
0.0
 11
-112.17878002
 21
87.71731253
 31
0.0
  0
LINE
  8
0
  6
CONTINUOUS
 62
       7
  5
35
 10
-117.17878002
 20
103.63112518
 30
0.0
 11
-117.17878002
 21
130.71731253
 31
0.0
  0
LINE
  8
0
  6
CONTINUOUS
 62
       7
  5
36
 10
-89.17878002
 20
85.71731253
 30
0.0
 11
-89.17878002
 21
133.71731253
 31
0.0
  0
LINE
  8
0
  6
CONTINUOUS
 62
       7
  5
37
 10
-113.17878002
 20
83.21731253
 30
0.0
 11
-113.17878002
 21
86.71731253
 31
0.0
  0
LINE
  8
0
  6
CONTINUOUS
 62
       7
  5
38
 10
-114.67878002
 20
88.21731253
 30
0.0
 11
-117.11074964
 21
102.80913024
 31
0.0
  0
LINE
  8
0
  6
CONTINUOUS
 62
       7
  5
39
 10
-126.67878002
 20
93.98478454
 30
0.0
 11
-126.67878002
 21
112.17233329
 31
0.0
  0
LINE
  8
0
  6
CONTINUOUS
 62
       7
  5
3A
 10
-122.17878002
 20
88.21731253
 30
0.0
 11
-126.16536831
 21
92.64685507
 31
0.0
  0
LINE
  8
0
  6
CONTINUOUS
 62
       7
  5
3B
 10
-117.50165568
 20
131.21731253
 30
0.0
 11
-118.35482403
 21
131.21731253
 31
0.0
  0
LINE
  8
0
  6
CONTINUOUS
 62
       7
  5
3C
 10
-128.2815868
 20
88.21731253
 30
0.0
 11
-154.37501154
 21
88.21731253
 31
0.0
  0
LINE
  8
0
  6
CONTINUOUS
 62
       7
  5
3D
 10
-110.17878002
 20
67.21731253
 30
0.0
 11
-113.0459978
 21
67.21731253
 31
0.0
  0
LINE
  8
0
  6
CONTINUOUS
 62
       7
  5
3E
 10
-112.71362694
 20
87.5622615
 30
0.0
 11
-114.67878002
 21
88.21731253
 31
0.0
  0
LINE
  8
0
  6
CONTINUOUS
 62
       7
  5
3F
 10
-91.67878002
 20
85.71731253
 30
0.0
 11
-91.67878002
 21
89.71731253
 31
0.0
  0
LINE
  8
0
  6
CONTINUOUS
 62
       2
  5
40
 10
-75.67878002
 20
92.80821535
 30
0.0
 11
-75.67878002
 21
127.51738159
 31
0.0
  0
LINE
  8
0
  6
CONTINUOUS
 62
       7
  5
41
 10
-60.67878002
 20
79.65106926
 30
0.0
 11
-60.67878002
 21
109.71731253
 31
0.0
  0
LINE
  8
0
  6
CONTINUOUS
 62
       7
  5
42
 10
-89.17878002
 20
133.71731253
 30
0.0
 11
-90.67878002
 21
133.71731253
 31
0.0
  0
LINE
  8
0
  6
CONTINUOUS
 62
       7
  5
43
 10
-48.67878002
 20
78.65106926
 30
0.0
 11
-59.67878002
 21
78.65106926
 31
0.0
  0
LINE
  8
0
  6
CONTINUOUS
 62
       7
  5
44
 10
-63.17878002
 20
81.21731253
 30
0.0
 11
-63.17878002
 21
88.65106926
 31
0.0
  0
LINE
  8
0
  6
CONTINUOUS
 62
       7
  5
45
 10
-48.67878002
 20
90.7835558
 30
0.0
 11
-51.67878002
 21
90.7835558
 31
0.0
  0
LINE
  8
0
  6
CONTINUOUS
 62
       7
  5
46
 10
-48.67878002
 20
92.71731253
 30
0.0
 11
-51.67878002
 21
92.71731253
 31
0.0
  0
LINE
  8
0
  6
CONTINUOUS
 62
       7
  5
47
 10
-52.67878002
 20
86.65106926
 30
0.0
 11
-52.67878002
 21
109.71731253
 31
0.0
  0
ARC
  8
0
  6
CONTINUOUS
 62
       7
  5
48
 10
-48.67878002
 20
93.71731253
 30
0.0
 40
1.0
 50
270.0
 51
0.0
  0
ARC
  8
0
  6
CONTINUOUS
 62
       7
  5
49
 10
-51.67878002
 20
91.7835558
 30
0.0
 40
1.0
 50
180.0
 51
270.0
  0
ARC
  8
0
  6
CONTINUOUS
 62
       7
  5
4A
 10
-48.67878002
 20
89.7835558
 30
0.0
 40
1.0
 50
0.0
 51
90.0
  0
ARC
  8
0
  6
CONTINUOUS
 62
       7
  5
4B
 10
-48.67878002
 20
79.65106926
 30
0.0
 40
1.0
 50
270.0
 51
0.0
  0
LINE
  8
0
  6
CONTINUOUS
 62
       7
  5
4C
 10
-60.67878002
 20
80.21731253
 30
0.0
 11
-62.17878002
 21
80.21731253
 31
0.0
  0
ARC
  8
0
  6
CONTINUOUS
 62
       7
  5
4D
 10
-62.17878002
 20
81.21731253
 30
0.0
 40
1.0
 50
180.0
 51
270.0
  0
ARC
  8
0
  6
CONTINUOUS
 62
       7
  5
4E
 10
-59.67878002
 20
79.65106926
 30
0.0
 40
1.0
 50
180.0
 51
270.0
  0
LINE
  8
0
  6
CONTINUOUS
 62
       7
  5
4F
 10
-56.67878002
 20
78.65106926
 30
0.0
 11
-56.67878002
 21
109.71731253
 31
0.0
  0
LINE
  8
0
  6
CONTINUOUS
 62
       2
  5
50
 10
-96.17878002
 20
81.78616816
 30
0.0
 11
-96.17878002
 21
133.71731254
 31
0.0
  0
LINE
  8
0
  6
CONTINUOUS
 62
       7
  5
51
 10
-91.22526709
 20
129.71731253
 30
0.0
 11
-101.13229295
 21
129.71731253
 31
0.0
  0
LINE
  8
0
  6
CONTINUOUS
 62
       7
  5
52
 10
-91.23002925
 20
89.71731253
 30
0.0
 11
-101.12753085
 21
89.71731253
 31
0.0
  0
LINE
  8
0
  6
CONTINUOUS
 62
       7
  5
53
 10
-91.634358
 20
118.71731253
 30
0.0
 11
-100.72320204
 21
118.71731253
 31
0.0
  0
LINE
  8
0
  6
CONTINUOUS
 62
       7
  5
54
 10
-102.13126149
 20
128.67190486
 30
0.0
 11
-101.72217058
 21
119.67190486
 31
0.0
  0
LINE
  8
0
  6
CONTINUOUS
 62
       7
  5
55
 10
-90.22629855
 20
128.67190486
 30
0.0
 11
-90.63538946
 21
119.67190486
 31
0.0
  0
LINE
  8
0
  6
CONTINUOUS
 62
       7
  5
56
 10
-91.63002929
 20
99.71731253
 30
0.0
 11
-100.72753081
 21
99.71731253
 31
0.0
  0
LINE
  8
0
  6
CONTINUOUS
 62
       7
  5
57
 10
-102.12628319
 20
90.76725015
 30
0.0
 11
-101.72628315
 21
98.76725015
 31
0.0
  0
LINE
  8
0
  6
CONTINUOUS
 62
       7
  5
58
 10
-90.23127691
 20
90.76725015
 30
0.0
 11
-90.63127695
 21
98.76725015
 31
0.0
  0
LINE
  8
0
  6
CONTINUOUS
 62
       7
  5
59
 10
-92.67878002
 20
99.71731253
 30
0.0
 11
-92.67878002
 21
118.71731253
 31
0.0
  0
LINE
  8
0
  6
CONTINUOUS
 62
       7
  5
5A
 10
-99.67878002
 20
99.71731253
 30
0.0
 11
-99.67878002
 21
118.71731253
 31
0.0
  0
LINE
  8
0
  6
CONTINUOUS
 62
       7
  5
5B
 10
-94.17878002
 20
99.71731253
 30
0.0
 11
-94.17878002
 21
118.71731253
 31
0.0
  0
LINE
  8
0
  6
CONTINUOUS
 62
       7
  5
5C
 10
-98.17878002
 20
99.71731253
 30
0.0
 11
-98.17878002
 21
118.71731253
 31
0.0
  0
LINE
  8
0
  6
CONTINUOUS
 62
       7
  5
5D
 10
-94.87878002
 20
99.71731253
 30
0.0
 11
-94.87878002
 21
111.89131499
 31
0.0
  0
LINE
  8
0
  6
CONTINUOUS
 62
       7
  5
5E
 10
-97.47878002
 20
99.71731253
 30
0.0
 11
-97.47878002
 21
111.89131499
 31
0.0
  0
LINE
  8
0
  6
CONTINUOUS
 62
       7
  5
5F
 10
-94.17878008
 20
111.89131499
 30
0.0
 11
-98.17878008
 21
111.89131499
 31
0.0
  0
LINE
  8
0
  6
CONTINUOUS
 62
       7
  5
60
 10
-97.47878021
 20
111.89131507
 30
0.0
 11
-98.17878002
 21
113.10375031
 31
0.0
  0
LINE
  8
0
  6
CONTINUOUS
 62
       7
  5
61
 10
-94.87877983
 20
111.89131507
 30
0.0
 11
-94.17878002
 21
113.10375031
 31
0.0
  0
LINE
  8
0
  6
CONTINUOUS
 62
       7
  5
62
 10
-100.17878002
 20
85.71731253
 30
0.0
 11
-100.17878002
 21
86.71731253
 31
0.0
  0
LINE
  8
0
  6
CONTINUOUS
 62
       7
  5
63
 10
-95.52878002
 20
83.01731253
 30
0.0
 11
-96.82878002
 21
83.01731253
 31
0.0
  0
ARC
  8
0
  6
CONTINUOUS
 62
       7
  5
64
 10
-96.82878002
 20
85.71731253
 30
0.0
 40
2.7
 50
180.0
 51
270.0
  0
ARC
  8
0
  6
CONTINUOUS
 62
       7
  5
65
 10
-95.52878002
 20
85.71731253
 30
0.0
 40
2.7
 50
270.0
 51
0.0
  0
LINE
  8
0
  6
CONTINUOUS
 62
       7
  5
66
 10
-96.17877999
 20
83.01731253
 30
0.0
 11
-97.37878013
 21
84.21731266
 31
0.0
  0
LINE
  8
0
  6
CONTINUOUS
 62
       7
  5
67
 10
-94.97877991
 20
84.21731254
 30
0.0
 11
-96.17877992
 21
83.01731253
 31
0.0
  0
LINE
  8
0
  6
CONTINUOUS
 62
       7
  5
68
 10
-91.67878002
 20
129.71731253
 30
0.0
 11
-91.67878002
 21
132.71731253
 31
0.0
  0
LINE
  8
0
  6
CONTINUOUS
 62
       7
  5
69
 10
-91.67878002
 20
99.71731253
 30
0.0
 11
-91.67878002
 21
118.71731253
 31
0.0
  0
LINE
  8
0
  6
CONTINUOUS
 62
       7
  5
6A
 10
-128.74712613
 20
137.21731253
 30
0.0
 11
-156.17878002
 21
137.21731253
 31
0.0
  0
LINE
  8
0
  6
CONTINUOUS
 62
       7
  5
6B
 10
-174.17878002
 20
79.21731253
 30
0.0
 11
-109.17878002
 21
79.21731253
 31
0.0
  0
LINE
  8
0
  6
CONTINUOUS
 62
       7
  5
6C
 10
-108.17878002
 20
76.56731253
 30
0.0
 11
-109.17878002
 21
76.56731253
 31
0.0
  0
LINE
  8
0
  6
CONTINUOUS
 62
       7
  5
6D
 10
-108.17878002
 20
69.86731253
 30
0.0
 11
-109.17878002
 21
69.86731253
 31
0.0
  0
LINE
  8
0
  6
CONTINUOUS
 62
       7
  5
6E
 10
-108.17878002
 20
69.86731253
 30
0.0
 11
-108.17878002
 21
76.56731253
 31
0.0
  0
LINE
  8
0
  6
CONTINUOUS
 62
       7
  5
6F
 10
-105.47878002
 20
72.56731253
 30
0.0
 11
-105.47878002
 21
73.86731253
 31
0.0
  0
ARC
  8
0
  6
CONTINUOUS
 62
       7
  5
70
 10
-108.17878002
 20
73.86731253
 30
0.0
 40
2.7
 50
0.0
 51
90.0
  0
ARC
  8
0
  6
CONTINUOUS
 62
       7
  5
71
 10
-108.17878002
 20
72.56731253
 30
0.0
 40
2.7
 50
270.0
 51
0.0
  0
LINE
  8
0
  6
CONTINUOUS
 62
       7
  5
72
 10
-105.47877991
 20
73.21731254
 30
0.0
 11
-106.67877996
 21
74.41731259
 31
0.0
  0
LINE
  8
0
  6
CONTINUOUS
 62
       7
  5
73
 10
-105.47877991
 20
73.21731254
 30
0.0
 11
-106.67877996
 21
72.01731249
 31
0.0
  0
LINE
  8
0
  6
CONTINUOUS
 62
       7
  5
74
 10
-114.03827568
 20
68.09327779
 30
0.0
 11
-114.4597887
 21
71.46538199
 31
0.0
  0
ARC
  8
0
  6
CONTINUOUS
 62
       7
  5
75
 10
-116.44434446
 20
71.21731253
 30
0.0
 40
2.0
 50
7.12501635
 51
90.0
  0
LINE
  8
0
  6
CONTINUOUS
 62
       7
  5
76
 10
-162.38879186
 20
72.72433265
 30
0.0
 11
-157.96876818
 21
65.2102924
 31
0.0
  0
LINE
  8
0
  6
CONTINUOUS
 62
       7
  5
77
 10
-120.96876818
 20
72.72433265
 30
0.0
 11
-124.39601479
 21
66.89801342
 31
0.0
  0
LINE
  8
0
  6
CONTINUOUS
 62
       7
  5
78
 10
-124.92878002
 20
58.71731253
 30
0.0
 11
-124.92878002
 21
52.71731253
 31
0.0
  0
LINE
  8
0
  6
CONTINUOUS
 62
       2
  5
79
 10
-112.06681837
 20
61.71731253
 30
0.0
 11
-172.44306288
 21
61.71731253
 31
0.0
  0
LINE
  8
0
  6
CONTINUOUS
 62
       7
  5
7A
 10
-114.92878002
 20
58.71731253
 30
0.0
 11
-120.07878002
 21
58.71731253
 31
0.0
  0
LINE
  8
0
  6
CONTINUOUS
 62
       7
  5
7B
 10
-115.92878002
 20
64.71731253
 30
0.0
 11
-118.22641044
 21
64.71731253
 31
0.0
  0
LINE
  8
0
  6
CONTINUOUS
 62
       7
  5
7C
 10
-158.67878002
 20
64.71731253
 30
0.0
 11
-159.67878008
 21
64.71731253
 31
0.0
  0
LINE
  8
0
  6
CONTINUOUS
 62
       7
  5
7D
 10
-164.47239053
 20
67.71731253
 30
0.0
 11
-166.67878008
 21
67.71731253
 31
0.0
  0
POLYLINE
  8
0
  6
CONTINUOUS
 62
       7
  5
7E
 66
       1
 10
0.0
 20
0.0
 30
0.0
  0
VERTEX
  8
0
  6
CONTINUOUS
 62
       7
  5
348
 10
-166.67878002
 20
67.71731253
 30
0.0
  0
VERTEX
  8
0
  6
CONTINUOUS
 62
       7
  5
349
 10
-166.93983241
 20
67.66598169
 30
0.0
  0
VERTEX
  8
0
  6
CONTINUOUS
 62
       7
  5
34A
 10
-167.19641811
 20
67.51286748
 30
0.0
  0
VERTEX
  8
0
  6
CONTINUOUS
 62
       7
  5
34B
 10
-167.44414689
 20
67.26058972
 30
0.0
  0
VERTEX
  8
0
  6
CONTINUOUS
 62
       7
  5
34C
 10
-167.67878002
 20
66.91346495
 30
0.0
  0
VERTEX
  8
0
  6
CONTINUOUS
 62
       7
  5
34D
 10
-167.89630288
 20
66.47743257
 30
0.0
  0
VERTEX
  8
0
  6
CONTINUOUS
 62
       7
  5
34E
 10
-168.09299358
 20
65.95995321
 30
0.0
  0
VERTEX
  8
0
  6
CONTINUOUS
 62
       7
  5
34F
 10
-168.2654867
 20
65.3698811
 30
0.0
  0
VERTEX
  8
0
  6
CONTINUOUS
 62
       7
  5
350
 10
-168.41083083
 20
64.71731253
 30
0.0
  0
VERTEX
  8
0
  6
CONTINUOUS
 62
       7
  5
351
 10
-168.52653909
 20
64.01341312
 30
0.0
  0
VERTEX
  8
0
  6
CONTINUOUS
 62
       7
  5
352
 10
-168.61063167
 20
63.2702268
 30
0.0
  0
VERTEX
  8
0
  6
CONTINUOUS
 62
       7
  5
353
 10
-168.66166974
 20
62.50046968
 30
0.0
  0
VERTEX
  8
0
  6
CONTINUOUS
 62
       7
  5
354
 10
-168.67878002
 20
61.71731253
 30
0.0
  0
VERTEX
  8
0
  6
CONTINUOUS
 62
       7
  5
355
 10
-168.66166974
 20
60.93415537
 30
0.0
  0
VERTEX
  8
0
  6
CONTINUOUS
 62
       7
  5
356
 10
-168.61063167
 20
60.16439825
 30
0.0
  0
VERTEX
  8
0
  6
CONTINUOUS
 62
       7
  5
357
 10
-168.52653909
 20
59.42121193
 30
0.0
  0
VERTEX
  8
0
  6
CONTINUOUS
 62
       7
  5
358
 10
-168.41083083
 20
58.71731253
 30
0.0
  0
SEQEND
  8
0
  6
CONTINUOUS
 62
       7
  5
359
  0
LINE
  8
0
  6
CONTINUOUS
 62
       7
  5
7F
 10
-159.67878002
 20
64.71731253
 30
0.0
 11
-164.47239053
 21
67.71731253
 31
0.0
  0
LINE
  8
0
  6
CONTINUOUS
 62
       7
  5
80
 10
-158.67878002
 20
63.37276092
 30
0.0
 11
-158.67878002
 21
64.71731253
 31
0.0
  0
LINE
  8
0
  6
CONTINUOUS
 62
       7
  5
81
 10
-167.89758217
 20
59.71731253
 30
0.0
 11
-158.65997787
 21
59.71731253
 31
0.0
  0
LINE
  8
0
  6
CONTINUOUS
 62
       7
  5
82
 10
-167.89758217
 20
63.71731253
 30
0.0
 11
-158.67878002
 21
63.71731253
 31
0.0
  0
LINE
  8
0
  6
CONTINUOUS
 62
       7
  5
83
 10
-158.65997787
 20
58.71731254
 30
0.0
 11
-158.65997787
 21
63.36004707
 31
0.0
  0
LINE
  8
0
  6
CONTINUOUS
 62
       7
  5
84
 10
-167.89758217
 20
58.71731254
 30
0.0
 11
-167.89758217
 21
63.71731253
 31
0.0
  0
LINE
  8
0
  6
CONTINUOUS
 62
       7
  5
85
 10
-163.27878002
 20
59.71731253
 30
0.0
 11
-163.27878002
 21
63.36004702
 31
0.0
  0
POLYLINE
  8
0
  6
CONTINUOUS
 62
       7
  5
86
 66
       1
 10
0.0
 20
0.0
 30
0.0
  0
VERTEX
  8
0
  6
CONTINUOUS
 62
       7
  5
35A
 10
-115.92878002
 20
64.71731253
 30
0.0
  0
VERTEX
  8
0
  6
CONTINUOUS
 62
       7
  5
35B
 10
-115.64819245
 20
64.68764229
 30
0.0
  0
VERTEX
  8
0
  6
CONTINUOUS
 62
       7
  5
35C
 10
-115.37315495
 20
64.59921845
 30
0.0
  0
VERTEX
  8
0
  6
CONTINUOUS
 62
       7
  5
35D
 10
-115.10910779
 20
64.45379005
 30
0.0
  0
VERTEX
  8
0
  6
CONTINUOUS
 62
       7
  5
35E
 10
-114.86127389
 20
64.25423369
 30
0.0
  0
VERTEX
  8
0
  6
CONTINUOUS
 62
       7
  5
35F
 10
-114.63455543
 20
64.00449662
 30
0.0
  0
VERTEX
  8
0
  6
CONTINUOUS
 62
       7
  5
360
 10
-114.43343694
 20
63.70951869
 30
0.0
  0
VERTEX
  8
0
  6
CONTINUOUS
 62
       7
  5
361
 10
-114.26189657
 20
63.3751346
 30
0.0
  0
VERTEX
  8
0
  6
CONTINUOUS
 62
       7
  5
362
 10
-114.12332743
 20
63.00795852
 30
0.0
  0
VERTEX
  8
0
  6
CONTINUOUS
 62
       7
  5
363
 10
-114.02047042
 20
62.61525326
 30
0.0
  0
VERTEX
  8
0
  6
CONTINUOUS
 62
       7
  5
364
 10
-113.95536009
 20
62.20478658
 30
0.0
  0
VERTEX
  8
0
  6
CONTINUOUS
 62
       7
  5
365
 10
-113.92928431
 20
61.7846776
 30
0.0
  0
VERTEX
  8
0
  6
CONTINUOUS
 62
       7
  5
366
 10
-113.94275888
 20
61.36323612
 30
0.0
  0
VERTEX
  8
0
  6
CONTINUOUS
 62
       7
  5
367
 10
-113.99551727
 20
60.94879833
 30
0.0
  0
VERTEX
  8
0
  6
CONTINUOUS
 62
       7
  5
368
 10
-114.08651591
 20
60.54956187
 30
0.0
  0
VERTEX
  8
0
  6
CONTINUOUS
 62
       7
  5
369
 10
-114.21395482
 20
60.17342371
 30
0.0
  0
VERTEX
  8
0
  6
CONTINUOUS
 62
       7
  5
36A
 10
-114.37531325
 20
59.82782391
 30
0.0
  0
VERTEX
  8
0
  6
CONTINUOUS
 62
       7
  5
36B
 10
-114.5673995
 20
59.5195985
 30
0.0
  0
VERTEX
  8
0
  6
CONTINUOUS
 62
       7
  5
36C
 10
-114.78641408
 20
59.25484423
 30
0.0
  0
VERTEX
  8
0
  6
CONTINUOUS
 62
       7
  5
36D
 10
-115.02802483
 20
59.03879797
 30
0.0
  0
VERTEX
  8
0
  6
CONTINUOUS
 62
       7
  5
36E
 10
-115.28745267
 20
58.87573316
 30
0.0
  0
VERTEX
  8
0
  6
CONTINUOUS
 62
       7
  5
36F
 10
-115.37315495
 20
58.8354066
 30
0.0
  0
VERTEX
  8
0
  6
CONTINUOUS
 62
       7
  5
370
 10
-115.45997787
 20
58.80089259
 30
0.0
  0
SEQEND
  8
0
  6
CONTINUOUS
 62
       7
  5
371
  0
LINE
  8
0
  6
CONTINUOUS
 62
       7
  5
87
 10
-126.25072608
 20
64.71731253
 30
0.0
 11
-158.67878002
 21
64.71731253
 31
0.0
  0
LINE
  8
0
  6
CONTINUOUS
 62
       7
  5
88
 10
-124.39601479
 20
66.89801342
 30
0.0
 11
-125.16978861
 21
65.58259792
 31
0.0
  0
ARC
  8
0
  6
CONTINUOUS
 62
       7
  5
89
 10
-90.67878002
 20
132.71731253
 30
0.0
 40
1.0
 50
90.0
 51
180.0
  0
ARC
  8
0
  6
CONTINUOUS
 62
       7
  5
8A
 10
-91.22526709
 20
128.71731253
 30
0.0
 40
1.0
 50
357.3974378
 51
90.0
  0
ARC
  8
0
  6
CONTINUOUS
 62
       7
  5
8B
 10
-101.13229295
 20
128.71731253
 30
0.0
 40
1.0
 50
90.0
 51
182.6025622
  0
ARC
  8
0
  6
CONTINUOUS
 62
       7
  5
8C
 10
-91.634358
 20
119.71731253
 30
0.0
 40
1.0
 50
270.0
 51
357.3974378
  0
ARC
  8
0
  6
CONTINUOUS
 62
       7
  5
8D
 10
-100.72320204
 20
119.71731253
 30
0.0
 40
1.0
 50
182.6025622
 51
270.0
  0
ARC
  8
0
  6
CONTINUOUS
 62
       7
  5
8E
 10
-92.67878002
 20
132.71731253
 30
0.0
 40
1.0
 50
270.0
 51
0.0
  0
ARC
  8
0
  6
CONTINUOUS
 62
       7
  5
8F
 10
-51.67878002
 20
91.71731253
 30
0.0
 40
1.0
 50
90.0
 51
180.0
  0
ARC
  8
0
  6
CONTINUOUS
 62
       7
  5
90
 10
-91.63002929
 20
98.71731253
 30
0.0
 40
1.0
 50
2.86240555
 51
90.0
  0
ARC
  8
0
  6
CONTINUOUS
 62
       7
  5
91
 10
-100.72753081
 20
98.71731253
 30
0.0
 40
1.0
 50
90.0
 51
177.13759445
  0
ARC
  8
0
  6
CONTINUOUS
 62
       7
  5
92
 10
-101.12753085
 20
90.71731253
 30
0.0
 40
1.0
 50
177.13759445
 51
270.0
  0
ARC
  8
0
  6
CONTINUOUS
 62
       7
  5
93
 10
-91.23002925
 20
90.71731253
 30
0.0
 40
1.0
 50
270.0
 51
2.86240555
  0
ARC
  8
0
  6
CONTINUOUS
 62
       7
  5
94
 10
-112.17878002
 20
86.71731253
 30
0.0
 40
1.0
 50
90.0
 51
180.0
  0
ARC
  8
0
  6
CONTINUOUS
 62
       7
  5
95
 10
-112.17878002
 20
83.21731253
 30
0.0
 40
1.0
 50
180.0
 51
270.0
  0
ARC
  8
0
  6
CONTINUOUS
 62
       7
  5
96
 10
-110.17878002
 20
81.21731253
 30
0.0
 40
1.0
 50
0.0
 51
90.0
  0
ARC
  8
0
  6
CONTINUOUS
 62
       7
  5
97
 10
-110.17878002
 20
68.21731253
 30
0.0
 40
1.0
 50
270.0
 51
0.0
  0
ARC
  8
0
  6
CONTINUOUS
 62
       7
  5
98
 10
-113.0459978
 20
68.21731253
 30
0.0
 40
1.0
 50
187.12501635
 51
270.0
  0
ARC
  8
0
  6
CONTINUOUS
 62
       7
  5
99
 10
-120.10683397
 20
72.21731253
 30
0.0
 40
1.0
 50
90.0
 51
149.53445508
  0
ARC
  8
0
  6
CONTINUOUS
 62
       7
  5
9A
 10
-114.92878002
 20
57.71731253
 30
0.0
 40
1.0
 50
0.0
 51
90.0
  0
ARC
  8
0
  6
CONTINUOUS
 62
       7
  5
9B
 10
-126.25072608
 20
65.71731253
 30
0.0
 40
1.0
 50
270.0
 51
318.21306407
  0
ARC
  8
0
  6
CONTINUOUS
 62
       7
  5
9C
 10
-173.17878002
 20
74.21731253
 30
0.0
 40
1.0
 50
180.0
 51
270.0
  0
ARC
  8
0
  6
CONTINUOUS
 62
       7
  5
9D
 10
-173.17878002
 20
81.21731253
 30
0.0
 40
1.0
 50
90.0
 51
180.0
  0
ARC
  8
0
  6
CONTINUOUS
 62
       7
  5
9E
 10
-156.17878002
 20
83.21731253
 30
0.0
 40
1.0
 50
180.0
 51
270.0
  0
ARC
  8
0
  6
CONTINUOUS
 62
       7
  5
9F
 10
-158.17878002
 20
87.21731253
 30
0.0
 40
1.0
 50
0.0
 51
90.0
  0
ARC
  8
0
  6
CONTINUOUS
 62
       7
  5
A0
 10
-167.67878002
 20
87.21731253
 30
0.0
 40
1.0
 50
90.0
 51
180.0
  0
ARC
  8
0
  6
CONTINUOUS
 62
       7
  5
A1
 10
-171.17878002
 20
83.21731253
 30
0.0
 40
1.0
 50
270.0
 51
0.0
  0
LINE
  8
0
  6
CONTINUOUS
 62
       7
  5
A2
 10
-118.7715271
 20
131.30826987
 30
0.0
 11
-126.26026769
 21
114.17482442
 31
0.0
  0
ARC
  8
0
  6
CONTINUOUS
 62
       7
  5
A3
 10
-116.17878002
 20
130.71731253
 30
0.0
 40
1.0
 50
90.0
 51
180.0
  0
ARC
  8
0
  6
CONTINUOUS
 62
       7
  5
A4
 10
-117.50165568
 20
132.21731253
 30
0.0
 40
1.0
 50
270.0
 51
311.40962211
  0
ARC
  8
0
  6
CONTINUOUS
 62
       7
  5
A5
 10
-118.35482403
 20
132.21731253
 30
0.0
 40
1.0
 50
209.88038193
 51
270.0
  0
ARC
  8
0
  6
CONTINUOUS
 62
       7
  5
A6
 10
-101.17878002
 20
86.71731253
 30
0.0
 40
1.0
 50
0.0
 51
90.0
  0
ARC
  8
0
  6
CONTINUOUS
 62
       7
  5
A7
 10
-88.17878002
 20
86.71731253
 30
0.0
 40
1.0
 50
180.0
 51
270.0
  0
LINE
  8
0
  6
CONTINUOUS
 62
       7
  5
A8
 10
-89.17878002
 20
85.71731253
 30
0.0
 11
-100.17878002
 21
85.71731253
 31
0.0
  0
ARC
  8
0
  6
CONTINUOUS
 62
       7
  5
A9
 10
-125.17878002
 20
87.21731253
 30
0.0
 40
1.0
 50
90.0
 51
180.0
  0
ARC
  8
0
  6
CONTINUOUS
 62
       7
  5
AA
 10
-115.67878002
 20
87.21731253
 30
0.0
 40
1.0
 50
0.0
 51
90.0
  0
ARC
  8
0
  6
CONTINUOUS
 62
       7
  5
AB
 10
-127.17878002
 20
83.21731253
 30
0.0
 40
1.0
 50
270.0
 51
0.0
  0
ARC
  8
0
  6
CONTINUOUS
 62
       7
  5
AC
 10
-163.25072608
 20
72.21731253
 30
0.0
 40
1.0
 50
30.46554492
 51
90.0
  0
ARC
  8
0
  6
CONTINUOUS
 62
       7
  5
AD
 10
-168.42878002
 20
57.71731253
 30
0.0
 40
1.0
 50
90.0
 51
180.0
  0
LINE
  8
0
  6
CONTINUOUS
 62
       7
  5
AE
 10
176.24429028
 20
40.71731253
 30
0.0
 11
112.99429028
 21
40.71731253
 31
0.0
  0
LINE
  8
0
  6
CONTINUOUS
 62
       7
  5
AF
 10
176.24429028
 20
-16.28268747
 30
0.0
 11
176.24429028
 21
40.71731253
 31
0.0
  0
LINE
  8
0
  6
CONTINUOUS
 62
       7
  5
B0
 10
105.74429028
 20
-16.28268747
 30
0.0
 11
105.74429028
 21
15.71731253
 31
0.0
  0
LINE
  8
0
  6
CONTINUOUS
 62
       7
  5
B1
 10
111.99429028
 20
15.71731253
 30
0.0
 11
105.74429022
 21
15.71731253
 31
0.0
  0
LINE
  8
0
  6
CONTINUOUS
 62
       2
  5
B2
 10
176.24429028
 20
31.21731253
 30
0.0
 11
168.24429028
 21
31.21731253
 31
0.0
  0
LINE
  8
0
  6
CONTINUOUS
 62
       7
  5
B3
 10
168.24429028
 20
20.71731253
 30
0.0
 11
168.24429028
 21
40.71731253
 31
0.0
  0
LINE
  8
0
  6
CONTINUOUS
 62
       7
  5
B4
 10
167.24429028
 20
-15.28268747
 30
0.0
 11
167.24429028
 21
9.71731253
 31
0.0
  0
LINE
  8
0
  6
CONTINUOUS
 62
       7
  5
B5
 10
176.24429028
 20
-16.28268747
 30
0.0
 11
168.24429028
 21
-16.28268747
 31
0.0
  0
LINE
  8
0
  6
CONTINUOUS
 62
       7
  5
B6
 10
162.74429028
 20
-17.28268747
 30
0.0
 11
162.74429028
 21
-16.28268747
 31
0.0
  0
LINE
  8
0
  6
CONTINUOUS
 62
       7
  5
B7
 10
159.74429028
 20
-17.28268747
 30
0.0
 11
159.74429028
 21
-14.28268747
 31
0.0
  0
ARC
  8
0
  6
CONTINUOUS
 62
       7
  5
B8
 10
168.24429028
 20
-15.28268747
 30
0.0
 40
1.0
 50
180.0
 51
270.0
  0
LINE
  8
0
  6
CONTINUOUS
 62
       7
  5
B9
 10
162.74429028
 20
-16.28268747
 30
0.0
 11
159.74429028
 21
-16.28268747
 31
0.0
  0
LINE
  8
0
  6
CONTINUOUS
 62
       7
  5
BA
 10
167.24429028
 20
-14.28268747
 30
0.0
 11
159.74429028
 21
-14.28268747
 31
0.0
  0
LINE
  8
0
  6
CONTINUOUS
 62
       7
  5
BB
 10
114.74429028
 20
-16.28268747
 30
0.0
 11
114.74429028
 21
15.71731253
 31
0.0
  0
LINE
  8
0
  6
CONTINUOUS
 62
       7
  5
BC
 10
114.5545702
 20
-16.28268747
 30
0.0
 11
105.74429028
 21
-16.28268747
 31
0.0
  0
LINE
  8
0
  6
CONTINUOUS
 62
       7
  5
BD
 10
149.74429028
 20
-0.28268747
 30
0.0
 11
131.74429028
 21
-0.28268747
 31
0.0
  0
LINE
  8
0
  6
CONTINUOUS
 62
       7
  5
BE
 10
164.24429028
 20
7.71731253
 30
0.0
 11
152.74429028
 21
7.71731253
 31
0.0
  0
LINE
  8
0
  6
CONTINUOUS
 62
       7
  5
BF
 10
176.24429028
 20
12.71731253
 30
0.0
 11
170.24429028
 21
12.71731253
 31
0.0
  0
LINE
  8
0
  6
CONTINUOUS
 62
       7
  5
C0
 10
149.74429028
 20
-0.28268747
 30
0.0
 11
149.74429028
 21
4.71731253
 31
0.0
  0
LINE
  8
0
  6
CONTINUOUS
 62
       7
  5
C1
 10
131.74429028
 20
-0.28268747
 30
0.0
 11
131.74429028
 21
4.71731253
 31
0.0
  0
LINE
  8
0
  6
CONTINUOUS
 62
       7
  5
C2
 10
128.74429028
 20
7.71731253
 30
0.0
 11
117.74429028
 21
7.71731253
 31
0.0
  0
ARC
  8
0
  6
CONTINUOUS
 62
       7
  5
C3
 10
170.24429028
 20
9.71731253
 30
0.0
 40
3.0
 50
90.0
 51
180.0
  0
ARC
  8
0
  6
CONTINUOUS
 62
       7
  5
C4
 10
164.24429028
 20
10.71731253
 30
0.0
 40
3.0
 50
270.0
 51
0.0
  0
LINE
  8
0
  6
CONTINUOUS
 62
       7
  5
C5
 10
166.24429028
 20
10.71731253
 30
0.0
 11
166.24429028
 21
15.71731253
 31
0.0
  0
ARC
  8
0
  6
CONTINUOUS
 62
       7
  5
C6
 10
111.99429028
 20
16.71731253
 30
0.0
 40
1.0
 50
270.0
 51
0.0
  0
ARC
  8
0
  6
CONTINUOUS
 62
       7
  5
C7
 10
163.24429028
 20
10.71731253
 30
0.0
 40
3.0
 50
270.0
 51
0.0
  0
ARC
  8
0
  6
CONTINUOUS
 62
       7
  5
C8
 10
117.74429028
 20
10.71731253
 30
0.0
 40
3.0
 50
180.0
 51
270.0
  0
ARC
  8
0
  6
CONTINUOUS
 62
       7
  5
C9
 10
128.74429028
 20
4.71731253
 30
0.0
 40
3.0
 50
0.0
 51
90.0
  0
ARC
  8
0
  6
CONTINUOUS
 62
       7
  5
CA
 10
152.74429028
 20
4.71731253
 30
0.0
 40
3.0
 50
90.0
 51
180.0
  0
ARC
  8
0
  6
CONTINUOUS
 62
       7
  5
CB
 10
121.74429028
 20
-4.28268747
 30
0.0
 40
10.0
 50
270.0
 51
0.0
  0
ARC
  8
0
  6
CONTINUOUS
 62
       7
  5
CC
 10
159.74429028
 20
-4.28268747
 30
0.0
 40
10.0
 50
180.0
 51
270.0
  0
LINE
  8
0
  6
CONTINUOUS
 62
       7
  5
CD
 10
121.74429028
 20
-14.28268747
 30
0.0
 11
114.74429028
 21
-14.28268747
 31
0.0
  0
LINE
  8
0
  6
CONTINUOUS
 62
       7
  5
CE
 10
108.74429028
 20
-18.28268747
 30
0.0
 11
108.74429028
 21
-16.28268747
 31
0.0
  0
LINE
  8
0
  6
CONTINUOUS
 62
       7
  5
CF
 10
180.74429028
 20
13.71731253
 30
0.0
 11
180.74429028
 21
27.71731253
 31
0.0
  0
LINE
  8
0
  6
CONTINUOUS
 62
       7
  5
D0
 10
180.11907553
 20
28.80021629
 30
0.0
 11
176.24429028
 21
28.80021629
 31
0.0
  0
LINE
  8
0
  6
CONTINUOUS
 62
       7
  5
D1
 10
180.1190755
 20
24.75876441
 30
0.0
 11
176.24429028
 21
24.75876441
 31
0.0
  0
LINE
  8
0
  6
CONTINUOUS
 62
       7
  5
D2
 10
180.11907553
 20
16.67586064
 30
0.0
 11
176.24429028
 21
16.67586064
 31
0.0
  0
LINE
  8
0
  6
CONTINUOUS
 62
       7
  5
D3
 10
180.11907553
 20
12.63440876
 30
0.0
 11
176.24429028
 21
12.63440876
 31
0.0
  0
LINE
  8
0
  6
CONTINUOUS
 62
       7
  5
D4
 10
180.74429034
 20
27.71731242
 30
0.0
 11
180.1190755
 21
28.80021629
 31
0.0
  0
LINE
  8
0
  6
CONTINUOUS
 62
       7
  5
D5
 10
180.11907547
 20
12.63440868
 30
0.0
 11
180.74429022
 21
13.71731242
 31
0.0
  0
ARC
  8
0
  6
CONTINUOUS
 62
       7
  5
D6
 10
177.16613843
 20
26.77949035
 30
0.0
 40
3.57815185
 50
325.6157526
 51
34.3842474
  0
ARC
  8
0
  6
CONTINUOUS
 62
       7
  5
D7
 10
167.36950504
 20
20.71731253
 30
0.0
 40
13.37478524
 50
342.41204626
 51
17.58795374
  0
ARC
  8
0
  6
CONTINUOUS
 62
       7
  5
D8
 10
177.16613844
 20
14.65513466
 30
0.0
 40
3.57815184
 50
325.61575164
 51
34.38424808
  0
LINE
  8
0
  6
CONTINUOUS
 62
       2
  5
D9
 10
181.39500713
 20
30.71731253
 30
0.0
 11
166.01066292
 21
30.71731253
 31
0.0
  0
LINE
  8
0
  6
DASHED
 62
       7
  5
DB
 10
176.24429028
 20
35.21731253
 30
0.0
 11
169.80824459
 21
35.21731253
 31
0.0
  0
LINE
  8
0
  6
DASHED
 62
       7
  5
DC
 10
176.24429028
 20
26.21731253
 30
0.0
 11
169.44026195
 21
26.21731253
 31
0.0
  0
LINE
  8
0
  6
DASHED
 62
       2
  5
DD
 10
176.24429034
 20
36.21731253
 30
0.0
 11
169.80824459
 21
35.99256086
 31
0.0
  0
LINE
  8
0
  6
DASHED
 62
       2
  5
DE
 10
176.24429022
 20
25.21731253
 30
0.0
 11
169.44026195
 21
25.45491443
 31
0.0
  0
LINE
  8
0
  6
DASHED
 62
       2
  5
DF
 10
176.24429028
 20
26.71731253
 30
0.0
 11
166.01066292
 21
26.71731253
 31
0.0
  0
LINE
  8
0
  6
DASHED
 62
       2
  5
E0
 10
176.24429028
 20
14.71731253
 30
0.0
 11
166.01066292
 21
14.71731253
 31
0.0
  0
LINE
  8
0
  6
DASHED
 62
       2
  5
E1
 10
176.24429028
 20
25.71731253
 30
0.0
 11
166.01066292
 21
25.71731253
 31
0.0
  0
LINE
  8
0
  6
DASHED
 62
       2
  5
E2
 10
176.24429028
 20
15.71731253
 30
0.0
 11
166.01066292
 21
15.71731253
 31
0.0
  0
LINE
  8
0
  6
CONTINUOUS
 62
       7
  5
E3
 10
172.74429028
 20
-17.28268747
 30
0.0
 11
108.74429028
 21
-17.28268747
 31
0.0
  0
LINE
  8
0
  6
CONTINUOUS
 62
       7
  5
E4
 10
168.49429028
 20
48.71731253
 30
0.0
 11
112.99429028
 21
48.71731253
 31
0.0
  0
LINE
  8
0
  6
CONTINUOUS
 62
       7
  5
E5
 10
-186.67878007
 20
-47.28268747
 30
0.0
 11
-96.67878002
 21
-47.28268747
 31
0.0
  0
LINE
  8
0
  6
CONTINUOUS
 62
       7
  5
E6
 10
-181.67878002
 20
-17.28268747
 30
0.0
 11
-101.67878002
 21
-17.28268747
 31
0.0
  0
LINE
  8
0
  6
CONTINUOUS
 62
       7
  5
E7
 10
-186.67878002
 20
-47.28268746
 30
0.0
 11
-186.67878002
 21
-38.28268747
 31
0.0
  0
LINE
  8
0
  6
CONTINUOUS
 62
       2
  5
E8
 10
-161.67878002
 20
-41.53614264
 30
0.0
 11
-161.67878002
 21
-23.69874511
 31
0.0
  0
LINE
  8
0
  6
CONTINUOUS
 62
       2
  5
E9
 10
-121.67878002
 20
-41.53614264
 30
0.0
 11
-121.67878002
 21
-23.69874511
 31
0.0
  0
LINE
  8
0
  6
CONTINUOUS
 62
       2
  5
EA
 10
-172.0107924
 20
-32.28268747
 30
0.0
 11
-151.90472992
 21
-32.28268747
 31
0.0
  0
CIRCLE
  8
0
  6
CONTINUOUS
 62
       2
  5
EB
 10
-161.67878002
 20
-32.28268747
 30
0.0
 40
6.5
  0
CIRCLE
  8
0
  6
CONTINUOUS
 62
       2
  5
EC
 10
-121.67878002
 20
-32.28268747
 30
0.0
 40
6.5
  0
CIRCLE
  8
0
  6
CONTINUOUS
 62
       7
  5
ED
 10
-161.67878002
 20
-32.28268747
 30
0.0
 40
5.5
  0
CIRCLE
  8
0
  6
CONTINUOUS
 62
       7
  5
EE
 10
-121.67878002
 20
-32.28268747
 30
0.0
 40
5.5
  0
LINE
  8
0
  6
CONTINUOUS
 62
       7
  5
EF
 10
-131.67878002
 20
137.21731253
 30
0.0
 11
-131.67878002
 21
137.71731253
 31
0.0
  0
LINE
  8
0
  6
CONTINUOUS
 62
       7
  5
F0
 10
-151.67878002
 20
137.71731253
 30
0.0
 11
-151.67878002
 21
137.21731253
 31
0.0
  0
LINE
  8
0
  6
CONTINUOUS
 62
       7
  5
F1
 10
-131.67878002
 20
137.71731253
 30
0.0
 11
-151.67878002
 21
137.71731253
 31
0.0
  0
LINE
  8
0
  6
CONTINUOUS
 62
       7
  5
F2
 10
-131.86382544
 20
143.71731253
 30
0.0
 11
-151.4937346
 21
143.71731253
 31
0.0
  0
LINE
  8
0
  6
CONTINUOUS
 62
       7
  5
F3
 10
-134.17878002
 20
151.71731253
 30
0.0
 11
-149.17878002
 21
151.71731253
 31
0.0
  0
LINE
  8
0
  6
CONTINUOUS
 62
       7
  5
F4
 10
-151.4937346
 20
137.71731253
 30
0.0
 11
-151.4937346
 21
143.71731253
 31
0.0
  0
LINE
  8
0
  6
CONTINUOUS
 62
       7
  5
F5
 10
-131.86382544
 20
137.71731253
 30
0.0
 11
-131.86382544
 21
143.71731253
 31
0.0
  0
LINE
  8
0
  6
CONTINUOUS
 62
       7
  5
F6
 10
-150.17878002
 20
143.71731254
 30
0.0
 11
-150.17878002
 21
150.71731253
 31
0.0
  0
LINE
  8
0
  6
CONTINUOUS
 62
       7
  5
F7
 10
-133.17878002
 20
143.71731254
 30
0.0
 11
-133.17878002
 21
150.71731253
 31
0.0
  0
LINE
  8
0
  6
CONTINUOUS
 62
       7
  5
F8
 10
148.24429028
 20
151.71731253
 30
0.0
 11
133.24429028
 21
151.71731253
 31
0.0
  0
LINE
  8
0
  6
CONTINUOUS
 62
       7
  5
F9
 10
149.24429028
 20
143.71731254
 30
0.0
 11
149.24429028
 21
150.71731253
 31
0.0
  0
LINE
  8
0
  6
CONTINUOUS
 62
       7
  5
FA
 10
149.24429023
 20
143.71731253
 30
0.0
 11
132.24429008
 21
143.71731253
 31
0.0
  0
LINE
  8
0
  6
CONTINUOUS
 62
       7
  5
FB
 10
130.9293357
 20
138.9788491
 30
0.0
 11
130.9293357
 21
142.95812329
 31
0.0
  0
ARC
  8
0
  6
CONTINUOUS
 62
       7
  5
FC
 10
133.38307423
 20
139.37241364
 30
0.0
 40
4.34489889
 50
55.61575258
 51
124.38424742
  0
LINE
  8
0
  6
CONTINUOUS
 62
       7
  5
FD
 10
132.24429028
 20
143.71731254
 30
0.0
 11
132.24429028
 21
150.71731253
 31
0.0
  0
LINE
  8
0
  6
CONTINUOUS
 62
       7
  5
FE
 10
132.2442901
 20
143.71731254
 30
0.0
 11
130.92933547
 21
142.95812311
 31
0.0
  0
LINE
  8
0
  6
CONTINUOUS
 62
       2
  5
FF
 10
150.74429028
 20
137.21731253
 30
0.0
 11
150.74429028
 21
137.71731253
 31
0.0
  0
LINE
  8
0
  6
CONTINUOUS
 62
       7
  5
100
 10
150.74429028
 20
137.71731253
 30
0.0
 11
133.11438114
 21
137.71731253
 31
0.0
  0
ARC
  8
0
  6
CONTINUOUS
 62
       7
  5
101
 10
140.74429037
 20
127.47650207
 30
0.0
 40
16.24081046
 50
72.41204572
 51
107.58795428
  0
ARC
  8
0
  6
CONTINUOUS
 62
       7
  5
102
 10
140.74429037
 20
153.95812298
 30
0.0
 40
16.24081046
 50
252.41204572
 51
287.58795428
  0
ARC
  8
0
  6
CONTINUOUS
 62
       7
  5
103
 10
148.10550633
 20
142.06221086
 30
0.0
 40
4.34489834
 50
235.61574843
 51
304.38425246
  0
LINE
  8
0
  6
CONTINUOUS
 62
       7
  5
104
 10
150.5592451
 20
138.47650206
 30
0.0
 11
149.2442901
 21
137.71731245
 31
0.0
  0
ARC
  8
0
  6
CONTINUOUS
 62
       7
  5
105
 10
148.10550633
 20
139.37241419
 30
0.0
 40
4.34489834
 50
55.61574754
 51
124.38425157
  0
LINE
  8
0
  6
CONTINUOUS
 62
       7
  5
106
 10
150.5592451
 20
142.95812299
 30
0.0
 11
149.2442901
 21
143.7173126
 31
0.0
  0
LINE
  8
0
  6
CONTINUOUS
 62
       7
  5
107
 10
145.65176757
 20
138.47650188
 30
0.0
 11
145.65176757
 21
142.95812317
 31
0.0
  0
LINE
  8
0
  6
CONTINUOUS
 62
       7
  5
108
 10
150.55924486
 20
138.47650189
 30
0.0
 11
150.55924486
 21
142.95812317
 31
0.0
  0
ARC
  8
0
  6
CONTINUOUS
 62
       7
  5
109
 10
133.38307423
 20
142.06221141
 30
0.0
 40
4.34489889
 50
266.24051782
 51
304.38424742
  0
LINE
  8
0
  6
CONTINUOUS
 62
       7
  5
10A
 10
135.83681299
 20
138.47650194
 30
0.0
 11
135.83681299
 21
142.95812311
 31
0.0
  0
LINE
  8
0
  6
CONTINUOUS
 62
       7
  5
10B
 10
133.24429028
 20
151.71731253
 30
0.0
 11
132.24429028
 21
150.71731253
 31
0.0
  0
LINE
  8
0
  6
CONTINUOUS
 62
       7
  5
10C
 10
148.24429028
 20
151.71731253
 30
0.0
 11
149.24429028
 21
150.71731253
 31
0.0
  0
LINE
  8
0
  6
CONTINUOUS
 62
       7
  5
10D
 10
149.24429028
 20
150.71731253
 30
0.0
 11
132.24429028
 21
150.71731253
 31
0.0
  0
LINE
  8
0
  6
CONTINUOUS
 62
       7
  5
10E
 10
-149.17878002
 20
151.71731253
 30
0.0
 11
-150.17878002
 21
150.71731253
 31
0.0
  0
LINE
  8
0
  6
CONTINUOUS
 62
       7
  5
10F
 10
-134.17878002
 20
151.71731253
 30
0.0
 11
-133.17878002
 21
150.71731253
 31
0.0
  0
LINE
  8
0
  6
CONTINUOUS
 62
       7
  5
110
 10
-133.17878002
 20
150.71731253
 30
0.0
 11
-150.17878002
 21
150.71731253
 31
0.0
  0
ARC
  8
0
  6
CONTINUOUS
 62
       7
  5
111
 10
-124.67878002
 20
93.98478454
 30
0.0
 40
2.0
 50
180.0
 51
221.9872125
  0
ARC
  8
0
  6
CONTINUOUS
 62
       7
  5
112
 10
-167.17878002
 20
87.38636063
 30
0.0
 40
3.0
 50
149.03624347
 51
180.0
  0
ARC
  8
0
  6
CONTINUOUS
 62
       7
  5
113
 10
-170.17878002
 20
94.04826442
 30
0.0
 40
3.0
 50
329.03624347
 51
0.0
  0
ARC
  8
0
  6
CONTINUOUS
 62
       7
  5
114
 10
-121.67878002
 20
112.17233329
 30
0.0
 40
5.0
 50
156.39067123
 51
180.0
  0
ARC
  8
0
  6
CONTINUOUS
 62
       7
  5
115
 10
-112.17878002
 20
103.63112518
 30
0.0
 40
5.0
 50
180.0
 51
189.46232221
  0
LINE
  8
0
  6
CONTINUOUS
 62
       7
  5
116
 10
-168.67878007
 20
48.71731253
 30
0.0
 11
-114.67878007
 21
48.71731253
 31
0.0
  0
LINE
  8
0
  6
CONTINUOUS
 62
       7
  5
117
 10
-168.67878007
 20
40.71731253
 30
0.0
 11
-114.67878007
 21
40.71731253
 31
0.0
  0
LINE
  8
0
  6
CONTINUOUS
 62
       7
  5
118
 10
-182.67878007
 20
-0.28268747
 30
0.0
 11
-173.67878002
 21
-0.28268747
 31
0.0
  0
LINE
  8
0
  6
CONTINUOUS
 62
       7
  5
119
 10
-168.67878002
 20
11.33626256
 30
0.0
 11
-168.67878002
 21
52.71731253
 31
0.0
  0
LINE
  8
0
  6
CONTINUOUS
 62
       7
  5
11A
 10
-114.67878002
 20
11.33626256
 30
0.0
 11
-114.67878002
 21
52.71731253
 31
0.0
  0
LINE
  8
0
  6
CONTINUOUS
 62
       7
  5
11B
 10
158.74429028
 20
48.71731253
 30
0.0
 11
158.74429028
 21
52.71731253
 31
0.0
  0
LINE
  8
0
  6
CONTINUOUS
 62
       7
  5
11C
 10
122.74429028
 20
48.71731253
 30
0.0
 11
122.74429028
 21
52.71731253
 31
0.0
  0
LINE
  8
0
  6
CONTINUOUS
 62
       2
  5
11D
 10
162.74429028
 20
45.93180631
 30
0.0
 11
162.74429028
 21
54.81307502
 31
0.0
  0
LINE
  8
0
  6
CONTINUOUS
 62
       2
  5
11E
 10
118.74429028
 20
45.93180631
 30
0.0
 11
118.74429028
 21
54.81307502
 31
0.0
  0
LINE
  8
0
  6
CONTINUOUS
 62
       2
  5
11F
 10
-157.67878002
 20
-19.49212152
 30
0.0
 11
-157.67878002
 21
18.17125976
 31
0.0
  0
LINE
  8
0
  6
CONTINUOUS
 62
       2
  5
120
 10
-125.67878002
 20
-19.49212152
 30
0.0
 11
-125.67878002
 21
18.17125976
 31
0.0
  0
ARC
  8
0
  6
CONTINUOUS
 62
       7
  5
121
 10
-125.67878002
 20
-0.28268747
 30
0.0
 40
16.0
 50
218.68218745
 51
141.31781255
  0
ARC
  8
0
  6
CONTINUOUS
 62
       7
  5
122
 10
-157.67878002
 20
-0.28268747
 30
0.0
 40
16.0
 50
38.68218745
 51
321.31781255
  0
CIRCLE
  8
0
  6
CONTINUOUS
 62
       7
  5
123
 10
-125.67878002
 20
-0.28268747
 30
0.0
 40
12.0
  0
CIRCLE
  8
0
  6
CONTINUOUS
 62
       7
  5
124
 10
-157.67878002
 20
-0.28268747
 30
0.0
 40
12.0
  0
LINE
  8
0
  6
CONTINUOUS
 62
       7
  5
125
 10
-145.188784
 20
9.71731253
 30
0.0
 11
-138.16877603
 21
9.71731253
 31
0.0
  0
LINE
  8
0
  6
CONTINUOUS
 62
       7
  5
126
 10
-145.188784
 20
-10.28268747
 30
0.0
 11
-138.16877603
 21
-10.28268747
 31
0.0
  0
LINE
  8
0
  6
CONTINUOUS
 62
       7
  5
127
 10
-155.17878002
 20
-17.28268747
 30
0.0
 11
-155.17878002
 21
-16.0861681
 31
0.0
  0
LINE
  8
0
  6
CONTINUOUS
 62
       7
  5
128
 10
-128.17878002
 20
-17.28268747
 30
0.0
 11
-128.17878002
 21
-16.0861681
 31
0.0
  0
LINE
  8
0
  6
CONTINUOUS
 62
       7
  5
129
 10
-182.67878002
 20
-36.28268747
 30
0.0
 11
-182.67878002
 21
-18.28268747
 31
0.0
  0
LINE
  8
0
  6
CONTINUOUS
 62
       7
  5
12A
 10
-100.67878002
 20
-36.28268747
 30
0.0
 11
-100.67878002
 21
-18.28268747
 31
0.0
  0
LINE
  8
0
  6
CONTINUOUS
 62
       7
  5
12B
 10
-109.67878002
 20
-0.28268747
 30
0.0
 11
-100.67878007
 21
-0.28268747
 31
0.0
  0
LINE
  8
0
  6
CONTINUOUS
 62
       2
  5
12C
 10
-175.67878002
 20
-2.23581274
 30
0.0
 11
-175.67878002
 21
7.1635892
 31
0.0
  0
LINE
  8
0
  6
CONTINUOUS
 62
       2
  5
12D
 10
-107.67878002
 20
-2.23581274
 30
0.0
 11
-107.67878002
 21
7.1635892
 31
0.0
  0
CIRCLE
  8
0
  6
CONTINUOUS
 62
       7
  5
12E
 10
-125.67878002
 20
-0.28268747
 30
0.0
 40
4.5
  0
CIRCLE
  8
0
  6
CONTINUOUS
 62
       7
  5
12F
 10
-125.67878002
 20
-0.28268747
 30
0.0
 40
7.7249031
  0
CIRCLE
  8
0
  6
CONTINUOUS
 62
       7
  5
130
 10
-157.67878002
 20
-0.28268747
 30
0.0
 40
4.5
  0
CIRCLE
  8
0
  6
CONTINUOUS
 62
       7
  5
131
 10
-157.67878002
 20
-0.28268747
 30
0.0
 40
7.7249031
  0
ARC
  8
0
  6
CONTINUOUS
 62
       7
  5
132
 10
-121.67878002
 20
-11.02963824
 30
0.0
 40
2.0
 50
26.53959483
 51
211.09833424
  0
ARC
  8
0
  6
CONTINUOUS
 62
       7
  5
133
 10
-121.67878002
 20
-11.02963824
 30
0.0
 40
1.0
 50
350.31176145
 51
230.51863045
  0
ARC
  8
0
  6
CONTINUOUS
 62
       7
  5
134
 10
-129.67878002
 20
-11.02963824
 30
0.0
 40
2.0
 50
328.90166576
 51
153.46040517
  0
ARC
  8
0
  6
CONTINUOUS
 62
       7
  5
135
 10
-129.67878002
 20
-11.02963824
 30
0.0
 40
1.0
 50
309.48136955
 51
189.68823855
  0
ARC
  8
0
  6
CONTINUOUS
 62
       7
  5
136
 10
-125.67878002
 20
-0.78268747
 30
0.0
 40
11.0
 50
166.79547202
 51
238.2444966
  0
ARC
  8
0
  6
CONTINUOUS
 62
       7
  5
137
 10
-125.67878002
 20
-0.78268747
 30
0.0
 40
11.0
 50
301.7555034
 51
166.79547202
  0
LINE
  8
0
  6
CONTINUOUS
 62
       2
  5
138
 10
-141.67878002
 20
-56.72262659
 30
0.0
 11
-141.67878002
 21
157.76466206
 31
0.0
  0
ARC
  8
0
  6
CONTINUOUS
 62
       7
  5
139
 10
-157.67878002
 20
-0.78268747
 30
0.0
 40
11.0
 50
301.7555034
 51
13.20452798
  0
ARC
  8
0
  6
CONTINUOUS
 62
       7
  5
13A
 10
-157.67878002
 20
-0.78268747
 30
0.0
 40
11.0
 50
13.20452798
 51
238.2444966
  0
ARC
  8
0
  6
CONTINUOUS
 62
       7
  5
13B
 10
-161.67878002
 20
-11.02963824
 30
0.0
 40
2.0
 50
328.90166576
 51
153.46040517
  0
ARC
  8
0
  6
CONTINUOUS
 62
       7
  5
13C
 10
-161.67878002
 20
-11.02963824
 30
0.0
 40
1.0
 50
309.48136955
 51
189.68823855
  0
ARC
  8
0
  6
CONTINUOUS
 62
       7
  5
13D
 10
-153.67878002
 20
-11.02963824
 30
0.0
 40
1.0
 50
350.31176145
 51
230.51863045
  0
ARC
  8
0
  6
CONTINUOUS
 62
       7
  5
13E
 10
-153.67878002
 20
-11.02963824
 30
0.0
 40
2.0
 50
26.53959483
 51
211.09833424
  0
LINE
  8
0
  6
CONTINUOUS
 62
       2
  5
13F
 10
-172.22381454
 20
-0.28268747
 30
0.0
 11
-111.49602127
 21
-0.28268747
 31
0.0
  0
LINE
  8
0
  6
CONTINUOUS
 62
       7
  5
140
 10
-181.77878002
 20
1.21731253
 30
0.0
 11
-173.60831234
 21
1.21731253
 31
0.0
  0
LINE
  8
0
  6
CONTINUOUS
 62
       7
  5
141
 10
-177.02878002
 20
5.11731253
 30
0.0
 11
-174.32878002
 21
5.11731253
 31
0.0
  0
LINE
  8
0
  6
CONTINUOUS
 62
       7
  5
142
 10
-181.77878002
 20
-0.28268747
 30
0.0
 11
-181.77878002
 21
1.21731253
 31
0.0
  0
ARC
  8
0
  6
CONTINUOUS
 62
       7
  5
143
 10
-177.02878002
 20
1.21731253
 30
0.0
 40
3.9
 50
90.0
 51
180.0
  0
ARC
  8
0
  6
CONTINUOUS
 62
       7
  5
144
 10
-174.32878002
 20
1.21731253
 30
0.0
 40
3.9
 50
67.59536269
 51
90.0
  0
LINE
  8
0
  6
CONTINUOUS
 62
       7
  5
145
 10
146.84429028
 20
1.21731253
 30
0.0
 11
134.64429028
 21
1.21731253
 31
0.0
  0
ARC
  8
0
  6
CONTINUOUS
 62
       7
  5
146
 10
139.39429028
 20
1.21731253
 30
0.0
 40
3.9
 50
90.0
 51
180.0
  0
LINE
  8
0
  6
CONTINUOUS
 62
       7
  5
147
 10
142.09429028
 20
5.11731253
 30
0.0
 11
139.39429028
 21
5.11731253
 31
0.0
  0
LINE
  8
0
  6
CONTINUOUS
 62
       7
  5
148
 10
134.64429028
 20
-0.28268747
 30
0.0
 11
134.64429028
 21
1.21731253
 31
0.0
  0
LINE
  8
0
  6
CONTINUOUS
 62
       7
  5
149
 10
-177.57878005
 20
3.2173126
 30
0.0
 11
-175.67878007
 21
5.11731258
 31
0.0
  0
LINE
  8
0
  6
CONTINUOUS
 62
       7
  5
14A
 10
-175.67878007
 20
5.11731258
 30
0.0
 11
-173.7787801
 21
3.2173126
 31
0.0
  0
LINE
  8
0
  6
CONTINUOUS
 62
       7
  5
14B
 10
138.84429025
 20
3.2173126
 30
0.0
 11
140.74429023
 21
5.11731258
 31
0.0
  0
LINE
  8
0
  6
CONTINUOUS
 62
       7
  5
14C
 10
122.74429028
 20
49.71731253
 30
0.0
 11
114.74429028
 21
49.71731253
 31
0.0
  0
LINE
  8
0
  6
CONTINUOUS
 62
       7
  5
14D
 10
119.64429028
 20
52.31731253
 30
0.0
 11
117.84429028
 21
52.31731253
 31
0.0
  0
LINE
  8
0
  6
CONTINUOUS
 62
       7
  5
14E
 10
114.74429028
 20
48.71731253
 30
0.0
 11
114.74429028
 21
49.71731253
 31
0.0
  0
ARC
  8
0
  6
CONTINUOUS
 62
       7
  5
14F
 10
119.64429028
 20
49.71731253
 30
0.0
 40
2.6
 50
0.0
 51
90.0
  0
ARC
  8
0
  6
CONTINUOUS
 62
       7
  5
150
 10
117.84429028
 20
49.71731253
 30
0.0
 40
2.6
 50
90.0
 51
180.0
  0
LINE
  8
0
  6
CONTINUOUS
 62
       7
  5
151
 10
120.34429036
 20
50.71731254
 30
0.0
 11
118.74429033
 21
52.31731256
 31
0.0
  0
LINE
  8
0
  6
CONTINUOUS
 62
       7
  5
152
 10
118.74429033
 20
52.31731256
 30
0.0
 11
117.1442903
 21
50.71731253
 31
0.0
  0
LINE
  8
0
  6
CONTINUOUS
 62
       7
  5
153
 10
166.74429028
 20
49.71731253
 30
0.0
 11
158.74429028
 21
49.71731253
 31
0.0
  0
LINE
  8
0
  6
CONTINUOUS
 62
       7
  5
154
 10
163.64429028
 20
52.31731253
 30
0.0
 11
161.84429028
 21
52.31731253
 31
0.0
  0
ARC
  8
0
  6
CONTINUOUS
 62
       7
  5
155
 10
163.64429028
 20
49.71731253
 30
0.0
 40
2.6
 50
0.0
 51
90.0
  0
LINE
  8
0
  6
CONTINUOUS
 62
       7
  5
156
 10
164.34429036
 20
50.71731254
 30
0.0
 11
162.74429033
 21
52.31731256
 31
0.0
  0
ARC
  8
0
  6
CONTINUOUS
 62
       7
  5
157
 10
161.84429028
 20
49.71731253
 30
0.0
 40
2.6
 50
90.0
 51
180.0
  0
LINE
  8
0
  6
CONTINUOUS
 62
       7
  5
158
 10
162.74429033
 20
52.31731256
 30
0.0
 11
161.1442903
 21
50.71731253
 31
0.0
  0
LINE
  8
0
  6
CONTINUOUS
 62
       7
  5
159
 10
166.74429028
 20
48.71731253
 30
0.0
 11
166.74429028
 21
49.71731253
 31
0.0
  0
LINE
  8
0
  6
CONTINUOUS
 62
       7
  5
15A
 10
-120.07878002
 20
55.68661163
 30
0.0
 11
-120.07878002
 21
58.71731253
 31
0.0
  0
LINE
  8
0
  6
CONTINUOUS
 62
       7
  5
15B
 10
146.84429028
 20
-0.28268747
 30
0.0
 11
146.84429028
 21
1.21731253
 31
0.0
  0
LINE
  8
0
  6
CONTINUOUS
 62
       7
  5
15C
 10
142.64429031
 20
3.2173126
 30
0.0
 11
140.74429033
 21
5.11731258
 31
0.0
  0
ARC
  8
0
  6
CONTINUOUS
 62
       7
  5
15D
 10
142.09429028
 20
1.21731253
 30
0.0
 40
3.9
 50
0.0
 51
90.0
  0
LINE
  8
0
  6
CONTINUOUS
 62
       7
  5
15E
 10
-101.57878002
 20
1.21731253
 30
0.0
 11
-109.7492477
 21
1.21731253
 31
0.0
  0
LINE
  8
0
  6
CONTINUOUS
 62
       7
  5
15F
 10
-106.32878002
 20
5.11731253
 30
0.0
 11
-109.02878002
 21
5.11731253
 31
0.0
  0
LINE
  8
0
  6
CONTINUOUS
 62
       7
  5
160
 10
-101.57878002
 20
-0.28268747
 30
0.0
 11
-101.57878002
 21
1.21731253
 31
0.0
  0
LINE
  8
0
  6
CONTINUOUS
 62
       7
  5
161
 10
-105.77877999
 20
3.2173126
 30
0.0
 11
-107.67877997
 21
5.11731258
 31
0.0
  0
ARC
  8
0
  6
CONTINUOUS
 62
       7
  5
162
 10
-106.32878002
 20
1.21731253
 30
0.0
 40
3.9
 50
0.0
 51
90.0
  0
ARC
  8
0
  6
CONTINUOUS
 62
       7
  5
163
 10
-109.02878002
 20
1.21731253
 30
0.0
 40
3.9
 50
90.0
 51
112.40463731
  0
LINE
  8
0
  6
CONTINUOUS
 62
       7
  5
164
 10
-107.67877997
 20
5.11731258
 30
0.0
 11
-109.57877994
 21
3.2173126
 31
0.0
  0
LINE
  8
0
  6
CONTINUOUS
 62
       2
  5
165
 10
-119.67878002
 20
45.93180631
 30
0.0
 11
-119.67878002
 21
54.81307502
 31
0.0
  0
LINE
  8
0
  6
CONTINUOUS
 62
       7
  5
166
 10
-123.67878002
 20
49.71731253
 30
0.0
 11
-115.67878002
 21
49.71731253
 31
0.0
  0
ARC
  8
0
  6
CONTINUOUS
 62
       7
  5
167
 10
-120.57878002
 20
49.71731253
 30
0.0
 40
2.6
 50
90.0
 51
180.0
  0
ARC
  8
0
  6
CONTINUOUS
 62
       7
  5
168
 10
-118.77878002
 20
49.71731253
 30
0.0
 40
2.6
 50
0.0
 51
90.0
  0
LINE
  8
0
  6
CONTINUOUS
 62
       7
  5
169
 10
-119.67878007
 20
52.31731256
 30
0.0
 11
-118.07878004
 21
50.71731253
 31
0.0
  0
LINE
  8
0
  6
CONTINUOUS
 62
       7
  5
16A
 10
-121.2787801
 20
50.71731254
 30
0.0
 11
-119.67878007
 21
52.31731256
 31
0.0
  0
LINE
  8
0
  6
CONTINUOUS
 62
       7
  5
16B
 10
-120.57878002
 20
52.31731253
 30
0.0
 11
-118.77878002
 21
52.31731253
 31
0.0
  0
LINE
  8
0
  6
CONTINUOUS
 62
       7
  5
16C
 10
-115.67878002
 20
48.71731253
 30
0.0
 11
-115.67878002
 21
49.71731253
 31
0.0
  0
LINE
  8
0
  6
CONTINUOUS
 62
       2
  5
16D
 10
-163.67878002
 20
45.93180631
 30
0.0
 11
-163.67878002
 21
54.81307502
 31
0.0
  0
LINE
  8
0
  6
CONTINUOUS
 62
       7
  5
16E
 10
-167.67878002
 20
49.71731253
 30
0.0
 11
-159.67878002
 21
49.71731253
 31
0.0
  0
ARC
  8
0
  6
CONTINUOUS
 62
       7
  5
16F
 10
-162.77878002
 20
49.71731253
 30
0.0
 40
2.6
 50
0.0
 51
90.0
  0
LINE
  8
0
  6
CONTINUOUS
 62
       7
  5
170
 10
-163.67878007
 20
52.31731256
 30
0.0
 11
-162.07878004
 21
50.71731253
 31
0.0
  0
LINE
  8
0
  6
CONTINUOUS
 62
       7
  5
171
 10
-167.67878002
 20
48.71731253
 30
0.0
 11
-167.67878002
 21
49.71731253
 31
0.0
  0
LINE
  8
0
  6
CONTINUOUS
 62
       7
  5
172
 10
-165.2787801
 20
50.71731254
 30
0.0
 11
-163.67878007
 21
52.31731256
 31
0.0
  0
ARC
  8
0
  6
CONTINUOUS
 62
       7
  5
173
 10
-164.57878002
 20
49.71731253
 30
0.0
 40
2.6
 50
90.0
 51
180.0
  0
LINE
  8
0
  6
CONTINUOUS
 62
       7
  5
174
 10
-164.57878002
 20
52.31731253
 30
0.0
 11
-162.77878002
 21
52.31731253
 31
0.0
  0
LINE
  8
0
  6
CONTINUOUS
 62
       7
  5
175
 10
159.24429028
 20
52.71731253
 30
0.0
 11
122.24429028
 21
52.71731253
 31
0.0
  0
LINE
  8
0
  6
CONTINUOUS
 62
       7
  5
176
 10
140.74429028
 20
52.80093617
 30
0.0
 11
140.74429028
 21
58.71731253
 31
0.0
  0
LINE
  8
0
  6
CONTINUOUS
 62
       7
  5
177
 10
112.99429028
 20
16.71731253
 30
0.0
 11
112.99429028
 21
48.71731254
 31
0.0
  0
LINE
  8
0
  6
CONTINUOUS
 62
       7
  5
178
 10
168.49429028
 20
40.71731254
 30
0.0
 11
168.49429028
 21
48.71731254
 31
0.0
  0
POLYLINE
  8
0
  6
CONTINUOUS
 62
       7
  5
179
 66
       1
 10
0.0
 20
0.0
 30
0.0
  0
VERTEX
  8
0
  6
CONTINUOUS
 62
       7
  5
372
 10
-164.86192091
 20
67.71731253
 30
0.0
  0
VERTEX
  8
0
  6
CONTINUOUS
 62
       7
  5
373
 10
-165.16844786
 20
67.64642469
 30
0.0
  0
VERTEX
  8
0
  6
CONTINUOUS
 62
       7
  5
374
 10
-165.4677318
 20
67.43543621
 30
0.0
  0
VERTEX
  8
0
  6
CONTINUOUS
 62
       7
  5
375
 10
-165.75270087
 20
67.08933259
 30
0.0
  0
VERTEX
  8
0
  6
CONTINUOUS
 62
       7
  5
376
 10
-166.01662145
 20
66.61629201
 30
0.0
  0
VERTEX
  8
0
  6
CONTINUOUS
 62
       7
  5
377
 10
-166.25325728
 20
66.02749208
 30
0.0
  0
VERTEX
  8
0
  6
CONTINUOUS
 62
       7
  5
378
 10
-166.45701685
 20
65.33684572
 30
0.0
  0
VERTEX
  8
0
  6
CONTINUOUS
 62
       7
  5
379
 10
-166.62308544
 20
64.56067239
 30
0.0
  0
VERTEX
  8
0
  6
CONTINUOUS
 62
       7
  5
37A
 10
-166.74753899
 20
63.71731253
 30
0.0
  0
VERTEX
  8
0
  6
CONTINUOUS
 62
       7
  5
37B
 10
-166.74753899
 20
63.71731253
 30
0.0
  0
SEQEND
  8
0
  6
CONTINUOUS
 62
       7
  5
37C
  0
POLYLINE
  8
0
  6
CONTINUOUS
 62
       7
  5
17A
 66
       1
 10
0.0
 20
0.0
 30
0.0
  0
VERTEX
  8
0
  6
CONTINUOUS
 62
       7
  5
37D
 10
-159.67878002
 20
64.71731253
 30
0.0
  0
VERTEX
  8
0
  6
CONTINUOUS
 62
       7
  5
37E
 10
-159.8184995
 20
64.6878859
 30
0.0
  0
VERTEX
  8
0
  6
CONTINUOUS
 62
       7
  5
37F
 10
-159.955478
 20
64.60018332
 30
0.0
  0
VERTEX
  8
0
  6
CONTINUOUS
 62
       7
  5
380
 10
-160.08702831
 20
64.45592531
 30
0.0
  0
VERTEX
  8
0
  6
CONTINUOUS
 62
       7
  5
381
 10
-160.21056971
 20
64.25794189
 30
0.0
  0
VERTEX
  8
0
  6
CONTINUOUS
 62
       7
  5
382
 10
-160.32367859
 20
64.01011704
 30
0.0
  0
VERTEX
  8
0
  6
CONTINUOUS
 62
       7
  5
383
 10
-160.42413601
 20
63.71731253
 30
0.0
  0
SEQEND
  8
0
  6
CONTINUOUS
 62
       7
  5
384
  0
LINE
  8
0
  6
CONTINUOUS
 62
       7
  5
17B
 10
-154.08070381
 20
58.71731253
 30
0.0
 11
-168.42878002
 21
58.71731253
 31
0.0
  0
ARC
  8
0
  6
CONTINUOUS
 62
       7
  5
17C
 10
-157.10683397
 20
65.71731253
 30
0.0
 40
1.0
 50
210.46554492
 51
270.0
  0
LINE
  8
0
  6
CONTINUOUS
 62
       7
  5
17D
 10
-123.67878002
 20
48.71731254
 30
0.0
 11
-123.67878002
 21
49.71731254
 31
0.0
  0
LINE
  8
0
  6
CONTINUOUS
 62
       7
  5
17E
 10
-159.67878002
 20
48.71731254
 30
0.0
 11
-159.67878002
 21
49.71731254
 31
0.0
  0
LINE
  8
0
  6
CONTINUOUS
 62
       7
  5
17F
 10
-131.67878002
 20
58.71731253
 30
0.0
 11
-131.67878002
 21
64.71731253
 31
0.0
  0
LINE
  8
0
  6
CONTINUOUS
 62
       7
  5
180
 10
-120.07878002
 20
67.74801342
 30
0.0
 11
-123.89601481
 21
67.74801342
 31
0.0
  0
ARC
  8
0
  6
CONTINUOUS
 62
       7
  5
181
 10
-115.51722114
 20
61.71731253
 30
0.0
 40
7.56155888
 50
183.79138851
 51
232.89652126
  0
LINE
  8
0
  6
CONTINUOUS
 62
       7
  5
182
 10
-122.45819893
 20
58.71731253
 30
0.0
 11
-131.67878002
 21
58.71731253
 31
0.0
  0
ARC
  8
0
  6
CONTINUOUS
 62
       7
  5
183
 10
-116.07878002
 20
61.71731253
 30
0.0
 40
5.0
 50
185.73917048
 51
216.86989765
  0
LINE
  8
0
  6
CONTINUOUS
 62
       7
  5
184
 10
-120.07878002
 20
64.89335248
 30
0.0
 11
-120.07878002
 21
67.74801342
 31
0.0
  0
POLYLINE
  8
0
  6
CONTINUOUS
 62
       7
  5
185
 66
       1
 10
0.0
 20
0.0
 30
0.0
  0
VERTEX
  8
0
  6
CONTINUOUS
 62
       7
  5
385
 10
-115.90117571
 20
64.71731253
 30
0.0
  0
VERTEX
  8
0
  6
CONTINUOUS
 62
       7
  5
386
 10
-116.16577623
 20
64.69094158
 30
0.0
  0
VERTEX
  8
0
  6
CONTINUOUS
 62
       7
  5
387
 10
-116.42572491
 20
64.61229237
 30
0.0
  0
VERTEX
  8
0
  6
CONTINUOUS
 62
       7
  5
388
 10
-116.67645168
 20
64.4827476
 30
0.0
  0
VERTEX
  8
0
  6
CONTINUOUS
 62
       7
  5
389
 10
-116.91354861
 20
64.30458474
 30
0.0
  0
VERTEX
  8
0
  6
CONTINUOUS
 62
       7
  5
38A
 10
-117.13284739
 20
64.08093601
 30
0.0
  0
VERTEX
  8
0
  6
CONTINUOUS
 62
       7
  5
38B
 10
-117.33049261
 20
63.8157333
 30
0.0
  0
VERTEX
  8
0
  6
CONTINUOUS
 62
       7
  5
38C
 10
-117.50300954
 20
63.51363903
 30
0.0
  0
VERTEX
  8
0
  6
CONTINUOUS
 62
       7
  5
38D
 10
-117.64736522
 20
63.17996421
 30
0.0
  0
VERTEX
  8
0
  6
CONTINUOUS
 62
       7
  5
38E
 10
-117.7610218
 20
62.82057506
 30
0.0
  0
VERTEX
  8
0
  6
CONTINUOUS
 62
       7
  5
38F
 10
-117.84198111
 20
62.44178985
 30
0.0
  0
VERTEX
  8
0
  6
CONTINUOUS
 62
       7
  5
390
 10
-117.88881985
 20
62.05026789
 30
0.0
  0
VERTEX
  8
0
  6
CONTINUOUS
 62
       7
  5
391
 10
-117.90071455
 20
61.65289235
 30
0.0
  0
VERTEX
  8
0
  6
CONTINUOUS
 62
       7
  5
392
 10
-117.87745611
 20
61.25664937
 30
0.0
  0
VERTEX
  8
0
  6
CONTINUOUS
 62
       7
  5
393
 10
-117.81945341
 20
60.86850513
 30
0.0
  0
VERTEX
  8
0
  6
CONTINUOUS
 62
       7
  5
394
 10
-117.72772619
 20
60.49528346
 30
0.0
  0
VERTEX
  8
0
  6
CONTINUOUS
 62
       7
  5
395
 10
-117.60388707
 20
60.14354583
 30
0.0
  0
VERTEX
  8
0
  6
CONTINUOUS
 62
       7
  5
396
 10
-117.4501132
 20
59.819476
 30
0.0
  0
VERTEX
  8
0
  6
CONTINUOUS
 62
       7
  5
397
 10
-117.26910805
 20
59.52877133
 30
0.0
  0
VERTEX
  8
0
  6
CONTINUOUS
 62
       7
  5
398
 10
-117.06405378
 20
59.2765426
 30
0.0
  0
VERTEX
  8
0
  6
CONTINUOUS
 62
       7
  5
399
 10
-116.83855539
 20
59.06722413
 30
0.0
  0
VERTEX
  8
0
  6
CONTINUOUS
 62
       7
  5
39A
 10
-116.59657727
 20
58.90449587
 30
0.0
  0
VERTEX
  8
0
  6
CONTINUOUS
 62
       7
  5
39B
 10
-116.34237356
 20
58.79121871
 30
0.0
  0
VERTEX
  8
0
  6
CONTINUOUS
 62
       7
  5
39C
 10
-116.08041331
 20
58.72938411
 30
0.0
  0
VERTEX
  8
0
  6
CONTINUOUS
 62
       7
  5
39D
 10
-115.81530196
 20
58.72007916
 30
0.0
  0
VERTEX
  8
0
  6
CONTINUOUS
 62
       7
  5
39E
 10
-115.6365752
 20
58.74368347
 30
0.0
  0
VERTEX
  8
0
  6
CONTINUOUS
 62
       7
  5
39F
 10
-115.45997787
 20
58.79121871
 30
0.0
  0
SEQEND
  8
0
  6
CONTINUOUS
 62
       7
  5
3A0
  0
CIRCLE
  8
0
  6
CONTINUOUS
 62
       7
  5
186
 10
-75.67878002
 20
109.71731253
 30
0.0
 40
13.5
  0
CIRCLE
  8
0
  6
CONTINUOUS
 62
       7
  5
187
 10
-75.67878002
 20
109.71731253
 30
0.0
 40
9.0
  0
CIRCLE
  8
0
  6
CONTINUOUS
 62
       2
  5
188
 10
-75.67878002
 20
109.71731253
 30
0.0
 40
10.5
  0
LINE
  8
0
  6
CONTINUOUS
 62
       7
  5
189
 10
-63.17878002
 20
133.71731253
 30
0.0
 11
-88.17878002
 21
133.71731253
 31
0.0
  0
LINE
  8
0
  6
CONTINUOUS
 62
       7
  5
18A
 10
-52.67878002
 20
90.65106926
 30
0.0
 11
-60.67878002
 21
90.65106926
 31
0.0
  0
LINE
  8
0
  6
CONTINUOUS
 62
       7
  5
18B
 10
-60.67878002
 20
139.7835558
 30
0.0
 11
-60.67878002
 21
109.71731253
 31
0.0
  0
LINE
  8
0
  6
CONTINUOUS
 62
       7
  5
18C
 10
-47.67878002
 20
93.71731253
 30
0.0
 11
-47.67878002
 21
125.71731253
 31
0.0
  0
LINE
  8
0
  6
CONTINUOUS
 62
       7
  5
18D
 10
-52.67878002
 20
132.7835558
 30
0.0
 11
-52.67878002
 21
109.71731253
 31
0.0
  0
LINE
  8
0
  6
CONTINUOUS
 62
       7
  5
18E
 10
-56.67878002
 20
140.7835558
 30
0.0
 11
-56.67878002
 21
109.71731253
 31
0.0
  0
LINE
  8
0
  6
CONTINUOUS
 62
       7
  5
18F
 10
-52.67878002
 20
128.7835558
 30
0.0
 11
-60.67878002
 21
128.7835558
 31
0.0
  0
ARC
  8
0
  6
CONTINUOUS
 62
       7
  5
190
 10
-51.67878002
 20
127.71731253
 30
0.0
 40
1.0
 50
180.0
 51
270.0
  0
ARC
  8
0
  6
CONTINUOUS
 62
       7
  5
191
 10
-59.67878002
 20
139.7835558
 30
0.0
 40
1.0
 50
90.0
 51
180.0
  0
ARC
  8
0
  6
CONTINUOUS
 62
       7
  5
192
 10
-62.17878002
 20
138.21731253
 30
0.0
 40
1.0
 50
90.0
 51
180.0
  0
LINE
  8
0
  6
CONTINUOUS
 62
       7
  5
193
 10
-60.67878002
 20
139.21731253
 30
0.0
 11
-62.17878002
 21
139.21731253
 31
0.0
  0
ARC
  8
0
  6
CONTINUOUS
 62
       7
  5
194
 10
-48.67878002
 20
139.7835558
 30
0.0
 40
1.0
 50
0.0
 51
90.0
  0
ARC
  8
0
  6
CONTINUOUS
 62
       7
  5
195
 10
-48.67878002
 20
129.65106926
 30
0.0
 40
1.0
 50
270.0
 51
0.0
  0
ARC
  8
0
  6
CONTINUOUS
 62
       7
  5
196
 10
-51.67878002
 20
127.65106926
 30
0.0
 40
1.0
 50
90.0
 51
180.0
  0
ARC
  8
0
  6
CONTINUOUS
 62
       7
  5
197
 10
-48.67878002
 20
125.71731253
 30
0.0
 40
1.0
 50
0.0
 51
90.0
  0
LINE
  8
0
  6
CONTINUOUS
 62
       7
  5
198
 10
-48.67878002
 20
126.71731253
 30
0.0
 11
-51.67878002
 21
126.71731253
 31
0.0
  0
LINE
  8
0
  6
CONTINUOUS
 62
       7
  5
199
 10
-48.67878002
 20
128.65106926
 30
0.0
 11
-51.67878002
 21
128.65106926
 31
0.0
  0
LINE
  8
0
  6
CONTINUOUS
 62
       7
  5
19A
 10
-63.17878002
 20
138.21731253
 30
0.0
 11
-63.17878002
 21
130.7835558
 31
0.0
  0
LINE
  8
0
  6
CONTINUOUS
 62
       7
  5
19B
 10
-48.67878002
 20
140.7835558
 30
0.0
 11
-59.67878002
 21
140.7835558
 31
0.0
  0
LINE
  8
0
  6
CONTINUOUS
 62
       7
  5
19C
 10
-47.67878002
 20
139.7835558
 30
0.0
 11
-47.67878002
 21
129.65106926
 31
0.0
  0
ARC
  8
0
  6
CONTINUOUS
 62
       7
  5
19D
 10
-88.17878002
 20
132.71731253
 30
0.0
 40
1.0
 50
90.0
 51
180.0
  0
LINE
  8
0
  6
CONTINUOUS
 62
       7
  5
19E
 10
176.74429028
 20
-47.28268747
 30
0.0
 11
176.74429028
 21
-19.28268747
 31
0.0
  0
LINE
  8
0
  6
CONTINUOUS
 62
       7
  5
19F
 10
104.74429028
 20
-47.28268747
 30
0.0
 11
104.74429028
 21
-19.28268747
 31
0.0
  0
LINE
  8
0
  6
CONTINUOUS
 62
       7
  5
1A0
 10
176.74429028
 20
-47.28268747
 30
0.0
 11
104.74429028
 21
-47.28268747
 31
0.0
  0
LINE
  8
0
  6
CONTINUOUS
 62
       7
  5
1A1
 10
118.74429028
 20
-47.28268747
 30
0.0
 11
118.74429028
 21
-19.28268747
 31
0.0
  0
LINE
  8
0
  6
CONTINUOUS
 62
       7
  5
1A2
 10
161.74429028
 20
-36.35075763
 30
0.0
 11
161.74429028
 21
-18.79560165
 31
0.0
  0
LINE
  8
0
  6
CONTINUOUS
 62
       7
  5
1A3
 10
161.74429028
 20
-37.28268747
 30
0.0
 11
119.74429028
 21
-37.28268747
 31
0.0
  0
LINE
  8
0
  6
CONTINUOUS
 62
       7
  5
1A4
 10
130.74429028
 20
-36.28268747
 30
0.0
 11
130.74429028
 21
-23.28268747
 31
0.0
  0
LINE
  8
0
  6
CONTINUOUS
 62
       7
  5
1A5
 10
129.74429028
 20
-22.28268747
 30
0.0
 11
119.74429028
 21
-22.28268747
 31
0.0
  0
LINE
  8
0
  6
CONTINUOUS
 62
       7
  5
1A6
 10
175.74429028
 20
-18.28268747
 30
0.0
 11
172.74429028
 21
-18.28268747
 31
0.0
  0
LINE
  8
0
  6
CONTINUOUS
 62
       7
  5
1A7
 10
117.74429028
 20
-18.28268747
 30
0.0
 11
105.74429028
 21
-18.28268747
 31
0.0
  0
ARC
  8
0
  6
CONTINUOUS
 62
       7
  5
1A8
 10
105.74429028
 20
-19.28268747
 30
0.0
 40
1.0
 50
90.0
 51
180.0
  0
ARC
  8
0
  6
CONTINUOUS
 62
       7
  5
1A9
 10
117.74429028
 20
-19.28268747
 30
0.0
 40
1.0
 50
0.0
 51
90.0
  0
ARC
  8
0
  6
CONTINUOUS
 62
       7
  5
1AA
 10
129.74429028
 20
-23.28268747
 30
0.0
 40
1.0
 50
0.0
 51
90.0
  0
ARC
  8
0
  6
CONTINUOUS
 62
       7
  5
1AB
 10
119.74429028
 20
-23.28268747
 30
0.0
 40
1.0
 50
90.0
 51
180.0
  0
ARC
  8
0
  6
CONTINUOUS
 62
       7
  5
1AC
 10
119.74429028
 20
-36.28268747
 30
0.0
 40
1.0
 50
180.0
 51
270.0
  0
ARC
  8
0
  6
CONTINUOUS
 62
       7
  5
1AD
 10
129.74429028
 20
-36.28268747
 30
0.0
 40
1.0
 50
270.0
 51
0.0
  0
ARC
  8
0
  6
CONTINUOUS
 62
       7
  5
1AE
 10
119.74429028
 20
-38.28268747
 30
0.0
 40
1.0
 50
90.0
 51
180.0
  0
ARC
  8
0
  6
CONTINUOUS
 62
       7
  5
1AF
 10
131.74429028
 20
-36.28268747
 30
0.0
 40
1.0
 50
180.0
 51
270.0
  0
LINE
  8
0
  6
CONTINUOUS
 62
       7
  5
1B0
 10
120.74429028
 20
-21.50473066
 30
0.0
 11
120.74429028
 21
-18.14541069
 31
0.0
  0
LINE
  8
0
  6
CONTINUOUS
 62
       7
  5
1B1
 10
162.74429028
 20
-47.28268747
 30
0.0
 11
162.74429028
 21
-38.28268747
 31
0.0
  0
ARC
  8
0
  6
CONTINUOUS
 62
       7
  5
1B2
 10
161.74429028
 20
-38.28268747
 30
0.0
 40
1.0
 50
0.0
 51
90.0
  0
LINE
  8
0
  6
CONTINUOUS
 62
       7
  5
1B3
 10
172.74429028
 20
-22.28268747
 30
0.0
 11
172.74429028
 21
-16.28268747
 31
0.0
  0
ARC
  8
0
  6
CONTINUOUS
 62
       7
  5
1B4
 10
171.74429028
 20
-22.28268747
 30
0.0
 40
1.0
 50
270.0
 51
0.0
  0
ARC
  8
0
  6
CONTINUOUS
 62
       7
  5
1B5
 10
175.74429028
 20
-19.28268747
 30
0.0
 40
1.0
 50
0.0
 51
90.0
  0
LINE
  8
0
  6
CONTINUOUS
 62
       7
  5
1B6
 10
-96.67878002
 20
-47.28268746
 30
0.0
 11
-96.67878002
 21
-38.28268747
 31
0.0
  0
LINE
  8
0
  6
CONTINUOUS
 62
       7
  5
1B7
 10
-185.67878002
 20
-37.28268747
 30
0.0
 11
-175.34544669
 21
-37.28268747
 31
0.0
  0
ARC
  8
0
  6
CONTINUOUS
 62
       7
  5
1B8
 10
-97.67878002
 20
-38.28268747
 30
0.0
 40
1.0
 50
0.0
 51
90.0
  0
ARC
  8
0
  6
CONTINUOUS
 62
       7
  5
1B9
 10
-185.67878002
 20
-38.28268747
 30
0.0
 40
1.0
 50
90.0
 51
180.0
  0
ARC
  8
0
  6
CONTINUOUS
 62
       7
  5
1BA
 10
-99.67878002
 20
-36.28268747
 30
0.0
 40
1.0
 50
180.0
 51
270.0
  0
ARC
  8
0
  6
CONTINUOUS
 62
       7
  5
1BB
 10
-183.67878002
 20
-36.28268747
 30
0.0
 40
1.0
 50
270.0
 51
0.0
  0
LINE
  8
0
  6
CONTINUOUS
 62
       7
  5
1BC
 10
-108.48433249
 20
-23.11611332
 30
0.0
 11
-107.67878002
 21
-47.28268747
 31
0.0
  0
LINE
  8
0
  6
CONTINUOUS
 62
       7
  5
1BD
 10
-134.87322755
 20
-23.11611332
 30
0.0
 11
-135.67878002
 21
-47.28268747
 31
0.0
  0
LINE
  8
0
  6
CONTINUOUS
 62
       7
  5
1BE
 10
-148.48433249
 20
-23.11611332
 30
0.0
 11
-147.67878002
 21
-47.28268747
 31
0.0
  0
LINE
  8
0
  6
CONTINUOUS
 62
       7
  5
1BF
 10
-174.87322755
 20
-23.11611332
 30
0.0
 11
-175.67878002
 21
-47.28268747
 31
0.0
  0
LINE
  8
0
  6
CONTINUOUS
 62
       7
  5
1C0
 10
-108.01211335
 20
-37.28268747
 30
0.0
 11
-97.67878002
 21
-37.28268747
 31
0.0
  0
LINE
  8
0
  6
CONTINUOUS
 62
       7
  5
1C1
 10
-169.87600301
 20
-18.28268747
 30
0.0
 11
-153.48155703
 21
-18.28268747
 31
0.0
  0
LINE
  8
0
  6
CONTINUOUS
 62
       7
  5
1C2
 10
-129.87600301
 20
-18.28268747
 30
0.0
 11
-113.48155703
 21
-18.28268747
 31
0.0
  0
ARC
  8
0
  6
CONTINUOUS
 62
       7
  5
1C3
 10
-169.87600301
 20
-23.28268747
 30
0.0
 40
5.0
 50
90.0
 51
178.09084757
  0
ARC
  8
0
  6
CONTINUOUS
 62
       7
  5
1C4
 10
-153.48155703
 20
-23.28268747
 30
0.0
 40
5.0
 50
1.90915243
 51
90.0
  0
ARC
  8
0
  6
CONTINUOUS
 62
       7
  5
1C5
 10
-129.87600301
 20
-23.28268747
 30
0.0
 40
5.0
 50
90.0
 51
178.09084757
  0
ARC
  8
0
  6
CONTINUOUS
 62
       7
  5
1C6
 10
-113.48155703
 20
-23.28268747
 30
0.0
 40
5.0
 50
1.90915243
 51
90.0
  0
LINE
  8
0
  6
CONTINUOUS
 62
       2
  5
1C7
 10
-130.6980462
 20
-32.28268747
 30
0.0
 11
-113.25703529
 21
-32.28268747
 31
0.0
  0
ARC
  8
0
  6
CONTINUOUS
 62
       7
  5
1C8
 10
-101.67878002
 20
-18.28268747
 30
0.0
 40
1.0
 50
0.0
 51
90.0
  0
ARC
  8
0
  6
CONTINUOUS
 62
       7
  5
1C9
 10
-101.67878002
 20
-16.28268747
 30
0.0
 40
1.0
 50
270.0
 51
0.0
  0
ARC
  8
0
  6
CONTINUOUS
 62
       7
  5
1CA
 10
-181.67878002
 20
-18.28268747
 30
0.0
 40
1.0
 50
90.0
 51
180.0
  0
ARC
  8
0
  6
CONTINUOUS
 62
       7
  5
1CB
 10
-181.67878002
 20
-16.28268747
 30
0.0
 40
1.0
 50
180.0
 51
270.0
  0
LINE
  8
0
  6
CONTINUOUS
 62
       7
  5
1CC
 10
-100.67878002
 20
-16.28268747
 30
0.0
 11
-100.67878002
 21
-0.28268747
 31
0.0
  0
LINE
  8
0
  6
CONTINUOUS
 62
       7
  5
1CD
 10
-182.67878002
 20
-16.28268747
 30
0.0
 11
-182.67878002
 21
-0.28268747
 31
0.0
  0
LINE
  8
0
  6
CONTINUOUS
 62
       2
  5
1CE
 10
-91.63911789
 20
-138.36934258
 30
0.0
 11
-190.40259035
 21
-138.36934258
 31
0.0
  0
LINE
  8
0
  6
CONTINUOUS
 62
       2
  5
1CF
 10
-141.67878002
 20
-180.92107518
 30
0.0
 11
-141.67878002
 21
-99.56483306
 31
0.0
  0
LINE
  8
0
  6
CONTINUOUS
 62
       7
  5
1D0
 10
-186.67878002
 20
-155.36934258
 30
0.0
 11
-186.67878002
 21
-121.36934258
 31
0.0
  0
LINE
  8
0
  6
CONTINUOUS
 62
       7
  5
1D1
 10
-96.67878002
 20
-155.36934258
 30
0.0
 11
-96.67878002
 21
-121.36934258
 31
0.0
  0
LINE
  8
0
  6
CONTINUOUS
 62
       7
  5
1D2
 10
-128.67878002
 20
-174.36934258
 30
0.0
 11
-154.67878002
 21
-174.36934258
 31
0.0
  0
LINE
  8
0
  6
CONTINUOUS
 62
       7
  5
1D3
 10
-148.67878002
 20
-102.36934258
 30
0.0
 11
-174.67878002
 21
-102.36934258
 31
0.0
  0
LINE
  8
0
  6
CONTINUOUS
 62
       7
  5
1D4
 10
-101.67878002
 20
-160.36934258
 30
0.0
 11
-126.67878002
 21
-160.36934258
 31
0.0
  0
LINE
  8
0
  6
CONTINUOUS
 62
       7
  5
1D5
 10
-101.67878002
 20
-116.36934258
 30
0.0
 11
-106.67878002
 21
-116.36934258
 31
0.0
  0
LINE
  8
0
  6
CONTINUOUS
 62
       7
  5
1D6
 10
-175.67878002
 20
-115.36934258
 30
0.0
 11
-175.67878002
 21
-103.36934258
 31
0.0
  0
LINE
  8
0
  6
CONTINUOUS
 62
       7
  5
1D7
 10
-107.67878002
 20
-115.36934258
 30
0.0
 11
-107.67878002
 21
-103.36934258
 31
0.0
  0
LINE
  8
0
  6
CONTINUOUS
 62
       7
  5
1D8
 10
-155.67878002
 20
-173.36934258
 30
0.0
 11
-155.67878002
 21
-161.36934258
 31
0.0
  0
LINE
  8
0
  6
CONTINUOUS
 62
       7
  5
1D9
 10
-127.67878002
 20
-173.36934258
 30
0.0
 11
-127.67878002
 21
-161.36934258
 31
0.0
  0
LINE
  8
0
  6
CONTINUOUS
 62
       7
  5
1DA
 10
-176.67878002
 20
-116.36934258
 30
0.0
 11
-181.67878002
 21
-116.36934258
 31
0.0
  0
LINE
  8
0
  6
CONTINUOUS
 62
       7
  5
1DB
 10
-156.67878002
 20
-160.36934258
 30
0.0
 11
-181.67878002
 21
-160.36934258
 31
0.0
  0
ARC
  8
0
  6
CONTINUOUS
 62
       7
  5
1DC
 10
-181.67878002
 20
-121.36934258
 30
0.0
 40
5.0
 50
90.0
 51
180.0
  0
ARC
  8
0
  6
CONTINUOUS
 62
       7
  5
1DD
 10
-101.67878002
 20
-121.36934258
 30
0.0
 40
5.0
 50
0.0
 51
90.0
  0
ARC
  8
0
  6
CONTINUOUS
 62
       7
  5
1DE
 10
-181.67878002
 20
-155.36934258
 30
0.0
 40
5.0
 50
180.0
 51
270.0
  0
ARC
  8
0
  6
CONTINUOUS
 62
       7
  5
1DF
 10
-101.67878002
 20
-155.36934258
 30
0.0
 40
5.0
 50
270.0
 51
0.0
  0
ARC
  8
0
  6
CONTINUOUS
 62
       7
  5
1E0
 10
-176.67878002
 20
-115.36934258
 30
0.0
 40
1.0
 50
270.0
 51
0.0
  0
ARC
  8
0
  6
CONTINUOUS
 62
       7
  5
1E1
 10
-174.67878002
 20
-103.36934258
 30
0.0
 40
1.0
 50
90.0
 51
180.0
  0
ARC
  8
0
  6
CONTINUOUS
 62
       7
  5
1E2
 10
-108.67878002
 20
-103.36934258
 30
0.0
 40
1.0
 50
0.0
 51
90.0
  0
ARC
  8
0
  6
CONTINUOUS
 62
       7
  5
1E3
 10
-106.67878002
 20
-115.36934258
 30
0.0
 40
1.0
 50
180.0
 51
270.0
  0
ARC
  8
0
  6
CONTINUOUS
 62
       7
  5
1E4
 10
-126.67878002
 20
-161.36934258
 30
0.0
 40
1.0
 50
90.0
 51
180.0
  0
ARC
  8
0
  6
CONTINUOUS
 62
       7
  5
1E5
 10
-128.67878002
 20
-173.36934258
 30
0.0
 40
1.0
 50
270.0
 51
0.0
  0
ARC
  8
0
  6
CONTINUOUS
 62
       7
  5
1E6
 10
-154.67878002
 20
-173.36934258
 30
0.0
 40
1.0
 50
180.0
 51
270.0
  0
ARC
  8
0
  6
CONTINUOUS
 62
       7
  5
1E7
 10
-156.67878002
 20
-161.36934258
 30
0.0
 40
1.0
 50
0.0
 51
90.0
  0
LINE
  8
0
  6
CONTINUOUS
 62
       2
  5
1E8
 10
-179.67878002
 20
-161.69918122
 30
0.0
 11
-179.67878002
 21
-146.63220619
 31
0.0
  0
LINE
  8
0
  6
CONTINUOUS
 62
       2
  5
1E9
 10
-103.67878002
 20
-161.69918122
 30
0.0
 11
-103.67878002
 21
-146.63220619
 31
0.0
  0
LINE
  8
0
  6
CONTINUOUS
 62
       2
  5
1EA
 10
-94.85385447
 20
-153.36934258
 30
0.0
 11
-111.31879625
 21
-153.36934258
 31
0.0
  0
LINE
  8
0
  6
CONTINUOUS
 62
       2
  5
1EB
 10
-94.85385447
 20
-123.36934258
 30
0.0
 11
-111.31879625
 21
-123.36934258
 31
0.0
  0
CIRCLE
  8
0
  6
CONTINUOUS
 62
       7
  5
1EC
 10
-179.67878002
 20
-123.36934258
 30
0.0
 40
3.75
  0
CIRCLE
  8
0
  6
CONTINUOUS
 62
       7
  5
1ED
 10
-103.67878002
 20
-123.36934258
 30
0.0
 40
3.75
  0
CIRCLE
  8
0
  6
CONTINUOUS
 62
       7
  5
1EE
 10
-103.67878002
 20
-153.36934258
 30
0.0
 40
3.75
  0
CIRCLE
  8
0
  6
CONTINUOUS
 62
       7
  5
1EF
 10
-179.67878002
 20
-153.36934258
 30
0.0
 40
3.75
  0
LINE
  8
0
  6
CONTINUOUS
 62
       2
  5
1F0
 10
-179.67878002
 20
-129.54594585
 30
0.0
 11
-179.67878002
 21
-114.63430046
 31
0.0
  0
LINE
  8
0
  6
CONTINUOUS
 62
       2
  5
1F1
 10
-103.67878002
 20
-129.54594585
 30
0.0
 11
-103.67878002
 21
-114.63430046
 31
0.0
  0
LINE
  8
0
  6
CONTINUOUS
 62
       2
  5
1F2
 10
-173.69655353
 20
-153.36934258
 30
0.0
 11
-188.05163813
 21
-153.36934258
 31
0.0
  0
LINE
  8
0
  6
CONTINUOUS
 62
       2
  5
1F3
 10
-173.13999275
 20
-123.36934258
 30
0.0
 11
-188.05163813
 21
-123.36934258
 31
0.0
  0
LINE
  8
0
  6
CONTINUOUS
 62
       7
  5
1F4
 10
-151.55176337
 20
-105.86934258
 30
0.0
 11
-167.79129783
 21
-105.86934258
 31
0.0
  0
LINE
  8
0
  6
CONTINUOUS
 62
       7
  5
1F5
 10
-141.67878002
 20
-156.36934258
 30
0.0
 11
-171.36334455
 21
-156.36934258
 31
0.0
  0
LINE
  8
0
  6
CONTINUOUS
 62
       7
  5
1F6
 10
-183.17878002
 20
-144.86934258
 30
0.0
 11
-183.17878002
 21
-137.75682478
 31
0.0
  0
LINE
  8
0
  6
CONTINUOUS
 62
       7
  5
1F7
 10
-172.17878002
 20
-123.36934258
 30
0.0
 11
-172.17878002
 21
-110.25682478
 31
0.0
  0
ARC
  8
0
  6
CONTINUOUS
 62
       7
  5
1F8
 10
-179.67878002
 20
-153.36934258
 30
0.0
 40
7.5
 50
12.73725313
 51
90.0
  0
ARC
  8
0
  6
CONTINUOUS
 62
       7
  5
1F9
 10
-179.67878002
 20
-123.36934258
 30
0.0
 40
7.5
 50
276.75632703
 51
0.0
  0
LINE
  8
0
  6
CONTINUOUS
 62
       7
  5
1FA
 10
-179.67878
 20
-145.86934258
 30
0.0
 11
-182.17878002
 21
-145.86934258
 31
0.0
  0
LINE
  8
0
  6
CONTINUOUS
 62
       7
  5
1FB
 10
-172.36334455
 20
-155.36934258
 30
0.0
 11
-172.36334455
 21
-151.71573928
 31
0.0
  0
ARC
  8
0
  6
CONTINUOUS
 62
       7
  5
1FC
 10
-182.17878002
 20
-144.86934258
 30
0.0
 40
1.0
 50
180.0
 51
270.0
  0
ARC
  8
0
  6
CONTINUOUS
 62
       7
  5
1FD
 10
-171.36334455
 20
-155.36934258
 30
0.0
 40
1.0
 50
180.0
 51
270.0
  0
ARC
  8
0
  6
CONTINUOUS
 62
       7
  5
1FE
 10
-183.17878002
 20
-133.36934258
 30
0.0
 40
3.5
 50
282.83958841
 51
0.0
  0
LINE
  8
0
  6
CONTINUOUS
 62
       7
  5
1FF
 10
-179.67878002
 20
-133.36934253
 30
0.0
 11
-179.67878002
 21
-131.81031409
 31
0.0
  0
ARC
  8
0
  6
CONTINUOUS
 62
       7
  5
200
 10
-182.17878002
 20
-137.75682478
 30
0.0
 40
1.0
 50
102.83958841
 51
180.0
  0
ARC
  8
0
  6
CONTINUOUS
 62
       7
  5
201
 10
-178.67878002
 20
-131.81031409
 30
0.0
 40
1.0
 50
96.75632703
 51
180.0
  0
ARC
  8
0
  6
CONTINUOUS
 62
       7
  5
202
 10
-172.17878002
 20
-105.86934258
 30
0.0
 40
3.5
 50
282.83958841
 51
347.16041159
  0
ARC
  8
0
  6
CONTINUOUS
 62
       7
  5
203
 10
-171.17878002
 20
-110.25682478
 30
0.0
 40
1.0
 50
102.83958841
 51
180.0
  0
ARC
  8
0
  6
CONTINUOUS
 62
       7
  5
204
 10
-167.79129783
 20
-106.86934258
 30
0.0
 40
1.0
 50
90.0
 51
167.16041159
  0
LINE
  8
0
  6
CONTINUOUS
 62
       7
  5
205
 10
-141.67878002
 20
-105.36934258
 30
0.0
 11
-146.67878002
 21
-105.36934258
 31
0.0
  0
LINE
  8
0
  6
CONTINUOUS
 62
       7
  5
206
 10
-147.67878002
 20
-104.36934258
 30
0.0
 11
-147.67878002
 21
-103.36934258
 31
0.0
  0
LINE
  8
0
  6
CONTINUOUS
 62
       7
  5
207
 10
-135.67878002
 20
-104.36934258
 30
0.0
 11
-135.67878002
 21
-103.36934258
 31
0.0
  0
LINE
  8
0
  6
CONTINUOUS
 62
       7
  5
208
 10
-141.67878002
 20
-105.36934258
 30
0.0
 11
-136.67878002
 21
-105.36934258
 31
0.0
  0
LINE
  8
0
  6
CONTINUOUS
 62
       7
  5
209
 10
-108.67878002
 20
-102.36934258
 30
0.0
 11
-134.67878002
 21
-102.36934258
 31
0.0
  0
ARC
  8
0
  6
CONTINUOUS
 62
       7
  5
20A
 10
-148.67878002
 20
-103.36934258
 30
0.0
 40
1.0
 50
0.0
 51
90.0
  0
ARC
  8
0
  6
CONTINUOUS
 62
       7
  5
20B
 10
-146.67878002
 20
-104.36934258
 30
0.0
 40
1.0
 50
180.0
 51
270.0
  0
ARC
  8
0
  6
CONTINUOUS
 62
       7
  5
20C
 10
-136.67878002
 20
-104.36934258
 30
0.0
 40
1.0
 50
270.0
 51
0.0
  0
ARC
  8
0
  6
CONTINUOUS
 62
       7
  5
20D
 10
-134.67878002
 20
-103.36934258
 30
0.0
 40
1.0
 50
90.0
 51
180.0
  0
ARC
  8
0
  6
CONTINUOUS
 62
       7
  5
20E
 10
-141.67878002
 20
-110.36934258
 30
0.0
 40
3.5
 50
180.0
 51
270.0
  0
ARC
  8
0
  6
CONTINUOUS
 62
       7
  5
20F
 10
-147.67878002
 20
-105.86934258
 30
0.0
 40
3.0
 50
194.47751219
 51
270.0
  0
LINE
  8
0
  6
CONTINUOUS
 62
       7
  5
210
 10
-146.17878002
 20
-108.86934258
 30
0.0
 11
-147.67878
 21
-108.86934258
 31
0.0
  0
LINE
  8
0
  6
CONTINUOUS
 62
       7
  5
211
 10
-145.17878002
 20
-110.36934253
 30
0.0
 11
-145.17878002
 21
-109.86934258
 31
0.0
  0
ARC
  8
0
  6
CONTINUOUS
 62
       7
  5
212
 10
-151.55176337
 20
-106.86934258
 30
0.0
 40
1.0
 50
14.47751219
 51
90.0
  0
ARC
  8
0
  6
CONTINUOUS
 62
       7
  5
213
 10
-146.17878002
 20
-109.86934258
 30
0.0
 40
1.0
 50
0.0
 51
90.0
  0
LINE
  8
0
  6
CONTINUOUS
 62
       7
  5
214
 10
-147.67878002
 20
-119.36934258
 30
0.0
 11
-147.67878002
 21
-109.86934258
 31
0.0
  0
LINE
  8
0
  6
CONTINUOUS
 62
       7
  5
215
 10
-148.67878002
 20
-120.36934258
 30
0.0
 11
-171.17878002
 21
-120.36934258
 31
0.0
  0
LINE
  8
0
  6
CONTINUOUS
 62
       7
  5
216
 10
-151.67878002
 20
-128.36934258
 30
0.0
 11
-151.67878002
 21
-122.36934258
 31
0.0
  0
LINE
  8
0
  6
CONTINUOUS
 62
       7
  5
217
 10
-141.67878002
 20
-130.36934258
 30
0.0
 11
-155.67878002
 21
-130.36934258
 31
0.0
  0
LINE
  8
0
  6
CONTINUOUS
 62
       7
  5
218
 10
-155.67878002
 20
-135.86934258
 30
0.0
 11
-155.67878002
 21
-130.36934258
 31
0.0
  0
LINE
  8
0
  6
CONTINUOUS
 62
       7
  5
219
 10
-147.67878002
 20
-136.86934258
 30
0.0
 11
-170.80538285
 21
-136.86934258
 31
0.0
  0
LINE
  8
0
  6
CONTINUOUS
 62
       7
  5
21A
 10
-152.17878002
 20
-152.9271594
 30
0.0
 11
-152.17878002
 21
-138.86934258
 31
0.0
  0
LINE
  8
0
  6
CONTINUOUS
 62
       7
  5
21B
 10
-141.67878002
 20
-170.86934258
 30
0.0
 11
-146.26270024
 21
-170.86934258
 31
0.0
  0
LINE
  8
0
  6
CONTINUOUS
 62
       7
  5
21C
 10
-152.17878002
 20
-164.9532628
 30
0.0
 11
-152.17878002
 21
-159.36934258
 31
0.0
  0
ARC
  8
0
  6
CONTINUOUS
 62
       7
  5
21D
 10
-152.17878002
 20
-170.86934258
 30
0.0
 40
5.0
 50
9.59406823
 51
80.40593177
  0
LINE
  8
0
  6
CONTINUOUS
 62
       2
  5
21E
 10
-175.67878002
 20
-142.40288428
 30
0.0
 11
-175.67878002
 21
-132.77356465
 31
0.0
  0
ARC
  8
0
  6
CONTINUOUS
 62
       7
  5
21F
 10
-175.67878002
 20
-138.36934258
 30
0.0
 40
4.0
 50
35.68533471
 51
240.31545462
  0
LINE
  8
0
  6
CONTINUOUS
 62
       7
  5
220
 10
-152.17878002
 20
-156.36934258
 30
0.0
 11
-177.65967743
 21
-141.84440308
 31
0.0
  0
CIRCLE
  8
0
  6
CONTINUOUS
 62
       2
  5
221
 10
-175.67878002
 20
-138.36934258
 30
0.0
 40
3.0
  0
CIRCLE
  8
0
  6
CONTINUOUS
 62
       7
  5
222
 10
-175.67878002
 20
-138.36934258
 30
0.0
 40
2.5
  0
ARC
  8
0
  6
CONTINUOUS
 62
       7
  5
223
 10
-151.17878002
 20
-164.9532628
 30
0.0
 40
1.0
 50
180.0
 51
260.40593177
  0
ARC
  8
0
  6
CONTINUOUS
 62
       7
  5
224
 10
-146.26270024
 20
-169.86934258
 30
0.0
 40
1.0
 50
189.59406823
 51
270.0
  0
LINE
  8
0
  6
CONTINUOUS
 62
       7
  5
225
 10
-170.67878002
 20
-145.24271484
 30
0.0
 11
-170.67878002
 21
-137.86934258
 31
0.0
  0
ARC
  8
0
  6
CONTINUOUS
 62
       7
  5
226
 10
-169.67878002
 20
-145.24271484
 30
0.0
 40
1.0
 50
180.0
 51
240.31545462
  0
ARC
  8
0
  6
CONTINUOUS
 62
       7
  5
227
 10
-169.67878002
 20
-137.86934258
 30
0.0
 40
1.0
 50
90.0
 51
180.0
  0
ARC
  8
0
  6
CONTINUOUS
 62
       7
  5
228
 10
-156.67878002
 20
-135.86934258
 30
0.0
 40
1.0
 50
270.0
 51
0.0
  0
ARC
  8
0
  6
CONTINUOUS
 62
       7
  5
229
 10
-148.67878002
 20
-119.36934258
 30
0.0
 40
1.0
 50
270.0
 51
0.0
  0
ARC
  8
0
  6
CONTINUOUS
 62
       7
  5
22A
 10
-146.67878002
 20
-109.86934258
 30
0.0
 40
1.0
 50
90.0
 51
180.0
  0
ARC
  8
0
  6
CONTINUOUS
 62
       7
  5
22B
 10
-171.17878002
 20
-121.36934258
 30
0.0
 40
1.0
 50
90.0
 51
180.0
  0
ARC
  8
0
  6
CONTINUOUS
 62
       7
  5
22C
 10
-154.17878002
 20
-152.9271594
 30
0.0
 40
2.0
 50
240.31545462
 51
0.0
  0
ARC
  8
0
  6
CONTINUOUS
 62
       7
  5
22D
 10
-154.17878002
 20
-138.86934258
 30
0.0
 40
2.0
 50
0.0
 51
90.0
  0
ARC
  8
0
  6
CONTINUOUS
 62
       7
  5
22E
 10
-170.80538285
 20
-134.86934258
 30
0.0
 40
2.0
 50
215.68533471
 51
270.0
  0
ARC
  8
0
  6
CONTINUOUS
 62
       7
  5
22F
 10
-155.17878002
 20
-159.36934258
 30
0.0
 40
3.0
 50
0.0
 51
90.0
  0
ARC
  8
0
  6
CONTINUOUS
 62
       7
  5
230
 10
-149.67878002
 20
-128.36934258
 30
0.0
 40
2.0
 50
180.0
 51
270.0
  0
ARC
  8
0
  6
CONTINUOUS
 62
       7
  5
231
 10
-149.67878002
 20
-122.36934258
 30
0.0
 40
2.0
 50
90.0
 51
180.0
  0
LINE
  8
0
  6
CONTINUOUS
 62
       7
  5
232
 10
-141.67878002
 20
-170.86934258
 30
0.0
 11
-137.0948598
 21
-170.86934258
 31
0.0
  0
ARC
  8
0
  6
CONTINUOUS
 62
       7
  5
233
 10
-131.17878002
 20
-170.86934258
 30
0.0
 40
5.0
 50
99.59406823
 51
170.40593177
  0
ARC
  8
0
  6
CONTINUOUS
 62
       7
  5
234
 10
-137.0948598
 20
-169.86934258
 30
0.0
 40
1.0
 50
270.0
 51
350.40593177
  0
LINE
  8
0
  6
CONTINUOUS
 62
       7
  5
235
 10
-141.67878002
 20
-156.36934258
 30
0.0
 11
-111.99421549
 21
-156.36934258
 31
0.0
  0
LINE
  8
0
  6
CONTINUOUS
 62
       7
  5
236
 10
-131.17878002
 20
-156.36934258
 30
0.0
 11
-105.69788262
 21
-141.84440308
 31
0.0
  0
ARC
  8
0
  6
CONTINUOUS
 62
       7
  5
237
 10
-132.17878002
 20
-164.9532628
 30
0.0
 40
1.0
 50
279.59406823
 51
0.0
  0
ARC
  8
0
  6
CONTINUOUS
 62
       7
  5
238
 10
-129.17878002
 20
-152.9271594
 30
0.0
 40
2.0
 50
180.0
 51
299.68454538
  0
ARC
  8
0
  6
CONTINUOUS
 62
       7
  5
239
 10
-128.17878002
 20
-159.36934258
 30
0.0
 40
3.0
 50
90.0
 51
180.0
  0
LINE
  8
0
  6
CONTINUOUS
 62
       7
  5
23A
 10
-131.17878002
 20
-164.9532628
 30
0.0
 11
-131.17878002
 21
-159.36934258
 31
0.0
  0
LINE
  8
0
  6
CONTINUOUS
 62
       7
  5
23B
 10
-110.99421549
 20
-155.36934258
 30
0.0
 11
-110.99421549
 21
-151.71573928
 31
0.0
  0
ARC
  8
0
  6
CONTINUOUS
 62
       7
  5
23C
 10
-111.99421549
 20
-155.36934258
 30
0.0
 40
1.0
 50
270.0
 51
0.0
  0
LINE
  8
0
  6
CONTINUOUS
 62
       7
  5
23D
 10
-100.17878002
 20
-144.86934258
 30
0.0
 11
-100.17878002
 21
-137.75682478
 31
0.0
  0
ARC
  8
0
  6
CONTINUOUS
 62
       7
  5
23E
 10
-103.67878002
 20
-153.36934258
 30
0.0
 40
7.5
 50
90.0
 51
167.26274687
  0
ARC
  8
0
  6
CONTINUOUS
 62
       7
  5
23F
 10
-101.17878002
 20
-144.86934258
 30
0.0
 40
1.0
 50
270.0
 51
0.0
  0
LINE
  8
0
  6
CONTINUOUS
 62
       7
  5
240
 10
-103.67878004
 20
-145.86934258
 30
0.0
 11
-101.17878002
 21
-145.86934258
 31
0.0
  0
LINE
  8
0
  6
CONTINUOUS
 62
       7
  5
241
 10
-112.67878002
 20
-145.24271484
 30
0.0
 11
-112.67878002
 21
-137.86934258
 31
0.0
  0
ARC
  8
0
  6
CONTINUOUS
 62
       7
  5
242
 10
-113.67878002
 20
-145.24271484
 30
0.0
 40
1.0
 50
299.68454538
 51
0.0
  0
LINE
  8
0
  6
CONTINUOUS
 62
       7
  5
243
 10
-131.17878002
 20
-152.9271594
 30
0.0
 11
-131.17878002
 21
-138.86934258
 31
0.0
  0
LINE
  8
0
  6
CONTINUOUS
 62
       2
  5
244
 10
-107.67878002
 20
-142.40288428
 30
0.0
 11
-107.67878002
 21
-132.77356465
 31
0.0
  0
ARC
  8
0
  6
CONTINUOUS
 62
       7
  5
245
 10
-107.67878002
 20
-138.36934258
 30
0.0
 40
4.0
 50
299.68454538
 51
144.31466529
  0
CIRCLE
  8
0
  6
CONTINUOUS
 62
       2
  5
246
 10
-107.67878002
 20
-138.36934258
 30
0.0
 40
3.0
  0
CIRCLE
  8
0
  6
CONTINUOUS
 62
       7
  5
247
 10
-107.67878002
 20
-138.36934258
 30
0.0
 40
2.5
  0
ARC
  8
0
  6
CONTINUOUS
 62
       7
  5
248
 10
-101.17878002
 20
-137.75682478
 30
0.0
 40
1.0
 50
0.0
 51
77.16041159
  0
ARC
  8
0
  6
CONTINUOUS
 62
       7
  5
249
 10
-104.67878002
 20
-131.81031409
 30
0.0
 40
1.0
 50
0.0
 51
83.24367297
  0
LINE
  8
0
  6
CONTINUOUS
 62
       7
  5
24A
 10
-103.67878002
 20
-133.36934253
 30
0.0
 11
-103.67878002
 21
-131.81031409
 31
0.0
  0
ARC
  8
0
  6
CONTINUOUS
 62
       7
  5
24B
 10
-100.17878002
 20
-133.36934258
 30
0.0
 40
3.5
 50
180.0
 51
257.16041159
  0
ARC
  8
0
  6
CONTINUOUS
 62
       7
  5
24C
 10
-103.67878002
 20
-123.36934258
 30
0.0
 40
7.5
 50
180.0
 51
263.24367297
  0
LINE
  8
0
  6
CONTINUOUS
 62
       7
  5
24D
 10
-111.17878002
 20
-123.36934258
 30
0.0
 11
-111.17878002
 21
-110.25682478
 31
0.0
  0
LINE
  8
0
  6
CONTINUOUS
 62
       7
  5
24E
 10
-134.67878002
 20
-120.36934258
 30
0.0
 11
-112.17878002
 21
-120.36934258
 31
0.0
  0
ARC
  8
0
  6
CONTINUOUS
 62
       7
  5
24F
 10
-112.17878002
 20
-121.36934258
 30
0.0
 40
1.0
 50
0.0
 51
90.0
  0
LINE
  8
0
  6
CONTINUOUS
 62
       7
  5
250
 10
-131.80579667
 20
-105.86934258
 30
0.0
 11
-115.56626221
 21
-105.86934258
 31
0.0
  0
ARC
  8
0
  6
CONTINUOUS
 62
       7
  5
251
 10
-115.56626221
 20
-106.86934258
 30
0.0
 40
1.0
 50
12.83958841
 51
90.0
  0
ARC
  8
0
  6
CONTINUOUS
 62
       7
  5
252
 10
-112.17878002
 20
-110.25682478
 30
0.0
 40
1.0
 50
0.0
 51
77.16041159
  0
ARC
  8
0
  6
CONTINUOUS
 62
       7
  5
253
 10
-111.17878002
 20
-105.86934258
 30
0.0
 40
3.5
 50
192.83958841
 51
257.16041159
  0
LINE
  8
0
  6
CONTINUOUS
 62
       7
  5
254
 10
-135.67878002
 20
-136.86934258
 30
0.0
 11
-112.55217719
 21
-136.86934258
 31
0.0
  0
ARC
  8
0
  6
CONTINUOUS
 62
       7
  5
255
 10
-113.67878002
 20
-137.86934258
 30
0.0
 40
1.0
 50
0.0
 51
90.0
  0
ARC
  8
0
  6
CONTINUOUS
 62
       7
  5
256
 10
-112.55217719
 20
-134.86934258
 30
0.0
 40
2.0
 50
270.0
 51
324.31466529
  0
LINE
  8
0
  6
CONTINUOUS
 62
       7
  5
257
 10
-131.67878002
 20
-128.36934258
 30
0.0
 11
-131.67878002
 21
-122.36934258
 31
0.0
  0
LINE
  8
0
  6
CONTINUOUS
 62
       7
  5
258
 10
-141.67878002
 20
-130.36934258
 30
0.0
 11
-127.67878002
 21
-130.36934258
 31
0.0
  0
ARC
  8
0
  6
CONTINUOUS
 62
       7
  5
259
 10
-129.17878002
 20
-138.86934258
 30
0.0
 40
2.0
 50
90.0
 51
180.0
  0
ARC
  8
0
  6
CONTINUOUS
 62
       7
  5
25A
 10
-133.67878002
 20
-128.36934258
 30
0.0
 40
2.0
 50
270.0
 51
0.0
  0
ARC
  8
0
  6
CONTINUOUS
 62
       7
  5
25B
 10
-126.67878002
 20
-135.86934258
 30
0.0
 40
1.0
 50
180.0
 51
270.0
  0
LINE
  8
0
  6
CONTINUOUS
 62
       7
  5
25C
 10
-127.67878002
 20
-135.86934258
 30
0.0
 11
-127.67878002
 21
-130.36934258
 31
0.0
  0
ARC
  8
0
  6
CONTINUOUS
 62
       7
  5
25D
 10
-141.67878002
 20
-110.36934258
 30
0.0
 40
3.5
 50
270.0
 51
0.0
  0
ARC
  8
0
  6
CONTINUOUS
 62
       7
  5
25E
 10
-131.80579667
 20
-106.86934258
 30
0.0
 40
1.0
 50
90.0
 51
165.52248781
  0
ARC
  8
0
  6
CONTINUOUS
 62
       7
  5
25F
 10
-133.67878002
 20
-122.36934258
 30
0.0
 40
2.0
 50
0.0
 51
90.0
  0
ARC
  8
0
  6
CONTINUOUS
 62
       7
  5
260
 10
-136.67878002
 20
-109.86934258
 30
0.0
 40
1.0
 50
0.0
 51
90.0
  0
ARC
  8
0
  6
CONTINUOUS
 62
       7
  5
261
 10
-134.67878002
 20
-119.36934258
 30
0.0
 40
1.0
 50
180.0
 51
270.0
  0
LINE
  8
0
  6
CONTINUOUS
 62
       7
  5
262
 10
-135.67878002
 20
-119.36934258
 30
0.0
 11
-135.67878002
 21
-109.86934258
 31
0.0
  0
ARC
  8
0
  6
CONTINUOUS
 62
       7
  5
263
 10
-137.17878002
 20
-109.86934258
 30
0.0
 40
1.0
 50
90.0
 51
180.0
  0
LINE
  8
0
  6
CONTINUOUS
 62
       7
  5
264
 10
-138.17878002
 20
-110.36934253
 30
0.0
 11
-138.17878002
 21
-109.86934258
 31
0.0
  0
LINE
  8
0
  6
CONTINUOUS
 62
       7
  5
265
 10
-137.17878002
 20
-108.86934258
 30
0.0
 11
-135.67878004
 21
-108.86934258
 31
0.0
  0
ARC
  8
0
  6
CONTINUOUS
 62
       7
  5
266
 10
-135.67878002
 20
-105.86934258
 30
0.0
 40
3.0
 50
270.0
 51
345.52248781
  0
LINE
  8
0
  6
CONTINUOUS
 62
       2
  5
267
 10
-64.19610726
 20
134.71731253
 30
0.0
 11
-46.39481967
 21
134.71731253
 31
0.0
  0
LINE
  8
0
  6
CONTINUOUS
 62
       2
  5
268
 10
182.09656834
 20
-32.28268747
 30
0.0
 11
99.74429028
 21
-32.28268747
 31
0.0
  0
LINE
  8
0
  6
DASHED
 62
       7
  5
269
 10
114.74429022
 20
-26.78268747
 30
0.0
 11
104.74429022
 21
-26.78268747
 31
0.0
  0
LINE
  8
0
  6
DASHED
 62
       7
  5
26A
 10
114.74429022
 20
-37.78268747
 30
0.0
 11
104.74429022
 21
-37.78268747
 31
0.0
  0
LINE
  8
0
  6
DASHED
 62
       2
  5
26B
 10
114.74429022
 20
-26.13189516
 30
0.0
 11
104.74429034
 21
-25.78268748
 31
0.0
  0
LINE
  8
0
  6
DASHED
 62
       2
  5
26C
 10
114.74429022
 20
-38.43347978
 30
0.0
 11
104.74429034
 21
-38.78268747
 31
0.0
  0
LINE
  8
0
  6
DASHED
 62
       7
  5
26D
 10
166.74429034
 20
-26.78268747
 30
0.0
 11
176.74429034
 21
-26.78268747
 31
0.0
  0
LINE
  8
0
  6
DASHED
 62
       2
  5
26E
 10
166.74429034
 20
-26.13189516
 30
0.0
 11
176.74429022
 21
-25.78268748
 31
0.0
  0
LINE
  8
0
  6
DASHED
 62
       7
  5
26F
 10
166.74429034
 20
-37.78268747
 30
0.0
 11
176.74429034
 21
-37.78268747
 31
0.0
  0
LINE
  8
0
  6
DASHED
 62
       2
  5
270
 10
166.74429034
 20
-38.43347978
 30
0.0
 11
176.74429022
 21
-38.78268747
 31
0.0
  0
LINE
  8
0
  6
CONTINUOUS
 62
       2
  5
271
 10
-109.17878007
 20
73.21731253
 30
0.0
 11
-104.1845808
 21
73.21731253
 31
0.0
  0
LINE
  8
0
  6
CONTINUOUS
 62
       2
  5
272
 10
-161.67878002
 20
-116.14162126
 30
0.0
 11
-161.67878002
 21
-99.56483306
 31
0.0
  0
LINE
  8
0
  6
CONTINUOUS
 62
       2
  5
273
 10
-121.67878002
 20
-116.14162126
 30
0.0
 11
-121.67878002
 21
-99.56483306
 31
0.0
  0
LINE
  8
0
  6
DASHED
 62
       7
  5
274
 10
-167.17878002
 20
-112.36934258
 30
0.0
 11
-167.17878002
 21
-102.36934258
 31
0.0
  0
LINE
  8
0
  6
DASHED
 62
       7
  5
275
 10
-156.17878002
 20
-112.36934258
 30
0.0
 11
-156.17878002
 21
-102.36934258
 31
0.0
  0
LINE
  8
0
  6
DASHED
 62
       7
  5
276
 10
-127.17878002
 20
-112.36934258
 30
0.0
 11
-127.17878002
 21
-102.36934258
 31
0.0
  0
LINE
  8
0
  6
DASHED
 62
       7
  5
277
 10
-116.17878002
 20
-112.36934258
 30
0.0
 11
-116.17878002
 21
-102.36934258
 31
0.0
  0
LINE
  8
0
  6
DASHED
 62
       7
  5
278
 10
-147.17878002
 20
-174.36934258
 30
0.0
 11
-147.17878002
 21
-164.36934258
 31
0.0
  0
LINE
  8
0
  6
DASHED
 62
       7
  5
279
 10
-136.17878002
 20
-174.36934258
 30
0.0
 11
-136.17878002
 21
-164.36934258
 31
0.0
  0
LINE
  8
0
  6
DASHED
 62
       2
  5
27A
 10
-167.82957233
 20
-112.36934253
 30
0.0
 11
-168.17878002
 21
-102.36934265
 31
0.0
  0
LINE
  8
0
  6
DASHED
 62
       2
  5
27B
 10
-155.52798771
 20
-112.36934253
 30
0.0
 11
-155.17878003
 21
-102.36934265
 31
0.0
  0
LINE
  8
0
  6
DASHED
 62
       2
  5
27C
 10
-115.52798771
 20
-112.36934253
 30
0.0
 11
-115.17878003
 21
-102.36934265
 31
0.0
  0
LINE
  8
0
  6
DASHED
 62
       2
  5
27D
 10
-127.82957233
 20
-112.36934253
 30
0.0
 11
-128.17878002
 21
-102.36934265
 31
0.0
  0
LINE
  8
0
  6
DASHED
 62
       2
  5
27E
 10
-148.17878002
 20
-174.36934253
 30
0.0
 11
-147.82957233
 21
-164.36934258
 31
0.0
  0
LINE
  8
0
  6
DASHED
 62
       2
  5
27F
 10
-135.17878002
 20
-174.36934253
 30
0.0
 11
-135.52798771
 21
-164.36934258
 31
0.0
  0
LINE
  8
0
  6
CONTINUOUS
 62
       2
  5
280
 10
143.56472885
 20
148.71731253
 30
0.0
 11
137.87032448
 21
148.71731253
 31
0.0
  0
CIRCLE
  8
0
  6
CONTINUOUS
 62
       7
  5
281
 10
140.74429028
 20
148.71731253
 30
0.0
 40
1.25
  0
ARC
  8
0
  6
CONTINUOUS
 62
       7
  5
282
 10
-136.77130273
 20
127.47650219
 30
0.0
 40
16.24081034
 50
72.41204591
 51
107.58795409
  0
ARC
  8
0
  6
CONTINUOUS
 62
       7
  5
283
 10
-146.58625743
 20
127.47650142
 30
0.0
 40
16.24081111
 50
72.41204633
 51
72.56052267
  0
ARC
  8
0
  6
CONTINUOUS
 62
       7
  5
284
 10
-136.77130273
 20
153.95811999
 30
0.0
 40
16.24080746
 50
252.4120427
 51
287.5879573
  0
ARC
  8
0
  6
CONTINUOUS
 62
       7
  5
285
 10
-146.58625731
 20
153.95811999
 30
0.0
 40
16.24080746
 50
252.4120427
 51
287.5879573
  0
ARC
  8
0
  6
CONTINUOUS
 62
       7
  5
286
 10
-146.58625743
 20
127.47650142
 30
0.0
 40
16.24081111
 50
72.56052267
 51
107.58795369
  0
LINE
  8
0
  6
CONTINUOUS
 62
       7
  5
287
 10
-141.71891554
 20
138.47650202
 30
0.0
 11
-141.71891554
 21
142.97078838
 31
0.0
  0
ARC
  8
0
  6
CONTINUOUS
 62
       7
  5
288
 10
-156.17878002
 20
126.21731253
 30
0.0
 40
11.0
 50
90.0
 51
180.0
  0
ARC
  8
0
  6
CONTINUOUS
 62
       7
  5
289
 10
-128.74712613
 20
126.21731253
 30
0.0
 40
11.0
 50
30.00000655
 51
90.0
  0
LINE
  8
0
  6
CONTINUOUS
 62
       7
  5
28A
 10
-167.17878002
 20
94.04826442
 30
0.0
 11
-167.17878002
 21
127.21731253
 31
0.0
  0
ARC
  8
0
  6
CONTINUOUS
 62
       7
  5
28B
 10
-160.96937894
 20
56.07457639
 30
0.0
 40
7.64273613
 50
72.41205042
 51
107.58794968
  0
ARC
  8
0
  6
CONTINUOUS
 62
       7
  5
28C
 10
-165.5881811
 20
56.07457639
 30
0.0
 40
7.64273613
 50
72.41205032
 51
107.58794968
  0
LINE
  8
0
  6
CONTINUOUS
 62
       2
  5
28D
 10
-163.27878002
 20
55.9203802
 30
0.0
 11
-163.27878002
 21
65.02653547
 31
0.0
  0
POLYLINE
  8
0
  6
CONTINUOUS
 62
       7
  5
28E
 66
       1
 10
0.0
 20
0.0
 30
0.0
  0
VERTEX
  8
0
  6
CONTINUOUS
 62
       7
  5
3A1
 10
-118.22641044
 20
64.71731253
 30
0.0
  0
VERTEX
  8
0
  6
CONTINUOUS
 62
       7
  5
3A2
 10
-118.33078688
 20
64.66736437
 30
0.0
  0
VERTEX
  8
0
  6
CONTINUOUS
 62
       7
  5
3A3
 10
-118.4352162
 20
64.61794787
 30
0.0
  0
VERTEX
  8
0
  6
CONTINUOUS
 62
       7
  5
3A4
 10
-118.53962331
 20
64.56880159
 30
0.0
  0
VERTEX
  8
0
  6
CONTINUOUS
 62
       7
  5
3A5
 10
-118.64393314
 20
64.51966409
 30
0.0
  0
VERTEX
  8
0
  6
CONTINUOUS
 62
       7
  5
3A6
 10
-118.74807062
 20
64.47027396
 30
0.0
  0
VERTEX
  8
0
  6
CONTINUOUS
 62
       7
  5
3A7
 10
-118.85196066
 20
64.42036974
 30
0.0
  0
VERTEX
  8
0
  6
CONTINUOUS
 62
       7
  5
3A8
 10
-118.9555282
 20
64.36969002
 30
0.0
  0
VERTEX
  8
0
  6
CONTINUOUS
 62
       7
  5
3A9
 10
-119.05869815
 20
64.31797335
 30
0.0
  0
VERTEX
  8
0
  6
CONTINUOUS
 62
       7
  5
3AA
 10
-119.16139543
 20
64.26495831
 30
0.0
  0
VERTEX
  8
0
  6
CONTINUOUS
 62
       7
  5
3AB
 10
-119.26354498
 20
64.21038346
 30
0.0
  0
VERTEX
  8
0
  6
CONTINUOUS
 62
       7
  5
3AC
 10
-119.36507171
 20
64.15398737
 30
0.0
  0
VERTEX
  8
0
  6
CONTINUOUS
 62
       7
  5
3AD
 10
-119.46590055
 20
64.09550861
 30
0.0
  0
VERTEX
  8
0
  6
CONTINUOUS
 62
       7
  5
3AE
 10
-119.56595642
 20
64.03468574
 30
0.0
  0
VERTEX
  8
0
  6
CONTINUOUS
 62
       7
  5
3AF
 10
-119.66516425
 20
63.97125733
 30
0.0
  0
VERTEX
  8
0
  6
CONTINUOUS
 62
       7
  5
3B0
 10
-119.76344895
 20
63.90496196
 30
0.0
  0
VERTEX
  8
0
  6
CONTINUOUS
 62
       7
  5
3B1
 10
-119.86073546
 20
63.83553818
 30
0.0
  0
VERTEX
  8
0
  6
CONTINUOUS
 62
       7
  5
3B2
 10
-120.00957353
 20
63.72154734
 30
0.0
  0
VERTEX
  8
0
  6
CONTINUOUS
 62
       7
  5
3B3
 10
-120.15632158
 20
63.60119869
 30
0.0
  0
VERTEX
  8
0
  6
CONTINUOUS
 62
       7
  5
3B4
 10
-120.3014704
 20
63.47628557
 30
0.0
  0
VERTEX
  8
0
  6
CONTINUOUS
 62
       7
  5
3B5
 10
-120.44551075
 20
63.3486013
 30
0.0
  0
VERTEX
  8
0
  6
CONTINUOUS
 62
       7
  5
3B6
 10
-120.58893339
 20
63.21993922
 30
0.0
  0
VERTEX
  8
0
  6
CONTINUOUS
 62
       7
  5
3B7
 10
-120.73222909
 20
63.09209266
 30
0.0
  0
VERTEX
  8
0
  6
CONTINUOUS
 62
       7
  5
3B8
 10
-120.87588862
 20
62.96685494
 30
0.0
  0
VERTEX
  8
0
  6
CONTINUOUS
 62
       7
  5
3B9
 10
-121.02040275
 20
62.8460194
 30
0.0
  0
VERTEX
  8
0
  6
CONTINUOUS
 62
       7
  5
3BA
 10
-121.16626225
 20
62.73137937
 30
0.0
  0
VERTEX
  8
0
  6
CONTINUOUS
 62
       7
  5
3BB
 10
-121.31395788
 20
62.62472818
 30
0.0
  0
VERTEX
  8
0
  6
CONTINUOUS
 62
       7
  5
3BC
 10
-121.46398041
 20
62.52785916
 30
0.0
  0
VERTEX
  8
0
  6
CONTINUOUS
 62
       7
  5
3BD
 10
-121.61682061
 20
62.44256564
 30
0.0
  0
VERTEX
  8
0
  6
CONTINUOUS
 62
       7
  5
3BE
 10
-121.77296925
 20
62.37064095
 30
0.0
  0
VERTEX
  8
0
  6
CONTINUOUS
 62
       7
  5
3BF
 10
-121.9329171
 20
62.31387842
 30
0.0
  0
VERTEX
  8
0
  6
CONTINUOUS
 62
       7
  5
3C0
 10
-122.09715492
 20
62.27407138
 30
0.0
  0
VERTEX
  8
0
  6
CONTINUOUS
 62
       7
  5
3C1
 10
-122.26617348
 20
62.25301317
 30
0.0
  0
VERTEX
  8
0
  6
CONTINUOUS
 62
       7
  5
3C2
 10
-122.43231921
 20
62.25158527
 30
0.0
  0
VERTEX
  8
0
  6
CONTINUOUS
 62
       7
  5
3C3
 10
-122.60219398
 20
62.26763818
 30
0.0
  0
VERTEX
  8
0
  6
CONTINUOUS
 62
       7
  5
3C4
 10
-122.77471504
 20
62.29990206
 30
0.0
  0
VERTEX
  8
0
  6
CONTINUOUS
 62
       7
  5
3C5
 10
-122.94879966
 20
62.34710709
 30
0.0
  0
VERTEX
  8
0
  6
CONTINUOUS
 62
       7
  5
3C6
 10
-123.1233651
 20
62.40798343
 30
0.0
  0
VERTEX
  8
0
  6
CONTINUOUS
 62
       7
  5
3C7
 10
-123.29732862
 20
62.48126126
 30
0.0
  0
VERTEX
  8
0
  6
CONTINUOUS
 62
       7
  5
3C8
 10
-123.46960748
 20
62.56567075
 30
0.0
  0
VERTEX
  8
0
  6
CONTINUOUS
 62
       7
  5
3C9
 10
-123.63911894
 20
62.65994206
 30
0.0
  0
VERTEX
  8
0
  6
CONTINUOUS
 62
       7
  5
3CA
 10
-123.80478027
 20
62.76280537
 30
0.0
  0
VERTEX
  8
0
  6
CONTINUOUS
 62
       7
  5
3CB
 10
-123.96550872
 20
62.87299084
 30
0.0
  0
VERTEX
  8
0
  6
CONTINUOUS
 62
       7
  5
3CC
 10
-124.12022156
 20
62.98922865
 30
0.0
  0
VERTEX
  8
0
  6
CONTINUOUS
 62
       7
  5
3CD
 10
-124.26783606
 20
63.11024896
 30
0.0
  0
VERTEX
  8
0
  6
CONTINUOUS
 62
       7
  5
3CE
 10
-124.40726946
 20
63.23478194
 30
0.0
  0
VERTEX
  8
0
  6
CONTINUOUS
 62
       7
  5
3CF
 10
-124.53743904
 20
63.36155777
 30
0.0
  0
VERTEX
  8
0
  6
CONTINUOUS
 62
       7
  5
3D0
 10
-124.65726205
 20
63.48930662
 30
0.0
  0
VERTEX
  8
0
  6
CONTINUOUS
 62
       7
  5
3D1
 10
-124.76565576
 20
63.61675864
 30
0.0
  0
SEQEND
  8
0
  6
CONTINUOUS
 62
       7
  5
3D2
  0
POLYLINE
  8
0
  6
CONTINUOUS
 62
       7
  5
28F
 66
       1
 10
0.0
 20
0.0
 30
0.0
  0
VERTEX
  8
0
  6
CONTINUOUS
 62
       7
  5
3D3
 10
-118.57118524
 20
65.66161853
 30
0.0
  0
VERTEX
  8
0
  6
CONTINUOUS
 62
       7
  5
3D4
 10
-118.67427384
 20
65.61154863
 30
0.0
  0
VERTEX
  8
0
  6
CONTINUOUS
 62
       7
  5
3D5
 10
-118.7797824
 20
65.561173
 30
0.0
  0
VERTEX
  8
0
  6
CONTINUOUS
 62
       7
  5
3D6
 10
-118.88765956
 20
65.51021083
 30
0.0
  0
VERTEX
  8
0
  6
CONTINUOUS
 62
       7
  5
3D7
 10
-118.99783879
 20
65.4583667
 30
0.0
  0
VERTEX
  8
0
  6
CONTINUOUS
 62
       7
  5
3D8
 10
-119.11023889
 20
65.40532985
 30
0.0
  0
VERTEX
  8
0
  6
CONTINUOUS
 62
       7
  5
3D9
 10
-119.2247639
 20
65.35077398
 30
0.0
  0
VERTEX
  8
0
  6
CONTINUOUS
 62
       7
  5
3DA
 10
-119.34130243
 20
65.29435766
 30
0.0
  0
VERTEX
  8
0
  6
CONTINUOUS
 62
       7
  5
3DB
 10
-119.4597265
 20
65.23572524
 30
0.0
  0
VERTEX
  8
0
  6
CONTINUOUS
 62
       7
  5
3DC
 10
-119.57988991
 20
65.17450854
 30
0.0
  0
VERTEX
  8
0
  6
CONTINUOUS
 62
       7
  5
3DD
 10
-119.70162625
 20
65.1103291
 30
0.0
  0
VERTEX
  8
0
  6
CONTINUOUS
 62
       7
  5
3DE
 10
-119.82474679
 20
65.04280127
 30
0.0
  0
VERTEX
  8
0
  6
CONTINUOUS
 62
       7
  5
3DF
 10
-119.94903838
 20
64.97153609
 30
0.0
  0
VERTEX
  8
0
  6
CONTINUOUS
 62
       7
  5
3E0
 10
-120.07426185
 20
64.89614585
 30
0.0
  0
VERTEX
  8
0
  6
CONTINUOUS
 62
       7
  5
3E1
 10
-120.20015096
 20
64.81624948
 30
0.0
  0
VERTEX
  8
0
  6
CONTINUOUS
 62
       7
  5
3E2
 10
-120.32641245
 20
64.73147829
 30
0.0
  0
VERTEX
  8
0
  6
CONTINUOUS
 62
       7
  5
3E3
 10
-120.45272747
 20
64.64148202
 30
0.0
  0
VERTEX
  8
0
  6
CONTINUOUS
 62
       7
  5
3E4
 10
-120.63200308
 20
64.50422316
 30
0.0
  0
VERTEX
  8
0
  6
CONTINUOUS
 62
       7
  5
3E5
 10
-120.80074776
 20
64.36586522
 30
0.0
  0
VERTEX
  8
0
  6
CONTINUOUS
 62
       7
  5
3E6
 10
-120.96041384
 20
64.22847806
 30
0.0
  0
VERTEX
  8
0
  6
CONTINUOUS
 62
       7
  5
3E7
 10
-121.11214244
 20
64.09398858
 30
0.0
  0
VERTEX
  8
0
  6
CONTINUOUS
 62
       7
  5
3E8
 10
-121.25675954
 20
63.96425651
 30
0.0
  0
VERTEX
  8
0
  6
CONTINUOUS
 62
       7
  5
3E9
 10
-121.39477624
 20
63.84111286
 30
0.0
  0
VERTEX
  8
0
  6
CONTINUOUS
 62
       7
  5
3EA
 10
-121.52638389
 20
63.72636524
 30
0.0
  0
VERTEX
  8
0
  6
CONTINUOUS
 62
       7
  5
3EB
 10
-121.65144239
 20
63.62176999
 30
0.0
  0
VERTEX
  8
0
  6
CONTINUOUS
 62
       7
  5
3EC
 10
-121.76946802
 20
63.52896497
 30
0.0
  0
VERTEX
  8
0
  6
CONTINUOUS
 62
       7
  5
3ED
 10
-121.87963809
 20
63.44935288
 30
0.0
  0
VERTEX
  8
0
  6
CONTINUOUS
 62
       7
  5
3EE
 10
-121.98084655
 20
63.38392539
 30
0.0
  0
VERTEX
  8
0
  6
CONTINUOUS
 62
       7
  5
3EF
 10
-122.07186759
 20
63.33303307
 30
0.0
  0
VERTEX
  8
0
  6
CONTINUOUS
 62
       7
  5
3F0
 10
-122.15170177
 20
63.29614712
 30
0.0
  0
VERTEX
  8
0
  6
CONTINUOUS
 62
       7
  5
3F1
 10
-122.22015844
 20
63.27173666
 30
0.0
  0
VERTEX
  8
0
  6
CONTINUOUS
 62
       7
  5
3F2
 10
-122.27861381
 20
63.25746992
 30
0.0
  0
VERTEX
  8
0
  6
CONTINUOUS
 62
       7
  5
3F3
 10
-122.33065323
 20
63.25093219
 30
0.0
  0
VERTEX
  8
0
  6
CONTINUOUS
 62
       7
  5
3F4
 10
-122.38762814
 20
63.25058613
 30
0.0
  0
VERTEX
  8
0
  6
CONTINUOUS
 62
       7
  5
3F5
 10
-122.46141008
 20
63.25767853
 30
0.0
  0
VERTEX
  8
0
  6
CONTINUOUS
 62
       7
  5
3F6
 10
-122.55032762
 20
63.27440208
 30
0.0
  0
VERTEX
  8
0
  6
CONTINUOUS
 62
       7
  5
3F7
 10
-122.65192405
 20
63.30202325
 30
0.0
  0
VERTEX
  8
0
  6
CONTINUOUS
 62
       7
  5
3F8
 10
-122.76347989
 20
63.34098002
 30
0.0
  0
VERTEX
  8
0
  6
CONTINUOUS
 62
       7
  5
3F9
 10
-122.88229987
 20
63.39106956
 30
0.0
  0
VERTEX
  8
0
  6
CONTINUOUS
 62
       7
  5
3FA
 10
-123.00584026
 20
63.45162784
 30
0.0
  0
VERTEX
  8
0
  6
CONTINUOUS
 62
       7
  5
3FB
 10
-123.13174563
 20
63.52166842
 30
0.0
  0
VERTEX
  8
0
  6
CONTINUOUS
 62
       7
  5
3FC
 10
-123.25784078
 20
63.59997751
 30
0.0
  0
VERTEX
  8
0
  6
CONTINUOUS
 62
       7
  5
3FD
 10
-123.3821038
 20
63.68517228
 30
0.0
  0
VERTEX
  8
0
  6
CONTINUOUS
 62
       7
  5
3FE
 10
-123.50263313
 20
63.77573009
 30
0.0
  0
VERTEX
  8
0
  6
CONTINUOUS
 62
       7
  5
3FF
 10
-123.61761454
 20
63.86999364
 30
0.0
  0
VERTEX
  8
0
  6
CONTINUOUS
 62
       7
  5
400
 10
-123.72529039
 20
63.96615364
 30
0.0
  0
VERTEX
  8
0
  6
CONTINUOUS
 62
       7
  5
401
 10
-123.82393239
 20
64.06220624
 30
0.0
  0
VERTEX
  8
0
  6
CONTINUOUS
 62
       7
  5
402
 10
-123.91181977
 20
64.1558768
 30
0.0
  0
VERTEX
  8
0
  6
CONTINUOUS
 62
       7
  5
403
 10
-123.9872286
 20
64.24449358
 30
0.0
  0
SEQEND
  8
0
  6
CONTINUOUS
 62
       7
  5
404
  0
POLYLINE
  8
0
  6
CONTINUOUS
 62
       7
  5
290
 66
       1
 10
0.0
 20
0.0
 30
0.0
  0
VERTEX
  8
0
  6
CONTINUOUS
 62
       7
  5
405
 10
-118.22641044
 20
64.71731253
 30
0.0
  0
VERTEX
  8
0
  6
CONTINUOUS
 62
       7
  5
406
 10
-118.33078688
 20
64.66736437
 30
0.0
  0
VERTEX
  8
0
  6
CONTINUOUS
 62
       7
  5
407
 10
-118.4352162
 20
64.61794787
 30
0.0
  0
VERTEX
  8
0
  6
CONTINUOUS
 62
       7
  5
408
 10
-118.53962331
 20
64.56880159
 30
0.0
  0
VERTEX
  8
0
  6
CONTINUOUS
 62
       7
  5
409
 10
-118.64393314
 20
64.51966409
 30
0.0
  0
VERTEX
  8
0
  6
CONTINUOUS
 62
       7
  5
40A
 10
-118.74807062
 20
64.47027396
 30
0.0
  0
VERTEX
  8
0
  6
CONTINUOUS
 62
       7
  5
40B
 10
-118.85196066
 20
64.42036974
 30
0.0
  0
VERTEX
  8
0
  6
CONTINUOUS
 62
       7
  5
40C
 10
-118.9555282
 20
64.36969002
 30
0.0
  0
VERTEX
  8
0
  6
CONTINUOUS
 62
       7
  5
40D
 10
-119.05869815
 20
64.31797335
 30
0.0
  0
VERTEX
  8
0
  6
CONTINUOUS
 62
       7
  5
40E
 10
-119.16139543
 20
64.26495831
 30
0.0
  0
VERTEX
  8
0
  6
CONTINUOUS
 62
       7
  5
40F
 10
-119.26354498
 20
64.21038346
 30
0.0
  0
VERTEX
  8
0
  6
CONTINUOUS
 62
       7
  5
410
 10
-119.36507171
 20
64.15398737
 30
0.0
  0
VERTEX
  8
0
  6
CONTINUOUS
 62
       7
  5
411
 10
-119.46590055
 20
64.09550861
 30
0.0
  0
VERTEX
  8
0
  6
CONTINUOUS
 62
       7
  5
412
 10
-119.56595642
 20
64.03468574
 30
0.0
  0
VERTEX
  8
0
  6
CONTINUOUS
 62
       7
  5
413
 10
-119.66516425
 20
63.97125733
 30
0.0
  0
VERTEX
  8
0
  6
CONTINUOUS
 62
       7
  5
414
 10
-119.76344895
 20
63.90496196
 30
0.0
  0
VERTEX
  8
0
  6
CONTINUOUS
 62
       7
  5
415
 10
-119.86073546
 20
63.83553818
 30
0.0
  0
VERTEX
  8
0
  6
CONTINUOUS
 62
       7
  5
416
 10
-120.00957353
 20
63.72154734
 30
0.0
  0
VERTEX
  8
0
  6
CONTINUOUS
 62
       7
  5
417
 10
-120.15632158
 20
63.60119869
 30
0.0
  0
VERTEX
  8
0
  6
CONTINUOUS
 62
       7
  5
418
 10
-120.3014704
 20
63.47628557
 30
0.0
  0
VERTEX
  8
0
  6
CONTINUOUS
 62
       7
  5
419
 10
-120.44551075
 20
63.3486013
 30
0.0
  0
VERTEX
  8
0
  6
CONTINUOUS
 62
       7
  5
41A
 10
-120.58893339
 20
63.21993922
 30
0.0
  0
VERTEX
  8
0
  6
CONTINUOUS
 62
       7
  5
41B
 10
-120.73222909
 20
63.09209266
 30
0.0
  0
VERTEX
  8
0
  6
CONTINUOUS
 62
       7
  5
41C
 10
-120.87588862
 20
62.96685494
 30
0.0
  0
VERTEX
  8
0
  6
CONTINUOUS
 62
       7
  5
41D
 10
-121.02040275
 20
62.8460194
 30
0.0
  0
VERTEX
  8
0
  6
CONTINUOUS
 62
       7
  5
41E
 10
-121.16626225
 20
62.73137937
 30
0.0
  0
VERTEX
  8
0
  6
CONTINUOUS
 62
       7
  5
41F
 10
-121.31395788
 20
62.62472818
 30
0.0
  0
VERTEX
  8
0
  6
CONTINUOUS
 62
       7
  5
420
 10
-121.46398041
 20
62.52785916
 30
0.0
  0
VERTEX
  8
0
  6
CONTINUOUS
 62
       7
  5
421
 10
-121.61682061
 20
62.44256564
 30
0.0
  0
VERTEX
  8
0
  6
CONTINUOUS
 62
       7
  5
422
 10
-121.77296925
 20
62.37064095
 30
0.0
  0
VERTEX
  8
0
  6
CONTINUOUS
 62
       7
  5
423
 10
-121.9329171
 20
62.31387842
 30
0.0
  0
VERTEX
  8
0
  6
CONTINUOUS
 62
       7
  5
424
 10
-122.09715492
 20
62.27407138
 30
0.0
  0
VERTEX
  8
0
  6
CONTINUOUS
 62
       7
  5
425
 10
-122.26617348
 20
62.25301317
 30
0.0
  0
VERTEX
  8
0
  6
CONTINUOUS
 62
       7
  5
426
 10
-122.43231921
 20
62.25158527
 30
0.0
  0
VERTEX
  8
0
  6
CONTINUOUS
 62
       7
  5
427
 10
-122.60219398
 20
62.26763818
 30
0.0
  0
VERTEX
  8
0
  6
CONTINUOUS
 62
       7
  5
428
 10
-122.77471504
 20
62.29990206
 30
0.0
  0
VERTEX
  8
0
  6
CONTINUOUS
 62
       7
  5
429
 10
-122.94879966
 20
62.34710709
 30
0.0
  0
VERTEX
  8
0
  6
CONTINUOUS
 62
       7
  5
42A
 10
-123.1233651
 20
62.40798343
 30
0.0
  0
VERTEX
  8
0
  6
CONTINUOUS
 62
       7
  5
42B
 10
-123.29732862
 20
62.48126126
 30
0.0
  0
VERTEX
  8
0
  6
CONTINUOUS
 62
       7
  5
42C
 10
-123.46960748
 20
62.56567075
 30
0.0
  0
VERTEX
  8
0
  6
CONTINUOUS
 62
       7
  5
42D
 10
-123.63911894
 20
62.65994206
 30
0.0
  0
VERTEX
  8
0
  6
CONTINUOUS
 62
       7
  5
42E
 10
-123.80478027
 20
62.76280537
 30
0.0
  0
VERTEX
  8
0
  6
CONTINUOUS
 62
       7
  5
42F
 10
-123.96550872
 20
62.87299084
 30
0.0
  0
VERTEX
  8
0
  6
CONTINUOUS
 62
       7
  5
430
 10
-124.12022156
 20
62.98922865
 30
0.0
  0
VERTEX
  8
0
  6
CONTINUOUS
 62
       7
  5
431
 10
-124.26783606
 20
63.11024896
 30
0.0
  0
VERTEX
  8
0
  6
CONTINUOUS
 62
       7
  5
432
 10
-124.40726946
 20
63.23478194
 30
0.0
  0
VERTEX
  8
0
  6
CONTINUOUS
 62
       7
  5
433
 10
-124.53743904
 20
63.36155777
 30
0.0
  0
VERTEX
  8
0
  6
CONTINUOUS
 62
       7
  5
434
 10
-124.65726205
 20
63.48930662
 30
0.0
  0
VERTEX
  8
0
  6
CONTINUOUS
 62
       7
  5
435
 10
-124.76565576
 20
63.61675864
 30
0.0
  0
SEQEND
  8
0
  6
CONTINUOUS
 62
       7
  5
436
  0
POLYLINE
  8
0
  6
CONTINUOUS
 62
       7
  5
291
 66
       1
 10
0.0
 20
0.0
 30
0.0
  0
VERTEX
  8
0
  6
CONTINUOUS
 62
       7
  5
437
 10
-118.57118524
 20
65.66161853
 30
0.0
  0
VERTEX
  8
0
  6
CONTINUOUS
 62
       7
  5
438
 10
-118.50035759
 20
65.68006029
 30
0.0
  0
VERTEX
  8
0
  6
CONTINUOUS
 62
       7
  5
439
 10
-118.42783719
 20
65.69635552
 30
0.0
  0
VERTEX
  8
0
  6
CONTINUOUS
 62
       7
  5
43A
 10
-118.3539424
 20
65.7103038
 30
0.0
  0
VERTEX
  8
0
  6
CONTINUOUS
 62
       7
  5
43B
 10
-118.27899158
 20
65.7217047
 30
0.0
  0
VERTEX
  8
0
  6
CONTINUOUS
 62
       7
  5
43C
 10
-118.2033031
 20
65.7303578
 30
0.0
  0
VERTEX
  8
0
  6
CONTINUOUS
 62
       7
  5
43D
 10
-118.12719533
 20
65.73606267
 30
0.0
  0
VERTEX
  8
0
  6
CONTINUOUS
 62
       7
  5
43E
 10
-118.05098663
 20
65.7386189
 30
0.0
  0
VERTEX
  8
0
  6
CONTINUOUS
 62
       7
  5
43F
 10
-117.97499536
 20
65.73782605
 30
0.0
  0
VERTEX
  8
0
  6
CONTINUOUS
 62
       7
  5
440
 10
-117.89953989
 20
65.73348371
 30
0.0
  0
VERTEX
  8
0
  6
CONTINUOUS
 62
       7
  5
441
 10
-117.8249386
 20
65.72539145
 30
0.0
  0
VERTEX
  8
0
  6
CONTINUOUS
 62
       7
  5
442
 10
-117.75150983
 20
65.71334885
 30
0.0
  0
VERTEX
  8
0
  6
CONTINUOUS
 62
       7
  5
443
 10
-117.67957196
 20
65.69715548
 30
0.0
  0
VERTEX
  8
0
  6
CONTINUOUS
 62
       7
  5
444
 10
-117.60944336
 20
65.67661092
 30
0.0
  0
VERTEX
  8
0
  6
CONTINUOUS
 62
       7
  5
445
 10
-117.54144238
 20
65.65151474
 30
0.0
  0
VERTEX
  8
0
  6
CONTINUOUS
 62
       7
  5
446
 10
-117.4758874
 20
65.62166653
 30
0.0
  0
VERTEX
  8
0
  6
CONTINUOUS
 62
       7
  5
447
 10
-117.41309678
 20
65.58686586
 30
0.0
  0
VERTEX
  8
0
  6
CONTINUOUS
 62
       7
  5
448
 10
-117.3604898
 20
65.5521603
 30
0.0
  0
VERTEX
  8
0
  6
CONTINUOUS
 62
       7
  5
449
 10
-117.31023749
 20
65.51376284
 30
0.0
  0
VERTEX
  8
0
  6
CONTINUOUS
 62
       7
  5
44A
 10
-117.262321
 20
65.47194903
 30
0.0
  0
VERTEX
  8
0
  6
CONTINUOUS
 62
       7
  5
44B
 10
-117.21672147
 20
65.42699441
 30
0.0
  0
VERTEX
  8
0
  6
CONTINUOUS
 62
       7
  5
44C
 10
-117.17342006
 20
65.37917453
 30
0.0
  0
VERTEX
  8
0
  6
CONTINUOUS
 62
       7
  5
44D
 10
-117.1323979
 20
65.32876491
 30
0.0
  0
VERTEX
  8
0
  6
CONTINUOUS
 62
       7
  5
44E
 10
-117.09363615
 20
65.27604111
 30
0.0
  0
VERTEX
  8
0
  6
CONTINUOUS
 62
       7
  5
44F
 10
-117.05711595
 20
65.22127865
 30
0.0
  0
VERTEX
  8
0
  6
CONTINUOUS
 62
       7
  5
450
 10
-117.02281844
 20
65.16475309
 30
0.0
  0
VERTEX
  8
0
  6
CONTINUOUS
 62
       7
  5
451
 10
-116.99072479
 20
65.10673996
 30
0.0
  0
VERTEX
  8
0
  6
CONTINUOUS
 62
       7
  5
452
 10
-116.96081612
 20
65.04751481
 30
0.0
  0
VERTEX
  8
0
  6
CONTINUOUS
 62
       7
  5
453
 10
-116.93307359
 20
64.98735316
 30
0.0
  0
VERTEX
  8
0
  6
CONTINUOUS
 62
       7
  5
454
 10
-116.90747834
 20
64.92653057
 30
0.0
  0
VERTEX
  8
0
  6
CONTINUOUS
 62
       7
  5
455
 10
-116.88401152
 20
64.86532257
 30
0.0
  0
VERTEX
  8
0
  6
CONTINUOUS
 62
       7
  5
456
 10
-116.86265429
 20
64.80400471
 30
0.0
  0
VERTEX
  8
0
  6
CONTINUOUS
 62
       7
  5
457
 10
-116.84338777
 20
64.74285252
 30
0.0
  0
SEQEND
  8
0
  6
CONTINUOUS
 62
       7
  5
458
  0
CIRCLE
  8
0
  6
CONTINUOUS
 62
       7
  5
292
 10
-125.00851692
 20
65.10932057
 30
0.0
 40
0.5
  0
POLYLINE
  8
0
  6
CONTINUOUS
 62
       7
  5
293
 66
       1
 10
0.0
 20
0.0
 30
0.0
  0
VERTEX
  8
0
  6
CONTINUOUS
 62
       7
  5
459
 10
-123.87274493
 20
64.11236715
 30
0.0
  0
VERTEX
  8
0
  6
CONTINUOUS
 62
       7
  5
45A
 10
-123.90277778
 20
64.15239908
 30
0.0
  0
VERTEX
  8
0
  6
CONTINUOUS
 62
       7
  5
45B
 10
-123.93243018
 20
64.19272318
 30
0.0
  0
VERTEX
  8
0
  6
CONTINUOUS
 62
       7
  5
45C
 10
-123.96169719
 20
64.23333352
 30
0.0
  0
VERTEX
  8
0
  6
CONTINUOUS
 62
       7
  5
45D
 10
-123.99057393
 20
64.27422411
 30
0.0
  0
VERTEX
  8
0
  6
CONTINUOUS
 62
       7
  5
45E
 10
-124.01905553
 20
64.31538895
 30
0.0
  0
VERTEX
  8
0
  6
CONTINUOUS
 62
       7
  5
45F
 10
-124.0471372
 20
64.35682204
 30
0.0
  0
VERTEX
  8
0
  6
CONTINUOUS
 62
       7
  5
460
 10
-124.07481421
 20
64.39851732
 30
0.0
  0
VERTEX
  8
0
  6
CONTINUOUS
 62
       7
  5
461
 10
-124.10208185
 20
64.44046875
 30
0.0
  0
VERTEX
  8
0
  6
CONTINUOUS
 62
       7
  5
462
 10
-124.12893548
 20
64.48267027
 30
0.0
  0
VERTEX
  8
0
  6
CONTINUOUS
 62
       7
  5
463
 10
-124.15537053
 20
64.52511578
 30
0.0
  0
VERTEX
  8
0
  6
CONTINUOUS
 62
       7
  5
464
 10
-124.18138246
 20
64.5677992
 30
0.0
  0
VERTEX
  8
0
  6
CONTINUOUS
 62
       7
  5
465
 10
-124.20696679
 20
64.61071442
 30
0.0
  0
VERTEX
  8
0
  6
CONTINUOUS
 62
       7
  5
466
 10
-124.2321191
 20
64.65385532
 30
0.0
  0
VERTEX
  8
0
  6
CONTINUOUS
 62
       7
  5
467
 10
-124.25683503
 20
64.69721579
 30
0.0
  0
VERTEX
  8
0
  6
CONTINUOUS
 62
       7
  5
468
 10
-124.28111028
 20
64.74078971
 30
0.0
  0
VERTEX
  8
0
  6
CONTINUOUS
 62
       7
  5
469
 10
-124.3049406
 20
64.78457095
 30
0.0
  0
VERTEX
  8
0
  6
CONTINUOUS
 62
       7
  5
46A
 10
-124.32154391
 20
64.81569485
 30
0.0
  0
VERTEX
  8
0
  6
CONTINUOUS
 62
       7
  5
46B
 10
-124.33793544
 20
64.8469434
 30
0.0
  0
VERTEX
  8
0
  6
CONTINUOUS
 62
       7
  5
46C
 10
-124.35411461
 20
64.87831475
 30
0.0
  0
VERTEX
  8
0
  6
CONTINUOUS
 62
       7
  5
46D
 10
-124.37008086
 20
64.90980708
 30
0.0
  0
VERTEX
  8
0
  6
CONTINUOUS
 62
       7
  5
46E
 10
-124.38583359
 20
64.94141852
 30
0.0
  0
VERTEX
  8
0
  6
CONTINUOUS
 62
       7
  5
46F
 10
-124.40137225
 20
64.9731472
 30
0.0
  0
VERTEX
  8
0
  6
CONTINUOUS
 62
       7
  5
470
 10
-124.41669627
 20
65.00499126
 30
0.0
  0
VERTEX
  8
0
  6
CONTINUOUS
 62
       7
  5
471
 10
-124.43180507
 20
65.03694881
 30
0.0
  0
VERTEX
  8
0
  6
CONTINUOUS
 62
       7
  5
472
 10
-124.4466981
 20
65.06901794
 30
0.0
  0
VERTEX
  8
0
  6
CONTINUOUS
 62
       7
  5
473
 10
-124.4613748
 20
65.10119677
 30
0.0
  0
VERTEX
  8
0
  6
CONTINUOUS
 62
       7
  5
474
 10
-124.4758346
 20
65.13348338
 30
0.0
  0
VERTEX
  8
0
  6
CONTINUOUS
 62
       7
  5
475
 10
-124.49007697
 20
65.16587584
 30
0.0
  0
VERTEX
  8
0
  6
CONTINUOUS
 62
       7
  5
476
 10
-124.50410134
 20
65.19837223
 30
0.0
  0
VERTEX
  8
0
  6
CONTINUOUS
 62
       7
  5
477
 10
-124.51790717
 20
65.23097061
 30
0.0
  0
VERTEX
  8
0
  6
CONTINUOUS
 62
       7
  5
478
 10
-124.53149392
 20
65.26366902
 30
0.0
  0
VERTEX
  8
0
  6
CONTINUOUS
 62
       7
  5
479
 10
-124.54486105
 20
65.29646552
 30
0.0
  0
SEQEND
  8
0
  6
CONTINUOUS
 62
       7
  5
47A
  0
POLYLINE
  8
0
  6
CONTINUOUS
 62
       7
  5
294
 66
       1
 10
0.0
 20
0.0
 30
0.0
  0
VERTEX
  8
0
  6
CONTINUOUS
 62
       7
  5
47B
 10
-124.6697759
 20
63.50842871
 30
0.0
  0
VERTEX
  8
0
  6
CONTINUOUS
 62
       7
  5
47C
 10
-124.70555807
 20
63.55612414
 30
0.0
  0
VERTEX
  8
0
  6
CONTINUOUS
 62
       7
  5
47D
 10
-124.74088964
 20
63.60417132
 30
0.0
  0
VERTEX
  8
0
  6
CONTINUOUS
 62
       7
  5
47E
 10
-124.77576594
 20
63.652565
 30
0.0
  0
VERTEX
  8
0
  6
CONTINUOUS
 62
       7
  5
47F
 10
-124.81018231
 20
63.70129994
 30
0.0
  0
VERTEX
  8
0
  6
CONTINUOUS
 62
       7
  5
480
 10
-124.84413405
 20
63.75037087
 30
0.0
  0
VERTEX
  8
0
  6
CONTINUOUS
 62
       7
  5
481
 10
-124.87761652
 20
63.79977256
 30
0.0
  0
VERTEX
  8
0
  6
CONTINUOUS
 62
       7
  5
482
 10
-124.91062502
 20
63.84949975
 30
0.0
  0
VERTEX
  8
0
  6
CONTINUOUS
 62
       7
  5
483
 10
-124.94315489
 20
63.89954719
 30
0.0
  0
VERTEX
  8
0
  6
CONTINUOUS
 62
       7
  5
484
 10
-124.97520146
 20
63.94990963
 30
0.0
  0
VERTEX
  8
0
  6
CONTINUOUS
 62
       7
  5
485
 10
-125.00676006
 20
64.00058182
 30
0.0
  0
VERTEX
  8
0
  6
CONTINUOUS
 62
       7
  5
486
 10
-125.037826
 20
64.0515585
 30
0.0
  0
VERTEX
  8
0
  6
CONTINUOUS
 62
       7
  5
487
 10
-125.06839463
 20
64.10283443
 30
0.0
  0
VERTEX
  8
0
  6
CONTINUOUS
 62
       7
  5
488
 10
-125.09846126
 20
64.15440436
 30
0.0
  0
VERTEX
  8
0
  6
CONTINUOUS
 62
       7
  5
489
 10
-125.12802123
 20
64.20626303
 30
0.0
  0
VERTEX
  8
0
  6
CONTINUOUS
 62
       7
  5
48A
 10
-125.15706986
 20
64.2584052
 30
0.0
  0
VERTEX
  8
0
  6
CONTINUOUS
 62
       7
  5
48B
 10
-125.18560248
 20
64.31082561
 30
0.0
  0
VERTEX
  8
0
  6
CONTINUOUS
 62
       7
  5
48C
 10
-125.2054841
 20
64.34809487
 30
0.0
  0
VERTEX
  8
0
  6
CONTINUOUS
 62
       7
  5
48D
 10
-125.22510451
 20
64.38549889
 30
0.0
  0
VERTEX
  8
0
  6
CONTINUOUS
 62
       7
  5
48E
 10
-125.24446338
 20
64.42303564
 30
0.0
  0
VERTEX
  8
0
  6
CONTINUOUS
 62
       7
  5
48F
 10
-125.26356037
 20
64.46070312
 30
0.0
  0
VERTEX
  8
0
  6
CONTINUOUS
 62
       7
  5
490
 10
-125.28239512
 20
64.49849931
 30
0.0
  0
VERTEX
  8
0
  6
CONTINUOUS
 62
       7
  5
491
 10
-125.30096731
 20
64.53642219
 30
0.0
  0
VERTEX
  8
0
  6
CONTINUOUS
 62
       7
  5
492
 10
-125.31927658
 20
64.57446975
 30
0.0
  0
VERTEX
  8
0
  6
CONTINUOUS
 62
       7
  5
493
 10
-125.33732261
 20
64.61263996
 30
0.0
  0
VERTEX
  8
0
  6
CONTINUOUS
 62
       7
  5
494
 10
-125.35510504
 20
64.65093083
 30
0.0
  0
VERTEX
  8
0
  6
CONTINUOUS
 62
       7
  5
495
 10
-125.37262354
 20
64.68934032
 30
0.0
  0
VERTEX
  8
0
  6
CONTINUOUS
 62
       7
  5
496
 10
-125.38987776
 20
64.72786642
 30
0.0
  0
VERTEX
  8
0
  6
CONTINUOUS
 62
       7
  5
497
 10
-125.40686736
 20
64.76650713
 30
0.0
  0
VERTEX
  8
0
  6
CONTINUOUS
 62
       7
  5
498
 10
-125.42359201
 20
64.80526042
 30
0.0
  0
VERTEX
  8
0
  6
CONTINUOUS
 62
       7
  5
499
 10
-125.44005136
 20
64.84412427
 30
0.0
  0
VERTEX
  8
0
  6
CONTINUOUS
 62
       7
  5
49A
 10
-125.45624507
 20
64.88309668
 30
0.0
  0
VERTEX
  8
0
  6
CONTINUOUS
 62
       7
  5
49B
 10
-125.4721728
 20
64.92217563
 30
0.0
  0
SEQEND
  8
0
  6
CONTINUOUS
 62
       7
  5
49C
  0
CIRCLE
  8
0
  6
CONTINUOUS
 62
       7
  5
295
 10
-125.07878002
 20
61.71731253
 30
0.0
 40
0.5
  0
LINE
  8
0
  6
CONTINUOUS
 62
       7
  5
296
 10
-125.07877998
 20
61.21731253
 30
0.0
 11
-119.58888207
 21
61.21731253
 31
0.0
  0
LINE
  8
0
  6
CONTINUOUS
 62
       7
  5
297
 10
-125.07878002
 20
62.21731253
 30
0.0
 11
-119.58888207
 21
62.21731253
 31
0.0
  0
ARC
  8
0
  6
CONTINUOUS
 62
       7
  5
298
 10
-120.07878002
 20
61.71731253
 30
0.0
 40
0.7
 50
225.5846914
 51
134.4153086
  0
ARC
  8
0
  6
CONTINUOUS
 62
       7
  5
299
 10
-115.51722114
 20
61.71731253
 30
0.0
 40
7.56155888
 50
127.10347874
 51
167.18287055
  0
ARC
  8
0
  6
CONTINUOUS
 62
       7
  5
29A
 10
-115.51722114
 20
61.71731253
 30
0.0
 40
7.56155888
 50
174.96704694
 51
176.20861149
  0
ARC
  8
0
  6
CONTINUOUS
 62
       7
  5
29B
 10
-116.07878002
 20
61.71731253
 30
0.0
 40
5.0
 50
166.09328661
 51
174.26082952
  0
LINE
  8
0
  6
CONTINUOUS
 62
       2
  5
29C
 10
99.74429028
 20
109.71731253
 30
0.0
 11
184.23552624
 21
109.71731253
 31
0.0
  0
ARC
  8
0
  6
CONTINUOUS
 62
       7
  5
29D
 10
126.24429028
 20
126.21731253
 30
0.0
 40
11.0
 50
122.31746115
 51
180.0
  0
POLYLINE
  8
0
  6
CONTINUOUS
 62
       7
  5
29E
 66
       1
 10
0.0
 20
0.0
 30
0.0
  0
VERTEX
  8
0
  6
CONTINUOUS
 62
       7
  5
49D
 10
124.21668597
 20
64.71731253
 30
0.0
  0
VERTEX
  8
0
  6
CONTINUOUS
 62
       7
  5
49E
 10
124.48128649
 20
64.69094158
 30
0.0
  0
VERTEX
  8
0
  6
CONTINUOUS
 62
       7
  5
49F
 10
124.74123517
 20
64.61229237
 30
0.0
  0
VERTEX
  8
0
  6
CONTINUOUS
 62
       7
  5
4A0
 10
124.99196194
 20
64.4827476
 30
0.0
  0
VERTEX
  8
0
  6
CONTINUOUS
 62
       7
  5
4A1
 10
125.22905887
 20
64.30458474
 30
0.0
  0
VERTEX
  8
0
  6
CONTINUOUS
 62
       7
  5
4A2
 10
125.44835765
 20
64.08093601
 30
0.0
  0
VERTEX
  8
0
  6
CONTINUOUS
 62
       7
  5
4A3
 10
125.64600287
 20
63.8157333
 30
0.0
  0
VERTEX
  8
0
  6
CONTINUOUS
 62
       7
  5
4A4
 10
125.8185198
 20
63.51363903
 30
0.0
  0
VERTEX
  8
0
  6
CONTINUOUS
 62
       7
  5
4A5
 10
125.96287548
 20
63.17996421
 30
0.0
  0
VERTEX
  8
0
  6
CONTINUOUS
 62
       7
  5
4A6
 10
126.07653206
 20
62.82057506
 30
0.0
  0
VERTEX
  8
0
  6
CONTINUOUS
 62
       7
  5
4A7
 10
126.15749137
 20
62.44178985
 30
0.0
  0
VERTEX
  8
0
  6
CONTINUOUS
 62
       7
  5
4A8
 10
126.20433011
 20
62.05026789
 30
0.0
  0
VERTEX
  8
0
  6
CONTINUOUS
 62
       7
  5
4A9
 10
126.21622481
 20
61.65289235
 30
0.0
  0
VERTEX
  8
0
  6
CONTINUOUS
 62
       7
  5
4AA
 10
126.19296637
 20
61.25664937
 30
0.0
  0
VERTEX
  8
0
  6
CONTINUOUS
 62
       7
  5
4AB
 10
126.13496367
 20
60.86850513
 30
0.0
  0
VERTEX
  8
0
  6
CONTINUOUS
 62
       7
  5
4AC
 10
126.04323645
 20
60.49528346
 30
0.0
  0
VERTEX
  8
0
  6
CONTINUOUS
 62
       7
  5
4AD
 10
125.91939732
 20
60.14354583
 30
0.0
  0
VERTEX
  8
0
  6
CONTINUOUS
 62
       7
  5
4AE
 10
125.76562346
 20
59.819476
 30
0.0
  0
VERTEX
  8
0
  6
CONTINUOUS
 62
       7
  5
4AF
 10
125.58461831
 20
59.52877133
 30
0.0
  0
VERTEX
  8
0
  6
CONTINUOUS
 62
       7
  5
4B0
 10
125.37956404
 20
59.2765426
 30
0.0
  0
VERTEX
  8
0
  6
CONTINUOUS
 62
       7
  5
4B1
 10
125.15406565
 20
59.06722413
 30
0.0
  0
VERTEX
  8
0
  6
CONTINUOUS
 62
       7
  5
4B2
 10
124.91208753
 20
58.90449587
 30
0.0
  0
VERTEX
  8
0
  6
CONTINUOUS
 62
       7
  5
4B3
 10
124.65788382
 20
58.79121871
 30
0.0
  0
VERTEX
  8
0
  6
CONTINUOUS
 62
       7
  5
4B4
 10
124.39592357
 20
58.72938411
 30
0.0
  0
VERTEX
  8
0
  6
CONTINUOUS
 62
       7
  5
4B5
 10
124.13081222
 20
58.72007916
 30
0.0
  0
VERTEX
  8
0
  6
CONTINUOUS
 62
       7
  5
4B6
 10
123.95208546
 20
58.74368347
 30
0.0
  0
VERTEX
  8
0
  6
CONTINUOUS
 62
       7
  5
4B7
 10
123.77548813
 20
58.79121871
 30
0.0
  0
SEQEND
  8
0
  6
CONTINUOUS
 62
       7
  5
4B8
  0
ARC
  8
0
  6
CONTINUOUS
 62
       7
  5
29F
 10
124.39429028
 20
61.71731253
 30
0.0
 40
5.0
 50
323.13010235
 51
355.21850334
  0
POLYLINE
  8
0
  6
CONTINUOUS
 62
       7
  5
2A0
 66
       1
 10
0.0
 20
0.0
 30
0.0
  0
VERTEX
  8
0
  6
CONTINUOUS
 62
       7
  5
4B9
 10
124.24429028
 20
64.71731253
 30
0.0
  0
VERTEX
  8
0
  6
CONTINUOUS
 62
       7
  5
4BA
 10
123.98096703
 20
64.69119668
 30
0.0
  0
VERTEX
  8
0
  6
CONTINUOUS
 62
       7
  5
4BB
 10
123.72222839
 20
64.61330383
 30
0.0
  0
VERTEX
  8
0
  6
CONTINUOUS
 62
       7
  5
4BC
 10
123.47257914
 20
64.48499013
 30
0.0
  0
VERTEX
  8
0
  6
CONTINUOUS
 62
       7
  5
4BD
 10
123.23636582
 20
64.3084896
 30
0.0
  0
VERTEX
  8
0
  6
CONTINUOUS
 62
       7
  5
4BE
 10
123.01770103
 20
64.08687521
 30
0.0
  0
VERTEX
  8
0
  6
CONTINUOUS
 62
       7
  5
4BF
 10
122.82039186
 20
63.8240054
 30
0.0
  0
VERTEX
  8
0
  6
CONTINUOUS
 62
       7
  5
4C0
 10
122.64787356
 20
63.52445688
 30
0.0
  0
VERTEX
  8
0
  6
CONTINUOUS
 62
       7
  5
4C1
 10
122.50314978
 20
63.19344495
 30
0.0
  0
VERTEX
  8
0
  6
CONTINUOUS
 62
       7
  5
4C2
 10
122.38874024
 20
62.83673272
 30
0.0
  0
VERTEX
  8
0
  6
CONTINUOUS
 62
       7
  5
4C3
 10
122.30663687
 20
62.46053075
 30
0.0
  0
VERTEX
  8
0
  6
CONTINUOUS
 62
       7
  5
4C4
 10
122.25826914
 20
62.07138893
 30
0.0
  0
VERTEX
  8
0
  6
CONTINUOUS
 62
       7
  5
4C5
 10
122.24447917
 20
61.67608245
 30
0.0
  0
VERTEX
  8
0
  6
CONTINUOUS
 62
       7
  5
4C6
 10
122.26550704
 20
61.2814938
 30
0.0
  0
VERTEX
  8
0
  6
CONTINUOUS
 62
       7
  5
4C7
 10
122.32098664
 20
60.894493
 30
0.0
  0
VERTEX
  8
0
  6
CONTINUOUS
 62
       7
  5
4C8
 10
122.40995204
 20
60.52181795
 30
0.0
  0
VERTEX
  8
0
  6
CONTINUOUS
 62
       7
  5
4C9
 10
122.53085431
 20
60.16995714
 30
0.0
  0
VERTEX
  8
0
  6
CONTINUOUS
 62
       7
  5
4CA
 10
122.68158847
 20
59.84503667
 30
0.0
  0
VERTEX
  8
0
  6
CONTINUOUS
 62
       7
  5
4CB
 10
122.85953015
 20
59.55271357
 30
0.0
  0
VERTEX
  8
0
  6
CONTINUOUS
 62
       7
  5
4CC
 10
123.06158129
 20
59.29807737
 30
0.0
  0
VERTEX
  8
0
  6
CONTINUOUS
 62
       7
  5
4CD
 10
123.28422406
 20
59.08556141
 30
0.0
  0
VERTEX
  8
0
  6
CONTINUOUS
 62
       7
  5
4CE
 10
123.52358213
 20
58.91886573
 30
0.0
  0
VERTEX
  8
0
  6
CONTINUOUS
 62
       7
  5
4CF
 10
123.77548813
 20
58.80089259
 30
0.0
  0
VERTEX
  8
0
  6
CONTINUOUS
 62
       7
  5
4D0
 10
123.77548813
 20
58.80089259
 30
0.0
  0
SEQEND
  8
0
  6
CONTINUOUS
 62
       7
  5
4D1
  0
LINE
  8
0
  6
CONTINUOUS
 62
       2
  5
2A1
 10
161.93933871
 20
61.71731253
 30
0.0
 11
120.51506257
 21
61.71731253
 31
0.0
  0
ARC
  8
0
  6
CONTINUOUS
 62
       7
  5
2A2
 10
132.99832359
 20
71.21731253
 30
0.0
 40
2.0
 50
14.47751219
 51
90.0
  0
LINE
  8
0
  6
CONTINUOUS
 62
       2
  5
2A3
 10
129.73474212
 20
128.78640934
 30
0.0
 11
122.63369503
 21
141.08578369
 31
0.0
  0
LINE
  8
0
  6
CONTINUOUS
 62
       7
  5
2A4
 10
120.31053358
 20
127.36558686
 30
0.0
 11
120.31053357
 21
134.71731252
 31
0.0
  0
LINE
  8
0
  6
CONTINUOUS
 62
       7
  5
2A5
 10
135.67731484
 20
83.19702294
 30
0.0
 11
129.31053362
 21
79.52116008
 31
0.0
  0
LINE
  8
0
  6
CONTINUOUS
 62
       7
  5
2A6
 10
128.70844944
 20
79.21731253
 30
0.0
 11
173.24429028
 21
79.21731253
 31
0.0
  0
LINE
  8
0
  6
CONTINUOUS
 62
       7
  5
2A7
 10
124.24429028
 20
64.71731253
 30
0.0
 11
149.49429028
 21
64.71731253
 31
0.0
  0
CIRCLE
  8
0
  6
CONTINUOUS
 62
       7
  5
2A8
 10
140.74429028
 20
109.71731253
 30
0.0
 40
21.0
  0
ARC
  8
0
  6
CONTINUOUS
 62
       7
  5
2A9
 10
140.74429028
 20
109.71731253
 30
0.0
 40
19.0
 50
235.46848512
 51
124.53151512
  0
LINE
  8
0
  6
CONTINUOUS
 62
       7
  5
2AA
 10
126.74429023
 20
94.06483667
 30
0.0
 11
129.97396069
 21
94.06483667
 31
0.0
  0
LINE
  8
0
  6
CONTINUOUS
 62
       7
  5
2AB
 10
126.74429023
 20
125.36978834
 30
0.0
 11
129.97396063
 21
125.36978834
 31
0.0
  0
LINE
  8
0
  6
CONTINUOUS
 62
       7
  5
2AC
 10
126.74429028
 20
94.06483667
 30
0.0
 11
126.74429028
 21
125.36978834
 31
0.0
  0
ARC
  8
0
  6
CONTINUOUS
 62
       7
  5
2AD
 10
140.74429028
 20
109.71731253
 30
0.0
 40
27.0
 50
139.18340807
 51
220.81659204
  0
LINE
  8
0
  6
CONTINUOUS
 62
       7
  5
2AE
 10
132.99832359
 20
73.21731253
 30
0.0
 11
109.24429028
 21
73.21731253
 31
0.0
  0
LINE
  8
0
  6
CONTINUOUS
 62
       7
  5
2AF
 10
104.74429028
 20
96.71731253
 30
0.0
 11
104.74429028
 21
122.71731253
 31
0.0
  0
LINE
  8
0
  6
CONTINUOUS
 62
       7
  5
2B0
 10
104.74429028
 20
96.71731253
 30
0.0
 11
115.24429028
 21
96.71731253
 31
0.0
  0
LINE
  8
0
  6
CONTINUOUS
 62
       7
  5
2B1
 10
104.74429028
 20
122.71731253
 30
0.0
 11
115.24429028
 21
122.71731253
 31
0.0
  0
LINE
  8
0
  6
CONTINUOUS
 62
       7
  5
2B2
 10
128.88420896
 20
61.21731253
 30
0.0
 11
127.90439233
 21
61.21731253
 31
0.0
  0
LINE
  8
0
  6
CONTINUOUS
 62
       7
  5
2B3
 10
128.9553409
 20
62.26258626
 30
0.0
 11
127.9553409
 21
62.26258626
 31
0.0
  0
LINE
  8
0
  6
CONTINUOUS
 62
       7
  5
2B4
 10
128.02593742
 20
65.71861645
 30
0.0
 11
126.36656138
 21
65.73861812
 31
0.0
  0
ARC
  8
0
  6
CONTINUOUS
 62
       7
  5
2B5
 10
128.74743703
 20
62.71731253
 30
0.0
 40
0.5
 50
294.57019468
 51
13.9640959
  0
POLYLINE
  8
0
  6
CONTINUOUS
 62
       7
  5
2B6
 66
       1
 10
0.0
 20
0.0
 30
0.0
  0
VERTEX
  8
0
  6
CONTINUOUS
 62
       7
  5
4D2
 10
130.33186422
 20
63.11011559
 30
0.0
  0
VERTEX
  8
0
  6
CONTINUOUS
 62
       7
  5
4D3
 10
130.17590332
 20
63.66089645
 30
0.0
  0
VERTEX
  8
0
  6
CONTINUOUS
 62
       7
  5
4D4
 10
129.97052029
 20
64.16737643
 30
0.0
  0
VERTEX
  8
0
  6
CONTINUOUS
 62
       7
  5
4D5
 10
129.7203965
 20
64.61801114
 30
0.0
  0
VERTEX
  8
0
  6
CONTINUOUS
 62
       7
  5
4D6
 10
129.43123313
 20
65.00252909
 30
0.0
  0
VERTEX
  8
0
  6
CONTINUOUS
 62
       7
  5
4D7
 10
129.10962119
 20
65.3121658
 30
0.0
  0
VERTEX
  8
0
  6
CONTINUOUS
 62
       7
  5
4D8
 10
128.7628913
 20
65.5398636
 30
0.0
  0
VERTEX
  8
0
  6
CONTINUOUS
 62
       7
  5
4D9
 10
128.39894663
 20
65.68043249
 30
0.0
  0
VERTEX
  8
0
  6
CONTINUOUS
 62
       7
  5
4DA
 10
128.02608269
 20
65.73066843
 30
0.0
  0
VERTEX
  8
0
  6
CONTINUOUS
 62
       7
  5
4DB
 10
128.02608269
 20
65.73066843
 30
0.0
  0
SEQEND
  8
0
  6
CONTINUOUS
 62
       7
  5
4DC
  0
POLYLINE
  8
0
  6
CONTINUOUS
 62
       7
  5
2B7
 66
       1
 10
0.0
 20
0.0
 30
0.0
  0
VERTEX
  8
0
  6
CONTINUOUS
 62
       7
  5
4DD
 10
129.23266059
 20
62.83796943
 30
0.0
  0
VERTEX
  8
0
  6
CONTINUOUS
 62
       7
  5
4DE
 10
129.14563856
 20
63.13871381
 30
0.0
  0
VERTEX
  8
0
  6
CONTINUOUS
 62
       7
  5
4DF
 10
129.0386222
 20
63.42203676
 30
0.0
  0
VERTEX
  8
0
  6
CONTINUOUS
 62
       7
  5
4E0
 10
128.91292317
 20
63.68446573
 30
0.0
  0
VERTEX
  8
0
  6
CONTINUOUS
 62
       7
  5
4E1
 10
128.7700821
 20
63.92278427
 30
0.0
  0
VERTEX
  8
0
  6
CONTINUOUS
 62
       7
  5
4E2
 10
128.61184972
 20
64.13407141
 30
0.0
  0
VERTEX
  8
0
  6
CONTINUOUS
 62
       7
  5
4E3
 10
128.4401654
 20
64.31573752
 30
0.0
  0
VERTEX
  8
0
  6
CONTINUOUS
 62
       7
  5
4E4
 10
128.25713341
 20
64.465556
 30
0.0
  0
VERTEX
  8
0
  6
CONTINUOUS
 62
       7
  5
4E5
 10
128.06499707
 20
64.58169059
 30
0.0
  0
VERTEX
  8
0
  6
CONTINUOUS
 62
       7
  5
4E6
 10
127.86611131
 20
64.6627179
 30
0.0
  0
VERTEX
  8
0
  6
CONTINUOUS
 62
       7
  5
4E7
 10
127.66291376
 20
64.70764482
 30
0.0
  0
VERTEX
  8
0
  6
CONTINUOUS
 62
       7
  5
4E8
 10
127.58867501
 20
64.71489462
 30
0.0
  0
VERTEX
  8
0
  6
CONTINUOUS
 62
       7
  5
4E9
 10
127.51431639
 20
64.71731253
 30
0.0
  0
SEQEND
  8
0
  6
CONTINUOUS
 62
       7
  5
4EA
  0
ARC
  8
0
  6
CONTINUOUS
 62
       7
  5
2B8
 10
128.88420896
 20
62.71731253
 30
0.0
 40
1.5
 50
270.0
 51
15.18097367
  0
LINE
  8
0
  6
CONTINUOUS
 62
       7
  5
2B9
 10
126.89146717
 20
82.80354234
 30
0.0
 11
128.25837397
 21
84.26353064
 31
0.0
  0
LINE
  8
0
  6
CONTINUOUS
 62
       7
  5
2BA
 10
124.94362682
 20
83.2573242
 30
0.0
 11
126.89146717
 21
82.80354234
 31
0.0
  0
LINE
  8
0
  6
CONTINUOUS
 62
       7
  5
2BB
 10
124.36269327
 20
85.17109436
 30
0.0
 11
124.94362682
 21
83.2573242
 31
0.0
  0
LINE
  8
0
  6
CONTINUOUS
 62
       7
  5
2BC
 10
125.72960006
 20
86.63108265
 30
0.0
 11
124.36269327
 21
85.17109436
 31
0.0
  0
LINE
  8
0
  6
CONTINUOUS
 62
       7
  5
2BD
 10
127.67744041
 20
86.17730079
 30
0.0
 11
125.72960006
 21
86.63108265
 31
0.0
  0
LINE
  8
0
  6
CONTINUOUS
 62
       7
  5
2BE
 10
128.25837397
 20
84.26353064
 30
0.0
 11
127.67744041
 21
86.17730079
 31
0.0
  0
CIRCLE
  8
0
  6
CONTINUOUS
 62
       7
  5
2BF
 10
126.31053362
 20
84.7173125
 30
0.0
 40
4.0
  0
LINE
  8
0
  6
CONTINUOUS
 62
       7
  5
2C0
 10
115.24429028
 20
118.5914322
 30
0.0
 11
115.24429028
 21
127.21731253
 31
0.0
  0
ARC
  8
0
  6
CONTINUOUS
 62
       2
  5
2C1
 10
140.74429028
 20
109.71731253
 30
0.0
 40
28.86751345
 50
229.698825
 51
250.08888672
  0
LINE
  8
0
  6
CONTINUOUS
 62
       7
  5
2C2
 10
120.31053362
 20
84.71731249
 30
0.0
 11
120.31053361
 21
92.06903815
 31
0.0
  0
ARC
  8
0
  6
CONTINUOUS
 62
       7
  5
2C3
 10
126.31053362
 20
84.7173125
 30
0.0
 40
6.0
 50
180.00000005
 51
300.00000007
  0
LINE
  8
0
  6
CONTINUOUS
 62
       2
  5
2C4
 10
123.67147859
 20
80.1463351
 30
0.0
 11
129.01384958
 21
89.3995931
 31
0.0
  0
LINE
  8
0
  6
CONTINUOUS
 62
       7
  5
2C5
 10
108.24429028
 20
74.21731253
 30
0.0
 11
108.24429028
 21
81.21731253
 31
0.0
  0
LINE
  8
0
  6
CONTINUOUS
 62
       7
  5
2C6
 10
112.24429028
 20
83.21731253
 30
0.0
 11
112.24429028
 21
87.38636063
 31
0.0
  0
LINE
  8
0
  6
CONTINUOUS
 62
       7
  5
2C7
 10
119.37258001
 20
93.21731253
 30
0.0
 11
115.1269139
 21
93.21731253
 31
0.0
  0
LINE
  8
0
  6
CONTINUOUS
 62
       7
  5
2C8
 10
114.81676906
 20
92.50477715
 30
0.0
 11
112.6718115
 21
88.9298479
 31
0.0
  0
LINE
  8
0
  6
CONTINUOUS
 62
       7
  5
2C9
 10
113.74429028
 20
73.21731253
 30
0.0
 11
113.74429028
 21
87.21731253
 31
0.0
  0
LINE
  8
0
  6
CONTINUOUS
 62
       7
  5
2CA
 10
125.24429028
 20
73.21731253
 30
0.0
 11
125.24429028
 21
77.75742001
 31
0.0
  0
LINE
  8
0
  6
CONTINUOUS
 62
       7
  5
2CB
 10
113.74429028
 20
82.21731253
 30
0.0
 11
109.24429028
 21
82.21731253
 31
0.0
  0
LINE
  8
0
  6
CONTINUOUS
 62
       7
  5
2CC
 10
120.31053361
 20
88.21731253
 30
0.0
 11
114.74429028
 21
88.21731253
 31
0.0
  0
LINE
  8
0
  6
CONTINUOUS
 62
       7
  5
2CD
 10
108.24429028
 20
79.21731253
 30
0.0
 11
123.91261779
 21
79.21731253
 31
0.0
  0
LINE
  8
0
  6
CONTINUOUS
 62
       7
  5
2CE
 10
120.03427844
 20
72.72433265
 30
0.0
 11
124.45430212
 21
65.2102924
 31
0.0
  0
ARC
  8
0
  6
CONTINUOUS
 62
       7
  5
2CF
 10
109.24429028
 20
74.21731253
 30
0.0
 40
1.0
 50
180.0
 51
270.0
  0
ARC
  8
0
  6
CONTINUOUS
 62
       7
  5
2D0
 10
109.24429028
 20
81.21731253
 30
0.0
 40
1.0
 50
90.0
 51
180.0
  0
ARC
  8
0
  6
CONTINUOUS
 62
       7
  5
2D1
 10
114.74429028
 20
87.21731253
 30
0.0
 40
1.0
 50
90.0
 51
180.0
  0
ARC
  8
0
  6
CONTINUOUS
 62
       7
  5
2D2
 10
111.24429028
 20
83.21731253
 30
0.0
 40
1.0
 50
270.0
 51
0.0
  0
ARC
  8
0
  6
CONTINUOUS
 62
       7
  5
2D3
 10
119.17234423
 20
72.21731253
 30
0.0
 40
1.0
 50
30.46554492
 51
90.0
  0
ARC
  8
0
  6
CONTINUOUS
 62
       7
  5
2D4
 10
115.24429028
 20
87.38636063
 30
0.0
 40
3.0
 50
149.03624347
 51
180.0
  0
ARC
  8
0
  6
CONTINUOUS
 62
       7
  5
2D5
 10
112.24429028
 20
94.04826442
 30
0.0
 40
3.0
 50
329.03624347
 51
0.0
  0
ARC
  8
0
  6
CONTINUOUS
 62
       7
  5
2D6
 10
125.31623633
 20
65.71731253
 30
0.0
 40
1.0
 50
210.46554492
 51
270.0
  0
LINE
  8
0
  6
CONTINUOUS
 62
       7
  5
2D7
 10
128.39429028
 20
67.74801342
 30
0.0
 11
132.21152507
 21
67.74801342
 31
0.0
  0
LINE
  8
0
  6
CONTINUOUS
 62
       7
  5
2D8
 10
128.39429028
 20
65.71417642
 30
0.0
 11
128.39429028
 21
67.74801342
 31
0.0
  0
LINE
  8
0
  6
CONTINUOUS
 62
       7
  5
2D9
 10
115.24429028
 20
94.04826442
 30
0.0
 11
115.24429028
 21
100.84319285
 31
0.0
  0
POLYLINE
  8
0
  6
CONTINUOUS
 62
       7
  5
2DA
 66
       1
 10
0.0
 20
0.0
 30
0.0
  0
VERTEX
  8
0
  6
CONTINUOUS
 62
       7
  5
4EB
 10
126.36656138
 20
65.73861812
 30
0.0
  0
VERTEX
  8
0
  6
CONTINUOUS
 62
       7
  5
4EC
 10
126.32376497
 20
65.73859865
 30
0.0
  0
VERTEX
  8
0
  6
CONTINUOUS
 62
       7
  5
4ED
 10
126.28109396
 20
65.73748369
 30
0.0
  0
VERTEX
  8
0
  6
CONTINUOUS
 62
       7
  5
4EE
 10
126.23860503
 20
65.73523755
 30
0.0
  0
VERTEX
  8
0
  6
CONTINUOUS
 62
       7
  5
4EF
 10
126.19635486
 20
65.73182455
 30
0.0
  0
VERTEX
  8
0
  6
CONTINUOUS
 62
       7
  5
4F0
 10
126.15440013
 20
65.72720902
 30
0.0
  0
VERTEX
  8
0
  6
CONTINUOUS
 62
       7
  5
4F1
 10
126.11279752
 20
65.72135527
 30
0.0
  0
VERTEX
  8
0
  6
CONTINUOUS
 62
       7
  5
4F2
 10
126.07160371
 20
65.71422762
 30
0.0
  0
VERTEX
  8
0
  6
CONTINUOUS
 62
       7
  5
4F3
 10
126.03087536
 20
65.70579039
 30
0.0
  0
VERTEX
  8
0
  6
CONTINUOUS
 62
       7
  5
4F4
 10
125.99066917
 20
65.69600789
 30
0.0
  0
VERTEX
  8
0
  6
CONTINUOUS
 62
       7
  5
4F5
 10
125.95104181
 20
65.68484445
 30
0.0
  0
VERTEX
  8
0
  6
CONTINUOUS
 62
       7
  5
4F6
 10
125.91204995
 20
65.67226439
 30
0.0
  0
VERTEX
  8
0
  6
CONTINUOUS
 62
       7
  5
4F7
 10
125.87375028
 20
65.65823202
 30
0.0
  0
VERTEX
  8
0
  6
CONTINUOUS
 62
       7
  5
4F8
 10
125.83619948
 20
65.64271167
 30
0.0
  0
VERTEX
  8
0
  6
CONTINUOUS
 62
       7
  5
4F9
 10
125.79945422
 20
65.62566764
 30
0.0
  0
VERTEX
  8
0
  6
CONTINUOUS
 62
       7
  5
4FA
 10
125.76357118
 20
65.60706427
 30
0.0
  0
VERTEX
  8
0
  6
CONTINUOUS
 62
       7
  5
4FB
 10
125.72860703
 20
65.58686586
 30
0.0
  0
VERTEX
  8
0
  6
CONTINUOUS
 62
       7
  5
4FC
 10
125.67600006
 20
65.5521603
 30
0.0
  0
VERTEX
  8
0
  6
CONTINUOUS
 62
       7
  5
4FD
 10
125.62574775
 20
65.51376284
 30
0.0
  0
VERTEX
  8
0
  6
CONTINUOUS
 62
       7
  5
4FE
 10
125.57783126
 20
65.47194903
 30
0.0
  0
VERTEX
  8
0
  6
CONTINUOUS
 62
       7
  5
4FF
 10
125.53223173
 20
65.42699441
 30
0.0
  0
VERTEX
  8
0
  6
CONTINUOUS
 62
       7
  5
500
 10
125.48893032
 20
65.37917453
 30
0.0
  0
VERTEX
  8
0
  6
CONTINUOUS
 62
       7
  5
501
 10
125.44790816
 20
65.32876491
 30
0.0
  0
VERTEX
  8
0
  6
CONTINUOUS
 62
       7
  5
502
 10
125.40914641
 20
65.27604111
 30
0.0
  0
VERTEX
  8
0
  6
CONTINUOUS
 62
       7
  5
503
 10
125.37262621
 20
65.22127865
 30
0.0
  0
VERTEX
  8
0
  6
CONTINUOUS
 62
       7
  5
504
 10
125.3383287
 20
65.16475309
 30
0.0
  0
VERTEX
  8
0
  6
CONTINUOUS
 62
       7
  5
505
 10
125.30623504
 20
65.10673996
 30
0.0
  0
VERTEX
  8
0
  6
CONTINUOUS
 62
       7
  5
506
 10
125.27632638
 20
65.04751481
 30
0.0
  0
VERTEX
  8
0
  6
CONTINUOUS
 62
       7
  5
507
 10
125.24858385
 20
64.98735316
 30
0.0
  0
VERTEX
  8
0
  6
CONTINUOUS
 62
       7
  5
508
 10
125.2229886
 20
64.92653057
 30
0.0
  0
VERTEX
  8
0
  6
CONTINUOUS
 62
       7
  5
509
 10
125.19952178
 20
64.86532257
 30
0.0
  0
VERTEX
  8
0
  6
CONTINUOUS
 62
       7
  5
50A
 10
125.17816454
 20
64.80400471
 30
0.0
  0
VERTEX
  8
0
  6
CONTINUOUS
 62
       7
  5
50B
 10
125.15889803
 20
64.74285252
 30
0.0
  0
SEQEND
  8
0
  6
CONTINUOUS
 62
       7
  5
50C
  0
ARC
  8
0
  6
CONTINUOUS
 62
       7
  5
2DB
 10
128.39429028
 20
61.71731253
 30
0.0
 40
0.7
 50
51.16567846
 51
314.4153086
  0
LINE
  8
0
  6
CONTINUOUS
 62
       2
  5
2DC
 10
153.09429028
 20
55.9203802
 30
0.0
 11
153.09429028
 21
65.02653547
 31
0.0
  0
LINE
  8
0
  6
CONTINUOUS
 62
       7
  5
2DD
 10
157.71309243
 20
58.71731254
 30
0.0
 11
157.71309243
 21
63.71731253
 31
0.0
  0
LINE
  8
0
  6
CONTINUOUS
 62
       7
  5
2DE
 10
148.47548813
 20
58.71731254
 30
0.0
 11
148.47548813
 21
63.36004707
 31
0.0
  0
LINE
  8
0
  6
CONTINUOUS
 62
       7
  5
2DF
 10
149.49429028
 20
64.71731253
 30
0.0
 11
154.28790079
 21
67.71731253
 31
0.0
  0
POLYLINE
  8
0
  6
CONTINUOUS
 62
       7
  5
2E0
 66
       1
 10
0.0
 20
0.0
 30
0.0
  0
VERTEX
  8
0
  6
CONTINUOUS
 62
       7
  5
50D
 10
156.49429028
 20
67.71731253
 30
0.0
  0
VERTEX
  8
0
  6
CONTINUOUS
 62
       7
  5
50E
 10
156.75534266
 20
67.66598169
 30
0.0
  0
VERTEX
  8
0
  6
CONTINUOUS
 62
       7
  5
50F
 10
157.01192837
 20
67.51286748
 30
0.0
  0
VERTEX
  8
0
  6
CONTINUOUS
 62
       7
  5
510
 10
157.25965714
 20
67.26058972
 30
0.0
  0
VERTEX
  8
0
  6
CONTINUOUS
 62
       7
  5
511
 10
157.49429028
 20
66.91346495
 30
0.0
  0
VERTEX
  8
0
  6
CONTINUOUS
 62
       7
  5
512
 10
157.71181314
 20
66.47743257
 30
0.0
  0
VERTEX
  8
0
  6
CONTINUOUS
 62
       7
  5
513
 10
157.90850384
 20
65.95995321
 30
0.0
  0
VERTEX
  8
0
  6
CONTINUOUS
 62
       7
  5
514
 10
158.08099696
 20
65.3698811
 30
0.0
  0
VERTEX
  8
0
  6
CONTINUOUS
 62
       7
  5
515
 10
158.22634109
 20
64.71731253
 30
0.0
  0
VERTEX
  8
0
  6
CONTINUOUS
 62
       7
  5
516
 10
158.34204935
 20
64.01341312
 30
0.0
  0
VERTEX
  8
0
  6
CONTINUOUS
 62
       7
  5
517
 10
158.42614193
 20
63.2702268
 30
0.0
  0
VERTEX
  8
0
  6
CONTINUOUS
 62
       7
  5
518
 10
158.47718
 20
62.50046968
 30
0.0
  0
VERTEX
  8
0
  6
CONTINUOUS
 62
       7
  5
519
 10
158.49429028
 20
61.71731253
 30
0.0
  0
VERTEX
  8
0
  6
CONTINUOUS
 62
       7
  5
51A
 10
158.47718
 20
60.93415537
 30
0.0
  0
VERTEX
  8
0
  6
CONTINUOUS
 62
       7
  5
51B
 10
158.42614193
 20
60.16439825
 30
0.0
  0
VERTEX
  8
0
  6
CONTINUOUS
 62
       7
  5
51C
 10
158.34204935
 20
59.42121193
 30
0.0
  0
VERTEX
  8
0
  6
CONTINUOUS
 62
       7
  5
51D
 10
158.22634109
 20
58.71731253
 30
0.0
  0
SEQEND
  8
0
  6
CONTINUOUS
 62
       7
  5
51E
  0
LINE
  8
0
  6
CONTINUOUS
 62
       7
  5
2E1
 10
161.45430212
 20
72.72433265
 30
0.0
 11
157.74032232
 21
66.41056699
 31
0.0
  0
LINE
  8
0
  6
CONTINUOUS
 62
       7
  5
2E2
 10
148.49429028
 20
63.37276092
 30
0.0
 11
148.49429028
 21
64.71731253
 31
0.0
  0
LINE
  8
0
  6
CONTINUOUS
 62
       7
  5
2E3
 10
157.71309243
 20
59.71731253
 30
0.0
 11
148.47548813
 21
59.71731253
 31
0.0
  0
LINE
  8
0
  6
CONTINUOUS
 62
       7
  5
2E4
 10
157.71309243
 20
63.71731253
 30
0.0
 11
148.49429028
 21
63.71731253
 31
0.0
  0
LINE
  8
0
  6
CONTINUOUS
 62
       7
  5
2E5
 10
153.09429028
 20
59.71731253
 30
0.0
 11
153.09429028
 21
63.36004702
 31
0.0
  0
POLYLINE
  8
0
  6
CONTINUOUS
 62
       7
  5
2E6
 66
       1
 10
0.0
 20
0.0
 30
0.0
  0
VERTEX
  8
0
  6
CONTINUOUS
 62
       7
  5
51F
 10
149.49429028
 20
64.71731253
 30
0.0
  0
VERTEX
  8
0
  6
CONTINUOUS
 62
       7
  5
520
 10
149.59875543
 20
64.70089817
 30
0.0
  0
VERTEX
  8
0
  6
CONTINUOUS
 62
       7
  5
521
 10
149.70207742
 20
64.65183473
 30
0.0
  0
VERTEX
  8
0
  6
CONTINUOUS
 62
       7
  5
522
 10
149.80312562
 20
64.57065909
 30
0.0
  0
VERTEX
  8
0
  6
CONTINUOUS
 62
       7
  5
523
 10
149.90079426
 20
64.45825955
 30
0.0
  0
VERTEX
  8
0
  6
CONTINUOUS
 62
       7
  5
524
 10
149.99401457
 20
64.3158661
 30
0.0
  0
VERTEX
  8
0
  6
CONTINUOUS
 62
       7
  5
525
 10
150.08176645
 20
64.14503693
 30
0.0
  0
VERTEX
  8
0
  6
CONTINUOUS
 62
       7
  5
526
 10
150.16308963
 20
63.9476414
 30
0.0
  0
VERTEX
  8
0
  6
CONTINUOUS
 62
       7
  5
527
 10
150.2370942
 20
63.7258396
 30
0.0
  0
VERTEX
  8
0
  6
CONTINUOUS
 62
       7
  5
528
 10
150.23964627
 20
63.71731253
 30
0.0
  0
SEQEND
  8
0
  6
CONTINUOUS
 62
       7
  5
529
  0
ARC
  8
0
  6
CONTINUOUS
 62
       7
  5
2E7
 10
150.7848892
 20
56.07457639
 30
0.0
 40
7.64273613
 50
72.41205032
 51
107.58794958
  0
ARC
  8
0
  6
CONTINUOUS
 62
       7
  5
2E8
 10
155.40369136
 20
56.07457639
 30
0.0
 40
7.64273613
 50
72.41205032
 51
107.58794968
  0
LINE
  8
0
  6
CONTINUOUS
 62
       7
  5
2E9
 10
139.99429028
 20
58.71731253
 30
0.0
 11
139.99429028
 21
64.71731253
 31
0.0
  0
LINE
  8
0
  6
CONTINUOUS
 62
       7
  5
2EA
 10
130.77370919
 20
58.71731253
 30
0.0
 11
139.99429028
 21
58.71731253
 31
0.0
  0
LINE
  8
0
  6
CONTINUOUS
 62
       7
  5
2EB
 10
122.24429028
 20
52.71731253
 30
0.0
 11
122.24429028
 21
57.71731253
 31
0.0
  0
LINE
  8
0
  6
CONTINUOUS
 62
       7
  5
2EC
 10
123.24429028
 20
58.71731253
 30
0.0
 11
128.39429028
 21
58.71731253
 31
0.0
  0
ARC
  8
0
  6
CONTINUOUS
 62
       7
  5
2ED
 10
123.24429028
 20
57.71731253
 30
0.0
 40
1.0
 50
90.0
 51
180.0
  0
LINE
  8
0
  6
CONTINUOUS
 62
       7
  5
2EE
 10
133.24429028
 20
58.71731253
 30
0.0
 11
133.24429028
 21
52.71731253
 31
0.0
  0
ARC
  8
0
  6
CONTINUOUS
 62
       7
  5
2EF
 10
123.8327314
 20
61.71731253
 30
0.0
 40
7.56155888
 50
307.10347874
 51
52.89652126
  0
LINE
  8
0
  6
CONTINUOUS
 62
       7
  5
2F0
 10
128.39429028
 20
55.68661163
 30
0.0
 11
128.39429028
 21
58.71731253
 31
0.0
  0
LINE
  8
0
  6
CONTINUOUS
 62
       7
  5
2F1
 10
143.89621407
 20
58.71731253
 30
0.0
 11
158.24429028
 21
58.71731253
 31
0.0
  0
LINE
  8
0
  6
CONTINUOUS
 62
       7
  5
2F2
 10
159.24429028
 20
52.71731253
 30
0.0
 11
159.24429028
 21
57.71731253
 31
0.0
  0
ARC
  8
0
  6
CONTINUOUS
 62
       7
  5
2F3
 10
158.24429028
 20
57.71731253
 30
0.0
 40
1.0
 50
0.0
 51
90.0
  0
LINE
  8
0
  6
CONTINUOUS
 62
       7
  5
2F4
 10
154.28790079
 20
67.71731253
 30
0.0
 11
156.49429034
 21
67.71731253
 31
0.0
  0
POLYLINE
  8
0
  6
CONTINUOUS
 62
       7
  5
2F5
 66
       1
 10
0.0
 20
0.0
 30
0.0
  0
VERTEX
  8
0
  6
CONTINUOUS
 62
       7
  5
52A
 10
154.67743117
 20
67.71731253
 30
0.0
  0
VERTEX
  8
0
  6
CONTINUOUS
 62
       7
  5
52B
 10
154.9065735
 20
67.67780278
 30
0.0
  0
VERTEX
  8
0
  6
CONTINUOUS
 62
       7
  5
52C
 10
155.13269806
 20
67.55979389
 30
0.0
  0
VERTEX
  8
0
  6
CONTINUOUS
 62
       7
  5
52D
 10
155.35282679
 20
67.36484002
 30
0.0
  0
VERTEX
  8
0
  6
CONTINUOUS
 62
       7
  5
52E
 10
155.56406061
 20
67.0955087
 30
0.0
  0
VERTEX
  8
0
  6
CONTINUOUS
 62
       7
  5
52F
 10
155.7636176
 20
66.75534699
 30
0.0
  0
VERTEX
  8
0
  6
CONTINUOUS
 62
       7
  5
530
 10
155.94886961
 20
66.3488348
 30
0.0
  0
VERTEX
  8
0
  6
CONTINUOUS
 62
       7
  5
531
 10
156.11737688
 20
65.88132585
 30
0.0
  0
VERTEX
  8
0
  6
CONTINUOUS
 62
       7
  5
532
 10
156.26692019
 20
65.35897721
 30
0.0
  0
VERTEX
  8
0
  6
CONTINUOUS
 62
       7
  5
533
 10
156.39553007
 20
64.78866815
 30
0.0
  0
VERTEX
  8
0
  6
CONTINUOUS
 62
       7
  5
534
 10
156.50151273
 20
64.1779096
 30
0.0
  0
VERTEX
  8
0
  6
CONTINUOUS
 62
       7
  5
535
 10
156.53386886
 20
63.94952034
 30
0.0
  0
VERTEX
  8
0
  6
CONTINUOUS
 62
       7
  5
536
 10
156.56304925
 20
63.71731253
 30
0.0
  0
SEQEND
  8
0
  6
CONTINUOUS
 62
       7
  5
537
  0
LINE
  8
0
  6
CONTINUOUS
 62
       7
  5
2F6
 10
172.24429028
 20
73.21731253
 30
0.0
 11
148.49025697
 21
73.21731253
 31
0.0
  0
LINE
  8
0
  6
CONTINUOUS
 62
       2
  5
2F7
 10
136.50013424
 20
73.21731267
 30
0.0
 11
144.98844632
 21
73.21731267
 31
0.0
  0
LINE
  8
0
  6
CONTINUOUS
 62
       7
  5
2F8
 10
138.97652316
 20
74.98507946
 30
0.0
 11
142.5120571
 21
71.44954551
 31
0.0
  0
LINE
  8
0
  6
CONTINUOUS
 62
       7
  5
2F9
 10
138.97652328
 20
71.44954567
 30
0.0
 11
142.51205706
 21
74.98507946
 31
0.0
  0
ARC
  8
0
  6
CONTINUOUS
 62
       7
  5
2FA
 10
148.49025697
 20
71.21731253
 30
0.0
 40
2.0
 50
90.0
 51
165.52248781
  0
ARC
  8
0
  6
CONTINUOUS
 62
       7
  5
2FB
 10
140.74429028
 20
73.21731253
 30
0.0
 40
6.0
 50
194.47751219
 51
345.52248781
  0
CIRCLE
  8
0
  6
CONTINUOUS
 62
       7
  5
2FC
 10
140.74429028
 20
73.21731253
 30
0.0
 40
3.35
  0
LINE
  8
0
  6
CONTINUOUS
 62
       7
  5
2FD
 10
167.74429028
 20
88.21731253
 30
0.0
 11
165.82660315
 21
99.72343533
 31
0.0
  0
LINE
  8
0
  6
CONTINUOUS
 62
       2
  5
2FE
 10
145.74429028
 20
93.7120125
 30
0.0
 11
145.74429028
 21
106.04505646
 31
0.0
  0
ARC
  8
0
  6
CONTINUOUS
 62
       7
  5
2FF
 10
140.74429028
 20
109.71731253
 30
0.0
 40
27.0
 50
259.18340831
 51
340.81659184
  0
ARC
  8
0
  6
CONTINUOUS
 62
       7
  5
300
 10
168.24429028
 20
86.99655331
 30
0.0
 40
1.0
 50
360.0
 51
71.56505118
  0
ARC
  8
0
  6
CONTINUOUS
 62
       7
  5
301
 10
172.24429028
 20
74.21731253
 30
0.0
 40
1.0
 50
270.0
 51
0.0
  0
LINE
  8
0
  6
CONTINUOUS
 62
       7
  5
302
 10
173.24429028
 20
74.21731253
 30
0.0
 11
173.24429028
 21
81.21731253
 31
0.0
  0
LINE
  8
0
  6
CONTINUOUS
 62
       7
  5
303
 10
172.24429028
 20
82.21731253
 30
0.0
 11
167.74429028
 21
82.21731253
 31
0.0
  0
LINE
  8
0
  6
CONTINUOUS
 62
       7
  5
304
 10
166.74429028
 20
88.21731253
 30
0.0
 11
157.07677325
 21
88.21731253
 31
0.0
  0
LINE
  8
0
  6
CONTINUOUS
 62
       7
  5
305
 10
167.74429028
 20
73.21731253
 30
0.0
 11
167.74429028
 21
88.21731253
 31
0.0
  0
LINE
  8
0
  6
CONTINUOUS
 62
       7
  5
306
 10
156.24429028
 20
73.21731253
 30
0.0
 11
156.24429028
 21
87.60962156
 31
0.0
  0
LINE
  8
0
  6
CONTINUOUS
 62
       7
  5
307
 10
155.24429028
 20
82.21731253
 30
0.0
 11
133.98040663
 21
82.21731253
 31
0.0
  0
LINE
  8
0
  6
CONTINUOUS
 62
       7
  5
308
 10
169.24429028
 20
83.21731253
 30
0.0
 11
169.24429028
 21
86.99655331
 31
0.0
  0
LINE
  8
0
  6
CONTINUOUS
 62
       7
  5
309
 10
168.56051805
 20
87.9452366
 30
0.0
 11
167.74429028
 21
88.21731253
 31
0.0
  0
ARC
  8
0
  6
CONTINUOUS
 62
       7
  5
30A
 10
170.24429028
 20
83.21731253
 30
0.0
 40
1.0
 50
180.0
 51
270.0
  0
ARC
  8
0
  6
CONTINUOUS
 62
       7
  5
30B
 10
172.24429028
 20
81.21731253
 30
0.0
 40
1.0
 50
0.0
 51
90.0
  0
ARC
  8
0
  6
CONTINUOUS
 62
       7
  5
30C
 10
162.31623633
 20
72.21731253
 30
0.0
 40
1.0
 50
90.0
 51
149.53445508
  0
ARC
  8
0
  6
CONTINUOUS
 62
       7
  5
30D
 10
166.74429028
 20
87.21731253
 30
0.0
 40
1.0
 50
0.0
 51
90.0
  0
ARC
  8
0
  6
CONTINUOUS
 62
       7
  5
30E
 10
155.24429028
 20
83.21731253
 30
0.0
 40
1.0
 50
270.0
 51
0.0
  0
LINE
  8
0
  6
CONTINUOUS
 62
       7
  5
30F
 10
166.24429028
 20
118.5914322
 30
0.0
 11
166.24429028
 21
126.21731253
 31
0.0
  0
ARC
  8
0
  6
CONTINUOUS
 62
       7
  5
310
 10
155.24429028
 20
126.21731253
 30
0.0
 40
11.0
 50
0.0
 51
90.0
  0
LINE
  8
0
  6
CONTINUOUS
 62
       2
  5
311
 10
145.74429028
 20
112.78255269
 30
0.0
 11
145.74429028
 21
125.4581812
 31
0.0
  0
ARC
  8
0
  6
CONTINUOUS
 62
       7
  5
312
 10
140.74429028
 20
109.71731253
 30
0.0
 40
27.0
 50
19.18340814
 51
100.81659183
  0
LINE
  8
0
  6
CONTINUOUS
 62
       7
  5
313
 10
166.24429028
 20
118.58975056
 30
0.0
 11
172.61180373
 21
114.91346495
 31
0.0
  0
LINE
  8
0
  6
CONTINUOUS
 62
       7
  5
314
 10
142.24429028
 20
121.23803873
 30
0.0
 11
142.24429028
 21
117.19658728
 31
0.0
  0
LINE
  8
0
  6
CONTINUOUS
 62
       7
  5
315
 10
149.24429028
 20
121.23803873
 30
0.0
 11
149.24429028
 21
117.19658728
 31
0.0
  0
LINE
  8
0
  6
CONTINUOUS
 62
       7
  5
316
 10
145.7442901
 20
115.17586178
 30
0.0
 11
149.24428991
 21
117.19658727
 31
0.0
  0
LINE
  8
0
  6
CONTINUOUS
 62
       7
  5
317
 10
142.24429017
 20
117.19658644
 30
0.0
 11
145.74428998
 21
115.17586095
 31
0.0
  0
CIRCLE
  8
0
  6
CONTINUOUS
 62
       7
  5
318
 10
145.74429028
 20
119.21731253
 30
0.0
 40
3.5
  0
CIRCLE
  8
0
  6
CONTINUOUS
 62
       2
  5
319
 10
145.74429028
 20
119.21731253
 30
0.0
 40
2.0
  0
CIRCLE
  8
0
  6
CONTINUOUS
 62
       7
  5
31A
 10
145.74429028
 20
119.21731253
 30
0.0
 40
1.62099934
  0
LINE
  8
0
  6
CONTINUOUS
 62
       7
  5
31B
 10
145.74428928
 20
123.25876375
 30
0.0
 11
149.24428908
 21
121.23803826
 31
0.0
  0
LINE
  8
0
  6
CONTINUOUS
 62
       7
  5
31C
 10
142.244291
 20
121.23803909
 30
0.0
 11
145.74428998
 21
123.2587641
 31
0.0
  0
ARC
  8
0
  6
CONTINUOUS
 62
       7
  5
31D
 10
142.24429028
 20
109.71731253
 30
0.0
 40
1.5
 50
90.0
 51
270.0
  0
LINE
  8
0
  6
CONTINUOUS
 62
       7
  5
31E
 10
142.24429028
 20
108.21731253
 30
0.0
 11
159.68498721
 21
108.21731253
 31
0.0
  0
LINE
  8
0
  6
CONTINUOUS
 62
       7
  5
31F
 10
142.24429028
 20
111.21731253
 30
0.0
 11
159.68498721
 21
111.21731253
 31
0.0
  0
CIRCLE
  8
0
  6
CONTINUOUS
 62
       7
  5
320
 10
145.74429028
 20
100.21731253
 30
0.0
 40
1.62099934
  0
CIRCLE
  8
0
  6
CONTINUOUS
 62
       2
  5
321
 10
145.74429028
 20
100.21731253
 30
0.0
 40
2.0
  0
CIRCLE
  8
0
  6
CONTINUOUS
 62
       7
  5
322
 10
145.74429028
 20
100.21731253
 30
0.0
 40
3.5
  0
LINE
  8
0
  6
CONTINUOUS
 62
       7
  5
323
 10
142.24429017
 20
98.19658644
 30
0.0
 11
145.74428998
 21
96.17586095
 31
0.0
  0
LINE
  8
0
  6
CONTINUOUS
 62
       7
  5
324
 10
145.74428928
 20
104.25876375
 30
0.0
 11
149.24428908
 21
102.23803826
 31
0.0
  0
LINE
  8
0
  6
CONTINUOUS
 62
       7
  5
325
 10
145.7442901
 20
96.17586178
 30
0.0
 11
149.24428991
 21
98.19658727
 31
0.0
  0
LINE
  8
0
  6
CONTINUOUS
 62
       7
  5
326
 10
142.244291
 20
102.23803909
 30
0.0
 11
145.74428998
 21
104.2587641
 31
0.0
  0
LINE
  8
0
  6
CONTINUOUS
 62
       7
  5
327
 10
149.24429028
 20
102.23803873
 30
0.0
 11
149.24429028
 21
98.19658728
 31
0.0
  0
LINE
  8
0
  6
CONTINUOUS
 62
       7
  5
328
 10
142.24429028
 20
102.23803873
 30
0.0
 11
142.24429028
 21
98.19658728
 31
0.0
  0
LINE
  8
0
  6
CONTINUOUS
 62
       2
  5
329
 10
139.23803989
 20
100.21731253
 30
0.0
 11
151.45688899
 21
100.21731253
 31
0.0
  0
LINE
  8
0
  6
CONTINUOUS
 62
       7
  5
32A
 10
172.61180374
 20
104.52116011
 30
0.0
 11
166.24502252
 21
100.84529725
 31
0.0
  0
CIRCLE
  8
0
  6
CONTINUOUS
 62
       7
  5
32B
 10
169.61180373
 20
109.71731253
 30
0.0
 40
4.0
  0
LINE
  8
0
  6
CONTINUOUS
 62
       7
  5
32C
 10
169.61180373
 20
107.71731253
 30
0.0
 11
171.34385454
 21
108.71731253
 31
0.0
  0
LINE
  8
0
  6
CONTINUOUS
 62
       7
  5
32D
 10
171.34385454
 20
110.71731253
 30
0.0
 11
169.61180373
 21
111.71731253
 31
0.0
  0
LINE
  8
0
  6
CONTINUOUS
 62
       7
  5
32E
 10
167.87975292
 20
108.71731253
 30
0.0
 11
169.61180373
 21
107.71731253
 31
0.0
  0
LINE
  8
0
  6
CONTINUOUS
 62
       7
  5
32F
 10
167.87975292
 20
110.71731253
 30
0.0
 11
167.87975292
 21
108.71731253
 31
0.0
  0
LINE
  8
0
  6
CONTINUOUS
 62
       7
  5
330
 10
169.61180373
 20
111.71731253
 30
0.0
 11
167.87975292
 21
110.71731253
 31
0.0
  0
ARC
  8
0
  6
CONTINUOUS
 62
       2
  5
331
 10
140.74429028
 20
109.71731253
 30
0.0
 40
28.86751345
 50
350.37761262
 51
10.28882866
  0
ARC
  8
0
  6
CONTINUOUS
 62
       7
  5
332
 10
169.61180373
 20
109.71731253
 30
0.0
 40
6.0
 50
300.00000007
 51
59.99999998
  0
LINE
  8
0
  6
CONTINUOUS
 62
       7
  5
333
 10
171.34385454
 20
108.71731253
 30
0.0
 11
171.34385454
 21
110.71731253
 31
0.0
  0
ARC
  8
0
  6
CONTINUOUS
 62
       7
  5
334
 10
126.31053357
 20
134.71731253
 30
0.0
 40
6.0
 50
59.99999998
 51
180.00000005
  0
ARC
  8
0
  6
CONTINUOUS
 62
       2
  5
335
 10
140.74429028
 20
109.71731253
 30
0.0
 40
28.86751345
 50
110.91233113
 51
131.62090089
  0
CIRCLE
  8
0
  6
CONTINUOUS
 62
       7
  5
336
 10
126.31053357
 20
134.71731253
 30
0.0
 40
4.0
  0
LINE
  8
0
  6
CONTINUOUS
 62
       7
  5
337
 10
127.50015354
 20
133.10957986
 30
0.0
 11
128.29768089
 21
134.94368731
 31
0.0
  0
LINE
  8
0
  6
CONTINUOUS
 62
       7
  5
338
 10
128.29768089
 20
134.94368731
 30
0.0
 11
127.10806092
 21
136.55141997
 31
0.0
  0
LINE
  8
0
  6
CONTINUOUS
 62
       7
  5
339
 10
124.32338625
 20
134.49093775
 30
0.0
 11
125.51300622
 21
132.88320508
 31
0.0
  0
LINE
  8
0
  6
CONTINUOUS
 62
       7
  5
33A
 10
125.1209136
 20
136.32504519
 30
0.0
 11
124.32338625
 21
134.49093775
 31
0.0
  0
LINE
  8
0
  6
CONTINUOUS
 62
       7
  5
33B
 10
127.10806092
 20
136.55141997
 30
0.0
 11
125.1209136
 21
136.32504519
 31
0.0
  0
LINE
  8
0
  6
CONTINUOUS
 62
       7
  5
33C
 10
125.51300622
 20
132.88320508
 30
0.0
 11
127.50015354
 21
133.10957986
 31
0.0
  0
LINE
  8
0
  6
CONTINUOUS
 62
       7
  5
33D
 10
129.31053357
 20
139.91346495
 30
0.0
 11
135.67731478
 21
136.2376021
 31
0.0
  0
LINE
  8
0
  6
CONTINUOUS
 62
       7
  5
33E
 10
155.24429028
 20
137.21731253
 30
0.0
 11
133.98040655
 21
137.21731253
 31
0.0
  0
LINE
  8
0
  6
CONTINUOUS
 62
       2
  5
33F
 10
139.58062444
 20
119.21731253
 30
0.0
 11
151.2198169
 21
119.21731253
 31
0.0
  0
LINE
  8
0
  6
CONTINUOUS
 62
       2
  5
340
 10
140.74429028
 20
-50.98840132
 30
0.0
 11
140.74429028
 21
157.76466206
 31
0.0
  0
LINE
  8
0
  6
CONTINUOUS
 62
       2
  5
341
 10
-64.4240307
 20
84.71731253
 30
0.0
 11
-46.39481967
 21
84.71731253
 31
0.0
  0
LINE
  8
0
  6
CONTINUOUS
 62
       7
  5
342
 10
282.09985352
 20
195.5
 30
0.0
 11
282.09985352
 21
-195.0
 31
0.0
  0
LINE
  8
0
  6
CONTINUOUS
 62
       7
  5
343
 10
-281.25
 20
195.5
 30
0.0
 11
282.09985352
 21
195.5
 31
0.0
  0
LINE
  8
0
  6
CONTINUOUS
 62
       7
  5
344
 10
-281.25
 20
195.5
 30
0.0
 11
-281.25
 21
-195.0
 31
0.0
  0
LINE
  8
0
  6
CONTINUOUS
 62
       7
  5
345
 10
-281.25
 20
-195.0
 30
0.0
 11
282.09985352
 21
-195.0
 31
0.0
  0
TEXT
  8
0
  6
CONTINUOUS
 62
       7
  5
346
 10
-268.27500006
 20
167.3499999
 30
0.0
 40
6.30000019
  1
MODEL:EP254-4E1
 41
1.07142857
  7
MX_NOTE_STANDARD
 11
-268.27500006
 21
170.5
 31
0.0
 73
       2
  0
ENDSEC
  0
EOF
