  0
SECTION
  2
HEADER
  9
$ACADVER
  1
AC1009
  9
$INSBASE
 10
0.0
 20
0.0
 30
0.0
  9
$EXTMIN
 10
-281.25
 20
-195.0
 30
0.0
  9
$EXTMAX
 10
285.59998798
 20
195.5
 30
0.0
  9
$LIMMIN
 10
-281.25
 20
-195.0
  9
$LIMMAX
 10
285.59998798
 20
195.5
  9
$ORTHOMODE
 70
       0
  9
$REGENMODE
 70
       1
  9
$FILLMODE
 70
       1
  9
$QTEXTMODE
 70
       0
  9
$MIRRTEXT
 70
       1
  9
$DRAGMODE
 70
       2
  9
$LTSCALE
 40
1.0
  9
$OSMODE
 70
       0
  9
$ATTMODE
 70
       1
  9
$TEXTSIZE
 40
3.20000005
  9
$TRACEWID
 40
0.05
  9
$TEXTSTYLE
  7
MX_NOTE_STANDARD
  9
$CLAYER
  8
0
  9
$CELTYPE
  6
CONTINUOUS
  9
$CECOLOR
 62
     256
  9
$DIMSCALE
 40
1.0
  9
$DIMASZ
 40
2.5
  9
$DIMEXO
 40
1.5
  9
$DIMDLI
 40
3.75
  9
$DIMRND
 40
0.0
  9
$DIMDLE
 40
0.0
  9
$DIMEXE
 40
1.5
  9
$DIMTP
 40
0.0
  9
$DIMTM
 40
0.0
  9
$DIMTXT
 40
3.20000005
  9
$DIMCEN
 40
2.5
  9
$DIMTSZ
 40
0.0
  9
$DIMTOL
 70
       0
  9
$DIMLIM
 70
       0
  9
$DIMTIH
 70
       0
  9
$DIMTOH
 70
       0
  9
$DIMSE1
 70
       0
  9
$DIMSE2
 70
       0
  9
$DIMTAD
 70
       1
  9
$DIMZIN
 70
       8
  9
$DIMBLK
  1

  9
$DIMASO
 70
       1
  9
$DIMSHO
 70
       1
  9
$DIMPOST
  1

  9
$DIMAPOST
  1

  9
$DIMALT
 70
       0
  9
$DIMALTD
 70
       4
  9
$DIMALTF
 40
0.0394
  9
$DIMLFAC
 40
1.0
  9
$DIMTOFL
 70
       1
  9
$DIMTVP
 40
0.0
  9
$DIMTIX
 70
       0
  9
$DIMSOXD
 70
       0
  9
$DIMSAH
 70
       0
  9
$DIMBLK1
  1

  9
$DIMBLK2
  1

  9
$DIMSTYLE
  2
MXDIMSTYLE
  9
$DIMCLRD
 70
       0
  9
$DIMCLRE
 70
       0
  9
$DIMCLRT
 70
       0
  9
$DIMTFAC
 40
1.0
  9
$DIMGAP
 40
1.0
  9
$LUNITS
 70
       2
  9
$LUPREC
 70
       4
  9
$AXISMODE
 70
       0
  9
$AXISUNIT
 10
0.0
 20
0.0
  9
$SKETCHINC
 40
0.1
  9
$FILLETRAD
 40
0.0
  9
$AUNITS
 70
       0
  9
$AUPREC
 70
       0
  9
$MENU
  1
acad
  9
$ELEVATION
 40
0.0
  9
$PELEVATION
 40
0.0
  9
$THICKNESS
 40
0.0
  9
$LIMCHECK
 70
       0
  9
$BLIPMODE
 70
       1
  9
$CHAMFERA
 40
0.0
  9
$CHAMFERB
 40
0.0
  9
$SKPOLY
 70
       0
  9
$TDCREATE
 40
2452754.618263889
  9
$TDUPDATE
 40
2452754.618263889
  9
$TDINDWG
 40
0.0000000000
  9
$TDUSRTIMER
 40
0.0000000000
  9
$USRTIMER
 70
       1
  9
$ANGBASE
 50
0.0
  9
$ANGDIR
 70
       0
  9
$PDMODE
 70
       0
  9
$PDSIZE
 40
0.0
  9
$PLINEWID
 40
0.0
  9
$COORDS
 70
       1
  9
$SPLFRAME
 70
       0
  9
$SPLINETYPE
 70
       6
  9
$SPLINESEGS
 70
       8
  9
$ATTDIA
 70
       0
  9
$ATTREQ
 70
       1
  9
$HANDLING
 70
       1
  9
$HANDSEED
  5
23D
  9
$SURFTAB1
 70
       6
  9
$SURFTAB2
 70
       6
  9
$SURFTYPE
 70
       6
  9
$SURFU
 70
       6
  9
$SURFV
 70
       6
  9
$UCSNAME
  2

  9
$UCSORG
 10
0.0
 20
0.0
 30
0.0
  9
$UCSXDIR
 10
1.0
 20
0.0
 30
0.0
  9
$UCSYDIR
 10
0.0
 20
1.0
 30
0.0
  9
$PUCSNAME
  2

  9
$PUCSORG
 10
0.0
 20
0.0
 30
0.0
  9
$PUCSXDIR
 10
1.0
 20
0.0
 30
0.0
  9
$PUCSYDIR
 10
0.0
 20
1.0
 30
0.0
  9
$USERI1
 70
       0
  9
$USERI2
 70
       0
  9
$USERI3
 70
       0
  9
$USERI4
 70
       0
  9
$USERI5
 70
       0
  9
$USERR1
 40
0.0
  9
$USERR2
 40
0.0
  9
$USERR3
 40
0.0
  9
$USERR4
 40
0.0
  9
$USERR5
 40
0.0
  9
$WORLDVIEW
 70
       1
  9
$SHADEDGE
 70
       3
  9
$SHADEDIF
 70
      70
  9
$TILEMODE
 70
       1
  9
$MAXACTVP
 70
      16
  9
$PINSBASE
 10
0.0
 20
0.0
 30
0.0
  9
$PLIMCHECK
 70
       0
  9
$PEXTMIN
 10
1.00000000E+20
 20
1.00000000E+20
 30
1.00000000E+20
  9
$PEXTMAX
 10
-1.00000000E+20
 20
-1.00000000E+20
 30
-1.00000000E+20
  9
$PLIMMIN
 10
0.0
 20
0.0
  9
$PLIMMAX
 10
12.0
 20
9.0
  9
$UNITMODE
 70
       0
  9
$VISRETAIN
 70
       0
  9
$PLINEGEN
 70
       1
  9
$PSLTSCALE
 70
       0
  9
$TREEDEPTH
 70
    3020
  9
$DWGCODEPAGE
  3
dos932
  0
ENDSEC
  0
SECTION
  2
TABLES
  0
TABLE
  2
VPORT
 70
       1
  0
VPORT
  2
*ACTIVE
 70
       0
 10
0.0
 20
0.0
 11
1.0
 21
1.0
 12
2.17499399
 22
0.25
 13
0.0
 23
0.0
 14
1.0
 24
1.0
 15
0.0
 25
0.0
 16
0.0
 26
0.0
 36
1.0
 17
0.0
 27
0.0
 37
0.0
 40
394.405
 41
1.73205081
 42
50.0
 43
0.0
 44
0.0
 50
0.0
 51
0.0
 71
       0
 72
     100
 73
       1
 74
       1
 75
       0
 76
       0
 77
       0
 78
       0
  0
ENDTAB
  0
TABLE
  2
LTYPE
 70
       3
  0
LTYPE
  2
CONTINUOUS
 70
      64
  3
Solid line
 72
      65
 73
       0
 40
0.0
  0
LTYPE
  2
CENTER
 70
      64
  3
Center ____ _ ____ _ ____ _ ____ _ ____ _ ____
 72
      65
 73
       4
 40
50.8
 49
31.75
 49
-6.35
 49
6.35
 49
-6.35
  0
LTYPE
  2
DASHED
 70
      64
  3
Dashed __ __ __ __ __ __ __ __ __ __ __ __ __ _
 72
      65
 73
       2
 40
19.05
 49
12.7
 49
-6.35
  0
ENDTAB
  0
TABLE
  2
LAYER
 70
       2
  0
LAYER
  2
0
 70
       0
 62
       7
  6
CONTINUOUS
  0
LAYER
  2
DEFPOINTS
 70
       0
 62
       7
  6
CONTINUOUS
  0
ENDTAB
  0
TABLE
  2
STYLE
 70
       1
  0
STYLE
  2
MX_NOTE_STANDARD
 70
       0
 40
3.20000005
 41
1.0
 50
0.0
 71
       0
 42
3.20000005
  3
txt.shx
  4
extfont.shx
  0
ENDTAB
  0
TABLE
  2
VIEW
 70
       0
  0
ENDTAB
  0
TABLE
  2
UCS
 70
       0
  0
ENDTAB
  0
TABLE
  2
APPID
 70
       1
  0
APPID
  2
ACAD
 70
       0
  0
ENDTAB
  0
TABLE
  2
DIMSTYLE
 70
       1
  0
DIMSTYLE
  2
MXDIMSTYLE
 70
       0
  3

  4

  5

  6

  7

 40
1.0
 41
2.5
 42
1.5
 43
3.75
 44
1.5
 45
0.0
 46
0.0
 47
0.0
 48
0.0
 71
       0
 72
       0
 73
       0
 74
       0
 75
       0
 76
       0
 77
       1
 78
       8
140
3.20000005
141
2.5
142
0.0
143
0.0394
144
1.0
145
0.0
146
1.0
147
1.0
170
       0
171
       4
172
       1
173
       0
174
       0
175
       0
176
       0
177
       0
178
       0
  0
ENDTAB
  0
ENDSEC
  0
SECTION
  2
BLOCKS
  0
BLOCK
  8
0
  5
22
  2
MS_1
 70
       0
 10
0.0
 20
0.0
 30
0.0
  3
MS_1
  0
ARC
  8
0
  6
CONTINUOUS
 62
       7
  5
23
 10
22.99627632
 20
57.75372368
 30
0.0
 40
0.99628328
 50
89.78585224
 51
180.21414776
  0
ARC
  8
0
  6
CONTINUOUS
 62
       7
  5
24
 10
22.99502849
 20
53.74502849
 30
0.0
 40
0.9950409
 50
179.71373236
 51
270.28626764
  0
ARC
  8
0
  6
CONTINUOUS
 62
       7
  5
25
 10
40.99605216
 20
53.75394784
 30
0.0
 40
1.0039556
 50
270.22530366
 51
359.77469634
  0
ARC
  8
0
  6
CONTINUOUS
 62
       7
  5
26
 10
40.99481541
 20
57.74481541
 30
0.0
 40
1.00519796
 50
0.2955205
 51
89.7044795
  0
ARC
  8
0
  6
CONTINUOUS
 62
       7
  5
27
 10
26.74639932
 20
75.25360068
 30
0.0
 40
0.99640583
 50
89.79295176
 51
180.20704824
  0
ARC
  8
0
  6
CONTINUOUS
 62
       7
  5
28
 10
26.74492916
 20
61.74492916
 30
0.0
 40
0.99494208
 50
179.707984
 51
270.292016
  0
ARC
  8
0
  6
CONTINUOUS
 62
       7
  5
29
 10
37.24615115
 20
61.75384885
 30
0.0
 40
1.00385623
 50
270.21967626
 51
359.78032374
  0
ARC
  8
0
  6
CONTINUOUS
 62
       7
  5
2A
 10
37.24469403
 20
75.24469403
 30
0.0
 40
1.00531997
 50
0.30240213
 51
89.69759787
  0
ARC
  8
0
  6
CONTINUOUS
 62
       7
  5
2B
 10
20.49648329
 20
78.50351671
 30
0.0
 40
2.24648605
 50
89.91030771
 51
180.08969229
  0
ARC
  8
0
  6
CONTINUOUS
 62
       7
  5
2C
 10
43.49462154
 20
78.49462154
 30
0.0
 40
2.25538487
 50
0.13663438
 51
89.86336562
  0
CIRCLE
  8
0
  6
CONTINUOUS
 62
       7
  5
2D
 10
47.99112488
 20
27.4997876
 30
0.0
 40
3.5
  0
CIRCLE
  8
0
  6
CONTINUOUS
 62
       7
  5
2E
 10
15.99110962
 20
27.4997876
 30
0.0
 40
3.5
  0
CIRCLE
  8
0
  6
CONTINUOUS
 62
       7
  5
2F
 10
15.99110962
 20
-27.50019714
 30
0.0
 40
3.5
  0
CIRCLE
  8
0
  6
CONTINUOUS
 62
       7
  5
30
 10
47.99112488
 20
-27.5002124
 30
0.0
 40
3.5
  0
LINE
  8
0
  6
CONTINUOUS
 62
       7
  5
31
 10
17.0
 20
34.5
 30
0.0
 11
16.5
 21
34.5
 31
0.0
  0
LINE
  8
0
  6
CONTINUOUS
 62
       7
  5
32
 10
47.5
 20
34.5
 30
0.0
 11
47.5
 21
32.5
 31
0.0
  0
LINE
  8
0
  6
CONTINUOUS
 62
       7
  5
33
 10
16.5
 20
34.5
 30
0.0
 11
16.5
 21
32.5
 31
0.0
  0
LINE
  8
0
  6
CONTINUOUS
 62
       7
  5
34
 10
47.5
 20
34.5
 30
0.0
 11
47.0
 21
34.5
 31
0.0
  0
LINE
  8
0
  6
CONTINUOUS
 62
       7
  5
35
 10
22.0
 20
53.75
 30
0.0
 11
22.0
 21
57.75
 31
0.0
  0
LINE
  8
0
  6
CONTINUOUS
 62
       7
  5
36
 10
42.0
 20
53.75
 30
0.0
 11
42.0
 21
57.75
 31
0.0
  0
LINE
  8
0
  6
CONTINUOUS
 62
       7
  5
37
 10
41.0
 20
52.75
 30
0.0
 11
23.0
 21
52.75
 31
0.0
  0
LINE
  8
0
  6
CONTINUOUS
 62
       7
  5
38
 10
41.0
 20
58.75
 30
0.0
 11
23.0
 21
58.75
 31
0.0
  0
LINE
  8
0
  6
CONTINUOUS
 62
       7
  5
39
 10
24.0
 20
63.25
 30
0.0
 11
24.0
 21
64.75
 31
0.0
  0
LINE
  8
0
  6
CONTINUOUS
 62
       7
  5
3A
 10
24.0
 20
67.75
 30
0.0
 11
24.0
 21
69.25
 31
0.0
  0
LINE
  8
0
  6
CONTINUOUS
 62
       7
  5
3B
 10
24.0
 20
70.25
 30
0.0
 11
24.0
 21
71.75
 31
0.0
  0
LINE
  8
0
  6
CONTINUOUS
 62
       7
  5
3C
 10
24.0
 20
74.75
 30
0.0
 11
24.0
 21
76.25
 31
0.0
  0
LINE
  8
0
  6
CONTINUOUS
 62
       7
  5
3D
 10
40.0
 20
63.25
 30
0.0
 11
40.0
 21
64.75
 31
0.0
  0
LINE
  8
0
  6
CONTINUOUS
 62
       7
  5
3E
 10
40.0
 20
67.75
 30
0.0
 11
40.0
 21
69.25
 31
0.0
  0
LINE
  8
0
  6
CONTINUOUS
 62
       7
  5
3F
 10
40.0
 20
70.25
 30
0.0
 11
40.0
 21
71.75
 31
0.0
  0
LINE
  8
0
  6
CONTINUOUS
 62
       7
  5
40
 10
40.0
 20
74.75
 30
0.0
 11
40.0
 21
76.25
 31
0.0
  0
LINE
  8
0
  6
CONTINUOUS
 62
       7
  5
41
 10
40.0
 20
60.75
 30
0.0
 11
40.0
 21
62.25
 31
0.0
  0
LINE
  8
0
  6
CONTINUOUS
 62
       7
  5
42
 10
24.0
 20
60.75
 30
0.0
 11
24.0
 21
62.25
 31
0.0
  0
LINE
  8
0
  6
CONTINUOUS
 62
       7
  5
43
 10
38.25
 20
61.75
 30
0.0
 11
38.25
 21
75.25
 31
0.0
  0
LINE
  8
0
  6
CONTINUOUS
 62
       7
  5
44
 10
25.75
 20
61.75
 30
0.0
 11
25.75
 21
75.25
 31
0.0
  0
LINE
  8
0
  6
CONTINUOUS
 62
       7
  5
45
 10
24.0
 20
60.75
 30
0.0
 11
18.25
 21
60.75
 31
0.0
  0
LINE
  8
0
  6
CONTINUOUS
 62
       7
  5
46
 10
24.0
 20
76.25
 30
0.0
 11
18.25
 21
76.25
 31
0.0
  0
LINE
  8
0
  6
CONTINUOUS
 62
       7
  5
47
 10
37.25
 20
76.25
 30
0.0
 11
26.75
 21
76.25
 31
0.0
  0
LINE
  8
0
  6
CONTINUOUS
 62
       7
  5
48
 10
24.0
 20
74.75
 30
0.0
 11
18.25
 21
74.75
 31
0.0
  0
LINE
  8
0
  6
CONTINUOUS
 62
       7
  5
49
 10
24.0
 20
71.75
 30
0.0
 11
18.25
 21
71.75
 31
0.0
  0
LINE
  8
0
  6
CONTINUOUS
 62
       7
  5
4A
 10
24.0
 20
70.25
 30
0.0
 11
18.25
 21
70.25
 31
0.0
  0
LINE
  8
0
  6
CONTINUOUS
 62
       7
  5
4B
 10
24.0
 20
69.25
 30
0.0
 11
18.25
 21
69.25
 31
0.0
  0
LINE
  8
0
  6
CONTINUOUS
 62
       7
  5
4C
 10
24.0
 20
67.75
 30
0.0
 11
18.25
 21
67.75
 31
0.0
  0
LINE
  8
0
  6
CONTINUOUS
 62
       7
  5
4D
 10
24.0
 20
64.75
 30
0.0
 11
18.25
 21
64.75
 31
0.0
  0
LINE
  8
0
  6
CONTINUOUS
 62
       7
  5
4E
 10
24.0
 20
63.25
 30
0.0
 11
18.25
 21
63.25
 31
0.0
  0
LINE
  8
0
  6
CONTINUOUS
 62
       7
  5
4F
 10
24.0
 20
62.25
 30
0.0
 11
18.25
 21
62.25
 31
0.0
  0
LINE
  8
0
  6
CONTINUOUS
 62
       7
  5
50
 10
37.25
 20
60.75
 30
0.0
 11
26.75
 21
60.75
 31
0.0
  0
LINE
  8
0
  6
CONTINUOUS
 62
       7
  5
51
 10
18.4
 20
44.55
 30
0.0
 11
17.0
 21
44.55
 31
0.0
  0
LINE
  8
0
  6
CONTINUOUS
 62
       7
  5
52
 10
45.75
 20
60.75
 30
0.0
 11
40.0
 21
60.75
 31
0.0
  0
LINE
  8
0
  6
CONTINUOUS
 62
       7
  5
53
 10
45.75
 20
62.25
 30
0.0
 11
40.0
 21
62.25
 31
0.0
  0
LINE
  8
0
  6
CONTINUOUS
 62
       7
  5
54
 10
45.75
 20
63.25
 30
0.0
 11
40.0
 21
63.25
 31
0.0
  0
LINE
  8
0
  6
CONTINUOUS
 62
       7
  5
55
 10
45.75
 20
64.75
 30
0.0
 11
40.0
 21
64.75
 31
0.0
  0
LINE
  8
0
  6
CONTINUOUS
 62
       7
  5
56
 10
45.75
 20
67.75
 30
0.0
 11
40.0
 21
67.75
 31
0.0
  0
LINE
  8
0
  6
CONTINUOUS
 62
       7
  5
57
 10
45.75
 20
69.25
 30
0.0
 11
40.0
 21
69.25
 31
0.0
  0
LINE
  8
0
  6
CONTINUOUS
 62
       7
  5
58
 10
45.75
 20
70.25
 30
0.0
 11
40.0
 21
70.25
 31
0.0
  0
LINE
  8
0
  6
CONTINUOUS
 62
       7
  5
59
 10
45.75
 20
71.75
 30
0.0
 11
40.0
 21
71.75
 31
0.0
  0
LINE
  8
0
  6
CONTINUOUS
 62
       7
  5
5A
 10
45.75
 20
74.75
 30
0.0
 11
40.0
 21
74.75
 31
0.0
  0
LINE
  8
0
  6
CONTINUOUS
 62
       7
  5
5B
 10
45.75
 20
76.25
 30
0.0
 11
40.0
 21
76.25
 31
0.0
  0
LINE
  8
0
  6
CONTINUOUS
 62
       7
  5
5C
 10
47.0
 20
44.55
 30
0.0
 11
47.0
 21
35.5
 31
0.0
  0
LINE
  8
0
  6
CONTINUOUS
 62
       7
  5
5D
 10
17.0
 20
44.55
 30
0.0
 11
17.0
 21
35.5
 31
0.0
  0
LINE
  8
0
  6
CONTINUOUS
 62
       7
  5
5E
 10
47.0
 20
44.55
 30
0.0
 11
45.6
 21
44.55
 31
0.0
  0
LINE
  8
0
  6
CONTINUOUS
 62
       7
  5
5F
 10
18.4
 20
51.45
 30
0.0
 11
18.4
 21
46.55
 31
0.0
  0
LINE
  8
0
  6
CONTINUOUS
 62
       7
  5
60
 10
45.75
 20
74.75
 30
0.0
 11
45.75
 21
71.75
 31
0.0
  0
LINE
  8
0
  6
CONTINUOUS
 62
       7
  5
61
 10
18.25
 20
74.75
 30
0.0
 11
18.25
 21
71.75
 31
0.0
  0
LINE
  8
0
  6
CONTINUOUS
 62
       7
  5
62
 10
18.25
 20
70.25
 30
0.0
 11
18.25
 21
69.25
 31
0.0
  0
LINE
  8
0
  6
CONTINUOUS
 62
       7
  5
63
 10
45.75
 20
70.25
 30
0.0
 11
45.75
 21
69.25
 31
0.0
  0
LINE
  8
0
  6
CONTINUOUS
 62
       7
  5
64
 10
45.5
 20
71.75
 30
0.0
 11
45.5
 21
70.25
 31
0.0
  0
LINE
  8
0
  6
CONTINUOUS
 62
       7
  5
65
 10
18.5
 20
71.75
 30
0.0
 11
18.5
 21
70.25
 31
0.0
  0
LINE
  8
0
  6
CONTINUOUS
 62
       7
  5
66
 10
45.5
 20
69.25
 30
0.0
 11
45.5
 21
67.75
 31
0.0
  0
LINE
  8
0
  6
CONTINUOUS
 62
       7
  5
67
 10
18.5
 20
69.25
 30
0.0
 11
18.5
 21
67.75
 31
0.0
  0
LINE
  8
0
  6
CONTINUOUS
 62
       7
  5
68
 10
45.75
 20
67.75
 30
0.0
 11
45.75
 21
64.75
 31
0.0
  0
LINE
  8
0
  6
CONTINUOUS
 62
       7
  5
69
 10
18.25
 20
67.75
 30
0.0
 11
18.25
 21
64.75
 31
0.0
  0
LINE
  8
0
  6
CONTINUOUS
 62
       7
  5
6A
 10
45.5
 20
64.75
 30
0.0
 11
45.5
 21
63.25
 31
0.0
  0
LINE
  8
0
  6
CONTINUOUS
 62
       7
  5
6B
 10
18.5
 20
64.75
 30
0.0
 11
18.5
 21
63.25
 31
0.0
  0
LINE
  8
0
  6
CONTINUOUS
 62
       7
  5
6C
 10
45.75
 20
63.25
 30
0.0
 11
45.75
 21
62.25
 31
0.0
  0
LINE
  8
0
  6
CONTINUOUS
 62
       7
  5
6D
 10
18.25
 20
63.25
 30
0.0
 11
18.25
 21
62.25
 31
0.0
  0
LINE
  8
0
  6
CONTINUOUS
 62
       7
  5
6E
 10
45.5
 20
62.25
 30
0.0
 11
45.5
 21
60.75
 31
0.0
  0
LINE
  8
0
  6
CONTINUOUS
 62
       7
  5
6F
 10
18.5
 20
62.25
 30
0.0
 11
18.5
 21
60.75
 31
0.0
  0
LINE
  8
0
  6
CONTINUOUS
 62
       7
  5
70
 10
45.75
 20
60.75
 30
0.0
 11
45.75
 21
51.45
 31
0.0
  0
LINE
  8
0
  6
CONTINUOUS
 62
       7
  5
71
 10
18.25
 20
60.75
 30
0.0
 11
18.25
 21
51.45
 31
0.0
  0
LINE
  8
0
  6
CONTINUOUS
 62
       7
  5
72
 10
18.5
 20
76.25
 30
0.0
 11
18.5
 21
74.75
 31
0.0
  0
LINE
  8
0
  6
CONTINUOUS
 62
       7
  5
73
 10
45.5
 20
76.25
 30
0.0
 11
45.5
 21
74.75
 31
0.0
  0
LINE
  8
0
  6
CONTINUOUS
 62
       7
  5
74
 10
45.75
 20
78.5
 30
0.0
 11
45.75
 21
76.25
 31
0.0
  0
LINE
  8
0
  6
CONTINUOUS
 62
       7
  5
75
 10
18.25
 20
78.5
 30
0.0
 11
18.25
 21
76.25
 31
0.0
  0
LINE
  8
0
  6
CONTINUOUS
 62
       7
  5
76
 10
45.6
 20
51.45
 30
0.0
 11
45.6
 21
46.55
 31
0.0
  0
LINE
  8
0
  6
CONTINUOUS
 62
       7
  5
77
 10
45.75
 20
51.45
 30
0.0
 11
18.25
 21
51.45
 31
0.0
  0
LINE
  8
0
  6
CONTINUOUS
 62
       7
  5
78
 10
43.5
 20
80.75
 30
0.0
 11
20.5
 21
80.75
 31
0.0
  0
LINE
  8
0
  6
CONTINUOUS
 62
       7
  5
79
 10
10.5
 20
32.5
 30
0.0
 11
10.5
 21
-32.5
 31
0.0
  0
LINE
  8
0
  6
CONTINUOUS
 62
       7
  5
7A
 10
53.5
 20
32.5
 30
0.0
 11
53.5
 21
-32.5
 31
0.0
  0
LINE
  8
0
  6
CENTER
 62
       2
  5
7C
 10
53.0
 20
27.5
 30
0.0
 11
43.0
 21
27.5
 31
0.0
  0
LINE
  8
0
  6
CENTER
 62
       2
  5
7D
 10
48.0
 20
22.5
 30
0.0
 11
48.0
 21
32.5
 31
0.0
  0
LINE
  8
0
  6
CENTER
 62
       2
  5
7E
 10
21.0
 20
27.5
 30
0.0
 11
11.0
 21
27.5
 31
0.0
  0
LINE
  8
0
  6
CENTER
 62
       2
  5
7F
 10
16.0
 20
22.5
 30
0.0
 11
16.0
 21
32.5
 31
0.0
  0
LINE
  8
0
  6
CENTER
 62
       2
  5
80
 10
21.0
 20
-27.5
 30
0.0
 11
11.0
 21
-27.5
 31
0.0
  0
LINE
  8
0
  6
CENTER
 62
       2
  5
81
 10
16.0
 20
-32.5
 30
0.0
 11
16.0
 21
-22.5
 31
0.0
  0
LINE
  8
0
  6
CENTER
 62
       2
  5
82
 10
64.0
 20
-4.5
 30
0.0
 11
64.0
 21
4.5
 31
0.0
  0
LINE
  8
0
  6
CENTER
 62
       2
  5
83
 10
0.0
 20
-4.5
 30
0.0
 11
0.0
 21
4.5
 31
0.0
  0
LINE
  8
0
  6
CONTINUOUS
 62
       7
  5
84
 10
71.0
 20
-24.5
 30
0.0
 11
63.0
 21
-32.5
 31
0.0
  0
LINE
  8
0
  6
CONTINUOUS
 62
       7
  5
85
 10
63.0
 20
32.5
 30
0.0
 11
71.0
 21
24.5
 31
0.0
  0
LINE
  8
0
  6
CONTINUOUS
 62
       7
  5
86
 10
-7.0
 20
24.5
 30
0.0
 11
1.0
 21
32.5
 31
0.0
  0
LINE
  8
0
  6
CONTINUOUS
 62
       7
  5
87
 10
1.0
 20
-32.5
 30
0.0
 11
-7.0
 21
-24.5
 31
0.0
  0
LINE
  8
0
  6
CONTINUOUS
 62
       7
  5
88
 10
-7.0
 20
24.5
 30
0.0
 11
-7.0
 21
-24.5
 31
0.0
  0
LINE
  8
0
  6
CONTINUOUS
 62
       7
  5
89
 10
71.0
 20
24.5
 30
0.0
 11
71.0
 21
-24.5
 31
0.0
  0
LINE
  8
0
  6
CENTER
 62
       2
  5
8A
 10
-9.17
 20
0.0
 30
0.0
 11
72.88
 21
0.0
 31
0.0
  0
LINE
  8
0
  6
CENTER
 62
       2
  5
8B
 10
53.0
 20
-27.5
 30
0.0
 11
43.0
 21
-27.5
 31
0.0
  0
LINE
  8
0
  6
CENTER
 62
       2
  5
8C
 10
48.0
 20
-32.5
 30
0.0
 11
48.0
 21
-22.5
 31
0.0
  0
LINE
  8
0
  6
CONTINUOUS
 62
       7
  5
8D
 10
63.0
 20
-32.5
 30
0.0
 11
1.0
 21
-32.5
 31
0.0
  0
LINE
  8
0
  6
CONTINUOUS
 62
       7
  5
8E
 10
63.0
 20
32.5
 30
0.0
 11
1.0
 21
32.5
 31
0.0
  0
LINE
  8
0
  6
CENTER
 62
       2
  5
8F
 10
32.0
 20
85.75
 30
0.0
 11
32.0
 21
-37.0
 31
0.0
  0
CIRCLE
  8
0
  6
CONTINUOUS
 62
       7
  5
90
 10
64.0
 20
0.0
 30
0.0
 40
3.25
  0
CIRCLE
  8
0
  6
CONTINUOUS
 62
       7
  5
91
 10
0.0
 20
0.0
 30
0.0
 40
3.25
  0
LINE
  8
0
  6
CONTINUOUS
 62
       7
  5
92
 10
17.6263456
 20
25.8736544
 30
0.0
 11
14.3736544
 21
29.1263456
 31
0.0
  0
LINE
  8
0
  6
CONTINUOUS
 62
       7
  5
93
 10
17.6263456
 20
29.1263456
 30
0.0
 11
14.3736544
 21
25.8736544
 31
0.0
  0
LINE
  8
0
  6
CONTINUOUS
 62
       7
  5
94
 10
17.0
 20
34.5
 30
0.0
 11
17.0
 21
35.5
 31
0.0
  0
LINE
  8
0
  6
CONTINUOUS
 62
       7
  5
95
 10
47.0
 20
35.5
 30
0.0
 11
17.0
 21
35.5
 31
0.0
  0
LINE
  8
0
  6
CONTINUOUS
 62
       7
  5
96
 10
47.0
 20
34.5
 30
0.0
 11
47.0
 21
35.5
 31
0.0
  0
LINE
  8
0
  6
CONTINUOUS
 62
       7
  5
97
 10
47.0
 20
34.5
 30
0.0
 11
17.0
 21
34.5
 31
0.0
  0
LINE
  8
0
  6
CONTINUOUS
 62
       7
  5
98
 10
18.4
 20
44.55
 30
0.0
 11
18.4
 21
46.55
 31
0.0
  0
LINE
  8
0
  6
CONTINUOUS
 62
       7
  5
99
 10
45.6
 20
46.55
 30
0.0
 11
18.4
 21
46.55
 31
0.0
  0
LINE
  8
0
  6
CONTINUOUS
 62
       7
  5
9A
 10
45.6
 20
44.55
 30
0.0
 11
18.4
 21
44.55
 31
0.0
  0
LINE
  8
0
  6
CONTINUOUS
 62
       7
  5
9B
 10
45.6
 20
44.55
 30
0.0
 11
45.6
 21
46.55
 31
0.0
  0
SOLID
  8
0
  6
CONTINUOUS
 62
       7
  5
9C
 10
18.4
 20
46.55
 30
0.0
 11
45.6
 21
46.55
 31
0.0
 12
18.4
 22
44.55
 32
0.0
 13
45.6
 23
44.55
 33
0.0
  0
SOLID
  8
0
  6
CONTINUOUS
 62
       7
  5
9D
 10
17.0
 20
35.5
 30
0.0
 11
47.0
 21
35.5
 31
0.0
 12
17.0
 22
34.5
 32
0.0
 13
47.0
 23
34.5
 33
0.0
  0
ENDBLK
  8
0
  5
9E
  0
BLOCK
  8
0
  5
9F
  2
MS_2
 70
       0
 10
0.0
 20
0.0
 30
0.0
  3
MS_2
  0
LINE
  8
0
  6
CONTINUOUS
 62
       7
  5
A0
 10
-8.5
 20
0.0
 30
0.0
 11
7.0
 21
0.0
 31
0.0
  0
LINE
  8
0
  6
CONTINUOUS
 62
       7
  5
A1
 10
-8.5
 20
2.0
 30
0.0
 11
7.0
 21
2.0
 31
0.0
  0
ARC
  8
0
  6
CONTINUOUS
 62
       7
  5
A2
 10
-13.36152567
 20
5.21227507
 30
0.0
 40
0.8615603
 50
297.77785833
 51
0.51373266
  0
ARC
  8
0
  6
CONTINUOUS
 62
       7
  5
A3
 10
-18.63190287
 20
5.21620088
 30
0.0
 40
0.86810544
 50
179.74925393
 51
241.95915508
  0
ARC
  8
0
  6
CONTINUOUS
 62
       7
  5
A4
 10
-16.0
 20
10.19108311
 30
0.0
 40
6.49627857
 50
242.09802824
 51
297.90197176
  0
ARC
  8
0
  6
CONTINUOUS
 62
       7
  5
A5
 10
-45.36156446
 20
5.21229825
 30
0.0
 40
0.86159888
 50
297.77942242
 51
0.51216857
  0
ARC
  8
0
  6
CONTINUOUS
 62
       7
  5
A6
 10
-50.63190708
 20
5.21619837
 30
0.0
 40
0.86810124
 50
179.74908649
 51
241.95932253
  0
ARC
  8
0
  6
CONTINUOUS
 62
       7
  5
A7
 10
-48.0
 20
10.1910831
 30
0.0
 40
6.49627856
 50
242.0980282
 51
297.9019718
  0
ARC
  8
0
  6
CONTINUOUS
 62
       7
  5
A8
 10
-55.49333094
 20
1.99333094
 30
0.0
 40
1.9933421
 50
269.80830703
 51
0.19169297
  0
ARC
  8
0
  6
CONTINUOUS
 62
       7
  5
A9
 10
-8.50223659
 20
1.99776341
 30
0.0
 40
1.99776466
 50
179.93585466
 51
270.06414534
  0
ARC
  8
0
  6
CONTINUOUS
 62
       7
  5
AA
 10
-10.50225458
 20
6.99774542
 30
0.0
 40
2.00225585
 50
0.0645163
 51
89.9354837
  0
ARC
  8
0
  6
CONTINUOUS
 62
       7
  5
AB
 10
-53.49333269
 20
6.99333269
 30
0.0
 40
2.00667838
 50
90.19036893
 51
179.80963107
  0
CIRCLE
  8
0
  6
CONTINUOUS
 62
       7
  5
AC
 10
-31.99556213
 20
43.50106384
 30
0.0
 40
5.72249985
  0
CIRCLE
  8
0
  6
CONTINUOUS
 62
       2
  5
AD
 10
-31.99556213
 20
43.50106384
 30
0.0
 40
6.57849979
  0
ARC
  8
0
  6
CONTINUOUS
 62
       7
  5
AE
 10
-40.21654795
 20
141.89831258
 30
0.0
 40
4.8557523
 50
104.47158932
 51
115.80101754
  0
ARC
  8
0
  6
CONTINUOUS
 62
       7
  5
AF
 10
-23.76218654
 20
141.89881039
 30
0.0
 40
4.85386414
 50
104.40861071
 51
124.47929885
  0
ARC
  8
0
  6
CONTINUOUS
 62
       7
  5
B0
 10
-40.22155299
 20
141.89548981
 30
0.0
 40
4.8530624
 50
55.60382216
 51
75.78707931
  0
ARC
  8
0
  6
CONTINUOUS
 62
       7
  5
B1
 10
-31.995
 20
128.60059692
 30
0.0
 40
18.14812861
 50
72.40810687
 51
107.59189313
  0
ARC
  8
0
  6
CONTINUOUS
 62
       7
  5
B2
 10
-23.78239935
 20
141.90118358
 30
0.0
 40
4.85270934
 50
64.19541868
 51
75.53197446
  0
LINE
  8
0
  6
CONTINUOUS
 62
       7
  5
B3
 10
-1.0
 20
0.0
 30
0.0
 11
-1.0
 21
2.0
 31
0.0
  0
LINE
  8
0
  6
CONTINUOUS
 62
       7
  5
B4
 10
-63.0
 20
0.0
 30
0.0
 11
-63.0
 21
2.0
 31
0.0
  0
LINE
  8
0
  6
CONTINUOUS
 62
       7
  5
B5
 10
-23.37
 20
141.25
 30
0.0
 11
-23.37
 21
136.75
 31
0.0
  0
LINE
  8
0
  6
CONTINUOUS
 62
       7
  5
B6
 10
-40.63
 20
141.25
 30
0.0
 11
-40.63
 21
136.75
 31
0.0
  0
LINE
  8
0
  6
CONTINUOUS
 62
       2
  5
B7
 10
-41.3
 20
141.25
 30
0.0
 11
-41.3
 21
136.75
 31
0.0
  0
LINE
  8
0
  6
CONTINUOUS
 62
       2
  5
B8
 10
-22.7
 20
141.25
 30
0.0
 11
-22.7
 21
136.75
 31
0.0
  0
LINE
  8
0
  6
CONTINUOUS
 62
       7
  5
B9
 10
-13.5
 20
127.5
 30
0.0
 11
-13.77
 21
128.5
 31
0.0
  0
LINE
  8
0
  6
CONTINUOUS
 62
       7
  5
BA
 10
-50.5
 20
127.5
 30
0.0
 11
-50.23
 21
128.5
 31
0.0
  0
LINE
  8
0
  6
CONTINUOUS
 62
       7
  5
BB
 10
-71.0
 20
0.0
 30
0.0
 11
-71.0
 21
2.0
 31
0.0
  0
LINE
  8
0
  6
CONTINUOUS
 62
       7
  5
BC
 10
-48.7
 20
6.3
 30
0.0
 11
-48.0
 21
7.0
 31
0.0
  0
LINE
  8
0
  6
CONTINUOUS
 62
       7
  5
BD
 10
-48.0
 20
6.3
 30
0.0
 11
-47.3
 21
7.0
 31
0.0
  0
LINE
  8
0
  6
CONTINUOUS
 62
       7
  5
BE
 10
-16.0
 20
7.0
 30
0.0
 11
-16.7
 21
6.3
 31
0.0
  0
LINE
  8
0
  6
CONTINUOUS
 62
       7
  5
BF
 10
-16.0
 20
6.3
 30
0.0
 11
-15.3
 21
7.0
 31
0.0
  0
LINE
  8
0
  6
CONTINUOUS
 62
       7
  5
C0
 10
-19.5
 20
6.3
 30
0.0
 11
-12.5
 21
6.3
 31
0.0
  0
LINE
  8
0
  6
CONTINUOUS
 62
       7
  5
C1
 10
-12.5
 20
5.22
 30
0.0
 11
-12.5
 21
7.0
 31
0.0
  0
LINE
  8
0
  6
DASHED
 62
       7
  5
C3
 10
-13.7
 20
4.12
 30
0.0
 11
-14.55
 21
5.6
 31
0.0
  0
LINE
  8
0
  6
DASHED
 62
       7
  5
C4
 10
-14.55
 20
5.6
 30
0.0
 11
-16.0
 21
6.36
 31
0.0
  0
LINE
  8
0
  6
DASHED
 62
       7
  5
C5
 10
-17.45
 20
5.6
 30
0.0
 11
-16.0
 21
6.36
 31
0.0
  0
LINE
  8
0
  6
DASHED
 62
       7
  5
C6
 10
-18.3
 20
4.12
 30
0.0
 11
-17.45
 21
5.6
 31
0.0
  0
LINE
  8
0
  6
CONTINUOUS
 62
       7
  5
C7
 10
-19.5
 20
5.22
 30
0.0
 11
-19.5
 21
7.0
 31
0.0
  0
LINE
  8
0
  6
CONTINUOUS
 62
       7
  5
C8
 10
-51.5
 20
6.3
 30
0.0
 11
-44.5
 21
6.3
 31
0.0
  0
LINE
  8
0
  6
CONTINUOUS
 62
       7
  5
C9
 10
-44.5
 20
5.22
 30
0.0
 11
-44.5
 21
7.0
 31
0.0
  0
LINE
  8
0
  6
DASHED
 62
       7
  5
CA
 10
-45.7
 20
4.12
 30
0.0
 11
-46.55
 21
5.6
 31
0.0
  0
LINE
  8
0
  6
DASHED
 62
       7
  5
CB
 10
-46.55
 20
5.6
 30
0.0
 11
-48.0
 21
6.36
 31
0.0
  0
LINE
  8
0
  6
DASHED
 62
       7
  5
CC
 10
-49.45
 20
5.6
 30
0.0
 11
-48.0
 21
6.36
 31
0.0
  0
LINE
  8
0
  6
DASHED
 62
       7
  5
CD
 10
-50.3
 20
4.12
 30
0.0
 11
-49.45
 21
5.6
 31
0.0
  0
LINE
  8
0
  6
CONTINUOUS
 62
       7
  5
CE
 10
-51.5
 20
5.22
 30
0.0
 11
-51.5
 21
7.0
 31
0.0
  0
LINE
  8
0
  6
CONTINUOUS
 62
       7
  5
CF
 10
-71.0
 20
2.0
 30
0.0
 11
-55.5
 21
2.0
 31
0.0
  0
LINE
  8
0
  6
CONTINUOUS
 62
       7
  5
D0
 10
-71.0
 20
0.0
 30
0.0
 11
-55.5
 21
0.0
 31
0.0
  0
LINE
  8
0
  6
CONTINUOUS
 62
       7
  5
D1
 10
-55.5
 20
2.0
 30
0.0
 11
-55.5
 21
7.0
 31
0.0
  0
LINE
  8
0
  6
CONTINUOUS
 62
       7
  5
D2
 10
-8.5
 20
2.0
 30
0.0
 11
-8.5
 21
7.0
 31
0.0
  0
LINE
  8
0
  6
CONTINUOUS
 62
       7
  5
D3
 10
-53.5
 20
2.0
 30
0.0
 11
-53.5
 21
7.0
 31
0.0
  0
LINE
  8
0
  6
CONTINUOUS
 62
       7
  5
D4
 10
-10.5
 20
2.0
 30
0.0
 11
-10.5
 21
7.0
 31
0.0
  0
LINE
  8
0
  6
CONTINUOUS
 62
       7
  5
D5
 10
-53.5
 20
7.0
 30
0.0
 11
-10.5
 21
7.0
 31
0.0
  0
LINE
  8
0
  6
CONTINUOUS
 62
       7
  5
D6
 10
-53.5
 20
9.0
 30
0.0
 11
-10.5
 21
9.0
 31
0.0
  0
LINE
  8
0
  6
CENTER
 62
       2
  5
D7
 10
-40.5
 20
43.5
 30
0.0
 11
-23.5
 21
43.5
 31
0.0
  0
LINE
  8
0
  6
CONTINUOUS
 62
       7
  5
D8
 10
-53.0
 20
57.0
 30
0.0
 11
-11.0
 21
57.0
 31
0.0
  0
LINE
  8
0
  6
CONTINUOUS
 62
       7
  5
D9
 10
-53.0
 20
77.5
 30
0.0
 11
-11.0
 21
77.5
 31
0.0
  0
LINE
  8
0
  6
CONTINUOUS
 62
       7
  5
DA
 10
-53.0
 20
127.5
 30
0.0
 11
-11.0
 21
127.5
 31
0.0
  0
LINE
  8
0
  6
CONTINUOUS
 62
       7
  5
DB
 10
-13.5
 20
127.5
 30
0.0
 11
-13.5
 21
9.0
 31
0.0
  0
LINE
  8
0
  6
CONTINUOUS
 62
       7
  5
DC
 10
-50.5
 20
9.0
 30
0.0
 11
-50.5
 21
127.5
 31
0.0
  0
LINE
  8
0
  6
CONTINUOUS
 62
       7
  5
DD
 10
-42.97
 20
141.25
 30
0.0
 11
-21.03
 21
141.25
 31
0.0
  0
LINE
  8
0
  6
CONTINUOUS
 62
       7
  5
DE
 10
-22.57
 20
141.25
 30
0.0
 11
-22.57
 21
146.75
 31
0.0
  0
LINE
  8
0
  6
CONTINUOUS
 62
       7
  5
DF
 10
-24.97
 20
141.25
 30
0.0
 11
-24.97
 21
146.75
 31
0.0
  0
LINE
  8
0
  6
CONTINUOUS
 62
       7
  5
E0
 10
-39.03
 20
141.25
 30
0.0
 11
-39.03
 21
146.75
 31
0.0
  0
LINE
  8
0
  6
CONTINUOUS
 62
       7
  5
E1
 10
-41.43
 20
141.25
 30
0.0
 11
-41.43
 21
146.75
 31
0.0
  0
LINE
  8
0
  6
CONTINUOUS
 62
       7
  5
E2
 10
-29.6
 20
141.25
 30
0.0
 11
-29.6
 21
146.59
 31
0.0
  0
LINE
  8
0
  6
CONTINUOUS
 62
       7
  5
E3
 10
-34.4
 20
141.25
 30
0.0
 11
-34.4
 21
146.59
 31
0.0
  0
LINE
  8
0
  6
CONTINUOUS
 62
       7
  5
E4
 10
-41.5
 20
146.75
 30
0.0
 11
-42.97
 21
145.9
 31
0.0
  0
LINE
  8
0
  6
CONTINUOUS
 62
       7
  5
E5
 10
-41.5
 20
146.75
 30
0.0
 11
-22.5
 21
146.75
 31
0.0
  0
LINE
  8
0
  6
CONTINUOUS
 62
       7
  5
E6
 10
-22.5
 20
146.75
 30
0.0
 11
-21.03
 21
145.9
 31
0.0
  0
LINE
  8
0
  6
CONTINUOUS
 62
       7
  5
E7
 10
-21.03
 20
141.25
 30
0.0
 11
-21.03
 21
145.9
 31
0.0
  0
LINE
  8
0
  6
CONTINUOUS
 62
       7
  5
E8
 10
-26.51
 20
141.25
 30
0.0
 11
-26.51
 21
145.9
 31
0.0
  0
LINE
  8
0
  6
CONTINUOUS
 62
       7
  5
E9
 10
-37.48
 20
141.25
 30
0.0
 11
-37.48
 21
145.9
 31
0.0
  0
LINE
  8
0
  6
CONTINUOUS
 62
       7
  5
EA
 10
-42.97
 20
141.25
 30
0.0
 11
-42.97
 21
145.9
 31
0.0
  0
LINE
  8
0
  6
CONTINUOUS
 62
       7
  5
EB
 10
-43.25
 20
136.75
 30
0.0
 11
-20.75
 21
136.75
 31
0.0
  0
LINE
  8
0
  6
CONTINUOUS
 62
       7
  5
EC
 10
-20.75
 20
136.75
 30
0.0
 11
-20.75
 21
128.5
 31
0.0
  0
LINE
  8
0
  6
CONTINUOUS
 62
       7
  5
ED
 10
-43.25
 20
136.75
 30
0.0
 11
-43.25
 21
128.5
 31
0.0
  0
LINE
  8
0
  6
CONTINUOUS
 62
       7
  5
EE
 10
-53.0
 20
127.5
 30
0.0
 11
-52.0
 21
128.5
 31
0.0
  0
LINE
  8
0
  6
CONTINUOUS
 62
       7
  5
EF
 10
-12.0
 20
128.5
 30
0.0
 11
-11.0
 21
127.5
 31
0.0
  0
LINE
  8
0
  6
CONTINUOUS
 62
       7
  5
F0
 10
-11.0
 20
127.5
 30
0.0
 11
-11.0
 21
9.0
 31
0.0
  0
LINE
  8
0
  6
CONTINUOUS
 62
       7
  5
F1
 10
-52.0
 20
128.5
 30
0.0
 11
-12.0
 21
128.5
 31
0.0
  0
LINE
  8
0
  6
CONTINUOUS
 62
       7
  5
F2
 10
-53.0
 20
9.0
 30
0.0
 11
-53.0
 21
127.5
 31
0.0
  0
LINE
  8
0
  6
CENTER
 62
       2
  5
F3
 10
-32.0
 20
154.49
 30
0.0
 11
-32.0
 21
-2.0
 31
0.0
  0
LINE
  8
0
  6
CONTINUOUS
 62
       7
  5
F4
 10
7.0
 20
0.0
 30
0.0
 11
7.0
 21
2.0
 31
0.0
  0
LINE
  8
0
  6
CENTER
 62
       2
  5
F5
 10
0.0
 20
5.0
 30
0.0
 11
0.0
 21
-2.0
 31
0.0
  0
LINE
  8
0
  6
CENTER
 62
       2
  5
F6
 10
-64.0
 20
5.0
 30
0.0
 11
-64.0
 21
-2.0
 31
0.0
  0
LINE
  8
0
  6
DASHED
 62
       2
  5
F7
 10
3.25
 20
2.0
 30
0.0
 11
3.25
 21
0.0
 31
0.0
  0
LINE
  8
0
  6
DASHED
 62
       2
  5
F8
 10
-3.25
 20
2.0
 30
0.0
 11
-3.25
 21
0.0
 31
0.0
  0
LINE
  8
0
  6
DASHED
 62
       2
  5
F9
 10
-67.25
 20
2.0
 30
0.0
 11
-67.25
 21
0.0
 31
0.0
  0
LINE
  8
0
  6
DASHED
 62
       2
  5
FA
 10
-60.75
 20
2.0
 30
0.0
 11
-60.75
 21
0.0
 31
0.0
  0
ENDBLK
  8
0
  5
FB
  0
BLOCK
  8
0
  5
FC
  2
MS_3
 70
       0
 10
0.0
 20
0.0
 30
0.0
  3
MS_3
  0
LINE
  8
0
  6
CONTINUOUS
 62
       7
  5
FD
 10
-7.0
 20
0.0
 30
0.0
 11
8.5
 21
0.0
 31
0.0
  0
LINE
  8
0
  6
CONTINUOUS
 62
       7
  5
FE
 10
-7.0
 20
2.0
 30
0.0
 11
8.5
 21
2.0
 31
0.0
  0
ARC
  8
0
  6
CONTINUOUS
 62
       7
  5
FF
 10
16.0
 20
10.1910843
 30
0.0
 40
6.49627963
 50
242.09803316
 51
297.90196684
  0
ARC
  8
0
  6
CONTINUOUS
 62
       7
  5
100
 10
8.50294269
 20
1.99705731
 30
0.0
 40
1.99705948
 50
269.91557407
 51
0.08442593
  0
ARC
  8
0
  6
CONTINUOUS
 62
       7
  5
101
 10
55.49403668
 20
1.99403668
 30
0.0
 40
1.99404559
 50
179.82865302
 51
270.17134698
  0
ARC
  8
0
  6
CONTINUOUS
 62
       7
  5
102
 10
53.4940285
 20
6.9940285
 30
0.0
 40
2.00598039
 50
0.17056106
 51
89.82943894
  0
ARC
  8
0
  6
CONTINUOUS
 62
       7
  5
103
 10
10.50296431
 20
6.99703569
 30
0.0
 40
2.0029665
 50
90.08479539
 51
179.91520461
  0
ARC
  8
0
  6
CONTINUOUS
 62
       7
  5
104
 10
48.0
 20
10.1910843
 30
0.0
 40
6.49627962
 50
242.09803313
 51
297.90196687
  0
ARC
  8
0
  6
CONTINUOUS
 62
       7
  5
105
 10
45.36261495
 20
5.21292581
 30
0.0
 40
0.86264396
 50
179.53013572
 51
242.1782733
  0
ARC
  8
0
  6
CONTINUOUS
 62
       7
  5
106
 10
18.6329557
 20
5.21557192
 30
0.0
 40
0.8670556
 50
297.99897825
 51
0.29261274
  0
ARC
  8
0
  6
CONTINUOUS
 62
       7
  5
107
 10
50.63293814
 20
5.21558241
 30
0.0
 40
0.86707311
 50
297.99967752
 51
0.29191347
  0
ARC
  8
0
  6
CONTINUOUS
 62
       7
  5
108
 10
13.36259912
 20
5.21291636
 30
0.0
 40
0.86262821
 50
179.52949925
 51
242.17890976
  0
CIRCLE
  8
0
  6
CONTINUOUS
 62
       7
  5
109
 10
22.9970166
 20
69.0110791
 30
0.0
 40
2.06699944
  0
CIRCLE
  8
0
  6
CONTINUOUS
 62
       2
  5
10A
 10
22.9970166
 20
69.0110791
 30
0.0
 40
2.49999905
  0
CIRCLE
  8
0
  6
CONTINUOUS
 62
       7
  5
10B
 10
31.99698608
 20
23.50108101
 30
0.0
 40
5.72249985
  0
CIRCLE
  8
0
  6
CONTINUOUS
 62
       7
  5
10C
 10
31.99698608
 20
43.5010791
 30
0.0
 40
5.72249985
  0
CIRCLE
  8
0
  6
CONTINUOUS
 62
       2
  5
10D
 10
31.99698608
 20
43.5010791
 30
0.0
 40
6.57849979
  0
CIRCLE
  8
0
  6
CONTINUOUS
 62
       2
  5
10E
 10
31.99698608
 20
23.50108101
 30
0.0
 40
6.57849979
  0
ARC
  8
0
  6
CONTINUOUS
 62
       7
  5
10F
 10
23.78257752
 20
141.90069767
 30
0.0
 40
4.85322435
 50
104.46862901
 51
115.80397784
  0
ARC
  8
0
  6
CONTINUOUS
 62
       7
  5
110
 10
40.23654582
 20
141.90159919
 30
0.0
 40
4.85084766
 50
104.4023056
 51
124.48560396
  0
ARC
  8
0
  6
CONTINUOUS
 62
       7
  5
111
 10
23.77718716
 20
141.89270015
 30
0.0
 40
4.85607602
 50
55.61015043
 51
75.78075104
  0
ARC
  8
0
  6
CONTINUOUS
 62
       7
  5
112
 10
32.005
 20
128.60057998
 30
0.0
 40
18.14814476
 50
72.40812303
 51
107.59187697
  0
ARC
  8
0
  6
CONTINUOUS
 62
       7
  5
113
 10
40.21672502
 20
141.8987955
 30
0.0
 40
4.85524047
 50
64.19838333
 51
75.52900981
  0
CIRCLE
  8
0
  6
CONTINUOUS
 62
       7
  5
114
 10
31.99698608
 20
107.5010791
 30
0.0
 40
3.29999924
  0
ARC
  8
0
  6
CONTINUOUS
 62
       7
  5
115
 10
31.99795347
 20
107.50204653
 30
0.0
 40
2.80209341
 50
231.14354034
 51
38.85645966
  0
ARC
  8
0
  6
CONTINUOUS
 62
       7
  5
116
 10
31.99795351
 20
107.50204649
 30
0.0
 40
2.80003057
 50
50.73804941
 51
219.26195059
  0
ARC
  8
0
  6
CONTINUOUS
 62
       7
  5
117
 10
33.22740977
 20
107.5
 30
0.0
 40
0.57799889
 50
134.81844004
 51
225.18155996
  0
ARC
  8
0
  6
CONTINUOUS
 62
       7
  5
118
 10
32.0
 20
108.73146184
 30
0.0
 40
0.58086216
 50
225.10196096
 51
314.89803904
  0
ARC
  8
0
  6
CONTINUOUS
 62
       7
  5
119
 10
32.0
 20
106.27071162
 30
0.0
 40
0.57932458
 50
44.95023357
 51
135.04976643
  0
ARC
  8
0
  6
CONTINUOUS
 62
       7
  5
11A
 10
30.76665395
 20
107.5
 30
0.0
 40
0.58219838
 50
315.23284658
 51
44.76715342
  0
ARC
  8
0
  6
CONTINUOUS
 62
       7
  5
11B
 10
43.49796092
 20
96.00203908
 30
0.0
 40
2.25204
 50
270.05187766
 51
359.94812234
  0
ARC
  8
0
  6
CONTINUOUS
 62
       7
  5
11C
 10
43.49905456
 20
118.99905456
 30
0.0
 40
2.25094564
 50
0.02406539
 51
89.97593461
  0
ARC
  8
0
  6
CONTINUOUS
 62
       7
  5
11D
 10
20.4979842
 20
119.0020158
 30
0.0
 40
2.2479851
 50
89.948622
 51
180.051378
  0
ARC
  8
0
  6
CONTINUOUS
 62
       7
  5
11E
 10
20.49907927
 20
95.99907927
 30
0.0
 40
2.24907946
 50
179.97654426
 51
270.02345574
  0
ARC
  8
0
  6
CONTINUOUS
 62
       7
  5
11F
 10
20.49907895
 20
95.99907895
 30
0.0
 40
3.49907907
 50
179.98491823
 51
270.01508177
  0
ARC
  8
0
  6
CONTINUOUS
 62
       7
  5
120
 10
43.49796099
 20
96.00203901
 30
0.0
 40
3.5020396
 50
270.03335956
 51
359.96664044
  0
ARC
  8
0
  6
CONTINUOUS
 62
       7
  5
121
 10
43.49905489
 20
118.99905489
 30
0.0
 40
3.50094524
 50
0.01546753
 51
89.98453247
  0
ARC
  8
0
  6
CONTINUOUS
 62
       7
  5
122
 10
20.49798413
 20
119.00201587
 30
0.0
 40
3.49798471
 50
89.96698075
 51
180.03301925
  0
ARC
  8
0
  6
CONTINUOUS
 62
       7
  5
123
 10
43.49796101
 20
96.00203899
 30
0.0
 40
4.00203951
 50
270.02919151
 51
359.97080849
  0
ARC
  8
0
  6
CONTINUOUS
 62
       7
  5
124
 10
43.49905496
 20
118.99905496
 30
0.0
 40
4.00094515
 50
0.01353348
 51
89.98646652
  0
ARC
  8
0
  6
CONTINUOUS
 62
       7
  5
125
 10
20.49798411
 20
119.00201589
 30
0.0
 40
3.99798462
 50
89.97111002
 51
180.02888998
  0
ARC
  8
0
  6
CONTINUOUS
 62
       7
  5
126
 10
20.49907888
 20
95.99907888
 30
0.0
 40
3.99907898
 50
179.98680285
 51
270.01319715
  0
LINE
  8
0
  6
CONTINUOUS
 62
       7
  5
127
 10
63.0
 20
0.0
 30
0.0
 11
63.0
 21
2.0
 31
0.0
  0
LINE
  8
0
  6
CONTINUOUS
 62
       7
  5
128
 10
1.0
 20
0.0
 30
0.0
 11
1.0
 21
2.0
 31
0.0
  0
LINE
  8
0
  6
CONTINUOUS
 62
       2
  5
129
 10
41.3
 20
141.25
 30
0.0
 11
41.3
 21
136.75
 31
0.0
  0
LINE
  8
0
  6
CONTINUOUS
 62
       2
  5
12A
 10
22.7
 20
141.25
 30
0.0
 11
22.7
 21
136.75
 31
0.0
  0
LINE
  8
0
  6
CONTINUOUS
 62
       7
  5
12B
 10
40.63
 20
141.25
 30
0.0
 11
40.63
 21
136.75
 31
0.0
  0
LINE
  8
0
  6
CONTINUOUS
 62
       7
  5
12C
 10
23.37
 20
141.25
 30
0.0
 11
23.37
 21
136.75
 31
0.0
  0
LINE
  8
0
  6
CONTINUOUS
 62
       7
  5
12D
 10
50.5
 20
127.5
 30
0.0
 11
50.23
 21
128.5
 31
0.0
  0
LINE
  8
0
  6
CONTINUOUS
 62
       7
  5
12E
 10
13.5
 20
127.5
 30
0.0
 11
13.77
 21
128.5
 31
0.0
  0
LINE
  8
0
  6
CONTINUOUS
 62
       7
  5
12F
 10
44.5
 20
6.3
 30
0.0
 11
51.5
 21
6.3
 31
0.0
  0
LINE
  8
0
  6
CONTINUOUS
 62
       7
  5
130
 10
51.5
 20
5.22
 30
0.0
 11
51.5
 21
7.0
 31
0.0
  0
LINE
  8
0
  6
CONTINUOUS
 62
       7
  5
131
 10
44.5
 20
5.22
 30
0.0
 11
44.5
 21
7.0
 31
0.0
  0
LINE
  8
0
  6
CONTINUOUS
 62
       7
  5
132
 10
12.5
 20
6.3
 30
0.0
 11
19.5
 21
6.3
 31
0.0
  0
LINE
  8
0
  6
CONTINUOUS
 62
       7
  5
133
 10
19.5
 20
5.22
 30
0.0
 11
19.5
 21
7.0
 31
0.0
  0
LINE
  8
0
  6
CONTINUOUS
 62
       7
  5
134
 10
12.5
 20
5.22
 30
0.0
 11
12.5
 21
7.0
 31
0.0
  0
LINE
  8
0
  6
CONTINUOUS
 62
       7
  5
135
 10
55.5
 20
2.0
 30
0.0
 11
71.0
 21
2.0
 31
0.0
  0
LINE
  8
0
  6
CONTINUOUS
 62
       7
  5
136
 10
55.5
 20
0.0
 30
0.0
 11
71.0
 21
0.0
 31
0.0
  0
LINE
  8
0
  6
CONTINUOUS
 62
       7
  5
137
 10
71.0
 20
0.0
 30
0.0
 11
71.0
 21
2.0
 31
0.0
  0
LINE
  8
0
  6
CONTINUOUS
 62
       7
  5
138
 10
8.5
 20
2.0
 30
0.0
 11
8.5
 21
7.0
 31
0.0
  0
LINE
  8
0
  6
CONTINUOUS
 62
       7
  5
139
 10
55.5
 20
2.0
 30
0.0
 11
55.5
 21
7.0
 31
0.0
  0
LINE
  8
0
  6
CONTINUOUS
 62
       7
  5
13A
 10
10.5
 20
2.0
 30
0.0
 11
10.5
 21
7.0
 31
0.0
  0
LINE
  8
0
  6
CONTINUOUS
 62
       7
  5
13B
 10
53.5
 20
2.0
 30
0.0
 11
53.5
 21
7.0
 31
0.0
  0
LINE
  8
0
  6
CONTINUOUS
 62
       7
  5
13C
 10
10.5
 20
7.0
 30
0.0
 11
53.5
 21
7.0
 31
0.0
  0
LINE
  8
0
  6
CONTINUOUS
 62
       7
  5
13D
 10
10.5
 20
9.0
 30
0.0
 11
53.5
 21
9.0
 31
0.0
  0
LINE
  8
0
  6
CENTER
 62
       2
  5
13E
 10
18.49701779
 20
69.01
 30
0.0
 11
27.49701541
 21
69.01
 31
0.0
  0
LINE
  8
0
  6
CENTER
 62
       2
  5
13F
 10
23.0
 20
64.51108184
 30
0.0
 11
23.0
 21
73.51107637
 31
0.0
  0
LINE
  8
0
  6
CENTER
 62
       2
  5
140
 10
23.41848638
 20
43.5
 30
0.0
 11
40.57548579
 21
43.5
 31
0.0
  0
LINE
  8
0
  6
CENTER
 62
       2
  5
141
 10
23.41848638
 20
23.5
 30
0.0
 11
40.57548579
 21
23.5
 31
0.0
  0
LINE
  8
0
  6
CONTINUOUS
 62
       7
  5
142
 10
11.0
 20
57.0
 30
0.0
 11
53.0
 21
57.0
 31
0.0
  0
LINE
  8
0
  6
CENTER
 62
       2
  5
143
 10
32.0
 20
154.49
 30
0.0
 11
32.0
 21
-1.99
 31
0.0
  0
LINE
  8
0
  6
CONTINUOUS
 62
       7
  5
144
 10
11.0
 20
77.5
 30
0.0
 11
53.0
 21
77.5
 31
0.0
  0
LINE
  8
0
  6
CONTINUOUS
 62
       7
  5
145
 10
21.03
 20
141.25
 30
0.0
 11
42.97
 21
141.25
 31
0.0
  0
LINE
  8
0
  6
CONTINUOUS
 62
       7
  5
146
 10
41.43
 20
141.25
 30
0.0
 11
41.43
 21
146.75
 31
0.0
  0
LINE
  8
0
  6
CONTINUOUS
 62
       7
  5
147
 10
39.03
 20
141.25
 30
0.0
 11
39.03
 21
146.75
 31
0.0
  0
LINE
  8
0
  6
CONTINUOUS
 62
       7
  5
148
 10
24.97
 20
141.25
 30
0.0
 11
24.97
 21
146.75
 31
0.0
  0
LINE
  8
0
  6
CONTINUOUS
 62
       7
  5
149
 10
22.57
 20
141.25
 30
0.0
 11
22.57
 21
146.75
 31
0.0
  0
LINE
  8
0
  6
CONTINUOUS
 62
       7
  5
14A
 10
34.4
 20
141.25
 30
0.0
 11
34.4
 21
146.59
 31
0.0
  0
LINE
  8
0
  6
CONTINUOUS
 62
       7
  5
14B
 10
29.6
 20
141.25
 30
0.0
 11
29.6
 21
146.59
 31
0.0
  0
LINE
  8
0
  6
CONTINUOUS
 62
       7
  5
14C
 10
22.5
 20
146.75
 30
0.0
 11
21.03
 21
145.9
 31
0.0
  0
LINE
  8
0
  6
CONTINUOUS
 62
       7
  5
14D
 10
22.5
 20
146.75
 30
0.0
 11
41.5
 21
146.75
 31
0.0
  0
LINE
  8
0
  6
CONTINUOUS
 62
       7
  5
14E
 10
41.5
 20
146.75
 30
0.0
 11
42.97
 21
145.9
 31
0.0
  0
LINE
  8
0
  6
CONTINUOUS
 62
       7
  5
14F
 10
42.97
 20
141.25
 30
0.0
 11
42.97
 21
145.9
 31
0.0
  0
LINE
  8
0
  6
CONTINUOUS
 62
       7
  5
150
 10
37.49
 20
141.25
 30
0.0
 11
37.49
 21
145.9
 31
0.0
  0
LINE
  8
0
  6
CONTINUOUS
 62
       7
  5
151
 10
26.52
 20
141.25
 30
0.0
 11
26.52
 21
145.9
 31
0.0
  0
LINE
  8
0
  6
CONTINUOUS
 62
       7
  5
152
 10
21.03
 20
141.25
 30
0.0
 11
21.03
 21
145.9
 31
0.0
  0
LINE
  8
0
  6
CONTINUOUS
 62
       7
  5
153
 10
43.25
 20
136.75
 30
0.0
 11
43.25
 21
121.25
 31
0.0
  0
LINE
  8
0
  6
CONTINUOUS
 62
       7
  5
154
 10
20.75
 20
136.75
 30
0.0
 11
43.25
 21
136.75
 31
0.0
  0
LINE
  8
0
  6
CONTINUOUS
 62
       7
  5
155
 10
20.75
 20
136.75
 30
0.0
 11
20.75
 21
121.25
 31
0.0
  0
LINE
  8
0
  6
CONTINUOUS
 62
       7
  5
156
 10
43.25
 20
128.5
 30
0.0
 11
52.0
 21
128.5
 31
0.0
  0
LINE
  8
0
  6
CONTINUOUS
 62
       7
  5
157
 10
20.75
 20
127.5
 30
0.0
 11
11.0
 21
127.5
 31
0.0
  0
LINE
  8
0
  6
CONTINUOUS
 62
       7
  5
158
 10
53.0
 20
127.5
 30
0.0
 11
43.25
 21
127.5
 31
0.0
  0
LINE
  8
0
  6
CONTINUOUS
 62
       7
  5
159
 10
50.5
 20
9.0
 30
0.0
 11
50.5
 21
127.5
 31
0.0
  0
LINE
  8
0
  6
CONTINUOUS
 62
       7
  5
15A
 10
13.5
 20
9.0
 30
0.0
 11
13.5
 21
127.5
 31
0.0
  0
LINE
  8
0
  6
CONTINUOUS
 62
       7
  5
15B
 10
11.0
 20
127.5
 30
0.0
 11
12.0
 21
128.5
 31
0.0
  0
LINE
  8
0
  6
CONTINUOUS
 62
       7
  5
15C
 10
52.0
 20
128.5
 30
0.0
 11
53.0
 21
127.5
 31
0.0
  0
LINE
  8
0
  6
CONTINUOUS
 62
       7
  5
15D
 10
53.0
 20
127.5
 30
0.0
 11
53.0
 21
9.0
 31
0.0
  0
LINE
  8
0
  6
CONTINUOUS
 62
       7
  5
15E
 10
12.0
 20
128.5
 30
0.0
 11
20.75
 21
128.5
 31
0.0
  0
LINE
  8
0
  6
CONTINUOUS
 62
       7
  5
15F
 10
11.0
 20
9.0
 30
0.0
 11
11.0
 21
127.5
 31
0.0
  0
LINE
  8
0
  6
CONTINUOUS
 62
       7
  5
160
 10
32.41
 20
108.32
 30
0.0
 11
33.77
 21
109.67
 31
0.0
  0
LINE
  8
0
  6
CONTINUOUS
 62
       7
  5
161
 10
32.82
 20
107.91
 30
0.0
 11
34.18
 21
109.26
 31
0.0
  0
LINE
  8
0
  6
CONTINUOUS
 62
       7
  5
162
 10
31.59
 20
108.32
 30
0.0
 11
31.18
 21
108.73
 31
0.0
  0
LINE
  8
0
  6
CONTINUOUS
 62
       7
  5
163
 10
31.18
 20
107.91
 30
0.0
 11
30.77
 21
108.32
 31
0.0
  0
LINE
  8
0
  6
CONTINUOUS
 62
       7
  5
164
 10
29.83
 20
105.73
 30
0.0
 11
31.18
 21
107.09
 31
0.0
  0
LINE
  8
0
  6
CONTINUOUS
 62
       7
  5
165
 10
30.24
 20
105.32
 30
0.0
 11
31.59
 21
106.68
 31
0.0
  0
LINE
  8
0
  6
CONTINUOUS
 62
       7
  5
166
 10
30.77
 20
108.32
 30
0.0
 11
31.18
 21
108.73
 31
0.0
  0
LINE
  8
0
  6
CONTINUOUS
 62
       7
  5
167
 10
32.82
 20
106.27
 30
0.0
 11
33.23
 21
106.68
 31
0.0
  0
LINE
  8
0
  6
CONTINUOUS
 62
       7
  5
168
 10
33.23
 20
106.68
 30
0.0
 11
32.82
 21
107.09
 31
0.0
  0
LINE
  8
0
  6
CONTINUOUS
 62
       7
  5
169
 10
32.82
 20
106.27
 30
0.0
 11
32.41
 21
106.68
 31
0.0
  0
LINE
  8
0
  6
CONTINUOUS
 62
       7
  5
16A
 10
43.25
 20
123.0
 30
0.0
 11
43.5
 21
123.0
 31
0.0
  0
LINE
  8
0
  6
CONTINUOUS
 62
       7
  5
16B
 10
43.25
 20
122.5
 30
0.0
 11
43.5
 21
122.5
 31
0.0
  0
LINE
  8
0
  6
CONTINUOUS
 62
       7
  5
16C
 10
45.75
 20
119.0
 30
0.0
 11
45.75
 21
96.0
 31
0.0
  0
LINE
  8
0
  6
CONTINUOUS
 62
       7
  5
16D
 10
18.25
 20
119.0
 30
0.0
 11
18.25
 21
96.0
 31
0.0
  0
LINE
  8
0
  6
CONTINUOUS
 62
       7
  5
16E
 10
20.5
 20
93.75
 30
0.0
 11
43.5
 21
93.75
 31
0.0
  0
LINE
  8
0
  6
CONTINUOUS
 62
       7
  5
16F
 10
20.5
 20
121.25
 30
0.0
 11
43.5
 21
121.25
 31
0.0
  0
LINE
  8
0
  6
CENTER
 62
       2
  5
170
 10
25.13
 20
107.5
 30
0.0
 11
39.42
 21
107.5
 31
0.0
  0
LINE
  8
0
  6
CONTINUOUS
 62
       7
  5
171
 10
20.5
 20
92.5
 30
0.0
 11
43.5
 21
92.5
 31
0.0
  0
LINE
  8
0
  6
CONTINUOUS
 62
       7
  5
172
 10
47.0
 20
119.0
 30
0.0
 11
47.0
 21
96.0
 31
0.0
  0
LINE
  8
0
  6
CONTINUOUS
 62
       7
  5
173
 10
20.5
 20
122.5
 30
0.0
 11
20.75
 21
122.5
 31
0.0
  0
LINE
  8
0
  6
CONTINUOUS
 62
       7
  5
174
 10
17.0
 20
119.0
 30
0.0
 11
17.0
 21
96.0
 31
0.0
  0
LINE
  8
0
  6
CONTINUOUS
 62
       7
  5
175
 10
20.5
 20
92.0
 30
0.0
 11
43.5
 21
92.0
 31
0.0
  0
LINE
  8
0
  6
CONTINUOUS
 62
       7
  5
176
 10
16.5
 20
119.0
 30
0.0
 11
16.5
 21
96.0
 31
0.0
  0
LINE
  8
0
  6
CONTINUOUS
 62
       7
  5
177
 10
47.5
 20
119.0
 30
0.0
 11
47.5
 21
96.0
 31
0.0
  0
LINE
  8
0
  6
CONTINUOUS
 62
       7
  5
178
 10
20.5
 20
123.0
 30
0.0
 11
20.75
 21
123.0
 31
0.0
  0
LINE
  8
0
  6
CONTINUOUS
 62
       7
  5
179
 10
-7.0
 20
0.0
 30
0.0
 11
-7.0
 21
2.0
 31
0.0
  0
LINE
  8
0
  6
DASHED
 62
       2
  5
17A
 10
67.25
 20
2.0
 30
0.0
 11
67.25
 21
0.0
 31
0.0
  0
LINE
  8
0
  6
CENTER
 62
       2
  5
17B
 10
64.0
 20
5.0
 30
0.0
 11
64.0
 21
-2.0
 31
0.0
  0
LINE
  8
0
  6
DASHED
 62
       2
  5
17C
 10
60.75
 20
2.0
 30
0.0
 11
60.75
 21
0.0
 31
0.0
  0
LINE
  8
0
  6
DASHED
 62
       2
  5
17D
 10
3.25
 20
2.0
 30
0.0
 11
3.25
 21
0.0
 31
0.0
  0
LINE
  8
0
  6
DASHED
 62
       2
  5
17E
 10
-3.25
 20
2.0
 30
0.0
 11
-3.25
 21
0.0
 31
0.0
  0
LINE
  8
0
  6
CENTER
 62
       2
  5
17F
 10
0.0
 20
5.0
 30
0.0
 11
0.0
 21
-2.0
 31
0.0
  0
ENDBLK
  8
0
  5
180
  0
BLOCK
  8
0
  5
181
  2
MS_4
 70
       0
 10
0.0
 20
0.0
 30
0.0
  3
MS_4
  0
LINE
  8
0
  6
CONTINUOUS
 62
       7
  5
182
 10
-34.5
 20
92.5
 30
0.0
 11
-35.5
 21
92.5
 31
0.0
  0
LINE
  8
0
  6
CONTINUOUS
 62
       7
  5
183
 10
-34.5
 20
122.5
 30
0.0
 11
-35.5
 21
122.5
 31
0.0
  0
SOLID
  8
0
  6
CONTINUOUS
 62
       7
  5
184
 10
-35.5
 20
122.5
 30
0.0
 11
-34.5
 21
122.5
 31
0.0
 12
-35.5
 22
92.5
 32
0.0
 13
-34.5
 23
92.5
 33
0.0
  0
LINE
  8
0
  6
CONTINUOUS
 62
       7
  5
185
 10
-34.5
 20
122.5
 30
0.0
 11
-34.5
 21
92.5
 31
0.0
  0
LINE
  8
0
  6
CONTINUOUS
 62
       7
  5
186
 10
-35.5
 20
122.5
 30
0.0
 11
-35.5
 21
92.5
 31
0.0
  0
LINE
  8
0
  6
CONTINUOUS
 62
       7
  5
187
 10
-44.55
 20
93.9
 30
0.0
 11
-46.55
 21
93.9
 31
0.0
  0
LINE
  8
0
  6
CONTINUOUS
 62
       7
  5
188
 10
-44.55
 20
121.1
 30
0.0
 11
-46.55
 21
121.1
 31
0.0
  0
LINE
  8
0
  6
CONTINUOUS
 62
       7
  5
189
 10
-44.55
 20
121.1
 30
0.0
 11
-44.55
 21
93.9
 31
0.0
  0
SOLID
  8
0
  6
CONTINUOUS
 62
       7
  5
18A
 10
-46.55
 20
121.1
 30
0.0
 11
-44.55
 21
121.1
 31
0.0
 12
-46.55
 22
93.9
 32
0.0
 13
-44.55
 23
93.9
 33
0.0
  0
LINE
  8
0
  6
CONTINUOUS
 62
       7
  5
18B
 10
-46.55
 20
121.1
 30
0.0
 11
-46.55
 21
93.9
 31
0.0
  0
ARC
  8
0
  6
CONTINUOUS
 62
       7
  5
18C
 10
-78.49933132
 20
96.00066868
 30
0.0
 40
2.25066878
 50
180.01702268
 51
269.98297732
  0
ARC
  8
0
  6
CONTINUOUS
 62
       7
  5
18D
 10
-78.50039511
 20
119.00039511
 30
0.0
 40
2.24960493
 50
89.9899369
 51
180.0100631
  0
ARC
  8
0
  6
CONTINUOUS
 62
       7
  5
18E
 10
-64.75045012
 20
133.03217656
 30
0.0
 40
13.71638087
 50
98.72027957
 51
110.25924562
  0
ARC
  8
0
  6
CONTINUOUS
 62
       7
  5
18F
 10
-74.25045108
 20
133.03218025
 30
0.0
 40
13.71637707
 50
98.72027797
 51
110.25924722
  0
ARC
  8
0
  6
CONTINUOUS
 62
       7
  5
190
 10
-74.24225946
 20
133.03042702
 30
0.0
 40
13.71549976
 50
69.77185635
 51
81.35222337
  0
ARC
  8
0
  6
CONTINUOUS
 62
       7
  5
191
 10
-64.74225851
 20
133.03043071
 30
0.0
 40
13.71549596
 50
69.77185474
 51
81.35222497
  0
LINE
  8
0
  6
CONTINUOUS
 62
       7
  5
192
 10
-78.13
 20
136.75
 30
0.0
 11
-78.13
 21
141.25
 31
0.0
  0
LINE
  8
0
  6
CONTINUOUS
 62
       7
  5
193
 10
-60.87
 20
136.75
 30
0.0
 11
-60.87
 21
141.25
 31
0.0
  0
LINE
  8
0
  6
CONTINUOUS
 62
       2
  5
194
 10
-78.8
 20
136.75
 30
0.0
 11
-78.8
 21
141.25
 31
0.0
  0
LINE
  8
0
  6
CONTINUOUS
 62
       2
  5
195
 10
-60.2
 20
136.75
 30
0.0
 11
-60.2
 21
141.25
 31
0.0
  0
LINE
  8
0
  6
CONTINUOUS
 62
       7
  5
196
 10
-30.0
 20
127.5
 30
0.0
 11
-29.74
 21
128.5
 31
0.0
  0
LINE
  8
0
  6
CONTINUOUS
 62
       7
  5
197
 10
30.0
 20
127.5
 30
0.0
 11
29.73
 21
128.5
 31
0.0
  0
LINE
  8
0
  6
CONTINUOUS
 62
       7
  5
198
 10
24.5
 20
0.0
 30
0.0
 11
24.5
 21
2.0
 31
0.0
  0
LINE
  8
0
  6
CONTINUOUS
 62
       7
  5
199
 10
-24.5
 20
0.0
 30
0.0
 11
-24.5
 21
2.0
 31
0.0
  0
LINE
  8
0
  6
CONTINUOUS
 62
       7
  5
19A
 10
32.5
 20
2.0
 30
0.0
 11
-32.5
 21
2.0
 31
0.0
  0
LINE
  8
0
  6
CONTINUOUS
 62
       7
  5
19B
 10
32.5
 20
0.0
 30
0.0
 11
-32.5
 21
0.0
 31
0.0
  0
LINE
  8
0
  6
CONTINUOUS
 62
       7
  5
19C
 10
32.5
 20
57.0
 30
0.0
 11
-32.5
 21
57.0
 31
0.0
  0
LINE
  8
0
  6
CONTINUOUS
 62
       7
  5
19D
 10
32.5
 20
9.0
 30
0.0
 11
-32.5
 21
9.0
 31
0.0
  0
LINE
  8
0
  6
CENTER
 62
       2
  5
19E
 10
0.0
 20
133.0
 30
0.0
 11
0.0
 21
-6.0
 31
0.0
  0
LINE
  8
0
  6
CONTINUOUS
 62
       7
  5
19F
 10
-32.5
 20
77.5
 30
0.0
 11
32.5
 21
77.5
 31
0.0
  0
LINE
  8
0
  6
CONTINUOUS
 62
       7
  5
1A0
 10
-44.55
 20
93.9
 30
0.0
 11
-44.55
 21
92.5
 31
0.0
  0
LINE
  8
0
  6
CONTINUOUS
 62
       7
  5
1A1
 10
-34.5
 20
92.5
 30
0.0
 11
-34.5
 21
92.0
 31
0.0
  0
LINE
  8
0
  6
CONTINUOUS
 62
       7
  5
1A2
 10
-60.75
 20
121.25
 30
0.0
 11
-60.75
 21
93.75
 31
0.0
  0
LINE
  8
0
  6
CONTINUOUS
 62
       7
  5
1A3
 10
-62.25
 20
121.25
 30
0.0
 11
-62.25
 21
93.75
 31
0.0
  0
LINE
  8
0
  6
CONTINUOUS
 62
       7
  5
1A4
 10
-63.25
 20
121.25
 30
0.0
 11
-63.25
 21
93.75
 31
0.0
  0
LINE
  8
0
  6
CONTINUOUS
 62
       7
  5
1A5
 10
-64.75
 20
121.25
 30
0.0
 11
-64.75
 21
93.75
 31
0.0
  0
LINE
  8
0
  6
CONTINUOUS
 62
       7
  5
1A6
 10
-67.75
 20
121.25
 30
0.0
 11
-67.75
 21
93.75
 31
0.0
  0
LINE
  8
0
  6
CONTINUOUS
 62
       7
  5
1A7
 10
-69.25
 20
121.25
 30
0.0
 11
-69.25
 21
93.75
 31
0.0
  0
LINE
  8
0
  6
CONTINUOUS
 62
       7
  5
1A8
 10
-70.25
 20
121.25
 30
0.0
 11
-70.25
 21
93.75
 31
0.0
  0
LINE
  8
0
  6
CONTINUOUS
 62
       7
  5
1A9
 10
-71.75
 20
121.25
 30
0.0
 11
-71.75
 21
93.75
 31
0.0
  0
LINE
  8
0
  6
CONTINUOUS
 62
       7
  5
1AA
 10
-74.75
 20
121.25
 30
0.0
 11
-74.75
 21
93.75
 31
0.0
  0
LINE
  8
0
  6
CONTINUOUS
 62
       7
  5
1AB
 10
-76.25
 20
121.25
 30
0.0
 11
-76.25
 21
93.75
 31
0.0
  0
LINE
  8
0
  6
CONTINUOUS
 62
       7
  5
1AC
 10
-34.5
 20
123.0
 30
0.0
 11
-32.5
 21
123.0
 31
0.0
  0
LINE
  8
0
  6
CONTINUOUS
 62
       7
  5
1AD
 10
-34.5
 20
92.0
 30
0.0
 11
-32.5
 21
92.0
 31
0.0
  0
LINE
  8
0
  6
CONTINUOUS
 62
       7
  5
1AE
 10
-34.5
 20
123.0
 30
0.0
 11
-34.5
 21
122.5
 31
0.0
  0
LINE
  8
0
  6
CONTINUOUS
 62
       7
  5
1AF
 10
-44.55
 20
122.5
 30
0.0
 11
-35.5
 21
122.5
 31
0.0
  0
LINE
  8
0
  6
CONTINUOUS
 62
       7
  5
1B0
 10
-44.55
 20
92.5
 30
0.0
 11
-35.5
 21
92.5
 31
0.0
  0
LINE
  8
0
  6
CONTINUOUS
 62
       7
  5
1B1
 10
-44.55
 20
122.5
 30
0.0
 11
-44.55
 21
121.1
 31
0.0
  0
LINE
  8
0
  6
CONTINUOUS
 62
       7
  5
1B2
 10
-51.45
 20
93.9
 30
0.0
 11
-46.55
 21
93.9
 31
0.0
  0
LINE
  8
0
  6
CONTINUOUS
 62
       7
  5
1B3
 10
-74.75
 20
121.25
 30
0.0
 11
-71.75
 21
121.25
 31
0.0
  0
LINE
  8
0
  6
CONTINUOUS
 62
       7
  5
1B4
 10
-74.75
 20
93.75
 30
0.0
 11
-71.75
 21
93.75
 31
0.0
  0
LINE
  8
0
  6
CONTINUOUS
 62
       7
  5
1B5
 10
-70.25
 20
93.75
 30
0.0
 11
-69.25
 21
93.75
 31
0.0
  0
LINE
  8
0
  6
CONTINUOUS
 62
       7
  5
1B6
 10
-70.25
 20
121.25
 30
0.0
 11
-69.25
 21
121.25
 31
0.0
  0
LINE
  8
0
  6
CONTINUOUS
 62
       7
  5
1B7
 10
-71.75
 20
121.0
 30
0.0
 11
-70.25
 21
121.0
 31
0.0
  0
LINE
  8
0
  6
CONTINUOUS
 62
       7
  5
1B8
 10
-71.75
 20
94.0
 30
0.0
 11
-70.25
 21
94.0
 31
0.0
  0
LINE
  8
0
  6
CONTINUOUS
 62
       7
  5
1B9
 10
-69.25
 20
121.0
 30
0.0
 11
-67.75
 21
121.0
 31
0.0
  0
LINE
  8
0
  6
CONTINUOUS
 62
       7
  5
1BA
 10
-69.25
 20
94.0
 30
0.0
 11
-67.75
 21
94.0
 31
0.0
  0
LINE
  8
0
  6
CONTINUOUS
 62
       7
  5
1BB
 10
-67.75
 20
121.25
 30
0.0
 11
-64.75
 21
121.25
 31
0.0
  0
LINE
  8
0
  6
CONTINUOUS
 62
       7
  5
1BC
 10
-67.75
 20
93.75
 30
0.0
 11
-64.75
 21
93.75
 31
0.0
  0
LINE
  8
0
  6
CONTINUOUS
 62
       7
  5
1BD
 10
-64.75
 20
121.0
 30
0.0
 11
-63.25
 21
121.0
 31
0.0
  0
LINE
  8
0
  6
CONTINUOUS
 62
       7
  5
1BE
 10
-64.75
 20
94.0
 30
0.0
 11
-63.25
 21
94.0
 31
0.0
  0
LINE
  8
0
  6
CONTINUOUS
 62
       7
  5
1BF
 10
-63.25
 20
121.25
 30
0.0
 11
-62.25
 21
121.25
 31
0.0
  0
LINE
  8
0
  6
CONTINUOUS
 62
       7
  5
1C0
 10
-63.25
 20
93.75
 30
0.0
 11
-62.25
 21
93.75
 31
0.0
  0
LINE
  8
0
  6
CONTINUOUS
 62
       7
  5
1C1
 10
-62.25
 20
121.0
 30
0.0
 11
-60.75
 21
121.0
 31
0.0
  0
LINE
  8
0
  6
CONTINUOUS
 62
       7
  5
1C2
 10
-62.25
 20
94.0
 30
0.0
 11
-60.75
 21
94.0
 31
0.0
  0
LINE
  8
0
  6
CONTINUOUS
 62
       7
  5
1C3
 10
-60.75
 20
121.25
 30
0.0
 11
-51.45
 21
121.25
 31
0.0
  0
LINE
  8
0
  6
CONTINUOUS
 62
       7
  5
1C4
 10
-60.75
 20
93.75
 30
0.0
 11
-51.45
 21
93.75
 31
0.0
  0
LINE
  8
0
  6
CONTINUOUS
 62
       7
  5
1C5
 10
-76.25
 20
94.0
 30
0.0
 11
-74.75
 21
94.0
 31
0.0
  0
LINE
  8
0
  6
CONTINUOUS
 62
       7
  5
1C6
 10
-76.25
 20
121.0
 30
0.0
 11
-74.75
 21
121.0
 31
0.0
  0
LINE
  8
0
  6
CONTINUOUS
 62
       7
  5
1C7
 10
-78.5
 20
121.25
 30
0.0
 11
-76.25
 21
121.25
 31
0.0
  0
LINE
  8
0
  6
CONTINUOUS
 62
       7
  5
1C8
 10
-78.5
 20
93.75
 30
0.0
 11
-76.25
 21
93.75
 31
0.0
  0
LINE
  8
0
  6
CONTINUOUS
 62
       7
  5
1C9
 10
-51.45
 20
121.1
 30
0.0
 11
-46.55
 21
121.1
 31
0.0
  0
LINE
  8
0
  6
CONTINUOUS
 62
       7
  5
1CA
 10
-51.45
 20
121.25
 30
0.0
 11
-51.45
 21
93.75
 31
0.0
  0
LINE
  8
0
  6
CONTINUOUS
 62
       7
  5
1CB
 10
-80.75
 20
136.75
 30
0.0
 11
-80.75
 21
96.0
 31
0.0
  0
LINE
  8
0
  6
CONTINUOUS
 62
       7
  5
1CC
 10
32.5
 20
127.5
 30
0.0
 11
-32.5
 21
127.5
 31
0.0
  0
LINE
  8
0
  6
CONTINUOUS
 62
       7
  5
1CD
 10
-30.0
 20
127.5
 30
0.0
 11
-30.0
 21
9.0
 31
0.0
  0
LINE
  8
0
  6
CONTINUOUS
 62
       7
  5
1CE
 10
30.0
 20
127.5
 30
0.0
 11
30.0
 21
9.0
 31
0.0
  0
LINE
  8
0
  6
CENTER
 62
       2
  5
1CF
 10
-85.75
 20
107.5
 30
0.0
 11
-28.87
 21
107.5
 31
0.0
  0
LINE
  8
0
  6
CONTINUOUS
 62
       7
  5
1D0
 10
-79.0
 20
141.25
 30
0.0
 11
-60.0
 21
141.25
 31
0.0
  0
LINE
  8
0
  6
CONTINUOUS
 62
       7
  5
1D1
 10
-62.68
 20
141.25
 30
0.0
 11
-62.68
 21
146.75
 31
0.0
  0
LINE
  8
0
  6
CONTINUOUS
 62
       7
  5
1D2
 10
-66.83
 20
141.25
 30
0.0
 11
-66.83
 21
146.75
 31
0.0
  0
LINE
  8
0
  6
CONTINUOUS
 62
       7
  5
1D3
 10
-72.18
 20
141.25
 30
0.0
 11
-72.18
 21
146.75
 31
0.0
  0
LINE
  8
0
  6
CONTINUOUS
 62
       7
  5
1D4
 10
-76.33
 20
141.25
 30
0.0
 11
-76.33
 21
146.75
 31
0.0
  0
LINE
  8
0
  6
CONTINUOUS
 62
       7
  5
1D5
 10
-79.0
 20
146.75
 30
0.0
 11
-60.0
 21
146.75
 31
0.0
  0
LINE
  8
0
  6
CONTINUOUS
 62
       7
  5
1D6
 10
-60.0
 20
141.25
 30
0.0
 11
-60.0
 21
146.75
 31
0.0
  0
LINE
  8
0
  6
CONTINUOUS
 62
       7
  5
1D7
 10
-69.5
 20
141.25
 30
0.0
 11
-69.5
 21
145.9
 31
0.0
  0
LINE
  8
0
  6
CONTINUOUS
 62
       7
  5
1D8
 10
-79.0
 20
141.25
 30
0.0
 11
-79.0
 21
146.75
 31
0.0
  0
LINE
  8
0
  6
CENTER
 62
       2
  5
1D9
 10
-69.5
 20
120.67
 30
0.0
 11
-69.5
 21
154.49
 31
0.0
  0
LINE
  8
0
  6
CONTINUOUS
 62
       7
  5
1DA
 10
-32.5
 20
127.5
 30
0.0
 11
-32.5
 21
0.0
 31
0.0
  0
LINE
  8
0
  6
CONTINUOUS
 62
       7
  5
1DB
 10
31.5
 20
128.5
 30
0.0
 11
32.5
 21
127.5
 31
0.0
  0
LINE
  8
0
  6
CONTINUOUS
 62
       7
  5
1DC
 10
-31.5
 20
128.5
 30
0.0
 11
-32.5
 21
127.5
 31
0.0
  0
LINE
  8
0
  6
CONTINUOUS
 62
       7
  5
1DD
 10
-31.5
 20
128.5
 30
0.0
 11
31.5
 21
128.5
 31
0.0
  0
LINE
  8
0
  6
CONTINUOUS
 62
       7
  5
1DE
 10
32.5
 20
127.5
 30
0.0
 11
32.5
 21
0.0
 31
0.0
  0
LINE
  8
0
  6
CONTINUOUS
 62
       7
  5
1DF
 10
-58.25
 20
136.75
 30
0.0
 11
-58.25
 21
121.25
 31
0.0
  0
LINE
  8
0
  6
CONTINUOUS
 62
       7
  5
1E0
 10
-80.75
 20
136.75
 30
0.0
 11
-58.25
 21
136.75
 31
0.0
  0
LINE
  8
0
  6
DASHED
 62
       2
  5
1E1
 10
3.25
 20
2.0
 30
0.0
 11
3.25
 21
0.0
 31
0.0
  0
LINE
  8
0
  6
DASHED
 62
       2
  5
1E2
 10
-3.25
 20
2.0
 30
0.0
 11
-3.25
 21
0.0
 31
0.0
  0
LINE
  8
0
  6
CENTER
 62
       2
  5
1E3
 10
-39.49999998
 20
43.5
 30
0.0
 11
-25.49999998
 21
43.5
 31
0.0
  0
LINE
  8
0
  6
CENTER
 62
       2
  5
1E4
 10
-39.49999998
 20
23.5
 30
0.0
 11
-25.49999998
 21
23.5
 31
0.0
  0
LINE
  8
0
  6
CENTER
 62
       2
  5
1E5
 10
25.5
 20
43.5
 30
0.0
 11
39.5
 21
43.5
 31
0.0
  0
ENDBLK
  8
0
  5
1E6
  0
BLOCK
  8
0
  6
BYBLOCK
 62
       0
  5
1ED
  2
_OPEN30
 70
       2
 10
0.0
 20
0.0
 30
0.0
  3
_OPEN30
  0
LINE
  8
0
  6
BYBLOCK
 62
       0
  5
1EE
 10
-1.0
 20
0.267949
 30
0.0
 11
0.0
 21
0.0
 31
0.0
  0
LINE
  8
0
  6
BYBLOCK
 62
       0
  5
1EF
 10
0.0
 20
0.0
 30
0.0
 11
-1.0
 21
-0.267949
 31
0.0
  0
LINE
  8
0
  6
BYBLOCK
 62
       0
  5
1F0
 10
0.0
 20
0.0
 30
0.0
 11
-1.0
 21
0.0
 31
0.0
  0
ENDBLK
  8
0
  6
BYBLOCK
 62
       0
  5
1F1
  0
ENDSEC
  0
SECTION
  2
ENTITIES
  0
INSERT
  8
0
  5
1E7
  2
MS_2
 10
188.93971963
 20
-11.29345794
 30
0.0
  0
INSERT
  8
0
  5
1E8
  2
MS_1
 10
-164.55028037
 20
-133.28345794
 30
0.0
  0
INSERT
  8
0
  5
1E9
  2
MS_4
 10
23.65971963
 20
-11.29345794
 30
0.0
  0
INSERT
  8
0
  5
1EA
  2
MS_3
 10
-164.55028037
 20
-11.29345794
 30
0.0
  0
POLYLINE
  8
0
 62
       2
  5
1EB
 66
       1
 10
0.0
 20
0.0
 30
0.0
  0
VERTEX
  8
0
 62
       2
  5
21C
 10
-93.55028037
 20
-133.28345794
 30
0.0
  0
VERTEX
  8
0
 62
       2
  5
21D
 10
-83.58326534
 20
-150.54683438
 30
0.0
  0
VERTEX
  8
0
 62
       2
  5
21E
 10
-48.81907395
 20
-150.54683438
 30
0.0
  0
SEQEND
  8
0
 62
       2
  5
21F
  0
INSERT
  8
0
 62
       2
  5
1F2
  2
_OPEN30
 10
-93.55028037
 20
-133.28345794
 30
0.0
 41
2.77
 42
2.77
 50
120.0
 43
2.77
  0
TEXT
  8
0
 62
       2
  5
1F3
 10
-79.33469989
 20
-147.57808485
 30
0.0
 40
6.30000019
  1
LEVER
 41
0.93749999
  7
MX_NOTE_STANDARD
 11
-79.33469989
 21
-144.42808476
 31
0.0
 73
       2
  0
POLYLINE
  8
0
 62
       2
  5
1F4
 66
       1
 10
0.0
 20
0.0
 30
0.0
  0
VERTEX
  8
0
 62
       2
  5
220
 10
-164.55028037
 20
-133.28345794
 30
0.0
  0
VERTEX
  8
0
 62
       2
  5
221
 10
-177.91836813
 20
-110.12925075
 30
0.0
  0
VERTEX
  8
0
 62
       2
  5
222
 10
-213.00897863
 20
-110.12925075
 30
0.0
  0
SEQEND
  8
0
 62
       2
  5
223
  0
INSERT
  8
0
 62
       2
  5
1F5
  2
_OPEN30
 10
-164.55028037
 20
-133.28345794
 30
0.0
 41
2.77
 42
2.77
 50
300.0
 43
2.77
  0
TEXT
  8
0
 62
       2
  5
1F6
 10
-211.9589786
 20
-107.16050123
 30
0.0
 40
6.30000019
  1
PIVOT
  7
MX_NOTE_STANDARD
 11
-211.9589786
 21
-104.01050114
 31
0.0
 73
       2
  0
POLYLINE
  8
0
 62
       2
  5
1F7
 66
       1
 10
0.0
 20
0.0
 30
0.0
  0
VERTEX
  8
0
 62
       2
  5
224
 10
56.15971963
 20
-11.29345794
 30
0.0
  0
VERTEX
  8
0
 62
       2
  5
225
 10
69.86427337
 20
12.44352544
 30
0.0
  0
VERTEX
  8
0
 62
       2
  5
226
 10
104.59590418
 20
12.44352544
 30
0.0
  0
SEQEND
  8
0
 62
       2
  5
227
  0
INSERT
  8
0
 62
       2
  5
1F8
  2
_OPEN30
 10
56.15971963
 20
-11.29345794
 30
0.0
 41
2.77
 42
2.77
 50
240.0
 43
2.77
  0
TEXT
  8
0
 62
       2
  5
1F9
 10
74.08027825
 20
15.41227497
 30
0.0
 40
6.30000019
  1
LEVER
 41
0.93749999
  7
MX_NOTE_STANDARD
 11
74.08027825
 21
18.56227506
 31
0.0
 73
       2
  0
POLYLINE
  8
0
 62
       2
  5
1FA
 66
       1
 10
0.0
 20
0.0
 30
0.0
  0
VERTEX
  8
0
 62
       2
  5
228
 10
23.65971963
 20
-11.29345794
 30
0.0
  0
VERTEX
  8
0
 62
       2
  5
229
 10
9.09460312
 20
-36.52097975
 30
0.0
  0
VERTEX
  8
0
 62
       2
  5
22A
 10
-24.69233817
 20
-36.52097975
 30
0.0
  0
SEQEND
  8
0
 62
       2
  5
22B
  0
INSERT
  8
0
 62
       2
  5
1FB
  2
_OPEN30
 10
23.65971963
 20
-11.29345794
 30
0.0
 41
2.77
 42
2.77
 50
60.0
 43
2.77
  0
TEXT
  8
0
 62
       2
  5
1FC
 10
-23.64233814
 20
-33.55223023
 30
0.0
 40
6.30000019
  1
PIVOT
  7
MX_NOTE_STANDARD
 11
-23.64233814
 21
-30.40223014
 31
0.0
 73
       2
  0
POLYLINE
  8
0
 62
       2
  5
1FD
 66
       1
 10
0.0
 20
0.0
 30
0.0
  0
VERTEX
  8
0
 62
       2
  5
22C
 10
195.93971963
 20
-11.29345794
 30
0.0
  0
VERTEX
  8
0
 62
       2
  5
22D
 10
209.64427337
 20
12.44352544
 30
0.0
  0
VERTEX
  8
0
 62
       2
  5
22E
 10
244.37590418
 20
12.44352544
 30
0.0
  0
SEQEND
  8
0
 62
       2
  5
22F
  0
INSERT
  8
0
 62
       2
  5
1FE
  2
_OPEN30
 10
195.93971963
 20
-11.29345794
 30
0.0
 41
2.77
 42
2.77
 50
240.0
 43
2.77
  0
TEXT
  8
0
 62
       2
  5
1FF
 10
213.86027825
 20
15.41227497
 30
0.0
 40
6.30000019
  1
LEVER
 41
0.93749999
  7
MX_NOTE_STANDARD
 11
213.86027825
 21
18.56227506
 31
0.0
 73
       2
  0
POLYLINE
  8
0
 62
       2
  5
200
 66
       1
 10
0.0
 20
0.0
 30
0.0
  0
VERTEX
  8
0
 62
       2
  5
230
 10
188.93971963
 20
-11.29345794
 30
0.0
  0
VERTEX
  8
0
 62
       2
  5
231
 10
174.37460312
 20
-36.52097975
 30
0.0
  0
VERTEX
  8
0
 62
       2
  5
232
 10
140.58766183
 20
-36.52097975
 30
0.0
  0
SEQEND
  8
0
 62
       2
  5
233
  0
INSERT
  8
0
 62
       2
  5
201
  2
_OPEN30
 10
188.93971963
 20
-11.29345794
 30
0.0
 41
2.77
 42
2.77
 50
60.0
 43
2.77
  0
TEXT
  8
0
 62
       2
  5
202
 10
141.63766186
 20
-33.55223023
 30
0.0
 40
6.30000019
  1
PIVOT
  7
MX_NOTE_STANDARD
 11
141.63766186
 21
-30.40223014
 31
0.0
 73
       2
  0
POLYLINE
  8
0
 62
       2
  5
203
 66
       1
 10
0.0
 20
0.0
 30
0.0
  0
VERTEX
  8
0
 62
       2
  5
234
 10
-93.55028037
 20
-11.29345794
 30
0.0
  0
VERTEX
  8
0
 62
       2
  5
235
 10
-79.84572663
 20
12.44352544
 30
0.0
  0
VERTEX
  8
0
 62
       2
  5
236
 10
-45.11409582
 20
12.44352544
 30
0.0
  0
SEQEND
  8
0
 62
       2
  5
237
  0
INSERT
  8
0
 62
       2
  5
204
  2
_OPEN30
 10
-93.55028037
 20
-11.29345794
 30
0.0
 41
2.77
 42
2.77
 50
240.0
 43
2.77
  0
TEXT
  8
0
 62
       2
  5
205
 10
-75.62972175
 20
15.41227497
 30
0.0
 40
6.30000019
  1
LEVER
 41
0.93749999
  7
MX_NOTE_STANDARD
 11
-75.62972175
 21
18.56227506
 31
0.0
 73
       2
  0
POLYLINE
  8
0
 62
       2
  5
206
 66
       1
 10
0.0
 20
0.0
 30
0.0
  0
VERTEX
  8
0
 62
       2
  5
238
 10
-164.55028037
 20
-11.29345794
 30
0.0
  0
VERTEX
  8
0
 62
       2
  5
239
 10
-179.11539688
 20
-36.52097975
 30
0.0
  0
VERTEX
  8
0
 62
       2
  5
23A
 10
-212.90233817
 20
-36.52097975
 30
0.0
  0
SEQEND
  8
0
 62
       2
  5
23B
  0
INSERT
  8
0
 62
       2
  5
207
  2
_OPEN30
 10
-164.55028037
 20
-11.29345794
 30
0.0
 41
2.77
 42
2.77
 50
60.0
 43
2.77
  0
TEXT
  8
0
 62
       2
  5
208
 10
-211.85233814
 20
-33.55223023
 30
0.0
 40
6.30000019
  1
PIVOT
  7
MX_NOTE_STANDARD
 11
-211.85233814
 21
-30.40223014
 31
0.0
 73
       2
  0
TEXT
  8
0
  6
CONTINUOUS
 62
       7
  5
209
 10
193.53971937
 20
-27.06794487
 30
0.0
 40
6.30000019
  1
D-4
  7
MX_NOTE_STANDARD
 11
193.53971937
 21
-23.91794478
 31
0.0
 73
       2
  0
TEXT
  8
0
  6
CONTINUOUS
 62
       7
  5
20A
 10
-140.95028063
 20
-182.78039235
 30
0.0
 40
6.30000019
  1
D-3
  7
MX_NOTE_STANDARD
 11
-140.95028063
 21
-179.63039225
 31
0.0
 73
       2
  0
TEXT
  8
0
  6
CONTINUOUS
 62
       7
  5
20B
 10
35.25971937
 20
-27.06794487
 30
0.0
 40
6.30000019
  1
D-2
  7
MX_NOTE_STANDARD
 11
35.25971937
 21
-23.91794478
 31
0.0
 73
       2
  0
TEXT
  8
0
  6
CONTINUOUS
 62
       7
  5
20C
 10
-140.81903063
 20
-27.06794487
 30
0.0
 40
6.30000019
  1
D-1
 41
1.12499999
  7
MX_NOTE_STANDARD
 11
-140.81903063
 21
-23.91794478
 31
0.0
 73
       2
  0
TEXT
  8
0
  6
CONTINUOUS
 62
       7
  5
20D
 10
-251.6169074
 20
182.3499999
 30
0.0
 40
6.30000019
  1
ETR SERIES
 41
1.07913669
  7
MX_NOTE_STANDARD
 11
-251.6169074
 21
185.5
 31
0.0
 73
       2
  0
LINE
  8
0
  6
CONTINUOUS
 62
       7
  5
20E
 10
-281.25
 20
175.5
 30
0.0
 11
-161.25
 21
175.5
 31
0.0
  0
LINE
  8
0
  6
CONTINUOUS
 62
       7
  5
20F
 10
-161.25
 20
195.5
 30
0.0
 11
-161.25
 21
175.5
 31
0.0
  0
LINE
  8
0
  6
CONTINUOUS
 62
       7
  5
210
 10
162.09997559
 20
-175.0
 30
0.0
 11
162.09997559
 21
-195.0
 31
0.0
  0
LINE
  8
0
  6
CONTINUOUS
 62
       7
  5
211
 10
162.09997559
 20
-175.0
 30
0.0
 11
282.09985352
 21
-175.0
 31
0.0
  0
TEXT
  8
0
  6
CONTINUOUS
 62
       7
  5
212
 10
170.28099767
 20
-189.5
 30
0.0
 40
9.0
  1
KOGANEI CORP.
 41
1.12068965
  7
MX_NOTE_STANDARD
 11
170.28099767
 21
-185.0
 31
0.0
 73
       2
  0
TEXT
  8
0
  6
CONTINUOUS
 62
       7
  5
213
 10
198.27702403
 20
182.3499999
 30
0.0
 40
6.30000019
  1
Ver. 1.0
 41
1.3114754
  7
MX_NOTE_STANDARD
 11
198.27702403
 21
185.5
 31
0.0
 73
       2
  0
LINE
  8
0
  6
CONTINUOUS
 62
       7
  5
214
 10
162.09997559
 20
175.5
 30
0.0
 11
282.09985352
 21
175.5
 31
0.0
  0
LINE
  8
0
  6
CONTINUOUS
 62
       7
  5
215
 10
162.09997559
 20
195.5
 30
0.0
 11
162.09997559
 21
175.5
 31
0.0
  0
LINE
  8
0
  6
CONTINUOUS
 62
       7
  5
216
 10
282.09985352
 20
195.5
 30
0.0
 11
282.09985352
 21
-195.0
 31
0.0
  0
LINE
  8
0
  6
CONTINUOUS
 62
       7
  5
217
 10
-281.25
 20
195.5
 30
0.0
 11
282.09985352
 21
195.5
 31
0.0
  0
LINE
  8
0
  6
CONTINUOUS
 62
       7
  5
218
 10
-281.25
 20
195.5
 30
0.0
 11
-281.25
 21
-195.0
 31
0.0
  0
LINE
  8
0
  6
CONTINUOUS
 62
       7
  5
219
 10
-281.25
 20
-195.0
 30
0.0
 11
282.09985352
 21
-195.0
 31
0.0
  0
TEXT
  8
0
  6
CONTINUOUS
 62
       7
  5
21A
 10
-268.25454551
 20
157.3499999
 30
0.0
 40
6.30000019
  1
MODEL:ETR200
 41
1.09090909
  7
MX_NOTE_STANDARD
 11
-268.25454551
 21
160.5
 31
0.0
 73
       2
  0
ENDSEC
  0
EOF
