  0
SECTION
  2
HEADER
  9
$ACADVER
  1
AC1009
  9
$INSBASE
 10
0.0
 20
0.0
 30
0.0
  9
$EXTMIN
 10
-138.399994
 20
-94.800003
 30
0.0
  9
$EXTMAX
 10
138.350006
 20
94.5
 30
0.0
  9
$LIMMIN
 10
-138.399994
 20
-94.800003
  9
$LIMMAX
 10
138.350006
 20
94.5
  9
$ORTHOMODE
 70
     0
  9
$REGENMODE
 70
     1
  9
$FILLMODE
 70
     1
  9
$QTEXTMODE
 70
     0
  9
$MIRRTEXT
 70
     1
  9
$DRAGMODE
 70
     2
  9
$LTSCALE
 40
1.0
  9
$OSMODE
 70
     0
  9
$ATTMODE
 70
     1
  9
$TEXTSIZE
 40
3.2
  9
$TRACEWID
 40
0.05
  9
$TEXTSTYLE
  7
MX_NOTE_STANDARD
  9
$CLAYER
  8
0
  9
$CELTYPE
  6
CONTINUOUS
  9
$CECOLOR
 62
   256
  9
$DIMSCALE
 40
1.0
  9
$DIMASZ
 40
2.5
  9
$DIMEXO
 40
1.5
  9
$DIMDLI
 40
3.75
  9
$DIMRND
 40
0.0
  9
$DIMDLE
 40
0.0
  9
$DIMEXE
 40
1.5
  9
$DIMTP
 40
0.0
  9
$DIMTM
 40
0.0
  9
$DIMTXT
 40
3.2
  9
$DIMCEN
 40
2.5
  9
$DIMTSZ
 40
0.0
  9
$DIMTOL
 70
     0
  9
$DIMLIM
 70
     0
  9
$DIMTIH
 70
     0
  9
$DIMTOH
 70
     0
  9
$DIMSE1
 70
     0
  9
$DIMSE2
 70
     0
  9
$DIMTAD
 70
     1
  9
$DIMZIN
 70
     8
  9
$DIMBLK
  1

  9
$DIMASO
 70
     1
  9
$DIMSHO
 70
     1
  9
$DIMPOST
  1

  9
$DIMAPOST
  1

  9
$DIMALT
 70
     0
  9
$DIMALTD
 70
     4
  9
$DIMALTF
 40
0.0394
  9
$DIMLFAC
 40
1.0
  9
$DIMTOFL
 70
     1
  9
$DIMTVP
 40
0.0
  9
$DIMTIX
 70
     0
  9
$DIMSOXD
 70
     0
  9
$DIMSAH
 70
     0
  9
$DIMBLK1
  1

  9
$DIMBLK2
  1

  9
$DIMSTYLE
  2
MXDIMSTYLE
  9
$DIMCLRD
 70
     0
  9
$DIMCLRE
 70
     0
  9
$DIMCLRT
 70
     0
  9
$DIMTFAC
 40
1.0
  9
$DIMGAP
 40
1.0
  9
$LUNITS
 70
     2
  9
$LUPREC
 70
     4
  9
$AXISMODE
 70
     0
  9
$AXISUNIT
 10
0.0
 20
0.0
  9
$SKETCHINC
 40
0.1
  9
$FILLETRAD
 40
0.0
  9
$AUNITS
 70
     0
  9
$AUPREC
 70
     0
  9
$MENU
  1
acad
  9
$ELEVATION
 40
0.0
  9
$PELEVATION
 40
0.0
  9
$THICKNESS
 40
0.0
  9
$LIMCHECK
 70
     0
  9
$BLIPMODE
 70
     1
  9
$CHAMFERA
 40
0.0
  9
$CHAMFERB
 40
0.0
  9
$SKPOLY
 70
     0
  9
$TDCREATE
 40
2452026.471921296
  9
$TDUPDATE
 40
2452026.471921296
  9
$TDINDWG
 40
0.0000000000
  9
$TDUSRTIMER
 40
0.0000000000
  9
$USRTIMER
 70
     1
  9
$ANGBASE
 50
0.0
  9
$ANGDIR
 70
     0
  9
$PDMODE
 70
     0
  9
$PDSIZE
 40
0.0
  9
$PLINEWID
 40
0.0
  9
$COORDS
 70
     1
  9
$SPLFRAME
 70
     0
  9
$SPLINETYPE
 70
     6
  9
$SPLINESEGS
 70
     8
  9
$ATTDIA
 70
     0
  9
$ATTREQ
 70
     1
  9
$HANDLING
 70
     1
  9
$HANDSEED
  5
24A
  9
$SURFTAB1
 70
     6
  9
$SURFTAB2
 70
     6
  9
$SURFTYPE
 70
     6
  9
$SURFU
 70
     6
  9
$SURFV
 70
     6
  9
$UCSNAME
  2

  9
$UCSORG
 10
0.0
 20
0.0
 30
0.0
  9
$UCSXDIR
 10
1.0
 20
0.0
 30
0.0
  9
$UCSYDIR
 10
0.0
 20
1.0
 30
0.0
  9
$PUCSNAME
  2

  9
$PUCSORG
 10
0.0
 20
0.0
 30
0.0
  9
$PUCSXDIR
 10
1.0
 20
0.0
 30
0.0
  9
$PUCSYDIR
 10
0.0
 20
1.0
 30
0.0
  9
$USERI1
 70
     0
  9
$USERI2
 70
     0
  9
$USERI3
 70
     0
  9
$USERI4
 70
     0
  9
$USERI5
 70
     0
  9
$USERR1
 40
0.0
  9
$USERR2
 40
0.0
  9
$USERR3
 40
0.0
  9
$USERR4
 40
0.0
  9
$USERR5
 40
0.0
  9
$WORLDVIEW
 70
     1
  9
$SHADEDGE
 70
     3
  9
$SHADEDIF
 70
    70
  9
$TILEMODE
 70
     1
  9
$MAXACTVP
 70
    16
  9
$PINSBASE
 10
0.0
 20
0.0
 30
0.0
  9
$PLIMCHECK
 70
     0
  9
$PEXTMIN
 10
1.000000E+20
 20
1.000000E+20
 30
1.000000E+20
  9
$PEXTMAX
 10
-1.000000E+20
 20
-1.000000E+20
 30
-1.000000E+20
  9
$PLIMMIN
 10
0.0
 20
0.0
  9
$PLIMMAX
 10
12.0
 20
9.0
  9
$UNITMODE
 70
     0
  9
$VISRETAIN
 70
     0
  9
$PLINEGEN
 70
     1
  9
$PSLTSCALE
 70
     0
  9
$TREEDEPTH
 70
  3020
  9
$DWGCODEPAGE
  3
dos932
  0
ENDSEC
  0
SECTION
  2
TABLES
  0
TABLE
  2
VPORT
 70
     1
  0
VPORT
  2
*ACTIVE
 70
     0
 10
0.0
 20
0.0
 11
1.0
 21
1.0
 12
-0.024994
 22
-0.150002
 13
0.0
 23
0.0
 14
1.0
 24
1.0
 15
0.0
 25
0.0
 16
0.0
 26
0.0
 36
1.0
 17
0.0
 27
0.0
 37
0.0
 40
191.193003
 41
1.732051
 42
50.0
 43
0.0
 44
0.0
 50
0.0
 51
0.0
 71
     0
 72
   100
 73
     1
 74
     1
 75
     0
 76
     0
 77
     0
 78
     0
  0
ENDTAB
  0
TABLE
  2
LTYPE
 70
     2
  0
LTYPE
  2
CONTINUOUS
 70
    64
  3
Solid line
 72
    65
 73
     0
 40
0.0
  0
LTYPE
  2
CENTER
 70
    64
  3
Center ____ _ ____ _ ____ _ ____ _ ____ _ ____
 72
    65
 73
     4
 40
50.8
 49
31.75
 49
-6.35
 49
6.35
 49
-6.35
  0
ENDTAB
  0
TABLE
  2
LAYER
 70
     2
  0
LAYER
  2
0
 70
     0
 62
     7
  6
CONTINUOUS
  0
LAYER
  2
DEFPOINTS
 70
     0
 62
     7
  6
CONTINUOUS
  0
ENDTAB
  0
TABLE
  2
STYLE
 70
     1
  0
STYLE
  2
MX_NOTE_STANDARD
 70
     0
 40
3.2
 41
1.0
 50
0.0
 71
     0
 42
3.2
  3
txt.shx
  4
extfont.shx
  0
ENDTAB
  0
TABLE
  2
VIEW
 70
     0
  0
ENDTAB
  0
TABLE
  2
UCS
 70
     0
  0
ENDTAB
  0
TABLE
  2
APPID
 70
     1
  0
APPID
  2
ACAD
 70
     0
  0
ENDTAB
  0
TABLE
  2
DIMSTYLE
 70
     1
  0
DIMSTYLE
  2
MXDIMSTYLE
 70
     0
  3

  4

  5

  6

  7

 40
1.0
 41
2.5
 42
1.5
 43
3.75
 44
1.5
 45
0.0
 46
0.0
 47
0.0
 48
0.0
 71
     0
 72
     0
 73
     0
 74
     0
 75
     0
 76
     0
 77
     1
 78
     8
140
3.2
141
2.5
142
0.0
143
0.0394
144
1.0
145
0.0
146
1.0
147
1.0
170
     0
171
     4
172
     1
173
     0
174
     0
175
     0
176
     0
177
     0
178
     0
  0
ENDTAB
  0
ENDSEC
  0
SECTION
  2
BLOCKS
  0
BLOCK
  8
0
  6
BYBLOCK
 62
     0
  5
148
  2
*X0
 70
     1
 10
0.0
 20
0.0
 30
0.0
  3
*X0
  0
LINE
  8
0
  6
BYBLOCK
 62
     0
  5
149
 10
-30.753649
 20
15.915398
 30
0.0
 11
-30.057987
 21
16.611061
 31
0.0
  0
ENDBLK
  8
0
  6
BYBLOCK
 62
     0
  5
14A
  0
BLOCK
  8
0
  6
BYBLOCK
 62
     0
  5
14D
  2
*X1
 70
     1
 10
0.0
 20
0.0
 30
0.0
  3
*X1
  0
LINE
  8
0
  6
BYBLOCK
 62
     0
  5
14E
 10
-30.800777
 20
16.0
 30
0.0
 11
-29.884156
 21
16.0
 31
0.0
  0
LINE
  8
0
  6
BYBLOCK
 62
     0
  5
14F
 10
-30.742375
 20
16.5
 30
0.0
 11
-29.942558
 21
16.5
 31
0.0
  0
LINE
  8
0
  6
BYBLOCK
 62
     0
  5
150
 10
-30.5
 20
15.725343
 30
0.0
 11
-30.5
 21
16.674412
 31
0.0
  0
LINE
  8
0
  6
BYBLOCK
 62
     0
  5
151
 10
-30.0
 20
15.835575
 30
0.0
 11
-30.0
 21
16.564181
 31
0.0
  0
ENDBLK
  8
0
  6
BYBLOCK
 62
     0
  5
152
  0
BLOCK
  8
0
  6
BYBLOCK
 62
     0
  5
155
  2
*X2
 70
     1
 10
0.0
 20
0.0
 30
0.0
  3
*X2
  0
LINE
  8
0
  6
BYBLOCK
 62
     0
  5
156
 10
-36.362926
 20
27.0
 30
0.0
 11
-35.733255
 21
27.0
 31
0.0
  0
LINE
  8
0
  6
BYBLOCK
 62
     0
  5
157
 10
-36.535484
 20
27.5
 30
0.0
 11
-35.560697
 21
27.5
 31
0.0
  0
LINE
  8
0
  6
BYBLOCK
 62
     0
  5
158
 10
-36.5
 20
27.174473
 30
0.0
 11
-36.5
 21
27.602389
 31
0.0
  0
LINE
  8
0
  6
BYBLOCK
 62
     0
  5
159
 10
-36.0
 20
26.890749
 30
0.0
 11
-36.0
 21
27.886113
 31
0.0
  0
ENDBLK
  8
0
  6
BYBLOCK
 62
     0
  5
15A
  0
BLOCK
  8
0
  6
BYBLOCK
 62
     0
  5
15D
  2
*X3
 70
     1
 10
0.0
 20
0.0
 30
0.0
  3
*X3
  0
LINE
  8
0
  6
BYBLOCK
 62
     0
  5
15E
 10
-48.079287
 20
31.5
 30
0.0
 11
-47.746904
 21
31.5
 31
0.0
  0
LINE
  8
0
  6
BYBLOCK
 62
     0
  5
15F
 10
-48.230644
 20
32.0
 30
0.0
 11
-47.746904
 21
32.0
 31
0.0
  0
LINE
  8
0
  6
BYBLOCK
 62
     0
  5
160
 10
-48.0
 20
31.442315
 30
0.0
 11
-48.0
 21
32.304736
 31
0.0
  0
ENDBLK
  8
0
  6
BYBLOCK
 62
     0
  5
161
  0
BLOCK
  8
0
  6
BYBLOCK
 62
     0
  5
164
  2
*X4
 70
     1
 10
0.0
 20
0.0
 30
0.0
  3
*X4
  0
LINE
  8
0
  6
BYBLOCK
 62
     0
  5
165
 10
-47.746904
 20
31.5
 30
0.0
 11
-47.41452
 21
31.5
 31
0.0
  0
LINE
  8
0
  6
BYBLOCK
 62
     0
  5
166
 10
-47.746904
 20
32.0
 30
0.0
 11
-47.263164
 21
32.0
 31
0.0
  0
LINE
  8
0
  6
BYBLOCK
 62
     0
  5
167
 10
-47.5
 20
31.43874
 30
0.0
 11
-47.5
 21
32.308311
 31
0.0
  0
ENDBLK
  8
0
  6
BYBLOCK
 62
     0
  5
168
  0
BLOCK
  8
0
  6
BYBLOCK
 62
     0
  5
16B
  2
*X5
 70
     1
 10
0.0
 20
0.0
 30
0.0
  3
*X5
  0
LINE
  8
0
  6
BYBLOCK
 62
     0
  5
16C
 10
-59.760552
 20
27.0
 30
0.0
 11
-59.130882
 21
27.0
 31
0.0
  0
LINE
  8
0
  6
BYBLOCK
 62
     0
  5
16D
 10
-59.93311
 20
27.5
 30
0.0
 11
-58.958324
 21
27.5
 31
0.0
  0
LINE
  8
0
  6
BYBLOCK
 62
     0
  5
16E
 10
-59.5
 20
26.891387
 30
0.0
 11
-59.5
 21
27.885476
 31
0.0
  0
LINE
  8
0
  6
BYBLOCK
 62
     0
  5
16F
 10
-59.0
 20
27.161856
 30
0.0
 11
-59.0
 21
27.615006
 31
0.0
  0
ENDBLK
  8
0
  6
BYBLOCK
 62
     0
  5
170
  0
BLOCK
  8
0
  6
BYBLOCK
 62
     0
  5
173
  2
*X6
 70
     1
 10
0.0
 20
0.0
 30
0.0
  3
*X6
  0
LINE
  8
0
  6
BYBLOCK
 62
     0
  5
174
 10
-65.609652
 20
16.0
 30
0.0
 11
-64.69303
 21
16.0
 31
0.0
  0
LINE
  8
0
  6
BYBLOCK
 62
     0
  5
175
 10
-65.551249
 20
16.5
 30
0.0
 11
-64.751433
 21
16.5
 31
0.0
  0
LINE
  8
0
  6
BYBLOCK
 62
     0
  5
176
 10
-65.5
 20
15.841497
 30
0.0
 11
-65.5
 21
16.558259
 31
0.0
  0
LINE
  8
0
  6
BYBLOCK
 62
     0
  5
177
 10
-65.0
 20
15.723332
 30
0.0
 11
-65.0
 21
16.676424
 31
0.0
  0
ENDBLK
  8
0
  6
BYBLOCK
 62
     0
  5
178
  0
ENDSEC
  0
SECTION
  2
ENTITIES
  0
LINE
  8
0
  6
CONTINUOUS
 62
     7
  5
1E
 10
-27.746904
 20
31.373525
 30
0.0
 11
-27.746904
 21
-2.626475
 31
0.0
  0
LINE
  8
0
  6
CONTINUOUS
 62
     7
  5
1F
 10
-67.746904
 20
31.373525
 30
0.0
 11
-67.746904
 21
-2.626475
 31
0.0
  0
LINE
  8
0
  6
CONTINUOUS
 62
     7
  5
20
 10
-64.746904
 20
-5.626475
 30
0.0
 11
-30.746904
 21
-5.626475
 31
0.0
  0
LINE
  8
0
  6
CONTINUOUS
 62
     7
  5
21
 10
-64.746904
 20
34.373525
 30
0.0
 11
-30.746904
 21
34.373525
 31
0.0
  0
ARC
  8
0
  6
CONTINUOUS
 62
     7
  5
22
 10
-64.750557
 20
31.377179
 30
0.0
 40
2.996349
 50
89.930145
 51
180.069855
  0
ARC
  8
0
  6
CONTINUOUS
 62
     7
  5
23
 10
-64.743246
 20
-2.622817
 30
0.0
 40
3.00366
 50
180.06977
 51
269.93023
  0
ARC
  8
0
  6
CONTINUOUS
 62
     7
  5
24
 10
-30.750561
 20
-2.622817
 30
0.0
 40
3.00366
 50
270.06977
 51
359.93023
  0
ARC
  8
0
  6
CONTINUOUS
 62
     7
  5
25
 10
-30.743251
 20
31.377179
 30
0.0
 40
2.996349
 50
359.930145
 51
90.069855
  0
LINE
  8
0
  6
CONTINUOUS
 62
     7
  5
26
 10
-43.246904
 20
-5.626475
 30
0.0
 11
-43.246904
 21
-6.126475
 31
0.0
  0
LINE
  8
0
  6
CONTINUOUS
 62
     7
  5
27
 10
-52.246904
 20
-5.626475
 30
0.0
 11
-52.246904
 21
-6.126475
 31
0.0
  0
LINE
  8
0
  6
CONTINUOUS
 62
     7
  5
28
 10
-52.246904
 20
-11.126475
 30
0.0
 11
-43.246904
 21
-11.126475
 31
0.0
  0
LINE
  8
0
  6
CONTINUOUS
 62
     7
  5
29
 10
-51.746904
 20
-5.626475
 30
0.0
 11
-51.746904
 21
-6.126475
 31
0.0
  0
LINE
  8
0
  6
CONTINUOUS
 62
     7
  5
2A
 10
-43.746904
 20
-5.626475
 30
0.0
 11
-43.746904
 21
-6.126475
 31
0.0
  0
LINE
  8
0
  6
CONTINUOUS
 62
     7
  5
2B
 10
-52.246904
 20
-10.126475
 30
0.0
 11
-43.246904
 21
-10.126475
 31
0.0
  0
LINE
  8
0
  6
CONTINUOUS
 62
     7
  5
2C
 10
-52.246904
 20
-6.126475
 30
0.0
 11
-43.246904
 21
-6.126475
 31
0.0
  0
LINE
  8
0
  6
CONTINUOUS
 62
     7
  5
2D
 10
-52.246904
 20
-10.126475
 30
0.0
 11
-52.246904
 21
-11.126475
 31
0.0
  0
LINE
  8
0
  6
CONTINUOUS
 62
     7
  5
2E
 10
-51.746904
 20
-10.126475
 30
0.0
 11
-51.746904
 21
-11.126475
 31
0.0
  0
LINE
  8
0
  6
CONTINUOUS
 62
     7
  5
2F
 10
-43.746904
 20
-10.126475
 30
0.0
 11
-43.746904
 21
-11.126475
 31
0.0
  0
LINE
  8
0
  6
CONTINUOUS
 62
     7
  5
30
 10
-43.246904
 20
-10.126475
 30
0.0
 11
-43.246904
 21
-11.126475
 31
0.0
  0
LINE
  8
0
  6
CONTINUOUS
 62
     7
  5
31
 10
-43.446904
 20
-6.126475
 30
0.0
 11
-43.446904
 21
-10.126475
 31
0.0
  0
LINE
  8
0
  6
CONTINUOUS
 62
     7
  5
32
 10
-52.046904
 20
-6.126475
 30
0.0
 11
-52.046904
 21
-10.126475
 31
0.0
  0
LINE
  8
0
  6
CONTINUOUS
 62
     7
  5
33
 10
32.253096
 20
33.373525
 30
0.0
 11
32.253096
 21
-4.626475
 31
0.0
  0
LINE
  8
0
  6
CONTINUOUS
 62
     7
  5
34
 10
33.253096
 20
-5.626475
 30
0.0
 11
54.253096
 21
-5.626475
 31
0.0
  0
LINE
  8
0
  6
CONTINUOUS
 62
     7
  5
35
 10
33.253096
 20
34.373525
 30
0.0
 11
54.253096
 21
34.373525
 31
0.0
  0
ARC
  8
0
  6
CONTINUOUS
 62
     7
  5
36
 10
33.249447
 20
33.377174
 30
0.0
 40
0.996358
 50
89.790179
 51
180.209821
  0
ARC
  8
0
  6
CONTINUOUS
 62
     7
  5
37
 10
33.256758
 20
-4.622812
 30
0.0
 40
1.003669
 50
180.209055
 51
269.790945
  0
LINE
  8
0
  6
CONTINUOUS
 62
     7
  5
38
 10
54.253096
 20
34.373525
 30
0.0
 11
54.253096
 21
-5.626475
 31
0.0
  0
LINE
  8
0
  6
CONTINUOUS
 62
     7
  5
39
 10
54.253096
 20
34.373525
 30
0.0
 11
61.793096
 21
33.713525
 31
0.0
  0
LINE
  8
0
  6
CONTINUOUS
 62
     7
  5
3A
 10
54.253096
 20
-5.626475
 30
0.0
 11
61.793096
 21
-4.966475
 31
0.0
  0
LINE
  8
0
  6
CONTINUOUS
 62
     7
  5
3B
 10
62.253096
 20
33.213525
 30
0.0
 11
62.253096
 21
-4.466475
 31
0.0
  0
LINE
  8
0
  6
CONTINUOUS
 62
     7
  5
3C
 10
45.253096
 20
-5.626475
 30
0.0
 11
45.253096
 21
-6.126475
 31
0.0
  0
LINE
  8
0
  6
CONTINUOUS
 62
     7
  5
3D
 10
50.753096
 20
24.773525
 30
0.0
 11
50.753096
 21
19.073525
 31
0.0
  0
LINE
  8
0
  6
CONTINUOUS
 62
     7
  5
3E
 10
48.153096
 20
19.073525
 30
0.0
 11
50.753096
 21
19.073525
 31
0.0
  0
LINE
  8
0
  6
CONTINUOUS
 62
     7
  5
3F
 10
48.153096
 20
24.773525
 30
0.0
 11
50.753096
 21
24.773525
 31
0.0
  0
LINE
  8
0
  6
CONTINUOUS
 62
     7
  5
40
 10
48.153096
 20
24.773525
 30
0.0
 11
48.153096
 21
19.073525
 31
0.0
  0
LINE
  8
0
  6
CONTINUOUS
 62
     7
  5
41
 10
59.753096
 20
20.773525
 30
0.0
 11
62.253096
 21
20.773525
 31
0.0
  0
LINE
  8
0
  6
CONTINUOUS
 62
     7
  5
42
 10
59.753096
 20
29.773525
 30
0.0
 11
62.253096
 21
29.773525
 31
0.0
  0
LINE
  8
0
  6
CONTINUOUS
 62
     7
  5
43
 10
59.753096
 20
29.773525
 30
0.0
 11
59.753096
 21
20.773525
 31
0.0
  0
LINE
  8
0
  6
CONTINUOUS
 62
     7
  5
44
 10
56.253096
 20
12.773525
 30
0.0
 11
62.253096
 21
12.773525
 31
0.0
  0
LINE
  8
0
  6
CONTINUOUS
 62
     7
  5
45
 10
56.253096
 20
15.973525
 30
0.0
 11
62.253096
 21
15.973525
 31
0.0
  0
LINE
  8
0
  6
CONTINUOUS
 62
     7
  5
46
 10
56.253096
 20
15.973525
 30
0.0
 11
56.253096
 21
12.773525
 31
0.0
  0
LINE
  8
0
  6
CONTINUOUS
 62
     7
  5
47
 10
57.253096
 20
15.973525
 30
0.0
 11
57.253096
 21
12.773525
 31
0.0
  0
LINE
  8
0
  6
CONTINUOUS
 62
     7
  5
48
 10
50.753096
 20
3.973525
 30
0.0
 11
50.753096
 21
9.673525
 31
0.0
  0
LINE
  8
0
  6
CONTINUOUS
 62
     7
  5
49
 10
48.153096
 20
9.673525
 30
0.0
 11
50.753096
 21
9.673525
 31
0.0
  0
LINE
  8
0
  6
CONTINUOUS
 62
     7
  5
4A
 10
48.153096
 20
3.973525
 30
0.0
 11
50.753096
 21
3.973525
 31
0.0
  0
LINE
  8
0
  6
CONTINUOUS
 62
     7
  5
4B
 10
48.153096
 20
3.973525
 30
0.0
 11
48.153096
 21
9.673525
 31
0.0
  0
LINE
  8
0
  6
CONTINUOUS
 62
     7
  5
4C
 10
59.753096
 20
7.973525
 30
0.0
 11
62.253096
 21
7.973525
 31
0.0
  0
LINE
  8
0
  6
CONTINUOUS
 62
     7
  5
4D
 10
59.753096
 20
-1.026475
 30
0.0
 11
62.253096
 21
-1.026475
 31
0.0
  0
LINE
  8
0
  6
CONTINUOUS
 62
     7
  5
4E
 10
59.753096
 20
-1.026475
 30
0.0
 11
59.753096
 21
7.973525
 31
0.0
  0
LINE
  8
0
  6
CONTINUOUS
 62
     7
  5
4F
 10
62.253096
 20
25.873525
 30
0.0
 11
65.253096
 21
24.143525
 31
0.0
  0
LINE
  8
0
  6
CONTINUOUS
 62
     7
  5
50
 10
65.253096
 20
24.143525
 30
0.0
 11
65.253096
 21
4.603525
 31
0.0
  0
LINE
  8
0
  6
CONTINUOUS
 62
     7
  5
51
 10
62.253096
 20
2.873525
 30
0.0
 11
65.253096
 21
4.603525
 31
0.0
  0
LINE
  8
0
  6
CONTINUOUS
 62
     7
  5
52
 10
75.253096
 20
21.373525
 30
0.0
 11
75.253096
 21
7.373525
 31
0.0
  0
LINE
  8
0
  6
CONTINUOUS
 62
     7
  5
53
 10
65.253096
 20
22.463525
 30
0.0
 11
74.623096
 21
22.463525
 31
0.0
  0
LINE
  8
0
  6
CONTINUOUS
 62
     7
  5
54
 10
65.253096
 20
18.413525
 30
0.0
 11
75.253096
 21
18.413525
 31
0.0
  0
LINE
  8
0
  6
CONTINUOUS
 62
     7
  5
55
 10
65.253096
 20
10.333525
 30
0.0
 11
75.253096
 21
10.333525
 31
0.0
  0
LINE
  8
0
  6
CONTINUOUS
 62
     7
  5
56
 10
65.253096
 20
6.293525
 30
0.0
 11
74.623096
 21
6.293525
 31
0.0
  0
LINE
  8
0
  6
CONTINUOUS
 62
     7
  5
57
 10
41.653096
 20
-5.626475
 30
0.0
 11
41.653096
 21
-6.126475
 31
0.0
  0
LINE
  8
0
  6
CONTINUOUS
 62
     7
  5
58
 10
48.853096
 20
-5.626475
 30
0.0
 11
48.853096
 21
-11.126475
 31
0.0
  0
LINE
  8
0
  6
CONTINUOUS
 62
     7
  5
59
 10
41.353096
 20
-6.126475
 30
0.0
 11
48.853096
 21
-6.126475
 31
0.0
  0
LINE
  8
0
  6
CONTINUOUS
 62
     7
  5
5A
 10
41.353096
 20
-10.126475
 30
0.0
 11
48.853096
 21
-10.126475
 31
0.0
  0
LINE
  8
0
  6
CONTINUOUS
 62
     7
  5
5B
 10
41.653096
 20
-11.126475
 30
0.0
 11
48.853096
 21
-11.126475
 31
0.0
  0
LINE
  8
0
  6
CONTINUOUS
 62
     7
  5
5C
 10
41.353096
 20
-6.126475
 30
0.0
 11
41.353096
 21
-10.126475
 31
0.0
  0
LINE
  8
0
  6
CONTINUOUS
 62
     7
  5
5D
 10
41.953096
 20
-5.626475
 30
0.0
 11
41.953096
 21
-6.126475
 31
0.0
  0
LINE
  8
0
  6
CONTINUOUS
 62
     7
  5
5E
 10
41.953096
 20
-10.126475
 30
0.0
 11
41.953096
 21
-11.126475
 31
0.0
  0
LINE
  8
0
  6
CONTINUOUS
 62
     7
  5
5F
 10
41.653096
 20
-10.126475
 30
0.0
 11
41.653096
 21
-11.126475
 31
0.0
  0
LINE
  8
0
  6
CONTINUOUS
 62
     7
  5
60
 10
47.353096
 20
-5.626475
 30
0.0
 11
47.353096
 21
-6.126475
 31
0.0
  0
LINE
  8
0
  6
CENTER
 62
     2
  5
62
 10
45.253096
 20
-2.626475
 30
0.0
 11
45.253096
 21
-24.626475
 31
0.0
  0
LINE
  8
0
  6
CONTINUOUS
 62
     7
  5
63
 10
45.253096
 20
-10.126475
 30
0.0
 11
45.253096
 21
-11.126475
 31
0.0
  0
LINE
  8
0
  6
CONTINUOUS
 62
     7
  5
64
 10
47.353096
 20
-10.126475
 30
0.0
 11
47.353096
 21
-11.126475
 31
0.0
  0
LINE
  8
0
  6
CONTINUOUS
 62
     7
  5
65
 10
47.853096
 20
-6.626475
 30
0.0
 11
47.853096
 21
-9.626475
 31
0.0
  0
ARC
  8
0
  6
CONTINUOUS
 62
     7
  5
66
 10
47.356734
 20
-6.622837
 30
0.0
 40
0.496376
 50
359.580135
 51
90.419865
  0
ARC
  8
0
  6
CONTINUOUS
 62
     7
  5
67
 10
47.349423
 20
-9.622801
 30
0.0
 40
0.503687
 50
270.417852
 51
359.582148
  0
LINE
  8
0
  6
CONTINUOUS
 62
     7
  5
68
 10
46.853096
 20
-7.126475
 30
0.0
 11
46.853096
 21
-9.126475
 31
0.0
  0
LINE
  8
0
  6
CONTINUOUS
 62
     7
  5
69
 10
45.353096
 20
-7.126475
 30
0.0
 11
45.353096
 21
-9.126475
 31
0.0
  0
LINE
  8
0
  6
CONTINUOUS
 62
     7
  5
6A
 10
45.353096
 20
-9.126475
 30
0.0
 11
46.853096
 21
-9.126475
 31
0.0
  0
LINE
  8
0
  6
CONTINUOUS
 62
     7
  5
6B
 10
45.353096
 20
-7.126475
 30
0.0
 11
46.853096
 21
-7.126475
 31
0.0
  0
LINE
  8
0
  6
CONTINUOUS
 62
     2
  5
6C
 10
86.083096
 20
19.973525
 30
0.0
 11
77.253096
 21
20.203525
 31
0.0
  0
LINE
  8
0
  6
CONTINUOUS
 62
     7
  5
6D
 10
85.253096
 20
20.843525
 30
0.0
 11
75.253096
 21
21.113525
 31
0.0
  0
LINE
  8
0
  6
CONTINUOUS
 62
     2
  5
6E
 10
86.103096
 20
8.783525
 30
0.0
 11
77.253096
 21
8.543525
 31
0.0
  0
LINE
  8
0
  6
CONTINUOUS
 62
     7
  5
6F
 10
85.223096
 20
7.903525
 30
0.0
 11
75.253096
 21
7.633525
 31
0.0
  0
LINE
  8
0
  6
CONTINUOUS
 62
     7
  5
70
 10
77.253096
 20
21.063525
 30
0.0
 11
77.253096
 21
7.693525
 31
0.0
  0
LINE
  8
0
  6
CONTINUOUS
 62
     2
  5
71
 10
77.253096
 20
20.203525
 30
0.0
 11
75.693096
 21
21.103525
 31
0.0
  0
LINE
  8
0
  6
CONTINUOUS
 62
     2
  5
72
 10
77.253096
 20
8.543525
 30
0.0
 11
75.693096
 21
7.653525
 31
0.0
  0
LINE
  8
0
  6
CONTINUOUS
 62
     7
  5
73
 10
74.623096
 20
22.463525
 30
0.0
 11
75.253096
 21
21.373525
 31
0.0
  0
LINE
  8
0
  6
CONTINUOUS
 62
     7
  5
74
 10
86.253096
 20
19.793525
 30
0.0
 11
86.253096
 21
8.933525
 31
0.0
  0
LINE
  8
0
  6
CONTINUOUS
 62
     7
  5
75
 10
74.623096
 20
6.293525
 30
0.0
 11
75.253096
 21
7.373525
 31
0.0
  0
LINE
  8
0
  6
CONTINUOUS
 62
     7
  5
76
 10
85.253096
 20
20.843525
 30
0.0
 11
86.253096
 21
19.793525
 31
0.0
  0
LINE
  8
0
  6
CONTINUOUS
 62
     7
  5
77
 10
86.253096
 20
8.933525
 30
0.0
 11
85.223096
 21
7.903525
 31
0.0
  0
LINE
  8
0
  6
CONTINUOUS
 62
     7
  5
78
 10
85.253096
 20
20.843525
 30
0.0
 11
85.253096
 21
7.903525
 31
0.0
  0
ARC
  8
0
  6
CONTINUOUS
 62
     7
  5
79
 10
61.756888
 20
33.218614
 30
0.0
 40
0.496234
 50
359.412434
 51
85.815677
  0
ARC
  8
0
  6
CONTINUOUS
 62
     7
  5
7A
 10
61.749598
 20
-4.464856
 30
0.0
 40
0.503501
 50
274.956036
 51
359.815852
  0
CIRCLE
  8
0
  6
CONTINUOUS
 62
     7
  5
7B
 10
-33.258016
 20
10.498558
 30
0.0
 40
1.0
  0
LINE
  8
0
  6
CONTINUOUS
 62
     7
  5
7C
 10
-47.746904
 20
26.373525
 30
0.0
 11
-46.946904
 21
27.383525
 31
0.0
  0
LINE
  8
0
  6
CONTINUOUS
 62
     7
  5
7D
 10
-48.546904
 20
27.383525
 30
0.0
 11
-47.746904
 21
26.373525
 31
0.0
  0
LINE
  8
0
  6
CONTINUOUS
 62
     7
  5
7E
 10
-46.946904
 20
29.873525
 30
0.0
 11
-46.946904
 21
27.383525
 31
0.0
  0
LINE
  8
0
  6
CONTINUOUS
 62
     7
  5
7F
 10
-48.546904
 20
29.873525
 30
0.0
 11
-48.546904
 21
27.383525
 31
0.0
  0
LINE
  8
0
  6
CONTINUOUS
 62
     7
  5
80
 10
-48.046904
 20
30.373525
 30
0.0
 11
-47.446904
 21
30.373525
 31
0.0
  0
ARC
  8
0
  6
CONTINUOUS
 62
     7
  5
81
 10
-47.44326
 20
29.87717
 30
0.0
 40
0.496369
 50
359.579341
 51
90.420659
  0
ARC
  8
0
  6
CONTINUOUS
 62
     7
  5
82
 10
-48.050528
 20
29.87715
 30
0.0
 40
0.496389
 50
89.581617
 51
180.418383
  0
LINE
  8
0
  6
CONTINUOUS
 62
     7
  5
83
 10
-49.926904
 20
26.173525
 30
0.0
 11
-49.326904
 21
27.313525
 31
0.0
  0
LINE
  8
0
  6
CONTINUOUS
 62
     7
  5
84
 10
-50.896904
 20
27.013525
 30
0.0
 11
-49.926904
 21
26.173525
 31
0.0
  0
LINE
  8
0
  6
CONTINUOUS
 62
     7
  5
85
 10
-49.776904
 20
29.763525
 30
0.0
 11
-49.326904
 21
27.313525
 31
0.0
  0
LINE
  8
0
  6
CONTINUOUS
 62
     7
  5
86
 10
-51.356904
 20
29.473525
 30
0.0
 11
-50.896904
 21
27.013525
 31
0.0
  0
LINE
  8
0
  6
CONTINUOUS
 62
     7
  5
87
 10
-50.956904
 20
30.053525
 30
0.0
 11
-50.366904
 21
30.163525
 31
0.0
  0
ARC
  8
0
  6
CONTINUOUS
 62
     7
  5
88
 10
-50.26995
 20
29.671408
 30
0.0
 40
0.501577
 50
10.582787
 51
101.145333
  0
ARC
  8
0
  6
CONTINUOUS
 62
     7
  5
89
 10
-50.868074
 20
29.564333
 30
0.0
 40
0.497192
 50
100.291855
 51
190.523568
  0
LINE
  8
0
  6
CONTINUOUS
 62
     7
  5
8A
 10
-52.046904
 20
25.583525
 30
0.0
 11
-51.656904
 21
26.803525
 31
0.0
  0
LINE
  8
0
  6
CONTINUOUS
 62
     7
  5
8B
 10
-53.146904
 20
26.233525
 30
0.0
 11
-52.046904
 21
25.583525
 31
0.0
  0
LINE
  8
0
  6
CONTINUOUS
 62
     7
  5
8C
 10
-52.546904
 20
29.133525
 30
0.0
 11
-51.656904
 21
26.803525
 31
0.0
  0
LINE
  8
0
  6
CONTINUOUS
 62
     7
  5
8D
 10
-54.046904
 20
28.563525
 30
0.0
 11
-53.146904
 21
26.233525
 31
0.0
  0
LINE
  8
0
  6
CONTINUOUS
 62
     7
  5
8E
 10
-53.756904
 20
29.203525
 30
0.0
 11
-53.196904
 21
29.423525
 31
0.0
  0
ARC
  8
0
  6
CONTINUOUS
 62
     7
  5
8F
 10
-53.015708
 20
28.956205
 30
0.0
 40
0.501219
 50
20.71861
 51
111.192944
  0
ARC
  8
0
  6
CONTINUOUS
 62
     7
  5
90
 10
-53.583678
 20
28.739329
 30
0.0
 40
0.495465
 50
110.464256
 51
200.782807
  0
LINE
  8
0
  6
CONTINUOUS
 62
     7
  5
91
 10
-54.016904
 20
24.603525
 30
0.0
 11
-53.856904
 21
25.883525
 31
0.0
  0
LINE
  8
0
  6
CONTINUOUS
 62
     7
  5
92
 10
-55.216904
 20
25.043525
 30
0.0
 11
-54.016904
 21
24.603525
 31
0.0
  0
LINE
  8
0
  6
CONTINUOUS
 62
     7
  5
93
 10
-55.156904
 20
28.013525
 30
0.0
 11
-53.856904
 21
25.883525
 31
0.0
  0
LINE
  8
0
  6
CONTINUOUS
 62
     7
  5
94
 10
-56.526904
 20
27.173525
 30
0.0
 11
-55.216904
 21
25.043525
 31
0.0
  0
LINE
  8
0
  6
CONTINUOUS
 62
     7
  5
95
 10
-56.356904
 20
27.863525
 30
0.0
 11
-55.846904
 21
28.173525
 31
0.0
  0
ARC
  8
0
  6
CONTINUOUS
 62
     7
  5
96
 10
-55.581228
 20
27.75144
 30
0.0
 40
0.498739
 50
31.701749
 51
122.187757
  0
ARC
  8
0
  6
CONTINUOUS
 62
     7
  5
97
 10
-56.102636
 20
27.434938
 30
0.0
 40
0.498337
 50
120.679324
 51
211.639285
  0
LINE
  8
0
  6
CONTINUOUS
 62
     7
  5
98
 10
-55.776904
 20
23.293525
 30
0.0
 11
-55.846904
 21
24.573525
 31
0.0
  0
LINE
  8
0
  6
CONTINUOUS
 62
     7
  5
99
 10
-57.036904
 20
23.503525
 30
0.0
 11
-55.776904
 21
23.293525
 31
0.0
  0
LINE
  8
0
  6
CONTINUOUS
 62
     7
  5
9A
 10
-57.516904
 20
26.433525
 30
0.0
 11
-55.846904
 21
24.573525
 31
0.0
  0
LINE
  8
0
  6
CONTINUOUS
 62
     7
  5
9B
 10
-58.706904
 20
25.363525
 30
0.0
 11
-57.036904
 21
23.503525
 31
0.0
  0
LINE
  8
0
  6
CONTINUOUS
 62
     7
  5
9C
 10
-58.666904
 20
26.063525
 30
0.0
 11
-58.226904
 21
26.463525
 31
0.0
  0
ARC
  8
0
  6
CONTINUOUS
 62
     7
  5
9D
 10
-57.886635
 20
26.099876
 30
0.0
 40
0.49802
 50
42.063408
 51
133.097573
  0
ARC
  8
0
  6
CONTINUOUS
 62
     7
  5
9E
 10
-58.341625
 20
25.693795
 30
0.0
 40
0.49245
 50
131.340472
 51
222.118552
  0
LINE
  8
0
  6
CONTINUOUS
 62
     7
  5
9F
 10
-57.266904
 20
21.683525
 30
0.0
 11
-57.576904
 21
22.923525
 31
0.0
  0
LINE
  8
0
  6
CONTINUOUS
 62
     7
  5
A0
 10
-58.546904
 20
21.663525
 30
0.0
 11
-57.266904
 21
21.683525
 31
0.0
  0
LINE
  8
0
  6
CONTINUOUS
 62
     7
  5
A1
 10
-59.556904
 20
24.443525
 30
0.0
 11
-57.576904
 21
22.923525
 31
0.0
  0
LINE
  8
0
  6
CONTINUOUS
 62
     7
  5
A2
 10
-60.526904
 20
23.173525
 30
0.0
 11
-58.546904
 21
21.663525
 31
0.0
  0
LINE
  8
0
  6
CONTINUOUS
 62
     7
  5
A3
 10
-60.616904
 20
23.873525
 30
0.0
 11
-60.256904
 21
24.353525
 31
0.0
  0
ARC
  8
0
  6
CONTINUOUS
 62
     7
  5
A4
 10
-59.862665
 20
24.054446
 30
0.0
 40
0.494846
 50
51.837649
 51
142.815164
  0
ARC
  8
0
  6
CONTINUOUS
 62
     7
  5
A5
 10
-60.225677
 20
23.572413
 30
0.0
 40
0.499849
 50
141.507546
 51
232.941085
  0
LINE
  8
0
  6
CONTINUOUS
 62
     7
  5
A6
 10
-58.436904
 20
19.823525
 30
0.0
 11
-58.966904
 21
20.993525
 31
0.0
  0
LINE
  8
0
  6
CONTINUOUS
 62
     7
  5
A7
 10
-59.696904
 20
19.563525
 30
0.0
 11
-58.436904
 21
19.823525
 31
0.0
  0
LINE
  8
0
  6
CONTINUOUS
 62
     7
  5
A8
 10
-61.186904
 20
22.123525
 30
0.0
 11
-58.966904
 21
20.993525
 31
0.0
  0
LINE
  8
0
  6
CONTINUOUS
 62
     7
  5
A9
 10
-61.916904
 20
20.703525
 30
0.0
 11
-59.696904
 21
19.563525
 31
0.0
  0
LINE
  8
0
  6
CONTINUOUS
 62
     7
  5
AA
 10
-62.136904
 20
21.373525
 30
0.0
 11
-61.866904
 21
21.903525
 31
0.0
  0
ARC
  8
0
  6
CONTINUOUS
 62
     7
  5
AB
 10
-61.420675
 20
21.685183
 30
0.0
 40
0.496783
 50
61.928669
 51
153.92717
  0
ARC
  8
0
  6
CONTINUOUS
 62
     7
  5
AC
 10
-61.692954
 20
21.14818
 30
0.0
 40
0.497867
 50
153.088038
 51
243.267999
  0
LINE
  8
0
  6
CONTINUOUS
 62
     7
  5
AD
 10
-59.246904
 20
17.783525
 30
0.0
 11
-59.986904
 21
18.833525
 31
0.0
  0
LINE
  8
0
  6
CONTINUOUS
 62
     7
  5
AE
 10
-60.436904
 20
17.303525
 30
0.0
 11
-59.246904
 21
17.783525
 31
0.0
  0
LINE
  8
0
  6
CONTINUOUS
 62
     7
  5
AF
 10
-62.376904
 20
19.543525
 30
0.0
 11
-59.986904
 21
18.833525
 31
0.0
  0
LINE
  8
0
  6
CONTINUOUS
 62
     7
  5
B0
 10
-62.826904
 20
18.013525
 30
0.0
 11
-60.436904
 21
17.303525
 31
0.0
  0
LINE
  8
0
  6
CONTINUOUS
 62
     7
  5
B1
 10
-63.166904
 20
18.633525
 30
0.0
 11
-62.996904
 21
19.203525
 31
0.0
  0
ARC
  8
0
  6
CONTINUOUS
 62
     7
  5
B2
 10
-62.521435
 20
19.071789
 30
0.0
 40
0.493381
 50
72.965875
 51
164.513715
  0
ARC
  8
0
  6
CONTINUOUS
 62
     7
  5
B3
 10
-62.691381
 20
18.49107
 30
0.0
 40
0.496402
 50
163.32303
 51
254.156561
  0
LINE
  8
0
  6
CONTINUOUS
 62
     7
  5
B4
 10
-59.676904
 20
15.633525
 30
0.0
 11
-60.596904
 21
16.533525
 31
0.0
  0
LINE
  8
0
  6
CONTINUOUS
 62
     7
  5
B5
 10
-60.756904
 20
14.943525
 30
0.0
 11
-59.676904
 21
15.633525
 31
0.0
  0
LINE
  8
0
  6
CONTINUOUS
 62
     7
  5
B6
 10
-63.076904
 20
16.793525
 30
0.0
 11
-60.596904
 21
16.533525
 31
0.0
  0
LINE
  8
0
  6
CONTINUOUS
 62
     7
  5
B7
 10
-63.236904
 20
15.203525
 30
0.0
 11
-60.756904
 21
14.943525
 31
0.0
  0
LINE
  8
0
  6
CONTINUOUS
 62
     7
  5
B8
 10
-63.686904
 20
15.753525
 30
0.0
 11
-63.626904
 21
16.343525
 31
0.0
  0
ARC
  8
0
  6
CONTINUOUS
 62
     7
  5
B9
 10
-63.131266
 20
16.298857
 30
0.0
 40
0.497647
 50
83.728618
 51
174.850196
  0
ARC
  8
0
  6
CONTINUOUS
 62
     7
  5
BA
 10
-63.191162
 20
15.700041
 30
0.0
 40
0.498619
 50
173.842364
 51
264.73645
  0
LINE
  8
0
  6
CONTINUOUS
 62
     7
  5
BB
 10
-59.706904
 20
13.433525
 30
0.0
 11
-60.766904
 21
14.153525
 31
0.0
  0
LINE
  8
0
  6
CONTINUOUS
 62
     7
  5
BC
 10
-60.646904
 20
12.553525
 30
0.0
 11
-59.706904
 21
13.433525
 31
0.0
  0
LINE
  8
0
  6
CONTINUOUS
 62
     7
  5
BD
 10
-63.256904
 20
13.953525
 30
0.0
 11
-60.766904
 21
14.153525
 31
0.0
  0
LINE
  8
0
  6
CONTINUOUS
 62
     7
  5
BE
 10
-63.126904
 20
12.363525
 30
0.0
 11
-60.646904
 21
12.553525
 31
0.0
  0
LINE
  8
0
  6
CONTINUOUS
 62
     7
  5
BF
 10
-63.666904
 20
12.823525
 30
0.0
 11
-63.716904
 21
13.423525
 31
0.0
  0
ARC
  8
0
  6
CONTINUOUS
 62
     7
  5
C0
 10
-63.22493
 20
13.461152
 30
0.0
 40
0.493411
 50
93.715509
 51
184.373462
  0
ARC
  8
0
  6
CONTINUOUS
 62
     7
  5
C1
 10
-63.169462
 20
12.860522
 30
0.0
 40
0.498816
 50
184.253482
 51
274.894361
  0
LINE
  8
0
  6
CONTINUOUS
 62
     7
  5
C2
 10
-59.336904
 20
11.273525
 30
0.0
 11
-60.516904
 21
11.783525
 31
0.0
  0
LINE
  8
0
  6
CONTINUOUS
 62
     7
  5
C3
 10
-60.096904
 20
10.233525
 30
0.0
 11
-59.336904
 21
11.273525
 31
0.0
  0
LINE
  8
0
  6
CONTINUOUS
 62
     7
  5
C4
 10
-62.916904
 20
11.133525
 30
0.0
 11
-60.516904
 21
11.783525
 31
0.0
  0
LINE
  8
0
  6
CONTINUOUS
 62
     7
  5
C5
 10
-62.506904
 20
9.593525
 30
0.0
 11
-60.096904
 21
10.233525
 31
0.0
  0
LINE
  8
0
  6
CONTINUOUS
 62
     7
  5
C6
 10
-63.116904
 20
9.943525
 30
0.0
 11
-63.276904
 21
10.523525
 31
0.0
  0
ARC
  8
0
  6
CONTINUOUS
 62
     7
  5
C7
 10
-62.799752
 20
10.653157
 30
0.0
 40
0.494447
 50
103.705667
 51
195.199189
  0
ARC
  8
0
  6
CONTINUOUS
 62
     7
  5
C8
 10
-62.635398
 20
10.07615
 30
0.0
 40
0.499437
 50
195.399522
 51
284.908614
  0
LINE
  8
0
  6
CONTINUOUS
 62
     7
  5
C9
 10
-45.566904
 20
26.173525
 30
0.0
 11
-44.596904
 21
27.013525
 31
0.0
  0
LINE
  8
0
  6
CONTINUOUS
 62
     7
  5
CA
 10
-46.166904
 20
27.313525
 30
0.0
 11
-45.566904
 21
26.173525
 31
0.0
  0
LINE
  8
0
  6
CONTINUOUS
 62
     7
  5
CB
 10
-44.136904
 20
29.473525
 30
0.0
 11
-44.596904
 21
27.013525
 31
0.0
  0
LINE
  8
0
  6
CONTINUOUS
 62
     7
  5
CC
 10
-45.716904
 20
29.763525
 30
0.0
 11
-46.166904
 21
27.313525
 31
0.0
  0
LINE
  8
0
  6
CONTINUOUS
 62
     7
  5
CD
 10
-45.126904
 20
30.163525
 30
0.0
 11
-44.536904
 21
30.053525
 31
0.0
  0
ARC
  8
0
  6
CONTINUOUS
 62
     7
  5
CE
 10
-44.625715
 20
29.564346
 30
0.0
 40
0.497176
 50
349.474565
 51
79.710013
  0
ARC
  8
0
  6
CONTINUOUS
 62
     7
  5
CF
 10
-45.223846
 20
29.67139
 30
0.0
 40
0.501593
 50
78.856434
 51
169.415447
  0
LINE
  8
0
  6
CONTINUOUS
 62
     7
  5
D0
 10
-43.446904
 20
25.583525
 30
0.0
 11
-42.346904
 21
26.233525
 31
0.0
  0
LINE
  8
0
  6
CONTINUOUS
 62
     7
  5
D1
 10
-43.836904
 20
26.803525
 30
0.0
 11
-43.446904
 21
25.583525
 31
0.0
  0
LINE
  8
0
  6
CONTINUOUS
 62
     7
  5
D2
 10
-41.446904
 20
28.563525
 30
0.0
 11
-42.346904
 21
26.233525
 31
0.0
  0
LINE
  8
0
  6
CONTINUOUS
 62
     7
  5
D3
 10
-42.946904
 20
29.133525
 30
0.0
 11
-43.836904
 21
26.803525
 31
0.0
  0
LINE
  8
0
  6
CONTINUOUS
 62
     7
  5
D4
 10
-42.296904
 20
29.423525
 30
0.0
 11
-41.736904
 21
29.203525
 31
0.0
  0
ARC
  8
0
  6
CONTINUOUS
 62
     7
  5
D5
 10
-41.910112
 20
28.739337
 30
0.0
 40
0.495451
 50
339.215638
 51
69.537299
  0
ARC
  8
0
  6
CONTINUOUS
 62
     7
  5
D6
 10
-42.478093
 20
28.956191
 30
0.0
 40
0.50123
 50
68.808311
 51
159.280135
  0
LINE
  8
0
  6
CONTINUOUS
 62
     7
  5
D7
 10
-41.476904
 20
24.603525
 30
0.0
 11
-40.276904
 21
25.043525
 31
0.0
  0
LINE
  8
0
  6
CONTINUOUS
 62
     7
  5
D8
 10
-41.636904
 20
25.883525
 30
0.0
 11
-41.476904
 21
24.603525
 31
0.0
  0
LINE
  8
0
  6
CONTINUOUS
 62
     7
  5
D9
 10
-38.966904
 20
27.173525
 30
0.0
 11
-40.276904
 21
25.043525
 31
0.0
  0
LINE
  8
0
  6
CONTINUOUS
 62
     7
  5
DA
 10
-40.336904
 20
28.013525
 30
0.0
 11
-41.636904
 21
25.883525
 31
0.0
  0
LINE
  8
0
  6
CONTINUOUS
 62
     7
  5
DB
 10
-39.646904
 20
28.173525
 30
0.0
 11
-39.136904
 21
27.863525
 31
0.0
  0
ARC
  8
0
  6
CONTINUOUS
 62
     7
  5
DC
 10
-39.391156
 20
27.434942
 30
0.0
 40
0.498325
 50
328.359381
 51
59.32201
  0
ARC
  8
0
  6
CONTINUOUS
 62
     7
  5
DD
 10
-39.912578
 20
27.751431
 30
0.0
 40
0.498745
 50
57.812965
 51
148.297529
  0
LINE
  8
0
  6
CONTINUOUS
 62
     7
  5
DE
 10
-39.716904
 20
23.293525
 30
0.0
 11
-38.456904
 21
23.503525
 31
0.0
  0
LINE
  8
0
  6
CONTINUOUS
 62
     7
  5
DF
 10
-39.646904
 20
24.573525
 30
0.0
 11
-39.716904
 21
23.293525
 31
0.0
  0
LINE
  8
0
  6
CONTINUOUS
 62
     7
  5
E0
 10
-36.786904
 20
25.363525
 30
0.0
 11
-38.456904
 21
23.503525
 31
0.0
  0
LINE
  8
0
  6
CONTINUOUS
 62
     7
  5
E1
 10
-37.976904
 20
26.433525
 30
0.0
 11
-39.646904
 21
24.573525
 31
0.0
  0
LINE
  8
0
  6
CONTINUOUS
 62
     7
  5
E2
 10
-37.266904
 20
26.463525
 30
0.0
 11
-36.826904
 21
26.063525
 31
0.0
  0
ARC
  8
0
  6
CONTINUOUS
 62
     7
  5
E3
 10
-37.152166
 20
25.693796
 30
0.0
 40
0.492438
 50
317.880059
 51
48.660917
  0
ARC
  8
0
  6
CONTINUOUS
 62
     7
  5
E4
 10
-37.607172
 20
26.099874
 30
0.0
 40
0.498021
 50
46.902589
 51
137.936429
  0
LINE
  8
0
  6
CONTINUOUS
 62
     7
  5
E5
 10
-38.226904
 20
21.683525
 30
0.0
 11
-36.946904
 21
21.663525
 31
0.0
  0
LINE
  8
0
  6
CONTINUOUS
 62
     7
  5
E6
 10
-37.916904
 20
22.923525
 30
0.0
 11
-38.226904
 21
21.683525
 31
0.0
  0
LINE
  8
0
  6
CONTINUOUS
 62
     7
  5
E7
 10
-34.966904
 20
23.173525
 30
0.0
 11
-36.946904
 21
21.663525
 31
0.0
  0
LINE
  8
0
  6
CONTINUOUS
 62
     7
  5
E8
 10
-35.936904
 20
24.443525
 30
0.0
 11
-37.916904
 21
22.923525
 31
0.0
  0
LINE
  8
0
  6
CONTINUOUS
 62
     7
  5
E9
 10
-35.236904
 20
24.353525
 30
0.0
 11
-34.876904
 21
23.873525
 31
0.0
  0
ARC
  8
0
  6
CONTINUOUS
 62
     7
  5
EA
 10
-35.268731
 20
23.568118
 30
0.0
 40
0.496793
 50
307.412745
 51
37.934442
  0
ARC
  8
0
  6
CONTINUOUS
 62
     7
  5
EB
 10
-35.631142
 20
24.054451
 30
0.0
 40
0.494843
 50
37.184458
 51
128.162728
  0
LINE
  8
0
  6
CONTINUOUS
 62
     7
  5
EC
 10
-37.056904
 20
19.823525
 30
0.0
 11
-35.796904
 21
19.563525
 31
0.0
  0
LINE
  8
0
  6
CONTINUOUS
 62
     7
  5
ED
 10
-36.526904
 20
20.993525
 30
0.0
 11
-37.056904
 21
19.823525
 31
0.0
  0
LINE
  8
0
  6
CONTINUOUS
 62
     7
  5
EE
 10
-33.576904
 20
20.703525
 30
0.0
 11
-35.796904
 21
19.563525
 31
0.0
  0
LINE
  8
0
  6
CONTINUOUS
 62
     7
  5
EF
 10
-34.306904
 20
22.123525
 30
0.0
 11
-36.526904
 21
20.993525
 31
0.0
  0
LINE
  8
0
  6
CONTINUOUS
 62
     7
  5
F0
 10
-33.626904
 20
21.903525
 30
0.0
 11
-33.356904
 21
21.373525
 31
0.0
  0
ARC
  8
0
  6
CONTINUOUS
 62
     7
  5
F1
 10
-33.800839
 20
21.148176
 30
0.0
 40
0.497856
 50
296.730751
 51
26.913211
  0
ARC
  8
0
  6
CONTINUOUS
 62
     7
  5
F2
 10
-34.073133
 20
21.685179
 30
0.0
 40
0.496786
 50
26.073136
 51
118.071025
  0
LINE
  8
0
  6
CONTINUOUS
 62
     7
  5
F3
 10
-36.246904
 20
17.783525
 30
0.0
 11
-35.056904
 21
17.303525
 31
0.0
  0
LINE
  8
0
  6
CONTINUOUS
 62
     7
  5
F4
 10
-35.506904
 20
18.833525
 30
0.0
 11
-36.246904
 21
17.783525
 31
0.0
  0
LINE
  8
0
  6
CONTINUOUS
 62
     7
  5
F5
 10
-32.666904
 20
18.013525
 30
0.0
 11
-35.056904
 21
17.303525
 31
0.0
  0
LINE
  8
0
  6
CONTINUOUS
 62
     7
  5
F6
 10
-33.116904
 20
19.543525
 30
0.0
 11
-35.506904
 21
18.833525
 31
0.0
  0
LINE
  8
0
  6
CONTINUOUS
 62
     7
  5
F7
 10
-32.496904
 20
19.203525
 30
0.0
 11
-32.326904
 21
18.633525
 31
0.0
  0
ARC
  8
0
  6
CONTINUOUS
 62
     7
  5
F8
 10
-32.802413
 20
18.491063
 30
0.0
 40
0.496391
 50
285.842154
 51
16.678255
  0
ARC
  8
0
  6
CONTINUOUS
 62
     7
  5
F9
 10
-32.972378
 20
19.071779
 30
0.0
 40
0.493389
 50
15.487225
 51
107.033184
  0
LINE
  8
0
  6
CONTINUOUS
 62
     7
  5
FA
 10
-35.816904
 20
15.633525
 30
0.0
 11
-34.736904
 21
14.943525
 31
0.0
  0
LINE
  8
0
  6
CONTINUOUS
 62
     7
  5
FB
 10
-34.896904
 20
16.533525
 30
0.0
 11
-35.816904
 21
15.633525
 31
0.0
  0
LINE
  8
0
  6
CONTINUOUS
 62
     7
  5
FC
 10
-32.256904
 20
15.203525
 30
0.0
 11
-34.736904
 21
14.943525
 31
0.0
  0
LINE
  8
0
  6
CONTINUOUS
 62
     7
  5
FD
 10
-32.416904
 20
16.793525
 30
0.0
 11
-34.896904
 21
16.533525
 31
0.0
  0
LINE
  8
0
  6
CONTINUOUS
 62
     7
  5
FE
 10
-31.866904
 20
16.343525
 30
0.0
 11
-31.806904
 21
15.753525
 31
0.0
  0
ARC
  8
0
  6
CONTINUOUS
 62
     7
  5
FF
 10
-32.302632
 20
15.70003
 30
0.0
 40
0.498606
 50
275.262125
 51
6.159061
  0
ARC
  8
0
  6
CONTINUOUS
 62
     7
  5
100
 10
-32.362546
 20
16.298851
 30
0.0
 40
0.497652
 50
5.150352
 51
96.270834
  0
ARC
  8
0
  6
CONTINUOUS
 62
     7
  5
101
 10
-47.746904
 20
14.380836
 30
0.0
 40
3.491698
 50
339.94621
 51
200.05379
  0
ARC
  8
0
  6
CONTINUOUS
 62
     7
  5
102
 10
-47.746904
 20
14.380836
 30
0.0
 40
8.493106
 50
339.98207
 51
200.01793
  0
LINE
  8
0
  6
CONTINUOUS
 62
     7
  5
103
 10
-55.726904
 20
11.473525
 30
0.0
 11
-51.026904
 21
13.183525
 31
0.0
  0
LINE
  8
0
  6
CONTINUOUS
 62
     7
  5
104
 10
-44.466904
 20
13.183525
 30
0.0
 11
-39.766904
 21
11.473525
 31
0.0
  0
LINE
  8
0
  6
CONTINUOUS
 62
     7
  5
105
 10
-38.796904
 20
15.313525
 30
0.0
 11
-36.316904
 21
15.573525
 31
0.0
  0
LINE
  8
0
  6
CONTINUOUS
 62
     7
  5
106
 10
-39.736904
 20
18.463525
 30
0.0
 11
-37.506904
 21
19.593525
 31
0.0
  0
LINE
  8
0
  6
CONTINUOUS
 62
     7
  5
107
 10
-41.726904
 20
21.063525
 30
0.0
 11
-40.056904
 21
22.923525
 31
0.0
  0
LINE
  8
0
  6
CONTINUOUS
 62
     7
  5
108
 10
-44.526904
 20
22.783525
 30
0.0
 11
-43.626904
 21
25.113525
 31
0.0
  0
LINE
  8
0
  6
CONTINUOUS
 62
     7
  5
109
 10
-47.746904
 20
23.373525
 30
0.0
 11
-47.746904
 21
25.873525
 31
0.0
  0
LINE
  8
0
  6
CONTINUOUS
 62
     7
  5
10A
 10
-50.966904
 20
22.783525
 30
0.0
 11
-51.866904
 21
25.113525
 31
0.0
  0
LINE
  8
0
  6
CONTINUOUS
 62
     7
  5
10B
 10
-53.766904
 20
21.063525
 30
0.0
 11
-55.436904
 21
22.923525
 31
0.0
  0
LINE
  8
0
  6
CONTINUOUS
 62
     7
  5
10C
 10
-55.756904
 20
18.463525
 30
0.0
 11
-57.986904
 21
19.593525
 31
0.0
  0
LINE
  8
0
  6
CONTINUOUS
 62
     7
  5
10D
 10
-56.696904
 20
15.313525
 30
0.0
 11
-59.176904
 21
15.573525
 31
0.0
  0
LINE
  8
0
  6
CONTINUOUS
 62
     7
  5
10E
 10
-56.436904
 20
12.043525
 30
0.0
 11
-58.846904
 21
11.403525
 31
0.0
  0
LINE
  8
0
  6
CONTINUOUS
 62
     2
  5
10F
 10
-39.126904
 20
16.933525
 30
0.0
 11
-37.686904
 21
17.353525
 31
0.0
  0
LINE
  8
0
  6
CONTINUOUS
 62
     2
  5
110
 10
-40.606904
 20
19.853525
 30
0.0
 11
-39.416904
 21
20.763525
 31
0.0
  0
LINE
  8
0
  6
CONTINUOUS
 62
     2
  5
111
 10
-43.046904
 20
22.053525
 30
0.0
 11
-42.266904
 21
23.333525
 31
0.0
  0
LINE
  8
0
  6
CONTINUOUS
 62
     2
  5
112
 10
-46.106904
 20
23.223525
 30
0.0
 11
-45.836904
 21
24.703525
 31
0.0
  0
LINE
  8
0
  6
CONTINUOUS
 62
     2
  5
113
 10
-49.386904
 20
23.223525
 30
0.0
 11
-49.656904
 21
24.703525
 31
0.0
  0
LINE
  8
0
  6
CONTINUOUS
 62
     2
  5
114
 10
-52.446904
 20
22.053525
 30
0.0
 11
-53.226904
 21
23.333525
 31
0.0
  0
LINE
  8
0
  6
CONTINUOUS
 62
     2
  5
115
 10
-54.886904
 20
19.853525
 30
0.0
 11
-56.076904
 21
20.763525
 31
0.0
  0
LINE
  8
0
  6
CONTINUOUS
 62
     2
  5
116
 10
-56.366904
 20
16.933525
 30
0.0
 11
-57.806904
 21
17.353525
 31
0.0
  0
LINE
  8
0
  6
CONTINUOUS
 62
     2
  5
117
 10
-56.716904
 20
13.673525
 30
0.0
 11
-58.206904
 21
13.553525
 31
0.0
  0
LINE
  8
0
  6
CONTINUOUS
 62
     2
  5
118
 10
-38.776904
 20
13.673525
 30
0.0
 11
-37.286904
 21
13.553525
 31
0.0
  0
LINE
  8
0
  6
CENTER
 62
     2
  5
119
 10
-70.746904
 20
14.373525
 30
0.0
 11
-24.746904
 21
14.373525
 31
0.0
  0
CIRCLE
  8
0
  6
CONTINUOUS
 62
     7
  5
11A
 10
-47.746904
 20
14.380836
 30
0.0
 40
2.3
  0
LINE
  8
0
  6
CONTINUOUS
 62
     7
  5
11B
 10
-64.746904
 20
-4.526475
 30
0.0
 11
-30.746904
 21
-4.526475
 31
0.0
  0
LINE
  8
0
  6
CONTINUOUS
 62
     7
  5
11C
 10
-64.746904
 20
33.273525
 30
0.0
 11
-30.746904
 21
33.273525
 31
0.0
  0
LINE
  8
0
  6
CONTINUOUS
 62
     7
  5
11D
 10
-28.846904
 20
31.373525
 30
0.0
 11
-28.846904
 21
-2.626475
 31
0.0
  0
LINE
  8
0
  6
CONTINUOUS
 62
     7
  5
11E
 10
-66.646904
 20
31.373525
 30
0.0
 11
-66.646904
 21
-2.626475
 31
0.0
  0
ARC
  8
0
  6
CONTINUOUS
 62
     7
  5
11F
 10
-64.750556
 20
31.377177
 30
0.0
 40
1.896352
 50
89.889663
 51
180.110337
  0
ARC
  8
0
  6
CONTINUOUS
 62
     7
  5
120
 10
-64.743245
 20
-2.622816
 30
0.0
 40
1.903662
 50
180.110125
 51
269.889875
  0
ARC
  8
0
  6
CONTINUOUS
 62
     7
  5
121
 10
-30.750563
 20
-2.622816
 30
0.0
 40
1.903662
 50
270.110125
 51
359.889875
  0
ARC
  8
0
  6
CONTINUOUS
 62
     7
  5
122
 10
-30.743252
 20
31.377177
 30
0.0
 40
1.896352
 50
359.889663
 51
90.110337
  0
LINE
  8
0
  6
CONTINUOUS
 62
     7
  5
123
 10
-54.846904
 20
-0.626475
 30
0.0
 11
-52.646904
 21
-0.626475
 31
0.0
  0
LINE
  8
0
  6
CONTINUOUS
 62
     7
  5
124
 10
-54.846904
 20
1.373525
 30
0.0
 11
-52.646904
 21
1.373525
 31
0.0
  0
LINE
  8
0
  6
CONTINUOUS
 62
     7
  5
125
 10
-52.246904
 20
0.973525
 30
0.0
 11
-52.246904
 21
-0.226475
 31
0.0
  0
LINE
  8
0
  6
CONTINUOUS
 62
     7
  5
126
 10
-55.246904
 20
0.973525
 30
0.0
 11
-55.246904
 21
-0.226475
 31
0.0
  0
LINE
  8
0
  6
CONTINUOUS
 62
     7
  5
127
 10
-43.246904
 20
0.973525
 30
0.0
 11
-43.246904
 21
-0.226475
 31
0.0
  0
LINE
  8
0
  6
CONTINUOUS
 62
     7
  5
128
 10
-40.246904
 20
0.973525
 30
0.0
 11
-40.246904
 21
-0.226475
 31
0.0
  0
LINE
  8
0
  6
CONTINUOUS
 62
     7
  5
129
 10
-42.846904
 20
1.373525
 30
0.0
 11
-40.646904
 21
1.373525
 31
0.0
  0
LINE
  8
0
  6
CONTINUOUS
 62
     7
  5
12A
 10
-42.846904
 20
-0.626475
 30
0.0
 11
-40.646904
 21
-0.626475
 31
0.0
  0
ARC
  8
0
  6
CONTINUOUS
 62
     7
  5
12B
 10
-54.850543
 20
0.977164
 30
0.0
 40
0.396378
 50
89.473977
 51
180.526023
  0
ARC
  8
0
  6
CONTINUOUS
 62
     7
  5
12C
 10
-54.843232
 20
-0.222803
 30
0.0
 40
0.403688
 50
180.521129
 51
269.478871
  0
ARC
  8
0
  6
CONTINUOUS
 62
     7
  5
12D
 10
-52.65057
 20
-0.222809
 30
0.0
 40
0.403683
 50
270.520331
 51
359.479669
  0
ARC
  8
0
  6
CONTINUOUS
 62
     7
  5
12E
 10
-52.643259
 20
0.97717
 30
0.0
 40
0.396372
 50
359.473135
 51
90.526865
  0
ARC
  8
0
  6
CONTINUOUS
 62
     7
  5
12F
 10
-42.850543
 20
0.977164
 30
0.0
 40
0.396378
 50
89.473977
 51
180.526023
  0
ARC
  8
0
  6
CONTINUOUS
 62
     7
  5
130
 10
-42.843232
 20
-0.222803
 30
0.0
 40
0.403688
 50
180.521129
 51
269.478871
  0
ARC
  8
0
  6
CONTINUOUS
 62
     7
  5
131
 10
-40.65057
 20
-0.222809
 30
0.0
 40
0.403683
 50
270.520331
 51
359.479669
  0
ARC
  8
0
  6
CONTINUOUS
 62
     7
  5
132
 10
-40.643259
 20
0.97717
 30
0.0
 40
0.396372
 50
359.473135
 51
90.526865
  0
LINE
  8
0
  6
CENTER
 62
     2
  5
133
 10
-47.746904
 20
37.373525
 30
0.0
 11
-47.746904
 21
-24.626475
 31
0.0
  0
LINE
  8
0
  6
CONTINUOUS
 62
     7
  5
134
 10
-47.246904
 20
16.623525
 30
0.0
 11
-47.246904
 21
12.133525
 31
0.0
  0
LINE
  8
0
  6
CONTINUOUS
 62
     7
  5
135
 10
-48.246904
 20
16.623525
 30
0.0
 11
-48.246904
 21
12.133525
 31
0.0
  0
LINE
  8
0
  6
CONTINUOUS
 62
     7
  5
136
 10
-46.746904
 20
20.373525
 30
0.0
 11
-46.746904
 21
17.733525
 31
0.0
  0
LINE
  8
0
  6
CONTINUOUS
 62
     7
  5
137
 10
-48.746904
 20
20.373525
 30
0.0
 11
-48.746904
 21
17.733525
 31
0.0
  0
LINE
  8
0
  6
CONTINUOUS
 62
     7
  5
138
 10
-46.746904
 20
20.373525
 30
0.0
 11
-47.186904
 21
22.853525
 31
0.0
  0
LINE
  8
0
  6
CONTINUOUS
 62
     7
  5
139
 10
-48.306904
 20
22.853525
 30
0.0
 11
-48.746904
 21
20.373525
 31
0.0
  0
LINE
  8
0
  6
CONTINUOUS
 62
     7
  5
13A
 10
-45.896904
 20
-11.126475
 30
0.0
 11
-45.896904
 21
-21.126475
 31
0.0
  0
LINE
  8
0
  6
CONTINUOUS
 62
     7
  5
13B
 10
-49.596904
 20
-11.126475
 30
0.0
 11
-49.596904
 21
-21.126475
 31
0.0
  0
POLYLINE
  8
0
  6
CONTINUOUS
 62
     7
  5
13C
 66
     1
 10
0.0
 20
0.0
 30
0.0
  0
VERTEX
  8
0
  6
CONTINUOUS
 62
     7
  5
181
 10
-49.596904
 20
-21.126475
 30
0.0
  0
VERTEX
  8
0
  6
CONTINUOUS
 62
     7
  5
182
 10
-49.550877
 20
-21.174514
 30
0.0
  0
VERTEX
  8
0
  6
CONTINUOUS
 62
     7
  5
183
 10
-49.502194
 20
-21.221918
 30
0.0
  0
VERTEX
  8
0
  6
CONTINUOUS
 62
     7
  5
184
 10
-49.45108
 20
-21.268342
 30
0.0
  0
VERTEX
  8
0
  6
CONTINUOUS
 62
     7
  5
185
 10
-49.397758
 20
-21.313443
 30
0.0
  0
VERTEX
  8
0
  6
CONTINUOUS
 62
     7
  5
186
 10
-49.34245
 20
-21.356878
 30
0.0
  0
VERTEX
  8
0
  6
CONTINUOUS
 62
     7
  5
187
 10
-49.28538
 20
-21.398303
 30
0.0
  0
VERTEX
  8
0
  6
CONTINUOUS
 62
     7
  5
188
 10
-49.226772
 20
-21.437375
 30
0.0
  0
VERTEX
  8
0
  6
CONTINUOUS
 62
     7
  5
189
 10
-49.166849
 20
-21.47375
 30
0.0
  0
VERTEX
  8
0
  6
CONTINUOUS
 62
     7
  5
18A
 10
-49.105833
 20
-21.507086
 30
0.0
  0
VERTEX
  8
0
  6
CONTINUOUS
 62
     7
  5
18B
 10
-49.043949
 20
-21.537038
 30
0.0
  0
VERTEX
  8
0
  6
CONTINUOUS
 62
     7
  5
18C
 10
-48.981419
 20
-21.563264
 30
0.0
  0
VERTEX
  8
0
  6
CONTINUOUS
 62
     7
  5
18D
 10
-48.918467
 20
-21.585419
 30
0.0
  0
VERTEX
  8
0
  6
CONTINUOUS
 62
     7
  5
18E
 10
-48.855316
 20
-21.603162
 30
0.0
  0
VERTEX
  8
0
  6
CONTINUOUS
 62
     7
  5
18F
 10
-48.79219
 20
-21.616147
 30
0.0
  0
VERTEX
  8
0
  6
CONTINUOUS
 62
     7
  5
190
 10
-48.729311
 20
-21.624033
 30
0.0
  0
VERTEX
  8
0
  6
CONTINUOUS
 62
     7
  5
191
 10
-48.666904
 20
-21.626475
 30
0.0
  0
VERTEX
  8
0
  6
CONTINUOUS
 62
     7
  5
192
 10
-48.605726
 20
-21.623251
 30
0.0
  0
VERTEX
  8
0
  6
CONTINUOUS
 62
     7
  5
193
 10
-48.545312
 20
-21.614603
 30
0.0
  0
VERTEX
  8
0
  6
CONTINUOUS
 62
     7
  5
194
 10
-48.485605
 20
-21.600892
 30
0.0
  0
VERTEX
  8
0
  6
CONTINUOUS
 62
     7
  5
195
 10
-48.426545
 20
-21.582479
 30
0.0
  0
VERTEX
  8
0
  6
CONTINUOUS
 62
     7
  5
196
 10
-48.368073
 20
-21.559728
 30
0.0
  0
VERTEX
  8
0
  6
CONTINUOUS
 62
     7
  5
197
 10
-48.310131
 20
-21.532998
 30
0.0
  0
VERTEX
  8
0
  6
CONTINUOUS
 62
     7
  5
198
 10
-48.25266
 20
-21.502652
 30
0.0
  0
VERTEX
  8
0
  6
CONTINUOUS
 62
     7
  5
199
 10
-48.1956
 20
-21.469052
 30
0.0
  0
VERTEX
  8
0
  6
CONTINUOUS
 62
     7
  5
19A
 10
-48.138894
 20
-21.432558
 30
0.0
  0
VERTEX
  8
0
  6
CONTINUOUS
 62
     7
  5
19B
 10
-48.082483
 20
-21.393533
 30
0.0
  0
VERTEX
  8
0
  6
CONTINUOUS
 62
     7
  5
19C
 10
-48.026307
 20
-21.352338
 30
0.0
  0
VERTEX
  8
0
  6
CONTINUOUS
 62
     7
  5
19D
 10
-47.970308
 20
-21.309335
 30
0.0
  0
VERTEX
  8
0
  6
CONTINUOUS
 62
     7
  5
19E
 10
-47.914427
 20
-21.264886
 30
0.0
  0
VERTEX
  8
0
  6
CONTINUOUS
 62
     7
  5
19F
 10
-47.858605
 20
-21.219351
 30
0.0
  0
VERTEX
  8
0
  6
CONTINUOUS
 62
     7
  5
1A0
 10
-47.802784
 20
-21.173094
 30
0.0
  0
VERTEX
  8
0
  6
CONTINUOUS
 62
     7
  5
1A1
 10
-47.746904
 20
-21.126475
 30
0.0
  0
VERTEX
  8
0
  6
CONTINUOUS
 62
     7
  5
1A2
 10
-47.690994
 20
-21.079855
 30
0.0
  0
VERTEX
  8
0
  6
CONTINUOUS
 62
     7
  5
1A3
 10
-47.63509
 20
-21.033597
 30
0.0
  0
VERTEX
  8
0
  6
CONTINUOUS
 62
     7
  5
1A4
 10
-47.579146
 20
-20.988062
 30
0.0
  0
VERTEX
  8
0
  6
CONTINUOUS
 62
     7
  5
1A5
 10
-47.523115
 20
-20.943612
 30
0.0
  0
VERTEX
  8
0
  6
CONTINUOUS
 62
     7
  5
1A6
 10
-47.466949
 20
-20.900608
 30
0.0
  0
VERTEX
  8
0
  6
CONTINUOUS
 62
     7
  5
1A7
 10
-47.410603
 20
-20.859412
 30
0.0
  0
VERTEX
  8
0
  6
CONTINUOUS
 62
     7
  5
1A8
 10
-47.354029
 20
-20.820386
 30
0.0
  0
VERTEX
  8
0
  6
CONTINUOUS
 62
     7
  5
1A9
 10
-47.297181
 20
-20.783891
 30
0.0
  0
VERTEX
  8
0
  6
CONTINUOUS
 62
     7
  5
1AA
 10
-47.240012
 20
-20.75029
 30
0.0
  0
VERTEX
  8
0
  6
CONTINUOUS
 62
     7
  5
1AB
 10
-47.182474
 20
-20.719943
 30
0.0
  0
VERTEX
  8
0
  6
CONTINUOUS
 62
     7
  5
1AC
 10
-47.124522
 20
-20.693214
 30
0.0
  0
VERTEX
  8
0
  6
CONTINUOUS
 62
     7
  5
1AD
 10
-47.066109
 20
-20.670462
 30
0.0
  0
VERTEX
  8
0
  6
CONTINUOUS
 62
     7
  5
1AE
 10
-47.007187
 20
-20.652051
 30
0.0
  0
VERTEX
  8
0
  6
CONTINUOUS
 62
     7
  5
1AF
 10
-46.94771
 20
-20.638342
 30
0.0
  0
VERTEX
  8
0
  6
CONTINUOUS
 62
     7
  5
1B0
 10
-46.887631
 20
-20.629695
 30
0.0
  0
VERTEX
  8
0
  6
CONTINUOUS
 62
     7
  5
1B1
 10
-46.826904
 20
-20.626475
 30
0.0
  0
VERTEX
  8
0
  6
CONTINUOUS
 62
     7
  5
1B2
 10
-46.764951
 20
-20.628919
 30
0.0
  0
VERTEX
  8
0
  6
CONTINUOUS
 62
     7
  5
1B3
 10
-46.70241
 20
-20.636807
 30
0.0
  0
VERTEX
  8
0
  6
CONTINUOUS
 62
     7
  5
1B4
 10
-46.639516
 20
-20.649794
 30
0.0
  0
VERTEX
  8
0
  6
CONTINUOUS
 62
     7
  5
1B5
 10
-46.576505
 20
-20.667537
 30
0.0
  0
VERTEX
  8
0
  6
CONTINUOUS
 62
     7
  5
1B6
 10
-46.513611
 20
-20.689693
 30
0.0
  0
VERTEX
  8
0
  6
CONTINUOUS
 62
     7
  5
1B7
 10
-46.451071
 20
-20.715919
 30
0.0
  0
VERTEX
  8
0
  6
CONTINUOUS
 62
     7
  5
1B8
 10
-46.38912
 20
-20.745871
 30
0.0
  0
VERTEX
  8
0
  6
CONTINUOUS
 62
     7
  5
1B9
 10
-46.327994
 20
-20.779206
 30
0.0
  0
VERTEX
  8
0
  6
CONTINUOUS
 62
     7
  5
1BA
 10
-46.267927
 20
-20.81558
 30
0.0
  0
VERTEX
  8
0
  6
CONTINUOUS
 62
     7
  5
1BB
 10
-46.209155
 20
-20.854651
 30
0.0
  0
VERTEX
  8
0
  6
CONTINUOUS
 62
     7
  5
1BC
 10
-46.151913
 20
-20.896075
 30
0.0
  0
VERTEX
  8
0
  6
CONTINUOUS
 62
     7
  5
1BD
 10
-46.096438
 20
-20.939508
 30
0.0
  0
VERTEX
  8
0
  6
CONTINUOUS
 62
     7
  5
1BE
 10
-46.042964
 20
-20.984609
 30
0.0
  0
VERTEX
  8
0
  6
CONTINUOUS
 62
     7
  5
1BF
 10
-45.991726
 20
-21.031032
 30
0.0
  0
VERTEX
  8
0
  6
CONTINUOUS
 62
     7
  5
1C0
 10
-45.942961
 20
-21.078435
 30
0.0
  0
VERTEX
  8
0
  6
CONTINUOUS
 62
     7
  5
1C1
 10
-45.896904
 20
-21.126475
 30
0.0
  0
SEQEND
  8
0
  6
CONTINUOUS
 62
     7
  5
1C2
  0
POLYLINE
  8
0
  6
CONTINUOUS
 62
     7
  5
13D
 66
     1
 10
0.0
 20
0.0
 30
0.0
  0
VERTEX
  8
0
  6
CONTINUOUS
 62
     7
  5
1C3
 10
-45.896904
 20
-21.126475
 30
0.0
  0
VERTEX
  8
0
  6
CONTINUOUS
 62
     7
  5
1C4
 10
-45.942764
 20
-21.174491
 30
0.0
  0
VERTEX
  8
0
  6
CONTINUOUS
 62
     7
  5
1C5
 10
-45.99099
 20
-21.221832
 30
0.0
  0
VERTEX
  8
0
  6
CONTINUOUS
 62
     7
  5
1C6
 10
-46.041425
 20
-21.268162
 30
0.0
  0
VERTEX
  8
0
  6
CONTINUOUS
 62
     7
  5
1C7
 10
-46.093913
 20
-21.313147
 30
0.0
  0
VERTEX
  8
0
  6
CONTINUOUS
 62
     7
  5
1C8
 10
-46.148297
 20
-21.356454
 30
0.0
  0
VERTEX
  8
0
  6
CONTINUOUS
 62
     7
  5
1C9
 10
-46.20442
 20
-21.397748
 30
0.0
  0
VERTEX
  8
0
  6
CONTINUOUS
 62
     7
  5
1CA
 10
-46.262127
 20
-21.436695
 30
0.0
  0
VERTEX
  8
0
  6
CONTINUOUS
 62
     7
  5
1CB
 10
-46.32126
 20
-21.472962
 30
0.0
  0
VERTEX
  8
0
  6
CONTINUOUS
 62
     7
  5
1CC
 10
-46.381663
 20
-21.506212
 30
0.0
  0
VERTEX
  8
0
  6
CONTINUOUS
 62
     7
  5
1CD
 10
-46.44318
 20
-21.536114
 30
0.0
  0
VERTEX
  8
0
  6
CONTINUOUS
 62
     7
  5
1CE
 10
-46.505654
 20
-21.562332
 30
0.0
  0
VERTEX
  8
0
  6
CONTINUOUS
 62
     7
  5
1CF
 10
-46.568929
 20
-21.584532
 30
0.0
  0
VERTEX
  8
0
  6
CONTINUOUS
 62
     7
  5
1D0
 10
-46.632848
 20
-21.602381
 30
0.0
  0
VERTEX
  8
0
  6
CONTINUOUS
 62
     7
  5
1D1
 10
-46.697254
 20
-21.615543
 30
0.0
  0
VERTEX
  8
0
  6
CONTINUOUS
 62
     7
  5
1D2
 10
-46.761992
 20
-21.623686
 30
0.0
  0
VERTEX
  8
0
  6
CONTINUOUS
 62
     7
  5
1D3
 10
-46.826904
 20
-21.626475
 30
0.0
  0
VERTEX
  8
0
  6
CONTINUOUS
 62
     7
  5
1D4
 10
-46.891228
 20
-21.623686
 30
0.0
  0
VERTEX
  8
0
  6
CONTINUOUS
 62
     7
  5
1D5
 10
-46.955295
 20
-21.615543
 30
0.0
  0
VERTEX
  8
0
  6
CONTINUOUS
 62
     7
  5
1D6
 10
-47.018965
 20
-21.602381
 30
0.0
  0
VERTEX
  8
0
  6
CONTINUOUS
 62
     7
  5
1D7
 10
-47.082099
 20
-21.584532
 30
0.0
  0
VERTEX
  8
0
  6
CONTINUOUS
 62
     7
  5
1D8
 10
-47.144555
 20
-21.562332
 30
0.0
  0
VERTEX
  8
0
  6
CONTINUOUS
 62
     7
  5
1D9
 10
-47.206195
 20
-21.536114
 30
0.0
  0
VERTEX
  8
0
  6
CONTINUOUS
 62
     7
  5
1DA
 10
-47.266879
 20
-21.506212
 30
0.0
  0
VERTEX
  8
0
  6
CONTINUOUS
 62
     7
  5
1DB
 10
-47.326466
 20
-21.472962
 30
0.0
  0
VERTEX
  8
0
  6
CONTINUOUS
 62
     7
  5
1DC
 10
-47.384816
 20
-21.436695
 30
0.0
  0
VERTEX
  8
0
  6
CONTINUOUS
 62
     7
  5
1DD
 10
-47.441791
 20
-21.397748
 30
0.0
  0
VERTEX
  8
0
  6
CONTINUOUS
 62
     7
  5
1DE
 10
-47.497249
 20
-21.356454
 30
0.0
  0
VERTEX
  8
0
  6
CONTINUOUS
 62
     7
  5
1DF
 10
-47.551052
 20
-21.313147
 30
0.0
  0
VERTEX
  8
0
  6
CONTINUOUS
 62
     7
  5
1E0
 10
-47.603058
 20
-21.268162
 30
0.0
  0
VERTEX
  8
0
  6
CONTINUOUS
 62
     7
  5
1E1
 10
-47.653129
 20
-21.221832
 30
0.0
  0
VERTEX
  8
0
  6
CONTINUOUS
 62
     7
  5
1E2
 10
-47.701124
 20
-21.174491
 30
0.0
  0
VERTEX
  8
0
  6
CONTINUOUS
 62
     7
  5
1E3
 10
-47.746904
 20
-21.126475
 30
0.0
  0
SEQEND
  8
0
  6
CONTINUOUS
 62
     7
  5
1E4
  0
LINE
  8
0
  6
CONTINUOUS
 62
     7
  5
13E
 10
43.403096
 20
-11.126475
 30
0.0
 11
43.403096
 21
-21.126475
 31
0.0
  0
LINE
  8
0
  6
CONTINUOUS
 62
     7
  5
13F
 10
47.103096
 20
-11.126475
 30
0.0
 11
47.103096
 21
-21.126475
 31
0.0
  0
POLYLINE
  8
0
  6
CONTINUOUS
 62
     7
  5
140
 66
     1
 10
0.0
 20
0.0
 30
0.0
  0
VERTEX
  8
0
  6
CONTINUOUS
 62
     7
  5
1E5
 10
47.103096
 20
-21.126475
 30
0.0
  0
VERTEX
  8
0
  6
CONTINUOUS
 62
     7
  5
1E6
 10
47.057069
 20
-21.174514
 30
0.0
  0
VERTEX
  8
0
  6
CONTINUOUS
 62
     7
  5
1E7
 10
47.008387
 20
-21.221918
 30
0.0
  0
VERTEX
  8
0
  6
CONTINUOUS
 62
     7
  5
1E8
 10
46.957273
 20
-21.268342
 30
0.0
  0
VERTEX
  8
0
  6
CONTINUOUS
 62
     7
  5
1E9
 10
46.90395
 20
-21.313443
 30
0.0
  0
VERTEX
  8
0
  6
CONTINUOUS
 62
     7
  5
1EA
 10
46.848642
 20
-21.356878
 30
0.0
  0
VERTEX
  8
0
  6
CONTINUOUS
 62
     7
  5
1EB
 10
46.791573
 20
-21.398303
 30
0.0
  0
VERTEX
  8
0
  6
CONTINUOUS
 62
     7
  5
1EC
 10
46.732965
 20
-21.437375
 30
0.0
  0
VERTEX
  8
0
  6
CONTINUOUS
 62
     7
  5
1ED
 10
46.673041
 20
-21.47375
 30
0.0
  0
VERTEX
  8
0
  6
CONTINUOUS
 62
     7
  5
1EE
 10
46.612025
 20
-21.507086
 30
0.0
  0
VERTEX
  8
0
  6
CONTINUOUS
 62
     7
  5
1EF
 10
46.550141
 20
-21.537038
 30
0.0
  0
VERTEX
  8
0
  6
CONTINUOUS
 62
     7
  5
1F0
 10
46.487611
 20
-21.563264
 30
0.0
  0
VERTEX
  8
0
  6
CONTINUOUS
 62
     7
  5
1F1
 10
46.424659
 20
-21.585419
 30
0.0
  0
VERTEX
  8
0
  6
CONTINUOUS
 62
     7
  5
1F2
 10
46.361509
 20
-21.603162
 30
0.0
  0
VERTEX
  8
0
  6
CONTINUOUS
 62
     7
  5
1F3
 10
46.298382
 20
-21.616147
 30
0.0
  0
VERTEX
  8
0
  6
CONTINUOUS
 62
     7
  5
1F4
 10
46.235504
 20
-21.624033
 30
0.0
  0
VERTEX
  8
0
  6
CONTINUOUS
 62
     7
  5
1F5
 10
46.173096
 20
-21.626475
 30
0.0
  0
VERTEX
  8
0
  6
CONTINUOUS
 62
     7
  5
1F6
 10
46.111891
 20
-21.623228
 30
0.0
  0
VERTEX
  8
0
  6
CONTINUOUS
 62
     7
  5
1F7
 10
46.051403
 20
-21.614518
 30
0.0
  0
VERTEX
  8
0
  6
CONTINUOUS
 62
     7
  5
1F8
 10
45.991584
 20
-21.600714
 30
0.0
  0
VERTEX
  8
0
  6
CONTINUOUS
 62
     7
  5
1F9
 10
45.932388
 20
-21.582188
 30
0.0
  0
VERTEX
  8
0
  6
CONTINUOUS
 62
     7
  5
1FA
 10
45.873765
 20
-21.55931
 30
0.0
  0
VERTEX
  8
0
  6
CONTINUOUS
 62
     7
  5
1FB
 10
45.815668
 20
-21.532451
 30
0.0
  0
VERTEX
  8
0
  6
CONTINUOUS
 62
     7
  5
1FC
 10
45.758049
 20
-21.501982
 30
0.0
  0
VERTEX
  8
0
  6
CONTINUOUS
 62
     7
  5
1FD
 10
45.700861
 20
-21.468274
 30
0.0
  0
VERTEX
  8
0
  6
CONTINUOUS
 62
     7
  5
1FE
 10
45.644055
 20
-21.431697
 30
0.0
  0
VERTEX
  8
0
  6
CONTINUOUS
 62
     7
  5
1FF
 10
45.587583
 20
-21.392621
 30
0.0
  0
VERTEX
  8
0
  6
CONTINUOUS
 62
     7
  5
200
 10
45.531398
 20
-21.351419
 30
0.0
  0
VERTEX
  8
0
  6
CONTINUOUS
 62
     7
  5
201
 10
45.475452
 20
-21.30846
 30
0.0
  0
VERTEX
  8
0
  6
CONTINUOUS
 62
     7
  5
202
 10
45.419696
 20
-21.264115
 30
0.0
  0
VERTEX
  8
0
  6
CONTINUOUS
 62
     7
  5
203
 10
45.364084
 20
-21.218756
 30
0.0
  0
VERTEX
  8
0
  6
CONTINUOUS
 62
     7
  5
204
 10
45.308566
 20
-21.172752
 30
0.0
  0
VERTEX
  8
0
  6
CONTINUOUS
 62
     7
  5
205
 10
45.253096
 20
-21.126475
 30
0.0
  0
VERTEX
  8
0
  6
CONTINUOUS
 62
     7
  5
206
 10
45.197134
 20
-21.079856
 30
0.0
  0
VERTEX
  8
0
  6
CONTINUOUS
 62
     7
  5
207
 10
45.141078
 20
-21.033598
 30
0.0
  0
VERTEX
  8
0
  6
CONTINUOUS
 62
     7
  5
208
 10
45.084887
 20
-20.988065
 30
0.0
  0
VERTEX
  8
0
  6
CONTINUOUS
 62
     7
  5
209
 10
45.028518
 20
-20.943616
 30
0.0
  0
VERTEX
  8
0
  6
CONTINUOUS
 62
     7
  5
20A
 10
44.971929
 20
-20.900615
 30
0.0
  0
VERTEX
  8
0
  6
CONTINUOUS
 62
     7
  5
20B
 10
44.915081
 20
-20.859421
 30
0.0
  0
VERTEX
  8
0
  6
CONTINUOUS
 62
     7
  5
20C
 10
44.857929
 20
-20.820397
 30
0.0
  0
VERTEX
  8
0
  6
CONTINUOUS
 62
     7
  5
20D
 10
44.800434
 20
-20.783904
 30
0.0
  0
VERTEX
  8
0
  6
CONTINUOUS
 62
     7
  5
20E
 10
44.742554
 20
-20.750304
 30
0.0
  0
VERTEX
  8
0
  6
CONTINUOUS
 62
     7
  5
20F
 10
44.684246
 20
-20.719959
 30
0.0
  0
VERTEX
  8
0
  6
CONTINUOUS
 62
     7
  5
210
 10
44.625469
 20
-20.693229
 30
0.0
  0
VERTEX
  8
0
  6
CONTINUOUS
 62
     7
  5
211
 10
44.566182
 20
-20.670477
 30
0.0
  0
VERTEX
  8
0
  6
CONTINUOUS
 62
     7
  5
212
 10
44.506343
 20
-20.652064
 30
0.0
  0
VERTEX
  8
0
  6
CONTINUOUS
 62
     7
  5
213
 10
44.44591
 20
-20.638352
 30
0.0
  0
VERTEX
  8
0
  6
CONTINUOUS
 62
     7
  5
214
 10
44.384841
 20
-20.629701
 30
0.0
  0
VERTEX
  8
0
  6
CONTINUOUS
 62
     7
  5
215
 10
44.323096
 20
-20.626475
 30
0.0
  0
VERTEX
  8
0
  6
CONTINUOUS
 62
     7
  5
216
 10
44.261256
 20
-20.628919
 30
0.0
  0
VERTEX
  8
0
  6
CONTINUOUS
 62
     7
  5
217
 10
44.199032
 20
-20.636807
 30
0.0
  0
VERTEX
  8
0
  6
CONTINUOUS
 62
     7
  5
218
 10
44.136631
 20
-20.649794
 30
0.0
  0
VERTEX
  8
0
  6
CONTINUOUS
 62
     7
  5
219
 10
44.074259
 20
-20.667537
 30
0.0
  0
VERTEX
  8
0
  6
CONTINUOUS
 62
     7
  5
21A
 10
44.012123
 20
-20.689693
 30
0.0
  0
VERTEX
  8
0
  6
CONTINUOUS
 62
     7
  5
21B
 10
43.950428
 20
-20.715919
 30
0.0
  0
VERTEX
  8
0
  6
CONTINUOUS
 62
     7
  5
21C
 10
43.88938
 20
-20.745871
 30
0.0
  0
VERTEX
  8
0
  6
CONTINUOUS
 62
     7
  5
21D
 10
43.829186
 20
-20.779206
 30
0.0
  0
VERTEX
  8
0
  6
CONTINUOUS
 62
     7
  5
21E
 10
43.770052
 20
-20.81558
 30
0.0
  0
VERTEX
  8
0
  6
CONTINUOUS
 62
     7
  5
21F
 10
43.712183
 20
-20.854651
 30
0.0
  0
VERTEX
  8
0
  6
CONTINUOUS
 62
     7
  5
220
 10
43.655786
 20
-20.896075
 30
0.0
  0
VERTEX
  8
0
  6
CONTINUOUS
 62
     7
  5
221
 10
43.601068
 20
-20.939508
 30
0.0
  0
VERTEX
  8
0
  6
CONTINUOUS
 62
     7
  5
222
 10
43.548233
 20
-20.984609
 30
0.0
  0
VERTEX
  8
0
  6
CONTINUOUS
 62
     7
  5
223
 10
43.497489
 20
-21.031032
 30
0.0
  0
VERTEX
  8
0
  6
CONTINUOUS
 62
     7
  5
224
 10
43.449041
 20
-21.078435
 30
0.0
  0
VERTEX
  8
0
  6
CONTINUOUS
 62
     7
  5
225
 10
43.403096
 20
-21.126475
 30
0.0
  0
SEQEND
  8
0
  6
CONTINUOUS
 62
     7
  5
226
  0
POLYLINE
  8
0
  6
CONTINUOUS
 62
     7
  5
141
 66
     1
 10
0.0
 20
0.0
 30
0.0
  0
VERTEX
  8
0
  6
CONTINUOUS
 62
     7
  5
227
 10
43.403096
 20
-21.126475
 30
0.0
  0
VERTEX
  8
0
  6
CONTINUOUS
 62
     7
  5
228
 10
43.448907
 20
-21.174491
 30
0.0
  0
VERTEX
  8
0
  6
CONTINUOUS
 62
     7
  5
229
 10
43.496988
 20
-21.221832
 30
0.0
  0
VERTEX
  8
0
  6
CONTINUOUS
 62
     7
  5
22A
 10
43.547187
 20
-21.268162
 30
0.0
  0
VERTEX
  8
0
  6
CONTINUOUS
 62
     7
  5
22B
 10
43.599351
 20
-21.313147
 30
0.0
  0
VERTEX
  8
0
  6
CONTINUOUS
 62
     7
  5
22C
 10
43.653327
 20
-21.356454
 30
0.0
  0
VERTEX
  8
0
  6
CONTINUOUS
 62
     7
  5
22D
 10
43.708964
 20
-21.397748
 30
0.0
  0
VERTEX
  8
0
  6
CONTINUOUS
 62
     7
  5
22E
 10
43.766108
 20
-21.436695
 30
0.0
  0
VERTEX
  8
0
  6
CONTINUOUS
 62
     7
  5
22F
 10
43.824608
 20
-21.472962
 30
0.0
  0
VERTEX
  8
0
  6
CONTINUOUS
 62
     7
  5
230
 10
43.88431
 20
-21.506212
 30
0.0
  0
VERTEX
  8
0
  6
CONTINUOUS
 62
     7
  5
231
 10
43.945062
 20
-21.536114
 30
0.0
  0
VERTEX
  8
0
  6
CONTINUOUS
 62
     7
  5
232
 10
44.006713
 20
-21.562332
 30
0.0
  0
VERTEX
  8
0
  6
CONTINUOUS
 62
     7
  5
233
 10
44.069109
 20
-21.584532
 30
0.0
  0
VERTEX
  8
0
  6
CONTINUOUS
 62
     7
  5
234
 10
44.132097
 20
-21.602381
 30
0.0
  0
VERTEX
  8
0
  6
CONTINUOUS
 62
     7
  5
235
 10
44.195526
 20
-21.615543
 30
0.0
  0
VERTEX
  8
0
  6
CONTINUOUS
 62
     7
  5
236
 10
44.259244
 20
-21.623686
 30
0.0
  0
VERTEX
  8
0
  6
CONTINUOUS
 62
     7
  5
237
 10
44.323096
 20
-21.626475
 30
0.0
  0
VERTEX
  8
0
  6
CONTINUOUS
 62
     7
  5
238
 10
44.387533
 20
-21.623686
 30
0.0
  0
VERTEX
  8
0
  6
CONTINUOUS
 62
     7
  5
239
 10
44.451917
 20
-21.615543
 30
0.0
  0
VERTEX
  8
0
  6
CONTINUOUS
 62
     7
  5
23A
 10
44.516081
 20
-21.602381
 30
0.0
  0
VERTEX
  8
0
  6
CONTINUOUS
 62
     7
  5
23B
 10
44.579854
 20
-21.584532
 30
0.0
  0
VERTEX
  8
0
  6
CONTINUOUS
 62
     7
  5
23C
 10
44.643067
 20
-21.562332
 30
0.0
  0
VERTEX
  8
0
  6
CONTINUOUS
 62
     7
  5
23D
 10
44.705552
 20
-21.536114
 30
0.0
  0
VERTEX
  8
0
  6
CONTINUOUS
 62
     7
  5
23E
 10
44.767138
 20
-21.506212
 30
0.0
  0
VERTEX
  8
0
  6
CONTINUOUS
 62
     7
  5
23F
 10
44.827658
 20
-21.472962
 30
0.0
  0
VERTEX
  8
0
  6
CONTINUOUS
 62
     7
  5
240
 10
44.886941
 20
-21.436695
 30
0.0
  0
VERTEX
  8
0
  6
CONTINUOUS
 62
     7
  5
241
 10
44.944819
 20
-21.397748
 30
0.0
  0
VERTEX
  8
0
  6
CONTINUOUS
 62
     7
  5
242
 10
45.001122
 20
-21.356454
 30
0.0
  0
VERTEX
  8
0
  6
CONTINUOUS
 62
     7
  5
243
 10
45.055681
 20
-21.313147
 30
0.0
  0
VERTEX
  8
0
  6
CONTINUOUS
 62
     7
  5
244
 10
45.108328
 20
-21.268162
 30
0.0
  0
VERTEX
  8
0
  6
CONTINUOUS
 62
     7
  5
245
 10
45.158892
 20
-21.221832
 30
0.0
  0
VERTEX
  8
0
  6
CONTINUOUS
 62
     7
  5
246
 10
45.207204
 20
-21.174491
 30
0.0
  0
VERTEX
  8
0
  6
CONTINUOUS
 62
     7
  5
247
 10
45.253096
 20
-21.126475
 30
0.0
  0
SEQEND
  8
0
  6
CONTINUOUS
 62
     7
  5
248
  0
CIRCLE
  8
0
  6
CONTINUOUS
 62
     7
  5
142
 10
-30.342467
 20
16.199878
 30
0.0
 40
0.5
  0
CIRCLE
  8
0
  6
CONTINUOUS
 62
     7
  5
143
 10
-36.048091
 20
27.388431
 30
0.0
 40
0.5
  0
CIRCLE
  8
0
  6
CONTINUOUS
 62
     7
  5
144
 10
-47.746904
 20
31.873525
 30
0.0
 40
0.5
  0
CIRCLE
  8
0
  6
CONTINUOUS
 62
     7
  5
145
 10
-59.445717
 20
27.388431
 30
0.0
 40
0.5
  0
CIRCLE
  8
0
  6
CONTINUOUS
 62
     7
  5
146
 10
-65.151341
 20
16.199878
 30
0.0
 40
0.5
  0
INSERT
  8
0
  6
CONTINUOUS
 62
     7
  5
14B
  2
*X0
 10
0.0
 20
0.0
 30
0.0
  0
INSERT
  8
0
  6
CONTINUOUS
 62
     7
  5
153
  2
*X1
 10
0.0
 20
0.0
 30
0.0
  0
INSERT
  8
0
  6
CONTINUOUS
 62
     7
  5
15B
  2
*X2
 10
0.0
 20
0.0
 30
0.0
  0
INSERT
  8
0
  6
CONTINUOUS
 62
     7
  5
162
  2
*X3
 10
0.0
 20
0.0
 30
0.0
  0
INSERT
  8
0
  6
CONTINUOUS
 62
     7
  5
169
  2
*X4
 10
0.0
 20
0.0
 30
0.0
  0
INSERT
  8
0
  6
CONTINUOUS
 62
     7
  5
171
  2
*X5
 10
0.0
 20
0.0
 30
0.0
  0
INSERT
  8
0
  6
CONTINUOUS
 62
     7
  5
179
  2
*X6
 10
0.0
 20
0.0
 30
0.0
  0
LINE
  8
0
  6
CENTER
 62
     2
  5
17A
 10
29.253096
 20
14.373525
 30
0.0
 11
89.253096
 21
14.373525
 31
0.0
  0
LINE
  8
0
  6
CONTINUOUS
 62
     7
  5
17B
 10
-138.399994
 20
94.5
 30
0.0
 11
138.350006
 21
94.5
 31
0.0
  0
LINE
  8
0
  6
CONTINUOUS
 62
     7
  5
17C
 10
138.350006
 20
94.5
 30
0.0
 11
138.350006
 21
-94.800003
 31
0.0
  0
LINE
  8
0
  6
CONTINUOUS
 62
     7
  5
17D
 10
-138.399994
 20
-94.800003
 30
0.0
 11
138.350006
 21
-94.800003
 31
0.0
  0
LINE
  8
0
  6
CONTINUOUS
 62
     7
  5
17E
 10
-138.399994
 20
94.5
 30
0.0
 11
-138.399994
 21
-94.800003
 31
0.0
  0
TEXT
  8
0
  6
CONTINUOUS
 62
     7
  5
17F
 10
-129.38245
 20
72.9
 30
0.0
 40
3.2
  1
MODEL:EG110
 41
1.157895
  7
MX_NOTE_STANDARD
 11
-129.38245
 21
74.5
 31
0.0
 73
     2
  0
ENDSEC
  0
EOF
