  0
SECTION
  2
HEADER
  9
$ACADVER
  1
AC1015
  9
$ACADMAINTVER
 70
    20
  9
$DWGCODEPAGE
  3
ANSI_932
  9
$INSBASE
 10
0.0
 20
0.0
 30
0.0
  9
$EXTMIN
 10
-138.399994
 20
-94.800003
 30
0.0
  9
$EXTMAX
 10
138.350006
 20
94.50000000000001
 30
0.0
  9
$LIMMIN
 10
-138.399994
 20
-94.800003
  9
$LIMMAX
 10
138.350006
 20
94.50000000000001
  9
$ORTHOMODE
 70
     0
  9
$REGENMODE
 70
     1
  9
$FILLMODE
 70
     1
  9
$QTEXTMODE
 70
     0
  9
$MIRRTEXT
 70
     1
  9
$LTSCALE
 40
1.0
  9
$ATTMODE
 70
     1
  9
$TEXTSIZE
 40
3.2
  9
$TRACEWID
 40
0.05
  9
$TEXTSTYLE
  7
MX_NOTE_STANDARD
  9
$CLAYER
  8
0
  9
$CELTYPE
  6
CONTINUOUS
  9
$CECOLOR
 62
   256
  9
$CELTSCALE
 40
1.0
  9
$DISPSILH
 70
     0
  9
$DIMSCALE
 40
1.0
  9
$DIMASZ
 40
2.5
  9
$DIMEXO
 40
1.5
  9
$DIMDLI
 40
3.75
  9
$DIMRND
 40
0.0
  9
$DIMDLE
 40
0.0
  9
$DIMEXE
 40
1.5
  9
$DIMTP
 40
0.0
  9
$DIMTM
 40
0.0
  9
$DIMTXT
 40
3.2
  9
$DIMCEN
 40
2.5
  9
$DIMTSZ
 40
0.0
  9
$DIMTOL
 70
     0
  9
$DIMLIM
 70
     0
  9
$DIMTIH
 70
     0
  9
$DIMTOH
 70
     0
  9
$DIMSE1
 70
     0
  9
$DIMSE2
 70
     0
  9
$DIMTAD
 70
     1
  9
$DIMZIN
 70
     8
  9
$DIMBLK
  1

  9
$DIMASO
 70
     1
  9
$DIMSHO
 70
     1
  9
$DIMPOST
  1

  9
$DIMAPOST
  1

  9
$DIMALT
 70
     0
  9
$DIMALTD
 70
     4
  9
$DIMALTF
 40
0.0394
  9
$DIMLFAC
 40
1.0
  9
$DIMTOFL
 70
     1
  9
$DIMTVP
 40
0.0
  9
$DIMTIX
 70
     0
  9
$DIMSOXD
 70
     0
  9
$DIMSAH
 70
     0
  9
$DIMBLK1
  1

  9
$DIMBLK2
  1

  9
$DIMSTYLE
  2
MXDIMSTYLE
  9
$DIMCLRD
 70
     0
  9
$DIMCLRE
 70
     0
  9
$DIMCLRT
 70
     0
  9
$DIMTFAC
 40
1.0
  9
$DIMGAP
 40
1.0
  9
$DIMJUST
 70
     0
  9
$DIMSD1
 70
     0
  9
$DIMSD2
 70
     0
  9
$DIMTOLJ
 70
     1
  9
$DIMTZIN
 70
     0
  9
$DIMALTZ
 70
     0
  9
$DIMALTTZ
 70
     0
  9
$DIMUPT
 70
     0
  9
$DIMDEC
 70
     4
  9
$DIMTDEC
 70
     4
  9
$DIMALTU
 70
     2
  9
$DIMALTTD
 70
     2
  9
$DIMTXSTY
  7
Standard
  9
$DIMAUNIT
 70
     0
  9
$DIMADEC
 70
     0
  9
$DIMALTRND
 40
0.0
  9
$DIMAZIN
 70
     0
  9
$DIMDSEP
 70
    46
  9
$DIMATFIT
 70
     3
  9
$DIMFRAC
 70
     0
  9
$DIMLDRBLK
  1

  9
$DIMLUNIT
 70
     2
  9
$DIMLWD
 70
    -2
  9
$DIMLWE
 70
    -2
  9
$DIMTMOVE
 70
     0
  9
$LUNITS
 70
     2
  9
$LUPREC
 70
     4
  9
$SKETCHINC
 40
0.1
  9
$FILLETRAD
 40
0.0
  9
$AUNITS
 70
     0
  9
$AUPREC
 70
     0
  9
$MENU
  1
acad
  9
$ELEVATION
 40
0.0
  9
$PELEVATION
 40
0.0
  9
$THICKNESS
 40
0.0
  9
$LIMCHECK
 70
     0
  9
$CHAMFERA
 40
0.0
  9
$CHAMFERB
 40
0.0
  9
$CHAMFERC
 40
0.0
  9
$CHAMFERD
 40
0.0
  9
$SKPOLY
 70
     0
  9
$TDCREATE
 40
2452026.471921296
  9
$TDUCREATE
 40
2452026.096921296
  9
$TDUPDATE
 40
2454306.714285556
  9
$TDUUPDATE
 40
2454306.339285556
  9
$TDINDWG
 40
0.0003705556
  9
$TDUSRTIMER
 40
0.0003691088
  9
$USRTIMER
 70
     1
  9
$ANGBASE
 50
0.0
  9
$ANGDIR
 70
     0
  9
$PDMODE
 70
     0
  9
$PDSIZE
 40
0.0
  9
$PLINEWID
 40
0.0
  9
$SPLFRAME
 70
     0
  9
$SPLINETYPE
 70
     6
  9
$SPLINESEGS
 70
     8
  9
$HANDSEED
  5
289
  9
$SURFTAB1
 70
     6
  9
$SURFTAB2
 70
     6
  9
$SURFTYPE
 70
     6
  9
$SURFU
 70
     6
  9
$SURFV
 70
     6
  9
$UCSBASE
  2

  9
$UCSNAME
  2

  9
$UCSORG
 10
0.0
 20
0.0
 30
0.0
  9
$UCSXDIR
 10
1.0
 20
0.0
 30
0.0
  9
$UCSYDIR
 10
0.0
 20
1.0
 30
0.0
  9
$UCSORTHOREF
  2

  9
$UCSORTHOVIEW
 70
     0
  9
$UCSORGTOP
 10
0.0
 20
0.0
 30
0.0
  9
$UCSORGBOTTOM
 10
0.0
 20
0.0
 30
0.0
  9
$UCSORGLEFT
 10
0.0
 20
0.0
 30
0.0
  9
$UCSORGRIGHT
 10
0.0
 20
0.0
 30
0.0
  9
$UCSORGFRONT
 10
0.0
 20
0.0
 30
0.0
  9
$UCSORGBACK
 10
0.0
 20
0.0
 30
0.0
  9
$PUCSBASE
  2

  9
$PUCSNAME
  2

  9
$PUCSORG
 10
0.0
 20
0.0
 30
0.0
  9
$PUCSXDIR
 10
1.0
 20
0.0
 30
0.0
  9
$PUCSYDIR
 10
0.0
 20
1.0
 30
0.0
  9
$PUCSORTHOREF
  2

  9
$PUCSORTHOVIEW
 70
     0
  9
$PUCSORGTOP
 10
0.0
 20
0.0
 30
0.0
  9
$PUCSORGBOTTOM
 10
0.0
 20
0.0
 30
0.0
  9
$PUCSORGLEFT
 10
0.0
 20
0.0
 30
0.0
  9
$PUCSORGRIGHT
 10
0.0
 20
0.0
 30
0.0
  9
$PUCSORGFRONT
 10
0.0
 20
0.0
 30
0.0
  9
$PUCSORGBACK
 10
0.0
 20
0.0
 30
0.0
  9
$USERI1
 70
     0
  9
$USERI2
 70
     0
  9
$USERI3
 70
     0
  9
$USERI4
 70
     0
  9
$USERI5
 70
     0
  9
$USERR1
 40
0.0
  9
$USERR2
 40
0.0
  9
$USERR3
 40
0.0
  9
$USERR4
 40
0.0
  9
$USERR5
 40
0.0
  9
$WORLDVIEW
 70
     1
  9
$SHADEDGE
 70
     3
  9
$SHADEDIF
 70
    70
  9
$TILEMODE
 70
     1
  9
$MAXACTVP
 70
    16
  9
$PINSBASE
 10
0.0
 20
0.0
 30
0.0
  9
$PLIMCHECK
 70
     0
  9
$PEXTMIN
 10
1.000000000000000E+20
 20
1.000000000000000E+20
 30
1.000000000000000E+20
  9
$PEXTMAX
 10
-1.000000000000000E+20
 20
-1.000000000000000E+20
 30
-1.000000000000000E+20
  9
$PLIMMIN
 10
0.0
 20
0.0
  9
$PLIMMAX
 10
12.0
 20
9.0
  9
$UNITMODE
 70
     0
  9
$VISRETAIN
 70
     0
  9
$PLINEGEN
 70
     1
  9
$PSLTSCALE
 70
     0
  9
$TREEDEPTH
 70
  3020
  9
$CMLSTYLE
  2
Standard
  9
$CMLJUST
 70
     0
  9
$CMLSCALE
 40
1.0
  9
$PROXYGRAPHICS
 70
     1
  9
$MEASUREMENT
 70
     0
  9
$CELWEIGHT
370
    -1
  9
$ENDCAPS
280
     0
  9
$JOINSTYLE
280
     0
  9
$LWDISPLAY
290
     0
  9
$INSUNITS
 70
     0
  9
$HYPERLINKBASE
  1

  9
$STYLESHEET
  1

  9
$XEDIT
290
     1
  9
$CEPSNTYPE
380
     0
  9
$PSTYLEMODE
290
     1
  9
$FINGERPRINTGUID
  2
{60B5F819-0B4A-49B2-94D5-33BB144E743B}
  9
$VERSIONGUID
  2
{43C60303-24F2-4A4D-BC25-8F35AB6E834D}
  9
$EXTNAMES
290
     1
  9
$PSVPSCALE
 40
0.0
  9
$OLESTARTUP
290
     0
  0
ENDSEC
  0
SECTION
  2
CLASSES
  0
CLASS
  1
ACDBDICTIONARYWDFLT
  2
AcDbDictionaryWithDefault
  3
ObjectDBX Classes
 90
        0
280
     0
281
     0
  0
CLASS
  1
TABLESTYLE
  2
AcDbTableStyle
  3
ObjectDBX Classes
 90
     2047
280
     0
281
     0
  0
CLASS
  1
DICTIONARYVAR
  2
AcDbDictionaryVar
  3
ObjectDBX Classes
 90
        0
280
     0
281
     0
  0
CLASS
  1
ACDBPLACEHOLDER
  2
AcDbPlaceHolder
  3
ObjectDBX Classes
 90
        0
280
     0
281
     0
  0
CLASS
  1
LAYOUT
  2
AcDbLayout
  3
ObjectDBX Classes
 90
        0
280
     0
281
     0
  0
ENDSEC
  0
SECTION
  2
TABLES
  0
TABLE
  2
VPORT
  5
251
330
0
100
AcDbSymbolTable
 70
     2
  0
VPORT
  5
282
330
251
100
AcDbSymbolTableRecord
100
AcDbViewportTableRecord
  2
*Active
 70
     0
 10
0.0
 20
0.0
 11
1.0
 21
1.0
 12
-0.0249939999999924
 22
5.372917475459118
 13
0.0
 23
0.0
 14
1.0
 24
1.0
 15
0.0
 25
0.0
 16
0.0
 26
0.0
 36
1.0
 17
0.0
 27
0.0
 37
0.0
 40
202.2388419509182
 41
1.637450199203187
 42
50.0
 43
0.0
 44
0.0
 50
0.0
 51
0.0
 71
     0
 72
   100
 73
     1
 74
     1
 75
     0
 76
     0
 77
     0
 78
     0
281
     0
 65
     1
110
0.0
120
0.0
130
0.0
111
1.0
121
0.0
131
0.0
112
0.0
122
1.0
132
0.0
 79
     0
146
0.0
  0
ENDTAB
  0
TABLE
  2
LTYPE
  5
24E
330
0
100
AcDbSymbolTable
 70
     2
  0
LTYPE
  5
25C
330
24E
100
AcDbSymbolTableRecord
100
AcDbLinetypeTableRecord
  2
ByBlock
 70
     0
  3

 72
    65
 73
     0
 40
0.0
  0
LTYPE
  5
25D
330
24E
100
AcDbSymbolTableRecord
100
AcDbLinetypeTableRecord
  2
ByLayer
 70
     0
  3

 72
    65
 73
     0
 40
0.0
  0
LTYPE
  5
25E
330
24E
100
AcDbSymbolTableRecord
100
AcDbLinetypeTableRecord
  2
CONTINUOUS
 70
     0
  3
Solid line
 72
    65
 73
     0
 40
0.0
  0
LTYPE
  5
271
330
24E
100
AcDbSymbolTableRecord
100
AcDbLinetypeTableRecord
  2
CENTER
 70
     0
  3
Center ____ _ ____ _ ____ _ ____ _ ____ _ ____
 72
    65
 73
     4
 40
50.8
 49
31.75
 74
     0
 49
-6.349999999999999
 74
     0
 49
6.349999999999999
 74
     0
 49
-6.349999999999999
 74
     0
  0
ENDTAB
  0
TABLE
  2
LAYER
  5
24B
330
0
100
AcDbSymbolTable
 70
     2
  0
LAYER
  5
259
330
24B
100
AcDbSymbolTableRecord
100
AcDbLayerTableRecord
  2
0
 70
     0
 62
     7
  6
CONTINUOUS
370
    -3
390
258
  0
LAYER
  5
272
330
24B
100
AcDbSymbolTableRecord
100
AcDbLayerTableRecord
  2
DEFPOINTS
 70
     0
 62
     7
  6
CONTINUOUS
290
     0
370
    -3
390
258
  0
ENDTAB
  0
TABLE
  2
STYLE
  5
24C
330
0
100
AcDbSymbolTable
 70
     2
  0
STYLE
  5
25A
330
24C
100
AcDbSymbolTableRecord
100
AcDbTextStyleTableRecord
  2
Standard
 70
     0
 40
0.0
 41
1.0
 50
0.0
 71
     0
 42
0.2
  3
txt
  4

  0
STYLE
  5
26F
330
24C
100
AcDbSymbolTableRecord
100
AcDbTextStyleTableRecord
  2
MX_NOTE_STANDARD
 70
     0
 40
3.2
 41
1.0
 50
0.0
 71
     0
 42
3.2
  3
txt.shx
  4
extfont.shx
  0
ENDTAB
  0
TABLE
  2
VIEW
  5
24F
330
0
100
AcDbSymbolTable
 70
     0
  0
ENDTAB
  0
TABLE
  2
UCS
  5
250
330
0
100
AcDbSymbolTable
 70
     0
  0
ENDTAB
  0
TABLE
  2
APPID
  5
252
330
0
100
AcDbSymbolTable
 70
     1
  0
APPID
  5
25B
330
252
100
AcDbSymbolTableRecord
100
AcDbRegAppTableRecord
  2
ACAD
 70
     0
  0
ENDTAB
  0
TABLE
  2
DIMSTYLE
  5
253
330
0
100
AcDbSymbolTable
 70
     1
100
AcDbDimStyleTable
 71
     0
  0
DIMSTYLE
105
273
330
253
100
AcDbSymbolTableRecord
100
AcDbDimStyleTableRecord
  2
MXDIMSTYLE
 70
     0
 41
2.5
 42
1.5
 43
3.75
 44
1.5
 73
     0
 74
     0
 77
     1
 78
     8
140
3.2
141
2.5
143
0.0394
147
1.0
171
     4
172
     1
274
     4
279
     2
284
     8
285
     8
286
     8
340
26F
  0
ENDTAB
  0
TABLE
  2
BLOCK_RECORD
  5
24A
330
0
100
AcDbSymbolTable
 70
     7
  0
BLOCK_RECORD
  5
26B
330
24A
100
AcDbSymbolTableRecord
100
AcDbBlockTableRecord
  2
*Model_Space
340
26E
  0
BLOCK_RECORD
  5
267
330
24A
100
AcDbSymbolTableRecord
100
AcDbBlockTableRecord
  2
*Paper_Space
340
26A
  0
BLOCK_RECORD
  5
276
330
24A
100
AcDbSymbolTableRecord
100
AcDbBlockTableRecord
  2
*X0
340
0
102
{BLKREFS
331
14B
102
}
  0
BLOCK_RECORD
  5
277
330
24A
100
AcDbSymbolTableRecord
100
AcDbBlockTableRecord
  2
*X1
340
0
102
{BLKREFS
331
153
102
}
  0
BLOCK_RECORD
  5
278
330
24A
100
AcDbSymbolTableRecord
100
AcDbBlockTableRecord
  2
*X2
340
0
102
{BLKREFS
331
15B
102
}
  0
BLOCK_RECORD
  5
279
330
24A
100
AcDbSymbolTableRecord
100
AcDbBlockTableRecord
  2
*X3
340
0
102
{BLKREFS
331
162
102
}
  0
BLOCK_RECORD
  5
27A
330
24A
100
AcDbSymbolTableRecord
100
AcDbBlockTableRecord
  2
*X4
340
0
102
{BLKREFS
331
169
102
}
  0
BLOCK_RECORD
  5
27B
330
24A
100
AcDbSymbolTableRecord
100
AcDbBlockTableRecord
  2
*X5
340
0
102
{BLKREFS
331
171
102
}
  0
BLOCK_RECORD
  5
27C
330
24A
100
AcDbSymbolTableRecord
100
AcDbBlockTableRecord
  2
*X6
340
0
102
{BLKREFS
331
179
102
}
  0
ENDTAB
  0
ENDSEC
  0
SECTION
  2
BLOCKS
  0
BLOCK
  5
26C
330
26B
100
AcDbEntity
  8
0
100
AcDbBlockBegin
  2
*Model_Space
 70
     0
 10
0.0
 20
0.0
 30
0.0
  3
*Model_Space
  1

  0
ENDBLK
  5
26D
330
26B
100
AcDbEntity
  8
0
100
AcDbBlockEnd
  0
BLOCK
  5
268
330
267
100
AcDbEntity
 67
     1
  8
0
100
AcDbBlockBegin
  2
*Paper_Space
 70
     0
 10
0.0
 20
0.0
 30
0.0
  3
*Paper_Space
  1

  0
ENDBLK
  5
269
330
267
100
AcDbEntity
 67
     1
  8
0
100
AcDbBlockEnd
  0
BLOCK
  5
148
330
276
100
AcDbEntity
  8
0
  6
ByBlock
 62
     0
100
AcDbBlockBegin
  2
*X0
 70
     1
 10
0.0
 20
0.0
 30
0.0
  3
*X0
  1

  0
LINE
  5
149
330
276
100
AcDbEntity
  8
0
  6
ByBlock
 62
     0
100
AcDbLine
 10
-30.753649
 20
15.915398
 30
0.0
 11
-30.057987
 21
16.611061
 31
0.0
  0
ENDBLK
  5
14A
330
276
100
AcDbEntity
  8
0
  6
ByBlock
 62
     0
100
AcDbBlockEnd
  0
BLOCK
  5
14D
330
277
100
AcDbEntity
  8
0
  6
ByBlock
 62
     0
100
AcDbBlockBegin
  2
*X1
 70
     1
 10
0.0
 20
0.0
 30
0.0
  3
*X1
  1

  0
LINE
  5
14E
330
277
100
AcDbEntity
  8
0
  6
ByBlock
 62
     0
100
AcDbLine
 10
-30.800777
 20
16.0
 30
0.0
 11
-29.884156
 21
16.0
 31
0.0
  0
LINE
  5
14F
330
277
100
AcDbEntity
  8
0
  6
ByBlock
 62
     0
100
AcDbLine
 10
-30.742375
 20
16.5
 30
0.0
 11
-29.942558
 21
16.5
 31
0.0
  0
LINE
  5
150
330
277
100
AcDbEntity
  8
0
  6
ByBlock
 62
     0
100
AcDbLine
 10
-30.5
 20
15.725343
 30
0.0
 11
-30.5
 21
16.674412
 31
0.0
  0
LINE
  5
151
330
277
100
AcDbEntity
  8
0
  6
ByBlock
 62
     0
100
AcDbLine
 10
-30.0
 20
15.835575
 30
0.0
 11
-30.0
 21
16.564181
 31
0.0
  0
ENDBLK
  5
152
330
277
100
AcDbEntity
  8
0
  6
ByBlock
 62
     0
100
AcDbBlockEnd
  0
BLOCK
  5
155
330
278
100
AcDbEntity
  8
0
  6
ByBlock
 62
     0
100
AcDbBlockBegin
  2
*X2
 70
     1
 10
0.0
 20
0.0
 30
0.0
  3
*X2
  1

  0
LINE
  5
156
330
278
100
AcDbEntity
  8
0
  6
ByBlock
 62
     0
100
AcDbLine
 10
-36.362926
 20
27.0
 30
0.0
 11
-35.733255
 21
27.0
 31
0.0
  0
LINE
  5
157
330
278
100
AcDbEntity
  8
0
  6
ByBlock
 62
     0
100
AcDbLine
 10
-36.535484
 20
27.5
 30
0.0
 11
-35.560697
 21
27.5
 31
0.0
  0
LINE
  5
158
330
278
100
AcDbEntity
  8
0
  6
ByBlock
 62
     0
100
AcDbLine
 10
-36.5
 20
27.174473
 30
0.0
 11
-36.5
 21
27.602389
 31
0.0
  0
LINE
  5
159
330
278
100
AcDbEntity
  8
0
  6
ByBlock
 62
     0
100
AcDbLine
 10
-36.0
 20
26.890749
 30
0.0
 11
-36.0
 21
27.886113
 31
0.0
  0
ENDBLK
  5
15A
330
278
100
AcDbEntity
  8
0
  6
ByBlock
 62
     0
100
AcDbBlockEnd
  0
BLOCK
  5
15D
330
279
100
AcDbEntity
  8
0
  6
ByBlock
 62
     0
100
AcDbBlockBegin
  2
*X3
 70
     1
 10
0.0
 20
0.0
 30
0.0
  3
*X3
  1

  0
LINE
  5
15E
330
279
100
AcDbEntity
  8
0
  6
ByBlock
 62
     0
100
AcDbLine
 10
-48.079287
 20
31.5
 30
0.0
 11
-47.74690399999999
 21
31.5
 31
0.0
  0
LINE
  5
15F
330
279
100
AcDbEntity
  8
0
  6
ByBlock
 62
     0
100
AcDbLine
 10
-48.23064399999999
 20
32.0
 30
0.0
 11
-47.74690399999999
 21
32.0
 31
0.0
  0
LINE
  5
160
330
279
100
AcDbEntity
  8
0
  6
ByBlock
 62
     0
100
AcDbLine
 10
-48.0
 20
31.442315
 30
0.0
 11
-48.0
 21
32.304736
 31
0.0
  0
ENDBLK
  5
161
330
279
100
AcDbEntity
  8
0
  6
ByBlock
 62
     0
100
AcDbBlockEnd
  0
BLOCK
  5
164
330
27A
100
AcDbEntity
  8
0
  6
ByBlock
 62
     0
100
AcDbBlockBegin
  2
*X4
 70
     1
 10
0.0
 20
0.0
 30
0.0
  3
*X4
  1

  0
LINE
  5
165
330
27A
100
AcDbEntity
  8
0
  6
ByBlock
 62
     0
100
AcDbLine
 10
-47.74690399999999
 20
31.5
 30
0.0
 11
-47.41452
 21
31.5
 31
0.0
  0
LINE
  5
166
330
27A
100
AcDbEntity
  8
0
  6
ByBlock
 62
     0
100
AcDbLine
 10
-47.74690399999999
 20
32.0
 30
0.0
 11
-47.263164
 21
32.0
 31
0.0
  0
LINE
  5
167
330
27A
100
AcDbEntity
  8
0
  6
ByBlock
 62
     0
100
AcDbLine
 10
-47.5
 20
31.43874
 30
0.0
 11
-47.5
 21
32.308311
 31
0.0
  0
ENDBLK
  5
168
330
27A
100
AcDbEntity
  8
0
  6
ByBlock
 62
     0
100
AcDbBlockEnd
  0
BLOCK
  5
16B
330
27B
100
AcDbEntity
  8
0
  6
ByBlock
 62
     0
100
AcDbBlockBegin
  2
*X5
 70
     1
 10
0.0
 20
0.0
 30
0.0
  3
*X5
  1

  0
LINE
  5
16C
330
27B
100
AcDbEntity
  8
0
  6
ByBlock
 62
     0
100
AcDbLine
 10
-59.76055200000001
 20
27.0
 30
0.0
 11
-59.13088199999999
 21
27.0
 31
0.0
  0
LINE
  5
16D
330
27B
100
AcDbEntity
  8
0
  6
ByBlock
 62
     0
100
AcDbLine
 10
-59.93311
 20
27.5
 30
0.0
 11
-58.95832399999999
 21
27.5
 31
0.0
  0
LINE
  5
16E
330
27B
100
AcDbEntity
  8
0
  6
ByBlock
 62
     0
100
AcDbLine
 10
-59.5
 20
26.891387
 30
0.0
 11
-59.5
 21
27.885476
 31
0.0
  0
LINE
  5
16F
330
27B
100
AcDbEntity
  8
0
  6
ByBlock
 62
     0
100
AcDbLine
 10
-59.0
 20
27.161856
 30
0.0
 11
-59.0
 21
27.615006
 31
0.0
  0
ENDBLK
  5
170
330
27B
100
AcDbEntity
  8
0
  6
ByBlock
 62
     0
100
AcDbBlockEnd
  0
BLOCK
  5
173
330
27C
100
AcDbEntity
  8
0
  6
ByBlock
 62
     0
100
AcDbBlockBegin
  2
*X6
 70
     1
 10
0.0
 20
0.0
 30
0.0
  3
*X6
  1

  0
LINE
  5
174
330
27C
100
AcDbEntity
  8
0
  6
ByBlock
 62
     0
100
AcDbLine
 10
-65.609652
 20
16.0
 30
0.0
 11
-64.69303
 21
16.0
 31
0.0
  0
LINE
  5
175
330
27C
100
AcDbEntity
  8
0
  6
ByBlock
 62
     0
100
AcDbLine
 10
-65.551249
 20
16.5
 30
0.0
 11
-64.75143299999999
 21
16.5
 31
0.0
  0
LINE
  5
176
330
27C
100
AcDbEntity
  8
0
  6
ByBlock
 62
     0
100
AcDbLine
 10
-65.5
 20
15.841497
 30
0.0
 11
-65.5
 21
16.558259
 31
0.0
  0
LINE
  5
177
330
27C
100
AcDbEntity
  8
0
  6
ByBlock
 62
     0
100
AcDbLine
 10
-65.0
 20
15.723332
 30
0.0
 11
-65.0
 21
16.676424
 31
0.0
  0
ENDBLK
  5
178
330
27C
100
AcDbEntity
  8
0
  6
ByBlock
 62
     0
100
AcDbBlockEnd
  0
ENDSEC
  0
SECTION
  2
ENTITIES
  0
LINE
  5
1E
330
26B
100
AcDbEntity
  8
0
  6
Continuous
 62
     7
100
AcDbLine
 10
-27.746904
 20
31.373525
 30
0.0
 11
-27.746904
 21
-2.626475
 31
0.0
  0
LINE
  5
1F
330
26B
100
AcDbEntity
  8
0
  6
Continuous
 62
     7
100
AcDbLine
 10
-67.746904
 20
31.373525
 30
0.0
 11
-67.746904
 21
-2.626475
 31
0.0
  0
LINE
  5
20
330
26B
100
AcDbEntity
  8
0
  6
Continuous
 62
     7
100
AcDbLine
 10
-64.746904
 20
-5.626475
 30
0.0
 11
-30.746904
 21
-5.626475
 31
0.0
  0
LINE
  5
21
330
26B
100
AcDbEntity
  8
0
  6
Continuous
 62
     7
100
AcDbLine
 10
-64.746904
 20
34.373525
 30
0.0
 11
-30.746904
 21
34.373525
 31
0.0
  0
ARC
  5
22
330
26B
100
AcDbEntity
  8
0
  6
Continuous
 62
     7
100
AcDbCircle
 10
-64.750557
 20
31.377179
 30
0.0
 40
2.996349
100
AcDbArc
 50
89.93014499999999
 51
180.069855
  0
ARC
  5
23
330
26B
100
AcDbEntity
  8
0
  6
Continuous
 62
     7
100
AcDbCircle
 10
-64.743246
 20
-2.622816999999999
 30
0.0
 40
3.003659999999999
100
AcDbArc
 50
180.06977
 51
269.93023
  0
ARC
  5
24
330
26B
100
AcDbEntity
  8
0
  6
Continuous
 62
     7
100
AcDbCircle
 10
-30.750561
 20
-2.622816999999999
 30
0.0
 40
3.003659999999999
100
AcDbArc
 50
270.06977
 51
359.93023
  0
ARC
  5
25
330
26B
100
AcDbEntity
  8
0
  6
Continuous
 62
     7
100
AcDbCircle
 10
-30.743251
 20
31.377179
 30
0.0
 40
2.996349
100
AcDbArc
 50
359.930145
 51
90.069855
  0
LINE
  5
26
330
26B
100
AcDbEntity
  8
0
  6
Continuous
 62
     7
100
AcDbLine
 10
-43.246904
 20
-5.626475
 30
0.0
 11
-43.246904
 21
-6.126475
 31
0.0
  0
LINE
  5
27
330
26B
100
AcDbEntity
  8
0
  6
Continuous
 62
     7
100
AcDbLine
 10
-52.246904
 20
-5.626475
 30
0.0
 11
-52.246904
 21
-6.126475
 31
0.0
  0
LINE
  5
28
330
26B
100
AcDbEntity
  8
0
  6
Continuous
 62
     7
100
AcDbLine
 10
-52.246904
 20
-11.126475
 30
0.0
 11
-43.246904
 21
-11.126475
 31
0.0
  0
LINE
  5
29
330
26B
100
AcDbEntity
  8
0
  6
Continuous
 62
     7
100
AcDbLine
 10
-51.746904
 20
-5.626475
 30
0.0
 11
-51.746904
 21
-6.126475
 31
0.0
  0
LINE
  5
2A
330
26B
100
AcDbEntity
  8
0
  6
Continuous
 62
     7
100
AcDbLine
 10
-43.746904
 20
-5.626475
 30
0.0
 11
-43.746904
 21
-6.126475
 31
0.0
  0
LINE
  5
2B
330
26B
100
AcDbEntity
  8
0
  6
Continuous
 62
     7
100
AcDbLine
 10
-52.246904
 20
-10.126475
 30
0.0
 11
-43.246904
 21
-10.126475
 31
0.0
  0
LINE
  5
2C
330
26B
100
AcDbEntity
  8
0
  6
Continuous
 62
     7
100
AcDbLine
 10
-52.246904
 20
-6.126475
 30
0.0
 11
-43.246904
 21
-6.126475
 31
0.0
  0
LINE
  5
2D
330
26B
100
AcDbEntity
  8
0
  6
Continuous
 62
     7
100
AcDbLine
 10
-52.246904
 20
-10.126475
 30
0.0
 11
-52.246904
 21
-11.126475
 31
0.0
  0
LINE
  5
2E
330
26B
100
AcDbEntity
  8
0
  6
Continuous
 62
     7
100
AcDbLine
 10
-51.746904
 20
-10.126475
 30
0.0
 11
-51.746904
 21
-11.126475
 31
0.0
  0
LINE
  5
2F
330
26B
100
AcDbEntity
  8
0
  6
Continuous
 62
     7
100
AcDbLine
 10
-43.746904
 20
-10.126475
 30
0.0
 11
-43.746904
 21
-11.126475
 31
0.0
  0
LINE
  5
30
330
26B
100
AcDbEntity
  8
0
  6
Continuous
 62
     7
100
AcDbLine
 10
-43.246904
 20
-10.126475
 30
0.0
 11
-43.246904
 21
-11.126475
 31
0.0
  0
LINE
  5
31
330
26B
100
AcDbEntity
  8
0
  6
Continuous
 62
     7
100
AcDbLine
 10
-43.446904
 20
-6.126475
 30
0.0
 11
-43.446904
 21
-10.126475
 31
0.0
  0
LINE
  5
32
330
26B
100
AcDbEntity
  8
0
  6
Continuous
 62
     7
100
AcDbLine
 10
-52.046904
 20
-6.126475
 30
0.0
 11
-52.046904
 21
-10.126475
 31
0.0
  0
LINE
  5
33
330
26B
100
AcDbEntity
  8
0
  6
Continuous
 62
     7
100
AcDbLine
 10
32.253096
 20
33.373525
 30
0.0
 11
32.253096
 21
-4.626475
 31
0.0
  0
LINE
  5
34
330
26B
100
AcDbEntity
  8
0
  6
Continuous
 62
     7
100
AcDbLine
 10
33.253096
 20
-5.626475
 30
0.0
 11
54.253096
 21
-5.626475
 31
0.0
  0
LINE
  5
35
330
26B
100
AcDbEntity
  8
0
  6
Continuous
 62
     7
100
AcDbLine
 10
33.253096
 20
34.373525
 30
0.0
 11
54.253096
 21
34.373525
 31
0.0
  0
ARC
  5
36
330
26B
100
AcDbEntity
  8
0
  6
Continuous
 62
     7
100
AcDbCircle
 10
33.249447
 20
33.377174
 30
0.0
 40
0.996358
100
AcDbArc
 50
89.790179
 51
180.209821
  0
ARC
  5
37
330
26B
100
AcDbEntity
  8
0
  6
Continuous
 62
     7
100
AcDbCircle
 10
33.25675800000001
 20
-4.622812
 30
0.0
 40
1.003669
100
AcDbArc
 50
180.209055
 51
269.790945
  0
LINE
  5
38
330
26B
100
AcDbEntity
  8
0
  6
Continuous
 62
     7
100
AcDbLine
 10
54.253096
 20
34.373525
 30
0.0
 11
54.253096
 21
-5.626475
 31
0.0
  0
LINE
  5
39
330
26B
100
AcDbEntity
  8
0
  6
Continuous
 62
     7
100
AcDbLine
 10
54.253096
 20
34.373525
 30
0.0
 11
61.79309599999999
 21
33.713525
 31
0.0
  0
LINE
  5
3A
330
26B
100
AcDbEntity
  8
0
  6
Continuous
 62
     7
100
AcDbLine
 10
54.253096
 20
-5.626475
 30
0.0
 11
61.79309599999999
 21
-4.966474999999999
 31
0.0
  0
LINE
  5
3B
330
26B
100
AcDbEntity
  8
0
  6
Continuous
 62
     7
100
AcDbLine
 10
62.253096
 20
33.213525
 30
0.0
 11
62.253096
 21
-4.466474999999999
 31
0.0
  0
LINE
  5
3C
330
26B
100
AcDbEntity
  8
0
  6
Continuous
 62
     7
100
AcDbLine
 10
45.25309599999999
 20
-5.626475
 30
0.0
 11
45.25309599999999
 21
-6.126475
 31
0.0
  0
LINE
  5
3D
330
26B
100
AcDbEntity
  8
0
  6
Continuous
 62
     7
100
AcDbLine
 10
50.753096
 20
24.773525
 30
0.0
 11
50.753096
 21
19.073525
 31
0.0
  0
LINE
  5
3E
330
26B
100
AcDbEntity
  8
0
  6
Continuous
 62
     7
100
AcDbLine
 10
48.153096
 20
19.073525
 30
0.0
 11
50.753096
 21
19.073525
 31
0.0
  0
LINE
  5
3F
330
26B
100
AcDbEntity
  8
0
  6
Continuous
 62
     7
100
AcDbLine
 10
48.153096
 20
24.773525
 30
0.0
 11
50.753096
 21
24.773525
 31
0.0
  0
LINE
  5
40
330
26B
100
AcDbEntity
  8
0
  6
Continuous
 62
     7
100
AcDbLine
 10
48.153096
 20
24.773525
 30
0.0
 11
48.153096
 21
19.073525
 31
0.0
  0
LINE
  5
41
330
26B
100
AcDbEntity
  8
0
  6
Continuous
 62
     7
100
AcDbLine
 10
59.753096
 20
20.773525
 30
0.0
 11
62.253096
 21
20.773525
 31
0.0
  0
LINE
  5
42
330
26B
100
AcDbEntity
  8
0
  6
Continuous
 62
     7
100
AcDbLine
 10
59.753096
 20
29.773525
 30
0.0
 11
62.253096
 21
29.773525
 31
0.0
  0
LINE
  5
43
330
26B
100
AcDbEntity
  8
0
  6
Continuous
 62
     7
100
AcDbLine
 10
59.753096
 20
29.773525
 30
0.0
 11
59.753096
 21
20.773525
 31
0.0
  0
LINE
  5
44
330
26B
100
AcDbEntity
  8
0
  6
Continuous
 62
     7
100
AcDbLine
 10
56.253096
 20
12.773525
 30
0.0
 11
62.253096
 21
12.773525
 31
0.0
  0
LINE
  5
45
330
26B
100
AcDbEntity
  8
0
  6
Continuous
 62
     7
100
AcDbLine
 10
56.253096
 20
15.973525
 30
0.0
 11
62.253096
 21
15.973525
 31
0.0
  0
LINE
  5
46
330
26B
100
AcDbEntity
  8
0
  6
Continuous
 62
     7
100
AcDbLine
 10
56.253096
 20
15.973525
 30
0.0
 11
56.253096
 21
12.773525
 31
0.0
  0
LINE
  5
47
330
26B
100
AcDbEntity
  8
0
  6
Continuous
 62
     7
100
AcDbLine
 10
57.253096
 20
15.973525
 30
0.0
 11
57.253096
 21
12.773525
 31
0.0
  0
LINE
  5
48
330
26B
100
AcDbEntity
  8
0
  6
Continuous
 62
     7
100
AcDbLine
 10
50.753096
 20
3.973525
 30
0.0
 11
50.753096
 21
9.673524999999999
 31
0.0
  0
LINE
  5
49
330
26B
100
AcDbEntity
  8
0
  6
Continuous
 62
     7
100
AcDbLine
 10
48.153096
 20
9.673524999999999
 30
0.0
 11
50.753096
 21
9.673524999999999
 31
0.0
  0
LINE
  5
4A
330
26B
100
AcDbEntity
  8
0
  6
Continuous
 62
     7
100
AcDbLine
 10
48.153096
 20
3.973525
 30
0.0
 11
50.753096
 21
3.973525
 31
0.0
  0
LINE
  5
4B
330
26B
100
AcDbEntity
  8
0
  6
Continuous
 62
     7
100
AcDbLine
 10
48.153096
 20
3.973525
 30
0.0
 11
48.153096
 21
9.673524999999999
 31
0.0
  0
LINE
  5
4C
330
26B
100
AcDbEntity
  8
0
  6
Continuous
 62
     7
100
AcDbLine
 10
59.753096
 20
7.973525
 30
0.0
 11
62.253096
 21
7.973525
 31
0.0
  0
LINE
  5
4D
330
26B
100
AcDbEntity
  8
0
  6
Continuous
 62
     7
100
AcDbLine
 10
59.753096
 20
-1.026475
 30
0.0
 11
62.253096
 21
-1.026475
 31
0.0
  0
LINE
  5
4E
330
26B
100
AcDbEntity
  8
0
  6
Continuous
 62
     7
100
AcDbLine
 10
59.753096
 20
-1.026475
 30
0.0
 11
59.753096
 21
7.973525
 31
0.0
  0
LINE
  5
4F
330
26B
100
AcDbEntity
  8
0
  6
Continuous
 62
     7
100
AcDbLine
 10
62.253096
 20
25.873525
 30
0.0
 11
65.25309599999999
 21
24.143525
 31
0.0
  0
LINE
  5
50
330
26B
100
AcDbEntity
  8
0
  6
Continuous
 62
     7
100
AcDbLine
 10
65.25309599999999
 20
24.143525
 30
0.0
 11
65.25309599999999
 21
4.603525
 31
0.0
  0
LINE
  5
51
330
26B
100
AcDbEntity
  8
0
  6
Continuous
 62
     7
100
AcDbLine
 10
62.253096
 20
2.873524999999999
 30
0.0
 11
65.25309599999999
 21
4.603525
 31
0.0
  0
LINE
  5
52
330
26B
100
AcDbEntity
  8
0
  6
Continuous
 62
     7
100
AcDbLine
 10
75.25309599999999
 20
21.373525
 30
0.0
 11
75.25309599999999
 21
7.373524999999999
 31
0.0
  0
LINE
  5
53
330
26B
100
AcDbEntity
  8
0
  6
Continuous
 62
     7
100
AcDbLine
 10
65.25309599999999
 20
22.463525
 30
0.0
 11
74.62309599999999
 21
22.463525
 31
0.0
  0
LINE
  5
54
330
26B
100
AcDbEntity
  8
0
  6
Continuous
 62
     7
100
AcDbLine
 10
65.25309599999999
 20
18.413525
 30
0.0
 11
75.25309599999999
 21
18.413525
 31
0.0
  0
LINE
  5
55
330
26B
100
AcDbEntity
  8
0
  6
Continuous
 62
     7
100
AcDbLine
 10
65.25309599999999
 20
10.333525
 30
0.0
 11
75.25309599999999
 21
10.333525
 31
0.0
  0
LINE
  5
56
330
26B
100
AcDbEntity
  8
0
  6
Continuous
 62
     7
100
AcDbLine
 10
65.25309599999999
 20
6.293524999999999
 30
0.0
 11
74.62309599999999
 21
6.293524999999999
 31
0.0
  0
LINE
  5
57
330
26B
100
AcDbEntity
  8
0
  6
Continuous
 62
     7
100
AcDbLine
 10
41.653096
 20
-5.626475
 30
0.0
 11
41.653096
 21
-6.126475
 31
0.0
  0
LINE
  5
58
330
26B
100
AcDbEntity
  8
0
  6
Continuous
 62
     7
100
AcDbLine
 10
48.853096
 20
-5.626475
 30
0.0
 11
48.853096
 21
-11.126475
 31
0.0
  0
LINE
  5
59
330
26B
100
AcDbEntity
  8
0
  6
Continuous
 62
     7
100
AcDbLine
 10
41.353096
 20
-6.126475
 30
0.0
 11
48.853096
 21
-6.126475
 31
0.0
  0
LINE
  5
5A
330
26B
100
AcDbEntity
  8
0
  6
Continuous
 62
     7
100
AcDbLine
 10
41.353096
 20
-10.126475
 30
0.0
 11
48.853096
 21
-10.126475
 31
0.0
  0
LINE
  5
5B
330
26B
100
AcDbEntity
  8
0
  6
Continuous
 62
     7
100
AcDbLine
 10
41.653096
 20
-11.126475
 30
0.0
 11
48.853096
 21
-11.126475
 31
0.0
  0
LINE
  5
5C
330
26B
100
AcDbEntity
  8
0
  6
Continuous
 62
     7
100
AcDbLine
 10
41.353096
 20
-6.126475
 30
0.0
 11
41.353096
 21
-10.126475
 31
0.0
  0
LINE
  5
5D
330
26B
100
AcDbEntity
  8
0
  6
Continuous
 62
     7
100
AcDbLine
 10
41.953096
 20
-5.626475
 30
0.0
 11
41.953096
 21
-6.126475
 31
0.0
  0
LINE
  5
5E
330
26B
100
AcDbEntity
  8
0
  6
Continuous
 62
     7
100
AcDbLine
 10
41.953096
 20
-10.126475
 30
0.0
 11
41.953096
 21
-11.126475
 31
0.0
  0
LINE
  5
5F
330
26B
100
AcDbEntity
  8
0
  6
Continuous
 62
     7
100
AcDbLine
 10
41.653096
 20
-10.126475
 30
0.0
 11
41.653096
 21
-11.126475
 31
0.0
  0
LINE
  5
60
330
26B
100
AcDbEntity
  8
0
  6
Continuous
 62
     7
100
AcDbLine
 10
47.35309599999999
 20
-5.626475
 30
0.0
 11
47.35309599999999
 21
-6.126475
 31
0.0
  0
LINE
  5
62
330
26B
100
AcDbEntity
  8
0
  6
CENTER
 62
     2
100
AcDbLine
 10
45.25309599999999
 20
-2.626475
 30
0.0
 11
45.25309599999999
 21
-24.626475
 31
0.0
  0
LINE
  5
63
330
26B
100
AcDbEntity
  8
0
  6
Continuous
 62
     7
100
AcDbLine
 10
45.25309599999999
 20
-10.126475
 30
0.0
 11
45.25309599999999
 21
-11.126475
 31
0.0
  0
LINE
  5
64
330
26B
100
AcDbEntity
  8
0
  6
Continuous
 62
     7
100
AcDbLine
 10
47.35309599999999
 20
-10.126475
 30
0.0
 11
47.35309599999999
 21
-11.126475
 31
0.0
  0
LINE
  5
65
330
26B
100
AcDbEntity
  8
0
  6
Continuous
 62
     7
100
AcDbLine
 10
47.853096
 20
-6.626475
 30
0.0
 11
47.853096
 21
-9.626474999999999
 31
0.0
  0
ARC
  5
66
330
26B
100
AcDbEntity
  8
0
  6
Continuous
 62
     7
100
AcDbCircle
 10
47.356734
 20
-6.622836999999999
 30
0.0
 40
0.4963760000000001
100
AcDbArc
 50
359.580135
 51
90.419865
  0
ARC
  5
67
330
26B
100
AcDbEntity
  8
0
  6
Continuous
 62
     7
100
AcDbCircle
 10
47.349423
 20
-9.622800999999999
 30
0.0
 40
0.5036870000000001
100
AcDbArc
 50
270.417852
 51
359.582148
  0
LINE
  5
68
330
26B
100
AcDbEntity
  8
0
  6
Continuous
 62
     7
100
AcDbLine
 10
46.853096
 20
-7.126475
 30
0.0
 11
46.853096
 21
-9.126474999999999
 31
0.0
  0
LINE
  5
69
330
26B
100
AcDbEntity
  8
0
  6
Continuous
 62
     7
100
AcDbLine
 10
45.353096
 20
-7.126475
 30
0.0
 11
45.353096
 21
-9.126474999999999
 31
0.0
  0
LINE
  5
6A
330
26B
100
AcDbEntity
  8
0
  6
Continuous
 62
     7
100
AcDbLine
 10
45.353096
 20
-9.126474999999999
 30
0.0
 11
46.853096
 21
-9.126474999999999
 31
0.0
  0
LINE
  5
6B
330
26B
100
AcDbEntity
  8
0
  6
Continuous
 62
     7
100
AcDbLine
 10
45.353096
 20
-7.126475
 30
0.0
 11
46.853096
 21
-7.126475
 31
0.0
  0
LINE
  5
6C
330
26B
100
AcDbEntity
  8
0
  6
Continuous
 62
     2
100
AcDbLine
 10
86.083096
 20
19.973525
 30
0.0
 11
77.253096
 21
20.203525
 31
0.0
  0
LINE
  5
6D
330
26B
100
AcDbEntity
  8
0
  6
Continuous
 62
     7
100
AcDbLine
 10
85.25309599999999
 20
20.843525
 30
0.0
 11
75.25309599999999
 21
21.113525
 31
0.0
  0
LINE
  5
6E
330
26B
100
AcDbEntity
  8
0
  6
Continuous
 62
     2
100
AcDbLine
 10
86.10309599999999
 20
8.783524999999999
 30
0.0
 11
77.253096
 21
8.543525
 31
0.0
  0
LINE
  5
6F
330
26B
100
AcDbEntity
  8
0
  6
Continuous
 62
     7
100
AcDbLine
 10
85.22309599999999
 20
7.903525
 30
0.0
 11
75.25309599999999
 21
7.633524999999999
 31
0.0
  0
LINE
  5
70
330
26B
100
AcDbEntity
  8
0
  6
Continuous
 62
     7
100
AcDbLine
 10
77.253096
 20
21.063525
 30
0.0
 11
77.253096
 21
7.693525
 31
0.0
  0
LINE
  5
71
330
26B
100
AcDbEntity
  8
0
  6
Continuous
 62
     2
100
AcDbLine
 10
77.253096
 20
20.203525
 30
0.0
 11
75.693096
 21
21.103525
 31
0.0
  0
LINE
  5
72
330
26B
100
AcDbEntity
  8
0
  6
Continuous
 62
     2
100
AcDbLine
 10
77.253096
 20
8.543525
 30
0.0
 11
75.693096
 21
7.653525
 31
0.0
  0
LINE
  5
73
330
26B
100
AcDbEntity
  8
0
  6
Continuous
 62
     7
100
AcDbLine
 10
74.62309599999999
 20
22.463525
 30
0.0
 11
75.25309599999999
 21
21.373525
 31
0.0
  0
LINE
  5
74
330
26B
100
AcDbEntity
  8
0
  6
Continuous
 62
     7
100
AcDbLine
 10
86.25309599999999
 20
19.793525
 30
0.0
 11
86.25309599999999
 21
8.933524999999999
 31
0.0
  0
LINE
  5
75
330
26B
100
AcDbEntity
  8
0
  6
Continuous
 62
     7
100
AcDbLine
 10
74.62309599999999
 20
6.293524999999999
 30
0.0
 11
75.25309599999999
 21
7.373524999999999
 31
0.0
  0
LINE
  5
76
330
26B
100
AcDbEntity
  8
0
  6
Continuous
 62
     7
100
AcDbLine
 10
85.25309599999999
 20
20.843525
 30
0.0
 11
86.25309599999999
 21
19.793525
 31
0.0
  0
LINE
  5
77
330
26B
100
AcDbEntity
  8
0
  6
Continuous
 62
     7
100
AcDbLine
 10
86.25309599999999
 20
8.933524999999999
 30
0.0
 11
85.22309599999999
 21
7.903525
 31
0.0
  0
LINE
  5
78
330
26B
100
AcDbEntity
  8
0
  6
Continuous
 62
     7
100
AcDbLine
 10
85.25309599999999
 20
20.843525
 30
0.0
 11
85.25309599999999
 21
7.903525
 31
0.0
  0
ARC
  5
79
330
26B
100
AcDbEntity
  8
0
  6
Continuous
 62
     7
100
AcDbCircle
 10
61.756888
 20
33.218614
 30
0.0
 40
0.4962340000000001
100
AcDbArc
 50
359.412434
 51
85.815677
  0
ARC
  5
7A
330
26B
100
AcDbEntity
  8
0
  6
Continuous
 62
     7
100
AcDbCircle
 10
61.74959799999999
 20
-4.464856
 30
0.0
 40
0.503501
100
AcDbArc
 50
274.956036
 51
359.815852
  0
CIRCLE
  5
7B
330
26B
100
AcDbEntity
  8
0
  6
Continuous
 62
     7
100
AcDbCircle
 10
-33.258016
 20
10.498558
 30
0.0
 40
1.0
  0
LINE
  5
7C
330
26B
100
AcDbEntity
  8
0
  6
Continuous
 62
     7
100
AcDbLine
 10
-47.74690399999999
 20
26.373525
 30
0.0
 11
-46.94690399999999
 21
27.383525
 31
0.0
  0
LINE
  5
7D
330
26B
100
AcDbEntity
  8
0
  6
Continuous
 62
     7
100
AcDbLine
 10
-48.54690399999999
 20
27.383525
 30
0.0
 11
-47.74690399999999
 21
26.373525
 31
0.0
  0
LINE
  5
7E
330
26B
100
AcDbEntity
  8
0
  6
Continuous
 62
     7
100
AcDbLine
 10
-46.94690399999999
 20
29.873525
 30
0.0
 11
-46.94690399999999
 21
27.383525
 31
0.0
  0
LINE
  5
7F
330
26B
100
AcDbEntity
  8
0
  6
Continuous
 62
     7
100
AcDbLine
 10
-48.54690399999999
 20
29.873525
 30
0.0
 11
-48.54690399999999
 21
27.383525
 31
0.0
  0
LINE
  5
80
330
26B
100
AcDbEntity
  8
0
  6
Continuous
 62
     7
100
AcDbLine
 10
-48.046904
 20
30.373525
 30
0.0
 11
-47.44690399999999
 21
30.373525
 31
0.0
  0
ARC
  5
81
330
26B
100
AcDbEntity
  8
0
  6
Continuous
 62
     7
100
AcDbCircle
 10
-47.44326
 20
29.87717
 30
0.0
 40
0.496369
100
AcDbArc
 50
359.579341
 51
90.420659
  0
ARC
  5
82
330
26B
100
AcDbEntity
  8
0
  6
Continuous
 62
     7
100
AcDbCircle
 10
-48.050528
 20
29.87715
 30
0.0
 40
0.4963890000000001
100
AcDbArc
 50
89.58161700000001
 51
180.418383
  0
LINE
  5
83
330
26B
100
AcDbEntity
  8
0
  6
Continuous
 62
     7
100
AcDbLine
 10
-49.926904
 20
26.173525
 30
0.0
 11
-49.326904
 21
27.313525
 31
0.0
  0
LINE
  5
84
330
26B
100
AcDbEntity
  8
0
  6
Continuous
 62
     7
100
AcDbLine
 10
-50.896904
 20
27.013525
 30
0.0
 11
-49.926904
 21
26.173525
 31
0.0
  0
LINE
  5
85
330
26B
100
AcDbEntity
  8
0
  6
Continuous
 62
     7
100
AcDbLine
 10
-49.776904
 20
29.763525
 30
0.0
 11
-49.326904
 21
27.313525
 31
0.0
  0
LINE
  5
86
330
26B
100
AcDbEntity
  8
0
  6
Continuous
 62
     7
100
AcDbLine
 10
-51.356904
 20
29.473525
 30
0.0
 11
-50.896904
 21
27.013525
 31
0.0
  0
LINE
  5
87
330
26B
100
AcDbEntity
  8
0
  6
Continuous
 62
     7
100
AcDbLine
 10
-50.95690399999999
 20
30.053525
 30
0.0
 11
-50.366904
 21
30.163525
 31
0.0
  0
ARC
  5
88
330
26B
100
AcDbEntity
  8
0
  6
Continuous
 62
     7
100
AcDbCircle
 10
-50.26995
 20
29.67140800000001
 30
0.0
 40
0.5015770000000001
100
AcDbArc
 50
10.582787
 51
101.145333
  0
ARC
  5
89
330
26B
100
AcDbEntity
  8
0
  6
Continuous
 62
     7
100
AcDbCircle
 10
-50.868074
 20
29.564333
 30
0.0
 40
0.497192
100
AcDbArc
 50
100.291855
 51
190.523568
  0
LINE
  5
8A
330
26B
100
AcDbEntity
  8
0
  6
Continuous
 62
     7
100
AcDbLine
 10
-52.046904
 20
25.583525
 30
0.0
 11
-51.65690399999999
 21
26.803525
 31
0.0
  0
LINE
  5
8B
330
26B
100
AcDbEntity
  8
0
  6
Continuous
 62
     7
100
AcDbLine
 10
-53.146904
 20
26.233525
 30
0.0
 11
-52.046904
 21
25.583525
 31
0.0
  0
LINE
  5
8C
330
26B
100
AcDbEntity
  8
0
  6
Continuous
 62
     7
100
AcDbLine
 10
-52.54690400000001
 20
29.133525
 30
0.0
 11
-51.65690399999999
 21
26.803525
 31
0.0
  0
LINE
  5
8D
330
26B
100
AcDbEntity
  8
0
  6
Continuous
 62
     7
100
AcDbLine
 10
-54.046904
 20
28.563525
 30
0.0
 11
-53.146904
 21
26.233525
 31
0.0
  0
LINE
  5
8E
330
26B
100
AcDbEntity
  8
0
  6
Continuous
 62
     7
100
AcDbLine
 10
-53.756904
 20
29.203525
 30
0.0
 11
-53.196904
 21
29.423525
 31
0.0
  0
ARC
  5
8F
330
26B
100
AcDbEntity
  8
0
  6
Continuous
 62
     7
100
AcDbCircle
 10
-53.015708
 20
28.956205
 30
0.0
 40
0.501219
100
AcDbArc
 50
20.71861
 51
111.192944
  0
ARC
  5
90
330
26B
100
AcDbEntity
  8
0
  6
Continuous
 62
     7
100
AcDbCircle
 10
-53.583678
 20
28.739329
 30
0.0
 40
0.495465
100
AcDbArc
 50
110.464256
 51
200.782807
  0
LINE
  5
91
330
26B
100
AcDbEntity
  8
0
  6
Continuous
 62
     7
100
AcDbLine
 10
-54.016904
 20
24.603525
 30
0.0
 11
-53.85690400000001
 21
25.883525
 31
0.0
  0
LINE
  5
92
330
26B
100
AcDbEntity
  8
0
  6
Continuous
 62
     7
100
AcDbLine
 10
-55.216904
 20
25.043525
 30
0.0
 11
-54.016904
 21
24.603525
 31
0.0
  0
LINE
  5
93
330
26B
100
AcDbEntity
  8
0
  6
Continuous
 62
     7
100
AcDbLine
 10
-55.156904
 20
28.013525
 30
0.0
 11
-53.85690400000001
 21
25.883525
 31
0.0
  0
LINE
  5
94
330
26B
100
AcDbEntity
  8
0
  6
Continuous
 62
     7
100
AcDbLine
 10
-56.526904
 20
27.173525
 30
0.0
 11
-55.216904
 21
25.043525
 31
0.0
  0
LINE
  5
95
330
26B
100
AcDbEntity
  8
0
  6
Continuous
 62
     7
100
AcDbLine
 10
-56.35690400000001
 20
27.863525
 30
0.0
 11
-55.846904
 21
28.173525
 31
0.0
  0
ARC
  5
96
330
26B
100
AcDbEntity
  8
0
  6
Continuous
 62
     7
100
AcDbCircle
 10
-55.581228
 20
27.75144
 30
0.0
 40
0.4987390000000001
100
AcDbArc
 50
31.701749
 51
122.187757
  0
ARC
  5
97
330
26B
100
AcDbEntity
  8
0
  6
Continuous
 62
     7
100
AcDbCircle
 10
-56.10263599999999
 20
27.434938
 30
0.0
 40
0.498337
100
AcDbArc
 50
120.679324
 51
211.639285
  0
LINE
  5
98
330
26B
100
AcDbEntity
  8
0
  6
Continuous
 62
     7
100
AcDbLine
 10
-55.776904
 20
23.293525
 30
0.0
 11
-55.846904
 21
24.573525
 31
0.0
  0
LINE
  5
99
330
26B
100
AcDbEntity
  8
0
  6
Continuous
 62
     7
100
AcDbLine
 10
-57.03690400000001
 20
23.503525
 30
0.0
 11
-55.776904
 21
23.293525
 31
0.0
  0
LINE
  5
9A
330
26B
100
AcDbEntity
  8
0
  6
Continuous
 62
     7
100
AcDbLine
 10
-57.51690400000001
 20
26.433525
 30
0.0
 11
-55.846904
 21
24.573525
 31
0.0
  0
LINE
  5
9B
330
26B
100
AcDbEntity
  8
0
  6
Continuous
 62
     7
100
AcDbLine
 10
-58.706904
 20
25.363525
 30
0.0
 11
-57.03690400000001
 21
23.503525
 31
0.0
  0
LINE
  5
9C
330
26B
100
AcDbEntity
  8
0
  6
Continuous
 62
     7
100
AcDbLine
 10
-58.666904
 20
26.063525
 30
0.0
 11
-58.226904
 21
26.463525
 31
0.0
  0
ARC
  5
9D
330
26B
100
AcDbEntity
  8
0
  6
Continuous
 62
     7
100
AcDbCircle
 10
-57.886635
 20
26.099876
 30
0.0
 40
0.49802
100
AcDbArc
 50
42.063408
 51
133.097573
  0
ARC
  5
9E
330
26B
100
AcDbEntity
  8
0
  6
Continuous
 62
     7
100
AcDbCircle
 10
-58.341625
 20
25.693795
 30
0.0
 40
0.49245
100
AcDbArc
 50
131.340472
 51
222.118552
  0
LINE
  5
9F
330
26B
100
AcDbEntity
  8
0
  6
Continuous
 62
     7
100
AcDbLine
 10
-57.266904
 20
21.683525
 30
0.0
 11
-57.57690400000001
 21
22.923525
 31
0.0
  0
LINE
  5
A0
330
26B
100
AcDbEntity
  8
0
  6
Continuous
 62
     7
100
AcDbLine
 10
-58.546904
 20
21.663525
 30
0.0
 11
-57.266904
 21
21.683525
 31
0.0
  0
LINE
  5
A1
330
26B
100
AcDbEntity
  8
0
  6
Continuous
 62
     7
100
AcDbLine
 10
-59.556904
 20
24.443525
 30
0.0
 11
-57.57690400000001
 21
22.923525
 31
0.0
  0
LINE
  5
A2
330
26B
100
AcDbEntity
  8
0
  6
Continuous
 62
     7
100
AcDbLine
 10
-60.526904
 20
23.173525
 30
0.0
 11
-58.546904
 21
21.663525
 31
0.0
  0
LINE
  5
A3
330
26B
100
AcDbEntity
  8
0
  6
Continuous
 62
     7
100
AcDbLine
 10
-60.616904
 20
23.873525
 30
0.0
 11
-60.25690400000001
 21
24.353525
 31
0.0
  0
ARC
  5
A4
330
26B
100
AcDbEntity
  8
0
  6
Continuous
 62
     7
100
AcDbCircle
 10
-59.862665
 20
24.054446
 30
0.0
 40
0.494846
100
AcDbArc
 50
51.83764899999999
 51
142.815164
  0
ARC
  5
A5
330
26B
100
AcDbEntity
  8
0
  6
Continuous
 62
     7
100
AcDbCircle
 10
-60.225677
 20
23.572413
 30
0.0
 40
0.4998490000000001
100
AcDbArc
 50
141.507546
 51
232.941085
  0
LINE
  5
A6
330
26B
100
AcDbEntity
  8
0
  6
Continuous
 62
     7
100
AcDbLine
 10
-58.436904
 20
19.823525
 30
0.0
 11
-58.966904
 21
20.993525
 31
0.0
  0
LINE
  5
A7
330
26B
100
AcDbEntity
  8
0
  6
Continuous
 62
     7
100
AcDbLine
 10
-59.69690400000001
 20
19.563525
 30
0.0
 11
-58.436904
 21
19.823525
 31
0.0
  0
LINE
  5
A8
330
26B
100
AcDbEntity
  8
0
  6
Continuous
 62
     7
100
AcDbLine
 10
-61.18690400000001
 20
22.123525
 30
0.0
 11
-58.966904
 21
20.993525
 31
0.0
  0
LINE
  5
A9
330
26B
100
AcDbEntity
  8
0
  6
Continuous
 62
     7
100
AcDbLine
 10
-61.916904
 20
20.703525
 30
0.0
 11
-59.69690400000001
 21
19.563525
 31
0.0
  0
LINE
  5
AA
330
26B
100
AcDbEntity
  8
0
  6
Continuous
 62
     7
100
AcDbLine
 10
-62.136904
 20
21.373525
 30
0.0
 11
-61.866904
 21
21.903525
 31
0.0
  0
ARC
  5
AB
330
26B
100
AcDbEntity
  8
0
  6
Continuous
 62
     7
100
AcDbCircle
 10
-61.420675
 20
21.685183
 30
0.0
 40
0.496783
100
AcDbArc
 50
61.92866899999999
 51
153.92717
  0
ARC
  5
AC
330
26B
100
AcDbEntity
  8
0
  6
Continuous
 62
     7
100
AcDbCircle
 10
-61.692954
 20
21.14818
 30
0.0
 40
0.4978670000000001
100
AcDbArc
 50
153.088038
 51
243.267999
  0
LINE
  5
AD
330
26B
100
AcDbEntity
  8
0
  6
Continuous
 62
     7
100
AcDbLine
 10
-59.246904
 20
17.783525
 30
0.0
 11
-59.986904
 21
18.833525
 31
0.0
  0
LINE
  5
AE
330
26B
100
AcDbEntity
  8
0
  6
Continuous
 62
     7
100
AcDbLine
 10
-60.436904
 20
17.303525
 30
0.0
 11
-59.246904
 21
17.783525
 31
0.0
  0
LINE
  5
AF
330
26B
100
AcDbEntity
  8
0
  6
Continuous
 62
     7
100
AcDbLine
 10
-62.376904
 20
19.543525
 30
0.0
 11
-59.986904
 21
18.833525
 31
0.0
  0
LINE
  5
B0
330
26B
100
AcDbEntity
  8
0
  6
Continuous
 62
     7
100
AcDbLine
 10
-62.826904
 20
18.013525
 30
0.0
 11
-60.436904
 21
17.303525
 31
0.0
  0
LINE
  5
B1
330
26B
100
AcDbEntity
  8
0
  6
Continuous
 62
     7
100
AcDbLine
 10
-63.166904
 20
18.633525
 30
0.0
 11
-62.996904
 21
19.203525
 31
0.0
  0
ARC
  5
B2
330
26B
100
AcDbEntity
  8
0
  6
Continuous
 62
     7
100
AcDbCircle
 10
-62.52143499999999
 20
19.071789
 30
0.0
 40
0.4933810000000001
100
AcDbArc
 50
72.965875
 51
164.513715
  0
ARC
  5
B3
330
26B
100
AcDbEntity
  8
0
  6
Continuous
 62
     7
100
AcDbCircle
 10
-62.69138100000001
 20
18.49107
 30
0.0
 40
0.4964020000000001
100
AcDbArc
 50
163.32303
 51
254.156561
  0
LINE
  5
B4
330
26B
100
AcDbEntity
  8
0
  6
Continuous
 62
     7
100
AcDbLine
 10
-59.676904
 20
15.633525
 30
0.0
 11
-60.596904
 21
16.533525
 31
0.0
  0
LINE
  5
B5
330
26B
100
AcDbEntity
  8
0
  6
Continuous
 62
     7
100
AcDbLine
 10
-60.756904
 20
14.943525
 30
0.0
 11
-59.676904
 21
15.633525
 31
0.0
  0
LINE
  5
B6
330
26B
100
AcDbEntity
  8
0
  6
Continuous
 62
     7
100
AcDbLine
 10
-63.07690400000001
 20
16.793525
 30
0.0
 11
-60.596904
 21
16.533525
 31
0.0
  0
LINE
  5
B7
330
26B
100
AcDbEntity
  8
0
  6
Continuous
 62
     7
100
AcDbLine
 10
-63.236904
 20
15.203525
 30
0.0
 11
-60.756904
 21
14.943525
 31
0.0
  0
LINE
  5
B8
330
26B
100
AcDbEntity
  8
0
  6
Continuous
 62
     7
100
AcDbLine
 10
-63.68690400000001
 20
15.753525
 30
0.0
 11
-63.626904
 21
16.343525
 31
0.0
  0
ARC
  5
B9
330
26B
100
AcDbEntity
  8
0
  6
Continuous
 62
     7
100
AcDbCircle
 10
-63.131266
 20
16.298857
 30
0.0
 40
0.497647
100
AcDbArc
 50
83.728618
 51
174.850196
  0
ARC
  5
BA
330
26B
100
AcDbEntity
  8
0
  6
Continuous
 62
     7
100
AcDbCircle
 10
-63.19116199999999
 20
15.700041
 30
0.0
 40
0.498619
100
AcDbArc
 50
173.842364
 51
264.73645
  0
LINE
  5
BB
330
26B
100
AcDbEntity
  8
0
  6
Continuous
 62
     7
100
AcDbLine
 10
-59.706904
 20
13.433525
 30
0.0
 11
-60.766904
 21
14.153525
 31
0.0
  0
LINE
  5
BC
330
26B
100
AcDbEntity
  8
0
  6
Continuous
 62
     7
100
AcDbLine
 10
-60.646904
 20
12.553525
 30
0.0
 11
-59.706904
 21
13.433525
 31
0.0
  0
LINE
  5
BD
330
26B
100
AcDbEntity
  8
0
  6
Continuous
 62
     7
100
AcDbLine
 10
-63.256904
 20
13.953525
 30
0.0
 11
-60.766904
 21
14.153525
 31
0.0
  0
LINE
  5
BE
330
26B
100
AcDbEntity
  8
0
  6
Continuous
 62
     7
100
AcDbLine
 10
-63.12690400000001
 20
12.363525
 30
0.0
 11
-60.646904
 21
12.553525
 31
0.0
  0
LINE
  5
BF
330
26B
100
AcDbEntity
  8
0
  6
Continuous
 62
     7
100
AcDbLine
 10
-63.666904
 20
12.823525
 30
0.0
 11
-63.71690400000001
 21
13.423525
 31
0.0
  0
ARC
  5
C0
330
26B
100
AcDbEntity
  8
0
  6
Continuous
 62
     7
100
AcDbCircle
 10
-63.22493000000001
 20
13.461152
 30
0.0
 40
0.493411
100
AcDbArc
 50
93.715509
 51
184.373462
  0
ARC
  5
C1
330
26B
100
AcDbEntity
  8
0
  6
Continuous
 62
     7
100
AcDbCircle
 10
-63.169462
 20
12.860522
 30
0.0
 40
0.498816
100
AcDbArc
 50
184.253482
 51
274.894361
  0
LINE
  5
C2
330
26B
100
AcDbEntity
  8
0
  6
Continuous
 62
     7
100
AcDbLine
 10
-59.336904
 20
11.273525
 30
0.0
 11
-60.516904
 21
11.783525
 31
0.0
  0
LINE
  5
C3
330
26B
100
AcDbEntity
  8
0
  6
Continuous
 62
     7
100
AcDbLine
 10
-60.096904
 20
10.233525
 30
0.0
 11
-59.336904
 21
11.273525
 31
0.0
  0
LINE
  5
C4
330
26B
100
AcDbEntity
  8
0
  6
Continuous
 62
     7
100
AcDbLine
 10
-62.916904
 20
11.133525
 30
0.0
 11
-60.516904
 21
11.783525
 31
0.0
  0
LINE
  5
C5
330
26B
100
AcDbEntity
  8
0
  6
Continuous
 62
     7
100
AcDbLine
 10
-62.506904
 20
9.593524999999999
 30
0.0
 11
-60.096904
 21
10.233525
 31
0.0
  0
LINE
  5
C6
330
26B
100
AcDbEntity
  8
0
  6
Continuous
 62
     7
100
AcDbLine
 10
-63.116904
 20
9.943524999999999
 30
0.0
 11
-63.276904
 21
10.523525
 31
0.0
  0
ARC
  5
C7
330
26B
100
AcDbEntity
  8
0
  6
Continuous
 62
     7
100
AcDbCircle
 10
-62.799752
 20
10.653157
 30
0.0
 40
0.494447
100
AcDbArc
 50
103.705667
 51
195.199189
  0
ARC
  5
C8
330
26B
100
AcDbEntity
  8
0
  6
Continuous
 62
     7
100
AcDbCircle
 10
-62.635398
 20
10.07615
 30
0.0
 40
0.499437
100
AcDbArc
 50
195.3995219999999
 51
284.908614
  0
LINE
  5
C9
330
26B
100
AcDbEntity
  8
0
  6
Continuous
 62
     7
100
AcDbLine
 10
-45.56690399999999
 20
26.173525
 30
0.0
 11
-44.59690399999999
 21
27.013525
 31
0.0
  0
LINE
  5
CA
330
26B
100
AcDbEntity
  8
0
  6
Continuous
 62
     7
100
AcDbLine
 10
-46.16690399999999
 20
27.313525
 30
0.0
 11
-45.56690399999999
 21
26.173525
 31
0.0
  0
LINE
  5
CB
330
26B
100
AcDbEntity
  8
0
  6
Continuous
 62
     7
100
AcDbLine
 10
-44.136904
 20
29.473525
 30
0.0
 11
-44.59690399999999
 21
27.013525
 31
0.0
  0
LINE
  5
CC
330
26B
100
AcDbEntity
  8
0
  6
Continuous
 62
     7
100
AcDbLine
 10
-45.716904
 20
29.763525
 30
0.0
 11
-46.16690399999999
 21
27.313525
 31
0.0
  0
LINE
  5
CD
330
26B
100
AcDbEntity
  8
0
  6
Continuous
 62
     7
100
AcDbLine
 10
-45.12690399999999
 20
30.163525
 30
0.0
 11
-44.536904
 21
30.053525
 31
0.0
  0
ARC
  5
CE
330
26B
100
AcDbEntity
  8
0
  6
Continuous
 62
     7
100
AcDbCircle
 10
-44.625715
 20
29.564346
 30
0.0
 40
0.497176
100
AcDbArc
 50
349.474565
 51
79.71001300000001
  0
ARC
  5
CF
330
26B
100
AcDbEntity
  8
0
  6
Continuous
 62
     7
100
AcDbCircle
 10
-45.223846
 20
29.67139
 30
0.0
 40
0.5015930000000001
100
AcDbArc
 50
78.85643399999999
 51
169.415447
  0
LINE
  5
D0
330
26B
100
AcDbEntity
  8
0
  6
Continuous
 62
     7
100
AcDbLine
 10
-43.446904
 20
25.583525
 30
0.0
 11
-42.34690399999999
 21
26.233525
 31
0.0
  0
LINE
  5
D1
330
26B
100
AcDbEntity
  8
0
  6
Continuous
 62
     7
100
AcDbLine
 10
-43.83690399999999
 20
26.803525
 30
0.0
 11
-43.446904
 21
25.583525
 31
0.0
  0
LINE
  5
D2
330
26B
100
AcDbEntity
  8
0
  6
Continuous
 62
     7
100
AcDbLine
 10
-41.44690399999999
 20
28.563525
 30
0.0
 11
-42.34690399999999
 21
26.233525
 31
0.0
  0
LINE
  5
D3
330
26B
100
AcDbEntity
  8
0
  6
Continuous
 62
     7
100
AcDbLine
 10
-42.94690399999999
 20
29.133525
 30
0.0
 11
-43.83690399999999
 21
26.803525
 31
0.0
  0
LINE
  5
D4
330
26B
100
AcDbEntity
  8
0
  6
Continuous
 62
     7
100
AcDbLine
 10
-42.29690399999999
 20
29.423525
 30
0.0
 11
-41.73690399999999
 21
29.203525
 31
0.0
  0
ARC
  5
D5
330
26B
100
AcDbEntity
  8
0
  6
Continuous
 62
     7
100
AcDbCircle
 10
-41.910112
 20
28.739337
 30
0.0
 40
0.495451
100
AcDbArc
 50
339.215638
 51
69.537299
  0
ARC
  5
D6
330
26B
100
AcDbEntity
  8
0
  6
Continuous
 62
     7
100
AcDbCircle
 10
-42.478093
 20
28.956191
 30
0.0
 40
0.5012300000000001
100
AcDbArc
 50
68.808311
 51
159.280135
  0
LINE
  5
D7
330
26B
100
AcDbEntity
  8
0
  6
Continuous
 62
     7
100
AcDbLine
 10
-41.476904
 20
24.603525
 30
0.0
 11
-40.276904
 21
25.043525
 31
0.0
  0
LINE
  5
D8
330
26B
100
AcDbEntity
  8
0
  6
Continuous
 62
     7
100
AcDbLine
 10
-41.636904
 20
25.883525
 30
0.0
 11
-41.476904
 21
24.603525
 31
0.0
  0
LINE
  5
D9
330
26B
100
AcDbEntity
  8
0
  6
Continuous
 62
     7
100
AcDbLine
 10
-38.966904
 20
27.173525
 30
0.0
 11
-40.276904
 21
25.043525
 31
0.0
  0
LINE
  5
DA
330
26B
100
AcDbEntity
  8
0
  6
Continuous
 62
     7
100
AcDbLine
 10
-40.336904
 20
28.013525
 30
0.0
 11
-41.636904
 21
25.883525
 31
0.0
  0
LINE
  5
DB
330
26B
100
AcDbEntity
  8
0
  6
Continuous
 62
     7
100
AcDbLine
 10
-39.646904
 20
28.173525
 30
0.0
 11
-39.136904
 21
27.863525
 31
0.0
  0
ARC
  5
DC
330
26B
100
AcDbEntity
  8
0
  6
Continuous
 62
     7
100
AcDbCircle
 10
-39.391156
 20
27.434942
 30
0.0
 40
0.498325
100
AcDbArc
 50
328.359381
 51
59.32201
  0
ARC
  5
DD
330
26B
100
AcDbEntity
  8
0
  6
Continuous
 62
     7
100
AcDbCircle
 10
-39.91257800000001
 20
27.751431
 30
0.0
 40
0.498745
100
AcDbArc
 50
57.81296500000001
 51
148.297529
  0
LINE
  5
DE
330
26B
100
AcDbEntity
  8
0
  6
Continuous
 62
     7
100
AcDbLine
 10
-39.716904
 20
23.293525
 30
0.0
 11
-38.456904
 21
23.503525
 31
0.0
  0
LINE
  5
DF
330
26B
100
AcDbEntity
  8
0
  6
Continuous
 62
     7
100
AcDbLine
 10
-39.646904
 20
24.573525
 30
0.0
 11
-39.716904
 21
23.293525
 31
0.0
  0
LINE
  5
E0
330
26B
100
AcDbEntity
  8
0
  6
Continuous
 62
     7
100
AcDbLine
 10
-36.786904
 20
25.363525
 30
0.0
 11
-38.456904
 21
23.503525
 31
0.0
  0
LINE
  5
E1
330
26B
100
AcDbEntity
  8
0
  6
Continuous
 62
     7
100
AcDbLine
 10
-37.976904
 20
26.433525
 30
0.0
 11
-39.646904
 21
24.573525
 31
0.0
  0
LINE
  5
E2
330
26B
100
AcDbEntity
  8
0
  6
Continuous
 62
     7
100
AcDbLine
 10
-37.266904
 20
26.463525
 30
0.0
 11
-36.826904
 21
26.063525
 31
0.0
  0
ARC
  5
E3
330
26B
100
AcDbEntity
  8
0
  6
Continuous
 62
     7
100
AcDbCircle
 10
-37.152166
 20
25.693796
 30
0.0
 40
0.4924380000000001
100
AcDbArc
 50
317.880059
 51
48.660917
  0
ARC
  5
E4
330
26B
100
AcDbEntity
  8
0
  6
Continuous
 62
     7
100
AcDbCircle
 10
-37.607172
 20
26.099874
 30
0.0
 40
0.498021
100
AcDbArc
 50
46.90258899999999
 51
137.936429
  0
LINE
  5
E5
330
26B
100
AcDbEntity
  8
0
  6
Continuous
 62
     7
100
AcDbLine
 10
-38.226904
 20
21.683525
 30
0.0
 11
-36.946904
 21
21.663525
 31
0.0
  0
LINE
  5
E6
330
26B
100
AcDbEntity
  8
0
  6
Continuous
 62
     7
100
AcDbLine
 10
-37.916904
 20
22.923525
 30
0.0
 11
-38.226904
 21
21.683525
 31
0.0
  0
LINE
  5
E7
330
26B
100
AcDbEntity
  8
0
  6
Continuous
 62
     7
100
AcDbLine
 10
-34.966904
 20
23.173525
 30
0.0
 11
-36.946904
 21
21.663525
 31
0.0
  0
LINE
  5
E8
330
26B
100
AcDbEntity
  8
0
  6
Continuous
 62
     7
100
AcDbLine
 10
-35.936904
 20
24.443525
 30
0.0
 11
-37.916904
 21
22.923525
 31
0.0
  0
LINE
  5
E9
330
26B
100
AcDbEntity
  8
0
  6
Continuous
 62
     7
100
AcDbLine
 10
-35.236904
 20
24.353525
 30
0.0
 11
-34.876904
 21
23.873525
 31
0.0
  0
ARC
  5
EA
330
26B
100
AcDbEntity
  8
0
  6
Continuous
 62
     7
100
AcDbCircle
 10
-35.268731
 20
23.568118
 30
0.0
 40
0.4967930000000001
100
AcDbArc
 50
307.412745
 51
37.934442
  0
ARC
  5
EB
330
26B
100
AcDbEntity
  8
0
  6
Continuous
 62
     7
100
AcDbCircle
 10
-35.631142
 20
24.054451
 30
0.0
 40
0.494843
100
AcDbArc
 50
37.18445800000001
 51
128.162728
  0
LINE
  5
EC
330
26B
100
AcDbEntity
  8
0
  6
Continuous
 62
     7
100
AcDbLine
 10
-37.056904
 20
19.823525
 30
0.0
 11
-35.796904
 21
19.563525
 31
0.0
  0
LINE
  5
ED
330
26B
100
AcDbEntity
  8
0
  6
Continuous
 62
     7
100
AcDbLine
 10
-36.526904
 20
20.993525
 30
0.0
 11
-37.056904
 21
19.823525
 31
0.0
  0
LINE
  5
EE
330
26B
100
AcDbEntity
  8
0
  6
Continuous
 62
     7
100
AcDbLine
 10
-33.576904
 20
20.703525
 30
0.0
 11
-35.796904
 21
19.563525
 31
0.0
  0
LINE
  5
EF
330
26B
100
AcDbEntity
  8
0
  6
Continuous
 62
     7
100
AcDbLine
 10
-34.306904
 20
22.123525
 30
0.0
 11
-36.526904
 21
20.993525
 31
0.0
  0
LINE
  5
F0
330
26B
100
AcDbEntity
  8
0
  6
Continuous
 62
     7
100
AcDbLine
 10
-33.626904
 20
21.903525
 30
0.0
 11
-33.356904
 21
21.373525
 31
0.0
  0
ARC
  5
F1
330
26B
100
AcDbEntity
  8
0
  6
Continuous
 62
     7
100
AcDbCircle
 10
-33.80083900000001
 20
21.148176
 30
0.0
 40
0.497856
100
AcDbArc
 50
296.730751
 51
26.913211
  0
ARC
  5
F2
330
26B
100
AcDbEntity
  8
0
  6
Continuous
 62
     7
100
AcDbCircle
 10
-34.073133
 20
21.685179
 30
0.0
 40
0.496786
100
AcDbArc
 50
26.073136
 51
118.071025
  0
LINE
  5
F3
330
26B
100
AcDbEntity
  8
0
  6
Continuous
 62
     7
100
AcDbLine
 10
-36.246904
 20
17.783525
 30
0.0
 11
-35.056904
 21
17.303525
 31
0.0
  0
LINE
  5
F4
330
26B
100
AcDbEntity
  8
0
  6
Continuous
 62
     7
100
AcDbLine
 10
-35.506904
 20
18.833525
 30
0.0
 11
-36.246904
 21
17.783525
 31
0.0
  0
LINE
  5
F5
330
26B
100
AcDbEntity
  8
0
  6
Continuous
 62
     7
100
AcDbLine
 10
-32.666904
 20
18.013525
 30
0.0
 11
-35.056904
 21
17.303525
 31
0.0
  0
LINE
  5
F6
330
26B
100
AcDbEntity
  8
0
  6
Continuous
 62
     7
100
AcDbLine
 10
-33.116904
 20
19.543525
 30
0.0
 11
-35.506904
 21
18.833525
 31
0.0
  0
LINE
  5
F7
330
26B
100
AcDbEntity
  8
0
  6
Continuous
 62
     7
100
AcDbLine
 10
-32.496904
 20
19.203525
 30
0.0
 11
-32.326904
 21
18.633525
 31
0.0
  0
ARC
  5
F8
330
26B
100
AcDbEntity
  8
0
  6
Continuous
 62
     7
100
AcDbCircle
 10
-32.802413
 20
18.491063
 30
0.0
 40
0.496391
100
AcDbArc
 50
285.842154
 51
16.678255
  0
ARC
  5
F9
330
26B
100
AcDbEntity
  8
0
  6
Continuous
 62
     7
100
AcDbCircle
 10
-32.97237800000001
 20
19.071779
 30
0.0
 40
0.493389
100
AcDbArc
 50
15.487225
 51
107.033184
  0
LINE
  5
FA
330
26B
100
AcDbEntity
  8
0
  6
Continuous
 62
     7
100
AcDbLine
 10
-35.816904
 20
15.633525
 30
0.0
 11
-34.736904
 21
14.943525
 31
0.0
  0
LINE
  5
FB
330
26B
100
AcDbEntity
  8
0
  6
Continuous
 62
     7
100
AcDbLine
 10
-34.896904
 20
16.533525
 30
0.0
 11
-35.816904
 21
15.633525
 31
0.0
  0
LINE
  5
FC
330
26B
100
AcDbEntity
  8
0
  6
Continuous
 62
     7
100
AcDbLine
 10
-32.256904
 20
15.203525
 30
0.0
 11
-34.736904
 21
14.943525
 31
0.0
  0
LINE
  5
FD
330
26B
100
AcDbEntity
  8
0
  6
Continuous
 62
     7
100
AcDbLine
 10
-32.41690399999999
 20
16.793525
 30
0.0
 11
-34.896904
 21
16.533525
 31
0.0
  0
LINE
  5
FE
330
26B
100
AcDbEntity
  8
0
  6
Continuous
 62
     7
100
AcDbLine
 10
-31.866904
 20
16.343525
 30
0.0
 11
-31.806904
 21
15.753525
 31
0.0
  0
ARC
  5
FF
330
26B
100
AcDbEntity
  8
0
  6
Continuous
 62
     7
100
AcDbCircle
 10
-32.302632
 20
15.70002999999999
 30
0.0
 40
0.4986060000000001
100
AcDbArc
 50
275.262125
 51
6.159061000000001
  0
ARC
  5
100
330
26B
100
AcDbEntity
  8
0
  6
Continuous
 62
     7
100
AcDbCircle
 10
-32.362546
 20
16.298851
 30
0.0
 40
0.4976520000000001
100
AcDbArc
 50
5.150351999999999
 51
96.270834
  0
ARC
  5
101
330
26B
100
AcDbEntity
  8
0
  6
Continuous
 62
     7
100
AcDbCircle
 10
-47.74690399999999
 20
14.380836
 30
0.0
 40
3.491698
100
AcDbArc
 50
339.94621
 51
200.05379
  0
ARC
  5
102
330
26B
100
AcDbEntity
  8
0
  6
Continuous
 62
     7
100
AcDbCircle
 10
-47.74690399999999
 20
14.380836
 30
0.0
 40
8.493105999999999
100
AcDbArc
 50
339.98207
 51
200.01793
  0
LINE
  5
103
330
26B
100
AcDbEntity
  8
0
  6
Continuous
 62
     7
100
AcDbLine
 10
-55.726904
 20
11.473525
 30
0.0
 11
-51.026904
 21
13.183525
 31
0.0
  0
LINE
  5
104
330
26B
100
AcDbEntity
  8
0
  6
Continuous
 62
     7
100
AcDbLine
 10
-44.466904
 20
13.183525
 30
0.0
 11
-39.766904
 21
11.473525
 31
0.0
  0
LINE
  5
105
330
26B
100
AcDbEntity
  8
0
  6
Continuous
 62
     7
100
AcDbLine
 10
-38.796904
 20
15.313525
 30
0.0
 11
-36.316904
 21
15.573525
 31
0.0
  0
LINE
  5
106
330
26B
100
AcDbEntity
  8
0
  6
Continuous
 62
     7
100
AcDbLine
 10
-39.736904
 20
18.463525
 30
0.0
 11
-37.506904
 21
19.593525
 31
0.0
  0
LINE
  5
107
330
26B
100
AcDbEntity
  8
0
  6
Continuous
 62
     7
100
AcDbLine
 10
-41.72690399999999
 20
21.063525
 30
0.0
 11
-40.05690399999999
 21
22.923525
 31
0.0
  0
LINE
  5
108
330
26B
100
AcDbEntity
  8
0
  6
Continuous
 62
     7
100
AcDbLine
 10
-44.52690399999999
 20
22.783525
 30
0.0
 11
-43.62690399999999
 21
25.113525
 31
0.0
  0
LINE
  5
109
330
26B
100
AcDbEntity
  8
0
  6
Continuous
 62
     7
100
AcDbLine
 10
-47.74690399999999
 20
23.373525
 30
0.0
 11
-47.74690399999999
 21
25.873525
 31
0.0
  0
LINE
  5
10A
330
26B
100
AcDbEntity
  8
0
  6
Continuous
 62
     7
100
AcDbLine
 10
-50.96690399999999
 20
22.783525
 30
0.0
 11
-51.86690399999999
 21
25.113525
 31
0.0
  0
LINE
  5
10B
330
26B
100
AcDbEntity
  8
0
  6
Continuous
 62
     7
100
AcDbLine
 10
-53.76690400000001
 20
21.063525
 30
0.0
 11
-55.436904
 21
22.923525
 31
0.0
  0
LINE
  5
10C
330
26B
100
AcDbEntity
  8
0
  6
Continuous
 62
     7
100
AcDbLine
 10
-55.756904
 20
18.463525
 30
0.0
 11
-57.986904
 21
19.593525
 31
0.0
  0
LINE
  5
10D
330
26B
100
AcDbEntity
  8
0
  6
Continuous
 62
     7
100
AcDbLine
 10
-56.696904
 20
15.313525
 30
0.0
 11
-59.176904
 21
15.573525
 31
0.0
  0
LINE
  5
10E
330
26B
100
AcDbEntity
  8
0
  6
Continuous
 62
     7
100
AcDbLine
 10
-56.436904
 20
12.043525
 30
0.0
 11
-58.846904
 21
11.403525
 31
0.0
  0
LINE
  5
10F
330
26B
100
AcDbEntity
  8
0
  6
Continuous
 62
     2
100
AcDbLine
 10
-39.126904
 20
16.933525
 30
0.0
 11
-37.686904
 21
17.353525
 31
0.0
  0
LINE
  5
110
330
26B
100
AcDbEntity
  8
0
  6
Continuous
 62
     2
100
AcDbLine
 10
-40.606904
 20
19.853525
 30
0.0
 11
-39.416904
 21
20.763525
 31
0.0
  0
LINE
  5
111
330
26B
100
AcDbEntity
  8
0
  6
Continuous
 62
     2
100
AcDbLine
 10
-43.046904
 20
22.053525
 30
0.0
 11
-42.26690399999999
 21
23.333525
 31
0.0
  0
LINE
  5
112
330
26B
100
AcDbEntity
  8
0
  6
Continuous
 62
     2
100
AcDbLine
 10
-46.106904
 20
23.223525
 30
0.0
 11
-45.836904
 21
24.703525
 31
0.0
  0
LINE
  5
113
330
26B
100
AcDbEntity
  8
0
  6
Continuous
 62
     2
100
AcDbLine
 10
-49.386904
 20
23.223525
 30
0.0
 11
-49.65690399999999
 21
24.703525
 31
0.0
  0
LINE
  5
114
330
26B
100
AcDbEntity
  8
0
  6
Continuous
 62
     2
100
AcDbLine
 10
-52.446904
 20
22.053525
 30
0.0
 11
-53.226904
 21
23.333525
 31
0.0
  0
LINE
  5
115
330
26B
100
AcDbEntity
  8
0
  6
Continuous
 62
     2
100
AcDbLine
 10
-54.886904
 20
19.853525
 30
0.0
 11
-56.076904
 21
20.763525
 31
0.0
  0
LINE
  5
116
330
26B
100
AcDbEntity
  8
0
  6
Continuous
 62
     2
100
AcDbLine
 10
-56.366904
 20
16.933525
 30
0.0
 11
-57.80690400000001
 21
17.353525
 31
0.0
  0
LINE
  5
117
330
26B
100
AcDbEntity
  8
0
  6
Continuous
 62
     2
100
AcDbLine
 10
-56.71690400000001
 20
13.673525
 30
0.0
 11
-58.206904
 21
13.553525
 31
0.0
  0
LINE
  5
118
330
26B
100
AcDbEntity
  8
0
  6
Continuous
 62
     2
100
AcDbLine
 10
-38.776904
 20
13.673525
 30
0.0
 11
-37.286904
 21
13.553525
 31
0.0
  0
LINE
  5
119
330
26B
100
AcDbEntity
  8
0
  6
CENTER
 62
     2
100
AcDbLine
 10
-70.746904
 20
14.373525
 30
0.0
 11
-24.746904
 21
14.373525
 31
0.0
  0
CIRCLE
  5
11A
330
26B
100
AcDbEntity
  8
0
  6
Continuous
 62
     7
100
AcDbCircle
 10
-47.74690399999999
 20
14.380836
 30
0.0
 40
2.299999999999999
  0
LINE
  5
11B
330
26B
100
AcDbEntity
  8
0
  6
Continuous
 62
     7
100
AcDbLine
 10
-64.746904
 20
-4.526474999999999
 30
0.0
 11
-30.746904
 21
-4.526474999999999
 31
0.0
  0
LINE
  5
11C
330
26B
100
AcDbEntity
  8
0
  6
Continuous
 62
     7
100
AcDbLine
 10
-64.746904
 20
33.273525
 30
0.0
 11
-30.746904
 21
33.273525
 31
0.0
  0
LINE
  5
11D
330
26B
100
AcDbEntity
  8
0
  6
Continuous
 62
     7
100
AcDbLine
 10
-28.846904
 20
31.373525
 30
0.0
 11
-28.846904
 21
-2.626475
 31
0.0
  0
LINE
  5
11E
330
26B
100
AcDbEntity
  8
0
  6
Continuous
 62
     7
100
AcDbLine
 10
-66.64690400000001
 20
31.373525
 30
0.0
 11
-66.64690400000001
 21
-2.626475
 31
0.0
  0
ARC
  5
11F
330
26B
100
AcDbEntity
  8
0
  6
Continuous
 62
     7
100
AcDbCircle
 10
-64.75055600000001
 20
31.377177
 30
0.0
 40
1.896352
100
AcDbArc
 50
89.88966299999999
 51
180.110337
  0
ARC
  5
120
330
26B
100
AcDbEntity
  8
0
  6
Continuous
 62
     7
100
AcDbCircle
 10
-64.743245
 20
-2.622815999999999
 30
0.0
 40
1.903661999999999
100
AcDbArc
 50
180.110125
 51
269.889875
  0
ARC
  5
121
330
26B
100
AcDbEntity
  8
0
  6
Continuous
 62
     7
100
AcDbCircle
 10
-30.750563
 20
-2.622815999999999
 30
0.0
 40
1.903661999999999
100
AcDbArc
 50
270.110125
 51
359.889875
  0
ARC
  5
122
330
26B
100
AcDbEntity
  8
0
  6
Continuous
 62
     7
100
AcDbCircle
 10
-30.743252
 20
31.377177
 30
0.0
 40
1.896352
100
AcDbArc
 50
359.889663
 51
90.110337
  0
LINE
  5
123
330
26B
100
AcDbEntity
  8
0
  6
Continuous
 62
     7
100
AcDbLine
 10
-54.846904
 20
-0.6264750000000001
 30
0.0
 11
-52.646904
 21
-0.6264750000000001
 31
0.0
  0
LINE
  5
124
330
26B
100
AcDbEntity
  8
0
  6
Continuous
 62
     7
100
AcDbLine
 10
-54.846904
 20
1.373525
 30
0.0
 11
-52.646904
 21
1.373525
 31
0.0
  0
LINE
  5
125
330
26B
100
AcDbEntity
  8
0
  6
Continuous
 62
     7
100
AcDbLine
 10
-52.246904
 20
0.973525
 30
0.0
 11
-52.246904
 21
-0.226475
 31
0.0
  0
LINE
  5
126
330
26B
100
AcDbEntity
  8
0
  6
Continuous
 62
     7
100
AcDbLine
 10
-55.246904
 20
0.973525
 30
0.0
 11
-55.246904
 21
-0.226475
 31
0.0
  0
LINE
  5
127
330
26B
100
AcDbEntity
  8
0
  6
Continuous
 62
     7
100
AcDbLine
 10
-43.246904
 20
0.973525
 30
0.0
 11
-43.246904
 21
-0.226475
 31
0.0
  0
LINE
  5
128
330
26B
100
AcDbEntity
  8
0
  6
Continuous
 62
     7
100
AcDbLine
 10
-40.24690399999999
 20
0.973525
 30
0.0
 11
-40.24690399999999
 21
-0.226475
 31
0.0
  0
LINE
  5
129
330
26B
100
AcDbEntity
  8
0
  6
Continuous
 62
     7
100
AcDbLine
 10
-42.84690399999999
 20
1.373525
 30
0.0
 11
-40.64690399999999
 21
1.373525
 31
0.0
  0
LINE
  5
12A
330
26B
100
AcDbEntity
  8
0
  6
Continuous
 62
     7
100
AcDbLine
 10
-42.84690399999999
 20
-0.6264750000000001
 30
0.0
 11
-40.64690399999999
 21
-0.6264750000000001
 31
0.0
  0
ARC
  5
12B
330
26B
100
AcDbEntity
  8
0
  6
Continuous
 62
     7
100
AcDbCircle
 10
-54.850543
 20
0.9771639999999999
 30
0.0
 40
0.396378
100
AcDbArc
 50
89.47397700000001
 51
180.526023
  0
ARC
  5
12C
330
26B
100
AcDbEntity
  8
0
  6
Continuous
 62
     7
100
AcDbCircle
 10
-54.84323199999999
 20
-0.222803
 30
0.0
 40
0.403688
100
AcDbArc
 50
180.521129
 51
269.478871
  0
ARC
  5
12D
330
26B
100
AcDbEntity
  8
0
  6
Continuous
 62
     7
100
AcDbCircle
 10
-52.65056999999999
 20
-0.222809
 30
0.0
 40
0.4036830000000001
100
AcDbArc
 50
270.5203310000001
 51
359.479669
  0
ARC
  5
12E
330
26B
100
AcDbEntity
  8
0
  6
Continuous
 62
     7
100
AcDbCircle
 10
-52.64325899999999
 20
0.97717
 30
0.0
 40
0.396372
100
AcDbArc
 50
359.473135
 51
90.526865
  0
ARC
  5
12F
330
26B
100
AcDbEntity
  8
0
  6
Continuous
 62
     7
100
AcDbCircle
 10
-42.850543
 20
0.9771639999999999
 30
0.0
 40
0.396378
100
AcDbArc
 50
89.47397700000001
 51
180.526023
  0
ARC
  5
130
330
26B
100
AcDbEntity
  8
0
  6
Continuous
 62
     7
100
AcDbCircle
 10
-42.843232
 20
-0.222803
 30
0.0
 40
0.403688
100
AcDbArc
 50
180.521129
 51
269.478871
  0
ARC
  5
131
330
26B
100
AcDbEntity
  8
0
  6
Continuous
 62
     7
100
AcDbCircle
 10
-40.65057
 20
-0.222809
 30
0.0
 40
0.4036830000000001
100
AcDbArc
 50
270.5203310000001
 51
359.479669
  0
ARC
  5
132
330
26B
100
AcDbEntity
  8
0
  6
Continuous
 62
     7
100
AcDbCircle
 10
-40.643259
 20
0.97717
 30
0.0
 40
0.396372
100
AcDbArc
 50
359.473135
 51
90.526865
  0
LINE
  5
133
330
26B
100
AcDbEntity
  8
0
  6
CENTER
 62
     2
100
AcDbLine
 10
-47.74690399999999
 20
37.373525
 30
0.0
 11
-47.74690399999999
 21
-24.626475
 31
0.0
  0
LINE
  5
134
330
26B
100
AcDbEntity
  8
0
  6
Continuous
 62
     7
100
AcDbLine
 10
-47.246904
 20
16.623525
 30
0.0
 11
-47.246904
 21
12.133525
 31
0.0
  0
LINE
  5
135
330
26B
100
AcDbEntity
  8
0
  6
Continuous
 62
     7
100
AcDbLine
 10
-48.246904
 20
16.623525
 30
0.0
 11
-48.246904
 21
12.133525
 31
0.0
  0
LINE
  5
136
330
26B
100
AcDbEntity
  8
0
  6
Continuous
 62
     7
100
AcDbLine
 10
-46.746904
 20
20.373525
 30
0.0
 11
-46.746904
 21
17.733525
 31
0.0
  0
LINE
  5
137
330
26B
100
AcDbEntity
  8
0
  6
Continuous
 62
     7
100
AcDbLine
 10
-48.746904
 20
20.373525
 30
0.0
 11
-48.746904
 21
17.733525
 31
0.0
  0
LINE
  5
138
330
26B
100
AcDbEntity
  8
0
  6
Continuous
 62
     7
100
AcDbLine
 10
-46.746904
 20
20.373525
 30
0.0
 11
-47.18690399999999
 21
22.853525
 31
0.0
  0
LINE
  5
139
330
26B
100
AcDbEntity
  8
0
  6
Continuous
 62
     7
100
AcDbLine
 10
-48.30690399999999
 20
22.853525
 30
0.0
 11
-48.746904
 21
20.373525
 31
0.0
  0
LINE
  5
13A
330
26B
100
AcDbEntity
  8
0
  6
Continuous
 62
     7
100
AcDbLine
 10
-45.896904
 20
-11.126475
 30
0.0
 11
-45.896904
 21
-21.126475
 31
0.0
  0
LINE
  5
13B
330
26B
100
AcDbEntity
  8
0
  6
Continuous
 62
     7
100
AcDbLine
 10
-49.59690399999999
 20
-11.126475
 30
0.0
 11
-49.59690399999999
 21
-21.126475
 31
0.0
  0
LWPOLYLINE
  5
13C
330
26B
100
AcDbEntity
  8
0
  6
Continuous
 62
     7
100
AcDbPolyline
 90
       65
 70
     0
 43
0.0
 10
-49.59690399999999
 20
-21.126475
 10
-49.55087699999999
 20
-21.174514
 10
-49.502194
 20
-21.221918
 10
-49.45108
 20
-21.268342
 10
-49.397758
 20
-21.313443
 10
-49.34245
 20
-21.356878
 10
-49.28537999999999
 20
-21.398303
 10
-49.22677199999999
 20
-21.437375
 10
-49.16684899999999
 20
-21.47375
 10
-49.105833
 20
-21.507086
 10
-49.04394899999999
 20
-21.537038
 10
-48.981419
 20
-21.563264
 10
-48.918467
 20
-21.585419
 10
-48.855316
 20
-21.603162
 10
-48.79219
 20
-21.616147
 10
-48.72931099999999
 20
-21.624033
 10
-48.66690399999999
 20
-21.626475
 10
-48.60572600000001
 20
-21.623251
 10
-48.545312
 20
-21.614603
 10
-48.485605
 20
-21.600892
 10
-48.426545
 20
-21.582479
 10
-48.368073
 20
-21.559728
 10
-48.31013099999999
 20
-21.532998
 10
-48.25266
 20
-21.502652
 10
-48.1956
 20
-21.469052
 10
-48.138894
 20
-21.432558
 10
-48.082483
 20
-21.393533
 10
-48.026307
 20
-21.352338
 10
-47.970308
 20
-21.309335
 10
-47.914427
 20
-21.264886
 10
-47.858605
 20
-21.219351
 10
-47.802784
 20
-21.173094
 10
-47.74690399999999
 20
-21.126475
 10
-47.690994
 20
-21.079855
 10
-47.63509
 20
-21.033597
 10
-47.579146
 20
-20.988062
 10
-47.523115
 20
-20.943612
 10
-47.466949
 20
-20.900608
 10
-47.410603
 20
-20.859412
 10
-47.35402899999999
 20
-20.820386
 10
-47.297181
 20
-20.783891
 10
-47.240012
 20
-20.75029
 10
-47.182474
 20
-20.719943
 10
-47.124522
 20
-20.693214
 10
-47.066109
 20
-20.670462
 10
-47.007187
 20
-20.652051
 10
-46.94771
 20
-20.638342
 10
-46.887631
 20
-20.629695
 10
-46.826904
 20
-20.626475
 10
-46.764951
 20
-20.628919
 10
-46.70240999999999
 20
-20.636807
 10
-46.63951599999999
 20
-20.649794
 10
-46.57650499999999
 20
-20.667537
 10
-46.51361099999999
 20
-20.689693
 10
-46.45107099999999
 20
-20.715919
 10
-46.38912
 20
-20.745871
 10
-46.32799399999999
 20
-20.779206
 10
-46.267927
 20
-20.81558
 10
-46.20915499999999
 20
-20.854651
 10
-46.151913
 20
-20.896075
 10
-46.09643799999999
 20
-20.939508
 10
-46.042964
 20
-20.984609
 10
-45.991726
 20
-21.031032
 10
-45.942961
 20
-21.078435
 10
-45.896904
 20
-21.126475
  0
LWPOLYLINE
  5
13D
330
26B
100
AcDbEntity
  8
0
  6
Continuous
 62
     7
100
AcDbPolyline
 90
       33
 70
     0
 43
0.0
 10
-45.896904
 20
-21.126475
 10
-45.942764
 20
-21.174491
 10
-45.99099
 20
-21.221832
 10
-46.041425
 20
-21.268162
 10
-46.093913
 20
-21.313147
 10
-46.148297
 20
-21.356454
 10
-46.20441999999999
 20
-21.397748
 10
-46.26212699999999
 20
-21.436695
 10
-46.32125999999999
 20
-21.472962
 10
-46.381663
 20
-21.506212
 10
-46.44318
 20
-21.536114
 10
-46.505654
 20
-21.562332
 10
-46.56892899999999
 20
-21.584532
 10
-46.63284799999999
 20
-21.602381
 10
-46.69725399999999
 20
-21.615543
 10
-46.761992
 20
-21.623686
 10
-46.826904
 20
-21.626475
 10
-46.891228
 20
-21.623686
 10
-46.955295
 20
-21.615543
 10
-47.018965
 20
-21.602381
 10
-47.08209899999999
 20
-21.584532
 10
-47.14455499999999
 20
-21.562332
 10
-47.206195
 20
-21.536114
 10
-47.26687899999999
 20
-21.506212
 10
-47.32646599999999
 20
-21.472962
 10
-47.384816
 20
-21.436695
 10
-47.44179099999999
 20
-21.397748
 10
-47.49724899999999
 20
-21.356454
 10
-47.551052
 20
-21.313147
 10
-47.603058
 20
-21.268162
 10
-47.653129
 20
-21.221832
 10
-47.701124
 20
-21.174491
 10
-47.74690399999999
 20
-21.126475
  0
LINE
  5
13E
330
26B
100
AcDbEntity
  8
0
  6
Continuous
 62
     7
100
AcDbLine
 10
43.403096
 20
-11.126475
 30
0.0
 11
43.403096
 21
-21.126475
 31
0.0
  0
LINE
  5
13F
330
26B
100
AcDbEntity
  8
0
  6
Continuous
 62
     7
100
AcDbLine
 10
47.103096
 20
-11.126475
 30
0.0
 11
47.103096
 21
-21.126475
 31
0.0
  0
LWPOLYLINE
  5
140
330
26B
100
AcDbEntity
  8
0
  6
Continuous
 62
     7
100
AcDbPolyline
 90
       65
 70
     0
 43
0.0
 10
47.103096
 20
-21.126475
 10
47.057069
 20
-21.174514
 10
47.008387
 20
-21.221918
 10
46.957273
 20
-21.268342
 10
46.90395
 20
-21.313443
 10
46.84864199999999
 20
-21.356878
 10
46.79157299999999
 20
-21.398303
 10
46.732965
 20
-21.437375
 10
46.67304099999999
 20
-21.47375
 10
46.612025
 20
-21.507086
 10
46.55014099999999
 20
-21.537038
 10
46.487611
 20
-21.563264
 10
46.424659
 20
-21.585419
 10
46.361509
 20
-21.603162
 10
46.298382
 20
-21.616147
 10
46.235504
 20
-21.624033
 10
46.173096
 20
-21.626475
 10
46.11189099999999
 20
-21.623228
 10
46.051403
 20
-21.614518
 10
45.991584
 20
-21.600714
 10
45.932388
 20
-21.582188
 10
45.873765
 20
-21.55931
 10
45.815668
 20
-21.532451
 10
45.758049
 20
-21.501982
 10
45.700861
 20
-21.468274
 10
45.644055
 20
-21.431697
 10
45.587583
 20
-21.392621
 10
45.53139799999999
 20
-21.351419
 10
45.475452
 20
-21.30846
 10
45.419696
 20
-21.264115
 10
45.364084
 20
-21.218756
 10
45.30856599999999
 20
-21.172752
 10
45.25309599999999
 20
-21.126475
 10
45.197134
 20
-21.079856
 10
45.141078
 20
-21.033598
 10
45.084887
 20
-20.988065
 10
45.028518
 20
-20.943616
 10
44.97192899999999
 20
-20.900615
 10
44.91508099999999
 20
-20.859421
 10
44.85792899999999
 20
-20.820397
 10
44.800434
 20
-20.783904
 10
44.74255399999999
 20
-20.750304
 10
44.684246
 20
-20.719959
 10
44.625469
 20
-20.693229
 10
44.566182
 20
-20.670477
 10
44.50634299999999
 20
-20.652064
 10
44.44590999999999
 20
-20.638352
 10
44.38484099999999
 20
-20.629701
 10
44.32309599999999
 20
-20.626475
 10
44.261256
 20
-20.628919
 10
44.199032
 20
-20.636807
 10
44.13663099999999
 20
-20.649794
 10
44.074259
 20
-20.667537
 10
44.012123
 20
-20.689693
 10
43.950428
 20
-20.715919
 10
43.88937999999999
 20
-20.745871
 10
43.82918599999999
 20
-20.779206
 10
43.770052
 20
-20.81558
 10
43.712183
 20
-20.854651
 10
43.655786
 20
-20.896075
 10
43.60106799999999
 20
-20.939508
 10
43.548233
 20
-20.984609
 10
43.497489
 20
-21.031032
 10
43.44904099999999
 20
-21.078435
 10
43.403096
 20
-21.126475
  0
LWPOLYLINE
  5
141
330
26B
100
AcDbEntity
  8
0
  6
Continuous
 62
     7
100
AcDbPolyline
 90
       33
 70
     0
 43
0.0
 10
43.403096
 20
-21.126475
 10
43.44890699999999
 20
-21.174491
 10
43.496988
 20
-21.221832
 10
43.547187
 20
-21.268162
 10
43.599351
 20
-21.313147
 10
43.653327
 20
-21.356454
 10
43.708964
 20
-21.397748
 10
43.766108
 20
-21.436695
 10
43.824608
 20
-21.472962
 10
43.88430999999999
 20
-21.506212
 10
43.945062
 20
-21.536114
 10
44.00671299999999
 20
-21.562332
 10
44.069109
 20
-21.584532
 10
44.13209699999999
 20
-21.602381
 10
44.195526
 20
-21.615543
 10
44.259244
 20
-21.623686
 10
44.32309599999999
 20
-21.626475
 10
44.38753300000001
 20
-21.623686
 10
44.451917
 20
-21.615543
 10
44.516081
 20
-21.602381
 10
44.579854
 20
-21.584532
 10
44.64306699999999
 20
-21.562332
 10
44.705552
 20
-21.536114
 10
44.767138
 20
-21.506212
 10
44.827658
 20
-21.472962
 10
44.886941
 20
-21.436695
 10
44.944819
 20
-21.397748
 10
45.00112199999999
 20
-21.356454
 10
45.055681
 20
-21.313147
 10
45.108328
 20
-21.268162
 10
45.158892
 20
-21.221832
 10
45.207204
 20
-21.174491
 10
45.25309599999999
 20
-21.126475
  0
CIRCLE
  5
142
330
26B
100
AcDbEntity
  8
0
  6
Continuous
 62
     7
100
AcDbCircle
 10
-30.342467
 20
16.199878
 30
0.0
 40
0.5
  0
CIRCLE
  5
143
330
26B
100
AcDbEntity
  8
0
  6
Continuous
 62
     7
100
AcDbCircle
 10
-36.048091
 20
27.388431
 30
0.0
 40
0.5
  0
CIRCLE
  5
144
330
26B
100
AcDbEntity
  8
0
  6
Continuous
 62
     7
100
AcDbCircle
 10
-47.74690399999999
 20
31.873525
 30
0.0
 40
0.5
  0
CIRCLE
  5
145
330
26B
100
AcDbEntity
  8
0
  6
Continuous
 62
     7
100
AcDbCircle
 10
-59.445717
 20
27.388431
 30
0.0
 40
0.5
  0
CIRCLE
  5
146
330
26B
100
AcDbEntity
  8
0
  6
Continuous
 62
     7
100
AcDbCircle
 10
-65.151341
 20
16.199878
 30
0.0
 40
0.5
  0
INSERT
  5
14B
330
26B
100
AcDbEntity
  8
0
  6
Continuous
 62
     7
100
AcDbBlockReference
  2
*X0
 10
0.0
 20
0.0
 30
0.0
  0
INSERT
  5
153
330
26B
100
AcDbEntity
  8
0
  6
Continuous
 62
     7
100
AcDbBlockReference
  2
*X1
 10
0.0
 20
0.0
 30
0.0
  0
INSERT
  5
15B
330
26B
100
AcDbEntity
  8
0
  6
Continuous
 62
     7
100
AcDbBlockReference
  2
*X2
 10
0.0
 20
0.0
 30
0.0
  0
INSERT
  5
162
330
26B
100
AcDbEntity
  8
0
  6
Continuous
 62
     7
100
AcDbBlockReference
  2
*X3
 10
0.0
 20
0.0
 30
0.0
  0
INSERT
  5
169
330
26B
100
AcDbEntity
  8
0
  6
Continuous
 62
     7
100
AcDbBlockReference
  2
*X4
 10
0.0
 20
0.0
 30
0.0
  0
INSERT
  5
171
330
26B
100
AcDbEntity
  8
0
  6
Continuous
 62
     7
100
AcDbBlockReference
  2
*X5
 10
0.0
 20
0.0
 30
0.0
  0
INSERT
  5
179
330
26B
100
AcDbEntity
  8
0
  6
Continuous
 62
     7
100
AcDbBlockReference
  2
*X6
 10
0.0
 20
0.0
 30
0.0
  0
LINE
  5
17A
330
26B
100
AcDbEntity
  8
0
  6
CENTER
 62
     2
100
AcDbLine
 10
29.253096
 20
14.373525
 30
0.0
 11
89.253096
 21
14.373525
 31
0.0
  0
LINE
  5
17B
330
26B
100
AcDbEntity
  8
0
  6
Continuous
 62
     7
100
AcDbLine
 10
-138.399994
 20
94.50000000000001
 30
0.0
 11
138.350006
 21
94.50000000000001
 31
0.0
  0
LINE
  5
17C
330
26B
100
AcDbEntity
  8
0
  6
Continuous
 62
     7
100
AcDbLine
 10
138.350006
 20
94.50000000000001
 30
0.0
 11
138.350006
 21
-94.800003
 31
0.0
  0
LINE
  5
17D
330
26B
100
AcDbEntity
  8
0
  6
Continuous
 62
     7
100
AcDbLine
 10
-138.399994
 20
-94.800003
 30
0.0
 11
138.350006
 21
-94.800003
 31
0.0
  0
LINE
  5
17E
330
26B
100
AcDbEntity
  8
0
  6
Continuous
 62
     7
100
AcDbLine
 10
-138.399994
 20
94.50000000000001
 30
0.0
 11
-138.399994
 21
-94.800003
 31
0.0
  0
TEXT
  5
17F
330
26B
100
AcDbEntity
  8
0
  6
Continuous
 62
     7
100
AcDbText
 10
-129.38245
 20
72.9
 30
0.0
 40
3.2
  1
MODEL:EG120
 41
1.157895
  7
MX_NOTE_STANDARD
 11
-129.38245
 21
74.5
 31
0.0
100
AcDbText
 73
     2
  0
ENDSEC
  0
SECTION
  2
OBJECTS
  0
DICTIONARY
  5
255
330
0
100
AcDbDictionary
281
     1
  3
ACAD_COLOR
350
264
  3
ACAD_GROUP
350
256
  3
ACAD_LAYOUT
350
262
  3
ACAD_MATERIAL
350
263
  3
ACAD_MLINESTYLE
350
25F
  3
ACAD_PLOTSETTINGS
350
261
  3
ACAD_PLOTSTYLENAME
350
257
  3
ACAD_TABLESTYLE
350
265
  3
ACDBHEADERROUNDTRIPXREC
350
284
  3
AcDbVariableDictionary
350
27E
  3
DWGPROPS
350
283
  0
DICTIONARY
  5
264
102
{ACAD_REACTORS
330
255
102
}
330
255
100
AcDbDictionary
281
     1
  0
DICTIONARY
  5
256
102
{ACAD_REACTORS
330
255
102
}
330
255
100
AcDbDictionary
281
     1
  0
DICTIONARY
  5
262
102
{ACAD_REACTORS
330
255
102
}
330
255
100
AcDbDictionary
281
     1
  3
Model
350
26E
  3
レイアウト1
350
26A
  0
DICTIONARY
  5
263
102
{ACAD_REACTORS
330
255
102
}
330
255
100
AcDbDictionary
281
     1
  0
DICTIONARY
  5
25F
102
{ACAD_REACTORS
330
255
102
}
330
255
100
AcDbDictionary
281
     1
  3
Standard
350
260
  0
DICTIONARY
  5
261
102
{ACAD_REACTORS
330
255
102
}
330
255
100
AcDbDictionary
281
     1
  0
ACDBDICTIONARYWDFLT
  5
257
102
{ACAD_REACTORS
330
255
102
}
330
255
100
AcDbDictionary
281
     1
  3
Normal
350
258
100
AcDbDictionaryWithDefault
340
258
  0
DICTIONARY
  5
265
102
{ACAD_REACTORS
330
255
102
}
330
255
100
AcDbDictionary
281
     1
  3
Standard
350
266
  0
DICTIONARY
  5
284
102
{ACAD_REACTORS
330
255
102
}
330
255
100
AcDbDictionary
281
     1
  0
DICTIONARY
  5
27E
102
{ACAD_REACTORS
330
255
102
}
330
255
100
AcDbDictionary
281
     1
  3
CTABLESTYLE
350
27F
  3
DIMASSOC
350
280
  3
PROJECTNAME
350
281
  0
XRECORD
  5
283
102
{ACAD_REACTORS
330
255
102
}
330
255
100
AcDbXrecord
280
     1
  1
DWGPROPS COOKIE
  2

  3

  4

  6

  7

  8

  9

300
=
301
=
302
=
303
=
304
=
305
=
306
=
307
=
308
=
309
=
 40
0.0003705555555556
 41
2452026.471921296
 42
2454306.714285556
  1

 90
        0
  0
LAYOUT
  5
26E
102
{ACAD_XDICTIONARY
360
287
102
}
102
{ACAD_REACTORS
330
262
102
}
330
262
100
AcDbPlotSettings
  1

  2
DocuCentre Color f450
  4

  6

 40
0.0
 41
0.0
 42
0.0
 43
0.0
 44
0.0
 45
0.0
 46
0.0
 47
0.0
 48
0.0
 49
0.0
140
0.0
141
0.0
142
1.0
143
1.0
 70
  1712
 72
     0
 73
     0
 74
     0
  7

 75
     0
147
1.0
148
0.0
149
0.0
100
AcDbLayout
  1
Model
 70
     1
 71
     0
 10
0.0
 20
0.0
 11
12.0
 21
9.0
 12
0.0
 22
0.0
 32
0.0
 14
0.0
 24
0.0
 34
0.0
 15
0.0
 25
0.0
 35
0.0
146
0.0
 13
0.0
 23
0.0
 33
0.0
 16
1.0
 26
0.0
 36
0.0
 17
0.0
 27
1.0
 37
0.0
 76
     0
330
26B
  0
LAYOUT
  5
26A
102
{ACAD_XDICTIONARY
360
285
102
}
102
{ACAD_REACTORS
330
262
102
}
330
262
100
AcDbPlotSettings
  1

  2
DocuCentre Color f450
  4

  6

 40
0.0
 41
0.0
 42
0.0
 43
0.0
 44
0.0
 45
0.0
 46
0.0
 47
0.0
 48
0.0
 49
0.0
140
0.0
141
0.0
142
1.0
143
1.0
 70
   688
 72
     0
 73
     0
 74
     5
  7

 75
    16
147
1.0
148
0.0
149
0.0
100
AcDbLayout
  1
レイアウト1
 70
     0
 71
     1
 10
0.0
 20
0.0
 11
12.0
 21
9.0
 12
0.0
 22
0.0
 32
0.0
 14
1.000000000000000E+20
 24
1.000000000000000E+20
 34
1.000000000000000E+20
 15
-1.000000000000000E+20
 25
-1.000000000000000E+20
 35
-1.000000000000000E+20
146
0.0
 13
0.0
 23
0.0
 33
0.0
 16
1.0
 26
0.0
 36
0.0
 17
0.0
 27
1.0
 37
0.0
 76
     0
330
267
  0
MLINESTYLE
  5
260
102
{ACAD_REACTORS
330
25F
102
}
330
25F
100
AcDbMlineStyle
  2
STANDARD
 70
     0
  3

 62
   256
 51
90.0
 52
90.0
 71
     2
 49
0.5
 62
   256
  6
BYLAYER
 49
-0.5
 62
   256
  6
BYLAYER
  0
ACDBPLACEHOLDER
  5
258
102
{ACAD_REACTORS
330
257
102
}
330
257
  0
TABLESTYLE
  5
266
102
{ACAD_REACTORS
330
265
102
}
330
265
100
AcDbTableStyle
  3
Standard
 70
     0
 71
     0
 40
0.06
 41
0.06
280
     0
281
     0
  7
Standard
140
0.18
170
     2
 62
     0
 63
     7
283
     0
274
    -2
284
     1
 64
     0
275
    -2
285
     1
 65
     0
276
    -2
286
     1
 66
     0
277
    -2
287
     1
 67
     0
278
    -2
288
     1
 68
     0
279
    -2
289
     1
 69
     0
  7
Standard
140
0.25
170
     5
 62
     0
 63
     7
283
     0
274
    -2
284
     1
 64
     0
275
    -2
285
     1
 65
     0
276
    -2
286
     1
 66
     0
277
    -2
287
     1
 67
     0
278
    -2
288
     1
 68
     0
279
    -2
289
     1
 69
     0
  7
Standard
140
0.18
170
     5
 62
     0
 63
     7
283
     0
274
    -2
284
     1
 64
     0
275
    -2
285
     1
 65
     0
276
    -2
286
     1
 66
     0
277
    -2
287
     1
 67
     0
278
    -2
288
     1
 68
     0
279
    -2
289
     1
 69
     0
  0
DICTIONARYVAR
  5
27F
102
{ACAD_REACTORS
330
27E
102
}
330
27E
100
DictionaryVariables
280
     0
  1
STANDARD
  0
DICTIONARYVAR
  5
280
102
{ACAD_REACTORS
330
27E
102
}
330
27E
100
DictionaryVariables
280
     0
  1
1
  0
DICTIONARYVAR
  5
281
102
{ACAD_REACTORS
330
27E
102
}
330
27E
100
DictionaryVariables
280
     0
  1

  0
DICTIONARY
  5
287
330
26E
100
AcDbDictionary
280
     1
281
     1
  3
ACAD_XREC_ROUNDTRIP
360
288
  0
DICTIONARY
  5
285
330
26A
100
AcDbDictionary
280
     1
281
     1
  3
ACAD_XREC_ROUNDTRIP
360
286
  0
XRECORD
  5
288
102
{ACAD_REACTORS
330
287
102
}
330
287
100
AcDbXrecord
280
     1
102
SHADEPLOT
 70
     0
102
SHADEPLOTRESLEVEL
 70
     2
102
SHADEPLOTCUSTOMDPI
 70
   300
  0
XRECORD
  5
286
102
{ACAD_REACTORS
330
285
102
}
330
285
100
AcDbXrecord
280
     1
102
SHADEPLOT
 70
     0
102
SHADEPLOTRESLEVEL
 70
     2
102
SHADEPLOTCUSTOMDPI
 70
   300
  0
ENDSEC
  0
EOF
