  0
SECTION
  2
HEADER
  9
$ACADVER
  1
AC1009
  9
$INSBASE
 10
0.0
 20
0.0
 30
0.0
  9
$EXTMIN
 10
-138.3999939
 20
-94.80000305
 30
0.0
  9
$EXTMAX
 10
138.3500061
 20
94.5
 30
0.0
  9
$LIMMIN
 10
-138.3999939
 20
-94.80000305
  9
$LIMMAX
 10
138.3500061
 20
94.5
  9
$ORTHOMODE
 70
       0
  9
$REGENMODE
 70
       1
  9
$FILLMODE
 70
       1
  9
$QTEXTMODE
 70
       0
  9
$MIRRTEXT
 70
       1
  9
$DRAGMODE
 70
       2
  9
$LTSCALE
 40
1.0
  9
$OSMODE
 70
       0
  9
$ATTMODE
 70
       1
  9
$TEXTSIZE
 40
3.20000005
  9
$TRACEWID
 40
0.05
  9
$TEXTSTYLE
  7
MX_NOTE_STANDARD
  9
$CLAYER
  8
0
  9
$CELTYPE
  6
CONTINUOUS
  9
$CECOLOR
 62
     256
  9
$DIMSCALE
 40
1.0
  9
$DIMASZ
 40
2.5
  9
$DIMEXO
 40
1.5
  9
$DIMDLI
 40
3.75
  9
$DIMRND
 40
0.0
  9
$DIMDLE
 40
0.0
  9
$DIMEXE
 40
1.5
  9
$DIMTP
 40
0.0
  9
$DIMTM
 40
0.0
  9
$DIMTXT
 40
3.20000005
  9
$DIMCEN
 40
2.5
  9
$DIMTSZ
 40
0.0
  9
$DIMTOL
 70
       0
  9
$DIMLIM
 70
       0
  9
$DIMTIH
 70
       0
  9
$DIMTOH
 70
       0
  9
$DIMSE1
 70
       0
  9
$DIMSE2
 70
       0
  9
$DIMTAD
 70
       1
  9
$DIMZIN
 70
       8
  9
$DIMBLK
  1

  9
$DIMASO
 70
       1
  9
$DIMSHO
 70
       1
  9
$DIMPOST
  1

  9
$DIMAPOST
  1

  9
$DIMALT
 70
       0
  9
$DIMALTD
 70
       4
  9
$DIMALTF
 40
0.0394
  9
$DIMLFAC
 40
1.0
  9
$DIMTOFL
 70
       1
  9
$DIMTVP
 40
0.0
  9
$DIMTIX
 70
       0
  9
$DIMSOXD
 70
       0
  9
$DIMSAH
 70
       0
  9
$DIMBLK1
  1

  9
$DIMBLK2
  1

  9
$DIMSTYLE
  2
MXDIMSTYLE
  9
$DIMCLRD
 70
       0
  9
$DIMCLRE
 70
       0
  9
$DIMCLRT
 70
       0
  9
$DIMTFAC
 40
1.0
  9
$DIMGAP
 40
1.0
  9
$LUNITS
 70
       2
  9
$LUPREC
 70
       4
  9
$AXISMODE
 70
       0
  9
$AXISUNIT
 10
0.0
 20
0.0
  9
$SKETCHINC
 40
0.1
  9
$FILLETRAD
 40
0.0
  9
$AUNITS
 70
       0
  9
$AUPREC
 70
       0
  9
$MENU
  1
acad
  9
$ELEVATION
 40
0.0
  9
$PELEVATION
 40
0.0
  9
$THICKNESS
 40
0.0
  9
$LIMCHECK
 70
       0
  9
$BLIPMODE
 70
       1
  9
$CHAMFERA
 40
0.0
  9
$CHAMFERB
 40
0.0
  9
$SKPOLY
 70
       0
  9
$TDCREATE
 40
2452521.541631945
  9
$TDUPDATE
 40
2452521.541631945
  9
$TDINDWG
 40
0.0000000000
  9
$TDUSRTIMER
 40
0.0000000000
  9
$USRTIMER
 70
       1
  9
$ANGBASE
 50
0.0
  9
$ANGDIR
 70
       0
  9
$PDMODE
 70
       0
  9
$PDSIZE
 40
0.0
  9
$PLINEWID
 40
0.0
  9
$COORDS
 70
       1
  9
$SPLFRAME
 70
       0
  9
$SPLINETYPE
 70
       6
  9
$SPLINESEGS
 70
       8
  9
$ATTDIA
 70
       0
  9
$ATTREQ
 70
       1
  9
$HANDLING
 70
       1
  9
$HANDSEED
  5
EF
  9
$SURFTAB1
 70
       6
  9
$SURFTAB2
 70
       6
  9
$SURFTYPE
 70
       6
  9
$SURFU
 70
       6
  9
$SURFV
 70
       6
  9
$UCSNAME
  2

  9
$UCSORG
 10
0.0
 20
0.0
 30
0.0
  9
$UCSXDIR
 10
1.0
 20
0.0
 30
0.0
  9
$UCSYDIR
 10
0.0
 20
1.0
 30
0.0
  9
$PUCSNAME
  2

  9
$PUCSORG
 10
0.0
 20
0.0
 30
0.0
  9
$PUCSXDIR
 10
1.0
 20
0.0
 30
0.0
  9
$PUCSYDIR
 10
0.0
 20
1.0
 30
0.0
  9
$USERI1
 70
       0
  9
$USERI2
 70
       0
  9
$USERI3
 70
       0
  9
$USERI4
 70
       0
  9
$USERI5
 70
       0
  9
$USERR1
 40
0.0
  9
$USERR2
 40
0.0
  9
$USERR3
 40
0.0
  9
$USERR4
 40
0.0
  9
$USERR5
 40
0.0
  9
$WORLDVIEW
 70
       1
  9
$SHADEDGE
 70
       3
  9
$SHADEDIF
 70
      70
  9
$TILEMODE
 70
       1
  9
$MAXACTVP
 70
      16
  9
$PINSBASE
 10
0.0
 20
0.0
 30
0.0
  9
$PLIMCHECK
 70
       0
  9
$PEXTMIN
 10
1.00000000E+20
 20
1.00000000E+20
 30
1.00000000E+20
  9
$PEXTMAX
 10
-1.00000000E+20
 20
-1.00000000E+20
 30
-1.00000000E+20
  9
$PLIMMIN
 10
0.0
 20
0.0
  9
$PLIMMAX
 10
12.0
 20
9.0
  9
$UNITMODE
 70
       0
  9
$VISRETAIN
 70
       0
  9
$PLINEGEN
 70
       1
  9
$PSLTSCALE
 70
       0
  9
$TREEDEPTH
 70
    3020
  9
$DWGCODEPAGE
  3
dos932
  0
ENDSEC
  0
SECTION
  2
TABLES
  0
TABLE
  2
VPORT
 70
       1
  0
VPORT
  2
*ACTIVE
 70
       0
 10
0.0
 20
0.0
 11
1.0
 21
1.0
 12
-0.0249939
 22
-0.15000153
 13
0.0
 23
0.0
 14
1.0
 24
1.0
 15
0.0
 25
0.0
 16
0.0
 26
0.0
 36
1.0
 17
0.0
 27
0.0
 37
0.0
 40
191.19300308
 41
1.73205081
 42
50.0
 43
0.0
 44
0.0
 50
0.0
 51
0.0
 71
       0
 72
     100
 73
       1
 74
       1
 75
       0
 76
       0
 77
       0
 78
       0
  0
ENDTAB
  0
TABLE
  2
LTYPE
 70
       3
  0
LTYPE
  2
CONTINUOUS
 70
      64
  3
Solid line
 72
      65
 73
       0
 40
0.0
  0
LTYPE
  2
CENTER
 70
      64
  3
Center ____ _ ____ _ ____ _ ____ _ ____ _ ____
 72
      65
 73
       4
 40
50.8
 49
31.75
 49
-6.35
 49
6.35
 49
-6.35
  0
LTYPE
  2
DASHED
 70
      64
  3
Dashed __ __ __ __ __ __ __ __ __ __ __ __ __ _
 72
      65
 73
       2
 40
19.05
 49
12.7
 49
-6.35
  0
ENDTAB
  0
TABLE
  2
LAYER
 70
       2
  0
LAYER
  2
0
 70
       0
 62
       7
  6
CONTINUOUS
  0
LAYER
  2
DEFPOINTS
 70
       0
 62
       7
  6
CONTINUOUS
  0
ENDTAB
  0
TABLE
  2
STYLE
 70
       1
  0
STYLE
  2
MX_NOTE_STANDARD
 70
       0
 40
3.20000005
 41
1.0
 50
0.0
 71
       0
 42
3.20000005
  3
txt.shx
  4
extfont.shx
  0
ENDTAB
  0
TABLE
  2
VIEW
 70
       0
  0
ENDTAB
  0
TABLE
  2
UCS
 70
       0
  0
ENDTAB
  0
TABLE
  2
APPID
 70
       1
  0
APPID
  2
ACAD
 70
       0
  0
ENDTAB
  0
TABLE
  2
DIMSTYLE
 70
       1
  0
DIMSTYLE
  2
MXDIMSTYLE
 70
       0
  3

  4

  5

  6

  7

 40
1.0
 41
2.5
 42
1.5
 43
3.75
 44
1.5
 45
0.0
 46
0.0
 47
0.0
 48
0.0
 71
       0
 72
       0
 73
       0
 74
       0
 75
       0
 76
       0
 77
       1
 78
       8
140
3.20000005
141
2.5
142
0.0
143
0.0394
144
1.0
145
0.0
146
1.0
147
1.0
170
       0
171
       4
172
       1
173
       0
174
       0
175
       0
176
       0
177
       0
178
       0
  0
ENDTAB
  0
ENDSEC
  0
SECTION
  2
BLOCKS
  0
ENDSEC
  0
SECTION
  2
ENTITIES
  0
LINE
  8
0
  6
CONTINUOUS
 62
       7
  5
1E
 10
-77.78261552
 20
-40.59659612
 30
0.0
 11
-6.78261552
 21
-40.59659612
 31
0.0
  0
LINE
  8
0
  6
CONTINUOUS
 62
       7
  5
1F
 10
-77.78261552
 20
-86.59659612
 30
0.0
 11
-6.78261552
 21
-86.59659612
 31
0.0
  0
LINE
  8
0
  6
CONTINUOUS
 62
       7
  5
20
 10
-78.78261552
 20
-41.59659612
 30
0.0
 11
-78.78261552
 21
-85.59659612
 31
0.0
  0
LINE
  8
0
  6
CONTINUOUS
 62
       7
  5
21
 10
-5.78261552
 20
-41.59659612
 30
0.0
 11
-5.78261552
 21
-85.59659612
 31
0.0
  0
LINE
  8
0
  6
CENTER
 62
       2
  5
23
 10
-60.78261552
 20
73.08340388
 30
0.0
 11
-60.78261552
 21
-17.42659612
 31
0.0
  0
LINE
  8
0
  6
CONTINUOUS
 62
       7
  5
24
 10
-78.78261552
 20
67.89340388
 30
0.0
 11
-78.78261552
 21
-13.60659612
 31
0.0
  0
LINE
  8
0
  6
CONTINUOUS
 62
       7
  5
25
 10
-42.78261552
 20
67.89340388
 30
0.0
 11
-42.78261552
 21
18.39340388
 31
0.0
  0
LINE
  8
0
  6
CONTINUOUS
 62
       7
  5
26
 10
-78.78261552
 20
-13.60659612
 30
0.0
 11
-42.77261552
 21
-13.60659612
 31
0.0
  0
LINE
  8
0
  6
CONTINUOUS
 62
       7
  5
27
 10
-77.78261552
 20
68.89340388
 30
0.0
 11
-43.78261552
 21
68.89340388
 31
0.0
  0
LINE
  8
0
  6
CONTINUOUS
 62
       7
  5
28
 10
-77.78261552
 20
68.89340388
 30
0.0
 11
-78.78261552
 21
67.89340388
 31
0.0
  0
LINE
  8
0
  6
CONTINUOUS
 62
       7
  5
29
 10
-42.78261552
 20
67.89340388
 30
0.0
 11
-43.78261552
 21
68.89340388
 31
0.0
  0
LINE
  8
0
  6
CONTINUOUS
 62
       7
  5
2A
 10
-77.78261552
 20
68.89340388
 30
0.0
 11
-77.78261552
 21
-13.60659612
 31
0.0
  0
LINE
  8
0
  6
CONTINUOUS
 62
       7
  5
2B
 10
-43.78261552
 20
68.89340388
 30
0.0
 11
-43.78261552
 21
18.39340388
 31
0.0
  0
LINE
  8
0
  6
CONTINUOUS
 62
       7
  5
2C
 10
-78.78261552
 20
67.89340388
 30
0.0
 11
-42.78261552
 21
67.89340388
 31
0.0
  0
LINE
  8
0
  6
CONTINUOUS
 62
       7
  5
2D
 10
-78.78261552
 20
-3.60659612
 30
0.0
 11
-5.78261552
 21
-3.60659612
 31
0.0
  0
LINE
  8
0
  6
CONTINUOUS
 62
       7
  5
2E
 10
-78.78261552
 20
18.39340388
 30
0.0
 11
-5.78261552
 21
18.39340388
 31
0.0
  0
LINE
  8
0
  6
CONTINUOUS
 62
       7
  5
2F
 10
-78.78261552
 20
52.19340388
 30
0.0
 11
-42.78261552
 21
52.19340388
 31
0.0
  0
CIRCLE
  8
0
  6
CONTINUOUS
 62
       2
  5
30
 10
-60.77485551
 20
59.89884272
 30
0.0
 40
4.86399937
  0
CIRCLE
  8
0
  6
CONTINUOUS
 62
       7
  5
31
 10
-60.77485551
 20
59.89884272
 30
0.0
 40
4.27799988
  0
CIRCLE
  8
0
  6
CONTINUOUS
 62
       2
  5
32
 10
-60.77485551
 20
29.89884272
 30
0.0
 40
4.86399937
  0
CIRCLE
  8
0
  6
CONTINUOUS
 62
       7
  5
33
 10
-60.77485551
 20
29.89884272
 30
0.0
 40
4.27799988
  0
LINE
  8
0
  6
CENTER
 62
       2
  5
34
 10
-66.78261552
 20
59.89340388
 30
0.0
 11
-54.78261552
 21
59.89340388
 31
0.0
  0
LINE
  8
0
  6
CENTER
 62
       2
  5
35
 10
-66.78261552
 20
29.89340388
 30
0.0
 11
-54.78261552
 21
29.89340388
 31
0.0
  0
LINE
  8
0
  6
CENTER
 62
       2
  5
36
 10
-23.78261552
 20
73.08340388
 30
0.0
 11
-23.78261552
 21
-17.42659612
 31
0.0
  0
LINE
  8
0
  6
CONTINUOUS
 62
       7
  5
37
 10
-41.78261552
 20
67.89340388
 30
0.0
 11
-41.78261552
 21
18.39340388
 31
0.0
  0
LINE
  8
0
  6
CONTINUOUS
 62
       7
  5
38
 10
-5.78261552
 20
67.89340388
 30
0.0
 11
-5.78261552
 21
-13.60659612
 31
0.0
  0
LINE
  8
0
  6
CONTINUOUS
 62
       7
  5
39
 10
-40.78261552
 20
68.89340388
 30
0.0
 11
-6.78261552
 21
68.89340388
 31
0.0
  0
LINE
  8
0
  6
CONTINUOUS
 62
       7
  5
3A
 10
-40.78261552
 20
68.89340388
 30
0.0
 11
-41.78261552
 21
67.89340388
 31
0.0
  0
LINE
  8
0
  6
CONTINUOUS
 62
       7
  5
3B
 10
-5.78261552
 20
67.89340388
 30
0.0
 11
-6.78261552
 21
68.89340388
 31
0.0
  0
LINE
  8
0
  6
CONTINUOUS
 62
       7
  5
3C
 10
-40.78261552
 20
68.89340388
 30
0.0
 11
-40.78261552
 21
18.39340388
 31
0.0
  0
LINE
  8
0
  6
CONTINUOUS
 62
       7
  5
3D
 10
-6.78261552
 20
68.89340388
 30
0.0
 11
-6.78261552
 21
-13.60659612
 31
0.0
  0
LINE
  8
0
  6
CONTINUOUS
 62
       7
  5
3E
 10
-41.78261552
 20
67.89340388
 30
0.0
 11
-5.78261552
 21
67.89340388
 31
0.0
  0
LINE
  8
0
  6
CONTINUOUS
 62
       7
  5
3F
 10
-41.78261552
 20
52.19340388
 30
0.0
 11
-5.78261552
 21
52.19340388
 31
0.0
  0
CIRCLE
  8
0
  6
CONTINUOUS
 62
       2
  5
40
 10
-23.77485551
 20
59.89884272
 30
0.0
 40
4.86399937
  0
CIRCLE
  8
0
  6
CONTINUOUS
 62
       7
  5
41
 10
-23.77485551
 20
59.89884272
 30
0.0
 40
4.27799988
  0
CIRCLE
  8
0
  6
CONTINUOUS
 62
       2
  5
42
 10
-23.77485551
 20
29.89884272
 30
0.0
 40
4.86399937
  0
CIRCLE
  8
0
  6
CONTINUOUS
 62
       7
  5
43
 10
-23.77485551
 20
29.89884272
 30
0.0
 40
4.27799988
  0
CIRCLE
  8
0
  6
CONTINUOUS
 62
       2
  5
44
 10
-23.77485551
 20
6.39884272
 30
0.0
 40
6.57849979
  0
CIRCLE
  8
0
  6
CONTINUOUS
 62
       7
  5
45
 10
-23.77485551
 20
6.39884272
 30
0.0
 40
5.72249985
  0
LINE
  8
0
  6
CENTER
 62
       2
  5
46
 10
-29.78261552
 20
59.89340388
 30
0.0
 11
-17.78261552
 21
59.89340388
 31
0.0
  0
LINE
  8
0
  6
CENTER
 62
       2
  5
47
 10
-29.78261552
 20
29.89340388
 30
0.0
 11
-17.78261552
 21
29.89340388
 31
0.0
  0
LINE
  8
0
  6
CENTER
 62
       2
  5
48
 10
-72.27639275
 20
6.39340388
 30
0.0
 11
-14.78261552
 21
6.39340388
 31
0.0
  0
LINE
  8
0
  6
CENTER
 62
       2
  5
49
 10
71.62738448
 20
71.89340388
 30
0.0
 11
71.62738448
 21
-19.63659612
 31
0.0
  0
LINE
  8
0
  6
CONTINUOUS
 62
       7
  5
4A
 10
94.62738448
 20
-13.60659612
 30
0.0
 11
48.62738448
 21
-13.60659612
 31
0.0
  0
LINE
  8
0
  6
CONTINUOUS
 62
       7
  5
4B
 10
93.62738448
 20
68.89340388
 30
0.0
 11
49.62738448
 21
68.89340388
 31
0.0
  0
LINE
  8
0
  6
CONTINUOUS
 62
       7
  5
4C
 10
48.62738448
 20
67.89340388
 30
0.0
 11
48.62738448
 21
-13.60659612
 31
0.0
  0
LINE
  8
0
  6
CONTINUOUS
 62
       7
  5
4D
 10
94.62738448
 20
67.89340388
 30
0.0
 11
94.62738448
 21
-13.60659612
 31
0.0
  0
LINE
  8
0
  6
CONTINUOUS
 62
       7
  5
4E
 10
93.62738448
 20
68.89340388
 30
0.0
 11
94.62738448
 21
67.89340388
 31
0.0
  0
LINE
  8
0
  6
CONTINUOUS
 62
       7
  5
4F
 10
48.62738448
 20
67.89340388
 30
0.0
 11
49.62738448
 21
68.89340388
 31
0.0
  0
LINE
  8
0
  6
CONTINUOUS
 62
       7
  5
50
 10
49.62738448
 20
68.89340388
 30
0.0
 11
49.62738448
 21
-13.60659612
 31
0.0
  0
LINE
  8
0
  6
CONTINUOUS
 62
       7
  5
51
 10
93.62738448
 20
68.89340388
 30
0.0
 11
93.62738448
 21
-13.60659612
 31
0.0
  0
LINE
  8
0
  6
CONTINUOUS
 62
       7
  5
52
 10
94.62738448
 20
67.89340388
 30
0.0
 11
48.62738448
 21
67.89340388
 31
0.0
  0
LINE
  8
0
  6
CONTINUOUS
 62
       7
  5
53
 10
94.62738448
 20
-3.60659612
 30
0.0
 11
48.62738448
 21
-3.60659612
 31
0.0
  0
LINE
  8
0
  6
CONTINUOUS
 62
       7
  5
54
 10
94.62738448
 20
18.39340388
 30
0.0
 11
48.62738448
 21
18.39340388
 31
0.0
  0
LINE
  8
0
  6
CONTINUOUS
 62
       7
  5
55
 10
94.62738448
 20
52.19340388
 30
0.0
 11
48.62738448
 21
52.19340388
 31
0.0
  0
LINE
  8
0
  6
DASHED
 62
       2
  5
57
 10
48.62738448
 20
55.03340388
 30
0.0
 11
54.82738448
 21
55.22340388
 31
0.0
  0
LINE
  8
0
  6
DASHED
 62
       2
  5
58
 10
48.62738448
 20
55.61340388
 30
0.0
 11
54.82738448
 21
55.81340388
 31
0.0
  0
LINE
  8
0
  6
DASHED
 62
       2
  5
59
 10
48.62738448
 20
64.17340388
 30
0.0
 11
54.82738448
 21
63.98340388
 31
0.0
  0
LINE
  8
0
  6
DASHED
 62
       2
  5
5A
 10
48.62738448
 20
64.76340388
 30
0.0
 11
54.82738448
 21
64.56340388
 31
0.0
  0
LINE
  8
0
  6
DASHED
 62
       2
  5
5B
 10
48.62738448
 20
25.03340388
 30
0.0
 11
54.82738448
 21
25.22340388
 31
0.0
  0
LINE
  8
0
  6
DASHED
 62
       2
  5
5C
 10
48.62738448
 20
25.61340388
 30
0.0
 11
54.82738448
 21
25.81340388
 31
0.0
  0
LINE
  8
0
  6
DASHED
 62
       2
  5
5D
 10
48.62738448
 20
34.17340388
 30
0.0
 11
54.82738448
 21
33.98340388
 31
0.0
  0
LINE
  8
0
  6
DASHED
 62
       2
  5
5E
 10
48.62738448
 20
34.76340388
 30
0.0
 11
54.82738448
 21
34.56340388
 31
0.0
  0
LINE
  8
0
  6
DASHED
 62
       2
  5
5F
 10
94.62738448
 20
12.97340388
 30
0.0
 11
85.22738448
 21
12.68340388
 31
0.0
  0
LINE
  8
0
  6
DASHED
 62
       2
  5
60
 10
94.62738448
 20
12.11340388
 30
0.0
 11
85.22738448
 21
11.82340388
 31
0.0
  0
LINE
  8
0
  6
DASHED
 62
       2
  5
61
 10
94.62738448
 20
0.67340388
 30
0.0
 11
85.22738448
 21
0.96340388
 31
0.0
  0
LINE
  8
0
  6
DASHED
 62
       2
  5
62
 10
94.62738448
 20
-0.18659612
 30
0.0
 11
85.22738448
 21
0.11340388
 31
0.0
  0
LINE
  8
0
  6
DASHED
 62
       2
  5
63
 10
48.62738448
 20
-0.18659612
 30
0.0
 11
58.02738448
 21
0.11340388
 31
0.0
  0
LINE
  8
0
  6
DASHED
 62
       2
  5
64
 10
48.62738448
 20
0.67340388
 30
0.0
 11
58.02738448
 21
0.96340388
 31
0.0
  0
LINE
  8
0
  6
DASHED
 62
       2
  5
65
 10
48.62738448
 20
12.11340388
 30
0.0
 11
58.02738448
 21
11.82340388
 31
0.0
  0
LINE
  8
0
  6
DASHED
 62
       2
  5
66
 10
48.62738448
 20
12.97340388
 30
0.0
 11
58.02738448
 21
12.68340388
 31
0.0
  0
LINE
  8
0
  6
DASHED
 62
       2
  5
67
 10
94.62738448
 20
21.39340388
 30
0.0
 11
89.62738448
 21
21.39340388
 31
0.0
  0
LINE
  8
0
  6
DASHED
 62
       2
  5
68
 10
94.62738448
 20
26.39340388
 30
0.0
 11
89.62738448
 21
26.39340388
 31
0.0
  0
LINE
  8
0
  6
DASHED
 62
       2
  5
69
 10
94.62738448
 20
21.79340388
 30
0.0
 11
89.62738448
 21
21.79340388
 31
0.0
  0
LINE
  8
0
  6
DASHED
 62
       2
  5
6A
 10
94.62738448
 20
25.99340388
 30
0.0
 11
89.62738448
 21
25.99340388
 31
0.0
  0
LINE
  8
0
  6
CENTER
 62
       2
  5
6B
 10
57.62738448
 20
59.89340388
 30
0.0
 11
46.93738448
 21
59.89340388
 31
0.0
  0
LINE
  8
0
  6
CENTER
 62
       2
  5
6C
 10
57.62738448
 20
29.89340388
 30
0.0
 11
46.63738448
 21
29.89340388
 31
0.0
  0
LINE
  8
0
  6
CENTER
 62
       2
  5
6D
 10
96.34738448
 20
6.39340388
 30
0.0
 11
47.22738448
 21
6.39340388
 31
0.0
  0
LINE
  8
0
  6
CENTER
 62
       2
  5
6E
 10
96.94738448
 20
23.89340388
 30
0.0
 11
85.62738448
 21
23.89340388
 31
0.0
  0
LINE
  8
0
  6
CENTER
 62
       2
  5
6F
 10
-80.51050319
 20
-63.59659612
 30
0.0
 11
-2.11261552
 21
-63.59659612
 31
0.0
  0
LINE
  8
0
  6
CENTER
 62
       2
  5
70
 10
-12.28261552
 20
-49.66213276
 30
0.0
 11
-12.28261552
 21
-44.47582335
 31
0.0
  0
LINE
  8
0
  6
CENTER
 62
       2
  5
71
 10
-15.00394034
 20
-47.09659612
 30
0.0
 11
-9.66244786
 21
-47.09659612
 31
0.0
  0
LINE
  8
0
  6
CONTINUOUS
 62
       7
  5
72
 10
-78.78261552
 20
-41.59659612
 30
0.0
 11
-77.78261552
 21
-40.59659612
 31
0.0
  0
LINE
  8
0
  6
CONTINUOUS
 62
       7
  5
73
 10
-78.78261552
 20
-85.59659612
 30
0.0
 11
-77.78261552
 21
-86.59659612
 31
0.0
  0
LINE
  8
0
  6
CONTINUOUS
 62
       7
  5
74
 10
-6.78261552
 20
-86.59659612
 30
0.0
 11
-5.78261552
 21
-85.59659612
 31
0.0
  0
LINE
  8
0
  6
CONTINUOUS
 62
       7
  5
75
 10
-6.78261552
 20
-40.59659612
 30
0.0
 11
-5.78261552
 21
-41.59659612
 31
0.0
  0
LINE
  8
0
  6
CENTER
 62
       2
  5
76
 10
-60.78261552
 20
-38.42659612
 30
0.0
 11
-60.78261552
 21
-80.09659612
 31
0.0
  0
LINE
  8
0
  6
CENTER
 62
       2
  5
77
 10
-23.78261552
 20
-38.42659612
 30
0.0
 11
-23.78261552
 21
-87.86659612
 31
0.0
  0
LINE
  8
0
  6
CENTER
 62
       2
  5
78
 10
-63.78261552
 20
-51.59659612
 30
0.0
 11
-57.78261552
 21
-51.59659612
 31
0.0
  0
LINE
  8
0
  6
CENTER
 62
       2
  5
79
 10
-63.78261552
 20
-75.59659612
 30
0.0
 11
-57.78261552
 21
-75.59659612
 31
0.0
  0
LINE
  8
0
  6
CENTER
 62
       2
  5
7A
 10
-26.78261552
 20
-51.59659612
 30
0.0
 11
-20.78261552
 21
-51.59659612
 31
0.0
  0
LINE
  8
0
  6
CENTER
 62
       2
  5
7B
 10
-26.78261552
 20
-75.59659612
 30
0.0
 11
-20.78261552
 21
-75.59659612
 31
0.0
  0
CIRCLE
  8
0
  6
CONTINUOUS
 62
       2
  5
7C
 10
-60.77485551
 20
-51.60115728
 30
0.0
 40
2.0
  0
CIRCLE
  8
0
  6
CONTINUOUS
 62
       7
  5
7D
 10
-60.77485551
 20
-51.60115728
 30
0.0
 40
1.64999962
  0
CIRCLE
  8
0
  6
CONTINUOUS
 62
       2
  5
7E
 10
-60.77485551
 20
-75.60115728
 30
0.0
 40
2.0
  0
CIRCLE
  8
0
  6
CONTINUOUS
 62
       7
  5
7F
 10
-60.77485551
 20
-75.60115728
 30
0.0
 40
1.64999962
  0
CIRCLE
  8
0
  6
CONTINUOUS
 62
       2
  5
80
 10
-23.77485551
 20
-75.60115728
 30
0.0
 40
2.0
  0
CIRCLE
  8
0
  6
CONTINUOUS
 62
       7
  5
81
 10
-23.77485551
 20
-75.60115728
 30
0.0
 40
1.64999962
  0
CIRCLE
  8
0
  6
CONTINUOUS
 62
       2
  5
82
 10
-23.77485551
 20
-51.60115728
 30
0.0
 40
2.0
  0
CIRCLE
  8
0
  6
CONTINUOUS
 62
       7
  5
83
 10
-23.77485551
 20
-51.60115728
 30
0.0
 40
1.64999962
  0
LINE
  8
0
  6
DASHED
 62
       2
  5
84
 10
-17.20261552
 20
-86.59659612
 30
0.0
 11
-17.49261552
 21
-77.19659612
 31
0.0
  0
LINE
  8
0
  6
DASHED
 62
       2
  5
85
 10
-18.05261552
 20
-86.59659612
 30
0.0
 11
-18.35261552
 21
-77.19659612
 31
0.0
  0
LINE
  8
0
  6
DASHED
 62
       2
  5
86
 10
-29.50261552
 20
-86.59659612
 30
0.0
 11
-29.21261552
 21
-77.19659612
 31
0.0
  0
LINE
  8
0
  6
DASHED
 62
       2
  5
87
 10
-30.36261552
 20
-86.59659612
 30
0.0
 11
-30.06261552
 21
-77.19659612
 31
0.0
  0
LINE
  8
0
  6
DASHED
 62
       2
  5
88
 10
-54.20261552
 20
-40.59659612
 30
0.0
 11
-54.49261552
 21
-49.99659612
 31
0.0
  0
LINE
  8
0
  6
DASHED
 62
       2
  5
89
 10
-55.05261552
 20
-40.59659612
 30
0.0
 11
-55.35261552
 21
-49.99659612
 31
0.0
  0
LINE
  8
0
  6
DASHED
 62
       2
  5
8A
 10
-66.50261552
 20
-40.59659612
 30
0.0
 11
-66.21261552
 21
-49.99659612
 31
0.0
  0
LINE
  8
0
  6
DASHED
 62
       2
  5
8B
 10
-67.36261552
 20
-40.59659612
 30
0.0
 11
-67.06261552
 21
-49.99659612
 31
0.0
  0
LINE
  8
0
  6
DASHED
 62
       2
  5
8C
 10
-30.36261552
 20
-40.59659612
 30
0.0
 11
-30.06261552
 21
-49.99659612
 31
0.0
  0
LINE
  8
0
  6
DASHED
 62
       2
  5
8D
 10
-29.50261552
 20
-40.59659612
 30
0.0
 11
-29.21261552
 21
-49.99659612
 31
0.0
  0
LINE
  8
0
  6
DASHED
 62
       2
  5
8E
 10
-18.05261552
 20
-40.59659612
 30
0.0
 11
-18.35261552
 21
-49.99659612
 31
0.0
  0
LINE
  8
0
  6
DASHED
 62
       2
  5
8F
 10
-17.20261552
 20
-40.59659612
 30
0.0
 11
-17.49261552
 21
-49.99659612
 31
0.0
  0
CIRCLE
  8
0
  6
CONTINUOUS
 62
       7
  5
90
 10
79.6330577
 20
6.39884272
 30
0.0
 40
3.75
  0
CIRCLE
  8
0
  6
CONTINUOUS
 62
       7
  5
91
 10
79.6330577
 20
6.39884272
 30
0.0
 40
5.0
  0
CIRCLE
  8
0
  6
CONTINUOUS
 62
       7
  5
92
 10
79.6330577
 20
6.39884272
 30
0.0
 40
4.5
  0
LINE
  8
0
  6
CONTINUOUS
 62
       7
  5
93
 10
83.32738448
 20
5.79340388
 30
0.0
 11
75.92738448
 21
5.79340388
 31
0.0
  0
LINE
  8
0
  6
CONTINUOUS
 62
       7
  5
94
 10
83.32738448
 20
6.99340388
 30
0.0
 11
75.92738448
 21
6.99340388
 31
0.0
  0
LINE
  8
0
  6
CONTINUOUS
 62
       7
  5
95
 10
-5.28261552
 20
5.79340388
 30
0.0
 11
-3.78261552
 21
5.79340388
 31
0.0
  0
LINE
  8
0
  6
CONTINUOUS
 62
       7
  5
96
 10
-5.28261552
 20
6.99340388
 30
0.0
 11
-3.78261552
 21
6.99340388
 31
0.0
  0
LINE
  8
0
  6
CONTINUOUS
 62
       7
  5
97
 10
-5.78261552
 20
2.64340388
 30
0.0
 11
-3.78261552
 21
2.64340388
 31
0.0
  0
LINE
  8
0
  6
CONTINUOUS
 62
       7
  5
98
 10
-5.78261552
 20
10.14340388
 30
0.0
 11
-3.78261552
 21
10.14340388
 31
0.0
  0
LINE
  8
0
  6
CONTINUOUS
 62
       7
  5
99
 10
-3.78261552
 20
10.14340388
 30
0.0
 11
-3.78261552
 21
6.99340388
 31
0.0
  0
LINE
  8
0
  6
CONTINUOUS
 62
       7
  5
9A
 10
-5.28261552
 20
6.99340388
 30
0.0
 11
-5.28261552
 21
5.79340388
 31
0.0
  0
LINE
  8
0
  6
CONTINUOUS
 62
       7
  5
9B
 10
-3.78261552
 20
5.79340388
 30
0.0
 11
-3.78261552
 21
2.64340388
 31
0.0
  0
LINE
  8
0
  6
CONTINUOUS
 62
       7
  5
9C
 10
-5.78261552
 20
-75.34659612
 30
0.0
 11
-3.78261552
 21
-75.34659612
 31
0.0
  0
LINE
  8
0
  6
CONTINUOUS
 62
       7
  5
9D
 10
-5.78261552
 20
-67.84659612
 30
0.0
 11
-3.78261552
 21
-67.84659612
 31
0.0
  0
LINE
  8
0
  6
CONTINUOUS
 62
       7
  5
9E
 10
-3.78261552
 20
-67.84659612
 30
0.0
 11
-3.78261552
 21
-75.34659612
 31
0.0
  0
CIRCLE
  8
0
  6
CONTINUOUS
 62
       7
  5
9F
 10
-23.77485551
 20
59.89884272
 30
0.0
 40
3.77799988
  0
LINE
  8
0
  6
CONTINUOUS
 62
       7
  5
A0
 10
-21.28261552
 20
61.33677955
 30
0.0
 11
-21.28261552
 21
58.45002821
 31
0.0
  0
LINE
  8
0
  6
CONTINUOUS
 62
       7
  5
A1
 10
-26.28261552
 20
61.33677955
 30
0.0
 11
-26.28261552
 21
58.45002821
 31
0.0
  0
LINE
  8
0
  6
CONTINUOUS
 62
       7
  5
A2
 10
-23.78261552
 20
57.00665253
 30
0.0
 11
-21.28261552
 21
58.45002821
 31
0.0
  0
LINE
  8
0
  6
CONTINUOUS
 62
       7
  5
A3
 10
-26.28261552
 20
61.33677955
 30
0.0
 11
-23.78261552
 21
62.78015523
 31
0.0
  0
LINE
  8
0
  6
CONTINUOUS
 62
       7
  5
A4
 10
-21.28261552
 20
61.33677955
 30
0.0
 11
-23.78261552
 21
62.78015523
 31
0.0
  0
LINE
  8
0
  6
CONTINUOUS
 62
       7
  5
A5
 10
-23.78261552
 20
57.00665253
 30
0.0
 11
-26.28261552
 21
58.45002821
 31
0.0
  0
CIRCLE
  8
0
  6
CONTINUOUS
 62
       7
  5
A6
 10
-23.78261552
 20
59.89340388
 30
0.0
 40
1.0
  0
LINE
  8
0
  6
CONTINUOUS
 62
       7
  5
A7
 10
-63.28261552
 20
61.33677955
 30
0.0
 11
-63.28261552
 21
58.45002821
 31
0.0
  0
LINE
  8
0
  6
CONTINUOUS
 62
       7
  5
A8
 10
-63.28261552
 20
61.33677955
 30
0.0
 11
-60.78261552
 21
62.78015523
 31
0.0
  0
CIRCLE
  8
0
  6
CONTINUOUS
 62
       7
  5
A9
 10
-60.77485551
 20
59.89884272
 30
0.0
 40
3.77799988
  0
LINE
  8
0
  6
CONTINUOUS
 62
       7
  5
AA
 10
-58.28261552
 20
61.33677955
 30
0.0
 11
-60.78261552
 21
62.78015523
 31
0.0
  0
LINE
  8
0
  6
CONTINUOUS
 62
       7
  5
AB
 10
-58.28261552
 20
61.33677955
 30
0.0
 11
-58.28261552
 21
58.45002821
 31
0.0
  0
CIRCLE
  8
0
  6
CONTINUOUS
 62
       7
  5
AC
 10
-60.78261552
 20
59.89340388
 30
0.0
 40
1.0
  0
LINE
  8
0
  6
CONTINUOUS
 62
       7
  5
AD
 10
-60.78261552
 20
57.00665253
 30
0.0
 11
-58.28261552
 21
58.45002821
 31
0.0
  0
LINE
  8
0
  6
CONTINUOUS
 62
       7
  5
AE
 10
-60.78261552
 20
57.00665253
 30
0.0
 11
-63.28261552
 21
58.45002821
 31
0.0
  0
LINE
  8
0
  6
CONTINUOUS
 62
       7
  5
AF
 10
-42.77261552
 20
-3.60659612
 30
0.0
 11
-42.77261552
 21
-13.60659612
 31
0.0
  0
LINE
  8
0
  6
CONTINUOUS
 62
       7
  5
B0
 10
-41.78261552
 20
-3.60659612
 30
0.0
 11
-41.78261552
 21
-13.60659612
 31
0.0
  0
LINE
  8
0
  6
CONTINUOUS
 62
       7
  5
B1
 10
-41.78261552
 20
-13.60659612
 30
0.0
 11
-5.78261552
 21
-13.60659612
 31
0.0
  0
LINE
  8
0
  6
CONTINUOUS
 62
       7
  5
B2
 10
-40.78261552
 20
-3.60659612
 30
0.0
 11
-40.78261552
 21
-13.60659612
 31
0.0
  0
LINE
  8
0
  6
CONTINUOUS
 62
       7
  5
B3
 10
-43.77261552
 20
-3.60659612
 30
0.0
 11
-43.77261552
 21
-13.60659612
 31
0.0
  0
LINE
  8
0
  6
CONTINUOUS
 62
       7
  5
B4
 10
-42.77261552
 20
-41.59659612
 30
0.0
 11
-42.77261552
 21
-85.59659612
 31
0.0
  0
LINE
  8
0
  6
CONTINUOUS
 62
       7
  5
B5
 10
-41.78261552
 20
-41.59659612
 30
0.0
 11
-41.78261552
 21
-85.59659612
 31
0.0
  0
LINE
  8
0
  6
CONTINUOUS
 62
       7
  5
B6
 10
-41.78261552
 20
-41.59659612
 30
0.0
 11
-40.78261552
 21
-40.59659612
 31
0.0
  0
LINE
  8
0
  6
CONTINUOUS
 62
       7
  5
B7
 10
-41.78261552
 20
-85.59659612
 30
0.0
 11
-40.78261552
 21
-86.59659612
 31
0.0
  0
LINE
  8
0
  6
CONTINUOUS
 62
       7
  5
B8
 10
-42.77261552
 20
-85.59659612
 30
0.0
 11
-43.77261552
 21
-86.59659612
 31
0.0
  0
LINE
  8
0
  6
CONTINUOUS
 62
       7
  5
B9
 10
-42.77261552
 20
-41.59659612
 30
0.0
 11
-43.77261552
 21
-40.59659612
 31
0.0
  0
LINE
  8
0
  6
CENTER
 62
       2
  5
BA
 10
-48.78261552
 20
-59.41915749
 30
0.0
 11
-48.78261552
 21
-68.06956501
 31
0.0
  0
CIRCLE
  8
0
  6
CONTINUOUS
 62
       2
  5
BB
 10
-48.77485551
 20
-63.60115728
 30
0.0
 40
2.0
  0
CIRCLE
  8
0
  6
CONTINUOUS
 62
       7
  5
BC
 10
-48.77485551
 20
-63.60115728
 30
0.0
 40
1.64999962
  0
LINE
  8
0
  6
CENTER
 62
       2
  5
BD
 10
-72.78261552
 20
-59.41915749
 30
0.0
 11
-72.78261552
 21
-68.06956501
 31
0.0
  0
CIRCLE
  8
0
  6
CONTINUOUS
 62
       2
  5
BE
 10
-72.79037553
 20
-63.60115728
 30
0.0
 40
2.0
  0
CIRCLE
  8
0
  6
CONTINUOUS
 62
       7
  5
BF
 10
-72.79037553
 20
-63.60115728
 30
0.0
 40
1.64999962
  0
LINE
  8
0
  6
CENTER
 62
       2
  5
C0
 10
-35.77261552
 20
-59.41915749
 30
0.0
 11
-35.77261552
 21
-68.06956501
 31
0.0
  0
CIRCLE
  8
0
  6
CONTINUOUS
 62
       2
  5
C1
 10
-35.78037553
 20
-63.60115728
 30
0.0
 40
2.0
  0
CIRCLE
  8
0
  6
CONTINUOUS
 62
       7
  5
C2
 10
-35.78037553
 20
-63.60115728
 30
0.0
 40
1.64999962
  0
LINE
  8
0
  6
CENTER
 62
       2
  5
C3
 10
-11.77261552
 20
-59.41915749
 30
0.0
 11
-11.77261552
 21
-68.06956501
 31
0.0
  0
CIRCLE
  8
0
  6
CONTINUOUS
 62
       2
  5
C4
 10
-11.76485551
 20
-63.60115728
 30
0.0
 40
2.0
  0
CIRCLE
  8
0
  6
CONTINUOUS
 62
       7
  5
C5
 10
-11.76485551
 20
-63.60115728
 30
0.0
 40
1.64999962
  0
CIRCLE
  8
0
  6
CONTINUOUS
 62
       7
  5
C6
 10
-12.28261552
 20
-47.09659612
 30
0.0
 40
2.0
  0
LINE
  8
0
  6
CENTER
 62
       2
  5
C7
 10
-35.28261552
 20
-49.66213276
 30
0.0
 11
-35.28261552
 21
-44.47582335
 31
0.0
  0
CIRCLE
  8
0
  6
CONTINUOUS
 62
       7
  5
C8
 10
-35.28261552
 20
-47.09659612
 30
0.0
 40
2.0
  0
LINE
  8
0
  6
CENTER
 62
       2
  5
C9
 10
-38.00394034
 20
-47.09659612
 30
0.0
 11
-32.66244786
 21
-47.09659612
 31
0.0
  0
LINE
  8
0
  6
CENTER
 62
       2
  5
CA
 10
-12.28261552
 20
-82.66213276
 30
0.0
 11
-12.28261552
 21
-77.47582335
 31
0.0
  0
CIRCLE
  8
0
  6
CONTINUOUS
 62
       7
  5
CB
 10
-12.28261552
 20
-80.09659612
 30
0.0
 40
2.0
  0
LINE
  8
0
  6
CENTER
 62
       2
  5
CC
 10
-15.00394034
 20
-80.09659612
 30
0.0
 11
-9.66244786
 21
-80.09659612
 31
0.0
  0
LINE
  8
0
  6
CENTER
 62
       2
  5
CD
 10
-35.28261552
 20
-82.66213276
 30
0.0
 11
-35.28261552
 21
-77.47582335
 31
0.0
  0
CIRCLE
  8
0
  6
CONTINUOUS
 62
       7
  5
CE
 10
-35.28261552
 20
-80.09659612
 30
0.0
 40
2.0
  0
LINE
  8
0
  6
CENTER
 62
       2
  5
CF
 10
-38.00394034
 20
-80.09659612
 30
0.0
 11
-32.66244786
 21
-80.09659612
 31
0.0
  0
LINE
  8
0
  6
CENTER
 62
       2
  5
D0
 10
-49.28261552
 20
-49.66213276
 30
0.0
 11
-49.28261552
 21
-44.47582335
 31
0.0
  0
CIRCLE
  8
0
  6
CONTINUOUS
 62
       7
  5
D1
 10
-49.28261552
 20
-47.09659612
 30
0.0
 40
2.0
  0
LINE
  8
0
  6
CENTER
 62
       2
  5
D2
 10
-52.00394034
 20
-47.09659612
 30
0.0
 11
-46.66244786
 21
-47.09659612
 31
0.0
  0
LINE
  8
0
  6
CENTER
 62
       2
  5
D3
 10
-49.28261552
 20
-82.66213276
 30
0.0
 11
-49.28261552
 21
-77.47582335
 31
0.0
  0
CIRCLE
  8
0
  6
CONTINUOUS
 62
       7
  5
D4
 10
-49.28261552
 20
-80.09659612
 30
0.0
 40
2.0
  0
LINE
  8
0
  6
CENTER
 62
       2
  5
D5
 10
-52.00394034
 20
-80.09659612
 30
0.0
 11
-46.66244786
 21
-80.09659612
 31
0.0
  0
LINE
  8
0
  6
CENTER
 62
       2
  5
D6
 10
-72.28261552
 20
-49.66213276
 30
0.0
 11
-72.28261552
 21
-44.47582335
 31
0.0
  0
CIRCLE
  8
0
  6
CONTINUOUS
 62
       7
  5
D7
 10
-72.28261552
 20
-47.09659612
 30
0.0
 40
2.0
  0
LINE
  8
0
  6
CENTER
 62
       2
  5
D8
 10
-75.00394034
 20
-47.09659612
 30
0.0
 11
-69.66244786
 21
-47.09659612
 31
0.0
  0
LINE
  8
0
  6
CENTER
 62
       2
  5
D9
 10
-72.28261552
 20
-82.66213276
 30
0.0
 11
-72.28261552
 21
-77.47582335
 31
0.0
  0
CIRCLE
  8
0
  6
CONTINUOUS
 62
       7
  5
DA
 10
-72.28261552
 20
-80.09659612
 30
0.0
 40
2.0
  0
LINE
  8
0
  6
CENTER
 62
       2
  5
DB
 10
-75.00394034
 20
-80.09659612
 30
0.0
 11
-69.66244786
 21
-80.09659612
 31
0.0
  0
LINE
  8
0
  6
DASHED
 62
       2
  5
DC
 10
84.12738448
 20
50.19340388
 30
0.0
 11
59.12738448
 21
50.19340388
 31
0.0
  0
LINE
  8
0
  6
DASHED
 62
       2
  5
DD
 10
84.12738448
 20
28.69340388
 30
0.0
 11
59.12738448
 21
28.69340388
 31
0.0
  0
LINE
  8
0
  6
DASHED
 62
       2
  5
DE
 10
85.12738448
 20
49.19340388
 30
0.0
 11
85.12738448
 21
29.69340388
 31
0.0
  0
LINE
  8
0
  6
DASHED
 62
       2
  5
DF
 10
58.12738448
 20
49.19340388
 30
0.0
 11
58.12738448
 21
29.69340388
 31
0.0
  0
ARC
  8
0
  6
DASHED
 62
       2
  5
E0
 10
59.12738448
 20
49.19340388
 30
0.0
 40
1.0
 50
90.0
 51
180.0
  0
ARC
  8
0
  6
DASHED
 62
       2
  5
E1
 10
84.12738448
 20
49.19340388
 30
0.0
 40
1.0
 50
0.0
 51
90.0
  0
ARC
  8
0
  6
DASHED
 62
       2
  5
E2
 10
84.12738448
 20
29.69340388
 30
0.0
 40
1.0
 50
270.0
 51
0.0
  0
ARC
  8
0
  6
DASHED
 62
       2
  5
E3
 10
59.12738448
 20
29.69340388
 30
0.0
 40
1.0
 50
180.0
 51
270.0
  0
LINE
  8
0
  6
CENTER
 62
       2
  5
E4
 10
79.62738448
 20
12.83410728
 30
0.0
 11
79.62738448
 21
-0.74923694
 31
0.0
  0
CIRCLE
  8
0
  6
CONTINUOUS
 62
       2
  5
E5
 10
-60.77485551
 20
6.39884272
 30
0.0
 40
6.57849979
  0
CIRCLE
  8
0
  6
CONTINUOUS
 62
       7
  5
E6
 10
-60.77485551
 20
6.39884272
 30
0.0
 40
5.72249985
  0
LINE
  8
0
  6
CENTER
 62
       2
  5
E7
 10
-7.62321452
 20
-71.59659612
 30
0.0
 11
-2.54770154
 21
-71.59659612
 31
0.0
  0
LINE
  8
0
  6
CONTINUOUS
 62
       7
  5
E8
 10
-138.3999939
 20
94.5
 30
0.0
 11
138.3500061
 21
94.5
 31
0.0
  0
LINE
  8
0
  6
CONTINUOUS
 62
       7
  5
E9
 10
138.3500061
 20
94.5
 30
0.0
 11
138.3500061
 21
-94.80000305
 31
0.0
  0
LINE
  8
0
  6
CONTINUOUS
 62
       7
  5
EA
 10
-138.3999939
 20
-94.80000305
 30
0.0
 11
138.3500061
 21
-94.80000305
 31
0.0
  0
LINE
  8
0
  6
CONTINUOUS
 62
       7
  5
EB
 10
-138.3999939
 20
94.5
 30
0.0
 11
-138.3999939
 21
-94.80000305
 31
0.0
  0
TEXT
  8
0
  6
CONTINUOUS
 62
       7
  5
EC
 10
-129.45224609
 20
82.9000001
 30
0.0
 40
3.19999981
  1
MODEL:F-DAV250-C-SB
 41
1.02702703
  7
MX_NOTE_STANDARD
 11
-129.45224609
 21
84.5
 31
0.0
 73
       2
  0
ENDSEC
  0
EOF
