  0
SECTION
  2
HEADER
  9
$ACADVER
  1
AC1012
  9
$DWGCODEPAGE
  3
dos932
  9
$INSBASE
 10
0.0
 20
0.0
 30
0.0
  9
$EXTMIN
 10
-399.25
 20
-276.75
 30
0.0
  9
$EXTMAX
 10
406.09414987197181
 20
276.25
 30
0.0
  9
$LIMMIN
 10
-399.25
 20
-276.75
  9
$LIMMAX
 10
406.09414987197181
 20
276.25
  9
$ORTHOMODE
 70
               0
  9
$REGENMODE
 70
               1
  9
$FILLMODE
 70
               1
  9
$QTEXTMODE
 70
               0
  9
$MIRRTEXT
 70
               1
  9
$DRAGMODE
 70
               2
  9
$LTSCALE
 40
1.0
  9
$OSMODE
 70
               0
  9
$ATTMODE
 70
               1
  9
$TEXTSIZE
 40
3.2000000476837158
  9
$TRACEWID
 40
0.05
  9
$TEXTSTYLE
  7
MX_NOTE_STANDARD
  9
$CLAYER
  8
0
  9
$CELTYPE
  6
CONTINUOUS
  9
$CECOLOR
 62
             256
  9
$CELTSCALE
 40
1.0
  9
$DELOBJ
 70
               1
  9
$DISPSILH
 70
               0
  9
$DIMSCALE
 40
1.0
  9
$DIMASZ
 40
2.5
  9
$DIMEXO
 40
1.5
  9
$DIMDLI
 40
3.75
  9
$DIMRND
 40
0.0
  9
$DIMDLE
 40
0.0
  9
$DIMEXE
 40
1.5
  9
$DIMTP
 40
0.0
  9
$DIMTM
 40
0.0
  9
$DIMTXT
 40
3.2000000476837158
  9
$DIMCEN
 40
2.5
  9
$DIMTSZ
 40
0.0
  9
$DIMTOL
 70
               0
  9
$DIMLIM
 70
               0
  9
$DIMTIH
 70
               0
  9
$DIMTOH
 70
               0
  9
$DIMSE1
 70
               0
  9
$DIMSE2
 70
               0
  9
$DIMTAD
 70
               1
  9
$DIMZIN
 70
               8
  9
$DIMBLK
  1

  9
$DIMASO
 70
               1
  9
$DIMSHO
 70
               1
  9
$DIMPOST
  1

  9
$DIMAPOST
  1

  9
$DIMALT
 70
               0
  9
$DIMALTD
 70
               4
  9
$DIMALTF
 40
0.03937007874016
  9
$DIMLFAC
 40
1.0
  9
$DIMTOFL
 70
               1
  9
$DIMTVP
 40
0.0
  9
$DIMTIX
 70
               0
  9
$DIMSOXD
 70
               0
  9
$DIMSAH
 70
               0
  9
$DIMBLK1
  1

  9
$DIMBLK2
  1

  9
$DIMSTYLE
  2
MXDIMSTYLE
  9
$DIMCLRD
 70
               0
  9
$DIMCLRE
 70
               0
  9
$DIMCLRT
 70
               0
  9
$DIMTFAC
 40
1.0
  9
$DIMGAP
 40
1.0
  9
$DIMJUST
 70
               0
  9
$DIMSD1
 70
               0
  9
$DIMSD2
 70
               0
  9
$DIMTOLJ
 70
               1
  9
$DIMTZIN
 70
               0
  9
$DIMALTZ
 70
               0
  9
$DIMALTTZ
 70
               0
  9
$DIMFIT
 70
               3
  9
$DIMUPT
 70
               1
  9
$DIMUNIT
 70
               2
  9
$DIMDEC
 70
               4
  9
$DIMTDEC
 70
               4
  9
$DIMALTU
 70
               2
  9
$DIMALTTD
 70
               4
  9
$DIMTXSTY
  7
MX_NOTE_STANDARD
  9
$DIMAUNIT
 70
               0
  9
$LUNITS
 70
               2
  9
$LUPREC
 70
               4
  9
$SKETCHINC
 40
0.1
  9
$FILLETRAD
 40
0.0
  9
$AUNITS
 70
               0
  9
$AUPREC
 70
               0
  9
$MENU
  1
acad
  9
$ELEVATION
 40
0.0
  9
$PELEVATION
 40
0.0
  9
$THICKNESS
 40
0.0
  9
$LIMCHECK
 70
               0
  9
$BLIPMODE
 70
               1
  9
$CHAMFERA
 40
0.0
  9
$CHAMFERB
 40
0.0
  9
$CHAMFERC
 40
0.0
  9
$CHAMFERD
 40
0.0
  9
$SKPOLY
 70
               0
  9
$TDCREATE
 40
2453378.356388889
  9
$TDUPDATE
 40
2453378.356388889
  9
$TDINDWG
 40
0.0000000000
  9
$TDUSRTIMER
 40
0.0000000000
  9
$USRTIMER
 70
               1
  9
$ANGBASE
 50
0.0
  9
$ANGDIR
 70
               0
  9
$PDMODE
 70
               0
  9
$PDSIZE
 40
0.0
  9
$PLINEWID
 40
0.0
  9
$COORDS
 70
               1
  9
$SPLFRAME
 70
               0
  9
$SPLINETYPE
 70
               6
  9
$SPLINESEGS
 70
               8
  9
$ATTDIA
 70
               0
  9
$ATTREQ
 70
               1
  9
$HANDLING
 70
               1
  9
$HANDSEED
  5
759
  9
$SURFTAB1
 70
               6
  9
$SURFTAB2
 70
               6
  9
$SURFTYPE
 70
               6
  9
$SURFU
 70
               6
  9
$SURFV
 70
               6
  9
$UCSNAME
  2

  9
$UCSORG
 10
0.0
 20
0.0
 30
0.0
  9
$UCSXDIR
 10
1.0
 20
0.0
 30
0.0
  9
$UCSYDIR
 10
0.0
 20
1.0
 30
0.0
  9
$PUCSNAME
  2

  9
$PUCSORG
 10
0.0
 20
0.0
 30
0.0
  9
$PUCSXDIR
 10
1.0
 20
0.0
 30
0.0
  9
$PUCSYDIR
 10
0.0
 20
1.0
 30
0.0
  9
$USERI1
 70
               0
  9
$USERI2
 70
               0
  9
$USERI3
 70
               0
  9
$USERI4
 70
               0
  9
$USERI5
 70
               0
  9
$USERR1
 40
0.0
  9
$USERR2
 40
0.0
  9
$USERR3
 40
0.0
  9
$USERR4
 40
0.0
  9
$USERR5
 40
0.0
  9
$WORLDVIEW
 70
               1
  9
$SHADEDGE
 70
               3
  9
$SHADEDIF
 70
              70
  9
$TILEMODE
 70
               1
  9
$MAXACTVP
 70
              16
  9
$PINSBASE
 10
0.0
 20
0.0
 30
0.0
  9
$PLIMCHECK
 70
               0
  9
$PEXTMIN
 10
1.0000000000000000E+20
 20
1.0000000000000000E+20
 30
1.0000000000000000E+20
  9
$PEXTMAX
 10
-1.0000000000000000E+20
 20
-1.0000000000000000E+20
 30
-1.0000000000000000E+20
  9
$PLIMMIN
 10
0.0
 20
0.0
  9
$PLIMMAX
 10
12.0
 20
9.0
  9
$UNITMODE
 70
               0
  9
$VISRETAIN
 70
               0
  9
$PLINEGEN
 70
               1
  9
$PSLTSCALE
 70
               0
  9
$TREEDEPTH
 70
            3020
  9
$PICKSTYLE
 70
               1
  9
$CMLSTYLE
  2
Standard
  9
$CMLJUST
 70
               0
  9
$CMLSCALE
 40
1.0
  9
$SAVEIMAGES
 70
               0
  0
ENDSEC
  0
SECTION
  2
CLASSES
  0
CLASS
  1
LWPOLYLINE
  2
AcDbPolyline
  3
"AutoCAD"
 90
        0
280
               0
281
               1
  0
CLASS
  1
IMAGE
  2
AcDbRasterImage
  3
ISM
 90
      127
280
               0
281
               1
  0
CLASS
  1
OLE2FRAME
  2
AcDbOle2Frame
  3
""
 90
        0
280
               0
281
               1
  0
CLASS
  1
HATCH
  2
AcDbHatch
  3
"ACAD_SEDONA"
 90
        0
280
               0
281
               1
  0
CLASS
  1
DICTIONARYVAR
  2
AcDbDictionaryVar
  3
"AutoCAD"
 90
        0
280
               0
281
               0
  0
CLASS
  1
RASTERVARIABLES
  2
AcDbRasterVariables
  3
ISM
 90
        0
280
               0
281
               0
  0
CLASS
  1
IMAGEDEF
  2
AcDbRasterImageDef
  3
ISM
 90
        0
280
               0
281
               0
  0
CLASS
  1
IMAGEDEF_REACTOR
  2
AcDbRasterImageDefReactor
  3
ISM
 90
        1
280
               0
281
               0
  0
CLASS
  1
IDBUFFER
  2
AcDbIdBuffer
  3
"Acad"
 90
        0
280
               0
281
               0
  0
CLASS
  1
SPATIAL_FILTER
  2
AcDbSpatialFilter
  3
"Acad"
 90
        0
280
               0
281
               0
  0
CLASS
  1
XRECORD
  2
AcDbXrecord
  3
"<Built In>"
 90
        0
280
               0
281
               0
  0
CLASS
  1
SORTENTSTABLE
  2
AcDbSortentsTable
  3
"AutoCAD"
 90
        0
280
               0
281
               0
  0
CLASS
  1
LAYER_INDEX
  2
AcDbLayerIndex
  3
"Acad"
 90
        0
280
               0
281
               0
  0
CLASS
  1
SPATIAL_INDEX
  2
AcDbSpatialIndex
  3
"Acad"
 90
        0
280
               0
281
               0
  0
CLASS
  1
OBJECT_PTR
  2
CAseDLPNTableRecord
  3
"ASE-LPNTableRecord"
 90
        1
280
               0
281
               0
  0
CLASS
  1
LAYOUT
  2
AcDbLayout
  3
"AutoCAD 2000"
 90
        1
280
               0
281
               0
  0
CLASS
  1
PLOTSETTINGS
  2
AcDbPlotSettings
  3
"AutoCAD 2000"
 90
        1
280
               0
281
               0
  0
CLASS
  1
ACDBDICTIONARYWDFLT
  2
AcDbDictionaryWithDefault
  3
"AutoCAD 2000"
 90
        1
280
               0
281
               0
  0
CLASS
  1
ACDBPLACEHOLDER
  2
AcDbPlaceHolder
  3
"AutoCAD 2000"
 90
        1
280
               0
281
               0
  0
ENDSEC
  0
SECTION
  2
TABLES
  0
TABLE
  2
VPORT
  5
7
100
AcDbSymbolTable
 70
               1
  0
VPORT
  5
15
100
AcDbSymbolTableRecord
100
AcDbViewportTableRecord
  2
*ACTIVE
 70
               0
 10
0.0
 20
0.0
 11
1.0
 21
1.0
 12
3.4220749359859042
 22
-0.25
 13
0.0
 23
0.0
 14
1.0
 24
1.0
 15
0.0
 25
0.0
 16
0.0
 26
0.0
 36
1.0
 17
0.0
 27
0.0
 37
0.0
 40
558.52999999999997
 41
1.7320508075688772
 42
50.0
 43
0.0
 44
0.0
 50
0.0
 51
0.0
 71
               0
 72
             100
 73
               1
 74
               1
 75
               0
 76
               0
 77
               0
 78
               0
  0
ENDTAB
  0
TABLE
  2
LTYPE
  5
4
100
AcDbSymbolTable
 70
               5
  0
LTYPE
  5
11
100
AcDbSymbolTableRecord
100
AcDbLinetypeTableRecord
  2
BYBLOCK
 70
              64
  3

 72
              65
 73
               0
 40
0.0
  0
LTYPE
  5
12
100
AcDbSymbolTableRecord
100
AcDbLinetypeTableRecord
  2
BYLAYER
 70
              64
  3

 72
              65
 73
               0
 40
0.0
  0
LTYPE
  5
13
100
AcDbSymbolTableRecord
100
AcDbLinetypeTableRecord
  2
CONTINUOUS
 70
              64
  3
Solid line
 72
              65
 73
               0
 40
0.0
  0
LTYPE
  5
1A1
100
AcDbSymbolTableRecord
100
AcDbLinetypeTableRecord
  2
CENTER
 70
              64
  3
Center ____ _ ____ _ ____ _ ____ _ ____ _ ____
 72
              65
 73
               4
 40
26.0
 49
20.0
 74
               0
 49
-2.0
 74
               0
 49
2.0
 74
               0
 49
-2.0
 74
               0
  0
LTYPE
  5
2BB
100
AcDbSymbolTableRecord
100
AcDbLinetypeTableRecord
  2
DASHED
 70
              64
  3
Dashed __ __ __ __ __ __ __ __ __ __ __ __ __ _
 72
              65
 73
               2
 40
4.0
 49
2.0
 74
               0
 49
-2.0
 74
               0
  0
ENDTAB
  0
TABLE
  2
LAYER
  5
2
100
AcDbSymbolTable
 70
               2
  0
LAYER
  5
14
100
AcDbSymbolTableRecord
100
AcDbLayerTableRecord
  2
0
 70
               0
 62
               7
  6
CONTINUOUS
  0
LAYER
  5
1D
100
AcDbSymbolTableRecord
100
AcDbLayerTableRecord
  2
DEFPOINTS
 70
               0
 62
               7
  6
CONTINUOUS
  0
ENDTAB
  0
TABLE
  2
STYLE
  5
3
100
AcDbSymbolTable
 70
               1
  0
STYLE
  5
17
100
AcDbSymbolTableRecord
100
AcDbTextStyleTableRecord
  2
MX_NOTE_STANDARD
 70
               0
 40
0.0
 41
1.0
 50
0.0
 71
               0
 42
3.2000000476837158
  3
txt.shx
  4
extfont.shx
  0
ENDTAB
  0
TABLE
  2
VIEW
  5
5
100
AcDbSymbolTable
 70
               0
  0
ENDTAB
  0
TABLE
  2
UCS
  5
6
100
AcDbSymbolTable
 70
               0
  0
ENDTAB
  0
TABLE
  2
APPID
  5
8
100
AcDbSymbolTable
 70
               1
  0
APPID
  5
16
100
AcDbSymbolTableRecord
100
AcDbRegAppTableRecord
  2
ACAD
 70
               0
  0
ENDTAB
  0
TABLE
  2
DIMSTYLE
  5
9
100
AcDbSymbolTable
 70
               1
  0
DIMSTYLE
105
18
100
AcDbSymbolTableRecord
100
AcDbDimStyleTableRecord
  2
MXDIMSTYLE
 70
               0
  3

  4

  5

  6

  7

 40
1.0
 41
2.5
 42
1.5
 43
3.75
 44
1.5
 45
0.0
 46
0.0
 47
0.0
 48
0.0
 71
               0
 72
               0
 73
               0
 74
               0
 75
               0
 76
               0
 77
               1
 78
               8
140
3.2000000476837158
141
2.5
142
0.0
143
0.03937007874016
144
1.0
145
0.0
146
1.0
147
1.0
170
               0
171
               4
172
               1
173
               0
174
               0
175
               0
176
               0
177
               0
178
               0
270
               2
271
               4
272
               4
273
               2
274
               4
275
               0
280
               0
281
               0
282
               0
283
               1
284
               0
285
               0
286
               0
287
               3
288
               1
340
17
  0
ENDTAB
  0
TABLE
  2
BLOCK_RECORD
  5
1
100
AcDbSymbolTable
 70
              18
  0
BLOCK_RECORD
  5
A
100
AcDbSymbolTableRecord
100
AcDbBlockTableRecord
  2
*MODEL_SPACE
  0
BLOCK_RECORD
  5
B
100
AcDbSymbolTableRecord
100
AcDbBlockTableRecord
  2
*PAPER_SPACE
  0
BLOCK_RECORD
  5
1E
100
AcDbSymbolTableRecord
100
AcDbBlockTableRecord
  2
F10MN-1
  0
BLOCK_RECORD
  5
1F
100
AcDbSymbolTableRecord
100
AcDbBlockTableRecord
  2
F10MN-2
  0
BLOCK_RECORD
  5
20
100
AcDbSymbolTableRecord
100
AcDbBlockTableRecord
  2
F10MN-3
  0
BLOCK_RECORD
  5
21
100
AcDbSymbolTableRecord
100
AcDbBlockTableRecord
  2
F10MN-4
  0
BLOCK_RECORD
  5
22
100
AcDbSymbolTableRecord
100
AcDbBlockTableRecord
  2
F10MN-5
  0
BLOCK_RECORD
  5
23
100
AcDbSymbolTableRecord
100
AcDbBlockTableRecord
  2
F10MN-6
  0
BLOCK_RECORD
  5
24
100
AcDbSymbolTableRecord
100
AcDbBlockTableRecord
  2
F10MN-7
  0
BLOCK_RECORD
  5
25
100
AcDbSymbolTableRecord
100
AcDbBlockTableRecord
  2
F10MN-8
  0
BLOCK_RECORD
  5
26
100
AcDbSymbolTableRecord
100
AcDbBlockTableRecord
  2
F10MN-9
  0
BLOCK_RECORD
  5
27
100
AcDbSymbolTableRecord
100
AcDbBlockTableRecord
  2
F10MN-10
  0
BLOCK_RECORD
  5
28
100
AcDbSymbolTableRecord
100
AcDbBlockTableRecord
  2
F10MN-11
  0
BLOCK_RECORD
  5
29
100
AcDbSymbolTableRecord
100
AcDbBlockTableRecord
  2
F10MN-12
  0
BLOCK_RECORD
  5
2A
100
AcDbSymbolTableRecord
100
AcDbBlockTableRecord
  2
F10MN-13
  0
BLOCK_RECORD
  5
2B
100
AcDbSymbolTableRecord
100
AcDbBlockTableRecord
  2
F10MN-14
  0
BLOCK_RECORD
  5
2C
100
AcDbSymbolTableRecord
100
AcDbBlockTableRecord
  2
F10MN-15
  0
BLOCK_RECORD
  5
2D
100
AcDbSymbolTableRecord
100
AcDbBlockTableRecord
  2
F10MN-16
  0
BLOCK_RECORD
  5
2E
100
AcDbSymbolTableRecord
100
AcDbBlockTableRecord
  2
F10MN-17
  0
BLOCK_RECORD
  5
2F
100
AcDbSymbolTableRecord
100
AcDbBlockTableRecord
  2
F10MN-18
  0
ENDTAB
  0
ENDSEC
  0
SECTION
  2
BLOCKS
  0
BLOCK
  5
D
100
AcDbEntity
  8
0
100
AcDbBlockBegin
  2
*MODEL_SPACE
 70
               0
 10
0.0
 20
0.0
 30
0.0
  3
*MODEL_SPACE
  1

  0
ENDBLK
  5
E
100
AcDbEntity
  8
0
100
AcDbBlockEnd
  0
BLOCK
  5
F
100
AcDbEntity
 67
               1
  8
0
100
AcDbBlockBegin
  2
*PAPER_SPACE
 70
               0
 10
0.0
 20
0.0
 30
0.0
  3
*PAPER_SPACE
  1

  0
ENDBLK
  5
10
100
AcDbEntity
 67
               1
  8
0
100
AcDbBlockEnd
  0
BLOCK
  5
30
100
AcDbEntity
  8
0
100
AcDbBlockBegin
  2
F10MN-1
 70
               0
 10
0.0
 20
0.0
 30
0.0
  3
F10MN-1
  1

  0
LINE
  5
31
100
AcDbEntity
  8
0
  6
CONTINUOUS
 62
               2
100
AcDbLine
 10
-13.885460757824148
 20
0.0
 30
0.0
 11
120.69174093803133
 21
0.0
 31
0.0
  0
LINE
  5
32
100
AcDbEntity
  8
0
  6
CONTINUOUS
 62
               7
100
AcDbLine
 10
19.5
 20
49.5
 30
0.0
 11
19.75
 21
49.5
 31
0.0
  0
LINE
  5
33
100
AcDbEntity
  8
0
  6
CONTINUOUS
 62
               7
100
AcDbLine
 10
-12.5
 20
12.5
 30
0.0
 11
0.5
 21
12.5
 31
0.0
  0
LINE
  5
34
100
AcDbEntity
  8
0
  6
CONTINUOUS
 62
               7
100
AcDbLine
 10
-12.5
 20
-12.5
 30
0.0
 11
0.5
 21
-12.5
 31
0.0
  0
LINE
  5
35
100
AcDbEntity
  8
0
  6
CONTINUOUS
 62
               7
100
AcDbLine
 10
-12.5
 20
-17.5
 30
0.0
 11
0.5
 21
-17.5
 31
0.0
  0
LINE
  5
36
100
AcDbEntity
  8
0
  6
CONTINUOUS
 62
               7
100
AcDbLine
 10
-12.5
 20
17.5
 30
0.0
 11
0.5
 21
17.5
 31
0.0
  0
LINE
  5
37
100
AcDbEntity
  8
0
  6
CONTINUOUS
 62
               7
100
AcDbLine
 10
-12.5
 20
17.5
 30
0.0
 11
-12.5
 21
-17.5
 31
0.0
  0
LINE
  5
38
100
AcDbEntity
  8
0
  6
CONTINUOUS
 62
               7
100
AcDbLine
 10
-7.5
 20
-2.75
 30
0.0
 11
0.5
 21
-2.75
 31
0.0
  0
LINE
  5
39
100
AcDbEntity
  8
0
  6
CONTINUOUS
 62
               7
100
AcDbLine
 10
-7.5
 20
2.75
 30
0.0
 11
0.5
 21
2.75
 31
0.0
  0
ARC
  5
3A
100
AcDbEntity
  8
0
  6
CONTINUOUS
 62
               7
100
AcDbCircle
 10
-7.5
 20
0.0
 30
0.0
 40
2.75
100
AcDbArc
 50
89.999982013910653
 51
270.00000068324533
  0
LINE
  5
3B
100
AcDbEntity
  8
0
  6
CONTINUOUS
 62
               7
100
AcDbLine
 10
112.5
 20
17.5
 30
0.0
 11
112.5
 21
-17.5
 31
0.0
  0
LINE
  5
3C
100
AcDbEntity
  8
0
  6
CONTINUOUS
 62
               7
100
AcDbLine
 10
99.5
 20
12.5
 30
0.0
 11
112.5
 21
12.5
 31
0.0
  0
LINE
  5
3D
100
AcDbEntity
  8
0
  6
CONTINUOUS
 62
               7
100
AcDbLine
 10
99.5
 20
17.5
 30
0.0
 11
112.5
 21
17.5
 31
0.0
  0
LINE
  5
3E
100
AcDbEntity
  8
0
  6
CONTINUOUS
 62
               7
100
AcDbLine
 10
99.5
 20
-12.5
 30
0.0
 11
112.5
 21
-12.5
 31
0.0
  0
LINE
  5
3F
100
AcDbEntity
  8
0
  6
CONTINUOUS
 62
               7
100
AcDbLine
 10
99.5
 20
-17.5
 30
0.0
 11
112.5
 21
-17.5
 31
0.0
  0
LINE
  5
40
100
AcDbEntity
  8
0
  6
CONTINUOUS
 62
               7
100
AcDbLine
 10
99.5
 20
-2.75
 30
0.0
 11
107.5
 21
-2.75
 31
0.0
  0
LINE
  5
41
100
AcDbEntity
  8
0
  6
CONTINUOUS
 62
               7
100
AcDbLine
 10
99.5
 20
2.75
 30
0.0
 11
107.5
 21
2.75
 31
0.0
  0
ARC
  5
42
100
AcDbEntity
  8
0
  6
CONTINUOUS
 62
               7
100
AcDbCircle
 10
107.5
 20
0.0
 30
0.0
 40
2.75
100
AcDbArc
 50
270.00001798608935
 51
89.999982013910653
  0
LINE
  5
43
100
AcDbEntity
  8
0
  6
CONTINUOUS
 62
               7
100
AcDbLine
 10
0.0
 20
-4.0
 30
0.0
 11
0.0
 21
4.0
 31
0.0
  0
LINE
  5
44
100
AcDbEntity
  8
0
  6
CONTINUOUS
 62
               7
100
AcDbLine
 10
100.0
 20
-4.0
 30
0.0
 11
100.0
 21
4.0
 31
0.0
  0
LINE
  5
45
100
AcDbEntity
  8
0
  6
CONTINUOUS
 62
               7
100
AcDbLine
 10
14.5
 20
30.958165587008693
 30
0.0
 11
14.5
 21
61.999999999999943
 31
0.0
  0
LINE
  5
46
100
AcDbEntity
  8
0
  6
CONTINUOUS
 62
               7
100
AcDbLine
 10
19.5
 20
62.499999999999943
 30
0.0
 11
15.0
 21
62.499999999999943
 31
0.0
  0
ARC
  5
47
100
AcDbEntity
  8
0
  6
CONTINUOUS
 62
               7
100
AcDbCircle
 10
15.0
 20
61.999999999999943
 30
0.0
 40
0.5
100
AcDbArc
 50
90.0
 51
180.0
  0
LINE
  5
48
100
AcDbEntity
  8
0
  6
CONTINUOUS
 62
               7
100
AcDbLine
 10
19.5
 20
-30.5
 30
0.0
 11
19.5
 21
62.499999999999943
 31
0.0
  0
LINE
  5
49
100
AcDbEntity
  8
0
  6
CONTINUOUS
 62
               7
100
AcDbLine
 10
0.5
 20
28.816993123628379
 30
0.0
 11
0.5
 21
-28.379549805998806
 31
0.0
  0
ARC
  5
4A
100
AcDbEntity
  8
0
  6
CONTINUOUS
 62
               7
100
AcDbCircle
 10
1.0
 20
28.816993123628379
 30
0.0
 40
0.5
100
AcDbArc
 50
94.999999999999886
 51
180.0
  0
LINE
  5
4B
100
AcDbEntity
  8
0
  6
CONTINUOUS
 62
               7
100
AcDbLine
 10
14.043577871373827
 20
30.460068237962787
 30
0.0
 11
0.9564221286261727
 21
29.315090472674228
 31
0.0
  0
ARC
  5
4C
100
AcDbEntity
  8
0
  6
CONTINUOUS
 62
               7
100
AcDbCircle
 10
14.0
 20
30.958165587008693
 30
0.0
 40
0.5
100
AcDbArc
 50
274.99999999999972
 51
0.0
  0
CIRCLE
  5
4D
100
AcDbEntity
  8
0
  6
CONTINUOUS
 62
               7
100
AcDbCircle
 10
8.5
 20
-0.0000000000000568
 30
0.0
 40
4.0
  0
LINE
  5
4E
100
AcDbEntity
  8
0
  6
CONTINUOUS
 62
               7
100
AcDbLine
 10
6.8736491137065059
 20
-1.626357095370679
 30
0.0
 11
10.126334051922186
 21
1.6263275686641805
 31
0.0
  0
LINE
  5
4F
100
AcDbEntity
  8
0
  6
CONTINUOUS
 62
               7
100
AcDbLine
 10
6.873728939837747
 20
1.6264083852506133
 30
0.0
 11
10.126415901102291
 21
-1.6262783018329401
 31
0.0
  0
LINE
  5
50
100
AcDbEntity
  8
0
  6
CONTINUOUS
 62
               7
100
AcDbLine
 10
19.5
 20
-30.5
 30
0.0
 11
0.9564221286261727
 21
-28.877647155044656
 31
0.0
  0
ARC
  5
51
100
AcDbEntity
  8
0
  6
CONTINUOUS
 62
               7
100
AcDbCircle
 10
1.0
 20
-28.379549805998806
 30
0.0
 40
0.5
100
AcDbArc
 50
180.0
 51
265.00000000000023
  0
LINE
  5
52
100
AcDbEntity
  8
0
  6
CONTINUOUS
 62
               7
100
AcDbLine
 10
80.5
 20
62.5
 30
0.0
 11
85.0
 21
62.5
 31
0.0
  0
LINE
  5
53
100
AcDbEntity
  8
0
  6
CONTINUOUS
 62
               7
100
AcDbLine
 10
85.5
 20
30.958165587008693
 30
0.0
 11
85.5
 21
62.0
 31
0.0
  0
ARC
  5
54
100
AcDbEntity
  8
0
  6
CONTINUOUS
 62
               7
100
AcDbCircle
 10
85.0
 20
62.0
 30
0.0
 40
0.5
100
AcDbArc
 50
0.0
 51
90.0
  0
LINE
  5
55
100
AcDbEntity
  8
0
  6
CONTINUOUS
 62
               7
100
AcDbLine
 10
85.956422128626173
 20
30.460068237962787
 30
0.0
 11
99.043577871373827
 21
29.315090472674228
 31
0.0
  0
ARC
  5
56
100
AcDbEntity
  8
0
  6
CONTINUOUS
 62
               7
100
AcDbCircle
 10
86.0
 20
30.958165587008693
 30
0.0
 40
0.5
100
AcDbArc
 50
180.0
 51
265.00000000000028
  0
LINE
  5
57
100
AcDbEntity
  8
0
  6
CONTINUOUS
 62
               7
100
AcDbLine
 10
99.5
 20
28.816993123628322
 30
0.0
 11
99.5
 21
-28.379549805998806
 31
0.0
  0
ARC
  5
58
100
AcDbEntity
  8
0
  6
CONTINUOUS
 62
               7
100
AcDbCircle
 10
99.0
 20
28.816993123628322
 30
0.0
 40
0.5
100
AcDbArc
 50
0.0
 51
85.000000000000114
  0
CIRCLE
  5
59
100
AcDbEntity
  8
0
  6
CONTINUOUS
 62
               7
100
AcDbCircle
 10
91.5
 20
0.0
 30
0.0
 40
4.0
  0
LINE
  5
5A
100
AcDbEntity
  8
0
  6
CONTINUOUS
 62
               7
100
AcDbLine
 10
89.87370885850487
 20
1.6263965841317258
 30
0.0
 11
93.126393796720549
 21
-1.6262880799031336
 31
0.0
  0
LINE
  5
5B
100
AcDbEntity
  8
0
  6
CONTINUOUS
 62
               7
100
AcDbLine
 10
89.873672190747129
 20
-1.6263560838469857
 30
0.0
 11
93.126357128962809
 21
1.6263285801878737
 31
0.0
  0
LINE
  5
5C
100
AcDbEntity
  8
0
  6
CONTINUOUS
 62
               7
100
AcDbLine
 10
80.5
 20
-30.5
 30
0.0
 11
99.043577871373827
 21
-28.877647155044656
 31
0.0
  0
ARC
  5
5D
100
AcDbEntity
  8
0
  6
CONTINUOUS
 62
               7
100
AcDbCircle
 10
99.0
 20
-28.379549805998806
 30
0.0
 40
0.5
100
AcDbArc
 50
274.99999999999977
 51
0.0
  0
LINE
  5
5E
100
AcDbEntity
  8
0
  6
CONTINUOUS
 62
               7
100
AcDbLine
 10
80.5
 20
-30.5
 30
0.0
 11
80.5
 21
62.5
 31
0.0
  0
ENDBLK
  5
5F
100
AcDbEntity
  8
0
100
AcDbBlockEnd
  0
BLOCK
  5
60
100
AcDbEntity
  8
0
100
AcDbBlockBegin
  2
F10MN-2
 70
               0
 10
0.0
 20
0.0
 30
0.0
  3
F10MN-2
  1

  0
LINE
  5
61
100
AcDbEntity
  8
0
  6
CONTINUOUS
 62
               4
100
AcDbLine
 10
2.8500061035156037
 20
85.499985045898498
 30
0.0
 11
2.8500061035156037
 21
90.499985045898498
 31
0.0
  0
LINE
  5
62
100
AcDbEntity
  8
0
  6
CONTINUOUS
 62
               4
100
AcDbLine
 10
3.6500091552734162
 20
85.499985045898498
 30
0.0
 11
3.6500091552734162
 21
90.499985045898498
 31
0.0
  0
LINE
  5
63
100
AcDbEntity
  8
0
  6
CONTINUOUS
 62
               4
100
AcDbLine
 10
0.2499999999999787
 20
-12.700027161132766
 30
0.0
 11
0.2499999999999787
 21
14.299988097656311
 31
0.0
  0
LINE
  5
64
100
AcDbEntity
  8
0
  6
CONTINUOUS
 62
               4
100
AcDbLine
 10
10.249999999999979
 20
-17.300018005859329
 30
0.0
 11
10.249999999999979
 21
9.6999819941406855
 31
0.0
  0
LINE
  5
65
100
AcDbEntity
  8
0
  6
CONTINUOUS
 62
               7
100
AcDbLine
 10
10.249999999999979
 20
9.6999819941406855
 30
0.0
 11
10.249999999999979
 21
10.949997252929748
 31
0.0
  0
LINE
  5
66
100
AcDbEntity
  8
0
  6
CONTINUOUS
 62
               7
100
AcDbLine
 10
0.2499999999999787
 20
14.299988097656311
 30
0.0
 11
0.2499999999999787
 21
33.499985045898498
 31
0.0
  0
LINE
  5
67
100
AcDbEntity
  8
0
  6
CONTINUOUS
 62
               4
100
AcDbLine
 10
10.249999999999979
 20
33.499985045898498
 30
0.0
 11
10.249999999999979
 21
57.499985045898498
 31
0.0
  0
LINE
  5
68
100
AcDbEntity
  8
0
  6
CONTINUOUS
 62
               4
100
AcDbLine
 10
0.2499999999999787
 20
33.499985045898498
 30
0.0
 11
0.2499999999999787
 21
57.499985045898498
 31
0.0
  0
LINE
  5
69
100
AcDbEntity
  8
0
  6
CONTINUOUS
 62
               7
100
AcDbLine
 10
0.3000030517577912
 20
62.499985045898498
 30
0.0
 11
-0.0000000000000213
 21
62.499985045898498
 31
0.0
  0
LINE
  5
6A
100
AcDbEntity
  8
0
  6
CONTINUOUS
 62
               7
100
AcDbLine
 10
0.2499999999999787
 20
21.999985045898498
 30
0.0
 11
10.249999999999979
 21
21.999985045898498
 31
0.0
  0
LINE
  5
6B
100
AcDbEntity
  8
0
  6
CONTINUOUS
 62
               7
100
AcDbLine
 10
0.2499999999999787
 20
23.999985045898498
 30
0.0
 11
10.249999999999979
 21
23.999985045898498
 31
0.0
  0
LINE
  5
6C
100
AcDbEntity
  8
0
  6
CONTINUOUS
 62
               2
100
AcDbLine
 10
2.7499999999999787
 20
30.199981994140686
 30
0.0
 11
7.7499999999999787
 21
30.199981994140686
 31
0.0
  0
LINE
  5
6D
100
AcDbEntity
  8
0
  6
CONTINUOUS
 62
               4
100
AcDbLine
 10
0.2499999999999787
 20
57.499985045898498
 30
0.0
 11
10.249999999999979
 21
57.499985045898498
 31
0.0
  0
LINE
  5
6E
100
AcDbEntity
  8
0
  6
CONTINUOUS
 62
               7
100
AcDbLine
 10
0.2499999999999787
 20
33.499985045898498
 30
0.0
 11
10.249999999999979
 21
33.499985045898498
 31
0.0
  0
LINE
  5
6F
100
AcDbEntity
  8
0
  6
CONTINUOUS
 62
               7
100
AcDbLine
 10
3.3232116699218537
 20
29.899978942382873
 30
0.0
 11
7.1767883300781037
 21
29.899978942382873
 31
0.0
  0
LINE
  5
70
100
AcDbEntity
  8
0
  6
CONTINUOUS
 62
               7
100
AcDbLine
 10
3.3232116699218537
 20
30.499985045898498
 30
0.0
 11
7.1767883300781037
 21
30.499985045898498
 31
0.0
  0
LINE
  5
71
100
AcDbEntity
  8
0
  6
CONTINUOUS
 62
               4
100
AcDbLine
 10
0.3000030517577912
 20
57.500000304687561
 30
0.0
 11
0.3000030517577912
 21
71.000000304687561
 31
0.0
  0
LINE
  5
72
100
AcDbEntity
  8
0
  6
CONTINUOUS
 62
               4
100
AcDbLine
 10
9.7499999999999787
 20
66.499985045898498
 30
0.0
 11
0.7499999999999787
 21
66.499985045898498
 31
0.0
  0
LINE
  5
73
100
AcDbEntity
  8
0
  6
CONTINUOUS
 62
               2
100
AcDbLine
 10
10.199996948242166
 20
61.999985045898498
 30
0.0
 11
0.3000030517577912
 21
61.999985045898498
 31
0.0
  0
LINE
  5
74
100
AcDbEntity
  8
0
  6
CONTINUOUS
 62
               4
100
AcDbLine
 10
10.199996948242166
 20
57.499985045898498
 30
0.0
 11
10.199996948242166
 21
71.000000304687561
 31
0.0
  0
LINE
  5
75
100
AcDbEntity
  8
0
  6
CONTINUOUS
 62
               4
100
AcDbLine
 10
0.3000030517577912
 20
70.999985045898498
 30
0.0
 11
1.7499999999999787
 21
70.999985045898498
 31
0.0
  0
LINE
  5
76
100
AcDbEntity
  8
0
  6
CONTINUOUS
 62
               4
100
AcDbLine
 10
1.1999969482421662
 20
66.500000304687561
 30
0.0
 11
1.1999969482421662
 21
69.000000304687561
 31
0.0
  0
LINE
  5
77
100
AcDbEntity
  8
0
  6
CONTINUOUS
 62
               4
100
AcDbLine
 10
9.3000030517577912
 20
66.499985045898498
 30
0.0
 11
9.3000030517577912
 21
69.000000304687561
 31
0.0
  0
LINE
  5
78
100
AcDbEntity
  8
0
  6
CONTINUOUS
 62
               4
100
AcDbLine
 10
8.7499999999999787
 20
66.998443908203186
 30
0.0
 11
8.7499999999999787
 21
77.499985045898498
 31
0.0
  0
LINE
  5
79
100
AcDbEntity
  8
0
  6
CONTINUOUS
 62
               4
100
AcDbLine
 10
1.7499999999999787
 20
66.998443908203186
 30
0.0
 11
1.7499999999999787
 21
77.499985045898498
 31
0.0
  0
LINE
  5
7A
100
AcDbEntity
  8
0
  6
CONTINUOUS
 62
               4
100
AcDbLine
 10
1.7499999999999787
 20
66.998443908203186
 30
0.0
 11
8.7499999999999787
 21
66.998443908203186
 31
0.0
  0
LINE
  5
7B
100
AcDbEntity
  8
0
  6
CONTINUOUS
 62
               4
100
AcDbLine
 10
1.7499999999999787
 20
70.556137389648498
 30
0.0
 11
8.7499999999999787
 21
70.556137389648498
 31
0.0
  0
LINE
  5
7C
100
AcDbEntity
  8
0
  6
CONTINUOUS
 62
               4
100
AcDbLine
 10
1.7499999999999787
 20
75.999985045898498
 30
0.0
 11
8.7499999999999787
 21
75.999985045898498
 31
0.0
  0
LINE
  5
7D
100
AcDbEntity
  8
0
  6
CONTINUOUS
 62
               4
100
AcDbLine
 10
0.3500061035156037
 20
77.499985045898498
 30
0.0
 11
10.150009155273416
 21
77.499985045898498
 31
0.0
  0
LINE
  5
7E
100
AcDbEntity
  8
0
  6
CONTINUOUS
 62
               4
100
AcDbLine
 10
8.7499999999999787
 20
70.999985045898498
 30
0.0
 11
10.199996948242166
 21
70.999985045898498
 31
0.0
  0
LINE
  5
7F
100
AcDbEntity
  8
0
  6
CONTINUOUS
 62
               4
100
AcDbLine
 10
8.7499999999999787
 20
69.999985045898498
 30
0.0
 11
9.3000030517577912
 21
69.999985045898498
 31
0.0
  0
LINE
  5
80
100
AcDbEntity
  8
0
  6
CONTINUOUS
 62
               4
100
AcDbLine
 10
8.7499999999999787
 20
68.999985045898498
 30
0.0
 11
9.3000030517577912
 21
68.999985045898498
 31
0.0
  0
LINE
  5
81
100
AcDbEntity
  8
0
  6
CONTINUOUS
 62
               4
100
AcDbLine
 10
1.2000122070312287
 20
69.999985045898498
 30
0.0
 11
1.7499999999999787
 21
69.999985045898498
 31
0.0
  0
LINE
  5
82
100
AcDbEntity
  8
0
  6
CONTINUOUS
 62
               4
100
AcDbLine
 10
1.2000122070312287
 20
68.999985045898498
 30
0.0
 11
1.7499999999999787
 21
68.999985045898498
 31
0.0
  0
LINE
  5
83
100
AcDbEntity
  8
0
  6
CONTINUOUS
 62
               4
100
AcDbLine
 10
1.1999969482421662
 20
70.000000304687561
 30
0.0
 11
1.1999969482421662
 21
71.000000304687561
 31
0.0
  0
LINE
  5
84
100
AcDbEntity
  8
0
  6
CONTINUOUS
 62
               4
100
AcDbLine
 10
9.3000030517577912
 20
70.000000304687561
 30
0.0
 11
9.3000030517577912
 21
71.000000304687561
 31
0.0
  0
LINE
  5
85
100
AcDbEntity
  8
0
  6
CONTINUOUS
 62
               4
100
AcDbLine
 10
3.9650115966796662
 20
82.209198302734436
 30
0.0
 11
3.9650115966796662
 21
85.499985045898498
 31
0.0
  0
LINE
  5
86
100
AcDbEntity
  8
0
  6
CONTINUOUS
 62
               4
100
AcDbLine
 10
2.5350036621093537
 20
81.826034850585998
 30
0.0
 11
2.5350036621093537
 21
85.499985045898498
 31
0.0
  0
LINE
  5
87
100
AcDbEntity
  8
0
  6
CONTINUOUS
 62
               4
100
AcDbLine
 10
2.5350036621093537
 20
85.499985045898498
 30
0.0
 11
3.9649963378906037
 21
85.499985045898498
 31
0.0
  0
LINE
  5
88
100
AcDbEntity
  8
0
  6
CONTINUOUS
 62
               4
100
AcDbLine
 10
3.9650115966796662
 20
77.499985045898498
 30
0.0
 11
3.9650115966796662
 21
81.173935241210998
 31
0.0
  0
LINE
  5
89
100
AcDbEntity
  8
0
  6
CONTINUOUS
 62
               4
100
AcDbLine
 10
2.5350036621093537
 20
77.499985045898498
 30
0.0
 11
2.5350036621093537
 21
80.790756530273498
 31
0.0
  0
LINE
  5
8A
100
AcDbEntity
  8
0
  6
CONTINUOUS
 62
               7
100
AcDbLine
 10
10.249999999999979
 20
-32.100021057617141
 30
0.0
 11
10.249999999999979
 21
-17.300018005859329
 31
0.0
  0
LINE
  5
8B
100
AcDbEntity
  8
0
  6
CONTINUOUS
 62
               7
100
AcDbLine
 10
0.2499999999999787
 20
-32.100021057617141
 30
0.0
 11
0.2499999999999787
 21
-14.650024109374954
 31
0.0
  0
LINE
  5
8C
100
AcDbEntity
  8
0
  6
CONTINUOUS
 62
               4
100
AcDbLine
 10
10.149993896484354
 20
71.000000304687561
 30
0.0
 11
10.149993896484354
 21
77.499985045898498
 31
0.0
  0
LINE
  5
8D
100
AcDbEntity
  8
0
  6
CONTINUOUS
 62
               4
100
AcDbLine
 10
0.3500061035156037
 20
71.000000304687561
 30
0.0
 11
0.3500061035156037
 21
77.499985045898498
 31
0.0
  0
LINE
  5
8E
100
AcDbEntity
  8
0
  6
CONTINUOUS
 62
               4
100
AcDbLine
 10
1.2499999999999787
 20
71.000000304687561
 30
0.0
 11
1.2499999999999787
 21
77.499985045898498
 31
0.0
  0
LINE
  5
8F
100
AcDbEntity
  8
0
  6
CONTINUOUS
 62
               4
100
AcDbLine
 10
9.2499999999999787
 20
71.000000304687561
 30
0.0
 11
9.2499999999999787
 21
77.499985045898498
 31
0.0
  0
LINE
  5
90
100
AcDbEntity
  8
0
  6
CONTINUOUS
 62
               7
100
AcDbLine
 10
0.9500091193521953
 20
-17.899997933779105
 30
0.0
 11
0.5500065705154853
 21
-17.499995317507
 31
0.0
  0
LINE
  5
91
100
AcDbEntity
  8
0
  6
CONTINUOUS
 62
               7
100
AcDbLine
 10
0.9499849102018985
 20
-25.100008679229518
 30
0.0
 11
0.5499930835237379
 21
-25.500000438474103
 31
0.0
  0
LINE
  5
92
100
AcDbEntity
  8
0
  6
CONTINUOUS
 62
               7
100
AcDbLine
 10
9.5500094150419059
 20
-25.100006706759132
 30
0.0
 11
9.9500069062573075
 21
-25.500004265409075
 31
0.0
  0
LINE
  5
93
100
AcDbEntity
  8
0
  6
CONTINUOUS
 62
               7
100
AcDbLine
 10
9.5499756301282801
 20
-17.900012145693381
 30
0.0
 11
9.9499782464003843
 21
-17.500009596856671
 31
0.0
  0
LINE
  5
94
100
AcDbEntity
  8
0
  6
CONTINUOUS
 62
               7
100
AcDbLine
 10
9.5500030517577912
 20
-25.100021057617141
 30
0.0
 11
9.5500030517577912
 21
-17.900024109374954
 31
0.0
  0
LINE
  5
95
100
AcDbEntity
  8
0
  6
CONTINUOUS
 62
               7
100
AcDbLine
 10
0.9499969482421662
 20
-17.900024109374954
 30
0.0
 11
9.5500030517577912
 21
-17.900024109374954
 31
0.0
  0
LINE
  5
96
100
AcDbEntity
  8
0
  6
CONTINUOUS
 62
               7
100
AcDbLine
 10
0.9499969482421662
 20
-25.100021057617141
 30
0.0
 11
0.9499969482421662
 21
-17.900024109374954
 31
0.0
  0
LINE
  5
97
100
AcDbEntity
  8
0
  6
CONTINUOUS
 62
               7
100
AcDbLine
 10
0.9499969482421662
 20
-25.100021057617141
 30
0.0
 11
9.5500030517577912
 21
-25.100021057617141
 31
0.0
  0
LINE
  5
98
100
AcDbEntity
  8
0
  6
CONTINUOUS
 62
               7
100
AcDbLine
 10
9.9499969482421662
 20
-25.500014954101516
 30
0.0
 11
9.9499969482421662
 21
-17.500030212890579
 31
0.0
  0
LINE
  5
99
100
AcDbEntity
  8
0
  6
CONTINUOUS
 62
               7
100
AcDbLine
 10
0.5500030517577912
 20
-25.500014954101516
 30
0.0
 11
0.5500030517577912
 21
-17.500030212890579
 31
0.0
  0
LINE
  5
9A
100
AcDbEntity
  8
0
  6
CONTINUOUS
 62
               7
100
AcDbLine
 10
0.2499999999999787
 20
14.499985045898498
 30
0.0
 11
10.249999999999979
 21
14.499985045898498
 31
0.0
  0
LINE
  5
9B
100
AcDbEntity
  8
0
  6
CONTINUOUS
 62
               7
100
AcDbLine
 10
0.2499999999999787
 20
-17.500014954101516
 30
0.0
 11
10.249999999999979
 21
-17.500014954101516
 31
0.0
  0
LINE
  5
9C
100
AcDbEntity
  8
0
  6
CONTINUOUS
 62
               7
100
AcDbLine
 10
-0.0000000000000213
 20
-25.500014954101516
 30
0.0
 11
10.499999999999979
 21
-25.500014954101516
 31
0.0
  0
LINE
  5
9D
100
AcDbEntity
  8
0
  6
CONTINUOUS
 62
               7
100
AcDbLine
 10
0.2499999999999787
 20
-23.500030212890579
 30
0.0
 11
0.5500030517577912
 21
-23.500030212890579
 31
0.0
  0
LINE
  5
9E
100
AcDbEntity
  8
0
  6
CONTINUOUS
 62
               7
100
AcDbLine
 10
10.249999999999979
 20
-19.500014954101516
 30
0.0
 11
9.9499969482421662
 21
-19.500014954101516
 31
0.0
  0
LINE
  5
9F
100
AcDbEntity
  8
0
  6
CONTINUOUS
 62
               7
100
AcDbLine
 10
9.9499969482421662
 20
-23.500030212890579
 30
0.0
 11
10.249999999999979
 21
-23.500030212890579
 31
0.0
  0
LINE
  5
A0
100
AcDbEntity
  8
0
  6
CONTINUOUS
 62
               7
100
AcDbLine
 10
0.5500030517577912
 20
-19.500014954101516
 30
0.0
 11
0.2499999999999787
 21
-19.500014954101516
 31
0.0
  0
LINE
  5
A1
100
AcDbEntity
  8
0
  6
CONTINUOUS
 62
               7
100
AcDbLine
 10
0.6499938964843537
 20
-32.500014954101516
 30
0.0
 11
9.8500061035156037
 21
-32.500014954101516
 31
0.0
  0
LINE
  5
A2
100
AcDbEntity
  8
0
  6
CONTINUOUS
 62
               4
100
AcDbLine
 10
2.0510386451602258
 20
-13.69897390931078
 30
0.0
 11
0.8489589916513083
 21
-14.901053056181127
 31
0.0
  0
LINE
  5
A3
100
AcDbEntity
  8
0
  6
CONTINUOUS
 62
               4
100
AcDbLine
 10
2.0510462649600427
 20
-14.901052061867915
 30
0.0
 11
0.8489670167619821
 21
-13.698972509686712
 31
0.0
  0
LINE
  5
A4
100
AcDbEntity
  8
0
  6
CONTINUOUS
 62
               7
100
AcDbLine
 10
0.2499999999999787
 20
-13.950011902343704
 30
0.0
 11
0.2499999999999787
 21
-12.700027161132766
 31
0.0
  0
LINE
  5
A5
100
AcDbEntity
  8
0
  6
CONTINUOUS
 62
               7
100
AcDbLine
 10
10.249999999999979
 20
11.649963683593811
 30
0.0
 11
10.249999999999979
 21
33.499985045898498
 31
0.0
  0
LINE
  5
A6
100
AcDbEntity
  8
0
  6
CONTINUOUS
 62
               4
100
AcDbLine
 10
8.4489937810085181
 20
11.901050131831212
 30
0.0
 11
9.6510732318620072
 21
10.698970782305437
 31
0.0
  0
LINE
  5
A7
100
AcDbEntity
  8
0
  6
CONTINUOUS
 62
               4
100
AcDbLine
 10
8.4489550733414731
 20
10.69891567108381
 30
0.0
 11
9.6510345241949622
 21
11.900995020609585
 31
0.0
  0
LINE
  5
A8
100
AcDbEntity
  8
0
  6
CONTINUOUS
 62
               4
100
AcDbLine
 10
1.6489540501197339
 20
10.898922652185789
 30
0.0
 11
2.8510227113792794
 21
12.100991212118529
 31
0.0
  0
LINE
  5
A9
100
AcDbEntity
  8
0
  6
CONTINUOUS
 62
               4
100
AcDbLine
 10
7.648964971517195
 20
-15.101068534264869
 30
0.0
 11
8.8510444223706841
 21
-13.898989184739094
 31
0.0
  0
LINE
  5
AA
100
AcDbEntity
  8
0
  6
CONTINUOUS
 62
               4
100
AcDbLine
 10
7.6489734851802282
 20
-13.898944930546349
 30
0.0
 11
8.851063725627661
 21
-15.101035069665159
 31
0.0
  0
LINE
  5
AB
100
AcDbEntity
  8
0
  6
CONTINUOUS
 62
               4
100
AcDbLine
 10
1.6489927409274756
 20
12.101056539735978
 30
0.0
 11
2.8510721917809647
 21
10.898977190210204
 31
0.0
  0
LINE
  5
AC
100
AcDbEntity
  8
0
  6
CONTINUOUS
 62
               4
100
AcDbLine
 10
3.0500030517577912
 20
-17.300018005859329
 30
0.0
 11
10.249999999999979
 21
-17.300018005859329
 31
0.0
  0
LINE
  5
AD
100
AcDbEntity
  8
0
  6
CONTINUOUS
 62
               4
100
AcDbLine
 10
0.2499999999999787
 20
14.299988097656311
 30
0.0
 11
7.4499969482421662
 21
14.299988097656311
 31
0.0
  0
LINE
  5
AE
100
AcDbEntity
  8
0
  6
CONTINUOUS
 62
               4
100
AcDbLine
 10
3.0500030517577912
 20
-14.300018005859329
 30
0.0
 11
3.0500030517577912
 21
-17.300018005859329
 31
0.0
  0
LINE
  5
AF
100
AcDbEntity
  8
0
  6
CONTINUOUS
 62
               4
100
AcDbLine
 10
7.4499969482421662
 20
14.299988097656311
 30
0.0
 11
7.4499969482421662
 21
11.299972838867248
 31
0.0
  0
LINE
  5
B0
100
AcDbEntity
  8
0
  6
CONTINUOUS
 62
               4
100
AcDbLine
 10
9.0500030517577912
 20
9.6999819941406855
 30
0.0
 11
10.249999999999979
 21
9.6999819941406855
 31
0.0
  0
LINE
  5
B1
100
AcDbEntity
  8
0
  6
CONTINUOUS
 62
               4
100
AcDbLine
 10
0.2499999999999787
 20
-12.700027161132766
 30
0.0
 11
1.4499969482421662
 21
-12.700027161132766
 31
0.0
  0
LINE
  5
B2
100
AcDbEntity
  8
0
  6
CONTINUOUS
 62
               7
100
AcDbLine
 10
10.249999999999979
 20
21.499985045898498
 30
0.0
 11
10.499999999999979
 21
21.499985045898498
 31
0.0
  0
LINE
  5
B3
100
AcDbEntity
  8
0
  6
CONTINUOUS
 62
               7
100
AcDbLine
 10
-0.0000000000000213
 20
21.499985045898498
 30
0.0
 11
0.2499999999999787
 21
21.499985045898498
 31
0.0
  0
LINE
  5
B4
100
AcDbEntity
  8
0
  6
CONTINUOUS
 62
               7
100
AcDbLine
 10
10.499999999999979
 20
-30.300018005859329
 30
0.0
 11
10.499999999999979
 21
62.499985045898498
 31
0.0
  0
LINE
  5
B5
100
AcDbEntity
  8
0
  6
CONTINUOUS
 62
               7
100
AcDbLine
 10
10.249999999999979
 20
49.499985045898498
 30
0.0
 11
10.499999999999979
 21
49.499985045898498
 31
0.0
  0
LINE
  5
B6
100
AcDbEntity
  8
0
  6
CONTINUOUS
 62
               7
100
AcDbLine
 10
-0.0000000000000213
 20
49.499985045898498
 30
0.0
 11
0.2499999999999787
 21
49.499985045898498
 31
0.0
  0
LINE
  5
B7
100
AcDbEntity
  8
0
  6
CONTINUOUS
 62
               7
100
AcDbLine
 10
10.199996948242166
 20
62.499985045898498
 30
0.0
 11
10.499999999999979
 21
62.499985045898498
 31
0.0
  0
LINE
  5
B8
100
AcDbEntity
  8
0
  6
CONTINUOUS
 62
               7
100
AcDbLine
 10
-0.0000000000000213
 20
59.499985045898498
 30
0.0
 11
0.3000030517577912
 21
59.499985045898498
 31
0.0
  0
LINE
  5
B9
100
AcDbEntity
  8
0
  6
CONTINUOUS
 62
               7
100
AcDbLine
 10
10.199996948242166
 20
59.499985045898498
 30
0.0
 11
10.499999999999979
 21
59.499985045898498
 31
0.0
  0
LINE
  5
BA
100
AcDbEntity
  8
0
  6
CONTINUOUS
 62
               7
100
AcDbLine
 10
10.199996948242166
 20
61.499985045898498
 30
0.0
 11
10.499999999999979
 21
61.499985045898498
 31
0.0
  0
LINE
  5
BB
100
AcDbEntity
  8
0
  6
CONTINUOUS
 62
               7
100
AcDbLine
 10
10.199996948242166
 20
60.499985045898498
 30
0.0
 11
10.499999999999979
 21
60.499985045898498
 31
0.0
  0
LINE
  5
BC
100
AcDbEntity
  8
0
  6
CONTINUOUS
 62
               7
100
AcDbLine
 10
-0.0000000000000213
 20
61.499985045898498
 30
0.0
 11
0.3000030517577912
 21
61.499985045898498
 31
0.0
  0
LINE
  5
BD
100
AcDbEntity
  8
0
  6
CONTINUOUS
 62
               7
100
AcDbLine
 10
-0.0000000000000213
 20
60.499985045898498
 30
0.0
 11
0.3000030517577912
 21
60.499985045898498
 31
0.0
  0
LINE
  5
BE
100
AcDbEntity
  8
0
  6
CONTINUOUS
 62
               7
100
AcDbLine
 10
-0.0000000000000213
 20
60.999985045898498
 30
0.0
 11
0.3000030517577912
 21
60.999985045898498
 31
0.0
  0
LINE
  5
BF
100
AcDbEntity
  8
0
  6
CONTINUOUS
 62
               7
100
AcDbLine
 10
10.200012207031229
 20
60.999985045898498
 30
0.0
 11
10.499999999999979
 21
60.999985045898498
 31
0.0
  0
LINE
  5
C0
100
AcDbEntity
  8
0
  6
CONTINUOUS
 62
               7
100
AcDbLine
 10
-0.0000000000000213
 20
-30.300018005859329
 30
0.0
 11
0.2499999999999787
 21
-30.300018005859329
 31
0.0
  0
LINE
  5
C1
100
AcDbEntity
  8
0
  6
CONTINUOUS
 62
               7
100
AcDbLine
 10
10.249999999999979
 20
-30.300018005859329
 30
0.0
 11
10.499999999999979
 21
-30.300018005859329
 31
0.0
  0
LINE
  5
C2
100
AcDbEntity
  8
0
  6
CONTINUOUS
 62
             200
100
AcDbLine
 10
1.7499999999999787
 20
-7.4000241093749537
 30
0.0
 11
8.7499999999999787
 21
-7.4000241093749537
 31
0.0
  0
LINE
  5
C3
100
AcDbEntity
  8
0
  6
CONTINUOUS
 62
               7
100
AcDbLine
 10
7.7499999999999787
 20
30.199981994140686
 30
0.0
 11
8.7499999999999787
 21
30.199981994140686
 31
0.0
  0
LINE
  5
C4
100
AcDbEntity
  8
0
  6
CONTINUOUS
 62
               7
100
AcDbLine
 10
5.2499999999999787
 20
26.699981994140686
 30
0.0
 11
5.2499999999999787
 21
27.699981994140686
 31
0.0
  0
LINE
  5
C5
100
AcDbEntity
  8
0
  6
CONTINUOUS
 62
               7
100
AcDbLine
 10
5.249998278862769
 20
27.199968655618378
 30
0.0
 11
6.2499966470887571
 21
26.932019959881146
 31
0.0
  0
CIRCLE
  5
C6
100
AcDbEntity
  8
0
  6
CONTINUOUS
 62
               7
100
AcDbCircle
 10
5.2499999999999787
 20
30.199981994140686
 30
0.0
 40
2.0
  0
CIRCLE
  5
C7
100
AcDbEntity
  8
0
  6
CONTINUOUS
 62
               7
100
AcDbCircle
 10
5.2499999999999787
 20
30.199981994140686
 30
0.0
 40
1.9499998092651367
  0
ARC
  5
C8
100
AcDbEntity
  8
0
  6
CONTINUOUS
 62
               4
100
AcDbCircle
 10
9.7000122070312287
 20
65.999985045898498
 30
0.0
 40
0.5
100
AcDbArc
 50
359.99995901886496
 51
89.999982013910653
  0
ARC
  5
C9
100
AcDbEntity
  8
0
  6
CONTINUOUS
 62
               4
100
AcDbCircle
 10
0.8000030517577912
 20
66.000000304687561
 30
0.0
 40
0.5
100
AcDbArc
 50
89.999982013910653
 51
179.99996402782131
  0
ARC
  5
CA
100
AcDbEntity
  8
0
  6
CONTINUOUS
 62
               7
100
AcDbCircle
 10
9.8500061035156037
 20
-32.100005798828079
 30
0.0
 40
0.4000000357627869
100
AcDbArc
 50
270.00001798608935
 51
0.00001366037834
  0
ARC
  5
CB
100
AcDbEntity
  8
0
  6
CONTINUOUS
 62
               7
100
AcDbCircle
 10
0.6499938964843537
 20
-32.100005798828079
 30
0.0
 40
0.4000000357627869
100
AcDbArc
 50
179.99996402782131
 51
269.99994604173196
  0
ARC
  5
CC
100
AcDbEntity
  8
0
  6
CONTINUOUS
 62
               7
100
AcDbCircle
 10
9.8500061035156037
 20
14.899978942382873
 30
0.0
 40
0.4000000357627869
100
AcDbArc
 50
270.00001798608935
 51
0.0
  0
ARC
  5
CD
100
AcDbEntity
  8
0
  6
CONTINUOUS
 62
               7
100
AcDbCircle
 10
0.6499938964843537
 20
14.899978942382873
 30
0.0
 40
0.4000000357627869
100
AcDbArc
 50
179.99996402782131
 51
270.00000068324533
  0
CIRCLE
  5
CE
100
AcDbEntity
  8
0
  6
CONTINUOUS
 62
               4
100
AcDbCircle
 10
1.4499969482421662
 20
-14.300018005859329
 30
0.0
 40
1.25
  0
CIRCLE
  5
CF
100
AcDbEntity
  8
0
  6
CONTINUOUS
 62
               4
100
AcDbCircle
 10
9.0500030517577912
 20
11.299972838867248
 30
0.0
 40
1.25
  0
CIRCLE
  5
D0
100
AcDbEntity
  8
0
  6
CONTINUOUS
 62
               4
100
AcDbCircle
 10
2.2499999999999787
 20
11.499985045898498
 30
0.0
 40
1.25
  0
CIRCLE
  5
D1
100
AcDbEntity
  8
0
  6
CONTINUOUS
 62
               4
100
AcDbCircle
 10
8.2499999999999787
 20
-14.500014954101516
 30
0.0
 40
1.25
  0
CIRCLE
  5
D2
100
AcDbEntity
  8
0
  6
CONTINUOUS
 62
               4
100
AcDbCircle
 10
2.2499999999999787
 20
11.499985045898498
 30
0.0
 40
1.3999996185302734
  0
CIRCLE
  5
D3
100
AcDbEntity
  8
0
  6
CONTINUOUS
 62
               4
100
AcDbCircle
 10
8.2499999999999787
 20
-14.500014954101516
 30
0.0
 40
1.3999996185302734
  0
ARC
  5
D4
100
AcDbEntity
  8
0
  6
CONTINUOUS
 62
               4
100
AcDbCircle
 10
1.4499969482421662
 20
-14.300018005859329
 30
0.0
 40
1.5999994277954102
100
AcDbArc
 50
0.0
 51
89.999982013910653
  0
ARC
  5
D5
100
AcDbEntity
  8
0
  6
CONTINUOUS
 62
               4
100
AcDbCircle
 10
9.0500030517577912
 20
11.299972838867248
 30
0.0
 40
1.5999994277954102
100
AcDbArc
 50
179.99998133066532
 51
270.00001798608935
  0
CIRCLE
  5
D6
100
AcDbEntity
  8
0
  6
CONTINUOUS
 62
               4
100
AcDbCircle
 10
5.2499999999999787
 20
4.399978942382873
 30
0.0
 40
2.5
  0
CIRCLE
  5
D7
100
AcDbEntity
  8
0
  6
CONTINUOUS
 62
               4
100
AcDbCircle
 10
5.2499999999999787
 20
-7.4000241093749537
 30
0.0
 40
2.5
  0
CIRCLE
  5
D8
100
AcDbEntity
  8
0
  6
CONTINUOUS
 62
               4
100
AcDbCircle
 10
5.2499999999999787
 20
4.399978942382873
 30
0.0
 40
2.0669994354248047
  0
CIRCLE
  5
D9
100
AcDbEntity
  8
0
  6
CONTINUOUS
 62
               4
100
AcDbCircle
 10
5.2499999999999787
 20
-7.4000241093749537
 30
0.0
 40
2.0669994354248047
  0
ARC
  5
DA
100
AcDbEntity
  8
0
  6
CONTINUOUS
 62
               7
100
AcDbCircle
 10
5.3500003814697052
 20
30.199981994140686
 30
0.0
 40
3.0
100
AcDbArc
 50
268.08980532053351
 51
0.0
  0
ARC
  5
DB
100
AcDbEntity
  8
0
  6
CONTINUOUS
 62
               7
100
AcDbCircle
 10
5.2499999999999787
 20
30.199981994140686
 30
0.0
 40
3.0
100
AcDbArc
 50
266.17746163595666
 51
3.822566595416411
  0
ARC
  5
DC
100
AcDbEntity
  8
0
  6
CONTINUOUS
 62
               7
100
AcDbCircle
 10
5.1499996185302521
 20
30.199981994140686
 30
0.0
 40
3.0
100
AcDbArc
 50
271.91023065164512
 51
0.0
  0
LINE
  5
DD
100
AcDbEntity
  8
0
  6
CONTINUOUS
 62
             200
100
AcDbLine
 10
1.2499961622215565
 20
80.446442198594482
 30
0.0
 11
5.2499896351255089
 21
81.518237228372087
 31
0.0
  0
LINE
  5
DE
100
AcDbEntity
  8
0
  6
CONTINUOUS
 62
             200
100
AcDbLine
 10
1.2499914690397205
 20
81.481717108090848
 30
0.0
 11
5.2499996808018992
 21
82.553516087133644
 31
0.0
  0
LINE
  5
DF
100
AcDbEntity
  8
0
  6
CONTINUOUS
 62
               7
100
AcDbLine
 10
-0.0000000000000213
 20
-30.300018005859329
 30
0.0
 11
0.0000000000000355
 21
62.499985045898441
 31
0.0
  0
LINE
  5
E0
100
AcDbEntity
  8
0
  6
CONTINUOUS
 62
             200
100
AcDbLine
 10
1.7499999999999787
 20
4.399978942382873
 30
0.0
 11
8.7499999999999787
 21
4.399978942382873
 31
0.0
  0
LINE
  5
E1
100
AcDbEntity
  8
0
  6
CONTINUOUS
 62
               2
100
AcDbLine
 10
5.2499999999999787
 20
-32.500014954101516
 30
0.0
 11
5.2499999999999787
 21
80.239985045898493
 31
0.0
  0
LINE
  5
E2
100
AcDbEntity
  8
0
  6
CONTINUOUS
 62
               4
100
AcDbLine
 10
2.8500061035156037
 20
90.499985045898498
 30
0.0
 11
3.6499938964843537
 21
90.499985045898498
 31
0.0
  0
ENDBLK
  5
E3
100
AcDbEntity
  8
0
100
AcDbBlockEnd
  0
BLOCK
  5
E4
100
AcDbEntity
  8
0
100
AcDbBlockBegin
  2
F10MN-3
 70
               0
 10
0.0
 20
0.0
 30
0.0
  3
F10MN-3
  1

  0
LINE
  5
E5
100
AcDbEntity
  8
0
  6
CONTINUOUS
 62
               4
100
AcDbLine
 10
37.496280822753931
 20
66.499985045898441
 30
0.0
 11
35.496280822753931
 21
66.499985045898441
 31
0.0
  0
LINE
  5
E6
100
AcDbEntity
  8
0
  6
CONTINUOUS
 62
               4
100
AcDbLine
 10
34.996280822753931
 20
57.499985045898441
 30
0.0
 11
61.996286926269534
 21
57.499985045898441
 31
0.0
  0
LINE
  5
E7
100
AcDbEntity
  8
0
  6
CONTINUOUS
 62
               7
100
AcDbLine
 10
34.996294555664065
 20
33.499985045898441
 30
0.0
 11
61.996294555664065
 21
33.499985045898441
 31
0.0
  0
LINE
  5
E8
100
AcDbEntity
  8
0
  6
CONTINUOUS
 62
               7
100
AcDbLine
 10
61.996294555664065
 20
22.000000304687504
 30
0.0
 11
34.996279296875002
 21
22.000000304687504
 31
0.0
  0
LINE
  5
E9
100
AcDbEntity
  8
0
  6
CONTINUOUS
 62
               7
100
AcDbLine
 10
61.59630065917969
 20
14.500000304687504
 30
0.0
 11
34.996279296875002
 21
14.500000304687504
 31
0.0
  0
LINE
  5
EA
100
AcDbEntity
  8
0
  6
CONTINUOUS
 62
               7
100
AcDbLine
 10
59.59630065917969
 20
-17.499999695312511
 30
0.0
 11
34.996279296875002
 21
-17.499999695312511
 31
0.0
  0
LINE
  5
EB
100
AcDbEntity
  8
0
  6
CONTINUOUS
 62
               7
100
AcDbLine
 10
59.59630065917969
 20
-25.499999695312511
 30
0.0
 11
34.996279296875002
 21
-25.499999695312511
 31
0.0
  0
LINE
  5
EC
100
AcDbEntity
  8
0
  6
CONTINUOUS
 62
               7
100
AcDbLine
 10
58.59630065917969
 20
-32.499999695312511
 30
0.0
 11
35.39628845214844
 21
-32.499999695312511
 31
0.0
  0
ARC
  5
ED
100
AcDbEntity
  8
0
  6
CONTINUOUS
 62
               4
100
AcDbCircle
 10
60.498301218114477
 20
61.679595949827743
 30
0.0
 40
1.4979796551727449
100
AcDbArc
 50
0.0148824203654679
 51
24.046309772710739
  0
ARC
  5
EE
100
AcDbEntity
  8
0
  6
CONTINUOUS
 62
               4
100
AcDbCircle
 10
53.996294555664065
 20
-13.549995117675792
 30
0.0
 40
0.5
100
AcDbArc
 50
359.99994535848663
 51
89.999982013910653
  0
ARC
  5
EF
100
AcDbEntity
  8
0
  6
CONTINUOUS
 62
               4
100
AcDbCircle
 10
53.996294555664065
 20
-15.049995117675792
 30
0.0
 40
0.5
100
AcDbArc
 50
269.99996334457597
 51
359.99994535848663
  0
LINE
  5
F0
100
AcDbEntity
  8
0
  6
CONTINUOUS
 62
               4
100
AcDbLine
 10
54.496294555664065
 20
-13.549995117675792
 30
0.0
 11
54.496294555664065
 21
-15.049995117675792
 31
0.0
  0
LINE
  5
F1
100
AcDbEntity
  8
0
  6
CONTINUOUS
 62
               4
100
AcDbLine
 10
53.996294555664065
 20
-12.699993782531749
 30
0.0
 11
58.996294555664065
 21
-12.699993782531749
 31
0.0
  0
ARC
  5
F2
100
AcDbEntity
  8
0
  6
CONTINUOUS
 62
               4
100
AcDbCircle
 10
58.596294555664088
 20
-16.899999695312488
 30
0.0
 40
0.4
100
AcDbArc
 50
270.0
 51
0.0
  0
LINE
  5
F3
100
AcDbEntity
  8
0
  6
CONTINUOUS
 62
               4
100
AcDbLine
 10
58.596294555664088
 20
-17.299999695312522
 30
0.0
 11
53.996294555664065
 21
-17.299999695312522
 31
0.0
  0
ARC
  5
F4
100
AcDbEntity
  8
0
  6
CONTINUOUS
 62
               7
100
AcDbCircle
 10
52.946291503906252
 20
-31.499999695312511
 30
0.0
 40
0.5
100
AcDbArc
 50
270.00001798608935
 51
0.0000546415133601
  0
ARC
  5
F5
100
AcDbEntity
  8
0
  6
CONTINUOUS
 62
               7
100
AcDbCircle
 10
51.446291503906252
 20
-31.499999695312511
 30
0.0
 40
0.5
100
AcDbArc
 50
180.00003597217869
 51
270.00001798608935
  0
ARC
  5
F6
100
AcDbEntity
  8
0
  6
CONTINUOUS
 62
               7
100
AcDbCircle
 10
58.59630065917969
 20
-32.099990540039073
 30
0.0
 40
0.4000000357627869
100
AcDbArc
 50
270.00007262760272
 51
0.0000409811350201
  0
LINE
  5
F7
100
AcDbEntity
  8
0
  6
CONTINUOUS
 62
               7
100
AcDbLine
 10
52.946291503906252
 20
-31.999999695312511
 30
0.0
 11
51.446291503906252
 21
-31.999999695312511
 31
0.0
  0
LINE
  5
F8
100
AcDbEntity
  8
0
  6
CONTINUOUS
 62
               7
100
AcDbLine
 10
50.596285400390627
 20
-32.499999695312511
 30
0.0
 11
50.596285400390627
 21
-31.499999695312511
 31
0.0
  0
LINE
  5
F9
100
AcDbEntity
  8
0
  6
CONTINUOUS
 62
               7
100
AcDbLine
 10
58.996294555664065
 20
-23.600000076782237
 30
0.0
 11
58.996294555664065
 21
-19.399999313842784
 31
0.0
  0
LINE
  5
FA
100
AcDbEntity
  8
0
  6
CONTINUOUS
 62
               7
100
AcDbLine
 10
57.096285400390627
 20
-19.399999313842784
 30
0.0
 11
57.096285400390627
 21
-17.499999695312511
 31
0.0
  0
LINE
  5
FB
100
AcDbEntity
  8
0
  6
CONTINUOUS
 62
               7
100
AcDbLine
 10
59.596285400390627
 20
-19.399999313842784
 30
0.0
 11
57.096285400390627
 21
-19.399999313842784
 31
0.0
  0
LINE
  5
FC
100
AcDbEntity
  8
0
  6
CONTINUOUS
 62
               7
100
AcDbLine
 10
59.596285400390627
 20
-23.600000076782237
 30
0.0
 11
57.096285400390627
 21
-23.600000076782237
 31
0.0
  0
LINE
  5
FD
100
AcDbEntity
  8
0
  6
CONTINUOUS
 62
               7
100
AcDbLine
 10
59.596285400390627
 20
-25.500014954101573
 30
0.0
 11
59.596285400390627
 21
-17.499995880615245
 31
0.0
  0
LINE
  5
FE
100
AcDbEntity
  8
0
  6
CONTINUOUS
 62
               7
100
AcDbLine
 10
57.096285400390627
 20
-25.499999695312511
 30
0.0
 11
57.096285400390627
 21
-23.600000076782237
 31
0.0
  0
LINE
  5
FF
100
AcDbEntity
  8
0
  6
CONTINUOUS
 62
               7
100
AcDbLine
 10
56.996294555664065
 20
-19.499999695312511
 30
0.0
 11
56.996294555664065
 21
-17.499995880615245
 31
0.0
  0
LINE
  5
100
100
AcDbEntity
  8
0
  6
CONTINUOUS
 62
               7
100
AcDbLine
 10
57.996294555664065
 20
-19.499999695312511
 30
0.0
 11
57.996294555664065
 21
-19.399999313842784
 31
0.0
  0
LINE
  5
101
100
AcDbEntity
  8
0
  6
CONTINUOUS
 62
               7
100
AcDbLine
 10
56.996294555664065
 20
-25.499999695312511
 30
0.0
 11
56.996294555664065
 21
-23.499999695312511
 31
0.0
  0
LINE
  5
102
100
AcDbEntity
  8
0
  6
CONTINUOUS
 62
               7
100
AcDbLine
 10
57.996294555664065
 20
-23.600000076782237
 30
0.0
 11
57.996294555664065
 21
-23.499999695312511
 31
0.0
  0
LINE
  5
103
100
AcDbEntity
  8
0
  6
CONTINUOUS
 62
               7
100
AcDbLine
 10
58.996294555664065
 20
-19.499999695312511
 30
0.0
 11
56.996294555664065
 21
-19.499999695312511
 31
0.0
  0
LINE
  5
104
100
AcDbEntity
  8
0
  6
CONTINUOUS
 62
               7
100
AcDbLine
 10
58.996294555664065
 20
-23.499999695312511
 30
0.0
 11
56.996294555664065
 21
-23.499999695312511
 31
0.0
  0
LINE
  5
105
100
AcDbEntity
  8
0
  6
CONTINUOUS
 62
               7
100
AcDbLine
 10
53.796297607421877
 20
-31.499999695312511
 30
0.0
 11
50.596285400390627
 21
-31.499999695312511
 31
0.0
  0
LINE
  5
106
100
AcDbEntity
  8
0
  6
CONTINUOUS
 62
               7
100
AcDbLine
 10
53.796297607421877
 20
-32.499999695312511
 30
0.0
 11
53.796297607421877
 21
-31.499999695312511
 31
0.0
  0
LINE
  5
107
100
AcDbEntity
  8
0
  6
CONTINUOUS
 62
               7
100
AcDbLine
 10
58.996294555664065
 20
-32.099990540039073
 30
0.0
 11
58.996294555664065
 21
-25.499999695312511
 31
0.0
  0
LINE
  5
108
100
AcDbEntity
  8
0
  6
CONTINUOUS
 62
               7
100
AcDbLine
 10
59.996294555664065
 20
-25.099990540039073
 30
0.0
 11
59.996294555664065
 21
-17.899997406494151
 31
0.0
  0
LINE
  5
109
100
AcDbEntity
  8
0
  6
CONTINUOUS
 62
               7
100
AcDbLine
 10
59.996296420117289
 20
-25.10000528462075
 30
0.0
 11
59.596294781658401
 21
-25.500008844988372
 31
0.0
  0
LINE
  5
10A
100
AcDbEntity
  8
0
  6
CONTINUOUS
 62
               7
100
AcDbLine
 10
59.996296114324252
 20
-17.899992887834344
 30
0.0
 11
59.596289687952378
 21
-17.499994115379707
 31
0.0
  0
ARC
  5
10B
100
AcDbEntity
  8
0
  6
CONTINUOUS
 62
               4
100
AcDbCircle
 10
58.596294555664088
 20
13.900000304687481
 30
0.0
 40
0.4
100
AcDbArc
 50
0.0
 51
90.0
  0
LINE
  5
10C
100
AcDbEntity
  8
0
  6
CONTINUOUS
 62
               4
100
AcDbLine
 10
58.596294555664088
 20
14.300000304687515
 30
0.0
 11
53.996294555664065
 21
14.300000304687515
 31
0.0
  0
ARC
  5
10D
100
AcDbEntity
  8
0
  6
CONTINUOUS
 62
               7
100
AcDbCircle
 10
61.59630065917969
 20
14.899994201171879
 30
0.0
 40
0.4000000357627869
100
AcDbArc
 50
270.00007262760272
 51
0.0000409811350201
  0
LINE
  5
10E
100
AcDbEntity
  8
0
  6
CONTINUOUS
 62
               7
100
AcDbLine
 10
57.696291503906252
 20
23.999985045898441
 30
0.0
 11
38.496279296875002
 21
23.999985045898441
 31
0.0
  0
LINE
  5
10F
100
AcDbEntity
  8
0
  6
CONTINUOUS
 62
               7
100
AcDbLine
 10
60.696291503906252
 20
22.000000304687504
 30
0.0
 11
60.696291503906252
 21
23.999985045898441
 31
0.0
  0
LINE
  5
110
100
AcDbEntity
  8
0
  6
CONTINUOUS
 62
               7
100
AcDbLine
 10
57.696291503906252
 20
22.000000304687504
 30
0.0
 11
57.696291503906252
 21
23.999985045898441
 31
0.0
  0
LINE
  5
111
100
AcDbEntity
  8
0
  6
CONTINUOUS
 62
               7
100
AcDbLine
 10
38.496279296875002
 20
22.000000304687504
 30
0.0
 11
38.496279296875002
 21
23.999985045898441
 31
0.0
  0
LINE
  5
112
100
AcDbEntity
  8
0
  6
CONTINUOUS
 62
               7
100
AcDbLine
 10
61.996294555664065
 20
14.899994201171879
 30
0.0
 11
61.996294555664065
 21
33.499985045898441
 31
0.0
  0
LINE
  5
113
100
AcDbEntity
  8
0
  6
CONTINUOUS
 62
               7
100
AcDbLine
 10
62.996294555664065
 20
30.499985045898441
 30
0.0
 11
62.996294555664065
 21
32.149994201171879
 31
0.0
  0
LINE
  5
114
100
AcDbEntity
  8
0
  6
CONTINUOUS
 62
               7
100
AcDbLine
 10
62.996294555664065
 20
30.500000304687504
 30
0.0
 11
62.39628845214844
 21
30.500000304687504
 31
0.0
  0
LINE
  5
115
100
AcDbEntity
  8
0
  6
CONTINUOUS
 62
               7
100
AcDbLine
 10
62.996294555664065
 20
29.899994201171879
 30
0.0
 11
62.39628845214844
 21
29.899994201171879
 31
0.0
  0
LINE
  5
116
100
AcDbEntity
  8
0
  6
CONTINUOUS
 62
               7
100
AcDbLine
 10
62.39628845214844
 20
29.899994201171879
 30
0.0
 11
62.39628845214844
 21
30.499985045898441
 31
0.0
  0
LINE
  5
117
100
AcDbEntity
  8
0
  6
CONTINUOUS
 62
               7
100
AcDbLine
 10
62.996279296875002
 20
32.149994201171879
 30
0.0
 11
61.996294555664065
 21
32.149994201171879
 31
0.0
  0
LINE
  5
118
100
AcDbEntity
  8
0
  6
CONTINUOUS
 62
               7
100
AcDbLine
 10
62.996294555664065
 20
28.250000304687504
 30
0.0
 11
61.996294555664065
 21
28.250000304687504
 31
0.0
  0
LINE
  5
119
100
AcDbEntity
  8
0
  6
CONTINUOUS
 62
               7
100
AcDbLine
 10
62.996294555664065
 20
28.249985045898441
 30
0.0
 11
62.996294555664065
 21
29.899994201171879
 31
0.0
  0
LINE
  5
11A
100
AcDbEntity
  8
0
  6
CONTINUOUS
 62
               2
100
AcDbLine
 10
63.996294555664065
 20
30.199997252929691
 30
0.0
 11
61.296282348632815
 21
30.199997252929691
 31
0.0
  0
LINE
  5
11B
100
AcDbEntity
  8
0
  6
CONTINUOUS
 62
               7
100
AcDbLine
 10
61.996294555664065
 20
23.999985045898441
 30
0.0
 11
60.696291503906252
 21
23.999985045898441
 31
0.0
  0
LINE
  5
11C
100
AcDbEntity
  8
0
  6
CONTINUOUS
 62
               7
100
AcDbLine
 10
53.996294555664065
 20
14.500000304687504
 30
0.0
 11
53.996294555664065
 21
-17.499999695312511
 31
0.0
  0
LINE
  5
11D
100
AcDbEntity
  8
0
  6
CONTINUOUS
 62
               4
100
AcDbLine
 10
58.996294555664065
 20
-16.899999695312488
 30
0.0
 11
58.996294555664065
 21
13.900000304687481
 31
0.0
  0
LINE
  5
11E
100
AcDbEntity
  8
0
  6
CONTINUOUS
 62
               4
100
AcDbLine
 10
57.096280822753954
 20
58.949985045898487
 30
0.0
 11
54.996280822753931
 21
58.949985045898487
 31
0.0
  0
LINE
  5
11F
100
AcDbEntity
  8
0
  6
CONTINUOUS
 62
               4
100
AcDbLine
 10
42.096280822753954
 20
58.949985045898487
 30
0.0
 11
39.996280822753931
 21
58.949985045898487
 31
0.0
  0
LINE
  5
120
100
AcDbEntity
  8
0
  6
CONTINUOUS
 62
               4
100
AcDbLine
 10
39.996280822753931
 20
59.899985045898418
 30
0.0
 11
39.996280822753931
 21
58.949985045898487
 31
0.0
  0
LINE
  5
121
100
AcDbEntity
  8
0
  6
CONTINUOUS
 62
               4
100
AcDbLine
 10
57.096280822753954
 20
59.899985045898418
 30
0.0
 11
57.096280822753954
 21
58.949985045898487
 31
0.0
  0
LINE
  5
122
100
AcDbEntity
  8
0
  6
CONTINUOUS
 62
               4
100
AcDbLine
 10
42.096280822753954
 20
59.899985045898418
 30
0.0
 11
39.996280822753931
 21
59.899985045898418
 31
0.0
  0
LINE
  5
123
100
AcDbEntity
  8
0
  6
CONTINUOUS
 62
               4
100
AcDbLine
 10
57.096280822753954
 20
59.899985045898418
 30
0.0
 11
54.996280822753931
 21
59.899985045898418
 31
0.0
  0
LINE
  5
124
100
AcDbEntity
  8
0
  6
CONTINUOUS
 62
               4
100
AcDbLine
 10
49.746280822753931
 20
57.999985045898441
 30
0.0
 11
47.246280822753931
 21
57.999985045898441
 31
0.0
  0
LINE
  5
125
100
AcDbEntity
  8
0
  6
CONTINUOUS
 62
               4
100
AcDbLine
 10
42.096280822753954
 20
59.899985045898418
 30
0.0
 11
42.096280822753954
 21
58.949985045898487
 31
0.0
  0
LINE
  5
126
100
AcDbEntity
  8
0
  6
CONTINUOUS
 62
               4
100
AcDbLine
 10
54.996280822753931
 20
59.899985045898418
 30
0.0
 11
54.996280822753931
 21
58.949985045898487
 31
0.0
  0
LINE
  5
127
100
AcDbEntity
  8
0
  6
CONTINUOUS
 62
               4
100
AcDbLine
 10
49.746280822753931
 20
57.999985045898441
 30
0.0
 11
49.746280822753931
 21
57.499985045898441
 31
0.0
  0
LINE
  5
128
100
AcDbEntity
  8
0
  6
CONTINUOUS
 62
               4
100
AcDbLine
 10
47.246280822753931
 20
57.999985045898441
 30
0.0
 11
47.246280822753931
 21
57.499985045898441
 31
0.0
  0
LINE
  5
129
100
AcDbEntity
  8
0
  6
CONTINUOUS
 62
               4
100
AcDbLine
 10
61.996294555664065
 20
33.499985045898441
 30
0.0
 11
61.996294555664065
 21
57.499985045898441
 31
0.0
  0
LINE
  5
12A
100
AcDbEntity
  8
0
  6
CONTINUOUS
 62
               4
100
AcDbLine
 10
61.996280822753931
 20
61.679985045898448
 30
0.0
 11
61.996280822753931
 21
57.499985045898441
 31
0.0
  0
LINE
  5
12B
100
AcDbEntity
  8
0
  6
CONTINUOUS
 62
               4
100
AcDbLine
 10
37.146268615722704
 20
77.499985045898441
 30
0.0
 11
46.146268615722704
 21
77.499985045898441
 31
0.0
  0
LINE
  5
12C
100
AcDbEntity
  8
0
  6
CONTINUOUS
 62
               4
100
AcDbLine
 10
37.496280822753931
 20
70.999985045898441
 30
0.0
 11
46.146283874511766
 21
70.999985045898441
 31
0.0
  0
LINE
  5
12D
100
AcDbEntity
  8
0
  6
CONTINUOUS
 62
               4
100
AcDbLine
 10
46.723630676269579
 20
77.499985045898441
 30
0.0
 11
48.146276245117235
 21
77.499985045898441
 31
0.0
  0
LINE
  5
12E
100
AcDbEntity
  8
0
  6
CONTINUOUS
 62
               4
100
AcDbLine
 10
46.096280822753954
 20
68.498443908203129
 30
0.0
 11
46.146283874511766
 21
68.498443908203129
 31
0.0
  0
LINE
  5
12F
100
AcDbEntity
  8
0
  6
CONTINUOUS
 62
               4
100
AcDbLine
 10
46.146283874511766
 20
66.998443908203129
 30
0.0
 11
47.146276245117235
 21
66.998443908203129
 31
0.0
  0
LINE
  5
130
100
AcDbEntity
  8
0
  6
CONTINUOUS
 62
               4
100
AcDbLine
 10
46.146283874511766
 20
68.498443908203129
 30
0.0
 11
46.146283874511766
 21
70.999985045898441
 31
0.0
  0
LINE
  5
131
100
AcDbEntity
  8
0
  6
CONTINUOUS
 62
               4
100
AcDbLine
 10
47.646276245117235
 20
75.999985045898441
 30
0.0
 11
48.146276245117235
 21
75.999985045898441
 31
0.0
  0
LINE
  5
132
100
AcDbEntity
  8
0
  6
CONTINUOUS
 62
               4
100
AcDbLine
 10
46.146281032161653
 20
66.998459197768582
 30
0.0
 11
46.096260478855413
 21
67.048479751074822
 31
0.0
  0
LINE
  5
133
100
AcDbEntity
  8
0
  6
CONTINUOUS
 62
               4
100
AcDbLine
 10
37.646283874511766
 20
70.999985045898441
 30
0.0
 11
37.646283874511766
 21
76.499985045898441
 31
0.0
  0
LINE
  5
134
100
AcDbEntity
  8
0
  6
CONTINUOUS
 62
               4
100
AcDbLine
 10
37.146283874511766
 20
76.499985045898441
 30
0.0
 11
37.146283874511766
 21
77.499985045898441
 31
0.0
  0
LINE
  5
135
100
AcDbEntity
  8
0
  6
CONTINUOUS
 62
               4
100
AcDbLine
 10
37.146268615722704
 20
76.499985045898441
 30
0.0
 11
37.646268615722704
 21
76.499985045898441
 31
0.0
  0
LINE
  5
136
100
AcDbEntity
  8
0
  6
CONTINUOUS
 62
               4
100
AcDbLine
 10
47.646283874511766
 20
70.556137389648441
 30
0.0
 11
47.646283874511766
 21
75.999985045898441
 31
0.0
  0
LINE
  5
137
100
AcDbEntity
  8
0
  6
CONTINUOUS
 62
               4
100
AcDbLine
 10
47.146282124990478
 20
66.998435787657812
 30
0.0
 11
47.646281233867569
 21
70.556123871346657
 31
0.0
  0
LINE
  5
138
100
AcDbEntity
  8
0
  6
CONTINUOUS
 62
               4
100
AcDbLine
 10
46.146283874511766
 20
70.999985045898441
 30
0.0
 11
46.146283874511766
 21
77.499985045898441
 31
0.0
  0
LINE
  5
139
100
AcDbEntity
  8
0
  6
CONTINUOUS
 62
               4
100
AcDbLine
 10
46.146325334357982
 20
76.499943988800126
 30
0.0
 11
46.723677150121887
 21
77.499952693754906
 31
0.0
  0
LINE
  5
13A
100
AcDbEntity
  8
0
  6
CONTINUOUS
 62
               4
100
AcDbLine
 10
48.146283874511766
 20
75.999985045898441
 30
0.0
 11
48.146283874511766
 21
77.499985045898441
 31
0.0
  0
LINE
  5
13B
100
AcDbEntity
  8
0
  6
CONTINUOUS
 62
               4
100
AcDbLine
 10
42.996289978027391
 20
90.499985045898441
 30
0.0
 11
42.196286926269579
 21
90.499985045898441
 31
0.0
  0
LINE
  5
13C
100
AcDbEntity
  8
0
  6
CONTINUOUS
 62
               4
100
AcDbLine
 10
42.196286926269579
 20
85.499985045898441
 30
0.0
 11
42.196286926269579
 21
90.499985045898441
 31
0.0
  0
LINE
  5
13D
100
AcDbEntity
  8
0
  6
CONTINUOUS
 62
               4
100
AcDbLine
 10
42.996289978027391
 20
85.499985045898441
 30
0.0
 11
42.996289978027391
 21
90.499985045898441
 31
0.0
  0
LINE
  5
13E
100
AcDbEntity
  8
0
  6
CONTINUOUS
 62
               4
100
AcDbLine
 10
43.311292419433641
 20
77.499985045898441
 30
0.0
 11
43.311292419433641
 21
82.098388976562504
 31
0.0
  0
LINE
  5
13F
100
AcDbEntity
  8
0
  6
CONTINUOUS
 62
               4
100
AcDbLine
 10
41.881284484863329
 20
77.499985045898441
 30
0.0
 11
41.881284484863329
 21
81.272781676757816
 31
0.0
  0
LINE
  5
140
100
AcDbEntity
  8
0
  6
CONTINUOUS
 62
               4
100
AcDbLine
 10
43.311292419433641
 20
85.499985045898441
 30
0.0
 11
41.881284484863329
 21
85.499985045898441
 31
0.0
  0
LINE
  5
141
100
AcDbEntity
  8
0
  6
CONTINUOUS
 62
               4
100
AcDbLine
 10
41.881284484863329
 20
82.427475280273441
 30
0.0
 11
41.881284484863329
 21
85.499985045898441
 31
0.0
  0
LINE
  5
142
100
AcDbEntity
  8
0
  6
CONTINUOUS
 62
               4
100
AcDbLine
 10
43.311292419433641
 20
83.253097838867191
 30
0.0
 11
43.311292419433641
 21
85.499985045898441
 31
0.0
  0
LINE
  5
143
100
AcDbEntity
  8
0
  6
CONTINUOUS
 62
               4
100
AcDbLine
 10
40.811292419433641
 20
81.809723205078129
 30
0.0
 11
40.811292419433641
 21
85.499985045898441
 31
0.0
  0
LINE
  5
144
100
AcDbEntity
  8
0
  6
CONTINUOUS
 62
               4
100
AcDbLine
 10
39.381284484863329
 20
80.984100646484379
 30
0.0
 11
39.381284484863329
 21
85.499985045898441
 31
0.0
  0
LINE
  5
145
100
AcDbEntity
  8
0
  6
CONTINUOUS
 62
               4
100
AcDbLine
 10
39.381284484863329
 20
85.499985045898441
 30
0.0
 11
40.811292419433641
 21
85.499985045898441
 31
0.0
  0
LINE
  5
146
100
AcDbEntity
  8
0
  6
CONTINUOUS
 62
               4
100
AcDbLine
 10
40.496289978027391
 20
85.499985045898441
 30
0.0
 11
40.496289978027391
 21
90.499985045898441
 31
0.0
  0
LINE
  5
147
100
AcDbEntity
  8
0
  6
CONTINUOUS
 62
               4
100
AcDbLine
 10
39.696286926269579
 20
85.499985045898441
 30
0.0
 11
39.696286926269579
 21
90.499969787109379
 31
0.0
  0
LINE
  5
148
100
AcDbEntity
  8
0
  6
CONTINUOUS
 62
               4
100
AcDbLine
 10
39.696286926269579
 20
90.499985045898441
 30
0.0
 11
40.496289978027391
 21
90.499985045898441
 31
0.0
  0
LINE
  5
149
100
AcDbEntity
  8
0
  6
CONTINUOUS
 62
               4
100
AcDbLine
 10
40.811292419433641
 20
77.499985045898441
 30
0.0
 11
40.811292419433641
 21
80.655014342773441
 31
0.0
  0
LINE
  5
14A
100
AcDbEntity
  8
0
  6
CONTINUOUS
 62
               4
100
AcDbLine
 10
39.381284484863329
 20
77.499985045898441
 30
0.0
 11
39.381284484863329
 21
79.829407042968754
 31
0.0
  0
LINE
  5
14B
100
AcDbEntity
  8
0
  6
CONTINUOUS
 62
             200
100
AcDbLine
 10
44.811299714225981
 20
84.11909085583325
 30
0.0
 11
37.881270622662498
 21
80.118042292051953
 31
0.0
  0
LINE
  5
14C
100
AcDbEntity
  8
0
  6
CONTINUOUS
 62
             200
100
AcDbLine
 10
44.811275165851669
 20
82.964449860977268
 30
0.0
 11
37.881265012332562
 21
78.963397956461861
 31
0.0
  0
LINE
  5
14D
100
AcDbEntity
  8
0
  6
CONTINUOUS
 62
               4
100
AcDbLine
 10
37.496280822753931
 20
70.999985045898441
 30
0.0
 11
37.496280822753931
 21
66.499985045898441
 31
0.0
  0
LINE
  5
14E
100
AcDbEntity
  8
0
  6
CONTINUOUS
 62
               4
100
AcDbLine
 10
46.096280822753954
 20
70.999985045898441
 30
0.0
 11
46.096280822753954
 21
66.499985045898441
 31
0.0
  0
ARC
  5
14F
100
AcDbEntity
  8
0
  6
CONTINUOUS
 62
               4
100
AcDbCircle
 10
59.670301661317978
 20
66.000084983344735
 30
0.0
 40
0.4999010215015999
100
AcDbArc
 50
24.197376208904824
 51
89.887774076865014
  0
LINE
  5
150
100
AcDbEntity
  8
0
  6
CONTINUOUS
 62
               4
100
AcDbLine
 10
59.670301661317978
 20
66.499985045898441
 30
0.0
 11
46.096280822753954
 21
66.499985045898441
 31
0.0
  0
LINE
  5
151
100
AcDbEntity
  8
0
  6
CONTINUOUS
 62
               4
100
AcDbLine
 10
60.126280822753927
 20
66.204985045898482
 30
0.0
 11
61.866280822753936
 21
62.289985045898405
 31
0.0
  0
LINE
  5
152
100
AcDbEntity
  8
0
  6
CONTINUOUS
 62
               4
100
AcDbLine
 10
35.69629455566411
 20
50.499985045898441
 30
0.0
 11
35.69629455566411
 21
57.499985045898441
 31
0.0
  0
LINE
  5
153
100
AcDbEntity
  8
0
  6
CONTINUOUS
 62
               4
100
AcDbLine
 10
36.596294555664088
 20
50.499985045898441
 30
0.0
 11
36.596294555664088
 21
57.499985045898441
 31
0.0
  0
LINE
  5
154
100
AcDbEntity
  8
0
  6
CONTINUOUS
 62
               4
100
AcDbLine
 10
34.996280822753931
 20
50.499985045898441
 30
0.0
 11
36.596294555664088
 21
50.499985045898441
 31
0.0
  0
ARC
  5
155
100
AcDbEntity
  8
0
  6
CONTINUOUS
 62
               4
100
AcDbCircle
 10
35.496280822753931
 20
65.999985045898441
 30
0.0
 40
0.5
100
AcDbArc
 50
90.0
 51
180.0
  0
LINE
  5
156
100
AcDbEntity
  8
0
  6
CONTINUOUS
 62
               4
100
AcDbLine
 10
34.996280822753931
 20
65.999985045898441
 30
0.0
 11
34.996280822753931
 21
62.530294681199649
 31
0.0
  0
LINE
  5
157
100
AcDbEntity
  8
0
  6
CONTINUOUS
 62
               7
100
AcDbLine
 10
35.996279296875002
 20
22.000000304687504
 30
0.0
 11
35.996279296875002
 21
23.999985045898441
 31
0.0
  0
LINE
  5
158
100
AcDbEntity
  8
0
  6
CONTINUOUS
 62
               4
100
AcDbLine
 10
36.599999999999966
 20
22.001762999999997
 30
0.0
 11
35.0
 21
22.001762999999997
 31
0.0
  0
LINE
  5
159
100
AcDbEntity
  8
0
  6
CONTINUOUS
 62
               7
100
AcDbLine
 10
35.996279296875002
 20
23.999985045898441
 30
0.0
 11
34.996279296875002
 21
23.999985045898441
 31
0.0
  0
ENDBLK
  5
15A
100
AcDbEntity
  8
0
100
AcDbBlockEnd
  0
BLOCK
  5
15B
100
AcDbEntity
  8
0
100
AcDbBlockBegin
  2
F10MN-4
 70
               0
 10
0.0
 20
0.0
 30
0.0
  3
F10MN-4
  1

  0
CIRCLE
  5
15C
100
AcDbEntity
  8
0
  6
CONTINUOUS
 62
               7
100
AcDbCircle
 10
2.25
 20
32.0
 30
0.0
 40
1.25
  0
CIRCLE
  5
15D
100
AcDbEntity
  8
0
  6
CONTINUOUS
 62
               7
100
AcDbCircle
 10
8.2499961853027344
 20
6.0
 30
0.0
 40
1.25
  0
CIRCLE
  5
15E
100
AcDbEntity
  8
0
  6
CONTINUOUS
 62
               7
100
AcDbCircle
 10
2.25
 20
32.0
 30
0.0
 40
1.3999996185302734
  0
CIRCLE
  5
15F
100
AcDbEntity
  8
0
  6
CONTINUOUS
 62
               7
100
AcDbCircle
 10
8.2499961853027344
 20
6.0
 30
0.0
 40
1.3999996185302734
  0
ARC
  5
160
100
AcDbEntity
  8
0
  6
CONTINUOUS
 62
               7
100
AcDbCircle
 10
1.4499969482421875
 20
6.20001220703125
 30
0.0
 40
1.5999994277954102
100
AcDbArc
 50
0.0
 51
89.999982013910653
  0
ARC
  5
161
100
AcDbEntity
  8
0
  6
CONTINUOUS
 62
               7
100
AcDbCircle
 10
9.0499954223632812
 20
31.799999237060547
 30
0.0
 40
1.5999994277954102
100
AcDbArc
 50
179.99996402782131
 51
270.00000068324533
  0
ARC
  5
162
100
AcDbEntity
  8
0
  6
CONTINUOUS
 62
               7
100
AcDbCircle
 10
3.4499969482421875
 20
3.600006103515625
 30
0.0
 40
0.4000000357627869
100
AcDbArc
 50
179.99996402782131
 51
270.00000068324533
  0
ARC
  5
163
100
AcDbEntity
  8
0
  6
CONTINUOUS
 62
               7
100
AcDbCircle
 10
9.8499946594238281
 20
3.600006103515625
 30
0.0
 40
0.4000000357627869
100
AcDbArc
 50
270.00001798608935
 51
0.0
  0
ARC
  5
164
100
AcDbEntity
  8
0
  6
CONTINUOUS
 62
               7
100
AcDbCircle
 10
9.8499946594238281
 20
29.80000114440918
 30
0.0
 40
0.4000000357627869
100
AcDbArc
 50
0.0
 51
89.999982013910653
  0
ARC
  5
165
100
AcDbEntity
  8
0
  6
CONTINUOUS
 62
               7
100
AcDbCircle
 10
7.0499954223632812
 20
34.400003433227539
 30
0.0
 40
0.4000000357627869
100
AcDbArc
 50
0.0
 51
89.999982013910653
  0
ARC
  5
166
100
AcDbEntity
  8
0
  6
CONTINUOUS
 62
               7
100
AcDbCircle
 10
0.6499977111816406
 20
34.400003433227539
 30
0.0
 40
0.4000000357627869
100
AcDbArc
 50
89.999982013910653
 51
179.99996402782131
  0
ARC
  5
167
100
AcDbEntity
  8
0
  6
CONTINUOUS
 62
               7
100
AcDbCircle
 10
0.6499977111816406
 20
8.20001220703125
 30
0.0
 40
0.4000000357627869
100
AcDbArc
 50
179.99996402782131
 51
270.00000068324533
  0
LINE
  5
168
100
AcDbEntity
  8
0
  6
CONTINUOUS
 62
               7
100
AcDbLine
 10
1.6489562177350905
 20
31.398959661628282
 30
0.0
 11
2.8510383659870655
 21
32.601041708552316
 31
0.0
  0
LINE
  5
169
100
AcDbEntity
  8
0
  6
CONTINUOUS
 62
               7
100
AcDbLine
 10
1.6489662180941451
 20
32.60104831568276
 30
0.0
 11
2.8510483663461201
 21
31.398966268758727
 31
0.0
  0
LINE
  5
16A
100
AcDbEntity
  8
0
  6
CONTINUOUS
 62
               7
100
AcDbLine
 10
0.25
 20
8.20001220703125
 30
0.0
 11
0.25
 21
34.400003433227539
 31
0.0
  0
LINE
  5
16B
100
AcDbEntity
  8
0
  6
CONTINUOUS
 62
               7
100
AcDbLine
 10
7.6489551801668654
 20
6.6010523658226248
 30
0.0
 11
8.8510346310203545
 21
5.3989730162968499
 31
0.0
  0
LINE
  5
16C
100
AcDbEntity
  8
0
  6
CONTINUOUS
 62
               7
100
AcDbLine
 10
7.648950965482527
 20
5.3989596978930194
 30
0.0
 11
8.851033113734502
 21
6.6010417448170529
 31
0.0
  0
LINE
  5
16D
100
AcDbEntity
  8
0
  6
CONTINUOUS
 62
               7
100
AcDbLine
 10
9.0499916076660156
 20
30.200006484985352
 30
0.0
 11
9.8499946594238281
 21
30.200006484985352
 31
0.0
  0
LINE
  5
16E
100
AcDbEntity
  8
0
  6
CONTINUOUS
 62
               7
100
AcDbLine
 10
1.4499969482421875
 20
7.8000030517578125
 30
0.0
 11
0.6499977111816406
 21
7.8000030517578125
 31
0.0
  0
LINE
  5
16F
100
AcDbEntity
  8
0
  6
CONTINUOUS
 62
               7
100
AcDbLine
 10
3.0500030517578125
 20
6.1999969482421875
 30
0.0
 11
3.0500030517578125
 21
3.600006103515625
 31
0.0
  0
LINE
  5
170
100
AcDbEntity
  8
0
  6
CONTINUOUS
 62
               7
100
AcDbLine
 10
7.4500007629394531
 20
31.799999237060547
 30
0.0
 11
7.4500007629394531
 21
34.400003433227539
 31
0.0
  0
LINE
  5
171
100
AcDbEntity
  8
0
  6
CONTINUOUS
 62
               7
100
AcDbLine
 10
0.6499977111816406
 20
34.800003051757813
 30
0.0
 11
7.0499954223632812
 21
34.800003051757813
 31
0.0
  0
LINE
  5
172
100
AcDbEntity
  8
0
  6
CONTINUOUS
 62
               7
100
AcDbLine
 10
3.4499969482421875
 20
3.20001220703125
 30
0.0
 11
9.8499908447265625
 21
3.20001220703125
 31
0.0
  0
LINE
  5
173
100
AcDbEntity
  8
0
  6
CONTINUOUS
 62
               7
100
AcDbLine
 10
10.25
 20
3.600006103515625
 30
0.0
 11
10.25
 21
29.80000114440918
 31
0.0
  0
ARC
  5
174
100
AcDbEntity
  8
0
  6
CONTINUOUS
 62
               7
100
AcDbCircle
 10
0.649993896484375
 20
35.399993896484375
 30
0.0
 40
0.3999999761581421
100
AcDbArc
 50
180.0
 51
269.99998201391065
  0
LINE
  5
175
100
AcDbEntity
  8
0
  6
CONTINUOUS
 62
               4
100
AcDbLine
 10
0.25
 20
59.600055171321742
 30
0.0
 11
0.25
 21
61.600006103515625
 31
0.0
  0
LINE
  5
176
100
AcDbEntity
  8
0
  6
CONTINUOUS
 62
               4
100
AcDbLine
 10
10.25
 20
59.600055171321742
 30
0.0
 11
10.25
 21
61.600006103515625
 31
0.0
  0
ARC
  5
177
100
AcDbEntity
  8
0
  6
CONTINUOUS
 62
               7
100
AcDbCircle
 10
9.850006103515625
 20
58.600006103515625
 30
0.0
 40
0.3999999761581421
100
AcDbArc
 50
0.0000359721786855
 51
90.000017986089347
  0
LINE
  5
178
100
AcDbEntity
  8
0
  6
CONTINUOUS
 62
               7
100
AcDbLine
 10
9.8500169761882717
 20
60.000039611210013
 30
0.0
 11
10.25001885067104
 21
59.600036320583968
 31
0.0
  0
ARC
  5
179
100
AcDbEntity
  8
0
  6
CONTINUOUS
 62
               4
100
AcDbCircle
 10
9.8499984741210937
 20
61.600006103515625
 30
0.0
 40
0.3999999761581421
100
AcDbArc
 50
0.0000359721786855
 51
90.000017986089347
  0
LINE
  5
17A
100
AcDbEntity
  8
0
  6
CONTINUOUS
 62
               7
100
AcDbLine
 10
10.5
 20
1.0
 30
0.0
 11
0.0
 21
1.0
 31
0.0
  0
ARC
  5
17B
100
AcDbEntity
  8
0
  6
CONTINUOUS
 62
               7
100
AcDbCircle
 10
1.45001220703125
 20
6.1999969482421875
 30
0.0
 40
1.3999996185302734
100
AcDbArc
 50
0.0
 51
89.999982013910653
  0
LINE
  5
17C
100
AcDbEntity
  8
0
  6
CONTINUOUS
 62
               7
100
AcDbLine
 10
2.850006103515625
 20
3.0
 30
0.0
 11
2.850006103515625
 21
6.1999969482421875
 31
0.0
  0
LINE
  5
17D
100
AcDbEntity
  8
0
  6
CONTINUOUS
 62
               7
100
AcDbLine
 10
0.0
 20
7.5999908447265625
 30
0.0
 11
1.45001220703125
 21
7.5999908447265625
 31
0.0
  0
LINE
  5
17E
100
AcDbEntity
  8
0
  6
CONTINUOUS
 62
               7
100
AcDbLine
 10
10.5
 20
35.0
 30
0.0
 11
10.5
 21
1.0
 31
0.0
  0
LINE
  5
17F
100
AcDbEntity
  8
0
  6
CONTINUOUS
 62
               7
100
AcDbLine
 10
10.25
 20
35.399993896484375
 30
0.0
 11
10.25
 21
59.600055171321742
 31
0.0
  0
ARC
  5
180
100
AcDbEntity
  8
0
  6
CONTINUOUS
 62
               7
100
AcDbCircle
 10
9.850006103515625
 20
35.399993896484375
 30
0.0
 40
0.3999999761581421
100
AcDbArc
 50
270.00001798608935
 51
0.0
  0
LINE
  5
181
100
AcDbEntity
  8
0
  6
CONTINUOUS
 62
               7
100
AcDbLine
 10
9.04998779296875
 20
30.399993896484375
 30
0.0
 11
10.5
 21
30.399993896484375
 31
0.0
  0
LINE
  5
182
100
AcDbEntity
  8
0
  6
CONTINUOUS
 62
               7
100
AcDbLine
 10
8.4499969482421875
 20
38.399993896484375
 30
0.0
 11
10.25
 21
38.399993896484375
 31
0.0
  0
LINE
  5
183
100
AcDbEntity
  8
0
  6
CONTINUOUS
 62
               7
100
AcDbLine
 10
0.0
 20
35.0
 30
0.0
 11
0.0
 21
1.0
 31
0.0
  0
LINE
  5
184
100
AcDbEntity
  8
0
  6
CONTINUOUS
 62
               7
100
AcDbLine
 10
0.25
 20
53.800003051757813
 30
0.0
 11
2.0500030517578125
 21
53.800003051757813
 31
0.0
  0
LINE
  5
185
100
AcDbEntity
  8
0
  6
CONTINUOUS
 62
               7
100
AcDbLine
 10
0.25
 20
50.600006103515625
 30
0.0
 11
2.0500030517578125
 21
50.600006103515625
 31
0.0
  0
LINE
  5
186
100
AcDbEntity
  8
0
  6
CONTINUOUS
 62
               7
100
AcDbLine
 10
1.4489965072725681
 20
51.59893716879742
 30
0.0
 11
2.6510759581260572
 21
52.801016518323195
 31
0.0
  0
LINE
  5
187
100
AcDbEntity
  8
0
  6
CONTINUOUS
 62
               7
100
AcDbLine
 10
1.4489692635497704
 20
52.801038670709204
 30
0.0
 11
2.6510487144032595
 21
51.598959321183429
 31
0.0
  0
LINE
  5
188
100
AcDbEntity
  8
0
  6
CONTINUOUS
 62
               7
100
AcDbLine
 10
0.6499830238117283
 20
60.000039611210013
 30
0.0
 11
0.2499811493289599
 21
59.600036320583968
 31
0.0
  0
ARC
  5
189
100
AcDbEntity
  8
0
  6
CONTINUOUS
 62
               7
100
AcDbCircle
 10
0.649993896484375
 20
58.600006103515625
 30
0.0
 40
0.3999999761581421
100
AcDbArc
 50
89.999982013910653
 51
179.99996402782131
  0
ARC
  5
18A
100
AcDbEntity
  8
0
  6
CONTINUOUS
 62
               4
100
AcDbCircle
 10
0.6500015258789063
 20
61.600006103515625
 30
0.0
 40
0.3999999761581421
100
AcDbArc
 50
89.999982013910653
 51
179.99996402782131
  0
LINE
  5
18B
100
AcDbEntity
  8
0
  6
CONTINUOUS
 62
               7
100
AcDbLine
 10
0.25
 20
35.399993896484375
 30
0.0
 11
0.25
 21
59.600055171321742
 31
0.0
  0
LINE
  5
18C
100
AcDbEntity
  8
0
  6
CONTINUOUS
 62
               7
100
AcDbLine
 10
6.850006103515625
 20
36.800003051757813
 30
0.0
 11
6.850006103515625
 21
35.0
 31
0.0
  0
LINE
  5
18D
100
AcDbEntity
  8
0
  6
CONTINUOUS
 62
             200
100
AcDbLine
 10
5.25
 20
59.0
 30
0.0
 11
5.25
 21
63.9976806640625
 31
0.0
  0
LINE
  5
18E
100
AcDbEntity
  8
0
  6
CONTINUOUS
 62
               7
100
AcDbLine
 10
7.649993896484375
 20
31.800003051757813
 30
0.0
 11
7.649993896484375
 21
35.0
 31
0.0
  0
LINE
  5
18F
100
AcDbEntity
  8
0
  6
CONTINUOUS
 62
               4
100
AcDbLine
 10
7.1999969482421875
 20
63.0
 30
0.0
 11
7.1999969482421875
 21
62.0
 31
0.0
  0
LINE
  5
190
100
AcDbEntity
  8
0
  6
CONTINUOUS
 62
               4
100
AcDbLine
 10
3.2999954223632812
 20
63.0
 30
0.0
 11
7.1999969482421875
 21
63.0
 31
0.0
  0
LINE
  5
191
100
AcDbEntity
  8
0
  6
CONTINUOUS
 62
               4
100
AcDbLine
 10
3.2999954223632812
 20
63.0
 30
0.0
 11
3.2999954223632812
 21
62.0
 31
0.0
  0
LINE
  5
192
100
AcDbEntity
  8
0
  6
CONTINUOUS
 62
               7
100
AcDbLine
 10
10.5
 20
35.0
 30
0.0
 11
0.0
 21
35.0
 31
0.0
  0
ARC
  5
193
100
AcDbEntity
  8
0
  6
CONTINUOUS
 62
               7
100
AcDbCircle
 10
9.04998779296875
 20
31.800003051757813
 30
0.0
 40
1.3999996185302734
100
AcDbArc
 50
179.99998133066532
 51
270.00001798608935
  0
ARC
  5
194
100
AcDbEntity
  8
0
  6
CONTINUOUS
 62
               7
100
AcDbCircle
 10
2.0500030517578125
 20
52.199996948242188
 30
0.0
 40
1.5999984741210938
100
AcDbArc
 50
270.00001798608935
 51
89.999982013910653
  0
ARC
  5
195
100
AcDbEntity
  8
0
  6
CONTINUOUS
 62
               7
100
AcDbCircle
 10
8.4499969482421875
 20
36.800003051757813
 30
0.0
 40
1.5999994277954102
100
AcDbArc
 50
89.999982013910653
 51
179.99996402782131
  0
CIRCLE
  5
196
100
AcDbEntity
  8
0
  6
CONTINUOUS
 62
               7
100
AcDbCircle
 10
2.0500030517578125
 20
52.199996948242188
 30
0.0
 40
1.25
  0
CIRCLE
  5
197
100
AcDbEntity
  8
0
  6
CONTINUOUS
 62
               7
100
AcDbCircle
 10
8.4499969482421875
 20
36.800003051757813
 30
0.0
 40
1.25
  0
LINE
  5
198
100
AcDbEntity
  8
0
  6
CONTINUOUS
 62
               4
100
AcDbLine
 10
0.6500015258789063
 20
62.0
 30
0.0
 11
9.8499984741210937
 21
62.0
 31
0.0
  0
LINE
  5
199
100
AcDbEntity
  8
0
  6
CONTINUOUS
 62
               2
100
AcDbLine
 10
5.25
 20
-0.829620361328125
 30
0.0
 11
5.25
 21
59.0
 31
0.0
  0
LINE
  5
19A
100
AcDbEntity
  8
0
  6
CONTINUOUS
 62
               7
100
AcDbLine
 10
0.0
 20
3.0
 30
0.0
 11
10.5
 21
3.0
 31
0.0
  0
LINE
  5
19B
100
AcDbEntity
  8
0
  6
CONTINUOUS
 62
               7
100
AcDbLine
 10
10.25
 20
59.600006103515625
 30
0.0
 11
0.25
 21
59.600006103515625
 31
0.0
  0
LINE
  5
19C
100
AcDbEntity
  8
0
  6
CONTINUOUS
 62
               7
100
AcDbLine
 10
10.25
 20
59.0
 30
0.0
 11
0.25
 21
59.0
 31
0.0
  0
LINE
  5
19D
100
AcDbEntity
  8
0
  6
CONTINUOUS
 62
               7
100
AcDbLine
 10
0.649993896484375
 20
60.0
 30
0.0
 11
9.850006103515625
 21
60.0
 31
0.0
  0
LINE
  5
19E
100
AcDbEntity
  8
0
  6
CONTINUOUS
 62
               7
100
AcDbLine
 10
7.8489575552557653
 20
37.401041364176308
 30
0.0
 11
9.0510477957031981
 21
36.198951225057499
 31
0.0
  0
LINE
  5
19F
100
AcDbEntity
  8
0
  6
CONTINUOUS
 62
               7
100
AcDbLine
 10
7.8489942904488998
 20
36.198928533191975
 30
0.0
 11
9.051073741302389
 21
37.401007882717749
 31
0.0
  0
LINE
  5
1A0
100
AcDbEntity
  8
0
  6
CONTINUOUS
 62
               7
100
AcDbLine
 10
0.0
 20
0.0
 30
0.0
 11
10.5
 21
0.0
 31
0.0
  0
LINE
  5
1A2
100
AcDbEntity
  8
0
  6
CENTER
 62
               2
100
AcDbLine
 10
5.25
 20
62.939999999999998
 30
0.0
 11
5.25
 21
60.0
 31
0.0
  0
ENDBLK
  5
1A3
100
AcDbEntity
  8
0
100
AcDbBlockEnd
  0
BLOCK
  5
1A4
100
AcDbEntity
  8
0
100
AcDbBlockBegin
  2
F10MN-5
 70
               0
 10
0.0
 20
0.0
 30
0.0
  3
F10MN-5
  1

  0
LINE
  5
1A5
100
AcDbEntity
  8
0
  6
CONTINUOUS
 62
               4
100
AcDbLine
 10
0.5
 20
-14.000015258789077
 30
0.0
 11
0.5
 21
-17.300018310546889
 31
0.0
  0
LINE
  5
1A6
100
AcDbEntity
  8
0
  6
CONTINUOUS
 62
               7
100
AcDbLine
 10
0.4999570153231616
 20
-8.2000331169774796
 30
0.0
 11
0.4999570153231616
 21
-13.800023961704042
 31
0.0
  0
LINE
  5
1A7
100
AcDbEntity
  8
0
  6
CONTINUOUS
 62
               4
100
AcDbLine
 10
0.5
 20
32.260955810546861
 30
0.0
 11
0.5
 21
35.299972534179673
 31
0.0
  0
LINE
  5
1A8
100
AcDbEntity
  8
0
  6
CONTINUOUS
 62
               7
100
AcDbLine
 10
18.499957015323162
 20
26.199976038295958
 30
0.0
 11
18.499957015323162
 21
31.799982141811583
 31
0.0
  0
LINE
  5
1A9
100
AcDbEntity
  8
0
  6
CONTINUOUS
 62
               4
100
AcDbLine
 10
17.399999999999977
 20
0.2999847412109347
 30
0.0
 11
17.834041755690464
 21
0.5505788656983697
 31
0.0
  0
LINE
  5
1AA
100
AcDbEntity
  8
0
  6
CONTINUOUS
 62
               4
100
AcDbLine
 10
17.399999999999977
 20
-1.3000152587890739
 30
0.0
 11
17.834041755690464
 21
-1.5506093832765089
 31
0.0
  0
LINE
  5
1AB
100
AcDbEntity
  8
0
  6
CONTINUOUS
 62
               4
100
AcDbLine
 10
17.399999999999977
 20
-1.3000152587890739
 30
0.0
 11
17.399999999999977
 21
0.2999847352504617
 31
0.0
  0
LINE
  5
1AC
100
AcDbEntity
  8
0
  6
CONTINUOUS
 62
               4
100
AcDbLine
 10
17.399999999999977
 20
19.299984741210906
 30
0.0
 11
17.834041755690464
 21
19.55057886569837
 31
0.0
  0
LINE
  5
1AD
100
AcDbEntity
  8
0
  6
CONTINUOUS
 62
               4
100
AcDbLine
 10
17.399999999999977
 20
17.69998474121094
 30
0.0
 11
17.834041755690464
 21
17.449390616723477
 31
0.0
  0
LINE
  5
1AE
100
AcDbEntity
  8
0
  6
CONTINUOUS
 62
               4
100
AcDbLine
 10
17.399999999999977
 20
17.69998474121094
 30
0.0
 11
17.399999999999977
 21
19.299984735250476
 31
0.0
  0
LINE
  5
1AF
100
AcDbEntity
  8
0
  6
CONTINUOUS
 62
               4
100
AcDbLine
 10
18.5
 20
31.999984741210923
 30
0.0
 11
18.5
 21
35.299972534179673
 31
0.0
  0
LINE
  5
1B0
100
AcDbEntity
  8
0
  6
CONTINUOUS
 62
               7
100
AcDbLine
 10
19.0
 20
-25.500000000000014
 30
0.0
 11
19.0
 21
62.500000000000014
 31
0.0
  0
LINE
  5
1B1
100
AcDbEntity
  8
0
  6
CONTINUOUS
 62
               4
100
AcDbLine
 10
18.5
 20
-11.739044189453139
 30
0.0
 11
18.5
 21
25.999984741210923
 31
0.0
  0
LINE
  5
1B2
100
AcDbEntity
  8
0
  6
CONTINUOUS
 62
               4
100
AcDbLine
 10
18.5
 20
-17.300018310546889
 30
0.0
 11
18.5
 21
-14.260955810546889
 31
0.0
  0
LINE
  5
1B3
100
AcDbEntity
  8
0
  6
CONTINUOUS
 62
               7
100
AcDbLine
 10
18.5
 20
-30.5
 30
0.0
 11
18.5
 21
-25.500000000000014
 31
0.0
  0
LINE
  5
1B4
100
AcDbEntity
  8
0
  6
CONTINUOUS
 62
               7
100
AcDbLine
 10
0.25
 20
-29.0
 30
0.0
 11
0.25
 21
-28.5
 31
0.0
  0
LINE
  5
1B5
100
AcDbEntity
  8
0
  6
CONTINUOUS
 62
               7
100
AcDbLine
 10
0.0
 20
-25.500000000000014
 30
0.0
 11
0.0
 21
62.499999999999986
 31
0.0
  0
LINE
  5
1B6
100
AcDbEntity
  8
0
  6
CONTINUOUS
 62
               7
100
AcDbLine
 10
0.5
 20
-28.5
 30
0.0
 11
0.5
 21
-25.500000000000014
 31
0.0
  0
LINE
  5
1B7
100
AcDbEntity
  8
0
  6
CONTINUOUS
 62
               4
100
AcDbLine
 10
0.5
 20
-8.0000152587890767
 30
0.0
 11
0.5
 21
29.739044189453111
 31
0.0
  0
ARC
  5
1B8
100
AcDbEntity
  8
0
  6
CONTINUOUS
 62
               7
100
AcDbCircle
 10
2.9999570153231616
 20
-11.00002090994623
 30
0.0
 40
2.7999992370605469
100
AcDbArc
 50
270.00001798608935
 51
89.999982013910653
  0
ARC
  5
1B9
100
AcDbEntity
  8
0
  6
CONTINUOUS
 62
               7
100
AcDbCircle
 10
15.999957015323162
 20
28.99997909005377
 30
0.0
 40
2.7999992370605469
100
AcDbArc
 50
89.999982013910653
 51
270.00000068324533
  0
LINE
  5
1BA
100
AcDbEntity
  8
0
  6
CONTINUOUS
 62
               4
100
AcDbLine
 10
4.851834472360224
 20
-8.6397612209446635
 30
0.0
 11
5.7788394689559937
 21
-8.6397612209446635
 31
0.0
  0
LINE
  5
1BB
100
AcDbEntity
  8
0
  6
CONTINUOUS
 62
               4
100
AcDbLine
 10
1.5999999999999091
 20
17.69998474121094
 30
0.0
 11
1.5999999999999091
 21
19.299984735250476
 31
0.0
  0
LINE
  5
1BC
100
AcDbEntity
  8
0
  6
CONTINUOUS
 62
               4
100
AcDbLine
 10
10.25
 20
8.6901969259213416
 30
0.0
 11
10.25
 21
9.3097725565005049
 31
0.0
  0
LINE
  5
1BD
100
AcDbEntity
  8
0
  6
CONTINUOUS
 62
               4
100
AcDbLine
 10
8.75
 20
8.6901969259213416
 30
0.0
 11
8.75
 21
9.3097725565005049
 31
0.0
  0
ARC
  5
1BE
100
AcDbEntity
  8
0
  6
CONTINUOUS
 62
               4
100
AcDbCircle
 10
8.4500000000000455
 20
9.3097725565005049
 30
0.0
 40
0.3
100
AcDbArc
 50
0.0
 51
83.482105791022747
  0
ARC
  5
1BF
100
AcDbEntity
  8
0
  6
CONTINUOUS
 62
               4
100
AcDbCircle
 10
8.4500000000000455
 20
8.6901969259213416
 30
0.0
 40
0.3
100
AcDbArc
 50
276.51789420897717
 51
0.0
  0
ARC
  5
1C0
100
AcDbEntity
  8
0
  6
CONTINUOUS
 62
               4
100
AcDbCircle
 10
10.549999999999955
 20
9.3097725565005049
 30
0.0
 40
0.3
100
AcDbArc
 50
96.517894208978589
 51
180.0
  0
ARC
  5
1C1
100
AcDbEntity
  8
0
  6
CONTINUOUS
 62
               4
100
AcDbCircle
 10
10.549999999999955
 20
8.6901969259213416
 30
0.0
 40
0.3
100
AcDbArc
 50
180.0
 51
263.48210579102283
  0
LINE
  5
1C2
100
AcDbEntity
  8
0
  6
CONTINUOUS
 62
               4
100
AcDbLine
 10
1.5999999999999091
 20
-1.3000152587890739
 30
0.0
 11
1.5999999999999091
 21
0.2999847352504617
 31
0.0
  0
LINE
  5
1C3
100
AcDbEntity
  8
0
  6
CONTINUOUS
 62
               4
100
AcDbLine
 10
1.5999999999999091
 20
0.2999847412109347
 30
0.0
 11
1.1659582443094223
 21
0.5505788656983697
 31
0.0
  0
LINE
  5
1C4
100
AcDbEntity
  8
0
  6
CONTINUOUS
 62
               4
100
AcDbLine
 10
1.5999999999999091
 20
-1.3000152587890739
 30
0.0
 11
1.1659582443094223
 21
-1.5506093832765089
 31
0.0
  0
LINE
  5
1C5
100
AcDbEntity
  8
0
  6
CONTINUOUS
 62
               4
100
AcDbLine
 10
1.5999999999999091
 20
17.69998474121094
 30
0.0
 11
1.1659582443094223
 21
17.449390616723477
 31
0.0
  0
LINE
  5
1C6
100
AcDbEntity
  8
0
  6
CONTINUOUS
 62
               4
100
AcDbLine
 10
1.5999999999999091
 20
19.299984741210906
 30
0.0
 11
1.1659582443094223
 21
19.55057886569837
 31
0.0
  0
LINE
  5
1C7
100
AcDbEntity
  8
0
  6
CONTINUOUS
 62
               4
100
AcDbLine
 10
13.221160527519828
 20
26.63973070336651
 30
0.0
 11
14.148214148469378
 21
26.63973070336651
 31
0.0
  0
CIRCLE
  5
1C8
100
AcDbEntity
  8
0
  6
CONTINUOUS
 62
               4
100
AcDbCircle
 10
9.5
 20
-0.5000152587890767
 30
0.0
 40
4.0499999999999998
  0
CIRCLE
  5
1C9
100
AcDbEntity
  8
0
  6
CONTINUOUS
 62
               4
100
AcDbCircle
 10
9.5
 20
-0.5000152587890767
 30
0.0
 40
5.0499999999999998
  0
CIRCLE
  5
1CA
100
AcDbEntity
  8
0
  6
CONTINUOUS
 62
               4
100
AcDbCircle
 10
9.5
 20
18.499984741210923
 30
0.0
 40
5.0499999999999998
  0
CIRCLE
  5
1CB
100
AcDbEntity
  8
0
  6
CONTINUOUS
 62
               4
100
AcDbCircle
 10
9.5
 20
18.499984741210923
 30
0.0
 40
4.0499999999999998
  0
ARC
  5
1CC
100
AcDbEntity
  8
0
  6
CONTINUOUS
 62
               7
100
AcDbCircle
 10
4.25
 20
-29.0
 30
0.0
 40
1.5
100
AcDbArc
 50
270.00001798608935
 51
359.99995901886496
  0
ARC
  5
1CD
100
AcDbEntity
  8
0
  6
CONTINUOUS
 62
               4
100
AcDbCircle
 10
16.0
 20
-13.000000000000014
 30
0.0
 40
3.0
100
AcDbArc
 50
89.999982013910653
 51
179.99996402782131
  0
ARC
  5
1CE
100
AcDbEntity
  8
0
  6
CONTINUOUS
 62
               4
100
AcDbCircle
 10
3.0
 20
30.999999999999986
 30
0.0
 40
3.0
100
AcDbArc
 50
270.00001798608935
 51
0.00001366037834
  0
ARC
  5
1CF
100
AcDbEntity
  8
0
  6
CONTINUOUS
 62
               4
100
AcDbCircle
 10
3.0
 20
-11.000000000000014
 30
0.0
 40
3.0
100
AcDbArc
 50
269.99996334457597
 51
89.999982013910653
  0
ARC
  5
1D0
100
AcDbEntity
  8
0
  6
CONTINUOUS
 62
               4
100
AcDbCircle
 10
16.0
 20
28.999999999999986
 30
0.0
 40
3.0
100
AcDbArc
 50
89.999982013910653
 51
269.99994604173196
  0
LINE
  5
1D1
100
AcDbEntity
  8
0
  6
CONTINUOUS
 62
               4
100
AcDbLine
 10
1.9392958175239983
 20
29.939289212345088
 30
0.0
 11
4.0606163035927239
 21
32.060609519599879
 31
0.0
  0
LINE
  5
1D2
100
AcDbEntity
  8
0
  6
CONTINUOUS
 62
               4
100
AcDbLine
 10
1.9393714340903898
 20
32.060728294532041
 30
0.0
 11
4.0606917413451811
 21
29.939407808463315
 31
0.0
  0
LINE
  5
1D3
100
AcDbEntity
  8
0
  6
CONTINUOUS
 62
               7
100
AcDbLine
 10
6.0
 20
-30.5
 30
0.0
 11
6.0
 21
-28.5
 31
0.0
  0
LINE
  5
1D4
100
AcDbEntity
  8
0
  6
CONTINUOUS
 62
               7
100
AcDbLine
 10
5.75
 20
-29.0
 30
0.0
 11
5.75
 21
-28.5
 31
0.0
  0
LINE
  5
1D5
100
AcDbEntity
  8
0
  6
CONTINUOUS
 62
               4
100
AcDbLine
 10
13.0
 20
-13.000000000000014
 30
0.0
 11
13.0
 21
-17.300018310546889
 31
0.0
  0
LINE
  5
1D6
100
AcDbEntity
  8
0
  6
CONTINUOUS
 62
               4
100
AcDbLine
 10
6.0
 20
30.999999999999986
 30
0.0
 11
6.0
 21
35.299987792968736
 31
0.0
  0
LINE
  5
1D7
100
AcDbEntity
  8
0
  6
CONTINUOUS
 62
               7
100
AcDbLine
 10
0.0
 20
60.999999999999986
 30
0.0
 11
19.0
 21
60.999999999999986
 31
0.0
  0
LINE
  5
1D8
100
AcDbEntity
  8
0
  6
CONTINUOUS
 62
               7
100
AcDbLine
 10
0.0
 20
-17.500000000000014
 30
0.0
 11
19.0
 21
-17.500000000000014
 31
0.0
  0
LINE
  5
1D9
100
AcDbEntity
  8
0
  6
CONTINUOUS
 62
               7
100
AcDbLine
 10
0.0
 20
62.499999999999986
 30
0.0
 11
19.0
 21
62.499999999999986
 31
0.0
  0
LINE
  5
1DA
100
AcDbEntity
  8
0
  6
CONTINUOUS
 62
               7
100
AcDbLine
 10
0.0
 20
61.499999999999986
 30
0.0
 11
19.0
 21
61.499999999999986
 31
0.0
  0
LINE
  5
1DB
100
AcDbEntity
  8
0
  6
CONTINUOUS
 62
               7
100
AcDbLine
 10
0.0
 20
35.499999999999986
 30
0.0
 11
19.0
 21
35.499999999999986
 31
0.0
  0
LINE
  5
1DC
100
AcDbEntity
  8
0
  6
CONTINUOUS
 62
               4
100
AcDbLine
 10
0.5
 20
35.299972534179673
 30
0.0
 11
18.5
 21
35.299972534179673
 31
0.0
  0
LINE
  5
1DD
100
AcDbEntity
  8
0
  6
CONTINUOUS
 62
               4
100
AcDbLine
 10
0.5
 20
-17.300018310546889
 30
0.0
 11
18.5
 21
-17.300018310546889
 31
0.0
  0
LINE
  5
1DE
100
AcDbEntity
  8
0
  6
CONTINUOUS
 62
               4
100
AcDbLine
 10
16.0
 20
31.999984741210923
 30
0.0
 11
18.5
 21
31.999984741210923
 31
0.0
  0
LINE
  5
1DF
100
AcDbEntity
  8
0
  6
CONTINUOUS
 62
               4
100
AcDbLine
 10
16.0
 20
25.999984741210923
 30
0.0
 11
18.5
 21
25.999984741210923
 31
0.0
  0
LINE
  5
1E0
100
AcDbEntity
  8
0
  6
CONTINUOUS
 62
               4
100
AcDbLine
 10
0.5
 20
-14.000015258789077
 30
0.0
 11
3.0
 21
-14.000015258789077
 31
0.0
  0
LINE
  5
1E1
100
AcDbEntity
  8
0
  6
CONTINUOUS
 62
               4
100
AcDbLine
 10
0.5
 20
-8.0000152587890767
 30
0.0
 11
3.0
 21
-8.0000152587890767
 31
0.0
  0
LINE
  5
1E2
100
AcDbEntity
  8
0
  6
CONTINUOUS
 62
               4
100
AcDbLine
 10
3.0
 20
27.999984741210923
 30
0.0
 11
0.5
 21
27.999984741210923
 31
0.0
  0
LINE
  5
1E3
100
AcDbEntity
  8
0
  6
CONTINUOUS
 62
             200
100
AcDbLine
 10
-1.0
 20
-0.5000152587890767
 30
0.0
 11
20.0
 21
-0.5000152587890767
 31
0.0
  0
LINE
  5
1E4
100
AcDbEntity
  8
0
  6
CONTINUOUS
 62
               4
100
AcDbLine
 10
16.0
 20
-10.000015258789077
 30
0.0
 11
18.5
 21
-10.000015258789077
 31
0.0
  0
LINE
  5
1E5
100
AcDbEntity
  8
0
  6
CONTINUOUS
 62
               4
100
AcDbLine
 10
14.939362259604422
 20
-14.060684372813753
 30
0.0
 11
17.060682745673148
 21
-11.939364065558962
 31
0.0
  0
LINE
  5
1E6
100
AcDbEntity
  8
0
  6
CONTINUOUS
 62
               4
100
AcDbLine
 10
14.939378533404579
 20
-11.939293843794999
 30
0.0
 11
17.060693445862853
 21
-14.060608935066753
 31
0.0
  0
LINE
  5
1E7
100
AcDbEntity
  8
0
  6
CONTINUOUS
 62
               7
100
AcDbLine
 10
18.5
 20
-28.5
 30
0.0
 11
0.25
 21
-28.5
 31
0.0
  0
LINE
  5
1E8
100
AcDbEntity
  8
0
  6
CONTINUOUS
 62
               7
100
AcDbLine
 10
18.5
 20
-30.5
 30
0.0
 11
1.75
 21
-30.5
 31
0.0
  0
LINE
  5
1E9
100
AcDbEntity
  8
0
  6
CONTINUOUS
 62
               7
100
AcDbLine
 10
0.0
 20
-25.500000000000014
 30
0.0
 11
19.0
 21
-25.500000000000014
 31
0.0
  0
CIRCLE
  5
1EA
100
AcDbEntity
  8
0
  6
CONTINUOUS
 62
               4
100
AcDbCircle
 10
16.0
 20
-13.000000000000014
 30
0.0
 40
2.7999992370605469
  0
ARC
  5
1EB
100
AcDbEntity
  8
0
  6
CONTINUOUS
 62
               7
100
AcDbCircle
 10
1.75
 20
-29.0
 30
0.0
 40
1.5
100
AcDbArc
 50
180.00003597217869
 51
270.00001798608935
  0
CIRCLE
  5
1EC
100
AcDbEntity
  8
0
  6
CONTINUOUS
 62
               4
100
AcDbCircle
 10
3.0
 20
30.999999999999986
 30
0.0
 40
2.7999992370605469
  0
LINE
  5
1ED
100
AcDbEntity
  8
0
  6
CONTINUOUS
 62
             200
100
AcDbLine
 10
-1.0
 20
18.499984741210923
 30
0.0
 11
20.0
 21
18.499984741210923
 31
0.0
  0
LINE
  5
1EE
100
AcDbEntity
  8
0
  6
CONTINUOUS
 62
               4
100
AcDbLine
 10
0.5
 20
26.63973070336651
 30
0.0
 11
5.7788394724800582
 21
26.63973070336651
 31
0.0
  0
ARC
  5
1EF
100
AcDbEntity
  8
0
  6
CONTINUOUS
 62
               4
100
AcDbCircle
 10
9.5
 20
18.499984741210923
 30
0.0
 40
8.4000000000000004
100
AcDbArc
 50
7.1848403149542639
 51
172.81515968504576
  0
CIRCLE
  5
1F0
100
AcDbEntity
  8
0
  6
CONTINUOUS
 62
               4
100
AcDbCircle
 10
9.5
 20
18.499984741210923
 30
0.0
 40
8.9499999999999993
  0
ARC
  5
1F1
100
AcDbEntity
  8
0
  6
CONTINUOUS
 62
               4
100
AcDbCircle
 10
9.5
 20
-0.5000152587890767
 30
0.0
 40
8.4000000000000004
100
AcDbArc
 50
187.18484031495424
 51
352.81515968504578
  0
ARC
  5
1F2
100
AcDbEntity
  8
0
  6
CONTINUOUS
 62
               4
100
AcDbCircle
 10
9.5
 20
18.499984741210923
 30
0.0
 40
8.4000000000000004
100
AcDbArc
 50
187.18484031495424
 51
352.81515968504578
  0
ARC
  5
1F3
100
AcDbEntity
  8
0
  6
CONTINUOUS
 62
               4
100
AcDbCircle
 10
9.5
 20
-0.5000152587890767
 30
0.0
 40
8.4000000000000004
100
AcDbArc
 50
7.1848403149542639
 51
172.81515968504576
  0
CIRCLE
  5
1F4
100
AcDbEntity
  8
0
  6
CONTINUOUS
 62
               4
100
AcDbCircle
 10
9.5
 20
-0.5000152587890767
 30
0.0
 40
8.9499999999999993
  0
LINE
  5
1F5
100
AcDbEntity
  8
0
  6
CONTINUOUS
 62
               4
100
AcDbLine
 10
13.221160531044006
 20
-8.6397612209446635
 30
0.0
 11
18.5
 21
-8.6397612209446635
 31
0.0
  0
LINE
  5
1F6
100
AcDbEntity
  8
0
  6
CONTINUOUS
 62
               7
100
AcDbLine
 10
15.999957015323162
 20
31.799982141811583
 30
0.0
 11
18.499957015323162
 21
31.799982141811583
 31
0.0
  0
LINE
  5
1F7
100
AcDbEntity
  8
0
  6
CONTINUOUS
 62
               7
100
AcDbLine
 10
15.999957015323162
 20
26.199976038295958
 30
0.0
 11
18.499957015323162
 21
26.199976038295958
 31
0.0
  0
LINE
  5
1F8
100
AcDbEntity
  8
0
  6
CONTINUOUS
 62
               7
100
AcDbLine
 10
0.4999570153231616
 20
-8.2000331169774796
 30
0.0
 11
2.9999570153231616
 21
-8.2000331169774796
 31
0.0
  0
LINE
  5
1F9
100
AcDbEntity
  8
0
  6
CONTINUOUS
 62
               7
100
AcDbLine
 10
0.4999570153231616
 20
-13.800023961704042
 30
0.0
 11
2.9999570153231616
 21
-13.800023961704042
 31
0.0
  0
LINE
  5
1FA
100
AcDbEntity
  8
0
  6
CENTER
 62
               2
100
AcDbLine
 10
-1.0
 20
18.499984741210923
 30
0.0
 11
20.0
 21
18.499984741210923
 31
0.0
  0
LINE
  5
1FB
100
AcDbEntity
  8
0
  6
CONTINUOUS
 62
               2
100
AcDbLine
 10
9.5
 20
-32.000015258789063
 30
0.0
 11
9.5
 21
64.829984741210922
 31
0.0
  0
ENDBLK
  5
1FC
100
AcDbEntity
  8
0
100
AcDbBlockEnd
  0
BLOCK
  5
1FD
100
AcDbEntity
  8
0
100
AcDbBlockBegin
  2
F10MN-6
 70
               0
 10
0.0
 20
0.0
 30
0.0
  3
F10MN-6
  1

  0
LINE
  5
1FE
100
AcDbEntity
  8
0
  6
CONTINUOUS
 62
             200
100
AcDbLine
 10
87.621545584866453
 20
-0.5000149999999906
 30
0.0
 11
57.564067487287701
 21
-0.5000149999999906
 31
0.0
  0
LINE
  5
1FF
100
AcDbEntity
  8
0
  6
CONTINUOUS
 62
             200
100
AcDbLine
 10
87.621545584866453
 20
18.499985000000024
 30
0.0
 11
57.564067487287701
 21
18.499985000000024
 31
0.0
  0
LINE
  5
200
100
AcDbEntity
  8
0
  6
CONTINUOUS
 62
               7
100
AcDbLine
 10
56.0
 20
61.0
 30
0.0
 11
36.0
 21
61.0
 31
0.0
  0
LINE
  5
201
100
AcDbEntity
  8
0
  6
CONTINUOUS
 62
               7
100
AcDbLine
 10
50.5
 20
-18.5
 30
0.0
 11
48.0
 21
-18.5
 31
0.0
  0
LINE
  5
202
100
AcDbEntity
  8
0
  6
CONTINUOUS
 62
               7
100
AcDbLine
 10
50.5
 20
-28.5
 30
0.0
 11
48.0
 21
-28.5
 31
0.0
  0
LINE
  5
203
100
AcDbEntity
  8
0
  6
CONTINUOUS
 62
               7
100
AcDbLine
 10
56.0
 20
35.5
 30
0.0
 11
56.0
 21
61.0
 31
0.0
  0
LINE
  5
204
100
AcDbEntity
  8
0
  6
CONTINUOUS
 62
               7
100
AcDbLine
 10
51.79999979296872
 20
-30.449999999999989
 30
0.0
 11
51.79999979296872
 21
-25.5
 31
0.0
  0
LINE
  5
205
100
AcDbEntity
  8
0
  6
CONTINUOUS
 62
               7
100
AcDbLine
 10
46.70000020703128
 20
-25.5
 30
0.0
 11
46.70000020703128
 21
-30.449999999999989
 31
0.0
  0
LINE
  5
206
100
AcDbEntity
  8
0
  6
CONTINUOUS
 62
               7
100
AcDbLine
 10
56.0
 20
-25.5
 30
0.0
 11
51.79999979296872
 21
-25.5
 31
0.0
  0
LINE
  5
207
100
AcDbEntity
  8
0
  6
CONTINUOUS
 62
               7
100
AcDbLine
 10
56.0
 20
-25.5
 30
0.0
 11
56.0
 21
-17.5
 31
0.0
  0
LINE
  5
208
100
AcDbEntity
  8
0
  6
CONTINUOUS
 62
               7
100
AcDbLine
 10
36.000107274912807
 20
60.999921963211818
 30
0.0
 11
35.000103010253042
 21
59.999902441211816
 31
0.0
  0
LINE
  5
209
100
AcDbEntity
  8
0
  6
CONTINUOUS
 62
               7
100
AcDbLine
 10
56.0
 20
35.5
 30
0.0
 11
53.0
 21
35.5
 31
0.0
  0
LINE
  5
20A
100
AcDbEntity
  8
0
  6
CONTINUOUS
 62
               7
100
AcDbLine
 10
51.79999979296872
 20
-30.449999999999989
 30
0.0
 11
46.70000020703128
 21
-30.449999999999989
 31
0.0
  0
LINE
  5
20B
100
AcDbEntity
  8
0
  6
CONTINUOUS
 62
               7
100
AcDbLine
 10
48.0
 20
-18.5
 30
0.0
 11
48.0
 21
-28.5
 31
0.0
  0
LINE
  5
20C
100
AcDbEntity
  8
0
  6
CONTINUOUS
 62
               7
100
AcDbLine
 10
50.5
 20
-18.5
 30
0.0
 11
50.5
 21
-28.5
 31
0.0
  0
LINE
  5
20D
100
AcDbEntity
  8
0
  6
CONTINUOUS
 62
               7
100
AcDbLine
 10
46.70000020703128
 20
-25.5
 30
0.0
 11
35.0
 21
-25.5
 31
0.0
  0
LINE
  5
20E
100
AcDbEntity
  8
0
  6
CONTINUOUS
 62
               7
100
AcDbLine
 10
52.994724000000133
 20
-17.5
 30
0.0
 11
52.994724000000133
 21
35.5
 31
0.0
  0
LINE
  5
20F
100
AcDbEntity
  8
0
  6
CONTINUOUS
 62
               7
100
AcDbLine
 10
53.79998779296875
 20
-30.5
 30
0.0
 11
35.0
 21
-30.5
 31
0.0
  0
LINE
  5
210
100
AcDbEntity
  8
0
  6
CONTINUOUS
 62
               7
100
AcDbLine
 10
55.79998779296875
 20
-28.5
 30
0.0
 11
55.79998779296875
 21
-25.5
 31
0.0
  0
LINE
  5
211
100
AcDbEntity
  8
0
  6
CONTINUOUS
 62
               7
100
AcDbLine
 10
53.799998968084765
 20
-30.500018345439457
 30
0.0
 11
55.799997888099824
 21
-28.500013019096514
 31
0.0
  0
LINE
  5
212
100
AcDbEntity
  8
0
  6
CONTINUOUS
 62
               7
100
AcDbLine
 10
46.5
 20
-30.5
 30
0.0
 11
46.5
 21
-25.5
 31
0.0
  0
LINE
  5
213
100
AcDbEntity
  8
0
  6
CONTINUOUS
 62
               7
100
AcDbLine
 10
51.999999600000137
 20
-30.5
 30
0.0
 11
51.999999600000137
 21
-25.5
 31
0.0
  0
LINE
  5
214
100
AcDbEntity
  8
0
  6
CONTINUOUS
 62
               7
100
AcDbLine
 10
56.99998626708998
 20
58.949984741210955
 30
0.0
 11
56.0
 21
58.949984741210955
 31
0.0
  0
LINE
  5
215
100
AcDbEntity
  8
0
  6
CONTINUOUS
 62
               7
100
AcDbLine
 10
56.99998626708998
 20
59.899984741210943
 30
0.0
 11
56.99998626708998
 21
58.949984741210955
 31
0.0
  0
LINE
  5
216
100
AcDbEntity
  8
0
  6
CONTINUOUS
 62
               7
100
AcDbLine
 10
56.99998626708998
 20
59.899984741210943
 30
0.0
 11
56.0
 21
59.899984741210943
 31
0.0
  0
LINE
  5
217
100
AcDbEntity
  8
0
  6
CONTINUOUS
 62
               4
100
AcDbLine
 10
60.214672223873322
 20
27.999985000000009
 30
0.0
 11
53.0
 21
27.999985000000009
 31
0.0
  0
LINE
  5
218
100
AcDbEntity
  8
0
  6
CONTINUOUS
 62
               4
100
AcDbLine
 10
61.000015258789063
 20
-8.0000073706054593
 30
0.0
 11
53.0
 21
-8.0000150000145425
 31
0.0
  0
LINE
  5
219
100
AcDbEntity
  8
0
  6
CONTINUOUS
 62
               4
100
AcDbLine
 10
71.700015058789177
 20
9.4999850000000094
 30
0.0
 11
61.000015258789063
 21
9.4999850000000094
 31
0.0
  0
LINE
  5
21A
100
AcDbEntity
  8
0
  6
CONTINUOUS
 62
               4
100
AcDbLine
 10
71.700015258789108
 20
27.499985000000009
 30
0.0
 11
60.503347358468091
 21
27.499985000000009
 31
0.0
  0
LINE
  5
21B
100
AcDbEntity
  8
0
  6
CONTINUOUS
 62
               4
100
AcDbLine
 10
71.900014658789132
 20
27.299985000000021
 30
0.0
 11
72.100014858789109
 21
27.499985000000009
 31
0.0
  0
LINE
  5
21C
100
AcDbEntity
  8
0
  6
CONTINUOUS
 62
               4
100
AcDbLine
 10
71.900015258789153
 20
27.299985000000021
 30
0.0
 11
71.700015058789177
 21
27.499985000000009
 31
0.0
  0
LINE
  5
21D
100
AcDbEntity
  8
0
  6
CONTINUOUS
 62
               4
100
AcDbLine
 10
80.364929258789061
 20
27.499985000000009
 30
0.0
 11
78.000015258789063
 21
27.499985000000009
 31
0.0
  0
LINE
  5
21E
100
AcDbEntity
  8
0
  6
CONTINUOUS
 62
               4
100
AcDbLine
 10
77.800015258789017
 20
27.299985000000021
 30
0.0
 11
78.000015258789063
 21
27.499985000000009
 31
0.0
  0
LINE
  5
21F
100
AcDbEntity
  8
0
  6
CONTINUOUS
 62
               4
100
AcDbLine
 10
80.364929258789061
 20
9.4999850000000094
 30
0.0
 11
78.000015258789063
 21
9.4999850000000094
 31
0.0
  0
LINE
  5
220
100
AcDbEntity
  8
0
  6
CONTINUOUS
 62
               4
100
AcDbLine
 10
76.800015258789017
 20
27.499985000000009
 30
0.0
 11
76.900015258789153
 21
27.399985000000015
 31
0.0
  0
LINE
  5
221
100
AcDbEntity
  8
0
  6
CONTINUOUS
 62
               4
100
AcDbLine
 10
76.800015258789017
 20
9.4999850000000094
 30
0.0
 11
76.900015258789153
 21
9.5999850000000038
 31
0.0
  0
LINE
  5
222
100
AcDbEntity
  8
0
  6
CONTINUOUS
 62
               4
100
AcDbLine
 10
76.800015258789017
 20
9.4999850000000094
 30
0.0
 11
72.100014858789109
 21
9.4999850000000094
 31
0.0
  0
LINE
  5
223
100
AcDbEntity
  8
0
  6
CONTINUOUS
 62
               4
100
AcDbLine
 10
76.800015258789017
 20
27.499985000000009
 30
0.0
 11
72.100014858789109
 21
27.499985000000009
 31
0.0
  0
ARC
  5
224
100
AcDbEntity
  8
0
  6
CONTINUOUS
 62
               4
100
AcDbCircle
 10
84.300015258789017
 20
26.599985000000032
 30
0.0
 40
0.3
100
AcDbArc
 50
359.99999999999926
 51
89.999999999999389
  0
ARC
  5
225
100
AcDbEntity
  8
0
  6
CONTINUOUS
 62
               4
100
AcDbCircle
 10
82.900015258789153
 20
11.999985000000009
 30
0.0
 40
0.5
100
AcDbArc
 50
359.99999999999926
 51
89.999999999999389
  0
ARC
  5
226
100
AcDbEntity
  8
0
  6
CONTINUOUS
 62
               4
100
AcDbCircle
 10
84.300015258789017
 20
10.399985000000015
 30
0.0
 40
0.3
100
AcDbArc
 50
269.99999999999977
 51
0.0
  0
ARC
  5
227
100
AcDbEntity
  8
0
  6
CONTINUOUS
 62
               4
100
AcDbCircle
 10
82.900015258789153
 20
24.999985000000009
 30
0.0
 40
0.5
100
AcDbArc
 50
269.99999999999977
 51
0.0
  0
LINE
  5
228
100
AcDbEntity
  8
0
  6
CONTINUOUS
 62
               4
100
AcDbLine
 10
84.300696258789003
 20
26.899985000000015
 30
0.0
 11
83.400015258789153
 21
26.899985000000015
 31
0.0
  0
LINE
  5
229
100
AcDbEntity
  8
0
  6
CONTINUOUS
 62
               4
100
AcDbLine
 10
84.600015258789199
 20
10.399985000000015
 30
0.0
 11
84.600015258789199
 21
26.599985000000032
 31
0.0
  0
LINE
  5
22A
100
AcDbEntity
  8
0
  6
CONTINUOUS
 62
               4
100
AcDbLine
 10
83.400015258789153
 20
26.899985000000015
 30
0.0
 11
83.400015258789153
 21
10.099985000000004
 31
0.0
  0
LINE
  5
22B
100
AcDbEntity
  8
0
  6
CONTINUOUS
 62
               4
100
AcDbLine
 10
84.300696258789003
 20
10.099985000000004
 30
0.0
 11
83.400015258789153
 21
10.099985000000004
 31
0.0
  0
LINE
  5
22C
100
AcDbEntity
  8
0
  6
CONTINUOUS
 62
               4
100
AcDbLine
 10
82.900015258789153
 20
12.499985000000009
 30
0.0
 11
82.500015258789063
 21
12.499985000000009
 31
0.0
  0
LINE
  5
22D
100
AcDbEntity
  8
0
  6
CONTINUOUS
 62
               4
100
AcDbLine
 10
82.400015258789153
 20
25.599985000000032
 30
0.0
 11
81.400014258789042
 21
25.599985000000032
 31
0.0
  0
LINE
  5
22E
100
AcDbEntity
  8
0
  6
CONTINUOUS
 62
               4
100
AcDbLine
 10
82.500015258789063
 20
25.499985000000009
 30
0.0
 11
82.400015258789153
 21
25.599985000000032
 31
0.0
  0
LINE
  5
22F
100
AcDbEntity
  8
0
  6
CONTINUOUS
 62
               4
100
AcDbLine
 10
82.500015258789063
 20
11.499985000000009
 30
0.0
 11
82.400015258789153
 21
11.399985000000015
 31
0.0
  0
LINE
  5
230
100
AcDbEntity
  8
0
  6
CONTINUOUS
 62
               4
100
AcDbLine
 10
82.500015258789063
 20
11.499985000000009
 30
0.0
 11
82.500015258789063
 21
25.499985000000009
 31
0.0
  0
LINE
  5
231
100
AcDbEntity
  8
0
  6
CONTINUOUS
 62
               4
100
AcDbLine
 10
82.400015258789153
 20
11.399985000000015
 30
0.0
 11
81.400014258789042
 21
11.399985000000015
 31
0.0
  0
LINE
  5
232
100
AcDbEntity
  8
0
  6
CONTINUOUS
 62
               4
100
AcDbLine
 10
81.400014258789042
 20
10.599985000000004
 30
0.0
 11
81.400014258789042
 21
26.399984200000034
 31
0.0
  0
LINE
  5
233
100
AcDbEntity
  8
0
  6
CONTINUOUS
 62
               4
100
AcDbLine
 10
80.800014258789133
 20
26.746394600000002
 30
0.0
 11
81.400014258789042
 21
26.399984200000034
 31
0.0
  0
LINE
  5
234
100
AcDbEntity
  8
0
  6
CONTINUOUS
 62
               4
100
AcDbLine
 10
80.800014258789133
 20
10.253575400000017
 30
0.0
 11
81.400014258789042
 21
10.599985800000013
 31
0.0
  0
LINE
  5
235
100
AcDbEntity
  8
0
  6
CONTINUOUS
 62
               4
100
AcDbLine
 10
77.800015258789017
 20
26.799985000000021
 30
0.0
 11
76.900015258789153
 21
26.799985000000021
 31
0.0
  0
LINE
  5
236
100
AcDbEntity
  8
0
  6
CONTINUOUS
 62
               4
100
AcDbLine
 10
77.800015258789017
 20
10.199984999999998
 30
0.0
 11
76.900015258789153
 21
10.199984999999998
 31
0.0
  0
LINE
  5
237
100
AcDbEntity
  8
0
  6
CONTINUOUS
 62
               4
100
AcDbLine
 10
82.900015258789153
 20
24.499985000000009
 30
0.0
 11
82.500015258789063
 21
24.499985000000009
 31
0.0
  0
LINE
  5
238
100
AcDbEntity
  8
0
  6
CONTINUOUS
 62
               4
100
AcDbLine
 10
82.400015258789153
 20
11.399985000000015
 30
0.0
 11
82.400015258789153
 21
25.599985000000032
 31
0.0
  0
LINE
  5
239
100
AcDbEntity
  8
0
  6
CONTINUOUS
 62
               4
100
AcDbLine
 10
80.800014258789133
 20
10.253575400000017
 30
0.0
 11
80.800014258789133
 21
26.746394600000002
 31
0.0
  0
LINE
  5
23A
100
AcDbEntity
  8
0
  6
CONTINUOUS
 62
               4
100
AcDbLine
 10
71.700015058789177
 20
27.499985000000009
 30
0.0
 11
71.700015058789177
 21
9.4999850000000094
 31
0.0
  0
LINE
  5
23B
100
AcDbEntity
  8
0
  6
CONTINUOUS
 62
               4
100
AcDbLine
 10
76.800015258789017
 20
9.4999850000000094
 30
0.0
 11
76.800015258789017
 21
27.499985000000009
 31
0.0
  0
LINE
  5
23C
100
AcDbEntity
  8
0
  6
CONTINUOUS
 62
               4
100
AcDbLine
 10
78.000015258789063
 20
9.4999850000000094
 30
0.0
 11
78.000015258789063
 21
27.499985000000009
 31
0.0
  0
LINE
  5
23D
100
AcDbEntity
  8
0
  6
CONTINUOUS
 62
               4
100
AcDbLine
 10
80.364928258789178
 20
9.4999850000000094
 30
0.0
 11
80.364928258789178
 21
27.499985000000009
 31
0.0
  0
LINE
  5
23E
100
AcDbEntity
  8
0
  6
CONTINUOUS
 62
               4
100
AcDbLine
 10
72.100014858789109
 20
9.4999850000000094
 30
0.0
 11
72.100014858789109
 21
27.499985000000009
 31
0.0
  0
LINE
  5
23F
100
AcDbEntity
  8
0
  6
CONTINUOUS
 62
               4
100
AcDbLine
 10
71.900015258789153
 20
9.6999849999999981
 30
0.0
 11
71.700015058789177
 21
9.4999850000000094
 31
0.0
  0
LINE
  5
240
100
AcDbEntity
  8
0
  6
CONTINUOUS
 62
               4
100
AcDbLine
 10
71.900014658789132
 20
9.6999849999999981
 30
0.0
 11
72.100014858789109
 21
9.4999850000000094
 31
0.0
  0
LINE
  5
241
100
AcDbEntity
  8
0
  6
CONTINUOUS
 62
               4
100
AcDbLine
 10
71.900014858789064
 20
9.6999849999999981
 30
0.0
 11
71.900014858789064
 21
27.299985000000021
 31
0.0
  0
LINE
  5
242
100
AcDbEntity
  8
0
  6
CONTINUOUS
 62
               4
100
AcDbLine
 10
77.800015258789017
 20
27.299985000000021
 30
0.0
 11
77.800015258789017
 21
9.6999849999999981
 31
0.0
  0
LINE
  5
243
100
AcDbEntity
  8
0
  6
CONTINUOUS
 62
               4
100
AcDbLine
 10
80.364928258789178
 20
27.499985000000009
 30
0.0
 11
80.800014258789133
 21
26.746394600000002
 31
0.0
  0
LINE
  5
244
100
AcDbEntity
  8
0
  6
CONTINUOUS
 62
               4
100
AcDbLine
 10
80.364928258789178
 20
9.4999850000000094
 30
0.0
 11
80.800014258789133
 21
10.253575400000017
 31
0.0
  0
LINE
  5
245
100
AcDbEntity
  8
0
  6
CONTINUOUS
 62
               4
100
AcDbLine
 10
77.800015258789017
 20
9.6999849999999981
 30
0.0
 11
78.000015258789063
 21
9.4999850000000094
 31
0.0
  0
LINE
  5
246
100
AcDbEntity
  8
0
  6
CONTINUOUS
 62
               4
100
AcDbLine
 10
76.900015258789153
 20
27.399985000000015
 30
0.0
 11
76.900015258789153
 21
9.5999850000000038
 31
0.0
  0
LINE
  5
247
100
AcDbEntity
  8
0
  6
CONTINUOUS
 62
               4
100
AcDbLine
 10
71.700015058789177
 20
-9.5000149999999906
 30
0.0
 11
60.503347358468091
 21
-9.5000149999999906
 31
0.0
  0
LINE
  5
248
100
AcDbEntity
  8
0
  6
CONTINUOUS
 62
               4
100
AcDbLine
 10
71.700015258789108
 20
8.4999850000000094
 30
0.0
 11
61.000015258789063
 21
8.4999850000000094
 31
0.0
  0
LINE
  5
249
100
AcDbEntity
  8
0
  6
CONTINUOUS
 62
               4
100
AcDbLine
 10
71.900014658789132
 20
8.2999850000000208
 30
0.0
 11
72.100014858789109
 21
8.4999850000000094
 31
0.0
  0
LINE
  5
24A
100
AcDbEntity
  8
0
  6
CONTINUOUS
 62
               4
100
AcDbLine
 10
71.900015258789153
 20
8.2999850000000208
 30
0.0
 11
71.700015058789177
 21
8.4999850000000094
 31
0.0
  0
LINE
  5
24B
100
AcDbEntity
  8
0
  6
CONTINUOUS
 62
               4
100
AcDbLine
 10
80.364929258789061
 20
8.4999850000000094
 30
0.0
 11
78.000015258789063
 21
8.4999850000000094
 31
0.0
  0
LINE
  5
24C
100
AcDbEntity
  8
0
  6
CONTINUOUS
 62
               4
100
AcDbLine
 10
77.800015258789017
 20
8.2999850000000208
 30
0.0
 11
78.000015258789063
 21
8.4999850000000094
 31
0.0
  0
LINE
  5
24D
100
AcDbEntity
  8
0
  6
CONTINUOUS
 62
               4
100
AcDbLine
 10
80.364929258789061
 20
-9.5000149999999906
 30
0.0
 11
78.000015258789063
 21
-9.5000149999999906
 31
0.0
  0
LINE
  5
24E
100
AcDbEntity
  8
0
  6
CONTINUOUS
 62
               4
100
AcDbLine
 10
76.800015258789017
 20
8.4999850000000094
 30
0.0
 11
76.900015258789153
 21
8.3999850000000151
 31
0.0
  0
LINE
  5
24F
100
AcDbEntity
  8
0
  6
CONTINUOUS
 62
               4
100
AcDbLine
 10
76.800015258789017
 20
-9.5000149999999906
 30
0.0
 11
76.900015258789153
 21
-9.4000149999999962
 31
0.0
  0
LINE
  5
250
100
AcDbEntity
  8
0
  6
CONTINUOUS
 62
               4
100
AcDbLine
 10
76.800015258789017
 20
-9.5000149999999906
 30
0.0
 11
72.100014858789109
 21
-9.5000149999999906
 31
0.0
  0
LINE
  5
251
100
AcDbEntity
  8
0
  6
CONTINUOUS
 62
               4
100
AcDbLine
 10
76.800015258789017
 20
8.4999850000000094
 30
0.0
 11
72.100014858789109
 21
8.4999850000000094
 31
0.0
  0
ARC
  5
252
100
AcDbEntity
  8
0
  6
CONTINUOUS
 62
               4
100
AcDbCircle
 10
84.300015258789017
 20
7.5999850000000322
 30
0.0
 40
0.3
100
AcDbArc
 50
359.99999999999926
 51
89.999999999999389
  0
ARC
  5
253
100
AcDbEntity
  8
0
  6
CONTINUOUS
 62
               4
100
AcDbCircle
 10
82.900015258789153
 20
-7.0000150000000048
 30
0.0
 40
0.5
100
AcDbArc
 50
359.99999999999926
 51
89.999999999999389
  0
ARC
  5
254
100
AcDbEntity
  8
0
  6
CONTINUOUS
 62
               4
100
AcDbCircle
 10
84.300015258789017
 20
-8.6000149999999991
 30
0.0
 40
0.3
100
AcDbArc
 50
269.99999999999977
 51
0.0
  0
ARC
  5
255
100
AcDbEntity
  8
0
  6
CONTINUOUS
 62
               4
100
AcDbCircle
 10
82.900015258789153
 20
5.9999850000000094
 30
0.0
 40
0.5
100
AcDbArc
 50
269.99999999999977
 51
0.0
  0
LINE
  5
256
100
AcDbEntity
  8
0
  6
CONTINUOUS
 62
               4
100
AcDbLine
 10
84.300696258789003
 20
7.8999850000000151
 30
0.0
 11
83.400015258789153
 21
7.8999850000000151
 31
0.0
  0
LINE
  5
257
100
AcDbEntity
  8
0
  6
CONTINUOUS
 62
               4
100
AcDbLine
 10
84.600015258789199
 20
-8.6000149999999991
 30
0.0
 11
84.600015258789199
 21
7.5999850000000322
 31
0.0
  0
LINE
  5
258
100
AcDbEntity
  8
0
  6
CONTINUOUS
 62
               4
100
AcDbLine
 10
83.400015258789153
 20
7.8999850000000151
 30
0.0
 11
83.400015258789153
 21
-8.9000150000000104
 31
0.0
  0
LINE
  5
259
100
AcDbEntity
  8
0
  6
CONTINUOUS
 62
               4
100
AcDbLine
 10
84.300696258789003
 20
-8.9000150000000104
 30
0.0
 11
83.400015258789153
 21
-8.9000150000000104
 31
0.0
  0
LINE
  5
25A
100
AcDbEntity
  8
0
  6
CONTINUOUS
 62
               4
100
AcDbLine
 10
82.900015258789153
 20
-6.5000149999999906
 30
0.0
 11
82.500015258789063
 21
-6.5000149999999906
 31
0.0
  0
LINE
  5
25B
100
AcDbEntity
  8
0
  6
CONTINUOUS
 62
               4
100
AcDbLine
 10
82.400015258789153
 20
6.5999850000000322
 30
0.0
 11
81.400014258789042
 21
6.5999850000000322
 31
0.0
  0
LINE
  5
25C
100
AcDbEntity
  8
0
  6
CONTINUOUS
 62
               4
100
AcDbLine
 10
82.500015258789063
 20
6.4999850000000094
 30
0.0
 11
82.400015258789153
 21
6.5999850000000322
 31
0.0
  0
LINE
  5
25D
100
AcDbEntity
  8
0
  6
CONTINUOUS
 62
               4
100
AcDbLine
 10
82.500015258789063
 20
-7.5000149999999906
 30
0.0
 11
82.400015258789153
 21
-7.6000149999999849
 31
0.0
  0
LINE
  5
25E
100
AcDbEntity
  8
0
  6
CONTINUOUS
 62
               4
100
AcDbLine
 10
82.500015258789063
 20
-7.5000149999999906
 30
0.0
 11
82.500015258789063
 21
6.4999850000000094
 31
0.0
  0
LINE
  5
25F
100
AcDbEntity
  8
0
  6
CONTINUOUS
 62
               4
100
AcDbLine
 10
82.400015258789153
 20
-7.6000149999999849
 30
0.0
 11
81.400014258789042
 21
-7.6000149999999849
 31
0.0
  0
LINE
  5
260
100
AcDbEntity
  8
0
  6
CONTINUOUS
 62
               4
100
AcDbLine
 10
81.400014258789042
 20
-8.4000149999999962
 30
0.0
 11
81.400014258789042
 21
7.3999842000000342
 31
0.0
  0
LINE
  5
261
100
AcDbEntity
  8
0
  6
CONTINUOUS
 62
               4
100
AcDbLine
 10
80.800014258789133
 20
7.7463946000000021
 30
0.0
 11
81.400014258789042
 21
7.3999842000000342
 31
0.0
  0
LINE
  5
262
100
AcDbEntity
  8
0
  6
CONTINUOUS
 62
               4
100
AcDbLine
 10
80.800014258789133
 20
-8.7464245999999832
 30
0.0
 11
81.400014258789042
 21
-8.4000141999999869
 31
0.0
  0
LINE
  5
263
100
AcDbEntity
  8
0
  6
CONTINUOUS
 62
               4
100
AcDbLine
 10
77.800015258789017
 20
7.7999850000000208
 30
0.0
 11
76.900015258789153
 21
7.7999850000000208
 31
0.0
  0
LINE
  5
264
100
AcDbEntity
  8
0
  6
CONTINUOUS
 62
               4
100
AcDbLine
 10
77.800015258789017
 20
-8.8000150000000019
 30
0.0
 11
76.900015258789153
 21
-8.8000150000000019
 31
0.0
  0
LINE
  5
265
100
AcDbEntity
  8
0
  6
CONTINUOUS
 62
               4
100
AcDbLine
 10
82.900015258789153
 20
5.4999850000000094
 30
0.0
 11
82.500015258789063
 21
5.4999850000000094
 31
0.0
  0
LINE
  5
266
100
AcDbEntity
  8
0
  6
CONTINUOUS
 62
               4
100
AcDbLine
 10
82.400015258789153
 20
-7.6000149999999849
 30
0.0
 11
82.400015258789153
 21
6.5999850000000322
 31
0.0
  0
LINE
  5
267
100
AcDbEntity
  8
0
  6
CONTINUOUS
 62
               4
100
AcDbLine
 10
80.800014258789133
 20
-8.7464245999999832
 30
0.0
 11
80.800014258789133
 21
7.7463946000000021
 31
0.0
  0
LINE
  5
268
100
AcDbEntity
  8
0
  6
CONTINUOUS
 62
               4
100
AcDbLine
 10
71.700015058789177
 20
8.4999850000000094
 30
0.0
 11
71.700015058789177
 21
-9.5000149999999906
 31
0.0
  0
LINE
  5
269
100
AcDbEntity
  8
0
  6
CONTINUOUS
 62
               4
100
AcDbLine
 10
76.800015258789017
 20
-9.5000149999999906
 30
0.0
 11
76.800015258789017
 21
8.4999850000000094
 31
0.0
  0
LINE
  5
26A
100
AcDbEntity
  8
0
  6
CONTINUOUS
 62
               4
100
AcDbLine
 10
78.000015258789063
 20
-9.5000149999999906
 30
0.0
 11
78.000015258789063
 21
8.4999850000000094
 31
0.0
  0
LINE
  5
26B
100
AcDbEntity
  8
0
  6
CONTINUOUS
 62
               4
100
AcDbLine
 10
80.364928258789178
 20
-9.5000149999999906
 30
0.0
 11
80.364928258789178
 21
8.4999850000000094
 31
0.0
  0
LINE
  5
26C
100
AcDbEntity
  8
0
  6
CONTINUOUS
 62
               4
100
AcDbLine
 10
72.100014858789109
 20
-9.5000149999999906
 30
0.0
 11
72.100014858789109
 21
8.4999850000000094
 31
0.0
  0
LINE
  5
26D
100
AcDbEntity
  8
0
  6
CONTINUOUS
 62
               4
100
AcDbLine
 10
71.900015258789153
 20
-9.3000150000000019
 30
0.0
 11
71.700015058789177
 21
-9.5000149999999906
 31
0.0
  0
LINE
  5
26E
100
AcDbEntity
  8
0
  6
CONTINUOUS
 62
               4
100
AcDbLine
 10
71.900014658789132
 20
-9.3000150000000019
 30
0.0
 11
72.100014858789109
 21
-9.5000149999999906
 31
0.0
  0
LINE
  5
26F
100
AcDbEntity
  8
0
  6
CONTINUOUS
 62
               4
100
AcDbLine
 10
71.900014858789064
 20
-9.3000150000000019
 30
0.0
 11
71.900014858789064
 21
8.2999850000000208
 31
0.0
  0
LINE
  5
270
100
AcDbEntity
  8
0
  6
CONTINUOUS
 62
               4
100
AcDbLine
 10
77.800015258789017
 20
8.2999850000000208
 30
0.0
 11
77.800015258789017
 21
-9.3000150000000019
 31
0.0
  0
LINE
  5
271
100
AcDbEntity
  8
0
  6
CONTINUOUS
 62
               4
100
AcDbLine
 10
80.364928258789178
 20
8.4999850000000094
 30
0.0
 11
80.800014258789133
 21
7.7463946000000021
 31
0.0
  0
LINE
  5
272
100
AcDbEntity
  8
0
  6
CONTINUOUS
 62
               4
100
AcDbLine
 10
80.364928258789178
 20
-9.5000149999999906
 30
0.0
 11
80.800014258789133
 21
-8.7464245999999832
 31
0.0
  0
LINE
  5
273
100
AcDbEntity
  8
0
  6
CONTINUOUS
 62
               4
100
AcDbLine
 10
77.800015258789017
 20
-9.3000150000000019
 30
0.0
 11
78.000015258789063
 21
-9.5000149999999906
 31
0.0
  0
LINE
  5
274
100
AcDbEntity
  8
0
  6
CONTINUOUS
 62
               4
100
AcDbLine
 10
76.900015258789153
 20
8.3999850000000151
 30
0.0
 11
76.900015258789153
 21
-9.4000149999999962
 31
0.0
  0
LINE
  5
275
100
AcDbEntity
  8
0
  6
CONTINUOUS
 62
               4
100
AcDbLine
 10
61.000015258789063
 20
26.639730962155596
 30
0.0
 11
61.000015258789063
 21
-8.6397609621555773
 31
0.0
  0
LINE
  5
276
100
AcDbEntity
  8
0
  6
CONTINUOUS
 62
               4
100
AcDbLine
 10
61.000015258789063
 20
-8.6397609621555773
 30
0.0
 11
56.000022306521942
 21
-17.300002792968741
 31
0.0
  0
LINE
  5
277
100
AcDbEntity
  8
0
  6
CONTINUOUS
 62
               4
100
AcDbLine
 10
56.000015258789063
 20
-17.300002792968741
 30
0.0
 11
53.000015258789063
 21
-17.300002792968741
 31
0.0
  0
LINE
  5
278
100
AcDbEntity
  8
0
  6
CONTINUOUS
 62
               4
100
AcDbLine
 10
57.905275551947852
 20
-14.000007370605445
 30
0.0
 11
53.000007629394531
 21
-14.000007370605445
 31
0.0
  0
LINE
  5
279
100
AcDbEntity
  8
0
  6
CONTINUOUS
 62
               4
100
AcDbLine
 10
56.000015258789063
 20
35.299985000000021
 30
0.0
 11
56.000015258789063
 21
27.999984988079092
 31
0.0
  0
LINE
  5
27A
100
AcDbEntity
  8
0
  6
CONTINUOUS
 62
               4
100
AcDbLine
 10
56.500007629394531
 20
33.749977370605507
 30
0.0
 11
56.000007629394531
 21
33.749977370605507
 31
0.0
  0
LINE
  5
27B
100
AcDbEntity
  8
0
  6
CONTINUOUS
 62
               4
100
AcDbLine
 10
56.500007629394531
 20
28.249977370605507
 30
0.0
 11
56.000007629394531
 21
28.249977370605507
 31
0.0
  0
ARC
  5
27C
100
AcDbEntity
  8
0
  6
CONTINUOUS
 62
               4
100
AcDbCircle
 10
56.500007629394531
 20
32.249977370605507
 30
0.0
 40
1.5
100
AcDbArc
 50
359.99998633962167
 51
89.999927372397295
  0
ARC
  5
27D
100
AcDbEntity
  8
0
  6
CONTINUOUS
 62
               4
100
AcDbCircle
 10
56.500007629394531
 20
29.749977370605507
 30
0.0
 40
1.5
100
AcDbArc
 50
270.00001798608935
 51
359.99998633962167
  0
LINE
  5
27E
100
AcDbEntity
  8
0
  6
CONTINUOUS
 62
               4
100
AcDbLine
 10
58.000007629394531
 20
32.249977012977638
 30
0.0
 11
58.000007629394531
 21
29.749977012977638
 31
0.0
  0
LINE
  5
27F
100
AcDbEntity
  8
0
  6
CONTINUOUS
 62
               4
100
AcDbLine
 10
56.000015258789063
 20
35.299985000000021
 30
0.0
 11
56.93152133847093
 21
33.686569142431864
 31
0.0
  0
LINE
  5
280
100
AcDbEntity
  8
0
  6
CONTINUOUS
 62
               4
100
AcDbLine
 10
58.000007629394531
 20
31.835896599361234
 30
0.0
 11
61.000015258789063
 21
26.639730962155596
 31
0.0
  0
LINE
  5
281
100
AcDbEntity
  8
0
  6
CONTINUOUS
 62
               7
100
AcDbLine
 10
50.500000370605449
 20
-10.250007382526405
 30
0.0
 11
48.000000370605449
 21
-10.250007382526405
 31
0.0
  0
LINE
  5
282
100
AcDbEntity
  8
0
  6
CONTINUOUS
 62
               7
100
AcDbLine
 10
53.0
 20
-17.5
 30
0.0
 11
56.0
 21
-17.5
 31
0.0
  0
LINE
  5
283
100
AcDbEntity
  8
0
  6
CONTINUOUS
 62
               7
100
AcDbLine
 10
50.500000370605449
 20
-10.250007382526405
 30
0.0
 11
50.500000370605449
 21
-15.780007382526406
 31
0.0
  0
LINE
  5
284
100
AcDbEntity
  8
0
  6
CONTINUOUS
 62
               7
100
AcDbLine
 10
48.000000370605449
 20
-10.250007382526405
 30
0.0
 11
48.000000370605449
 21
-11.250007382526405
 31
0.0
  0
LINE
  5
285
100
AcDbEntity
  8
0
  6
CONTINUOUS
 62
               7
100
AcDbLine
 10
48.000000370605449
 20
-14.780007382526406
 30
0.0
 11
48.000000370605449
 21
-15.780007382526406
 31
0.0
  0
LINE
  5
286
100
AcDbEntity
  8
0
  6
CONTINUOUS
 62
               7
100
AcDbLine
 10
48.000000370605449
 20
-11.250007382526405
 30
0.0
 11
46.500000370605449
 21
-11.250007382526405
 31
0.0
  0
LINE
  5
287
100
AcDbEntity
  8
0
  6
CONTINUOUS
 62
               7
100
AcDbLine
 10
48.000000370605449
 20
-14.780007382526406
 30
0.0
 11
46.500000370605449
 21
-14.780007382526406
 31
0.0
  0
LINE
  5
288
100
AcDbEntity
  8
0
  6
CONTINUOUS
 62
               7
100
AcDbLine
 10
46.500000370605449
 20
-11.250007382526405
 30
0.0
 11
46.500000370605449
 21
-14.780007382526406
 31
0.0
  0
LINE
  5
289
100
AcDbEntity
  8
0
  6
CONTINUOUS
 62
               7
100
AcDbLine
 10
50.500000370605449
 20
-8.0000003825263946
 30
0.0
 11
46.500000370605449
 21
-8.0000003825263946
 31
0.0
  0
LINE
  5
28A
100
AcDbEntity
  8
0
  6
CONTINUOUS
 62
               7
100
AcDbLine
 10
50.500000370605449
 20
-15.780007382526406
 30
0.0
 11
48.000000370605449
 21
-15.780007382526406
 31
0.0
  0
LINE
  5
28B
100
AcDbEntity
  8
0
  6
CONTINUOUS
 62
               7
100
AcDbLine
 10
50.500000370605449
 20
-8.0000003825263946
 30
0.0
 11
50.500000370605449
 21
19.499999617473605
 31
0.0
  0
LINE
  5
28C
100
AcDbEntity
  8
0
  6
CONTINUOUS
 62
               7
100
AcDbLine
 10
46.500000370605449
 20
-8.0000003825263946
 30
0.0
 11
46.500000370605449
 21
19.499999617473605
 31
0.0
  0
LINE
  5
28D
100
AcDbEntity
  8
0
  6
CONTINUOUS
 62
               7
100
AcDbLine
 10
50.500000370605449
 20
19.499999617473605
 30
0.0
 11
46.500000370605449
 21
19.499999617473605
 31
0.0
  0
LINE
  5
28E
100
AcDbEntity
  8
0
  6
CONTINUOUS
 62
               7
100
AcDbLine
 10
45.000000370605449
 20
19.499999617473605
 30
0.0
 11
41.000000370605449
 21
19.499999617473605
 31
0.0
  0
LINE
  5
28F
100
AcDbEntity
  8
0
  6
CONTINUOUS
 62
               7
100
AcDbLine
 10
39.500000370605449
 20
19.499999617473605
 30
0.0
 11
35.0
 21
19.499999617473605
 31
0.0
  0
LINE
  5
290
100
AcDbEntity
  8
0
  6
CONTINUOUS
 62
               7
100
AcDbLine
 10
45.000000370605449
 20
19.499999617473605
 30
0.0
 11
45.000000370605449
 21
-23.000000382526395
 31
0.0
  0
LINE
  5
291
100
AcDbEntity
  8
0
  6
CONTINUOUS
 62
               7
100
AcDbLine
 10
41.000000370605449
 20
19.499999617473605
 30
0.0
 11
41.000000370605449
 21
-23.000000382526395
 31
0.0
  0
LINE
  5
292
100
AcDbEntity
  8
0
  6
CONTINUOUS
 62
               7
100
AcDbLine
 10
39.500000370605449
 20
19.499999617473605
 30
0.0
 11
39.500000370605449
 21
-23.000000382526395
 31
0.0
  0
LINE
  5
293
100
AcDbEntity
  8
0
  6
CONTINUOUS
 62
               7
100
AcDbLine
 10
41.000000370605449
 20
-23.000000382526395
 30
0.0
 11
45.000000370605449
 21
-23.000000382526395
 31
0.0
  0
LINE
  5
294
100
AcDbEntity
  8
0
  6
CONTINUOUS
 62
               7
100
AcDbLine
 10
39.500000370605449
 20
-23.000000382526395
 30
0.0
 11
35.0
 21
-23.000000382526395
 31
0.0
  0
LINE
  5
295
100
AcDbEntity
  8
0
  6
CONTINUOUS
 62
               7
100
AcDbLine
 10
45.000000370605449
 20
22.499999617473605
 30
0.0
 11
45.000000370605449
 21
35.999999617473605
 31
0.0
  0
LINE
  5
296
100
AcDbEntity
  8
0
  6
CONTINUOUS
 62
               7
100
AcDbLine
 10
45.000000370605449
 20
22.499999617473605
 30
0.0
 11
41.000000370605449
 21
22.499999617473605
 31
0.0
  0
LINE
  5
297
100
AcDbEntity
  8
0
  6
CONTINUOUS
 62
               7
100
AcDbLine
 10
45.000000370605449
 20
59.5
 30
0.0
 11
41.000000370605449
 21
59.5
 31
0.0
  0
LINE
  5
298
100
AcDbEntity
  8
0
  6
CONTINUOUS
 62
               7
100
AcDbLine
 10
41.000000370605449
 20
22.499999617473605
 30
0.0
 11
41.000000370605449
 21
59.5
 31
0.0
  0
LINE
  5
299
100
AcDbEntity
  8
0
  6
CONTINUOUS
 62
               7
100
AcDbLine
 10
39.500000370605449
 20
59.5
 30
0.0
 11
36.500000370605449
 21
59.5
 31
0.0
  0
LINE
  5
29A
100
AcDbEntity
  8
0
  6
CONTINUOUS
 62
               7
100
AcDbLine
 10
39.500000370605449
 20
22.499999617473605
 30
0.0
 11
35.0
 21
22.499999617473605
 31
0.0
  0
LINE
  5
29B
100
AcDbEntity
  8
0
  6
CONTINUOUS
 62
               7
100
AcDbLine
 10
39.500000370605449
 20
22.499999617473605
 30
0.0
 11
39.500000370605449
 21
59.5
 31
0.0
  0
LINE
  5
29C
100
AcDbEntity
  8
0
  6
CONTINUOUS
 62
               7
100
AcDbLine
 10
36.500000370605449
 20
57.5
 30
0.0
 11
36.500000370605449
 21
59.5
 31
0.0
  0
LINE
  5
29D
100
AcDbEntity
  8
0
  6
CONTINUOUS
 62
               7
100
AcDbLine
 10
36.500000370605449
 20
57.5
 30
0.0
 11
35.0
 21
57.5
 31
0.0
  0
LINE
  5
29E
100
AcDbEntity
  8
0
  6
CONTINUOUS
 62
               7
100
AcDbLine
 10
46.500000370605449
 20
22.499999617473605
 30
0.0
 11
46.500000370605449
 21
35.999999617473605
 31
0.0
  0
LINE
  5
29F
100
AcDbEntity
  8
0
  6
CONTINUOUS
 62
               7
100
AcDbLine
 10
53.5
 20
59.5
 30
0.0
 11
46.500000370605449
 21
59.5
 31
0.0
  0
LINE
  5
2A0
100
AcDbEntity
  8
0
  6
CONTINUOUS
 62
               7
100
AcDbLine
 10
50.500000370605449
 20
22.499999617473605
 30
0.0
 11
46.500000370605449
 21
22.499999617473605
 31
0.0
  0
LINE
  5
2A1
100
AcDbEntity
  8
0
  6
CONTINUOUS
 62
               7
100
AcDbLine
 10
50.500000370605449
 20
22.499999617473605
 30
0.0
 11
50.500000370605449
 21
35.999999617473605
 31
0.0
  0
LINE
  5
2A2
100
AcDbEntity
  8
0
  6
CONTINUOUS
 62
               7
100
AcDbLine
 10
50.500000370605449
 20
23.699999617473608
 30
0.0
 11
46.500000370605449
 21
23.699999617473608
 31
0.0
  0
LINE
  5
2A3
100
AcDbEntity
  8
0
  6
CONTINUOUS
 62
               7
100
AcDbLine
 10
45.000000370605449
 20
23.699999617473608
 30
0.0
 11
41.000000370605449
 21
23.699999617473608
 31
0.0
  0
LINE
  5
2A4
100
AcDbEntity
  8
0
  6
CONTINUOUS
 62
               7
100
AcDbLine
 10
39.500000370605449
 20
23.699999617473608
 30
0.0
 11
35.0
 21
23.699999617473608
 31
0.0
  0
LINE
  5
2A5
100
AcDbEntity
  8
0
  6
CONTINUOUS
 62
               7
100
AcDbLine
 10
53.5
 20
44.5
 30
0.0
 11
53.5
 21
59.5
 31
0.0
  0
LINE
  5
2A6
100
AcDbEntity
  8
0
  6
CONTINUOUS
 62
               7
100
AcDbLine
 10
53.5
 20
44.5
 30
0.0
 11
46.500000370605449
 21
44.5
 31
0.0
  0
LINE
  5
2A7
100
AcDbEntity
  8
0
  6
CONTINUOUS
 62
               7
100
AcDbLine
 10
50.500000370605449
 20
35.999999617473605
 30
0.0
 11
46.500000370605449
 21
35.999999617473605
 31
0.0
  0
LINE
  5
2A8
100
AcDbEntity
  8
0
  6
CONTINUOUS
 62
               7
100
AcDbLine
 10
43.500000370605449
 20
32.999999617473605
 30
0.0
 11
43.500000370605449
 21
47.5
 31
0.0
  0
LINE
  5
2A9
100
AcDbEntity
  8
0
  6
CONTINUOUS
 62
               7
100
AcDbLine
 10
45.000000370605449
 20
44.5
 30
0.0
 11
41.000000370605449
 21
44.5
 31
0.0
  0
LINE
  5
2AA
100
AcDbEntity
  8
0
  6
CONTINUOUS
 62
               7
100
AcDbLine
 10
35.0
 20
35.999999617473605
 30
0.0
 11
39.500000370605449
 21
35.999999617473605
 31
0.0
  0
LINE
  5
2AB
100
AcDbEntity
  8
0
  6
CONTINUOUS
 62
               7
100
AcDbLine
 10
45.000000370605449
 20
44.5
 30
0.0
 11
45.000000370605449
 21
59.5
 31
0.0
  0
LINE
  5
2AC
100
AcDbEntity
  8
0
  6
CONTINUOUS
 62
               7
100
AcDbLine
 10
46.500000370605449
 20
44.5
 30
0.0
 11
46.500000370605449
 21
59.5
 31
0.0
  0
LINE
  5
2AD
100
AcDbEntity
  8
0
  6
CONTINUOUS
 62
               7
100
AcDbLine
 10
39.500000370605449
 20
44.5
 30
0.0
 11
35.0
 21
44.5
 31
0.0
  0
LINE
  5
2AE
100
AcDbEntity
  8
0
  6
CONTINUOUS
 62
               7
100
AcDbLine
 10
41.000000370605449
 20
35.999999617473605
 30
0.0
 11
45.000000370605449
 21
35.999999617473605
 31
0.0
  0
LINE
  5
2AF
100
AcDbEntity
  8
0
  6
CONTINUOUS
 62
               7
100
AcDbLine
 10
53.5
 20
47.5
 30
0.0
 11
46.500000370605449
 21
47.5
 31
0.0
  0
LINE
  5
2B0
100
AcDbEntity
  8
0
  6
CONTINUOUS
 62
               7
100
AcDbLine
 10
45.000000370605449
 20
47.5
 30
0.0
 11
43.500000370605449
 21
47.5
 31
0.0
  0
LINE
  5
2B1
100
AcDbEntity
  8
0
  6
CONTINUOUS
 62
               7
100
AcDbLine
 10
46.500000370605449
 20
32.999999617473605
 30
0.0
 11
50.500000370605449
 21
32.999999617473605
 31
0.0
  0
LINE
  5
2B2
100
AcDbEntity
  8
0
  6
CONTINUOUS
 62
               7
100
AcDbLine
 10
43.500000370605449
 20
32.999999617473605
 30
0.0
 11
45.000000370605449
 21
32.999999617473605
 31
0.0
  0
LINE
  5
2B3
100
AcDbEntity
  8
0
  6
CONTINUOUS
 62
               4
100
AcDbLine
 10
53.0
 20
-9.7500111853100009
 30
0.0
 11
55.994724000000133
 21
-9.7500111853100009
 31
0.0
  0
LINE
  5
2B4
100
AcDbEntity
  8
0
  6
CONTINUOUS
 62
               4
100
AcDbLine
 10
53.0
 20
-12.250011185310001
 30
0.0
 11
55.994724000000133
 21
-12.250011185310001
 31
0.0
  0
LINE
  5
2B5
100
AcDbEntity
  8
0
  6
CONTINUOUS
 62
               4
100
AcDbLine
 10
55.994724000000133
 20
-12.250011185310001
 30
0.0
 11
55.994724000000133
 21
-9.7500111853100009
 31
0.0
  0
LINE
  5
2B6
100
AcDbEntity
  8
0
  6
CONTINUOUS
 62
               4
100
AcDbLine
 10
57.944723551947845
 20
-13.800007370605442
 30
0.0
 11
53.000007629394531
 21
-13.800007370605442
 31
0.0
  0
LINE
  5
2B7
100
AcDbEntity
  8
0
  6
CONTINUOUS
 62
               4
100
AcDbLine
 10
57.944723551947845
 20
-8.2000102843586973
 30
0.0
 11
53.0
 21
-8.2000150000145453
 31
0.0
  0
LINE
  5
2B8
100
AcDbEntity
  8
0
  6
CONTINUOUS
 62
               4
100
AcDbLine
 10
57.944723551947845
 20
-13.800007370605442
 30
0.0
 11
57.944723551947845
 21
-8.2000103219792351
 31
0.0
  0
LINE
  5
2B9
100
AcDbEntity
  8
0
  6
CONTINUOUS
 62
               7
100
AcDbLine
 10
48.000000370605449
 20
-11.250007382526405
 30
0.0
 11
48.000000370605449
 21
-14.780007382526406
 31
0.0
  0
LINE
  5
2BA
100
AcDbEntity
  8
0
  6
CONTINUOUS
 62
               7
100
AcDbLine
 10
48.000000370605449
 20
-13.015007382526392
 30
0.0
 11
50.500000370605449
 21
-13.015007382526392
 31
0.0
  0
ARC
  5
2BC
100
AcDbEntity
  8
0
  6
DASHED
 62
               7
100
AcDbCircle
 10
34.500073934956731
 20
-30.000073934956674
 30
0.0
 40
0.4999260705104662
100
AcDbArc
 50
269.99152642511825
 51
0.0084735748821464
  0
ENDBLK
  5
2BD
100
AcDbEntity
  8
0
100
AcDbBlockEnd
  0
BLOCK
  5
2BE
100
AcDbEntity
  8
0
100
AcDbBlockBegin
  2
F10MN-7
 70
               0
 10
0.0
 20
0.0
 30
0.0
  3
F10MN-7
  1

  0
LINE
  5
2BF
100
AcDbEntity
  8
0
  6
CONTINUOUS
 62
             200
100
AcDbLine
 10
9.5
 20
56.0
 30
0.0
 11
9.5
 21
86.990000000000009
 31
0.0
  0
LINE
  5
2C0
100
AcDbEntity
  8
0
  6
CONTINUOUS
 62
               7
100
AcDbLine
 10
0.0
 20
1.0
 30
0.0
 11
19.0
 21
1.0
 31
0.0
  0
LINE
  5
2C1
100
AcDbEntity
  8
0
  6
CONTINUOUS
 62
               7
100
AcDbLine
 10
18.5
 20
3.199981689453125
 30
0.0
 11
18.5
 21
6.3543548583984375
 31
0.0
  0
ARC
  5
2C2
100
AcDbEntity
  8
0
  6
CONTINUOUS
 62
               7
100
AcDbCircle
 10
16.0
 20
7.5
 30
0.0
 40
3.0
100
AcDbArc
 50
89.999982013910653
 51
179.99996402782131
  0
ARC
  5
2C3
100
AcDbEntity
  8
0
  6
CONTINUOUS
 62
               7
100
AcDbCircle
 10
3.0
 20
9.5
 30
0.0
 40
3.0
100
AcDbArc
 50
269.99996334457597
 51
89.999982013910653
  0
ARC
  5
2C4
100
AcDbEntity
  8
0
  6
CONTINUOUS
 62
               7
100
AcDbCircle
 10
3.0
 20
9.5
 30
0.0
 40
2.8000030517578125
100
AcDbArc
 50
270.00001798608935
 51
89.999982013910653
  0
LINE
  5
2C5
100
AcDbEntity
  8
0
  6
CONTINUOUS
 62
               7
100
AcDbLine
 10
17.060655851796582
 20
6.4393064060086544
 30
0.0
 11
14.939347407012974
 21
8.5606169965485606
 31
0.0
  0
LINE
  5
2C6
100
AcDbEntity
  8
0
  6
CONTINUOUS
 62
               7
100
AcDbLine
 10
14.939411826037031
 20
6.4392739503182383
 30
0.0
 11
17.060727841757398
 21
8.5605987279213878
 31
0.0
  0
LINE
  5
2C7
100
AcDbEntity
  8
0
  6
CONTINUOUS
 62
               7
100
AcDbLine
 10
0.5
 20
5.199981689453125
 30
0.0
 11
13.0
 21
5.199981689453125
 31
0.0
  0
LINE
  5
2C8
100
AcDbEntity
  8
0
  6
CONTINUOUS
 62
               7
100
AcDbLine
 10
13.0
 20
7.5
 30
0.0
 11
13.0
 21
3.199981689453125
 31
0.0
  0
LINE
  5
2C9
100
AcDbEntity
  8
0
  6
CONTINUOUS
 62
               7
100
AcDbLine
 10
0.5
 20
12.499984741210938
 30
0.0
 11
3.0
 21
12.499984741210938
 31
0.0
  0
LINE
  5
2CA
100
AcDbEntity
  8
0
  6
CONTINUOUS
 62
               7
100
AcDbLine
 10
0.5
 20
6.4999847412109375
 30
0.0
 11
3.0
 21
6.4999847412109375
 31
0.0
  0
LINE
  5
2CB
100
AcDbEntity
  8
0
  6
CONTINUOUS
 62
               7
100
AcDbLine
 10
0.5
 20
3.199981689453125
 30
0.0
 11
0.5
 21
6.4999847412109375
 31
0.0
  0
LINE
  5
2CC
100
AcDbEntity
  8
0
  6
CONTINUOUS
 62
               7
100
AcDbLine
 10
0.5
 20
12.300003051757812
 30
0.0
 11
3.0
 21
12.300003051757812
 31
0.0
  0
LINE
  5
2CD
100
AcDbEntity
  8
0
  6
CONTINUOUS
 62
               7
100
AcDbLine
 10
0.5
 20
6.6999969482421875
 30
0.0
 11
3.0
 21
6.6999969482421875
 31
0.0
  0
LINE
  5
2CE
100
AcDbEntity
  8
0
  6
CONTINUOUS
 62
               7
100
AcDbLine
 10
0.5
 20
6.6999969482421875
 30
0.0
 11
0.5
 21
12.300003051757812
 31
0.0
  0
LINE
  5
2CF
100
AcDbEntity
  8
0
  6
CONTINUOUS
 62
               7
100
AcDbLine
 10
0.5
 20
3.199981689453125
 30
0.0
 11
18.5
 21
3.199981689453125
 31
0.0
  0
LINE
  5
2D0
100
AcDbEntity
  8
0
  6
CONTINUOUS
 62
               7
100
AcDbLine
 10
16.0
 20
10.5
 30
0.0
 11
18.5
 21
10.5
 31
0.0
  0
CIRCLE
  5
2D1
100
AcDbEntity
  8
0
  6
CONTINUOUS
 62
               7
100
AcDbCircle
 10
16.0
 20
7.5
 30
0.0
 40
2.75
  0
LINE
  5
2D2
100
AcDbEntity
  8
0
  6
CONTINUOUS
 62
               7
100
AcDbLine
 10
0.0
 20
3.0
 30
0.0
 11
19.0
 21
3.0
 31
0.0
  0
LINE
  5
2D3
100
AcDbEntity
  8
0
  6
CONTINUOUS
 62
               7
100
AcDbLine
 10
16.0
 20
46.499984741210937
 30
0.0
 11
18.5
 21
46.499984741210937
 31
0.0
  0
LINE
  5
2D4
100
AcDbEntity
  8
0
  6
CONTINUOUS
 62
               7
100
AcDbLine
 10
16.0
 20
46.699996948242188
 30
0.0
 11
18.5
 21
46.699996948242188
 31
0.0
  0
LINE
  5
2D5
100
AcDbEntity
  8
0
  6
CONTINUOUS
 62
               7
100
AcDbLine
 10
18.5
 20
8.6456451416015625
 30
0.0
 11
18.5
 21
46.499984741210937
 31
0.0
  0
LINE
  5
2D6
100
AcDbEntity
  8
0
  6
CONTINUOUS
 62
               7
100
AcDbLine
 10
18.800000011920929
 20
56.5
 30
0.0
 11
18.800000011920929
 21
56.0
 31
0.0
  0
LINE
  5
2D7
100
AcDbEntity
  8
0
  6
CONTINUOUS
 62
               4
100
AcDbLine
 10
18.5
 20
60.503294399999987
 30
0.0
 11
18.5
 21
57.399992386500031
 31
0.0
  0
ARC
  5
2D8
100
AcDbEntity
  8
0
  6
CONTINUOUS
 62
               4
100
AcDbCircle
 10
14.800000011920929
 20
56.499992370605469
 30
0.0
 40
1.5
100
AcDbArc
 50
89.999986339621657
 51
180.0
  0
LINE
  5
2D9
100
AcDbEntity
  8
0
  6
CONTINUOUS
 62
               4
100
AcDbLine
 10
13.0
 20
58.214618999999999
 30
0.0
 11
13.0
 21
56.0
 31
0.0
  0
LINE
  5
2DA
100
AcDbEntity
  8
0
  6
CONTINUOUS
 62
               4
100
AcDbLine
 10
18.5
 20
60.214618999999999
 30
0.0
 11
16.0
 21
60.214618999999999
 31
0.0
  0
LINE
  5
2DB
100
AcDbEntity
  8
0
  6
CONTINUOUS
 62
               4
100
AcDbLine
 10
14.800000369548798
 20
57.999992370605412
 30
0.0
 11
17.300000369548798
 21
57.999992370605412
 31
0.0
  0
LINE
  5
2DC
100
AcDbEntity
  8
0
  6
CONTINUOUS
 62
               4
100
AcDbLine
 10
5.7788395000000037
 20
61.0
 30
0.0
 11
0.5
 21
61.0
 31
0.0
  0
ARC
  5
2DD
100
AcDbEntity
  8
0
  6
CONTINUOUS
 62
               4
100
AcDbCircle
 10
9.5
 20
74.690523132503984
 30
0.0
 40
14.187228732503996
100
AcDbArc
 50
254.79404619011436
 51
285.20595380988573
  0
LINE
  5
2DE
100
AcDbEntity
  8
0
  6
CONTINUOUS
 62
               4
100
AcDbLine
 10
18.5
 20
61.0
 30
0.0
 11
13.221160499999996
 21
61.0
 31
0.0
  0
ARC
  5
2DF
100
AcDbEntity
  8
0
  6
CONTINUOUS
 62
               4
100
AcDbCircle
 10
17.600000000000023
 20
84.300000000000011
 30
0.0
 40
0.3
100
AcDbArc
 50
0.0000000000006107
 51
90.00000000000081
  0
ARC
  5
2E0
100
AcDbEntity
  8
0
  6
CONTINUOUS
 62
               4
100
AcDbCircle
 10
3.0
 20
82.900000000000006
 30
0.0
 40
0.5
100
AcDbArc
 50
0.0000000000006107
 51
90.00000000000081
  0
ARC
  5
2E1
100
AcDbEntity
  8
0
  6
CONTINUOUS
 62
               4
100
AcDbCircle
 10
1.3999999999999773
 20
84.300000000000011
 30
0.0
 40
0.3
100
AcDbArc
 50
90.0
 51
180.0000000000002
  0
ARC
  5
2E2
100
AcDbEntity
  8
0
  6
CONTINUOUS
 62
               4
100
AcDbCircle
 10
16.0
 20
82.900000000000006
 30
0.0
 40
0.5
100
AcDbArc
 50
90.0
 51
180.0000000000002
  0
LINE
  5
2E3
100
AcDbEntity
  8
0
  6
CONTINUOUS
 62
               4
100
AcDbLine
 10
17.899999999999977
 20
84.300680999999997
 30
0.0
 11
17.899999999999977
 21
83.400000000000006
 31
0.0
  0
LINE
  5
2E4
100
AcDbEntity
  8
0
  6
CONTINUOUS
 62
               4
100
AcDbLine
 10
1.3999999999999773
 20
84.599999999999994
 30
0.0
 11
17.600000000000023
 21
84.599999999999994
 31
0.0
  0
LINE
  5
2E5
100
AcDbEntity
  8
0
  6
CONTINUOUS
 62
               4
100
AcDbLine
 10
17.899999999999977
 20
83.400000000000006
 30
0.0
 11
1.1000000000000227
 21
83.400000000000006
 31
0.0
  0
LINE
  5
2E6
100
AcDbEntity
  8
0
  6
CONTINUOUS
 62
               4
100
AcDbLine
 10
1.1000000000000227
 20
84.300680999999997
 30
0.0
 11
1.1000000000000227
 21
83.400000000000006
 31
0.0
  0
LINE
  5
2E7
100
AcDbEntity
  8
0
  6
CONTINUOUS
 62
               4
100
AcDbLine
 10
3.5
 20
82.900000000000006
 30
0.0
 11
3.5
 21
82.5
 31
0.0
  0
LINE
  5
2E8
100
AcDbEntity
  8
0
  6
CONTINUOUS
 62
               4
100
AcDbLine
 10
16.600000000000023
 20
82.400000000000006
 30
0.0
 11
16.600000000000023
 21
81.399999000000008
 31
0.0
  0
LINE
  5
2E9
100
AcDbEntity
  8
0
  6
CONTINUOUS
 62
               4
100
AcDbLine
 10
16.5
 20
82.5
 30
0.0
 11
16.600000000000023
 21
82.400000000000006
 31
0.0
  0
LINE
  5
2EA
100
AcDbEntity
  8
0
  6
CONTINUOUS
 62
               4
100
AcDbLine
 10
2.5
 20
82.5
 30
0.0
 11
2.3999999999999773
 21
82.400000000000006
 31
0.0
  0
LINE
  5
2EB
100
AcDbEntity
  8
0
  6
CONTINUOUS
 62
               4
100
AcDbLine
 10
2.5
 20
82.5
 30
0.0
 11
16.5
 21
82.5
 31
0.0
  0
LINE
  5
2EC
100
AcDbEntity
  8
0
  6
CONTINUOUS
 62
               4
100
AcDbLine
 10
2.3999999999999773
 20
82.400000000000006
 30
0.0
 11
2.3999999999999773
 21
81.399999000000008
 31
0.0
  0
LINE
  5
2ED
100
AcDbEntity
  8
0
  6
CONTINUOUS
 62
               4
100
AcDbLine
 10
18.399999999999977
 20
76.900000000000006
 30
0.0
 11
0.6000000000000227
 21
76.900000000000006
 31
0.0
  0
LINE
  5
2EE
100
AcDbEntity
  8
0
  6
CONTINUOUS
 62
               4
100
AcDbLine
 10
1.6000000000000227
 20
81.399999000000008
 30
0.0
 11
17.399999200000025
 21
81.399999000000008
 31
0.0
  0
LINE
  5
2EF
100
AcDbEntity
  8
0
  6
CONTINUOUS
 62
               4
100
AcDbLine
 10
0.7000000000000455
 20
77.800000000000011
 30
0.0
 11
0.5
 21
78.0
 31
0.0
  0
LINE
  5
2F0
100
AcDbEntity
  8
0
  6
CONTINUOUS
 62
               4
100
AcDbLine
 10
0.5
 20
80.364913000000001
 30
0.0
 11
1.2535904000000073
 21
80.799999000000014
 31
0.0
  0
LINE
  5
2F1
100
AcDbEntity
  8
0
  6
CONTINUOUS
 62
               4
100
AcDbLine
 10
18.5
 20
80.364913000000001
 30
0.0
 11
17.746409599999993
 21
80.799999000000014
 31
0.0
  0
LINE
  5
2F2
100
AcDbEntity
  8
0
  6
CONTINUOUS
 62
               4
100
AcDbLine
 10
17.746409599999993
 20
80.799999000000014
 30
0.0
 11
17.399999200000025
 21
81.399999000000008
 31
0.0
  0
LINE
  5
2F3
100
AcDbEntity
  8
0
  6
CONTINUOUS
 62
               4
100
AcDbLine
 10
1.2535904000000073
 20
80.799999000000014
 30
0.0
 11
1.6000007999999752
 21
81.399999000000008
 31
0.0
  0
LINE
  5
2F4
100
AcDbEntity
  8
0
  6
CONTINUOUS
 62
               4
100
AcDbLine
 10
18.299999999999955
 20
77.800000000000011
 30
0.0
 11
0.7000000000000455
 21
77.800000000000011
 31
0.0
  0
LINE
  5
2F5
100
AcDbEntity
  8
0
  6
CONTINUOUS
 62
               4
100
AcDbLine
 10
18.5
 20
80.364913999999999
 30
0.0
 11
18.5
 21
78.0
 31
0.0
  0
LINE
  5
2F6
100
AcDbEntity
  8
0
  6
CONTINUOUS
 62
               4
100
AcDbLine
 10
18.299999999999955
 20
77.800000000000011
 30
0.0
 11
18.5
 21
78.0
 31
0.0
  0
LINE
  5
2F7
100
AcDbEntity
  8
0
  6
CONTINUOUS
 62
               4
100
AcDbLine
 10
0.5
 20
80.364913999999999
 30
0.0
 11
0.5
 21
78.0
 31
0.0
  0
LINE
  5
2F8
100
AcDbEntity
  8
0
  6
CONTINUOUS
 62
               4
100
AcDbLine
 10
18.299999999999955
 20
71.899999400000013
 30
0.0
 11
18.5
 21
72.09999959999999
 31
0.0
  0
LINE
  5
2F9
100
AcDbEntity
  8
0
  6
CONTINUOUS
 62
               4
100
AcDbLine
 10
0.7000000000000455
 20
71.899999600000001
 30
0.0
 11
18.299999999999955
 21
71.899999600000001
 31
0.0
  0
LINE
  5
2FA
100
AcDbEntity
  8
0
  6
CONTINUOUS
 62
               4
100
AcDbLine
 10
18.5
 20
76.800000000000011
 30
0.0
 11
18.5
 21
72.09999959999999
 31
0.0
  0
LINE
  5
2FB
100
AcDbEntity
  8
0
  6
CONTINUOUS
 62
               4
100
AcDbLine
 10
0.5
 20
76.800000000000011
 30
0.0
 11
0.5
 21
72.09999959999999
 31
0.0
  0
LINE
  5
2FC
100
AcDbEntity
  8
0
  6
CONTINUOUS
 62
               4
100
AcDbLine
 10
0.7000000000000455
 20
71.899999400000013
 30
0.0
 11
0.5
 21
72.09999959999999
 31
0.0
  0
LINE
  5
2FD
100
AcDbEntity
  8
0
  6
CONTINUOUS
 62
               4
100
AcDbLine
 10
18.5
 20
76.800000000000011
 30
0.0
 11
18.399999999999977
 21
76.900000000000006
 31
0.0
  0
LINE
  5
2FE
100
AcDbEntity
  8
0
  6
CONTINUOUS
 62
               4
100
AcDbLine
 10
0.5
 20
76.800000000000011
 30
0.0
 11
0.6000000000000227
 21
76.900000000000006
 31
0.0
  0
LINE
  5
2FF
100
AcDbEntity
  8
0
  6
CONTINUOUS
 62
               4
100
AcDbLine
 10
0.7000000000000455
 20
71.900000000000006
 30
0.0
 11
0.5
 21
71.699999800000001
 31
0.0
  0
LINE
  5
300
100
AcDbEntity
  8
0
  6
CONTINUOUS
 62
               4
100
AcDbLine
 10
17.799999999999955
 20
77.800000000000011
 30
0.0
 11
17.799999999999955
 21
76.900000000000006
 31
0.0
  0
LINE
  5
301
100
AcDbEntity
  8
0
  6
CONTINUOUS
 62
               4
100
AcDbLine
 10
1.2000000000000455
 20
77.800000000000011
 30
0.0
 11
1.2000000000000455
 21
76.900000000000006
 31
0.0
  0
LINE
  5
302
100
AcDbEntity
  8
0
  6
CONTINUOUS
 62
               4
100
AcDbLine
 10
18.299999999999955
 20
71.900000000000006
 30
0.0
 11
18.5
 21
71.699999800000001
 31
0.0
  0
LINE
  5
303
100
AcDbEntity
  8
0
  6
CONTINUOUS
 62
               4
100
AcDbLine
 10
0.5
 20
72.09999959999999
 30
0.0
 11
18.5
 21
72.09999959999999
 31
0.0
  0
LINE
  5
304
100
AcDbEntity
  8
0
  6
CONTINUOUS
 62
               4
100
AcDbLine
 10
15.5
 20
82.900000000000006
 30
0.0
 11
15.5
 21
82.5
 31
0.0
  0
LINE
  5
305
100
AcDbEntity
  8
0
  6
CONTINUOUS
 62
               4
100
AcDbLine
 10
2.3999999999999773
 20
82.400000000000006
 30
0.0
 11
16.600000000000023
 21
82.400000000000006
 31
0.0
  0
LINE
  5
306
100
AcDbEntity
  8
0
  6
CONTINUOUS
 62
               4
100
AcDbLine
 10
1.2535904000000073
 20
80.799999000000014
 30
0.0
 11
17.746409599999993
 21
80.799999000000014
 31
0.0
  0
LINE
  5
307
100
AcDbEntity
  8
0
  6
CONTINUOUS
 62
               4
100
AcDbLine
 10
0.5
 20
80.364913000000001
 30
0.0
 11
18.5
 21
80.364913000000001
 31
0.0
  0
LINE
  5
308
100
AcDbEntity
  8
0
  6
CONTINUOUS
 62
               4
100
AcDbLine
 10
0.5
 20
78.0
 30
0.0
 11
18.5
 21
78.0
 31
0.0
  0
LINE
  5
309
100
AcDbEntity
  8
0
  6
CONTINUOUS
 62
               4
100
AcDbLine
 10
0.5
 20
76.800000000000011
 30
0.0
 11
18.5
 21
76.800000000000011
 31
0.0
  0
LINE
  5
30A
100
AcDbEntity
  8
0
  6
CONTINUOUS
 62
               4
100
AcDbLine
 10
18.5
 20
71.699999999999989
 30
0.0
 11
18.5
 21
60.503294399999987
 31
0.0
  0
LINE
  5
30B
100
AcDbEntity
  8
0
  6
CONTINUOUS
 62
               4
100
AcDbLine
 10
18.5
 20
71.699999800000001
 30
0.0
 11
0.5
 21
71.699999800000001
 31
0.0
  0
LINE
  5
30C
100
AcDbEntity
  8
0
  6
CONTINUOUS
 62
               4
100
AcDbLine
 10
0.5
 20
57.905259999999998
 30
0.0
 11
3.0
 21
57.905259999999998
 31
0.0
  0
LINE
  5
30D
100
AcDbEntity
  8
0
  6
CONTINUOUS
 62
               4
100
AcDbLine
 10
13.300000727176666
 20
56.499992370605469
 30
0.0
 11
13.300000727176666
 21
55.999992370605469
 31
0.0
  0
ARC
  5
30E
100
AcDbEntity
  8
0
  6
CONTINUOUS
 62
               4
100
AcDbCircle
 10
17.300000011920929
 20
56.499992370605469
 30
0.0
 40
1.5
100
AcDbArc
 50
0.0000179860893428
 51
89.999986339621657
  0
LINE
  5
30F
100
AcDbEntity
  8
0
  6
CONTINUOUS
 62
               4
100
AcDbLine
 10
0.5
 20
71.699999800000001
 30
0.0
 11
0.5
 21
56.0
 31
0.0
  0
ARC
  5
310
100
AcDbEntity
  8
0
  6
CONTINUOUS
 62
               7
100
AcDbCircle
 10
3.0
 20
51.5
 30
0.0
 40
3.0
100
AcDbArc
 50
270.00001798608935
 51
0.00001366037834
  0
CIRCLE
  5
311
100
AcDbEntity
  8
0
  6
CONTINUOUS
 62
               7
100
AcDbCircle
 10
3.0
 20
51.5
 30
0.0
 40
2.75
  0
LINE
  5
312
100
AcDbEntity
  8
0
  6
CONTINUOUS
 62
               7
100
AcDbLine
 10
18.5
 20
52.499984741210937
 30
0.0
 11
18.5
 21
55.79998779296875
 31
0.0
  0
LINE
  5
313
100
AcDbEntity
  8
0
  6
CONTINUOUS
 62
               7
100
AcDbLine
 10
0.5
 20
52.645645141601563
 30
0.0
 11
0.5
 21
55.79998779296875
 31
0.0
  0
LINE
  5
314
100
AcDbEntity
  8
0
  6
CONTINUOUS
 62
               7
100
AcDbLine
 10
1.939332924325754
 20
50.439362775286099
 30
0.0
 11
4.0606553773477572
 21
52.560680936773679
 31
0.0
  0
LINE
  5
315
100
AcDbEntity
  8
0
  6
CONTINUOUS
 62
               7
100
AcDbLine
 10
4.0607111099434405
 20
50.439394250728583
 30
0.0
 11
1.9393984916878253
 21
52.56072224698255
 31
0.0
  0
LINE
  5
316
100
AcDbEntity
  8
0
  6
CONTINUOUS
 62
               7
100
AcDbLine
 10
6.0
 20
53.79998779296875
 30
0.0
 11
18.5
 21
53.79998779296875
 31
0.0
  0
LINE
  5
317
100
AcDbEntity
  8
0
  6
CONTINUOUS
 62
               7
100
AcDbLine
 10
3.0
 20
48.5
 30
0.0
 11
0.5
 21
48.5
 31
0.0
  0
LINE
  5
318
100
AcDbEntity
  8
0
  6
CONTINUOUS
 62
               7
100
AcDbLine
 10
6.0
 20
51.5
 30
0.0
 11
6.0
 21
55.79998779296875
 31
0.0
  0
LINE
  5
319
100
AcDbEntity
  8
0
  6
CONTINUOUS
 62
               7
100
AcDbLine
 10
16.0
 20
52.499984741210937
 30
0.0
 11
18.5
 21
52.499984741210937
 31
0.0
  0
LINE
  5
31A
100
AcDbEntity
  8
0
  6
CONTINUOUS
 62
               7
100
AcDbLine
 10
0.5
 20
55.79998779296875
 30
0.0
 11
18.5
 21
55.79998779296875
 31
0.0
  0
LINE
  5
31B
100
AcDbEntity
  8
0
  6
CONTINUOUS
 62
               7
100
AcDbLine
 10
16.0
 20
52.300003051757813
 30
0.0
 11
18.5
 21
52.300003051757813
 31
0.0
  0
LINE
  5
31C
100
AcDbEntity
  8
0
  6
CONTINUOUS
 62
               7
100
AcDbLine
 10
0.0
 20
56.0
 30
0.0
 11
19.0
 21
56.0
 31
0.0
  0
LINE
  5
31D
100
AcDbEntity
  8
0
  6
CONTINUOUS
 62
               7
100
AcDbLine
 10
0.0
 20
56.0
 30
0.0
 11
0.0
 21
1.0
 31
0.0
  0
LINE
  5
31E
100
AcDbEntity
  8
0
  6
CONTINUOUS
 62
               7
100
AcDbLine
 10
19.0
 20
56.0
 30
0.0
 11
19.0
 21
1.0
 31
0.0
  0
LINE
  5
31F
100
AcDbEntity
  8
0
  6
CONTINUOUS
 62
               7
100
AcDbLine
 10
18.5
 20
46.699996948242188
 30
0.0
 11
18.5
 21
52.300003051757813
 31
0.0
  0
LINE
  5
320
100
AcDbEntity
  8
0
  6
CONTINUOUS
 62
               7
100
AcDbLine
 10
0.5
 20
12.499984741210938
 30
0.0
 11
0.5
 21
50.354354858398438
 31
0.0
  0
ARC
  5
321
100
AcDbEntity
  8
0
  6
CONTINUOUS
 62
               7
100
AcDbCircle
 10
16.0
 20
49.5
 30
0.0
 40
2.8000030517578125
100
AcDbArc
 50
89.999982013910653
 51
270.00000068324533
  0
ARC
  5
322
100
AcDbEntity
  8
0
  6
CONTINUOUS
 62
               7
100
AcDbCircle
 10
16.0
 20
49.5
 30
0.0
 40
3.0
100
AcDbArc
 50
89.999982013910653
 51
269.99994604173196
  0
LINE
  5
323
100
AcDbEntity
  8
0
  6
CONTINUOUS
 62
               2
100
AcDbLine
 10
9.5
 20
-0.8300000000000125
 30
0.0
 11
9.5
 21
56.0
 31
0.0
  0
LINE
  5
324
100
AcDbEntity
  8
0
  6
CONTINUOUS
 62
               7
100
AcDbLine
 10
0.0
 20
0.0
 30
0.0
 11
19.0
 21
0.0
 31
0.0
  0
SPLINE
  5
325
100
AcDbEntity
  8
0
  6
CONTINUOUS
 62
               4
100
AcDbSpline
210
0.0
220
0.0
230
1.0
 70
               0
 71
               3
 72
               0
 73
               0
 74
              41
 44
0.000001
 12
0.9936236052884185
 22
0.1127480865187747
 32
0.0
 13
-0.7599872673059149
 23
0.6499379612954516
 33
0.0
 11
3.0
 21
57.905259999999998
 31
0.0
 11
3.1835950088173592
 21
57.9281156382145
 31
0.0
 11
3.3666686806424591
 21
57.95488778831011
 31
0.0
 11
3.5491910633257295
 21
57.985471735104525
 31
0.0
 11
3.7310568235546953
 21
58.019750906513337
 31
0.0
 11
3.9406626240586609
 21
58.063991352126159
 31
0.0
 11
4.1491068789441021
 21
58.113411459068963
 31
0.0
 11
4.356159491056057
 21
58.168380349308201
 31
0.0
 11
4.5615580130913713
 21
58.229250661799654
 31
0.0
 11
4.7353059500019601
 21
58.286240077632243
 31
0.0
 11
4.9071785261935652
 21
58.348630907257999
 31
0.0
 11
5.076671749678817
 21
58.417251023262786
 31
0.0
 11
5.2431792480185777
 21
58.492856464834887
 31
0.0
 11
5.3846585238790707
 21
58.564939129627902
 31
0.0
 11
5.5220200791754532
 21
58.644576712437242
 31
0.0
 11
5.6539708544073761
 21
58.733517206565125
 31
0.0
 11
5.7783402607044536
 21
58.832700983361235
 31
0.0
 11
5.8468742923882857
 21
58.896275476593637
 31
0.0
 11
5.9105460721321776
 21
58.964729307816242
 31
0.0
 11
5.9671369511457186
 21
59.0381684201203
 31
0.0
 11
6.0149978694515767
 21
59.117439092808866
 31
0.0
 11
6.0499178294558966
 21
59.196205670373821
 31
0.0
 11
6.0755156801446688
 21
59.278569215423758
 31
0.0
 11
6.0921983132962003
 21
59.363664161466268
 31
0.0
 11
6.1000000000000227
 21
59.449999999999989
 31
0.0
 11
6.0956329827916633
 21
59.581499565114562
 31
0.0
 11
6.0739150359266523
 21
59.711459636108337
 31
0.0
 11
6.0372047080419442
 21
59.838578348905216
 31
0.0
 11
5.9880033821738152
 21
59.961369983469979
 31
0.0
 11
5.9301528133851802
 21
60.076379857278042
 31
0.0
 11
5.8636535259251952
 21
60.186592681645998
 31
0.0
 11
5.7896864623867241
 21
60.291450045572127
 31
0.0
 11
5.7090312953373541
 21
60.391261395972151
 31
0.0
 11
5.6245256098642908
 21
60.484130085802349
 31
0.0
 11
5.5352904383142949
 21
60.572465567961693
 31
0.0
 11
5.4419839874272045
 21
60.656614798409166
 31
0.0
 11
5.345326158437274
 21
60.736868925146297
 31
0.0
 11
5.2612674779220843
 21
60.802446336339585
 31
0.0
 11
5.1764842259950656
 21
60.867117072800006
 31
0.0
 11
5.0923170190930733
 21
60.932425516263663
 31
0.0
 11
5.0099999999999909
 21
61.0
 31
0.0
  0
SPLINE
  5
326
100
AcDbEntity
  8
0
  6
CONTINUOUS
 62
               4
100
AcDbSpline
210
0.0
220
0.0
230
1.0
 70
               0
 71
               3
 72
               0
 73
               0
 74
              37
 44
0.000001
 12
-0.9881349170157097
 22
-0.1535883647102106
 32
0.0
 13
-0.2801395722747445
 23
-0.9599592804102283
 33
0.0
 11
16.0
 21
60.214618999999999
 31
0.0
 11
15.869760142265561
 21
60.19275158693938
 31
0.0
 11
15.740082644176194
 21
60.167718873458874
 31
0.0
 11
15.611034833977421
 21
60.139521589105001
 31
0.0
 11
15.482722194767348
 21
60.108166030370825
 31
0.0
 11
15.386058953979532
 21
60.082315062510197
 31
0.0
 11
15.289893133328967
 21
60.054674645789973
 31
0.0
 11
15.194256703981031
 21
60.025268176043781
 31
0.0
 11
15.099172740678341
 21
59.994117293121292
 31
0.0
 11
14.981946636334472
 21
59.953036979776776
 31
0.0
 11
14.865702179106895
 21
59.909253059125476
 31
0.0
 11
14.750526565149404
 21
59.862714174877944
 31
0.0
 11
14.636523498592055
 21
59.813375455399637
 31
0.0
 11
14.537375479225192
 21
59.767656189143537
 31
0.0
 11
14.439304393671792
 21
59.719671576845336
 31
0.0
 11
14.342417690698387
 21
59.669362112203615
 31
0.0
 11
14.246811155673868
 21
59.616662429365363
 31
0.0
 11
14.168031225222521
 21
59.570774034302261
 31
0.0
 11
14.090305428380795
 21
59.523124141633417
 31
0.0
 11
14.013715778570642
 21
59.473657623471674
 31
0.0
 11
13.938359581132431
 21
59.422329805906713
 31
0.0
 11
13.859103750835528
 21
59.365212032178448
 31
0.0
 11
13.781537864217077
 21
59.30581905037846
 31
0.0
 11
13.705838052225696
 21
59.244074200232738
 31
0.0
 11
13.632184474727069
 21
59.179904037124516
 31
0.0
 11
13.566554216792669
 21
59.11882321765124
 31
0.0
 11
13.502973285578619
 21
59.055613217438875
 31
0.0
 11
13.441604549913601
 21
58.990241016167325
 31
0.0
 11
13.382632023039491
 21
58.922697800405444
 31
0.0
 11
13.327138510750105
 21
58.854094007937029
 31
0.0
 11
13.27444930583108
 21
58.783314708637455
 31
0.0
 11
13.224880760153463
 21
58.710310704287039
 31
0.0
 11
13.178773718291609
 21
58.635074842327299
 31
0.0
 11
13.124547946433252
 21
58.534228771677199
 31
0.0
 11
13.07669410329764
 21
58.430172979099396
 31
0.0
 11
13.035194410724964
 21
58.323494228556989
 31
0.0
 11
13.0
 21
58.214618999999999
 31
0.0
  0
ENDBLK
  5
327
100
AcDbEntity
  8
0
100
AcDbBlockEnd
  0
BLOCK
  5
328
100
AcDbEntity
  8
0
100
AcDbBlockBegin
  2
F10MN-8
 70
               0
 10
0.0
 20
0.0
 30
0.0
  3
F10MN-8
  1

  0
LINE
  5
329
100
AcDbEntity
  8
0
  6
CONTINUOUS
 62
               7
100
AcDbLine
 10
0.0
 20
-17.50000001429305
 30
0.0
 11
19.0
 21
-17.50000001429305
 31
0.0
  0
LINE
  5
32A
100
AcDbEntity
  8
0
  6
CONTINUOUS
 62
               7
100
AcDbLine
 10
18.5
 20
-28.500000014293065
 30
0.0
 11
0.25
 21
-28.500000014293065
 31
0.0
  0
LINE
  5
32B
100
AcDbEntity
  8
0
  6
CONTINUOUS
 62
               7
100
AcDbLine
 10
5.75
 20
-29.000000014293065
 30
0.0
 11
5.75
 21
-28.500000014293065
 31
0.0
  0
LINE
  5
32C
100
AcDbEntity
  8
0
  6
CONTINUOUS
 62
               7
100
AcDbLine
 10
0.25
 20
-29.000000014293065
 30
0.0
 11
0.25
 21
-28.500000014293065
 31
0.0
  0
LINE
  5
32D
100
AcDbEntity
  8
0
  6
CONTINUOUS
 62
               7
100
AcDbLine
 10
18.5
 20
-30.500000014293065
 30
0.0
 11
1.75
 21
-30.500000014293065
 31
0.0
  0
LINE
  5
32E
100
AcDbEntity
  8
0
  6
CONTINUOUS
 62
               7
100
AcDbLine
 10
18.5
 20
-30.500000014293065
 30
0.0
 11
18.5
 21
-25.500000014293065
 31
0.0
  0
LINE
  5
32F
100
AcDbEntity
  8
0
  6
CONTINUOUS
 62
               7
100
AcDbLine
 10
0.5
 20
-28.500000014293065
 30
0.0
 11
0.5
 21
-25.500000014293065
 31
0.0
  0
LINE
  5
330
100
AcDbEntity
  8
0
  6
CONTINUOUS
 62
               7
100
AcDbLine
 10
6.0
 20
-30.500000014293065
 30
0.0
 11
6.0
 21
-28.500000014293065
 31
0.0
  0
LINE
  5
331
100
AcDbEntity
  8
0
  6
CONTINUOUS
 62
               7
100
AcDbLine
 10
0.0
 20
-25.500000014293065
 30
0.0
 11
19.0
 21
-25.500000014293065
 31
0.0
  0
LINE
  5
332
100
AcDbEntity
  8
0
  6
CONTINUOUS
 62
               4
100
AcDbLine
 10
0.5
 20
-17.300000014293047
 30
0.0
 11
18.5
 21
-17.300000014293047
 31
0.0
  0
LINE
  5
333
100
AcDbEntity
  8
0
  6
CONTINUOUS
 62
               4
100
AcDbLine
 10
0.5
 20
-14.00000001429305
 30
0.0
 11
3.0
 21
-14.00000001429305
 31
0.0
  0
LINE
  5
334
100
AcDbEntity
  8
0
  6
CONTINUOUS
 62
               4
100
AcDbLine
 10
0.5
 20
-8.0000000142930503
 30
0.0
 11
3.0
 21
-8.0000000142930503
 31
0.0
  0
LINE
  5
335
100
AcDbEntity
  8
0
  6
CONTINUOUS
 62
               4
100
AcDbLine
 10
0.5
 20
-15.300000014293047
 30
0.0
 11
13.0
 21
-15.300000014293047
 31
0.0
  0
LINE
  5
336
100
AcDbEntity
  8
0
  6
CONTINUOUS
 62
               4
100
AcDbLine
 10
18.5
 20
-17.300000014293047
 30
0.0
 11
18.5
 21
-14.260000014293055
 31
0.0
  0
LINE
  5
337
100
AcDbEntity
  8
0
  6
CONTINUOUS
 62
               4
100
AcDbLine
 10
0.5
 20
-17.300000014293047
 30
0.0
 11
0.5
 21
-14.00000001429305
 31
0.0
  0
LINE
  5
338
100
AcDbEntity
  8
0
  6
CONTINUOUS
 62
               4
100
AcDbLine
 10
16.0
 20
-10.00000001429305
 30
0.0
 11
18.5
 21
-10.00000001429305
 31
0.0
  0
LINE
  5
339
100
AcDbEntity
  8
0
  6
CONTINUOUS
 62
               4
100
AcDbLine
 10
13.0
 20
-13.00000001429305
 30
0.0
 11
13.0
 21
-17.300000014293047
 31
0.0
  0
LINE
  5
33A
100
AcDbEntity
  8
0
  6
CONTINUOUS
 62
               4
100
AcDbLine
 10
14.930000000000007
 20
-14.060000014293053
 30
0.0
 11
17.060000000000002
 21
-11.930000014293057
 31
0.0
  0
LINE
  5
33B
100
AcDbEntity
  8
0
  6
CONTINUOUS
 62
               4
100
AcDbLine
 10
14.930000000000007
 20
-11.930000014293057
 30
0.0
 11
17.060000000000002
 21
-14.060000014293053
 31
0.0
  0
LINE
  5
33C
100
AcDbEntity
  8
0
  6
CONTINUOUS
 62
             200
100
AcDbLine
 10
-1.0
 20
-0.5000000142930503
 30
0.0
 11
20.0
 21
-0.5000000142930503
 31
0.0
  0
ARC
  5
33D
100
AcDbEntity
  8
0
  6
CONTINUOUS
 62
               7
100
AcDbCircle
 10
1.75
 20
-29.000000014293065
 30
0.0
 40
1.5
100
AcDbArc
 50
180.0
 51
270.0
  0
ARC
  5
33E
100
AcDbEntity
  8
0
  6
CONTINUOUS
 62
               7
100
AcDbCircle
 10
4.25
 20
-29.000000014293065
 30
0.0
 40
1.5
100
AcDbArc
 50
270.0
 51
0.0
  0
ARC
  5
33F
100
AcDbEntity
  8
0
  6
CONTINUOUS
 62
               4
100
AcDbCircle
 10
3.0
 20
-11.00000001429305
 30
0.0
 40
3.0
100
AcDbArc
 50
270.0
 51
90.0
  0
ARC
  5
340
100
AcDbEntity
  8
0
  6
CONTINUOUS
 62
               4
100
AcDbCircle
 10
16.0
 20
-13.00000001429305
 30
0.0
 40
3.0
100
AcDbArc
 50
90.0
 51
180.0
  0
CIRCLE
  5
341
100
AcDbEntity
  8
0
  6
CONTINUOUS
 62
               4
100
AcDbCircle
 10
16.0
 20
-13.00000001429305
 30
0.0
 40
2.7999992370605469
  0
CIRCLE
  5
342
100
AcDbEntity
  8
0
  6
CONTINUOUS
 62
               4
100
AcDbCircle
 10
9.4950000000000045
 20
-0.5000164730568599
 30
0.0
 40
8.9966316346430766
  0
CIRCLE
  5
343
100
AcDbEntity
  8
0
  6
CONTINUOUS
 62
               4
100
AcDbCircle
 10
9.5
 20
-0.5000152730821128
 30
0.0
 40
6.5
  0
CIRCLE
  5
344
100
AcDbEntity
  8
0
  6
CONTINUOUS
 62
               4
100
AcDbCircle
 10
9.5
 20
-0.5000152730821128
 30
0.0
 40
5.6799993515014648
  0
LINE
  5
345
100
AcDbEntity
  8
0
  6
CONTINUOUS
 62
               7
100
AcDbLine
 10
0.0
 20
60.999999985706943
 30
0.0
 11
19.0
 21
60.999999985706943
 31
0.0
  0
LINE
  5
346
100
AcDbEntity
  8
0
  6
CONTINUOUS
 62
               7
100
AcDbLine
 10
0.0
 20
62.499999985706943
 30
0.0
 11
19.0
 21
62.499999985706943
 31
0.0
  0
LINE
  5
347
100
AcDbEntity
  8
0
  6
CONTINUOUS
 62
               7
100
AcDbLine
 10
0.0
 20
61.499999985706943
 30
0.0
 11
19.0
 21
61.499999985706943
 31
0.0
  0
LINE
  5
348
100
AcDbEntity
  8
0
  6
CONTINUOUS
 62
               7
100
AcDbLine
 10
0.0
 20
35.49999998570695
 30
0.0
 11
19.0
 21
35.49999998570695
 31
0.0
  0
LINE
  5
349
100
AcDbEntity
  8
0
  6
CONTINUOUS
 62
               4
100
AcDbLine
 10
0.5
 20
35.299999985706947
 30
0.0
 11
18.5
 21
35.299999985706947
 31
0.0
  0
LINE
  5
34A
100
AcDbEntity
  8
0
  6
CONTINUOUS
 62
               4
100
AcDbLine
 10
16.0
 20
31.99999998570695
 30
0.0
 11
18.5
 21
31.99999998570695
 31
0.0
  0
LINE
  5
34B
100
AcDbEntity
  8
0
  6
CONTINUOUS
 62
               4
100
AcDbLine
 10
16.0
 20
25.99999998570695
 30
0.0
 11
18.5
 21
25.99999998570695
 31
0.0
  0
LINE
  5
34C
100
AcDbEntity
  8
0
  6
CONTINUOUS
 62
               4
100
AcDbLine
 10
6.0
 20
30.99999998570695
 30
0.0
 11
6.0
 21
35.299999985706947
 31
0.0
  0
LINE
  5
34D
100
AcDbEntity
  8
0
  6
CONTINUOUS
 62
               4
100
AcDbLine
 10
3.0
 20
27.99999998570695
 30
0.0
 11
0.5
 21
27.99999998570695
 31
0.0
  0
LINE
  5
34E
100
AcDbEntity
  8
0
  6
CONTINUOUS
 62
               4
100
AcDbLine
 10
6.0
 20
33.299999985706947
 30
0.0
 11
18.5
 21
33.299999985706947
 31
0.0
  0
LINE
  5
34F
100
AcDbEntity
  8
0
  6
CONTINUOUS
 62
               4
100
AcDbLine
 10
18.5
 20
31.99999998570695
 30
0.0
 11
18.5
 21
35.299999985706947
 31
0.0
  0
LINE
  5
350
100
AcDbEntity
  8
0
  6
CONTINUOUS
 62
               4
100
AcDbLine
 10
0.5
 20
32.259999985706941
 30
0.0
 11
0.5
 21
35.299999985706947
 31
0.0
  0
LINE
  5
351
100
AcDbEntity
  8
0
  6
CONTINUOUS
 62
               4
100
AcDbLine
 10
1.9300000000000068
 20
32.059999985706952
 30
0.0
 11
4.0600000000000023
 21
29.929999985706957
 31
0.0
  0
LINE
  5
352
100
AcDbEntity
  8
0
  6
CONTINUOUS
 62
               4
100
AcDbLine
 10
1.9300000000000068
 20
29.929999985706957
 30
0.0
 11
4.0600000000000023
 21
32.059999985706952
 31
0.0
  0
LINE
  5
353
100
AcDbEntity
  8
0
  6
CONTINUOUS
 62
             200
100
AcDbLine
 10
-1.0
 20
18.49999998570695
 30
0.0
 11
20.0
 21
18.49999998570695
 31
0.0
  0
ARC
  5
354
100
AcDbEntity
  8
0
  6
CONTINUOUS
 62
               4
100
AcDbCircle
 10
16.0
 20
28.99999998570695
 30
0.0
 40
3.0
100
AcDbArc
 50
90.0
 51
270.0
  0
ARC
  5
355
100
AcDbEntity
  8
0
  6
CONTINUOUS
 62
               4
100
AcDbCircle
 10
3.0
 20
30.99999998570695
 30
0.0
 40
3.0
100
AcDbArc
 50
270.0
 51
0.0
  0
CIRCLE
  5
356
100
AcDbEntity
  8
0
  6
CONTINUOUS
 62
               4
100
AcDbCircle
 10
3.0
 20
30.99999998570695
 30
0.0
 40
2.7999992370605469
  0
CIRCLE
  5
357
100
AcDbEntity
  8
0
  6
CONTINUOUS
 62
               4
100
AcDbCircle
 10
9.4950000000000045
 20
18.499985926135395
 30
0.0
 40
9.0052432634140587
  0
CIRCLE
  5
358
100
AcDbEntity
  8
0
  6
CONTINUOUS
 62
               4
100
AcDbCircle
 10
9.5
 20
18.499984726917887
 30
0.0
 40
5.6799993515014648
  0
CIRCLE
  5
359
100
AcDbEntity
  8
0
  6
CONTINUOUS
 62
               4
100
AcDbCircle
 10
9.5
 20
18.499984726917887
 30
0.0
 40
6.5
  0
LINE
  5
35A
100
AcDbEntity
  8
0
  6
CONTINUOUS
 62
               4
100
AcDbLine
 10
18.5
 20
-11.730000014293054
 30
0.0
 11
18.5
 21
25.99999998570695
 31
0.0
  0
LINE
  5
35B
100
AcDbEntity
  8
0
  6
CONTINUOUS
 62
               4
100
AcDbLine
 10
0.5
 20
-8.0000000142930503
 30
0.0
 11
0.5
 21
29.729999985706954
 31
0.0
  0
LINE
  5
35C
100
AcDbEntity
  8
0
  6
CONTINUOUS
 62
               2
100
AcDbLine
 10
9.5
 20
-32.000000014293065
 30
0.0
 11
9.5
 21
64.829999985706934
 31
0.0
  0
LINE
  5
35D
100
AcDbEntity
  8
0
  6
CONTINUOUS
 62
               7
100
AcDbLine
 10
19.0
 20
-25.500000014293065
 30
0.0
 11
19.0
 21
62.499999985706943
 31
0.0
  0
LINE
  5
35E
100
AcDbEntity
  8
0
  6
CONTINUOUS
 62
               7
100
AcDbLine
 10
0.0
 20
-25.500000014293065
 30
0.0
 11
0.0
 21
62.499999985706943
 31
0.0
  0
ENDBLK
  5
35F
100
AcDbEntity
  8
0
100
AcDbBlockEnd
  0
BLOCK
  5
360
100
AcDbEntity
  8
0
100
AcDbBlockBegin
  2
F10MN-9
 70
               0
 10
0.0
 20
0.0
 30
0.0
  3
F10MN-9
  1

  0
LINE
  5
361
100
AcDbEntity
  8
0
  6
CONTINUOUS
 62
               7
100
AcDbLine
 10
53.79998779296875
 20
-30.499999999999986
 30
0.0
 11
35.0
 21
-30.499999999999986
 31
0.0
  0
LINE
  5
362
100
AcDbEntity
  8
0
  6
CONTINUOUS
 62
               7
100
AcDbLine
 10
46.70001220703125
 20
-25.499999999999986
 30
0.0
 11
35.0
 21
-25.499999999999986
 31
0.0
  0
LINE
  5
363
100
AcDbEntity
  8
0
  6
CONTINUOUS
 62
               7
100
AcDbLine
 10
36.000277260080111
 20
60.999762237003793
 30
0.0
 11
35.000272995420346
 21
59.999742715003791
 31
0.0
  0
LINE
  5
364
100
AcDbEntity
  8
0
  6
CONTINUOUS
 62
             200
100
AcDbLine
 10
61.595385782686151
 20
18.499984741210952
 30
0.0
 11
69.036827224127592
 21
18.499984741210952
 31
0.0
  0
LINE
  5
365
100
AcDbEntity
  8
0
  6
CONTINUOUS
 62
             200
100
AcDbLine
 10
61.595385782686151
 20
-0.5000152587890483
 30
0.0
 11
69.036827224127592
 21
-0.5000152587890483
 31
0.0
  0
LINE
  5
366
100
AcDbEntity
  8
0
  6
CONTINUOUS
 62
               7
100
AcDbLine
 10
56.0
 20
61.000000000000014
 30
0.0
 11
36.0
 21
61.000000000000014
 31
0.0
  0
LINE
  5
367
100
AcDbEntity
  8
0
  6
CONTINUOUS
 62
               7
100
AcDbLine
 10
54.5
 20
-18.999999999999986
 30
0.0
 11
48.5
 21
-18.999999999999986
 31
0.0
  0
LINE
  5
368
100
AcDbEntity
  8
0
  6
CONTINUOUS
 62
               7
100
AcDbLine
 10
50.5
 20
-28.499999999999986
 30
0.0
 11
48.5
 21
-28.499999999999986
 31
0.0
  0
LINE
  5
369
100
AcDbEntity
  8
0
  6
CONTINUOUS
 62
               7
100
AcDbLine
 10
56.0
 20
35.500000000000014
 30
0.0
 11
56.0
 21
61.000000000000014
 31
0.0
  0
LINE
  5
36A
100
AcDbEntity
  8
0
  6
CONTINUOUS
 62
               7
100
AcDbLine
 10
52.29998779296875
 20
-29.999999999999986
 30
0.0
 11
52.29998779296875
 21
-25.499999999999986
 31
0.0
  0
LINE
  5
36B
100
AcDbEntity
  8
0
  6
CONTINUOUS
 62
               7
100
AcDbLine
 10
46.70001220703125
 20
-29.999999999999986
 30
0.0
 11
46.70001220703125
 21
-25.499999999999986
 31
0.0
  0
LINE
  5
36C
100
AcDbEntity
  8
0
  6
CONTINUOUS
 62
               7
100
AcDbLine
 10
56.0
 20
-25.499999999999986
 30
0.0
 11
52.29998779296875
 21
-25.499999999999986
 31
0.0
  0
LINE
  5
36D
100
AcDbEntity
  8
0
  6
CONTINUOUS
 62
               7
100
AcDbLine
 10
56.0
 20
-25.499999999999986
 30
0.0
 11
56.0
 21
-17.499999999999986
 31
0.0
  0
LINE
  5
36E
100
AcDbEntity
  8
0
  6
CONTINUOUS
 62
               7
100
AcDbLine
 10
35.5
 20
-23.999999999999986
 30
0.0
 11
35.5
 21
27.002502441406264
 31
0.0
  0
LINE
  5
36F
100
AcDbEntity
  8
0
  6
CONTINUOUS
 62
               7
100
AcDbLine
 10
42.0
 20
59.500000000000014
 30
0.0
 11
39.5
 21
59.500000000000014
 31
0.0
  0
LINE
  5
370
100
AcDbEntity
  8
0
  6
CONTINUOUS
 62
               7
100
AcDbLine
 10
54.5
 20
-23.999999999999986
 30
0.0
 11
50.5
 21
-23.999999999999986
 31
0.0
  0
LINE
  5
371
100
AcDbEntity
  8
0
  6
CONTINUOUS
 62
               7
100
AcDbLine
 10
54.5
 20
-18.999999999999986
 30
0.0
 11
54.5
 21
-23.999999999999986
 31
0.0
  0
LINE
  5
372
100
AcDbEntity
  8
0
  6
CONTINUOUS
 62
               7
100
AcDbLine
 10
42.0
 20
59.500000000000014
 30
0.0
 11
42.0
 21
30.997497558593764
 31
0.0
  0
LINE
  5
373
100
AcDbEntity
  8
0
  6
CONTINUOUS
 62
               7
100
AcDbLine
 10
38.0
 20
59.500000000000014
 30
0.0
 11
38.0
 21
30.997497558593764
 31
0.0
  0
LINE
  5
374
100
AcDbEntity
  8
0
  6
CONTINUOUS
 62
               7
100
AcDbLine
 10
46.0
 20
-18.999999999999986
 30
0.0
 11
46.0
 21
-23.999999999999986
 31
0.0
  0
LINE
  5
375
100
AcDbEntity
  8
0
  6
CONTINUOUS
 62
               7
100
AcDbLine
 10
43.5
 20
-18.999999999999986
 30
0.0
 11
43.5
 21
-23.999999999999986
 31
0.0
  0
LINE
  5
376
100
AcDbEntity
  8
0
  6
CONTINUOUS
 62
               7
100
AcDbLine
 10
39.5
 20
59.500000000000014
 30
0.0
 11
39.5
 21
30.997497558593764
 31
0.0
  0
LINE
  5
377
100
AcDbEntity
  8
0
  6
CONTINUOUS
 62
               7
100
AcDbLine
 10
38.0
 20
-23.999999999999986
 30
0.0
 11
35.5
 21
-23.999999999999986
 31
0.0
  0
LINE
  5
378
100
AcDbEntity
  8
0
  6
CONTINUOUS
 62
               7
100
AcDbLine
 10
42.0
 20
-23.999999999999986
 30
0.0
 11
39.5
 21
-23.999999999999986
 31
0.0
  0
LINE
  5
379
100
AcDbEntity
  8
0
  6
CONTINUOUS
 62
               7
100
AcDbLine
 10
38.0
 20
59.500000000000014
 30
0.0
 11
36.5
 21
59.500000000000014
 31
0.0
  0
LINE
  5
37A
100
AcDbEntity
  8
0
  6
CONTINUOUS
 62
               7
100
AcDbLine
 10
36.5
 20
57.500000000000014
 30
0.0
 11
36.5
 21
59.500000000000014
 31
0.0
  0
LINE
  5
37B
100
AcDbEntity
  8
0
  6
CONTINUOUS
 62
               7
100
AcDbLine
 10
36.5
 20
57.500000000000014
 30
0.0
 11
35.5
 21
57.500000000000014
 31
0.0
  0
LINE
  5
37C
100
AcDbEntity
  8
0
  6
CONTINUOUS
 62
               7
100
AcDbLine
 10
42.0
 20
27.002502441406264
 30
0.0
 11
42.0
 21
-23.999999999999986
 31
0.0
  0
LINE
  5
37D
100
AcDbEntity
  8
0
  6
CONTINUOUS
 62
               7
100
AcDbLine
 10
39.5
 20
27.002502441406264
 30
0.0
 11
39.5
 21
-23.999999999999986
 31
0.0
  0
LINE
  5
37E
100
AcDbEntity
  8
0
  6
CONTINUOUS
 62
               7
100
AcDbLine
 10
38.0
 20
27.002502441406264
 30
0.0
 11
38.0
 21
-23.999999999999986
 31
0.0
  0
LINE
  5
37F
100
AcDbEntity
  8
0
  6
CONTINUOUS
 62
               7
100
AcDbLine
 10
35.5
 20
30.997497558593764
 30
0.0
 11
35.5
 21
57.500000000000014
 31
0.0
  0
LINE
  5
380
100
AcDbEntity
  8
0
  6
CONTINUOUS
 62
               7
100
AcDbLine
 10
42.0
 20
53.501998901367202
 30
0.0
 11
39.5
 21
53.501998901367202
 31
0.0
  0
LINE
  5
381
100
AcDbEntity
  8
0
  6
CONTINUOUS
 62
               7
100
AcDbLine
 10
42.0
 20
44.300003051757827
 30
0.0
 11
39.5
 21
44.300003051757827
 31
0.0
  0
LINE
  5
382
100
AcDbEntity
  8
0
  6
CONTINUOUS
 62
               7
100
AcDbLine
 10
42.0
 20
36.699996948242202
 30
0.0
 11
39.5
 21
36.699996948242202
 31
0.0
  0
LINE
  5
383
100
AcDbEntity
  8
0
  6
CONTINUOUS
 62
               7
100
AcDbLine
 10
42.0
 20
32.199996948242202
 30
0.0
 11
39.5
 21
32.199996948242202
 31
0.0
  0
LINE
  5
384
100
AcDbEntity
  8
0
  6
CONTINUOUS
 62
               7
100
AcDbLine
 10
42.0
 20
30.997497558593764
 30
0.0
 11
39.5
 21
30.997497558593764
 31
0.0
  0
LINE
  5
385
100
AcDbEntity
  8
0
  6
CONTINUOUS
 62
               7
100
AcDbLine
 10
42.0
 20
27.002502441406264
 30
0.0
 11
39.5
 21
27.002502441406264
 31
0.0
  0
LINE
  5
386
100
AcDbEntity
  8
0
  6
CONTINUOUS
 62
               7
100
AcDbLine
 10
42.0
 20
25.960266113281264
 30
0.0
 11
39.5
 21
25.960266113281264
 31
0.0
  0
LINE
  5
387
100
AcDbEntity
  8
0
  6
CONTINUOUS
 62
               7
100
AcDbLine
 10
38.0
 20
25.960266113281264
 30
0.0
 11
35.5
 21
25.960266113281264
 31
0.0
  0
LINE
  5
388
100
AcDbEntity
  8
0
  6
CONTINUOUS
 62
               7
100
AcDbLine
 10
38.0
 20
27.002502441406264
 30
0.0
 11
35.5
 21
27.002502441406264
 31
0.0
  0
LINE
  5
389
100
AcDbEntity
  8
0
  6
CONTINUOUS
 62
               7
100
AcDbLine
 10
38.0
 20
30.997497558593764
 30
0.0
 11
35.5
 21
30.997497558593764
 31
0.0
  0
LINE
  5
38A
100
AcDbEntity
  8
0
  6
CONTINUOUS
 62
               7
100
AcDbLine
 10
38.0
 20
32.199996948242202
 30
0.0
 11
35.5
 21
32.199996948242202
 31
0.0
  0
LINE
  5
38B
100
AcDbEntity
  8
0
  6
CONTINUOUS
 62
               7
100
AcDbLine
 10
38.0
 20
36.699996948242202
 30
0.0
 11
35.5
 21
36.699996948242202
 31
0.0
  0
LINE
  5
38C
100
AcDbEntity
  8
0
  6
CONTINUOUS
 62
               7
100
AcDbLine
 10
38.0
 20
44.300003051757827
 30
0.0
 11
35.5
 21
44.300003051757827
 31
0.0
  0
LINE
  5
38D
100
AcDbEntity
  8
0
  6
CONTINUOUS
 62
               7
100
AcDbLine
 10
38.0
 20
53.501998901367202
 30
0.0
 11
35.5
 21
53.501998901367202
 31
0.0
  0
LINE
  5
38E
100
AcDbEntity
  8
0
  6
CONTINUOUS
 62
               7
100
AcDbLine
 10
42.0
 20
-7.4999999999999858
 30
0.0
 11
39.5
 21
-7.4999999999999858
 31
0.0
  0
LINE
  5
38F
100
AcDbEntity
  8
0
  6
CONTINUOUS
 62
               7
100
AcDbLine
 10
38.0
 20
-7.4999999999999858
 30
0.0
 11
35.5
 21
-7.4999999999999858
 31
0.0
  0
LINE
  5
390
100
AcDbEntity
  8
0
  6
CONTINUOUS
 62
               7
100
AcDbLine
 10
56.0
 20
35.500000000000014
 30
0.0
 11
53.0
 21
35.500000000000014
 31
0.0
  0
LINE
  5
391
100
AcDbEntity
  8
0
  6
CONTINUOUS
 62
               7
100
AcDbLine
 10
52.29998779296875
 20
-29.999999999999986
 30
0.0
 11
46.70001220703125
 21
-29.999999999999986
 31
0.0
  0
LINE
  5
392
100
AcDbEntity
  8
0
  6
CONTINUOUS
 62
               7
100
AcDbLine
 10
48.5
 20
-18.999999999999986
 30
0.0
 11
48.5
 21
-28.499999999999986
 31
0.0
  0
LINE
  5
393
100
AcDbEntity
  8
0
  6
CONTINUOUS
 62
               7
100
AcDbLine
 10
50.5
 20
-18.999999999999986
 30
0.0
 11
50.5
 21
-28.499999999999986
 31
0.0
  0
LINE
  5
394
100
AcDbEntity
  8
0
  6
CONTINUOUS
 62
               7
100
AcDbLine
 10
46.0
 20
-23.999999999999986
 30
0.0
 11
43.5
 21
-23.999999999999986
 31
0.0
  0
LINE
  5
395
100
AcDbEntity
  8
0
  6
CONTINUOUS
 62
               7
100
AcDbLine
 10
46.0
 20
-18.999999999999986
 30
0.0
 11
43.5
 21
-18.999999999999986
 31
0.0
  0
LINE
  5
396
100
AcDbEntity
  8
0
  6
CONTINUOUS
 62
               7
100
AcDbLine
 10
56.0
 20
-17.499999999999986
 30
0.0
 11
45.0
 21
-17.499999999999986
 31
0.0
  0
LINE
  5
397
100
AcDbEntity
  8
0
  6
CONTINUOUS
 62
               7
100
AcDbLine
 10
53.0
 20
-17.499999999999986
 30
0.0
 11
53.0
 21
35.500000000000014
 31
0.0
  0
LINE
  5
398
100
AcDbEntity
  8
0
  6
CONTINUOUS
 62
               7
100
AcDbLine
 10
45.0
 20
-17.499999999999986
 30
0.0
 11
45.0
 21
61.000000000000014
 31
0.0
  0
LINE
  5
399
100
AcDbEntity
  8
0
  6
CONTINUOUS
 62
               4
100
AcDbLine
 10
58.000104038947484
 20
-17.300033569335923
 30
0.0
 11
53.000030517578125
 21
-17.300033569335923
 31
0.0
  0
LINE
  5
39A
100
AcDbEntity
  8
0
  6
CONTINUOUS
 62
               4
100
AcDbLine
 10
53.0
 20
35.299972534179702
 30
0.0
 11
57.999933386553494
 21
35.299972534179702
 31
0.0
  0
LINE
  5
39B
100
AcDbEntity
  8
0
  6
CONTINUOUS
 62
               4
100
AcDbLine
 10
60.0
 20
27.999969482421889
 30
0.0
 11
56.0
 21
27.999969482421889
 31
0.0
  0
LINE
  5
39C
100
AcDbEntity
  8
0
  6
CONTINUOUS
 62
               4
100
AcDbLine
 10
60.0
 20
-8.0000305175781108
 30
0.0
 11
53.0
 21
-8.0000305175781108
 31
0.0
  0
LINE
  5
39D
100
AcDbEntity
  8
0
  6
CONTINUOUS
 62
               4
100
AcDbLine
 10
60.0
 20
-14.000030517578111
 30
0.0
 11
53.0
 21
-14.000030517578111
 31
0.0
  0
LINE
  5
39E
100
AcDbEntity
  8
0
  6
CONTINUOUS
 62
               4
100
AcDbLine
 10
56.0
 20
27.999969482421889
 30
0.0
 11
56.0
 21
35.299972534179702
 31
0.0
  0
LINE
  5
39F
100
AcDbEntity
  8
0
  6
CONTINUOUS
 62
               4
100
AcDbLine
 10
56.5
 20
28.249954223632827
 30
0.0
 11
56.0
 21
28.249954223632827
 31
0.0
  0
LINE
  5
3A0
100
AcDbEntity
  8
0
  6
CONTINUOUS
 62
               4
100
AcDbLine
 10
56.499969482421875
 20
33.749954223632827
 30
0.0
 11
55.999969482421875
 21
33.749954223632827
 31
0.0
  0
LINE
  5
3A1
100
AcDbEntity
  8
0
  6
CONTINUOUS
 62
               4
100
AcDbLine
 10
53.5
 20
-13.750030517578111
 30
0.0
 11
53.0
 21
-13.750030517578111
 31
0.0
  0
LINE
  5
3A2
100
AcDbEntity
  8
0
  6
CONTINUOUS
 62
               4
100
AcDbLine
 10
53.5
 20
-8.2500305175781108
 30
0.0
 11
53.0
 21
-8.2500305175781108
 31
0.0
  0
LINE
  5
3A3
100
AcDbEntity
  8
0
  6
CONTINUOUS
 62
               7
100
AcDbLine
 10
55.79998779296875
 20
-28.499999999999986
 30
0.0
 11
55.79998779296875
 21
-25.499999999999986
 31
0.0
  0
LINE
  5
3A4
100
AcDbEntity
  8
0
  6
CONTINUOUS
 62
               7
100
AcDbLine
 10
53.800058948447258
 20
-30.500029967703071
 30
0.0
 11
55.800057868462318
 21
-28.500024641360127
 31
0.0
  0
LINE
  5
3A5
100
AcDbEntity
  8
0
  6
CONTINUOUS
 62
               7
100
AcDbLine
 10
46.5
 20
-30.499999999999986
 30
0.0
 11
46.5
 21
-25.499999999999986
 31
0.0
  0
LINE
  5
3A6
100
AcDbEntity
  8
0
  6
CONTINUOUS
 62
               7
100
AcDbLine
 10
52.5
 20
-30.499999999999986
 30
0.0
 11
52.5
 21
-25.499999999999986
 31
0.0
  0
LINE
  5
3A7
100
AcDbEntity
  8
0
  6
CONTINUOUS
 62
               4
100
AcDbLine
 10
60.0
 20
27.499984741210952
 30
0.0
 11
64.5
 21
27.499984741210952
 31
0.0
  0
LINE
  5
3A8
100
AcDbEntity
  8
0
  6
CONTINUOUS
 62
               4
100
AcDbLine
 10
65.0
 20
-9.0000152587890483
 30
0.0
 11
65.0
 21
7.9999847412109517
 31
0.0
  0
LINE
  5
3A9
100
AcDbEntity
  8
0
  6
CONTINUOUS
 62
               4
100
AcDbLine
 10
60.0
 20
-9.5000152587890483
 30
0.0
 11
64.5
 21
-9.5000152587890483
 31
0.0
  0
ARC
  5
3AA
100
AcDbEntity
  8
0
  6
CONTINUOUS
 62
               4
100
AcDbCircle
 10
56.5
 20
32.249954223632827
 30
0.0
 40
1.5
100
AcDbArc
 50
0.0000359721786855
 51
90.000017986089347
  0
ARC
  5
3AB
100
AcDbEntity
  8
0
  6
CONTINUOUS
 62
               4
100
AcDbCircle
 10
56.5
 20
29.749954223632827
 30
0.0
 40
1.5
100
AcDbArc
 50
270.00003665542403
 51
359.99996402782131
  0
ARC
  5
3AC
100
AcDbEntity
  8
0
  6
CONTINUOUS
 62
               4
100
AcDbCircle
 10
64.5
 20
26.999984741210952
 30
0.0
 40
0.5
100
AcDbArc
 50
359.99998133066532
 51
89.999963344575988
  0
ARC
  5
3AD
100
AcDbEntity
  8
0
  6
CONTINUOUS
 62
               4
100
AcDbCircle
 10
64.5
 20
-9.0000152587890483
 30
0.0
 40
0.5
100
AcDbArc
 50
269.99998201391065
 51
359.99996402782131
  0
LINE
  5
3AE
100
AcDbEntity
  8
0
  6
CONTINUOUS
 62
               7
100
AcDbLine
 10
56.999986267089866
 20
58.949984741210997
 30
0.0
 11
56.0
 21
58.949984741210997
 31
0.0
  0
LINE
  5
3AF
100
AcDbEntity
  8
0
  6
CONTINUOUS
 62
               7
100
AcDbLine
 10
56.999986267089866
 20
59.899984741210929
 30
0.0
 11
56.999986267089866
 21
58.949984741210997
 31
0.0
  0
LINE
  5
3B0
100
AcDbEntity
  8
0
  6
CONTINUOUS
 62
               7
100
AcDbLine
 10
56.999986267089866
 20
59.899984741210929
 30
0.0
 11
56.0
 21
59.899984741210929
 31
0.0
  0
LINE
  5
3B1
100
AcDbEntity
  8
0
  6
CONTINUOUS
 62
               4
100
AcDbLine
 10
64.5
 20
9.4999847412109517
 30
0.0
 11
58.0
 21
9.4999847412109517
 31
0.0
  0
LINE
  5
3B2
100
AcDbEntity
  8
0
  6
CONTINUOUS
 62
               4
100
AcDbLine
 10
64.5
 20
8.4999847412109517
 30
0.0
 11
58.0
 21
8.4999847412109517
 31
0.0
  0
LINE
  5
3B3
100
AcDbEntity
  8
0
  6
CONTINUOUS
 62
               4
100
AcDbLine
 10
60.0
 20
18.499984741210952
 30
0.0
 11
58.0
 21
18.499984741210952
 31
0.0
  0
LINE
  5
3B4
100
AcDbEntity
  8
0
  6
CONTINUOUS
 62
               4
100
AcDbLine
 10
60.0
 20
-0.5000152587890483
 30
0.0
 11
58.0
 21
-0.5000152587890483
 31
0.0
  0
LINE
  5
3B5
100
AcDbEntity
  8
0
  6
CONTINUOUS
 62
               4
100
AcDbLine
 10
58.0
 20
18.499984741210952
 30
0.0
 11
58.0
 21
-0.5000152587890483
 31
0.0
  0
LINE
  5
3B6
100
AcDbEntity
  8
0
  6
CONTINUOUS
 62
               4
100
AcDbLine
 10
58.0
 20
29.749954223632827
 30
0.0
 11
58.0
 21
32.249954223632827
 31
0.0
  0
LINE
  5
3B7
100
AcDbEntity
  8
0
  6
CONTINUOUS
 62
               4
100
AcDbLine
 10
60.000062142741626
 20
-15.300080860218245
 30
0.0
 11
58.000035742946238
 21
-17.300101865152996
 31
0.0
  0
LINE
  5
3B8
100
AcDbEntity
  8
0
  6
CONTINUOUS
 62
               4
100
AcDbLine
 10
60.0
 20
-15.300018310546861
 30
0.0
 11
60.0
 21
-0.5000152587890483
 31
0.0
  0
LINE
  5
3B9
100
AcDbEntity
  8
0
  6
CONTINUOUS
 62
               4
100
AcDbLine
 10
59.999919999712802
 20
33.29994870521206
 30
0.0
 11
57.999933386553494
 21
35.299944927811353
 31
0.0
  0
LINE
  5
3BA
100
AcDbEntity
  8
0
  6
CONTINUOUS
 62
               4
100
AcDbLine
 10
60.0
 20
18.499984741210952
 30
0.0
 11
60.0
 21
33.299972534179702
 31
0.0
  0
LINE
  5
3BB
100
AcDbEntity
  8
0
  6
CONTINUOUS
 62
               4
100
AcDbLine
 10
65.0
 20
9.9999847412109517
 30
0.0
 11
65.0
 21
26.999984741210952
 31
0.0
  0
ARC
  5
3BC
100
AcDbEntity
  8
0
  6
CONTINUOUS
 62
               4
100
AcDbCircle
 10
64.5
 20
9.9999847412109517
 30
0.0
 40
0.5
100
AcDbArc
 50
270.0
 51
0.0
  0
ARC
  5
3BD
100
AcDbEntity
  8
0
  6
CONTINUOUS
 62
               4
100
AcDbCircle
 10
64.5
 20
7.9999847412109517
 30
0.0
 40
0.5
100
AcDbArc
 50
0.0
 51
90.0
  0
ENDBLK
  5
3BE
100
AcDbEntity
  8
0
100
AcDbBlockEnd
  0
BLOCK
  5
3BF
100
AcDbEntity
  8
0
100
AcDbBlockBegin
  2
F10MN-10
 70
               0
 10
0.0
 20
0.0
 30
0.0
  3
F10MN-10
  1

  0
LINE
  5
3C0
100
AcDbEntity
  8
0
  6
CENTER
 62
               2
100
AcDbLine
 10
9.5
 20
56.0
 30
0.0
 11
9.5
 21
67.389999999999986
 31
0.0
  0
LINE
  5
3C1
100
AcDbEntity
  8
0
  6
CONTINUOUS
 62
             200
100
AcDbLine
 10
9.5
 20
54.757143165755309
 30
0.0
 11
9.5
 21
67.392333984375
 31
0.0
  0
LINE
  5
3C2
100
AcDbEntity
  8
0
  6
CONTINUOUS
 62
             200
100
AcDbLine
 10
9.5
 20
51.200812424303194
 30
0.0
 11
9.5
 21
54.757143165755309
 31
0.0
  0
LINE
  5
3C3
100
AcDbEntity
  8
0
  6
CONTINUOUS
 62
               7
100
AcDbLine
 10
0.0
 20
56.0
 30
0.0
 11
0.0
 21
1.0
 31
0.0
  0
LINE
  5
3C4
100
AcDbEntity
  8
0
  6
CONTINUOUS
 62
               7
100
AcDbLine
 10
0.0
 20
56.0
 30
0.0
 11
19.0
 21
56.0
 31
0.0
  0
LINE
  5
3C5
100
AcDbEntity
  8
0
  6
CONTINUOUS
 62
               7
100
AcDbLine
 10
19.0
 20
56.0
 30
0.0
 11
19.0
 21
1.0
 31
0.0
  0
LINE
  5
3C6
100
AcDbEntity
  8
0
  6
CONTINUOUS
 62
               7
100
AcDbLine
 10
18.5
 20
46.699996948242188
 30
0.0
 11
18.5
 21
52.300003051757813
 31
0.0
  0
LINE
  5
3C7
100
AcDbEntity
  8
0
  6
CONTINUOUS
 62
               7
100
AcDbLine
 10
0.5
 20
6.6999969482421875
 30
0.0
 11
0.5
 21
12.300003051757812
 31
0.0
  0
LINE
  5
3C8
100
AcDbEntity
  8
0
  6
CONTINUOUS
 62
               7
100
AcDbLine
 10
0.5
 20
6.6999969482421875
 30
0.0
 11
3.0
 21
6.6999969482421875
 31
0.0
  0
LINE
  5
3C9
100
AcDbEntity
  8
0
  6
CONTINUOUS
 62
               7
100
AcDbLine
 10
0.5
 20
12.300003051757812
 30
0.0
 11
3.0
 21
12.300003051757812
 31
0.0
  0
LINE
  5
3CA
100
AcDbEntity
  8
0
  6
CONTINUOUS
 62
               7
100
AcDbLine
 10
16.0
 20
52.300003051757813
 30
0.0
 11
18.5
 21
52.300003051757813
 31
0.0
  0
LINE
  5
3CB
100
AcDbEntity
  8
0
  6
CONTINUOUS
 62
               7
100
AcDbLine
 10
16.0
 20
46.699996948242188
 30
0.0
 11
18.5
 21
46.699996948242188
 31
0.0
  0
LINE
  5
3CC
100
AcDbEntity
  8
0
  6
CONTINUOUS
 62
               7
100
AcDbLine
 10
18.5
 20
3.199981689453125
 30
0.0
 11
18.5
 21
6.3543548583984375
 31
0.0
  0
LINE
  5
3CD
100
AcDbEntity
  8
0
  6
CONTINUOUS
 62
               7
100
AcDbLine
 10
0.5
 20
3.199981689453125
 30
0.0
 11
0.5
 21
6.4999847412109375
 31
0.0
  0
LINE
  5
3CE
100
AcDbEntity
  8
0
  6
CONTINUOUS
 62
               7
100
AcDbLine
 10
0.5
 20
55.79998779296875
 30
0.0
 11
18.5
 21
55.79998779296875
 31
0.0
  0
LINE
  5
3CF
100
AcDbEntity
  8
0
  6
CONTINUOUS
 62
               7
100
AcDbLine
 10
0.5
 20
3.199981689453125
 30
0.0
 11
18.5
 21
3.199981689453125
 31
0.0
  0
LINE
  5
3D0
100
AcDbEntity
  8
0
  6
CONTINUOUS
 62
               7
100
AcDbLine
 10
16.0
 20
52.499984741210937
 30
0.0
 11
18.5
 21
52.499984741210937
 31
0.0
  0
LINE
  5
3D1
100
AcDbEntity
  8
0
  6
CONTINUOUS
 62
               7
100
AcDbLine
 10
16.0
 20
46.499984741210937
 30
0.0
 11
18.5
 21
46.499984741210937
 31
0.0
  0
LINE
  5
3D2
100
AcDbEntity
  8
0
  6
CONTINUOUS
 62
               7
100
AcDbLine
 10
0.5
 20
6.4999847412109375
 30
0.0
 11
3.0
 21
6.4999847412109375
 31
0.0
  0
LINE
  5
3D3
100
AcDbEntity
  8
0
  6
CONTINUOUS
 62
               7
100
AcDbLine
 10
0.5
 20
12.499984741210938
 30
0.0
 11
3.0
 21
12.499984741210938
 31
0.0
  0
LINE
  5
3D4
100
AcDbEntity
  8
0
  6
CONTINUOUS
 62
               7
100
AcDbLine
 10
13.0
 20
7.5
 30
0.0
 11
13.0
 21
3.199981689453125
 31
0.0
  0
LINE
  5
3D5
100
AcDbEntity
  8
0
  6
CONTINUOUS
 62
               7
100
AcDbLine
 10
6.0
 20
51.5
 30
0.0
 11
6.0
 21
55.79998779296875
 31
0.0
  0
LINE
  5
3D6
100
AcDbEntity
  8
0
  6
CONTINUOUS
 62
               7
100
AcDbLine
 10
3.0
 20
48.499984741210937
 30
0.0
 11
0.5
 21
48.499984741210937
 31
0.0
  0
LINE
  5
3D7
100
AcDbEntity
  8
0
  6
CONTINUOUS
 62
               7
100
AcDbLine
 10
16.0
 20
10.499984741210937
 30
0.0
 11
18.5
 21
10.499984741210937
 31
0.0
  0
LINE
  5
3D8
100
AcDbEntity
  8
0
  6
CONTINUOUS
 62
               7
100
AcDbLine
 10
0.5
 20
5.199981689453125
 30
0.0
 11
13.0
 21
5.199981689453125
 31
0.0
  0
LINE
  5
3D9
100
AcDbEntity
  8
0
  6
CONTINUOUS
 62
               7
100
AcDbLine
 10
6.0
 20
53.799972534179688
 30
0.0
 11
18.5
 21
53.799972534179688
 31
0.0
  0
LINE
  5
3DA
100
AcDbEntity
  8
0
  6
CONTINUOUS
 62
               7
100
AcDbLine
 10
4.0607177482065708
 20
50.439382502517276
 30
0.0
 11
1.9394049511370213
 21
52.560710677585178
 31
0.0
  0
LINE
  5
3DB
100
AcDbEntity
  8
0
  6
CONTINUOUS
 62
               7
100
AcDbLine
 10
1.9393314019382615
 20
50.439362201070082
 30
0.0
 11
4.0606518319095812
 21
52.560678339511014
 31
0.0
  0
LINE
  5
3DC
100
AcDbEntity
  8
0
  6
CONTINUOUS
 62
               7
100
AcDbLine
 10
14.939407943478727
 20
6.4392644409663262
 30
0.0
 11
17.060723959199095
 21
8.5605892185694756
 31
0.0
  0
LINE
  5
3DD
100
AcDbEntity
  8
0
  6
CONTINUOUS
 62
               7
100
AcDbLine
 10
17.060667479227959
 20
6.4393250507464472
 30
0.0
 11
14.939359034444351
 21
8.5606356412863533
 31
0.0
  0
LINE
  5
3DE
100
AcDbEntity
  8
0
  6
CONTINUOUS
 62
               7
100
AcDbLine
 10
0.5
 20
12.499984741210938
 30
0.0
 11
0.5
 21
50.354354858398438
 31
0.0
  0
LINE
  5
3DF
100
AcDbEntity
  8
0
  6
CONTINUOUS
 62
               7
100
AcDbLine
 10
0.5
 20
52.645645141601563
 30
0.0
 11
0.5
 21
55.79998779296875
 31
0.0
  0
LINE
  5
3E0
100
AcDbEntity
  8
0
  6
CONTINUOUS
 62
               7
100
AcDbLine
 10
18.5
 20
52.499984741210937
 30
0.0
 11
18.5
 21
55.79998779296875
 31
0.0
  0
LINE
  5
3E1
100
AcDbEntity
  8
0
  6
CONTINUOUS
 62
               7
100
AcDbLine
 10
18.5
 20
8.6456298828125
 30
0.0
 11
18.5
 21
46.499984741210937
 31
0.0
  0
LINE
  5
3E2
100
AcDbEntity
  8
0
  6
CONTINUOUS
 62
               4
100
AcDbLine
 10
13.25
 20
56.5
 30
0.0
 11
13.25
 21
56.0
 31
0.0
  0
LINE
  5
3E3
100
AcDbEntity
  8
0
  6
CONTINUOUS
 62
               4
100
AcDbLine
 10
18.75
 20
56.5
 30
0.0
 11
18.75
 21
56.0
 31
0.0
  0
LINE
  5
3E4
100
AcDbEntity
  8
0
  6
CONTINUOUS
 62
               4
100
AcDbLine
 10
14.75
 20
58.0
 30
0.0
 11
17.25
 21
58.0
 31
0.0
  0
LINE
  5
3E5
100
AcDbEntity
  8
0
  6
CONTINUOUS
 62
               4
100
AcDbLine
 10
0.5
 20
64.5
 30
0.0
 11
0.5
 21
56.0
 31
0.0
  0
LINE
  5
3E6
100
AcDbEntity
  8
0
  6
CONTINUOUS
 62
               4
100
AcDbLine
 10
13.0
 20
60.0
 30
0.0
 11
13.0
 21
56.0
 31
0.0
  0
LINE
  5
3E7
100
AcDbEntity
  8
0
  6
CONTINUOUS
 62
               4
100
AcDbLine
 10
1.0000152587890625
 20
65.0
 30
0.0
 11
18.000015258789063
 21
65.0
 31
0.0
  0
LINE
  5
3E8
100
AcDbEntity
  8
0
  6
CONTINUOUS
 62
               4
100
AcDbLine
 10
18.500015258789063
 20
64.5
 30
0.0
 11
18.500015258789063
 21
57.329132080078125
 31
0.0
  0
ARC
  5
3E9
100
AcDbEntity
  8
0
  6
CONTINUOUS
 62
               7
100
AcDbCircle
 10
16.0
 20
49.5
 30
0.0
 40
2.8000030517578125
100
AcDbArc
 50
89.999982013910653
 51
270.00000068324533
  0
ARC
  5
3EA
100
AcDbEntity
  8
0
  6
CONTINUOUS
 62
               7
100
AcDbCircle
 10
3.0
 20
9.5
 30
0.0
 40
2.8000030517578125
100
AcDbArc
 50
270.00001798608935
 51
89.999982013910653
  0
CIRCLE
  5
3EB
100
AcDbEntity
  8
0
  6
CONTINUOUS
 62
               7
100
AcDbCircle
 10
3.0
 20
51.5
 30
0.0
 40
2.75
  0
ARC
  5
3EC
100
AcDbEntity
  8
0
  6
CONTINUOUS
 62
               7
100
AcDbCircle
 10
16.0
 20
49.5
 30
0.0
 40
3.0
100
AcDbArc
 50
89.999982013910653
 51
269.99994604173196
  0
ARC
  5
3ED
100
AcDbEntity
  8
0
  6
CONTINUOUS
 62
               7
100
AcDbCircle
 10
3.0
 20
9.5
 30
0.0
 40
3.0
100
AcDbArc
 50
269.99996334457597
 51
89.999982013910653
  0
ARC
  5
3EE
100
AcDbEntity
  8
0
  6
CONTINUOUS
 62
               7
100
AcDbCircle
 10
3.0
 20
51.5
 30
0.0
 40
3.0
100
AcDbArc
 50
270.00001798608935
 51
0.00001366037834
  0
ARC
  5
3EF
100
AcDbEntity
  8
0
  6
CONTINUOUS
 62
               7
100
AcDbCircle
 10
16.0
 20
7.5
 30
0.0
 40
3.0
100
AcDbArc
 50
89.999982013910653
 51
179.99996402782131
  0
CIRCLE
  5
3F0
100
AcDbEntity
  8
0
  6
CONTINUOUS
 62
               7
100
AcDbCircle
 10
16.0
 20
7.5
 30
0.0
 40
2.75
  0
ARC
  5
3F1
100
AcDbEntity
  8
0
  6
CONTINUOUS
 62
               4
100
AcDbCircle
 10
17.25
 20
56.5
 30
0.0
 40
1.5
100
AcDbArc
 50
0.0
 51
89.999982013910653
  0
ARC
  5
3F2
100
AcDbEntity
  8
0
  6
CONTINUOUS
 62
               4
100
AcDbCircle
 10
14.75
 20
56.5
 30
0.0
 40
1.5
100
AcDbArc
 50
89.999982013910653
 51
179.99996402782131
  0
ARC
  5
3F3
100
AcDbEntity
  8
0
  6
CONTINUOUS
 62
               4
100
AcDbCircle
 10
1.0000152587890625
 20
64.5
 30
0.0
 40
0.5
100
AcDbArc
 50
89.999982013910653
 51
179.99996402782131
  0
ARC
  5
3F4
100
AcDbEntity
  8
0
  6
CONTINUOUS
 62
               4
100
AcDbCircle
 10
18.000015258789063
 20
64.5
 30
0.0
 40
0.5
100
AcDbArc
 50
0.0
 51
89.999982013910653
  0
LINE
  5
3F5
100
AcDbEntity
  8
0
  6
CONTINUOUS
 62
               4
100
AcDbLine
 10
0.5
 20
60.0
 30
0.0
 11
18.500015258789063
 21
60.0
 31
0.0
  0
LINE
  5
3F6
100
AcDbEntity
  8
0
  6
CONTINUOUS
 62
               7
100
AcDbLine
 10
19.0
 20
1.0
 30
0.0
 11
0.0
 21
1.0
 31
0.0
  0
LINE
  5
3F7
100
AcDbEntity
  8
0
  6
CONTINUOUS
 62
               2
100
AcDbLine
 10
9.5
 20
-0.8300000000000125
 30
0.0
 11
9.5
 21
56.0
 31
0.0
  0
LINE
  5
3F8
100
AcDbEntity
  8
0
  6
CONTINUOUS
 62
               7
100
AcDbLine
 10
0.0
 20
0.0
 30
0.0
 11
19.0
 21
0.0
 31
0.0
  0
ENDBLK
  5
3F9
100
AcDbEntity
  8
0
100
AcDbBlockEnd
  0
BLOCK
  5
3FA
100
AcDbEntity
  8
0
100
AcDbBlockBegin
  2
F10MN-11
 70
               0
 10
0.0
 20
0.0
 30
0.0
  3
F10MN-11
  1

  0
LINE
  5
3FB
100
AcDbEntity
  8
0
  6
CONTINUOUS
 62
               2
100
AcDbLine
 10
-11.466222442713104
 20
0.0
 30
0.0
 11
16.255566875490672
 21
0.0
 31
0.0
  0
ARC
  5
3FC
100
AcDbEntity
  8
0
  6
CONTINUOUS
 62
               7
100
AcDbCircle
 10
34.500073934956731
 20
-30.000073934956674
 30
0.0
 40
0.4999260705104662
100
AcDbArc
 50
269.99152642511825
 51
0.0084735748821464
  0
LINE
  5
3FD
100
AcDbEntity
  8
0
  6
CONTINUOUS
 62
               7
100
AcDbLine
 10
35.0
 20
-30.0
 30
0.0
 11
35.0
 21
62.5
 31
0.0
  0
LINE
  5
3FE
100
AcDbEntity
  8
0
  6
CONTINUOUS
 62
               7
100
AcDbLine
 10
3.20001220703125
 20
-28.699996948242188
 30
0.0
 11
3.20001220703125
 21
-30.5
 31
0.0
  0
LINE
  5
3FF
100
AcDbEntity
  8
0
  6
CONTINUOUS
 62
               7
100
AcDbLine
 10
5.0
 20
-30.5
 30
0.0
 11
3.0
 21
-28.5
 31
0.0
  0
LINE
  5
400
100
AcDbEntity
  8
0
  6
CONTINUOUS
 62
               7
100
AcDbLine
 10
3.20001220703125
 20
-30.5
 30
0.0
 11
34.5
 21
-30.5
 31
0.0
  0
LINE
  5
401
100
AcDbEntity
  8
0
  6
CONTINUOUS
 62
               7
100
AcDbLine
 10
6.5
 20
-17.5
 30
0.0
 11
7.5
 21
-17.5
 31
0.0
  0
LINE
  5
402
100
AcDbEntity
  8
0
  6
CONTINUOUS
 62
               7
100
AcDbLine
 10
6.5
 20
17.5
 30
0.0
 11
7.5
 21
17.5
 31
0.0
  0
LINE
  5
403
100
AcDbEntity
  8
0
  6
CONTINUOUS
 62
               7
100
AcDbLine
 10
6.5
 20
-17.5
 30
0.0
 11
6.5
 21
-14.5
 31
0.0
  0
LINE
  5
404
100
AcDbEntity
  8
0
  6
CONTINUOUS
 62
               7
100
AcDbLine
 10
6.5
 20
14.5
 30
0.0
 11
6.5
 21
17.5
 31
0.0
  0
LINE
  5
405
100
AcDbEntity
  8
0
  6
CONTINUOUS
 62
               7
100
AcDbLine
 10
2.0
 20
12.5
 30
0.0
 11
7.5
 21
12.5
 31
0.0
  0
LINE
  5
406
100
AcDbEntity
  8
0
  6
CONTINUOUS
 62
               7
100
AcDbLine
 10
2.0
 20
-12.5
 30
0.0
 11
7.5
 21
-12.5
 31
0.0
  0
LINE
  5
407
100
AcDbEntity
  8
0
  6
CONTINUOUS
 62
               7
100
AcDbLine
 10
0.0
 20
-14.5
 30
0.0
 11
6.5
 21
-14.5
 31
0.0
  0
LINE
  5
408
100
AcDbEntity
  8
0
  6
CONTINUOUS
 62
               7
100
AcDbLine
 10
0.0
 20
14.5
 30
0.0
 11
6.5
 21
14.5
 31
0.0
  0
LINE
  5
409
100
AcDbEntity
  8
0
  6
CONTINUOUS
 62
               7
100
AcDbLine
 10
0.0
 20
-14.5
 30
0.0
 11
0.0
 21
14.5
 31
0.0
  0
LINE
  5
40A
100
AcDbEntity
  8
0
  6
CONTINUOUS
 62
               7
100
AcDbLine
 10
2.0
 20
-12.5
 30
0.0
 11
2.0
 21
12.5
 31
0.0
  0
ARC
  5
40B
100
AcDbEntity
  8
0
  6
CONTINUOUS
 62
               7
100
AcDbCircle
 10
4.0
 20
59.5
 30
0.0
 40
3.0
100
AcDbArc
 50
89.999963344575988
 51
179.99994535848663
  0
LINE
  5
40C
100
AcDbEntity
  8
0
  6
CONTINUOUS
 62
               7
100
AcDbLine
 10
7.5
 20
-18.0
 30
0.0
 11
7.5
 21
18.0
 31
0.0
  0
LINE
  5
40D
100
AcDbEntity
  8
0
  6
CONTINUOUS
 62
               7
100
AcDbLine
 10
1.0
 20
-23.5
 30
0.0
 11
1.0
 21
-21.03099977800747
 31
0.0
  0
LINE
  5
40E
100
AcDbEntity
  8
0
  6
CONTINUOUS
 62
               7
100
AcDbLine
 10
1.0
 20
-23.5
 30
0.0
 11
3.0
 21
-25.5
 31
0.0
  0
LINE
  5
40F
100
AcDbEntity
  8
0
  6
CONTINUOUS
 62
               7
100
AcDbLine
 10
7.5
 20
18.0
 30
0.0
 11
1.0
 21
21.03099977800747
 31
0.0
  0
LINE
  5
410
100
AcDbEntity
  8
0
  6
CONTINUOUS
 62
               7
100
AcDbLine
 10
7.5
 20
-18.0
 30
0.0
 11
1.0
 21
-21.03099977800747
 31
0.0
  0
LINE
  5
411
100
AcDbEntity
  8
0
  6
CONTINUOUS
 62
               7
100
AcDbLine
 10
1.0
 20
59.500000000000057
 30
0.0
 11
1.0
 21
21.03099977800747
 31
0.0
  0
LINE
  5
412
100
AcDbEntity
  8
0
  6
CONTINUOUS
 62
               7
100
AcDbLine
 10
2.8500000000000227
 20
20.168330610420725
 30
0.0
 11
2.8500000000000227
 21
18.0
 31
0.0
  0
LINE
  5
413
100
AcDbEntity
  8
0
  6
CONTINUOUS
 62
               7
100
AcDbLine
 10
5.916352299152436
 20
16.0
 30
0.0
 11
4.8500000000000227
 21
16.0
 31
0.0
  0
ARC
  5
414
100
AcDbEntity
  8
0
  6
CONTINUOUS
 62
               7
100
AcDbCircle
 10
4.8500000000000227
 20
18.0
 30
0.0
 40
2.0
100
AcDbArc
 50
180.0
 51
270.0
  0
ARC
  5
415
100
AcDbEntity
  8
0
  6
CONTINUOUS
 62
               7
100
AcDbCircle
 10
5.916352299152436
 20
16.5
 30
0.0
 40
0.5
100
AcDbArc
 50
270.0
 51
351.86989764584399
  0
LINE
  5
416
100
AcDbEntity
  8
0
  6
CONTINUOUS
 62
               7
100
AcDbLine
 10
5.9163522991525497
 20
-16.0
 30
0.0
 11
4.8500000000000227
 21
-16.0
 31
0.0
  0
ARC
  5
417
100
AcDbEntity
  8
0
  6
CONTINUOUS
 62
               7
100
AcDbCircle
 10
4.8500000000000227
 20
-18.0
 30
0.0
 40
2.0
100
AcDbArc
 50
90.0
 51
180.0
  0
LINE
  5
418
100
AcDbEntity
  8
0
  6
CONTINUOUS
 62
               7
100
AcDbLine
 10
2.8500000000000227
 20
-18.0
 30
0.0
 11
2.8500000000000227
 21
-20.168330610420725
 31
0.0
  0
ARC
  5
419
100
AcDbEntity
  8
0
  6
CONTINUOUS
 62
               7
100
AcDbCircle
 10
5.9163522991525497
 20
-16.5
 30
0.0
 40
0.5
100
AcDbArc
 50
8.1301023541559339
 51
90.000000000000014
  0
LINE
  5
41A
100
AcDbEntity
  8
0
  6
CONTINUOUS
 62
               7
100
AcDbLine
 10
6.6896931820922418
 20
-18.377852274645591
 30
0.0
 11
6.4113270459830574
 21
-16.429289321881356
 31
0.0
  0
LINE
  5
41B
100
AcDbEntity
  8
0
  6
CONTINUOUS
 62
               7
100
AcDbLine
 10
6.6896931820922418
 20
18.377852274645591
 30
0.0
 11
6.4113270459830574
 21
16.429289321881356
 31
0.0
  0
LINE
  5
41C
100
AcDbEntity
  8
0
  6
CONTINUOUS
 62
               7
100
AcDbLine
 10
3.0
 20
-28.5
 30
0.0
 11
3.0
 21
-25.5
 31
0.0
  0
LINE
  5
41D
100
AcDbEntity
  8
0
  6
CONTINUOUS
 62
               7
100
AcDbLine
 10
1.0
 20
30.5
 30
0.0
 11
35.0
 21
30.5
 31
0.0
  0
LINE
  5
41E
100
AcDbEntity
  8
0
  6
CONTINUOUS
 62
               7
100
AcDbLine
 10
4.0
 20
62.5
 30
0.0
 11
35.0
 21
62.5
 31
0.0
  0
ENDBLK
  5
41F
100
AcDbEntity
  8
0
100
AcDbBlockEnd
  0
BLOCK
  5
420
100
AcDbEntity
  8
0
100
AcDbBlockBegin
  2
F10MN-12
 70
               0
 10
0.0
 20
0.0
 30
0.0
  3
F10MN-12
  1

  0
LINE
  5
421
100
AcDbEntity
  8
0
  6
CONTINUOUS
 62
               2
100
AcDbLine
 10
100.0
 20
-7.0973209881776711
 30
0.0
 11
100.0
 21
14.110982642174349
 31
0.0
  0
LINE
  5
422
100
AcDbEntity
  8
0
  6
CONTINUOUS
 62
               2
100
AcDbLine
 10
0.0
 20
-7.0973209881776711
 30
0.0
 11
0.0
 21
14.110982642174349
 31
0.0
  0
LINE
  5
423
100
AcDbEntity
  8
0
  6
CONTINUOUS
 62
               7
100
AcDbLine
 10
80.5
 20
0.0
 30
0.0
 11
112.5
 21
0.0
 31
0.0
  0
LINE
  5
424
100
AcDbEntity
  8
0
  6
CONTINUOUS
 62
               7
100
AcDbLine
 10
19.5
 20
35.0
 30
0.0
 11
19.5
 21
1.0
 31
0.0
  0
LINE
  5
425
100
AcDbEntity
  8
0
  6
CONTINUOUS
 62
               7
100
AcDbLine
 10
80.5
 20
35.0
 30
0.0
 11
80.5
 21
1.0
 31
0.0
  0
LINE
  5
426
100
AcDbEntity
  8
0
  6
CONTINUOUS
 62
               7
100
AcDbLine
 10
85.5
 20
1.0
 30
0.0
 11
80.5
 21
1.0
 31
0.0
  0
LINE
  5
427
100
AcDbEntity
  8
0
  6
CONTINUOUS
 62
               7
100
AcDbLine
 10
-12.5
 20
0.0
 30
0.0
 11
19.5
 21
0.0
 31
0.0
  0
LINE
  5
428
100
AcDbEntity
  8
0
  6
CONTINUOUS
 62
               7
100
AcDbLine
 10
-12.5
 20
7.5
 30
0.0
 11
0.5
 21
7.5
 31
0.0
  0
LINE
  5
429
100
AcDbEntity
  8
0
  6
CONTINUOUS
 62
               7
100
AcDbLine
 10
-12.5
 20
6.5
 30
0.0
 11
0.5
 21
6.5
 31
0.0
  0
LINE
  5
42A
100
AcDbEntity
  8
0
  6
CONTINUOUS
 62
               7
100
AcDbLine
 10
112.5
 20
7.5
 30
0.0
 11
99.5
 21
7.5
 31
0.0
  0
LINE
  5
42B
100
AcDbEntity
  8
0
  6
CONTINUOUS
 62
               7
100
AcDbLine
 10
112.5
 20
6.5
 30
0.0
 11
99.5
 21
6.5
 31
0.0
  0
LINE
  5
42C
100
AcDbEntity
  8
0
  6
CONTINUOUS
 62
               7
100
AcDbLine
 10
-12.5
 20
7.5
 30
0.0
 11
-12.5
 21
0.0
 31
0.0
  0
LINE
  5
42D
100
AcDbEntity
  8
0
  6
CONTINUOUS
 62
               7
100
AcDbLine
 10
112.5
 20
7.5
 30
0.0
 11
112.5
 21
0.0
 31
0.0
  0
LINE
  5
42E
100
AcDbEntity
  8
0
  6
CONTINUOUS
 62
               7
100
AcDbLine
 10
19.5
 20
1.0
 30
0.0
 11
14.5
 21
1.0
 31
0.0
  0
LINE
  5
42F
100
AcDbEntity
  8
0
  6
CONTINUOUS
 62
               7
100
AcDbLine
 10
19.5
 20
35.0
 30
0.0
 11
0.9564221286261727
 21
33.377647155044542
 31
0.0
  0
LINE
  5
430
100
AcDbEntity
  8
0
  6
CONTINUOUS
 62
               7
100
AcDbLine
 10
0.5
 20
32.879549805998678
 30
0.0
 11
0.5
 21
1.0
 31
0.0
  0
ARC
  5
431
100
AcDbEntity
  8
0
  6
CONTINUOUS
 62
               7
100
AcDbCircle
 10
1.0
 20
32.879549805998678
 30
0.0
 40
0.5
100
AcDbArc
 50
94.999999999999815
 51
180.0
  0
LINE
  5
432
100
AcDbEntity
  8
0
  6
CONTINUOUS
 62
               7
100
AcDbLine
 10
19.5
 20
3.0000000000000142
 30
0.0
 11
1.0
 21
3.0000000000000142
 31
0.0
  0
LINE
  5
433
100
AcDbEntity
  8
0
  6
CONTINUOUS
 62
               7
100
AcDbLine
 10
2.0
 20
3.0000000000000142
 30
0.0
 11
2.0
 21
1.0
 31
0.0
  0
LINE
  5
434
100
AcDbEntity
  8
0
  6
CONTINUOUS
 62
               7
100
AcDbLine
 10
19.5
 20
5.0000000000000142
 30
0.0
 11
0.5
 21
5.0000000000000142
 31
0.0
  0
ARC
  5
435
100
AcDbEntity
  8
0
  6
CONTINUOUS
 62
               7
100
AcDbCircle
 10
1.0
 20
3.5000000000000142
 30
0.0
 40
0.5
100
AcDbArc
 50
180.0
 51
270.0
  0
LINE
  5
436
100
AcDbEntity
  8
0
  6
CONTINUOUS
 62
               7
100
AcDbLine
 10
2.0
 20
1.0
 30
0.0
 11
0.5
 21
1.0
 31
0.0
  0
LINE
  5
437
100
AcDbEntity
  8
0
  6
CONTINUOUS
 62
               7
100
AcDbLine
 10
14.5
 20
3.0000000000000142
 30
0.0
 11
14.5
 21
1.0
 31
0.0
  0
LINE
  5
438
100
AcDbEntity
  8
0
  6
CONTINUOUS
 62
               7
100
AcDbLine
 10
99.5
 20
32.879549805998678
 30
0.0
 11
99.5
 21
1.0
 31
0.0
  0
LINE
  5
439
100
AcDbEntity
  8
0
  6
CONTINUOUS
 62
               7
100
AcDbLine
 10
80.5
 20
35.0
 30
0.0
 11
99.043577871373827
 21
33.377647155044542
 31
0.0
  0
ARC
  5
43A
100
AcDbEntity
  8
0
  6
CONTINUOUS
 62
               7
100
AcDbCircle
 10
99.0
 20
32.879549805998678
 30
0.0
 40
0.5
100
AcDbArc
 50
0.0
 51
85.000000000000185
  0
LINE
  5
43B
100
AcDbEntity
  8
0
  6
CONTINUOUS
 62
               7
100
AcDbLine
 10
80.5
 20
5.0000000000000142
 30
0.0
 11
99.5
 21
5.0000000000000142
 31
0.0
  0
LINE
  5
43C
100
AcDbEntity
  8
0
  6
CONTINUOUS
 62
               7
100
AcDbLine
 10
98.0
 20
1.0
 30
0.0
 11
99.5
 21
1.0
 31
0.0
  0
LINE
  5
43D
100
AcDbEntity
  8
0
  6
CONTINUOUS
 62
               7
100
AcDbLine
 10
80.5
 20
3.0000000000000142
 30
0.0
 11
99.0
 21
3.0000000000000142
 31
0.0
  0
LINE
  5
43E
100
AcDbEntity
  8
0
  6
CONTINUOUS
 62
               7
100
AcDbLine
 10
98.0
 20
3.0000000000000142
 30
0.0
 11
98.0
 21
1.0
 31
0.0
  0
LINE
  5
43F
100
AcDbEntity
  8
0
  6
CONTINUOUS
 62
               7
100
AcDbLine
 10
85.5
 20
3.0000000000000142
 30
0.0
 11
85.5
 21
1.0
 31
0.0
  0
ARC
  5
440
100
AcDbEntity
  8
0
  6
CONTINUOUS
 62
               7
100
AcDbCircle
 10
99.0
 20
3.5000000000000142
 30
0.0
 40
0.5
100
AcDbArc
 50
270.0
 51
0.0
  0
ENDBLK
  5
441
100
AcDbEntity
  8
0
100
AcDbBlockEnd
  0
BLOCK
  5
442
100
AcDbEntity
  8
0
100
AcDbBlockBegin
  2
F10MN-13
 70
               0
 10
0.0
 20
0.0
 30
0.0
  3
F10MN-13
  1

  0
LINE
  5
443
100
AcDbEntity
  8
0
  6
CONTINUOUS
 62
               7
100
AcDbLine
 10
0.0
 20
49.5
 30
0.0
 11
-0.2499923706054688
 21
49.5
 31
0.0
  0
LINE
  5
444
100
AcDbEntity
  8
0
  6
CONTINUOUS
 62
               7
100
AcDbLine
 10
0.0
 20
-30.300003051757812
 30
0.0
 11
0.0
 21
62.5
 31
0.0
  0
LINE
  5
445
100
AcDbEntity
  8
0
  6
CONTINUOUS
 62
               7
100
AcDbLine
 10
0.0
 20
-25.5
 30
0.0
 11
7.649993896484375
 21
-25.5
 31
0.0
  0
LINE
  5
446
100
AcDbEntity
  8
0
  6
CONTINUOUS
 62
               4
100
AcDbLine
 10
0.8490000529416193
 20
-13.698916097694394
 30
0.0
 11
2.0510795037951084
 21
-14.900995447220168
 31
0.0
  0
LINE
  5
447
100
AcDbEntity
  8
0
  6
CONTINUOUS
 62
               4
100
AcDbLine
 10
0.8489743602226554
 20
-14.901065217117093
 30
0.0
 11
2.0510538110761445
 21
-13.698985867591318
 31
0.0
  0
LINE
  5
448
100
AcDbEntity
  8
0
  6
CONTINUOUS
 62
               4
100
AcDbLine
 10
8.4489950892166235
 20
11.901077277224431
 30
0.0
 11
9.6510745400701126
 21
10.698997927698656
 31
0.0
  0
LINE
  5
449
100
AcDbEntity
  8
0
  6
CONTINUOUS
 62
               4
100
AcDbLine
 10
8.4489472778313939
 20
10.698951793756351
 30
0.0
 11
9.6510159390909394
 21
11.901020353689091
 31
0.0
  0
LINE
  5
44A
100
AcDbEntity
  8
0
  6
CONTINUOUS
 62
               4
100
AcDbLine
 10
10.25
 20
-18.0
 30
0.0
 11
10.25
 21
10.95001220703125
 31
0.0
  0
LINE
  5
44B
100
AcDbEntity
  8
0
  6
CONTINUOUS
 62
               4
100
AcDbLine
 10
0.25
 20
-13.949996948242188
 30
0.0
 11
0.25
 21
22.0
 31
0.0
  0
LINE
  5
44C
100
AcDbEntity
  8
0
  6
CONTINUOUS
 62
               2
100
AcDbLine
 10
5.25
 20
-31.602310180664063
 30
0.0
 11
5.25
 21
64.087997436523438
 31
0.0
  0
LINE
  5
44D
100
AcDbEntity
  8
0
  6
CONTINUOUS
 62
               4
100
AcDbLine
 10
10.25
 20
11.649978637695312
 30
0.0
 11
10.25
 21
22.0
 31
0.0
  0
LINE
  5
44E
100
AcDbEntity
  8
0
  6
CONTINUOUS
 62
               4
100
AcDbLine
 10
0.25
 20
-18.0
 30
0.0
 11
0.25
 21
-14.650009155273438
 31
0.0
  0
LINE
  5
44F
100
AcDbEntity
  8
0
  6
CONTINUOUS
 62
               4
100
AcDbLine
 10
0.25
 20
-18.0
 30
0.0
 11
10.25
 21
-18.0
 31
0.0
  0
LINE
  5
450
100
AcDbEntity
  8
0
  6
CONTINUOUS
 62
               4
100
AcDbLine
 10
0.25
 20
22.0
 30
0.0
 11
10.25
 21
22.0
 31
0.0
  0
LINE
  5
451
100
AcDbEntity
  8
0
  6
CONTINUOUS
 62
               7
100
AcDbLine
 10
0.0
 20
21.5
 30
0.0
 11
0.25
 21
21.5
 31
0.0
  0
LINE
  5
452
100
AcDbEntity
  8
0
  6
CONTINUOUS
 62
               7
100
AcDbLine
 10
10.5
 20
-30.300003051757812
 30
0.0
 11
10.5
 21
62.5
 31
0.0
  0
LINE
  5
453
100
AcDbEntity
  8
0
  6
CONTINUOUS
 62
               7
100
AcDbLine
 10
10.25
 20
21.5
 30
0.0
 11
10.5
 21
21.5
 31
0.0
  0
LINE
  5
454
100
AcDbEntity
  8
0
  6
CONTINUOUS
 62
               7
100
AcDbLine
 10
0.75
 20
49.5
 30
0.0
 11
9.75
 21
49.5
 31
0.0
  0
LINE
  5
455
100
AcDbEntity
  8
0
  6
CONTINUOUS
 62
               7
100
AcDbLine
 10
1.75
 20
59.0
 30
0.0
 11
1.75
 21
59.5
 31
0.0
  0
LINE
  5
456
100
AcDbEntity
  8
0
  6
CONTINUOUS
 62
               7
100
AcDbLine
 10
8.75
 20
59.0
 30
0.0
 11
8.75
 21
59.5
 31
0.0
  0
LINE
  5
457
100
AcDbEntity
  8
0
  6
CONTINUOUS
 62
               7
100
AcDbLine
 10
0.0
 20
62.5
 30
0.0
 11
10.5
 21
62.5
 31
0.0
  0
LINE
  5
458
100
AcDbEntity
  8
0
  6
CONTINUOUS
 62
               7
100
AcDbLine
 10
0.0
 20
59.5
 30
0.0
 11
10.5
 21
59.5
 31
0.0
  0
LINE
  5
459
100
AcDbEntity
  8
0
  6
CONTINUOUS
 62
               7
100
AcDbLine
 10
0.75
 20
59.0
 30
0.0
 11
9.75
 21
59.0
 31
0.0
  0
LINE
  5
45A
100
AcDbEntity
  8
0
  6
CONTINUOUS
 62
               7
100
AcDbLine
 10
0.0
 20
61.5
 30
0.0
 11
10.5
 21
61.5
 31
0.0
  0
LINE
  5
45B
100
AcDbEntity
  8
0
  6
CONTINUOUS
 62
               7
100
AcDbLine
 10
0.0
 20
60.5
 30
0.0
 11
10.5
 21
60.5
 31
0.0
  0
LINE
  5
45C
100
AcDbEntity
  8
0
  6
CONTINUOUS
 62
               7
100
AcDbLine
 10
0.0
 20
61.0
 30
0.0
 11
10.5
 21
61.0
 31
0.0
  0
LINE
  5
45D
100
AcDbEntity
  8
0
  6
CONTINUOUS
 62
               7
100
AcDbLine
 10
0.25
 20
-25.5
 30
0.0
 11
0.25
 21
-30.5
 31
0.0
  0
LINE
  5
45E
100
AcDbEntity
  8
0
  6
CONTINUOUS
 62
               7
100
AcDbLine
 10
0.25
 20
-30.5
 30
0.0
 11
10.25
 21
-30.5
 31
0.0
  0
LINE
  5
45F
100
AcDbEntity
  8
0
  6
CONTINUOUS
 62
               7
100
AcDbLine
 10
7.4499969482421875
 20
-25.5
 30
0.0
 11
7.4499969482421875
 21
-30.5
 31
0.0
  0
LINE
  5
460
100
AcDbEntity
  8
0
  6
CONTINUOUS
 62
               7
100
AcDbLine
 10
10.25
 20
-30.300003051757812
 30
0.0
 11
10.25
 21
-30.5
 31
0.0
  0
LINE
  5
461
100
AcDbEntity
  8
0
  6
CONTINUOUS
 62
               7
100
AcDbLine
 10
7.649993896484375
 20
-30.300003051757812
 30
0.0
 11
7.649993896484375
 21
-25.5
 31
0.0
  0
LINE
  5
462
100
AcDbEntity
  8
0
  6
CONTINUOUS
 62
               7
100
AcDbLine
 10
0.0
 20
-30.300003051757812
 30
0.0
 11
0.25
 21
-30.300003051757812
 31
0.0
  0
LINE
  5
463
100
AcDbEntity
  8
0
  6
CONTINUOUS
 62
               7
100
AcDbLine
 10
7.649993896484375
 20
-30.300003051757812
 30
0.0
 11
10.5
 21
-30.300003051757812
 31
0.0
  0
LINE
  5
464
100
AcDbEntity
  8
0
  6
CONTINUOUS
 62
               7
100
AcDbLine
 10
10.25
 20
50.0
 30
0.0
 11
10.25
 21
58.5
 31
0.0
  0
LINE
  5
465
100
AcDbEntity
  8
0
  6
CONTINUOUS
 62
               7
100
AcDbLine
 10
0.25
 20
50.0
 30
0.0
 11
0.25
 21
58.5
 31
0.0
  0
CIRCLE
  5
466
100
AcDbEntity
  8
0
  6
CONTINUOUS
 62
               4
100
AcDbCircle
 10
1.4499969482421875
 20
-14.300003051757813
 30
0.0
 40
1.25
  0
CIRCLE
  5
467
100
AcDbEntity
  8
0
  6
CONTINUOUS
 62
               4
100
AcDbCircle
 10
9.0500030517578125
 20
11.29998779296875
 30
0.0
 40
1.25
  0
ARC
  5
468
100
AcDbEntity
  8
0
  6
CONTINUOUS
 62
               7
100
AcDbCircle
 10
9.75
 20
58.5
 30
0.0
 40
0.5
100
AcDbArc
 50
0.0
 51
89.999982013910653
  0
ARC
  5
469
100
AcDbEntity
  8
0
  6
CONTINUOUS
 62
               7
100
AcDbCircle
 10
9.75
 20
50.0
 30
0.0
 40
0.5
100
AcDbArc
 50
270.00001798608935
 51
0.0
  0
ARC
  5
46A
100
AcDbEntity
  8
0
  6
CONTINUOUS
 62
               7
100
AcDbCircle
 10
0.75
 20
50.0
 30
0.0
 40
0.5
100
AcDbArc
 50
179.99998133066532
 51
270.00001798608935
  0
ARC
  5
46B
100
AcDbEntity
  8
0
  6
CONTINUOUS
 62
               7
100
AcDbCircle
 10
0.75
 20
58.5
 30
0.0
 40
0.5
100
AcDbArc
 50
89.999982013910653
 51
179.99996402782131
  0
MTEXT
  5
46C
100
AcDbEntity
  8
0
  6
CONTINUOUS
 62
               7
100
AcDbMText
 10
-3.9658700052876079
 20
-39.548128662109377
 30
0.0
 40
6.3000001907348633
 41
0.0
 71
               4
 72
               1
  1
\A1;D-4
  0
ENDBLK
  5
46D
100
AcDbEntity
  8
0
100
AcDbBlockEnd
  0
BLOCK
  5
46E
100
AcDbEntity
  8
0
100
AcDbBlockBegin
  2
F10MN-14
 70
               0
 10
0.0
 20
0.0
 30
0.0
  3
F10MN-14
  1

  0
LINE
  5
46F
100
AcDbEntity
  8
0
  6
CONTINUOUS
 62
               4
100
AcDbLine
 10
36.599999999999994
 20
-18.0
 30
0.0
 11
36.599999999999994
 21
22.0
 31
0.0
  0
LINE
  5
470
100
AcDbEntity
  8
0
  6
CONTINUOUS
 62
               4
100
AcDbLine
 10
36.599999999999994
 20
22.0
 30
0.0
 11
35.0
 21
22.0
 31
0.0
  0
LINE
  5
471
100
AcDbEntity
  8
0
  6
CONTINUOUS
 62
               4
100
AcDbLine
 10
36.599999999999994
 20
-18.0
 30
0.0
 11
35.0
 21
-18.0
 31
0.0
  0
LINE
  5
472
100
AcDbEntity
  8
0
  6
CONTINUOUS
 62
               4
100
AcDbLine
 10
37.099999999999994
 20
12.050000000000011
 30
0.0
 11
37.099999999999994
 21
10.550000000000011
 31
0.0
  0
LINE
  5
473
100
AcDbEntity
  8
0
  6
CONTINUOUS
 62
               4
100
AcDbLine
 10
37.099999999999994
 20
-13.550000000000011
 30
0.0
 11
37.099999999999994
 21
-15.050000000000011
 31
0.0
  0
ARC
  5
474
100
AcDbEntity
  8
0
  6
CONTINUOUS
 62
               4
100
AcDbCircle
 10
36.600004576796209
 20
12.050004576796198
 30
0.0
 40
0.4999954232247482
100
AcDbArc
 50
359.99947553298745
 51
90.000524467012738
  0
ARC
  5
475
100
AcDbEntity
  8
0
  6
CONTINUOUS
 62
               4
100
AcDbCircle
 10
36.599971008279823
 20
10.550028991720183
 30
0.0
 40
0.5000289925606449
100
AcDbArc
 50
270.00332201378779
 51
359.99667798621203
  0
ARC
  5
476
100
AcDbEntity
  8
0
  6
CONTINUOUS
 62
               4
100
AcDbCircle
 10
36.600001525206039
 20
-13.549998474793966
 30
0.0
 40
0.4999984747963009
100
AcDbArc
 50
359.99982522373057
 51
90.000174776269247
  0
ARC
  5
477
100
AcDbEntity
  8
0
  6
CONTINUOUS
 62
               4
100
AcDbCircle
 10
36.599974060056269
 20
-15.049974060056257
 30
0.0
 40
0.5000259406165815
100
AcDbArc
 50
270.00297234438585
 51
359.99702765561375
  0
ENDBLK
  5
478
100
AcDbEntity
  8
0
100
AcDbBlockEnd
  0
BLOCK
  5
479
100
AcDbEntity
  8
0
100
AcDbBlockBegin
  2
F10MN-15
 70
               0
 10
0.0
 20
0.0
 30
0.0
  3
F10MN-15
  1

  0
CIRCLE
  5
47A
100
AcDbEntity
  8
0
  6
CONTINUOUS
 62
               7
100
AcDbCircle
 10
2.25
 20
32.0
 30
0.0
 40
1.25
  0
CIRCLE
  5
47B
100
AcDbEntity
  8
0
  6
CONTINUOUS
 62
               7
100
AcDbCircle
 10
8.2499961853027344
 20
6.0
 30
0.0
 40
1.25
  0
CIRCLE
  5
47C
100
AcDbEntity
  8
0
  6
CONTINUOUS
 62
               7
100
AcDbCircle
 10
2.25
 20
32.0
 30
0.0
 40
1.3999996185302734
  0
CIRCLE
  5
47D
100
AcDbEntity
  8
0
  6
CONTINUOUS
 62
               7
100
AcDbCircle
 10
8.2499961853027344
 20
6.0
 30
0.0
 40
1.3999996185302734
  0
ARC
  5
47E
100
AcDbEntity
  8
0
  6
CONTINUOUS
 62
               7
100
AcDbCircle
 10
1.4499969482421875
 20
6.20001220703125
 30
0.0
 40
1.5999994277954102
100
AcDbArc
 50
0.0
 51
89.999982013910653
  0
ARC
  5
47F
100
AcDbEntity
  8
0
  6
CONTINUOUS
 62
               7
100
AcDbCircle
 10
9.0499954223632812
 20
31.799999237060547
 30
0.0
 40
1.5999994277954102
100
AcDbArc
 50
179.99996402782131
 51
270.00000068324533
  0
ARC
  5
480
100
AcDbEntity
  8
0
  6
CONTINUOUS
 62
               7
100
AcDbCircle
 10
3.4499969482421875
 20
3.600006103515625
 30
0.0
 40
0.4000000357627869
100
AcDbArc
 50
179.99996402782131
 51
270.00000068324533
  0
ARC
  5
481
100
AcDbEntity
  8
0
  6
CONTINUOUS
 62
               7
100
AcDbCircle
 10
9.8499946594238281
 20
3.600006103515625
 30
0.0
 40
0.4000000357627869
100
AcDbArc
 50
270.00001798608935
 51
0.0
  0
ARC
  5
482
100
AcDbEntity
  8
0
  6
CONTINUOUS
 62
               7
100
AcDbCircle
 10
9.8499946594238281
 20
29.80000114440918
 30
0.0
 40
0.4000000357627869
100
AcDbArc
 50
0.0
 51
89.999982013910653
  0
ARC
  5
483
100
AcDbEntity
  8
0
  6
CONTINUOUS
 62
               7
100
AcDbCircle
 10
7.0499954223632812
 20
34.400003433227539
 30
0.0
 40
0.4000000357627869
100
AcDbArc
 50
0.0
 51
89.999982013910653
  0
ARC
  5
484
100
AcDbEntity
  8
0
  6
CONTINUOUS
 62
               7
100
AcDbCircle
 10
0.6499977111816406
 20
34.400003433227539
 30
0.0
 40
0.4000000357627869
100
AcDbArc
 50
89.999982013910653
 51
179.99996402782131
  0
ARC
  5
485
100
AcDbEntity
  8
0
  6
CONTINUOUS
 62
               7
100
AcDbCircle
 10
0.6499977111816406
 20
8.20001220703125
 30
0.0
 40
0.4000000357627869
100
AcDbArc
 50
179.99996402782131
 51
270.00000068324533
  0
LINE
  5
486
100
AcDbEntity
  8
0
  6
CONTINUOUS
 62
               7
100
AcDbLine
 10
1.6489562177351047
 20
31.398959661628268
 30
0.0
 11
2.8510383659870797
 21
32.601041708552302
 31
0.0
  0
LINE
  5
487
100
AcDbEntity
  8
0
  6
CONTINUOUS
 62
               7
100
AcDbLine
 10
1.6489662180941309
 20
32.60104831568276
 30
0.0
 11
2.8510483663461059
 21
31.398966268758727
 31
0.0
  0
LINE
  5
488
100
AcDbEntity
  8
0
  6
CONTINUOUS
 62
               7
100
AcDbLine
 10
0.25
 20
8.20001220703125
 30
0.0
 11
0.25
 21
34.400003433227539
 31
0.0
  0
LINE
  5
489
100
AcDbEntity
  8
0
  6
CONTINUOUS
 62
               7
100
AcDbLine
 10
7.6489551801668654
 20
6.6010523658226248
 30
0.0
 11
8.8510346310203545
 21
5.3989730162968499
 31
0.0
  0
LINE
  5
48A
100
AcDbEntity
  8
0
  6
CONTINUOUS
 62
               7
100
AcDbLine
 10
7.648950965482527
 20
5.3989596978930194
 30
0.0
 11
8.851033113734502
 21
6.6010417448170529
 31
0.0
  0
LINE
  5
48B
100
AcDbEntity
  8
0
  6
CONTINUOUS
 62
               7
100
AcDbLine
 10
9.0499916076660156
 20
30.200006484985352
 30
0.0
 11
9.8499946594238281
 21
30.200006484985352
 31
0.0
  0
LINE
  5
48C
100
AcDbEntity
  8
0
  6
CONTINUOUS
 62
               7
100
AcDbLine
 10
1.4499969482421875
 20
7.8000030517578125
 30
0.0
 11
0.6499977111816406
 21
7.8000030517578125
 31
0.0
  0
LINE
  5
48D
100
AcDbEntity
  8
0
  6
CONTINUOUS
 62
               7
100
AcDbLine
 10
3.0500030517578125
 20
6.1999969482421875
 30
0.0
 11
3.0500030517578125
 21
3.600006103515625
 31
0.0
  0
LINE
  5
48E
100
AcDbEntity
  8
0
  6
CONTINUOUS
 62
               7
100
AcDbLine
 10
7.4500007629394531
 20
31.799999237060547
 30
0.0
 11
7.4500007629394531
 21
34.400003433227539
 31
0.0
  0
LINE
  5
48F
100
AcDbEntity
  8
0
  6
CONTINUOUS
 62
               7
100
AcDbLine
 10
0.6499977111816406
 20
34.800003051757813
 30
0.0
 11
7.0499954223632812
 21
34.800003051757813
 31
0.0
  0
LINE
  5
490
100
AcDbEntity
  8
0
  6
CONTINUOUS
 62
               7
100
AcDbLine
 10
3.4499969482421875
 20
3.20001220703125
 30
0.0
 11
9.8499908447265625
 21
3.20001220703125
 31
0.0
  0
LINE
  5
491
100
AcDbEntity
  8
0
  6
CONTINUOUS
 62
               7
100
AcDbLine
 10
10.25
 20
3.600006103515625
 30
0.0
 11
10.25
 21
29.80000114440918
 31
0.0
  0
LINE
  5
492
100
AcDbEntity
  8
0
  6
CONTINUOUS
 62
               4
100
AcDbLine
 10
0.1999969482421875
 20
36.600006103515625
 30
0.0
 11
10.300003051757812
 21
36.600006103515625
 31
0.0
  0
LINE
  5
493
100
AcDbEntity
  8
0
  6
CONTINUOUS
 62
             200
100
AcDbLine
 10
5.25
 20
37.100006103515625
 30
0.0
 11
5.25
 21
35.0
 31
0.0
  0
LINE
  5
494
100
AcDbEntity
  8
0
  6
CONTINUOUS
 62
               4
100
AcDbLine
 10
0.25
 20
36.600006103515625
 30
0.0
 11
0.25
 21
35.0
 31
0.0
  0
LINE
  5
495
100
AcDbEntity
  8
0
  6
CONTINUOUS
 62
               4
100
AcDbLine
 10
10.25
 20
36.600006103515625
 30
0.0
 11
10.25
 21
35.0
 31
0.0
  0
LINE
  5
496
100
AcDbEntity
  8
0
  6
CONTINUOUS
 62
               4
100
AcDbLine
 10
0.6999969482421875
 20
37.100006103515625
 30
0.0
 11
2.1999969482421875
 21
37.100006103515625
 31
0.0
  0
LINE
  5
497
100
AcDbEntity
  8
0
  6
CONTINUOUS
 62
               4
100
AcDbLine
 10
9.8000030517578125
 20
37.100006103515625
 30
0.0
 11
8.3000030517578125
 21
37.100006103515625
 31
0.0
  0
LINE
  5
498
100
AcDbEntity
  8
0
  6
CONTINUOUS
 62
               7
100
AcDbLine
 10
10.5
 20
35.0
 30
0.0
 11
10.5
 21
1.0
 31
0.0
  0
LINE
  5
499
100
AcDbEntity
  8
0
  6
CONTINUOUS
 62
               7
100
AcDbLine
 10
7.649993896484375
 20
31.800003051757813
 30
0.0
 11
7.649993896484375
 21
35.0
 31
0.0
  0
LINE
  5
49A
100
AcDbEntity
  8
0
  6
CONTINUOUS
 62
               7
100
AcDbLine
 10
2.850006103515625
 20
3.0
 30
0.0
 11
2.850006103515625
 21
6.1999969482421875
 31
0.0
  0
LINE
  5
49B
100
AcDbEntity
  8
0
  6
CONTINUOUS
 62
               7
100
AcDbLine
 10
0.0
 20
7.600006103515625
 30
0.0
 11
1.45001220703125
 21
7.600006103515625
 31
0.0
  0
LINE
  5
49C
100
AcDbEntity
  8
0
  6
CONTINUOUS
 62
               7
100
AcDbLine
 10
9.04998779296875
 20
30.400009155273438
 30
0.0
 11
10.5
 21
30.400009155273438
 31
0.0
  0
LINE
  5
49D
100
AcDbEntity
  8
0
  6
CONTINUOUS
 62
               7
100
AcDbLine
 10
0.0
 20
35.0
 30
0.0
 11
0.0
 21
1.0
 31
0.0
  0
LINE
  5
49E
100
AcDbEntity
  8
0
  6
CONTINUOUS
 62
               2
100
AcDbLine
 10
5.25
 20
-0.829620361328125
 30
0.0
 11
5.25
 21
35.0
 31
0.0
  0
LINE
  5
49F
100
AcDbEntity
  8
0
  6
CONTINUOUS
 62
               7
100
AcDbLine
 10
10.5
 20
1.0
 30
0.0
 11
0.0
 21
1.0
 31
0.0
  0
LINE
  5
4A0
100
AcDbEntity
  8
0
  6
CONTINUOUS
 62
               7
100
AcDbLine
 10
10.5
 20
35.0
 30
0.0
 11
0.0
 21
35.0
 31
0.0
  0
LINE
  5
4A1
100
AcDbEntity
  8
0
  6
CONTINUOUS
 62
               7
100
AcDbLine
 10
0.0
 20
0.0
 30
0.0
 11
10.5
 21
0.0
 31
0.0
  0
ARC
  5
4A2
100
AcDbEntity
  8
0
  6
CONTINUOUS
 62
               4
100
AcDbCircle
 10
0.6999969482421875
 20
36.600006103515625
 30
0.0
 40
0.5
100
AcDbArc
 50
89.999982013910653
 51
179.99996402782131
  0
ARC
  5
4A3
100
AcDbEntity
  8
0
  6
CONTINUOUS
 62
               4
100
AcDbCircle
 10
2.1999969482421875
 20
36.600006103515625
 30
0.0
 40
0.5
100
AcDbArc
 50
0.0
 51
89.999982013910653
  0
ARC
  5
4A4
100
AcDbEntity
  8
0
  6
CONTINUOUS
 62
               4
100
AcDbCircle
 10
8.3000030517578125
 20
36.600006103515625
 30
0.0
 40
0.5
100
AcDbArc
 50
89.999982013910653
 51
179.99996402782131
  0
ARC
  5
4A5
100
AcDbEntity
  8
0
  6
CONTINUOUS
 62
               4
100
AcDbCircle
 10
9.8000030517578125
 20
36.600006103515625
 30
0.0
 40
0.5
100
AcDbArc
 50
0.0
 51
89.999982013910653
  0
ARC
  5
4A6
100
AcDbEntity
  8
0
  6
CONTINUOUS
 62
               7
100
AcDbCircle
 10
1.45001220703125
 20
6.1999969482421875
 30
0.0
 40
1.3999996185302734
100
AcDbArc
 50
0.0
 51
89.999982013910653
  0
ARC
  5
4A7
100
AcDbEntity
  8
0
  6
CONTINUOUS
 62
               7
100
AcDbCircle
 10
9.04998779296875
 20
31.800003051757813
 30
0.0
 40
1.3999996185302734
100
AcDbArc
 50
179.99998133066532
 51
270.00001798608935
  0
LINE
  5
4A8
100
AcDbEntity
  8
0
  6
CONTINUOUS
 62
               7
100
AcDbLine
 10
0.0
 20
3.0
 30
0.0
 11
10.5
 21
3.0
 31
0.0
  0
ENDBLK
  5
4A9
100
AcDbEntity
  8
0
100
AcDbBlockEnd
  0
BLOCK
  5
4AA
100
AcDbEntity
  8
0
100
AcDbBlockBegin
  2
F10MN-16
 70
               0
 10
0.0
 20
0.0
 30
0.0
  3
F10MN-16
  1

  0
LINE
  5
4AB
100
AcDbEntity
  8
0
  6
CONTINUOUS
 62
               4
100
AcDbLine
 10
3.4000091552734375
 20
85.499985045898441
 30
0.0
 11
3.4000091552734375
 21
90.499985045898441
 31
0.0
  0
LINE
  5
4AC
100
AcDbEntity
  8
0
  6
CONTINUOUS
 62
               4
100
AcDbLine
 10
2.600006103515625
 20
85.499985045898441
 30
0.0
 11
2.600006103515625
 21
90.499985045898441
 31
0.0
  0
LINE
  5
4AD
100
AcDbEntity
  8
0
  6
CONTINUOUS
 62
               7
100
AcDbLine
 10
10.0
 20
-32.100021057617184
 30
0.0
 11
10.0
 21
10.949997252929691
 31
0.0
  0
LINE
  5
4AE
100
AcDbEntity
  8
0
  6
CONTINUOUS
 62
               7
100
AcDbLine
 10
10.0
 20
33.499985045898441
 30
0.0
 11
10.0
 21
11.649983301867152
 31
0.0
  0
LINE
  5
4AF
100
AcDbEntity
  8
0
  6
CONTINUOUS
 62
               4
100
AcDbLine
 10
10.0
 20
33.499985045898441
 30
0.0
 11
10.0
 21
57.499985045898441
 31
0.0
  0
LINE
  5
4B0
100
AcDbEntity
  8
0
  6
CONTINUOUS
 62
               4
100
AcDbLine
 10
0.0
 20
13.901352172522465
 30
0.0
 11
0.0
 21
-12.301366440466794
 31
0.0
  0
LINE
  5
4B1
100
AcDbEntity
  8
0
  6
CONTINUOUS
 62
               7
100
AcDbLine
 10
0.0
 20
33.499985045898441
 30
0.0
 11
0.0
 21
-13.95000754285941
 31
0.0
  0
LINE
  5
4B2
100
AcDbEntity
  8
0
  6
CONTINUOUS
 62
               4
100
AcDbLine
 10
3.1999969482421875
 20
-17.300002747070309
 30
0.0
 11
9.5999908447265625
 21
-17.300002747070309
 31
0.0
  0
LINE
  5
4B3
100
AcDbEntity
  8
0
  6
CONTINUOUS
 62
               4
100
AcDbLine
 10
0.3999977111816406
 20
14.299988097656254
 30
0.0
 11
6.7999954223632812
 21
14.299988097656254
 31
0.0
  0
LINE
  5
4B4
100
AcDbEntity
  8
0
  6
CONTINUOUS
 62
               4
100
AcDbLine
 10
7.2000007629394531
 20
11.299984282958988
 30
0.0
 11
7.2000007629394531
 21
13.89998847912598
 31
0.0
  0
LINE
  5
4B5
100
AcDbEntity
  8
0
  6
CONTINUOUS
 62
               4
100
AcDbLine
 10
2.8000030517578125
 20
-14.300018005859371
 30
0.0
 11
2.8000030517578125
 21
-16.900008850585934
 31
0.0
  0
LINE
  5
4B6
100
AcDbEntity
  8
0
  6
CONTINUOUS
 62
               4
100
AcDbLine
 10
1.1999969482421875
 20
-12.700011902343746
 30
0.0
 11
0.3999977111816406
 21
-12.700011902343746
 31
0.0
  0
LINE
  5
4B7
100
AcDbEntity
  8
0
  6
CONTINUOUS
 62
               4
100
AcDbLine
 10
8.7999916076660156
 20
9.6999915308837927
 30
0.0
 11
9.5999946594238281
 21
9.6999915308837927
 31
0.0
  0
LINE
  5
4B8
100
AcDbEntity
  8
0
  6
CONTINUOUS
 62
               4
100
AcDbLine
 10
7.398950965482527
 20
-15.101055256208539
 30
0.0
 11
8.601033113734502
 21
-13.898973209284506
 31
0.0
  0
LINE
  5
4B9
100
AcDbEntity
  8
0
  6
CONTINUOUS
 62
               4
100
AcDbLine
 10
7.3989551801668654
 20
-13.898962588278934
 30
0.0
 11
8.6010346310203545
 21
-15.101041937804709
 31
0.0
  0
LINE
  5
4BA
100
AcDbEntity
  8
0
  6
CONTINUOUS
 62
               4
100
AcDbLine
 10
1.3989662180941309
 20
12.101033361581202
 30
0.0
 11
2.6010483663461059
 21
10.898951314657168
 31
0.0
  0
LINE
  5
4BB
100
AcDbEntity
  8
0
  6
CONTINUOUS
 62
               4
100
AcDbLine
 10
1.3989562177350763
 20
10.898944707526695
 30
0.0
 11
2.6010383659870513
 21
12.101026754450729
 31
0.0
  0
ARC
  5
4BC
100
AcDbEntity
  8
0
  6
CONTINUOUS
 62
               4
100
AcDbCircle
 10
0.3999977111816406
 20
-12.300002747070309
 30
0.0
 40
0.4000000357627869
100
AcDbArc
 50
179.99996402782131
 51
270.00000068324533
  0
ARC
  5
4BD
100
AcDbEntity
  8
0
  6
CONTINUOUS
 62
               4
100
AcDbCircle
 10
0.3999977111816406
 20
13.89998847912598
 30
0.0
 40
0.4000000357627869
100
AcDbArc
 50
89.999982013910653
 51
179.99996402782131
  0
ARC
  5
4BE
100
AcDbEntity
  8
0
  6
CONTINUOUS
 62
               4
100
AcDbCircle
 10
6.7999954223632812
 20
13.89998847912598
 30
0.0
 40
0.4000000357627869
100
AcDbArc
 50
0.0
 51
89.999982013910653
  0
ARC
  5
4BF
100
AcDbEntity
  8
0
  6
CONTINUOUS
 62
               4
100
AcDbCircle
 10
3.1999969482421875
 20
-16.900008850585934
 30
0.0
 40
0.4000000357627869
100
AcDbArc
 50
179.99996402782131
 51
270.00000068324533
  0
ARC
  5
4C0
100
AcDbEntity
  8
0
  6
CONTINUOUS
 62
               4
100
AcDbCircle
 10
8.7999954223632812
 20
11.299984282958988
 30
0.0
 40
1.5999994277954102
100
AcDbArc
 50
179.99996402782131
 51
270.00000068324533
  0
ARC
  5
4C1
100
AcDbEntity
  8
0
  6
CONTINUOUS
 62
               4
100
AcDbCircle
 10
1.1999969482421875
 20
-14.300002747070309
 30
0.0
 40
1.5999994277954102
100
AcDbArc
 50
0.0
 51
89.999982013910653
  0
CIRCLE
  5
4C2
100
AcDbEntity
  8
0
  6
CONTINUOUS
 62
               4
100
AcDbCircle
 10
7.9999961853027344
 20
-14.500014954101559
 30
0.0
 40
1.3999996185302734
  0
CIRCLE
  5
4C3
100
AcDbEntity
  8
0
  6
CONTINUOUS
 62
               4
100
AcDbCircle
 10
2.0
 20
11.499985045898441
 30
0.0
 40
1.3999996185302734
  0
CIRCLE
  5
4C4
100
AcDbEntity
  8
0
  6
CONTINUOUS
 62
               4
100
AcDbCircle
 10
7.9999961853027344
 20
-14.500014954101559
 30
0.0
 40
1.25
  0
CIRCLE
  5
4C5
100
AcDbEntity
  8
0
  6
CONTINUOUS
 62
               4
100
AcDbCircle
 10
2.0
 20
11.499985045898441
 30
0.0
 40
1.25
  0
CIRCLE
  5
4C6
100
AcDbEntity
  8
0
  6
CONTINUOUS
 62
               4
100
AcDbCircle
 10
5.0
 20
3.9999850458984412
 30
0.0
 40
3.0500000000000003
  0
CIRCLE
  5
4C7
100
AcDbEntity
  8
0
  6
CONTINUOUS
 62
               4
100
AcDbCircle
 10
5.0
 20
3.9999850458984412
 30
0.0
 40
2.0500000000000003
  0
LINE
  5
4C8
100
AcDbEntity
  8
0
  6
CONTINUOUS
 62
               4
100
AcDbLine
 10
9.5
 20
3.2999850458984241
 30
0.0
 11
9.5
 21
4.6999850458984582
 31
0.0
  0
LINE
  5
4C9
100
AcDbEntity
  8
0
  6
CONTINUOUS
 62
               4
100
AcDbLine
 10
0.5
 20
4.6999850458984582
 30
0.0
 11
0.1804864708800551
 21
4.8844562679455947
 31
0.0
  0
LINE
  5
4CA
100
AcDbEntity
  8
0
  6
CONTINUOUS
 62
               4
100
AcDbLine
 10
0.5
 20
3.2999850458984241
 30
0.0
 11
0.5
 21
4.6999850458984582
 31
0.0
  0
LINE
  5
4CB
100
AcDbEntity
  8
0
  6
CONTINUOUS
 62
               4
100
AcDbLine
 10
0.5
 20
3.2999850458984241
 30
0.0
 11
0.1804864708800551
 21
3.1155138238512876
 31
0.0
  0
CIRCLE
  5
4CC
100
AcDbEntity
  8
0
  6
CONTINUOUS
 62
               4
100
AcDbCircle
 10
5.0
 20
-7.0000149541015588
 30
0.0
 40
3.0500000000000003
  0
CIRCLE
  5
4CD
100
AcDbEntity
  8
0
  6
CONTINUOUS
 62
               4
100
AcDbCircle
 10
5.0
 20
-7.0000149541015588
 30
0.0
 40
2.0500000000000003
  0
LINE
  5
4CE
100
AcDbEntity
  8
0
  6
CONTINUOUS
 62
               4
100
AcDbLine
 10
0.5
 20
-6.3000149541015418
 30
0.0
 11
0.1804864708800551
 21
-6.1155437320544053
 31
0.0
  0
LINE
  5
4CF
100
AcDbEntity
  8
0
  6
CONTINUOUS
 62
               4
100
AcDbLine
 10
0.5
 20
-7.7000149541015759
 30
0.0
 11
0.5
 21
-6.3000149541015418
 31
0.0
  0
LINE
  5
4D0
100
AcDbEntity
  8
0
  6
CONTINUOUS
 62
               4
100
AcDbLine
 10
0.5
 20
-7.7000149541015759
 30
0.0
 11
0.1804864708800551
 21
-7.8844861761487124
 31
0.0
  0
LINE
  5
4D1
100
AcDbEntity
  8
0
  6
CONTINUOUS
 62
               4
100
AcDbLine
 10
9.5
 20
-7.7000149541015759
 30
0.0
 11
9.5
 21
-6.3000149541015418
 31
0.0
  0
ARC
  5
4D2
100
AcDbEntity
  8
0
  6
CONTINUOUS
 62
               4
100
AcDbCircle
 10
6.1499999999999773
 20
-1.2761404264534093
 30
0.0
 40
0.4
100
AcDbArc
 50
102.29604620064622
 51
180.0
  0
LINE
  5
4D3
100
AcDbEntity
  8
0
  6
CONTINUOUS
 62
               4
100
AcDbLine
 10
5.75
 20
-1.7238894817497084
 30
0.0
 11
5.75
 21
-1.2761404264534093
 31
0.0
  0
ARC
  5
4D4
100
AcDbEntity
  8
0
  6
CONTINUOUS
 62
               4
100
AcDbCircle
 10
6.1499999999999773
 20
-1.7238894817497084
 30
0.0
 40
0.4
100
AcDbArc
 50
180.0
 51
257.70395379935377
  0
ARC
  5
4D5
100
AcDbEntity
  8
0
  6
CONTINUOUS
 62
               4
100
AcDbCircle
 10
3.8500000000000227
 20
-1.7238894817497084
 30
0.0
 40
0.4
100
AcDbArc
 50
282.29604620064623
 51
0.0
  0
LINE
  5
4D6
100
AcDbEntity
  8
0
  6
CONTINUOUS
 62
               4
100
AcDbLine
 10
4.25
 20
-1.7238894817497084
 30
0.0
 11
4.25
 21
-1.2761404264534093
 31
0.0
  0
ARC
  5
4D7
100
AcDbEntity
  8
0
  6
CONTINUOUS
 62
               4
100
AcDbCircle
 10
3.8500000000000227
 20
-1.2761404264534093
 30
0.0
 40
0.4
100
AcDbArc
 50
0.0
 51
77.703953799353798
  0
ARC
  5
4D8
100
AcDbEntity
  8
0
  6
CONTINUOUS
 62
               7
100
AcDbCircle
 10
4.9000000357627869
 20
30.199981994140629
 30
0.0
 40
3.0
100
AcDbArc
 50
271.91023065164512
 51
0.0
  0
ARC
  5
4D9
100
AcDbEntity
  8
0
  6
CONTINUOUS
 62
               7
100
AcDbCircle
 10
5.0
 20
30.199981994140629
 30
0.0
 40
3.0
100
AcDbArc
 50
266.17746163595666
 51
3.822566595416411
  0
ARC
  5
4DA
100
AcDbEntity
  8
0
  6
CONTINUOUS
 62
               7
100
AcDbCircle
 10
5.0999999642372131
 20
30.199981994140629
 30
0.0
 40
3.0
100
AcDbArc
 50
268.08980532053351
 51
0.0
  0
CIRCLE
  5
4DB
100
AcDbEntity
  8
0
  6
CONTINUOUS
 62
               4
100
AcDbCircle
 10
1.1999969482421875
 20
-14.300018005859371
 30
0.0
 40
1.25
  0
ARC
  5
4DC
100
AcDbEntity
  8
0
  6
CONTINUOUS
 62
               7
100
AcDbCircle
 10
0.399993896484375
 20
14.899978942382816
 30
0.0
 40
0.4000000357627869
100
AcDbArc
 50
179.99996402782131
 51
270.00000068324533
  0
ARC
  5
4DD
100
AcDbEntity
  8
0
  6
CONTINUOUS
 62
               7
100
AcDbCircle
 10
0.399993896484375
 20
-32.100005798828121
 30
0.0
 40
0.4000000357627869
100
AcDbArc
 50
179.99996402782131
 51
269.99994604173196
  0
CIRCLE
  5
4DE
100
AcDbEntity
  8
0
  6
CONTINUOUS
 62
               7
100
AcDbCircle
 10
5.0
 20
30.199981994140629
 30
0.0
 40
1.9499998092651367
  0
CIRCLE
  5
4DF
100
AcDbEntity
  8
0
  6
CONTINUOUS
 62
               7
100
AcDbCircle
 10
5.0
 20
30.199981994140629
 30
0.0
 40
2.0
  0
LINE
  5
4E0
100
AcDbEntity
  8
0
  6
CONTINUOUS
 62
               7
100
AcDbLine
 10
4.9999932098562567
 20
27.19995839867029
 30
0.0
 11
5.9999952627968014
 21
26.932008715616988
 31
0.0
  0
LINE
  5
4E1
100
AcDbEntity
  8
0
  6
CONTINUOUS
 62
               7
100
AcDbLine
 10
5.0
 20
26.699981994140629
 30
0.0
 11
5.0
 21
27.699981994140629
 31
0.0
  0
LINE
  5
4E2
100
AcDbEntity
  8
0
  6
CONTINUOUS
 62
               7
100
AcDbLine
 10
7.5
 20
30.199981994140629
 30
0.0
 11
8.5
 21
30.199981994140629
 31
0.0
  0
LINE
  5
4E3
100
AcDbEntity
  8
0
  6
CONTINUOUS
 62
               4
100
AcDbLine
 10
8.198934089321483
 20
10.698927377687554
 30
0.0
 11
9.4010135401749721
 21
11.901006727213328
 31
0.0
  0
LINE
  5
4E4
100
AcDbEntity
  8
0
  6
CONTINUOUS
 62
               4
100
AcDbLine
 10
8.1990034798945999
 20
11.901050205904042
 30
0.0
 11
9.401082930748089
 21
10.698970856378267
 31
0.0
  0
LINE
  5
4E5
100
AcDbEntity
  8
0
  6
CONTINUOUS
 62
               4
100
AcDbLine
 10
0.0
 20
33.499985045898441
 30
0.0
 11
0.0
 21
57.499985045898441
 31
0.0
  0
LINE
  5
4E6
100
AcDbEntity
  8
0
  6
CONTINUOUS
 62
               4
100
AcDbLine
 10
1.8010208976666036
 20
-14.901055022365242
 30
0.0
 11
0.5989416494685429
 21
-13.698975470184038
 31
0.0
  0
LINE
  5
4E7
100
AcDbEntity
  8
0
  6
CONTINUOUS
 62
               4
100
AcDbLine
 10
1.8010358685778556
 20
-13.698975352523618
 30
0.0
 11
0.598956215068938
 21
-14.901054499393965
 31
0.0
  0
LINE
  5
4E8
100
AcDbEntity
  8
0
  6
CONTINUOUS
 62
               7
100
AcDbLine
 10
0.399993896484375
 20
-32.500014954101559
 30
0.0
 11
9.600006103515625
 21
-32.500014954101559
 31
0.0
  0
LINE
  5
4E9
100
AcDbEntity
  8
0
  6
CONTINUOUS
 62
               7
100
AcDbLine
 10
0.3000030517578125
 20
-19.500014954101559
 30
0.0
 11
0.0
 21
-19.500014954101559
 31
0.0
  0
LINE
  5
4EA
100
AcDbEntity
  8
0
  6
CONTINUOUS
 62
               7
100
AcDbLine
 10
0.0
 20
-23.500030212890621
 30
0.0
 11
0.3000030517578125
 21
-23.500030212890621
 31
0.0
  0
LINE
  5
4EB
100
AcDbEntity
  8
0
  6
CONTINUOUS
 62
               7
100
AcDbLine
 10
0.3000030517578125
 20
-25.500014954101559
 30
0.0
 11
0.3000030517578125
 21
-17.500030212890621
 31
0.0
  0
LINE
  5
4EC
100
AcDbEntity
  8
0
  6
CONTINUOUS
 62
               7
100
AcDbLine
 10
9.6999969482421875
 20
-25.500014954101559
 30
0.0
 11
9.6999969482421875
 21
-17.500030212890621
 31
0.0
  0
LINE
  5
4ED
100
AcDbEntity
  8
0
  6
CONTINUOUS
 62
               7
100
AcDbLine
 10
0.6999969482421875
 20
-25.100021057617184
 30
0.0
 11
9.3000030517578125
 21
-25.100021057617184
 31
0.0
  0
LINE
  5
4EE
100
AcDbEntity
  8
0
  6
CONTINUOUS
 62
               7
100
AcDbLine
 10
0.6999969482421875
 20
-25.100021057617184
 30
0.0
 11
0.6999969482421875
 21
-17.900024109374996
 31
0.0
  0
LINE
  5
4EF
100
AcDbEntity
  8
0
  6
CONTINUOUS
 62
               7
100
AcDbLine
 10
0.6999969482421875
 20
-17.900024109374996
 30
0.0
 11
9.3000030517578125
 21
-17.900024109374996
 31
0.0
  0
LINE
  5
4F0
100
AcDbEntity
  8
0
  6
CONTINUOUS
 62
               7
100
AcDbLine
 10
9.3000030517578125
 20
-25.100021057617184
 30
0.0
 11
9.3000030517578125
 21
-17.900024109374996
 31
0.0
  0
LINE
  5
4F1
100
AcDbEntity
  8
0
  6
CONTINUOUS
 62
               7
100
AcDbLine
 10
9.2999586079113215
 20
-17.900025137142208
 30
0.0
 11
9.6999612241834257
 21
-17.500022588305498
 31
0.0
  0
LINE
  5
4F2
100
AcDbEntity
  8
0
  6
CONTINUOUS
 62
               7
100
AcDbLine
 10
9.3000011593703675
 20
-25.10000688556697
 30
0.0
 11
9.7000037082070776
 21
-25.500009501839074
 31
0.0
  0
LINE
  5
4F3
100
AcDbEntity
  8
0
  6
CONTINUOUS
 62
               7
100
AcDbLine
 10
0.6999726084322901
 20
-25.10001695023179
 30
0.0
 11
0.2999807817541296
 21
-25.500008709476376
 31
0.0
  0
LINE
  5
4F4
100
AcDbEntity
  8
0
  6
CONTINUOUS
 62
               7
100
AcDbLine
 10
0.7000055841290305
 20
-17.899981253848225
 30
0.0
 11
0.3000138248844451
 21
-17.499989427170064
 31
0.0
  0
LINE
  5
4F5
100
AcDbEntity
  8
0
  6
CONTINUOUS
 62
               7
100
AcDbLine
 10
0.0
 20
-32.100021057617184
 30
0.0
 11
0.0
 21
-14.650024109374996
 31
0.0
  0
LINE
  5
4F6
100
AcDbEntity
  8
0
  6
CONTINUOUS
 62
               7
100
AcDbLine
 10
3.073211669921875
 20
30.499985045898441
 30
0.0
 11
6.926788330078125
 21
30.499985045898441
 31
0.0
  0
LINE
  5
4F7
100
AcDbEntity
  8
0
  6
CONTINUOUS
 62
               7
100
AcDbLine
 10
3.073211669921875
 20
29.899978942382816
 30
0.0
 11
6.926788330078125
 21
29.899978942382816
 31
0.0
  0
LINE
  5
4F8
100
AcDbEntity
  8
0
  6
CONTINUOUS
 62
               2
100
AcDbLine
 10
2.5
 20
30.199981994140629
 30
0.0
 11
7.5
 21
30.199981994140629
 31
0.0
  0
LINE
  5
4F9
100
AcDbEntity
  8
0
  6
CONTINUOUS
 62
               7
100
AcDbLine
 10
0.0
 20
21.999985045898441
 30
0.0
 11
10.0
 21
21.999985045898441
 31
0.0
  0
LINE
  5
4FA
100
AcDbEntity
  8
0
  6
CONTINUOUS
 62
               7
100
AcDbLine
 10
0.0
 20
23.999985045898441
 30
0.0
 11
10.0
 21
23.999985045898441
 31
0.0
  0
LINE
  5
4FB
100
AcDbEntity
  8
0
  6
CONTINUOUS
 62
               4
100
AcDbLine
 10
0.0
 20
57.499985045898441
 30
0.0
 11
10.0
 21
57.499985045898441
 31
0.0
  0
LINE
  5
4FC
100
AcDbEntity
  8
0
  6
CONTINUOUS
 62
               7
100
AcDbLine
 10
0.0
 20
33.499985045898441
 30
0.0
 11
10.0
 21
33.499985045898441
 31
0.0
  0
LINE
  5
4FD
100
AcDbEntity
  8
0
  6
CONTINUOUS
 62
               2
100
AcDbLine
 10
9.9499969482421875
 20
61.999985045898441
 30
0.0
 11
0.0500030517578125
 21
61.999985045898441
 31
0.0
  0
LINE
  5
4FE
100
AcDbEntity
  8
0
  6
CONTINUOUS
 62
               7
100
AcDbLine
 10
0.0
 20
14.499985045898441
 30
0.0
 11
10.0
 21
14.499985045898441
 31
0.0
  0
LINE
  5
4FF
100
AcDbEntity
  8
0
  6
CONTINUOUS
 62
               7
100
AcDbLine
 10
0.0
 20
-17.500014954101559
 30
0.0
 11
10.0
 21
-17.500014954101559
 31
0.0
  0
LINE
  5
500
100
AcDbEntity
  8
0
  6
CONTINUOUS
 62
               7
100
AcDbLine
 10
0.0
 20
-25.500014954101559
 30
0.0
 11
10.0
 21
-25.500014954101559
 31
0.0
  0
LINE
  5
501
100
AcDbEntity
  8
0
  6
CONTINUOUS
 62
               7
100
AcDbLine
 10
10.0
 20
-19.500014954101559
 30
0.0
 11
9.6999969482421875
 21
-19.500014954101559
 31
0.0
  0
LINE
  5
502
100
AcDbEntity
  8
0
  6
CONTINUOUS
 62
               7
100
AcDbLine
 10
9.6999969482421875
 20
-23.500030212890621
 30
0.0
 11
10.0
 21
-23.500030212890621
 31
0.0
  0
ARC
  5
503
100
AcDbEntity
  8
0
  6
CONTINUOUS
 62
               7
100
AcDbCircle
 10
9.600006103515625
 20
-32.100005798828121
 30
0.0
 40
0.4000000357627869
100
AcDbArc
 50
270.00001798608935
 51
0.00001366037834
  0
ARC
  5
504
100
AcDbEntity
  8
0
  6
CONTINUOUS
 62
               7
100
AcDbCircle
 10
9.600006103515625
 20
14.899978942382816
 30
0.0
 40
0.4000000357627869
100
AcDbArc
 50
270.00001798608935
 51
0.0
  0
CIRCLE
  5
505
100
AcDbEntity
  8
0
  6
CONTINUOUS
 62
               4
100
AcDbCircle
 10
8.8000030517578125
 20
11.299972838867191
 30
0.0
 40
1.25
  0
LINE
  5
506
100
AcDbEntity
  8
0
  6
CONTINUOUS
 62
               4
100
AcDbLine
 10
9.5
 20
-6.3000149541015418
 30
0.0
 11
9.8195135291199449
 21
-6.1155437320544053
 31
0.0
  0
LINE
  5
507
100
AcDbEntity
  8
0
  6
CONTINUOUS
 62
               4
100
AcDbLine
 10
9.5
 20
-7.7000149541015759
 30
0.0
 11
9.8195135291199449
 21
-7.8844861761487124
 31
0.0
  0
ARC
  5
508
100
AcDbEntity
  8
0
  6
CONTINUOUS
 62
               4
100
AcDbCircle
 10
5.0
 20
-7.0000149541015588
 30
0.0
 40
4.9000000000000004
100
AcDbArc
 50
190.39913703155764
 51
349.60086296844236
  0
ARC
  5
509
100
AcDbEntity
  8
0
  6
CONTINUOUS
 62
               4
100
AcDbCircle
 10
5.0
 20
-7.0000149541015588
 30
0.0
 40
4.9000000000000004
100
AcDbArc
 50
10.399137031557654
 51
169.60086296844239
  0
CIRCLE
  5
50A
100
AcDbEntity
  8
0
  6
CONTINUOUS
 62
               4
100
AcDbCircle
 10
5.0
 20
-7.0000149541015588
 30
0.0
 40
5.0
  0
ARC
  5
50B
100
AcDbEntity
  8
0
  6
CONTINUOUS
 62
               4
100
AcDbCircle
 10
5.0
 20
3.9999850458984412
 30
0.0
 40
4.9000000000000004
100
AcDbArc
 50
190.39913703155764
 51
349.60086296844236
  0
LINE
  5
50C
100
AcDbEntity
  8
0
  6
CONTINUOUS
 62
               4
100
AcDbLine
 10
9.5
 20
3.2999850458984241
 30
0.0
 11
9.8195135291199449
 21
3.1155138238512876
 31
0.0
  0
LINE
  5
50D
100
AcDbEntity
  8
0
  6
CONTINUOUS
 62
               4
100
AcDbLine
 10
9.5
 20
4.6999850458984582
 30
0.0
 11
9.8195135291199449
 21
4.8844562679455947
 31
0.0
  0
ARC
  5
50E
100
AcDbEntity
  8
0
  6
CONTINUOUS
 62
               4
100
AcDbCircle
 10
5.0
 20
3.9999850458984412
 30
0.0
 40
4.9000000000000004
100
AcDbArc
 50
10.399137031557654
 51
169.60086296844239
  0
CIRCLE
  5
50F
100
AcDbEntity
  8
0
  6
CONTINUOUS
 62
               4
100
AcDbCircle
 10
5.0
 20
3.9999850458984412
 30
0.0
 40
5.0
  0
ARC
  5
510
100
AcDbEntity
  8
0
  6
CONTINUOUS
 62
               4
100
AcDbCircle
 10
9.5999946594238281
 20
-16.900008850585934
 30
0.0
 40
0.4000000357627869
100
AcDbArc
 50
270.00001798608935
 51
0.0
  0
ARC
  5
511
100
AcDbEntity
  8
0
  6
CONTINUOUS
 62
               4
100
AcDbCircle
 10
9.5999946594238281
 20
9.2999861903076209
 30
0.0
 40
0.4000000357627869
100
AcDbArc
 50
0.0
 51
89.999982013910653
  0
LINE
  5
512
100
AcDbEntity
  8
0
  6
CONTINUOUS
 62
             200
100
AcDbLine
 10
1.0000038969683374
 20
81.481720937209914
 30
0.0
 11
5.000012108730516
 21
82.553519916252711
 31
0.0
  0
LINE
  5
513
100
AcDbEntity
  8
0
  6
CONTINUOUS
 62
             200
100
AcDbLine
 10
1.0000085901501734
 20
80.446446027713549
 30
0.0
 11
5.0000020630541258
 21
81.518241057491153
 31
0.0
  0
ARC
  5
514
100
AcDbEntity
  8
0
  6
CONTINUOUS
 62
               4
100
AcDbCircle
 10
0.5500030517578125
 20
66.000000304687504
 30
0.0
 40
0.5
100
AcDbArc
 50
89.999982013910653
 51
179.99996402782131
  0
ARC
  5
515
100
AcDbEntity
  8
0
  6
CONTINUOUS
 62
               4
100
AcDbCircle
 10
9.45001220703125
 20
65.999985045898441
 30
0.0
 40
0.5
100
AcDbArc
 50
359.99995901886496
 51
89.999982013910653
  0
LINE
  5
516
100
AcDbEntity
  8
0
  6
CONTINUOUS
 62
               4
100
AcDbLine
 10
9.0
 20
71.000000304687504
 30
0.0
 11
9.0
 21
77.499985045898441
 31
0.0
  0
LINE
  5
517
100
AcDbEntity
  8
0
  6
CONTINUOUS
 62
               4
100
AcDbLine
 10
1.0
 20
71.000000304687504
 30
0.0
 11
1.0
 21
77.499985045898441
 31
0.0
  0
LINE
  5
518
100
AcDbEntity
  8
0
  6
CONTINUOUS
 62
               4
100
AcDbLine
 10
0.100006103515625
 20
71.000000304687504
 30
0.0
 11
0.100006103515625
 21
77.499985045898441
 31
0.0
  0
LINE
  5
519
100
AcDbEntity
  8
0
  6
CONTINUOUS
 62
               4
100
AcDbLine
 10
9.899993896484375
 20
71.000000304687504
 30
0.0
 11
9.899993896484375
 21
77.499985045898441
 31
0.0
  0
LINE
  5
51A
100
AcDbEntity
  8
0
  6
CONTINUOUS
 62
               4
100
AcDbLine
 10
2.285003662109375
 20
77.499985045898441
 30
0.0
 11
2.285003662109375
 21
80.790756530273441
 31
0.0
  0
LINE
  5
51B
100
AcDbEntity
  8
0
  6
CONTINUOUS
 62
               4
100
AcDbLine
 10
3.7150115966796875
 20
77.499985045898441
 30
0.0
 11
3.7150115966796875
 21
81.173935241210941
 31
0.0
  0
LINE
  5
51C
100
AcDbEntity
  8
0
  6
CONTINUOUS
 62
               4
100
AcDbLine
 10
2.285003662109375
 20
81.826034850585941
 30
0.0
 11
2.285003662109375
 21
85.499985045898441
 31
0.0
  0
LINE
  5
51D
100
AcDbEntity
  8
0
  6
CONTINUOUS
 62
               4
100
AcDbLine
 10
3.7150115966796875
 20
82.209213561523441
 30
0.0
 11
3.7150115966796875
 21
85.499985045898441
 31
0.0
  0
LINE
  5
51E
100
AcDbEntity
  8
0
  6
CONTINUOUS
 62
               4
100
AcDbLine
 10
9.0500030517578125
 20
70.000000304687504
 30
0.0
 11
9.0500030517578125
 21
71.000000304687504
 31
0.0
  0
LINE
  5
51F
100
AcDbEntity
  8
0
  6
CONTINUOUS
 62
               4
100
AcDbLine
 10
0.9499969482421875
 20
70.000000304687504
 30
0.0
 11
0.9499969482421875
 21
71.000000304687504
 31
0.0
  0
LINE
  5
520
100
AcDbEntity
  8
0
  6
CONTINUOUS
 62
               4
100
AcDbLine
 10
0.95001220703125
 20
68.999985045898441
 30
0.0
 11
1.5
 21
68.999985045898441
 31
0.0
  0
LINE
  5
521
100
AcDbEntity
  8
0
  6
CONTINUOUS
 62
               4
100
AcDbLine
 10
0.95001220703125
 20
69.999985045898441
 30
0.0
 11
1.5
 21
69.999985045898441
 31
0.0
  0
LINE
  5
522
100
AcDbEntity
  8
0
  6
CONTINUOUS
 62
               4
100
AcDbLine
 10
8.5
 20
68.999985045898441
 30
0.0
 11
9.0500030517578125
 21
68.999985045898441
 31
0.0
  0
LINE
  5
523
100
AcDbEntity
  8
0
  6
CONTINUOUS
 62
               4
100
AcDbLine
 10
8.5
 20
69.999985045898441
 30
0.0
 11
9.0500030517578125
 21
69.999985045898441
 31
0.0
  0
LINE
  5
524
100
AcDbEntity
  8
0
  6
CONTINUOUS
 62
               4
100
AcDbLine
 10
8.5
 20
70.999985045898441
 30
0.0
 11
9.9499969482421875
 21
70.999985045898441
 31
0.0
  0
LINE
  5
525
100
AcDbEntity
  8
0
  6
CONTINUOUS
 62
               4
100
AcDbLine
 10
0.100006103515625
 20
77.499985045898441
 30
0.0
 11
9.9000091552734375
 21
77.499985045898441
 31
0.0
  0
LINE
  5
526
100
AcDbEntity
  8
0
  6
CONTINUOUS
 62
               4
100
AcDbLine
 10
1.5
 20
75.999985045898441
 30
0.0
 11
8.5
 21
75.999985045898441
 31
0.0
  0
LINE
  5
527
100
AcDbEntity
  8
0
  6
CONTINUOUS
 62
               4
100
AcDbLine
 10
1.5
 20
70.556137389648441
 30
0.0
 11
8.5
 21
70.556137389648441
 31
0.0
  0
LINE
  5
528
100
AcDbEntity
  8
0
  6
CONTINUOUS
 62
               4
100
AcDbLine
 10
1.5
 20
66.998443908203129
 30
0.0
 11
8.5
 21
66.998443908203129
 31
0.0
  0
LINE
  5
529
100
AcDbEntity
  8
0
  6
CONTINUOUS
 62
               4
100
AcDbLine
 10
1.5
 20
66.998443908203129
 30
0.0
 11
1.5
 21
77.499985045898441
 31
0.0
  0
LINE
  5
52A
100
AcDbEntity
  8
0
  6
CONTINUOUS
 62
               4
100
AcDbLine
 10
8.5
 20
66.998443908203129
 30
0.0
 11
8.5
 21
77.499985045898441
 31
0.0
  0
LINE
  5
52B
100
AcDbEntity
  8
0
  6
CONTINUOUS
 62
               4
100
AcDbLine
 10
9.0500030517578125
 20
66.499985045898441
 30
0.0
 11
9.0500030517578125
 21
69.000000304687504
 31
0.0
  0
LINE
  5
52C
100
AcDbEntity
  8
0
  6
CONTINUOUS
 62
               4
100
AcDbLine
 10
0.9499969482421875
 20
66.500000304687504
 30
0.0
 11
0.9499969482421875
 21
69.000000304687504
 31
0.0
  0
LINE
  5
52D
100
AcDbEntity
  8
0
  6
CONTINUOUS
 62
               4
100
AcDbLine
 10
0.0500030517578125
 20
70.999985045898441
 30
0.0
 11
1.5
 21
70.999985045898441
 31
0.0
  0
LINE
  5
52E
100
AcDbEntity
  8
0
  6
CONTINUOUS
 62
               4
100
AcDbLine
 10
2.285003662109375
 20
85.499985045898441
 30
0.0
 11
3.7150115966796875
 21
85.499985045898441
 31
0.0
  0
LINE
  5
52F
100
AcDbEntity
  8
0
  6
CONTINUOUS
 62
               4
100
AcDbLine
 10
9.5
 20
66.499985045898441
 30
0.0
 11
0.5
 21
66.499985045898441
 31
0.0
  0
LINE
  5
530
100
AcDbEntity
  8
0
  6
CONTINUOUS
 62
               4
100
AcDbLine
 10
0.0500030517578125
 20
57.500000304687504
 30
0.0
 11
0.0500030517578125
 21
71.000000304687504
 31
0.0
  0
LINE
  5
531
100
AcDbEntity
  8
0
  6
CONTINUOUS
 62
               4
100
AcDbLine
 10
9.9499969482421875
 20
57.499985045898441
 30
0.0
 11
9.9499969482421875
 21
71.000000304687504
 31
0.0
  0
LINE
  5
532
100
AcDbEntity
  8
0
  6
CONTINUOUS
 62
               2
100
AcDbLine
 10
5.0
 20
-34.395153062045424
 30
0.0
 11
5.0
 21
80.239985045898436
 31
0.0
  0
LINE
  5
533
100
AcDbEntity
  8
0
  6
CONTINUOUS
 62
             200
100
AcDbLine
 10
-1.0
 20
3.9999850458984412
 30
0.0
 11
11.0
 21
3.9999850458984412
 31
0.0
  0
LINE
  5
534
100
AcDbEntity
  8
0
  6
CONTINUOUS
 62
             200
100
AcDbLine
 10
-1.0
 20
-7.0000149541015588
 30
0.0
 11
11.0
 21
-7.0000149541015588
 31
0.0
  0
LINE
  5
535
100
AcDbEntity
  8
0
  6
CONTINUOUS
 62
               4
100
AcDbLine
 10
2.600006103515625
 20
90.499985045898441
 30
0.0
 11
3.399993896484375
 21
90.499985045898441
 31
0.0
  0
ENDBLK
  5
536
100
AcDbEntity
  8
0
100
AcDbBlockEnd
  0
BLOCK
  5
537
100
AcDbEntity
  8
0
100
AcDbBlockBegin
  2
F10MN-17
 70
               0
 10
0.0
 20
0.0
 30
0.0
  3
F10MN-17
  1

  0
LINE
  5
538
100
AcDbEntity
  8
0
  6
CONTINUOUS
 62
               4
100
AcDbLine
 10
36.599999999999966
 20
22.001762999999997
 30
0.0
 11
35.0
 21
22.001762999999997
 31
0.0
  0
LINE
  5
539
100
AcDbEntity
  8
0
  6
CONTINUOUS
 62
               7
100
AcDbLine
 10
34.996279296875002
 20
-32.09999079117226
 30
0.0
 11
34.996279296875002
 21
-30.500000000000014
 31
0.0
  0
LINE
  5
53A
100
AcDbEntity
  8
0
  6
CONTINUOUS
 62
               7
100
AcDbLine
 10
61.996294555664065
 20
23.999985045898441
 30
0.0
 11
60.696291503906252
 21
23.999985045898441
 31
0.0
  0
LINE
  5
53B
100
AcDbEntity
  8
0
  6
CONTINUOUS
 62
               2
100
AcDbLine
 10
63.996294555664065
 20
30.199997252929691
 30
0.0
 11
61.296282348632815
 21
30.199997252929691
 31
0.0
  0
LINE
  5
53C
100
AcDbEntity
  8
0
  6
CONTINUOUS
 62
               7
100
AcDbLine
 10
62.996294555664065
 20
28.249985045898441
 30
0.0
 11
62.996294555664065
 21
29.899994201171879
 31
0.0
  0
LINE
  5
53D
100
AcDbEntity
  8
0
  6
CONTINUOUS
 62
               7
100
AcDbLine
 10
62.996294555664065
 20
28.250000304687504
 30
0.0
 11
61.996294555664065
 21
28.250000304687504
 31
0.0
  0
LINE
  5
53E
100
AcDbEntity
  8
0
  6
CONTINUOUS
 62
               7
100
AcDbLine
 10
62.996279296875002
 20
32.149994201171879
 30
0.0
 11
61.996294555664065
 21
32.149994201171879
 31
0.0
  0
LINE
  5
53F
100
AcDbEntity
  8
0
  6
CONTINUOUS
 62
               7
100
AcDbLine
 10
62.39628845214844
 20
29.899994201171879
 30
0.0
 11
62.39628845214844
 21
30.499985045898441
 31
0.0
  0
LINE
  5
540
100
AcDbEntity
  8
0
  6
CONTINUOUS
 62
               7
100
AcDbLine
 10
62.996294555664065
 20
29.899994201171879
 30
0.0
 11
62.39628845214844
 21
29.899994201171879
 31
0.0
  0
LINE
  5
541
100
AcDbEntity
  8
0
  6
CONTINUOUS
 62
               7
100
AcDbLine
 10
62.996294555664065
 20
30.500000304687504
 30
0.0
 11
62.39628845214844
 21
30.500000304687504
 31
0.0
  0
LINE
  5
542
100
AcDbEntity
  8
0
  6
CONTINUOUS
 62
               7
100
AcDbLine
 10
62.996294555664065
 20
30.499985045898441
 30
0.0
 11
62.996294555664065
 21
32.149994201171879
 31
0.0
  0
LINE
  5
543
100
AcDbEntity
  8
0
  6
CONTINUOUS
 62
               7
100
AcDbLine
 10
61.996294555664065
 20
14.899994201171879
 30
0.0
 11
61.996294555664065
 21
33.499985045898441
 31
0.0
  0
LINE
  5
544
100
AcDbEntity
  8
0
  6
CONTINUOUS
 62
               7
100
AcDbLine
 10
59.996296114324252
 20
-17.89999288783433
 30
0.0
 11
59.596289687952378
 21
-17.499994115379693
 31
0.0
  0
LINE
  5
545
100
AcDbEntity
  8
0
  6
CONTINUOUS
 62
               7
100
AcDbLine
 10
59.996296420117289
 20
-25.100005284620735
 30
0.0
 11
59.596294781658401
 21
-25.500008844988358
 31
0.0
  0
LINE
  5
546
100
AcDbEntity
  8
0
  6
CONTINUOUS
 62
               7
100
AcDbLine
 10
59.996294555664065
 20
-25.099990540039059
 30
0.0
 11
59.996294555664065
 21
-17.899997406494137
 31
0.0
  0
LINE
  5
547
100
AcDbEntity
  8
0
  6
CONTINUOUS
 62
               7
100
AcDbLine
 10
53.996294555664065
 20
14.500000304687504
 30
0.0
 11
53.996294555664065
 21
-17.499999695312496
 31
0.0
  0
LINE
  5
548
100
AcDbEntity
  8
0
  6
CONTINUOUS
 62
               7
100
AcDbLine
 10
59.59630065917969
 20
-17.499999695312496
 30
0.0
 11
34.996279296875002
 21
-17.499999695312496
 31
0.0
  0
LINE
  5
549
100
AcDbEntity
  8
0
  6
CONTINUOUS
 62
               7
100
AcDbLine
 10
61.59630065917969
 20
14.500000304687504
 30
0.0
 11
34.996279296875002
 21
14.500000304687504
 31
0.0
  0
LINE
  5
54A
100
AcDbEntity
  8
0
  6
CONTINUOUS
 62
               7
100
AcDbLine
 10
59.59630065917969
 20
-25.499999695312496
 30
0.0
 11
34.996279296875002
 21
-25.499999695312496
 31
0.0
  0
LINE
  5
54B
100
AcDbEntity
  8
0
  6
CONTINUOUS
 62
               7
100
AcDbLine
 10
58.996294555664065
 20
-32.099990540039059
 30
0.0
 11
58.996294555664065
 21
-25.499999695312496
 31
0.0
  0
LINE
  5
54C
100
AcDbEntity
  8
0
  6
CONTINUOUS
 62
               7
100
AcDbLine
 10
58.59630065917969
 20
-32.499999695312496
 30
0.0
 11
35.39628845214844
 21
-32.499999695312496
 31
0.0
  0
LINE
  5
54D
100
AcDbEntity
  8
0
  6
CONTINUOUS
 62
               7
100
AcDbLine
 10
61.996294555664065
 20
22.000000304687504
 30
0.0
 11
34.996279296875002
 21
22.000000304687504
 31
0.0
  0
LINE
  5
54E
100
AcDbEntity
  8
0
  6
CONTINUOUS
 62
               7
100
AcDbLine
 10
53.796297607421877
 20
-32.499999695312496
 30
0.0
 11
53.796297607421877
 21
-31.499999695312496
 31
0.0
  0
LINE
  5
54F
100
AcDbEntity
  8
0
  6
CONTINUOUS
 62
               7
100
AcDbLine
 10
53.796297607421877
 20
-31.499999695312496
 30
0.0
 11
50.596285400390627
 21
-31.499999695312496
 31
0.0
  0
LINE
  5
550
100
AcDbEntity
  8
0
  6
CONTINUOUS
 62
               7
100
AcDbLine
 10
58.996294555664065
 20
-23.499999695312496
 30
0.0
 11
56.996294555664065
 21
-23.499999695312496
 31
0.0
  0
LINE
  5
551
100
AcDbEntity
  8
0
  6
CONTINUOUS
 62
               7
100
AcDbLine
 10
58.996294555664065
 20
-19.499999695312496
 30
0.0
 11
56.996294555664065
 21
-19.499999695312496
 31
0.0
  0
LINE
  5
552
100
AcDbEntity
  8
0
  6
CONTINUOUS
 62
               7
100
AcDbLine
 10
57.996294555664065
 20
-23.600000076782223
 30
0.0
 11
57.996294555664065
 21
-23.499999695312496
 31
0.0
  0
LINE
  5
553
100
AcDbEntity
  8
0
  6
CONTINUOUS
 62
               7
100
AcDbLine
 10
56.996294555664065
 20
-25.499999695312496
 30
0.0
 11
56.996294555664065
 21
-23.499999695312496
 31
0.0
  0
LINE
  5
554
100
AcDbEntity
  8
0
  6
CONTINUOUS
 62
               7
100
AcDbLine
 10
57.996294555664065
 20
-19.499999695312496
 30
0.0
 11
57.996294555664065
 21
-19.39999931384277
 31
0.0
  0
LINE
  5
555
100
AcDbEntity
  8
0
  6
CONTINUOUS
 62
               7
100
AcDbLine
 10
56.996294555664065
 20
-19.499999695312496
 30
0.0
 11
56.996294555664065
 21
-17.499995880615231
 31
0.0
  0
LINE
  5
556
100
AcDbEntity
  8
0
  6
CONTINUOUS
 62
               7
100
AcDbLine
 10
57.096285400390627
 20
-25.499999695312496
 30
0.0
 11
57.096285400390627
 21
-23.600000076782223
 31
0.0
  0
LINE
  5
557
100
AcDbEntity
  8
0
  6
CONTINUOUS
 62
               7
100
AcDbLine
 10
59.596285400390627
 20
-25.500014954101559
 30
0.0
 11
59.596285400390627
 21
-17.499995880615231
 31
0.0
  0
LINE
  5
558
100
AcDbEntity
  8
0
  6
CONTINUOUS
 62
               7
100
AcDbLine
 10
59.596285400390627
 20
-23.600000076782223
 30
0.0
 11
57.096285400390627
 21
-23.600000076782223
 31
0.0
  0
LINE
  5
559
100
AcDbEntity
  8
0
  6
CONTINUOUS
 62
               7
100
AcDbLine
 10
59.596285400390627
 20
-19.39999931384277
 30
0.0
 11
57.096285400390627
 21
-19.39999931384277
 31
0.0
  0
LINE
  5
55A
100
AcDbEntity
  8
0
  6
CONTINUOUS
 62
               7
100
AcDbLine
 10
57.096285400390627
 20
-19.39999931384277
 30
0.0
 11
57.096285400390627
 21
-17.499999695312496
 31
0.0
  0
LINE
  5
55B
100
AcDbEntity
  8
0
  6
CONTINUOUS
 62
               7
100
AcDbLine
 10
58.996294555664065
 20
-23.600000076782223
 30
0.0
 11
58.996294555664065
 21
-19.39999931384277
 31
0.0
  0
LINE
  5
55C
100
AcDbEntity
  8
0
  6
CONTINUOUS
 62
               4
100
AcDbLine
 10
54.496294555664065
 20
-13.549995117675778
 30
0.0
 11
54.496294555664065
 21
-15.049995117675778
 31
0.0
  0
LINE
  5
55D
100
AcDbEntity
  8
0
  6
CONTINUOUS
 62
               7
100
AcDbLine
 10
50.596285400390627
 20
-32.499999695312496
 30
0.0
 11
50.596285400390627
 21
-31.499999695312496
 31
0.0
  0
LINE
  5
55E
100
AcDbEntity
  8
0
  6
CONTINUOUS
 62
               7
100
AcDbLine
 10
35.996279296875002
 20
22.000000304687504
 30
0.0
 11
35.996279296875002
 21
23.999985045898441
 31
0.0
  0
LINE
  5
55F
100
AcDbEntity
  8
0
  6
CONTINUOUS
 62
               7
100
AcDbLine
 10
38.496279296875002
 20
22.000000304687504
 30
0.0
 11
38.496279296875002
 21
23.999985045898441
 31
0.0
  0
LINE
  5
560
100
AcDbEntity
  8
0
  6
CONTINUOUS
 62
               7
100
AcDbLine
 10
57.696291503906252
 20
22.000000304687504
 30
0.0
 11
57.696291503906252
 21
23.999985045898441
 31
0.0
  0
LINE
  5
561
100
AcDbEntity
  8
0
  6
CONTINUOUS
 62
               7
100
AcDbLine
 10
60.696291503906252
 20
22.000000304687504
 30
0.0
 11
60.696291503906252
 21
23.999985045898441
 31
0.0
  0
LINE
  5
562
100
AcDbEntity
  8
0
  6
CONTINUOUS
 62
               7
100
AcDbLine
 10
35.996279296875002
 20
23.999985045898441
 30
0.0
 11
34.996279296875002
 21
23.999985045898441
 31
0.0
  0
LINE
  5
563
100
AcDbEntity
  8
0
  6
CONTINUOUS
 62
               7
100
AcDbLine
 10
57.696291503906252
 20
23.999985045898441
 30
0.0
 11
38.496279296875002
 21
23.999985045898441
 31
0.0
  0
LINE
  5
564
100
AcDbEntity
  8
0
  6
CONTINUOUS
 62
               7
100
AcDbLine
 10
52.946291503906252
 20
-31.999999695312496
 30
0.0
 11
51.446291503906252
 21
-31.999999695312496
 31
0.0
  0
LINE
  5
565
100
AcDbEntity
  8
0
  6
CONTINUOUS
 62
               4
100
AcDbLine
 10
53.996294555664065
 20
-12.699993782531735
 30
0.0
 11
58.996294555664065
 21
-12.699993782531735
 31
0.0
  0
ARC
  5
566
100
AcDbEntity
  8
0
  6
CONTINUOUS
 62
               7
100
AcDbCircle
 10
35.39628845214844
 20
-32.099990540039059
 30
0.0
 40
0.4000000357627869
100
AcDbArc
 50
180.00003597217869
 51
270.00007262760272
  0
ARC
  5
567
100
AcDbEntity
  8
0
  6
CONTINUOUS
 62
               7
100
AcDbCircle
 10
58.59630065917969
 20
-32.099990540039059
 30
0.0
 40
0.4000000357627869
100
AcDbArc
 50
270.00007262760272
 51
0.0000409811350201
  0
ARC
  5
568
100
AcDbEntity
  8
0
  6
CONTINUOUS
 62
               7
100
AcDbCircle
 10
61.59630065917969
 20
14.899994201171879
 30
0.0
 40
0.4000000357627869
100
AcDbArc
 50
270.00007262760272
 51
0.0000409811350201
  0
ARC
  5
569
100
AcDbEntity
  8
0
  6
CONTINUOUS
 62
               4
100
AcDbCircle
 10
53.996294555664065
 20
-15.049995117675778
 30
0.0
 40
0.5
100
AcDbArc
 50
269.99996334457597
 51
359.99994535848663
  0
ARC
  5
56A
100
AcDbEntity
  8
0
  6
CONTINUOUS
 62
               4
100
AcDbCircle
 10
53.996294555664065
 20
-13.549995117675778
 30
0.0
 40
0.5
100
AcDbArc
 50
359.99994535848663
 51
89.999982013910653
  0
ARC
  5
56B
100
AcDbEntity
  8
0
  6
CONTINUOUS
 62
               7
100
AcDbCircle
 10
51.446291503906252
 20
-31.499999695312496
 30
0.0
 40
0.5
100
AcDbArc
 50
180.00003597217869
 51
270.00001798608935
  0
ARC
  5
56C
100
AcDbEntity
  8
0
  6
CONTINUOUS
 62
               7
100
AcDbCircle
 10
52.946291503906252
 20
-31.499999695312496
 30
0.0
 40
0.5
100
AcDbArc
 50
270.00001798608935
 51
0.0000546415133601
  0
LINE
  5
56D
100
AcDbEntity
  8
0
  6
CONTINUOUS
 62
               4
100
AcDbLine
 10
61.996294555664065
 20
33.499985045898441
 30
0.0
 11
61.996294555664065
 21
57.499985045898441
 31
0.0
  0
LINE
  5
56E
100
AcDbEntity
  8
0
  6
CONTINUOUS
 62
               4
100
AcDbLine
 10
34.996280822753931
 20
65.999985045898441
 30
0.0
 11
34.996280822753931
 21
62.530294681199649
 31
0.0
  0
LINE
  5
56F
100
AcDbEntity
  8
0
  6
CONTINUOUS
 62
               4
100
AcDbLine
 10
47.246280822753931
 20
57.999985045898441
 30
0.0
 11
47.246280822753931
 21
57.499985045898441
 31
0.0
  0
LINE
  5
570
100
AcDbEntity
  8
0
  6
CONTINUOUS
 62
               4
100
AcDbLine
 10
49.746280822753931
 20
57.999985045898441
 30
0.0
 11
49.746280822753931
 21
57.499985045898441
 31
0.0
  0
LINE
  5
571
100
AcDbEntity
  8
0
  6
CONTINUOUS
 62
               4
100
AcDbLine
 10
54.996280822753931
 20
59.899985045898418
 30
0.0
 11
54.996280822753931
 21
58.949985045898487
 31
0.0
  0
LINE
  5
572
100
AcDbEntity
  8
0
  6
CONTINUOUS
 62
               4
100
AcDbLine
 10
42.096280822753954
 20
59.899985045898418
 30
0.0
 11
42.096280822753954
 21
58.949985045898487
 31
0.0
  0
LINE
  5
573
100
AcDbEntity
  8
0
  6
CONTINUOUS
 62
               4
100
AcDbLine
 10
49.746280822753931
 20
57.999985045898441
 30
0.0
 11
47.246280822753931
 21
57.999985045898441
 31
0.0
  0
LINE
  5
574
100
AcDbEntity
  8
0
  6
CONTINUOUS
 62
               4
100
AcDbLine
 10
57.096280822753954
 20
59.899985045898418
 30
0.0
 11
54.996280822753931
 21
59.899985045898418
 31
0.0
  0
LINE
  5
575
100
AcDbEntity
  8
0
  6
CONTINUOUS
 62
               4
100
AcDbLine
 10
42.096280822753954
 20
59.899985045898418
 30
0.0
 11
39.996280822753931
 21
59.899985045898418
 31
0.0
  0
LINE
  5
576
100
AcDbEntity
  8
0
  6
CONTINUOUS
 62
               4
100
AcDbLine
 10
61.996280822753931
 20
61.679985045898448
 30
0.0
 11
61.996280822753931
 21
57.499985045898441
 31
0.0
  0
LINE
  5
577
100
AcDbEntity
  8
0
  6
CONTINUOUS
 62
               4
100
AcDbLine
 10
59.670301661317978
 20
66.499985045898441
 30
0.0
 11
46.096280822753954
 21
66.499985045898441
 31
0.0
  0
LINE
  5
578
100
AcDbEntity
  8
0
  6
CONTINUOUS
 62
               4
100
AcDbLine
 10
60.126280822753927
 20
66.204985045898482
 30
0.0
 11
61.866280822753936
 21
62.289985045898405
 31
0.0
  0
ARC
  5
579
100
AcDbEntity
  8
0
  6
CONTINUOUS
 62
               4
100
AcDbCircle
 10
59.670301661317978
 20
66.000084983344735
 30
0.0
 40
0.4999010215015999
100
AcDbArc
 50
24.197376208904824
 51
89.887774076865014
  0
ARC
  5
57A
100
AcDbEntity
  8
0
  6
CONTINUOUS
 62
               4
100
AcDbCircle
 10
60.498301218114477
 20
61.679595949827743
 30
0.0
 40
1.4979796551727449
100
AcDbArc
 50
0.0148824203654679
 51
24.046309772710739
  0
LINE
  5
57B
100
AcDbEntity
  8
0
  6
CONTINUOUS
 62
               4
100
AcDbLine
 10
57.096280822753954
 20
59.899985045898418
 30
0.0
 11
57.096280822753954
 21
58.949985045898487
 31
0.0
  0
LINE
  5
57C
100
AcDbEntity
  8
0
  6
CONTINUOUS
 62
               4
100
AcDbLine
 10
39.996280822753931
 20
59.899985045898418
 30
0.0
 11
39.996280822753931
 21
58.949985045898487
 31
0.0
  0
LINE
  5
57D
100
AcDbEntity
  8
0
  6
CONTINUOUS
 62
               4
100
AcDbLine
 10
42.096280822753954
 20
58.949985045898487
 30
0.0
 11
39.996280822753931
 21
58.949985045898487
 31
0.0
  0
LINE
  5
57E
100
AcDbEntity
  8
0
  6
CONTINUOUS
 62
               4
100
AcDbLine
 10
57.096280822753954
 20
58.949985045898487
 30
0.0
 11
54.996280822753931
 21
58.949985045898487
 31
0.0
  0
LINE
  5
57F
100
AcDbEntity
  8
0
  6
CONTINUOUS
 62
               4
100
AcDbLine
 10
46.096280822753954
 20
70.999985045898441
 30
0.0
 11
46.096280822753954
 21
66.499985045898441
 31
0.0
  0
LINE
  5
580
100
AcDbEntity
  8
0
  6
CONTINUOUS
 62
               4
100
AcDbLine
 10
37.496280822753931
 20
70.999985045898441
 30
0.0
 11
37.496280822753931
 21
66.499985045898441
 31
0.0
  0
LINE
  5
581
100
AcDbEntity
  8
0
  6
CONTINUOUS
 62
               4
100
AcDbLine
 10
37.496280822753931
 20
66.499985045898441
 30
0.0
 11
35.496280822753931
 21
66.499985045898441
 31
0.0
  0
ARC
  5
582
100
AcDbEntity
  8
0
  6
CONTINUOUS
 62
               4
100
AcDbCircle
 10
35.496280822753931
 20
65.999985045898441
 30
0.0
 40
0.5
100
AcDbArc
 50
90.0
 51
180.0
  0
LINE
  5
583
100
AcDbEntity
  8
0
  6
CONTINUOUS
 62
             200
100
AcDbLine
 10
44.811275165851669
 20
82.964449860977268
 30
0.0
 11
37.881265012332562
 21
78.963397956461861
 31
0.0
  0
LINE
  5
584
100
AcDbEntity
  8
0
  6
CONTINUOUS
 62
             200
100
AcDbLine
 10
44.811299714225981
 20
84.11909085583325
 30
0.0
 11
37.881270622662498
 21
80.118042292051953
 31
0.0
  0
LINE
  5
585
100
AcDbEntity
  8
0
  6
CONTINUOUS
 62
               4
100
AcDbLine
 10
39.381284484863329
 20
77.499985045898441
 30
0.0
 11
39.381284484863329
 21
79.829407042968754
 31
0.0
  0
LINE
  5
586
100
AcDbEntity
  8
0
  6
CONTINUOUS
 62
               4
100
AcDbLine
 10
40.811292419433641
 20
77.499985045898441
 30
0.0
 11
40.811292419433641
 21
80.655014342773441
 31
0.0
  0
LINE
  5
587
100
AcDbEntity
  8
0
  6
CONTINUOUS
 62
               4
100
AcDbLine
 10
39.696286926269579
 20
90.499985045898441
 30
0.0
 11
40.496289978027391
 21
90.499985045898441
 31
0.0
  0
LINE
  5
588
100
AcDbEntity
  8
0
  6
CONTINUOUS
 62
               4
100
AcDbLine
 10
39.696286926269579
 20
85.499985045898441
 30
0.0
 11
39.696286926269579
 21
90.499969787109379
 31
0.0
  0
LINE
  5
589
100
AcDbEntity
  8
0
  6
CONTINUOUS
 62
               4
100
AcDbLine
 10
40.496289978027391
 20
85.499985045898441
 30
0.0
 11
40.496289978027391
 21
90.499985045898441
 31
0.0
  0
LINE
  5
58A
100
AcDbEntity
  8
0
  6
CONTINUOUS
 62
               4
100
AcDbLine
 10
39.381284484863329
 20
85.499985045898441
 30
0.0
 11
40.811292419433641
 21
85.499985045898441
 31
0.0
  0
LINE
  5
58B
100
AcDbEntity
  8
0
  6
CONTINUOUS
 62
               4
100
AcDbLine
 10
39.381284484863329
 20
80.984100646484379
 30
0.0
 11
39.381284484863329
 21
85.499985045898441
 31
0.0
  0
LINE
  5
58C
100
AcDbEntity
  8
0
  6
CONTINUOUS
 62
               4
100
AcDbLine
 10
40.811292419433641
 20
81.809723205078129
 30
0.0
 11
40.811292419433641
 21
85.499985045898441
 31
0.0
  0
LINE
  5
58D
100
AcDbEntity
  8
0
  6
CONTINUOUS
 62
               7
100
AcDbLine
 10
34.996294555664065
 20
33.499985045898441
 30
0.0
 11
61.996294555664065
 21
33.499985045898441
 31
0.0
  0
LINE
  5
58E
100
AcDbEntity
  8
0
  6
CONTINUOUS
 62
               4
100
AcDbLine
 10
43.311292419433641
 20
83.253097838867191
 30
0.0
 11
43.311292419433641
 21
85.499985045898441
 31
0.0
  0
LINE
  5
58F
100
AcDbEntity
  8
0
  6
CONTINUOUS
 62
               4
100
AcDbLine
 10
41.881284484863329
 20
82.427475280273441
 30
0.0
 11
41.881284484863329
 21
85.499985045898441
 31
0.0
  0
LINE
  5
590
100
AcDbEntity
  8
0
  6
CONTINUOUS
 62
               4
100
AcDbLine
 10
43.311292419433641
 20
85.499985045898441
 30
0.0
 11
41.881284484863329
 21
85.499985045898441
 31
0.0
  0
LINE
  5
591
100
AcDbEntity
  8
0
  6
CONTINUOUS
 62
               4
100
AcDbLine
 10
41.881284484863329
 20
77.499985045898441
 30
0.0
 11
41.881284484863329
 21
81.272781676757816
 31
0.0
  0
LINE
  5
592
100
AcDbEntity
  8
0
  6
CONTINUOUS
 62
               4
100
AcDbLine
 10
43.311292419433641
 20
77.499985045898441
 30
0.0
 11
43.311292419433641
 21
82.098388976562504
 31
0.0
  0
LINE
  5
593
100
AcDbEntity
  8
0
  6
CONTINUOUS
 62
               4
100
AcDbLine
 10
42.996289978027391
 20
85.499985045898441
 30
0.0
 11
42.996289978027391
 21
90.499985045898441
 31
0.0
  0
LINE
  5
594
100
AcDbEntity
  8
0
  6
CONTINUOUS
 62
               4
100
AcDbLine
 10
42.196286926269579
 20
85.499985045898441
 30
0.0
 11
42.196286926269579
 21
90.499985045898441
 31
0.0
  0
LINE
  5
595
100
AcDbEntity
  8
0
  6
CONTINUOUS
 62
               4
100
AcDbLine
 10
42.996289978027391
 20
90.499985045898441
 30
0.0
 11
42.196286926269579
 21
90.499985045898441
 31
0.0
  0
LINE
  5
596
100
AcDbEntity
  8
0
  6
CONTINUOUS
 62
               4
100
AcDbLine
 10
48.146283874511766
 20
75.999985045898441
 30
0.0
 11
48.146283874511766
 21
77.499985045898441
 31
0.0
  0
LINE
  5
597
100
AcDbEntity
  8
0
  6
CONTINUOUS
 62
               4
100
AcDbLine
 10
46.146325334357982
 20
76.499943988800126
 30
0.0
 11
46.723677150121887
 21
77.499952693754906
 31
0.0
  0
LINE
  5
598
100
AcDbEntity
  8
0
  6
CONTINUOUS
 62
               4
100
AcDbLine
 10
46.146283874511766
 20
70.999985045898441
 30
0.0
 11
46.146283874511766
 21
77.499985045898441
 31
0.0
  0
LINE
  5
599
100
AcDbEntity
  8
0
  6
CONTINUOUS
 62
               4
100
AcDbLine
 10
47.146282124990478
 20
66.998435787657812
 30
0.0
 11
47.646281233867569
 21
70.556123871346657
 31
0.0
  0
LINE
  5
59A
100
AcDbEntity
  8
0
  6
CONTINUOUS
 62
               4
100
AcDbLine
 10
47.646283874511766
 20
70.556137389648441
 30
0.0
 11
47.646283874511766
 21
75.999985045898441
 31
0.0
  0
LINE
  5
59B
100
AcDbEntity
  8
0
  6
CONTINUOUS
 62
               4
100
AcDbLine
 10
37.146268615722704
 20
76.499985045898441
 30
0.0
 11
37.646268615722704
 21
76.499985045898441
 31
0.0
  0
LINE
  5
59C
100
AcDbEntity
  8
0
  6
CONTINUOUS
 62
               4
100
AcDbLine
 10
37.146283874511766
 20
76.499985045898441
 30
0.0
 11
37.146283874511766
 21
77.499985045898441
 31
0.0
  0
LINE
  5
59D
100
AcDbEntity
  8
0
  6
CONTINUOUS
 62
               4
100
AcDbLine
 10
37.646283874511766
 20
70.999985045898441
 30
0.0
 11
37.646283874511766
 21
76.499985045898441
 31
0.0
  0
LINE
  5
59E
100
AcDbEntity
  8
0
  6
CONTINUOUS
 62
               4
100
AcDbLine
 10
46.146281032161653
 20
66.998459197768582
 30
0.0
 11
46.096260478855413
 21
67.048479751074822
 31
0.0
  0
LINE
  5
59F
100
AcDbEntity
  8
0
  6
CONTINUOUS
 62
               4
100
AcDbLine
 10
47.646276245117235
 20
75.999985045898441
 30
0.0
 11
48.146276245117235
 21
75.999985045898441
 31
0.0
  0
LINE
  5
5A0
100
AcDbEntity
  8
0
  6
CONTINUOUS
 62
               4
100
AcDbLine
 10
46.146283874511766
 20
68.498443908203129
 30
0.0
 11
46.146283874511766
 21
70.999985045898441
 31
0.0
  0
LINE
  5
5A1
100
AcDbEntity
  8
0
  6
CONTINUOUS
 62
               4
100
AcDbLine
 10
46.146283874511766
 20
66.998443908203129
 30
0.0
 11
47.146276245117235
 21
66.998443908203129
 31
0.0
  0
LINE
  5
5A2
100
AcDbEntity
  8
0
  6
CONTINUOUS
 62
               4
100
AcDbLine
 10
46.096280822753954
 20
68.498443908203129
 30
0.0
 11
46.146283874511766
 21
68.498443908203129
 31
0.0
  0
LINE
  5
5A3
100
AcDbEntity
  8
0
  6
CONTINUOUS
 62
               4
100
AcDbLine
 10
46.723630676269579
 20
77.499985045898441
 30
0.0
 11
48.146276245117235
 21
77.499985045898441
 31
0.0
  0
LINE
  5
5A4
100
AcDbEntity
  8
0
  6
CONTINUOUS
 62
               4
100
AcDbLine
 10
37.496280822753931
 20
70.999985045898441
 30
0.0
 11
46.146283874511766
 21
70.999985045898441
 31
0.0
  0
LINE
  5
5A5
100
AcDbEntity
  8
0
  6
CONTINUOUS
 62
               4
100
AcDbLine
 10
37.146268615722704
 20
77.499985045898441
 30
0.0
 11
46.146268615722704
 21
77.499985045898441
 31
0.0
  0
LINE
  5
5A6
100
AcDbEntity
  8
0
  6
CONTINUOUS
 62
               4
100
AcDbLine
 10
34.996280822753931
 20
57.499985045898441
 30
0.0
 11
61.996286926269534
 21
57.499985045898441
 31
0.0
  0
LINE
  5
5A7
100
AcDbEntity
  8
0
  6
CONTINUOUS
 62
               4
100
AcDbLine
 10
36.596294555664088
 20
50.499985045898441
 30
0.0
 11
36.596294555664088
 21
57.499985045898441
 31
0.0
  0
LINE
  5
5A8
100
AcDbEntity
  8
0
  6
CONTINUOUS
 62
               4
100
AcDbLine
 10
35.69629455566411
 20
50.499985045898441
 30
0.0
 11
35.69629455566411
 21
57.499985045898441
 31
0.0
  0
LINE
  5
5A9
100
AcDbEntity
  8
0
  6
CONTINUOUS
 62
               4
100
AcDbLine
 10
34.996280822753931
 20
50.499985045898441
 30
0.0
 11
36.596294555664088
 21
50.499985045898441
 31
0.0
  0
LINE
  5
5AA
100
AcDbEntity
  8
0
  6
CONTINUOUS
 62
             200
100
AcDbLine
 10
75.896294555664042
 20
4.0000003046875037
 30
0.0
 11
53.596294555664088
 21
4.0000003046875037
 31
0.0
  0
LINE
  5
5AB
100
AcDbEntity
  8
0
  6
CONTINUOUS
 62
               4
100
AcDbLine
 10
58.996294555664065
 20
13.900000304687481
 30
0.0
 11
58.996294555664065
 21
-1.4999996953124963
 31
0.0
  0
LINE
  5
5AC
100
AcDbEntity
  8
0
  6
CONTINUOUS
 62
               4
100
AcDbLine
 10
58.996294555664065
 20
-16.899999695312474
 30
0.0
 11
58.996294555664065
 21
-1.4999996953124963
 31
0.0
  0
LINE
  5
5AD
100
AcDbEntity
  8
0
  6
CONTINUOUS
 62
             200
100
AcDbLine
 10
75.896294555664042
 20
-6.9999996953124963
 30
0.0
 11
53.596294555664088
 21
-6.9999996953124963
 31
0.0
  0
LINE
  5
5AE
100
AcDbEntity
  8
0
  6
CONTINUOUS
 62
               4
100
AcDbLine
 10
63.996294555664065
 20
-11.999999695312496
 30
0.0
 11
63.896294555664042
 21
-11.899999695312474
 31
0.0
  0
LINE
  5
5AF
100
AcDbEntity
  8
0
  6
CONTINUOUS
 62
               4
100
AcDbLine
 10
63.896294555664042
 20
-11.899999695312474
 30
0.0
 11
63.796294555664019
 21
-11.999999695312496
 31
0.0
  0
LINE
  5
5B0
100
AcDbEntity
  8
0
  6
CONTINUOUS
 62
               4
100
AcDbLine
 10
63.796294555664019
 20
-11.999999695312496
 30
0.0
 11
58.996294555664065
 21
-11.999999695312496
 31
0.0
  0
LINE
  5
5B1
100
AcDbEntity
  8
0
  6
CONTINUOUS
 62
               4
100
AcDbLine
 10
63.896294555664042
 20
-2.0999996953125191
 30
0.0
 11
63.796294555664019
 21
-1.9999996953124963
 31
0.0
  0
LINE
  5
5B2
100
AcDbEntity
  8
0
  6
CONTINUOUS
 62
               4
100
AcDbLine
 10
63.996294555664065
 20
-1.9999996953124963
 30
0.0
 11
63.896294555664042
 21
-2.0999996953125191
 31
0.0
  0
LINE
  5
5B3
100
AcDbEntity
  8
0
  6
CONTINUOUS
 62
               4
100
AcDbLine
 10
63.796294555664019
 20
-1.9999996953124963
 30
0.0
 11
58.996294555664065
 21
-1.9999996953124963
 31
0.0
  0
LINE
  5
5B4
100
AcDbEntity
  8
0
  6
CONTINUOUS
 62
               4
100
AcDbLine
 10
63.996294555664065
 20
-11.999999695312496
 30
0.0
 11
63.996294555664065
 21
-1.9999996953124963
 31
0.0
  0
LINE
  5
5B5
100
AcDbEntity
  8
0
  6
CONTINUOUS
 62
               4
100
AcDbLine
 10
63.896294555664042
 20
-11.899999695312474
 30
0.0
 11
63.896294555664042
 21
-2.0999996953125191
 31
0.0
  0
LINE
  5
5B6
100
AcDbEntity
  8
0
  6
CONTINUOUS
 62
               4
100
AcDbLine
 10
72.696294760570083
 20
-11.933974140178677
 30
0.0
 11
72.696294760570083
 21
-2.0660252504463159
 31
0.0
  0
LINE
  5
5B7
100
AcDbEntity
  8
0
  6
CONTINUOUS
 62
               4
100
AcDbLine
 10
72.658174555664061
 20
-11.999999695312496
 30
0.0
 11
72.658174555664061
 21
-1.9999996953124963
 31
0.0
  0
LINE
  5
5B8
100
AcDbEntity
  8
0
  6
CONTINUOUS
 62
               4
100
AcDbLine
 10
73.496294555664065
 20
-11.049999695312508
 30
0.0
 11
73.496294555664065
 21
-2.949999695312485
 31
0.0
  0
LINE
  5
5B9
100
AcDbEntity
  8
0
  6
CONTINUOUS
 62
               4
100
AcDbLine
 10
72.658174555664061
 20
-11.999999695312496
 30
0.0
 11
72.69629455566411
 21
-11.933974495312484
 31
0.0
  0
LINE
  5
5BA
100
AcDbEntity
  8
0
  6
CONTINUOUS
 62
               4
100
AcDbLine
 10
72.69629455566411
 20
-11.933974195312473
 30
0.0
 11
73.19629455566411
 21
-11.799999295312475
 31
0.0
  0
LINE
  5
5BB
100
AcDbEntity
  8
0
  6
CONTINUOUS
 62
               4
100
AcDbLine
 10
73.19629455566411
 20
-11.049999695312508
 30
0.0
 11
73.496294555664065
 21
-11.049999695312508
 31
0.0
  0
LINE
  5
5BC
100
AcDbEntity
  8
0
  6
CONTINUOUS
 62
               4
100
AcDbLine
 10
73.496294555664065
 20
-11.049999695312508
 30
0.0
 11
73.596294555664088
 21
-10.949999695312542
 31
0.0
  0
LINE
  5
5BD
100
AcDbEntity
  8
0
  6
CONTINUOUS
 62
               4
100
AcDbLine
 10
72.658174555664061
 20
-11.999999695312496
 30
0.0
 11
68.69629455566411
 21
-11.999999695312496
 31
0.0
  0
LINE
  5
5BE
100
AcDbEntity
  8
0
  6
CONTINUOUS
 62
               4
100
AcDbLine
 10
74.496294555664065
 20
-10.499999695312496
 30
0.0
 11
73.596294555664088
 21
-10.499999695312496
 31
0.0
  0
LINE
  5
5BF
100
AcDbEntity
  8
0
  6
CONTINUOUS
 62
               4
100
AcDbLine
 10
73.19629455566411
 20
-11.799999295312475
 30
0.0
 11
73.19629455566411
 21
-2.2000001006240808
 31
0.0
  0
LINE
  5
5C0
100
AcDbEntity
  8
0
  6
CONTINUOUS
 62
               4
100
AcDbLine
 10
73.596294555664088
 20
-10.949999695312542
 30
0.0
 11
73.596294555664088
 21
-3.0499996953125077
 31
0.0
  0
LINE
  5
5C1
100
AcDbEntity
  8
0
  6
CONTINUOUS
 62
               4
100
AcDbLine
 10
73.496294555664065
 20
-2.949999695312485
 30
0.0
 11
73.596294555664088
 21
-3.0499996953125077
 31
0.0
  0
LINE
  5
5C2
100
AcDbEntity
  8
0
  6
CONTINUOUS
 62
               4
100
AcDbLine
 10
73.19629455566411
 20
-2.949999695312485
 30
0.0
 11
73.496294555664065
 21
-2.949999695312485
 31
0.0
  0
LINE
  5
5C3
100
AcDbEntity
  8
0
  6
CONTINUOUS
 62
               4
100
AcDbLine
 10
72.69629455566411
 20
-2.0660251953125197
 30
0.0
 11
73.19629455566411
 21
-2.2000000953125181
 31
0.0
  0
LINE
  5
5C4
100
AcDbEntity
  8
0
  6
CONTINUOUS
 62
               4
100
AcDbLine
 10
72.658174555664061
 20
-1.9999996953124963
 30
0.0
 11
72.69629455566411
 21
-2.0660248953125091
 31
0.0
  0
LINE
  5
5C5
100
AcDbEntity
  8
0
  6
CONTINUOUS
 62
               4
100
AcDbLine
 10
68.69629455566411
 20
-11.999999695312496
 30
0.0
 11
68.496294555664065
 21
-11.799999695312508
 31
0.0
  0
LINE
  5
5C6
100
AcDbEntity
  8
0
  6
CONTINUOUS
 62
               4
100
AcDbLine
 10
68.69629455566411
 20
-1.9999996953124963
 30
0.0
 11
68.496294555664065
 21
-2.199999695312485
 31
0.0
  0
LINE
  5
5C7
100
AcDbEntity
  8
0
  6
CONTINUOUS
 62
               4
100
AcDbLine
 10
67.796294555664019
 20
-11.249999695312496
 30
0.0
 11
68.496294555664065
 21
-11.249999695312496
 31
0.0
  0
LINE
  5
5C8
100
AcDbEntity
  8
0
  6
CONTINUOUS
 62
               4
100
AcDbLine
 10
68.496294555664065
 20
-2.7499996953124963
 30
0.0
 11
67.796294555664019
 21
-2.7499996953124963
 31
0.0
  0
LINE
  5
5C9
100
AcDbEntity
  8
0
  6
CONTINUOUS
 62
               4
100
AcDbLine
 10
68.69629455566411
 20
-11.999999695312496
 30
0.0
 11
68.69629455566411
 21
-1.9999996953124963
 31
0.0
  0
LINE
  5
5CA
100
AcDbEntity
  8
0
  6
CONTINUOUS
 62
               4
100
AcDbLine
 10
68.496294555664065
 20
-11.799999695312508
 30
0.0
 11
68.496294555664065
 21
-2.199999695312485
 31
0.0
  0
LINE
  5
5CB
100
AcDbEntity
  8
0
  6
CONTINUOUS
 62
               4
100
AcDbLine
 10
67.796294555664019
 20
-11.799999695312508
 30
0.0
 11
67.596294555664088
 21
-11.999999695312496
 31
0.0
  0
LINE
  5
5CC
100
AcDbEntity
  8
0
  6
CONTINUOUS
 62
               4
100
AcDbLine
 10
67.796294555664019
 20
-2.199999695312485
 30
0.0
 11
67.596294555664088
 21
-1.9999996953124963
 31
0.0
  0
LINE
  5
5CD
100
AcDbEntity
  8
0
  6
CONTINUOUS
 62
               4
100
AcDbLine
 10
67.796294555664019
 20
-11.799999695312508
 30
0.0
 11
67.796294555664019
 21
-2.199999695312485
 31
0.0
  0
LINE
  5
5CE
100
AcDbEntity
  8
0
  6
CONTINUOUS
 62
               4
100
AcDbLine
 10
67.596294555664088
 20
-11.999999695312496
 30
0.0
 11
67.596294555664088
 21
-1.9999996953124963
 31
0.0
  0
LINE
  5
5CF
100
AcDbEntity
  8
0
  6
CONTINUOUS
 62
               4
100
AcDbLine
 10
67.596294555664088
 20
-1.9999996953124963
 30
0.0
 11
63.996294555664065
 21
-1.9999996953124963
 31
0.0
  0
LINE
  5
5D0
100
AcDbEntity
  8
0
  6
CONTINUOUS
 62
               4
100
AcDbLine
 10
67.596294555664088
 20
-11.999999695312496
 30
0.0
 11
63.996294555664065
 21
-11.999999695312496
 31
0.0
  0
LINE
  5
5D1
100
AcDbEntity
  8
0
  6
CONTINUOUS
 62
               4
100
AcDbLine
 10
75.296294555664019
 20
-11.899999695312474
 30
0.0
 11
74.496294555664065
 21
-11.899999695312474
 31
0.0
  0
ARC
  5
5D2
100
AcDbEntity
  8
0
  6
CONTINUOUS
 62
               4
100
AcDbCircle
 10
75.296294555664019
 20
-11.699999695312485
 30
0.0
 40
0.2
100
AcDbArc
 50
270.0
 51
0.0
  0
LINE
  5
5D3
100
AcDbEntity
  8
0
  6
CONTINUOUS
 62
               4
100
AcDbLine
 10
72.658174555664061
 20
-1.9999996953124963
 30
0.0
 11
68.69629455566411
 21
-1.9999996953124963
 31
0.0
  0
LINE
  5
5D4
100
AcDbEntity
  8
0
  6
CONTINUOUS
 62
               4
100
AcDbLine
 10
74.496294555664065
 20
-11.899999695312474
 30
0.0
 11
74.496294555664065
 21
-2.0999996893520319
 31
0.0
  0
LINE
  5
5D5
100
AcDbEntity
  8
0
  6
CONTINUOUS
 62
               4
100
AcDbLine
 10
74.496294555664065
 20
-3.4999996953124963
 30
0.0
 11
73.596294555664088
 21
-3.4999996953124963
 31
0.0
  0
ARC
  5
5D6
100
AcDbEntity
  8
0
  6
CONTINUOUS
 62
               4
100
AcDbCircle
 10
75.296294555664019
 20
-2.2999996953125077
 30
0.0
 40
0.2
100
AcDbArc
 50
0.0
 51
90.0
  0
LINE
  5
5D7
100
AcDbEntity
  8
0
  6
CONTINUOUS
 62
               4
100
AcDbLine
 10
75.296294555664019
 20
-2.0999996953125191
 30
0.0
 11
74.496294555664065
 21
-2.0999996953125191
 31
0.0
  0
LINE
  5
5D8
100
AcDbEntity
  8
0
  6
CONTINUOUS
 62
               4
100
AcDbLine
 10
75.496294555664065
 20
-11.699999695312485
 30
0.0
 11
75.496294555664065
 21
-2.2999997072334253
 31
0.0
  0
LINE
  5
5D9
100
AcDbEntity
  8
0
  6
CONTINUOUS
 62
               4
100
AcDbLine
 10
75.496294555664065
 20
8.7000003046874923
 30
0.0
 11
75.496294555664065
 21
-0.6999996833915674
 31
0.0
  0
LINE
  5
5DA
100
AcDbEntity
  8
0
  6
CONTINUOUS
 62
               4
100
AcDbLine
 10
75.296294555664019
 20
-0.8999996953124736
 30
0.0
 11
74.496294555664065
 21
-0.8999996953124736
 31
0.0
  0
ARC
  5
5DB
100
AcDbEntity
  8
0
  6
CONTINUOUS
 62
               4
100
AcDbCircle
 10
75.296294555664019
 20
-0.699999695312485
 30
0.0
 40
0.2
100
AcDbArc
 50
270.0
 51
0.0
  0
LINE
  5
5DC
100
AcDbEntity
  8
0
  6
CONTINUOUS
 62
               4
100
AcDbLine
 10
74.496294555664065
 20
0.5000003046875037
 30
0.0
 11
73.596294555664088
 21
0.5000003046875037
 31
0.0
  0
LINE
  5
5DD
100
AcDbEntity
  8
0
  6
CONTINUOUS
 62
               4
100
AcDbLine
 10
74.496294555664065
 20
8.9000003046874809
 30
0.0
 11
74.496294555664065
 21
-0.8999997012729608
 31
0.0
  0
LINE
  5
5DE
100
AcDbEntity
  8
0
  6
CONTINUOUS
 62
               4
100
AcDbLine
 10
72.658174555664061
 20
-0.9999996953124963
 30
0.0
 11
68.69629455566411
 21
-0.9999996953124963
 31
0.0
  0
ARC
  5
5DF
100
AcDbEntity
  8
0
  6
CONTINUOUS
 62
               4
100
AcDbCircle
 10
75.296294555664019
 20
8.7000003046874923
 30
0.0
 40
0.2
100
AcDbArc
 50
0.0
 51
90.0
  0
LINE
  5
5E0
100
AcDbEntity
  8
0
  6
CONTINUOUS
 62
               4
100
AcDbLine
 10
75.296294555664019
 20
8.9000003046874809
 30
0.0
 11
74.496294555664065
 21
8.9000003046874809
 31
0.0
  0
LINE
  5
5E1
100
AcDbEntity
  8
0
  6
CONTINUOUS
 62
               4
100
AcDbLine
 10
67.596294555664088
 20
9.0000003046875037
 30
0.0
 11
63.996294555664065
 21
9.0000003046875037
 31
0.0
  0
LINE
  5
5E2
100
AcDbEntity
  8
0
  6
CONTINUOUS
 62
               4
100
AcDbLine
 10
67.596294555664088
 20
-0.9999996953124963
 30
0.0
 11
63.996294555664065
 21
-0.9999996953124963
 31
0.0
  0
LINE
  5
5E3
100
AcDbEntity
  8
0
  6
CONTINUOUS
 62
               4
100
AcDbLine
 10
67.596294555664088
 20
9.0000003046875037
 30
0.0
 11
67.596294555664088
 21
-0.9999996953124963
 31
0.0
  0
LINE
  5
5E4
100
AcDbEntity
  8
0
  6
CONTINUOUS
 62
               4
100
AcDbLine
 10
67.796294555664019
 20
8.800000304687515
 30
0.0
 11
67.796294555664019
 21
-0.7999996953125077
 31
0.0
  0
LINE
  5
5E5
100
AcDbEntity
  8
0
  6
CONTINUOUS
 62
               4
100
AcDbLine
 10
67.796294555664019
 20
-0.7999996953125077
 30
0.0
 11
67.596294555664088
 21
-0.9999996953124963
 31
0.0
  0
LINE
  5
5E6
100
AcDbEntity
  8
0
  6
CONTINUOUS
 62
               4
100
AcDbLine
 10
67.796294555664019
 20
8.800000304687515
 30
0.0
 11
67.596294555664088
 21
9.0000003046875037
 31
0.0
  0
LINE
  5
5E7
100
AcDbEntity
  8
0
  6
CONTINUOUS
 62
               4
100
AcDbLine
 10
68.496294555664065
 20
8.800000304687515
 30
0.0
 11
68.496294555664065
 21
-0.7999996953125077
 31
0.0
  0
LINE
  5
5E8
100
AcDbEntity
  8
0
  6
CONTINUOUS
 62
               4
100
AcDbLine
 10
68.69629455566411
 20
9.0000003046875037
 30
0.0
 11
68.69629455566411
 21
-0.9999996953124963
 31
0.0
  0
LINE
  5
5E9
100
AcDbEntity
  8
0
  6
CONTINUOUS
 62
               4
100
AcDbLine
 10
68.496294555664065
 20
-0.2499996953124963
 30
0.0
 11
67.796294555664019
 21
-0.2499996953124963
 31
0.0
  0
LINE
  5
5EA
100
AcDbEntity
  8
0
  6
CONTINUOUS
 62
               4
100
AcDbLine
 10
67.796294555664019
 20
8.2500003046875037
 30
0.0
 11
68.496294555664065
 21
8.2500003046875037
 31
0.0
  0
LINE
  5
5EB
100
AcDbEntity
  8
0
  6
CONTINUOUS
 62
               4
100
AcDbLine
 10
68.69629455566411
 20
-0.9999996953124963
 30
0.0
 11
68.496294555664065
 21
-0.7999996953125077
 31
0.0
  0
LINE
  5
5EC
100
AcDbEntity
  8
0
  6
CONTINUOUS
 62
               4
100
AcDbLine
 10
68.69629455566411
 20
9.0000003046875037
 30
0.0
 11
68.496294555664065
 21
8.800000304687515
 31
0.0
  0
LINE
  5
5ED
100
AcDbEntity
  8
0
  6
CONTINUOUS
 62
               4
100
AcDbLine
 10
72.658174555664061
 20
-0.9999996953124963
 30
0.0
 11
72.69629455566411
 21
-0.9339744953124836
 31
0.0
  0
LINE
  5
5EE
100
AcDbEntity
  8
0
  6
CONTINUOUS
 62
               4
100
AcDbLine
 10
72.69629455566411
 20
-0.9339741953124729
 30
0.0
 11
73.19629455566411
 21
-0.7999992953124746
 31
0.0
  0
LINE
  5
5EF
100
AcDbEntity
  8
0
  6
CONTINUOUS
 62
               4
100
AcDbLine
 10
73.19629455566411
 20
-0.0499996953125077
 30
0.0
 11
73.496294555664065
 21
-0.0499996953125077
 31
0.0
  0
LINE
  5
5F0
100
AcDbEntity
  8
0
  6
CONTINUOUS
 62
               4
100
AcDbLine
 10
73.496294555664065
 20
-0.0499996953125077
 30
0.0
 11
73.596294555664088
 21
0.0500003046874582
 31
0.0
  0
LINE
  5
5F1
100
AcDbEntity
  8
0
  6
CONTINUOUS
 62
               4
100
AcDbLine
 10
73.596294555664088
 20
7.9500003046874923
 30
0.0
 11
73.596294555664088
 21
0.0500003046874582
 31
0.0
  0
LINE
  5
5F2
100
AcDbEntity
  8
0
  6
CONTINUOUS
 62
               4
100
AcDbLine
 10
73.19629455566411
 20
8.7999999046874819
 30
0.0
 11
73.19629455566411
 21
-0.7999992900009119
 31
0.0
  0
LINE
  5
5F3
100
AcDbEntity
  8
0
  6
CONTINUOUS
 62
               4
100
AcDbLine
 10
74.496294555664065
 20
7.5000003046875037
 30
0.0
 11
73.596294555664088
 21
7.5000003046875037
 31
0.0
  0
LINE
  5
5F4
100
AcDbEntity
  8
0
  6
CONTINUOUS
 62
               4
100
AcDbLine
 10
72.658174555664061
 20
9.0000003046875037
 30
0.0
 11
68.69629455566411
 21
9.0000003046875037
 31
0.0
  0
LINE
  5
5F5
100
AcDbEntity
  8
0
  6
CONTINUOUS
 62
               4
100
AcDbLine
 10
73.496294555664065
 20
8.050000304687515
 30
0.0
 11
73.596294555664088
 21
7.9500003046874923
 31
0.0
  0
LINE
  5
5F6
100
AcDbEntity
  8
0
  6
CONTINUOUS
 62
               4
100
AcDbLine
 10
73.19629455566411
 20
8.050000304687515
 30
0.0
 11
73.496294555664065
 21
8.050000304687515
 31
0.0
  0
LINE
  5
5F7
100
AcDbEntity
  8
0
  6
CONTINUOUS
 62
               4
100
AcDbLine
 10
72.69629455566411
 20
8.9339748046874803
 30
0.0
 11
73.19629455566411
 21
8.7999999046874819
 31
0.0
  0
LINE
  5
5F8
100
AcDbEntity
  8
0
  6
CONTINUOUS
 62
               4
100
AcDbLine
 10
72.658174555664061
 20
9.0000003046875037
 30
0.0
 11
72.69629455566411
 21
8.9339751046874909
 31
0.0
  0
LINE
  5
5F9
100
AcDbEntity
  8
0
  6
CONTINUOUS
 62
               4
100
AcDbLine
 10
73.496294555664065
 20
8.050000304687515
 30
0.0
 11
73.496294555664065
 21
-0.0499996953125077
 31
0.0
  0
LINE
  5
5FA
100
AcDbEntity
  8
0
  6
CONTINUOUS
 62
               4
100
AcDbLine
 10
72.658174555664061
 20
9.0000003046875037
 30
0.0
 11
72.658174555664061
 21
-0.9999996953124963
 31
0.0
  0
LINE
  5
5FB
100
AcDbEntity
  8
0
  6
CONTINUOUS
 62
               4
100
AcDbLine
 10
72.696294760570083
 20
8.9339747495536841
 30
0.0
 11
72.696294760570083
 21
-0.9339741401786768
 31
0.0
  0
LINE
  5
5FC
100
AcDbEntity
  8
0
  6
CONTINUOUS
 62
               4
100
AcDbLine
 10
63.896294555664042
 20
8.9000003046874809
 30
0.0
 11
63.896294555664042
 21
-0.8999996953124736
 31
0.0
  0
LINE
  5
5FD
100
AcDbEntity
  8
0
  6
CONTINUOUS
 62
               4
100
AcDbLine
 10
63.996294555664065
 20
9.0000003046875037
 30
0.0
 11
63.996294555664065
 21
-0.9999996953124963
 31
0.0
  0
LINE
  5
5FE
100
AcDbEntity
  8
0
  6
CONTINUOUS
 62
               4
100
AcDbLine
 10
63.796294555664019
 20
-11.999999695312496
 30
0.0
 11
63.796294555664019
 21
9.0000003046875037
 31
0.0
  0
LINE
  5
5FF
100
AcDbEntity
  8
0
  6
CONTINUOUS
 62
               4
100
AcDbLine
 10
63.796294555664019
 20
-0.9999996953124963
 30
0.0
 11
58.996294555664065
 21
-0.9999996953124963
 31
0.0
  0
LINE
  5
600
100
AcDbEntity
  8
0
  6
CONTINUOUS
 62
               4
100
AcDbLine
 10
63.996294555664065
 20
-0.9999996953124963
 30
0.0
 11
63.896294555664042
 21
-0.8999996953124736
 31
0.0
  0
LINE
  5
601
100
AcDbEntity
  8
0
  6
CONTINUOUS
 62
               4
100
AcDbLine
 10
63.896294555664042
 20
-0.8999996953124736
 30
0.0
 11
63.796294555664019
 21
-0.9999996953124963
 31
0.0
  0
LINE
  5
602
100
AcDbEntity
  8
0
  6
CONTINUOUS
 62
               4
100
AcDbLine
 10
63.796294555664019
 20
9.0000003046875037
 30
0.0
 11
58.996294555664065
 21
9.0000003046875037
 31
0.0
  0
LINE
  5
603
100
AcDbEntity
  8
0
  6
CONTINUOUS
 62
               4
100
AcDbLine
 10
63.896294555664042
 20
8.9000003046874809
 30
0.0
 11
63.796294555664019
 21
9.0000003046875037
 31
0.0
  0
LINE
  5
604
100
AcDbEntity
  8
0
  6
CONTINUOUS
 62
               4
100
AcDbLine
 10
63.996294555664065
 20
9.0000003046875037
 30
0.0
 11
63.896294555664042
 21
8.9000003046874809
 31
0.0
  0
LINE
  5
605
100
AcDbEntity
  8
0
  6
CONTINUOUS
 62
               4
100
AcDbLine
 10
58.596294555664088
 20
-17.299999695312508
 30
0.0
 11
53.996294555664065
 21
-17.299999695312508
 31
0.0
  0
ARC
  5
606
100
AcDbEntity
  8
0
  6
CONTINUOUS
 62
               4
100
AcDbCircle
 10
58.596294555664088
 20
-16.899999695312474
 30
0.0
 40
0.4
100
AcDbArc
 50
270.0
 51
0.0
  0
LINE
  5
607
100
AcDbEntity
  8
0
  6
CONTINUOUS
 62
               4
100
AcDbLine
 10
58.596294555664088
 20
14.300000304687515
 30
0.0
 11
53.996294555664065
 21
14.300000304687515
 31
0.0
  0
ARC
  5
608
100
AcDbEntity
  8
0
  6
CONTINUOUS
 62
               4
100
AcDbCircle
 10
58.596294555664088
 20
13.900000304687481
 30
0.0
 40
0.4
100
AcDbArc
 50
0.0
 51
90.0
  0
LINE
  5
609
100
AcDbEntity
  8
0
  6
CONTINUOUS
 62
               4
100
AcDbLine
 10
36.599999999999966
 20
-17.999999999999986
 30
0.0
 11
36.599999999999966
 21
22.0
 31
0.0
  0
LINE
  5
60A
100
AcDbEntity
  8
0
  6
CONTINUOUS
 62
               4
100
AcDbLine
 10
36.599999999999966
 20
22.0
 30
0.0
 11
35.0
 21
22.0
 31
0.0
  0
LINE
  5
60B
100
AcDbEntity
  8
0
  6
CONTINUOUS
 62
               4
100
AcDbLine
 10
36.599999999999966
 20
-17.999999999999986
 30
0.0
 11
35.0
 21
-17.999999999999986
 31
0.0
  0
LINE
  5
60C
100
AcDbEntity
  8
0
  6
CONTINUOUS
 62
               4
100
AcDbLine
 10
37.099999999999966
 20
12.050000000000011
 30
0.0
 11
37.099999999999966
 21
10.550000000000011
 31
0.0
  0
LINE
  5
60D
100
AcDbEntity
  8
0
  6
CONTINUOUS
 62
               4
100
AcDbLine
 10
37.099999999999966
 20
-13.549999999999997
 30
0.0
 11
37.099999999999966
 21
-15.049999999999997
 31
0.0
  0
ARC
  5
60E
100
AcDbEntity
  8
0
  6
CONTINUOUS
 62
               4
100
AcDbCircle
 10
36.600004576796209
 20
12.050004576796198
 30
0.0
 40
0.4999954232247482
100
AcDbArc
 50
359.99947553298745
 51
90.000524467012738
  0
ARC
  5
60F
100
AcDbEntity
  8
0
  6
CONTINUOUS
 62
               4
100
AcDbCircle
 10
36.599971008279852
 20
10.550028991720183
 30
0.0
 40
0.5000289925606449
100
AcDbArc
 50
270.00332201378779
 51
359.99667798621203
  0
ARC
  5
610
100
AcDbEntity
  8
0
  6
CONTINUOUS
 62
               4
100
AcDbCircle
 10
36.600001525206039
 20
-13.549998474793981
 30
0.0
 40
0.4999984747963009
100
AcDbArc
 50
359.99982522373057
 51
90.000174776269247
  0
ARC
  5
611
100
AcDbEntity
  8
0
  6
CONTINUOUS
 62
               4
100
AcDbCircle
 10
36.59997406005624
 20
-15.049974060056272
 30
0.0
 40
0.5000259406165815
100
AcDbArc
 50
270.00297234438585
 51
359.99702765561375
  0
ARC
  5
612
100
AcDbEntity
  8
0
  6
DASHED
 62
               7
100
AcDbCircle
 10
34.500073934956731
 20
-30.00007393495666
 30
0.0
 40
0.4999260705104662
100
AcDbArc
 50
269.99152642511825
 51
0.0084735748821464
  0
LINE
  5
613
100
AcDbEntity
  8
0
  6
DASHED
 62
               2
100
AcDbLine
 10
35.000244140627103
 20
-30.493539977463044
 30
0.0
 11
35.000244140627103
 21
-30.469705318800365
 31
0.0
  0
ENDBLK
  5
614
100
AcDbEntity
  8
0
100
AcDbBlockEnd
  0
BLOCK
  5
615
100
AcDbEntity
  8
0
100
AcDbBlockBegin
  2
F10MN-18
 70
               0
 10
0.0
 20
0.0
 30
0.0
  3
F10MN-18
  1

  0
LINE
  5
616
100
AcDbEntity
  8
0
  6
CONTINUOUS
 62
               4
100
AcDbLine
 10
10.250007629394531
 20
59.828945575524756
 30
0.0
 11
10.250007629394531
 21
58.600006103515653
 31
0.0
  0
LINE
  5
617
100
AcDbEntity
  8
0
  6
CONTINUOUS
 62
               4
100
AcDbLine
 10
10.250007629394531
 20
64.000000000000028
 30
0.0
 11
10.150007629394509
 21
63.900000000000034
 31
0.0
  0
LINE
  5
618
100
AcDbEntity
  8
0
  6
CONTINUOUS
 62
               4
100
AcDbLine
 10
10.150007629394509
 20
63.900000000000034
 30
0.0
 11
10.250007629394531
 21
63.800000000000011
 31
0.0
  0
LINE
  5
619
100
AcDbEntity
  8
0
  6
CONTINUOUS
 62
               4
100
AcDbLine
 10
10.250007629394531
 20
72.661880000000025
 30
0.0
 11
10.183982429394518
 21
72.700000000000017
 31
0.0
  0
LINE
  5
61A
100
AcDbEntity
  8
0
  6
CONTINUOUS
 62
               4
100
AcDbLine
 10
10.183982129394508
 20
72.700000000000017
 30
0.0
 11
10.05000722939451
 21
73.200000000000017
 31
0.0
  0
LINE
  5
61B
100
AcDbEntity
  8
0
  6
CONTINUOUS
 62
               4
100
AcDbLine
 10
9.3000076293944858
 20
73.200000000000017
 30
0.0
 11
9.3000076293944858
 21
73.500000000000028
 31
0.0
  0
LINE
  5
61C
100
AcDbEntity
  8
0
  6
CONTINUOUS
 62
               4
100
AcDbLine
 10
9.3000076293944858
 20
73.500000000000028
 30
0.0
 11
9.2000076293945199
 21
73.600000000000023
 31
0.0
  0
LINE
  5
61D
100
AcDbEntity
  8
0
  6
CONTINUOUS
 62
               4
100
AcDbLine
 10
10.250007629394531
 20
72.661880000000025
 30
0.0
 11
10.250007629394531
 21
68.700000000000045
 31
0.0
  0
LINE
  5
61E
100
AcDbEntity
  8
0
  6
CONTINUOUS
 62
               4
100
AcDbLine
 10
8.7500076293945313
 20
74.500000000000028
 30
0.0
 11
8.7500076293945313
 21
73.600000000000023
 31
0.0
  0
LINE
  5
61F
100
AcDbEntity
  8
0
  6
CONTINUOUS
 62
               4
100
AcDbLine
 10
10.250007629394531
 20
68.700000000000045
 30
0.0
 11
10.050007629394486
 21
68.500000000000028
 31
0.0
  0
LINE
  5
620
100
AcDbEntity
  8
0
  6
CONTINUOUS
 62
               4
100
AcDbLine
 10
9.5000076293945313
 20
67.800000000000011
 30
0.0
 11
9.5000076293945313
 21
68.500000000000028
 31
0.0
  0
LINE
  5
621
100
AcDbEntity
  8
0
  6
CONTINUOUS
 62
               4
100
AcDbLine
 10
10.050007629394486
 20
67.800000000000011
 30
0.0
 11
10.250007629394531
 21
67.600000000000023
 31
0.0
  0
LINE
  5
622
100
AcDbEntity
  8
0
  6
CONTINUOUS
 62
               4
100
AcDbLine
 10
10.250007629394531
 20
67.600000000000023
 30
0.0
 11
10.250007629394531
 21
64.000000000000028
 31
0.0
  0
LINE
  5
623
100
AcDbEntity
  8
0
  6
CONTINUOUS
 62
               4
100
AcDbLine
 10
10.150007629394509
 20
75.300000000000011
 30
0.0
 11
10.150007629394509
 21
74.500000000000028
 31
0.0
  0
ARC
  5
624
100
AcDbEntity
  8
0
  6
CONTINUOUS
 62
               4
100
AcDbCircle
 10
9.9500076293945199
 20
75.300000000000011
 30
0.0
 40
0.2
100
AcDbArc
 50
0.0
 51
90.0
  0
LINE
  5
625
100
AcDbEntity
  8
0
  6
CONTINUOUS
 62
               4
100
AcDbLine
 10
10.250007629394531
 20
63.800000000000011
 30
0.0
 11
10.250007629394531
 21
59.828945575524756
 31
0.0
  0
ARC
  5
626
100
AcDbEntity
  8
0
  6
CONTINUOUS
 62
               7
100
AcDbCircle
 10
9.850006103515625
 20
58.600006103515653
 30
0.0
 40
0.3999999761581421
100
AcDbArc
 50
0.0
 51
89.999982013910653
  0
LINE
  5
627
100
AcDbEntity
  8
0
  6
CONTINUOUS
 62
               7
100
AcDbLine
 10
10.250016738170416
 20
59.600009668082777
 30
0.0
 11
9.8500136835682497
 21
60.000011778589425
 31
0.0
  0
CIRCLE
  5
628
100
AcDbEntity
  8
0
  6
CONTINUOUS
 62
               7
100
AcDbCircle
 10
2.0500030517578125
 20
52.200012207031278
 30
0.0
 40
1.25
  0
LINE
  5
629
100
AcDbEntity
  8
0
  6
CONTINUOUS
 62
               7
100
AcDbLine
 10
1.4489583104796111
 20
52.801036041767503
 30
0.0
 11
2.6510377613331002
 21
51.598956692241728
 31
0.0
  0
LINE
  5
62A
100
AcDbEntity
  8
0
  6
CONTINUOUS
 62
               7
100
AcDbLine
 10
1.4489961752078671
 20
51.598924593199655
 30
0.0
 11
2.6510756260613562
 21
52.80100394272543
 31
0.0
  0
LINE
  5
62B
100
AcDbEntity
  8
0
  6
CONTINUOUS
 62
               7
100
AcDbLine
 10
0.25
 20
50.600006103515653
 30
0.0
 11
2.0500030517578125
 21
50.600006103515653
 31
0.0
  0
LINE
  5
62C
100
AcDbEntity
  8
0
  6
CONTINUOUS
 62
               7
100
AcDbLine
 10
0.25
 20
53.800003051757841
 30
0.0
 11
2.0500030517578125
 21
53.800003051757841
 31
0.0
  0
ARC
  5
62D
100
AcDbEntity
  8
0
  6
CONTINUOUS
 62
               7
100
AcDbCircle
 10
2.0500030517578125
 20
52.200012207031278
 30
0.0
 40
1.5999984741210938
100
AcDbArc
 50
270.00001798608935
 51
89.999982013910653
  0
LINE
  5
62E
100
AcDbEntity
  8
0
  6
CONTINUOUS
 62
               4
100
AcDbLine
 10
0.3500076293944971
 20
63.900000000000034
 30
0.0
 11
0.2500076293945313
 21
63.80000000000004
 31
0.0
  0
LINE
  5
62F
100
AcDbEntity
  8
0
  6
CONTINUOUS
 62
               4
100
AcDbLine
 10
0.2500076293945313
 20
64.000000000000028
 30
0.0
 11
0.3500076293944971
 21
63.900000000000034
 31
0.0
  0
LINE
  5
630
100
AcDbEntity
  8
0
  6
CONTINUOUS
 62
               4
100
AcDbLine
 10
1.2000076293945199
 20
73.500000000000028
 30
0.0
 11
1.3000076293944858
 21
73.600000000000023
 31
0.0
  0
LINE
  5
631
100
AcDbEntity
  8
0
  6
CONTINUOUS
 62
               4
100
AcDbLine
 10
1.2000076293945199
 20
73.200000000000045
 30
0.0
 11
1.2000076293945199
 21
73.500000000000028
 31
0.0
  0
LINE
  5
632
100
AcDbEntity
  8
0
  6
CONTINUOUS
 62
               4
100
AcDbLine
 10
0.3160331293945546
 20
72.700000000000045
 30
0.0
 11
0.450008029394553
 21
73.200000000000045
 31
0.0
  0
LINE
  5
633
100
AcDbEntity
  8
0
  6
CONTINUOUS
 62
               4
100
AcDbLine
 10
0.2500076293945313
 20
72.661880000000025
 30
0.0
 11
0.316032829394544
 21
72.700000000000045
 31
0.0
  0
LINE
  5
634
100
AcDbEntity
  8
0
  6
CONTINUOUS
 62
               4
100
AcDbLine
 10
0.2500076293945313
 20
68.700000000000045
 30
0.0
 11
0.4500076293945199
 21
68.500000000000028
 31
0.0
  0
LINE
  5
635
100
AcDbEntity
  8
0
  6
CONTINUOUS
 62
               4
100
AcDbLine
 10
1.0000076293945312
 20
68.500000000000028
 30
0.0
 11
1.0000076293945312
 21
67.800000000000011
 31
0.0
  0
LINE
  5
636
100
AcDbEntity
  8
0
  6
CONTINUOUS
 62
               4
100
AcDbLine
 10
0.4500076293945199
 20
67.800000000000011
 30
0.0
 11
0.2500076293945313
 21
67.600000000000023
 31
0.0
  0
LINE
  5
637
100
AcDbEntity
  8
0
  6
CONTINUOUS
 62
               4
100
AcDbLine
 10
0.2500076293945313
 20
67.600000000000023
 30
0.0
 11
0.2500076293945313
 21
64.000000000000028
 31
0.0
  0
LINE
  5
638
100
AcDbEntity
  8
0
  6
CONTINUOUS
 62
               4
100
AcDbLine
 10
0.2500076293945313
 20
72.661880000000025
 30
0.0
 11
0.2500076293945313
 21
68.700000000000045
 31
0.0
  0
LINE
  5
639
100
AcDbEntity
  8
0
  6
CONTINUOUS
 62
               4
100
AcDbLine
 10
1.7500076293945312
 20
74.500000000000028
 30
0.0
 11
1.7500076293945312
 21
73.600000000000023
 31
0.0
  0
ARC
  5
63A
100
AcDbEntity
  8
0
  6
CONTINUOUS
 62
               4
100
AcDbCircle
 10
0.5500076293944858
 20
75.300000000000011
 30
0.0
 40
0.2
100
AcDbArc
 50
90.0
 51
180.0
  0
LINE
  5
63B
100
AcDbEntity
  8
0
  6
CONTINUOUS
 62
               4
100
AcDbLine
 10
0.350007629394554
 20
75.300000000000011
 30
0.0
 11
0.350007629394554
 21
74.500000000000028
 31
0.0
  0
LINE
  5
63C
100
AcDbEntity
  8
0
  6
CONTINUOUS
 62
               4
100
AcDbLine
 10
0.2500076293945313
 20
63.800000000000011
 30
0.0
 11
0.2500076293945313
 21
58.600006354648826
 31
0.0
  0
ARC
  5
63D
100
AcDbEntity
  8
0
  6
CONTINUOUS
 62
               7
100
AcDbCircle
 10
0.649993896484375
 20
58.600006103515653
 30
0.0
 40
0.3999999761581421
100
AcDbArc
 50
89.999982013910653
 51
179.99996402782131
  0
LINE
  5
63E
100
AcDbEntity
  8
0
  6
CONTINUOUS
 62
               7
100
AcDbLine
 10
0.6499867377915507
 20
60.000052155133773
 30
0.0
 11
0.2499848633087822
 21
59.600048864507727
 31
0.0
  0
LINE
  5
63F
100
AcDbEntity
  8
0
  6
CONTINUOUS
 62
               7
100
AcDbLine
 10
0.649993896484375
 20
60.000000000000028
 30
0.0
 11
9.850006103515625
 21
60.000000000000028
 31
0.0
  0
LINE
  5
640
100
AcDbEntity
  8
0
  6
CONTINUOUS
 62
               7
100
AcDbLine
 10
10.25
 20
59.000000000000028
 30
0.0
 11
0.25
 21
59.000000000000028
 31
0.0
  0
LINE
  5
641
100
AcDbEntity
  8
0
  6
CONTINUOUS
 62
               7
100
AcDbLine
 10
10.25
 20
59.600006103515653
 30
0.0
 11
0.25
 21
59.600006103515653
 31
0.0
  0
LINE
  5
642
100
AcDbEntity
  8
0
  6
CONTINUOUS
 62
               4
100
AcDbLine
 10
10.250007629394531
 20
63.800000000000011
 30
0.0
 11
0.2500076293945313
 21
63.800000000000011
 31
0.0
  0
LINE
  5
643
100
AcDbEntity
  8
0
  6
CONTINUOUS
 62
               4
100
AcDbLine
 10
9.9500076293945199
 20
75.500000000000028
 30
0.0
 11
0.5500076413154602
 21
75.500000000000028
 31
0.0
  0
LINE
  5
644
100
AcDbEntity
  8
0
  6
CONTINUOUS
 62
               4
100
AcDbLine
 10
10.150007629394509
 20
74.500000000000028
 30
0.0
 11
0.3500076234340668
 21
74.500000000000028
 31
0.0
  0
LINE
  5
645
100
AcDbEntity
  8
0
  6
CONTINUOUS
 62
               4
100
AcDbLine
 10
10.250007629394531
 20
67.600000000000023
 30
0.0
 11
0.2500076293945313
 21
67.600000000000023
 31
0.0
  0
LINE
  5
646
100
AcDbEntity
  8
0
  6
CONTINUOUS
 62
               4
100
AcDbLine
 10
10.050007629394486
 20
67.800000000000011
 30
0.0
 11
0.4500076293945199
 21
67.800000000000011
 31
0.0
  0
LINE
  5
647
100
AcDbEntity
  8
0
  6
CONTINUOUS
 62
               4
100
AcDbLine
 10
10.050007629394486
 20
68.500000000000028
 30
0.0
 11
0.4500076293945199
 21
68.500000000000028
 31
0.0
  0
LINE
  5
648
100
AcDbEntity
  8
0
  6
CONTINUOUS
 62
               4
100
AcDbLine
 10
10.250007629394531
 20
68.700000000000045
 30
0.0
 11
0.2500076293945313
 21
68.700000000000045
 31
0.0
  0
LINE
  5
649
100
AcDbEntity
  8
0
  6
CONTINUOUS
 62
               4
100
AcDbLine
 10
9.2000076293945199
 20
73.600000000000023
 30
0.0
 11
1.3000076293944858
 21
73.600000000000023
 31
0.0
  0
LINE
  5
64A
100
AcDbEntity
  8
0
  6
CONTINUOUS
 62
               4
100
AcDbLine
 10
10.05000722939451
 20
73.200000000000017
 30
0.0
 11
0.4500080347061157
 21
73.200000000000045
 31
0.0
  0
LINE
  5
64B
100
AcDbEntity
  8
0
  6
CONTINUOUS
 62
               4
100
AcDbLine
 10
9.3000076293944858
 20
73.500000000000028
 30
0.0
 11
1.2000076293945199
 21
73.500000000000028
 31
0.0
  0
LINE
  5
64C
100
AcDbEntity
  8
0
  6
CONTINUOUS
 62
               4
100
AcDbLine
 10
10.250007629394531
 20
72.661880000000025
 30
0.0
 11
0.2500076293945313
 21
72.661880000000025
 31
0.0
  0
LINE
  5
64D
100
AcDbEntity
  8
0
  6
CONTINUOUS
 62
               4
100
AcDbLine
 10
10.183982074260712
 20
72.700000204906047
 30
0.0
 11
0.3160331845283508
 21
72.700000204906047
 31
0.0
  0
LINE
  5
64E
100
AcDbEntity
  8
0
  6
CONTINUOUS
 62
               4
100
AcDbLine
 10
10.150007629394509
 20
63.900000000000034
 30
0.0
 11
0.3500076293944971
 21
63.900000000000034
 31
0.0
  0
LINE
  5
64F
100
AcDbEntity
  8
0
  6
CONTINUOUS
 62
               4
100
AcDbLine
 10
10.250007629394531
 20
64.000000000000028
 30
0.0
 11
0.2500076293945313
 21
64.000000000000028
 31
0.0
  0
ARC
  5
650
100
AcDbEntity
  8
0
  6
CONTINUOUS
 62
               7
100
AcDbCircle
 10
0.649993896484375
 20
35.400009155273466
 30
0.0
 40
0.3999999761581421
100
AcDbArc
 50
179.99998133066532
 51
270.00001798608935
  0
LINE
  5
651
100
AcDbEntity
  8
0
  6
CONTINUOUS
 62
               7
100
AcDbLine
 10
0.25
 20
35.400009155273466
 30
0.0
 11
0.25
 21
58.600006354648826
 31
0.0
  0
LINE
  5
652
100
AcDbEntity
  8
0
  6
CONTINUOUS
 62
               7
100
AcDbLine
 10
6.850006103515625
 20
36.800003051757841
 30
0.0
 11
6.850006103515625
 21
35.000000000000028
 31
0.0
  0
ARC
  5
653
100
AcDbEntity
  8
0
  6
CONTINUOUS
 62
               7
100
AcDbCircle
 10
9.8499946594238281
 20
29.800001144409208
 30
0.0
 40
0.4000000357627869
100
AcDbArc
 50
0.0
 51
89.999982013910653
  0
CIRCLE
  5
654
100
AcDbEntity
  8
0
  6
CONTINUOUS
 62
               7
100
AcDbCircle
 10
8.4499969482421875
 20
36.800003051757841
 30
0.0
 40
1.25
  0
ARC
  5
655
100
AcDbEntity
  8
0
  6
CONTINUOUS
 62
               7
100
AcDbCircle
 10
9.850006103515625
 20
35.400009155273466
 30
0.0
 40
0.3999999761581421
100
AcDbArc
 50
270.00001798608935
 51
0.0
  0
LINE
  5
656
100
AcDbEntity
  8
0
  6
CONTINUOUS
 62
               7
100
AcDbLine
 10
7.8489573917786402
 20
37.401049524828551
 30
0.0
 11
9.0510476322260729
 21
36.198959385709742
 31
0.0
  0
LINE
  5
657
100
AcDbEntity
  8
0
  6
CONTINUOUS
 62
               7
100
AcDbLine
 10
7.8489831687911646
 20
36.198926747188153
 30
0.0
 11
9.0510626196446538
 21
37.401006096713928
 31
0.0
  0
LINE
  5
658
100
AcDbEntity
  8
0
  6
CONTINUOUS
 62
               7
100
AcDbLine
 10
8.4499969482421875
 20
38.400009155273466
 30
0.0
 11
10.25
 21
38.400009155273466
 31
0.0
  0
LINE
  5
659
100
AcDbEntity
  8
0
  6
CONTINUOUS
 62
               7
100
AcDbLine
 10
10.25
 20
35.400009155273466
 30
0.0
 11
10.25
 21
58.60221148370087
 31
0.0
  0
ARC
  5
65A
100
AcDbEntity
  8
0
  6
CONTINUOUS
 62
               7
100
AcDbCircle
 10
8.4499969482421875
 20
36.800003051757841
 30
0.0
 40
1.5999994277954102
100
AcDbArc
 50
89.999982013910653
 51
179.99996402782131
  0
LINE
  5
65B
100
AcDbEntity
  8
0
  6
CONTINUOUS
 62
               7
100
AcDbLine
 10
10.5
 20
35.000000000000028
 30
0.0
 11
0.0
 21
35.000000000000028
 31
0.0
  0
LINE
  5
65C
100
AcDbEntity
  8
0
  6
CONTINUOUS
 62
               7
100
AcDbLine
 10
10.5
 20
35.000000000000028
 30
0.0
 11
10.5
 21
1.0
 31
0.0
  0
LINE
  5
65D
100
AcDbEntity
  8
0
  6
CONTINUOUS
 62
               7
100
AcDbLine
 10
0.0
 20
35.000000000000028
 30
0.0
 11
0.0
 21
1.0
 31
0.0
  0
LINE
  5
65E
100
AcDbEntity
  8
0
  6
CONTINUOUS
 62
               7
100
AcDbLine
 10
10.25
 20
3.600006103515625
 30
0.0
 11
10.25
 21
29.800001144409208
 31
0.0
  0
ARC
  5
65F
100
AcDbEntity
  8
0
  6
CONTINUOUS
 62
               7
100
AcDbCircle
 10
9.8499946594238281
 20
3.600006103515625
 30
0.0
 40
0.4000000357627869
100
AcDbArc
 50
270.00001798608935
 51
0.0
  0
LINE
  5
660
100
AcDbEntity
  8
0
  6
CONTINUOUS
 62
               7
100
AcDbLine
 10
1.4499969482421875
 20
7.8000030517578409
 30
0.0
 11
0.6499977111816406
 21
7.8000030517578409
 31
0.0
  0
LINE
  5
661
100
AcDbEntity
  8
0
  6
CONTINUOUS
 62
               7
100
AcDbLine
 10
0.0
 20
7.6000061035156534
 30
0.0
 11
1.45001220703125
 21
7.6000061035156534
 31
0.0
  0
ARC
  5
662
100
AcDbEntity
  8
0
  6
CONTINUOUS
 62
               7
100
AcDbCircle
 10
0.6499977111816406
 20
8.2000122070312784
 30
0.0
 40
0.4000000357627869
100
AcDbArc
 50
179.99996402782131
 51
270.00000068324533
  0
LINE
  5
663
100
AcDbEntity
  8
0
  6
CONTINUOUS
 62
               7
100
AcDbLine
 10
0.25
 20
8.2000122070312784
 30
0.0
 11
0.25
 21
34.400003433227567
 31
0.0
  0
ARC
  5
664
100
AcDbEntity
  8
0
  6
CONTINUOUS
 62
               7
100
AcDbCircle
 10
0.6499977111816406
 20
34.400003433227567
 30
0.0
 40
0.4000000357627869
100
AcDbArc
 50
89.999982013910653
 51
179.99996402782131
  0
LINE
  5
665
100
AcDbEntity
  8
0
  6
CONTINUOUS
 62
               7
100
AcDbLine
 10
0.6499977111816406
 20
34.800003051757841
 30
0.0
 11
7.0499954223632812
 21
34.800003051757841
 31
0.0
  0
ARC
  5
666
100
AcDbEntity
  8
0
  6
CONTINUOUS
 62
               7
100
AcDbCircle
 10
7.0499954223632812
 20
34.400003433227567
 30
0.0
 40
0.4000000357627869
100
AcDbArc
 50
0.0
 51
89.999982013910653
  0
LINE
  5
667
100
AcDbEntity
  8
0
  6
CONTINUOUS
 62
               7
100
AcDbLine
 10
3.0500030517578125
 20
6.1999969482422159
 30
0.0
 11
3.0500030517578125
 21
3.600006103515625
 31
0.0
  0
LINE
  5
668
100
AcDbEntity
  8
0
  6
CONTINUOUS
 62
               7
100
AcDbLine
 10
7.648950965482527
 20
5.3989596978930194
 30
0.0
 11
8.851033113734502
 21
6.6010417448170813
 31
0.0
  0
LINE
  5
669
100
AcDbEntity
  8
0
  6
CONTINUOUS
 62
               7
100
AcDbLine
 10
7.6489551801668654
 20
6.6010523658226532
 30
0.0
 11
8.8510346310203545
 21
5.3989730162968499
 31
0.0
  0
LINE
  5
66A
100
AcDbEntity
  8
0
  6
CONTINUOUS
 62
               7
100
AcDbLine
 10
1.6489662180941309
 20
32.601048315682789
 30
0.0
 11
2.8510483663461059
 21
31.398966268758755
 31
0.0
  0
LINE
  5
66B
100
AcDbEntity
  8
0
  6
CONTINUOUS
 62
               7
100
AcDbLine
 10
1.6489562177350763
 20
31.398959661628282
 30
0.0
 11
2.8510383659870513
 21
32.601041708552316
 31
0.0
  0
ARC
  5
66C
100
AcDbEntity
  8
0
  6
CONTINUOUS
 62
               7
100
AcDbCircle
 10
3.4499969482421875
 20
3.600006103515625
 30
0.0
 40
0.4000000357627869
100
AcDbArc
 50
179.99996402782131
 51
270.00000068324533
  0
ARC
  5
66D
100
AcDbEntity
  8
0
  6
CONTINUOUS
 62
               7
100
AcDbCircle
 10
9.0499954223632812
 20
31.799999237060575
 30
0.0
 40
1.5999994277954102
100
AcDbArc
 50
179.99996402782131
 51
270.00000068324533
  0
ARC
  5
66E
100
AcDbEntity
  8
0
  6
CONTINUOUS
 62
               7
100
AcDbCircle
 10
9.04998779296875
 20
31.800003051757841
 30
0.0
 40
1.3999996185302734
100
AcDbArc
 50
179.99998133066532
 51
270.00001798608935
  0
LINE
  5
66F
100
AcDbEntity
  8
0
  6
CONTINUOUS
 62
               7
100
AcDbLine
 10
2.850006103515625
 20
3.0
 30
0.0
 11
2.850006103515625
 21
6.1999969482422159
 31
0.0
  0
LINE
  5
670
100
AcDbEntity
  8
0
  6
CONTINUOUS
 62
               7
100
AcDbLine
 10
0.0
 20
3.0
 30
0.0
 11
10.5
 21
3.0
 31
0.0
  0
LINE
  5
671
100
AcDbEntity
  8
0
  6
CONTINUOUS
 62
               7
100
AcDbLine
 10
7.649993896484375
 20
31.800003051757841
 30
0.0
 11
7.649993896484375
 21
35.000000000000028
 31
0.0
  0
LINE
  5
672
100
AcDbEntity
  8
0
  6
CONTINUOUS
 62
               7
100
AcDbLine
 10
9.04998779296875
 20
30.400009155273466
 30
0.0
 11
10.5
 21
30.400009155273466
 31
0.0
  0
LINE
  5
673
100
AcDbEntity
  8
0
  6
CONTINUOUS
 62
               2
100
AcDbLine
 10
5.25
 20
-0.829620361328125
 30
0.0
 11
5.25
 21
60.000000000000028
 31
0.0
  0
ARC
  5
674
100
AcDbEntity
  8
0
  6
CONTINUOUS
 62
               7
100
AcDbCircle
 10
1.45001220703125
 20
6.1999969482422159
 30
0.0
 40
1.3999996185302734
100
AcDbArc
 50
0.0
 51
89.999982013910653
  0
CIRCLE
  5
675
100
AcDbEntity
  8
0
  6
CONTINUOUS
 62
               7
100
AcDbCircle
 10
2.25
 20
32.000000000000028
 30
0.0
 40
1.25
  0
CIRCLE
  5
676
100
AcDbEntity
  8
0
  6
CONTINUOUS
 62
               7
100
AcDbCircle
 10
8.2499961853027344
 20
6.0000000000000284
 30
0.0
 40
1.25
  0
CIRCLE
  5
677
100
AcDbEntity
  8
0
  6
CONTINUOUS
 62
               7
100
AcDbCircle
 10
2.25
 20
32.000000000000028
 30
0.0
 40
1.3999996185302734
  0
CIRCLE
  5
678
100
AcDbEntity
  8
0
  6
CONTINUOUS
 62
               7
100
AcDbCircle
 10
8.2499961853027344
 20
6.0000000000000284
 30
0.0
 40
1.3999996185302734
  0
ARC
  5
679
100
AcDbEntity
  8
0
  6
CONTINUOUS
 62
               7
100
AcDbCircle
 10
1.4499969482421875
 20
6.2000122070312784
 30
0.0
 40
1.5999994277954102
100
AcDbArc
 50
0.0
 51
89.999982013910653
  0
LINE
  5
67A
100
AcDbEntity
  8
0
  6
CONTINUOUS
 62
               7
100
AcDbLine
 10
9.0499916076660156
 20
30.20000648498538
 30
0.0
 11
9.8499946594238281
 21
30.20000648498538
 31
0.0
  0
LINE
  5
67B
100
AcDbEntity
  8
0
  6
CONTINUOUS
 62
               7
100
AcDbLine
 10
7.4500007629394531
 20
31.799999237060575
 30
0.0
 11
7.4500007629394531
 21
34.400003433227567
 31
0.0
  0
LINE
  5
67C
100
AcDbEntity
  8
0
  6
CONTINUOUS
 62
               7
100
AcDbLine
 10
3.4499969482421875
 20
3.20001220703125
 30
0.0
 11
9.8499908447265625
 21
3.20001220703125
 31
0.0
  0
LINE
  5
67D
100
AcDbEntity
  8
0
  6
CENTER
 62
               2
100
AcDbLine
 10
5.25
 20
-0.8300000000000125
 30
0.0
 11
5.25
 21
60.0
 31
0.0
  0
LINE
  5
67E
100
AcDbEntity
  8
0
  6
CONTINUOUS
 62
             200
100
AcDbLine
 10
5.25
 20
60.0
 30
0.0
 11
5.25
 21
76.699999999999989
 31
0.0
  0
LINE
  5
67F
100
AcDbEntity
  8
0
  6
CONTINUOUS
 62
               7
100
AcDbLine
 10
0.0
 20
0.0
 30
0.0
 11
10.5
 21
0.0
 31
0.0
  0
LINE
  5
680
100
AcDbEntity
  8
0
  6
CONTINUOUS
 62
               7
100
AcDbLine
 10
10.5
 20
1.0
 30
0.0
 11
0.0
 21
1.0
 31
0.0
  0
ENDBLK
  5
681
100
AcDbEntity
  8
0
100
AcDbBlockEnd
  0
ENDSEC
  0
SECTION
  2
ENTITIES
  0
INSERT
  5
682
100
AcDbEntity
  8
0
  6
ByBlock
100
AcDbBlockReference
  2
F10MN-1
 10
-192.423583984375
 20
141.3117959046358
 30
0.0
  0
INSERT
  5
683
100
AcDbEntity
  8
0
  6
ByBlock
100
AcDbBlockReference
  2
F10MN-11
 10
-315.923583984375
 20
141.3117959046358
 30
0.0
  0
INSERT
  5
684
100
AcDbEntity
  8
0
  6
ByBlock
100
AcDbBlockReference
  2
F10MN-12
 10
-192.423583984375
 20
24.811795904635801
 30
0.0
  0
INSERT
  5
685
100
AcDbEntity
  8
0
  6
ByBlock
100
AcDbBlockReference
  2
F10MN-13
 10
238.93975585937289
 20
153.56
 30
0.0
  0
INSERT
  5
686
100
AcDbEntity
  8
0
  6
ByBlock
100
AcDbBlockReference
  2
F10MN-14
 10
139.93975585937289
 20
153.56
 30
0.0
  0
INSERT
  5
687
100
AcDbEntity
  8
0
  6
ByBlock
100
AcDbBlockReference
  2
F10MN-15
 10
238.93975585937289
 20
42.060000000000002
 30
0.0
  0
INSERT
  5
688
100
AcDbEntity
  8
0
  6
ByBlock
100
AcDbBlockReference
  2
F10MN-16
 10
-250.56378173828125
 20
-122.931763
 30
0.0
  0
INSERT
  5
689
100
AcDbEntity
  8
0
  6
ByBlock
100
AcDbBlockReference
  2
F10MN-17
 10
-370.81
 20
-122.931763
 30
0.0
  0
INSERT
  5
68A
100
AcDbEntity
  8
0
  6
ByBlock
100
AcDbBlockReference
  2
F10MN-18
 10
-250.81378173828125
 20
-252.4317626953125
 30
0.0
  0
INSERT
  5
68B
100
AcDbEntity
  8
0
  6
ByBlock
100
AcDbBlockReference
  2
F10MN-2
 10
-54.051269531249986
 20
-121.80514033132971
 30
0.0
 50
359.99999999999972
  0
INSERT
  5
68C
100
AcDbEntity
  8
0
  6
ByBlock
100
AcDbBlockReference
  2
F10MN-3
 10
-164.05024414062711
 20
-121.80514033132971
 30
0.0
  0
INSERT
  5
68D
100
AcDbEntity
  8
0
  6
ByBlock
100
AcDbBlockReference
  2
F10MN-4
 10
-54.05126953125
 20
-250.4317626953125
 30
0.0
  0
INSERT
  5
68E
100
AcDbEntity
  8
0
  6
ByBlock
100
AcDbBlockReference
  2
F10MN-5
 10
141.42372131347656
 20
-100.57334893980851
 30
0.0
  0
INSERT
  5
68F
100
AcDbEntity
  8
0
  6
ByBlock
100
AcDbBlockReference
  2
F10MN-6
 10
27.020678752918798
 20
-100.57334893980851
 30
0.0
  0
INSERT
  5
690
100
AcDbEntity
  8
0
  6
ByBlock
100
AcDbBlockReference
  2
F10MN-7
 10
141.42372131347656
 20
-246.4317626953125
 30
0.0
  0
INSERT
  5
691
100
AcDbEntity
  8
0
  6
ByBlock
100
AcDbBlockReference
  2
F10MN-8
 10
339.18603515625
 20
-102.93174768101944
 30
0.0
  0
INSERT
  5
692
100
AcDbEntity
  8
0
  6
ByBlock
100
AcDbBlockReference
  2
F10MN-9
 10
224.78299259569224
 20
-102.93174768101944
 30
0.0
  0
INSERT
  5
693
100
AcDbEntity
  8
0
  6
ByBlock
100
AcDbBlockReference
  2
F10MN-10
 10
339.18603515625
 20
-226.43174743652344
 30
0.0
  0
LINE
  5
694
100
AcDbEntity
  8
0
  6
CONTINUOUS
 62
               7
100
AcDbLine
 10
399.80000000000001
 20
276.25
 30
0.0
 11
399.80000000000001
 21
-276.75
 31
0.0
  0
LINE
  5
695
100
AcDbEntity
  8
0
  6
CONTINUOUS
 62
               7
100
AcDbLine
 10
-399.25
 20
276.25
 30
0.0
 11
-399.25
 21
-276.75
 31
0.0
  0
LINE
  5
696
100
AcDbEntity
  8
0
  6
CONTINUOUS
 62
               7
100
AcDbLine
 10
-399.25
 20
276.25
 30
0.0
 11
399.80000000000001
 21
276.25
 31
0.0
  0
LINE
  5
697
100
AcDbEntity
  8
0
  6
CONTINUOUS
 62
               7
100
AcDbLine
 10
-399.25
 20
-276.75
 30
0.0
 11
399.80000000000001
 21
-276.75
 31
0.0
  0
LINE
  5
698
100
AcDbEntity
  8
0
  6
CONTINUOUS
 62
               7
100
AcDbLine
 10
239.80000000000001
 20
-251.75
 30
0.0
 11
399.80000000000001
 21
-251.75
 31
0.0
  0
LINE
  5
699
100
AcDbEntity
  8
0
  6
CONTINUOUS
 62
               7
100
AcDbLine
 10
239.80000000000001
 20
251.25
 30
0.0
 11
399.80000000000001
 21
251.25
 31
0.0
  0
LINE
  5
69A
100
AcDbEntity
  8
0
  6
CONTINUOUS
 62
               7
100
AcDbLine
 10
-399.25
 20
251.25
 30
0.0
 11
-239.25
 21
251.25
 31
0.0
  0
LINE
  5
69B
100
AcDbEntity
  8
0
  6
CONTINUOUS
 62
               7
100
AcDbLine
 10
239.80000000000001
 20
-251.75
 30
0.0
 11
239.80000000000001
 21
-276.75
 31
0.0
  0
LINE
  5
69C
100
AcDbEntity
  8
0
  6
CONTINUOUS
 62
               7
100
AcDbLine
 10
239.80000000000001
 20
251.25
 30
0.0
 11
239.80000000000001
 21
276.25
 31
0.0
  0
LINE
  5
69D
100
AcDbEntity
  8
0
  6
CONTINUOUS
 62
               7
100
AcDbLine
 10
-239.25
 20
276.25
 30
0.0
 11
-239.25
 21
251.25
 31
0.0
  0
LINE
  5
69E
100
AcDbEntity
  8
0
  6
CONTINUOUS
 62
               7
100
AcDbLine
 10
-191.47999999999999
 20
-0.25
 30
0.0
 11
-191.47999999999999
 21
-276.75
 31
0.0
  0
LINE
  5
69F
100
AcDbEntity
  8
0
  6
CONTINUOUS
 62
               7
100
AcDbLine
 10
202.03
 20
-0.25
 30
0.0
 11
202.03
 21
-276.75
 31
0.0
  0
LINE
  5
6A0
100
AcDbEntity
  8
0
  6
CONTINUOUS
 62
               7
100
AcDbLine
 10
-399.25
 20
-0.25
 30
0.0
 11
399.80000000000001
 21
-0.25
 31
0.0
  0
LINE
  5
6A1
100
AcDbEntity
  8
0
  6
CONTINUOUS
 62
               7
100
AcDbLine
 10
0.27
 20
276.25
 30
0.0
 11
0.27
 21
-276.75
 31
0.0
  0
MTEXT
  5
6A2
100
AcDbEntity
  8
0
  6
CONTINUOUS
 62
               7
100
AcDbMText
 10
245.88456269755227
 20
-264.25
 30
0.0
 40
12.5
 41
0.0
 71
               4
 72
               1
  1
\W1.121;\A1;KOGANEI CORP.
  0
MTEXT
  5
6A3
100
AcDbEntity
  8
0
  6
CONTINUOUS
 62
               7
100
AcDbMText
 10
290.09979829720089
 20
263.75
 30
0.0
 40
9.0
 41
0.0
 71
               4
 72
               1
  1
\W1.200;\A1;Ver.3.0
  0
MTEXT
  5
6A4
100
AcDbEntity
  8
0
  6
CONTINUOUS
 62
               7
100
AcDbMText
 10
-382.10483931653727
 20
-20.25
 30
0.0
 40
9.0
 41
0.0
 71
               4
 72
               1
  1
\W1.097;\A1;MODEL:F10T1-FJ-PS
  0
MTEXT
  5
6A5
100
AcDbEntity
  8
0
  6
CONTINUOUS
 62
               7
100
AcDbMText
 10
-362.5389820623364
 20
263.75
 30
0.0
 40
9.0
 41
0.0
 71
               4
 72
               1
  1
\W1.141;\A1;F10 SERIES
  0
MTEXT
  5
6A6
100
AcDbEntity
  8
0
  6
CONTINUOUS
 62
               7
100
AcDbMText
 10
-382.08846351304743
 20
231.25
 30
0.0
 40
9.0
 41
0.0
 71
               4
 72
               1
  1
\W1.108;\A1;MODEL:F10Z-E
  0
MTEXT
  5
6A7
100
AcDbEntity
  8
0
  6
CONTINUOUS
 62
               7
100
AcDbMText
 10
17.452959328024601
 20
231.25
 30
0.0
 40
9.0
 41
0.0
 71
               4
 72
               1
  1
\W1.119;\A1;MODEL:F10BP
  0
MTEXT
  5
6A8
100
AcDbEntity
  8
0
  6
CONTINUOUS
 62
               7
100
AcDbMText
 10
219.18537764876965
 20
-20.25
 30
0.0
 40
9.0
 41
0.0
 71
               4
 72
               1
  1
\W1.099;\A1;MODEL:F10Z-PM
  0
MTEXT
  5
6A9
100
AcDbEntity
  8
0
  6
CONTINUOUS
 62
               7
100
AcDbMText
 10
17.422880700527454
 20
-20.25
 30
0.0
 40
9.0
 41
0.0
 71
               4
 72
               1
  1
\W1.099;\A1;MODEL:F10Z-PJ
  0
MTEXT
  5
6AA
100
AcDbEntity
  8
0
  6
CONTINUOUS
 62
               7
100
AcDbMText
 10
-174.34234236829511
 20
-20.25
 30
0.0
 40
9.0
 41
0.0
 71
               4
 72
               1
  1
\W1.097;\A1;MODEL:F10T1-FM-PS
  0
LINE
  5
6AB
100
AcDbEntity
  8
0
  6
DASHED
 62
               2
100
AcDbLine
 10
-335.8097558593729
 20
-153.42530297746305
 30
0.0
 11
-335.8097558593729
 21
-153.40146831880037
 31
0.0
  0
ARC
  5
6AC
100
AcDbEntity
  8
0
  6
DASHED
 62
               2
100
AcDbCircle
 10
-158.13389184147456
 20
-105.30514033132971
 30
0.0
 40
0.5
100
AcDbArc
 50
270.0
 51
351.86989764584399
  0
LINE
  5
6AD
100
AcDbEntity
  8
0
  6
DASHED
 62
               2
100
AcDbLine
 10
-158.13389184147456
 20
-105.80514033132971
 30
0.0
 11
-159.20024414062698
 21
-105.80514033132971
 31
0.0
  0
LINE
  5
6AE
100
AcDbEntity
  8
0
  6
DASHED
 62
               2
100
AcDbLine
 10
-129.05000000000001
 20
-152.29868030879277
 30
0.0
 11
-129.05000000000001
 21
-152.27484565013009
 31
0.0
  0
LINE
  5
6AF
100
AcDbEntity
  8
0
  6
DASHED
 62
               2
100
AcDbLine
 10
227.98300480272349
 20
-133.43174768101943
 30
0.0
 11
259.78299259569224
 21
-133.43174768101943
 31
0.0
  0
LINE
  5
6B0
100
AcDbEntity
  8
0
  6
DASHED
 62
               2
100
AcDbLine
 10
228.78299259569224
 20
-40.431747681019445
 30
0.0
 11
259.78299259569224
 21
-40.431747681019445
 31
0.0
  0
LINE
  5
6B1
100
AcDbEntity
  8
0
  6
DASHED
 62
               2
100
AcDbLine
 10
227.78299259569224
 20
-131.43174768101943
 30
0.0
 11
227.78299259569224
 21
-128.43174768101943
 31
0.0
  0
LINE
  5
6B2
100
AcDbEntity
  8
0
  6
DASHED
 62
               2
100
AcDbLine
 10
231.28299259569224
 20
-85.881747681020059
 30
0.0
 11
231.19431964167541
 21
-86.502458359138089
 31
0.0
  0
ARC
  5
6B3
100
AcDbEntity
  8
0
  6
DASHED
 62
               2
100
AcDbCircle
 10
230.69934489484478
 20
-119.43174768101944
 30
0.0
 40
0.5
100
AcDbArc
 50
8.1301023541559339
 51
90.000000000000014
  0
LINE
  5
6B4
100
AcDbEntity
  8
0
  6
DASHED
 62
               2
100
AcDbLine
 10
227.63299259569237
 20
-120.93174768101944
 30
0.0
 11
227.63299259569237
 21
-123.10007829144017
 31
0.0
  0
ARC
  5
6B5
100
AcDbEntity
  8
0
  6
DASHED
 62
               2
100
AcDbCircle
 10
229.63299259569237
 20
-120.93174768101944
 30
0.0
 40
2.0
100
AcDbArc
 50
90.0
 51
180.0
  0
LINE
  5
6B6
100
AcDbEntity
  8
0
  6
DASHED
 62
               2
100
AcDbLine
 10
230.69934489484478
 20
-118.93174768101944
 30
0.0
 11
229.63299259569237
 21
-118.93174768101944
 31
0.0
  0
ARC
  5
6B7
100
AcDbEntity
  8
0
  6
DASHED
 62
               2
100
AcDbCircle
 10
230.69934489484478
 20
-86.431747681019445
 30
0.0
 40
0.5
100
AcDbArc
 50
270.0
 51
351.86989764584399
  0
ARC
  5
6B8
100
AcDbEntity
  8
0
  6
DASHED
 62
               2
100
AcDbCircle
 10
229.63299259569237
 20
-84.931747681019445
 30
0.0
 40
2.0
100
AcDbArc
 50
180.0
 51
270.0
  0
LINE
  5
6B9
100
AcDbEntity
  8
0
  6
DASHED
 62
               2
100
AcDbLine
 10
230.69934489484478
 20
-86.931747681019445
 30
0.0
 11
229.63299259569237
 21
-86.931747681019445
 31
0.0
  0
LINE
  5
6BA
100
AcDbEntity
  8
0
  6
DASHED
 62
               2
100
AcDbLine
 10
227.63299259569237
 20
-82.76341707059872
 30
0.0
 11
227.63299259569237
 21
-84.931747681019445
 31
0.0
  0
LINE
  5
6BB
100
AcDbEntity
  8
0
  6
DASHED
 62
               2
100
AcDbLine
 10
225.78299259569224
 20
-43.431747681019388
 30
0.0
 11
225.78299259569224
 21
-81.900747903011975
 31
0.0
  0
LINE
  5
6BC
100
AcDbEntity
  8
0
  6
DASHED
 62
               2
100
AcDbLine
 10
225.78299259569224
 20
-126.43174768101944
 30
0.0
 11
227.78299259569224
 21
-128.43174768101943
 31
0.0
  0
LINE
  5
6BD
100
AcDbEntity
  8
0
  6
DASHED
 62
               2
100
AcDbLine
 10
225.78299259569224
 20
-126.43174768101944
 30
0.0
 11
225.78299259569224
 21
-123.96274745902691
 31
0.0
  0
ARC
  5
6BE
100
AcDbEntity
  8
0
  6
DASHED
 62
               2
100
AcDbCircle
 10
228.78299259569224
 20
-43.431747681019445
 30
0.0
 40
3.0
100
AcDbArc
 50
89.999963344575988
 51
179.99994535848663
  0
LINE
  5
6BF
100
AcDbEntity
  8
0
  6
DASHED
 62
               2
100
AcDbLine
 10
224.78299259569224
 20
-117.43174768101944
 30
0.0
 11
224.78299259569224
 21
-88.431747681019445
 31
0.0
  0
LINE
  5
6C0
100
AcDbEntity
  8
0
  6
DASHED
 62
               2
100
AcDbLine
 10
224.78299259569224
 20
-88.431747681019445
 30
0.0
 11
231.28299259569224
 21
-88.431747681019445
 31
0.0
  0
LINE
  5
6C1
100
AcDbEntity
  8
0
  6
DASHED
 62
               2
100
AcDbLine
 10
224.78299259569224
 20
-117.43174768101944
 30
0.0
 11
231.28299259569224
 21
-117.43174768101944
 31
0.0
  0
LINE
  5
6C2
100
AcDbEntity
  8
0
  6
DASHED
 62
               2
100
AcDbLine
 10
231.28299259569224
 20
-88.431747681019445
 30
0.0
 11
231.28299259569224
 21
-85.881747681020059
 31
0.0
  0
LINE
  5
6C3
100
AcDbEntity
  8
0
  6
DASHED
 62
               2
100
AcDbLine
 10
231.28299259569224
 20
-119.98174768101939
 30
0.0
 11
231.28299259569224
 21
-117.43174768101944
 31
0.0
  0
LINE
  5
6C4
100
AcDbEntity
  8
0
  6
DASHED
 62
               2
100
AcDbLine
 10
227.98300480272349
 20
-131.63175988805068
 30
0.0
 11
227.78299259569224
 21
-131.43174768101943
 31
0.0
  0
LINE
  5
6C5
100
AcDbEntity
  8
0
  6
DASHED
 62
               2
100
AcDbLine
 10
227.98300480272349
 20
-131.63174462926162
 30
0.0
 11
227.98300480272349
 21
-133.43174768101943
 31
0.0
  0
LINE
  5
6C6
100
AcDbEntity
  8
0
  6
DASHED
 62
               2
100
AcDbLine
 10
227.63299259569237
 20
-82.763417070598734
 30
0.0
 11
225.78299259569224
 21
-81.900747903011975
 31
0.0
  0
LINE
  5
6C7
100
AcDbEntity
  8
0
  6
DASHED
 62
               2
100
AcDbLine
 10
227.63299259569237
 20
-123.10007829144017
 30
0.0
 11
225.78299259569224
 21
-123.96274745902691
 31
0.0
  0
LINE
  5
6C8
100
AcDbEntity
  8
0
  6
DASHED
 62
               2
100
AcDbLine
 10
231.28299259569224
 20
-119.98174768101939
 30
0.0
 11
231.19431964167541
 21
-119.3610370029008
 31
0.0
  0
LINE
  5
6C9
100
AcDbEntity
  8
0
  6
DASHED
 62
               2
100
AcDbLine
 10
259.78299259569224
 20
-133.43174768101943
 30
0.0
 11
259.78299259569224
 21
-40.431747681019445
 31
0.0
  0
LINE
  5
6CA
100
AcDbEntity
  8
0
  6
DASHED
 62
               2
100
AcDbLine
 10
31.020678752918798
 20
-38.073348939808511
 30
0.0
 11
62.020678752918798
 21
-38.073348939808511
 31
0.0
  0
LINE
  5
6CB
100
AcDbEntity
  8
0
  6
DASHED
 62
               2
100
AcDbLine
 10
30.020678752918798
 20
-129.07334893980851
 30
0.0
 11
30.020678752918798
 21
-126.07334893980851
 31
0.0
  0
ARC
  5
6CC
100
AcDbEntity
  8
0
  6
DASHED
 62
               2
100
AcDbCircle
 10
32.937031052071347
 20
-117.07334893980851
 30
0.0
 40
0.5
100
AcDbArc
 50
8.1301023541559339
 51
90.000000000000014
  0
LINE
  5
6CD
100
AcDbEntity
  8
0
  6
DASHED
 62
               2
100
AcDbLine
 10
29.87067875291882
 20
-118.57334893980851
 30
0.0
 11
29.87067875291882
 21
-120.74167955022924
 31
0.0
  0
ARC
  5
6CE
100
AcDbEntity
  8
0
  6
DASHED
 62
               2
100
AcDbCircle
 10
31.87067875291882
 20
-118.57334893980851
 30
0.0
 40
2.0
100
AcDbArc
 50
90.0
 51
180.0
  0
LINE
  5
6CF
100
AcDbEntity
  8
0
  6
DASHED
 62
               2
100
AcDbLine
 10
32.937031052071347
 20
-116.57334893980851
 30
0.0
 11
31.87067875291882
 21
-116.57334893980851
 31
0.0
  0
ARC
  5
6D0
100
AcDbEntity
  8
0
  6
DASHED
 62
               2
100
AcDbCircle
 10
32.937031052071234
 20
-84.073348939808511
 30
0.0
 40
0.5
100
AcDbArc
 50
270.0
 51
351.86989764584399
  0
ARC
  5
6D1
100
AcDbEntity
  8
0
  6
DASHED
 62
               2
100
AcDbCircle
 10
31.87067875291882
 20
-82.573348939808511
 30
0.0
 40
2.0
100
AcDbArc
 50
180.0
 51
270.0
  0
LINE
  5
6D2
100
AcDbEntity
  8
0
  6
DASHED
 62
               2
100
AcDbLine
 10
32.937031052071234
 20
-84.573348939808511
 30
0.0
 11
31.87067875291882
 21
-84.573348939808511
 31
0.0
  0
LINE
  5
6D3
100
AcDbEntity
  8
0
  6
DASHED
 62
               2
100
AcDbLine
 10
29.87067875291882
 20
-80.405018329387786
 30
0.0
 11
29.87067875291882
 21
-82.573348939808511
 31
0.0
  0
LINE
  5
6D4
100
AcDbEntity
  8
0
  6
DASHED
 62
               2
100
AcDbLine
 10
28.020678752918798
 20
-41.073348939808454
 30
0.0
 11
28.020678752918798
 21
-79.542349161801042
 31
0.0
  0
LINE
  5
6D5
100
AcDbEntity
  8
0
  6
DASHED
 62
               2
100
AcDbLine
 10
29.870678752918817
 20
-120.74167955022924
 30
0.0
 11
28.020678752918798
 21
-121.60434871781598
 31
0.0
  0
LINE
  5
6D6
100
AcDbEntity
  8
0
  6
DASHED
 62
               2
100
AcDbLine
 10
29.870678752918817
 20
-80.405018329387786
 30
0.0
 11
28.020678752918798
 21
-79.542349161801042
 31
0.0
  0
LINE
  5
6D7
100
AcDbEntity
  8
0
  6
DASHED
 62
               2
100
AcDbLine
 10
28.020678752918798
 20
-124.07334893980851
 30
0.0
 11
30.020678752918798
 21
-126.07334893980851
 31
0.0
  0
LINE
  5
6D8
100
AcDbEntity
  8
0
  6
DASHED
 62
               2
100
AcDbLine
 10
28.020678752918798
 20
-124.07334893980851
 30
0.0
 11
28.020678752918798
 21
-121.60434871781598
 31
0.0
  0
ARC
  5
6D9
100
AcDbEntity
  8
0
  6
DASHED
 62
               2
100
AcDbCircle
 10
31.020678752918798
 20
-41.073348939808511
 30
0.0
 40
3.0
100
AcDbArc
 50
89.999963344575988
 51
179.99994535848663
  0
LINE
  5
6DA
100
AcDbEntity
  8
0
  6
DASHED
 62
               2
100
AcDbLine
 10
27.020678752918798
 20
-115.07334893980851
 30
0.0
 11
27.020678752918798
 21
-86.073348939808511
 31
0.0
  0
LINE
  5
6DB
100
AcDbEntity
  8
0
  6
DASHED
 62
               2
100
AcDbLine
 10
27.020678752918798
 20
-86.073348939808511
 30
0.0
 11
33.520678752918798
 21
-86.073348939808511
 31
0.0
  0
LINE
  5
6DC
100
AcDbEntity
  8
0
  6
DASHED
 62
               2
100
AcDbLine
 10
27.020678752918798
 20
-115.07334893980851
 30
0.0
 11
33.520678752918798
 21
-115.07334893980851
 31
0.0
  0
LINE
  5
6DD
100
AcDbEntity
  8
0
  6
DASHED
 62
               2
100
AcDbLine
 10
33.520678752918798
 20
-86.073348939808511
 30
0.0
 11
33.520678752918798
 21
-84.144059617927169
 31
0.0
  0
LINE
  5
6DE
100
AcDbEntity
  8
0
  6
DASHED
 62
               2
100
AcDbLine
 10
33.520678752918798
 20
-117.00263826168985
 30
0.0
 11
33.520678752918798
 21
-115.07334893980851
 31
0.0
  0
LINE
  5
6DF
100
AcDbEntity
  8
0
  6
DASHED
 62
               2
100
AcDbLine
 10
30.220690959950048
 20
-131.07334893980851
 30
0.0
 11
61.520678752918798
 21
-131.07334893980851
 31
0.0
  0
LINE
  5
6E0
100
AcDbEntity
  8
0
  6
DASHED
 62
               2
100
AcDbLine
 10
30.220690959950048
 20
-129.27336114683976
 30
0.0
 11
30.020678752918798
 21
-129.07334893980851
 31
0.0
  0
LINE
  5
6E1
100
AcDbEntity
  8
0
  6
DASHED
 62
               2
100
AcDbLine
 10
30.220690959950048
 20
-129.2733458880507
 30
0.0
 11
30.220690959950048
 21
-131.07334893980851
 31
0.0
  0
LINE
  5
6E2
100
AcDbEntity
  8
0
  6
DASHED
 62
               2
100
AcDbLine
 10
62.020678752918798
 20
-130.57334893980851
 30
0.0
 11
62.020678752918798
 21
-38.073348939808511
 31
0.0
  0
ARC
  5
6E3
100
AcDbEntity
  8
0
  6
DASHED
 62
               7
100
AcDbCircle
 10
61.520752687875529
 20
-130.57342287476519
 30
0.0
 40
0.4999260705104662
100
AcDbArc
 50
269.99152642511825
 51
0.0084735748821464
  0
LINE
  5
6E4
100
AcDbEntity
  8
0
  6
DASHED
 62
               2
100
AcDbLine
 10
143.93975585937289
 20
216.06
 30
0.0
 11
174.93975585937289
 21
216.06
 31
0.0
  0
LINE
  5
6E5
100
AcDbEntity
  8
0
  6
DASHED
 62
               2
100
AcDbLine
 10
142.93975585937289
 20
125.06
 30
0.0
 11
142.93975585937289
 21
128.06
 31
0.0
  0
ARC
  5
6E6
100
AcDbEntity
  8
0
  6
DASHED
 62
               2
100
AcDbCircle
 10
145.85610815852544
 20
137.06
 30
0.0
 40
0.5
100
AcDbArc
 50
8.1301023541559339
 51
90.000000000000014
  0
LINE
  5
6E7
100
AcDbEntity
  8
0
  6
DASHED
 62
               2
100
AcDbLine
 10
142.78975585937292
 20
135.56
 30
0.0
 11
142.78975585937292
 21
133.39166938957928
 31
0.0
  0
ARC
  5
6E8
100
AcDbEntity
  8
0
  6
DASHED
 62
               2
100
AcDbCircle
 10
144.78975585937292
 20
135.56
 30
0.0
 40
2.0
100
AcDbArc
 50
90.0
 51
180.0
  0
LINE
  5
6E9
100
AcDbEntity
  8
0
  6
DASHED
 62
               2
100
AcDbLine
 10
145.85610815852544
 20
137.56
 30
0.0
 11
144.78975585937292
 21
137.56
 31
0.0
  0
ARC
  5
6EA
100
AcDbEntity
  8
0
  6
DASHED
 62
               2
100
AcDbCircle
 10
145.85610815852533
 20
170.06
 30
0.0
 40
0.5
100
AcDbArc
 50
270.0
 51
351.86989764584399
  0
ARC
  5
6EB
100
AcDbEntity
  8
0
  6
DASHED
 62
               2
100
AcDbCircle
 10
144.78975585937292
 20
171.56
 30
0.0
 40
2.0
100
AcDbArc
 50
180.0
 51
270.0
  0
LINE
  5
6EC
100
AcDbEntity
  8
0
  6
DASHED
 62
               2
100
AcDbLine
 10
145.85610815852533
 20
169.56
 30
0.0
 11
144.78975585937292
 21
169.56
 31
0.0
  0
LINE
  5
6ED
100
AcDbEntity
  8
0
  6
DASHED
 62
               2
100
AcDbLine
 10
142.78975585937292
 20
173.72833061042073
 30
0.0
 11
142.78975585937292
 21
171.56
 31
0.0
  0
LINE
  5
6EE
100
AcDbEntity
  8
0
  6
DASHED
 62
               2
100
AcDbLine
 10
140.93975585937289
 20
213.06000000000006
 30
0.0
 11
140.93975585937289
 21
174.59099977800747
 31
0.0
  0
LINE
  5
6EF
100
AcDbEntity
  8
0
  6
DASHED
 62
               2
100
AcDbLine
 10
142.78975585937292
 20
133.39166938957928
 30
0.0
 11
140.93975585937289
 21
132.52900022199253
 31
0.0
  0
LINE
  5
6F0
100
AcDbEntity
  8
0
  6
DASHED
 62
               2
100
AcDbLine
 10
142.78975585937292
 20
173.72833061042073
 30
0.0
 11
140.93975585937289
 21
174.59099977800747
 31
0.0
  0
LINE
  5
6F1
100
AcDbEntity
  8
0
  6
DASHED
 62
               2
100
AcDbLine
 10
140.93975585937289
 20
130.06
 30
0.0
 11
142.93975585937289
 21
128.06
 31
0.0
  0
LINE
  5
6F2
100
AcDbEntity
  8
0
  6
DASHED
 62
               2
100
AcDbLine
 10
140.93975585937289
 20
130.06
 30
0.0
 11
140.93975585937289
 21
132.52900022199253
 31
0.0
  0
ARC
  5
6F3
100
AcDbEntity
  8
0
  6
DASHED
 62
               2
100
AcDbCircle
 10
143.93975585937289
 20
213.06
 30
0.0
 40
3.0
100
AcDbArc
 50
89.999963344575988
 51
179.99994535848663
  0
LINE
  5
6F4
100
AcDbEntity
  8
0
  6
DASHED
 62
               2
100
AcDbLine
 10
139.93975585937289
 20
139.06
 30
0.0
 11
139.93975585937289
 21
168.06
 31
0.0
  0
LINE
  5
6F5
100
AcDbEntity
  8
0
  6
DASHED
 62
               2
100
AcDbLine
 10
139.93975585937289
 20
168.06
 30
0.0
 11
146.43975585937289
 21
168.06
 31
0.0
  0
LINE
  5
6F6
100
AcDbEntity
  8
0
  6
DASHED
 62
               2
100
AcDbLine
 10
139.93975585937289
 20
139.06
 30
0.0
 11
146.43975585937289
 21
139.06
 31
0.0
  0
LINE
  5
6F7
100
AcDbEntity
  8
0
  6
DASHED
 62
               2
100
AcDbLine
 10
146.43975585937289
 20
168.06
 30
0.0
 11
146.43975585937289
 21
169.98928932188136
 31
0.0
  0
LINE
  5
6F8
100
AcDbEntity
  8
0
  6
DASHED
 62
               2
100
AcDbLine
 10
146.43975585937289
 20
137.13071067811865
 30
0.0
 11
146.43975585937289
 21
139.06
 31
0.0
  0
LINE
  5
6F9
100
AcDbEntity
  8
0
  6
DASHED
 62
               2
100
AcDbLine
 10
143.13976806640414
 20
123.06
 30
0.0
 11
174.43975585937289
 21
123.06
 31
0.0
  0
LINE
  5
6FA
100
AcDbEntity
  8
0
  6
DASHED
 62
               2
100
AcDbLine
 10
143.13976806640414
 20
124.85998779296875
 30
0.0
 11
142.93975585937289
 21
125.06
 31
0.0
  0
LINE
  5
6FB
100
AcDbEntity
  8
0
  6
DASHED
 62
               2
100
AcDbLine
 10
143.13976806640414
 20
124.86000305175781
 30
0.0
 11
143.13976806640414
 21
123.06
 31
0.0
  0
LINE
  5
6FC
100
AcDbEntity
  8
0
  6
DASHED
 62
               2
100
AcDbLine
 10
174.93975585937289
 20
123.56
 30
0.0
 11
174.93975585937289
 21
216.06
 31
0.0
  0
ARC
  5
6FD
100
AcDbEntity
  8
0
  6
DASHED
 62
               7
100
AcDbCircle
 10
174.43982979432963
 20
123.55992606504333
 30
0.0
 40
0.4999260705104662
100
AcDbArc
 50
269.99152642511825
 51
0.0084735748821464
  0
LINE
  5
6FE
100
AcDbEntity
  8
0
  6
DASHED
 62
               2
100
AcDbLine
 10
228.78299259569224
 20
-40.431747681019445
 30
0.0
 11
259.78299259569224
 21
-40.431747681019445
 31
0.0
  0
LINE
  5
6FF
100
AcDbEntity
  8
0
  6
DASHED
 62
               2
100
AcDbLine
 10
227.78299259569224
 20
-131.43174768101943
 30
0.0
 11
227.78299259569224
 21
-128.43174768101943
 31
0.0
  0
ARC
  5
700
100
AcDbEntity
  8
0
  6
DASHED
 62
               2
100
AcDbCircle
 10
230.69934489484478
 20
-119.43174768101944
 30
0.0
 40
0.5
100
AcDbArc
 50
8.1301023541559339
 51
90.000000000000014
  0
LINE
  5
701
100
AcDbEntity
  8
0
  6
DASHED
 62
               2
100
AcDbLine
 10
227.63299259569226
 20
-120.93174768101944
 30
0.0
 11
227.63299259569226
 21
-123.10007829144017
 31
0.0
  0
ARC
  5
702
100
AcDbEntity
  8
0
  6
DASHED
 62
               2
100
AcDbCircle
 10
229.63299259569226
 20
-120.93174768101944
 30
0.0
 40
2.0
100
AcDbArc
 50
90.0
 51
180.0
  0
LINE
  5
703
100
AcDbEntity
  8
0
  6
DASHED
 62
               2
100
AcDbLine
 10
230.69934489484478
 20
-118.93174768101944
 30
0.0
 11
229.63299259569226
 21
-118.93174768101944
 31
0.0
  0
ARC
  5
704
100
AcDbEntity
  8
0
  6
DASHED
 62
               2
100
AcDbCircle
 10
230.69934489484467
 20
-86.431747681019445
 30
0.0
 40
0.5
100
AcDbArc
 50
270.0
 51
351.86989764584399
  0
ARC
  5
705
100
AcDbEntity
  8
0
  6
DASHED
 62
               2
100
AcDbCircle
 10
229.63299259569226
 20
-84.931747681019445
 30
0.0
 40
2.0
100
AcDbArc
 50
180.0
 51
270.0
  0
LINE
  5
706
100
AcDbEntity
  8
0
  6
DASHED
 62
               2
100
AcDbLine
 10
230.69934489484467
 20
-86.931747681019445
 30
0.0
 11
229.63299259569226
 21
-86.931747681019445
 31
0.0
  0
LINE
  5
707
100
AcDbEntity
  8
0
  6
DASHED
 62
               2
100
AcDbLine
 10
227.63299259569226
 20
-82.76341707059872
 30
0.0
 11
227.63299259569226
 21
-84.931747681019445
 31
0.0
  0
LINE
  5
708
100
AcDbEntity
  8
0
  6
DASHED
 62
               2
100
AcDbLine
 10
225.78299259569224
 20
-43.431747681019388
 30
0.0
 11
225.78299259569224
 21
-81.900747903011975
 31
0.0
  0
LINE
  5
709
100
AcDbEntity
  8
0
  6
DASHED
 62
               2
100
AcDbLine
 10
227.63299259569226
 20
-123.10007829144016
 30
0.0
 11
225.78299259569224
 21
-123.96274745902691
 31
0.0
  0
LINE
  5
70A
100
AcDbEntity
  8
0
  6
DASHED
 62
               2
100
AcDbLine
 10
227.63299259569226
 20
-82.763417070598734
 30
0.0
 11
225.78299259569224
 21
-81.900747903011975
 31
0.0
  0
LINE
  5
70B
100
AcDbEntity
  8
0
  6
DASHED
 62
               2
100
AcDbLine
 10
225.78299259569224
 20
-126.43174768101944
 30
0.0
 11
227.78299259569224
 21
-128.43174768101943
 31
0.0
  0
LINE
  5
70C
100
AcDbEntity
  8
0
  6
DASHED
 62
               2
100
AcDbLine
 10
225.78299259569224
 20
-126.43174768101944
 30
0.0
 11
225.78299259569224
 21
-123.96274745902691
 31
0.0
  0
ARC
  5
70D
100
AcDbEntity
  8
0
  6
DASHED
 62
               2
100
AcDbCircle
 10
228.78299259569224
 20
-43.431747681019445
 30
0.0
 40
3.0
100
AcDbArc
 50
89.999963344575988
 51
179.99994535848663
  0
LINE
  5
70E
100
AcDbEntity
  8
0
  6
DASHED
 62
               2
100
AcDbLine
 10
224.78299259569224
 20
-117.43174768101944
 30
0.0
 11
224.78299259569224
 21
-88.431747681019445
 31
0.0
  0
LINE
  5
70F
100
AcDbEntity
  8
0
  6
DASHED
 62
               2
100
AcDbLine
 10
224.78299259569224
 20
-88.431747681019445
 30
0.0
 11
231.28299259569224
 21
-88.431747681019445
 31
0.0
  0
LINE
  5
710
100
AcDbEntity
  8
0
  6
DASHED
 62
               2
100
AcDbLine
 10
224.78299259569224
 20
-117.43174768101944
 30
0.0
 11
231.28299259569224
 21
-117.43174768101944
 31
0.0
  0
LINE
  5
711
100
AcDbEntity
  8
0
  6
DASHED
 62
               2
100
AcDbLine
 10
231.28299259569224
 20
-88.431747681019445
 30
0.0
 11
231.28299259569224
 21
-86.502458359138103
 31
0.0
  0
LINE
  5
712
100
AcDbEntity
  8
0
  6
DASHED
 62
               2
100
AcDbLine
 10
231.28299259569224
 20
-119.36103700290079
 30
0.0
 11
231.28299259569224
 21
-117.43174768101944
 31
0.0
  0
LINE
  5
713
100
AcDbEntity
  8
0
  6
DASHED
 62
               2
100
AcDbLine
 10
227.98300480272349
 20
-133.43174768101943
 30
0.0
 11
259.28299259569224
 21
-133.43174768101943
 31
0.0
  0
LINE
  5
714
100
AcDbEntity
  8
0
  6
DASHED
 62
               2
100
AcDbLine
 10
227.98300480272349
 20
-131.63175988805068
 30
0.0
 11
227.78299259569224
 21
-131.43174768101943
 31
0.0
  0
LINE
  5
715
100
AcDbEntity
  8
0
  6
DASHED
 62
               2
100
AcDbLine
 10
227.98300480272349
 20
-131.63174462926162
 30
0.0
 11
227.98300480272349
 21
-133.43174768101943
 31
0.0
  0
LINE
  5
716
100
AcDbEntity
  8
0
  6
DASHED
 62
               2
100
AcDbLine
 10
259.78299259569224
 20
-132.93174768101943
 30
0.0
 11
259.78299259569224
 21
-40.431747681019445
 31
0.0
  0
ARC
  5
717
100
AcDbEntity
  8
0
  6
DASHED
 62
               7
100
AcDbCircle
 10
259.28306653064897
 20
-132.93182161597611
 30
0.0
 40
0.4999260705104662
100
AcDbArc
 50
269.99152642511825
 51
0.0084735748821464
  0
LINE
  5
718
100
AcDbEntity
  8
0
  6
DASHED
 62
               2
100
AcDbLine
 10
-160.05024414062711
 20
-59.30514033132971
 30
0.0
 11
-129.05024414062711
 21
-59.30514033132971
 31
0.0
  0
LINE
  5
719
100
AcDbEntity
  8
0
  6
DASHED
 62
               2
100
AcDbLine
 10
-161.05024414062711
 20
-150.30514033132971
 30
0.0
 11
-161.05024414062711
 21
-147.30514033132971
 31
0.0
  0
ARC
  5
71A
100
AcDbEntity
  8
0
  6
DASHED
 62
               2
100
AcDbCircle
 10
-158.13389184147456
 20
-138.30514033132971
 30
0.0
 40
0.5
100
AcDbArc
 50
8.1301023541559339
 51
90.000000000000014
  0
LINE
  5
71B
100
AcDbEntity
  8
0
  6
DASHED
 62
               2
100
AcDbLine
 10
-161.20024414062709
 20
-139.80514033132971
 30
0.0
 11
-161.20024414062709
 21
-141.97347094175043
 31
0.0
  0
ARC
  5
71C
100
AcDbEntity
  8
0
  6
DASHED
 62
               2
100
AcDbCircle
 10
-159.20024414062709
 20
-139.80514033132971
 30
0.0
 40
2.0
100
AcDbArc
 50
90.0
 51
180.0
  0
LINE
  5
71D
100
AcDbEntity
  8
0
  6
DASHED
 62
               2
100
AcDbLine
 10
-158.13389184147456
 20
-137.80514033132971
 30
0.0
 11
-159.20024414062709
 21
-137.80514033132971
 31
0.0
  0
ARC
  5
71E
100
AcDbEntity
  8
0
  6
DASHED
 62
               2
100
AcDbCircle
 10
-158.13389184147468
 20
-105.30514033132971
 30
0.0
 40
0.5
100
AcDbArc
 50
270.0
 51
351.86989764584399
  0
ARC
  5
71F
100
AcDbEntity
  8
0
  6
DASHED
 62
               2
100
AcDbCircle
 10
-159.20024414062709
 20
-103.80514033132971
 30
0.0
 40
2.0
100
AcDbArc
 50
180.0
 51
270.0
  0
LINE
  5
720
100
AcDbEntity
  8
0
  6
DASHED
 62
               2
100
AcDbLine
 10
-158.13389184147468
 20
-105.80514033132971
 30
0.0
 11
-159.20024414062709
 21
-105.80514033132971
 31
0.0
  0
LINE
  5
721
100
AcDbEntity
  8
0
  6
DASHED
 62
               2
100
AcDbLine
 10
-161.20024414062709
 20
-101.63680972090899
 30
0.0
 11
-161.20024414062709
 21
-103.80514033132971
 31
0.0
  0
LINE
  5
722
100
AcDbEntity
  8
0
  6
DASHED
 62
               2
100
AcDbLine
 10
-163.05024414062711
 20
-62.305140331329653
 30
0.0
 11
-163.05024414062711
 21
-100.77414055332224
 31
0.0
  0
LINE
  5
723
100
AcDbEntity
  8
0
  6
DASHED
 62
               2
100
AcDbLine
 10
-161.20024414062709
 20
-141.97347094175043
 30
0.0
 11
-163.05024414062711
 21
-142.83614010933718
 31
0.0
  0
LINE
  5
724
100
AcDbEntity
  8
0
  6
DASHED
 62
               2
100
AcDbLine
 10
-161.20024414062709
 20
-101.63680972090899
 30
0.0
 11
-163.05024414062711
 21
-100.77414055332224
 31
0.0
  0
LINE
  5
725
100
AcDbEntity
  8
0
  6
DASHED
 62
               2
100
AcDbLine
 10
-163.05024414062711
 20
-145.30514033132971
 30
0.0
 11
-161.05024414062711
 21
-147.30514033132971
 31
0.0
  0
LINE
  5
726
100
AcDbEntity
  8
0
  6
DASHED
 62
               2
100
AcDbLine
 10
-163.05024414062711
 20
-145.30514033132971
 30
0.0
 11
-163.05024414062711
 21
-142.83614010933718
 31
0.0
  0
ARC
  5
727
100
AcDbEntity
  8
0
  6
DASHED
 62
               2
100
AcDbCircle
 10
-160.05024414062711
 20
-62.30514033132971
 30
0.0
 40
3.0
100
AcDbArc
 50
89.999963344575988
 51
179.99994535848663
  0
LINE
  5
728
100
AcDbEntity
  8
0
  6
DASHED
 62
               2
100
AcDbLine
 10
-164.05024414062711
 20
-136.30514033132971
 30
0.0
 11
-164.05024414062711
 21
-107.30514033132971
 31
0.0
  0
LINE
  5
729
100
AcDbEntity
  8
0
  6
DASHED
 62
               2
100
AcDbLine
 10
-164.05024414062711
 20
-107.30514033132971
 30
0.0
 11
-157.55024414062711
 21
-107.30514033132971
 31
0.0
  0
LINE
  5
72A
100
AcDbEntity
  8
0
  6
DASHED
 62
               2
100
AcDbLine
 10
-164.05024414062711
 20
-136.30514033132971
 30
0.0
 11
-157.55024414062711
 21
-136.30514033132971
 31
0.0
  0
LINE
  5
72B
100
AcDbEntity
  8
0
  6
DASHED
 62
               2
100
AcDbLine
 10
-157.55024414062711
 20
-107.30514033132971
 30
0.0
 11
-157.55024414062711
 21
-105.37585100944837
 31
0.0
  0
LINE
  5
72C
100
AcDbEntity
  8
0
  6
DASHED
 62
               2
100
AcDbLine
 10
-157.55024414062711
 20
-138.23442965321107
 30
0.0
 11
-157.55024414062711
 21
-136.30514033132971
 31
0.0
  0
LINE
  5
72D
100
AcDbEntity
  8
0
  6
DASHED
 62
               2
100
AcDbLine
 10
-160.85023193359586
 20
-152.30514033132971
 30
0.0
 11
-129.55024414062711
 21
-152.30514033132971
 31
0.0
  0
LINE
  5
72E
100
AcDbEntity
  8
0
  6
DASHED
 62
               2
100
AcDbLine
 10
-160.85023193359586
 20
-150.50515253836096
 30
0.0
 11
-161.05024414062711
 21
-150.30514033132971
 31
0.0
  0
LINE
  5
72F
100
AcDbEntity
  8
0
  6
DASHED
 62
               2
100
AcDbLine
 10
-160.85023193359586
 20
-150.5051372795719
 30
0.0
 11
-160.85023193359586
 21
-152.30514033132971
 31
0.0
  0
LINE
  5
730
100
AcDbEntity
  8
0
  6
DASHED
 62
               2
100
AcDbLine
 10
-129.05024414062711
 20
-151.80514033132971
 30
0.0
 11
-129.05024414062711
 21
-59.30514033132971
 31
0.0
  0
ARC
  5
731
100
AcDbEntity
  8
0
  6
DASHED
 62
               7
100
AcDbCircle
 10
-129.55017020567038
 20
-151.80521426628638
 30
0.0
 40
0.4999260705104662
100
AcDbArc
 50
269.99152642511825
 51
0.0084735748821464
  0
LINE
  5
732
100
AcDbEntity
  8
0
  6
CONTINUOUS
 62
               7
100
AcDbLine
 10
-128.05396484375211
 20
-97.805155285431269
 30
0.0
 11
-129.05396484375211
 21
-97.805155285431269
 31
0.0
  0
LINE
  5
733
100
AcDbEntity
  8
0
  6
CONTINUOUS
 62
               4
100
AcDbLine
 10
-127.45024414062715
 20
-99.803377331329713
 30
0.0
 11
-129.05024414062711
 21
-99.803377331329713
 31
0.0
  0
LINE
  5
734
100
AcDbEntity
  8
0
  6
CONTINUOUS
 62
               7
100
AcDbLine
 10
-128.05396484375211
 20
-99.805140026642206
 30
0.0
 11
-128.05396484375211
 21
-97.805155285431269
 31
0.0
  0
LINE
  5
735
100
AcDbEntity
  8
0
  6
DASHED
 62
               2
100
AcDbLine
 10
-366.81
 20
-60.431763000000004
 30
0.0
 11
-335.81
 21
-60.431763000000004
 31
0.0
  0
LINE
  5
736
100
AcDbEntity
  8
0
  6
DASHED
 62
               2
100
AcDbLine
 10
-367.81
 20
-151.43176299999999
 30
0.0
 11
-367.81
 21
-148.43176299999999
 31
0.0
  0
ARC
  5
737
100
AcDbEntity
  8
0
  6
DASHED
 62
               2
100
AcDbCircle
 10
-364.89364770084745
 20
-139.43176299999999
 30
0.0
 40
0.5
100
AcDbArc
 50
8.1301023541559339
 51
90.000000000000014
  0
LINE
  5
738
100
AcDbEntity
  8
0
  6
DASHED
 62
               2
100
AcDbLine
 10
-367.95999999999998
 20
-140.93176299999999
 30
0.0
 11
-367.95999999999998
 21
-143.10009361042074
 31
0.0
  0
ARC
  5
739
100
AcDbEntity
  8
0
  6
DASHED
 62
               2
100
AcDbCircle
 10
-365.95999999999998
 20
-140.93176299999999
 30
0.0
 40
2.0
100
AcDbArc
 50
90.0
 51
180.0
  0
LINE
  5
73A
100
AcDbEntity
  8
0
  6
DASHED
 62
               2
100
AcDbLine
 10
-364.89364770084745
 20
-138.93176299999999
 30
0.0
 11
-365.95999999999998
 21
-138.93176299999999
 31
0.0
  0
ARC
  5
73B
100
AcDbEntity
  8
0
  6
DASHED
 62
               2
100
AcDbCircle
 10
-364.89364770084757
 20
-106.431763
 30
0.0
 40
0.5
100
AcDbArc
 50
270.0
 51
351.86989764584399
  0
ARC
  5
73C
100
AcDbEntity
  8
0
  6
DASHED
 62
               2
100
AcDbCircle
 10
-365.95999999999998
 20
-104.931763
 30
0.0
 40
2.0
100
AcDbArc
 50
180.0
 51
270.0
  0
LINE
  5
73D
100
AcDbEntity
  8
0
  6
DASHED
 62
               2
100
AcDbLine
 10
-364.89364770084757
 20
-106.931763
 30
0.0
 11
-365.95999999999998
 21
-106.931763
 31
0.0
  0
LINE
  5
73E
100
AcDbEntity
  8
0
  6
DASHED
 62
               2
100
AcDbLine
 10
-367.95999999999998
 20
-102.76343238957928
 30
0.0
 11
-367.95999999999998
 21
-104.931763
 31
0.0
  0
LINE
  5
73F
100
AcDbEntity
  8
0
  6
DASHED
 62
               2
100
AcDbLine
 10
-369.81
 20
-63.431762999999947
 30
0.0
 11
-369.81
 21
-101.90076322199253
 31
0.0
  0
LINE
  5
740
100
AcDbEntity
  8
0
  6
DASHED
 62
               2
100
AcDbLine
 10
-367.95999999999998
 20
-143.10009361042071
 30
0.0
 11
-369.81
 21
-143.96276277800746
 31
0.0
  0
LINE
  5
741
100
AcDbEntity
  8
0
  6
DASHED
 62
               2
100
AcDbLine
 10
-367.95999999999998
 20
-102.76343238957929
 30
0.0
 11
-369.81
 21
-101.90076322199253
 31
0.0
  0
LINE
  5
742
100
AcDbEntity
  8
0
  6
DASHED
 62
               2
100
AcDbLine
 10
-369.81
 20
-146.43176299999999
 30
0.0
 11
-367.81
 21
-148.43176299999999
 31
0.0
  0
LINE
  5
743
100
AcDbEntity
  8
0
  6
DASHED
 62
               2
100
AcDbLine
 10
-369.81
 20
-146.43176299999999
 30
0.0
 11
-369.81
 21
-143.96276277800746
 31
0.0
  0
ARC
  5
744
100
AcDbEntity
  8
0
  6
DASHED
 62
               2
100
AcDbCircle
 10
-366.81
 20
-63.431763000000004
 30
0.0
 40
3.0
100
AcDbArc
 50
89.999963344575988
 51
179.99994535848663
  0
LINE
  5
745
100
AcDbEntity
  8
0
  6
DASHED
 62
               2
100
AcDbLine
 10
-370.81
 20
-137.43176299999999
 30
0.0
 11
-370.81
 21
-108.431763
 31
0.0
  0
LINE
  5
746
100
AcDbEntity
  8
0
  6
DASHED
 62
               2
100
AcDbLine
 10
-370.81
 20
-108.431763
 30
0.0
 11
-364.31
 21
-108.431763
 31
0.0
  0
LINE
  5
747
100
AcDbEntity
  8
0
  6
DASHED
 62
               2
100
AcDbLine
 10
-370.81
 20
-137.43176299999999
 30
0.0
 11
-364.31
 21
-137.43176299999999
 31
0.0
  0
LINE
  5
748
100
AcDbEntity
  8
0
  6
DASHED
 62
               2
100
AcDbLine
 10
-364.31
 20
-108.431763
 30
0.0
 11
-364.31
 21
-106.50247367811866
 31
0.0
  0
LINE
  5
749
100
AcDbEntity
  8
0
  6
DASHED
 62
               2
100
AcDbLine
 10
-364.31
 20
-139.36105232188135
 30
0.0
 11
-364.31
 21
-137.43176299999999
 31
0.0
  0
LINE
  5
74A
100
AcDbEntity
  8
0
  6
DASHED
 62
               2
100
AcDbLine
 10
-367.60998779296875
 20
-153.43176299999999
 30
0.0
 11
-336.31
 21
-153.43176299999999
 31
0.0
  0
LINE
  5
74B
100
AcDbEntity
  8
0
  6
DASHED
 62
               2
100
AcDbLine
 10
-367.60998779296875
 20
-151.63177520703124
 30
0.0
 11
-367.81
 21
-151.43176299999999
 31
0.0
  0
LINE
  5
74C
100
AcDbEntity
  8
0
  6
DASHED
 62
               2
100
AcDbLine
 10
-367.60998779296875
 20
-151.63175994824218
 30
0.0
 11
-367.60998779296875
 21
-153.43176299999999
 31
0.0
  0
LINE
  5
74D
100
AcDbEntity
  8
0
  6
DASHED
 62
               2
100
AcDbLine
 10
-335.81
 20
-152.93176299999999
 30
0.0
 11
-335.81
 21
-60.431763000000004
 31
0.0
  0
ARC
  5
74E
100
AcDbEntity
  8
0
  6
DASHED
 62
               7
100
AcDbCircle
 10
-336.30992606504327
 20
-152.93183693495666
 30
0.0
 40
0.4999260705104662
100
AcDbArc
 50
269.99152642511825
 51
0.0084735748821464
  0
LINE
  5
74F
100
AcDbEntity
  8
0
  6
CONTINUOUS
 62
               4
100
AcDbLine
 10
-334.21000000000004
 20
-140.93176299999999
 30
0.0
 11
-335.81
 21
-140.93176299999999
 31
0.0
  0
LINE
  5
750
100
AcDbEntity
  8
0
  6
CONTINUOUS
 62
               4
100
AcDbLine
 10
-334.21000000000004
 20
-100.931763
 30
0.0
 11
-335.81
 21
-100.931763
 31
0.0
  0
LINE
  5
751
100
AcDbEntity
  8
0
  6
CONTINUOUS
 62
               4
100
AcDbLine
 10
-335.81371917724607
 20
-72.431777954101563
 30
0.0
 11
-334.21370544433591
 21
-72.431777954101563
 31
0.0
  0
ARC
  5
752
100
AcDbEntity
  8
0
  6
CONTINUOUS
 62
               7
100
AcDbCircle
 10
-335.41371154785156
 20
-155.03175354003906
 30
0.0
 40
0.4000000357627869
100
AcDbArc
 50
180.00003597217869
 51
270.00007262760272
  0
LINE
  5
753
100
AcDbEntity
  8
0
  6
CONTINUOUS
 62
               7
100
AcDbLine
 10
-334.813720703125
 20
-98.931777954101563
 30
0.0
 11
-335.813720703125
 21
-98.931777954101563
 31
0.0
  0
LINE
  5
754
100
AcDbEntity
  8
0
  6
CONTINUOUS
 62
               7
100
AcDbLine
 10
-334.813720703125
 20
-100.9317626953125
 30
0.0
 11
-334.813720703125
 21
-98.931777954101563
 31
0.0
  0
LINE
  5
755
100
AcDbEntity
  8
0
  6
CONTINUOUS
 62
               7
100
AcDbLine
 10
-335.813720703125
 20
-155.03175379117226
 30
0.0
 11
-335.813720703125
 21
-153.43176300000002
 31
0.0
  0
LINE
  5
756
100
AcDbEntity
  8
0
  6
CONTINUOUS
 62
               4
100
AcDbLine
 10
-334.21000000000004
 20
-100.93000000000001
 30
0.0
 11
-335.81
 21
-100.93000000000001
 31
0.0
  0
ENDSEC
  0
SECTION
  2
OBJECTS
  0
DICTIONARY
  5
19
100
AcDbDictionary
  3
ACAD_GROUP
350
1A
  3
ACAD_MLINESTYLE
350
1B
  0
DICTIONARY
  5
1A
102
{ACAD_REACTORS
330
19
102
}
100
AcDbDictionary
  0
DICTIONARY
  5
1B
102
{ACAD_REACTORS
330
19
102
}
100
AcDbDictionary
  3
STANDARD
350
1C
  0
MLINESTYLE
  5
1C
102
{ACAD_REACTORS
330
1B
102
}
100
AcDbMlineStyle
  2
Standard
 70
               0
  3

 62
               0
 51
90.0
 52
90.0
 71
               2
 49
0.5
 62
             256
  6
ByLayer
 49
-0.5
 62
             256
  6
ByLayer
  0
ENDSEC
  0
EOF
