  0
SECTION
  2
HEADER
  9
$ACADVER
  1
AC1012
  9
$DWGCODEPAGE
  3
dos932
  9
$INSBASE
 10
0.0
 20
0.0
 30
0.0
  9
$EXTMIN
 10
-399.25
 20
-276.75
 30
0.0
  9
$EXTMAX
 10
406.09414987197181
 20
276.25
 30
0.0
  9
$LIMMIN
 10
-399.25
 20
-276.75
  9
$LIMMAX
 10
406.09414987197181
 20
276.25
  9
$ORTHOMODE
 70
               0
  9
$REGENMODE
 70
               1
  9
$FILLMODE
 70
               1
  9
$QTEXTMODE
 70
               0
  9
$MIRRTEXT
 70
               1
  9
$DRAGMODE
 70
               2
  9
$LTSCALE
 40
1.0
  9
$OSMODE
 70
               0
  9
$ATTMODE
 70
               1
  9
$TEXTSIZE
 40
3.2000000476837158
  9
$TRACEWID
 40
0.05
  9
$TEXTSTYLE
  7
MX_NOTE_STANDARD
  9
$CLAYER
  8
0
  9
$CELTYPE
  6
CONTINUOUS
  9
$CECOLOR
 62
             256
  9
$CELTSCALE
 40
1.0
  9
$DELOBJ
 70
               1
  9
$DISPSILH
 70
               0
  9
$DIMSCALE
 40
1.0
  9
$DIMASZ
 40
2.5
  9
$DIMEXO
 40
1.5
  9
$DIMDLI
 40
3.75
  9
$DIMRND
 40
0.0
  9
$DIMDLE
 40
0.0
  9
$DIMEXE
 40
1.5
  9
$DIMTP
 40
0.0
  9
$DIMTM
 40
0.0
  9
$DIMTXT
 40
3.2000000476837158
  9
$DIMCEN
 40
2.5
  9
$DIMTSZ
 40
0.0
  9
$DIMTOL
 70
               0
  9
$DIMLIM
 70
               0
  9
$DIMTIH
 70
               0
  9
$DIMTOH
 70
               0
  9
$DIMSE1
 70
               0
  9
$DIMSE2
 70
               0
  9
$DIMTAD
 70
               1
  9
$DIMZIN
 70
               8
  9
$DIMBLK
  1

  9
$DIMASO
 70
               1
  9
$DIMSHO
 70
               1
  9
$DIMPOST
  1

  9
$DIMAPOST
  1

  9
$DIMALT
 70
               0
  9
$DIMALTD
 70
               4
  9
$DIMALTF
 40
0.03937007874016
  9
$DIMLFAC
 40
1.0
  9
$DIMTOFL
 70
               1
  9
$DIMTVP
 40
0.0
  9
$DIMTIX
 70
               0
  9
$DIMSOXD
 70
               0
  9
$DIMSAH
 70
               0
  9
$DIMBLK1
  1

  9
$DIMBLK2
  1

  9
$DIMSTYLE
  2
MXDIMSTYLE
  9
$DIMCLRD
 70
               0
  9
$DIMCLRE
 70
               0
  9
$DIMCLRT
 70
               0
  9
$DIMTFAC
 40
1.0
  9
$DIMGAP
 40
1.0
  9
$DIMJUST
 70
               0
  9
$DIMSD1
 70
               0
  9
$DIMSD2
 70
               0
  9
$DIMTOLJ
 70
               1
  9
$DIMTZIN
 70
               0
  9
$DIMALTZ
 70
               0
  9
$DIMALTTZ
 70
               0
  9
$DIMFIT
 70
               3
  9
$DIMUPT
 70
               1
  9
$DIMUNIT
 70
               2
  9
$DIMDEC
 70
               4
  9
$DIMTDEC
 70
               4
  9
$DIMALTU
 70
               2
  9
$DIMALTTD
 70
               4
  9
$DIMTXSTY
  7
MX_NOTE_STANDARD
  9
$DIMAUNIT
 70
               0
  9
$LUNITS
 70
               2
  9
$LUPREC
 70
               4
  9
$SKETCHINC
 40
0.1
  9
$FILLETRAD
 40
0.0
  9
$AUNITS
 70
               0
  9
$AUPREC
 70
               0
  9
$MENU
  1
acad
  9
$ELEVATION
 40
0.0
  9
$PELEVATION
 40
0.0
  9
$THICKNESS
 40
0.0
  9
$LIMCHECK
 70
               0
  9
$BLIPMODE
 70
               1
  9
$CHAMFERA
 40
0.0
  9
$CHAMFERB
 40
0.0
  9
$CHAMFERC
 40
0.0
  9
$CHAMFERD
 40
0.0
  9
$SKPOLY
 70
               0
  9
$TDCREATE
 40
2453378.356400463
  9
$TDUPDATE
 40
2453378.356400463
  9
$TDINDWG
 40
0.0000000000
  9
$TDUSRTIMER
 40
0.0000000000
  9
$USRTIMER
 70
               1
  9
$ANGBASE
 50
0.0
  9
$ANGDIR
 70
               0
  9
$PDMODE
 70
               0
  9
$PDSIZE
 40
0.0
  9
$PLINEWID
 40
0.0
  9
$COORDS
 70
               1
  9
$SPLFRAME
 70
               0
  9
$SPLINETYPE
 70
               6
  9
$SPLINESEGS
 70
               8
  9
$ATTDIA
 70
               0
  9
$ATTREQ
 70
               1
  9
$HANDLING
 70
               1
  9
$HANDSEED
  5
7DB
  9
$SURFTAB1
 70
               6
  9
$SURFTAB2
 70
               6
  9
$SURFTYPE
 70
               6
  9
$SURFU
 70
               6
  9
$SURFV
 70
               6
  9
$UCSNAME
  2

  9
$UCSORG
 10
0.0
 20
0.0
 30
0.0
  9
$UCSXDIR
 10
1.0
 20
0.0
 30
0.0
  9
$UCSYDIR
 10
0.0
 20
1.0
 30
0.0
  9
$PUCSNAME
  2

  9
$PUCSORG
 10
0.0
 20
0.0
 30
0.0
  9
$PUCSXDIR
 10
1.0
 20
0.0
 30
0.0
  9
$PUCSYDIR
 10
0.0
 20
1.0
 30
0.0
  9
$USERI1
 70
               0
  9
$USERI2
 70
               0
  9
$USERI3
 70
               0
  9
$USERI4
 70
               0
  9
$USERI5
 70
               0
  9
$USERR1
 40
0.0
  9
$USERR2
 40
0.0
  9
$USERR3
 40
0.0
  9
$USERR4
 40
0.0
  9
$USERR5
 40
0.0
  9
$WORLDVIEW
 70
               1
  9
$SHADEDGE
 70
               3
  9
$SHADEDIF
 70
              70
  9
$TILEMODE
 70
               1
  9
$MAXACTVP
 70
              16
  9
$PINSBASE
 10
0.0
 20
0.0
 30
0.0
  9
$PLIMCHECK
 70
               0
  9
$PEXTMIN
 10
1.0000000000000000E+20
 20
1.0000000000000000E+20
 30
1.0000000000000000E+20
  9
$PEXTMAX
 10
-1.0000000000000000E+20
 20
-1.0000000000000000E+20
 30
-1.0000000000000000E+20
  9
$PLIMMIN
 10
0.0
 20
0.0
  9
$PLIMMAX
 10
12.0
 20
9.0
  9
$UNITMODE
 70
               0
  9
$VISRETAIN
 70
               0
  9
$PLINEGEN
 70
               1
  9
$PSLTSCALE
 70
               0
  9
$TREEDEPTH
 70
            3020
  9
$PICKSTYLE
 70
               1
  9
$CMLSTYLE
  2
Standard
  9
$CMLJUST
 70
               0
  9
$CMLSCALE
 40
1.0
  9
$SAVEIMAGES
 70
               0
  0
ENDSEC
  0
SECTION
  2
CLASSES
  0
CLASS
  1
LWPOLYLINE
  2
AcDbPolyline
  3
"AutoCAD"
 90
        0
280
               0
281
               1
  0
CLASS
  1
IMAGE
  2
AcDbRasterImage
  3
ISM
 90
      127
280
               0
281
               1
  0
CLASS
  1
OLE2FRAME
  2
AcDbOle2Frame
  3
""
 90
        0
280
               0
281
               1
  0
CLASS
  1
HATCH
  2
AcDbHatch
  3
"ACAD_SEDONA"
 90
        0
280
               0
281
               1
  0
CLASS
  1
DICTIONARYVAR
  2
AcDbDictionaryVar
  3
"AutoCAD"
 90
        0
280
               0
281
               0
  0
CLASS
  1
RASTERVARIABLES
  2
AcDbRasterVariables
  3
ISM
 90
        0
280
               0
281
               0
  0
CLASS
  1
IMAGEDEF
  2
AcDbRasterImageDef
  3
ISM
 90
        0
280
               0
281
               0
  0
CLASS
  1
IMAGEDEF_REACTOR
  2
AcDbRasterImageDefReactor
  3
ISM
 90
        1
280
               0
281
               0
  0
CLASS
  1
IDBUFFER
  2
AcDbIdBuffer
  3
"Acad"
 90
        0
280
               0
281
               0
  0
CLASS
  1
SPATIAL_FILTER
  2
AcDbSpatialFilter
  3
"Acad"
 90
        0
280
               0
281
               0
  0
CLASS
  1
XRECORD
  2
AcDbXrecord
  3
"<Built In>"
 90
        0
280
               0
281
               0
  0
CLASS
  1
SORTENTSTABLE
  2
AcDbSortentsTable
  3
"AutoCAD"
 90
        0
280
               0
281
               0
  0
CLASS
  1
LAYER_INDEX
  2
AcDbLayerIndex
  3
"Acad"
 90
        0
280
               0
281
               0
  0
CLASS
  1
SPATIAL_INDEX
  2
AcDbSpatialIndex
  3
"Acad"
 90
        0
280
               0
281
               0
  0
CLASS
  1
OBJECT_PTR
  2
CAseDLPNTableRecord
  3
"ASE-LPNTableRecord"
 90
        1
280
               0
281
               0
  0
CLASS
  1
LAYOUT
  2
AcDbLayout
  3
"AutoCAD 2000"
 90
        1
280
               0
281
               0
  0
CLASS
  1
PLOTSETTINGS
  2
AcDbPlotSettings
  3
"AutoCAD 2000"
 90
        1
280
               0
281
               0
  0
CLASS
  1
ACDBDICTIONARYWDFLT
  2
AcDbDictionaryWithDefault
  3
"AutoCAD 2000"
 90
        1
280
               0
281
               0
  0
CLASS
  1
ACDBPLACEHOLDER
  2
AcDbPlaceHolder
  3
"AutoCAD 2000"
 90
        1
280
               0
281
               0
  0
ENDSEC
  0
SECTION
  2
TABLES
  0
TABLE
  2
VPORT
  5
7
100
AcDbSymbolTable
 70
               1
  0
VPORT
  5
15
100
AcDbSymbolTableRecord
100
AcDbViewportTableRecord
  2
*ACTIVE
 70
               0
 10
0.0
 20
0.0
 11
1.0
 21
1.0
 12
3.4220749359859042
 22
-0.25
 13
0.0
 23
0.0
 14
1.0
 24
1.0
 15
0.0
 25
0.0
 16
0.0
 26
0.0
 36
1.0
 17
0.0
 27
0.0
 37
0.0
 40
558.52999999999997
 41
1.7320508075688772
 42
50.0
 43
0.0
 44
0.0
 50
0.0
 51
0.0
 71
               0
 72
             100
 73
               1
 74
               1
 75
               0
 76
               0
 77
               0
 78
               0
  0
ENDTAB
  0
TABLE
  2
LTYPE
  5
4
100
AcDbSymbolTable
 70
               5
  0
LTYPE
  5
11
100
AcDbSymbolTableRecord
100
AcDbLinetypeTableRecord
  2
BYBLOCK
 70
              64
  3

 72
              65
 73
               0
 40
0.0
  0
LTYPE
  5
12
100
AcDbSymbolTableRecord
100
AcDbLinetypeTableRecord
  2
BYLAYER
 70
              64
  3

 72
              65
 73
               0
 40
0.0
  0
LTYPE
  5
13
100
AcDbSymbolTableRecord
100
AcDbLinetypeTableRecord
  2
CONTINUOUS
 70
              64
  3
Solid line
 72
              65
 73
               0
 40
0.0
  0
LTYPE
  5
489
100
AcDbSymbolTableRecord
100
AcDbLinetypeTableRecord
  2
CENTER
 70
              64
  3
Center ____ _ ____ _ ____ _ ____ _ ____ _ ____
 72
              65
 73
               4
 40
26.0
 49
20.0
 74
               0
 49
-2.0
 74
               0
 49
2.0
 74
               0
 49
-2.0
 74
               0
  0
LTYPE
  5
738
100
AcDbSymbolTableRecord
100
AcDbLinetypeTableRecord
  2
DASHED
 70
              64
  3
Dashed __ __ __ __ __ __ __ __ __ __ __ __ __ _
 72
              65
 73
               2
 40
4.0
 49
2.0
 74
               0
 49
-2.0
 74
               0
  0
ENDTAB
  0
TABLE
  2
LAYER
  5
2
100
AcDbSymbolTable
 70
               2
  0
LAYER
  5
14
100
AcDbSymbolTableRecord
100
AcDbLayerTableRecord
  2
0
 70
               0
 62
               7
  6
CONTINUOUS
  0
LAYER
  5
1D
100
AcDbSymbolTableRecord
100
AcDbLayerTableRecord
  2
DEFPOINTS
 70
               0
 62
               7
  6
CONTINUOUS
  0
ENDTAB
  0
TABLE
  2
STYLE
  5
3
100
AcDbSymbolTable
 70
               1
  0
STYLE
  5
17
100
AcDbSymbolTableRecord
100
AcDbTextStyleTableRecord
  2
MX_NOTE_STANDARD
 70
               0
 40
0.0
 41
1.0
 50
0.0
 71
               0
 42
3.2000000476837158
  3
txt.shx
  4
extfont.shx
  0
ENDTAB
  0
TABLE
  2
VIEW
  5
5
100
AcDbSymbolTable
 70
               0
  0
ENDTAB
  0
TABLE
  2
UCS
  5
6
100
AcDbSymbolTable
 70
               0
  0
ENDTAB
  0
TABLE
  2
APPID
  5
8
100
AcDbSymbolTable
 70
               1
  0
APPID
  5
16
100
AcDbSymbolTableRecord
100
AcDbRegAppTableRecord
  2
ACAD
 70
               0
  0
ENDTAB
  0
TABLE
  2
DIMSTYLE
  5
9
100
AcDbSymbolTable
 70
               1
  0
DIMSTYLE
105
18
100
AcDbSymbolTableRecord
100
AcDbDimStyleTableRecord
  2
MXDIMSTYLE
 70
               0
  3

  4

  5

  6

  7

 40
1.0
 41
2.5
 42
1.5
 43
3.75
 44
1.5
 45
0.0
 46
0.0
 47
0.0
 48
0.0
 71
               0
 72
               0
 73
               0
 74
               0
 75
               0
 76
               0
 77
               1
 78
               8
140
3.2000000476837158
141
2.5
142
0.0
143
0.03937007874016
144
1.0
145
0.0
146
1.0
147
1.0
170
               0
171
               4
172
               1
173
               0
174
               0
175
               0
176
               0
177
               0
178
               0
270
               2
271
               4
272
               4
273
               2
274
               4
275
               0
280
               0
281
               0
282
               0
283
               1
284
               0
285
               0
286
               0
287
               3
288
               1
340
17
  0
ENDTAB
  0
TABLE
  2
BLOCK_RECORD
  5
1
100
AcDbSymbolTable
 70
              21
  0
BLOCK_RECORD
  5
A
100
AcDbSymbolTableRecord
100
AcDbBlockTableRecord
  2
*MODEL_SPACE
  0
BLOCK_RECORD
  5
B
100
AcDbSymbolTableRecord
100
AcDbBlockTableRecord
  2
*PAPER_SPACE
  0
BLOCK_RECORD
  5
1E
100
AcDbSymbolTableRecord
100
AcDbBlockTableRecord
  2
F10MPJ-1
  0
BLOCK_RECORD
  5
1F
100
AcDbSymbolTableRecord
100
AcDbBlockTableRecord
  2
F10MPJ-2
  0
BLOCK_RECORD
  5
20
100
AcDbSymbolTableRecord
100
AcDbBlockTableRecord
  2
F10MPJ-3
  0
BLOCK_RECORD
  5
21
100
AcDbSymbolTableRecord
100
AcDbBlockTableRecord
  2
F10MPJ-4
  0
BLOCK_RECORD
  5
22
100
AcDbSymbolTableRecord
100
AcDbBlockTableRecord
  2
F10MPJ-5
  0
BLOCK_RECORD
  5
23
100
AcDbSymbolTableRecord
100
AcDbBlockTableRecord
  2
F10MPJ-6
  0
BLOCK_RECORD
  5
24
100
AcDbSymbolTableRecord
100
AcDbBlockTableRecord
  2
F10MPJ-7
  0
BLOCK_RECORD
  5
25
100
AcDbSymbolTableRecord
100
AcDbBlockTableRecord
  2
F10MPJ-8
  0
BLOCK_RECORD
  5
26
100
AcDbSymbolTableRecord
100
AcDbBlockTableRecord
  2
F10MPJ-9
  0
BLOCK_RECORD
  5
27
100
AcDbSymbolTableRecord
100
AcDbBlockTableRecord
  2
F10MPJ-10
  0
BLOCK_RECORD
  5
28
100
AcDbSymbolTableRecord
100
AcDbBlockTableRecord
  2
F10MPJ-11
  0
BLOCK_RECORD
  5
29
100
AcDbSymbolTableRecord
100
AcDbBlockTableRecord
  2
F10MPJ-12
  0
BLOCK_RECORD
  5
2A
100
AcDbSymbolTableRecord
100
AcDbBlockTableRecord
  2
F10MPJ-13
  0
BLOCK_RECORD
  5
2B
100
AcDbSymbolTableRecord
100
AcDbBlockTableRecord
  2
F10MPJ-14
  0
BLOCK_RECORD
  5
2C
100
AcDbSymbolTableRecord
100
AcDbBlockTableRecord
  2
F10MPJ-15
  0
BLOCK_RECORD
  5
2D
100
AcDbSymbolTableRecord
100
AcDbBlockTableRecord
  2
F10MPJ-16
  0
BLOCK_RECORD
  5
2E
100
AcDbSymbolTableRecord
100
AcDbBlockTableRecord
  2
F10MPJ-17
  0
BLOCK_RECORD
  5
2F
100
AcDbSymbolTableRecord
100
AcDbBlockTableRecord
  2
F10MPJ-18
  0
BLOCK_RECORD
  5
30
100
AcDbSymbolTableRecord
100
AcDbBlockTableRecord
  2
F10MPJ-19
  0
BLOCK_RECORD
  5
31
100
AcDbSymbolTableRecord
100
AcDbBlockTableRecord
  2
F10MPJ-20
  0
BLOCK_RECORD
  5
32
100
AcDbSymbolTableRecord
100
AcDbBlockTableRecord
  2
F10MPJ-21
  0
ENDTAB
  0
ENDSEC
  0
SECTION
  2
BLOCKS
  0
BLOCK
  5
D
100
AcDbEntity
  8
0
100
AcDbBlockBegin
  2
*MODEL_SPACE
 70
               0
 10
0.0
 20
0.0
 30
0.0
  3
*MODEL_SPACE
  1

  0
ENDBLK
  5
E
100
AcDbEntity
  8
0
100
AcDbBlockEnd
  0
BLOCK
  5
F
100
AcDbEntity
 67
               1
  8
0
100
AcDbBlockBegin
  2
*PAPER_SPACE
 70
               0
 10
0.0
 20
0.0
 30
0.0
  3
*PAPER_SPACE
  1

  0
ENDBLK
  5
10
100
AcDbEntity
 67
               1
  8
0
100
AcDbBlockEnd
  0
BLOCK
  5
33
100
AcDbEntity
  8
0
100
AcDbBlockBegin
  2
F10MPJ-1
 70
               0
 10
0.0
 20
0.0
 30
0.0
  3
F10MPJ-1
  1

  0
LINE
  5
34
100
AcDbEntity
  8
0
  6
CONTINUOUS
 62
               7
100
AcDbLine
 10
80.5
 20
-30.5
 30
0.0
 11
80.5
 21
62.5
 31
0.0
  0
ARC
  5
35
100
AcDbEntity
  8
0
  6
CONTINUOUS
 62
               7
100
AcDbCircle
 10
99.0
 20
-28.379549805998806
 30
0.0
 40
0.5
100
AcDbArc
 50
274.99999999999977
 51
0.0
  0
LINE
  5
36
100
AcDbEntity
  8
0
  6
CONTINUOUS
 62
               7
100
AcDbLine
 10
80.5
 20
-30.5
 30
0.0
 11
99.043577871373827
 21
-28.877647155044656
 31
0.0
  0
LINE
  5
37
100
AcDbEntity
  8
0
  6
CONTINUOUS
 62
               7
100
AcDbLine
 10
89.873672190747129
 20
-1.6263560838469857
 30
0.0
 11
93.126357128962809
 21
1.6263285801878737
 31
0.0
  0
LINE
  5
38
100
AcDbEntity
  8
0
  6
CONTINUOUS
 62
               7
100
AcDbLine
 10
89.87370885850487
 20
1.6263965841317258
 30
0.0
 11
93.126393796720549
 21
-1.6262880799031336
 31
0.0
  0
CIRCLE
  5
39
100
AcDbEntity
  8
0
  6
CONTINUOUS
 62
               7
100
AcDbCircle
 10
91.5
 20
0.0
 30
0.0
 40
4.0
  0
ARC
  5
3A
100
AcDbEntity
  8
0
  6
CONTINUOUS
 62
               7
100
AcDbCircle
 10
99.0
 20
28.816993123628322
 30
0.0
 40
0.5
100
AcDbArc
 50
0.0
 51
85.000000000000114
  0
LINE
  5
3B
100
AcDbEntity
  8
0
  6
CONTINUOUS
 62
               7
100
AcDbLine
 10
99.5
 20
28.816993123628322
 30
0.0
 11
99.5
 21
-28.379549805998806
 31
0.0
  0
ARC
  5
3C
100
AcDbEntity
  8
0
  6
CONTINUOUS
 62
               7
100
AcDbCircle
 10
86.0
 20
30.958165587008693
 30
0.0
 40
0.5
100
AcDbArc
 50
180.0
 51
265.00000000000028
  0
LINE
  5
3D
100
AcDbEntity
  8
0
  6
CONTINUOUS
 62
               7
100
AcDbLine
 10
85.956422128626173
 20
30.460068237962787
 30
0.0
 11
99.043577871373827
 21
29.315090472674228
 31
0.0
  0
ARC
  5
3E
100
AcDbEntity
  8
0
  6
CONTINUOUS
 62
               7
100
AcDbCircle
 10
85.0
 20
62.0
 30
0.0
 40
0.5
100
AcDbArc
 50
0.0
 51
90.0
  0
LINE
  5
3F
100
AcDbEntity
  8
0
  6
CONTINUOUS
 62
               7
100
AcDbLine
 10
85.5
 20
30.958165587008693
 30
0.0
 11
85.5
 21
62.0
 31
0.0
  0
LINE
  5
40
100
AcDbEntity
  8
0
  6
CONTINUOUS
 62
               7
100
AcDbLine
 10
80.5
 20
62.5
 30
0.0
 11
85.0
 21
62.5
 31
0.0
  0
ARC
  5
41
100
AcDbEntity
  8
0
  6
CONTINUOUS
 62
               7
100
AcDbCircle
 10
1.0
 20
-28.379549805998806
 30
0.0
 40
0.5
100
AcDbArc
 50
180.0
 51
265.00000000000023
  0
LINE
  5
42
100
AcDbEntity
  8
0
  6
CONTINUOUS
 62
               7
100
AcDbLine
 10
19.5
 20
-30.5
 30
0.0
 11
0.9564221286261727
 21
-28.877647155044656
 31
0.0
  0
LINE
  5
43
100
AcDbEntity
  8
0
  6
CONTINUOUS
 62
               7
100
AcDbLine
 10
6.873728939837747
 20
1.6264083852506133
 30
0.0
 11
10.126415901102291
 21
-1.6262783018329401
 31
0.0
  0
LINE
  5
44
100
AcDbEntity
  8
0
  6
CONTINUOUS
 62
               7
100
AcDbLine
 10
6.8736491137065059
 20
-1.626357095370679
 30
0.0
 11
10.126334051922186
 21
1.6263275686641805
 31
0.0
  0
CIRCLE
  5
45
100
AcDbEntity
  8
0
  6
CONTINUOUS
 62
               7
100
AcDbCircle
 10
8.5
 20
-0.0000000000000568
 30
0.0
 40
4.0
  0
ARC
  5
46
100
AcDbEntity
  8
0
  6
CONTINUOUS
 62
               7
100
AcDbCircle
 10
14.0
 20
30.958165587008693
 30
0.0
 40
0.5
100
AcDbArc
 50
274.99999999999972
 51
0.0
  0
LINE
  5
47
100
AcDbEntity
  8
0
  6
CONTINUOUS
 62
               7
100
AcDbLine
 10
14.043577871373827
 20
30.460068237962787
 30
0.0
 11
0.9564221286261727
 21
29.315090472674228
 31
0.0
  0
ARC
  5
48
100
AcDbEntity
  8
0
  6
CONTINUOUS
 62
               7
100
AcDbCircle
 10
1.0
 20
28.816993123628379
 30
0.0
 40
0.5
100
AcDbArc
 50
94.999999999999886
 51
180.0
  0
LINE
  5
49
100
AcDbEntity
  8
0
  6
CONTINUOUS
 62
               7
100
AcDbLine
 10
0.5
 20
28.816993123628379
 30
0.0
 11
0.5
 21
-28.379549805998806
 31
0.0
  0
LINE
  5
4A
100
AcDbEntity
  8
0
  6
CONTINUOUS
 62
               7
100
AcDbLine
 10
19.5
 20
-30.5
 30
0.0
 11
19.5
 21
62.499999999999943
 31
0.0
  0
ARC
  5
4B
100
AcDbEntity
  8
0
  6
CONTINUOUS
 62
               7
100
AcDbCircle
 10
15.0
 20
61.999999999999943
 30
0.0
 40
0.5
100
AcDbArc
 50
90.0
 51
180.0
  0
LINE
  5
4C
100
AcDbEntity
  8
0
  6
CONTINUOUS
 62
               7
100
AcDbLine
 10
19.5
 20
62.499999999999943
 30
0.0
 11
15.0
 21
62.499999999999943
 31
0.0
  0
LINE
  5
4D
100
AcDbEntity
  8
0
  6
CONTINUOUS
 62
               7
100
AcDbLine
 10
14.5
 20
30.958165587008693
 30
0.0
 11
14.5
 21
61.999999999999943
 31
0.0
  0
LINE
  5
4E
100
AcDbEntity
  8
0
  6
CONTINUOUS
 62
               7
100
AcDbLine
 10
100.0
 20
-4.0
 30
0.0
 11
100.0
 21
4.0
 31
0.0
  0
LINE
  5
4F
100
AcDbEntity
  8
0
  6
CONTINUOUS
 62
               7
100
AcDbLine
 10
0.0
 20
-4.0
 30
0.0
 11
0.0
 21
4.0
 31
0.0
  0
ARC
  5
50
100
AcDbEntity
  8
0
  6
CONTINUOUS
 62
               7
100
AcDbCircle
 10
107.5
 20
0.0
 30
0.0
 40
2.75
100
AcDbArc
 50
270.00001798608935
 51
89.999982013910653
  0
LINE
  5
51
100
AcDbEntity
  8
0
  6
CONTINUOUS
 62
               7
100
AcDbLine
 10
99.5
 20
2.75
 30
0.0
 11
107.5
 21
2.75
 31
0.0
  0
LINE
  5
52
100
AcDbEntity
  8
0
  6
CONTINUOUS
 62
               7
100
AcDbLine
 10
99.5
 20
-2.75
 30
0.0
 11
107.5
 21
-2.75
 31
0.0
  0
LINE
  5
53
100
AcDbEntity
  8
0
  6
CONTINUOUS
 62
               7
100
AcDbLine
 10
99.5
 20
-17.5
 30
0.0
 11
112.5
 21
-17.5
 31
0.0
  0
LINE
  5
54
100
AcDbEntity
  8
0
  6
CONTINUOUS
 62
               7
100
AcDbLine
 10
99.5
 20
-12.5
 30
0.0
 11
112.5
 21
-12.5
 31
0.0
  0
LINE
  5
55
100
AcDbEntity
  8
0
  6
CONTINUOUS
 62
               7
100
AcDbLine
 10
99.5
 20
17.5
 30
0.0
 11
112.5
 21
17.5
 31
0.0
  0
LINE
  5
56
100
AcDbEntity
  8
0
  6
CONTINUOUS
 62
               7
100
AcDbLine
 10
99.5
 20
12.5
 30
0.0
 11
112.5
 21
12.5
 31
0.0
  0
LINE
  5
57
100
AcDbEntity
  8
0
  6
CONTINUOUS
 62
               7
100
AcDbLine
 10
112.5
 20
17.5
 30
0.0
 11
112.5
 21
-17.5
 31
0.0
  0
ARC
  5
58
100
AcDbEntity
  8
0
  6
CONTINUOUS
 62
               7
100
AcDbCircle
 10
-7.5
 20
0.0
 30
0.0
 40
2.75
100
AcDbArc
 50
89.999982013910653
 51
270.00000068324533
  0
LINE
  5
59
100
AcDbEntity
  8
0
  6
CONTINUOUS
 62
               7
100
AcDbLine
 10
-7.5
 20
2.75
 30
0.0
 11
0.5
 21
2.75
 31
0.0
  0
LINE
  5
5A
100
AcDbEntity
  8
0
  6
CONTINUOUS
 62
               7
100
AcDbLine
 10
-7.5
 20
-2.75
 30
0.0
 11
0.5
 21
-2.75
 31
0.0
  0
LINE
  5
5B
100
AcDbEntity
  8
0
  6
CONTINUOUS
 62
               7
100
AcDbLine
 10
-12.5
 20
17.5
 30
0.0
 11
-12.5
 21
-17.5
 31
0.0
  0
LINE
  5
5C
100
AcDbEntity
  8
0
  6
CONTINUOUS
 62
               7
100
AcDbLine
 10
-12.5
 20
17.5
 30
0.0
 11
0.5
 21
17.5
 31
0.0
  0
LINE
  5
5D
100
AcDbEntity
  8
0
  6
CONTINUOUS
 62
               7
100
AcDbLine
 10
-12.5
 20
-17.5
 30
0.0
 11
0.5
 21
-17.5
 31
0.0
  0
LINE
  5
5E
100
AcDbEntity
  8
0
  6
CONTINUOUS
 62
               7
100
AcDbLine
 10
-12.5
 20
-12.5
 30
0.0
 11
0.5
 21
-12.5
 31
0.0
  0
LINE
  5
5F
100
AcDbEntity
  8
0
  6
CONTINUOUS
 62
               7
100
AcDbLine
 10
-12.5
 20
12.5
 30
0.0
 11
0.5
 21
12.5
 31
0.0
  0
LINE
  5
60
100
AcDbEntity
  8
0
  6
CONTINUOUS
 62
               7
100
AcDbLine
 10
19.5
 20
49.5
 30
0.0
 11
19.75
 21
49.5
 31
0.0
  0
LINE
  5
61
100
AcDbEntity
  8
0
  6
CONTINUOUS
 62
               2
100
AcDbLine
 10
-13.885460757824148
 20
0.0
 30
0.0
 11
120.69174093803133
 21
0.0
 31
0.0
  0
ENDBLK
  5
62
100
AcDbEntity
  8
0
100
AcDbBlockEnd
  0
BLOCK
  5
63
100
AcDbEntity
  8
0
100
AcDbBlockBegin
  2
F10MPJ-2
 70
               0
 10
0.0
 20
0.0
 30
0.0
  3
F10MPJ-2
  1

  0
LINE
  5
64
100
AcDbEntity
  8
0
  6
CONTINUOUS
 62
               2
100
AcDbLine
 10
5.25
 20
-32.004804820153112
 30
0.0
 11
5.25
 21
67.031454544255382
 31
0.0
  0
LINE
  5
65
100
AcDbEntity
  8
0
  6
CONTINUOUS
 62
               2
100
AcDbLine
 10
5.25
 20
-34.024533501601695
 30
0.0
 11
5.25
 21
-32.004804820153112
 31
0.0
  0
LINE
  5
66
100
AcDbEntity
  8
0
  6
CONTINUOUS
 62
               4
100
AcDbLine
 10
0.6927805106090546
 20
-12.699996948242216
 30
0.0
 11
1.4499969482421875
 21
-12.699996948242216
 31
0.0
  0
LINE
  5
67
100
AcDbEntity
  8
0
  6
CONTINUOUS
 62
               4
100
AcDbLine
 10
0.25
 20
-12.699996948242216
 30
0.0
 11
0.25
 21
14.300018310546847
 31
0.0
  0
LINE
  5
68
100
AcDbEntity
  8
0
  6
CONTINUOUS
 62
               4
100
AcDbLine
 10
0.25
 20
33.500015258789034
 30
0.0
 11
0.25
 21
57.500015258789034
 31
0.0
  0
LINE
  5
69
100
AcDbEntity
  8
0
  6
CONTINUOUS
 62
               4
100
AcDbLine
 10
10.25
 20
33.500015258789034
 30
0.0
 11
10.25
 21
57.500015258789034
 31
0.0
  0
LINE
  5
6A
100
AcDbEntity
  8
0
  6
CONTINUOUS
 62
               7
100
AcDbLine
 10
10.25
 20
9.7000122070312216
 30
0.0
 11
10.25
 21
33.500015258789034
 31
0.0
  0
LINE
  5
6B
100
AcDbEntity
  8
0
  6
CONTINUOUS
 62
               7
100
AcDbLine
 10
0.25
 20
14.300018310546847
 30
0.0
 11
0.25
 21
33.500015258789034
 31
0.0
  0
LINE
  5
6C
100
AcDbEntity
  8
0
  6
CONTINUOUS
 62
               4
100
AcDbLine
 10
10.25
 20
-17.299987792968778
 30
0.0
 11
10.25
 21
9.7000122070312216
 31
0.0
  0
LINE
  5
6D
100
AcDbEntity
  8
0
  6
CONTINUOUS
 62
               7
100
AcDbLine
 10
0.25
 20
-17.499984741210966
 30
0.0
 11
0.25
 21
-14.649993896484403
 31
0.0
  0
LINE
  5
6E
100
AcDbEntity
  8
0
  6
CONTINUOUS
 62
               7
100
AcDbLine
 10
10.5
 20
-30.104079317656669
 30
0.0
 11
10.25
 21
-30.104079317656669
 31
0.0
  0
LINE
  5
6F
100
AcDbEntity
  8
0
  6
CONTINUOUS
 62
               7
100
AcDbLine
 10
10.25
 20
-32.102207009313872
 30
0.0
 11
10.25
 21
-17.299987792968778
 31
0.0
  0
LINE
  5
70
100
AcDbEntity
  8
0
  6
CONTINUOUS
 62
               7
100
AcDbLine
 10
10.5
 20
-30.104079317656669
 30
0.0
 11
10.5
 21
61.500015258789034
 31
0.0
  0
LINE
  5
71
100
AcDbEntity
  8
0
  6
CONTINUOUS
 62
               7
100
AcDbLine
 10
0.0
 20
-30.104079317656669
 30
0.0
 11
0.0
 21
61.500015258789034
 31
0.0
  0
LINE
  5
72
100
AcDbEntity
  8
0
  6
CONTINUOUS
 62
               4
100
AcDbLine
 10
10.149999999999977
 20
-46.80000000000004
 30
0.0
 11
10.149999999999977
 21
-46.000000000000028
 31
0.0
  0
LINE
  5
73
100
AcDbEntity
  8
0
  6
CONTINUOUS
 62
               4
100
AcDbLine
 10
10.25
 20
-44.161880000000025
 30
0.0
 11
10.25
 21
-40.200000000000017
 31
0.0
  0
LINE
  5
74
100
AcDbEntity
  8
0
  6
CONTINUOUS
 62
               7
100
AcDbLine
 10
10.5
 20
21.500015258789034
 30
0.0
 11
10.25
 21
21.500015258789034
 31
0.0
  0
LINE
  5
75
100
AcDbEntity
  8
0
  6
CONTINUOUS
 62
               7
100
AcDbLine
 10
10.5
 20
49.500015258789034
 30
0.0
 11
10.25
 21
49.500015258789034
 31
0.0
  0
LINE
  5
76
100
AcDbEntity
  8
0
  6
CONTINUOUS
 62
               7
100
AcDbLine
 10
10.199996948242187
 20
61.500015258789034
 30
0.0
 11
10.5
 21
61.500015258789034
 31
0.0
  0
LINE
  5
77
100
AcDbEntity
  8
0
  6
CONTINUOUS
 62
               7
100
AcDbLine
 10
10.5
 20
61.000015258789034
 30
0.0
 11
10.25
 21
61.000015258789034
 31
0.0
  0
LINE
  5
78
100
AcDbEntity
  8
0
  6
CONTINUOUS
 62
               7
100
AcDbLine
 10
10.5
 20
60.500015258789034
 30
0.0
 11
10.25
 21
60.500015258789034
 31
0.0
  0
LINE
  5
79
100
AcDbEntity
  8
0
  6
CONTINUOUS
 62
               7
100
AcDbLine
 10
10.5
 20
59.500015258789034
 30
0.0
 11
10.25
 21
59.500015258789034
 31
0.0
  0
LINE
  5
7A
100
AcDbEntity
  8
0
  6
CONTINUOUS
 62
               4
100
AcDbLine
 10
10.25
 20
-39.100000000000023
 30
0.0
 11
10.25
 21
-32.102207009313872
 31
0.0
  0
LINE
  5
7B
100
AcDbEntity
  8
0
  6
CONTINUOUS
 62
               4
100
AcDbLine
 10
10.199996948242187
 20
57.500030517578097
 30
0.0
 11
10.199996948242187
 21
66.000030517578097
 31
0.0
  0
LINE
  5
7C
100
AcDbEntity
  8
0
  6
CONTINUOUS
 62
               7
100
AcDbLine
 10
2.75
 20
30.200012207031222
 30
0.0
 11
7.75
 21
30.200012207031222
 31
0.0
  0
LINE
  5
7D
100
AcDbEntity
  8
0
  6
CONTINUOUS
 62
             200
100
AcDbLine
 10
5.25
 20
-47.601119995117216
 30
0.0
 11
5.25
 21
-34.024533501601695
 31
0.0
  0
LINE
  5
7E
100
AcDbEntity
  8
0
  6
CONTINUOUS
 62
               7
100
AcDbLine
 10
3.323211669921875
 20
29.900009155273409
 30
0.0
 11
7.176788330078125
 21
29.900009155273409
 31
0.0
  0
LINE
  5
7F
100
AcDbEntity
  8
0
  6
CONTINUOUS
 62
               7
100
AcDbLine
 10
3.323211669921875
 20
30.500015258789034
 30
0.0
 11
7.176788330078125
 21
30.500015258789034
 31
0.0
  0
LINE
  5
80
100
AcDbEntity
  8
0
  6
CONTINUOUS
 62
               4
100
AcDbLine
 10
0.3000030517578125
 20
57.500030517578097
 30
0.0
 11
0.3000030517578125
 21
66.000030517578097
 31
0.0
  0
LINE
  5
81
100
AcDbEntity
  8
0
  6
CONTINUOUS
 62
               4
100
AcDbLine
 10
9.7000123639894582
 20
66.500015258789034
 30
0.0
 11
0.7960968315602486
 21
66.500015258789034
 31
0.0
  0
LINE
  5
82
100
AcDbEntity
  8
0
  6
CONTINUOUS
 62
               7
100
AcDbLine
 10
0.25
 20
-32.099990844726591
 30
0.0
 11
0.25
 21
-17.499984741210966
 31
0.0
  0
LINE
  5
83
100
AcDbEntity
  8
0
  6
CONTINUOUS
 62
               7
100
AcDbLine
 10
0.9500146367408888
 20
-17.899970259921275
 30
0.0
 11
0.5500228774963034
 21
-17.499978433243115
 31
0.0
  0
LINE
  5
84
100
AcDbEntity
  8
0
  6
CONTINUOUS
 62
               7
100
AcDbLine
 10
0.9499816610459675
 20
-25.099984377118773
 30
0.0
 11
0.5499898343678069
 21
-25.499976136363358
 31
0.0
  0
LINE
  5
85
100
AcDbEntity
  8
0
  6
CONTINUOUS
 62
               7
100
AcDbLine
 10
9.5500210015761695
 20
-25.099985102047896
 30
0.0
 11
9.9500127608207549
 21
-25.499976928726056
 31
0.0
  0
LINE
  5
86
100
AcDbEntity
  8
0
  6
CONTINUOUS
 62
               7
100
AcDbLine
 10
9.5499784501189424
 20
-17.899981774437066
 30
0.0
 11
9.9499810663910466
 21
-17.499979225600356
 31
0.0
  0
LINE
  5
87
100
AcDbEntity
  8
0
  6
CONTINUOUS
 62
               7
100
AcDbLine
 10
9.5500030517578125
 20
-25.099990844726591
 30
0.0
 11
9.5500030517578125
 21
-17.899993896484403
 31
0.0
  0
LINE
  5
88
100
AcDbEntity
  8
0
  6
CONTINUOUS
 62
               7
100
AcDbLine
 10
0.9499969482421875
 20
-17.899993896484403
 30
0.0
 11
9.5500030517578125
 21
-17.899993896484403
 31
0.0
  0
LINE
  5
89
100
AcDbEntity
  8
0
  6
CONTINUOUS
 62
               7
100
AcDbLine
 10
0.9499969482421875
 20
-25.099990844726591
 30
0.0
 11
0.9499969482421875
 21
-17.899993896484403
 31
0.0
  0
LINE
  5
8A
100
AcDbEntity
  8
0
  6
CONTINUOUS
 62
               7
100
AcDbLine
 10
0.9499969482421875
 20
-25.099990844726591
 30
0.0
 11
9.5500030517578125
 21
-25.099990844726591
 31
0.0
  0
LINE
  5
8B
100
AcDbEntity
  8
0
  6
CONTINUOUS
 62
               7
100
AcDbLine
 10
9.9499969482421875
 20
-25.500000000000028
 30
0.0
 11
9.9499969482421875
 21
-17.500000000000028
 31
0.0
  0
LINE
  5
8C
100
AcDbEntity
  8
0
  6
CONTINUOUS
 62
               7
100
AcDbLine
 10
0.5500030517578125
 20
-25.500000000000028
 30
0.0
 11
0.5500030517578125
 21
-17.500000000000028
 31
0.0
  0
LINE
  5
8D
100
AcDbEntity
  8
0
  6
CONTINUOUS
 62
               7
100
AcDbLine
 10
0.25
 20
-23.500000000000028
 30
0.0
 11
0.5500030517578125
 21
-23.500000000000028
 31
0.0
  0
LINE
  5
8E
100
AcDbEntity
  8
0
  6
CONTINUOUS
 62
               7
100
AcDbLine
 10
0.5500030517578125
 20
-19.499984741210966
 30
0.0
 11
0.25
 21
-19.499984741210966
 31
0.0
  0
LINE
  5
8F
100
AcDbEntity
  8
0
  6
CONTINUOUS
 62
               7
100
AcDbLine
 10
0.649993896484375
 20
-32.500000000000028
 30
0.0
 11
9.850006103515625
 21
-32.500000000000028
 31
0.0
  0
LINE
  5
90
100
AcDbEntity
  8
0
  6
CONTINUOUS
 62
               4
100
AcDbLine
 10
2.0510599254739645
 20
-13.698944633874845
 30
0.0
 11
0.848980271965047
 21
-14.901023780745192
 31
0.0
  0
LINE
  5
91
100
AcDbEntity
  8
0
  6
CONTINUOUS
 62
               4
100
AcDbLine
 10
2.0510557441530182
 20
-14.901026663939803
 30
0.0
 11
0.8489764959549575
 21
-13.698947111758599
 31
0.0
  0
LINE
  5
92
100
AcDbEntity
  8
0
  6
CONTINUOUS
 62
               7
100
AcDbLine
 10
0.25
 20
-13.949981689453153
 30
0.0
 11
0.25
 21
-12.699996948242216
 31
0.0
  0
LINE
  5
93
100
AcDbEntity
  8
0
  6
CONTINUOUS
 62
               4
100
AcDbLine
 10
8.4489735888182622
 20
11.90109542307161
 30
0.0
 11
9.6510530396717513
 21
10.699016073545835
 31
0.0
  0
LINE
  5
94
100
AcDbEntity
  8
0
  6
CONTINUOUS
 62
               4
100
AcDbLine
 10
8.4489797254000223
 20
10.698953375891477
 30
0.0
 11
9.6510591762535114
 21
11.901032725417252
 31
0.0
  0
LINE
  5
95
100
AcDbEntity
  8
0
  6
CONTINUOUS
 62
               4
100
AcDbLine
 10
1.6489679125843395
 20
10.898949567400422
 30
0.0
 11
2.851036573843885
 21
12.101018127333163
 31
0.0
  0
LINE
  5
96
100
AcDbEntity
  8
0
  6
CONTINUOUS
 62
               4
100
AcDbLine
 10
7.6489734391852835
 20
-15.101036224253249
 30
0.0
 11
8.8510528900387726
 21
-13.898956874727475
 31
0.0
  0
LINE
  5
97
100
AcDbEntity
  8
0
  6
CONTINUOUS
 62
               4
100
AcDbLine
 10
7.6489694773799783
 20
-13.898894244508512
 30
0.0
 11
8.8510597178274111
 21
-15.100984383627321
 31
0.0
  0
LINE
  5
98
100
AcDbEntity
  8
0
  6
CONTINUOUS
 62
               4
100
AcDbLine
 10
1.6489725487372198
 20
12.101101830976376
 30
0.0
 11
2.8510519995907089
 21
10.899022481450601
 31
0.0
  0
LINE
  5
99
100
AcDbEntity
  8
0
  6
CONTINUOUS
 62
               4
100
AcDbLine
 10
0.25
 20
14.300018310546847
 30
0.0
 11
7.4499969482421875
 21
14.300018310546847
 31
0.0
  0
LINE
  5
9A
100
AcDbEntity
  8
0
  6
CONTINUOUS
 62
               4
100
AcDbLine
 10
3.0500030517578125
 20
-14.299987792968778
 30
0.0
 11
3.0500030517578125
 21
-17.299987792968778
 31
0.0
  0
LINE
  5
9B
100
AcDbEntity
  8
0
  6
CONTINUOUS
 62
               4
100
AcDbLine
 10
7.4499969482421875
 20
14.300018310546847
 30
0.0
 11
7.4499969482421875
 21
11.300018310546847
 31
0.0
  0
LINE
  5
9C
100
AcDbEntity
  8
0
  6
CONTINUOUS
 62
               4
100
AcDbLine
 10
0.25
 20
-12.699996948242216
 30
0.0
 11
0.6927805106090546
 21
-12.699996948242216
 31
0.0
  0
LINE
  5
9D
100
AcDbEntity
  8
0
  6
CONTINUOUS
 62
               7
100
AcDbLine
 10
7.75
 20
30.200012207031222
 30
0.0
 11
8.75
 21
30.200012207031222
 31
0.0
  0
LINE
  5
9E
100
AcDbEntity
  8
0
  6
CONTINUOUS
 62
               7
100
AcDbLine
 10
5.25
 20
26.700012207031222
 30
0.0
 11
5.25
 21
27.700012207031222
 31
0.0
  0
LINE
  5
9F
100
AcDbEntity
  8
0
  6
CONTINUOUS
 62
               7
100
AcDbLine
 10
5.2499958084499667
 20
27.199984884917257
 30
0.0
 11
6.2499831225322851
 21
26.932039151128237
 31
0.0
  0
CIRCLE
  5
A0
100
AcDbEntity
  8
0
  6
CONTINUOUS
 62
               7
100
AcDbCircle
 10
5.25
 20
30.200012207031222
 30
0.0
 40
2.0
  0
CIRCLE
  5
A1
100
AcDbEntity
  8
0
  6
CONTINUOUS
 62
               7
100
AcDbCircle
 10
5.25
 20
30.200012207031222
 30
0.0
 40
1.9499998092651367
  0
ARC
  5
A2
100
AcDbEntity
  8
0
  6
CONTINUOUS
 62
               4
100
AcDbCircle
 10
0.8000030517578125
 20
66.000030517578097
 30
0.0
 40
0.5
100
AcDbArc
 50
89.999982013910653
 51
179.99996402782131
  0
ARC
  5
A3
100
AcDbEntity
  8
0
  6
CONTINUOUS
 62
               7
100
AcDbCircle
 10
0.649993896484375
 20
-32.099990844726591
 30
0.0
 40
0.4000000357627869
100
AcDbArc
 50
179.99996402782131
 51
269.99994604173196
  0
ARC
  5
A4
100
AcDbEntity
  8
0
  6
CONTINUOUS
 62
               7
100
AcDbCircle
 10
0.649993896484375
 20
14.900009155273409
 30
0.0
 40
0.4000000357627869
100
AcDbArc
 50
179.99996402782131
 51
270.00000068324533
  0
CIRCLE
  5
A5
100
AcDbEntity
  8
0
  6
CONTINUOUS
 62
               4
100
AcDbCircle
 10
1.4499969482421875
 20
-14.299987792968778
 30
0.0
 40
1.25
  0
CIRCLE
  5
A6
100
AcDbEntity
  8
0
  6
CONTINUOUS
 62
               4
100
AcDbCircle
 10
2.25
 20
11.500015258789034
 30
0.0
 40
1.25
  0
CIRCLE
  5
A7
100
AcDbEntity
  8
0
  6
CONTINUOUS
 62
               4
100
AcDbCircle
 10
8.25
 20
-14.499984741210966
 30
0.0
 40
1.25
  0
CIRCLE
  5
A8
100
AcDbEntity
  8
0
  6
CONTINUOUS
 62
               4
100
AcDbCircle
 10
2.25
 20
11.500015258789034
 30
0.0
 40
1.3999996185302734
  0
CIRCLE
  5
A9
100
AcDbEntity
  8
0
  6
CONTINUOUS
 62
               4
100
AcDbCircle
 10
8.25
 20
-14.499984741210966
 30
0.0
 40
1.3999996185302734
  0
ARC
  5
AA
100
AcDbEntity
  8
0
  6
CONTINUOUS
 62
               4
100
AcDbCircle
 10
1.4499969482421875
 20
-14.299987792968778
 30
0.0
 40
1.5999994277954102
100
AcDbArc
 50
0.0
 51
89.999982013910653
  0
ARC
  5
AB
100
AcDbEntity
  8
0
  6
CONTINUOUS
 62
               4
100
AcDbCircle
 10
9.0500030517578125
 20
11.300018310546847
 30
0.0
 40
1.5999994277954102
100
AcDbArc
 50
179.99998133066532
 51
270.00001798608935
  0
ARC
  5
AC
100
AcDbEntity
  8
0
  6
CONTINUOUS
 62
               7
100
AcDbCircle
 10
5.3499908447265625
 20
30.200012207031222
 30
0.0
 40
3.0
100
AcDbArc
 50
268.08980532053351
 51
0.0
  0
ARC
  5
AD
100
AcDbEntity
  8
0
  6
CONTINUOUS
 62
               7
100
AcDbCircle
 10
5.25
 20
30.200012207031222
 30
0.0
 40
3.0
100
AcDbArc
 50
266.17746163595666
 51
3.822566595416411
  0
ARC
  5
AE
100
AcDbEntity
  8
0
  6
CONTINUOUS
 62
               7
100
AcDbCircle
 10
5.149993896484375
 20
30.200012207031222
 30
0.0
 40
3.0
100
AcDbArc
 50
271.91023065164512
 51
0.0
  0
LINE
  5
AF
100
AcDbEntity
  8
0
  6
CONTINUOUS
 62
               4
100
AcDbLine
 10
0.25
 20
-35.30000000000004
 30
0.0
 11
0.25
 21
-32.102207009313844
 31
0.0
  0
LINE
  5
B0
100
AcDbEntity
  8
0
  6
CONTINUOUS
 62
               4
100
AcDbLine
 10
0.3500000000000227
 20
-35.400000000000034
 30
0.0
 11
0.25
 21
-35.30000000000004
 31
0.0
  0
LINE
  5
B1
100
AcDbEntity
  8
0
  6
CONTINUOUS
 62
               4
100
AcDbLine
 10
0.25
 20
-35.500000000000028
 30
0.0
 11
0.3500000000000227
 21
-35.400000000000034
 31
0.0
  0
LINE
  5
B2
100
AcDbEntity
  8
0
  6
CONTINUOUS
 62
               4
100
AcDbLine
 10
9.3000000000000114
 20
-45.000000000000028
 30
0.0
 11
1.1999999999999886
 21
-45.000000000000028
 31
0.0
  0
LINE
  5
B3
100
AcDbEntity
  8
0
  6
CONTINUOUS
 62
               4
100
AcDbLine
 10
9.3000000000000114
 20
-44.700000000000017
 30
0.0
 11
9.3000000000000114
 21
-45.000000000000028
 31
0.0
  0
LINE
  5
B4
100
AcDbEntity
  8
0
  6
CONTINUOUS
 62
               4
100
AcDbLine
 10
9.3000000000000114
 20
-45.000000000000028
 30
0.0
 11
9.2000000000000455
 21
-45.100000000000023
 31
0.0
  0
LINE
  5
B5
100
AcDbEntity
  8
0
  6
CONTINUOUS
 62
               4
100
AcDbLine
 10
8.75
 20
-46.000000000000028
 30
0.0
 11
8.75
 21
-45.100000000000023
 31
0.0
  0
LINE
  5
B6
100
AcDbEntity
  8
0
  6
CONTINUOUS
 62
               4
100
AcDbLine
 10
10.049999599999978
 20
-44.700000000000017
 30
0.0
 11
0.4500004053115845
 21
-44.700000000000017
 31
0.0
  0
LINE
  5
B7
100
AcDbEntity
  8
0
  6
CONTINUOUS
 62
               4
100
AcDbLine
 10
9.2000000000000455
 20
-45.100000000000023
 30
0.0
 11
1.2999999999999545
 21
-45.100000000000023
 31
0.0
  0
LINE
  5
B8
100
AcDbEntity
  8
0
  6
CONTINUOUS
 62
               4
100
AcDbLine
 10
1.1999999999999886
 20
-45.000000000000028
 30
0.0
 11
1.2999999999999545
 21
-45.100000000000023
 31
0.0
  0
LINE
  5
B9
100
AcDbEntity
  8
0
  6
CONTINUOUS
 62
               4
100
AcDbLine
 10
1.1999999999999886
 20
-44.700000000000017
 30
0.0
 11
1.1999999999999886
 21
-45.000000000000028
 31
0.0
  0
LINE
  5
BA
100
AcDbEntity
  8
0
  6
CONTINUOUS
 62
               4
100
AcDbLine
 10
0.3160255000000234
 20
-44.200000000000017
 30
0.0
 11
0.4500004000000217
 21
-44.700000000000017
 31
0.0
  0
LINE
  5
BB
100
AcDbEntity
  8
0
  6
CONTINUOUS
 62
               4
100
AcDbLine
 10
0.25
 20
-44.161880000000025
 30
0.0
 11
0.3160252000000128
 21
-44.200000000000017
 31
0.0
  0
LINE
  5
BC
100
AcDbEntity
  8
0
  6
CONTINUOUS
 62
               4
100
AcDbLine
 10
0.25
 20
-40.200000000000017
 30
0.0
 11
0.4499999999999886
 21
-40.000000000000028
 31
0.0
  0
LINE
  5
BD
100
AcDbEntity
  8
0
  6
CONTINUOUS
 62
               4
100
AcDbLine
 10
9.5
 20
-39.30000000000004
 30
0.0
 11
9.5
 21
-40.000000000000028
 31
0.0
  0
LINE
  5
BE
100
AcDbEntity
  8
0
  6
CONTINUOUS
 62
               4
100
AcDbLine
 10
1.0
 20
-40.000000000000028
 30
0.0
 11
1.0
 21
-39.30000000000004
 31
0.0
  0
LINE
  5
BF
100
AcDbEntity
  8
0
  6
CONTINUOUS
 62
               4
100
AcDbLine
 10
10.050000000000011
 20
-40.000000000000028
 30
0.0
 11
0.4499999999999886
 21
-40.000000000000028
 31
0.0
  0
LINE
  5
C0
100
AcDbEntity
  8
0
  6
CONTINUOUS
 62
               4
100
AcDbLine
 10
0.4499999999999886
 20
-39.30000000000004
 30
0.0
 11
0.25
 21
-39.100000000000023
 31
0.0
  0
LINE
  5
C1
100
AcDbEntity
  8
0
  6
CONTINUOUS
 62
               4
100
AcDbLine
 10
10.050000000000011
 20
-39.30000000000004
 30
0.0
 11
0.4499999999999886
 21
-39.30000000000004
 31
0.0
  0
LINE
  5
C2
100
AcDbEntity
  8
0
  6
CONTINUOUS
 62
               4
100
AcDbLine
 10
0.25
 20
-39.100000000000023
 30
0.0
 11
0.25
 21
-35.500000000000028
 31
0.0
  0
LINE
  5
C3
100
AcDbEntity
  8
0
  6
CONTINUOUS
 62
               4
100
AcDbLine
 10
0.25
 20
-44.161880000000025
 30
0.0
 11
0.25
 21
-40.200000000000017
 31
0.0
  0
LINE
  5
C4
100
AcDbEntity
  8
0
  6
CONTINUOUS
 62
               4
100
AcDbLine
 10
1.75
 20
-46.000000000000028
 30
0.0
 11
1.75
 21
-45.100000000000023
 31
0.0
  0
ARC
  5
C5
100
AcDbEntity
  8
0
  6
CONTINUOUS
 62
               4
100
AcDbCircle
 10
0.5500000000000114
 20
-46.80000000000004
 30
0.0
 40
0.2
100
AcDbArc
 50
180.0
 51
270.0
  0
LINE
  5
C6
100
AcDbEntity
  8
0
  6
CONTINUOUS
 62
               4
100
AcDbLine
 10
0.3500000000000227
 20
-46.80000000000004
 30
0.0
 11
0.3500000000000227
 21
-46.000000000000028
 31
0.0
  0
LINE
  5
C7
100
AcDbEntity
  8
0
  6
CONTINUOUS
 62
               4
100
AcDbLine
 10
9.9499999999999886
 20
-47.000000000000028
 30
0.0
 11
0.550000011920929
 21
-47.000000000000028
 31
0.0
  0
LINE
  5
C8
100
AcDbEntity
  8
0
  6
CONTINUOUS
 62
               4
100
AcDbLine
 10
10.149999999999977
 20
-46.000000000000028
 30
0.0
 11
0.3499999940395355
 21
-46.000000000000028
 31
0.0
  0
ARC
  5
C9
100
AcDbEntity
  8
0
  6
CONTINUOUS
 62
               4
100
AcDbCircle
 10
9.9499999999999886
 20
-46.80000000000004
 30
0.0
 40
0.2
100
AcDbArc
 50
270.0
 51
0.0
  0
LINE
  5
CA
100
AcDbEntity
  8
0
  6
CONTINUOUS
 62
               4
100
AcDbLine
 10
10.25
 20
-39.100000000000023
 30
0.0
 11
0.25
 21
-39.100000000000023
 31
0.0
  0
LINE
  5
CB
100
AcDbEntity
  8
0
  6
CONTINUOUS
 62
               4
100
AcDbLine
 10
10.050000000000011
 20
-39.30000000000004
 30
0.0
 11
10.25
 21
-39.100000000000023
 31
0.0
  0
LINE
  5
CC
100
AcDbEntity
  8
0
  6
CONTINUOUS
 62
               4
100
AcDbLine
 10
10.25
 20
-40.200000000000017
 30
0.0
 11
0.25
 21
-40.200000000000017
 31
0.0
  0
LINE
  5
CD
100
AcDbEntity
  8
0
  6
CONTINUOUS
 62
               4
100
AcDbLine
 10
10.25
 20
-40.200000000000017
 30
0.0
 11
10.050000000000011
 21
-40.000000000000028
 31
0.0
  0
LINE
  5
CE
100
AcDbEntity
  8
0
  6
CONTINUOUS
 62
               4
100
AcDbLine
 10
10.183974499999977
 20
-44.200000000000017
 30
0.0
 11
10.049999599999978
 21
-44.700000000000017
 31
0.0
  0
LINE
  5
CF
100
AcDbEntity
  8
0
  6
CONTINUOUS
 62
               4
100
AcDbLine
 10
10.25
 20
-44.161880000000025
 30
0.0
 11
0.25
 21
-44.161880000000025
 31
0.0
  0
LINE
  5
D0
100
AcDbEntity
  8
0
  6
CONTINUOUS
 62
               4
100
AcDbLine
 10
10.18397444486618
 20
-44.200000204906047
 30
0.0
 11
0.3160255551338196
 21
-44.200000204906047
 31
0.0
  0
LINE
  5
D1
100
AcDbEntity
  8
0
  6
CONTINUOUS
 62
               4
100
AcDbLine
 10
10.149999999999977
 20
-35.400000000000034
 30
0.0
 11
0.3500000000000227
 21
-35.400000000000034
 31
0.0
  0
LINE
  5
D2
100
AcDbEntity
  8
0
  6
CONTINUOUS
 62
               4
100
AcDbLine
 10
10.25
 20
-35.500000000000028
 30
0.0
 11
0.25
 21
-35.500000000000028
 31
0.0
  0
LINE
  5
D3
100
AcDbEntity
  8
0
  6
CONTINUOUS
 62
               7
100
AcDbLine
 10
0.3000030517578125
 20
61.500015258789034
 30
0.0
 11
0.0
 21
61.500015258789034
 31
0.0
  0
CIRCLE
  5
D4
100
AcDbEntity
  8
0
  6
CONTINUOUS
 62
               4
100
AcDbCircle
 10
9.0500030517578125
 20
11.300018310546847
 30
0.0
 40
1.25
  0
ARC
  5
D5
100
AcDbEntity
  8
0
  6
CONTINUOUS
 62
               7
100
AcDbCircle
 10
9.850006103515625
 20
14.900009155273409
 30
0.0
 40
0.4000000357627869
100
AcDbArc
 50
270.00001798608935
 51
0.0
  0
ARC
  5
D6
100
AcDbEntity
  8
0
  6
CONTINUOUS
 62
               7
100
AcDbCircle
 10
9.850006103515625
 20
-32.099990844726591
 30
0.0
 40
0.4000000357627869
100
AcDbArc
 50
270.00001798608935
 51
0.00001366037834
  0
ARC
  5
D7
100
AcDbEntity
  8
0
  6
CONTINUOUS
 62
               4
100
AcDbCircle
 10
9.70001220703125
 20
66.000015258789034
 30
0.0
 40
0.5
100
AcDbArc
 50
359.99995901886496
 51
89.999982013910653
  0
LINE
  5
D8
100
AcDbEntity
  8
0
  6
CONTINUOUS
 62
               7
100
AcDbLine
 10
0.0
 20
-30.104079317656669
 30
0.0
 11
0.25
 21
-30.104079317656669
 31
0.0
  0
LINE
  5
D9
100
AcDbEntity
  8
0
  6
CONTINUOUS
 62
               7
100
AcDbLine
 10
0.0
 20
61.000015258789034
 30
0.0
 11
0.25
 21
61.000015258789034
 31
0.0
  0
LINE
  5
DA
100
AcDbEntity
  8
0
  6
CONTINUOUS
 62
               7
100
AcDbLine
 10
0.0
 20
60.500015258789034
 30
0.0
 11
0.25
 21
60.500015258789034
 31
0.0
  0
LINE
  5
DB
100
AcDbEntity
  8
0
  6
CONTINUOUS
 62
               7
100
AcDbLine
 10
0.0
 20
59.500015258789034
 30
0.0
 11
0.25
 21
59.500015258789034
 31
0.0
  0
LINE
  5
DC
100
AcDbEntity
  8
0
  6
CONTINUOUS
 62
               7
100
AcDbLine
 10
0.0
 20
49.500015258789034
 30
0.0
 11
0.25
 21
49.500015258789034
 31
0.0
  0
LINE
  5
DD
100
AcDbEntity
  8
0
  6
CONTINUOUS
 62
               7
100
AcDbLine
 10
0.0
 20
21.500015258789034
 30
0.0
 11
0.25
 21
21.500015258789034
 31
0.0
  0
LINE
  5
DE
100
AcDbEntity
  8
0
  6
CONTINUOUS
 62
               4
100
AcDbLine
 10
9.0500030517578125
 20
9.7000122070312216
 30
0.0
 11
10.25
 21
9.7000122070312216
 31
0.0
  0
LINE
  5
DF
100
AcDbEntity
  8
0
  6
CONTINUOUS
 62
               7
100
AcDbLine
 10
3.0500030517578125
 20
-17.299987792968778
 30
0.0
 11
10.25
 21
-17.299987792968778
 31
0.0
  0
LINE
  5
E0
100
AcDbEntity
  8
0
  6
CONTINUOUS
 62
               7
100
AcDbLine
 10
9.9499969482421875
 20
-23.500000000000028
 30
0.0
 11
10.25
 21
-23.500000000000028
 31
0.0
  0
LINE
  5
E1
100
AcDbEntity
  8
0
  6
CONTINUOUS
 62
               7
100
AcDbLine
 10
10.25
 20
-19.499984741210966
 30
0.0
 11
9.9499969482421875
 21
-19.499984741210966
 31
0.0
  0
LINE
  5
E2
100
AcDbEntity
  8
0
  6
CONTINUOUS
 62
               7
100
AcDbLine
 10
0.25
 20
-25.500000000000028
 30
0.0
 11
10.25
 21
-25.500000000000028
 31
0.0
  0
LINE
  5
E3
100
AcDbEntity
  8
0
  6
CONTINUOUS
 62
               7
100
AcDbLine
 10
0.25
 20
-17.499984741210966
 30
0.0
 11
10.25
 21
-17.499984741210966
 31
0.0
  0
LINE
  5
E4
100
AcDbEntity
  8
0
  6
CONTINUOUS
 62
               7
100
AcDbLine
 10
0.25
 20
14.500015258789034
 30
0.0
 11
10.25
 21
14.500015258789034
 31
0.0
  0
LINE
  5
E5
100
AcDbEntity
  8
0
  6
CONTINUOUS
 62
               4
100
AcDbLine
 10
10.199996948242187
 20
62.000015258789034
 30
0.0
 11
0.3000030517578125
 21
62.000015258789034
 31
0.0
  0
LINE
  5
E6
100
AcDbEntity
  8
0
  6
CONTINUOUS
 62
               7
100
AcDbLine
 10
0.25
 20
33.500015258789034
 30
0.0
 11
10.25
 21
33.500015258789034
 31
0.0
  0
LINE
  5
E7
100
AcDbEntity
  8
0
  6
CONTINUOUS
 62
               4
100
AcDbLine
 10
0.25
 20
57.500015258789034
 30
0.0
 11
10.25
 21
57.500015258789034
 31
0.0
  0
LINE
  5
E8
100
AcDbEntity
  8
0
  6
CONTINUOUS
 62
               7
100
AcDbLine
 10
0.25
 20
24.000015258789034
 30
0.0
 11
10.25
 21
24.000015258789034
 31
0.0
  0
LINE
  5
E9
100
AcDbEntity
  8
0
  6
CONTINUOUS
 62
               7
100
AcDbLine
 10
0.25
 20
22.000015258789034
 30
0.0
 11
10.25
 21
22.000015258789034
 31
0.0
  0
LINE
  5
EA
100
AcDbEntity
  8
0
  6
CONTINUOUS
 62
               7
100
AcDbLine
 10
0.0
 20
-25.499984741210966
 30
0.0
 11
0.25
 21
-25.499984741210966
 31
0.0
  0
ENDBLK
  5
EB
100
AcDbEntity
  8
0
100
AcDbBlockEnd
  0
BLOCK
  5
EC
100
AcDbEntity
  8
0
100
AcDbBlockBegin
  2
F10MPJ-3
 70
               0
 10
0.0
 20
0.0
 30
0.0
  3
F10MPJ-3
  1

  0
LINE
  5
ED
100
AcDbEntity
  8
0
  6
CONTINUOUS
 62
               4
100
AcDbLine
 10
59.67499989456735
 20
66.499984733942426
 30
0.0
 11
32.29999989456735
 21
66.499984646481266
 31
0.0
  0
LINE
  5
EE
100
AcDbEntity
  8
0
  6
CONTINUOUS
 62
               4
100
AcDbLine
 10
61.99999990995093
 20
61.684984741370613
 30
0.0
 11
61.999999923321752
 21
57.499984741370639
 31
0.0
  0
LINE
  5
EF
100
AcDbEntity
  8
0
  6
CONTINUOUS
 62
               4
100
AcDbLine
 10
47.249999921724282
 20
57.999984694245455
 30
0.0
 11
47.249999923321752
 21
57.499984694245455
 31
0.0
  0
LINE
  5
F0
100
AcDbEntity
  8
0
  6
CONTINUOUS
 62
               4
100
AcDbLine
 10
49.749999921724282
 20
57.99998470223278
 30
0.0
 11
49.749999923321752
 21
57.49998470223278
 31
0.0
  0
LINE
  5
F1
100
AcDbEntity
  8
0
  6
CONTINUOUS
 62
               4
100
AcDbLine
 10
49.749999921724282
 20
57.99998470223278
 30
0.0
 11
47.249999921724282
 21
57.999984694245455
 31
0.0
  0
LINE
  5
F2
100
AcDbEntity
  8
0
  6
CONTINUOUS
 62
               4
100
AcDbLine
 10
60.129999895509854
 20
66.204984735396096
 30
0.0
 11
61.869999908018031
 21
62.289984740955276
 31
0.0
  0
ARC
  5
F3
100
AcDbEntity
  8
0
  6
CONTINUOUS
 62
               4
100
AcDbCircle
 10
59.675687760030826
 20
66.002655846022208
 30
0.0
 40
0.4973293636201366
100
AcDbArc
 50
24.005903771692733
 51
90.079246880189771
  0
ARC
  5
F4
100
AcDbEntity
  8
0
  6
CONTINUOUS
 62
               4
100
AcDbCircle
 10
60.501123858282767
 20
61.679379138698863
 30
0.0
 40
1.4988865337462252
100
AcDbArc
 50
0.2142778096817979
 51
24.039904626290561
  0
LINE
  5
F5
100
AcDbEntity
  8
0
  6
CONTINUOUS
 62
               4
100
AcDbLine
 10
54.899999915653893
 20
59.899984718686653
 30
0.0
 11
54.899999918689105
 21
58.949984718686636
 31
0.0
  0
LINE
  5
F6
100
AcDbEntity
  8
0
  6
CONTINUOUS
 62
               4
100
AcDbLine
 10
41.999999915653916
 20
59.899984677472077
 30
0.0
 11
41.99999991868907
 21
58.94998467747206
 31
0.0
  0
LINE
  5
F7
100
AcDbEntity
  8
0
  6
CONTINUOUS
 62
               4
100
AcDbLine
 10
56.999999915653916
 20
59.899984725395996
 30
0.0
 11
54.899999915653893
 21
59.899984718686653
 31
0.0
  0
LINE
  5
F8
100
AcDbEntity
  8
0
  6
CONTINUOUS
 62
               4
100
AcDbLine
 10
41.999999915653916
 20
59.899984677472077
 30
0.0
 11
39.899999915653893
 21
59.899984670762734
 31
0.0
  0
LINE
  5
F9
100
AcDbEntity
  8
0
  6
CONTINUOUS
 62
               4
100
AcDbLine
 10
56.999999915653916
 20
59.899984725395996
 30
0.0
 11
56.99999991868907
 21
58.949984725395979
 31
0.0
  0
LINE
  5
FA
100
AcDbEntity
  8
0
  6
CONTINUOUS
 62
               4
100
AcDbLine
 10
39.899999915653893
 20
59.899984670762734
 30
0.0
 11
39.899999918689048
 21
58.949984670762717
 31
0.0
  0
LINE
  5
FB
100
AcDbEntity
  8
0
  6
CONTINUOUS
 62
               4
100
AcDbLine
 10
41.99999991868907
 20
58.94998467747206
 30
0.0
 11
39.899999918689048
 21
58.949984670762717
 31
0.0
  0
LINE
  5
FC
100
AcDbEntity
  8
0
  6
CONTINUOUS
 62
               4
100
AcDbLine
 10
56.99999991868907
 20
58.949984725395979
 30
0.0
 11
54.899999918689105
 21
58.949984718686636
 31
0.0
  0
LINE
  5
FD
100
AcDbEntity
  8
0
  6
CONTINUOUS
 62
               4
100
AcDbLine
 10
36.499999918209824
 20
59.099984659899974
 30
0.0
 11
36.499999923321695
 21
57.49998465989998
 31
0.0
  0
LINE
  5
FE
100
AcDbEntity
  8
0
  6
CONTINUOUS
 62
               4
100
AcDbLine
 10
36.499999918209824
 20
59.099984659899974
 30
0.0
 11
35.0
 21
59.099984655107583
 31
0.0
  0
LINE
  5
FF
100
AcDbEntity
  8
0
  6
CONTINUOUS
 62
               4
100
AcDbLine
 10
49.294999923321768
 20
57.499984700619336
 30
0.0
 11
47.794999923321768
 21
57.499984695826925
 31
0.0
  0
LINE
  5
100
100
AcDbEntity
  8
0
  6
CONTINUOUS
 62
               4
100
AcDbLine
 10
61.999999923321752
 20
57.499984741210881
 30
0.0
 11
36.499999923321695
 21
57.499984659740228
 31
0.0
  0
LINE
  5
101
100
AcDbEntity
  8
0
  6
CONTINUOUS
 62
               4
100
AcDbLine
 10
61.999999923321752
 20
57.499984741210881
 30
0.0
 11
62.0
 21
33.499984741210895
 31
0.0
  0
LINE
  5
102
100
AcDbEntity
  8
0
  6
CONTINUOUS
 62
               4
100
AcDbLine
 10
49.630001816357264
 20
57.999984701849371
 30
0.0
 11
49.600001129711757
 21
57.999984701753533
 31
0.0
  0
LINE
  5
103
100
AcDbEntity
  8
0
  6
CONTINUOUS
 62
               4
100
AcDbLine
 10
47.300006025239895
 20
57.999984694405214
 30
0.0
 11
47.270002159680018
 21
57.999984694309347
 31
0.0
  0
LINE
  5
104
100
AcDbEntity
  8
0
  6
CONTINUOUS
 62
               4
100
AcDbLine
 10
48.700010094250331
 20
57.999984698878137
 30
0.0
 11
48.199994199678372
 21
57.99998469728061
 31
0.0
  0
LINE
  5
105
100
AcDbEntity
  8
0
  6
CONTINUOUS
 62
               7
100
AcDbLine
 10
62.0
 20
33.499984827473938
 30
0.0
 11
35.0
 21
33.499984741210881
 31
0.0
  0
ARC
  5
106
100
AcDbEntity
  8
0
  6
CONTINUOUS
 62
               4
100
AcDbCircle
 10
54.0
 20
-13.549995422363338
 30
0.0
 40
0.5
100
AcDbArc
 50
359.99994535848663
 51
89.999982013910653
  0
ARC
  5
107
100
AcDbEntity
  8
0
  6
CONTINUOUS
 62
               4
100
AcDbCircle
 10
54.0
 20
-15.049995422363338
 30
0.0
 40
0.5
100
AcDbArc
 50
269.99996334457597
 51
359.99994535848663
  0
ARC
  5
108
100
AcDbEntity
  8
0
  6
CONTINUOUS
 62
               7
100
AcDbCircle
 10
52.95001220703125
 20
-31.500000000000028
 30
0.0
 40
0.5
100
AcDbArc
 50
270.00001798608935
 51
0.0000546415133601
  0
ARC
  5
109
100
AcDbEntity
  8
0
  6
CONTINUOUS
 62
               7
100
AcDbCircle
 10
51.45001220703125
 20
-31.500000000000028
 30
0.0
 40
0.5
100
AcDbArc
 50
180.00003597217869
 51
270.00001798608935
  0
ARC
  5
10A
100
AcDbEntity
  8
0
  6
CONTINUOUS
 62
               7
100
AcDbCircle
 10
61.600006103515625
 20
14.899993896484332
 30
0.0
 40
0.4000000357627869
100
AcDbArc
 50
270.00007262760272
 51
0.0000409811350201
  0
ARC
  5
10B
100
AcDbEntity
  8
0
  6
CONTINUOUS
 62
               4
100
AcDbCircle
 10
58.600006103515625
 20
13.899993896484332
 30
0.0
 40
0.4000000357627869
100
AcDbArc
 50
0.0000546415133601
 51
90.000036655424012
  0
ARC
  5
10C
100
AcDbEntity
  8
0
  6
CONTINUOUS
 62
               4
100
AcDbCircle
 10
58.600006103515625
 20
-16.900001525878935
 30
0.0
 40
0.4000000357627869
100
AcDbArc
 50
270.00001798608935
 51
0.0000409811350201
  0
ARC
  5
10D
100
AcDbEntity
  8
0
  6
CONTINUOUS
 62
               7
100
AcDbCircle
 10
58.600006103515625
 20
-32.099990844726591
 30
0.0
 40
0.4000000357627869
100
AcDbArc
 50
270.00007262760272
 51
0.0000409811350201
  0
ARC
  5
10E
100
AcDbEntity
  8
0
  6
CONTINUOUS
 62
               7
100
AcDbCircle
 10
35.400009155273438
 20
-32.099990844726591
 30
0.0
 40
0.4000000357627869
100
AcDbArc
 50
180.00003597217869
 51
270.00007262760272
  0
LINE
  5
10F
100
AcDbEntity
  8
0
  6
CONTINUOUS
 62
               7
100
AcDbLine
 10
57.699996948242187
 20
23.999984741210895
 30
0.0
 11
38.5
 21
23.999984741210895
 31
0.0
  0
LINE
  5
110
100
AcDbEntity
  8
0
  6
CONTINUOUS
 62
               7
100
AcDbLine
 10
36.0
 20
23.999984741210895
 30
0.0
 11
35.0
 21
23.999984741210895
 31
0.0
  0
LINE
  5
111
100
AcDbEntity
  8
0
  6
CONTINUOUS
 62
               7
100
AcDbLine
 10
60.699996948242188
 20
21.999999999999957
 30
0.0
 11
60.699996948242188
 21
23.999984741210895
 31
0.0
  0
LINE
  5
112
100
AcDbEntity
  8
0
  6
CONTINUOUS
 62
               7
100
AcDbLine
 10
57.699996948242187
 20
21.999999999999957
 30
0.0
 11
57.699996948242187
 21
23.999984741210895
 31
0.0
  0
LINE
  5
113
100
AcDbEntity
  8
0
  6
CONTINUOUS
 62
               7
100
AcDbLine
 10
38.5
 20
21.999999999999957
 30
0.0
 11
38.5
 21
23.999984741210895
 31
0.0
  0
LINE
  5
114
100
AcDbEntity
  8
0
  6
CONTINUOUS
 62
               7
100
AcDbLine
 10
36.0
 20
21.999999999999957
 30
0.0
 11
36.0
 21
23.999984741210895
 31
0.0
  0
LINE
  5
115
100
AcDbEntity
  8
0
  6
CONTINUOUS
 62
               7
100
AcDbLine
 10
50.600006103515625
 20
-32.500000000000028
 30
0.0
 11
50.600006103515625
 21
-31.500000000000028
 31
0.0
  0
LINE
  5
116
100
AcDbEntity
  8
0
  6
CONTINUOUS
 62
               4
100
AcDbLine
 10
54.5
 20
-13.549995422363338
 30
0.0
 11
54.5
 21
-15.049995422363338
 31
0.0
  0
LINE
  5
117
100
AcDbEntity
  8
0
  6
CONTINUOUS
 62
               4
100
AcDbLine
 10
59.0
 20
-12.699998855590877
 30
0.0
 11
54.0
 21
-12.699998855590877
 31
0.0
  0
LINE
  5
118
100
AcDbEntity
  8
0
  6
CONTINUOUS
 62
               7
100
AcDbLine
 10
59.0
 20
-23.600000381469755
 30
0.0
 11
59.0
 21
-19.399999618530302
 31
0.0
  0
LINE
  5
119
100
AcDbEntity
  8
0
  6
CONTINUOUS
 62
               7
100
AcDbLine
 10
57.100006103515625
 20
-19.399999618530302
 30
0.0
 11
57.100006103515625
 21
-17.500000000000028
 31
0.0
  0
LINE
  5
11A
100
AcDbEntity
  8
0
  6
CONTINUOUS
 62
               7
100
AcDbLine
 10
59.600006103515625
 20
-19.399999618530302
 30
0.0
 11
57.100006103515625
 21
-19.399999618530302
 31
0.0
  0
LINE
  5
11B
100
AcDbEntity
  8
0
  6
CONTINUOUS
 62
               7
100
AcDbLine
 10
59.600006103515625
 20
-23.600000381469755
 30
0.0
 11
57.100006103515625
 21
-23.600000381469755
 31
0.0
  0
LINE
  5
11C
100
AcDbEntity
  8
0
  6
CONTINUOUS
 62
               7
100
AcDbLine
 10
59.600006103515625
 20
-25.500015258789091
 30
0.0
 11
59.600006103515625
 21
-17.499996185302763
 31
0.0
  0
LINE
  5
11D
100
AcDbEntity
  8
0
  6
CONTINUOUS
 62
               7
100
AcDbLine
 10
57.100006103515625
 20
-25.500000000000028
 30
0.0
 11
57.100006103515625
 21
-23.600000381469755
 31
0.0
  0
LINE
  5
11E
100
AcDbEntity
  8
0
  6
CONTINUOUS
 62
               7
100
AcDbLine
 10
57.0
 20
-19.500000000000028
 30
0.0
 11
57.0
 21
-17.499996185302763
 31
0.0
  0
LINE
  5
11F
100
AcDbEntity
  8
0
  6
CONTINUOUS
 62
               7
100
AcDbLine
 10
58.0
 20
-19.500000000000028
 30
0.0
 11
58.0
 21
-19.399999618530302
 31
0.0
  0
LINE
  5
120
100
AcDbEntity
  8
0
  6
CONTINUOUS
 62
               7
100
AcDbLine
 10
57.0
 20
-25.500000000000028
 30
0.0
 11
57.0
 21
-23.500000000000028
 31
0.0
  0
LINE
  5
121
100
AcDbEntity
  8
0
  6
CONTINUOUS
 62
               7
100
AcDbLine
 10
58.0
 20
-23.600000381469755
 30
0.0
 11
58.0
 21
-23.500000000000028
 31
0.0
  0
LINE
  5
122
100
AcDbEntity
  8
0
  6
CONTINUOUS
 62
               7
100
AcDbLine
 10
59.0
 20
-19.500000000000028
 30
0.0
 11
57.0
 21
-19.500000000000028
 31
0.0
  0
LINE
  5
123
100
AcDbEntity
  8
0
  6
CONTINUOUS
 62
               7
100
AcDbLine
 10
59.0
 20
-23.500000000000028
 30
0.0
 11
57.0
 21
-23.500000000000028
 31
0.0
  0
LINE
  5
124
100
AcDbEntity
  8
0
  6
CONTINUOUS
 62
               7
100
AcDbLine
 10
52.95001220703125
 20
-32.000000000000028
 30
0.0
 11
51.45001220703125
 21
-32.000000000000028
 31
0.0
  0
LINE
  5
125
100
AcDbEntity
  8
0
  6
CONTINUOUS
 62
               7
100
AcDbLine
 10
53.800003051757813
 20
-31.500000000000028
 30
0.0
 11
50.600006103515625
 21
-31.500000000000028
 31
0.0
  0
LINE
  5
126
100
AcDbEntity
  8
0
  6
CONTINUOUS
 62
               7
100
AcDbLine
 10
53.800003051757813
 20
-32.500000000000028
 30
0.0
 11
53.800003051757813
 21
-31.500000000000028
 31
0.0
  0
LINE
  5
127
100
AcDbEntity
  8
0
  6
CONTINUOUS
 62
               7
100
AcDbLine
 10
62.0
 20
21.999999999999957
 30
0.0
 11
35.0
 21
21.999999999999957
 31
0.0
  0
LINE
  5
128
100
AcDbEntity
  8
0
  6
CONTINUOUS
 62
               7
100
AcDbLine
 10
58.600006103515625
 20
-32.500000000000028
 30
0.0
 11
35.400009155273438
 21
-32.500000000000028
 31
0.0
  0
LINE
  5
129
100
AcDbEntity
  8
0
  6
CONTINUOUS
 62
               7
100
AcDbLine
 10
59.0
 20
-32.099990844726591
 30
0.0
 11
59.0
 21
-25.500000000000028
 31
0.0
  0
LINE
  5
12A
100
AcDbEntity
  8
0
  6
CONTINUOUS
 62
               7
100
AcDbLine
 10
59.600006103515625
 20
-25.500000000000028
 30
0.0
 11
35.0
 21
-25.500000000000028
 31
0.0
  0
LINE
  5
12B
100
AcDbEntity
  8
0
  6
CONTINUOUS
 62
               4
100
AcDbLine
 10
58.600006103515625
 20
-17.29999542236331
 30
0.0
 11
54.0
 21
-17.29999542236331
 31
0.0
  0
LINE
  5
12C
100
AcDbEntity
  8
0
  6
CONTINUOUS
 62
               4
100
AcDbLine
 10
58.600006103515625
 20
14.30000305175777
 30
0.0
 11
54.0
 21
14.30000305175777
 31
0.0
  0
LINE
  5
12D
100
AcDbEntity
  8
0
  6
CONTINUOUS
 62
               4
100
AcDbLine
 10
59.0
 20
13.899993896484332
 30
0.0
 11
59.0
 21
-16.899997711181669
 31
0.0
  0
LINE
  5
12E
100
AcDbEntity
  8
0
  6
CONTINUOUS
 62
               7
100
AcDbLine
 10
61.600006103515625
 20
14.499999999999957
 30
0.0
 11
35.0
 21
14.499999999999957
 31
0.0
  0
LINE
  5
12F
100
AcDbEntity
  8
0
  6
CONTINUOUS
 62
               7
100
AcDbLine
 10
59.600006103515625
 20
-17.500000000000028
 30
0.0
 11
35.0
 21
-17.500000000000028
 31
0.0
  0
LINE
  5
130
100
AcDbEntity
  8
0
  6
CONTINUOUS
 62
               7
100
AcDbLine
 10
54.0
 20
14.499999999999957
 30
0.0
 11
54.0
 21
-17.500000000000028
 31
0.0
  0
LINE
  5
131
100
AcDbEntity
  8
0
  6
CONTINUOUS
 62
               7
100
AcDbLine
 10
60.0
 20
-25.099990844726591
 30
0.0
 11
60.0
 21
-17.899997711181669
 31
0.0
  0
LINE
  5
132
100
AcDbEntity
  8
0
  6
CONTINUOUS
 62
               7
100
AcDbLine
 10
60.000006743494851
 20
-25.100005294256931
 30
0.0
 11
59.600005105035962
 21
-25.500008854624554
 31
0.0
  0
LINE
  5
133
100
AcDbEntity
  8
0
  6
CONTINUOUS
 62
               7
100
AcDbLine
 10
60.0000037319993
 20
-17.899994667594257
 30
0.0
 11
59.599997305627426
 21
-17.49999589513962
 31
0.0
  0
LINE
  5
134
100
AcDbEntity
  8
0
  6
CONTINUOUS
 62
               7
100
AcDbLine
 10
35.0
 20
-32.099990844726591
 30
0.0
 11
35.0
 21
-30.500000000000028
 31
0.0
  0
LINE
  5
135
100
AcDbEntity
  8
0
  6
CONTINUOUS
 62
               7
100
AcDbLine
 10
62.0
 20
14.899993896484332
 30
0.0
 11
62.0
 21
33.499984741210895
 31
0.0
  0
LINE
  5
136
100
AcDbEntity
  8
0
  6
CONTINUOUS
 62
               7
100
AcDbLine
 10
63.0
 20
30.499984741210895
 30
0.0
 11
63.0
 21
32.149993896484332
 31
0.0
  0
LINE
  5
137
100
AcDbEntity
  8
0
  6
CONTINUOUS
 62
               7
100
AcDbLine
 10
63.0
 20
30.499999999999957
 30
0.0
 11
62.399993896484375
 21
30.499999999999957
 31
0.0
  0
LINE
  5
138
100
AcDbEntity
  8
0
  6
CONTINUOUS
 62
               7
100
AcDbLine
 10
63.0
 20
29.899993896484332
 30
0.0
 11
62.399993896484375
 21
29.899993896484332
 31
0.0
  0
LINE
  5
139
100
AcDbEntity
  8
0
  6
CONTINUOUS
 62
               7
100
AcDbLine
 10
62.399993896484375
 20
29.899993896484332
 30
0.0
 11
62.399993896484375
 21
30.499984741210895
 31
0.0
  0
LINE
  5
13A
100
AcDbEntity
  8
0
  6
CONTINUOUS
 62
               7
100
AcDbLine
 10
63.0
 20
32.149993896484332
 30
0.0
 11
62.0
 21
32.149993896484332
 31
0.0
  0
LINE
  5
13B
100
AcDbEntity
  8
0
  6
CONTINUOUS
 62
               7
100
AcDbLine
 10
63.0
 20
28.249999999999957
 30
0.0
 11
62.0
 21
28.249999999999957
 31
0.0
  0
LINE
  5
13C
100
AcDbEntity
  8
0
  6
CONTINUOUS
 62
               7
100
AcDbLine
 10
63.0
 20
28.249984741210895
 30
0.0
 11
63.0
 21
29.899993896484332
 31
0.0
  0
LINE
  5
13D
100
AcDbEntity
  8
0
  6
CONTINUOUS
 62
               7
100
AcDbLine
 10
62.0
 20
23.999984741210895
 30
0.0
 11
60.699996948242188
 21
23.999984741210895
 31
0.0
  0
LINE
  5
13E
100
AcDbEntity
  8
0
  6
CONTINUOUS
 62
               7
100
AcDbLine
 10
64.0
 20
30.199996948242145
 30
0.0
 11
61.300003051757812
 21
30.199996948242145
 31
0.0
  0
LINE
  5
13F
100
AcDbEntity
  8
0
  6
CONTINUOUS
 62
               4
100
AcDbLine
 10
31.79999989616482
 20
65.999984644883824
 30
0.0
 11
31.799999907347001
 21
62.499999999999972
 31
0.0
  0
ARC
  5
140
100
AcDbEntity
  8
0
  6
CONTINUOUS
 62
               4
100
AcDbCircle
 10
32.298459446141635
 20
66.001525096494618
 30
0.0
 40
0.4984619302958243
100
AcDbArc
 50
89.822932648453985
 51
180.17706771765825
  0
LINE
  5
141
100
AcDbEntity
  8
0
  6
CONTINUOUS
 62
             200
100
AcDbLine
 10
13.499987590577689
 20
-47.000000000000028
 30
0.0
 11
13.499987590577689
 21
-28.454616737592687
 31
0.0
  0
LINE
  5
142
100
AcDbEntity
  8
0
  6
CONTINUOUS
 62
             200
100
AcDbLine
 10
24.499987590577689
 20
-47.000000000000028
 30
0.0
 11
24.499987590577689
 21
-28.454616737592687
 31
0.0
  0
LINE
  5
143
100
AcDbEntity
  8
0
  6
CONTINUOUS
 62
               4
100
AcDbLine
 10
19.499987584617202
 20
-35.300000000000011
 30
0.0
 11
29.499987584617202
 21
-35.300000000000011
 31
0.0
  0
LINE
  5
144
100
AcDbEntity
  8
0
  6
CONTINUOUS
 62
               4
100
AcDbLine
 10
8.4999875846172017
 20
-35.300000000000011
 30
0.0
 11
8.4999875846172017
 21
-30.500000000000028
 31
0.0
  0
LINE
  5
145
100
AcDbEntity
  8
0
  6
CONTINUOUS
 62
               4
100
AcDbLine
 10
18.499987584617202
 20
-35.30000000000004
 30
0.0
 11
18.499987584617202
 21
-30.500000000000028
 31
0.0
  0
LINE
  5
146
100
AcDbEntity
  8
0
  6
CONTINUOUS
 62
               4
100
AcDbLine
 10
19.499987584617202
 20
-35.300000000000011
 30
0.0
 11
19.499987584617202
 21
-30.500000000000028
 31
0.0
  0
LINE
  5
147
100
AcDbEntity
  8
0
  6
CONTINUOUS
 62
               4
100
AcDbLine
 10
29.499987584617202
 20
-35.30000000000004
 30
0.0
 11
29.499987584617202
 21
-30.500000000000028
 31
0.0
  0
LINE
  5
148
100
AcDbEntity
  8
0
  6
CONTINUOUS
 62
               4
100
AcDbLine
 10
29.19998758461719
 20
-47.000000000000028
 30
0.0
 11
19.799987596538131
 21
-47.000000000000028
 31
0.0
  0
LINE
  5
149
100
AcDbEntity
  8
0
  6
CONTINUOUS
 62
               4
100
AcDbLine
 10
19.599987584617224
 20
-46.800000000000011
 30
0.0
 11
19.599987584617224
 21
-46.000000000000028
 31
0.0
  0
ARC
  5
14A
100
AcDbEntity
  8
0
  6
CONTINUOUS
 62
               4
100
AcDbCircle
 10
19.799987584617213
 20
-46.800000000000011
 30
0.0
 40
0.2
100
AcDbArc
 50
180.0
 51
270.0
  0
LINE
  5
14B
100
AcDbEntity
  8
0
  6
CONTINUOUS
 62
               4
100
AcDbLine
 10
20.999987584617202
 20
-46.000000000000028
 30
0.0
 11
20.999987584617202
 21
-45.100000000000023
 31
0.0
  0
LINE
  5
14C
100
AcDbEntity
  8
0
  6
CONTINUOUS
 62
               4
100
AcDbLine
 10
29.399987584617179
 20
-46.000000000000028
 30
0.0
 11
19.599987578656737
 21
-46.000000000000028
 31
0.0
  0
LINE
  5
14D
100
AcDbEntity
  8
0
  6
CONTINUOUS
 62
               4
100
AcDbLine
 10
19.499987584617202
 20
-44.161880000000025
 30
0.0
 11
19.499987584617202
 21
-40.200000000000045
 31
0.0
  0
ARC
  5
14E
100
AcDbEntity
  8
0
  6
CONTINUOUS
 62
               4
100
AcDbCircle
 10
29.19998758461719
 20
-46.800000000000011
 30
0.0
 40
0.2
100
AcDbArc
 50
270.0
 51
0.0
  0
LINE
  5
14F
100
AcDbEntity
  8
0
  6
CONTINUOUS
 62
               4
100
AcDbLine
 10
29.399987584617179
 20
-46.800000000000011
 30
0.0
 11
29.399987584617179
 21
-46.000000000000028
 31
0.0
  0
LINE
  5
150
100
AcDbEntity
  8
0
  6
CONTINUOUS
 62
               4
100
AcDbLine
 10
29.499987584617202
 20
-39.100000000000023
 30
0.0
 11
29.499987584617202
 21
-35.500000000000028
 31
0.0
  0
LINE
  5
151
100
AcDbEntity
  8
0
  6
CONTINUOUS
 62
               4
100
AcDbLine
 10
19.499987584617202
 20
-39.100000000000023
 30
0.0
 11
19.499987584617202
 21
-35.500000000000028
 31
0.0
  0
LINE
  5
152
100
AcDbEntity
  8
0
  6
CONTINUOUS
 62
               4
100
AcDbLine
 10
29.499987584617202
 20
-39.100000000000023
 30
0.0
 11
19.499987584617202
 21
-39.100000000000023
 31
0.0
  0
LINE
  5
153
100
AcDbEntity
  8
0
  6
CONTINUOUS
 62
               4
100
AcDbLine
 10
29.299987584617213
 20
-39.300000000000011
 30
0.0
 11
19.69998758461719
 21
-39.300000000000011
 31
0.0
  0
LINE
  5
154
100
AcDbEntity
  8
0
  6
CONTINUOUS
 62
               4
100
AcDbLine
 10
19.69998758461719
 20
-39.300000000000011
 30
0.0
 11
19.499987584617202
 21
-39.100000000000023
 31
0.0
  0
LINE
  5
155
100
AcDbEntity
  8
0
  6
CONTINUOUS
 62
               4
100
AcDbLine
 10
29.299987584617213
 20
-39.300000000000011
 30
0.0
 11
29.499987584617202
 21
-39.100000000000023
 31
0.0
  0
LINE
  5
156
100
AcDbEntity
  8
0
  6
CONTINUOUS
 62
               4
100
AcDbLine
 10
29.299987584617213
 20
-40.000000000000028
 30
0.0
 11
19.69998758461719
 21
-40.000000000000028
 31
0.0
  0
LINE
  5
157
100
AcDbEntity
  8
0
  6
CONTINUOUS
 62
               4
100
AcDbLine
 10
29.499987584617202
 20
-40.200000000000045
 30
0.0
 11
19.499987584617202
 21
-40.200000000000045
 31
0.0
  0
LINE
  5
158
100
AcDbEntity
  8
0
  6
CONTINUOUS
 62
               4
100
AcDbLine
 10
20.249987584617202
 20
-40.000000000000028
 30
0.0
 11
20.249987584617202
 21
-39.300000000000011
 31
0.0
  0
LINE
  5
159
100
AcDbEntity
  8
0
  6
CONTINUOUS
 62
               4
100
AcDbLine
 10
28.749987584617202
 20
-39.300000000000011
 30
0.0
 11
28.749987584617202
 21
-40.000000000000028
 31
0.0
  0
LINE
  5
15A
100
AcDbEntity
  8
0
  6
CONTINUOUS
 62
               4
100
AcDbLine
 10
19.499987584617202
 20
-40.200000000000045
 30
0.0
 11
19.69998758461719
 21
-40.000000000000028
 31
0.0
  0
LINE
  5
15B
100
AcDbEntity
  8
0
  6
CONTINUOUS
 62
               4
100
AcDbLine
 10
29.499987584617202
 20
-40.200000000000045
 30
0.0
 11
29.299987584617213
 21
-40.000000000000028
 31
0.0
  0
LINE
  5
15C
100
AcDbEntity
  8
0
  6
CONTINUOUS
 62
               4
100
AcDbLine
 10
19.499987584617202
 20
-44.161880000000025
 30
0.0
 11
19.566012784617214
 21
-44.200000000000045
 31
0.0
  0
LINE
  5
15D
100
AcDbEntity
  8
0
  6
CONTINUOUS
 62
               4
100
AcDbLine
 10
19.566013084617225
 20
-44.200000000000045
 30
0.0
 11
19.699987984617223
 21
-44.700000000000045
 31
0.0
  0
LINE
  5
15E
100
AcDbEntity
  8
0
  6
CONTINUOUS
 62
               4
100
AcDbLine
 10
20.44998758461719
 20
-44.700000000000045
 30
0.0
 11
20.44998758461719
 21
-45.000000000000028
 31
0.0
  0
LINE
  5
15F
100
AcDbEntity
  8
0
  6
CONTINUOUS
 62
               4
100
AcDbLine
 10
20.44998758461719
 20
-45.000000000000028
 30
0.0
 11
20.549987584617156
 21
-45.100000000000023
 31
0.0
  0
LINE
  5
160
100
AcDbEntity
  8
0
  6
CONTINUOUS
 62
               4
100
AcDbLine
 10
28.449987584617247
 20
-45.100000000000023
 30
0.0
 11
20.549987584617156
 21
-45.100000000000023
 31
0.0
  0
LINE
  5
161
100
AcDbEntity
  8
0
  6
CONTINUOUS
 62
               4
100
AcDbLine
 10
29.29998718461718
 20
-44.700000000000045
 30
0.0
 11
19.699987989928786
 21
-44.700000000000045
 31
0.0
  0
LINE
  5
162
100
AcDbEntity
  8
0
  6
CONTINUOUS
 62
               4
100
AcDbLine
 10
27.999987584617202
 20
-46.000000000000028
 30
0.0
 11
27.999987584617202
 21
-45.100000000000023
 31
0.0
  0
LINE
  5
163
100
AcDbEntity
  8
0
  6
CONTINUOUS
 62
               4
100
AcDbLine
 10
29.499987584617202
 20
-44.161880000000025
 30
0.0
 11
29.499987584617202
 21
-40.200000000000045
 31
0.0
  0
LINE
  5
164
100
AcDbEntity
  8
0
  6
CONTINUOUS
 62
               4
100
AcDbLine
 10
28.549987584617213
 20
-45.000000000000028
 30
0.0
 11
28.449987584617247
 21
-45.100000000000023
 31
0.0
  0
LINE
  5
165
100
AcDbEntity
  8
0
  6
CONTINUOUS
 62
               4
100
AcDbLine
 10
28.549987584617213
 20
-44.700000000000045
 30
0.0
 11
28.549987584617213
 21
-45.000000000000028
 31
0.0
  0
LINE
  5
166
100
AcDbEntity
  8
0
  6
CONTINUOUS
 62
               4
100
AcDbLine
 10
29.433962084617178
 20
-44.200000000000045
 30
0.0
 11
29.29998718461718
 21
-44.700000000000045
 31
0.0
  0
LINE
  5
167
100
AcDbEntity
  8
0
  6
CONTINUOUS
 62
               4
100
AcDbLine
 10
29.499987584617202
 20
-44.161880000000025
 30
0.0
 11
29.433962384617189
 21
-44.200000000000045
 31
0.0
  0
LINE
  5
168
100
AcDbEntity
  8
0
  6
CONTINUOUS
 62
               4
100
AcDbLine
 10
28.549987584617213
 20
-45.000000000000028
 30
0.0
 11
20.44998758461719
 21
-45.000000000000028
 31
0.0
  0
LINE
  5
169
100
AcDbEntity
  8
0
  6
CONTINUOUS
 62
               4
100
AcDbLine
 10
29.499987584617202
 20
-44.161880000000025
 30
0.0
 11
19.499987584617202
 21
-44.161880000000025
 31
0.0
  0
LINE
  5
16A
100
AcDbEntity
  8
0
  6
CONTINUOUS
 62
               4
100
AcDbLine
 10
29.433962029483382
 20
-44.200000204906047
 30
0.0
 11
19.566013139751021
 21
-44.200000204906047
 31
0.0
  0
LINE
  5
16B
100
AcDbEntity
  8
0
  6
CONTINUOUS
 62
               4
100
AcDbLine
 10
29.399987584617179
 20
-35.400000000000034
 30
0.0
 11
19.599987584617224
 21
-35.400000000000034
 31
0.0
  0
LINE
  5
16C
100
AcDbEntity
  8
0
  6
CONTINUOUS
 62
               4
100
AcDbLine
 10
29.499987584617202
 20
-35.500000000000028
 30
0.0
 11
19.499987584617202
 21
-35.500000000000028
 31
0.0
  0
LINE
  5
16D
100
AcDbEntity
  8
0
  6
CONTINUOUS
 62
               4
100
AcDbLine
 10
19.499987584617202
 20
-35.500000000000028
 30
0.0
 11
19.599987584617224
 21
-35.400000000000034
 31
0.0
  0
LINE
  5
16E
100
AcDbEntity
  8
0
  6
CONTINUOUS
 62
               4
100
AcDbLine
 10
19.599987584617224
 20
-35.400000000000034
 30
0.0
 11
19.499987584617202
 21
-35.30000000000004
 31
0.0
  0
LINE
  5
16F
100
AcDbEntity
  8
0
  6
CONTINUOUS
 62
               4
100
AcDbLine
 10
29.399987584617179
 20
-35.400000000000034
 30
0.0
 11
29.499987584617202
 21
-35.30000000000004
 31
0.0
  0
LINE
  5
170
100
AcDbEntity
  8
0
  6
CONTINUOUS
 62
               4
100
AcDbLine
 10
29.499987584617202
 20
-35.500000000000028
 30
0.0
 11
29.399987584617179
 21
-35.400000000000034
 31
0.0
  0
LINE
  5
171
100
AcDbEntity
  8
0
  6
CONTINUOUS
 62
               4
100
AcDbLine
 10
18.499987584617202
 20
-35.500000000000028
 30
0.0
 11
18.399987584617179
 21
-35.400000000000034
 31
0.0
  0
LINE
  5
172
100
AcDbEntity
  8
0
  6
CONTINUOUS
 62
               4
100
AcDbLine
 10
18.399987584617179
 20
-35.400000000000034
 30
0.0
 11
18.499987584617202
 21
-35.30000000000004
 31
0.0
  0
LINE
  5
173
100
AcDbEntity
  8
0
  6
CONTINUOUS
 62
               4
100
AcDbLine
 10
8.5999875846172245
 20
-35.400000000000034
 30
0.0
 11
8.4999875846172017
 21
-35.30000000000004
 31
0.0
  0
LINE
  5
174
100
AcDbEntity
  8
0
  6
CONTINUOUS
 62
               4
100
AcDbLine
 10
8.4999875846172017
 20
-35.500000000000028
 30
0.0
 11
8.5999875846172245
 21
-35.400000000000034
 31
0.0
  0
LINE
  5
175
100
AcDbEntity
  8
0
  6
CONTINUOUS
 62
               4
100
AcDbLine
 10
18.499987584617202
 20
-35.500000000000028
 30
0.0
 11
8.4999875846172017
 21
-35.500000000000028
 31
0.0
  0
LINE
  5
176
100
AcDbEntity
  8
0
  6
CONTINUOUS
 62
               4
100
AcDbLine
 10
18.399987584617179
 20
-35.400000000000034
 30
0.0
 11
8.5999875846172245
 21
-35.400000000000034
 31
0.0
  0
LINE
  5
177
100
AcDbEntity
  8
0
  6
CONTINUOUS
 62
               4
100
AcDbLine
 10
18.433962029483382
 20
-44.200000204906047
 30
0.0
 11
8.5660131397510213
 21
-44.200000204906047
 31
0.0
  0
LINE
  5
178
100
AcDbEntity
  8
0
  6
CONTINUOUS
 62
               4
100
AcDbLine
 10
18.499987584617202
 20
-44.161880000000025
 30
0.0
 11
8.4999875846172017
 21
-44.161880000000025
 31
0.0
  0
LINE
  5
179
100
AcDbEntity
  8
0
  6
CONTINUOUS
 62
               4
100
AcDbLine
 10
17.549987584617213
 20
-45.000000000000028
 30
0.0
 11
9.4499875846171904
 21
-45.000000000000028
 31
0.0
  0
LINE
  5
17A
100
AcDbEntity
  8
0
  6
CONTINUOUS
 62
               4
100
AcDbLine
 10
18.499987584617202
 20
-44.161880000000025
 30
0.0
 11
18.433962384617189
 21
-44.200000000000045
 31
0.0
  0
LINE
  5
17B
100
AcDbEntity
  8
0
  6
CONTINUOUS
 62
               4
100
AcDbLine
 10
18.433962084617178
 20
-44.200000000000045
 30
0.0
 11
18.29998718461718
 21
-44.700000000000045
 31
0.0
  0
LINE
  5
17C
100
AcDbEntity
  8
0
  6
CONTINUOUS
 62
               4
100
AcDbLine
 10
17.549987584617213
 20
-44.700000000000045
 30
0.0
 11
17.549987584617213
 21
-45.000000000000028
 31
0.0
  0
LINE
  5
17D
100
AcDbEntity
  8
0
  6
CONTINUOUS
 62
               4
100
AcDbLine
 10
17.549987584617213
 20
-45.000000000000028
 30
0.0
 11
17.449987584617247
 21
-45.100000000000023
 31
0.0
  0
LINE
  5
17E
100
AcDbEntity
  8
0
  6
CONTINUOUS
 62
               4
100
AcDbLine
 10
18.499987584617202
 20
-44.161880000000025
 30
0.0
 11
18.499987584617202
 21
-40.200000000000045
 31
0.0
  0
LINE
  5
17F
100
AcDbEntity
  8
0
  6
CONTINUOUS
 62
               4
100
AcDbLine
 10
16.999987584617202
 20
-46.000000000000028
 30
0.0
 11
16.999987584617202
 21
-45.100000000000023
 31
0.0
  0
LINE
  5
180
100
AcDbEntity
  8
0
  6
CONTINUOUS
 62
               4
100
AcDbLine
 10
18.29998718461718
 20
-44.700000000000045
 30
0.0
 11
8.6999879899287862
 21
-44.700000000000045
 31
0.0
  0
LINE
  5
181
100
AcDbEntity
  8
0
  6
CONTINUOUS
 62
               4
100
AcDbLine
 10
17.449987584617247
 20
-45.100000000000023
 30
0.0
 11
9.5499875846171562
 21
-45.100000000000023
 31
0.0
  0
LINE
  5
182
100
AcDbEntity
  8
0
  6
CONTINUOUS
 62
               4
100
AcDbLine
 10
9.4499875846171904
 20
-45.000000000000028
 30
0.0
 11
9.5499875846171562
 21
-45.100000000000023
 31
0.0
  0
LINE
  5
183
100
AcDbEntity
  8
0
  6
CONTINUOUS
 62
               4
100
AcDbLine
 10
9.4499875846171904
 20
-44.700000000000045
 30
0.0
 11
9.4499875846171904
 21
-45.000000000000028
 31
0.0
  0
LINE
  5
184
100
AcDbEntity
  8
0
  6
CONTINUOUS
 62
               4
100
AcDbLine
 10
8.5660130846172251
 20
-44.200000000000045
 30
0.0
 11
8.6999879846172234
 21
-44.700000000000045
 31
0.0
  0
LINE
  5
185
100
AcDbEntity
  8
0
  6
CONTINUOUS
 62
               4
100
AcDbLine
 10
8.4999875846172017
 20
-44.161880000000025
 30
0.0
 11
8.5660127846172145
 21
-44.200000000000045
 31
0.0
  0
LINE
  5
186
100
AcDbEntity
  8
0
  6
CONTINUOUS
 62
               4
100
AcDbLine
 10
18.499987584617202
 20
-40.200000000000045
 30
0.0
 11
18.299987584617213
 21
-40.000000000000028
 31
0.0
  0
LINE
  5
187
100
AcDbEntity
  8
0
  6
CONTINUOUS
 62
               4
100
AcDbLine
 10
8.4999875846172017
 20
-40.200000000000045
 30
0.0
 11
8.6999875846171904
 21
-40.000000000000028
 31
0.0
  0
LINE
  5
188
100
AcDbEntity
  8
0
  6
CONTINUOUS
 62
               4
100
AcDbLine
 10
17.749987584617202
 20
-39.300000000000011
 30
0.0
 11
17.749987584617202
 21
-40.000000000000028
 31
0.0
  0
LINE
  5
189
100
AcDbEntity
  8
0
  6
CONTINUOUS
 62
               4
100
AcDbLine
 10
9.2499875846172017
 20
-40.000000000000028
 30
0.0
 11
9.2499875846172017
 21
-39.300000000000011
 31
0.0
  0
LINE
  5
18A
100
AcDbEntity
  8
0
  6
CONTINUOUS
 62
               4
100
AcDbLine
 10
18.499987584617202
 20
-40.200000000000045
 30
0.0
 11
8.4999875846172017
 21
-40.200000000000045
 31
0.0
  0
LINE
  5
18B
100
AcDbEntity
  8
0
  6
CONTINUOUS
 62
               4
100
AcDbLine
 10
18.299987584617213
 20
-40.000000000000028
 30
0.0
 11
8.6999875846171904
 21
-40.000000000000028
 31
0.0
  0
LINE
  5
18C
100
AcDbEntity
  8
0
  6
CONTINUOUS
 62
               4
100
AcDbLine
 10
18.299987584617213
 20
-39.300000000000011
 30
0.0
 11
18.499987584617202
 21
-39.100000000000023
 31
0.0
  0
LINE
  5
18D
100
AcDbEntity
  8
0
  6
CONTINUOUS
 62
               4
100
AcDbLine
 10
8.6999875846171904
 20
-39.300000000000011
 30
0.0
 11
8.4999875846172017
 21
-39.100000000000023
 31
0.0
  0
LINE
  5
18E
100
AcDbEntity
  8
0
  6
CONTINUOUS
 62
               4
100
AcDbLine
 10
18.299987584617213
 20
-39.300000000000011
 30
0.0
 11
8.6999875846171904
 21
-39.300000000000011
 31
0.0
  0
LINE
  5
18F
100
AcDbEntity
  8
0
  6
CONTINUOUS
 62
               4
100
AcDbLine
 10
18.499987584617202
 20
-39.100000000000023
 30
0.0
 11
8.4999875846172017
 21
-39.100000000000023
 31
0.0
  0
LINE
  5
190
100
AcDbEntity
  8
0
  6
CONTINUOUS
 62
               4
100
AcDbLine
 10
8.4999875846172017
 20
-39.100000000000023
 30
0.0
 11
8.4999875846172017
 21
-35.500000000000028
 31
0.0
  0
LINE
  5
191
100
AcDbEntity
  8
0
  6
CONTINUOUS
 62
               4
100
AcDbLine
 10
18.499987584617202
 20
-39.100000000000023
 30
0.0
 11
18.499987584617202
 21
-35.500000000000028
 31
0.0
  0
LINE
  5
192
100
AcDbEntity
  8
0
  6
CONTINUOUS
 62
               4
100
AcDbLine
 10
18.399987584617179
 20
-46.800000000000011
 30
0.0
 11
18.399987584617179
 21
-46.000000000000028
 31
0.0
  0
ARC
  5
193
100
AcDbEntity
  8
0
  6
CONTINUOUS
 62
               4
100
AcDbCircle
 10
18.19998758461719
 20
-46.800000000000011
 30
0.0
 40
0.2
100
AcDbArc
 50
270.0
 51
0.0
  0
LINE
  5
194
100
AcDbEntity
  8
0
  6
CONTINUOUS
 62
               4
100
AcDbLine
 10
8.4999875846172017
 20
-44.161880000000025
 30
0.0
 11
8.4999875846172017
 21
-40.200000000000045
 31
0.0
  0
LINE
  5
195
100
AcDbEntity
  8
0
  6
CONTINUOUS
 62
               4
100
AcDbLine
 10
18.399987584617179
 20
-46.000000000000028
 30
0.0
 11
8.5999875786567372
 21
-46.000000000000028
 31
0.0
  0
LINE
  5
196
100
AcDbEntity
  8
0
  6
CONTINUOUS
 62
               4
100
AcDbLine
 10
9.9999875846172017
 20
-46.000000000000028
 30
0.0
 11
9.9999875846172017
 21
-45.100000000000023
 31
0.0
  0
ARC
  5
197
100
AcDbEntity
  8
0
  6
CONTINUOUS
 62
               4
100
AcDbCircle
 10
8.7999875846172131
 20
-46.800000000000011
 30
0.0
 40
0.2
100
AcDbArc
 50
180.0
 51
270.0
  0
LINE
  5
198
100
AcDbEntity
  8
0
  6
CONTINUOUS
 62
               4
100
AcDbLine
 10
8.5999875846172245
 20
-46.800000000000011
 30
0.0
 11
8.5999875846172245
 21
-46.000000000000028
 31
0.0
  0
LINE
  5
199
100
AcDbEntity
  8
0
  6
CONTINUOUS
 62
               4
100
AcDbLine
 10
18.19998758461719
 20
-47.000000000000028
 30
0.0
 11
8.7999875965381307
 21
-47.000000000000028
 31
0.0
  0
LINE
  5
19A
100
AcDbEntity
  8
0
  6
CONTINUOUS
 62
               4
100
AcDbLine
 10
8.4999875846172017
 20
-35.300000000000011
 30
0.0
 11
18.499987584617202
 21
-35.300000000000011
 31
0.0
  0
ENDBLK
  5
19B
100
AcDbEntity
  8
0
100
AcDbBlockEnd
  0
BLOCK
  5
19C
100
AcDbEntity
  8
0
100
AcDbBlockBegin
  2
F10MPJ-4
 70
               0
 10
0.0
 20
0.0
 30
0.0
  3
F10MPJ-4
  1

  0
LINE
  5
19D
100
AcDbEntity
  8
0
  6
CONTINUOUS
 62
               7
100
AcDbLine
 10
10.5
 20
0.0
 30
0.0
 11
0.0
 21
0.0
 31
0.0
  0
LINE
  5
19E
100
AcDbEntity
  8
0
  6
CONTINUOUS
 62
               4
100
AcDbLine
 10
10.25
 20
59.599985117672105
 30
0.0
 11
10.25
 21
61.600006103515653
 31
0.0
  0
LINE
  5
19F
100
AcDbEntity
  8
0
  6
CONTINUOUS
 62
               4
100
AcDbLine
 10
0.25
 20
59.600006103515653
 30
0.0
 11
0.25
 21
61.600006103515653
 31
0.0
  0
ARC
  5
1A0
100
AcDbEntity
  8
0
  6
CONTINUOUS
 62
               7
100
AcDbCircle
 10
4.0999999999999943
 20
19.22387452764815
 30
0.0
 40
0.4
100
AcDbArc
 50
0.0
 51
77.703953799353798
  0
LINE
  5
1A1
100
AcDbEntity
  8
0
  6
CONTINUOUS
 62
               7
100
AcDbLine
 10
4.5
 20
18.77612547235185
 30
0.0
 11
4.5
 21
19.22387452764815
 31
0.0
  0
ARC
  5
1A2
100
AcDbEntity
  8
0
  6
CONTINUOUS
 62
               7
100
AcDbCircle
 10
4.0999999999999943
 20
18.77612547235185
 30
0.0
 40
0.4
100
AcDbArc
 50
282.29604620064623
 51
0.0
  0
ARC
  5
1A3
100
AcDbEntity
  8
0
  6
CONTINUOUS
 62
               7
100
AcDbCircle
 10
6.4000000000000057
 20
18.77612547235185
 30
0.0
 40
0.4
100
AcDbArc
 50
180.0
 51
257.70395379935377
  0
LINE
  5
1A4
100
AcDbEntity
  8
0
  6
CONTINUOUS
 62
               7
100
AcDbLine
 10
6.0
 20
18.77612547235185
 30
0.0
 11
6.0
 21
19.22387452764815
 31
0.0
  0
ARC
  5
1A5
100
AcDbEntity
  8
0
  6
CONTINUOUS
 62
               7
100
AcDbCircle
 10
6.4000000000000057
 20
19.22387452764815
 30
0.0
 40
0.4
100
AcDbArc
 50
102.29604620064622
 51
180.0
  0
LINE
  5
1A6
100
AcDbEntity
  8
0
  6
CONTINUOUS
 62
               4
100
AcDbLine
 10
9.75
 20
14.199999999999989
 30
0.0
 11
10.069513529119973
 21
14.384471222047125
 31
0.0
  0
LINE
  5
1A7
100
AcDbEntity
  8
0
  6
CONTINUOUS
 62
               4
100
AcDbLine
 10
9.75
 20
12.800000000000011
 30
0.0
 11
9.75
 21
14.199999999999989
 31
0.0
  0
LINE
  5
1A8
100
AcDbEntity
  8
0
  6
CONTINUOUS
 62
               4
100
AcDbLine
 10
9.75
 20
12.800000000000011
 30
0.0
 11
10.069513529119973
 21
12.615528777952875
 31
0.0
  0
ARC
  5
1A9
100
AcDbEntity
  8
0
  6
CONTINUOUS
 62
               4
100
AcDbCircle
 10
5.25
 20
13.5
 30
0.0
 40
4.9000000000000004
100
AcDbArc
 50
190.39913703155764
 51
349.60086296844236
  0
LINE
  5
1AA
100
AcDbEntity
  8
0
  6
CONTINUOUS
 62
               4
100
AcDbLine
 10
0.75
 20
12.800000000000011
 30
0.0
 11
0.4304864708800267
 21
12.615528777952875
 31
0.0
  0
LINE
  5
1AB
100
AcDbEntity
  8
0
  6
CONTINUOUS
 62
               4
100
AcDbLine
 10
0.75
 20
12.800000000000011
 30
0.0
 11
0.75
 21
14.199999999999989
 31
0.0
  0
LINE
  5
1AC
100
AcDbEntity
  8
0
  6
CONTINUOUS
 62
               4
100
AcDbLine
 10
0.75
 20
14.199999999999989
 30
0.0
 11
0.4304864708800267
 21
14.384471222047125
 31
0.0
  0
CIRCLE
  5
1AD
100
AcDbEntity
  8
0
  6
CONTINUOUS
 62
               4
100
AcDbCircle
 10
5.25
 20
13.5
 30
0.0
 40
2.0500000000000003
  0
CIRCLE
  5
1AE
100
AcDbEntity
  8
0
  6
CONTINUOUS
 62
               4
100
AcDbCircle
 10
5.25
 20
13.5
 30
0.0
 40
3.0500000000000003
  0
ARC
  5
1AF
100
AcDbEntity
  8
0
  6
CONTINUOUS
 62
               4
100
AcDbCircle
 10
5.25
 20
13.5
 30
0.0
 40
4.9000000000000004
100
AcDbArc
 50
10.399137031557654
 51
169.60086296844239
  0
CIRCLE
  5
1B0
100
AcDbEntity
  8
0
  6
CONTINUOUS
 62
               4
100
AcDbCircle
 10
5.25
 20
13.5
 30
0.0
 40
5.0
  0
LINE
  5
1B1
100
AcDbEntity
  8
0
  6
CONTINUOUS
 62
               4
100
AcDbLine
 10
0.75
 20
23.800000000000011
 30
0.0
 11
0.4304864708800267
 21
23.615528777952875
 31
0.0
  0
LINE
  5
1B2
100
AcDbEntity
  8
0
  6
CONTINUOUS
 62
               4
100
AcDbLine
 10
0.75
 20
23.800000000000011
 30
0.0
 11
0.75
 21
25.199999999999989
 31
0.0
  0
LINE
  5
1B3
100
AcDbEntity
  8
0
  6
CONTINUOUS
 62
               4
100
AcDbLine
 10
0.75
 20
25.199999999999989
 30
0.0
 11
0.4304864708800267
 21
25.384471222047125
 31
0.0
  0
LINE
  5
1B4
100
AcDbEntity
  8
0
  6
CONTINUOUS
 62
               4
100
AcDbLine
 10
9.75
 20
23.800000000000011
 30
0.0
 11
9.75
 21
25.199999999999989
 31
0.0
  0
ARC
  5
1B5
100
AcDbEntity
  8
0
  6
CONTINUOUS
 62
               4
100
AcDbCircle
 10
5.25
 20
24.5
 30
0.0
 40
4.9000000000000004
100
AcDbArc
 50
190.39913703155764
 51
349.60086296844236
  0
LINE
  5
1B6
100
AcDbEntity
  8
0
  6
CONTINUOUS
 62
               4
100
AcDbLine
 10
9.75
 20
23.800000000000011
 30
0.0
 11
10.069513529119973
 21
23.615528777952875
 31
0.0
  0
LINE
  5
1B7
100
AcDbEntity
  8
0
  6
CONTINUOUS
 62
               4
100
AcDbLine
 10
9.75
 20
25.199999999999989
 30
0.0
 11
10.069513529119973
 21
25.384471222047125
 31
0.0
  0
CIRCLE
  5
1B8
100
AcDbEntity
  8
0
  6
CONTINUOUS
 62
               4
100
AcDbCircle
 10
5.25
 20
24.5
 30
0.0
 40
2.0500000000000003
  0
CIRCLE
  5
1B9
100
AcDbEntity
  8
0
  6
CONTINUOUS
 62
               4
100
AcDbCircle
 10
5.25
 20
24.5
 30
0.0
 40
3.0500000000000003
  0
ARC
  5
1BA
100
AcDbEntity
  8
0
  6
CONTINUOUS
 62
               4
100
AcDbCircle
 10
5.25
 20
24.5
 30
0.0
 40
4.9000000000000004
100
AcDbArc
 50
10.399137031557654
 51
169.60086296844239
  0
CIRCLE
  5
1BB
100
AcDbEntity
  8
0
  6
CONTINUOUS
 62
               4
100
AcDbCircle
 10
5.25
 20
24.5
 30
0.0
 40
5.0
  0
CIRCLE
  5
1BC
100
AcDbEntity
  8
0
  6
CONTINUOUS
 62
               4
100
AcDbCircle
 10
2.25
 20
32.0
 30
0.0
 40
1.25
  0
CIRCLE
  5
1BD
100
AcDbEntity
  8
0
  6
CONTINUOUS
 62
               4
100
AcDbCircle
 10
8.2499961853027344
 20
6.0
 30
0.0
 40
1.25
  0
CIRCLE
  5
1BE
100
AcDbEntity
  8
0
  6
CONTINUOUS
 62
               4
100
AcDbCircle
 10
2.25
 20
32.0
 30
0.0
 40
1.3999996185302734
  0
CIRCLE
  5
1BF
100
AcDbEntity
  8
0
  6
CONTINUOUS
 62
               4
100
AcDbCircle
 10
8.2499961853027344
 20
6.0
 30
0.0
 40
1.3999996185302734
  0
ARC
  5
1C0
100
AcDbEntity
  8
0
  6
CONTINUOUS
 62
               4
100
AcDbCircle
 10
1.4499969482421875
 20
6.20001220703125
 30
0.0
 40
1.5999994277954102
100
AcDbArc
 50
0.0
 51
89.999982013910653
  0
ARC
  5
1C1
100
AcDbEntity
  8
0
  6
CONTINUOUS
 62
               4
100
AcDbCircle
 10
9.0499954223632812
 20
31.799999237060547
 30
0.0
 40
1.5999994277954102
100
AcDbArc
 50
179.99996402782131
 51
270.00000068324533
  0
ARC
  5
1C2
100
AcDbEntity
  8
0
  6
CONTINUOUS
 62
               4
100
AcDbCircle
 10
3.4499969482421875
 20
3.600006103515625
 30
0.0
 40
0.4000000357627869
100
AcDbArc
 50
179.99996402782131
 51
270.00000068324533
  0
ARC
  5
1C3
100
AcDbEntity
  8
0
  6
CONTINUOUS
 62
               4
100
AcDbCircle
 10
9.8499946594238281
 20
3.600006103515625
 30
0.0
 40
0.4000000357627869
100
AcDbArc
 50
270.00001798608935
 51
0.0
  0
ARC
  5
1C4
100
AcDbEntity
  8
0
  6
CONTINUOUS
 62
               4
100
AcDbCircle
 10
9.8499946594238281
 20
29.80000114440918
 30
0.0
 40
0.4000000357627869
100
AcDbArc
 50
0.0
 51
89.999982013910653
  0
ARC
  5
1C5
100
AcDbEntity
  8
0
  6
CONTINUOUS
 62
               4
100
AcDbCircle
 10
7.0499954223632812
 20
34.400003433227539
 30
0.0
 40
0.4000000357627869
100
AcDbArc
 50
0.0
 51
89.999982013910653
  0
ARC
  5
1C6
100
AcDbEntity
  8
0
  6
CONTINUOUS
 62
               4
100
AcDbCircle
 10
0.6499977111816406
 20
34.400003433227539
 30
0.0
 40
0.4000000357627869
100
AcDbArc
 50
89.999982013910653
 51
179.99996402782131
  0
ARC
  5
1C7
100
AcDbEntity
  8
0
  6
CONTINUOUS
 62
               4
100
AcDbCircle
 10
0.6499977111816406
 20
8.20001220703125
 30
0.0
 40
0.4000000357627869
100
AcDbArc
 50
179.99996402782131
 51
270.00000068324533
  0
LINE
  5
1C8
100
AcDbEntity
  8
0
  6
CONTINUOUS
 62
             200
100
AcDbLine
 10
-0.75
 20
13.5
 30
0.0
 11
11.25
 21
13.5
 31
0.0
  0
LINE
  5
1C9
100
AcDbEntity
  8
0
  6
CONTINUOUS
 62
             200
100
AcDbLine
 10
-0.75
 20
24.5
 30
0.0
 11
11.25
 21
24.5
 31
0.0
  0
LINE
  5
1CA
100
AcDbEntity
  8
0
  6
CONTINUOUS
 62
               4
100
AcDbLine
 10
1.6489562177351047
 20
31.398959661628282
 30
0.0
 11
2.8510383659870797
 21
32.601041708552316
 31
0.0
  0
LINE
  5
1CB
100
AcDbEntity
  8
0
  6
CONTINUOUS
 62
               4
100
AcDbLine
 10
1.6489662180941309
 20
32.60104831568276
 30
0.0
 11
2.8510483663461059
 21
31.398966268758727
 31
0.0
  0
LINE
  5
1CC
100
AcDbEntity
  8
0
  6
CONTINUOUS
 62
               4
100
AcDbLine
 10
0.25
 20
8.20001220703125
 30
0.0
 11
0.25
 21
34.400003433227539
 31
0.0
  0
LINE
  5
1CD
100
AcDbEntity
  8
0
  6
CONTINUOUS
 62
               4
100
AcDbLine
 10
7.6489551801668654
 20
6.6010523658226248
 30
0.0
 11
8.8510346310203545
 21
5.3989730162968499
 31
0.0
  0
LINE
  5
1CE
100
AcDbEntity
  8
0
  6
CONTINUOUS
 62
               4
100
AcDbLine
 10
7.648950965482527
 20
5.3989596978930194
 30
0.0
 11
8.851033113734502
 21
6.6010417448170529
 31
0.0
  0
LINE
  5
1CF
100
AcDbEntity
  8
0
  6
CONTINUOUS
 62
               4
100
AcDbLine
 10
9.0499916076660156
 20
30.200006484985352
 30
0.0
 11
9.8499946594238281
 21
30.200006484985352
 31
0.0
  0
LINE
  5
1D0
100
AcDbEntity
  8
0
  6
CONTINUOUS
 62
               4
100
AcDbLine
 10
1.4499969482421875
 20
7.8000030517578125
 30
0.0
 11
0.6499977111816406
 21
7.8000030517578125
 31
0.0
  0
LINE
  5
1D1
100
AcDbEntity
  8
0
  6
CONTINUOUS
 62
               4
100
AcDbLine
 10
3.0500030517578125
 20
6.1999969482421875
 30
0.0
 11
3.0500030517578125
 21
3.600006103515625
 31
0.0
  0
LINE
  5
1D2
100
AcDbEntity
  8
0
  6
CONTINUOUS
 62
               4
100
AcDbLine
 10
7.4500007629394531
 20
31.799999237060547
 30
0.0
 11
7.4500007629394531
 21
34.400003433227539
 31
0.0
  0
LINE
  5
1D3
100
AcDbEntity
  8
0
  6
CONTINUOUS
 62
               4
100
AcDbLine
 10
0.6499977111816406
 20
34.800003051757813
 30
0.0
 11
7.0499954223632812
 21
34.800003051757813
 31
0.0
  0
LINE
  5
1D4
100
AcDbEntity
  8
0
  6
CONTINUOUS
 62
               4
100
AcDbLine
 10
3.4499969482421875
 20
3.20001220703125
 30
0.0
 11
9.8499908447265625
 21
3.20001220703125
 31
0.0
  0
LINE
  5
1D5
100
AcDbEntity
  8
0
  6
CONTINUOUS
 62
               4
100
AcDbLine
 10
10.25
 20
3.600006103515625
 30
0.0
 11
10.25
 21
29.80000114440918
 31
0.0
  0
LINE
  5
1D6
100
AcDbEntity
  8
0
  6
CONTINUOUS
 62
               7
100
AcDbLine
 10
0.0
 20
35.000000000000028
 30
0.0
 11
10.5
 21
35.000000000000028
 31
0.0
  0
LINE
  5
1D7
100
AcDbEntity
  8
0
  6
CONTINUOUS
 62
               7
100
AcDbLine
 10
0.25
 20
53.800003051757841
 30
0.0
 11
2.0500030517578125
 21
53.800003051757841
 31
0.0
  0
LINE
  5
1D8
100
AcDbEntity
  8
0
  6
CONTINUOUS
 62
               7
100
AcDbLine
 10
0.25
 20
50.600006103515653
 30
0.0
 11
2.0500030517578125
 21
50.600006103515653
 31
0.0
  0
LINE
  5
1D9
100
AcDbEntity
  8
0
  6
CONTINUOUS
 62
               7
100
AcDbLine
 10
6.850006103515625
 20
36.800003051757841
 30
0.0
 11
6.850006103515625
 21
35.000000000000028
 31
0.0
  0
LINE
  5
1DA
100
AcDbEntity
  8
0
  6
CONTINUOUS
 62
               7
100
AcDbLine
 10
8.4499969482421875
 20
38.400009155273466
 30
0.0
 11
10.25
 21
38.400009155273466
 31
0.0
  0
LINE
  5
1DB
100
AcDbEntity
  8
0
  6
CONTINUOUS
 62
               7
100
AcDbLine
 10
7.8489859836699907
 20
36.198909783207483
 30
0.0
 11
9.0510654345234798
 21
37.400989132733258
 31
0.0
  0
LINE
  5
1DC
100
AcDbEntity
  8
0
  6
CONTINUOUS
 62
               7
100
AcDbLine
 10
1.448988200493659
 20
51.598918418812929
 30
0.0
 11
2.6510784409410917
 21
52.801008557931738
 31
0.0
  0
LINE
  5
1DD
100
AcDbEntity
  8
0
  6
CONTINUOUS
 62
               7
100
AcDbLine
 10
1.4489712406029867
 20
52.801038296750477
 30
0.0
 11
2.6510506914564758
 21
51.598958947224702
 31
0.0
  0
LINE
  5
1DE
100
AcDbEntity
  8
0
  6
CONTINUOUS
 62
               7
100
AcDbLine
 10
7.8489703219020157
 20
37.401051779811525
 30
0.0
 11
9.0510605623494484
 21
36.198961640692715
 31
0.0
  0
LINE
  5
1DF
100
AcDbEntity
  8
0
  6
CONTINUOUS
 62
               7
100
AcDbLine
 10
0.649993896484375
 20
60.000000000000028
 30
0.0
 11
9.850006103515625
 21
60.000000000000028
 31
0.0
  0
LINE
  5
1E0
100
AcDbEntity
  8
0
  6
CONTINUOUS
 62
               7
100
AcDbLine
 10
10.25000556046416
 20
59.599985117672105
 30
0.0
 11
9.850002505861994
 21
59.999987228178753
 31
0.0
  0
LINE
  5
1E1
100
AcDbEntity
  8
0
  6
CONTINUOUS
 62
               7
100
AcDbLine
 10
0.6499924190229649
 20
60.000021872790995
 30
0.0
 11
0.2499905445401964
 21
59.60001858216495
 31
0.0
  0
LINE
  5
1E2
100
AcDbEntity
  8
0
  6
CONTINUOUS
 62
               7
100
AcDbLine
 10
10.25
 20
59.000000000000028
 30
0.0
 11
0.25
 21
59.000000000000028
 31
0.0
  0
LINE
  5
1E3
100
AcDbEntity
  8
0
  6
CONTINUOUS
 62
               7
100
AcDbLine
 10
10.25
 20
59.600006103515653
 30
0.0
 11
0.25
 21
59.600006103515653
 31
0.0
  0
LINE
  5
1E4
100
AcDbEntity
  8
0
  6
CONTINUOUS
 62
               7
100
AcDbLine
 10
10.25
 20
35.000000000000028
 30
0.0
 11
10.25
 21
59.599985117672105
 31
0.0
  0
LINE
  5
1E5
100
AcDbEntity
  8
0
  6
CONTINUOUS
 62
               7
100
AcDbLine
 10
0.25
 20
35.000000000000028
 30
0.0
 11
0.25
 21
59.600006103515653
 31
0.0
  0
LINE
  5
1E6
100
AcDbEntity
  8
0
  6
CONTINUOUS
 62
               7
100
AcDbLine
 10
0.0
 20
35.000000000000028
 30
0.0
 11
0.0
 21
1.0
 31
0.0
  0
LINE
  5
1E7
100
AcDbEntity
  8
0
  6
CONTINUOUS
 62
               7
100
AcDbLine
 10
0.0
 20
7.600006103515625
 30
0.0
 11
1.45001220703125
 21
7.600006103515625
 31
0.0
  0
LINE
  5
1E8
100
AcDbEntity
  8
0
  6
CONTINUOUS
 62
               7
100
AcDbLine
 10
2.850006103515625
 20
3.0
 30
0.0
 11
2.850006103515625
 21
6.1999969482421875
 31
0.0
  0
LINE
  5
1E9
100
AcDbEntity
  8
0
  6
CONTINUOUS
 62
               7
100
AcDbLine
 10
7.649993896484375
 20
31.800003051757841
 30
0.0
 11
7.649993896484375
 21
35.000000000000028
 31
0.0
  0
LINE
  5
1EA
100
AcDbEntity
  8
0
  6
CONTINUOUS
 62
               7
100
AcDbLine
 10
9.04998779296875
 20
30.400009155273466
 30
0.0
 11
10.5
 21
30.400009155273466
 31
0.0
  0
LINE
  5
1EB
100
AcDbEntity
  8
0
  6
CONTINUOUS
 62
               7
100
AcDbLine
 10
10.5
 20
35.000000000000028
 30
0.0
 11
10.5
 21
1.0
 31
0.0
  0
LINE
  5
1EC
100
AcDbEntity
  8
0
  6
CONTINUOUS
 62
               4
100
AcDbLine
 10
0.649993896484375
 20
62.000000000000028
 30
0.0
 11
9.8499908447265625
 21
62.000000000000028
 31
0.0
  0
LINE
  5
1ED
100
AcDbEntity
  8
0
  6
CONTINUOUS
 62
               4
100
AcDbLine
 10
3.29998779296875
 20
63.000000000000028
 30
0.0
 11
7.1999969482421875
 21
63.000000000000028
 31
0.0
  0
LINE
  5
1EE
100
AcDbEntity
  8
0
  6
CONTINUOUS
 62
               4
100
AcDbLine
 10
7.1999969482421875
 20
63.000000000000028
 30
0.0
 11
7.1999969482421875
 21
62.000000000000028
 31
0.0
  0
LINE
  5
1EF
100
AcDbEntity
  8
0
  6
CONTINUOUS
 62
               4
100
AcDbLine
 10
3.29998779296875
 20
63.000000000000028
 30
0.0
 11
3.29998779296875
 21
62.000000000000028
 31
0.0
  0
ARC
  5
1F0
100
AcDbEntity
  8
0
  6
CONTINUOUS
 62
               7
100
AcDbCircle
 10
0.649993896484375
 20
35.400009155273466
 30
0.0
 40
0.3999999761581421
100
AcDbArc
 50
179.99998133066532
 51
270.00001798608935
  0
ARC
  5
1F1
100
AcDbEntity
  8
0
  6
CONTINUOUS
 62
               7
100
AcDbCircle
 10
0.649993896484375
 20
58.600006103515653
 30
0.0
 40
0.3999999761581421
100
AcDbArc
 50
89.999982013910653
 51
179.99996402782131
  0
ARC
  5
1F2
100
AcDbEntity
  8
0
  6
CONTINUOUS
 62
               7
100
AcDbCircle
 10
9.850006103515625
 20
58.600006103515653
 30
0.0
 40
0.3999999761581421
100
AcDbArc
 50
0.0
 51
89.999982013910653
  0
ARC
  5
1F3
100
AcDbEntity
  8
0
  6
CONTINUOUS
 62
               7
100
AcDbCircle
 10
9.850006103515625
 20
35.400009155273466
 30
0.0
 40
0.3999999761581421
100
AcDbArc
 50
270.00001798608935
 51
0.0
  0
CIRCLE
  5
1F4
100
AcDbEntity
  8
0
  6
CONTINUOUS
 62
               7
100
AcDbCircle
 10
8.4499969482421875
 20
36.800003051757841
 30
0.0
 40
1.25
  0
CIRCLE
  5
1F5
100
AcDbEntity
  8
0
  6
CONTINUOUS
 62
               7
100
AcDbCircle
 10
2.0500030517578125
 20
52.200012207031278
 30
0.0
 40
1.25
  0
ARC
  5
1F6
100
AcDbEntity
  8
0
  6
CONTINUOUS
 62
               7
100
AcDbCircle
 10
8.4499969482421875
 20
36.800003051757841
 30
0.0
 40
1.5999994277954102
100
AcDbArc
 50
89.999982013910653
 51
179.99996402782131
  0
ARC
  5
1F7
100
AcDbEntity
  8
0
  6
CONTINUOUS
 62
               7
100
AcDbCircle
 10
2.0500030517578125
 20
52.200012207031278
 30
0.0
 40
1.5999984741210938
100
AcDbArc
 50
270.00001798608935
 51
89.999982013910653
  0
ARC
  5
1F8
100
AcDbEntity
  8
0
  6
CONTINUOUS
 62
               7
100
AcDbCircle
 10
1.45001220703125
 20
6.1999969482421875
 30
0.0
 40
1.3999996185302734
100
AcDbArc
 50
0.0
 51
89.999982013910653
  0
ARC
  5
1F9
100
AcDbEntity
  8
0
  6
CONTINUOUS
 62
               7
100
AcDbCircle
 10
9.04998779296875
 20
31.800003051757841
 30
0.0
 40
1.3999996185302734
100
AcDbArc
 50
179.99998133066532
 51
270.00001798608935
  0
ARC
  5
1FA
100
AcDbEntity
  8
0
  6
CONTINUOUS
 62
               4
100
AcDbCircle
 10
0.649993896484375
 20
61.600006103515653
 30
0.0
 40
0.3999999761581421
100
AcDbArc
 50
89.999982013910653
 51
179.99996402782131
  0
ARC
  5
1FB
100
AcDbEntity
  8
0
  6
CONTINUOUS
 62
               4
100
AcDbCircle
 10
9.8499908447265625
 20
61.600006103515653
 30
0.0
 40
0.3999999761581421
100
AcDbArc
 50
0.0
 51
89.999982013910653
  0
LINE
  5
1FC
100
AcDbEntity
  8
0
  6
CONTINUOUS
 62
               7
100
AcDbLine
 10
10.5
 20
1.0
 30
0.0
 11
0.0
 21
1.0
 31
0.0
  0
LINE
  5
1FD
100
AcDbEntity
  8
0
  6
CONTINUOUS
 62
               2
100
AcDbLine
 10
5.25
 20
-0.829620361328125
 30
0.0
 11
5.25
 21
59.000000000000028
 31
0.0
  0
LINE
  5
1FE
100
AcDbEntity
  8
0
  6
CONTINUOUS
 62
               7
100
AcDbLine
 10
0.0
 20
3.0
 30
0.0
 11
10.5
 21
3.0
 31
0.0
  0
LINE
  5
1FF
100
AcDbEntity
  8
0
  6
CONTINUOUS
 62
             200
100
AcDbLine
 10
5.25
 20
59.000000000000028
 30
0.0
 11
5.25
 21
63.816482543945341
 31
0.0
  0
ENDBLK
  5
200
100
AcDbEntity
  8
0
100
AcDbBlockEnd
  0
BLOCK
  5
201
100
AcDbEntity
  8
0
100
AcDbBlockBegin
  2
F10MPJ-5
 70
               0
 10
0.0
 20
0.0
 30
0.0
  3
F10MPJ-5
  1

  0
LINE
  5
202
100
AcDbEntity
  8
0
  6
CONTINUOUS
 62
               7
100
AcDbLine
 10
8.8788045159872553
 20
33.523849820964983
 30
0.0
 11
10.25
 21
33.523849820964983
 31
0.0
  0
LINE
  5
203
100
AcDbEntity
  8
0
  6
CONTINUOUS
 62
               4
100
AcDbLine
 10
10.250003814697266
 20
33.523849820964983
 30
0.0
 11
10.250003814697266
 21
57.523849820964983
 31
0.0
  0
LINE
  5
204
100
AcDbEntity
  8
0
  6
CONTINUOUS
 62
               7
100
AcDbLine
 10
2.1160535896449488
 20
33.523849820964983
 30
0.0
 11
8.8788045159872553
 21
33.523849820964983
 31
0.0
  0
LINE
  5
205
100
AcDbEntity
  8
0
  6
CONTINUOUS
 62
               4
100
AcDbLine
 10
0.2500038146972656
 20
33.523849820964983
 30
0.0
 11
0.2500038146972656
 21
57.523865079754046
 31
0.0
  0
LINE
  5
206
100
AcDbEntity
  8
0
  6
CONTINUOUS
 62
               7
100
AcDbLine
 10
10.250003814697266
 20
9.7238496302301201
 30
0.0
 11
10.250003814697266
 21
10.973863935344866
 31
0.0
  0
LINE
  5
207
100
AcDbEntity
  8
0
  6
CONTINUOUS
 62
               4
100
AcDbLine
 10
0.2500038146972656
 20
-12.676149988300153
 30
0.0
 11
0.2500038146972656
 21
14.323850011699847
 31
0.0
  0
LINE
  5
208
100
AcDbEntity
  8
0
  6
CONTINUOUS
 62
               4
100
AcDbLine
 10
10.250003814697266
 20
-17.27615036976988
 30
0.0
 11
10.250003814697266
 21
9.7238496302301201
 31
0.0
  0
LINE
  5
209
100
AcDbEntity
  8
0
  6
CONTINUOUS
 62
               7
100
AcDbLine
 10
0.2500038146972656
 20
14.323850011699847
 30
0.0
 11
0.2500038146972656
 21
33.523849820964983
 31
0.0
  0
LINE
  5
20A
100
AcDbEntity
  8
0
  6
CONTINUOUS
 62
               7
100
AcDbLine
 10
0.9500184514381544
 20
-17.876132836722377
 30
0.0
 11
0.550026692193569
 21
-17.476141010044216
 31
0.0
  0
LINE
  5
20B
100
AcDbEntity
  8
0
  6
CONTINUOUS
 62
               7
100
AcDbLine
 10
0.9499854757432331
 20
-25.076146953919874
 30
0.0
 11
0.5499936490650725
 21
-25.47613871316446
 31
0.0
  0
LINE
  5
20C
100
AcDbEntity
  8
0
  6
CONTINUOUS
 62
               7
100
AcDbLine
 10
9.5500248162734351
 20
-25.076147678848997
 30
0.0
 11
9.9500165755180205
 21
-25.476139505527158
 31
0.0
  0
LINE
  5
20D
100
AcDbEntity
  8
0
  6
CONTINUOUS
 62
               7
100
AcDbLine
 10
9.549982264816208
 20
-17.876144351238167
 30
0.0
 11
9.9499848810883122
 21
-17.476141802401457
 31
0.0
  0
LINE
  5
20E
100
AcDbEntity
  8
0
  6
CONTINUOUS
 62
               7
100
AcDbLine
 10
9.5500068664550781
 20
-25.076153421527692
 30
0.0
 11
9.5500068664550781
 21
-17.876156473285505
 31
0.0
  0
LINE
  5
20F
100
AcDbEntity
  8
0
  6
CONTINUOUS
 62
               7
100
AcDbLine
 10
0.9500007629394531
 20
-17.876156473285505
 30
0.0
 11
9.5500068664550781
 21
-17.876156473285505
 31
0.0
  0
LINE
  5
210
100
AcDbEntity
  8
0
  6
CONTINUOUS
 62
               7
100
AcDbLine
 10
0.9500007629394531
 20
-25.076153421527692
 30
0.0
 11
0.9500007629394531
 21
-17.876156473285505
 31
0.0
  0
LINE
  5
211
100
AcDbEntity
  8
0
  6
CONTINUOUS
 62
               7
100
AcDbLine
 10
0.9500007629394531
 20
-25.076153421527692
 30
0.0
 11
9.5500068664550781
 21
-25.076153421527692
 31
0.0
  0
LINE
  5
212
100
AcDbEntity
  8
0
  6
CONTINUOUS
 62
               7
100
AcDbLine
 10
9.9500007629394531
 20
-25.47616257680113
 30
0.0
 11
9.9500007629394531
 21
-17.47616257680113
 31
0.0
  0
LINE
  5
213
100
AcDbEntity
  8
0
  6
CONTINUOUS
 62
               7
100
AcDbLine
 10
0.5500068664550781
 20
-25.47616257680113
 30
0.0
 11
0.5500068664550781
 21
-17.47616257680113
 31
0.0
  0
LINE
  5
214
100
AcDbEntity
  8
0
  6
CONTINUOUS
 62
               7
100
AcDbLine
 10
0.2500038146972656
 20
-23.47616257680113
 30
0.0
 11
0.5500068664550781
 21
-23.47616257680113
 31
0.0
  0
LINE
  5
215
100
AcDbEntity
  8
0
  6
CONTINUOUS
 62
               7
100
AcDbLine
 10
0.5500068664550781
 20
-19.476147318012067
 30
0.0
 11
0.2500038146972656
 21
-19.476147318012067
 31
0.0
  0
LINE
  5
216
100
AcDbEntity
  8
0
  6
CONTINUOUS
 62
               7
100
AcDbLine
 10
9.9500007629394531
 20
-23.47616257680113
 30
0.0
 11
10.250003814697266
 21
-23.47616257680113
 31
0.0
  0
LINE
  5
217
100
AcDbEntity
  8
0
  6
CONTINUOUS
 62
               7
100
AcDbLine
 10
10.250003814697266
 20
-19.476147318012067
 30
0.0
 11
9.9500007629394531
 21
-19.476147318012067
 31
0.0
  0
LINE
  5
218
100
AcDbEntity
  8
0
  6
CONTINUOUS
 62
               7
100
AcDbLine
 10
0.2999992370605469
 20
61.523849820964983
 30
0.0
 11
0.0000076293945313
 21
61.523849820964983
 31
0.0
  0
LINE
  5
219
100
AcDbEntity
  8
0
  6
CONTINUOUS
 62
               7
100
AcDbLine
 10
0.2999992370605469
 20
62.523849820964983
 30
0.0
 11
0.0
 21
62.523849820964983
 31
0.0
  0
LINE
  5
21A
100
AcDbEntity
  8
0
  6
CONTINUOUS
 62
               4
100
AcDbLine
 10
0.8000032087160207
 20
66.523865079754017
 30
0.0
 11
9.700004734594927
 21
66.523849820964955
 31
0.0
  0
LINE
  5
21B
100
AcDbEntity
  8
0
  6
CONTINUOUS
 62
               7
100
AcDbLine
 10
0.2500076293945313
 20
-30.276153230792829
 30
0.0
 11
0.0000076293945313
 21
-30.276153230792829
 31
0.0
  0
LINE
  5
21C
100
AcDbEntity
  8
0
  6
CONTINUOUS
 62
               7
100
AcDbLine
 10
0.0000076293945313
 20
-25.476150179035017
 30
0.0
 11
0.2500076293945313
 21
-25.476150179035017
 31
0.0
  0
LINE
  5
21D
100
AcDbEntity
  8
0
  6
CONTINUOUS
 62
               7
100
AcDbLine
 10
0.2500076293945313
 20
21.523849820964983
 30
0.0
 11
0.0000076293945313
 21
21.523849820964983
 31
0.0
  0
LINE
  5
21E
100
AcDbEntity
  8
0
  6
CONTINUOUS
 62
               7
100
AcDbLine
 10
0.3000106811523438
 20
61.023849820964983
 30
0.0
 11
0.0000076293945313
 21
61.023849820964983
 31
0.0
  0
LINE
  5
21F
100
AcDbEntity
  8
0
  6
CONTINUOUS
 62
               7
100
AcDbLine
 10
0.3000106811523438
 20
60.523849820964983
 30
0.0
 11
0.0000076293945313
 21
60.523849820964983
 31
0.0
  0
LINE
  5
220
100
AcDbEntity
  8
0
  6
CONTINUOUS
 62
               7
100
AcDbLine
 10
0.3000106811523438
 20
59.523849820964983
 30
0.0
 11
0.0000076293945313
 21
59.523849820964983
 31
0.0
  0
LINE
  5
221
100
AcDbEntity
  8
0
  6
CONTINUOUS
 62
               7
100
AcDbLine
 10
0.2500076293945313
 20
49.523849820964983
 30
0.0
 11
0.0000076293945313
 21
49.523849820964983
 31
0.0
  0
ARC
  5
222
100
AcDbEntity
  8
0
  6
CONTINUOUS
 62
               7
100
AcDbCircle
 10
5.1500034332275391
 20
30.223846769207171
 30
0.0
 40
3.0
100
AcDbArc
 50
271.91023065164512
 51
0.0
  0
ARC
  5
223
100
AcDbEntity
  8
0
  6
CONTINUOUS
 62
               7
100
AcDbCircle
 10
5.2500038146972656
 20
30.223846769207171
 30
0.0
 40
3.0
100
AcDbArc
 50
266.17746163595666
 51
3.822566595416411
  0
ARC
  5
224
100
AcDbEntity
  8
0
  6
CONTINUOUS
 62
               7
100
AcDbCircle
 10
5.3500041961669922
 20
30.223846769207171
 30
0.0
 40
3.0
100
AcDbArc
 50
268.08980532053351
 51
0.0
  0
ARC
  5
225
100
AcDbEntity
  8
0
  6
CONTINUOUS
 62
               4
100
AcDbCircle
 10
9.0499992370605469
 20
11.323850011699847
 30
0.0
 40
1.5999994277954102
100
AcDbArc
 50
179.99996402782131
 51
270.00000068324533
  0
ARC
  5
226
100
AcDbEntity
  8
0
  6
CONTINUOUS
 62
               4
100
AcDbCircle
 10
1.4500007629394531
 20
-14.27615036976988
 30
0.0
 40
1.5999994277954102
100
AcDbArc
 50
0.0
 51
89.999982013910653
  0
CIRCLE
  5
227
100
AcDbEntity
  8
0
  6
CONTINUOUS
 62
               4
100
AcDbCircle
 10
8.25
 20
-14.476150179035017
 30
0.0
 40
1.3999996185302734
  0
CIRCLE
  5
228
100
AcDbEntity
  8
0
  6
CONTINUOUS
 62
               4
100
AcDbCircle
 10
2.25
 20
11.523849820964983
 30
0.0
 40
1.3999996185302734
  0
CIRCLE
  5
229
100
AcDbEntity
  8
0
  6
CONTINUOUS
 62
               4
100
AcDbCircle
 10
8.25
 20
-14.476150179035017
 30
0.0
 40
1.25
  0
CIRCLE
  5
22A
100
AcDbEntity
  8
0
  6
CONTINUOUS
 62
               4
100
AcDbCircle
 10
2.25
 20
11.523849820964983
 30
0.0
 40
1.25
  0
CIRCLE
  5
22B
100
AcDbEntity
  8
0
  6
CONTINUOUS
 62
               4
100
AcDbCircle
 10
1.4500007629394531
 20
-14.276149416095564
 30
0.0
 40
1.25
  0
CIRCLE
  5
22C
100
AcDbEntity
  8
0
  6
CONTINUOUS
 62
               4
100
AcDbCircle
 10
9.0499992370605469
 20
11.32384905802553
 30
0.0
 40
1.25
  0
ARC
  5
22D
100
AcDbEntity
  8
0
  6
CONTINUOUS
 62
               7
100
AcDbCircle
 10
0.6500015258789063
 20
14.923843717449358
 30
0.0
 40
0.4000000357627869
100
AcDbArc
 50
179.99996402782131
 51
270.00000068324533
  0
ARC
  5
22E
100
AcDbEntity
  8
0
  6
CONTINUOUS
 62
               7
100
AcDbCircle
 10
9.8500022888183594
 20
14.923843717449358
 30
0.0
 40
0.4000000357627869
100
AcDbArc
 50
270.00001798608935
 51
0.0
  0
ARC
  5
22F
100
AcDbEntity
  8
0
  6
CONTINUOUS
 62
               7
100
AcDbCircle
 10
0.6499977111816406
 20
-32.076141023761579
 30
0.0
 40
0.4000000357627869
100
AcDbArc
 50
179.99996402782131
 51
269.99994604173196
  0
ARC
  5
230
100
AcDbEntity
  8
0
  6
CONTINUOUS
 62
               7
100
AcDbCircle
 10
9.8499984741210937
 20
-32.076141023761579
 30
0.0
 40
0.4000000357627869
100
AcDbArc
 50
270.00001798608935
 51
0.00001366037834
  0
ARC
  5
231
100
AcDbEntity
  8
0
  6
CONTINUOUS
 62
               4
100
AcDbCircle
 10
0.8000030517578125
 20
66.023865079754046
 30
0.0
 40
0.5
100
AcDbArc
 50
89.999982013910653
 51
179.99996402782131
  0
ARC
  5
232
100
AcDbEntity
  8
0
  6
CONTINUOUS
 62
               4
100
AcDbCircle
 10
9.7000045776367187
 20
66.023849820964983
 30
0.0
 40
0.5
100
AcDbArc
 50
359.99995901886496
 51
89.999982013910653
  0
CIRCLE
  5
233
100
AcDbEntity
  8
0
  6
CONTINUOUS
 62
               7
100
AcDbCircle
 10
5.2500038146972656
 20
30.223846769207171
 30
0.0
 40
1.9499998092651367
  0
CIRCLE
  5
234
100
AcDbEntity
  8
0
  6
CONTINUOUS
 62
               7
100
AcDbCircle
 10
5.2500038146972656
 20
30.223846769207171
 30
0.0
 40
2.0
  0
LINE
  5
235
100
AcDbEntity
  8
0
  6
CONTINUOUS
 62
               7
100
AcDbLine
 10
5.2500009536743164
 20
-17.976134920245954
 30
0.0
 11
5.2500009536743164
 21
-18.976134920245954
 31
0.0
  0
LINE
  5
236
100
AcDbEntity
  8
0
  6
CONTINUOUS
 62
               7
100
AcDbLine
 10
5.2499964861552826
 20
27.223827847151711
 30
0.0
 11
6.2499958856777766
 21
26.955868167500171
 31
0.0
  0
LINE
  5
237
100
AcDbEntity
  8
0
  6
CONTINUOUS
 62
               7
100
AcDbLine
 10
5.2500038146972656
 20
26.723846769207171
 30
0.0
 11
5.2500038146972656
 21
27.723846769207171
 31
0.0
  0
LINE
  5
238
100
AcDbEntity
  8
0
  6
CONTINUOUS
 62
               7
100
AcDbLine
 10
7.7500038146972656
 20
30.223846769207171
 30
0.0
 11
8.7500038146972656
 21
30.223846769207171
 31
0.0
  0
LINE
  5
239
100
AcDbEntity
  8
0
  6
CONTINUOUS
 62
               4
100
AcDbLine
 10
0.25
 20
-12.676149988300153
 30
0.0
 11
1.4500007629394531
 21
-12.676149988300153
 31
0.0
  0
LINE
  5
23A
100
AcDbEntity
  8
0
  6
CONTINUOUS
 62
               4
100
AcDbLine
 10
9.0499992370605469
 20
9.7238496302301201
 30
0.0
 11
10.25
 21
9.7238496302301201
 31
0.0
  0
LINE
  5
23B
100
AcDbEntity
  8
0
  6
CONTINUOUS
 62
               4
100
AcDbLine
 10
7.4499998092651367
 20
14.323850011699847
 30
0.0
 11
7.4499998092651367
 21
11.323850011699847
 31
0.0
  0
LINE
  5
23C
100
AcDbEntity
  8
0
  6
CONTINUOUS
 62
               4
100
AcDbLine
 10
3.0500001907348633
 20
-14.27615036976988
 30
0.0
 11
3.0500001907348633
 21
-17.27615036976988
 31
0.0
  0
LINE
  5
23D
100
AcDbEntity
  8
0
  6
CONTINUOUS
 62
               4
100
AcDbLine
 10
0.25
 20
14.323850011699847
 30
0.0
 11
7.4499998092651367
 21
14.323850011699847
 31
0.0
  0
LINE
  5
23E
100
AcDbEntity
  8
0
  6
CONTINUOUS
 62
               4
100
AcDbLine
 10
3.0500001907348633
 20
-17.27615036976988
 30
0.0
 11
10.25
 21
-17.27615036976988
 31
0.0
  0
LINE
  5
23F
100
AcDbEntity
  8
0
  6
CONTINUOUS
 62
               4
100
AcDbLine
 10
1.6489593420656092
 20
12.124891832448782
 30
0.0
 11
2.8510413889896427
 21
10.922809785524748
 31
0.0
  0
LINE
  5
240
100
AcDbEntity
  8
0
  6
CONTINUOUS
 62
               4
100
AcDbLine
 10
7.6489594734324555
 20
-13.87511029154939
 30
0.0
 11
8.8510406782964992
 21
-15.077190483135155
 31
0.0
  0
LINE
  5
241
100
AcDbEntity
  8
0
  6
CONTINUOUS
 62
               4
100
AcDbLine
 10
7.648958630494576
 20
-15.077191368218905
 30
0.0
 11
8.8510405097084686
 21
-13.87511050228386
 31
0.0
  0
LINE
  5
242
100
AcDbEntity
  8
0
  6
CONTINUOUS
 62
               4
100
AcDbLine
 10
1.6489588367425085
 20
10.922808457462452
 30
0.0
 11
2.8510397026775536
 21
12.124890336676344
 31
0.0
  0
LINE
  5
243
100
AcDbEntity
  8
0
  6
CONTINUOUS
 62
               2
100
AcDbLine
 10
5.2500038146972656
 20
-35.569108817240476
 30
0.0
 11
5.2500038146972656
 21
69.023849820964983
 31
0.0
  0
LINE
  5
244
100
AcDbEntity
  8
0
  6
CONTINUOUS
 62
               7
100
AcDbLine
 10
10.250003814697266
 20
11.673834180706194
 30
0.0
 11
10.250003814697266
 21
33.523849820964983
 31
0.0
  0
LINE
  5
245
100
AcDbEntity
  8
0
  6
CONTINUOUS
 62
               7
100
AcDbLine
 10
0.2500038146972656
 20
-13.926139497882673
 30
0.0
 11
0.2500038146972656
 21
-12.676149988300153
 31
0.0
  0
LINE
  5
246
100
AcDbEntity
  8
0
  6
CONTINUOUS
 62
               4
100
AcDbLine
 10
0.8489659948448889
 20
-13.675104734657793
 30
0.0
 11
2.0510474687472424
 21
-14.877186005904377
 31
0.0
  0
LINE
  5
247
100
AcDbEntity
  8
0
  6
CONTINUOUS
 62
               4
100
AcDbLine
 10
8.4489654819149109
 20
11.924897284667225
 30
0.0
 11
9.6510475288389443
 21
10.722815237743191
 31
0.0
  0
LINE
  5
248
100
AcDbEntity
  8
0
  6
CONTINUOUS
 62
               4
100
AcDbLine
 10
8.4489569686924142
 20
10.722807334771915
 30
0.0
 11
9.6510351372303376
 21
11.924886516586412
 31
0.0
  0
LINE
  5
249
100
AcDbEntity
  8
0
  6
CONTINUOUS
 62
               4
100
AcDbLine
 10
0.8489671520407001
 20
-14.877196005594556
 30
0.0
 11
2.0510476476099484
 21
-13.675115003386168
 31
0.0
  0
LINE
  5
24A
100
AcDbEntity
  8
0
  6
CONTINUOUS
 62
               7
100
AcDbLine
 10
0.6499977111816406
 20
-32.476150179035017
 30
0.0
 11
9.8499984741210937
 21
-32.476150179035017
 31
0.0
  0
LINE
  5
24B
100
AcDbEntity
  8
0
  6
CONTINUOUS
 62
               7
100
AcDbLine
 10
0.2499961853027344
 20
-25.476150179035017
 30
0.0
 11
10.249996185302734
 21
-25.476150179035017
 31
0.0
  0
LINE
  5
24C
100
AcDbEntity
  8
0
  6
CONTINUOUS
 62
               7
100
AcDbLine
 10
0.2499961853027344
 20
-17.476146364337751
 30
0.0
 11
10.249996185302734
 21
-17.476146364337751
 31
0.0
  0
LINE
  5
24D
100
AcDbEntity
  8
0
  6
CONTINUOUS
 62
               7
100
AcDbLine
 10
0.25
 20
14.523849820964983
 30
0.0
 11
10.25
 21
14.523849820964983
 31
0.0
  0
LINE
  5
24E
100
AcDbEntity
  8
0
  6
CONTINUOUS
 62
               7
100
AcDbLine
 10
0.2500038146972656
 20
-32.076141023761579
 30
0.0
 11
0.2500038146972656
 21
-14.626159334308454
 31
0.0
  0
LINE
  5
24F
100
AcDbEntity
  8
0
  6
CONTINUOUS
 62
               7
100
AcDbLine
 10
10.250003814697266
 20
-32.076141023761579
 30
0.0
 11
10.250003814697266
 21
-17.27615036976988
 31
0.0
  0
LINE
  5
250
100
AcDbEntity
  8
0
  6
CONTINUOUS
 62
               4
100
AcDbLine
 10
10.199996948242187
 20
57.523849820964983
 30
0.0
 11
10.199996948242187
 21
66.023849820964983
 31
0.0
  0
LINE
  5
251
100
AcDbEntity
  8
0
  6
CONTINUOUS
 62
               4
100
AcDbLine
 10
10.199996948242187
 20
62.023849820964983
 30
0.0
 11
0.2999992370605469
 21
62.023849820964983
 31
0.0
  0
LINE
  5
252
100
AcDbEntity
  8
0
  6
CONTINUOUS
 62
               7
100
AcDbLine
 10
10.5
 20
61.523849820964983
 30
0.0
 11
10.199996948242187
 21
61.523849820964983
 31
0.0
  0
LINE
  5
253
100
AcDbEntity
  8
0
  6
CONTINUOUS
 62
               4
100
AcDbLine
 10
0.2999992370605469
 20
57.523865079754046
 30
0.0
 11
0.2999992370605469
 21
66.023865079754046
 31
0.0
  0
LINE
  5
254
100
AcDbEntity
  8
0
  6
CONTINUOUS
 62
               7
100
AcDbLine
 10
3.323211669921875
 20
30.523834562175921
 30
0.0
 11
7.176788330078125
 21
30.523834562175921
 31
0.0
  0
LINE
  5
255
100
AcDbEntity
  8
0
  6
CONTINUOUS
 62
               7
100
AcDbLine
 10
3.323211669921875
 20
29.923843717449358
 30
0.0
 11
7.176788330078125
 21
29.923843717449358
 31
0.0
  0
LINE
  5
256
100
AcDbEntity
  8
0
  6
CONTINUOUS
 62
               7
100
AcDbLine
 10
0.25
 20
33.523849820964983
 30
0.0
 11
2.1160535896449488
 21
33.523849820964983
 31
0.0
  0
LINE
  5
257
100
AcDbEntity
  8
0
  6
CONTINUOUS
 62
               4
100
AcDbLine
 10
0.25
 20
57.523849820964983
 30
0.0
 11
10.25
 21
57.523849820964983
 31
0.0
  0
LINE
  5
258
100
AcDbEntity
  8
0
  6
CONTINUOUS
 62
               7
100
AcDbLine
 10
2.75
 20
30.223846769207171
 30
0.0
 11
7.75
 21
30.223846769207171
 31
0.0
  0
LINE
  5
259
100
AcDbEntity
  8
0
  6
CONTINUOUS
 62
               7
100
AcDbLine
 10
0.25
 20
24.023834562175921
 30
0.0
 11
10.25
 21
24.023834562175921
 31
0.0
  0
LINE
  5
25A
100
AcDbEntity
  8
0
  6
CONTINUOUS
 62
               7
100
AcDbLine
 10
0.2500038146972656
 20
22.023849820964983
 30
0.0
 11
10.250003814697266
 21
22.023849820964983
 31
0.0
  0
LINE
  5
25B
100
AcDbEntity
  8
0
  6
CONTINUOUS
 62
               7
100
AcDbLine
 10
10.5
 20
62.523849820964983
 30
0.0
 11
10.199996948242187
 21
62.523849820964983
 31
0.0
  0
LINE
  5
25C
100
AcDbEntity
  8
0
  6
CONTINUOUS
 62
               7
100
AcDbLine
 10
10.25
 20
-30.276153230792829
 30
0.0
 11
10.5
 21
-30.276153230792829
 31
0.0
  0
LINE
  5
25D
100
AcDbEntity
  8
0
  6
CONTINUOUS
 62
               7
100
AcDbLine
 10
10.199996948242187
 20
61.023849820964983
 30
0.0
 11
10.5
 21
61.023849820964983
 31
0.0
  0
LINE
  5
25E
100
AcDbEntity
  8
0
  6
CONTINUOUS
 62
               7
100
AcDbLine
 10
10.199996948242187
 20
60.523849820964983
 30
0.0
 11
10.5
 21
60.523849820964983
 31
0.0
  0
LINE
  5
25F
100
AcDbEntity
  8
0
  6
CONTINUOUS
 62
               7
100
AcDbLine
 10
10.199996948242187
 20
59.523849820964983
 30
0.0
 11
10.5
 21
59.523849820964983
 31
0.0
  0
LINE
  5
260
100
AcDbEntity
  8
0
  6
CONTINUOUS
 62
               7
100
AcDbLine
 10
10.25
 20
49.523849820964983
 30
0.0
 11
10.5
 21
49.523849820964983
 31
0.0
  0
LINE
  5
261
100
AcDbEntity
  8
0
  6
CONTINUOUS
 62
               7
100
AcDbLine
 10
10.5
 20
-30.276153230792829
 30
0.0
 11
10.5
 21
62.523849820964983
 31
0.0
  0
LINE
  5
262
100
AcDbEntity
  8
0
  6
CONTINUOUS
 62
               7
100
AcDbLine
 10
10.25
 20
21.523849820964983
 30
0.0
 11
10.5
 21
21.523849820964983
 31
0.0
  0
LINE
  5
263
100
AcDbEntity
  8
0
  6
CONTINUOUS
 62
               7
100
AcDbLine
 10
10.5
 20
-25.476150179035017
 30
0.0
 11
10.25
 21
-25.476150179035017
 31
0.0
  0
LINE
  5
264
100
AcDbEntity
  8
0
  6
CONTINUOUS
 62
               7
100
AcDbLine
 10
0.0
 20
-30.276153230792829
 30
0.0
 11
0.0
 21
62.523849820964983
 31
0.0
  0
ENDBLK
  5
265
100
AcDbEntity
  8
0
100
AcDbBlockEnd
  0
BLOCK
  5
266
100
AcDbEntity
  8
0
100
AcDbBlockBegin
  2
F10MPJ-6
 70
               0
 10
0.0
 20
0.0
 30
0.0
  3
F10MPJ-6
  1

  0
LINE
  5
267
100
AcDbEntity
  8
0
  6
CONTINUOUS
 62
               4
100
AcDbLine
 10
59.674999971245597
 20
66.523834555545676
 30
0.0
 11
32.299999971245597
 21
66.523834468084516
 31
0.0
  0
LINE
  5
268
100
AcDbEntity
  8
0
  6
CONTINUOUS
 62
               7
100
AcDbLine
 10
35.0
 20
-32.099990844726591
 30
0.0
 11
35.0
 21
-30.500000000000028
 31
0.0
  0
LINE
  5
269
100
AcDbEntity
  8
0
  6
CONTINUOUS
 62
               4
100
AcDbLine
 10
61.999999986629177
 20
61.708834562973855
 30
0.0
 11
62.0
 21
57.523834562973853
 31
0.0
  0
LINE
  5
26A
100
AcDbEntity
  8
0
  6
CONTINUOUS
 62
               4
100
AcDbLine
 10
47.249999998402529
 20
58.023834515848669
 30
0.0
 11
47.25
 21
57.523834515848669
 31
0.0
  0
LINE
  5
26B
100
AcDbEntity
  8
0
  6
CONTINUOUS
 62
               4
100
AcDbLine
 10
49.749999998402529
 20
58.023834523836022
 30
0.0
 11
49.75
 21
57.523834523836022
 31
0.0
  0
LINE
  5
26C
100
AcDbEntity
  8
0
  6
CONTINUOUS
 62
               4
100
AcDbLine
 10
49.749999998402529
 20
58.023834523836022
 30
0.0
 11
47.249999998402529
 21
58.023834515848669
 31
0.0
  0
LINE
  5
26D
100
AcDbEntity
  8
0
  6
CONTINUOUS
 62
               4
100
AcDbLine
 10
60.129999972188102
 20
66.228834556999317
 30
0.0
 11
61.869999984696278
 21
62.313834562558519
 31
0.0
  0
ARC
  5
26E
100
AcDbEntity
  8
0
  6
CONTINUOUS
 62
               4
100
AcDbCircle
 10
59.675687836709074
 20
66.026505667625457
 30
0.0
 40
0.4973293636201366
100
AcDbArc
 50
24.005903771692733
 51
90.079246880189771
  0
ARC
  5
26F
100
AcDbEntity
  8
0
  6
CONTINUOUS
 62
               4
100
AcDbCircle
 10
60.501123934960958
 20
61.703228960302077
 30
0.0
 40
1.4988865337462252
100
AcDbArc
 50
0.2142778096817979
 51
24.039904626290561
  0
LINE
  5
270
100
AcDbEntity
  8
0
  6
CONTINUOUS
 62
               4
100
AcDbLine
 10
54.899999992332141
 20
59.923834540289896
 30
0.0
 11
54.899999995367352
 21
58.97383454028985
 31
0.0
  0
LINE
  5
271
100
AcDbEntity
  8
0
  6
CONTINUOUS
 62
               4
100
AcDbLine
 10
41.999999992332164
 20
59.923834499075291
 30
0.0
 11
41.999999995367318
 21
58.973834499075302
 31
0.0
  0
LINE
  5
272
100
AcDbEntity
  8
0
  6
CONTINUOUS
 62
               4
100
AcDbLine
 10
56.999999992332164
 20
59.923834546999238
 30
0.0
 11
54.899999992332141
 21
59.923834540289896
 31
0.0
  0
LINE
  5
273
100
AcDbEntity
  8
0
  6
CONTINUOUS
 62
               4
100
AcDbLine
 10
41.999999992332164
 20
59.923834499075291
 30
0.0
 11
39.899999992332141
 21
59.923834492365948
 31
0.0
  0
LINE
  5
274
100
AcDbEntity
  8
0
  6
CONTINUOUS
 62
               4
100
AcDbLine
 10
56.999999992332164
 20
59.923834546999238
 30
0.0
 11
56.999999995367318
 21
58.973834546999193
 31
0.0
  0
LINE
  5
275
100
AcDbEntity
  8
0
  6
CONTINUOUS
 62
               4
100
AcDbLine
 10
39.899999992332141
 20
59.923834492365948
 30
0.0
 11
39.899999995367295
 21
58.97383449236596
 31
0.0
  0
LINE
  5
276
100
AcDbEntity
  8
0
  6
CONTINUOUS
 62
               4
100
AcDbLine
 10
41.999999995367318
 20
58.973834499075302
 30
0.0
 11
39.899999995367295
 21
58.97383449236596
 31
0.0
  0
LINE
  5
277
100
AcDbEntity
  8
0
  6
CONTINUOUS
 62
               4
100
AcDbLine
 10
56.999999995367318
 20
58.973834546999193
 30
0.0
 11
54.899999995367352
 21
58.97383454028985
 31
0.0
  0
LINE
  5
278
100
AcDbEntity
  8
0
  6
CONTINUOUS
 62
               4
100
AcDbLine
 10
36.499999994888071
 20
59.123834481503216
 30
0.0
 11
36.499999999999943
 21
57.523834481503194
 31
0.0
  0
LINE
  5
279
100
AcDbEntity
  8
0
  6
CONTINUOUS
 62
               4
100
AcDbLine
 10
36.499999994888071
 20
59.123834481503216
 30
0.0
 11
35.0
 21
59.123834476710826
 31
0.0
  0
LINE
  5
27A
100
AcDbEntity
  8
0
  6
CONTINUOUS
 62
               4
100
AcDbLine
 10
62.0
 20
57.523834562814123
 30
0.0
 11
36.399999999999977
 21
57.523834481023947
 31
0.0
  0
LINE
  5
27B
100
AcDbEntity
  8
0
  6
CONTINUOUS
 62
               4
100
AcDbLine
 10
62.0
 20
57.523834562814123
 30
0.0
 11
62.000000076678248
 21
33.52383456281413
 31
0.0
  0
LINE
  5
27C
100
AcDbEntity
  8
0
  6
CONTINUOUS
 62
               7
100
AcDbLine
 10
47.300006101918143
 20
58.023834516008456
 30
0.0
 11
47.270002236358266
 21
58.023834515912561
 31
0.0
  0
LINE
  5
27D
100
AcDbEntity
  8
0
  6
CONTINUOUS
 62
               7
100
AcDbLine
 10
48.700010170928579
 20
58.023834520481351
 30
0.0
 11
48.19999427635662
 21
58.023834518883824
 31
0.0
  0
LINE
  5
27E
100
AcDbEntity
  8
0
  6
CONTINUOUS
 62
               7
100
AcDbLine
 10
62.000000076678248
 20
33.523834649077173
 30
0.0
 11
35.000000076678248
 21
33.52383456281413
 31
0.0
  0
ARC
  5
27F
100
AcDbEntity
  8
0
  6
CONTINUOUS
 62
               4
100
AcDbCircle
 10
54.000000076678248
 20
-13.526145600760088
 30
0.0
 40
0.5
100
AcDbArc
 50
359.99994535848663
 51
89.999982013910653
  0
ARC
  5
280
100
AcDbEntity
  8
0
  6
CONTINUOUS
 62
               4
100
AcDbCircle
 10
54.000000076678248
 20
-15.026145600760088
 30
0.0
 40
0.5
100
AcDbArc
 50
269.99996334457597
 51
359.99994535848663
  0
ARC
  5
281
100
AcDbEntity
  8
0
  6
CONTINUOUS
 62
               7
100
AcDbCircle
 10
52.950012283709498
 20
-31.476150178396807
 30
0.0
 40
0.5
100
AcDbArc
 50
270.00001798608935
 51
0.0000546415133601
  0
ARC
  5
282
100
AcDbEntity
  8
0
  6
CONTINUOUS
 62
               7
100
AcDbCircle
 10
51.450012283709498
 20
-31.476150178396807
 30
0.0
 40
0.5
100
AcDbArc
 50
180.00003597217869
 51
270.00001798608935
  0
ARC
  5
283
100
AcDbEntity
  8
0
  6
CONTINUOUS
 62
               7
100
AcDbCircle
 10
61.600006180193873
 20
14.923843718087568
 30
0.0
 40
0.4000000357627869
100
AcDbArc
 50
270.00007262760272
 51
0.0000409811350201
  0
ARC
  5
284
100
AcDbEntity
  8
0
  6
CONTINUOUS
 62
               4
100
AcDbCircle
 10
58.600006180193873
 20
13.923843718087568
 30
0.0
 40
0.4000000357627869
100
AcDbArc
 50
0.0000546415133601
 51
90.000036655424012
  0
ARC
  5
285
100
AcDbEntity
  8
0
  6
CONTINUOUS
 62
               4
100
AcDbCircle
 10
58.600006180193873
 20
-16.876151704275713
 30
0.0
 40
0.4000000357627869
100
AcDbArc
 50
270.00001798608935
 51
0.0000409811350201
  0
ARC
  5
286
100
AcDbEntity
  8
0
  6
CONTINUOUS
 62
               7
100
AcDbCircle
 10
58.600006180193873
 20
-32.07614102312337
 30
0.0
 40
0.4000000357627869
100
AcDbArc
 50
270.00007262760272
 51
0.0000409811350201
  0
ARC
  5
287
100
AcDbEntity
  8
0
  6
CONTINUOUS
 62
               7
100
AcDbCircle
 10
35.400009231951685
 20
-32.07614102312337
 30
0.0
 40
0.4000000357627869
100
AcDbArc
 50
180.00003597217869
 51
270.00007262760272
  0
LINE
  5
288
100
AcDbEntity
  8
0
  6
CONTINUOUS
 62
               7
100
AcDbLine
 10
57.699997024920435
 20
24.02383456281413
 30
0.0
 11
38.500000076678248
 21
24.02383456281413
 31
0.0
  0
LINE
  5
289
100
AcDbEntity
  8
0
  6
CONTINUOUS
 62
               7
100
AcDbLine
 10
35.800244233280011
 20
24.023834562175921
 30
0.0
 11
34.800244233280011
 21
24.023834562175921
 31
0.0
  0
LINE
  5
28A
100
AcDbEntity
  8
0
  6
CONTINUOUS
 62
               7
100
AcDbLine
 10
60.699997024920435
 20
22.023849821603193
 30
0.0
 11
60.699997024920435
 21
24.02383456281413
 31
0.0
  0
LINE
  5
28B
100
AcDbEntity
  8
0
  6
CONTINUOUS
 62
               7
100
AcDbLine
 10
57.699997024920435
 20
22.023849821603193
 30
0.0
 11
57.699997024920435
 21
24.02383456281413
 31
0.0
  0
LINE
  5
28C
100
AcDbEntity
  8
0
  6
CONTINUOUS
 62
               7
100
AcDbLine
 10
38.300244233280011
 20
22.023849820964983
 30
0.0
 11
38.300244233280011
 21
24.023834562175921
 31
0.0
  0
LINE
  5
28D
100
AcDbEntity
  8
0
  6
CONTINUOUS
 62
               7
100
AcDbLine
 10
35.800244233280011
 20
22.023849820964983
 30
0.0
 11
35.800244233280011
 21
24.023834562175921
 31
0.0
  0
LINE
  5
28E
100
AcDbEntity
  8
0
  6
CONTINUOUS
 62
               7
100
AcDbLine
 10
50.600006180193873
 20
-32.476150178396807
 30
0.0
 11
50.600006180193873
 21
-31.476150178396807
 31
0.0
  0
LINE
  5
28F
100
AcDbEntity
  8
0
  6
CONTINUOUS
 62
               4
100
AcDbLine
 10
54.500000076678248
 20
-13.526145600760088
 30
0.0
 11
54.500000076678248
 21
-15.026145600760088
 31
0.0
  0
LINE
  5
290
100
AcDbEntity
  8
0
  6
CONTINUOUS
 62
               4
100
AcDbLine
 10
59.000000076678248
 20
-12.676149033987627
 30
0.0
 11
54.000000076678248
 21
-12.676149033987627
 31
0.0
  0
LINE
  5
291
100
AcDbEntity
  8
0
  6
CONTINUOUS
 62
               7
100
AcDbLine
 10
59.000000076678248
 20
-23.576150559866534
 30
0.0
 11
59.000000076678248
 21
-19.376149796927081
 31
0.0
  0
LINE
  5
292
100
AcDbEntity
  8
0
  6
CONTINUOUS
 62
               7
100
AcDbLine
 10
57.100006180193873
 20
-19.376149796927081
 30
0.0
 11
57.100006180193873
 21
-17.476150178396807
 31
0.0
  0
LINE
  5
293
100
AcDbEntity
  8
0
  6
CONTINUOUS
 62
               7
100
AcDbLine
 10
59.600006180193873
 20
-19.376149796927081
 30
0.0
 11
57.100006180193873
 21
-19.376149796927081
 31
0.0
  0
LINE
  5
294
100
AcDbEntity
  8
0
  6
CONTINUOUS
 62
               7
100
AcDbLine
 10
59.600006180193873
 20
-23.576150559866534
 30
0.0
 11
57.100006180193873
 21
-23.576150559866534
 31
0.0
  0
LINE
  5
295
100
AcDbEntity
  8
0
  6
CONTINUOUS
 62
               7
100
AcDbLine
 10
59.600006180193873
 20
-25.47616543718587
 30
0.0
 11
59.600006180193873
 21
-17.476146363699542
 31
0.0
  0
LINE
  5
296
100
AcDbEntity
  8
0
  6
CONTINUOUS
 62
               7
100
AcDbLine
 10
57.100006180193873
 20
-25.476150178396807
 30
0.0
 11
57.100006180193873
 21
-23.576150559866534
 31
0.0
  0
LINE
  5
297
100
AcDbEntity
  8
0
  6
CONTINUOUS
 62
               7
100
AcDbLine
 10
57.000000076678248
 20
-19.476150178396807
 30
0.0
 11
57.000000076678248
 21
-17.476146363699542
 31
0.0
  0
LINE
  5
298
100
AcDbEntity
  8
0
  6
CONTINUOUS
 62
               7
100
AcDbLine
 10
58.000000076678248
 20
-19.476150178396807
 30
0.0
 11
58.000000076678248
 21
-19.376149796927081
 31
0.0
  0
LINE
  5
299
100
AcDbEntity
  8
0
  6
CONTINUOUS
 62
               7
100
AcDbLine
 10
57.000000076678248
 20
-25.476150178396807
 30
0.0
 11
57.000000076678248
 21
-23.476150178396807
 31
0.0
  0
LINE
  5
29A
100
AcDbEntity
  8
0
  6
CONTINUOUS
 62
               7
100
AcDbLine
 10
58.000000076678248
 20
-23.576150559866534
 30
0.0
 11
58.000000076678248
 21
-23.476150178396807
 31
0.0
  0
LINE
  5
29B
100
AcDbEntity
  8
0
  6
CONTINUOUS
 62
               7
100
AcDbLine
 10
59.000000076678248
 20
-19.476150178396807
 30
0.0
 11
57.000000076678248
 21
-19.476150178396807
 31
0.0
  0
LINE
  5
29C
100
AcDbEntity
  8
0
  6
CONTINUOUS
 62
               7
100
AcDbLine
 10
59.000000076678248
 20
-23.476150178396807
 30
0.0
 11
57.000000076678248
 21
-23.476150178396807
 31
0.0
  0
LINE
  5
29D
100
AcDbEntity
  8
0
  6
CONTINUOUS
 62
               7
100
AcDbLine
 10
52.950012283709498
 20
-31.976150178396807
 30
0.0
 11
51.450012283709498
 21
-31.976150178396807
 31
0.0
  0
LINE
  5
29E
100
AcDbEntity
  8
0
  6
CONTINUOUS
 62
               7
100
AcDbLine
 10
53.80000312843606
 20
-31.476150178396807
 30
0.0
 11
50.600006180193873
 21
-31.476150178396807
 31
0.0
  0
LINE
  5
29F
100
AcDbEntity
  8
0
  6
CONTINUOUS
 62
               7
100
AcDbLine
 10
53.80000312843606
 20
-32.476150178396807
 30
0.0
 11
53.80000312843606
 21
-31.476150178396807
 31
0.0
  0
LINE
  5
2A0
100
AcDbEntity
  8
0
  6
CONTINUOUS
 62
               7
100
AcDbLine
 10
62.000000076678248
 20
22.023849821603193
 30
0.0
 11
35.000000076678248
 21
22.023849821603193
 31
0.0
  0
LINE
  5
2A1
100
AcDbEntity
  8
0
  6
CONTINUOUS
 62
               7
100
AcDbLine
 10
58.600006180193873
 20
-32.476150178396807
 30
0.0
 11
35.400009231951685
 21
-32.476150178396807
 31
0.0
  0
LINE
  5
2A2
100
AcDbEntity
  8
0
  6
CONTINUOUS
 62
               7
100
AcDbLine
 10
59.000000076678248
 20
-32.07614102312337
 30
0.0
 11
59.000000076678248
 21
-25.476150178396807
 31
0.0
  0
LINE
  5
2A3
100
AcDbEntity
  8
0
  6
CONTINUOUS
 62
               7
100
AcDbLine
 10
59.600006180193873
 20
-25.476150178396807
 30
0.0
 11
35.000000076678248
 21
-25.476150178396807
 31
0.0
  0
LINE
  5
2A4
100
AcDbEntity
  8
0
  6
CONTINUOUS
 62
               4
100
AcDbLine
 10
58.600006180193873
 20
-17.276145600760088
 30
0.0
 11
54.000000076678248
 21
-17.276145600760088
 31
0.0
  0
LINE
  5
2A5
100
AcDbEntity
  8
0
  6
CONTINUOUS
 62
               4
100
AcDbLine
 10
58.600006180193873
 20
14.323852873361005
 30
0.0
 11
54.000000076678248
 21
14.323852873361005
 31
0.0
  0
LINE
  5
2A6
100
AcDbEntity
  8
0
  6
CONTINUOUS
 62
               4
100
AcDbLine
 10
59.000000076678248
 20
13.923843718087568
 30
0.0
 11
59.000000076678248
 21
-16.876147889578448
 31
0.0
  0
LINE
  5
2A7
100
AcDbEntity
  8
0
  6
CONTINUOUS
 62
               7
100
AcDbLine
 10
61.600006180193873
 20
14.523849821603193
 30
0.0
 11
35.000000076678248
 21
14.523849821603193
 31
0.0
  0
LINE
  5
2A8
100
AcDbEntity
  8
0
  6
CONTINUOUS
 62
               7
100
AcDbLine
 10
59.600006180193873
 20
-17.476150178396807
 30
0.0
 11
35.000000076678248
 21
-17.476150178396807
 31
0.0
  0
LINE
  5
2A9
100
AcDbEntity
  8
0
  6
CONTINUOUS
 62
               4
100
AcDbLine
 10
54.000000076678248
 20
14.523849821603193
 30
0.0
 11
54.000000076678248
 21
-17.476150178396807
 31
0.0
  0
LINE
  5
2AA
100
AcDbEntity
  8
0
  6
CONTINUOUS
 62
               7
100
AcDbLine
 10
60.000000076678248
 20
-25.07614102312337
 30
0.0
 11
60.000000076678248
 21
-17.876147889578448
 31
0.0
  0
LINE
  5
2AB
100
AcDbEntity
  8
0
  6
CONTINUOUS
 62
               7
100
AcDbLine
 10
60.000006820173098
 20
-25.07615547265371
 30
0.0
 11
59.600005181714209
 21
-25.476159033021332
 31
0.0
  0
LINE
  5
2AC
100
AcDbEntity
  8
0
  6
CONTINUOUS
 62
               7
100
AcDbLine
 10
60.000003808677548
 20
-17.876144845991035
 30
0.0
 11
59.599997382305673
 21
-17.476146073536398
 31
0.0
  0
LINE
  5
2AD
100
AcDbEntity
  8
0
  6
CONTINUOUS
 62
               7
100
AcDbLine
 10
62.000000076678248
 20
14.923843718087568
 30
0.0
 11
62.000000076678248
 21
33.52383456281413
 31
0.0
  0
LINE
  5
2AE
100
AcDbEntity
  8
0
  6
CONTINUOUS
 62
               7
100
AcDbLine
 10
63.000000076678248
 20
30.52383456281413
 30
0.0
 11
63.000000076678248
 21
32.173843718087568
 31
0.0
  0
LINE
  5
2AF
100
AcDbEntity
  8
0
  6
CONTINUOUS
 62
               7
100
AcDbLine
 10
63.000000076678248
 20
30.523849821603193
 30
0.0
 11
62.399993973162623
 21
30.523849821603193
 31
0.0
  0
LINE
  5
2B0
100
AcDbEntity
  8
0
  6
CONTINUOUS
 62
               7
100
AcDbLine
 10
63.000000076678248
 20
29.923843718087568
 30
0.0
 11
62.399993973162623
 21
29.923843718087568
 31
0.0
  0
LINE
  5
2B1
100
AcDbEntity
  8
0
  6
CONTINUOUS
 62
               7
100
AcDbLine
 10
62.399993973162623
 20
29.923843718087568
 30
0.0
 11
62.399993973162623
 21
30.52383456281413
 31
0.0
  0
LINE
  5
2B2
100
AcDbEntity
  8
0
  6
CONTINUOUS
 62
               7
100
AcDbLine
 10
63.000000076678248
 20
32.173843718087568
 30
0.0
 11
62.000000076678248
 21
32.173843718087568
 31
0.0
  0
LINE
  5
2B3
100
AcDbEntity
  8
0
  6
CONTINUOUS
 62
               7
100
AcDbLine
 10
63.000000076678248
 20
28.273849821603193
 30
0.0
 11
62.000000076678248
 21
28.273849821603193
 31
0.0
  0
LINE
  5
2B4
100
AcDbEntity
  8
0
  6
CONTINUOUS
 62
               7
100
AcDbLine
 10
63.000000076678248
 20
28.27383456281413
 30
0.0
 11
63.000000076678248
 21
29.923843718087568
 31
0.0
  0
LINE
  5
2B5
100
AcDbEntity
  8
0
  6
CONTINUOUS
 62
               7
100
AcDbLine
 10
64.000000076678248
 20
30.22384676984538
 30
0.0
 11
61.30000312843606
 21
30.22384676984538
 31
0.0
  0
LINE
  5
2B6
100
AcDbEntity
  8
0
  6
CONTINUOUS
 62
               7
100
AcDbLine
 10
62.000000076678248
 20
24.02383456281413
 30
0.0
 11
60.699997024920435
 21
24.02383456281413
 31
0.0
  0
LINE
  5
2B7
100
AcDbEntity
  8
0
  6
CONTINUOUS
 62
               4
100
AcDbLine
 10
31.799999972843068
 20
66.023834466487045
 30
0.0
 11
31.799999984025305
 21
62.52383465930091
 31
0.0
  0
ARC
  5
2B8
100
AcDbEntity
  8
0
  6
CONTINUOUS
 62
               4
100
AcDbCircle
 10
32.298459522819883
 20
66.025374918097867
 30
0.0
 40
0.4984619302958243
100
AcDbArc
 50
89.822932648453985
 51
180.17706771765825
  0
ENDBLK
  5
2B9
100
AcDbEntity
  8
0
100
AcDbBlockEnd
  0
BLOCK
  5
2BA
100
AcDbEntity
  8
0
100
AcDbBlockBegin
  2
F10MPJ-7
 70
               0
 10
0.0
 20
0.0
 30
0.0
  3
F10MPJ-7
  1

  0
LINE
  5
2BB
100
AcDbEntity
  8
0
  6
CONTINUOUS
 62
               4
100
AcDbLine
 10
10.25
 20
59.600021362304688
 30
0.0
 11
10.25
 21
61.600021362304687
 31
0.0
  0
LINE
  5
2BC
100
AcDbEntity
  8
0
  6
CONTINUOUS
 62
               4
100
AcDbLine
 10
0.25
 20
59.600033840953984
 30
0.0
 11
0.25
 21
61.600021362304687
 31
0.0
  0
LINE
  5
2BD
100
AcDbEntity
  8
0
  6
CONTINUOUS
 62
               7
100
AcDbLine
 10
0.25
 20
53.800018310546875
 30
0.0
 11
2.0500030517578125
 21
53.800018310546875
 31
0.0
  0
LINE
  5
2BE
100
AcDbEntity
  8
0
  6
CONTINUOUS
 62
               7
100
AcDbLine
 10
0.25
 20
50.600021362304688
 30
0.0
 11
2.0500030517578125
 21
50.600021362304688
 31
0.0
  0
LINE
  5
2BF
100
AcDbEntity
  8
0
  6
CONTINUOUS
 62
               7
100
AcDbLine
 10
6.850006103515625
 20
36.800018310546875
 30
0.0
 11
6.850006103515625
 21
35.000015258789063
 31
0.0
  0
LINE
  5
2C0
100
AcDbEntity
  8
0
  6
CONTINUOUS
 62
               7
100
AcDbLine
 10
8.4499969482421875
 20
38.4000244140625
 30
0.0
 11
10.25
 21
38.4000244140625
 31
0.0
  0
LINE
  5
2C1
100
AcDbEntity
  8
0
  6
CONTINUOUS
 62
               7
100
AcDbLine
 10
7.8489859836699907
 20
36.198925041996517
 30
0.0
 11
9.0510654345234798
 21
37.401004391522292
 31
0.0
  0
LINE
  5
2C2
100
AcDbEntity
  8
0
  6
CONTINUOUS
 62
               7
100
AcDbLine
 10
1.448988200493659
 20
51.598933677601963
 30
0.0
 11
2.6510784409410917
 21
52.801023816720772
 31
0.0
  0
LINE
  5
2C3
100
AcDbEntity
  8
0
  6
CONTINUOUS
 62
               7
100
AcDbLine
 10
1.4489712406029867
 20
52.801053555539511
 30
0.0
 11
2.6510506914564758
 21
51.598974206013736
 31
0.0
  0
LINE
  5
2C4
100
AcDbEntity
  8
0
  6
CONTINUOUS
 62
               7
100
AcDbLine
 10
7.8489703219020157
 20
37.401067038600559
 30
0.0
 11
9.0510605623494484
 21
36.19897689948175
 31
0.0
  0
LINE
  5
2C5
100
AcDbEntity
  8
0
  6
CONTINUOUS
 62
               7
100
AcDbLine
 10
0.649993896484375
 20
60.000015258789063
 30
0.0
 11
9.850006103515625
 21
60.000015258789063
 31
0.0
  0
LINE
  5
2C6
100
AcDbEntity
  8
0
  6
CONTINUOUS
 62
               7
100
AcDbLine
 10
10.25000556046416
 20
59.600000376461139
 30
0.0
 11
9.850002505861994
 21
60.000002486967787
 31
0.0
  0
LINE
  5
2C7
100
AcDbEntity
  8
0
  6
CONTINUOUS
 62
               7
100
AcDbLine
 10
0.6499924190229649
 20
60.000037131580029
 30
0.0
 11
0.2499905445401964
 21
59.600033840953984
 31
0.0
  0
LINE
  5
2C8
100
AcDbEntity
  8
0
  6
CONTINUOUS
 62
               7
100
AcDbLine
 10
10.25
 20
59.000015258789063
 30
0.0
 11
0.25
 21
59.000015258789063
 31
0.0
  0
LINE
  5
2C9
100
AcDbEntity
  8
0
  6
CONTINUOUS
 62
               7
100
AcDbLine
 10
10.25
 20
59.600021362304688
 30
0.0
 11
0.25
 21
59.600021362304688
 31
0.0
  0
LINE
  5
2CA
100
AcDbEntity
  8
0
  6
CONTINUOUS
 62
               7
100
AcDbLine
 10
10.25
 20
35.000015258789063
 30
0.0
 11
10.25
 21
59.600021362304688
 31
0.0
  0
LINE
  5
2CB
100
AcDbEntity
  8
0
  6
CONTINUOUS
 62
               7
100
AcDbLine
 10
0.25
 20
35.000015258789063
 30
0.0
 11
0.25
 21
59.600033840953984
 31
0.0
  0
LINE
  5
2CC
100
AcDbEntity
  8
0
  6
CONTINUOUS
 62
             200
100
AcDbLine
 10
5.25
 20
59.600021362304688
 30
0.0
 11
5.25
 21
63.816497802734375
 31
0.0
  0
LINE
  5
2CD
100
AcDbEntity
  8
0
  6
CONTINUOUS
 62
               4
100
AcDbLine
 10
0.649993896484375
 20
62.000015258789063
 30
0.0
 11
9.8499908447265625
 21
62.000015258789063
 31
0.0
  0
LINE
  5
2CE
100
AcDbEntity
  8
0
  6
CONTINUOUS
 62
               4
100
AcDbLine
 10
3.29998779296875
 20
63.000015258789062
 30
0.0
 11
7.1999969482421875
 21
63.000015258789062
 31
0.0
  0
LINE
  5
2CF
100
AcDbEntity
  8
0
  6
CONTINUOUS
 62
               4
100
AcDbLine
 10
7.1999969482421875
 20
63.000015258789062
 30
0.0
 11
7.1999969482421875
 21
62.000015258789063
 31
0.0
  0
LINE
  5
2D0
100
AcDbEntity
  8
0
  6
CONTINUOUS
 62
               4
100
AcDbLine
 10
3.29998779296875
 20
63.000015258789062
 30
0.0
 11
3.29998779296875
 21
62.000015258789063
 31
0.0
  0
ARC
  5
2D1
100
AcDbEntity
  8
0
  6
CONTINUOUS
 62
               7
100
AcDbCircle
 10
0.649993896484375
 20
35.4000244140625
 30
0.0
 40
0.3999999761581421
100
AcDbArc
 50
179.99998133066532
 51
270.00001798608935
  0
ARC
  5
2D2
100
AcDbEntity
  8
0
  6
CONTINUOUS
 62
               7
100
AcDbCircle
 10
0.649993896484375
 20
58.600021362304688
 30
0.0
 40
0.3999999761581421
100
AcDbArc
 50
89.999982013910653
 51
179.99996402782131
  0
ARC
  5
2D3
100
AcDbEntity
  8
0
  6
CONTINUOUS
 62
               7
100
AcDbCircle
 10
9.850006103515625
 20
58.600021362304688
 30
0.0
 40
0.3999999761581421
100
AcDbArc
 50
0.0
 51
89.999982013910653
  0
ARC
  5
2D4
100
AcDbEntity
  8
0
  6
CONTINUOUS
 62
               7
100
AcDbCircle
 10
9.850006103515625
 20
35.4000244140625
 30
0.0
 40
0.3999999761581421
100
AcDbArc
 50
270.00001798608935
 51
0.0
  0
CIRCLE
  5
2D5
100
AcDbEntity
  8
0
  6
CONTINUOUS
 62
               7
100
AcDbCircle
 10
8.4499969482421875
 20
36.800018310546875
 30
0.0
 40
1.25
  0
CIRCLE
  5
2D6
100
AcDbEntity
  8
0
  6
CONTINUOUS
 62
               7
100
AcDbCircle
 10
2.0500030517578125
 20
52.200027465820313
 30
0.0
 40
1.25
  0
ARC
  5
2D7
100
AcDbEntity
  8
0
  6
CONTINUOUS
 62
               7
100
AcDbCircle
 10
8.4499969482421875
 20
36.800018310546875
 30
0.0
 40
1.5999994277954102
100
AcDbArc
 50
89.999982013910653
 51
179.99996402782131
  0
ARC
  5
2D8
100
AcDbEntity
  8
0
  6
CONTINUOUS
 62
               7
100
AcDbCircle
 10
2.0500030517578125
 20
52.200027465820313
 30
0.0
 40
1.5999984741210938
100
AcDbArc
 50
270.00001798608935
 51
89.999982013910653
  0
ARC
  5
2D9
100
AcDbEntity
  8
0
  6
CONTINUOUS
 62
               4
100
AcDbCircle
 10
0.649993896484375
 20
61.600021362304687
 30
0.0
 40
0.3999999761581421
100
AcDbArc
 50
89.999982013910653
 51
179.99996402782131
  0
ARC
  5
2DA
100
AcDbEntity
  8
0
  6
CONTINUOUS
 62
               4
100
AcDbCircle
 10
9.8499908447265625
 20
61.600021362304687
 30
0.0
 40
0.3999999761581421
100
AcDbArc
 50
0.0
 51
89.999982013910653
  0
LINE
  5
2DB
100
AcDbEntity
  8
0
  6
CONTINUOUS
 62
               7
100
AcDbLine
 10
0.0
 20
35.000015258789063
 30
0.0
 11
0.0
 21
1.0000152587890625
 31
0.0
  0
CIRCLE
  5
2DC
100
AcDbEntity
  8
0
  6
CONTINUOUS
 62
               4
100
AcDbCircle
 10
5.25
 20
24.900015830993652
 30
0.0
 40
2.5
  0
CIRCLE
  5
2DD
100
AcDbEntity
  8
0
  6
CONTINUOUS
 62
               4
100
AcDbCircle
 10
5.25
 20
13.100021362304688
 30
0.0
 40
2.5
  0
CIRCLE
  5
2DE
100
AcDbEntity
  8
0
  6
CONTINUOUS
 62
               4
100
AcDbCircle
 10
5.25
 20
24.900015830993652
 30
0.0
 40
2.0669994354248047
  0
CIRCLE
  5
2DF
100
AcDbEntity
  8
0
  6
CONTINUOUS
 62
               4
100
AcDbCircle
 10
5.25
 20
13.100021362304688
 30
0.0
 40
2.0669994354248047
  0
LINE
  5
2E0
100
AcDbEntity
  8
0
  6
CONTINUOUS
 62
             200
100
AcDbLine
 10
1.75
 20
24.900015830993652
 30
0.0
 11
8.75
 21
24.900015830993652
 31
0.0
  0
LINE
  5
2E1
100
AcDbEntity
  8
0
  6
CONTINUOUS
 62
             200
100
AcDbLine
 10
1.75
 20
13.100021362304688
 30
0.0
 11
8.75
 21
13.100021362304688
 31
0.0
  0
CIRCLE
  5
2E2
100
AcDbEntity
  8
0
  6
CONTINUOUS
 62
               4
100
AcDbCircle
 10
2.25
 20
32.000015258789063
 30
0.0
 40
1.25
  0
CIRCLE
  5
2E3
100
AcDbEntity
  8
0
  6
CONTINUOUS
 62
               4
100
AcDbCircle
 10
8.2499961853027344
 20
6.0000152587890625
 30
0.0
 40
1.25
  0
CIRCLE
  5
2E4
100
AcDbEntity
  8
0
  6
CONTINUOUS
 62
               4
100
AcDbCircle
 10
2.25
 20
32.000015258789063
 30
0.0
 40
1.3999996185302734
  0
CIRCLE
  5
2E5
100
AcDbEntity
  8
0
  6
CONTINUOUS
 62
               4
100
AcDbCircle
 10
8.2499961853027344
 20
6.0000152587890625
 30
0.0
 40
1.3999996185302734
  0
ARC
  5
2E6
100
AcDbEntity
  8
0
  6
CONTINUOUS
 62
               4
100
AcDbCircle
 10
1.4499969482421875
 20
6.2000274658203125
 30
0.0
 40
1.5999994277954102
100
AcDbArc
 50
0.0
 51
89.999982013910653
  0
ARC
  5
2E7
100
AcDbEntity
  8
0
  6
CONTINUOUS
 62
               4
100
AcDbCircle
 10
9.0499954223632812
 20
31.800014495849609
 30
0.0
 40
1.5999994277954102
100
AcDbArc
 50
179.99996402782131
 51
270.00000068324533
  0
ARC
  5
2E8
100
AcDbEntity
  8
0
  6
CONTINUOUS
 62
               4
100
AcDbCircle
 10
3.4499969482421875
 20
3.6000213623046875
 30
0.0
 40
0.4000000357627869
100
AcDbArc
 50
179.99996402782131
 51
270.00000068324533
  0
ARC
  5
2E9
100
AcDbEntity
  8
0
  6
CONTINUOUS
 62
               4
100
AcDbCircle
 10
9.8499946594238281
 20
3.6000213623046875
 30
0.0
 40
0.4000000357627869
100
AcDbArc
 50
270.00001798608935
 51
0.0
  0
ARC
  5
2EA
100
AcDbEntity
  8
0
  6
CONTINUOUS
 62
               4
100
AcDbCircle
 10
9.8499946594238281
 20
29.800016403198242
 30
0.0
 40
0.4000000357627869
100
AcDbArc
 50
0.0
 51
89.999982013910653
  0
ARC
  5
2EB
100
AcDbEntity
  8
0
  6
CONTINUOUS
 62
               4
100
AcDbCircle
 10
7.0499954223632812
 20
34.400018692016602
 30
0.0
 40
0.4000000357627869
100
AcDbArc
 50
0.0
 51
89.999982013910653
  0
ARC
  5
2EC
100
AcDbEntity
  8
0
  6
CONTINUOUS
 62
               4
100
AcDbCircle
 10
0.6499977111816406
 20
34.400018692016602
 30
0.0
 40
0.4000000357627869
100
AcDbArc
 50
89.999982013910653
 51
179.99996402782131
  0
ARC
  5
2ED
100
AcDbEntity
  8
0
  6
CONTINUOUS
 62
               4
100
AcDbCircle
 10
0.6499977111816406
 20
8.2000274658203125
 30
0.0
 40
0.4000000357627869
100
AcDbArc
 50
179.99996402782131
 51
270.00000068324533
  0
LINE
  5
2EE
100
AcDbEntity
  8
0
  6
CONTINUOUS
 62
               4
100
AcDbLine
 10
1.6489558012925727
 20
31.398975202717679
 30
0.0
 11
2.8510383548563141
 21
32.601056743002005
 31
0.0
  0
LINE
  5
2EF
100
AcDbEntity
  8
0
  6
CONTINUOUS
 62
               4
100
AcDbLine
 10
1.6489664231783081
 20
32.601063318783531
 30
0.0
 11
2.8510479634626336
 21
31.39898076521979
 31
0.0
  0
LINE
  5
2F0
100
AcDbEntity
  8
0
  6
CONTINUOUS
 62
               4
100
AcDbLine
 10
0.25
 20
8.2000274658203125
 30
0.0
 11
0.25
 21
34.400018692016602
 31
0.0
  0
LINE
  5
2F1
100
AcDbEntity
  8
0
  6
CONTINUOUS
 62
               4
100
AcDbLine
 10
7.6489542476600718
 20
6.6010681068710255
 30
0.0
 11
8.8510335971858467
 21
5.3989887573452506
 31
0.0
  0
LINE
  5
2F2
100
AcDbEntity
  8
0
  6
CONTINUOUS
 62
               4
100
AcDbLine
 10
7.6489498639510884
 20
5.3989760926575627
 30
0.0
 11
8.8510330918646787
 21
6.6010583072911686
 31
0.0
  0
LINE
  5
2F3
100
AcDbEntity
  8
0
  6
CONTINUOUS
 62
               4
100
AcDbLine
 10
9.0499916076660156
 20
30.200021743774414
 30
0.0
 11
9.8499946594238281
 21
30.200021743774414
 31
0.0
  0
LINE
  5
2F4
100
AcDbEntity
  8
0
  6
CONTINUOUS
 62
               4
100
AcDbLine
 10
1.4499969482421875
 20
7.800018310546875
 30
0.0
 11
0.6499977111816406
 21
7.800018310546875
 31
0.0
  0
LINE
  5
2F5
100
AcDbEntity
  8
0
  6
CONTINUOUS
 62
               4
100
AcDbLine
 10
3.0500030517578125
 20
6.20001220703125
 30
0.0
 11
3.0500030517578125
 21
3.6000213623046875
 31
0.0
  0
LINE
  5
2F6
100
AcDbEntity
  8
0
  6
CONTINUOUS
 62
               4
100
AcDbLine
 10
7.4500007629394531
 20
31.800014495849609
 30
0.0
 11
7.4500007629394531
 21
34.400018692016602
 31
0.0
  0
LINE
  5
2F7
100
AcDbEntity
  8
0
  6
CONTINUOUS
 62
               4
100
AcDbLine
 10
0.6499977111816406
 20
34.800018310546875
 30
0.0
 11
7.0499954223632812
 21
34.800018310546875
 31
0.0
  0
LINE
  5
2F8
100
AcDbEntity
  8
0
  6
CONTINUOUS
 62
               4
100
AcDbLine
 10
3.4499969482421875
 20
3.2000274658203125
 30
0.0
 11
9.8499908447265625
 21
3.2000274658203125
 31
0.0
  0
LINE
  5
2F9
100
AcDbEntity
  8
0
  6
CONTINUOUS
 62
               4
100
AcDbLine
 10
10.25
 20
3.6000213623046875
 30
0.0
 11
10.25
 21
29.800016403198242
 31
0.0
  0
LINE
  5
2FA
100
AcDbEntity
  8
0
  6
CONTINUOUS
 62
               7
100
AcDbLine
 10
0.0
 20
35.000015258789063
 30
0.0
 11
10.5
 21
35.000015258789063
 31
0.0
  0
LINE
  5
2FB
100
AcDbEntity
  8
0
  6
CONTINUOUS
 62
               7
100
AcDbLine
 10
0.0
 20
3.0000152587890625
 30
0.0
 11
10.5
 21
3.0000152587890625
 31
0.0
  0
LINE
  5
2FC
100
AcDbEntity
  8
0
  6
CONTINUOUS
 62
               7
100
AcDbLine
 10
10.5
 20
1.0000152587890625
 30
0.0
 11
0.0
 21
1.0000152587890625
 31
0.0
  0
ARC
  5
2FD
100
AcDbEntity
  8
0
  6
CONTINUOUS
 62
               7
100
AcDbCircle
 10
9.04998779296875
 20
31.800018310546875
 30
0.0
 40
1.3999996185302734
100
AcDbArc
 50
179.99996402782131
 51
270.00000068324533
  0
ARC
  5
2FE
100
AcDbEntity
  8
0
  6
CONTINUOUS
 62
               7
100
AcDbCircle
 10
1.45001220703125
 20
6.20001220703125
 30
0.0
 40
1.3999996185302734
100
AcDbArc
 50
0.0
 51
89.999982013910653
  0
LINE
  5
2FF
100
AcDbEntity
  8
0
  6
CONTINUOUS
 62
               2
100
AcDbLine
 10
5.25
 20
-0.8296051025390625
 30
0.0
 11
5.25
 21
59.600021362304688
 31
0.0
  0
LINE
  5
300
100
AcDbEntity
  8
0
  6
CONTINUOUS
 62
               7
100
AcDbLine
 10
10.5
 20
35.000015258789063
 30
0.0
 11
10.5
 21
1.0000152587890625
 31
0.0
  0
LINE
  5
301
100
AcDbEntity
  8
0
  6
CONTINUOUS
 62
               7
100
AcDbLine
 10
9.04998779296875
 20
30.4000244140625
 30
0.0
 11
10.5
 21
30.4000244140625
 31
0.0
  0
LINE
  5
302
100
AcDbEntity
  8
0
  6
CONTINUOUS
 62
               7
100
AcDbLine
 10
7.649993896484375
 20
31.800018310546875
 30
0.0
 11
7.649993896484375
 21
35.000015258789063
 31
0.0
  0
LINE
  5
303
100
AcDbEntity
  8
0
  6
CONTINUOUS
 62
               7
100
AcDbLine
 10
2.850006103515625
 20
3.0000152587890625
 30
0.0
 11
2.850006103515625
 21
6.20001220703125
 31
0.0
  0
LINE
  5
304
100
AcDbEntity
  8
0
  6
CONTINUOUS
 62
               7
100
AcDbLine
 10
0.0
 20
7.6000213623046875
 30
0.0
 11
1.45001220703125
 21
7.6000213623046875
 31
0.0
  0
LINE
  5
305
100
AcDbEntity
  8
0
  6
CONTINUOUS
 62
               7
100
AcDbLine
 10
0.0
 20
0.0
 30
0.0
 11
10.5
 21
0.0
 31
0.0
  0
ENDBLK
  5
306
100
AcDbEntity
  8
0
100
AcDbBlockEnd
  0
BLOCK
  5
307
100
AcDbEntity
  8
0
100
AcDbBlockBegin
  2
F10MPJ-8
 70
               0
 10
0.0
 20
0.0
 30
0.0
  3
F10MPJ-8
  1

  0
LINE
  5
308
100
AcDbEntity
  8
0
  6
CONTINUOUS
 62
               7
100
AcDbLine
 10
0.0
 20
-25.379658970579555
 30
0.0
 11
0.0
 21
62.5
 31
0.0
  0
LINE
  5
309
100
AcDbEntity
  8
0
  6
CONTINUOUS
 62
               7
100
AcDbLine
 10
0.0
 20
61.0
 30
0.0
 11
19.0
 21
61.0
 31
0.0
  0
LINE
  5
30A
100
AcDbEntity
  8
0
  6
CONTINUOUS
 62
               7
100
AcDbLine
 10
0.0
 20
-17.5
 30
0.0
 11
19.0
 21
-17.5
 31
0.0
  0
LINE
  5
30B
100
AcDbEntity
  8
0
  6
CONTINUOUS
 62
               7
100
AcDbLine
 10
0.0
 20
62.5
 30
0.0
 11
19.0
 21
62.5
 31
0.0
  0
LINE
  5
30C
100
AcDbEntity
  8
0
  6
CONTINUOUS
 62
               7
100
AcDbLine
 10
0.0
 20
61.5
 30
0.0
 11
19.0
 21
61.5
 31
0.0
  0
LINE
  5
30D
100
AcDbEntity
  8
0
  6
CONTINUOUS
 62
               7
100
AcDbLine
 10
0.0
 20
35.5
 30
0.0
 11
19.0
 21
35.5
 31
0.0
  0
LINE
  5
30E
100
AcDbEntity
  8
0
  6
CONTINUOUS
 62
               4
100
AcDbLine
 10
0.5
 20
35.299972534179687
 30
0.0
 11
18.5
 21
35.299972534179687
 31
0.0
  0
LINE
  5
30F
100
AcDbEntity
  8
0
  6
CONTINUOUS
 62
               4
100
AcDbLine
 10
0.5
 20
-17.300018310546875
 30
0.0
 11
18.5
 21
-17.300018310546875
 31
0.0
  0
LINE
  5
310
100
AcDbEntity
  8
0
  6
CONTINUOUS
 62
               4
100
AcDbLine
 10
16.0
 20
31.999984741210937
 30
0.0
 11
18.5
 21
31.999984741210937
 31
0.0
  0
LINE
  5
311
100
AcDbEntity
  8
0
  6
CONTINUOUS
 62
               4
100
AcDbLine
 10
16.0
 20
25.999984741210937
 30
0.0
 11
18.5
 21
25.999984741210937
 31
0.0
  0
LINE
  5
312
100
AcDbEntity
  8
0
  6
CONTINUOUS
 62
               4
100
AcDbLine
 10
0.5
 20
-14.000015258789063
 30
0.0
 11
3.0
 21
-14.000015258789063
 31
0.0
  0
LINE
  5
313
100
AcDbEntity
  8
0
  6
CONTINUOUS
 62
               4
100
AcDbLine
 10
0.5
 20
-8.0000152587890625
 30
0.0
 11
3.0
 21
-8.0000152587890625
 31
0.0
  0
LINE
  5
314
100
AcDbEntity
  8
0
  6
CONTINUOUS
 62
               4
100
AcDbLine
 10
6.0
 20
31.0
 30
0.0
 11
6.0
 21
35.29998779296875
 31
0.0
  0
LINE
  5
315
100
AcDbEntity
  8
0
  6
CONTINUOUS
 62
               4
100
AcDbLine
 10
3.0
 20
27.999984741210937
 30
0.0
 11
0.5
 21
27.999984741210937
 31
0.0
  0
LINE
  5
316
100
AcDbEntity
  8
0
  6
CONTINUOUS
 62
               4
100
AcDbLine
 10
0.5
 20
-15.300018310546875
 30
0.0
 11
13.0
 21
-15.300018310546875
 31
0.0
  0
LINE
  5
317
100
AcDbEntity
  8
0
  6
CONTINUOUS
 62
               4
100
AcDbLine
 10
6.0
 20
33.299972534179687
 30
0.0
 11
18.5
 21
33.299972534179687
 31
0.0
  0
LINE
  5
318
100
AcDbEntity
  8
0
  6
CONTINUOUS
 62
               4
100
AcDbLine
 10
18.5
 20
-17.300018310546875
 30
0.0
 11
18.5
 21
-14.260955810546875
 31
0.0
  0
LINE
  5
319
100
AcDbEntity
  8
0
  6
CONTINUOUS
 62
               4
100
AcDbLine
 10
0.5
 20
-17.300018310546875
 30
0.0
 11
0.5
 21
-14.000015258789063
 31
0.0
  0
LINE
  5
31A
100
AcDbEntity
  8
0
  6
CONTINUOUS
 62
               4
100
AcDbLine
 10
16.0
 20
-10.000015258789062
 30
0.0
 11
18.5
 21
-10.000015258789062
 31
0.0
  0
LINE
  5
31B
100
AcDbEntity
  8
0
  6
CONTINUOUS
 62
               4
100
AcDbLine
 10
13.0
 20
-13.0
 30
0.0
 11
13.0
 21
-17.300018310546875
 31
0.0
  0
LINE
  5
31C
100
AcDbEntity
  8
0
  6
CONTINUOUS
 62
               4
100
AcDbLine
 10
0.5
 20
-8.0000152587890625
 30
0.0
 11
0.5
 21
29.739044189453125
 31
0.0
  0
LINE
  5
31D
100
AcDbEntity
  8
0
  6
CONTINUOUS
 62
               4
100
AcDbLine
 10
18.5
 20
31.999984741210937
 30
0.0
 11
18.5
 21
35.299972534179687
 31
0.0
  0
LINE
  5
31E
100
AcDbEntity
  8
0
  6
CONTINUOUS
 62
               4
100
AcDbLine
 10
0.5
 20
32.260955810546875
 30
0.0
 11
0.5
 21
35.299972534179687
 31
0.0
  0
LINE
  5
31F
100
AcDbEntity
  8
0
  6
CONTINUOUS
 62
               4
100
AcDbLine
 10
18.5
 20
-11.739044189453125
 30
0.0
 11
18.5
 21
25.999984741210937
 31
0.0
  0
LINE
  5
320
100
AcDbEntity
  8
0
  6
CONTINUOUS
 62
               4
100
AcDbLine
 10
14.939383665093374
 20
-14.060685042053592
 30
0.0
 11
17.060704151162099
 21
-11.939364734798801
 31
0.0
  0
LINE
  5
321
100
AcDbEntity
  8
0
  6
CONTINUOUS
 62
               4
100
AcDbLine
 10
14.939399938894439
 20
-11.93927293384786
 30
0.0
 11
17.060714851352714
 21
-14.060588025119614
 31
0.0
  0
LINE
  5
322
100
AcDbEntity
  8
0
  6
CONTINUOUS
 62
               4
100
AcDbLine
 10
0.199999988079071
 20
-29.0
 30
0.0
 11
0.199999988079071
 21
-28.5
 31
0.0
  0
LINE
  5
323
100
AcDbEntity
  8
0
  6
CONTINUOUS
 62
               4
100
AcDbLine
 10
1.9394144187672282
 20
32.06074920447827
 30
0.0
 11
4.0607347260220195
 21
29.939428718409545
 31
0.0
  0
LINE
  5
324
100
AcDbEntity
  8
0
  6
CONTINUOUS
 62
               4
100
AcDbLine
 10
1.9393064334190058
 20
29.939277753512215
 30
0.0
 11
4.0606269194877314
 21
32.060598060767006
 31
0.0
  0
LINE
  5
325
100
AcDbEntity
  8
0
  6
CONTINUOUS
 62
               7
100
AcDbLine
 10
0.0
 20
-25.5
 30
0.0
 11
11.029720407829757
 21
-25.5
 31
0.0
  0
LINE
  5
326
100
AcDbEntity
  8
0
  6
CONTINUOUS
 62
             200
100
AcDbLine
 10
9.5
 20
-58.84859561920166
 30
0.0
 11
9.5
 21
-24.084901816352158
 31
0.0
  0
ARC
  5
327
100
AcDbEntity
  8
0
  6
CONTINUOUS
 62
               4
100
AcDbCircle
 10
16.0
 20
29.0
 30
0.0
 40
3.0
100
AcDbArc
 50
89.999982013910653
 51
269.99994604173196
  0
ARC
  5
328
100
AcDbEntity
  8
0
  6
CONTINUOUS
 62
               4
100
AcDbCircle
 10
3.0
 20
-11.0
 30
0.0
 40
3.0
100
AcDbArc
 50
269.99996334457597
 51
89.999982013910653
  0
ARC
  5
329
100
AcDbEntity
  8
0
  6
CONTINUOUS
 62
               4
100
AcDbCircle
 10
3.0
 20
31.0
 30
0.0
 40
3.0
100
AcDbArc
 50
270.00001798608935
 51
0.00001366037834
  0
ARC
  5
32A
100
AcDbEntity
  8
0
  6
CONTINUOUS
 62
               4
100
AcDbCircle
 10
16.0
 20
-13.0
 30
0.0
 40
3.0
100
AcDbArc
 50
89.999982013910653
 51
179.99996402782131
  0
CIRCLE
  5
32B
100
AcDbEntity
  8
0
  6
CONTINUOUS
 62
               4
100
AcDbCircle
 10
16.0
 20
-13.0
 30
0.0
 40
2.7999992370605469
  0
CIRCLE
  5
32C
100
AcDbEntity
  8
0
  6
CONTINUOUS
 62
               4
100
AcDbCircle
 10
3.0
 20
31.0
 30
0.0
 40
2.7999992370605469
  0
LINE
  5
32D
100
AcDbEntity
  8
0
  6
CONTINUOUS
 62
               7
100
AcDbLine
 10
19.0
 20
-25.5
 30
0.0
 11
19.0
 21
62.5
 31
0.0
  0
LINE
  5
32E
100
AcDbEntity
  8
0
  6
CONTINUOUS
 62
               4
100
AcDbLine
 10
18.5
 20
-44.199999800000001
 30
0.0
 11
18.5
 21
-25.5
 31
0.0
  0
LINE
  5
32F
100
AcDbEntity
  8
0
  6
CONTINUOUS
 62
               4
100
AcDbLine
 10
0.5
 20
-28.5
 30
0.0
 11
0.5
 21
-25.5
 31
0.0
  0
ARC
  5
330
100
AcDbEntity
  8
0
  6
CONTINUOUS
 62
               4
100
AcDbCircle
 10
1.699999988079071
 20
-28.999992370605469
 30
0.0
 40
1.5
100
AcDbArc
 50
180.00001798608935
 51
269.99998633962167
  0
LINE
  5
331
100
AcDbEntity
  8
0
  6
CONTINUOUS
 62
               4
100
AcDbLine
 10
5.6999992728233337
 20
-28.999992370605469
 30
0.0
 11
5.6999992728233337
 21
-28.499992370605469
 31
0.0
  0
LINE
  5
332
100
AcDbEntity
  8
0
  6
CONTINUOUS
 62
               4
100
AcDbLine
 10
18.5
 20
-30.405259999999998
 30
0.0
 11
16.0
 21
-30.405259999999998
 31
0.0
  0
LINE
  5
333
100
AcDbEntity
  8
0
  6
CONTINUOUS
 62
               4
100
AcDbLine
 10
0.5
 20
-44.199999800000001
 30
0.0
 11
18.5
 21
-44.199999800000001
 31
0.0
  0
LINE
  5
334
100
AcDbEntity
  8
0
  6
CONTINUOUS
 62
               4
100
AcDbLine
 10
0.5
 20
-44.199999999999989
 30
0.0
 11
0.5
 21
-33.003294400000016
 31
0.0
  0
LINE
  5
335
100
AcDbEntity
  8
0
  6
CONTINUOUS
 62
               4
100
AcDbLine
 10
18.5
 20
-49.300000000000011
 30
0.0
 11
0.5
 21
-49.300000000000011
 31
0.0
  0
LINE
  5
336
100
AcDbEntity
  8
0
  6
CONTINUOUS
 62
               4
100
AcDbLine
 10
18.5
 20
-50.5
 30
0.0
 11
0.5
 21
-50.5
 31
0.0
  0
LINE
  5
337
100
AcDbEntity
  8
0
  6
CONTINUOUS
 62
               4
100
AcDbLine
 10
18.5
 20
-52.864913000000001
 30
0.0
 11
0.5
 21
-52.864913000000001
 31
0.0
  0
LINE
  5
338
100
AcDbEntity
  8
0
  6
CONTINUOUS
 62
               4
100
AcDbLine
 10
17.746409599999993
 20
-53.299999000000014
 30
0.0
 11
1.2535904000000073
 21
-53.299999000000014
 31
0.0
  0
LINE
  5
339
100
AcDbEntity
  8
0
  6
CONTINUOUS
 62
               4
100
AcDbLine
 10
16.600000000000023
 20
-54.900000000000034
 30
0.0
 11
2.3999999999999773
 21
-54.900000000000034
 31
0.0
  0
LINE
  5
33A
100
AcDbEntity
  8
0
  6
CONTINUOUS
 62
               4
100
AcDbLine
 10
3.5
 20
-55.400000000000034
 30
0.0
 11
3.5
 21
-55.0
 31
0.0
  0
LINE
  5
33B
100
AcDbEntity
  8
0
  6
CONTINUOUS
 62
               4
100
AcDbLine
 10
18.5
 20
-44.59999959999999
 30
0.0
 11
0.5
 21
-44.59999959999999
 31
0.0
  0
LINE
  5
33C
100
AcDbEntity
  8
0
  6
CONTINUOUS
 62
               4
100
AcDbLine
 10
0.6999999999999318
 20
-44.400000000000034
 30
0.0
 11
0.5
 21
-44.199999800000001
 31
0.0
  0
LINE
  5
33D
100
AcDbEntity
  8
0
  6
CONTINUOUS
 62
               4
100
AcDbLine
 10
17.800000000000068
 20
-50.300000000000011
 30
0.0
 11
17.800000000000068
 21
-49.400000000000034
 31
0.0
  0
LINE
  5
33E
100
AcDbEntity
  8
0
  6
CONTINUOUS
 62
               4
100
AcDbLine
 10
1.1999999999999318
 20
-50.300000000000011
 30
0.0
 11
1.1999999999999318
 21
-49.400000000000034
 31
0.0
  0
LINE
  5
33F
100
AcDbEntity
  8
0
  6
CONTINUOUS
 62
               4
100
AcDbLine
 10
18.300000000000068
 20
-44.400000000000034
 30
0.0
 11
18.5
 21
-44.199999800000001
 31
0.0
  0
LINE
  5
340
100
AcDbEntity
  8
0
  6
CONTINUOUS
 62
               4
100
AcDbLine
 10
18.5
 20
-49.300000000000011
 30
0.0
 11
18.399999999999977
 21
-49.400000000000034
 31
0.0
  0
LINE
  5
341
100
AcDbEntity
  8
0
  6
CONTINUOUS
 62
               4
100
AcDbLine
 10
0.5
 20
-49.300000000000011
 30
0.0
 11
0.6000000000000227
 21
-49.400000000000034
 31
0.0
  0
LINE
  5
342
100
AcDbEntity
  8
0
  6
CONTINUOUS
 62
               4
100
AcDbLine
 10
18.300000000000068
 20
-44.399999400000013
 30
0.0
 11
18.5
 21
-44.59999959999999
 31
0.0
  0
LINE
  5
343
100
AcDbEntity
  8
0
  6
CONTINUOUS
 62
               4
100
AcDbLine
 10
18.5
 20
-49.300000000000011
 30
0.0
 11
18.5
 21
-44.59999959999999
 31
0.0
  0
LINE
  5
344
100
AcDbEntity
  8
0
  6
CONTINUOUS
 62
               4
100
AcDbLine
 10
0.5
 20
-49.300000000000011
 30
0.0
 11
0.5
 21
-44.59999959999999
 31
0.0
  0
LINE
  5
345
100
AcDbEntity
  8
0
  6
CONTINUOUS
 62
               4
100
AcDbLine
 10
18.300000000000068
 20
-44.399999600000001
 30
0.0
 11
0.6999999999999318
 21
-44.399999600000001
 31
0.0
  0
LINE
  5
346
100
AcDbEntity
  8
0
  6
CONTINUOUS
 62
               4
100
AcDbLine
 10
0.6999999999999318
 20
-44.399999400000013
 30
0.0
 11
0.5
 21
-44.59999959999999
 31
0.0
  0
LINE
  5
347
100
AcDbEntity
  8
0
  6
CONTINUOUS
 62
               4
100
AcDbLine
 10
18.5
 20
-52.864913999999999
 30
0.0
 11
18.5
 21
-50.5
 31
0.0
  0
LINE
  5
348
100
AcDbEntity
  8
0
  6
CONTINUOUS
 62
               4
100
AcDbLine
 10
0.6999999999999318
 20
-50.300000000000011
 30
0.0
 11
0.5
 21
-50.5
 31
0.0
  0
LINE
  5
349
100
AcDbEntity
  8
0
  6
CONTINUOUS
 62
               4
100
AcDbLine
 10
0.5
 20
-52.864913999999999
 30
0.0
 11
0.5
 21
-50.5
 31
0.0
  0
LINE
  5
34A
100
AcDbEntity
  8
0
  6
CONTINUOUS
 62
               4
100
AcDbLine
 10
0.6999999999999318
 20
-50.300000000000011
 30
0.0
 11
18.300000000000068
 21
-50.300000000000011
 31
0.0
  0
LINE
  5
34B
100
AcDbEntity
  8
0
  6
CONTINUOUS
 62
               4
100
AcDbLine
 10
17.746409599999993
 20
-53.299999000000014
 30
0.0
 11
17.399999200000025
 21
-53.899999000000037
 31
0.0
  0
LINE
  5
34C
100
AcDbEntity
  8
0
  6
CONTINUOUS
 62
               4
100
AcDbLine
 10
1.2535904000000073
 20
-53.299999000000014
 30
0.0
 11
1.6000007999999752
 21
-53.899999000000037
 31
0.0
  0
LINE
  5
34D
100
AcDbEntity
  8
0
  6
CONTINUOUS
 62
               4
100
AcDbLine
 10
0.5
 20
-52.864913000000001
 30
0.0
 11
1.2535904000000073
 21
-53.299999000000014
 31
0.0
  0
LINE
  5
34E
100
AcDbEntity
  8
0
  6
CONTINUOUS
 62
               4
100
AcDbLine
 10
18.5
 20
-52.864913000000001
 30
0.0
 11
17.746409599999993
 21
-53.299999000000014
 31
0.0
  0
LINE
  5
34F
100
AcDbEntity
  8
0
  6
CONTINUOUS
 62
               4
100
AcDbLine
 10
18.300000000000068
 20
-50.300000000000011
 30
0.0
 11
18.5
 21
-50.5
 31
0.0
  0
LINE
  5
350
100
AcDbEntity
  8
0
  6
CONTINUOUS
 62
               4
100
AcDbLine
 10
17.399999999999977
 20
-53.899999000000037
 30
0.0
 11
1.6000007999999752
 21
-53.899999000000037
 31
0.0
  0
LINE
  5
351
100
AcDbEntity
  8
0
  6
CONTINUOUS
 62
               4
100
AcDbLine
 10
0.6000000000000227
 20
-49.400000000000034
 30
0.0
 11
18.399999999999977
 21
-49.400000000000034
 31
0.0
  0
LINE
  5
352
100
AcDbEntity
  8
0
  6
CONTINUOUS
 62
               4
100
AcDbLine
 10
16.600000000000023
 20
-54.900000000000034
 30
0.0
 11
16.600000000000023
 21
-53.899999000000037
 31
0.0
  0
LINE
  5
353
100
AcDbEntity
  8
0
  6
CONTINUOUS
 62
               4
100
AcDbLine
 10
16.5
 20
-55.0
 30
0.0
 11
2.5
 21
-55.0
 31
0.0
  0
LINE
  5
354
100
AcDbEntity
  8
0
  6
CONTINUOUS
 62
               4
100
AcDbLine
 10
16.5
 20
-55.0
 30
0.0
 11
16.600000000000023
 21
-54.900000000000034
 31
0.0
  0
LINE
  5
355
100
AcDbEntity
  8
0
  6
CONTINUOUS
 62
               4
100
AcDbLine
 10
2.5
 20
-55.0
 30
0.0
 11
2.3999999999999773
 21
-54.900000000000034
 31
0.0
  0
LINE
  5
356
100
AcDbEntity
  8
0
  6
CONTINUOUS
 62
               4
100
AcDbLine
 10
2.3999999999999773
 20
-54.900000000000034
 30
0.0
 11
2.3999999999999773
 21
-53.899999000000037
 31
0.0
  0
LINE
  5
357
100
AcDbEntity
  8
0
  6
CONTINUOUS
 62
               4
100
AcDbLine
 10
15.5
 20
-55.400000000000034
 30
0.0
 11
15.5
 21
-55.0
 31
0.0
  0
LINE
  5
358
100
AcDbEntity
  8
0
  6
CONTINUOUS
 62
               4
100
AcDbLine
 10
17.899999999999977
 20
-56.800680999999997
 30
0.0
 11
17.899999999999977
 21
-55.900000000000034
 31
0.0
  0
LINE
  5
359
100
AcDbEntity
  8
0
  6
CONTINUOUS
 62
               4
100
AcDbLine
 10
1.1000000000000227
 20
-55.900000000000034
 30
0.0
 11
17.899999999999977
 21
-55.900000000000034
 31
0.0
  0
LINE
  5
35A
100
AcDbEntity
  8
0
  6
CONTINUOUS
 62
               4
100
AcDbLine
 10
17.600000000000023
 20
-57.099999999999966
 30
0.0
 11
1.3999999999999773
 21
-57.099999999999966
 31
0.0
  0
LINE
  5
35B
100
AcDbEntity
  8
0
  6
CONTINUOUS
 62
               4
100
AcDbLine
 10
1.1000000000000227
 20
-56.800680999999997
 30
0.0
 11
1.1000000000000227
 21
-55.900000000000034
 31
0.0
  0
ARC
  5
35C
100
AcDbEntity
  8
0
  6
CONTINUOUS
 62
               4
100
AcDbCircle
 10
3.0
 20
-55.400000000000034
 30
0.0
 40
0.5
100
AcDbArc
 50
270.0
 51
0.0000000000002036
  0
ARC
  5
35D
100
AcDbEntity
  8
0
  6
CONTINUOUS
 62
               4
100
AcDbCircle
 10
17.600000000000023
 20
-56.800000000000011
 30
0.0
 40
0.3
100
AcDbArc
 50
270.0
 51
0.0000000000002036
  0
ARC
  5
35E
100
AcDbEntity
  8
0
  6
CONTINUOUS
 62
               4
100
AcDbCircle
 10
16.0
 20
-55.400000000000034
 30
0.0
 40
0.5
100
AcDbArc
 50
180.0000000000006
 51
270.0000000000008
  0
ARC
  5
35F
100
AcDbEntity
  8
0
  6
CONTINUOUS
 62
               4
100
AcDbCircle
 10
1.3999999999999773
 20
-56.800000000000011
 30
0.0
 40
0.3
100
AcDbArc
 50
180.0000000000006
 51
270.0000000000008
  0
LINE
  5
360
100
AcDbEntity
  8
0
  6
CONTINUOUS
 62
               4
100
AcDbLine
 10
0.5
 20
-33.5
 30
0.0
 11
5.7788395000000037
 21
-33.5
 31
0.0
  0
ARC
  5
361
100
AcDbEntity
  8
0
  6
CONTINUOUS
 62
               4
100
AcDbCircle
 10
9.5
 20
-47.190523132503984
 30
0.0
 40
14.187228732503996
100
AcDbArc
 50
74.794046190114372
 51
105.20595380988573
  0
LINE
  5
362
100
AcDbEntity
  8
0
  6
CONTINUOUS
 62
               4
100
AcDbLine
 10
13.221160499999996
 20
-33.5
 30
0.0
 11
18.5
 21
-33.5
 31
0.0
  0
LINE
  5
363
100
AcDbEntity
  8
0
  6
CONTINUOUS
 62
               4
100
AcDbLine
 10
4.1999996304512024
 20
-30.499992370605412
 30
0.0
 11
1.6999996304512024
 21
-30.499992370605412
 31
0.0
  0
LINE
  5
364
100
AcDbEntity
  8
0
  6
CONTINUOUS
 62
               4
100
AcDbLine
 10
0.5
 20
-32.714619000000027
 30
0.0
 11
3.0
 21
-32.714619000000027
 31
0.0
  0
LINE
  5
365
100
AcDbEntity
  8
0
  6
CONTINUOUS
 62
               4
100
AcDbLine
 10
6.0
 20
-30.714619000000027
 30
0.0
 11
6.0
 21
-28.5
 31
0.0
  0
ARC
  5
366
100
AcDbEntity
  8
0
  6
CONTINUOUS
 62
               4
100
AcDbCircle
 10
4.199999988079071
 20
-28.999992370605469
 30
0.0
 40
1.5
100
AcDbArc
 50
269.99998633962167
 51
0.0
  0
LINE
  5
367
100
AcDbEntity
  8
0
  6
CONTINUOUS
 62
               4
100
AcDbLine
 10
0.5
 20
-33.003294400000016
 30
0.0
 11
0.5
 21
-29.89999238650006
 31
0.0
  0
ARC
  5
368
100
AcDbEntity
  8
0
  6
CONTINUOUS
 62
               7
100
AcDbCircle
 10
16.0
 20
29.0
 30
0.0
 40
2.7999992370605469
100
AcDbArc
 50
89.999982013910653
 51
270.00000068324533
  0
LINE
  5
369
100
AcDbEntity
  8
0
  6
CONTINUOUS
 62
               7
100
AcDbLine
 10
18.5
 20
26.199996948242188
 30
0.0
 11
18.5
 21
31.800003051757813
 31
0.0
  0
LINE
  5
36A
100
AcDbEntity
  8
0
  6
CONTINUOUS
 62
               7
100
AcDbLine
 10
16.0
 20
26.199996948242188
 30
0.0
 11
18.5
 21
26.199996948242188
 31
0.0
  0
LINE
  5
36B
100
AcDbEntity
  8
0
  6
CONTINUOUS
 62
               7
100
AcDbLine
 10
16.0
 20
31.800003051757813
 30
0.0
 11
18.5
 21
31.800003051757813
 31
0.0
  0
ARC
  5
36C
100
AcDbEntity
  8
0
  6
CONTINUOUS
 62
               7
100
AcDbCircle
 10
3.0
 20
-11.0
 30
0.0
 40
2.7999992370605469
100
AcDbArc
 50
270.00001798608935
 51
89.999982013910653
  0
LINE
  5
36D
100
AcDbEntity
  8
0
  6
CONTINUOUS
 62
               7
100
AcDbLine
 10
0.5
 20
-13.800003051757812
 30
0.0
 11
0.5
 21
-8.20001220703125
 31
0.0
  0
LINE
  5
36E
100
AcDbEntity
  8
0
  6
CONTINUOUS
 62
               7
100
AcDbLine
 10
0.5
 20
-13.800003051757812
 30
0.0
 11
3.0
 21
-13.800003051757812
 31
0.0
  0
LINE
  5
36F
100
AcDbEntity
  8
0
  6
CONTINUOUS
 62
               7
100
AcDbLine
 10
0.5
 20
-8.20001220703125
 30
0.0
 11
3.0
 21
-8.20001220703125
 31
0.0
  0
LINE
  5
370
100
AcDbEntity
  8
0
  6
CONTINUOUS
 62
               2
100
AcDbLine
 10
9.5
 20
-24.084901816352158
 30
0.0
 11
9.5
 21
64.833328247070313
 31
0.0
  0
LINE
  5
371
100
AcDbEntity
  8
0
  6
CONTINUOUS
 62
               7
100
AcDbLine
 10
11.029720407829757
 20
-25.5
 30
0.0
 11
19.0
 21
-25.5
 31
0.0
  0
LINE
  5
372
100
AcDbEntity
  8
0
  6
CONTINUOUS
 62
               4
100
AcDbLine
 10
18.5
 20
-28.5
 30
0.0
 11
0.199999988079071
 21
-28.5
 31
0.0
  0
SPLINE
  5
373
100
AcDbEntity
  8
0
  6
CONTINUOUS
 62
               4
100
AcDbSpline
210
0.0
220
0.0
230
1.0
 70
               0
 71
               3
 72
               0
 73
               0
 74
              37
 44
0.000001
 12
0.9881349170157096
 22
0.1535883647102109
 32
0.0
 13
0.2801395722747448
 23
0.9599592804102282
 33
0.0
 11
3.0
 21
-32.714619000000027
 31
0.0
 11
3.1302398577344119
 21
-32.692751586939401
 31
0.0
 11
3.2599173558237493
 21
-32.667718873458874
 31
0.0
 11
3.3889651660224938
 21
-32.63952158910498
 31
0.0
 11
3.5172778052325384
 21
-32.608166030370796
 31
0.0
 11
3.6139410460203534
 21
-32.582315062510176
 31
0.0
 11
3.7101068666709196
 21
-32.554674645789959
 31
0.0
 11
3.8057432960188544
 21
-32.525268176043774
 31
0.0
 11
3.9008272593215452
 21
-32.494117293121292
 31
0.0
 11
4.0180533636654427
 21
-32.453036979776776
 31
0.0
 11
4.1342978208930488
 21
-32.409253059125476
 31
0.0
 11
4.2494734348505698
 21
-32.362714174877944
 31
0.0
 11
4.3634765014079449
 21
-32.313375455399637
 31
0.0
 11
4.462624520774809
 21
-32.267656189143537
 31
0.0
 11
4.560695606328208
 21
-32.219671576845336
 31
0.0
 11
4.6575823093016124
 21
-32.169362112203615
 31
0.0
 11
4.7531888443261323
 21
-32.116662429365363
 31
0.0
 11
4.8319687747774793
 21
-32.070774034302261
 31
0.0
 11
4.9096945716192062
 21
-32.023124141633417
 31
0.0
 11
4.9862842214293588
 21
-31.973657623471674
 31
0.0
 11
5.0616404188675688
 21
-31.922329805906713
 31
0.0
 11
5.1408962491644727
 21
-31.865212032178452
 31
0.0
 11
5.2184621357829242
 21
-31.805819050378464
 31
0.0
 11
5.2941619477743052
 21
-31.744074200232738
 31
0.0
 11
5.3678155252729312
 21
-31.679904037124516
 31
0.0
 11
5.43344578320733
 21
-31.618823217651236
 31
0.0
 11
5.4970267144213807
 21
-31.555613217438875
 31
0.0
 11
5.5583954500864001
 21
-31.490241016167321
 31
0.0
 11
5.6173679769605087
 21
-31.422697800405444
 31
0.0
 11
5.672861489249895
 21
-31.354094007937032
 31
0.0
 11
5.7255506941689198
 21
-31.283314708637455
 31
0.0
 11
5.7751192398465374
 21
-31.210310704287039
 31
0.0
 11
5.8212262817083911
 21
-31.135074842327299
 31
0.0
 11
5.8754520535667476
 21
-31.034228771677206
 31
0.0
 11
5.9233058967023595
 21
-30.930172979099414
 31
0.0
 11
5.9648055892750369
 21
-30.823494228557013
 31
0.0
 11
6.0
 21
-30.714619000000027
 31
0.0
  0
SPLINE
  5
374
100
AcDbEntity
  8
0
  6
CONTINUOUS
 62
               4
100
AcDbSpline
210
0.0
220
0.0
230
1.0
 70
               0
 71
               3
 72
               0
 73
               0
 74
              41
 44
0.000001
 12
-0.9936236052884185
 22
-0.1127480865187748
 32
0.0
 13
0.7599872673059157
 23
-0.6499379612954506
 33
0.0
 11
16.0
 21
-30.405259999999998
 31
0.0
 11
15.81640499118264
 21
-30.428115638214511
 31
0.0
 11
15.633331319357541
 21
-30.454887788310128
 31
0.0
 11
15.450808936674271
 21
-30.48547173510455
 31
0.0
 11
15.268943176445305
 21
-30.519750906513366
 31
0.0
 11
15.05933737594134
 21
-30.56399135212618
 31
0.0
 11
14.850893121055897
 21
-30.613411459068978
 31
0.0
 11
14.643840508943942
 21
-30.668380349308208
 31
0.0
 11
14.438441986908629
 21
-30.729250661799654
 31
0.0
 11
14.26469404999804
 21
-30.786240077632247
 31
0.0
 11
14.092821473806435
 21
-30.848630907258013
 31
0.0
 11
13.923328250321184
 21
-30.917251023262807
 31
0.0
 11
13.756820751981422
 21
-30.992856464834915
 31
0.0
 11
13.61534147612093
 21
-31.06493912962793
 31
0.0
 11
13.477979920824547
 21
-31.14457671243726
 31
0.0
 11
13.346029145592624
 21
-31.233517206565132
 31
0.0
 11
13.221659739295546
 21
-31.332700983361235
 31
0.0
 11
13.153125707611714
 21
-31.396275476593637
 31
0.0
 11
13.089453927867822
 21
-31.464729307816238
 31
0.0
 11
13.032863048854281
 21
-31.5381684201203
 31
0.0
 11
12.985002130548423
 21
-31.617439092808866
 31
0.0
 11
12.950082170544103
 21
-31.696205670373821
 31
0.0
 11
12.924484319855331
 21
-31.778569215423762
 31
0.0
 11
12.907801686703801
 21
-31.863664161466271
 31
0.0
 11
12.899999999999977
 21
-31.949999999999989
 31
0.0
 11
12.904367017208338
 21
-32.081499565114562
 31
0.0
 11
12.926084964073349
 21
-32.211459636108337
 31
0.0
 11
12.962795291958052
 21
-32.338578348905216
 31
0.0
 11
13.011996617826185
 21
-32.461369983469979
 31
0.0
 11
13.069847186614844
 21
-32.576379857278049
 31
0.0
 11
13.136346474074863
 21
-32.686592681645998
 31
0.0
 11
13.210313537613368
 21
-32.79145004557212
 31
0.0
 11
13.29096870466276
 21
-32.891261395972151
 31
0.0
 11
13.375474390135802
 21
-32.984130085802349
 31
0.0
 11
13.464709561685762
 21
-33.072465567961707
 31
0.0
 11
13.55801601257282
 21
-33.156614798409187
 31
0.0
 11
13.654673841562726
 21
-33.236868925146325
 31
0.0
 11
13.738732522077914
 21
-33.302446336339607
 31
0.0
 11
13.823515774004935
 21
-33.367117072800021
 31
0.0
 11
13.907682980906928
 21
-33.43242551626367
 31
0.0
 11
13.990000000000009
 21
-33.5
 31
0.0
  0
ENDBLK
  5
375
100
AcDbEntity
  8
0
100
AcDbBlockEnd
  0
BLOCK
  5
376
100
AcDbEntity
  8
0
100
AcDbBlockBegin
  2
F10MPJ-9
 70
               0
 10
0.0
 20
0.0
 30
0.0
  3
F10MPJ-9
  1

  0
LINE
  5
377
100
AcDbEntity
  8
0
  6
CONTINUOUS
 62
               4
100
AcDbLine
 10
46.500000000000057
 20
-33.5
 30
0.0
 11
46.500000000000057
 21
-25.5
 31
0.0
  0
LINE
  5
378
100
AcDbEntity
  8
0
  6
CONTINUOUS
 62
               7
100
AcDbLine
 10
46.700000207031337
 20
-30.449999999999989
 30
0.0
 11
46.700000207031337
 21
-25.5
 31
0.0
  0
LINE
  5
379
100
AcDbEntity
  8
0
  6
CONTINUOUS
 62
               7
100
AcDbLine
 10
51.999999600000081
 20
-30.693931253860683
 30
0.0
 11
51.999999600000081
 21
-25.5
 31
0.0
  0
LINE
  5
37A
100
AcDbEntity
  8
0
  6
CONTINUOUS
 62
               7
100
AcDbLine
 10
51.799999792968777
 20
-30.449999999999989
 30
0.0
 11
51.799999792968777
 21
-25.5
 31
0.0
  0
LINE
  5
37B
100
AcDbEntity
  8
0
  6
CONTINUOUS
 62
               7
100
AcDbLine
 10
50.500000000000057
 20
-18.5
 30
0.0
 11
50.500000000000057
 21
-28.5
 31
0.0
  0
LINE
  5
37C
100
AcDbEntity
  8
0
  6
CONTINUOUS
 62
               7
100
AcDbLine
 10
48.000000000000057
 20
-18.5
 30
0.0
 11
48.000000000000057
 21
-28.5
 31
0.0
  0
LINE
  5
37D
100
AcDbEntity
  8
0
  6
CONTINUOUS
 62
               4
100
AcDbLine
 10
55.799987792968807
 20
-28.500007047732794
 30
0.0
 11
47.1397459621557
 21
-33.5
 31
0.0
  0
LINE
  5
37E
100
AcDbEntity
  8
0
  6
CONTINUOUS
 62
               4
100
AcDbLine
 10
29.000000000000057
 20
-47.0
 30
0.0
 11
29.199999988079128
 21
-47.0
 31
0.0
  0
LINE
  5
37F
100
AcDbEntity
  8
0
  6
CONTINUOUS
 62
               4
100
AcDbLine
 10
29.400000000000034
 20
-46.800000000000011
 30
0.0
 11
29.400000000000034
 21
-46.0
 31
0.0
  0
ARC
  5
380
100
AcDbEntity
  8
0
  6
CONTINUOUS
 62
               4
100
AcDbCircle
 10
29.199999999999989
 20
-46.800000000000011
 30
0.0
 40
0.2
100
AcDbArc
 50
270.0
 51
0.0
  0
LINE
  5
381
100
AcDbEntity
  8
0
  6
CONTINUOUS
 62
               4
100
AcDbLine
 10
29.000000000000057
 20
-46.0
 30
0.0
 11
29.400000005960521
 21
-46.0
 31
0.0
  0
LINE
  5
382
100
AcDbEntity
  8
0
  6
CONTINUOUS
 62
               4
100
AcDbLine
 10
29.433974500000033
 20
-44.199999999999989
 30
0.0
 11
29.299999600000035
 21
-44.699999999999989
 31
0.0
  0
LINE
  5
383
100
AcDbEntity
  8
0
  6
CONTINUOUS
 62
               4
100
AcDbLine
 10
29.299999600000035
 20
-44.699999999999989
 30
0.0
 11
29.000000000000057
 21
-44.699999999999989
 31
0.0
  0
LINE
  5
384
100
AcDbEntity
  8
0
  6
CONTINUOUS
 62
               4
100
AcDbLine
 10
6.6640884006387182
 20
-30.499992370605412
 30
0.0
 11
11.860254037844413
 21
-33.5
 31
0.0
  0
LINE
  5
385
100
AcDbEntity
  8
0
  6
CONTINUOUS
 62
               4
100
AcDbLine
 10
10.500000000000057
 20
-32.714656965084259
 30
0.0
 11
10.500000000000057
 21
-30.499992370605469
 31
0.0
  0
LINE
  5
386
100
AcDbEntity
  8
0
  6
CONTINUOUS
 62
               4
100
AcDbLine
 10
11.860254037844413
 20
-33.5
 30
0.0
 11
29.500000000000057
 21
-33.5
 31
0.0
  0
LINE
  5
387
100
AcDbEntity
  8
0
  6
CONTINUOUS
 62
               4
100
AcDbLine
 10
47.1397459621557
 20
-33.5
 30
0.0
 11
29.500000000000057
 21
-33.5
 31
0.0
  0
LINE
  5
388
100
AcDbEntity
  8
0
  6
CONTINUOUS
 62
               4
100
AcDbLine
 10
28.900000000000034
 20
-49.400000000000006
 30
0.0
 11
11.10000000000008
 21
-49.400000000000006
 31
0.0
  0
LINE
  5
389
100
AcDbEntity
  8
0
  6
CONTINUOUS
 62
               4
100
AcDbLine
 10
11.199999999999989
 20
-50.300000000000011
 30
0.0
 11
11.000000000000057
 21
-50.5
 31
0.0
  0
LINE
  5
38A
100
AcDbEntity
  8
0
  6
CONTINUOUS
 62
               4
100
AcDbLine
 10
11.000000000000057
 20
-52.864913000000001
 30
0.0
 11
11.753590400000064
 21
-53.299999000000014
 31
0.0
  0
LINE
  5
38B
100
AcDbEntity
  8
0
  6
CONTINUOUS
 62
               4
100
AcDbLine
 10
29.000000000000057
 20
-52.864913000000001
 30
0.0
 11
28.24640960000005
 21
-53.299999000000014
 31
0.0
  0
LINE
  5
38C
100
AcDbEntity
  8
0
  6
CONTINUOUS
 62
               4
100
AcDbLine
 10
28.800000000000125
 20
-50.300000000000011
 30
0.0
 11
11.199999999999989
 21
-50.300000000000011
 31
0.0
  0
LINE
  5
38D
100
AcDbEntity
  8
0
  6
CONTINUOUS
 62
               4
100
AcDbLine
 10
11.199999999999989
 20
-44.399999600000001
 30
0.0
 11
28.800000000000125
 21
-44.399999600000001
 31
0.0
  0
LINE
  5
38E
100
AcDbEntity
  8
0
  6
CONTINUOUS
 62
               4
100
AcDbLine
 10
11.199999999999989
 20
-44.399999400000013
 30
0.0
 11
11.000000000000057
 21
-44.59999959999999
 31
0.0
  0
LINE
  5
38F
100
AcDbEntity
  8
0
  6
CONTINUOUS
 62
               4
100
AcDbLine
 10
11.199999999999989
 20
-44.400000000000006
 30
0.0
 11
11.000000000000057
 21
-44.199999800000001
 31
0.0
  0
LINE
  5
390
100
AcDbEntity
  8
0
  6
CONTINUOUS
 62
               4
100
AcDbLine
 10
11.000000000000057
 20
-44.59999959999999
 30
0.0
 11
29.000000000000057
 21
-44.59999959999999
 31
0.0
  0
LINE
  5
391
100
AcDbEntity
  8
0
  6
CONTINUOUS
 62
               4
100
AcDbLine
 10
11.000000000000057
 20
-52.864913000000001
 30
0.0
 11
29.000000000000057
 21
-52.864913000000001
 31
0.0
  0
LINE
  5
392
100
AcDbEntity
  8
0
  6
CONTINUOUS
 62
               4
100
AcDbLine
 10
11.000000000000057
 20
-50.5
 30
0.0
 11
29.000000000000057
 21
-50.5
 31
0.0
  0
LINE
  5
393
100
AcDbEntity
  8
0
  6
CONTINUOUS
 62
               4
100
AcDbLine
 10
11.000000000000057
 20
-49.300000000000011
 30
0.0
 11
29.000000000000057
 21
-49.300000000000011
 31
0.0
  0
LINE
  5
394
100
AcDbEntity
  8
0
  6
CONTINUOUS
 62
               4
100
AcDbLine
 10
30.000000000000057
 20
-44.199999800000001
 30
0.0
 11
11.000000000000057
 21
-44.199999800000001
 31
0.0
  0
LINE
  5
395
100
AcDbEntity
  8
0
  6
CONTINUOUS
 62
               4
100
AcDbLine
 10
11.753590400000064
 20
-53.299999000000014
 30
0.0
 11
28.24640960000005
 21
-53.299999000000014
 31
0.0
  0
LINE
  5
396
100
AcDbEntity
  8
0
  6
CONTINUOUS
 62
               4
100
AcDbLine
 10
12.900000000000034
 20
-54.900000000000006
 30
0.0
 11
27.10000000000008
 21
-54.900000000000006
 31
0.0
  0
LINE
  5
397
100
AcDbEntity
  8
0
  6
CONTINUOUS
 62
               4
100
AcDbLine
 10
26.000000000000057
 20
-55.400000000000006
 30
0.0
 11
26.000000000000057
 21
-55.0
 31
0.0
  0
LINE
  5
398
100
AcDbEntity
  8
0
  6
CONTINUOUS
 62
               4
100
AcDbLine
 10
11.699999999999989
 20
-50.300000000000011
 30
0.0
 11
11.699999999999989
 21
-49.400000000000006
 31
0.0
  0
LINE
  5
399
100
AcDbEntity
  8
0
  6
CONTINUOUS
 62
               4
100
AcDbLine
 10
28.300000000000125
 20
-50.300000000000011
 30
0.0
 11
28.300000000000125
 21
-49.400000000000006
 31
0.0
  0
LINE
  5
39A
100
AcDbEntity
  8
0
  6
CONTINUOUS
 62
               4
100
AcDbLine
 10
11.753590400000064
 20
-53.299999000000014
 30
0.0
 11
12.100000800000032
 21
-53.899999000000008
 31
0.0
  0
LINE
  5
39B
100
AcDbEntity
  8
0
  6
CONTINUOUS
 62
               4
100
AcDbLine
 10
28.24640960000005
 20
-53.299999000000014
 30
0.0
 11
27.899999200000082
 21
-53.899999000000008
 31
0.0
  0
LINE
  5
39C
100
AcDbEntity
  8
0
  6
CONTINUOUS
 62
               4
100
AcDbLine
 10
12.10000000000008
 20
-53.899999000000008
 30
0.0
 11
27.899999200000082
 21
-53.899999000000008
 31
0.0
  0
LINE
  5
39D
100
AcDbEntity
  8
0
  6
CONTINUOUS
 62
               4
100
AcDbLine
 10
12.900000000000034
 20
-54.900000000000006
 30
0.0
 11
12.900000000000034
 21
-53.899999000000008
 31
0.0
  0
LINE
  5
39E
100
AcDbEntity
  8
0
  6
CONTINUOUS
 62
               4
100
AcDbLine
 10
13.000000000000057
 20
-55.0
 30
0.0
 11
27.000000000000057
 21
-55.0
 31
0.0
  0
LINE
  5
39F
100
AcDbEntity
  8
0
  6
CONTINUOUS
 62
               4
100
AcDbLine
 10
13.000000000000057
 20
-55.0
 30
0.0
 11
12.900000000000034
 21
-54.900000000000006
 31
0.0
  0
LINE
  5
3A0
100
AcDbEntity
  8
0
  6
CONTINUOUS
 62
               4
100
AcDbLine
 10
27.000000000000057
 20
-55.0
 30
0.0
 11
27.10000000000008
 21
-54.900000000000006
 31
0.0
  0
LINE
  5
3A1
100
AcDbEntity
  8
0
  6
CONTINUOUS
 62
               4
100
AcDbLine
 10
27.10000000000008
 20
-54.900000000000006
 30
0.0
 11
27.10000000000008
 21
-53.899999000000008
 31
0.0
  0
LINE
  5
3A2
100
AcDbEntity
  8
0
  6
CONTINUOUS
 62
               4
100
AcDbLine
 10
14.000000000000057
 20
-55.400000000000006
 30
0.0
 11
14.000000000000057
 21
-55.0
 31
0.0
  0
LINE
  5
3A3
100
AcDbEntity
  8
0
  6
CONTINUOUS
 62
               4
100
AcDbLine
 10
11.60000000000008
 20
-56.800680999999997
 30
0.0
 11
11.60000000000008
 21
-55.900000000000006
 31
0.0
  0
LINE
  5
3A4
100
AcDbEntity
  8
0
  6
CONTINUOUS
 62
               4
100
AcDbLine
 10
28.400000000000034
 20
-55.900000000000006
 30
0.0
 11
11.60000000000008
 21
-55.900000000000006
 31
0.0
  0
LINE
  5
3A5
100
AcDbEntity
  8
0
  6
CONTINUOUS
 62
               4
100
AcDbLine
 10
11.900000000000034
 20
-57.099999999999994
 30
0.0
 11
28.10000000000008
 21
-57.099999999999994
 31
0.0
  0
LINE
  5
3A6
100
AcDbEntity
  8
0
  6
CONTINUOUS
 62
               4
100
AcDbLine
 10
28.400000000000034
 20
-56.800680999999997
 30
0.0
 11
28.400000000000034
 21
-55.900000000000006
 31
0.0
  0
ARC
  5
3A7
100
AcDbEntity
  8
0
  6
CONTINUOUS
 62
               4
100
AcDbCircle
 10
26.500000000000057
 20
-55.400000000000006
 30
0.0
 40
0.5
100
AcDbArc
 50
179.9999999999998
 51
270.0
  0
ARC
  5
3A8
100
AcDbEntity
  8
0
  6
CONTINUOUS
 62
               4
100
AcDbCircle
 10
11.900000000000034
 20
-56.800000000000011
 30
0.0
 40
0.3
100
AcDbArc
 50
179.9999999999998
 51
270.0
  0
ARC
  5
3A9
100
AcDbEntity
  8
0
  6
CONTINUOUS
 62
               4
100
AcDbCircle
 10
13.500000000000057
 20
-55.400000000000006
 30
0.0
 40
0.5
100
AcDbArc
 50
269.9999999999992
 51
359.99999999999937
  0
ARC
  5
3AA
100
AcDbEntity
  8
0
  6
CONTINUOUS
 62
               4
100
AcDbCircle
 10
28.10000000000008
 20
-56.800000000000011
 30
0.0
 40
0.3
100
AcDbArc
 50
269.9999999999992
 51
359.99999999999937
  0
LINE
  5
3AB
100
AcDbEntity
  8
0
  6
CONTINUOUS
 62
               4
100
AcDbLine
 10
29.000000000000057
 20
-49.300000000000011
 30
0.0
 11
29.000000000000057
 21
-44.59999959999999
 31
0.0
  0
LINE
  5
3AC
100
AcDbEntity
  8
0
  6
CONTINUOUS
 62
               4
100
AcDbLine
 10
11.000000000000057
 20
-49.300000000000011
 30
0.0
 11
11.000000000000057
 21
-44.59999959999999
 31
0.0
  0
LINE
  5
3AD
100
AcDbEntity
  8
0
  6
CONTINUOUS
 62
               4
100
AcDbLine
 10
11.000000000000057
 20
-49.300000000000011
 30
0.0
 11
11.10000000000008
 21
-49.400000000000006
 31
0.0
  0
LINE
  5
3AE
100
AcDbEntity
  8
0
  6
CONTINUOUS
 62
               4
100
AcDbLine
 10
29.000000000000057
 20
-49.300000000000011
 30
0.0
 11
28.900000000000034
 21
-49.400000000000006
 31
0.0
  0
LINE
  5
3AF
100
AcDbEntity
  8
0
  6
CONTINUOUS
 62
               4
100
AcDbLine
 10
11.000000000000057
 20
-52.864913999999999
 30
0.0
 11
11.000000000000057
 21
-50.5
 31
0.0
  0
LINE
  5
3B0
100
AcDbEntity
  8
0
  6
CONTINUOUS
 62
               4
100
AcDbLine
 10
28.800000000000125
 20
-50.300000000000011
 30
0.0
 11
29.000000000000057
 21
-50.5
 31
0.0
  0
LINE
  5
3B1
100
AcDbEntity
  8
0
  6
CONTINUOUS
 62
               4
100
AcDbLine
 10
29.000000000000057
 20
-52.864913999999999
 30
0.0
 11
29.000000000000057
 21
-50.5
 31
0.0
  0
LINE
  5
3B2
100
AcDbEntity
  8
0
  6
CONTINUOUS
 62
               4
100
AcDbLine
 10
28.800000000000125
 20
-44.400000000000006
 30
0.0
 11
29.000000000000057
 21
-44.199999800000001
 31
0.0
  0
LINE
  5
3B3
100
AcDbEntity
  8
0
  6
CONTINUOUS
 62
               4
100
AcDbLine
 10
28.800000000000125
 20
-44.399999400000013
 30
0.0
 11
29.000000000000057
 21
-44.59999959999999
 31
0.0
  0
LINE
  5
3B4
100
AcDbEntity
  8
0
  6
CONTINUOUS
 62
               4
100
AcDbLine
 10
29.000000000000057
 20
-44.199999999999989
 30
0.0
 11
29.000000000000057
 21
-33.5
 31
0.0
  0
LINE
  5
3B5
100
AcDbEntity
  8
0
  6
CONTINUOUS
 62
               4
100
AcDbLine
 10
11.000000000000057
 20
-44.199999800000001
 30
0.0
 11
11.000000000000057
 21
-33.003332099679085
 31
0.0
  0
LINE
  5
3B6
100
AcDbEntity
  8
0
  6
CONTINUOUS
 62
               4
100
AcDbLine
 10
47.900000000000034
 20
-49.400000000000006
 30
0.0
 11
30.10000000000008
 21
-49.400000000000006
 31
0.0
  0
LINE
  5
3B7
100
AcDbEntity
  8
0
  6
CONTINUOUS
 62
               4
100
AcDbLine
 10
30.199999999999989
 20
-50.300000000000011
 30
0.0
 11
30.000000000000057
 21
-50.5
 31
0.0
  0
LINE
  5
3B8
100
AcDbEntity
  8
0
  6
CONTINUOUS
 62
               4
100
AcDbLine
 10
30.000000000000057
 20
-52.864913000000001
 30
0.0
 11
30.753590400000064
 21
-53.299999000000014
 31
0.0
  0
LINE
  5
3B9
100
AcDbEntity
  8
0
  6
CONTINUOUS
 62
               4
100
AcDbLine
 10
48.000000000000057
 20
-52.864913000000001
 30
0.0
 11
47.24640960000005
 21
-53.299999000000014
 31
0.0
  0
LINE
  5
3BA
100
AcDbEntity
  8
0
  6
CONTINUOUS
 62
               4
100
AcDbLine
 10
47.800000000000125
 20
-50.300000000000011
 30
0.0
 11
30.199999999999989
 21
-50.300000000000011
 31
0.0
  0
LINE
  5
3BB
100
AcDbEntity
  8
0
  6
CONTINUOUS
 62
               4
100
AcDbLine
 10
30.199999999999989
 20
-44.399999600000001
 30
0.0
 11
47.800000000000125
 21
-44.399999600000001
 31
0.0
  0
LINE
  5
3BC
100
AcDbEntity
  8
0
  6
CONTINUOUS
 62
               4
100
AcDbLine
 10
30.199999999999989
 20
-44.399999400000013
 30
0.0
 11
30.000000000000057
 21
-44.59999959999999
 31
0.0
  0
LINE
  5
3BD
100
AcDbEntity
  8
0
  6
CONTINUOUS
 62
               4
100
AcDbLine
 10
30.199999999999989
 20
-44.400000000000006
 30
0.0
 11
30.000000000000057
 21
-44.199999800000001
 31
0.0
  0
LINE
  5
3BE
100
AcDbEntity
  8
0
  6
CONTINUOUS
 62
               4
100
AcDbLine
 10
30.000000000000057
 20
-44.59999959999999
 30
0.0
 11
48.000000000000057
 21
-44.59999959999999
 31
0.0
  0
LINE
  5
3BF
100
AcDbEntity
  8
0
  6
CONTINUOUS
 62
               4
100
AcDbLine
 10
30.000000000000057
 20
-52.864913000000001
 30
0.0
 11
48.000000000000057
 21
-52.864913000000001
 31
0.0
  0
LINE
  5
3C0
100
AcDbEntity
  8
0
  6
CONTINUOUS
 62
               4
100
AcDbLine
 10
30.000000000000057
 20
-50.5
 30
0.0
 11
48.000000000000057
 21
-50.5
 31
0.0
  0
LINE
  5
3C1
100
AcDbEntity
  8
0
  6
CONTINUOUS
 62
               4
100
AcDbLine
 10
30.000000000000057
 20
-49.300000000000011
 30
0.0
 11
48.000000000000057
 21
-49.300000000000011
 31
0.0
  0
LINE
  5
3C2
100
AcDbEntity
  8
0
  6
CONTINUOUS
 62
               4
100
AcDbLine
 10
48.000000000000057
 20
-44.199999800000001
 30
0.0
 11
30.000000000000057
 21
-44.199999800000001
 31
0.0
  0
LINE
  5
3C3
100
AcDbEntity
  8
0
  6
CONTINUOUS
 62
               4
100
AcDbLine
 10
30.753590400000064
 20
-53.299999000000014
 30
0.0
 11
47.24640960000005
 21
-53.299999000000014
 31
0.0
  0
LINE
  5
3C4
100
AcDbEntity
  8
0
  6
CONTINUOUS
 62
               4
100
AcDbLine
 10
31.900000000000034
 20
-54.900000000000006
 30
0.0
 11
46.10000000000008
 21
-54.900000000000006
 31
0.0
  0
LINE
  5
3C5
100
AcDbEntity
  8
0
  6
CONTINUOUS
 62
               4
100
AcDbLine
 10
45.000000000000057
 20
-55.400000000000006
 30
0.0
 11
45.000000000000057
 21
-55.0
 31
0.0
  0
LINE
  5
3C6
100
AcDbEntity
  8
0
  6
CONTINUOUS
 62
               4
100
AcDbLine
 10
30.699999999999989
 20
-50.300000000000011
 30
0.0
 11
30.699999999999989
 21
-49.400000000000006
 31
0.0
  0
LINE
  5
3C7
100
AcDbEntity
  8
0
  6
CONTINUOUS
 62
               4
100
AcDbLine
 10
47.300000000000125
 20
-50.300000000000011
 30
0.0
 11
47.300000000000125
 21
-49.400000000000006
 31
0.0
  0
LINE
  5
3C8
100
AcDbEntity
  8
0
  6
CONTINUOUS
 62
               4
100
AcDbLine
 10
30.753590400000064
 20
-53.299999000000014
 30
0.0
 11
31.100000800000032
 21
-53.899999000000008
 31
0.0
  0
LINE
  5
3C9
100
AcDbEntity
  8
0
  6
CONTINUOUS
 62
               4
100
AcDbLine
 10
47.24640960000005
 20
-53.299999000000014
 30
0.0
 11
46.899999200000082
 21
-53.899999000000008
 31
0.0
  0
LINE
  5
3CA
100
AcDbEntity
  8
0
  6
CONTINUOUS
 62
               4
100
AcDbLine
 10
31.10000000000008
 20
-53.899999000000008
 30
0.0
 11
46.899999200000082
 21
-53.899999000000008
 31
0.0
  0
LINE
  5
3CB
100
AcDbEntity
  8
0
  6
CONTINUOUS
 62
               4
100
AcDbLine
 10
31.900000000000034
 20
-54.900000000000006
 30
0.0
 11
31.900000000000034
 21
-53.899999000000008
 31
0.0
  0
LINE
  5
3CC
100
AcDbEntity
  8
0
  6
CONTINUOUS
 62
               4
100
AcDbLine
 10
32.000000000000057
 20
-55.0
 30
0.0
 11
46.000000000000057
 21
-55.0
 31
0.0
  0
LINE
  5
3CD
100
AcDbEntity
  8
0
  6
CONTINUOUS
 62
               4
100
AcDbLine
 10
32.000000000000057
 20
-55.0
 30
0.0
 11
31.900000000000034
 21
-54.900000000000006
 31
0.0
  0
LINE
  5
3CE
100
AcDbEntity
  8
0
  6
CONTINUOUS
 62
               4
100
AcDbLine
 10
46.000000000000057
 20
-55.0
 30
0.0
 11
46.10000000000008
 21
-54.900000000000006
 31
0.0
  0
LINE
  5
3CF
100
AcDbEntity
  8
0
  6
CONTINUOUS
 62
               4
100
AcDbLine
 10
46.10000000000008
 20
-54.900000000000006
 30
0.0
 11
46.10000000000008
 21
-53.899999000000008
 31
0.0
  0
LINE
  5
3D0
100
AcDbEntity
  8
0
  6
CONTINUOUS
 62
               4
100
AcDbLine
 10
33.000000000000057
 20
-55.400000000000006
 30
0.0
 11
33.000000000000057
 21
-55.0
 31
0.0
  0
LINE
  5
3D1
100
AcDbEntity
  8
0
  6
CONTINUOUS
 62
               4
100
AcDbLine
 10
30.60000000000008
 20
-56.800680999999997
 30
0.0
 11
30.60000000000008
 21
-55.900000000000006
 31
0.0
  0
LINE
  5
3D2
100
AcDbEntity
  8
0
  6
CONTINUOUS
 62
               4
100
AcDbLine
 10
47.400000000000034
 20
-55.900000000000006
 30
0.0
 11
30.60000000000008
 21
-55.900000000000006
 31
0.0
  0
LINE
  5
3D3
100
AcDbEntity
  8
0
  6
CONTINUOUS
 62
               4
100
AcDbLine
 10
30.900000000000034
 20
-57.099999999999994
 30
0.0
 11
47.10000000000008
 21
-57.099999999999994
 31
0.0
  0
LINE
  5
3D4
100
AcDbEntity
  8
0
  6
CONTINUOUS
 62
               4
100
AcDbLine
 10
47.400000000000034
 20
-56.800680999999997
 30
0.0
 11
47.400000000000034
 21
-55.900000000000006
 31
0.0
  0
ARC
  5
3D5
100
AcDbEntity
  8
0
  6
CONTINUOUS
 62
               4
100
AcDbCircle
 10
45.500000000000057
 20
-55.400000000000006
 30
0.0
 40
0.5
100
AcDbArc
 50
179.9999999999998
 51
270.0
  0
ARC
  5
3D6
100
AcDbEntity
  8
0
  6
CONTINUOUS
 62
               4
100
AcDbCircle
 10
30.900000000000034
 20
-56.800000000000011
 30
0.0
 40
0.3
100
AcDbArc
 50
179.9999999999998
 51
270.0
  0
ARC
  5
3D7
100
AcDbEntity
  8
0
  6
CONTINUOUS
 62
               4
100
AcDbCircle
 10
32.500000000000057
 20
-55.400000000000006
 30
0.0
 40
0.5
100
AcDbArc
 50
269.9999999999992
 51
359.99999999999937
  0
ARC
  5
3D8
100
AcDbEntity
  8
0
  6
CONTINUOUS
 62
               4
100
AcDbCircle
 10
47.10000000000008
 20
-56.800000000000011
 30
0.0
 40
0.3
100
AcDbArc
 50
269.9999999999992
 51
359.99999999999937
  0
LINE
  5
3D9
100
AcDbEntity
  8
0
  6
CONTINUOUS
 62
               4
100
AcDbLine
 10
48.000000000000057
 20
-49.300000000000011
 30
0.0
 11
48.000000000000057
 21
-44.59999959999999
 31
0.0
  0
LINE
  5
3DA
100
AcDbEntity
  8
0
  6
CONTINUOUS
 62
               4
100
AcDbLine
 10
30.000000000000057
 20
-49.300000000000011
 30
0.0
 11
30.000000000000057
 21
-44.59999959999999
 31
0.0
  0
LINE
  5
3DB
100
AcDbEntity
  8
0
  6
CONTINUOUS
 62
               4
100
AcDbLine
 10
30.000000000000057
 20
-49.300000000000011
 30
0.0
 11
30.10000000000008
 21
-49.400000000000006
 31
0.0
  0
LINE
  5
3DC
100
AcDbEntity
  8
0
  6
CONTINUOUS
 62
               4
100
AcDbLine
 10
48.000000000000057
 20
-49.300000000000011
 30
0.0
 11
47.900000000000034
 21
-49.400000000000006
 31
0.0
  0
LINE
  5
3DD
100
AcDbEntity
  8
0
  6
CONTINUOUS
 62
               4
100
AcDbLine
 10
30.000000000000057
 20
-52.864913999999999
 30
0.0
 11
30.000000000000057
 21
-50.5
 31
0.0
  0
LINE
  5
3DE
100
AcDbEntity
  8
0
  6
CONTINUOUS
 62
               4
100
AcDbLine
 10
47.800000000000125
 20
-50.300000000000011
 30
0.0
 11
48.000000000000057
 21
-50.5
 31
0.0
  0
LINE
  5
3DF
100
AcDbEntity
  8
0
  6
CONTINUOUS
 62
               4
100
AcDbLine
 10
48.000000000000057
 20
-52.864913999999999
 30
0.0
 11
48.000000000000057
 21
-50.5
 31
0.0
  0
LINE
  5
3E0
100
AcDbEntity
  8
0
  6
CONTINUOUS
 62
               4
100
AcDbLine
 10
47.800000000000125
 20
-44.400000000000006
 30
0.0
 11
48.000000000000057
 21
-44.199999800000001
 31
0.0
  0
LINE
  5
3E1
100
AcDbEntity
  8
0
  6
CONTINUOUS
 62
               4
100
AcDbLine
 10
47.800000000000125
 20
-44.399999400000013
 30
0.0
 11
48.000000000000057
 21
-44.59999959999999
 31
0.0
  0
LINE
  5
3E2
100
AcDbEntity
  8
0
  6
CONTINUOUS
 62
               4
100
AcDbLine
 10
48.000000000000057
 20
-44.199999999999989
 30
0.0
 11
48.000000000000057
 21
-33.003332099679056
 31
0.0
  0
LINE
  5
3E3
100
AcDbEntity
  8
0
  6
CONTINUOUS
 62
               4
100
AcDbLine
 10
30.000000000000057
 20
-44.199999800000001
 30
0.0
 11
30.000000000000057
 21
-33.5
 31
0.0
  0
LINE
  5
3E4
100
AcDbEntity
  8
0
  6
CONTINUOUS
 62
               7
100
AcDbLine
 10
50.500000000000057
 20
-28.5
 30
0.0
 11
48.000000000000057
 21
-28.5
 31
0.0
  0
LINE
  5
3E5
100
AcDbEntity
  8
0
  6
CONTINUOUS
 62
               7
100
AcDbLine
 10
51.799999792968777
 20
-30.449999999999989
 30
0.0
 11
46.700000207031337
 21
-30.449999999999989
 31
0.0
  0
LINE
  5
3E6
100
AcDbEntity
  8
0
  6
CONTINUOUS
 62
             200
100
AcDbLine
 10
39.000000000000057
 20
-61.883890721591797
 30
0.0
 11
39.000000000000057
 21
-29.307269872247389
 31
0.0
  0
LINE
  5
3E7
100
AcDbEntity
  8
0
  6
CONTINUOUS
 62
             200
100
AcDbLine
 10
20.000000000000057
 20
-61.883890721591797
 30
0.0
 11
20.000000000000057
 21
-30.5
 31
0.0
  0
LINE
  5
3E8
100
AcDbEntity
  8
0
  6
CONTINUOUS
 62
               7
100
AcDbLine
 10
56.000000000000057
 20
61.0
 30
0.0
 11
36.000000000000057
 21
61.0
 31
0.0
  0
LINE
  5
3E9
100
AcDbEntity
  8
0
  6
CONTINUOUS
 62
               7
100
AcDbLine
 10
56.000000000000057
 20
35.5
 30
0.0
 11
56.000000000000057
 21
61.0
 31
0.0
  0
LINE
  5
3EA
100
AcDbEntity
  8
0
  6
CONTINUOUS
 62
               7
100
AcDbLine
 10
56.000000000000057
 20
-25.5
 30
0.0
 11
56.000000000000057
 21
-17.5
 31
0.0
  0
LINE
  5
3EB
100
AcDbEntity
  8
0
  6
CONTINUOUS
 62
               7
100
AcDbLine
 10
36.000178221374028
 20
60.999872234745453
 30
0.0
 11
35.000174041008961
 21
59.999852797040148
 31
0.0
  0
LINE
  5
3EC
100
AcDbEntity
  8
0
  6
CONTINUOUS
 62
               7
100
AcDbLine
 10
56.000000000000057
 20
35.5
 30
0.0
 11
53.000000000000057
 21
35.5
 31
0.0
  0
LINE
  5
3ED
100
AcDbEntity
  8
0
  6
CONTINUOUS
 62
               7
100
AcDbLine
 10
56.000000000000057
 20
-17.5
 30
0.0
 11
53.000000000000057
 21
-17.5
 31
0.0
  0
LINE
  5
3EE
100
AcDbEntity
  8
0
  6
CONTINUOUS
 62
               7
100
AcDbLine
 10
53.000000000000057
 20
-17.5
 30
0.0
 11
53.000000000000057
 21
35.5
 31
0.0
  0
LINE
  5
3EF
100
AcDbEntity
  8
0
  6
CONTINUOUS
 62
               4
100
AcDbLine
 10
58.000000000000057
 20
-15.300003051757813
 30
0.0
 11
58.000000000000057
 21
33.29998779296875
 31
0.0
  0
LINE
  5
3F0
100
AcDbEntity
  8
0
  6
CONTINUOUS
 62
               4
100
AcDbLine
 10
56.000030517578182
 20
-17.300018310546875
 30
0.0
 11
53.000030517578182
 21
-17.300018310546875
 31
0.0
  0
LINE
  5
3F1
100
AcDbEntity
  8
0
  6
CONTINUOUS
 62
               4
100
AcDbLine
 10
55.999969482421932
 20
35.29998779296875
 30
0.0
 11
52.999969482421932
 21
35.29998779296875
 31
0.0
  0
LINE
  5
3F2
100
AcDbEntity
  8
0
  6
CONTINUOUS
 62
               4
100
AcDbLine
 10
57.999952987441304
 20
33.299991322279311
 30
0.0
 11
55.999966374281996
 21
35.299987544878604
 31
0.0
  0
LINE
  5
3F3
100
AcDbEntity
  8
0
  6
CONTINUOUS
 62
               4
100
AcDbLine
 10
58.000041224667314
 20
-15.300023618047817
 30
0.0
 11
56.000014824871926
 21
-17.300044622982568
 31
0.0
  0
LINE
  5
3F4
100
AcDbEntity
  8
0
  6
CONTINUOUS
 62
               4
100
AcDbLine
 10
58.000000000000057
 20
27.999984741210937
 30
0.0
 11
56.000000000000057
 21
27.999984741210937
 31
0.0
  0
LINE
  5
3F5
100
AcDbEntity
  8
0
  6
CONTINUOUS
 62
               4
100
AcDbLine
 10
58.000000000000057
 20
-8.0000152587890625
 30
0.0
 11
53.000000000000057
 21
-8.0000152587890625
 31
0.0
  0
LINE
  5
3F6
100
AcDbEntity
  8
0
  6
CONTINUOUS
 62
               4
100
AcDbLine
 10
58.000000000000057
 20
-14.000015258789063
 30
0.0
 11
53.000000000000057
 21
-14.000015258789063
 31
0.0
  0
LINE
  5
3F7
100
AcDbEntity
  8
0
  6
CONTINUOUS
 62
               4
100
AcDbLine
 10
56.000000000000057
 20
27.999984741210937
 30
0.0
 11
56.000000000000057
 21
35.29998779296875
 31
0.0
  0
LINE
  5
3F8
100
AcDbEntity
  8
0
  6
CONTINUOUS
 62
               4
100
AcDbLine
 10
56.500000000000057
 20
28.249969482421875
 30
0.0
 11
56.000000000000057
 21
28.249969482421875
 31
0.0
  0
LINE
  5
3F9
100
AcDbEntity
  8
0
  6
CONTINUOUS
 62
               4
100
AcDbLine
 10
56.499969482421932
 20
33.749969482421875
 30
0.0
 11
55.999969482421932
 21
33.749969482421875
 31
0.0
  0
LINE
  5
3FA
100
AcDbEntity
  8
0
  6
CONTINUOUS
 62
               4
100
AcDbLine
 10
55.799987792968807
 20
-28.5
 30
0.0
 11
55.799987792968807
 21
-25.5
 31
0.0
  0
LINE
  5
3FB
100
AcDbEntity
  8
0
  6
CONTINUOUS
 62
               7
100
AcDbLine
 10
55.800141151664945
 20
-28.499918506048289
 30
0.0
 11
55.800034421516159
 21
-28.500025236538931
 31
0.0
  0
ARC
  5
3FC
100
AcDbEntity
  8
0
  6
CONTINUOUS
 62
               4
100
AcDbCircle
 10
56.500000000000057
 20
32.249969482421875
 30
0.0
 40
1.5
100
AcDbArc
 50
0.0000359721786855
 51
90.000017986089347
  0
ARC
  5
3FD
100
AcDbEntity
  8
0
  6
CONTINUOUS
 62
               4
100
AcDbCircle
 10
56.500000000000057
 20
29.749969482421875
 30
0.0
 40
1.5
100
AcDbArc
 50
270.00003665542403
 51
359.99996402782131
  0
LINE
  5
3FE
100
AcDbEntity
  8
0
  6
CONTINUOUS
 62
               7
100
AcDbLine
 10
56.999986267089923
 20
58.949984741210955
 30
0.0
 11
56.000000000000057
 21
58.949984741210955
 31
0.0
  0
LINE
  5
3FF
100
AcDbEntity
  8
0
  6
CONTINUOUS
 62
               7
100
AcDbLine
 10
56.999986267089923
 20
59.899984741210943
 30
0.0
 11
56.999986267089923
 21
58.949984741210955
 31
0.0
  0
LINE
  5
400
100
AcDbEntity
  8
0
  6
CONTINUOUS
 62
               7
100
AcDbLine
 10
56.999986267089923
 20
59.899984741210943
 30
0.0
 11
56.000000000000057
 21
59.899984741210943
 31
0.0
  0
LINE
  5
401
100
AcDbEntity
  8
0
  6
CONTINUOUS
 62
               7
100
AcDbLine
 10
41.000000370605505
 20
22.499999617473605
 30
0.0
 11
41.000000370605505
 21
59.5
 31
0.0
  0
LINE
  5
402
100
AcDbEntity
  8
0
  6
CONTINUOUS
 62
               7
100
AcDbLine
 10
39.500000370605505
 20
22.499999617473605
 30
0.0
 11
39.500000370605505
 21
59.5
 31
0.0
  0
LINE
  5
403
100
AcDbEntity
  8
0
  6
CONTINUOUS
 62
               7
100
AcDbLine
 10
36.500000370605505
 20
57.5
 30
0.0
 11
35.000000000000057
 21
57.5
 31
0.0
  0
LINE
  5
404
100
AcDbEntity
  8
0
  6
CONTINUOUS
 62
               7
100
AcDbLine
 10
43.500000370605505
 20
32.999999617473605
 30
0.0
 11
43.500000370605505
 21
47.5
 31
0.0
  0
LINE
  5
405
100
AcDbEntity
  8
0
  6
CONTINUOUS
 62
               7
100
AcDbLine
 10
39.500000370605505
 20
44.5
 30
0.0
 11
35.000000000000057
 21
44.5
 31
0.0
  0
LINE
  5
406
100
AcDbEntity
  8
0
  6
CONTINUOUS
 62
               7
100
AcDbLine
 10
45.000000370605505
 20
47.5
 30
0.0
 11
43.500000370605505
 21
47.5
 31
0.0
  0
LINE
  5
407
100
AcDbEntity
  8
0
  6
CONTINUOUS
 62
               7
100
AcDbLine
 10
53.500000000000057
 20
47.5
 30
0.0
 11
46.500000370605505
 21
47.5
 31
0.0
  0
LINE
  5
408
100
AcDbEntity
  8
0
  6
CONTINUOUS
 62
               7
100
AcDbLine
 10
46.500000370605505
 20
44.5
 30
0.0
 11
46.500000370605505
 21
59.5
 31
0.0
  0
LINE
  5
409
100
AcDbEntity
  8
0
  6
CONTINUOUS
 62
               7
100
AcDbLine
 10
45.000000370605505
 20
44.5
 30
0.0
 11
45.000000370605505
 21
59.5
 31
0.0
  0
LINE
  5
40A
100
AcDbEntity
  8
0
  6
CONTINUOUS
 62
               7
100
AcDbLine
 10
45.000000370605505
 20
44.5
 30
0.0
 11
41.000000370605505
 21
44.5
 31
0.0
  0
LINE
  5
40B
100
AcDbEntity
  8
0
  6
CONTINUOUS
 62
               7
100
AcDbLine
 10
53.500000000000057
 20
44.5
 30
0.0
 11
46.500000370605505
 21
44.5
 31
0.0
  0
LINE
  5
40C
100
AcDbEntity
  8
0
  6
CONTINUOUS
 62
               7
100
AcDbLine
 10
53.500000000000057
 20
44.5
 30
0.0
 11
53.500000000000057
 21
59.5
 31
0.0
  0
LINE
  5
40D
100
AcDbEntity
  8
0
  6
CONTINUOUS
 62
               7
100
AcDbLine
 10
53.500000000000057
 20
59.5
 30
0.0
 11
46.500000370605505
 21
59.5
 31
0.0
  0
LINE
  5
40E
100
AcDbEntity
  8
0
  6
CONTINUOUS
 62
               7
100
AcDbLine
 10
36.500000370605505
 20
57.5
 30
0.0
 11
36.500000370605505
 21
59.5
 31
0.0
  0
LINE
  5
40F
100
AcDbEntity
  8
0
  6
CONTINUOUS
 62
               7
100
AcDbLine
 10
39.500000370605505
 20
59.5
 30
0.0
 11
36.500000370605505
 21
59.5
 31
0.0
  0
LINE
  5
410
100
AcDbEntity
  8
0
  6
CONTINUOUS
 62
               7
100
AcDbLine
 10
45.000000370605505
 20
59.5
 30
0.0
 11
41.000000370605505
 21
59.5
 31
0.0
  0
LINE
  5
411
100
AcDbEntity
  8
0
  6
CONTINUOUS
 62
               7
100
AcDbLine
 10
50.500000370605505
 20
-8.0000003825263946
 30
0.0
 11
50.500000370605505
 21
19.499999617473605
 31
0.0
  0
LINE
  5
412
100
AcDbEntity
  8
0
  6
CONTINUOUS
 62
               7
100
AcDbLine
 10
46.500000370605505
 20
-8.0000003825263946
 30
0.0
 11
46.500000370605505
 21
19.499999617473605
 31
0.0
  0
LINE
  5
413
100
AcDbEntity
  8
0
  6
CONTINUOUS
 62
               7
100
AcDbLine
 10
39.500000370605505
 20
19.499999617473605
 30
0.0
 11
35.000000000000057
 21
19.499999617473605
 31
0.0
  0
LINE
  5
414
100
AcDbEntity
  8
0
  6
CONTINUOUS
 62
               7
100
AcDbLine
 10
45.000000370605505
 20
19.499999617473605
 30
0.0
 11
45.000000370605505
 21
-23.000000382526395
 31
0.0
  0
LINE
  5
415
100
AcDbEntity
  8
0
  6
CONTINUOUS
 62
               7
100
AcDbLine
 10
41.000000370605505
 20
19.499999617473605
 30
0.0
 11
41.000000370605505
 21
-23.000000382526395
 31
0.0
  0
LINE
  5
416
100
AcDbEntity
  8
0
  6
CONTINUOUS
 62
               7
100
AcDbLine
 10
39.500000370605505
 20
22.499999617473605
 30
0.0
 11
35.000000000000057
 21
22.499999617473605
 31
0.0
  0
LINE
  5
417
100
AcDbEntity
  8
0
  6
CONTINUOUS
 62
               7
100
AcDbLine
 10
39.500000370605505
 20
23.699999617473608
 30
0.0
 11
35.000000000000057
 21
23.699999617473608
 31
0.0
  0
LINE
  5
418
100
AcDbEntity
  8
0
  6
CONTINUOUS
 62
               7
100
AcDbLine
 10
35.000000000000057
 20
35.999999617473605
 30
0.0
 11
39.500000370605505
 21
35.999999617473605
 31
0.0
  0
LINE
  5
419
100
AcDbEntity
  8
0
  6
CONTINUOUS
 62
               7
100
AcDbLine
 10
43.500000370605505
 20
32.999999617473605
 30
0.0
 11
45.000000370605505
 21
32.999999617473605
 31
0.0
  0
LINE
  5
41A
100
AcDbEntity
  8
0
  6
CONTINUOUS
 62
               7
100
AcDbLine
 10
46.500000370605505
 20
32.999999617473605
 30
0.0
 11
50.500000370605505
 21
32.999999617473605
 31
0.0
  0
LINE
  5
41B
100
AcDbEntity
  8
0
  6
CONTINUOUS
 62
               7
100
AcDbLine
 10
41.000000370605505
 20
35.999999617473605
 30
0.0
 11
45.000000370605505
 21
35.999999617473605
 31
0.0
  0
LINE
  5
41C
100
AcDbEntity
  8
0
  6
CONTINUOUS
 62
               7
100
AcDbLine
 10
50.500000370605505
 20
35.999999617473605
 30
0.0
 11
46.500000370605505
 21
35.999999617473605
 31
0.0
  0
LINE
  5
41D
100
AcDbEntity
  8
0
  6
CONTINUOUS
 62
               7
100
AcDbLine
 10
45.000000370605505
 20
23.699999617473608
 30
0.0
 11
41.000000370605505
 21
23.699999617473608
 31
0.0
  0
LINE
  5
41E
100
AcDbEntity
  8
0
  6
CONTINUOUS
 62
               7
100
AcDbLine
 10
50.500000370605505
 20
23.699999617473608
 30
0.0
 11
46.500000370605505
 21
23.699999617473608
 31
0.0
  0
LINE
  5
41F
100
AcDbEntity
  8
0
  6
CONTINUOUS
 62
               7
100
AcDbLine
 10
50.500000370605505
 20
22.499999617473605
 30
0.0
 11
50.500000370605505
 21
35.999999617473605
 31
0.0
  0
LINE
  5
420
100
AcDbEntity
  8
0
  6
CONTINUOUS
 62
               7
100
AcDbLine
 10
50.500000370605505
 20
22.499999617473605
 30
0.0
 11
46.500000370605505
 21
22.499999617473605
 31
0.0
  0
LINE
  5
421
100
AcDbEntity
  8
0
  6
CONTINUOUS
 62
               7
100
AcDbLine
 10
46.500000370605505
 20
22.499999617473605
 30
0.0
 11
46.500000370605505
 21
35.999999617473605
 31
0.0
  0
LINE
  5
422
100
AcDbEntity
  8
0
  6
CONTINUOUS
 62
               7
100
AcDbLine
 10
45.000000370605505
 20
22.499999617473605
 30
0.0
 11
41.000000370605505
 21
22.499999617473605
 31
0.0
  0
LINE
  5
423
100
AcDbEntity
  8
0
  6
CONTINUOUS
 62
               7
100
AcDbLine
 10
45.000000370605505
 20
22.499999617473605
 30
0.0
 11
45.000000370605505
 21
35.999999617473605
 31
0.0
  0
LINE
  5
424
100
AcDbEntity
  8
0
  6
CONTINUOUS
 62
               7
100
AcDbLine
 10
45.000000370605505
 20
19.499999617473605
 30
0.0
 11
41.000000370605505
 21
19.499999617473605
 31
0.0
  0
LINE
  5
425
100
AcDbEntity
  8
0
  6
CONTINUOUS
 62
               7
100
AcDbLine
 10
50.500000370605505
 20
19.499999617473605
 30
0.0
 11
46.500000370605505
 21
19.499999617473605
 31
0.0
  0
LINE
  5
426
100
AcDbEntity
  8
0
  6
CONTINUOUS
 62
               7
100
AcDbLine
 10
39.500000370605505
 20
-23.000000382526395
 30
0.0
 11
35.000000000000057
 21
-23.000000382526395
 31
0.0
  0
LINE
  5
427
100
AcDbEntity
  8
0
  6
CONTINUOUS
 62
               7
100
AcDbLine
 10
41.000000370605505
 20
-23.000000382526395
 30
0.0
 11
45.000000370605505
 21
-23.000000382526395
 31
0.0
  0
LINE
  5
428
100
AcDbEntity
  8
0
  6
CONTINUOUS
 62
               7
100
AcDbLine
 10
50.500000370605505
 20
-15.780007382526406
 30
0.0
 11
48.000000370605505
 21
-15.780007382526406
 31
0.0
  0
LINE
  5
429
100
AcDbEntity
  8
0
  6
CONTINUOUS
 62
               7
100
AcDbLine
 10
50.500000370605505
 20
-8.0000003825263946
 30
0.0
 11
46.500000370605505
 21
-8.0000003825263946
 31
0.0
  0
LINE
  5
42A
100
AcDbEntity
  8
0
  6
CONTINUOUS
 62
               7
100
AcDbLine
 10
46.500000370605505
 20
-11.250007382526405
 30
0.0
 11
46.500000370605505
 21
-14.780007382526406
 31
0.0
  0
LINE
  5
42B
100
AcDbEntity
  8
0
  6
CONTINUOUS
 62
               7
100
AcDbLine
 10
48.000000370605505
 20
-14.780007382526406
 30
0.0
 11
46.500000370605505
 21
-14.780007382526406
 31
0.0
  0
LINE
  5
42C
100
AcDbEntity
  8
0
  6
CONTINUOUS
 62
               7
100
AcDbLine
 10
48.000000370605505
 20
-11.250007382526405
 30
0.0
 11
46.500000370605505
 21
-11.250007382526405
 31
0.0
  0
LINE
  5
42D
100
AcDbEntity
  8
0
  6
CONTINUOUS
 62
               7
100
AcDbLine
 10
48.000000370605505
 20
-14.780007382526406
 30
0.0
 11
48.000000370605505
 21
-15.780007382526406
 31
0.0
  0
LINE
  5
42E
100
AcDbEntity
  8
0
  6
CONTINUOUS
 62
               7
100
AcDbLine
 10
48.000000370605505
 20
-10.250007382526405
 30
0.0
 11
48.000000370605505
 21
-11.250007382526405
 31
0.0
  0
LINE
  5
42F
100
AcDbEntity
  8
0
  6
CONTINUOUS
 62
               7
100
AcDbLine
 10
50.500000370605505
 20
-10.250007382526405
 30
0.0
 11
50.500000370605505
 21
-15.780007382526406
 31
0.0
  0
LINE
  5
430
100
AcDbEntity
  8
0
  6
CONTINUOUS
 62
               7
100
AcDbLine
 10
50.500000370605505
 20
-10.250007382526405
 30
0.0
 11
48.000000370605505
 21
-10.250007382526405
 31
0.0
  0
LINE
  5
431
100
AcDbEntity
  8
0
  6
CONTINUOUS
 62
               7
100
AcDbLine
 10
50.500000000000057
 20
-18.5
 30
0.0
 11
48.000000000000057
 21
-18.5
 31
0.0
  0
LINE
  5
432
100
AcDbEntity
  8
0
  6
CONTINUOUS
 62
               7
100
AcDbLine
 10
56.000000000000057
 20
-25.5
 30
0.0
 11
51.799999792968777
 21
-25.5
 31
0.0
  0
LINE
  5
433
100
AcDbEntity
  8
0
  6
CONTINUOUS
 62
               7
100
AcDbLine
 10
46.700000207031337
 20
-25.5
 30
0.0
 11
35.000000000000057
 21
-25.5
 31
0.0
  0
LINE
  5
434
100
AcDbEntity
  8
0
  6
CONTINUOUS
 62
               4
100
AcDbLine
 10
57.949999551947883
 20
-13.800007629379962
 30
0.0
 11
52.999999629394495
 21
-13.800007629379962
 31
0.0
  0
LINE
  5
435
100
AcDbEntity
  8
0
  6
CONTINUOUS
 62
               4
100
AcDbLine
 10
57.949999551947883
 20
-13.800007629379962
 30
0.0
 11
57.949999551947883
 21
-8.2000105807537551
 31
0.0
  0
LINE
  5
436
100
AcDbEntity
  8
0
  6
CONTINUOUS
 62
               4
100
AcDbLine
 10
53.000000000000057
 20
-12.250011444084521
 30
0.0
 11
56.000000000000057
 21
-12.250011444084521
 31
0.0
  0
LINE
  5
437
100
AcDbEntity
  8
0
  6
CONTINUOUS
 62
               4
100
AcDbLine
 10
56.000000000000057
 20
-12.250011444084521
 30
0.0
 11
56.000000000000057
 21
-9.7500114440845209
 31
0.0
  0
LINE
  5
438
100
AcDbEntity
  8
0
  6
CONTINUOUS
 62
               4
100
AcDbLine
 10
53.000000000000057
 20
-9.7500114440845209
 30
0.0
 11
56.000000000000057
 21
-9.7500114440845209
 31
0.0
  0
LINE
  5
439
100
AcDbEntity
  8
0
  6
CONTINUOUS
 62
               4
100
AcDbLine
 10
57.949999551947883
 20
-8.2000105381016226
 30
0.0
 11
53.000000000000057
 21
-8.2000152587890653
 31
0.0
  0
LINE
  5
43A
100
AcDbEntity
  8
0
  6
CONTINUOUS
 62
               7
100
AcDbLine
 10
48.000000370605505
 20
-11.250007382526405
 30
0.0
 11
48.000000370605505
 21
-14.780007382526406
 31
0.0
  0
LINE
  5
43B
100
AcDbEntity
  8
0
  6
CONTINUOUS
 62
               7
100
AcDbLine
 10
50.500000370605505
 20
-13.015007382526392
 30
0.0
 11
48.000000370605505
 21
-13.015007382526392
 31
0.0
  0
ENDBLK
  5
43C
100
AcDbEntity
  8
0
100
AcDbBlockEnd
  0
BLOCK
  5
43D
100
AcDbEntity
  8
0
100
AcDbBlockBegin
  2
F10MPJ-10
 70
               0
 10
0.0
 20
0.0
 30
0.0
  3
F10MPJ-10
  1

  0
LINE
  5
43E
100
AcDbEntity
  8
0
  6
CONTINUOUS
 62
               2
100
AcDbLine
 10
9.5
 20
-0.829620361328125
 30
0.0
 11
9.5
 21
61.865722656249943
 31
0.0
  0
LINE
  5
43F
100
AcDbEntity
  8
0
  6
CONTINUOUS
 62
               7
100
AcDbLine
 10
0.0
 20
0.0
 30
0.0
 11
19.0
 21
0.0
 31
0.0
  0
LINE
  5
440
100
AcDbEntity
  8
0
  6
CONTINUOUS
 62
               7
100
AcDbLine
 10
19.0
 20
1.0
 30
0.0
 11
0.0
 21
1.0
 31
0.0
  0
LINE
  5
441
100
AcDbEntity
  8
0
  6
CONTINUOUS
 62
             200
100
AcDbLine
 10
-1.0
 20
38.999984741210881
 30
0.0
 11
20.0
 21
38.999984741210881
 31
0.0
  0
LINE
  5
442
100
AcDbEntity
  8
0
  6
CONTINUOUS
 62
               7
100
AcDbLine
 10
0.0
 20
55.999999999999943
 30
0.0
 11
0.0
 21
1.0
 31
0.0
  0
LINE
  5
443
100
AcDbEntity
  8
0
  6
CONTINUOUS
 62
               7
100
AcDbLine
 10
0.0
 20
55.999999999999943
 30
0.0
 11
19.0
 21
55.999999999999943
 31
0.0
  0
LINE
  5
444
100
AcDbEntity
  8
0
  6
CONTINUOUS
 62
               7
100
AcDbLine
 10
19.0
 20
55.999999999999943
 30
0.0
 11
19.0
 21
1.0
 31
0.0
  0
LINE
  5
445
100
AcDbEntity
  8
0
  6
CONTINUOUS
 62
               4
100
AcDbLine
 10
18.5
 20
3.199981689453125
 30
0.0
 11
18.5
 21
6.3543548583984375
 31
0.0
  0
LINE
  5
446
100
AcDbEntity
  8
0
  6
CONTINUOUS
 62
               4
100
AcDbLine
 10
0.5
 20
3.199981689453125
 30
0.0
 11
0.5
 21
6.4999847412109375
 31
0.0
  0
LINE
  5
447
100
AcDbEntity
  8
0
  6
CONTINUOUS
 62
               4
100
AcDbLine
 10
0.5
 20
55.799987792968693
 30
0.0
 11
18.5
 21
55.799987792968693
 31
0.0
  0
LINE
  5
448
100
AcDbEntity
  8
0
  6
CONTINUOUS
 62
               4
100
AcDbLine
 10
0.5
 20
3.199981689453125
 30
0.0
 11
18.5
 21
3.199981689453125
 31
0.0
  0
LINE
  5
449
100
AcDbEntity
  8
0
  6
CONTINUOUS
 62
               4
100
AcDbLine
 10
16.0
 20
52.499984741210881
 30
0.0
 11
18.5
 21
52.499984741210881
 31
0.0
  0
LINE
  5
44A
100
AcDbEntity
  8
0
  6
CONTINUOUS
 62
               4
100
AcDbLine
 10
16.0
 20
46.499984741210881
 30
0.0
 11
18.5
 21
46.499984741210881
 31
0.0
  0
LINE
  5
44B
100
AcDbEntity
  8
0
  6
CONTINUOUS
 62
               4
100
AcDbLine
 10
0.5
 20
6.4999847412109375
 30
0.0
 11
3.0
 21
6.4999847412109375
 31
0.0
  0
LINE
  5
44C
100
AcDbEntity
  8
0
  6
CONTINUOUS
 62
               4
100
AcDbLine
 10
0.5
 20
12.499984741210938
 30
0.0
 11
3.0
 21
12.499984741210938
 31
0.0
  0
LINE
  5
44D
100
AcDbEntity
  8
0
  6
CONTINUOUS
 62
               4
100
AcDbLine
 10
13.0
 20
7.5
 30
0.0
 11
13.0
 21
3.199981689453125
 31
0.0
  0
LINE
  5
44E
100
AcDbEntity
  8
0
  6
CONTINUOUS
 62
               4
100
AcDbLine
 10
6.0
 20
51.499999999999943
 30
0.0
 11
6.0
 21
55.799987792968693
 31
0.0
  0
LINE
  5
44F
100
AcDbEntity
  8
0
  6
CONTINUOUS
 62
               4
100
AcDbLine
 10
3.0
 20
48.499999999999943
 30
0.0
 11
0.5
 21
48.499999999999943
 31
0.0
  0
LINE
  5
450
100
AcDbEntity
  8
0
  6
CONTINUOUS
 62
               4
100
AcDbLine
 10
16.0
 20
10.5
 30
0.0
 11
18.5
 21
10.5
 31
0.0
  0
LINE
  5
451
100
AcDbEntity
  8
0
  6
CONTINUOUS
 62
               4
100
AcDbLine
 10
4.060724828862817
 20
50.439377918905848
 30
0.0
 11
1.9394120317932675
 21
52.560706093973749
 31
0.0
  0
LINE
  5
452
100
AcDbEntity
  8
0
  6
CONTINUOUS
 62
               4
100
AcDbLine
 10
1.9393030792713262
 20
50.439376836524389
 30
0.0
 11
4.0606228348923423
 21
52.560692300616438
 31
0.0
  0
LINE
  5
453
100
AcDbEntity
  8
0
  6
CONTINUOUS
 62
               4
100
AcDbLine
 10
14.939416204314512
 20
6.4392384468337696
 30
0.0
 11
17.060732220034879
 21
8.560563224436919
 31
0.0
  0
LINE
  5
454
100
AcDbEntity
  8
0
  6
CONTINUOUS
 62
               4
100
AcDbLine
 10
17.060665456177048
 20
6.4393208043884442
 30
0.0
 11
14.93935701139344
 21
8.5606313949283503
 31
0.0
  0
LINE
  5
455
100
AcDbEntity
  8
0
  6
CONTINUOUS
 62
               4
100
AcDbLine
 10
0.5
 20
12.499984741210938
 30
0.0
 11
0.5
 21
50.354354858398381
 31
0.0
  0
LINE
  5
456
100
AcDbEntity
  8
0
  6
CONTINUOUS
 62
               4
100
AcDbLine
 10
0.5
 20
52.645645141601506
 30
0.0
 11
0.5
 21
55.799987792968693
 31
0.0
  0
LINE
  5
457
100
AcDbEntity
  8
0
  6
CONTINUOUS
 62
               4
100
AcDbLine
 10
18.5
 20
52.499984741210881
 30
0.0
 11
18.5
 21
55.799987792968693
 31
0.0
  0
LINE
  5
458
100
AcDbEntity
  8
0
  6
CONTINUOUS
 62
               4
100
AcDbLine
 10
18.5
 20
8.6456451416015625
 30
0.0
 11
18.5
 21
46.499984741210881
 31
0.0
  0
LINE
  5
459
100
AcDbEntity
  8
0
  6
CONTINUOUS
 62
               4
100
AcDbLine
 10
13.25
 20
56.499999999999943
 30
0.0
 11
13.25
 21
55.999999999999943
 31
0.0
  0
LINE
  5
45A
100
AcDbEntity
  8
0
  6
CONTINUOUS
 62
               4
100
AcDbLine
 10
18.75
 20
56.499999999999943
 30
0.0
 11
18.75
 21
55.999999999999943
 31
0.0
  0
LINE
  5
45B
100
AcDbEntity
  8
0
  6
CONTINUOUS
 62
               4
100
AcDbLine
 10
0.5
 20
57.999999999999943
 30
0.0
 11
17.25
 21
57.999999999999943
 31
0.0
  0
LINE
  5
45C
100
AcDbEntity
  8
0
  6
CONTINUOUS
 62
               4
100
AcDbLine
 10
0.5
 20
57.999999999999943
 30
0.0
 11
0.5
 21
55.999999999999943
 31
0.0
  0
LINE
  5
45D
100
AcDbEntity
  8
0
  6
CONTINUOUS
 62
               4
100
AcDbLine
 10
13.0
 20
57.999999999999943
 30
0.0
 11
13.0
 21
55.999999999999943
 31
0.0
  0
CIRCLE
  5
45E
100
AcDbEntity
  8
0
  6
CONTINUOUS
 62
               4
100
AcDbCircle
 10
3.0
 20
51.499999999999943
 30
0.0
 40
2.75
  0
ARC
  5
45F
100
AcDbEntity
  8
0
  6
CONTINUOUS
 62
               4
100
AcDbCircle
 10
16.0
 20
49.499999999999943
 30
0.0
 40
3.0
100
AcDbArc
 50
89.999982013910653
 51
269.99994604173196
  0
ARC
  5
460
100
AcDbEntity
  8
0
  6
CONTINUOUS
 62
               4
100
AcDbCircle
 10
3.0
 20
9.5
 30
0.0
 40
3.0
100
AcDbArc
 50
269.99996334457597
 51
89.999982013910653
  0
ARC
  5
461
100
AcDbEntity
  8
0
  6
CONTINUOUS
 62
               4
100
AcDbCircle
 10
3.0
 20
51.499999999999943
 30
0.0
 40
3.0
100
AcDbArc
 50
270.00001798608935
 51
0.00001366037834
  0
ARC
  5
462
100
AcDbEntity
  8
0
  6
CONTINUOUS
 62
               4
100
AcDbCircle
 10
16.0
 20
7.5
 30
0.0
 40
3.0
100
AcDbArc
 50
89.999982013910653
 51
179.99996402782131
  0
CIRCLE
  5
463
100
AcDbEntity
  8
0
  6
CONTINUOUS
 62
               4
100
AcDbCircle
 10
16.0
 20
7.5
 30
0.0
 40
2.75
  0
ARC
  5
464
100
AcDbEntity
  8
0
  6
CONTINUOUS
 62
               4
100
AcDbCircle
 10
17.25
 20
56.499999999999943
 30
0.0
 40
1.5
100
AcDbArc
 50
0.0
 51
89.999982013910653
  0
ARC
  5
465
100
AcDbEntity
  8
0
  6
CONTINUOUS
 62
               4
100
AcDbCircle
 10
14.75
 20
56.499999999999943
 30
0.0
 40
1.5
100
AcDbArc
 50
89.999982013910653
 51
179.99996402782131
  0
LINE
  5
466
100
AcDbEntity
  8
0
  6
CONTINUOUS
 62
               4
100
AcDbLine
 10
0.5
 20
47.139730703366467
 30
0.0
 11
5.7788394724801719
 21
47.139730703366467
 31
0.0
  0
CIRCLE
  5
467
100
AcDbEntity
  8
0
  6
CONTINUOUS
 62
               4
100
AcDbCircle
 10
9.5
 20
38.999984741210881
 30
0.0
 40
4.0499999999999998
  0
CIRCLE
  5
468
100
AcDbEntity
  8
0
  6
CONTINUOUS
 62
               4
100
AcDbCircle
 10
9.5
 20
38.999984741210881
 30
0.0
 40
5.0499999999999998
  0
ARC
  5
469
100
AcDbEntity
  8
0
  6
CONTINUOUS
 62
               4
100
AcDbCircle
 10
9.5
 20
38.999984741210881
 30
0.0
 40
8.4000000000000004
100
AcDbArc
 50
7.1848403149542639
 51
172.81515968504576
  0
CIRCLE
  5
46A
100
AcDbEntity
  8
0
  6
CONTINUOUS
 62
               4
100
AcDbCircle
 10
9.5
 20
38.999984741210881
 30
0.0
 40
8.9499999999999993
  0
LINE
  5
46B
100
AcDbEntity
  8
0
  6
CONTINUOUS
 62
               4
100
AcDbLine
 10
1.6000000000000227
 20
38.199984741210869
 30
0.0
 11
1.6000000000000227
 21
39.799984735250405
 31
0.0
  0
LINE
  5
46C
100
AcDbEntity
  8
0
  6
CONTINUOUS
 62
               4
100
AcDbLine
 10
17.399999999999977
 20
38.199984741210869
 30
0.0
 11
17.399999999999977
 21
39.799984735250405
 31
0.0
  0
LINE
  5
46D
100
AcDbEntity
  8
0
  6
CONTINUOUS
 62
               4
100
AcDbLine
 10
17.399999999999977
 20
39.799984741210892
 30
0.0
 11
17.834041755690464
 21
40.050578865698299
 31
0.0
  0
LINE
  5
46E
100
AcDbEntity
  8
0
  6
CONTINUOUS
 62
               4
100
AcDbLine
 10
1.6000000000000227
 20
39.799984741210892
 30
0.0
 11
1.165958244309536
 21
40.050578865698299
 31
0.0
  0
ARC
  5
46F
100
AcDbEntity
  8
0
  6
CONTINUOUS
 62
               4
100
AcDbCircle
 10
9.5
 20
19.999984741210881
 30
0.0
 40
8.4000000000000004
100
AcDbArc
 50
187.18484031495424
 51
352.81515968504578
  0
CIRCLE
  5
470
100
AcDbEntity
  8
0
  6
CONTINUOUS
 62
               4
100
AcDbCircle
 10
9.5
 20
19.999984741210881
 30
0.0
 40
8.9499999999999993
  0
ARC
  5
471
100
AcDbEntity
  8
0
  6
CONTINUOUS
 62
               4
100
AcDbCircle
 10
9.5
 20
38.999984741210881
 30
0.0
 40
8.4000000000000004
100
AcDbArc
 50
187.18484031495424
 51
352.81515968504578
  0
ARC
  5
472
100
AcDbEntity
  8
0
  6
CONTINUOUS
 62
               4
100
AcDbCircle
 10
9.5
 20
19.999984741210881
 30
0.0
 40
8.4000000000000004
100
AcDbArc
 50
7.1848403149542639
 51
172.81515968504576
  0
CIRCLE
  5
473
100
AcDbEntity
  8
0
  6
CONTINUOUS
 62
               4
100
AcDbCircle
 10
9.5
 20
19.999984741210881
 30
0.0
 40
5.0499999999999998
  0
CIRCLE
  5
474
100
AcDbEntity
  8
0
  6
CONTINUOUS
 62
               4
100
AcDbCircle
 10
9.5
 20
19.999984741210881
 30
0.0
 40
4.0499999999999998
  0
LINE
  5
475
100
AcDbEntity
  8
0
  6
CONTINUOUS
 62
               4
100
AcDbLine
 10
10.25
 20
29.190196925921327
 30
0.0
 11
10.25
 21
29.809772556500434
 31
0.0
  0
LINE
  5
476
100
AcDbEntity
  8
0
  6
CONTINUOUS
 62
               4
100
AcDbLine
 10
8.75
 20
29.190196925921327
 30
0.0
 11
8.75
 21
29.809772556500434
 31
0.0
  0
ARC
  5
477
100
AcDbEntity
  8
0
  6
CONTINUOUS
 62
               4
100
AcDbCircle
 10
8.4499999999999318
 20
29.809772556500434
 30
0.0
 40
0.3
100
AcDbArc
 50
0.0
 51
83.482105791022747
  0
ARC
  5
478
100
AcDbEntity
  8
0
  6
CONTINUOUS
 62
               4
100
AcDbCircle
 10
8.4499999999999318
 20
29.190196925921327
 30
0.0
 40
0.3
100
AcDbArc
 50
276.51789420897717
 51
0.0
  0
ARC
  5
479
100
AcDbEntity
  8
0
  6
CONTINUOUS
 62
               4
100
AcDbCircle
 10
10.549999999999955
 20
29.809772556500434
 30
0.0
 40
0.3
100
AcDbArc
 50
96.517894208978589
 51
180.0
  0
ARC
  5
47A
100
AcDbEntity
  8
0
  6
CONTINUOUS
 62
               4
100
AcDbCircle
 10
10.549999999999955
 20
29.190196925921327
 30
0.0
 40
0.3
100
AcDbArc
 50
180.0
 51
263.48210579102283
  0
LINE
  5
47B
100
AcDbEntity
  8
0
  6
CONTINUOUS
 62
               4
100
AcDbLine
 10
17.399999999999977
 20
38.199984741210869
 30
0.0
 11
17.834041755690464
 21
37.949390616723463
 31
0.0
  0
LINE
  5
47C
100
AcDbEntity
  8
0
  6
CONTINUOUS
 62
               4
100
AcDbLine
 10
1.6000000000000227
 20
38.199984741210869
 30
0.0
 11
1.165958244309536
 21
37.949390616723463
 31
0.0
  0
LINE
  5
47D
100
AcDbEntity
  8
0
  6
CONTINUOUS
 62
               4
100
AcDbLine
 10
1.6000000000000227
 20
19.199984741210869
 30
0.0
 11
1.165958244309536
 21
18.949390616723463
 31
0.0
  0
LINE
  5
47E
100
AcDbEntity
  8
0
  6
CONTINUOUS
 62
               4
100
AcDbLine
 10
1.6000000000000227
 20
20.799984741210892
 30
0.0
 11
1.165958244309536
 21
21.050578865698299
 31
0.0
  0
LINE
  5
47F
100
AcDbEntity
  8
0
  6
CONTINUOUS
 62
               4
100
AcDbLine
 10
1.6000000000000227
 20
19.199984741210869
 30
0.0
 11
1.6000000000000227
 21
20.799984735250405
 31
0.0
  0
LINE
  5
480
100
AcDbEntity
  8
0
  6
CONTINUOUS
 62
               4
100
AcDbLine
 10
17.399999999999977
 20
19.199984741210869
 30
0.0
 11
17.834041755690464
 21
18.949390616723463
 31
0.0
  0
LINE
  5
481
100
AcDbEntity
  8
0
  6
CONTINUOUS
 62
               4
100
AcDbLine
 10
17.399999999999977
 20
20.799984741210892
 30
0.0
 11
17.834041755690464
 21
21.050578865698299
 31
0.0
  0
LINE
  5
482
100
AcDbEntity
  8
0
  6
CONTINUOUS
 62
               4
100
AcDbLine
 10
17.399999999999977
 20
19.199984741210869
 30
0.0
 11
17.399999999999977
 21
20.799984735250405
 31
0.0
  0
LINE
  5
483
100
AcDbEntity
  8
0
  6
CONTINUOUS
 62
               4
100
AcDbLine
 10
13.221160531044006
 20
11.860238779055294
 30
0.0
 11
18.5
 21
11.860238779055294
 31
0.0
  0
LINE
  5
484
100
AcDbEntity
  8
0
  6
CONTINUOUS
 62
               4
100
AcDbLine
 10
13.221160527519828
 20
47.139730703366467
 30
0.0
 11
14.148214148469265
 21
47.139730703366467
 31
0.0
  0
LINE
  5
485
100
AcDbEntity
  8
0
  6
CONTINUOUS
 62
               4
100
AcDbLine
 10
4.851834472360224
 20
11.860238779055294
 30
0.0
 11
5.7788394689559937
 21
11.860238779055294
 31
0.0
  0
LINE
  5
486
100
AcDbEntity
  8
0
  6
CONTINUOUS
 62
             200
100
AcDbLine
 10
-1.0
 20
19.999984741210881
 30
0.0
 11
20.0
 21
19.999984741210881
 31
0.0
  0
ENDBLK
  5
487
100
AcDbEntity
  8
0
100
AcDbBlockEnd
  0
BLOCK
  5
488
100
AcDbEntity
  8
0
100
AcDbBlockBegin
  2
F10MPJ-11
 70
               0
 10
0.0
 20
0.0
 30
0.0
  3
F10MPJ-11
  1

  0
LINE
  5
48A
100
AcDbEntity
  8
0
  6
CENTER
 62
               2
100
AcDbLine
 10
9.5
 20
-25.5
 30
0.0
 11
9.5
 21
64.829999999999998
 31
0.0
  0
LINE
  5
48B
100
AcDbEntity
  8
0
  6
CONTINUOUS
 62
             200
100
AcDbLine
 10
9.5
 20
-40.598320007324219
 30
0.0
 11
9.5
 21
-25.5
 31
0.0
  0
LINE
  5
48C
100
AcDbEntity
  8
0
  6
CONTINUOUS
 62
               7
100
AcDbLine
 10
0.0
 20
61.0
 30
0.0
 11
19.0
 21
61.0
 31
0.0
  0
LINE
  5
48D
100
AcDbEntity
  8
0
  6
CONTINUOUS
 62
               7
100
AcDbLine
 10
0.0
 20
-17.5
 30
0.0
 11
19.0
 21
-17.5
 31
0.0
  0
LINE
  5
48E
100
AcDbEntity
  8
0
  6
CONTINUOUS
 62
               7
100
AcDbLine
 10
0.0
 20
62.5
 30
0.0
 11
19.0
 21
62.5
 31
0.0
  0
LINE
  5
48F
100
AcDbEntity
  8
0
  6
CONTINUOUS
 62
               7
100
AcDbLine
 10
0.0
 20
61.5
 30
0.0
 11
19.0
 21
61.5
 31
0.0
  0
LINE
  5
490
100
AcDbEntity
  8
0
  6
CONTINUOUS
 62
               7
100
AcDbLine
 10
0.0
 20
35.5
 30
0.0
 11
19.0
 21
35.5
 31
0.0
  0
LINE
  5
491
100
AcDbEntity
  8
0
  6
CONTINUOUS
 62
               4
100
AcDbLine
 10
0.5
 20
35.299972534179687
 30
0.0
 11
18.5
 21
35.299972534179687
 31
0.0
  0
LINE
  5
492
100
AcDbEntity
  8
0
  6
CONTINUOUS
 62
               4
100
AcDbLine
 10
0.5
 20
-17.300018310546875
 30
0.0
 11
18.5
 21
-17.300018310546875
 31
0.0
  0
LINE
  5
493
100
AcDbEntity
  8
0
  6
CONTINUOUS
 62
               4
100
AcDbLine
 10
16.0
 20
31.999984741210937
 30
0.0
 11
18.5
 21
31.999984741210937
 31
0.0
  0
LINE
  5
494
100
AcDbEntity
  8
0
  6
CONTINUOUS
 62
               4
100
AcDbLine
 10
16.0
 20
25.999984741210937
 30
0.0
 11
18.5
 21
25.999984741210937
 31
0.0
  0
LINE
  5
495
100
AcDbEntity
  8
0
  6
CONTINUOUS
 62
               4
100
AcDbLine
 10
0.5
 20
-14.000015258789063
 30
0.0
 11
3.0
 21
-14.000015258789063
 31
0.0
  0
LINE
  5
496
100
AcDbEntity
  8
0
  6
CONTINUOUS
 62
               4
100
AcDbLine
 10
0.5
 20
-8.0000152587890625
 30
0.0
 11
3.0
 21
-8.0000152587890625
 31
0.0
  0
LINE
  5
497
100
AcDbEntity
  8
0
  6
CONTINUOUS
 62
               4
100
AcDbLine
 10
6.0
 20
31.0
 30
0.0
 11
6.0
 21
35.29998779296875
 31
0.0
  0
LINE
  5
498
100
AcDbEntity
  8
0
  6
CONTINUOUS
 62
               4
100
AcDbLine
 10
3.0
 20
27.999984741210937
 30
0.0
 11
0.5
 21
27.999984741210937
 31
0.0
  0
LINE
  5
499
100
AcDbEntity
  8
0
  6
CONTINUOUS
 62
               4
100
AcDbLine
 10
0.5
 20
-15.300018310546875
 30
0.0
 11
13.0
 21
-15.300018310546875
 31
0.0
  0
LINE
  5
49A
100
AcDbEntity
  8
0
  6
CONTINUOUS
 62
               4
100
AcDbLine
 10
6.0
 20
33.299972534179687
 30
0.0
 11
18.5
 21
33.299972534179687
 31
0.0
  0
LINE
  5
49B
100
AcDbEntity
  8
0
  6
CONTINUOUS
 62
               4
100
AcDbLine
 10
18.5
 20
-17.300018310546875
 30
0.0
 11
18.5
 21
-14.260955810546875
 31
0.0
  0
LINE
  5
49C
100
AcDbEntity
  8
0
  6
CONTINUOUS
 62
               4
100
AcDbLine
 10
0.5
 20
-17.300018310546875
 30
0.0
 11
0.5
 21
-14.000015258789063
 31
0.0
  0
LINE
  5
49D
100
AcDbEntity
  8
0
  6
CONTINUOUS
 62
               4
100
AcDbLine
 10
16.0
 20
-10.000015258789062
 30
0.0
 11
18.5
 21
-10.000015258789062
 31
0.0
  0
LINE
  5
49E
100
AcDbEntity
  8
0
  6
CONTINUOUS
 62
               4
100
AcDbLine
 10
13.0
 20
-13.0
 30
0.0
 11
13.0
 21
-17.300018310546875
 31
0.0
  0
LINE
  5
49F
100
AcDbEntity
  8
0
  6
CONTINUOUS
 62
               4
100
AcDbLine
 10
0.5
 20
-8.0000152587890625
 30
0.0
 11
0.5
 21
29.739044189453125
 31
0.0
  0
LINE
  5
4A0
100
AcDbEntity
  8
0
  6
CONTINUOUS
 62
               4
100
AcDbLine
 10
18.5
 20
31.999984741210937
 30
0.0
 11
18.5
 21
35.299972534179687
 31
0.0
  0
LINE
  5
4A1
100
AcDbEntity
  8
0
  6
CONTINUOUS
 62
               4
100
AcDbLine
 10
0.5
 20
32.260955810546875
 30
0.0
 11
0.5
 21
35.299972534179687
 31
0.0
  0
LINE
  5
4A2
100
AcDbEntity
  8
0
  6
CONTINUOUS
 62
               4
100
AcDbLine
 10
18.5
 20
-11.739044189453125
 30
0.0
 11
18.5
 21
25.999984741210937
 31
0.0
  0
LINE
  5
4A3
100
AcDbEntity
  8
0
  6
CONTINUOUS
 62
               4
100
AcDbLine
 10
14.939372701802313
 20
-14.060674921698592
 30
0.0
 11
17.060693187871038
 21
-11.939354614443801
 31
0.0
  0
LINE
  5
4A4
100
AcDbEntity
  8
0
  6
CONTINUOUS
 62
               4
100
AcDbLine
 10
14.939394370399896
 20
-11.939268208289832
 30
0.0
 11
17.060714677654687
 21
-14.060588694358557
 31
0.0
  0
LINE
  5
4A5
100
AcDbEntity
  8
0
  6
CONTINUOUS
 62
               7
100
AcDbLine
 10
18.5
 20
-28.5
 30
0.0
 11
0.25
 21
-28.5
 31
0.0
  0
LINE
  5
4A6
100
AcDbEntity
  8
0
  6
CONTINUOUS
 62
               7
100
AcDbLine
 10
5.75
 20
-29.000001907348633
 30
0.0
 11
5.75
 21
-28.500001907348633
 31
0.0
  0
LINE
  5
4A7
100
AcDbEntity
  8
0
  6
CONTINUOUS
 62
               7
100
AcDbLine
 10
0.25
 20
-29.000003814697266
 30
0.0
 11
0.25
 21
-28.500003814697266
 31
0.0
  0
LINE
  5
4A8
100
AcDbEntity
  8
0
  6
CONTINUOUS
 62
               4
100
AcDbLine
 10
4.25
 20
-30.500001907348633
 30
0.0
 11
1.75
 21
-30.500001907348633
 31
0.0
  0
LINE
  5
4A9
100
AcDbEntity
  8
0
  6
CONTINUOUS
 62
               4
100
AcDbLine
 10
18.5
 20
-37.000001907348633
 30
0.0
 11
18.5
 21
-25.5
 31
0.0
  0
LINE
  5
4AA
100
AcDbEntity
  8
0
  6
CONTINUOUS
 62
               7
100
AcDbLine
 10
0.5
 20
-28.5
 30
0.0
 11
0.5
 21
-25.5
 31
0.0
  0
LINE
  5
4AB
100
AcDbEntity
  8
0
  6
CONTINUOUS
 62
               4
100
AcDbLine
 10
6.0
 20
-32.500001907348633
 30
0.0
 11
6.0
 21
-28.5
 31
0.0
  0
LINE
  5
4AC
100
AcDbEntity
  8
0
  6
CONTINUOUS
 62
               4
100
AcDbLine
 10
1.9394034554752579
 20
32.060737745646293
 30
0.0
 11
4.0607237627300492
 21
29.939417259577567
 31
0.0
  0
LINE
  5
4AD
100
AcDbEntity
  8
0
  6
CONTINUOUS
 62
               4
100
AcDbLine
 10
1.9393109801688979
 20
29.939293943012899
 30
0.0
 11
4.0606314662376235
 21
32.06061425026769
 31
0.0
  0
LINE
  5
4AE
100
AcDbEntity
  8
0
  6
CONTINUOUS
 62
               7
100
AcDbLine
 10
0.0
 20
-25.5
 30
0.0
 11
19.0
 21
-25.5
 31
0.0
  0
LINE
  5
4AF
100
AcDbEntity
  8
0
  6
CONTINUOUS
 62
               4
100
AcDbLine
 10
0.5
 20
-29.829158782958984
 30
0.0
 11
0.5
 21
-37.000001907348633
 31
0.0
  0
LINE
  5
4B0
100
AcDbEntity
  8
0
  6
CONTINUOUS
 62
               4
100
AcDbLine
 10
1.0
 20
-37.500001907348633
 30
0.0
 11
18.0
 21
-37.500001907348633
 31
0.0
  0
ARC
  5
4B1
100
AcDbEntity
  8
0
  6
CONTINUOUS
 62
               4
100
AcDbCircle
 10
16.0
 20
29.0
 30
0.0
 40
3.0
100
AcDbArc
 50
89.999982013910653
 51
269.99994604173196
  0
ARC
  5
4B2
100
AcDbEntity
  8
0
  6
CONTINUOUS
 62
               4
100
AcDbCircle
 10
3.0
 20
-11.0
 30
0.0
 40
3.0
100
AcDbArc
 50
269.99996334457597
 51
89.999982013910653
  0
ARC
  5
4B3
100
AcDbEntity
  8
0
  6
CONTINUOUS
 62
               4
100
AcDbCircle
 10
3.0
 20
31.0
 30
0.0
 40
3.0
100
AcDbArc
 50
270.00001798608935
 51
0.00001366037834
  0
ARC
  5
4B4
100
AcDbEntity
  8
0
  6
CONTINUOUS
 62
               4
100
AcDbCircle
 10
16.0
 20
-13.0
 30
0.0
 40
3.0
100
AcDbArc
 50
89.999982013910653
 51
179.99996402782131
  0
CIRCLE
  5
4B5
100
AcDbEntity
  8
0
  6
CONTINUOUS
 62
               4
100
AcDbCircle
 10
16.0
 20
-13.0
 30
0.0
 40
2.7999992370605469
  0
ARC
  5
4B6
100
AcDbEntity
  8
0
  6
CONTINUOUS
 62
               4
100
AcDbCircle
 10
1.75
 20
-29.000003814697266
 30
0.0
 40
1.5
100
AcDbArc
 50
180.00003597217869
 51
270.00001798608935
  0
ARC
  5
4B7
100
AcDbEntity
  8
0
  6
CONTINUOUS
 62
               4
100
AcDbCircle
 10
4.25
 20
-29.000001907348633
 30
0.0
 40
1.5
100
AcDbArc
 50
270.00001798608935
 51
359.99995901886496
  0
CIRCLE
  5
4B8
100
AcDbEntity
  8
0
  6
CONTINUOUS
 62
               4
100
AcDbCircle
 10
3.0
 20
31.0
 30
0.0
 40
2.7999992370605469
  0
ARC
  5
4B9
100
AcDbEntity
  8
0
  6
CONTINUOUS
 62
               4
100
AcDbCircle
 10
1.0
 20
-37.000001907348633
 30
0.0
 40
0.5
100
AcDbArc
 50
179.99998133066532
 51
270.00001798608935
  0
ARC
  5
4BA
100
AcDbEntity
  8
0
  6
CONTINUOUS
 62
               4
100
AcDbCircle
 10
18.0
 20
-37.000001907348633
 30
0.0
 40
0.5
100
AcDbArc
 50
270.00001798608935
 51
0.0
  0
LINE
  5
4BB
100
AcDbEntity
  8
0
  6
CONTINUOUS
 62
               4
100
AcDbLine
 10
18.5
 20
-32.500001907348633
 30
0.0
 11
0.5
 21
-32.500001907348633
 31
0.0
  0
LINE
  5
4BC
100
AcDbEntity
  8
0
  6
CONTINUOUS
 62
               7
100
AcDbLine
 10
19.0
 20
-25.5
 30
0.0
 11
19.0
 21
62.5
 31
0.0
  0
LINE
  5
4BD
100
AcDbEntity
  8
0
  6
CONTINUOUS
 62
               7
100
AcDbLine
 10
0.0
 20
-25.5
 30
0.0
 11
0.0
 21
62.5
 31
0.0
  0
LINE
  5
4BE
100
AcDbEntity
  8
0
  6
CONTINUOUS
 62
               2
100
AcDbLine
 10
9.5
 20
-25.5
 30
0.0
 11
9.5
 21
64.833328247070313
 31
0.0
  0
ENDBLK
  5
4BF
100
AcDbEntity
  8
0
100
AcDbBlockEnd
  0
BLOCK
  5
4C0
100
AcDbEntity
  8
0
100
AcDbBlockBegin
  2
F10MPJ-12
 70
               0
 10
0.0
 20
0.0
 30
0.0
  3
F10MPJ-12
  1

  0
LINE
  5
4C1
100
AcDbEntity
  8
0
  6
CONTINUOUS
 62
               2
100
AcDbLine
 10
-11.466222442713104
 20
0.0
 30
0.0
 11
16.255566875490672
 21
0.0
 31
0.0
  0
LINE
  5
4C2
100
AcDbEntity
  8
0
  6
CONTINUOUS
 62
               7
100
AcDbLine
 10
4.0
 20
62.5
 30
0.0
 11
35.0
 21
62.5
 31
0.0
  0
LINE
  5
4C3
100
AcDbEntity
  8
0
  6
CONTINUOUS
 62
               7
100
AcDbLine
 10
1.0
 20
30.5
 30
0.0
 11
35.0
 21
30.5
 31
0.0
  0
LINE
  5
4C4
100
AcDbEntity
  8
0
  6
CONTINUOUS
 62
               7
100
AcDbLine
 10
3.0
 20
-28.5
 30
0.0
 11
3.0
 21
-25.5
 31
0.0
  0
LINE
  5
4C5
100
AcDbEntity
  8
0
  6
CONTINUOUS
 62
               7
100
AcDbLine
 10
6.6896931820922418
 20
18.377852274645591
 30
0.0
 11
6.4113270459830574
 21
16.429289321881356
 31
0.0
  0
LINE
  5
4C6
100
AcDbEntity
  8
0
  6
CONTINUOUS
 62
               7
100
AcDbLine
 10
6.6896931820922418
 20
-18.377852274645591
 30
0.0
 11
6.4113270459830574
 21
-16.429289321881356
 31
0.0
  0
ARC
  5
4C7
100
AcDbEntity
  8
0
  6
CONTINUOUS
 62
               7
100
AcDbCircle
 10
5.9163522991525497
 20
-16.5
 30
0.0
 40
0.5
100
AcDbArc
 50
8.1301023541559339
 51
90.000000000000014
  0
LINE
  5
4C8
100
AcDbEntity
  8
0
  6
CONTINUOUS
 62
               7
100
AcDbLine
 10
2.8500000000000227
 20
-18.0
 30
0.0
 11
2.8500000000000227
 21
-20.168330610420725
 31
0.0
  0
ARC
  5
4C9
100
AcDbEntity
  8
0
  6
CONTINUOUS
 62
               7
100
AcDbCircle
 10
4.8500000000000227
 20
-18.0
 30
0.0
 40
2.0
100
AcDbArc
 50
90.0
 51
180.0
  0
LINE
  5
4CA
100
AcDbEntity
  8
0
  6
CONTINUOUS
 62
               7
100
AcDbLine
 10
5.9163522991525497
 20
-16.0
 30
0.0
 11
4.8500000000000227
 21
-16.0
 31
0.0
  0
ARC
  5
4CB
100
AcDbEntity
  8
0
  6
CONTINUOUS
 62
               7
100
AcDbCircle
 10
5.916352299152436
 20
16.5
 30
0.0
 40
0.5
100
AcDbArc
 50
270.0
 51
351.86989764584399
  0
ARC
  5
4CC
100
AcDbEntity
  8
0
  6
CONTINUOUS
 62
               7
100
AcDbCircle
 10
4.8500000000000227
 20
18.0
 30
0.0
 40
2.0
100
AcDbArc
 50
180.0
 51
270.0
  0
LINE
  5
4CD
100
AcDbEntity
  8
0
  6
CONTINUOUS
 62
               7
100
AcDbLine
 10
5.916352299152436
 20
16.0
 30
0.0
 11
4.8500000000000227
 21
16.0
 31
0.0
  0
LINE
  5
4CE
100
AcDbEntity
  8
0
  6
CONTINUOUS
 62
               7
100
AcDbLine
 10
2.8500000000000227
 20
20.168330610420725
 30
0.0
 11
2.8500000000000227
 21
18.0
 31
0.0
  0
LINE
  5
4CF
100
AcDbEntity
  8
0
  6
CONTINUOUS
 62
               7
100
AcDbLine
 10
1.0
 20
59.500000000000057
 30
0.0
 11
1.0
 21
21.03099977800747
 31
0.0
  0
LINE
  5
4D0
100
AcDbEntity
  8
0
  6
CONTINUOUS
 62
               7
100
AcDbLine
 10
7.5
 20
-18.0
 30
0.0
 11
1.0
 21
-21.03099977800747
 31
0.0
  0
LINE
  5
4D1
100
AcDbEntity
  8
0
  6
CONTINUOUS
 62
               7
100
AcDbLine
 10
7.5
 20
18.0
 30
0.0
 11
1.0
 21
21.03099977800747
 31
0.0
  0
LINE
  5
4D2
100
AcDbEntity
  8
0
  6
CONTINUOUS
 62
               7
100
AcDbLine
 10
1.0
 20
-23.5
 30
0.0
 11
3.0
 21
-25.5
 31
0.0
  0
LINE
  5
4D3
100
AcDbEntity
  8
0
  6
CONTINUOUS
 62
               7
100
AcDbLine
 10
1.0
 20
-23.5
 30
0.0
 11
1.0
 21
-21.03099977800747
 31
0.0
  0
LINE
  5
4D4
100
AcDbEntity
  8
0
  6
CONTINUOUS
 62
               7
100
AcDbLine
 10
7.5
 20
-18.0
 30
0.0
 11
7.5
 21
18.0
 31
0.0
  0
ARC
  5
4D5
100
AcDbEntity
  8
0
  6
CONTINUOUS
 62
               7
100
AcDbCircle
 10
4.0
 20
59.5
 30
0.0
 40
3.0
100
AcDbArc
 50
89.999963344575988
 51
179.99994535848663
  0
LINE
  5
4D6
100
AcDbEntity
  8
0
  6
CONTINUOUS
 62
               7
100
AcDbLine
 10
2.0
 20
-12.5
 30
0.0
 11
2.0
 21
12.5
 31
0.0
  0
LINE
  5
4D7
100
AcDbEntity
  8
0
  6
CONTINUOUS
 62
               7
100
AcDbLine
 10
0.0
 20
-14.5
 30
0.0
 11
0.0
 21
14.5
 31
0.0
  0
LINE
  5
4D8
100
AcDbEntity
  8
0
  6
CONTINUOUS
 62
               7
100
AcDbLine
 10
0.0
 20
14.5
 30
0.0
 11
6.5
 21
14.5
 31
0.0
  0
LINE
  5
4D9
100
AcDbEntity
  8
0
  6
CONTINUOUS
 62
               7
100
AcDbLine
 10
0.0
 20
-14.5
 30
0.0
 11
6.5
 21
-14.5
 31
0.0
  0
LINE
  5
4DA
100
AcDbEntity
  8
0
  6
CONTINUOUS
 62
               7
100
AcDbLine
 10
2.0
 20
-12.5
 30
0.0
 11
7.5
 21
-12.5
 31
0.0
  0
LINE
  5
4DB
100
AcDbEntity
  8
0
  6
CONTINUOUS
 62
               7
100
AcDbLine
 10
2.0
 20
12.5
 30
0.0
 11
7.5
 21
12.5
 31
0.0
  0
LINE
  5
4DC
100
AcDbEntity
  8
0
  6
CONTINUOUS
 62
               7
100
AcDbLine
 10
6.5
 20
14.5
 30
0.0
 11
6.5
 21
17.5
 31
0.0
  0
LINE
  5
4DD
100
AcDbEntity
  8
0
  6
CONTINUOUS
 62
               7
100
AcDbLine
 10
6.5
 20
-17.5
 30
0.0
 11
6.5
 21
-14.5
 31
0.0
  0
LINE
  5
4DE
100
AcDbEntity
  8
0
  6
CONTINUOUS
 62
               7
100
AcDbLine
 10
6.5
 20
17.5
 30
0.0
 11
7.5
 21
17.5
 31
0.0
  0
LINE
  5
4DF
100
AcDbEntity
  8
0
  6
CONTINUOUS
 62
               7
100
AcDbLine
 10
6.5
 20
-17.5
 30
0.0
 11
7.5
 21
-17.5
 31
0.0
  0
LINE
  5
4E0
100
AcDbEntity
  8
0
  6
CONTINUOUS
 62
               7
100
AcDbLine
 10
3.20001220703125
 20
-30.5
 30
0.0
 11
34.5
 21
-30.5
 31
0.0
  0
LINE
  5
4E1
100
AcDbEntity
  8
0
  6
CONTINUOUS
 62
               7
100
AcDbLine
 10
5.0
 20
-30.5
 30
0.0
 11
3.0
 21
-28.5
 31
0.0
  0
LINE
  5
4E2
100
AcDbEntity
  8
0
  6
CONTINUOUS
 62
               7
100
AcDbLine
 10
3.20001220703125
 20
-28.699996948242188
 30
0.0
 11
3.20001220703125
 21
-30.5
 31
0.0
  0
LINE
  5
4E3
100
AcDbEntity
  8
0
  6
CONTINUOUS
 62
               7
100
AcDbLine
 10
35.0
 20
-30.0
 30
0.0
 11
35.0
 21
62.5
 31
0.0
  0
ARC
  5
4E4
100
AcDbEntity
  8
0
  6
CONTINUOUS
 62
               7
100
AcDbCircle
 10
34.500073934956731
 20
-30.000073934956674
 30
0.0
 40
0.4999260705104662
100
AcDbArc
 50
269.99152642511825
 51
0.0084735748821464
  0
ENDBLK
  5
4E5
100
AcDbEntity
  8
0
100
AcDbBlockEnd
  0
BLOCK
  5
4E6
100
AcDbEntity
  8
0
100
AcDbBlockBegin
  2
F10MPJ-13
 70
               0
 10
0.0
 20
0.0
 30
0.0
  3
F10MPJ-13
  1

  0
LINE
  5
4E7
100
AcDbEntity
  8
0
  6
CONTINUOUS
 62
             200
100
AcDbLine
 10
39.000000000000028
 20
-32.500001907348633
 30
0.0
 11
39.000000000000028
 21
-41.139848720068301
 31
0.0
  0
LINE
  5
4E8
100
AcDbEntity
  8
0
  6
CONTINUOUS
 62
               4
100
AcDbLine
 10
11.500000000000028
 20
-37.500001907348633
 30
0.0
 11
28.500000000000028
 21
-37.500001907348633
 31
0.0
  0
LINE
  5
4E9
100
AcDbEntity
  8
0
  6
CONTINUOUS
 62
               7
100
AcDbLine
 10
56.000000000000028
 20
60.999999999999986
 30
0.0
 11
36.000000000000028
 21
60.999999999999986
 31
0.0
  0
LINE
  5
4EA
100
AcDbEntity
  8
0
  6
CONTINUOUS
 62
               7
100
AcDbLine
 10
54.500000000000028
 20
-19.000000000000014
 30
0.0
 11
48.500000000000028
 21
-19.000000000000014
 31
0.0
  0
LINE
  5
4EB
100
AcDbEntity
  8
0
  6
CONTINUOUS
 62
               7
100
AcDbLine
 10
50.500000000000028
 20
-28.5
 30
0.0
 11
48.500000000000028
 21
-28.5
 31
0.0
  0
LINE
  5
4EC
100
AcDbEntity
  8
0
  6
CONTINUOUS
 62
               7
100
AcDbLine
 10
56.000000000000028
 20
35.499999999999986
 30
0.0
 11
56.000000000000028
 21
60.999999999999986
 31
0.0
  0
LINE
  5
4ED
100
AcDbEntity
  8
0
  6
CONTINUOUS
 62
               7
100
AcDbLine
 10
52.299987792968778
 20
-30.0
 30
0.0
 11
52.299987792968778
 21
-25.5
 31
0.0
  0
LINE
  5
4EE
100
AcDbEntity
  8
0
  6
CONTINUOUS
 62
               7
100
AcDbLine
 10
46.700012207031278
 20
-30.0
 30
0.0
 11
46.700012207031278
 21
-25.5
 31
0.0
  0
LINE
  5
4EF
100
AcDbEntity
  8
0
  6
CONTINUOUS
 62
               7
100
AcDbLine
 10
56.000000000000028
 20
-25.5
 30
0.0
 11
52.299987792968778
 21
-25.5
 31
0.0
  0
LINE
  5
4F0
100
AcDbEntity
  8
0
  6
CONTINUOUS
 62
               7
100
AcDbLine
 10
56.000000000000028
 20
-25.5
 30
0.0
 11
56.000000000000028
 21
-17.500000000000014
 31
0.0
  0
LINE
  5
4F1
100
AcDbEntity
  8
0
  6
CONTINUOUS
 62
               7
100
AcDbLine
 10
35.500000000000028
 20
-24.000000000000014
 30
0.0
 11
35.500000000000028
 21
27.002502441406236
 31
0.0
  0
LINE
  5
4F2
100
AcDbEntity
  8
0
  6
CONTINUOUS
 62
               7
100
AcDbLine
 10
42.000000000000028
 20
59.499999999999986
 30
0.0
 11
39.500000000000028
 21
59.499999999999986
 31
0.0
  0
LINE
  5
4F3
100
AcDbEntity
  8
0
  6
CONTINUOUS
 62
               7
100
AcDbLine
 10
54.500000000000028
 20
-24.000000000000014
 30
0.0
 11
50.500000000000028
 21
-24.000000000000014
 31
0.0
  0
LINE
  5
4F4
100
AcDbEntity
  8
0
  6
CONTINUOUS
 62
               7
100
AcDbLine
 10
54.500000000000028
 20
-19.000000000000014
 30
0.0
 11
54.500000000000028
 21
-24.000000000000014
 31
0.0
  0
LINE
  5
4F5
100
AcDbEntity
  8
0
  6
CONTINUOUS
 62
               7
100
AcDbLine
 10
42.000000000000028
 20
59.499999999999986
 30
0.0
 11
42.000000000000028
 21
30.997497558593736
 31
0.0
  0
LINE
  5
4F6
100
AcDbEntity
  8
0
  6
CONTINUOUS
 62
               7
100
AcDbLine
 10
38.000000000000028
 20
59.499999999999986
 30
0.0
 11
38.000000000000028
 21
30.997497558593736
 31
0.0
  0
LINE
  5
4F7
100
AcDbEntity
  8
0
  6
CONTINUOUS
 62
               7
100
AcDbLine
 10
46.000000000000028
 20
-19.000000000000014
 30
0.0
 11
46.000000000000028
 21
-24.000000000000014
 31
0.0
  0
LINE
  5
4F8
100
AcDbEntity
  8
0
  6
CONTINUOUS
 62
               7
100
AcDbLine
 10
43.500000000000028
 20
-19.000000000000014
 30
0.0
 11
43.500000000000028
 21
-24.000000000000014
 31
0.0
  0
LINE
  5
4F9
100
AcDbEntity
  8
0
  6
CONTINUOUS
 62
               7
100
AcDbLine
 10
39.500000000000028
 20
59.499999999999986
 30
0.0
 11
39.500000000000028
 21
30.997497558593736
 31
0.0
  0
LINE
  5
4FA
100
AcDbEntity
  8
0
  6
CONTINUOUS
 62
               7
100
AcDbLine
 10
38.000000000000028
 20
-24.000000000000014
 30
0.0
 11
35.500000000000028
 21
-24.000000000000014
 31
0.0
  0
LINE
  5
4FB
100
AcDbEntity
  8
0
  6
CONTINUOUS
 62
               7
100
AcDbLine
 10
42.000000000000028
 20
-24.000000000000014
 30
0.0
 11
39.500000000000028
 21
-24.000000000000014
 31
0.0
  0
LINE
  5
4FC
100
AcDbEntity
  8
0
  6
CONTINUOUS
 62
               7
100
AcDbLine
 10
38.000000000000028
 20
59.499999999999986
 30
0.0
 11
36.500000000000028
 21
59.499999999999986
 31
0.0
  0
LINE
  5
4FD
100
AcDbEntity
  8
0
  6
CONTINUOUS
 62
               7
100
AcDbLine
 10
36.000147630604289
 20
60.999891247269247
 30
0.0
 11
35.000143450239221
 21
59.999871809563942
 31
0.0
  0
LINE
  5
4FE
100
AcDbEntity
  8
0
  6
CONTINUOUS
 62
               7
100
AcDbLine
 10
36.500000000000028
 20
57.499999999999986
 30
0.0
 11
36.500000000000028
 21
59.499999999999986
 31
0.0
  0
LINE
  5
4FF
100
AcDbEntity
  8
0
  6
CONTINUOUS
 62
               7
100
AcDbLine
 10
36.500000000000028
 20
57.499999999999986
 30
0.0
 11
35.500000000000028
 21
57.499999999999986
 31
0.0
  0
LINE
  5
500
100
AcDbEntity
  8
0
  6
CONTINUOUS
 62
               7
100
AcDbLine
 10
42.000000000000028
 20
27.002502441406236
 30
0.0
 11
42.000000000000028
 21
-24.000000000000014
 31
0.0
  0
LINE
  5
501
100
AcDbEntity
  8
0
  6
CONTINUOUS
 62
               7
100
AcDbLine
 10
39.500000000000028
 20
27.002502441406236
 30
0.0
 11
39.500000000000028
 21
-24.000000000000014
 31
0.0
  0
LINE
  5
502
100
AcDbEntity
  8
0
  6
CONTINUOUS
 62
               7
100
AcDbLine
 10
38.000000000000028
 20
27.002502441406236
 30
0.0
 11
38.000000000000028
 21
-24.000000000000014
 31
0.0
  0
LINE
  5
503
100
AcDbEntity
  8
0
  6
CONTINUOUS
 62
               7
100
AcDbLine
 10
35.500000000000028
 20
30.997497558593736
 30
0.0
 11
35.500000000000028
 21
57.499999999999986
 31
0.0
  0
LINE
  5
504
100
AcDbEntity
  8
0
  6
CONTINUOUS
 62
               7
100
AcDbLine
 10
42.000000000000028
 20
53.501998901367173
 30
0.0
 11
39.500000000000028
 21
53.501998901367173
 31
0.0
  0
LINE
  5
505
100
AcDbEntity
  8
0
  6
CONTINUOUS
 62
               7
100
AcDbLine
 10
42.000000000000028
 20
44.300003051757798
 30
0.0
 11
39.500000000000028
 21
44.300003051757798
 31
0.0
  0
LINE
  5
506
100
AcDbEntity
  8
0
  6
CONTINUOUS
 62
               7
100
AcDbLine
 10
42.000000000000028
 20
36.699996948242173
 30
0.0
 11
39.500000000000028
 21
36.699996948242173
 31
0.0
  0
LINE
  5
507
100
AcDbEntity
  8
0
  6
CONTINUOUS
 62
               7
100
AcDbLine
 10
42.000000000000028
 20
32.199996948242173
 30
0.0
 11
39.500000000000028
 21
32.199996948242173
 31
0.0
  0
LINE
  5
508
100
AcDbEntity
  8
0
  6
CONTINUOUS
 62
               7
100
AcDbLine
 10
42.000000000000028
 20
30.997497558593736
 30
0.0
 11
39.500000000000028
 21
30.997497558593736
 31
0.0
  0
LINE
  5
509
100
AcDbEntity
  8
0
  6
CONTINUOUS
 62
               7
100
AcDbLine
 10
42.000000000000028
 20
27.002502441406236
 30
0.0
 11
39.500000000000028
 21
27.002502441406236
 31
0.0
  0
LINE
  5
50A
100
AcDbEntity
  8
0
  6
CONTINUOUS
 62
               7
100
AcDbLine
 10
42.000000000000028
 20
25.960266113281236
 30
0.0
 11
39.500000000000028
 21
25.960266113281236
 31
0.0
  0
LINE
  5
50B
100
AcDbEntity
  8
0
  6
CONTINUOUS
 62
               7
100
AcDbLine
 10
38.000000000000028
 20
25.960266113281236
 30
0.0
 11
35.500000000000028
 21
25.960266113281236
 31
0.0
  0
LINE
  5
50C
100
AcDbEntity
  8
0
  6
CONTINUOUS
 62
               7
100
AcDbLine
 10
38.000000000000028
 20
27.002502441406236
 30
0.0
 11
35.500000000000028
 21
27.002502441406236
 31
0.0
  0
LINE
  5
50D
100
AcDbEntity
  8
0
  6
CONTINUOUS
 62
               7
100
AcDbLine
 10
38.000000000000028
 20
30.997497558593736
 30
0.0
 11
35.500000000000028
 21
30.997497558593736
 31
0.0
  0
LINE
  5
50E
100
AcDbEntity
  8
0
  6
CONTINUOUS
 62
               7
100
AcDbLine
 10
38.000000000000028
 20
32.199996948242173
 30
0.0
 11
35.500000000000028
 21
32.199996948242173
 31
0.0
  0
LINE
  5
50F
100
AcDbEntity
  8
0
  6
CONTINUOUS
 62
               7
100
AcDbLine
 10
38.000000000000028
 20
36.699996948242173
 30
0.0
 11
35.500000000000028
 21
36.699996948242173
 31
0.0
  0
LINE
  5
510
100
AcDbEntity
  8
0
  6
CONTINUOUS
 62
               7
100
AcDbLine
 10
38.000000000000028
 20
44.300003051757798
 30
0.0
 11
35.500000000000028
 21
44.300003051757798
 31
0.0
  0
LINE
  5
511
100
AcDbEntity
  8
0
  6
CONTINUOUS
 62
               7
100
AcDbLine
 10
38.000000000000028
 20
53.501998901367173
 30
0.0
 11
35.500000000000028
 21
53.501998901367173
 31
0.0
  0
LINE
  5
512
100
AcDbEntity
  8
0
  6
CONTINUOUS
 62
               7
100
AcDbLine
 10
42.000000000000028
 20
-7.5000000000000142
 30
0.0
 11
39.500000000000028
 21
-7.5000000000000142
 31
0.0
  0
LINE
  5
513
100
AcDbEntity
  8
0
  6
CONTINUOUS
 62
               7
100
AcDbLine
 10
38.000000000000028
 20
-7.5000000000000142
 30
0.0
 11
35.500000000000028
 21
-7.5000000000000142
 31
0.0
  0
LINE
  5
514
100
AcDbEntity
  8
0
  6
CONTINUOUS
 62
               7
100
AcDbLine
 10
56.000000000000028
 20
35.499999999999986
 30
0.0
 11
53.000000000000028
 21
35.499999999999986
 31
0.0
  0
LINE
  5
515
100
AcDbEntity
  8
0
  6
CONTINUOUS
 62
               7
100
AcDbLine
 10
48.500000000000028
 20
-19.000000000000014
 30
0.0
 11
48.500000000000028
 21
-28.5
 31
0.0
  0
LINE
  5
516
100
AcDbEntity
  8
0
  6
CONTINUOUS
 62
               7
100
AcDbLine
 10
50.500000000000028
 20
-19.000000000000014
 30
0.0
 11
50.500000000000028
 21
-28.5
 31
0.0
  0
LINE
  5
517
100
AcDbEntity
  8
0
  6
CONTINUOUS
 62
               7
100
AcDbLine
 10
46.000000000000028
 20
-24.000000000000014
 30
0.0
 11
43.500000000000028
 21
-24.000000000000014
 31
0.0
  0
LINE
  5
518
100
AcDbEntity
  8
0
  6
CONTINUOUS
 62
               7
100
AcDbLine
 10
46.000000000000028
 20
-19.000000000000014
 30
0.0
 11
43.500000000000028
 21
-19.000000000000014
 31
0.0
  0
LINE
  5
519
100
AcDbEntity
  8
0
  6
CONTINUOUS
 62
               7
100
AcDbLine
 10
46.700012207031278
 20
-25.5
 30
0.0
 11
35.000000000000028
 21
-25.5
 31
0.0
  0
LINE
  5
51A
100
AcDbEntity
  8
0
  6
CONTINUOUS
 62
               7
100
AcDbLine
 10
56.000000000000028
 20
-17.500000000000014
 30
0.0
 11
45.000000000000028
 21
-17.500000000000014
 31
0.0
  0
LINE
  5
51B
100
AcDbEntity
  8
0
  6
CONTINUOUS
 62
               7
100
AcDbLine
 10
53.000000000000028
 20
-17.500000000000014
 30
0.0
 11
53.000000000000028
 21
35.499999999999986
 31
0.0
  0
LINE
  5
51C
100
AcDbEntity
  8
0
  6
CONTINUOUS
 62
               7
100
AcDbLine
 10
45.000000000000028
 20
-17.500000000000014
 30
0.0
 11
45.000000000000028
 21
60.999999999999986
 31
0.0
  0
LINE
  5
51D
100
AcDbEntity
  8
0
  6
CONTINUOUS
 62
               4
100
AcDbLine
 10
58.000000000000028
 20
-15.300003051757827
 30
0.0
 11
58.000000000000028
 21
33.299987792968736
 31
0.0
  0
LINE
  5
51E
100
AcDbEntity
  8
0
  6
CONTINUOUS
 62
               4
100
AcDbLine
 10
56.000030517578153
 20
-17.300018310546889
 30
0.0
 11
53.000030517578153
 21
-17.300018310546889
 31
0.0
  0
LINE
  5
51F
100
AcDbEntity
  8
0
  6
CONTINUOUS
 62
               4
100
AcDbLine
 10
55.999969482421903
 20
35.299987792968736
 30
0.0
 11
52.999969482421903
 21
35.299987792968736
 31
0.0
  0
LINE
  5
520
100
AcDbEntity
  8
0
  6
CONTINUOUS
 62
               4
100
AcDbLine
 10
57.999956535720258
 20
33.299999957322129
 30
0.0
 11
55.99996992256095
 21
35.299996179921422
 31
0.0
  0
LINE
  5
521
100
AcDbEntity
  8
0
  6
CONTINUOUS
 62
               4
100
AcDbLine
 10
58.000044983655272
 20
-15.300025140431913
 30
0.0
 11
56.000018583859884
 21
-17.300046145366665
 31
0.0
  0
LINE
  5
522
100
AcDbEntity
  8
0
  6
CONTINUOUS
 62
               4
100
AcDbLine
 10
58.000000000000028
 20
27.999984741210923
 30
0.0
 11
56.000000000000028
 21
27.999984741210923
 31
0.0
  0
LINE
  5
523
100
AcDbEntity
  8
0
  6
CONTINUOUS
 62
               4
100
AcDbLine
 10
58.000000000000028
 20
-8.0000152587890767
 30
0.0
 11
53.000000000000028
 21
-8.0000152587890767
 31
0.0
  0
LINE
  5
524
100
AcDbEntity
  8
0
  6
CONTINUOUS
 62
               4
100
AcDbLine
 10
58.000000000000028
 20
-14.000015258789077
 30
0.0
 11
53.000000000000028
 21
-14.000015258789077
 31
0.0
  0
LINE
  5
525
100
AcDbEntity
  8
0
  6
CONTINUOUS
 62
               4
100
AcDbLine
 10
56.000000000000028
 20
27.999984741210923
 30
0.0
 11
56.000000000000028
 21
35.299987792968736
 31
0.0
  0
LINE
  5
526
100
AcDbEntity
  8
0
  6
CONTINUOUS
 62
               4
100
AcDbLine
 10
56.500000000000028
 20
28.249969482421861
 30
0.0
 11
56.000000000000028
 21
28.249969482421861
 31
0.0
  0
LINE
  5
527
100
AcDbEntity
  8
0
  6
CONTINUOUS
 62
               4
100
AcDbLine
 10
56.499969482421903
 20
33.749969482421861
 30
0.0
 11
55.999969482421903
 21
33.749969482421861
 31
0.0
  0
ARC
  5
528
100
AcDbEntity
  8
0
  6
CONTINUOUS
 62
               4
100
AcDbCircle
 10
56.500000000000028
 20
32.249969482421861
 30
0.0
 40
1.5
100
AcDbArc
 50
0.0000359721786855
 51
90.000017986089347
  0
ARC
  5
529
100
AcDbEntity
  8
0
  6
CONTINUOUS
 62
               4
100
AcDbCircle
 10
56.500000000000028
 20
29.749969482421861
 30
0.0
 40
1.5
100
AcDbArc
 50
270.00003665542403
 51
359.99996402782131
  0
LINE
  5
52A
100
AcDbEntity
  8
0
  6
CONTINUOUS
 62
               7
100
AcDbLine
 10
56.999986267089895
 20
58.94998474121094
 30
0.0
 11
56.000000000000028
 21
58.94998474121094
 31
0.0
  0
LINE
  5
52B
100
AcDbEntity
  8
0
  6
CONTINUOUS
 62
               7
100
AcDbLine
 10
56.999986267089895
 20
59.899984741210929
 30
0.0
 11
56.999986267089895
 21
58.94998474121094
 31
0.0
  0
LINE
  5
52C
100
AcDbEntity
  8
0
  6
CONTINUOUS
 62
               7
100
AcDbLine
 10
56.999986267089895
 20
59.899984741210929
 30
0.0
 11
56.000000000000028
 21
59.899984741210929
 31
0.0
  0
LINE
  5
52D
100
AcDbEntity
  8
0
  6
CONTINUOUS
 62
               7
100
AcDbLine
 10
55.800018310546903
 20
-30.50010594629623
 30
0.0
 11
55.800018310546903
 21
-25.500032424926758
 31
0.0
  0
LINE
  5
52E
100
AcDbEntity
  8
0
  6
CONTINUOUS
 62
               7
100
AcDbLine
 10
46.500015258789091
 20
-32.500001907348633
 30
0.0
 11
46.500015258789091
 21
-25.500001907348633
 31
0.0
  0
LINE
  5
52F
100
AcDbEntity
  8
0
  6
CONTINUOUS
 62
               7
100
AcDbLine
 10
52.500015258789091
 20
-32.500001907348633
 30
0.0
 11
52.500015258789091
 21
-25.500001907348633
 31
0.0
  0
LINE
  5
530
100
AcDbEntity
  8
0
  6
CONTINUOUS
 62
               4
100
AcDbLine
 10
48.000000000000028
 20
-32.500001907348633
 30
0.0
 11
48.000000000000028
 21
-37.000001907348633
 31
0.0
  0
ARC
  5
531
100
AcDbEntity
  8
0
  6
CONTINUOUS
 62
               4
100
AcDbCircle
 10
47.500000000000028
 20
-37.000001907348633
 30
0.0
 40
0.5
100
AcDbArc
 50
269.99998133066532
 51
359.99996334457597
  0
LINE
  5
532
100
AcDbEntity
  8
0
  6
CONTINUOUS
 62
               4
100
AcDbLine
 10
30.000000000000028
 20
-37.000001907348633
 30
0.0
 11
30.000000000000028
 21
-30.500001907348633
 31
0.0
  0
LINE
  5
533
100
AcDbEntity
  8
0
  6
CONTINUOUS
 62
               4
100
AcDbLine
 10
29.000000000000028
 20
-37.000001907348633
 30
0.0
 11
29.000000000000028
 21
-30.500001907348633
 31
0.0
  0
LINE
  5
534
100
AcDbEntity
  8
0
  6
CONTINUOUS
 62
               7
100
AcDbLine
 10
39.000000000000028
 20
-32.500001907348633
 30
0.0
 11
39.000000000000028
 21
-30.500001907348633
 31
0.0
  0
LINE
  5
535
100
AcDbEntity
  8
0
  6
CONTINUOUS
 62
               7
100
AcDbLine
 10
39.000000000000028
 20
-30.500001907348633
 30
0.0
 11
34.500000000000028
 21
-30.500001907348633
 31
0.0
  0
LINE
  5
536
100
AcDbEntity
  8
0
  6
CONTINUOUS
 62
               7
100
AcDbLine
 10
53.800065601429225
 20
-32.500064050090259
 30
0.0
 11
55.800086606363976
 21
-30.500037650294871
 31
0.0
  0
LINE
  5
537
100
AcDbEntity
  8
0
  6
CONTINUOUS
 62
               7
100
AcDbLine
 10
53.800065601429225
 20
-32.500001907348633
 30
0.0
 11
39.000000000000028
 21
-32.500001907348633
 31
0.0
  0
LINE
  5
538
100
AcDbEntity
  8
0
  6
CONTINUOUS
 62
               4
100
AcDbLine
 10
30.500000000000028
 20
-37.500001907348633
 30
0.0
 11
47.500000000000028
 21
-37.500001907348633
 31
0.0
  0
ARC
  5
539
100
AcDbEntity
  8
0
  6
CONTINUOUS
 62
               4
100
AcDbCircle
 10
30.500000000000028
 20
-37.000001907348633
 30
0.0
 40
0.5
100
AcDbArc
 50
180.0
 51
270.0
  0
ARC
  5
53A
100
AcDbEntity
  8
0
  6
CONTINUOUS
 62
               4
100
AcDbCircle
 10
28.500000000000028
 20
-37.000001907348633
 30
0.0
 40
0.5
100
AcDbArc
 50
270.0
 51
0.0
  0
LINE
  5
53B
100
AcDbEntity
  8
0
  6
CONTINUOUS
 62
               7
100
AcDbLine
 10
52.299987792968778
 20
-30.0
 30
0.0
 11
46.700012207031278
 21
-30.0
 31
0.0
  0
LINE
  5
53C
100
AcDbEntity
  8
0
  6
CONTINUOUS
 62
               4
100
AcDbLine
 10
11.000000000000028
 20
-30.5
 30
0.0
 11
11.000000000000028
 21
-37.000001907348633
 31
0.0
  0
ARC
  5
53D
100
AcDbEntity
  8
0
  6
CONTINUOUS
 62
               4
100
AcDbCircle
 10
11.500000000000028
 20
-37.000001907348633
 30
0.0
 40
0.5
100
AcDbArc
 50
179.99998201391065
 51
269.99996402782131
  0
LINE
  5
53E
100
AcDbEntity
  8
0
  6
CONTINUOUS
 62
             200
100
AcDbLine
 10
20.000000000000028
 20
-30.5
 30
0.0
 11
20.000000000000028
 21
-41.139848720068301
 31
0.0
  0
ENDBLK
  5
53F
100
AcDbEntity
  8
0
100
AcDbBlockEnd
  0
BLOCK
  5
540
100
AcDbEntity
  8
0
100
AcDbBlockBegin
  2
F10MPJ-14
 70
               0
 10
0.0
 20
0.0
 30
0.0
  3
F10MPJ-14
  1

  0
LINE
  5
541
100
AcDbEntity
  8
0
  6
CONTINUOUS
 62
               7
100
AcDbLine
 10
0.0
 20
0.0
 30
0.0
 11
19.0
 21
0.0
 31
0.0
  0
LINE
  5
542
100
AcDbEntity
  8
0
  6
CENTER
 62
               2
100
AcDbLine
 10
9.5
 20
-0.8300000000000125
 30
0.0
 11
9.5
 21
61.860000000000014
 31
0.0
  0
LINE
  5
543
100
AcDbEntity
  8
0
  6
CONTINUOUS
 62
               7
100
AcDbLine
 10
0.0
 20
3.0
 30
0.0
 11
19.0
 21
3.0
 31
0.0
  0
ARC
  5
544
100
AcDbEntity
  8
0
  6
CONTINUOUS
 62
               4
100
AcDbCircle
 10
17.25
 20
56.5
 30
0.0
 40
1.5
100
AcDbArc
 50
0.0
 51
89.999982013910653
  0
CIRCLE
  5
545
100
AcDbEntity
  8
0
  6
CONTINUOUS
 62
               4
100
AcDbCircle
 10
16.0
 20
7.5
 30
0.0
 40
2.75
  0
CIRCLE
  5
546
100
AcDbEntity
  8
0
  6
CONTINUOUS
 62
               4
100
AcDbCircle
 10
3.0
 20
51.5
 30
0.0
 40
2.75
  0
LINE
  5
547
100
AcDbEntity
  8
0
  6
CONTINUOUS
 62
             200
100
AcDbLine
 10
-1.0
 20
19.999984741210937
 30
0.0
 11
20.0
 21
19.999984741210937
 31
0.0
  0
LINE
  5
548
100
AcDbEntity
  8
0
  6
CONTINUOUS
 62
             200
100
AcDbLine
 10
-1.0
 20
38.999984741210938
 30
0.0
 11
20.0
 21
38.999984741210938
 31
0.0
  0
LINE
  5
549
100
AcDbEntity
  8
0
  6
CONTINUOUS
 62
               7
100
AcDbLine
 10
19.0
 20
1.0
 30
0.0
 11
0.0
 21
1.0
 31
0.0
  0
LINE
  5
54A
100
AcDbEntity
  8
0
  6
CONTINUOUS
 62
               7
100
AcDbLine
 10
0.0
 20
56.0
 30
0.0
 11
19.0
 21
56.0
 31
0.0
  0
LINE
  5
54B
100
AcDbEntity
  8
0
  6
CONTINUOUS
 62
               2
100
AcDbLine
 10
9.5
 20
-0.829620361328125
 30
0.0
 11
9.5
 21
61.865707397460938
 31
0.0
  0
LINE
  5
54C
100
AcDbEntity
  8
0
  6
CONTINUOUS
 62
               4
100
AcDbLine
 10
18.5
 20
3.199981689453125
 30
0.0
 11
18.5
 21
6.3543548583984375
 31
0.0
  0
LINE
  5
54D
100
AcDbEntity
  8
0
  6
CONTINUOUS
 62
               4
100
AcDbLine
 10
0.5
 20
3.199981689453125
 30
0.0
 11
0.5
 21
6.4999847412109375
 31
0.0
  0
LINE
  5
54E
100
AcDbEntity
  8
0
  6
CONTINUOUS
 62
               4
100
AcDbLine
 10
0.5
 20
55.79998779296875
 30
0.0
 11
18.5
 21
55.79998779296875
 31
0.0
  0
LINE
  5
54F
100
AcDbEntity
  8
0
  6
CONTINUOUS
 62
               4
100
AcDbLine
 10
0.5
 20
3.199981689453125
 30
0.0
 11
18.5
 21
3.199981689453125
 31
0.0
  0
LINE
  5
550
100
AcDbEntity
  8
0
  6
CONTINUOUS
 62
               4
100
AcDbLine
 10
16.0
 20
52.499984741210937
 30
0.0
 11
18.5
 21
52.499984741210937
 31
0.0
  0
LINE
  5
551
100
AcDbEntity
  8
0
  6
CONTINUOUS
 62
               4
100
AcDbLine
 10
16.0
 20
46.499984741210937
 30
0.0
 11
18.5
 21
46.499984741210937
 31
0.0
  0
LINE
  5
552
100
AcDbEntity
  8
0
  6
CONTINUOUS
 62
               4
100
AcDbLine
 10
0.5
 20
6.4999847412109375
 30
0.0
 11
3.0
 21
6.4999847412109375
 31
0.0
  0
LINE
  5
553
100
AcDbEntity
  8
0
  6
CONTINUOUS
 62
               4
100
AcDbLine
 10
0.5
 20
12.499984741210938
 30
0.0
 11
3.0
 21
12.499984741210938
 31
0.0
  0
LINE
  5
554
100
AcDbEntity
  8
0
  6
CONTINUOUS
 62
               4
100
AcDbLine
 10
13.0
 20
7.5
 30
0.0
 11
13.0
 21
3.199981689453125
 31
0.0
  0
LINE
  5
555
100
AcDbEntity
  8
0
  6
CONTINUOUS
 62
               4
100
AcDbLine
 10
6.0
 20
51.5
 30
0.0
 11
6.0
 21
55.79998779296875
 31
0.0
  0
LINE
  5
556
100
AcDbEntity
  8
0
  6
CONTINUOUS
 62
               4
100
AcDbLine
 10
3.0
 20
48.5
 30
0.0
 11
0.5
 21
48.5
 31
0.0
  0
LINE
  5
557
100
AcDbEntity
  8
0
  6
CONTINUOUS
 62
               4
100
AcDbLine
 10
16.0
 20
10.5
 30
0.0
 11
18.5
 21
10.5
 31
0.0
  0
LINE
  5
558
100
AcDbEntity
  8
0
  6
CONTINUOUS
 62
               4
100
AcDbLine
 10
0.5
 20
5.199981689453125
 30
0.0
 11
13.0
 21
5.199981689453125
 31
0.0
  0
LINE
  5
559
100
AcDbEntity
  8
0
  6
CONTINUOUS
 62
               4
100
AcDbLine
 10
6.0
 20
53.79998779296875
 30
0.0
 11
18.5
 21
53.79998779296875
 31
0.0
  0
LINE
  5
55A
100
AcDbEntity
  8
0
  6
CONTINUOUS
 62
               4
100
AcDbLine
 10
4.0607124327356132
 20
50.439385033842143
 30
0.0
 11
1.9393996356660637
 21
52.560713208910045
 31
0.0
  0
LINE
  5
55B
100
AcDbEntity
  8
0
  6
CONTINUOUS
 62
               4
100
AcDbLine
 10
1.9393160553920552
 20
50.439369031424803
 30
0.0
 11
4.0606364853632613
 21
52.560685169865735
 31
0.0
  0
LINE
  5
55C
100
AcDbEntity
  8
0
  6
CONTINUOUS
 62
               4
100
AcDbLine
 10
14.939418517305057
 20
6.439247205459651
 30
0.0
 11
17.060734533025425
 21
8.5605719830628004
 31
0.0
  0
LINE
  5
55D
100
AcDbEntity
  8
0
  6
CONTINUOUS
 62
               4
100
AcDbLine
 10
17.060664776710837
 20
6.4393038955840893
 30
0.0
 11
14.939356331927229
 21
8.5606144861239954
 31
0.0
  0
LINE
  5
55E
100
AcDbEntity
  8
0
  6
CONTINUOUS
 62
               4
100
AcDbLine
 10
0.5
 20
12.499984741210938
 30
0.0
 11
0.5
 21
50.354354858398438
 31
0.0
  0
LINE
  5
55F
100
AcDbEntity
  8
0
  6
CONTINUOUS
 62
               4
100
AcDbLine
 10
0.5
 20
52.645645141601563
 30
0.0
 11
0.5
 21
55.79998779296875
 31
0.0
  0
LINE
  5
560
100
AcDbEntity
  8
0
  6
CONTINUOUS
 62
               4
100
AcDbLine
 10
18.5
 20
52.499984741210937
 30
0.0
 11
18.5
 21
55.79998779296875
 31
0.0
  0
LINE
  5
561
100
AcDbEntity
  8
0
  6
CONTINUOUS
 62
               4
100
AcDbLine
 10
18.5
 20
8.6456451416015625
 30
0.0
 11
18.5
 21
46.499984741210937
 31
0.0
  0
LINE
  5
562
100
AcDbEntity
  8
0
  6
CONTINUOUS
 62
               4
100
AcDbLine
 10
13.25
 20
56.5
 30
0.0
 11
13.25
 21
56.0
 31
0.0
  0
LINE
  5
563
100
AcDbEntity
  8
0
  6
CONTINUOUS
 62
               4
100
AcDbLine
 10
0.5
 20
58.0
 30
0.0
 11
17.25
 21
58.0
 31
0.0
  0
LINE
  5
564
100
AcDbEntity
  8
0
  6
CONTINUOUS
 62
               4
100
AcDbLine
 10
0.5
 20
58.0
 30
0.0
 11
0.5
 21
56.0
 31
0.0
  0
LINE
  5
565
100
AcDbEntity
  8
0
  6
CONTINUOUS
 62
               4
100
AcDbLine
 10
13.0
 20
58.0
 30
0.0
 11
13.0
 21
56.0
 31
0.0
  0
ARC
  5
566
100
AcDbEntity
  8
0
  6
CONTINUOUS
 62
               4
100
AcDbCircle
 10
16.0
 20
49.5
 30
0.0
 40
3.0
100
AcDbArc
 50
89.999982013910653
 51
269.99994604173196
  0
ARC
  5
567
100
AcDbEntity
  8
0
  6
CONTINUOUS
 62
               4
100
AcDbCircle
 10
3.0
 20
9.5
 30
0.0
 40
3.0
100
AcDbArc
 50
269.99996334457597
 51
89.999982013910653
  0
ARC
  5
568
100
AcDbEntity
  8
0
  6
CONTINUOUS
 62
               4
100
AcDbCircle
 10
3.0
 20
51.5
 30
0.0
 40
3.0
100
AcDbArc
 50
270.00001798608935
 51
0.00001366037834
  0
ARC
  5
569
100
AcDbEntity
  8
0
  6
CONTINUOUS
 62
               4
100
AcDbCircle
 10
16.0
 20
7.5
 30
0.0
 40
3.0
100
AcDbArc
 50
89.999982013910653
 51
179.99996402782131
  0
ARC
  5
56A
100
AcDbEntity
  8
0
  6
CONTINUOUS
 62
               4
100
AcDbCircle
 10
14.75
 20
56.5
 30
0.0
 40
1.5
100
AcDbArc
 50
89.999982013910653
 51
179.99996402782131
  0
CIRCLE
  5
56B
100
AcDbEntity
  8
0
  6
CONTINUOUS
 62
               4
100
AcDbCircle
 10
9.5
 20
38.999984741210938
 30
0.0
 40
9.0
  0
CIRCLE
  5
56C
100
AcDbEntity
  8
0
  6
CONTINUOUS
 62
               4
100
AcDbCircle
 10
9.5
 20
19.999984741210937
 30
0.0
 40
9.0
  0
CIRCLE
  5
56D
100
AcDbEntity
  8
0
  6
CONTINUOUS
 62
               4
100
AcDbCircle
 10
9.5
 20
38.999984741210938
 30
0.0
 40
5.6799993515014648
  0
CIRCLE
  5
56E
100
AcDbEntity
  8
0
  6
CONTINUOUS
 62
               4
100
AcDbCircle
 10
9.5
 20
38.999984741210938
 30
0.0
 40
6.5
  0
CIRCLE
  5
56F
100
AcDbEntity
  8
0
  6
CONTINUOUS
 62
               4
100
AcDbCircle
 10
9.5
 20
19.999984741210937
 30
0.0
 40
6.5
  0
CIRCLE
  5
570
100
AcDbEntity
  8
0
  6
CONTINUOUS
 62
               4
100
AcDbCircle
 10
9.5
 20
19.999984741210937
 30
0.0
 40
5.6799993515014648
  0
LINE
  5
571
100
AcDbEntity
  8
0
  6
CONTINUOUS
 62
               7
100
AcDbLine
 10
0.0
 20
56.0
 30
0.0
 11
0.0
 21
1.0
 31
0.0
  0
LINE
  5
572
100
AcDbEntity
  8
0
  6
CONTINUOUS
 62
               7
100
AcDbLine
 10
19.0
 20
56.0
 30
0.0
 11
19.0
 21
1.0
 31
0.0
  0
LINE
  5
573
100
AcDbEntity
  8
0
  6
CONTINUOUS
 62
               4
100
AcDbLine
 10
18.75
 20
56.5
 30
0.0
 11
18.75
 21
56.0
 31
0.0
  0
ENDBLK
  5
574
100
AcDbEntity
  8
0
100
AcDbBlockEnd
  0
BLOCK
  5
575
100
AcDbEntity
  8
0
100
AcDbBlockBegin
  2
F10MPJ-15
 70
               0
 10
0.0
 20
0.0
 30
0.0
  3
F10MPJ-15
  1

  0
LINE
  5
576
100
AcDbEntity
  8
0
  6
CONTINUOUS
 62
               7
100
AcDbLine
 10
14.5
 20
3.0000000000000142
 30
0.0
 11
14.5
 21
1.0
 31
0.0
  0
LINE
  5
577
100
AcDbEntity
  8
0
  6
CONTINUOUS
 62
               7
100
AcDbLine
 10
2.0
 20
1.0
 30
0.0
 11
0.5
 21
1.0
 31
0.0
  0
ARC
  5
578
100
AcDbEntity
  8
0
  6
CONTINUOUS
 62
               7
100
AcDbCircle
 10
1.0
 20
3.5000000000000142
 30
0.0
 40
0.5
100
AcDbArc
 50
180.0
 51
270.0
  0
LINE
  5
579
100
AcDbEntity
  8
0
  6
CONTINUOUS
 62
               7
100
AcDbLine
 10
19.5
 20
5.0000000000000142
 30
0.0
 11
0.5
 21
5.0000000000000142
 31
0.0
  0
LINE
  5
57A
100
AcDbEntity
  8
0
  6
CONTINUOUS
 62
               7
100
AcDbLine
 10
2.0
 20
3.0000000000000142
 30
0.0
 11
2.0
 21
1.0
 31
0.0
  0
LINE
  5
57B
100
AcDbEntity
  8
0
  6
CONTINUOUS
 62
               7
100
AcDbLine
 10
19.5
 20
3.0000000000000142
 30
0.0
 11
1.0
 21
3.0000000000000142
 31
0.0
  0
ARC
  5
57C
100
AcDbEntity
  8
0
  6
CONTINUOUS
 62
               7
100
AcDbCircle
 10
1.0
 20
32.879549805998678
 30
0.0
 40
0.5
100
AcDbArc
 50
94.999999999999815
 51
180.0
  0
LINE
  5
57D
100
AcDbEntity
  8
0
  6
CONTINUOUS
 62
               7
100
AcDbLine
 10
0.5
 20
32.879549805998678
 30
0.0
 11
0.5
 21
1.0
 31
0.0
  0
LINE
  5
57E
100
AcDbEntity
  8
0
  6
CONTINUOUS
 62
               7
100
AcDbLine
 10
19.5
 20
35.0
 30
0.0
 11
0.9564221286261727
 21
33.377647155044542
 31
0.0
  0
LINE
  5
57F
100
AcDbEntity
  8
0
  6
CONTINUOUS
 62
               7
100
AcDbLine
 10
19.5
 20
1.0
 30
0.0
 11
14.5
 21
1.0
 31
0.0
  0
LINE
  5
580
100
AcDbEntity
  8
0
  6
CONTINUOUS
 62
               7
100
AcDbLine
 10
-12.5
 20
7.5
 30
0.0
 11
-12.5
 21
0.0
 31
0.0
  0
LINE
  5
581
100
AcDbEntity
  8
0
  6
CONTINUOUS
 62
               7
100
AcDbLine
 10
-12.5
 20
6.5
 30
0.0
 11
0.5
 21
6.5
 31
0.0
  0
LINE
  5
582
100
AcDbEntity
  8
0
  6
CONTINUOUS
 62
               7
100
AcDbLine
 10
-12.5
 20
7.5
 30
0.0
 11
0.5
 21
7.5
 31
0.0
  0
LINE
  5
583
100
AcDbEntity
  8
0
  6
CONTINUOUS
 62
               7
100
AcDbLine
 10
-12.5
 20
0.0
 30
0.0
 11
19.5
 21
0.0
 31
0.0
  0
LINE
  5
584
100
AcDbEntity
  8
0
  6
CONTINUOUS
 62
               7
100
AcDbLine
 10
19.5
 20
35.0
 30
0.0
 11
19.5
 21
1.0
 31
0.0
  0
LINE
  5
585
100
AcDbEntity
  8
0
  6
CONTINUOUS
 62
               2
100
AcDbLine
 10
0.0
 20
-7.0973209881776711
 30
0.0
 11
0.0
 21
14.110982642174349
 31
0.0
  0
ARC
  5
586
100
AcDbEntity
  8
0
  6
CONTINUOUS
 62
               7
100
AcDbCircle
 10
99.0
 20
3.5000000000000142
 30
0.0
 40
0.5
100
AcDbArc
 50
270.0
 51
0.0
  0
LINE
  5
587
100
AcDbEntity
  8
0
  6
CONTINUOUS
 62
               7
100
AcDbLine
 10
85.5
 20
3.0000000000000142
 30
0.0
 11
85.5
 21
1.0
 31
0.0
  0
LINE
  5
588
100
AcDbEntity
  8
0
  6
CONTINUOUS
 62
               7
100
AcDbLine
 10
98.0
 20
3.0000000000000142
 30
0.0
 11
98.0
 21
1.0
 31
0.0
  0
LINE
  5
589
100
AcDbEntity
  8
0
  6
CONTINUOUS
 62
               7
100
AcDbLine
 10
80.5
 20
3.0000000000000142
 30
0.0
 11
99.0
 21
3.0000000000000142
 31
0.0
  0
LINE
  5
58A
100
AcDbEntity
  8
0
  6
CONTINUOUS
 62
               7
100
AcDbLine
 10
98.0
 20
1.0
 30
0.0
 11
99.5
 21
1.0
 31
0.0
  0
LINE
  5
58B
100
AcDbEntity
  8
0
  6
CONTINUOUS
 62
               7
100
AcDbLine
 10
80.5
 20
5.0000000000000142
 30
0.0
 11
99.5
 21
5.0000000000000142
 31
0.0
  0
ARC
  5
58C
100
AcDbEntity
  8
0
  6
CONTINUOUS
 62
               7
100
AcDbCircle
 10
99.0
 20
32.879549805998678
 30
0.0
 40
0.5
100
AcDbArc
 50
0.0
 51
85.000000000000185
  0
LINE
  5
58D
100
AcDbEntity
  8
0
  6
CONTINUOUS
 62
               7
100
AcDbLine
 10
80.5
 20
35.0
 30
0.0
 11
99.043577871373827
 21
33.377647155044542
 31
0.0
  0
LINE
  5
58E
100
AcDbEntity
  8
0
  6
CONTINUOUS
 62
               7
100
AcDbLine
 10
99.5
 20
32.879549805998678
 30
0.0
 11
99.5
 21
1.0
 31
0.0
  0
LINE
  5
58F
100
AcDbEntity
  8
0
  6
CONTINUOUS
 62
               7
100
AcDbLine
 10
112.5
 20
7.5
 30
0.0
 11
112.5
 21
0.0
 31
0.0
  0
LINE
  5
590
100
AcDbEntity
  8
0
  6
CONTINUOUS
 62
               7
100
AcDbLine
 10
112.5
 20
6.5
 30
0.0
 11
99.5
 21
6.5
 31
0.0
  0
LINE
  5
591
100
AcDbEntity
  8
0
  6
CONTINUOUS
 62
               7
100
AcDbLine
 10
112.5
 20
7.5
 30
0.0
 11
99.5
 21
7.5
 31
0.0
  0
LINE
  5
592
100
AcDbEntity
  8
0
  6
CONTINUOUS
 62
               7
100
AcDbLine
 10
85.5
 20
1.0
 30
0.0
 11
80.5
 21
1.0
 31
0.0
  0
LINE
  5
593
100
AcDbEntity
  8
0
  6
CONTINUOUS
 62
               7
100
AcDbLine
 10
80.5
 20
35.0
 30
0.0
 11
80.5
 21
1.0
 31
0.0
  0
LINE
  5
594
100
AcDbEntity
  8
0
  6
CONTINUOUS
 62
               7
100
AcDbLine
 10
80.5
 20
0.0
 30
0.0
 11
112.5
 21
0.0
 31
0.0
  0
LINE
  5
595
100
AcDbEntity
  8
0
  6
CONTINUOUS
 62
               2
100
AcDbLine
 10
100.0
 20
-7.0973209881776711
 30
0.0
 11
100.0
 21
14.110982642174349
 31
0.0
  0
ENDBLK
  5
596
100
AcDbEntity
  8
0
100
AcDbBlockEnd
  0
BLOCK
  5
597
100
AcDbEntity
  8
0
100
AcDbBlockBegin
  2
F10MPJ-16
 70
               0
 10
0.0
 20
0.0
 30
0.0
  3
F10MPJ-16
  1

  0
LINE
  5
598
100
AcDbEntity
  8
0
  6
CONTINUOUS
 62
               2
100
AcDbLine
 10
5.25
 20
-30.5
 30
0.0
 11
5.25
 21
64.087997436523438
 31
0.0
  0
LINE
  5
599
100
AcDbEntity
  8
0
  6
CONTINUOUS
 62
               7
100
AcDbLine
 10
1.2496873415403797
 20
-30.5
 30
0.0
 11
10.25
 21
-30.5
 31
0.0
  0
LINE
  5
59A
100
AcDbEntity
  8
0
  6
CONTINUOUS
 62
               7
100
AcDbLine
 10
0.25
 20
-30.5
 30
0.0
 11
0.25
 21
-25.5
 31
0.0
  0
LINE
  5
59B
100
AcDbEntity
  8
0
  6
CONTINUOUS
 62
               7
100
AcDbLine
 10
0.0
 20
-30.300003051757812
 30
0.0
 11
0.25
 21
-30.300003051757812
 31
0.0
  0
LINE
  5
59C
100
AcDbEntity
  8
0
  6
CONTINUOUS
 62
               7
100
AcDbLine
 10
0.25
 20
50.0
 30
0.0
 11
0.25
 21
58.5
 31
0.0
  0
LINE
  5
59D
100
AcDbEntity
  8
0
  6
CONTINUOUS
 62
               4
100
AcDbLine
 10
0.25
 20
-13.949996948242188
 30
0.0
 11
0.25
 21
22.0
 31
0.0
  0
LINE
  5
59E
100
AcDbEntity
  8
0
  6
CONTINUOUS
 62
               7
100
AcDbLine
 10
0.0
 20
-30.300003051757812
 30
0.0
 11
0.0
 21
62.5
 31
0.0
  0
LINE
  5
59F
100
AcDbEntity
  8
0
  6
CONTINUOUS
 62
               4
100
AcDbLine
 10
0.25
 20
-18.0
 30
0.0
 11
0.25
 21
-14.650009155273438
 31
0.0
  0
LINE
  5
5A0
100
AcDbEntity
  8
0
  6
CONTINUOUS
 62
               4
100
AcDbLine
 10
0.25
 20
-44.161879999999996
 30
0.0
 11
0.25
 21
-40.200000000000003
 31
0.0
  0
LINE
  5
5A1
100
AcDbEntity
  8
0
  6
CONTINUOUS
 62
               4
100
AcDbLine
 10
0.25
 20
-39.099999999999994
 30
0.0
 11
0.25
 21
-35.5
 31
0.0
  0
LINE
  5
5A2
100
AcDbEntity
  8
0
  6
CONTINUOUS
 62
               4
100
AcDbLine
 10
0.25
 20
-35.299999999999997
 30
0.0
 11
0.25
 21
-30.5
 31
0.0
  0
LINE
  5
5A3
100
AcDbEntity
  8
0
  6
CONTINUOUS
 62
               4
100
AcDbLine
 10
10.25
 20
-35.5
 30
0.0
 11
10.149999999999977
 21
-35.400000000000006
 31
0.0
  0
LINE
  5
5A4
100
AcDbEntity
  8
0
  6
CONTINUOUS
 62
               4
100
AcDbLine
 10
10.149999999999977
 20
-35.400000000000006
 30
0.0
 11
10.25
 21
-35.300000000000011
 31
0.0
  0
LINE
  5
5A5
100
AcDbEntity
  8
0
  6
CONTINUOUS
 62
               4
100
AcDbLine
 10
10.149999999999977
 20
-35.400000000000006
 30
0.0
 11
0.3500000000000227
 21
-35.400000000000006
 31
0.0
  0
LINE
  5
5A6
100
AcDbEntity
  8
0
  6
CONTINUOUS
 62
               4
100
AcDbLine
 10
10.18397444486618
 20
-44.200000204906019
 30
0.0
 11
0.3160255551338196
 21
-44.200000204906019
 31
0.0
  0
LINE
  5
5A7
100
AcDbEntity
  8
0
  6
CONTINUOUS
 62
               4
100
AcDbLine
 10
9.2999999999999545
 20
-45.0
 30
0.0
 11
1.2000000000000455
 21
-45.0
 31
0.0
  0
LINE
  5
5A8
100
AcDbEntity
  8
0
  6
CONTINUOUS
 62
               4
100
AcDbLine
 10
10.25
 20
-44.161879999999996
 30
0.0
 11
10.183974799999987
 21
-44.200000000000003
 31
0.0
  0
LINE
  5
5A9
100
AcDbEntity
  8
0
  6
CONTINUOUS
 62
               4
100
AcDbLine
 10
10.183974499999977
 20
-44.200000000000003
 30
0.0
 11
10.049999599999978
 21
-44.700000000000003
 31
0.0
  0
LINE
  5
5AA
100
AcDbEntity
  8
0
  6
CONTINUOUS
 62
               4
100
AcDbLine
 10
9.2999999999999545
 20
-44.700000000000003
 30
0.0
 11
9.2999999999999545
 21
-45.0
 31
0.0
  0
LINE
  5
5AB
100
AcDbEntity
  8
0
  6
CONTINUOUS
 62
               4
100
AcDbLine
 10
9.2999999999999545
 20
-45.0
 30
0.0
 11
9.2000000000000455
 21
-45.099999999999994
 31
0.0
  0
LINE
  5
5AC
100
AcDbEntity
  8
0
  6
CONTINUOUS
 62
               4
100
AcDbLine
 10
10.25
 20
-44.161879999999996
 30
0.0
 11
10.25
 21
-40.200000000000003
 31
0.0
  0
LINE
  5
5AD
100
AcDbEntity
  8
0
  6
CONTINUOUS
 62
               4
100
AcDbLine
 10
8.75
 20
-46.0
 30
0.0
 11
8.75
 21
-45.099999999999994
 31
0.0
  0
LINE
  5
5AE
100
AcDbEntity
  8
0
  6
CONTINUOUS
 62
               4
100
AcDbLine
 10
10.049999599999978
 20
-44.700000000000003
 30
0.0
 11
0.4500004053115845
 21
-44.700000000000003
 31
0.0
  0
LINE
  5
5AF
100
AcDbEntity
  8
0
  6
CONTINUOUS
 62
               4
100
AcDbLine
 10
9.2000000000000455
 20
-45.099999999999994
 30
0.0
 11
1.2999999999999545
 21
-45.099999999999994
 31
0.0
  0
LINE
  5
5B0
100
AcDbEntity
  8
0
  6
CONTINUOUS
 62
               4
100
AcDbLine
 10
1.2000000000000455
 20
-45.0
 30
0.0
 11
1.2999999999999545
 21
-45.099999999999994
 31
0.0
  0
LINE
  5
5B1
100
AcDbEntity
  8
0
  6
CONTINUOUS
 62
               4
100
AcDbLine
 10
1.2000000000000455
 20
-44.700000000000003
 30
0.0
 11
1.2000000000000455
 21
-45.0
 31
0.0
  0
LINE
  5
5B2
100
AcDbEntity
  8
0
  6
CONTINUOUS
 62
               4
100
AcDbLine
 10
0.3160255000000234
 20
-44.200000000000003
 30
0.0
 11
0.4500004000000217
 21
-44.700000000000003
 31
0.0
  0
LINE
  5
5B3
100
AcDbEntity
  8
0
  6
CONTINUOUS
 62
               4
100
AcDbLine
 10
10.25
 20
-40.200000000000003
 30
0.0
 11
10.049999999999955
 21
-40.0
 31
0.0
  0
LINE
  5
5B4
100
AcDbEntity
  8
0
  6
CONTINUOUS
 62
               4
100
AcDbLine
 10
9.5
 20
-39.299999999999997
 30
0.0
 11
9.5
 21
-40.0
 31
0.0
  0
LINE
  5
5B5
100
AcDbEntity
  8
0
  6
CONTINUOUS
 62
               4
100
AcDbLine
 10
1.0
 20
-40.0
 30
0.0
 11
1.0
 21
-39.299999999999997
 31
0.0
  0
LINE
  5
5B6
100
AcDbEntity
  8
0
  6
CONTINUOUS
 62
               4
100
AcDbLine
 10
10.049999999999955
 20
-40.0
 30
0.0
 11
0.4500000000000455
 21
-40.0
 31
0.0
  0
LINE
  5
5B7
100
AcDbEntity
  8
0
  6
CONTINUOUS
 62
               4
100
AcDbLine
 10
10.049999999999955
 20
-39.299999999999997
 30
0.0
 11
10.25
 21
-39.099999999999994
 31
0.0
  0
LINE
  5
5B8
100
AcDbEntity
  8
0
  6
CONTINUOUS
 62
               4
100
AcDbLine
 10
10.049999999999955
 20
-39.299999999999997
 30
0.0
 11
0.4500000000000455
 21
-39.299999999999997
 31
0.0
  0
LINE
  5
5B9
100
AcDbEntity
  8
0
  6
CONTINUOUS
 62
               4
100
AcDbLine
 10
10.25
 20
-39.099999999999994
 30
0.0
 11
10.25
 21
-35.5
 31
0.0
  0
LINE
  5
5BA
100
AcDbEntity
  8
0
  6
CONTINUOUS
 62
               4
100
AcDbLine
 10
10.149999999999977
 20
-46.799999999999997
 30
0.0
 11
10.149999999999977
 21
-46.0
 31
0.0
  0
ARC
  5
5BB
100
AcDbEntity
  8
0
  6
CONTINUOUS
 62
               4
100
AcDbCircle
 10
9.9500000000000455
 20
-46.799999999999997
 30
0.0
 40
0.2
100
AcDbArc
 50
270.0
 51
0.0
  0
LINE
  5
5BC
100
AcDbEntity
  8
0
  6
CONTINUOUS
 62
               4
100
AcDbLine
 10
10.149999999999977
 20
-46.0
 30
0.0
 11
0.3499999940395355
 21
-46.0
 31
0.0
  0
LINE
  5
5BD
100
AcDbEntity
  8
0
  6
CONTINUOUS
 62
               4
100
AcDbLine
 10
1.75
 20
-46.0
 30
0.0
 11
1.75
 21
-45.099999999999994
 31
0.0
  0
ARC
  5
5BE
100
AcDbEntity
  8
0
  6
CONTINUOUS
 62
               4
100
AcDbCircle
 10
0.5499999999999545
 20
-46.799999999999997
 30
0.0
 40
0.2
100
AcDbArc
 50
180.0
 51
270.0
  0
LINE
  5
5BF
100
AcDbEntity
  8
0
  6
CONTINUOUS
 62
               4
100
AcDbLine
 10
0.3500000000000227
 20
-46.799999999999997
 30
0.0
 11
0.3500000000000227
 21
-46.0
 31
0.0
  0
LINE
  5
5C0
100
AcDbEntity
  8
0
  6
CONTINUOUS
 62
               4
100
AcDbLine
 10
9.9500000000000455
 20
-47.0
 30
0.0
 11
0.550000011920929
 21
-47.0
 31
0.0
  0
LINE
  5
5C1
100
AcDbEntity
  8
0
  6
CONTINUOUS
 62
               4
100
AcDbLine
 10
10.25
 20
-35.300000000000011
 30
0.0
 11
10.25
 21
-30.5
 31
0.0
  0
LINE
  5
5C2
100
AcDbEntity
  8
0
  6
CONTINUOUS
 62
             200
100
AcDbLine
 10
5.25
 20
-49.853306722724255
 30
0.0
 11
5.25
 21
-30.5
 31
0.0
  0
ARC
  5
5C3
100
AcDbEntity
  8
0
  6
CONTINUOUS
 62
               7
100
AcDbCircle
 10
9.75
 20
50.0
 30
0.0
 40
0.5
100
AcDbArc
 50
270.00001798608935
 51
0.0
  0
ARC
  5
5C4
100
AcDbEntity
  8
0
  6
CONTINUOUS
 62
               7
100
AcDbCircle
 10
9.75
 20
58.5
 30
0.0
 40
0.5
100
AcDbArc
 50
0.0
 51
89.999982013910653
  0
CIRCLE
  5
5C5
100
AcDbEntity
  8
0
  6
CONTINUOUS
 62
               4
100
AcDbCircle
 10
9.0500030517578125
 20
11.300003051757813
 30
0.0
 40
1.25
  0
LINE
  5
5C6
100
AcDbEntity
  8
0
  6
CONTINUOUS
 62
               7
100
AcDbLine
 10
10.25
 20
50.0
 30
0.0
 11
10.25
 21
58.5
 31
0.0
  0
LINE
  5
5C7
100
AcDbEntity
  8
0
  6
CONTINUOUS
 62
               7
100
AcDbLine
 10
7.649993896484375
 20
-30.300003051757812
 30
0.0
 11
10.5
 21
-30.300003051757812
 31
0.0
  0
LINE
  5
5C8
100
AcDbEntity
  8
0
  6
CONTINUOUS
 62
               7
100
AcDbLine
 10
7.649993896484375
 20
-30.300003051757812
 30
0.0
 11
7.649993896484375
 21
-25.5
 31
0.0
  0
LINE
  5
5C9
100
AcDbEntity
  8
0
  6
CONTINUOUS
 62
               7
100
AcDbLine
 10
10.25
 20
-30.300003051757812
 30
0.0
 11
10.25
 21
-30.5
 31
0.0
  0
LINE
  5
5CA
100
AcDbEntity
  8
0
  6
CONTINUOUS
 62
               7
100
AcDbLine
 10
7.4499969482421875
 20
-25.5
 30
0.0
 11
7.4499969482421875
 21
-30.5
 31
0.0
  0
LINE
  5
5CB
100
AcDbEntity
  8
0
  6
CONTINUOUS
 62
               7
100
AcDbLine
 10
0.75
 20
59.0
 30
0.0
 11
9.75
 21
59.0
 31
0.0
  0
LINE
  5
5CC
100
AcDbEntity
  8
0
  6
CONTINUOUS
 62
               7
100
AcDbLine
 10
8.75
 20
59.0
 30
0.0
 11
8.75
 21
59.5
 31
0.0
  0
LINE
  5
5CD
100
AcDbEntity
  8
0
  6
CONTINUOUS
 62
               7
100
AcDbLine
 10
1.75
 20
59.0
 30
0.0
 11
1.75
 21
59.5
 31
0.0
  0
LINE
  5
5CE
100
AcDbEntity
  8
0
  6
CONTINUOUS
 62
               7
100
AcDbLine
 10
0.75
 20
49.5
 30
0.0
 11
9.75
 21
49.5
 31
0.0
  0
LINE
  5
5CF
100
AcDbEntity
  8
0
  6
CONTINUOUS
 62
               7
100
AcDbLine
 10
10.25
 20
21.5
 30
0.0
 11
10.5
 21
21.5
 31
0.0
  0
LINE
  5
5D0
100
AcDbEntity
  8
0
  6
CONTINUOUS
 62
               7
100
AcDbLine
 10
10.5
 20
-30.300003051757812
 30
0.0
 11
10.5
 21
62.5
 31
0.0
  0
LINE
  5
5D1
100
AcDbEntity
  8
0
  6
CONTINUOUS
 62
               4
100
AcDbLine
 10
10.25
 20
11.649978637695312
 30
0.0
 11
10.25
 21
22.0
 31
0.0
  0
LINE
  5
5D2
100
AcDbEntity
  8
0
  6
CONTINUOUS
 62
               4
100
AcDbLine
 10
10.25
 20
-18.0
 30
0.0
 11
10.25
 21
10.95001220703125
 31
0.0
  0
LINE
  5
5D3
100
AcDbEntity
  8
0
  6
CONTINUOUS
 62
               4
100
AcDbLine
 10
8.448982124316899
 20
10.698958368663625
 30
0.0
 11
9.6510507855764445
 21
11.901026928596366
 31
0.0
  0
LINE
  5
5D4
100
AcDbEntity
  8
0
  6
CONTINUOUS
 62
               4
100
AcDbLine
 10
8.4489759877342294
 20
11.901081491908371
 30
0.0
 11
9.6510554385877185
 21
10.699002142382597
 31
0.0
  0
LINE
  5
5D5
100
AcDbEntity
  8
0
  6
CONTINUOUS
 62
               4
100
AcDbLine
 10
0.8490071836595234
 20
-14.901056619160954
 30
0.0
 11
2.0510866345130125
 21
-13.698977269635179
 31
0.0
  0
LINE
  5
5D6
100
AcDbEntity
  8
0
  6
CONTINUOUS
 62
               4
100
AcDbLine
 10
0.8489816258088467
 20
-13.698912557360018
 30
0.0
 11
2.0510610766623358
 21
-14.900991906885793
 31
0.0
  0
LINE
  5
5D7
100
AcDbEntity
  8
0
  6
CONTINUOUS
 62
               7
100
AcDbLine
 10
0.0
 20
-25.5
 30
0.0
 11
7.649993896484375
 21
-25.5
 31
0.0
  0
LINE
  5
5D8
100
AcDbEntity
  8
0
  6
CONTINUOUS
 62
               4
100
AcDbLine
 10
0.25
 20
-18.0
 30
0.0
 11
10.25
 21
-18.0
 31
0.0
  0
LINE
  5
5D9
100
AcDbEntity
  8
0
  6
CONTINUOUS
 62
               4
100
AcDbLine
 10
0.25
 20
22.0
 30
0.0
 11
10.25
 21
22.0
 31
0.0
  0
LINE
  5
5DA
100
AcDbEntity
  8
0
  6
CONTINUOUS
 62
               7
100
AcDbLine
 10
0.0
 20
59.5
 30
0.0
 11
10.5
 21
59.5
 31
0.0
  0
LINE
  5
5DB
100
AcDbEntity
  8
0
  6
CONTINUOUS
 62
               7
100
AcDbLine
 10
0.0
 20
61.5
 30
0.0
 11
10.5
 21
61.5
 31
0.0
  0
LINE
  5
5DC
100
AcDbEntity
  8
0
  6
CONTINUOUS
 62
               7
100
AcDbLine
 10
0.0
 20
60.5
 30
0.0
 11
10.5
 21
60.5
 31
0.0
  0
LINE
  5
5DD
100
AcDbEntity
  8
0
  6
CONTINUOUS
 62
               7
100
AcDbLine
 10
0.0
 20
61.0
 30
0.0
 11
10.5
 21
61.0
 31
0.0
  0
LINE
  5
5DE
100
AcDbEntity
  8
0
  6
CONTINUOUS
 62
               7
100
AcDbLine
 10
0.25
 20
-30.5
 30
0.0
 11
1.2496873415403797
 21
-30.5
 31
0.0
  0
CIRCLE
  5
5DF
100
AcDbEntity
  8
0
  6
CONTINUOUS
 62
               4
100
AcDbCircle
 10
1.4499969482421875
 20
-14.300003051757813
 30
0.0
 40
1.25
  0
ARC
  5
5E0
100
AcDbEntity
  8
0
  6
CONTINUOUS
 62
               7
100
AcDbCircle
 10
0.75
 20
50.0
 30
0.0
 40
0.5
100
AcDbArc
 50
179.99998133066532
 51
270.00001798608935
  0
ARC
  5
5E1
100
AcDbEntity
  8
0
  6
CONTINUOUS
 62
               7
100
AcDbCircle
 10
0.75
 20
58.5
 30
0.0
 40
0.5
100
AcDbArc
 50
89.999982013910653
 51
179.99996402782131
  0
LINE
  5
5E2
100
AcDbEntity
  8
0
  6
CONTINUOUS
 62
               4
100
AcDbLine
 10
10.25
 20
-39.099999999999994
 30
0.0
 11
0.25
 21
-39.099999999999994
 31
0.0
  0
LINE
  5
5E3
100
AcDbEntity
  8
0
  6
CONTINUOUS
 62
               4
100
AcDbLine
 10
0.4500000000000455
 20
-39.299999999999997
 30
0.0
 11
0.25
 21
-39.099999999999994
 31
0.0
  0
LINE
  5
5E4
100
AcDbEntity
  8
0
  6
CONTINUOUS
 62
               4
100
AcDbLine
 10
10.25
 20
-40.200000000000003
 30
0.0
 11
0.25
 21
-40.200000000000003
 31
0.0
  0
LINE
  5
5E5
100
AcDbEntity
  8
0
  6
CONTINUOUS
 62
               4
100
AcDbLine
 10
0.25
 20
-40.200000000000003
 30
0.0
 11
0.4500000000000455
 21
-40.0
 31
0.0
  0
LINE
  5
5E6
100
AcDbEntity
  8
0
  6
CONTINUOUS
 62
               4
100
AcDbLine
 10
0.25
 20
-44.161879999999996
 30
0.0
 11
0.3160252000000128
 21
-44.200000000000003
 31
0.0
  0
LINE
  5
5E7
100
AcDbEntity
  8
0
  6
CONTINUOUS
 62
               4
100
AcDbLine
 10
10.25
 20
-44.161879999999996
 30
0.0
 11
0.25
 21
-44.161879999999996
 31
0.0
  0
LINE
  5
5E8
100
AcDbEntity
  8
0
  6
CONTINUOUS
 62
               4
100
AcDbLine
 10
10.25
 20
-35.5
 30
0.0
 11
0.25
 21
-35.5
 31
0.0
  0
LINE
  5
5E9
100
AcDbEntity
  8
0
  6
CONTINUOUS
 62
               4
100
AcDbLine
 10
0.25
 20
-35.5
 30
0.0
 11
0.3500000000000227
 21
-35.400000000000006
 31
0.0
  0
LINE
  5
5EA
100
AcDbEntity
  8
0
  6
CONTINUOUS
 62
               4
100
AcDbLine
 10
0.3500000000000227
 20
-35.400000000000006
 30
0.0
 11
0.25
 21
-35.300000000000011
 31
0.0
  0
LINE
  5
5EB
100
AcDbEntity
  8
0
  6
CONTINUOUS
 62
               7
100
AcDbLine
 10
10.5
 20
62.5
 30
0.0
 11
0.0
 21
62.5
 31
0.0
  0
ENDBLK
  5
5EC
100
AcDbEntity
  8
0
100
AcDbBlockEnd
  0
BLOCK
  5
5ED
100
AcDbEntity
  8
0
100
AcDbBlockBegin
  2
F10MPJ-17
 70
               0
 10
0.0
 20
0.0
 30
0.0
  3
F10MPJ-17
  1

  0
LINE
  5
5EE
100
AcDbEntity
  8
0
  6
CONTINUOUS
 62
             200
100
AcDbLine
 10
24.5
 20
-47.569078549345107
 30
0.0
 11
24.5
 21
-28.554691880209532
 31
0.0
  0
LINE
  5
5EF
100
AcDbEntity
  8
0
  6
CONTINUOUS
 62
             200
100
AcDbLine
 10
13.499999999999993
 20
-47.569078549345107
 30
0.0
 11
13.499999999999993
 21
-28.554691880209532
 31
0.0
  0
LINE
  5
5F0
100
AcDbEntity
  8
0
  6
CONTINUOUS
 62
               4
100
AcDbLine
 10
29.541922890887946
 20
-35.287845637098869
 30
0.0
 11
29.541922890887946
 21
-30.487845637098857
 31
0.0
  0
LINE
  5
5F1
100
AcDbEntity
  8
0
  6
CONTINUOUS
 62
               4
100
AcDbLine
 10
19.541922890887946
 20
-35.287845637098854
 30
0.0
 11
19.541922890887946
 21
-30.487845637098857
 31
0.0
  0
LINE
  5
5F2
100
AcDbEntity
  8
0
  6
CONTINUOUS
 62
               4
100
AcDbLine
 10
19.541922890887946
 20
-35.287845637098854
 30
0.0
 11
29.541922890887946
 21
-35.287845637098854
 31
0.0
  0
LINE
  5
5F3
100
AcDbEntity
  8
0
  6
CONTINUOUS
 62
               4
100
AcDbLine
 10
29.241922890887949
 20
-46.987845637098857
 30
0.0
 11
19.841922902808875
 21
-46.987845637098857
 31
0.0
  0
LINE
  5
5F4
100
AcDbEntity
  8
0
  6
CONTINUOUS
 62
               4
100
AcDbLine
 10
19.64192289088794
 20
-46.787845637098854
 30
0.0
 11
19.64192289088794
 21
-45.987845637098857
 31
0.0
  0
ARC
  5
5F5
100
AcDbEntity
  8
0
  6
CONTINUOUS
 62
               4
100
AcDbCircle
 10
19.841922890887943
 20
-46.787845637098854
 30
0.0
 40
0.2
100
AcDbArc
 50
180.0
 51
270.0
  0
LINE
  5
5F6
100
AcDbEntity
  8
0
  6
CONTINUOUS
 62
               4
100
AcDbLine
 10
21.041922890887946
 20
-45.987845637098857
 30
0.0
 11
21.041922890887946
 21
-45.087845637098852
 31
0.0
  0
LINE
  5
5F7
100
AcDbEntity
  8
0
  6
CONTINUOUS
 62
               4
100
AcDbLine
 10
29.441922890887938
 20
-45.987845637098857
 30
0.0
 11
19.641922884927482
 21
-45.987845637098857
 31
0.0
  0
LINE
  5
5F8
100
AcDbEntity
  8
0
  6
CONTINUOUS
 62
               4
100
AcDbLine
 10
19.541922890887946
 20
-44.149725637098854
 30
0.0
 11
19.541922890887946
 21
-40.18784563709886
 31
0.0
  0
ARC
  5
5F9
100
AcDbEntity
  8
0
  6
CONTINUOUS
 62
               4
100
AcDbCircle
 10
29.241922890887949
 20
-46.787845637098854
 30
0.0
 40
0.2
100
AcDbArc
 50
270.0
 51
0.0
  0
LINE
  5
5FA
100
AcDbEntity
  8
0
  6
CONTINUOUS
 62
               4
100
AcDbLine
 10
29.441922890887938
 20
-46.787845637098854
 30
0.0
 11
29.441922890887938
 21
-45.987845637098857
 31
0.0
  0
LINE
  5
5FB
100
AcDbEntity
  8
0
  6
CONTINUOUS
 62
               4
100
AcDbLine
 10
29.541922890887946
 20
-39.087845637098852
 30
0.0
 11
29.541922890887946
 21
-35.487845637098857
 31
0.0
  0
LINE
  5
5FC
100
AcDbEntity
  8
0
  6
CONTINUOUS
 62
               4
100
AcDbLine
 10
19.541922890887946
 20
-39.087845637098852
 30
0.0
 11
19.541922890887946
 21
-35.487845637098857
 31
0.0
  0
LINE
  5
5FD
100
AcDbEntity
  8
0
  6
CONTINUOUS
 62
               4
100
AcDbLine
 10
29.541922890887946
 20
-39.087845637098852
 30
0.0
 11
19.541922890887946
 21
-39.087845637098852
 31
0.0
  0
LINE
  5
5FE
100
AcDbEntity
  8
0
  6
CONTINUOUS
 62
               4
100
AcDbLine
 10
29.341922890887943
 20
-39.287845637098854
 30
0.0
 11
19.741922890887949
 21
-39.287845637098854
 31
0.0
  0
LINE
  5
5FF
100
AcDbEntity
  8
0
  6
CONTINUOUS
 62
               4
100
AcDbLine
 10
19.741922890887949
 20
-39.287845637098854
 30
0.0
 11
19.541922890887946
 21
-39.087845637098852
 31
0.0
  0
LINE
  5
600
100
AcDbEntity
  8
0
  6
CONTINUOUS
 62
               4
100
AcDbLine
 10
29.341922890887943
 20
-39.287845637098854
 30
0.0
 11
29.541922890887946
 21
-39.087845637098852
 31
0.0
  0
LINE
  5
601
100
AcDbEntity
  8
0
  6
CONTINUOUS
 62
               4
100
AcDbLine
 10
29.341922890887943
 20
-39.987845637098857
 30
0.0
 11
19.741922890887949
 21
-39.987845637098857
 31
0.0
  0
LINE
  5
602
100
AcDbEntity
  8
0
  6
CONTINUOUS
 62
               4
100
AcDbLine
 10
29.541922890887946
 20
-40.18784563709886
 30
0.0
 11
19.541922890887946
 21
-40.18784563709886
 31
0.0
  0
LINE
  5
603
100
AcDbEntity
  8
0
  6
CONTINUOUS
 62
               4
100
AcDbLine
 10
20.291922890887946
 20
-39.987845637098857
 30
0.0
 11
20.291922890887946
 21
-39.287845637098854
 31
0.0
  0
LINE
  5
604
100
AcDbEntity
  8
0
  6
CONTINUOUS
 62
               4
100
AcDbLine
 10
28.791922890887946
 20
-39.287845637098854
 30
0.0
 11
28.791922890887946
 21
-39.987845637098857
 31
0.0
  0
LINE
  5
605
100
AcDbEntity
  8
0
  6
CONTINUOUS
 62
               4
100
AcDbLine
 10
19.541922890887946
 20
-40.18784563709886
 30
0.0
 11
19.741922890887949
 21
-39.987845637098857
 31
0.0
  0
LINE
  5
606
100
AcDbEntity
  8
0
  6
CONTINUOUS
 62
               4
100
AcDbLine
 10
29.541922890887946
 20
-40.18784563709886
 30
0.0
 11
29.341922890887943
 21
-39.987845637098857
 31
0.0
  0
LINE
  5
607
100
AcDbEntity
  8
0
  6
CONTINUOUS
 62
               4
100
AcDbLine
 10
19.541922890887946
 20
-44.149725637098854
 30
0.0
 11
19.60794809088793
 21
-44.18784563709886
 31
0.0
  0
LINE
  5
608
100
AcDbEntity
  8
0
  6
CONTINUOUS
 62
               4
100
AcDbLine
 10
19.607948390887941
 20
-44.18784563709886
 30
0.0
 11
19.741923290887939
 21
-44.68784563709886
 31
0.0
  0
LINE
  5
609
100
AcDbEntity
  8
0
  6
CONTINUOUS
 62
               4
100
AcDbLine
 10
20.491922890887949
 20
-44.68784563709886
 30
0.0
 11
20.491922890887949
 21
-44.987845637098857
 31
0.0
  0
LINE
  5
60A
100
AcDbEntity
  8
0
  6
CONTINUOUS
 62
               4
100
AcDbLine
 10
20.491922890887949
 20
-44.987845637098857
 30
0.0
 11
20.591922890887929
 21
-45.087845637098852
 31
0.0
  0
LINE
  5
60B
100
AcDbEntity
  8
0
  6
CONTINUOUS
 62
               4
100
AcDbLine
 10
28.491922890887949
 20
-45.087845637098852
 30
0.0
 11
20.591922890887929
 21
-45.087845637098852
 31
0.0
  0
LINE
  5
60C
100
AcDbEntity
  8
0
  6
CONTINUOUS
 62
               4
100
AcDbLine
 10
29.341922490887939
 20
-44.68784563709886
 30
0.0
 11
19.741923296199531
 21
-44.68784563709886
 31
0.0
  0
LINE
  5
60D
100
AcDbEntity
  8
0
  6
CONTINUOUS
 62
               4
100
AcDbLine
 10
28.041922890887946
 20
-45.987845637098857
 30
0.0
 11
28.041922890887946
 21
-45.087845637098852
 31
0.0
  0
LINE
  5
60E
100
AcDbEntity
  8
0
  6
CONTINUOUS
 62
               4
100
AcDbLine
 10
29.541922890887946
 20
-44.149725637098854
 30
0.0
 11
29.541922890887946
 21
-40.18784563709886
 31
0.0
  0
LINE
  5
60F
100
AcDbEntity
  8
0
  6
CONTINUOUS
 62
               4
100
AcDbLine
 10
28.591922890887943
 20
-44.987845637098857
 30
0.0
 11
28.491922890887949
 21
-45.087845637098852
 31
0.0
  0
LINE
  5
610
100
AcDbEntity
  8
0
  6
CONTINUOUS
 62
               4
100
AcDbLine
 10
28.591922890887943
 20
-44.68784563709886
 30
0.0
 11
28.591922890887943
 21
-44.987845637098857
 31
0.0
  0
LINE
  5
611
100
AcDbEntity
  8
0
  6
CONTINUOUS
 62
               4
100
AcDbLine
 10
29.475897390887937
 20
-44.18784563709886
 30
0.0
 11
29.341922490887939
 21
-44.68784563709886
 31
0.0
  0
LINE
  5
612
100
AcDbEntity
  8
0
  6
CONTINUOUS
 62
               4
100
AcDbLine
 10
29.541922890887946
 20
-44.149725637098854
 30
0.0
 11
29.475897690887948
 21
-44.18784563709886
 31
0.0
  0
LINE
  5
613
100
AcDbEntity
  8
0
  6
CONTINUOUS
 62
               4
100
AcDbLine
 10
28.591922890887943
 20
-44.987845637098857
 30
0.0
 11
20.491922890887949
 21
-44.987845637098857
 31
0.0
  0
LINE
  5
614
100
AcDbEntity
  8
0
  6
CONTINUOUS
 62
               4
100
AcDbLine
 10
29.541922890887946
 20
-44.149725637098854
 30
0.0
 11
19.541922890887946
 21
-44.149725637098854
 31
0.0
  0
LINE
  5
615
100
AcDbEntity
  8
0
  6
CONTINUOUS
 62
               4
100
AcDbLine
 10
29.475897335754127
 20
-44.187845842004876
 30
0.0
 11
19.607948446021766
 21
-44.187845842004876
 31
0.0
  0
LINE
  5
616
100
AcDbEntity
  8
0
  6
CONTINUOUS
 62
               4
100
AcDbLine
 10
29.441922890887952
 20
-35.387845637098863
 30
0.0
 11
19.64192289088794
 21
-35.387845637098863
 31
0.0
  0
LINE
  5
617
100
AcDbEntity
  8
0
  6
CONTINUOUS
 62
               4
100
AcDbLine
 10
29.541922890887946
 20
-35.487845637098857
 30
0.0
 11
19.541922890887946
 21
-35.487845637098857
 31
0.0
  0
LINE
  5
618
100
AcDbEntity
  8
0
  6
CONTINUOUS
 62
               4
100
AcDbLine
 10
19.541922890887946
 20
-35.487845637098857
 30
0.0
 11
19.64192289088794
 21
-35.387845637098863
 31
0.0
  0
LINE
  5
619
100
AcDbEntity
  8
0
  6
CONTINUOUS
 62
               4
100
AcDbLine
 10
19.64192289088794
 20
-35.387845637098863
 30
0.0
 11
19.541922890887946
 21
-35.287845637098869
 31
0.0
  0
LINE
  5
61A
100
AcDbEntity
  8
0
  6
CONTINUOUS
 62
               4
100
AcDbLine
 10
29.441922890887952
 20
-35.387845637098863
 30
0.0
 11
29.541922890887946
 21
-35.287845637098869
 31
0.0
  0
LINE
  5
61B
100
AcDbEntity
  8
0
  6
CONTINUOUS
 62
               4
100
AcDbLine
 10
29.541922890887946
 20
-35.487845637098857
 30
0.0
 11
29.441922890887938
 21
-35.387845637098863
 31
0.0
  0
LINE
  5
61C
100
AcDbEntity
  8
0
  6
CONTINUOUS
 62
               4
100
AcDbLine
 10
18.541922890887946
 20
-35.287845637098869
 30
0.0
 11
18.541922890887946
 21
-30.487845637098857
 31
0.0
  0
LINE
  5
61D
100
AcDbEntity
  8
0
  6
CONTINUOUS
 62
               4
100
AcDbLine
 10
8.5419228908879461
 20
-35.287845637098854
 30
0.0
 11
8.5419228908879461
 21
-30.487845637098857
 31
0.0
  0
LINE
  5
61E
100
AcDbEntity
  8
0
  6
CONTINUOUS
 62
               4
100
AcDbLine
 10
8.5419228908879461
 20
-35.287845637098854
 30
0.0
 11
18.541922890887946
 21
-35.287845637098854
 31
0.0
  0
LINE
  5
61F
100
AcDbEntity
  8
0
  6
CONTINUOUS
 62
               4
100
AcDbLine
 10
18.241922890887949
 20
-46.987845637098857
 30
0.0
 11
8.8419229028088751
 21
-46.987845637098857
 31
0.0
  0
LINE
  5
620
100
AcDbEntity
  8
0
  6
CONTINUOUS
 62
               4
100
AcDbLine
 10
8.6419228908879404
 20
-46.787845637098854
 30
0.0
 11
8.6419228908879404
 21
-45.987845637098857
 31
0.0
  0
ARC
  5
621
100
AcDbEntity
  8
0
  6
CONTINUOUS
 62
               4
100
AcDbCircle
 10
8.8419228908879433
 20
-46.787845637098854
 30
0.0
 40
0.2
100
AcDbArc
 50
180.0
 51
270.0
  0
LINE
  5
622
100
AcDbEntity
  8
0
  6
CONTINUOUS
 62
               4
100
AcDbLine
 10
10.041922890887946
 20
-45.987845637098857
 30
0.0
 11
10.041922890887946
 21
-45.087845637098852
 31
0.0
  0
LINE
  5
623
100
AcDbEntity
  8
0
  6
CONTINUOUS
 62
               4
100
AcDbLine
 10
18.441922890887938
 20
-45.987845637098857
 30
0.0
 11
8.6419228849274816
 21
-45.987845637098857
 31
0.0
  0
LINE
  5
624
100
AcDbEntity
  8
0
  6
CONTINUOUS
 62
               4
100
AcDbLine
 10
8.5419228908879461
 20
-44.149725637098854
 30
0.0
 11
8.5419228908879461
 21
-40.18784563709886
 31
0.0
  0
ARC
  5
625
100
AcDbEntity
  8
0
  6
CONTINUOUS
 62
               4
100
AcDbCircle
 10
18.241922890887949
 20
-46.787845637098854
 30
0.0
 40
0.2
100
AcDbArc
 50
270.0
 51
0.0
  0
LINE
  5
626
100
AcDbEntity
  8
0
  6
CONTINUOUS
 62
               4
100
AcDbLine
 10
18.441922890887938
 20
-46.787845637098854
 30
0.0
 11
18.441922890887938
 21
-45.987845637098857
 31
0.0
  0
LINE
  5
627
100
AcDbEntity
  8
0
  6
CONTINUOUS
 62
               4
100
AcDbLine
 10
18.541922890887946
 20
-39.087845637098852
 30
0.0
 11
18.541922890887946
 21
-35.487845637098857
 31
0.0
  0
LINE
  5
628
100
AcDbEntity
  8
0
  6
CONTINUOUS
 62
               4
100
AcDbLine
 10
8.5419228908879461
 20
-39.087845637098852
 30
0.0
 11
8.5419228908879461
 21
-35.487845637098857
 31
0.0
  0
LINE
  5
629
100
AcDbEntity
  8
0
  6
CONTINUOUS
 62
               4
100
AcDbLine
 10
18.541922890887946
 20
-39.087845637098852
 30
0.0
 11
8.5419228908879461
 21
-39.087845637098852
 31
0.0
  0
LINE
  5
62A
100
AcDbEntity
  8
0
  6
CONTINUOUS
 62
               4
100
AcDbLine
 10
18.341922890887943
 20
-39.287845637098854
 30
0.0
 11
8.7419228908879489
 21
-39.287845637098854
 31
0.0
  0
LINE
  5
62B
100
AcDbEntity
  8
0
  6
CONTINUOUS
 62
               4
100
AcDbLine
 10
8.7419228908879489
 20
-39.287845637098854
 30
0.0
 11
8.5419228908879461
 21
-39.087845637098852
 31
0.0
  0
LINE
  5
62C
100
AcDbEntity
  8
0
  6
CONTINUOUS
 62
               4
100
AcDbLine
 10
18.341922890887943
 20
-39.287845637098854
 30
0.0
 11
18.541922890887946
 21
-39.087845637098852
 31
0.0
  0
LINE
  5
62D
100
AcDbEntity
  8
0
  6
CONTINUOUS
 62
               4
100
AcDbLine
 10
18.341922890887943
 20
-39.987845637098857
 30
0.0
 11
8.7419228908879489
 21
-39.987845637098857
 31
0.0
  0
LINE
  5
62E
100
AcDbEntity
  8
0
  6
CONTINUOUS
 62
               4
100
AcDbLine
 10
18.541922890887946
 20
-40.18784563709886
 30
0.0
 11
8.5419228908879461
 21
-40.18784563709886
 31
0.0
  0
LINE
  5
62F
100
AcDbEntity
  8
0
  6
CONTINUOUS
 62
               4
100
AcDbLine
 10
9.2919228908879461
 20
-39.987845637098857
 30
0.0
 11
9.2919228908879461
 21
-39.287845637098854
 31
0.0
  0
LINE
  5
630
100
AcDbEntity
  8
0
  6
CONTINUOUS
 62
               4
100
AcDbLine
 10
17.791922890887946
 20
-39.287845637098854
 30
0.0
 11
17.791922890887946
 21
-39.987845637098857
 31
0.0
  0
LINE
  5
631
100
AcDbEntity
  8
0
  6
CONTINUOUS
 62
               4
100
AcDbLine
 10
8.5419228908879461
 20
-40.18784563709886
 30
0.0
 11
8.7419228908879489
 21
-39.987845637098857
 31
0.0
  0
LINE
  5
632
100
AcDbEntity
  8
0
  6
CONTINUOUS
 62
               4
100
AcDbLine
 10
18.541922890887946
 20
-40.18784563709886
 30
0.0
 11
18.341922890887943
 21
-39.987845637098857
 31
0.0
  0
LINE
  5
633
100
AcDbEntity
  8
0
  6
CONTINUOUS
 62
               4
100
AcDbLine
 10
8.5419228908879461
 20
-44.149725637098854
 30
0.0
 11
8.6079480908879304
 21
-44.18784563709886
 31
0.0
  0
LINE
  5
634
100
AcDbEntity
  8
0
  6
CONTINUOUS
 62
               4
100
AcDbLine
 10
8.6079483908879411
 20
-44.18784563709886
 30
0.0
 11
8.7419232908879394
 21
-44.68784563709886
 31
0.0
  0
LINE
  5
635
100
AcDbEntity
  8
0
  6
CONTINUOUS
 62
               4
100
AcDbLine
 10
9.4919228908879489
 20
-44.68784563709886
 30
0.0
 11
9.4919228908879489
 21
-44.987845637098857
 31
0.0
  0
LINE
  5
636
100
AcDbEntity
  8
0
  6
CONTINUOUS
 62
               4
100
AcDbLine
 10
9.4919228908879489
 20
-44.987845637098857
 30
0.0
 11
9.591922890887929
 21
-45.087845637098852
 31
0.0
  0
LINE
  5
637
100
AcDbEntity
  8
0
  6
CONTINUOUS
 62
               4
100
AcDbLine
 10
17.491922890887949
 20
-45.087845637098852
 30
0.0
 11
9.591922890887929
 21
-45.087845637098852
 31
0.0
  0
LINE
  5
638
100
AcDbEntity
  8
0
  6
CONTINUOUS
 62
               4
100
AcDbLine
 10
18.341922490887939
 20
-44.68784563709886
 30
0.0
 11
8.7419232961995306
 21
-44.68784563709886
 31
0.0
  0
LINE
  5
639
100
AcDbEntity
  8
0
  6
CONTINUOUS
 62
               4
100
AcDbLine
 10
17.041922890887946
 20
-45.987845637098857
 30
0.0
 11
17.041922890887946
 21
-45.087845637098852
 31
0.0
  0
LINE
  5
63A
100
AcDbEntity
  8
0
  6
CONTINUOUS
 62
               4
100
AcDbLine
 10
18.541922890887946
 20
-44.149725637098854
 30
0.0
 11
18.541922890887946
 21
-40.18784563709886
 31
0.0
  0
LINE
  5
63B
100
AcDbEntity
  8
0
  6
CONTINUOUS
 62
               4
100
AcDbLine
 10
17.591922890887943
 20
-44.987845637098857
 30
0.0
 11
17.491922890887949
 21
-45.087845637098852
 31
0.0
  0
LINE
  5
63C
100
AcDbEntity
  8
0
  6
CONTINUOUS
 62
               4
100
AcDbLine
 10
17.591922890887943
 20
-44.68784563709886
 30
0.0
 11
17.591922890887943
 21
-44.987845637098857
 31
0.0
  0
LINE
  5
63D
100
AcDbEntity
  8
0
  6
CONTINUOUS
 62
               4
100
AcDbLine
 10
18.475897390887937
 20
-44.18784563709886
 30
0.0
 11
18.341922490887939
 21
-44.68784563709886
 31
0.0
  0
LINE
  5
63E
100
AcDbEntity
  8
0
  6
CONTINUOUS
 62
               4
100
AcDbLine
 10
18.541922890887946
 20
-44.149725637098854
 30
0.0
 11
18.475897690887948
 21
-44.18784563709886
 31
0.0
  0
LINE
  5
63F
100
AcDbEntity
  8
0
  6
CONTINUOUS
 62
               4
100
AcDbLine
 10
17.591922890887943
 20
-44.987845637098857
 30
0.0
 11
9.4919228908879489
 21
-44.987845637098857
 31
0.0
  0
LINE
  5
640
100
AcDbEntity
  8
0
  6
CONTINUOUS
 62
               4
100
AcDbLine
 10
18.541922890887946
 20
-44.149725637098854
 30
0.0
 11
8.5419228908879461
 21
-44.149725637098854
 31
0.0
  0
LINE
  5
641
100
AcDbEntity
  8
0
  6
CONTINUOUS
 62
               4
100
AcDbLine
 10
18.475897335754127
 20
-44.187845842004876
 30
0.0
 11
8.6079484460217657
 21
-44.187845842004876
 31
0.0
  0
LINE
  5
642
100
AcDbEntity
  8
0
  6
CONTINUOUS
 62
               4
100
AcDbLine
 10
18.441922890887952
 20
-35.387845637098863
 30
0.0
 11
8.6419228908879404
 21
-35.387845637098863
 31
0.0
  0
LINE
  5
643
100
AcDbEntity
  8
0
  6
CONTINUOUS
 62
               4
100
AcDbLine
 10
18.541922890887946
 20
-35.487845637098857
 30
0.0
 11
8.5419228908879461
 21
-35.487845637098857
 31
0.0
  0
LINE
  5
644
100
AcDbEntity
  8
0
  6
CONTINUOUS
 62
               4
100
AcDbLine
 10
8.5419228908879461
 20
-35.487845637098857
 30
0.0
 11
8.6419228908879404
 21
-35.387845637098863
 31
0.0
  0
LINE
  5
645
100
AcDbEntity
  8
0
  6
CONTINUOUS
 62
               4
100
AcDbLine
 10
8.6419228908879404
 20
-35.387845637098863
 30
0.0
 11
8.5419228908879461
 21
-35.287845637098869
 31
0.0
  0
LINE
  5
646
100
AcDbEntity
  8
0
  6
CONTINUOUS
 62
               4
100
AcDbLine
 10
18.441922890887952
 20
-35.387845637098863
 30
0.0
 11
18.541922890887946
 21
-35.287845637098869
 31
0.0
  0
LINE
  5
647
100
AcDbEntity
  8
0
  6
CONTINUOUS
 62
               4
100
AcDbLine
 10
18.541922890887946
 20
-35.487845637098857
 30
0.0
 11
18.441922890887938
 21
-35.387845637098863
 31
0.0
  0
LINE
  5
648
100
AcDbEntity
  8
0
  6
CONTINUOUS
 62
               4
100
AcDbLine
 10
36.599999999999994
 20
-18.0
 30
0.0
 11
35.0
 21
-18.0
 31
0.0
  0
LINE
  5
649
100
AcDbEntity
  8
0
  6
CONTINUOUS
 62
               4
100
AcDbLine
 10
36.599999999999994
 20
22.0
 30
0.0
 11
35.0
 21
22.0
 31
0.0
  0
LINE
  5
64A
100
AcDbEntity
  8
0
  6
CONTINUOUS
 62
               4
100
AcDbLine
 10
36.599999999999994
 20
-18.0
 30
0.0
 11
36.599999999999994
 21
22.0
 31
0.0
  0
LINE
  5
64B
100
AcDbEntity
  8
0
  6
CONTINUOUS
 62
               4
100
AcDbLine
 10
37.099999999999994
 20
12.050000000000011
 30
0.0
 11
37.099999999999994
 21
10.550000000000011
 31
0.0
  0
LINE
  5
64C
100
AcDbEntity
  8
0
  6
CONTINUOUS
 62
               4
100
AcDbLine
 10
37.099999999999994
 20
-13.550000000000011
 30
0.0
 11
37.099999999999994
 21
-15.050000000000011
 31
0.0
  0
ARC
  5
64D
100
AcDbEntity
  8
0
  6
CONTINUOUS
 62
               4
100
AcDbCircle
 10
36.600004576796209
 20
12.050004576796198
 30
0.0
 40
0.4999954232247482
100
AcDbArc
 50
359.99947553298745
 51
90.000524467012738
  0
ARC
  5
64E
100
AcDbEntity
  8
0
  6
CONTINUOUS
 62
               4
100
AcDbCircle
 10
36.599971008279823
 20
10.550028991720183
 30
0.0
 40
0.5000289925606449
100
AcDbArc
 50
270.00332201378779
 51
359.99667798621203
  0
ARC
  5
64F
100
AcDbEntity
  8
0
  6
CONTINUOUS
 62
               4
100
AcDbCircle
 10
36.600001525206039
 20
-13.549998474793966
 30
0.0
 40
0.4999984747963009
100
AcDbArc
 50
359.99982522373057
 51
90.000174776269247
  0
ARC
  5
650
100
AcDbEntity
  8
0
  6
CONTINUOUS
 62
               4
100
AcDbCircle
 10
36.599974060056269
 20
-15.049974060056257
 30
0.0
 40
0.5000259406165815
100
AcDbArc
 50
270.00297234438585
 51
359.99702765561375
  0
ARC
  5
651
100
AcDbEntity
  8
0
  6
CONTINUOUS
 62
               4
100
AcDbCircle
 10
36.608945617656929
 20
10.582085696281325
 30
0.0
 40
0.5000289925606449
100
AcDbArc
 50
270.00332201378779
 51
359.99667798621203
  0
ENDBLK
  5
652
100
AcDbEntity
  8
0
100
AcDbBlockEnd
  0
BLOCK
  5
653
100
AcDbEntity
  8
0
100
AcDbBlockBegin
  2
F10MPJ-18
 70
               0
 10
0.0
 20
0.0
 30
0.0
  3
F10MPJ-18
  1

  0
LINE
  5
654
100
AcDbEntity
  8
0
  6
CONTINUOUS
 62
               7
100
AcDbLine
 10
0.0
 20
3.0
 30
0.0
 11
10.5
 21
3.0
 31
0.0
  0
LINE
  5
655
100
AcDbEntity
  8
0
  6
CONTINUOUS
 62
               7
100
AcDbLine
 10
0.0
 20
0.0
 30
0.0
 11
10.5
 21
0.0
 31
0.0
  0
LINE
  5
656
100
AcDbEntity
  8
0
  6
CONTINUOUS
 62
               2
100
AcDbLine
 10
5.25
 20
-0.829620361328125
 30
0.0
 11
5.25
 21
35.0
 31
0.0
  0
LINE
  5
657
100
AcDbEntity
  8
0
  6
CONTINUOUS
 62
               7
100
AcDbLine
 10
0.0
 20
1.0
 30
0.0
 11
10.5
 21
1.0
 31
0.0
  0
LINE
  5
658
100
AcDbEntity
  8
0
  6
CONTINUOUS
 62
               7
100
AcDbLine
 10
0.0
 20
35.0
 30
0.0
 11
0.0
 21
1.0
 31
0.0
  0
LINE
  5
659
100
AcDbEntity
  8
0
  6
CONTINUOUS
 62
               7
100
AcDbLine
 10
10.5
 20
35.0
 30
0.0
 11
10.5
 21
1.0
 31
0.0
  0
LINE
  5
65A
100
AcDbEntity
  8
0
  6
CONTINUOUS
 62
               4
100
AcDbLine
 10
10.25
 20
36.600006103515625
 30
0.0
 11
10.25
 21
35.0
 31
0.0
  0
LINE
  5
65B
100
AcDbEntity
  8
0
  6
CONTINUOUS
 62
               4
100
AcDbLine
 10
0.25
 20
36.600006103515625
 30
0.0
 11
0.25
 21
35.0
 31
0.0
  0
LINE
  5
65C
100
AcDbEntity
  8
0
  6
CONTINUOUS
 62
               4
100
AcDbLine
 10
0.25
 20
8.20001220703125
 30
0.0
 11
0.25
 21
34.400003433227539
 31
0.0
  0
LINE
  5
65D
100
AcDbEntity
  8
0
  6
CONTINUOUS
 62
               4
100
AcDbLine
 10
10.25
 20
3.600006103515625
 30
0.0
 11
10.25
 21
29.80000114440918
 31
0.0
  0
LINE
  5
65E
100
AcDbEntity
  8
0
  6
CONTINUOUS
 62
               7
100
AcDbLine
 10
2.850006103515625
 20
3.0
 30
0.0
 11
2.850006103515625
 21
6.1999969482421875
 31
0.0
  0
ARC
  5
65F
100
AcDbEntity
  8
0
  6
CONTINUOUS
 62
               7
100
AcDbCircle
 10
9.04998779296875
 20
31.800003051757813
 30
0.0
 40
1.3999996185302734
100
AcDbArc
 50
179.99998133066532
 51
270.00001798608935
  0
ARC
  5
660
100
AcDbEntity
  8
0
  6
CONTINUOUS
 62
               7
100
AcDbCircle
 10
1.45001220703125
 20
6.1999969482421875
 30
0.0
 40
1.3999996185302734
100
AcDbArc
 50
0.0
 51
89.999982013910653
  0
ARC
  5
661
100
AcDbEntity
  8
0
  6
CONTINUOUS
 62
               4
100
AcDbCircle
 10
8.3000030517578125
 20
36.600006103515625
 30
0.0
 40
0.5
100
AcDbArc
 50
89.999982013910653
 51
179.99996402782131
  0
ARC
  5
662
100
AcDbEntity
  8
0
  6
CONTINUOUS
 62
               4
100
AcDbCircle
 10
2.1999969482421875
 20
36.600006103515625
 30
0.0
 40
0.5
100
AcDbArc
 50
0.0
 51
89.999982013910653
  0
LINE
  5
663
100
AcDbEntity
  8
0
  6
CONTINUOUS
 62
               7
100
AcDbLine
 10
7.649993896484375
 20
31.800003051757813
 30
0.0
 11
7.649993896484375
 21
35.0
 31
0.0
  0
LINE
  5
664
100
AcDbEntity
  8
0
  6
CONTINUOUS
 62
               4
100
AcDbLine
 10
9.8000030517578125
 20
37.100006103515625
 30
0.0
 11
8.3000030517578125
 21
37.100006103515625
 31
0.0
  0
LINE
  5
665
100
AcDbEntity
  8
0
  6
CONTINUOUS
 62
               4
100
AcDbLine
 10
0.6999969482421875
 20
37.100006103515625
 30
0.0
 11
2.1999969482421875
 21
37.100006103515625
 31
0.0
  0
LINE
  5
666
100
AcDbEntity
  8
0
  6
CONTINUOUS
 62
             200
100
AcDbLine
 10
5.25
 20
37.100006103515625
 30
0.0
 11
5.25
 21
35.0
 31
0.0
  0
LINE
  5
667
100
AcDbEntity
  8
0
  6
CONTINUOUS
 62
               4
100
AcDbLine
 10
3.4499969482421875
 20
3.20001220703125
 30
0.0
 11
9.8499908447265625
 21
3.20001220703125
 31
0.0
  0
LINE
  5
668
100
AcDbEntity
  8
0
  6
CONTINUOUS
 62
               4
100
AcDbLine
 10
0.6499977111816406
 20
34.800003051757813
 30
0.0
 11
7.0499954223632812
 21
34.800003051757813
 31
0.0
  0
LINE
  5
669
100
AcDbEntity
  8
0
  6
CONTINUOUS
 62
               4
100
AcDbLine
 10
7.4500007629394531
 20
31.799999237060547
 30
0.0
 11
7.4500007629394531
 21
34.400003433227539
 31
0.0
  0
LINE
  5
66A
100
AcDbEntity
  8
0
  6
CONTINUOUS
 62
               4
100
AcDbLine
 10
3.0500030517578125
 20
6.1999969482421875
 30
0.0
 11
3.0500030517578125
 21
3.600006103515625
 31
0.0
  0
LINE
  5
66B
100
AcDbEntity
  8
0
  6
CONTINUOUS
 62
               4
100
AcDbLine
 10
1.4499969482421875
 20
7.8000030517578125
 30
0.0
 11
0.6499977111816406
 21
7.8000030517578125
 31
0.0
  0
LINE
  5
66C
100
AcDbEntity
  8
0
  6
CONTINUOUS
 62
               4
100
AcDbLine
 10
9.0499916076660156
 20
30.200006484985352
 30
0.0
 11
9.8499946594238281
 21
30.200006484985352
 31
0.0
  0
LINE
  5
66D
100
AcDbEntity
  8
0
  6
CONTINUOUS
 62
               4
100
AcDbLine
 10
7.648950965482527
 20
5.3989596978930194
 30
0.0
 11
8.851033113734502
 21
6.6010417448170529
 31
0.0
  0
LINE
  5
66E
100
AcDbEntity
  8
0
  6
CONTINUOUS
 62
               4
100
AcDbLine
 10
7.6489551801669222
 20
6.6010523658226248
 30
0.0
 11
8.8510346310204113
 21
5.3989730162968499
 31
0.0
  0
LINE
  5
66F
100
AcDbEntity
  8
0
  6
CONTINUOUS
 62
               7
100
AcDbLine
 10
1.6489662180941878
 20
32.60104831568276
 30
0.0
 11
2.8510483663461628
 21
31.398966268758727
 31
0.0
  0
LINE
  5
670
100
AcDbEntity
  8
0
  6
CONTINUOUS
 62
               7
100
AcDbLine
 10
1.6489562177350763
 20
31.398959661628268
 30
0.0
 11
2.8510383659870513
 21
32.601041708552302
 31
0.0
  0
ARC
  5
671
100
AcDbEntity
  8
0
  6
CONTINUOUS
 62
               4
100
AcDbCircle
 10
7.0499954223632812
 20
34.400003433227539
 30
0.0
 40
0.4000000357627869
100
AcDbArc
 50
0.0
 51
89.999982013910653
  0
ARC
  5
672
100
AcDbEntity
  8
0
  6
CONTINUOUS
 62
               4
100
AcDbCircle
 10
3.4499969482421875
 20
3.600006103515625
 30
0.0
 40
0.4000000357627869
100
AcDbArc
 50
179.99996402782131
 51
270.00000068324533
  0
ARC
  5
673
100
AcDbEntity
  8
0
  6
CONTINUOUS
 62
               4
100
AcDbCircle
 10
9.0499954223632812
 20
31.799999237060547
 30
0.0
 40
1.5999994277954102
100
AcDbArc
 50
179.99996402782131
 51
270.00000068324533
  0
ARC
  5
674
100
AcDbEntity
  8
0
  6
CONTINUOUS
 62
               4
100
AcDbCircle
 10
1.4499969482421875
 20
6.20001220703125
 30
0.0
 40
1.5999994277954102
100
AcDbArc
 50
0.0
 51
89.999982013910653
  0
CIRCLE
  5
675
100
AcDbEntity
  8
0
  6
CONTINUOUS
 62
               4
100
AcDbCircle
 10
8.2499961853027344
 20
6.0
 30
0.0
 40
1.3999996185302734
  0
CIRCLE
  5
676
100
AcDbEntity
  8
0
  6
CONTINUOUS
 62
               7
100
AcDbCircle
 10
2.25
 20
32.0
 30
0.0
 40
1.3999996185302734
  0
CIRCLE
  5
677
100
AcDbEntity
  8
0
  6
CONTINUOUS
 62
               4
100
AcDbCircle
 10
8.2499961853027344
 20
6.0
 30
0.0
 40
1.25
  0
CIRCLE
  5
678
100
AcDbEntity
  8
0
  6
CONTINUOUS
 62
               7
100
AcDbCircle
 10
2.25
 20
32.0
 30
0.0
 40
1.25
  0
CIRCLE
  5
679
100
AcDbEntity
  8
0
  6
CONTINUOUS
 62
               4
100
AcDbCircle
 10
5.25
 20
24.5
 30
0.0
 40
3.0500000000000003
  0
CIRCLE
  5
67A
100
AcDbEntity
  8
0
  6
CONTINUOUS
 62
               4
100
AcDbCircle
 10
5.25
 20
24.5
 30
0.0
 40
2.0500000000000003
  0
LINE
  5
67B
100
AcDbEntity
  8
0
  6
CONTINUOUS
 62
               4
100
AcDbLine
 10
9.75
 20
23.799999999999997
 30
0.0
 11
9.75
 21
25.200000000000003
 31
0.0
  0
LINE
  5
67C
100
AcDbEntity
  8
0
  6
CONTINUOUS
 62
               4
100
AcDbLine
 10
0.75
 20
25.200000000000003
 30
0.0
 11
0.4304864708800551
 21
25.384471222047139
 31
0.0
  0
LINE
  5
67D
100
AcDbEntity
  8
0
  6
CONTINUOUS
 62
               4
100
AcDbLine
 10
0.75
 20
23.799999999999997
 30
0.0
 11
0.75
 21
25.200000000000003
 31
0.0
  0
LINE
  5
67E
100
AcDbEntity
  8
0
  6
CONTINUOUS
 62
               4
100
AcDbLine
 10
0.75
 20
23.799999999999997
 30
0.0
 11
0.4304864708800551
 21
23.615528777952861
 31
0.0
  0
CIRCLE
  5
67F
100
AcDbEntity
  8
0
  6
CONTINUOUS
 62
               4
100
AcDbCircle
 10
5.25
 20
13.5
 30
0.0
 40
3.0500000000000003
  0
CIRCLE
  5
680
100
AcDbEntity
  8
0
  6
CONTINUOUS
 62
               4
100
AcDbCircle
 10
5.25
 20
13.5
 30
0.0
 40
2.0500000000000003
  0
LINE
  5
681
100
AcDbEntity
  8
0
  6
CONTINUOUS
 62
               4
100
AcDbLine
 10
0.75
 20
14.200000000000003
 30
0.0
 11
0.4304864708800551
 21
14.384471222047139
 31
0.0
  0
LINE
  5
682
100
AcDbEntity
  8
0
  6
CONTINUOUS
 62
               4
100
AcDbLine
 10
0.75
 20
12.799999999999997
 30
0.0
 11
0.75
 21
14.200000000000003
 31
0.0
  0
LINE
  5
683
100
AcDbEntity
  8
0
  6
CONTINUOUS
 62
               4
100
AcDbLine
 10
0.75
 20
12.799999999999997
 30
0.0
 11
0.4304864708800551
 21
12.615528777952861
 31
0.0
  0
LINE
  5
684
100
AcDbEntity
  8
0
  6
CONTINUOUS
 62
               4
100
AcDbLine
 10
9.75
 20
12.799999999999997
 30
0.0
 11
9.75
 21
14.200000000000003
 31
0.0
  0
ARC
  5
685
100
AcDbEntity
  8
0
  6
CONTINUOUS
 62
               4
100
AcDbCircle
 10
6.3999999999999773
 20
19.22387452764815
 30
0.0
 40
0.4
100
AcDbArc
 50
102.29604620064622
 51
180.0
  0
LINE
  5
686
100
AcDbEntity
  8
0
  6
CONTINUOUS
 62
               4
100
AcDbLine
 10
6.0
 20
18.77612547235185
 30
0.0
 11
6.0
 21
19.22387452764815
 31
0.0
  0
ARC
  5
687
100
AcDbEntity
  8
0
  6
CONTINUOUS
 62
               4
100
AcDbCircle
 10
6.3999999999999773
 20
18.77612547235185
 30
0.0
 40
0.4
100
AcDbArc
 50
180.0
 51
257.70395379935377
  0
ARC
  5
688
100
AcDbEntity
  8
0
  6
CONTINUOUS
 62
               4
100
AcDbCircle
 10
4.1000000000000227
 20
18.77612547235185
 30
0.0
 40
0.4
100
AcDbArc
 50
282.29604620064623
 51
0.0
  0
LINE
  5
689
100
AcDbEntity
  8
0
  6
CONTINUOUS
 62
               4
100
AcDbLine
 10
4.5
 20
18.77612547235185
 30
0.0
 11
4.5
 21
19.22387452764815
 31
0.0
  0
ARC
  5
68A
100
AcDbEntity
  8
0
  6
CONTINUOUS
 62
               4
100
AcDbCircle
 10
4.1000000000000227
 20
19.22387452764815
 30
0.0
 40
0.4
100
AcDbArc
 50
0.0
 51
77.703953799353798
  0
LINE
  5
68B
100
AcDbEntity
  8
0
  6
CONTINUOUS
 62
               4
100
AcDbLine
 10
9.75
 20
14.200000000000003
 30
0.0
 11
10.069513529119945
 21
14.384471222047139
 31
0.0
  0
LINE
  5
68C
100
AcDbEntity
  8
0
  6
CONTINUOUS
 62
               4
100
AcDbLine
 10
9.75
 20
12.799999999999997
 30
0.0
 11
10.069513529119945
 21
12.615528777952861
 31
0.0
  0
ARC
  5
68D
100
AcDbEntity
  8
0
  6
CONTINUOUS
 62
               4
100
AcDbCircle
 10
5.25
 20
13.5
 30
0.0
 40
4.9000000000000004
100
AcDbArc
 50
190.39913703155764
 51
349.60086296844236
  0
ARC
  5
68E
100
AcDbEntity
  8
0
  6
CONTINUOUS
 62
               4
100
AcDbCircle
 10
5.25
 20
13.5
 30
0.0
 40
4.9000000000000004
100
AcDbArc
 50
10.399137031557654
 51
169.60086296844239
  0
CIRCLE
  5
68F
100
AcDbEntity
  8
0
  6
CONTINUOUS
 62
               4
100
AcDbCircle
 10
5.25
 20
13.5
 30
0.0
 40
5.0
  0
ARC
  5
690
100
AcDbEntity
  8
0
  6
CONTINUOUS
 62
               4
100
AcDbCircle
 10
5.25
 20
24.5
 30
0.0
 40
4.9000000000000004
100
AcDbArc
 50
190.39913703155764
 51
349.60086296844236
  0
LINE
  5
691
100
AcDbEntity
  8
0
  6
CONTINUOUS
 62
               4
100
AcDbLine
 10
9.75
 20
23.799999999999997
 30
0.0
 11
10.069513529119945
 21
23.615528777952861
 31
0.0
  0
LINE
  5
692
100
AcDbEntity
  8
0
  6
CONTINUOUS
 62
               4
100
AcDbLine
 10
9.75
 20
25.200000000000003
 30
0.0
 11
10.069513529119945
 21
25.384471222047139
 31
0.0
  0
ARC
  5
693
100
AcDbEntity
  8
0
  6
CONTINUOUS
 62
               4
100
AcDbCircle
 10
5.25
 20
24.5
 30
0.0
 40
4.9000000000000004
100
AcDbArc
 50
10.399137031557654
 51
169.60086296844239
  0
CIRCLE
  5
694
100
AcDbEntity
  8
0
  6
CONTINUOUS
 62
               4
100
AcDbCircle
 10
5.25
 20
24.5
 30
0.0
 40
5.0
  0
ARC
  5
695
100
AcDbEntity
  8
0
  6
CONTINUOUS
 62
               4
100
AcDbCircle
 10
9.8499946594238281
 20
3.600006103515625
 30
0.0
 40
0.4000000357627869
100
AcDbArc
 50
270.00001798608935
 51
0.0
  0
ARC
  5
696
100
AcDbEntity
  8
0
  6
CONTINUOUS
 62
               4
100
AcDbCircle
 10
9.8499946594238281
 20
29.80000114440918
 30
0.0
 40
0.4000000357627869
100
AcDbArc
 50
0.0
 51
89.999982013910653
  0
ARC
  5
697
100
AcDbEntity
  8
0
  6
CONTINUOUS
 62
               4
100
AcDbCircle
 10
0.6499977111816406
 20
34.400003433227539
 30
0.0
 40
0.4000000357627869
100
AcDbArc
 50
89.999982013910653
 51
179.99996402782131
  0
ARC
  5
698
100
AcDbEntity
  8
0
  6
CONTINUOUS
 62
               4
100
AcDbCircle
 10
0.6499977111816406
 20
8.20001220703125
 30
0.0
 40
0.4000000357627869
100
AcDbArc
 50
179.99996402782131
 51
270.00000068324533
  0
LINE
  5
699
100
AcDbEntity
  8
0
  6
CONTINUOUS
 62
             200
100
AcDbLine
 10
-0.75
 20
13.5
 30
0.0
 11
11.25
 21
13.5
 31
0.0
  0
LINE
  5
69A
100
AcDbEntity
  8
0
  6
CONTINUOUS
 62
             200
100
AcDbLine
 10
-0.75
 20
24.5
 30
0.0
 11
11.25
 21
24.5
 31
0.0
  0
LINE
  5
69B
100
AcDbEntity
  8
0
  6
CONTINUOUS
 62
               4
100
AcDbLine
 10
0.1999969482421875
 20
36.600006103515625
 30
0.0
 11
10.300003051757812
 21
36.600006103515625
 31
0.0
  0
LINE
  5
69C
100
AcDbEntity
  8
0
  6
CONTINUOUS
 62
               7
100
AcDbLine
 10
0.0
 20
7.600006103515625
 30
0.0
 11
1.45001220703125
 21
7.600006103515625
 31
0.0
  0
LINE
  5
69D
100
AcDbEntity
  8
0
  6
CONTINUOUS
 62
               7
100
AcDbLine
 10
9.04998779296875
 20
30.400009155273438
 30
0.0
 11
10.5
 21
30.400009155273438
 31
0.0
  0
LINE
  5
69E
100
AcDbEntity
  8
0
  6
CONTINUOUS
 62
               7
100
AcDbLine
 10
10.5
 20
35.0
 30
0.0
 11
0.0
 21
35.0
 31
0.0
  0
ARC
  5
69F
100
AcDbEntity
  8
0
  6
CONTINUOUS
 62
               4
100
AcDbCircle
 10
0.6999969482421875
 20
36.600006103515625
 30
0.0
 40
0.5
100
AcDbArc
 50
89.999982013910653
 51
179.99996402782131
  0
ARC
  5
6A0
100
AcDbEntity
  8
0
  6
CONTINUOUS
 62
               4
100
AcDbCircle
 10
9.8000030517578125
 20
36.600006103515625
 30
0.0
 40
0.5
100
AcDbArc
 50
0.0
 51
89.999982013910653
  0
ENDBLK
  5
6A1
100
AcDbEntity
  8
0
100
AcDbBlockEnd
  0
BLOCK
  5
6A2
100
AcDbEntity
  8
0
100
AcDbBlockBegin
  2
F10MPJ-19
 70
               0
 10
0.0
 20
0.0
 30
0.0
  3
F10MPJ-19
  1

  0
CIRCLE
  5
6A3
100
AcDbEntity
  8
0
  6
CONTINUOUS
 62
               4
100
AcDbCircle
 10
9.04998779296875
 20
11.300018310546875
 30
0.0
 40
1.25
  0
CIRCLE
  5
6A4
100
AcDbEntity
  8
0
  6
CONTINUOUS
 62
               4
100
AcDbCircle
 10
1.45001220703125
 20
-14.29998779296875
 30
0.0
 40
1.25
  0
ARC
  5
6A5
100
AcDbEntity
  8
0
  6
CONTINUOUS
 62
               7
100
AcDbCircle
 10
0.7499923706636764
 20
58.500007629336324
 30
0.0
 40
0.4999923707218841
100
AcDbArc
 50
89.999125729116201
 51
180.0008742708838
  0
ARC
  5
6A6
100
AcDbEntity
  8
0
  6
CONTINUOUS
 62
               7
100
AcDbCircle
 10
0.7500076294527389
 20
50.000007629452739
 30
0.0
 40
0.5000076295109466
100
AcDbArc
 50
180.00087425754359
 51
269.99912574245639
  0
ARC
  5
6A7
100
AcDbEntity
  8
0
  6
CONTINUOUS
 62
               7
100
AcDbCircle
 10
9.7499923705472611
 20
50.000007629452739
 30
0.0
 40
0.5000076295109466
100
AcDbArc
 50
270.00087425754356
 51
359.99912574245639
  0
ARC
  5
6A8
100
AcDbEntity
  8
0
  6
CONTINUOUS
 62
               7
100
AcDbCircle
 10
9.7500076293363236
 20
58.500007629336324
 30
0.0
 40
0.4999923707218841
100
AcDbArc
 50
359.99912572911626
 51
90.000874270883813
  0
LINE
  5
6A9
100
AcDbEntity
  8
0
  6
CONTINUOUS
 62
               7
100
AcDbLine
 10
0.0
 20
-30.299999999999997
 30
0.0
 11
0.25
 21
-30.299999999999997
 31
0.0
  0
LINE
  5
6AA
100
AcDbEntity
  8
0
  6
CONTINUOUS
 62
               7
100
AcDbLine
 10
0.0
 20
-30.299999999999997
 30
0.0
 11
0.0
 21
62.5
 31
0.0
  0
LINE
  5
6AB
100
AcDbEntity
  8
0
  6
CONTINUOUS
 62
               7
100
AcDbLine
 10
0.0
 20
61.0
 30
0.0
 11
10.5
 21
61.0
 31
0.0
  0
LINE
  5
6AC
100
AcDbEntity
  8
0
  6
CONTINUOUS
 62
               7
100
AcDbLine
 10
0.0
 20
61.5
 30
0.0
 11
10.5
 21
61.5
 31
0.0
  0
LINE
  5
6AD
100
AcDbEntity
  8
0
  6
CONTINUOUS
 62
               7
100
AcDbLine
 10
10.5
 20
62.5
 30
0.0
 11
0.0
 21
62.5
 31
0.0
  0
LINE
  5
6AE
100
AcDbEntity
  8
0
  6
CONTINUOUS
 62
               4
100
AcDbLine
 10
0.25
 20
22.0
 30
0.0
 11
10.25
 21
22.0
 31
0.0
  0
LINE
  5
6AF
100
AcDbEntity
  8
0
  6
CONTINUOUS
 62
               4
100
AcDbLine
 10
0.25
 20
-18.0
 30
0.0
 11
10.25
 21
-18.0
 31
0.0
  0
LINE
  5
6B0
100
AcDbEntity
  8
0
  6
CONTINUOUS
 62
               4
100
AcDbLine
 10
0.25
 20
-18.0
 30
0.0
 11
0.25
 21
-14.650000000000006
 31
0.0
  0
LINE
  5
6B1
100
AcDbEntity
  8
0
  6
CONTINUOUS
 62
               4
100
AcDbLine
 10
10.25
 20
11.650000000000006
 30
0.0
 11
10.25
 21
22.0
 31
0.0
  0
LINE
  5
6B2
100
AcDbEntity
  8
0
  6
CONTINUOUS
 62
               4
100
AcDbLine
 10
0.25
 20
-13.949999999999989
 30
0.0
 11
0.25
 21
22.0
 31
0.0
  0
LINE
  5
6B3
100
AcDbEntity
  8
0
  6
CONTINUOUS
 62
               4
100
AcDbLine
 10
10.25
 20
-18.0
 30
0.0
 11
10.25
 21
10.949999999999989
 31
0.0
  0
LINE
  5
6B4
100
AcDbEntity
  8
0
  6
CONTINUOUS
 62
               4
100
AcDbLine
 10
8.4399999999999977
 20
10.689999999999998
 30
0.0
 11
9.6499999999999773
 21
11.900000000000006
 31
0.0
  0
LINE
  5
6B5
100
AcDbEntity
  8
0
  6
CONTINUOUS
 62
               4
100
AcDbLine
 10
8.4399999999999977
 20
11.900000000000006
 30
0.0
 11
9.6499999999999773
 21
10.689999999999998
 31
0.0
  0
LINE
  5
6B6
100
AcDbEntity
  8
0
  6
CONTINUOUS
 62
               4
100
AcDbLine
 10
0.839999999999975
 20
-14.900000000000006
 30
0.0
 11
2.0500000000000114
 21
-13.689999999999998
 31
0.0
  0
LINE
  5
6B7
100
AcDbEntity
  8
0
  6
CONTINUOUS
 62
               4
100
AcDbLine
 10
0.839999999999975
 20
-13.689999999999998
 30
0.0
 11
2.0500000000000114
 21
-14.900000000000006
 31
0.0
  0
LINE
  5
6B8
100
AcDbEntity
  8
0
  6
CONTINUOUS
 62
               2
100
AcDbLine
 10
5.25
 20
-30.5
 30
0.0
 11
5.25
 21
64.240000000000009
 31
0.0
  0
LINE
  5
6B9
100
AcDbEntity
  8
0
  6
CONTINUOUS
 62
               7
100
AcDbLine
 10
0.25
 20
50.0
 30
0.0
 11
0.25
 21
58.5
 31
0.0
  0
LINE
  5
6BA
100
AcDbEntity
  8
0
  6
CONTINUOUS
 62
               7
100
AcDbLine
 10
10.25
 20
50.0
 30
0.0
 11
10.25
 21
58.5
 31
0.0
  0
LINE
  5
6BB
100
AcDbEntity
  8
0
  6
CONTINUOUS
 62
               7
100
AcDbLine
 10
7.6499999999999773
 20
-30.299999999999997
 30
0.0
 11
10.5
 21
-30.299999999999997
 31
0.0
  0
LINE
  5
6BC
100
AcDbEntity
  8
0
  6
CONTINUOUS
 62
               7
100
AcDbLine
 10
7.6499999999999773
 20
-30.299999999999997
 30
0.0
 11
7.6499999999999773
 21
-25.5
 31
0.0
  0
LINE
  5
6BD
100
AcDbEntity
  8
0
  6
CONTINUOUS
 62
               7
100
AcDbLine
 10
10.25
 20
-30.299999999999997
 30
0.0
 11
10.25
 21
-30.5
 31
0.0
  0
LINE
  5
6BE
100
AcDbEntity
  8
0
  6
CONTINUOUS
 62
               7
100
AcDbLine
 10
7.4499999999999886
 20
-25.5
 30
0.0
 11
7.4499999999999886
 21
-30.5
 31
0.0
  0
LINE
  5
6BF
100
AcDbEntity
  8
0
  6
CONTINUOUS
 62
               7
100
AcDbLine
 10
0.25
 20
-30.5
 30
0.0
 11
10.25
 21
-30.5
 31
0.0
  0
LINE
  5
6C0
100
AcDbEntity
  8
0
  6
CONTINUOUS
 62
               7
100
AcDbLine
 10
0.25
 20
-25.5
 30
0.0
 11
0.25
 21
-30.5
 31
0.0
  0
LINE
  5
6C1
100
AcDbEntity
  8
0
  6
CONTINUOUS
 62
               7
100
AcDbLine
 10
0.75
 20
59.0
 30
0.0
 11
9.75
 21
59.0
 31
0.0
  0
LINE
  5
6C2
100
AcDbEntity
  8
0
  6
CONTINUOUS
 62
               7
100
AcDbLine
 10
0.75
 20
49.5
 30
0.0
 11
9.75
 21
49.5
 31
0.0
  0
LINE
  5
6C3
100
AcDbEntity
  8
0
  6
CONTINUOUS
 62
               7
100
AcDbLine
 10
10.25
 20
21.5
 30
0.0
 11
10.5
 21
21.5
 31
0.0
  0
LINE
  5
6C4
100
AcDbEntity
  8
0
  6
CONTINUOUS
 62
               7
100
AcDbLine
 10
10.5
 20
-30.299999999999997
 30
0.0
 11
10.5
 21
62.5
 31
0.0
  0
LINE
  5
6C5
100
AcDbEntity
  8
0
  6
CONTINUOUS
 62
               7
100
AcDbLine
 10
0.0
 20
21.5
 30
0.0
 11
0.25
 21
21.5
 31
0.0
  0
LINE
  5
6C6
100
AcDbEntity
  8
0
  6
CONTINUOUS
 62
               7
100
AcDbLine
 10
0.0
 20
-25.5
 30
0.0
 11
7.6499999999999773
 21
-25.5
 31
0.0
  0
ENDBLK
  5
6C7
100
AcDbEntity
  8
0
100
AcDbBlockEnd
  0
BLOCK
  5
6C8
100
AcDbEntity
  8
0
100
AcDbBlockBegin
  2
F10MPJ-20
 70
               0
 10
0.0
 20
0.0
 30
0.0
  3
F10MPJ-20
  1

  0
LINE
  5
6C9
100
AcDbEntity
  8
0
  6
CONTINUOUS
 62
               4
100
AcDbLine
 10
36.599999999999994
 20
-18.0
 30
0.0
 11
36.599999999999994
 21
22.0
 31
0.0
  0
ARC
  5
6CA
100
AcDbEntity
  8
0
  6
CONTINUOUS
 62
               4
100
AcDbCircle
 10
36.599981689415841
 20
-15.049981689415858
 30
0.0
 40
0.5000183109193942
100
AcDbArc
 50
270.00209816154421
 51
359.99790183845624
  0
ARC
  5
6CB
100
AcDbEntity
  8
0
  6
CONTINUOUS
 62
               4
100
AcDbCircle
 10
36.599993896149073
 20
-13.550006103850905
 30
0.0
 40
0.500006103888158
100
AcDbArc
 50
0.0006994412523243
 51
89.999300558747876
  0
ARC
  5
6CC
100
AcDbEntity
  8
0
  6
CONTINUOUS
 62
               4
100
AcDbCircle
 10
36.59997863768595
 20
10.550021362313998
 30
0.0
 40
0.5000213627703301
100
AcDbArc
 50
270.00244783628142
 51
359.99755216371858
  0
ARC
  5
6CD
100
AcDbEntity
  8
0
  6
CONTINUOUS
 62
               4
100
AcDbCircle
 10
36.599996947785797
 20
12.049996947785843
 30
0.0
 40
0.5000030522234775
100
AcDbArc
 50
0.0003497558441744
 51
89.999650244155831
  0
LINE
  5
6CE
100
AcDbEntity
  8
0
  6
CONTINUOUS
 62
               4
100
AcDbLine
 10
37.099999999999994
 20
-13.550000000000011
 30
0.0
 11
37.099999999999994
 21
-15.050000000000011
 31
0.0
  0
LINE
  5
6CF
100
AcDbEntity
  8
0
  6
CONTINUOUS
 62
               4
100
AcDbLine
 10
37.099999999999994
 20
12.050000000000011
 30
0.0
 11
37.099999999999994
 21
10.550000000000011
 31
0.0
  0
LINE
  5
6D0
100
AcDbEntity
  8
0
  6
CONTINUOUS
 62
               4
100
AcDbLine
 10
36.599999999999994
 20
22.0
 30
0.0
 11
34.999999999999972
 21
22.0
 31
0.0
  0
LINE
  5
6D1
100
AcDbEntity
  8
0
  6
CONTINUOUS
 62
               4
100
AcDbLine
 10
36.599999999999994
 20
-18.0
 30
0.0
 11
34.999999999999972
 21
-18.0
 31
0.0
  0
ENDBLK
  5
6D2
100
AcDbEntity
  8
0
100
AcDbBlockEnd
  0
BLOCK
  5
6D3
100
AcDbEntity
  8
0
100
AcDbBlockBegin
  2
F10MPJ-21
 70
               0
 10
0.0
 20
0.0
 30
0.0
  3
F10MPJ-21
  1

  0
LINE
  5
6D4
100
AcDbEntity
  8
0
  6
CONTINUOUS
 62
               7
100
AcDbLine
 10
0.0
 20
0.0
 30
0.0
 11
10.5
 21
0.0
 31
0.0
  0
LINE
  5
6D5
100
AcDbEntity
  8
0
  6
CENTER
 62
               2
100
AcDbLine
 10
5.25
 20
-0.8299999999999983
 30
0.0
 11
5.25
 21
37.289999999999999
 31
0.0
  0
LINE
  5
6D6
100
AcDbEntity
  8
0
  6
CONTINUOUS
 62
               7
100
AcDbLine
 10
0.0
 20
3.0
 30
0.0
 11
10.5
 21
3.0
 31
0.0
  0
LINE
  5
6D7
100
AcDbEntity
  8
0
  6
CONTINUOUS
 62
               7
100
AcDbLine
 10
10.5
 20
1.0
 30
0.0
 11
0.0
 21
1.0
 31
0.0
  0
LINE
  5
6D8
100
AcDbEntity
  8
0
  6
CONTINUOUS
 62
               7
100
AcDbLine
 10
10.5
 20
35.0
 30
0.0
 11
10.5
 21
1.0
 31
0.0
  0
LINE
  5
6D9
100
AcDbEntity
  8
0
  6
CONTINUOUS
 62
               7
100
AcDbLine
 10
0.0
 20
35.0
 30
0.0
 11
0.0
 21
1.0
 31
0.0
  0
CIRCLE
  5
6DA
100
AcDbEntity
  8
0
  6
CONTINUOUS
 62
               4
100
AcDbCircle
 10
5.25
 20
13.100006103515625
 30
0.0
 40
2.0669994354248047
  0
CIRCLE
  5
6DB
100
AcDbEntity
  8
0
  6
CONTINUOUS
 62
               4
100
AcDbCircle
 10
5.25
 20
24.90000057220459
 30
0.0
 40
2.0669994354248047
  0
CIRCLE
  5
6DC
100
AcDbEntity
  8
0
  6
CONTINUOUS
 62
               4
100
AcDbCircle
 10
5.25
 20
13.100006103515625
 30
0.0
 40
2.5
  0
CIRCLE
  5
6DD
100
AcDbEntity
  8
0
  6
CONTINUOUS
 62
               4
100
AcDbCircle
 10
5.25
 20
24.90000057220459
 30
0.0
 40
2.5
  0
CIRCLE
  5
6DE
100
AcDbEntity
  8
0
  6
CONTINUOUS
 62
               4
100
AcDbCircle
 10
2.25
 20
32.0
 30
0.0
 40
1.25
  0
CIRCLE
  5
6DF
100
AcDbEntity
  8
0
  6
CONTINUOUS
 62
               4
100
AcDbCircle
 10
8.2499961853027344
 20
6.0
 30
0.0
 40
1.25
  0
CIRCLE
  5
6E0
100
AcDbEntity
  8
0
  6
CONTINUOUS
 62
               4
100
AcDbCircle
 10
2.25
 20
32.0
 30
0.0
 40
1.3999996185302734
  0
CIRCLE
  5
6E1
100
AcDbEntity
  8
0
  6
CONTINUOUS
 62
               4
100
AcDbCircle
 10
8.2499961853027344
 20
6.0
 30
0.0
 40
1.3999996185302734
  0
ARC
  5
6E2
100
AcDbEntity
  8
0
  6
CONTINUOUS
 62
               4
100
AcDbCircle
 10
1.4499969482421875
 20
6.20001220703125
 30
0.0
 40
1.5999994277954102
100
AcDbArc
 50
0.0
 51
89.999982013910653
  0
ARC
  5
6E3
100
AcDbEntity
  8
0
  6
CONTINUOUS
 62
               4
100
AcDbCircle
 10
9.0499954223632812
 20
31.799999237060547
 30
0.0
 40
1.5999994277954102
100
AcDbArc
 50
179.99996402782131
 51
270.00000068324533
  0
ARC
  5
6E4
100
AcDbEntity
  8
0
  6
CONTINUOUS
 62
               4
100
AcDbCircle
 10
3.4499969482421875
 20
3.600006103515625
 30
0.0
 40
0.4000000357627869
100
AcDbArc
 50
179.99996402782131
 51
270.00000068324533
  0
ARC
  5
6E5
100
AcDbEntity
  8
0
  6
CONTINUOUS
 62
               4
100
AcDbCircle
 10
9.8499946594238281
 20
3.600006103515625
 30
0.0
 40
0.4000000357627869
100
AcDbArc
 50
270.00001798608935
 51
0.0
  0
ARC
  5
6E6
100
AcDbEntity
  8
0
  6
CONTINUOUS
 62
               4
100
AcDbCircle
 10
9.8499946594238281
 20
29.80000114440918
 30
0.0
 40
0.4000000357627869
100
AcDbArc
 50
0.0
 51
89.999982013910653
  0
ARC
  5
6E7
100
AcDbEntity
  8
0
  6
CONTINUOUS
 62
               4
100
AcDbCircle
 10
7.0499954223632812
 20
34.400003433227539
 30
0.0
 40
0.4000000357627869
100
AcDbArc
 50
0.0
 51
89.999982013910653
  0
ARC
  5
6E8
100
AcDbEntity
  8
0
  6
CONTINUOUS
 62
               4
100
AcDbCircle
 10
0.6499977111816406
 20
34.400003433227539
 30
0.0
 40
0.4000000357627869
100
AcDbArc
 50
89.999982013910653
 51
179.99996402782131
  0
ARC
  5
6E9
100
AcDbEntity
  8
0
  6
CONTINUOUS
 62
               4
100
AcDbCircle
 10
0.6499977111816406
 20
8.20001220703125
 30
0.0
 40
0.4000000357627869
100
AcDbArc
 50
179.99996402782131
 51
270.00000068324533
  0
LINE
  5
6EA
100
AcDbEntity
  8
0
  6
CONTINUOUS
 62
             200
100
AcDbLine
 10
1.75
 20
24.90000057220459
 30
0.0
 11
8.75
 21
24.90000057220459
 31
0.0
  0
LINE
  5
6EB
100
AcDbEntity
  8
0
  6
CONTINUOUS
 62
             200
100
AcDbLine
 10
1.75
 20
13.100006103515625
 30
0.0
 11
8.75
 21
13.100006103515625
 31
0.0
  0
LINE
  5
6EC
100
AcDbEntity
  8
0
  6
CONTINUOUS
 62
               4
100
AcDbLine
 10
1.6489562177350763
 20
31.398959661628282
 30
0.0
 11
2.8510383659870513
 21
32.601041708552316
 31
0.0
  0
LINE
  5
6ED
100
AcDbEntity
  8
0
  6
CONTINUOUS
 62
               4
100
AcDbLine
 10
1.6489662180941309
 20
32.60104831568276
 30
0.0
 11
2.8510483663461059
 21
31.398966268758727
 31
0.0
  0
LINE
  5
6EE
100
AcDbEntity
  8
0
  6
CONTINUOUS
 62
               4
100
AcDbLine
 10
0.25
 20
8.20001220703125
 30
0.0
 11
0.25
 21
34.400003433227539
 31
0.0
  0
LINE
  5
6EF
100
AcDbEntity
  8
0
  6
CONTINUOUS
 62
               4
100
AcDbLine
 10
7.6489551801668085
 20
6.6010523658226248
 30
0.0
 11
8.8510346310202976
 21
5.3989730162968499
 31
0.0
  0
LINE
  5
6F0
100
AcDbEntity
  8
0
  6
CONTINUOUS
 62
               4
100
AcDbLine
 10
7.648950965482527
 20
5.3989596978930194
 30
0.0
 11
8.851033113734502
 21
6.6010417448170529
 31
0.0
  0
LINE
  5
6F1
100
AcDbEntity
  8
0
  6
CONTINUOUS
 62
               4
100
AcDbLine
 10
9.0499916076660156
 20
30.200006484985352
 30
0.0
 11
9.8499946594238281
 21
30.200006484985352
 31
0.0
  0
LINE
  5
6F2
100
AcDbEntity
  8
0
  6
CONTINUOUS
 62
               4
100
AcDbLine
 10
1.4499969482421875
 20
7.8000030517578125
 30
0.0
 11
0.6499977111816406
 21
7.8000030517578125
 31
0.0
  0
LINE
  5
6F3
100
AcDbEntity
  8
0
  6
CONTINUOUS
 62
               4
100
AcDbLine
 10
3.0500030517578125
 20
6.1999969482421875
 30
0.0
 11
3.0500030517578125
 21
3.600006103515625
 31
0.0
  0
LINE
  5
6F4
100
AcDbEntity
  8
0
  6
CONTINUOUS
 62
               4
100
AcDbLine
 10
7.4500007629394531
 20
31.799999237060547
 30
0.0
 11
7.4500007629394531
 21
34.400003433227539
 31
0.0
  0
LINE
  5
6F5
100
AcDbEntity
  8
0
  6
CONTINUOUS
 62
               4
100
AcDbLine
 10
0.6499977111816406
 20
34.800003051757813
 30
0.0
 11
7.0499954223632812
 21
34.800003051757813
 31
0.0
  0
LINE
  5
6F6
100
AcDbEntity
  8
0
  6
CONTINUOUS
 62
               4
100
AcDbLine
 10
3.4499969482421875
 20
3.20001220703125
 30
0.0
 11
9.8499908447265625
 21
3.20001220703125
 31
0.0
  0
LINE
  5
6F7
100
AcDbEntity
  8
0
  6
CONTINUOUS
 62
               4
100
AcDbLine
 10
10.25
 20
3.600006103515625
 30
0.0
 11
10.25
 21
29.80000114440918
 31
0.0
  0
LINE
  5
6F8
100
AcDbEntity
  8
0
  6
CONTINUOUS
 62
               4
100
AcDbLine
 10
0.1999969482421875
 20
36.600006103515625
 30
0.0
 11
10.300003051757812
 21
36.600006103515625
 31
0.0
  0
LINE
  5
6F9
100
AcDbEntity
  8
0
  6
CONTINUOUS
 62
               2
100
AcDbLine
 10
5.25
 20
37.100006103515625
 30
0.0
 11
5.25
 21
35.0
 31
0.0
  0
LINE
  5
6FA
100
AcDbEntity
  8
0
  6
CONTINUOUS
 62
               4
100
AcDbLine
 10
0.25
 20
36.600006103515625
 30
0.0
 11
0.25
 21
35.0
 31
0.0
  0
LINE
  5
6FB
100
AcDbEntity
  8
0
  6
CONTINUOUS
 62
               4
100
AcDbLine
 10
10.25
 20
36.600006103515625
 30
0.0
 11
10.25
 21
35.0
 31
0.0
  0
LINE
  5
6FC
100
AcDbEntity
  8
0
  6
CONTINUOUS
 62
               4
100
AcDbLine
 10
0.6999969482421875
 20
37.100006103515625
 30
0.0
 11
2.1999969482421875
 21
37.100006103515625
 31
0.0
  0
LINE
  5
6FD
100
AcDbEntity
  8
0
  6
CONTINUOUS
 62
               4
100
AcDbLine
 10
9.8000030517578125
 20
37.100006103515625
 30
0.0
 11
8.3000030517578125
 21
37.100006103515625
 31
0.0
  0
LINE
  5
6FE
100
AcDbEntity
  8
0
  6
CONTINUOUS
 62
               7
100
AcDbLine
 10
7.649993896484375
 20
31.800003051757813
 30
0.0
 11
7.649993896484375
 21
35.0
 31
0.0
  0
LINE
  5
6FF
100
AcDbEntity
  8
0
  6
CONTINUOUS
 62
               7
100
AcDbLine
 10
2.850006103515625
 20
3.0
 30
0.0
 11
2.850006103515625
 21
6.1999969482421875
 31
0.0
  0
LINE
  5
700
100
AcDbEntity
  8
0
  6
CONTINUOUS
 62
               7
100
AcDbLine
 10
0.0
 20
7.600006103515625
 30
0.0
 11
1.45001220703125
 21
7.600006103515625
 31
0.0
  0
LINE
  5
701
100
AcDbEntity
  8
0
  6
CONTINUOUS
 62
               7
100
AcDbLine
 10
9.04998779296875
 20
30.400009155273438
 30
0.0
 11
10.5
 21
30.400009155273438
 31
0.0
  0
LINE
  5
702
100
AcDbEntity
  8
0
  6
CONTINUOUS
 62
               2
100
AcDbLine
 10
5.25
 20
-0.829620361328125
 30
0.0
 11
5.25
 21
35.0
 31
0.0
  0
LINE
  5
703
100
AcDbEntity
  8
0
  6
CONTINUOUS
 62
               7
100
AcDbLine
 10
10.5
 20
35.0
 30
0.0
 11
0.0
 21
35.0
 31
0.0
  0
ARC
  5
704
100
AcDbEntity
  8
0
  6
CONTINUOUS
 62
               4
100
AcDbCircle
 10
0.6999969482421875
 20
36.600006103515625
 30
0.0
 40
0.5
100
AcDbArc
 50
89.999982013910653
 51
179.99996402782131
  0
ARC
  5
705
100
AcDbEntity
  8
0
  6
CONTINUOUS
 62
               4
100
AcDbCircle
 10
2.1999969482421875
 20
36.600006103515625
 30
0.0
 40
0.5
100
AcDbArc
 50
0.0
 51
89.999982013910653
  0
ARC
  5
706
100
AcDbEntity
  8
0
  6
CONTINUOUS
 62
               4
100
AcDbCircle
 10
8.3000030517578125
 20
36.600006103515625
 30
0.0
 40
0.5
100
AcDbArc
 50
89.999982013910653
 51
179.99996402782131
  0
ARC
  5
707
100
AcDbEntity
  8
0
  6
CONTINUOUS
 62
               4
100
AcDbCircle
 10
9.8000030517578125
 20
36.600006103515625
 30
0.0
 40
0.5
100
AcDbArc
 50
0.0
 51
89.999982013910653
  0
ARC
  5
708
100
AcDbEntity
  8
0
  6
CONTINUOUS
 62
               7
100
AcDbCircle
 10
1.45001220703125
 20
6.1999969482421875
 30
0.0
 40
1.3999996185302734
100
AcDbArc
 50
0.0
 51
89.999982013910653
  0
ARC
  5
709
100
AcDbEntity
  8
0
  6
CONTINUOUS
 62
               7
100
AcDbCircle
 10
9.04998779296875
 20
31.800003051757813
 30
0.0
 40
1.3999996185302734
100
AcDbArc
 50
179.99998133066532
 51
270.00001798608935
  0
ENDBLK
  5
70A
100
AcDbEntity
  8
0
100
AcDbBlockEnd
  0
ENDSEC
  0
SECTION
  2
ENTITIES
  0
INSERT
  5
70B
100
AcDbEntity
  8
0
  6
ByBlock
100
AcDbBlockReference
  2
F10MPJ-1
 10
-192.423583984375
 20
141.31158447265625
 30
0.0
  0
INSERT
  5
70C
100
AcDbEntity
  8
0
  6
ByBlock
100
AcDbBlockReference
  2
F10MPJ-12
 10
-315.923583984375
 20
141.31158447265625
 30
0.0
  0
INSERT
  5
70D
100
AcDbEntity
  8
0
  6
ByBlock
100
AcDbBlockReference
  2
F10MPJ-15
 10
-192.423583984375
 20
24.811795904635801
 30
0.0
  0
INSERT
  5
70E
100
AcDbEntity
  8
0
  6
ByBlock
100
AcDbBlockReference
  2
F10MPJ-16
 10
141.19579565525055
 20
153.53616534133729
 30
0.0
  0
INSERT
  5
70F
100
AcDbEntity
  8
0
  6
ByBlock
100
AcDbBlockReference
  2
F10MPJ-17
 10
49.939755856990814
 20
153.53616534133729
 30
0.0
  0
INSERT
  5
710
100
AcDbEntity
  8
0
  6
ByBlock
100
AcDbBlockReference
  2
F10MPJ-18
 10
141.19579565525055
 20
25.0682373046875
 30
0.0
  0
INSERT
  5
711
100
AcDbEntity
  8
0
  6
ByBlock
100
AcDbBlockReference
  2
F10MPJ-19
 10
343.448486328125
 20
153.53616534133729
 30
0.0
  0
INSERT
  5
712
100
AcDbEntity
  8
0
  6
ByBlock
100
AcDbBlockReference
  2
F10MPJ-20
 10
249.71121215820312
 20
153.53616534133729
 30
0.0
  0
INSERT
  5
713
100
AcDbEntity
  8
0
  6
ByBlock
100
AcDbBlockReference
  2
F10MPJ-21
 10
343.448486328125
 20
25.0682373046875
 30
0.0
  0
INSERT
  5
714
100
AcDbEntity
  8
0
  6
ByBlock
100
AcDbBlockReference
  2
F10MPJ-2
 10
-255.7539696097374
 20
-114.95797423884079
 30
0.0
  0
INSERT
  5
715
100
AcDbEntity
  8
0
  6
ByBlock
100
AcDbBlockReference
  2
F10MPJ-3
 10
-362.91211195153403
 20
-114.95797423884079
 30
0.0
  0
INSERT
  5
716
100
AcDbEntity
  8
0
  6
ByBlock
100
AcDbBlockReference
  2
F10MPJ-4
 10
-255.7539696097374
 20
-253.43454718534815
 30
0.0
  0
INSERT
  5
717
100
AcDbEntity
  8
0
  6
ByBlock
100
AcDbBlockReference
  2
F10MPJ-5
 10
-55.17794269323349
 20
-114.95797423884079
 30
0.0
  0
INSERT
  5
718
100
AcDbEntity
  8
0
  6
ByBlock
100
AcDbBlockReference
  2
F10MPJ-6
 10
-169.14211195153402
 20
-114.95797423884079
 30
0.0
  0
INSERT
  5
719
100
AcDbEntity
  8
0
  6
ByBlock
100
AcDbBlockReference
  2
F10MPJ-7
 10
-55.177938878536224
 20
-245.74268820507021
 30
0.0
  0
INSERT
  5
71A
100
AcDbEntity
  8
0
  6
ByBlock
100
AcDbBlockReference
  2
F10MPJ-8
 10
137.9868004322052
 20
-102.93000000000001
 30
0.0
  0
INSERT
  5
71B
100
AcDbEntity
  8
0
  6
ByBlock
100
AcDbBlockReference
  2
F10MPJ-9
 10
27.895712077617645
 20
-102.93000000000001
 30
0.0
  0
INSERT
  5
71C
100
AcDbEntity
  8
0
  6
ByBlock
100
AcDbBlockReference
  2
F10MPJ-10
 10
137.9868004322052
 20
-251.42999999999995
 30
0.0
  0
INSERT
  5
71D
100
AcDbEntity
  8
0
  6
ByBlock
100
AcDbBlockReference
  2
F10MPJ-11
 10
336.18603515625
 20
-102.93000000000001
 30
0.0
  0
INSERT
  5
71E
100
AcDbEntity
  8
0
  6
ByBlock
100
AcDbBlockReference
  2
F10MPJ-13
 10
228.20248168945315
 20
-102.93000000000001
 30
0.0
  0
INSERT
  5
71F
100
AcDbEntity
  8
0
  6
ByBlock
100
AcDbBlockReference
  2
F10MPJ-14
 10
336.18603515625
 20
-231.43174743652344
 30
0.0
  0
LINE
  5
720
100
AcDbEntity
  8
0
  6
CONTINUOUS
 62
               7
100
AcDbLine
 10
399.80000000000001
 20
276.25
 30
0.0
 11
399.80000000000001
 21
-276.75
 31
0.0
  0
LINE
  5
721
100
AcDbEntity
  8
0
  6
CONTINUOUS
 62
               7
100
AcDbLine
 10
-399.25
 20
276.25
 30
0.0
 11
-399.25
 21
-276.75
 31
0.0
  0
LINE
  5
722
100
AcDbEntity
  8
0
  6
CONTINUOUS
 62
               7
100
AcDbLine
 10
-399.25
 20
276.25
 30
0.0
 11
399.80000000000001
 21
276.25
 31
0.0
  0
LINE
  5
723
100
AcDbEntity
  8
0
  6
CONTINUOUS
 62
               7
100
AcDbLine
 10
239.80000000000001
 20
-251.75
 30
0.0
 11
399.80000000000001
 21
-251.75
 31
0.0
  0
LINE
  5
724
100
AcDbEntity
  8
0
  6
CONTINUOUS
 62
               7
100
AcDbLine
 10
239.80000000000001
 20
251.25
 30
0.0
 11
399.80000000000001
 21
251.25
 31
0.0
  0
LINE
  5
725
100
AcDbEntity
  8
0
  6
CONTINUOUS
 62
               7
100
AcDbLine
 10
-399.25
 20
251.25
 30
0.0
 11
-239.25
 21
251.25
 31
0.0
  0
LINE
  5
726
100
AcDbEntity
  8
0
  6
CONTINUOUS
 62
               7
100
AcDbLine
 10
239.80000000000001
 20
-251.75
 30
0.0
 11
239.80000000000001
 21
-276.75
 31
0.0
  0
LINE
  5
727
100
AcDbEntity
  8
0
  6
CONTINUOUS
 62
               7
100
AcDbLine
 10
239.80000000000001
 20
251.25
 30
0.0
 11
239.80000000000001
 21
276.25
 31
0.0
  0
LINE
  5
728
100
AcDbEntity
  8
0
  6
CONTINUOUS
 62
               7
100
AcDbLine
 10
-239.25
 20
276.25
 30
0.0
 11
-239.25
 21
251.25
 31
0.0
  0
LINE
  5
729
100
AcDbEntity
  8
0
  6
CONTINUOUS
 62
               7
100
AcDbLine
 10
-199.47999999999999
 20
-0.25
 30
0.0
 11
-199.47999999999999
 21
-276.75
 31
0.0
  0
LINE
  5
72A
100
AcDbEntity
  8
0
  6
CONTINUOUS
 62
               7
100
AcDbLine
 10
200.03
 20
276.25
 30
0.0
 11
200.03
 21
-276.75
 31
0.0
  0
LINE
  5
72B
100
AcDbEntity
  8
0
  6
CONTINUOUS
 62
               7
100
AcDbLine
 10
0.27
 20
276.25
 30
0.0
 11
0.27
 21
-276.75
 31
0.0
  0
MTEXT
  5
72C
100
AcDbEntity
  8
0
  6
CONTINUOUS
 62
               7
100
AcDbMText
 10
245.88456269755227
 20
-264.25
 30
0.0
 40
12.5
 41
0.0
 71
               4
 72
               1
  1
\W1.121;\A1;KOGANEI CORP.
  0
MTEXT
  5
72D
100
AcDbEntity
  8
0
  6
CONTINUOUS
 62
               7
100
AcDbMText
 10
290.09979829720089
 20
263.75
 30
0.0
 40
9.0
 41
0.0
 71
               4
 72
               1
  1
\W1.200;\A1;Ver.3.0
  0
MTEXT
  5
72E
100
AcDbEntity
  8
0
  6
CONTINUOUS
 62
               7
100
AcDbMText
 10
-381.99137984517631
 20
-20.25
 30
0.0
 40
9.0
 41
0.0
 71
               4
 72
               1
  1
\W1.172;\A1;MODEL:F10T1-A1(J)
  0
MTEXT
  5
72F
100
AcDbEntity
  8
0
  6
CONTINUOUS
 62
               7
100
AcDbMText
 10
-362.5389820623364
 20
263.75
 30
0.0
 40
9.0
 41
0.0
 71
               4
 72
               1
  1
\W1.141;\A1;F10 SERIES
  0
MTEXT
  5
730
100
AcDbEntity
  8
0
  6
CONTINUOUS
 62
               7
100
AcDbMText
 10
-382.08846351304743
 20
231.25
 30
0.0
 40
9.0
 41
0.0
 71
               4
 72
               1
  1
\W1.108;\A1;MODEL:F10Z-E
  0
MTEXT
  5
731
100
AcDbEntity
  8
0
  6
CONTINUOUS
 62
               7
100
AcDbMText
 10
17.483854017614711
 20
231.25
 30
0.0
 40
9.0
 41
0.0
 71
               4
 72
               1
  1
\W1.139;\A1;MODEL:F10BPP(J)
  0
MTEXT
  5
732
100
AcDbEntity
  8
0
  6
CONTINUOUS
 62
               7
100
AcDbMText
 10
217.24635096585692
 20
231.25
 30
0.0
 40
9.0
 41
0.0
 71
               4
 72
               1
  1
\W1.139;\A1;MODEL:F10BPP(M)
  0
MTEXT
  5
733
100
AcDbEntity
  8
0
  6
CONTINUOUS
 62
               7
100
AcDbMText
 10
217.18537764876965
 20
-20.25
 30
0.0
 40
9.0
 41
0.0
 71
               4
 72
               1
  1
\W1.099;\A1;MODEL:F10Z-PM
  0
MTEXT
  5
734
100
AcDbEntity
  8
0
  6
CONTINUOUS
 62
               7
100
AcDbMText
 10
17.422880700527454
 20
-20.25
 30
0.0
 40
9.0
 41
0.0
 71
               4
 72
               1
  1
\W1.099;\A1;MODEL:F10Z-PJ
  0
MTEXT
  5
735
100
AcDbEntity
  8
0
  6
CONTINUOUS
 62
               7
100
AcDbMText
 10
-182.22888289693415
 20
-20.25
 30
0.0
 40
9.0
 41
0.0
 71
               4
 72
               1
  1
\W1.172;\A1;MODEL:F10T1-A1(M)
  0
LINE
  5
736
100
AcDbEntity
  8
0
  6
CONTINUOUS
 62
               7
100
AcDbLine
 10
-399.25
 20
-276.75
 30
0.0
 11
399.79999999999995
 21
-276.75
 31
0.0
  0
LINE
  5
737
100
AcDbEntity
  8
0
  6
CONTINUOUS
 62
               7
100
AcDbLine
 10
264.20262932005744
 20
-41.93010875273076
 30
0.0
 11
263.20262513969237
 21
-42.930128190436065
 31
0.0
  0
LINE
  5
739
100
AcDbEntity
  8
0
  6
DASHED
 62
               2
100
AcDbLine
 10
232.20248168945315
 20
-40.430000000000007
 30
0.0
 11
263.20248168945318
 21
-40.430000000000007
 31
0.0
  0
LINE
  5
73A
100
AcDbEntity
  8
0
  6
DASHED
 62
               2
100
AcDbLine
 10
231.05248168945329
 20
-120.93000000000001
 30
0.0
 11
231.05248168945329
 21
-123.09833061042073
 31
0.0
  0
LINE
  5
73B
100
AcDbEntity
  8
0
  6
DASHED
 62
               2
100
AcDbLine
 10
234.70248168945315
 20
-119.97999999999996
 30
0.0
 11
234.61380873543632
 21
-119.35928932188136
 31
0.0
  0
LINE
  5
73C
100
AcDbEntity
  8
0
  6
DASHED
 62
               2
100
AcDbLine
 10
231.05248168945329
 20
-82.761669389579311
 30
0.0
 11
229.20248168945315
 21
-81.899000221992537
 31
0.0
  0
LINE
  5
73D
100
AcDbEntity
  8
0
  6
DASHED
 62
               2
100
AcDbLine
 10
234.70248168945315
 20
-119.97999999999996
 30
0.0
 11
234.70248168945315
 21
-117.43000000000001
 31
0.0
  0
LINE
  5
73E
100
AcDbEntity
  8
0
  6
DASHED
 62
               2
100
AcDbLine
 10
234.70248168945315
 20
-88.430000000000007
 30
0.0
 11
234.70248168945315
 21
-86.500710678118651
 31
0.0
  0
LINE
  5
73F
100
AcDbEntity
  8
0
  6
DASHED
 62
               2
100
AcDbLine
 10
228.20248168945315
 20
-117.43000000000001
 30
0.0
 11
234.70248168945315
 21
-117.43000000000001
 31
0.0
  0
LINE
  5
740
100
AcDbEntity
  8
0
  6
DASHED
 62
               2
100
AcDbLine
 10
228.20248168945315
 20
-88.430000000000007
 30
0.0
 11
234.70248168945315
 21
-88.430000000000007
 31
0.0
  0
LINE
  5
741
100
AcDbEntity
  8
0
  6
DASHED
 62
               2
100
AcDbLine
 10
228.20248168945315
 20
-117.43000000000001
 30
0.0
 11
228.20248168945315
 21
-88.430000000000007
 31
0.0
  0
ARC
  5
742
100
AcDbEntity
  8
0
  6
DASHED
 62
               2
100
AcDbCircle
 10
232.20248168945315
 20
-43.430000000000007
 30
0.0
 40
3.0
100
AcDbArc
 50
89.999963344575988
 51
179.99994535848663
  0
LINE
  5
743
100
AcDbEntity
  8
0
  6
DASHED
 62
               2
100
AcDbLine
 10
229.20248168945315
 20
-43.42999999999995
 30
0.0
 11
229.20248168945315
 21
-81.899000221992537
 31
0.0
  0
LINE
  5
744
100
AcDbEntity
  8
0
  6
DASHED
 62
               2
100
AcDbLine
 10
231.05248168945329
 20
-82.761669389579282
 30
0.0
 11
231.05248168945329
 21
-84.930000000000007
 31
0.0
  0
LINE
  5
745
100
AcDbEntity
  8
0
  6
DASHED
 62
               2
100
AcDbLine
 10
234.1188339886057
 20
-86.930000000000007
 30
0.0
 11
233.05248168945329
 21
-86.930000000000007
 31
0.0
  0
ARC
  5
746
100
AcDbEntity
  8
0
  6
DASHED
 62
               2
100
AcDbCircle
 10
233.05248168945329
 20
-84.930000000000007
 30
0.0
 40
2.0
100
AcDbArc
 50
180.0
 51
270.0
  0
ARC
  5
747
100
AcDbEntity
  8
0
  6
DASHED
 62
               2
100
AcDbCircle
 10
234.1188339886057
 20
-86.430000000000007
 30
0.0
 40
0.5
100
AcDbArc
 50
270.0
 51
351.86989764584399
  0
LINE
  5
748
100
AcDbEntity
  8
0
  6
DASHED
 62
               2
100
AcDbLine
 10
234.1188339886057
 20
-118.93000000000001
 30
0.0
 11
233.05248168945329
 21
-118.93000000000001
 31
0.0
  0
ARC
  5
749
100
AcDbEntity
  8
0
  6
DASHED
 62
               2
100
AcDbCircle
 10
233.05248168945329
 20
-120.93000000000001
 30
0.0
 40
2.0
100
AcDbArc
 50
90.0
 51
180.0
  0
ARC
  5
74A
100
AcDbEntity
  8
0
  6
DASHED
 62
               2
100
AcDbCircle
 10
234.1188339886057
 20
-119.43000000000001
 30
0.0
 40
0.5
100
AcDbArc
 50
8.1301023541559339
 51
90.000000000000014
  0
LINE
  5
74B
100
AcDbEntity
  8
0
  6
DASHED
 62
               2
100
AcDbLine
 10
231.05248168945329
 20
-123.09833061042073
 30
0.0
 11
229.20248168945315
 21
-123.96099977800748
 31
0.0
  0
LINE
  5
74C
100
AcDbEntity
  8
0
  6
DASHED
 62
               2
100
AcDbLine
 10
231.4024938964844
 20
-131.62999694824219
 30
0.0
 11
231.4024938964844
 21
-133.43000000000001
 31
0.0
  0
LINE
  5
74D
100
AcDbEntity
  8
0
  6
DASHED
 62
               2
100
AcDbLine
 10
231.4024938964844
 20
-131.63001220703126
 30
0.0
 11
231.20248168945315
 21
-131.43000000000001
 31
0.0
  0
LINE
  5
74E
100
AcDbEntity
  8
0
  6
DASHED
 62
               2
100
AcDbLine
 10
229.20248168945315
 20
-126.43000000000001
 30
0.0
 11
229.20248168945315
 21
-123.96099977800748
 31
0.0
  0
LINE
  5
74F
100
AcDbEntity
  8
0
  6
DASHED
 62
               2
100
AcDbLine
 10
229.20248168945315
 20
-126.43000000000001
 30
0.0
 11
231.20248168945315
 21
-128.43000000000001
 31
0.0
  0
LINE
  5
750
100
AcDbEntity
  8
0
  6
DASHED
 62
               2
100
AcDbLine
 10
231.20248168945315
 20
-131.43000000000001
 30
0.0
 11
231.20248168945315
 21
-128.43000000000001
 31
0.0
  0
LINE
  5
751
100
AcDbEntity
  8
0
  6
CONTINUOUS
 62
               7
100
AcDbLine
 10
63.895890295429439
 20
-41.930127765254554
 30
0.0
 11
62.895886115064371
 21
-42.930147202959859
 31
0.0
  0
LINE
  5
752
100
AcDbEntity
  8
0
  6
DASHED
 62
               2
100
AcDbLine
 10
62.89571207405541
 20
-133.43000000000001
 30
0.0
 11
62.89571207405541
 21
-40.430000000000007
 31
0.0
  0
LINE
  5
753
100
AcDbEntity
  8
0
  6
DASHED
 62
               2
100
AcDbLine
 10
34.39571207405541
 20
-119.97999999999996
 30
0.0
 11
34.307039120038581
 21
-119.35928932188136
 31
0.0
  0
LINE
  5
754
100
AcDbEntity
  8
0
  6
DASHED
 62
               2
100
AcDbLine
 10
30.745712074055547
 20
-123.09833061042073
 30
0.0
 11
28.89571207405541
 21
-123.96099977800748
 31
0.0
  0
LINE
  5
755
100
AcDbEntity
  8
0
  6
DASHED
 62
               2
100
AcDbLine
 10
30.745712074055547
 20
-82.761669389579311
 30
0.0
 11
28.89571207405541
 21
-81.899000221992537
 31
0.0
  0
LINE
  5
756
100
AcDbEntity
  8
0
  6
DASHED
 62
               2
100
AcDbLine
 10
31.09572428108666
 20
-131.62999694824219
 30
0.0
 11
31.09572428108666
 21
-133.43000000000001
 31
0.0
  0
LINE
  5
757
100
AcDbEntity
  8
0
  6
DASHED
 62
               2
100
AcDbLine
 10
31.09572428108666
 20
-131.63001220703126
 30
0.0
 11
30.89571207405541
 21
-131.43000000000001
 31
0.0
  0
LINE
  5
758
100
AcDbEntity
  8
0
  6
DASHED
 62
               2
100
AcDbLine
 10
34.39571207405541
 20
-119.97999999999996
 30
0.0
 11
34.39571207405541
 21
-117.43000000000001
 31
0.0
  0
LINE
  5
759
100
AcDbEntity
  8
0
  6
DASHED
 62
               2
100
AcDbLine
 10
34.39571207405541
 20
-88.430000000000007
 30
0.0
 11
34.39571207405541
 21
-86.500710678118651
 31
0.0
  0
LINE
  5
75A
100
AcDbEntity
  8
0
  6
DASHED
 62
               2
100
AcDbLine
 10
27.89571207405541
 20
-117.43000000000001
 30
0.0
 11
34.39571207405541
 21
-117.43000000000001
 31
0.0
  0
LINE
  5
75B
100
AcDbEntity
  8
0
  6
DASHED
 62
               2
100
AcDbLine
 10
27.89571207405541
 20
-88.430000000000007
 30
0.0
 11
34.39571207405541
 21
-88.430000000000007
 31
0.0
  0
LINE
  5
75C
100
AcDbEntity
  8
0
  6
DASHED
 62
               2
100
AcDbLine
 10
27.89571207405541
 20
-117.43000000000001
 30
0.0
 11
27.89571207405541
 21
-88.430000000000007
 31
0.0
  0
ARC
  5
75D
100
AcDbEntity
  8
0
  6
DASHED
 62
               2
100
AcDbCircle
 10
31.89571207405541
 20
-43.430000000000007
 30
0.0
 40
3.0
100
AcDbArc
 50
89.999963344575988
 51
179.99994535848663
  0
LINE
  5
75E
100
AcDbEntity
  8
0
  6
DASHED
 62
               2
100
AcDbLine
 10
28.89571207405541
 20
-126.43000000000001
 30
0.0
 11
28.89571207405541
 21
-123.96099977800748
 31
0.0
  0
LINE
  5
75F
100
AcDbEntity
  8
0
  6
DASHED
 62
               2
100
AcDbLine
 10
28.89571207405541
 20
-126.43000000000001
 30
0.0
 11
30.89571207405541
 21
-128.43000000000001
 31
0.0
  0
LINE
  5
760
100
AcDbEntity
  8
0
  6
DASHED
 62
               2
100
AcDbLine
 10
28.89571207405541
 20
-43.42999999999995
 30
0.0
 11
28.89571207405541
 21
-81.899000221992537
 31
0.0
  0
LINE
  5
761
100
AcDbEntity
  8
0
  6
DASHED
 62
               2
100
AcDbLine
 10
30.745712074055547
 20
-82.761669389579282
 30
0.0
 11
30.745712074055547
 21
-84.930000000000007
 31
0.0
  0
LINE
  5
762
100
AcDbEntity
  8
0
  6
DASHED
 62
               2
100
AcDbLine
 10
33.81206437320796
 20
-86.930000000000007
 30
0.0
 11
32.745712074055547
 21
-86.930000000000007
 31
0.0
  0
ARC
  5
763
100
AcDbEntity
  8
0
  6
DASHED
 62
               2
100
AcDbCircle
 10
32.745712074055547
 20
-84.930000000000007
 30
0.0
 40
2.0
100
AcDbArc
 50
180.0
 51
270.0
  0
ARC
  5
764
100
AcDbEntity
  8
0
  6
DASHED
 62
               2
100
AcDbCircle
 10
33.81206437320796
 20
-86.430000000000007
 30
0.0
 40
0.5
100
AcDbArc
 50
270.0
 51
351.86989764584399
  0
LINE
  5
765
100
AcDbEntity
  8
0
  6
DASHED
 62
               2
100
AcDbLine
 10
33.81206437320796
 20
-118.93000000000001
 30
0.0
 11
32.745712074055547
 21
-118.93000000000001
 31
0.0
  0
ARC
  5
766
100
AcDbEntity
  8
0
  6
DASHED
 62
               2
100
AcDbCircle
 10
32.745712074055547
 20
-120.93000000000001
 30
0.0
 40
2.0
100
AcDbArc
 50
90.0
 51
180.0
  0
LINE
  5
767
100
AcDbEntity
  8
0
  6
DASHED
 62
               2
100
AcDbLine
 10
30.745712074055547
 20
-120.93000000000001
 30
0.0
 11
30.745712074055547
 21
-123.09833061042073
 31
0.0
  0
ARC
  5
768
100
AcDbEntity
  8
0
  6
DASHED
 62
               2
100
AcDbCircle
 10
33.81206437320796
 20
-119.43000000000001
 30
0.0
 40
0.5
100
AcDbArc
 50
8.1301023541559339
 51
90.000000000000014
  0
LINE
  5
769
100
AcDbEntity
  8
0
  6
DASHED
 62
               2
100
AcDbLine
 10
30.89571207405541
 20
-131.43000000000001
 30
0.0
 11
30.89571207405541
 21
-128.43000000000001
 31
0.0
  0
LINE
  5
76A
100
AcDbEntity
  8
0
  6
DASHED
 62
               2
100
AcDbLine
 10
31.89571207405541
 20
-40.430000000000007
 30
0.0
 11
62.89571207405541
 21
-40.430000000000007
 31
0.0
  0
LINE
  5
76B
100
AcDbEntity
  8
0
  6
DASHED
 62
               2
100
AcDbLine
 10
31.09572428108666
 20
-133.43000000000001
 30
0.0
 11
62.89571207405541
 21
-133.43000000000001
 31
0.0
  0
LINE
  5
76C
100
AcDbEntity
  8
0
  6
DASHED
 62
               2
100
AcDbLine
 10
-169.14211195153402
 20
-129.45797423884082
 30
0.0
 11
-169.14211195153402
 21
-100.45797423884082
 31
0.0
  0
LINE
  5
76D
100
AcDbEntity
  8
0
  6
DASHED
 62
               2
100
AcDbLine
 10
-165.14211195153402
 20
-52.457974238840819
 30
0.0
 11
-134.14211195153402
 21
-52.457974238840819
 31
0.0
  0
LINE
  5
76E
100
AcDbEntity
  8
0
  6
DASHED
 62
               2
100
AcDbLine
 10
-162.64211195153402
 20
-97.90797423884149
 30
0.0
 11
-162.73078490555085
 21
-98.528684916959463
 31
0.0
  0
ARC
  5
76F
100
AcDbEntity
  8
0
  6
DASHED
 62
               2
100
AcDbCircle
 10
-163.22575965238147
 20
-98.457974238840819
 30
0.0
 40
0.5
100
AcDbArc
 50
270.0
 51
351.86989764584399
  0
ARC
  5
770
100
AcDbEntity
  8
0
  6
DASHED
 62
               2
100
AcDbCircle
 10
-164.29211195153388
 20
-96.957974238840819
 30
0.0
 40
2.0
100
AcDbArc
 50
180.0
 51
270.0
  0
LINE
  5
771
100
AcDbEntity
  8
0
  6
DASHED
 62
               2
100
AcDbLine
 10
-163.22575965238147
 20
-98.957974238840819
 30
0.0
 11
-164.29211195153388
 21
-98.957974238840819
 31
0.0
  0
LINE
  5
772
100
AcDbEntity
  8
0
  6
DASHED
 62
               2
100
AcDbLine
 10
-166.29211195153388
 20
-94.789643628420095
 30
0.0
 11
-166.29211195153388
 21
-96.957974238840819
 31
0.0
  0
LINE
  5
773
100
AcDbEntity
  8
0
  6
DASHED
 62
               2
100
AcDbLine
 10
-168.14211195153402
 20
-55.457974238840762
 30
0.0
 11
-168.14211195153402
 21
-93.92697446083335
 31
0.0
  0
ARC
  5
774
100
AcDbEntity
  8
0
  6
DASHED
 62
               2
100
AcDbCircle
 10
-165.14211195153402
 20
-55.457974238840819
 30
0.0
 40
3.0
100
AcDbArc
 50
89.999963344575988
 51
179.99994535848663
  0
LINE
  5
775
100
AcDbEntity
  8
0
  6
DASHED
 62
               2
100
AcDbLine
 10
-169.14211195153402
 20
-100.45797423884082
 30
0.0
 11
-162.64211195153402
 21
-100.45797423884082
 31
0.0
  0
LINE
  5
776
100
AcDbEntity
  8
0
  6
DASHED
 62
               2
100
AcDbLine
 10
-162.64211195153402
 20
-100.45797423884082
 30
0.0
 11
-162.64211195153402
 21
-97.90797423884149
 31
0.0
  0
LINE
  5
777
100
AcDbEntity
  8
0
  6
DASHED
 62
               2
100
AcDbLine
 10
-166.29211195153388
 20
-94.789643628420123
 30
0.0
 11
-168.14211195153402
 21
-93.92697446083335
 31
0.0
  0
LINE
  5
778
100
AcDbEntity
  8
0
  6
DASHED
 62
               2
100
AcDbLine
 10
-134.14211195153402
 20
-145.45797423884082
 30
0.0
 11
-134.14211195153402
 21
-52.457974238840819
 31
0.0
  0
LINE
  5
779
100
AcDbEntity
  8
0
  6
DASHED
 62
               2
100
AcDbLine
 10
-166.14211195153402
 20
-143.45797423884082
 30
0.0
 11
-166.14211195153402
 21
-140.45797423884082
 31
0.0
  0
ARC
  5
77A
100
AcDbEntity
  8
0
  6
DASHED
 62
               2
100
AcDbCircle
 10
-163.22575965238147
 20
-131.45797423884082
 30
0.0
 40
0.5
100
AcDbArc
 50
8.1301023541559339
 51
90.000000000000014
  0
LINE
  5
77B
100
AcDbEntity
  8
0
  6
DASHED
 62
               2
100
AcDbLine
 10
-166.29211195153388
 20
-132.95797423884082
 30
0.0
 11
-166.29211195153388
 21
-135.12630484926154
 31
0.0
  0
ARC
  5
77C
100
AcDbEntity
  8
0
  6
DASHED
 62
               2
100
AcDbCircle
 10
-164.29211195153388
 20
-132.95797423884082
 30
0.0
 40
2.0
100
AcDbArc
 50
90.0
 51
180.0
  0
LINE
  5
77D
100
AcDbEntity
  8
0
  6
DASHED
 62
               2
100
AcDbLine
 10
-163.22575965238147
 20
-130.95797423884082
 30
0.0
 11
-164.29211195153388
 21
-130.95797423884082
 31
0.0
  0
LINE
  5
77E
100
AcDbEntity
  8
0
  6
DASHED
 62
               2
100
AcDbLine
 10
-168.14211195153402
 20
-138.45797423884082
 30
0.0
 11
-166.14211195153402
 21
-140.45797423884082
 31
0.0
  0
LINE
  5
77F
100
AcDbEntity
  8
0
  6
DASHED
 62
               2
100
AcDbLine
 10
-168.14211195153402
 20
-138.45797423884082
 30
0.0
 11
-168.14211195153402
 21
-135.98897401684829
 31
0.0
  0
LINE
  5
780
100
AcDbEntity
  8
0
  6
DASHED
 62
               2
100
AcDbLine
 10
-169.14211195153402
 20
-129.45797423884082
 30
0.0
 11
-162.64211195153402
 21
-129.45797423884082
 31
0.0
  0
LINE
  5
781
100
AcDbEntity
  8
0
  6
DASHED
 62
               2
100
AcDbLine
 10
-162.64211195153402
 20
-132.00797423884077
 30
0.0
 11
-162.64211195153402
 21
-129.45797423884082
 31
0.0
  0
LINE
  5
782
100
AcDbEntity
  8
0
  6
DASHED
 62
               2
100
AcDbLine
 10
-166.29211195153388
 20
-135.12630484926154
 30
0.0
 11
-168.14211195153402
 21
-135.98897401684829
 31
0.0
  0
LINE
  5
783
100
AcDbEntity
  8
0
  6
DASHED
 62
               2
100
AcDbLine
 10
-162.64211195153402
 20
-132.00797423884077
 30
0.0
 11
-162.73078490555085
 21
-131.38726356072218
 31
0.0
  0
LINE
  5
784
100
AcDbEntity
  8
0
  6
DASHED
 62
               2
100
AcDbLine
 10
-165.94209974450277
 20
-145.45797423884082
 30
0.0
 11
-134.14211195153402
 21
-145.45797423884082
 31
0.0
  0
LINE
  5
785
100
AcDbEntity
  8
0
  6
DASHED
 62
               2
100
AcDbLine
 10
-165.94209974450277
 20
-143.65798644587207
 30
0.0
 11
-166.14211195153402
 21
-143.45797423884082
 31
0.0
  0
LINE
  5
786
100
AcDbEntity
  8
0
  6
DASHED
 62
               2
100
AcDbLine
 10
-165.94209974450277
 20
-143.65797118708301
 30
0.0
 11
-165.94209974450277
 21
-145.45797423884082
 31
0.0
  0
LINE
  5
787
100
AcDbEntity
  8
0
  6
DASHED
 62
               2
100
AcDbLine
 10
-356.41211195153403
 20
-132.00797423884077
 30
0.0
 11
-356.50078490555086
 21
-131.38726356072218
 31
0.0
  0
LINE
  5
788
100
AcDbEntity
  8
0
  6
DASHED
 62
               2
100
AcDbLine
 10
-360.06211195153389
 20
-135.12630484926154
 30
0.0
 11
-361.91211195153403
 21
-135.98897401684829
 31
0.0
  0
LINE
  5
789
100
AcDbEntity
  8
0
  6
DASHED
 62
               2
100
AcDbLine
 10
-360.06211195153389
 20
-94.789643628420123
 30
0.0
 11
-361.91211195153403
 21
-93.92697446083335
 31
0.0
  0
LINE
  5
78A
100
AcDbEntity
  8
0
  6
DASHED
 62
               2
100
AcDbLine
 10
-327.91211195153403
 20
-145.45797423884082
 30
0.0
 11
-327.91211195153403
 21
-52.457974238840819
 31
0.0
  0
LINE
  5
78B
100
AcDbEntity
  8
0
  6
DASHED
 62
               2
100
AcDbLine
 10
-359.71209974450278
 20
-143.65797118708301
 30
0.0
 11
-359.71209974450278
 21
-145.45797423884082
 31
0.0
  0
LINE
  5
78C
100
AcDbEntity
  8
0
  6
DASHED
 62
               2
100
AcDbLine
 10
-359.71209974450278
 20
-143.65798644587207
 30
0.0
 11
-359.91211195153403
 21
-143.45797423884082
 31
0.0
  0
LINE
  5
78D
100
AcDbEntity
  8
0
  6
DASHED
 62
               2
100
AcDbLine
 10
-359.71209974450278
 20
-145.45797423884082
 30
0.0
 11
-327.91211195153403
 21
-145.45797423884082
 31
0.0
  0
LINE
  5
78E
100
AcDbEntity
  8
0
  6
DASHED
 62
               2
100
AcDbLine
 10
-356.41211195153403
 20
-132.00797423884077
 30
0.0
 11
-356.41211195153403
 21
-129.45797423884082
 31
0.0
  0
LINE
  5
78F
100
AcDbEntity
  8
0
  6
DASHED
 62
               2
100
AcDbLine
 10
-356.41211195153403
 20
-100.45797423884082
 30
0.0
 11
-356.41211195153403
 21
-97.90797423884149
 31
0.0
  0
LINE
  5
790
100
AcDbEntity
  8
0
  6
DASHED
 62
               2
100
AcDbLine
 10
-362.91211195153403
 20
-129.45797423884082
 30
0.0
 11
-356.41211195153403
 21
-129.45797423884082
 31
0.0
  0
LINE
  5
791
100
AcDbEntity
  8
0
  6
DASHED
 62
               2
100
AcDbLine
 10
-362.91211195153403
 20
-100.45797423884082
 30
0.0
 11
-356.41211195153403
 21
-100.45797423884082
 31
0.0
  0
LINE
  5
792
100
AcDbEntity
  8
0
  6
DASHED
 62
               2
100
AcDbLine
 10
-362.91211195153403
 20
-129.45797423884082
 30
0.0
 11
-362.91211195153403
 21
-100.45797423884082
 31
0.0
  0
ARC
  5
793
100
AcDbEntity
  8
0
  6
DASHED
 62
               2
100
AcDbCircle
 10
-358.91211195153403
 20
-55.457974238840819
 30
0.0
 40
3.0
100
AcDbArc
 50
89.999963344575988
 51
179.99994535848663
  0
LINE
  5
794
100
AcDbEntity
  8
0
  6
DASHED
 62
               2
100
AcDbLine
 10
-361.91211195153403
 20
-138.45797423884082
 30
0.0
 11
-361.91211195153403
 21
-135.98897401684829
 31
0.0
  0
LINE
  5
795
100
AcDbEntity
  8
0
  6
DASHED
 62
               2
100
AcDbLine
 10
-361.91211195153403
 20
-138.45797423884082
 30
0.0
 11
-359.91211195153403
 21
-140.45797423884082
 31
0.0
  0
LINE
  5
796
100
AcDbEntity
  8
0
  6
DASHED
 62
               2
100
AcDbLine
 10
-361.91211195153403
 20
-55.457974238840762
 30
0.0
 11
-361.91211195153403
 21
-93.92697446083335
 31
0.0
  0
LINE
  5
797
100
AcDbEntity
  8
0
  6
DASHED
 62
               2
100
AcDbLine
 10
-360.06211195153389
 20
-94.789643628420095
 30
0.0
 11
-360.06211195153389
 21
-96.957974238840819
 31
0.0
  0
LINE
  5
798
100
AcDbEntity
  8
0
  6
DASHED
 62
               2
100
AcDbLine
 10
-356.99575965238148
 20
-98.957974238840819
 30
0.0
 11
-358.06211195153389
 21
-98.957974238840819
 31
0.0
  0
ARC
  5
799
100
AcDbEntity
  8
0
  6
DASHED
 62
               2
100
AcDbCircle
 10
-358.06211195153389
 20
-96.957974238840819
 30
0.0
 40
2.0
100
AcDbArc
 50
180.0
 51
270.0
  0
ARC
  5
79A
100
AcDbEntity
  8
0
  6
DASHED
 62
               2
100
AcDbCircle
 10
-356.99575965238148
 20
-98.457974238840819
 30
0.0
 40
0.5
100
AcDbArc
 50
270.0
 51
351.86989764584399
  0
LINE
  5
79B
100
AcDbEntity
  8
0
  6
DASHED
 62
               2
100
AcDbLine
 10
-356.99575965238148
 20
-130.95797423884082
 30
0.0
 11
-358.06211195153389
 21
-130.95797423884082
 31
0.0
  0
ARC
  5
79C
100
AcDbEntity
  8
0
  6
DASHED
 62
               2
100
AcDbCircle
 10
-358.06211195153389
 20
-132.95797423884082
 30
0.0
 40
2.0
100
AcDbArc
 50
90.0
 51
180.0
  0
LINE
  5
79D
100
AcDbEntity
  8
0
  6
DASHED
 62
               2
100
AcDbLine
 10
-360.06211195153389
 20
-132.95797423884082
 30
0.0
 11
-360.06211195153389
 21
-135.12630484926154
 31
0.0
  0
ARC
  5
79E
100
AcDbEntity
  8
0
  6
DASHED
 62
               2
100
AcDbCircle
 10
-356.99575965238148
 20
-131.45797423884082
 30
0.0
 40
0.5
100
AcDbArc
 50
8.1301023541559339
 51
90.000000000000014
  0
LINE
  5
79F
100
AcDbEntity
  8
0
  6
DASHED
 62
               2
100
AcDbLine
 10
-356.41211195153403
 20
-97.90797423884149
 30
0.0
 11
-356.50078490555086
 21
-98.528684916959463
 31
0.0
  0
LINE
  5
7A0
100
AcDbEntity
  8
0
  6
DASHED
 62
               2
100
AcDbLine
 10
-359.91211195153403
 20
-143.45797423884082
 30
0.0
 11
-359.91211195153403
 21
-140.45797423884082
 31
0.0
  0
LINE
  5
7A1
100
AcDbEntity
  8
0
  6
DASHED
 62
               2
100
AcDbLine
 10
-358.91211195153403
 20
-52.457974238840819
 30
0.0
 11
-327.91211195153403
 21
-52.457974238840819
 31
0.0
  0
LINE
  5
7A2
100
AcDbEntity
  8
0
  6
DASHED
 62
               2
100
AcDbLine
 10
84.939755856990814
 20
123.03616534133727
 30
0.0
 11
84.939755856990814
 21
216.03616534133727
 31
0.0
  0
LINE
  5
7A3
100
AcDbEntity
  8
0
  6
DASHED
 62
               2
100
AcDbLine
 10
49.939755856990814
 20
139.03616534133727
 30
0.0
 11
49.939755856990814
 21
168.03616534133727
 31
0.0
  0
LINE
  5
7A4
100
AcDbEntity
  8
0
  6
DASHED
 62
               2
100
AcDbLine
 10
53.939755856990814
 20
216.03616534133727
 30
0.0
 11
84.939755856990814
 21
216.03616534133727
 31
0.0
  0
ARC
  5
7A5
100
AcDbEntity
  8
0
  6
DASHED
 62
               2
100
AcDbCircle
 10
55.856108156143364
 20
170.03616534133727
 30
0.0
 40
0.5
100
AcDbArc
 50
270.0
 51
351.86989764584399
  0
ARC
  5
7A6
100
AcDbEntity
  8
0
  6
DASHED
 62
               2
100
AcDbCircle
 10
54.789755856990951
 20
171.53616534133727
 30
0.0
 40
2.0
100
AcDbArc
 50
180.0
 51
270.0
  0
LINE
  5
7A7
100
AcDbEntity
  8
0
  6
DASHED
 62
               2
100
AcDbLine
 10
55.856108156143364
 20
169.53616534133727
 30
0.0
 11
54.789755856990951
 21
169.53616534133727
 31
0.0
  0
LINE
  5
7A8
100
AcDbEntity
  8
0
  6
DASHED
 62
               2
100
AcDbLine
 10
52.789755856990951
 20
173.70449595175799
 30
0.0
 11
52.789755856990951
 21
171.53616534133727
 31
0.0
  0
LINE
  5
7A9
100
AcDbEntity
  8
0
  6
DASHED
 62
               2
100
AcDbLine
 10
50.939755856990814
 20
213.03616534133732
 30
0.0
 11
50.939755856990814
 21
174.56716511934474
 31
0.0
  0
ARC
  5
7AA
100
AcDbEntity
  8
0
  6
DASHED
 62
               2
100
AcDbCircle
 10
53.939755856990814
 20
213.03616534133727
 30
0.0
 40
3.0
100
AcDbArc
 50
89.999963344575988
 51
179.99994535848663
  0
LINE
  5
7AB
100
AcDbEntity
  8
0
  6
DASHED
 62
               2
100
AcDbLine
 10
49.939755856990814
 20
168.03616534133727
 30
0.0
 11
56.439755856990814
 21
168.03616534133727
 31
0.0
  0
LINE
  5
7AC
100
AcDbEntity
  8
0
  6
DASHED
 62
               2
100
AcDbLine
 10
56.439755856990814
 20
168.03616534133727
 30
0.0
 11
56.439755856990814
 21
169.96545466321862
 31
0.0
  0
LINE
  5
7AD
100
AcDbEntity
  8
0
  6
DASHED
 62
               2
100
AcDbLine
 10
52.789755856990951
 20
173.70449595175796
 30
0.0
 11
50.939755856990814
 21
174.56716511934474
 31
0.0
  0
LINE
  5
7AE
100
AcDbEntity
  8
0
  6
DASHED
 62
               2
100
AcDbLine
 10
53.139768064022064
 20
124.83616839309508
 30
0.0
 11
53.139768064022064
 21
123.03616534133727
 31
0.0
  0
LINE
  5
7AF
100
AcDbEntity
  8
0
  6
DASHED
 62
               2
100
AcDbLine
 10
52.939755856990814
 20
125.03616534133727
 30
0.0
 11
52.939755856990814
 21
128.03616534133727
 31
0.0
  0
ARC
  5
7B0
100
AcDbEntity
  8
0
  6
DASHED
 62
               2
100
AcDbCircle
 10
55.856108156143364
 20
137.03616534133727
 30
0.0
 40
0.5
100
AcDbArc
 50
8.1301023541559339
 51
90.000000000000014
  0
LINE
  5
7B1
100
AcDbEntity
  8
0
  6
DASHED
 62
               2
100
AcDbLine
 10
52.789755856990951
 20
135.53616534133727
 30
0.0
 11
52.789755856990951
 21
133.36783473091654
 31
0.0
  0
ARC
  5
7B2
100
AcDbEntity
  8
0
  6
DASHED
 62
               2
100
AcDbCircle
 10
54.789755856990951
 20
135.53616534133727
 30
0.0
 40
2.0
100
AcDbArc
 50
90.0
 51
180.0
  0
LINE
  5
7B3
100
AcDbEntity
  8
0
  6
DASHED
 62
               2
100
AcDbLine
 10
55.856108156143364
 20
137.53616534133727
 30
0.0
 11
54.789755856990951
 21
137.53616534133727
 31
0.0
  0
LINE
  5
7B4
100
AcDbEntity
  8
0
  6
DASHED
 62
               2
100
AcDbLine
 10
50.939755856990814
 20
130.03616534133727
 30
0.0
 11
52.939755856990814
 21
128.03616534133727
 31
0.0
  0
LINE
  5
7B5
100
AcDbEntity
  8
0
  6
DASHED
 62
               2
100
AcDbLine
 10
50.939755856990814
 20
130.03616534133727
 30
0.0
 11
50.939755856990814
 21
132.5051655633298
 31
0.0
  0
LINE
  5
7B6
100
AcDbEntity
  8
0
  6
DASHED
 62
               2
100
AcDbLine
 10
49.939755856990814
 20
139.03616534133727
 30
0.0
 11
56.439755856990814
 21
139.03616534133727
 31
0.0
  0
LINE
  5
7B7
100
AcDbEntity
  8
0
  6
DASHED
 62
               2
100
AcDbLine
 10
56.439755856990814
 20
136.48616534133731
 30
0.0
 11
56.439755856990814
 21
139.03616534133727
 31
0.0
  0
LINE
  5
7B8
100
AcDbEntity
  8
0
  6
DASHED
 62
               2
100
AcDbLine
 10
53.139768064022064
 20
124.83615313430602
 30
0.0
 11
52.939755856990814
 21
125.03616534133727
 31
0.0
  0
LINE
  5
7B9
100
AcDbEntity
  8
0
  6
DASHED
 62
               2
100
AcDbLine
 10
52.789755856990951
 20
133.36783473091654
 30
0.0
 11
50.939755856990814
 21
132.5051655633298
 31
0.0
  0
LINE
  5
7BA
100
AcDbEntity
  8
0
  6
DASHED
 62
               2
100
AcDbLine
 10
56.439755856990814
 20
136.48616534133731
 30
0.0
 11
56.351082902973985
 21
137.10687601945591
 31
0.0
  0
LINE
  5
7BB
100
AcDbEntity
  8
0
  6
DASHED
 62
               2
100
AcDbLine
 10
53.139768064022064
 20
123.03616534133727
 30
0.0
 11
84.939755856990814
 21
123.03616534133727
 31
0.0
  0
LINE
  5
7BC
100
AcDbEntity
  8
0
  6
DASHED
 62
               2
100
AcDbLine
 10
284.71121215820312
 20
123.03616534133727
 30
0.0
 11
284.71121215820312
 21
216.03616534133727
 31
0.0
  0
LINE
  5
7BD
100
AcDbEntity
  8
0
  6
DASHED
 62
               2
100
AcDbLine
 10
250.71121215820312
 20
213.03616534133732
 30
0.0
 11
250.71121215820312
 21
174.56716511934474
 31
0.0
  0
ARC
  5
7BE
100
AcDbEntity
  8
0
  6
DASHED
 62
               2
100
AcDbCircle
 10
253.71121215820312
 20
213.03616534133727
 30
0.0
 40
3.0
100
AcDbArc
 50
89.999963344575988
 51
179.99994535848663
  0
LINE
  5
7BF
100
AcDbEntity
  8
0
  6
DASHED
 62
               2
100
AcDbLine
 10
253.71121215820312
 20
216.03616534133727
 30
0.0
 11
284.71121215820312
 21
216.03616534133727
 31
0.0
  0
LINE
  5
7C0
100
AcDbEntity
  8
0
  6
DASHED
 62
               2
100
AcDbLine
 10
249.71121215820312
 20
139.03616534133727
 30
0.0
 11
249.71121215820312
 21
168.03616534133727
 31
0.0
  0
LINE
  5
7C1
100
AcDbEntity
  8
0
  6
DASHED
 62
               2
100
AcDbLine
 10
252.56121215820326
 20
173.70449595175796
 30
0.0
 11
250.71121215820312
 21
174.56716511934474
 31
0.0
  0
LINE
  5
7C2
100
AcDbEntity
  8
0
  6
DASHED
 62
               2
100
AcDbLine
 10
256.21121215820312
 20
168.03616534133727
 30
0.0
 11
256.21121215820312
 21
169.96545466321862
 31
0.0
  0
LINE
  5
7C3
100
AcDbEntity
  8
0
  6
DASHED
 62
               2
100
AcDbLine
 10
249.71121215820312
 20
168.03616534133727
 30
0.0
 11
256.21121215820312
 21
168.03616534133727
 31
0.0
  0
LINE
  5
7C4
100
AcDbEntity
  8
0
  6
DASHED
 62
               2
100
AcDbLine
 10
252.56121215820326
 20
173.70449595175799
 30
0.0
 11
252.56121215820326
 21
171.53616534133727
 31
0.0
  0
LINE
  5
7C5
100
AcDbEntity
  8
0
  6
DASHED
 62
               2
100
AcDbLine
 10
255.62756445735567
 20
169.53616534133727
 30
0.0
 11
254.56121215820326
 21
169.53616534133727
 31
0.0
  0
ARC
  5
7C6
100
AcDbEntity
  8
0
  6
DASHED
 62
               2
100
AcDbCircle
 10
254.56121215820326
 20
171.53616534133727
 30
0.0
 40
2.0
100
AcDbArc
 50
180.0
 51
270.0
  0
ARC
  5
7C7
100
AcDbEntity
  8
0
  6
DASHED
 62
               2
100
AcDbCircle
 10
255.62756445735567
 20
170.03616534133727
 30
0.0
 40
0.5
100
AcDbArc
 50
270.0
 51
351.86989764584399
  0
LINE
  5
7C8
100
AcDbEntity
  8
0
  6
DASHED
 62
               2
100
AcDbLine
 10
252.71121215820312
 20
125.03616534133727
 30
0.0
 11
252.71121215820312
 21
128.03616534133727
 31
0.0
  0
LINE
  5
7C9
100
AcDbEntity
  8
0
  6
DASHED
 62
               2
100
AcDbLine
 10
256.21121215820312
 20
136.48616534133731
 30
0.0
 11
256.1225392041863
 21
137.10687601945591
 31
0.0
  0
LINE
  5
7CA
100
AcDbEntity
  8
0
  6
DASHED
 62
               2
100
AcDbLine
 10
252.56121215820326
 20
133.36783473091654
 30
0.0
 11
250.71121215820312
 21
132.5051655633298
 31
0.0
  0
LINE
  5
7CB
100
AcDbEntity
  8
0
  6
DASHED
 62
               2
100
AcDbLine
 10
256.21121215820312
 20
136.48616534133731
 30
0.0
 11
256.21121215820312
 21
139.03616534133727
 31
0.0
  0
LINE
  5
7CC
100
AcDbEntity
  8
0
  6
DASHED
 62
               2
100
AcDbLine
 10
249.71121215820312
 20
139.03616534133727
 30
0.0
 11
256.21121215820312
 21
139.03616534133727
 31
0.0
  0
LINE
  5
7CD
100
AcDbEntity
  8
0
  6
DASHED
 62
               2
100
AcDbLine
 10
250.71121215820312
 20
130.03616534133727
 30
0.0
 11
250.71121215820312
 21
132.5051655633298
 31
0.0
  0
LINE
  5
7CE
100
AcDbEntity
  8
0
  6
DASHED
 62
               2
100
AcDbLine
 10
250.71121215820312
 20
130.03616534133727
 30
0.0
 11
252.71121215820312
 21
128.03616534133727
 31
0.0
  0
LINE
  5
7CF
100
AcDbEntity
  8
0
  6
DASHED
 62
               2
100
AcDbLine
 10
255.62756445735567
 20
137.53616534133727
 30
0.0
 11
254.56121215820326
 21
137.53616534133727
 31
0.0
  0
ARC
  5
7D0
100
AcDbEntity
  8
0
  6
DASHED
 62
               2
100
AcDbCircle
 10
254.56121215820326
 20
135.53616534133727
 30
0.0
 40
2.0
100
AcDbArc
 50
90.0
 51
180.0
  0
LINE
  5
7D1
100
AcDbEntity
  8
0
  6
DASHED
 62
               2
100
AcDbLine
 10
252.56121215820326
 20
135.53616534133727
 30
0.0
 11
252.56121215820326
 21
133.36783473091654
 31
0.0
  0
ARC
  5
7D2
100
AcDbEntity
  8
0
  6
DASHED
 62
               2
100
AcDbCircle
 10
255.62756445735567
 20
137.03616534133727
 30
0.0
 40
0.5
100
AcDbArc
 50
8.1301023541559339
 51
90.000000000000014
  0
LINE
  5
7D3
100
AcDbEntity
  8
0
  6
DASHED
 62
               2
100
AcDbLine
 10
252.91122436523437
 20
123.03616534133727
 30
0.0
 11
284.71121215820312
 21
123.03616534133727
 31
0.0
  0
LINE
  5
7D4
100
AcDbEntity
  8
0
  6
DASHED
 62
               2
100
AcDbLine
 10
252.91122436523437
 20
124.83615313430602
 30
0.0
 11
252.71121215820312
 21
125.03616534133727
 31
0.0
  0
LINE
  5
7D5
100
AcDbEntity
  8
0
  6
DASHED
 62
               2
100
AcDbLine
 10
252.91122436523437
 20
124.83616839309508
 30
0.0
 11
252.91122436523437
 21
123.03616534133727
 31
0.0
  0
LINE
  5
7D6
100
AcDbEntity
  8
0
  6
DASHED
 62
               2
100
AcDbLine
 10
231.4024938964844
 20
-133.43000000000001
 30
0.0
 11
263.20248168945318
 21
-133.43000000000001
 31
0.0
  0
LINE
  5
7D7
100
AcDbEntity
  8
0
  6
DASHED
 62
               2
100
AcDbLine
 10
263.20248168945318
 20
-133.43000000000001
 30
0.0
 11
263.20248168945318
 21
-40.430000000000007
 31
0.0
  0
LINE
  5
7D8
100
AcDbEntity
  8
0
  6
CONTINUOUS
 62
               7
100
AcDbLine
 10
-399.25
 20
-0.25
 30
0.0
 11
399.80000001192093
 21
-0.25
 31
0.0
  0
ENDSEC
  0
SECTION
  2
OBJECTS
  0
DICTIONARY
  5
19
100
AcDbDictionary
  3
ACAD_GROUP
350
1A
  3
ACAD_MLINESTYLE
350
1B
  0
DICTIONARY
  5
1A
102
{ACAD_REACTORS
330
19
102
}
100
AcDbDictionary
  0
DICTIONARY
  5
1B
102
{ACAD_REACTORS
330
19
102
}
100
AcDbDictionary
  3
STANDARD
350
1C
  0
MLINESTYLE
  5
1C
102
{ACAD_REACTORS
330
1B
102
}
100
AcDbMlineStyle
  2
Standard
 70
               0
  3

 62
               0
 51
90.0
 52
90.0
 71
               2
 49
0.5
 62
             256
  6
ByLayer
 49
-0.5
 62
             256
  6
ByLayer
  0
ENDSEC
  0
EOF
