  0
SECTION
  2
HEADER
  9
$ACADVER
  1
AC1012
  9
$DWGCODEPAGE
  3
dos932
  9
$INSBASE
 10
0.0
 20
0.0
 30
0.0
  9
$EXTMIN
 10
-399.25
 20
-276.75
 30
0.0
  9
$EXTMAX
 10
406.09414987197181
 20
276.25
 30
0.0
  9
$LIMMIN
 10
-399.25
 20
-276.75
  9
$LIMMAX
 10
406.09414987197181
 20
276.25
  9
$ORTHOMODE
 70
               0
  9
$REGENMODE
 70
               1
  9
$FILLMODE
 70
               1
  9
$QTEXTMODE
 70
               0
  9
$MIRRTEXT
 70
               1
  9
$DRAGMODE
 70
               2
  9
$LTSCALE
 40
1.0
  9
$OSMODE
 70
               0
  9
$ATTMODE
 70
               1
  9
$TEXTSIZE
 40
3.2000000476837158
  9
$TRACEWID
 40
0.05
  9
$TEXTSTYLE
  7
MX_NOTE_STANDARD
  9
$CLAYER
  8
0
  9
$CELTYPE
  6
CONTINUOUS
  9
$CECOLOR
 62
             256
  9
$CELTSCALE
 40
1.0
  9
$DELOBJ
 70
               1
  9
$DISPSILH
 70
               0
  9
$DIMSCALE
 40
1.0
  9
$DIMASZ
 40
2.5
  9
$DIMEXO
 40
1.5
  9
$DIMDLI
 40
3.75
  9
$DIMRND
 40
0.0
  9
$DIMDLE
 40
0.0
  9
$DIMEXE
 40
1.5
  9
$DIMTP
 40
0.0
  9
$DIMTM
 40
0.0
  9
$DIMTXT
 40
3.2000000476837158
  9
$DIMCEN
 40
2.5
  9
$DIMTSZ
 40
0.0
  9
$DIMTOL
 70
               0
  9
$DIMLIM
 70
               0
  9
$DIMTIH
 70
               0
  9
$DIMTOH
 70
               0
  9
$DIMSE1
 70
               0
  9
$DIMSE2
 70
               0
  9
$DIMTAD
 70
               1
  9
$DIMZIN
 70
               8
  9
$DIMBLK
  1

  9
$DIMASO
 70
               1
  9
$DIMSHO
 70
               1
  9
$DIMPOST
  1

  9
$DIMAPOST
  1

  9
$DIMALT
 70
               0
  9
$DIMALTD
 70
               4
  9
$DIMALTF
 40
0.03937007874016
  9
$DIMLFAC
 40
1.0
  9
$DIMTOFL
 70
               1
  9
$DIMTVP
 40
0.0
  9
$DIMTIX
 70
               0
  9
$DIMSOXD
 70
               0
  9
$DIMSAH
 70
               0
  9
$DIMBLK1
  1

  9
$DIMBLK2
  1

  9
$DIMSTYLE
  2
MXDIMSTYLE
  9
$DIMCLRD
 70
               0
  9
$DIMCLRE
 70
               0
  9
$DIMCLRT
 70
               0
  9
$DIMTFAC
 40
1.0
  9
$DIMGAP
 40
1.0
  9
$DIMJUST
 70
               0
  9
$DIMSD1
 70
               0
  9
$DIMSD2
 70
               0
  9
$DIMTOLJ
 70
               1
  9
$DIMTZIN
 70
               0
  9
$DIMALTZ
 70
               0
  9
$DIMALTTZ
 70
               0
  9
$DIMFIT
 70
               3
  9
$DIMUPT
 70
               1
  9
$DIMUNIT
 70
               2
  9
$DIMDEC
 70
               4
  9
$DIMTDEC
 70
               4
  9
$DIMALTU
 70
               2
  9
$DIMALTTD
 70
               4
  9
$DIMTXSTY
  7
MX_NOTE_STANDARD
  9
$DIMAUNIT
 70
               0
  9
$LUNITS
 70
               2
  9
$LUPREC
 70
               4
  9
$SKETCHINC
 40
0.1
  9
$FILLETRAD
 40
0.0
  9
$AUNITS
 70
               0
  9
$AUPREC
 70
               0
  9
$MENU
  1
acad
  9
$ELEVATION
 40
0.0
  9
$PELEVATION
 40
0.0
  9
$THICKNESS
 40
0.0
  9
$LIMCHECK
 70
               0
  9
$BLIPMODE
 70
               1
  9
$CHAMFERA
 40
0.0
  9
$CHAMFERB
 40
0.0
  9
$CHAMFERC
 40
0.0
  9
$CHAMFERD
 40
0.0
  9
$SKPOLY
 70
               0
  9
$TDCREATE
 40
2453378.356412037
  9
$TDUPDATE
 40
2453378.356412037
  9
$TDINDWG
 40
0.0000000000
  9
$TDUSRTIMER
 40
0.0000000000
  9
$USRTIMER
 70
               1
  9
$ANGBASE
 50
0.0
  9
$ANGDIR
 70
               0
  9
$PDMODE
 70
               0
  9
$PDSIZE
 40
0.0
  9
$PLINEWID
 40
0.0
  9
$COORDS
 70
               1
  9
$SPLFRAME
 70
               0
  9
$SPLINETYPE
 70
               6
  9
$SPLINESEGS
 70
               8
  9
$ATTDIA
 70
               0
  9
$ATTREQ
 70
               1
  9
$HANDLING
 70
               1
  9
$HANDSEED
  5
76C
  9
$SURFTAB1
 70
               6
  9
$SURFTAB2
 70
               6
  9
$SURFTYPE
 70
               6
  9
$SURFU
 70
               6
  9
$SURFV
 70
               6
  9
$UCSNAME
  2

  9
$UCSORG
 10
0.0
 20
0.0
 30
0.0
  9
$UCSXDIR
 10
1.0
 20
0.0
 30
0.0
  9
$UCSYDIR
 10
0.0
 20
1.0
 30
0.0
  9
$PUCSNAME
  2

  9
$PUCSORG
 10
0.0
 20
0.0
 30
0.0
  9
$PUCSXDIR
 10
1.0
 20
0.0
 30
0.0
  9
$PUCSYDIR
 10
0.0
 20
1.0
 30
0.0
  9
$USERI1
 70
               0
  9
$USERI2
 70
               0
  9
$USERI3
 70
               0
  9
$USERI4
 70
               0
  9
$USERI5
 70
               0
  9
$USERR1
 40
0.0
  9
$USERR2
 40
0.0
  9
$USERR3
 40
0.0
  9
$USERR4
 40
0.0
  9
$USERR5
 40
0.0
  9
$WORLDVIEW
 70
               1
  9
$SHADEDGE
 70
               3
  9
$SHADEDIF
 70
              70
  9
$TILEMODE
 70
               1
  9
$MAXACTVP
 70
              16
  9
$PINSBASE
 10
0.0
 20
0.0
 30
0.0
  9
$PLIMCHECK
 70
               0
  9
$PEXTMIN
 10
1.0000000000000000E+20
 20
1.0000000000000000E+20
 30
1.0000000000000000E+20
  9
$PEXTMAX
 10
-1.0000000000000000E+20
 20
-1.0000000000000000E+20
 30
-1.0000000000000000E+20
  9
$PLIMMIN
 10
0.0
 20
0.0
  9
$PLIMMAX
 10
12.0
 20
9.0
  9
$UNITMODE
 70
               0
  9
$VISRETAIN
 70
               0
  9
$PLINEGEN
 70
               1
  9
$PSLTSCALE
 70
               0
  9
$TREEDEPTH
 70
            3020
  9
$PICKSTYLE
 70
               1
  9
$CMLSTYLE
  2
Standard
  9
$CMLJUST
 70
               0
  9
$CMLSCALE
 40
1.0
  9
$SAVEIMAGES
 70
               0
  0
ENDSEC
  0
SECTION
  2
CLASSES
  0
CLASS
  1
LWPOLYLINE
  2
AcDbPolyline
  3
"AutoCAD"
 90
        0
280
               0
281
               1
  0
CLASS
  1
IMAGE
  2
AcDbRasterImage
  3
ISM
 90
      127
280
               0
281
               1
  0
CLASS
  1
OLE2FRAME
  2
AcDbOle2Frame
  3
""
 90
        0
280
               0
281
               1
  0
CLASS
  1
HATCH
  2
AcDbHatch
  3
"ACAD_SEDONA"
 90
        0
280
               0
281
               1
  0
CLASS
  1
DICTIONARYVAR
  2
AcDbDictionaryVar
  3
"AutoCAD"
 90
        0
280
               0
281
               0
  0
CLASS
  1
RASTERVARIABLES
  2
AcDbRasterVariables
  3
ISM
 90
        0
280
               0
281
               0
  0
CLASS
  1
IMAGEDEF
  2
AcDbRasterImageDef
  3
ISM
 90
        0
280
               0
281
               0
  0
CLASS
  1
IMAGEDEF_REACTOR
  2
AcDbRasterImageDefReactor
  3
ISM
 90
        1
280
               0
281
               0
  0
CLASS
  1
IDBUFFER
  2
AcDbIdBuffer
  3
"Acad"
 90
        0
280
               0
281
               0
  0
CLASS
  1
SPATIAL_FILTER
  2
AcDbSpatialFilter
  3
"Acad"
 90
        0
280
               0
281
               0
  0
CLASS
  1
XRECORD
  2
AcDbXrecord
  3
"<Built In>"
 90
        0
280
               0
281
               0
  0
CLASS
  1
SORTENTSTABLE
  2
AcDbSortentsTable
  3
"AutoCAD"
 90
        0
280
               0
281
               0
  0
CLASS
  1
LAYER_INDEX
  2
AcDbLayerIndex
  3
"Acad"
 90
        0
280
               0
281
               0
  0
CLASS
  1
SPATIAL_INDEX
  2
AcDbSpatialIndex
  3
"Acad"
 90
        0
280
               0
281
               0
  0
CLASS
  1
OBJECT_PTR
  2
CAseDLPNTableRecord
  3
"ASE-LPNTableRecord"
 90
        1
280
               0
281
               0
  0
CLASS
  1
LAYOUT
  2
AcDbLayout
  3
"AutoCAD 2000"
 90
        1
280
               0
281
               0
  0
CLASS
  1
PLOTSETTINGS
  2
AcDbPlotSettings
  3
"AutoCAD 2000"
 90
        1
280
               0
281
               0
  0
CLASS
  1
ACDBDICTIONARYWDFLT
  2
AcDbDictionaryWithDefault
  3
"AutoCAD 2000"
 90
        1
280
               0
281
               0
  0
CLASS
  1
ACDBPLACEHOLDER
  2
AcDbPlaceHolder
  3
"AutoCAD 2000"
 90
        1
280
               0
281
               0
  0
ENDSEC
  0
SECTION
  2
TABLES
  0
TABLE
  2
VPORT
  5
7
100
AcDbSymbolTable
 70
               1
  0
VPORT
  5
15
100
AcDbSymbolTableRecord
100
AcDbViewportTableRecord
  2
*ACTIVE
 70
               0
 10
0.0
 20
0.0
 11
1.0
 21
1.0
 12
3.4220749359859042
 22
-0.25
 13
0.0
 23
0.0
 14
1.0
 24
1.0
 15
0.0
 25
0.0
 16
0.0
 26
0.0
 36
1.0
 17
0.0
 27
0.0
 37
0.0
 40
558.52999999999997
 41
1.7320508075688772
 42
50.0
 43
0.0
 44
0.0
 50
0.0
 51
0.0
 71
               0
 72
             100
 73
               1
 74
               1
 75
               0
 76
               0
 77
               0
 78
               0
  0
ENDTAB
  0
TABLE
  2
LTYPE
  5
4
100
AcDbSymbolTable
 70
               5
  0
LTYPE
  5
11
100
AcDbSymbolTableRecord
100
AcDbLinetypeTableRecord
  2
BYBLOCK
 70
              64
  3

 72
              65
 73
               0
 40
0.0
  0
LTYPE
  5
12
100
AcDbSymbolTableRecord
100
AcDbLinetypeTableRecord
  2
BYLAYER
 70
              64
  3

 72
              65
 73
               0
 40
0.0
  0
LTYPE
  5
13
100
AcDbSymbolTableRecord
100
AcDbLinetypeTableRecord
  2
CONTINUOUS
 70
              64
  3
Solid line
 72
              65
 73
               0
 40
0.0
  0
LTYPE
  5
1DF
100
AcDbSymbolTableRecord
100
AcDbLinetypeTableRecord
  2
DASHED
 70
              64
  3
Dashed __ __ __ __ __ __ __ __ __ __ __ __ __ _
 72
              65
 73
               2
 40
4.0
 49
2.0
 74
               0
 49
-2.0
 74
               0
  0
LTYPE
  5
25C
100
AcDbSymbolTableRecord
100
AcDbLinetypeTableRecord
  2
CENTER
 70
              64
  3
Center ____ _ ____ _ ____ _ ____ _ ____ _ ____
 72
              65
 73
               4
 40
26.0
 49
20.0
 74
               0
 49
-2.0
 74
               0
 49
2.0
 74
               0
 49
-2.0
 74
               0
  0
ENDTAB
  0
TABLE
  2
LAYER
  5
2
100
AcDbSymbolTable
 70
               2
  0
LAYER
  5
14
100
AcDbSymbolTableRecord
100
AcDbLayerTableRecord
  2
0
 70
               0
 62
               7
  6
CONTINUOUS
  0
LAYER
  5
1D
100
AcDbSymbolTableRecord
100
AcDbLayerTableRecord
  2
DEFPOINTS
 70
               0
 62
               7
  6
CONTINUOUS
  0
ENDTAB
  0
TABLE
  2
STYLE
  5
3
100
AcDbSymbolTable
 70
               1
  0
STYLE
  5
17
100
AcDbSymbolTableRecord
100
AcDbTextStyleTableRecord
  2
MX_NOTE_STANDARD
 70
               0
 40
0.0
 41
1.0
 50
0.0
 71
               0
 42
3.2000000476837158
  3
txt.shx
  4
extfont.shx
  0
ENDTAB
  0
TABLE
  2
VIEW
  5
5
100
AcDbSymbolTable
 70
               0
  0
ENDTAB
  0
TABLE
  2
UCS
  5
6
100
AcDbSymbolTable
 70
               0
  0
ENDTAB
  0
TABLE
  2
APPID
  5
8
100
AcDbSymbolTable
 70
               1
  0
APPID
  5
16
100
AcDbSymbolTableRecord
100
AcDbRegAppTableRecord
  2
ACAD
 70
               0
  0
ENDTAB
  0
TABLE
  2
DIMSTYLE
  5
9
100
AcDbSymbolTable
 70
               1
  0
DIMSTYLE
105
18
100
AcDbSymbolTableRecord
100
AcDbDimStyleTableRecord
  2
MXDIMSTYLE
 70
               0
  3

  4

  5

  6

  7

 40
1.0
 41
2.5
 42
1.5
 43
3.75
 44
1.5
 45
0.0
 46
0.0
 47
0.0
 48
0.0
 71
               0
 72
               0
 73
               0
 74
               0
 75
               0
 76
               0
 77
               1
 78
               8
140
3.2000000476837158
141
2.5
142
0.0
143
0.03937007874016
144
1.0
145
0.0
146
1.0
147
1.0
170
               0
171
               4
172
               1
173
               0
174
               0
175
               0
176
               0
177
               0
178
               0
270
               2
271
               4
272
               4
273
               2
274
               4
275
               0
280
               0
281
               0
282
               0
283
               1
284
               0
285
               0
286
               0
287
               3
288
               1
340
17
  0
ENDTAB
  0
TABLE
  2
BLOCK_RECORD
  5
1
100
AcDbSymbolTable
 70
              17
  0
BLOCK_RECORD
  5
A
100
AcDbSymbolTableRecord
100
AcDbBlockTableRecord
  2
*MODEL_SPACE
  0
BLOCK_RECORD
  5
B
100
AcDbSymbolTableRecord
100
AcDbBlockTableRecord
  2
*PAPER_SPACE
  0
BLOCK_RECORD
  5
1E
100
AcDbSymbolTableRecord
100
AcDbBlockTableRecord
  2
F10MS-1
  0
BLOCK_RECORD
  5
1F
100
AcDbSymbolTableRecord
100
AcDbBlockTableRecord
  2
F10MS-2
  0
BLOCK_RECORD
  5
20
100
AcDbSymbolTableRecord
100
AcDbBlockTableRecord
  2
F10MS-3
  0
BLOCK_RECORD
  5
21
100
AcDbSymbolTableRecord
100
AcDbBlockTableRecord
  2
F10MS-4
  0
BLOCK_RECORD
  5
22
100
AcDbSymbolTableRecord
100
AcDbBlockTableRecord
  2
F10MS-5
  0
BLOCK_RECORD
  5
23
100
AcDbSymbolTableRecord
100
AcDbBlockTableRecord
  2
F10MS-6
  0
BLOCK_RECORD
  5
24
100
AcDbSymbolTableRecord
100
AcDbBlockTableRecord
  2
F10MS-7
  0
BLOCK_RECORD
  5
25
100
AcDbSymbolTableRecord
100
AcDbBlockTableRecord
  2
F10MS-8
  0
BLOCK_RECORD
  5
26
100
AcDbSymbolTableRecord
100
AcDbBlockTableRecord
  2
F10MS-9
  0
BLOCK_RECORD
  5
27
100
AcDbSymbolTableRecord
100
AcDbBlockTableRecord
  2
F10MS-10
  0
BLOCK_RECORD
  5
28
100
AcDbSymbolTableRecord
100
AcDbBlockTableRecord
  2
F10MS-11
  0
BLOCK_RECORD
  5
29
100
AcDbSymbolTableRecord
100
AcDbBlockTableRecord
  2
F10MS-12
  0
BLOCK_RECORD
  5
2A
100
AcDbSymbolTableRecord
100
AcDbBlockTableRecord
  2
F10MS-13
  0
BLOCK_RECORD
  5
2B
100
AcDbSymbolTableRecord
100
AcDbBlockTableRecord
  2
F10MS-14
  0
BLOCK_RECORD
  5
2C
100
AcDbSymbolTableRecord
100
AcDbBlockTableRecord
  2
F10MS-15
  0
BLOCK_RECORD
  5
2D
100
AcDbSymbolTableRecord
100
AcDbBlockTableRecord
  2
F10MS-16
  0
BLOCK_RECORD
  5
2E
100
AcDbSymbolTableRecord
100
AcDbBlockTableRecord
  2
F10MS-17
  0
ENDTAB
  0
ENDSEC
  0
SECTION
  2
BLOCKS
  0
BLOCK
  5
D
100
AcDbEntity
  8
0
100
AcDbBlockBegin
  2
*MODEL_SPACE
 70
               0
 10
0.0
 20
0.0
 30
0.0
  3
*MODEL_SPACE
  1

  0
ENDBLK
  5
E
100
AcDbEntity
  8
0
100
AcDbBlockEnd
  0
BLOCK
  5
F
100
AcDbEntity
 67
               1
  8
0
100
AcDbBlockBegin
  2
*PAPER_SPACE
 70
               0
 10
0.0
 20
0.0
 30
0.0
  3
*PAPER_SPACE
  1

  0
ENDBLK
  5
10
100
AcDbEntity
 67
               1
  8
0
100
AcDbBlockEnd
  0
BLOCK
  5
2F
100
AcDbEntity
  8
0
100
AcDbBlockBegin
  2
F10MS-1
 70
               0
 10
0.0
 20
0.0
 30
0.0
  3
F10MS-1
  1

  0
ARC
  5
30
100
AcDbEntity
  8
0
  6
CONTINUOUS
 62
               7
100
AcDbCircle
 10
34.300003051757812
 20
-48.5
 30
0.0
 40
1.1999998092651367
100
AcDbArc
 50
270.00001866933468
 51
0.0000006832453318
  0
ARC
  5
31
100
AcDbEntity
  8
0
  6
CONTINUOUS
 62
               7
100
AcDbCircle
 10
15.699996948242188
 20
-48.5
 30
0.0
 40
1.1999998092651367
100
AcDbArc
 50
179.99998201391065
 51
270.00001866933468
  0
LINE
  5
32
100
AcDbEntity
  8
0
  6
CONTINUOUS
 62
               7
100
AcDbLine
 10
171.0
 20
-30.5
 30
0.0
 11
171.0
 21
62.5
 31
0.0
  0
ARC
  5
33
100
AcDbEntity
  8
0
  6
CONTINUOUS
 62
               7
100
AcDbCircle
 10
189.5
 20
-28.379549805998806
 30
0.0
 40
0.5
100
AcDbArc
 50
274.99999999999977
 51
0.0
  0
LINE
  5
34
100
AcDbEntity
  8
0
  6
CONTINUOUS
 62
               7
100
AcDbLine
 10
180.37367219074713
 20
-1.6263560838469857
 30
0.0
 11
183.62635712896281
 21
1.6263285801878737
 31
0.0
  0
LINE
  5
35
100
AcDbEntity
  8
0
  6
CONTINUOUS
 62
               7
100
AcDbLine
 10
180.37370885850487
 20
1.6263965841317258
 30
0.0
 11
183.62639379672055
 21
-1.6262880799031336
 31
0.0
  0
CIRCLE
  5
36
100
AcDbEntity
  8
0
  6
CONTINUOUS
 62
               7
100
AcDbCircle
 10
182.0
 20
0.0
 30
0.0
 40
4.0
  0
ARC
  5
37
100
AcDbEntity
  8
0
  6
CONTINUOUS
 62
               7
100
AcDbCircle
 10
189.5
 20
28.816993123628322
 30
0.0
 40
0.5
100
AcDbArc
 50
0.0
 51
85.000000000000114
  0
LINE
  5
38
100
AcDbEntity
  8
0
  6
CONTINUOUS
 62
               7
100
AcDbLine
 10
190.0
 20
28.816993123628322
 30
0.0
 11
190.0
 21
-28.379549805998806
 31
0.0
  0
ARC
  5
39
100
AcDbEntity
  8
0
  6
CONTINUOUS
 62
               7
100
AcDbCircle
 10
176.5
 20
30.958165587008693
 30
0.0
 40
0.5
100
AcDbArc
 50
180.0
 51
265.00000000000028
  0
LINE
  5
3A
100
AcDbEntity
  8
0
  6
CONTINUOUS
 62
               7
100
AcDbLine
 10
176.45642212862617
 20
30.460068237962787
 30
0.0
 11
189.54357787137383
 21
29.315090472674228
 31
0.0
  0
ARC
  5
3B
100
AcDbEntity
  8
0
  6
CONTINUOUS
 62
               7
100
AcDbCircle
 10
175.5
 20
62.0
 30
0.0
 40
0.5
100
AcDbArc
 50
0.0
 51
90.0
  0
LINE
  5
3C
100
AcDbEntity
  8
0
  6
CONTINUOUS
 62
               7
100
AcDbLine
 10
176.0
 20
30.958165587008693
 30
0.0
 11
176.0
 21
62.0
 31
0.0
  0
LINE
  5
3D
100
AcDbEntity
  8
0
  6
CONTINUOUS
 62
               2
100
AcDbLine
 10
200.0
 20
-4.0
 30
0.0
 11
200.0
 21
4.0
 31
0.0
  0
ARC
  5
3E
100
AcDbEntity
  8
0
  6
CONTINUOUS
 62
               7
100
AcDbCircle
 10
192.5
 20
0.0
 30
0.0
 40
2.75
100
AcDbArc
 50
204.61997192986658
 51
270.00001798608935
  0
ARC
  5
3F
100
AcDbEntity
  8
0
  6
CONTINUOUS
 62
               7
100
AcDbCircle
 10
192.5
 20
0.0
 30
0.0
 40
2.75
100
AcDbArc
 50
89.999982013910653
 51
155.38002807013342
  0
LINE
  5
40
100
AcDbEntity
  8
0
  6
CONTINUOUS
 62
               7
100
AcDbLine
 10
192.5
 20
-2.75
 30
0.0
 11
207.5
 21
-2.75
 31
0.0
  0
LINE
  5
41
100
AcDbEntity
  8
0
  6
CONTINUOUS
 62
               7
100
AcDbLine
 10
212.5
 20
17.5
 30
0.0
 11
212.5
 21
-17.5
 31
0.0
  0
ARC
  5
42
100
AcDbEntity
  8
0
  6
CONTINUOUS
 62
               7
100
AcDbCircle
 10
207.5
 20
0.0
 30
0.0
 40
2.75
100
AcDbArc
 50
270.00001798608935
 51
89.999982013910653
  0
LINE
  5
43
100
AcDbEntity
  8
0
  6
CONTINUOUS
 62
               7
100
AcDbLine
 10
192.5
 20
2.75
 30
0.0
 11
207.5
 21
2.75
 31
0.0
  0
LINE
  5
44
100
AcDbEntity
  8
0
  6
CONTINUOUS
 62
               7
100
AcDbLine
 10
190.0
 20
-12.5
 30
0.0
 11
212.5
 21
-12.5
 31
0.0
  0
LINE
  5
45
100
AcDbEntity
  8
0
  6
CONTINUOUS
 62
               7
100
AcDbLine
 10
190.0
 20
-17.5
 30
0.0
 11
212.5
 21
-17.5
 31
0.0
  0
LINE
  5
46
100
AcDbEntity
  8
0
  6
CONTINUOUS
 62
               7
100
AcDbLine
 10
190.0
 20
12.5
 30
0.0
 11
212.5
 21
12.5
 31
0.0
  0
LINE
  5
47
100
AcDbEntity
  8
0
  6
CONTINUOUS
 62
               7
100
AcDbLine
 10
190.0
 20
17.5
 30
0.0
 11
212.5
 21
17.5
 31
0.0
  0
LINE
  5
48
100
AcDbEntity
  8
0
  6
CONTINUOUS
 62
               7
100
AcDbLine
 10
175.5
 20
62.5
 30
0.0
 11
171.0
 21
62.5
 31
0.0
  0
LINE
  5
49
100
AcDbEntity
  8
0
  6
CONTINUOUS
 62
               7
100
AcDbLine
 10
171.0
 20
-30.5
 30
0.0
 11
189.54357787137383
 21
-28.877647155044656
 31
0.0
  0
LINE
  5
4A
100
AcDbEntity
  8
0
  6
CONTINUOUS
 62
               7
100
AcDbLine
 10
110.0
 20
-30.5
 30
0.0
 11
110.0
 21
62.5
 31
0.0
  0
LINE
  5
4B
100
AcDbEntity
  8
0
  6
CONTINUOUS
 62
               7
100
AcDbLine
 10
89.0
 20
34.678632004383786
 30
0.0
 11
89.000000000000114
 21
62.499999999999943
 31
0.0
  0
ARC
  5
4C
100
AcDbEntity
  8
0
  6
CONTINUOUS
 62
               7
100
AcDbCircle
 10
70.5
 20
-28.379549805998806
 30
0.0
 40
0.5
100
AcDbArc
 50
180.0
 51
265.00000000000023
  0
LINE
  5
4D
100
AcDbEntity
  8
0
  6
CONTINUOUS
 62
               7
100
AcDbLine
 10
89.0
 20
-30.5
 30
0.0
 11
70.456422128626173
 21
-28.877647155044656
 31
0.0
  0
LINE
  5
4E
100
AcDbEntity
  8
0
  6
CONTINUOUS
 62
               7
100
AcDbLine
 10
76.373728939837861
 20
1.6264083852506133
 30
0.0
 11
79.626415901102405
 21
-1.6262783018329401
 31
0.0
  0
LINE
  5
4F
100
AcDbEntity
  8
0
  6
CONTINUOUS
 62
               7
100
AcDbLine
 10
76.37364911370662
 20
-1.626357095370679
 30
0.0
 11
79.626334051922299
 21
1.6263275686641805
 31
0.0
  0
CIRCLE
  5
50
100
AcDbEntity
  8
0
  6
CONTINUOUS
 62
               7
100
AcDbCircle
 10
78.000000000000114
 20
-0.0000000000000568
 30
0.0
 40
4.0
  0
LINE
  5
51
100
AcDbEntity
  8
0
  6
CONTINUOUS
 62
               7
100
AcDbLine
 10
73.907507747422983
 20
29.617021341176269
 30
0.0
 11
70.456422128626286
 21
29.315090472674228
 31
0.0
  0
ARC
  5
52
100
AcDbEntity
  8
0
  6
CONTINUOUS
 62
               7
100
AcDbCircle
 10
70.500000000000114
 20
28.816993123628379
 30
0.0
 40
0.5
100
AcDbArc
 50
94.999999999999943
 51
171.08323619482928
  0
LINE
  5
53
100
AcDbEntity
  8
0
  6
CONTINUOUS
 62
               7
100
AcDbLine
 10
70.0
 20
3.4938461571792629
 30
0.0
 11
70.0
 21
-28.379549805998806
 31
0.0
  0
LINE
  5
54
100
AcDbEntity
  8
0
  6
CONTINUOUS
 62
               7
100
AcDbLine
 10
89.0
 20
-30.5
 30
0.0
 11
89.0
 21
9.2785465551650361
 31
0.0
  0
ARC
  5
55
100
AcDbEntity
  8
0
  6
CONTINUOUS
 62
               7
100
AcDbCircle
 10
84.500000000000114
 20
61.999999999999943
 30
0.0
 40
0.5
100
AcDbArc
 50
90.0
 51
180.0
  0
LINE
  5
56
100
AcDbEntity
  8
0
  6
CONTINUOUS
 62
               7
100
AcDbLine
 10
89.000000000000114
 20
62.499999999999943
 30
0.0
 11
84.500000000000114
 21
62.499999999999943
 31
0.0
  0
LINE
  5
57
100
AcDbEntity
  8
0
  6
CONTINUOUS
 62
               7
100
AcDbLine
 10
84.000000000000114
 20
33.873886363681663
 30
0.0
 11
84.000000000000114
 21
61.999999999999943
 31
0.0
  0
LINE
  5
58
100
AcDbEntity
  8
0
  6
CONTINUOUS
 62
               7
100
AcDbLine
 10
89.0
 20
-30.5
 30
0.0
 11
90.5
 21
-30.5
 31
0.0
  0
LINE
  5
59
100
AcDbEntity
  8
0
  6
CONTINUOUS
 62
               7
100
AcDbLine
 10
67.5
 20
-2.75
 30
0.0
 11
70.0
 21
-2.75
 31
0.0
  0
LINE
  5
5A
100
AcDbEntity
  8
0
  6
CONTINUOUS
 62
               7
100
AcDbLine
 10
67.5
 20
2.75
 30
0.0
 11
70.0
 21
2.75
 31
0.0
  0
ARC
  5
5B
100
AcDbEntity
  8
0
  6
CONTINUOUS
 62
               7
100
AcDbCircle
 10
67.5
 20
0.0
 30
0.0
 40
2.75
100
AcDbArc
 50
89.999982013910653
 51
270.00000068324533
  0
ARC
  5
5C
100
AcDbEntity
  8
0
  6
CONTINUOUS
 62
               7
100
AcDbCircle
 10
57.5
 20
0.0
 30
0.0
 40
2.75
100
AcDbArc
 50
335.380022671343
 51
24.619977328657079
  0
ARC
  5
5D
100
AcDbEntity
  8
0
  6
CONTINUOUS
 62
               7
100
AcDbCircle
 10
7.5
 20
0.0
 30
0.0
 40
2.75
100
AcDbArc
 50
24.619976938822902
 51
89.999982013910653
  0
ARC
  5
5E
100
AcDbEntity
  8
0
  6
CONTINUOUS
 62
               7
100
AcDbCircle
 10
7.5
 20
0.0
 30
0.0
 40
2.75
100
AcDbArc
 50
270.00001798608935
 51
335.3800230611771
  0
LINE
  5
5F
100
AcDbEntity
  8
0
  6
CONTINUOUS
 62
               7
100
AcDbLine
 10
-7.5
 20
2.75
 30
0.0
 11
7.5
 21
2.75
 31
0.0
  0
LINE
  5
60
100
AcDbEntity
  8
0
  6
CONTINUOUS
 62
               7
100
AcDbLine
 10
36.350006103515625
 20
46.0
 30
0.0
 11
38.350006103515625
 21
46.0
 31
0.0
  0
LINE
  5
61
100
AcDbEntity
  8
0
  6
CONTINUOUS
 62
               7
100
AcDbLine
 10
38.350006103515625
 20
46.0
 30
0.0
 11
38.350006103515625
 21
45.0
 31
0.0
  0
LINE
  5
62
100
AcDbEntity
  8
0
  6
CONTINUOUS
 62
               7
100
AcDbLine
 10
31.350006103515625
 20
46.0
 30
0.0
 11
31.350006103515625
 21
45.0
 31
0.0
  0
ARC
  5
63
100
AcDbEntity
  8
0
  6
CONTINUOUS
 62
               7
100
AcDbCircle
 10
34.850006103515625
 20
46.0
 30
0.0
 40
1.5
100
AcDbArc
 50
0.0
 51
180.00001866933468
  0
LINE
  5
64
100
AcDbEntity
  8
0
  6
CONTINUOUS
 62
               7
100
AcDbLine
 10
31.350006103515625
 20
46.0
 30
0.0
 11
33.350006103515625
 21
46.0
 31
0.0
  0
LINE
  5
65
100
AcDbEntity
  8
0
  6
CONTINUOUS
 62
               7
100
AcDbLine
 10
37.000005153650818
 20
49.000009409709492
 30
0.0
 11
40.999998610415787
 21
45.000015952944523
 31
0.0
  0
LINE
  5
66
100
AcDbEntity
  8
0
  6
CONTINUOUS
 62
               7
100
AcDbLine
 10
28.999996660934812
 20
45.000005163351489
 30
0.0
 11
33.000000907292815
 21
49.000009409709492
 31
0.0
  0
LINE
  5
67
100
AcDbEntity
  8
0
  6
CONTINUOUS
 62
               7
100
AcDbLine
 10
33.0
 20
49.0
 30
0.0
 11
37.0
 21
49.0
 31
0.0
  0
LINE
  5
68
100
AcDbEntity
  8
0
  6
CONTINUOUS
 62
               7
100
AcDbLine
 10
22.800003051757813
 20
31.199996948242188
 30
0.0
 11
22.800003051757813
 21
-30.800018310546875
 31
0.0
  0
LINE
  5
69
100
AcDbEntity
  8
0
  6
CONTINUOUS
 62
               7
100
AcDbLine
 10
32.800003051757813
 20
-30.800018310546875
 30
0.0
 11
22.800003051757813
 21
-30.800018310546875
 31
0.0
  0
LINE
  5
6A
100
AcDbEntity
  8
0
  6
CONTINUOUS
 62
               7
100
AcDbLine
 10
32.800003051757813
 20
31.199996948242188
 30
0.0
 11
22.800003051757813
 21
31.199996948242188
 31
0.0
  0
LINE
  5
6B
100
AcDbEntity
  8
0
  6
CONTINUOUS
 62
               7
100
AcDbLine
 10
32.800003051757813
 20
31.199996948242188
 30
0.0
 11
32.800003051757813
 21
-30.800018310546875
 31
0.0
  0
ARC
  5
6C
100
AcDbEntity
  8
0
  6
CONTINUOUS
 62
               7
100
AcDbCircle
 10
58.0
 20
-43.000015258789063
 30
0.0
 40
0.5
100
AcDbArc
 50
270.00001798608935
 51
359.99998201391094
  0
ARC
  5
6D
100
AcDbEntity
  8
0
  6
CONTINUOUS
 62
               7
100
AcDbCircle
 10
14.0
 20
-43.000015258789063
 30
0.0
 40
0.5
100
AcDbArc
 50
180.00003597217869
 51
270.00001798608935
  0
ARC
  5
6E
100
AcDbEntity
  8
0
  6
CONTINUOUS
 62
               7
100
AcDbCircle
 10
14.0
 20
43.0
 30
0.0
 40
0.5
100
AcDbArc
 50
90.000036655424012
 51
180.00001866933468
  0
ARC
  5
6F
100
AcDbEntity
  8
0
  6
CONTINUOUS
 62
               7
100
AcDbCircle
 10
58.0
 20
43.0
 30
0.0
 40
0.5
100
AcDbArc
 50
359.99998201391094
 51
90.000036655424012
  0
LINE
  5
70
100
AcDbEntity
  8
0
  6
CONTINUOUS
 62
               7
100
AcDbLine
 10
13.5
 20
43.0
 30
0.0
 11
13.5
 21
-43.000015258789048
 31
0.0
  0
LINE
  5
71
100
AcDbEntity
  8
0
  6
CONTINUOUS
 62
               7
100
AcDbLine
 10
58.5
 20
43.0
 30
0.0
 11
58.5
 21
-43.000015258789048
 31
0.0
  0
LINE
  5
72
100
AcDbEntity
  8
0
  6
CONTINUOUS
 62
               7
100
AcDbLine
 10
58.0
 20
-43.500015258789048
 30
0.0
 11
14.0
 21
-43.500015258789048
 31
0.0
  0
LINE
  5
73
100
AcDbEntity
  8
0
  6
CONTINUOUS
 62
               7
100
AcDbLine
 10
58.0
 20
43.5
 30
0.0
 11
14.0
 21
43.5
 31
0.0
  0
LINE
  5
74
100
AcDbEntity
  8
0
  6
CONTINUOUS
 62
               7
100
AcDbLine
 10
49.0
 20
10.209991455078125
 30
0.0
 11
49.0
 21
-11.790008544921875
 31
0.0
  0
LINE
  5
75
100
AcDbEntity
  8
0
  6
CONTINUOUS
 62
               7
100
AcDbLine
 10
44.0
 20
10.209991455078125
 30
0.0
 11
44.0
 21
-11.790008544921875
 31
0.0
  0
LINE
  5
76
100
AcDbEntity
  8
0
  6
CONTINUOUS
 62
               7
100
AcDbLine
 10
49.0
 20
10.209991455078125
 30
0.0
 11
44.0
 21
10.209991455078125
 31
0.0
  0
LINE
  5
77
100
AcDbEntity
  8
0
  6
CONTINUOUS
 62
               7
100
AcDbLine
 10
49.0
 20
-11.790008544921875
 30
0.0
 11
44.0
 21
-11.790008544921875
 31
0.0
  0
LINE
  5
78
100
AcDbEntity
  8
0
  6
CONTINUOUS
 62
               7
100
AcDbLine
 10
48.5
 20
17.29998779296875
 30
0.0
 11
48.5
 21
14.29998779296875
 31
0.0
  0
LINE
  5
79
100
AcDbEntity
  8
0
  6
CONTINUOUS
 62
               7
100
AcDbLine
 10
44.5
 20
17.29998779296875
 30
0.0
 11
44.5
 21
14.29998779296875
 31
0.0
  0
LINE
  5
7A
100
AcDbEntity
  8
0
  6
CONTINUOUS
 62
               7
100
AcDbLine
 10
48.5
 20
17.29998779296875
 30
0.0
 11
44.5
 21
17.29998779296875
 31
0.0
  0
LINE
  5
7B
100
AcDbEntity
  8
0
  6
CONTINUOUS
 62
               7
100
AcDbLine
 10
48.5
 20
14.29998779296875
 30
0.0
 11
44.5
 21
14.29998779296875
 31
0.0
  0
LINE
  5
7C
100
AcDbEntity
  8
0
  6
CONTINUOUS
 62
               7
100
AcDbLine
 10
48.5
 20
24.29998779296875
 30
0.0
 11
48.5
 21
21.29998779296875
 31
0.0
  0
LINE
  5
7D
100
AcDbEntity
  8
0
  6
CONTINUOUS
 62
               7
100
AcDbLine
 10
44.5
 20
24.29998779296875
 30
0.0
 11
44.5
 21
21.29998779296875
 31
0.0
  0
LINE
  5
7E
100
AcDbEntity
  8
0
  6
CONTINUOUS
 62
               7
100
AcDbLine
 10
48.5
 20
24.29998779296875
 30
0.0
 11
44.5
 21
24.29998779296875
 31
0.0
  0
LINE
  5
7F
100
AcDbEntity
  8
0
  6
CONTINUOUS
 62
               7
100
AcDbLine
 10
48.5
 20
21.29998779296875
 30
0.0
 11
44.5
 21
21.29998779296875
 31
0.0
  0
ARC
  5
80
100
AcDbEntity
  8
0
  6
CONTINUOUS
 62
               7
100
AcDbCircle
 10
89.970001220703125
 20
-12.683441162109375
 30
0.0
 40
21.9833984375
100
AcDbArc
 50
89.999982013910653
 51
120.02500183166647
  0
ARC
  5
81
100
AcDbEntity
  8
0
  6
CONTINUOUS
 62
               7
100
AcDbCircle
 10
67.970001220703125
 20
25.383209228515625
 30
0.0
 40
21.983291625976562
100
AcDbArc
 50
270.00001798608935
 51
300.02514708687187
  0
ARC
  5
82
100
AcDbEntity
  8
0
  6
CONTINUOUS
 62
               7
100
AcDbCircle
 10
89.970001220703125
 20
-11.413436889648438
 30
0.0
 40
21.9833984375
100
AcDbArc
 50
89.999982013910653
 51
120.02500183166647
  0
ARC
  5
83
100
AcDbEntity
  8
0
  6
CONTINUOUS
 62
               7
100
AcDbCircle
 10
67.970001220703125
 20
26.653213500976563
 30
0.0
 40
21.983291625976562
100
AcDbArc
 50
270.00001798608935
 51
300.02514708687187
  0
ARC
  5
84
100
AcDbEntity
  8
0
  6
CONTINUOUS
 62
               7
100
AcDbCircle
 10
89.970001220703125
 20
-10.1434326171875
 30
0.0
 40
21.9833984375
100
AcDbArc
 50
89.999982013910653
 51
120.02500183166647
  0
ARC
  5
85
100
AcDbEntity
  8
0
  6
CONTINUOUS
 62
               7
100
AcDbCircle
 10
67.970001220703125
 20
27.9232177734375
 30
0.0
 40
21.983291625976562
100
AcDbArc
 50
270.00001798608935
 51
300.02514708687187
  0
ARC
  5
86
100
AcDbEntity
  8
0
  6
CONTINUOUS
 62
               7
100
AcDbCircle
 10
89.970001220703125
 20
-8.8734283447265625
 30
0.0
 40
21.9833984375
100
AcDbArc
 50
89.999982013910653
 51
120.02500183166647
  0
ARC
  5
87
100
AcDbEntity
  8
0
  6
CONTINUOUS
 62
               7
100
AcDbCircle
 10
67.970001220703125
 20
29.193222045898437
 30
0.0
 40
21.983291625976562
100
AcDbArc
 50
270.00001798608935
 51
300.02514708687187
  0
ARC
  5
88
100
AcDbEntity
  8
0
  6
CONTINUOUS
 62
               7
100
AcDbCircle
 10
89.970001220703125
 20
-7.603424072265625
 30
0.0
 40
21.9833984375
100
AcDbArc
 50
89.999982013910653
 51
120.02500183166647
  0
ARC
  5
89
100
AcDbEntity
  8
0
  6
CONTINUOUS
 62
               7
100
AcDbCircle
 10
67.970001220703125
 20
30.463226318359375
 30
0.0
 40
21.983291625976562
100
AcDbArc
 50
270.00001798608935
 51
300.02514708687187
  0
ARC
  5
8A
100
AcDbEntity
  8
0
  6
CONTINUOUS
 62
               7
100
AcDbCircle
 10
89.970001220703125
 20
-6.3334197998046875
 30
0.0
 40
21.9833984375
100
AcDbArc
 50
89.999982013910653
 51
120.02500183166647
  0
ARC
  5
8B
100
AcDbEntity
  8
0
  6
CONTINUOUS
 62
               7
100
AcDbCircle
 10
67.970001220703125
 20
31.733230590820312
 30
0.0
 40
21.983291625976562
100
AcDbArc
 50
270.00001798608935
 51
300.02514708687187
  0
ARC
  5
8C
100
AcDbEntity
  8
0
  6
CONTINUOUS
 62
               7
100
AcDbCircle
 10
89.970001220703125
 20
-5.06341552734375
 30
0.0
 40
21.9833984375
100
AcDbArc
 50
89.999982013910653
 51
120.02500183166647
  0
ARC
  5
8D
100
AcDbEntity
  8
0
  6
CONTINUOUS
 62
               7
100
AcDbCircle
 10
67.970001220703125
 20
33.00323486328125
 30
0.0
 40
21.983291625976562
100
AcDbArc
 50
270.00001798608935
 51
300.02514708687187
  0
ARC
  5
8E
100
AcDbEntity
  8
0
  6
CONTINUOUS
 62
               7
100
AcDbCircle
 10
89.970001220703125
 20
-3.7934112548828125
 30
0.0
 40
21.9833984375
100
AcDbArc
 50
89.999982013910653
 51
120.02500183166647
  0
ARC
  5
8F
100
AcDbEntity
  8
0
  6
CONTINUOUS
 62
               7
100
AcDbCircle
 10
67.970001220703125
 20
34.273239135742188
 30
0.0
 40
21.983291625976562
100
AcDbArc
 50
270.00001798608935
 51
300.02514708687187
  0
ARC
  5
90
100
AcDbEntity
  8
0
  6
CONTINUOUS
 62
               7
100
AcDbCircle
 10
89.970001220703125
 20
-2.523406982421875
 30
0.0
 40
21.9833984375
100
AcDbArc
 50
89.999982013910653
 51
120.02500183166647
  0
ARC
  5
91
100
AcDbEntity
  8
0
  6
CONTINUOUS
 62
               7
100
AcDbCircle
 10
67.970001220703125
 20
35.543243408203125
 30
0.0
 40
21.983291625976562
100
AcDbArc
 50
270.00001798608935
 51
300.02514708687187
  0
ARC
  5
92
100
AcDbEntity
  8
0
  6
CONTINUOUS
 62
               7
100
AcDbCircle
 10
89.970001220703125
 20
-1.2534027099609375
 30
0.0
 40
21.9833984375
100
AcDbArc
 50
89.999982013910653
 51
120.02500183166647
  0
ARC
  5
93
100
AcDbEntity
  8
0
  6
CONTINUOUS
 62
               7
100
AcDbCircle
 10
67.970001220703125
 20
36.813247680664063
 30
0.0
 40
21.983291625976562
100
AcDbArc
 50
270.00001798608935
 51
300.02514708687187
  0
ARC
  5
94
100
AcDbEntity
  8
0
  6
CONTINUOUS
 62
               7
100
AcDbCircle
 10
89.970001220703125
 20
0.0166015625
 30
0.0
 40
21.9833984375
100
AcDbArc
 50
89.999982013910653
 51
120.02500183166647
  0
ARC
  5
95
100
AcDbEntity
  8
0
  6
CONTINUOUS
 62
               7
100
AcDbCircle
 10
67.970001220703125
 20
38.083251953125
 30
0.0
 40
21.983291625976562
100
AcDbArc
 50
270.00001798608935
 51
300.02514708687187
  0
ARC
  5
96
100
AcDbEntity
  8
0
  6
CONTINUOUS
 62
               7
100
AcDbCircle
 10
89.970001220703125
 20
1.2866058349609375
 30
0.0
 40
21.9833984375
100
AcDbArc
 50
89.999982013910653
 51
120.02500183166647
  0
ARC
  5
97
100
AcDbEntity
  8
0
  6
CONTINUOUS
 62
               7
100
AcDbCircle
 10
67.970001220703125
 20
39.353256225585938
 30
0.0
 40
21.983291625976562
100
AcDbArc
 50
270.00001798608935
 51
300.02514708687187
  0
ARC
  5
98
100
AcDbEntity
  8
0
  6
CONTINUOUS
 62
               7
100
AcDbCircle
 10
89.970001220703125
 20
2.556610107421875
 30
0.0
 40
21.9833984375
100
AcDbArc
 50
89.999982013910653
 51
120.02500183166647
  0
ARC
  5
99
100
AcDbEntity
  8
0
  6
CONTINUOUS
 62
               7
100
AcDbCircle
 10
67.970001220703125
 20
40.623260498046875
 30
0.0
 40
21.983291625976562
100
AcDbArc
 50
270.00001798608935
 51
300.02514708687187
  0
ARC
  5
9A
100
AcDbEntity
  8
0
  6
CONTINUOUS
 62
               7
100
AcDbCircle
 10
89.970001220703125
 20
3.8266143798828125
 30
0.0
 40
21.9833984375
100
AcDbArc
 50
89.999982013910653
 51
120.02500183166647
  0
ARC
  5
9B
100
AcDbEntity
  8
0
  6
CONTINUOUS
 62
               7
100
AcDbCircle
 10
67.970001220703125
 20
41.893264770507813
 30
0.0
 40
21.983291625976562
100
AcDbArc
 50
270.00001798608935
 51
300.02514708687187
  0
ARC
  5
9C
100
AcDbEntity
  8
0
  6
CONTINUOUS
 62
               7
100
AcDbCircle
 10
89.970001220703125
 20
5.09661865234375
 30
0.0
 40
21.9833984375
100
AcDbArc
 50
89.999982013910653
 51
120.02500183166647
  0
ARC
  5
9D
100
AcDbEntity
  8
0
  6
CONTINUOUS
 62
               7
100
AcDbCircle
 10
67.970001220703125
 20
43.16326904296875
 30
0.0
 40
21.983291625976562
100
AcDbArc
 50
270.00001798608935
 51
300.02514708687187
  0
ARC
  5
9E
100
AcDbEntity
  8
0
  6
CONTINUOUS
 62
               7
100
AcDbCircle
 10
89.970001220703125
 20
6.3666229248046875
 30
0.0
 40
21.9833984375
100
AcDbArc
 50
89.999982013910653
 51
120.02500183166647
  0
ARC
  5
9F
100
AcDbEntity
  8
0
  6
CONTINUOUS
 62
               7
100
AcDbCircle
 10
67.970001220703125
 20
44.433273315429687
 30
0.0
 40
21.983291625976562
100
AcDbArc
 50
270.00001798608935
 51
300.02514708687187
  0
ARC
  5
A0
100
AcDbEntity
  8
0
  6
CONTINUOUS
 62
               7
100
AcDbCircle
 10
89.970001220703125
 20
7.636627197265625
 30
0.0
 40
21.9833984375
100
AcDbArc
 50
89.999982013910653
 51
120.02500183166647
  0
ARC
  5
A1
100
AcDbEntity
  8
0
  6
CONTINUOUS
 62
               7
100
AcDbCircle
 10
67.970001220703125
 20
45.703277587890625
 30
0.0
 40
21.983291625976562
100
AcDbArc
 50
270.00001798608935
 51
300.02514708687187
  0
ARC
  5
A2
100
AcDbEntity
  8
0
  6
CONTINUOUS
 62
               7
100
AcDbCircle
 10
89.970001220703125
 20
8.9066314697265625
 30
0.0
 40
21.9833984375
100
AcDbArc
 50
89.999982013910653
 51
120.02500183166647
  0
ARC
  5
A3
100
AcDbEntity
  8
0
  6
CONTINUOUS
 62
               7
100
AcDbCircle
 10
67.970001220703125
 20
46.973281860351562
 30
0.0
 40
21.983291625976562
100
AcDbArc
 50
270.00001798608935
 51
300.02514708687187
  0
ARC
  5
A4
100
AcDbEntity
  8
0
  6
CONTINUOUS
 62
               7
100
AcDbCircle
 10
89.970001220703125
 20
10.1766357421875
 30
0.0
 40
21.9833984375
100
AcDbArc
 50
89.999982013910653
 51
120.02500183166647
  0
ARC
  5
A5
100
AcDbEntity
  8
0
  6
CONTINUOUS
 62
               7
100
AcDbCircle
 10
67.970001220703125
 20
48.2432861328125
 30
0.0
 40
21.983291625976562
100
AcDbArc
 50
270.00001798608935
 51
300.02514708687187
  0
ARC
  5
A6
100
AcDbEntity
  8
0
  6
CONTINUOUS
 62
               7
100
AcDbCircle
 10
89.970001220703125
 20
11.446640014648438
 30
0.0
 40
21.9833984375
100
AcDbArc
 50
89.999982013910653
 51
120.02500183166647
  0
ARC
  5
A7
100
AcDbEntity
  8
0
  6
CONTINUOUS
 62
               7
100
AcDbCircle
 10
67.970001220703125
 20
49.513290405273438
 30
0.0
 40
21.983291625976562
100
AcDbArc
 50
270.00001798608935
 51
300.02514708687187
  0
ARC
  5
A8
100
AcDbEntity
  8
0
  6
CONTINUOUS
 62
               7
100
AcDbCircle
 10
89.970001220703125
 20
12.716644287109375
 30
0.0
 40
21.9833984375
100
AcDbArc
 50
89.999982013910653
 51
120.02500183166647
  0
ARC
  5
A9
100
AcDbEntity
  8
0
  6
CONTINUOUS
 62
               7
100
AcDbCircle
 10
67.970001220703125
 20
50.783294677734375
 30
0.0
 40
21.983291625976562
100
AcDbArc
 50
270.00001798608935
 51
300.02514708687187
  0
LINE
  5
AA
100
AcDbEntity
  8
0
  6
CONTINUOUS
 62
               7
100
AcDbLine
 10
60.0
 20
4.669921875
 30
0.0
 11
67.970001220703125
 21
4.669921875
 31
0.0
  0
LINE
  5
AB
100
AcDbEntity
  8
0
  6
CONTINUOUS
 62
               7
100
AcDbLine
 10
60.0
 20
5.9399261474609375
 30
0.0
 11
67.970001220703125
 21
5.9399261474609375
 31
0.0
  0
LINE
  5
AC
100
AcDbEntity
  8
0
  6
CONTINUOUS
 62
               7
100
AcDbLine
 10
60.0
 20
7.209930419921875
 30
0.0
 11
67.970001220703125
 21
7.209930419921875
 31
0.0
  0
LINE
  5
AD
100
AcDbEntity
  8
0
  6
CONTINUOUS
 62
               7
100
AcDbLine
 10
60.0
 20
8.4799346923828125
 30
0.0
 11
67.970001220703125
 21
8.4799346923828125
 31
0.0
  0
LINE
  5
AE
100
AcDbEntity
  8
0
  6
CONTINUOUS
 62
               7
100
AcDbLine
 10
60.0
 20
9.74993896484375
 30
0.0
 11
67.970001220703125
 21
9.74993896484375
 31
0.0
  0
LINE
  5
AF
100
AcDbEntity
  8
0
  6
CONTINUOUS
 62
               7
100
AcDbLine
 10
60.0
 20
11.019943237304688
 30
0.0
 11
67.970001220703125
 21
11.019943237304688
 31
0.0
  0
LINE
  5
B0
100
AcDbEntity
  8
0
  6
CONTINUOUS
 62
               7
100
AcDbLine
 10
60.0
 20
12.289947509765625
 30
0.0
 11
67.970001220703125
 21
12.289947509765625
 31
0.0
  0
LINE
  5
B1
100
AcDbEntity
  8
0
  6
CONTINUOUS
 62
               7
100
AcDbLine
 10
60.0
 20
13.559951782226563
 30
0.0
 11
67.970001220703125
 21
13.559951782226563
 31
0.0
  0
LINE
  5
B2
100
AcDbEntity
  8
0
  6
CONTINUOUS
 62
               7
100
AcDbLine
 10
60.0
 20
14.8299560546875
 30
0.0
 11
67.970001220703125
 21
14.8299560546875
 31
0.0
  0
LINE
  5
B3
100
AcDbEntity
  8
0
  6
CONTINUOUS
 62
               7
100
AcDbLine
 10
60.0
 20
16.099960327148437
 30
0.0
 11
67.970001220703125
 21
16.099960327148437
 31
0.0
  0
LINE
  5
B4
100
AcDbEntity
  8
0
  6
CONTINUOUS
 62
               7
100
AcDbLine
 10
60.0
 20
17.369964599609375
 30
0.0
 11
67.970001220703125
 21
17.369964599609375
 31
0.0
  0
LINE
  5
B5
100
AcDbEntity
  8
0
  6
CONTINUOUS
 62
               7
100
AcDbLine
 10
60.0
 20
18.639968872070313
 30
0.0
 11
67.970001220703125
 21
18.639968872070313
 31
0.0
  0
LINE
  5
B6
100
AcDbEntity
  8
0
  6
CONTINUOUS
 62
               7
100
AcDbLine
 10
60.0
 20
19.90997314453125
 30
0.0
 11
67.970001220703125
 21
19.90997314453125
 31
0.0
  0
LINE
  5
B7
100
AcDbEntity
  8
0
  6
CONTINUOUS
 62
               7
100
AcDbLine
 10
60.0
 20
21.179977416992188
 30
0.0
 11
67.970001220703125
 21
21.179977416992188
 31
0.0
  0
LINE
  5
B8
100
AcDbEntity
  8
0
  6
CONTINUOUS
 62
               7
100
AcDbLine
 10
60.0
 20
22.449981689453125
 30
0.0
 11
67.970001220703125
 21
22.449981689453125
 31
0.0
  0
LINE
  5
B9
100
AcDbEntity
  8
0
  6
CONTINUOUS
 62
               7
100
AcDbLine
 10
60.0
 20
23.719985961914063
 30
0.0
 11
67.970001220703125
 21
23.719985961914063
 31
0.0
  0
LINE
  5
BA
100
AcDbEntity
  8
0
  6
CONTINUOUS
 62
               7
100
AcDbLine
 10
60.0
 20
24.989990234375
 30
0.0
 11
67.970001220703125
 21
24.989990234375
 31
0.0
  0
LINE
  5
BB
100
AcDbEntity
  8
0
  6
CONTINUOUS
 62
               7
100
AcDbLine
 10
60.0
 20
26.259994506835938
 30
0.0
 11
67.970001220703125
 21
26.259994506835938
 31
0.0
  0
LINE
  5
BC
100
AcDbEntity
  8
0
  6
CONTINUOUS
 62
               7
100
AcDbLine
 10
60.0
 20
27.529998779296875
 30
0.0
 11
67.970001220703125
 21
27.529998779296875
 31
0.0
  0
LINE
  5
BD
100
AcDbEntity
  8
0
  6
CONTINUOUS
 62
               7
100
AcDbLine
 10
91.300003051757813
 20
9.299957275390625
 30
0.0
 11
91.300003051757813
 21
-7.20001220703125
 31
0.0
  0
LINE
  5
BE
100
AcDbEntity
  8
0
  6
CONTINUOUS
 62
               7
100
AcDbLine
 10
91.0
 20
9.299957275390625
 30
0.0
 11
91.0
 21
-7.5
 31
0.0
  0
LINE
  5
BF
100
AcDbEntity
  8
0
  6
CONTINUOUS
 62
               7
100
AcDbLine
 10
95.5
 20
9.299957275390625
 30
0.0
 11
95.5
 21
-0.45001220703125
 31
0.0
  0
LINE
  5
C0
100
AcDbEntity
  8
0
  6
CONTINUOUS
 62
               7
100
AcDbLine
 10
95.0
 20
9.299957275390625
 30
0.0
 11
95.0
 21
-0.70001220703125
 31
0.0
  0
LINE
  5
C1
100
AcDbEntity
  8
0
  6
CONTINUOUS
 62
               7
100
AcDbLine
 10
89.970001220703125
 20
9.299957275390625
 30
0.0
 11
97.631393432617188
 21
9.299957275390625
 31
0.0
  0
LINE
  5
C2
100
AcDbEntity
  8
0
  6
CONTINUOUS
 62
               7
100
AcDbLine
 10
89.970001220703125
 20
10.569961547851563
 30
0.0
 11
97.970001220703125
 21
10.569961547851563
 31
0.0
  0
LINE
  5
C3
100
AcDbEntity
  8
0
  6
CONTINUOUS
 62
               7
100
AcDbLine
 10
89.970001220703125
 20
11.8399658203125
 30
0.0
 11
97.970001220703125
 21
11.8399658203125
 31
0.0
  0
LINE
  5
C4
100
AcDbEntity
  8
0
  6
CONTINUOUS
 62
               7
100
AcDbLine
 10
89.970001220703125
 20
13.109970092773438
 30
0.0
 11
97.970001220703125
 21
13.109970092773438
 31
0.0
  0
LINE
  5
C5
100
AcDbEntity
  8
0
  6
CONTINUOUS
 62
               7
100
AcDbLine
 10
89.970001220703125
 20
14.379974365234375
 30
0.0
 11
97.970001220703125
 21
14.379974365234375
 31
0.0
  0
LINE
  5
C6
100
AcDbEntity
  8
0
  6
CONTINUOUS
 62
               7
100
AcDbLine
 10
89.970001220703125
 20
15.649978637695313
 30
0.0
 11
97.970001220703125
 21
15.649978637695313
 31
0.0
  0
LINE
  5
C7
100
AcDbEntity
  8
0
  6
CONTINUOUS
 62
               7
100
AcDbLine
 10
89.970001220703125
 20
16.91998291015625
 30
0.0
 11
97.970001220703125
 21
16.91998291015625
 31
0.0
  0
LINE
  5
C8
100
AcDbEntity
  8
0
  6
CONTINUOUS
 62
               7
100
AcDbLine
 10
89.970001220703125
 20
18.189987182617188
 30
0.0
 11
97.970001220703125
 21
18.189987182617188
 31
0.0
  0
LINE
  5
C9
100
AcDbEntity
  8
0
  6
CONTINUOUS
 62
               7
100
AcDbLine
 10
89.970001220703125
 20
19.459991455078125
 30
0.0
 11
97.970001220703125
 21
19.459991455078125
 31
0.0
  0
LINE
  5
CA
100
AcDbEntity
  8
0
  6
CONTINUOUS
 62
               7
100
AcDbLine
 10
89.970001220703125
 20
20.729995727539062
 30
0.0
 11
97.970001220703125
 21
20.729995727539062
 31
0.0
  0
LINE
  5
CB
100
AcDbEntity
  8
0
  6
CONTINUOUS
 62
               7
100
AcDbLine
 10
89.970001220703125
 20
34.700042724609375
 30
0.0
 11
97.631393432617188
 21
34.700042724609375
 31
0.0
  0
LINE
  5
CC
100
AcDbEntity
  8
0
  6
CONTINUOUS
 62
               7
100
AcDbLine
 10
89.970001220703125
 20
33.430038452148438
 30
0.0
 11
97.970001220703125
 21
33.430038452148438
 31
0.0
  0
LINE
  5
CD
100
AcDbEntity
  8
0
  6
CONTINUOUS
 62
               7
100
AcDbLine
 10
89.970001220703125
 20
32.1600341796875
 30
0.0
 11
97.970001220703125
 21
32.1600341796875
 31
0.0
  0
LINE
  5
CE
100
AcDbEntity
  8
0
  6
CONTINUOUS
 62
               7
100
AcDbLine
 10
89.970001220703125
 20
30.890029907226563
 30
0.0
 11
97.970001220703125
 21
30.890029907226563
 31
0.0
  0
LINE
  5
CF
100
AcDbEntity
  8
0
  6
CONTINUOUS
 62
               7
100
AcDbLine
 10
89.970001220703125
 20
29.620025634765625
 30
0.0
 11
97.970001220703125
 21
29.620025634765625
 31
0.0
  0
LINE
  5
D0
100
AcDbEntity
  8
0
  6
CONTINUOUS
 62
               7
100
AcDbLine
 10
89.970001220703125
 20
28.350021362304687
 30
0.0
 11
97.970001220703125
 21
28.350021362304687
 31
0.0
  0
LINE
  5
D1
100
AcDbEntity
  8
0
  6
CONTINUOUS
 62
               7
100
AcDbLine
 10
89.970001220703125
 20
27.08001708984375
 30
0.0
 11
97.970001220703125
 21
27.08001708984375
 31
0.0
  0
LINE
  5
D2
100
AcDbEntity
  8
0
  6
CONTINUOUS
 62
               7
100
AcDbLine
 10
89.970001220703125
 20
25.810012817382812
 30
0.0
 11
97.970001220703125
 21
25.810012817382812
 31
0.0
  0
LINE
  5
D3
100
AcDbEntity
  8
0
  6
CONTINUOUS
 62
               7
100
AcDbLine
 10
89.970001220703125
 20
24.540008544921875
 30
0.0
 11
97.970001220703125
 21
24.540008544921875
 31
0.0
  0
LINE
  5
D4
100
AcDbEntity
  8
0
  6
CONTINUOUS
 62
               7
100
AcDbLine
 10
89.970001220703125
 20
23.270004272460938
 30
0.0
 11
97.970001220703125
 21
23.270004272460938
 31
0.0
  0
LINE
  5
D5
100
AcDbEntity
  8
0
  6
CONTINUOUS
 62
               7
100
AcDbLine
 10
96.970001220703125
 20
9.299957275390625
 30
0.0
 11
96.970001220703125
 21
7.0500030517578125
 31
0.0
  0
LINE
  5
D6
100
AcDbEntity
  8
0
  6
CONTINUOUS
 62
               7
100
AcDbLine
 10
60.0
 20
28.800003051757813
 30
0.0
 11
67.970001220703125
 21
28.800003051757813
 31
0.0
  0
LINE
  5
D7
100
AcDbEntity
  8
0
  6
CONTINUOUS
 62
               7
100
AcDbLine
 10
60.0
 20
3.4000091552734375
 30
0.0
 11
67.970001220703125
 21
3.4000091552734375
 31
0.0
  0
ARC
  5
D8
100
AcDbEntity
  8
0
  6
CONTINUOUS
 62
               7
100
AcDbCircle
 10
-7.5
 20
0.0
 30
0.0
 40
2.75
100
AcDbArc
 50
89.999982013910653
 51
270.00000068324533
  0
LINE
  5
D9
100
AcDbEntity
  8
0
  6
CONTINUOUS
 62
               7
100
AcDbLine
 10
-7.5
 20
-2.75
 30
0.0
 11
7.5
 21
-2.75
 31
0.0
  0
LINE
  5
DA
100
AcDbEntity
  8
0
  6
CONTINUOUS
 62
               7
100
AcDbLine
 10
-12.5
 20
17.5
 30
0.0
 11
-12.5
 21
-17.5
 31
0.0
  0
ARC
  5
DB
100
AcDbEntity
  8
0
  6
CONTINUOUS
 62
               7
100
AcDbCircle
 10
59.5
 20
-44.5
 30
0.0
 40
0.5
100
AcDbArc
 50
270.00001798608935
 51
359.99998201391094
  0
ARC
  5
DC
100
AcDbEntity
  8
0
  6
CONTINUOUS
 62
               7
100
AcDbCircle
 10
10.5
 20
-44.5
 30
0.0
 40
0.5
100
AcDbArc
 50
180.00003597217869
 51
270.00001798608935
  0
ARC
  5
DD
100
AcDbEntity
  8
0
  6
CONTINUOUS
 62
               7
100
AcDbCircle
 10
10.5
 20
44.5
 30
0.0
 40
0.5
100
AcDbArc
 50
89.999982013910653
 51
180.00001866933468
  0
ARC
  5
DE
100
AcDbEntity
  8
0
  6
CONTINUOUS
 62
               7
100
AcDbCircle
 10
59.5
 20
44.5
 30
0.0
 40
0.5
100
AcDbArc
 50
359.99998201391094
 51
90.000036655424012
  0
LINE
  5
DF
100
AcDbEntity
  8
0
  6
CONTINUOUS
 62
               7
100
AcDbLine
 10
13.0
 20
44.0
 30
0.0
 11
13.0
 21
-44.0
 31
0.0
  0
LINE
  5
E0
100
AcDbEntity
  8
0
  6
CONTINUOUS
 62
               7
100
AcDbLine
 10
59.0
 20
44.0
 30
0.0
 11
59.0
 21
-44.0
 31
0.0
  0
LINE
  5
E1
100
AcDbEntity
  8
0
  6
CONTINUOUS
 62
               7
100
AcDbLine
 10
13.0
 20
-44.0
 30
0.0
 11
59.0
 21
-44.0
 31
0.0
  0
LINE
  5
E2
100
AcDbEntity
  8
0
  6
CONTINUOUS
 62
               7
100
AcDbLine
 10
13.0
 20
44.0
 30
0.0
 11
59.0
 21
44.0
 31
0.0
  0
LINE
  5
E3
100
AcDbEntity
  8
0
  6
CONTINUOUS
 62
               7
100
AcDbLine
 10
10.0
 20
44.5
 30
0.0
 11
10.0
 21
-44.5
 31
0.0
  0
LINE
  5
E4
100
AcDbEntity
  8
0
  6
CONTINUOUS
 62
               7
100
AcDbLine
 10
10.5
 20
45.0
 30
0.0
 11
59.5
 21
45.0
 31
0.0
  0
LINE
  5
E5
100
AcDbEntity
  8
0
  6
CONTINUOUS
 62
               7
100
AcDbLine
 10
10.5
 20
-45.0
 30
0.0
 11
59.5
 21
-45.0
 31
0.0
  0
LINE
  5
E6
100
AcDbEntity
  8
0
  6
CONTINUOUS
 62
               7
100
AcDbLine
 10
60.0
 20
44.5
 30
0.0
 11
60.0
 21
-44.5
 31
0.0
  0
LINE
  5
E7
100
AcDbEntity
  8
0
  6
CONTINUOUS
 62
               7
100
AcDbLine
 10
60.0
 20
-12.5
 30
0.0
 11
70.0
 21
-12.5
 31
0.0
  0
LINE
  5
E8
100
AcDbEntity
  8
0
  6
CONTINUOUS
 62
               7
100
AcDbLine
 10
60.0
 20
-17.5
 30
0.0
 11
70.0
 21
-17.5
 31
0.0
  0
ELLIPSE
  5
E9
100
AcDbEntity
  8
0
  6
CONTINUOUS
 62
               7
100
AcDbEllipse
 10
103.32501220703125
 20
9.9349212646484375
 30
0.0
 11
-0.0000000000000001
 21
-0.6349999904632568
 31
0.0
210
0.0
220
0.0
230
1.0
 40
0.700787400835704
 41
0.0000003139165088
 42
3.1415929675063019
  0
LINE
  5
EA
100
AcDbEntity
  8
0
  6
CONTINUOUS
 62
               7
100
AcDbLine
 10
102.97000122070312
 20
9.2999267578125
 30
0.0
 11
103.32501220703125
 21
9.2999267578125
 31
0.0
  0
ELLIPSE
  5
EB
100
AcDbEntity
  8
0
  6
CONTINUOUS
 62
               7
100
AcDbEllipse
 10
103.32501220703125
 20
11.204925537109375
 30
0.0
 11
-0.0000000000000001
 21
-0.6349999904632568
 31
0.0
210
0.0
220
0.0
230
1.0
 40
0.700787400835704
 41
0.0000003139165088
 42
3.1415929675063019
  0
LINE
  5
EC
100
AcDbEntity
  8
0
  6
CONTINUOUS
 62
               7
100
AcDbLine
 10
102.97000122070312
 20
10.569931030273437
 30
0.0
 11
103.32501220703125
 21
10.569931030273437
 31
0.0
  0
ELLIPSE
  5
ED
100
AcDbEntity
  8
0
  6
CONTINUOUS
 62
               7
100
AcDbEllipse
 10
103.32501220703125
 20
12.474929809570313
 30
0.0
 11
-0.0000000000000001
 21
-0.6349999904632568
 31
0.0
210
0.0
220
0.0
230
1.0
 40
0.700787400835704
 41
0.0000003139165088
 42
3.1415929675063019
  0
LINE
  5
EE
100
AcDbEntity
  8
0
  6
CONTINUOUS
 62
               7
100
AcDbLine
 10
102.97000122070312
 20
11.839935302734375
 30
0.0
 11
103.32501220703125
 21
11.839935302734375
 31
0.0
  0
ELLIPSE
  5
EF
100
AcDbEntity
  8
0
  6
CONTINUOUS
 62
               7
100
AcDbEllipse
 10
103.32501220703125
 20
13.74493408203125
 30
0.0
 11
-0.0000000000000001
 21
-0.6349999904632568
 31
0.0
210
0.0
220
0.0
230
1.0
 40
0.700787400835704
 41
0.0000003139165088
 42
3.1415929675063019
  0
LINE
  5
F0
100
AcDbEntity
  8
0
  6
CONTINUOUS
 62
               7
100
AcDbLine
 10
102.97000122070312
 20
13.109939575195313
 30
0.0
 11
103.32501220703125
 21
13.109939575195313
 31
0.0
  0
ELLIPSE
  5
F1
100
AcDbEntity
  8
0
  6
CONTINUOUS
 62
               7
100
AcDbEllipse
 10
103.32501220703125
 20
15.014938354492187
 30
0.0
 11
-0.0000000000000001
 21
-0.6349999904632568
 31
0.0
210
0.0
220
0.0
230
1.0
 40
0.700787400835704
 41
0.0000003139165088
 42
3.1415929675063019
  0
LINE
  5
F2
100
AcDbEntity
  8
0
  6
CONTINUOUS
 62
               7
100
AcDbLine
 10
102.97000122070312
 20
14.37994384765625
 30
0.0
 11
103.32501220703125
 21
14.37994384765625
 31
0.0
  0
ELLIPSE
  5
F3
100
AcDbEntity
  8
0
  6
CONTINUOUS
 62
               7
100
AcDbEllipse
 10
103.32501220703125
 20
16.284942626953125
 30
0.0
 11
-0.0000000000000001
 21
-0.6349999904632568
 31
0.0
210
0.0
220
0.0
230
1.0
 40
0.700787400835704
 41
0.0000003139165088
 42
3.1415929675063019
  0
LINE
  5
F4
100
AcDbEntity
  8
0
  6
CONTINUOUS
 62
               7
100
AcDbLine
 10
102.97000122070312
 20
15.649948120117188
 30
0.0
 11
103.32501220703125
 21
15.649948120117188
 31
0.0
  0
ELLIPSE
  5
F5
100
AcDbEntity
  8
0
  6
CONTINUOUS
 62
               7
100
AcDbEllipse
 10
103.32501220703125
 20
17.554946899414063
 30
0.0
 11
-0.0000000000000001
 21
-0.6349999904632568
 31
0.0
210
0.0
220
0.0
230
1.0
 40
0.700787400835704
 41
0.0000003139165088
 42
3.1415929675063019
  0
LINE
  5
F6
100
AcDbEntity
  8
0
  6
CONTINUOUS
 62
               7
100
AcDbLine
 10
102.97000122070312
 20
16.919952392578125
 30
0.0
 11
103.32501220703125
 21
16.919952392578125
 31
0.0
  0
ELLIPSE
  5
F7
100
AcDbEntity
  8
0
  6
CONTINUOUS
 62
               7
100
AcDbEllipse
 10
103.32501220703125
 20
18.824951171875
 30
0.0
 11
-0.0000000000000001
 21
-0.6349999904632568
 31
0.0
210
0.0
220
0.0
230
1.0
 40
0.700787400835704
 41
0.0000003139165088
 42
3.1415929675063019
  0
LINE
  5
F8
100
AcDbEntity
  8
0
  6
CONTINUOUS
 62
               7
100
AcDbLine
 10
102.97000122070312
 20
18.189956665039062
 30
0.0
 11
103.32501220703125
 21
18.189956665039062
 31
0.0
  0
ELLIPSE
  5
F9
100
AcDbEntity
  8
0
  6
CONTINUOUS
 62
               7
100
AcDbEllipse
 10
103.32501220703125
 20
20.094955444335938
 30
0.0
 11
-0.0000000000000001
 21
-0.6349999904632568
 31
0.0
210
0.0
220
0.0
230
1.0
 40
0.700787400835704
 41
0.0000003139165088
 42
3.1415929675063019
  0
LINE
  5
FA
100
AcDbEntity
  8
0
  6
CONTINUOUS
 62
               7
100
AcDbLine
 10
102.97000122070312
 20
19.4599609375
 30
0.0
 11
103.32501220703125
 21
19.4599609375
 31
0.0
  0
ELLIPSE
  5
FB
100
AcDbEntity
  8
0
  6
CONTINUOUS
 62
               7
100
AcDbEllipse
 10
103.32501220703125
 20
21.364959716796875
 30
0.0
 11
-0.0000000000000001
 21
-0.6349999904632568
 31
0.0
210
0.0
220
0.0
230
1.0
 40
0.700787400835704
 41
0.0000003139165088
 42
3.1415929675063019
  0
LINE
  5
FC
100
AcDbEntity
  8
0
  6
CONTINUOUS
 62
               7
100
AcDbLine
 10
102.97000122070312
 20
20.729965209960938
 30
0.0
 11
103.32501220703125
 21
20.729965209960938
 31
0.0
  0
ELLIPSE
  5
FD
100
AcDbEntity
  8
0
  6
CONTINUOUS
 62
               7
100
AcDbEllipse
 10
103.32501220703125
 20
22.634963989257813
 30
0.0
 11
-0.0000000000000001
 21
-0.6349999904632568
 31
0.0
210
0.0
220
0.0
230
1.0
 40
0.700787400835704
 41
0.0000003139165088
 42
3.1415929675063019
  0
LINE
  5
FE
100
AcDbEntity
  8
0
  6
CONTINUOUS
 62
               7
100
AcDbLine
 10
102.97000122070312
 20
21.999969482421875
 30
0.0
 11
103.32501220703125
 21
21.999969482421875
 31
0.0
  0
ELLIPSE
  5
FF
100
AcDbEntity
  8
0
  6
CONTINUOUS
 62
               7
100
AcDbEllipse
 10
103.32501220703125
 20
23.90496826171875
 30
0.0
 11
-0.0000000000000001
 21
-0.6349999904632568
 31
0.0
210
0.0
220
0.0
230
1.0
 40
0.700787400835704
 41
0.0000003139165088
 42
3.1415929675063019
  0
LINE
  5
100
100
AcDbEntity
  8
0
  6
CONTINUOUS
 62
               7
100
AcDbLine
 10
102.97000122070312
 20
23.269973754882813
 30
0.0
 11
103.32501220703125
 21
23.269973754882813
 31
0.0
  0
ELLIPSE
  5
101
100
AcDbEntity
  8
0
  6
CONTINUOUS
 62
               7
100
AcDbEllipse
 10
103.32501220703125
 20
25.174972534179688
 30
0.0
 11
-0.0000000000000001
 21
-0.6349999904632568
 31
0.0
210
0.0
220
0.0
230
1.0
 40
0.700787400835704
 41
0.0000003139165088
 42
3.1415929675063019
  0
LINE
  5
102
100
AcDbEntity
  8
0
  6
CONTINUOUS
 62
               7
100
AcDbLine
 10
102.97000122070312
 20
24.53997802734375
 30
0.0
 11
103.32501220703125
 21
24.53997802734375
 31
0.0
  0
ELLIPSE
  5
103
100
AcDbEntity
  8
0
  6
CONTINUOUS
 62
               7
100
AcDbEllipse
 10
103.32501220703125
 20
26.444976806640625
 30
0.0
 11
-0.0000000000000001
 21
-0.6349999904632568
 31
0.0
210
0.0
220
0.0
230
1.0
 40
0.700787400835704
 41
0.0000003139165088
 42
3.1415929675063019
  0
LINE
  5
104
100
AcDbEntity
  8
0
  6
CONTINUOUS
 62
               7
100
AcDbLine
 10
102.97000122070312
 20
25.809982299804688
 30
0.0
 11
103.32501220703125
 21
25.809982299804688
 31
0.0
  0
ELLIPSE
  5
105
100
AcDbEntity
  8
0
  6
CONTINUOUS
 62
               7
100
AcDbEllipse
 10
103.32501220703125
 20
27.714981079101563
 30
0.0
 11
-0.0000000000000001
 21
-0.6349999904632568
 31
0.0
210
0.0
220
0.0
230
1.0
 40
0.700787400835704
 41
0.0000003139165088
 42
3.1415929675063019
  0
LINE
  5
106
100
AcDbEntity
  8
0
  6
CONTINUOUS
 62
               7
100
AcDbLine
 10
102.97000122070312
 20
27.079986572265625
 30
0.0
 11
103.32501220703125
 21
27.079986572265625
 31
0.0
  0
ELLIPSE
  5
107
100
AcDbEntity
  8
0
  6
CONTINUOUS
 62
               7
100
AcDbEllipse
 10
103.32501220703125
 20
28.9849853515625
 30
0.0
 11
-0.0000000000000001
 21
-0.6349999904632568
 31
0.0
210
0.0
220
0.0
230
1.0
 40
0.700787400835704
 41
0.0000003139165088
 42
3.1415929675063019
  0
LINE
  5
108
100
AcDbEntity
  8
0
  6
CONTINUOUS
 62
               7
100
AcDbLine
 10
102.97000122070312
 20
28.349990844726563
 30
0.0
 11
103.32501220703125
 21
28.349990844726563
 31
0.0
  0
ELLIPSE
  5
109
100
AcDbEntity
  8
0
  6
CONTINUOUS
 62
               7
100
AcDbEllipse
 10
103.32501220703125
 20
30.254989624023437
 30
0.0
 11
-0.0000000000000001
 21
-0.6349999904632568
 31
0.0
210
0.0
220
0.0
230
1.0
 40
0.700787400835704
 41
0.0000003139165088
 42
3.1415929675063019
  0
LINE
  5
10A
100
AcDbEntity
  8
0
  6
CONTINUOUS
 62
               7
100
AcDbLine
 10
102.97000122070312
 20
29.6199951171875
 30
0.0
 11
103.32501220703125
 21
29.6199951171875
 31
0.0
  0
ELLIPSE
  5
10B
100
AcDbEntity
  8
0
  6
CONTINUOUS
 62
               7
100
AcDbEllipse
 10
103.32501220703125
 20
31.524993896484375
 30
0.0
 11
-0.0000000000000001
 21
-0.6349999904632568
 31
0.0
210
0.0
220
0.0
230
1.0
 40
0.700787400835704
 41
0.0000003139165088
 42
3.1415929675063019
  0
LINE
  5
10C
100
AcDbEntity
  8
0
  6
CONTINUOUS
 62
               7
100
AcDbLine
 10
102.97000122070312
 20
30.889999389648437
 30
0.0
 11
103.32501220703125
 21
30.889999389648437
 31
0.0
  0
ELLIPSE
  5
10D
100
AcDbEntity
  8
0
  6
CONTINUOUS
 62
               7
100
AcDbEllipse
 10
103.32501220703125
 20
32.794998168945313
 30
0.0
 11
-0.0000000000000001
 21
-0.6349999904632568
 31
0.0
210
0.0
220
0.0
230
1.0
 40
0.700787400835704
 41
0.0000003139165088
 42
3.1415929675063019
  0
LINE
  5
10E
100
AcDbEntity
  8
0
  6
CONTINUOUS
 62
               7
100
AcDbLine
 10
102.97000122070312
 20
32.160003662109375
 30
0.0
 11
103.32501220703125
 21
32.160003662109375
 31
0.0
  0
ELLIPSE
  5
10F
100
AcDbEntity
  8
0
  6
CONTINUOUS
 62
               7
100
AcDbEllipse
 10
103.32501220703125
 20
34.06500244140625
 30
0.0
 11
-0.0000000000000001
 21
-0.6349999904632568
 31
0.0
210
0.0
220
0.0
230
1.0
 40
0.700787400835704
 41
0.0000003139165088
 42
3.1415929675063019
  0
LINE
  5
110
100
AcDbEntity
  8
0
  6
CONTINUOUS
 62
               7
100
AcDbLine
 10
102.97000122070312
 20
33.430007934570312
 30
0.0
 11
103.32501220703125
 21
33.430007934570312
 31
0.0
  0
LINE
  5
111
100
AcDbEntity
  8
0
  6
CONTINUOUS
 62
               7
100
AcDbLine
 10
102.97000122070312
 20
34.699996948242188
 30
0.0
 11
103.32501220703125
 21
34.699996948242188
 31
0.0
  0
ARC
  5
112
100
AcDbEntity
  8
0
  6
CONTINUOUS
 62
               7
100
AcDbCircle
 10
96.970001220703125
 20
10.050003051757812
 30
0.0
 40
1.0
100
AcDbArc
 50
329.99999916517396
 51
0.0
  0
ARC
  5
113
100
AcDbEntity
  8
0
  6
CONTINUOUS
 62
               7
100
AcDbCircle
 10
96.970001220703125
 20
33.949996948242187
 30
0.0
 40
1.0
100
AcDbArc
 50
38.739535236370024
 51
89.999982013910653
  0
LINE
  5
114
100
AcDbEntity
  8
0
  6
CONTINUOUS
 62
               7
100
AcDbLine
 10
101.75
 20
36.449996948242188
 30
0.0
 11
102.97000122070312
 21
36.449996948242188
 31
0.0
  0
LINE
  5
115
100
AcDbEntity
  8
0
  6
CONTINUOUS
 62
               7
100
AcDbLine
 10
101.75
 20
36.949996948242188
 30
0.0
 11
102.97000122070312
 21
36.949996948242188
 31
0.0
  0
LINE
  5
116
100
AcDbEntity
  8
0
  6
CONTINUOUS
 62
               7
100
AcDbLine
 10
96.970001220703125
 20
7.5500030517578125
 30
0.0
 11
97.75
 21
7.5500030517578125
 31
0.0
  0
LINE
  5
117
100
AcDbEntity
  8
0
  6
CONTINUOUS
 62
               7
100
AcDbLine
 10
101.75
 20
7.5500030517578125
 30
0.0
 11
102.97000122070312
 21
7.5500030517578125
 31
0.0
  0
LINE
  5
118
100
AcDbEntity
  8
0
  6
CONTINUOUS
 62
               7
100
AcDbLine
 10
101.75
 20
7.0500030517578125
 30
0.0
 11
102.97000122070312
 21
7.0500030517578125
 31
0.0
  0
LINE
  5
119
100
AcDbEntity
  8
0
  6
CONTINUOUS
 62
               7
100
AcDbLine
 10
96.970001220703125
 20
36.449996948242188
 30
0.0
 11
97.75
 21
36.449996948242188
 31
0.0
  0
ARC
  5
11A
100
AcDbEntity
  8
0
  6
CONTINUOUS
 62
               7
100
AcDbCircle
 10
96.970001220703125
 20
10.050003051757812
 30
0.0
 40
1.0
100
AcDbArc
 50
270.00001798608935
 51
321.26046476362995
  0
ARC
  5
11B
100
AcDbEntity
  8
0
  6
CONTINUOUS
 62
               7
100
AcDbCircle
 10
96.970001220703125
 20
33.949996948242187
 30
0.0
 40
1.0
100
AcDbArc
 50
0.0
 51
30.000000834826057
  0
LINE
  5
11C
100
AcDbEntity
  8
0
  6
CONTINUOUS
 62
               7
100
AcDbLine
 10
103.97000122070312
 20
23.699996948242188
 30
0.0
 11
103.97000122070312
 21
20.300003051757813
 31
0.0
  0
LINE
  5
11D
100
AcDbEntity
  8
0
  6
CONTINUOUS
 62
               7
100
AcDbLine
 10
103.74618530273437
 20
23.699996948242188
 30
0.0
 11
103.97000122070312
 21
23.699996948242188
 31
0.0
  0
LINE
  5
11E
100
AcDbEntity
  8
0
  6
CONTINUOUS
 62
               7
100
AcDbLine
 10
103.74617004394531
 20
20.300003051757813
 30
0.0
 11
103.97000122070312
 21
20.300003051757813
 31
0.0
  0
LINE
  5
11F
100
AcDbEntity
  8
0
  6
CONTINUOUS
 62
               7
100
AcDbLine
 10
97.970001220703125
 20
34.449996948242188
 30
0.0
 11
97.970001220703125
 21
9.5500030517578125
 31
0.0
  0
LINE
  5
120
100
AcDbEntity
  8
0
  6
CONTINUOUS
 62
               7
100
AcDbLine
 10
102.97000122070312
 20
36.949996948242188
 30
0.0
 11
102.97000122070312
 21
7.0500030517578125
 31
0.0
  0
LINE
  5
121
100
AcDbEntity
  8
0
  6
CONTINUOUS
 62
               7
100
AcDbLine
 10
96.970001220703125
 20
36.949996948242188
 30
0.0
 11
96.970001220703125
 21
34.700042724609375
 31
0.0
  0
LINE
  5
122
100
AcDbEntity
  8
0
  6
CONTINUOUS
 62
               7
100
AcDbLine
 10
96.970001220703125
 20
36.949996948242188
 30
0.0
 11
97.75
 21
36.949996948242188
 31
0.0
  0
LINE
  5
123
100
AcDbEntity
  8
0
  6
CONTINUOUS
 62
               7
100
AcDbLine
 10
96.970001220703125
 20
7.0500030517578125
 30
0.0
 11
97.75
 21
7.0500030517578125
 31
0.0
  0
LINE
  5
124
100
AcDbEntity
  8
0
  6
CONTINUOUS
 62
               7
100
AcDbLine
 10
89.970001220703125
 20
22.0
 30
0.0
 11
97.970001220703125
 21
22.0
 31
0.0
  0
LINE
  5
125
100
AcDbEntity
  8
0
  6
CONTINUOUS
 62
               7
100
AcDbLine
 10
-12.5
 20
17.5
 30
0.0
 11
5.3000030517578125
 21
17.5
 31
0.0
  0
LINE
  5
126
100
AcDbEntity
  8
0
  6
CONTINUOUS
 62
               7
100
AcDbLine
 10
-12.5
 20
-17.5
 30
0.0
 11
5.3000030517578125
 21
-17.5
 31
0.0
  0
LINE
  5
127
100
AcDbEntity
  8
0
  6
CONTINUOUS
 62
               7
100
AcDbLine
 10
-12.5
 20
-12.5
 30
0.0
 11
5.3000030517578125
 21
-12.5
 31
0.0
  0
LINE
  5
128
100
AcDbEntity
  8
0
  6
CONTINUOUS
 62
               7
100
AcDbLine
 10
-12.5
 20
12.5
 30
0.0
 11
5.3000030517578125
 21
12.5
 31
0.0
  0
CIRCLE
  5
129
100
AcDbEntity
  8
0
  6
CONTINUOUS
 62
               7
100
AcDbCircle
 10
104.0
 20
-23.800003051757813
 30
0.0
 40
2.7999992370605469
  0
CIRCLE
  5
12A
100
AcDbEntity
  8
0
  6
CONTINUOUS
 62
               7
100
AcDbCircle
 10
95.0
 20
-23.800003051757813
 30
0.0
 40
2.7999992370605469
  0
CIRCLE
  5
12B
100
AcDbEntity
  8
0
  6
CONTINUOUS
 62
               7
100
AcDbCircle
 10
105.0
 20
-14.0
 30
0.0
 40
1.5
  0
CIRCLE
  5
12C
100
AcDbEntity
  8
0
  6
CONTINUOUS
 62
               7
100
AcDbCircle
 10
105.0
 20
-14.0
 30
0.0
 40
1.5999994277954102
  0
CIRCLE
  5
12D
100
AcDbEntity
  8
0
  6
CONTINUOUS
 62
               7
100
AcDbCircle
 10
99.5
 20
57.0
 30
0.0
 40
2.7999992370605469
  0
CIRCLE
  5
12E
100
AcDbEntity
  8
0
  6
CONTINUOUS
 62
               7
100
AcDbCircle
 10
99.5
 20
57.0
 30
0.0
 40
3.1999998092651367
  0
LINE
  5
12F
100
AcDbEntity
  8
0
  6
CONTINUOUS
 62
               7
100
AcDbLine
 10
95.0
 20
-0.70001220703125
 30
0.0
 11
104.0
 21
-0.70001220703125
 31
0.0
  0
LINE
  5
130
100
AcDbEntity
  8
0
  6
CONTINUOUS
 62
               7
100
AcDbLine
 10
95.0
 20
44.699996948242188
 30
0.0
 11
104.0
 21
44.699996948242188
 31
0.0
  0
LINE
  5
131
100
AcDbEntity
  8
0
  6
CONTINUOUS
 62
               7
100
AcDbLine
 10
97.75
 20
5.9499969482421875
 30
0.0
 11
101.75
 21
5.9499969482421875
 31
0.0
  0
LINE
  5
132
100
AcDbEntity
  8
0
  6
CONTINUOUS
 62
               7
100
AcDbLine
 10
97.75
 20
5.649993896484375
 30
0.0
 11
101.75
 21
5.649993896484375
 31
0.0
  0
LINE
  5
133
100
AcDbEntity
  8
0
  6
CONTINUOUS
 62
               7
100
AcDbLine
 10
97.75
 20
5.3499908447265625
 30
0.0
 11
101.75
 21
5.3499908447265625
 31
0.0
  0
LINE
  5
134
100
AcDbEntity
  8
0
  6
CONTINUOUS
 62
               7
100
AcDbLine
 10
97.75
 20
5.0500030517578125
 30
0.0
 11
101.75
 21
5.0500030517578125
 31
0.0
  0
LINE
  5
135
100
AcDbEntity
  8
0
  6
CONTINUOUS
 62
               7
100
AcDbLine
 10
97.75
 20
4.75
 30
0.0
 11
101.75
 21
4.75
 31
0.0
  0
LINE
  5
136
100
AcDbEntity
  8
0
  6
CONTINUOUS
 62
               7
100
AcDbLine
 10
97.75
 20
4.4499969482421875
 30
0.0
 11
101.75
 21
4.4499969482421875
 31
0.0
  0
LINE
  5
137
100
AcDbEntity
  8
0
  6
CONTINUOUS
 62
               7
100
AcDbLine
 10
97.75
 20
4.149993896484375
 30
0.0
 11
101.75
 21
4.149993896484375
 31
0.0
  0
LINE
  5
138
100
AcDbEntity
  8
0
  6
CONTINUOUS
 62
               7
100
AcDbLine
 10
97.75
 20
38.050003051757813
 30
0.0
 11
101.75
 21
38.050003051757813
 31
0.0
  0
LINE
  5
139
100
AcDbEntity
  8
0
  6
CONTINUOUS
 62
               7
100
AcDbLine
 10
97.75
 20
38.350006103515625
 30
0.0
 11
101.75
 21
38.350006103515625
 31
0.0
  0
LINE
  5
13A
100
AcDbEntity
  8
0
  6
CONTINUOUS
 62
               7
100
AcDbLine
 10
97.75
 20
38.649993896484375
 30
0.0
 11
101.75
 21
38.649993896484375
 31
0.0
  0
LINE
  5
13B
100
AcDbEntity
  8
0
  6
CONTINUOUS
 62
               7
100
AcDbLine
 10
97.75
 20
38.949996948242188
 30
0.0
 11
101.75
 21
38.949996948242188
 31
0.0
  0
LINE
  5
13C
100
AcDbEntity
  8
0
  6
CONTINUOUS
 62
               7
100
AcDbLine
 10
97.75
 20
39.25
 30
0.0
 11
101.75
 21
39.25
 31
0.0
  0
LINE
  5
13D
100
AcDbEntity
  8
0
  6
CONTINUOUS
 62
               7
100
AcDbLine
 10
97.75
 20
39.550003051757813
 30
0.0
 11
101.75
 21
39.550003051757813
 31
0.0
  0
LINE
  5
13E
100
AcDbEntity
  8
0
  6
CONTINUOUS
 62
               7
100
AcDbLine
 10
97.75
 20
39.850006103515625
 30
0.0
 11
101.75
 21
39.850006103515625
 31
0.0
  0
LINE
  5
13F
100
AcDbEntity
  8
0
  6
CONTINUOUS
 62
               7
100
AcDbLine
 10
97.75
 20
40.149993896484375
 30
0.0
 11
101.75
 21
40.149993896484375
 31
0.0
  0
LINE
  5
140
100
AcDbEntity
  8
0
  6
CONTINUOUS
 62
               7
100
AcDbLine
 10
97.75
 20
3.8499908447265625
 30
0.0
 11
101.75
 21
3.8499908447265625
 31
0.0
  0
LINE
  5
141
100
AcDbEntity
  8
0
  6
CONTINUOUS
 62
               7
100
AcDbLine
 10
97.75
 20
3.0500030517578125
 30
0.0
 11
101.75
 21
3.0500030517578125
 31
0.0
  0
LINE
  5
142
100
AcDbEntity
  8
0
  6
CONTINUOUS
 62
               7
100
AcDbLine
 10
97.75
 20
40.949996948242188
 30
0.0
 11
101.75
 21
40.949996948242188
 31
0.0
  0
LINE
  5
143
100
AcDbEntity
  8
0
  6
CONTINUOUS
 62
               7
100
AcDbLine
 10
97.75
 20
8.5500030517578125
 30
0.0
 11
101.75
 21
8.5500030517578125
 31
0.0
  0
LINE
  5
144
100
AcDbEntity
  8
0
  6
CONTINUOUS
 62
               7
100
AcDbLine
 10
97.75
 20
35.449996948242187
 30
0.0
 11
101.75
 21
35.449996948242187
 31
0.0
  0
LINE
  5
145
100
AcDbEntity
  8
0
  6
CONTINUOUS
 62
               7
100
AcDbLine
 10
103.0
 20
9.2999267578125
 30
0.0
 11
103.0
 21
6.5500030517578125
 31
0.0
  0
LINE
  5
146
100
AcDbEntity
  8
0
  6
CONTINUOUS
 62
               7
100
AcDbLine
 10
103.7650146484375
 20
20.0
 30
0.0
 11
104.0
 21
20.0
 31
0.0
  0
LINE
  5
147
100
AcDbEntity
  8
0
  6
CONTINUOUS
 62
               7
100
AcDbLine
 10
103.76499938964844
 20
24.0
 30
0.0
 11
104.0
 21
24.0
 31
0.0
  0
LINE
  5
148
100
AcDbEntity
  8
0
  6
CONTINUOUS
 62
               7
100
AcDbLine
 10
101.75
 20
41.199996948242188
 30
0.0
 11
104.0
 21
41.199996948242188
 31
0.0
  0
LINE
  5
149
100
AcDbEntity
  8
0
  6
CONTINUOUS
 62
               7
100
AcDbLine
 10
95.5
 20
41.199996948242188
 30
0.0
 11
97.75
 21
41.199996948242188
 31
0.0
  0
LINE
  5
14A
100
AcDbEntity
  8
0
  6
CONTINUOUS
 62
               7
100
AcDbLine
 10
101.75
 20
2.8000030517578125
 30
0.0
 11
104.0
 21
2.8000030517578125
 31
0.0
  0
LINE
  5
14B
100
AcDbEntity
  8
0
  6
CONTINUOUS
 62
               7
100
AcDbLine
 10
95.5
 20
2.8000030517578125
 30
0.0
 11
97.75
 21
2.8000030517578125
 31
0.0
  0
LINE
  5
14C
100
AcDbEntity
  8
0
  6
CONTINUOUS
 62
               7
100
AcDbLine
 10
101.75
 20
4.0500030517578125
 30
0.0
 11
104.0
 21
4.0500030517578125
 31
0.0
  0
LINE
  5
14D
100
AcDbEntity
  8
0
  6
CONTINUOUS
 62
               7
100
AcDbLine
 10
95.5
 20
4.0500030517578125
 30
0.0
 11
97.75
 21
4.0500030517578125
 31
0.0
  0
LINE
  5
14E
100
AcDbEntity
  8
0
  6
CONTINUOUS
 62
               7
100
AcDbLine
 10
101.75
 20
39.949996948242187
 30
0.0
 11
104.0
 21
39.949996948242187
 31
0.0
  0
LINE
  5
14F
100
AcDbEntity
  8
0
  6
CONTINUOUS
 62
               7
100
AcDbLine
 10
95.5
 20
39.949996948242187
 30
0.0
 11
97.75
 21
39.949996948242187
 31
0.0
  0
LINE
  5
150
100
AcDbEntity
  8
0
  6
CONTINUOUS
 62
               7
100
AcDbLine
 10
101.75
 20
44.449996948242188
 30
0.0
 11
101.75
 21
34.449996948242188
 31
0.0
  0
LINE
  5
151
100
AcDbEntity
  8
0
  6
CONTINUOUS
 62
               7
100
AcDbLine
 10
97.75
 20
44.449996948242188
 30
0.0
 11
97.75
 21
34.449996948242188
 31
0.0
  0
LINE
  5
152
100
AcDbEntity
  8
0
  6
CONTINUOUS
 62
               7
100
AcDbLine
 10
97.75
 20
9.5500030517578125
 30
0.0
 11
97.75
 21
-0.45001220703125
 31
0.0
  0
LINE
  5
153
100
AcDbEntity
  8
0
  6
CONTINUOUS
 62
               7
100
AcDbLine
 10
101.75
 20
9.5500030517578125
 30
0.0
 11
101.75
 21
-0.45001220703125
 31
0.0
  0
LINE
  5
154
100
AcDbEntity
  8
0
  6
CONTINUOUS
 62
               7
100
AcDbLine
 10
95.5
 20
5.5500030517578125
 30
0.0
 11
97.75
 21
5.5500030517578125
 31
0.0
  0
LINE
  5
155
100
AcDbEntity
  8
0
  6
CONTINUOUS
 62
               7
100
AcDbLine
 10
101.75
 20
5.5500030517578125
 30
0.0
 11
104.0
 21
5.5500030517578125
 31
0.0
  0
LINE
  5
156
100
AcDbEntity
  8
0
  6
CONTINUOUS
 62
               7
100
AcDbLine
 10
101.75
 20
38.449996948242188
 30
0.0
 11
104.0
 21
38.449996948242188
 31
0.0
  0
LINE
  5
157
100
AcDbEntity
  8
0
  6
CONTINUOUS
 62
               7
100
AcDbLine
 10
95.5
 20
38.449996948242188
 30
0.0
 11
97.75
 21
38.449996948242188
 31
0.0
  0
LINE
  5
158
100
AcDbEntity
  8
0
  6
CONTINUOUS
 62
               7
100
AcDbLine
 10
103.0
 20
37.449996948242187
 30
0.0
 11
103.0
 21
34.699996948242188
 31
0.0
  0
LINE
  5
159
100
AcDbEntity
  8
0
  6
CONTINUOUS
 62
               7
100
AcDbLine
 10
96.5
 20
37.449996948242187
 30
0.0
 11
96.5
 21
34.700042724609375
 31
0.0
  0
LINE
  5
15A
100
AcDbEntity
  8
0
  6
CONTINUOUS
 62
               7
100
AcDbLine
 10
101.75
 20
6.5500030517578125
 30
0.0
 11
104.0
 21
6.5500030517578125
 31
0.0
  0
LINE
  5
15B
100
AcDbEntity
  8
0
  6
CONTINUOUS
 62
               7
100
AcDbLine
 10
101.75
 20
37.449996948242187
 30
0.0
 11
104.0
 21
37.449996948242187
 31
0.0
  0
LINE
  5
15C
100
AcDbEntity
  8
0
  6
CONTINUOUS
 62
               7
100
AcDbLine
 10
97.75
 20
34.449996948242188
 30
0.0
 11
101.75
 21
34.449996948242188
 31
0.0
  0
LINE
  5
15D
100
AcDbEntity
  8
0
  6
CONTINUOUS
 62
               7
100
AcDbLine
 10
97.75
 20
9.5500030517578125
 30
0.0
 11
101.75
 21
9.5500030517578125
 31
0.0
  0
LINE
  5
15E
100
AcDbEntity
  8
0
  6
CONTINUOUS
 62
               7
100
AcDbLine
 10
95.5
 20
6.5500030517578125
 30
0.0
 11
97.75
 21
6.5500030517578125
 31
0.0
  0
LINE
  5
15F
100
AcDbEntity
  8
0
  6
CONTINUOUS
 62
               7
100
AcDbLine
 10
95.5
 20
37.449996948242187
 30
0.0
 11
97.75
 21
37.449996948242187
 31
0.0
  0
LINE
  5
160
100
AcDbEntity
  8
0
  6
CONTINUOUS
 62
               7
100
AcDbLine
 10
97.75
 20
0.54998779296875
 30
0.0
 11
101.75
 21
0.54998779296875
 31
0.0
  0
LINE
  5
161
100
AcDbEntity
  8
0
  6
CONTINUOUS
 62
               7
100
AcDbLine
 10
97.75
 20
43.449996948242188
 30
0.0
 11
101.75
 21
43.449996948242188
 31
0.0
  0
LINE
  5
162
100
AcDbEntity
  8
0
  6
CONTINUOUS
 62
               7
100
AcDbLine
 10
95.5
 20
44.449996948242188
 30
0.0
 11
95.5
 21
34.700042724609375
 31
0.0
  0
LINE
  5
163
100
AcDbEntity
  8
0
  6
CONTINUOUS
 62
               7
100
AcDbLine
 10
95.5
 20
44.449996948242188
 30
0.0
 11
104.0
 21
44.449996948242188
 31
0.0
  0
LINE
  5
164
100
AcDbEntity
  8
0
  6
CONTINUOUS
 62
               7
100
AcDbLine
 10
95.5
 20
-0.45001220703125
 30
0.0
 11
104.0
 21
-0.45001220703125
 31
0.0
  0
LINE
  5
165
100
AcDbEntity
  8
0
  6
CONTINUOUS
 62
               7
100
AcDbLine
 10
95.0
 20
44.699996948242188
 30
0.0
 11
95.0
 21
34.700042724609375
 31
0.0
  0
LINE
  5
166
100
AcDbEntity
  8
0
  6
CONTINUOUS
 62
               7
100
AcDbLine
 10
104.0
 20
44.699996948242188
 30
0.0
 11
104.0
 21
-0.70001220703125
 31
0.0
  0
LINE
  5
167
100
AcDbEntity
  8
0
  6
CONTINUOUS
 62
               7
100
AcDbLine
 10
102.93935900489851
 20
-22.739330068127856
 30
0.0
 11
105.0606793121533
 21
-24.860650554196582
 31
0.0
  0
LINE
  5
168
100
AcDbEntity
  8
0
  6
CONTINUOUS
 62
               7
100
AcDbLine
 10
102.9393481258976
 20
-24.860661254382649
 30
0.0
 11
105.06066861196632
 21
-22.739340947127857
 31
0.0
  0
LINE
  5
169
100
AcDbEntity
  8
0
  6
CONTINUOUS
 62
               7
100
AcDbLine
 10
93.939349071270954
 20
-22.73932968880581
 30
0.0
 11
96.060669378525745
 21
-24.860650174874536
 31
0.0
  0
LINE
  5
16A
100
AcDbEntity
  8
0
  6
CONTINUOUS
 62
               7
100
AcDbLine
 10
93.939359771457021
 20
-24.860660875061512
 30
0.0
 11
96.060680257525746
 21
-22.739340567806721
 31
0.0
  0
LINE
  5
16B
100
AcDbEntity
  8
0
  6
CONTINUOUS
 62
               7
100
AcDbLine
 10
107.69999694824219
 20
51.199996948242188
 30
0.0
 11
107.69999694824219
 21
-7.20001220703125
 31
0.0
  0
LINE
  5
16C
100
AcDbEntity
  8
0
  6
CONTINUOUS
 62
               7
100
AcDbLine
 10
91.300003051757813
 20
51.199996948242188
 30
0.0
 11
91.300003051757813
 21
34.700042724609375
 31
0.0
  0
LINE
  5
16D
100
AcDbEntity
  8
0
  6
CONTINUOUS
 62
               7
100
AcDbLine
 10
91.300003051757813
 20
51.199996948242188
 30
0.0
 11
107.69999694824219
 21
51.199996948242188
 31
0.0
  0
LINE
  5
16E
100
AcDbEntity
  8
0
  6
CONTINUOUS
 62
               7
100
AcDbLine
 10
91.300003051757813
 20
-7.20001220703125
 30
0.0
 11
107.69999694824219
 21
-7.20001220703125
 31
0.0
  0
LINE
  5
16F
100
AcDbEntity
  8
0
  6
CONTINUOUS
 62
               7
100
AcDbLine
 10
91.0
 20
51.5
 30
0.0
 11
91.0
 21
34.700042724609375
 31
0.0
  0
LINE
  5
170
100
AcDbEntity
  8
0
  6
CONTINUOUS
 62
               7
100
AcDbLine
 10
108.0
 20
51.5
 30
0.0
 11
108.0
 21
-7.5
 31
0.0
  0
LINE
  5
171
100
AcDbEntity
  8
0
  6
CONTINUOUS
 62
               7
100
AcDbLine
 10
91.0
 20
51.5
 30
0.0
 11
108.0
 21
51.5
 31
0.0
  0
LINE
  5
172
100
AcDbEntity
  8
0
  6
CONTINUOUS
 62
               7
100
AcDbLine
 10
91.0
 20
-7.5
 30
0.0
 11
108.0
 21
-7.5
 31
0.0
  0
LINE
  5
173
100
AcDbEntity
  8
0
  6
CONTINUOUS
 62
               7
100
AcDbLine
 10
90.599990844726563
 20
-30.75
 30
0.0
 11
108.39999389648437
 21
-30.75
 31
0.0
  0
LINE
  5
174
100
AcDbEntity
  8
0
  6
CONTINUOUS
 62
               7
100
AcDbLine
 10
90.599990844726563
 20
-9.75
 30
0.0
 11
108.39999389648437
 21
-9.75
 31
0.0
  0
LINE
  5
175
100
AcDbEntity
  8
0
  6
CONTINUOUS
 62
               7
100
AcDbLine
 10
108.39999389648437
 20
-9.75
 30
0.0
 11
108.39999389648437
 21
-30.75
 31
0.0
  0
LINE
  5
176
100
AcDbEntity
  8
0
  6
CONTINUOUS
 62
               7
100
AcDbLine
 10
90.599990844726563
 20
-9.75
 30
0.0
 11
90.599990844726563
 21
-30.75
 31
0.0
  0
LINE
  5
177
100
AcDbEntity
  8
0
  6
CONTINUOUS
 62
               7
100
AcDbLine
 10
100.75
 20
-17.0
 30
0.0
 11
101.5
 21
-17.0
 31
0.0
  0
LINE
  5
178
100
AcDbEntity
  8
0
  6
CONTINUOUS
 62
               7
100
AcDbLine
 10
100.75
 20
-16.5
 30
0.0
 11
101.5
 21
-16.5
 31
0.0
  0
LINE
  5
179
100
AcDbEntity
  8
0
  6
CONTINUOUS
 62
               7
100
AcDbLine
 10
100.75
 20
-17.0
 30
0.0
 11
100.75
 21
-17.75
 31
0.0
  0
LINE
  5
17A
100
AcDbEntity
  8
0
  6
CONTINUOUS
 62
               7
100
AcDbLine
 10
100.25
 20
-17.0
 30
0.0
 11
100.25
 21
-17.75
 31
0.0
  0
LINE
  5
17B
100
AcDbEntity
  8
0
  6
CONTINUOUS
 62
               7
100
AcDbLine
 10
100.25
 20
-15.75
 30
0.0
 11
100.75
 21
-15.75
 31
0.0
  0
LINE
  5
17C
100
AcDbEntity
  8
0
  6
CONTINUOUS
 62
               7
100
AcDbLine
 10
100.25
 20
-17.75
 30
0.0
 11
100.75
 21
-17.75
 31
0.0
  0
LINE
  5
17D
100
AcDbEntity
  8
0
  6
CONTINUOUS
 62
               7
100
AcDbLine
 10
101.5
 20
-16.5
 30
0.0
 11
101.5
 21
-17.0
 31
0.0
  0
LINE
  5
17E
100
AcDbEntity
  8
0
  6
CONTINUOUS
 62
               7
100
AcDbLine
 10
92.0
 20
-16.5
 30
0.0
 11
92.0
 21
-17.0
 31
0.0
  0
LINE
  5
17F
100
AcDbEntity
  8
0
  6
CONTINUOUS
 62
               7
100
AcDbLine
 10
94.0
 20
-16.5
 30
0.0
 11
94.0
 21
-17.0
 31
0.0
  0
LINE
  5
180
100
AcDbEntity
  8
0
  6
CONTINUOUS
 62
               7
100
AcDbLine
 10
92.0
 20
-17.0
 30
0.0
 11
94.0
 21
-17.0
 31
0.0
  0
LINE
  5
181
100
AcDbEntity
  8
0
  6
CONTINUOUS
 62
               7
100
AcDbLine
 10
92.0
 20
-16.5
 30
0.0
 11
94.0
 21
-16.5
 31
0.0
  0
LINE
  5
182
100
AcDbEntity
  8
0
  6
CONTINUOUS
 62
               7
100
AcDbLine
 10
100.25
 20
-15.75
 30
0.0
 11
100.25
 21
-16.5
 31
0.0
  0
LINE
  5
183
100
AcDbEntity
  8
0
  6
CONTINUOUS
 62
               7
100
AcDbLine
 10
100.75
 20
-15.75
 30
0.0
 11
100.75
 21
-16.5
 31
0.0
  0
LINE
  5
184
100
AcDbEntity
  8
0
  6
CONTINUOUS
 62
               7
100
AcDbLine
 10
99.5
 20
-16.5
 30
0.0
 11
100.25
 21
-16.5
 31
0.0
  0
LINE
  5
185
100
AcDbEntity
  8
0
  6
CONTINUOUS
 62
               7
100
AcDbLine
 10
99.5
 20
-17.0
 30
0.0
 11
100.25
 21
-17.0
 31
0.0
  0
LINE
  5
186
100
AcDbEntity
  8
0
  6
CONTINUOUS
 62
               7
100
AcDbLine
 10
99.0
 20
-18.0
 30
0.0
 11
102.0
 21
-18.0
 31
0.0
  0
LINE
  5
187
100
AcDbEntity
  8
0
  6
CONTINUOUS
 62
               7
100
AcDbLine
 10
99.0
 20
-15.5
 30
0.0
 11
102.0
 21
-15.5
 31
0.0
  0
LINE
  5
188
100
AcDbEntity
  8
0
  6
CONTINUOUS
 62
               7
100
AcDbLine
 10
91.5
 20
-15.5
 30
0.0
 11
91.5
 21
-18.0
 31
0.0
  0
LINE
  5
189
100
AcDbEntity
  8
0
  6
CONTINUOUS
 62
               7
100
AcDbLine
 10
99.0
 20
-15.5
 30
0.0
 11
99.0
 21
-18.0
 31
0.0
  0
LINE
  5
18A
100
AcDbEntity
  8
0
  6
CONTINUOUS
 62
               7
100
AcDbLine
 10
94.5
 20
-15.5
 30
0.0
 11
94.5
 21
-18.0
 31
0.0
  0
LINE
  5
18B
100
AcDbEntity
  8
0
  6
CONTINUOUS
 62
               7
100
AcDbLine
 10
102.0
 20
-15.5
 30
0.0
 11
102.0
 21
-18.0
 31
0.0
  0
LINE
  5
18C
100
AcDbEntity
  8
0
  6
CONTINUOUS
 62
               7
100
AcDbLine
 10
91.5
 20
-15.5
 30
0.0
 11
94.5
 21
-15.5
 31
0.0
  0
LINE
  5
18D
100
AcDbEntity
  8
0
  6
CONTINUOUS
 62
               7
100
AcDbLine
 10
91.5
 20
-18.0
 30
0.0
 11
94.5
 21
-18.0
 31
0.0
  0
LINE
  5
18E
100
AcDbEntity
  8
0
  6
CONTINUOUS
 62
               7
100
AcDbLine
 10
101.05000305175781
 20
-21.100006103515625
 30
0.0
 11
101.84999084472656
 21
-21.100006103515625
 31
0.0
  0
LINE
  5
18F
100
AcDbEntity
  8
0
  6
CONTINUOUS
 62
               7
100
AcDbLine
 10
106.14999389648437
 20
-21.100006103515625
 30
0.0
 11
106.94999694824219
 21
-21.100006103515625
 31
0.0
  0
LINE
  5
190
100
AcDbEntity
  8
0
  6
CONTINUOUS
 62
               7
100
AcDbLine
 10
106.14999389648437
 20
-26.5
 30
0.0
 11
106.94999694824219
 21
-26.5
 31
0.0
  0
LINE
  5
191
100
AcDbEntity
  8
0
  6
CONTINUOUS
 62
               7
100
AcDbLine
 10
101.05000305175781
 20
-26.5
 30
0.0
 11
101.84999084472656
 21
-26.5
 31
0.0
  0
LINE
  5
192
100
AcDbEntity
  8
0
  6
CONTINUOUS
 62
               7
100
AcDbLine
 10
97.149993896484375
 20
-26.5
 30
0.0
 11
97.949996948242188
 21
-26.5
 31
0.0
  0
LINE
  5
193
100
AcDbEntity
  8
0
  6
CONTINUOUS
 62
               7
100
AcDbLine
 10
92.050003051757812
 20
-26.5
 30
0.0
 11
92.849990844726563
 21
-26.5
 31
0.0
  0
LINE
  5
194
100
AcDbEntity
  8
0
  6
CONTINUOUS
 62
               7
100
AcDbLine
 10
92.050003051757812
 20
-21.100006103515625
 30
0.0
 11
92.849990844726563
 21
-21.100006103515625
 31
0.0
  0
LINE
  5
195
100
AcDbEntity
  8
0
  6
CONTINUOUS
 62
               7
100
AcDbLine
 10
97.149993896484375
 20
-21.100006103515625
 30
0.0
 11
97.949996948242188
 21
-21.100006103515625
 31
0.0
  0
LINE
  5
196
100
AcDbEntity
  8
0
  6
CONTINUOUS
 62
               7
100
AcDbLine
 10
92.050003051757812
 20
-21.100006103515625
 30
0.0
 11
92.050003051757812
 21
-26.5
 31
0.0
  0
LINE
  5
197
100
AcDbEntity
  8
0
  6
CONTINUOUS
 62
               7
100
AcDbLine
 10
97.949996948242188
 20
-21.100006103515625
 30
0.0
 11
97.949996948242188
 21
-26.5
 31
0.0
  0
LINE
  5
198
100
AcDbEntity
  8
0
  6
CONTINUOUS
 62
               7
100
AcDbLine
 10
106.94999694824219
 20
-21.100006103515625
 30
0.0
 11
106.94999694824219
 21
-26.5
 31
0.0
  0
LINE
  5
199
100
AcDbEntity
  8
0
  6
CONTINUOUS
 62
               7
100
AcDbLine
 10
101.05000305175781
 20
-21.100006103515625
 30
0.0
 11
101.05000305175781
 21
-26.5
 31
0.0
  0
LINE
  5
19A
100
AcDbEntity
  8
0
  6
CONTINUOUS
 62
               7
100
AcDbLine
 10
106.14999389648437
 20
-26.5
 30
0.0
 11
106.14999389648437
 21
-27.300003051757813
 31
0.0
  0
LINE
  5
19B
100
AcDbEntity
  8
0
  6
CONTINUOUS
 62
               7
100
AcDbLine
 10
101.84999084472656
 20
-26.5
 30
0.0
 11
101.84999084472656
 21
-27.300003051757813
 31
0.0
  0
LINE
  5
19C
100
AcDbEntity
  8
0
  6
CONTINUOUS
 62
               7
100
AcDbLine
 10
97.149993896484375
 20
-26.5
 30
0.0
 11
97.149993896484375
 21
-27.300003051757813
 31
0.0
  0
LINE
  5
19D
100
AcDbEntity
  8
0
  6
CONTINUOUS
 62
               7
100
AcDbLine
 10
92.849990844726563
 20
-26.5
 30
0.0
 11
92.849990844726563
 21
-27.300003051757813
 31
0.0
  0
LINE
  5
19E
100
AcDbEntity
  8
0
  6
CONTINUOUS
 62
               7
100
AcDbLine
 10
101.84999084472656
 20
-27.300003051757813
 30
0.0
 11
106.14999389648437
 21
-27.300003051757813
 31
0.0
  0
LINE
  5
19F
100
AcDbEntity
  8
0
  6
CONTINUOUS
 62
               7
100
AcDbLine
 10
101.84999084472656
 20
-20.300003051757813
 30
0.0
 11
106.14999389648437
 21
-20.300003051757813
 31
0.0
  0
LINE
  5
1A0
100
AcDbEntity
  8
0
  6
CONTINUOUS
 62
               7
100
AcDbLine
 10
107.5
 20
-18.5
 30
0.0
 11
107.5
 21
-28.800003051757813
 31
0.0
  0
LINE
  5
1A1
100
AcDbEntity
  8
0
  6
CONTINUOUS
 62
               7
100
AcDbLine
 10
91.5
 20
-18.5
 30
0.0
 11
91.5
 21
-28.800003051757813
 31
0.0
  0
LINE
  5
1A2
100
AcDbEntity
  8
0
  6
CONTINUOUS
 62
               7
100
AcDbLine
 10
106.14999389648437
 20
-20.300003051757813
 30
0.0
 11
106.14999389648437
 21
-21.100006103515625
 31
0.0
  0
LINE
  5
1A3
100
AcDbEntity
  8
0
  6
CONTINUOUS
 62
               7
100
AcDbLine
 10
92.849990844726563
 20
-20.300003051757813
 30
0.0
 11
92.849990844726563
 21
-21.100006103515625
 31
0.0
  0
LINE
  5
1A4
100
AcDbEntity
  8
0
  6
CONTINUOUS
 62
               7
100
AcDbLine
 10
97.149993896484375
 20
-20.300003051757813
 30
0.0
 11
97.149993896484375
 21
-21.100006103515625
 31
0.0
  0
LINE
  5
1A5
100
AcDbEntity
  8
0
  6
CONTINUOUS
 62
               7
100
AcDbLine
 10
101.84999084472656
 20
-20.300003051757813
 30
0.0
 11
101.84999084472656
 21
-21.100006103515625
 31
0.0
  0
LINE
  5
1A6
100
AcDbEntity
  8
0
  6
CONTINUOUS
 62
               7
100
AcDbLine
 10
92.849990844726563
 20
-20.300003051757813
 30
0.0
 11
97.149993896484375
 21
-20.300003051757813
 31
0.0
  0
LINE
  5
1A7
100
AcDbEntity
  8
0
  6
CONTINUOUS
 62
               7
100
AcDbLine
 10
92.849990844726563
 20
-27.300003051757813
 30
0.0
 11
97.149993896484375
 21
-27.300003051757813
 31
0.0
  0
LINE
  5
1A8
100
AcDbEntity
  8
0
  6
CONTINUOUS
 62
               7
100
AcDbLine
 10
98.5
 20
-18.5
 30
0.0
 11
98.5
 21
-28.300003051757812
 31
0.0
  0
LINE
  5
1A9
100
AcDbEntity
  8
0
  6
CONTINUOUS
 62
               7
100
AcDbLine
 10
100.5
 20
-18.5
 30
0.0
 11
100.5
 21
-28.300003051757812
 31
0.0
  0
LINE
  5
1AA
100
AcDbEntity
  8
0
  6
CONTINUOUS
 62
               7
100
AcDbLine
 10
98.5
 20
-28.300003051757812
 30
0.0
 11
100.5
 21
-28.300003051757812
 31
0.0
  0
LINE
  5
1AB
100
AcDbEntity
  8
0
  6
CONTINUOUS
 62
               7
100
AcDbLine
 10
90.5
 20
-9.5
 30
0.0
 11
108.5
 21
-9.5
 31
0.0
  0
LINE
  5
1AC
100
AcDbEntity
  8
0
  6
CONTINUOUS
 62
               7
100
AcDbLine
 10
90.5
 20
-18.5
 30
0.0
 11
108.5
 21
-18.5
 31
0.0
  0
LINE
  5
1AD
100
AcDbEntity
  8
0
  6
CONTINUOUS
 62
               7
100
AcDbLine
 10
96.0
 20
-28.800003051757813
 30
0.0
 11
96.0
 21
-29.0
 31
0.0
  0
LINE
  5
1AE
100
AcDbEntity
  8
0
  6
CONTINUOUS
 62
               7
100
AcDbLine
 10
103.0
 20
-28.800003051757813
 30
0.0
 11
103.0
 21
-29.0
 31
0.0
  0
LINE
  5
1AF
100
AcDbEntity
  8
0
  6
CONTINUOUS
 62
               7
100
AcDbLine
 10
99.5
 20
-16.5
 30
0.0
 11
99.5
 21
-17.0
 31
0.0
  0
LINE
  5
1B0
100
AcDbEntity
  8
0
  6
CONTINUOUS
 62
               7
100
AcDbLine
 10
108.5
 20
-9.5
 30
0.0
 11
108.5
 21
-30.5
 31
0.0
  0
LINE
  5
1B1
100
AcDbEntity
  8
0
  6
CONTINUOUS
 62
               7
100
AcDbLine
 10
90.5
 20
-9.5
 30
0.0
 11
90.5
 21
-30.5
 31
0.0
  0
LINE
  5
1B2
100
AcDbEntity
  8
0
  6
CONTINUOUS
 62
               7
100
AcDbLine
 10
90.5
 20
-29.0
 30
0.0
 11
108.5
 21
-29.0
 31
0.0
  0
LINE
  5
1B3
100
AcDbEntity
  8
0
  6
CONTINUOUS
 62
               7
100
AcDbLine
 10
90.5
 20
-28.800003051757813
 30
0.0
 11
108.5
 21
-28.800003051757813
 31
0.0
  0
LINE
  5
1B4
100
AcDbEntity
  8
0
  6
CONTINUOUS
 62
               7
100
AcDbLine
 10
98.439367558794288
 20
58.060677976872512
 30
0.0
 11
100.56068247125256
 21
55.939362885600758
 31
0.0
  0
LINE
  5
1B5
100
AcDbEntity
  8
0
  6
CONTINUOUS
 62
               7
100
AcDbLine
 10
98.439345890200343
 20
55.939357580211663
 30
0.0
 11
100.56066637626907
 21
58.060677887466454
 31
0.0
  0
LINE
  5
1B6
100
AcDbEntity
  8
0
  6
CONTINUOUS
 62
               7
100
AcDbLine
 10
14.0
 20
-48.5
 30
0.0
 11
14.5
 21
-48.5
 31
0.0
  0
LINE
  5
1B7
100
AcDbEntity
  8
0
  6
CONTINUOUS
 62
               7
100
AcDbLine
 10
12.5
 20
-47.0
 30
0.0
 11
12.5
 21
-45.0
 31
0.0
  0
LINE
  5
1B8
100
AcDbEntity
  8
0
  6
CONTINUOUS
 62
               7
100
AcDbLine
 10
37.5
 20
-47.0
 30
0.0
 11
37.5
 21
-45.0
 31
0.0
  0
ARC
  5
1B9
100
AcDbEntity
  8
0
  6
CONTINUOUS
 62
               7
100
AcDbCircle
 10
14.0
 20
-47.0
 30
0.0
 40
1.5
100
AcDbArc
 50
179.99998201391065
 51
270.00001866933468
  0
ARC
  5
1BA
100
AcDbEntity
  8
0
  6
CONTINUOUS
 62
               7
100
AcDbCircle
 10
36.0
 20
-47.0
 30
0.0
 40
1.5
100
AcDbArc
 50
270.00001866933468
 51
0.0000006832453318
  0
LINE
  5
1BB
100
AcDbEntity
  8
0
  6
CONTINUOUS
 62
               7
100
AcDbLine
 10
35.5
 20
-48.5
 30
0.0
 11
36.0
 21
-48.5
 31
0.0
  0
LINE
  5
1BC
100
AcDbEntity
  8
0
  6
CONTINUOUS
 62
               7
100
AcDbLine
 10
6.5
 20
27.0
 30
0.0
 11
6.5
 21
26.5
 31
0.0
  0
LINE
  5
1BD
100
AcDbEntity
  8
0
  6
CONTINUOUS
 62
               7
100
AcDbLine
 10
8.0
 20
28.5
 30
0.0
 11
10.0
 21
28.5
 31
0.0
  0
LINE
  5
1BE
100
AcDbEntity
  8
0
  6
CONTINUOUS
 62
               7
100
AcDbLine
 10
8.0
 20
3.5
 30
0.0
 11
10.0
 21
3.5
 31
0.0
  0
LINE
  5
1BF
100
AcDbEntity
  8
0
  6
CONTINUOUS
 62
               7
100
AcDbLine
 10
5.3000030517578125
 20
25.300003051757813
 30
0.0
 11
5.3000030517578125
 21
6.6999969482421875
 31
0.0
  0
ARC
  5
1C0
100
AcDbEntity
  8
0
  6
CONTINUOUS
 62
               7
100
AcDbCircle
 10
8.0
 20
27.0
 30
0.0
 40
1.5
100
AcDbArc
 50
89.999982013910653
 51
180.00001866933468
  0
ARC
  5
1C1
100
AcDbEntity
  8
0
  6
CONTINUOUS
 62
               7
100
AcDbCircle
 10
8.0
 20
5.0
 30
0.0
 40
1.5
100
AcDbArc
 50
180.00001866933468
 51
270.00000068324533
  0
ARC
  5
1C2
100
AcDbEntity
  8
0
  6
CONTINUOUS
 62
               7
100
AcDbCircle
 10
6.5
 20
25.300003051757813
 30
0.0
 40
1.1999998092651367
100
AcDbArc
 50
89.999982013910653
 51
180.00001866933468
  0
ARC
  5
1C3
100
AcDbEntity
  8
0
  6
CONTINUOUS
 62
               7
100
AcDbCircle
 10
6.5
 20
6.6999969482421875
 30
0.0
 40
1.1999998092651367
100
AcDbArc
 50
180.00001866933468
 51
270.00000068324533
  0
LINE
  5
1C4
100
AcDbEntity
  8
0
  6
CONTINUOUS
 62
               7
100
AcDbLine
 10
6.5
 20
5.5
 30
0.0
 11
6.5
 21
5.0
 31
0.0
  0
LINE
  5
1C5
100
AcDbEntity
  8
0
  6
CONTINUOUS
 62
               7
100
AcDbLine
 10
14.0
 20
48.5
 30
0.0
 11
14.5
 21
48.5
 31
0.0
  0
LINE
  5
1C6
100
AcDbEntity
  8
0
  6
CONTINUOUS
 62
               7
100
AcDbLine
 10
12.5
 20
47.0
 30
0.0
 11
12.5
 21
45.0
 31
0.0
  0
LINE
  5
1C7
100
AcDbEntity
  8
0
  6
CONTINUOUS
 62
               7
100
AcDbLine
 10
37.5
 20
47.0
 30
0.0
 11
37.5
 21
45.0
 31
0.0
  0
LINE
  5
1C8
100
AcDbEntity
  8
0
  6
CONTINUOUS
 62
               7
100
AcDbLine
 10
15.699996948242188
 20
49.699996948242188
 30
0.0
 11
34.300003051757812
 21
49.699996948242188
 31
0.0
  0
ARC
  5
1C9
100
AcDbEntity
  8
0
  6
CONTINUOUS
 62
               7
100
AcDbCircle
 10
14.0
 20
47.0
 30
0.0
 40
1.5
100
AcDbArc
 50
89.999981330665321
 51
180.00001798608935
  0
ARC
  5
1CA
100
AcDbEntity
  8
0
  6
CONTINUOUS
 62
               7
100
AcDbCircle
 10
36.0
 20
47.0
 30
0.0
 40
1.5
100
AcDbArc
 50
359.99999931675467
 51
89.999981330665321
  0
ARC
  5
1CB
100
AcDbEntity
  8
0
  6
CONTINUOUS
 62
               7
100
AcDbCircle
 10
15.699996948242188
 20
48.5
 30
0.0
 40
1.1999998092651367
100
AcDbArc
 50
89.999981330665321
 51
180.00001798608935
  0
ARC
  5
1CC
100
AcDbEntity
  8
0
  6
CONTINUOUS
 62
               7
100
AcDbCircle
 10
34.300003051757812
 20
48.5
 30
0.0
 40
1.1999998092651367
100
AcDbArc
 50
359.99999931675467
 51
89.999981330665321
  0
LINE
  5
1CD
100
AcDbEntity
  8
0
  6
CONTINUOUS
 62
               7
100
AcDbLine
 10
35.5
 20
48.5
 30
0.0
 11
36.0
 21
48.5
 31
0.0
  0
LINE
  5
1CE
100
AcDbEntity
  8
0
  6
CONTINUOUS
 62
               7
100
AcDbLine
 10
6.5
 20
-27.0
 30
0.0
 11
6.5
 21
-26.5
 31
0.0
  0
LINE
  5
1CF
100
AcDbEntity
  8
0
  6
CONTINUOUS
 62
               7
100
AcDbLine
 10
8.0
 20
-28.5
 30
0.0
 11
10.0
 21
-28.5
 31
0.0
  0
LINE
  5
1D0
100
AcDbEntity
  8
0
  6
CONTINUOUS
 62
               7
100
AcDbLine
 10
8.0
 20
-3.5
 30
0.0
 11
10.0
 21
-3.5
 31
0.0
  0
LINE
  5
1D1
100
AcDbEntity
  8
0
  6
CONTINUOUS
 62
               7
100
AcDbLine
 10
5.3000030517578125
 20
-25.300003051757813
 30
0.0
 11
5.3000030517578125
 21
-6.6999969482421875
 31
0.0
  0
ARC
  5
1D2
100
AcDbEntity
  8
0
  6
CONTINUOUS
 62
               7
100
AcDbCircle
 10
8.0
 20
-27.0
 30
0.0
 40
1.5
100
AcDbArc
 50
179.99998133066532
 51
270.00001798608935
  0
ARC
  5
1D3
100
AcDbEntity
  8
0
  6
CONTINUOUS
 62
               7
100
AcDbCircle
 10
8.0
 20
-5.0
 30
0.0
 40
1.5
100
AcDbArc
 50
89.999999316754668
 51
179.99998133066532
  0
ARC
  5
1D4
100
AcDbEntity
  8
0
  6
CONTINUOUS
 62
               7
100
AcDbCircle
 10
6.5
 20
-25.300003051757813
 30
0.0
 40
1.1999998092651367
100
AcDbArc
 50
179.99998133066532
 51
270.00001798608935
  0
ARC
  5
1D5
100
AcDbEntity
  8
0
  6
CONTINUOUS
 62
               7
100
AcDbCircle
 10
6.5
 20
-6.6999969482421875
 30
0.0
 40
1.1999998092651367
100
AcDbArc
 50
89.999999316754668
 51
179.99998133066532
  0
LINE
  5
1D6
100
AcDbEntity
  8
0
  6
CONTINUOUS
 62
               7
100
AcDbLine
 10
6.5
 20
-5.5
 30
0.0
 11
6.5
 21
-5.0
 31
0.0
  0
LINE
  5
1D7
100
AcDbEntity
  8
0
  6
CONTINUOUS
 62
               7
100
AcDbLine
 10
108.39999389648437
 20
-30.5
 30
0.0
 11
110.0
 21
-30.5
 31
0.0
  0
LINE
  5
1D8
100
AcDbEntity
  8
0
  6
CONTINUOUS
 62
               7
100
AcDbLine
 10
110.0
 20
62.5
 30
0.0
 11
89.0
 21
62.5
 31
0.0
  0
LINE
  5
1D9
100
AcDbEntity
  8
0
  6
CONTINUOUS
 62
               2
100
AcDbLine
 10
-12.25
 20
0.0
 30
0.0
 11
225.55000000000001
 21
0.0
 31
0.0
  0
LINE
  5
1DA
100
AcDbEntity
  8
0
  6
CONTINUOUS
 62
               2
100
AcDbLine
 10
0.0
 20
-4.0
 30
0.0
 11
0.0
 21
5.2082637773987699
 31
0.0
  0
LINE
  5
1DB
100
AcDbEntity
  8
0
  6
CONTINUOUS
 62
               7
100
AcDbLine
 10
15.699996948242188
 20
-49.699996948242188
 30
0.0
 11
34.300003051757812
 21
-49.699996948242188
 31
0.0
  0
ENDBLK
  5
1DC
100
AcDbEntity
  8
0
100
AcDbBlockEnd
  0
BLOCK
  5
1DD
100
AcDbEntity
  8
0
100
AcDbBlockBegin
  2
F10MS-2
 70
               0
 10
0.0
 20
0.0
 30
0.0
  3
F10MS-2
  1

  0
LINE
  5
1DE
100
AcDbEntity
  8
0
  6
CONTINUOUS
 62
               2
100
AcDbLine
 10
-3.8345750139460506
 20
0.0
 30
0.0
 11
6.2387483458034581
 21
0.0
 31
0.0
  0
LINE
  5
1E0
100
AcDbEntity
  8
0
  6
DASHED
 62
               2
100
AcDbLine
 10
64.000000000001364
 20
48.5
 30
0.0
 11
64.500000000001364
 21
48.5
 31
0.0
  0
ARC
  5
1E1
100
AcDbEntity
  8
0
  6
DASHED
 62
               2
100
AcDbCircle
 10
62.800003051759177
 20
48.5
 30
0.0
 40
1.1999998092651367
100
AcDbArc
 50
359.99999931675467
 51
89.999981330665321
  0
ARC
  5
1E2
100
AcDbEntity
  8
0
  6
DASHED
 62
               2
100
AcDbCircle
 10
64.500000000001364
 20
47.0
 30
0.0
 40
1.5
100
AcDbArc
 50
359.99999931675467
 51
89.999981330665321
  0
LINE
  5
1E3
100
AcDbEntity
  8
0
  6
DASHED
 62
               2
100
AcDbLine
 10
45.000000000001364
 20
49.699996948242188
 30
0.0
 11
62.800003051759177
 21
49.699996948242188
 31
0.0
  0
LINE
  5
1E4
100
AcDbEntity
  8
0
  6
DASHED
 62
               2
100
AcDbLine
 10
66.000000000001364
 20
47.0
 30
0.0
 11
66.000000000001364
 21
45.0
 31
0.0
  0
LINE
  5
1E5
100
AcDbEntity
  8
0
  6
DASHED
 62
               2
100
AcDbLine
 10
64.000000000001364
 20
-48.5
 30
0.0
 11
64.500000000001364
 21
-48.5
 31
0.0
  0
ARC
  5
1E6
100
AcDbEntity
  8
0
  6
DASHED
 62
               2
100
AcDbCircle
 10
62.800003051759177
 20
-48.5
 30
0.0
 40
1.1999998092651367
100
AcDbArc
 50
270.00001866933468
 51
0.0000006832453318
  0
ARC
  5
1E7
100
AcDbEntity
  8
0
  6
DASHED
 62
               2
100
AcDbCircle
 10
44.199996948243552
 20
-48.5
 30
0.0
 40
1.1999998092651367
100
AcDbArc
 50
179.99998201391065
 51
270.00001866933468
  0
ARC
  5
1E8
100
AcDbEntity
  8
0
  6
DASHED
 62
               2
100
AcDbCircle
 10
64.500000000001364
 20
-47.0
 30
0.0
 40
1.5
100
AcDbArc
 50
270.00001866933468
 51
0.0000006832453318
  0
ARC
  5
1E9
100
AcDbEntity
  8
0
  6
DASHED
 62
               2
100
AcDbCircle
 10
42.500000000001364
 20
-47.0
 30
0.0
 40
1.5
100
AcDbArc
 50
179.99998201391065
 51
270.00001866933468
  0
LINE
  5
1EA
100
AcDbEntity
  8
0
  6
DASHED
 62
               2
100
AcDbLine
 10
44.199996948243552
 20
-49.699996948242188
 30
0.0
 11
62.800003051759177
 21
-49.699996948242188
 31
0.0
  0
LINE
  5
1EB
100
AcDbEntity
  8
0
  6
DASHED
 62
               2
100
AcDbLine
 10
66.000000000001364
 20
-47.0
 30
0.0
 11
66.000000000001364
 21
-45.0
 31
0.0
  0
LINE
  5
1EC
100
AcDbEntity
  8
0
  6
DASHED
 62
               2
100
AcDbLine
 10
41.000000000001364
 20
-47.0
 30
0.0
 11
41.000000000001364
 21
-45.0
 31
0.0
  0
LINE
  5
1ED
100
AcDbEntity
  8
0
  6
DASHED
 62
               2
100
AcDbLine
 10
42.500000000001364
 20
-48.5
 30
0.0
 11
43.000000000001364
 21
-48.5
 31
0.0
  0
LINE
  5
1EE
100
AcDbEntity
  8
0
  6
DASHED
 62
               2
100
AcDbLine
 10
45.000000000001364
 20
62.5
 30
0.0
 11
45.000000000001364
 21
49.699996948242188
 31
0.0
  0
LINE
  5
1EF
100
AcDbEntity
  8
0
  6
DASHED
 62
               2
100
AcDbLine
 10
3.5000000000013642
 20
-30.5
 30
0.0
 11
7.9019165039076142
 21
-30.5
 31
0.0
  0
LINE
  5
1F0
100
AcDbEntity
  8
0
  6
DASHED
 62
               2
100
AcDbLine
 10
3.5000000000013642
 20
-33.5
 30
0.0
 11
7.9019165039076142
 21
-33.5
 31
0.0
  0
LINE
  5
1F1
100
AcDbEntity
  8
0
  6
DASHED
 62
               2
100
AcDbLine
 10
3.5000000000013642
 20
-33.5
 30
0.0
 11
3.5000000000013642
 21
-45.0
 31
0.0
  0
ARC
  5
1F2
100
AcDbEntity
  8
0
  6
DASHED
 62
               2
100
AcDbCircle
 10
10.500000000001364
 20
-32.0
 30
0.0
 40
3.0
100
AcDbArc
 50
150.00002466469778
 51
210.00001267397155
  0
LINE
  5
1F3
100
AcDbEntity
  8
0
  6
DASHED
 62
               2
100
AcDbLine
 10
73.800003051759177
 20
45.0
 30
0.0
 11
66.000000000001364
 21
45.0
 31
0.0
  0
LINE
  5
1F4
100
AcDbEntity
  8
0
  6
DASHED
 62
               2
100
AcDbLine
 10
73.800003051759177
 20
-45.0
 30
0.0
 11
66.000000000001364
 21
-45.0
 31
0.0
  0
LINE
  5
1F5
100
AcDbEntity
  8
0
  6
DASHED
 62
               2
100
AcDbLine
 10
74.300003051759177
 20
44.5
 30
0.0
 11
74.300003051759177
 21
-44.5
 31
0.0
  0
ARC
  5
1F6
100
AcDbEntity
  8
0
  6
DASHED
 62
               2
100
AcDbCircle
 10
73.800003051759177
 20
44.5
 30
0.0
 40
0.5
100
AcDbArc
 50
359.99998201391094
 51
90.000036655424012
  0
ARC
  5
1F7
100
AcDbEntity
  8
0
  6
DASHED
 62
               2
100
AcDbCircle
 10
73.800003051759177
 20
-44.5
 30
0.0
 40
0.5
100
AcDbArc
 50
270.00001798608935
 51
359.99998201391094
  0
LINE
  5
1F8
100
AcDbEntity
  8
0
  6
CONTINUOUS
 62
               4
100
AcDbLine
 10
62.000000000001364
 20
57.499999913736957
 30
0.0
 11
62.000000000001364
 21
49.699996948242188
 31
0.0
  0
LINE
  5
1F9
100
AcDbEntity
  8
0
  6
CONTINUOUS
 62
               4
100
AcDbLine
 10
62.000000000001364
 20
57.499999913736957
 30
0.0
 11
45.000000000001364
 21
57.499999913736957
 31
0.0
  0
ARC
  5
1FA
100
AcDbEntity
  8
0
  6
CONTINUOUS
 62
               4
100
AcDbCircle
 10
32.495378649949771
 20
66.001540363755225
 30
0.0
 40
0.4984619302958243
100
AcDbArc
 50
89.822932465398097
 51
180.17706753460234
  0
LINE
  5
1FB
100
AcDbEntity
  8
0
  6
CONTINUOUS
 62
               4
100
AcDbLine
 10
32.000000000001364
 20
65.999999913736957
 30
0.0
 11
32.000000000001364
 21
62.5
 31
0.0
  0
LINE
  5
1FC
100
AcDbEntity
  8
0
  6
CONTINUOUS
 62
               4
100
AcDbLine
 10
57.000000000001364
 20
58.949999913736946
 30
0.0
 11
54.900000000001342
 21
58.949999913736946
 31
0.0
  0
LINE
  5
1FD
100
AcDbEntity
  8
0
  6
CONTINUOUS
 62
               4
100
AcDbLine
 10
57.000000000001364
 20
59.899999913736963
 30
0.0
 11
57.000000000001364
 21
58.949999913736946
 31
0.0
  0
LINE
  5
1FE
100
AcDbEntity
  8
0
  6
CONTINUOUS
 62
               4
100
AcDbLine
 10
57.000000000001364
 20
59.899999913736963
 30
0.0
 11
54.900000000001342
 21
59.899999913736963
 31
0.0
  0
LINE
  5
1FF
100
AcDbEntity
  8
0
  6
CONTINUOUS
 62
               4
100
AcDbLine
 10
54.900000000001342
 20
59.899999913736963
 30
0.0
 11
54.900000000001342
 21
58.949999913736946
 31
0.0
  0
ARC
  5
200
100
AcDbEntity
  8
0
  6
CONTINUOUS
 62
               4
100
AcDbCircle
 10
60.501123948315239
 20
61.679394315853983
 30
0.0
 40
1.4988865337462252
100
AcDbArc
 50
0.2142776266259147
 51
24.039904443234679
  0
ARC
  5
201
100
AcDbEntity
  8
0
  6
CONTINUOUS
 62
               4
100
AcDbCircle
 10
59.675687863875851
 20
66.00267102581455
 30
0.0
 40
0.4973293636201366
100
AcDbArc
 50
24.005903588636848
 51
90.079246697133883
  0
LINE
  5
202
100
AcDbEntity
  8
0
  6
CONTINUOUS
 62
               4
100
AcDbLine
 10
60.13000000000136
 20
66.204999913736941
 30
0.0
 11
61.870000000001369
 21
62.289999913736949
 31
0.0
  0
LINE
  5
203
100
AcDbEntity
  8
0
  6
CONTINUOUS
 62
               4
100
AcDbLine
 10
49.750000000001364
 20
57.999999913736957
 30
0.0
 11
47.250000000001364
 21
57.999999913736957
 31
0.0
  0
LINE
  5
204
100
AcDbEntity
  8
0
  6
CONTINUOUS
 62
               4
100
AcDbLine
 10
49.750000000001364
 20
57.999999913736957
 30
0.0
 11
49.750000000001364
 21
57.499999913736957
 31
0.0
  0
LINE
  5
205
100
AcDbEntity
  8
0
  6
CONTINUOUS
 62
               4
100
AcDbLine
 10
47.250000000001364
 20
57.999999913736957
 30
0.0
 11
47.250000000001364
 21
57.499999913736957
 31
0.0
  0
LINE
  5
206
100
AcDbEntity
  8
0
  6
CONTINUOUS
 62
               4
100
AcDbLine
 10
59.675000000001319
 20
66.499999913736957
 30
0.0
 11
32.496919099968068
 21
66.499999913736957
 31
0.0
  0
LINE
  5
207
100
AcDbEntity
  8
0
  6
CONTINUOUS
 62
               4
100
AcDbLine
 10
62.000000000001364
 20
61.684999913736931
 30
0.0
 11
62.000000000001364
 21
57.499999913736957
 31
0.0
  0
LINE
  5
208
100
AcDbEntity
  8
0
  6
DASHED
 62
               2
100
AcDbLine
 10
4.0
 20
62.5
 30
0.0
 11
45.000000000001364
 21
62.5
 31
0.0
  0
LINE
  5
209
100
AcDbEntity
  8
0
  6
DASHED
 62
               2
100
AcDbLine
 10
3.0
 20
-28.5
 30
0.0
 11
3.0
 21
-25.5
 31
0.0
  0
ARC
  5
20A
100
AcDbEntity
  8
0
  6
DASHED
 62
               2
100
AcDbCircle
 10
5.916352299152436
 20
-16.5
 30
0.0
 40
0.5
100
AcDbArc
 50
8.1301023541559339
 51
90.000000000000014
  0
LINE
  5
20B
100
AcDbEntity
  8
0
  6
DASHED
 62
               2
100
AcDbLine
 10
2.8500000000000227
 20
-18.0
 30
0.0
 11
2.8500000000000227
 21
-20.168330610420696
 31
0.0
  0
ARC
  5
20C
100
AcDbEntity
  8
0
  6
DASHED
 62
               2
100
AcDbCircle
 10
4.8500000000000227
 20
-18.0
 30
0.0
 40
2.0
100
AcDbArc
 50
90.0
 51
180.0
  0
LINE
  5
20D
100
AcDbEntity
  8
0
  6
DASHED
 62
               2
100
AcDbLine
 10
5.916352299152436
 20
-16.0
 30
0.0
 11
4.8500000000000227
 21
-16.0
 31
0.0
  0
ARC
  5
20E
100
AcDbEntity
  8
0
  6
DASHED
 62
               2
100
AcDbCircle
 10
5.916352299152436
 20
16.5
 30
0.0
 40
0.5
100
AcDbArc
 50
270.0
 51
351.86989764584399
  0
ARC
  5
20F
100
AcDbEntity
  8
0
  6
DASHED
 62
               2
100
AcDbCircle
 10
4.8500000000000227
 20
18.0
 30
0.0
 40
2.0
100
AcDbArc
 50
180.0
 51
270.0
  0
LINE
  5
210
100
AcDbEntity
  8
0
  6
DASHED
 62
               2
100
AcDbLine
 10
5.916352299152436
 20
16.0
 30
0.0
 11
4.8500000000000227
 21
16.0
 31
0.0
  0
LINE
  5
211
100
AcDbEntity
  8
0
  6
DASHED
 62
               2
100
AcDbLine
 10
2.8500000000000227
 20
20.168330610420725
 30
0.0
 11
2.8500000000000227
 21
18.0
 31
0.0
  0
LINE
  5
212
100
AcDbEntity
  8
0
  6
DASHED
 62
               2
100
AcDbLine
 10
1.0
 20
59.500000000000057
 30
0.0
 11
1.0
 21
21.03099977800747
 31
0.0
  0
LINE
  5
213
100
AcDbEntity
  8
0
  6
DASHED
 62
               2
100
AcDbLine
 10
2.8500000000000227
 20
-20.168330610420696
 30
0.0
 11
1.0
 21
-21.03099977800747
 31
0.0
  0
LINE
  5
214
100
AcDbEntity
  8
0
  6
DASHED
 62
               2
100
AcDbLine
 10
2.8500000000000227
 20
20.168330610420711
 30
0.0
 11
1.0
 21
21.03099977800747
 31
0.0
  0
LINE
  5
215
100
AcDbEntity
  8
0
  6
DASHED
 62
               2
100
AcDbLine
 10
1.0000000000001137
 20
-23.5
 30
0.0
 11
3.0
 21
-25.5
 31
0.0
  0
LINE
  5
216
100
AcDbEntity
  8
0
  6
DASHED
 62
               2
100
AcDbLine
 10
1.0000000000001137
 20
-23.5
 30
0.0
 11
1.0000000000001137
 21
-21.03099977800747
 31
0.0
  0
ARC
  5
217
100
AcDbEntity
  8
0
  6
DASHED
 62
               2
100
AcDbCircle
 10
4.0
 20
59.5
 30
0.0
 40
3.0
100
AcDbArc
 50
89.999963344575988
 51
179.99994535848663
  0
LINE
  5
218
100
AcDbEntity
  8
0
  6
DASHED
 62
               2
100
AcDbLine
 10
0.0
 20
-14.5
 30
0.0
 11
0.0
 21
14.5
 31
0.0
  0
LINE
  5
219
100
AcDbEntity
  8
0
  6
DASHED
 62
               2
100
AcDbLine
 10
0.0
 20
14.5
 30
0.0
 11
6.5
 21
14.5
 31
0.0
  0
LINE
  5
21A
100
AcDbEntity
  8
0
  6
DASHED
 62
               2
100
AcDbLine
 10
0.0
 20
-14.5
 30
0.0
 11
6.5
 21
-14.5
 31
0.0
  0
LINE
  5
21B
100
AcDbEntity
  8
0
  6
DASHED
 62
               2
100
AcDbLine
 10
6.5
 20
14.5
 30
0.0
 11
6.5
 21
16.429289321881299
 31
0.0
  0
LINE
  5
21C
100
AcDbEntity
  8
0
  6
DASHED
 62
               2
100
AcDbLine
 10
6.5
 20
-17.049999999999955
 30
0.0
 11
6.5
 21
-14.5
 31
0.0
  0
LINE
  5
21D
100
AcDbEntity
  8
0
  6
DASHED
 62
               2
100
AcDbLine
 10
3.20001220703125
 20
-30.5
 30
0.0
 11
3.5000000000013642
 21
-30.5
 31
0.0
  0
LINE
  5
21E
100
AcDbEntity
  8
0
  6
DASHED
 62
               2
100
AcDbLine
 10
3.2000045776367187
 20
-28.700004577636719
 30
0.0
 11
3.0
 21
-28.5
 31
0.0
  0
LINE
  5
21F
100
AcDbEntity
  8
0
  6
DASHED
 62
               2
100
AcDbLine
 10
3.20001220703125
 20
-28.699996948242188
 30
0.0
 11
3.20001220703125
 21
-30.5
 31
0.0
  0
LINE
  5
220
100
AcDbEntity
  8
0
  6
DASHED
 62
               2
100
AcDbLine
 10
6.5
 20
-17.049999999999955
 30
0.0
 11
6.4113270459830574
 21
-16.429289321881356
 31
0.0
  0
LINE
  5
221
100
AcDbEntity
  8
0
  6
DASHED
 62
               2
100
AcDbLine
 10
9.4500000029815965
 20
-45.0
 30
0.0
 11
9.5500000029816192
 21
-45.100000000000023
 31
0.0
  0
LINE
  5
222
100
AcDbEntity
  8
0
  6
DASHED
 62
               2
100
AcDbLine
 10
47.79998474121237
 20
-49.700000000000045
 30
0.0
 11
47.999984741212302
 21
-49.900000000000034
 31
0.0
  0
LINE
  5
223
100
AcDbEntity
  8
0
  6
DASHED
 62
               2
100
AcDbLine
 10
41.000000000001364
 20
-45.0
 30
0.0
 11
3.5000000000013642
 21
-45.0
 31
0.0
  0
ARC
  5
224
100
AcDbEntity
  8
0
  6
CONTINUOUS
 62
               4
100
AcDbCircle
 10
32.498459549983068
 20
66.001540363755225
 30
0.0
 40
0.4984619302958243
100
AcDbArc
 50
89.822932465398097
 51
180.17706753460234
  0
ENDBLK
  5
225
100
AcDbEntity
  8
0
100
AcDbBlockEnd
  0
BLOCK
  5
226
100
AcDbEntity
  8
0
100
AcDbBlockBegin
  2
F10MS-3
 70
               0
 10
0.0
 20
0.0
 30
0.0
  3
F10MS-3
  1

  0
LINE
  5
227
100
AcDbEntity
  8
0
  6
CONTINUOUS
 62
               7
100
AcDbLine
 10
0.0
 20
35.0
 30
0.0
 11
0.0
 21
1.0
 31
0.0
  0
LINE
  5
228
100
AcDbEntity
  8
0
  6
CONTINUOUS
 62
               7
100
AcDbLine
 10
0.25
 20
53.800003051757813
 30
0.0
 11
2.0500030517578125
 21
53.800003051757813
 31
0.0
  0
LINE
  5
229
100
AcDbEntity
  8
0
  6
CONTINUOUS
 62
               7
100
AcDbLine
 10
0.25
 20
50.600006103515625
 30
0.0
 11
2.0500030517578125
 21
50.600006103515625
 31
0.0
  0
LINE
  5
22A
100
AcDbEntity
  8
0
  6
CONTINUOUS
 62
               7
100
AcDbLine
 10
6.850006103515625
 20
36.800003051757813
 30
0.0
 11
6.850006103515625
 21
35.0
 31
0.0
  0
LINE
  5
22B
100
AcDbEntity
  8
0
  6
CONTINUOUS
 62
               7
100
AcDbLine
 10
8.4499969482421875
 20
38.400009155273438
 30
0.0
 11
10.25
 21
38.400009155273438
 31
0.0
  0
LINE
  5
22C
100
AcDbEntity
  8
0
  6
CONTINUOUS
 62
               7
100
AcDbLine
 10
7.8489776259048085
 20
36.198934770074629
 30
0.0
 11
9.0510678663522413
 21
37.401024909193438
 31
0.0
  0
LINE
  5
22D
100
AcDbEntity
  8
0
  6
CONTINUOUS
 62
               7
100
AcDbLine
 10
1.4489798427275673
 20
51.598921826493097
 30
0.0
 11
2.6510592935810564
 21
52.801001176018872
 31
0.0
  0
LINE
  5
22E
100
AcDbEntity
  8
0
  6
CONTINUOUS
 62
               7
100
AcDbLine
 10
1.4489430738185547
 20
52.801022928008024
 30
0.0
 11
2.6510225246720438
 21
51.598943578482249
 31
0.0
  0
LINE
  5
22F
100
AcDbEntity
  8
0
  6
CONTINUOUS
 62
               7
100
AcDbLine
 10
7.8489529447106179
 20
37.401047200663015
 30
0.0
 11
9.0510431851580506
 21
36.198957061544206
 31
0.0
  0
LINE
  5
230
100
AcDbEntity
  8
0
  6
CONTINUOUS
 62
               7
100
AcDbLine
 10
0.649993896484375
 20
60.0
 30
0.0
 11
9.850006103515625
 21
60.0
 31
0.0
  0
LINE
  5
231
100
AcDbEntity
  8
0
  6
CONTINUOUS
 62
               7
100
AcDbLine
 10
0.25
 20
59.600006103515625
 30
0.0
 11
10.25
 21
59.600006103515625
 31
0.0
  0
LINE
  5
232
100
AcDbEntity
  8
0
  6
CONTINUOUS
 62
               7
100
AcDbLine
 10
10.250021468569685
 20
59.600019261104535
 30
0.0
 11
9.8500184139675184
 21
60.000021371611183
 31
0.0
  0
LINE
  5
233
100
AcDbEntity
  8
0
  6
CONTINUOUS
 62
               7
100
AcDbLine
 10
0.6499883493961534
 20
60.000021687774279
 30
0.0
 11
0.2499972644873196
 21
59.600029186760366
 31
0.0
  0
LINE
  5
234
100
AcDbEntity
  8
0
  6
CONTINUOUS
 62
               7
100
AcDbLine
 10
10.25
 20
59.0
 30
0.0
 11
0.25
 21
59.0
 31
0.0
  0
LINE
  5
235
100
AcDbEntity
  8
0
  6
CONTINUOUS
 62
               7
100
AcDbLine
 10
10.25
 20
35.0
 30
0.0
 11
10.25
 21
59.600006103515625
 31
0.0
  0
LINE
  5
236
100
AcDbEntity
  8
0
  6
CONTINUOUS
 62
               7
100
AcDbLine
 10
0.25
 20
35.0
 30
0.0
 11
0.25
 21
59.600006103515625
 31
0.0
  0
LINE
  5
237
100
AcDbEntity
  8
0
  6
CONTINUOUS
 62
               7
100
AcDbLine
 10
0.0
 20
7.600006103515625
 30
0.0
 11
1.45001220703125
 21
7.600006103515625
 31
0.0
  0
LINE
  5
238
100
AcDbEntity
  8
0
  6
CONTINUOUS
 62
               7
100
AcDbLine
 10
2.850006103515625
 20
3.0
 30
0.0
 11
2.850006103515625
 21
6.1999969482421875
 31
0.0
  0
LINE
  5
239
100
AcDbEntity
  8
0
  6
CONTINUOUS
 62
               7
100
AcDbLine
 10
7.649993896484375
 20
31.800003051757813
 30
0.0
 11
7.649993896484375
 21
35.0
 31
0.0
  0
LINE
  5
23A
100
AcDbEntity
  8
0
  6
CONTINUOUS
 62
               7
100
AcDbLine
 10
9.04998779296875
 20
30.400009155273438
 30
0.0
 11
10.5
 21
30.400009155273438
 31
0.0
  0
LINE
  5
23B
100
AcDbEntity
  8
0
  6
CONTINUOUS
 62
               7
100
AcDbLine
 10
10.5
 20
35.0
 30
0.0
 11
10.5
 21
1.0
 31
0.0
  0
LINE
  5
23C
100
AcDbEntity
  8
0
  6
CONTINUOUS
 62
               2
100
AcDbLine
 10
5.25
 20
-0.829620361328125
 30
0.0
 11
5.25
 21
61.66485595703125
 31
0.0
  0
LINE
  5
23D
100
AcDbEntity
  8
0
  6
CONTINUOUS
 62
               7
100
AcDbLine
 10
10.25
 20
3.20001220703125
 30
0.0
 11
10.25
 21
30.199996948242188
 31
0.0
  0
LINE
  5
23E
100
AcDbEntity
  8
0
  6
CONTINUOUS
 62
               7
100
AcDbLine
 10
3.0500030517578125
 20
3.20001220703125
 30
0.0
 11
10.25
 21
3.20001220703125
 31
0.0
  0
LINE
  5
23F
100
AcDbEntity
  8
0
  6
CONTINUOUS
 62
               7
100
AcDbLine
 10
0.25
 20
34.800003051757813
 30
0.0
 11
7.4499969482421875
 21
34.800003051757813
 31
0.0
  0
LINE
  5
240
100
AcDbEntity
  8
0
  6
CONTINUOUS
 62
               7
100
AcDbLine
 10
7.4499969482421875
 20
31.800003051757813
 30
0.0
 11
7.4499969482421875
 21
34.800003051757813
 31
0.0
  0
LINE
  5
241
100
AcDbEntity
  8
0
  6
CONTINUOUS
 62
               7
100
AcDbLine
 10
3.0500030517578125
 20
6.1999969482421875
 30
0.0
 11
3.0500030517578125
 21
3.20001220703125
 31
0.0
  0
LINE
  5
242
100
AcDbEntity
  8
0
  6
CONTINUOUS
 62
               7
100
AcDbLine
 10
1.4499969482421875
 20
7.8000030517578125
 30
0.0
 11
0.25
 21
7.8000030517578125
 31
0.0
  0
LINE
  5
243
100
AcDbEntity
  8
0
  6
CONTINUOUS
 62
               7
100
AcDbLine
 10
9.04998779296875
 20
30.199996948242188
 30
0.0
 11
10.25
 21
30.199996948242188
 31
0.0
  0
LINE
  5
244
100
AcDbEntity
  8
0
  6
CONTINUOUS
 62
               7
100
AcDbLine
 10
7.6489608667353082
 20
5.3989699716919404
 30
0.0
 11
8.8510403175887973
 21
6.6010493212177153
 31
0.0
  0
LINE
  5
245
100
AcDbEntity
  8
0
  6
CONTINUOUS
 62
               7
100
AcDbLine
 10
7.6489379809954841
 20
6.6010427252348336
 30
0.0
 11
8.8510168839399057
 21
5.3989639236180551
 31
0.0
  0
LINE
  5
246
100
AcDbEntity
  8
0
  6
CONTINUOUS
 62
               7
100
AcDbLine
 10
0.25
 20
7.8000030517578125
 30
0.0
 11
0.25
 21
34.800003051757813
 31
0.0
  0
LINE
  5
247
100
AcDbEntity
  8
0
  6
CONTINUOUS
 62
               7
100
AcDbLine
 10
1.6489506196885486
 20
32.601015746393387
 30
0.0
 11
2.8510300705420377
 21
31.398936396867612
 31
0.0
  0
LINE
  5
248
100
AcDbEntity
  8
0
  6
CONTINUOUS
 62
               7
100
AcDbLine
 10
1.648953317086125
 20
31.398968575987965
 30
0.0
 11
2.8510435575335578
 21
32.601058715106774
 31
0.0
  0
LINE
  5
249
100
AcDbEntity
  8
0
  6
CONTINUOUS
 62
               7
100
AcDbLine
 10
0.0
 20
3.0
 30
0.0
 11
10.5
 21
3.0
 31
0.0
  0
LINE
  5
24A
100
AcDbEntity
  8
0
  6
CONTINUOUS
 62
               7
100
AcDbLine
 10
0.0
 20
0.0
 30
0.0
 11
10.5
 21
0.0
 31
0.0
  0
LINE
  5
24B
100
AcDbEntity
  8
0
  6
CONTINUOUS
 62
               7
100
AcDbLine
 10
10.5
 20
1.0
 30
0.0
 11
0.0
 21
1.0
 31
0.0
  0
LINE
  5
24C
100
AcDbEntity
  8
0
  6
CONTINUOUS
 62
               7
100
AcDbLine
 10
10.5
 20
35.0
 30
0.0
 11
0.0
 21
35.0
 31
0.0
  0
CIRCLE
  5
24D
100
AcDbEntity
  8
0
  6
CONTINUOUS
 62
               7
100
AcDbCircle
 10
8.4499969482421875
 20
36.800003051757813
 30
0.0
 40
1.25
  0
CIRCLE
  5
24E
100
AcDbEntity
  8
0
  6
CONTINUOUS
 62
               7
100
AcDbCircle
 10
2.0500030517578125
 20
52.20001220703125
 30
0.0
 40
1.25
  0
ARC
  5
24F
100
AcDbEntity
  8
0
  6
CONTINUOUS
 62
               7
100
AcDbCircle
 10
8.4499969482421875
 20
36.800003051757813
 30
0.0
 40
1.5999994277954102
100
AcDbArc
 50
89.999982013910653
 51
179.99996402782131
  0
ARC
  5
250
100
AcDbEntity
  8
0
  6
CONTINUOUS
 62
               7
100
AcDbCircle
 10
2.0500030517578125
 20
52.20001220703125
 30
0.0
 40
1.5999984741210938
100
AcDbArc
 50
270.00001798608935
 51
89.999982013910653
  0
ARC
  5
251
100
AcDbEntity
  8
0
  6
CONTINUOUS
 62
               7
100
AcDbCircle
 10
1.45001220703125
 20
6.1999969482421875
 30
0.0
 40
1.3999996185302734
100
AcDbArc
 50
0.0
 51
89.999982013910653
  0
ARC
  5
252
100
AcDbEntity
  8
0
  6
CONTINUOUS
 62
               7
100
AcDbCircle
 10
9.04998779296875
 20
31.800003051757813
 30
0.0
 40
1.3999996185302734
100
AcDbArc
 50
179.99998133066532
 51
270.00001798608935
  0
ARC
  5
253
100
AcDbEntity
  8
0
  6
CONTINUOUS
 62
               7
100
AcDbCircle
 10
9.04998779296875
 20
31.800003051757813
 30
0.0
 40
1.5999994277954102
100
AcDbArc
 50
179.99996402782131
 51
270.00000068324533
  0
ARC
  5
254
100
AcDbEntity
  8
0
  6
CONTINUOUS
 62
               7
100
AcDbCircle
 10
0.649993896484375
 20
59.599990844726562
 30
0.0
 40
0.3999999761581421
100
AcDbArc
 50
89.999982013910653
 51
179.99996402782131
  0
ARC
  5
255
100
AcDbEntity
  8
0
  6
CONTINUOUS
 62
               7
100
AcDbCircle
 10
9.850006103515625
 20
59.599990844726562
 30
0.0
 40
0.3999999761581421
100
AcDbArc
 50
0.0
 51
89.999982013910653
  0
CIRCLE
  5
256
100
AcDbEntity
  8
0
  6
CONTINUOUS
 62
               7
100
AcDbCircle
 10
2.2499990463256836
 20
32.000015258789063
 30
0.0
 40
1.25
  0
CIRCLE
  5
257
100
AcDbEntity
  8
0
  6
CONTINUOUS
 62
               7
100
AcDbCircle
 10
8.2499856948852539
 20
5.9999942779541016
 30
0.0
 40
1.25
  0
ARC
  5
258
100
AcDbEntity
  8
0
  6
CONTINUOUS
 62
               7
100
AcDbCircle
 10
1.45001220703125
 20
6.1999969482421875
 30
0.0
 40
1.5899991989135742
100
AcDbArc
 50
0.0
 51
89.999982013910653
  0
ENDBLK
  5
259
100
AcDbEntity
  8
0
100
AcDbBlockEnd
  0
BLOCK
  5
25A
100
AcDbEntity
  8
0
100
AcDbBlockBegin
  2
F10MS-4
 70
               0
 10
0.0
 20
0.0
 30
0.0
  3
F10MS-4
  1

  0
LINE
  5
25B
100
AcDbEntity
  8
0
  6
CONTINUOUS
 62
               2
100
AcDbLine
 10
9.5
 20
-33.476180600126327
 30
0.0
 11
9.5
 21
63.353819399873672
 31
0.0
  0
LINE
  5
25D
100
AcDbEntity
  8
0
  6
CENTER
 62
             200
100
AcDbLine
 10
-1.0
 20
17.023819399873673
 30
0.0
 11
20.0
 21
17.023819399873673
 31
0.0
  0
LINE
  5
25E
100
AcDbEntity
  8
0
  6
CONTINUOUS
 62
               7
100
AcDbLine
 10
0.4999570153231616
 20
-15.276189303041292
 30
0.0
 11
2.9999570153231616
 21
-15.276189303041292
 31
0.0
  0
LINE
  5
25F
100
AcDbEntity
  8
0
  6
CONTINUOUS
 62
               7
100
AcDbLine
 10
0.4999570153231616
 20
-9.6761984583147296
 30
0.0
 11
2.9999570153231616
 21
-9.6761984583147296
 31
0.0
  0
LINE
  5
260
100
AcDbEntity
  8
0
  6
CONTINUOUS
 62
               7
100
AcDbLine
 10
15.999957015323162
 20
24.723810696958708
 30
0.0
 11
18.499957015323162
 21
24.723810696958708
 31
0.0
  0
LINE
  5
261
100
AcDbEntity
  8
0
  6
CONTINUOUS
 62
               7
100
AcDbLine
 10
15.999957015323162
 20
30.323816800474333
 30
0.0
 11
18.499957015323162
 21
30.323816800474333
 31
0.0
  0
LINE
  5
262
100
AcDbEntity
  8
0
  6
CONTINUOUS
 62
               4
100
AcDbLine
 10
13.221160531044006
 20
-10.115926562281913
 30
0.0
 11
18.5
 21
-10.115926562281913
 31
0.0
  0
CIRCLE
  5
263
100
AcDbEntity
  8
0
  6
CONTINUOUS
 62
               4
100
AcDbCircle
 10
9.5
 20
-1.9761806001263267
 30
0.0
 40
8.9499999999999993
  0
ARC
  5
264
100
AcDbEntity
  8
0
  6
CONTINUOUS
 62
               4
100
AcDbCircle
 10
9.5
 20
-1.9761806001263267
 30
0.0
 40
8.4000000000000004
100
AcDbArc
 50
7.1848403149542639
 51
172.81515968504576
  0
ARC
  5
265
100
AcDbEntity
  8
0
  6
CONTINUOUS
 62
               4
100
AcDbCircle
 10
9.5
 20
17.023819399873673
 30
0.0
 40
8.4000000000000004
100
AcDbArc
 50
187.18484031495424
 51
352.81515968504578
  0
ARC
  5
266
100
AcDbEntity
  8
0
  6
CONTINUOUS
 62
               4
100
AcDbCircle
 10
9.5
 20
-1.9761806001263267
 30
0.0
 40
8.4000000000000004
100
AcDbArc
 50
187.18484031495424
 51
352.81515968504578
  0
CIRCLE
  5
267
100
AcDbEntity
  8
0
  6
CONTINUOUS
 62
               4
100
AcDbCircle
 10
9.5
 20
17.023819399873673
 30
0.0
 40
8.9499999999999993
  0
ARC
  5
268
100
AcDbEntity
  8
0
  6
CONTINUOUS
 62
               4
100
AcDbCircle
 10
9.5
 20
17.023819399873673
 30
0.0
 40
8.4000000000000004
100
AcDbArc
 50
7.1848403149542639
 51
172.81515968504576
  0
LINE
  5
269
100
AcDbEntity
  8
0
  6
CONTINUOUS
 62
               4
100
AcDbLine
 10
0.5
 20
25.16356536202926
 30
0.0
 11
5.7788394724800582
 21
25.16356536202926
 31
0.0
  0
LINE
  5
26A
100
AcDbEntity
  8
0
  6
CONTINUOUS
 62
             200
100
AcDbLine
 10
-1.0
 20
17.023819399873673
 30
0.0
 11
20.0
 21
17.023819399873673
 31
0.0
  0
CIRCLE
  5
26B
100
AcDbEntity
  8
0
  6
CONTINUOUS
 62
               4
100
AcDbCircle
 10
3.0
 20
29.523834658662736
 30
0.0
 40
2.7999992370605469
  0
ARC
  5
26C
100
AcDbEntity
  8
0
  6
CONTINUOUS
 62
               7
100
AcDbCircle
 10
1.75
 20
-30.476165341337264
 30
0.0
 40
1.5
100
AcDbArc
 50
180.00003597217869
 51
270.00001798608935
  0
CIRCLE
  5
26D
100
AcDbEntity
  8
0
  6
CONTINUOUS
 62
               4
100
AcDbCircle
 10
16.0
 20
-14.476165341337264
 30
0.0
 40
2.7999992370605469
  0
LINE
  5
26E
100
AcDbEntity
  8
0
  6
CONTINUOUS
 62
               7
100
AcDbLine
 10
0.0
 20
-26.976165341337264
 30
0.0
 11
19.0
 21
-26.976165341337264
 31
0.0
  0
LINE
  5
26F
100
AcDbEntity
  8
0
  6
CONTINUOUS
 62
               7
100
AcDbLine
 10
18.5
 20
-31.976165341337264
 30
0.0
 11
1.75
 21
-31.976165341337264
 31
0.0
  0
LINE
  5
270
100
AcDbEntity
  8
0
  6
CONTINUOUS
 62
               7
100
AcDbLine
 10
18.5
 20
-29.976165341337264
 30
0.0
 11
0.25
 21
-29.976165341337264
 31
0.0
  0
LINE
  5
271
100
AcDbEntity
  8
0
  6
CONTINUOUS
 62
               4
100
AcDbLine
 10
14.939378533404579
 20
-13.415459185132249
 30
0.0
 11
17.060693445862853
 21
-15.536774276404003
 31
0.0
  0
LINE
  5
272
100
AcDbEntity
  8
0
  6
CONTINUOUS
 62
               4
100
AcDbLine
 10
14.939362259604422
 20
-15.536849714151003
 30
0.0
 11
17.060682745673148
 21
-13.415529406896212
 31
0.0
  0
LINE
  5
273
100
AcDbEntity
  8
0
  6
CONTINUOUS
 62
               4
100
AcDbLine
 10
16.0
 20
-11.476180600126327
 30
0.0
 11
18.5
 21
-11.476180600126327
 31
0.0
  0
LINE
  5
274
100
AcDbEntity
  8
0
  6
CONTINUOUS
 62
             200
100
AcDbLine
 10
-1.0
 20
-1.9761806001263267
 30
0.0
 11
20.0
 21
-1.9761806001263267
 31
0.0
  0
LINE
  5
275
100
AcDbEntity
  8
0
  6
CONTINUOUS
 62
               4
100
AcDbLine
 10
3.0
 20
26.523819399873673
 30
0.0
 11
0.5
 21
26.523819399873673
 31
0.0
  0
LINE
  5
276
100
AcDbEntity
  8
0
  6
CONTINUOUS
 62
               4
100
AcDbLine
 10
0.5
 20
-9.4761806001263267
 30
0.0
 11
3.0
 21
-9.4761806001263267
 31
0.0
  0
LINE
  5
277
100
AcDbEntity
  8
0
  6
CONTINUOUS
 62
               4
100
AcDbLine
 10
0.5
 20
-15.476180600126327
 30
0.0
 11
3.0
 21
-15.476180600126327
 31
0.0
  0
LINE
  5
278
100
AcDbEntity
  8
0
  6
CONTINUOUS
 62
               4
100
AcDbLine
 10
16.0
 20
24.523819399873673
 30
0.0
 11
18.5
 21
24.523819399873673
 31
0.0
  0
LINE
  5
279
100
AcDbEntity
  8
0
  6
CONTINUOUS
 62
               4
100
AcDbLine
 10
16.0
 20
30.523819399873673
 30
0.0
 11
18.5
 21
30.523819399873673
 31
0.0
  0
LINE
  5
27A
100
AcDbEntity
  8
0
  6
CONTINUOUS
 62
               4
100
AcDbLine
 10
0.5
 20
-18.776183651884139
 30
0.0
 11
18.5
 21
-18.776183651884139
 31
0.0
  0
LINE
  5
27B
100
AcDbEntity
  8
0
  6
CONTINUOUS
 62
               4
100
AcDbLine
 10
0.5
 20
33.823807192842423
 30
0.0
 11
18.5
 21
33.823807192842423
 31
0.0
  0
LINE
  5
27C
100
AcDbEntity
  8
0
  6
CONTINUOUS
 62
               7
100
AcDbLine
 10
0.0
 20
34.023834658662736
 30
0.0
 11
19.0
 21
34.023834658662736
 31
0.0
  0
LINE
  5
27D
100
AcDbEntity
  8
0
  6
CONTINUOUS
 62
               7
100
AcDbLine
 10
0.0
 20
60.023834658662736
 30
0.0
 11
19.0
 21
60.023834658662736
 31
0.0
  0
LINE
  5
27E
100
AcDbEntity
  8
0
  6
CONTINUOUS
 62
               7
100
AcDbLine
 10
0.0
 20
61.023834658662736
 30
0.0
 11
19.0
 21
61.023834658662736
 31
0.0
  0
LINE
  5
27F
100
AcDbEntity
  8
0
  6
CONTINUOUS
 62
               7
100
AcDbLine
 10
0.0
 20
-18.976165341337264
 30
0.0
 11
19.0
 21
-18.976165341337264
 31
0.0
  0
LINE
  5
280
100
AcDbEntity
  8
0
  6
CONTINUOUS
 62
               7
100
AcDbLine
 10
0.0
 20
59.523834658662736
 30
0.0
 11
19.0
 21
59.523834658662736
 31
0.0
  0
LINE
  5
281
100
AcDbEntity
  8
0
  6
CONTINUOUS
 62
               4
100
AcDbLine
 10
6.0
 20
29.523834658662736
 30
0.0
 11
6.0
 21
33.823822451631486
 31
0.0
  0
LINE
  5
282
100
AcDbEntity
  8
0
  6
CONTINUOUS
 62
               4
100
AcDbLine
 10
13.0
 20
-14.476165341337264
 30
0.0
 11
13.0
 21
-18.776183651884139
 31
0.0
  0
LINE
  5
283
100
AcDbEntity
  8
0
  6
CONTINUOUS
 62
               7
100
AcDbLine
 10
5.75
 20
-30.476165341337264
 30
0.0
 11
5.75
 21
-29.976165341337264
 31
0.0
  0
LINE
  5
284
100
AcDbEntity
  8
0
  6
CONTINUOUS
 62
               7
100
AcDbLine
 10
6.0
 20
-31.976165341337264
 30
0.0
 11
6.0
 21
-29.976165341337264
 31
0.0
  0
LINE
  5
285
100
AcDbEntity
  8
0
  6
CONTINUOUS
 62
               4
100
AcDbLine
 10
1.9393714340903898
 20
30.584562953194791
 30
0.0
 11
4.0606917413451811
 21
28.463242467126065
 31
0.0
  0
LINE
  5
286
100
AcDbEntity
  8
0
  6
CONTINUOUS
 62
               4
100
AcDbLine
 10
1.9392958175239983
 20
28.463123871007838
 30
0.0
 11
4.0606163035927239
 21
30.584444178262629
 31
0.0
  0
ARC
  5
287
100
AcDbEntity
  8
0
  6
CONTINUOUS
 62
               4
100
AcDbCircle
 10
16.0
 20
27.523834658662736
 30
0.0
 40
3.0
100
AcDbArc
 50
89.999982013910653
 51
269.99994604173196
  0
ARC
  5
288
100
AcDbEntity
  8
0
  6
CONTINUOUS
 62
               4
100
AcDbCircle
 10
3.0
 20
-12.476165341337264
 30
0.0
 40
3.0
100
AcDbArc
 50
269.99996334457597
 51
89.999982013910653
  0
ARC
  5
289
100
AcDbEntity
  8
0
  6
CONTINUOUS
 62
               4
100
AcDbCircle
 10
3.0
 20
29.523834658662736
 30
0.0
 40
3.0
100
AcDbArc
 50
270.00001798608935
 51
0.00001366037834
  0
ARC
  5
28A
100
AcDbEntity
  8
0
  6
CONTINUOUS
 62
               4
100
AcDbCircle
 10
16.0
 20
-14.476165341337264
 30
0.0
 40
3.0
100
AcDbArc
 50
89.999982013910653
 51
179.99996402782131
  0
ARC
  5
28B
100
AcDbEntity
  8
0
  6
CONTINUOUS
 62
               7
100
AcDbCircle
 10
4.25
 20
-30.476165341337264
 30
0.0
 40
1.5
100
AcDbArc
 50
270.00001798608935
 51
359.99995901886496
  0
CIRCLE
  5
28C
100
AcDbEntity
  8
0
  6
CONTINUOUS
 62
               4
100
AcDbCircle
 10
9.5
 20
17.023819399873673
 30
0.0
 40
4.0499999999999998
  0
CIRCLE
  5
28D
100
AcDbEntity
  8
0
  6
CONTINUOUS
 62
               4
100
AcDbCircle
 10
9.5
 20
17.023819399873673
 30
0.0
 40
5.0499999999999998
  0
CIRCLE
  5
28E
100
AcDbEntity
  8
0
  6
CONTINUOUS
 62
               4
100
AcDbCircle
 10
9.5
 20
-1.9761806001263267
 30
0.0
 40
5.0499999999999998
  0
CIRCLE
  5
28F
100
AcDbEntity
  8
0
  6
CONTINUOUS
 62
               4
100
AcDbCircle
 10
9.5
 20
-1.9761806001263267
 30
0.0
 40
4.0499999999999998
  0
LINE
  5
290
100
AcDbEntity
  8
0
  6
CONTINUOUS
 62
               4
100
AcDbLine
 10
13.221160527519828
 20
25.16356536202926
 30
0.0
 11
14.148214148469378
 21
25.16356536202926
 31
0.0
  0
LINE
  5
291
100
AcDbEntity
  8
0
  6
CONTINUOUS
 62
               4
100
AcDbLine
 10
1.5999999999999091
 20
17.823819399873656
 30
0.0
 11
1.1659582443094223
 21
18.07441352436112
 31
0.0
  0
LINE
  5
292
100
AcDbEntity
  8
0
  6
CONTINUOUS
 62
               4
100
AcDbLine
 10
1.5999999999999091
 20
16.22381939987369
 30
0.0
 11
1.1659582443094223
 21
15.973225275386227
 31
0.0
  0
LINE
  5
293
100
AcDbEntity
  8
0
  6
CONTINUOUS
 62
               4
100
AcDbLine
 10
1.5999999999999091
 20
-2.7761806001263238
 30
0.0
 11
1.1659582443094223
 21
-3.0267747246137588
 31
0.0
  0
LINE
  5
294
100
AcDbEntity
  8
0
  6
CONTINUOUS
 62
               4
100
AcDbLine
 10
1.5999999999999091
 20
-1.1761806001263153
 30
0.0
 11
1.1659582443094223
 21
-0.9255864756388803
 31
0.0
  0
LINE
  5
295
100
AcDbEntity
  8
0
  6
CONTINUOUS
 62
               4
100
AcDbLine
 10
1.5999999999999091
 20
-2.7761806001263238
 30
0.0
 11
1.5999999999999091
 21
-1.1761806060867883
 31
0.0
  0
ARC
  5
296
100
AcDbEntity
  8
0
  6
CONTINUOUS
 62
               4
100
AcDbCircle
 10
10.549999999999955
 20
7.2140315845840917
 30
0.0
 40
0.3
100
AcDbArc
 50
180.0
 51
263.48210579102283
  0
ARC
  5
297
100
AcDbEntity
  8
0
  6
CONTINUOUS
 62
               4
100
AcDbCircle
 10
10.549999999999955
 20
7.833607215163255
 30
0.0
 40
0.3
100
AcDbArc
 50
96.517894208978589
 51
180.0
  0
ARC
  5
298
100
AcDbEntity
  8
0
  6
CONTINUOUS
 62
               4
100
AcDbCircle
 10
8.4500000000000455
 20
7.2140315845840917
 30
0.0
 40
0.3
100
AcDbArc
 50
276.51789420897717
 51
0.0
  0
ARC
  5
299
100
AcDbEntity
  8
0
  6
CONTINUOUS
 62
               4
100
AcDbCircle
 10
8.4500000000000455
 20
7.833607215163255
 30
0.0
 40
0.3
100
AcDbArc
 50
0.0
 51
83.482105791022747
  0
LINE
  5
29A
100
AcDbEntity
  8
0
  6
CONTINUOUS
 62
               4
100
AcDbLine
 10
8.75
 20
7.2140315845840917
 30
0.0
 11
8.75
 21
7.833607215163255
 31
0.0
  0
LINE
  5
29B
100
AcDbEntity
  8
0
  6
CONTINUOUS
 62
               4
100
AcDbLine
 10
10.25
 20
7.2140315845840917
 30
0.0
 11
10.25
 21
7.833607215163255
 31
0.0
  0
LINE
  5
29C
100
AcDbEntity
  8
0
  6
CONTINUOUS
 62
               4
100
AcDbLine
 10
1.5999999999999091
 20
16.22381939987369
 30
0.0
 11
1.5999999999999091
 21
17.823819393913226
 31
0.0
  0
LINE
  5
29D
100
AcDbEntity
  8
0
  6
CONTINUOUS
 62
               4
100
AcDbLine
 10
4.851834472360224
 20
-10.115926562281913
 30
0.0
 11
5.7788394689559937
 21
-10.115926562281913
 31
0.0
  0
ARC
  5
29E
100
AcDbEntity
  8
0
  6
CONTINUOUS
 62
               7
100
AcDbCircle
 10
15.999957015323162
 20
27.52381374871652
 30
0.0
 40
2.7999992370605469
100
AcDbArc
 50
89.999982013910653
 51
270.00000068324533
  0
ARC
  5
29F
100
AcDbEntity
  8
0
  6
CONTINUOUS
 62
               7
100
AcDbCircle
 10
2.9999570153231616
 20
-12.47618625128348
 30
0.0
 40
2.7999992370605469
100
AcDbArc
 50
270.00001798608935
 51
89.999982013910653
  0
LINE
  5
2A0
100
AcDbEntity
  8
0
  6
CONTINUOUS
 62
               4
100
AcDbLine
 10
0.5
 20
-9.4761806001263267
 30
0.0
 11
0.5
 21
28.262878848115861
 31
0.0
  0
LINE
  5
2A1
100
AcDbEntity
  8
0
  6
CONTINUOUS
 62
               7
100
AcDbLine
 10
0.5
 20
-29.976165341337264
 30
0.0
 11
0.5
 21
-26.976165341337264
 31
0.0
  0
LINE
  5
2A2
100
AcDbEntity
  8
0
  6
CONTINUOUS
 62
               7
100
AcDbLine
 10
0.0
 20
-26.976165341337264
 30
0.0
 11
0.0
 21
61.023834658662736
 31
0.0
  0
LINE
  5
2A3
100
AcDbEntity
  8
0
  6
CONTINUOUS
 62
               7
100
AcDbLine
 10
0.25
 20
-30.476165341337264
 30
0.0
 11
0.25
 21
-29.976165341337264
 31
0.0
  0
LINE
  5
2A4
100
AcDbEntity
  8
0
  6
CONTINUOUS
 62
               7
100
AcDbLine
 10
18.5
 20
-31.976165341337264
 30
0.0
 11
18.5
 21
-26.976165341337264
 31
0.0
  0
LINE
  5
2A5
100
AcDbEntity
  8
0
  6
CONTINUOUS
 62
               4
100
AcDbLine
 10
18.5
 20
-18.776183651884139
 30
0.0
 11
18.5
 21
-15.737121151884139
 31
0.0
  0
LINE
  5
2A6
100
AcDbEntity
  8
0
  6
CONTINUOUS
 62
               4
100
AcDbLine
 10
18.5
 20
-13.215209530790389
 30
0.0
 11
18.5
 21
24.523819399873673
 31
0.0
  0
LINE
  5
2A7
100
AcDbEntity
  8
0
  6
CONTINUOUS
 62
               7
100
AcDbLine
 10
19.0
 20
-26.976165341337264
 30
0.0
 11
19.0
 21
61.023834658662764
 31
0.0
  0
LINE
  5
2A8
100
AcDbEntity
  8
0
  6
CONTINUOUS
 62
               4
100
AcDbLine
 10
18.5
 20
30.523819399873673
 30
0.0
 11
18.5
 21
33.823807192842423
 31
0.0
  0
LINE
  5
2A9
100
AcDbEntity
  8
0
  6
CONTINUOUS
 62
               4
100
AcDbLine
 10
17.399999999999977
 20
16.22381939987369
 30
0.0
 11
17.399999999999977
 21
17.823819393913226
 31
0.0
  0
LINE
  5
2AA
100
AcDbEntity
  8
0
  6
CONTINUOUS
 62
               4
100
AcDbLine
 10
17.399999999999977
 20
16.22381939987369
 30
0.0
 11
17.834041755690464
 21
15.973225275386227
 31
0.0
  0
LINE
  5
2AB
100
AcDbEntity
  8
0
  6
CONTINUOUS
 62
               4
100
AcDbLine
 10
17.399999999999977
 20
17.823819399873656
 30
0.0
 11
17.834041755690464
 21
18.07441352436112
 31
0.0
  0
LINE
  5
2AC
100
AcDbEntity
  8
0
  6
CONTINUOUS
 62
               4
100
AcDbLine
 10
17.399999999999977
 20
-2.7761806001263238
 30
0.0
 11
17.399999999999977
 21
-1.1761806060867883
 31
0.0
  0
LINE
  5
2AD
100
AcDbEntity
  8
0
  6
CONTINUOUS
 62
               4
100
AcDbLine
 10
17.399999999999977
 20
-2.7761806001263238
 30
0.0
 11
17.834041755690464
 21
-3.0267747246137588
 31
0.0
  0
LINE
  5
2AE
100
AcDbEntity
  8
0
  6
CONTINUOUS
 62
               4
100
AcDbLine
 10
17.399999999999977
 20
-1.1761806001263153
 30
0.0
 11
17.834041755690464
 21
-0.9255864756388803
 31
0.0
  0
LINE
  5
2AF
100
AcDbEntity
  8
0
  6
CONTINUOUS
 62
               7
100
AcDbLine
 10
18.499957015323162
 20
24.723810696958708
 30
0.0
 11
18.499957015323162
 21
30.323816800474333
 31
0.0
  0
LINE
  5
2B0
100
AcDbEntity
  8
0
  6
CONTINUOUS
 62
               4
100
AcDbLine
 10
0.5
 20
30.784790469209611
 30
0.0
 11
0.5
 21
33.823807192842423
 31
0.0
  0
LINE
  5
2B1
100
AcDbEntity
  8
0
  6
CONTINUOUS
 62
               7
100
AcDbLine
 10
0.4999570153231616
 20
-9.6761984583147296
 30
0.0
 11
0.4999570153231616
 21
-15.276189303041292
 31
0.0
  0
LINE
  5
2B2
100
AcDbEntity
  8
0
  6
CONTINUOUS
 62
               4
100
AcDbLine
 10
0.5
 20
-15.476180600126327
 30
0.0
 11
0.5
 21
-18.776183651884139
 31
0.0
  0
ENDBLK
  5
2B3
100
AcDbEntity
  8
0
100
AcDbBlockEnd
  0
BLOCK
  5
2B4
100
AcDbEntity
  8
0
100
AcDbBlockBegin
  2
F10MS-5
 70
               0
 10
0.0
 20
0.0
 30
0.0
  3
F10MS-5
  1

  0
LINE
  5
2B5
100
AcDbEntity
  8
0
  6
CONTINUOUS
 62
               2
100
AcDbLine
 10
-7.4997558593728968
 20
0.0
 30
0.0
 11
7.5002441406271032
 21
0.0
 31
0.0
  0
LINE
  5
2B6
100
AcDbEntity
  8
0
  6
DASHED
 62
               2
100
AcDbLine
 10
6.5
 20
14.5
 30
0.0
 11
6.5
 21
16.429289321881299
 31
0.0
  0
LINE
  5
2B7
100
AcDbEntity
  8
0
  6
DASHED
 62
               2
100
AcDbLine
 10
0.0
 20
14.5
 30
0.0
 11
6.5
 21
14.5
 31
0.0
  0
LINE
  5
2B8
100
AcDbEntity
  8
0
  6
DASHED
 62
               2
100
AcDbLine
 10
2.8500000000000227
 20
20.168330610420711
 30
0.0
 11
1.0
 21
21.03099977800747
 31
0.0
  0
LINE
  5
2B9
100
AcDbEntity
  8
0
  6
DASHED
 62
               2
100
AcDbLine
 10
2.8500000000000227
 20
20.168330610420725
 30
0.0
 11
2.8500000000000227
 21
18.0
 31
0.0
  0
LINE
  5
2BA
100
AcDbEntity
  8
0
  6
DASHED
 62
               2
100
AcDbLine
 10
5.916352299152436
 20
16.0
 30
0.0
 11
4.8500000000000227
 21
16.0
 31
0.0
  0
ARC
  5
2BB
100
AcDbEntity
  8
0
  6
DASHED
 62
               2
100
AcDbCircle
 10
4.8500000000000227
 20
18.0
 30
0.0
 40
2.0
100
AcDbArc
 50
180.0
 51
270.0
  0
ARC
  5
2BC
100
AcDbEntity
  8
0
  6
DASHED
 62
               2
100
AcDbCircle
 10
5.916352299152436
 20
16.5
 30
0.0
 40
0.5
100
AcDbArc
 50
270.0
 51
351.86989764584399
  0
LINE
  5
2BD
100
AcDbEntity
  8
0
  6
DASHED
 62
               2
100
AcDbLine
 10
6.5
 20
-17.049999999999955
 30
0.0
 11
6.4113270459830574
 21
-16.429289321881356
 31
0.0
  0
LINE
  5
2BE
100
AcDbEntity
  8
0
  6
DASHED
 62
               2
100
AcDbLine
 10
3.20001220703125
 20
-28.699996948242188
 30
0.0
 11
3.20001220703125
 21
-30.5
 31
0.0
  0
LINE
  5
2BF
100
AcDbEntity
  8
0
  6
DASHED
 62
               2
100
AcDbLine
 10
3.2000045776367187
 20
-28.700004577636719
 30
0.0
 11
3.0
 21
-28.5
 31
0.0
  0
LINE
  5
2C0
100
AcDbEntity
  8
0
  6
DASHED
 62
               2
100
AcDbLine
 10
3.20001220703125
 20
-30.5
 30
0.0
 11
3.5000000000013642
 21
-30.5
 31
0.0
  0
LINE
  5
2C1
100
AcDbEntity
  8
0
  6
DASHED
 62
               2
100
AcDbLine
 10
6.5
 20
-17.049999999999955
 30
0.0
 11
6.5
 21
-14.5
 31
0.0
  0
LINE
  5
2C2
100
AcDbEntity
  8
0
  6
DASHED
 62
               2
100
AcDbLine
 10
0.0
 20
-14.5
 30
0.0
 11
6.5
 21
-14.5
 31
0.0
  0
LINE
  5
2C3
100
AcDbEntity
  8
0
  6
DASHED
 62
               2
100
AcDbLine
 10
1.0000000000001137
 20
-23.5
 30
0.0
 11
1.0000000000001137
 21
-21.03099977800747
 31
0.0
  0
LINE
  5
2C4
100
AcDbEntity
  8
0
  6
DASHED
 62
               2
100
AcDbLine
 10
1.0000000000001137
 20
-23.5
 30
0.0
 11
3.0
 21
-25.5
 31
0.0
  0
LINE
  5
2C5
100
AcDbEntity
  8
0
  6
DASHED
 62
               2
100
AcDbLine
 10
2.8500000000000227
 20
-20.168330610420696
 30
0.0
 11
1.0
 21
-21.03099977800747
 31
0.0
  0
LINE
  5
2C6
100
AcDbEntity
  8
0
  6
DASHED
 62
               2
100
AcDbLine
 10
5.916352299152436
 20
-16.0
 30
0.0
 11
4.8500000000000227
 21
-16.0
 31
0.0
  0
ARC
  5
2C7
100
AcDbEntity
  8
0
  6
DASHED
 62
               2
100
AcDbCircle
 10
4.8500000000000227
 20
-18.0
 30
0.0
 40
2.0
100
AcDbArc
 50
90.0
 51
180.0
  0
LINE
  5
2C8
100
AcDbEntity
  8
0
  6
DASHED
 62
               2
100
AcDbLine
 10
2.8500000000000227
 20
-18.0
 30
0.0
 11
2.8500000000000227
 21
-20.168330610420696
 31
0.0
  0
ARC
  5
2C9
100
AcDbEntity
  8
0
  6
DASHED
 62
               2
100
AcDbCircle
 10
5.916352299152436
 20
-16.5
 30
0.0
 40
0.5
100
AcDbArc
 50
8.1301023541559339
 51
90.000000000000014
  0
LINE
  5
2CA
100
AcDbEntity
  8
0
  6
DASHED
 62
               2
100
AcDbLine
 10
3.0
 20
-28.5
 30
0.0
 11
3.0
 21
-25.5
 31
0.0
  0
ARC
  5
2CB
100
AcDbEntity
  8
0
  6
DASHED
 62
               2
100
AcDbCircle
 10
10.500000000001364
 20
-32.0
 30
0.0
 40
3.0
100
AcDbArc
 50
150.00002466469778
 51
210.00001267397155
  0
LINE
  5
2CC
100
AcDbEntity
  8
0
  6
DASHED
 62
               2
100
AcDbLine
 10
3.5000000000013642
 20
-33.5
 30
0.0
 11
7.9019165039076142
 21
-33.5
 31
0.0
  0
LINE
  5
2CD
100
AcDbEntity
  8
0
  6
DASHED
 62
               2
100
AcDbLine
 10
3.5000000000013642
 20
-30.5
 30
0.0
 11
7.9019165039076142
 21
-30.5
 31
0.0
  0
LINE
  5
2CE
100
AcDbEntity
  8
0
  6
DASHED
 62
               2
100
AcDbLine
 10
3.5000000000013642
 20
-33.5
 30
0.0
 11
3.5000000000013642
 21
-45.0
 31
0.0
  0
LINE
  5
2CF
100
AcDbEntity
  8
0
  6
DASHED
 62
               2
100
AcDbLine
 10
0.0
 20
-14.5
 30
0.0
 11
0.0
 21
14.5
 31
0.0
  0
LINE
  5
2D0
100
AcDbEntity
  8
0
  6
DASHED
 62
               2
100
AcDbLine
 10
47.79998474121237
 20
-49.700000000000045
 30
0.0
 11
47.999984741212302
 21
-49.900000000000034
 31
0.0
  0
ARC
  5
2D1
100
AcDbEntity
  8
0
  6
DASHED
 62
               2
100
AcDbCircle
 10
73.800003051759177
 20
-44.5
 30
0.0
 40
0.5
100
AcDbArc
 50
270.00001798608935
 51
359.99998201391094
  0
LINE
  5
2D2
100
AcDbEntity
  8
0
  6
DASHED
 62
               2
100
AcDbLine
 10
73.800003051759177
 20
-45.0
 30
0.0
 11
66.000000000001364
 21
-45.0
 31
0.0
  0
LINE
  5
2D3
100
AcDbEntity
  8
0
  6
DASHED
 62
               2
100
AcDbLine
 10
42.500000000001364
 20
-48.5
 30
0.0
 11
43.000000000001364
 21
-48.5
 31
0.0
  0
LINE
  5
2D4
100
AcDbEntity
  8
0
  6
DASHED
 62
               2
100
AcDbLine
 10
41.000000000001364
 20
-47.0
 30
0.0
 11
41.000000000001364
 21
-45.0
 31
0.0
  0
LINE
  5
2D5
100
AcDbEntity
  8
0
  6
DASHED
 62
               2
100
AcDbLine
 10
66.000000000001364
 20
-47.0
 30
0.0
 11
66.000000000001364
 21
-45.0
 31
0.0
  0
LINE
  5
2D6
100
AcDbEntity
  8
0
  6
DASHED
 62
               2
100
AcDbLine
 10
44.199996948243552
 20
-49.699996948242188
 30
0.0
 11
62.800003051759177
 21
-49.699996948242188
 31
0.0
  0
ARC
  5
2D7
100
AcDbEntity
  8
0
  6
DASHED
 62
               2
100
AcDbCircle
 10
42.500000000001364
 20
-47.0
 30
0.0
 40
1.5
100
AcDbArc
 50
179.99998201391065
 51
270.00001866933468
  0
ARC
  5
2D8
100
AcDbEntity
  8
0
  6
DASHED
 62
               2
100
AcDbCircle
 10
64.500000000001364
 20
-47.0
 30
0.0
 40
1.5
100
AcDbArc
 50
270.00001866933468
 51
0.0000006832453318
  0
ARC
  5
2D9
100
AcDbEntity
  8
0
  6
DASHED
 62
               2
100
AcDbCircle
 10
44.199996948243552
 20
-48.5
 30
0.0
 40
1.1999998092651367
100
AcDbArc
 50
179.99998201391065
 51
270.00001866933468
  0
ARC
  5
2DA
100
AcDbEntity
  8
0
  6
DASHED
 62
               2
100
AcDbCircle
 10
62.800003051759177
 20
-48.5
 30
0.0
 40
1.1999998092651367
100
AcDbArc
 50
270.00001866933468
 51
0.0000006832453318
  0
LINE
  5
2DB
100
AcDbEntity
  8
0
  6
DASHED
 62
               2
100
AcDbLine
 10
64.000000000001364
 20
-48.5
 30
0.0
 11
64.500000000001364
 21
-48.5
 31
0.0
  0
LINE
  5
2DC
100
AcDbEntity
  8
0
  6
DASHED
 62
               2
100
AcDbLine
 10
74.300003051759177
 20
44.5
 30
0.0
 11
74.300003051759177
 21
-44.5
 31
0.0
  0
LINE
  5
2DD
100
AcDbEntity
  8
0
  6
DASHED
 62
               2
100
AcDbLine
 10
41.000000000001364
 20
-45.0
 30
0.0
 11
3.5000000000013642
 21
-45.0
 31
0.0
  0
ARC
  5
2DE
100
AcDbEntity
  8
0
  6
DASHED
 62
               2
100
AcDbCircle
 10
73.800003051759177
 20
44.5
 30
0.0
 40
0.5
100
AcDbArc
 50
359.99998201391094
 51
90.000036655424012
  0
LINE
  5
2DF
100
AcDbEntity
  8
0
  6
DASHED
 62
               2
100
AcDbLine
 10
73.800003051759177
 20
45.0
 30
0.0
 11
66.000000000001364
 21
45.0
 31
0.0
  0
LINE
  5
2E0
100
AcDbEntity
  8
0
  6
DASHED
 62
               2
100
AcDbLine
 10
66.000000000001364
 20
47.0
 30
0.0
 11
66.000000000001364
 21
45.0
 31
0.0
  0
ARC
  5
2E1
100
AcDbEntity
  8
0
  6
DASHED
 62
               2
100
AcDbCircle
 10
64.500000000001364
 20
47.0
 30
0.0
 40
1.5
100
AcDbArc
 50
359.99999931675467
 51
89.999981330665321
  0
ARC
  5
2E2
100
AcDbEntity
  8
0
  6
DASHED
 62
               2
100
AcDbCircle
 10
62.800003051759177
 20
48.5
 30
0.0
 40
1.1999998092651367
100
AcDbArc
 50
359.99999931675467
 51
89.999981330665321
  0
LINE
  5
2E3
100
AcDbEntity
  8
0
  6
DASHED
 62
               2
100
AcDbLine
 10
64.000000000001364
 20
48.5
 30
0.0
 11
64.500000000001364
 21
48.5
 31
0.0
  0
LINE
  5
2E4
100
AcDbEntity
  8
0
  6
DASHED
 62
               2
100
AcDbLine
 10
45.000000000001364
 20
49.699996948242188
 30
0.0
 11
62.800003051759177
 21
49.699996948242188
 31
0.0
  0
LINE
  5
2E5
100
AcDbEntity
  8
0
  6
DASHED
 62
               2
100
AcDbLine
 10
45.000000000001364
 20
62.5
 30
0.0
 11
45.000000000001364
 21
49.699996948242188
 31
0.0
  0
LINE
  5
2E6
100
AcDbEntity
  8
0
  6
DASHED
 62
               2
100
AcDbLine
 10
1.0
 20
59.500000000000057
 30
0.0
 11
1.0
 21
21.03099977800747
 31
0.0
  0
ARC
  5
2E7
100
AcDbEntity
  8
0
  6
DASHED
 62
               2
100
AcDbCircle
 10
4.0
 20
59.5
 30
0.0
 40
3.0
100
AcDbArc
 50
89.999963344575988
 51
179.99994535848663
  0
LINE
  5
2E8
100
AcDbEntity
  8
0
  6
DASHED
 62
               2
100
AcDbLine
 10
4.0
 20
62.5
 30
0.0
 11
45.000000000001364
 21
62.5
 31
0.0
  0
LINE
  5
2E9
100
AcDbEntity
  8
0
  6
CONTINUOUS
 62
               4
100
AcDbLine
 10
76.80025939941612
 20
8.5238196586627453
 30
0.0
 11
74.300003051759177
 21
8.5238196586627453
 31
0.0
  0
LINE
  5
2EA
100
AcDbEntity
  8
0
  6
CONTINUOUS
 62
               4
100
AcDbLine
 10
76.80025939941612
 20
9.5238196586627453
 30
0.0
 11
74.300003051759177
 21
9.5238196586627453
 31
0.0
  0
LINE
  5
2EB
100
AcDbEntity
  8
0
  6
CONTINUOUS
 62
               7
100
AcDbLine
 10
56.000244140627103
 20
61.023834658662736
 30
0.0
 11
56.000244140627103
 21
49.699996948242188
 31
0.0
  0
LINE
  5
2EC
100
AcDbEntity
  8
0
  6
CONTINUOUS
 62
               7
100
AcDbLine
 10
56.000244140627103
 20
61.023834658662736
 30
0.0
 11
45.000000000001364
 21
61.023834658662736
 31
0.0
  0
LINE
  5
2ED
100
AcDbEntity
  8
0
  6
CONTINUOUS
 62
               4
100
AcDbLine
 10
80.365173399416165
 20
27.523819658662745
 30
0.0
 11
78.000259399416166
 21
27.523819658662745
 31
0.0
  0
LINE
  5
2EE
100
AcDbEntity
  8
0
  6
CONTINUOUS
 62
               4
100
AcDbLine
 10
77.80025939941612
 20
27.323819658662757
 30
0.0
 11
78.000259399416166
 21
27.523819658662745
 31
0.0
  0
LINE
  5
2EF
100
AcDbEntity
  8
0
  6
CONTINUOUS
 62
               4
100
AcDbLine
 10
80.365173399416165
 20
9.5238196586627453
 30
0.0
 11
78.000259399416166
 21
9.5238196586627453
 31
0.0
  0
LINE
  5
2F0
100
AcDbEntity
  8
0
  6
CONTINUOUS
 62
               4
100
AcDbLine
 10
76.80025939941612
 20
27.523819658662745
 30
0.0
 11
76.900259399416143
 21
27.423819658662751
 31
0.0
  0
LINE
  5
2F1
100
AcDbEntity
  8
0
  6
CONTINUOUS
 62
               4
100
AcDbLine
 10
76.80025939941612
 20
9.5238196586627453
 30
0.0
 11
76.900259399416143
 21
9.6238196586627396
 31
0.0
  0
LINE
  5
2F2
100
AcDbEntity
  8
0
  6
CONTINUOUS
 62
               4
100
AcDbLine
 10
76.80025939941612
 20
27.523819658662745
 30
0.0
 11
74.300003051759177
 21
27.523819658662745
 31
0.0
  0
ARC
  5
2F3
100
AcDbEntity
  8
0
  6
CONTINUOUS
 62
               4
100
AcDbCircle
 10
84.30025939941612
 20
26.623819658662768
 30
0.0
 40
0.3
100
AcDbArc
 50
359.99999999999926
 51
89.999999999999389
  0
ARC
  5
2F4
100
AcDbEntity
  8
0
  6
CONTINUOUS
 62
               4
100
AcDbCircle
 10
82.900259399416143
 20
12.023819658662745
 30
0.0
 40
0.5
100
AcDbArc
 50
359.99999999999926
 51
89.999999999999389
  0
ARC
  5
2F5
100
AcDbEntity
  8
0
  6
CONTINUOUS
 62
               4
100
AcDbCircle
 10
84.30025939941612
 20
10.423819658662751
 30
0.0
 40
0.3
100
AcDbArc
 50
269.99999999999977
 51
0.0
  0
ARC
  5
2F6
100
AcDbEntity
  8
0
  6
CONTINUOUS
 62
               4
100
AcDbCircle
 10
82.900259399416143
 20
25.023819658662745
 30
0.0
 40
0.5
100
AcDbArc
 50
269.99999999999977
 51
0.0
  0
LINE
  5
2F7
100
AcDbEntity
  8
0
  6
CONTINUOUS
 62
               4
100
AcDbLine
 10
84.300940399416106
 20
26.923819658662751
 30
0.0
 11
83.400259399416143
 21
26.923819658662751
 31
0.0
  0
LINE
  5
2F8
100
AcDbEntity
  8
0
  6
CONTINUOUS
 62
               4
100
AcDbLine
 10
84.600259399416188
 20
10.423819658662751
 30
0.0
 11
84.600259399416188
 21
26.623819658662768
 31
0.0
  0
LINE
  5
2F9
100
AcDbEntity
  8
0
  6
CONTINUOUS
 62
               4
100
AcDbLine
 10
83.400259399416143
 20
26.923819658662751
 30
0.0
 11
83.400259399416143
 21
10.12381965866274
 31
0.0
  0
LINE
  5
2FA
100
AcDbEntity
  8
0
  6
CONTINUOUS
 62
               4
100
AcDbLine
 10
84.300940399416106
 20
10.12381965866274
 30
0.0
 11
83.400259399416143
 21
10.12381965866274
 31
0.0
  0
LINE
  5
2FB
100
AcDbEntity
  8
0
  6
CONTINUOUS
 62
               4
100
AcDbLine
 10
82.900259399416143
 20
12.523819658662745
 30
0.0
 11
82.500259399416166
 21
12.523819658662745
 31
0.0
  0
LINE
  5
2FC
100
AcDbEntity
  8
0
  6
CONTINUOUS
 62
               4
100
AcDbLine
 10
82.400259399416143
 20
25.623819658662768
 30
0.0
 11
81.400258399416145
 21
25.623819658662768
 31
0.0
  0
LINE
  5
2FD
100
AcDbEntity
  8
0
  6
CONTINUOUS
 62
               4
100
AcDbLine
 10
82.500259399416166
 20
25.523819658662745
 30
0.0
 11
82.400259399416143
 21
25.623819658662768
 31
0.0
  0
LINE
  5
2FE
100
AcDbEntity
  8
0
  6
CONTINUOUS
 62
               4
100
AcDbLine
 10
82.500259399416166
 20
11.523819658662745
 30
0.0
 11
82.400259399416143
 21
11.423819658662751
 31
0.0
  0
LINE
  5
2FF
100
AcDbEntity
  8
0
  6
CONTINUOUS
 62
               4
100
AcDbLine
 10
82.500259399416166
 20
11.523819658662745
 30
0.0
 11
82.500259399416166
 21
25.523819658662745
 31
0.0
  0
LINE
  5
300
100
AcDbEntity
  8
0
  6
CONTINUOUS
 62
               4
100
AcDbLine
 10
82.400259399416143
 20
11.423819658662751
 30
0.0
 11
81.400258399416145
 21
11.423819658662751
 31
0.0
  0
LINE
  5
301
100
AcDbEntity
  8
0
  6
CONTINUOUS
 62
               4
100
AcDbLine
 10
81.400258399416145
 20
10.62381965866274
 30
0.0
 11
81.400258399416145
 21
26.42381885866277
 31
0.0
  0
LINE
  5
302
100
AcDbEntity
  8
0
  6
CONTINUOUS
 62
               4
100
AcDbLine
 10
80.800258399416236
 20
26.770229258662738
 30
0.0
 11
81.400258399416145
 21
26.42381885866277
 31
0.0
  0
LINE
  5
303
100
AcDbEntity
  8
0
  6
CONTINUOUS
 62
               4
100
AcDbLine
 10
80.800258399416236
 20
10.277410058662753
 30
0.0
 11
81.400258399416145
 21
10.623820458662749
 31
0.0
  0
LINE
  5
304
100
AcDbEntity
  8
0
  6
CONTINUOUS
 62
               4
100
AcDbLine
 10
77.80025939941612
 20
26.823819658662757
 30
0.0
 11
76.900259399416143
 21
26.823819658662757
 31
0.0
  0
LINE
  5
305
100
AcDbEntity
  8
0
  6
CONTINUOUS
 62
               4
100
AcDbLine
 10
77.80025939941612
 20
10.223819658662734
 30
0.0
 11
76.900259399416143
 21
10.223819658662734
 31
0.0
  0
LINE
  5
306
100
AcDbEntity
  8
0
  6
CONTINUOUS
 62
               4
100
AcDbLine
 10
82.900259399416143
 20
24.523819658662745
 30
0.0
 11
82.500259399416166
 21
24.523819658662745
 31
0.0
  0
LINE
  5
307
100
AcDbEntity
  8
0
  6
CONTINUOUS
 62
               4
100
AcDbLine
 10
82.400259399416143
 20
11.423819658662751
 30
0.0
 11
82.400259399416143
 21
25.623819658662768
 31
0.0
  0
LINE
  5
308
100
AcDbEntity
  8
0
  6
CONTINUOUS
 62
               4
100
AcDbLine
 10
80.800258399416236
 20
10.277410058662753
 30
0.0
 11
80.800258399416236
 21
26.770229258662738
 31
0.0
  0
LINE
  5
309
100
AcDbEntity
  8
0
  6
CONTINUOUS
 62
               4
100
AcDbLine
 10
76.80025939941612
 20
9.5238196586627453
 30
0.0
 11
76.80025939941612
 21
27.523819658662745
 31
0.0
  0
LINE
  5
30A
100
AcDbEntity
  8
0
  6
CONTINUOUS
 62
               4
100
AcDbLine
 10
78.000259399416166
 20
9.5238196586627453
 30
0.0
 11
78.000259399416166
 21
27.523819658662745
 31
0.0
  0
LINE
  5
30B
100
AcDbEntity
  8
0
  6
CONTINUOUS
 62
               4
100
AcDbLine
 10
80.365172399416167
 20
9.5238196586627453
 30
0.0
 11
80.365172399416167
 21
27.523819658662745
 31
0.0
  0
LINE
  5
30C
100
AcDbEntity
  8
0
  6
CONTINUOUS
 62
               4
100
AcDbLine
 10
77.80025939941612
 20
27.323819658662757
 30
0.0
 11
77.80025939941612
 21
9.7238196586627339
 31
0.0
  0
LINE
  5
30D
100
AcDbEntity
  8
0
  6
CONTINUOUS
 62
               4
100
AcDbLine
 10
80.365172399416167
 20
27.523819658662745
 30
0.0
 11
80.800258399416236
 21
26.770229258662738
 31
0.0
  0
LINE
  5
30E
100
AcDbEntity
  8
0
  6
CONTINUOUS
 62
               4
100
AcDbLine
 10
80.365172399416167
 20
9.5238196586627453
 30
0.0
 11
80.800258399416236
 21
10.277410058662753
 31
0.0
  0
LINE
  5
30F
100
AcDbEntity
  8
0
  6
CONTINUOUS
 62
               4
100
AcDbLine
 10
77.80025939941612
 20
9.7238196586627339
 30
0.0
 11
78.000259399416166
 21
9.5238196586627453
 31
0.0
  0
LINE
  5
310
100
AcDbEntity
  8
0
  6
CONTINUOUS
 62
               4
100
AcDbLine
 10
76.900259399416143
 20
27.423819658662751
 30
0.0
 11
76.900259399416143
 21
9.6238196586627396
 31
0.0
  0
LINE
  5
311
100
AcDbEntity
  8
0
  6
CONTINUOUS
 62
               4
100
AcDbLine
 10
80.365173399416165
 20
8.5238196586627453
 30
0.0
 11
78.000259399416166
 21
8.5238196586627453
 31
0.0
  0
LINE
  5
312
100
AcDbEntity
  8
0
  6
CONTINUOUS
 62
               4
100
AcDbLine
 10
77.80025939941612
 20
8.3238196586627566
 30
0.0
 11
78.000259399416166
 21
8.5238196586627453
 31
0.0
  0
LINE
  5
313
100
AcDbEntity
  8
0
  6
CONTINUOUS
 62
               4
100
AcDbLine
 10
80.365173399416165
 20
-9.4761803413372547
 30
0.0
 11
78.000259399416166
 21
-9.4761803413372547
 31
0.0
  0
LINE
  5
314
100
AcDbEntity
  8
0
  6
CONTINUOUS
 62
               4
100
AcDbLine
 10
76.80025939941612
 20
8.5238196586627453
 30
0.0
 11
76.900259399416143
 21
8.423819658662751
 31
0.0
  0
LINE
  5
315
100
AcDbEntity
  8
0
  6
CONTINUOUS
 62
               4
100
AcDbLine
 10
76.80025939941612
 20
-9.4761803413372547
 30
0.0
 11
76.900259399416143
 21
-9.3761803413372604
 31
0.0
  0
LINE
  5
316
100
AcDbEntity
  8
0
  6
CONTINUOUS
 62
               4
100
AcDbLine
 10
76.80025939941612
 20
-9.4761803413372547
 30
0.0
 11
74.300003051759177
 21
-9.4761803413372547
 31
0.0
  0
ARC
  5
317
100
AcDbEntity
  8
0
  6
CONTINUOUS
 62
               4
100
AcDbCircle
 10
84.30025939941612
 20
7.623819658662768
 30
0.0
 40
0.3
100
AcDbArc
 50
359.99999999999926
 51
89.999999999999389
  0
ARC
  5
318
100
AcDbEntity
  8
0
  6
CONTINUOUS
 62
               4
100
AcDbCircle
 10
82.900259399416143
 20
-6.9761803413372547
 30
0.0
 40
0.5
100
AcDbArc
 50
359.99999999999926
 51
89.999999999999389
  0
ARC
  5
319
100
AcDbEntity
  8
0
  6
CONTINUOUS
 62
               4
100
AcDbCircle
 10
84.30025939941612
 20
-8.5761803413372775
 30
0.0
 40
0.3
100
AcDbArc
 50
269.99999999999977
 51
0.0
  0
ARC
  5
31A
100
AcDbEntity
  8
0
  6
CONTINUOUS
 62
               4
100
AcDbCircle
 10
82.900259399416143
 20
6.0238196586627453
 30
0.0
 40
0.5
100
AcDbArc
 50
269.99999999999977
 51
0.0
  0
LINE
  5
31B
100
AcDbEntity
  8
0
  6
CONTINUOUS
 62
               4
100
AcDbLine
 10
84.300940399416106
 20
7.923819658662751
 30
0.0
 11
83.400259399416143
 21
7.923819658662751
 31
0.0
  0
LINE
  5
31C
100
AcDbEntity
  8
0
  6
CONTINUOUS
 62
               4
100
AcDbLine
 10
84.600259399416188
 20
-8.5761803413372775
 30
0.0
 11
84.600259399416188
 21
7.623819658662768
 31
0.0
  0
LINE
  5
31D
100
AcDbEntity
  8
0
  6
CONTINUOUS
 62
               4
100
AcDbLine
 10
83.400259399416143
 20
7.923819658662751
 30
0.0
 11
83.400259399416143
 21
-8.8761803413372888
 31
0.0
  0
LINE
  5
31E
100
AcDbEntity
  8
0
  6
CONTINUOUS
 62
               4
100
AcDbLine
 10
84.300940399416106
 20
-8.8761803413372888
 30
0.0
 11
83.400259399416143
 21
-8.8761803413372888
 31
0.0
  0
LINE
  5
31F
100
AcDbEntity
  8
0
  6
CONTINUOUS
 62
               4
100
AcDbLine
 10
82.900259399416143
 20
-6.4761803413372547
 30
0.0
 11
82.500259399416166
 21
-6.4761803413372547
 31
0.0
  0
LINE
  5
320
100
AcDbEntity
  8
0
  6
CONTINUOUS
 62
               4
100
AcDbLine
 10
82.400259399416143
 20
6.623819658662768
 30
0.0
 11
81.400258399416145
 21
6.623819658662768
 31
0.0
  0
LINE
  5
321
100
AcDbEntity
  8
0
  6
CONTINUOUS
 62
               4
100
AcDbLine
 10
82.500259399416166
 20
6.5238196586627453
 30
0.0
 11
82.400259399416143
 21
6.623819658662768
 31
0.0
  0
LINE
  5
322
100
AcDbEntity
  8
0
  6
CONTINUOUS
 62
               4
100
AcDbLine
 10
82.500259399416166
 20
-7.4761803413372547
 30
0.0
 11
82.400259399416143
 21
-7.576180341337249
 31
0.0
  0
LINE
  5
323
100
AcDbEntity
  8
0
  6
CONTINUOUS
 62
               4
100
AcDbLine
 10
82.500259399416166
 20
-7.4761803413372547
 30
0.0
 11
82.500259399416166
 21
6.5238196586627453
 31
0.0
  0
LINE
  5
324
100
AcDbEntity
  8
0
  6
CONTINUOUS
 62
               4
100
AcDbLine
 10
82.400259399416143
 20
-7.576180341337249
 30
0.0
 11
81.400258399416145
 21
-7.576180341337249
 31
0.0
  0
LINE
  5
325
100
AcDbEntity
  8
0
  6
CONTINUOUS
 62
               4
100
AcDbLine
 10
81.400258399416145
 20
-8.3761803413372604
 30
0.0
 11
81.400258399416145
 21
7.42381885866277
 31
0.0
  0
LINE
  5
326
100
AcDbEntity
  8
0
  6
CONTINUOUS
 62
               4
100
AcDbLine
 10
80.800258399416236
 20
7.7702292586627379
 30
0.0
 11
81.400258399416145
 21
7.42381885866277
 31
0.0
  0
LINE
  5
327
100
AcDbEntity
  8
0
  6
CONTINUOUS
 62
               4
100
AcDbLine
 10
80.800258399416236
 20
-8.7225899413372474
 30
0.0
 11
81.400258399416145
 21
-8.3761795413372511
 31
0.0
  0
LINE
  5
328
100
AcDbEntity
  8
0
  6
CONTINUOUS
 62
               4
100
AcDbLine
 10
77.80025939941612
 20
7.8238196586627566
 30
0.0
 11
76.900259399416143
 21
7.8238196586627566
 31
0.0
  0
LINE
  5
329
100
AcDbEntity
  8
0
  6
CONTINUOUS
 62
               4
100
AcDbLine
 10
77.80025939941612
 20
-8.7761803413372661
 30
0.0
 11
76.900259399416143
 21
-8.7761803413372661
 31
0.0
  0
LINE
  5
32A
100
AcDbEntity
  8
0
  6
CONTINUOUS
 62
               4
100
AcDbLine
 10
82.900259399416143
 20
5.5238196586627453
 30
0.0
 11
82.500259399416166
 21
5.5238196586627453
 31
0.0
  0
LINE
  5
32B
100
AcDbEntity
  8
0
  6
CONTINUOUS
 62
               4
100
AcDbLine
 10
82.400259399416143
 20
-7.576180341337249
 30
0.0
 11
82.400259399416143
 21
6.623819658662768
 31
0.0
  0
LINE
  5
32C
100
AcDbEntity
  8
0
  6
CONTINUOUS
 62
               4
100
AcDbLine
 10
80.800258399416236
 20
-8.7225899413372474
 30
0.0
 11
80.800258399416236
 21
7.7702292586627379
 31
0.0
  0
LINE
  5
32D
100
AcDbEntity
  8
0
  6
CONTINUOUS
 62
               4
100
AcDbLine
 10
76.80025939941612
 20
-9.4761803413372547
 30
0.0
 11
76.80025939941612
 21
8.5238196586627453
 31
0.0
  0
LINE
  5
32E
100
AcDbEntity
  8
0
  6
CONTINUOUS
 62
               4
100
AcDbLine
 10
78.000259399416166
 20
-9.4761803413372547
 30
0.0
 11
78.000259399416166
 21
8.5238196586627453
 31
0.0
  0
LINE
  5
32F
100
AcDbEntity
  8
0
  6
CONTINUOUS
 62
               4
100
AcDbLine
 10
80.365172399416167
 20
-9.4761803413372547
 30
0.0
 11
80.365172399416167
 21
8.5238196586627453
 31
0.0
  0
LINE
  5
330
100
AcDbEntity
  8
0
  6
CONTINUOUS
 62
               4
100
AcDbLine
 10
77.80025939941612
 20
8.3238196586627566
 30
0.0
 11
77.80025939941612
 21
-9.2761803413372661
 31
0.0
  0
LINE
  5
331
100
AcDbEntity
  8
0
  6
CONTINUOUS
 62
               4
100
AcDbLine
 10
80.365172399416167
 20
8.5238196586627453
 30
0.0
 11
80.800258399416236
 21
7.7702292586627379
 31
0.0
  0
LINE
  5
332
100
AcDbEntity
  8
0
  6
CONTINUOUS
 62
               4
100
AcDbLine
 10
80.365172399416167
 20
-9.4761803413372547
 30
0.0
 11
80.800258399416236
 21
-8.7225899413372474
 31
0.0
  0
LINE
  5
333
100
AcDbEntity
  8
0
  6
CONTINUOUS
 62
               4
100
AcDbLine
 10
77.80025939941612
 20
-9.2761803413372661
 30
0.0
 11
78.000259399416166
 21
-9.4761803413372547
 31
0.0
  0
LINE
  5
334
100
AcDbEntity
  8
0
  6
CONTINUOUS
 62
               4
100
AcDbLine
 10
76.900259399416143
 20
8.423819658662751
 30
0.0
 11
76.900259399416143
 21
-9.3761803413372604
 31
0.0
  0
LINE
  5
335
100
AcDbEntity
  8
0
  6
CONTINUOUS
 62
             200
100
AcDbLine
 10
86.04445089896322
 20
18.523819658662745
 30
0.0
 11
71.203798922951322
 21
18.523819658662745
 31
0.0
  0
LINE
  5
336
100
AcDbEntity
  8
0
  6
CONTINUOUS
 62
             200
100
AcDbLine
 10
86.04445089896322
 20
-0.4761803413372547
 30
0.0
 11
71.203798922951322
 21
-0.4761803413372547
 31
0.0
  0
ENDBLK
  5
337
100
AcDbEntity
  8
0
100
AcDbBlockEnd
  0
BLOCK
  5
338
100
AcDbEntity
  8
0
100
AcDbBlockBegin
  2
F10MS-6
 70
               0
 10
0.0
 20
0.0
 30
0.0
  3
F10MS-6
  1

  0
LINE
  5
339
100
AcDbEntity
  8
0
  6
CONTINUOUS
 62
               7
100
AcDbLine
 10
0.0
 20
0.0
 30
0.0
 11
19.0
 21
0.0
 31
0.0
  0
LINE
  5
33A
100
AcDbEntity
  8
0
  6
CONTINUOUS
 62
             200
100
AcDbLine
 10
9.5
 20
56.0
 30
0.0
 11
9.5
 21
86.990000000000009
 31
0.0
  0
LINE
  5
33B
100
AcDbEntity
  8
0
  6
CONTINUOUS
 62
               2
100
AcDbLine
 10
9.5
 20
-0.8300000000000125
 30
0.0
 11
9.5
 21
56.0
 31
0.0
  0
ARC
  5
33C
100
AcDbEntity
  8
0
  6
CONTINUOUS
 62
               7
100
AcDbCircle
 10
16.0
 20
49.5
 30
0.0
 40
3.0
100
AcDbArc
 50
89.999982013910653
 51
269.99994604173196
  0
ARC
  5
33D
100
AcDbEntity
  8
0
  6
CONTINUOUS
 62
               7
100
AcDbCircle
 10
16.0
 20
49.5
 30
0.0
 40
2.8000030517578125
100
AcDbArc
 50
89.999982013910653
 51
270.00000068324533
  0
LINE
  5
33E
100
AcDbEntity
  8
0
  6
CONTINUOUS
 62
               7
100
AcDbLine
 10
0.5
 20
12.499984741210938
 30
0.0
 11
0.5
 21
50.354354858398438
 31
0.0
  0
LINE
  5
33F
100
AcDbEntity
  8
0
  6
CONTINUOUS
 62
               7
100
AcDbLine
 10
18.5
 20
46.699996948242188
 30
0.0
 11
18.5
 21
52.300003051757813
 31
0.0
  0
LINE
  5
340
100
AcDbEntity
  8
0
  6
CONTINUOUS
 62
               7
100
AcDbLine
 10
19.0
 20
56.0
 30
0.0
 11
19.0
 21
1.0
 31
0.0
  0
LINE
  5
341
100
AcDbEntity
  8
0
  6
CONTINUOUS
 62
               7
100
AcDbLine
 10
0.0
 20
56.0
 30
0.0
 11
0.0
 21
1.0
 31
0.0
  0
LINE
  5
342
100
AcDbEntity
  8
0
  6
CONTINUOUS
 62
               7
100
AcDbLine
 10
0.0
 20
56.0
 30
0.0
 11
19.0
 21
56.0
 31
0.0
  0
LINE
  5
343
100
AcDbEntity
  8
0
  6
CONTINUOUS
 62
               7
100
AcDbLine
 10
16.0
 20
52.300003051757813
 30
0.0
 11
18.5
 21
52.300003051757813
 31
0.0
  0
LINE
  5
344
100
AcDbEntity
  8
0
  6
CONTINUOUS
 62
               7
100
AcDbLine
 10
0.5
 20
55.79998779296875
 30
0.0
 11
18.5
 21
55.79998779296875
 31
0.0
  0
LINE
  5
345
100
AcDbEntity
  8
0
  6
CONTINUOUS
 62
               7
100
AcDbLine
 10
16.0
 20
52.499984741210937
 30
0.0
 11
18.5
 21
52.499984741210937
 31
0.0
  0
LINE
  5
346
100
AcDbEntity
  8
0
  6
CONTINUOUS
 62
               7
100
AcDbLine
 10
6.0
 20
51.5
 30
0.0
 11
6.0
 21
55.79998779296875
 31
0.0
  0
LINE
  5
347
100
AcDbEntity
  8
0
  6
CONTINUOUS
 62
               7
100
AcDbLine
 10
3.0
 20
48.5
 30
0.0
 11
0.5
 21
48.5
 31
0.0
  0
LINE
  5
348
100
AcDbEntity
  8
0
  6
CONTINUOUS
 62
               7
100
AcDbLine
 10
6.0
 20
53.79998779296875
 30
0.0
 11
18.5
 21
53.79998779296875
 31
0.0
  0
LINE
  5
349
100
AcDbEntity
  8
0
  6
CONTINUOUS
 62
               7
100
AcDbLine
 10
4.0607111099434405
 20
50.439394250728583
 30
0.0
 11
1.9393984916878253
 21
52.56072224698255
 31
0.0
  0
LINE
  5
34A
100
AcDbEntity
  8
0
  6
CONTINUOUS
 62
               7
100
AcDbLine
 10
1.939332924325754
 20
50.439362775286099
 30
0.0
 11
4.0606553773477572
 21
52.560680936773679
 31
0.0
  0
LINE
  5
34B
100
AcDbEntity
  8
0
  6
CONTINUOUS
 62
               7
100
AcDbLine
 10
0.5
 20
52.645645141601563
 30
0.0
 11
0.5
 21
55.79998779296875
 31
0.0
  0
LINE
  5
34C
100
AcDbEntity
  8
0
  6
CONTINUOUS
 62
               7
100
AcDbLine
 10
18.5
 20
52.499984741210937
 30
0.0
 11
18.5
 21
55.79998779296875
 31
0.0
  0
CIRCLE
  5
34D
100
AcDbEntity
  8
0
  6
CONTINUOUS
 62
               7
100
AcDbCircle
 10
3.0
 20
51.5
 30
0.0
 40
2.75
  0
ARC
  5
34E
100
AcDbEntity
  8
0
  6
CONTINUOUS
 62
               7
100
AcDbCircle
 10
3.0
 20
51.5
 30
0.0
 40
3.0
100
AcDbArc
 50
270.00001798608935
 51
0.00001366037834
  0
LINE
  5
34F
100
AcDbEntity
  8
0
  6
CONTINUOUS
 62
               4
100
AcDbLine
 10
0.5
 20
71.699999800000001
 30
0.0
 11
0.5
 21
56.0
 31
0.0
  0
ARC
  5
350
100
AcDbEntity
  8
0
  6
CONTINUOUS
 62
               4
100
AcDbCircle
 10
17.300000011920929
 20
56.499992370605469
 30
0.0
 40
1.5
100
AcDbArc
 50
0.0000179860893428
 51
89.999986339621657
  0
LINE
  5
351
100
AcDbEntity
  8
0
  6
CONTINUOUS
 62
               4
100
AcDbLine
 10
13.300000727176666
 20
56.499992370605469
 30
0.0
 11
13.300000727176666
 21
55.999992370605469
 31
0.0
  0
LINE
  5
352
100
AcDbEntity
  8
0
  6
CONTINUOUS
 62
               4
100
AcDbLine
 10
0.5
 20
57.905259999999998
 30
0.0
 11
3.0
 21
57.905259999999998
 31
0.0
  0
LINE
  5
353
100
AcDbEntity
  8
0
  6
CONTINUOUS
 62
               4
100
AcDbLine
 10
18.5
 20
71.699999800000001
 30
0.0
 11
0.5
 21
71.699999800000001
 31
0.0
  0
LINE
  5
354
100
AcDbEntity
  8
0
  6
CONTINUOUS
 62
               4
100
AcDbLine
 10
18.5
 20
71.699999999999989
 30
0.0
 11
18.5
 21
60.503294399999987
 31
0.0
  0
LINE
  5
355
100
AcDbEntity
  8
0
  6
CONTINUOUS
 62
               4
100
AcDbLine
 10
0.5
 20
76.800000000000011
 30
0.0
 11
18.5
 21
76.800000000000011
 31
0.0
  0
LINE
  5
356
100
AcDbEntity
  8
0
  6
CONTINUOUS
 62
               4
100
AcDbLine
 10
0.5
 20
78.0
 30
0.0
 11
18.5
 21
78.0
 31
0.0
  0
LINE
  5
357
100
AcDbEntity
  8
0
  6
CONTINUOUS
 62
               4
100
AcDbLine
 10
0.5
 20
80.364913000000001
 30
0.0
 11
18.5
 21
80.364913000000001
 31
0.0
  0
LINE
  5
358
100
AcDbEntity
  8
0
  6
CONTINUOUS
 62
               4
100
AcDbLine
 10
1.2535904000000073
 20
80.799999000000014
 30
0.0
 11
17.746409599999993
 21
80.799999000000014
 31
0.0
  0
LINE
  5
359
100
AcDbEntity
  8
0
  6
CONTINUOUS
 62
               4
100
AcDbLine
 10
2.3999999999999773
 20
82.400000000000006
 30
0.0
 11
16.600000000000023
 21
82.400000000000006
 31
0.0
  0
LINE
  5
35A
100
AcDbEntity
  8
0
  6
CONTINUOUS
 62
               4
100
AcDbLine
 10
15.5
 20
82.900000000000006
 30
0.0
 11
15.5
 21
82.5
 31
0.0
  0
LINE
  5
35B
100
AcDbEntity
  8
0
  6
CONTINUOUS
 62
               4
100
AcDbLine
 10
0.5
 20
72.09999959999999
 30
0.0
 11
18.5
 21
72.09999959999999
 31
0.0
  0
LINE
  5
35C
100
AcDbEntity
  8
0
  6
CONTINUOUS
 62
               4
100
AcDbLine
 10
18.299999999999955
 20
71.900000000000006
 30
0.0
 11
18.5
 21
71.699999800000001
 31
0.0
  0
LINE
  5
35D
100
AcDbEntity
  8
0
  6
CONTINUOUS
 62
               4
100
AcDbLine
 10
1.2000000000000455
 20
77.800000000000011
 30
0.0
 11
1.2000000000000455
 21
76.900000000000006
 31
0.0
  0
LINE
  5
35E
100
AcDbEntity
  8
0
  6
CONTINUOUS
 62
               4
100
AcDbLine
 10
17.799999999999955
 20
77.800000000000011
 30
0.0
 11
17.799999999999955
 21
76.900000000000006
 31
0.0
  0
LINE
  5
35F
100
AcDbEntity
  8
0
  6
CONTINUOUS
 62
               4
100
AcDbLine
 10
0.7000000000000455
 20
71.900000000000006
 30
0.0
 11
0.5
 21
71.699999800000001
 31
0.0
  0
LINE
  5
360
100
AcDbEntity
  8
0
  6
CONTINUOUS
 62
               4
100
AcDbLine
 10
0.5
 20
76.800000000000011
 30
0.0
 11
0.6000000000000227
 21
76.900000000000006
 31
0.0
  0
LINE
  5
361
100
AcDbEntity
  8
0
  6
CONTINUOUS
 62
               4
100
AcDbLine
 10
18.5
 20
76.800000000000011
 30
0.0
 11
18.399999999999977
 21
76.900000000000006
 31
0.0
  0
LINE
  5
362
100
AcDbEntity
  8
0
  6
CONTINUOUS
 62
               4
100
AcDbLine
 10
0.7000000000000455
 20
71.899999400000013
 30
0.0
 11
0.5
 21
72.09999959999999
 31
0.0
  0
LINE
  5
363
100
AcDbEntity
  8
0
  6
CONTINUOUS
 62
               4
100
AcDbLine
 10
0.5
 20
76.800000000000011
 30
0.0
 11
0.5
 21
72.09999959999999
 31
0.0
  0
LINE
  5
364
100
AcDbEntity
  8
0
  6
CONTINUOUS
 62
               4
100
AcDbLine
 10
18.5
 20
76.800000000000011
 30
0.0
 11
18.5
 21
72.09999959999999
 31
0.0
  0
LINE
  5
365
100
AcDbEntity
  8
0
  6
CONTINUOUS
 62
               4
100
AcDbLine
 10
0.7000000000000455
 20
71.899999600000001
 30
0.0
 11
18.299999999999955
 21
71.899999600000001
 31
0.0
  0
LINE
  5
366
100
AcDbEntity
  8
0
  6
CONTINUOUS
 62
               4
100
AcDbLine
 10
18.299999999999955
 20
71.899999400000013
 30
0.0
 11
18.5
 21
72.09999959999999
 31
0.0
  0
LINE
  5
367
100
AcDbEntity
  8
0
  6
CONTINUOUS
 62
               4
100
AcDbLine
 10
0.5
 20
80.364913999999999
 30
0.0
 11
0.5
 21
78.0
 31
0.0
  0
LINE
  5
368
100
AcDbEntity
  8
0
  6
CONTINUOUS
 62
               4
100
AcDbLine
 10
18.299999999999955
 20
77.800000000000011
 30
0.0
 11
18.5
 21
78.0
 31
0.0
  0
LINE
  5
369
100
AcDbEntity
  8
0
  6
CONTINUOUS
 62
               4
100
AcDbLine
 10
18.5
 20
80.364913999999999
 30
0.0
 11
18.5
 21
78.0
 31
0.0
  0
LINE
  5
36A
100
AcDbEntity
  8
0
  6
CONTINUOUS
 62
               4
100
AcDbLine
 10
18.299999999999955
 20
77.800000000000011
 30
0.0
 11
0.7000000000000455
 21
77.800000000000011
 31
0.0
  0
LINE
  5
36B
100
AcDbEntity
  8
0
  6
CONTINUOUS
 62
               4
100
AcDbLine
 10
1.2535904000000073
 20
80.799999000000014
 30
0.0
 11
1.6000007999999752
 21
81.399999000000008
 31
0.0
  0
LINE
  5
36C
100
AcDbEntity
  8
0
  6
CONTINUOUS
 62
               4
100
AcDbLine
 10
17.746409599999993
 20
80.799999000000014
 30
0.0
 11
17.399999200000025
 21
81.399999000000008
 31
0.0
  0
LINE
  5
36D
100
AcDbEntity
  8
0
  6
CONTINUOUS
 62
               4
100
AcDbLine
 10
18.5
 20
80.364913000000001
 30
0.0
 11
17.746409599999993
 21
80.799999000000014
 31
0.0
  0
LINE
  5
36E
100
AcDbEntity
  8
0
  6
CONTINUOUS
 62
               4
100
AcDbLine
 10
0.5
 20
80.364913000000001
 30
0.0
 11
1.2535904000000073
 21
80.799999000000014
 31
0.0
  0
LINE
  5
36F
100
AcDbEntity
  8
0
  6
CONTINUOUS
 62
               4
100
AcDbLine
 10
0.7000000000000455
 20
77.800000000000011
 30
0.0
 11
0.5
 21
78.0
 31
0.0
  0
LINE
  5
370
100
AcDbEntity
  8
0
  6
CONTINUOUS
 62
               4
100
AcDbLine
 10
1.6000000000000227
 20
81.399999000000008
 30
0.0
 11
17.399999200000025
 21
81.399999000000008
 31
0.0
  0
LINE
  5
371
100
AcDbEntity
  8
0
  6
CONTINUOUS
 62
               4
100
AcDbLine
 10
18.399999999999977
 20
76.900000000000006
 30
0.0
 11
0.6000000000000227
 21
76.900000000000006
 31
0.0
  0
LINE
  5
372
100
AcDbEntity
  8
0
  6
CONTINUOUS
 62
               4
100
AcDbLine
 10
2.3999999999999773
 20
82.400000000000006
 30
0.0
 11
2.3999999999999773
 21
81.399999000000008
 31
0.0
  0
LINE
  5
373
100
AcDbEntity
  8
0
  6
CONTINUOUS
 62
               4
100
AcDbLine
 10
2.5
 20
82.5
 30
0.0
 11
16.5
 21
82.5
 31
0.0
  0
LINE
  5
374
100
AcDbEntity
  8
0
  6
CONTINUOUS
 62
               4
100
AcDbLine
 10
2.5
 20
82.5
 30
0.0
 11
2.3999999999999773
 21
82.400000000000006
 31
0.0
  0
LINE
  5
375
100
AcDbEntity
  8
0
  6
CONTINUOUS
 62
               4
100
AcDbLine
 10
16.5
 20
82.5
 30
0.0
 11
16.600000000000023
 21
82.400000000000006
 31
0.0
  0
LINE
  5
376
100
AcDbEntity
  8
0
  6
CONTINUOUS
 62
               4
100
AcDbLine
 10
16.600000000000023
 20
82.400000000000006
 30
0.0
 11
16.600000000000023
 21
81.399999000000008
 31
0.0
  0
LINE
  5
377
100
AcDbEntity
  8
0
  6
CONTINUOUS
 62
               4
100
AcDbLine
 10
3.5
 20
82.900000000000006
 30
0.0
 11
3.5
 21
82.5
 31
0.0
  0
LINE
  5
378
100
AcDbEntity
  8
0
  6
CONTINUOUS
 62
               4
100
AcDbLine
 10
1.1000000000000227
 20
84.300680999999997
 30
0.0
 11
1.1000000000000227
 21
83.400000000000006
 31
0.0
  0
LINE
  5
379
100
AcDbEntity
  8
0
  6
CONTINUOUS
 62
               4
100
AcDbLine
 10
17.899999999999977
 20
83.400000000000006
 30
0.0
 11
1.1000000000000227
 21
83.400000000000006
 31
0.0
  0
LINE
  5
37A
100
AcDbEntity
  8
0
  6
CONTINUOUS
 62
               4
100
AcDbLine
 10
1.3999999999999773
 20
84.599999999999994
 30
0.0
 11
17.600000000000023
 21
84.599999999999994
 31
0.0
  0
LINE
  5
37B
100
AcDbEntity
  8
0
  6
CONTINUOUS
 62
               4
100
AcDbLine
 10
17.899999999999977
 20
84.300680999999997
 30
0.0
 11
17.899999999999977
 21
83.400000000000006
 31
0.0
  0
ARC
  5
37C
100
AcDbEntity
  8
0
  6
CONTINUOUS
 62
               4
100
AcDbCircle
 10
16.0
 20
82.900000000000006
 30
0.0
 40
0.5
100
AcDbArc
 50
90.0
 51
180.0000000000002
  0
ARC
  5
37D
100
AcDbEntity
  8
0
  6
CONTINUOUS
 62
               4
100
AcDbCircle
 10
1.3999999999999773
 20
84.300000000000011
 30
0.0
 40
0.3
100
AcDbArc
 50
90.0
 51
180.0000000000002
  0
ARC
  5
37E
100
AcDbEntity
  8
0
  6
CONTINUOUS
 62
               4
100
AcDbCircle
 10
3.0
 20
82.900000000000006
 30
0.0
 40
0.5
100
AcDbArc
 50
0.0000000000006107
 51
90.00000000000081
  0
ARC
  5
37F
100
AcDbEntity
  8
0
  6
CONTINUOUS
 62
               4
100
AcDbCircle
 10
17.600000000000023
 20
84.300000000000011
 30
0.0
 40
0.3
100
AcDbArc
 50
0.0000000000006107
 51
90.00000000000081
  0
LINE
  5
380
100
AcDbEntity
  8
0
  6
CONTINUOUS
 62
               4
100
AcDbLine
 10
18.5
 20
61.0
 30
0.0
 11
13.221160499999996
 21
61.0
 31
0.0
  0
ARC
  5
381
100
AcDbEntity
  8
0
  6
CONTINUOUS
 62
               4
100
AcDbCircle
 10
9.5
 20
74.690523132503984
 30
0.0
 40
14.187228732503996
100
AcDbArc
 50
254.79404619011436
 51
285.20595380988573
  0
LINE
  5
382
100
AcDbEntity
  8
0
  6
CONTINUOUS
 62
               4
100
AcDbLine
 10
5.7788395000000037
 20
61.0
 30
0.0
 11
0.5
 21
61.0
 31
0.0
  0
LINE
  5
383
100
AcDbEntity
  8
0
  6
CONTINUOUS
 62
               4
100
AcDbLine
 10
14.800000369548798
 20
57.999992370605412
 30
0.0
 11
17.300000369548798
 21
57.999992370605412
 31
0.0
  0
LINE
  5
384
100
AcDbEntity
  8
0
  6
CONTINUOUS
 62
               4
100
AcDbLine
 10
18.5
 20
60.214618999999999
 30
0.0
 11
16.0
 21
60.214618999999999
 31
0.0
  0
LINE
  5
385
100
AcDbEntity
  8
0
  6
CONTINUOUS
 62
               4
100
AcDbLine
 10
13.0
 20
58.214618999999999
 30
0.0
 11
13.0
 21
56.0
 31
0.0
  0
ARC
  5
386
100
AcDbEntity
  8
0
  6
CONTINUOUS
 62
               4
100
AcDbCircle
 10
14.800000011920929
 20
56.499992370605469
 30
0.0
 40
1.5
100
AcDbArc
 50
89.999986339621657
 51
180.0
  0
LINE
  5
387
100
AcDbEntity
  8
0
  6
CONTINUOUS
 62
               4
100
AcDbLine
 10
18.5
 20
60.503294399999987
 30
0.0
 11
18.5
 21
57.399992386500031
 31
0.0
  0
LINE
  5
388
100
AcDbEntity
  8
0
  6
CONTINUOUS
 62
               7
100
AcDbLine
 10
18.800000011920929
 20
56.5
 30
0.0
 11
18.800000011920929
 21
56.0
 31
0.0
  0
SPLINE
  5
389
100
AcDbEntity
  8
0
  6
CONTINUOUS
 62
               4
100
AcDbSpline
210
0.0
220
0.0
230
1.0
 70
               0
 71
               3
 72
               0
 73
               0
 74
              37
 44
0.000001
 12
-0.9881349170157097
 22
-0.1535883647102106
 32
0.0
 13
-0.2801395722747445
 23
-0.9599592804102283
 33
0.0
 11
16.0
 21
60.214618999999999
 31
0.0
 11
15.869760142265561
 21
60.19275158693938
 31
0.0
 11
15.740082644176194
 21
60.167718873458874
 31
0.0
 11
15.611034833977421
 21
60.139521589105001
 31
0.0
 11
15.482722194767348
 21
60.108166030370825
 31
0.0
 11
15.386058953979532
 21
60.082315062510197
 31
0.0
 11
15.289893133328967
 21
60.054674645789973
 31
0.0
 11
15.194256703981031
 21
60.025268176043781
 31
0.0
 11
15.099172740678341
 21
59.994117293121292
 31
0.0
 11
14.981946636334472
 21
59.953036979776776
 31
0.0
 11
14.865702179106895
 21
59.909253059125476
 31
0.0
 11
14.750526565149404
 21
59.862714174877944
 31
0.0
 11
14.636523498592055
 21
59.813375455399637
 31
0.0
 11
14.537375479225192
 21
59.767656189143537
 31
0.0
 11
14.439304393671792
 21
59.719671576845336
 31
0.0
 11
14.342417690698387
 21
59.669362112203615
 31
0.0
 11
14.246811155673868
 21
59.616662429365363
 31
0.0
 11
14.168031225222521
 21
59.570774034302261
 31
0.0
 11
14.090305428380795
 21
59.523124141633417
 31
0.0
 11
14.013715778570642
 21
59.473657623471674
 31
0.0
 11
13.938359581132431
 21
59.422329805906713
 31
0.0
 11
13.859103750835528
 21
59.365212032178448
 31
0.0
 11
13.781537864217077
 21
59.30581905037846
 31
0.0
 11
13.705838052225696
 21
59.244074200232738
 31
0.0
 11
13.632184474727069
 21
59.179904037124516
 31
0.0
 11
13.566554216792669
 21
59.11882321765124
 31
0.0
 11
13.502973285578619
 21
59.055613217438875
 31
0.0
 11
13.441604549913601
 21
58.990241016167325
 31
0.0
 11
13.382632023039491
 21
58.922697800405444
 31
0.0
 11
13.327138510750105
 21
58.854094007937029
 31
0.0
 11
13.27444930583108
 21
58.783314708637455
 31
0.0
 11
13.224880760153463
 21
58.710310704287039
 31
0.0
 11
13.178773718291609
 21
58.635074842327299
 31
0.0
 11
13.124547946433252
 21
58.534228771677199
 31
0.0
 11
13.07669410329764
 21
58.430172979099396
 31
0.0
 11
13.035194410724964
 21
58.323494228556989
 31
0.0
 11
13.0
 21
58.214618999999999
 31
0.0
  0
SPLINE
  5
38A
100
AcDbEntity
  8
0
  6
CONTINUOUS
 62
               4
100
AcDbSpline
210
0.0
220
0.0
230
1.0
 70
               0
 71
               3
 72
               0
 73
               0
 74
              41
 44
0.000001
 12
0.9936236052884185
 22
0.1127480865187747
 32
0.0
 13
-0.7599872673059149
 23
0.6499379612954516
 33
0.0
 11
3.0
 21
57.905259999999998
 31
0.0
 11
3.1835950088173592
 21
57.9281156382145
 31
0.0
 11
3.3666686806424591
 21
57.95488778831011
 31
0.0
 11
3.5491910633257295
 21
57.985471735104525
 31
0.0
 11
3.7310568235546953
 21
58.019750906513337
 31
0.0
 11
3.9406626240586609
 21
58.063991352126159
 31
0.0
 11
4.1491068789441021
 21
58.113411459068963
 31
0.0
 11
4.356159491056057
 21
58.168380349308201
 31
0.0
 11
4.5615580130913713
 21
58.229250661799654
 31
0.0
 11
4.7353059500019601
 21
58.286240077632243
 31
0.0
 11
4.9071785261935652
 21
58.348630907257999
 31
0.0
 11
5.076671749678817
 21
58.417251023262786
 31
0.0
 11
5.2431792480185777
 21
58.492856464834887
 31
0.0
 11
5.3846585238790707
 21
58.564939129627902
 31
0.0
 11
5.5220200791754532
 21
58.644576712437242
 31
0.0
 11
5.6539708544073761
 21
58.733517206565125
 31
0.0
 11
5.7783402607044536
 21
58.832700983361235
 31
0.0
 11
5.8468742923882857
 21
58.896275476593637
 31
0.0
 11
5.9105460721321776
 21
58.964729307816242
 31
0.0
 11
5.9671369511457186
 21
59.0381684201203
 31
0.0
 11
6.0149978694515767
 21
59.117439092808866
 31
0.0
 11
6.0499178294558966
 21
59.196205670373821
 31
0.0
 11
6.0755156801446688
 21
59.278569215423758
 31
0.0
 11
6.0921983132962003
 21
59.363664161466268
 31
0.0
 11
6.1000000000000227
 21
59.449999999999989
 31
0.0
 11
6.0956329827916633
 21
59.581499565114562
 31
0.0
 11
6.0739150359266523
 21
59.711459636108337
 31
0.0
 11
6.0372047080419442
 21
59.838578348905216
 31
0.0
 11
5.9880033821738152
 21
59.961369983469979
 31
0.0
 11
5.9301528133851802
 21
60.076379857278042
 31
0.0
 11
5.8636535259251952
 21
60.186592681645998
 31
0.0
 11
5.7896864623867241
 21
60.291450045572127
 31
0.0
 11
5.7090312953373541
 21
60.391261395972151
 31
0.0
 11
5.6245256098642908
 21
60.484130085802349
 31
0.0
 11
5.5352904383142949
 21
60.572465567961693
 31
0.0
 11
5.4419839874272045
 21
60.656614798409166
 31
0.0
 11
5.345326158437274
 21
60.736868925146297
 31
0.0
 11
5.2612674779220843
 21
60.802446336339585
 31
0.0
 11
5.1764842259950656
 21
60.867117072800006
 31
0.0
 11
5.0923170190930733
 21
60.932425516263663
 31
0.0
 11
5.0099999999999909
 21
61.0
 31
0.0
  0
LINE
  5
38B
100
AcDbEntity
  8
0
  6
CONTINUOUS
 62
               7
100
AcDbLine
 10
18.5
 20
8.6456451416015625
 30
0.0
 11
18.5
 21
46.499984741210937
 31
0.0
  0
LINE
  5
38C
100
AcDbEntity
  8
0
  6
CONTINUOUS
 62
               7
100
AcDbLine
 10
16.0
 20
46.699996948242188
 30
0.0
 11
18.5
 21
46.699996948242188
 31
0.0
  0
LINE
  5
38D
100
AcDbEntity
  8
0
  6
CONTINUOUS
 62
               7
100
AcDbLine
 10
16.0
 20
46.499984741210937
 30
0.0
 11
18.5
 21
46.499984741210937
 31
0.0
  0
LINE
  5
38E
100
AcDbEntity
  8
0
  6
CONTINUOUS
 62
               7
100
AcDbLine
 10
0.0
 20
3.0
 30
0.0
 11
19.0
 21
3.0
 31
0.0
  0
CIRCLE
  5
38F
100
AcDbEntity
  8
0
  6
CONTINUOUS
 62
               7
100
AcDbCircle
 10
16.0
 20
7.5
 30
0.0
 40
2.75
  0
LINE
  5
390
100
AcDbEntity
  8
0
  6
CONTINUOUS
 62
               7
100
AcDbLine
 10
16.0
 20
10.5
 30
0.0
 11
18.5
 21
10.5
 31
0.0
  0
LINE
  5
391
100
AcDbEntity
  8
0
  6
CONTINUOUS
 62
               7
100
AcDbLine
 10
0.5
 20
3.199981689453125
 30
0.0
 11
18.5
 21
3.199981689453125
 31
0.0
  0
LINE
  5
392
100
AcDbEntity
  8
0
  6
CONTINUOUS
 62
               7
100
AcDbLine
 10
0.5
 20
6.6999969482421875
 30
0.0
 11
0.5
 21
12.300003051757812
 31
0.0
  0
LINE
  5
393
100
AcDbEntity
  8
0
  6
CONTINUOUS
 62
               7
100
AcDbLine
 10
0.5
 20
6.6999969482421875
 30
0.0
 11
3.0
 21
6.6999969482421875
 31
0.0
  0
LINE
  5
394
100
AcDbEntity
  8
0
  6
CONTINUOUS
 62
               7
100
AcDbLine
 10
0.5
 20
12.300003051757812
 30
0.0
 11
3.0
 21
12.300003051757812
 31
0.0
  0
LINE
  5
395
100
AcDbEntity
  8
0
  6
CONTINUOUS
 62
               7
100
AcDbLine
 10
0.5
 20
3.199981689453125
 30
0.0
 11
0.5
 21
6.4999847412109375
 31
0.0
  0
LINE
  5
396
100
AcDbEntity
  8
0
  6
CONTINUOUS
 62
               7
100
AcDbLine
 10
0.5
 20
6.4999847412109375
 30
0.0
 11
3.0
 21
6.4999847412109375
 31
0.0
  0
LINE
  5
397
100
AcDbEntity
  8
0
  6
CONTINUOUS
 62
               7
100
AcDbLine
 10
0.5
 20
12.499984741210938
 30
0.0
 11
3.0
 21
12.499984741210938
 31
0.0
  0
LINE
  5
398
100
AcDbEntity
  8
0
  6
CONTINUOUS
 62
               7
100
AcDbLine
 10
13.0
 20
7.5
 30
0.0
 11
13.0
 21
3.199981689453125
 31
0.0
  0
LINE
  5
399
100
AcDbEntity
  8
0
  6
CONTINUOUS
 62
               7
100
AcDbLine
 10
0.5
 20
5.199981689453125
 30
0.0
 11
13.0
 21
5.199981689453125
 31
0.0
  0
LINE
  5
39A
100
AcDbEntity
  8
0
  6
CONTINUOUS
 62
               7
100
AcDbLine
 10
14.939411826037031
 20
6.4392739503182383
 30
0.0
 11
17.060727841757398
 21
8.5605987279213878
 31
0.0
  0
LINE
  5
39B
100
AcDbEntity
  8
0
  6
CONTINUOUS
 62
               7
100
AcDbLine
 10
17.060655851796582
 20
6.4393064060086544
 30
0.0
 11
14.939347407012974
 21
8.5606169965485606
 31
0.0
  0
ARC
  5
39C
100
AcDbEntity
  8
0
  6
CONTINUOUS
 62
               7
100
AcDbCircle
 10
3.0
 20
9.5
 30
0.0
 40
2.8000030517578125
100
AcDbArc
 50
270.00001798608935
 51
89.999982013910653
  0
ARC
  5
39D
100
AcDbEntity
  8
0
  6
CONTINUOUS
 62
               7
100
AcDbCircle
 10
3.0
 20
9.5
 30
0.0
 40
3.0
100
AcDbArc
 50
269.99996334457597
 51
89.999982013910653
  0
ARC
  5
39E
100
AcDbEntity
  8
0
  6
CONTINUOUS
 62
               7
100
AcDbCircle
 10
16.0
 20
7.5
 30
0.0
 40
3.0
100
AcDbArc
 50
89.999982013910653
 51
179.99996402782131
  0
LINE
  5
39F
100
AcDbEntity
  8
0
  6
CONTINUOUS
 62
               7
100
AcDbLine
 10
18.5
 20
3.199981689453125
 30
0.0
 11
18.5
 21
6.3543548583984375
 31
0.0
  0
LINE
  5
3A0
100
AcDbEntity
  8
0
  6
CONTINUOUS
 62
               7
100
AcDbLine
 10
0.0
 20
1.0
 30
0.0
 11
19.0
 21
1.0
 31
0.0
  0
ENDBLK
  5
3A1
100
AcDbEntity
  8
0
100
AcDbBlockEnd
  0
BLOCK
  5
3A2
100
AcDbEntity
  8
0
100
AcDbBlockBegin
  2
F10MS-7
 70
               0
 10
0.0
 20
0.0
 30
0.0
  3
F10MS-7
  1

  0
CIRCLE
  5
3A3
100
AcDbEntity
  8
0
  6
CONTINUOUS
 62
               4
100
AcDbCircle
 10
9.5
 20
-1.9761806001263267
 30
0.0
 40
5.6799993515014648
  0
CIRCLE
  5
3A4
100
AcDbEntity
  8
0
  6
CONTINUOUS
 62
               4
100
AcDbCircle
 10
9.5
 20
-1.9761806001263267
 30
0.0
 40
6.5
  0
CIRCLE
  5
3A5
100
AcDbEntity
  8
0
  6
CONTINUOUS
 62
               4
100
AcDbCircle
 10
9.5
 20
17.023819399873673
 30
0.0
 40
6.5
  0
CIRCLE
  5
3A6
100
AcDbEntity
  8
0
  6
CONTINUOUS
 62
               4
100
AcDbCircle
 10
9.5
 20
17.023819399873673
 30
0.0
 40
5.6799993515014648
  0
CIRCLE
  5
3A7
100
AcDbEntity
  8
0
  6
CONTINUOUS
 62
               4
100
AcDbCircle
 10
9.4950000000000045
 20
-1.9761818001010738
 30
0.0
 40
8.9966316346430766
  0
CIRCLE
  5
3A8
100
AcDbEntity
  8
0
  6
CONTINUOUS
 62
               4
100
AcDbCircle
 10
9.4950000000000045
 20
17.023820599091181
 30
0.0
 40
9.0052432634140587
  0
CIRCLE
  5
3A9
100
AcDbEntity
  8
0
  6
CONTINUOUS
 62
               4
100
AcDbCircle
 10
3.0
 20
29.523834658662736
 30
0.0
 40
2.7999992370605469
  0
CIRCLE
  5
3AA
100
AcDbEntity
  8
0
  6
CONTINUOUS
 62
               4
100
AcDbCircle
 10
16.0
 20
-14.476165341337264
 30
0.0
 40
2.7999992370605469
  0
ARC
  5
3AB
100
AcDbEntity
  8
0
  6
CONTINUOUS
 62
               4
100
AcDbCircle
 10
16.0
 20
-14.476165341337264
 30
0.0
 40
3.0
100
AcDbArc
 50
90.0
 51
180.0
  0
ARC
  5
3AC
100
AcDbEntity
  8
0
  6
CONTINUOUS
 62
               4
100
AcDbCircle
 10
3.0
 20
29.523834658662736
 30
0.0
 40
3.0
100
AcDbArc
 50
270.0
 51
0.0
  0
ARC
  5
3AD
100
AcDbEntity
  8
0
  6
CONTINUOUS
 62
               4
100
AcDbCircle
 10
3.0
 20
-12.476165341337264
 30
0.0
 40
3.0
100
AcDbArc
 50
270.0
 51
90.0
  0
ARC
  5
3AE
100
AcDbEntity
  8
0
  6
CONTINUOUS
 62
               4
100
AcDbCircle
 10
16.0
 20
27.523834658662736
 30
0.0
 40
3.0
100
AcDbArc
 50
90.0
 51
270.0
  0
ARC
  5
3AF
100
AcDbEntity
  8
0
  6
CONTINUOUS
 62
               7
100
AcDbCircle
 10
4.25
 20
-30.476165341337264
 30
0.0
 40
1.5
100
AcDbArc
 50
270.0
 51
0.0
  0
ARC
  5
3B0
100
AcDbEntity
  8
0
  6
CONTINUOUS
 62
               7
100
AcDbCircle
 10
1.75
 20
-30.476165341337264
 30
0.0
 40
1.5
100
AcDbArc
 50
180.0
 51
270.0
  0
LINE
  5
3B1
100
AcDbEntity
  8
0
  6
CONTINUOUS
 62
             200
100
AcDbLine
 10
-1.0
 20
-1.9761653413372642
 30
0.0
 11
20.0
 21
-1.9761653413372642
 31
0.0
  0
LINE
  5
3B2
100
AcDbEntity
  8
0
  6
CONTINUOUS
 62
             200
100
AcDbLine
 10
-1.0
 20
17.023834658662736
 30
0.0
 11
20.0
 21
17.023834658662736
 31
0.0
  0
LINE
  5
3B3
100
AcDbEntity
  8
0
  6
CONTINUOUS
 62
               4
100
AcDbLine
 10
1.9300000000000068
 20
28.453834658662743
 30
0.0
 11
4.0600000000000023
 21
30.583834658662738
 31
0.0
  0
LINE
  5
3B4
100
AcDbEntity
  8
0
  6
CONTINUOUS
 62
               4
100
AcDbLine
 10
1.9300000000000068
 20
30.583834658662738
 30
0.0
 11
4.0600000000000023
 21
28.453834658662743
 31
0.0
  0
LINE
  5
3B5
100
AcDbEntity
  8
0
  6
CONTINUOUS
 62
               4
100
AcDbLine
 10
14.930000000000007
 20
-13.406165341337271
 30
0.0
 11
17.060000000000002
 21
-15.536165341337266
 31
0.0
  0
LINE
  5
3B6
100
AcDbEntity
  8
0
  6
CONTINUOUS
 62
               4
100
AcDbLine
 10
14.930000000000007
 20
-15.536165341337266
 30
0.0
 11
17.060000000000002
 21
-13.406165341337271
 31
0.0
  0
LINE
  5
3B7
100
AcDbEntity
  8
0
  6
CONTINUOUS
 62
               4
100
AcDbLine
 10
18.5
 20
-13.206165341337268
 30
0.0
 11
18.5
 21
24.523834658662736
 31
0.0
  0
LINE
  5
3B8
100
AcDbEntity
  8
0
  6
CONTINUOUS
 62
               4
100
AcDbLine
 10
0.5
 20
30.783834658662727
 30
0.0
 11
0.5
 21
33.823834658662733
 31
0.0
  0
LINE
  5
3B9
100
AcDbEntity
  8
0
  6
CONTINUOUS
 62
               4
100
AcDbLine
 10
18.5
 20
30.523834658662736
 30
0.0
 11
18.5
 21
33.823834658662733
 31
0.0
  0
LINE
  5
3BA
100
AcDbEntity
  8
0
  6
CONTINUOUS
 62
               4
100
AcDbLine
 10
0.5
 20
-9.4761653413372642
 30
0.0
 11
0.5
 21
28.25383465866274
 31
0.0
  0
LINE
  5
3BB
100
AcDbEntity
  8
0
  6
CONTINUOUS
 62
               4
100
AcDbLine
 10
13.0
 20
-14.476165341337264
 30
0.0
 11
13.0
 21
-18.776165341337261
 31
0.0
  0
LINE
  5
3BC
100
AcDbEntity
  8
0
  6
CONTINUOUS
 62
               4
100
AcDbLine
 10
16.0
 20
-11.476165341337264
 30
0.0
 11
18.5
 21
-11.476165341337264
 31
0.0
  0
LINE
  5
3BD
100
AcDbEntity
  8
0
  6
CONTINUOUS
 62
               4
100
AcDbLine
 10
0.5
 20
-18.776165341337261
 30
0.0
 11
0.5
 21
-15.476165341337264
 31
0.0
  0
LINE
  5
3BE
100
AcDbEntity
  8
0
  6
CONTINUOUS
 62
               4
100
AcDbLine
 10
18.5
 20
-18.776165341337261
 30
0.0
 11
18.5
 21
-15.736165341337269
 31
0.0
  0
LINE
  5
3BF
100
AcDbEntity
  8
0
  6
CONTINUOUS
 62
               4
100
AcDbLine
 10
6.0
 20
31.823834658662733
 30
0.0
 11
18.5
 21
31.823834658662733
 31
0.0
  0
LINE
  5
3C0
100
AcDbEntity
  8
0
  6
CONTINUOUS
 62
               4
100
AcDbLine
 10
0.5
 20
-16.776165341337261
 30
0.0
 11
13.0
 21
-16.776165341337261
 31
0.0
  0
LINE
  5
3C1
100
AcDbEntity
  8
0
  6
CONTINUOUS
 62
               4
100
AcDbLine
 10
3.0
 20
26.523834658662736
 30
0.0
 11
0.5
 21
26.523834658662736
 31
0.0
  0
LINE
  5
3C2
100
AcDbEntity
  8
0
  6
CONTINUOUS
 62
               4
100
AcDbLine
 10
6.0
 20
29.523834658662736
 30
0.0
 11
6.0
 21
33.823834658662733
 31
0.0
  0
LINE
  5
3C3
100
AcDbEntity
  8
0
  6
CONTINUOUS
 62
               4
100
AcDbLine
 10
0.5
 20
-9.4761653413372642
 30
0.0
 11
3.0
 21
-9.4761653413372642
 31
0.0
  0
LINE
  5
3C4
100
AcDbEntity
  8
0
  6
CONTINUOUS
 62
               4
100
AcDbLine
 10
0.5
 20
-15.476165341337264
 30
0.0
 11
3.0
 21
-15.476165341337264
 31
0.0
  0
LINE
  5
3C5
100
AcDbEntity
  8
0
  6
CONTINUOUS
 62
               4
100
AcDbLine
 10
16.0
 20
24.523834658662736
 30
0.0
 11
18.5
 21
24.523834658662736
 31
0.0
  0
LINE
  5
3C6
100
AcDbEntity
  8
0
  6
CONTINUOUS
 62
               4
100
AcDbLine
 10
16.0
 20
30.523834658662736
 30
0.0
 11
18.5
 21
30.523834658662736
 31
0.0
  0
LINE
  5
3C7
100
AcDbEntity
  8
0
  6
CONTINUOUS
 62
               4
100
AcDbLine
 10
0.5
 20
-18.776165341337261
 30
0.0
 11
18.5
 21
-18.776165341337261
 31
0.0
  0
LINE
  5
3C8
100
AcDbEntity
  8
0
  6
CONTINUOUS
 62
               4
100
AcDbLine
 10
0.5
 20
33.823834658662733
 30
0.0
 11
18.5
 21
33.823834658662733
 31
0.0
  0
LINE
  5
3C9
100
AcDbEntity
  8
0
  6
CONTINUOUS
 62
               7
100
AcDbLine
 10
0.0
 20
-26.976165341337264
 30
0.0
 11
19.0
 21
-26.976165341337264
 31
0.0
  0
LINE
  5
3CA
100
AcDbEntity
  8
0
  6
CONTINUOUS
 62
               7
100
AcDbLine
 10
6.0
 20
-31.976165341337264
 30
0.0
 11
6.0
 21
-29.976165341337264
 31
0.0
  0
LINE
  5
3CB
100
AcDbEntity
  8
0
  6
CONTINUOUS
 62
               7
100
AcDbLine
 10
0.5
 20
-29.976165341337264
 30
0.0
 11
0.5
 21
-26.976165341337264
 31
0.0
  0
LINE
  5
3CC
100
AcDbEntity
  8
0
  6
CONTINUOUS
 62
               7
100
AcDbLine
 10
18.5
 20
-31.976165341337264
 30
0.0
 11
18.5
 21
-26.976165341337264
 31
0.0
  0
LINE
  5
3CD
100
AcDbEntity
  8
0
  6
CONTINUOUS
 62
               7
100
AcDbLine
 10
18.5
 20
-31.976165341337264
 30
0.0
 11
1.75
 21
-31.976165341337264
 31
0.0
  0
LINE
  5
3CE
100
AcDbEntity
  8
0
  6
CONTINUOUS
 62
               7
100
AcDbLine
 10
0.25
 20
-30.476165341337264
 30
0.0
 11
0.25
 21
-29.976165341337264
 31
0.0
  0
LINE
  5
3CF
100
AcDbEntity
  8
0
  6
CONTINUOUS
 62
               7
100
AcDbLine
 10
5.75
 20
-30.476165341337264
 30
0.0
 11
5.75
 21
-29.976165341337264
 31
0.0
  0
LINE
  5
3D0
100
AcDbEntity
  8
0
  6
CONTINUOUS
 62
               7
100
AcDbLine
 10
18.5
 20
-29.976165341337264
 30
0.0
 11
0.25
 21
-29.976165341337264
 31
0.0
  0
LINE
  5
3D1
100
AcDbEntity
  8
0
  6
CONTINUOUS
 62
               2
100
AcDbLine
 10
9.5
 20
-33.476165341337264
 30
0.0
 11
9.5
 21
63.353834658662734
 31
0.0
  0
LINE
  5
3D2
100
AcDbEntity
  8
0
  6
CONTINUOUS
 62
               7
100
AcDbLine
 10
0.0
 20
34.023834658662736
 30
0.0
 11
19.0
 21
34.023834658662736
 31
0.0
  0
LINE
  5
3D3
100
AcDbEntity
  8
0
  6
CONTINUOUS
 62
               7
100
AcDbLine
 10
0.0
 20
60.023834658662736
 30
0.0
 11
19.0
 21
60.023834658662736
 31
0.0
  0
LINE
  5
3D4
100
AcDbEntity
  8
0
  6
CONTINUOUS
 62
               7
100
AcDbLine
 10
0.0
 20
61.023834658662736
 30
0.0
 11
19.0
 21
61.023834658662736
 31
0.0
  0
LINE
  5
3D5
100
AcDbEntity
  8
0
  6
CONTINUOUS
 62
               7
100
AcDbLine
 10
0.0
 20
-18.976165341337264
 30
0.0
 11
19.0
 21
-18.976165341337264
 31
0.0
  0
LINE
  5
3D6
100
AcDbEntity
  8
0
  6
CONTINUOUS
 62
               7
100
AcDbLine
 10
0.0
 20
59.523834658662736
 30
0.0
 11
19.0
 21
59.523834658662736
 31
0.0
  0
LINE
  5
3D7
100
AcDbEntity
  8
0
  6
CONTINUOUS
 62
               7
100
AcDbLine
 10
19.0
 20
-26.976165341337264
 30
0.0
 11
19.0
 21
61.023834658662736
 31
0.0
  0
LINE
  5
3D8
100
AcDbEntity
  8
0
  6
CONTINUOUS
 62
               7
100
AcDbLine
 10
0.0
 20
-26.976165341337264
 30
0.0
 11
0.0
 21
61.023834658662736
 31
0.0
  0
ENDBLK
  5
3D9
100
AcDbEntity
  8
0
100
AcDbBlockEnd
  0
BLOCK
  5
3DA
100
AcDbEntity
  8
0
100
AcDbBlockBegin
  2
F10MS-8
 70
               0
 10
0.0
 20
0.0
 30
0.0
  3
F10MS-8
  1

  0
LINE
  5
3DB
100
AcDbEntity
  8
0
  6
CONTINUOUS
 62
               2
100
AcDbLine
 10
-7.4997558593728968
 20
0.0
 30
0.0
 11
7.5002441406271032
 21
0.0
 31
0.0
  0
ARC
  5
3DC
100
AcDbEntity
  8
0
  6
DASHED
 62
               2
100
AcDbCircle
 10
5.916352299152436
 20
16.5
 30
0.0
 40
0.5
100
AcDbArc
 50
270.0
 51
351.86989764584399
  0
ARC
  5
3DD
100
AcDbEntity
  8
0
  6
DASHED
 62
               2
100
AcDbCircle
 10
4.8500000000000227
 20
18.0
 30
0.0
 40
2.0
100
AcDbArc
 50
180.0
 51
270.0
  0
LINE
  5
3DE
100
AcDbEntity
  8
0
  6
DASHED
 62
               2
100
AcDbLine
 10
5.916352299152436
 20
16.0
 30
0.0
 11
4.8500000000000227
 21
16.0
 31
0.0
  0
LINE
  5
3DF
100
AcDbEntity
  8
0
  6
DASHED
 62
               2
100
AcDbLine
 10
2.8500000000000227
 20
20.168330610420725
 30
0.0
 11
2.8500000000000227
 21
18.0
 31
0.0
  0
LINE
  5
3E0
100
AcDbEntity
  8
0
  6
DASHED
 62
               2
100
AcDbLine
 10
2.8500000000000227
 20
20.168330610420711
 30
0.0
 11
1.0
 21
21.03099977800747
 31
0.0
  0
LINE
  5
3E1
100
AcDbEntity
  8
0
  6
DASHED
 62
               2
100
AcDbLine
 10
0.0
 20
14.5
 30
0.0
 11
6.5
 21
14.5
 31
0.0
  0
LINE
  5
3E2
100
AcDbEntity
  8
0
  6
DASHED
 62
               2
100
AcDbLine
 10
6.5
 20
14.5
 30
0.0
 11
6.5
 21
16.429289321881299
 31
0.0
  0
LINE
  5
3E3
100
AcDbEntity
  8
0
  6
DASHED
 62
               2
100
AcDbLine
 10
3.5000000000013642
 20
-30.5
 30
0.0
 11
7.9019165039076142
 21
-30.5
 31
0.0
  0
LINE
  5
3E4
100
AcDbEntity
  8
0
  6
DASHED
 62
               2
100
AcDbLine
 10
3.5000000000013642
 20
-33.5
 30
0.0
 11
7.9019165039076142
 21
-33.5
 31
0.0
  0
ARC
  5
3E5
100
AcDbEntity
  8
0
  6
DASHED
 62
               2
100
AcDbCircle
 10
10.500000000001364
 20
-32.0
 30
0.0
 40
3.0
100
AcDbArc
 50
150.00002466469778
 51
210.00001267397155
  0
LINE
  5
3E6
100
AcDbEntity
  8
0
  6
DASHED
 62
               2
100
AcDbLine
 10
3.0
 20
-28.5
 30
0.0
 11
3.0
 21
-25.5
 31
0.0
  0
ARC
  5
3E7
100
AcDbEntity
  8
0
  6
DASHED
 62
               2
100
AcDbCircle
 10
5.916352299152436
 20
-16.5
 30
0.0
 40
0.5
100
AcDbArc
 50
8.1301023541559339
 51
90.000000000000014
  0
LINE
  5
3E8
100
AcDbEntity
  8
0
  6
DASHED
 62
               2
100
AcDbLine
 10
2.8500000000000227
 20
-18.0
 30
0.0
 11
2.8500000000000227
 21
-20.168330610420696
 31
0.0
  0
ARC
  5
3E9
100
AcDbEntity
  8
0
  6
DASHED
 62
               2
100
AcDbCircle
 10
4.8500000000000227
 20
-18.0
 30
0.0
 40
2.0
100
AcDbArc
 50
90.0
 51
180.0
  0
LINE
  5
3EA
100
AcDbEntity
  8
0
  6
DASHED
 62
               2
100
AcDbLine
 10
5.916352299152436
 20
-16.0
 30
0.0
 11
4.8500000000000227
 21
-16.0
 31
0.0
  0
LINE
  5
3EB
100
AcDbEntity
  8
0
  6
DASHED
 62
               2
100
AcDbLine
 10
2.8500000000000227
 20
-20.168330610420696
 30
0.0
 11
1.0
 21
-21.03099977800747
 31
0.0
  0
LINE
  5
3EC
100
AcDbEntity
  8
0
  6
DASHED
 62
               2
100
AcDbLine
 10
1.0000000000001137
 20
-23.5
 30
0.0
 11
3.0
 21
-25.5
 31
0.0
  0
LINE
  5
3ED
100
AcDbEntity
  8
0
  6
DASHED
 62
               2
100
AcDbLine
 10
1.0000000000001137
 20
-23.5
 30
0.0
 11
1.0000000000001137
 21
-21.03099977800747
 31
0.0
  0
LINE
  5
3EE
100
AcDbEntity
  8
0
  6
DASHED
 62
               2
100
AcDbLine
 10
0.0
 20
-14.5
 30
0.0
 11
6.5
 21
-14.5
 31
0.0
  0
LINE
  5
3EF
100
AcDbEntity
  8
0
  6
DASHED
 62
               2
100
AcDbLine
 10
6.5
 20
-17.049999999999955
 30
0.0
 11
6.5
 21
-14.5
 31
0.0
  0
LINE
  5
3F0
100
AcDbEntity
  8
0
  6
DASHED
 62
               2
100
AcDbLine
 10
3.20001220703125
 20
-30.5
 30
0.0
 11
3.5000000000013642
 21
-30.5
 31
0.0
  0
LINE
  5
3F1
100
AcDbEntity
  8
0
  6
DASHED
 62
               2
100
AcDbLine
 10
3.2000045776367187
 20
-28.700004577636719
 30
0.0
 11
3.0
 21
-28.5
 31
0.0
  0
LINE
  5
3F2
100
AcDbEntity
  8
0
  6
DASHED
 62
               2
100
AcDbLine
 10
3.20001220703125
 20
-28.699996948242188
 30
0.0
 11
3.20001220703125
 21
-30.5
 31
0.0
  0
LINE
  5
3F3
100
AcDbEntity
  8
0
  6
DASHED
 62
               2
100
AcDbLine
 10
6.5
 20
-17.049999999999955
 30
0.0
 11
6.4113270459830574
 21
-16.429289321881356
 31
0.0
  0
LINE
  5
3F4
100
AcDbEntity
  8
0
  6
DASHED
 62
               2
100
AcDbLine
 10
0.0
 20
-14.5
 30
0.0
 11
0.0
 21
14.5
 31
0.0
  0
LINE
  5
3F5
100
AcDbEntity
  8
0
  6
DASHED
 62
               2
100
AcDbLine
 10
41.000000000001364
 20
-45.0
 30
0.0
 11
3.5000000000013642
 21
-45.0
 31
0.0
  0
LINE
  5
3F6
100
AcDbEntity
  8
0
  6
DASHED
 62
               2
100
AcDbLine
 10
64.000000000001364
 20
-48.5
 30
0.0
 11
64.500000000001364
 21
-48.5
 31
0.0
  0
ARC
  5
3F7
100
AcDbEntity
  8
0
  6
DASHED
 62
               2
100
AcDbCircle
 10
62.800003051759177
 20
-48.5
 30
0.0
 40
1.1999998092651367
100
AcDbArc
 50
270.00001866933468
 51
0.0000006832453318
  0
ARC
  5
3F8
100
AcDbEntity
  8
0
  6
DASHED
 62
               2
100
AcDbCircle
 10
44.199996948243552
 20
-48.5
 30
0.0
 40
1.1999998092651367
100
AcDbArc
 50
179.99998201391065
 51
270.00001866933468
  0
ARC
  5
3F9
100
AcDbEntity
  8
0
  6
DASHED
 62
               2
100
AcDbCircle
 10
64.500000000001364
 20
-47.0
 30
0.0
 40
1.5
100
AcDbArc
 50
270.00001866933468
 51
0.0000006832453318
  0
ARC
  5
3FA
100
AcDbEntity
  8
0
  6
DASHED
 62
               2
100
AcDbCircle
 10
42.500000000001364
 20
-47.0
 30
0.0
 40
1.5
100
AcDbArc
 50
179.99998201391065
 51
270.00001866933468
  0
LINE
  5
3FB
100
AcDbEntity
  8
0
  6
DASHED
 62
               2
100
AcDbLine
 10
44.199996948243552
 20
-49.699996948242188
 30
0.0
 11
62.800003051759177
 21
-49.699996948242188
 31
0.0
  0
LINE
  5
3FC
100
AcDbEntity
  8
0
  6
DASHED
 62
               2
100
AcDbLine
 10
66.000000000001364
 20
-47.0
 30
0.0
 11
66.000000000001364
 21
-45.0
 31
0.0
  0
LINE
  5
3FD
100
AcDbEntity
  8
0
  6
DASHED
 62
               2
100
AcDbLine
 10
41.000000000001364
 20
-47.0
 30
0.0
 11
41.000000000001364
 21
-45.0
 31
0.0
  0
LINE
  5
3FE
100
AcDbEntity
  8
0
  6
DASHED
 62
               2
100
AcDbLine
 10
42.500000000001364
 20
-48.5
 30
0.0
 11
43.000000000001364
 21
-48.5
 31
0.0
  0
LINE
  5
3FF
100
AcDbEntity
  8
0
  6
DASHED
 62
               2
100
AcDbLine
 10
47.79998474121237
 20
-49.700000000000045
 30
0.0
 11
47.999984741212302
 21
-49.900000000000034
 31
0.0
  0
LINE
  5
400
100
AcDbEntity
  8
0
  6
DASHED
 62
               2
100
AcDbLine
 10
3.5000000000013642
 20
-33.5
 30
0.0
 11
3.5000000000013642
 21
-45.0
 31
0.0
  0
LINE
  5
401
100
AcDbEntity
  8
0
  6
DASHED
 62
               2
100
AcDbLine
 10
73.800003051759177
 20
-45.0
 30
0.0
 11
66.000000000001364
 21
-45.0
 31
0.0
  0
LINE
  5
402
100
AcDbEntity
  8
0
  6
DASHED
 62
               2
100
AcDbLine
 10
74.300003051759177
 20
44.5
 30
0.0
 11
74.300003051759177
 21
-44.5
 31
0.0
  0
LINE
  5
403
100
AcDbEntity
  8
0
  6
DASHED
 62
               2
100
AcDbLine
 10
64.000000000001364
 20
48.5
 30
0.0
 11
64.500000000001364
 21
48.5
 31
0.0
  0
ARC
  5
404
100
AcDbEntity
  8
0
  6
DASHED
 62
               2
100
AcDbCircle
 10
62.800003051759177
 20
48.5
 30
0.0
 40
1.1999998092651367
100
AcDbArc
 50
359.99999931675467
 51
89.999981330665321
  0
ARC
  5
405
100
AcDbEntity
  8
0
  6
DASHED
 62
               2
100
AcDbCircle
 10
64.500000000001364
 20
47.0
 30
0.0
 40
1.5
100
AcDbArc
 50
359.99999931675467
 51
89.999981330665321
  0
LINE
  5
406
100
AcDbEntity
  8
0
  6
DASHED
 62
               2
100
AcDbLine
 10
66.000000000001364
 20
47.0
 30
0.0
 11
66.000000000001364
 21
45.0
 31
0.0
  0
LINE
  5
407
100
AcDbEntity
  8
0
  6
DASHED
 62
               2
100
AcDbLine
 10
73.800003051759177
 20
45.0
 30
0.0
 11
66.000000000001364
 21
45.0
 31
0.0
  0
LINE
  5
408
100
AcDbEntity
  8
0
  6
CONTINUOUS
 62
               7
100
AcDbLine
 10
56.000244140627103
 20
61.023834658662736
 30
0.0
 11
45.000000000001364
 21
61.023834658662736
 31
0.0
  0
LINE
  5
409
100
AcDbEntity
  8
0
  6
CONTINUOUS
 62
               7
100
AcDbLine
 10
56.000244140627103
 20
61.023834658662736
 30
0.0
 11
56.000244140627103
 21
49.699996948242188
 31
0.0
  0
LINE
  5
40A
100
AcDbEntity
  8
0
  6
DASHED
 62
               2
100
AcDbLine
 10
4.0
 20
62.5
 30
0.0
 11
45.000000000001364
 21
62.5
 31
0.0
  0
ARC
  5
40B
100
AcDbEntity
  8
0
  6
DASHED
 62
               2
100
AcDbCircle
 10
4.0
 20
59.5
 30
0.0
 40
3.0
100
AcDbArc
 50
89.999963344575988
 51
179.99994535848663
  0
LINE
  5
40C
100
AcDbEntity
  8
0
  6
DASHED
 62
               2
100
AcDbLine
 10
45.000000000001364
 20
62.5
 30
0.0
 11
45.000000000001364
 21
49.699996948242188
 31
0.0
  0
LINE
  5
40D
100
AcDbEntity
  8
0
  6
DASHED
 62
               2
100
AcDbLine
 10
45.000000000001364
 20
49.699996948242188
 30
0.0
 11
62.800003051759177
 21
49.699996948242188
 31
0.0
  0
LINE
  5
40E
100
AcDbEntity
  8
0
  6
DASHED
 62
               2
100
AcDbLine
 10
1.0
 20
59.500000000000057
 30
0.0
 11
1.0
 21
21.03099977800747
 31
0.0
  0
ENDBLK
  5
40F
100
AcDbEntity
  8
0
100
AcDbBlockEnd
  0
BLOCK
  5
410
100
AcDbEntity
  8
0
100
AcDbBlockBegin
  2
F10MS-9
 70
               0
 10
0.0
 20
0.0
 30
0.0
  3
F10MS-9
  1

  0
LINE
  5
411
100
AcDbEntity
  8
0
  6
CONTINUOUS
 62
               7
100
AcDbLine
 10
0.0
 20
56.0
 30
0.0
 11
0.0
 21
1.0
 31
0.0
  0
LINE
  5
412
100
AcDbEntity
  8
0
  6
CONTINUOUS
 62
               7
100
AcDbLine
 10
19.0
 20
56.0
 30
0.0
 11
19.0
 21
1.0
 31
0.0
  0
LINE
  5
413
100
AcDbEntity
  8
0
  6
CONTINUOUS
 62
               7
100
AcDbLine
 10
0.5
 20
12.499984741210938
 30
0.0
 11
0.5
 21
50.354354858398438
 31
0.0
  0
LINE
  5
414
100
AcDbEntity
  8
0
  6
CONTINUOUS
 62
               7
100
AcDbLine
 10
18.5
 20
8.6456298828125
 30
0.0
 11
18.5
 21
46.499984741210937
 31
0.0
  0
LINE
  5
415
100
AcDbEntity
  8
0
  6
CONTINUOUS
 62
               2
100
AcDbLine
 10
9.5
 20
-0.8300000000000125
 30
0.0
 11
9.5
 21
56.0
 31
0.0
  0
LINE
  5
416
100
AcDbEntity
  8
0
  6
CONTINUOUS
 62
               7
100
AcDbLine
 10
0.0
 20
0.0
 30
0.0
 11
19.0
 21
0.0
 31
0.0
  0
LINE
  5
417
100
AcDbEntity
  8
0
  6
CONTINUOUS
 62
               7
100
AcDbLine
 10
19.0
 20
1.0
 30
0.0
 11
0.0
 21
1.0
 31
0.0
  0
CIRCLE
  5
418
100
AcDbEntity
  8
0
  6
CONTINUOUS
 62
               7
100
AcDbCircle
 10
16.0
 20
7.5
 30
0.0
 40
2.75
  0
ARC
  5
419
100
AcDbEntity
  8
0
  6
CONTINUOUS
 62
               7
100
AcDbCircle
 10
16.0
 20
7.5
 30
0.0
 40
3.0
100
AcDbArc
 50
89.999982013910653
 51
179.99996402782131
  0
ARC
  5
41A
100
AcDbEntity
  8
0
  6
CONTINUOUS
 62
               7
100
AcDbCircle
 10
3.0
 20
9.5
 30
0.0
 40
3.0
100
AcDbArc
 50
269.99996334457597
 51
89.999982013910653
  0
ARC
  5
41B
100
AcDbEntity
  8
0
  6
CONTINUOUS
 62
               7
100
AcDbCircle
 10
3.0
 20
9.5
 30
0.0
 40
2.8000030517578125
100
AcDbArc
 50
270.00001798608935
 51
89.999982013910653
  0
LINE
  5
41C
100
AcDbEntity
  8
0
  6
CONTINUOUS
 62
               7
100
AcDbLine
 10
17.060667479227959
 20
6.4393250507464472
 30
0.0
 11
14.939359034444351
 21
8.5606356412863533
 31
0.0
  0
LINE
  5
41D
100
AcDbEntity
  8
0
  6
CONTINUOUS
 62
               7
100
AcDbLine
 10
14.939407943478727
 20
6.4392644409663262
 30
0.0
 11
17.060723959199095
 21
8.5605892185694756
 31
0.0
  0
LINE
  5
41E
100
AcDbEntity
  8
0
  6
CONTINUOUS
 62
               7
100
AcDbLine
 10
0.5
 20
5.199981689453125
 30
0.0
 11
13.0
 21
5.199981689453125
 31
0.0
  0
LINE
  5
41F
100
AcDbEntity
  8
0
  6
CONTINUOUS
 62
               7
100
AcDbLine
 10
16.0
 20
10.499984741210937
 30
0.0
 11
18.5
 21
10.499984741210937
 31
0.0
  0
LINE
  5
420
100
AcDbEntity
  8
0
  6
CONTINUOUS
 62
               7
100
AcDbLine
 10
13.0
 20
7.5
 30
0.0
 11
13.0
 21
3.199981689453125
 31
0.0
  0
LINE
  5
421
100
AcDbEntity
  8
0
  6
CONTINUOUS
 62
               7
100
AcDbLine
 10
0.5
 20
12.499984741210938
 30
0.0
 11
3.0
 21
12.499984741210938
 31
0.0
  0
LINE
  5
422
100
AcDbEntity
  8
0
  6
CONTINUOUS
 62
               7
100
AcDbLine
 10
0.5
 20
6.4999847412109375
 30
0.0
 11
3.0
 21
6.4999847412109375
 31
0.0
  0
LINE
  5
423
100
AcDbEntity
  8
0
  6
CONTINUOUS
 62
               7
100
AcDbLine
 10
0.5
 20
3.199981689453125
 30
0.0
 11
18.5
 21
3.199981689453125
 31
0.0
  0
LINE
  5
424
100
AcDbEntity
  8
0
  6
CONTINUOUS
 62
               7
100
AcDbLine
 10
0.5
 20
3.199981689453125
 30
0.0
 11
0.5
 21
6.4999847412109375
 31
0.0
  0
LINE
  5
425
100
AcDbEntity
  8
0
  6
CONTINUOUS
 62
               7
100
AcDbLine
 10
18.5
 20
3.199981689453125
 30
0.0
 11
18.5
 21
6.3543548583984375
 31
0.0
  0
LINE
  5
426
100
AcDbEntity
  8
0
  6
CONTINUOUS
 62
               7
100
AcDbLine
 10
0.5
 20
12.300003051757812
 30
0.0
 11
3.0
 21
12.300003051757812
 31
0.0
  0
LINE
  5
427
100
AcDbEntity
  8
0
  6
CONTINUOUS
 62
               7
100
AcDbLine
 10
0.5
 20
6.6999969482421875
 30
0.0
 11
3.0
 21
6.6999969482421875
 31
0.0
  0
LINE
  5
428
100
AcDbEntity
  8
0
  6
CONTINUOUS
 62
               7
100
AcDbLine
 10
0.5
 20
6.6999969482421875
 30
0.0
 11
0.5
 21
12.300003051757812
 31
0.0
  0
LINE
  5
429
100
AcDbEntity
  8
0
  6
CENTER
 62
             200
100
AcDbLine
 10
9.5
 20
56.0
 30
0.0
 11
9.5
 21
67.389999999999986
 31
0.0
  0
LINE
  5
42A
100
AcDbEntity
  8
0
  6
CONTINUOUS
 62
               4
100
AcDbLine
 10
0.5
 20
60.0
 30
0.0
 11
18.500015258789063
 21
60.0
 31
0.0
  0
ARC
  5
42B
100
AcDbEntity
  8
0
  6
CONTINUOUS
 62
               4
100
AcDbCircle
 10
18.000015258789063
 20
64.5
 30
0.0
 40
0.5
100
AcDbArc
 50
0.0
 51
89.999982013910653
  0
ARC
  5
42C
100
AcDbEntity
  8
0
  6
CONTINUOUS
 62
               4
100
AcDbCircle
 10
1.0000152587890625
 20
64.5
 30
0.0
 40
0.5
100
AcDbArc
 50
89.999982013910653
 51
179.99996402782131
  0
ARC
  5
42D
100
AcDbEntity
  8
0
  6
CONTINUOUS
 62
               4
100
AcDbCircle
 10
14.75
 20
56.5
 30
0.0
 40
1.5
100
AcDbArc
 50
89.999982013910653
 51
179.99996402782131
  0
ARC
  5
42E
100
AcDbEntity
  8
0
  6
CONTINUOUS
 62
               4
100
AcDbCircle
 10
17.25
 20
56.5
 30
0.0
 40
1.5
100
AcDbArc
 50
0.0
 51
89.999982013910653
  0
ARC
  5
42F
100
AcDbEntity
  8
0
  6
CONTINUOUS
 62
               7
100
AcDbCircle
 10
3.0
 20
51.5
 30
0.0
 40
3.0
100
AcDbArc
 50
270.00001798608935
 51
0.00001366037834
  0
ARC
  5
430
100
AcDbEntity
  8
0
  6
CONTINUOUS
 62
               7
100
AcDbCircle
 10
16.0
 20
49.5
 30
0.0
 40
3.0
100
AcDbArc
 50
89.999982013910653
 51
269.99994604173196
  0
CIRCLE
  5
431
100
AcDbEntity
  8
0
  6
CONTINUOUS
 62
               7
100
AcDbCircle
 10
3.0
 20
51.5
 30
0.0
 40
2.75
  0
ARC
  5
432
100
AcDbEntity
  8
0
  6
CONTINUOUS
 62
               7
100
AcDbCircle
 10
16.0
 20
49.5
 30
0.0
 40
2.8000030517578125
100
AcDbArc
 50
89.999982013910653
 51
270.00000068324533
  0
LINE
  5
433
100
AcDbEntity
  8
0
  6
CONTINUOUS
 62
               4
100
AcDbLine
 10
18.500015258789063
 20
64.5
 30
0.0
 11
18.500015258789063
 21
57.329132080078125
 31
0.0
  0
LINE
  5
434
100
AcDbEntity
  8
0
  6
CONTINUOUS
 62
               4
100
AcDbLine
 10
1.0000152587890625
 20
65.0
 30
0.0
 11
18.000015258789063
 21
65.0
 31
0.0
  0
LINE
  5
435
100
AcDbEntity
  8
0
  6
CONTINUOUS
 62
               4
100
AcDbLine
 10
13.0
 20
60.0
 30
0.0
 11
13.0
 21
56.0
 31
0.0
  0
LINE
  5
436
100
AcDbEntity
  8
0
  6
CONTINUOUS
 62
               4
100
AcDbLine
 10
0.5
 20
64.5
 30
0.0
 11
0.5
 21
56.0
 31
0.0
  0
LINE
  5
437
100
AcDbEntity
  8
0
  6
CONTINUOUS
 62
               4
100
AcDbLine
 10
14.75
 20
58.0
 30
0.0
 11
17.25
 21
58.0
 31
0.0
  0
LINE
  5
438
100
AcDbEntity
  8
0
  6
CONTINUOUS
 62
               4
100
AcDbLine
 10
18.75
 20
56.5
 30
0.0
 11
18.75
 21
56.0
 31
0.0
  0
LINE
  5
439
100
AcDbEntity
  8
0
  6
CONTINUOUS
 62
               4
100
AcDbLine
 10
13.25
 20
56.5
 30
0.0
 11
13.25
 21
56.0
 31
0.0
  0
LINE
  5
43A
100
AcDbEntity
  8
0
  6
CONTINUOUS
 62
               7
100
AcDbLine
 10
18.5
 20
52.499984741210937
 30
0.0
 11
18.5
 21
55.79998779296875
 31
0.0
  0
LINE
  5
43B
100
AcDbEntity
  8
0
  6
CONTINUOUS
 62
               7
100
AcDbLine
 10
0.5
 20
52.645645141601563
 30
0.0
 11
0.5
 21
55.79998779296875
 31
0.0
  0
LINE
  5
43C
100
AcDbEntity
  8
0
  6
CONTINUOUS
 62
               7
100
AcDbLine
 10
1.9393314019382615
 20
50.439362201070082
 30
0.0
 11
4.0606518319095812
 21
52.560678339511014
 31
0.0
  0
LINE
  5
43D
100
AcDbEntity
  8
0
  6
CONTINUOUS
 62
               7
100
AcDbLine
 10
4.0607177482065708
 20
50.439382502517276
 30
0.0
 11
1.9394049511370213
 21
52.560710677585178
 31
0.0
  0
LINE
  5
43E
100
AcDbEntity
  8
0
  6
CONTINUOUS
 62
               7
100
AcDbLine
 10
6.0
 20
53.799972534179688
 30
0.0
 11
18.5
 21
53.799972534179688
 31
0.0
  0
LINE
  5
43F
100
AcDbEntity
  8
0
  6
CONTINUOUS
 62
               7
100
AcDbLine
 10
3.0
 20
48.499984741210937
 30
0.0
 11
0.5
 21
48.499984741210937
 31
0.0
  0
LINE
  5
440
100
AcDbEntity
  8
0
  6
CONTINUOUS
 62
               7
100
AcDbLine
 10
6.0
 20
51.5
 30
0.0
 11
6.0
 21
55.79998779296875
 31
0.0
  0
LINE
  5
441
100
AcDbEntity
  8
0
  6
CONTINUOUS
 62
               7
100
AcDbLine
 10
16.0
 20
46.499984741210937
 30
0.0
 11
18.5
 21
46.499984741210937
 31
0.0
  0
LINE
  5
442
100
AcDbEntity
  8
0
  6
CONTINUOUS
 62
               7
100
AcDbLine
 10
16.0
 20
52.499984741210937
 30
0.0
 11
18.5
 21
52.499984741210937
 31
0.0
  0
LINE
  5
443
100
AcDbEntity
  8
0
  6
CONTINUOUS
 62
               7
100
AcDbLine
 10
0.5
 20
55.79998779296875
 30
0.0
 11
18.5
 21
55.79998779296875
 31
0.0
  0
LINE
  5
444
100
AcDbEntity
  8
0
  6
CONTINUOUS
 62
               7
100
AcDbLine
 10
16.0
 20
46.699996948242188
 30
0.0
 11
18.5
 21
46.699996948242188
 31
0.0
  0
LINE
  5
445
100
AcDbEntity
  8
0
  6
CONTINUOUS
 62
               7
100
AcDbLine
 10
16.0
 20
52.300003051757813
 30
0.0
 11
18.5
 21
52.300003051757813
 31
0.0
  0
LINE
  5
446
100
AcDbEntity
  8
0
  6
CONTINUOUS
 62
               7
100
AcDbLine
 10
18.5
 20
46.699996948242188
 30
0.0
 11
18.5
 21
52.300003051757813
 31
0.0
  0
LINE
  5
447
100
AcDbEntity
  8
0
  6
CONTINUOUS
 62
               7
100
AcDbLine
 10
0.0
 20
56.0
 30
0.0
 11
19.0
 21
56.0
 31
0.0
  0
LINE
  5
448
100
AcDbEntity
  8
0
  6
CONTINUOUS
 62
             200
100
AcDbLine
 10
9.5
 20
51.200812424303194
 30
0.0
 11
9.5
 21
54.757143165755309
 31
0.0
  0
LINE
  5
449
100
AcDbEntity
  8
0
  6
CONTINUOUS
 62
             200
100
AcDbLine
 10
9.5
 20
54.757143165755309
 30
0.0
 11
9.5
 21
67.392333984375
 31
0.0
  0
ENDBLK
  5
44A
100
AcDbEntity
  8
0
100
AcDbBlockEnd
  0
BLOCK
  5
44B
100
AcDbEntity
  8
0
100
AcDbBlockBegin
  2
F10MS-10
 70
               0
 10
0.0
 20
0.0
 30
0.0
  3
F10MS-10
  1

  0
LINE
  5
44C
100
AcDbEntity
  8
0
  6
CONTINUOUS
 62
               7
100
AcDbLine
 10
0.0
 20
35.0
 30
0.0
 11
10.00000607967371
 21
35.0
 31
0.0
  0
LINE
  5
44D
100
AcDbEntity
  8
0
  6
CONTINUOUS
 62
               7
100
AcDbLine
 10
10.00000607967371
 20
1.0
 30
0.0
 11
0.0
 21
1.0
 31
0.0
  0
LINE
  5
44E
100
AcDbEntity
  8
0
  6
CONTINUOUS
 62
               7
100
AcDbLine
 10
8.7999938726424602
 20
30.400009155273438
 30
0.0
 11
10.00000607967371
 21
30.400009155273438
 31
0.0
  0
LINE
  5
44F
100
AcDbEntity
  8
0
  6
CONTINUOUS
 62
               7
100
AcDbLine
 10
0.0
 20
3.0
 30
0.0
 11
10.00000607967371
 21
3.0
 31
0.0
  0
LINE
  5
450
100
AcDbEntity
  8
0
  6
CONTINUOUS
 62
               7
100
AcDbLine
 10
0.0
 20
0.0
 30
0.0
 11
10.00000607967371
 21
0.0
 31
0.0
  0
LINE
  5
451
100
AcDbEntity
  8
0
  6
CONTINUOUS
 62
               7
100
AcDbLine
 10
0.3999999761580853
 20
60.0
 30
0.0
 11
9.6000121831893352
 21
60.0
 31
0.0
  0
LINE
  5
452
100
AcDbEntity
  8
0
  6
CONTINUOUS
 62
               7
100
AcDbLine
 10
10.000022817844126
 20
59.600009668082748
 30
0.0
 11
9.6000197632419599
 21
60.000011778589396
 31
0.0
  0
LINE
  5
453
100
AcDbEntity
  8
0
  6
CONTINUOUS
 62
               7
100
AcDbLine
 10
0.3999928174652609
 20
60.000052155133744
 30
0.0
 11
-0.0000090570175075
 21
59.600048864507698
 31
0.0
  0
LINE
  5
454
100
AcDbEntity
  8
0
  6
CONTINUOUS
 62
               7
100
AcDbLine
 10
10.00000607967371
 20
59.0
 30
0.0
 11
0.0000060796737102
 21
59.0
 31
0.0
  0
LINE
  5
455
100
AcDbEntity
  8
0
  6
CONTINUOUS
 62
               7
100
AcDbLine
 10
10.00000607967371
 20
59.600006103515625
 30
0.0
 11
0.0000060796737102
 21
59.600006103515625
 31
0.0
  0
ARC
  5
456
100
AcDbEntity
  8
0
  6
CONTINUOUS
 62
               7
100
AcDbCircle
 10
0.3999999761580853
 20
58.600006103515625
 30
0.0
 40
0.3999999761581421
100
AcDbArc
 50
89.999982013910653
 51
179.99996402782131
  0
ARC
  5
457
100
AcDbEntity
  8
0
  6
CONTINUOUS
 62
               7
100
AcDbCircle
 10
9.6000121831893352
 20
58.600006103515625
 30
0.0
 40
0.3999999761581421
100
AcDbArc
 50
0.0
 51
89.999982013910653
  0
LINE
  5
458
100
AcDbEntity
  8
0
  6
CONTINUOUS
 62
               4
100
AcDbLine
 10
10.000013709068241
 20
63.800000000000011
 30
0.0
 11
10.000013709068241
 21
58.600006103515625
 31
0.0
  0
LINE
  5
459
100
AcDbEntity
  8
0
  6
CONTINUOUS
 62
               4
100
AcDbLine
 10
0.0000137090682415
 20
63.800000000000011
 30
0.0
 11
0.0000137090682415
 21
58.600006354648826
 31
0.0
  0
LINE
  5
45A
100
AcDbEntity
  8
0
  6
CONTINUOUS
 62
               4
100
AcDbLine
 10
10.000013709068241
 20
63.800000000000011
 30
0.0
 11
0.0000137090682415
 21
63.800000000000011
 31
0.0
  0
LINE
  5
45B
100
AcDbEntity
  8
0
  6
CONTINUOUS
 62
               4
100
AcDbLine
 10
9.700013709068287
 20
75.5
 30
0.0
 11
0.3000137209891705
 21
75.5
 31
0.0
  0
LINE
  5
45C
100
AcDbEntity
  8
0
  6
CONTINUOUS
 62
               4
100
AcDbLine
 10
0.1000137090682642
 20
75.300000000000011
 30
0.0
 11
0.1000137090682642
 21
74.5
 31
0.0
  0
ARC
  5
45D
100
AcDbEntity
  8
0
  6
CONTINUOUS
 62
               4
100
AcDbCircle
 10
0.300013709068196
 20
75.300000000000011
 30
0.0
 40
0.2
100
AcDbArc
 50
90.0
 51
180.0
  0
LINE
  5
45E
100
AcDbEntity
  8
0
  6
CONTINUOUS
 62
               4
100
AcDbLine
 10
1.5000137090682415
 20
74.5
 30
0.0
 11
1.5000137090682415
 21
73.600000000000023
 31
0.0
  0
LINE
  5
45F
100
AcDbEntity
  8
0
  6
CONTINUOUS
 62
               4
100
AcDbLine
 10
9.9000137090682188
 20
74.5
 30
0.0
 11
0.100013703107777
 21
74.5
 31
0.0
  0
LINE
  5
460
100
AcDbEntity
  8
0
  6
CONTINUOUS
 62
               4
100
AcDbLine
 10
0.0000137090682415
 20
72.661879999999996
 30
0.0
 11
0.0000137090682415
 21
68.699999999999989
 31
0.0
  0
ARC
  5
461
100
AcDbEntity
  8
0
  6
CONTINUOUS
 62
               4
100
AcDbCircle
 10
9.700013709068287
 20
75.300000000000011
 30
0.0
 40
0.2
100
AcDbArc
 50
0.0
 51
90.0
  0
LINE
  5
462
100
AcDbEntity
  8
0
  6
CONTINUOUS
 62
               4
100
AcDbLine
 10
9.9000137090682188
 20
75.300000000000011
 30
0.0
 11
9.9000137090682188
 21
74.5
 31
0.0
  0
LINE
  5
463
100
AcDbEntity
  8
0
  6
CONTINUOUS
 62
               4
100
AcDbLine
 10
10.000013709068241
 20
67.600000000000023
 30
0.0
 11
10.000013709068241
 21
64.0
 31
0.0
  0
LINE
  5
464
100
AcDbEntity
  8
0
  6
CONTINUOUS
 62
               4
100
AcDbLine
 10
0.0000137090682415
 20
67.600000000000023
 30
0.0
 11
0.0000137090682415
 21
64.0
 31
0.0
  0
LINE
  5
465
100
AcDbEntity
  8
0
  6
CONTINUOUS
 62
               4
100
AcDbLine
 10
10.000013709068241
 20
67.600000000000023
 30
0.0
 11
0.0000137090682415
 21
67.600000000000023
 31
0.0
  0
LINE
  5
466
100
AcDbEntity
  8
0
  6
CONTINUOUS
 62
               4
100
AcDbLine
 10
9.800013709068196
 20
67.800000000000011
 30
0.0
 11
0.200013709068287
 21
67.800000000000011
 31
0.0
  0
LINE
  5
467
100
AcDbEntity
  8
0
  6
CONTINUOUS
 62
               4
100
AcDbLine
 10
0.200013709068287
 20
67.800000000000011
 30
0.0
 11
0.0000137090682415
 21
67.600000000000023
 31
0.0
  0
LINE
  5
468
100
AcDbEntity
  8
0
  6
CONTINUOUS
 62
               4
100
AcDbLine
 10
9.800013709068196
 20
67.800000000000011
 30
0.0
 11
10.000013709068241
 21
67.600000000000023
 31
0.0
  0
LINE
  5
469
100
AcDbEntity
  8
0
  6
CONTINUOUS
 62
               4
100
AcDbLine
 10
9.800013709068196
 20
68.5
 30
0.0
 11
0.200013709068287
 21
68.5
 31
0.0
  0
LINE
  5
46A
100
AcDbEntity
  8
0
  6
CONTINUOUS
 62
               4
100
AcDbLine
 10
10.000013709068241
 20
68.699999999999989
 30
0.0
 11
0.0000137090682415
 21
68.699999999999989
 31
0.0
  0
LINE
  5
46B
100
AcDbEntity
  8
0
  6
CONTINUOUS
 62
               4
100
AcDbLine
 10
0.7500137090682415
 20
68.5
 30
0.0
 11
0.7500137090682415
 21
67.800000000000011
 31
0.0
  0
LINE
  5
46C
100
AcDbEntity
  8
0
  6
CONTINUOUS
 62
               4
100
AcDbLine
 10
9.2500137090682415
 20
67.800000000000011
 30
0.0
 11
9.2500137090682415
 21
68.5
 31
0.0
  0
LINE
  5
46D
100
AcDbEntity
  8
0
  6
CONTINUOUS
 62
               4
100
AcDbLine
 10
0.0000137090682415
 20
68.699999999999989
 30
0.0
 11
0.200013709068287
 21
68.5
 31
0.0
  0
LINE
  5
46E
100
AcDbEntity
  8
0
  6
CONTINUOUS
 62
               4
100
AcDbLine
 10
10.000013709068241
 20
68.699999999999989
 30
0.0
 11
9.800013709068196
 21
68.5
 31
0.0
  0
LINE
  5
46F
100
AcDbEntity
  8
0
  6
CONTINUOUS
 62
               4
100
AcDbLine
 10
0.0000137090682415
 20
72.661879999999996
 30
0.0
 11
0.0660389090682543
 21
72.699999999999989
 31
0.0
  0
LINE
  5
470
100
AcDbEntity
  8
0
  6
CONTINUOUS
 62
               4
100
AcDbLine
 10
0.0660392090682649
 20
72.699999999999989
 30
0.0
 11
0.2000141090682632
 21
73.199999999999989
 31
0.0
  0
LINE
  5
471
100
AcDbEntity
  8
0
  6
CONTINUOUS
 62
               4
100
AcDbLine
 10
0.950013709068287
 20
73.199999999999989
 30
0.0
 11
0.950013709068287
 21
73.5
 31
0.0
  0
LINE
  5
472
100
AcDbEntity
  8
0
  6
CONTINUOUS
 62
               4
100
AcDbLine
 10
0.950013709068287
 20
73.5
 30
0.0
 11
1.050013709068196
 21
73.600000000000023
 31
0.0
  0
LINE
  5
473
100
AcDbEntity
  8
0
  6
CONTINUOUS
 62
               4
100
AcDbLine
 10
8.950013709068287
 20
73.600000000000023
 30
0.0
 11
1.050013709068196
 21
73.600000000000023
 31
0.0
  0
LINE
  5
474
100
AcDbEntity
  8
0
  6
CONTINUOUS
 62
               4
100
AcDbLine
 10
9.8000133090682198
 20
73.199999999999989
 30
0.0
 11
0.200014114379826
 21
73.199999999999989
 31
0.0
  0
LINE
  5
475
100
AcDbEntity
  8
0
  6
CONTINUOUS
 62
               4
100
AcDbLine
 10
8.5000137090682415
 20
74.5
 30
0.0
 11
8.5000137090682415
 21
73.600000000000023
 31
0.0
  0
LINE
  5
476
100
AcDbEntity
  8
0
  6
CONTINUOUS
 62
               4
100
AcDbLine
 10
10.000013709068241
 20
72.661879999999996
 30
0.0
 11
10.000013709068241
 21
68.699999999999989
 31
0.0
  0
LINE
  5
477
100
AcDbEntity
  8
0
  6
CONTINUOUS
 62
               4
100
AcDbLine
 10
9.050013709068196
 20
73.5
 30
0.0
 11
8.950013709068287
 21
73.600000000000023
 31
0.0
  0
LINE
  5
478
100
AcDbEntity
  8
0
  6
CONTINUOUS
 62
               4
100
AcDbLine
 10
9.050013709068196
 20
73.199999999999989
 30
0.0
 11
9.050013709068196
 21
73.5
 31
0.0
  0
LINE
  5
479
100
AcDbEntity
  8
0
  6
CONTINUOUS
 62
               4
100
AcDbLine
 10
9.9339882090682181
 20
72.699999999999989
 30
0.0
 11
9.8000133090682198
 21
73.199999999999989
 31
0.0
  0
LINE
  5
47A
100
AcDbEntity
  8
0
  6
CONTINUOUS
 62
               4
100
AcDbLine
 10
10.000013709068241
 20
72.661879999999996
 30
0.0
 11
9.9339885090682287
 21
72.699999999999989
 31
0.0
  0
LINE
  5
47B
100
AcDbEntity
  8
0
  6
CONTINUOUS
 62
               4
100
AcDbLine
 10
9.050013709068196
 20
73.5
 30
0.0
 11
0.950013709068287
 21
73.5
 31
0.0
  0
LINE
  5
47C
100
AcDbEntity
  8
0
  6
CONTINUOUS
 62
               4
100
AcDbLine
 10
10.000013709068241
 20
72.661879999999996
 30
0.0
 11
0.0000137090682415
 21
72.661879999999996
 31
0.0
  0
LINE
  5
47D
100
AcDbEntity
  8
0
  6
CONTINUOUS
 62
               4
100
AcDbLine
 10
9.9339881539344219
 20
72.700000204906019
 30
0.0
 11
0.0660392642020611
 21
72.700000204906019
 31
0.0
  0
LINE
  5
47E
100
AcDbEntity
  8
0
  6
CONTINUOUS
 62
               4
100
AcDbLine
 10
9.9000137090682188
 20
63.900000000000034
 30
0.0
 11
0.1000137090681506
 21
63.900000000000034
 31
0.0
  0
LINE
  5
47F
100
AcDbEntity
  8
0
  6
CONTINUOUS
 62
               4
100
AcDbLine
 10
10.000013709068241
 20
64.0
 30
0.0
 11
0.0000137090682415
 21
64.0
 31
0.0
  0
LINE
  5
480
100
AcDbEntity
  8
0
  6
CONTINUOUS
 62
               4
100
AcDbLine
 10
0.0000137090682415
 20
64.0
 30
0.0
 11
0.1000137090681506
 21
63.900000000000034
 31
0.0
  0
LINE
  5
481
100
AcDbEntity
  8
0
  6
CONTINUOUS
 62
               4
100
AcDbLine
 10
0.1000137090681506
 20
63.900000000000034
 30
0.0
 11
0.0000137090682415
 21
63.800000000000011
 31
0.0
  0
LINE
  5
482
100
AcDbEntity
  8
0
  6
CONTINUOUS
 62
               4
100
AcDbLine
 10
9.9000137090682188
 20
63.900000000000034
 30
0.0
 11
10.000013709068241
 21
63.800000000000011
 31
0.0
  0
LINE
  5
483
100
AcDbEntity
  8
0
  6
CONTINUOUS
 62
               4
100
AcDbLine
 10
10.000013709068241
 20
64.0
 30
0.0
 11
9.9000137090682188
 21
63.900000000000034
 31
0.0
  0
LINE
  5
484
100
AcDbEntity
  8
0
  6
CONTINUOUS
 62
               7
100
AcDbLine
 10
0.0
 20
58.600006354648826
 30
0.0
 11
0.0
 21
0.9966885950449864
 31
0.0
  0
LINE
  5
485
100
AcDbEntity
  8
0
  6
CONTINUOUS
 62
               7
100
AcDbLine
 10
0.0
 20
7.600006103515625
 30
0.0
 11
1.2000182867049602
 21
7.600006103515625
 31
0.0
  0
LINE
  5
486
100
AcDbEntity
  8
0
  6
CONTINUOUS
 62
               7
100
AcDbLine
 10
2.6000121831893352
 20
3.0
 30
0.0
 11
2.6000121831893352
 21
6.1999969482421875
 31
0.0
  0
LINE
  5
487
100
AcDbEntity
  8
0
  6
CONTINUOUS
 62
               7
100
AcDbLine
 10
7.3999999761580852
 20
31.800003051757813
 30
0.0
 11
7.3999999761580852
 21
35.0
 31
0.0
  0
ARC
  5
488
100
AcDbEntity
  8
0
  6
CONTINUOUS
 62
               7
100
AcDbCircle
 10
1.2000182867049602
 20
6.1999969482421875
 30
0.0
 40
1.3999996185302734
100
AcDbArc
 50
0.0
 51
89.999982013910653
  0
ARC
  5
489
100
AcDbEntity
  8
0
  6
CONTINUOUS
 62
               7
100
AcDbCircle
 10
8.7999938726424602
 20
31.800003051757813
 30
0.0
 40
1.3999996185302734
100
AcDbArc
 50
179.99998133066532
 51
270.00001798608935
  0
LINE
  5
48A
100
AcDbEntity
  8
0
  6
CONTINUOUS
 62
               2
100
AcDbLine
 10
5.0000060796737102
 20
-0.829620361328125
 30
0.0
 11
5.0000060796737102
 21
59.0
 31
0.0
  0
LINE
  5
48B
100
AcDbEntity
  8
0
  6
CONTINUOUS
 62
               7
100
AcDbLine
 10
0.0000060796737102
 20
53.800003051757813
 30
0.0
 11
1.8000091314315227
 21
53.800003051757813
 31
0.0
  0
LINE
  5
48C
100
AcDbEntity
  8
0
  6
CONTINUOUS
 62
               7
100
AcDbLine
 10
0.0000060796737102
 20
50.600006103515625
 30
0.0
 11
1.8000091314315227
 21
50.600006103515625
 31
0.0
  0
LINE
  5
48D
100
AcDbEntity
  8
0
  6
CONTINUOUS
 62
               7
100
AcDbLine
 10
6.6000121831893352
 20
36.800003051757813
 30
0.0
 11
6.6000121831893352
 21
35.0
 31
0.0
  0
LINE
  5
48E
100
AcDbEntity
  8
0
  6
CONTINUOUS
 62
               7
100
AcDbLine
 10
8.2000030279158977
 20
38.400009155273438
 30
0.0
 11
10.00000607967371
 21
38.400009155273438
 31
0.0
  0
LINE
  5
48F
100
AcDbEntity
  8
0
  6
CONTINUOUS
 62
               7
100
AcDbLine
 10
7.5989831879805365
 20
36.19895156178336
 30
0.0
 11
8.8010626388340256
 21
37.401030911309135
 31
0.0
  0
LINE
  5
490
100
AcDbEntity
  8
0
  6
CONTINUOUS
 62
               7
100
AcDbLine
 10
1.1989746152102612
 20
51.598949407795772
 30
0.0
 11
2.4010648556576939
 21
52.801039546914581
 31
0.0
  0
LINE
  5
491
100
AcDbEntity
  8
0
  6
CONTINUOUS
 62
               7
100
AcDbLine
 10
1.1989586246936028
 20
52.801028782609137
 30
0.0
 11
2.4010380755470919
 21
51.598949433083362
 31
0.0
  0
LINE
  5
492
100
AcDbEntity
  8
0
  6
CONTINUOUS
 62
               7
100
AcDbLine
 10
7.5989684955865755
 20
37.401031476077151
 30
0.0
 11
8.8010479464400646
 21
36.198952126551376
 31
0.0
  0
ARC
  5
493
100
AcDbEntity
  8
0
  6
CONTINUOUS
 62
               7
100
AcDbCircle
 10
0.3999999761580853
 20
35.400009155273438
 30
0.0
 40
0.3999999761581421
100
AcDbArc
 50
179.99998133066532
 51
270.00001798608935
  0
ARC
  5
494
100
AcDbEntity
  8
0
  6
CONTINUOUS
 62
               7
100
AcDbCircle
 10
9.6000121831893352
 20
35.400009155273438
 30
0.0
 40
0.3999999761581421
100
AcDbArc
 50
270.00001798608935
 51
0.0
  0
CIRCLE
  5
495
100
AcDbEntity
  8
0
  6
CONTINUOUS
 62
               7
100
AcDbCircle
 10
8.2000030279158977
 20
36.800003051757813
 30
0.0
 40
1.25
  0
CIRCLE
  5
496
100
AcDbEntity
  8
0
  6
CONTINUOUS
 62
               7
100
AcDbCircle
 10
1.8000091314315227
 20
52.199996948242188
 30
0.0
 40
1.25
  0
ARC
  5
497
100
AcDbEntity
  8
0
  6
CONTINUOUS
 62
               7
100
AcDbCircle
 10
8.2000030279158977
 20
36.800003051757813
 30
0.0
 40
1.5999994277954102
100
AcDbArc
 50
89.999982013910653
 51
179.99996402782131
  0
ARC
  5
498
100
AcDbEntity
  8
0
  6
CONTINUOUS
 62
               7
100
AcDbCircle
 10
1.8000091314315227
 20
52.199996948242188
 30
0.0
 40
1.5999984741210938
100
AcDbArc
 50
270.00001798608935
 51
89.999982013910653
  0
LINE
  5
499
100
AcDbEntity
  8
0
  6
CONTINUOUS
 62
               7
100
AcDbLine
 10
10.00000607967371
 20
1.0
 30
0.0
 11
10.00000607967371
 21
58.600006103515625
 31
0.0
  0
LINE
  5
49A
100
AcDbEntity
  8
0
  6
CONTINUOUS
 62
               7
100
AcDbLine
 10
3.2000030279158977
 20
3.20001220703125
 30
0.0
 11
9.5999969244002727
 21
3.20001220703125
 31
0.0
  0
LINE
  5
49B
100
AcDbEntity
  8
0
  6
CONTINUOUS
 62
               7
100
AcDbLine
 10
0.3999999761580853
 20
34.800003051757813
 30
0.0
 11
6.8000091314315227
 21
34.800003051757813
 31
0.0
  0
LINE
  5
49C
100
AcDbEntity
  8
0
  6
CONTINUOUS
 62
               7
100
AcDbLine
 10
7.2000030279158977
 20
31.800003051757813
 30
0.0
 11
7.2000030279158977
 21
34.400009155273438
 31
0.0
  0
LINE
  5
49D
100
AcDbEntity
  8
0
  6
CONTINUOUS
 62
               7
100
AcDbLine
 10
2.8000091314315227
 20
6.1999969482421875
 30
0.0
 11
2.8000091314315227
 21
3.600006103515625
 31
0.0
  0
LINE
  5
49E
100
AcDbEntity
  8
0
  6
CONTINUOUS
 62
               7
100
AcDbLine
 10
1.2000030279158977
 20
7.8000030517578125
 30
0.0
 11
0.3999999761580853
 21
7.8000030517578125
 31
0.0
  0
LINE
  5
49F
100
AcDbEntity
  8
0
  6
CONTINUOUS
 62
               7
100
AcDbLine
 10
8.7999938726424602
 20
30.20001220703125
 30
0.0
 11
9.5999969244002727
 21
30.20001220703125
 31
0.0
  0
LINE
  5
4A0
100
AcDbEntity
  8
0
  6
CONTINUOUS
 62
               7
100
AcDbLine
 10
7.3989637314113565
 20
5.3989557433195046
 30
0.0
 11
8.6010438566144671
 21
6.6010357671948441
 31
0.0
  0
LINE
  5
4A1
100
AcDbEntity
  8
0
  6
CONTINUOUS
 62
               7
100
AcDbLine
 10
7.3989657966037043
 20
6.6010498020950763
 30
0.0
 11
8.6010452474571935
 21
5.3989704525693014
 31
0.0
  0
LINE
  5
4A2
100
AcDbEntity
  8
0
  6
CONTINUOUS
 62
               7
100
AcDbLine
 10
1.3989769601557214
 20
32.601053969775421
 30
0.0
 11
2.6010672006031541
 21
31.398963830656612
 31
0.0
  0
LINE
  5
4A3
100
AcDbEntity
  8
0
  6
CONTINUOUS
 62
               7
100
AcDbLine
 10
1.3989696687539777
 20
31.398952998915775
 30
0.0
 11
2.6010491196074668
 21
32.601032348441549
 31
0.0
  0
ARC
  5
4A4
100
AcDbEntity
  8
0
  6
CONTINUOUS
 62
               7
100
AcDbCircle
 10
0.3999999761580853
 20
8.20001220703125
 30
0.0
 40
0.4000000357627869
100
AcDbArc
 50
179.99996402782131
 51
270.00000068324533
  0
ARC
  5
4A5
100
AcDbEntity
  8
0
  6
CONTINUOUS
 62
               7
100
AcDbCircle
 10
0.3999999761580853
 20
34.400009155273438
 30
0.0
 40
0.4000000357627869
100
AcDbArc
 50
89.999982013910653
 51
179.99996402782131
  0
ARC
  5
4A6
100
AcDbEntity
  8
0
  6
CONTINUOUS
 62
               7
100
AcDbCircle
 10
6.8000091314315227
 20
34.400009155273438
 30
0.0
 40
0.4000000357627869
100
AcDbArc
 50
0.0
 51
89.999982013910653
  0
ARC
  5
4A7
100
AcDbEntity
  8
0
  6
CONTINUOUS
 62
               7
100
AcDbCircle
 10
9.5999969244002727
 20
29.800003051757813
 30
0.0
 40
0.4000000357627869
100
AcDbArc
 50
0.0
 51
89.999982013910653
  0
ARC
  5
4A8
100
AcDbEntity
  8
0
  6
CONTINUOUS
 62
               7
100
AcDbCircle
 10
9.5999969244002727
 20
3.600006103515625
 30
0.0
 40
0.4000000357627869
100
AcDbArc
 50
270.00001798608935
 51
0.0
  0
ARC
  5
4A9
100
AcDbEntity
  8
0
  6
CONTINUOUS
 62
               7
100
AcDbCircle
 10
3.2000030279158977
 20
3.600006103515625
 30
0.0
 40
0.4000000357627869
100
AcDbArc
 50
179.99996402782131
 51
270.00000068324533
  0
ARC
  5
4AA
100
AcDbEntity
  8
0
  6
CONTINUOUS
 62
               7
100
AcDbCircle
 10
8.8000091314315227
 20
31.800003051757813
 30
0.0
 40
1.5999994277954102
100
AcDbArc
 50
179.99996402782131
 51
270.00000068324533
  0
ARC
  5
4AB
100
AcDbEntity
  8
0
  6
CONTINUOUS
 62
               7
100
AcDbCircle
 10
1.2000030279158977
 20
6.20001220703125
 30
0.0
 40
1.5999994277954102
100
AcDbArc
 50
0.0
 51
89.999982013910653
  0
CIRCLE
  5
4AC
100
AcDbEntity
  8
0
  6
CONTINUOUS
 62
               7
100
AcDbCircle
 10
8.0000060796737102
 20
6.0
 30
0.0
 40
1.3999996185302734
  0
CIRCLE
  5
4AD
100
AcDbEntity
  8
0
  6
CONTINUOUS
 62
               7
100
AcDbCircle
 10
2.0000060796737102
 20
32.0
 30
0.0
 40
1.3999996185302734
  0
CIRCLE
  5
4AE
100
AcDbEntity
  8
0
  6
CONTINUOUS
 62
               7
100
AcDbCircle
 10
8.0000060796737102
 20
6.0
 30
0.0
 40
1.25
  0
CIRCLE
  5
4AF
100
AcDbEntity
  8
0
  6
CONTINUOUS
 62
               7
100
AcDbCircle
 10
2.0000060796737102
 20
32.0
 30
0.0
 40
1.25
  0
LINE
  5
4B0
100
AcDbEntity
  8
0
  6
CONTINUOUS
 62
             200
100
AcDbLine
 10
5.0000060796737102
 20
59.0
 30
0.0
 11
5.0000060796737102
 21
76.806991577148438
 31
0.0
  0
ENDBLK
  5
4B1
100
AcDbEntity
  8
0
100
AcDbBlockEnd
  0
BLOCK
  5
4B2
100
AcDbEntity
  8
0
100
AcDbBlockBegin
  2
F10MS-11
 70
               0
 10
0.0
 20
0.0
 30
0.0
  3
F10MS-11
  1

  0
LINE
  5
4B3
100
AcDbEntity
  8
0
  6
CONTINUOUS
 62
               7
100
AcDbLine
 10
64.000000000001364
 20
48.5
 30
0.0
 11
64.500000000001364
 21
48.5
 31
0.0
  0
ARC
  5
4B4
100
AcDbEntity
  8
0
  6
CONTINUOUS
 62
               7
100
AcDbCircle
 10
62.800003051759177
 20
48.5
 30
0.0
 40
1.1999998092651367
100
AcDbArc
 50
359.99999931675467
 51
89.999981330665321
  0
ARC
  5
4B5
100
AcDbEntity
  8
0
  6
CONTINUOUS
 62
               7
100
AcDbCircle
 10
44.199996948243552
 20
48.5
 30
0.0
 40
1.1999998092651367
100
AcDbArc
 50
89.999981330665321
 51
180.00001798608935
  0
ARC
  5
4B6
100
AcDbEntity
  8
0
  6
CONTINUOUS
 62
               7
100
AcDbCircle
 10
64.500000000001364
 20
47.0
 30
0.0
 40
1.5
100
AcDbArc
 50
359.99999931675467
 51
89.999981330665321
  0
ARC
  5
4B7
100
AcDbEntity
  8
0
  6
CONTINUOUS
 62
               7
100
AcDbCircle
 10
42.500000000001364
 20
47.0
 30
0.0
 40
1.5
100
AcDbArc
 50
89.999981330665321
 51
180.00001798608935
  0
LINE
  5
4B8
100
AcDbEntity
  8
0
  6
CONTINUOUS
 62
               7
100
AcDbLine
 10
44.199996948243552
 20
49.699996948242188
 30
0.0
 11
62.800003051759177
 21
49.699996948242188
 31
0.0
  0
LINE
  5
4B9
100
AcDbEntity
  8
0
  6
CONTINUOUS
 62
               7
100
AcDbLine
 10
66.000000000001364
 20
47.0
 30
0.0
 11
66.000000000001364
 21
45.0
 31
0.0
  0
LINE
  5
4BA
100
AcDbEntity
  8
0
  6
CONTINUOUS
 62
               7
100
AcDbLine
 10
41.000000000001364
 20
47.0
 30
0.0
 11
41.000000000001364
 21
45.0
 31
0.0
  0
LINE
  5
4BB
100
AcDbEntity
  8
0
  6
CONTINUOUS
 62
               7
100
AcDbLine
 10
42.500000000001364
 20
48.5
 30
0.0
 11
43.000000000001364
 21
48.5
 31
0.0
  0
LINE
  5
4BC
100
AcDbEntity
  8
0
  6
CONTINUOUS
 62
               7
100
AcDbLine
 10
64.000000000001364
 20
-48.5
 30
0.0
 11
64.500000000001364
 21
-48.5
 31
0.0
  0
ARC
  5
4BD
100
AcDbEntity
  8
0
  6
CONTINUOUS
 62
               7
100
AcDbCircle
 10
62.800003051759177
 20
-48.5
 30
0.0
 40
1.1999998092651367
100
AcDbArc
 50
270.00001866933468
 51
0.0000006832453318
  0
ARC
  5
4BE
100
AcDbEntity
  8
0
  6
CONTINUOUS
 62
               7
100
AcDbCircle
 10
44.199996948243552
 20
-48.5
 30
0.0
 40
1.1999998092651367
100
AcDbArc
 50
179.99998201391065
 51
270.00001866933468
  0
ARC
  5
4BF
100
AcDbEntity
  8
0
  6
CONTINUOUS
 62
               7
100
AcDbCircle
 10
64.500000000001364
 20
-47.0
 30
0.0
 40
1.5
100
AcDbArc
 50
270.00001866933468
 51
0.0000006832453318
  0
ARC
  5
4C0
100
AcDbEntity
  8
0
  6
CONTINUOUS
 62
               7
100
AcDbCircle
 10
42.500000000001364
 20
-47.0
 30
0.0
 40
1.5
100
AcDbArc
 50
179.99998201391065
 51
270.00001866933468
  0
LINE
  5
4C1
100
AcDbEntity
  8
0
  6
CONTINUOUS
 62
               7
100
AcDbLine
 10
44.199996948243552
 20
-49.699996948242188
 30
0.0
 11
62.800003051759177
 21
-49.699996948242188
 31
0.0
  0
LINE
  5
4C2
100
AcDbEntity
  8
0
  6
CONTINUOUS
 62
               7
100
AcDbLine
 10
66.000000000001364
 20
-47.0
 30
0.0
 11
66.000000000001364
 21
-45.0
 31
0.0
  0
LINE
  5
4C3
100
AcDbEntity
  8
0
  6
CONTINUOUS
 62
               7
100
AcDbLine
 10
41.000000000001364
 20
-47.0
 30
0.0
 11
41.000000000001364
 21
-45.0
 31
0.0
  0
LINE
  5
4C4
100
AcDbEntity
  8
0
  6
CONTINUOUS
 62
               7
100
AcDbLine
 10
42.500000000001364
 20
-48.5
 30
0.0
 11
43.000000000001364
 21
-48.5
 31
0.0
  0
CIRCLE
  5
4C5
100
AcDbEntity
  8
0
  6
CONTINUOUS
 62
               7
100
AcDbCircle
 10
50.500000000001364
 20
16.0
 30
0.0
 40
12.5
  0
CIRCLE
  5
4C6
100
AcDbEntity
  8
0
  6
CONTINUOUS
 62
               7
100
AcDbCircle
 10
50.500000000001364
 20
-16.0
 30
0.0
 40
12.5
  0
LINE
  5
4C7
100
AcDbEntity
  8
0
  6
CONTINUOUS
 62
               7
100
AcDbLine
 10
35.000000000001364
 20
62.5
 30
0.0
 11
45.000000000001364
 21
62.5
 31
0.0
  0
LINE
  5
4C8
100
AcDbEntity
  8
0
  6
CONTINUOUS
 62
               7
100
AcDbLine
 10
45.000000000001364
 20
62.5
 30
0.0
 11
45.000000000001364
 21
49.699996948242188
 31
0.0
  0
LINE
  5
4C9
100
AcDbEntity
  8
0
  6
CONTINUOUS
 62
               7
100
AcDbLine
 10
38.500000000001364
 20
57.5
 30
0.0
 11
42.500000000001364
 21
57.5
 31
0.0
  0
LINE
  5
4CA
100
AcDbEntity
  8
0
  6
CONTINUOUS
 62
               7
100
AcDbLine
 10
42.500000000001364
 20
57.5
 30
0.0
 11
42.500000000001364
 21
48.499984741210937
 31
0.0
  0
LINE
  5
4CB
100
AcDbEntity
  8
0
  6
CONTINUOUS
 62
               7
100
AcDbLine
 10
38.500000000001364
 20
57.5
 30
0.0
 11
38.500000000001364
 21
45.0
 31
0.0
  0
LINE
  5
4CC
100
AcDbEntity
  8
0
  6
CONTINUOUS
 62
               7
100
AcDbLine
 10
35.000000000001364
 20
51.199996948242188
 30
0.0
 11
36.600006103516989
 21
51.199996948242188
 31
0.0
  0
LINE
  5
4CD
100
AcDbEntity
  8
0
  6
CONTINUOUS
 62
               7
100
AcDbLine
 10
35.000000000001364
 20
51.5
 30
0.0
 11
36.600006103516989
 21
51.5
 31
0.0
  0
LINE
  5
4CE
100
AcDbEntity
  8
0
  6
CONTINUOUS
 62
               7
100
AcDbLine
 10
36.600006103516989
 20
51.5
 30
0.0
 11
36.600006103516989
 21
45.0
 31
0.0
  0
ARC
  5
4CF
100
AcDbEntity
  8
0
  6
CONTINUOUS
 62
               7
100
AcDbCircle
 10
34.500000000001364
 20
62.0
 30
0.0
 40
0.5
100
AcDbArc
 50
0.0
 51
89.999982013910653
  0
LINE
  5
4D0
100
AcDbEntity
  8
0
  6
CONTINUOUS
 62
               7
100
AcDbLine
 10
3.5000000000013642
 20
45.0
 30
0.0
 11
3.5000000000013642
 21
35.5
 31
0.0
  0
LINE
  5
4D1
100
AcDbEntity
  8
0
  6
CONTINUOUS
 62
               7
100
AcDbLine
 10
3.5000000000013642
 20
17.5
 30
0.0
 11
7.5000000000013642
 21
17.5
 31
0.0
  0
LINE
  5
4D2
100
AcDbEntity
  8
0
  6
CONTINUOUS
 62
               7
100
AcDbLine
 10
3.5000000000013642
 20
-17.800003051757812
 30
0.0
 11
7.5000000000013642
 21
-17.800003051757812
 31
0.0
  0
LINE
  5
4D3
100
AcDbEntity
  8
0
  6
CONTINUOUS
 62
               7
100
AcDbLine
 10
7.5000000000013642
 20
17.5
 30
0.0
 11
7.5000000000013642
 21
-17.800003051757812
 31
0.0
  0
LINE
  5
4D4
100
AcDbEntity
  8
0
  6
CONTINUOUS
 62
               7
100
AcDbLine
 10
3.5000000000013642
 20
-17.800003051757812
 30
0.0
 11
3.5000000000013642
 21
-30.5
 31
0.0
  0
LINE
  5
4D5
100
AcDbEntity
  8
0
  6
CONTINUOUS
 62
               7
100
AcDbLine
 10
3.5000000000013642
 20
-30.5
 30
0.0
 11
7.9019165039076142
 21
-30.5
 31
0.0
  0
LINE
  5
4D6
100
AcDbEntity
  8
0
  6
CONTINUOUS
 62
               7
100
AcDbLine
 10
3.5000000000013642
 20
-33.5
 30
0.0
 11
7.9019165039076142
 21
-33.5
 31
0.0
  0
LINE
  5
4D7
100
AcDbEntity
  8
0
  6
CONTINUOUS
 62
               7
100
AcDbLine
 10
3.5000000000013642
 20
28.5
 30
0.0
 11
10.500000000001364
 21
28.5
 31
0.0
  0
LINE
  5
4D8
100
AcDbEntity
  8
0
  6
CONTINUOUS
 62
               7
100
AcDbLine
 10
3.5000000000013642
 20
35.5
 30
0.0
 11
10.500000000001364
 21
35.5
 31
0.0
  0
LINE
  5
4D9
100
AcDbEntity
  8
0
  6
CONTINUOUS
 62
               7
100
AcDbLine
 10
3.5000000000013642
 20
-28.5
 30
0.0
 11
10.500000000001364
 21
-28.5
 31
0.0
  0
LINE
  5
4DA
100
AcDbEntity
  8
0
  6
CONTINUOUS
 62
               7
100
AcDbLine
 10
3.5000000000013642
 20
-35.5
 30
0.0
 11
10.500000000001364
 21
-35.5
 31
0.0
  0
ARC
  5
4DB
100
AcDbEntity
  8
0
  6
CONTINUOUS
 62
               7
100
AcDbCircle
 10
10.500000000001364
 20
32.0
 30
0.0
 40
3.5
100
AcDbArc
 50
270.00001798608935
 51
89.999982013910653
  0
ARC
  5
4DC
100
AcDbEntity
  8
0
  6
CONTINUOUS
 62
               7
100
AcDbCircle
 10
10.500000000001364
 20
-32.0
 30
0.0
 40
3.5
100
AcDbArc
 50
270.00001798608935
 51
89.999982013910653
  0
CIRCLE
  5
4DD
100
AcDbEntity
  8
0
  6
CONTINUOUS
 62
               7
100
AcDbCircle
 10
10.500000000001364
 20
-32.0
 30
0.0
 40
1.6000003814697266
  0
CIRCLE
  5
4DE
100
AcDbEntity
  8
0
  6
CONTINUOUS
 62
               7
100
AcDbCircle
 10
10.500000000001364
 20
32.0
 30
0.0
 40
1.6000003814697266
  0
LINE
  5
4DF
100
AcDbEntity
  8
0
  6
CONTINUOUS
 62
               7
100
AcDbLine
 10
7.5000000000013642
 20
35.5
 30
0.0
 11
7.5000000000013642
 21
28.5
 31
0.0
  0
LINE
  5
4E0
100
AcDbEntity
  8
0
  6
CONTINUOUS
 62
               7
100
AcDbLine
 10
3.5000000000013642
 20
-33.5
 30
0.0
 11
3.5000000000013642
 21
-45.0
 31
0.0
  0
LINE
  5
4E1
100
AcDbEntity
  8
0
  6
CONTINUOUS
 62
               7
100
AcDbLine
 10
3.5000000000013642
 20
28.5
 30
0.0
 11
3.5000000000013642
 21
17.5
 31
0.0
  0
ARC
  5
4E2
100
AcDbEntity
  8
0
  6
CONTINUOUS
 62
               7
100
AcDbCircle
 10
10.500000000001364
 20
-32.0
 30
0.0
 40
3.0
100
AcDbArc
 50
150.00002466469778
 51
210.00001267397155
  0
LINE
  5
4E3
100
AcDbEntity
  8
0
  6
CONTINUOUS
 62
               7
100
AcDbLine
 10
10.500000000001364
 20
27.0
 30
0.0
 11
10.500000000001364
 21
-27.0
 31
0.0
  0
LINE
  5
4E4
100
AcDbEntity
  8
0
  6
CONTINUOUS
 62
               7
100
AcDbLine
 10
73.800003051759177
 20
45.0
 30
0.0
 11
3.5000000000013642
 21
45.0
 31
0.0
  0
LINE
  5
4E5
100
AcDbEntity
  8
0
  6
CONTINUOUS
 62
               7
100
AcDbLine
 10
73.800003051759177
 20
-45.0
 30
0.0
 11
3.5000000000013642
 21
-45.0
 31
0.0
  0
LINE
  5
4E6
100
AcDbEntity
  8
0
  6
CONTINUOUS
 62
               7
100
AcDbLine
 10
15.500000000001364
 20
45.0
 30
0.0
 11
15.500000000001364
 21
27.0
 31
0.0
  0
LINE
  5
4E7
100
AcDbEntity
  8
0
  6
CONTINUOUS
 62
               7
100
AcDbLine
 10
15.500000000001364
 20
-27.0
 30
0.0
 11
15.500000000001364
 21
-45.0
 31
0.0
  0
LINE
  5
4E8
100
AcDbEntity
  8
0
  6
CONTINUOUS
 62
               7
100
AcDbLine
 10
68.500000000001364
 20
45.0
 30
0.0
 11
68.500000000001364
 21
-45.0
 31
0.0
  0
LINE
  5
4E9
100
AcDbEntity
  8
0
  6
CONTINUOUS
 62
               7
100
AcDbLine
 10
63.500000000001364
 20
7.0
 30
0.0
 11
68.500000000001364
 21
7.0
 31
0.0
  0
LINE
  5
4EA
100
AcDbEntity
  8
0
  6
CONTINUOUS
 62
               7
100
AcDbLine
 10
63.500000000001364
 20
-7.0
 30
0.0
 11
68.500000000001364
 21
-7.0
 31
0.0
  0
LINE
  5
4EB
100
AcDbEntity
  8
0
  6
CONTINUOUS
 62
               7
100
AcDbLine
 10
15.500000000001364
 20
27.0
 30
0.0
 11
10.500000000001364
 21
27.0
 31
0.0
  0
LINE
  5
4EC
100
AcDbEntity
  8
0
  6
CONTINUOUS
 62
               7
100
AcDbLine
 10
15.500000000001364
 20
-27.0
 30
0.0
 11
10.500000000001364
 21
-27.0
 31
0.0
  0
LINE
  5
4ED
100
AcDbEntity
  8
0
  6
CONTINUOUS
 62
               7
100
AcDbLine
 10
63.500000000001364
 20
7.0
 30
0.0
 11
63.500000000001364
 21
-7.0
 31
0.0
  0
LINE
  5
4EE
100
AcDbEntity
  8
0
  6
CONTINUOUS
 62
               7
100
AcDbLine
 10
74.300003051759177
 20
44.5
 30
0.0
 11
74.300003051759177
 21
-44.5
 31
0.0
  0
ARC
  5
4EF
100
AcDbEntity
  8
0
  6
CONTINUOUS
 62
               7
100
AcDbCircle
 10
73.800003051759177
 20
44.5
 30
0.0
 40
0.5
100
AcDbArc
 50
359.99998201391094
 51
90.000036655424012
  0
ARC
  5
4F0
100
AcDbEntity
  8
0
  6
CONTINUOUS
 62
               7
100
AcDbCircle
 10
73.800003051759177
 20
-44.5
 30
0.0
 40
0.5
100
AcDbArc
 50
270.00001798608935
 51
359.99998201391094
  0
LINE
  5
4F1
100
AcDbEntity
  8
0
  6
CONTINUOUS
 62
               2
100
AcDbLine
 10
-1.9847869873033233
 20
0.0
 30
0.0
 11
76.818511962891989
 21
0.0
 31
0.0
  0
LINE
  5
4F2
100
AcDbEntity
  8
0
  6
CONTINUOUS
 62
               7
100
AcDbLine
 10
5.5000000000013642
 20
35.5
 30
0.0
 11
5.5000000000013642
 21
28.5
 31
0.0
  0
LINE
  5
4F3
100
AcDbEntity
  8
0
  6
CONTINUOUS
 62
               7
100
AcDbLine
 10
7.3999938964857392
 20
35.5
 30
0.0
 11
7.3999938964857392
 21
28.5
 31
0.0
  0
LINE
  5
4F4
100
AcDbEntity
  8
0
  6
CONTINUOUS
 62
               7
100
AcDbLine
 10
4.0
 20
62.5
 30
0.0
 11
35.0
 21
62.5
 31
0.0
  0
LINE
  5
4F5
100
AcDbEntity
  8
0
  6
CONTINUOUS
 62
               7
100
AcDbLine
 10
1.0
 20
30.5
 30
0.0
 11
5.5000000000013642
 21
30.5
 31
0.0
  0
LINE
  5
4F6
100
AcDbEntity
  8
0
  6
CONTINUOUS
 62
               7
100
AcDbLine
 10
3.0
 20
-28.5
 30
0.0
 11
3.0
 21
-25.5
 31
0.0
  0
LINE
  5
4F7
100
AcDbEntity
  8
0
  6
CONTINUOUS
 62
               7
100
AcDbLine
 10
6.5
 20
17.049999999999841
 30
0.0
 11
6.4113270459830574
 21
16.429289321881356
 31
0.0
  0
LINE
  5
4F8
100
AcDbEntity
  8
0
  6
CONTINUOUS
 62
               7
100
AcDbLine
 10
6.6071432931082654
 20
-17.800003051757812
 30
0.0
 11
6.5642857142856883
 21
-17.5
 31
0.0
  0
ARC
  5
4F9
100
AcDbEntity
  8
0
  6
CONTINUOUS
 62
               7
100
AcDbCircle
 10
5.916352299152436
 20
-16.5
 30
0.0
 40
0.5
100
AcDbArc
 50
8.1301023541559339
 51
90.000000000000014
  0
LINE
  5
4FA
100
AcDbEntity
  8
0
  6
CONTINUOUS
 62
               7
100
AcDbLine
 10
2.8500000000000227
 20
-18.0
 30
0.0
 11
2.8500000000000227
 21
-20.168330610420696
 31
0.0
  0
ARC
  5
4FB
100
AcDbEntity
  8
0
  6
CONTINUOUS
 62
               7
100
AcDbCircle
 10
4.8500000000000227
 20
-18.0
 30
0.0
 40
2.0
100
AcDbArc
 50
90.0
 51
180.0
  0
LINE
  5
4FC
100
AcDbEntity
  8
0
  6
CONTINUOUS
 62
               7
100
AcDbLine
 10
5.916352299152436
 20
-16.0
 30
0.0
 11
4.8500000000000227
 21
-16.0
 31
0.0
  0
ARC
  5
4FD
100
AcDbEntity
  8
0
  6
CONTINUOUS
 62
               7
100
AcDbCircle
 10
5.916352299152436
 20
16.5
 30
0.0
 40
0.5
100
AcDbArc
 50
270.0
 51
351.86989764584399
  0
ARC
  5
4FE
100
AcDbEntity
  8
0
  6
CONTINUOUS
 62
               7
100
AcDbCircle
 10
4.8500000000000227
 20
18.0
 30
0.0
 40
2.0
100
AcDbArc
 50
180.0
 51
270.0
  0
LINE
  5
4FF
100
AcDbEntity
  8
0
  6
CONTINUOUS
 62
               7
100
AcDbLine
 10
5.916352299152436
 20
16.0
 30
0.0
 11
4.8500000000000227
 21
16.0
 31
0.0
  0
LINE
  5
500
100
AcDbEntity
  8
0
  6
CONTINUOUS
 62
               7
100
AcDbLine
 10
2.8500000000000227
 20
20.168330610420725
 30
0.0
 11
2.8500000000000227
 21
18.0
 31
0.0
  0
LINE
  5
501
100
AcDbEntity
  8
0
  6
CONTINUOUS
 62
               7
100
AcDbLine
 10
1.0
 20
59.500000000000057
 30
0.0
 11
1.0
 21
21.03099977800747
 31
0.0
  0
LINE
  5
502
100
AcDbEntity
  8
0
  6
CONTINUOUS
 62
               7
100
AcDbLine
 10
3.5000000000013642
 20
-19.86523063261933
 30
0.0
 11
1.0
 21
-21.03099977800747
 31
0.0
  0
LINE
  5
503
100
AcDbEntity
  8
0
  6
CONTINUOUS
 62
               7
100
AcDbLine
 10
3.5000000000013642
 20
19.86523063261933
 30
0.0
 11
1.0
 21
21.03099977800747
 31
0.0
  0
LINE
  5
504
100
AcDbEntity
  8
0
  6
CONTINUOUS
 62
               7
100
AcDbLine
 10
1.0000000000001137
 20
-23.5
 30
0.0
 11
3.0
 21
-25.5
 31
0.0
  0
LINE
  5
505
100
AcDbEntity
  8
0
  6
CONTINUOUS
 62
               7
100
AcDbLine
 10
1.0000000000001137
 20
-23.5
 30
0.0
 11
1.0000000000001137
 21
-21.03099977800747
 31
0.0
  0
ARC
  5
506
100
AcDbEntity
  8
0
  6
CONTINUOUS
 62
               7
100
AcDbCircle
 10
4.0
 20
59.5
 30
0.0
 40
3.0
100
AcDbArc
 50
89.999963344575988
 51
179.99994535848663
  0
LINE
  5
507
100
AcDbEntity
  8
0
  6
CONTINUOUS
 62
               7
100
AcDbLine
 10
2.0
 20
-12.5
 30
0.0
 11
2.0
 21
12.5
 31
0.0
  0
LINE
  5
508
100
AcDbEntity
  8
0
  6
CONTINUOUS
 62
               7
100
AcDbLine
 10
0.0
 20
-14.5
 30
0.0
 11
0.0
 21
14.5
 31
0.0
  0
LINE
  5
509
100
AcDbEntity
  8
0
  6
CONTINUOUS
 62
               7
100
AcDbLine
 10
0.0
 20
14.5
 30
0.0
 11
6.5
 21
14.5
 31
0.0
  0
LINE
  5
50A
100
AcDbEntity
  8
0
  6
CONTINUOUS
 62
               7
100
AcDbLine
 10
0.0
 20
-14.5
 30
0.0
 11
6.5
 21
-14.5
 31
0.0
  0
LINE
  5
50B
100
AcDbEntity
  8
0
  6
CONTINUOUS
 62
               7
100
AcDbLine
 10
2.0
 20
-12.5
 30
0.0
 11
7.5
 21
-12.5
 31
0.0
  0
LINE
  5
50C
100
AcDbEntity
  8
0
  6
CONTINUOUS
 62
               7
100
AcDbLine
 10
2.0
 20
12.5
 30
0.0
 11
7.5
 21
12.5
 31
0.0
  0
LINE
  5
50D
100
AcDbEntity
  8
0
  6
CONTINUOUS
 62
               7
100
AcDbLine
 10
6.5
 20
14.5
 30
0.0
 11
6.5
 21
17.5
 31
0.0
  0
LINE
  5
50E
100
AcDbEntity
  8
0
  6
CONTINUOUS
 62
               7
100
AcDbLine
 10
6.5
 20
-17.5
 30
0.0
 11
6.5
 21
-14.5
 31
0.0
  0
LINE
  5
50F
100
AcDbEntity
  8
0
  6
CONTINUOUS
 62
               7
100
AcDbLine
 10
6.5
 20
-17.5
 30
0.0
 11
7.5
 21
-17.5
 31
0.0
  0
LINE
  5
510
100
AcDbEntity
  8
0
  6
CONTINUOUS
 62
               7
100
AcDbLine
 10
3.20001220703125
 20
-30.5
 30
0.0
 11
3.5000000000013642
 21
-30.5
 31
0.0
  0
LINE
  5
511
100
AcDbEntity
  8
0
  6
CONTINUOUS
 62
               7
100
AcDbLine
 10
3.5000000000013642
 20
-29.000000000001364
 30
0.0
 11
3.0
 21
-28.5
 31
0.0
  0
LINE
  5
512
100
AcDbEntity
  8
0
  6
CONTINUOUS
 62
               7
100
AcDbLine
 10
3.20001220703125
 20
-28.699996948242188
 30
0.0
 11
3.20001220703125
 21
-30.5
 31
0.0
  0
LINE
  5
513
100
AcDbEntity
  8
0
  6
CONTINUOUS
 62
               7
100
AcDbLine
 10
35.0
 20
45.0
 30
0.0
 11
35.0
 21
62.5
 31
0.0
  0
LINE
  5
514
100
AcDbEntity
  8
0
  6
CONTINUOUS
 62
               7
100
AcDbLine
 10
6.5
 20
-17.049999999999955
 30
0.0
 11
6.4113270459830574
 21
-16.429289321881356
 31
0.0
  0
LINE
  5
515
100
AcDbEntity
  8
0
  6
CONTINUOUS
 62
               7
100
AcDbLine
 10
47.79998474121237
 20
-49.700000000000017
 30
0.0
 11
47.999984741212302
 21
-49.900000000000006
 31
0.0
  0
ENDBLK
  5
516
100
AcDbEntity
  8
0
100
AcDbBlockEnd
  0
BLOCK
  5
517
100
AcDbEntity
  8
0
100
AcDbBlockBegin
  2
F10MS-12
 70
               0
 10
0.0
 20
0.0
 30
0.0
  3
F10MS-12
  1

  0
LINE
  5
518
100
AcDbEntity
  8
0
  6
CONTINUOUS
 62
               2
100
AcDbLine
 10
200.0
 20
14.679453746566963
 30
0.0
 11
200.0
 21
-4.4319606876770763
 31
0.0
  0
LINE
  5
519
100
AcDbEntity
  8
0
  6
CONTINUOUS
 62
               7
100
AcDbLine
 10
171.0
 20
0.0
 30
0.0
 11
212.5
 21
0.0
 31
0.0
  0
LINE
  5
51A
100
AcDbEntity
  8
0
  6
CONTINUOUS
 62
               7
100
AcDbLine
 10
120.5
 20
35.0
 30
0.0
 11
120.5
 21
0.0
 31
0.0
  0
LINE
  5
51B
100
AcDbEntity
  8
0
  6
CONTINUOUS
 62
               7
100
AcDbLine
 10
171.0
 20
35.0
 30
0.0
 11
171.0
 21
0.0
 31
0.0
  0
ARC
  5
51C
100
AcDbEntity
  8
0
  6
CONTINUOUS
 62
               7
100
AcDbCircle
 10
189.5
 20
3.5
 30
0.0
 40
0.5
100
AcDbArc
 50
270.0
 51
0.0
  0
LINE
  5
51D
100
AcDbEntity
  8
0
  6
CONTINUOUS
 62
               7
100
AcDbLine
 10
176.0
 20
3.0
 30
0.0
 11
176.0
 21
1.0
 31
0.0
  0
LINE
  5
51E
100
AcDbEntity
  8
0
  6
CONTINUOUS
 62
               7
100
AcDbLine
 10
188.5
 20
3.0
 30
0.0
 11
188.5
 21
1.0
 31
0.0
  0
LINE
  5
51F
100
AcDbEntity
  8
0
  6
CONTINUOUS
 62
               7
100
AcDbLine
 10
188.5
 20
1.0
 30
0.0
 11
190.0
 21
1.0
 31
0.0
  0
ARC
  5
520
100
AcDbEntity
  8
0
  6
CONTINUOUS
 62
               7
100
AcDbCircle
 10
189.5
 20
32.879549805998693
 30
0.0
 40
0.5
100
AcDbArc
 50
0.0
 51
85.000000000000185
  0
LINE
  5
521
100
AcDbEntity
  8
0
  6
CONTINUOUS
 62
               7
100
AcDbLine
 10
190.0
 20
32.879549805998693
 30
0.0
 11
190.0
 21
1.0
 31
0.0
  0
LINE
  5
522
100
AcDbEntity
  8
0
  6
CONTINUOUS
 62
               7
100
AcDbLine
 10
212.5
 20
7.5
 30
0.0
 11
212.5
 21
0.0
 31
0.0
  0
LINE
  5
523
100
AcDbEntity
  8
0
  6
CONTINUOUS
 62
               7
100
AcDbLine
 10
212.5
 20
6.5
 30
0.0
 11
190.0
 21
6.5
 31
0.0
  0
LINE
  5
524
100
AcDbEntity
  8
0
  6
CONTINUOUS
 62
               7
100
AcDbLine
 10
212.5
 20
7.5
 30
0.0
 11
190.0
 21
7.5
 31
0.0
  0
LINE
  5
525
100
AcDbEntity
  8
0
  6
CONTINUOUS
 62
               7
100
AcDbLine
 10
171.0
 20
35.0
 30
0.0
 11
189.54357787137383
 21
33.377647155044542
 31
0.0
  0
LINE
  5
526
100
AcDbEntity
  8
0
  6
CONTINUOUS
 62
               7
100
AcDbLine
 10
171.0
 20
5.0
 30
0.0
 11
190.0
 21
5.0
 31
0.0
  0
LINE
  5
527
100
AcDbEntity
  8
0
  6
CONTINUOUS
 62
               7
100
AcDbLine
 10
171.0
 20
3.0
 30
0.0
 11
189.5
 21
3.0
 31
0.0
  0
LINE
  5
528
100
AcDbEntity
  8
0
  6
CONTINUOUS
 62
               7
100
AcDbLine
 10
171.0
 20
1.0
 30
0.0
 11
176.0
 21
1.0
 31
0.0
  0
LINE
  5
529
100
AcDbEntity
  8
0
  6
CONTINUOUS
 62
               7
100
AcDbLine
 10
110.0
 20
45.0
 30
0.0
 11
110.0
 21
1.0
 31
0.0
  0
LINE
  5
52A
100
AcDbEntity
  8
0
  6
CONTINUOUS
 62
               7
100
AcDbLine
 10
89.0
 20
1.0
 30
0.0
 11
84.0
 21
1.0
 31
0.0
  0
LINE
  5
52B
100
AcDbEntity
  8
0
  6
CONTINUOUS
 62
               7
100
AcDbLine
 10
84.0
 20
3.0
 30
0.0
 11
84.0
 21
1.0
 31
0.0
  0
LINE
  5
52C
100
AcDbEntity
  8
0
  6
CONTINUOUS
 62
               7
100
AcDbLine
 10
71.5
 20
1.0
 30
0.0
 11
70.0
 21
1.0
 31
0.0
  0
ARC
  5
52D
100
AcDbEntity
  8
0
  6
CONTINUOUS
 62
               7
100
AcDbCircle
 10
70.5
 20
3.5
 30
0.0
 40
0.5
100
AcDbArc
 50
180.0
 51
270.0
  0
LINE
  5
52E
100
AcDbEntity
  8
0
  6
CONTINUOUS
 62
               7
100
AcDbLine
 10
89.0
 20
5.0
 30
0.0
 11
70.0
 21
5.0
 31
0.0
  0
LINE
  5
52F
100
AcDbEntity
  8
0
  6
CONTINUOUS
 62
               7
100
AcDbLine
 10
71.5
 20
3.0
 30
0.0
 11
71.5
 21
1.0
 31
0.0
  0
LINE
  5
530
100
AcDbEntity
  8
0
  6
CONTINUOUS
 62
               7
100
AcDbLine
 10
89.0
 20
3.0
 30
0.0
 11
70.5
 21
3.0
 31
0.0
  0
ARC
  5
531
100
AcDbEntity
  8
0
  6
CONTINUOUS
 62
               7
100
AcDbCircle
 10
70.5
 20
32.879549805998693
 30
0.0
 40
0.5
100
AcDbArc
 50
94.999999999999815
 51
180.0
  0
LINE
  5
532
100
AcDbEntity
  8
0
  6
CONTINUOUS
 62
               7
100
AcDbLine
 10
70.0
 20
32.879549805998693
 30
0.0
 11
70.0
 21
1.0
 31
0.0
  0
LINE
  5
533
100
AcDbEntity
  8
0
  6
CONTINUOUS
 62
               7
100
AcDbLine
 10
89.0
 20
35.0
 30
0.0
 11
70.456422128626173
 21
33.377647155044542
 31
0.0
  0
LINE
  5
534
100
AcDbEntity
  8
0
  6
CONTINUOUS
 62
               7
100
AcDbLine
 10
-12.5
 20
7.5
 30
0.0
 11
-12.5
 21
0.0
 31
0.0
  0
LINE
  5
535
100
AcDbEntity
  8
0
  6
CONTINUOUS
 62
               7
100
AcDbLine
 10
67.294305774782515
 20
27.842563815326685
 30
0.0
 11
65.963465334985813
 21
15.83882710263606
 31
0.0
  0
LINE
  5
536
100
AcDbEntity
  8
0
  6
CONTINUOUS
 62
               7
100
AcDbLine
 10
66.409721778612948
 20
27.940629284594252
 30
0.0
 11
65.07888230037679
 21
15.936907737768706
 31
0.0
  0
ARC
  5
537
100
AcDbEntity
  8
0
  6
CONTINUOUS
 62
               7
100
AcDbCircle
 10
96.970001220703125
 20
24.552459716796875
 30
0.0
 40
30.747528076171875
100
AcDbArc
 50
89.999982013910653
 51
173.67351496947535
  0
ARC
  5
538
100
AcDbEntity
  8
0
  6
CONTINUOUS
 62
               7
100
AcDbCircle
 10
96.970001220703125
 20
24.552459716796875
 30
0.0
 40
29.857528686523438
100
AcDbArc
 50
89.999982013910653
 51
173.67351496947535
  0
ARC
  5
539
100
AcDbEntity
  8
0
  6
CONTINUOUS
 62
               7
100
AcDbCircle
 10
60.0
 20
16.5
 30
0.0
 40
5.1099996566772461
100
AcDbArc
 50
270.00001798608935
 51
353.67351679070816
  0
ARC
  5
53A
100
AcDbEntity
  8
0
  6
CONTINUOUS
 62
               7
100
AcDbCircle
 10
60.0
 20
16.5
 30
0.0
 40
6.0
100
AcDbArc
 50
270.00001798608935
 51
353.67352020580279
  0
LINE
  5
53B
100
AcDbEntity
  8
0
  6
CONTINUOUS
 62
               7
100
AcDbLine
 10
60.0
 20
6.5
 30
0.0
 11
70.0
 21
6.5
 31
0.0
  0
LINE
  5
53C
100
AcDbEntity
  8
0
  6
CONTINUOUS
 62
               7
100
AcDbLine
 10
60.0
 20
7.5
 30
0.0
 11
70.0
 21
7.5
 31
0.0
  0
LINE
  5
53D
100
AcDbEntity
  8
0
  6
CONTINUOUS
 62
               7
100
AcDbLine
 10
38.99996569898849
 20
68.500006570148798
 30
0.0
 11
44.999976114627316
 21
62.500003740950888
 31
0.0
  0
ARC
  5
53E
100
AcDbEntity
  8
0
  6
CONTINUOUS
 62
               7
100
AcDbCircle
 10
57.0
 20
65.5
 30
0.0
 40
3.0
100
AcDbArc
 50
270.00001798608935
 51
359.99998201391094
  0
ARC
  5
53F
100
AcDbEntity
  8
0
  6
CONTINUOUS
 62
               7
100
AcDbCircle
 10
59.5
 20
73.800003051757812
 30
0.0
 40
0.5
100
AcDbArc
 50
359.99998201391094
 51
89.999982013910653
  0
ARC
  5
540
100
AcDbEntity
  8
0
  6
CONTINUOUS
 62
               7
100
AcDbCircle
 10
10.5
 20
73.800003051757812
 30
0.0
 40
0.5
100
AcDbArc
 50
89.999982013910653
 51
179.99996402782131
  0
LINE
  5
541
100
AcDbEntity
  8
0
  6
CONTINUOUS
 62
               7
100
AcDbLine
 10
10.0
 20
68.5
 30
0.0
 11
39.000030517578125
 21
68.5
 31
0.0
  0
LINE
  5
542
100
AcDbEntity
  8
0
  6
CONTINUOUS
 62
               7
100
AcDbLine
 10
45.0
 20
62.5
 30
0.0
 11
57.0
 21
62.5
 31
0.0
  0
LINE
  5
543
100
AcDbEntity
  8
0
  6
CONTINUOUS
 62
               7
100
AcDbLine
 10
10.5
 20
74.300003051757813
 30
0.0
 11
59.5
 21
74.300003051757813
 31
0.0
  0
LINE
  5
544
100
AcDbEntity
  8
0
  6
CONTINUOUS
 62
               7
100
AcDbLine
 10
39.0
 20
57.5
 30
0.0
 11
49.0
 21
57.5
 31
0.0
  0
LINE
  5
545
100
AcDbEntity
  8
0
  6
CONTINUOUS
 62
               7
100
AcDbLine
 10
56.999975085226652
 20
62.500026272721698
 30
0.0
 11
59.999966505190059
 21
61.696180987704793
 31
0.0
  0
LINE
  5
546
100
AcDbEntity
  8
0
  6
CONTINUOUS
 62
               7
100
AcDbLine
 10
59.0
 20
24.399993896484375
 30
0.0
 11
60.0
 21
24.399993896484375
 31
0.0
  0
LINE
  5
547
100
AcDbEntity
  8
0
  6
CONTINUOUS
 62
               7
100
AcDbLine
 10
59.0
 20
33.399993896484375
 30
0.0
 11
60.0
 21
33.399993896484375
 31
0.0
  0
LINE
  5
548
100
AcDbEntity
  8
0
  6
CONTINUOUS
 62
               7
100
AcDbLine
 10
59.0
 20
16.300003051757813
 30
0.0
 11
60.0
 21
16.300003051757813
 31
0.0
  0
LINE
  5
549
100
AcDbEntity
  8
0
  6
CONTINUOUS
 62
               7
100
AcDbLine
 10
59.0
 20
41.5
 30
0.0
 11
60.0
 21
41.5
 31
0.0
  0
LINE
  5
54A
100
AcDbEntity
  8
0
  6
CONTINUOUS
 62
               7
100
AcDbLine
 10
39.0
 20
57.5
 30
0.0
 11
39.0
 21
10.5
 31
0.0
  0
LINE
  5
54B
100
AcDbEntity
  8
0
  6
CONTINUOUS
 62
               7
100
AcDbLine
 10
49.0
 20
57.5
 30
0.0
 11
49.0
 21
10.5
 31
0.0
  0
LINE
  5
54C
100
AcDbEntity
  8
0
  6
CONTINUOUS
 62
               7
100
AcDbLine
 10
59.0
 20
41.5
 30
0.0
 11
59.0
 21
16.300003051757813
 31
0.0
  0
LINE
  5
54D
100
AcDbEntity
  8
0
  6
CONTINUOUS
 62
               7
100
AcDbLine
 10
10.0
 20
15.5
 30
0.0
 11
60.0
 21
15.5
 31
0.0
  0
LINE
  5
54E
100
AcDbEntity
  8
0
  6
CONTINUOUS
 62
               7
100
AcDbLine
 10
60.0
 20
73.800003051757812
 30
0.0
 11
60.0
 21
3.5
 31
0.0
  0
LINE
  5
54F
100
AcDbEntity
  8
0
  6
CONTINUOUS
 62
               7
100
AcDbLine
 10
10.0
 20
73.800003051757812
 30
0.0
 11
10.0
 21
3.5
 31
0.0
  0
LINE
  5
550
100
AcDbEntity
  8
0
  6
CONTINUOUS
 62
               7
100
AcDbLine
 10
50.0
 20
6.5
 30
0.0
 11
56.0
 21
6.5
 31
0.0
  0
LINE
  5
551
100
AcDbEntity
  8
0
  6
CONTINUOUS
 62
               7
100
AcDbLine
 10
50.0
 20
10.5
 30
0.0
 11
56.0
 21
10.5
 31
0.0
  0
LINE
  5
552
100
AcDbEntity
  8
0
  6
CONTINUOUS
 62
               7
100
AcDbLine
 10
14.0
 20
6.5
 30
0.0
 11
20.0
 21
6.5
 31
0.0
  0
LINE
  5
553
100
AcDbEntity
  8
0
  6
CONTINUOUS
 62
               7
100
AcDbLine
 10
14.0
 20
10.5
 30
0.0
 11
20.0
 21
10.5
 31
0.0
  0
LINE
  5
554
100
AcDbEntity
  8
0
  6
CONTINUOUS
 62
               7
100
AcDbLine
 10
14.0
 20
10.5
 30
0.0
 11
14.0
 21
6.5
 31
0.0
  0
LINE
  5
555
100
AcDbEntity
  8
0
  6
CONTINUOUS
 62
               7
100
AcDbLine
 10
20.0
 20
10.5
 30
0.0
 11
20.0
 21
6.5
 31
0.0
  0
LINE
  5
556
100
AcDbEntity
  8
0
  6
CONTINUOUS
 62
               7
100
AcDbLine
 10
50.0
 20
10.5
 30
0.0
 11
50.0
 21
6.5
 31
0.0
  0
LINE
  5
557
100
AcDbEntity
  8
0
  6
CONTINUOUS
 62
               7
100
AcDbLine
 10
56.0
 20
10.5
 30
0.0
 11
56.0
 21
6.5
 31
0.0
  0
LINE
  5
558
100
AcDbEntity
  8
0
  6
CONTINUOUS
 62
               7
100
AcDbLine
 10
39.0
 20
10.5
 30
0.0
 11
49.0
 21
10.5
 31
0.0
  0
LINE
  5
559
100
AcDbEntity
  8
0
  6
CONTINUOUS
 62
               7
100
AcDbLine
 10
10.0
 20
3.5
 30
0.0
 11
60.0
 21
3.5
 31
0.0
  0
LINE
  5
55A
100
AcDbEntity
  8
0
  6
CONTINUOUS
 62
               7
100
AcDbLine
 10
97.75
 20
59.5
 30
0.0
 11
101.75
 21
59.5
 31
0.0
  0
ARC
  5
55B
100
AcDbEntity
  8
0
  6
CONTINUOUS
 62
               7
100
AcDbCircle
 10
102.97000122070312
 20
54.499984741210938
 30
0.0
 40
0.800000011920929
100
AcDbArc
 50
0.0
 51
89.999982013910653
  0
LINE
  5
55C
100
AcDbEntity
  8
0
  6
CONTINUOUS
 62
               7
100
AcDbLine
 10
103.77000427246094
 20
54.499984741210938
 30
0.0
 11
103.77000427246094
 21
54.0
 31
0.0
  0
LINE
  5
55D
100
AcDbEntity
  8
0
  6
CONTINUOUS
 62
               7
100
AcDbLine
 10
96.970001220703125
 20
60.0
 30
0.0
 11
97.75
 21
60.0
 31
0.0
  0
LINE
  5
55E
100
AcDbEntity
  8
0
  6
CONTINUOUS
 62
               7
100
AcDbLine
 10
101.75
 20
60.899993896484375
 30
0.0
 11
102.97000122070312
 21
60.899993896484375
 31
0.0
  0
LINE
  5
55F
100
AcDbEntity
  8
0
  6
CONTINUOUS
 62
               7
100
AcDbLine
 10
102.97000122070312
 20
60.899993896484375
 30
0.0
 11
102.97000122070312
 21
54.0
 31
0.0
  0
LINE
  5
560
100
AcDbEntity
  8
0
  6
CONTINUOUS
 62
               7
100
AcDbLine
 10
96.970001220703125
 20
60.0
 30
0.0
 11
96.970001220703125
 21
54.0
 31
0.0
  0
LINE
  5
561
100
AcDbEntity
  8
0
  6
CONTINUOUS
 62
               7
100
AcDbLine
 10
-12.5
 20
6.5
 30
0.0
 11
10.0
 21
6.5
 31
0.0
  0
LINE
  5
562
100
AcDbEntity
  8
0
  6
CONTINUOUS
 62
               7
100
AcDbLine
 10
-12.5
 20
7.5
 30
0.0
 11
10.0
 21
7.5
 31
0.0
  0
ARC
  5
563
100
AcDbEntity
  8
0
  6
CONTINUOUS
 62
               7
100
AcDbCircle
 10
101.86666870117187
 20
39.171829223632813
 30
0.0
 40
0.6666666865348816
100
AcDbArc
 50
119.49235635943219
 51
179.99996402782131
  0
ARC
  5
564
100
AcDbEntity
  8
0
  6
CONTINUOUS
 62
               7
100
AcDbCircle
 10
106.13333129882812
 20
39.171829223632813
 30
0.0
 40
0.6666666865348816
100
AcDbArc
 50
359.99998633962167
 51
60.50760766838912
  0
ARC
  5
565
100
AcDbEntity
  8
0
  6
CONTINUOUS
 62
               7
100
AcDbCircle
 10
104.0
 20
35.400009155273438
 30
0.0
 40
5.0
100
AcDbArc
 50
60.50760766838912
 51
119.49230171791883
  0
ARC
  5
566
100
AcDbEntity
  8
0
  6
CONTINUOUS
 62
               7
100
AcDbCircle
 10
92.866668701171875
 20
39.171829223632813
 30
0.0
 40
0.6666666865348816
100
AcDbArc
 50
119.49235635943219
 51
179.99996402782131
  0
ARC
  5
567
100
AcDbEntity
  8
0
  6
CONTINUOUS
 62
               7
100
AcDbCircle
 10
97.133331298828125
 20
39.171829223632813
 30
0.0
 40
0.6666666865348816
100
AcDbArc
 50
359.99998633962167
 51
60.50760766838912
  0
ARC
  5
568
100
AcDbEntity
  8
0
  6
CONTINUOUS
 62
               7
100
AcDbCircle
 10
95.0
 20
35.400009155273438
 30
0.0
 40
5.0
100
AcDbArc
 50
60.50760766838912
 51
119.49230171791883
  0
LINE
  5
569
100
AcDbEntity
  8
0
  6
CONTINUOUS
 62
               7
100
AcDbLine
 10
97.75
 20
56.800003051757812
 30
0.0
 11
101.75
 21
56.800003051757812
 31
0.0
  0
LINE
  5
56A
100
AcDbEntity
  8
0
  6
CONTINUOUS
 62
               7
100
AcDbLine
 10
101.25
 20
53.5
 30
0.0
 11
104.0
 21
53.5
 31
0.0
  0
LINE
  5
56B
100
AcDbEntity
  8
0
  6
CONTINUOUS
 62
               7
100
AcDbLine
 10
95.5
 20
53.5
 30
0.0
 11
98.25
 21
53.5
 31
0.0
  0
LINE
  5
56C
100
AcDbEntity
  8
0
  6
CONTINUOUS
 62
               7
100
AcDbLine
 10
98.25
 20
45.5
 30
0.0
 11
101.25
 21
45.5
 31
0.0
  0
LINE
  5
56D
100
AcDbEntity
  8
0
  6
CONTINUOUS
 62
               7
100
AcDbLine
 10
97.75
 20
63.5
 30
0.0
 11
101.75
 21
63.5
 31
0.0
  0
LINE
  5
56E
100
AcDbEntity
  8
0
  6
CONTINUOUS
 62
               7
100
AcDbLine
 10
97.75
 20
60.5
 30
0.0
 11
101.75
 21
60.5
 31
0.0
  0
LINE
  5
56F
100
AcDbEntity
  8
0
  6
CONTINUOUS
 62
               7
100
AcDbLine
 10
97.75
 20
54.199996948242187
 30
0.0
 11
98.25
 21
54.199996948242187
 31
0.0
  0
LINE
  5
570
100
AcDbEntity
  8
0
  6
CONTINUOUS
 62
               7
100
AcDbLine
 10
101.25
 20
54.199996948242187
 30
0.0
 11
101.75
 21
54.199996948242187
 31
0.0
  0
LINE
  5
571
100
AcDbEntity
  8
0
  6
CONTINUOUS
 62
               7
100
AcDbLine
 10
101.25
 20
54.0
 30
0.0
 11
104.0
 21
54.0
 31
0.0
  0
LINE
  5
572
100
AcDbEntity
  8
0
  6
CONTINUOUS
 62
               7
100
AcDbLine
 10
101.25
 20
54.199996948242187
 30
0.0
 11
101.25
 21
45.0
 31
0.0
  0
LINE
  5
573
100
AcDbEntity
  8
0
  6
CONTINUOUS
 62
               7
100
AcDbLine
 10
98.25
 20
54.199996948242187
 30
0.0
 11
98.25
 21
45.0
 31
0.0
  0
LINE
  5
574
100
AcDbEntity
  8
0
  6
CONTINUOUS
 62
               7
100
AcDbLine
 10
95.5
 20
54.0
 30
0.0
 11
98.25
 21
54.0
 31
0.0
  0
LINE
  5
575
100
AcDbEntity
  8
0
  6
CONTINUOUS
 62
               7
100
AcDbLine
 10
101.75
 20
63.5
 30
0.0
 11
101.75
 21
54.199996948242187
 31
0.0
  0
LINE
  5
576
100
AcDbEntity
  8
0
  6
CONTINUOUS
 62
               7
100
AcDbLine
 10
97.75
 20
63.5
 30
0.0
 11
97.75
 21
54.199996948242187
 31
0.0
  0
LINE
  5
577
100
AcDbEntity
  8
0
  6
CONTINUOUS
 62
               7
100
AcDbLine
 10
104.0
 20
54.0
 30
0.0
 11
104.0
 21
45.0
 31
0.0
  0
LINE
  5
578
100
AcDbEntity
  8
0
  6
CONTINUOUS
 62
               7
100
AcDbLine
 10
95.5
 20
54.0
 30
0.0
 11
95.5
 21
45.0
 31
0.0
  0
LINE
  5
579
100
AcDbEntity
  8
0
  6
CONTINUOUS
 62
               7
100
AcDbLine
 10
101.19999694824219
 20
39.171829223632813
 30
0.0
 11
101.19999694824219
 21
38.0
 31
0.0
  0
LINE
  5
57A
100
AcDbEntity
  8
0
  6
CONTINUOUS
 62
               7
100
AcDbLine
 10
106.80000305175781
 20
39.171829223632813
 30
0.0
 11
106.80000305175781
 21
38.0
 31
0.0
  0
LINE
  5
57B
100
AcDbEntity
  8
0
  6
CONTINUOUS
 62
               7
100
AcDbLine
 10
92.199996948242187
 20
39.171829223632813
 30
0.0
 11
92.199996948242187
 21
38.0
 31
0.0
  0
LINE
  5
57C
100
AcDbEntity
  8
0
  6
CONTINUOUS
 62
               7
100
AcDbLine
 10
97.800003051757813
 20
39.171829223632813
 30
0.0
 11
97.800003051757813
 21
38.0
 31
0.0
  0
LINE
  5
57D
100
AcDbEntity
  8
0
  6
CONTINUOUS
 62
               7
100
AcDbLine
 10
101.05000305175781
 20
38.0
 30
0.0
 11
101.05000305175781
 21
37.300003051757813
 31
0.0
  0
LINE
  5
57E
100
AcDbEntity
  8
0
  6
CONTINUOUS
 62
               7
100
AcDbLine
 10
106.94999694824219
 20
38.0
 30
0.0
 11
106.94999694824219
 21
37.300003051757813
 31
0.0
  0
LINE
  5
57F
100
AcDbEntity
  8
0
  6
CONTINUOUS
 62
               7
100
AcDbLine
 10
104.35002108475601
 20
38.000015300108316
 30
0.0
 11
104.5375876153812
 21
37.300008010702186
 31
0.0
  0
LINE
  5
580
100
AcDbEntity
  8
0
  6
CONTINUOUS
 62
               7
100
AcDbLine
 10
103.65002468815783
 20
37.300000184724013
 30
0.0
 11
103.46246206360593
 21
37.999992735272826
 31
0.0
  0
LINE
  5
581
100
AcDbEntity
  8
0
  6
CONTINUOUS
 62
               7
100
AcDbLine
 10
106.94999694824219
 20
38.0
 30
0.0
 11
101.05000305175781
 21
38.0
 31
0.0
  0
LINE
  5
582
100
AcDbEntity
  8
0
  6
CONTINUOUS
 62
               7
100
AcDbLine
 10
92.050003051757812
 20
38.0
 30
0.0
 11
92.050003051757812
 21
37.300003051757813
 31
0.0
  0
LINE
  5
583
100
AcDbEntity
  8
0
  6
CONTINUOUS
 62
               7
100
AcDbLine
 10
97.949996948242188
 20
38.0
 30
0.0
 11
97.949996948242188
 21
37.300003051757813
 31
0.0
  0
LINE
  5
584
100
AcDbEntity
  8
0
  6
CONTINUOUS
 62
               7
100
AcDbLine
 10
95.35001272923455
 20
38.000000476875357
 30
0.0
 11
95.537575310591819
 21
37.300007926326543
 31
0.0
  0
LINE
  5
585
100
AcDbEntity
  8
0
  6
CONTINUOUS
 62
               7
100
AcDbLine
 10
94.650026983384123
 20
37.300003531453513
 30
0.0
 11
94.462460409563391
 21
38.000010820859643
 31
0.0
  0
LINE
  5
586
100
AcDbEntity
  8
0
  6
CONTINUOUS
 62
               7
100
AcDbLine
 10
97.949996948242188
 20
38.0
 30
0.0
 11
92.050003051757812
 21
38.0
 31
0.0
  0
LINE
  5
587
100
AcDbEntity
  8
0
  6
CONTINUOUS
 62
               7
100
AcDbLine
 10
101.05000305175781
 20
37.300003051757813
 30
0.0
 11
106.94999694824219
 21
37.300003051757813
 31
0.0
  0
LINE
  5
588
100
AcDbEntity
  8
0
  6
CONTINUOUS
 62
               7
100
AcDbLine
 10
106.94999694824219
 20
37.300003051757813
 30
0.0
 11
106.94999694824219
 21
36.5
 31
0.0
  0
LINE
  5
589
100
AcDbEntity
  8
0
  6
CONTINUOUS
 62
               7
100
AcDbLine
 10
106.14999389648437
 20
37.300003051757813
 30
0.0
 11
106.14999389648437
 21
36.5
 31
0.0
  0
LINE
  5
58A
100
AcDbEntity
  8
0
  6
CONTINUOUS
 62
               7
100
AcDbLine
 10
101.84999084472656
 20
37.300003051757813
 30
0.0
 11
101.84999084472656
 21
36.5
 31
0.0
  0
LINE
  5
58B
100
AcDbEntity
  8
0
  6
CONTINUOUS
 62
               7
100
AcDbLine
 10
101.05000305175781
 20
37.300003051757813
 30
0.0
 11
101.05000305175781
 21
36.5
 31
0.0
  0
LINE
  5
58C
100
AcDbEntity
  8
0
  6
CONTINUOUS
 62
               7
100
AcDbLine
 10
97.949996948242188
 20
37.300003051757813
 30
0.0
 11
97.949996948242188
 21
36.5
 31
0.0
  0
LINE
  5
58D
100
AcDbEntity
  8
0
  6
CONTINUOUS
 62
               7
100
AcDbLine
 10
97.149993896484375
 20
37.300003051757813
 30
0.0
 11
97.149993896484375
 21
36.5
 31
0.0
  0
LINE
  5
58E
100
AcDbEntity
  8
0
  6
CONTINUOUS
 62
               7
100
AcDbLine
 10
92.849990844726563
 20
37.300003051757813
 30
0.0
 11
92.849990844726563
 21
36.5
 31
0.0
  0
LINE
  5
58F
100
AcDbEntity
  8
0
  6
CONTINUOUS
 62
               7
100
AcDbLine
 10
92.050003051757812
 20
37.300003051757813
 30
0.0
 11
92.050003051757812
 21
36.5
 31
0.0
  0
LINE
  5
590
100
AcDbEntity
  8
0
  6
CONTINUOUS
 62
               7
100
AcDbLine
 10
92.050003051757812
 20
37.300003051757813
 30
0.0
 11
97.949996948242188
 21
37.300003051757813
 31
0.0
  0
LINE
  5
591
100
AcDbEntity
  8
0
  6
CONTINUOUS
 62
               7
100
AcDbLine
 10
100.5
 20
42.5
 30
0.0
 11
107.5
 21
42.5
 31
0.0
  0
LINE
  5
592
100
AcDbEntity
  8
0
  6
CONTINUOUS
 62
               7
100
AcDbLine
 10
91.5
 20
42.5
 30
0.0
 11
98.5
 21
42.5
 31
0.0
  0
LINE
  5
593
100
AcDbEntity
  8
0
  6
CONTINUOUS
 62
               7
100
AcDbLine
 10
100.5
 20
43.5
 30
0.0
 11
100.5
 21
36.5
 31
0.0
  0
LINE
  5
594
100
AcDbEntity
  8
0
  6
CONTINUOUS
 62
               7
100
AcDbLine
 10
98.5
 20
43.5
 30
0.0
 11
98.5
 21
36.5
 31
0.0
  0
LINE
  5
595
100
AcDbEntity
  8
0
  6
CONTINUOUS
 62
               7
100
AcDbLine
 10
90.5
 20
43.5
 30
0.0
 11
108.5
 21
43.5
 31
0.0
  0
LINE
  5
596
100
AcDbEntity
  8
0
  6
CONTINUOUS
 62
               7
100
AcDbLine
 10
91.5
 20
43.5
 30
0.0
 11
91.5
 21
36.5
 31
0.0
  0
LINE
  5
597
100
AcDbEntity
  8
0
  6
CONTINUOUS
 62
               7
100
AcDbLine
 10
107.5
 20
43.5
 30
0.0
 11
107.5
 21
36.5
 31
0.0
  0
LINE
  5
598
100
AcDbEntity
  8
0
  6
CONTINUOUS
 62
               7
100
AcDbLine
 10
108.5
 20
45.0
 30
0.0
 11
108.5
 21
35.0
 31
0.0
  0
LINE
  5
599
100
AcDbEntity
  8
0
  6
CONTINUOUS
 62
               7
100
AcDbLine
 10
90.5
 20
45.0
 30
0.0
 11
90.5
 21
35.0
 31
0.0
  0
LINE
  5
59A
100
AcDbEntity
  8
0
  6
CONTINUOUS
 62
               7
100
AcDbLine
 10
91.5
 20
36.5
 30
0.0
 11
107.5
 21
36.5
 31
0.0
  0
LINE
  5
59B
100
AcDbEntity
  8
0
  6
CONTINUOUS
 62
               7
100
AcDbLine
 10
103.0
 20
31.0
 30
0.0
 11
103.0
 21
29.0
 31
0.0
  0
LINE
  5
59C
100
AcDbEntity
  8
0
  6
CONTINUOUS
 62
               7
100
AcDbLine
 10
96.0
 20
31.0
 30
0.0
 11
96.0
 21
29.0
 31
0.0
  0
LINE
  5
59D
100
AcDbEntity
  8
0
  6
CONTINUOUS
 62
               7
100
AcDbLine
 10
95.899993896484375
 20
31.100006103515625
 30
0.0
 11
95.899993896484375
 21
28.900009155273437
 31
0.0
  0
LINE
  5
59E
100
AcDbEntity
  8
0
  6
CONTINUOUS
 62
               7
100
AcDbLine
 10
103.09999084472656
 20
31.100006103515625
 30
0.0
 11
103.09999084472656
 21
28.900009155273437
 31
0.0
  0
LINE
  5
59F
100
AcDbEntity
  8
0
  6
CONTINUOUS
 62
               7
100
AcDbLine
 10
96.0
 20
29.0
 30
0.0
 11
103.0
 21
29.0
 31
0.0
  0
LINE
  5
5A0
100
AcDbEntity
  8
0
  6
CONTINUOUS
 62
               7
100
AcDbLine
 10
96.0
 20
31.0
 30
0.0
 11
103.0
 21
31.0
 31
0.0
  0
LINE
  5
5A1
100
AcDbEntity
  8
0
  6
CONTINUOUS
 62
               7
100
AcDbLine
 10
95.899993896484375
 20
28.900009155273437
 30
0.0
 11
103.09999084472656
 21
28.900009155273437
 31
0.0
  0
LINE
  5
5A2
100
AcDbEntity
  8
0
  6
CONTINUOUS
 62
               7
100
AcDbLine
 10
95.899993896484375
 20
31.100006103515625
 30
0.0
 11
103.09999084472656
 21
31.100006103515625
 31
0.0
  0
LINE
  5
5A3
100
AcDbEntity
  8
0
  6
CONTINUOUS
 62
               7
100
AcDbLine
 10
89.0
 20
45.0
 30
0.0
 11
89.0
 21
1.0
 31
0.0
  0
CIRCLE
  5
5A4
100
AcDbEntity
  8
0
  6
CONTINUOUS
 62
               7
100
AcDbCircle
 10
25.0
 20
53.5
 30
0.0
 40
12.5
  0
LINE
  5
5A5
100
AcDbEntity
  8
0
  6
CONTINUOUS
 62
               7
100
AcDbLine
 10
6.5
 20
61.5
 30
0.0
 11
6.5
 21
61.0
 31
0.0
  0
LINE
  5
5A6
100
AcDbEntity
  8
0
  6
CONTINUOUS
 62
               7
100
AcDbLine
 10
8.0
 20
63.0
 30
0.0
 11
10.0
 21
63.0
 31
0.0
  0
LINE
  5
5A7
100
AcDbEntity
  8
0
  6
CONTINUOUS
 62
               7
100
AcDbLine
 10
8.0
 20
38.0
 30
0.0
 11
10.0
 21
38.0
 31
0.0
  0
LINE
  5
5A8
100
AcDbEntity
  8
0
  6
CONTINUOUS
 62
               7
100
AcDbLine
 10
5.3000030517578125
 20
59.800003051757813
 30
0.0
 11
5.3000030517578125
 21
41.199996948242188
 31
0.0
  0
ARC
  5
5A9
100
AcDbEntity
  8
0
  6
CONTINUOUS
 62
               7
100
AcDbCircle
 10
8.0
 20
61.5
 30
0.0
 40
1.5
100
AcDbArc
 50
89.999982013910653
 51
180.00001866933468
  0
ARC
  5
5AA
100
AcDbEntity
  8
0
  6
CONTINUOUS
 62
               7
100
AcDbCircle
 10
8.0
 20
39.5
 30
0.0
 40
1.5
100
AcDbArc
 50
180.00001866933468
 51
270.00000068324533
  0
ARC
  5
5AB
100
AcDbEntity
  8
0
  6
CONTINUOUS
 62
               7
100
AcDbCircle
 10
6.5
 20
59.800003051757813
 30
0.0
 40
1.1999998092651367
100
AcDbArc
 50
89.999982013910653
 51
180.00001866933468
  0
ARC
  5
5AC
100
AcDbEntity
  8
0
  6
CONTINUOUS
 62
               7
100
AcDbCircle
 10
6.5
 20
41.199996948242188
 30
0.0
 40
1.1999998092651367
100
AcDbArc
 50
180.00001866933468
 51
270.00000068324533
  0
LINE
  5
5AD
100
AcDbEntity
  8
0
  6
CONTINUOUS
 62
               7
100
AcDbLine
 10
6.5
 20
40.0
 30
0.0
 11
6.5
 21
39.5
 31
0.0
  0
LINE
  5
5AE
100
AcDbEntity
  8
0
  6
CONTINUOUS
 62
               7
100
AcDbLine
 10
89.0
 20
3.0
 30
0.0
 11
120.5
 21
3.0
 31
0.0
  0
LINE
  5
5AF
100
AcDbEntity
  8
0
  6
CONTINUOUS
 62
               7
100
AcDbLine
 10
89.0
 20
45.0
 30
0.0
 11
110.0
 21
45.0
 31
0.0
  0
LINE
  5
5B0
100
AcDbEntity
  8
0
  6
CONTINUOUS
 62
               7
100
AcDbLine
 10
89.0
 20
35.0
 30
0.0
 11
120.5
 21
35.0
 31
0.0
  0
LINE
  5
5B1
100
AcDbEntity
  8
0
  6
CONTINUOUS
 62
               7
100
AcDbLine
 10
89.0
 20
5.0
 30
0.0
 11
110.0
 21
5.0
 31
0.0
  0
LINE
  5
5B2
100
AcDbEntity
  8
0
  6
CONTINUOUS
 62
               7
100
AcDbLine
 10
-12.5
 20
0.0
 30
0.0
 11
120.5
 21
0.0
 31
0.0
  0
LINE
  5
5B3
100
AcDbEntity
  8
0
  6
CONTINUOUS
 62
               7
100
AcDbLine
 10
120.5
 20
1.0
 30
0.0
 11
89.0
 21
1.0
 31
0.0
  0
LINE
  5
5B4
100
AcDbEntity
  8
0
  6
CONTINUOUS
 62
               2
100
AcDbLine
 10
0.0
 20
14.679453746566963
 30
0.0
 11
0.0
 21
-4.4319606876770763
 31
0.0
  0
ENDBLK
  5
5B5
100
AcDbEntity
  8
0
100
AcDbBlockEnd
  0
BLOCK
  5
5B6
100
AcDbEntity
  8
0
100
AcDbBlockBegin
  2
F10MS-13
 70
               0
 10
0.0
 20
0.0
 30
0.0
  3
F10MS-13
  1

  0
LINE
  5
5B7
100
AcDbEntity
  8
0
  6
CONTINUOUS
 62
               2
100
AcDbLine
 10
5.25
 20
-35.525761008605457
 30
0.0
 11
5.25
 21
68.171006782225106
 31
0.0
  0
LINE
  5
5B8
100
AcDbEntity
  8
0
  6
CONTINUOUS
 62
               7
100
AcDbLine
 10
5.25
 20
27.199996948242187
 30
0.0
 11
5.25
 21
28.199996948242188
 31
0.0
  0
LINE
  5
5B9
100
AcDbEntity
  8
0
  6
CONTINUOUS
 62
               7
100
AcDbLine
 10
0.0
 20
50.0
 30
0.0
 11
-0.2499923706054688
 21
50.0
 31
0.0
  0
LINE
  5
5BA
100
AcDbEntity
  8
0
  6
CONTINUOUS
 62
               7
100
AcDbLine
 10
0.0
 20
-29.800003051757813
 30
0.0
 11
0.0
 21
63.0
 31
0.0
  0
LINE
  5
5BB
100
AcDbEntity
  8
0
  6
CONTINUOUS
 62
               7
100
AcDbLine
 10
0.0
 20
-25.0
 30
0.0
 11
7.649993896484375
 21
-25.0
 31
0.0
  0
LINE
  5
5BC
100
AcDbEntity
  8
0
  6
CONTINUOUS
 62
               4
100
AcDbLine
 10
8.4489895344922843
 20
12.401073437775267
 30
0.0
 11
9.6510689853457166
 21
11.198994088249492
 31
0.0
  0
LINE
  5
5BD
100
AcDbEntity
  8
0
  6
CONTINUOUS
 62
               4
100
AcDbLine
 10
8.448973375391688
 20
11.198969238465907
 30
0.0
 11
9.6510420366511767
 21
12.401037798398647
 31
0.0
  0
LINE
  5
5BE
100
AcDbEntity
  8
0
  6
CONTINUOUS
 62
               4
100
AcDbLine
 10
10.249999999999943
 20
-17.5
 30
0.0
 11
10.249999999999943
 21
11.45001220703125
 31
0.0
  0
LINE
  5
5BF
100
AcDbEntity
  8
0
  6
CONTINUOUS
 62
               4
100
AcDbLine
 10
0.25
 20
-13.449996948242188
 30
0.0
 11
0.25
 21
22.5
 31
0.0
  0
LINE
  5
5C0
100
AcDbEntity
  8
0
  6
CONTINUOUS
 62
               4
100
AcDbLine
 10
10.249999999999943
 20
12.149978637695312
 30
0.0
 11
10.249999999999943
 21
22.5
 31
0.0
  0
LINE
  5
5C1
100
AcDbEntity
  8
0
  6
CONTINUOUS
 62
               4
100
AcDbLine
 10
0.25
 20
-17.5
 30
0.0
 11
0.25
 21
-14.150009155273438
 31
0.0
  0
LINE
  5
5C2
100
AcDbEntity
  8
0
  6
CONTINUOUS
 62
               4
100
AcDbLine
 10
0.25
 20
-17.5
 30
0.0
 11
10.249999999999943
 21
-17.5
 31
0.0
  0
LINE
  5
5C3
100
AcDbEntity
  8
0
  6
CONTINUOUS
 62
               4
100
AcDbLine
 10
0.25
 20
22.5
 30
0.0
 11
10.249999999999943
 21
22.5
 31
0.0
  0
LINE
  5
5C4
100
AcDbEntity
  8
0
  6
CONTINUOUS
 62
               7
100
AcDbLine
 10
10.499999999999943
 20
-29.800003051757813
 30
0.0
 11
10.499999999999943
 21
63.0
 31
0.0
  0
LINE
  5
5C5
100
AcDbEntity
  8
0
  6
CONTINUOUS
 62
               7
100
AcDbLine
 10
0.75
 20
50.0
 30
0.0
 11
9.7499999999999432
 21
50.0
 31
0.0
  0
LINE
  5
5C6
100
AcDbEntity
  8
0
  6
CONTINUOUS
 62
               7
100
AcDbLine
 10
1.75
 20
59.5
 30
0.0
 11
1.75
 21
60.0
 31
0.0
  0
LINE
  5
5C7
100
AcDbEntity
  8
0
  6
CONTINUOUS
 62
               7
100
AcDbLine
 10
8.75
 20
59.5
 30
0.0
 11
8.75
 21
60.0
 31
0.0
  0
LINE
  5
5C8
100
AcDbEntity
  8
0
  6
CONTINUOUS
 62
               7
100
AcDbLine
 10
0.0
 20
60.0
 30
0.0
 11
10.499999999999943
 21
60.0
 31
0.0
  0
LINE
  5
5C9
100
AcDbEntity
  8
0
  6
CONTINUOUS
 62
               7
100
AcDbLine
 10
0.75
 20
59.5
 30
0.0
 11
9.7499999999999432
 21
59.5
 31
0.0
  0
LINE
  5
5CA
100
AcDbEntity
  8
0
  6
CONTINUOUS
 62
               7
100
AcDbLine
 10
0.0
 20
62.0
 30
0.0
 11
10.499999999999943
 21
62.0
 31
0.0
  0
LINE
  5
5CB
100
AcDbEntity
  8
0
  6
CONTINUOUS
 62
               7
100
AcDbLine
 10
0.0
 20
61.0
 30
0.0
 11
10.499999999999943
 21
61.0
 31
0.0
  0
LINE
  5
5CC
100
AcDbEntity
  8
0
  6
CONTINUOUS
 62
               7
100
AcDbLine
 10
0.0
 20
61.5
 30
0.0
 11
10.499999999999943
 21
61.5
 31
0.0
  0
LINE
  5
5CD
100
AcDbEntity
  8
0
  6
CONTINUOUS
 62
               7
100
AcDbLine
 10
10.499999999999943
 20
63.0
 30
0.0
 11
0.0
 21
63.0
 31
0.0
  0
LINE
  5
5CE
100
AcDbEntity
  8
0
  6
CONTINUOUS
 62
               7
100
AcDbLine
 10
0.25
 20
-25.0
 30
0.0
 11
0.25
 21
-30.0
 31
0.0
  0
LINE
  5
5CF
100
AcDbEntity
  8
0
  6
CONTINUOUS
 62
               7
100
AcDbLine
 10
0.25
 20
-30.0
 30
0.0
 11
10.249999999999943
 21
-30.0
 31
0.0
  0
LINE
  5
5D0
100
AcDbEntity
  8
0
  6
CONTINUOUS
 62
               7
100
AcDbLine
 10
7.4499969482421875
 20
-25.0
 30
0.0
 11
7.4499969482421875
 21
-30.0
 31
0.0
  0
LINE
  5
5D1
100
AcDbEntity
  8
0
  6
CONTINUOUS
 62
               7
100
AcDbLine
 10
10.249999999999943
 20
-29.800003051757813
 30
0.0
 11
10.249999999999943
 21
-30.0
 31
0.0
  0
LINE
  5
5D2
100
AcDbEntity
  8
0
  6
CONTINUOUS
 62
               7
100
AcDbLine
 10
7.649993896484375
 20
-29.800003051757813
 30
0.0
 11
7.649993896484375
 21
-25.0
 31
0.0
  0
LINE
  5
5D3
100
AcDbEntity
  8
0
  6
CONTINUOUS
 62
               7
100
AcDbLine
 10
0.0
 20
-29.800003051757813
 30
0.0
 11
0.25
 21
-29.800003051757813
 31
0.0
  0
LINE
  5
5D4
100
AcDbEntity
  8
0
  6
CONTINUOUS
 62
               7
100
AcDbLine
 10
7.649993896484375
 20
-29.800003051757813
 30
0.0
 11
10.499999999999943
 21
-29.800003051757813
 31
0.0
  0
LINE
  5
5D5
100
AcDbEntity
  8
0
  6
CONTINUOUS
 62
               7
100
AcDbLine
 10
10.249999999999943
 20
50.5
 30
0.0
 11
10.249999999999943
 21
59.0
 31
0.0
  0
LINE
  5
5D6
100
AcDbEntity
  8
0
  6
CONTINUOUS
 62
               7
100
AcDbLine
 10
0.25
 20
50.5
 30
0.0
 11
0.25
 21
59.0
 31
0.0
  0
CIRCLE
  5
5D7
100
AcDbEntity
  8
0
  6
CONTINUOUS
 62
               4
100
AcDbCircle
 10
9.0500030517578125
 20
11.800003051757813
 30
0.0
 40
1.25
  0
ARC
  5
5D8
100
AcDbEntity
  8
0
  6
CONTINUOUS
 62
               7
100
AcDbCircle
 10
9.7499999999999432
 20
59.0
 30
0.0
 40
0.5
100
AcDbArc
 50
0.0
 51
89.999982013910653
  0
ARC
  5
5D9
100
AcDbEntity
  8
0
  6
CONTINUOUS
 62
               7
100
AcDbCircle
 10
9.7499999999999432
 20
50.5
 30
0.0
 40
0.5
100
AcDbArc
 50
270.00001798608935
 51
0.0
  0
ARC
  5
5DA
100
AcDbEntity
  8
0
  6
CONTINUOUS
 62
               7
100
AcDbCircle
 10
0.75
 20
50.5
 30
0.0
 40
0.5
100
AcDbArc
 50
179.99998133066532
 51
270.00001798608935
  0
ARC
  5
5DB
100
AcDbEntity
  8
0
  6
CONTINUOUS
 62
               7
100
AcDbCircle
 10
0.75
 20
59.0
 30
0.0
 40
0.5
100
AcDbArc
 50
89.999982013910653
 51
179.99996402782131
  0
CIRCLE
  5
5DC
100
AcDbEntity
  8
0
  6
CONTINUOUS
 62
               4
100
AcDbCircle
 10
1.4499969482421875
 20
-13.800003051757812
 30
0.0
 40
1.25
  0
LINE
  5
5DD
100
AcDbEntity
  8
0
  6
CONTINUOUS
 62
               4
100
AcDbLine
 10
0.8489984347343125
 20
-14.401045749358673
 30
0.0
 11
2.0510778855878016
 21
-13.198966399832898
 31
0.0
  0
LINE
  5
5DE
100
AcDbEntity
  8
0
  6
CONTINUOUS
 62
               4
100
AcDbLine
 10
0.8489951725669016
 20
-13.198920611493122
 30
0.0
 11
2.0510746234203907
 21
-14.400999961018897
 31
0.0
  0
ENDBLK
  5
5DF
100
AcDbEntity
  8
0
100
AcDbBlockEnd
  0
BLOCK
  5
5E0
100
AcDbEntity
  8
0
100
AcDbBlockBegin
  2
F10MS-14
 70
               0
 10
0.0
 20
0.0
 30
0.0
  3
F10MS-14
  1

  0
LINE
  5
5E1
100
AcDbEntity
  8
0
  6
CONTINUOUS
 62
               2
100
AcDbLine
 10
5.25
 20
34.67853279621194
 30
0.0
 11
5.25
 21
-0.8299999999999983
 31
0.0
  0
LINE
  5
5E2
100
AcDbEntity
  8
0
  6
CONTINUOUS
 62
             200
100
AcDbLine
 10
5.25
 20
37.791842594207708
 30
0.0
 11
5.25
 21
34.67853279621194
 31
0.0
  0
LINE
  5
5E3
100
AcDbEntity
  8
0
  6
CONTINUOUS
 62
               7
100
AcDbLine
 10
10.5
 20
1.0
 30
0.0
 11
0.0
 21
1.0
 31
0.0
  0
ARC
  5
5E4
100
AcDbEntity
  8
0
  6
CONTINUOUS
 62
               7
100
AcDbCircle
 10
9.8499946594238281
 20
29.80000114440918
 30
0.0
 40
0.4000000357627869
100
AcDbArc
 50
0.0
 51
89.999982013910653
  0
LINE
  5
5E5
100
AcDbEntity
  8
0
  6
CONTINUOUS
 62
               7
100
AcDbLine
 10
10.5
 20
35.0
 30
0.0
 11
10.5
 21
1.0
 31
0.0
  0
LINE
  5
5E6
100
AcDbEntity
  8
0
  6
CONTINUOUS
 62
               7
100
AcDbLine
 10
10.25
 20
3.600006103515625
 30
0.0
 11
10.25
 21
29.80000114440918
 31
0.0
  0
ARC
  5
5E7
100
AcDbEntity
  8
0
  6
CONTINUOUS
 62
               7
100
AcDbCircle
 10
9.8499946594238281
 20
3.600006103515625
 30
0.0
 40
0.4000000357627869
100
AcDbArc
 50
270.00001798608935
 51
0.0
  0
ARC
  5
5E8
100
AcDbEntity
  8
0
  6
CONTINUOUS
 62
               7
100
AcDbCircle
 10
0.6499977111816406
 20
8.20001220703125
 30
0.0
 40
0.4000000357627869
100
AcDbArc
 50
179.99996402782131
 51
270.00000068324533
  0
LINE
  5
5E9
100
AcDbEntity
  8
0
  6
CONTINUOUS
 62
               7
100
AcDbLine
 10
0.0
 20
35.0
 30
0.0
 11
0.0
 21
1.0
 31
0.0
  0
LINE
  5
5EA
100
AcDbEntity
  8
0
  6
CONTINUOUS
 62
               7
100
AcDbLine
 10
9.04998779296875
 20
30.400009155273438
 30
0.0
 11
10.5
 21
30.400009155273438
 31
0.0
  0
LINE
  5
5EB
100
AcDbEntity
  8
0
  6
CONTINUOUS
 62
               7
100
AcDbLine
 10
9.0499916076660156
 20
30.200006484985352
 30
0.0
 11
9.8499946594238281
 21
30.200006484985352
 31
0.0
  0
ARC
  5
5EC
100
AcDbEntity
  8
0
  6
CONTINUOUS
 62
               7
100
AcDbCircle
 10
0.6499977111816406
 20
34.400003433227539
 30
0.0
 40
0.4000000357627869
100
AcDbArc
 50
89.999982013910653
 51
179.99996402782131
  0
LINE
  5
5ED
100
AcDbEntity
  8
0
  6
CONTINUOUS
 62
               4
100
AcDbLine
 10
0.25
 20
36.600006103515625
 30
0.0
 11
0.25
 21
35.0
 31
0.0
  0
ARC
  5
5EE
100
AcDbEntity
  8
0
  6
CONTINUOUS
 62
               4
100
AcDbCircle
 10
0.6999969482421875
 20
36.600006103515625
 30
0.0
 40
0.5
100
AcDbArc
 50
89.999982013910653
 51
179.99996402782131
  0
LINE
  5
5EF
100
AcDbEntity
  8
0
  6
CONTINUOUS
 62
               7
100
AcDbLine
 10
0.25
 20
8.20001220703125
 30
0.0
 11
0.25
 21
34.400003433227539
 31
0.0
  0
LINE
  5
5F0
100
AcDbEntity
  8
0
  6
CONTINUOUS
 62
               4
100
AcDbLine
 10
10.25
 20
36.600006103515625
 30
0.0
 11
10.25
 21
35.0
 31
0.0
  0
ARC
  5
5F1
100
AcDbEntity
  8
0
  6
CONTINUOUS
 62
               4
100
AcDbCircle
 10
9.8000030517578125
 20
36.600006103515625
 30
0.0
 40
0.5
100
AcDbArc
 50
0.0
 51
89.999982013910653
  0
LINE
  5
5F2
100
AcDbEntity
  8
0
  6
CONTINUOUS
 62
               7
100
AcDbLine
 10
7.4500007629394531
 20
31.799999237060547
 30
0.0
 11
7.4500007629394531
 21
34.400003433227539
 31
0.0
  0
LINE
  5
5F3
100
AcDbEntity
  8
0
  6
CONTINUOUS
 62
               7
100
AcDbLine
 10
3.0500030517578125
 20
6.1999969482421875
 30
0.0
 11
3.0500030517578125
 21
3.600006103515625
 31
0.0
  0
LINE
  5
5F4
100
AcDbEntity
  8
0
  6
CONTINUOUS
 62
               7
100
AcDbLine
 10
7.648950965482527
 20
5.3989596978930194
 30
0.0
 11
8.851033113734502
 21
6.6010417448170529
 31
0.0
  0
LINE
  5
5F5
100
AcDbEntity
  8
0
  6
CONTINUOUS
 62
               7
100
AcDbLine
 10
7.6489551801669222
 20
6.6010523658226248
 30
0.0
 11
8.8510346310204113
 21
5.3989730162968499
 31
0.0
  0
LINE
  5
5F6
100
AcDbEntity
  8
0
  6
CONTINUOUS
 62
               7
100
AcDbLine
 10
1.6489662180941878
 20
32.60104831568276
 30
0.0
 11
2.8510483663461628
 21
31.398966268758727
 31
0.0
  0
LINE
  5
5F7
100
AcDbEntity
  8
0
  6
CONTINUOUS
 62
               7
100
AcDbLine
 10
1.6489562177350763
 20
31.398959661628268
 30
0.0
 11
2.8510383659870513
 21
32.601041708552302
 31
0.0
  0
ARC
  5
5F8
100
AcDbEntity
  8
0
  6
CONTINUOUS
 62
               7
100
AcDbCircle
 10
7.0499954223632812
 20
34.400003433227539
 30
0.0
 40
0.4000000357627869
100
AcDbArc
 50
0.0
 51
89.999982013910653
  0
ARC
  5
5F9
100
AcDbEntity
  8
0
  6
CONTINUOUS
 62
               7
100
AcDbCircle
 10
3.4499969482421875
 20
3.600006103515625
 30
0.0
 40
0.4000000357627869
100
AcDbArc
 50
179.99996402782131
 51
270.00000068324533
  0
ARC
  5
5FA
100
AcDbEntity
  8
0
  6
CONTINUOUS
 62
               7
100
AcDbCircle
 10
1.4499969482421875
 20
6.20001220703125
 30
0.0
 40
1.5999994277954102
100
AcDbArc
 50
0.0
 51
89.999982013910653
  0
CIRCLE
  5
5FB
100
AcDbEntity
  8
0
  6
CONTINUOUS
 62
               7
100
AcDbCircle
 10
2.25
 20
32.0
 30
0.0
 40
1.25
  0
ARC
  5
5FC
100
AcDbEntity
  8
0
  6
CONTINUOUS
 62
               7
100
AcDbCircle
 10
1.45001220703125
 20
6.1999969482421875
 30
0.0
 40
1.3999996185302734
100
AcDbArc
 50
0.0
 51
89.999982013910653
  0
ARC
  5
5FD
100
AcDbEntity
  8
0
  6
CONTINUOUS
 62
               4
100
AcDbCircle
 10
8.3000030517578125
 20
36.600006103515625
 30
0.0
 40
0.5
100
AcDbArc
 50
89.999982013910653
 51
179.99996402782131
  0
ARC
  5
5FE
100
AcDbEntity
  8
0
  6
CONTINUOUS
 62
               4
100
AcDbCircle
 10
2.1999969482421875
 20
36.600006103515625
 30
0.0
 40
0.5
100
AcDbArc
 50
0.0
 51
89.999982013910653
  0
LINE
  5
5FF
100
AcDbEntity
  8
0
  6
CONTINUOUS
 62
               7
100
AcDbLine
 10
2.850006103515625
 20
3.0
 30
0.0
 11
2.850006103515625
 21
6.1999969482421875
 31
0.0
  0
LINE
  5
600
100
AcDbEntity
  8
0
  6
CONTINUOUS
 62
               7
100
AcDbLine
 10
7.649993896484375
 20
31.800003051757813
 30
0.0
 11
7.649993896484375
 21
35.0
 31
0.0
  0
LINE
  5
601
100
AcDbEntity
  8
0
  6
CONTINUOUS
 62
               4
100
AcDbLine
 10
0.1999969482421875
 20
36.600006103515625
 30
0.0
 11
10.300003051757812
 21
36.600006103515625
 31
0.0
  0
LINE
  5
602
100
AcDbEntity
  8
0
  6
CONTINUOUS
 62
               4
100
AcDbLine
 10
0.6999969482421875
 20
37.100006103515625
 30
0.0
 11
2.1999969482421875
 21
37.100006103515625
 31
0.0
  0
LINE
  5
603
100
AcDbEntity
  8
0
  6
CONTINUOUS
 62
               4
100
AcDbLine
 10
9.8000030517578125
 20
37.100006103515625
 30
0.0
 11
8.3000030517578125
 21
37.100006103515625
 31
0.0
  0
LINE
  5
604
100
AcDbEntity
  8
0
  6
CONTINUOUS
 62
               7
100
AcDbLine
 10
0.0
 20
7.600006103515625
 30
0.0
 11
1.45001220703125
 21
7.600006103515625
 31
0.0
  0
LINE
  5
605
100
AcDbEntity
  8
0
  6
CONTINUOUS
 62
               7
100
AcDbLine
 10
10.5
 20
35.0
 30
0.0
 11
0.0
 21
35.0
 31
0.0
  0
ARC
  5
606
100
AcDbEntity
  8
0
  6
CONTINUOUS
 62
               7
100
AcDbCircle
 10
9.04998779296875
 20
31.800003051757813
 30
0.0
 40
1.3999996185302734
100
AcDbArc
 50
179.99998133066532
 51
270.00001798608935
  0
LINE
  5
607
100
AcDbEntity
  8
0
  6
CONTINUOUS
 62
               7
100
AcDbLine
 10
0.0
 20
3.0
 30
0.0
 11
10.5
 21
3.0
 31
0.0
  0
CIRCLE
  5
608
100
AcDbEntity
  8
0
  6
CONTINUOUS
 62
               7
100
AcDbCircle
 10
8.2499961853027344
 20
6.0
 30
0.0
 40
1.25
  0
CIRCLE
  5
609
100
AcDbEntity
  8
0
  6
CONTINUOUS
 62
               7
100
AcDbCircle
 10
2.25
 20
32.0
 30
0.0
 40
1.3999996185302734
  0
CIRCLE
  5
60A
100
AcDbEntity
  8
0
  6
CONTINUOUS
 62
               7
100
AcDbCircle
 10
8.2499961853027344
 20
6.0
 30
0.0
 40
1.3999996185302734
  0
ARC
  5
60B
100
AcDbEntity
  8
0
  6
CONTINUOUS
 62
               7
100
AcDbCircle
 10
9.0499954223632812
 20
31.799999237060547
 30
0.0
 40
1.5999994277954102
100
AcDbArc
 50
179.99996402782131
 51
270.00000068324533
  0
LINE
  5
60C
100
AcDbEntity
  8
0
  6
CONTINUOUS
 62
               7
100
AcDbLine
 10
1.4499969482421875
 20
7.8000030517578125
 30
0.0
 11
0.6499977111816406
 21
7.8000030517578125
 31
0.0
  0
LINE
  5
60D
100
AcDbEntity
  8
0
  6
CONTINUOUS
 62
               7
100
AcDbLine
 10
0.6499977111816406
 20
34.800003051757813
 30
0.0
 11
7.0499954223632812
 21
34.800003051757813
 31
0.0
  0
LINE
  5
60E
100
AcDbEntity
  8
0
  6
CONTINUOUS
 62
               7
100
AcDbLine
 10
3.4499969482421875
 20
3.20001220703125
 30
0.0
 11
9.8499908447265625
 21
3.20001220703125
 31
0.0
  0
LINE
  5
60F
100
AcDbEntity
  8
0
  6
CONTINUOUS
 62
               7
100
AcDbLine
 10
0.0
 20
0.0
 30
0.0
 11
10.5
 21
0.0
 31
0.0
  0
ENDBLK
  5
610
100
AcDbEntity
  8
0
100
AcDbBlockEnd
  0
BLOCK
  5
611
100
AcDbEntity
  8
0
100
AcDbBlockBegin
  2
F10MS-15
 70
               0
 10
0.0
 20
0.0
 30
0.0
  3
F10MS-15
  1

  0
LINE
  5
612
100
AcDbEntity
  8
0
  6
CONTINUOUS
 62
               4
100
AcDbLine
 10
10.25
 20
33.5000000102238
 30
0.0
 11
10.25
 21
57.5000000102238
 31
0.0
  0
LINE
  5
613
100
AcDbEntity
  8
0
  6
CONTINUOUS
 62
               7
100
AcDbLine
 10
10.5
 20
33.5000000102238
 30
0.0
 11
10.5
 21
-30.300003041533998
 31
0.0
  0
LINE
  5
614
100
AcDbEntity
  8
0
  6
CONTINUOUS
 62
               4
100
AcDbLine
 10
0.25
 20
33.5000000102238
 30
0.0
 11
0.25
 21
57.5000000102238
 31
0.0
  0
LINE
  5
615
100
AcDbEntity
  8
0
  6
CONTINUOUS
 62
               4
100
AcDbLine
 10
0.25
 20
-12.301351476141434
 30
0.0
 11
0.25
 21
13.901367136847824
 31
0.0
  0
LINE
  5
616
100
AcDbEntity
  8
0
  6
CONTINUOUS
 62
               4
100
AcDbLine
 10
10.25
 20
-16.899993886260575
 30
0.0
 11
10.25
 21
9.3000011546329802
 31
0.0
  0
LINE
  5
617
100
AcDbEntity
  8
0
  6
CONTINUOUS
 62
               7
100
AcDbLine
 10
9.9499969482421875
 20
-18.412907763811631
 30
0.0
 11
9.9499969482421875
 21
-17.500015248565262
 31
0.0
  0
LINE
  5
618
100
AcDbEntity
  8
0
  6
CONTINUOUS
 62
               7
100
AcDbLine
 10
10.25
 20
9.3000011546329802
 30
0.0
 11
10.25
 21
10.95001221725505
 31
0.0
  0
LINE
  5
619
100
AcDbEntity
  8
0
  6
CONTINUOUS
 62
               7
100
AcDbLine
 10
0.25
 20
13.901367136847824
 30
0.0
 11
0.25
 21
33.5000000102238
 31
0.0
  0
LINE
  5
61A
100
AcDbEntity
  8
0
  6
CONTINUOUS
 62
               7
100
AcDbLine
 10
10.25
 20
-30.300003041533998
 30
0.0
 11
10.5
 21
-30.300003041533998
 31
0.0
  0
LINE
  5
61B
100
AcDbEntity
  8
0
  6
CONTINUOUS
 62
               7
100
AcDbLine
 10
10.5
 20
62.5000000102238
 30
0.0
 11
10.5
 21
33.5000000102238
 31
0.0
  0
LINE
  5
61C
100
AcDbEntity
  8
0
  6
CONTINUOUS
 62
               7
100
AcDbLine
 10
0.0
 20
62.5000000102238
 30
0.0
 11
0.0
 21
-30.300003041533998
 31
0.0
  0
LINE
  5
61D
100
AcDbEntity
  8
0
  6
CONTINUOUS
 62
               7
100
AcDbLine
 10
0.25
 20
-32.099990834502748
 30
0.0
 11
0.25
 21
-14.650009145049637
 31
0.0
  0
LINE
  5
61E
100
AcDbEntity
  8
0
  6
CONTINUOUS
 62
               7
100
AcDbLine
 10
0.25
 20
-13.949981679229325
 30
0.0
 11
0.25
 21
-12.301351476141434
 31
0.0
  0
LINE
  5
61F
100
AcDbEntity
  8
0
  6
CONTINUOUS
 62
               7
100
AcDbLine
 10
9.9499969482421875
 20
-23.500015248565262
 30
0.0
 11
10.25
 21
-23.500015248565262
 31
0.0
  0
LINE
  5
620
100
AcDbEntity
  8
0
  6
CONTINUOUS
 62
               7
100
AcDbLine
 10
10.25
 20
-19.4999999897762
 30
0.0
 11
9.9499969482421875
 21
-19.4999999897762
 31
0.0
  0
LINE
  5
621
100
AcDbEntity
  8
0
  6
CONTINUOUS
 62
               7
100
AcDbLine
 10
0.5500030517578125
 20
-25.500015248565248
 30
0.0
 11
0.5500030517578125
 21
-17.500015248565262
 31
0.0
  0
LINE
  5
622
100
AcDbEntity
  8
0
  6
CONTINUOUS
 62
               7
100
AcDbLine
 10
9.9499969482421875
 20
-25.500015248565248
 30
0.0
 11
9.9499969482421875
 21
-18.412907763811631
 31
0.0
  0
LINE
  5
623
100
AcDbEntity
  8
0
  6
CONTINUOUS
 62
               7
100
AcDbLine
 10
0.9499969482421875
 20
-25.10000609329181
 30
0.0
 11
9.5500030517578125
 21
-25.10000609329181
 31
0.0
  0
LINE
  5
624
100
AcDbEntity
  8
0
  6
CONTINUOUS
 62
               7
100
AcDbLine
 10
0.9499969482421875
 20
-25.10000609329181
 30
0.0
 11
0.9499969482421875
 21
-17.900009145049637
 31
0.0
  0
LINE
  5
625
100
AcDbEntity
  8
0
  6
CONTINUOUS
 62
               7
100
AcDbLine
 10
0.9499969482421875
 20
-17.900009145049637
 30
0.0
 11
9.5500030517578125
 21
-17.900009145049637
 31
0.0
  0
LINE
  5
626
100
AcDbEntity
  8
0
  6
CONTINUOUS
 62
               7
100
AcDbLine
 10
9.5500030517578125
 20
-25.10000609329181
 30
0.0
 11
9.5500030517578125
 21
-17.900009145049637
 31
0.0
  0
LINE
  5
627
100
AcDbEntity
  8
0
  6
CONTINUOUS
 62
               7
100
AcDbLine
 10
9.5499680153207009
 20
-17.89998712257767
 30
0.0
 11
9.9499706315928051
 21
-17.49998457374096
 31
0.0
  0
LINE
  5
628
100
AcDbEntity
  8
0
  6
CONTINUOUS
 62
               7
100
AcDbLine
 10
9.550010566777928
 20
-25.099990450188486
 30
0.0
 11
9.9500023260225134
 21
-25.499982276866646
 31
0.0
  0
LINE
  5
629
100
AcDbEntity
  8
0
  6
CONTINUOUS
 62
               7
100
AcDbLine
 10
0.949971226247726
 20
-25.099989725259363
 30
0.0
 11
0.5499793995695654
 21
-25.499981484503948
 31
0.0
  0
LINE
  5
62A
100
AcDbEntity
  8
0
  6
CONTINUOUS
 62
               7
100
AcDbLine
 10
0.9500042019426473
 20
-17.899975608061879
 30
0.0
 11
0.5500124426980619
 21
-17.499983781383719
 31
0.0
  0
ARC
  5
62B
100
AcDbEntity
  8
0
  6
CONTINUOUS
 62
               7
100
AcDbCircle
 10
5.1500091552734375
 20
30.199996958465988
 30
0.0
 40
3.0
100
AcDbArc
 50
271.91023065164512
 51
0.0
  0
ARC
  5
62C
100
AcDbEntity
  8
0
  6
CONTINUOUS
 62
               7
100
AcDbCircle
 10
5.25
 20
30.199996958465988
 30
0.0
 40
3.0
100
AcDbArc
 50
266.17746163595666
 51
3.822566595416411
  0
ARC
  5
62D
100
AcDbEntity
  8
0
  6
CONTINUOUS
 62
               7
100
AcDbCircle
 10
5.350006103515625
 20
30.199996958465988
 30
0.0
 40
3.0
100
AcDbArc
 50
268.08980532053351
 51
0.0
  0
ARC
  5
62E
100
AcDbEntity
  8
0
  6
CONTINUOUS
 62
               7
100
AcDbCircle
 10
9.850006103515625
 20
14.899993906708175
 30
0.0
 40
0.4000000357627869
100
AcDbArc
 50
270.00001798608935
 51
0.0
  0
ARC
  5
62F
100
AcDbEntity
  8
0
  6
CONTINUOUS
 62
               7
100
AcDbCircle
 10
9.850006103515625
 20
-32.099990834502748
 30
0.0
 40
0.4000000357627869
100
AcDbArc
 50
270.00001798608935
 51
0.00001366037834
  0
ARC
  5
630
100
AcDbEntity
  8
0
  6
CONTINUOUS
 62
               4
100
AcDbCircle
 10
0.8000030517578125
 20
66.000015269012863
 30
0.0
 40
0.5
100
AcDbArc
 50
89.999982013910653
 51
180.00001866933468
  0
ARC
  5
631
100
AcDbEntity
  8
0
  6
CONTINUOUS
 62
               4
100
AcDbCircle
 10
9.70001220703125
 20
66.0000000102238
 30
0.0
 40
0.5
100
AcDbArc
 50
359.99995901886496
 51
89.999982013910653
  0
CIRCLE
  5
632
100
AcDbEntity
  8
0
  6
CONTINUOUS
 62
               7
100
AcDbCircle
 10
5.25
 20
30.199996958465988
 30
0.0
 40
1.9499998092651367
  0
CIRCLE
  5
633
100
AcDbEntity
  8
0
  6
CONTINUOUS
 62
               7
100
AcDbCircle
 10
5.25
 20
30.199996958465988
 30
0.0
 40
2.0
  0
LINE
  5
634
100
AcDbEntity
  8
0
  6
CONTINUOUS
 62
               7
100
AcDbLine
 10
5.2499911425784376
 20
27.199986687074841
 30
0.0
 11
6.2499931955189822
 21
26.932037004021538
 31
0.0
  0
LINE
  5
635
100
AcDbEntity
  8
0
  6
CONTINUOUS
 62
               7
100
AcDbLine
 10
5.25
 20
26.699996958465988
 30
0.0
 11
5.25
 21
27.699996958465988
 31
0.0
  0
LINE
  5
636
100
AcDbEntity
  8
0
  6
CONTINUOUS
 62
               7
100
AcDbLine
 10
7.75
 20
30.199996958465988
 30
0.0
 11
8.75
 21
30.199996958465988
 31
0.0
  0
LINE
  5
637
100
AcDbEntity
  8
0
  6
CONTINUOUS
 62
               7
100
AcDbLine
 10
10.25
 20
11.649978647919113
 30
0.0
 11
10.25
 21
33.5000000102238
 31
0.0
  0
LINE
  5
638
100
AcDbEntity
  8
0
  6
CONTINUOUS
 62
               7
100
AcDbLine
 10
0.649993896484375
 20
-32.499999989776185
 30
0.0
 11
9.850006103515625
 21
-32.499999989776185
 31
0.0
  0
LINE
  5
639
100
AcDbEntity
  8
0
  6
CONTINUOUS
 62
               7
100
AcDbLine
 10
10.25
 20
-32.099990834502748
 30
0.0
 11
10.25
 21
-16.899993886260575
 31
0.0
  0
LINE
  5
63A
100
AcDbEntity
  8
0
  6
CONTINUOUS
 62
               4
100
AcDbLine
 10
10.199996948242187
 20
57.5000000102238
 30
0.0
 11
10.199996948242187
 21
66.0000000102238
 31
0.0
  0
LINE
  5
63B
100
AcDbEntity
  8
0
  6
CONTINUOUS
 62
               2
100
AcDbLine
 10
10.199996948242187
 20
62.0000000102238
 30
0.0
 11
0.3000030517578125
 21
62.0000000102238
 31
0.0
  0
LINE
  5
63C
100
AcDbEntity
  8
0
  6
CONTINUOUS
 62
               4
100
AcDbLine
 10
0.3000030517578125
 20
57.500015269012863
 30
0.0
 11
0.3000030517578125
 21
66.000015269012863
 31
0.0
  0
LINE
  5
63D
100
AcDbEntity
  8
0
  6
CONTINUOUS
 62
               7
100
AcDbLine
 10
3.323211669921875
 20
30.499984751434738
 30
0.0
 11
7.176788330078125
 21
30.499984751434738
 31
0.0
  0
LINE
  5
63E
100
AcDbEntity
  8
0
  6
CONTINUOUS
 62
               7
100
AcDbLine
 10
3.323211669921875
 20
29.899993906708175
 30
0.0
 11
7.176788330078125
 21
29.899993906708175
 31
0.0
  0
LINE
  5
63F
100
AcDbEntity
  8
0
  6
CONTINUOUS
 62
               2
100
AcDbLine
 10
2.75
 20
30.199996958465988
 30
0.0
 11
7.75
 21
30.199996958465988
 31
0.0
  0
LINE
  5
640
100
AcDbEntity
  8
0
  6
CONTINUOUS
 62
               4
100
AcDbLine
 10
0.7960968315602486
 20
66.5000000102238
 30
0.0
 11
9.70001220703125
 21
66.5000000102238
 31
0.0
  0
LINE
  5
641
100
AcDbEntity
  8
0
  6
CONTINUOUS
 62
               4
100
AcDbLine
 10
3.4499969482421875
 20
-17.29998778274495
 30
0.0
 11
9.8499908447265625
 21
-17.29998778274495
 31
0.0
  0
LINE
  5
642
100
AcDbEntity
  8
0
  6
CONTINUOUS
 62
               4
100
AcDbLine
 10
0.6499977111816406
 20
14.300003061981613
 30
0.0
 11
7.0499954223632812
 21
14.300003061981613
 31
0.0
  0
LINE
  5
643
100
AcDbEntity
  8
0
  6
CONTINUOUS
 62
               4
100
AcDbLine
 10
7.4500007629394531
 20
11.299999247284347
 30
0.0
 11
7.4500007629394531
 21
13.90000344345134
 31
0.0
  0
LINE
  5
644
100
AcDbEntity
  8
0
  6
CONTINUOUS
 62
               4
100
AcDbLine
 10
3.0500030517578125
 20
-14.300003041534012
 30
0.0
 11
3.0500030517578125
 21
-16.899993886260575
 31
0.0
  0
LINE
  5
645
100
AcDbEntity
  8
0
  6
CONTINUOUS
 62
               4
100
AcDbLine
 10
1.4499969482421875
 20
-12.699996938018387
 30
0.0
 11
0.6499977111816406
 21
-12.699996938018387
 31
0.0
  0
LINE
  5
646
100
AcDbEntity
  8
0
  6
CONTINUOUS
 62
               4
100
AcDbLine
 10
9.0499916076660156
 20
9.700006495209152
 30
0.0
 11
9.8499946594238281
 21
9.700006495209152
 31
0.0
  0
LINE
  5
647
100
AcDbEntity
  8
0
  6
CONTINUOUS
 62
               4
100
AcDbLine
 10
7.648950965482527
 20
-15.10104029188318
 30
0.0
 11
8.851033113734502
 21
-13.898958244959147
 31
0.0
  0
LINE
  5
648
100
AcDbEntity
  8
0
  6
CONTINUOUS
 62
               4
100
AcDbLine
 10
7.6489551801668085
 20
-13.898947623953575
 30
0.0
 11
8.8510346310202976
 21
-15.10102697347935
 31
0.0
  0
LINE
  5
649
100
AcDbEntity
  8
0
  6
CONTINUOUS
 62
               4
100
AcDbLine
 10
1.6489662180941878
 20
12.101048325906561
 30
0.0
 11
2.8510483663461628
 21
10.898966278982527
 31
0.0
  0
LINE
  5
64A
100
AcDbEntity
  8
0
  6
CONTINUOUS
 62
               4
100
AcDbLine
 10
1.6489562177350763
 20
10.898959671852054
 30
0.0
 11
2.8510383659870513
 21
12.101041718776088
 31
0.0
  0
ARC
  5
64B
100
AcDbEntity
  8
0
  6
CONTINUOUS
 62
               4
100
AcDbCircle
 10
7.0499954223632812
 20
13.90000344345134
 30
0.0
 40
0.4000000357627869
100
AcDbArc
 50
0.0
 51
89.999982013910653
  0
ARC
  5
64C
100
AcDbEntity
  8
0
  6
CONTINUOUS
 62
               4
100
AcDbCircle
 10
9.8499946594238281
 20
9.3000011546329802
 30
0.0
 40
0.4000000357627869
100
AcDbArc
 50
0.0
 51
89.999982013910653
  0
ARC
  5
64D
100
AcDbEntity
  8
0
  6
CONTINUOUS
 62
               4
100
AcDbCircle
 10
9.8499946594238281
 20
-16.899993886260575
 30
0.0
 40
0.4000000357627869
100
AcDbArc
 50
270.00001798608935
 51
0.0
  0
ARC
  5
64E
100
AcDbEntity
  8
0
  6
CONTINUOUS
 62
               4
100
AcDbCircle
 10
3.4499969482421875
 20
-16.899993886260575
 30
0.0
 40
0.4000000357627869
100
AcDbArc
 50
179.99996402782131
 51
270.00000068324533
  0
ARC
  5
64F
100
AcDbEntity
  8
0
  6
CONTINUOUS
 62
               4
100
AcDbCircle
 10
9.0499954223632812
 20
11.299999247284347
 30
0.0
 40
1.5999994277954102
100
AcDbArc
 50
179.99996402782131
 51
270.00000068324533
  0
ARC
  5
650
100
AcDbEntity
  8
0
  6
CONTINUOUS
 62
               4
100
AcDbCircle
 10
1.4499969482421875
 20
-14.29998778274495
 30
0.0
 40
1.5999994277954102
100
AcDbArc
 50
0.0
 51
89.999982013910653
  0
CIRCLE
  5
651
100
AcDbEntity
  8
0
  6
CONTINUOUS
 62
               4
100
AcDbCircle
 10
8.2499961853027344
 20
-14.4999999897762
 30
0.0
 40
1.3999996185302734
  0
CIRCLE
  5
652
100
AcDbEntity
  8
0
  6
CONTINUOUS
 62
               4
100
AcDbCircle
 10
2.25
 20
11.5000000102238
 30
0.0
 40
1.3999996185302734
  0
CIRCLE
  5
653
100
AcDbEntity
  8
0
  6
CONTINUOUS
 62
               4
100
AcDbCircle
 10
8.2499961853027344
 20
-14.4999999897762
 30
0.0
 40
1.25
  0
CIRCLE
  5
654
100
AcDbEntity
  8
0
  6
CONTINUOUS
 62
               4
100
AcDbCircle
 10
2.25
 20
11.5000000102238
 30
0.0
 40
1.25
  0
ARC
  5
655
100
AcDbEntity
  8
0
  6
CONTINUOUS
 62
               4
100
AcDbCircle
 10
5.25
 20
4.0000000102238005
 30
0.0
 40
4.9000000000000004
100
AcDbArc
 50
10.399137031557654
 51
169.60086296844239
  0
CIRCLE
  5
656
100
AcDbEntity
  8
0
  6
CONTINUOUS
 62
               4
100
AcDbCircle
 10
5.25
 20
4.0000000102238005
 30
0.0
 40
3.0500000000000003
  0
CIRCLE
  5
657
100
AcDbEntity
  8
0
  6
CONTINUOUS
 62
               4
100
AcDbCircle
 10
5.25
 20
4.0000000102238005
 30
0.0
 40
2.0500000000000003
  0
LINE
  5
658
100
AcDbEntity
  8
0
  6
CONTINUOUS
 62
               4
100
AcDbLine
 10
9.75
 20
4.7000000102238175
 30
0.0
 11
10.069513529119945
 21
4.884471232270954
 31
0.0
  0
LINE
  5
659
100
AcDbEntity
  8
0
  6
CONTINUOUS
 62
               4
100
AcDbLine
 10
9.75
 20
3.3000000102237834
 30
0.0
 11
10.069513529119945
 21
3.1155287881766469
 31
0.0
  0
ARC
  5
65A
100
AcDbEntity
  8
0
  6
CONTINUOUS
 62
               4
100
AcDbCircle
 10
5.25
 20
4.0000000102238005
 30
0.0
 40
4.9000000000000004
100
AcDbArc
 50
190.39913703155764
 51
349.60086296844236
  0
LINE
  5
65B
100
AcDbEntity
  8
0
  6
CONTINUOUS
 62
               4
100
AcDbLine
 10
9.75
 20
3.3000000102237834
 30
0.0
 11
9.75
 21
4.7000000102238175
 31
0.0
  0
LINE
  5
65C
100
AcDbEntity
  8
0
  6
CONTINUOUS
 62
               4
100
AcDbLine
 10
0.75
 20
4.7000000102238175
 30
0.0
 11
0.4304864708800551
 21
4.884471232270954
 31
0.0
  0
LINE
  5
65D
100
AcDbEntity
  8
0
  6
CONTINUOUS
 62
               4
100
AcDbLine
 10
0.75
 20
3.3000000102237834
 30
0.0
 11
0.75
 21
4.7000000102238175
 31
0.0
  0
LINE
  5
65E
100
AcDbEntity
  8
0
  6
CONTINUOUS
 62
               4
100
AcDbLine
 10
0.75
 20
3.3000000102237834
 30
0.0
 11
0.4304864708800551
 21
3.1155287881766469
 31
0.0
  0
ARC
  5
65F
100
AcDbEntity
  8
0
  6
CONTINUOUS
 62
               4
100
AcDbCircle
 10
5.25
 20
-6.9999999897761995
 30
0.0
 40
4.9000000000000004
100
AcDbArc
 50
10.399137031557654
 51
169.60086296844239
  0
CIRCLE
  5
660
100
AcDbEntity
  8
0
  6
CONTINUOUS
 62
               4
100
AcDbCircle
 10
5.25
 20
-6.9999999897761995
 30
0.0
 40
3.0500000000000003
  0
CIRCLE
  5
661
100
AcDbEntity
  8
0
  6
CONTINUOUS
 62
               4
100
AcDbCircle
 10
5.25
 20
-6.9999999897761995
 30
0.0
 40
2.0500000000000003
  0
LINE
  5
662
100
AcDbEntity
  8
0
  6
CONTINUOUS
 62
               4
100
AcDbLine
 10
0.75
 20
-6.2999999897761825
 30
0.0
 11
0.4304864708800551
 21
-6.115528767729046
 31
0.0
  0
LINE
  5
663
100
AcDbEntity
  8
0
  6
CONTINUOUS
 62
               4
100
AcDbLine
 10
0.75
 20
-7.6999999897762166
 30
0.0
 11
0.75
 21
-6.2999999897761825
 31
0.0
  0
LINE
  5
664
100
AcDbEntity
  8
0
  6
CONTINUOUS
 62
               4
100
AcDbLine
 10
0.75
 20
-7.6999999897762166
 30
0.0
 11
0.4304864708800551
 21
-7.8844712118233531
 31
0.0
  0
ARC
  5
665
100
AcDbEntity
  8
0
  6
CONTINUOUS
 62
               4
100
AcDbCircle
 10
5.25
 20
-6.9999999897761995
 30
0.0
 40
4.9000000000000004
100
AcDbArc
 50
190.39913703155764
 51
349.60086296844236
  0
LINE
  5
666
100
AcDbEntity
  8
0
  6
CONTINUOUS
 62
               4
100
AcDbLine
 10
9.75
 20
-7.6999999897762166
 30
0.0
 11
10.069513529119945
 21
-7.8844712118233531
 31
0.0
  0
LINE
  5
667
100
AcDbEntity
  8
0
  6
CONTINUOUS
 62
               4
100
AcDbLine
 10
9.75
 20
-7.6999999897762166
 30
0.0
 11
9.75
 21
-6.2999999897761825
 31
0.0
  0
LINE
  5
668
100
AcDbEntity
  8
0
  6
CONTINUOUS
 62
               4
100
AcDbLine
 10
9.75
 20
-6.2999999897761825
 30
0.0
 11
10.069513529119945
 21
-6.115528767729046
 31
0.0
  0
ARC
  5
669
100
AcDbEntity
  8
0
  6
CONTINUOUS
 62
               4
100
AcDbCircle
 10
6.3999999999999773
 20
-1.27612546212805
 30
0.0
 40
0.4
100
AcDbArc
 50
102.29604620064622
 51
180.0
  0
LINE
  5
66A
100
AcDbEntity
  8
0
  6
CONTINUOUS
 62
               4
100
AcDbLine
 10
6.0
 20
-1.7238745174243491
 30
0.0
 11
6.0
 21
-1.27612546212805
 31
0.0
  0
ARC
  5
66B
100
AcDbEntity
  8
0
  6
CONTINUOUS
 62
               4
100
AcDbCircle
 10
6.3999999999999773
 20
-1.7238745174243491
 30
0.0
 40
0.4
100
AcDbArc
 50
180.0
 51
257.70395379935377
  0
ARC
  5
66C
100
AcDbEntity
  8
0
  6
CONTINUOUS
 62
               4
100
AcDbCircle
 10
4.1000000000000227
 20
-1.7238745174243491
 30
0.0
 40
0.4
100
AcDbArc
 50
282.29604620064623
 51
0.0
  0
LINE
  5
66D
100
AcDbEntity
  8
0
  6
CONTINUOUS
 62
               4
100
AcDbLine
 10
4.5
 20
-1.7238745174243491
 30
0.0
 11
4.5
 21
-1.27612546212805
 31
0.0
  0
ARC
  5
66E
100
AcDbEntity
  8
0
  6
CONTINUOUS
 62
               4
100
AcDbCircle
 10
4.1000000000000227
 20
-1.27612546212805
 30
0.0
 40
0.4
100
AcDbArc
 50
0.0
 51
77.703953799353798
  0
CIRCLE
  5
66F
100
AcDbEntity
  8
0
  6
CONTINUOUS
 62
               7
100
AcDbCircle
 10
9.0500030517578125
 20
11.29998780319255
 30
0.0
 40
1.25
  0
LINE
  5
670
100
AcDbEntity
  8
0
  6
CONTINUOUS
 62
               7
100
AcDbLine
 10
8.448934089321483
 20
10.698942342012913
 30
0.0
 11
9.6510135401749721
 21
11.901021691538688
 31
0.0
  0
LINE
  5
671
100
AcDbEntity
  8
0
  6
CONTINUOUS
 62
               7
100
AcDbLine
 10
8.4490034798945999
 20
11.901065170229401
 30
0.0
 11
9.651082930748089
 21
10.698985820703626
 31
0.0
  0
LINE
  5
672
100
AcDbEntity
  8
0
  6
CONTINUOUS
 62
               7
100
AcDbLine
 10
2.0510208976666036
 20
-14.901040058039882
 30
0.0
 11
0.8489416494685429
 21
-13.698960505858679
 31
0.0
  0
LINE
  5
673
100
AcDbEntity
  8
0
  6
CONTINUOUS
 62
               7
100
AcDbLine
 10
2.0510358685778556
 20
-13.698960388198259
 30
0.0
 11
0.848956215068938
 21
-14.901039535068605
 31
0.0
  0
LINE
  5
674
100
AcDbEntity
  8
0
  6
CONTINUOUS
 62
             200
100
AcDbLine
 10
-0.75
 20
4.0000000102238005
 30
0.0
 11
11.779168057163133
 21
4.0000000102238005
 31
0.0
  0
LINE
  5
675
100
AcDbEntity
  8
0
  6
CONTINUOUS
 62
             200
100
AcDbLine
 10
-0.75
 20
-6.9999999897761995
 30
0.0
 11
11.779168057163133
 21
-6.9999999897761995
 31
0.0
  0
CIRCLE
  5
676
100
AcDbEntity
  8
0
  6
CONTINUOUS
 62
               7
100
AcDbCircle
 10
1.4499969482421875
 20
-14.300003041534012
 30
0.0
 40
1.25
  0
CIRCLE
  5
677
100
AcDbEntity
  8
0
  6
CONTINUOUS
 62
               4
100
AcDbCircle
 10
5.25
 20
-6.9999999897761995
 30
0.0
 40
5.0
  0
CIRCLE
  5
678
100
AcDbEntity
  8
0
  6
CONTINUOUS
 62
               4
100
AcDbCircle
 10
5.25
 20
4.0000000102238005
 30
0.0
 40
5.0
  0
ARC
  5
679
100
AcDbEntity
  8
0
  6
CONTINUOUS
 62
               4
100
AcDbCircle
 10
0.6499977111816406
 20
13.90000344345134
 30
0.0
 40
0.4000000357627869
100
AcDbArc
 50
89.999982013910653
 51
179.99996402782131
  0
ARC
  5
67A
100
AcDbEntity
  8
0
  6
CONTINUOUS
 62
               4
100
AcDbCircle
 10
0.6499977111816406
 20
-12.29998778274495
 30
0.0
 40
0.4000000357627869
100
AcDbArc
 50
179.99996402782131
 51
270.00000068324533
  0
LINE
  5
67B
100
AcDbEntity
  8
0
  6
CONTINUOUS
 62
               7
100
AcDbLine
 10
10.5
 20
21.5000000102238
 30
0.0
 11
10.25
 21
21.5000000102238
 31
0.0
  0
LINE
  5
67C
100
AcDbEntity
  8
0
  6
CONTINUOUS
 62
               7
100
AcDbLine
 10
0.0
 20
62.5000000102238
 30
0.0
 11
0.3000030517578125
 21
62.5000000102238
 31
0.0
  0
LINE
  5
67D
100
AcDbEntity
  8
0
  6
CONTINUOUS
 62
               7
100
AcDbLine
 10
10.199996948242187
 20
59.5000000102238
 30
0.0
 11
10.5
 21
59.5000000102238
 31
0.0
  0
LINE
  5
67E
100
AcDbEntity
  8
0
  6
CONTINUOUS
 62
               7
100
AcDbLine
 10
0.0
 20
59.5000000102238
 30
0.0
 11
0.3000030517578125
 21
59.5000000102238
 31
0.0
  0
LINE
  5
67F
100
AcDbEntity
  8
0
  6
CONTINUOUS
 62
               7
100
AcDbLine
 10
10.199996948242187
 20
60.5000000102238
 30
0.0
 11
10.5
 21
60.5000000102238
 31
0.0
  0
LINE
  5
680
100
AcDbEntity
  8
0
  6
CONTINUOUS
 62
               7
100
AcDbLine
 10
10.199996948242187
 20
61.0000000102238
 30
0.0
 11
10.5
 21
61.0000000102238
 31
0.0
  0
LINE
  5
681
100
AcDbEntity
  8
0
  6
CONTINUOUS
 62
               7
100
AcDbLine
 10
0.0
 20
60.5000000102238
 30
0.0
 11
0.3000030517578125
 21
60.5000000102238
 31
0.0
  0
LINE
  5
682
100
AcDbEntity
  8
0
  6
CONTINUOUS
 62
               7
100
AcDbLine
 10
0.0
 20
61.0000000102238
 30
0.0
 11
0.3000030517578125
 21
61.0000000102238
 31
0.0
  0
LINE
  5
683
100
AcDbEntity
  8
0
  6
CONTINUOUS
 62
               7
100
AcDbLine
 10
0.25
 20
-30.300003041533998
 30
0.0
 11
0.0
 21
-30.300003041533998
 31
0.0
  0
LINE
  5
684
100
AcDbEntity
  8
0
  6
CONTINUOUS
 62
               7
100
AcDbLine
 10
0.25
 20
22.0000000102238
 30
0.0
 11
10.25
 21
22.0000000102238
 31
0.0
  0
LINE
  5
685
100
AcDbEntity
  8
0
  6
CONTINUOUS
 62
               7
100
AcDbLine
 10
0.25
 20
23.999984751434738
 30
0.0
 11
10.25
 21
23.999984751434738
 31
0.0
  0
LINE
  5
686
100
AcDbEntity
  8
0
  6
CONTINUOUS
 62
               4
100
AcDbLine
 10
0.25
 20
57.5000000102238
 30
0.0
 11
10.25
 21
57.5000000102238
 31
0.0
  0
LINE
  5
687
100
AcDbEntity
  8
0
  6
CONTINUOUS
 62
               7
100
AcDbLine
 10
0.25
 20
33.5000000102238
 30
0.0
 11
10.25
 21
33.5000000102238
 31
0.0
  0
LINE
  5
688
100
AcDbEntity
  8
0
  6
CONTINUOUS
 62
               7
100
AcDbLine
 10
0.25
 20
14.5000000102238
 30
0.0
 11
10.25
 21
14.5000000102238
 31
0.0
  0
LINE
  5
689
100
AcDbEntity
  8
0
  6
CONTINUOUS
 62
               7
100
AcDbLine
 10
0.25
 20
-17.4999999897762
 30
0.0
 11
10.25
 21
-17.4999999897762
 31
0.0
  0
LINE
  5
68A
100
AcDbEntity
  8
0
  6
CONTINUOUS
 62
               7
100
AcDbLine
 10
0.0
 20
-25.499999989776185
 30
0.0
 11
10.5
 21
-25.499999989776185
 31
0.0
  0
ARC
  5
68B
100
AcDbEntity
  8
0
  6
CONTINUOUS
 62
               7
100
AcDbCircle
 10
0.649993896484375
 20
-32.099990834502748
 30
0.0
 40
0.4000000357627869
100
AcDbArc
 50
179.99996402782131
 51
269.99994604173196
  0
ARC
  5
68C
100
AcDbEntity
  8
0
  6
CONTINUOUS
 62
               7
100
AcDbCircle
 10
0.6500091552734375
 20
14.899993906708175
 30
0.0
 40
0.4000000357627869
100
AcDbArc
 50
179.99996402782131
 51
270.00000068324533
  0
LINE
  5
68D
100
AcDbEntity
  8
0
  6
CONTINUOUS
 62
               7
100
AcDbLine
 10
10.5
 20
49.5000000102238
 30
0.0
 11
10.250015258789062
 21
49.5000000102238
 31
0.0
  0
LINE
  5
68E
100
AcDbEntity
  8
0
  6
CONTINUOUS
 62
               7
100
AcDbLine
 10
0.25
 20
-23.500015248565262
 30
0.0
 11
0.5500030517578125
 21
-23.500015248565262
 31
0.0
  0
LINE
  5
68F
100
AcDbEntity
  8
0
  6
CONTINUOUS
 62
               7
100
AcDbLine
 10
0.5500030517578125
 20
-19.4999999897762
 30
0.0
 11
0.25
 21
-19.4999999897762
 31
0.0
  0
LINE
  5
690
100
AcDbEntity
  8
0
  6
CONTINUOUS
 62
               7
100
AcDbLine
 10
10.199996948242187
 20
62.5000000102238
 30
0.0
 11
10.5
 21
62.5000000102238
 31
0.0
  0
LINE
  5
691
100
AcDbEntity
  8
0
  6
CONTINUOUS
 62
               2
100
AcDbLine
 10
5.25
 20
-36.025760998381642
 30
0.0
 11
5.25
 21
67.671006792448907
 31
0.0
  0
MTEXT
  5
692
100
AcDbEntity
  8
0
  6
CONTINUOUS
 62
               7
100
AcDbMText
 10
-2.7070675627049732
 20
-44.091899739199661
 30
0.0
 40
6.3000001907348633
 41
0.0
 71
               4
 72
               1
  1
\A1;D-6
  0
ENDBLK
  5
693
100
AcDbEntity
  8
0
100
AcDbBlockEnd
  0
BLOCK
  5
694
100
AcDbEntity
  8
0
100
AcDbBlockBegin
  2
F10MS-16
 70
               0
 10
0.0
 20
0.0
 30
0.0
  3
F10MS-16
  1

  0
LINE
  5
695
100
AcDbEntity
  8
0
  6
DASHED
 62
               2
100
AcDbLine
 10
41.000000000001364
 20
-44.999999999999986
 30
0.0
 11
3.5000000000013642
 21
-44.999999999999986
 31
0.0
  0
LINE
  5
696
100
AcDbEntity
  8
0
  6
DASHED
 62
               2
100
AcDbLine
 10
47.79998474121237
 20
-49.700000000000031
 30
0.0
 11
47.999984741212302
 21
-49.90000000000002
 31
0.0
  0
LINE
  5
697
100
AcDbEntity
  8
0
  6
DASHED
 62
               2
100
AcDbLine
 10
9.4500000029815965
 20
-44.999999999999986
 30
0.0
 11
9.5500000029816192
 21
-45.100000000000009
 31
0.0
  0
LINE
  5
698
100
AcDbEntity
  8
0
  6
DASHED
 62
               2
100
AcDbLine
 10
6.5
 20
-17.049999999999955
 30
0.0
 11
6.4113270459830574
 21
-16.429289321881356
 31
0.0
  0
LINE
  5
699
100
AcDbEntity
  8
0
  6
DASHED
 62
               2
100
AcDbLine
 10
3.20001220703125
 20
-28.699996948242173
 30
0.0
 11
3.20001220703125
 21
-30.499999999999986
 31
0.0
  0
LINE
  5
69A
100
AcDbEntity
  8
0
  6
DASHED
 62
               2
100
AcDbLine
 10
3.2000045776367187
 20
-28.700004577636705
 30
0.0
 11
3.0
 21
-28.499999999999986
 31
0.0
  0
LINE
  5
69B
100
AcDbEntity
  8
0
  6
DASHED
 62
               2
100
AcDbLine
 10
3.20001220703125
 20
-30.499999999999986
 30
0.0
 11
3.5000000000013642
 21
-30.499999999999986
 31
0.0
  0
LINE
  5
69C
100
AcDbEntity
  8
0
  6
DASHED
 62
               2
100
AcDbLine
 10
6.5
 20
-17.049999999999955
 30
0.0
 11
6.5
 21
-14.5
 31
0.0
  0
LINE
  5
69D
100
AcDbEntity
  8
0
  6
DASHED
 62
               2
100
AcDbLine
 10
6.5
 20
14.5
 30
0.0
 11
6.5
 21
16.429289321881299
 31
0.0
  0
LINE
  5
69E
100
AcDbEntity
  8
0
  6
DASHED
 62
               2
100
AcDbLine
 10
0.0
 20
-14.5
 30
0.0
 11
6.5
 21
-14.5
 31
0.0
  0
LINE
  5
69F
100
AcDbEntity
  8
0
  6
DASHED
 62
               2
100
AcDbLine
 10
0.0
 20
14.5
 30
0.0
 11
6.5
 21
14.5
 31
0.0
  0
LINE
  5
6A0
100
AcDbEntity
  8
0
  6
DASHED
 62
               2
100
AcDbLine
 10
0.0
 20
-14.5
 30
0.0
 11
0.0
 21
14.5
 31
0.0
  0
ARC
  5
6A1
100
AcDbEntity
  8
0
  6
DASHED
 62
               2
100
AcDbCircle
 10
4.0
 20
59.5
 30
0.0
 40
3.0
100
AcDbArc
 50
89.999963344575988
 51
179.99994535848663
  0
LINE
  5
6A2
100
AcDbEntity
  8
0
  6
DASHED
 62
               2
100
AcDbLine
 10
1.0000000000001137
 20
-23.5
 30
0.0
 11
1.0000000000001137
 21
-21.03099977800747
 31
0.0
  0
LINE
  5
6A3
100
AcDbEntity
  8
0
  6
DASHED
 62
               2
100
AcDbLine
 10
1.0000000000001137
 20
-23.5
 30
0.0
 11
3.0
 21
-25.499999999999986
 31
0.0
  0
LINE
  5
6A4
100
AcDbEntity
  8
0
  6
DASHED
 62
               2
100
AcDbLine
 10
2.8500000000000227
 20
20.168330610420711
 30
0.0
 11
1.0
 21
21.03099977800747
 31
0.0
  0
LINE
  5
6A5
100
AcDbEntity
  8
0
  6
DASHED
 62
               2
100
AcDbLine
 10
2.8500000000000227
 20
-20.168330610420696
 30
0.0
 11
1.0
 21
-21.03099977800747
 31
0.0
  0
LINE
  5
6A6
100
AcDbEntity
  8
0
  6
DASHED
 62
               2
100
AcDbLine
 10
1.0
 20
59.500000000000057
 30
0.0
 11
1.0
 21
21.03099977800747
 31
0.0
  0
LINE
  5
6A7
100
AcDbEntity
  8
0
  6
DASHED
 62
               2
100
AcDbLine
 10
2.8500000000000227
 20
20.168330610420725
 30
0.0
 11
2.8500000000000227
 21
18.0
 31
0.0
  0
LINE
  5
6A8
100
AcDbEntity
  8
0
  6
DASHED
 62
               2
100
AcDbLine
 10
5.916352299152436
 20
16.0
 30
0.0
 11
4.8500000000000227
 21
16.0
 31
0.0
  0
ARC
  5
6A9
100
AcDbEntity
  8
0
  6
DASHED
 62
               2
100
AcDbCircle
 10
4.8500000000000227
 20
18.0
 30
0.0
 40
2.0
100
AcDbArc
 50
180.0
 51
270.0
  0
ARC
  5
6AA
100
AcDbEntity
  8
0
  6
DASHED
 62
               2
100
AcDbCircle
 10
5.916352299152436
 20
16.5
 30
0.0
 40
0.5
100
AcDbArc
 50
270.0
 51
351.86989764584399
  0
LINE
  5
6AB
100
AcDbEntity
  8
0
  6
DASHED
 62
               2
100
AcDbLine
 10
5.916352299152436
 20
-16.0
 30
0.0
 11
4.8500000000000227
 21
-16.0
 31
0.0
  0
ARC
  5
6AC
100
AcDbEntity
  8
0
  6
DASHED
 62
               2
100
AcDbCircle
 10
4.8500000000000227
 20
-18.0
 30
0.0
 40
2.0
100
AcDbArc
 50
90.0
 51
180.0
  0
LINE
  5
6AD
100
AcDbEntity
  8
0
  6
DASHED
 62
               2
100
AcDbLine
 10
2.8500000000000227
 20
-18.0
 30
0.0
 11
2.8500000000000227
 21
-20.168330610420696
 31
0.0
  0
ARC
  5
6AE
100
AcDbEntity
  8
0
  6
DASHED
 62
               2
100
AcDbCircle
 10
5.916352299152436
 20
-16.5
 30
0.0
 40
0.5
100
AcDbArc
 50
8.1301023541559339
 51
90.000000000000014
  0
LINE
  5
6AF
100
AcDbEntity
  8
0
  6
DASHED
 62
               2
100
AcDbLine
 10
3.0
 20
-28.499999999999986
 30
0.0
 11
3.0
 21
-25.499999999999986
 31
0.0
  0
LINE
  5
6B0
100
AcDbEntity
  8
0
  6
DASHED
 62
               2
100
AcDbLine
 10
4.0
 20
62.5
 30
0.0
 11
45.000000000001364
 21
62.5
 31
0.0
  0
LINE
  5
6B1
100
AcDbEntity
  8
0
  6
CONTINUOUS
 62
               4
100
AcDbLine
 10
62.000000000001364
 20
61.684999913736931
 30
0.0
 11
62.000000000001364
 21
57.499999913736957
 31
0.0
  0
LINE
  5
6B2
100
AcDbEntity
  8
0
  6
CONTINUOUS
 62
               4
100
AcDbLine
 10
59.675000000001319
 20
66.499999913736957
 30
0.0
 11
32.496919099968068
 21
66.499999913736957
 31
0.0
  0
LINE
  5
6B3
100
AcDbEntity
  8
0
  6
CONTINUOUS
 62
               4
100
AcDbLine
 10
47.250000000001364
 20
57.999999913736957
 30
0.0
 11
47.250000000001364
 21
57.499999913736957
 31
0.0
  0
LINE
  5
6B4
100
AcDbEntity
  8
0
  6
CONTINUOUS
 62
               4
100
AcDbLine
 10
49.750000000001364
 20
57.999999913736957
 30
0.0
 11
49.750000000001364
 21
57.499999913736957
 31
0.0
  0
LINE
  5
6B5
100
AcDbEntity
  8
0
  6
CONTINUOUS
 62
               4
100
AcDbLine
 10
49.750000000001364
 20
57.999999913736957
 30
0.0
 11
47.250000000001364
 21
57.999999913736957
 31
0.0
  0
LINE
  5
6B6
100
AcDbEntity
  8
0
  6
CONTINUOUS
 62
               4
100
AcDbLine
 10
60.13000000000136
 20
66.204999913736941
 30
0.0
 11
61.870000000001369
 21
62.289999913736949
 31
0.0
  0
ARC
  5
6B7
100
AcDbEntity
  8
0
  6
CONTINUOUS
 62
               4
100
AcDbCircle
 10
59.675687863875851
 20
66.00267102581455
 30
0.0
 40
0.4973293636201366
100
AcDbArc
 50
24.005903588636848
 51
90.079246697133883
  0
ARC
  5
6B8
100
AcDbEntity
  8
0
  6
CONTINUOUS
 62
               4
100
AcDbCircle
 10
60.501123948315239
 20
61.679394315853983
 30
0.0
 40
1.4988865337462252
100
AcDbArc
 50
0.2142776266259147
 51
24.039904443234679
  0
LINE
  5
6B9
100
AcDbEntity
  8
0
  6
CONTINUOUS
 62
               4
100
AcDbLine
 10
54.900000000001342
 20
59.899999913736963
 30
0.0
 11
54.900000000001342
 21
58.949999913736946
 31
0.0
  0
LINE
  5
6BA
100
AcDbEntity
  8
0
  6
CONTINUOUS
 62
               4
100
AcDbLine
 10
57.000000000001364
 20
59.899999913736963
 30
0.0
 11
54.900000000001342
 21
59.899999913736963
 31
0.0
  0
LINE
  5
6BB
100
AcDbEntity
  8
0
  6
CONTINUOUS
 62
               4
100
AcDbLine
 10
57.000000000001364
 20
59.899999913736963
 30
0.0
 11
57.000000000001364
 21
58.949999913736946
 31
0.0
  0
LINE
  5
6BC
100
AcDbEntity
  8
0
  6
CONTINUOUS
 62
               4
100
AcDbLine
 10
57.000000000001364
 20
58.949999913736946
 30
0.0
 11
54.900000000001342
 21
58.949999913736946
 31
0.0
  0
LINE
  5
6BD
100
AcDbEntity
  8
0
  6
CONTINUOUS
 62
               4
100
AcDbLine
 10
32.000000000001364
 20
65.999999913736957
 30
0.0
 11
32.000000000001364
 21
62.5
 31
0.0
  0
ARC
  5
6BE
100
AcDbEntity
  8
0
  6
CONTINUOUS
 62
               4
100
AcDbCircle
 10
32.495378649949771
 20
66.001540363755225
 30
0.0
 40
0.4984619302958243
100
AcDbArc
 50
89.822932465398097
 51
180.17706753460234
  0
LINE
  5
6BF
100
AcDbEntity
  8
0
  6
CONTINUOUS
 62
               4
100
AcDbLine
 10
62.000000000001364
 20
57.499999913736957
 30
0.0
 11
45.000000000001364
 21
57.499999913736957
 31
0.0
  0
LINE
  5
6C0
100
AcDbEntity
  8
0
  6
CONTINUOUS
 62
               4
100
AcDbLine
 10
62.000000000001364
 20
57.499999913736957
 30
0.0
 11
62.000000000001364
 21
49.699996948242188
 31
0.0
  0
LINE
  5
6C1
100
AcDbEntity
  8
0
  6
CONTINUOUS
 62
               2
100
AcDbLine
 10
-3.8345750139460506
 20
0.0
 30
0.0
 11
6.2387483458034581
 21
0.0
 31
0.0
  0
ARC
  5
6C2
100
AcDbEntity
  8
0
  6
DASHED
 62
               2
100
AcDbCircle
 10
73.800003051759177
 20
-44.499999999999986
 30
0.0
 40
0.5
100
AcDbArc
 50
270.00001798608935
 51
359.99998201391094
  0
ARC
  5
6C3
100
AcDbEntity
  8
0
  6
DASHED
 62
               2
100
AcDbCircle
 10
73.800003051759177
 20
44.5
 30
0.0
 40
0.5
100
AcDbArc
 50
359.99998201391094
 51
90.000036655424012
  0
LINE
  5
6C4
100
AcDbEntity
  8
0
  6
DASHED
 62
               2
100
AcDbLine
 10
74.300003051759177
 20
44.5
 30
0.0
 11
74.300003051759177
 21
-44.499999999999986
 31
0.0
  0
LINE
  5
6C5
100
AcDbEntity
  8
0
  6
DASHED
 62
               2
100
AcDbLine
 10
73.800003051759177
 20
-44.999999999999986
 30
0.0
 11
66.000000000001364
 21
-44.999999999999986
 31
0.0
  0
LINE
  5
6C6
100
AcDbEntity
  8
0
  6
DASHED
 62
               2
100
AcDbLine
 10
73.800003051759177
 20
45.0
 30
0.0
 11
66.000000000001364
 21
45.0
 31
0.0
  0
ARC
  5
6C7
100
AcDbEntity
  8
0
  6
DASHED
 62
               2
100
AcDbCircle
 10
10.500000000001364
 20
-31.999999999999986
 30
0.0
 40
3.0
100
AcDbArc
 50
150.00002466469778
 51
210.00001267397155
  0
LINE
  5
6C8
100
AcDbEntity
  8
0
  6
DASHED
 62
               2
100
AcDbLine
 10
3.5000000000013642
 20
-33.499999999999986
 30
0.0
 11
3.5000000000013642
 21
-44.999999999999986
 31
0.0
  0
LINE
  5
6C9
100
AcDbEntity
  8
0
  6
DASHED
 62
               2
100
AcDbLine
 10
3.5000000000013642
 20
-33.499999999999986
 30
0.0
 11
7.9019165039076142
 21
-33.499999999999986
 31
0.0
  0
LINE
  5
6CA
100
AcDbEntity
  8
0
  6
DASHED
 62
               2
100
AcDbLine
 10
3.5000000000013642
 20
-30.499999999999986
 30
0.0
 11
7.9019165039076142
 21
-30.499999999999986
 31
0.0
  0
LINE
  5
6CB
100
AcDbEntity
  8
0
  6
DASHED
 62
               2
100
AcDbLine
 10
45.000000000001364
 20
62.5
 30
0.0
 11
45.000000000001364
 21
49.699996948242188
 31
0.0
  0
LINE
  5
6CC
100
AcDbEntity
  8
0
  6
DASHED
 62
               2
100
AcDbLine
 10
42.500000000001364
 20
-48.499999999999986
 30
0.0
 11
43.000000000001364
 21
-48.499999999999986
 31
0.0
  0
LINE
  5
6CD
100
AcDbEntity
  8
0
  6
DASHED
 62
               2
100
AcDbLine
 10
41.000000000001364
 20
-46.999999999999986
 30
0.0
 11
41.000000000001364
 21
-44.999999999999986
 31
0.0
  0
LINE
  5
6CE
100
AcDbEntity
  8
0
  6
DASHED
 62
               2
100
AcDbLine
 10
66.000000000001364
 20
-46.999999999999986
 30
0.0
 11
66.000000000001364
 21
-44.999999999999986
 31
0.0
  0
LINE
  5
6CF
100
AcDbEntity
  8
0
  6
DASHED
 62
               2
100
AcDbLine
 10
44.199996948243552
 20
-49.699996948242173
 30
0.0
 11
62.800003051759177
 21
-49.699996948242173
 31
0.0
  0
ARC
  5
6D0
100
AcDbEntity
  8
0
  6
DASHED
 62
               2
100
AcDbCircle
 10
42.500000000001364
 20
-46.999999999999986
 30
0.0
 40
1.5
100
AcDbArc
 50
179.99998201391065
 51
270.00001866933468
  0
ARC
  5
6D1
100
AcDbEntity
  8
0
  6
DASHED
 62
               2
100
AcDbCircle
 10
64.500000000001364
 20
-46.999999999999986
 30
0.0
 40
1.5
100
AcDbArc
 50
270.00001866933468
 51
0.0000006832453318
  0
ARC
  5
6D2
100
AcDbEntity
  8
0
  6
DASHED
 62
               2
100
AcDbCircle
 10
44.199996948243552
 20
-48.499999999999986
 30
0.0
 40
1.1999998092651367
100
AcDbArc
 50
179.99998201391065
 51
270.00001866933468
  0
ARC
  5
6D3
100
AcDbEntity
  8
0
  6
DASHED
 62
               2
100
AcDbCircle
 10
62.800003051759177
 20
-48.499999999999986
 30
0.0
 40
1.1999998092651367
100
AcDbArc
 50
270.00001866933468
 51
0.0000006832453318
  0
LINE
  5
6D4
100
AcDbEntity
  8
0
  6
DASHED
 62
               2
100
AcDbLine
 10
64.000000000001364
 20
-48.499999999999986
 30
0.0
 11
64.500000000001364
 21
-48.499999999999986
 31
0.0
  0
LINE
  5
6D5
100
AcDbEntity
  8
0
  6
DASHED
 62
               2
100
AcDbLine
 10
66.000000000001364
 20
47.0
 30
0.0
 11
66.000000000001364
 21
45.0
 31
0.0
  0
LINE
  5
6D6
100
AcDbEntity
  8
0
  6
DASHED
 62
               2
100
AcDbLine
 10
45.000000000001364
 20
49.699996948242188
 30
0.0
 11
62.800003051759177
 21
49.699996948242188
 31
0.0
  0
ARC
  5
6D7
100
AcDbEntity
  8
0
  6
DASHED
 62
               2
100
AcDbCircle
 10
64.500000000001364
 20
47.0
 30
0.0
 40
1.5
100
AcDbArc
 50
359.99999931675467
 51
89.999981330665321
  0
ARC
  5
6D8
100
AcDbEntity
  8
0
  6
DASHED
 62
               2
100
AcDbCircle
 10
62.800003051759177
 20
48.5
 30
0.0
 40
1.1999998092651367
100
AcDbArc
 50
359.99999931675467
 51
89.999981330665321
  0
LINE
  5
6D9
100
AcDbEntity
  8
0
  6
DASHED
 62
               2
100
AcDbLine
 10
64.000000000001364
 20
48.5
 30
0.0
 11
64.500000000001364
 21
48.5
 31
0.0
  0
LINE
  5
6DA
100
AcDbEntity
  8
0
  6
CONTINUOUS
 62
             200
100
AcDbLine
 10
74.296279296875014
 20
3.9935402964542419
 30
0.0
 11
76.096279296875025
 21
3.9935402964542419
 31
0.0
  0
LINE
  5
6DB
100
AcDbEntity
  8
0
  6
CONTINUOUS
 62
               4
100
AcDbLine
 10
75.496279296875002
 20
-0.9064597035457638
 30
0.0
 11
75.496279296875002
 21
8.8935402964542476
 31
0.0
  0
LINE
  5
6DC
100
AcDbEntity
  8
0
  6
CONTINUOUS
 62
               4
100
AcDbLine
 10
74.296279296875014
 20
-0.9064597035457638
 30
0.0
 11
75.496279296875002
 21
-0.9064597035457638
 31
0.0
  0
LINE
  5
6DD
100
AcDbEntity
  8
0
  6
CONTINUOUS
 62
               4
100
AcDbLine
 10
74.296279296875014
 20
8.8935402964542476
 30
0.0
 11
75.496279296875002
 21
8.8935402964542476
 31
0.0
  0
LINE
  5
6DE
100
AcDbEntity
  8
0
  6
CONTINUOUS
 62
             200
100
AcDbLine
 10
74.296279296875014
 20
-7.0064597035457581
 30
0.0
 11
76.096279296875025
 21
-7.0064597035457581
 31
0.0
  0
LINE
  5
6DF
100
AcDbEntity
  8
0
  6
CONTINUOUS
 62
               4
100
AcDbLine
 10
75.496279296875002
 20
-11.906459703545764
 30
0.0
 11
75.496279296875002
 21
-2.1064597035457524
 31
0.0
  0
LINE
  5
6E0
100
AcDbEntity
  8
0
  6
CONTINUOUS
 62
               4
100
AcDbLine
 10
74.296279296875014
 20
-11.906459703545764
 30
0.0
 11
75.496279296875002
 21
-11.906459703545764
 31
0.0
  0
LINE
  5
6E1
100
AcDbEntity
  8
0
  6
CONTINUOUS
 62
               4
100
AcDbLine
 10
74.296279296875014
 20
-2.1064597035457524
 30
0.0
 11
75.496279296875002
 21
-2.1064597035457524
 31
0.0
  0
ENDBLK
  5
6E2
100
AcDbEntity
  8
0
100
AcDbBlockEnd
  0
BLOCK
  5
6E3
100
AcDbEntity
  8
0
100
AcDbBlockBegin
  2
F10MS-17
 70
               0
 10
0.0
 20
0.0
 30
0.0
  3
F10MS-17
  1

  0
LINE
  5
6E4
100
AcDbEntity
  8
0
  6
CONTINUOUS
 62
               2
100
AcDbLine
 10
5.249969482421875
 20
-34.968184230729605
 30
0.0
 11
5.249969482421875
 21
67.349331719493364
 31
0.0
  0
ARC
  5
6E5
100
AcDbEntity
  8
0
  6
CONTINUOUS
 62
               7
100
AcDbCircle
 10
0.649993896484375
 20
-32.099990982148398
 30
0.0
 40
0.4000000357627869
100
AcDbArc
 50
179.99996402782131
 51
269.99994604173196
  0
ARC
  5
6E6
100
AcDbEntity
  8
0
  6
CONTINUOUS
 62
               7
100
AcDbCircle
 10
9.8499755859375
 20
-32.099990982148398
 30
0.0
 40
0.4000000357627869
100
AcDbArc
 50
270.00001798608935
 51
0.00001366037834
  0
LINE
  5
6E7
100
AcDbEntity
  8
0
  6
CONTINUOUS
 62
               7
100
AcDbLine
 10
0.649993896484375
 20
-32.500000137421836
 30
0.0
 11
9.8499755859375
 21
-32.500000137421836
 31
0.0
  0
LINE
  5
6E8
100
AcDbEntity
  8
0
  6
CONTINUOUS
 62
               7
100
AcDbLine
 10
7.749969482421875
 20
30.19999681082038
 30
0.0
 11
8.749969482421875
 21
30.19999681082038
 31
0.0
  0
LINE
  5
6E9
100
AcDbEntity
  8
0
  6
CONTINUOUS
 62
               7
100
AcDbLine
 10
5.2499641671073505
 20
27.199983855970459
 30
0.0
 11
6.2499634565119777
 21
26.932034913404209
 31
0.0
  0
ARC
  5
6EA
100
AcDbEntity
  8
0
  6
CONTINUOUS
 62
               7
100
AcDbCircle
 10
5.3499698638916016
 20
30.19999681082038
 30
0.0
 40
3.0
100
AcDbArc
 50
268.08980532053351
 51
0.0
  0
ARC
  5
6EB
100
AcDbEntity
  8
0
  6
CONTINUOUS
 62
               7
100
AcDbCircle
 10
5.249969482421875
 20
30.19999681082038
 30
0.0
 40
3.0
100
AcDbArc
 50
266.17746163595666
 51
3.822566595416411
  0
ARC
  5
6EC
100
AcDbEntity
  8
0
  6
CONTINUOUS
 62
               7
100
AcDbCircle
 10
5.1499691009521484
 20
30.19999681082038
 30
0.0
 40
3.0
100
AcDbArc
 50
271.91023065164512
 51
0.0
  0
LINE
  5
6ED
100
AcDbEntity
  8
0
  6
CONTINUOUS
 62
               7
100
AcDbLine
 10
2.7499656677246094
 20
30.19999681082038
 30
0.0
 11
7.7499656677246094
 21
30.19999681082038
 31
0.0
  0
LINE
  5
6EE
100
AcDbEntity
  8
0
  6
CONTINUOUS
 62
               7
100
AcDbLine
 10
3.3231773376464844
 20
29.899993759062568
 30
0.0
 11
7.1767539978027344
 21
29.899993759062568
 31
0.0
  0
LINE
  5
6EF
100
AcDbEntity
  8
0
  6
CONTINUOUS
 62
               7
100
AcDbLine
 10
3.3231773376464844
 20
30.49998460378913
 30
0.0
 11
7.1767539978027344
 21
30.49998460378913
 31
0.0
  0
CIRCLE
  5
6F0
100
AcDbEntity
  8
0
  6
CONTINUOUS
 62
               7
100
AcDbCircle
 10
5.249969482421875
 20
30.19999681082038
 30
0.0
 40
2.0
  0
CIRCLE
  5
6F1
100
AcDbEntity
  8
0
  6
CONTINUOUS
 62
               7
100
AcDbCircle
 10
5.249969482421875
 20
30.19999681082038
 30
0.0
 40
1.9499998092651367
  0
LINE
  5
6F2
100
AcDbEntity
  8
0
  6
CONTINUOUS
 62
               7
100
AcDbLine
 10
10.199981689453125
 20
61.499999862578193
 30
0.0
 11
10.5
 21
61.499999862578193
 31
0.0
  0
LINE
  5
6F3
100
AcDbEntity
  8
0
  6
CONTINUOUS
 62
               7
100
AcDbLine
 10
0.0
 20
61.499999862578193
 30
0.0
 11
0.299957275390625
 21
61.499999862578193
 31
0.0
  0
LINE
  5
6F4
100
AcDbEntity
  8
0
  6
CONTINUOUS
 62
               7
100
AcDbLine
 10
0.299957275390625
 20
62.499999862578193
 30
0.0
 11
0.0
 21
62.499999862578193
 31
0.0
  0
CIRCLE
  5
6F5
100
AcDbEntity
  8
0
  6
CONTINUOUS
 62
               4
100
AcDbCircle
 10
5.249969482421875
 20
4.4000090178516302
 30
0.0
 40
2.0999994277954102
  0
CIRCLE
  5
6F6
100
AcDbEntity
  8
0
  6
CONTINUOUS
 62
               4
100
AcDbCircle
 10
5.249969482421875
 20
-7.3999940339061823
 30
0.0
 40
2.0999994277954102
  0
CIRCLE
  5
6F7
100
AcDbEntity
  8
0
  6
CONTINUOUS
 62
               4
100
AcDbCircle
 10
5.249969482421875
 20
-7.3999940339061823
 30
0.0
 40
2.5
  0
CIRCLE
  5
6F8
100
AcDbEntity
  8
0
  6
CONTINUOUS
 62
               4
100
AcDbCircle
 10
5.249969482421875
 20
4.4000090178516302
 30
0.0
 40
2.5
  0
CIRCLE
  5
6F9
100
AcDbEntity
  8
0
  6
CONTINUOUS
 62
               4
100
AcDbCircle
 10
2.249969482421875
 20
11.499999862578193
 30
0.0
 40
1.25
  0
CIRCLE
  5
6FA
100
AcDbEntity
  8
0
  6
CONTINUOUS
 62
               4
100
AcDbCircle
 10
8.249969482421875
 20
-14.500000137421836
 30
0.0
 40
1.25
  0
ARC
  5
6FB
100
AcDbEntity
  8
0
  6
CONTINUOUS
 62
               4
100
AcDbCircle
 10
1.4499664306640625
 20
-14.299987930390586
 30
0.0
 40
1.5999994277954102
100
AcDbArc
 50
0.0
 51
89.999982013910653
  0
ARC
  5
6FC
100
AcDbEntity
  8
0
  6
CONTINUOUS
 62
               4
100
AcDbCircle
 10
9.049957275390625
 20
11.299987655546943
 30
0.0
 40
1.5999994277954102
100
AcDbArc
 50
179.99996402782131
 51
270.00000068324533
  0
CIRCLE
  5
6FD
100
AcDbEntity
  8
0
  6
CONTINUOUS
 62
               7
100
AcDbCircle
 10
1.4499969482421875
 20
-14.299987930390586
 30
0.0
 40
1.25
  0
CIRCLE
  5
6FE
100
AcDbEntity
  8
0
  6
CONTINUOUS
 62
               7
100
AcDbCircle
 10
9.0499725341796875
 20
11.300002914336005
 30
0.0
 40
1.25
  0
ARC
  5
6FF
100
AcDbEntity
  8
0
  6
CONTINUOUS
 62
               4
100
AcDbCircle
 10
0.799957275390625
 20
66.000015121367255
 30
0.0
 40
0.5
100
AcDbArc
 50
89.999982013910653
 51
179.99996402782131
  0
ARC
  5
700
100
AcDbEntity
  8
0
  6
CONTINUOUS
 62
               4
100
AcDbCircle
 10
9.699981689453125
 20
65.999999862578193
 30
0.0
 40
0.5
100
AcDbArc
 50
359.99995901886496
 51
89.999982013910653
  0
LINE
  5
701
100
AcDbEntity
  8
0
  6
CONTINUOUS
 62
               7
100
AcDbLine
 10
0.249969482421875
 20
14.300004821684638
 30
0.0
 11
0.249969482421875
 21
33.49998460378913
 31
0.0
  0
LINE
  5
702
100
AcDbEntity
  8
0
  6
CONTINUOUS
 62
               4
100
AcDbLine
 10
1.6489423378272363
 20
10.898843562083925
 30
0.0
 11
2.851032578274669
 21
12.100933701202734
 31
0.0
  0
LINE
  5
703
100
AcDbEntity
  8
0
  6
CONTINUOUS
 62
               4
100
AcDbLine
 10
1.6490418465401717
 20
12.101100455216169
 30
0.0
 11
2.8511320869876045
 21
10.89901031609736
 31
0.0
  0
LINE
  5
704
100
AcDbEntity
  8
0
  6
CONTINUOUS
 62
             200
100
AcDbLine
 10
2.249969482421875
 20
4.4000090178516302
 30
0.0
 11
8.249969482421875
 21
4.4000090178516302
 31
0.0
  0
LINE
  5
705
100
AcDbEntity
  8
0
  6
CONTINUOUS
 62
             200
100
AcDbLine
 10
2.249969482421875
 20
-7.3999940339061823
 30
0.0
 11
8.249969482421875
 21
-7.3999940339061823
 31
0.0
  0
LINE
  5
706
100
AcDbEntity
  8
0
  6
CONTINUOUS
 62
               4
100
AcDbLine
 10
7.6490239394925084
 20
-13.898910455960419
 30
0.0
 11
8.8510926007520538
 21
-15.100979015893159
 31
0.0
  0
LINE
  5
707
100
AcDbEntity
  8
0
  6
CONTINUOUS
 62
               4
100
AcDbLine
 10
7.6489148212995133
 20
-15.101109186438322
 30
0.0
 11
8.851005061746946
 21
-13.899019047319513
 31
0.0
  0
LINE
  5
708
100
AcDbEntity
  8
0
  6
CONTINUOUS
 62
               4
100
AcDbLine
 10
9.049957275390625
 20
9.6999968108203802
 30
0.0
 11
10.249969482421875
 21
9.6999968108203802
 31
0.0
  0
LINE
  5
709
100
AcDbEntity
  8
0
  6
CONTINUOUS
 62
               4
100
AcDbLine
 10
1.4499664306640625
 20
-12.699997085663995
 30
0.0
 11
0.249969482421875
 21
-12.699997085663995
 31
0.0
  0
LINE
  5
70A
100
AcDbEntity
  8
0
  6
CONTINUOUS
 62
               4
100
AcDbLine
 10
3.0499725341796875
 20
-14.300002235505332
 30
0.0
 11
3.0499725341796875
 21
-17.299987930390586
 31
0.0
  0
LINE
  5
70B
100
AcDbEntity
  8
0
  6
CONTINUOUS
 62
               4
100
AcDbLine
 10
7.4499664306640625
 20
11.299987655546943
 30
0.0
 11
7.4499664306640625
 21
14.300004821684638
 31
0.0
  0
LINE
  5
70C
100
AcDbEntity
  8
0
  6
CONTINUOUS
 62
               4
100
AcDbLine
 10
0.249969482421875
 20
14.300004821684638
 30
0.0
 11
7.4499664306640625
 21
14.300004821684638
 31
0.0
  0
LINE
  5
70D
100
AcDbEntity
  8
0
  6
CONTINUOUS
 62
               4
100
AcDbLine
 10
3.0499725341796875
 20
-17.299987930390586
 30
0.0
 11
10.249969482421875
 21
-17.299987930390586
 31
0.0
  0
LINE
  5
70E
100
AcDbEntity
  8
0
  6
CONTINUOUS
 62
               4
100
AcDbLine
 10
0.249969482421875
 20
-12.699997085663995
 30
0.0
 11
0.249969482421875
 21
14.300004821684638
 31
0.0
  0
LINE
  5
70F
100
AcDbEntity
  8
0
  6
CONTINUOUS
 62
               4
100
AcDbLine
 10
10.249969482421875
 20
-17.299987930390586
 30
0.0
 11
10.249969482421875
 21
9.6999968108203802
 31
0.0
  0
LINE
  5
710
100
AcDbEntity
  8
0
  6
CONTINUOUS
 62
               7
100
AcDbLine
 10
8.4490428866193952
 20
11.901137205685359
 30
0.0
 11
9.6511331270668279
 21
10.69904706656655
 31
0.0
  0
LINE
  5
711
100
AcDbEntity
  8
0
  6
CONTINUOUS
 62
               7
100
AcDbLine
 10
8.4489440354039971
 20
10.698965381754192
 30
0.0
 11
9.6510126966635426
 21
11.901033941686933
 31
0.0
  0
LINE
  5
712
100
AcDbEntity
  8
0
  6
CONTINUOUS
 62
               7
100
AcDbLine
 10
0.8490006458767425
 20
-13.698947880780139
 30
0.0
 11
2.051069307136288
 21
-14.90101644071288
 31
0.0
  0
LINE
  5
713
100
AcDbEntity
  8
0
  6
CONTINUOUS
 62
               7
100
AcDbLine
 10
0.8490318092570419
 20
-14.901090741398235
 30
0.0
 11
2.0511220497044746
 21
-13.699000602279426
 31
0.0
  0
LINE
  5
714
100
AcDbEntity
  8
0
  6
CONTINUOUS
 62
               7
100
AcDbLine
 10
10.249969482421875
 20
-25.500015396210898
 30
0.0
 11
10.5
 21
-25.500015396210898
 31
0.0
  0
LINE
  5
715
100
AcDbEntity
  8
0
  6
CONTINUOUS
 62
               7
100
AcDbLine
 10
0.249969482421875
 20
-25.500015396210898
 30
0.0
 11
10.249969482421875
 21
-25.500015396210898
 31
0.0
  0
LINE
  5
716
100
AcDbEntity
  8
0
  6
CONTINUOUS
 62
               7
100
AcDbLine
 10
0.0
 20
49.499999862578193
 30
0.0
 11
0.25
 21
49.499999862578193
 31
0.0
  0
LINE
  5
717
100
AcDbEntity
  8
0
  6
CONTINUOUS
 62
               7
100
AcDbLine
 10
0.0
 20
60.999999862578193
 30
0.0
 11
0.25
 21
60.999999862578193
 31
0.0
  0
LINE
  5
718
100
AcDbEntity
  8
0
  6
CONTINUOUS
 62
               7
100
AcDbLine
 10
10.48162841796875
 20
62.499999862578193
 30
0.0
 11
10.199981689453125
 21
62.499999862578193
 31
0.0
  0
LINE
  5
719
100
AcDbEntity
  8
0
  6
CONTINUOUS
 62
               4
100
AcDbLine
 10
10.249969482421875
 20
33.49998460378913
 30
0.0
 11
10.249969482421875
 21
57.499999862578193
 31
0.0
  0
LINE
  5
71A
100
AcDbEntity
  8
0
  6
CONTINUOUS
 62
               4
100
AcDbLine
 10
0.249969482421875
 20
33.49998460378913
 30
0.0
 11
0.249969482421875
 21
57.499999862578193
 31
0.0
  0
LINE
  5
71B
100
AcDbEntity
  8
0
  6
CONTINUOUS
 62
               7
100
AcDbLine
 10
10.249969482421875
 20
11.649978500273505
 30
0.0
 11
10.249969482421875
 21
33.49998460378913
 31
0.0
  0
LINE
  5
71C
100
AcDbEntity
  8
0
  6
CONTINUOUS
 62
               7
100
AcDbLine
 10
0.249969482421875
 20
-13.949981826874961
 30
0.0
 11
0.249969482421875
 21
-12.699997085663995
 31
0.0
  0
LINE
  5
71D
100
AcDbEntity
  8
0
  6
CONTINUOUS
 62
               7
100
AcDbLine
 10
0.249969482421875
 20
-17.499984878632773
 30
0.0
 11
10.249969482421875
 21
-17.499984878632773
 31
0.0
  0
LINE
  5
71E
100
AcDbEntity
  8
0
  6
CONTINUOUS
 62
               7
100
AcDbLine
 10
0.249969482421875
 20
14.500001769926826
 30
0.0
 11
10.249969482421875
 21
14.500001769926826
 31
0.0
  0
LINE
  5
71F
100
AcDbEntity
  8
0
  6
CONTINUOUS
 62
               7
100
AcDbLine
 10
0.549957275390625
 20
-25.500000137421836
 30
0.0
 11
0.549957275390625
 21
-17.500000137421836
 31
0.0
  0
LINE
  5
720
100
AcDbEntity
  8
0
  6
CONTINUOUS
 62
               7
100
AcDbLine
 10
9.949981689453125
 20
-25.500000137421836
 30
0.0
 11
9.949981689453125
 21
-17.500000137421836
 31
0.0
  0
LINE
  5
721
100
AcDbEntity
  8
0
  6
CONTINUOUS
 62
               7
100
AcDbLine
 10
0.949981689453125
 20
-25.099990982148398
 30
0.0
 11
9.549957275390625
 21
-25.099990982148398
 31
0.0
  0
LINE
  5
722
100
AcDbEntity
  8
0
  6
CONTINUOUS
 62
               7
100
AcDbLine
 10
0.949981689453125
 20
-25.099990982148398
 30
0.0
 11
0.949981689453125
 21
-17.899994033906211
 31
0.0
  0
LINE
  5
723
100
AcDbEntity
  8
0
  6
CONTINUOUS
 62
               7
100
AcDbLine
 10
0.949981689453125
 20
-17.899994033906211
 30
0.0
 11
9.549957275390625
 21
-17.899994033906211
 31
0.0
  0
LINE
  5
724
100
AcDbEntity
  8
0
  6
CONTINUOUS
 62
               7
100
AcDbLine
 10
9.549957275390625
 20
-25.099990982148398
 30
0.0
 11
9.549957275390625
 21
-17.899994033906211
 31
0.0
  0
LINE
  5
725
100
AcDbEntity
  8
0
  6
CONTINUOUS
 62
               7
100
AcDbLine
 10
9.5499967607647704
 20
-17.900080519958379
 30
0.0
 11
9.949988587442931
 21
-17.500088760713794
 31
0.0
  0
LINE
  5
726
100
AcDbEntity
  8
0
  6
CONTINUOUS
 62
               7
100
AcDbLine
 10
9.5500487531257932
 20
-25.099966510745759
 30
0.0
 11
9.9500620915546278
 21
-25.499979916611807
 31
0.0
  0
LINE
  5
727
100
AcDbEntity
  8
0
  6
CONTINUOUS
 62
               7
100
AcDbLine
 10
0.9500323404754454
 20
-25.100029174677644
 30
0.0
 11
0.5500405137972848
 21
-25.500020933922229
 31
0.0
  0
LINE
  5
728
100
AcDbEntity
  8
0
  6
CONTINUOUS
 62
               7
100
AcDbLine
 10
0.9500498061363487
 20
-17.899944250774553
 30
0.0
 11
0.5500580468917633
 21
-17.499952424096392
 31
0.0
  0
LINE
  5
729
100
AcDbEntity
  8
0
  6
CONTINUOUS
 62
               7
100
AcDbLine
 10
10.249969482421875
 20
9.6999968108203802
 30
0.0
 11
10.249969482421875
 21
10.950012069609443
 31
0.0
  0
LINE
  5
72A
100
AcDbEntity
  8
0
  6
CONTINUOUS
 62
               4
100
AcDbLine
 10
10.199981689453125
 20
57.499999862578193
 30
0.0
 11
10.199981689453125
 21
66.000015121367255
 31
0.0
  0
LINE
  5
72B
100
AcDbEntity
  8
0
  6
CONTINUOUS
 62
               4
100
AcDbLine
 10
10.199981689453125
 20
61.999999862578193
 30
0.0
 11
0.299957275390625
 21
61.999999862578193
 31
0.0
  0
LINE
  5
72C
100
AcDbEntity
  8
0
  6
CONTINUOUS
 62
               4
100
AcDbLine
 10
9.699981689453125
 20
66.499999862578193
 30
0.0
 11
0.749969482421875
 21
66.499999862578193
 31
0.0
  0
LINE
  5
72D
100
AcDbEntity
  8
0
  6
CONTINUOUS
 62
               4
100
AcDbLine
 10
0.299957275390625
 20
57.500015121367255
 30
0.0
 11
0.299957275390625
 21
66.000015121367255
 31
0.0
  0
LINE
  5
72E
100
AcDbEntity
  8
0
  6
CONTINUOUS
 62
               7
100
AcDbLine
 10
0.249969482421875
 20
33.499999862578193
 30
0.0
 11
10.249969482421875
 21
33.499999862578193
 31
0.0
  0
LINE
  5
72F
100
AcDbEntity
  8
0
  6
CONTINUOUS
 62
               4
100
AcDbLine
 10
0.249969482421875
 20
57.499999862578193
 30
0.0
 11
10.249969482421875
 21
57.499999862578193
 31
0.0
  0
LINE
  5
730
100
AcDbEntity
  8
0
  6
CONTINUOUS
 62
               7
100
AcDbLine
 10
0.249969482421875
 20
21.999999862578193
 30
0.0
 11
10.249969482421875
 21
21.999999862578193
 31
0.0
  0
LINE
  5
731
100
AcDbEntity
  8
0
  6
CONTINUOUS
 62
               7
100
AcDbLine
 10
0.54998779296875
 20
-19.500000137421836
 30
0.0
 11
0.249969482421875
 21
-19.500000137421836
 31
0.0
  0
LINE
  5
732
100
AcDbEntity
  8
0
  6
CONTINUOUS
 62
               7
100
AcDbLine
 10
9.949981689453125
 20
-23.500015396210898
 30
0.0
 11
10.249969482421875
 21
-23.500015396210898
 31
0.0
  0
LINE
  5
733
100
AcDbEntity
  8
0
  6
CONTINUOUS
 62
               7
100
AcDbLine
 10
10.249969482421875
 20
-19.500000137421836
 30
0.0
 11
9.949981689453125
 21
-19.500000137421836
 31
0.0
  0
LINE
  5
734
100
AcDbEntity
  8
0
  6
CONTINUOUS
 62
               7
100
AcDbLine
 10
10.25
 20
-30.300003189179648
 30
0.0
 11
10.5
 21
-30.300003189179648
 31
0.0
  0
LINE
  5
735
100
AcDbEntity
  8
0
  6
CONTINUOUS
 62
               7
100
AcDbLine
 10
0.0
 20
-30.300003189179648
 30
0.0
 11
0.25
 21
-30.300003189179648
 31
0.0
  0
LINE
  5
736
100
AcDbEntity
  8
0
  6
CONTINUOUS
 62
               7
100
AcDbLine
 10
10.25
 20
60.999999862578193
 30
0.0
 11
10.5
 21
60.999999862578193
 31
0.0
  0
LINE
  5
737
100
AcDbEntity
  8
0
  6
CONTINUOUS
 62
               7
100
AcDbLine
 10
10.25
 20
49.499999862578193
 30
0.0
 11
10.5
 21
49.499999862578193
 31
0.0
  0
LINE
  5
738
100
AcDbEntity
  8
0
  6
CONTINUOUS
 62
               7
100
AcDbLine
 10
10.5
 20
-30.300003189179648
 30
0.0
 11
10.5
 21
62.499999862578193
 31
0.0
  0
LINE
  5
739
100
AcDbEntity
  8
0
  6
CONTINUOUS
 62
               7
100
AcDbLine
 10
0.0
 20
21.499999862578193
 30
0.0
 11
0.25
 21
21.499999862578193
 31
0.0
  0
LINE
  5
73A
100
AcDbEntity
  8
0
  6
CONTINUOUS
 62
               7
100
AcDbLine
 10
10.25
 20
21.499999862578193
 30
0.0
 11
10.5
 21
21.499999862578193
 31
0.0
  0
LINE
  5
73B
100
AcDbEntity
  8
0
  6
CONTINUOUS
 62
               7
100
AcDbLine
 10
0.0
 20
-25.500000137421836
 30
0.0
 11
0.25
 21
-25.500000137421836
 31
0.0
  0
LINE
  5
73C
100
AcDbEntity
  8
0
  6
CONTINUOUS
 62
               7
100
AcDbLine
 10
0.0
 20
-30.300003189179648
 30
0.0
 11
0.0
 21
62.499999862578193
 31
0.0
  0
LINE
  5
73D
100
AcDbEntity
  8
0
  6
CONTINUOUS
 62
               7
100
AcDbLine
 10
-0.25
 20
21.499999862578193
 30
0.0
 11
0.0
 21
21.499999862578193
 31
0.0
  0
LINE
  5
73E
100
AcDbEntity
  8
0
  6
CONTINUOUS
 62
               7
100
AcDbLine
 10
0.249969482421875
 20
-32.099990982148398
 30
0.0
 11
0.249969482421875
 21
-14.650009292695273
 31
0.0
  0
LINE
  5
73F
100
AcDbEntity
  8
0
  6
CONTINUOUS
 62
               7
100
AcDbLine
 10
10.249969482421875
 20
-17.299987930390586
 30
0.0
 11
10.249969482421875
 21
-32.099990982148398
 31
0.0
  0
ENDBLK
  5
740
100
AcDbEntity
  8
0
100
AcDbBlockEnd
  0
ENDSEC
  0
SECTION
  2
ENTITIES
  0
INSERT
  5
741
100
AcDbEntity
  8
0
  6
ByBlock
100
AcDbBlockReference
  2
F10MS-1
 10
-192.673583984375
 20
156.31158447265625
 30
0.0
  0
INSERT
  5
742
100
AcDbEntity
  8
0
  6
ByBlock
100
AcDbBlockReference
  2
F10MS-11
 10
-345.923583984375
 20
156.31158447265625
 30
0.0
  0
INSERT
  5
743
100
AcDbEntity
  8
0
  6
ByBlock
100
AcDbBlockReference
  2
F10MS-12
 10
-192.673583984375
 20
16.882130726089287
 30
0.0
  0
INSERT
  5
744
100
AcDbEntity
  8
0
  6
ByBlock
100
AcDbBlockReference
  2
F10MS-13
 10
251.23622090100088
 20
166.59494672969501
 30
0.0
  0
INSERT
  5
745
100
AcDbEntity
  8
0
  6
ByBlock
100
AcDbBlockReference
  2
F10MS-14
 10
251.23622090100088
 20
48.579349375719787
 30
0.0
  0
INSERT
  5
746
100
AcDbEntity
  8
0
  6
ByBlock
100
AcDbBlockReference
  2
F10MS-15
 10
-247.91378480601236
 20
-102.9253182505558
 30
0.0
  0
INSERT
  5
747
100
AcDbEntity
  8
0
  6
ByBlock
100
AcDbBlockReference
  2
F10MS-16
 10
-385.81
 20
-102.9253182505558
 30
0.0
  0
INSERT
  5
748
100
AcDbEntity
  8
0
  6
ByBlock
100
AcDbBlockReference
  2
F10MS-10
 10
-247.66379088568607
 20
-235.75807082608588
 30
0.0
  0
INSERT
  5
749
100
AcDbEntity
  8
0
  6
ByBlock
100
AcDbBlockReference
  2
F10MS-17
 10
-50.867343369372776
 20
-102.93177795410156
 30
0.0
  0
INSERT
  5
74A
100
AcDbEntity
  8
0
  6
ByBlock
100
AcDbBlockReference
  2
F10MS-2
 10
-179.05128479004043
 20
-102.93177795410156
 30
0.0
  0
INSERT
  5
74B
100
AcDbEntity
  8
0
  6
ByBlock
100
AcDbBlockReference
  2
F10MS-3
 10
-50.867343369372776
 20
-234.43176283273434
 30
0.0
  0
INSERT
  5
74C
100
AcDbEntity
  8
0
  6
ByBlock
100
AcDbBlockReference
  2
F10MS-4
 10
141.42372131347656
 20
-102.95383465866271
 30
0.0
  0
INSERT
  5
74D
100
AcDbEntity
  8
0
  6
ByBlock
100
AcDbBlockReference
  2
F10MS-5
 10
27.939755859372895
 20
-102.95383465866271
 30
0.0
  0
INSERT
  5
74E
100
AcDbEntity
  8
0
  6
ByBlock
100
AcDbBlockReference
  2
F10MS-6
 10
141.42372131347656
 20
-247.92999999999998
 30
0.0
  0
INSERT
  5
74F
100
AcDbEntity
  8
0
  6
ByBlock
100
AcDbBlockReference
  2
F10MS-7
 10
334.22279389955673
 20
-102.95383465866271
 30
0.0
  0
INSERT
  5
750
100
AcDbEntity
  8
0
  6
ByBlock
100
AcDbBlockReference
  2
F10MS-8
 10
209.7109374999979
 20
-102.95383465866271
 30
0.0
  0
INSERT
  5
751
100
AcDbEntity
  8
0
  6
ByBlock
100
AcDbBlockReference
  2
F10MS-9
 10
334.22279389955673
 20
-226.50603852420895
 30
0.0
  0
LINE
  5
752
100
AcDbEntity
  8
0
  6
CONTINUOUS
 62
               7
100
AcDbLine
 10
399.80000000000001
 20
276.25
 30
0.0
 11
399.80000000000001
 21
-276.75
 31
0.0
  0
LINE
  5
753
100
AcDbEntity
  8
0
  6
CONTINUOUS
 62
               7
100
AcDbLine
 10
-399.25
 20
276.25
 30
0.0
 11
-399.25
 21
-276.75
 31
0.0
  0
LINE
  5
754
100
AcDbEntity
  8
0
  6
CONTINUOUS
 62
               7
100
AcDbLine
 10
-399.25
 20
276.25
 30
0.0
 11
399.80000000000001
 21
276.25
 31
0.0
  0
LINE
  5
755
100
AcDbEntity
  8
0
  6
CONTINUOUS
 62
               7
100
AcDbLine
 10
-399.25
 20
-276.75
 30
0.0
 11
399.80000000000001
 21
-276.75
 31
0.0
  0
LINE
  5
756
100
AcDbEntity
  8
0
  6
CONTINUOUS
 62
               7
100
AcDbLine
 10
239.80000000000001
 20
-251.75
 30
0.0
 11
399.80000000000001
 21
-251.75
 31
0.0
  0
LINE
  5
757
100
AcDbEntity
  8
0
  6
CONTINUOUS
 62
               7
100
AcDbLine
 10
239.80000000000001
 20
251.25
 30
0.0
 11
399.80000000000001
 21
251.25
 31
0.0
  0
LINE
  5
758
100
AcDbEntity
  8
0
  6
CONTINUOUS
 62
               7
100
AcDbLine
 10
-399.25
 20
251.25
 30
0.0
 11
-239.25
 21
251.25
 31
0.0
  0
LINE
  5
759
100
AcDbEntity
  8
0
  6
CONTINUOUS
 62
               7
100
AcDbLine
 10
239.80000000000001
 20
-251.75
 30
0.0
 11
239.80000000000001
 21
-276.75
 31
0.0
  0
LINE
  5
75A
100
AcDbEntity
  8
0
  6
CONTINUOUS
 62
               7
100
AcDbLine
 10
239.80000000000001
 20
251.25
 30
0.0
 11
239.80000000000001
 21
276.25
 31
0.0
  0
LINE
  5
75B
100
AcDbEntity
  8
0
  6
CONTINUOUS
 62
               7
100
AcDbLine
 10
-239.25
 20
276.25
 30
0.0
 11
-239.25
 21
251.25
 31
0.0
  0
LINE
  5
75C
100
AcDbEntity
  8
0
  6
CONTINUOUS
 62
               7
100
AcDbLine
 10
-191.47999999999999
 20
-0.25
 30
0.0
 11
-191.47999999999999
 21
-276.75
 31
0.0
  0
LINE
  5
75D
100
AcDbEntity
  8
0
  6
CONTINUOUS
 62
               7
100
AcDbLine
 10
202.03
 20
-0.25
 30
0.0
 11
202.03
 21
-276.75
 31
0.0
  0
LINE
  5
75E
100
AcDbEntity
  8
0
  6
CONTINUOUS
 62
               7
100
AcDbLine
 10
-399.25
 20
-0.25
 30
0.0
 11
399.80000000000001
 21
-0.25
 31
0.0
  0
LINE
  5
75F
100
AcDbEntity
  8
0
  6
CONTINUOUS
 62
               7
100
AcDbLine
 10
0.27
 20
-0.25
 30
0.0
 11
0.27
 21
-276.75
 31
0.0
  0
LINE
  5
760
100
AcDbEntity
  8
0
  6
CONTINUOUS
 62
               7
100
AcDbLine
 10
101.15000000000001
 20
-0.25
 30
0.0
 11
101.15000000000001
 21
276.25
 31
0.0
  0
MTEXT
  5
761
100
AcDbEntity
  8
0
  6
CONTINUOUS
 62
               7
100
AcDbMText
 10
245.88456269755227
 20
-264.25
 30
0.0
 40
12.5
 41
0.0
 71
               4
 72
               1
  1
\W1.121;\A1;KOGANEI CORP.
  0
MTEXT
  5
762
100
AcDbEntity
  8
0
  6
CONTINUOUS
 62
               7
100
AcDbMText
 10
290.09979829720089
 20
263.75
 30
0.0
 40
9.0
 41
0.0
 71
               4
 72
               1
  1
\W1.200;\A1;Ver.3.0
  0
MTEXT
  5
763
100
AcDbEntity
  8
0
  6
CONTINUOUS
 62
               7
100
AcDbMText
 10
-382.07000061279928
 20
-20.25
 30
0.0
 40
9.0
 41
0.0
 71
               4
 72
               1
  1
\W1.120;\A1;MODEL:F10T1-FJ
  0
MTEXT
  5
764
100
AcDbEntity
  8
0
  6
CONTINUOUS
 62
               7
100
AcDbMText
 10
-362.5389820623364
 20
263.75
 30
0.0
 40
9.0
 41
0.0
 71
               4
 72
               1
  1
\W1.141;\A1;F10 SERIES
  0
MTEXT
  5
765
100
AcDbEntity
  8
0
  6
CONTINUOUS
 62
               7
100
AcDbMText
 10
118.31777122816349
 20
231.25
 30
0.0
 40
9.0
 41
0.0
 71
               4
 72
               1
  1
\W1.108;\A1;MODEL:F10BPP
  0
MTEXT
  5
766
100
AcDbEntity
  8
0
  6
CONTINUOUS
 62
               7
100
AcDbMText
 10
219.18537764876965
 20
-20.25
 30
0.0
 40
9.0
 41
0.0
 71
               4
 72
               1
  1
\W1.099;\A1;MODEL:F10Z-PM
  0
MTEXT
  5
767
100
AcDbEntity
  8
0
  6
CONTINUOUS
 62
               7
100
AcDbMText
 10
17.422880700527454
 20
-20.25
 30
0.0
 40
9.0
 41
0.0
 71
               4
 72
               1
  1
\W1.099;\A1;MODEL:F10Z-PJ
  0
MTEXT
  5
768
100
AcDbEntity
  8
0
  6
CONTINUOUS
 62
               7
100
AcDbMText
 10
-174.30750366455715
 20
-20.25
 30
0.0
 40
9.0
 41
0.0
 71
               4
 72
               1
  1
\W1.120;\A1;MODEL:F10T1-FM
  0
MTEXT
  5
769
100
AcDbEntity
  8
0
  6
CONTINUOUS
 62
               7
100
AcDbMText
 10
-382.0328953844288
 20
231.25
 30
0.0
 40
9.0
 41
0.0
 71
               4
 72
               1
  1
\W1.145;\A1;MODEL:F10Z-E,F10Z-F201,YS201L
  0
ENDSEC
  0
SECTION
  2
OBJECTS
  0
DICTIONARY
  5
19
100
AcDbDictionary
  3
ACAD_GROUP
350
1A
  3
ACAD_MLINESTYLE
350
1B
  0
DICTIONARY
  5
1A
102
{ACAD_REACTORS
330
19
102
}
100
AcDbDictionary
  0
DICTIONARY
  5
1B
102
{ACAD_REACTORS
330
19
102
}
100
AcDbDictionary
  3
STANDARD
350
1C
  0
MLINESTYLE
  5
1C
102
{ACAD_REACTORS
330
1B
102
}
100
AcDbMlineStyle
  2
Standard
 70
               0
  3

 62
               0
 51
90.0
 52
90.0
 71
               2
 49
0.5
 62
             256
  6
ByLayer
 49
-0.5
 62
             256
  6
ByLayer
  0
ENDSEC
  0
EOF
